  0
SECTION
  2
HEADER
  9
$EXTMAX
 10
420.0
 20
297.0
 30
0.0
  9
$EXTMIN
 10
0.0
 20
0.0
 30
0.0
  9
$LIMMIN
 10
0.0
 20
0.0
  9
$LIMMAX
 10
420.0
 20
297.0
  9
$VIEWCTR
 10
210.0
 20
148.5
  9
$VIEWSIZE
 40
297.0
  9
$CLAYER
  8
0
  9
$LTSCALE
 40
23.1
  9
$CELTYPE
  6
BYLAYER
  9
$DIMSCALE
 40
1.0
  9
$DIMASZ
 40
3.5
  9
$DIMEXO
 40
1.0
  9
$DIMDLI
 40
15.96
  9
$DIMEXE
 40
2.0
  9
$DIMCEN
 40
3.78
  9
$DIMLFAC
 40
1.0
  9
$DIMBLK
  1
_FILLED
  9
$DIMTXT
 40
3.5
  9
$PDMODE
 70
3
  9
$PDSIZE
 40
0.3125
  9
$TILEMODE
 70
1
  0
ENDSEC
  0
SECTION
  2
TABLES
  0
TABLE
  2
LTYPE
 70
6
  0
LTYPE
  2
BYBLOCK
 70
0
  3

 72
65
 73
0
 40
0.0
  0
LTYPE
  2
BYLAYER
 70
0
  3

 72
65
 73
0
 40
0.0
  0
LTYPE
  2
CONTINUOUS
 70
64
  3
Solid line
 72
65
 73
0
 40
0.0
  0
LTYPE
  2
CENTER
 70
64
  3
____ _ ____ _ ____ _ ____ _ ____ _ ____ _ ____
 72
65
 73
4
 40
0.6
 49
0.375
 49
-0.075
 49
0.075
 49
-0.075
  0
LTYPE
  2
HIDDEN
 70
64
  3
- - - - - - - - - - - - - - - - - - - -
 72
65
 73
2
 40
0.2
 49
0.1
 49
-0.1
  0
LTYPE
  2
PHANTOM
 70
64
  3
_____ _ _ _____ _ _ _____ _ _ _____
 72
65
 73
6
 40
0.8
 49
0.45
 49
-0.05
 49
0.1
 49
-0.05
 49
0.1
 49
-0.05
  0
LTYPE
  2
DOT
 70
64
  3
. . . . . . . . . . . . . . . . . . . .
 72
65
 73
2
 40
0.2
 49
0.1
 49
-0.1
  0
LTYPE
  2
DASHED
 70
64
  3
- - - - - - - - - - - - - - - - - - - -
 72
65
 73
2
 40
0.2
 49
0.1
 49
-0.1
  0
ENDTAB
  0
TABLE
  2
LAYER
 70
36
  0
LAYER
  2
0
 70
0
 62
7
  6
CONTINUOUS
  0
LAYER
  2
DEFAULT_1
 70
0
 62
7
  6
CENTER
  0
LAYER
  2
DEFAULT_2
 70
0
 62
8
  6
HIDDEN
  0
LAYER
  2
DEFAULT_3
 70
0
 62
7
  6
PHANTOM
  0
LAYER
  2
1_AXIS
 70
0
 62
7
  6
CONTINUOUS
  0
LAYER
  2
1_DATUMPLANE
 70
0
 62
7
  6
CONTINUOUS
  0
LAYER
  2
1_DATUM_PLANES
 70
0
 62
7
  6
CONTINUOUS
  0
LAYER
  2
2_FEATURE
 70
0
 62
7
  6
CONTINUOUS
  0
LAYER
  2
3_CURVE
 70
0
 62
7
  6
CONTINUOUS
  0
LAYER
  2
4_QUILT
 70
0
 62
7
  6
CONTINUOUS
  0
LAYER
  2
4_SURFACE
 70
0
 62
7
  6
CONTINUOUS
  0
LAYER
  2
6_DIM
 70
0
 62
7
  6
CONTINUOUS
  0
LAYER
  2
COPY_GEO
 70
0
 62
7
  6
CONTINUOUS
  0
LAYER
  2
CSYS
 70
0
 62
7
  6
CONTINUOUS
  0
LAYER
  2
CURVE
 70
0
 62
7
  6
CONTINUOUS
  0
LAYER
  2
NOTES
 70
0
 62
7
  6
CONTINUOUS
  0
LAYER
  2
SURFACE
 70
0
 62
7
  6
CONTINUOUS
  0
ENDTAB
  0
TABLE
  2
STYLE
 70
1
  0
STYLE
  2
STANDARD
 70
0
 40
0.0
 41
0.8
 50
0.0
 71
0
 42
0.2
  3
txt
  4

  0
STYLE
  2
TEXTSTYLE_1
 70
0
 40
0.0
 41
0.8
 50
0.0
 71
0
 42
0.2
  3
gdt
  4

  0
STYLE
  2
TEXTSTYLE_2
 70
0
 40
0.0
 41
0.6
 50
0.0
 71
0
 42
0.2
  3
txt
  4

  0
STYLE
  2
TEXTSTYLE_3
 70
0
 40
0.0
 41
1.0
 50
0.0
 71
0
 42
0.2
  3
ftb_____.ttf
  4

  0
STYLE
  2
TEXTSTYLE_4
 70
0
 40
0.0
 41
1.0
 50
0.0
 71
0
 42
0.2
  3
fti_____.ttf
  4

  0
STYLE
  2
TEXTSTYLE_5
 70
0
 40
0.0
 41
1.0
 50
0.0
 71
0
 42
0.2
  3
frutiger light.ttf
  4

  0
STYLE
  2
TEXTSTYLE_6
 70
0
 40
0.0
 41
0.7
 50
0.0
 71
0
 42
0.2
  3
txt
  4

  0
STYLE
  2
TEXTSTYLE_7
 70
0
 40
0.0
 41
0.7
 50
0.0
 71
0
 42
0.2
  3
txt
  4

  0
ENDTAB
  0
ENDSEC
  0
SECTION
  2
BLOCKS
  0
BLOCK
  8
0
 62
2
  6
CONTINUOUS
  2
SYMBOL_5_BL1
 70
64
 10
382.7840918555
 20
35.5067593403
  0
TEXT
  8
0
 62
7
  6
CONTINUOUS
 10
373.842376864
 20
30.5995157174
  7
TEXTSTYLE_4
 40
1.0655737705
  1
The brand for plastic modular belts and chains
 41
1.0
 72
0
  0
LINE
  8
0
 62
7
  6
CONTINUOUS
 10
358.7621602445
 20
36.0805298321
 11
358.7621602445
 21
33.9493822911
  0
LINE
  8
0
 62
7
  6
CONTINUOUS
 10
359.0512227376
 20
30.9584509954
 11
359.0512227376
 21
31.0552420547
  0
LINE
  8
0
 62
7
  6
CONTINUOUS
 10
358.7621602445
 20
31.0229783683
 11
358.8199727462
 21
30.8293962497
  0
LINE
  8
0
 62
7
  6
CONTINUOUS
 10
360.1556028675
 20
33.867415078
 11
360.1556028675
 21
36.0805298321
  0
LINE
  8
0
 62
7
  6
CONTINUOUS
 10
361.0746601894
 20
32.0231527829
 11
361.0746601894
 21
30.5067593403
  0
LINE
  8
0
 62
7
  6
CONTINUOUS
 10
361.3637227445
 20
30.5067593403
 11
361.3637227445
 21
31.2488242184
  0
LINE
  8
0
 62
7
  6
CONTINUOUS
 10
361.3637227445
 20
31.3778789641
 11
361.3637227445
 21
32.0231527829
  0
LINE
  8
0
 62
7
  6
CONTINUOUS
 10
358.8199727462
 20
31.216560532
 11
358.7621602445
 21
31.0229783683
  0
LINE
  8
0
 62
7
  6
CONTINUOUS
 10
359.1668477307
 20
30.7971325633
 11
359.0512227376
 21
30.9584509954
  0
LINE
  8
0
 62
7
  6
CONTINUOUS
 10
360.2652852997
 20
31.3133515913
 11
360.3230977445
 21
31.216560532
  0
LINE
  8
0
 62
7
  6
CONTINUOUS
 10
360.6121602997
 20
31.216560532
 11
360.5543476894
 21
31.3456152777
  0
LINE
  8
0
 62
7
  6
CONTINUOUS
 10
362.0408487691
 20
36.0805298321
 11
362.0408487691
 21
34.2772511436
  0
LINE
  8
0
 62
7
  6
CONTINUOUS
 10
362.0408487691
 20
32.9657757338
 11
362.0408487691
 21
32.3100380288
  0
LINE
  8
0
 62
7
  6
CONTINUOUS
 10
362.4043477445
 20
31.1520331591
 11
362.4043477445
 21
30.5067593403
  0
LINE
  8
0
 62
7
  6
CONTINUOUS
 10
362.6934101343
 20
30.5067593403
 11
362.6934101343
 21
31.1520331591
  0
LINE
  8
0
 62
7
  6
CONTINUOUS
 10
359.0512227376
 20
31.0552420547
 11
359.1090352445
 21
31.1842968456
  0
LINE
  8
0
 62
7
  6
CONTINUOUS
 10
358.8199727462
 20
30.8293962497
 11
358.9355977445
 21
30.7003414814
  0
LINE
  8
0
 62
7
  6
CONTINUOUS
 10
362.3465351343
 20
31.2810879048
 11
362.4043477445
 21
31.1520331591
  0
LINE
  8
0
 62
7
  6
CONTINUOUS
 10
363.1559103548
 20
30.7971325633
 11
363.2137226343
 21
30.668077795
  0
LINE
  8
0
 62
7
  6
CONTINUOUS
 10
362.6934101343
 20
31.1520331591
 11
362.6355978548
 21
31.3133515913
  0
LINE
  8
0
 62
7
  6
CONTINUOUS
 10
363.1559103548
 20
31.3456152777
 11
363.1559103548
 21
31.2810879048
  0
LINE
  8
0
 62
7
  6
CONTINUOUS
 10
363.1559103548
 20
30.8939236226
 11
363.1559103548
 21
30.7971325633
  0
LINE
  8
0
 62
7
  6
CONTINUOUS
 10
363.4342913921
 20
32.3100380288
 11
363.4342913921
 21
36.0805298321
  0
LINE
  8
0
 62
7
  6
CONTINUOUS
 10
363.4449727445
 20
30.7648688543
 11
363.4449727445
 21
30.8293962497
  0
LINE
  8
0
 62
7
  6
CONTINUOUS
 10
363.7621602445
 20
36.0805298321
 11
363.7621602445
 21
32.3100380288
  0
LINE
  8
0
 62
7
  6
CONTINUOUS
 10
360.5543476894
 20
30.7003414814
 11
360.6121602997
 21
30.8293962497
  0
LINE
  8
0
 62
7
  6
CONTINUOUS
 10
364.9480979651
 20
30.6035504109
 11
364.890285024
 21
30.7648688543
  0
LINE
  8
0
 62
7
  6
CONTINUOUS
 10
364.6012229651
 20
31.2810879048
 11
364.6012229651
 21
31.1842968456
  0
LINE
  8
0
 62
7
  6
CONTINUOUS
 10
364.6012229651
 20
31.0552420547
 11
364.6012229651
 21
30.8616599362
  0
LINE
  8
0
 62
7
  6
CONTINUOUS
 10
364.890285024
 20
30.7648688543
 11
364.890285024
 21
31.2810879048
  0
LINE
  8
0
 62
7
  6
CONTINUOUS
 10
365.1556028675
 20
32.3100380288
 11
365.1556028675
 21
34.1133167174
  0
LINE
  8
0
 62
7
  6
CONTINUOUS
 10
365.1556028675
 20
35.4247921272
 11
365.1556028675
 21
36.0805298321
  0
LINE
  8
0
 62
7
  6
CONTINUOUS
 10
365.4684104651
 20
32.0231527829
 11
365.4684104651
 21
31.8618343508
  0
LINE
  8
0
 62
7
  6
CONTINUOUS
 10
365.4684104651
 20
31.5391973962
 11
365.4684104651
 21
30.5067593403
  0
LINE
  8
0
 62
7
  6
CONTINUOUS
 10
365.757472524
 20
30.5067593403
 11
365.757472524
 21
31.5391973962
  0
LINE
  8
0
 62
7
  6
CONTINUOUS
 10
365.757472524
 20
31.8618343508
 11
365.757472524
 21
32.0231527829
  0
LINE
  8
0
 62
7
  6
CONTINUOUS
 10
360.3230977445
 20
30.8293962497
 11
360.2652852997
 21
30.7326051679
  0
LINE
  8
0
 62
7
  6
CONTINUOUS
 10
362.6355978548
 20
31.3133515913
 11
362.5777852445
 21
31.3778789641
  0
LINE
  8
0
 62
7
  6
CONTINUOUS
 10
363.5027853548
 20
30.7003414814
 11
363.4449727445
 21
30.7648688543
  0
LINE
  8
0
 62
7
  6
CONTINUOUS
 10
364.6590352445
 20
30.5712867188
 11
364.716847524
 21
30.5067593403
  0
LINE
  8
0
 62
7
  6
CONTINUOUS
 10
364.6012229651
 20
30.668077795
 11
364.6590352445
 21
30.5712867188
  0
LINE
  8
0
 62
7
  6
CONTINUOUS
 10
365.0059102445
 20
30.5067593403
 11
364.9480979651
 21
30.6035504109
  0
LINE
  8
0
 62
7
  6
CONTINUOUS
 10
364.890285024
 20
31.2810879048
 11
364.8324727445
 21
31.3778789641
  0
LINE
  8
0
 62
7
  6
CONTINUOUS
 10
366.2199727445
 20
31.5391973962
 11
366.2199727445
 21
30.5067593403
  0
LINE
  8
0
 62
7
  6
CONTINUOUS
 10
366.5090354651
 20
30.5067593403
 11
366.5090354651
 21
31.2488242184
  0
LINE
  8
0
 62
7
  6
CONTINUOUS
 10
366.5090354651
 20
31.3778789641
 11
366.5090354651
 21
31.5391973962
  0
LINE
  8
0
 62
7
  6
CONTINUOUS
 10
367.0408487691
 20
34.5231527829
 11
367.0408487691
 21
32.3100380288
  0
LINE
  8
0
 62
7
  6
CONTINUOUS
 10
358.9355977445
 20
31.3456152777
 11
358.8199727462
 21
31.216560532
  0
LINE
  8
0
 62
7
  6
CONTINUOUS
 10
359.1090352445
 20
31.1842968456
 11
359.1668477307
 21
31.2488242184
  0
LINE
  8
0
 62
7
  6
CONTINUOUS
 10
358.9355977445
 20
30.7003414814
 11
359.0512227376
 21
30.6358140973
  0
LINE
  8
0
 62
7
  6
CONTINUOUS
 10
359.3402852307
 20
30.7003414814
 11
359.1668477307
 21
30.7971325633
  0
LINE
  8
0
 62
7
  6
CONTINUOUS
 10
364.543410024
 20
31.3456152777
 11
364.6012229651
 21
31.2810879048
  0
LINE
  8
0
 62
7
  6
CONTINUOUS
 10
367.491847524
 20
31.2810879048
 11
367.5496604651
 21
31.1197694727
  0
LINE
  8
0
 62
7
  6
CONTINUOUS
 10
367.838722524
 20
31.1197694727
 11
367.7809102445
 21
31.2810879048
  0
LINE
  8
0
 62
7
  6
CONTINUOUS
 10
367.5496604651
 20
31.1197694727
 11
367.5496604651
 21
30.5067593403
  0
LINE
  8
0
 62
7
  6
CONTINUOUS
 10
367.838722524
 20
30.5067593403
 11
367.838722524
 21
31.1197694727
  0
LINE
  8
0
 62
7
  6
CONTINUOUS
 10
368.3012227445
 20
31.3456152777
 11
368.3012227445
 21
31.2810879048
  0
LINE
  8
0
 62
7
  6
CONTINUOUS
 10
368.4342913921
 20
32.3100380288
 11
368.4342913921
 21
34.4411855698
  0
LINE
  8
0
 62
7
  6
CONTINUOUS
 10
368.7621602445
 20
36.0805298321
 11
368.7621602445
 21
32.3100380288
  0
LINE
  8
0
 62
7
  6
CONTINUOUS
 10
363.4449727445
 20
30.8293962497
 11
363.5027853548
 21
30.926187309
  0
LINE
  8
0
 62
7
  6
CONTINUOUS
 10
359.0512227376
 20
30.6358140973
 11
359.2246602583
 21
30.5712867188
  0
LINE
  8
0
 62
7
  6
CONTINUOUS
 10
360.5543476894
 20
31.3456152777
 11
360.3809101894
 21
31.4424063369
  0
LINE
  8
0
 62
7
  6
CONTINUOUS
 10
363.2137226343
 20
30.668077795
 11
363.3871601343
 21
30.5712867188
  0
LINE
  8
0
 62
7
  6
CONTINUOUS
 10
362.2309102445
 20
31.3456152777
 11
362.3465351343
 21
31.2810879048
  0
LINE
  8
0
 62
7
  6
CONTINUOUS
 10
362.5777852445
 20
31.3778789641
 11
362.4621603548
 21
31.4424063369
  0
LINE
  8
0
 62
7
  6
CONTINUOUS
 10
368.3012227445
 20
30.7648688543
 11
368.4168479651
 21
30.6358140973
  0
LINE
  8
0
 62
7
  6
CONTINUOUS
 10
368.6480977445
 20
30.7003414814
 11
368.5902854651
 21
30.7648688543
  0
LINE
  8
0
 62
7
  6
CONTINUOUS
 10
368.3012227445
 20
31.2810879048
 11
368.4168479651
 21
31.1520331591
  0
LINE
  8
0
 62
7
  6
CONTINUOUS
 10
367.7809102445
 20
31.2810879048
 11
367.7230979651
 21
31.3778789641
  0
LINE
  8
0
 62
7
  6
CONTINUOUS
 10
370.1512223035
 20
30.7003414814
 11
370.1512223035
 21
30.7648688543
  0
LINE
  8
0
 62
7
  6
CONTINUOUS
 10
370.1556028675
 20
32.3100380288
 11
370.1556028675
 21
36.0805298321
  0
LINE
  8
0
 62
7
  6
CONTINUOUS
 10
363.2137226343
 20
31.4101426505
 11
363.1559103548
 21
31.3456152777
  0
LINE
  8
0
 62
7
  6
CONTINUOUS
 10
360.091847717
 20
31.3778789641
 11
360.2652852997
 21
31.3133515913
  0
LINE
  8
0
 62
7
  6
CONTINUOUS
 10
364.8324727445
 20
31.3778789641
 11
364.716847524
 21
31.4424063369
  0
LINE
  8
0
 62
7
  6
CONTINUOUS
 10
368.6480977445
 20
31.216560532
 11
368.5902854651
 21
31.2810879048
  0
LINE
  8
0
 62
7
  6
CONTINUOUS
 10
369.8043479651
 20
30.8293962497
 11
369.8621602445
 21
30.7648688543
  0
LINE
  8
0
 62
7
  6
CONTINUOUS
 10
370.1512223035
 20
30.7648688543
 11
370.0355977445
 21
30.8939236226
  0
LINE
  8
0
 62
7
  6
CONTINUOUS
 10
369.8043479651
 20
31.3456152777
 11
369.8621602445
 21
31.2810879048
  0
LINE
  8
0
 62
7
  6
CONTINUOUS
 10
370.1512223035
 20
31.2810879048
 11
370.0355977445
 21
31.4101426505
  0
LINE
  8
0
 62
7
  6
CONTINUOUS
 10
363.4449727445
 20
31.2810879048
 11
363.5027853548
 21
31.3456152777
  0
LINE
  8
0
 62
7
  6
CONTINUOUS
 10
363.2715352445
 20
31.0229783683
 11
363.1559103548
 21
30.8939236226
  0
LINE
  8
0
 62
7
  6
CONTINUOUS
 10
364.6012229651
 20
30.8616599362
 11
364.543410024
 21
30.7971325633
  0
LINE
  8
0
 62
7
  6
CONTINUOUS
 10
364.543410024
 20
30.6035504109
 11
364.6012229651
 21
30.668077795
  0
LINE
  8
0
 62
7
  6
CONTINUOUS
 10
363.3871601343
 20
30.5712867188
 11
363.5027853548
 21
30.5390230296
  0
LINE
  8
0
 62
7
  6
CONTINUOUS
 10
360.3809101894
 20
31.4424063369
 11
360.1496602445
 21
31.5069337098
  0
LINE
  8
0
 62
7
  6
CONTINUOUS
 10
363.7340351343
 20
30.6358140973
 11
363.5027853548
 21
30.7003414814
  0
LINE
  8
0
 62
7
  6
CONTINUOUS
 10
362.4621603548
 20
31.4424063369
 11
362.2887228548
 21
31.5069337098
  0
LINE
  8
0
 62
7
  6
CONTINUOUS
 10
364.716847524
 20
31.4424063369
 11
364.543410024
 21
31.5069337098
  0
LINE
  8
0
 62
7
  6
CONTINUOUS
 10
367.3762229651
 20
31.3456152777
 11
367.491847524
 21
31.2810879048
  0
LINE
  8
0
 62
7
  6
CONTINUOUS
 10
367.7230979651
 20
31.3778789641
 11
367.6074727445
 21
31.4424063369
  0
LINE
  8
0
 62
7
  6
CONTINUOUS
 10
359.2246602583
 20
30.5712867188
 11
359.3980977583
 21
30.5390230296
  0
LINE
  8
0
 62
7
  6
CONTINUOUS
 10
359.6871602721
 20
30.6358140973
 11
359.3402852307
 21
30.7003414814
  0
LINE
  8
0
 62
7
  6
CONTINUOUS
 10
362.1152853548
 20
31.3778789641
 11
362.2309102445
 21
31.3456152777
  0
LINE
  8
0
 62
7
  6
CONTINUOUS
 10
364.4277854651
 20
31.3778789641
 11
364.543410024
 21
31.3456152777
  0
LINE
  8
0
 62
7
  6
CONTINUOUS
 10
368.7637229651
 20
30.668077795
 11
368.6480977445
 21
30.7003414814
  0
LINE
  8
0
 62
7
  6
CONTINUOUS
 10
367.2605977445
 20
31.3778789641
 11
367.3762229651
 21
31.3456152777
  0
LINE
  8
0
 62
7
  6
CONTINUOUS
 10
368.4168479651
 20
30.6358140973
 11
368.5902854651
 21
30.5712867188
  0
LINE
  8
0
 62
7
  6
CONTINUOUS
 10
367.6074727445
 20
31.4424063369
 11
367.4340352445
 21
31.5069337098
  0
LINE
  8
0
 62
7
  6
CONTINUOUS
 10
368.8215352445
 20
31.1520331591
 11
368.6480977445
 21
31.216560532
  0
LINE
  8
0
 62
7
  6
CONTINUOUS
 10
369.6309104651
 20
30.8939236226
 11
369.8043479651
 21
30.8293962497
  0
LINE
  8
0
 62
7
  6
CONTINUOUS
 10
370.0355977445
 20
31.4101426505
 11
369.8621602445
 21
31.4746700234
  0
LINE
  8
0
 62
7
  6
CONTINUOUS
 10
368.4168479651
 20
31.1520331591
 11
368.6480977445
 21
31.0552420547
  0
LINE
  8
0
 62
7
  6
CONTINUOUS
 10
370.0355977445
 20
30.8939236226
 11
369.8043479651
 21
30.9907146818
  0
LINE
  8
0
 62
7
  6
CONTINUOUS
 10
368.5902854651
 20
31.2810879048
 11
368.6480977445
 21
31.3456152777
  0
LINE
  8
0
 62
7
  6
CONTINUOUS
 10
359.0512227376
 20
31.4101426505
 11
358.9355977445
 21
31.3456152777
  0
LINE
  8
0
 62
7
  6
CONTINUOUS
 10
359.1668477307
 20
31.2488242184
 11
359.3402852307
 21
31.3456152777
  0
LINE
  8
0
 62
7
  6
CONTINUOUS
 10
361.4793477997
 20
31.4424063369
 11
361.3637227445
 21
31.3778789641
  0
LINE
  8
0
 62
7
  6
CONTINUOUS
 10
361.3637227445
 20
31.2488242184
 11
361.4793477997
 21
31.3133515913
  0
LINE
  8
0
 62
7
  6
CONTINUOUS
 10
360.3809101894
 20
30.6035504109
 11
360.5543476894
 21
30.7003414814
  0
LINE
  8
0
 62
7
  6
CONTINUOUS
 10
359.3980977583
 20
30.5390230296
 11
359.744972717
 21
30.5067593403
  0
LINE
  8
0
 62
7
  6
CONTINUOUS
 10
363.5027853548
 20
30.5390230296
 11
363.7340351343
 21
30.5067593403
  0
LINE
  8
0
 62
7
  6
CONTINUOUS
 10
361.8840352445
 20
31.4101426505
 11
362.1152853548
 21
31.3778789641
  0
LINE
  8
0
 62
7
  6
CONTINUOUS
 10
364.1965353548
 20
31.4101426505
 11
364.4277854651
 21
31.3778789641
  0
LINE
  8
0
 62
7
  6
CONTINUOUS
 10
368.6480977445
 20
31.0552420547
 11
369.6309104651
 21
30.8939236226
  0
LINE
  8
0
 62
7
  6
CONTINUOUS
 10
369.8043479651
 20
30.9907146818
 11
368.8215352445
 21
31.1520331591
  0
LINE
  8
0
 62
7
  6
CONTINUOUS
 10
362.2887228548
 20
31.5069337098
 11
362.1152853548
 21
31.5391973962
  0
LINE
  8
0
 62
7
  6
CONTINUOUS
 10
368.5902854651
 20
30.5712867188
 11
368.7637229651
 21
30.5390230296
  0
LINE
  8
0
 62
7
  6
CONTINUOUS
 10
367.4340352445
 20
31.5069337098
 11
367.2605977445
 21
31.5391973962
  0
LINE
  8
0
 62
7
  6
CONTINUOUS
 10
369.6887227445
 20
31.3778789641
 11
369.8043479651
 21
31.3456152777
  0
LINE
  8
0
 62
7
  6
CONTINUOUS
 10
369.8621602445
 20
30.7648688543
 11
369.8043479651
 21
30.7003414814
  0
LINE
  8
0
 62
7
  6
CONTINUOUS
 10
368.4168479651
 20
31.4424063369
 11
368.3012227445
 21
31.3456152777
  0
LINE
  8
0
 62
7
  6
CONTINUOUS
 10
363.3293478548
 20
31.4746700234
 11
363.2137226343
 21
31.4101426505
  0
LINE
  8
0
 62
7
  6
CONTINUOUS
 10
363.3871601343
 20
31.0875057863
 11
363.2715352445
 21
31.0229783683
  0
LINE
  8
0
 62
7
  6
CONTINUOUS
 10
363.5027853548
 20
30.926187309
 11
363.6184102445
 21
30.9907146818
  0
LINE
  8
0
 62
7
  6
CONTINUOUS
 10
361.0746601894
 20
30.5067593403
 11
361.3637227445
 21
30.5067593403
  0
LINE
  8
0
 62
7
  6
CONTINUOUS
 10
362.4043477445
 20
30.5067593403
 11
362.6934101343
 21
30.5067593403
  0
LINE
  8
0
 62
7
  6
CONTINUOUS
 10
363.7340351343
 20
30.5067593403
 11
364.0809101343
 21
30.5067593403
  0
LINE
  8
0
 62
7
  6
CONTINUOUS
 10
364.716847524
 20
30.5067593403
 11
365.0059102445
 21
30.5067593403
  0
LINE
  8
0
 62
7
  6
CONTINUOUS
 10
365.4684104651
 20
30.5067593403
 11
365.757472524
 21
30.5067593403
  0
LINE
  8
0
 62
7
  6
CONTINUOUS
 10
366.2199727445
 20
30.5067593403
 11
366.5090354651
 21
30.5067593403
  0
LINE
  8
0
 62
7
  6
CONTINUOUS
 10
367.5496604651
 20
30.5067593403
 11
367.838722524
 21
30.5067593403
  0
LINE
  8
0
 62
7
  6
CONTINUOUS
 10
369.1105979651
 20
30.5067593403
 11
369.4574729651
 21
30.5067593403
  0
LINE
  8
0
 62
7
  6
CONTINUOUS
 10
369.4574729651
 20
30.6358140973
 11
369.1105979651
 21
30.6358140973
  0
LINE
  8
0
 62
7
  6
CONTINUOUS
 10
364.0809101343
 20
30.6358140973
 11
363.7340351343
 21
30.6358140973
  0
LINE
  8
0
 62
7
  6
CONTINUOUS
 10
368.5902854651
 20
30.7648688543
 11
368.3012227445
 21
30.7648688543
  0
LINE
  8
0
 62
7
  6
CONTINUOUS
 10
360.6121602997
 20
30.8293962497
 11
360.3230977445
 21
30.8293962497
  0
LINE
  8
0
 62
7
  6
CONTINUOUS
 10
359.6871602721
 20
31.4101426505
 11
360.091847717
 21
31.3778789641
  0
LINE
  8
0
 62
7
  6
CONTINUOUS
 10
360.1496602445
 20
31.5069337098
 11
359.744972717
 21
31.5391973962
  0
LINE
  8
0
 62
7
  6
CONTINUOUS
 10
368.7637229651
 20
30.5390230296
 11
369.1105979651
 21
30.5067593403
  0
LINE
  8
0
 62
7
  6
CONTINUOUS
 10
369.1105979651
 20
30.6358140973
 11
368.7637229651
 21
30.668077795
  0
LINE
  8
0
 62
7
  6
CONTINUOUS
 10
364.543410024
 20
31.5069337098
 11
364.1965353548
 21
31.5391973962
  0
LINE
  8
0
 62
7
  6
CONTINUOUS
 10
369.3418477445
 20
31.4101426505
 11
369.6887227445
 21
31.3778789641
  0
LINE
  8
0
 62
7
  6
CONTINUOUS
 10
369.6887227445
 20
31.5069337098
 11
369.3418477445
 21
31.5391973962
  0
LINE
  8
0
 62
7
  6
CONTINUOUS
 10
367.0293479651
 20
31.4101426505
 11
367.2605977445
 21
31.3778789641
  0
LINE
  8
0
 62
7
  6
CONTINUOUS
 10
369.8621602445
 20
31.4746700234
 11
369.6887227445
 21
31.5069337098
  0
LINE
  8
0
 62
7
  6
CONTINUOUS
 10
370.0355977445
 20
30.6035504109
 11
370.1512223035
 21
30.7003414814
  0
LINE
  8
0
 62
7
  6
CONTINUOUS
 10
364.543410024
 20
30.7971325633
 11
364.369972524
 21
30.7003414814
  0
LINE
  8
0
 62
7
  6
CONTINUOUS
 10
366.624660024
 20
31.4424063369
 11
366.5090354651
 21
31.3778789641
  0
LINE
  8
0
 62
7
  6
CONTINUOUS
 10
366.5090354651
 20
31.2488242184
 11
366.624660024
 21
31.3133515913
  0
LINE
  8
0
 62
7
  6
CONTINUOUS
 10
359.2246602583
 20
31.4746700234
 11
359.0512227376
 21
31.4101426505
  0
LINE
  8
0
 62
7
  6
CONTINUOUS
 10
361.6527851343
 20
31.5069337098
 11
361.4793477997
 21
31.4424063369
  0
LINE
  8
0
 62
7
  6
CONTINUOUS
 10
361.4793477997
 20
31.3133515913
 11
361.6527851343
 21
31.3778789641
  0
LINE
  8
0
 62
7
  6
CONTINUOUS
 10
360.2652852997
 20
30.7326051679
 11
360.091847717
 21
30.668077795
  0
LINE
  8
0
 62
7
  6
CONTINUOUS
 10
369.6887227445
 20
30.668077795
 11
369.4574729651
 21
30.6358140973
  0
LINE
  8
0
 62
7
  6
CONTINUOUS
 10
364.0809101343
 20
30.5067593403
 11
364.369972524
 21
30.5390230296
  0
LINE
  8
0
 62
7
  6
CONTINUOUS
 10
369.4574729651
 20
30.5067593403
 11
369.8043479651
 21
30.5390230296
  0
LINE
  8
0
 62
7
  6
CONTINUOUS
 10
359.744972717
 20
30.5067593403
 11
360.1496602445
 21
30.5390230296
  0
LINE
  8
0
 62
7
  6
CONTINUOUS
 10
360.091847717
 20
30.668077795
 11
359.6871602721
 21
30.6358140973
  0
LINE
  8
0
 62
7
  6
CONTINUOUS
 10
363.9652852445
 20
31.0552420547
 11
364.6012229651
 21
31.0552420547
  0
LINE
  8
0
 62
7
  6
CONTINUOUS
 10
364.6012229651
 20
31.1842968456
 11
363.9652852445
 21
31.1842968456
  0
LINE
  8
0
 62
7
  6
CONTINUOUS
 10
360.3230977445
 20
31.216560532
 11
360.6121602997
 21
31.216560532
  0
LINE
  8
0
 62
7
  6
CONTINUOUS
 10
363.1559103548
 20
31.2810879048
 11
363.4449727445
 21
31.2810879048
  0
LINE
  8
0
 62
7
  6
CONTINUOUS
 10
369.8621602445
 20
31.2810879048
 11
370.1512223035
 21
31.2810879048
  0
LINE
  8
0
 62
7
  6
CONTINUOUS
 10
363.8496603548
 20
31.4101426505
 11
364.1965353548
 21
31.4101426505
  0
LINE
  8
0
 62
7
  6
CONTINUOUS
 10
368.9949727445
 20
31.4101426505
 11
369.3418477445
 21
31.4101426505
  0
LINE
  8
0
 62
7
  6
CONTINUOUS
 10
369.3418477445
 20
31.5391973962
 11
368.9949727445
 21
31.5391973962
  0
LINE
  8
0
 62
7
  6
CONTINUOUS
 10
367.2605977445
 20
31.5391973962
 11
367.0293479651
 21
31.5391973962
  0
LINE
  8
0
 62
7
  6
CONTINUOUS
 10
366.5090354651
 20
31.5391973962
 11
366.2199727445
 21
31.5391973962
  0
LINE
  8
0
 62
7
  6
CONTINUOUS
 10
365.757472524
 20
31.5391973962
 11
365.4684104651
 21
31.5391973962
  0
LINE
  8
0
 62
7
  6
CONTINUOUS
 10
364.1965353548
 20
31.5391973962
 11
363.8496603548
 21
31.5391973962
  0
LINE
  8
0
 62
7
  6
CONTINUOUS
 10
362.1152853548
 20
31.5391973962
 11
361.8840352445
 21
31.5391973962
  0
LINE
  8
0
 62
7
  6
CONTINUOUS
 10
365.4684104651
 20
31.8618343508
 11
365.757472524
 21
31.8618343508
  0
LINE
  8
0
 62
7
  6
CONTINUOUS
 10
365.757472524
 20
32.0231527829
 11
365.4684104651
 21
32.0231527829
  0
LINE
  8
0
 62
7
  6
CONTINUOUS
 10
361.3637227445
 20
32.0231527829
 11
361.0746601894
 21
32.0231527829
  0
LINE
  8
0
 62
7
  6
CONTINUOUS
 10
360.4015045068
 20
32.3100380288
 11
360.8140758554
 21
32.3100380288
  0
LINE
  8
0
 62
7
  6
CONTINUOUS
 10
362.0408487691
 20
32.3100380288
 11
363.4342913921
 21
32.3100380288
  0
LINE
  8
0
 62
7
  6
CONTINUOUS
 10
363.7621602445
 20
32.3100380288
 11
365.1556028675
 21
32.3100380288
  0
LINE
  8
0
 62
7
  6
CONTINUOUS
 10
367.0408487691
 20
32.3100380288
 11
368.4342913921
 21
32.3100380288
  0
LINE
  8
0
 62
7
  6
CONTINUOUS
 10
368.7621602445
 20
32.3100380288
 11
370.1556028675
 21
32.3100380288
  0
LINE
  8
0
 62
7
  6
CONTINUOUS
 10
366.798097524
 20
31.5069337098
 11
366.624660024
 21
31.4424063369
  0
LINE
  8
0
 62
7
  6
CONTINUOUS
 10
364.369972524
 20
30.5390230296
 11
364.543410024
 21
30.6035504109
  0
LINE
  8
0
 62
7
  6
CONTINUOUS
 10
369.8043479651
 20
30.5390230296
 11
370.0355977445
 21
30.6035504109
  0
LINE
  8
0
 62
7
  6
CONTINUOUS
 10
369.8043479651
 20
30.7003414814
 11
369.6887227445
 21
30.668077795
  0
LINE
  8
0
 62
7
  6
CONTINUOUS
 10
368.7637229651
 20
31.3778789641
 11
368.9949727445
 21
31.4101426505
  0
LINE
  8
0
 62
7
  6
CONTINUOUS
 10
366.798097524
 20
31.3778789641
 11
367.0293479651
 21
31.4101426505
  0
LINE
  8
0
 62
7
  6
CONTINUOUS
 10
363.7340351343
 20
31.0229783683
 11
363.9652852445
 21
31.0552420547
  0
LINE
  8
0
 62
7
  6
CONTINUOUS
 10
367.0293479651
 20
31.5391973962
 11
366.798097524
 21
31.5069337098
  0
LINE
  8
0
 62
7
  6
CONTINUOUS
 10
363.6184102445
 20
31.3778789641
 11
363.8496603548
 21
31.4101426505
  0
LINE
  8
0
 62
7
  6
CONTINUOUS
 10
368.9949727445
 20
31.5391973962
 11
368.6480977445
 21
31.5069337098
  0
LINE
  8
0
 62
7
  6
CONTINUOUS
 10
363.9652852445
 20
31.1842968456
 11
363.6184102445
 21
31.1520331591
  0
LINE
  8
0
 62
7
  6
CONTINUOUS
 10
359.744972717
 20
31.5391973962
 11
359.3980977583
 21
31.5069337098
  0
LINE
  8
0
 62
7
  6
CONTINUOUS
 10
363.8496603548
 20
31.5391973962
 11
363.4449727445
 21
31.5069337098
  0
LINE
  8
0
 62
7
  6
CONTINUOUS
 10
361.221176638
 20
33.4575790124
 11
360.565438933
 21
33.4575790124
  0
LINE
  8
0
 62
7
  6
CONTINUOUS
 10
366.624660024
 20
31.3133515913
 11
366.798097524
 21
31.3778789641
  0
LINE
  8
0
 62
7
  6
CONTINUOUS
 10
368.6480977445
 20
31.3456152777
 11
368.7637229651
 21
31.3778789641
  0
LINE
  8
0
 62
7
  6
CONTINUOUS
 10
368.6480977445
 20
31.5069337098
 11
368.4168479651
 21
31.4424063369
  0
LINE
  8
0
 62
7
  6
CONTINUOUS
 10
364.369972524
 20
30.7003414814
 11
364.0809101343
 21
30.6358140973
  0
LINE
  8
0
 62
7
  6
CONTINUOUS
 10
361.6527851343
 20
31.3778789641
 11
361.8840352445
 21
31.4101426505
  0
LINE
  8
0
 62
7
  6
CONTINUOUS
 10
361.8840352445
 20
31.5391973962
 11
361.6527851343
 21
31.5069337098
  0
LINE
  8
0
 62
7
  6
CONTINUOUS
 10
359.4559102445
 20
31.3778789641
 11
359.6871602721
 21
31.4101426505
  0
LINE
  8
0
 62
7
  6
CONTINUOUS
 10
365.9752749986
 20
34.9329888485
 11
366.6310127035
 21
34.9329888485
  0
LINE
  8
0
 62
7
  6
CONTINUOUS
 10
363.6184102445
 20
30.9907146818
 11
363.7340351343
 21
31.0229783683
  0
LINE
  8
0
 62
7
  6
CONTINUOUS
 10
363.6184102445
 20
31.1520331591
 11
363.3871601343
 21
31.0875057863
  0
LINE
  8
0
 62
7
  6
CONTINUOUS
 10
363.5027853548
 20
31.3456152777
 11
363.6184102445
 21
31.3778789641
  0
LINE
  8
0
 62
7
  6
CONTINUOUS
 10
360.1496602445
 20
30.5390230296
 11
360.3809101894
 21
30.6035504109
  0
LINE
  8
0
 62
7
  6
CONTINUOUS
 10
363.4449727445
 20
31.5069337098
 11
363.3293478548
 21
31.4746700234
  0
LINE
  8
0
 62
7
  6
CONTINUOUS
 10
359.3980977583
 20
31.5069337098
 11
359.2246602583
 21
31.4746700234
  0
LINE
  8
0
 62
7
  6
CONTINUOUS
 10
370.1556028675
 20
36.0805298321
 11
368.7621602445
 21
36.0805298321
  0
LINE
  8
0
 62
7
  6
CONTINUOUS
 10
366.7949471298
 20
36.0805298321
 11
366.3823757812
 21
36.0805298321
  0
LINE
  8
0
 62
7
  6
CONTINUOUS
 10
365.1556028675
 20
36.0805298321
 11
363.7621602445
 21
36.0805298321
  0
LINE
  8
0
 62
7
  6
CONTINUOUS
 10
363.4342913921
 20
36.0805298321
 11
362.0408487691
 21
36.0805298321
  0
LINE
  8
0
 62
7
  6
CONTINUOUS
 10
360.1556028675
 20
36.0805298321
 11
358.7621602445
 21
36.0805298321
  0
LINE
  8
0
 62
7
  6
CONTINUOUS
 10
359.3402852307
 20
31.3456152777
 11
359.4559102445
 21
31.3778789641
  0
CIRCLE
  8
0
 62
7
  6
CONTINUOUS
 10
369.458881556
 20
38.4165954059
 40
2.0901639344
  0
ARC
  8
0
 62
7
  6
CONTINUOUS
 10
360.4015045068
 20
33.9493822911
 40
1.6393442623
 50
180.0
 51
270.0
  0
ARC
  8
0
 62
7
  6
CONTINUOUS
 10
366.7949471298
 20
34.4411855698
 40
1.6393442623
 50
0.0
 51
90.0
  0
ARC
  8
0
 62
7
  6
CONTINUOUS
 10
360.8140758554
 20
33.7854478649
 40
1.4754098361
 50
270.0
 51
326.2510114041
  0
ARC
  8
0
 62
7
  6
CONTINUOUS
 10
366.3823757812
 20
34.6051199961
 40
1.4754098361
 50
90.0
 51
146.2510114041
  0
ARC
  8
0
 62
7
  6
CONTINUOUS
 10
361.221176638
 20
34.2772511436
 40
0.8196721311
 50
270.0
 51
360.0
  0
ARC
  8
0
 62
7
  6
CONTINUOUS
 10
365.9752749986
 20
34.1133167174
 40
0.8196721311
 50
90.0
 51
180.0
  0
ARC
  8
0
 62
7
  6
CONTINUOUS
 10
360.565438933
 20
33.867415078
 40
0.4098360656
 50
180.0
 51
270.0
  0
ARC
  8
0
 62
7
  6
CONTINUOUS
 10
366.6310127035
 20
34.5231527829
 40
0.4098360656
 50
0.0
 51
90.0
  0
SOLID
  8
0
 62
7
  6
CONTINUOUS
 10
365.4684104651
 20
31.8618347111
 11
365.4684104651
 21
32.0231531947
 12
365.757472524
 22
31.8618347111
 13
365.757472524
 23
32.0231531947
  0
SOLID
  8
0
 62
7
  6
CONTINUOUS
 10
359.744972717
 20
31.5391977439
 11
360.1496602445
 21
31.5069333244
 12
359.3980977583
 22
31.5069333244
 13
359.3980977583
 23
31.5069333244
  0
SOLID
  8
0
 62
7
  6
CONTINUOUS
 10
359.2246602583
 20
31.4746706537
 11
359.3980977583
 21
31.5069333244
 12
360.1496602445
 22
31.5069333244
 13
360.1496602445
 23
31.5069333244
  0
SOLID
  8
0
 62
7
  6
CONTINUOUS
 10
360.1496602445
 20
31.5069333244
 11
360.3809101894
 21
31.4424063504
 12
359.2246602583
 22
31.4746706537
 13
359.2246602583
 23
31.4746706537
  0
SOLID
  8
0
 62
7
  6
CONTINUOUS
 10
359.0512227376
 20
31.4101419116
 11
359.2246602583
 21
31.4746706537
 12
360.3809101894
 22
31.4424063504
 13
360.3809101894
 23
31.4424063504
  0
SOLID
  8
0
 62
7
  6
CONTINUOUS
 10
359.0512227376
 20
31.4101419116
 11
360.3809101894
 21
31.4424063504
 12
359.6871602721
 22
31.4101419116
 13
359.6871602721
 23
31.4101419116
  0
SOLID
  8
0
 62
7
  6
CONTINUOUS
 10
359.6871602721
 20
31.4101419116
 11
360.3809101894
 21
31.4424063504
 12
360.091847717
 22
31.3778792603
 13
360.091847717
 23
31.3778792603
  0
SOLID
  8
0
 62
7
  6
CONTINUOUS
 10
360.3809101894
 20
31.4424063504
 11
360.5543476894
 21
31.345614957
 12
360.091847717
 22
31.3778792603
 13
360.091847717
 23
31.3778792603
  0
SOLID
  8
0
 62
7
  6
CONTINUOUS
 10
360.2652852997
 20
31.3133521701
 11
360.091847717
 21
31.3778792603
 12
360.5543476894
 22
31.345614957
 13
360.5543476894
 23
31.345614957
  0
SOLID
  8
0
 62
7
  6
CONTINUOUS
 10
360.2652852997
 20
31.3133521701
 11
360.5543476894
 21
31.345614957
 12
360.3230977445
 22
31.2165606992
 13
360.3230977445
 23
31.2165606992
  0
SOLID
  8
0
 62
7
  6
CONTINUOUS
 10
360.5543476894
 20
31.345614957
 11
360.6121602997
 21
31.2165606992
 12
360.3230977445
 22
31.2165606992
 13
360.3230977445
 23
31.2165606992
  0
SOLID
  8
0
 62
7
  6
CONTINUOUS
 10
361.6527851343
 20
31.5069329918
 11
361.8840352445
 21
31.5391972951
 12
362.1152853548
 22
31.5391972951
 13
362.1152853548
 23
31.5391972951
  0
SOLID
  8
0
 62
7
  6
CONTINUOUS
 10
362.1152853548
 20
31.5391972951
 11
362.2887228548
 21
31.5069329918
 12
361.6527851343
 22
31.5069329918
 13
361.6527851343
 23
31.5069329918
  0
SOLID
  8
0
 62
7
  6
CONTINUOUS
 10
361.4793477997
 20
31.4424059016
 11
361.6527851343
 21
31.5069329918
 12
362.2887228548
 22
31.5069329918
 13
362.2887228548
 23
31.5069329918
  0
SOLID
  8
0
 62
7
  6
CONTINUOUS
 10
362.2887228548
 20
31.5069329918
 11
362.4621603548
 21
31.4424059016
 12
361.4793477997
 22
31.4424059016
 13
361.4793477997
 23
31.4424059016
  0
SOLID
  8
0
 62
7
  6
CONTINUOUS
 10
362.4621603548
 20
31.4424059016
 11
361.8840352445
 21
31.4101420472
 12
361.4793477997
 22
31.4424059016
 13
361.4793477997
 23
31.4424059016
  0
SOLID
  8
0
 62
7
  6
CONTINUOUS
 10
361.3637227445
 20
31.3778788115
 11
361.4793477997
 21
31.4424059016
 12
361.8840352445
 22
31.4101420472
 13
361.8840352445
 23
31.4101420472
  0
SOLID
  8
0
 62
7
  6
CONTINUOUS
 10
361.8840352445
 20
31.4101420472
 11
361.6527851343
 21
31.3778788115
 12
361.3637227445
 22
31.3778788115
 13
361.3637227445
 23
31.3778788115
  0
SOLID
  8
0
 62
7
  6
CONTINUOUS
 10
361.8840352445
 20
31.4101420472
 11
362.4621603548
 21
31.4424059016
 12
362.1152853548
 22
31.3778788115
 13
362.1152853548
 23
31.3778788115
  0
SOLID
  8
0
 62
7
  6
CONTINUOUS
 10
362.4621603548
 20
31.4424059016
 11
362.5777852445
 21
31.3778788115
 12
362.1152853548
 22
31.3778788115
 13
362.1152853548
 23
31.3778788115
  0
SOLID
  8
0
 62
7
  6
CONTINUOUS
 10
362.2309102445
 20
31.345614957
 11
362.1152853548
 21
31.3778788115
 12
362.5777852445
 22
31.3778788115
 13
362.5777852445
 23
31.3778788115
  0
SOLID
  8
0
 62
7
  6
CONTINUOUS
 10
362.5777852445
 20
31.3778788115
 11
362.6355978548
 21
31.3133517213
 12
362.2309102445
 22
31.345614957
 13
362.2309102445
 23
31.345614957
  0
SOLID
  8
0
 62
7
  6
CONTINUOUS
 10
362.3465351343
 20
31.2810878668
 11
362.2309102445
 21
31.345614957
 12
362.6355978548
 22
31.3133517213
 13
362.6355978548
 23
31.3133517213
  0
SOLID
  8
0
 62
7
  6
CONTINUOUS
 10
362.3465351343
 20
31.2810878668
 11
362.6355978548
 21
31.3133517213
 12
362.4043477445
 22
31.1520332377
 13
362.4043477445
 23
31.1520332377
  0
SOLID
  8
0
 62
7
  6
CONTINUOUS
 10
362.6355978548
 20
31.3133517213
 11
362.6934101343
 21
31.1520332377
 12
362.4043477445
 22
31.1520332377
 13
362.4043477445
 23
31.1520332377
  0
SOLID
  8
0
 62
7
  6
CONTINUOUS
 10
361.6527851343
 20
31.3778788115
 11
361.4793477997
 21
31.3133517213
 12
361.3637227445
 22
31.3778788115
 13
361.3637227445
 23
31.3778788115
  0
SOLID
  8
0
 62
7
  6
CONTINUOUS
 10
361.4793477997
 20
31.3133517213
 11
361.3637227445
 21
31.2488235635
 12
361.3637227445
 22
31.3778788115
 13
361.3637227445
 23
31.3778788115
  0
SOLID
  8
0
 62
7
  6
CONTINUOUS
 10
361.3637227445
 20
31.2488235635
 11
361.0746601894
 21
30.5067593033
 12
361.3637227445
 22
31.3778788115
 13
361.3637227445
 23
31.3778788115
  0
SOLID
  8
0
 62
7
  6
CONTINUOUS
 10
361.3637227445
 20
31.3778788115
 11
361.0746601894
 21
30.5067593033
 12
361.3637227445
 22
32.0231527459
 13
361.3637227445
 23
32.0231527459
  0
SOLID
  8
0
 62
7
  6
CONTINUOUS
 10
361.0746601894
 20
30.5067593033
 11
361.0746601894
 21
32.0231527459
 12
361.3637227445
 22
32.0231527459
 13
361.3637227445
 23
32.0231527459
  0
SOLID
  8
0
 62
7
  6
CONTINUOUS
 10
361.3637227445
 20
31.2488235635
 11
361.3637227445
 21
30.5067593033
 12
361.0746601894
 22
30.5067593033
 13
361.0746601894
 23
30.5067593033
  0
SOLID
  8
0
 62
7
  6
CONTINUOUS
 10
362.4043477445
 20
30.5067593033
 11
362.4043477445
 21
31.1520332377
 12
362.6934101343
 22
31.1520332377
 13
362.6934101343
 23
31.1520332377
  0
SOLID
  8
0
 62
7
  6
CONTINUOUS
 10
362.6934101343
 20
31.1520332377
 11
362.6934101343
 21
30.5067593033
 12
362.4043477445
 22
30.5067593033
 13
362.4043477445
 23
30.5067593033
  0
SOLID
  8
0
 62
7
  6
CONTINUOUS
 10
363.4449727445
 20
31.506933758
 11
363.8496603548
 21
31.5391977507
 12
364.1965353548
 22
31.5391977507
 13
364.1965353548
 23
31.5391977507
  0
SOLID
  8
0
 62
7
  6
CONTINUOUS
 10
364.1965353548
 20
31.5391977507
 11
364.543410024
 21
31.506933758
 12
363.4449727445
 22
31.506933758
 13
363.4449727445
 23
31.506933758
  0
SOLID
  8
0
 62
7
  6
CONTINUOUS
 10
363.3293478548
 20
31.4746706537
 11
363.4449727445
 21
31.506933758
 12
364.543410024
 22
31.506933758
 13
364.543410024
 23
31.506933758
  0
SOLID
  8
0
 62
7
  6
CONTINUOUS
 10
364.543410024
 20
31.506933758
 11
364.716847524
 21
31.4424063504
 12
363.3293478548
 22
31.4746706537
 13
363.3293478548
 23
31.4746706537
  0
SOLID
  8
0
 62
7
  6
CONTINUOUS
 10
363.2137226343
 20
31.4101417797
 11
363.3293478548
 21
31.4746706537
 12
364.716847524
 22
31.4424063504
 13
364.716847524
 23
31.4424063504
  0
SOLID
  8
0
 62
7
  6
CONTINUOUS
 10
363.2137226343
 20
31.4101417797
 11
364.716847524
 21
31.4424063504
 12
363.8496603548
 22
31.4101417797
 13
363.8496603548
 23
31.4101417797
  0
SOLID
  8
0
 62
7
  6
CONTINUOUS
 10
363.8496603548
 20
31.4101417797
 11
364.716847524
 21
31.4424063504
 12
364.1965353548
 22
31.4101417797
 13
364.1965353548
 23
31.4101417797
  0
SOLID
  8
0
 62
7
  6
CONTINUOUS
 10
364.1965353548
 20
31.4101417797
 11
364.716847524
 21
31.4424063504
 12
364.4277854651
 22
31.3778793357
 13
364.4277854651
 23
31.3778793357
  0
SOLID
  8
0
 62
7
  6
CONTINUOUS
 10
364.716847524
 20
31.4424063504
 11
364.8324727445
 21
31.3778793357
 12
364.4277854651
 22
31.3778793357
 13
364.4277854651
 23
31.3778793357
  0
SOLID
  8
0
 62
7
  6
CONTINUOUS
 10
363.1559103548
 20
31.3456153429
 11
363.2137226343
 21
31.4101417797
 12
363.8496603548
 22
31.4101417797
 13
363.8496603548
 23
31.4101417797
  0
SOLID
  8
0
 62
7
  6
CONTINUOUS
 10
364.543410024
 20
31.3456153429
 11
364.4277854651
 21
31.3778793357
 12
364.8324727445
 22
31.3778793357
 13
364.8324727445
 23
31.3778793357
  0
SOLID
  8
0
 62
7
  6
CONTINUOUS
 10
364.543410024
 20
31.3456153429
 11
364.8324727445
 21
31.3778793357
 12
364.6012229651
 22
31.2810881318
 13
364.6012229651
 23
31.2810881318
  0
SOLID
  8
0
 62
7
  6
CONTINUOUS
 10
364.8324727445
 20
31.3778793357
 11
364.890285024
 21
31.2810881318
 12
364.6012229651
 22
31.2810881318
 13
364.6012229651
 23
31.2810881318
  0
SOLID
  8
0
 62
7
  6
CONTINUOUS
 10
364.6012229651
 20
31.1842964734
 11
364.6012229651
 21
31.2810881318
 12
364.890285024
 22
31.2810881318
 13
364.890285024
 23
31.2810881318
  0
SOLID
  8
0
 62
7
  6
CONTINUOUS
 10
364.6012229651
 20
31.1842964734
 11
364.890285024
 21
31.2810881318
 12
364.6012229651
 22
31.0552422931
 13
364.6012229651
 23
31.0552422931
  0
SOLID
  8
0
 62
7
  6
CONTINUOUS
 10
364.6012229651
 20
31.0552422931
 11
364.890285024
 21
31.2810881318
 12
364.6012229651
 22
30.8616599362
 13
364.6012229651
 23
30.8616599362
  0
SOLID
  8
0
 62
7
  6
CONTINUOUS
 10
364.890285024
 20
31.2810881318
 11
364.890285024
 21
30.7648681127
 12
364.6012229651
 22
30.8616599362
 13
364.6012229651
 23
30.8616599362
  0
SOLID
  8
0
 62
7
  6
CONTINUOUS
 10
366.798097524
 20
31.5069339419
 11
367.0293479651
 21
31.5391976292
 12
367.2605977445
 22
31.5391976292
 13
367.2605977445
 23
31.5391976292
  0
SOLID
  8
0
 62
7
  6
CONTINUOUS
 10
367.2605977445
 20
31.5391976292
 11
367.4340352445
 21
31.5069339419
 12
366.798097524
 22
31.5069339419
 13
366.798097524
 23
31.5069339419
  0
SOLID
  8
0
 62
7
  6
CONTINUOUS
 10
366.624660024
 20
31.4424065674
 11
366.798097524
 21
31.5069339419
 12
367.4340352445
 22
31.5069339419
 13
367.4340352445
 23
31.5069339419
  0
SOLID
  8
0
 62
7
  6
CONTINUOUS
 10
367.4340352445
 20
31.5069339419
 11
367.6074727445
 21
31.4424065674
 12
366.624660024
 22
31.4424065674
 13
366.624660024
 23
31.4424065674
  0
SOLID
  8
0
 62
7
  6
CONTINUOUS
 10
367.6074727445
 20
31.4424065674
 11
367.0293479651
 21
31.4101420472
 12
366.624660024
 22
31.4424065674
 13
366.624660024
 23
31.4424065674
  0
SOLID
  8
0
 62
7
  6
CONTINUOUS
 10
366.5090354651
 20
31.377879193
 11
366.624660024
 21
31.4424065674
 12
367.0293479651
 22
31.4101420472
 13
367.0293479651
 23
31.4101420472
  0
SOLID
  8
0
 62
7
  6
CONTINUOUS
 10
367.0293479651
 20
31.4101420472
 11
366.798097524
 21
31.377879193
 12
366.5090354651
 22
31.377879193
 13
366.5090354651
 23
31.377879193
  0
SOLID
  8
0
 62
7
  6
CONTINUOUS
 10
367.0293479651
 20
31.4101420472
 11
367.6074727445
 21
31.4424065674
 12
367.2605977445
 22
31.377879193
 13
367.2605977445
 23
31.377879193
  0
SOLID
  8
0
 62
7
  6
CONTINUOUS
 10
367.6074727445
 20
31.4424065674
 11
367.7230979651
 21
31.377879193
 12
367.2605977445
 22
31.377879193
 13
367.2605977445
 23
31.377879193
  0
SOLID
  8
0
 62
7
  6
CONTINUOUS
 10
367.3762229651
 20
31.345614957
 11
367.2605977445
 21
31.377879193
 12
367.7230979651
 22
31.377879193
 13
367.7230979651
 23
31.377879193
  0
SOLID
  8
0
 62
7
  6
CONTINUOUS
 10
367.3762229651
 20
31.345614957
 11
367.7230979651
 21
31.377879193
 12
367.491847524
 22
31.2810881312
 13
367.491847524
 23
31.2810881312
  0
SOLID
  8
0
 62
7
  6
CONTINUOUS
 10
367.7230979651
 20
31.377879193
 11
367.7809102445
 21
31.2810881312
 12
367.491847524
 22
31.2810881312
 13
367.491847524
 23
31.2810881312
  0
SOLID
  8
0
 62
7
  6
CONTINUOUS
 10
367.5496604651
 20
31.119769695
 11
367.491847524
 21
31.2810881312
 12
367.7809102445
 22
31.2810881312
 13
367.7809102445
 23
31.2810881312
  0
SOLID
  8
0
 62
7
  6
CONTINUOUS
 10
367.7809102445
 20
31.2810881312
 11
367.838722524
 21
31.119769695
 12
367.5496604651
 22
31.119769695
 13
367.5496604651
 23
31.119769695
  0
SOLID
  8
0
 62
7
  6
CONTINUOUS
 10
366.798097524
 20
31.377879193
 11
366.624660024
 21
31.3133521701
 12
366.5090354651
 22
31.377879193
 13
366.5090354651
 23
31.377879193
  0
SOLID
  8
0
 62
7
  6
CONTINUOUS
 10
366.624660024
 20
31.3133521701
 11
366.5090354651
 21
31.2488235635
 12
366.5090354651
 22
31.377879193
 13
366.5090354651
 23
31.377879193
  0
SOLID
  8
0
 62
7
  6
CONTINUOUS
 10
366.5090354651
 20
31.2488235635
 11
366.2199727445
 21
30.5067596374
 12
366.5090354651
 22
31.377879193
 13
366.5090354651
 23
31.377879193
  0
SOLID
  8
0
 62
7
  6
CONTINUOUS
 10
366.5090354651
 20
31.377879193
 11
366.2199727445
 21
30.5067596374
 12
366.5090354651
 22
31.5391976292
 13
366.5090354651
 23
31.5391976292
  0
SOLID
  8
0
 62
7
  6
CONTINUOUS
 10
366.2199727445
 20
30.5067596374
 11
366.2199727445
 21
31.5391976292
 12
366.5090354651
 22
31.5391976292
 13
366.5090354651
 23
31.5391976292
  0
SOLID
  8
0
 62
7
  6
CONTINUOUS
 10
366.5090354651
 20
31.2488235635
 11
366.5090354651
 21
30.5067596374
 12
366.2199727445
 22
30.5067596374
 13
366.2199727445
 23
30.5067596374
  0
SOLID
  8
0
 62
7
  6
CONTINUOUS
 10
367.5496604651
 20
30.5067596374
 11
367.5496604651
 21
31.119769695
 12
367.838722524
 22
31.119769695
 13
367.838722524
 23
31.119769695
  0
SOLID
  8
0
 62
7
  6
CONTINUOUS
 10
367.838722524
 20
31.119769695
 11
367.838722524
 21
30.5067596374
 12
367.5496604651
 22
30.5067596374
 13
367.5496604651
 23
30.5067596374
  0
SOLID
  8
0
 62
7
  6
CONTINUOUS
 10
368.6480977445
 20
31.5069334157
 11
368.9949727445
 21
31.539197762
 12
369.3418477445
 22
31.539197762
 13
369.3418477445
 23
31.539197762
  0
SOLID
  8
0
 62
7
  6
CONTINUOUS
 10
369.3418477445
 20
31.539197762
 11
369.6887227445
 21
31.5069334157
 12
368.6480977445
 22
31.5069334157
 13
368.6480977445
 23
31.5069334157
  0
SOLID
  8
0
 62
7
  6
CONTINUOUS
 10
368.4168479651
 20
31.4424063504
 11
368.6480977445
 21
31.5069334157
 12
369.6887227445
 22
31.5069334157
 13
369.6887227445
 23
31.5069334157
  0
SOLID
  8
0
 62
7
  6
CONTINUOUS
 10
368.4168479651
 20
31.4424063504
 11
369.6887227445
 21
31.5069334406
 12
369.8621602445
 22
31.4746706537
 13
369.8621602445
 23
31.4746706537
  0
SOLID
  8
0
 62
7
  6
CONTINUOUS
 10
368.4168479651
 20
31.4424063504
 11
369.8621602445
 21
31.4746706537
 12
368.9949727445
 22
31.4101421267
 13
368.9949727445
 23
31.4101421267
  0
SOLID
  8
0
 62
7
  6
CONTINUOUS
 10
368.9949727445
 20
31.4101421267
 11
369.8621602445
 21
31.4746706537
 12
369.3418477445
 22
31.4101421267
 13
369.3418477445
 23
31.4101421267
  0
SOLID
  8
0
 62
7
  6
CONTINUOUS
 10
369.8621602445
 20
31.4746706537
 11
370.0355977445
 21
31.4101421267
 12
369.3418477445
 22
31.4101421267
 13
369.3418477445
 23
31.4101421267
  0
SOLID
  8
0
 62
7
  6
CONTINUOUS
 10
369.6887227445
 20
31.3778792603
 11
369.3418477445
 21
31.4101421267
 12
370.0355977445
 22
31.4101421267
 13
370.0355977445
 23
31.4101421267
  0
SOLID
  8
0
 62
7
  6
CONTINUOUS
 10
368.3012227445
 20
31.3456148845
 11
368.4168479651
 21
31.4424063504
 12
368.9949727445
 22
31.4101421267
 13
368.9949727445
 23
31.4101421267
  0
SOLID
  8
0
 62
7
  6
CONTINUOUS
 10
369.6887227445
 20
31.3778792603
 11
370.0355977445
 21
31.4101421267
 12
369.8043479651
 22
31.3456148845
 13
369.8043479651
 23
31.3456148845
  0
SOLID
  8
0
 62
7
  6
CONTINUOUS
 10
369.8043479651
 20
31.3456148845
 11
370.0355977445
 21
31.4101421267
 12
369.8621602445
 22
31.281087868
 13
369.8621602445
 23
31.281087868
  0
SOLID
  8
0
 62
7
  6
CONTINUOUS
 10
370.0355977445
 20
31.4101421267
 11
370.1512223035
 21
31.281087868
 12
369.8621602445
 22
31.281087868
 13
369.8621602445
 23
31.281087868
  0
SOLID
  8
0
 62
7
  6
CONTINUOUS
 10
359.4559102445
 20
31.3778792603
 11
358.9355977445
 21
31.3456148963
 12
359.6871602721
 22
31.4101421155
 13
359.6871602721
 23
31.4101421155
  0
SOLID
  8
0
 62
7
  6
CONTINUOUS
 10
358.9355977445
 20
31.3456148963
 11
359.0512227376
 21
31.4101421155
 12
359.6871602721
 22
31.4101421155
 13
359.6871602721
 23
31.4101421155
  0
SOLID
  8
0
 62
7
  6
CONTINUOUS
 10
359.4559102445
 20
31.3778792603
 11
359.3402852307
 21
31.3456148963
 12
358.9355977445
 22
31.3456148963
 13
358.9355977445
 23
31.3456148963
  0
SOLID
  8
0
 62
7
  6
CONTINUOUS
 10
358.8199727462
 20
31.2165607767
 11
358.9355977445
 21
31.3456148963
 12
359.3402852307
 22
31.3456148963
 13
359.3402852307
 23
31.3456148963
  0
SOLID
  8
0
 62
7
  6
CONTINUOUS
 10
363.1559103548
 20
31.3456149608
 11
363.8496603548
 21
31.4101420472
 12
363.6184102445
 22
31.3778792603
 13
363.6184102445
 23
31.3778792603
  0
SOLID
  8
0
 62
7
  6
CONTINUOUS
 10
363.6184102445
 20
31.3778792603
 11
363.5027853548
 21
31.3456149608
 12
363.1559103548
 22
31.3456149608
 13
363.1559103548
 23
31.3456149608
  0
SOLID
  8
0
 62
7
  6
CONTINUOUS
 10
363.1559103548
 20
31.2810878707
 11
363.1559103548
 21
31.3456149608
 12
363.5027853548
 22
31.3456149608
 13
363.5027853548
 23
31.3456149608
  0
SOLID
  8
0
 62
7
  6
CONTINUOUS
 10
363.5027853548
 20
31.3456149608
 11
363.4449727445
 21
31.2810878707
 12
363.1559103548
 22
31.2810878707
 13
363.1559103548
 23
31.2810878707
  0
SOLID
  8
0
 62
7
  6
CONTINUOUS
 10
368.3012227445
 20
31.3456149608
 11
368.9949727445
 21
31.4101420472
 12
368.7637229651
 22
31.3778792603
 13
368.7637229651
 23
31.3778792603
  0
SOLID
  8
0
 62
7
  6
CONTINUOUS
 10
368.7637229651
 20
31.3778792603
 11
368.6480977445
 21
31.3456149608
 12
368.3012227445
 22
31.3456149608
 13
368.3012227445
 23
31.3456149608
  0
SOLID
  8
0
 62
7
  6
CONTINUOUS
 10
368.3012227445
 20
31.2810878707
 11
368.3012227445
 21
31.3456149608
 12
368.6480977445
 22
31.3456149608
 13
368.6480977445
 23
31.3456149608
  0
SOLID
  8
0
 62
7
  6
CONTINUOUS
 10
368.6480977445
 20
31.3456149608
 11
368.5902854651
 21
31.2810878707
 12
368.3012227445
 22
31.2810878707
 13
368.3012227445
 23
31.2810878707
  0
SOLID
  8
0
 62
7
  6
CONTINUOUS
 10
368.4168479651
 20
31.1520336865
 11
368.3012227445
 21
31.2810878707
 12
368.5902854651
 22
31.2810878707
 13
368.5902854651
 23
31.2810878707
  0
SOLID
  8
0
 62
7
  6
CONTINUOUS
 10
358.8199727462
 20
31.2165607767
 11
359.3402852307
 21
31.345614957
 12
359.1668477307
 22
31.2488235635
 13
359.1668477307
 23
31.2488235635
  0
SOLID
  8
0
 62
7
  6
CONTINUOUS
 10
359.1668477307
 20
31.2488235635
 11
359.1090352445
 21
31.1842964734
 12
358.8199727462
 22
31.2165607767
 13
358.8199727462
 23
31.2165607767
  0
SOLID
  8
0
 62
7
  6
CONTINUOUS
 10
358.7621602445
 20
31.0229779898
 11
358.8199727462
 21
31.2165607767
 12
359.1090352445
 22
31.1842964734
 13
359.1090352445
 23
31.1842964734
  0
SOLID
  8
0
 62
7
  6
CONTINUOUS
 10
363.6184102445
 20
31.1520336865
 11
363.9652852445
 21
31.1842964611
 12
364.6012229651
 22
31.1842964611
 13
364.6012229651
 23
31.1842964611
  0
SOLID
  8
0
 62
7
  6
CONTINUOUS
 10
363.6184102445
 20
31.1520336865
 11
364.6012229651
 21
31.1842964611
 12
363.3871601343
 22
31.0875057863
 13
363.3871601343
 23
31.0875057863
  0
SOLID
  8
0
 62
7
  6
CONTINUOUS
 10
363.3871601343
 20
31.0875057863
 11
364.6012229651
 21
31.1842964611
 12
363.9652852445
 22
31.0552422808
 13
363.9652852445
 23
31.0552422808
  0
SOLID
  8
0
 62
7
  6
CONTINUOUS
 10
364.6012229651
 20
31.1842964611
 11
364.6012229651
 21
31.0552422808
 12
363.9652852445
 22
31.0552422808
 13
363.9652852445
 23
31.0552422808
  0
SOLID
  8
0
 62
7
  6
CONTINUOUS
 10
368.4168479651
 20
31.1520338754
 11
368.5902854651
 21
31.2810878668
 12
368.6480977445
 22
31.2165607767
 13
368.6480977445
 23
31.2165607767
  0
SOLID
  8
0
 62
7
  6
CONTINUOUS
 10
368.6480977445
 20
31.2165607767
 11
368.8215352445
 21
31.1520338754
 12
368.4168479651
 22
31.1520338754
 13
368.4168479651
 23
31.1520338754
  0
SOLID
  8
0
 62
7
  6
CONTINUOUS
 10
368.6480977445
 20
31.0552422931
 11
368.4168479651
 21
31.1520338754
 12
368.8215352445
 22
31.1520338754
 13
368.8215352445
 23
31.1520338754
  0
SOLID
  8
0
 62
7
  6
CONTINUOUS
 10
368.8215352445
 20
31.1520338754
 11
369.8043479651
 21
30.9907152029
 12
368.6480977445
 22
31.0552422931
 13
368.6480977445
 23
31.0552422931
  0
SOLID
  8
0
 62
7
  6
CONTINUOUS
 10
369.6309104651
 20
30.8939239876
 11
368.6480977445
 21
31.0552422931
 12
369.8043479651
 22
30.9907152029
 13
369.8043479651
 23
30.9907152029
  0
SOLID
  8
0
 62
7
  6
CONTINUOUS
 10
369.8043479651
 20
30.9907152029
 11
370.0355977445
 21
30.8939239876
 12
369.6309104651
 22
30.8939239876
 13
369.6309104651
 23
30.8939239876
  0
SOLID
  8
0
 62
7
  6
CONTINUOUS
 10
369.8043479651
 20
30.8293967193
 11
369.6309104651
 21
30.8939239876
 12
370.0355977445
 22
30.8939239876
 13
370.0355977445
 23
30.8939239876
  0
SOLID
  8
0
 62
7
  6
CONTINUOUS
 10
369.8043479651
 20
30.8293967193
 11
370.0355977445
 21
30.8939239876
 12
369.8621602445
 22
30.7648682694
 13
369.8621602445
 23
30.7648682694
  0
SOLID
  8
0
 62
7
  6
CONTINUOUS
 10
370.0355977445
 20
30.8939239876
 11
370.1512223035
 21
30.7648682694
 12
369.8621602445
 22
30.7648682694
 13
369.8621602445
 23
30.7648682694
  0
SOLID
  8
0
 62
7
  6
CONTINUOUS
 10
369.8043479651
 20
30.7003411846
 11
369.8621602445
 21
30.7648682694
 12
370.1512223035
 22
30.7648682694
 13
370.1512223035
 23
30.7648682694
  0
SOLID
  8
0
 62
7
  6
CONTINUOUS
 10
370.1512223035
 20
30.7648682694
 11
370.1512223035
 21
30.7003411846
 12
369.8043479651
 22
30.7003411846
 13
369.8043479651
 23
30.7003411846
  0
SOLID
  8
0
 62
7
  6
CONTINUOUS
 10
369.6887227445
 20
30.6680782357
 11
369.8043479651
 21
30.7003411846
 12
370.1512223035
 22
30.7003411846
 13
370.1512223035
 23
30.7003411846
  0
SOLID
  8
0
 62
7
  6
CONTINUOUS
 10
369.6887227445
 20
30.6680782357
 11
370.1512223035
 21
30.7003411846
 12
369.4574729651
 22
30.6358140998
 13
369.4574729651
 23
30.6358140998
  0
SOLID
  8
0
 62
7
  6
CONTINUOUS
 10
370.1512223035
 20
30.7003411846
 11
370.0355977445
 21
30.6035511455
 12
369.4574729651
 22
30.6358140998
 13
369.4574729651
 23
30.6358140998
  0
SOLID
  8
0
 62
7
  6
CONTINUOUS
 10
370.0355977445
 20
30.6035511455
 11
368.5902854651
 21
30.5712868422
 12
369.4574729651
 22
30.6358140998
 13
369.4574729651
 23
30.6358140998
  0
SOLID
  8
0
 62
7
  6
CONTINUOUS
 10
369.4574729651
 20
30.6358140998
 11
368.5902854651
 21
30.5712868422
 12
369.1105979651
 22
30.6358140998
 13
369.1105979651
 23
30.6358140998
  0
SOLID
  8
0
 62
7
  6
CONTINUOUS
 10
368.5902854651
 20
30.5712868422
 11
368.4168479651
 21
30.6358140998
 12
369.1105979651
 22
30.6358140998
 13
369.1105979651
 23
30.6358140998
  0
SOLID
  8
0
 62
7
  6
CONTINUOUS
 10
368.5902854651
 20
30.5712868422
 11
370.0355977445
 21
30.6035511455
 12
368.7637229651
 22
30.5390223111
 13
368.7637229651
 23
30.5390223111
  0
SOLID
  8
0
 62
7
  6
CONTINUOUS
 10
370.0355977445
 20
30.6035511455
 11
369.8043479651
 21
30.5390223111
 12
368.7637229651
 22
30.5390223111
 13
368.7637229651
 23
30.5390223111
  0
SOLID
  8
0
 62
7
  6
CONTINUOUS
 10
369.1105979651
 20
30.5067599302
 11
368.7637229651
 21
30.5390223111
 12
369.8043479651
 22
30.5390223111
 13
369.8043479651
 23
30.5390223111
  0
SOLID
  8
0
 62
7
  6
CONTINUOUS
 10
369.8043479651
 20
30.5390223111
 11
369.4574729651
 21
30.5067599302
 12
369.1105979651
 22
30.5067599302
 13
369.1105979651
 23
30.5067599302
  0
SOLID
  8
0
 62
7
  6
CONTINUOUS
 10
358.7621602445
 20
31.0229779898
 11
359.1090352445
 21
31.1842964734
 12
359.0512227376
 22
31.0552422931
 13
359.0512227376
 23
31.0552422931
  0
SOLID
  8
0
 62
7
  6
CONTINUOUS
 10
359.0512227376
 20
31.0552422931
 11
359.0512227376
 21
30.9584509954
 12
358.7621602445
 22
31.0229779898
 13
358.7621602445
 23
31.0229779898
  0
SOLID
  8
0
 62
7
  6
CONTINUOUS
 10
358.8199727462
 20
30.8293967193
 11
358.7621602445
 21
31.0229779898
 12
359.0512227376
 22
30.9584509954
 13
359.0512227376
 23
30.9584509954
  0
SOLID
  8
0
 62
7
  6
CONTINUOUS
 10
359.0512227376
 20
30.9584509954
 11
359.1668477307
 21
30.797132416
 12
358.8199727462
 22
30.8293967193
 13
358.8199727462
 23
30.8293967193
  0
SOLID
  8
0
 62
7
  6
CONTINUOUS
 10
358.9355977445
 20
30.7003413087
 11
358.8199727462
 21
30.8293967193
 12
359.1668477307
 22
30.797132416
 13
359.1668477307
 23
30.797132416
  0
SOLID
  8
0
 62
7
  6
CONTINUOUS
 10
359.1668477307
 20
30.797132416
 11
359.3402852307
 21
30.7003413087
 12
358.9355977445
 22
30.7003413087
 13
358.9355977445
 23
30.7003413087
  0
SOLID
  8
0
 62
7
  6
CONTINUOUS
 10
359.0512227376
 20
30.6358140759
 11
358.9355977445
 21
30.7003413087
 12
359.3402852307
 22
30.7003413087
 13
359.3402852307
 23
30.7003413087
  0
SOLID
  8
0
 62
7
  6
CONTINUOUS
 10
359.3402852307
 20
30.7003413087
 11
359.6871602721
 21
30.6358140759
 12
359.0512227376
 22
30.6358140759
 13
359.0512227376
 23
30.6358140759
  0
SOLID
  8
0
 62
7
  6
CONTINUOUS
 10
359.2246602583
 20
30.5712868422
 11
359.0512227376
 21
30.6358140759
 12
359.6871602721
 22
30.6358140759
 13
359.6871602721
 23
30.6358140759
  0
SOLID
  8
0
 62
7
  6
CONTINUOUS
 10
363.2715352445
 20
31.0229779808
 11
363.3871601343
 21
31.0875057863
 12
363.9652852445
 22
31.0552422931
 13
363.9652852445
 23
31.0552422931
  0
SOLID
  8
0
 62
7
  6
CONTINUOUS
 10
363.9652852445
 20
31.0552422931
 11
363.7340351343
 21
31.0229779808
 12
363.2715352445
 22
31.0229779808
 13
363.2715352445
 23
31.0229779808
  0
SOLID
  8
0
 62
7
  6
CONTINUOUS
 10
363.1559103548
 20
30.8939238094
 11
363.2715352445
 21
31.0229779808
 12
363.7340351343
 22
31.0229779808
 13
363.7340351343
 23
31.0229779808
  0
SOLID
  8
0
 62
7
  6
CONTINUOUS
 10
363.5027853548
 20
30.926187309
 11
363.1559103548
 21
30.8939238094
 12
363.6184102445
 22
30.9907152029
 13
363.6184102445
 23
30.9907152029
  0
SOLID
  8
0
 62
7
  6
CONTINUOUS
 10
363.1559103548
 20
30.8939238094
 11
363.7340351343
 21
31.0229779898
 12
363.6184102445
 22
30.9907152029
 13
363.6184102445
 23
30.9907152029
  0
SOLID
  8
0
 62
7
  6
CONTINUOUS
 10
363.5027853548
 20
30.926187309
 11
363.4449727445
 21
30.8293967193
 12
363.1559103548
 22
30.8939238094
 13
363.1559103548
 23
30.8939238094
  0
SOLID
  8
0
 62
7
  6
CONTINUOUS
 10
363.1559103548
 20
30.797132416
 11
363.1559103548
 21
30.8939238094
 12
363.4449727445
 22
30.8293967193
 13
363.4449727445
 23
30.8293967193
  0
SOLID
  8
0
 62
7
  6
CONTINUOUS
 10
363.4449727445
 20
30.8293967193
 11
363.4449727445
 21
30.7648681127
 12
363.1559103548
 22
30.797132416
 13
363.1559103548
 23
30.797132416
  0
SOLID
  8
0
 62
7
  6
CONTINUOUS
 10
363.2137226343
 20
30.6680782357
 11
363.1559103548
 21
30.797132416
 12
363.4449727445
 22
30.7648681127
 13
363.4449727445
 23
30.7648681127
  0
SOLID
  8
0
 62
7
  6
CONTINUOUS
 10
364.6012229651
 20
30.8616599362
 11
364.890285024
 21
30.7648681127
 12
364.543410024
 22
30.797132416
 13
364.543410024
 23
30.797132416
  0
SOLID
  8
0
 62
7
  6
CONTINUOUS
 10
364.369972524
 20
30.7003410226
 11
364.543410024
 21
30.797132416
 12
364.890285024
 22
30.7648681127
 13
364.890285024
 23
30.7648681127
  0
SOLID
  8
0
 62
7
  6
CONTINUOUS
 10
364.369972524
 20
30.7003410226
 11
364.890285024
 21
30.7648681127
 12
364.6012229651
 22
30.6680782357
 13
364.6012229651
 23
30.6680782357
  0
SOLID
  8
0
 62
7
  6
CONTINUOUS
 10
364.890285024
 20
30.7648681127
 11
364.9480979651
 21
30.6035511455
 12
364.6012229651
 22
30.6680782357
 13
364.6012229651
 23
30.6680782357
  0
SOLID
  8
0
 62
7
  6
CONTINUOUS
 10
364.6590352445
 20
30.5712868422
 11
364.6012229651
 21
30.6680782357
 12
364.9480979651
 22
30.6035511455
 13
364.9480979651
 23
30.6035511455
  0
SOLID
  8
0
 62
7
  6
CONTINUOUS
 10
364.6590352445
 20
30.5712868422
 11
364.9480979651
 21
30.6035511455
 12
364.716847524
 22
30.5067598731
 13
364.716847524
 23
30.5067598731
  0
SOLID
  8
0
 62
7
  6
CONTINUOUS
 10
364.9480979651
 20
30.6035511455
 11
365.0059102445
 21
30.5067598731
 12
364.716847524
 22
30.5067598731
 13
364.716847524
 23
30.5067598731
  0
SOLID
  8
0
 62
7
  6
CONTINUOUS
 10
360.2652852997
 20
30.7326051679
 11
360.3230977445
 21
30.8293966612
 12
360.6121602997
 22
30.8293966612
 13
360.6121602997
 23
30.8293966612
  0
SOLID
  8
0
 62
7
  6
CONTINUOUS
 10
360.6121602997
 20
30.8293966612
 11
360.5543476894
 21
30.7003410226
 12
360.2652852997
 22
30.7326051679
 13
360.2652852997
 23
30.7326051679
  0
SOLID
  8
0
 62
7
  6
CONTINUOUS
 10
360.091847717
 20
30.6680782357
 11
360.2652852997
 21
30.7326051679
 12
360.5543476894
 22
30.7003410226
 13
360.5543476894
 23
30.7003410226
  0
SOLID
  8
0
 62
7
  6
CONTINUOUS
 10
360.091847717
 20
30.6680782357
 11
360.5543476894
 21
30.7003410226
 12
359.6871602721
 22
30.6358139324
 13
359.6871602721
 23
30.6358139324
  0
SOLID
  8
0
 62
7
  6
CONTINUOUS
 10
360.5543476894
 20
30.7003410226
 11
360.3809101894
 21
30.6035511455
 12
359.6871602721
 22
30.6358139324
 13
359.6871602721
 23
30.6358139324
  0
SOLID
  8
0
 62
7
  6
CONTINUOUS
 10
359.2246602583
 20
30.5712868422
 11
359.6871602721
 21
30.6358139324
 12
360.3809101894
 22
30.6035511455
 13
360.3809101894
 23
30.6035511455
  0
SOLID
  8
0
 62
7
  6
CONTINUOUS
 10
359.2246602583
 20
30.5712868422
 11
360.3809101894
 21
30.6035511455
 12
359.3980977583
 22
30.5390224228
 13
359.3980977583
 23
30.5390224228
  0
SOLID
  8
0
 62
7
  6
CONTINUOUS
 10
360.3809101894
 20
30.6035511455
 11
360.1496602445
 21
30.5390224228
 12
359.3980977583
 22
30.5390224228
 13
359.3980977583
 23
30.5390224228
  0
SOLID
  8
0
 62
7
  6
CONTINUOUS
 10
359.744972717
 20
30.5067597521
 11
359.3980977583
 21
30.5390224228
 12
360.1496602445
 22
30.5390224228
 13
360.1496602445
 23
30.5390224228
  0
SOLID
  8
0
 62
7
  6
CONTINUOUS
 10
363.2137226343
 20
30.6680782357
 11
363.4449727445
 21
30.7648681127
 12
363.5027853548
 22
30.7003410226
 13
363.5027853548
 23
30.7003410226
  0
SOLID
  8
0
 62
7
  6
CONTINUOUS
 10
363.5027853548
 20
30.7003410226
 11
363.7340351343
 21
30.6358139324
 12
363.2137226343
 22
30.6680782357
 13
363.2137226343
 23
30.6680782357
  0
SOLID
  8
0
 62
7
  6
CONTINUOUS
 10
363.3871601343
 20
30.5712868422
 11
363.2137226343
 21
30.6680782357
 12
363.7340351343
 22
30.6358139324
 13
363.7340351343
 23
30.6358139324
  0
SOLID
  8
0
 62
7
  6
CONTINUOUS
 10
364.0809101343
 20
30.6358139363
 11
364.369972524
 21
30.7003410226
 12
364.6012229651
 22
30.6680782357
 13
364.6012229651
 23
30.6680782357
  0
SOLID
  8
0
 62
7
  6
CONTINUOUS
 10
364.6012229651
 20
30.6680782357
 11
364.543410024
 21
30.6035511455
 12
364.0809101343
 22
30.6358139363
 13
364.0809101343
 23
30.6358139363
  0
SOLID
  8
0
 62
7
  6
CONTINUOUS
 10
364.543410024
 20
30.6035511455
 11
363.3871601343
 21
30.5712868422
 12
364.0809101343
 22
30.6358139363
 13
364.0809101343
 23
30.6358139363
  0
SOLID
  8
0
 62
7
  6
CONTINUOUS
 10
363.3871601343
 20
30.5712868422
 11
363.7340351343
 21
30.6358139363
 12
364.0809101343
 22
30.6358139363
 13
364.0809101343
 23
30.6358139363
  0
SOLID
  8
0
 62
7
  6
CONTINUOUS
 10
363.3871601343
 20
30.5712868422
 11
364.543410024
 21
30.6035511455
 12
363.5027853548
 22
30.5390225267
 13
363.5027853548
 23
30.5390225267
  0
SOLID
  8
0
 62
7
  6
CONTINUOUS
 10
364.543410024
 20
30.6035511455
 11
364.369972524
 21
30.5390225267
 12
363.5027853548
 22
30.5390225267
 13
363.5027853548
 23
30.5390225267
  0
SOLID
  8
0
 62
7
  6
CONTINUOUS
 10
363.7340351343
 20
30.5067596914
 11
363.5027853548
 21
30.5390225267
 12
364.369972524
 22
30.5390225267
 13
364.369972524
 23
30.5390225267
  0
SOLID
  8
0
 62
7
  6
CONTINUOUS
 10
364.369972524
 20
30.5390225267
 11
364.0809101343
 21
30.5067596914
 12
363.7340351343
 22
30.5067596914
 13
363.7340351343
 23
30.5067596914
  0
SOLID
  8
0
 62
7
  6
CONTINUOUS
 10
368.7637229651
 20
30.6680782357
 11
368.4168479651
 21
30.6358138717
 12
368.6480977445
 22
30.7003410226
 13
368.6480977445
 23
30.7003410226
  0
SOLID
  8
0
 62
7
  6
CONTINUOUS
 10
368.6480977445
 20
30.7003410226
 11
368.4168479651
 21
30.6358138717
 12
368.5902854651
 22
30.7648680521
 13
368.5902854651
 23
30.7648680521
  0
SOLID
  8
0
 62
7
  6
CONTINUOUS
 10
368.4168479651
 20
30.6358138717
 11
368.3012227445
 21
30.7648680521
 12
368.5902854651
 22
30.7648680521
 13
368.5902854651
 23
30.7648680521
  0
SOLID
  8
0
 62
7
  6
CONTINUOUS
 10
368.7637229651
 20
30.6680782357
 11
369.1105979651
 21
30.6358138717
 12
368.4168479651
 22
30.6358138717
 13
368.4168479651
 23
30.6358138717
  0
SOLID
  8
0
 62
7
  6
CONTINUOUS
 10
365.4684104651
 20
30.5067597521
 11
365.4684104651
 21
31.5391977439
 12
365.757472524
 22
30.5067597521
 13
365.757472524
 23
31.5391977439
  0
ENDBLK
  8
0
  6
BYBLOCK
 62
0
  0
BLOCK
  8
0
 62
2
  6
CONTINUOUS
  2
SYMBOL_0_BL0
 70
64
 10
240.8592468615
 20
19.762288695
  0
TEXT
  8
0
 62
7
  6
CONTINUOUS
 10
227.1239507038
 20
19.1357028027
  7
TEXTSTYLE_3
 40
2.7338706658
  1
Ammeraal Beltech
 41
1.0
 51
15.0
 72
0
  0
TEXT
  8
0
 62
7
  6
CONTINUOUS
 10
237.9247515296
 20
16.8621661299
  7
TEXTSTYLE_4
 40
1.0935482663
  1
Innovation & Service in Belting
 41
1.0
 72
0
  0
LINE
  8
0
 62
7
  6
CONTINUOUS
 10
221.0994100525
 20
19.9022961113
 11
221.8775620458
 21
23.5632134089
  0
LINE
  8
0
 62
7
  6
CONTINUOUS
 10
231.9727303357
 20
27.2266073205
 11
222.3653797889
 21
24.1049898993
  0
LINE
  8
0
 62
7
  6
CONTINUOUS
 10
221.3246933848
 20
19.2089453082
 11
228.8317686459
 21
12.4495443822
  0
LINE
  8
0
 62
7
  6
CONTINUOUS
 10
221.5872277955
 20
20.4440726016
 11
232.3954971607
 21
23.9558922005
  0
LINE
  8
0
 62
7
  6
CONTINUOUS
 10
232.3912920235
 20
13.6061036368
 11
223.9458323548
 21
21.2104296785
  0
LINE
  8
0
 62
7
  6
CONTINUOUS
 10
232.9111147433
 20
26.3816822048
 11
231.9345552061
 21
21.7873308023
  0
LINE
  8
0
 62
7
  6
CONTINUOUS
 10
231.2347532584
 20
18.4950214885
 11
230.5483050469
 21
15.2655365641
  0
LINE
  8
0
 62
7
  6
CONTINUOUS
 10
233.5922108419
 20
13.9963058145
 11
234.5484423775
 21
18.4950214885
  0
LINE
  8
0
 62
7
  6
CONTINUOUS
 10
235.2482443252
 20
21.7873308023
 11
235.6924861276
 21
23.8773241617
  0
LINE
  8
0
 62
7
  6
CONTINUOUS
 10
229.5448697213
 20
12.2979700695
 11
233.1043930989
 21
13.4545293241
  0
LINE
  8
0
 62
7
  6
CONTINUOUS
 10
232.685831411
 20
27.0750330078
 11
235.4672027953
 21
24.5706749648
  0
ARC
  8
0
 62
7
  6
CONTINUOUS
 10
222.5906631212
 20
23.4116390962
 40
0.7290321776
 50
108.0
 51
168.0
  0
ARC
  8
0
 62
7
  6
CONTINUOUS
 10
232.198013668
 20
26.5332565175
 40
0.7290321776
 50
348.0
 51
108.0
  0
ARC
  8
0
 62
7
  6
CONTINUOUS
 10
234.9793850522
 20
24.0288984744
 40
0.7290321776
 50
348.0
 51
48.0
  0
ARC
  8
0
 62
7
  6
CONTINUOUS
 10
229.319586389
 20
12.9913208726
 40
0.7290321776
 50
228.0
 51
288.0
  0
ARC
  8
0
 62
7
  6
CONTINUOUS
 10
221.8125111278
 20
19.7507217986
 40
0.7290321776
 50
108.0
 51
228.0
  0
ARC
  8
0
 62
7
  6
CONTINUOUS
 10
232.8791097665
 20
14.1478801272
 40
0.7290321776
 50
228.0
 51
348.0
  0
ENDBLK
  8
0
  6
BYBLOCK
 62
0
  0
ENDSEC
  0
SECTION
  2
ENTITIES
  0
TEXT
  8
0
 62
5
  6
CONTINUOUS
 10
304.937007874
 20
25.636
  7
TEXTSTYLE_2
 40
2.8
  1
Scale :
 41
0.6
 51
0.000019
 72
0
  0
TEXT
  8
0
 62
5
  6
CONTINUOUS
 10
324.937007874
 20
25.636
  7
TEXTSTYLE_2
 40
2.8
  1
Belt type:
 41
0.6
 51
0.000019
 72
0
  0
INSERT
  8
0
 62
2
  6
CONTINUOUS
  2
SYMBOL_0_BL0
 10
240.8592468615
 20
19.762288695
  0
INSERT
  8
0
 62
2
  6
CONTINUOUS
  2
SYMBOL_5_BL1
 10
382.7840918555
 20
35.5067593403
  0
LINE
  8
0
 62
2
  6
CONTINUOUS
 10
218.937007874
 20
30.0
 11
408.937007874
 21
30.0
  0
LINE
  8
0
 62
2
  6
CONTINUOUS
 10
218.937007874
 20
30.0
 11
218.937007874
 21
10.0
  0
LINE
  8
0
 62
2
  6
CONTINUOUS
 10
218.937007874
 20
10.0
 11
408.937007874
 21
10.0
  0
LINE
  8
0
 62
2
  6
CONTINUOUS
 10
303.937007874
 20
30.0
 11
303.937007874
 21
10.0
  0
LINE
  8
0
 62
2
  6
CONTINUOUS
 10
323.937007874
 20
30.0
 11
323.937007874
 21
10.0
  0
LINE
  8
0
 62
2
  6
CONTINUOUS
 10
408.937007874
 20
30.0
 11
408.937007874
 21
10.0
  0
TEXT
  8
0
 62
5
  6
CONTINUOUS
 10
221.937007874
 20
23.303
  7
TEXTSTYLE_5
 40
1.52
  1
                                                                     Ammeraal Beltech Modular A/S
 41
1.0
 72
0
  0
TEXT
  8
0
 62
5
  6
CONTINUOUS
 10
221.937007874
 20
20.595
  7
TEXTSTYLE_5
 40
1.5
  1
                                                                      Hjulmagervej 21, 7100 Vejle,  DK
 41
1.0
 72
0
  0
TEXT
  8
0
 62
5
  6
CONTINUOUS
 10
221.937007874
 20
17.881
  7
TEXTSTYLE_5
 40
1.495
  1
                                                                      tel: 
 41
1.0
 72
0
  0
TEXT
  8
0
 62
5
  6
CONTINUOUS
 10
266.9239544389
 20
17.881
  7
TEXTSTYLE_5
 40
1.51
  1
+45 75723100     fax: +45 75723348
 41
1.0
 72
0
  0
TEXT
  8
0
 62
5
  6
CONTINUOUS
 10
221.937007874
 20
15.177
  7
TEXTSTYLE_5
 40
1.5
  1
                                                                      admin@unichains.dk  www.unichains.com
 41
1.0
 72
0
  0
TEXT
  8
0
 62
5
  6
CONTINUOUS
 10
308.687007874
 20
13.75
  7
TEXTSTYLE_6
 40
5.0
  1
1:1
 41
0.7
 72
1
 11
313.937007874
 21
13.75
  0
TEXT
  8
0
 62
5
  6
CONTINUOUS
 10
326.937007874
 20
13.75
  7
TEXTSTYLE_7
 40
7.5
  1
uni Light-00-RIB-K600
 41
0.5125
 72
0
  0
LINE
  8
0
 62
7
  6
CONTINUOUS
 10
0.0
 20
0.0
 11
0.0
 21
297.0
  0
LINE
  8
0
 62
7
  6
CONTINUOUS
 10
8.937007874
 20
10.0
 11
8.937007874
 21
287.0
  0
LINE
  8
0
 62
7
  6
CONTINUOUS
 10
0.0
 20
0.0
 11
420.0
 21
0.0
  0
LINE
  8
0
 62
7
  6
CONTINUOUS
 10
408.937007874
 20
10.0
 11
8.937007874
 21
10.0
  0
LINE
  8
0
 62
7
  6
CONTINUOUS
 10
218.937007874
 20
30.0
 11
408.937007874
 21
30.0
  0
LINE
  8
0
 62
7
  6
CONTINUOUS
 10
210.0
 20
297.0
 11
210.0
 21
292.0
  0
LINE
  8
0
 62
7
  6
CONTINUOUS
 10
210.0
 20
0.0
 11
210.0
 21
5.0
  0
LINE
  8
0
 62
7
  6
CONTINUOUS
 10
8.937007874
 20
287.0
 11
408.937007874
 21
287.0
  0
LINE
  8
0
 62
7
  6
CONTINUOUS
 10
0.0
 20
297.0
 11
420.0
 21
297.0
  0
LINE
  8
0
 62
7
  6
CONTINUOUS
 10
408.937007874
 20
287.0
 11
408.937007874
 21
10.0
  0
LINE
  8
0
 62
7
  6
CONTINUOUS
 10
420.0
 20
0.0
 11
420.0
 21
297.0
  0
LINE
  8
0
 62
7
  6
CONTINUOUS
 10
66.1540224913
 20
201.5042446535
 11
66.1540224913
 21
207.3042446535
  0
LINE
  8
0
 62
7
  6
CONTINUOUS
 10
66.3540224913
 20
199.804246048
 11
66.3540224913
 21
207.3042446535
  0
POLYLINE
  8
0
 62
7
  6
CONTINUOUS
 66
1
 70
0
  0
VERTEX
  8
0
 62
7
  6
CONTINUOUS
 10
70.3040224913
 20
205.0395213488
  0
VERTEX
  8
0
 62
7
  6
CONTINUOUS
 10
70.3060677686
 20
204.9954744546
  0
VERTEX
  8
0
 62
7
  6
CONTINUOUS
 10
70.3122751035
 20
204.9501943303
  0
VERTEX
  8
0
 62
7
  6
CONTINUOUS
 10
70.3226700054
 20
204.9042446535
  0
SEQEND
  0
LINE
  8
0
 62
7
  6
CONTINUOUS
 10
68.2040224913
 20
207.8042446535
 11
68.2040224913
 21
214.2542446534
  0
LINE
  8
0
 62
7
  6
CONTINUOUS
 10
69.7040224913
 20
207.8042446535
 11
69.7040224913
 21
214.2542446535
  0
LINE
  8
0
 62
7
  6
CONTINUOUS
 10
70.3040224913
 20
199.8042446535
 11
70.3040224913
 21
207.3042446535
  0
LINE
  8
0
 62
7
  6
CONTINUOUS
 10
71.7540224913
 20
207.8042446535
 11
71.7540224913
 21
214.2542446534
  0
LINE
  8
0
 62
7
  6
CONTINUOUS
 10
72.9540224913
 20
204.9042446535
 11
72.9540224913
 21
199.8042446535
  0
LINE
  8
0
 62
7
  6
CONTINUOUS
 10
73.2540224913
 20
207.8042446535
 11
73.2540224913
 21
214.2542446535
  0
POLYLINE
  8
0
 62
7
  6
CONTINUOUS
 66
1
 70
0
  0
VERTEX
  8
0
 62
7
  6
CONTINUOUS
 10
72.0374633204
 20
207.3042446535
  0
VERTEX
  8
0
 62
7
  6
CONTINUOUS
 10
72.0644068562
 20
207.3870690383
  0
VERTEX
  8
0
 62
7
  6
CONTINUOUS
 10
72.0738834602
 20
207.4595464071
  0
VERTEX
  8
0
 62
7
  6
CONTINUOUS
 10
72.0678236788
 20
207.5278352304
  0
VERTEX
  8
0
 62
7
  6
CONTINUOUS
 10
72.0449059783
 20
207.5969008039
  0
VERTEX
  8
0
 62
7
  6
CONTINUOUS
 10
72.0257855349
 20
207.6328838728
  0
VERTEX
  8
0
 62
7
  6
CONTINUOUS
 10
71.9730053669
 20
207.7028424423
  0
VERTEX
  8
0
 62
7
  6
CONTINUOUS
 10
71.9097130302
 20
207.7598765493
  0
VERTEX
  8
0
 62
7
  6
CONTINUOUS
 10
71.8517383132
 20
207.7937517023
  0
VERTEX
  8
0
 62
7
  6
CONTINUOUS
 10
71.8071454667
 20
207.8042446535
  0
SEQEND
  0
LINE
  8
0
 62
7
  6
CONTINUOUS
 10
77.7540224913
 20
207.8042446535
 11
77.7540224913
 21
214.2542446534
  0
LINE
  8
2_FEATURE
 62
7
  6
CONTINUOUS
 10
78.1040224913
 20
200.5102611702
 11
78.1040224913
 21
199.3042446535
  0
LINE
  8
0
 62
7
  6
CONTINUOUS
 10
78.5040224913
 20
203.0473268614
 11
78.5040224913
 21
199.8042446535
  0
LINE
  8
0
 62
7
  6
CONTINUOUS
 10
79.2540224913
 20
207.8042446535
 11
79.2540224913
 21
214.2542446535
  0
LINE
  8
0
 62
7
  6
CONTINUOUS
 10
80.4540224913
 20
207.3042446535
 11
80.4540224913
 21
199.8042446535
  0
LINE
  8
0
 62
7
  6
CONTINUOUS
 10
81.3040224913
 20
207.8042446535
 11
81.3040224913
 21
214.2542446534
  0
POLYLINE
  8
2_FEATURE
 62
7
  6
CONTINUOUS
 66
1
 70
0
  0
VERTEX
  8
2_FEATURE
 62
7
  6
CONTINUOUS
 10
78.1040224913
 20
200.5102611702
  0
VERTEX
  8
2_FEATURE
 62
7
  6
CONTINUOUS
 10
78.1133076895
 20
200.5737281557
  0
VERTEX
  8
2_FEATURE
 62
7
  6
CONTINUOUS
 10
78.1352326558
 20
200.6204416385
  0
VERTEX
  8
2_FEATURE
 62
7
  6
CONTINUOUS
 10
78.1633199298
 20
200.6507182472
  0
VERTEX
  8
2_FEATURE
 62
7
  6
CONTINUOUS
 10
78.1934498883
 20
200.6662891744
  0
VERTEX
  8
2_FEATURE
 62
7
  6
CONTINUOUS
 10
78.2244945425
 20
200.6697245417
  0
VERTEX
  8
2_FEATURE
 62
7
  6
CONTINUOUS
 10
78.2575144038
 20
200.6616965812
  0
VERTEX
  8
2_FEATURE
 62
7
  6
CONTINUOUS
 10
78.2913896553
 20
200.6418942758
  0
VERTEX
  8
2_FEATURE
 62
7
  6
CONTINUOUS
 10
78.3275510498
 20
200.6078746165
  0
VERTEX
  8
2_FEATURE
 62
7
  6
CONTINUOUS
 10
78.3654979236
 20
200.5568445403
  0
VERTEX
  8
2_FEATURE
 62
7
  6
CONTINUOUS
 10
78.4032314702
 20
200.4878442537
  0
VERTEX
  8
2_FEATURE
 62
7
  6
CONTINUOUS
 10
78.4395275272
 20
200.398512423
  0
SEQEND
  0
POLYLINE
  8
0
 62
7
  6
CONTINUOUS
 66
1
 70
0
  0
VERTEX
  8
0
 62
7
  6
CONTINUOUS
 10
80.4437842407
 20
204.9042446535
  0
VERTEX
  8
0
 62
7
  6
CONTINUOUS
 10
80.4494873639
 20
204.9381818808
  0
VERTEX
  8
0
 62
7
  6
CONTINUOUS
 10
80.4528925651
 20
204.9717746362
  0
VERTEX
  8
0
 62
7
  6
CONTINUOUS
 10
80.4540224913
 20
205.0049095874
  0
SEQEND
  0
POLYLINE
  8
0
 62
7
  6
CONTINUOUS
 66
1
 70
0
  0
VERTEX
  8
0
 62
7
  6
CONTINUOUS
 10
78.0374633204
 20
207.3042446535
  0
VERTEX
  8
0
 62
7
  6
CONTINUOUS
 10
78.0644107461
 20
207.3870859168
  0
VERTEX
  8
0
 62
7
  6
CONTINUOUS
 10
78.0738815513
 20
207.4594663501
  0
VERTEX
  8
0
 62
7
  6
CONTINUOUS
 10
78.0677983844
 20
207.5279579995
  0
VERTEX
  8
0
 62
7
  6
CONTINUOUS
 10
78.0447944812
 20
207.5971423501
  0
VERTEX
  8
0
 62
7
  6
CONTINUOUS
 10
78.0258174615
 20
207.632830907
  0
VERTEX
  8
0
 62
7
  6
CONTINUOUS
 10
77.973040851
 20
207.7028038922
  0
VERTEX
  8
0
 62
7
  6
CONTINUOUS
 10
77.9096994081
 20
207.7598865657
  0
VERTEX
  8
0
 62
7
  6
CONTINUOUS
 10
77.8517456768
 20
207.7937486249
  0
VERTEX
  8
0
 62
7
  6
CONTINUOUS
 10
77.8071454667
 20
207.8042446535
  0
SEQEND
  0
POLYLINE
  8
0
 62
7
  6
CONTINUOUS
 66
1
 70
0
  0
VERTEX
  8
0
 62
7
  6
CONTINUOUS
 10
72.9705816623
 20
207.3042446535
  0
VERTEX
  8
0
 62
7
  6
CONTINUOUS
 10
72.8836362297
 20
207.4873628341
  0
VERTEX
  8
0
 62
7
  6
CONTINUOUS
 10
72.7972609297
 20
207.6208665213
  0
VERTEX
  8
0
 62
7
  6
CONTINUOUS
 10
72.7140420376
 20
207.7120805371
  0
VERTEX
  8
0
 62
7
  6
CONTINUOUS
 10
72.6372189859
 20
207.7676246767
  0
VERTEX
  8
0
 62
7
  6
CONTINUOUS
 10
72.5683158696
 20
207.7957645842
  0
VERTEX
  8
0
 62
7
  6
CONTINUOUS
 10
72.5037516472
 20
207.8042445033
  0
VERTEX
  8
0
 62
7
  6
CONTINUOUS
 10
72.4391460174
 20
207.7956097796
  0
VERTEX
  8
0
 62
7
  6
CONTINUOUS
 10
72.3701361537
 20
207.7672412706
  0
VERTEX
  8
0
 62
7
  6
CONTINUOUS
 10
72.2932231646
 20
207.7113804769
  0
VERTEX
  8
0
 62
7
  6
CONTINUOUS
 10
72.2101471316
 20
207.6200344034
  0
VERTEX
  8
0
 62
7
  6
CONTINUOUS
 10
72.1240660305
 20
207.4867446558
  0
VERTEX
  8
0
 62
7
  6
CONTINUOUS
 10
72.0374633204
 20
207.3042446535
  0
SEQEND
  0
POLYLINE
  8
2_FEATURE
 62
7
  6
CONTINUOUS
 66
1
 70
0
  0
VERTEX
  8
2_FEATURE
 62
7
  6
CONTINUOUS
 10
78.4395275272
 20
200.398512423
  0
VERTEX
  8
2_FEATURE
 62
7
  6
CONTINUOUS
 10
78.4821717816
 20
200.2445242028
  0
VERTEX
  8
2_FEATURE
 62
7
  6
CONTINUOUS
 10
78.4947600868
 20
200.1710620101
  0
VERTEX
  8
2_FEATURE
 62
7
  6
CONTINUOUS
 10
78.5040224913
 20
200.0383909334
  0
SEQEND
  0
LINE
  8
0
 62
7
  6
CONTINUOUS
 10
82.8040224913
 20
207.8042446535
 11
82.8040224913
 21
214.2542446535
  0
POLYLINE
  8
0
 62
7
  6
CONTINUOUS
 66
1
 70
0
  0
VERTEX
  8
0
 62
7
  6
CONTINUOUS
 10
78.9705816623
 20
207.3042446535
  0
VERTEX
  8
0
 62
7
  6
CONTINUOUS
 10
78.8836362297
 20
207.4873628341
  0
VERTEX
  8
0
 62
7
  6
CONTINUOUS
 10
78.7972609297
 20
207.6208665213
  0
VERTEX
  8
0
 62
7
  6
CONTINUOUS
 10
78.7140420376
 20
207.7120805371
  0
VERTEX
  8
0
 62
7
  6
CONTINUOUS
 10
78.6372189859
 20
207.7676246767
  0
VERTEX
  8
0
 62
7
  6
CONTINUOUS
 10
78.5683158696
 20
207.7957645842
  0
VERTEX
  8
0
 62
7
  6
CONTINUOUS
 10
78.5037516472
 20
207.8042445033
  0
VERTEX
  8
0
 62
7
  6
CONTINUOUS
 10
78.4391460174
 20
207.7956097796
  0
VERTEX
  8
0
 62
7
  6
CONTINUOUS
 10
78.3701361537
 20
207.7672412706
  0
VERTEX
  8
0
 62
7
  6
CONTINUOUS
 10
78.2932231646
 20
207.7113804769
  0
VERTEX
  8
0
 62
7
  6
CONTINUOUS
 10
78.2101471316
 20
207.6200344034
  0
VERTEX
  8
0
 62
7
  6
CONTINUOUS
 10
78.1240660305
 20
207.4867446558
  0
VERTEX
  8
0
 62
7
  6
CONTINUOUS
 10
78.0374633204
 20
207.3042446535
  0
SEQEND
  0
POLYLINE
  8
0
 62
7
  6
CONTINUOUS
 66
1
 70
0
  0
VERTEX
  8
0
 62
7
  6
CONTINUOUS
 10
89.6540224913
 20
205.0049095874
  0
VERTEX
  8
0
 62
7
  6
CONTINUOUS
 10
89.6551516147
 20
204.9717864776
  0
VERTEX
  8
0
 62
7
  6
CONTINUOUS
 10
89.6585574073
 20
204.9381834509
  0
VERTEX
  8
0
 62
7
  6
CONTINUOUS
 10
89.664260742
 20
204.9042446535
  0
SEQEND
  0
LINE
  8
0
 62
7
  6
CONTINUOUS
 10
87.3040224913
 20
207.8042446535
 11
87.3040224913
 21
214.2542446534
  0
LINE
  8
0
 62
7
  6
CONTINUOUS
 10
88.8040224913
 20
207.8042446535
 11
88.8040224913
 21
214.2542446535
  0
LINE
  8
0
 62
7
  6
CONTINUOUS
 10
89.6540224913
 20
199.8042446535
 11
89.6540224913
 21
207.3042446535
  0
LINE
  8
0
 62
7
  6
CONTINUOUS
 10
90.8540224913
 20
207.8042446535
 11
90.8540224913
 21
214.2542446534
  0
LINE
  8
0
 62
7
  6
CONTINUOUS
 10
91.6040224913
 20
203.0473271115
 11
91.6040224913
 21
199.8042446535
  0
POLYLINE
  8
0
 62
7
  6
CONTINUOUS
 66
1
 70
0
  0
VERTEX
  8
0
 62
7
  6
CONTINUOUS
 10
70.3040224913
 20
204.5679732784
  0
VERTEX
  8
0
 62
7
  6
CONTINUOUS
 10
70.291596523
 20
204.5812133475
  0
VERTEX
  8
0
 62
7
  6
CONTINUOUS
 10
70.2548670432
 20
204.5936393237
  0
VERTEX
  8
0
 62
7
  6
CONTINUOUS
 10
70.1955552248
 20
204.604672621
  0
VERTEX
  8
0
 62
7
  6
CONTINUOUS
 10
70.1165286216
 20
204.6138110361
  0
VERTEX
  8
0
 62
7
  6
CONTINUOUS
 10
70.0216800566
 20
204.6206454998
  0
VERTEX
  8
0
 62
7
  6
CONTINUOUS
 10
69.91573843
 20
204.624872878
  0
VERTEX
  8
0
 62
7
  6
CONTINUOUS
 10
69.8040224913
 20
204.6263043224
  0
SEQEND
  0
LINE
  8
0
 62
7
  6
CONTINUOUS
 10
92.3540224913
 20
207.8042446535
 11
92.3540224913
 21
214.2542446535
  0
LINE
  8
0
 62
7
  6
CONTINUOUS
 10
96.8540224913
 20
207.8042446535
 11
96.8540224913
 21
214.2542446534
  0
POLYLINE
  8
0
 62
7
  6
CONTINUOUS
 66
1
 70
0
  0
VERTEX
  8
0
 62
7
  6
CONTINUOUS
 10
91.1374633204
 20
207.3042446535
  0
VERTEX
  8
0
 62
7
  6
CONTINUOUS
 10
91.1644068562
 20
207.3870690383
  0
VERTEX
  8
0
 62
7
  6
CONTINUOUS
 10
91.1738834602
 20
207.4595464071
  0
VERTEX
  8
0
 62
7
  6
CONTINUOUS
 10
91.1678236788
 20
207.5278352304
  0
VERTEX
  8
0
 62
7
  6
CONTINUOUS
 10
91.1449059783
 20
207.5969008039
  0
VERTEX
  8
0
 62
7
  6
CONTINUOUS
 10
91.1257855349
 20
207.6328838728
  0
VERTEX
  8
0
 62
7
  6
CONTINUOUS
 10
91.0730053669
 20
207.7028424423
  0
VERTEX
  8
0
 62
7
  6
CONTINUOUS
 10
91.0097130302
 20
207.7598765493
  0
VERTEX
  8
0
 62
7
  6
CONTINUOUS
 10
90.9517383132
 20
207.7937517023
  0
VERTEX
  8
0
 62
7
  6
CONTINUOUS
 10
90.9071454667
 20
207.8042446535
  0
SEQEND
  0
POLYLINE
  8
0
 62
7
  6
CONTINUOUS
 66
1
 70
0
  0
VERTEX
  8
0
 62
7
  6
CONTINUOUS
 10
70.3040224913
 20
202.7405160285
  0
VERTEX
  8
0
 62
7
  6
CONTINUOUS
 10
70.291596523
 20
202.7272759594
  0
VERTEX
  8
0
 62
7
  6
CONTINUOUS
 10
70.2548670432
 20
202.7148499833
  0
VERTEX
  8
0
 62
7
  6
CONTINUOUS
 10
70.1955552248
 20
202.703816686
  0
VERTEX
  8
0
 62
7
  6
CONTINUOUS
 10
70.1165286216
 20
202.6946782708
  0
VERTEX
  8
0
 62
7
  6
CONTINUOUS
 10
70.0216800566
 20
202.6878438071
  0
VERTEX
  8
0
 62
7
  6
CONTINUOUS
 10
69.91573843
 20
202.683616429
  0
VERTEX
  8
0
 62
7
  6
CONTINUOUS
 10
69.8040224913
 20
202.6821849845
  0
SEQEND
  0
POLYLINE
  8
0
 62
7
  6
CONTINUOUS
 66
1
 70
0
  0
VERTEX
  8
0
 62
7
  6
CONTINUOUS
 10
80.4540224913
 20
202.7405160285
  0
VERTEX
  8
0
 62
7
  6
CONTINUOUS
 10
80.4664484597
 20
202.7272759594
  0
VERTEX
  8
0
 62
7
  6
CONTINUOUS
 10
80.5031779395
 20
202.7148499833
  0
VERTEX
  8
0
 62
7
  6
CONTINUOUS
 10
80.5624897579
 20
202.703816686
  0
VERTEX
  8
0
 62
7
  6
CONTINUOUS
 10
80.6415163611
 20
202.6946782708
  0
VERTEX
  8
0
 62
7
  6
CONTINUOUS
 10
80.7363649261
 20
202.6878438071
  0
VERTEX
  8
0
 62
7
  6
CONTINUOUS
 10
80.8423065527
 20
202.683616429
  0
VERTEX
  8
0
 62
7
  6
CONTINUOUS
 10
80.9540224913
 20
202.6821849845
  0
SEQEND
  0
POLYLINE
  8
0
 62
7
  6
CONTINUOUS
 66
1
 70
0
  0
VERTEX
  8
0
 62
7
  6
CONTINUOUS
 10
92.0705816623
 20
207.3042446535
  0
VERTEX
  8
0
 62
7
  6
CONTINUOUS
 10
91.9836362297
 20
207.4873628341
  0
VERTEX
  8
0
 62
7
  6
CONTINUOUS
 10
91.8972609297
 20
207.6208665213
  0
VERTEX
  8
0
 62
7
  6
CONTINUOUS
 10
91.8140420376
 20
207.7120805371
  0
VERTEX
  8
0
 62
7
  6
CONTINUOUS
 10
91.7372189859
 20
207.7676246767
  0
VERTEX
  8
0
 62
7
  6
CONTINUOUS
 10
91.6683158696
 20
207.7957645842
  0
VERTEX
  8
0
 62
7
  6
CONTINUOUS
 10
91.6037516472
 20
207.8042445033
  0
VERTEX
  8
0
 62
7
  6
CONTINUOUS
 10
91.5391460174
 20
207.7956097796
  0
VERTEX
  8
0
 62
7
  6
CONTINUOUS
 10
91.4701361537
 20
207.7672412706
  0
VERTEX
  8
0
 62
7
  6
CONTINUOUS
 10
91.3932231646
 20
207.7113804769
  0
VERTEX
  8
0
 62
7
  6
CONTINUOUS
 10
91.3101471316
 20
207.6200344034
  0
VERTEX
  8
0
 62
7
  6
CONTINUOUS
 10
91.2240660305
 20
207.4867446558
  0
VERTEX
  8
0
 62
7
  6
CONTINUOUS
 10
91.1374633204
 20
207.3042446535
  0
SEQEND
  0
LINE
  8
0
 62
7
  6
CONTINUOUS
 10
97.6040224913
 20
203.0473266786
 11
97.6040224913
 21
199.8042446535
  0
LINE
  8
0
 62
7
  6
CONTINUOUS
 10
98.3540224913
 20
207.8042446535
 11
98.3540224913
 21
214.2542446535
  0
LINE
  8
0
 62
7
  6
CONTINUOUS
 10
99.5540224913
 20
199.8042446535
 11
99.5540224913
 21
207.3042446535
  0
LINE
  8
0
 62
7
  6
CONTINUOUS
 10
100.4040224913
 20
207.8042446535
 11
100.4040224913
 21
214.2542446534
  0
LINE
  8
0
 62
7
  6
CONTINUOUS
 10
101.9040224913
 20
207.8042446535
 11
101.9040224913
 21
214.2542446535
  0
POLYLINE
  8
0
 62
7
  6
CONTINUOUS
 66
1
 70
0
  0
VERTEX
  8
0
 62
7
  6
CONTINUOUS
 10
99.5437842407
 20
204.9042446535
  0
VERTEX
  8
0
 62
7
  6
CONTINUOUS
 10
99.5494873639
 20
204.9381818808
  0
VERTEX
  8
0
 62
7
  6
CONTINUOUS
 10
99.5528925651
 20
204.9717746362
  0
VERTEX
  8
0
 62
7
  6
CONTINUOUS
 10
99.5540224913
 20
205.0049095874
  0
SEQEND
  0
POLYLINE
  8
0
 62
7
  6
CONTINUOUS
 66
1
 70
0
  0
VERTEX
  8
0
 62
7
  6
CONTINUOUS
 10
97.1374633204
 20
207.3042446535
  0
VERTEX
  8
0
 62
7
  6
CONTINUOUS
 10
97.1644107461
 20
207.3870859168
  0
VERTEX
  8
0
 62
7
  6
CONTINUOUS
 10
97.1738815513
 20
207.4594663501
  0
VERTEX
  8
0
 62
7
  6
CONTINUOUS
 10
97.1677983844
 20
207.5279579995
  0
VERTEX
  8
0
 62
7
  6
CONTINUOUS
 10
97.1447944812
 20
207.5971423501
  0
VERTEX
  8
0
 62
7
  6
CONTINUOUS
 10
97.1258174615
 20
207.632830907
  0
VERTEX
  8
0
 62
7
  6
CONTINUOUS
 10
97.073040851
 20
207.7028038922
  0
VERTEX
  8
0
 62
7
  6
CONTINUOUS
 10
97.0096994081
 20
207.7598865657
  0
VERTEX
  8
0
 62
7
  6
CONTINUOUS
 10
96.9517456768
 20
207.7937486249
  0
VERTEX
  8
0
 62
7
  6
CONTINUOUS
 10
96.9071454667
 20
207.8042446535
  0
SEQEND
  0
POLYLINE
  8
0
 62
7
  6
CONTINUOUS
 66
1
 70
0
  0
VERTEX
  8
0
 62
7
  6
CONTINUOUS
 10
80.4540224913
 20
204.5679732784
  0
VERTEX
  8
0
 62
7
  6
CONTINUOUS
 10
80.4664484597
 20
204.5812133475
  0
VERTEX
  8
0
 62
7
  6
CONTINUOUS
 10
80.5031779395
 20
204.5936393237
  0
VERTEX
  8
0
 62
7
  6
CONTINUOUS
 10
80.5624897579
 20
204.604672621
  0
VERTEX
  8
0
 62
7
  6
CONTINUOUS
 10
80.6415163611
 20
204.6138110361
  0
VERTEX
  8
0
 62
7
  6
CONTINUOUS
 10
80.7363649261
 20
204.6206454998
  0
VERTEX
  8
0
 62
7
  6
CONTINUOUS
 10
80.8423065527
 20
204.624872878
  0
VERTEX
  8
0
 62
7
  6
CONTINUOUS
 10
80.9540224913
 20
204.6263043224
  0
SEQEND
  0
POLYLINE
  8
0
 62
7
  6
CONTINUOUS
 66
1
 70
0
  0
VERTEX
  8
0
 62
7
  6
CONTINUOUS
 10
89.6540224913
 20
204.5679732784
  0
VERTEX
  8
0
 62
7
  6
CONTINUOUS
 10
89.641596523
 20
204.5812133475
  0
VERTEX
  8
0
 62
7
  6
CONTINUOUS
 10
89.6048670432
 20
204.5936393237
  0
VERTEX
  8
0
 62
7
  6
CONTINUOUS
 10
89.5455552248
 20
204.604672621
  0
VERTEX
  8
0
 62
7
  6
CONTINUOUS
 10
89.4665286216
 20
204.6138110361
  0
VERTEX
  8
0
 62
7
  6
CONTINUOUS
 10
89.3716800566
 20
204.6206454998
  0
VERTEX
  8
0
 62
7
  6
CONTINUOUS
 10
89.26573843
 20
204.624872878
  0
VERTEX
  8
0
 62
7
  6
CONTINUOUS
 10
89.1540224913
 20
204.6263043224
  0
SEQEND
  0
LINE
  8
0
 62
7
  6
CONTINUOUS
 10
106.4040224913
 20
207.8042446535
 11
106.4040224913
 21
214.2542446534
  0
POLYLINE
  8
0
 62
7
  6
CONTINUOUS
 66
1
 70
0
  0
VERTEX
  8
0
 62
7
  6
CONTINUOUS
 10
89.6540224913
 20
202.7405160285
  0
VERTEX
  8
0
 62
7
  6
CONTINUOUS
 10
89.641596523
 20
202.7272759594
  0
VERTEX
  8
0
 62
7
  6
CONTINUOUS
 10
89.6048670432
 20
202.7148499833
  0
VERTEX
  8
0
 62
7
  6
CONTINUOUS
 10
89.5455552248
 20
202.703816686
  0
VERTEX
  8
0
 62
7
  6
CONTINUOUS
 10
89.4665286216
 20
202.6946782708
  0
VERTEX
  8
0
 62
7
  6
CONTINUOUS
 10
89.3716800566
 20
202.6878438071
  0
VERTEX
  8
0
 62
7
  6
CONTINUOUS
 10
89.26573843
 20
202.683616429
  0
VERTEX
  8
0
 62
7
  6
CONTINUOUS
 10
89.1540224913
 20
202.6821849845
  0
SEQEND
  0
POLYLINE
  8
0
 62
7
  6
CONTINUOUS
 66
1
 70
0
  0
VERTEX
  8
0
 62
7
  6
CONTINUOUS
 10
98.0705816623
 20
207.3042446535
  0
VERTEX
  8
0
 62
7
  6
CONTINUOUS
 10
97.9836362297
 20
207.4873628341
  0
VERTEX
  8
0
 62
7
  6
CONTINUOUS
 10
97.8972609297
 20
207.6208665213
  0
VERTEX
  8
0
 62
7
  6
CONTINUOUS
 10
97.8140420376
 20
207.7120805371
  0
VERTEX
  8
0
 62
7
  6
CONTINUOUS
 10
97.7372189859
 20
207.7676246767
  0
VERTEX
  8
0
 62
7
  6
CONTINUOUS
 10
97.6683158696
 20
207.7957645842
  0
VERTEX
  8
0
 62
7
  6
CONTINUOUS
 10
97.6037516472
 20
207.8042445033
  0
VERTEX
  8
0
 62
7
  6
CONTINUOUS
 10
97.5391460174
 20
207.7956097796
  0
VERTEX
  8
0
 62
7
  6
CONTINUOUS
 10
97.4701361537
 20
207.7672412706
  0
VERTEX
  8
0
 62
7
  6
CONTINUOUS
 10
97.3932231646
 20
207.7113804769
  0
VERTEX
  8
0
 62
7
  6
CONTINUOUS
 10
97.3101471316
 20
207.6200344034
  0
VERTEX
  8
0
 62
7
  6
CONTINUOUS
 10
97.2240660305
 20
207.4867446558
  0
VERTEX
  8
0
 62
7
  6
CONTINUOUS
 10
97.1374633204
 20
207.3042446535
  0
SEQEND
  0
POLYLINE
  8
0
 62
7
  6
CONTINUOUS
 66
1
 70
0
  0
VERTEX
  8
0
 62
7
  6
CONTINUOUS
 10
108.7540224913
 20
205.0049095874
  0
VERTEX
  8
0
 62
7
  6
CONTINUOUS
 10
108.7551516147
 20
204.9717864776
  0
VERTEX
  8
0
 62
7
  6
CONTINUOUS
 10
108.7585574073
 20
204.9381834509
  0
VERTEX
  8
0
 62
7
  6
CONTINUOUS
 10
108.764260742
 20
204.9042446535
  0
SEQEND
  0
LINE
  8
0
 62
7
  6
CONTINUOUS
 10
107.9040224913
 20
207.8042446535
 11
107.9040224913
 21
214.2542446535
  0
LINE
  8
0
 62
7
  6
CONTINUOUS
 10
108.7540224913
 20
199.8042446535
 11
108.7540224913
 21
207.3042446535
  0
LINE
  8
0
 62
7
  6
CONTINUOUS
 10
109.9540224913
 20
207.8042446535
 11
109.9540224913
 21
214.2542446534
  0
LINE
  8
0
 62
7
  6
CONTINUOUS
 10
110.7040224913
 20
203.0473271115
 11
110.7040224913
 21
199.8042446535
  0
LINE
  8
0
 62
7
  6
CONTINUOUS
 10
111.4540224913
 20
207.8042446535
 11
111.4540224913
 21
214.2542446535
  0
POLYLINE
  8
0
 62
7
  6
CONTINUOUS
 66
1
 70
0
  0
VERTEX
  8
0
 62
7
  6
CONTINUOUS
 10
110.2374633204
 20
207.3042446535
  0
VERTEX
  8
0
 62
7
  6
CONTINUOUS
 10
110.2644068562
 20
207.3870690383
  0
VERTEX
  8
0
 62
7
  6
CONTINUOUS
 10
110.2738834602
 20
207.4595464071
  0
VERTEX
  8
0
 62
7
  6
CONTINUOUS
 10
110.2678236788
 20
207.5278352304
  0
VERTEX
  8
0
 62
7
  6
CONTINUOUS
 10
110.2449059783
 20
207.5969008039
  0
VERTEX
  8
0
 62
7
  6
CONTINUOUS
 10
110.2257855349
 20
207.6328838728
  0
VERTEX
  8
0
 62
7
  6
CONTINUOUS
 10
110.1730053669
 20
207.7028424423
  0
VERTEX
  8
0
 62
7
  6
CONTINUOUS
 10
110.1097130302
 20
207.7598765493
  0
VERTEX
  8
0
 62
7
  6
CONTINUOUS
 10
110.0517383132
 20
207.7937517023
  0
VERTEX
  8
0
 62
7
  6
CONTINUOUS
 10
110.0071454667
 20
207.8042446535
  0
SEQEND
  0
POLYLINE
  8
0
 62
7
  6
CONTINUOUS
 66
1
 70
0
  0
VERTEX
  8
0
 62
7
  6
CONTINUOUS
 10
99.5540224913
 20
202.7405160285
  0
VERTEX
  8
0
 62
7
  6
CONTINUOUS
 10
99.5664484597
 20
202.7272759594
  0
VERTEX
  8
0
 62
7
  6
CONTINUOUS
 10
99.6031779395
 20
202.7148499833
  0
VERTEX
  8
0
 62
7
  6
CONTINUOUS
 10
99.6624897579
 20
202.703816686
  0
VERTEX
  8
0
 62
7
  6
CONTINUOUS
 10
99.7415163611
 20
202.6946782708
  0
VERTEX
  8
0
 62
7
  6
CONTINUOUS
 10
99.8363649261
 20
202.6878438071
  0
VERTEX
  8
0
 62
7
  6
CONTINUOUS
 10
99.9423065527
 20
202.683616429
  0
VERTEX
  8
0
 62
7
  6
CONTINUOUS
 10
100.0540224913
 20
202.6821849845
  0
SEQEND
  0
LINE
  8
0
 62
7
  6
CONTINUOUS
 10
115.9540224913
 20
207.8042446535
 11
115.9540224913
 21
214.2542446534
  0
LINE
  8
0
 62
7
  6
CONTINUOUS
 10
116.7040224913
 20
203.0473266786
 11
116.7040224913
 21
199.8042446535
  0
LINE
  8
0
 62
7
  6
CONTINUOUS
 10
117.4540224913
 20
207.8042446535
 11
117.4540224913
 21
214.2542446535
  0
POLYLINE
  8
0
 62
7
  6
CONTINUOUS
 66
1
 70
0
  0
VERTEX
  8
0
 62
7
  6
CONTINUOUS
 10
116.2374633204
 20
207.3042446535
  0
VERTEX
  8
0
 62
7
  6
CONTINUOUS
 10
116.2644107461
 20
207.3870859168
  0
VERTEX
  8
0
 62
7
  6
CONTINUOUS
 10
116.2738815513
 20
207.4594663501
  0
VERTEX
  8
0
 62
7
  6
CONTINUOUS
 10
116.2677983844
 20
207.5279579995
  0
VERTEX
  8
0
 62
7
  6
CONTINUOUS
 10
116.2447944811
 20
207.5971423501
  0
VERTEX
  8
0
 62
7
  6
CONTINUOUS
 10
116.2258174615
 20
207.632830907
  0
VERTEX
  8
0
 62
7
  6
CONTINUOUS
 10
116.173040851
 20
207.7028038922
  0
VERTEX
  8
0
 62
7
  6
CONTINUOUS
 10
116.1096994081
 20
207.7598865657
  0
VERTEX
  8
0
 62
7
  6
CONTINUOUS
 10
116.0517456768
 20
207.7937486249
  0
VERTEX
  8
0
 62
7
  6
CONTINUOUS
 10
116.0071454667
 20
207.8042446535
  0
SEQEND
  0
POLYLINE
  8
0
 62
7
  6
CONTINUOUS
 66
1
 70
0
  0
VERTEX
  8
0
 62
7
  6
CONTINUOUS
 10
99.5540224913
 20
204.5679732784
  0
VERTEX
  8
0
 62
7
  6
CONTINUOUS
 10
99.5664484597
 20
204.5812133475
  0
VERTEX
  8
0
 62
7
  6
CONTINUOUS
 10
99.6031779395
 20
204.5936393237
  0
VERTEX
  8
0
 62
7
  6
CONTINUOUS
 10
99.6624897579
 20
204.604672621
  0
VERTEX
  8
0
 62
7
  6
CONTINUOUS
 10
99.7415163611
 20
204.6138110361
  0
VERTEX
  8
0
 62
7
  6
CONTINUOUS
 10
99.8363649261
 20
204.6206454998
  0
VERTEX
  8
0
 62
7
  6
CONTINUOUS
 10
99.9423065527
 20
204.624872878
  0
VERTEX
  8
0
 62
7
  6
CONTINUOUS
 10
100.0540224913
 20
204.6263043224
  0
SEQEND
  0
POLYLINE
  8
0
 62
7
  6
CONTINUOUS
 66
1
 70
0
  0
VERTEX
  8
0
 62
7
  6
CONTINUOUS
 10
108.7540224913
 20
204.5679732784
  0
VERTEX
  8
0
 62
7
  6
CONTINUOUS
 10
108.741596523
 20
204.5812133475
  0
VERTEX
  8
0
 62
7
  6
CONTINUOUS
 10
108.7048670432
 20
204.5936393237
  0
VERTEX
  8
0
 62
7
  6
CONTINUOUS
 10
108.6455552248
 20
204.604672621
  0
VERTEX
  8
0
 62
7
  6
CONTINUOUS
 10
108.5665286216
 20
204.6138110361
  0
VERTEX
  8
0
 62
7
  6
CONTINUOUS
 10
108.4716800566
 20
204.6206454998
  0
VERTEX
  8
0
 62
7
  6
CONTINUOUS
 10
108.36573843
 20
204.624872878
  0
VERTEX
  8
0
 62
7
  6
CONTINUOUS
 10
108.2540224913
 20
204.6263043224
  0
SEQEND
  0
POLYLINE
  8
0
 62
7
  6
CONTINUOUS
 66
1
 70
0
  0
VERTEX
  8
0
 62
7
  6
CONTINUOUS
 10
111.1705816623
 20
207.3042446535
  0
VERTEX
  8
0
 62
7
  6
CONTINUOUS
 10
111.0836362297
 20
207.4873628341
  0
VERTEX
  8
0
 62
7
  6
CONTINUOUS
 10
110.9972609297
 20
207.6208665213
  0
VERTEX
  8
0
 62
7
  6
CONTINUOUS
 10
110.9140420376
 20
207.7120805371
  0
VERTEX
  8
0
 62
7
  6
CONTINUOUS
 10
110.8372189859
 20
207.7676246767
  0
VERTEX
  8
0
 62
7
  6
CONTINUOUS
 10
110.7683158696
 20
207.7957645842
  0
VERTEX
  8
0
 62
7
  6
CONTINUOUS
 10
110.7037516472
 20
207.8042445033
  0
VERTEX
  8
0
 62
7
  6
CONTINUOUS
 10
110.6391460174
 20
207.7956097796
  0
VERTEX
  8
0
 62
7
  6
CONTINUOUS
 10
110.5701361537
 20
207.7672412706
  0
VERTEX
  8
0
 62
7
  6
CONTINUOUS
 10
110.4932231646
 20
207.7113804769
  0
VERTEX
  8
0
 62
7
  6
CONTINUOUS
 10
110.4101471316
 20
207.6200344034
  0
VERTEX
  8
0
 62
7
  6
CONTINUOUS
 10
110.3240660305
 20
207.4867446558
  0
VERTEX
  8
0
 62
7
  6
CONTINUOUS
 10
110.2374633204
 20
207.3042446535
  0
SEQEND
  0
LINE
  8
0
 62
7
  6
CONTINUOUS
 10
118.6540224913
 20
199.8042446535
 11
118.6540224913
 21
207.3042446535
  0
LINE
  8
0
 62
7
  6
CONTINUOUS
 10
119.5040224913
 20
207.8042446535
 11
119.5040224913
 21
214.2542446534
  0
LINE
  8
0
 62
7
  6
CONTINUOUS
 10
121.0040224913
 20
207.8042446535
 11
121.0040224913
 21
214.2542446535
  0
POLYLINE
  8
0
 62
7
  6
CONTINUOUS
 66
1
 70
0
  0
VERTEX
  8
0
 62
7
  6
CONTINUOUS
 10
118.6437842407
 20
204.9042446535
  0
VERTEX
  8
0
 62
7
  6
CONTINUOUS
 10
118.6494873639
 20
204.9381818808
  0
VERTEX
  8
0
 62
7
  6
CONTINUOUS
 10
118.6528925651
 20
204.9717746362
  0
VERTEX
  8
0
 62
7
  6
CONTINUOUS
 10
118.6540224913
 20
205.0049095874
  0
SEQEND
  0
POLYLINE
  8
0
 62
7
  6
CONTINUOUS
 66
1
 70
0
  0
VERTEX
  8
0
 62
7
  6
CONTINUOUS
 10
108.7540224913
 20
202.7405160285
  0
VERTEX
  8
0
 62
7
  6
CONTINUOUS
 10
108.741596523
 20
202.7272759594
  0
VERTEX
  8
0
 62
7
  6
CONTINUOUS
 10
108.7048670432
 20
202.7148499833
  0
VERTEX
  8
0
 62
7
  6
CONTINUOUS
 10
108.6455552248
 20
202.703816686
  0
VERTEX
  8
0
 62
7
  6
CONTINUOUS
 10
108.5665286216
 20
202.6946782708
  0
VERTEX
  8
0
 62
7
  6
CONTINUOUS
 10
108.4716800566
 20
202.6878438071
  0
VERTEX
  8
0
 62
7
  6
CONTINUOUS
 10
108.36573843
 20
202.683616429
  0
VERTEX
  8
0
 62
7
  6
CONTINUOUS
 10
108.2540224913
 20
202.6821849845
  0
SEQEND
  0
POLYLINE
  8
0
 62
7
  6
CONTINUOUS
 66
1
 70
0
  0
VERTEX
  8
0
 62
7
  6
CONTINUOUS
 10
118.6540224913
 20
202.7405160285
  0
VERTEX
  8
0
 62
7
  6
CONTINUOUS
 10
118.6664484597
 20
202.7272759594
  0
VERTEX
  8
0
 62
7
  6
CONTINUOUS
 10
118.7031779395
 20
202.7148499833
  0
VERTEX
  8
0
 62
7
  6
CONTINUOUS
 10
118.7624897579
 20
202.703816686
  0
VERTEX
  8
0
 62
7
  6
CONTINUOUS
 10
118.8415163611
 20
202.6946782708
  0
VERTEX
  8
0
 62
7
  6
CONTINUOUS
 10
118.9363649261
 20
202.6878438071
  0
VERTEX
  8
0
 62
7
  6
CONTINUOUS
 10
119.0423065527
 20
202.683616429
  0
VERTEX
  8
0
 62
7
  6
CONTINUOUS
 10
119.1540224913
 20
202.6821849845
  0
SEQEND
  0
POLYLINE
  8
0
 62
7
  6
CONTINUOUS
 66
1
 70
0
  0
VERTEX
  8
0
 62
7
  6
CONTINUOUS
 10
117.1705816623
 20
207.3042446535
  0
VERTEX
  8
0
 62
7
  6
CONTINUOUS
 10
117.0836362297
 20
207.4873628341
  0
VERTEX
  8
0
 62
7
  6
CONTINUOUS
 10
116.9972609297
 20
207.6208665213
  0
VERTEX
  8
0
 62
7
  6
CONTINUOUS
 10
116.9140420376
 20
207.7120805371
  0
VERTEX
  8
0
 62
7
  6
CONTINUOUS
 10
116.8372189859
 20
207.7676246767
  0
VERTEX
  8
0
 62
7
  6
CONTINUOUS
 10
116.7683158696
 20
207.7957645842
  0
VERTEX
  8
0
 62
7
  6
CONTINUOUS
 10
116.7037516472
 20
207.8042445033
  0
VERTEX
  8
0
 62
7
  6
CONTINUOUS
 10
116.6391460174
 20
207.7956097796
  0
VERTEX
  8
0
 62
7
  6
CONTINUOUS
 10
116.5701361537
 20
207.7672412706
  0
VERTEX
  8
0
 62
7
  6
CONTINUOUS
 10
116.4932231646
 20
207.7113804769
  0
VERTEX
  8
0
 62
7
  6
CONTINUOUS
 10
116.4101471316
 20
207.6200344034
  0
VERTEX
  8
0
 62
7
  6
CONTINUOUS
 10
116.3240660305
 20
207.4867446558
  0
VERTEX
  8
0
 62
7
  6
CONTINUOUS
 10
116.2374633204
 20
207.3042446535
  0
SEQEND
  0
LINE
  8
0
 62
7
  6
CONTINUOUS
 10
125.5040224913
 20
207.8042446535
 11
125.5040224913
 21
214.2542446534
  0
LINE
  8
0
 62
7
  6
CONTINUOUS
 10
127.0040224913
 20
207.8042446535
 11
127.0040224913
 21
214.2542446535
  0
POLYLINE
  8
0
 62
7
  6
CONTINUOUS
 66
1
 70
0
  0
VERTEX
  8
0
 62
7
  6
CONTINUOUS
 10
118.6540224913
 20
204.5679732784
  0
VERTEX
  8
0
 62
7
  6
CONTINUOUS
 10
118.6664484597
 20
204.5812133475
  0
VERTEX
  8
0
 62
7
  6
CONTINUOUS
 10
118.7031779395
 20
204.5936393237
  0
VERTEX
  8
0
 62
7
  6
CONTINUOUS
 10
118.7624897579
 20
204.604672621
  0
VERTEX
  8
0
 62
7
  6
CONTINUOUS
 10
118.8415163611
 20
204.6138110361
  0
VERTEX
  8
0
 62
7
  6
CONTINUOUS
 10
118.9363649261
 20
204.6206454998
  0
VERTEX
  8
0
 62
7
  6
CONTINUOUS
 10
119.0423065527
 20
204.624872878
  0
VERTEX
  8
0
 62
7
  6
CONTINUOUS
 10
119.1540224913
 20
204.6263043224
  0
SEQEND
  0
POLYLINE
  8
0
 62
7
  6
CONTINUOUS
 66
1
 70
0
  0
VERTEX
  8
0
 62
7
  6
CONTINUOUS
 10
212.900899516
 20
207.8042446535
  0
VERTEX
  8
0
 62
7
  6
CONTINUOUS
 10
212.8562961972
 20
207.7937473256
  0
VERTEX
  8
0
 62
7
  6
CONTINUOUS
 10
212.7982993223
 20
207.7598525526
  0
VERTEX
  8
0
 62
7
  6
CONTINUOUS
 10
212.7350100748
 20
207.7028103494
  0
VERTEX
  8
0
 62
7
  6
CONTINUOUS
 10
212.6822910997
 20
207.6329363643
  0
VERTEX
  8
0
 62
7
  6
CONTINUOUS
 10
212.663166722
 20
207.5969608965
  0
VERTEX
  8
0
 62
7
  6
CONTINUOUS
 10
212.6402297637
 20
207.5278763198
  0
VERTEX
  8
0
 62
7
  6
CONTINUOUS
 10
212.6341608726
 20
207.4595738568
  0
VERTEX
  8
0
 62
7
  6
CONTINUOUS
 10
212.6436340525
 20
207.3870867156
  0
VERTEX
  8
0
 62
7
  6
CONTINUOUS
 10
212.6705816623
 20
207.3042446535
  0
SEQEND
  0
POLYLINE
  8
0
 62
7
  6
CONTINUOUS
 66
1
 70
0
  0
VERTEX
  8
0
 62
7
  6
CONTINUOUS
 10
127.8540224913
 20
205.0049095874
  0
VERTEX
  8
0
 62
7
  6
CONTINUOUS
 10
127.8551516147
 20
204.9717864776
  0
VERTEX
  8
0
 62
7
  6
CONTINUOUS
 10
127.8585574073
 20
204.9381834509
  0
VERTEX
  8
0
 62
7
  6
CONTINUOUS
 10
127.864260742
 20
204.9042446535
  0
SEQEND
  0
LINE
  8
0
 62
7
  6
CONTINUOUS
 10
127.8540224913
 20
199.8042446535
 11
127.8540224913
 21
207.3042446535
  0
LINE
  8
0
 62
7
  6
CONTINUOUS
 10
129.0540224913
 20
207.8042446535
 11
129.0540224913
 21
214.2542446534
  0
LINE
  8
0
 62
7
  6
CONTINUOUS
 10
129.8040224913
 20
203.0473271115
 11
129.8040224913
 21
199.8042446535
  0
LINE
  8
0
 62
7
  6
CONTINUOUS
 10
130.5540224913
 20
207.8042446535
 11
130.5540224913
 21
214.2542446535
  0
POLYLINE
  8
0
 62
7
  6
CONTINUOUS
 66
1
 70
0
  0
VERTEX
  8
0
 62
7
  6
CONTINUOUS
 10
129.3374633204
 20
207.3042446535
  0
VERTEX
  8
0
 62
7
  6
CONTINUOUS
 10
129.3644068562
 20
207.3870690383
  0
VERTEX
  8
0
 62
7
  6
CONTINUOUS
 10
129.3738834602
 20
207.4595464071
  0
VERTEX
  8
0
 62
7
  6
CONTINUOUS
 10
129.3678236788
 20
207.5278352304
  0
VERTEX
  8
0
 62
7
  6
CONTINUOUS
 10
129.3449059783
 20
207.5969008039
  0
VERTEX
  8
0
 62
7
  6
CONTINUOUS
 10
129.3257855349
 20
207.6328838728
  0
VERTEX
  8
0
 62
7
  6
CONTINUOUS
 10
129.2730053669
 20
207.7028424423
  0
VERTEX
  8
0
 62
7
  6
CONTINUOUS
 10
129.2097130302
 20
207.7598765493
  0
VERTEX
  8
0
 62
7
  6
CONTINUOUS
 10
129.1517383132
 20
207.7937517023
  0
VERTEX
  8
0
 62
7
  6
CONTINUOUS
 10
129.1071454667
 20
207.8042446535
  0
SEQEND
  0
POLYLINE
  8
0
 62
7
  6
CONTINUOUS
 66
1
 70
0
  0
VERTEX
  8
0
 62
7
  6
CONTINUOUS
 10
206.900899516
 20
207.8042446535
  0
VERTEX
  8
0
 62
7
  6
CONTINUOUS
 10
206.8562961972
 20
207.7937473256
  0
VERTEX
  8
0
 62
7
  6
CONTINUOUS
 10
206.7982993223
 20
207.7598525526
  0
VERTEX
  8
0
 62
7
  6
CONTINUOUS
 10
206.7350100748
 20
207.7028103494
  0
VERTEX
  8
0
 62
7
  6
CONTINUOUS
 10
206.6822910997
 20
207.6329363643
  0
VERTEX
  8
0
 62
7
  6
CONTINUOUS
 10
206.663166722
 20
207.5969608965
  0
VERTEX
  8
0
 62
7
  6
CONTINUOUS
 10
206.6402297637
 20
207.5278763198
  0
VERTEX
  8
0
 62
7
  6
CONTINUOUS
 10
206.6341608726
 20
207.4595738568
  0
VERTEX
  8
0
 62
7
  6
CONTINUOUS
 10
206.6436340525
 20
207.3870867156
  0
VERTEX
  8
0
 62
7
  6
CONTINUOUS
 10
206.6705816623
 20
207.3042446535
  0
SEQEND
  0
POLYLINE
  8
0
 62
7
  6
CONTINUOUS
 66
1
 70
0
  0
VERTEX
  8
0
 62
7
  6
CONTINUOUS
 10
193.800899516
 20
207.8042446535
  0
VERTEX
  8
0
 62
7
  6
CONTINUOUS
 10
193.7562961972
 20
207.7937473256
  0
VERTEX
  8
0
 62
7
  6
CONTINUOUS
 10
193.6982993223
 20
207.7598525526
  0
VERTEX
  8
0
 62
7
  6
CONTINUOUS
 10
193.6350100748
 20
207.7028103494
  0
VERTEX
  8
0
 62
7
  6
CONTINUOUS
 10
193.5822910997
 20
207.6329363643
  0
VERTEX
  8
0
 62
7
  6
CONTINUOUS
 10
193.563166722
 20
207.5969608965
  0
VERTEX
  8
0
 62
7
  6
CONTINUOUS
 10
193.5402297637
 20
207.5278763198
  0
VERTEX
  8
0
 62
7
  6
CONTINUOUS
 10
193.5341608726
 20
207.4595738568
  0
VERTEX
  8
0
 62
7
  6
CONTINUOUS
 10
193.5436340525
 20
207.3870867156
  0
VERTEX
  8
0
 62
7
  6
CONTINUOUS
 10
193.5705816623
 20
207.3042446535
  0
SEQEND
  0
POLYLINE
  8
0
 62
7
  6
CONTINUOUS
 66
1
 70
0
  0
VERTEX
  8
0
 62
7
  6
CONTINUOUS
 10
187.800899516
 20
207.8042446535
  0
VERTEX
  8
0
 62
7
  6
CONTINUOUS
 10
187.7562961972
 20
207.7937473256
  0
VERTEX
  8
0
 62
7
  6
CONTINUOUS
 10
187.6982993223
 20
207.7598525526
  0
VERTEX
  8
0
 62
7
  6
CONTINUOUS
 10
187.6350100748
 20
207.7028103494
  0
VERTEX
  8
0
 62
7
  6
CONTINUOUS
 10
187.5822910997
 20
207.6329363643
  0
VERTEX
  8
0
 62
7
  6
CONTINUOUS
 10
187.563166722
 20
207.5969608965
  0
VERTEX
  8
0
 62
7
  6
CONTINUOUS
 10
187.5402297637
 20
207.5278763198
  0
VERTEX
  8
0
 62
7
  6
CONTINUOUS
 10
187.5341608726
 20
207.4595738568
  0
VERTEX
  8
0
 62
7
  6
CONTINUOUS
 10
187.5436340525
 20
207.3870867156
  0
VERTEX
  8
0
 62
7
  6
CONTINUOUS
 10
187.5705816623
 20
207.3042446535
  0
SEQEND
  0
POLYLINE
  8
0
 62
7
  6
CONTINUOUS
 66
1
 70
0
  0
VERTEX
  8
0
 62
7
  6
CONTINUOUS
 10
127.8540224913
 20
204.5679732784
  0
VERTEX
  8
0
 62
7
  6
CONTINUOUS
 10
127.841596523
 20
204.5812133475
  0
VERTEX
  8
0
 62
7
  6
CONTINUOUS
 10
127.8048670432
 20
204.5936393237
  0
VERTEX
  8
0
 62
7
  6
CONTINUOUS
 10
127.7455552248
 20
204.604672621
  0
VERTEX
  8
0
 62
7
  6
CONTINUOUS
 10
127.6665286216
 20
204.6138110361
  0
VERTEX
  8
0
 62
7
  6
CONTINUOUS
 10
127.5716800566
 20
204.6206454998
  0
VERTEX
  8
0
 62
7
  6
CONTINUOUS
 10
127.46573843
 20
204.624872878
  0
VERTEX
  8
0
 62
7
  6
CONTINUOUS
 10
127.3540224913
 20
204.6263043224
  0
SEQEND
  0
POLYLINE
  8
1_AXIS
 62
7
  6
CONTINUOUS
 66
1
 70
0
  0
VERTEX
  8
1_AXIS
 62
7
  6
CONTINUOUS
 10
133.6140224913
 20
199.3685154273
  0
VERTEX
  8
1_AXIS
 62
7
  6
CONTINUOUS
 10
133.6286492831
 20
199.345284208
  0
VERTEX
  8
1_AXIS
 62
7
  6
CONTINUOUS
 10
133.6717838797
 20
199.3279366597
  0
VERTEX
  8
1_AXIS
 62
7
  6
CONTINUOUS
 10
133.7418395634
 20
199.3161529618
  0
VERTEX
  8
1_AXIS
 62
7
  6
CONTINUOUS
 10
133.8364604975
 20
199.309110573
  0
VERTEX
  8
1_AXIS
 62
7
  6
CONTINUOUS
 10
133.9522868866
 20
199.3056377384
  0
VERTEX
  8
1_AXIS
 62
7
  6
CONTINUOUS
 10
134.0848983917
 20
199.3044177113
  0
VERTEX
  8
1_AXIS
 62
7
  6
CONTINUOUS
 10
134.6731826011
 20
199.3044178451
  0
SEQEND
  0
POLYLINE
  8
0
 62
7
  6
CONTINUOUS
 66
1
 70
0
  0
VERTEX
  8
0
 62
7
  6
CONTINUOUS
 10
130.2705816623
 20
207.3042446535
  0
VERTEX
  8
0
 62
7
  6
CONTINUOUS
 10
130.1836362297
 20
207.4873628341
  0
VERTEX
  8
0
 62
7
  6
CONTINUOUS
 10
130.0972609297
 20
207.6208665213
  0
VERTEX
  8
0
 62
7
  6
CONTINUOUS
 10
130.0140420376
 20
207.7120805371
  0
VERTEX
  8
0
 62
7
  6
CONTINUOUS
 10
129.9372189859
 20
207.7676246767
  0
VERTEX
  8
0
 62
7
  6
CONTINUOUS
 10
129.8683158696
 20
207.7957645842
  0
VERTEX
  8
0
 62
7
  6
CONTINUOUS
 10
129.8037516472
 20
207.8042445033
  0
VERTEX
  8
0
 62
7
  6
CONTINUOUS
 10
129.7391460174
 20
207.7956097796
  0
VERTEX
  8
0
 62
7
  6
CONTINUOUS
 10
129.6701361537
 20
207.7672412706
  0
VERTEX
  8
0
 62
7
  6
CONTINUOUS
 10
129.5932231646
 20
207.7113804769
  0
VERTEX
  8
0
 62
7
  6
CONTINUOUS
 10
129.5101471316
 20
207.6200344034
  0
VERTEX
  8
0
 62
7
  6
CONTINUOUS
 10
129.4240660305
 20
207.4867446558
  0
VERTEX
  8
0
 62
7
  6
CONTINUOUS
 10
129.3374633204
 20
207.3042446535
  0
SEQEND
  0
LINE
  8
0
 62
7
  6
CONTINUOUS
 10
135.0540224913
 20
207.8042446535
 11
135.0540224913
 21
214.2542446534
  0
LINE
  8
0
 62
7
  6
CONTINUOUS
 10
135.8040224913
 20
203.0473266786
 11
135.8040224913
 21
199.8042446535
  0
LINE
  8
0
 62
7
  6
CONTINUOUS
 10
136.5540224913
 20
207.8042446535
 11
136.5540224913
 21
214.2542446535
  0
LINE
  8
0
 62
7
  6
CONTINUOUS
 10
137.7540224913
 20
199.8042446535
 11
137.7540224913
 21
207.3042446535
  0
POLYLINE
  8
0
 62
7
  6
CONTINUOUS
 66
1
 70
0
  0
VERTEX
  8
0
 62
7
  6
CONTINUOUS
 10
135.3374633204
 20
207.3042446535
  0
VERTEX
  8
0
 62
7
  6
CONTINUOUS
 10
135.3644107461
 20
207.3870859168
  0
VERTEX
  8
0
 62
7
  6
CONTINUOUS
 10
135.3738815513
 20
207.4594663501
  0
VERTEX
  8
0
 62
7
  6
CONTINUOUS
 10
135.3677983844
 20
207.5279579995
  0
VERTEX
  8
0
 62
7
  6
CONTINUOUS
 10
135.3447944811
 20
207.5971423501
  0
VERTEX
  8
0
 62
7
  6
CONTINUOUS
 10
135.3258174615
 20
207.632830907
  0
VERTEX
  8
0
 62
7
  6
CONTINUOUS
 10
135.273040851
 20
207.7028038922
  0
VERTEX
  8
0
 62
7
  6
CONTINUOUS
 10
135.2096994081
 20
207.7598865657
  0
VERTEX
  8
0
 62
7
  6
CONTINUOUS
 10
135.1517456768
 20
207.7937486249
  0
VERTEX
  8
0
 62
7
  6
CONTINUOUS
 10
135.1071454667
 20
207.8042446535
  0
SEQEND
  0
POLYLINE
  8
0
 62
7
  6
CONTINUOUS
 66
1
 70
0
  0
VERTEX
  8
0
 62
7
  6
CONTINUOUS
 10
127.8540224913
 20
202.7405160285
  0
VERTEX
  8
0
 62
7
  6
CONTINUOUS
 10
127.841596523
 20
202.7272759594
  0
VERTEX
  8
0
 62
7
  6
CONTINUOUS
 10
127.8048670432
 20
202.7148499833
  0
VERTEX
  8
0
 62
7
  6
CONTINUOUS
 10
127.7455552248
 20
202.703816686
  0
VERTEX
  8
0
 62
7
  6
CONTINUOUS
 10
127.6665286216
 20
202.6946782708
  0
VERTEX
  8
0
 62
7
  6
CONTINUOUS
 10
127.5716800566
 20
202.6878438071
  0
VERTEX
  8
0
 62
7
  6
CONTINUOUS
 10
127.46573843
 20
202.683616429
  0
VERTEX
  8
0
 62
7
  6
CONTINUOUS
 10
127.3540224913
 20
202.6821849845
  0
SEQEND
  0
POLYLINE
  8
0
 62
7
  6
CONTINUOUS
 66
1
 70
0
  0
VERTEX
  8
0
 62
7
  6
CONTINUOUS
 10
174.700899516
 20
207.8042446535
  0
VERTEX
  8
0
 62
7
  6
CONTINUOUS
 10
174.6562961972
 20
207.7937473256
  0
VERTEX
  8
0
 62
7
  6
CONTINUOUS
 10
174.5982993223
 20
207.7598525526
  0
VERTEX
  8
0
 62
7
  6
CONTINUOUS
 10
174.5350100748
 20
207.7028103494
  0
VERTEX
  8
0
 62
7
  6
CONTINUOUS
 10
174.4822910997
 20
207.6329363643
  0
VERTEX
  8
0
 62
7
  6
CONTINUOUS
 10
174.463166722
 20
207.5969608965
  0
VERTEX
  8
0
 62
7
  6
CONTINUOUS
 10
174.4402297637
 20
207.5278763198
  0
VERTEX
  8
0
 62
7
  6
CONTINUOUS
 10
174.4341608726
 20
207.4595738568
  0
VERTEX
  8
0
 62
7
  6
CONTINUOUS
 10
174.4436340525
 20
207.3870867156
  0
VERTEX
  8
0
 62
7
  6
CONTINUOUS
 10
174.4705816623
 20
207.3042446535
  0
SEQEND
  0
POLYLINE
  8
0
 62
7
  6
CONTINUOUS
 66
1
 70
0
  0
VERTEX
  8
0
 62
7
  6
CONTINUOUS
 10
168.700899516
 20
207.8042446535
  0
VERTEX
  8
0
 62
7
  6
CONTINUOUS
 10
168.6562961972
 20
207.7937473256
  0
VERTEX
  8
0
 62
7
  6
CONTINUOUS
 10
168.5982993223
 20
207.7598525526
  0
VERTEX
  8
0
 62
7
  6
CONTINUOUS
 10
168.5350100748
 20
207.7028103494
  0
VERTEX
  8
0
 62
7
  6
CONTINUOUS
 10
168.4822910997
 20
207.6329363643
  0
VERTEX
  8
0
 62
7
  6
CONTINUOUS
 10
168.463166722
 20
207.5969608965
  0
VERTEX
  8
0
 62
7
  6
CONTINUOUS
 10
168.4402297637
 20
207.5278763198
  0
VERTEX
  8
0
 62
7
  6
CONTINUOUS
 10
168.4341608726
 20
207.4595738568
  0
VERTEX
  8
0
 62
7
  6
CONTINUOUS
 10
168.4436340525
 20
207.3870867156
  0
VERTEX
  8
0
 62
7
  6
CONTINUOUS
 10
168.4705816623
 20
207.3042446535
  0
SEQEND
  0
LINE
  8
2_FEATURE
 62
7
  6
CONTINUOUS
 10
153.3852724913
 20
199.3298779166
 11
153.2977725748
 21
199.3162237744
  0
LINE
  8
2_FEATURE
 62
7
  6
CONTINUOUS
 10
151.4165224913
 20
199.3298779166
 11
151.3290224496
 21
199.3162237744
  0
LINE
  8
2_FEATURE
 62
7
  6
CONTINUOUS
 10
153.6477724913
 20
199.3224053322
 11
153.5165224913
 21
199.3053759568
  0
LINE
  8
2_FEATURE
 62
7
  6
CONTINUOUS
 10
151.6790224913
 20
199.3224053322
 11
151.5477724913
 21
199.3053759568
  0
POLYLINE
  8
2_FEATURE
 62
7
  6
CONTINUOUS
 66
1
 70
0
  0
VERTEX
  8
2_FEATURE
 62
7
  6
CONTINUOUS
 10
153.5165224913
 20
199.5054304927
  0
VERTEX
  8
2_FEATURE
 62
7
  6
CONTINUOUS
 10
153.5603430676
 20
199.5090019629
  0
VERTEX
  8
2_FEATURE
 62
7
  6
CONTINUOUS
 10
153.5715699488
 20
199.5105293387
  0
SEQEND
  0
POLYLINE
  8
2_FEATURE
 62
7
  6
CONTINUOUS
 66
1
 70
0
  0
VERTEX
  8
2_FEATURE
 62
7
  6
CONTINUOUS
 10
151.5477724913
 20
199.5054304927
  0
VERTEX
  8
2_FEATURE
 62
7
  6
CONTINUOUS
 10
151.5915930676
 20
199.5090019629
  0
VERTEX
  8
2_FEATURE
 62
7
  6
CONTINUOUS
 10
151.6028199488
 20
199.5105293387
  0
SEQEND
  0
LINE
  8
2_FEATURE
 62
7
  6
CONTINUOUS
 10
153.2977725748
 20
199.3162237744
 11
153.1665225748
 21
199.3113277304
  0
LINE
  8
2_FEATURE
 62
7
  6
CONTINUOUS
 10
151.3290224496
 20
199.3162237744
 11
151.1977724496
 21
199.3113277304
  0
LINE
  8
2_FEATURE
 62
7
  6
CONTINUOUS
 10
153.4581890958
 20
199.5043183614
 11
153.5165224913
 21
199.5054304927
  0
LINE
  8
2_FEATURE
 62
7
  6
CONTINUOUS
 10
151.4894391375
 20
199.5043183614
 11
151.5477724913
 21
199.5054304927
  0
POLYLINE
  8
1_AXIS
 62
7
  6
CONTINUOUS
 66
1
 70
0
  0
VERTEX
  8
1_AXIS
 62
7
  6
CONTINUOUS
 10
134.7175721333
 20
199.5046639361
  0
VERTEX
  8
1_AXIS
 62
7
  6
CONTINUOUS
 10
134.8491399674
 20
199.506657609
  0
VERTEX
  8
1_AXIS
 62
7
  6
CONTINUOUS
 10
134.8841921895
 20
199.5082347999
  0
SEQEND
  0
POLYLINE
  8
1_AXIS
 62
7
  6
CONTINUOUS
 66
1
 70
0
  0
VERTEX
  8
1_AXIS
 62
7
  6
CONTINUOUS
 10
134.6731826011
 20
199.3044178451
  0
VERTEX
  8
1_AXIS
 62
7
  6
CONTINUOUS
 10
134.8057865567
 20
199.3056382227
  0
VERTEX
  8
1_AXIS
 62
7
  6
CONTINUOUS
 10
134.9216049085
 20
199.3091115457
  0
VERTEX
  8
1_AXIS
 62
7
  6
CONTINUOUS
 10
135.0162179704
 20
199.3161543626
  0
VERTEX
  8
1_AXIS
 62
7
  6
CONTINUOUS
 10
135.0862669091
 20
199.3279381354
  0
VERTEX
  8
1_AXIS
 62
7
  6
CONTINUOUS
 10
135.1293971168
 20
199.3452851962
  0
VERTEX
  8
1_AXIS
 62
7
  6
CONTINUOUS
 10
135.1440224913
 20
199.3685154273
  0
SEQEND
  0
POLYLINE
  8
2_FEATURE
 62
7
  6
CONTINUOUS
 66
1
 70
0
  0
VERTEX
  8
2_FEATURE
 62
7
  6
CONTINUOUS
 10
153.4388143205
 20
199.3042446734
  0
VERTEX
  8
2_FEATURE
 62
7
  6
CONTINUOUS
 10
153.4581889732
 20
199.3043149716
  0
VERTEX
  8
2_FEATURE
 62
7
  6
CONTINUOUS
 10
153.5165224913
 20
199.3053759568
  0
SEQEND
  0
POLYLINE
  8
2_FEATURE
 62
7
  6
CONTINUOUS
 66
1
 70
0
  0
VERTEX
  8
2_FEATURE
 62
7
  6
CONTINUOUS
 10
151.4700643761
 20
199.3042446734
  0
VERTEX
  8
2_FEATURE
 62
7
  6
CONTINUOUS
 10
151.4894390149
 20
199.3043149716
  0
VERTEX
  8
2_FEATURE
 62
7
  6
CONTINUOUS
 10
151.5477724913
 20
199.3053759568
  0
SEQEND
  0
LINE
  8
2_FEATURE
 62
7
  6
CONTINUOUS
 10
206.7040224913
 20
199.3042446535
 11
206.6040224913
 21
199.3042446535
  0
LINE
  8
2_FEATURE
 62
7
  6
CONTINUOUS
 10
78.1040224913
 20
199.3042446535
 11
78.0040224913
 21
199.3042446535
  0
LINE
  8
0
 62
7
  6
CONTINUOUS
 10
66.8540224913
 20
199.3042446535
 11
78.0040224913
 21
199.3042446535
  0
LINE
  8
0
 62
7
  6
CONTINUOUS
 10
79.0040224913
 20
199.3042446535
 11
134.2085739071
 21
199.3042446535
  0
LINE
  8
0
 62
7
  6
CONTINUOUS
 10
134.5494750196
 20
199.3042446535
 11
150.1040224913
 21
199.3042446535
  0
LINE
  8
0
 62
7
  6
CONTINUOUS
 10
151.5477724913
 20
199.3042446535
 11
152.0727724913
 21
199.3042446535
  0
LINE
  8
0
 62
7
  6
CONTINUOUS
 10
153.5165224913
 20
199.3042446535
 11
205.7040224913
 21
199.3042446535
  0
LINE
  8
0
 62
7
  6
CONTINUOUS
 10
206.7040224913
 20
199.3042446535
 11
217.8540224913
 21
199.3042446535
  0
LINE
  8
2_FEATURE
 62
7
  6
CONTINUOUS
 10
150.3665224913
 20
199.3087837855
 11
151.1540224913
 21
199.3087837855
  0
LINE
  8
2_FEATURE
 62
7
  6
CONTINUOUS
 10
152.3352724913
 20
199.3087837855
 11
153.1227724913
 21
199.3087837855
  0
LINE
  8
2_FEATURE
 62
7
  6
CONTINUOUS
 10
150.3665224913
 20
199.3113277304
 11
151.1977724496
 21
199.3113277304
  0
LINE
  8
2_FEATURE
 62
7
  6
CONTINUOUS
 10
152.3352724913
 20
199.3113277304
 11
153.1665225748
 21
199.3113277304
  0
LINE
  8
2_FEATURE
 62
7
  6
CONTINUOUS
 10
150.1040224913
 20
199.5042446535
 11
150.3665224913
 21
199.5042446535
  0
LINE
  8
2_FEATURE
 62
7
  6
CONTINUOUS
 10
151.4602724496
 20
199.5042446535
 11
151.4894391375
 21
199.5043183614
  0
LINE
  8
2_FEATURE
 62
7
  6
CONTINUOUS
 10
152.0727724913
 20
199.5042446535
 11
152.3352724913
 21
199.5042446535
  0
LINE
  8
2_FEATURE
 62
7
  6
CONTINUOUS
 10
153.4290225748
 20
199.5042446535
 11
153.4581890958
 21
199.5043183614
  0
LINE
  8
1_AXIS
 62
7
  6
CONTINUOUS
 10
134.5493013461
 20
199.5042447316
 11
134.7175721333
 21
199.5046639361
  0
LINE
  8
2_FEATURE
 62
7
  6
CONTINUOUS
 10
150.3665224913
 20
199.5240098883
 11
151.1977724496
 21
199.5240098883
  0
LINE
  8
2_FEATURE
 62
7
  6
CONTINUOUS
 10
152.3352724913
 20
199.5240098883
 11
153.1665225748
 21
199.5240098883
  0
LINE
  8
2_FEATURE
 62
7
  6
CONTINUOUS
 10
150.1040224913
 20
199.6663136423
 11
151.1540224913
 21
199.6663136423
  0
LINE
  8
2_FEATURE
 62
7
  6
CONTINUOUS
 10
152.0727724913
 20
199.6663136423
 11
153.1227724913
 21
199.6663136423
  0
LINE
  8
0
 62
7
  6
CONTINUOUS
 10
66.8540224913
 20
202.6821849845
 11
69.8040224913
 21
202.6821849845
  0
LINE
  8
0
 62
7
  6
CONTINUOUS
 10
80.9540224913
 20
202.6821849845
 11
89.1540224913
 21
202.6821849845
  0
LINE
  8
0
 62
7
  6
CONTINUOUS
 10
100.0540224913
 20
202.6821849845
 11
108.2540224913
 21
202.6821849845
  0
LINE
  8
0
 62
7
  6
CONTINUOUS
 10
119.1540224913
 20
202.6821849845
 11
127.3540224913
 21
202.6821849845
  0
LINE
  8
0
 62
7
  6
CONTINUOUS
 10
138.2540224913
 20
202.6821849845
 11
146.4540224913
 21
202.6821849845
  0
LINE
  8
0
 62
7
  6
CONTINUOUS
 10
157.3540224913
 20
202.6821849845
 11
165.5540224913
 21
202.6821849845
  0
LINE
  8
0
 62
7
  6
CONTINUOUS
 10
176.4540224913
 20
202.6821849845
 11
184.6540224913
 21
202.6821849845
  0
LINE
  8
0
 62
7
  6
CONTINUOUS
 10
195.5540224913
 20
202.6821849845
 11
203.7540224913
 21
202.6821849845
  0
LINE
  8
0
 62
7
  6
CONTINUOUS
 10
214.9040224913
 20
202.6821849845
 11
217.8540224913
 21
202.6821849845
  0
LINE
  8
2_FEATURE
 62
7
  6
CONTINUOUS
 10
151.3727725331
 20
199.3060181374
 11
151.1540224913
 21
199.3087837855
  0
LINE
  8
2_FEATURE
 62
7
  6
CONTINUOUS
 10
153.3415224079
 20
199.3060181374
 11
153.1227724913
 21
199.3087837855
  0
POLYLINE
  8
0
 62
7
  6
CONTINUOUS
 66
1
 70
0
  0
VERTEX
  8
0
 62
7
  6
CONTINUOUS
 10
66.8540224913
 20
202.6821849845
  0
VERTEX
  8
0
 62
7
  6
CONTINUOUS
 10
66.7423065527
 20
202.683616429
  0
VERTEX
  8
0
 62
7
  6
CONTINUOUS
 10
66.6363649261
 20
202.6878438071
  0
VERTEX
  8
0
 62
7
  6
CONTINUOUS
 10
66.5415163611
 20
202.6946782708
  0
VERTEX
  8
0
 62
7
  6
CONTINUOUS
 10
66.4624897579
 20
202.703816686
  0
VERTEX
  8
0
 62
7
  6
CONTINUOUS
 10
66.4031779395
 20
202.7148499833
  0
VERTEX
  8
0
 62
7
  6
CONTINUOUS
 10
66.3664484597
 20
202.7272759594
  0
VERTEX
  8
0
 62
7
  6
CONTINUOUS
 10
66.3540224913
 20
202.7405160285
  0
SEQEND
  0
POLYLINE
  8
2_FEATURE
 62
7
  6
CONTINUOUS
 66
1
 70
0
  0
VERTEX
  8
2_FEATURE
 62
7
  6
CONTINUOUS
 10
151.3727725331
 20
199.3060181374
  0
VERTEX
  8
2_FEATURE
 62
7
  6
CONTINUOUS
 10
151.4310972871
 20
199.3045290952
  0
VERTEX
  8
2_FEATURE
 62
7
  6
CONTINUOUS
 10
151.4700643761
 20
199.3042446734
  0
SEQEND
  0
POLYLINE
  8
2_FEATURE
 62
7
  6
CONTINUOUS
 66
1
 70
0
  0
VERTEX
  8
2_FEATURE
 62
7
  6
CONTINUOUS
 10
153.3415224079
 20
199.3060181374
  0
VERTEX
  8
2_FEATURE
 62
7
  6
CONTINUOUS
 10
153.3998472037
 20
199.3045290952
  0
VERTEX
  8
2_FEATURE
 62
7
  6
CONTINUOUS
 10
153.4388143205
 20
199.3042446734
  0
SEQEND
  0
POLYLINE
  8
1_AXIS
 62
7
  6
CONTINUOUS
 66
1
 70
0
  0
VERTEX
  8
1_AXIS
 62
7
  6
CONTINUOUS
 10
133.8738530457
 20
199.5082347829
  0
VERTEX
  8
1_AXIS
 62
7
  6
CONTINUOUS
 10
133.908904254
 20
199.5066576293
  0
VERTEX
  8
1_AXIS
 62
7
  6
CONTINUOUS
 10
134.0404718563
 20
199.5046639431
  0
VERTEX
  8
1_AXIS
 62
7
  6
CONTINUOUS
 10
134.1862363404
 20
199.5042473039
  0
VERTEX
  8
1_AXIS
 62
7
  6
CONTINUOUS
 10
134.5491116506
 20
199.5042446535
  0
SEQEND
  0
LINE
  8
2_FEATURE
 62
7
  6
CONTINUOUS
 10
151.1540224913
 20
199.6663136423
 11
151.3727725331
 21
199.6346893521
  0
LINE
  8
2_FEATURE
 62
7
  6
CONTINUOUS
 10
153.1227724913
 20
199.6663136423
 11
153.3415224079
 21
199.6346893521
  0
LINE
  8
2_FEATURE
 62
7
  6
CONTINUOUS
 10
151.1977724496
 20
199.5240098883
 11
151.3290224496
 21
199.5001364048
  0
LINE
  8
2_FEATURE
 62
7
  6
CONTINUOUS
 10
153.1665225748
 20
199.5240098883
 11
153.2977725748
 21
199.5001364048
  0
POLYLINE
  8
0
 62
7
  6
CONTINUOUS
 66
1
 70
0
  0
VERTEX
  8
0
 62
7
  6
CONTINUOUS
 10
137.7540224913
 20
202.7405160285
  0
VERTEX
  8
0
 62
7
  6
CONTINUOUS
 10
137.7664484597
 20
202.7272759594
  0
VERTEX
  8
0
 62
7
  6
CONTINUOUS
 10
137.8031779395
 20
202.7148499833
  0
VERTEX
  8
0
 62
7
  6
CONTINUOUS
 10
137.8624897579
 20
202.703816686
  0
VERTEX
  8
0
 62
7
  6
CONTINUOUS
 10
137.9415163611
 20
202.6946782708
  0
VERTEX
  8
0
 62
7
  6
CONTINUOUS
 10
138.0363649261
 20
202.6878438071
  0
VERTEX
  8
0
 62
7
  6
CONTINUOUS
 10
138.1423065527
 20
202.683616429
  0
VERTEX
  8
0
 62
7
  6
CONTINUOUS
 10
138.2540224913
 20
202.6821849845
  0
SEQEND
  0
POLYLINE
  8
0
 62
7
  6
CONTINUOUS
 66
1
 70
0
  0
VERTEX
  8
0
 62
7
  6
CONTINUOUS
 10
136.2705816623
 20
207.3042446535
  0
VERTEX
  8
0
 62
7
  6
CONTINUOUS
 10
136.1836362297
 20
207.4873628341
  0
VERTEX
  8
0
 62
7
  6
CONTINUOUS
 10
136.0972609297
 20
207.6208665213
  0
VERTEX
  8
0
 62
7
  6
CONTINUOUS
 10
136.0140420376
 20
207.7120805371
  0
VERTEX
  8
0
 62
7
  6
CONTINUOUS
 10
135.9372189859
 20
207.7676246767
  0
VERTEX
  8
0
 62
7
  6
CONTINUOUS
 10
135.8683158696
 20
207.7957645842
  0
VERTEX
  8
0
 62
7
  6
CONTINUOUS
 10
135.8037516472
 20
207.8042445033
  0
VERTEX
  8
0
 62
7
  6
CONTINUOUS
 10
135.7391460174
 20
207.7956097796
  0
VERTEX
  8
0
 62
7
  6
CONTINUOUS
 10
135.6701361537
 20
207.7672412706
  0
VERTEX
  8
0
 62
7
  6
CONTINUOUS
 10
135.5932231646
 20
207.7113804769
  0
VERTEX
  8
0
 62
7
  6
CONTINUOUS
 10
135.5101471316
 20
207.6200344034
  0
VERTEX
  8
0
 62
7
  6
CONTINUOUS
 10
135.4240660305
 20
207.4867446558
  0
VERTEX
  8
0
 62
7
  6
CONTINUOUS
 10
135.3374633204
 20
207.3042446535
  0
SEQEND
  0
LINE
  8
0
 62
7
  6
CONTINUOUS
 10
138.6040224913
 20
207.8042446535
 11
138.6040224913
 21
214.2542446534
  0
LINE
  8
0
 62
7
  6
CONTINUOUS
 10
140.1040224913
 20
207.8042446535
 11
140.1040224913
 21
214.2542446535
  0
LINE
  8
1_AXIS
 62
2
  6
CENTER
 10
142.3540224913
 20
196.8042442896
 11
142.3540224913
 21
217.0042446535
  0
POLYLINE
  8
0
 62
7
  6
CONTINUOUS
 66
1
 70
0
  0
VERTEX
  8
0
 62
7
  6
CONTINUOUS
 10
137.7437842407
 20
204.9042446535
  0
VERTEX
  8
0
 62
7
  6
CONTINUOUS
 10
137.7494873639
 20
204.9381818808
  0
VERTEX
  8
0
 62
7
  6
CONTINUOUS
 10
137.7528925651
 20
204.9717746362
  0
VERTEX
  8
0
 62
7
  6
CONTINUOUS
 10
137.7540224913
 20
205.0049095874
  0
SEQEND
  0
POLYLINE
  8
1_AXIS
 62
7
  6
CONTINUOUS
 66
1
 70
0
  0
VERTEX
  8
1_AXIS
 62
7
  6
CONTINUOUS
 10
133.6140224913
 20
199.3685154273
  0
VERTEX
  8
1_AXIS
 62
7
  6
CONTINUOUS
 10
133.6289650369
 20
199.397409233
  0
VERTEX
  8
1_AXIS
 62
7
  6
CONTINUOUS
 10
133.6736514973
 20
199.4306673383
  0
VERTEX
  8
1_AXIS
 62
7
  6
CONTINUOUS
 10
133.7466788659
 20
199.4660946247
  0
VERTEX
  8
1_AXIS
 62
7
  6
CONTINUOUS
 10
133.8447226401
 20
199.5006965742
  0
VERTEX
  8
1_AXIS
 62
7
  6
CONTINUOUS
 10
133.9626453229
 20
199.5312119679
  0
VERTEX
  8
1_AXIS
 62
7
  6
CONTINUOUS
 10
134.0945218369
 20
199.5548426028
  0
VERTEX
  8
1_AXIS
 62
7
  6
CONTINUOUS
 10
134.2348282329
 20
199.5696854971
  0
VERTEX
  8
1_AXIS
 62
7
  6
CONTINUOUS
 10
134.3790184859
 20
199.574734879
  0
VERTEX
  8
1_AXIS
 62
7
  6
CONTINUOUS
 10
134.5232109324
 20
199.5696859061
  0
VERTEX
  8
1_AXIS
 62
7
  6
CONTINUOUS
 10
134.6635199076
 20
199.5548430633
  0
VERTEX
  8
1_AXIS
 62
7
  6
CONTINUOUS
 10
134.795397042
 20
199.5312125392
  0
VERTEX
  8
1_AXIS
 62
7
  6
CONTINUOUS
 10
134.9133191316
 20
199.5006975493
  0
VERTEX
  8
1_AXIS
 62
7
  6
CONTINUOUS
 10
135.0113626212
 20
199.4660960658
  0
VERTEX
  8
1_AXIS
 62
7
  6
CONTINUOUS
 10
135.0843907503
 20
199.4306689443
  0
VERTEX
  8
1_AXIS
 62
7
  6
CONTINUOUS
 10
135.1290797348
 20
199.3974094543
  0
VERTEX
  8
1_AXIS
 62
7
  6
CONTINUOUS
 10
135.1440224913
 20
199.3685154273
  0
SEQEND
  0
POLYLINE
  8
0
 62
7
  6
CONTINUOUS
 66
1
 70
0
  0
VERTEX
  8
0
 62
7
  6
CONTINUOUS
 10
137.7540224913
 20
204.5679732784
  0
VERTEX
  8
0
 62
7
  6
CONTINUOUS
 10
137.7664484597
 20
204.5812133475
  0
VERTEX
  8
0
 62
7
  6
CONTINUOUS
 10
137.8031779395
 20
204.5936393237
  0
VERTEX
  8
0
 62
7
  6
CONTINUOUS
 10
137.8624897579
 20
204.604672621
  0
VERTEX
  8
0
 62
7
  6
CONTINUOUS
 10
137.9415163611
 20
204.6138110361
  0
VERTEX
  8
0
 62
7
  6
CONTINUOUS
 10
138.0363649261
 20
204.6206454998
  0
VERTEX
  8
0
 62
7
  6
CONTINUOUS
 10
138.1423065527
 20
204.624872878
  0
VERTEX
  8
0
 62
7
  6
CONTINUOUS
 10
138.2540224913
 20
204.6263043224
  0
SEQEND
  0
POLYLINE
  8
0
 62
7
  6
CONTINUOUS
 66
1
 70
0
  0
VERTEX
  8
0
 62
7
  6
CONTINUOUS
 10
155.600899516
 20
207.8042446535
  0
VERTEX
  8
0
 62
7
  6
CONTINUOUS
 10
155.5562961972
 20
207.7937473256
  0
VERTEX
  8
0
 62
7
  6
CONTINUOUS
 10
155.4982993223
 20
207.7598525526
  0
VERTEX
  8
0
 62
7
  6
CONTINUOUS
 10
155.4350100748
 20
207.7028103494
  0
VERTEX
  8
0
 62
7
  6
CONTINUOUS
 10
155.3822910997
 20
207.6329363643
  0
VERTEX
  8
0
 62
7
  6
CONTINUOUS
 10
155.363166722
 20
207.5969608965
  0
VERTEX
  8
0
 62
7
  6
CONTINUOUS
 10
155.3402297637
 20
207.5278763198
  0
VERTEX
  8
0
 62
7
  6
CONTINUOUS
 10
155.3341608726
 20
207.4595738568
  0
VERTEX
  8
0
 62
7
  6
CONTINUOUS
 10
155.3436340525
 20
207.3870867156
  0
VERTEX
  8
0
 62
7
  6
CONTINUOUS
 10
155.3705816623
 20
207.3042446535
  0
SEQEND
  0
POLYLINE
  8
0
 62
7
  6
CONTINUOUS
 66
1
 70
0
  0
VERTEX
  8
0
 62
7
  6
CONTINUOUS
 10
149.600899516
 20
207.8042446535
  0
VERTEX
  8
0
 62
7
  6
CONTINUOUS
 10
149.5562961972
 20
207.7937473256
  0
VERTEX
  8
0
 62
7
  6
CONTINUOUS
 10
149.4982993223
 20
207.7598525526
  0
VERTEX
  8
0
 62
7
  6
CONTINUOUS
 10
149.4350100748
 20
207.7028103494
  0
VERTEX
  8
0
 62
7
  6
CONTINUOUS
 10
149.3822910997
 20
207.6329363643
  0
VERTEX
  8
0
 62
7
  6
CONTINUOUS
 10
149.363166722
 20
207.5969608965
  0
VERTEX
  8
0
 62
7
  6
CONTINUOUS
 10
149.3402297637
 20
207.5278763198
  0
VERTEX
  8
0
 62
7
  6
CONTINUOUS
 10
149.3341608726
 20
207.4595738568
  0
VERTEX
  8
0
 62
7
  6
CONTINUOUS
 10
149.3436340525
 20
207.3870867156
  0
VERTEX
  8
0
 62
7
  6
CONTINUOUS
 10
149.3705816623
 20
207.3042446535
  0
SEQEND
  0
LINE
  8
0
 62
7
  6
CONTINUOUS
 10
204.7673847567
 20
205.4034997258
 11
204.7957079288
 21
205.4042446535
  0
LINE
  8
0
 62
7
  6
CONTINUOUS
 10
185.6673847567
 20
205.4034997258
 11
185.6957079288
 21
205.4042446535
  0
LINE
  8
0
 62
7
  6
CONTINUOUS
 10
166.5673847567
 20
205.4034997258
 11
166.5957079288
 21
205.4042446535
  0
LINE
  8
0
 62
7
  6
CONTINUOUS
 10
147.4673847567
 20
205.4034997258
 11
147.4957079288
 21
205.4042446535
  0
LINE
  8
0
 62
7
  6
CONTINUOUS
 10
128.3673847567
 20
205.4034997258
 11
128.3957079288
 21
205.4042446535
  0
LINE
  8
0
 62
7
  6
CONTINUOUS
 10
109.2673847567
 20
205.4034997258
 11
109.2957079288
 21
205.4042446535
  0
LINE
  8
0
 62
7
  6
CONTINUOUS
 10
90.1673847567
 20
205.4034997258
 11
90.1957079288
 21
205.4042446535
  0
POLYLINE
  8
0
 62
7
  6
CONTINUOUS
 66
1
 70
0
  0
VERTEX
  8
0
 62
7
  6
CONTINUOUS
 10
66.8540224913
 20
204.6263043224
  0
VERTEX
  8
0
 62
7
  6
CONTINUOUS
 10
66.7423065527
 20
204.624872878
  0
VERTEX
  8
0
 62
7
  6
CONTINUOUS
 10
66.6363649261
 20
204.6206454998
  0
VERTEX
  8
0
 62
7
  6
CONTINUOUS
 10
66.5415163611
 20
204.6138110361
  0
VERTEX
  8
0
 62
7
  6
CONTINUOUS
 10
66.4624897579
 20
204.604672621
  0
VERTEX
  8
0
 62
7
  6
CONTINUOUS
 10
66.4031779395
 20
204.5936393237
  0
VERTEX
  8
0
 62
7
  6
CONTINUOUS
 10
66.3664484597
 20
204.5812133475
  0
VERTEX
  8
0
 62
7
  6
CONTINUOUS
 10
66.3540224913
 20
204.5679732784
  0
SEQEND
  0
LINE
  8
1_AXIS
 62
2
  6
CENTER
 10
53.265700692
 20
203.6542446535
 11
228.0089532872
 21
203.6542446535
  0
LINE
  8
0
 62
7
  6
CONTINUOUS
 10
66.8540224913
 20
204.6263043224
 11
69.8040224913
 21
204.6263043224
  0
LINE
  8
0
 62
7
  6
CONTINUOUS
 10
80.9540224913
 20
204.6263043224
 11
89.1540224913
 21
204.6263043224
  0
LINE
  8
0
 62
7
  6
CONTINUOUS
 10
100.0540224913
 20
204.6263043224
 11
108.2540224913
 21
204.6263043224
  0
LINE
  8
0
 62
7
  6
CONTINUOUS
 10
119.1540224913
 20
204.6263043224
 11
127.3540224913
 21
204.6263043224
  0
LINE
  8
0
 62
7
  6
CONTINUOUS
 10
138.2540224913
 20
204.6263043224
 11
146.4540224913
 21
204.6263043224
  0
LINE
  8
0
 62
7
  6
CONTINUOUS
 10
157.3540224913
 20
204.6263043224
 11
165.5540224913
 21
204.6263043224
  0
LINE
  8
0
 62
7
  6
CONTINUOUS
 10
176.4540224913
 20
204.6263043224
 11
184.6540224913
 21
204.6263043224
  0
LINE
  8
0
 62
7
  6
CONTINUOUS
 10
195.5540224913
 20
204.6263043224
 11
203.7540224913
 21
204.6263043224
  0
LINE
  8
0
 62
7
  6
CONTINUOUS
 10
214.9040224913
 20
204.6263043224
 11
217.8540224913
 21
204.6263043224
  0
LINE
  8
0
 62
7
  6
CONTINUOUS
 10
70.8660978028
 20
205.4042446535
 11
79.9123370555
 21
205.4042446535
  0
LINE
  8
0
 62
7
  6
CONTINUOUS
 10
90.195707933
 20
205.4042446535
 11
99.0123370555
 21
205.4042446535
  0
LINE
  8
0
 62
7
  6
CONTINUOUS
 10
109.295707933
 20
205.4042446535
 11
118.1123370555
 21
205.4042446535
  0
LINE
  8
0
 62
7
  6
CONTINUOUS
 10
128.395707933
 20
205.4042446535
 11
137.2123370555
 21
205.4042446535
  0
LINE
  8
0
 62
7
  6
CONTINUOUS
 10
147.495707933
 20
205.4042446535
 11
156.3123370555
 21
205.4042446535
  0
LINE
  8
0
 62
7
  6
CONTINUOUS
 10
166.595707933
 20
205.4042446535
 11
175.4123370555
 21
205.4042446535
  0
LINE
  8
0
 62
7
  6
CONTINUOUS
 10
185.695707933
 20
205.4042446535
 11
194.5123370555
 21
205.4042446535
  0
LINE
  8
0
 62
7
  6
CONTINUOUS
 10
204.795707933
 20
205.4042446535
 11
213.8419471797
 21
205.4042446535
  0
LINE
  8
0
 62
7
  6
CONTINUOUS
 10
66.6540224913
 20
207.8042446535
 11
71.8071454667
 21
207.8042446535
  0
LINE
  8
0
 62
7
  6
CONTINUOUS
 10
73.200899516
 20
207.8042446535
 11
77.8071454667
 21
207.8042446535
  0
LINE
  8
0
 62
7
  6
CONTINUOUS
 10
79.200899516
 20
207.8042446535
 11
90.9071454667
 21
207.8042446535
  0
LINE
  8
0
 62
7
  6
CONTINUOUS
 10
92.300899516
 20
207.8042446535
 11
96.9071454667
 21
207.8042446535
  0
LINE
  8
0
 62
7
  6
CONTINUOUS
 10
98.300899516
 20
207.8042446535
 11
110.0071454667
 21
207.8042446535
  0
LINE
  8
0
 62
7
  6
CONTINUOUS
 10
111.400899516
 20
207.8042446535
 11
116.0071454667
 21
207.8042446535
  0
LINE
  8
0
 62
7
  6
CONTINUOUS
 10
117.400899516
 20
207.8042446535
 11
129.1071454667
 21
207.8042446535
  0
LINE
  8
0
 62
7
  6
CONTINUOUS
 10
130.500899516
 20
207.8042446535
 11
135.1071454667
 21
207.8042446535
  0
LINE
  8
0
 62
7
  6
CONTINUOUS
 10
136.500899516
 20
207.8042446535
 11
148.2071454667
 21
207.8042446535
  0
LINE
  8
0
 62
7
  6
CONTINUOUS
 10
149.600899516
 20
207.8042446535
 11
154.2071454667
 21
207.8042446535
  0
LINE
  8
0
 62
7
  6
CONTINUOUS
 10
155.600899516
 20
207.8042446535
 11
167.3071454667
 21
207.8042446535
  0
LINE
  8
0
 62
7
  6
CONTINUOUS
 10
168.700899516
 20
207.8042446535
 11
173.3071454667
 21
207.8042446535
  0
LINE
  8
0
 62
7
  6
CONTINUOUS
 10
174.700899516
 20
207.8042446535
 11
186.4071454667
 21
207.8042446535
  0
LINE
  8
0
 62
7
  6
CONTINUOUS
 10
187.800899516
 20
207.8042446535
 11
192.4071454667
 21
207.8042446535
  0
LINE
  8
0
 62
7
  6
CONTINUOUS
 10
193.800899516
 20
207.8042446535
 11
205.5071454667
 21
207.8042446535
  0
LINE
  8
0
 62
7
  6
CONTINUOUS
 10
206.900899516
 20
207.8042446535
 11
211.5071454667
 21
207.8042446535
  0
LINE
  8
0
 62
7
  6
CONTINUOUS
 10
212.900899516
 20
207.8042446535
 11
218.0540224913
 21
207.8042446535
  0
POLYLINE
  8
0
 62
7
  6
CONTINUOUS
 66
1
 70
0
  0
VERTEX
  8
0
 62
7
  6
CONTINUOUS
 10
217.8540224913
 20
204.6263043224
  0
VERTEX
  8
0
 62
7
  6
CONTINUOUS
 10
217.96573843
 20
204.624872878
  0
VERTEX
  8
0
 62
7
  6
CONTINUOUS
 10
218.0716800566
 20
204.6206454998
  0
VERTEX
  8
0
 62
7
  6
CONTINUOUS
 10
218.1665286216
 20
204.6138110361
  0
VERTEX
  8
0
 62
7
  6
CONTINUOUS
 10
218.2455552248
 20
204.604672621
  0
VERTEX
  8
0
 62
7
  6
CONTINUOUS
 10
218.3048670432
 20
204.5936393237
  0
VERTEX
  8
0
 62
7
  6
CONTINUOUS
 10
218.341596523
 20
204.5812133475
  0
VERTEX
  8
0
 62
7
  6
CONTINUOUS
 10
218.3540224913
 20
204.5679732784
  0
SEQEND
  0
LINE
  8
0
 62
7
  6
CONTINUOUS
 10
79.9123370598
 20
205.4042446535
 11
79.940660226
 21
205.4034997258
  0
LINE
  8
0
 62
7
  6
CONTINUOUS
 10
99.0123370598
 20
205.4042446535
 11
99.040660226
 21
205.4034997258
  0
LINE
  8
0
 62
7
  6
CONTINUOUS
 10
118.1123370598
 20
205.4042446535
 11
118.140660226
 21
205.4034997258
  0
LINE
  8
0
 62
7
  6
CONTINUOUS
 10
137.2123370598
 20
205.4042446535
 11
137.240660226
 21
205.4034997258
  0
LINE
  8
0
 62
7
  6
CONTINUOUS
 10
156.3123370598
 20
205.4042446535
 11
156.340660226
 21
205.4034997258
  0
LINE
  8
0
 62
7
  6
CONTINUOUS
 10
175.4123370598
 20
205.4042446535
 11
175.440660226
 21
205.4034997258
  0
LINE
  8
0
 62
7
  6
CONTINUOUS
 10
194.5123370598
 20
205.4042446535
 11
194.540660226
 21
205.4034997258
  0
LINE
  8
2_FEATURE
 62
7
  6
CONTINUOUS
 10
151.3727725331
 20
199.6346893521
 11
151.5477724913
 21
199.5493729016
  0
LINE
  8
2_FEATURE
 62
7
  6
CONTINUOUS
 10
153.3415224079
 20
199.6346893521
 11
153.5165224913
 21
199.5493729016
  0
LINE
  8
2_FEATURE
 62
7
  6
CONTINUOUS
 10
151.3290224496
 20
199.5001364048
 11
151.4165224913
 21
199.4567579496
  0
LINE
  8
2_FEATURE
 62
7
  6
CONTINUOUS
 10
153.2977725748
 20
199.5001364048
 11
153.3852724913
 21
199.4567579496
  0
LINE
  8
2_FEATURE
 62
7
  6
CONTINUOUS
 10
151.5477724913
 20
199.5493729016
 11
151.6790224913
 21
199.4567579496
  0
LINE
  8
2_FEATURE
 62
7
  6
CONTINUOUS
 10
153.5165224913
 20
199.5493729016
 11
153.6477724913
 21
199.4567579496
  0
POLYLINE
  8
0
 62
7
  6
CONTINUOUS
 66
1
 70
0
  0
VERTEX
  8
0
 62
7
  6
CONTINUOUS
 10
146.9540224913
 20
205.0049095874
  0
VERTEX
  8
0
 62
7
  6
CONTINUOUS
 10
146.9551516147
 20
204.9717864776
  0
VERTEX
  8
0
 62
7
  6
CONTINUOUS
 10
146.9585574073
 20
204.9381834509
  0
VERTEX
  8
0
 62
7
  6
CONTINUOUS
 10
146.964260742
 20
204.9042446535
  0
SEQEND
  0
LINE
  8
0
 62
7
  6
CONTINUOUS
 10
144.6040224913
 20
207.8042446535
 11
144.6040224913
 21
214.2542446534
  0
LINE
  8
0
 62
7
  6
CONTINUOUS
 10
146.1040224913
 20
207.8042446535
 11
146.1040224913
 21
214.2542446535
  0
LINE
  8
0
 62
7
  6
CONTINUOUS
 10
146.9540224913
 20
199.8042446535
 11
146.9540224913
 21
207.3042446535
  0
POLYLINE
  8
0
 62
7
  6
CONTINUOUS
 66
1
 70
0
  0
VERTEX
  8
0
 62
7
  6
CONTINUOUS
 10
148.4374633204
 20
207.3042446535
  0
VERTEX
  8
0
 62
7
  6
CONTINUOUS
 10
148.4644068562
 20
207.3870690383
  0
VERTEX
  8
0
 62
7
  6
CONTINUOUS
 10
148.4738834602
 20
207.4595464071
  0
VERTEX
  8
0
 62
7
  6
CONTINUOUS
 10
148.4678236788
 20
207.5278352304
  0
VERTEX
  8
0
 62
7
  6
CONTINUOUS
 10
148.4449059783
 20
207.5969008039
  0
VERTEX
  8
0
 62
7
  6
CONTINUOUS
 10
148.4257855349
 20
207.6328838728
  0
VERTEX
  8
0
 62
7
  6
CONTINUOUS
 10
148.3730053669
 20
207.7028424423
  0
VERTEX
  8
0
 62
7
  6
CONTINUOUS
 10
148.3097130302
 20
207.7598765493
  0
VERTEX
  8
0
 62
7
  6
CONTINUOUS
 10
148.2517383132
 20
207.7937517023
  0
VERTEX
  8
0
 62
7
  6
CONTINUOUS
 10
148.2071454667
 20
207.8042446535
  0
SEQEND
  0
POLYLINE
  8
0
 62
7
  6
CONTINUOUS
 66
1
 70
0
  0
VERTEX
  8
0
 62
7
  6
CONTINUOUS
 10
136.500899516
 20
207.8042446535
  0
VERTEX
  8
0
 62
7
  6
CONTINUOUS
 10
136.4562961972
 20
207.7937473256
  0
VERTEX
  8
0
 62
7
  6
CONTINUOUS
 10
136.3982993223
 20
207.7598525526
  0
VERTEX
  8
0
 62
7
  6
CONTINUOUS
 10
136.3350100748
 20
207.7028103494
  0
VERTEX
  8
0
 62
7
  6
CONTINUOUS
 10
136.2822910997
 20
207.6329363643
  0
VERTEX
  8
0
 62
7
  6
CONTINUOUS
 10
136.263166722
 20
207.5969608965
  0
VERTEX
  8
0
 62
7
  6
CONTINUOUS
 10
136.2402297637
 20
207.5278763198
  0
VERTEX
  8
0
 62
7
  6
CONTINUOUS
 10
136.2341608726
 20
207.4595738568
  0
VERTEX
  8
0
 62
7
  6
CONTINUOUS
 10
136.2436340525
 20
207.3870867156
  0
VERTEX
  8
0
 62
7
  6
CONTINUOUS
 10
136.2705816623
 20
207.3042446535
  0
SEQEND
  0
POLYLINE
  8
0
 62
7
  6
CONTINUOUS
 66
1
 70
0
  0
VERTEX
  8
0
 62
7
  6
CONTINUOUS
 10
130.500899516
 20
207.8042446535
  0
VERTEX
  8
0
 62
7
  6
CONTINUOUS
 10
130.4562961972
 20
207.7937473256
  0
VERTEX
  8
0
 62
7
  6
CONTINUOUS
 10
130.3982993223
 20
207.7598525526
  0
VERTEX
  8
0
 62
7
  6
CONTINUOUS
 10
130.3350100748
 20
207.7028103494
  0
VERTEX
  8
0
 62
7
  6
CONTINUOUS
 10
130.2822910997
 20
207.6329363643
  0
VERTEX
  8
0
 62
7
  6
CONTINUOUS
 10
130.263166722
 20
207.5969608965
  0
VERTEX
  8
0
 62
7
  6
CONTINUOUS
 10
130.2402297637
 20
207.5278763198
  0
VERTEX
  8
0
 62
7
  6
CONTINUOUS
 10
130.2341608726
 20
207.4595738568
  0
VERTEX
  8
0
 62
7
  6
CONTINUOUS
 10
130.2436340525
 20
207.3870867156
  0
VERTEX
  8
0
 62
7
  6
CONTINUOUS
 10
130.2705816623
 20
207.3042446535
  0
SEQEND
  0
POLYLINE
  8
0
 62
7
  6
CONTINUOUS
 66
1
 70
0
  0
VERTEX
  8
0
 62
7
  6
CONTINUOUS
 10
146.9540224913
 20
204.5679732784
  0
VERTEX
  8
0
 62
7
  6
CONTINUOUS
 10
146.941596523
 20
204.5812133475
  0
VERTEX
  8
0
 62
7
  6
CONTINUOUS
 10
146.9048670432
 20
204.5936393237
  0
VERTEX
  8
0
 62
7
  6
CONTINUOUS
 10
146.8455552248
 20
204.604672621
  0
VERTEX
  8
0
 62
7
  6
CONTINUOUS
 10
146.7665286216
 20
204.6138110361
  0
VERTEX
  8
0
 62
7
  6
CONTINUOUS
 10
146.6716800566
 20
204.6206454998
  0
VERTEX
  8
0
 62
7
  6
CONTINUOUS
 10
146.56573843
 20
204.624872878
  0
VERTEX
  8
0
 62
7
  6
CONTINUOUS
 10
146.4540224913
 20
204.6263043224
  0
SEQEND
  0
LINE
  8
2_FEATURE
 62
7
  6
CONTINUOUS
 10
151.4165224913
 20
199.4567579496
 11
151.4602724496
 21
199.4022884985
  0
LINE
  8
2_FEATURE
 62
7
  6
CONTINUOUS
 10
151.6790224913
 20
199.4567579496
 11
151.7227724496
 21
199.4022884985
  0
LINE
  8
2_FEATURE
 62
7
  6
CONTINUOUS
 10
153.3852724913
 20
199.4567579496
 11
153.4290225748
 21
199.4022884985
  0
LINE
  8
2_FEATURE
 62
7
  6
CONTINUOUS
 10
153.6477724913
 20
199.4567579496
 11
153.6915225748
 21
199.4022884985
  0
LINE
  8
0
 62
7
  6
CONTINUOUS
 10
148.1540224913
 20
207.8042446535
 11
148.1540224913
 21
214.2542446534
  0
LINE
  8
0
 62
7
  6
CONTINUOUS
 10
148.9040224913
 20
203.0473271115
 11
148.9040224913
 21
199.8042446535
  0
LINE
  8
0
 62
7
  6
CONTINUOUS
 10
149.6540224913
 20
207.8042446535
 11
149.6540224913
 21
214.2542446535
  0
LINE
  8
2_FEATURE
 62
7
  6
CONTINUOUS
 10
150.1040224913
 20
199.6663136423
 11
150.1040224913
 21
199.3042463012
  0
LINE
  8
2_FEATURE
 62
7
  6
CONTINUOUS
 10
150.3665224913
 20
199.3087837855
 11
150.3665224913
 21
199.6663136423
  0
LINE
  8
2_FEATURE
 62
7
  6
CONTINUOUS
 10
151.1540224913
 20
199.3087837855
 11
151.1540224913
 21
199.3113277304
  0
LINE
  8
2_FEATURE
 62
7
  6
CONTINUOUS
 10
151.1977724496
 20
199.5240098883
 11
151.1977724496
 21
199.6599887915
  0
LINE
  8
2_FEATURE
 62
7
  6
CONTINUOUS
 10
151.3290224496
 20
199.5001364048
 11
151.3290224496
 21
199.641014221
  0
LINE
  8
2_FEATURE
 62
7
  6
CONTINUOUS
 10
151.3727725331
 20
199.3060181374
 11
151.3727725331
 21
199.3230508553
  0
LINE
  8
2_FEATURE
 62
7
  6
CONTINUOUS
 10
151.4165224913
 20
199.4567579496
 11
151.4165224913
 21
199.6133602547
  0
LINE
  8
2_FEATURE
 62
7
  6
CONTINUOUS
 10
151.4602724496
 20
199.3601150501
 11
151.4602724496
 21
199.5920311574
  0
LINE
  8
2_FEATURE
 62
7
  6
CONTINUOUS
 10
151.5477724913
 20
199.3053759568
 11
151.5477724913
 21
199.5054304927
  0
LINE
  8
2_FEATURE
 62
7
  6
CONTINUOUS
 10
151.6790224913
 20
199.3224053322
 11
151.6790224913
 21
199.4567579496
  0
LINE
  8
2_FEATURE
 62
7
  6
CONTINUOUS
 10
151.7227724496
 20
199.4022884985
 11
151.7227724496
 21
199.3487242148
  0
LINE
  8
2_FEATURE
 62
7
  6
CONTINUOUS
 10
152.0727724913
 20
199.6663136423
 11
152.0727724913
 21
199.3042463012
  0
LINE
  8
2_FEATURE
 62
7
  6
CONTINUOUS
 10
152.3352724913
 20
199.3087837855
 11
152.3352724913
 21
199.6663136423
  0
LINE
  8
2_FEATURE
 62
7
  6
CONTINUOUS
 10
153.1227724913
 20
199.3087837855
 11
153.1227724913
 21
199.3113277304
  0
LINE
  8
2_FEATURE
 62
7
  6
CONTINUOUS
 10
153.1665225748
 20
199.5240098883
 11
153.1665225748
 21
199.6599887698
  0
POLYLINE
  8
0
 62
7
  6
CONTINUOUS
 66
1
 70
0
  0
VERTEX
  8
0
 62
7
  6
CONTINUOUS
 10
146.9540224913
 20
202.7405160285
  0
VERTEX
  8
0
 62
7
  6
CONTINUOUS
 10
146.941596523
 20
202.7272759594
  0
VERTEX
  8
0
 62
7
  6
CONTINUOUS
 10
146.9048670432
 20
202.7148499833
  0
VERTEX
  8
0
 62
7
  6
CONTINUOUS
 10
146.8455552248
 20
202.703816686
  0
VERTEX
  8
0
 62
7
  6
CONTINUOUS
 10
146.7665286216
 20
202.6946782708
  0
VERTEX
  8
0
 62
7
  6
CONTINUOUS
 10
146.6716800566
 20
202.6878438071
  0
VERTEX
  8
0
 62
7
  6
CONTINUOUS
 10
146.56573843
 20
202.683616429
  0
VERTEX
  8
0
 62
7
  6
CONTINUOUS
 10
146.4540224913
 20
202.6821849845
  0
SEQEND
  0
POLYLINE
  8
0
 62
7
  6
CONTINUOUS
 66
1
 70
0
  0
VERTEX
  8
0
 62
7
  6
CONTINUOUS
 10
117.400899516
 20
207.8042446535
  0
VERTEX
  8
0
 62
7
  6
CONTINUOUS
 10
117.3562961972
 20
207.7937473256
  0
VERTEX
  8
0
 62
7
  6
CONTINUOUS
 10
117.2982993223
 20
207.7598525526
  0
VERTEX
  8
0
 62
7
  6
CONTINUOUS
 10
117.2350100748
 20
207.7028103494
  0
VERTEX
  8
0
 62
7
  6
CONTINUOUS
 10
117.1822910997
 20
207.6329363643
  0
VERTEX
  8
0
 62
7
  6
CONTINUOUS
 10
117.163166722
 20
207.5969608965
  0
VERTEX
  8
0
 62
7
  6
CONTINUOUS
 10
117.1402297637
 20
207.5278763198
  0
VERTEX
  8
0
 62
7
  6
CONTINUOUS
 10
117.1341608726
 20
207.4595738568
  0
VERTEX
  8
0
 62
7
  6
CONTINUOUS
 10
117.1436340525
 20
207.3870867156
  0
VERTEX
  8
0
 62
7
  6
CONTINUOUS
 10
117.1705816623
 20
207.3042446535
  0
SEQEND
  0
POLYLINE
  8
0
 62
7
  6
CONTINUOUS
 66
1
 70
0
  0
VERTEX
  8
0
 62
7
  6
CONTINUOUS
 10
111.400899516
 20
207.8042446535
  0
VERTEX
  8
0
 62
7
  6
CONTINUOUS
 10
111.3562961972
 20
207.7937473256
  0
VERTEX
  8
0
 62
7
  6
CONTINUOUS
 10
111.2982993223
 20
207.7598525526
  0
VERTEX
  8
0
 62
7
  6
CONTINUOUS
 10
111.2350100748
 20
207.7028103494
  0
VERTEX
  8
0
 62
7
  6
CONTINUOUS
 10
111.1822910997
 20
207.6329363643
  0
VERTEX
  8
0
 62
7
  6
CONTINUOUS
 10
111.163166722
 20
207.5969608965
  0
VERTEX
  8
0
 62
7
  6
CONTINUOUS
 10
111.1402297637
 20
207.5278763198
  0
VERTEX
  8
0
 62
7
  6
CONTINUOUS
 10
111.1341608726
 20
207.4595738568
  0
VERTEX
  8
0
 62
7
  6
CONTINUOUS
 10
111.1436340525
 20
207.3870867156
  0
VERTEX
  8
0
 62
7
  6
CONTINUOUS
 10
111.1705816623
 20
207.3042446535
  0
SEQEND
  0
POLYLINE
  8
0
 62
7
  6
CONTINUOUS
 66
1
 70
0
  0
VERTEX
  8
0
 62
7
  6
CONTINUOUS
 10
98.300899516
 20
207.8042446535
  0
VERTEX
  8
0
 62
7
  6
CONTINUOUS
 10
98.2562961972
 20
207.7937473256
  0
VERTEX
  8
0
 62
7
  6
CONTINUOUS
 10
98.1982993223
 20
207.7598525526
  0
VERTEX
  8
0
 62
7
  6
CONTINUOUS
 10
98.1350100748
 20
207.7028103494
  0
VERTEX
  8
0
 62
7
  6
CONTINUOUS
 10
98.0822910997
 20
207.6329363643
  0
VERTEX
  8
0
 62
7
  6
CONTINUOUS
 10
98.063166722
 20
207.5969608965
  0
VERTEX
  8
0
 62
7
  6
CONTINUOUS
 10
98.0402297637
 20
207.5278763198
  0
VERTEX
  8
0
 62
7
  6
CONTINUOUS
 10
98.0341608726
 20
207.4595738568
  0
VERTEX
  8
0
 62
7
  6
CONTINUOUS
 10
98.0436340525
 20
207.3870867156
  0
VERTEX
  8
0
 62
7
  6
CONTINUOUS
 10
98.0705816623
 20
207.3042446535
  0
SEQEND
  0
POLYLINE
  8
0
 62
7
  6
CONTINUOUS
 66
1
 70
0
  0
VERTEX
  8
0
 62
7
  6
CONTINUOUS
 10
156.8540224913
 20
202.7405160285
  0
VERTEX
  8
0
 62
7
  6
CONTINUOUS
 10
156.8664484597
 20
202.7272759594
  0
VERTEX
  8
0
 62
7
  6
CONTINUOUS
 10
156.9031779395
 20
202.7148499833
  0
VERTEX
  8
0
 62
7
  6
CONTINUOUS
 10
156.9624897579
 20
202.703816686
  0
VERTEX
  8
0
 62
7
  6
CONTINUOUS
 10
157.0415163611
 20
202.6946782708
  0
VERTEX
  8
0
 62
7
  6
CONTINUOUS
 10
157.1363649261
 20
202.6878438071
  0
VERTEX
  8
0
 62
7
  6
CONTINUOUS
 10
157.2423065527
 20
202.683616429
  0
VERTEX
  8
0
 62
7
  6
CONTINUOUS
 10
157.3540224913
 20
202.6821849845
  0
SEQEND
  0
POLYLINE
  8
0
 62
7
  6
CONTINUOUS
 66
1
 70
0
  0
VERTEX
  8
0
 62
7
  6
CONTINUOUS
 10
149.3705816623
 20
207.3042446535
  0
VERTEX
  8
0
 62
7
  6
CONTINUOUS
 10
149.2836362297
 20
207.4873628341
  0
VERTEX
  8
0
 62
7
  6
CONTINUOUS
 10
149.1972609297
 20
207.6208665213
  0
VERTEX
  8
0
 62
7
  6
CONTINUOUS
 10
149.1140420376
 20
207.7120805371
  0
VERTEX
  8
0
 62
7
  6
CONTINUOUS
 10
149.0372189859
 20
207.7676246767
  0
VERTEX
  8
0
 62
7
  6
CONTINUOUS
 10
148.9683158696
 20
207.7957645842
  0
VERTEX
  8
0
 62
7
  6
CONTINUOUS
 10
148.9037516472
 20
207.8042445033
  0
VERTEX
  8
0
 62
7
  6
CONTINUOUS
 10
148.8391460174
 20
207.7956097796
  0
VERTEX
  8
0
 62
7
  6
CONTINUOUS
 10
148.7701361537
 20
207.7672412706
  0
VERTEX
  8
0
 62
7
  6
CONTINUOUS
 10
148.6932231646
 20
207.7113804769
  0
VERTEX
  8
0
 62
7
  6
CONTINUOUS
 10
148.6101471316
 20
207.6200344034
  0
VERTEX
  8
0
 62
7
  6
CONTINUOUS
 10
148.5240660305
 20
207.4867446558
  0
VERTEX
  8
0
 62
7
  6
CONTINUOUS
 10
148.4374633204
 20
207.3042446535
  0
SEQEND
  0
LINE
  8
2_FEATURE
 62
7
  6
CONTINUOUS
 10
153.2977725748
 20
199.5001364048
 11
153.2977725748
 21
199.6410141884
  0
LINE
  8
2_FEATURE
 62
7
  6
CONTINUOUS
 10
153.3415224079
 20
199.3060181374
 11
153.3415224079
 21
199.323050826
  0
LINE
  8
2_FEATURE
 62
7
  6
CONTINUOUS
 10
153.3852724913
 20
199.4567579496
 11
153.3852724913
 21
199.613360209
  0
LINE
  8
2_FEATURE
 62
7
  6
CONTINUOUS
 10
153.4290225748
 20
199.3601150501
 11
153.4290225748
 21
199.5920310658
  0
LINE
  8
2_FEATURE
 62
7
  6
CONTINUOUS
 10
153.5165224913
 20
199.3053759568
 11
153.5165224913
 21
199.5054304927
  0
LINE
  8
2_FEATURE
 62
7
  6
CONTINUOUS
 10
153.6477724913
 20
199.3224053322
 11
153.6477724913
 21
199.4567579496
  0
LINE
  8
2_FEATURE
 62
7
  6
CONTINUOUS
 10
153.6915225748
 20
199.4022884985
 11
153.6915225748
 21
199.3487242148
  0
LINE
  8
0
 62
7
  6
CONTINUOUS
 10
154.1540224913
 20
207.8042446535
 11
154.1540224913
 21
214.2542446534
  0
LINE
  8
0
 62
7
  6
CONTINUOUS
 10
154.9040224913
 20
203.0473266786
 11
154.9040224913
 21
199.8042446535
  0
LINE
  8
0
 62
7
  6
CONTINUOUS
 10
155.6540224913
 20
207.8042446535
 11
155.6540224913
 21
214.2542446535
  0
LINE
  8
0
 62
7
  6
CONTINUOUS
 10
156.8540224913
 20
199.8042446535
 11
156.8540224913
 21
207.3042446535
  0
LINE
  8
0
 62
7
  6
CONTINUOUS
 10
157.7040224913
 20
207.8042446535
 11
157.7040224913
 21
214.2542446534
  0
POLYLINE
  8
0
 62
7
  6
CONTINUOUS
 66
1
 70
0
  0
VERTEX
  8
0
 62
7
  6
CONTINUOUS
 10
156.8437842407
 20
204.9042446535
  0
VERTEX
  8
0
 62
7
  6
CONTINUOUS
 10
156.8494873639
 20
204.9381818808
  0
VERTEX
  8
0
 62
7
  6
CONTINUOUS
 10
156.8528925651
 20
204.9717746362
  0
VERTEX
  8
0
 62
7
  6
CONTINUOUS
 10
156.8540224913
 20
205.0049095874
  0
SEQEND
  0
POLYLINE
  8
0
 62
7
  6
CONTINUOUS
 66
1
 70
0
  0
VERTEX
  8
0
 62
7
  6
CONTINUOUS
 10
154.4374633204
 20
207.3042446535
  0
VERTEX
  8
0
 62
7
  6
CONTINUOUS
 10
154.4644107461
 20
207.3870859168
  0
VERTEX
  8
0
 62
7
  6
CONTINUOUS
 10
154.4738815513
 20
207.4594663501
  0
VERTEX
  8
0
 62
7
  6
CONTINUOUS
 10
154.4677983844
 20
207.5279579995
  0
VERTEX
  8
0
 62
7
  6
CONTINUOUS
 10
154.4447944811
 20
207.5971423501
  0
VERTEX
  8
0
 62
7
  6
CONTINUOUS
 10
154.4258174615
 20
207.632830907
  0
VERTEX
  8
0
 62
7
  6
CONTINUOUS
 10
154.373040851
 20
207.7028038922
  0
VERTEX
  8
0
 62
7
  6
CONTINUOUS
 10
154.3096994081
 20
207.7598865657
  0
VERTEX
  8
0
 62
7
  6
CONTINUOUS
 10
154.2517456768
 20
207.7937486249
  0
VERTEX
  8
0
 62
7
  6
CONTINUOUS
 10
154.2071454667
 20
207.8042446535
  0
SEQEND
  0
POLYLINE
  8
0
 62
7
  6
CONTINUOUS
 66
1
 70
0
  0
VERTEX
  8
0
 62
7
  6
CONTINUOUS
 10
156.8540224913
 20
204.5679732784
  0
VERTEX
  8
0
 62
7
  6
CONTINUOUS
 10
156.8664484597
 20
204.5812133475
  0
VERTEX
  8
0
 62
7
  6
CONTINUOUS
 10
156.9031779395
 20
204.5936393237
  0
VERTEX
  8
0
 62
7
  6
CONTINUOUS
 10
156.9624897579
 20
204.604672621
  0
VERTEX
  8
0
 62
7
  6
CONTINUOUS
 10
157.0415163611
 20
204.6138110361
  0
VERTEX
  8
0
 62
7
  6
CONTINUOUS
 10
157.1363649261
 20
204.6206454998
  0
VERTEX
  8
0
 62
7
  6
CONTINUOUS
 10
157.2423065527
 20
204.624872878
  0
VERTEX
  8
0
 62
7
  6
CONTINUOUS
 10
157.3540224913
 20
204.6263043224
  0
SEQEND
  0
LINE
  8
2_FEATURE
 62
7
  6
CONTINUOUS
 10
151.4602724496
 20
199.3601150501
 11
151.4165224913
 21
199.3298779166
  0
LINE
  8
2_FEATURE
 62
7
  6
CONTINUOUS
 10
153.4290225748
 20
199.3601150501
 11
153.3852724913
 21
199.3298779166
  0
LINE
  8
2_FEATURE
 62
7
  6
CONTINUOUS
 10
151.7227724496
 20
199.3487242148
 11
151.6790224913
 21
199.3224053322
  0
LINE
  8
2_FEATURE
 62
7
  6
CONTINUOUS
 10
153.6915225748
 20
199.3487242148
 11
153.6477724913
 21
199.3224053322
  0
POLYLINE
  8
0
 62
7
  6
CONTINUOUS
 66
1
 70
0
  0
VERTEX
  8
0
 62
7
  6
CONTINUOUS
 10
92.300899516
 20
207.8042446535
  0
VERTEX
  8
0
 62
7
  6
CONTINUOUS
 10
92.2562961971
 20
207.7937473256
  0
VERTEX
  8
0
 62
7
  6
CONTINUOUS
 10
92.1982993223
 20
207.7598525526
  0
VERTEX
  8
0
 62
7
  6
CONTINUOUS
 10
92.1350100748
 20
207.7028103494
  0
VERTEX
  8
0
 62
7
  6
CONTINUOUS
 10
92.0822910997
 20
207.6329363643
  0
VERTEX
  8
0
 62
7
  6
CONTINUOUS
 10
92.063166722
 20
207.5969608965
  0
VERTEX
  8
0
 62
7
  6
CONTINUOUS
 10
92.0402297637
 20
207.5278763198
  0
VERTEX
  8
0
 62
7
  6
CONTINUOUS
 10
92.0341608726
 20
207.4595738568
  0
VERTEX
  8
0
 62
7
  6
CONTINUOUS
 10
92.0436340525
 20
207.3870867156
  0
VERTEX
  8
0
 62
7
  6
CONTINUOUS
 10
92.0705816623
 20
207.3042446535
  0
SEQEND
  0
POLYLINE
  8
0
 62
7
  6
CONTINUOUS
 66
1
 70
0
  0
VERTEX
  8
0
 62
7
  6
CONTINUOUS
 10
79.200899516
 20
207.8042446535
  0
VERTEX
  8
0
 62
7
  6
CONTINUOUS
 10
79.1562961972
 20
207.7937473256
  0
VERTEX
  8
0
 62
7
  6
CONTINUOUS
 10
79.0982993223
 20
207.7598525526
  0
VERTEX
  8
0
 62
7
  6
CONTINUOUS
 10
79.0350100748
 20
207.7028103494
  0
VERTEX
  8
0
 62
7
  6
CONTINUOUS
 10
78.9822910997
 20
207.6329363643
  0
VERTEX
  8
0
 62
7
  6
CONTINUOUS
 10
78.963166722
 20
207.5969608965
  0
VERTEX
  8
0
 62
7
  6
CONTINUOUS
 10
78.9402297637
 20
207.5278763198
  0
VERTEX
  8
0
 62
7
  6
CONTINUOUS
 10
78.9341608726
 20
207.4595738568
  0
VERTEX
  8
0
 62
7
  6
CONTINUOUS
 10
78.9436340525
 20
207.3870867156
  0
VERTEX
  8
0
 62
7
  6
CONTINUOUS
 10
78.9705816623
 20
207.3042446535
  0
SEQEND
  0
POLYLINE
  8
0
 62
7
  6
CONTINUOUS
 66
1
 70
0
  0
VERTEX
  8
0
 62
7
  6
CONTINUOUS
 10
166.0540224913
 20
204.5679732784
  0
VERTEX
  8
0
 62
7
  6
CONTINUOUS
 10
166.041596523
 20
204.5812133475
  0
VERTEX
  8
0
 62
7
  6
CONTINUOUS
 10
166.0048670432
 20
204.5936393237
  0
VERTEX
  8
0
 62
7
  6
CONTINUOUS
 10
165.9455552248
 20
204.604672621
  0
VERTEX
  8
0
 62
7
  6
CONTINUOUS
 10
165.8665286216
 20
204.6138110361
  0
VERTEX
  8
0
 62
7
  6
CONTINUOUS
 10
165.7716800566
 20
204.6206454998
  0
VERTEX
  8
0
 62
7
  6
CONTINUOUS
 10
165.66573843
 20
204.624872878
  0
VERTEX
  8
0
 62
7
  6
CONTINUOUS
 10
165.5540224913
 20
204.6263043224
  0
SEQEND
  0
POLYLINE
  8
0
 62
7
  6
CONTINUOUS
 66
1
 70
0
  0
VERTEX
  8
0
 62
7
  6
CONTINUOUS
 10
155.3705816623
 20
207.3042446535
  0
VERTEX
  8
0
 62
7
  6
CONTINUOUS
 10
155.2836362297
 20
207.4873628341
  0
VERTEX
  8
0
 62
7
  6
CONTINUOUS
 10
155.1972609297
 20
207.6208665213
  0
VERTEX
  8
0
 62
7
  6
CONTINUOUS
 10
155.1140420376
 20
207.7120805371
  0
VERTEX
  8
0
 62
7
  6
CONTINUOUS
 10
155.0372189859
 20
207.7676246767
  0
VERTEX
  8
0
 62
7
  6
CONTINUOUS
 10
154.9683158696
 20
207.7957645842
  0
VERTEX
  8
0
 62
7
  6
CONTINUOUS
 10
154.9037516472
 20
207.8042445033
  0
VERTEX
  8
0
 62
7
  6
CONTINUOUS
 10
154.8391460174
 20
207.7956097796
  0
VERTEX
  8
0
 62
7
  6
CONTINUOUS
 10
154.7701361537
 20
207.7672412706
  0
VERTEX
  8
0
 62
7
  6
CONTINUOUS
 10
154.6932231646
 20
207.7113804769
  0
VERTEX
  8
0
 62
7
  6
CONTINUOUS
 10
154.6101471316
 20
207.6200344034
  0
VERTEX
  8
0
 62
7
  6
CONTINUOUS
 10
154.5240660305
 20
207.4867446558
  0
VERTEX
  8
0
 62
7
  6
CONTINUOUS
 10
154.4374633204
 20
207.3042446535
  0
SEQEND
  0
LINE
  8
0
 62
7
  6
CONTINUOUS
 10
159.2040224913
 20
207.8042446535
 11
159.2040224913
 21
214.2542446535
  0
POLYLINE
  8
0
 62
7
  6
CONTINUOUS
 66
1
 70
0
  0
VERTEX
  8
0
 62
7
  6
CONTINUOUS
 10
166.0540224913
 20
202.7405160285
  0
VERTEX
  8
0
 62
7
  6
CONTINUOUS
 10
166.041596523
 20
202.7272759594
  0
VERTEX
  8
0
 62
7
  6
CONTINUOUS
 10
166.0048670432
 20
202.7148499833
  0
VERTEX
  8
0
 62
7
  6
CONTINUOUS
 10
165.9455552248
 20
202.703816686
  0
VERTEX
  8
0
 62
7
  6
CONTINUOUS
 10
165.8665286216
 20
202.6946782708
  0
VERTEX
  8
0
 62
7
  6
CONTINUOUS
 10
165.7716800566
 20
202.6878438071
  0
VERTEX
  8
0
 62
7
  6
CONTINUOUS
 10
165.66573843
 20
202.683616429
  0
VERTEX
  8
0
 62
7
  6
CONTINUOUS
 10
165.5540224913
 20
202.6821849845
  0
SEQEND
  0
POLYLINE
  8
0
 62
7
  6
CONTINUOUS
 66
1
 70
0
  0
VERTEX
  8
0
 62
7
  6
CONTINUOUS
 10
73.200899516
 20
207.8042446535
  0
VERTEX
  8
0
 62
7
  6
CONTINUOUS
 10
73.1562961971
 20
207.7937473256
  0
VERTEX
  8
0
 62
7
  6
CONTINUOUS
 10
73.0982993223
 20
207.7598525526
  0
VERTEX
  8
0
 62
7
  6
CONTINUOUS
 10
73.0350100748
 20
207.7028103494
  0
VERTEX
  8
0
 62
7
  6
CONTINUOUS
 10
72.9822910997
 20
207.6329363643
  0
VERTEX
  8
0
 62
7
  6
CONTINUOUS
 10
72.963166722
 20
207.5969608965
  0
VERTEX
  8
0
 62
7
  6
CONTINUOUS
 10
72.9402297637
 20
207.5278763198
  0
VERTEX
  8
0
 62
7
  6
CONTINUOUS
 10
72.9341608726
 20
207.4595738568
  0
VERTEX
  8
0
 62
7
  6
CONTINUOUS
 10
72.9436340525
 20
207.3870867156
  0
VERTEX
  8
0
 62
7
  6
CONTINUOUS
 10
72.9705816623
 20
207.3042446535
  0
SEQEND
  0
POLYLINE
  8
0
 62
7
  6
CONTINUOUS
 66
1
 70
0
  0
VERTEX
  8
0
 62
7
  6
CONTINUOUS
 10
166.0540224913
 20
205.0049095874
  0
VERTEX
  8
0
 62
7
  6
CONTINUOUS
 10
166.0551516147
 20
204.9717864776
  0
VERTEX
  8
0
 62
7
  6
CONTINUOUS
 10
166.0585574073
 20
204.9381834509
  0
VERTEX
  8
0
 62
7
  6
CONTINUOUS
 10
166.064260742
 20
204.9042446535
  0
SEQEND
  0
LINE
  8
0
 62
7
  6
CONTINUOUS
 10
163.7040224913
 20
207.8042446535
 11
163.7040224913
 21
214.2542446534
  0
LINE
  8
0
 62
7
  6
CONTINUOUS
 10
165.2040224913
 20
207.8042446535
 11
165.2040224913
 21
214.2542446535
  0
LINE
  8
0
 62
7
  6
CONTINUOUS
 10
166.0540224913
 20
199.8042446535
 11
166.0540224913
 21
207.3042446535
  0
LINE
  8
0
 62
7
  6
CONTINUOUS
 10
167.2540224913
 20
207.8042446535
 11
167.2540224913
 21
214.2542446534
  0
LINE
  8
0
 62
7
  6
CONTINUOUS
 10
168.0040224913
 20
203.0473271115
 11
168.0040224913
 21
199.8042446535
  0
POLYLINE
  8
0
 62
7
  6
CONTINUOUS
 66
1
 70
0
  0
VERTEX
  8
0
 62
7
  6
CONTINUOUS
 10
167.5374633204
 20
207.3042446535
  0
VERTEX
  8
0
 62
7
  6
CONTINUOUS
 10
167.5644068562
 20
207.3870690383
  0
VERTEX
  8
0
 62
7
  6
CONTINUOUS
 10
167.5738834602
 20
207.4595464071
  0
VERTEX
  8
0
 62
7
  6
CONTINUOUS
 10
167.5678236788
 20
207.5278352304
  0
VERTEX
  8
0
 62
7
  6
CONTINUOUS
 10
167.5449059783
 20
207.5969008039
  0
VERTEX
  8
0
 62
7
  6
CONTINUOUS
 10
167.5257855349
 20
207.6328838728
  0
VERTEX
  8
0
 62
7
  6
CONTINUOUS
 10
167.4730053669
 20
207.7028424423
  0
VERTEX
  8
0
 62
7
  6
CONTINUOUS
 10
167.4097130302
 20
207.7598765493
  0
VERTEX
  8
0
 62
7
  6
CONTINUOUS
 10
167.3517383132
 20
207.7937517023
  0
VERTEX
  8
0
 62
7
  6
CONTINUOUS
 10
167.3071454667
 20
207.8042446535
  0
SEQEND
  0
POLYLINE
  8
0
 62
7
  6
CONTINUOUS
 66
1
 70
0
  0
VERTEX
  8
0
 62
7
  6
CONTINUOUS
 10
175.9540224913
 20
202.7405160285
  0
VERTEX
  8
0
 62
7
  6
CONTINUOUS
 10
175.9664484597
 20
202.7272759594
  0
VERTEX
  8
0
 62
7
  6
CONTINUOUS
 10
176.0031779395
 20
202.7148499833
  0
VERTEX
  8
0
 62
7
  6
CONTINUOUS
 10
176.0624897579
 20
202.703816686
  0
VERTEX
  8
0
 62
7
  6
CONTINUOUS
 10
176.1415163611
 20
202.6946782708
  0
VERTEX
  8
0
 62
7
  6
CONTINUOUS
 10
176.2363649261
 20
202.6878438071
  0
VERTEX
  8
0
 62
7
  6
CONTINUOUS
 10
176.3423065527
 20
202.683616429
  0
VERTEX
  8
0
 62
7
  6
CONTINUOUS
 10
176.4540224913
 20
202.6821849845
  0
SEQEND
  0
POLYLINE
  8
0
 62
7
  6
CONTINUOUS
 66
1
 70
0
  0
VERTEX
  8
0
 62
7
  6
CONTINUOUS
 10
168.4705816623
 20
207.3042446535
  0
VERTEX
  8
0
 62
7
  6
CONTINUOUS
 10
168.3836362297
 20
207.4873628341
  0
VERTEX
  8
0
 62
7
  6
CONTINUOUS
 10
168.2972609297
 20
207.6208665213
  0
VERTEX
  8
0
 62
7
  6
CONTINUOUS
 10
168.2140420376
 20
207.7120805371
  0
VERTEX
  8
0
 62
7
  6
CONTINUOUS
 10
168.1372189859
 20
207.7676246767
  0
VERTEX
  8
0
 62
7
  6
CONTINUOUS
 10
168.0683158696
 20
207.7957645842
  0
VERTEX
  8
0
 62
7
  6
CONTINUOUS
 10
168.0037516472
 20
207.8042445033
  0
VERTEX
  8
0
 62
7
  6
CONTINUOUS
 10
167.9391460174
 20
207.7956097796
  0
VERTEX
  8
0
 62
7
  6
CONTINUOUS
 10
167.8701361537
 20
207.7672412706
  0
VERTEX
  8
0
 62
7
  6
CONTINUOUS
 10
167.7932231646
 20
207.7113804769
  0
VERTEX
  8
0
 62
7
  6
CONTINUOUS
 10
167.7101471316
 20
207.6200344034
  0
VERTEX
  8
0
 62
7
  6
CONTINUOUS
 10
167.6240660305
 20
207.4867446558
  0
VERTEX
  8
0
 62
7
  6
CONTINUOUS
 10
167.5374633204
 20
207.3042446535
  0
SEQEND
  0
LINE
  8
0
 62
7
  6
CONTINUOUS
 10
168.7540224913
 20
207.8042446535
 11
168.7540224913
 21
214.2542446535
  0
LINE
  8
0
 62
7
  6
CONTINUOUS
 10
173.2540224913
 20
207.8042446535
 11
173.2540224913
 21
214.2542446534
  0
POLYLINE
  8
0
 62
7
  6
CONTINUOUS
 66
1
 70
0
  0
VERTEX
  8
0
 62
7
  6
CONTINUOUS
 10
173.5374633204
 20
207.3042446535
  0
VERTEX
  8
0
 62
7
  6
CONTINUOUS
 10
173.5644107461
 20
207.3870859168
  0
VERTEX
  8
0
 62
7
  6
CONTINUOUS
 10
173.5738815513
 20
207.4594663501
  0
VERTEX
  8
0
 62
7
  6
CONTINUOUS
 10
173.5677983844
 20
207.5279579995
  0
VERTEX
  8
0
 62
7
  6
CONTINUOUS
 10
173.5447944811
 20
207.5971423501
  0
VERTEX
  8
0
 62
7
  6
CONTINUOUS
 10
173.5258174615
 20
207.632830907
  0
VERTEX
  8
0
 62
7
  6
CONTINUOUS
 10
173.473040851
 20
207.7028038922
  0
VERTEX
  8
0
 62
7
  6
CONTINUOUS
 10
173.4096994081
 20
207.7598865657
  0
VERTEX
  8
0
 62
7
  6
CONTINUOUS
 10
173.3517456768
 20
207.7937486249
  0
VERTEX
  8
0
 62
7
  6
CONTINUOUS
 10
173.3071454667
 20
207.8042446535
  0
SEQEND
  0
POLYLINE
  8
0
 62
7
  6
CONTINUOUS
 66
1
 70
0
  0
VERTEX
  8
0
 62
7
  6
CONTINUOUS
 10
175.9540224913
 20
204.5679732784
  0
VERTEX
  8
0
 62
7
  6
CONTINUOUS
 10
175.9664484597
 20
204.5812133475
  0
VERTEX
  8
0
 62
7
  6
CONTINUOUS
 10
176.0031779395
 20
204.5936393237
  0
VERTEX
  8
0
 62
7
  6
CONTINUOUS
 10
176.0624897579
 20
204.604672621
  0
VERTEX
  8
0
 62
7
  6
CONTINUOUS
 10
176.1415163611
 20
204.6138110361
  0
VERTEX
  8
0
 62
7
  6
CONTINUOUS
 10
176.2363649261
 20
204.6206454998
  0
VERTEX
  8
0
 62
7
  6
CONTINUOUS
 10
176.3423065527
 20
204.624872878
  0
VERTEX
  8
0
 62
7
  6
CONTINUOUS
 10
176.4540224913
 20
204.6263043224
  0
SEQEND
  0
POLYLINE
  8
0
 62
7
  6
CONTINUOUS
 66
1
 70
0
  0
VERTEX
  8
0
 62
7
  6
CONTINUOUS
 10
185.1540224913
 20
204.5679732784
  0
VERTEX
  8
0
 62
7
  6
CONTINUOUS
 10
185.141596523
 20
204.5812133475
  0
VERTEX
  8
0
 62
7
  6
CONTINUOUS
 10
185.1048670432
 20
204.5936393237
  0
VERTEX
  8
0
 62
7
  6
CONTINUOUS
 10
185.0455552248
 20
204.604672621
  0
VERTEX
  8
0
 62
7
  6
CONTINUOUS
 10
184.9665286216
 20
204.6138110361
  0
VERTEX
  8
0
 62
7
  6
CONTINUOUS
 10
184.8716800566
 20
204.6206454998
  0
VERTEX
  8
0
 62
7
  6
CONTINUOUS
 10
184.76573843
 20
204.624872878
  0
VERTEX
  8
0
 62
7
  6
CONTINUOUS
 10
184.6540224913
 20
204.6263043224
  0
SEQEND
  0
POLYLINE
  8
0
 62
7
  6
CONTINUOUS
 66
1
 70
0
  0
VERTEX
  8
0
 62
7
  6
CONTINUOUS
 10
174.4705816623
 20
207.3042446535
  0
VERTEX
  8
0
 62
7
  6
CONTINUOUS
 10
174.3836362297
 20
207.4873628341
  0
VERTEX
  8
0
 62
7
  6
CONTINUOUS
 10
174.2972609297
 20
207.6208665213
  0
VERTEX
  8
0
 62
7
  6
CONTINUOUS
 10
174.2140420376
 20
207.7120805371
  0
VERTEX
  8
0
 62
7
  6
CONTINUOUS
 10
174.1372189859
 20
207.7676246767
  0
VERTEX
  8
0
 62
7
  6
CONTINUOUS
 10
174.0683158696
 20
207.7957645842
  0
VERTEX
  8
0
 62
7
  6
CONTINUOUS
 10
174.0037516472
 20
207.8042445033
  0
VERTEX
  8
0
 62
7
  6
CONTINUOUS
 10
173.9391460174
 20
207.7956097796
  0
VERTEX
  8
0
 62
7
  6
CONTINUOUS
 10
173.8701361537
 20
207.7672412706
  0
VERTEX
  8
0
 62
7
  6
CONTINUOUS
 10
173.7932231646
 20
207.7113804769
  0
VERTEX
  8
0
 62
7
  6
CONTINUOUS
 10
173.7101471316
 20
207.6200344034
  0
VERTEX
  8
0
 62
7
  6
CONTINUOUS
 10
173.6240660305
 20
207.4867446558
  0
VERTEX
  8
0
 62
7
  6
CONTINUOUS
 10
173.5374633204
 20
207.3042446535
  0
SEQEND
  0
LINE
  8
0
 62
7
  6
CONTINUOUS
 10
174.0040224913
 20
203.0473266786
 11
174.0040224913
 21
199.8042446535
  0
LINE
  8
0
 62
7
  6
CONTINUOUS
 10
174.7540224913
 20
207.8042446535
 11
174.7540224913
 21
214.2542446535
  0
LINE
  8
0
 62
7
  6
CONTINUOUS
 10
175.9540224913
 20
199.8042446535
 11
175.9540224913
 21
207.3042446535
  0
LINE
  8
0
 62
7
  6
CONTINUOUS
 10
176.8040224913
 20
207.8042446535
 11
176.8040224913
 21
214.2542446534
  0
LINE
  8
0
 62
7
  6
CONTINUOUS
 10
178.3040224913
 20
207.8042446535
 11
178.3040224913
 21
214.2542446535
  0
POLYLINE
  8
0
 62
7
  6
CONTINUOUS
 66
1
 70
0
  0
VERTEX
  8
0
 62
7
  6
CONTINUOUS
 10
175.9437842407
 20
204.9042446535
  0
VERTEX
  8
0
 62
7
  6
CONTINUOUS
 10
175.9494873639
 20
204.9381818808
  0
VERTEX
  8
0
 62
7
  6
CONTINUOUS
 10
175.9528925651
 20
204.9717746362
  0
VERTEX
  8
0
 62
7
  6
CONTINUOUS
 10
175.9540224913
 20
205.0049095874
  0
SEQEND
  0
POLYLINE
  8
0
 62
7
  6
CONTINUOUS
 66
1
 70
0
  0
VERTEX
  8
0
 62
7
  6
CONTINUOUS
 10
185.1540224913
 20
202.7405160285
  0
VERTEX
  8
0
 62
7
  6
CONTINUOUS
 10
185.141596523
 20
202.7272759594
  0
VERTEX
  8
0
 62
7
  6
CONTINUOUS
 10
185.1048670432
 20
202.7148499833
  0
VERTEX
  8
0
 62
7
  6
CONTINUOUS
 10
185.0455552248
 20
202.703816686
  0
VERTEX
  8
0
 62
7
  6
CONTINUOUS
 10
184.9665286216
 20
202.6946782708
  0
VERTEX
  8
0
 62
7
  6
CONTINUOUS
 10
184.8716800566
 20
202.6878438071
  0
VERTEX
  8
0
 62
7
  6
CONTINUOUS
 10
184.76573843
 20
202.683616429
  0
VERTEX
  8
0
 62
7
  6
CONTINUOUS
 10
184.6540224913
 20
202.6821849845
  0
SEQEND
  0
POLYLINE
  8
0
 62
7
  6
CONTINUOUS
 66
1
 70
0
  0
VERTEX
  8
0
 62
7
  6
CONTINUOUS
 10
195.0540224913
 20
202.7405160285
  0
VERTEX
  8
0
 62
7
  6
CONTINUOUS
 10
195.0664484597
 20
202.7272759594
  0
VERTEX
  8
0
 62
7
  6
CONTINUOUS
 10
195.1031779395
 20
202.7148499833
  0
VERTEX
  8
0
 62
7
  6
CONTINUOUS
 10
195.1624897579
 20
202.703816686
  0
VERTEX
  8
0
 62
7
  6
CONTINUOUS
 10
195.2415163611
 20
202.6946782708
  0
VERTEX
  8
0
 62
7
  6
CONTINUOUS
 10
195.3363649261
 20
202.6878438071
  0
VERTEX
  8
0
 62
7
  6
CONTINUOUS
 10
195.4423065527
 20
202.683616429
  0
VERTEX
  8
0
 62
7
  6
CONTINUOUS
 10
195.5540224913
 20
202.6821849845
  0
SEQEND
  0
LINE
  8
0
 62
7
  6
CONTINUOUS
 10
182.8040224913
 20
207.8042446535
 11
182.8040224913
 21
214.2542446534
  0
POLYLINE
  8
0
 62
7
  6
CONTINUOUS
 66
1
 70
0
  0
VERTEX
  8
0
 62
7
  6
CONTINUOUS
 10
195.0540224913
 20
204.5679732784
  0
VERTEX
  8
0
 62
7
  6
CONTINUOUS
 10
195.0664484597
 20
204.5812133475
  0
VERTEX
  8
0
 62
7
  6
CONTINUOUS
 10
195.1031779395
 20
204.5936393237
  0
VERTEX
  8
0
 62
7
  6
CONTINUOUS
 10
195.1624897579
 20
204.604672621
  0
VERTEX
  8
0
 62
7
  6
CONTINUOUS
 10
195.2415163611
 20
204.6138110361
  0
VERTEX
  8
0
 62
7
  6
CONTINUOUS
 10
195.3363649261
 20
204.6206454998
  0
VERTEX
  8
0
 62
7
  6
CONTINUOUS
 10
195.4423065527
 20
204.624872878
  0
VERTEX
  8
0
 62
7
  6
CONTINUOUS
 10
195.5540224913
 20
204.6263043224
  0
SEQEND
  0
POLYLINE
  8
0
 62
7
  6
CONTINUOUS
 66
1
 70
0
  0
VERTEX
  8
0
 62
7
  6
CONTINUOUS
 10
187.5705816623
 20
207.3042446535
  0
VERTEX
  8
0
 62
7
  6
CONTINUOUS
 10
187.4836362297
 20
207.4873628341
  0
VERTEX
  8
0
 62
7
  6
CONTINUOUS
 10
187.3972609297
 20
207.6208665213
  0
VERTEX
  8
0
 62
7
  6
CONTINUOUS
 10
187.3140420376
 20
207.7120805371
  0
VERTEX
  8
0
 62
7
  6
CONTINUOUS
 10
187.2372189859
 20
207.7676246767
  0
VERTEX
  8
0
 62
7
  6
CONTINUOUS
 10
187.1683158696
 20
207.7957645842
  0
VERTEX
  8
0
 62
7
  6
CONTINUOUS
 10
187.1037516472
 20
207.8042445033
  0
VERTEX
  8
0
 62
7
  6
CONTINUOUS
 10
187.0391460174
 20
207.7956097796
  0
VERTEX
  8
0
 62
7
  6
CONTINUOUS
 10
186.9701361537
 20
207.7672412706
  0
VERTEX
  8
0
 62
7
  6
CONTINUOUS
 10
186.8932231646
 20
207.7113804769
  0
VERTEX
  8
0
 62
7
  6
CONTINUOUS
 10
186.8101471316
 20
207.6200344034
  0
VERTEX
  8
0
 62
7
  6
CONTINUOUS
 10
186.7240660305
 20
207.4867446558
  0
VERTEX
  8
0
 62
7
  6
CONTINUOUS
 10
186.6374633204
 20
207.3042446535
  0
SEQEND
  0
POLYLINE
  8
0
 62
7
  6
CONTINUOUS
 66
1
 70
0
  0
VERTEX
  8
0
 62
7
  6
CONTINUOUS
 10
185.1540224913
 20
205.0049095874
  0
VERTEX
  8
0
 62
7
  6
CONTINUOUS
 10
185.1551516147
 20
204.9717864776
  0
VERTEX
  8
0
 62
7
  6
CONTINUOUS
 10
185.1585574073
 20
204.9381834509
  0
VERTEX
  8
0
 62
7
  6
CONTINUOUS
 10
185.164260742
 20
204.9042446535
  0
SEQEND
  0
LINE
  8
0
 62
7
  6
CONTINUOUS
 10
184.3040224913
 20
207.8042446535
 11
184.3040224913
 21
214.2542446535
  0
LINE
  8
0
 62
7
  6
CONTINUOUS
 10
185.1540224913
 20
199.8042446535
 11
185.1540224913
 21
207.3042446535
  0
LINE
  8
0
 62
7
  6
CONTINUOUS
 10
186.3540224913
 20
207.8042446535
 11
186.3540224913
 21
214.2542446534
  0
LINE
  8
0
 62
7
  6
CONTINUOUS
 10
187.1040224913
 20
203.0473271115
 11
187.1040224913
 21
199.8042446535
  0
LINE
  8
0
 62
7
  6
CONTINUOUS
 10
187.8540224913
 20
207.8042446535
 11
187.8540224913
 21
214.2542446535
  0
POLYLINE
  8
0
 62
7
  6
CONTINUOUS
 66
1
 70
0
  0
VERTEX
  8
0
 62
7
  6
CONTINUOUS
 10
186.6374633204
 20
207.3042446535
  0
VERTEX
  8
0
 62
7
  6
CONTINUOUS
 10
186.6644068562
 20
207.3870690383
  0
VERTEX
  8
0
 62
7
  6
CONTINUOUS
 10
186.6738834602
 20
207.4595464071
  0
VERTEX
  8
0
 62
7
  6
CONTINUOUS
 10
186.6678236788
 20
207.5278352304
  0
VERTEX
  8
0
 62
7
  6
CONTINUOUS
 10
186.6449059783
 20
207.5969008039
  0
VERTEX
  8
0
 62
7
  6
CONTINUOUS
 10
186.6257855349
 20
207.6328838728
  0
VERTEX
  8
0
 62
7
  6
CONTINUOUS
 10
186.5730053669
 20
207.7028424423
  0
VERTEX
  8
0
 62
7
  6
CONTINUOUS
 10
186.5097130302
 20
207.7598765493
  0
VERTEX
  8
0
 62
7
  6
CONTINUOUS
 10
186.4517383132
 20
207.7937517023
  0
VERTEX
  8
0
 62
7
  6
CONTINUOUS
 10
186.4071454667
 20
207.8042446535
  0
SEQEND
  0
POLYLINE
  8
0
 62
7
  6
CONTINUOUS
 66
1
 70
0
  0
VERTEX
  8
0
 62
7
  6
CONTINUOUS
 10
204.2540224913
 20
204.5679732784
  0
VERTEX
  8
0
 62
7
  6
CONTINUOUS
 10
204.241596523
 20
204.5812133475
  0
VERTEX
  8
0
 62
7
  6
CONTINUOUS
 10
204.2048670432
 20
204.5936393237
  0
VERTEX
  8
0
 62
7
  6
CONTINUOUS
 10
204.1455552248
 20
204.604672621
  0
VERTEX
  8
0
 62
7
  6
CONTINUOUS
 10
204.0665286216
 20
204.6138110361
  0
VERTEX
  8
0
 62
7
  6
CONTINUOUS
 10
203.9716800566
 20
204.6206454998
  0
VERTEX
  8
0
 62
7
  6
CONTINUOUS
 10
203.86573843
 20
204.624872878
  0
VERTEX
  8
0
 62
7
  6
CONTINUOUS
 10
203.7540224913
 20
204.6263043224
  0
SEQEND
  0
POLYLINE
  8
0
 62
7
  6
CONTINUOUS
 66
1
 70
0
  0
VERTEX
  8
0
 62
7
  6
CONTINUOUS
 10
193.5705816623
 20
207.3042446535
  0
VERTEX
  8
0
 62
7
  6
CONTINUOUS
 10
193.4836362297
 20
207.4873628341
  0
VERTEX
  8
0
 62
7
  6
CONTINUOUS
 10
193.3972609297
 20
207.6208665213
  0
VERTEX
  8
0
 62
7
  6
CONTINUOUS
 10
193.3140420376
 20
207.7120805371
  0
VERTEX
  8
0
 62
7
  6
CONTINUOUS
 10
193.2372189859
 20
207.7676246767
  0
VERTEX
  8
0
 62
7
  6
CONTINUOUS
 10
193.1683158696
 20
207.7957645842
  0
VERTEX
  8
0
 62
7
  6
CONTINUOUS
 10
193.1037516472
 20
207.8042445033
  0
VERTEX
  8
0
 62
7
  6
CONTINUOUS
 10
193.0391460174
 20
207.7956097796
  0
VERTEX
  8
0
 62
7
  6
CONTINUOUS
 10
192.9701361537
 20
207.7672412706
  0
VERTEX
  8
0
 62
7
  6
CONTINUOUS
 10
192.8932231646
 20
207.7113804769
  0
VERTEX
  8
0
 62
7
  6
CONTINUOUS
 10
192.8101471316
 20
207.6200344034
  0
VERTEX
  8
0
 62
7
  6
CONTINUOUS
 10
192.7240660305
 20
207.4867446558
  0
VERTEX
  8
0
 62
7
  6
CONTINUOUS
 10
192.6374633204
 20
207.3042446535
  0
SEQEND
  0
LINE
  8
0
 62
7
  6
CONTINUOUS
 10
192.3540224913
 20
207.8042446535
 11
192.3540224913
 21
214.2542446534
  0
LINE
  8
0
 62
7
  6
CONTINUOUS
 10
193.1040224913
 20
203.0473266786
 11
193.1040224913
 21
199.8042446535
  0
LINE
  8
0
 62
7
  6
CONTINUOUS
 10
193.8540224913
 20
207.8042446535
 11
193.8540224913
 21
214.2542446535
  0
POLYLINE
  8
0
 62
7
  6
CONTINUOUS
 66
1
 70
0
  0
VERTEX
  8
0
 62
7
  6
CONTINUOUS
 10
192.6374633204
 20
207.3042446535
  0
VERTEX
  8
0
 62
7
  6
CONTINUOUS
 10
192.6644107461
 20
207.3870859168
  0
VERTEX
  8
0
 62
7
  6
CONTINUOUS
 10
192.6738815513
 20
207.4594663501
  0
VERTEX
  8
0
 62
7
  6
CONTINUOUS
 10
192.6677983844
 20
207.5279579995
  0
VERTEX
  8
0
 62
7
  6
CONTINUOUS
 10
192.6447944812
 20
207.5971423501
  0
VERTEX
  8
0
 62
7
  6
CONTINUOUS
 10
192.6258174615
 20
207.632830907
  0
VERTEX
  8
0
 62
7
  6
CONTINUOUS
 10
192.573040851
 20
207.7028038922
  0
VERTEX
  8
0
 62
7
  6
CONTINUOUS
 10
192.5096994081
 20
207.7598865657
  0
VERTEX
  8
0
 62
7
  6
CONTINUOUS
 10
192.4517456768
 20
207.7937486249
  0
VERTEX
  8
0
 62
7
  6
CONTINUOUS
 10
192.4071454667
 20
207.8042446535
  0
SEQEND
  0
POLYLINE
  8
0
 62
7
  6
CONTINUOUS
 66
1
 70
0
  0
VERTEX
  8
0
 62
7
  6
CONTINUOUS
 10
204.2540224913
 20
202.7405160285
  0
VERTEX
  8
0
 62
7
  6
CONTINUOUS
 10
204.241596523
 20
202.7272759594
  0
VERTEX
  8
0
 62
7
  6
CONTINUOUS
 10
204.2048670432
 20
202.7148499833
  0
VERTEX
  8
0
 62
7
  6
CONTINUOUS
 10
204.1455552248
 20
202.703816686
  0
VERTEX
  8
0
 62
7
  6
CONTINUOUS
 10
204.0665286216
 20
202.6946782708
  0
VERTEX
  8
0
 62
7
  6
CONTINUOUS
 10
203.9716800566
 20
202.6878438071
  0
VERTEX
  8
0
 62
7
  6
CONTINUOUS
 10
203.86573843
 20
202.683616429
  0
VERTEX
  8
0
 62
7
  6
CONTINUOUS
 10
203.7540224913
 20
202.6821849845
  0
SEQEND
  0
POLYLINE
  8
0
 62
7
  6
CONTINUOUS
 66
1
 70
0
  0
VERTEX
  8
0
 62
7
  6
CONTINUOUS
 10
214.4040224913
 20
202.7405160285
  0
VERTEX
  8
0
 62
7
  6
CONTINUOUS
 10
214.4164484597
 20
202.7272759594
  0
VERTEX
  8
0
 62
7
  6
CONTINUOUS
 10
214.4531779395
 20
202.7148499833
  0
VERTEX
  8
0
 62
7
  6
CONTINUOUS
 10
214.5124897579
 20
202.703816686
  0
VERTEX
  8
0
 62
7
  6
CONTINUOUS
 10
214.5915163611
 20
202.6946782708
  0
VERTEX
  8
0
 62
7
  6
CONTINUOUS
 10
214.6863649261
 20
202.6878438071
  0
VERTEX
  8
0
 62
7
  6
CONTINUOUS
 10
214.7923065527
 20
202.683616429
  0
VERTEX
  8
0
 62
7
  6
CONTINUOUS
 10
214.9040224913
 20
202.6821849845
  0
SEQEND
  0
LINE
  8
0
 62
7
  6
CONTINUOUS
 10
195.0540224913
 20
199.8042446535
 11
195.0540224913
 21
207.3042446535
  0
LINE
  8
0
 62
7
  6
CONTINUOUS
 10
195.9040224913
 20
207.8042446535
 11
195.9040224913
 21
214.2542446534
  0
LINE
  8
0
 62
7
  6
CONTINUOUS
 10
197.4040224913
 20
207.8042446535
 11
197.4040224913
 21
214.2542446535
  0
POLYLINE
  8
0
 62
7
  6
CONTINUOUS
 66
1
 70
0
  0
VERTEX
  8
0
 62
7
  6
CONTINUOUS
 10
195.0437842407
 20
204.9042446535
  0
VERTEX
  8
0
 62
7
  6
CONTINUOUS
 10
195.0494873639
 20
204.9381818808
  0
VERTEX
  8
0
 62
7
  6
CONTINUOUS
 10
195.0528925651
 20
204.9717746362
  0
VERTEX
  8
0
 62
7
  6
CONTINUOUS
 10
195.0540224913
 20
205.0049095874
  0
SEQEND
  0
POLYLINE
  8
0
 62
7
  6
CONTINUOUS
 66
1
 70
0
  0
VERTEX
  8
0
 62
7
  6
CONTINUOUS
 10
214.4040224913
 20
204.5679732784
  0
VERTEX
  8
0
 62
7
  6
CONTINUOUS
 10
214.4164484597
 20
204.5812133475
  0
VERTEX
  8
0
 62
7
  6
CONTINUOUS
 10
214.4531779395
 20
204.5936393237
  0
VERTEX
  8
0
 62
7
  6
CONTINUOUS
 10
214.5124897579
 20
204.604672621
  0
VERTEX
  8
0
 62
7
  6
CONTINUOUS
 10
214.5915163611
 20
204.6138110361
  0
VERTEX
  8
0
 62
7
  6
CONTINUOUS
 10
214.6863649261
 20
204.6206454998
  0
VERTEX
  8
0
 62
7
  6
CONTINUOUS
 10
214.7923065527
 20
204.624872878
  0
VERTEX
  8
0
 62
7
  6
CONTINUOUS
 10
214.9040224913
 20
204.6263043224
  0
SEQEND
  0
POLYLINE
  8
0
 62
7
  6
CONTINUOUS
 66
1
 70
0
  0
VERTEX
  8
0
 62
7
  6
CONTINUOUS
 10
204.2540224913
 20
205.0049095874
  0
VERTEX
  8
0
 62
7
  6
CONTINUOUS
 10
204.2551516147
 20
204.9717864776
  0
VERTEX
  8
0
 62
7
  6
CONTINUOUS
 10
204.2585574073
 20
204.9381834509
  0
VERTEX
  8
0
 62
7
  6
CONTINUOUS
 10
204.264260742
 20
204.9042446535
  0
SEQEND
  0
LINE
  8
0
 62
7
  6
CONTINUOUS
 10
201.9040224913
 20
207.8042446535
 11
201.9040224913
 21
214.2542446534
  0
LINE
  8
0
 62
7
  6
CONTINUOUS
 10
203.4040224913
 20
207.8042446535
 11
203.4040224913
 21
214.2542446535
  0
LINE
  8
0
 62
7
  6
CONTINUOUS
 10
204.2540224913
 20
199.8042446535
 11
204.2540224913
 21
207.3042446535
  0
POLYLINE
  8
0
 62
7
  6
CONTINUOUS
 66
1
 70
0
  0
VERTEX
  8
0
 62
7
  6
CONTINUOUS
 10
205.7374633204
 20
207.3042446535
  0
VERTEX
  8
0
 62
7
  6
CONTINUOUS
 10
205.7644068562
 20
207.3870690383
  0
VERTEX
  8
0
 62
7
  6
CONTINUOUS
 10
205.7738834602
 20
207.4595464071
  0
VERTEX
  8
0
 62
7
  6
CONTINUOUS
 10
205.7678236788
 20
207.5278352304
  0
VERTEX
  8
0
 62
7
  6
CONTINUOUS
 10
205.7449059783
 20
207.5969008039
  0
VERTEX
  8
0
 62
7
  6
CONTINUOUS
 10
205.7257855349
 20
207.6328838728
  0
VERTEX
  8
0
 62
7
  6
CONTINUOUS
 10
205.6730053669
 20
207.7028424423
  0
VERTEX
  8
0
 62
7
  6
CONTINUOUS
 10
205.6097130302
 20
207.7598765493
  0
VERTEX
  8
0
 62
7
  6
CONTINUOUS
 10
205.5517383132
 20
207.7937517023
  0
VERTEX
  8
0
 62
7
  6
CONTINUOUS
 10
205.5071454667
 20
207.8042446535
  0
SEQEND
  0
POLYLINE
  8
2_FEATURE
 62
7
  6
CONTINUOUS
 66
1
 70
0
  0
VERTEX
  8
2_FEATURE
 62
7
  6
CONTINUOUS
 10
206.2685174555
 20
200.398512423
  0
VERTEX
  8
2_FEATURE
 62
7
  6
CONTINUOUS
 10
206.3048020011
 20
200.4878199391
  0
VERTEX
  8
2_FEATURE
 62
7
  6
CONTINUOUS
 10
206.342598142
 20
200.5569247388
  0
VERTEX
  8
2_FEATURE
 62
7
  6
CONTINUOUS
 10
206.3803949781
 20
200.6077626815
  0
VERTEX
  8
2_FEATURE
 62
7
  6
CONTINUOUS
 10
206.4164880346
 20
200.6417678198
  0
VERTEX
  8
2_FEATURE
 62
7
  6
CONTINUOUS
 10
206.4504056385
 20
200.6616447936
  0
VERTEX
  8
2_FEATURE
 62
7
  6
CONTINUOUS
 10
206.4833943368
 20
200.6697138012
  0
VERTEX
  8
2_FEATURE
 62
7
  6
CONTINUOUS
 10
206.5144565066
 20
200.66633061
  0
VERTEX
  8
2_FEATURE
 62
7
  6
CONTINUOUS
 10
206.5448087571
 20
200.6506545421
  0
VERTEX
  8
2_FEATURE
 62
7
  6
CONTINUOUS
 10
206.5733646284
 20
200.6196174447
  0
VERTEX
  8
2_FEATURE
 62
7
  6
CONTINUOUS
 10
206.5950237709
 20
200.5727864971
  0
VERTEX
  8
2_FEATURE
 62
7
  6
CONTINUOUS
 10
206.6040224913
 20
200.5102611702
  0
SEQEND
  0
POLYLINE
  8
0
 62
7
  6
CONTINUOUS
 66
1
 70
0
  0
VERTEX
  8
0
 62
7
  6
CONTINUOUS
 10
218.3540224913
 20
202.7405160285
  0
VERTEX
  8
0
 62
7
  6
CONTINUOUS
 10
218.341596523
 20
202.7272759594
  0
VERTEX
  8
0
 62
7
  6
CONTINUOUS
 10
218.3048670432
 20
202.7148499833
  0
VERTEX
  8
0
 62
7
  6
CONTINUOUS
 10
218.2455552248
 20
202.703816686
  0
VERTEX
  8
0
 62
7
  6
CONTINUOUS
 10
218.1665286216
 20
202.6946782708
  0
VERTEX
  8
0
 62
7
  6
CONTINUOUS
 10
218.0716800566
 20
202.6878438071
  0
VERTEX
  8
0
 62
7
  6
CONTINUOUS
 10
217.96573843
 20
202.683616429
  0
VERTEX
  8
0
 62
7
  6
CONTINUOUS
 10
217.8540224913
 20
202.6821849845
  0
SEQEND
  0
POLYLINE
  8
0
 62
7
  6
CONTINUOUS
 66
1
 70
0
  0
VERTEX
  8
0
 62
7
  6
CONTINUOUS
 10
206.6705816623
 20
207.3042446535
  0
VERTEX
  8
0
 62
7
  6
CONTINUOUS
 10
206.5836362297
 20
207.4873628341
  0
VERTEX
  8
0
 62
7
  6
CONTINUOUS
 10
206.4972609297
 20
207.6208665213
  0
VERTEX
  8
0
 62
7
  6
CONTINUOUS
 10
206.4140420376
 20
207.7120805371
  0
VERTEX
  8
0
 62
7
  6
CONTINUOUS
 10
206.3372189859
 20
207.7676246767
  0
VERTEX
  8
0
 62
7
  6
CONTINUOUS
 10
206.2683158696
 20
207.7957645842
  0
VERTEX
  8
0
 62
7
  6
CONTINUOUS
 10
206.2037516472
 20
207.8042445033
  0
VERTEX
  8
0
 62
7
  6
CONTINUOUS
 10
206.1391460174
 20
207.7956097796
  0
VERTEX
  8
0
 62
7
  6
CONTINUOUS
 10
206.0701361537
 20
207.7672412706
  0
VERTEX
  8
0
 62
7
  6
CONTINUOUS
 10
205.9932231646
 20
207.7113804769
  0
VERTEX
  8
0
 62
7
  6
CONTINUOUS
 10
205.9101471316
 20
207.6200344034
  0
VERTEX
  8
0
 62
7
  6
CONTINUOUS
 10
205.8240660305
 20
207.4867446558
  0
VERTEX
  8
0
 62
7
  6
CONTINUOUS
 10
205.7374633204
 20
207.3042446535
  0
SEQEND
  0
LINE
  8
0
 62
7
  6
CONTINUOUS
 10
205.4540224913
 20
207.8042446535
 11
205.4540224913
 21
214.2542446534
  0
LINE
  8
0
 62
7
  6
CONTINUOUS
 10
206.2040224913
 20
203.0473272827
 11
206.2040224913
 21
199.8042446535
  0
LINE
  8
2_FEATURE
 62
7
  6
CONTINUOUS
 10
206.6040224913
 20
200.5102611702
 11
206.6040224913
 21
199.3042446535
  0
LINE
  8
0
 62
7
  6
CONTINUOUS
 10
206.9540224913
 20
207.8042446535
 11
206.9540224913
 21
214.2542446535
  0
POLYLINE
  8
2_FEATURE
 62
7
  6
CONTINUOUS
 66
1
 70
0
  0
VERTEX
  8
2_FEATURE
 62
7
  6
CONTINUOUS
 10
206.2040224913
 20
200.0383909334
  0
VERTEX
  8
2_FEATURE
 62
7
  6
CONTINUOUS
 10
206.2132891069
 20
200.1710928742
  0
VERTEX
  8
2_FEATURE
 62
7
  6
CONTINUOUS
 10
206.2258765817
 20
200.2445406241
  0
VERTEX
  8
2_FEATURE
 62
7
  6
CONTINUOUS
 10
206.2685174555
 20
200.398512423
  0
SEQEND
  0
POLYLINE
  8
0
 62
7
  6
CONTINUOUS
 66
1
 70
0
  0
VERTEX
  8
0
 62
7
  6
CONTINUOUS
 10
211.7374633204
 20
207.3042446535
  0
VERTEX
  8
0
 62
7
  6
CONTINUOUS
 10
211.7644107461
 20
207.3870859168
  0
VERTEX
  8
0
 62
7
  6
CONTINUOUS
 10
211.7738815513
 20
207.4594663501
  0
VERTEX
  8
0
 62
7
  6
CONTINUOUS
 10
211.7677983844
 20
207.5279579995
  0
VERTEX
  8
0
 62
7
  6
CONTINUOUS
 10
211.7447944812
 20
207.5971423501
  0
VERTEX
  8
0
 62
7
  6
CONTINUOUS
 10
211.7258174615
 20
207.632830907
  0
VERTEX
  8
0
 62
7
  6
CONTINUOUS
 10
211.673040851
 20
207.7028038922
  0
VERTEX
  8
0
 62
7
  6
CONTINUOUS
 10
211.6096994081
 20
207.7598865657
  0
VERTEX
  8
0
 62
7
  6
CONTINUOUS
 10
211.5517456768
 20
207.7937486249
  0
VERTEX
  8
0
 62
7
  6
CONTINUOUS
 10
211.5071454667
 20
207.8042446535
  0
SEQEND
  0
POLYLINE
  8
0
 62
7
  6
CONTINUOUS
 66
1
 70
0
  0
VERTEX
  8
0
 62
7
  6
CONTINUOUS
 10
212.6705816623
 20
207.3042446535
  0
VERTEX
  8
0
 62
7
  6
CONTINUOUS
 10
212.5836362297
 20
207.4873628341
  0
VERTEX
  8
0
 62
7
  6
CONTINUOUS
 10
212.4972609297
 20
207.6208665213
  0
VERTEX
  8
0
 62
7
  6
CONTINUOUS
 10
212.4140420376
 20
207.7120805371
  0
VERTEX
  8
0
 62
7
  6
CONTINUOUS
 10
212.3372189859
 20
207.7676246767
  0
VERTEX
  8
0
 62
7
  6
CONTINUOUS
 10
212.2683158696
 20
207.7957645842
  0
VERTEX
  8
0
 62
7
  6
CONTINUOUS
 10
212.2037516472
 20
207.8042445033
  0
VERTEX
  8
0
 62
7
  6
CONTINUOUS
 10
212.1391460174
 20
207.7956097796
  0
VERTEX
  8
0
 62
7
  6
CONTINUOUS
 10
212.0701361537
 20
207.7672412706
  0
VERTEX
  8
0
 62
7
  6
CONTINUOUS
 10
211.9932231646
 20
207.7113804769
  0
VERTEX
  8
0
 62
7
  6
CONTINUOUS
 10
211.9101471316
 20
207.6200344034
  0
VERTEX
  8
0
 62
7
  6
CONTINUOUS
 10
211.8240660305
 20
207.4867446558
  0
VERTEX
  8
0
 62
7
  6
CONTINUOUS
 10
211.7374633204
 20
207.3042446535
  0
SEQEND
  0
LINE
  8
0
 62
7
  6
CONTINUOUS
 10
211.4540224913
 20
207.8042446535
 11
211.4540224913
 21
214.2542446534
  0
LINE
  8
0
 62
7
  6
CONTINUOUS
 10
211.7540224913
 20
199.8042446535
 11
211.7540224913
 21
204.9042446535
  0
LINE
  8
0
 62
7
  6
CONTINUOUS
 10
212.9540224913
 20
207.8042446535
 11
212.9540224913
 21
214.2542446535
  0
LINE
  8
0
 62
7
  6
CONTINUOUS
 10
214.4040224913
 20
207.3042446535
 11
214.4040224913
 21
199.8042446535
  0
LINE
  8
0
 62
7
  6
CONTINUOUS
 10
215.0040224913
 20
207.8042446535
 11
215.0040224913
 21
214.2542446534
  0
LINE
  8
0
 62
7
  6
CONTINUOUS
 10
216.5040224913
 20
207.8042446535
 11
216.5040224913
 21
214.2542446535
  0
LINE
  8
0
 62
7
  6
CONTINUOUS
 10
218.3540224913
 20
207.3042446535
 11
218.3540224913
 21
199.804246048
  0
LINE
  8
0
 62
7
  6
CONTINUOUS
 10
218.5540224913
 20
201.5042446535
 11
218.5540224913
 21
207.3042446535
  0
POLYLINE
  8
0
 62
7
  6
CONTINUOUS
 66
1
 70
0
  0
VERTEX
  8
0
 62
7
  6
CONTINUOUS
 10
214.3853749773
 20
204.9042446535
  0
VERTEX
  8
0
 62
7
  6
CONTINUOUS
 10
214.3957756677
 20
204.9502261925
  0
VERTEX
  8
0
 62
7
  6
CONTINUOUS
 10
214.4019771193
 20
204.9954734231
  0
VERTEX
  8
0
 62
7
  6
CONTINUOUS
 10
214.4040224913
 20
205.0395213488
  0
SEQEND
  0
LINE
  8
0
 62
7
  6
CONTINUOUS
 10
66.1540224913
 20
106.3345791297
 11
66.1540224913
 21
115.4011521222
  0
LINE
  8
0
 62
7
  6
CONTINUOUS
 10
66.3540224913
 20
98.244299308
 11
66.3540224913
 21
105.7345791297
  0
LINE
  8
0
 62
7
  6
CONTINUOUS
 10
66.3540224913
 20
116.0039681983
 11
66.3540224913
 21
116.9226689744
  0
LINE
  8
0
 62
7
  6
CONTINUOUS
 10
68.2040224913
 20
101.5092993088
 11
68.2040224913
 21
116.6294534635
  0
LINE
  8
0
 62
7
  6
CONTINUOUS
 10
69.7040224913
 20
101.5092993081
 11
69.7040224913
 21
116.6294534635
  0
LINE
  8
0
 62
7
  6
CONTINUOUS
 10
70.3040224913
 20
98.244299308
 11
70.3040224913
 21
105.0959296415
  0
POLYLINE
  8
0
 62
7
  6
CONTINUOUS
 66
1
 70
0
  0
VERTEX
  8
0
 62
7
  6
CONTINUOUS
 10
68.2040224913
 20
116.6294534635
  0
VERTEX
  8
0
 62
7
  6
CONTINUOUS
 10
68.2174863969
 20
116.7790781291
  0
VERTEX
  8
0
 62
7
  6
CONTINUOUS
 10
68.2571454667
 20
116.9226689744
  0
SEQEND
  0
LINE
  8
0
 62
7
  6
CONTINUOUS
 10
71.3540224913
 20
117.9226689514
 11
71.3540224913
 21
124.774299308
  0
LINE
  8
0
 62
7
  6
CONTINUOUS
 10
71.7540224913
 20
106.3891451524
 11
71.7540224913
 21
121.5092993079
  0
LINE
  8
0
 62
7
  6
CONTINUOUS
 10
73.2540224913
 20
106.3891451524
 11
73.2540224913
 21
121.509299308
  0
POLYLINE
  8
0
 62
7
  6
CONTINUOUS
 66
1
 70
0
  0
VERTEX
  8
0
 62
7
  6
CONTINUOUS
 10
73.2540224913
 20
106.3891451524
  0
VERTEX
  8
0
 62
7
  6
CONTINUOUS
 10
73.2405585117
 20
106.2395200789
  0
VERTEX
  8
0
 62
7
  6
CONTINUOUS
 10
73.200899516
 20
106.0959296415
  0
SEQEND
  0
POLYLINE
  8
0
 62
7
  6
CONTINUOUS
 66
1
 70
0
  0
VERTEX
  8
0
 62
7
  6
CONTINUOUS
 10
68.2571454667
 20
116.9226689744
  0
VERTEX
  8
0
 62
7
  6
CONTINUOUS
 10
68.3017382898
 20
117.0245651942
  0
VERTEX
  8
0
 62
7
  6
CONTINUOUS
 10
68.3597126903
 20
117.1285799933
  0
VERTEX
  8
0
 62
7
  6
CONTINUOUS
 10
68.4230054346
 20
117.2245296399
  0
VERTEX
  8
0
 62
7
  6
CONTINUOUS
 10
68.4757860071
 20
117.2994935732
  0
VERTEX
  8
0
 62
7
  6
CONTINUOUS
 10
68.494906398
 20
117.3280735998
  0
VERTEX
  8
0
 62
7
  6
CONTINUOUS
 10
68.5178240249
 20
117.3698915206
  0
VERTEX
  8
0
 62
7
  6
CONTINUOUS
 10
68.5238834427
 20
117.3979389975
  0
VERTEX
  8
0
 62
7
  6
CONTINUOUS
 10
68.5144068001
 20
117.4157614217
  0
VERTEX
  8
0
 62
7
  6
CONTINUOUS
 10
68.4874633204
 20
117.4226689744
  0
SEQEND
  0
POLYLINE
  8
0
 62
7
  6
CONTINUOUS
 66
1
 70
0
  0
VERTEX
  8
0
 62
7
  6
CONTINUOUS
 10
71.3540224913
 20
122.2590441794
  0
VERTEX
  8
0
 62
7
  6
CONTINUOUS
 10
71.3623960308
 20
122.2738352085
  0
VERTEX
  8
0
 62
7
  6
CONTINUOUS
 10
71.3873050926
 20
122.2879936165
  0
VERTEX
  8
0
 62
7
  6
CONTINUOUS
 10
71.4280234404
 20
122.3010703901
  0
VERTEX
  8
0
 62
7
  6
CONTINUOUS
 10
71.4832839327
 20
122.3126559213
  0
VERTEX
  8
0
 62
7
  6
CONTINUOUS
 10
71.5158289095
 20
122.3177747668
  0
VERTEX
  8
0
 62
7
  6
CONTINUOUS
 10
71.5894078992
 20
122.3264663959
  0
VERTEX
  8
0
 62
7
  6
CONTINUOUS
 10
71.6722123561
 20
122.3328790907
  0
VERTEX
  8
0
 62
7
  6
CONTINUOUS
 10
71.7614342546
 20
122.3368126694
  0
VERTEX
  8
0
 62
7
  6
CONTINUOUS
 10
71.8540224913
 20
122.338139789
  0
SEQEND
  0
POLYLINE
  8
0
 62
7
  6
CONTINUOUS
 66
1
 70
0
  0
VERTEX
  8
0
 62
7
  6
CONTINUOUS
 10
71.8071454667
 20
106.0959296415
  0
VERTEX
  8
0
 62
7
  6
CONTINUOUS
 10
71.7674863969
 20
106.2395204868
  0
VERTEX
  8
0
 62
7
  6
CONTINUOUS
 10
71.7540224913
 20
106.3891451524
  0
SEQEND
  0
POLYLINE
  8
0
 62
7
  6
CONTINUOUS
 66
1
 70
0
  0
VERTEX
  8
0
 62
7
  6
CONTINUOUS
 10
69.650899516
 20
116.9226689744
  0
VERTEX
  8
0
 62
7
  6
CONTINUOUS
 10
69.6905585117
 20
116.7790785371
  0
VERTEX
  8
0
 62
7
  6
CONTINUOUS
 10
69.7040224913
 20
116.6294534635
  0
SEQEND
  0
LINE
  8
0
 62
7
  6
CONTINUOUS
 10
77.7540224913
 20
106.3891451524
 11
77.7540224913
 21
121.5092993079
  0
LINE
  8
0
 62
7
  6
CONTINUOUS
 10
79.2540224913
 20
106.3891451524
 11
79.2540224913
 21
121.509299308
  0
LINE
  8
0
 62
7
  6
CONTINUOUS
 10
80.1040224913
 20
117.9226689744
 11
80.1040224913
 21
124.774299308
  0
LINE
  8
0
 62
7
  6
CONTINUOUS
 10
80.4540224913
 20
105.0959296415
 11
80.4540224913
 21
98.244299308
  0
POLYLINE
  8
0
 62
7
  6
CONTINUOUS
 66
1
 70
0
  0
VERTEX
  8
0
 62
7
  6
CONTINUOUS
 10
79.2540224913
 20
106.3891451524
  0
VERTEX
  8
0
 62
7
  6
CONTINUOUS
 10
79.2405585117
 20
106.2395200789
  0
VERTEX
  8
0
 62
7
  6
CONTINUOUS
 10
79.200899516
 20
106.0959296415
  0
SEQEND
  0
POLYLINE
  8
0
 62
7
  6
CONTINUOUS
 66
1
 70
0
  0
VERTEX
  8
0
 62
7
  6
CONTINUOUS
 10
81.3040224913
 20
116.6294534635
  0
VERTEX
  8
0
 62
7
  6
CONTINUOUS
 10
81.3174863969
 20
116.7790781291
  0
VERTEX
  8
0
 62
7
  6
CONTINUOUS
 10
81.3571454667
 20
116.9226689744
  0
SEQEND
  0
LINE
  8
0
 62
7
  6
CONTINUOUS
 10
66.2378901239
 20
115.6783413225
 11
66.2701548588
 21
115.726778998
  0
POLYLINE
  8
0
 62
7
  6
CONTINUOUS
 66
1
 70
0
  0
VERTEX
  8
0
 62
7
  6
CONTINUOUS
 10
77.8071454667
 20
106.0959296415
  0
VERTEX
  8
0
 62
7
  6
CONTINUOUS
 10
77.7674863969
 20
106.2395204868
  0
VERTEX
  8
0
 62
7
  6
CONTINUOUS
 10
77.7540224913
 20
106.3891451524
  0
SEQEND
  0
LINE
  8
0
 62
7
  6
CONTINUOUS
 10
81.3040224913
 20
101.5092993088
 11
81.3040224913
 21
116.6294534635
  0
LINE
  8
0
 62
7
  6
CONTINUOUS
 10
82.8040224913
 20
101.5092993081
 11
82.8040224913
 21
116.6294534635
  0
POLYLINE
  8
0
 62
7
  6
CONTINUOUS
 66
1
 70
0
  0
VERTEX
  8
0
 62
7
  6
CONTINUOUS
 10
73.200899516
 20
106.0959296415
  0
VERTEX
  8
0
 62
7
  6
CONTINUOUS
 10
73.1562961971
 20
105.9940123516
  0
VERTEX
  8
0
 62
7
  6
CONTINUOUS
 10
73.0982993223
 20
105.8899649788
  0
VERTEX
  8
0
 62
7
  6
CONTINUOUS
 10
73.0350100748
 20
105.7940267001
  0
VERTEX
  8
0
 62
7
  6
CONTINUOUS
 10
72.9822910997
 20
105.7191515116
  0
VERTEX
  8
0
 62
7
  6
CONTINUOUS
 10
72.963166722
 20
105.69056906
  0
VERTEX
  8
0
 62
7
  6
CONTINUOUS
 10
72.9402297637
 20
105.6487284812
  0
VERTEX
  8
0
 62
7
  6
CONTINUOUS
 10
72.9341608726
 20
105.6206688304
  0
VERTEX
  8
0
 62
7
  6
CONTINUOUS
 10
72.9436340525
 20
105.6028402047
  0
VERTEX
  8
0
 62
7
  6
CONTINUOUS
 10
72.9705816623
 20
105.5959296415
  0
SEQEND
  0
POLYLINE
  8
0
 62
7
  6
CONTINUOUS
 66
1
 70
0
  0
VERTEX
  8
0
 62
7
  6
CONTINUOUS
 10
81.3571454667
 20
116.9226689744
  0
VERTEX
  8
0
 62
7
  6
CONTINUOUS
 10
81.4017382898
 20
117.0245651942
  0
VERTEX
  8
0
 62
7
  6
CONTINUOUS
 10
81.4597126903
 20
117.1285799933
  0
VERTEX
  8
0
 62
7
  6
CONTINUOUS
 10
81.5230054346
 20
117.2245296399
  0
VERTEX
  8
0
 62
7
  6
CONTINUOUS
 10
81.5757860071
 20
117.2994935732
  0
VERTEX
  8
0
 62
7
  6
CONTINUOUS
 10
81.594906398
 20
117.3280735998
  0
VERTEX
  8
0
 62
7
  6
CONTINUOUS
 10
81.6178240249
 20
117.3698915206
  0
VERTEX
  8
0
 62
7
  6
CONTINUOUS
 10
81.6238834427
 20
117.3979389975
  0
VERTEX
  8
0
 62
7
  6
CONTINUOUS
 10
81.6144068001
 20
117.4157614217
  0
VERTEX
  8
0
 62
7
  6
CONTINUOUS
 10
81.5874633204
 20
117.4226689744
  0
SEQEND
  0
POLYLINE
  8
0
 62
7
  6
CONTINUOUS
 66
1
 70
0
  0
VERTEX
  8
0
 62
7
  6
CONTINUOUS
 10
70.3040224913
 20
100.7595544366
  0
VERTEX
  8
0
 62
7
  6
CONTINUOUS
 10
70.2956489519
 20
100.7447634074
  0
VERTEX
  8
0
 62
7
  6
CONTINUOUS
 10
70.2707398901
 20
100.7306049994
  0
VERTEX
  8
0
 62
7
  6
CONTINUOUS
 10
70.2300215423
 20
100.7175282258
  0
VERTEX
  8
0
 62
7
  6
CONTINUOUS
 10
70.17476105
 20
100.7059426946
  0
VERTEX
  8
0
 62
7
  6
CONTINUOUS
 10
70.1422160732
 20
100.7008238491
  0
VERTEX
  8
0
 62
7
  6
CONTINUOUS
 10
70.0686370835
 20
100.69213222
  0
VERTEX
  8
0
 62
7
  6
CONTINUOUS
 10
69.9858326266
 20
100.6857195252
  0
VERTEX
  8
0
 62
7
  6
CONTINUOUS
 10
69.8966107281
 20
100.6817859466
  0
VERTEX
  8
0
 62
7
  6
CONTINUOUS
 10
69.8040224913
 20
100.6804588269
  0
SEQEND
  0
POLYLINE
  8
0
 62
7
  6
CONTINUOUS
 66
1
 70
0
  0
VERTEX
  8
0
 62
7
  6
CONTINUOUS
 10
80.4540224913
 20
100.7595544366
  0
VERTEX
  8
0
 62
7
  6
CONTINUOUS
 10
80.4623960308
 20
100.7447634074
  0
VERTEX
  8
0
 62
7
  6
CONTINUOUS
 10
80.4873050926
 20
100.7306049994
  0
VERTEX
  8
0
 62
7
  6
CONTINUOUS
 10
80.5280234404
 20
100.7175282258
  0
VERTEX
  8
0
 62
7
  6
CONTINUOUS
 10
80.5832839327
 20
100.7059426946
  0
VERTEX
  8
0
 62
7
  6
CONTINUOUS
 10
80.6158289095
 20
100.7008238491
  0
VERTEX
  8
0
 62
7
  6
CONTINUOUS
 10
80.6894078992
 20
100.69213222
  0
VERTEX
  8
0
 62
7
  6
CONTINUOUS
 10
80.7722123561
 20
100.6857195252
  0
VERTEX
  8
0
 62
7
  6
CONTINUOUS
 10
80.8614342546
 20
100.6817859466
  0
VERTEX
  8
0
 62
7
  6
CONTINUOUS
 10
80.9540224913
 20
100.6804588269
  0
SEQEND
  0
LINE
  8
0
 62
7
  6
CONTINUOUS
 10
87.3040224913
 20
101.5092993088
 11
87.3040224913
 21
116.6294534635
  0
LINE
  8
0
 62
7
  6
CONTINUOUS
 10
88.8040224913
 20
101.5092993081
 11
88.8040224913
 21
116.6294534635
  0
LINE
  8
0
 62
7
  6
CONTINUOUS
 10
89.6540224913
 20
105.0959296415
 11
89.6540224913
 21
98.244299308
  0
LINE
  8
0
 62
7
  6
CONTINUOUS
 10
90.0040224913
 20
117.9226689514
 11
90.0040224913
 21
124.774299308
  0
LINE
  8
0
 62
7
  6
CONTINUOUS
 10
90.8540224913
 20
106.3891451524
 11
90.8540224913
 21
121.5092993079
  0
POLYLINE
  8
0
 62
7
  6
CONTINUOUS
 66
1
 70
0
  0
VERTEX
  8
0
 62
7
  6
CONTINUOUS
 10
87.3040224913
 20
116.6294534635
  0
VERTEX
  8
0
 62
7
  6
CONTINUOUS
 10
87.3174863969
 20
116.7790781291
  0
VERTEX
  8
0
 62
7
  6
CONTINUOUS
 10
87.3571454667
 20
116.9226689744
  0
SEQEND
  0
POLYLINE
  8
0
 62
7
  6
CONTINUOUS
 66
1
 70
0
  0
VERTEX
  8
0
 62
7
  6
CONTINUOUS
 10
79.200899516
 20
106.0959296415
  0
VERTEX
  8
0
 62
7
  6
CONTINUOUS
 10
79.1562961972
 20
105.9940123516
  0
VERTEX
  8
0
 62
7
  6
CONTINUOUS
 10
79.0982993223
 20
105.8899649788
  0
VERTEX
  8
0
 62
7
  6
CONTINUOUS
 10
79.0350100748
 20
105.7940267001
  0
VERTEX
  8
0
 62
7
  6
CONTINUOUS
 10
78.9822910997
 20
105.7191515116
  0
VERTEX
  8
0
 62
7
  6
CONTINUOUS
 10
78.963166722
 20
105.69056906
  0
VERTEX
  8
0
 62
7
  6
CONTINUOUS
 10
78.9402297637
 20
105.6487284812
  0
VERTEX
  8
0
 62
7
  6
CONTINUOUS
 10
78.9341608726
 20
105.6206688304
  0
VERTEX
  8
0
 62
7
  6
CONTINUOUS
 10
78.9436340525
 20
105.6028402047
  0
VERTEX
  8
0
 62
7
  6
CONTINUOUS
 10
78.9705816623
 20
105.5959296415
  0
SEQEND
  0
POLYLINE
  8
0
 62
7
  6
CONTINUOUS
 66
1
 70
0
  0
VERTEX
  8
0
 62
7
  6
CONTINUOUS
 10
87.3571454667
 20
116.9226689744
  0
VERTEX
  8
0
 62
7
  6
CONTINUOUS
 10
87.4017382898
 20
117.0245651942
  0
VERTEX
  8
0
 62
7
  6
CONTINUOUS
 10
87.4597126903
 20
117.1285799933
  0
VERTEX
  8
0
 62
7
  6
CONTINUOUS
 10
87.5230054346
 20
117.2245296399
  0
VERTEX
  8
0
 62
7
  6
CONTINUOUS
 10
87.5757860071
 20
117.2994935732
  0
VERTEX
  8
0
 62
7
  6
CONTINUOUS
 10
87.594906398
 20
117.3280735998
  0
VERTEX
  8
0
 62
7
  6
CONTINUOUS
 10
87.6178240249
 20
117.3698915206
  0
VERTEX
  8
0
 62
7
  6
CONTINUOUS
 10
87.6238834427
 20
117.3979389975
  0
VERTEX
  8
0
 62
7
  6
CONTINUOUS
 10
87.6144068001
 20
117.4157614217
  0
VERTEX
  8
0
 62
7
  6
CONTINUOUS
 10
87.5874633204
 20
117.4226689744
  0
SEQEND
  0
POLYLINE
  8
0
 62
7
  6
CONTINUOUS
 66
1
 70
0
  0
VERTEX
  8
0
 62
7
  6
CONTINUOUS
 10
82.750899516
 20
116.9226689744
  0
VERTEX
  8
0
 62
7
  6
CONTINUOUS
 10
82.7905585117
 20
116.7790785371
  0
VERTEX
  8
0
 62
7
  6
CONTINUOUS
 10
82.8040224913
 20
116.6294534635
  0
SEQEND
  0
POLYLINE
  8
0
 62
7
  6
CONTINUOUS
 66
1
 70
0
  0
VERTEX
  8
0
 62
7
  6
CONTINUOUS
 10
90.9071454667
 20
106.0959296415
  0
VERTEX
  8
0
 62
7
  6
CONTINUOUS
 10
90.8674863969
 20
106.2395204868
  0
VERTEX
  8
0
 62
7
  6
CONTINUOUS
 10
90.8540224913
 20
106.3891451524
  0
SEQEND
  0
LINE
  8
0
 62
7
  6
CONTINUOUS
 10
92.3540224913
 20
106.3891451524
 11
92.3540224913
 21
121.509299308
  0
POLYLINE
  8
0
 62
7
  6
CONTINUOUS
 66
1
 70
0
  0
VERTEX
  8
0
 62
7
  6
CONTINUOUS
 10
92.3540224913
 20
106.3891451524
  0
VERTEX
  8
0
 62
7
  6
CONTINUOUS
 10
92.3405585117
 20
106.2395200789
  0
VERTEX
  8
0
 62
7
  6
CONTINUOUS
 10
92.300899516
 20
106.0959296415
  0
SEQEND
  0
POLYLINE
  8
0
 62
7
  6
CONTINUOUS
 66
1
 70
0
  0
VERTEX
  8
0
 62
7
  6
CONTINUOUS
 10
90.0040224913
 20
122.2590441794
  0
VERTEX
  8
0
 62
7
  6
CONTINUOUS
 10
90.0123960308
 20
122.2738352085
  0
VERTEX
  8
0
 62
7
  6
CONTINUOUS
 10
90.0373050926
 20
122.2879936165
  0
VERTEX
  8
0
 62
7
  6
CONTINUOUS
 10
90.0780234404
 20
122.3010703901
  0
VERTEX
  8
0
 62
7
  6
CONTINUOUS
 10
90.1332839327
 20
122.3126559213
  0
VERTEX
  8
0
 62
7
  6
CONTINUOUS
 10
90.1658289095
 20
122.3177747668
  0
VERTEX
  8
0
 62
7
  6
CONTINUOUS
 10
90.2394078992
 20
122.3264663959
  0
VERTEX
  8
0
 62
7
  6
CONTINUOUS
 10
90.3222123561
 20
122.3328790907
  0
VERTEX
  8
0
 62
7
  6
CONTINUOUS
 10
90.4114342546
 20
122.3368126694
  0
VERTEX
  8
0
 62
7
  6
CONTINUOUS
 10
90.5040224913
 20
122.338139789
  0
SEQEND
  0
POLYLINE
  8
0
 62
7
  6
CONTINUOUS
 66
1
 70
0
  0
VERTEX
  8
0
 62
7
  6
CONTINUOUS
 10
80.1040224913
 20
122.2590441794
  0
VERTEX
  8
0
 62
7
  6
CONTINUOUS
 10
80.0956489519
 20
122.2738352085
  0
VERTEX
  8
0
 62
7
  6
CONTINUOUS
 10
80.0707398901
 20
122.2879936165
  0
VERTEX
  8
0
 62
7
  6
CONTINUOUS
 10
80.0300215423
 20
122.3010703901
  0
VERTEX
  8
0
 62
7
  6
CONTINUOUS
 10
79.97476105
 20
122.3126559213
  0
VERTEX
  8
0
 62
7
  6
CONTINUOUS
 10
79.9422160732
 20
122.3177747668
  0
VERTEX
  8
0
 62
7
  6
CONTINUOUS
 10
79.8686370835
 20
122.3264663959
  0
VERTEX
  8
0
 62
7
  6
CONTINUOUS
 10
79.7858326266
 20
122.3328790907
  0
VERTEX
  8
0
 62
7
  6
CONTINUOUS
 10
79.6966107281
 20
122.3368126694
  0
VERTEX
  8
0
 62
7
  6
CONTINUOUS
 10
79.6040224913
 20
122.338139789
  0
SEQEND
  0
POLYLINE
  8
0
 62
7
  6
CONTINUOUS
 66
1
 70
0
  0
VERTEX
  8
0
 62
7
  6
CONTINUOUS
 10
88.750899516
 20
116.9226689744
  0
VERTEX
  8
0
 62
7
  6
CONTINUOUS
 10
88.7905585117
 20
116.7790785371
  0
VERTEX
  8
0
 62
7
  6
CONTINUOUS
 10
88.8040224913
 20
116.6294534635
  0
SEQEND
  0
LINE
  8
0
 62
7
  6
CONTINUOUS
 10
96.8540224913
 20
106.3891451524
 11
96.8540224913
 21
121.5092993079
  0
LINE
  8
0
 62
7
  6
CONTINUOUS
 10
98.3540224913
 20
106.3891451524
 11
98.3540224913
 21
121.509299308
  0
LINE
  8
0
 62
7
  6
CONTINUOUS
 10
99.2040224913
 20
117.9226689744
 11
99.2040224913
 21
124.774299308
  0
LINE
  8
0
 62
7
  6
CONTINUOUS
 10
99.5540224913
 20
105.0959296415
 11
99.5540224913
 21
98.244299308
  0
LINE
  8
0
 62
7
  6
CONTINUOUS
 10
100.4040224913
 20
101.5092993088
 11
100.4040224913
 21
116.6294534635
  0
POLYLINE
  8
0
 62
7
  6
CONTINUOUS
 66
1
 70
0
  0
VERTEX
  8
0
 62
7
  6
CONTINUOUS
 10
98.3540224913
 20
106.3891451524
  0
VERTEX
  8
0
 62
7
  6
CONTINUOUS
 10
98.3405585117
 20
106.2395200789
  0
VERTEX
  8
0
 62
7
  6
CONTINUOUS
 10
98.300899516
 20
106.0959296415
  0
SEQEND
  0
POLYLINE
  8
0
 62
7
  6
CONTINUOUS
 66
1
 70
0
  0
VERTEX
  8
0
 62
7
  6
CONTINUOUS
 10
100.4040224913
 20
116.6294534635
  0
VERTEX
  8
0
 62
7
  6
CONTINUOUS
 10
100.4174863969
 20
116.7790781291
  0
VERTEX
  8
0
 62
7
  6
CONTINUOUS
 10
100.4571454667
 20
116.9226689744
  0
SEQEND
  0
POLYLINE
  8
0
 62
7
  6
CONTINUOUS
 66
1
 70
0
  0
VERTEX
  8
0
 62
7
  6
CONTINUOUS
 10
92.300899516
 20
106.0959296415
  0
VERTEX
  8
0
 62
7
  6
CONTINUOUS
 10
92.2562961971
 20
105.9940123516
  0
VERTEX
  8
0
 62
7
  6
CONTINUOUS
 10
92.1982993223
 20
105.8899649788
  0
VERTEX
  8
0
 62
7
  6
CONTINUOUS
 10
92.1350100748
 20
105.7940267001
  0
VERTEX
  8
0
 62
7
  6
CONTINUOUS
 10
92.0822910997
 20
105.7191515116
  0
VERTEX
  8
0
 62
7
  6
CONTINUOUS
 10
92.063166722
 20
105.69056906
  0
VERTEX
  8
0
 62
7
  6
CONTINUOUS
 10
92.0402297637
 20
105.6487284812
  0
VERTEX
  8
0
 62
7
  6
CONTINUOUS
 10
92.0341608726
 20
105.6206688304
  0
VERTEX
  8
0
 62
7
  6
CONTINUOUS
 10
92.0436340525
 20
105.6028402047
  0
VERTEX
  8
0
 62
7
  6
CONTINUOUS
 10
92.0705816623
 20
105.5959296415
  0
SEQEND
  0
POLYLINE
  8
0
 62
7
  6
CONTINUOUS
 66
1
 70
0
  0
VERTEX
  8
0
 62
7
  6
CONTINUOUS
 10
99.5540224913
 20
100.7595544366
  0
VERTEX
  8
0
 62
7
  6
CONTINUOUS
 10
99.5623960308
 20
100.7447634074
  0
VERTEX
  8
0
 62
7
  6
CONTINUOUS
 10
99.5873050926
 20
100.7306049994
  0
VERTEX
  8
0
 62
7
  6
CONTINUOUS
 10
99.6280234404
 20
100.7175282258
  0
VERTEX
  8
0
 62
7
  6
CONTINUOUS
 10
99.6832839327
 20
100.7059426946
  0
VERTEX
  8
0
 62
7
  6
CONTINUOUS
 10
99.7158289095
 20
100.7008238491
  0
VERTEX
  8
0
 62
7
  6
CONTINUOUS
 10
99.7894078992
 20
100.69213222
  0
VERTEX
  8
0
 62
7
  6
CONTINUOUS
 10
99.8722123561
 20
100.6857195252
  0
VERTEX
  8
0
 62
7
  6
CONTINUOUS
 10
99.9614342546
 20
100.6817859466
  0
VERTEX
  8
0
 62
7
  6
CONTINUOUS
 10
100.0540224913
 20
100.6804588269
  0
SEQEND
  0
POLYLINE
  8
0
 62
7
  6
CONTINUOUS
 66
1
 70
0
  0
VERTEX
  8
0
 62
7
  6
CONTINUOUS
 10
96.9071454667
 20
106.0959296415
  0
VERTEX
  8
0
 62
7
  6
CONTINUOUS
 10
96.8674863969
 20
106.2395204868
  0
VERTEX
  8
0
 62
7
  6
CONTINUOUS
 10
96.8540224913
 20
106.3891451524
  0
SEQEND
  0
LINE
  8
0
 62
7
  6
CONTINUOUS
 10
101.9040224913
 20
101.5092993081
 11
101.9040224913
 21
116.6294534635
  0
LINE
  8
0
 62
7
  6
CONTINUOUS
 10
106.4040224913
 20
101.5092993088
 11
106.4040224913
 21
116.6294534635
  0
POLYLINE
  8
0
 62
7
  6
CONTINUOUS
 66
1
 70
0
  0
VERTEX
  8
0
 62
7
  6
CONTINUOUS
 10
106.4040224913
 20
116.6294534635
  0
VERTEX
  8
0
 62
7
  6
CONTINUOUS
 10
106.4174863969
 20
116.7790781291
  0
VERTEX
  8
0
 62
7
  6
CONTINUOUS
 10
106.4571454667
 20
116.9226689744
  0
SEQEND
  0
POLYLINE
  8
0
 62
7
  6
CONTINUOUS
 66
1
 70
0
  0
VERTEX
  8
0
 62
7
  6
CONTINUOUS
 10
100.4571454667
 20
116.9226689744
  0
VERTEX
  8
0
 62
7
  6
CONTINUOUS
 10
100.5017382898
 20
117.0245651942
  0
VERTEX
  8
0
 62
7
  6
CONTINUOUS
 10
100.5597126903
 20
117.1285799933
  0
VERTEX
  8
0
 62
7
  6
CONTINUOUS
 10
100.6230054346
 20
117.2245296399
  0
VERTEX
  8
0
 62
7
  6
CONTINUOUS
 10
100.6757860071
 20
117.2994935732
  0
VERTEX
  8
0
 62
7
  6
CONTINUOUS
 10
100.694906398
 20
117.3280735998
  0
VERTEX
  8
0
 62
7
  6
CONTINUOUS
 10
100.7178240249
 20
117.3698915206
  0
VERTEX
  8
0
 62
7
  6
CONTINUOUS
 10
100.7238834427
 20
117.3979389975
  0
VERTEX
  8
0
 62
7
  6
CONTINUOUS
 10
100.7144068001
 20
117.4157614217
  0
VERTEX
  8
0
 62
7
  6
CONTINUOUS
 10
100.6874633204
 20
117.4226689744
  0
SEQEND
  0
POLYLINE
  8
0
 62
7
  6
CONTINUOUS
 66
1
 70
0
  0
VERTEX
  8
0
 62
7
  6
CONTINUOUS
 10
98.300899516
 20
106.0959296415
  0
VERTEX
  8
0
 62
7
  6
CONTINUOUS
 10
98.2562961972
 20
105.9940123516
  0
VERTEX
  8
0
 62
7
  6
CONTINUOUS
 10
98.1982993223
 20
105.8899649788
  0
VERTEX
  8
0
 62
7
  6
CONTINUOUS
 10
98.1350100748
 20
105.7940267001
  0
VERTEX
  8
0
 62
7
  6
CONTINUOUS
 10
98.0822910997
 20
105.7191515116
  0
VERTEX
  8
0
 62
7
  6
CONTINUOUS
 10
98.063166722
 20
105.69056906
  0
VERTEX
  8
0
 62
7
  6
CONTINUOUS
 10
98.0402297637
 20
105.6487284812
  0
VERTEX
  8
0
 62
7
  6
CONTINUOUS
 10
98.0341608726
 20
105.6206688304
  0
VERTEX
  8
0
 62
7
  6
CONTINUOUS
 10
98.0436340525
 20
105.6028402047
  0
VERTEX
  8
0
 62
7
  6
CONTINUOUS
 10
98.0705816623
 20
105.5959296415
  0
SEQEND
  0
POLYLINE
  8
0
 62
7
  6
CONTINUOUS
 66
1
 70
0
  0
VERTEX
  8
0
 62
7
  6
CONTINUOUS
 10
89.6540224913
 20
100.7595544366
  0
VERTEX
  8
0
 62
7
  6
CONTINUOUS
 10
89.6456489519
 20
100.7447634074
  0
VERTEX
  8
0
 62
7
  6
CONTINUOUS
 10
89.6207398901
 20
100.7306049994
  0
VERTEX
  8
0
 62
7
  6
CONTINUOUS
 10
89.5800215423
 20
100.7175282258
  0
VERTEX
  8
0
 62
7
  6
CONTINUOUS
 10
89.52476105
 20
100.7059426946
  0
VERTEX
  8
0
 62
7
  6
CONTINUOUS
 10
89.4922160732
 20
100.7008238491
  0
VERTEX
  8
0
 62
7
  6
CONTINUOUS
 10
89.4186370835
 20
100.69213222
  0
VERTEX
  8
0
 62
7
  6
CONTINUOUS
 10
89.3358326266
 20
100.6857195252
  0
VERTEX
  8
0
 62
7
  6
CONTINUOUS
 10
89.2466107281
 20
100.6817859466
  0
VERTEX
  8
0
 62
7
  6
CONTINUOUS
 10
89.1540224913
 20
100.6804588269
  0
SEQEND
  0
POLYLINE
  8
0
 62
7
  6
CONTINUOUS
 66
1
 70
0
  0
VERTEX
  8
0
 62
7
  6
CONTINUOUS
 10
101.850899516
 20
116.9226689744
  0
VERTEX
  8
0
 62
7
  6
CONTINUOUS
 10
101.8905585117
 20
116.7790785371
  0
VERTEX
  8
0
 62
7
  6
CONTINUOUS
 10
101.9040224913
 20
116.6294534635
  0
SEQEND
  0
LINE
  8
0
 62
7
  6
CONTINUOUS
 10
107.9040224913
 20
101.5092993081
 11
107.9040224913
 21
116.6294534635
  0
LINE
  8
0
 62
7
  6
CONTINUOUS
 10
108.7540224913
 20
105.0959296415
 11
108.7540224913
 21
98.244299308
  0
LINE
  8
0
 62
7
  6
CONTINUOUS
 10
109.1040224913
 20
117.9226689514
 11
109.1040224913
 21
124.774299308
  0
LINE
  8
0
 62
7
  6
CONTINUOUS
 10
109.9540224913
 20
106.3891451524
 11
109.9540224913
 21
121.5092993079
  0
LINE
  8
0
 62
7
  6
CONTINUOUS
 10
111.4540224913
 20
106.3891451524
 11
111.4540224913
 21
121.509299308
  0
POLYLINE
  8
0
 62
7
  6
CONTINUOUS
 66
1
 70
0
  0
VERTEX
  8
0
 62
7
  6
CONTINUOUS
 10
111.4540224913
 20
106.3891451524
  0
VERTEX
  8
0
 62
7
  6
CONTINUOUS
 10
111.4405585117
 20
106.2395200789
  0
VERTEX
  8
0
 62
7
  6
CONTINUOUS
 10
111.400899516
 20
106.0959296415
  0
SEQEND
  0
POLYLINE
  8
0
 62
7
  6
CONTINUOUS
 66
1
 70
0
  0
VERTEX
  8
0
 62
7
  6
CONTINUOUS
 10
106.4571454667
 20
116.9226689744
  0
VERTEX
  8
0
 62
7
  6
CONTINUOUS
 10
106.5017382898
 20
117.0245651942
  0
VERTEX
  8
0
 62
7
  6
CONTINUOUS
 10
106.5597126903
 20
117.1285799933
  0
VERTEX
  8
0
 62
7
  6
CONTINUOUS
 10
106.6230054346
 20
117.2245296399
  0
VERTEX
  8
0
 62
7
  6
CONTINUOUS
 10
106.6757860071
 20
117.2994935732
  0
VERTEX
  8
0
 62
7
  6
CONTINUOUS
 10
106.694906398
 20
117.3280735998
  0
VERTEX
  8
0
 62
7
  6
CONTINUOUS
 10
106.7178240249
 20
117.3698915206
  0
VERTEX
  8
0
 62
7
  6
CONTINUOUS
 10
106.7238834427
 20
117.3979389975
  0
VERTEX
  8
0
 62
7
  6
CONTINUOUS
 10
106.7144068001
 20
117.4157614217
  0
VERTEX
  8
0
 62
7
  6
CONTINUOUS
 10
106.6874633204
 20
117.4226689744
  0
SEQEND
  0
POLYLINE
  8
0
 62
7
  6
CONTINUOUS
 66
1
 70
0
  0
VERTEX
  8
0
 62
7
  6
CONTINUOUS
 10
109.1040224913
 20
122.2590441794
  0
VERTEX
  8
0
 62
7
  6
CONTINUOUS
 10
109.1123960308
 20
122.2738352085
  0
VERTEX
  8
0
 62
7
  6
CONTINUOUS
 10
109.1373050926
 20
122.2879936165
  0
VERTEX
  8
0
 62
7
  6
CONTINUOUS
 10
109.1780234404
 20
122.3010703901
  0
VERTEX
  8
0
 62
7
  6
CONTINUOUS
 10
109.2332839327
 20
122.3126559213
  0
VERTEX
  8
0
 62
7
  6
CONTINUOUS
 10
109.2658289095
 20
122.3177747668
  0
VERTEX
  8
0
 62
7
  6
CONTINUOUS
 10
109.3394078992
 20
122.3264663959
  0
VERTEX
  8
0
 62
7
  6
CONTINUOUS
 10
109.4222123561
 20
122.3328790907
  0
VERTEX
  8
0
 62
7
  6
CONTINUOUS
 10
109.5114342546
 20
122.3368126694
  0
VERTEX
  8
0
 62
7
  6
CONTINUOUS
 10
109.6040224913
 20
122.338139789
  0
SEQEND
  0
POLYLINE
  8
0
 62
7
  6
CONTINUOUS
 66
1
 70
0
  0
VERTEX
  8
0
 62
7
  6
CONTINUOUS
 10
99.2040224913
 20
122.2590441794
  0
VERTEX
  8
0
 62
7
  6
CONTINUOUS
 10
99.1956489519
 20
122.2738352085
  0
VERTEX
  8
0
 62
7
  6
CONTINUOUS
 10
99.1707398901
 20
122.2879936165
  0
VERTEX
  8
0
 62
7
  6
CONTINUOUS
 10
99.1300215423
 20
122.3010703901
  0
VERTEX
  8
0
 62
7
  6
CONTINUOUS
 10
99.07476105
 20
122.3126559213
  0
VERTEX
  8
0
 62
7
  6
CONTINUOUS
 10
99.0422160732
 20
122.3177747668
  0
VERTEX
  8
0
 62
7
  6
CONTINUOUS
 10
98.9686370835
 20
122.3264663959
  0
VERTEX
  8
0
 62
7
  6
CONTINUOUS
 10
98.8858326266
 20
122.3328790907
  0
VERTEX
  8
0
 62
7
  6
CONTINUOUS
 10
98.7966107281
 20
122.3368126694
  0
VERTEX
  8
0
 62
7
  6
CONTINUOUS
 10
98.7040224913
 20
122.338139789
  0
SEQEND
  0
POLYLINE
  8
0
 62
7
  6
CONTINUOUS
 66
1
 70
0
  0
VERTEX
  8
0
 62
7
  6
CONTINUOUS
 10
110.0071454667
 20
106.0959296415
  0
VERTEX
  8
0
 62
7
  6
CONTINUOUS
 10
109.9674863969
 20
106.2395204868
  0
VERTEX
  8
0
 62
7
  6
CONTINUOUS
 10
109.9540224913
 20
106.3891451524
  0
SEQEND
  0
POLYLINE
  8
0
 62
7
  6
CONTINUOUS
 66
1
 70
0
  0
VERTEX
  8
0
 62
7
  6
CONTINUOUS
 10
107.850899516
 20
116.9226689744
  0
VERTEX
  8
0
 62
7
  6
CONTINUOUS
 10
107.8905585117
 20
116.7790785371
  0
VERTEX
  8
0
 62
7
  6
CONTINUOUS
 10
107.9040224913
 20
116.6294534635
  0
SEQEND
  0
LINE
  8
0
 62
7
  6
CONTINUOUS
 10
115.9540224913
 20
106.3891451524
 11
115.9540224913
 21
121.5092993079
  0
POLYLINE
  8
0
 62
7
  6
CONTINUOUS
 66
1
 70
0
  0
VERTEX
  8
0
 62
7
  6
CONTINUOUS
 10
111.400899516
 20
106.0959296415
  0
VERTEX
  8
0
 62
7
  6
CONTINUOUS
 10
111.3562961972
 20
105.9940123516
  0
VERTEX
  8
0
 62
7
  6
CONTINUOUS
 10
111.2982993223
 20
105.8899649788
  0
VERTEX
  8
0
 62
7
  6
CONTINUOUS
 10
111.2350100748
 20
105.7940267001
  0
VERTEX
  8
0
 62
7
  6
CONTINUOUS
 10
111.1822910997
 20
105.7191515116
  0
VERTEX
  8
0
 62
7
  6
CONTINUOUS
 10
111.163166722
 20
105.69056906
  0
VERTEX
  8
0
 62
7
  6
CONTINUOUS
 10
111.1402297637
 20
105.6487284812
  0
VERTEX
  8
0
 62
7
  6
CONTINUOUS
 10
111.1341608726
 20
105.6206688304
  0
VERTEX
  8
0
 62
7
  6
CONTINUOUS
 10
111.1436340525
 20
105.6028402047
  0
VERTEX
  8
0
 62
7
  6
CONTINUOUS
 10
111.1705816623
 20
105.5959296415
  0
SEQEND
  0
POLYLINE
  8
0
 62
7
  6
CONTINUOUS
 66
1
 70
0
  0
VERTEX
  8
0
 62
7
  6
CONTINUOUS
 10
118.6540224913
 20
100.7595544366
  0
VERTEX
  8
0
 62
7
  6
CONTINUOUS
 10
118.6623960308
 20
100.7447634074
  0
VERTEX
  8
0
 62
7
  6
CONTINUOUS
 10
118.6873050926
 20
100.7306049994
  0
VERTEX
  8
0
 62
7
  6
CONTINUOUS
 10
118.7280234404
 20
100.7175282258
  0
VERTEX
  8
0
 62
7
  6
CONTINUOUS
 10
118.7832839327
 20
100.7059426946
  0
VERTEX
  8
0
 62
7
  6
CONTINUOUS
 10
118.8158289095
 20
100.7008238491
  0
VERTEX
  8
0
 62
7
  6
CONTINUOUS
 10
118.8894078992
 20
100.69213222
  0
VERTEX
  8
0
 62
7
  6
CONTINUOUS
 10
118.9722123561
 20
100.6857195252
  0
VERTEX
  8
0
 62
7
  6
CONTINUOUS
 10
119.0614342546
 20
100.6817859466
  0
VERTEX
  8
0
 62
7
  6
CONTINUOUS
 10
119.1540224913
 20
100.6804588269
  0
SEQEND
  0
POLYLINE
  8
0
 62
7
  6
CONTINUOUS
 66
1
 70
0
  0
VERTEX
  8
0
 62
7
  6
CONTINUOUS
 10
116.0071454667
 20
106.0959296415
  0
VERTEX
  8
0
 62
7
  6
CONTINUOUS
 10
115.9674863969
 20
106.2395204868
  0
VERTEX
  8
0
 62
7
  6
CONTINUOUS
 10
115.9540224913
 20
106.3891451524
  0
SEQEND
  0
LINE
  8
0
 62
7
  6
CONTINUOUS
 10
117.4540224913
 20
106.3891451524
 11
117.4540224913
 21
121.509299308
  0
LINE
  8
0
 62
7
  6
CONTINUOUS
 10
118.3040224913
 20
117.9226689744
 11
118.3040224913
 21
124.774299308
  0
LINE
  8
0
 62
7
  6
CONTINUOUS
 10
118.6540224913
 20
105.0959296415
 11
118.6540224913
 21
98.244299308
  0
LINE
  8
0
 62
7
  6
CONTINUOUS
 10
119.5040224913
 20
101.5092993088
 11
119.5040224913
 21
116.6294534635
  0
LINE
  8
0
 62
7
  6
CONTINUOUS
 10
121.0040224913
 20
101.5092993081
 11
121.0040224913
 21
116.6294534635
  0
POLYLINE
  8
0
 62
7
  6
CONTINUOUS
 66
1
 70
0
  0
VERTEX
  8
0
 62
7
  6
CONTINUOUS
 10
117.4540224913
 20
106.3891451524
  0
VERTEX
  8
0
 62
7
  6
CONTINUOUS
 10
117.4405585117
 20
106.2395200789
  0
VERTEX
  8
0
 62
7
  6
CONTINUOUS
 10
117.400899516
 20
106.0959296415
  0
SEQEND
  0
POLYLINE
  8
0
 62
7
  6
CONTINUOUS
 66
1
 70
0
  0
VERTEX
  8
0
 62
7
  6
CONTINUOUS
 10
119.5040224913
 20
116.6294534635
  0
VERTEX
  8
0
 62
7
  6
CONTINUOUS
 10
119.5174863969
 20
116.7790781291
  0
VERTEX
  8
0
 62
7
  6
CONTINUOUS
 10
119.5571454667
 20
116.9226689744
  0
SEQEND
  0
POLYLINE
  8
0
 62
7
  6
CONTINUOUS
 66
1
 70
0
  0
VERTEX
  8
0
 62
7
  6
CONTINUOUS
 10
119.5571454667
 20
116.9226689744
  0
VERTEX
  8
0
 62
7
  6
CONTINUOUS
 10
119.6017382898
 20
117.0245651942
  0
VERTEX
  8
0
 62
7
  6
CONTINUOUS
 10
119.6597126903
 20
117.1285799933
  0
VERTEX
  8
0
 62
7
  6
CONTINUOUS
 10
119.7230054346
 20
117.2245296399
  0
VERTEX
  8
0
 62
7
  6
CONTINUOUS
 10
119.7757860071
 20
117.2994935732
  0
VERTEX
  8
0
 62
7
  6
CONTINUOUS
 10
119.794906398
 20
117.3280735998
  0
VERTEX
  8
0
 62
7
  6
CONTINUOUS
 10
119.8178240249
 20
117.3698915206
  0
VERTEX
  8
0
 62
7
  6
CONTINUOUS
 10
119.8238834427
 20
117.3979389975
  0
VERTEX
  8
0
 62
7
  6
CONTINUOUS
 10
119.8144068001
 20
117.4157614217
  0
VERTEX
  8
0
 62
7
  6
CONTINUOUS
 10
119.7874633204
 20
117.4226689744
  0
SEQEND
  0
POLYLINE
  8
0
 62
7
  6
CONTINUOUS
 66
1
 70
0
  0
VERTEX
  8
0
 62
7
  6
CONTINUOUS
 10
117.400899516
 20
106.0959296415
  0
VERTEX
  8
0
 62
7
  6
CONTINUOUS
 10
117.3562961972
 20
105.9940123516
  0
VERTEX
  8
0
 62
7
  6
CONTINUOUS
 10
117.2982993223
 20
105.8899649788
  0
VERTEX
  8
0
 62
7
  6
CONTINUOUS
 10
117.2350100748
 20
105.7940267001
  0
VERTEX
  8
0
 62
7
  6
CONTINUOUS
 10
117.1822910997
 20
105.7191515116
  0
VERTEX
  8
0
 62
7
  6
CONTINUOUS
 10
117.163166722
 20
105.69056906
  0
VERTEX
  8
0
 62
7
  6
CONTINUOUS
 10
117.1402297637
 20
105.6487284812
  0
VERTEX
  8
0
 62
7
  6
CONTINUOUS
 10
117.1341608726
 20
105.6206688304
  0
VERTEX
  8
0
 62
7
  6
CONTINUOUS
 10
117.1436340525
 20
105.6028402047
  0
VERTEX
  8
0
 62
7
  6
CONTINUOUS
 10
117.1705816623
 20
105.5959296415
  0
SEQEND
  0
POLYLINE
  8
0
 62
7
  6
CONTINUOUS
 66
1
 70
0
  0
VERTEX
  8
0
 62
7
  6
CONTINUOUS
 10
108.7540224913
 20
100.7595544366
  0
VERTEX
  8
0
 62
7
  6
CONTINUOUS
 10
108.7456489519
 20
100.7447634074
  0
VERTEX
  8
0
 62
7
  6
CONTINUOUS
 10
108.7207398901
 20
100.7306049994
  0
VERTEX
  8
0
 62
7
  6
CONTINUOUS
 10
108.6800215423
 20
100.7175282258
  0
VERTEX
  8
0
 62
7
  6
CONTINUOUS
 10
108.62476105
 20
100.7059426946
  0
VERTEX
  8
0
 62
7
  6
CONTINUOUS
 10
108.5922160732
 20
100.7008238491
  0
VERTEX
  8
0
 62
7
  6
CONTINUOUS
 10
108.5186370835
 20
100.69213222
  0
VERTEX
  8
0
 62
7
  6
CONTINUOUS
 10
108.4358326266
 20
100.6857195252
  0
VERTEX
  8
0
 62
7
  6
CONTINUOUS
 10
108.3466107281
 20
100.6817859466
  0
VERTEX
  8
0
 62
7
  6
CONTINUOUS
 10
108.2540224913
 20
100.6804588269
  0
SEQEND
  0
POLYLINE
  8
0
 62
7
  6
CONTINUOUS
 66
1
 70
0
  0
VERTEX
  8
0
 62
7
  6
CONTINUOUS
 10
211.7374633204
 20
105.5959296415
  0
VERTEX
  8
0
 62
7
  6
CONTINUOUS
 10
211.7644107461
 20
105.6028400705
  0
VERTEX
  8
0
 62
7
  6
CONTINUOUS
 10
211.7738815513
 20
105.6206337075
  0
VERTEX
  8
0
 62
7
  6
CONTINUOUS
 10
211.7677983844
 20
105.648769336
  0
VERTEX
  8
0
 62
7
  6
CONTINUOUS
 10
211.7447944812
 20
105.6907001519
  0
VERTEX
  8
0
 62
7
  6
CONTINUOUS
 10
211.7258174615
 20
105.7190595392
  0
VERTEX
  8
0
 62
7
  6
CONTINUOUS
 10
211.673040851
 20
105.7940181757
  0
VERTEX
  8
0
 62
7
  6
CONTINUOUS
 10
211.6096994081
 20
105.8900402347
  0
VERTEX
  8
0
 62
7
  6
CONTINUOUS
 10
211.5517456768
 20
105.9940185922
  0
VERTEX
  8
0
 62
7
  6
CONTINUOUS
 10
211.5071454667
 20
106.0959296415
  0
SEQEND
  0
POLYLINE
  8
0
 62
7
  6
CONTINUOUS
 66
1
 70
0
  0
VERTEX
  8
0
 62
7
  6
CONTINUOUS
 10
205.7374633204
 20
105.5959296415
  0
VERTEX
  8
0
 62
7
  6
CONTINUOUS
 10
205.7644068562
 20
105.6028372351
  0
VERTEX
  8
0
 62
7
  6
CONTINUOUS
 10
205.7738834602
 20
105.6206598599
  0
VERTEX
  8
0
 62
7
  6
CONTINUOUS
 10
205.7678236788
 20
105.648707936
  0
VERTEX
  8
0
 62
7
  6
CONTINUOUS
 10
205.7449059783
 20
105.6905256731
  0
VERTEX
  8
0
 62
7
  6
CONTINUOUS
 10
205.7257855349
 20
105.7191057257
  0
VERTEX
  8
0
 62
7
  6
CONTINUOUS
 10
205.6730053669
 20
105.7940690732
  0
VERTEX
  8
0
 62
7
  6
CONTINUOUS
 10
205.6097130302
 20
105.8900180696
  0
VERTEX
  8
0
 62
7
  6
CONTINUOUS
 10
205.5517383132
 20
105.9940333748
  0
VERTEX
  8
0
 62
7
  6
CONTINUOUS
 10
205.5071454667
 20
106.0959296415
  0
SEQEND
  0
LINE
  8
0
 62
7
  6
CONTINUOUS
 10
125.5040224913
 20
101.5092993088
 11
125.5040224913
 21
116.6294534635
  0
LINE
  8
0
 62
7
  6
CONTINUOUS
 10
127.0040224913
 20
101.5092993081
 11
127.0040224913
 21
116.6294534635
  0
POLYLINE
  8
0
 62
7
  6
CONTINUOUS
 66
1
 70
0
  0
VERTEX
  8
0
 62
7
  6
CONTINUOUS
 10
125.5040224913
 20
116.6294534635
  0
VERTEX
  8
0
 62
7
  6
CONTINUOUS
 10
125.5174863969
 20
116.7790781291
  0
VERTEX
  8
0
 62
7
  6
CONTINUOUS
 10
125.5571454667
 20
116.9226689744
  0
SEQEND
  0
POLYLINE
  8
0
 62
7
  6
CONTINUOUS
 66
1
 70
0
  0
VERTEX
  8
0
 62
7
  6
CONTINUOUS
 10
125.5571454667
 20
116.9226689744
  0
VERTEX
  8
0
 62
7
  6
CONTINUOUS
 10
125.6017382898
 20
117.0245651942
  0
VERTEX
  8
0
 62
7
  6
CONTINUOUS
 10
125.6597126903
 20
117.1285799933
  0
VERTEX
  8
0
 62
7
  6
CONTINUOUS
 10
125.7230054346
 20
117.2245296399
  0
VERTEX
  8
0
 62
7
  6
CONTINUOUS
 10
125.7757860071
 20
117.2994935732
  0
VERTEX
  8
0
 62
7
  6
CONTINUOUS
 10
125.794906398
 20
117.3280735998
  0
VERTEX
  8
0
 62
7
  6
CONTINUOUS
 10
125.8178240249
 20
117.3698915206
  0
VERTEX
  8
0
 62
7
  6
CONTINUOUS
 10
125.8238834427
 20
117.3979389975
  0
VERTEX
  8
0
 62
7
  6
CONTINUOUS
 10
125.8144068001
 20
117.4157614217
  0
VERTEX
  8
0
 62
7
  6
CONTINUOUS
 10
125.7874633204
 20
117.4226689744
  0
SEQEND
  0
POLYLINE
  8
0
 62
7
  6
CONTINUOUS
 66
1
 70
0
  0
VERTEX
  8
0
 62
7
  6
CONTINUOUS
 10
128.2040224913
 20
122.2590441794
  0
VERTEX
  8
0
 62
7
  6
CONTINUOUS
 10
128.2123960308
 20
122.2738352085
  0
VERTEX
  8
0
 62
7
  6
CONTINUOUS
 10
128.2373050926
 20
122.2879936165
  0
VERTEX
  8
0
 62
7
  6
CONTINUOUS
 10
128.2780234404
 20
122.3010703901
  0
VERTEX
  8
0
 62
7
  6
CONTINUOUS
 10
128.3332839327
 20
122.3126559213
  0
VERTEX
  8
0
 62
7
  6
CONTINUOUS
 10
128.3658289095
 20
122.3177747668
  0
VERTEX
  8
0
 62
7
  6
CONTINUOUS
 10
128.4394078992
 20
122.3264663959
  0
VERTEX
  8
0
 62
7
  6
CONTINUOUS
 10
128.5222123561
 20
122.3328790907
  0
VERTEX
  8
0
 62
7
  6
CONTINUOUS
 10
128.6114342546
 20
122.3368126694
  0
VERTEX
  8
0
 62
7
  6
CONTINUOUS
 10
128.7040224913
 20
122.338139789
  0
SEQEND
  0
POLYLINE
  8
0
 62
7
  6
CONTINUOUS
 66
1
 70
0
  0
VERTEX
  8
0
 62
7
  6
CONTINUOUS
 10
192.6374633204
 20
105.5959296415
  0
VERTEX
  8
0
 62
7
  6
CONTINUOUS
 10
192.6644107461
 20
105.6028400705
  0
VERTEX
  8
0
 62
7
  6
CONTINUOUS
 10
192.6738815513
 20
105.6206337075
  0
VERTEX
  8
0
 62
7
  6
CONTINUOUS
 10
192.6677983844
 20
105.648769336
  0
VERTEX
  8
0
 62
7
  6
CONTINUOUS
 10
192.6447944812
 20
105.6907001519
  0
VERTEX
  8
0
 62
7
  6
CONTINUOUS
 10
192.6258174615
 20
105.7190595392
  0
VERTEX
  8
0
 62
7
  6
CONTINUOUS
 10
192.573040851
 20
105.7940181757
  0
VERTEX
  8
0
 62
7
  6
CONTINUOUS
 10
192.5096994081
 20
105.8900402347
  0
VERTEX
  8
0
 62
7
  6
CONTINUOUS
 10
192.4517456768
 20
105.9940185922
  0
VERTEX
  8
0
 62
7
  6
CONTINUOUS
 10
192.4071454667
 20
106.0959296415
  0
SEQEND
  0
POLYLINE
  8
0
 62
7
  6
CONTINUOUS
 66
1
 70
0
  0
VERTEX
  8
0
 62
7
  6
CONTINUOUS
 10
186.6374633204
 20
105.5959296415
  0
VERTEX
  8
0
 62
7
  6
CONTINUOUS
 10
186.6644068562
 20
105.6028372351
  0
VERTEX
  8
0
 62
7
  6
CONTINUOUS
 10
186.6738834602
 20
105.6206598599
  0
VERTEX
  8
0
 62
7
  6
CONTINUOUS
 10
186.6678236788
 20
105.648707936
  0
VERTEX
  8
0
 62
7
  6
CONTINUOUS
 10
186.6449059783
 20
105.6905256731
  0
VERTEX
  8
0
 62
7
  6
CONTINUOUS
 10
186.6257855349
 20
105.7191057257
  0
VERTEX
  8
0
 62
7
  6
CONTINUOUS
 10
186.5730053669
 20
105.7940690732
  0
VERTEX
  8
0
 62
7
  6
CONTINUOUS
 10
186.5097130302
 20
105.8900180696
  0
VERTEX
  8
0
 62
7
  6
CONTINUOUS
 10
186.4517383132
 20
105.9940333748
  0
VERTEX
  8
0
 62
7
  6
CONTINUOUS
 10
186.4071454667
 20
106.0959296415
  0
SEQEND
  0
POLYLINE
  8
0
 62
7
  6
CONTINUOUS
 66
1
 70
0
  0
VERTEX
  8
0
 62
7
  6
CONTINUOUS
 10
118.3040224913
 20
122.2590441794
  0
VERTEX
  8
0
 62
7
  6
CONTINUOUS
 10
118.2956489519
 20
122.2738352085
  0
VERTEX
  8
0
 62
7
  6
CONTINUOUS
 10
118.2707398901
 20
122.2879936165
  0
VERTEX
  8
0
 62
7
  6
CONTINUOUS
 10
118.2300215423
 20
122.3010703901
  0
VERTEX
  8
0
 62
7
  6
CONTINUOUS
 10
118.17476105
 20
122.3126559213
  0
VERTEX
  8
0
 62
7
  6
CONTINUOUS
 10
118.1422160732
 20
122.3177747668
  0
VERTEX
  8
0
 62
7
  6
CONTINUOUS
 10
118.0686370835
 20
122.3264663959
  0
VERTEX
  8
0
 62
7
  6
CONTINUOUS
 10
117.9858326266
 20
122.3328790907
  0
VERTEX
  8
0
 62
7
  6
CONTINUOUS
 10
117.8966107281
 20
122.3368126694
  0
VERTEX
  8
0
 62
7
  6
CONTINUOUS
 10
117.8040224913
 20
122.338139789
  0
SEQEND
  0
POLYLINE
  8
0
 62
7
  6
CONTINUOUS
 66
1
 70
0
  0
VERTEX
  8
0
 62
7
  6
CONTINUOUS
 10
120.950899516
 20
116.9226689744
  0
VERTEX
  8
0
 62
7
  6
CONTINUOUS
 10
120.9905585117
 20
116.7790785371
  0
VERTEX
  8
0
 62
7
  6
CONTINUOUS
 10
121.0040224913
 20
116.6294534635
  0
SEQEND
  0
LINE
  8
0
 62
7
  6
CONTINUOUS
 10
127.8540224913
 20
105.0959296415
 11
127.8540224913
 21
98.244299308
  0
LINE
  8
0
 62
7
  6
CONTINUOUS
 10
128.2040224913
 20
117.9226689514
 11
128.2040224913
 21
124.774299308
  0
LINE
  8
0
 62
7
  6
CONTINUOUS
 10
129.0540224913
 20
106.3891451524
 11
129.0540224913
 21
121.5092993079
  0
LINE
  8
0
 62
7
  6
CONTINUOUS
 10
130.5540224913
 20
106.3891451524
 11
130.5540224913
 21
121.509299308
  0
POLYLINE
  8
0
 62
7
  6
CONTINUOUS
 66
1
 70
0
  0
VERTEX
  8
0
 62
7
  6
CONTINUOUS
 10
130.5540224913
 20
106.3891451524
  0
VERTEX
  8
0
 62
7
  6
CONTINUOUS
 10
130.5405585117
 20
106.2395200789
  0
VERTEX
  8
0
 62
7
  6
CONTINUOUS
 10
130.500899516
 20
106.0959296415
  0
SEQEND
  0
POLYLINE
  8
0
 62
7
  6
CONTINUOUS
 66
1
 70
0
  0
VERTEX
  8
0
 62
7
  6
CONTINUOUS
 10
173.5374633204
 20
105.5959296415
  0
VERTEX
  8
0
 62
7
  6
CONTINUOUS
 10
173.5644107461
 20
105.6028400705
  0
VERTEX
  8
0
 62
7
  6
CONTINUOUS
 10
173.5738815513
 20
105.6206337075
  0
VERTEX
  8
0
 62
7
  6
CONTINUOUS
 10
173.5677983844
 20
105.648769336
  0
VERTEX
  8
0
 62
7
  6
CONTINUOUS
 10
173.5447944811
 20
105.6907001519
  0
VERTEX
  8
0
 62
7
  6
CONTINUOUS
 10
173.5258174615
 20
105.7190595392
  0
VERTEX
  8
0
 62
7
  6
CONTINUOUS
 10
173.473040851
 20
105.7940181757
  0
VERTEX
  8
0
 62
7
  6
CONTINUOUS
 10
173.4096994081
 20
105.8900402347
  0
VERTEX
  8
0
 62
7
  6
CONTINUOUS
 10
173.3517456768
 20
105.9940185922
  0
VERTEX
  8
0
 62
7
  6
CONTINUOUS
 10
173.3071454667
 20
106.0959296415
  0
SEQEND
  0
POLYLINE
  8
0
 62
7
  6
CONTINUOUS
 66
1
 70
0
  0
VERTEX
  8
0
 62
7
  6
CONTINUOUS
 10
216.2205816623
 20
117.4226689744
  0
VERTEX
  8
0
 62
7
  6
CONTINUOUS
 10
216.1936305452
 20
117.4157558537
  0
VERTEX
  8
0
 62
7
  6
CONTINUOUS
 10
216.1841629063
 20
117.3979577442
  0
VERTEX
  8
0
 62
7
  6
CONTINUOUS
 10
216.190254498
 20
117.3698101221
  0
VERTEX
  8
0
 62
7
  6
CONTINUOUS
 10
216.2132735813
 20
117.3278623636
  0
VERTEX
  8
0
 62
7
  6
CONTINUOUS
 10
216.2322525374
 20
117.2995028867
  0
VERTEX
  8
0
 62
7
  6
CONTINUOUS
 10
216.2849787419
 20
117.2246168576
  0
VERTEX
  8
0
 62
7
  6
CONTINUOUS
 10
216.3483160543
 20
117.128606414
  0
VERTEX
  8
0
 62
7
  6
CONTINUOUS
 10
216.4062900383
 20
117.0245986277
  0
VERTEX
  8
0
 62
7
  6
CONTINUOUS
 10
216.450899516
 20
116.9226689744
  0
SEQEND
  0
POLYLINE
  8
0
 62
7
  6
CONTINUOUS
 66
1
 70
0
  0
VERTEX
  8
0
 62
7
  6
CONTINUOUS
 10
167.5374633204
 20
105.5959296415
  0
VERTEX
  8
0
 62
7
  6
CONTINUOUS
 10
167.5644068562
 20
105.6028372351
  0
VERTEX
  8
0
 62
7
  6
CONTINUOUS
 10
167.5738834602
 20
105.6206598599
  0
VERTEX
  8
0
 62
7
  6
CONTINUOUS
 10
167.5678236788
 20
105.648707936
  0
VERTEX
  8
0
 62
7
  6
CONTINUOUS
 10
167.5449059783
 20
105.6905256731
  0
VERTEX
  8
0
 62
7
  6
CONTINUOUS
 10
167.5257855349
 20
105.7191057257
  0
VERTEX
  8
0
 62
7
  6
CONTINUOUS
 10
167.4730053669
 20
105.7940690732
  0
VERTEX
  8
0
 62
7
  6
CONTINUOUS
 10
167.4097130302
 20
105.8900180696
  0
VERTEX
  8
0
 62
7
  6
CONTINUOUS
 10
167.3517383132
 20
105.9940333748
  0
VERTEX
  8
0
 62
7
  6
CONTINUOUS
 10
167.3071454667
 20
106.0959296415
  0
SEQEND
  0
POLYLINE
  8
0
 62
7
  6
CONTINUOUS
 66
1
 70
0
  0
VERTEX
  8
0
 62
7
  6
CONTINUOUS
 10
217.8540224913
 20
100.6804588269
  0
VERTEX
  8
0
 62
7
  6
CONTINUOUS
 10
217.9466107281
 20
100.6817859466
  0
VERTEX
  8
0
 62
7
  6
CONTINUOUS
 10
218.0358326266
 20
100.6857195252
  0
VERTEX
  8
0
 62
7
  6
CONTINUOUS
 10
218.1186370835
 20
100.69213222
  0
VERTEX
  8
0
 62
7
  6
CONTINUOUS
 10
218.1922160732
 20
100.7008238491
  0
VERTEX
  8
0
 62
7
  6
CONTINUOUS
 10
218.22476105
 20
100.7059426946
  0
VERTEX
  8
0
 62
7
  6
CONTINUOUS
 10
218.2800215423
 20
100.7175282258
  0
VERTEX
  8
0
 62
7
  6
CONTINUOUS
 10
218.3207398901
 20
100.7306049994
  0
VERTEX
  8
0
 62
7
  6
CONTINUOUS
 10
218.3456489519
 20
100.7447634074
  0
VERTEX
  8
0
 62
7
  6
CONTINUOUS
 10
218.3540224913
 20
100.7595544366
  0
SEQEND
  0
LINE
  8
0
 62
7
  6
CONTINUOUS
 10
66.8540224913
 20
97.744299308
 11
69.8040224913
 21
97.744299308
  0
LINE
  8
0
 62
7
  6
CONTINUOUS
 10
80.9540224913
 20
97.744299308
 11
89.1540224913
 21
97.744299308
  0
LINE
  8
0
 62
7
  6
CONTINUOUS
 10
100.0540224913
 20
97.744299308
 11
108.2540224913
 21
97.744299308
  0
LINE
  8
0
 62
7
  6
CONTINUOUS
 10
119.1540224913
 20
97.744299308
 11
127.3540224913
 21
97.744299308
  0
LINE
  8
0
 62
7
  6
CONTINUOUS
 10
138.2540224913
 20
97.744299308
 11
146.4540224913
 21
97.744299308
  0
LINE
  8
0
 62
7
  6
CONTINUOUS
 10
157.3540224913
 20
97.744299308
 11
165.5540224913
 21
97.744299308
  0
LINE
  8
0
 62
7
  6
CONTINUOUS
 10
176.4540224913
 20
97.744299308
 11
184.6540224913
 21
97.744299308
  0
LINE
  8
0
 62
7
  6
CONTINUOUS
 10
195.5540224913
 20
97.744299308
 11
203.7540224913
 21
97.744299308
  0
LINE
  8
0
 62
7
  6
CONTINUOUS
 10
214.9040224913
 20
97.744299308
 11
217.8540224913
 21
97.744299308
  0
LINE
  8
0
 62
7
  6
CONTINUOUS
 10
66.8540224913
 20
100.6804588269
 11
69.8040224913
 21
100.6804588269
  0
LINE
  8
0
 62
7
  6
CONTINUOUS
 10
80.9540224913
 20
100.6804588269
 11
89.1540224913
 21
100.6804588269
  0
LINE
  8
0
 62
7
  6
CONTINUOUS
 10
100.0540224913
 20
100.6804588269
 11
108.2540224913
 21
100.6804588269
  0
LINE
  8
0
 62
7
  6
CONTINUOUS
 10
119.1540224913
 20
100.6804588269
 11
127.3540224913
 21
100.6804588269
  0
LINE
  8
0
 62
7
  6
CONTINUOUS
 10
138.2540224913
 20
100.6804588269
 11
146.4540224913
 21
100.6804588269
  0
LINE
  8
0
 62
7
  6
CONTINUOUS
 10
157.3540224913
 20
100.6804588269
 11
165.5540224913
 21
100.6804588269
  0
LINE
  8
0
 62
7
  6
CONTINUOUS
 10
176.4540224913
 20
100.6804588269
 11
184.6540224913
 21
100.6804588269
  0
LINE
  8
0
 62
7
  6
CONTINUOUS
 10
195.5540224913
 20
100.6804588269
 11
203.7540224913
 21
100.6804588269
  0
LINE
  8
0
 62
7
  6
CONTINUOUS
 10
214.9040224913
 20
100.6804588269
 11
217.8540224913
 21
100.6804588269
  0
POLYLINE
  8
0
 62
7
  6
CONTINUOUS
 66
1
 70
0
  0
VERTEX
  8
0
 62
7
  6
CONTINUOUS
 10
66.8540224913
 20
100.6804588269
  0
VERTEX
  8
0
 62
7
  6
CONTINUOUS
 10
66.7614342546
 20
100.6817859466
  0
VERTEX
  8
0
 62
7
  6
CONTINUOUS
 10
66.6722123561
 20
100.6857195252
  0
VERTEX
  8
0
 62
7
  6
CONTINUOUS
 10
66.5894078992
 20
100.69213222
  0
VERTEX
  8
0
 62
7
  6
CONTINUOUS
 10
66.5158289095
 20
100.7008238491
  0
VERTEX
  8
0
 62
7
  6
CONTINUOUS
 10
66.4832839327
 20
100.7059426946
  0
VERTEX
  8
0
 62
7
  6
CONTINUOUS
 10
66.4280234404
 20
100.7175282258
  0
VERTEX
  8
0
 62
7
  6
CONTINUOUS
 10
66.3873050926
 20
100.7306049994
  0
VERTEX
  8
0
 62
7
  6
CONTINUOUS
 10
66.3623960308
 20
100.7447634074
  0
VERTEX
  8
0
 62
7
  6
CONTINUOUS
 10
66.3540224913
 20
100.7595544366
  0
SEQEND
  0
POLYLINE
  8
0
 62
7
  6
CONTINUOUS
 66
1
 70
0
  0
VERTEX
  8
0
 62
7
  6
CONTINUOUS
 10
129.1071454667
 20
106.0959296415
  0
VERTEX
  8
0
 62
7
  6
CONTINUOUS
 10
129.0674863969
 20
106.2395204868
  0
VERTEX
  8
0
 62
7
  6
CONTINUOUS
 10
129.0540224913
 20
106.3891451524
  0
SEQEND
  0
POLYLINE
  8
0
 62
7
  6
CONTINUOUS
 66
1
 70
0
  0
VERTEX
  8
0
 62
7
  6
CONTINUOUS
 10
126.950899516
 20
116.9226689744
  0
VERTEX
  8
0
 62
7
  6
CONTINUOUS
 10
126.9905585117
 20
116.7790785371
  0
VERTEX
  8
0
 62
7
  6
CONTINUOUS
 10
127.0040224913
 20
116.6294534635
  0
SEQEND
  0
LINE
  8
0
 62
7
  6
CONTINUOUS
 10
135.0540224913
 20
106.3891451524
 11
135.0540224913
 21
121.5092993079
  0
LINE
  8
0
 62
7
  6
CONTINUOUS
 10
136.5540224913
 20
106.3891451524
 11
136.5540224913
 21
121.509299308
  0
LINE
  8
0
 62
7
  6
CONTINUOUS
 10
137.4040224913
 20
117.9226689744
 11
137.4040224913
 21
124.774299308
  0
LINE
  8
0
 62
7
  6
CONTINUOUS
 10
137.7540224913
 20
105.0959296415
 11
137.7540224913
 21
98.244299308
  0
POLYLINE
  8
0
 62
7
  6
CONTINUOUS
 66
1
 70
0
  0
VERTEX
  8
0
 62
7
  6
CONTINUOUS
 10
136.5540224913
 20
106.3891451524
  0
VERTEX
  8
0
 62
7
  6
CONTINUOUS
 10
136.5405585117
 20
106.2395200789
  0
VERTEX
  8
0
 62
7
  6
CONTINUOUS
 10
136.500899516
 20
106.0959296415
  0
SEQEND
  0
POLYLINE
  8
0
 62
7
  6
CONTINUOUS
 66
1
 70
0
  0
VERTEX
  8
0
 62
7
  6
CONTINUOUS
 10
130.500899516
 20
106.0959296415
  0
VERTEX
  8
0
 62
7
  6
CONTINUOUS
 10
130.4562961972
 20
105.9940123516
  0
VERTEX
  8
0
 62
7
  6
CONTINUOUS
 10
130.3982993223
 20
105.8899649788
  0
VERTEX
  8
0
 62
7
  6
CONTINUOUS
 10
130.3350100748
 20
105.7940267001
  0
VERTEX
  8
0
 62
7
  6
CONTINUOUS
 10
130.2822910997
 20
105.7191515116
  0
VERTEX
  8
0
 62
7
  6
CONTINUOUS
 10
130.263166722
 20
105.69056906
  0
VERTEX
  8
0
 62
7
  6
CONTINUOUS
 10
130.2402297637
 20
105.6487284812
  0
VERTEX
  8
0
 62
7
  6
CONTINUOUS
 10
130.2341608726
 20
105.6206688304
  0
VERTEX
  8
0
 62
7
  6
CONTINUOUS
 10
130.2436340525
 20
105.6028402047
  0
VERTEX
  8
0
 62
7
  6
CONTINUOUS
 10
130.2705816623
 20
105.5959296415
  0
SEQEND
  0
POLYLINE
  8
0
 62
7
  6
CONTINUOUS
 66
1
 70
0
  0
VERTEX
  8
0
 62
7
  6
CONTINUOUS
 10
138.6571454667
 20
116.9226689744
  0
VERTEX
  8
0
 62
7
  6
CONTINUOUS
 10
138.7017382898
 20
117.0245651942
  0
VERTEX
  8
0
 62
7
  6
CONTINUOUS
 10
138.7597126903
 20
117.1285799933
  0
VERTEX
  8
0
 62
7
  6
CONTINUOUS
 10
138.8230054346
 20
117.2245296399
  0
VERTEX
  8
0
 62
7
  6
CONTINUOUS
 10
138.8757860071
 20
117.2994935732
  0
VERTEX
  8
0
 62
7
  6
CONTINUOUS
 10
138.894906398
 20
117.3280735998
  0
VERTEX
  8
0
 62
7
  6
CONTINUOUS
 10
138.9178240249
 20
117.3698915206
  0
VERTEX
  8
0
 62
7
  6
CONTINUOUS
 10
138.9238834427
 20
117.3979389975
  0
VERTEX
  8
0
 62
7
  6
CONTINUOUS
 10
138.9144068001
 20
117.4157614217
  0
VERTEX
  8
0
 62
7
  6
CONTINUOUS
 10
138.8874633204
 20
117.4226689744
  0
SEQEND
  0
POLYLINE
  8
0
 62
7
  6
CONTINUOUS
 66
1
 70
0
  0
VERTEX
  8
0
 62
7
  6
CONTINUOUS
 10
127.8540224913
 20
100.7595544366
  0
VERTEX
  8
0
 62
7
  6
CONTINUOUS
 10
127.8456489519
 20
100.7447634074
  0
VERTEX
  8
0
 62
7
  6
CONTINUOUS
 10
127.8207398901
 20
100.7306049994
  0
VERTEX
  8
0
 62
7
  6
CONTINUOUS
 10
127.7800215423
 20
100.7175282258
  0
VERTEX
  8
0
 62
7
  6
CONTINUOUS
 10
127.72476105
 20
100.7059426946
  0
VERTEX
  8
0
 62
7
  6
CONTINUOUS
 10
127.6922160732
 20
100.7008238491
  0
VERTEX
  8
0
 62
7
  6
CONTINUOUS
 10
127.6186370835
 20
100.69213222
  0
VERTEX
  8
0
 62
7
  6
CONTINUOUS
 10
127.5358326266
 20
100.6857195252
  0
VERTEX
  8
0
 62
7
  6
CONTINUOUS
 10
127.4466107281
 20
100.6817859466
  0
VERTEX
  8
0
 62
7
  6
CONTINUOUS
 10
127.3540224913
 20
100.6804588269
  0
SEQEND
  0
POLYLINE
  8
0
 62
7
  6
CONTINUOUS
 66
1
 70
0
  0
VERTEX
  8
0
 62
7
  6
CONTINUOUS
 10
203.1205816623
 20
117.4226689744
  0
VERTEX
  8
0
 62
7
  6
CONTINUOUS
 10
203.093634111
 20
117.4157584539
  0
VERTEX
  8
0
 62
7
  6
CONTINUOUS
 10
203.0841608904
 20
117.397930032
  0
VERTEX
  8
0
 62
7
  6
CONTINUOUS
 10
203.0902294131
 20
117.369870986
  0
VERTEX
  8
0
 62
7
  6
CONTINUOUS
 10
203.1131662884
 20
117.3280302346
  0
VERTEX
  8
0
 62
7
  6
CONTINUOUS
 10
203.1322906101
 20
117.2994478124
  0
VERTEX
  8
0
 62
7
  6
CONTINUOUS
 10
203.1850100068
 20
117.2245720134
  0
VERTEX
  8
0
 62
7
  6
CONTINUOUS
 10
203.2482996799
 20
117.1286330552
  0
VERTEX
  8
0
 62
7
  6
CONTINUOUS
 10
203.3062962251
 20
117.0245862082
  0
VERTEX
  8
0
 62
7
  6
CONTINUOUS
 10
203.350899516
 20
116.9226689744
  0
SEQEND
  0
POLYLINE
  8
0
 62
7
  6
CONTINUOUS
 66
1
 70
0
  0
VERTEX
  8
0
 62
7
  6
CONTINUOUS
 10
154.4374633204
 20
105.5959296415
  0
VERTEX
  8
0
 62
7
  6
CONTINUOUS
 10
154.4644107461
 20
105.6028400705
  0
VERTEX
  8
0
 62
7
  6
CONTINUOUS
 10
154.4738815513
 20
105.6206337075
  0
VERTEX
  8
0
 62
7
  6
CONTINUOUS
 10
154.4677983844
 20
105.648769336
  0
VERTEX
  8
0
 62
7
  6
CONTINUOUS
 10
154.4447944811
 20
105.6907001519
  0
VERTEX
  8
0
 62
7
  6
CONTINUOUS
 10
154.4258174615
 20
105.7190595392
  0
VERTEX
  8
0
 62
7
  6
CONTINUOUS
 10
154.373040851
 20
105.7940181757
  0
VERTEX
  8
0
 62
7
  6
CONTINUOUS
 10
154.3096994081
 20
105.8900402347
  0
VERTEX
  8
0
 62
7
  6
CONTINUOUS
 10
154.2517456768
 20
105.9940185922
  0
VERTEX
  8
0
 62
7
  6
CONTINUOUS
 10
154.2071454667
 20
106.0959296415
  0
SEQEND
  0
POLYLINE
  8
0
 62
7
  6
CONTINUOUS
 66
1
 70
0
  0
VERTEX
  8
0
 62
7
  6
CONTINUOUS
 10
197.1205816623
 20
117.4226689744
  0
VERTEX
  8
0
 62
7
  6
CONTINUOUS
 10
197.0936305452
 20
117.4157558537
  0
VERTEX
  8
0
 62
7
  6
CONTINUOUS
 10
197.0841629063
 20
117.3979577442
  0
VERTEX
  8
0
 62
7
  6
CONTINUOUS
 10
197.090254498
 20
117.3698101221
  0
VERTEX
  8
0
 62
7
  6
CONTINUOUS
 10
197.1132735813
 20
117.3278623636
  0
VERTEX
  8
0
 62
7
  6
CONTINUOUS
 10
197.1322525374
 20
117.2995028867
  0
VERTEX
  8
0
 62
7
  6
CONTINUOUS
 10
197.1849787419
 20
117.2246168576
  0
VERTEX
  8
0
 62
7
  6
CONTINUOUS
 10
197.2483160543
 20
117.128606414
  0
VERTEX
  8
0
 62
7
  6
CONTINUOUS
 10
197.3062900383
 20
117.0245986277
  0
VERTEX
  8
0
 62
7
  6
CONTINUOUS
 10
197.350899516
 20
116.9226689744
  0
SEQEND
  0
POLYLINE
  8
0
 62
7
  6
CONTINUOUS
 66
1
 70
0
  0
VERTEX
  8
0
 62
7
  6
CONTINUOUS
 10
148.4374633204
 20
105.5959296415
  0
VERTEX
  8
0
 62
7
  6
CONTINUOUS
 10
148.4644068562
 20
105.6028372351
  0
VERTEX
  8
0
 62
7
  6
CONTINUOUS
 10
148.4738834602
 20
105.6206598599
  0
VERTEX
  8
0
 62
7
  6
CONTINUOUS
 10
148.4678236788
 20
105.648707936
  0
VERTEX
  8
0
 62
7
  6
CONTINUOUS
 10
148.4449059783
 20
105.6905256731
  0
VERTEX
  8
0
 62
7
  6
CONTINUOUS
 10
148.4257855349
 20
105.7191057257
  0
VERTEX
  8
0
 62
7
  6
CONTINUOUS
 10
148.3730053669
 20
105.7940690732
  0
VERTEX
  8
0
 62
7
  6
CONTINUOUS
 10
148.3097130302
 20
105.8900180696
  0
VERTEX
  8
0
 62
7
  6
CONTINUOUS
 10
148.2517383132
 20
105.9940333748
  0
VERTEX
  8
0
 62
7
  6
CONTINUOUS
 10
148.2071454667
 20
106.0959296415
  0
SEQEND
  0
POLYLINE
  8
0
 62
7
  6
CONTINUOUS
 66
1
 70
0
  0
VERTEX
  8
0
 62
7
  6
CONTINUOUS
 10
184.0205816623
 20
117.4226689744
  0
VERTEX
  8
0
 62
7
  6
CONTINUOUS
 10
183.993634111
 20
117.4157584539
  0
VERTEX
  8
0
 62
7
  6
CONTINUOUS
 10
183.9841608904
 20
117.397930032
  0
VERTEX
  8
0
 62
7
  6
CONTINUOUS
 10
183.9902294131
 20
117.369870986
  0
VERTEX
  8
0
 62
7
  6
CONTINUOUS
 10
184.0131662884
 20
117.3280302346
  0
VERTEX
  8
0
 62
7
  6
CONTINUOUS
 10
184.0322906101
 20
117.2994478124
  0
VERTEX
  8
0
 62
7
  6
CONTINUOUS
 10
184.0850100068
 20
117.2245720134
  0
VERTEX
  8
0
 62
7
  6
CONTINUOUS
 10
184.1482996799
 20
117.1286330552
  0
VERTEX
  8
0
 62
7
  6
CONTINUOUS
 10
184.2062962251
 20
117.0245862082
  0
VERTEX
  8
0
 62
7
  6
CONTINUOUS
 10
184.250899516
 20
116.9226689744
  0
SEQEND
  0
LINE
  8
1_AXIS
 62
2
  6
CENTER
 10
56.9279844291
 20
101.984299308
 11
230.8864619377
 21
101.984299308
  0
LINE
  8
0
 62
7
  6
CONTINUOUS
 10
213.9040224913
 20
105.5959296415
 11
204.7540224913
 21
105.5959296415
  0
LINE
  8
0
 62
7
  6
CONTINUOUS
 10
194.5540224913
 20
105.5959296415
 11
185.6540224913
 21
105.5959296415
  0
LINE
  8
0
 62
7
  6
CONTINUOUS
 10
175.4540224913
 20
105.5959296415
 11
166.5540224913
 21
105.5959296415
  0
LINE
  8
0
 62
7
  6
CONTINUOUS
 10
156.3540224913
 20
105.5959296415
 11
147.4540224913
 21
105.5959296415
  0
LINE
  8
0
 62
7
  6
CONTINUOUS
 10
137.2540224913
 20
105.5959296415
 11
128.3540224913
 21
105.5959296415
  0
LINE
  8
0
 62
7
  6
CONTINUOUS
 10
118.1540224913
 20
105.5959296415
 11
109.2540224913
 21
105.5959296415
  0
LINE
  8
0
 62
7
  6
CONTINUOUS
 10
99.0540224913
 20
105.5959296415
 11
90.1540224913
 21
105.5959296415
  0
LINE
  8
0
 62
7
  6
CONTINUOUS
 10
79.9540224913
 20
105.5959296415
 11
70.8040224913
 21
105.5959296415
  0
POLYLINE
  8
0
 62
7
  6
CONTINUOUS
 66
1
 70
0
  0
VERTEX
  8
0
 62
7
  6
CONTINUOUS
 10
137.7540224913
 20
100.7595544366
  0
VERTEX
  8
0
 62
7
  6
CONTINUOUS
 10
137.7623960308
 20
100.7447634074
  0
VERTEX
  8
0
 62
7
  6
CONTINUOUS
 10
137.7873050926
 20
100.7306049994
  0
VERTEX
  8
0
 62
7
  6
CONTINUOUS
 10
137.8280234404
 20
100.7175282258
  0
VERTEX
  8
0
 62
7
  6
CONTINUOUS
 10
137.8832839327
 20
100.7059426946
  0
VERTEX
  8
0
 62
7
  6
CONTINUOUS
 10
137.9158289095
 20
100.7008238491
  0
VERTEX
  8
0
 62
7
  6
CONTINUOUS
 10
137.9894078992
 20
100.69213222
  0
VERTEX
  8
0
 62
7
  6
CONTINUOUS
 10
138.0722123561
 20
100.6857195252
  0
VERTEX
  8
0
 62
7
  6
CONTINUOUS
 10
138.1614342546
 20
100.6817859466
  0
VERTEX
  8
0
 62
7
  6
CONTINUOUS
 10
138.2540224913
 20
100.6804588269
  0
SEQEND
  0
POLYLINE
  8
0
 62
7
  6
CONTINUOUS
 66
1
 70
0
  0
VERTEX
  8
0
 62
7
  6
CONTINUOUS
 10
135.1071454667
 20
106.0959296415
  0
VERTEX
  8
0
 62
7
  6
CONTINUOUS
 10
135.0674863969
 20
106.2395204868
  0
VERTEX
  8
0
 62
7
  6
CONTINUOUS
 10
135.0540224913
 20
106.3891451524
  0
SEQEND
  0
LINE
  8
0
 62
7
  6
CONTINUOUS
 10
138.6040224913
 20
101.5092993088
 11
138.6040224913
 21
116.6294534635
  0
LINE
  8
0
 62
7
  6
CONTINUOUS
 10
140.1040224913
 20
101.5092993081
 11
140.1040224913
 21
116.6294534635
  0
LINE
  8
1_AXIS
 62
2
  6
CENTER
 10
142.3540224913
 20
129.9358183391
 11
142.3540224913
 21
113.509399308
  0
LINE
  8
1_AXIS
 62
2
  6
CONTINUOUS
 10
142.3540224913
 20
112.559299308
 11
142.3540224913
 21
110.459299308
  0
LINE
  8
1_AXIS
 62
2
  6
CENTER
 10
142.3540224913
 20
92.0573408304
 11
142.3540224913
 21
109.509199308
  0
POLYLINE
  8
0
 62
7
  6
CONTINUOUS
 66
1
 70
0
  0
VERTEX
  8
0
 62
7
  6
CONTINUOUS
 10
138.6040224913
 20
116.6294534635
  0
VERTEX
  8
0
 62
7
  6
CONTINUOUS
 10
138.6174863969
 20
116.7790781291
  0
VERTEX
  8
0
 62
7
  6
CONTINUOUS
 10
138.6571454667
 20
116.9226689744
  0
SEQEND
  0
POLYLINE
  8
0
 62
7
  6
CONTINUOUS
 66
1
 70
0
  0
VERTEX
  8
0
 62
7
  6
CONTINUOUS
 10
136.500899516
 20
106.0959296415
  0
VERTEX
  8
0
 62
7
  6
CONTINUOUS
 10
136.4562961972
 20
105.9940123516
  0
VERTEX
  8
0
 62
7
  6
CONTINUOUS
 10
136.3982993223
 20
105.8899649788
  0
VERTEX
  8
0
 62
7
  6
CONTINUOUS
 10
136.3350100748
 20
105.7940267001
  0
VERTEX
  8
0
 62
7
  6
CONTINUOUS
 10
136.2822910997
 20
105.7191515116
  0
VERTEX
  8
0
 62
7
  6
CONTINUOUS
 10
136.263166722
 20
105.69056906
  0
VERTEX
  8
0
 62
7
  6
CONTINUOUS
 10
136.2402297637
 20
105.6487284812
  0
VERTEX
  8
0
 62
7
  6
CONTINUOUS
 10
136.2341608726
 20
105.6206688304
  0
VERTEX
  8
0
 62
7
  6
CONTINUOUS
 10
136.2436340525
 20
105.6028402047
  0
VERTEX
  8
0
 62
7
  6
CONTINUOUS
 10
136.2705816623
 20
105.5959296415
  0
SEQEND
  0
POLYLINE
  8
0
 62
7
  6
CONTINUOUS
 66
1
 70
0
  0
VERTEX
  8
0
 62
7
  6
CONTINUOUS
 10
144.6571454667
 20
116.9226689744
  0
VERTEX
  8
0
 62
7
  6
CONTINUOUS
 10
144.7017382898
 20
117.0245651942
  0
VERTEX
  8
0
 62
7
  6
CONTINUOUS
 10
144.7597126903
 20
117.1285799933
  0
VERTEX
  8
0
 62
7
  6
CONTINUOUS
 10
144.8230054346
 20
117.2245296399
  0
VERTEX
  8
0
 62
7
  6
CONTINUOUS
 10
144.8757860071
 20
117.2994935732
  0
VERTEX
  8
0
 62
7
  6
CONTINUOUS
 10
144.894906398
 20
117.3280735998
  0
VERTEX
  8
0
 62
7
  6
CONTINUOUS
 10
144.9178240249
 20
117.3698915206
  0
VERTEX
  8
0
 62
7
  6
CONTINUOUS
 10
144.9238834427
 20
117.3979389975
  0
VERTEX
  8
0
 62
7
  6
CONTINUOUS
 10
144.9144068001
 20
117.4157614217
  0
VERTEX
  8
0
 62
7
  6
CONTINUOUS
 10
144.8874633204
 20
117.4226689744
  0
SEQEND
  0
POLYLINE
  8
0
 62
7
  6
CONTINUOUS
 66
1
 70
0
  0
VERTEX
  8
0
 62
7
  6
CONTINUOUS
 10
147.3040224913
 20
122.2590441794
  0
VERTEX
  8
0
 62
7
  6
CONTINUOUS
 10
147.3123960308
 20
122.2738352085
  0
VERTEX
  8
0
 62
7
  6
CONTINUOUS
 10
147.3373050926
 20
122.2879936165
  0
VERTEX
  8
0
 62
7
  6
CONTINUOUS
 10
147.3780234404
 20
122.3010703901
  0
VERTEX
  8
0
 62
7
  6
CONTINUOUS
 10
147.4332839327
 20
122.3126559213
  0
VERTEX
  8
0
 62
7
  6
CONTINUOUS
 10
147.4658289095
 20
122.3177747668
  0
VERTEX
  8
0
 62
7
  6
CONTINUOUS
 10
147.5394078992
 20
122.3264663959
  0
VERTEX
  8
0
 62
7
  6
CONTINUOUS
 10
147.6222123561
 20
122.3328790907
  0
VERTEX
  8
0
 62
7
  6
CONTINUOUS
 10
147.7114342546
 20
122.3368126694
  0
VERTEX
  8
0
 62
7
  6
CONTINUOUS
 10
147.8040224913
 20
122.338139789
  0
SEQEND
  0
POLYLINE
  8
0
 62
7
  6
CONTINUOUS
 66
1
 70
0
  0
VERTEX
  8
0
 62
7
  6
CONTINUOUS
 10
135.3374633204
 20
105.5959296415
  0
VERTEX
  8
0
 62
7
  6
CONTINUOUS
 10
135.3644107461
 20
105.6028400705
  0
VERTEX
  8
0
 62
7
  6
CONTINUOUS
 10
135.3738815513
 20
105.6206337075
  0
VERTEX
  8
0
 62
7
  6
CONTINUOUS
 10
135.3677983844
 20
105.648769336
  0
VERTEX
  8
0
 62
7
  6
CONTINUOUS
 10
135.3447944811
 20
105.6907001519
  0
VERTEX
  8
0
 62
7
  6
CONTINUOUS
 10
135.3258174615
 20
105.7190595392
  0
VERTEX
  8
0
 62
7
  6
CONTINUOUS
 10
135.273040851
 20
105.7940181757
  0
VERTEX
  8
0
 62
7
  6
CONTINUOUS
 10
135.2096994081
 20
105.8900402347
  0
VERTEX
  8
0
 62
7
  6
CONTINUOUS
 10
135.1517456768
 20
105.9940185922
  0
VERTEX
  8
0
 62
7
  6
CONTINUOUS
 10
135.1071454667
 20
106.0959296415
  0
SEQEND
  0
POLYLINE
  8
0
 62
7
  6
CONTINUOUS
 66
1
 70
0
  0
VERTEX
  8
0
 62
7
  6
CONTINUOUS
 10
178.0205816623
 20
117.4226689744
  0
VERTEX
  8
0
 62
7
  6
CONTINUOUS
 10
177.9936305452
 20
117.4157558537
  0
VERTEX
  8
0
 62
7
  6
CONTINUOUS
 10
177.9841629063
 20
117.3979577442
  0
VERTEX
  8
0
 62
7
  6
CONTINUOUS
 10
177.990254498
 20
117.3698101221
  0
VERTEX
  8
0
 62
7
  6
CONTINUOUS
 10
178.0132735813
 20
117.3278623636
  0
VERTEX
  8
0
 62
7
  6
CONTINUOUS
 10
178.0322525374
 20
117.2995028867
  0
VERTEX
  8
0
 62
7
  6
CONTINUOUS
 10
178.0849787419
 20
117.2246168576
  0
VERTEX
  8
0
 62
7
  6
CONTINUOUS
 10
178.1483160543
 20
117.128606414
  0
VERTEX
  8
0
 62
7
  6
CONTINUOUS
 10
178.2062900383
 20
117.0245986277
  0
VERTEX
  8
0
 62
7
  6
CONTINUOUS
 10
178.250899516
 20
116.9226689744
  0
SEQEND
  0
POLYLINE
  8
0
 62
7
  6
CONTINUOUS
 66
1
 70
0
  0
VERTEX
  8
0
 62
7
  6
CONTINUOUS
 10
129.3374633204
 20
105.5959296415
  0
VERTEX
  8
0
 62
7
  6
CONTINUOUS
 10
129.3644068562
 20
105.6028372351
  0
VERTEX
  8
0
 62
7
  6
CONTINUOUS
 10
129.3738834602
 20
105.6206598599
  0
VERTEX
  8
0
 62
7
  6
CONTINUOUS
 10
129.3678236788
 20
105.648707936
  0
VERTEX
  8
0
 62
7
  6
CONTINUOUS
 10
129.3449059783
 20
105.6905256731
  0
VERTEX
  8
0
 62
7
  6
CONTINUOUS
 10
129.3257855349
 20
105.7191057257
  0
VERTEX
  8
0
 62
7
  6
CONTINUOUS
 10
129.2730053669
 20
105.7940690732
  0
VERTEX
  8
0
 62
7
  6
CONTINUOUS
 10
129.2097130302
 20
105.8900180696
  0
VERTEX
  8
0
 62
7
  6
CONTINUOUS
 10
129.1517383132
 20
105.9940333748
  0
VERTEX
  8
0
 62
7
  6
CONTINUOUS
 10
129.1071454667
 20
106.0959296415
  0
SEQEND
  0
POLYLINE
  8
0
 62
7
  6
CONTINUOUS
 66
1
 70
0
  0
VERTEX
  8
0
 62
7
  6
CONTINUOUS
 10
164.9205816623
 20
117.4226689744
  0
VERTEX
  8
0
 62
7
  6
CONTINUOUS
 10
164.893634111
 20
117.4157584539
  0
VERTEX
  8
0
 62
7
  6
CONTINUOUS
 10
164.8841608904
 20
117.397930032
  0
VERTEX
  8
0
 62
7
  6
CONTINUOUS
 10
164.8902294131
 20
117.369870986
  0
VERTEX
  8
0
 62
7
  6
CONTINUOUS
 10
164.9131662884
 20
117.3280302346
  0
VERTEX
  8
0
 62
7
  6
CONTINUOUS
 10
164.9322906101
 20
117.2994478124
  0
VERTEX
  8
0
 62
7
  6
CONTINUOUS
 10
164.9850100068
 20
117.2245720134
  0
VERTEX
  8
0
 62
7
  6
CONTINUOUS
 10
165.0482996799
 20
117.1286330552
  0
VERTEX
  8
0
 62
7
  6
CONTINUOUS
 10
165.1062962251
 20
117.0245862082
  0
VERTEX
  8
0
 62
7
  6
CONTINUOUS
 10
165.150899516
 20
116.9226689744
  0
SEQEND
  0
LINE
  8
1_AXIS
 62
2
  6
CENTER
 10
224.1496910035
 20
111.509299308
 11
144.3541224913
 21
111.509299308
  0
LINE
  8
1_AXIS
 62
2
  6
CONTINUOUS
 10
143.4040224913
 20
111.509299308
 11
141.3040224913
 21
111.509299308
  0
LINE
  8
1_AXIS
 62
2
  6
CENTER
 10
64.0555733564
 20
111.509299308
 11
140.3539224913
 21
111.509299308
  0
POLYLINE
  8
0
 62
7
  6
CONTINUOUS
 66
1
 70
0
  0
VERTEX
  8
0
 62
7
  6
CONTINUOUS
 10
140.050899516
 20
116.9226689744
  0
VERTEX
  8
0
 62
7
  6
CONTINUOUS
 10
140.0905585117
 20
116.7790785371
  0
VERTEX
  8
0
 62
7
  6
CONTINUOUS
 10
140.1040224913
 20
116.6294534635
  0
SEQEND
  0
LINE
  8
0
 62
7
  6
CONTINUOUS
 10
144.6040224913
 20
101.5092993088
 11
144.6040224913
 21
116.6294534635
  0
LINE
  8
0
 62
7
  6
CONTINUOUS
 10
146.1040224913
 20
101.5092993081
 11
146.1040224913
 21
116.6294534635
  0
LINE
  8
0
 62
7
  6
CONTINUOUS
 10
146.9540224913
 20
105.0959296415
 11
146.9540224913
 21
98.244299308
  0
LINE
  8
0
 62
7
  6
CONTINUOUS
 10
147.3040224913
 20
117.9226689514
 11
147.3040224913
 21
124.774299308
  0
LINE
  8
0
 62
7
  6
CONTINUOUS
 10
148.1540224913
 20
106.3891451524
 11
148.1540224913
 21
121.5092993079
  0
POLYLINE
  8
0
 62
7
  6
CONTINUOUS
 66
1
 70
0
  0
VERTEX
  8
0
 62
7
  6
CONTINUOUS
 10
144.6040224913
 20
116.6294534635
  0
VERTEX
  8
0
 62
7
  6
CONTINUOUS
 10
144.6174863969
 20
116.7790781291
  0
VERTEX
  8
0
 62
7
  6
CONTINUOUS
 10
144.6571454667
 20
116.9226689744
  0
SEQEND
  0
POLYLINE
  8
0
 62
7
  6
CONTINUOUS
 66
1
 70
0
  0
VERTEX
  8
0
 62
7
  6
CONTINUOUS
 10
116.2374633204
 20
105.5959296415
  0
VERTEX
  8
0
 62
7
  6
CONTINUOUS
 10
116.2644107461
 20
105.6028400705
  0
VERTEX
  8
0
 62
7
  6
CONTINUOUS
 10
116.2738815513
 20
105.6206337075
  0
VERTEX
  8
0
 62
7
  6
CONTINUOUS
 10
116.2677983844
 20
105.648769336
  0
VERTEX
  8
0
 62
7
  6
CONTINUOUS
 10
116.2447944811
 20
105.6907001519
  0
VERTEX
  8
0
 62
7
  6
CONTINUOUS
 10
116.2258174615
 20
105.7190595392
  0
VERTEX
  8
0
 62
7
  6
CONTINUOUS
 10
116.173040851
 20
105.7940181757
  0
VERTEX
  8
0
 62
7
  6
CONTINUOUS
 10
116.1096994081
 20
105.8900402347
  0
VERTEX
  8
0
 62
7
  6
CONTINUOUS
 10
116.0517456768
 20
105.9940185922
  0
VERTEX
  8
0
 62
7
  6
CONTINUOUS
 10
116.0071454667
 20
106.0959296415
  0
SEQEND
  0
POLYLINE
  8
0
 62
7
  6
CONTINUOUS
 66
1
 70
0
  0
VERTEX
  8
0
 62
7
  6
CONTINUOUS
 10
158.9205816623
 20
117.4226689744
  0
VERTEX
  8
0
 62
7
  6
CONTINUOUS
 10
158.8936305452
 20
117.4157558537
  0
VERTEX
  8
0
 62
7
  6
CONTINUOUS
 10
158.8841629063
 20
117.3979577442
  0
VERTEX
  8
0
 62
7
  6
CONTINUOUS
 10
158.890254498
 20
117.3698101221
  0
VERTEX
  8
0
 62
7
  6
CONTINUOUS
 10
158.9132735813
 20
117.3278623636
  0
VERTEX
  8
0
 62
7
  6
CONTINUOUS
 10
158.9322525374
 20
117.2995028867
  0
VERTEX
  8
0
 62
7
  6
CONTINUOUS
 10
158.9849787419
 20
117.2246168576
  0
VERTEX
  8
0
 62
7
  6
CONTINUOUS
 10
159.0483160543
 20
117.128606414
  0
VERTEX
  8
0
 62
7
  6
CONTINUOUS
 10
159.1062900383
 20
117.0245986277
  0
VERTEX
  8
0
 62
7
  6
CONTINUOUS
 10
159.150899516
 20
116.9226689744
  0
SEQEND
  0
POLYLINE
  8
0
 62
7
  6
CONTINUOUS
 66
1
 70
0
  0
VERTEX
  8
0
 62
7
  6
CONTINUOUS
 10
110.2374633204
 20
105.5959296415
  0
VERTEX
  8
0
 62
7
  6
CONTINUOUS
 10
110.2644068562
 20
105.6028372351
  0
VERTEX
  8
0
 62
7
  6
CONTINUOUS
 10
110.2738834602
 20
105.6206598599
  0
VERTEX
  8
0
 62
7
  6
CONTINUOUS
 10
110.2678236788
 20
105.648707936
  0
VERTEX
  8
0
 62
7
  6
CONTINUOUS
 10
110.2449059783
 20
105.6905256731
  0
VERTEX
  8
0
 62
7
  6
CONTINUOUS
 10
110.2257855349
 20
105.7191057257
  0
VERTEX
  8
0
 62
7
  6
CONTINUOUS
 10
110.1730053669
 20
105.7940690732
  0
VERTEX
  8
0
 62
7
  6
CONTINUOUS
 10
110.1097130302
 20
105.8900180696
  0
VERTEX
  8
0
 62
7
  6
CONTINUOUS
 10
110.0517383132
 20
105.9940333748
  0
VERTEX
  8
0
 62
7
  6
CONTINUOUS
 10
110.0071454667
 20
106.0959296415
  0
SEQEND
  0
POLYLINE
  8
0
 62
7
  6
CONTINUOUS
 66
1
 70
0
  0
VERTEX
  8
0
 62
7
  6
CONTINUOUS
 10
145.8205816623
 20
117.4226689744
  0
VERTEX
  8
0
 62
7
  6
CONTINUOUS
 10
145.793634111
 20
117.4157584539
  0
VERTEX
  8
0
 62
7
  6
CONTINUOUS
 10
145.7841608904
 20
117.397930032
  0
VERTEX
  8
0
 62
7
  6
CONTINUOUS
 10
145.7902294131
 20
117.369870986
  0
VERTEX
  8
0
 62
7
  6
CONTINUOUS
 10
145.8131662884
 20
117.3280302346
  0
VERTEX
  8
0
 62
7
  6
CONTINUOUS
 10
145.8322906101
 20
117.2994478124
  0
VERTEX
  8
0
 62
7
  6
CONTINUOUS
 10
145.8850100068
 20
117.2245720134
  0
VERTEX
  8
0
 62
7
  6
CONTINUOUS
 10
145.9482996799
 20
117.1286330552
  0
VERTEX
  8
0
 62
7
  6
CONTINUOUS
 10
146.0062962251
 20
117.0245862082
  0
VERTEX
  8
0
 62
7
  6
CONTINUOUS
 10
146.050899516
 20
116.9226689744
  0
SEQEND
  0
POLYLINE
  8
0
 62
7
  6
CONTINUOUS
 66
1
 70
0
  0
VERTEX
  8
0
 62
7
  6
CONTINUOUS
 10
97.1374633204
 20
105.5959296415
  0
VERTEX
  8
0
 62
7
  6
CONTINUOUS
 10
97.1644107461
 20
105.6028400705
  0
VERTEX
  8
0
 62
7
  6
CONTINUOUS
 10
97.1738815513
 20
105.6206337075
  0
VERTEX
  8
0
 62
7
  6
CONTINUOUS
 10
97.1677983844
 20
105.648769336
  0
VERTEX
  8
0
 62
7
  6
CONTINUOUS
 10
97.1447944812
 20
105.6907001519
  0
VERTEX
  8
0
 62
7
  6
CONTINUOUS
 10
97.1258174615
 20
105.7190595392
  0
VERTEX
  8
0
 62
7
  6
CONTINUOUS
 10
97.073040851
 20
105.7940181757
  0
VERTEX
  8
0
 62
7
  6
CONTINUOUS
 10
97.0096994081
 20
105.8900402347
  0
VERTEX
  8
0
 62
7
  6
CONTINUOUS
 10
96.9517456768
 20
105.9940185922
  0
VERTEX
  8
0
 62
7
  6
CONTINUOUS
 10
96.9071454667
 20
106.0959296415
  0
SEQEND
  0
POLYLINE
  8
0
 62
7
  6
CONTINUOUS
 66
1
 70
0
  0
VERTEX
  8
0
 62
7
  6
CONTINUOUS
 10
137.4040224913
 20
122.2590441794
  0
VERTEX
  8
0
 62
7
  6
CONTINUOUS
 10
137.3956489519
 20
122.2738352085
  0
VERTEX
  8
0
 62
7
  6
CONTINUOUS
 10
137.3707398901
 20
122.2879936165
  0
VERTEX
  8
0
 62
7
  6
CONTINUOUS
 10
137.3300215423
 20
122.3010703901
  0
VERTEX
  8
0
 62
7
  6
CONTINUOUS
 10
137.27476105
 20
122.3126559213
  0
VERTEX
  8
0
 62
7
  6
CONTINUOUS
 10
137.2422160732
 20
122.3177747668
  0
VERTEX
  8
0
 62
7
  6
CONTINUOUS
 10
137.1686370835
 20
122.3264663959
  0
VERTEX
  8
0
 62
7
  6
CONTINUOUS
 10
137.0858326266
 20
122.3328790907
  0
VERTEX
  8
0
 62
7
  6
CONTINUOUS
 10
136.9966107281
 20
122.3368126694
  0
VERTEX
  8
0
 62
7
  6
CONTINUOUS
 10
136.9040224913
 20
122.338139789
  0
SEQEND
  0
POLYLINE
  8
0
 62
7
  6
CONTINUOUS
 66
1
 70
0
  0
VERTEX
  8
0
 62
7
  6
CONTINUOUS
 10
148.2071454667
 20
106.0959296415
  0
VERTEX
  8
0
 62
7
  6
CONTINUOUS
 10
148.1674863969
 20
106.2395204868
  0
VERTEX
  8
0
 62
7
  6
CONTINUOUS
 10
148.1540224913
 20
106.3891451524
  0
SEQEND
  0
POLYLINE
  8
0
 62
7
  6
CONTINUOUS
 66
1
 70
0
  0
VERTEX
  8
0
 62
7
  6
CONTINUOUS
 10
146.050899516
 20
116.9226689744
  0
VERTEX
  8
0
 62
7
  6
CONTINUOUS
 10
146.0905585117
 20
116.7790785371
  0
VERTEX
  8
0
 62
7
  6
CONTINUOUS
 10
146.1040224913
 20
116.6294534635
  0
SEQEND
  0
LINE
  8
0
 62
7
  6
CONTINUOUS
 10
149.6540224913
 20
106.3891451524
 11
149.6540224913
 21
121.509299308
  0
POLYLINE
  8
0
 62
7
  6
CONTINUOUS
 66
1
 70
0
  0
VERTEX
  8
0
 62
7
  6
CONTINUOUS
 10
149.6540224913
 20
106.3891451524
  0
VERTEX
  8
0
 62
7
  6
CONTINUOUS
 10
149.6405585117
 20
106.2395200789
  0
VERTEX
  8
0
 62
7
  6
CONTINUOUS
 10
149.600899516
 20
106.0959296415
  0
SEQEND
  0
POLYLINE
  8
0
 62
7
  6
CONTINUOUS
 66
1
 70
0
  0
VERTEX
  8
0
 62
7
  6
CONTINUOUS
 10
149.600899516
 20
106.0959296415
  0
VERTEX
  8
0
 62
7
  6
CONTINUOUS
 10
149.5562961972
 20
105.9940123516
  0
VERTEX
  8
0
 62
7
  6
CONTINUOUS
 10
149.4982993223
 20
105.8899649788
  0
VERTEX
  8
0
 62
7
  6
CONTINUOUS
 10
149.4350100748
 20
105.7940267001
  0
VERTEX
  8
0
 62
7
  6
CONTINUOUS
 10
149.3822910997
 20
105.7191515116
  0
VERTEX
  8
0
 62
7
  6
CONTINUOUS
 10
149.363166722
 20
105.69056906
  0
VERTEX
  8
0
 62
7
  6
CONTINUOUS
 10
149.3402297637
 20
105.6487284812
  0
VERTEX
  8
0
 62
7
  6
CONTINUOUS
 10
149.3341608726
 20
105.6206688304
  0
VERTEX
  8
0
 62
7
  6
CONTINUOUS
 10
149.3436340525
 20
105.6028402047
  0
VERTEX
  8
0
 62
7
  6
CONTINUOUS
 10
149.3705816623
 20
105.5959296415
  0
SEQEND
  0
POLYLINE
  8
0
 62
7
  6
CONTINUOUS
 66
1
 70
0
  0
VERTEX
  8
0
 62
7
  6
CONTINUOUS
 10
146.9540224913
 20
100.7595544366
  0
VERTEX
  8
0
 62
7
  6
CONTINUOUS
 10
146.9456489519
 20
100.7447634074
  0
VERTEX
  8
0
 62
7
  6
CONTINUOUS
 10
146.9207398901
 20
100.7306049994
  0
VERTEX
  8
0
 62
7
  6
CONTINUOUS
 10
146.8800215423
 20
100.7175282258
  0
VERTEX
  8
0
 62
7
  6
CONTINUOUS
 10
146.82476105
 20
100.7059426946
  0
VERTEX
  8
0
 62
7
  6
CONTINUOUS
 10
146.7922160732
 20
100.7008238491
  0
VERTEX
  8
0
 62
7
  6
CONTINUOUS
 10
146.7186370835
 20
100.69213222
  0
VERTEX
  8
0
 62
7
  6
CONTINUOUS
 10
146.6358326266
 20
100.6857195252
  0
VERTEX
  8
0
 62
7
  6
CONTINUOUS
 10
146.5466107281
 20
100.6817859466
  0
VERTEX
  8
0
 62
7
  6
CONTINUOUS
 10
146.4540224913
 20
100.6804588269
  0
SEQEND
  0
POLYLINE
  8
0
 62
7
  6
CONTINUOUS
 66
1
 70
0
  0
VERTEX
  8
0
 62
7
  6
CONTINUOUS
 10
139.8205816623
 20
117.4226689744
  0
VERTEX
  8
0
 62
7
  6
CONTINUOUS
 10
139.7936305452
 20
117.4157558537
  0
VERTEX
  8
0
 62
7
  6
CONTINUOUS
 10
139.7841629063
 20
117.3979577442
  0
VERTEX
  8
0
 62
7
  6
CONTINUOUS
 10
139.790254498
 20
117.3698101221
  0
VERTEX
  8
0
 62
7
  6
CONTINUOUS
 10
139.8132735813
 20
117.3278623636
  0
VERTEX
  8
0
 62
7
  6
CONTINUOUS
 10
139.8322525374
 20
117.2995028867
  0
VERTEX
  8
0
 62
7
  6
CONTINUOUS
 10
139.8849787419
 20
117.2246168576
  0
VERTEX
  8
0
 62
7
  6
CONTINUOUS
 10
139.9483160543
 20
117.128606414
  0
VERTEX
  8
0
 62
7
  6
CONTINUOUS
 10
140.0062900383
 20
117.0245986277
  0
VERTEX
  8
0
 62
7
  6
CONTINUOUS
 10
140.050899516
 20
116.9226689744
  0
SEQEND
  0
POLYLINE
  8
0
 62
7
  6
CONTINUOUS
 66
1
 70
0
  0
VERTEX
  8
0
 62
7
  6
CONTINUOUS
 10
91.1374633204
 20
105.5959296415
  0
VERTEX
  8
0
 62
7
  6
CONTINUOUS
 10
91.1644068562
 20
105.6028372351
  0
VERTEX
  8
0
 62
7
  6
CONTINUOUS
 10
91.1738834602
 20
105.6206598599
  0
VERTEX
  8
0
 62
7
  6
CONTINUOUS
 10
91.1678236788
 20
105.648707936
  0
VERTEX
  8
0
 62
7
  6
CONTINUOUS
 10
91.1449059783
 20
105.6905256731
  0
VERTEX
  8
0
 62
7
  6
CONTINUOUS
 10
91.1257855349
 20
105.7191057257
  0
VERTEX
  8
0
 62
7
  6
CONTINUOUS
 10
91.0730053669
 20
105.7940690732
  0
VERTEX
  8
0
 62
7
  6
CONTINUOUS
 10
91.0097130302
 20
105.8900180696
  0
VERTEX
  8
0
 62
7
  6
CONTINUOUS
 10
90.9517383132
 20
105.9940333748
  0
VERTEX
  8
0
 62
7
  6
CONTINUOUS
 10
90.9071454667
 20
106.0959296415
  0
SEQEND
  0
POLYLINE
  8
0
 62
7
  6
CONTINUOUS
 66
1
 70
0
  0
VERTEX
  8
0
 62
7
  6
CONTINUOUS
 10
126.7205816623
 20
117.4226689744
  0
VERTEX
  8
0
 62
7
  6
CONTINUOUS
 10
126.693634111
 20
117.4157584539
  0
VERTEX
  8
0
 62
7
  6
CONTINUOUS
 10
126.6841608904
 20
117.397930032
  0
VERTEX
  8
0
 62
7
  6
CONTINUOUS
 10
126.6902294131
 20
117.369870986
  0
VERTEX
  8
0
 62
7
  6
CONTINUOUS
 10
126.7131662884
 20
117.3280302346
  0
VERTEX
  8
0
 62
7
  6
CONTINUOUS
 10
126.7322906101
 20
117.2994478124
  0
VERTEX
  8
0
 62
7
  6
CONTINUOUS
 10
126.7850100068
 20
117.2245720134
  0
VERTEX
  8
0
 62
7
  6
CONTINUOUS
 10
126.8482996799
 20
117.1286330552
  0
VERTEX
  8
0
 62
7
  6
CONTINUOUS
 10
126.9062962251
 20
117.0245862082
  0
VERTEX
  8
0
 62
7
  6
CONTINUOUS
 10
126.950899516
 20
116.9226689744
  0
SEQEND
  0
POLYLINE
  8
0
 62
7
  6
CONTINUOUS
 66
1
 70
0
  0
VERTEX
  8
0
 62
7
  6
CONTINUOUS
 10
78.0374633204
 20
105.5959296415
  0
VERTEX
  8
0
 62
7
  6
CONTINUOUS
 10
78.0644107461
 20
105.6028400705
  0
VERTEX
  8
0
 62
7
  6
CONTINUOUS
 10
78.0738815513
 20
105.6206337075
  0
VERTEX
  8
0
 62
7
  6
CONTINUOUS
 10
78.0677983844
 20
105.648769336
  0
VERTEX
  8
0
 62
7
  6
CONTINUOUS
 10
78.0447944812
 20
105.6907001519
  0
VERTEX
  8
0
 62
7
  6
CONTINUOUS
 10
78.0258174615
 20
105.7190595392
  0
VERTEX
  8
0
 62
7
  6
CONTINUOUS
 10
77.973040851
 20
105.7940181757
  0
VERTEX
  8
0
 62
7
  6
CONTINUOUS
 10
77.9096994081
 20
105.8900402347
  0
VERTEX
  8
0
 62
7
  6
CONTINUOUS
 10
77.8517456768
 20
105.9940185922
  0
VERTEX
  8
0
 62
7
  6
CONTINUOUS
 10
77.8071454667
 20
106.0959296415
  0
SEQEND
  0
POLYLINE
  8
0
 62
7
  6
CONTINUOUS
 66
1
 70
0
  0
VERTEX
  8
0
 62
7
  6
CONTINUOUS
 10
66.8540224913
 20
117.4226689744
  0
VERTEX
  8
0
 62
7
  6
CONTINUOUS
 10
66.80122718
 20
117.4198738166
  0
VERTEX
  8
0
 62
7
  6
CONTINUOUS
 10
66.6984926565
 20
117.3978641663
  0
VERTEX
  8
0
 62
7
  6
CONTINUOUS
 10
66.6031016174
 20
117.3551487023
  0
VERTEX
  8
0
 62
7
  6
CONTINUOUS
 10
66.5189562391
 20
117.2937897183
  0
VERTEX
  8
0
 62
7
  6
CONTINUOUS
 10
66.4824850295
 20
117.2572730904
  0
VERTEX
  8
0
 62
7
  6
CONTINUOUS
 10
66.4213263873
 20
117.1732165378
  0
VERTEX
  8
0
 62
7
  6
CONTINUOUS
 10
66.3787578298
 20
117.0779863962
  0
VERTEX
  8
0
 62
7
  6
CONTINUOUS
 10
66.3568109125
 20
116.9754008036
  0
VERTEX
  8
0
 62
7
  6
CONTINUOUS
 10
66.3540224913
 20
116.9226689744
  0
SEQEND
  0
LINE
  8
0
 62
7
  6
CONTINUOUS
 10
66.8540224913
 20
117.4226689744
 11
70.8540224913
 21
117.4226689744
  0
LINE
  8
0
 62
7
  6
CONTINUOUS
 10
80.6040224913
 20
117.4226689744
 11
89.5040224913
 21
117.4226689744
  0
LINE
  8
0
 62
7
  6
CONTINUOUS
 10
99.7040224913
 20
117.4226689744
 11
108.6040224913
 21
117.4226689744
  0
LINE
  8
0
 62
7
  6
CONTINUOUS
 10
118.8040224913
 20
117.4226689744
 11
127.7040224913
 21
117.4226689744
  0
LINE
  8
0
 62
7
  6
CONTINUOUS
 10
137.9040224913
 20
117.4226689744
 11
146.8040224913
 21
117.4226689744
  0
LINE
  8
0
 62
7
  6
CONTINUOUS
 10
157.0040224913
 20
117.4226689744
 11
165.9040224913
 21
117.4226689744
  0
LINE
  8
0
 62
7
  6
CONTINUOUS
 10
176.1040224913
 20
117.4226689744
 11
185.0040224913
 21
117.4226689744
  0
LINE
  8
0
 62
7
  6
CONTINUOUS
 10
195.2040224913
 20
117.4226689744
 11
204.1040224913
 21
117.4226689744
  0
LINE
  8
0
 62
7
  6
CONTINUOUS
 10
213.8540224913
 20
117.4226689744
 11
217.8540224913
 21
117.4226689744
  0
LINE
  8
1_AXIS
 62
2
  6
CENTER
 10
61.6366349481
 20
121.034299308
 11
225.9162197232
 21
121.034299308
  0
LINE
  8
0
 62
7
  6
CONTINUOUS
 10
71.8540224913
 20
122.338139789
 11
79.6040224913
 21
122.338139789
  0
LINE
  8
0
 62
7
  6
CONTINUOUS
 10
90.5040224913
 20
122.338139789
 11
98.7040224913
 21
122.338139789
  0
LINE
  8
0
 62
7
  6
CONTINUOUS
 10
109.6040224913
 20
122.338139789
 11
117.8040224913
 21
122.338139789
  0
LINE
  8
0
 62
7
  6
CONTINUOUS
 10
128.7040224913
 20
122.338139789
 11
136.9040224913
 21
122.338139789
  0
LINE
  8
0
 62
7
  6
CONTINUOUS
 10
147.8040224913
 20
122.338139789
 11
156.0040224913
 21
122.338139789
  0
LINE
  8
0
 62
7
  6
CONTINUOUS
 10
166.9040224913
 20
122.338139789
 11
175.1040224913
 21
122.338139789
  0
LINE
  8
0
 62
7
  6
CONTINUOUS
 10
186.0040224913
 20
122.338139789
 11
194.2040224913
 21
122.338139789
  0
LINE
  8
0
 62
7
  6
CONTINUOUS
 10
205.1040224913
 20
122.338139789
 11
212.8540224913
 21
122.338139789
  0
POLYLINE
  8
0
 62
7
  6
CONTINUOUS
 66
1
 70
0
  0
VERTEX
  8
0
 62
7
  6
CONTINUOUS
 10
217.8540224913
 20
117.4226689744
  0
VERTEX
  8
0
 62
7
  6
CONTINUOUS
 10
217.9068178027
 20
117.4198738166
  0
VERTEX
  8
0
 62
7
  6
CONTINUOUS
 10
218.0095523262
 20
117.3978641663
  0
VERTEX
  8
0
 62
7
  6
CONTINUOUS
 10
218.1049433653
 20
117.3551487023
  0
VERTEX
  8
0
 62
7
  6
CONTINUOUS
 10
218.1890887436
 20
117.2937897183
  0
VERTEX
  8
0
 62
7
  6
CONTINUOUS
 10
218.2255599532
 20
117.2572730904
  0
VERTEX
  8
0
 62
7
  6
CONTINUOUS
 10
218.2867185954
 20
117.1732165378
  0
VERTEX
  8
0
 62
7
  6
CONTINUOUS
 10
218.3292871529
 20
117.0779863962
  0
VERTEX
  8
0
 62
7
  6
CONTINUOUS
 10
218.3512340702
 20
116.9754008036
  0
VERTEX
  8
0
 62
7
  6
CONTINUOUS
 10
218.3540224913
 20
116.9226689744
  0
SEQEND
  0
POLYLINE
  8
0
 62
7
  6
CONTINUOUS
 66
1
 70
0
  0
VERTEX
  8
0
 62
7
  6
CONTINUOUS
 10
156.8540224913
 20
100.7595544366
  0
VERTEX
  8
0
 62
7
  6
CONTINUOUS
 10
156.8623960308
 20
100.7447634074
  0
VERTEX
  8
0
 62
7
  6
CONTINUOUS
 10
156.8873050926
 20
100.7306049994
  0
VERTEX
  8
0
 62
7
  6
CONTINUOUS
 10
156.9280234404
 20
100.7175282258
  0
VERTEX
  8
0
 62
7
  6
CONTINUOUS
 10
156.9832839327
 20
100.7059426946
  0
VERTEX
  8
0
 62
7
  6
CONTINUOUS
 10
157.0158289095
 20
100.7008238491
  0
VERTEX
  8
0
 62
7
  6
CONTINUOUS
 10
157.0894078992
 20
100.69213222
  0
VERTEX
  8
0
 62
7
  6
CONTINUOUS
 10
157.1722123561
 20
100.6857195252
  0
VERTEX
  8
0
 62
7
  6
CONTINUOUS
 10
157.2614342546
 20
100.6817859466
  0
VERTEX
  8
0
 62
7
  6
CONTINUOUS
 10
157.3540224913
 20
100.6804588269
  0
SEQEND
  0
POLYLINE
  8
0
 62
7
  6
CONTINUOUS
 66
1
 70
0
  0
VERTEX
  8
0
 62
7
  6
CONTINUOUS
 10
154.2071454667
 20
106.0959296415
  0
VERTEX
  8
0
 62
7
  6
CONTINUOUS
 10
154.1674863969
 20
106.2395204868
  0
VERTEX
  8
0
 62
7
  6
CONTINUOUS
 10
154.1540224913
 20
106.3891451524
  0
SEQEND
  0
LINE
  8
0
 62
7
  6
CONTINUOUS
 10
154.1540224913
 20
106.3891451524
 11
154.1540224913
 21
121.5092993079
  0
LINE
  8
0
 62
7
  6
CONTINUOUS
 10
155.6540224913
 20
106.3891451524
 11
155.6540224913
 21
121.509299308
  0
LINE
  8
0
 62
7
  6
CONTINUOUS
 10
156.5040224913
 20
117.9226689744
 11
156.5040224913
 21
124.774299308
  0
LINE
  8
0
 62
7
  6
CONTINUOUS
 10
156.8540224913
 20
105.0959296415
 11
156.8540224913
 21
98.244299308
  0
LINE
  8
0
 62
7
  6
CONTINUOUS
 10
157.7040224913
 20
101.5092993088
 11
157.7040224913
 21
116.6294534635
  0
POLYLINE
  8
0
 62
7
  6
CONTINUOUS
 66
1
 70
0
  0
VERTEX
  8
0
 62
7
  6
CONTINUOUS
 10
155.6540224913
 20
106.3891451524
  0
VERTEX
  8
0
 62
7
  6
CONTINUOUS
 10
155.6405585117
 20
106.2395200789
  0
VERTEX
  8
0
 62
7
  6
CONTINUOUS
 10
155.600899516
 20
106.0959296415
  0
SEQEND
  0
POLYLINE
  8
0
 62
7
  6
CONTINUOUS
 66
1
 70
0
  0
VERTEX
  8
0
 62
7
  6
CONTINUOUS
 10
157.7040224913
 20
116.6294534635
  0
VERTEX
  8
0
 62
7
  6
CONTINUOUS
 10
157.7174863969
 20
116.7790781291
  0
VERTEX
  8
0
 62
7
  6
CONTINUOUS
 10
157.7571454667
 20
116.9226689744
  0
SEQEND
  0
POLYLINE
  8
0
 62
7
  6
CONTINUOUS
 66
1
 70
0
  0
VERTEX
  8
0
 62
7
  6
CONTINUOUS
 10
157.7571454667
 20
116.9226689744
  0
VERTEX
  8
0
 62
7
  6
CONTINUOUS
 10
157.8017382898
 20
117.0245651942
  0
VERTEX
  8
0
 62
7
  6
CONTINUOUS
 10
157.8597126903
 20
117.1285799933
  0
VERTEX
  8
0
 62
7
  6
CONTINUOUS
 10
157.9230054346
 20
117.2245296399
  0
VERTEX
  8
0
 62
7
  6
CONTINUOUS
 10
157.9757860071
 20
117.2994935732
  0
VERTEX
  8
0
 62
7
  6
CONTINUOUS
 10
157.994906398
 20
117.3280735998
  0
VERTEX
  8
0
 62
7
  6
CONTINUOUS
 10
158.0178240249
 20
117.3698915206
  0
VERTEX
  8
0
 62
7
  6
CONTINUOUS
 10
158.0238834427
 20
117.3979389975
  0
VERTEX
  8
0
 62
7
  6
CONTINUOUS
 10
158.0144068001
 20
117.4157614217
  0
VERTEX
  8
0
 62
7
  6
CONTINUOUS
 10
157.9874633204
 20
117.4226689744
  0
SEQEND
  0
POLYLINE
  8
0
 62
7
  6
CONTINUOUS
 66
1
 70
0
  0
VERTEX
  8
0
 62
7
  6
CONTINUOUS
 10
155.600899516
 20
106.0959296415
  0
VERTEX
  8
0
 62
7
  6
CONTINUOUS
 10
155.5562961972
 20
105.9940123516
  0
VERTEX
  8
0
 62
7
  6
CONTINUOUS
 10
155.4982993223
 20
105.8899649788
  0
VERTEX
  8
0
 62
7
  6
CONTINUOUS
 10
155.4350100748
 20
105.7940267001
  0
VERTEX
  8
0
 62
7
  6
CONTINUOUS
 10
155.3822910997
 20
105.7191515116
  0
VERTEX
  8
0
 62
7
  6
CONTINUOUS
 10
155.363166722
 20
105.69056906
  0
VERTEX
  8
0
 62
7
  6
CONTINUOUS
 10
155.3402297637
 20
105.6487284812
  0
VERTEX
  8
0
 62
7
  6
CONTINUOUS
 10
155.3341608726
 20
105.6206688304
  0
VERTEX
  8
0
 62
7
  6
CONTINUOUS
 10
155.3436340525
 20
105.6028402047
  0
VERTEX
  8
0
 62
7
  6
CONTINUOUS
 10
155.3705816623
 20
105.5959296415
  0
SEQEND
  0
POLYLINE
  8
0
 62
7
  6
CONTINUOUS
 66
1
 70
0
  0
VERTEX
  8
0
 62
7
  6
CONTINUOUS
 10
166.4040224913
 20
122.2590441794
  0
VERTEX
  8
0
 62
7
  6
CONTINUOUS
 10
166.4123960308
 20
122.2738352085
  0
VERTEX
  8
0
 62
7
  6
CONTINUOUS
 10
166.4373050926
 20
122.2879936165
  0
VERTEX
  8
0
 62
7
  6
CONTINUOUS
 10
166.4780234404
 20
122.3010703901
  0
VERTEX
  8
0
 62
7
  6
CONTINUOUS
 10
166.5332839327
 20
122.3126559213
  0
VERTEX
  8
0
 62
7
  6
CONTINUOUS
 10
166.5658289095
 20
122.3177747668
  0
VERTEX
  8
0
 62
7
  6
CONTINUOUS
 10
166.6394078992
 20
122.3264663959
  0
VERTEX
  8
0
 62
7
  6
CONTINUOUS
 10
166.7222123561
 20
122.3328790907
  0
VERTEX
  8
0
 62
7
  6
CONTINUOUS
 10
166.8114342546
 20
122.3368126694
  0
VERTEX
  8
0
 62
7
  6
CONTINUOUS
 10
166.9040224913
 20
122.338139789
  0
SEQEND
  0
POLYLINE
  8
0
 62
7
  6
CONTINUOUS
 66
1
 70
0
  0
VERTEX
  8
0
 62
7
  6
CONTINUOUS
 10
120.7205816623
 20
117.4226689744
  0
VERTEX
  8
0
 62
7
  6
CONTINUOUS
 10
120.6936305452
 20
117.4157558537
  0
VERTEX
  8
0
 62
7
  6
CONTINUOUS
 10
120.6841629063
 20
117.3979577442
  0
VERTEX
  8
0
 62
7
  6
CONTINUOUS
 10
120.690254498
 20
117.3698101221
  0
VERTEX
  8
0
 62
7
  6
CONTINUOUS
 10
120.7132735813
 20
117.3278623636
  0
VERTEX
  8
0
 62
7
  6
CONTINUOUS
 10
120.7322525374
 20
117.2995028867
  0
VERTEX
  8
0
 62
7
  6
CONTINUOUS
 10
120.7849787419
 20
117.2246168576
  0
VERTEX
  8
0
 62
7
  6
CONTINUOUS
 10
120.8483160543
 20
117.128606414
  0
VERTEX
  8
0
 62
7
  6
CONTINUOUS
 10
120.9062900383
 20
117.0245986277
  0
VERTEX
  8
0
 62
7
  6
CONTINUOUS
 10
120.950899516
 20
116.9226689744
  0
SEQEND
  0
POLYLINE
  8
0
 62
7
  6
CONTINUOUS
 66
1
 70
0
  0
VERTEX
  8
0
 62
7
  6
CONTINUOUS
 10
72.0374633204
 20
105.5959296415
  0
VERTEX
  8
0
 62
7
  6
CONTINUOUS
 10
72.0644068562
 20
105.6028372351
  0
VERTEX
  8
0
 62
7
  6
CONTINUOUS
 10
72.0738834602
 20
105.6206598599
  0
VERTEX
  8
0
 62
7
  6
CONTINUOUS
 10
72.0678236788
 20
105.648707936
  0
VERTEX
  8
0
 62
7
  6
CONTINUOUS
 10
72.0449059783
 20
105.6905256731
  0
VERTEX
  8
0
 62
7
  6
CONTINUOUS
 10
72.0257855349
 20
105.7191057257
  0
VERTEX
  8
0
 62
7
  6
CONTINUOUS
 10
71.9730053669
 20
105.7940690732
  0
VERTEX
  8
0
 62
7
  6
CONTINUOUS
 10
71.9097130302
 20
105.8900180696
  0
VERTEX
  8
0
 62
7
  6
CONTINUOUS
 10
71.8517383132
 20
105.9940333748
  0
VERTEX
  8
0
 62
7
  6
CONTINUOUS
 10
71.8071454667
 20
106.0959296415
  0
SEQEND
  0
POLYLINE
  8
0
 62
7
  6
CONTINUOUS
 66
1
 70
0
  0
VERTEX
  8
0
 62
7
  6
CONTINUOUS
 10
107.6205816623
 20
117.4226689744
  0
VERTEX
  8
0
 62
7
  6
CONTINUOUS
 10
107.593634111
 20
117.4157584539
  0
VERTEX
  8
0
 62
7
  6
CONTINUOUS
 10
107.5841608904
 20
117.397930032
  0
VERTEX
  8
0
 62
7
  6
CONTINUOUS
 10
107.5902294131
 20
117.369870986
  0
VERTEX
  8
0
 62
7
  6
CONTINUOUS
 10
107.6131662884
 20
117.3280302346
  0
VERTEX
  8
0
 62
7
  6
CONTINUOUS
 10
107.6322906101
 20
117.2994478124
  0
VERTEX
  8
0
 62
7
  6
CONTINUOUS
 10
107.6850100068
 20
117.2245720134
  0
VERTEX
  8
0
 62
7
  6
CONTINUOUS
 10
107.7482996799
 20
117.1286330552
  0
VERTEX
  8
0
 62
7
  6
CONTINUOUS
 10
107.8062962251
 20
117.0245862082
  0
VERTEX
  8
0
 62
7
  6
CONTINUOUS
 10
107.850899516
 20
116.9226689744
  0
SEQEND
  0
POLYLINE
  8
0
 62
7
  6
CONTINUOUS
 66
1
 70
0
  0
VERTEX
  8
0
 62
7
  6
CONTINUOUS
 10
101.6205816623
 20
117.4226689744
  0
VERTEX
  8
0
 62
7
  6
CONTINUOUS
 10
101.5936305452
 20
117.4157558537
  0
VERTEX
  8
0
 62
7
  6
CONTINUOUS
 10
101.5841629063
 20
117.3979577442
  0
VERTEX
  8
0
 62
7
  6
CONTINUOUS
 10
101.590254498
 20
117.3698101221
  0
VERTEX
  8
0
 62
7
  6
CONTINUOUS
 10
101.6132735813
 20
117.3278623636
  0
VERTEX
  8
0
 62
7
  6
CONTINUOUS
 10
101.6322525374
 20
117.2995028867
  0
VERTEX
  8
0
 62
7
  6
CONTINUOUS
 10
101.6849787419
 20
117.2246168576
  0
VERTEX
  8
0
 62
7
  6
CONTINUOUS
 10
101.7483160543
 20
117.128606414
  0
VERTEX
  8
0
 62
7
  6
CONTINUOUS
 10
101.8062900383
 20
117.0245986277
  0
VERTEX
  8
0
 62
7
  6
CONTINUOUS
 10
101.850899516
 20
116.9226689744
  0
SEQEND
  0
LINE
  8
0
 62
7
  6
CONTINUOUS
 10
71.8540224913
 20
125.274299308
 11
79.6040224913
 21
125.274299308
  0
LINE
  8
0
 62
7
  6
CONTINUOUS
 10
90.5040224913
 20
125.274299308
 11
98.7040224913
 21
125.274299308
  0
LINE
  8
0
 62
7
  6
CONTINUOUS
 10
109.6040224913
 20
125.274299308
 11
117.8040224913
 21
125.274299308
  0
LINE
  8
0
 62
7
  6
CONTINUOUS
 10
128.7040224913
 20
125.274299308
 11
136.9040224913
 21
125.274299308
  0
LINE
  8
0
 62
7
  6
CONTINUOUS
 10
147.8040224913
 20
125.274299308
 11
156.0040224913
 21
125.274299308
  0
LINE
  8
0
 62
7
  6
CONTINUOUS
 10
166.9040224913
 20
125.274299308
 11
175.1040224913
 21
125.274299308
  0
LINE
  8
0
 62
7
  6
CONTINUOUS
 10
186.0040224913
 20
125.274299308
 11
194.2040224913
 21
125.274299308
  0
LINE
  8
0
 62
7
  6
CONTINUOUS
 10
205.1040224913
 20
125.274299308
 11
212.8540224913
 21
125.274299308
  0
LINE
  8
0
 62
7
  6
CONTINUOUS
 10
159.2040224913
 20
101.5092993081
 11
159.2040224913
 21
116.6294534635
  0
POLYLINE
  8
0
 62
7
  6
CONTINUOUS
 66
1
 70
0
  0
VERTEX
  8
0
 62
7
  6
CONTINUOUS
 10
163.7040224913
 20
116.6294534635
  0
VERTEX
  8
0
 62
7
  6
CONTINUOUS
 10
163.7174863969
 20
116.7790781291
  0
VERTEX
  8
0
 62
7
  6
CONTINUOUS
 10
163.7571454667
 20
116.9226689744
  0
SEQEND
  0
POLYLINE
  8
0
 62
7
  6
CONTINUOUS
 66
1
 70
0
  0
VERTEX
  8
0
 62
7
  6
CONTINUOUS
 10
163.7571454667
 20
116.9226689744
  0
VERTEX
  8
0
 62
7
  6
CONTINUOUS
 10
163.8017382898
 20
117.0245651942
  0
VERTEX
  8
0
 62
7
  6
CONTINUOUS
 10
163.8597126903
 20
117.1285799933
  0
VERTEX
  8
0
 62
7
  6
CONTINUOUS
 10
163.9230054346
 20
117.2245296399
  0
VERTEX
  8
0
 62
7
  6
CONTINUOUS
 10
163.9757860071
 20
117.2994935732
  0
VERTEX
  8
0
 62
7
  6
CONTINUOUS
 10
163.994906398
 20
117.3280735998
  0
VERTEX
  8
0
 62
7
  6
CONTINUOUS
 10
164.0178240249
 20
117.3698915206
  0
VERTEX
  8
0
 62
7
  6
CONTINUOUS
 10
164.0238834427
 20
117.3979389975
  0
VERTEX
  8
0
 62
7
  6
CONTINUOUS
 10
164.0144068001
 20
117.4157614217
  0
VERTEX
  8
0
 62
7
  6
CONTINUOUS
 10
163.9874633204
 20
117.4226689744
  0
SEQEND
  0
POLYLINE
  8
0
 62
7
  6
CONTINUOUS
 66
1
 70
0
  0
VERTEX
  8
0
 62
7
  6
CONTINUOUS
 10
88.5205816623
 20
117.4226689744
  0
VERTEX
  8
0
 62
7
  6
CONTINUOUS
 10
88.493634111
 20
117.4157584539
  0
VERTEX
  8
0
 62
7
  6
CONTINUOUS
 10
88.4841608904
 20
117.397930032
  0
VERTEX
  8
0
 62
7
  6
CONTINUOUS
 10
88.4902294131
 20
117.369870986
  0
VERTEX
  8
0
 62
7
  6
CONTINUOUS
 10
88.5131662884
 20
117.3280302346
  0
VERTEX
  8
0
 62
7
  6
CONTINUOUS
 10
88.5322906101
 20
117.2994478124
  0
VERTEX
  8
0
 62
7
  6
CONTINUOUS
 10
88.5850100068
 20
117.2245720134
  0
VERTEX
  8
0
 62
7
  6
CONTINUOUS
 10
88.6482996799
 20
117.1286330552
  0
VERTEX
  8
0
 62
7
  6
CONTINUOUS
 10
88.7062962251
 20
117.0245862082
  0
VERTEX
  8
0
 62
7
  6
CONTINUOUS
 10
88.750899516
 20
116.9226689744
  0
SEQEND
  0
POLYLINE
  8
0
 62
7
  6
CONTINUOUS
 66
1
 70
0
  0
VERTEX
  8
0
 62
7
  6
CONTINUOUS
 10
82.5205816623
 20
117.4226689744
  0
VERTEX
  8
0
 62
7
  6
CONTINUOUS
 10
82.4936305452
 20
117.4157558537
  0
VERTEX
  8
0
 62
7
  6
CONTINUOUS
 10
82.4841629063
 20
117.3979577442
  0
VERTEX
  8
0
 62
7
  6
CONTINUOUS
 10
82.490254498
 20
117.3698101221
  0
VERTEX
  8
0
 62
7
  6
CONTINUOUS
 10
82.5132735813
 20
117.3278623636
  0
VERTEX
  8
0
 62
7
  6
CONTINUOUS
 10
82.5322525374
 20
117.2995028867
  0
VERTEX
  8
0
 62
7
  6
CONTINUOUS
 10
82.5849787419
 20
117.2246168576
  0
VERTEX
  8
0
 62
7
  6
CONTINUOUS
 10
82.6483160543
 20
117.128606414
  0
VERTEX
  8
0
 62
7
  6
CONTINUOUS
 10
82.7062900383
 20
117.0245986277
  0
VERTEX
  8
0
 62
7
  6
CONTINUOUS
 10
82.750899516
 20
116.9226689744
  0
SEQEND
  0
POLYLINE
  8
0
 62
7
  6
CONTINUOUS
 66
1
 70
0
  0
VERTEX
  8
0
 62
7
  6
CONTINUOUS
 10
156.5040224913
 20
122.2590441794
  0
VERTEX
  8
0
 62
7
  6
CONTINUOUS
 10
156.4956489519
 20
122.2738352085
  0
VERTEX
  8
0
 62
7
  6
CONTINUOUS
 10
156.4707398901
 20
122.2879936165
  0
VERTEX
  8
0
 62
7
  6
CONTINUOUS
 10
156.4300215423
 20
122.3010703901
  0
VERTEX
  8
0
 62
7
  6
CONTINUOUS
 10
156.37476105
 20
122.3126559213
  0
VERTEX
  8
0
 62
7
  6
CONTINUOUS
 10
156.3422160732
 20
122.3177747668
  0
VERTEX
  8
0
 62
7
  6
CONTINUOUS
 10
156.2686370835
 20
122.3264663959
  0
VERTEX
  8
0
 62
7
  6
CONTINUOUS
 10
156.1858326266
 20
122.3328790907
  0
VERTEX
  8
0
 62
7
  6
CONTINUOUS
 10
156.0966107281
 20
122.3368126694
  0
VERTEX
  8
0
 62
7
  6
CONTINUOUS
 10
156.0040224913
 20
122.338139789
  0
SEQEND
  0
POLYLINE
  8
0
 62
7
  6
CONTINUOUS
 66
1
 70
0
  0
VERTEX
  8
0
 62
7
  6
CONTINUOUS
 10
159.150899516
 20
116.9226689744
  0
VERTEX
  8
0
 62
7
  6
CONTINUOUS
 10
159.1905585117
 20
116.7790785371
  0
VERTEX
  8
0
 62
7
  6
CONTINUOUS
 10
159.2040224913
 20
116.6294534635
  0
SEQEND
  0
LINE
  8
0
 62
7
  6
CONTINUOUS
 10
163.7040224913
 20
101.5092993088
 11
163.7040224913
 21
116.6294534635
  0
LINE
  8
0
 62
7
  6
CONTINUOUS
 10
165.2040224913
 20
101.5092993081
 11
165.2040224913
 21
116.6294534635
  0
LINE
  8
0
 62
7
  6
CONTINUOUS
 10
166.0540224913
 20
105.0959296415
 11
166.0540224913
 21
98.244299308
  0
LINE
  8
0
 62
7
  6
CONTINUOUS
 10
166.4040224913
 20
117.9226689514
 11
166.4040224913
 21
124.774299308
  0
LINE
  8
0
 62
7
  6
CONTINUOUS
 10
167.2540224913
 20
106.3891451524
 11
167.2540224913
 21
121.5092993079
  0
LINE
  8
0
 62
7
  6
CONTINUOUS
 10
168.7540224913
 20
106.3891451524
 11
168.7540224913
 21
121.509299308
  0
POLYLINE
  8
0
 62
7
  6
CONTINUOUS
 66
1
 70
0
  0
VERTEX
  8
0
 62
7
  6
CONTINUOUS
 10
168.700899516
 20
106.0959296415
  0
VERTEX
  8
0
 62
7
  6
CONTINUOUS
 10
168.6562961972
 20
105.9940123516
  0
VERTEX
  8
0
 62
7
  6
CONTINUOUS
 10
168.5982993223
 20
105.8899649788
  0
VERTEX
  8
0
 62
7
  6
CONTINUOUS
 10
168.5350100748
 20
105.7940267001
  0
VERTEX
  8
0
 62
7
  6
CONTINUOUS
 10
168.4822910997
 20
105.7191515116
  0
VERTEX
  8
0
 62
7
  6
CONTINUOUS
 10
168.463166722
 20
105.69056906
  0
VERTEX
  8
0
 62
7
  6
CONTINUOUS
 10
168.4402297637
 20
105.6487284812
  0
VERTEX
  8
0
 62
7
  6
CONTINUOUS
 10
168.4341608726
 20
105.6206688304
  0
VERTEX
  8
0
 62
7
  6
CONTINUOUS
 10
168.4436340525
 20
105.6028402047
  0
VERTEX
  8
0
 62
7
  6
CONTINUOUS
 10
168.4705816623
 20
105.5959296415
  0
SEQEND
  0
POLYLINE
  8
0
 62
7
  6
CONTINUOUS
 66
1
 70
0
  0
VERTEX
  8
0
 62
7
  6
CONTINUOUS
 10
166.0540224913
 20
100.7595544366
  0
VERTEX
  8
0
 62
7
  6
CONTINUOUS
 10
166.0456489519
 20
100.7447634074
  0
VERTEX
  8
0
 62
7
  6
CONTINUOUS
 10
166.0207398901
 20
100.7306049994
  0
VERTEX
  8
0
 62
7
  6
CONTINUOUS
 10
165.9800215423
 20
100.7175282258
  0
VERTEX
  8
0
 62
7
  6
CONTINUOUS
 10
165.92476105
 20
100.7059426946
  0
VERTEX
  8
0
 62
7
  6
CONTINUOUS
 10
165.8922160732
 20
100.7008238491
  0
VERTEX
  8
0
 62
7
  6
CONTINUOUS
 10
165.8186370835
 20
100.69213222
  0
VERTEX
  8
0
 62
7
  6
CONTINUOUS
 10
165.7358326266
 20
100.6857195252
  0
VERTEX
  8
0
 62
7
  6
CONTINUOUS
 10
165.6466107281
 20
100.6817859466
  0
VERTEX
  8
0
 62
7
  6
CONTINUOUS
 10
165.5540224913
 20
100.6804588269
  0
SEQEND
  0
POLYLINE
  8
0
 62
7
  6
CONTINUOUS
 66
1
 70
0
  0
VERTEX
  8
0
 62
7
  6
CONTINUOUS
 10
69.4205816623
 20
117.4226689744
  0
VERTEX
  8
0
 62
7
  6
CONTINUOUS
 10
69.3936305452
 20
117.4157558537
  0
VERTEX
  8
0
 62
7
  6
CONTINUOUS
 10
69.3841629063
 20
117.3979577442
  0
VERTEX
  8
0
 62
7
  6
CONTINUOUS
 10
69.390254498
 20
117.3698101221
  0
VERTEX
  8
0
 62
7
  6
CONTINUOUS
 10
69.4132735813
 20
117.3278623636
  0
VERTEX
  8
0
 62
7
  6
CONTINUOUS
 10
69.4322525374
 20
117.2995028867
  0
VERTEX
  8
0
 62
7
  6
CONTINUOUS
 10
69.4849787419
 20
117.2246168576
  0
VERTEX
  8
0
 62
7
  6
CONTINUOUS
 10
69.5483160543
 20
117.128606414
  0
VERTEX
  8
0
 62
7
  6
CONTINUOUS
 10
69.6062900383
 20
117.0245986277
  0
VERTEX
  8
0
 62
7
  6
CONTINUOUS
 10
69.650899516
 20
116.9226689744
  0
SEQEND
  0
POLYLINE
  8
0
 62
7
  6
CONTINUOUS
 66
1
 70
0
  0
VERTEX
  8
0
 62
7
  6
CONTINUOUS
 10
175.9540224913
 20
100.7595544366
  0
VERTEX
  8
0
 62
7
  6
CONTINUOUS
 10
175.9623960308
 20
100.7447634074
  0
VERTEX
  8
0
 62
7
  6
CONTINUOUS
 10
175.9873050926
 20
100.7306049994
  0
VERTEX
  8
0
 62
7
  6
CONTINUOUS
 10
176.0280234404
 20
100.7175282258
  0
VERTEX
  8
0
 62
7
  6
CONTINUOUS
 10
176.0832839327
 20
100.7059426946
  0
VERTEX
  8
0
 62
7
  6
CONTINUOUS
 10
176.1158289095
 20
100.7008238491
  0
VERTEX
  8
0
 62
7
  6
CONTINUOUS
 10
176.1894078992
 20
100.69213222
  0
VERTEX
  8
0
 62
7
  6
CONTINUOUS
 10
176.2722123561
 20
100.6857195252
  0
VERTEX
  8
0
 62
7
  6
CONTINUOUS
 10
176.3614342546
 20
100.6817859466
  0
VERTEX
  8
0
 62
7
  6
CONTINUOUS
 10
176.4540224913
 20
100.6804588269
  0
SEQEND
  0
POLYLINE
  8
0
 62
7
  6
CONTINUOUS
 66
1
 70
0
  0
VERTEX
  8
0
 62
7
  6
CONTINUOUS
 10
167.3071454667
 20
106.0959296415
  0
VERTEX
  8
0
 62
7
  6
CONTINUOUS
 10
167.2674863969
 20
106.2395204868
  0
VERTEX
  8
0
 62
7
  6
CONTINUOUS
 10
167.2540224913
 20
106.3891451524
  0
SEQEND
  0
POLYLINE
  8
0
 62
7
  6
CONTINUOUS
 66
1
 70
0
  0
VERTEX
  8
0
 62
7
  6
CONTINUOUS
 10
165.150899516
 20
116.9226689744
  0
VERTEX
  8
0
 62
7
  6
CONTINUOUS
 10
165.1905585117
 20
116.7790785371
  0
VERTEX
  8
0
 62
7
  6
CONTINUOUS
 10
165.2040224913
 20
116.6294534635
  0
SEQEND
  0
LINE
  8
0
 62
7
  6
CONTINUOUS
 10
173.2540224913
 20
106.3891451524
 11
173.2540224913
 21
121.5092993079
  0
POLYLINE
  8
0
 62
7
  6
CONTINUOUS
 66
1
 70
0
  0
VERTEX
  8
0
 62
7
  6
CONTINUOUS
 10
168.7540224913
 20
106.3891451524
  0
VERTEX
  8
0
 62
7
  6
CONTINUOUS
 10
168.7405585117
 20
106.2395200789
  0
VERTEX
  8
0
 62
7
  6
CONTINUOUS
 10
168.700899516
 20
106.0959296415
  0
SEQEND
  0
POLYLINE
  8
0
 62
7
  6
CONTINUOUS
 66
1
 70
0
  0
VERTEX
  8
0
 62
7
  6
CONTINUOUS
 10
176.8571454667
 20
116.9226689744
  0
VERTEX
  8
0
 62
7
  6
CONTINUOUS
 10
176.9017382898
 20
117.0245651942
  0
VERTEX
  8
0
 62
7
  6
CONTINUOUS
 10
176.9597126903
 20
117.1285799933
  0
VERTEX
  8
0
 62
7
  6
CONTINUOUS
 10
177.0230054346
 20
117.2245296399
  0
VERTEX
  8
0
 62
7
  6
CONTINUOUS
 10
177.0757860071
 20
117.2994935732
  0
VERTEX
  8
0
 62
7
  6
CONTINUOUS
 10
177.094906398
 20
117.3280735998
  0
VERTEX
  8
0
 62
7
  6
CONTINUOUS
 10
177.1178240249
 20
117.3698915206
  0
VERTEX
  8
0
 62
7
  6
CONTINUOUS
 10
177.1238834427
 20
117.3979389975
  0
VERTEX
  8
0
 62
7
  6
CONTINUOUS
 10
177.1144068001
 20
117.4157614217
  0
VERTEX
  8
0
 62
7
  6
CONTINUOUS
 10
177.0874633203
 20
117.4226689744
  0
SEQEND
  0
POLYLINE
  8
0
 62
7
  6
CONTINUOUS
 66
1
 70
0
  0
VERTEX
  8
0
 62
7
  6
CONTINUOUS
 10
173.3071454667
 20
106.0959296415
  0
VERTEX
  8
0
 62
7
  6
CONTINUOUS
 10
173.2674863969
 20
106.2395204868
  0
VERTEX
  8
0
 62
7
  6
CONTINUOUS
 10
173.2540224913
 20
106.3891451524
  0
SEQEND
  0
LINE
  8
0
 62
7
  6
CONTINUOUS
 10
174.7540224913
 20
106.3891451524
 11
174.7540224913
 21
121.509299308
  0
LINE
  8
0
 62
7
  6
CONTINUOUS
 10
175.6040224913
 20
117.9226689744
 11
175.6040224913
 21
124.774299308
  0
LINE
  8
0
 62
7
  6
CONTINUOUS
 10
175.9540224913
 20
105.0959296415
 11
175.9540224913
 21
98.244299308
  0
LINE
  8
0
 62
7
  6
CONTINUOUS
 10
176.8040224913
 20
101.5092993088
 11
176.8040224913
 21
116.6294534635
  0
LINE
  8
0
 62
7
  6
CONTINUOUS
 10
178.3040224913
 20
101.5092993081
 11
178.3040224913
 21
116.6294534635
  0
POLYLINE
  8
0
 62
7
  6
CONTINUOUS
 66
1
 70
0
  0
VERTEX
  8
0
 62
7
  6
CONTINUOUS
 10
174.7540224913
 20
106.3891451524
  0
VERTEX
  8
0
 62
7
  6
CONTINUOUS
 10
174.7405585117
 20
106.2395200789
  0
VERTEX
  8
0
 62
7
  6
CONTINUOUS
 10
174.700899516
 20
106.0959296415
  0
SEQEND
  0
POLYLINE
  8
0
 62
7
  6
CONTINUOUS
 66
1
 70
0
  0
VERTEX
  8
0
 62
7
  6
CONTINUOUS
 10
176.8040224913
 20
116.6294534635
  0
VERTEX
  8
0
 62
7
  6
CONTINUOUS
 10
176.8174863969
 20
116.7790781291
  0
VERTEX
  8
0
 62
7
  6
CONTINUOUS
 10
176.8571454667
 20
116.9226689744
  0
SEQEND
  0
POLYLINE
  8
0
 62
7
  6
CONTINUOUS
 66
1
 70
0
  0
VERTEX
  8
0
 62
7
  6
CONTINUOUS
 10
174.700899516
 20
106.0959296415
  0
VERTEX
  8
0
 62
7
  6
CONTINUOUS
 10
174.6562961972
 20
105.9940123516
  0
VERTEX
  8
0
 62
7
  6
CONTINUOUS
 10
174.5982993223
 20
105.8899649788
  0
VERTEX
  8
0
 62
7
  6
CONTINUOUS
 10
174.5350100748
 20
105.7940267001
  0
VERTEX
  8
0
 62
7
  6
CONTINUOUS
 10
174.4822910997
 20
105.7191515116
  0
VERTEX
  8
0
 62
7
  6
CONTINUOUS
 10
174.463166722
 20
105.69056906
  0
VERTEX
  8
0
 62
7
  6
CONTINUOUS
 10
174.4402297637
 20
105.6487284812
  0
VERTEX
  8
0
 62
7
  6
CONTINUOUS
 10
174.4341608726
 20
105.6206688304
  0
VERTEX
  8
0
 62
7
  6
CONTINUOUS
 10
174.4436340525
 20
105.6028402047
  0
VERTEX
  8
0
 62
7
  6
CONTINUOUS
 10
174.4705816623
 20
105.5959296415
  0
SEQEND
  0
POLYLINE
  8
0
 62
7
  6
CONTINUOUS
 66
1
 70
0
  0
VERTEX
  8
0
 62
7
  6
CONTINUOUS
 10
182.8571454667
 20
116.9226689744
  0
VERTEX
  8
0
 62
7
  6
CONTINUOUS
 10
182.9017382898
 20
117.0245651942
  0
VERTEX
  8
0
 62
7
  6
CONTINUOUS
 10
182.9597126903
 20
117.1285799933
  0
VERTEX
  8
0
 62
7
  6
CONTINUOUS
 10
183.0230054346
 20
117.2245296399
  0
VERTEX
  8
0
 62
7
  6
CONTINUOUS
 10
183.0757860071
 20
117.2994935732
  0
VERTEX
  8
0
 62
7
  6
CONTINUOUS
 10
183.094906398
 20
117.3280735998
  0
VERTEX
  8
0
 62
7
  6
CONTINUOUS
 10
183.1178240249
 20
117.3698915206
  0
VERTEX
  8
0
 62
7
  6
CONTINUOUS
 10
183.1238834427
 20
117.3979389975
  0
VERTEX
  8
0
 62
7
  6
CONTINUOUS
 10
183.1144068001
 20
117.4157614217
  0
VERTEX
  8
0
 62
7
  6
CONTINUOUS
 10
183.0874633204
 20
117.4226689744
  0
SEQEND
  0
POLYLINE
  8
0
 62
7
  6
CONTINUOUS
 66
1
 70
0
  0
VERTEX
  8
0
 62
7
  6
CONTINUOUS
 10
185.5040224913
 20
122.2590441794
  0
VERTEX
  8
0
 62
7
  6
CONTINUOUS
 10
185.5123960308
 20
122.2738352085
  0
VERTEX
  8
0
 62
7
  6
CONTINUOUS
 10
185.5373050926
 20
122.2879936165
  0
VERTEX
  8
0
 62
7
  6
CONTINUOUS
 10
185.5780234404
 20
122.3010703901
  0
VERTEX
  8
0
 62
7
  6
CONTINUOUS
 10
185.6332839327
 20
122.3126559213
  0
VERTEX
  8
0
 62
7
  6
CONTINUOUS
 10
185.6658289095
 20
122.3177747668
  0
VERTEX
  8
0
 62
7
  6
CONTINUOUS
 10
185.7394078992
 20
122.3264663959
  0
VERTEX
  8
0
 62
7
  6
CONTINUOUS
 10
185.8222123561
 20
122.3328790907
  0
VERTEX
  8
0
 62
7
  6
CONTINUOUS
 10
185.9114342546
 20
122.3368126694
  0
VERTEX
  8
0
 62
7
  6
CONTINUOUS
 10
186.0040224913
 20
122.338139789
  0
SEQEND
  0
POLYLINE
  8
0
 62
7
  6
CONTINUOUS
 66
1
 70
0
  0
VERTEX
  8
0
 62
7
  6
CONTINUOUS
 10
175.6040224913
 20
122.2590441794
  0
VERTEX
  8
0
 62
7
  6
CONTINUOUS
 10
175.5956489519
 20
122.2738352085
  0
VERTEX
  8
0
 62
7
  6
CONTINUOUS
 10
175.5707398901
 20
122.2879936165
  0
VERTEX
  8
0
 62
7
  6
CONTINUOUS
 10
175.5300215423
 20
122.3010703901
  0
VERTEX
  8
0
 62
7
  6
CONTINUOUS
 10
175.47476105
 20
122.3126559213
  0
VERTEX
  8
0
 62
7
  6
CONTINUOUS
 10
175.4422160732
 20
122.3177747668
  0
VERTEX
  8
0
 62
7
  6
CONTINUOUS
 10
175.3686370835
 20
122.3264663959
  0
VERTEX
  8
0
 62
7
  6
CONTINUOUS
 10
175.2858326266
 20
122.3328790907
  0
VERTEX
  8
0
 62
7
  6
CONTINUOUS
 10
175.1966107281
 20
122.3368126694
  0
VERTEX
  8
0
 62
7
  6
CONTINUOUS
 10
175.1040224913
 20
122.338139789
  0
SEQEND
  0
POLYLINE
  8
0
 62
7
  6
CONTINUOUS
 66
1
 70
0
  0
VERTEX
  8
0
 62
7
  6
CONTINUOUS
 10
178.250899516
 20
116.9226689744
  0
VERTEX
  8
0
 62
7
  6
CONTINUOUS
 10
178.2905585117
 20
116.7790785371
  0
VERTEX
  8
0
 62
7
  6
CONTINUOUS
 10
178.3040224913
 20
116.6294534635
  0
SEQEND
  0
LINE
  8
0
 62
7
  6
CONTINUOUS
 10
182.8040224913
 20
101.5092993088
 11
182.8040224913
 21
116.6294534635
  0
LINE
  8
0
 62
7
  6
CONTINUOUS
 10
184.3040224913
 20
101.5092993081
 11
184.3040224913
 21
116.6294534635
  0
POLYLINE
  8
0
 62
7
  6
CONTINUOUS
 66
1
 70
0
  0
VERTEX
  8
0
 62
7
  6
CONTINUOUS
 10
182.8040224913
 20
116.6294534635
  0
VERTEX
  8
0
 62
7
  6
CONTINUOUS
 10
182.8174863969
 20
116.7790781291
  0
VERTEX
  8
0
 62
7
  6
CONTINUOUS
 10
182.8571454667
 20
116.9226689744
  0
SEQEND
  0
POLYLINE
  8
0
 62
7
  6
CONTINUOUS
 66
1
 70
0
  0
VERTEX
  8
0
 62
7
  6
CONTINUOUS
 10
195.0540224913
 20
100.7595544366
  0
VERTEX
  8
0
 62
7
  6
CONTINUOUS
 10
195.0623960308
 20
100.7447634074
  0
VERTEX
  8
0
 62
7
  6
CONTINUOUS
 10
195.0873050926
 20
100.7306049994
  0
VERTEX
  8
0
 62
7
  6
CONTINUOUS
 10
195.1280234404
 20
100.7175282258
  0
VERTEX
  8
0
 62
7
  6
CONTINUOUS
 10
195.1832839327
 20
100.7059426946
  0
VERTEX
  8
0
 62
7
  6
CONTINUOUS
 10
195.2158289095
 20
100.7008238491
  0
VERTEX
  8
0
 62
7
  6
CONTINUOUS
 10
195.2894078992
 20
100.69213222
  0
VERTEX
  8
0
 62
7
  6
CONTINUOUS
 10
195.3722123561
 20
100.6857195252
  0
VERTEX
  8
0
 62
7
  6
CONTINUOUS
 10
195.4614342546
 20
100.6817859466
  0
VERTEX
  8
0
 62
7
  6
CONTINUOUS
 10
195.5540224913
 20
100.6804588269
  0
SEQEND
  0
POLYLINE
  8
0
 62
7
  6
CONTINUOUS
 66
1
 70
0
  0
VERTEX
  8
0
 62
7
  6
CONTINUOUS
 10
186.4071454667
 20
106.0959296415
  0
VERTEX
  8
0
 62
7
  6
CONTINUOUS
 10
186.3674863969
 20
106.2395204868
  0
VERTEX
  8
0
 62
7
  6
CONTINUOUS
 10
186.3540224913
 20
106.3891451524
  0
SEQEND
  0
POLYLINE
  8
0
 62
7
  6
CONTINUOUS
 66
1
 70
0
  0
VERTEX
  8
0
 62
7
  6
CONTINUOUS
 10
184.250899516
 20
116.9226689744
  0
VERTEX
  8
0
 62
7
  6
CONTINUOUS
 10
184.2905585117
 20
116.7790785371
  0
VERTEX
  8
0
 62
7
  6
CONTINUOUS
 10
184.3040224913
 20
116.6294534635
  0
SEQEND
  0
LINE
  8
0
 62
7
  6
CONTINUOUS
 10
185.1540224913
 20
105.0959296415
 11
185.1540224913
 21
98.244299308
  0
LINE
  8
0
 62
7
  6
CONTINUOUS
 10
185.5040224913
 20
117.9226689514
 11
185.5040224913
 21
124.774299308
  0
LINE
  8
0
 62
7
  6
CONTINUOUS
 10
186.3540224913
 20
106.3891451524
 11
186.3540224913
 21
121.5092993079
  0
LINE
  8
0
 62
7
  6
CONTINUOUS
 10
187.8540224913
 20
106.3891451524
 11
187.8540224913
 21
121.509299308
  0
POLYLINE
  8
0
 62
7
  6
CONTINUOUS
 66
1
 70
0
  0
VERTEX
  8
0
 62
7
  6
CONTINUOUS
 10
187.8540224913
 20
106.3891451524
  0
VERTEX
  8
0
 62
7
  6
CONTINUOUS
 10
187.8405585117
 20
106.2395200789
  0
VERTEX
  8
0
 62
7
  6
CONTINUOUS
 10
187.800899516
 20
106.0959296415
  0
SEQEND
  0
POLYLINE
  8
0
 62
7
  6
CONTINUOUS
 66
1
 70
0
  0
VERTEX
  8
0
 62
7
  6
CONTINUOUS
 10
187.800899516
 20
106.0959296415
  0
VERTEX
  8
0
 62
7
  6
CONTINUOUS
 10
187.7562961972
 20
105.9940123516
  0
VERTEX
  8
0
 62
7
  6
CONTINUOUS
 10
187.6982993223
 20
105.8899649788
  0
VERTEX
  8
0
 62
7
  6
CONTINUOUS
 10
187.6350100748
 20
105.7940267001
  0
VERTEX
  8
0
 62
7
  6
CONTINUOUS
 10
187.5822910997
 20
105.7191515116
  0
VERTEX
  8
0
 62
7
  6
CONTINUOUS
 10
187.563166722
 20
105.69056906
  0
VERTEX
  8
0
 62
7
  6
CONTINUOUS
 10
187.5402297637
 20
105.6487284812
  0
VERTEX
  8
0
 62
7
  6
CONTINUOUS
 10
187.5341608726
 20
105.6206688304
  0
VERTEX
  8
0
 62
7
  6
CONTINUOUS
 10
187.5436340525
 20
105.6028402047
  0
VERTEX
  8
0
 62
7
  6
CONTINUOUS
 10
187.5705816623
 20
105.5959296415
  0
SEQEND
  0
POLYLINE
  8
0
 62
7
  6
CONTINUOUS
 66
1
 70
0
  0
VERTEX
  8
0
 62
7
  6
CONTINUOUS
 10
195.9571454667
 20
116.9226689744
  0
VERTEX
  8
0
 62
7
  6
CONTINUOUS
 10
196.0017382898
 20
117.0245651942
  0
VERTEX
  8
0
 62
7
  6
CONTINUOUS
 10
196.0597126903
 20
117.1285799933
  0
VERTEX
  8
0
 62
7
  6
CONTINUOUS
 10
196.1230054346
 20
117.2245296399
  0
VERTEX
  8
0
 62
7
  6
CONTINUOUS
 10
196.1757860071
 20
117.2994935732
  0
VERTEX
  8
0
 62
7
  6
CONTINUOUS
 10
196.194906398
 20
117.3280735998
  0
VERTEX
  8
0
 62
7
  6
CONTINUOUS
 10
196.2178240249
 20
117.3698915206
  0
VERTEX
  8
0
 62
7
  6
CONTINUOUS
 10
196.2238834427
 20
117.3979389975
  0
VERTEX
  8
0
 62
7
  6
CONTINUOUS
 10
196.2144068001
 20
117.4157614217
  0
VERTEX
  8
0
 62
7
  6
CONTINUOUS
 10
196.1874633204
 20
117.4226689744
  0
SEQEND
  0
POLYLINE
  8
0
 62
7
  6
CONTINUOUS
 66
1
 70
0
  0
VERTEX
  8
0
 62
7
  6
CONTINUOUS
 10
185.1540224913
 20
100.7595544366
  0
VERTEX
  8
0
 62
7
  6
CONTINUOUS
 10
185.1456489519
 20
100.7447634074
  0
VERTEX
  8
0
 62
7
  6
CONTINUOUS
 10
185.1207398901
 20
100.7306049994
  0
VERTEX
  8
0
 62
7
  6
CONTINUOUS
 10
185.0800215423
 20
100.7175282258
  0
VERTEX
  8
0
 62
7
  6
CONTINUOUS
 10
185.02476105
 20
100.7059426946
  0
VERTEX
  8
0
 62
7
  6
CONTINUOUS
 10
184.9922160732
 20
100.7008238491
  0
VERTEX
  8
0
 62
7
  6
CONTINUOUS
 10
184.9186370835
 20
100.69213222
  0
VERTEX
  8
0
 62
7
  6
CONTINUOUS
 10
184.8358326266
 20
100.6857195252
  0
VERTEX
  8
0
 62
7
  6
CONTINUOUS
 10
184.7466107281
 20
100.6817859466
  0
VERTEX
  8
0
 62
7
  6
CONTINUOUS
 10
184.6540224913
 20
100.6804588269
  0
SEQEND
  0
POLYLINE
  8
0
 62
7
  6
CONTINUOUS
 66
1
 70
0
  0
VERTEX
  8
0
 62
7
  6
CONTINUOUS
 10
192.4071454667
 20
106.0959296415
  0
VERTEX
  8
0
 62
7
  6
CONTINUOUS
 10
192.3674863969
 20
106.2395204868
  0
VERTEX
  8
0
 62
7
  6
CONTINUOUS
 10
192.3540224913
 20
106.3891451524
  0
SEQEND
  0
LINE
  8
0
 62
7
  6
CONTINUOUS
 10
192.3540224913
 20
106.3891451524
 11
192.3540224913
 21
121.5092993079
  0
LINE
  8
0
 62
7
  6
CONTINUOUS
 10
193.8540224913
 20
106.3891451524
 11
193.8540224913
 21
121.509299308
  0
POLYLINE
  8
0
 62
7
  6
CONTINUOUS
 66
1
 70
0
  0
VERTEX
  8
0
 62
7
  6
CONTINUOUS
 10
193.8540224913
 20
106.3891451524
  0
VERTEX
  8
0
 62
7
  6
CONTINUOUS
 10
193.8405585117
 20
106.2395200789
  0
VERTEX
  8
0
 62
7
  6
CONTINUOUS
 10
193.800899516
 20
106.0959296415
  0
SEQEND
  0
POLYLINE
  8
0
 62
7
  6
CONTINUOUS
 66
1
 70
0
  0
VERTEX
  8
0
 62
7
  6
CONTINUOUS
 10
193.800899516
 20
106.0959296415
  0
VERTEX
  8
0
 62
7
  6
CONTINUOUS
 10
193.7562961972
 20
105.9940123516
  0
VERTEX
  8
0
 62
7
  6
CONTINUOUS
 10
193.6982993223
 20
105.8899649788
  0
VERTEX
  8
0
 62
7
  6
CONTINUOUS
 10
193.6350100748
 20
105.7940267001
  0
VERTEX
  8
0
 62
7
  6
CONTINUOUS
 10
193.5822910997
 20
105.7191515116
  0
VERTEX
  8
0
 62
7
  6
CONTINUOUS
 10
193.563166722
 20
105.69056906
  0
VERTEX
  8
0
 62
7
  6
CONTINUOUS
 10
193.5402297637
 20
105.6487284812
  0
VERTEX
  8
0
 62
7
  6
CONTINUOUS
 10
193.5341608726
 20
105.6206688304
  0
VERTEX
  8
0
 62
7
  6
CONTINUOUS
 10
193.5436340525
 20
105.6028402047
  0
VERTEX
  8
0
 62
7
  6
CONTINUOUS
 10
193.5705816623
 20
105.5959296415
  0
SEQEND
  0
POLYLINE
  8
0
 62
7
  6
CONTINUOUS
 66
1
 70
0
  0
VERTEX
  8
0
 62
7
  6
CONTINUOUS
 10
204.6040224913
 20
122.2590441794
  0
VERTEX
  8
0
 62
7
  6
CONTINUOUS
 10
204.6123960308
 20
122.2738352085
  0
VERTEX
  8
0
 62
7
  6
CONTINUOUS
 10
204.6373050926
 20
122.2879936165
  0
VERTEX
  8
0
 62
7
  6
CONTINUOUS
 10
204.6780234404
 20
122.3010703901
  0
VERTEX
  8
0
 62
7
  6
CONTINUOUS
 10
204.7332839327
 20
122.3126559213
  0
VERTEX
  8
0
 62
7
  6
CONTINUOUS
 10
204.7658289095
 20
122.3177747668
  0
VERTEX
  8
0
 62
7
  6
CONTINUOUS
 10
204.8394078992
 20
122.3264663959
  0
VERTEX
  8
0
 62
7
  6
CONTINUOUS
 10
204.9222123561
 20
122.3328790907
  0
VERTEX
  8
0
 62
7
  6
CONTINUOUS
 10
205.0114342546
 20
122.3368126694
  0
VERTEX
  8
0
 62
7
  6
CONTINUOUS
 10
205.1040224913
 20
122.338139789
  0
SEQEND
  0
POLYLINE
  8
0
 62
7
  6
CONTINUOUS
 66
1
 70
0
  0
VERTEX
  8
0
 62
7
  6
CONTINUOUS
 10
194.7040224913
 20
122.2590441794
  0
VERTEX
  8
0
 62
7
  6
CONTINUOUS
 10
194.6956489519
 20
122.2738352085
  0
VERTEX
  8
0
 62
7
  6
CONTINUOUS
 10
194.6707398901
 20
122.2879936165
  0
VERTEX
  8
0
 62
7
  6
CONTINUOUS
 10
194.6300215423
 20
122.3010703901
  0
VERTEX
  8
0
 62
7
  6
CONTINUOUS
 10
194.57476105
 20
122.3126559213
  0
VERTEX
  8
0
 62
7
  6
CONTINUOUS
 10
194.5422160732
 20
122.3177747668
  0
VERTEX
  8
0
 62
7
  6
CONTINUOUS
 10
194.4686370835
 20
122.3264663959
  0
VERTEX
  8
0
 62
7
  6
CONTINUOUS
 10
194.3858326266
 20
122.3328790907
  0
VERTEX
  8
0
 62
7
  6
CONTINUOUS
 10
194.2966107281
 20
122.3368126694
  0
VERTEX
  8
0
 62
7
  6
CONTINUOUS
 10
194.2040224913
 20
122.338139789
  0
SEQEND
  0
LINE
  8
0
 62
7
  6
CONTINUOUS
 10
194.7040224913
 20
117.9226689744
 11
194.7040224913
 21
124.774299308
  0
LINE
  8
0
 62
7
  6
CONTINUOUS
 10
195.0540224913
 20
98.244299308
 11
195.0540224913
 21
105.0959296415
  0
LINE
  8
0
 62
7
  6
CONTINUOUS
 10
195.9040224913
 20
101.5092993088
 11
195.9040224913
 21
116.6294534635
  0
LINE
  8
0
 62
7
  6
CONTINUOUS
 10
197.4040224913
 20
101.5092993081
 11
197.4040224913
 21
116.6294534635
  0
POLYLINE
  8
0
 62
7
  6
CONTINUOUS
 66
1
 70
0
  0
VERTEX
  8
0
 62
7
  6
CONTINUOUS
 10
195.9040224913
 20
116.6294534635
  0
VERTEX
  8
0
 62
7
  6
CONTINUOUS
 10
195.9174863969
 20
116.7790781291
  0
VERTEX
  8
0
 62
7
  6
CONTINUOUS
 10
195.9571454667
 20
116.9226689744
  0
SEQEND
  0
POLYLINE
  8
0
 62
7
  6
CONTINUOUS
 66
1
 70
0
  0
VERTEX
  8
0
 62
7
  6
CONTINUOUS
 10
201.9571454667
 20
116.9226689744
  0
VERTEX
  8
0
 62
7
  6
CONTINUOUS
 10
202.0017382898
 20
117.0245651942
  0
VERTEX
  8
0
 62
7
  6
CONTINUOUS
 10
202.0597126903
 20
117.1285799933
  0
VERTEX
  8
0
 62
7
  6
CONTINUOUS
 10
202.1230054346
 20
117.2245296399
  0
VERTEX
  8
0
 62
7
  6
CONTINUOUS
 10
202.1757860071
 20
117.2994935732
  0
VERTEX
  8
0
 62
7
  6
CONTINUOUS
 10
202.194906398
 20
117.3280735998
  0
VERTEX
  8
0
 62
7
  6
CONTINUOUS
 10
202.2178240249
 20
117.3698915206
  0
VERTEX
  8
0
 62
7
  6
CONTINUOUS
 10
202.2238834427
 20
117.3979389975
  0
VERTEX
  8
0
 62
7
  6
CONTINUOUS
 10
202.2144068001
 20
117.4157614217
  0
VERTEX
  8
0
 62
7
  6
CONTINUOUS
 10
202.1874633204
 20
117.4226689744
  0
SEQEND
  0
POLYLINE
  8
0
 62
7
  6
CONTINUOUS
 66
1
 70
0
  0
VERTEX
  8
0
 62
7
  6
CONTINUOUS
 10
214.4040224913
 20
100.7595544366
  0
VERTEX
  8
0
 62
7
  6
CONTINUOUS
 10
214.4123960308
 20
100.7447634074
  0
VERTEX
  8
0
 62
7
  6
CONTINUOUS
 10
214.4373050926
 20
100.7306049994
  0
VERTEX
  8
0
 62
7
  6
CONTINUOUS
 10
214.4780234404
 20
100.7175282258
  0
VERTEX
  8
0
 62
7
  6
CONTINUOUS
 10
214.5332839327
 20
100.7059426946
  0
VERTEX
  8
0
 62
7
  6
CONTINUOUS
 10
214.5658289095
 20
100.7008238491
  0
VERTEX
  8
0
 62
7
  6
CONTINUOUS
 10
214.6394078992
 20
100.69213222
  0
VERTEX
  8
0
 62
7
  6
CONTINUOUS
 10
214.7222123561
 20
100.6857195252
  0
VERTEX
  8
0
 62
7
  6
CONTINUOUS
 10
214.8114342546
 20
100.6817859466
  0
VERTEX
  8
0
 62
7
  6
CONTINUOUS
 10
214.9040224913
 20
100.6804588269
  0
SEQEND
  0
POLYLINE
  8
0
 62
7
  6
CONTINUOUS
 66
1
 70
0
  0
VERTEX
  8
0
 62
7
  6
CONTINUOUS
 10
197.350899516
 20
116.9226689744
  0
VERTEX
  8
0
 62
7
  6
CONTINUOUS
 10
197.3905585117
 20
116.7790785371
  0
VERTEX
  8
0
 62
7
  6
CONTINUOUS
 10
197.4040224913
 20
116.6294534635
  0
SEQEND
  0
LINE
  8
0
 62
7
  6
CONTINUOUS
 10
201.9040224913
 20
101.5092993088
 11
201.9040224913
 21
116.6294534635
  0
LINE
  8
0
 62
7
  6
CONTINUOUS
 10
203.4040224913
 20
101.5092993081
 11
203.4040224913
 21
116.6294534635
  0
LINE
  8
0
 62
7
  6
CONTINUOUS
 10
204.2540224913
 20
98.244299308
 11
204.2540224913
 21
105.0959296415
  0
LINE
  8
0
 62
7
  6
CONTINUOUS
 10
204.6040224913
 20
117.9226689514
 11
204.6040224913
 21
124.774299308
  0
POLYLINE
  8
0
 62
7
  6
CONTINUOUS
 66
1
 70
0
  0
VERTEX
  8
0
 62
7
  6
CONTINUOUS
 10
201.9040224913
 20
116.6294534635
  0
VERTEX
  8
0
 62
7
  6
CONTINUOUS
 10
201.9174863969
 20
116.7790781291
  0
VERTEX
  8
0
 62
7
  6
CONTINUOUS
 10
201.9571454667
 20
116.9226689744
  0
SEQEND
  0
POLYLINE
  8
0
 62
7
  6
CONTINUOUS
 66
1
 70
0
  0
VERTEX
  8
0
 62
7
  6
CONTINUOUS
 10
206.900899516
 20
106.0959296415
  0
VERTEX
  8
0
 62
7
  6
CONTINUOUS
 10
206.8562961972
 20
105.9940123516
  0
VERTEX
  8
0
 62
7
  6
CONTINUOUS
 10
206.7982993223
 20
105.8899649788
  0
VERTEX
  8
0
 62
7
  6
CONTINUOUS
 10
206.7350100748
 20
105.7940267001
  0
VERTEX
  8
0
 62
7
  6
CONTINUOUS
 10
206.6822910997
 20
105.7191515116
  0
VERTEX
  8
0
 62
7
  6
CONTINUOUS
 10
206.663166722
 20
105.69056906
  0
VERTEX
  8
0
 62
7
  6
CONTINUOUS
 10
206.6402297637
 20
105.6487284812
  0
VERTEX
  8
0
 62
7
  6
CONTINUOUS
 10
206.6341608726
 20
105.6206688304
  0
VERTEX
  8
0
 62
7
  6
CONTINUOUS
 10
206.6436340525
 20
105.6028402047
  0
VERTEX
  8
0
 62
7
  6
CONTINUOUS
 10
206.6705816623
 20
105.5959296415
  0
SEQEND
  0
POLYLINE
  8
0
 62
7
  6
CONTINUOUS
 66
1
 70
0
  0
VERTEX
  8
0
 62
7
  6
CONTINUOUS
 10
204.2540224913
 20
100.7595544366
  0
VERTEX
  8
0
 62
7
  6
CONTINUOUS
 10
204.2456489519
 20
100.7447634074
  0
VERTEX
  8
0
 62
7
  6
CONTINUOUS
 10
204.2207398901
 20
100.7306049994
  0
VERTEX
  8
0
 62
7
  6
CONTINUOUS
 10
204.1800215423
 20
100.7175282258
  0
VERTEX
  8
0
 62
7
  6
CONTINUOUS
 10
204.12476105
 20
100.7059426946
  0
VERTEX
  8
0
 62
7
  6
CONTINUOUS
 10
204.0922160732
 20
100.7008238491
  0
VERTEX
  8
0
 62
7
  6
CONTINUOUS
 10
204.0186370835
 20
100.69213222
  0
VERTEX
  8
0
 62
7
  6
CONTINUOUS
 10
203.9358326266
 20
100.6857195252
  0
VERTEX
  8
0
 62
7
  6
CONTINUOUS
 10
203.8466107281
 20
100.6817859466
  0
VERTEX
  8
0
 62
7
  6
CONTINUOUS
 10
203.7540224913
 20
100.6804588269
  0
SEQEND
  0
POLYLINE
  8
0
 62
7
  6
CONTINUOUS
 66
1
 70
0
  0
VERTEX
  8
0
 62
7
  6
CONTINUOUS
 10
205.5071454667
 20
106.0959296415
  0
VERTEX
  8
0
 62
7
  6
CONTINUOUS
 10
205.4674863969
 20
106.2395204868
  0
VERTEX
  8
0
 62
7
  6
CONTINUOUS
 10
205.4540224913
 20
106.3891451524
  0
SEQEND
  0
POLYLINE
  8
0
 62
7
  6
CONTINUOUS
 66
1
 70
0
  0
VERTEX
  8
0
 62
7
  6
CONTINUOUS
 10
203.350899516
 20
116.9226689744
  0
VERTEX
  8
0
 62
7
  6
CONTINUOUS
 10
203.3905585117
 20
116.7790785371
  0
VERTEX
  8
0
 62
7
  6
CONTINUOUS
 10
203.4040224913
 20
116.6294534635
  0
SEQEND
  0
LINE
  8
0
 62
7
  6
CONTINUOUS
 10
205.4540224913
 20
106.3891451524
 11
205.4540224913
 21
121.5092993079
  0
LINE
  8
0
 62
7
  6
CONTINUOUS
 10
206.9540224913
 20
106.3891451524
 11
206.9540224913
 21
121.509299308
  0
POLYLINE
  8
0
 62
7
  6
CONTINUOUS
 66
1
 70
0
  0
VERTEX
  8
0
 62
7
  6
CONTINUOUS
 10
206.9540224913
 20
106.3891451524
  0
VERTEX
  8
0
 62
7
  6
CONTINUOUS
 10
206.9405585117
 20
106.2395200789
  0
VERTEX
  8
0
 62
7
  6
CONTINUOUS
 10
206.900899516
 20
106.0959296415
  0
SEQEND
  0
POLYLINE
  8
0
 62
7
  6
CONTINUOUS
 66
1
 70
0
  0
VERTEX
  8
0
 62
7
  6
CONTINUOUS
 10
215.0571454667
 20
116.9226689744
  0
VERTEX
  8
0
 62
7
  6
CONTINUOUS
 10
215.1017382898
 20
117.0245651942
  0
VERTEX
  8
0
 62
7
  6
CONTINUOUS
 10
215.1597126903
 20
117.1285799933
  0
VERTEX
  8
0
 62
7
  6
CONTINUOUS
 10
215.2230054346
 20
117.2245296399
  0
VERTEX
  8
0
 62
7
  6
CONTINUOUS
 10
215.2757860071
 20
117.2994935732
  0
VERTEX
  8
0
 62
7
  6
CONTINUOUS
 10
215.294906398
 20
117.3280735998
  0
VERTEX
  8
0
 62
7
  6
CONTINUOUS
 10
215.3178240249
 20
117.3698915206
  0
VERTEX
  8
0
 62
7
  6
CONTINUOUS
 10
215.3238834427
 20
117.3979389975
  0
VERTEX
  8
0
 62
7
  6
CONTINUOUS
 10
215.3144068001
 20
117.4157614217
  0
VERTEX
  8
0
 62
7
  6
CONTINUOUS
 10
215.2874633204
 20
117.4226689744
  0
SEQEND
  0
POLYLINE
  8
0
 62
7
  6
CONTINUOUS
 66
1
 70
0
  0
VERTEX
  8
0
 62
7
  6
CONTINUOUS
 10
212.900899516
 20
106.0959296415
  0
VERTEX
  8
0
 62
7
  6
CONTINUOUS
 10
212.8562961972
 20
105.9940123516
  0
VERTEX
  8
0
 62
7
  6
CONTINUOUS
 10
212.7982993223
 20
105.8899649788
  0
VERTEX
  8
0
 62
7
  6
CONTINUOUS
 10
212.7350100748
 20
105.7940267001
  0
VERTEX
  8
0
 62
7
  6
CONTINUOUS
 10
212.6822910997
 20
105.7191515116
  0
VERTEX
  8
0
 62
7
  6
CONTINUOUS
 10
212.663166722
 20
105.69056906
  0
VERTEX
  8
0
 62
7
  6
CONTINUOUS
 10
212.6402297637
 20
105.6487284812
  0
VERTEX
  8
0
 62
7
  6
CONTINUOUS
 10
212.6341608726
 20
105.6206688304
  0
VERTEX
  8
0
 62
7
  6
CONTINUOUS
 10
212.6436340525
 20
105.6028402047
  0
VERTEX
  8
0
 62
7
  6
CONTINUOUS
 10
212.6705816623
 20
105.5959296415
  0
SEQEND
  0
LINE
  8
0
 62
7
  6
CONTINUOUS
 10
218.4378901239
 20
115.726778998
 11
218.4701548588
 21
115.6783413225
  0
POLYLINE
  8
0
 62
7
  6
CONTINUOUS
 66
1
 70
0
  0
VERTEX
  8
0
 62
7
  6
CONTINUOUS
 10
213.3540224913
 20
122.2590441794
  0
VERTEX
  8
0
 62
7
  6
CONTINUOUS
 10
213.3456489519
 20
122.2738352085
  0
VERTEX
  8
0
 62
7
  6
CONTINUOUS
 10
213.3207398901
 20
122.2879936165
  0
VERTEX
  8
0
 62
7
  6
CONTINUOUS
 10
213.2800215423
 20
122.3010703901
  0
VERTEX
  8
0
 62
7
  6
CONTINUOUS
 10
213.22476105
 20
122.3126559213
  0
VERTEX
  8
0
 62
7
  6
CONTINUOUS
 10
213.1922160732
 20
122.3177747668
  0
VERTEX
  8
0
 62
7
  6
CONTINUOUS
 10
213.1186370835
 20
122.3264663959
  0
VERTEX
  8
0
 62
7
  6
CONTINUOUS
 10
213.0358326266
 20
122.3328790907
  0
VERTEX
  8
0
 62
7
  6
CONTINUOUS
 10
212.9466107281
 20
122.3368126694
  0
VERTEX
  8
0
 62
7
  6
CONTINUOUS
 10
212.8540224913
 20
122.338139789
  0
SEQEND
  0
POLYLINE
  8
0
 62
7
  6
CONTINUOUS
 66
1
 70
0
  0
VERTEX
  8
0
 62
7
  6
CONTINUOUS
 10
211.5071454667
 20
106.0959296415
  0
VERTEX
  8
0
 62
7
  6
CONTINUOUS
 10
211.4674863969
 20
106.2395204868
  0
VERTEX
  8
0
 62
7
  6
CONTINUOUS
 10
211.4540224913
 20
106.3891451524
  0
SEQEND
  0
LINE
  8
0
 62
7
  6
CONTINUOUS
 10
211.4540224913
 20
106.3891451524
 11
211.4540224913
 21
121.5092993079
  0
LINE
  8
0
 62
7
  6
CONTINUOUS
 10
212.9540224913
 20
106.3891451524
 11
212.9540224913
 21
121.509299308
  0
LINE
  8
0
 62
7
  6
CONTINUOUS
 10
213.3540224913
 20
117.9226689744
 11
213.3540224913
 21
124.774299308
  0
LINE
  8
0
 62
7
  6
CONTINUOUS
 10
214.4040224913
 20
105.0959296415
 11
214.4040224913
 21
98.244299308
  0
LINE
  8
0
 62
7
  6
CONTINUOUS
 10
215.0040224913
 20
101.5092993088
 11
215.0040224913
 21
116.6294534635
  0
LINE
  8
0
 62
7
  6
CONTINUOUS
 10
216.5040224913
 20
101.5092993081
 11
216.5040224913
 21
116.6294534635
  0
LINE
  8
0
 62
7
  6
CONTINUOUS
 10
218.3540224913
 20
116.9226689744
 11
218.3540224913
 21
116.0039681983
  0
LINE
  8
0
 62
7
  6
CONTINUOUS
 10
218.3540224913
 20
105.7345791297
 11
218.3540224913
 21
98.244299308
  0
LINE
  8
0
 62
7
  6
CONTINUOUS
 10
218.5540224913
 20
115.4011521222
 11
218.5540224913
 21
106.3345791297
  0
POLYLINE
  8
0
 62
7
  6
CONTINUOUS
 66
1
 70
0
  0
VERTEX
  8
0
 62
7
  6
CONTINUOUS
 10
212.9540224913
 20
106.3891451524
  0
VERTEX
  8
0
 62
7
  6
CONTINUOUS
 10
212.9405585117
 20
106.2395200789
  0
VERTEX
  8
0
 62
7
  6
CONTINUOUS
 10
212.900899516
 20
106.0959296415
  0
SEQEND
  0
POLYLINE
  8
0
 62
7
  6
CONTINUOUS
 66
1
 70
0
  0
VERTEX
  8
0
 62
7
  6
CONTINUOUS
 10
215.0040224913
 20
116.6294534635
  0
VERTEX
  8
0
 62
7
  6
CONTINUOUS
 10
215.0174863969
 20
116.7790781291
  0
VERTEX
  8
0
 62
7
  6
CONTINUOUS
 10
215.0571454667
 20
116.9226689744
  0
SEQEND
  0
POLYLINE
  8
0
 62
7
  6
CONTINUOUS
 66
1
 70
0
  0
VERTEX
  8
0
 62
7
  6
CONTINUOUS
 10
216.450899516
 20
116.9226689744
  0
VERTEX
  8
0
 62
7
  6
CONTINUOUS
 10
216.4905585117
 20
116.7790785371
  0
VERTEX
  8
0
 62
7
  6
CONTINUOUS
 10
216.5040224913
 20
116.6294534635
  0
SEQEND
  0
LINE
  8
0
 62
7
  6
CONTINUOUS
 10
277.2617697596
 20
97.744299308
 11
279.2058890975
 21
97.744299308
  0
LINE
  8
0
 62
7
  6
CONTINUOUS
 10
282.3838294286
 20
100.759299308
 11
288.0838294286
 21
100.759299308
  0
LINE
  8
0
 62
7
  6
CONTINUOUS
 10
282.3838294286
 20
100.6804588269
 11
282.219318506
 21
100.7059426946
  0
LINE
  8
0
 62
7
  6
CONTINUOUS
 10
282.219318506
 20
100.7059426946
 11
282.0632029766
 21
100.7306049994
  0
LINE
  8
0
 62
7
  6
CONTINUOUS
 10
282.0632029766
 20
100.7306049994
 11
281.8838294286
 21
100.7595544366
  0
LINE
  8
1_AXIS
 62
2
  6
CONTINUOUS
 10
279.2838294286
 20
101.984299308
 11
277.1838294286
 21
101.984299308
  0
LINE
  8
1_AXIS
 62
2
  6
CENTER
 10
272.9838294286
 20
101.984299308
 11
271.9938294286
 21
101.984299308
  0
LINE
  8
1_AXIS
 62
2
  6
CENTER
 10
283.4838294286
 20
101.984299308
 11
284.4738294286
 21
101.984299308
  0
LINE
  8
0
 62
7
  6
CONTINUOUS
 10
273.8838294286
 20
121.034299308
 11
273.8838294286
 21
101.984299308
  0
LINE
  8
0
 62
7
  6
CONTINUOUS
 10
275.5838294286
 20
115.8526859108
 11
275.5838294286
 21
105.6721170909
  0
LINE
  8
0
 62
7
  6
CONTINUOUS
 10
280.2509902494
 20
116.4614373789
 11
280.0751781057
 21
116.3878556088
  0
POLYLINE
  8
0
 62
7
  6
CONTINUOUS
 66
1
 70
0
  0
VERTEX
  8
0
 62
7
  6
CONTINUOUS
 10
279.1475580535
 20
124.774299308
  0
VERTEX
  8
0
 62
7
  6
CONTINUOUS
 10
279.1607981226
 20
124.8850763979
  0
VERTEX
  8
0
 62
7
  6
CONTINUOUS
 10
279.1933958112
 20
125.1646067746
  0
SEQEND
  0
POLYLINE
  8
0
 62
7
  6
CONTINUOUS
 66
1
 70
0
  0
VERTEX
  8
0
 62
7
  6
CONTINUOUS
 10
279.1933958112
 20
97.8539918413
  0
VERTEX
  8
0
 62
7
  6
CONTINUOUS
 10
279.184257396
 20
97.9333296653
  0
VERTEX
  8
0
 62
7
  6
CONTINUOUS
 10
279.1475580535
 20
98.244299308
  0
SEQEND
  0
LINE
  8
1_AXIS
 62
2
  6
CONTINUOUS
 10
278.2338294286
 20
122.084299308
 11
278.2338294286
 21
119.984299308
  0
LINE
  8
1_AXIS
 62
2
  6
CENTER
 10
278.2338294286
 20
115.784299308
 11
278.2338294286
 21
114.794299308
  0
LINE
  8
1_AXIS
 62
2
  6
CONTINUOUS
 10
278.2338294286
 20
103.034299308
 11
278.2338294286
 21
100.934299308
  0
LINE
  8
1_AXIS
 62
2
  6
CENTER
 10
278.2338294286
 20
96.734299308
 11
278.2338294286
 21
95.744299308
  0
LINE
  8
1_AXIS
 62
2
  6
CENTER
 10
278.2338294286
 20
107.234299308
 11
278.2338294286
 21
108.224299308
  0
LINE
  8
1_AXIS
 62
2
  6
CENTER
 10
278.2338294286
 20
126.284299308
 11
278.2338294286
 21
127.274299308
  0
LINE
  8
0
 62
7
  6
CONTINUOUS
 10
279.1933958112
 20
125.1646067746
 11
279.2058890975
 21
125.274299308
  0
LINE
  8
0
 62
7
  6
CONTINUOUS
 10
279.2058890975
 20
97.744299308
 11
279.1933958112
 21
97.8539918413
  0
LINE
  8
0
 62
7
  6
CONTINUOUS
 10
277.2617697596
 20
97.744299308
 11
277.2834014611
 21
97.9333296653
  0
POLYLINE
  8
0
 62
7
  6
CONTINUOUS
 66
1
 70
0
  0
VERTEX
  8
0
 62
7
  6
CONTINUOUS
 10
277.2834014611
 20
97.9333296653
  0
VERTEX
  8
0
 62
7
  6
CONTINUOUS
 10
277.3068607345
 20
98.133522218
  0
VERTEX
  8
0
 62
7
  6
CONTINUOUS
 10
277.3201008036
 20
98.244299308
  0
SEQEND
  0
LINE
  8
0
 62
7
  6
CONTINUOUS
 10
277.3201008036
 20
124.774299308
 11
277.2944347583
 21
124.9904917917
  0
POLYLINE
  8
0
 62
7
  6
CONTINUOUS
 66
1
 70
0
  0
VERTEX
  8
0
 62
7
  6
CONTINUOUS
 10
277.2944347583
 20
124.9904917917
  0
VERTEX
  8
0
 62
7
  6
CONTINUOUS
 10
277.263201204
 20
125.2616590817
  0
VERTEX
  8
0
 62
7
  6
CONTINUOUS
 10
277.2617697596
 20
125.274299308
  0
SEQEND
  0
LINE
  8
1_AXIS
 62
2
  6
CENTER
 10
271.3838290647
 20
111.509299308
 11
291.5838294286
 21
111.509299308
  0
LINE
  8
0
 62
7
  6
CONTINUOUS
 10
282.3737273771
 20
121.509299308
 11
282.3737273868
 21
117.4226689744
  0
LINE
  8
0
 62
7
  6
CONTINUOUS
 10
282.3838294286
 20
122.338139789
 11
282.3838294286
 21
121.8834650466
  0
LINE
  8
0
 62
7
  6
CONTINUOUS
 10
282.3838294286
 20
100.6804588269
 11
282.3838294286
 21
116.9226689744
  0
POLYLINE
  8
0
 62
7
  6
CONTINUOUS
 66
1
 70
0
  0
VERTEX
  8
0
 62
7
  6
CONTINUOUS
 10
282.3737273771
 20
121.509299308
  0
VERTEX
  8
0
 62
7
  6
CONTINUOUS
 10
282.3759231087
 20
121.6397650808
  0
VERTEX
  8
0
 62
7
  6
CONTINUOUS
 10
282.3808530867
 20
121.7666230787
  0
VERTEX
  8
0
 62
7
  6
CONTINUOUS
 10
282.3838294286
 20
121.8834650466
  0
SEQEND
  0
LINE
  8
0
 62
7
  6
CONTINUOUS
 10
279.8909695545
 20
116.3526859108
 11
276.0726737298
 21
116.3526859108
  0
LINE
  8
0
 62
7
  6
CONTINUOUS
 10
281.8838294286
 20
117.4226689744
 11
282.3838294404
 21
117.4226689744
  0
LINE
  8
0
 62
7
  6
CONTINUOUS
 10
288.5721816602
 20
115.2918484202
 11
282.3838136857
 21
117.4226743951
  0
LINE
  8
0
 62
7
  6
CONTINUOUS
 10
289.5838294286
 20
102.259299308
 11
289.5838294286
 21
120.759299308
  0
LINE
  8
1_AXIS
 62
2
  6
CONTINUOUS
 10
279.2838294286
 20
121.034299308
 11
277.1838294286
 21
121.034299308
  0
LINE
  8
1_AXIS
 62
2
  6
CENTER
 10
272.9838294286
 20
121.034299308
 11
271.9938294286
 21
121.034299308
  0
LINE
  8
1_AXIS
 62
2
  6
CENTER
 10
283.4838294286
 20
121.034299308
 11
284.4738294286
 21
121.034299308
  0
LINE
  8
0
 62
7
  6
CONTINUOUS
 10
281.8838294286
 20
122.2590441794
 11
282.0632029766
 21
122.2879936165
  0
LINE
  8
0
 62
7
  6
CONTINUOUS
 10
282.0632029766
 20
122.2879936165
 11
282.2521025625
 21
122.3177747668
  0
LINE
  8
0
 62
7
  6
CONTINUOUS
 10
282.2521025625
 20
122.3177747668
 11
282.3838294286
 21
122.338139789
  0
LINE
  8
0
 62
7
  6
CONTINUOUS
 10
288.0838294286
 20
122.259299308
 11
282.3838294286
 21
122.259299308
  0
LINE
  8
0
 62
7
  6
CONTINUOUS
 10
277.2617697596
 20
125.274299308
 11
279.2058890975
 21
125.274299308
  0
ARC
  8
0
 62
7
  6
CONTINUOUS
 10
66.8540224913
 20
199.8042446535
 40
0.5
 50
180.0
 51
270.0
  0
ARC
  8
0
 62
7
  6
CONTINUOUS
 10
72.4540224913
 20
199.8042446535
 40
0.5
 50
270.0
 51
360.0
  0
ARC
  8
0
 62
7
  6
CONTINUOUS
 10
69.8040224913
 20
199.8042446535
 40
0.5
 50
270.0
 51
360.0
  0
ARC
  8
0
 62
7
  6
CONTINUOUS
 10
91.1040224913
 20
199.8042446535
 40
0.5
 50
270.0
 51
360.0
  0
ARC
  8
0
 62
7
  6
CONTINUOUS
 10
89.1540224913
 20
199.8042446535
 40
0.5
 50
270.0
 51
360.0
  0
ARC
  8
0
 62
7
  6
CONTINUOUS
 10
98.1040224913
 20
199.8042446535
 40
0.5
 50
180.0
 51
270.0
  0
ARC
  8
0
 62
7
  6
CONTINUOUS
 10
100.0540224913
 20
199.8042446535
 40
0.5
 50
180.0
 51
270.0
  0
ARC
  8
0
 62
7
  6
CONTINUOUS
 10
79.0040224913
 20
199.8042446535
 40
0.5
 50
180.0
 51
270.0
  0
ARC
  8
0
 62
7
  6
CONTINUOUS
 10
80.9540224913
 20
199.8042446535
 40
0.5
 50
180.0
 51
270.0
  0
ARC
  8
0
 62
7
  6
CONTINUOUS
 10
66.6540224913
 20
201.5042446535
 40
0.5
 50
180.0
 51
233.0214079084
  0
ARC
  8
0
 62
7
  6
CONTINUOUS
 10
73.4540224913
 20
204.9042446535
 40
0.5
 50
94.2557403056
 51
180.0
  0
ARC
  8
0
 62
7
  6
CONTINUOUS
 10
110.2040224913
 20
199.8042446535
 40
0.5
 50
270.0
 51
360.0
  0
ARC
  8
0
 62
7
  6
CONTINUOUS
 10
108.2540224913
 20
199.8042446535
 40
0.5
 50
270.0
 51
360.0
  0
ARC
  8
0
 62
7
  6
CONTINUOUS
 10
129.3040224913
 20
199.8042446535
 40
0.5
 50
270.0
 51
360.0
  0
ARC
  8
0
 62
7
  6
CONTINUOUS
 10
127.3540224913
 20
199.8042446535
 40
0.5
 50
270.0
 51
360.0
  0
ARC
  8
0
 62
7
  6
CONTINUOUS
 10
136.3040224913
 20
199.8042446535
 40
0.5
 50
180.0
 51
270.0
  0
ARC
  8
0
 62
7
  6
CONTINUOUS
 10
138.2540224913
 20
199.8042446535
 40
0.5
 50
180.0
 51
270.0
  0
ARC
  8
0
 62
7
  6
CONTINUOUS
 10
117.2040224913
 20
199.8042446535
 40
0.5
 50
180.0
 51
270.0
  0
ARC
  8
0
 62
7
  6
CONTINUOUS
 10
119.1540224913
 20
199.8042446535
 40
0.5
 50
180.0
 51
270.0
  0
ARC
  8
0
 62
7
  6
CONTINUOUS
 10
100.0540224913
 20
207.3042446535
 40
0.5
 50
90.0
 51
180.0
  0
ARC
  8
0
 62
7
  6
CONTINUOUS
 10
69.8040224913
 20
207.3042446535
 40
0.5
 50
0.0
 51
90.0
  0
ARC
  8
0
 62
7
  6
CONTINUOUS
 10
89.1540224913
 20
207.3042446535
 40
0.5
 50
0.0
 51
90.0
  0
ARC
  8
0
 62
7
  6
CONTINUOUS
 10
80.9540224913
 20
207.3042446535
 40
0.5
 50
90.0
 51
180.0
  0
ARC
  8
0
 62
7
  6
CONTINUOUS
 10
66.6540224913
 20
207.3042446535
 40
0.5
 50
90.0
 51
180.0
  0
ARC
  8
0
 62
7
  6
CONTINUOUS
 10
66.8540224913
 20
207.3042446535
 40
0.5
 50
90.0
 51
180.0
  0
ARC
  8
0
 62
7
  6
CONTINUOUS
 10
72.5040224913
 20
214.2542446535
 40
0.75
 50
0.00000669
 51
179.9999789868
  0
ARC
  8
0
 62
7
  6
CONTINUOUS
 10
78.5040224913
 20
214.2542446535
 40
0.75
 50
0.00000669
 51
179.9999789868
  0
ARC
  8
0
 62
7
  6
CONTINUOUS
 10
91.6040224913
 20
214.2542446535
 40
0.75
 50
0.00000669
 51
179.9999789868
  0
ARC
  8
0
 62
7
  6
CONTINUOUS
 10
97.6040224913
 20
214.2542446535
 40
0.75
 50
0.00000669
 51
179.9999789868
  0
ARC
  8
0
 62
7
  6
CONTINUOUS
 10
68.9540224913
 20
214.2542446535
 40
0.75
 50
0.0000066287
 51
179.9999791816
  0
ARC
  8
0
 62
7
  6
CONTINUOUS
 10
82.0540224913
 20
214.2542446535
 40
0.75
 50
0.0000066287
 51
179.9999791816
  0
ARC
  8
0
 62
7
  6
CONTINUOUS
 10
88.0540224913
 20
214.2542446535
 40
0.75
 50
0.0000066287
 51
179.9999791816
  0
ARC
  8
0
 62
7
  6
CONTINUOUS
 10
101.1540224913
 20
214.2542446535
 40
0.75
 50
0.0000066287
 51
179.9999791816
  0
ARC
  8
0
 62
7
  6
CONTINUOUS
 10
119.1540224913
 20
207.3042446535
 40
0.5
 50
90.0
 51
180.0
  0
ARC
  8
0
 62
7
  6
CONTINUOUS
 10
138.2540224913
 20
207.3042446535
 40
0.5
 50
90.0
 51
180.0
  0
ARC
  8
0
 62
7
  6
CONTINUOUS
 10
108.2540224913
 20
207.3042446535
 40
0.5
 50
0.0
 51
90.0
  0
ARC
  8
0
 62
7
  6
CONTINUOUS
 10
127.3540224913
 20
207.3042446535
 40
0.5
 50
0.0
 51
90.0
  0
ARC
  8
0
 62
7
  6
CONTINUOUS
 10
110.7040224913
 20
214.2542446535
 40
0.75
 50
0.00000669
 51
179.9999789868
  0
ARC
  8
0
 62
7
  6
CONTINUOUS
 10
116.7040224913
 20
214.2542446535
 40
0.75
 50
0.00000669
 51
179.9999789868
  0
ARC
  8
0
 62
7
  6
CONTINUOUS
 10
129.8040224913
 20
214.2542446535
 40
0.75
 50
0.00000669
 51
179.9999789868
  0
ARC
  8
0
 62
7
  6
CONTINUOUS
 10
135.8040224913
 20
214.2542446535
 40
0.75
 50
0.00000669
 51
179.9999789868
  0
ARC
  8
0
 62
7
  6
CONTINUOUS
 10
107.1540224913
 20
214.2542446535
 40
0.75
 50
0.0000066287
 51
179.9999791816
  0
ARC
  8
0
 62
7
  6
CONTINUOUS
 10
120.2540224913
 20
214.2542446535
 40
0.75
 50
0.0000066287
 51
179.9999791816
  0
ARC
  8
0
 62
7
  6
CONTINUOUS
 10
126.2540224913
 20
214.2542446535
 40
0.75
 50
0.0000066287
 51
179.9999791816
  0
ARC
  8
0
 62
7
  6
CONTINUOUS
 10
139.3540224913
 20
214.2542446535
 40
0.75
 50
0.0000066287
 51
179.9999791816
  0
ARC
  8
0
 62
7
  6
CONTINUOUS
 10
148.4040224913
 20
199.8042446535
 40
0.5
 50
270.0
 51
360.0
  0
ARC
  8
0
 62
7
  6
CONTINUOUS
 10
146.4540224913
 20
199.8042446535
 40
0.5
 50
270.0
 51
360.0
  0
ARC
  8
0
 62
7
  6
CONTINUOUS
 10
167.5040224913
 20
199.8042446535
 40
0.5
 50
270.0
 51
360.0
  0
ARC
  8
0
 62
7
  6
CONTINUOUS
 10
165.5540224913
 20
199.8042446535
 40
0.5
 50
270.0
 51
360.0
  0
ARC
  8
0
 62
7
  6
CONTINUOUS
 10
174.5040224913
 20
199.8042446535
 40
0.5
 50
180.0
 51
270.0
  0
ARC
  8
0
 62
7
  6
CONTINUOUS
 10
176.4540224913
 20
199.8042446535
 40
0.5
 50
180.0
 51
270.0
  0
ARC
  8
0
 62
7
  6
CONTINUOUS
 10
155.4040224913
 20
199.8042446535
 40
0.5
 50
180.0
 51
270.0
  0
ARC
  8
0
 62
7
  6
CONTINUOUS
 10
157.3540224913
 20
199.8042446535
 40
0.5
 50
180.0
 51
270.0
  0
ARC
  8
0
 62
7
  6
CONTINUOUS
 10
217.8540224913
 20
199.8042446535
 40
0.5
 50
270.0
 51
360.0
  0
ARC
  8
0
 62
7
  6
CONTINUOUS
 10
186.6040224913
 20
199.8042446535
 40
0.5
 50
270.0
 51
360.0
  0
ARC
  8
0
 62
7
  6
CONTINUOUS
 10
184.6540224913
 20
199.8042446535
 40
0.5
 50
270.0
 51
360.0
  0
ARC
  8
0
 62
7
  6
CONTINUOUS
 10
212.2540224913
 20
199.8042446535
 40
0.5
 50
180.0
 51
270.0
  0
ARC
  8
0
 62
7
  6
CONTINUOUS
 10
214.9040224913
 20
199.8042446535
 40
0.5
 50
180.0
 51
270.0
  0
ARC
  8
0
 62
7
  6
CONTINUOUS
 10
193.6040224913
 20
199.8042446535
 40
0.5
 50
180.0
 51
270.0
  0
ARC
  8
0
 62
7
  6
CONTINUOUS
 10
195.5540224913
 20
199.8042446535
 40
0.5
 50
180.0
 51
270.0
  0
ARC
  8
0
 62
7
  6
CONTINUOUS
 10
205.7040224913
 20
199.8042446535
 40
0.5
 50
270.0
 51
360.0
  0
ARC
  8
0
 62
7
  6
CONTINUOUS
 10
203.7540224913
 20
199.8042446535
 40
0.5
 50
270.0
 51
360.0
  0
ARC
  8
0
 62
7
  6
CONTINUOUS
 10
218.0540224913
 20
201.5042446535
 40
0.5
 50
306.9785926752
 51
360.0
  0
ARC
  8
0
 62
7
  6
CONTINUOUS
 10
211.2540224913
 20
204.9042446535
 40
0.5
 50
0.0
 51
85.7442531848
  0
ARC
  8
0
 62
7
  6
CONTINUOUS
 10
157.3540224913
 20
207.3042446535
 40
0.5
 50
90.0
 51
180.0
  0
ARC
  8
0
 62
7
  6
CONTINUOUS
 10
176.4540224913
 20
207.3042446535
 40
0.5
 50
90.0
 51
180.0
  0
ARC
  8
0
 62
7
  6
CONTINUOUS
 10
165.5540224913
 20
207.3042446535
 40
0.5
 50
0.0
 51
90.0
  0
ARC
  8
0
 62
7
  6
CONTINUOUS
 10
146.4540224913
 20
207.3042446535
 40
0.5
 50
0.0
 51
90.0
  0
ARC
  8
0
 62
7
  6
CONTINUOUS
 10
174.0040224913
 20
214.2542446535
 40
0.75
 50
0.00000669
 51
179.9999789868
  0
ARC
  8
0
 62
7
  6
CONTINUOUS
 10
168.0040224913
 20
214.2542446535
 40
0.75
 50
0.00000669
 51
179.9999789868
  0
ARC
  8
0
 62
7
  6
CONTINUOUS
 10
154.9040224913
 20
214.2542446535
 40
0.75
 50
0.00000669
 51
179.9999789868
  0
ARC
  8
0
 62
7
  6
CONTINUOUS
 10
148.9040224913
 20
214.2542446535
 40
0.75
 50
0.00000669
 51
179.9999789868
  0
ARC
  8
0
 62
7
  6
CONTINUOUS
 10
177.5540224913
 20
214.2542446535
 40
0.75
 50
0.0000066287
 51
179.9999791816
  0
ARC
  8
0
 62
7
  6
CONTINUOUS
 10
164.4540224913
 20
214.2542446535
 40
0.75
 50
0.0000066287
 51
179.9999791816
  0
ARC
  8
0
 62
7
  6
CONTINUOUS
 10
158.4540224913
 20
214.2542446535
 40
0.75
 50
0.0000066287
 51
179.9999791816
  0
ARC
  8
0
 62
7
  6
CONTINUOUS
 10
145.3540224913
 20
214.2542446535
 40
0.75
 50
0.0000066287
 51
179.9999791816
  0
ARC
  8
0
 62
7
  6
CONTINUOUS
 10
214.9040224913
 20
207.3042446535
 40
0.5
 50
90.0
 51
180.0
  0
ARC
  8
0
 62
7
  6
CONTINUOUS
 10
184.6540224913
 20
207.3042446535
 40
0.5
 50
0.0
 51
90.0
  0
ARC
  8
0
 62
7
  6
CONTINUOUS
 10
195.5540224913
 20
207.3042446535
 40
0.5
 50
90.0
 51
180.0
  0
ARC
  8
0
 62
7
  6
CONTINUOUS
 10
203.7540224913
 20
207.3042446535
 40
0.5
 50
0.0
 51
90.0
  0
ARC
  8
0
 62
7
  6
CONTINUOUS
 10
217.8540224913
 20
207.3042446535
 40
0.5
 50
0.0
 51
90.0
  0
ARC
  8
0
 62
7
  6
CONTINUOUS
 10
218.0540224913
 20
207.3042446535
 40
0.5
 50
0.0
 51
90.0
  0
ARC
  8
0
 62
7
  6
CONTINUOUS
 10
212.2040224913
 20
214.2542446535
 40
0.75
 50
0.00000669
 51
179.9999789868
  0
ARC
  8
0
 62
7
  6
CONTINUOUS
 10
206.2040224913
 20
214.2542446535
 40
0.75
 50
0.00000669
 51
179.9999789868
  0
ARC
  8
0
 62
7
  6
CONTINUOUS
 10
193.1040224913
 20
214.2542446535
 40
0.75
 50
0.00000669
 51
179.9999789868
  0
ARC
  8
0
 62
7
  6
CONTINUOUS
 10
187.1040224913
 20
214.2542446535
 40
0.75
 50
0.00000669
 51
179.9999789868
  0
ARC
  8
0
 62
7
  6
CONTINUOUS
 10
215.7540224913
 20
214.2542446535
 40
0.75
 50
0.0000066287
 51
179.9999791816
  0
ARC
  8
0
 62
7
  6
CONTINUOUS
 10
202.6540224913
 20
214.2542446535
 40
0.75
 50
0.0000066287
 51
179.9999791816
  0
ARC
  8
0
 62
7
  6
CONTINUOUS
 10
196.6540224913
 20
214.2542446535
 40
0.75
 50
0.0000066287
 51
179.9999791816
  0
ARC
  8
0
 62
7
  6
CONTINUOUS
 10
183.5540224913
 20
214.2542446535
 40
0.75
 50
0.0000066287
 51
179.9999791816
  0
ARC
  8
0
 62
7
  6
CONTINUOUS
 10
68.9540224913
 20
101.509299308
 40
0.75
 50
180.0000132702
 51
359.9999958084
  0
ARC
  8
0
 62
7
  6
CONTINUOUS
 10
82.0540224913
 20
101.509299308
 40
0.75
 50
180.0000132702
 51
359.9999958084
  0
ARC
  8
0
 62
7
  6
CONTINUOUS
 10
88.0540224913
 20
101.509299308
 40
0.75
 50
180.0000132702
 51
359.9999958084
  0
ARC
  8
0
 62
7
  6
CONTINUOUS
 10
101.1540224913
 20
101.509299308
 40
0.75
 50
180.0000132702
 51
359.9999958084
  0
ARC
  8
0
 62
7
  6
CONTINUOUS
 10
100.0540224913
 20
98.244299308
 40
0.5
 50
180.0
 51
270.0
  0
ARC
  8
0
 62
7
  6
CONTINUOUS
 10
66.8540224913
 20
98.244299308
 40
0.5
 50
180.0
 51
270.0
  0
ARC
  8
0
 62
7
  6
CONTINUOUS
 10
69.8040224913
 20
98.244299308
 40
0.5
 50
270.0
 51
360.0
  0
ARC
  8
0
 62
7
  6
CONTINUOUS
 10
89.1540224913
 20
98.244299308
 40
0.5
 50
270.0
 51
360.0
  0
ARC
  8
0
 62
7
  6
CONTINUOUS
 10
80.9540224913
 20
98.244299308
 40
0.5
 50
180.0
 51
270.0
  0
ARC
  8
0
 62
7
  6
CONTINUOUS
 10
79.9540224913
 20
105.0959296415
 40
0.5
 50
0.0
 51
90.0
  0
ARC
  8
0
 62
7
  6
CONTINUOUS
 10
70.8040221931
 20
105.0959299398
 40
0.4999998509
 50
89.9999658243
 51
180.0000341757
  0
ARC
  8
0
 62
7
  6
CONTINUOUS
 10
66.6540224913
 20
106.3345791297
 40
0.5
 50
180.0
 51
216.8698976458
  0
ARC
  8
0
 62
7
  6
CONTINUOUS
 10
65.8540224913
 20
105.7345791297
 40
0.5
 50
0.0
 51
36.8698976458
  0
ARC
  8
0
 62
7
  6
CONTINUOUS
 10
99.0540224913
 20
105.0959296415
 40
0.5
 50
0.0
 51
90.0
  0
ARC
  8
0
 62
7
  6
CONTINUOUS
 10
90.1540221931
 20
105.0959299398
 40
0.4999998509
 50
89.9999658243
 51
180.0000341757
  0
ARC
  8
0
 62
7
  6
CONTINUOUS
 10
107.1540224913
 20
101.509299308
 40
0.75
 50
180.0000132702
 51
359.9999958084
  0
ARC
  8
0
 62
7
  6
CONTINUOUS
 10
120.2540224913
 20
101.509299308
 40
0.75
 50
180.0000132702
 51
359.9999958084
  0
ARC
  8
0
 62
7
  6
CONTINUOUS
 10
126.2540224913
 20
101.509299308
 40
0.75
 50
180.0000132702
 51
359.9999958084
  0
ARC
  8
0
 62
7
  6
CONTINUOUS
 10
139.3540224913
 20
101.509299308
 40
0.75
 50
180.0000132702
 51
359.9999958084
  0
ARC
  8
0
 62
7
  6
CONTINUOUS
 10
119.1540224913
 20
98.244299308
 40
0.5
 50
180.0
 51
270.0
  0
ARC
  8
0
 62
7
  6
CONTINUOUS
 10
138.2540224913
 20
98.244299308
 40
0.5
 50
180.0
 51
270.0
  0
ARC
  8
0
 62
7
  6
CONTINUOUS
 10
108.2540224913
 20
98.244299308
 40
0.5
 50
270.0
 51
360.0
  0
ARC
  8
0
 62
7
  6
CONTINUOUS
 10
127.3540224913
 20
98.244299308
 40
0.5
 50
270.0
 51
360.0
  0
ARC
  8
0
 62
7
  6
CONTINUOUS
 10
137.2540224913
 20
105.0959296415
 40
0.5
 50
0.0
 51
90.0
  0
ARC
  8
0
 62
7
  6
CONTINUOUS
 10
118.1540224913
 20
105.0959296415
 40
0.5
 50
0.0
 51
90.0
  0
ARC
  8
0
 62
7
  6
CONTINUOUS
 10
128.3540221931
 20
105.0959299398
 40
0.4999998509
 50
89.9999658243
 51
180.0000341757
  0
ARC
  8
0
 62
7
  6
CONTINUOUS
 10
109.2540221931
 20
105.0959299398
 40
0.4999998509
 50
89.9999658243
 51
180.0000341757
  0
ARC
  8
0
 62
7
  6
CONTINUOUS
 10
66.6540224913
 20
115.4011521222
 40
0.5
 50
146.3320887789
 51
180.0
  0
ARC
  8
0
 62
7
  6
CONTINUOUS
 10
65.8540224913
 20
116.0039681983
 40
0.5
 50
326.3320887789
 51
360.0
  0
ARC
  8
0
 62
7
  6
CONTINUOUS
 10
70.8540224913
 20
117.9226689744
 40
0.5
 50
270.0
 51
360.0
  0
ARC
  8
0
 62
7
  6
CONTINUOUS
 10
80.6040224913
 20
117.9226689744
 40
0.5
 50
180.0
 51
270.0
  0
ARC
  8
0
 62
7
  6
CONTINUOUS
 10
99.7040224913
 20
117.9226689744
 40
0.5
 50
180.0
 51
270.0
  0
ARC
  8
0
 62
7
  6
CONTINUOUS
 10
89.5040224913
 20
117.9226689744
 40
0.5
 50
270.0
 51
360.0
  0
ARC
  8
0
 62
7
  6
CONTINUOUS
 10
72.5040224913
 20
121.509299308
 40
0.75
 50
0.0000066245
 51
179.9999791903
  0
ARC
  8
0
 62
7
  6
CONTINUOUS
 10
78.5040224913
 20
121.509299308
 40
0.75
 50
0.0000066245
 51
179.9999791903
  0
ARC
  8
0
 62
7
  6
CONTINUOUS
 10
91.6040224913
 20
121.509299308
 40
0.75
 50
0.0000066245
 51
179.9999791903
  0
ARC
  8
0
 62
7
  6
CONTINUOUS
 10
97.6040224913
 20
121.509299308
 40
0.75
 50
0.0000066245
 51
179.9999791903
  0
ARC
  8
0
 62
7
  6
CONTINUOUS
 10
98.7040224913
 20
124.774299308
 40
0.5
 50
0.0
 51
90.0
  0
ARC
  8
0
 62
7
  6
CONTINUOUS
 10
90.5040224913
 20
124.774299308
 40
0.5
 50
90.0
 51
180.0
  0
ARC
  8
0
 62
7
  6
CONTINUOUS
 10
71.8540224913
 20
124.774299308
 40
0.5
 50
90.0
 51
180.0
  0
ARC
  8
0
 62
7
  6
CONTINUOUS
 10
79.6040224913
 20
124.774299308
 40
0.5
 50
0.0
 51
90.0
  0
ARC
  8
0
 62
7
  6
CONTINUOUS
 10
118.8040224913
 20
117.9226689744
 40
0.5
 50
180.0
 51
270.0
  0
ARC
  8
0
 62
7
  6
CONTINUOUS
 10
137.9040224913
 20
117.9226689744
 40
0.5
 50
180.0
 51
270.0
  0
ARC
  8
0
 62
7
  6
CONTINUOUS
 10
108.6040224913
 20
117.9226689744
 40
0.5
 50
270.0
 51
360.0
  0
ARC
  8
0
 62
7
  6
CONTINUOUS
 10
127.7040224913
 20
117.9226689744
 40
0.5
 50
270.0
 51
360.0
  0
ARC
  8
0
 62
7
  6
CONTINUOUS
 10
110.7040224913
 20
121.509299308
 40
0.75
 50
0.0000066245
 51
179.9999791903
  0
ARC
  8
0
 62
7
  6
CONTINUOUS
 10
116.7040224913
 20
121.509299308
 40
0.75
 50
0.0000066245
 51
179.9999791903
  0
ARC
  8
0
 62
7
  6
CONTINUOUS
 10
129.8040224913
 20
121.509299308
 40
0.75
 50
0.0000066245
 51
179.9999791903
  0
ARC
  8
0
 62
7
  6
CONTINUOUS
 10
135.8040224913
 20
121.509299308
 40
0.75
 50
0.0000066245
 51
179.9999791903
  0
ARC
  8
0
 62
7
  6
CONTINUOUS
 10
117.8040224913
 20
124.774299308
 40
0.5
 50
0.0
 51
90.0
  0
ARC
  8
0
 62
7
  6
CONTINUOUS
 10
136.9040224913
 20
124.774299308
 40
0.5
 50
0.0
 51
90.0
  0
ARC
  8
0
 62
7
  6
CONTINUOUS
 10
128.7040224913
 20
124.774299308
 40
0.5
 50
90.0
 51
180.0
  0
ARC
  8
0
 62
7
  6
CONTINUOUS
 10
109.6040224913
 20
124.774299308
 40
0.5
 50
90.0
 51
180.0
  0
ARC
  8
0
 62
7
  6
CONTINUOUS
 10
177.5540224913
 20
101.509299308
 40
0.75
 50
180.0000132702
 51
359.9999958084
  0
ARC
  8
0
 62
7
  6
CONTINUOUS
 10
164.4540224913
 20
101.509299308
 40
0.75
 50
180.0000132702
 51
359.9999958084
  0
ARC
  8
0
 62
7
  6
CONTINUOUS
 10
158.4540224913
 20
101.509299308
 40
0.75
 50
180.0000132702
 51
359.9999958084
  0
ARC
  8
0
 62
7
  6
CONTINUOUS
 10
145.3540224913
 20
101.509299308
 40
0.75
 50
180.0000132702
 51
359.9999958084
  0
ARC
  8
0
 62
7
  6
CONTINUOUS
 10
157.3540224913
 20
98.244299308
 40
0.5
 50
180.0
 51
270.0
  0
ARC
  8
0
 62
7
  6
CONTINUOUS
 10
176.4540224913
 20
98.244299308
 40
0.5
 50
180.0
 51
270.0
  0
ARC
  8
0
 62
7
  6
CONTINUOUS
 10
165.5540224913
 20
98.244299308
 40
0.5
 50
270.0
 51
360.0
  0
ARC
  8
0
 62
7
  6
CONTINUOUS
 10
146.4540224913
 20
98.244299308
 40
0.5
 50
270.0
 51
360.0
  0
ARC
  8
0
 62
7
  6
CONTINUOUS
 10
175.4540224913
 20
105.0959296415
 40
0.5
 50
0.0
 51
90.0
  0
ARC
  8
0
 62
7
  6
CONTINUOUS
 10
156.3540224913
 20
105.0959296415
 40
0.5
 50
0.0
 51
90.0
  0
ARC
  8
0
 62
7
  6
CONTINUOUS
 10
166.5540221931
 20
105.0959299398
 40
0.4999998509
 50
89.9999658243
 51
180.0000341757
  0
ARC
  8
0
 62
7
  6
CONTINUOUS
 10
147.4540221931
 20
105.0959299398
 40
0.4999998509
 50
89.9999658243
 51
180.0000341757
  0
ARC
  8
0
 62
7
  6
CONTINUOUS
 10
215.7540224913
 20
101.509299308
 40
0.75
 50
180.0000132702
 51
359.9999958084
  0
ARC
  8
0
 62
7
  6
CONTINUOUS
 10
202.6540224913
 20
101.509299308
 40
0.75
 50
180.0000132702
 51
359.9999958084
  0
ARC
  8
0
 62
7
  6
CONTINUOUS
 10
196.6540224913
 20
101.509299308
 40
0.75
 50
180.0000132702
 51
359.9999958084
  0
ARC
  8
0
 62
7
  6
CONTINUOUS
 10
183.5540224913
 20
101.509299308
 40
0.75
 50
180.0000132702
 51
359.9999958084
  0
ARC
  8
0
 62
7
  6
CONTINUOUS
 10
214.9040224913
 20
98.244299308
 40
0.5
 50
180.0
 51
270.0
  0
ARC
  8
0
 62
7
  6
CONTINUOUS
 10
217.8540224913
 20
98.244299308
 40
0.5
 50
270.0
 51
360.0
  0
ARC
  8
0
 62
7
  6
CONTINUOUS
 10
184.6540224913
 20
98.244299308
 40
0.5
 50
270.0
 51
360.0
  0
ARC
  8
0
 62
7
  6
CONTINUOUS
 10
195.5540224913
 20
98.244299308
 40
0.5
 50
180.0
 51
270.0
  0
ARC
  8
0
 62
7
  6
CONTINUOUS
 10
203.7540224913
 20
98.244299308
 40
0.5
 50
270.0
 51
360.0
  0
ARC
  8
0
 62
7
  6
CONTINUOUS
 10
194.5540224913
 20
105.0959296415
 40
0.5
 50
0.0
 51
90.0
  0
ARC
  8
0
 62
7
  6
CONTINUOUS
 10
185.6540221931
 20
105.0959299398
 40
0.4999998509
 50
89.9999658243
 51
180.0000341757
  0
ARC
  8
0
 62
7
  6
CONTINUOUS
 10
213.9040224913
 20
105.0959296415
 40
0.5
 50
0.0
 51
90.0
  0
ARC
  8
0
 62
7
  6
CONTINUOUS
 10
204.7540221931
 20
105.0959299398
 40
0.4999998509
 50
89.9999658243
 51
180.0000341757
  0
ARC
  8
0
 62
7
  6
CONTINUOUS
 10
218.0540224913
 20
106.3345791297
 40
0.5
 50
323.1301023542
 51
360.0
  0
ARC
  8
0
 62
7
  6
CONTINUOUS
 10
218.8540224913
 20
105.7345791297
 40
0.5
 50
143.1301023542
 51
180.0
  0
ARC
  8
0
 62
7
  6
CONTINUOUS
 10
157.0040224913
 20
117.9226689744
 40
0.5
 50
180.0
 51
270.0
  0
ARC
  8
0
 62
7
  6
CONTINUOUS
 10
176.1040224913
 20
117.9226689744
 40
0.5
 50
180.0
 51
270.0
  0
ARC
  8
0
 62
7
  6
CONTINUOUS
 10
146.8040224913
 20
117.9226689744
 40
0.5
 50
270.0
 51
360.0
  0
ARC
  8
0
 62
7
  6
CONTINUOUS
 10
165.9040224913
 20
117.9226689744
 40
0.5
 50
270.0
 51
360.0
  0
ARC
  8
0
 62
7
  6
CONTINUOUS
 10
174.0040224913
 20
121.509299308
 40
0.75
 50
0.0000066245
 51
179.9999791903
  0
ARC
  8
0
 62
7
  6
CONTINUOUS
 10
168.0040224913
 20
121.509299308
 40
0.75
 50
0.0000066245
 51
179.9999791903
  0
ARC
  8
0
 62
7
  6
CONTINUOUS
 10
154.9040224913
 20
121.509299308
 40
0.75
 50
0.0000066245
 51
179.9999791903
  0
ARC
  8
0
 62
7
  6
CONTINUOUS
 10
148.9040224913
 20
121.509299308
 40
0.75
 50
0.0000066245
 51
179.9999791903
  0
ARC
  8
0
 62
7
  6
CONTINUOUS
 10
166.9040224913
 20
124.774299308
 40
0.5
 50
90.0
 51
180.0
  0
ARC
  8
0
 62
7
  6
CONTINUOUS
 10
175.1040224913
 20
124.774299308
 40
0.5
 50
0.0
 51
90.0
  0
ARC
  8
0
 62
7
  6
CONTINUOUS
 10
156.0040224913
 20
124.774299308
 40
0.5
 50
0.0
 51
90.0
  0
ARC
  8
0
 62
7
  6
CONTINUOUS
 10
147.8040224913
 20
124.774299308
 40
0.5
 50
90.0
 51
180.0
  0
ARC
  8
0
 62
7
  6
CONTINUOUS
 10
195.2040224913
 20
117.9226689744
 40
0.5
 50
180.0
 51
270.0
  0
ARC
  8
0
 62
7
  6
CONTINUOUS
 10
185.0040224913
 20
117.9226689744
 40
0.5
 50
270.0
 51
360.0
  0
ARC
  8
0
 62
7
  6
CONTINUOUS
 10
218.0540224913
 20
115.4011521222
 40
0.5
 50
0.0
 51
33.6679112211
  0
ARC
  8
0
 62
7
  6
CONTINUOUS
 10
218.8540224913
 20
116.0039681983
 40
0.5
 50
180.0
 51
213.6679112211
  0
ARC
  8
0
 62
7
  6
CONTINUOUS
 10
213.8540224913
 20
117.9226689744
 40
0.5
 50
180.0
 51
270.0
  0
ARC
  8
0
 62
7
  6
CONTINUOUS
 10
204.1040224913
 20
117.9226689744
 40
0.5
 50
270.0
 51
360.0
  0
ARC
  8
0
 62
7
  6
CONTINUOUS
 10
212.2040224913
 20
121.509299308
 40
0.75
 50
0.0000066245
 51
179.9999791903
  0
ARC
  8
0
 62
7
  6
CONTINUOUS
 10
206.2040224913
 20
121.509299308
 40
0.75
 50
0.0000066245
 51
179.9999791903
  0
ARC
  8
0
 62
7
  6
CONTINUOUS
 10
193.1040224913
 20
121.509299308
 40
0.75
 50
0.0000066245
 51
179.9999791903
  0
ARC
  8
0
 62
7
  6
CONTINUOUS
 10
187.1040224913
 20
121.509299308
 40
0.75
 50
0.0000066245
 51
179.9999791903
  0
ARC
  8
0
 62
7
  6
CONTINUOUS
 10
194.2040224913
 20
124.774299308
 40
0.5
 50
0.0
 51
90.0
  0
ARC
  8
0
 62
7
  6
CONTINUOUS
 10
186.0040224913
 20
124.774299308
 40
0.5
 50
90.0
 51
180.0
  0
ARC
  8
0
 62
7
  6
CONTINUOUS
 10
205.1040224913
 20
124.774299308
 40
0.5
 50
90.0
 51
180.0
  0
ARC
  8
0
 62
7
  6
CONTINUOUS
 10
212.8540224913
 20
124.774299308
 40
0.5
 50
0.0
 51
90.0
  0
ARC
  8
0
 62
7
  6
CONTINUOUS
 10
275.0838294286
 20
105.6721170909
 40
0.5
 50
310.5027493696
 51
360.0
  0
ARC
  8
0
 62
7
  6
CONTINUOUS
 10
278.2338294286
 20
101.984299308
 40
4.35
 50
282.9124542829
 51
342.5584061437
  0
ARC
  8
0
 62
7
  6
CONTINUOUS
 10
278.2338294286
 20
101.984299308
 40
4.35
 50
130.5027493696
 51
257.0875457171
  0
CIRCLE
  8
2_FEATURE
 62
7
  6
CONTINUOUS
 10
278.2338294286
 20
101.984299308
 40
2.6
  0
ARC
  8
0
 62
7
  6
CONTINUOUS
 10
276.0838294286
 20
115.8526859108
 40
0.5
 50
90.0
 51
180.0
  0
ARC
  8
0
 62
7
  6
CONTINUOUS
 10
279.8909695545
 20
116.8526859108
 40
0.5
 50
269.9997759608
 51
291.6182654695
  0
ARC
  8
0
 62
7
  6
CONTINUOUS
 10
278.2338294286
 20
121.034299308
 40
4.998
 50
293.803024964
 51
311.59628875
  0
ARC
  8
0
 62
7
  6
CONTINUOUS
 10
278.2338294286
 20
121.034299308
 40
4.35
 50
102.9124542829
 51
180.0
  0
ARC
  8
0
 62
7
  6
CONTINUOUS
 10
278.2338294286
 20
121.034299308
 40
4.35
 50
17.4415938563
 51
77.0875457171
  0
ARC
  8
2_FEATURE
 62
7
  6
CONTINUOUS
 10
278.2338294286
 20
121.034299308
 40
4.35
 50
158.2655051288
 51
159.1045637985
  0
ARC
  8
1_AXIS
 62
7
  6
CONTINUOUS
 10
278.2338294286
 20
121.034299308
 40
4.35
 50
167.9921339638
 51
171.677524293
  0
ARC
  8
2_FEATURE
 62
7
  6
CONTINUOUS
 10
278.2338294286
 20
121.034299308
 40
4.35
 50
141.9360317761
 51
142.458355716
  0
CIRCLE
  8
0
 62
7
  6
CONTINUOUS
 10
278.2338294286
 20
121.034299308
 40
2.6
  0
ARC
  8
0
 62
7
  6
CONTINUOUS
 10
288.0838294286
 20
102.259299308
 40
1.5
 50
270.0
 51
360.0
  0
ARC
  8
0
 62
7
  6
CONTINUOUS
 10
288.0838294286
 20
120.759299308
 40
1.5
 50
0.0
 51
90.0
  0
ARC
  8
0
 62
7
  6
CONTINUOUS
 10
288.0838294286
 20
113.8735705568
 40
1.5
 50
0.0
 51
71.0
  0
ARC
  8
0
 62
7
  6
CONTINUOUS
 10
281.8838294286
 20
116.9226689744
 40
0.5
 50
0.0
 51
131.59628875
  0
ENDSEC
  0
EOF
