  0
SECTION
  2
HEADER
  9
$EXTMAX
 10
420.0
 20
297.0
 30
0.0
  9
$EXTMIN
 10
0.0
 20
0.0
 30
0.0
  9
$LIMMIN
 10
0.0
 20
0.0
  9
$LIMMAX
 10
420.0
 20
297.0
  9
$VIEWCTR
 10
210.0
 20
148.5
  9
$VIEWSIZE
 40
297.0
  9
$CLAYER
  8
0
  9
$LTSCALE
 40
23.1
  9
$CELTYPE
  6
BYLAYER
  9
$DIMSCALE
 40
1.0
  9
$DIMASZ
 40
3.5
  9
$DIMEXO
 40
1.0
  9
$DIMDLI
 40
15.96
  9
$DIMEXE
 40
2.0
  9
$DIMCEN
 40
3.78
  9
$DIMLFAC
 40
1.0
  9
$DIMBLK
  1
_FILLED
  9
$DIMTXT
 40
3.5
  9
$PDMODE
 70
3
  9
$PDSIZE
 40
0.3125
  9
$TILEMODE
 70
1
  0
ENDSEC
  0
SECTION
  2
TABLES
  0
TABLE
  2
LTYPE
 70
6
  0
LTYPE
  2
BYBLOCK
 70
0
  3

 72
65
 73
0
 40
0.0
  0
LTYPE
  2
BYLAYER
 70
0
  3

 72
65
 73
0
 40
0.0
  0
LTYPE
  2
CONTINUOUS
 70
64
  3
Solid line
 72
65
 73
0
 40
0.0
  0
LTYPE
  2
CENTER
 70
64
  3
____ _ ____ _ ____ _ ____ _ ____ _ ____ _ ____
 72
65
 73
4
 40
0.6
 49
0.375
 49
-0.075
 49
0.075
 49
-0.075
  0
LTYPE
  2
HIDDEN
 70
64
  3
- - - - - - - - - - - - - - - - - - - -
 72
65
 73
2
 40
0.2
 49
0.1
 49
-0.1
  0
LTYPE
  2
PHANTOM
 70
64
  3
_____ _ _ _____ _ _ _____ _ _ _____
 72
65
 73
6
 40
0.8
 49
0.45
 49
-0.05
 49
0.1
 49
-0.05
 49
0.1
 49
-0.05
  0
LTYPE
  2
DOT
 70
64
  3
. . . . . . . . . . . . . . . . . . . .
 72
65
 73
2
 40
0.2
 49
0.1
 49
-0.1
  0
LTYPE
  2
DASHED
 70
64
  3
- - - - - - - - - - - - - - - - - - - -
 72
65
 73
2
 40
0.2
 49
0.1
 49
-0.1
  0
ENDTAB
  0
TABLE
  2
LAYER
 70
36
  0
LAYER
  2
0
 70
0
 62
7
  6
CONTINUOUS
  0
LAYER
  2
DEFAULT_1
 70
0
 62
7
  6
CENTER
  0
LAYER
  2
DEFAULT_2
 70
0
 62
8
  6
HIDDEN
  0
LAYER
  2
DEFAULT_3
 70
0
 62
7
  6
PHANTOM
  0
LAYER
  2
1_AXIS
 70
0
 62
7
  6
CONTINUOUS
  0
LAYER
  2
1_DATUMPLANE
 70
0
 62
7
  6
CONTINUOUS
  0
LAYER
  2
1_DATUM_PLANES
 70
0
 62
7
  6
CONTINUOUS
  0
LAYER
  2
2_FEATURE
 70
0
 62
7
  6
CONTINUOUS
  0
LAYER
  2
3_CURVE
 70
0
 62
7
  6
CONTINUOUS
  0
LAYER
  2
4_QUILT
 70
0
 62
7
  6
CONTINUOUS
  0
LAYER
  2
4_SURFACE
 70
0
 62
7
  6
CONTINUOUS
  0
LAYER
  2
6_DIM
 70
0
 62
7
  6
CONTINUOUS
  0
LAYER
  2
COPY_GEO
 70
0
 62
7
  6
CONTINUOUS
  0
LAYER
  2
CSYS
 70
0
 62
7
  6
CONTINUOUS
  0
LAYER
  2
CURVE
 70
0
 62
7
  6
CONTINUOUS
  0
LAYER
  2
NOTES
 70
0
 62
7
  6
CONTINUOUS
  0
LAYER
  2
SURFACE
 70
0
 62
7
  6
CONTINUOUS
  0
ENDTAB
  0
TABLE
  2
STYLE
 70
1
  0
STYLE
  2
STANDARD
 70
0
 40
0.0
 41
0.8
 50
0.0
 71
0
 42
0.2
  3
txt
  4

  0
STYLE
  2
TEXTSTYLE_1
 70
0
 40
0.0
 41
0.8
 50
0.0
 71
0
 42
0.2
  3
gdt
  4

  0
STYLE
  2
TEXTSTYLE_2
 70
0
 40
0.0
 41
0.6
 50
0.0
 71
0
 42
0.2
  3
txt
  4

  0
STYLE
  2
TEXTSTYLE_3
 70
0
 40
0.0
 41
1.0
 50
0.0
 71
0
 42
0.2
  3
ftb_____.ttf
  4

  0
STYLE
  2
TEXTSTYLE_4
 70
0
 40
0.0
 41
1.0
 50
0.0
 71
0
 42
0.2
  3
fti_____.ttf
  4

  0
STYLE
  2
TEXTSTYLE_5
 70
0
 40
0.0
 41
1.0
 50
0.0
 71
0
 42
0.2
  3
frutiger light.ttf
  4

  0
STYLE
  2
TEXTSTYLE_6
 70
0
 40
0.0
 41
0.7
 50
0.0
 71
0
 42
0.2
  3
txt
  4

  0
STYLE
  2
TEXTSTYLE_7
 70
0
 40
0.0
 41
0.7
 50
0.0
 71
0
 42
0.2
  3
txt
  4

  0
ENDTAB
  0
ENDSEC
  0
SECTION
  2
BLOCKS
  0
BLOCK
  8
0
 62
2
  6
CONTINUOUS
  2
SYMBOL_5_BL1
 70
64
 10
382.7840918555
 20
35.5067593403
  0
TEXT
  8
0
 62
7
  6
CONTINUOUS
 10
373.842376864
 20
30.5995157174
  7
TEXTSTYLE_4
 40
1.0655737705
  1
The brand for plastic modular belts and chains
 41
1.0
 72
0
  0
LINE
  8
0
 62
7
  6
CONTINUOUS
 10
358.7621602445
 20
36.0805298321
 11
358.7621602445
 21
33.9493822911
  0
LINE
  8
0
 62
7
  6
CONTINUOUS
 10
359.0512227376
 20
30.9584509954
 11
359.0512227376
 21
31.0552420547
  0
LINE
  8
0
 62
7
  6
CONTINUOUS
 10
358.7621602445
 20
31.0229783683
 11
358.8199727462
 21
30.8293962497
  0
LINE
  8
0
 62
7
  6
CONTINUOUS
 10
360.1556028675
 20
33.867415078
 11
360.1556028675
 21
36.0805298321
  0
LINE
  8
0
 62
7
  6
CONTINUOUS
 10
361.0746601894
 20
32.0231527829
 11
361.0746601894
 21
30.5067593403
  0
LINE
  8
0
 62
7
  6
CONTINUOUS
 10
361.3637227445
 20
30.5067593403
 11
361.3637227445
 21
31.2488242184
  0
LINE
  8
0
 62
7
  6
CONTINUOUS
 10
361.3637227445
 20
31.3778789641
 11
361.3637227445
 21
32.0231527829
  0
LINE
  8
0
 62
7
  6
CONTINUOUS
 10
358.8199727462
 20
31.216560532
 11
358.7621602445
 21
31.0229783683
  0
LINE
  8
0
 62
7
  6
CONTINUOUS
 10
359.1668477307
 20
30.7971325633
 11
359.0512227376
 21
30.9584509954
  0
LINE
  8
0
 62
7
  6
CONTINUOUS
 10
360.2652852997
 20
31.3133515913
 11
360.3230977445
 21
31.216560532
  0
LINE
  8
0
 62
7
  6
CONTINUOUS
 10
360.6121602997
 20
31.216560532
 11
360.5543476894
 21
31.3456152777
  0
LINE
  8
0
 62
7
  6
CONTINUOUS
 10
362.0408487691
 20
36.0805298321
 11
362.0408487691
 21
34.2772511436
  0
LINE
  8
0
 62
7
  6
CONTINUOUS
 10
362.0408487691
 20
32.9657757338
 11
362.0408487691
 21
32.3100380288
  0
LINE
  8
0
 62
7
  6
CONTINUOUS
 10
362.4043477445
 20
31.1520331591
 11
362.4043477445
 21
30.5067593403
  0
LINE
  8
0
 62
7
  6
CONTINUOUS
 10
362.6934101343
 20
30.5067593403
 11
362.6934101343
 21
31.1520331591
  0
LINE
  8
0
 62
7
  6
CONTINUOUS
 10
359.0512227376
 20
31.0552420547
 11
359.1090352445
 21
31.1842968456
  0
LINE
  8
0
 62
7
  6
CONTINUOUS
 10
358.8199727462
 20
30.8293962497
 11
358.9355977445
 21
30.7003414814
  0
LINE
  8
0
 62
7
  6
CONTINUOUS
 10
362.3465351343
 20
31.2810879048
 11
362.4043477445
 21
31.1520331591
  0
LINE
  8
0
 62
7
  6
CONTINUOUS
 10
363.1559103548
 20
30.7971325633
 11
363.2137226343
 21
30.668077795
  0
LINE
  8
0
 62
7
  6
CONTINUOUS
 10
362.6934101343
 20
31.1520331591
 11
362.6355978548
 21
31.3133515913
  0
LINE
  8
0
 62
7
  6
CONTINUOUS
 10
363.1559103548
 20
31.3456152777
 11
363.1559103548
 21
31.2810879048
  0
LINE
  8
0
 62
7
  6
CONTINUOUS
 10
363.1559103548
 20
30.8939236226
 11
363.1559103548
 21
30.7971325633
  0
LINE
  8
0
 62
7
  6
CONTINUOUS
 10
363.4342913921
 20
32.3100380288
 11
363.4342913921
 21
36.0805298321
  0
LINE
  8
0
 62
7
  6
CONTINUOUS
 10
363.4449727445
 20
30.7648688543
 11
363.4449727445
 21
30.8293962497
  0
LINE
  8
0
 62
7
  6
CONTINUOUS
 10
363.7621602445
 20
36.0805298321
 11
363.7621602445
 21
32.3100380288
  0
LINE
  8
0
 62
7
  6
CONTINUOUS
 10
360.5543476894
 20
30.7003414814
 11
360.6121602997
 21
30.8293962497
  0
LINE
  8
0
 62
7
  6
CONTINUOUS
 10
364.9480979651
 20
30.6035504109
 11
364.890285024
 21
30.7648688543
  0
LINE
  8
0
 62
7
  6
CONTINUOUS
 10
364.6012229651
 20
31.2810879048
 11
364.6012229651
 21
31.1842968456
  0
LINE
  8
0
 62
7
  6
CONTINUOUS
 10
364.6012229651
 20
31.0552420547
 11
364.6012229651
 21
30.8616599362
  0
LINE
  8
0
 62
7
  6
CONTINUOUS
 10
364.890285024
 20
30.7648688543
 11
364.890285024
 21
31.2810879048
  0
LINE
  8
0
 62
7
  6
CONTINUOUS
 10
365.1556028675
 20
32.3100380288
 11
365.1556028675
 21
34.1133167174
  0
LINE
  8
0
 62
7
  6
CONTINUOUS
 10
365.1556028675
 20
35.4247921272
 11
365.1556028675
 21
36.0805298321
  0
LINE
  8
0
 62
7
  6
CONTINUOUS
 10
365.4684104651
 20
32.0231527829
 11
365.4684104651
 21
31.8618343508
  0
LINE
  8
0
 62
7
  6
CONTINUOUS
 10
365.4684104651
 20
31.5391973962
 11
365.4684104651
 21
30.5067593403
  0
LINE
  8
0
 62
7
  6
CONTINUOUS
 10
365.757472524
 20
30.5067593403
 11
365.757472524
 21
31.5391973962
  0
LINE
  8
0
 62
7
  6
CONTINUOUS
 10
365.757472524
 20
31.8618343508
 11
365.757472524
 21
32.0231527829
  0
LINE
  8
0
 62
7
  6
CONTINUOUS
 10
360.3230977445
 20
30.8293962497
 11
360.2652852997
 21
30.7326051679
  0
LINE
  8
0
 62
7
  6
CONTINUOUS
 10
362.6355978548
 20
31.3133515913
 11
362.5777852445
 21
31.3778789641
  0
LINE
  8
0
 62
7
  6
CONTINUOUS
 10
363.5027853548
 20
30.7003414814
 11
363.4449727445
 21
30.7648688543
  0
LINE
  8
0
 62
7
  6
CONTINUOUS
 10
364.6590352445
 20
30.5712867188
 11
364.716847524
 21
30.5067593403
  0
LINE
  8
0
 62
7
  6
CONTINUOUS
 10
364.6012229651
 20
30.668077795
 11
364.6590352445
 21
30.5712867188
  0
LINE
  8
0
 62
7
  6
CONTINUOUS
 10
365.0059102445
 20
30.5067593403
 11
364.9480979651
 21
30.6035504109
  0
LINE
  8
0
 62
7
  6
CONTINUOUS
 10
364.890285024
 20
31.2810879048
 11
364.8324727445
 21
31.3778789641
  0
LINE
  8
0
 62
7
  6
CONTINUOUS
 10
366.2199727445
 20
31.5391973962
 11
366.2199727445
 21
30.5067593403
  0
LINE
  8
0
 62
7
  6
CONTINUOUS
 10
366.5090354651
 20
30.5067593403
 11
366.5090354651
 21
31.2488242184
  0
LINE
  8
0
 62
7
  6
CONTINUOUS
 10
366.5090354651
 20
31.3778789641
 11
366.5090354651
 21
31.5391973962
  0
LINE
  8
0
 62
7
  6
CONTINUOUS
 10
367.0408487691
 20
34.5231527829
 11
367.0408487691
 21
32.3100380288
  0
LINE
  8
0
 62
7
  6
CONTINUOUS
 10
358.9355977445
 20
31.3456152777
 11
358.8199727462
 21
31.216560532
  0
LINE
  8
0
 62
7
  6
CONTINUOUS
 10
359.1090352445
 20
31.1842968456
 11
359.1668477307
 21
31.2488242184
  0
LINE
  8
0
 62
7
  6
CONTINUOUS
 10
358.9355977445
 20
30.7003414814
 11
359.0512227376
 21
30.6358140973
  0
LINE
  8
0
 62
7
  6
CONTINUOUS
 10
359.3402852307
 20
30.7003414814
 11
359.1668477307
 21
30.7971325633
  0
LINE
  8
0
 62
7
  6
CONTINUOUS
 10
364.543410024
 20
31.3456152777
 11
364.6012229651
 21
31.2810879048
  0
LINE
  8
0
 62
7
  6
CONTINUOUS
 10
367.491847524
 20
31.2810879048
 11
367.5496604651
 21
31.1197694727
  0
LINE
  8
0
 62
7
  6
CONTINUOUS
 10
367.838722524
 20
31.1197694727
 11
367.7809102445
 21
31.2810879048
  0
LINE
  8
0
 62
7
  6
CONTINUOUS
 10
367.5496604651
 20
31.1197694727
 11
367.5496604651
 21
30.5067593403
  0
LINE
  8
0
 62
7
  6
CONTINUOUS
 10
367.838722524
 20
30.5067593403
 11
367.838722524
 21
31.1197694727
  0
LINE
  8
0
 62
7
  6
CONTINUOUS
 10
368.3012227445
 20
31.3456152777
 11
368.3012227445
 21
31.2810879048
  0
LINE
  8
0
 62
7
  6
CONTINUOUS
 10
368.4342913921
 20
32.3100380288
 11
368.4342913921
 21
34.4411855698
  0
LINE
  8
0
 62
7
  6
CONTINUOUS
 10
368.7621602445
 20
36.0805298321
 11
368.7621602445
 21
32.3100380288
  0
LINE
  8
0
 62
7
  6
CONTINUOUS
 10
363.4449727445
 20
30.8293962497
 11
363.5027853548
 21
30.926187309
  0
LINE
  8
0
 62
7
  6
CONTINUOUS
 10
359.0512227376
 20
30.6358140973
 11
359.2246602583
 21
30.5712867188
  0
LINE
  8
0
 62
7
  6
CONTINUOUS
 10
360.5543476894
 20
31.3456152777
 11
360.3809101894
 21
31.4424063369
  0
LINE
  8
0
 62
7
  6
CONTINUOUS
 10
363.2137226343
 20
30.668077795
 11
363.3871601343
 21
30.5712867188
  0
LINE
  8
0
 62
7
  6
CONTINUOUS
 10
362.2309102445
 20
31.3456152777
 11
362.3465351343
 21
31.2810879048
  0
LINE
  8
0
 62
7
  6
CONTINUOUS
 10
362.5777852445
 20
31.3778789641
 11
362.4621603548
 21
31.4424063369
  0
LINE
  8
0
 62
7
  6
CONTINUOUS
 10
368.3012227445
 20
30.7648688543
 11
368.4168479651
 21
30.6358140973
  0
LINE
  8
0
 62
7
  6
CONTINUOUS
 10
368.6480977445
 20
30.7003414814
 11
368.5902854651
 21
30.7648688543
  0
LINE
  8
0
 62
7
  6
CONTINUOUS
 10
368.3012227445
 20
31.2810879048
 11
368.4168479651
 21
31.1520331591
  0
LINE
  8
0
 62
7
  6
CONTINUOUS
 10
367.7809102445
 20
31.2810879048
 11
367.7230979651
 21
31.3778789641
  0
LINE
  8
0
 62
7
  6
CONTINUOUS
 10
370.1512223035
 20
30.7003414814
 11
370.1512223035
 21
30.7648688543
  0
LINE
  8
0
 62
7
  6
CONTINUOUS
 10
370.1556028675
 20
32.3100380288
 11
370.1556028675
 21
36.0805298321
  0
LINE
  8
0
 62
7
  6
CONTINUOUS
 10
363.2137226343
 20
31.4101426505
 11
363.1559103548
 21
31.3456152777
  0
LINE
  8
0
 62
7
  6
CONTINUOUS
 10
360.091847717
 20
31.3778789641
 11
360.2652852997
 21
31.3133515913
  0
LINE
  8
0
 62
7
  6
CONTINUOUS
 10
364.8324727445
 20
31.3778789641
 11
364.716847524
 21
31.4424063369
  0
LINE
  8
0
 62
7
  6
CONTINUOUS
 10
368.6480977445
 20
31.216560532
 11
368.5902854651
 21
31.2810879048
  0
LINE
  8
0
 62
7
  6
CONTINUOUS
 10
369.8043479651
 20
30.8293962497
 11
369.8621602445
 21
30.7648688543
  0
LINE
  8
0
 62
7
  6
CONTINUOUS
 10
370.1512223035
 20
30.7648688543
 11
370.0355977445
 21
30.8939236226
  0
LINE
  8
0
 62
7
  6
CONTINUOUS
 10
369.8043479651
 20
31.3456152777
 11
369.8621602445
 21
31.2810879048
  0
LINE
  8
0
 62
7
  6
CONTINUOUS
 10
370.1512223035
 20
31.2810879048
 11
370.0355977445
 21
31.4101426505
  0
LINE
  8
0
 62
7
  6
CONTINUOUS
 10
363.4449727445
 20
31.2810879048
 11
363.5027853548
 21
31.3456152777
  0
LINE
  8
0
 62
7
  6
CONTINUOUS
 10
363.2715352445
 20
31.0229783683
 11
363.1559103548
 21
30.8939236226
  0
LINE
  8
0
 62
7
  6
CONTINUOUS
 10
364.6012229651
 20
30.8616599362
 11
364.543410024
 21
30.7971325633
  0
LINE
  8
0
 62
7
  6
CONTINUOUS
 10
364.543410024
 20
30.6035504109
 11
364.6012229651
 21
30.668077795
  0
LINE
  8
0
 62
7
  6
CONTINUOUS
 10
363.3871601343
 20
30.5712867188
 11
363.5027853548
 21
30.5390230296
  0
LINE
  8
0
 62
7
  6
CONTINUOUS
 10
360.3809101894
 20
31.4424063369
 11
360.1496602445
 21
31.5069337098
  0
LINE
  8
0
 62
7
  6
CONTINUOUS
 10
363.7340351343
 20
30.6358140973
 11
363.5027853548
 21
30.7003414814
  0
LINE
  8
0
 62
7
  6
CONTINUOUS
 10
362.4621603548
 20
31.4424063369
 11
362.2887228548
 21
31.5069337098
  0
LINE
  8
0
 62
7
  6
CONTINUOUS
 10
364.716847524
 20
31.4424063369
 11
364.543410024
 21
31.5069337098
  0
LINE
  8
0
 62
7
  6
CONTINUOUS
 10
367.3762229651
 20
31.3456152777
 11
367.491847524
 21
31.2810879048
  0
LINE
  8
0
 62
7
  6
CONTINUOUS
 10
367.7230979651
 20
31.3778789641
 11
367.6074727445
 21
31.4424063369
  0
LINE
  8
0
 62
7
  6
CONTINUOUS
 10
359.2246602583
 20
30.5712867188
 11
359.3980977583
 21
30.5390230296
  0
LINE
  8
0
 62
7
  6
CONTINUOUS
 10
359.6871602721
 20
30.6358140973
 11
359.3402852307
 21
30.7003414814
  0
LINE
  8
0
 62
7
  6
CONTINUOUS
 10
362.1152853548
 20
31.3778789641
 11
362.2309102445
 21
31.3456152777
  0
LINE
  8
0
 62
7
  6
CONTINUOUS
 10
364.4277854651
 20
31.3778789641
 11
364.543410024
 21
31.3456152777
  0
LINE
  8
0
 62
7
  6
CONTINUOUS
 10
368.7637229651
 20
30.668077795
 11
368.6480977445
 21
30.7003414814
  0
LINE
  8
0
 62
7
  6
CONTINUOUS
 10
367.2605977445
 20
31.3778789641
 11
367.3762229651
 21
31.3456152777
  0
LINE
  8
0
 62
7
  6
CONTINUOUS
 10
368.4168479651
 20
30.6358140973
 11
368.5902854651
 21
30.5712867188
  0
LINE
  8
0
 62
7
  6
CONTINUOUS
 10
367.6074727445
 20
31.4424063369
 11
367.4340352445
 21
31.5069337098
  0
LINE
  8
0
 62
7
  6
CONTINUOUS
 10
368.8215352445
 20
31.1520331591
 11
368.6480977445
 21
31.216560532
  0
LINE
  8
0
 62
7
  6
CONTINUOUS
 10
369.6309104651
 20
30.8939236226
 11
369.8043479651
 21
30.8293962497
  0
LINE
  8
0
 62
7
  6
CONTINUOUS
 10
370.0355977445
 20
31.4101426505
 11
369.8621602445
 21
31.4746700234
  0
LINE
  8
0
 62
7
  6
CONTINUOUS
 10
368.4168479651
 20
31.1520331591
 11
368.6480977445
 21
31.0552420547
  0
LINE
  8
0
 62
7
  6
CONTINUOUS
 10
370.0355977445
 20
30.8939236226
 11
369.8043479651
 21
30.9907146818
  0
LINE
  8
0
 62
7
  6
CONTINUOUS
 10
368.5902854651
 20
31.2810879048
 11
368.6480977445
 21
31.3456152777
  0
LINE
  8
0
 62
7
  6
CONTINUOUS
 10
359.0512227376
 20
31.4101426505
 11
358.9355977445
 21
31.3456152777
  0
LINE
  8
0
 62
7
  6
CONTINUOUS
 10
359.1668477307
 20
31.2488242184
 11
359.3402852307
 21
31.3456152777
  0
LINE
  8
0
 62
7
  6
CONTINUOUS
 10
361.4793477997
 20
31.4424063369
 11
361.3637227445
 21
31.3778789641
  0
LINE
  8
0
 62
7
  6
CONTINUOUS
 10
361.3637227445
 20
31.2488242184
 11
361.4793477997
 21
31.3133515913
  0
LINE
  8
0
 62
7
  6
CONTINUOUS
 10
360.3809101894
 20
30.6035504109
 11
360.5543476894
 21
30.7003414814
  0
LINE
  8
0
 62
7
  6
CONTINUOUS
 10
359.3980977583
 20
30.5390230296
 11
359.744972717
 21
30.5067593403
  0
LINE
  8
0
 62
7
  6
CONTINUOUS
 10
363.5027853548
 20
30.5390230296
 11
363.7340351343
 21
30.5067593403
  0
LINE
  8
0
 62
7
  6
CONTINUOUS
 10
361.8840352445
 20
31.4101426505
 11
362.1152853548
 21
31.3778789641
  0
LINE
  8
0
 62
7
  6
CONTINUOUS
 10
364.1965353548
 20
31.4101426505
 11
364.4277854651
 21
31.3778789641
  0
LINE
  8
0
 62
7
  6
CONTINUOUS
 10
368.6480977445
 20
31.0552420547
 11
369.6309104651
 21
30.8939236226
  0
LINE
  8
0
 62
7
  6
CONTINUOUS
 10
369.8043479651
 20
30.9907146818
 11
368.8215352445
 21
31.1520331591
  0
LINE
  8
0
 62
7
  6
CONTINUOUS
 10
362.2887228548
 20
31.5069337098
 11
362.1152853548
 21
31.5391973962
  0
LINE
  8
0
 62
7
  6
CONTINUOUS
 10
368.5902854651
 20
30.5712867188
 11
368.7637229651
 21
30.5390230296
  0
LINE
  8
0
 62
7
  6
CONTINUOUS
 10
367.4340352445
 20
31.5069337098
 11
367.2605977445
 21
31.5391973962
  0
LINE
  8
0
 62
7
  6
CONTINUOUS
 10
369.6887227445
 20
31.3778789641
 11
369.8043479651
 21
31.3456152777
  0
LINE
  8
0
 62
7
  6
CONTINUOUS
 10
369.8621602445
 20
30.7648688543
 11
369.8043479651
 21
30.7003414814
  0
LINE
  8
0
 62
7
  6
CONTINUOUS
 10
368.4168479651
 20
31.4424063369
 11
368.3012227445
 21
31.3456152777
  0
LINE
  8
0
 62
7
  6
CONTINUOUS
 10
363.3293478548
 20
31.4746700234
 11
363.2137226343
 21
31.4101426505
  0
LINE
  8
0
 62
7
  6
CONTINUOUS
 10
363.3871601343
 20
31.0875057863
 11
363.2715352445
 21
31.0229783683
  0
LINE
  8
0
 62
7
  6
CONTINUOUS
 10
363.5027853548
 20
30.926187309
 11
363.6184102445
 21
30.9907146818
  0
LINE
  8
0
 62
7
  6
CONTINUOUS
 10
361.0746601894
 20
30.5067593403
 11
361.3637227445
 21
30.5067593403
  0
LINE
  8
0
 62
7
  6
CONTINUOUS
 10
362.4043477445
 20
30.5067593403
 11
362.6934101343
 21
30.5067593403
  0
LINE
  8
0
 62
7
  6
CONTINUOUS
 10
363.7340351343
 20
30.5067593403
 11
364.0809101343
 21
30.5067593403
  0
LINE
  8
0
 62
7
  6
CONTINUOUS
 10
364.716847524
 20
30.5067593403
 11
365.0059102445
 21
30.5067593403
  0
LINE
  8
0
 62
7
  6
CONTINUOUS
 10
365.4684104651
 20
30.5067593403
 11
365.757472524
 21
30.5067593403
  0
LINE
  8
0
 62
7
  6
CONTINUOUS
 10
366.2199727445
 20
30.5067593403
 11
366.5090354651
 21
30.5067593403
  0
LINE
  8
0
 62
7
  6
CONTINUOUS
 10
367.5496604651
 20
30.5067593403
 11
367.838722524
 21
30.5067593403
  0
LINE
  8
0
 62
7
  6
CONTINUOUS
 10
369.1105979651
 20
30.5067593403
 11
369.4574729651
 21
30.5067593403
  0
LINE
  8
0
 62
7
  6
CONTINUOUS
 10
369.4574729651
 20
30.6358140973
 11
369.1105979651
 21
30.6358140973
  0
LINE
  8
0
 62
7
  6
CONTINUOUS
 10
364.0809101343
 20
30.6358140973
 11
363.7340351343
 21
30.6358140973
  0
LINE
  8
0
 62
7
  6
CONTINUOUS
 10
368.5902854651
 20
30.7648688543
 11
368.3012227445
 21
30.7648688543
  0
LINE
  8
0
 62
7
  6
CONTINUOUS
 10
360.6121602997
 20
30.8293962497
 11
360.3230977445
 21
30.8293962497
  0
LINE
  8
0
 62
7
  6
CONTINUOUS
 10
359.6871602721
 20
31.4101426505
 11
360.091847717
 21
31.3778789641
  0
LINE
  8
0
 62
7
  6
CONTINUOUS
 10
360.1496602445
 20
31.5069337098
 11
359.744972717
 21
31.5391973962
  0
LINE
  8
0
 62
7
  6
CONTINUOUS
 10
368.7637229651
 20
30.5390230296
 11
369.1105979651
 21
30.5067593403
  0
LINE
  8
0
 62
7
  6
CONTINUOUS
 10
369.1105979651
 20
30.6358140973
 11
368.7637229651
 21
30.668077795
  0
LINE
  8
0
 62
7
  6
CONTINUOUS
 10
364.543410024
 20
31.5069337098
 11
364.1965353548
 21
31.5391973962
  0
LINE
  8
0
 62
7
  6
CONTINUOUS
 10
369.3418477445
 20
31.4101426505
 11
369.6887227445
 21
31.3778789641
  0
LINE
  8
0
 62
7
  6
CONTINUOUS
 10
369.6887227445
 20
31.5069337098
 11
369.3418477445
 21
31.5391973962
  0
LINE
  8
0
 62
7
  6
CONTINUOUS
 10
367.0293479651
 20
31.4101426505
 11
367.2605977445
 21
31.3778789641
  0
LINE
  8
0
 62
7
  6
CONTINUOUS
 10
369.8621602445
 20
31.4746700234
 11
369.6887227445
 21
31.5069337098
  0
LINE
  8
0
 62
7
  6
CONTINUOUS
 10
370.0355977445
 20
30.6035504109
 11
370.1512223035
 21
30.7003414814
  0
LINE
  8
0
 62
7
  6
CONTINUOUS
 10
364.543410024
 20
30.7971325633
 11
364.369972524
 21
30.7003414814
  0
LINE
  8
0
 62
7
  6
CONTINUOUS
 10
366.624660024
 20
31.4424063369
 11
366.5090354651
 21
31.3778789641
  0
LINE
  8
0
 62
7
  6
CONTINUOUS
 10
366.5090354651
 20
31.2488242184
 11
366.624660024
 21
31.3133515913
  0
LINE
  8
0
 62
7
  6
CONTINUOUS
 10
359.2246602583
 20
31.4746700234
 11
359.0512227376
 21
31.4101426505
  0
LINE
  8
0
 62
7
  6
CONTINUOUS
 10
361.6527851343
 20
31.5069337098
 11
361.4793477997
 21
31.4424063369
  0
LINE
  8
0
 62
7
  6
CONTINUOUS
 10
361.4793477997
 20
31.3133515913
 11
361.6527851343
 21
31.3778789641
  0
LINE
  8
0
 62
7
  6
CONTINUOUS
 10
360.2652852997
 20
30.7326051679
 11
360.091847717
 21
30.668077795
  0
LINE
  8
0
 62
7
  6
CONTINUOUS
 10
369.6887227445
 20
30.668077795
 11
369.4574729651
 21
30.6358140973
  0
LINE
  8
0
 62
7
  6
CONTINUOUS
 10
364.0809101343
 20
30.5067593403
 11
364.369972524
 21
30.5390230296
  0
LINE
  8
0
 62
7
  6
CONTINUOUS
 10
369.4574729651
 20
30.5067593403
 11
369.8043479651
 21
30.5390230296
  0
LINE
  8
0
 62
7
  6
CONTINUOUS
 10
359.744972717
 20
30.5067593403
 11
360.1496602445
 21
30.5390230296
  0
LINE
  8
0
 62
7
  6
CONTINUOUS
 10
360.091847717
 20
30.668077795
 11
359.6871602721
 21
30.6358140973
  0
LINE
  8
0
 62
7
  6
CONTINUOUS
 10
363.9652852445
 20
31.0552420547
 11
364.6012229651
 21
31.0552420547
  0
LINE
  8
0
 62
7
  6
CONTINUOUS
 10
364.6012229651
 20
31.1842968456
 11
363.9652852445
 21
31.1842968456
  0
LINE
  8
0
 62
7
  6
CONTINUOUS
 10
360.3230977445
 20
31.216560532
 11
360.6121602997
 21
31.216560532
  0
LINE
  8
0
 62
7
  6
CONTINUOUS
 10
363.1559103548
 20
31.2810879048
 11
363.4449727445
 21
31.2810879048
  0
LINE
  8
0
 62
7
  6
CONTINUOUS
 10
369.8621602445
 20
31.2810879048
 11
370.1512223035
 21
31.2810879048
  0
LINE
  8
0
 62
7
  6
CONTINUOUS
 10
363.8496603548
 20
31.4101426505
 11
364.1965353548
 21
31.4101426505
  0
LINE
  8
0
 62
7
  6
CONTINUOUS
 10
368.9949727445
 20
31.4101426505
 11
369.3418477445
 21
31.4101426505
  0
LINE
  8
0
 62
7
  6
CONTINUOUS
 10
369.3418477445
 20
31.5391973962
 11
368.9949727445
 21
31.5391973962
  0
LINE
  8
0
 62
7
  6
CONTINUOUS
 10
367.2605977445
 20
31.5391973962
 11
367.0293479651
 21
31.5391973962
  0
LINE
  8
0
 62
7
  6
CONTINUOUS
 10
366.5090354651
 20
31.5391973962
 11
366.2199727445
 21
31.5391973962
  0
LINE
  8
0
 62
7
  6
CONTINUOUS
 10
365.757472524
 20
31.5391973962
 11
365.4684104651
 21
31.5391973962
  0
LINE
  8
0
 62
7
  6
CONTINUOUS
 10
364.1965353548
 20
31.5391973962
 11
363.8496603548
 21
31.5391973962
  0
LINE
  8
0
 62
7
  6
CONTINUOUS
 10
362.1152853548
 20
31.5391973962
 11
361.8840352445
 21
31.5391973962
  0
LINE
  8
0
 62
7
  6
CONTINUOUS
 10
365.4684104651
 20
31.8618343508
 11
365.757472524
 21
31.8618343508
  0
LINE
  8
0
 62
7
  6
CONTINUOUS
 10
365.757472524
 20
32.0231527829
 11
365.4684104651
 21
32.0231527829
  0
LINE
  8
0
 62
7
  6
CONTINUOUS
 10
361.3637227445
 20
32.0231527829
 11
361.0746601894
 21
32.0231527829
  0
LINE
  8
0
 62
7
  6
CONTINUOUS
 10
360.4015045068
 20
32.3100380288
 11
360.8140758554
 21
32.3100380288
  0
LINE
  8
0
 62
7
  6
CONTINUOUS
 10
362.0408487691
 20
32.3100380288
 11
363.4342913921
 21
32.3100380288
  0
LINE
  8
0
 62
7
  6
CONTINUOUS
 10
363.7621602445
 20
32.3100380288
 11
365.1556028675
 21
32.3100380288
  0
LINE
  8
0
 62
7
  6
CONTINUOUS
 10
367.0408487691
 20
32.3100380288
 11
368.4342913921
 21
32.3100380288
  0
LINE
  8
0
 62
7
  6
CONTINUOUS
 10
368.7621602445
 20
32.3100380288
 11
370.1556028675
 21
32.3100380288
  0
LINE
  8
0
 62
7
  6
CONTINUOUS
 10
366.798097524
 20
31.5069337098
 11
366.624660024
 21
31.4424063369
  0
LINE
  8
0
 62
7
  6
CONTINUOUS
 10
364.369972524
 20
30.5390230296
 11
364.543410024
 21
30.6035504109
  0
LINE
  8
0
 62
7
  6
CONTINUOUS
 10
369.8043479651
 20
30.5390230296
 11
370.0355977445
 21
30.6035504109
  0
LINE
  8
0
 62
7
  6
CONTINUOUS
 10
369.8043479651
 20
30.7003414814
 11
369.6887227445
 21
30.668077795
  0
LINE
  8
0
 62
7
  6
CONTINUOUS
 10
368.7637229651
 20
31.3778789641
 11
368.9949727445
 21
31.4101426505
  0
LINE
  8
0
 62
7
  6
CONTINUOUS
 10
366.798097524
 20
31.3778789641
 11
367.0293479651
 21
31.4101426505
  0
LINE
  8
0
 62
7
  6
CONTINUOUS
 10
363.7340351343
 20
31.0229783683
 11
363.9652852445
 21
31.0552420547
  0
LINE
  8
0
 62
7
  6
CONTINUOUS
 10
367.0293479651
 20
31.5391973962
 11
366.798097524
 21
31.5069337098
  0
LINE
  8
0
 62
7
  6
CONTINUOUS
 10
363.6184102445
 20
31.3778789641
 11
363.8496603548
 21
31.4101426505
  0
LINE
  8
0
 62
7
  6
CONTINUOUS
 10
368.9949727445
 20
31.5391973962
 11
368.6480977445
 21
31.5069337098
  0
LINE
  8
0
 62
7
  6
CONTINUOUS
 10
363.9652852445
 20
31.1842968456
 11
363.6184102445
 21
31.1520331591
  0
LINE
  8
0
 62
7
  6
CONTINUOUS
 10
359.744972717
 20
31.5391973962
 11
359.3980977583
 21
31.5069337098
  0
LINE
  8
0
 62
7
  6
CONTINUOUS
 10
363.8496603548
 20
31.5391973962
 11
363.4449727445
 21
31.5069337098
  0
LINE
  8
0
 62
7
  6
CONTINUOUS
 10
361.221176638
 20
33.4575790124
 11
360.565438933
 21
33.4575790124
  0
LINE
  8
0
 62
7
  6
CONTINUOUS
 10
366.624660024
 20
31.3133515913
 11
366.798097524
 21
31.3778789641
  0
LINE
  8
0
 62
7
  6
CONTINUOUS
 10
368.6480977445
 20
31.3456152777
 11
368.7637229651
 21
31.3778789641
  0
LINE
  8
0
 62
7
  6
CONTINUOUS
 10
368.6480977445
 20
31.5069337098
 11
368.4168479651
 21
31.4424063369
  0
LINE
  8
0
 62
7
  6
CONTINUOUS
 10
364.369972524
 20
30.7003414814
 11
364.0809101343
 21
30.6358140973
  0
LINE
  8
0
 62
7
  6
CONTINUOUS
 10
361.6527851343
 20
31.3778789641
 11
361.8840352445
 21
31.4101426505
  0
LINE
  8
0
 62
7
  6
CONTINUOUS
 10
361.8840352445
 20
31.5391973962
 11
361.6527851343
 21
31.5069337098
  0
LINE
  8
0
 62
7
  6
CONTINUOUS
 10
359.4559102445
 20
31.3778789641
 11
359.6871602721
 21
31.4101426505
  0
LINE
  8
0
 62
7
  6
CONTINUOUS
 10
365.9752749986
 20
34.9329888485
 11
366.6310127035
 21
34.9329888485
  0
LINE
  8
0
 62
7
  6
CONTINUOUS
 10
363.6184102445
 20
30.9907146818
 11
363.7340351343
 21
31.0229783683
  0
LINE
  8
0
 62
7
  6
CONTINUOUS
 10
363.6184102445
 20
31.1520331591
 11
363.3871601343
 21
31.0875057863
  0
LINE
  8
0
 62
7
  6
CONTINUOUS
 10
363.5027853548
 20
31.3456152777
 11
363.6184102445
 21
31.3778789641
  0
LINE
  8
0
 62
7
  6
CONTINUOUS
 10
360.1496602445
 20
30.5390230296
 11
360.3809101894
 21
30.6035504109
  0
LINE
  8
0
 62
7
  6
CONTINUOUS
 10
363.4449727445
 20
31.5069337098
 11
363.3293478548
 21
31.4746700234
  0
LINE
  8
0
 62
7
  6
CONTINUOUS
 10
359.3980977583
 20
31.5069337098
 11
359.2246602583
 21
31.4746700234
  0
LINE
  8
0
 62
7
  6
CONTINUOUS
 10
370.1556028675
 20
36.0805298321
 11
368.7621602445
 21
36.0805298321
  0
LINE
  8
0
 62
7
  6
CONTINUOUS
 10
366.7949471298
 20
36.0805298321
 11
366.3823757812
 21
36.0805298321
  0
LINE
  8
0
 62
7
  6
CONTINUOUS
 10
365.1556028675
 20
36.0805298321
 11
363.7621602445
 21
36.0805298321
  0
LINE
  8
0
 62
7
  6
CONTINUOUS
 10
363.4342913921
 20
36.0805298321
 11
362.0408487691
 21
36.0805298321
  0
LINE
  8
0
 62
7
  6
CONTINUOUS
 10
360.1556028675
 20
36.0805298321
 11
358.7621602445
 21
36.0805298321
  0
LINE
  8
0
 62
7
  6
CONTINUOUS
 10
359.3402852307
 20
31.3456152777
 11
359.4559102445
 21
31.3778789641
  0
CIRCLE
  8
0
 62
7
  6
CONTINUOUS
 10
369.458881556
 20
38.4165954059
 40
2.0901639344
  0
ARC
  8
0
 62
7
  6
CONTINUOUS
 10
360.4015045068
 20
33.9493822911
 40
1.6393442623
 50
180.0
 51
270.0
  0
ARC
  8
0
 62
7
  6
CONTINUOUS
 10
366.7949471298
 20
34.4411855698
 40
1.6393442623
 50
0.0
 51
90.0
  0
ARC
  8
0
 62
7
  6
CONTINUOUS
 10
360.8140758554
 20
33.7854478649
 40
1.4754098361
 50
270.0
 51
326.2510114041
  0
ARC
  8
0
 62
7
  6
CONTINUOUS
 10
366.3823757812
 20
34.6051199961
 40
1.4754098361
 50
90.0
 51
146.2510114041
  0
ARC
  8
0
 62
7
  6
CONTINUOUS
 10
361.221176638
 20
34.2772511436
 40
0.8196721311
 50
270.0
 51
360.0
  0
ARC
  8
0
 62
7
  6
CONTINUOUS
 10
365.9752749986
 20
34.1133167174
 40
0.8196721311
 50
90.0
 51
180.0
  0
ARC
  8
0
 62
7
  6
CONTINUOUS
 10
360.565438933
 20
33.867415078
 40
0.4098360656
 50
180.0
 51
270.0
  0
ARC
  8
0
 62
7
  6
CONTINUOUS
 10
366.6310127035
 20
34.5231527829
 40
0.4098360656
 50
0.0
 51
90.0
  0
SOLID
  8
0
 62
7
  6
CONTINUOUS
 10
365.4684104651
 20
31.8618347111
 11
365.4684104651
 21
32.0231531947
 12
365.757472524
 22
31.8618347111
 13
365.757472524
 23
32.0231531947
  0
SOLID
  8
0
 62
7
  6
CONTINUOUS
 10
359.744972717
 20
31.5391977439
 11
360.1496602445
 21
31.5069333244
 12
359.3980977583
 22
31.5069333244
 13
359.3980977583
 23
31.5069333244
  0
SOLID
  8
0
 62
7
  6
CONTINUOUS
 10
359.2246602583
 20
31.4746706537
 11
359.3980977583
 21
31.5069333244
 12
360.1496602445
 22
31.5069333244
 13
360.1496602445
 23
31.5069333244
  0
SOLID
  8
0
 62
7
  6
CONTINUOUS
 10
360.1496602445
 20
31.5069333244
 11
360.3809101894
 21
31.4424063504
 12
359.2246602583
 22
31.4746706537
 13
359.2246602583
 23
31.4746706537
  0
SOLID
  8
0
 62
7
  6
CONTINUOUS
 10
359.0512227376
 20
31.4101419116
 11
359.2246602583
 21
31.4746706537
 12
360.3809101894
 22
31.4424063504
 13
360.3809101894
 23
31.4424063504
  0
SOLID
  8
0
 62
7
  6
CONTINUOUS
 10
359.0512227376
 20
31.4101419116
 11
360.3809101894
 21
31.4424063504
 12
359.6871602721
 22
31.4101419116
 13
359.6871602721
 23
31.4101419116
  0
SOLID
  8
0
 62
7
  6
CONTINUOUS
 10
359.6871602721
 20
31.4101419116
 11
360.3809101894
 21
31.4424063504
 12
360.091847717
 22
31.3778792603
 13
360.091847717
 23
31.3778792603
  0
SOLID
  8
0
 62
7
  6
CONTINUOUS
 10
360.3809101894
 20
31.4424063504
 11
360.5543476894
 21
31.345614957
 12
360.091847717
 22
31.3778792603
 13
360.091847717
 23
31.3778792603
  0
SOLID
  8
0
 62
7
  6
CONTINUOUS
 10
360.2652852997
 20
31.3133521701
 11
360.091847717
 21
31.3778792603
 12
360.5543476894
 22
31.345614957
 13
360.5543476894
 23
31.345614957
  0
SOLID
  8
0
 62
7
  6
CONTINUOUS
 10
360.2652852997
 20
31.3133521701
 11
360.5543476894
 21
31.345614957
 12
360.3230977445
 22
31.2165606992
 13
360.3230977445
 23
31.2165606992
  0
SOLID
  8
0
 62
7
  6
CONTINUOUS
 10
360.5543476894
 20
31.345614957
 11
360.6121602997
 21
31.2165606992
 12
360.3230977445
 22
31.2165606992
 13
360.3230977445
 23
31.2165606992
  0
SOLID
  8
0
 62
7
  6
CONTINUOUS
 10
361.6527851343
 20
31.5069329918
 11
361.8840352445
 21
31.5391972951
 12
362.1152853548
 22
31.5391972951
 13
362.1152853548
 23
31.5391972951
  0
SOLID
  8
0
 62
7
  6
CONTINUOUS
 10
362.1152853548
 20
31.5391972951
 11
362.2887228548
 21
31.5069329918
 12
361.6527851343
 22
31.5069329918
 13
361.6527851343
 23
31.5069329918
  0
SOLID
  8
0
 62
7
  6
CONTINUOUS
 10
361.4793477997
 20
31.4424059016
 11
361.6527851343
 21
31.5069329918
 12
362.2887228548
 22
31.5069329918
 13
362.2887228548
 23
31.5069329918
  0
SOLID
  8
0
 62
7
  6
CONTINUOUS
 10
362.2887228548
 20
31.5069329918
 11
362.4621603548
 21
31.4424059016
 12
361.4793477997
 22
31.4424059016
 13
361.4793477997
 23
31.4424059016
  0
SOLID
  8
0
 62
7
  6
CONTINUOUS
 10
362.4621603548
 20
31.4424059016
 11
361.8840352445
 21
31.4101420472
 12
361.4793477997
 22
31.4424059016
 13
361.4793477997
 23
31.4424059016
  0
SOLID
  8
0
 62
7
  6
CONTINUOUS
 10
361.3637227445
 20
31.3778788115
 11
361.4793477997
 21
31.4424059016
 12
361.8840352445
 22
31.4101420472
 13
361.8840352445
 23
31.4101420472
  0
SOLID
  8
0
 62
7
  6
CONTINUOUS
 10
361.8840352445
 20
31.4101420472
 11
361.6527851343
 21
31.3778788115
 12
361.3637227445
 22
31.3778788115
 13
361.3637227445
 23
31.3778788115
  0
SOLID
  8
0
 62
7
  6
CONTINUOUS
 10
361.8840352445
 20
31.4101420472
 11
362.4621603548
 21
31.4424059016
 12
362.1152853548
 22
31.3778788115
 13
362.1152853548
 23
31.3778788115
  0
SOLID
  8
0
 62
7
  6
CONTINUOUS
 10
362.4621603548
 20
31.4424059016
 11
362.5777852445
 21
31.3778788115
 12
362.1152853548
 22
31.3778788115
 13
362.1152853548
 23
31.3778788115
  0
SOLID
  8
0
 62
7
  6
CONTINUOUS
 10
362.2309102445
 20
31.345614957
 11
362.1152853548
 21
31.3778788115
 12
362.5777852445
 22
31.3778788115
 13
362.5777852445
 23
31.3778788115
  0
SOLID
  8
0
 62
7
  6
CONTINUOUS
 10
362.5777852445
 20
31.3778788115
 11
362.6355978548
 21
31.3133517213
 12
362.2309102445
 22
31.345614957
 13
362.2309102445
 23
31.345614957
  0
SOLID
  8
0
 62
7
  6
CONTINUOUS
 10
362.3465351343
 20
31.2810878668
 11
362.2309102445
 21
31.345614957
 12
362.6355978548
 22
31.3133517213
 13
362.6355978548
 23
31.3133517213
  0
SOLID
  8
0
 62
7
  6
CONTINUOUS
 10
362.3465351343
 20
31.2810878668
 11
362.6355978548
 21
31.3133517213
 12
362.4043477445
 22
31.1520332377
 13
362.4043477445
 23
31.1520332377
  0
SOLID
  8
0
 62
7
  6
CONTINUOUS
 10
362.6355978548
 20
31.3133517213
 11
362.6934101343
 21
31.1520332377
 12
362.4043477445
 22
31.1520332377
 13
362.4043477445
 23
31.1520332377
  0
SOLID
  8
0
 62
7
  6
CONTINUOUS
 10
361.6527851343
 20
31.3778788115
 11
361.4793477997
 21
31.3133517213
 12
361.3637227445
 22
31.3778788115
 13
361.3637227445
 23
31.3778788115
  0
SOLID
  8
0
 62
7
  6
CONTINUOUS
 10
361.4793477997
 20
31.3133517213
 11
361.3637227445
 21
31.2488235635
 12
361.3637227445
 22
31.3778788115
 13
361.3637227445
 23
31.3778788115
  0
SOLID
  8
0
 62
7
  6
CONTINUOUS
 10
361.3637227445
 20
31.2488235635
 11
361.0746601894
 21
30.5067593033
 12
361.3637227445
 22
31.3778788115
 13
361.3637227445
 23
31.3778788115
  0
SOLID
  8
0
 62
7
  6
CONTINUOUS
 10
361.3637227445
 20
31.3778788115
 11
361.0746601894
 21
30.5067593033
 12
361.3637227445
 22
32.0231527459
 13
361.3637227445
 23
32.0231527459
  0
SOLID
  8
0
 62
7
  6
CONTINUOUS
 10
361.0746601894
 20
30.5067593033
 11
361.0746601894
 21
32.0231527459
 12
361.3637227445
 22
32.0231527459
 13
361.3637227445
 23
32.0231527459
  0
SOLID
  8
0
 62
7
  6
CONTINUOUS
 10
361.3637227445
 20
31.2488235635
 11
361.3637227445
 21
30.5067593033
 12
361.0746601894
 22
30.5067593033
 13
361.0746601894
 23
30.5067593033
  0
SOLID
  8
0
 62
7
  6
CONTINUOUS
 10
362.4043477445
 20
30.5067593033
 11
362.4043477445
 21
31.1520332377
 12
362.6934101343
 22
31.1520332377
 13
362.6934101343
 23
31.1520332377
  0
SOLID
  8
0
 62
7
  6
CONTINUOUS
 10
362.6934101343
 20
31.1520332377
 11
362.6934101343
 21
30.5067593033
 12
362.4043477445
 22
30.5067593033
 13
362.4043477445
 23
30.5067593033
  0
SOLID
  8
0
 62
7
  6
CONTINUOUS
 10
363.4449727445
 20
31.506933758
 11
363.8496603548
 21
31.5391977507
 12
364.1965353548
 22
31.5391977507
 13
364.1965353548
 23
31.5391977507
  0
SOLID
  8
0
 62
7
  6
CONTINUOUS
 10
364.1965353548
 20
31.5391977507
 11
364.543410024
 21
31.506933758
 12
363.4449727445
 22
31.506933758
 13
363.4449727445
 23
31.506933758
  0
SOLID
  8
0
 62
7
  6
CONTINUOUS
 10
363.3293478548
 20
31.4746706537
 11
363.4449727445
 21
31.506933758
 12
364.543410024
 22
31.506933758
 13
364.543410024
 23
31.506933758
  0
SOLID
  8
0
 62
7
  6
CONTINUOUS
 10
364.543410024
 20
31.506933758
 11
364.716847524
 21
31.4424063504
 12
363.3293478548
 22
31.4746706537
 13
363.3293478548
 23
31.4746706537
  0
SOLID
  8
0
 62
7
  6
CONTINUOUS
 10
363.2137226343
 20
31.4101417797
 11
363.3293478548
 21
31.4746706537
 12
364.716847524
 22
31.4424063504
 13
364.716847524
 23
31.4424063504
  0
SOLID
  8
0
 62
7
  6
CONTINUOUS
 10
363.2137226343
 20
31.4101417797
 11
364.716847524
 21
31.4424063504
 12
363.8496603548
 22
31.4101417797
 13
363.8496603548
 23
31.4101417797
  0
SOLID
  8
0
 62
7
  6
CONTINUOUS
 10
363.8496603548
 20
31.4101417797
 11
364.716847524
 21
31.4424063504
 12
364.1965353548
 22
31.4101417797
 13
364.1965353548
 23
31.4101417797
  0
SOLID
  8
0
 62
7
  6
CONTINUOUS
 10
364.1965353548
 20
31.4101417797
 11
364.716847524
 21
31.4424063504
 12
364.4277854651
 22
31.3778793357
 13
364.4277854651
 23
31.3778793357
  0
SOLID
  8
0
 62
7
  6
CONTINUOUS
 10
364.716847524
 20
31.4424063504
 11
364.8324727445
 21
31.3778793357
 12
364.4277854651
 22
31.3778793357
 13
364.4277854651
 23
31.3778793357
  0
SOLID
  8
0
 62
7
  6
CONTINUOUS
 10
363.1559103548
 20
31.3456153429
 11
363.2137226343
 21
31.4101417797
 12
363.8496603548
 22
31.4101417797
 13
363.8496603548
 23
31.4101417797
  0
SOLID
  8
0
 62
7
  6
CONTINUOUS
 10
364.543410024
 20
31.3456153429
 11
364.4277854651
 21
31.3778793357
 12
364.8324727445
 22
31.3778793357
 13
364.8324727445
 23
31.3778793357
  0
SOLID
  8
0
 62
7
  6
CONTINUOUS
 10
364.543410024
 20
31.3456153429
 11
364.8324727445
 21
31.3778793357
 12
364.6012229651
 22
31.2810881318
 13
364.6012229651
 23
31.2810881318
  0
SOLID
  8
0
 62
7
  6
CONTINUOUS
 10
364.8324727445
 20
31.3778793357
 11
364.890285024
 21
31.2810881318
 12
364.6012229651
 22
31.2810881318
 13
364.6012229651
 23
31.2810881318
  0
SOLID
  8
0
 62
7
  6
CONTINUOUS
 10
364.6012229651
 20
31.1842964734
 11
364.6012229651
 21
31.2810881318
 12
364.890285024
 22
31.2810881318
 13
364.890285024
 23
31.2810881318
  0
SOLID
  8
0
 62
7
  6
CONTINUOUS
 10
364.6012229651
 20
31.1842964734
 11
364.890285024
 21
31.2810881318
 12
364.6012229651
 22
31.0552422931
 13
364.6012229651
 23
31.0552422931
  0
SOLID
  8
0
 62
7
  6
CONTINUOUS
 10
364.6012229651
 20
31.0552422931
 11
364.890285024
 21
31.2810881318
 12
364.6012229651
 22
30.8616599362
 13
364.6012229651
 23
30.8616599362
  0
SOLID
  8
0
 62
7
  6
CONTINUOUS
 10
364.890285024
 20
31.2810881318
 11
364.890285024
 21
30.7648681127
 12
364.6012229651
 22
30.8616599362
 13
364.6012229651
 23
30.8616599362
  0
SOLID
  8
0
 62
7
  6
CONTINUOUS
 10
366.798097524
 20
31.5069339419
 11
367.0293479651
 21
31.5391976292
 12
367.2605977445
 22
31.5391976292
 13
367.2605977445
 23
31.5391976292
  0
SOLID
  8
0
 62
7
  6
CONTINUOUS
 10
367.2605977445
 20
31.5391976292
 11
367.4340352445
 21
31.5069339419
 12
366.798097524
 22
31.5069339419
 13
366.798097524
 23
31.5069339419
  0
SOLID
  8
0
 62
7
  6
CONTINUOUS
 10
366.624660024
 20
31.4424065674
 11
366.798097524
 21
31.5069339419
 12
367.4340352445
 22
31.5069339419
 13
367.4340352445
 23
31.5069339419
  0
SOLID
  8
0
 62
7
  6
CONTINUOUS
 10
367.4340352445
 20
31.5069339419
 11
367.6074727445
 21
31.4424065674
 12
366.624660024
 22
31.4424065674
 13
366.624660024
 23
31.4424065674
  0
SOLID
  8
0
 62
7
  6
CONTINUOUS
 10
367.6074727445
 20
31.4424065674
 11
367.0293479651
 21
31.4101420472
 12
366.624660024
 22
31.4424065674
 13
366.624660024
 23
31.4424065674
  0
SOLID
  8
0
 62
7
  6
CONTINUOUS
 10
366.5090354651
 20
31.377879193
 11
366.624660024
 21
31.4424065674
 12
367.0293479651
 22
31.4101420472
 13
367.0293479651
 23
31.4101420472
  0
SOLID
  8
0
 62
7
  6
CONTINUOUS
 10
367.0293479651
 20
31.4101420472
 11
366.798097524
 21
31.377879193
 12
366.5090354651
 22
31.377879193
 13
366.5090354651
 23
31.377879193
  0
SOLID
  8
0
 62
7
  6
CONTINUOUS
 10
367.0293479651
 20
31.4101420472
 11
367.6074727445
 21
31.4424065674
 12
367.2605977445
 22
31.377879193
 13
367.2605977445
 23
31.377879193
  0
SOLID
  8
0
 62
7
  6
CONTINUOUS
 10
367.6074727445
 20
31.4424065674
 11
367.7230979651
 21
31.377879193
 12
367.2605977445
 22
31.377879193
 13
367.2605977445
 23
31.377879193
  0
SOLID
  8
0
 62
7
  6
CONTINUOUS
 10
367.3762229651
 20
31.345614957
 11
367.2605977445
 21
31.377879193
 12
367.7230979651
 22
31.377879193
 13
367.7230979651
 23
31.377879193
  0
SOLID
  8
0
 62
7
  6
CONTINUOUS
 10
367.3762229651
 20
31.345614957
 11
367.7230979651
 21
31.377879193
 12
367.491847524
 22
31.2810881312
 13
367.491847524
 23
31.2810881312
  0
SOLID
  8
0
 62
7
  6
CONTINUOUS
 10
367.7230979651
 20
31.377879193
 11
367.7809102445
 21
31.2810881312
 12
367.491847524
 22
31.2810881312
 13
367.491847524
 23
31.2810881312
  0
SOLID
  8
0
 62
7
  6
CONTINUOUS
 10
367.5496604651
 20
31.119769695
 11
367.491847524
 21
31.2810881312
 12
367.7809102445
 22
31.2810881312
 13
367.7809102445
 23
31.2810881312
  0
SOLID
  8
0
 62
7
  6
CONTINUOUS
 10
367.7809102445
 20
31.2810881312
 11
367.838722524
 21
31.119769695
 12
367.5496604651
 22
31.119769695
 13
367.5496604651
 23
31.119769695
  0
SOLID
  8
0
 62
7
  6
CONTINUOUS
 10
366.798097524
 20
31.377879193
 11
366.624660024
 21
31.3133521701
 12
366.5090354651
 22
31.377879193
 13
366.5090354651
 23
31.377879193
  0
SOLID
  8
0
 62
7
  6
CONTINUOUS
 10
366.624660024
 20
31.3133521701
 11
366.5090354651
 21
31.2488235635
 12
366.5090354651
 22
31.377879193
 13
366.5090354651
 23
31.377879193
  0
SOLID
  8
0
 62
7
  6
CONTINUOUS
 10
366.5090354651
 20
31.2488235635
 11
366.2199727445
 21
30.5067596374
 12
366.5090354651
 22
31.377879193
 13
366.5090354651
 23
31.377879193
  0
SOLID
  8
0
 62
7
  6
CONTINUOUS
 10
366.5090354651
 20
31.377879193
 11
366.2199727445
 21
30.5067596374
 12
366.5090354651
 22
31.5391976292
 13
366.5090354651
 23
31.5391976292
  0
SOLID
  8
0
 62
7
  6
CONTINUOUS
 10
366.2199727445
 20
30.5067596374
 11
366.2199727445
 21
31.5391976292
 12
366.5090354651
 22
31.5391976292
 13
366.5090354651
 23
31.5391976292
  0
SOLID
  8
0
 62
7
  6
CONTINUOUS
 10
366.5090354651
 20
31.2488235635
 11
366.5090354651
 21
30.5067596374
 12
366.2199727445
 22
30.5067596374
 13
366.2199727445
 23
30.5067596374
  0
SOLID
  8
0
 62
7
  6
CONTINUOUS
 10
367.5496604651
 20
30.5067596374
 11
367.5496604651
 21
31.119769695
 12
367.838722524
 22
31.119769695
 13
367.838722524
 23
31.119769695
  0
SOLID
  8
0
 62
7
  6
CONTINUOUS
 10
367.838722524
 20
31.119769695
 11
367.838722524
 21
30.5067596374
 12
367.5496604651
 22
30.5067596374
 13
367.5496604651
 23
30.5067596374
  0
SOLID
  8
0
 62
7
  6
CONTINUOUS
 10
368.6480977445
 20
31.5069334157
 11
368.9949727445
 21
31.539197762
 12
369.3418477445
 22
31.539197762
 13
369.3418477445
 23
31.539197762
  0
SOLID
  8
0
 62
7
  6
CONTINUOUS
 10
369.3418477445
 20
31.539197762
 11
369.6887227445
 21
31.5069334157
 12
368.6480977445
 22
31.5069334157
 13
368.6480977445
 23
31.5069334157
  0
SOLID
  8
0
 62
7
  6
CONTINUOUS
 10
368.4168479651
 20
31.4424063504
 11
368.6480977445
 21
31.5069334157
 12
369.6887227445
 22
31.5069334157
 13
369.6887227445
 23
31.5069334157
  0
SOLID
  8
0
 62
7
  6
CONTINUOUS
 10
368.4168479651
 20
31.4424063504
 11
369.6887227445
 21
31.5069334406
 12
369.8621602445
 22
31.4746706537
 13
369.8621602445
 23
31.4746706537
  0
SOLID
  8
0
 62
7
  6
CONTINUOUS
 10
368.4168479651
 20
31.4424063504
 11
369.8621602445
 21
31.4746706537
 12
368.9949727445
 22
31.4101421267
 13
368.9949727445
 23
31.4101421267
  0
SOLID
  8
0
 62
7
  6
CONTINUOUS
 10
368.9949727445
 20
31.4101421267
 11
369.8621602445
 21
31.4746706537
 12
369.3418477445
 22
31.4101421267
 13
369.3418477445
 23
31.4101421267
  0
SOLID
  8
0
 62
7
  6
CONTINUOUS
 10
369.8621602445
 20
31.4746706537
 11
370.0355977445
 21
31.4101421267
 12
369.3418477445
 22
31.4101421267
 13
369.3418477445
 23
31.4101421267
  0
SOLID
  8
0
 62
7
  6
CONTINUOUS
 10
369.6887227445
 20
31.3778792603
 11
369.3418477445
 21
31.4101421267
 12
370.0355977445
 22
31.4101421267
 13
370.0355977445
 23
31.4101421267
  0
SOLID
  8
0
 62
7
  6
CONTINUOUS
 10
368.3012227445
 20
31.3456148845
 11
368.4168479651
 21
31.4424063504
 12
368.9949727445
 22
31.4101421267
 13
368.9949727445
 23
31.4101421267
  0
SOLID
  8
0
 62
7
  6
CONTINUOUS
 10
369.6887227445
 20
31.3778792603
 11
370.0355977445
 21
31.4101421267
 12
369.8043479651
 22
31.3456148845
 13
369.8043479651
 23
31.3456148845
  0
SOLID
  8
0
 62
7
  6
CONTINUOUS
 10
369.8043479651
 20
31.3456148845
 11
370.0355977445
 21
31.4101421267
 12
369.8621602445
 22
31.281087868
 13
369.8621602445
 23
31.281087868
  0
SOLID
  8
0
 62
7
  6
CONTINUOUS
 10
370.0355977445
 20
31.4101421267
 11
370.1512223035
 21
31.281087868
 12
369.8621602445
 22
31.281087868
 13
369.8621602445
 23
31.281087868
  0
SOLID
  8
0
 62
7
  6
CONTINUOUS
 10
359.4559102445
 20
31.3778792603
 11
358.9355977445
 21
31.3456148963
 12
359.6871602721
 22
31.4101421155
 13
359.6871602721
 23
31.4101421155
  0
SOLID
  8
0
 62
7
  6
CONTINUOUS
 10
358.9355977445
 20
31.3456148963
 11
359.0512227376
 21
31.4101421155
 12
359.6871602721
 22
31.4101421155
 13
359.6871602721
 23
31.4101421155
  0
SOLID
  8
0
 62
7
  6
CONTINUOUS
 10
359.4559102445
 20
31.3778792603
 11
359.3402852307
 21
31.3456148963
 12
358.9355977445
 22
31.3456148963
 13
358.9355977445
 23
31.3456148963
  0
SOLID
  8
0
 62
7
  6
CONTINUOUS
 10
358.8199727462
 20
31.2165607767
 11
358.9355977445
 21
31.3456148963
 12
359.3402852307
 22
31.3456148963
 13
359.3402852307
 23
31.3456148963
  0
SOLID
  8
0
 62
7
  6
CONTINUOUS
 10
363.1559103548
 20
31.3456149608
 11
363.8496603548
 21
31.4101420472
 12
363.6184102445
 22
31.3778792603
 13
363.6184102445
 23
31.3778792603
  0
SOLID
  8
0
 62
7
  6
CONTINUOUS
 10
363.6184102445
 20
31.3778792603
 11
363.5027853548
 21
31.3456149608
 12
363.1559103548
 22
31.3456149608
 13
363.1559103548
 23
31.3456149608
  0
SOLID
  8
0
 62
7
  6
CONTINUOUS
 10
363.1559103548
 20
31.2810878707
 11
363.1559103548
 21
31.3456149608
 12
363.5027853548
 22
31.3456149608
 13
363.5027853548
 23
31.3456149608
  0
SOLID
  8
0
 62
7
  6
CONTINUOUS
 10
363.5027853548
 20
31.3456149608
 11
363.4449727445
 21
31.2810878707
 12
363.1559103548
 22
31.2810878707
 13
363.1559103548
 23
31.2810878707
  0
SOLID
  8
0
 62
7
  6
CONTINUOUS
 10
368.3012227445
 20
31.3456149608
 11
368.9949727445
 21
31.4101420472
 12
368.7637229651
 22
31.3778792603
 13
368.7637229651
 23
31.3778792603
  0
SOLID
  8
0
 62
7
  6
CONTINUOUS
 10
368.7637229651
 20
31.3778792603
 11
368.6480977445
 21
31.3456149608
 12
368.3012227445
 22
31.3456149608
 13
368.3012227445
 23
31.3456149608
  0
SOLID
  8
0
 62
7
  6
CONTINUOUS
 10
368.3012227445
 20
31.2810878707
 11
368.3012227445
 21
31.3456149608
 12
368.6480977445
 22
31.3456149608
 13
368.6480977445
 23
31.3456149608
  0
SOLID
  8
0
 62
7
  6
CONTINUOUS
 10
368.6480977445
 20
31.3456149608
 11
368.5902854651
 21
31.2810878707
 12
368.3012227445
 22
31.2810878707
 13
368.3012227445
 23
31.2810878707
  0
SOLID
  8
0
 62
7
  6
CONTINUOUS
 10
368.4168479651
 20
31.1520336865
 11
368.3012227445
 21
31.2810878707
 12
368.5902854651
 22
31.2810878707
 13
368.5902854651
 23
31.2810878707
  0
SOLID
  8
0
 62
7
  6
CONTINUOUS
 10
358.8199727462
 20
31.2165607767
 11
359.3402852307
 21
31.345614957
 12
359.1668477307
 22
31.2488235635
 13
359.1668477307
 23
31.2488235635
  0
SOLID
  8
0
 62
7
  6
CONTINUOUS
 10
359.1668477307
 20
31.2488235635
 11
359.1090352445
 21
31.1842964734
 12
358.8199727462
 22
31.2165607767
 13
358.8199727462
 23
31.2165607767
  0
SOLID
  8
0
 62
7
  6
CONTINUOUS
 10
358.7621602445
 20
31.0229779898
 11
358.8199727462
 21
31.2165607767
 12
359.1090352445
 22
31.1842964734
 13
359.1090352445
 23
31.1842964734
  0
SOLID
  8
0
 62
7
  6
CONTINUOUS
 10
363.6184102445
 20
31.1520336865
 11
363.9652852445
 21
31.1842964611
 12
364.6012229651
 22
31.1842964611
 13
364.6012229651
 23
31.1842964611
  0
SOLID
  8
0
 62
7
  6
CONTINUOUS
 10
363.6184102445
 20
31.1520336865
 11
364.6012229651
 21
31.1842964611
 12
363.3871601343
 22
31.0875057863
 13
363.3871601343
 23
31.0875057863
  0
SOLID
  8
0
 62
7
  6
CONTINUOUS
 10
363.3871601343
 20
31.0875057863
 11
364.6012229651
 21
31.1842964611
 12
363.9652852445
 22
31.0552422808
 13
363.9652852445
 23
31.0552422808
  0
SOLID
  8
0
 62
7
  6
CONTINUOUS
 10
364.6012229651
 20
31.1842964611
 11
364.6012229651
 21
31.0552422808
 12
363.9652852445
 22
31.0552422808
 13
363.9652852445
 23
31.0552422808
  0
SOLID
  8
0
 62
7
  6
CONTINUOUS
 10
368.4168479651
 20
31.1520338754
 11
368.5902854651
 21
31.2810878668
 12
368.6480977445
 22
31.2165607767
 13
368.6480977445
 23
31.2165607767
  0
SOLID
  8
0
 62
7
  6
CONTINUOUS
 10
368.6480977445
 20
31.2165607767
 11
368.8215352445
 21
31.1520338754
 12
368.4168479651
 22
31.1520338754
 13
368.4168479651
 23
31.1520338754
  0
SOLID
  8
0
 62
7
  6
CONTINUOUS
 10
368.6480977445
 20
31.0552422931
 11
368.4168479651
 21
31.1520338754
 12
368.8215352445
 22
31.1520338754
 13
368.8215352445
 23
31.1520338754
  0
SOLID
  8
0
 62
7
  6
CONTINUOUS
 10
368.8215352445
 20
31.1520338754
 11
369.8043479651
 21
30.9907152029
 12
368.6480977445
 22
31.0552422931
 13
368.6480977445
 23
31.0552422931
  0
SOLID
  8
0
 62
7
  6
CONTINUOUS
 10
369.6309104651
 20
30.8939239876
 11
368.6480977445
 21
31.0552422931
 12
369.8043479651
 22
30.9907152029
 13
369.8043479651
 23
30.9907152029
  0
SOLID
  8
0
 62
7
  6
CONTINUOUS
 10
369.8043479651
 20
30.9907152029
 11
370.0355977445
 21
30.8939239876
 12
369.6309104651
 22
30.8939239876
 13
369.6309104651
 23
30.8939239876
  0
SOLID
  8
0
 62
7
  6
CONTINUOUS
 10
369.8043479651
 20
30.8293967193
 11
369.6309104651
 21
30.8939239876
 12
370.0355977445
 22
30.8939239876
 13
370.0355977445
 23
30.8939239876
  0
SOLID
  8
0
 62
7
  6
CONTINUOUS
 10
369.8043479651
 20
30.8293967193
 11
370.0355977445
 21
30.8939239876
 12
369.8621602445
 22
30.7648682694
 13
369.8621602445
 23
30.7648682694
  0
SOLID
  8
0
 62
7
  6
CONTINUOUS
 10
370.0355977445
 20
30.8939239876
 11
370.1512223035
 21
30.7648682694
 12
369.8621602445
 22
30.7648682694
 13
369.8621602445
 23
30.7648682694
  0
SOLID
  8
0
 62
7
  6
CONTINUOUS
 10
369.8043479651
 20
30.7003411846
 11
369.8621602445
 21
30.7648682694
 12
370.1512223035
 22
30.7648682694
 13
370.1512223035
 23
30.7648682694
  0
SOLID
  8
0
 62
7
  6
CONTINUOUS
 10
370.1512223035
 20
30.7648682694
 11
370.1512223035
 21
30.7003411846
 12
369.8043479651
 22
30.7003411846
 13
369.8043479651
 23
30.7003411846
  0
SOLID
  8
0
 62
7
  6
CONTINUOUS
 10
369.6887227445
 20
30.6680782357
 11
369.8043479651
 21
30.7003411846
 12
370.1512223035
 22
30.7003411846
 13
370.1512223035
 23
30.7003411846
  0
SOLID
  8
0
 62
7
  6
CONTINUOUS
 10
369.6887227445
 20
30.6680782357
 11
370.1512223035
 21
30.7003411846
 12
369.4574729651
 22
30.6358140998
 13
369.4574729651
 23
30.6358140998
  0
SOLID
  8
0
 62
7
  6
CONTINUOUS
 10
370.1512223035
 20
30.7003411846
 11
370.0355977445
 21
30.6035511455
 12
369.4574729651
 22
30.6358140998
 13
369.4574729651
 23
30.6358140998
  0
SOLID
  8
0
 62
7
  6
CONTINUOUS
 10
370.0355977445
 20
30.6035511455
 11
368.5902854651
 21
30.5712868422
 12
369.4574729651
 22
30.6358140998
 13
369.4574729651
 23
30.6358140998
  0
SOLID
  8
0
 62
7
  6
CONTINUOUS
 10
369.4574729651
 20
30.6358140998
 11
368.5902854651
 21
30.5712868422
 12
369.1105979651
 22
30.6358140998
 13
369.1105979651
 23
30.6358140998
  0
SOLID
  8
0
 62
7
  6
CONTINUOUS
 10
368.5902854651
 20
30.5712868422
 11
368.4168479651
 21
30.6358140998
 12
369.1105979651
 22
30.6358140998
 13
369.1105979651
 23
30.6358140998
  0
SOLID
  8
0
 62
7
  6
CONTINUOUS
 10
368.5902854651
 20
30.5712868422
 11
370.0355977445
 21
30.6035511455
 12
368.7637229651
 22
30.5390223111
 13
368.7637229651
 23
30.5390223111
  0
SOLID
  8
0
 62
7
  6
CONTINUOUS
 10
370.0355977445
 20
30.6035511455
 11
369.8043479651
 21
30.5390223111
 12
368.7637229651
 22
30.5390223111
 13
368.7637229651
 23
30.5390223111
  0
SOLID
  8
0
 62
7
  6
CONTINUOUS
 10
369.1105979651
 20
30.5067599302
 11
368.7637229651
 21
30.5390223111
 12
369.8043479651
 22
30.5390223111
 13
369.8043479651
 23
30.5390223111
  0
SOLID
  8
0
 62
7
  6
CONTINUOUS
 10
369.8043479651
 20
30.5390223111
 11
369.4574729651
 21
30.5067599302
 12
369.1105979651
 22
30.5067599302
 13
369.1105979651
 23
30.5067599302
  0
SOLID
  8
0
 62
7
  6
CONTINUOUS
 10
358.7621602445
 20
31.0229779898
 11
359.1090352445
 21
31.1842964734
 12
359.0512227376
 22
31.0552422931
 13
359.0512227376
 23
31.0552422931
  0
SOLID
  8
0
 62
7
  6
CONTINUOUS
 10
359.0512227376
 20
31.0552422931
 11
359.0512227376
 21
30.9584509954
 12
358.7621602445
 22
31.0229779898
 13
358.7621602445
 23
31.0229779898
  0
SOLID
  8
0
 62
7
  6
CONTINUOUS
 10
358.8199727462
 20
30.8293967193
 11
358.7621602445
 21
31.0229779898
 12
359.0512227376
 22
30.9584509954
 13
359.0512227376
 23
30.9584509954
  0
SOLID
  8
0
 62
7
  6
CONTINUOUS
 10
359.0512227376
 20
30.9584509954
 11
359.1668477307
 21
30.797132416
 12
358.8199727462
 22
30.8293967193
 13
358.8199727462
 23
30.8293967193
  0
SOLID
  8
0
 62
7
  6
CONTINUOUS
 10
358.9355977445
 20
30.7003413087
 11
358.8199727462
 21
30.8293967193
 12
359.1668477307
 22
30.797132416
 13
359.1668477307
 23
30.797132416
  0
SOLID
  8
0
 62
7
  6
CONTINUOUS
 10
359.1668477307
 20
30.797132416
 11
359.3402852307
 21
30.7003413087
 12
358.9355977445
 22
30.7003413087
 13
358.9355977445
 23
30.7003413087
  0
SOLID
  8
0
 62
7
  6
CONTINUOUS
 10
359.0512227376
 20
30.6358140759
 11
358.9355977445
 21
30.7003413087
 12
359.3402852307
 22
30.7003413087
 13
359.3402852307
 23
30.7003413087
  0
SOLID
  8
0
 62
7
  6
CONTINUOUS
 10
359.3402852307
 20
30.7003413087
 11
359.6871602721
 21
30.6358140759
 12
359.0512227376
 22
30.6358140759
 13
359.0512227376
 23
30.6358140759
  0
SOLID
  8
0
 62
7
  6
CONTINUOUS
 10
359.2246602583
 20
30.5712868422
 11
359.0512227376
 21
30.6358140759
 12
359.6871602721
 22
30.6358140759
 13
359.6871602721
 23
30.6358140759
  0
SOLID
  8
0
 62
7
  6
CONTINUOUS
 10
363.2715352445
 20
31.0229779808
 11
363.3871601343
 21
31.0875057863
 12
363.9652852445
 22
31.0552422931
 13
363.9652852445
 23
31.0552422931
  0
SOLID
  8
0
 62
7
  6
CONTINUOUS
 10
363.9652852445
 20
31.0552422931
 11
363.7340351343
 21
31.0229779808
 12
363.2715352445
 22
31.0229779808
 13
363.2715352445
 23
31.0229779808
  0
SOLID
  8
0
 62
7
  6
CONTINUOUS
 10
363.1559103548
 20
30.8939238094
 11
363.2715352445
 21
31.0229779808
 12
363.7340351343
 22
31.0229779808
 13
363.7340351343
 23
31.0229779808
  0
SOLID
  8
0
 62
7
  6
CONTINUOUS
 10
363.5027853548
 20
30.926187309
 11
363.1559103548
 21
30.8939238094
 12
363.6184102445
 22
30.9907152029
 13
363.6184102445
 23
30.9907152029
  0
SOLID
  8
0
 62
7
  6
CONTINUOUS
 10
363.1559103548
 20
30.8939238094
 11
363.7340351343
 21
31.0229779898
 12
363.6184102445
 22
30.9907152029
 13
363.6184102445
 23
30.9907152029
  0
SOLID
  8
0
 62
7
  6
CONTINUOUS
 10
363.5027853548
 20
30.926187309
 11
363.4449727445
 21
30.8293967193
 12
363.1559103548
 22
30.8939238094
 13
363.1559103548
 23
30.8939238094
  0
SOLID
  8
0
 62
7
  6
CONTINUOUS
 10
363.1559103548
 20
30.797132416
 11
363.1559103548
 21
30.8939238094
 12
363.4449727445
 22
30.8293967193
 13
363.4449727445
 23
30.8293967193
  0
SOLID
  8
0
 62
7
  6
CONTINUOUS
 10
363.4449727445
 20
30.8293967193
 11
363.4449727445
 21
30.7648681127
 12
363.1559103548
 22
30.797132416
 13
363.1559103548
 23
30.797132416
  0
SOLID
  8
0
 62
7
  6
CONTINUOUS
 10
363.2137226343
 20
30.6680782357
 11
363.1559103548
 21
30.797132416
 12
363.4449727445
 22
30.7648681127
 13
363.4449727445
 23
30.7648681127
  0
SOLID
  8
0
 62
7
  6
CONTINUOUS
 10
364.6012229651
 20
30.8616599362
 11
364.890285024
 21
30.7648681127
 12
364.543410024
 22
30.797132416
 13
364.543410024
 23
30.797132416
  0
SOLID
  8
0
 62
7
  6
CONTINUOUS
 10
364.369972524
 20
30.7003410226
 11
364.543410024
 21
30.797132416
 12
364.890285024
 22
30.7648681127
 13
364.890285024
 23
30.7648681127
  0
SOLID
  8
0
 62
7
  6
CONTINUOUS
 10
364.369972524
 20
30.7003410226
 11
364.890285024
 21
30.7648681127
 12
364.6012229651
 22
30.6680782357
 13
364.6012229651
 23
30.6680782357
  0
SOLID
  8
0
 62
7
  6
CONTINUOUS
 10
364.890285024
 20
30.7648681127
 11
364.9480979651
 21
30.6035511455
 12
364.6012229651
 22
30.6680782357
 13
364.6012229651
 23
30.6680782357
  0
SOLID
  8
0
 62
7
  6
CONTINUOUS
 10
364.6590352445
 20
30.5712868422
 11
364.6012229651
 21
30.6680782357
 12
364.9480979651
 22
30.6035511455
 13
364.9480979651
 23
30.6035511455
  0
SOLID
  8
0
 62
7
  6
CONTINUOUS
 10
364.6590352445
 20
30.5712868422
 11
364.9480979651
 21
30.6035511455
 12
364.716847524
 22
30.5067598731
 13
364.716847524
 23
30.5067598731
  0
SOLID
  8
0
 62
7
  6
CONTINUOUS
 10
364.9480979651
 20
30.6035511455
 11
365.0059102445
 21
30.5067598731
 12
364.716847524
 22
30.5067598731
 13
364.716847524
 23
30.5067598731
  0
SOLID
  8
0
 62
7
  6
CONTINUOUS
 10
360.2652852997
 20
30.7326051679
 11
360.3230977445
 21
30.8293966612
 12
360.6121602997
 22
30.8293966612
 13
360.6121602997
 23
30.8293966612
  0
SOLID
  8
0
 62
7
  6
CONTINUOUS
 10
360.6121602997
 20
30.8293966612
 11
360.5543476894
 21
30.7003410226
 12
360.2652852997
 22
30.7326051679
 13
360.2652852997
 23
30.7326051679
  0
SOLID
  8
0
 62
7
  6
CONTINUOUS
 10
360.091847717
 20
30.6680782357
 11
360.2652852997
 21
30.7326051679
 12
360.5543476894
 22
30.7003410226
 13
360.5543476894
 23
30.7003410226
  0
SOLID
  8
0
 62
7
  6
CONTINUOUS
 10
360.091847717
 20
30.6680782357
 11
360.5543476894
 21
30.7003410226
 12
359.6871602721
 22
30.6358139324
 13
359.6871602721
 23
30.6358139324
  0
SOLID
  8
0
 62
7
  6
CONTINUOUS
 10
360.5543476894
 20
30.7003410226
 11
360.3809101894
 21
30.6035511455
 12
359.6871602721
 22
30.6358139324
 13
359.6871602721
 23
30.6358139324
  0
SOLID
  8
0
 62
7
  6
CONTINUOUS
 10
359.2246602583
 20
30.5712868422
 11
359.6871602721
 21
30.6358139324
 12
360.3809101894
 22
30.6035511455
 13
360.3809101894
 23
30.6035511455
  0
SOLID
  8
0
 62
7
  6
CONTINUOUS
 10
359.2246602583
 20
30.5712868422
 11
360.3809101894
 21
30.6035511455
 12
359.3980977583
 22
30.5390224228
 13
359.3980977583
 23
30.5390224228
  0
SOLID
  8
0
 62
7
  6
CONTINUOUS
 10
360.3809101894
 20
30.6035511455
 11
360.1496602445
 21
30.5390224228
 12
359.3980977583
 22
30.5390224228
 13
359.3980977583
 23
30.5390224228
  0
SOLID
  8
0
 62
7
  6
CONTINUOUS
 10
359.744972717
 20
30.5067597521
 11
359.3980977583
 21
30.5390224228
 12
360.1496602445
 22
30.5390224228
 13
360.1496602445
 23
30.5390224228
  0
SOLID
  8
0
 62
7
  6
CONTINUOUS
 10
363.2137226343
 20
30.6680782357
 11
363.4449727445
 21
30.7648681127
 12
363.5027853548
 22
30.7003410226
 13
363.5027853548
 23
30.7003410226
  0
SOLID
  8
0
 62
7
  6
CONTINUOUS
 10
363.5027853548
 20
30.7003410226
 11
363.7340351343
 21
30.6358139324
 12
363.2137226343
 22
30.6680782357
 13
363.2137226343
 23
30.6680782357
  0
SOLID
  8
0
 62
7
  6
CONTINUOUS
 10
363.3871601343
 20
30.5712868422
 11
363.2137226343
 21
30.6680782357
 12
363.7340351343
 22
30.6358139324
 13
363.7340351343
 23
30.6358139324
  0
SOLID
  8
0
 62
7
  6
CONTINUOUS
 10
364.0809101343
 20
30.6358139363
 11
364.369972524
 21
30.7003410226
 12
364.6012229651
 22
30.6680782357
 13
364.6012229651
 23
30.6680782357
  0
SOLID
  8
0
 62
7
  6
CONTINUOUS
 10
364.6012229651
 20
30.6680782357
 11
364.543410024
 21
30.6035511455
 12
364.0809101343
 22
30.6358139363
 13
364.0809101343
 23
30.6358139363
  0
SOLID
  8
0
 62
7
  6
CONTINUOUS
 10
364.543410024
 20
30.6035511455
 11
363.3871601343
 21
30.5712868422
 12
364.0809101343
 22
30.6358139363
 13
364.0809101343
 23
30.6358139363
  0
SOLID
  8
0
 62
7
  6
CONTINUOUS
 10
363.3871601343
 20
30.5712868422
 11
363.7340351343
 21
30.6358139363
 12
364.0809101343
 22
30.6358139363
 13
364.0809101343
 23
30.6358139363
  0
SOLID
  8
0
 62
7
  6
CONTINUOUS
 10
363.3871601343
 20
30.5712868422
 11
364.543410024
 21
30.6035511455
 12
363.5027853548
 22
30.5390225267
 13
363.5027853548
 23
30.5390225267
  0
SOLID
  8
0
 62
7
  6
CONTINUOUS
 10
364.543410024
 20
30.6035511455
 11
364.369972524
 21
30.5390225267
 12
363.5027853548
 22
30.5390225267
 13
363.5027853548
 23
30.5390225267
  0
SOLID
  8
0
 62
7
  6
CONTINUOUS
 10
363.7340351343
 20
30.5067596914
 11
363.5027853548
 21
30.5390225267
 12
364.369972524
 22
30.5390225267
 13
364.369972524
 23
30.5390225267
  0
SOLID
  8
0
 62
7
  6
CONTINUOUS
 10
364.369972524
 20
30.5390225267
 11
364.0809101343
 21
30.5067596914
 12
363.7340351343
 22
30.5067596914
 13
363.7340351343
 23
30.5067596914
  0
SOLID
  8
0
 62
7
  6
CONTINUOUS
 10
368.7637229651
 20
30.6680782357
 11
368.4168479651
 21
30.6358138717
 12
368.6480977445
 22
30.7003410226
 13
368.6480977445
 23
30.7003410226
  0
SOLID
  8
0
 62
7
  6
CONTINUOUS
 10
368.6480977445
 20
30.7003410226
 11
368.4168479651
 21
30.6358138717
 12
368.5902854651
 22
30.7648680521
 13
368.5902854651
 23
30.7648680521
  0
SOLID
  8
0
 62
7
  6
CONTINUOUS
 10
368.4168479651
 20
30.6358138717
 11
368.3012227445
 21
30.7648680521
 12
368.5902854651
 22
30.7648680521
 13
368.5902854651
 23
30.7648680521
  0
SOLID
  8
0
 62
7
  6
CONTINUOUS
 10
368.7637229651
 20
30.6680782357
 11
369.1105979651
 21
30.6358138717
 12
368.4168479651
 22
30.6358138717
 13
368.4168479651
 23
30.6358138717
  0
SOLID
  8
0
 62
7
  6
CONTINUOUS
 10
365.4684104651
 20
30.5067597521
 11
365.4684104651
 21
31.5391977439
 12
365.757472524
 22
30.5067597521
 13
365.757472524
 23
31.5391977439
  0
ENDBLK
  8
0
  6
BYBLOCK
 62
0
  0
BLOCK
  8
0
 62
2
  6
CONTINUOUS
  2
SYMBOL_0_BL0
 70
64
 10
240.8592468615
 20
19.762288695
  0
TEXT
  8
0
 62
7
  6
CONTINUOUS
 10
227.1239507038
 20
19.1357028027
  7
TEXTSTYLE_3
 40
2.7338706658
  1
Ammeraal Beltech
 41
1.0
 51
15.0
 72
0
  0
TEXT
  8
0
 62
7
  6
CONTINUOUS
 10
237.9247515296
 20
16.8621661299
  7
TEXTSTYLE_4
 40
1.0935482663
  1
Innovation & Service in Belting
 41
1.0
 72
0
  0
LINE
  8
0
 62
7
  6
CONTINUOUS
 10
221.0994100525
 20
19.9022961113
 11
221.8775620458
 21
23.5632134089
  0
LINE
  8
0
 62
7
  6
CONTINUOUS
 10
231.9727303357
 20
27.2266073205
 11
222.3653797889
 21
24.1049898993
  0
LINE
  8
0
 62
7
  6
CONTINUOUS
 10
221.3246933848
 20
19.2089453082
 11
228.8317686459
 21
12.4495443822
  0
LINE
  8
0
 62
7
  6
CONTINUOUS
 10
221.5872277955
 20
20.4440726016
 11
232.3954971607
 21
23.9558922005
  0
LINE
  8
0
 62
7
  6
CONTINUOUS
 10
232.3912920235
 20
13.6061036368
 11
223.9458323548
 21
21.2104296785
  0
LINE
  8
0
 62
7
  6
CONTINUOUS
 10
232.9111147433
 20
26.3816822048
 11
231.9345552061
 21
21.7873308023
  0
LINE
  8
0
 62
7
  6
CONTINUOUS
 10
231.2347532584
 20
18.4950214885
 11
230.5483050469
 21
15.2655365641
  0
LINE
  8
0
 62
7
  6
CONTINUOUS
 10
233.5922108419
 20
13.9963058145
 11
234.5484423775
 21
18.4950214885
  0
LINE
  8
0
 62
7
  6
CONTINUOUS
 10
235.2482443252
 20
21.7873308023
 11
235.6924861276
 21
23.8773241617
  0
LINE
  8
0
 62
7
  6
CONTINUOUS
 10
229.5448697213
 20
12.2979700695
 11
233.1043930989
 21
13.4545293241
  0
LINE
  8
0
 62
7
  6
CONTINUOUS
 10
232.685831411
 20
27.0750330078
 11
235.4672027953
 21
24.5706749648
  0
ARC
  8
0
 62
7
  6
CONTINUOUS
 10
222.5906631212
 20
23.4116390962
 40
0.7290321776
 50
108.0
 51
168.0
  0
ARC
  8
0
 62
7
  6
CONTINUOUS
 10
232.198013668
 20
26.5332565175
 40
0.7290321776
 50
348.0
 51
108.0
  0
ARC
  8
0
 62
7
  6
CONTINUOUS
 10
234.9793850522
 20
24.0288984744
 40
0.7290321776
 50
348.0
 51
48.0
  0
ARC
  8
0
 62
7
  6
CONTINUOUS
 10
229.319586389
 20
12.9913208726
 40
0.7290321776
 50
228.0
 51
288.0
  0
ARC
  8
0
 62
7
  6
CONTINUOUS
 10
221.8125111278
 20
19.7507217986
 40
0.7290321776
 50
108.0
 51
228.0
  0
ARC
  8
0
 62
7
  6
CONTINUOUS
 10
232.8791097665
 20
14.1478801272
 40
0.7290321776
 50
228.0
 51
348.0
  0
ENDBLK
  8
0
  6
BYBLOCK
 62
0
  0
ENDSEC
  0
SECTION
  2
ENTITIES
  0
TEXT
  8
0
 62
5
  6
CONTINUOUS
 10
304.937007874
 20
25.636
  7
TEXTSTYLE_2
 40
2.8
  1
Scale :
 41
0.6
 51
0.000019
 72
0
  0
TEXT
  8
0
 62
5
  6
CONTINUOUS
 10
324.937007874
 20
25.636
  7
TEXTSTYLE_2
 40
2.8
  1
Belt type:
 41
0.6
 51
0.000019
 72
0
  0
INSERT
  8
0
 62
2
  6
CONTINUOUS
  2
SYMBOL_0_BL0
 10
240.8592468615
 20
19.762288695
  0
INSERT
  8
0
 62
2
  6
CONTINUOUS
  2
SYMBOL_5_BL1
 10
382.7840918555
 20
35.5067593403
  0
LINE
  8
0
 62
2
  6
CONTINUOUS
 10
218.937007874
 20
30.0
 11
408.937007874
 21
30.0
  0
LINE
  8
0
 62
2
  6
CONTINUOUS
 10
218.937007874
 20
30.0
 11
218.937007874
 21
10.0
  0
LINE
  8
0
 62
2
  6
CONTINUOUS
 10
218.937007874
 20
10.0
 11
408.937007874
 21
10.0
  0
LINE
  8
0
 62
2
  6
CONTINUOUS
 10
303.937007874
 20
30.0
 11
303.937007874
 21
10.0
  0
LINE
  8
0
 62
2
  6
CONTINUOUS
 10
323.937007874
 20
30.0
 11
323.937007874
 21
10.0
  0
LINE
  8
0
 62
2
  6
CONTINUOUS
 10
408.937007874
 20
30.0
 11
408.937007874
 21
10.0
  0
TEXT
  8
0
 62
5
  6
CONTINUOUS
 10
221.937007874
 20
23.303
  7
TEXTSTYLE_5
 40
1.52
  1
                                                                     Ammeraal Beltech Modular A/S
 41
1.0
 72
0
  0
TEXT
  8
0
 62
5
  6
CONTINUOUS
 10
221.937007874
 20
20.595
  7
TEXTSTYLE_5
 40
1.5
  1
                                                                      Hjulmagervej 21, 7100 Vejle,  DK
 41
1.0
 72
0
  0
TEXT
  8
0
 62
5
  6
CONTINUOUS
 10
221.937007874
 20
17.881
  7
TEXTSTYLE_5
 40
1.495
  1
                                                                      tel: 
 41
1.0
 72
0
  0
TEXT
  8
0
 62
5
  6
CONTINUOUS
 10
266.9239544389
 20
17.881
  7
TEXTSTYLE_5
 40
1.51
  1
+45 75723100     fax: +45 75723348
 41
1.0
 72
0
  0
TEXT
  8
0
 62
5
  6
CONTINUOUS
 10
221.937007874
 20
15.177
  7
TEXTSTYLE_5
 40
1.5
  1
                                                                      admin@unichains.dk  www.unichains.com
 41
1.0
 72
0
  0
TEXT
  8
0
 62
5
  6
CONTINUOUS
 10
308.687007874
 20
13.75
  7
TEXTSTYLE_6
 40
5.0
  1
1:1
 41
0.7
 72
1
 11
313.937007874
 21
13.75
  0
TEXT
  8
0
 62
5
  6
CONTINUOUS
 10
326.937007874
 20
13.75
  7
TEXTSTYLE_7
 40
7.5
  1
uni Light-00-CR-K600
 41
0.529375
 72
0
  0
LINE
  8
0
 62
7
  6
CONTINUOUS
 10
0.0
 20
0.0
 11
0.0
 21
297.0
  0
LINE
  8
0
 62
7
  6
CONTINUOUS
 10
8.937007874
 20
10.0
 11
8.937007874
 21
287.0
  0
LINE
  8
0
 62
7
  6
CONTINUOUS
 10
0.0
 20
0.0
 11
420.0
 21
0.0
  0
LINE
  8
0
 62
7
  6
CONTINUOUS
 10
408.937007874
 20
10.0
 11
8.937007874
 21
10.0
  0
LINE
  8
0
 62
7
  6
CONTINUOUS
 10
218.937007874
 20
30.0
 11
408.937007874
 21
30.0
  0
LINE
  8
0
 62
7
  6
CONTINUOUS
 10
210.0
 20
297.0
 11
210.0
 21
292.0
  0
LINE
  8
0
 62
7
  6
CONTINUOUS
 10
210.0
 20
0.0
 11
210.0
 21
5.0
  0
LINE
  8
0
 62
7
  6
CONTINUOUS
 10
8.937007874
 20
287.0
 11
408.937007874
 21
287.0
  0
LINE
  8
0
 62
7
  6
CONTINUOUS
 10
0.0
 20
297.0
 11
420.0
 21
297.0
  0
LINE
  8
0
 62
7
  6
CONTINUOUS
 10
408.937007874
 20
287.0
 11
408.937007874
 21
10.0
  0
LINE
  8
0
 62
7
  6
CONTINUOUS
 10
420.0
 20
0.0
 11
420.0
 21
297.0
  0
LINE
  8
0
 62
7
  6
CONTINUOUS
 10
66.1540224913
 20
204.1037633478
 11
66.1540224913
 21
209.9037633478
  0
LINE
  8
0
 62
7
  6
CONTINUOUS
 10
66.3540224913
 20
202.4037647424
 11
66.3540224913
 21
209.9037633478
  0
POLYLINE
  8
0
 62
7
  6
CONTINUOUS
 66
1
 70
0
  0
VERTEX
  8
0
 62
7
  6
CONTINUOUS
 10
70.3040224913
 20
207.6390400432
  0
VERTEX
  8
0
 62
7
  6
CONTINUOUS
 10
70.3060677686
 20
207.594993149
  0
VERTEX
  8
0
 62
7
  6
CONTINUOUS
 10
70.3122751035
 20
207.5497130247
  0
VERTEX
  8
0
 62
7
  6
CONTINUOUS
 10
70.3226700054
 20
207.5037633478
  0
SEQEND
  0
LINE
  8
0
 62
7
  6
CONTINUOUS
 10
66.8540224913
 20
210.4037633478
 11
66.8540224913
 21
212.0450367689
  0
LINE
  8
0
 62
7
  6
CONTINUOUS
 10
67.0683634984
 20
211.1400185238
 11
67.0683634984
 21
212.4037633478
  0
LINE
  8
0
 62
7
  6
CONTINUOUS
 10
68.2633739586
 20
212.4037633478
 11
68.2633739586
 21
211.6675081718
  0
LINE
  8
0
 62
7
  6
CONTINUOUS
 10
69.4583844188
 20
211.1400185238
 11
69.4583844188
 21
212.4037633478
  0
LINE
  8
0
 62
7
  6
CONTINUOUS
 10
69.8040224913
 20
210.4037633478
 11
69.8040224913
 21
211.8252946498
  0
LINE
  8
0
 62
7
  6
CONTINUOUS
 10
70.3040224913
 20
202.4037633478
 11
70.3040224913
 21
209.9037633478
  0
LINE
  8
0
 62
7
  6
CONTINUOUS
 10
70.653394879
 20
211.3439132333
 11
70.653394879
 21
212.4037633478
  0
LINE
  8
0
 62
7
  6
CONTINUOUS
 10
71.8484053392
 20
211.4636254692
 11
71.8484053392
 21
212.4037633478
  0
LINE
  8
0
 62
7
  6
CONTINUOUS
 10
72.9540224913
 20
207.5037633478
 11
72.9540224913
 21
202.4037633478
  0
LINE
  8
0
 62
7
  6
CONTINUOUS
 10
73.0434157994
 20
211.3438892196
 11
73.0434157994
 21
212.4037633478
  0
LINE
  8
0
 62
7
  6
CONTINUOUS
 10
74.2384262596
 20
211.4636494829
 11
74.2384262596
 21
212.4037633478
  0
LINE
  8
0
 62
7
  6
CONTINUOUS
 10
75.4334367199
 20
211.3438652059
 11
75.4334367199
 21
212.4037633478
  0
LINE
  8
0
 62
7
  6
CONTINUOUS
 10
76.6284471801
 20
211.4636734966
 11
76.6284471801
 21
212.4037633478
  0
LINE
  8
0
 62
7
  6
CONTINUOUS
 10
67.0683634984
 20
212.4037633478
 11
66.8540224913
 21
212.0450367689
  0
LINE
  8
0
 62
7
  6
CONTINUOUS
 10
66.8540224913
 20
210.7812919449
 11
67.0683634984
 21
211.1400185238
  0
LINE
  8
0
 62
7
  6
CONTINUOUS
 10
67.2883216576
 20
210.7718909358
 11
68.2633739586
 21
212.4037633478
  0
LINE
  8
0
 62
7
  6
CONTINUOUS
 10
67.5082798168
 20
210.4037633478
 11
68.2633739586
 21
211.6675081718
  0
LINE
  8
0
 62
7
  6
CONTINUOUS
 10
77.8234576403
 20
211.3438411922
 11
77.8234576403
 21
212.4037633478
  0
LINE
  8
2_FEATURE
 62
7
  6
CONTINUOUS
 10
78.1040224913
 20
203.1097798646
 11
78.1040224913
 21
201.9037633478
  0
LINE
  8
0
 62
7
  6
CONTINUOUS
 10
78.5040224913
 20
205.6468455558
 11
78.5040224913
 21
202.4037633478
  0
LINE
  8
0
 62
7
  6
CONTINUOUS
 10
79.0184681005
 20
211.4636975103
 11
79.0184681005
 21
212.4037633478
  0
LINE
  8
0
 62
7
  6
CONTINUOUS
 10
80.2134785607
 20
211.3438171785
 11
80.2134785607
 21
212.4037633478
  0
LINE
  8
0
 62
7
  6
CONTINUOUS
 10
80.4540224913
 20
209.9037633478
 11
80.4540224913
 21
202.4037633478
  0
LINE
  8
0
 62
7
  6
CONTINUOUS
 10
80.9540323363
 20
210.4037633478
 11
80.954051756
 21
211.6432055452
  0
LINE
  8
0
 62
7
  6
CONTINUOUS
 10
81.4084890209
 20
211.1400185238
 11
81.4084890209
 21
212.4037633478
  0
POLYLINE
  8
2_FEATURE
 62
7
  6
CONTINUOUS
 66
1
 70
0
  0
VERTEX
  8
2_FEATURE
 62
7
  6
CONTINUOUS
 10
78.1040224913
 20
203.1097798646
  0
VERTEX
  8
2_FEATURE
 62
7
  6
CONTINUOUS
 10
78.1133076895
 20
203.17324685
  0
VERTEX
  8
2_FEATURE
 62
7
  6
CONTINUOUS
 10
78.1352326558
 20
203.2199603329
  0
VERTEX
  8
2_FEATURE
 62
7
  6
CONTINUOUS
 10
78.1633199298
 20
203.2502369416
  0
VERTEX
  8
2_FEATURE
 62
7
  6
CONTINUOUS
 10
78.1934498883
 20
203.2658078688
  0
VERTEX
  8
2_FEATURE
 62
7
  6
CONTINUOUS
 10
78.2244945425
 20
203.2692432361
  0
VERTEX
  8
2_FEATURE
 62
7
  6
CONTINUOUS
 10
78.2575144038
 20
203.2612152755
  0
VERTEX
  8
2_FEATURE
 62
7
  6
CONTINUOUS
 10
78.2913896553
 20
203.2414129701
  0
VERTEX
  8
2_FEATURE
 62
7
  6
CONTINUOUS
 10
78.3275510498
 20
203.2073933109
  0
VERTEX
  8
2_FEATURE
 62
7
  6
CONTINUOUS
 10
78.3654979236
 20
203.1563632347
  0
VERTEX
  8
2_FEATURE
 62
7
  6
CONTINUOUS
 10
78.4032314702
 20
203.087362948
  0
VERTEX
  8
2_FEATURE
 62
7
  6
CONTINUOUS
 10
78.4395275272
 20
202.9980311173
  0
SEQEND
  0
POLYLINE
  8
0
 62
7
  6
CONTINUOUS
 66
1
 70
0
  0
VERTEX
  8
0
 62
7
  6
CONTINUOUS
 10
80.4437842407
 20
207.5037633478
  0
VERTEX
  8
0
 62
7
  6
CONTINUOUS
 10
80.4494873639
 20
207.5377005752
  0
VERTEX
  8
0
 62
7
  6
CONTINUOUS
 10
80.4528925651
 20
207.5712933306
  0
VERTEX
  8
0
 62
7
  6
CONTINUOUS
 10
80.4540224913
 20
207.6044282817
  0
SEQEND
  0
LINE
  8
0
 62
7
  6
CONTINUOUS
 10
68.8608791887
 20
211.4037633478
 11
69.4583844188
 21
212.4037633478
  0
LINE
  8
0
 62
7
  6
CONTINUOUS
 10
69.4583844188
 20
211.1400185238
 11
69.0184681005
 21
210.4037633478
  0
LINE
  8
0
 62
7
  6
CONTINUOUS
 10
69.678342578
 20
210.7718909358
 11
70.653394879
 21
212.4037633478
  0
LINE
  8
0
 62
7
  6
CONTINUOUS
 10
70.0916470304
 20
210.4037633436
 11
70.653394879
 21
211.3439132333
  0
LINE
  8
0
 62
7
  6
CONTINUOUS
 10
71.2509001091
 20
211.4037633478
 11
71.8484053392
 21
212.4037633478
  0
LINE
  8
0
 62
7
  6
CONTINUOUS
 10
71.2151359783
 20
210.4037633444
 11
71.8484053392
 21
211.4636254692
  0
LINE
  8
0
 62
7
  6
CONTINUOUS
 10
72.16504287
 20
210.9336959992
 11
73.0434157994
 21
212.4037633478
  0
LINE
  8
0
 62
7
  6
CONTINUOUS
 10
72.4816823002
 20
210.4037633452
 11
73.0434157994
 21
211.3438892196
  0
LINE
  8
0
 62
7
  6
CONTINUOUS
 10
73.6409210295
 20
211.4037633478
 11
74.2384262596
 21
212.4037633478
  0
LINE
  8
0
 62
7
  6
CONTINUOUS
 10
73.6051425513
 20
210.4037633459
 11
74.2384262596
 21
211.4636494829
  0
LINE
  8
0
 62
7
  6
CONTINUOUS
 10
67.0683634984
 20
211.1400185238
 11
67.5082798168
 21
210.4037633478
  0
LINE
  8
0
 62
7
  6
CONTINUOUS
 10
67.0683634984
 20
212.4037633478
 11
67.6658687285
 21
211.4037633478
  0
LINE
  8
0
 62
7
  6
CONTINUOUS
 10
68.2633739586
 20
211.6675081718
 11
69.0184681005
 21
210.4037633478
  0
LINE
  8
0
 62
7
  6
CONTINUOUS
 10
68.2633739586
 20
212.4037633478
 11
69.2384262596
 21
210.7718909358
  0
LINE
  8
0
 62
7
  6
CONTINUOUS
 10
69.8040224913
 20
210.5615498258
 11
69.4583844188
 21
211.1400185238
  0
POLYLINE
  8
2_FEATURE
 62
7
  6
CONTINUOUS
 66
1
 70
0
  0
VERTEX
  8
2_FEATURE
 62
7
  6
CONTINUOUS
 10
78.4395275272
 20
202.9980311173
  0
VERTEX
  8
2_FEATURE
 62
7
  6
CONTINUOUS
 10
78.4821717816
 20
202.8440428971
  0
VERTEX
  8
2_FEATURE
 62
7
  6
CONTINUOUS
 10
78.4947600868
 20
202.7705807044
  0
VERTEX
  8
2_FEATURE
 62
7
  6
CONTINUOUS
 10
78.5040224913
 20
202.6379096278
  0
SEQEND
  0
LINE
  8
0
 62
7
  6
CONTINUOUS
 10
82.6034994811
 20
212.4037633478
 11
82.6034994811
 21
211.6675081718
  0
LINE
  8
0
 62
7
  6
CONTINUOUS
 10
83.7985099413
 20
211.1400185238
 11
83.7985099413
 21
212.4037633478
  0
LINE
  8
0
 62
7
  6
CONTINUOUS
 10
84.9935204015
 20
212.4037633478
 11
84.9935204015
 21
211.6675081718
  0
LINE
  8
0
 62
7
  6
CONTINUOUS
 10
86.1885308617
 20
211.1400185238
 11
86.1885308617
 21
212.4037633478
  0
LINE
  8
0
 62
7
  6
CONTINUOUS
 10
74.5550709646
 20
210.9337080061
 11
75.4334367199
 21
212.4037633478
  0
LINE
  8
0
 62
7
  6
CONTINUOUS
 10
74.8717175698
 20
210.4037633465
 11
75.4334367199
 21
211.3438652059
  0
LINE
  8
0
 62
7
  6
CONTINUOUS
 10
76.03094195
 20
211.4037633478
 11
76.6284471801
 21
212.4037633478
  0
LINE
  8
0
 62
7
  6
CONTINUOUS
 10
75.9951491242
 20
210.4037633469
 11
76.6284471801
 21
211.4636734966
  0
LINE
  8
0
 62
7
  6
CONTINUOUS
 10
76.9450990592
 20
210.933720013
 11
77.8234576403
 21
212.4037633478
  0
LINE
  8
0
 62
7
  6
CONTINUOUS
 10
77.2617528391
 20
210.4037633473
 11
77.8234576403
 21
211.3438411922
  0
LINE
  8
0
 62
7
  6
CONTINUOUS
 10
78.4209628704
 20
211.4037633478
 11
79.0184681005
 21
212.4037633478
  0
LINE
  8
0
 62
7
  6
CONTINUOUS
 10
78.3851556967
 20
210.4037633476
 11
79.0184681005
 21
211.4636975103
  0
LINE
  8
0
 62
7
  6
CONTINUOUS
 10
79.3351271538
 20
210.9337320199
 11
80.2134785607
 21
212.4037633478
  0
LINE
  8
0
 62
7
  6
CONTINUOUS
 10
79.6517881082
 20
210.4037633478
 11
80.2134785607
 21
211.3438171785
  0
LINE
  8
0
 62
7
  6
CONTINUOUS
 10
69.8040224913
 20
210.8851362302
 11
70.0916470355
 21
210.4037633436
  0
LINE
  8
0
 62
7
  6
CONTINUOUS
 10
69.4583844188
 20
212.4037633478
 11
70.0558896489
 21
211.4037633478
  0
LINE
  8
0
 62
7
  6
CONTINUOUS
 10
70.653394879
 20
211.3439132333
 11
71.2151359824
 21
210.4037633444
  0
LINE
  8
0
 62
7
  6
CONTINUOUS
 10
70.653394879
 20
212.4037633478
 11
71.5317697093
 21
210.9336928178
  0
LINE
  8
0
 62
7
  6
CONTINUOUS
 10
71.8484053392
 20
211.4636254692
 11
72.4816823033
 21
210.4037633452
  0
LINE
  8
0
 62
7
  6
CONTINUOUS
 10
71.8484053392
 20
212.4037633478
 11
72.4459105693
 21
211.4037633478
  0
LINE
  8
0
 62
7
  6
CONTINUOUS
 10
73.0434157994
 20
211.3438892196
 11
73.6051425537
 21
210.4037633459
  0
LINE
  8
0
 62
7
  6
CONTINUOUS
 10
73.0434157994
 20
212.4037633478
 11
73.9217834556
 21
210.9337048246
  0
LINE
  8
0
 62
7
  6
CONTINUOUS
 10
74.2384262596
 20
211.4636494829
 11
74.8717175714
 21
210.4037633465
  0
LINE
  8
0
 62
7
  6
CONTINUOUS
 10
74.2384262596
 20
212.4037633478
 11
74.8359314898
 21
211.4037633478
  0
POLYLINE
  8
0
 62
7
  6
CONTINUOUS
 66
1
 70
0
  0
VERTEX
  8
0
 62
7
  6
CONTINUOUS
 10
89.6540224913
 20
207.6044282817
  0
VERTEX
  8
0
 62
7
  6
CONTINUOUS
 10
89.6551516147
 20
207.571305172
  0
VERTEX
  8
0
 62
7
  6
CONTINUOUS
 10
89.6585574073
 20
207.5377021453
  0
VERTEX
  8
0
 62
7
  6
CONTINUOUS
 10
89.664260742
 20
207.5037633478
  0
SEQEND
  0
LINE
  8
0
 62
7
  6
CONTINUOUS
 10
87.3835413219
 20
212.4037633478
 11
87.3835413219
 21
211.6675081718
  0
LINE
  8
0
 62
7
  6
CONTINUOUS
 10
88.5785517821
 20
211.1400185238
 11
88.5785517821
 21
212.4037633478
  0
LINE
  8
0
 62
7
  6
CONTINUOUS
 10
89.1540224913
 20
210.4037633478
 11
89.1540224913
 21
211.4406408842
  0
LINE
  8
0
 62
7
  6
CONTINUOUS
 10
89.6540224913
 20
202.4037633478
 11
89.6540224913
 21
209.9037633478
  0
LINE
  8
0
 62
7
  6
CONTINUOUS
 10
89.7735622423
 20
211.3439153998
 11
89.7735622423
 21
212.4037633478
  0
LINE
  8
0
 62
7
  6
CONTINUOUS
 10
90.9685727025
 20
211.4636235781
 11
90.9685727025
 21
212.4037633478
  0
LINE
  8
0
 62
7
  6
CONTINUOUS
 10
91.6040224913
 20
205.6468458059
 11
91.6040224913
 21
202.4037633478
  0
LINE
  8
0
 62
7
  6
CONTINUOUS
 10
80.8109837908
 20
211.4037633478
 11
81.4084890209
 21
212.4037633478
  0
LINE
  8
0
 62
7
  6
CONTINUOUS
 10
80.9540868164
 20
210.7032178338
 11
80.7751622691
 21
210.4037633478
  0
LINE
  8
0
 62
7
  6
CONTINUOUS
 10
81.4084890209
 20
211.1400185238
 11
80.9685727025
 21
210.4037633478
  0
LINE
  8
0
 62
7
  6
CONTINUOUS
 10
81.6284471801
 20
210.7718909358
 11
82.6034994811
 21
212.4037633478
  0
LINE
  8
0
 62
7
  6
CONTINUOUS
 10
81.8484053392
 20
210.4037633478
 11
82.6034994811
 21
211.6675081718
  0
LINE
  8
0
 62
7
  6
CONTINUOUS
 10
83.2010047112
 20
211.4037633478
 11
83.7985099413
 21
212.4037633478
  0
LINE
  8
0
 62
7
  6
CONTINUOUS
 10
83.3585936229
 20
210.4037633478
 11
83.7985099413
 21
211.1400185238
  0
LINE
  8
0
 62
7
  6
CONTINUOUS
 10
84.0184681005
 20
210.7718909358
 11
84.9935204015
 21
212.4037633478
  0
LINE
  8
0
 62
7
  6
CONTINUOUS
 10
84.2384262596
 20
210.4037633478
 11
84.9935204015
 21
211.6675081718
  0
LINE
  8
0
 62
7
  6
CONTINUOUS
 10
85.5910256316
 20
211.4037633478
 11
86.1885308617
 21
212.4037633478
  0
LINE
  8
0
 62
7
  6
CONTINUOUS
 10
85.7486145433
 20
210.4037633478
 11
86.1885308617
 21
211.1400185238
  0
POLYLINE
  8
0
 62
7
  6
CONTINUOUS
 66
1
 70
0
  0
VERTEX
  8
0
 62
7
  6
CONTINUOUS
 10
70.3040224913
 20
205.3400347229
  0
VERTEX
  8
0
 62
7
  6
CONTINUOUS
 10
70.291596523
 20
205.3267946538
  0
VERTEX
  8
0
 62
7
  6
CONTINUOUS
 10
70.2548670432
 20
205.3143686776
  0
VERTEX
  8
0
 62
7
  6
CONTINUOUS
 10
70.1955552248
 20
205.3033353803
  0
VERTEX
  8
0
 62
7
  6
CONTINUOUS
 10
70.1165286216
 20
205.2941969652
  0
VERTEX
  8
0
 62
7
  6
CONTINUOUS
 10
70.0216800566
 20
205.2873625015
  0
VERTEX
  8
0
 62
7
  6
CONTINUOUS
 10
69.91573843
 20
205.2831351233
  0
VERTEX
  8
0
 62
7
  6
CONTINUOUS
 10
69.8040224913
 20
205.2817036789
  0
SEQEND
  0
POLYLINE
  8
0
 62
7
  6
CONTINUOUS
 66
1
 70
0
  0
VERTEX
  8
0
 62
7
  6
CONTINUOUS
 10
70.3040224913
 20
207.1674919728
  0
VERTEX
  8
0
 62
7
  6
CONTINUOUS
 10
70.291596523
 20
207.1807320419
  0
VERTEX
  8
0
 62
7
  6
CONTINUOUS
 10
70.2548670432
 20
207.193158018
  0
VERTEX
  8
0
 62
7
  6
CONTINUOUS
 10
70.1955552248
 20
207.2041913153
  0
VERTEX
  8
0
 62
7
  6
CONTINUOUS
 10
70.1165286216
 20
207.2133297305
  0
VERTEX
  8
0
 62
7
  6
CONTINUOUS
 10
70.0216800566
 20
207.2201641942
  0
VERTEX
  8
0
 62
7
  6
CONTINUOUS
 10
69.91573843
 20
207.2243915723
  0
VERTEX
  8
0
 62
7
  6
CONTINUOUS
 10
69.8040224913
 20
207.2258230168
  0
SEQEND
  0
LINE
  8
0
 62
7
  6
CONTINUOUS
 10
75.4334367199
 20
211.3438652059
 11
75.9951491252
 21
210.4037633469
  0
LINE
  8
0
 62
7
  6
CONTINUOUS
 10
75.4334367199
 20
212.4037633478
 11
76.3117972019
 21
210.9337168314
  0
LINE
  8
0
 62
7
  6
CONTINUOUS
 10
76.6284471801
 20
211.4636734966
 11
77.2617528397
 21
210.4037633473
  0
LINE
  8
0
 62
7
  6
CONTINUOUS
 10
76.6284471801
 20
212.4037633478
 11
77.2259524102
 21
211.4037633478
  0
LINE
  8
0
 62
7
  6
CONTINUOUS
 10
77.8234576403
 20
211.3438411922
 11
78.385155697
 21
210.4037633476
  0
LINE
  8
0
 62
7
  6
CONTINUOUS
 10
77.8234576403
 20
212.4037633478
 11
78.7018109482
 21
210.9337288383
  0
LINE
  8
0
 62
7
  6
CONTINUOUS
 10
79.0184681005
 20
211.4636975103
 11
79.6517881082
 21
210.4037633478
  0
LINE
  8
0
 62
7
  6
CONTINUOUS
 10
79.0184681005
 20
212.4037633478
 11
79.6159733306
 21
211.4037633478
  0
LINE
  8
0
 62
7
  6
CONTINUOUS
 10
80.2134785607
 20
211.3438171785
 11
80.7751622691
 21
210.4037633478
  0
LINE
  8
0
 62
7
  6
CONTINUOUS
 10
80.9540323363
 20
210.4280984757
 11
80.9685727025
 21
210.4037633478
  0
LINE
  8
0
 62
7
  6
CONTINUOUS
 10
80.2134785607
 20
212.4037633478
 11
81.1885308617
 21
210.7718909358
  0
LINE
  8
0
 62
7
  6
CONTINUOUS
 10
81.4084890209
 20
211.1400185238
 11
81.8484053392
 21
210.4037633478
  0
LINE
  8
0
 62
7
  6
CONTINUOUS
 10
92.1635831627
 20
211.3438908353
 11
92.1635831627
 21
212.4037633478
  0
LINE
  8
0
 62
7
  6
CONTINUOUS
 10
93.3585936229
 20
211.4636481426
 11
93.3585936229
 21
212.4037633478
  0
LINE
  8
0
 62
7
  6
CONTINUOUS
 10
94.5536040831
 20
211.3438662708
 11
94.5536040831
 21
212.4037633478
  0
LINE
  8
0
 62
7
  6
CONTINUOUS
 10
95.7486145433
 20
211.4636727071
 11
95.7486145433
 21
212.4037633478
  0
LINE
  8
0
 62
7
  6
CONTINUOUS
 10
96.9436250035
 20
211.3438417064
 11
96.9436250035
 21
212.4037633478
  0
LINE
  8
0
 62
7
  6
CONTINUOUS
 10
86.4084890209
 20
210.7718909358
 11
87.3835413219
 21
212.4037633478
  0
LINE
  8
0
 62
7
  6
CONTINUOUS
 10
86.6284471801
 20
210.4037633478
 11
87.3835413219
 21
211.6675081718
  0
LINE
  8
0
 62
7
  6
CONTINUOUS
 10
87.981046552
 20
211.4037633478
 11
88.5785517821
 21
212.4037633478
  0
LINE
  8
0
 62
7
  6
CONTINUOUS
 10
88.5785517821
 20
211.1400185238
 11
88.1386354638
 21
210.4037633478
  0
LINE
  8
0
 62
7
  6
CONTINUOUS
 10
88.7985099413
 20
210.7718909358
 11
89.7735622423
 21
212.4037633478
  0
LINE
  8
0
 62
7
  6
CONTINUOUS
 10
89.1540224913
 20
210.6306306354
 11
89.0184681005
 21
210.4037633478
  0
LINE
  8
0
 62
7
  6
CONTINUOUS
 10
89.2118130218
 20
210.4037633434
 11
89.7735622423
 21
211.3439153998
  0
LINE
  8
0
 62
7
  6
CONTINUOUS
 10
90.3710674724
 20
211.4037633478
 11
90.9685727025
 21
212.4037633478
  0
LINE
  8
0
 62
7
  6
CONTINUOUS
 10
90.3353045586
 20
210.4037633443
 11
90.9685727025
 21
211.4636235781
  0
LINE
  8
0
 62
7
  6
CONTINUOUS
 10
91.2852096902
 20
210.9336950902
 11
92.1635831627
 21
212.4037633478
  0
LINE
  8
0
 62
7
  6
CONTINUOUS
 10
91.6018486207
 20
210.4037633451
 11
92.1635831627
 21
211.3438908353
  0
POLYLINE
  8
0
 62
7
  6
CONTINUOUS
 66
1
 70
0
  0
VERTEX
  8
0
 62
7
  6
CONTINUOUS
 10
80.4540224913
 20
205.3400347229
  0
VERTEX
  8
0
 62
7
  6
CONTINUOUS
 10
80.4664484597
 20
205.3267946538
  0
VERTEX
  8
0
 62
7
  6
CONTINUOUS
 10
80.5031779395
 20
205.3143686776
  0
VERTEX
  8
0
 62
7
  6
CONTINUOUS
 10
80.5624897579
 20
205.3033353803
  0
VERTEX
  8
0
 62
7
  6
CONTINUOUS
 10
80.6415163611
 20
205.2941969652
  0
VERTEX
  8
0
 62
7
  6
CONTINUOUS
 10
80.7363649261
 20
205.2873625015
  0
VERTEX
  8
0
 62
7
  6
CONTINUOUS
 10
80.8423065527
 20
205.2831351233
  0
VERTEX
  8
0
 62
7
  6
CONTINUOUS
 10
80.9540224913
 20
205.2817036789
  0
SEQEND
  0
LINE
  8
0
 62
7
  6
CONTINUOUS
 10
81.4084890209
 20
212.4037633478
 11
82.005994251
 21
211.4037633478
  0
LINE
  8
0
 62
7
  6
CONTINUOUS
 10
82.6034994811
 20
211.6675081718
 11
83.3585936229
 21
210.4037633478
  0
LINE
  8
0
 62
7
  6
CONTINUOUS
 10
82.6034994811
 20
212.4037633478
 11
83.5785517821
 21
210.7718909358
  0
LINE
  8
0
 62
7
  6
CONTINUOUS
 10
83.7985099413
 20
211.1400185238
 11
84.2384262596
 21
210.4037633478
  0
LINE
  8
0
 62
7
  6
CONTINUOUS
 10
83.7985099413
 20
212.4037633478
 11
84.3960151714
 21
211.4037633478
  0
LINE
  8
0
 62
7
  6
CONTINUOUS
 10
84.9935204015
 20
211.6675081718
 11
85.7486145433
 21
210.4037633478
  0
LINE
  8
0
 62
7
  6
CONTINUOUS
 10
84.9935204015
 20
212.4037633478
 11
85.9685727025
 21
210.7718909358
  0
LINE
  8
0
 62
7
  6
CONTINUOUS
 10
86.1885308617
 20
211.1400185238
 11
86.6284471801
 21
210.4037633478
  0
LINE
  8
0
 62
7
  6
CONTINUOUS
 10
86.1885308617
 20
212.4037633478
 11
86.7860360918
 21
211.4037633478
  0
LINE
  8
0
 62
7
  6
CONTINUOUS
 10
97.6040224913
 20
205.646845373
 11
97.6040224913
 21
202.4037633478
  0
LINE
  8
0
 62
7
  6
CONTINUOUS
 10
98.1386354638
 20
211.4636972715
 11
98.1386354638
 21
212.4037633478
  0
LINE
  8
0
 62
7
  6
CONTINUOUS
 10
99.333645924
 20
211.3438171419
 11
99.333645924
 21
212.4037633478
  0
LINE
  8
0
 62
7
  6
CONTINUOUS
 10
99.5540224913
 20
202.4037633478
 11
99.5540224913
 21
209.9037633478
  0
LINE
  8
0
 62
7
  6
CONTINUOUS
 10
100.0540323363
 20
210.4037633478
 11
100.054051756
 21
211.6094529314
  0
LINE
  8
0
 62
7
  6
CONTINUOUS
 10
100.5286563842
 20
211.1400185238
 11
100.5286563842
 21
212.4037633478
  0
LINE
  8
0
 62
7
  6
CONTINUOUS
 10
101.7236668444
 20
212.4037633478
 11
101.7236668444
 21
211.6675081718
  0
POLYLINE
  8
0
 62
7
  6
CONTINUOUS
 66
1
 70
0
  0
VERTEX
  8
0
 62
7
  6
CONTINUOUS
 10
99.5437842407
 20
207.5037633478
  0
VERTEX
  8
0
 62
7
  6
CONTINUOUS
 10
99.5494873639
 20
207.5377005752
  0
VERTEX
  8
0
 62
7
  6
CONTINUOUS
 10
99.5528925651
 20
207.5712933306
  0
VERTEX
  8
0
 62
7
  6
CONTINUOUS
 10
99.5540224913
 20
207.6044282817
  0
SEQEND
  0
LINE
  8
0
 62
7
  6
CONTINUOUS
 10
92.7610883928
 20
211.4037633478
 11
93.3585936229
 21
212.4037633478
  0
LINE
  8
0
 62
7
  6
CONTINUOUS
 10
92.7253108026
 20
210.4037633458
 11
93.3585936229
 21
211.4636481426
  0
LINE
  8
0
 62
7
  6
CONTINUOUS
 10
93.6752379493
 20
210.9337073724
 11
94.5536040831
 21
212.4037633478
  0
LINE
  8
0
 62
7
  6
CONTINUOUS
 10
93.9918842194
 20
210.4037633464
 11
94.5536040831
 21
211.3438662708
  0
LINE
  8
0
 62
7
  6
CONTINUOUS
 10
95.1511093132
 20
211.4037633478
 11
95.7486145433
 21
212.4037633478
  0
LINE
  8
0
 62
7
  6
CONTINUOUS
 10
95.1153170464
 20
210.4037633469
 11
95.7486145433
 21
211.4636727071
  0
LINE
  8
0
 62
7
  6
CONTINUOUS
 10
96.0652662084
 20
210.9337196547
 11
96.9436250035
 21
212.4037633478
  0
LINE
  8
0
 62
7
  6
CONTINUOUS
 10
96.3819198178
 20
210.4037633473
 11
96.9436250035
 21
211.3438417064
  0
LINE
  8
0
 62
7
  6
CONTINUOUS
 10
97.5411302337
 20
211.4037633478
 11
98.1386354638
 21
212.4037633478
  0
LINE
  8
0
 62
7
  6
CONTINUOUS
 10
97.5053232899
 20
210.4037633476
 11
98.1386354638
 21
211.4636972715
  0
POLYLINE
  8
0
 62
7
  6
CONTINUOUS
 66
1
 70
0
  0
VERTEX
  8
0
 62
7
  6
CONTINUOUS
 10
80.4540224913
 20
207.1674919728
  0
VERTEX
  8
0
 62
7
  6
CONTINUOUS
 10
80.4664484597
 20
207.1807320419
  0
VERTEX
  8
0
 62
7
  6
CONTINUOUS
 10
80.5031779395
 20
207.193158018
  0
VERTEX
  8
0
 62
7
  6
CONTINUOUS
 10
80.5624897579
 20
207.2041913153
  0
VERTEX
  8
0
 62
7
  6
CONTINUOUS
 10
80.6415163611
 20
207.2133297305
  0
VERTEX
  8
0
 62
7
  6
CONTINUOUS
 10
80.7363649261
 20
207.2201641942
  0
VERTEX
  8
0
 62
7
  6
CONTINUOUS
 10
80.8423065527
 20
207.2243915723
  0
VERTEX
  8
0
 62
7
  6
CONTINUOUS
 10
80.9540224913
 20
207.2258230168
  0
SEQEND
  0
LINE
  8
0
 62
7
  6
CONTINUOUS
 10
87.3835413219
 20
211.6675081718
 11
88.1386354638
 21
210.4037633478
  0
LINE
  8
0
 62
7
  6
CONTINUOUS
 10
87.3835413219
 20
212.4037633478
 11
88.3585936229
 21
210.7718909358
  0
LINE
  8
0
 62
7
  6
CONTINUOUS
 10
88.5785517821
 20
211.1400185238
 11
89.0184681005
 21
210.4037633478
  0
LINE
  8
0
 62
7
  6
CONTINUOUS
 10
89.1540224913
 20
210.5004824647
 11
89.2118130271
 21
210.4037633434
  0
LINE
  8
0
 62
7
  6
CONTINUOUS
 10
88.5785517821
 20
212.4037633478
 11
89.1760570122
 21
211.4037633478
  0
LINE
  8
0
 62
7
  6
CONTINUOUS
 10
89.7735622423
 20
211.3439153998
 11
90.3353045629
 21
210.4037633443
  0
LINE
  8
0
 62
7
  6
CONTINUOUS
 10
89.7735622423
 20
212.4037633478
 11
90.6519376594
 21
210.9336918358
  0
LINE
  8
0
 62
7
  6
CONTINUOUS
 10
90.9685727025
 20
211.4636235781
 11
91.6018486239
 21
210.4037633451
  0
LINE
  8
0
 62
7
  6
CONTINUOUS
 10
90.9685727025
 20
212.4037633478
 11
91.5660779326
 21
211.4037633478
  0
LINE
  8
0
 62
7
  6
CONTINUOUS
 10
92.1635831627
 20
211.3438908353
 11
92.725310805
 21
210.4037633458
  0
LINE
  8
0
 62
7
  6
CONTINUOUS
 10
92.1635831627
 20
212.4037633478
 11
93.0419512411
 21
210.933704118
  0
LINE
  8
0
 62
7
  6
CONTINUOUS
 10
102.9186773046
 20
211.1400185238
 11
102.9186773046
 21
212.4037633478
  0
LINE
  8
0
 62
7
  6
CONTINUOUS
 10
104.1136877648
 20
212.4037633478
 11
104.1136877648
 21
211.6675081718
  0
LINE
  8
0
 62
7
  6
CONTINUOUS
 10
105.308698225
 20
211.1400185238
 11
105.308698225
 21
212.4037633478
  0
LINE
  8
0
 62
7
  6
CONTINUOUS
 10
106.5037086852
 20
212.4037633478
 11
106.5037086852
 21
211.6675081718
  0
LINE
  8
0
 62
7
  6
CONTINUOUS
 10
98.4552944676
 20
210.933731937
 11
99.333645924
 21
212.4037633478
  0
LINE
  8
0
 62
7
  6
CONTINUOUS
 10
98.771955416
 20
210.4037633478
 11
99.333645924
 21
211.3438171419
  0
LINE
  8
0
 62
7
  6
CONTINUOUS
 10
99.9311511541
 20
211.4037633478
 11
100.5286563842
 21
212.4037633478
  0
LINE
  8
0
 62
7
  6
CONTINUOUS
 10
100.0540868164
 20
210.66946522
 11
99.8953295331
 21
210.4037633478
  0
LINE
  8
0
 62
7
  6
CONTINUOUS
 10
100.5286563842
 20
211.1400185238
 11
100.0887400658
 21
210.4037633478
  0
LINE
  8
0
 62
7
  6
CONTINUOUS
 10
100.7486145433
 20
210.7718909358
 11
101.7236668444
 21
212.4037633478
  0
LINE
  8
0
 62
7
  6
CONTINUOUS
 10
100.9685727025
 20
210.4037633478
 11
101.7236668444
 21
211.6675081718
  0
LINE
  8
0
 62
7
  6
CONTINUOUS
 10
102.3211720745
 20
211.4037633478
 11
102.9186773046
 21
212.4037633478
  0
LINE
  8
0
 62
7
  6
CONTINUOUS
 10
102.4787609862
 20
210.4037633478
 11
102.9186773046
 21
211.1400185238
  0
LINE
  8
0
 62
7
  6
CONTINUOUS
 10
103.1386354638
 20
210.7718909358
 11
104.1136877648
 21
212.4037633478
  0
LINE
  8
0
 62
7
  6
CONTINUOUS
 10
103.3585936229
 20
210.4037633478
 11
104.1136877648
 21
211.6675081718
  0
POLYLINE
  8
0
 62
7
  6
CONTINUOUS
 66
1
 70
0
  0
VERTEX
  8
0
 62
7
  6
CONTINUOUS
 10
89.6540224913
 20
205.3400347229
  0
VERTEX
  8
0
 62
7
  6
CONTINUOUS
 10
89.641596523
 20
205.3267946538
  0
VERTEX
  8
0
 62
7
  6
CONTINUOUS
 10
89.6048670432
 20
205.3143686776
  0
VERTEX
  8
0
 62
7
  6
CONTINUOUS
 10
89.5455552248
 20
205.3033353803
  0
VERTEX
  8
0
 62
7
  6
CONTINUOUS
 10
89.4665286216
 20
205.2941969652
  0
VERTEX
  8
0
 62
7
  6
CONTINUOUS
 10
89.3716800566
 20
205.2873625015
  0
VERTEX
  8
0
 62
7
  6
CONTINUOUS
 10
89.26573843
 20
205.2831351233
  0
VERTEX
  8
0
 62
7
  6
CONTINUOUS
 10
89.1540224913
 20
205.2817036789
  0
SEQEND
  0
POLYLINE
  8
0
 62
7
  6
CONTINUOUS
 66
1
 70
0
  0
VERTEX
  8
0
 62
7
  6
CONTINUOUS
 10
89.6540224913
 20
207.1674919728
  0
VERTEX
  8
0
 62
7
  6
CONTINUOUS
 10
89.641596523
 20
207.1807320419
  0
VERTEX
  8
0
 62
7
  6
CONTINUOUS
 10
89.6048670432
 20
207.193158018
  0
VERTEX
  8
0
 62
7
  6
CONTINUOUS
 10
89.5455552248
 20
207.2041913153
  0
VERTEX
  8
0
 62
7
  6
CONTINUOUS
 10
89.4665286216
 20
207.2133297305
  0
VERTEX
  8
0
 62
7
  6
CONTINUOUS
 10
89.3716800566
 20
207.2201641942
  0
VERTEX
  8
0
 62
7
  6
CONTINUOUS
 10
89.26573843
 20
207.2243915723
  0
VERTEX
  8
0
 62
7
  6
CONTINUOUS
 10
89.1540224913
 20
207.2258230168
  0
SEQEND
  0
LINE
  8
0
 62
7
  6
CONTINUOUS
 10
93.3585936229
 20
211.4636481426
 11
93.991884221
 21
210.4037633464
  0
LINE
  8
0
 62
7
  6
CONTINUOUS
 10
93.3585936229
 20
212.4037633478
 11
93.956098853
 21
211.4037633478
  0
LINE
  8
0
 62
7
  6
CONTINUOUS
 10
94.5536040831
 20
211.3438662708
 11
95.1153170475
 21
210.4037633469
  0
LINE
  8
0
 62
7
  6
CONTINUOUS
 10
94.5536040831
 20
212.4037633478
 11
95.4319648228
 21
210.9337164002
  0
LINE
  8
0
 62
7
  6
CONTINUOUS
 10
95.7486145433
 20
211.4636727071
 11
96.3819198184
 21
210.4037633473
  0
LINE
  8
0
 62
7
  6
CONTINUOUS
 10
95.7486145433
 20
212.4037633478
 11
96.3461197734
 21
211.4037633478
  0
LINE
  8
0
 62
7
  6
CONTINUOUS
 10
96.9436250035
 20
211.3438417064
 11
97.5053232902
 21
210.4037633476
  0
LINE
  8
0
 62
7
  6
CONTINUOUS
 10
96.9436250035
 20
212.4037633478
 11
97.8219784046
 21
210.9337286824
  0
LINE
  8
0
 62
7
  6
CONTINUOUS
 10
98.1386354638
 20
211.4636972715
 11
98.7719554161
 21
210.4037633478
  0
LINE
  8
0
 62
7
  6
CONTINUOUS
 10
98.1386354638
 20
212.4037633478
 11
98.7361406939
 21
211.4037633478
  0
POLYLINE
  8
0
 62
7
  6
CONTINUOUS
 66
1
 70
0
  0
VERTEX
  8
0
 62
7
  6
CONTINUOUS
 10
108.7540224913
 20
207.6044282817
  0
VERTEX
  8
0
 62
7
  6
CONTINUOUS
 10
108.7551516147
 20
207.571305172
  0
VERTEX
  8
0
 62
7
  6
CONTINUOUS
 10
108.7585574073
 20
207.5377021453
  0
VERTEX
  8
0
 62
7
  6
CONTINUOUS
 10
108.764260742
 20
207.5037633478
  0
SEQEND
  0
LINE
  8
0
 62
7
  6
CONTINUOUS
 10
107.6987191454
 20
211.1400185238
 11
107.6987191454
 21
212.4037633478
  0
LINE
  8
0
 62
7
  6
CONTINUOUS
 10
108.2540224913
 20
210.4037633478
 11
108.2540224913
 21
211.474393498
  0
LINE
  8
0
 62
7
  6
CONTINUOUS
 10
108.7540224913
 20
202.4037633478
 11
108.7540224913
 21
209.9037633478
  0
LINE
  8
0
 62
7
  6
CONTINUOUS
 10
108.8937296056
 20
211.3439151925
 11
108.8937296056
 21
212.4037633478
  0
LINE
  8
0
 62
7
  6
CONTINUOUS
 10
110.0887400658
 20
211.4636237854
 11
110.0887400658
 21
212.4037633478
  0
LINE
  8
0
 62
7
  6
CONTINUOUS
 10
110.7040224913
 20
205.6468458059
 11
110.7040224913
 21
202.4037633478
  0
LINE
  8
0
 62
7
  6
CONTINUOUS
 10
111.283750526
 20
211.343890628
 11
111.283750526
 21
212.4037633478
  0
LINE
  8
0
 62
7
  6
CONTINUOUS
 10
112.4787609862
 20
211.4636483499
 11
112.4787609862
 21
212.4037633478
  0
LINE
  8
0
 62
7
  6
CONTINUOUS
 10
104.7111929949
 20
211.4037633478
 11
105.308698225
 21
212.4037633478
  0
LINE
  8
0
 62
7
  6
CONTINUOUS
 10
104.8687819066
 20
210.4037633478
 11
105.308698225
 21
211.1400185238
  0
LINE
  8
0
 62
7
  6
CONTINUOUS
 10
105.5286563842
 20
210.7718909358
 11
106.5037086852
 21
212.4037633478
  0
LINE
  8
0
 62
7
  6
CONTINUOUS
 10
105.7486145433
 20
210.4037633478
 11
106.5037086852
 21
211.6675081718
  0
LINE
  8
0
 62
7
  6
CONTINUOUS
 10
107.1012139153
 20
211.4037633478
 11
107.6987191454
 21
212.4037633478
  0
LINE
  8
0
 62
7
  6
CONTINUOUS
 10
107.6987191454
 20
211.1400185238
 11
107.258802827
 21
210.4037633478
  0
LINE
  8
0
 62
7
  6
CONTINUOUS
 10
107.9186773046
 20
210.7718909358
 11
108.8937296056
 21
212.4037633478
  0
LINE
  8
0
 62
7
  6
CONTINUOUS
 10
108.2540224913
 20
210.5968780216
 11
108.1386354638
 21
210.4037633478
  0
LINE
  8
0
 62
7
  6
CONTINUOUS
 10
108.3319805089
 20
210.4037633434
 11
108.8937296056
 21
211.3439151925
  0
LINE
  8
0
 62
7
  6
CONTINUOUS
 10
109.4912348357
 20
211.4037633478
 11
110.0887400658
 21
212.4037633478
  0
LINE
  8
0
 62
7
  6
CONTINUOUS
 10
109.455471798
 20
210.4037633443
 11
110.0887400658
 21
211.4636237854
  0
POLYLINE
  8
0
 62
7
  6
CONTINUOUS
 66
1
 70
0
  0
VERTEX
  8
0
 62
7
  6
CONTINUOUS
 10
99.5540224913
 20
207.1674919728
  0
VERTEX
  8
0
 62
7
  6
CONTINUOUS
 10
99.5664484597
 20
207.1807320419
  0
VERTEX
  8
0
 62
7
  6
CONTINUOUS
 10
99.6031779395
 20
207.193158018
  0
VERTEX
  8
0
 62
7
  6
CONTINUOUS
 10
99.6624897579
 20
207.2041913153
  0
VERTEX
  8
0
 62
7
  6
CONTINUOUS
 10
99.7415163611
 20
207.2133297305
  0
VERTEX
  8
0
 62
7
  6
CONTINUOUS
 10
99.8363649261
 20
207.2201641942
  0
VERTEX
  8
0
 62
7
  6
CONTINUOUS
 10
99.9423065527
 20
207.2243915723
  0
VERTEX
  8
0
 62
7
  6
CONTINUOUS
 10
100.0540224913
 20
207.2258230168
  0
SEQEND
  0
POLYLINE
  8
0
 62
7
  6
CONTINUOUS
 66
1
 70
0
  0
VERTEX
  8
0
 62
7
  6
CONTINUOUS
 10
99.5540224913
 20
205.3400347229
  0
VERTEX
  8
0
 62
7
  6
CONTINUOUS
 10
99.5664484597
 20
205.3267946538
  0
VERTEX
  8
0
 62
7
  6
CONTINUOUS
 10
99.6031779395
 20
205.3143686776
  0
VERTEX
  8
0
 62
7
  6
CONTINUOUS
 10
99.6624897579
 20
205.3033353803
  0
VERTEX
  8
0
 62
7
  6
CONTINUOUS
 10
99.7415163611
 20
205.2941969652
  0
VERTEX
  8
0
 62
7
  6
CONTINUOUS
 10
99.8363649261
 20
205.2873625015
  0
VERTEX
  8
0
 62
7
  6
CONTINUOUS
 10
99.9423065527
 20
205.2831351233
  0
VERTEX
  8
0
 62
7
  6
CONTINUOUS
 10
100.0540224913
 20
205.2817036789
  0
SEQEND
  0
LINE
  8
0
 62
7
  6
CONTINUOUS
 10
99.333645924
 20
211.3438171419
 11
99.8953295331
 21
210.4037633478
  0
LINE
  8
0
 62
7
  6
CONTINUOUS
 10
100.0540323363
 20
210.4618510895
 11
100.0887400658
 21
210.4037633478
  0
LINE
  8
0
 62
7
  6
CONTINUOUS
 10
99.333645924
 20
212.4037633478
 11
100.308698225
 21
210.7718909358
  0
LINE
  8
0
 62
7
  6
CONTINUOUS
 10
100.5286563842
 20
211.1400185238
 11
100.9685727025
 21
210.4037633478
  0
LINE
  8
0
 62
7
  6
CONTINUOUS
 10
100.5286563842
 20
212.4037633478
 11
101.1261616143
 21
211.4037633478
  0
LINE
  8
0
 62
7
  6
CONTINUOUS
 10
101.7236668444
 20
211.6675081718
 11
102.4787609862
 21
210.4037633478
  0
LINE
  8
0
 62
7
  6
CONTINUOUS
 10
101.7236668444
 20
212.4037633478
 11
102.6987191454
 21
210.7718909358
  0
LINE
  8
0
 62
7
  6
CONTINUOUS
 10
102.9186773046
 20
211.1400185238
 11
103.3585936229
 21
210.4037633478
  0
LINE
  8
0
 62
7
  6
CONTINUOUS
 10
102.9186773046
 20
212.4037633478
 11
103.5161825347
 21
211.4037633478
  0
LINE
  8
0
 62
7
  6
CONTINUOUS
 10
104.1136877648
 20
211.6675081718
 11
104.8687819066
 21
210.4037633478
  0
LINE
  8
0
 62
7
  6
CONTINUOUS
 10
104.1136877648
 20
212.4037633478
 11
105.0887400658
 21
210.7718909358
  0
LINE
  8
0
 62
7
  6
CONTINUOUS
 10
113.6737714464
 20
211.3438660636
 11
113.6737714464
 21
212.4037633478
  0
LINE
  8
0
 62
7
  6
CONTINUOUS
 10
114.8687819066
 20
211.4636729143
 11
114.8687819066
 21
212.4037633478
  0
LINE
  8
0
 62
7
  6
CONTINUOUS
 10
116.0637923668
 20
211.3438414991
 11
116.0637923668
 21
212.4037633478
  0
LINE
  8
0
 62
7
  6
CONTINUOUS
 10
116.7040224913
 20
205.646845373
 11
116.7040224913
 21
202.4037633478
  0
LINE
  8
0
 62
7
  6
CONTINUOUS
 10
117.258802827
 20
211.4636974788
 11
117.258802827
 21
212.4037633478
  0
LINE
  8
0
 62
7
  6
CONTINUOUS
 10
110.4053771154
 20
210.9336951938
 11
111.283750526
 21
212.4037633478
  0
LINE
  8
0
 62
7
  6
CONTINUOUS
 10
110.7220161079
 20
210.4037633452
 11
111.283750526
 21
211.343890628
  0
LINE
  8
0
 62
7
  6
CONTINUOUS
 10
111.8812557561
 20
211.4037633478
 11
112.4787609862
 21
212.4037633478
  0
LINE
  8
0
 62
7
  6
CONTINUOUS
 10
111.8454780421
 20
210.4037633458
 11
112.4787609862
 21
211.4636483499
  0
LINE
  8
0
 62
7
  6
CONTINUOUS
 10
112.7954053745
 20
210.9337074761
 11
113.6737714464
 21
212.4037633478
  0
LINE
  8
0
 62
7
  6
CONTINUOUS
 10
113.1120517065
 20
210.4037633465
 11
113.6737714464
 21
211.3438660636
  0
LINE
  8
0
 62
7
  6
CONTINUOUS
 10
114.2712766765
 20
211.4037633478
 11
114.8687819066
 21
212.4037633478
  0
LINE
  8
0
 62
7
  6
CONTINUOUS
 10
114.2354842858
 20
210.4037633469
 11
114.8687819066
 21
211.4636729143
  0
LINE
  8
0
 62
7
  6
CONTINUOUS
 10
115.1854336336
 20
210.9337197584
 11
116.0637923668
 21
212.4037633478
  0
LINE
  8
0
 62
7
  6
CONTINUOUS
 10
105.308698225
 20
211.1400185238
 11
105.7486145433
 21
210.4037633478
  0
LINE
  8
0
 62
7
  6
CONTINUOUS
 10
105.308698225
 20
212.4037633478
 11
105.9062034551
 21
211.4037633478
  0
LINE
  8
0
 62
7
  6
CONTINUOUS
 10
106.5037086852
 20
211.6675081718
 11
107.258802827
 21
210.4037633478
  0
LINE
  8
0
 62
7
  6
CONTINUOUS
 10
106.5037086852
 20
212.4037633478
 11
107.4787609862
 21
210.7718909358
  0
LINE
  8
0
 62
7
  6
CONTINUOUS
 10
107.6987191454
 20
211.1400185238
 11
108.1386354638
 21
210.4037633478
  0
LINE
  8
0
 62
7
  6
CONTINUOUS
 10
108.2540224913
 20
210.5342350785
 11
108.3319805142
 21
210.4037633434
  0
LINE
  8
0
 62
7
  6
CONTINUOUS
 10
107.6987191454
 20
212.4037633478
 11
108.2962243755
 21
211.4037633478
  0
LINE
  8
0
 62
7
  6
CONTINUOUS
 10
108.8937296056
 20
211.3439151925
 11
109.4554718023
 21
210.4037633443
  0
LINE
  8
0
 62
7
  6
CONTINUOUS
 10
108.8937296056
 20
212.4037633478
 11
109.7721049607
 21
210.9336919394
  0
LINE
  8
0
 62
7
  6
CONTINUOUS
 10
110.0887400658
 20
211.4636237854
 11
110.7220161111
 21
210.4037633452
  0
LINE
  8
0
 62
7
  6
CONTINUOUS
 10
110.0887400658
 20
212.4037633478
 11
110.6862452959
 21
211.4037633478
  0
LINE
  8
0
 62
7
  6
CONTINUOUS
 10
118.4538132872
 20
211.3438169346
 11
118.4538132872
 21
212.4037633478
  0
LINE
  8
0
 62
7
  6
CONTINUOUS
 10
118.6540224913
 20
202.4037633478
 11
118.6540224913
 21
209.9037633478
  0
LINE
  8
0
 62
7
  6
CONTINUOUS
 10
119.1540323363
 20
210.4037633478
 11
119.154051756
 21
211.5757003176
  0
LINE
  8
0
 62
7
  6
CONTINUOUS
 10
119.6488237474
 20
211.1400185238
 11
119.6488237474
 21
212.4037633478
  0
LINE
  8
0
 62
7
  6
CONTINUOUS
 10
120.8438342077
 20
212.4037633478
 11
120.8438342077
 21
211.6675081718
  0
LINE
  8
0
 62
7
  6
CONTINUOUS
 10
122.0388446679
 20
211.1400185238
 11
122.0388446679
 21
212.4037633478
  0
POLYLINE
  8
0
 62
7
  6
CONTINUOUS
 66
1
 70
0
  0
VERTEX
  8
0
 62
7
  6
CONTINUOUS
 10
118.6437842407
 20
207.5037633478
  0
VERTEX
  8
0
 62
7
  6
CONTINUOUS
 10
118.6494873639
 20
207.5377005752
  0
VERTEX
  8
0
 62
7
  6
CONTINUOUS
 10
118.6528925651
 20
207.5712933306
  0
VERTEX
  8
0
 62
7
  6
CONTINUOUS
 10
118.6540224913
 20
207.6044282817
  0
SEQEND
  0
LINE
  8
0
 62
7
  6
CONTINUOUS
 10
115.502087305
 20
210.4037633473
 11
116.0637923668
 21
211.3438414991
  0
LINE
  8
0
 62
7
  6
CONTINUOUS
 10
116.6612975969
 20
211.4037633478
 11
117.258802827
 21
212.4037633478
  0
LINE
  8
0
 62
7
  6
CONTINUOUS
 10
116.6254905293
 20
210.4037633476
 11
117.258802827
 21
211.4636974788
  0
LINE
  8
0
 62
7
  6
CONTINUOUS
 10
117.5754618928
 20
210.9337320406
 11
118.4538132872
 21
212.4037633478
  0
LINE
  8
0
 62
7
  6
CONTINUOUS
 10
117.8921229031
 20
210.4037633478
 11
118.4538132872
 21
211.3438169346
  0
LINE
  8
0
 62
7
  6
CONTINUOUS
 10
119.0513185173
 20
211.4037633478
 11
119.6488237474
 21
212.4037633478
  0
LINE
  8
0
 62
7
  6
CONTINUOUS
 10
119.1540868164
 20
210.6357126062
 11
119.0154967726
 21
210.4037633478
  0
LINE
  8
0
 62
7
  6
CONTINUOUS
 10
119.6488237474
 20
211.1400185238
 11
119.2089074291
 21
210.4037633478
  0
LINE
  8
0
 62
7
  6
CONTINUOUS
 10
119.8687819066
 20
210.7718909358
 11
120.8438342077
 21
212.4037633478
  0
LINE
  8
0
 62
7
  6
CONTINUOUS
 10
120.0887400658
 20
210.4037633478
 11
120.8438342077
 21
211.6675081718
  0
LINE
  8
0
 62
7
  6
CONTINUOUS
 10
121.4413394378
 20
211.4037633478
 11
122.0388446679
 21
212.4037633478
  0
POLYLINE
  8
0
 62
7
  6
CONTINUOUS
 66
1
 70
0
  0
VERTEX
  8
0
 62
7
  6
CONTINUOUS
 10
108.7540224913
 20
205.3400347229
  0
VERTEX
  8
0
 62
7
  6
CONTINUOUS
 10
108.741596523
 20
205.3267946538
  0
VERTEX
  8
0
 62
7
  6
CONTINUOUS
 10
108.7048670432
 20
205.3143686776
  0
VERTEX
  8
0
 62
7
  6
CONTINUOUS
 10
108.6455552248
 20
205.3033353803
  0
VERTEX
  8
0
 62
7
  6
CONTINUOUS
 10
108.5665286216
 20
205.2941969652
  0
VERTEX
  8
0
 62
7
  6
CONTINUOUS
 10
108.4716800566
 20
205.2873625015
  0
VERTEX
  8
0
 62
7
  6
CONTINUOUS
 10
108.36573843
 20
205.2831351233
  0
VERTEX
  8
0
 62
7
  6
CONTINUOUS
 10
108.2540224913
 20
205.2817036789
  0
SEQEND
  0
POLYLINE
  8
0
 62
7
  6
CONTINUOUS
 66
1
 70
0
  0
VERTEX
  8
0
 62
7
  6
CONTINUOUS
 10
108.7540224913
 20
207.1674919728
  0
VERTEX
  8
0
 62
7
  6
CONTINUOUS
 10
108.741596523
 20
207.1807320419
  0
VERTEX
  8
0
 62
7
  6
CONTINUOUS
 10
108.7048670432
 20
207.193158018
  0
VERTEX
  8
0
 62
7
  6
CONTINUOUS
 10
108.6455552248
 20
207.2041913153
  0
VERTEX
  8
0
 62
7
  6
CONTINUOUS
 10
108.5665286216
 20
207.2133297305
  0
VERTEX
  8
0
 62
7
  6
CONTINUOUS
 10
108.4716800566
 20
207.2201641942
  0
VERTEX
  8
0
 62
7
  6
CONTINUOUS
 10
108.36573843
 20
207.2243915723
  0
VERTEX
  8
0
 62
7
  6
CONTINUOUS
 10
108.2540224913
 20
207.2258230168
  0
SEQEND
  0
LINE
  8
0
 62
7
  6
CONTINUOUS
 10
111.283750526
 20
211.343890628
 11
111.8454780445
 21
210.4037633458
  0
LINE
  8
0
 62
7
  6
CONTINUOUS
 10
111.283750526
 20
212.4037633478
 11
112.1621185425
 21
210.9337042216
  0
LINE
  8
0
 62
7
  6
CONTINUOUS
 10
112.4787609862
 20
211.4636483499
 11
113.1120517082
 21
210.4037633465
  0
LINE
  8
0
 62
7
  6
CONTINUOUS
 10
112.4787609862
 20
212.4037633478
 11
113.0762662163
 21
211.4037633478
  0
LINE
  8
0
 62
7
  6
CONTINUOUS
 10
113.6737714464
 20
211.3438660636
 11
114.2354842869
 21
210.4037633469
  0
LINE
  8
0
 62
7
  6
CONTINUOUS
 10
113.6737714464
 20
212.4037633478
 11
114.5521321242
 21
210.9337165038
  0
LINE
  8
0
 62
7
  6
CONTINUOUS
 10
114.8687819066
 20
211.4636729143
 11
115.5020873056
 21
210.4037633473
  0
LINE
  8
0
 62
7
  6
CONTINUOUS
 10
114.8687819066
 20
212.4037633478
 11
115.4662871367
 21
211.4037633478
  0
LINE
  8
0
 62
7
  6
CONTINUOUS
 10
116.0637923668
 20
211.3438414991
 11
116.6254905296
 21
210.4037633476
  0
LINE
  8
0
 62
7
  6
CONTINUOUS
 10
116.0637923668
 20
212.4037633478
 11
116.9421457059
 21
210.933728786
  0
LINE
  8
0
 62
7
  6
CONTINUOUS
 10
123.2338551281
 20
212.4037633478
 11
123.2338551281
 21
211.6675081718
  0
LINE
  8
0
 62
7
  6
CONTINUOUS
 10
124.4288655883
 20
211.1400185238
 11
124.4288655883
 21
212.4037633478
  0
LINE
  8
0
 62
7
  6
CONTINUOUS
 10
125.6238760485
 20
212.4037633478
 11
125.6238760485
 21
211.6675081718
  0
LINE
  8
0
 62
7
  6
CONTINUOUS
 10
126.8188865087
 20
211.1400185238
 11
126.8188865087
 21
212.4037633478
  0
LINE
  8
0
 62
7
  6
CONTINUOUS
 10
127.3540224913
 20
210.4037633478
 11
127.3540224913
 21
211.5081461119
  0
LINE
  8
0
 62
7
  6
CONTINUOUS
 10
121.5989283495
 20
210.4037633478
 11
122.0388446679
 21
211.1400185238
  0
LINE
  8
0
 62
7
  6
CONTINUOUS
 10
122.258802827
 20
210.7718909358
 11
123.2338551281
 21
212.4037633478
  0
LINE
  8
0
 62
7
  6
CONTINUOUS
 10
122.4787609862
 20
210.4037633478
 11
123.2338551281
 21
211.6675081718
  0
LINE
  8
0
 62
7
  6
CONTINUOUS
 10
123.8313603582
 20
211.4037633478
 11
124.4288655883
 21
212.4037633478
  0
LINE
  8
0
 62
7
  6
CONTINUOUS
 10
123.9889492699
 20
210.4037633478
 11
124.4288655883
 21
211.1400185238
  0
LINE
  8
0
 62
7
  6
CONTINUOUS
 10
124.6488237474
 20
210.7718909358
 11
125.6238760485
 21
212.4037633478
  0
LINE
  8
0
 62
7
  6
CONTINUOUS
 10
124.8687819066
 20
210.4037633478
 11
125.6238760485
 21
211.6675081718
  0
LINE
  8
0
 62
7
  6
CONTINUOUS
 10
126.2213812786
 20
211.4037633478
 11
126.8188865087
 21
212.4037633478
  0
LINE
  8
0
 62
7
  6
CONTINUOUS
 10
126.8188865087
 20
211.1400185238
 11
126.3789701903
 21
210.4037633478
  0
LINE
  8
0
 62
7
  6
CONTINUOUS
 10
127.0388446679
 20
210.7718909358
 11
128.0138969689
 21
212.4037633478
  0
LINE
  8
0
 62
7
  6
CONTINUOUS
 10
127.3540224913
 20
210.5631254078
 11
127.258802827
 21
210.4037633478
  0
POLYLINE
  8
0
 62
7
  6
CONTINUOUS
 66
1
 70
0
  0
VERTEX
  8
0
 62
7
  6
CONTINUOUS
 10
118.6540224913
 20
207.1674919728
  0
VERTEX
  8
0
 62
7
  6
CONTINUOUS
 10
118.6664484597
 20
207.1807320419
  0
VERTEX
  8
0
 62
7
  6
CONTINUOUS
 10
118.7031779395
 20
207.193158018
  0
VERTEX
  8
0
 62
7
  6
CONTINUOUS
 10
118.7624897579
 20
207.2041913153
  0
VERTEX
  8
0
 62
7
  6
CONTINUOUS
 10
118.8415163611
 20
207.2133297305
  0
VERTEX
  8
0
 62
7
  6
CONTINUOUS
 10
118.9363649261
 20
207.2201641942
  0
VERTEX
  8
0
 62
7
  6
CONTINUOUS
 10
119.0423065527
 20
207.2243915723
  0
VERTEX
  8
0
 62
7
  6
CONTINUOUS
 10
119.1540224913
 20
207.2258230168
  0
SEQEND
  0
POLYLINE
  8
0
 62
7
  6
CONTINUOUS
 66
1
 70
0
  0
VERTEX
  8
0
 62
7
  6
CONTINUOUS
 10
118.6540224913
 20
205.3400347229
  0
VERTEX
  8
0
 62
7
  6
CONTINUOUS
 10
118.6664484597
 20
205.3267946538
  0
VERTEX
  8
0
 62
7
  6
CONTINUOUS
 10
118.7031779395
 20
205.3143686776
  0
VERTEX
  8
0
 62
7
  6
CONTINUOUS
 10
118.7624897579
 20
205.3033353803
  0
VERTEX
  8
0
 62
7
  6
CONTINUOUS
 10
118.8415163611
 20
205.2941969652
  0
VERTEX
  8
0
 62
7
  6
CONTINUOUS
 10
118.9363649261
 20
205.2873625015
  0
VERTEX
  8
0
 62
7
  6
CONTINUOUS
 10
119.0423065527
 20
205.2831351233
  0
VERTEX
  8
0
 62
7
  6
CONTINUOUS
 10
119.1540224913
 20
205.2817036789
  0
SEQEND
  0
LINE
  8
0
 62
7
  6
CONTINUOUS
 10
117.258802827
 20
211.4636974788
 11
117.8921229032
 21
210.4037633478
  0
LINE
  8
0
 62
7
  6
CONTINUOUS
 10
117.258802827
 20
212.4037633478
 11
117.8563080571
 21
211.4037633478
  0
LINE
  8
0
 62
7
  6
CONTINUOUS
 10
118.4538132872
 20
211.3438169346
 11
119.0154967726
 21
210.4037633478
  0
LINE
  8
0
 62
7
  6
CONTINUOUS
 10
119.1540323363
 20
210.4956037034
 11
119.2089074291
 21
210.4037633478
  0
LINE
  8
0
 62
7
  6
CONTINUOUS
 10
118.4538132872
 20
212.4037633478
 11
119.4288655883
 21
210.7718909358
  0
LINE
  8
0
 62
7
  6
CONTINUOUS
 10
119.6488237474
 20
211.1400185238
 11
120.0887400658
 21
210.4037633478
  0
LINE
  8
0
 62
7
  6
CONTINUOUS
 10
119.6488237474
 20
212.4037633478
 11
120.2463289776
 21
211.4037633478
  0
LINE
  8
0
 62
7
  6
CONTINUOUS
 10
120.8438342077
 20
211.6675081718
 11
121.5989283495
 21
210.4037633478
  0
LINE
  8
0
 62
7
  6
CONTINUOUS
 10
120.8438342077
 20
212.4037633478
 11
121.8188865087
 21
210.7718909358
  0
LINE
  8
0
 62
7
  6
CONTINUOUS
 10
122.0388446679
 20
211.1400185238
 11
122.4787609862
 21
210.4037633478
  0
LINE
  8
0
 62
7
  6
CONTINUOUS
 10
122.0388446679
 20
212.4037633478
 11
122.636349898
 21
211.4037633478
  0
POLYLINE
  8
0
 62
7
  6
CONTINUOUS
 66
1
 70
0
  0
VERTEX
  8
0
 62
7
  6
CONTINUOUS
 10
127.8540224913
 20
207.6044282817
  0
VERTEX
  8
0
 62
7
  6
CONTINUOUS
 10
127.8551516147
 20
207.571305172
  0
VERTEX
  8
0
 62
7
  6
CONTINUOUS
 10
127.8585574073
 20
207.5377021453
  0
VERTEX
  8
0
 62
7
  6
CONTINUOUS
 10
127.864260742
 20
207.5037633478
  0
SEQEND
  0
LINE
  8
0
 62
7
  6
CONTINUOUS
 10
127.8540224913
 20
202.4037633478
 11
127.8540224913
 21
209.9037633478
  0
LINE
  8
0
 62
7
  6
CONTINUOUS
 10
128.0138969689
 20
211.3439149852
 11
128.0138969689
 21
212.4037633478
  0
LINE
  8
0
 62
7
  6
CONTINUOUS
 10
129.2089074291
 20
211.4636239927
 11
129.2089074291
 21
212.4037633478
  0
LINE
  8
0
 62
7
  6
CONTINUOUS
 10
129.8040224913
 20
205.6468458059
 11
129.8040224913
 21
202.4037633478
  0
LINE
  8
0
 62
7
  6
CONTINUOUS
 10
130.4039178893
 20
211.3438904208
 11
130.4039178893
 21
212.4037633478
  0
LINE
  8
0
 62
7
  6
CONTINUOUS
 10
131.5989283495
 20
211.4636485571
 11
131.5989283495
 21
212.4037633478
  0
LINE
  8
0
 62
7
  6
CONTINUOUS
 10
132.7939388097
 20
211.3438658563
 11
132.7939388097
 21
212.4037633478
  0
LINE
  8
0
 62
7
  6
CONTINUOUS
 10
127.4521479961
 20
210.4037633434
 11
128.0138969689
 21
211.3439149852
  0
LINE
  8
0
 62
7
  6
CONTINUOUS
 10
128.611402199
 20
211.4037633478
 11
129.2089074291
 21
212.4037633478
  0
LINE
  8
0
 62
7
  6
CONTINUOUS
 10
128.5756390375
 20
210.4037633443
 11
129.2089074291
 21
211.4636239927
  0
LINE
  8
0
 62
7
  6
CONTINUOUS
 10
129.5255445406
 20
210.9336952974
 11
130.4039178893
 21
212.4037633478
  0
LINE
  8
0
 62
7
  6
CONTINUOUS
 10
129.842183595
 20
210.4037633452
 11
130.4039178893
 21
211.3438904208
  0
LINE
  8
0
 62
7
  6
CONTINUOUS
 10
131.0014231194
 20
211.4037633478
 11
131.5989283495
 21
212.4037633478
  0
LINE
  8
0
 62
7
  6
CONTINUOUS
 10
130.9656452815
 20
210.4037633458
 11
131.5989283495
 21
211.4636485571
  0
LINE
  8
0
 62
7
  6
CONTINUOUS
 10
131.9155727997
 20
210.9337075797
 11
132.7939388097
 21
212.4037633478
  0
LINE
  8
0
 62
7
  6
CONTINUOUS
 10
132.2322191937
 20
210.4037633465
 11
132.7939388097
 21
211.3438658563
  0
LINE
  8
0
 62
7
  6
CONTINUOUS
 10
133.3914440398
 20
211.4037633478
 11
133.9889492699
 21
212.4037633478
  0
POLYLINE
  8
0
 62
7
  6
CONTINUOUS
 66
1
 70
0
  0
VERTEX
  8
0
 62
7
  6
CONTINUOUS
 10
127.8540224913
 20
207.1674919728
  0
VERTEX
  8
0
 62
7
  6
CONTINUOUS
 10
127.841596523
 20
207.1807320419
  0
VERTEX
  8
0
 62
7
  6
CONTINUOUS
 10
127.8048670432
 20
207.193158018
  0
VERTEX
  8
0
 62
7
  6
CONTINUOUS
 10
127.7455552248
 20
207.2041913153
  0
VERTEX
  8
0
 62
7
  6
CONTINUOUS
 10
127.6665286216
 20
207.2133297305
  0
VERTEX
  8
0
 62
7
  6
CONTINUOUS
 10
127.5716800566
 20
207.2201641942
  0
VERTEX
  8
0
 62
7
  6
CONTINUOUS
 10
127.46573843
 20
207.2243915723
  0
VERTEX
  8
0
 62
7
  6
CONTINUOUS
 10
127.3540224913
 20
207.2258230168
  0
SEQEND
  0
LINE
  8
0
 62
7
  6
CONTINUOUS
 10
123.2338551281
 20
211.6675081718
 11
123.9889492699
 21
210.4037633478
  0
LINE
  8
0
 62
7
  6
CONTINUOUS
 10
123.2338551281
 20
212.4037633478
 11
124.2089074291
 21
210.7718909358
  0
LINE
  8
0
 62
7
  6
CONTINUOUS
 10
124.4288655883
 20
211.1400185238
 11
124.8687819066
 21
210.4037633478
  0
LINE
  8
0
 62
7
  6
CONTINUOUS
 10
124.4288655883
 20
212.4037633478
 11
125.0263708184
 21
211.4037633478
  0
LINE
  8
0
 62
7
  6
CONTINUOUS
 10
125.6238760485
 20
211.6675081718
 11
126.3789701903
 21
210.4037633478
  0
LINE
  8
0
 62
7
  6
CONTINUOUS
 10
125.6238760485
 20
212.4037633478
 11
126.5989283495
 21
210.7718909358
  0
LINE
  8
0
 62
7
  6
CONTINUOUS
 10
126.8188865087
 20
211.1400185238
 11
127.258802827
 21
210.4037633478
  0
LINE
  8
0
 62
7
  6
CONTINUOUS
 10
127.3540224913
 20
210.5679876923
 11
127.4521480013
 21
210.4037633434
  0
LINE
  8
0
 62
7
  6
CONTINUOUS
 10
126.8188865087
 20
212.4037633478
 11
127.4163917388
 21
211.4037633478
  0
LINE
  8
0
 62
7
  6
CONTINUOUS
 10
128.0138969689
 20
211.3439149852
 11
128.5756390417
 21
210.4037633443
  0
LINE
  8
0
 62
7
  6
CONTINUOUS
 10
128.0138969689
 20
212.4037633478
 11
128.8922722621
 21
210.9336920431
  0
POLYLINE
  8
1_AXIS
 62
7
  6
CONTINUOUS
 66
1
 70
0
  0
VERTEX
  8
1_AXIS
 62
7
  6
CONTINUOUS
 10
133.6140224913
 20
201.9680341217
  0
VERTEX
  8
1_AXIS
 62
7
  6
CONTINUOUS
 10
133.6179379879
 20
201.9553127577
  0
VERTEX
  8
1_AXIS
 62
7
  6
CONTINUOUS
 10
133.6488591264
 20
201.9345686117
  0
VERTEX
  8
1_AXIS
 62
7
  6
CONTINUOUS
 10
133.7093124528
 20
201.9199791105
  0
VERTEX
  8
1_AXIS
 62
7
  6
CONTINUOUS
 10
133.7971057815
 20
201.9108621714
  0
VERTEX
  8
1_AXIS
 62
7
  6
CONTINUOUS
 10
133.9090118692
 20
201.906062595
  0
VERTEX
  8
1_AXIS
 62
7
  6
CONTINUOUS
 10
134.0405890132
 20
201.9041625743
  0
VERTEX
  8
1_AXIS
 62
7
  6
CONTINUOUS
 10
134.1863334262
 20
201.9037658492
  0
VERTEX
  8
1_AXIS
 62
7
  6
CONTINUOUS
 10
134.5493090715
 20
201.9037634223
  0
SEQEND
  0
LINE
  8
0
 62
7
  6
CONTINUOUS
 10
133.9889492699
 20
211.4636731216
 11
133.9889492699
 21
212.4037633478
  0
LINE
  8
0
 62
7
  6
CONTINUOUS
 10
135.1839597301
 20
211.3438412918
 11
135.1839597301
 21
212.4037633478
  0
LINE
  8
0
 62
7
  6
CONTINUOUS
 10
135.8040224913
 20
205.6468521722
 11
135.8040224913
 21
202.4037633478
  0
LINE
  8
0
 62
7
  6
CONTINUOUS
 10
136.3789701903
 20
211.4636976861
 11
136.3789701903
 21
212.4037633478
  0
LINE
  8
0
 62
7
  6
CONTINUOUS
 10
137.5739806505
 20
211.3438167273
 11
137.5739806505
 21
212.4037633478
  0
LINE
  8
0
 62
7
  6
CONTINUOUS
 10
137.7540224913
 20
202.4037633478
 11
137.7540224913
 21
209.9037633478
  0
POLYLINE
  8
0
 62
7
  6
CONTINUOUS
 66
1
 70
0
  0
VERTEX
  8
0
 62
7
  6
CONTINUOUS
 10
137.7437842407
 20
207.5037633478
  0
VERTEX
  8
0
 62
7
  6
CONTINUOUS
 10
137.7494873639
 20
207.5377005752
  0
VERTEX
  8
0
 62
7
  6
CONTINUOUS
 10
137.7528925651
 20
207.5712933306
  0
VERTEX
  8
0
 62
7
  6
CONTINUOUS
 10
137.7540224913
 20
207.6044282817
  0
SEQEND
  0
POLYLINE
  8
1_AXIS
 62
7
  6
CONTINUOUS
 66
1
 70
0
  0
VERTEX
  8
1_AXIS
 62
7
  6
CONTINUOUS
 10
133.6140224913
 20
201.9680341217
  0
VERTEX
  8
1_AXIS
 62
7
  6
CONTINUOUS
 10
133.6289650369
 20
201.9969279274
  0
VERTEX
  8
1_AXIS
 62
7
  6
CONTINUOUS
 10
133.6736514973
 20
202.0301860327
  0
VERTEX
  8
1_AXIS
 62
7
  6
CONTINUOUS
 10
133.7466788659
 20
202.0656133191
  0
VERTEX
  8
1_AXIS
 62
7
  6
CONTINUOUS
 10
133.8447226401
 20
202.1002152686
  0
VERTEX
  8
1_AXIS
 62
7
  6
CONTINUOUS
 10
133.9626453229
 20
202.1307306623
  0
VERTEX
  8
1_AXIS
 62
7
  6
CONTINUOUS
 10
134.0945218369
 20
202.1543612971
  0
VERTEX
  8
1_AXIS
 62
7
  6
CONTINUOUS
 10
134.2348282329
 20
202.1692041915
  0
VERTEX
  8
1_AXIS
 62
7
  6
CONTINUOUS
 10
134.3790184859
 20
202.1742535734
  0
VERTEX
  8
1_AXIS
 62
7
  6
CONTINUOUS
 10
134.5232109324
 20
202.1692046005
  0
VERTEX
  8
1_AXIS
 62
7
  6
CONTINUOUS
 10
134.6635199076
 20
202.1543617576
  0
VERTEX
  8
1_AXIS
 62
7
  6
CONTINUOUS
 10
134.795397042
 20
202.1307312335
  0
VERTEX
  8
1_AXIS
 62
7
  6
CONTINUOUS
 10
134.9133191316
 20
202.1002162437
  0
VERTEX
  8
1_AXIS
 62
7
  6
CONTINUOUS
 10
135.0113626212
 20
202.0656147601
  0
VERTEX
  8
1_AXIS
 62
7
  6
CONTINUOUS
 10
135.0843907503
 20
202.0301876387
  0
VERTEX
  8
1_AXIS
 62
7
  6
CONTINUOUS
 10
135.1290797348
 20
201.9969281486
  0
VERTEX
  8
1_AXIS
 62
7
  6
CONTINUOUS
 10
135.1440224913
 20
201.9680341217
  0
SEQEND
  0
LINE
  8
0
 62
7
  6
CONTINUOUS
 10
133.3556515253
 20
210.4037633469
 11
133.9889492699
 21
211.4636731216
  0
LINE
  8
0
 62
7
  6
CONTINUOUS
 10
134.3056010588
 20
210.933719862
 11
135.1839597301
 21
212.4037633478
  0
LINE
  8
0
 62
7
  6
CONTINUOUS
 10
134.6222547921
 20
210.4037633473
 11
135.1839597301
 21
211.3438412918
  0
LINE
  8
0
 62
7
  6
CONTINUOUS
 10
135.7814649602
 20
211.4037633478
 11
136.3789701903
 21
212.4037633478
  0
LINE
  8
0
 62
7
  6
CONTINUOUS
 10
136.3789701903
 20
211.4636976861
 11
135.7456577687
 21
210.4037633476
  0
LINE
  8
0
 62
7
  6
CONTINUOUS
 10
137.5739806505
 20
212.4037633478
 11
136.695629318
 21
210.9337321443
  0
LINE
  8
0
 62
7
  6
CONTINUOUS
 10
137.0122903903
 20
210.4037633478
 11
137.5739806505
 21
211.3438167273
  0
LINE
  8
0
 62
7
  6
CONTINUOUS
 10
138.7689911107
 20
212.4037633478
 11
138.1714858806
 21
211.4037633478
  0
LINE
  8
0
 62
7
  6
CONTINUOUS
 10
138.2540868164
 20
210.6019599924
 11
138.135664012
 21
210.4037633478
  0
LINE
  8
0
 62
7
  6
CONTINUOUS
 10
138.7689911107
 20
211.1400185238
 11
138.3290747924
 21
210.4037633478
  0
LINE
  8
0
 62
7
  6
CONTINUOUS
 10
139.9640015709
 20
212.4037633478
 11
138.9889492699
 21
210.7718909358
  0
POLYLINE
  8
0
 62
7
  6
CONTINUOUS
 66
1
 70
0
  0
VERTEX
  8
0
 62
7
  6
CONTINUOUS
 10
127.8540224913
 20
205.3400347229
  0
VERTEX
  8
0
 62
7
  6
CONTINUOUS
 10
127.841596523
 20
205.3267946538
  0
VERTEX
  8
0
 62
7
  6
CONTINUOUS
 10
127.8048670432
 20
205.3143686776
  0
VERTEX
  8
0
 62
7
  6
CONTINUOUS
 10
127.7455552248
 20
205.3033353803
  0
VERTEX
  8
0
 62
7
  6
CONTINUOUS
 10
127.6665286216
 20
205.2941969652
  0
VERTEX
  8
0
 62
7
  6
CONTINUOUS
 10
127.5716800566
 20
205.2873625015
  0
VERTEX
  8
0
 62
7
  6
CONTINUOUS
 10
127.46573843
 20
205.2831351233
  0
VERTEX
  8
0
 62
7
  6
CONTINUOUS
 10
127.3540224913
 20
205.2817036789
  0
SEQEND
  0
LINE
  8
2_FEATURE
 62
7
  6
CONTINUOUS
 10
153.3852724913
 20
201.929396611
 11
153.2977725748
 21
201.9157424687
  0
LINE
  8
2_FEATURE
 62
7
  6
CONTINUOUS
 10
151.4165224913
 20
201.929396611
 11
151.3290224496
 21
201.9157424687
  0
LINE
  8
2_FEATURE
 62
7
  6
CONTINUOUS
 10
153.6477724913
 20
201.9219240265
 11
153.5165224913
 21
201.9048946512
  0
LINE
  8
2_FEATURE
 62
7
  6
CONTINUOUS
 10
151.6790224913
 20
201.9219240265
 11
151.5477724913
 21
201.9048946512
  0
POLYLINE
  8
2_FEATURE
 62
7
  6
CONTINUOUS
 66
1
 70
0
  0
VERTEX
  8
2_FEATURE
 62
7
  6
CONTINUOUS
 10
153.5165224913
 20
202.1049491871
  0
VERTEX
  8
2_FEATURE
 62
7
  6
CONTINUOUS
 10
153.5603430676
 20
202.1085206573
  0
VERTEX
  8
2_FEATURE
 62
7
  6
CONTINUOUS
 10
153.5715699488
 20
202.1100480331
  0
SEQEND
  0
POLYLINE
  8
2_FEATURE
 62
7
  6
CONTINUOUS
 66
1
 70
0
  0
VERTEX
  8
2_FEATURE
 62
7
  6
CONTINUOUS
 10
151.5477724913
 20
202.1049491871
  0
VERTEX
  8
2_FEATURE
 62
7
  6
CONTINUOUS
 10
151.5915930676
 20
202.1085206573
  0
VERTEX
  8
2_FEATURE
 62
7
  6
CONTINUOUS
 10
151.6028199488
 20
202.1100480331
  0
SEQEND
  0
LINE
  8
2_FEATURE
 62
7
  6
CONTINUOUS
 10
153.2977725748
 20
201.9157424687
 11
153.1665225748
 21
201.9108464248
  0
LINE
  8
2_FEATURE
 62
7
  6
CONTINUOUS
 10
151.3290224496
 20
201.9157424687
 11
151.1977724496
 21
201.9108464248
  0
LINE
  8
2_FEATURE
 62
7
  6
CONTINUOUS
 10
153.4581890958
 20
202.1038370558
 11
153.5165224913
 21
202.1049491871
  0
LINE
  8
2_FEATURE
 62
7
  6
CONTINUOUS
 10
151.4894391375
 20
202.1038370558
 11
151.5477724913
 21
202.1049491871
  0
POLYLINE
  8
1_AXIS
 62
7
  6
CONTINUOUS
 66
1
 70
0
  0
VERTEX
  8
1_AXIS
 62
7
  6
CONTINUOUS
 10
134.7175721333
 20
202.1041826305
  0
VERTEX
  8
1_AXIS
 62
7
  6
CONTINUOUS
 10
134.8491399674
 20
202.1061763034
  0
VERTEX
  8
1_AXIS
 62
7
  6
CONTINUOUS
 10
134.8841921895
 20
202.1077534943
  0
SEQEND
  0
POLYLINE
  8
1_AXIS
 62
7
  6
CONTINUOUS
 66
1
 70
0
  0
VERTEX
  8
1_AXIS
 62
7
  6
CONTINUOUS
 10
134.7174804356
 20
201.9041627379
  0
VERTEX
  8
1_AXIS
 62
7
  6
CONTINUOUS
 10
134.8490520781
 20
201.9060630754
  0
VERTEX
  8
1_AXIS
 62
7
  6
CONTINUOUS
 10
134.960952563
 20
201.9108630671
  0
VERTEX
  8
1_AXIS
 62
7
  6
CONTINUOUS
 10
135.0487403274
 20
201.9199803335
  0
VERTEX
  8
1_AXIS
 62
7
  6
CONTINUOUS
 10
135.1091888399
 20
201.9345697538
  0
VERTEX
  8
1_AXIS
 62
7
  6
CONTINUOUS
 10
135.1401073634
 20
201.9553133215
  0
VERTEX
  8
1_AXIS
 62
7
  6
CONTINUOUS
 10
135.1440224913
 20
201.9680341217
  0
SEQEND
  0
POLYLINE
  8
2_FEATURE
 62
7
  6
CONTINUOUS
 66
1
 70
0
  0
VERTEX
  8
2_FEATURE
 62
7
  6
CONTINUOUS
 10
153.4388143205
 20
201.9037633677
  0
VERTEX
  8
2_FEATURE
 62
7
  6
CONTINUOUS
 10
153.4581889732
 20
201.903833666
  0
VERTEX
  8
2_FEATURE
 62
7
  6
CONTINUOUS
 10
153.5165224913
 20
201.9048946512
  0
SEQEND
  0
POLYLINE
  8
2_FEATURE
 62
7
  6
CONTINUOUS
 66
1
 70
0
  0
VERTEX
  8
2_FEATURE
 62
7
  6
CONTINUOUS
 10
151.4700643761
 20
201.9037633677
  0
VERTEX
  8
2_FEATURE
 62
7
  6
CONTINUOUS
 10
151.4894390149
 20
201.903833666
  0
VERTEX
  8
2_FEATURE
 62
7
  6
CONTINUOUS
 10
151.5477724913
 20
201.9048946512
  0
SEQEND
  0
LINE
  8
2_FEATURE
 62
7
  6
CONTINUOUS
 10
206.7040224913
 20
201.9037633478
 11
206.6040224913
 21
201.9037633478
  0
LINE
  8
2_FEATURE
 62
7
  6
CONTINUOUS
 10
78.1040224913
 20
201.9037633478
 11
78.0040224913
 21
201.9037633478
  0
LINE
  8
0
 62
7
  6
CONTINUOUS
 10
66.8540224913
 20
201.9037633478
 11
78.0040224913
 21
201.9037633478
  0
LINE
  8
0
 62
7
  6
CONTINUOUS
 10
79.0040224913
 20
201.9037633478
 11
134.2089175777
 21
201.9037633478
  0
LINE
  8
0
 62
7
  6
CONTINUOUS
 10
134.5491242204
 20
201.9037633478
 11
150.1040224913
 21
201.9037633478
  0
LINE
  8
0
 62
7
  6
CONTINUOUS
 10
151.5477724913
 20
201.9037633478
 11
152.0727724913
 21
201.9037633478
  0
LINE
  8
0
 62
7
  6
CONTINUOUS
 10
153.5165224913
 20
201.9037633478
 11
205.7040224913
 21
201.9037633478
  0
LINE
  8
0
 62
7
  6
CONTINUOUS
 10
206.7040224913
 20
201.9037633478
 11
217.8540224913
 21
201.9037633478
  0
LINE
  8
1_AXIS
 62
7
  6
CONTINUOUS
 10
134.5493090715
 20
201.9037634223
 11
134.7174804356
 21
201.9041627379
  0
LINE
  8
2_FEATURE
 62
7
  6
CONTINUOUS
 10
150.3665224913
 20
201.9083024798
 11
151.1540224913
 21
201.9083024798
  0
LINE
  8
2_FEATURE
 62
7
  6
CONTINUOUS
 10
152.3352724913
 20
201.9083024798
 11
153.1227724913
 21
201.9083024798
  0
LINE
  8
2_FEATURE
 62
7
  6
CONTINUOUS
 10
150.3665224913
 20
201.9108464248
 11
151.1977724496
 21
201.9108464248
  0
LINE
  8
2_FEATURE
 62
7
  6
CONTINUOUS
 10
152.3352724913
 20
201.9108464248
 11
153.1665225748
 21
201.9108464248
  0
LINE
  8
2_FEATURE
 62
7
  6
CONTINUOUS
 10
150.1040224913
 20
202.1037633478
 11
150.3665224913
 21
202.1037633478
  0
LINE
  8
2_FEATURE
 62
7
  6
CONTINUOUS
 10
151.4602724496
 20
202.1037633478
 11
151.4894391375
 21
202.1038370558
  0
LINE
  8
2_FEATURE
 62
7
  6
CONTINUOUS
 10
152.0727724913
 20
202.1037633478
 11
152.3352724913
 21
202.1037633478
  0
LINE
  8
2_FEATURE
 62
7
  6
CONTINUOUS
 10
153.4290225748
 20
202.1037633478
 11
153.4581890958
 21
202.1038370558
  0
LINE
  8
1_AXIS
 62
7
  6
CONTINUOUS
 10
134.5493013461
 20
202.1037634259
 11
134.7175721333
 21
202.1041826305
  0
LINE
  8
2_FEATURE
 62
7
  6
CONTINUOUS
 10
150.3665224913
 20
202.1235285827
 11
151.1977724496
 21
202.1235285827
  0
LINE
  8
2_FEATURE
 62
7
  6
CONTINUOUS
 10
152.3352724913
 20
202.1235285827
 11
153.1665225748
 21
202.1235285827
  0
LINE
  8
2_FEATURE
 62
7
  6
CONTINUOUS
 10
150.1040224913
 20
202.2658323366
 11
151.1540224913
 21
202.2658323366
  0
LINE
  8
2_FEATURE
 62
7
  6
CONTINUOUS
 10
152.0727724913
 20
202.2658323366
 11
153.1227724913
 21
202.2658323366
  0
LINE
  8
2_FEATURE
 62
7
  6
CONTINUOUS
 10
151.3727725331
 20
201.9055368318
 11
151.1540224913
 21
201.9083024798
  0
LINE
  8
2_FEATURE
 62
7
  6
CONTINUOUS
 10
153.3415224079
 20
201.9055368318
 11
153.1227724913
 21
201.9083024798
  0
POLYLINE
  8
2_FEATURE
 62
7
  6
CONTINUOUS
 66
1
 70
0
  0
VERTEX
  8
2_FEATURE
 62
7
  6
CONTINUOUS
 10
151.3727725331
 20
201.9055368318
  0
VERTEX
  8
2_FEATURE
 62
7
  6
CONTINUOUS
 10
151.4310972871
 20
201.9040477896
  0
VERTEX
  8
2_FEATURE
 62
7
  6
CONTINUOUS
 10
151.4700643761
 20
201.9037633677
  0
SEQEND
  0
POLYLINE
  8
2_FEATURE
 62
7
  6
CONTINUOUS
 66
1
 70
0
  0
VERTEX
  8
2_FEATURE
 62
7
  6
CONTINUOUS
 10
153.3415224079
 20
201.9055368318
  0
VERTEX
  8
2_FEATURE
 62
7
  6
CONTINUOUS
 10
153.3998472037
 20
201.9040477896
  0
VERTEX
  8
2_FEATURE
 62
7
  6
CONTINUOUS
 10
153.4388143205
 20
201.9037633677
  0
SEQEND
  0
POLYLINE
  8
1_AXIS
 62
7
  6
CONTINUOUS
 66
1
 70
0
  0
VERTEX
  8
1_AXIS
 62
7
  6
CONTINUOUS
 10
133.8738530457
 20
202.1077534773
  0
VERTEX
  8
1_AXIS
 62
7
  6
CONTINUOUS
 10
133.908904254
 20
202.1061763236
  0
VERTEX
  8
1_AXIS
 62
7
  6
CONTINUOUS
 10
134.0404718563
 20
202.1041826374
  0
VERTEX
  8
1_AXIS
 62
7
  6
CONTINUOUS
 10
134.1862363404
 20
202.1037659983
  0
VERTEX
  8
1_AXIS
 62
7
  6
CONTINUOUS
 10
134.5491116506
 20
202.1037633478
  0
SEQEND
  0
POLYLINE
  8
0
 62
7
  6
CONTINUOUS
 66
1
 70
0
  0
VERTEX
  8
0
 62
7
  6
CONTINUOUS
 10
137.7540224913
 20
205.3400347229
  0
VERTEX
  8
0
 62
7
  6
CONTINUOUS
 10
137.7664484597
 20
205.3267946538
  0
VERTEX
  8
0
 62
7
  6
CONTINUOUS
 10
137.8031779395
 20
205.3143686776
  0
VERTEX
  8
0
 62
7
  6
CONTINUOUS
 10
137.8624897579
 20
205.3033353803
  0
VERTEX
  8
0
 62
7
  6
CONTINUOUS
 10
137.9415163611
 20
205.2941969652
  0
VERTEX
  8
0
 62
7
  6
CONTINUOUS
 10
138.0363649261
 20
205.2873625015
  0
VERTEX
  8
0
 62
7
  6
CONTINUOUS
 10
138.1423065527
 20
205.2831351233
  0
VERTEX
  8
0
 62
7
  6
CONTINUOUS
 10
138.2540224913
 20
205.2817036789
  0
SEQEND
  0
LINE
  8
0
 62
7
  6
CONTINUOUS
 10
129.2089074291
 20
211.4636239927
 11
129.8421835982
 21
210.4037633452
  0
LINE
  8
0
 62
7
  6
CONTINUOUS
 10
129.2089074291
 20
212.4037633478
 11
129.8064126592
 21
211.4037633478
  0
LINE
  8
0
 62
7
  6
CONTINUOUS
 10
130.4039178893
 20
211.3438904208
 11
130.9656452839
 21
210.4037633458
  0
LINE
  8
0
 62
7
  6
CONTINUOUS
 10
130.4039178893
 20
212.4037633478
 11
131.2822858438
 21
210.9337043253
  0
LINE
  8
0
 62
7
  6
CONTINUOUS
 10
131.5989283495
 20
211.4636485571
 11
132.2322191953
 21
210.4037633465
  0
LINE
  8
0
 62
7
  6
CONTINUOUS
 10
131.5989283495
 20
212.4037633478
 11
132.1964335796
 21
211.4037633478
  0
LINE
  8
0
 62
7
  6
CONTINUOUS
 10
132.7939388097
 20
211.3438658563
 11
133.3556515263
 21
210.4037633469
  0
LINE
  8
0
 62
7
  6
CONTINUOUS
 10
132.7939388097
 20
212.4037633478
 11
133.6722994256
 21
210.9337166075
  0
LINE
  8
0
 62
7
  6
CONTINUOUS
 10
133.9889492699
 20
211.4636731216
 11
134.6222547927
 21
210.4037633473
  0
LINE
  8
0
 62
7
  6
CONTINUOUS
 10
133.9889492699
 20
212.4037633478
 11
134.5864545
 21
211.4037633478
  0
LINE
  8
0
 62
7
  6
CONTINUOUS
 10
138.2540323363
 20
210.4037633478
 11
138.254051756
 21
211.5419477038
  0
LINE
  8
0
 62
7
  6
CONTINUOUS
 10
138.7689911107
 20
211.1400185238
 11
138.7689911107
 21
212.4037633478
  0
LINE
  8
0
 62
7
  6
CONTINUOUS
 10
139.9640015709
 20
212.4037633478
 11
139.9640015709
 21
211.6675081718
  0
LINE
  8
0
 62
7
  6
CONTINUOUS
 10
141.1590120311
 20
211.1400185238
 11
141.1590120311
 21
212.4037633478
  0
LINE
  8
0
 62
7
  6
CONTINUOUS
 10
142.3540224913
 20
212.4037633478
 11
142.3540224913
 21
211.6675081718
  0
LINE
  8
1_AXIS
 62
2
  6
CENTER
 10
142.3540224913
 20
199.403762984
 11
142.3540224913
 21
214.4037633478
  0
LINE
  8
0
 62
7
  6
CONTINUOUS
 10
139.2089074291
 20
210.4037633478
 11
139.9640015709
 21
211.6675081718
  0
LINE
  8
0
 62
7
  6
CONTINUOUS
 10
141.1590120311
 20
212.4037633478
 11
140.561506801
 21
211.4037633478
  0
LINE
  8
0
 62
7
  6
CONTINUOUS
 10
141.1590120311
 20
211.1400185238
 11
140.7190957128
 21
210.4037633478
  0
LINE
  8
0
 62
7
  6
CONTINUOUS
 10
142.3540224913
 20
212.4037633478
 11
141.3789701903
 21
210.7718909358
  0
LINE
  8
0
 62
7
  6
CONTINUOUS
 10
141.5989283495
 20
210.4037633478
 11
142.3540224913
 21
211.6675081718
  0
LINE
  8
0
 62
7
  6
CONTINUOUS
 10
143.5490329516
 20
212.4037633478
 11
142.9515277215
 21
211.4037633478
  0
LINE
  8
0
 62
7
  6
CONTINUOUS
 10
143.5490329516
 20
211.1400185238
 11
143.1091166332
 21
210.4037633478
  0
LINE
  8
0
 62
7
  6
CONTINUOUS
 10
144.7440434118
 20
212.4037633478
 11
143.7689911107
 21
210.7718909358
  0
LINE
  8
0
 62
7
  6
CONTINUOUS
 10
143.9889492699
 20
210.4037633478
 11
144.7440434118
 21
211.6675081718
  0
LINE
  8
0
 62
7
  6
CONTINUOUS
 10
145.939053872
 20
212.4037633478
 11
145.3415486419
 21
211.4037633478
  0
POLYLINE
  8
0
 62
7
  6
CONTINUOUS
 66
1
 70
0
  0
VERTEX
  8
0
 62
7
  6
CONTINUOUS
 10
137.7540224913
 20
207.1674919728
  0
VERTEX
  8
0
 62
7
  6
CONTINUOUS
 10
137.7664484597
 20
207.1807320419
  0
VERTEX
  8
0
 62
7
  6
CONTINUOUS
 10
137.8031779395
 20
207.193158018
  0
VERTEX
  8
0
 62
7
  6
CONTINUOUS
 10
137.8624897579
 20
207.2041913153
  0
VERTEX
  8
0
 62
7
  6
CONTINUOUS
 10
137.9415163611
 20
207.2133297305
  0
VERTEX
  8
0
 62
7
  6
CONTINUOUS
 10
138.0363649261
 20
207.2201641942
  0
VERTEX
  8
0
 62
7
  6
CONTINUOUS
 10
138.1423065527
 20
207.2243915723
  0
VERTEX
  8
0
 62
7
  6
CONTINUOUS
 10
138.2540224913
 20
207.2258230168
  0
SEQEND
  0
LINE
  8
0
 62
7
  6
CONTINUOUS
 10
204.7673847567
 20
208.0030184202
 11
204.7957079288
 21
208.0037633478
  0
LINE
  8
0
 62
7
  6
CONTINUOUS
 10
185.6673847567
 20
208.0030184202
 11
185.6957079288
 21
208.0037633478
  0
LINE
  8
0
 62
7
  6
CONTINUOUS
 10
166.5673847567
 20
208.0030184202
 11
166.5957079288
 21
208.0037633478
  0
LINE
  8
0
 62
7
  6
CONTINUOUS
 10
66.8540224913
 20
205.2817036789
 11
69.8040224913
 21
205.2817036789
  0
LINE
  8
0
 62
7
  6
CONTINUOUS
 10
80.9540224913
 20
205.2817036789
 11
89.1540224913
 21
205.2817036789
  0
LINE
  8
0
 62
7
  6
CONTINUOUS
 10
100.0540224913
 20
205.2817036789
 11
108.2540224913
 21
205.2817036789
  0
LINE
  8
0
 62
7
  6
CONTINUOUS
 10
119.1540224913
 20
205.2817036789
 11
127.3540224913
 21
205.2817036789
  0
LINE
  8
0
 62
7
  6
CONTINUOUS
 10
138.2540224913
 20
205.2817036789
 11
146.4540224913
 21
205.2817036789
  0
LINE
  8
0
 62
7
  6
CONTINUOUS
 10
157.3540224913
 20
205.2817036789
 11
165.5540224913
 21
205.2817036789
  0
LINE
  8
0
 62
7
  6
CONTINUOUS
 10
176.4540224913
 20
205.2817036789
 11
184.6540224913
 21
205.2817036789
  0
LINE
  8
0
 62
7
  6
CONTINUOUS
 10
195.5540224913
 20
205.2817036789
 11
203.7540224913
 21
205.2817036789
  0
LINE
  8
0
 62
7
  6
CONTINUOUS
 10
214.9040224913
 20
205.2817036789
 11
217.8540224913
 21
205.2817036789
  0
LINE
  8
1_AXIS
 62
2
  6
CENTER
 10
39.5242719489
 20
206.2537633478
 11
207.3615037828
 21
206.2537633478
  0
LINE
  8
0
 62
7
  6
CONTINUOUS
 10
66.8540224913
 20
207.2258230168
 11
69.8040224913
 21
207.2258230168
  0
LINE
  8
0
 62
7
  6
CONTINUOUS
 10
80.9540224913
 20
207.2258230168
 11
89.1540224913
 21
207.2258230168
  0
LINE
  8
0
 62
7
  6
CONTINUOUS
 10
100.0540224913
 20
207.2258230168
 11
108.2540224913
 21
207.2258230168
  0
LINE
  8
0
 62
7
  6
CONTINUOUS
 10
119.1540224913
 20
207.2258230168
 11
127.3540224913
 21
207.2258230168
  0
LINE
  8
0
 62
7
  6
CONTINUOUS
 10
138.2540224913
 20
207.2258230168
 11
146.4540224913
 21
207.2258230168
  0
LINE
  8
0
 62
7
  6
CONTINUOUS
 10
157.3540224913
 20
207.2258230168
 11
165.5540224913
 21
207.2258230168
  0
LINE
  8
0
 62
7
  6
CONTINUOUS
 10
176.4540224913
 20
207.2258230168
 11
184.6540224913
 21
207.2258230168
  0
LINE
  8
0
 62
7
  6
CONTINUOUS
 10
195.5540224913
 20
207.2258230168
 11
203.7540224913
 21
207.2258230168
  0
LINE
  8
0
 62
7
  6
CONTINUOUS
 10
214.9040224913
 20
207.2258230168
 11
217.8540224913
 21
207.2258230168
  0
POLYLINE
  8
0
 62
7
  6
CONTINUOUS
 66
1
 70
0
  0
VERTEX
  8
0
 62
7
  6
CONTINUOUS
 10
66.8540224913
 20
205.2817036789
  0
VERTEX
  8
0
 62
7
  6
CONTINUOUS
 10
66.7423065527
 20
205.2831351233
  0
VERTEX
  8
0
 62
7
  6
CONTINUOUS
 10
66.6363649261
 20
205.2873625015
  0
VERTEX
  8
0
 62
7
  6
CONTINUOUS
 10
66.5415163611
 20
205.2941969652
  0
VERTEX
  8
0
 62
7
  6
CONTINUOUS
 10
66.4624897579
 20
205.3033353803
  0
VERTEX
  8
0
 62
7
  6
CONTINUOUS
 10
66.4031779395
 20
205.3143686776
  0
VERTEX
  8
0
 62
7
  6
CONTINUOUS
 10
66.3664484597
 20
205.3267946538
  0
VERTEX
  8
0
 62
7
  6
CONTINUOUS
 10
66.3540224913
 20
205.3400347229
  0
SEQEND
  0
LINE
  8
0
 62
7
  6
CONTINUOUS
 10
79.9123370598
 20
208.0037633478
 11
79.940660226
 21
208.0030184202
  0
LINE
  8
0
 62
7
  6
CONTINUOUS
 10
99.0123370598
 20
208.0037633478
 11
99.040660226
 21
208.0030184202
  0
LINE
  8
0
 62
7
  6
CONTINUOUS
 10
118.1123370598
 20
208.0037633478
 11
118.140660226
 21
208.0030184202
  0
LINE
  8
2_FEATURE
 62
7
  6
CONTINUOUS
 10
151.1540224913
 20
202.2658323366
 11
151.3727725331
 21
202.2342080465
  0
LINE
  8
2_FEATURE
 62
7
  6
CONTINUOUS
 10
153.1227724913
 20
202.2658323366
 11
153.3415224079
 21
202.2342080465
  0
LINE
  8
2_FEATURE
 62
7
  6
CONTINUOUS
 10
151.1977724496
 20
202.1235285827
 11
151.3290224496
 21
202.0996550991
  0
LINE
  8
2_FEATURE
 62
7
  6
CONTINUOUS
 10
153.1665225748
 20
202.1235285827
 11
153.2977725748
 21
202.0996550991
  0
LINE
  8
2_FEATURE
 62
7
  6
CONTINUOUS
 10
151.3727725331
 20
202.2342080465
 11
151.5477724913
 21
202.1488915959
  0
LINE
  8
2_FEATURE
 62
7
  6
CONTINUOUS
 10
153.3415224079
 20
202.2342080465
 11
153.5165224913
 21
202.1488915959
  0
LINE
  8
2_FEATURE
 62
7
  6
CONTINUOUS
 10
151.3290224496
 20
202.0996550991
 11
151.4165224913
 21
202.056276644
  0
LINE
  8
2_FEATURE
 62
7
  6
CONTINUOUS
 10
153.2977725748
 20
202.0996550991
 11
153.3852724913
 21
202.056276644
  0
LINE
  8
0
 62
7
  6
CONTINUOUS
 10
135.745657769
 20
210.4037633476
 11
135.1839597301
 21
211.3438412918
  0
LINE
  8
0
 62
7
  6
CONTINUOUS
 10
136.0623130073
 20
210.9337288897
 11
135.1839597301
 21
212.4037633478
  0
LINE
  8
0
 62
7
  6
CONTINUOUS
 10
136.3789701903
 20
211.4636976861
 11
137.0122903903
 21
210.4037633478
  0
LINE
  8
0
 62
7
  6
CONTINUOUS
 10
136.9764754204
 20
211.4037633478
 11
136.3789701903
 21
212.4037633478
  0
LINE
  8
0
 62
7
  6
CONTINUOUS
 10
138.135664012
 20
210.4037633478
 11
137.5739806505
 21
211.3438167273
  0
LINE
  8
0
 62
7
  6
CONTINUOUS
 10
138.2540323363
 20
210.5293563172
 11
138.3290747924
 21
210.4037633478
  0
LINE
  8
0
 62
7
  6
CONTINUOUS
 10
138.5490329516
 20
210.7718909358
 11
137.5739806505
 21
212.4037633478
  0
LINE
  8
0
 62
7
  6
CONTINUOUS
 10
138.7689911107
 20
211.1400185238
 11
139.2089074291
 21
210.4037633478
  0
LINE
  8
0
 62
7
  6
CONTINUOUS
 10
139.3664963408
 20
211.4037633478
 11
138.7689911107
 21
212.4037633478
  0
LINE
  8
0
 62
7
  6
CONTINUOUS
 10
140.7190957128
 20
210.4037633478
 11
139.9640015709
 21
211.6675081718
  0
LINE
  8
0
 62
7
  6
CONTINUOUS
 10
140.939053872
 20
210.7718909358
 11
139.9640015709
 21
212.4037633478
  0
POLYLINE
  8
0
 62
7
  6
CONTINUOUS
 66
1
 70
0
  0
VERTEX
  8
0
 62
7
  6
CONTINUOUS
 10
146.9540224913
 20
207.6044282817
  0
VERTEX
  8
0
 62
7
  6
CONTINUOUS
 10
146.9551516147
 20
207.571305172
  0
VERTEX
  8
0
 62
7
  6
CONTINUOUS
 10
146.9585574073
 20
207.5377021453
  0
VERTEX
  8
0
 62
7
  6
CONTINUOUS
 10
146.964260742
 20
207.5037633478
  0
SEQEND
  0
LINE
  8
0
 62
7
  6
CONTINUOUS
 10
143.5490329516
 20
211.1400185238
 11
143.5490329516
 21
212.4037633478
  0
LINE
  8
0
 62
7
  6
CONTINUOUS
 10
144.7440434118
 20
212.4037633478
 11
144.7440434118
 21
211.6675081718
  0
LINE
  8
0
 62
7
  6
CONTINUOUS
 10
145.939053872
 20
211.1400185238
 11
145.939053872
 21
212.4037633478
  0
LINE
  8
0
 62
7
  6
CONTINUOUS
 10
146.4540224913
 20
210.4037633478
 11
146.4540224913
 21
211.5418987257
  0
LINE
  8
0
 62
7
  6
CONTINUOUS
 10
146.9540224913
 20
202.4037633478
 11
146.9540224913
 21
209.9037633478
  0
LINE
  8
0
 62
7
  6
CONTINUOUS
 10
147.1340643322
 20
211.343914778
 11
147.1340643322
 21
212.4037633478
  0
LINE
  8
0
 62
7
  6
CONTINUOUS
 10
145.939053872
 20
211.1400185238
 11
145.4991375536
 21
210.4037633478
  0
LINE
  8
0
 62
7
  6
CONTINUOUS
 10
147.1340643322
 20
212.4037633478
 11
146.1590120311
 21
210.7718909358
  0
LINE
  8
0
 62
7
  6
CONTINUOUS
 10
146.4540224913
 20
210.529372794
 11
146.3789701903
 21
210.4037633478
  0
LINE
  8
0
 62
7
  6
CONTINUOUS
 10
147.1340643322
 20
211.343914778
 11
146.5723154832
 21
210.4037633434
  0
LINE
  8
0
 62
7
  6
CONTINUOUS
 10
148.3290747924
 20
212.4037633478
 11
147.7315695623
 21
211.4037633478
  0
LINE
  8
0
 62
7
  6
CONTINUOUS
 10
148.3290747924
 20
211.4636242
 11
147.6958062769
 21
210.4037633443
  0
LINE
  8
0
 62
7
  6
CONTINUOUS
 10
149.5240852526
 20
212.4037633478
 11
148.6457119658
 21
210.9336954011
  0
LINE
  8
0
 62
7
  6
CONTINUOUS
 10
149.5240852526
 20
211.3438902135
 11
148.9623510821
 21
210.4037633452
  0
LINE
  8
0
 62
7
  6
CONTINUOUS
 10
150.7190957128
 20
212.4037633478
 11
150.1215904827
 21
211.4037633478
  0
LINE
  8
0
 62
7
  6
CONTINUOUS
 10
150.7190957128
 20
211.4636487644
 11
150.0858125209
 21
210.4037633458
  0
LINE
  8
0
 62
7
  6
CONTINUOUS
 10
151.914106173
 20
212.4037633478
 11
151.0357402249
 21
210.9337076834
  0
POLYLINE
  8
0
 62
7
  6
CONTINUOUS
 66
1
 70
0
  0
VERTEX
  8
0
 62
7
  6
CONTINUOUS
 10
146.9540224913
 20
205.3400347229
  0
VERTEX
  8
0
 62
7
  6
CONTINUOUS
 10
146.941596523
 20
205.3267946538
  0
VERTEX
  8
0
 62
7
  6
CONTINUOUS
 10
146.9048670432
 20
205.3143686776
  0
VERTEX
  8
0
 62
7
  6
CONTINUOUS
 10
146.8455552248
 20
205.3033353803
  0
VERTEX
  8
0
 62
7
  6
CONTINUOUS
 10
146.7665286216
 20
205.2941969652
  0
VERTEX
  8
0
 62
7
  6
CONTINUOUS
 10
146.6716800566
 20
205.2873625015
  0
VERTEX
  8
0
 62
7
  6
CONTINUOUS
 10
146.56573843
 20
205.2831351233
  0
VERTEX
  8
0
 62
7
  6
CONTINUOUS
 10
146.4540224913
 20
205.2817036789
  0
SEQEND
  0
LINE
  8
0
 62
7
  6
CONTINUOUS
 10
147.4673847567
 20
208.0030184202
 11
147.4957079288
 21
208.0037633478
  0
LINE
  8
0
 62
7
  6
CONTINUOUS
 10
128.3673847567
 20
208.0030184202
 11
128.3957079288
 21
208.0037633478
  0
LINE
  8
0
 62
7
  6
CONTINUOUS
 10
109.2673847567
 20
208.0030184202
 11
109.2957079288
 21
208.0037633478
  0
LINE
  8
0
 62
7
  6
CONTINUOUS
 10
90.1673847567
 20
208.0030184202
 11
90.1957079288
 21
208.0037633478
  0
POLYLINE
  8
0
 62
7
  6
CONTINUOUS
 66
1
 70
0
  0
VERTEX
  8
0
 62
7
  6
CONTINUOUS
 10
66.8540224913
 20
207.2258230168
  0
VERTEX
  8
0
 62
7
  6
CONTINUOUS
 10
66.7423065527
 20
207.2243915723
  0
VERTEX
  8
0
 62
7
  6
CONTINUOUS
 10
66.6363649261
 20
207.2201641942
  0
VERTEX
  8
0
 62
7
  6
CONTINUOUS
 10
66.5415163611
 20
207.2133297305
  0
VERTEX
  8
0
 62
7
  6
CONTINUOUS
 10
66.4624897579
 20
207.2041913153
  0
VERTEX
  8
0
 62
7
  6
CONTINUOUS
 10
66.4031779395
 20
207.193158018
  0
VERTEX
  8
0
 62
7
  6
CONTINUOUS
 10
66.3664484597
 20
207.1807320419
  0
VERTEX
  8
0
 62
7
  6
CONTINUOUS
 10
66.3540224913
 20
207.1674919728
  0
SEQEND
  0
LINE
  8
0
 62
7
  6
CONTINUOUS
 10
70.8660978028
 20
208.0037633478
 11
79.9123370555
 21
208.0037633478
  0
LINE
  8
0
 62
7
  6
CONTINUOUS
 10
90.195707933
 20
208.0037633478
 11
99.0123370555
 21
208.0037633478
  0
LINE
  8
0
 62
7
  6
CONTINUOUS
 10
109.295707933
 20
208.0037633478
 11
118.1123370555
 21
208.0037633478
  0
LINE
  8
0
 62
7
  6
CONTINUOUS
 10
128.395707933
 20
208.0037633478
 11
137.2123370555
 21
208.0037633478
  0
LINE
  8
0
 62
7
  6
CONTINUOUS
 10
147.495707933
 20
208.0037633478
 11
156.3123370555
 21
208.0037633478
  0
LINE
  8
0
 62
7
  6
CONTINUOUS
 10
166.595707933
 20
208.0037633478
 11
175.4123370555
 21
208.0037633478
  0
LINE
  8
0
 62
7
  6
CONTINUOUS
 10
185.695707933
 20
208.0037633478
 11
194.5123370555
 21
208.0037633478
  0
LINE
  8
0
 62
7
  6
CONTINUOUS
 10
204.795707933
 20
208.0037633478
 11
213.8419471797
 21
208.0037633478
  0
LINE
  8
0
 62
7
  6
CONTINUOUS
 10
66.6540224913
 20
210.4037633478
 11
218.0540224913
 21
210.4037633478
  0
POLYLINE
  8
0
 62
7
  6
CONTINUOUS
 66
1
 70
0
  0
VERTEX
  8
0
 62
7
  6
CONTINUOUS
 10
217.8540224913
 20
207.2258230168
  0
VERTEX
  8
0
 62
7
  6
CONTINUOUS
 10
217.96573843
 20
207.2243915723
  0
VERTEX
  8
0
 62
7
  6
CONTINUOUS
 10
218.0716800566
 20
207.2201641942
  0
VERTEX
  8
0
 62
7
  6
CONTINUOUS
 10
218.1665286216
 20
207.2133297305
  0
VERTEX
  8
0
 62
7
  6
CONTINUOUS
 10
218.2455552248
 20
207.2041913153
  0
VERTEX
  8
0
 62
7
  6
CONTINUOUS
 10
218.3048670432
 20
207.193158018
  0
VERTEX
  8
0
 62
7
  6
CONTINUOUS
 10
218.341596523
 20
207.1807320419
  0
VERTEX
  8
0
 62
7
  6
CONTINUOUS
 10
218.3540224913
 20
207.1674919728
  0
SEQEND
  0
LINE
  8
0
 62
7
  6
CONTINUOUS
 10
137.2123370598
 20
208.0037633478
 11
137.240660226
 21
208.0030184202
  0
LINE
  8
0
 62
7
  6
CONTINUOUS
 10
156.3123370598
 20
208.0037633478
 11
156.340660226
 21
208.0030184202
  0
LINE
  8
0
 62
7
  6
CONTINUOUS
 10
175.4123370598
 20
208.0037633478
 11
175.440660226
 21
208.0030184202
  0
LINE
  8
0
 62
7
  6
CONTINUOUS
 10
194.5123370598
 20
208.0037633478
 11
194.540660226
 21
208.0030184202
  0
LINE
  8
2_FEATURE
 62
7
  6
CONTINUOUS
 10
151.5477724913
 20
202.1488915959
 11
151.6790224913
 21
202.056276644
  0
LINE
  8
2_FEATURE
 62
7
  6
CONTINUOUS
 10
153.5165224913
 20
202.1488915959
 11
153.6477724913
 21
202.056276644
  0
POLYLINE
  8
0
 62
7
  6
CONTINUOUS
 66
1
 70
0
  0
VERTEX
  8
0
 62
7
  6
CONTINUOUS
 10
146.9540224913
 20
207.1674919728
  0
VERTEX
  8
0
 62
7
  6
CONTINUOUS
 10
146.941596523
 20
207.1807320419
  0
VERTEX
  8
0
 62
7
  6
CONTINUOUS
 10
146.9048670432
 20
207.193158018
  0
VERTEX
  8
0
 62
7
  6
CONTINUOUS
 10
146.8455552248
 20
207.2041913153
  0
VERTEX
  8
0
 62
7
  6
CONTINUOUS
 10
146.7665286216
 20
207.2133297305
  0
VERTEX
  8
0
 62
7
  6
CONTINUOUS
 10
146.6716800566
 20
207.2201641942
  0
VERTEX
  8
0
 62
7
  6
CONTINUOUS
 10
146.56573843
 20
207.2243915723
  0
VERTEX
  8
0
 62
7
  6
CONTINUOUS
 10
146.4540224913
 20
207.2258230168
  0
SEQEND
  0
LINE
  8
2_FEATURE
 62
7
  6
CONTINUOUS
 10
151.4165224913
 20
202.056276644
 11
151.4602724496
 21
202.0018071928
  0
LINE
  8
2_FEATURE
 62
7
  6
CONTINUOUS
 10
151.6790224913
 20
202.056276644
 11
151.7227724496
 21
202.0018071928
  0
LINE
  8
2_FEATURE
 62
7
  6
CONTINUOUS
 10
153.3852724913
 20
202.056276644
 11
153.4290225748
 21
202.0018071928
  0
LINE
  8
2_FEATURE
 62
7
  6
CONTINUOUS
 10
153.6477724913
 20
202.056276644
 11
153.6915225748
 21
202.0018071928
  0
LINE
  8
0
 62
7
  6
CONTINUOUS
 10
141.1590120311
 20
211.1400185238
 11
141.5989283495
 21
210.4037633478
  0
LINE
  8
0
 62
7
  6
CONTINUOUS
 10
141.7565172612
 20
211.4037633478
 11
141.1590120311
 21
212.4037633478
  0
LINE
  8
0
 62
7
  6
CONTINUOUS
 10
143.1091166332
 20
210.4037633478
 11
142.3540224913
 21
211.6675081718
  0
LINE
  8
0
 62
7
  6
CONTINUOUS
 10
143.3290747924
 20
210.7718909358
 11
142.3540224913
 21
212.4037633478
  0
LINE
  8
0
 62
7
  6
CONTINUOUS
 10
143.5490329516
 20
211.1400185238
 11
143.9889492699
 21
210.4037633478
  0
LINE
  8
0
 62
7
  6
CONTINUOUS
 10
144.1465381817
 20
211.4037633478
 11
143.5490329516
 21
212.4037633478
  0
LINE
  8
0
 62
7
  6
CONTINUOUS
 10
145.4991375536
 20
210.4037633478
 11
144.7440434118
 21
211.6675081718
  0
LINE
  8
0
 62
7
  6
CONTINUOUS
 10
145.7190957128
 20
210.7718909358
 11
144.7440434118
 21
212.4037633478
  0
LINE
  8
0
 62
7
  6
CONTINUOUS
 10
145.939053872
 20
211.1400185238
 11
146.3789701903
 21
210.4037633478
  0
LINE
  8
0
 62
7
  6
CONTINUOUS
 10
146.4540224913
 20
210.6017403061
 11
146.5723154884
 21
210.4037633434
  0
LINE
  8
0
 62
7
  6
CONTINUOUS
 10
146.5365591021
 20
211.4037633478
 11
145.939053872
 21
212.4037633478
  0
LINE
  8
0
 62
7
  6
CONTINUOUS
 10
148.3290747924
 20
211.4636242
 11
148.3290747924
 21
212.4037633478
  0
LINE
  8
0
 62
7
  6
CONTINUOUS
 10
148.9040224913
 20
205.6468458059
 11
148.9040224913
 21
202.4037633478
  0
LINE
  8
0
 62
7
  6
CONTINUOUS
 10
149.5240852526
 20
211.3438902135
 11
149.5240852526
 21
212.4037633478
  0
LINE
  8
2_FEATURE
 62
7
  6
CONTINUOUS
 10
150.1040224913
 20
202.2658323366
 11
150.1040224913
 21
201.9037649955
  0
LINE
  8
2_FEATURE
 62
7
  6
CONTINUOUS
 10
150.3665224913
 20
201.9083024798
 11
150.3665224913
 21
202.2658323366
  0
LINE
  8
0
 62
7
  6
CONTINUOUS
 10
150.7190957128
 20
211.4636487644
 11
150.7190957128
 21
212.4037633478
  0
LINE
  8
2_FEATURE
 62
7
  6
CONTINUOUS
 10
151.1540224913
 20
201.9083024798
 11
151.1540224913
 21
201.9108464248
  0
LINE
  8
2_FEATURE
 62
7
  6
CONTINUOUS
 10
151.1977724496
 20
202.1235285827
 11
151.1977724496
 21
202.2595074859
  0
LINE
  8
2_FEATURE
 62
7
  6
CONTINUOUS
 10
151.3290224496
 20
202.0996550991
 11
151.3290224496
 21
202.2405329154
  0
LINE
  8
2_FEATURE
 62
7
  6
CONTINUOUS
 10
151.3727725331
 20
201.9055368318
 11
151.3727725331
 21
201.9225695496
  0
LINE
  8
2_FEATURE
 62
7
  6
CONTINUOUS
 10
151.4165224913
 20
202.056276644
 11
151.4165224913
 21
202.2128789491
  0
LINE
  8
2_FEATURE
 62
7
  6
CONTINUOUS
 10
151.4602724496
 20
201.9596337445
 11
151.4602724496
 21
202.1915498517
  0
LINE
  8
2_FEATURE
 62
7
  6
CONTINUOUS
 10
151.5477724913
 20
201.9048946512
 11
151.5477724913
 21
202.1049491871
  0
LINE
  8
2_FEATURE
 62
7
  6
CONTINUOUS
 10
151.6790224913
 20
201.9219240265
 11
151.6790224913
 21
202.056276644
  0
LINE
  8
2_FEATURE
 62
7
  6
CONTINUOUS
 10
151.7227724496
 20
202.0018071928
 11
151.7227724496
 21
201.9482429092
  0
LINE
  8
0
 62
7
  6
CONTINUOUS
 10
151.914106173
 20
211.343865649
 11
151.914106173
 21
212.4037633478
  0
LINE
  8
2_FEATURE
 62
7
  6
CONTINUOUS
 10
152.0727724913
 20
202.2658323366
 11
152.0727724913
 21
201.9037649955
  0
LINE
  8
2_FEATURE
 62
7
  6
CONTINUOUS
 10
152.3352724913
 20
201.9083024798
 11
152.3352724913
 21
202.2658323366
  0
LINE
  8
0
 62
7
  6
CONTINUOUS
 10
153.1091166332
 20
211.4636733289
 11
153.1091166332
 21
212.4037633478
  0
LINE
  8
2_FEATURE
 62
7
  6
CONTINUOUS
 10
153.1227724913
 20
201.9083024798
 11
153.1227724913
 21
201.9108464248
  0
LINE
  8
2_FEATURE
 62
7
  6
CONTINUOUS
 10
153.1665225748
 20
202.1235285827
 11
153.1665225748
 21
202.2595074641
  0
LINE
  8
0
 62
7
  6
CONTINUOUS
 10
151.914106173
 20
211.343865649
 11
151.3523866808
 21
210.4037633465
  0
LINE
  8
0
 62
7
  6
CONTINUOUS
 10
153.1091166332
 20
212.4037633478
 11
152.5116114031
 21
211.4037633478
  0
LINE
  8
0
 62
7
  6
CONTINUOUS
 10
153.1091166332
 20
211.4636733289
 11
152.4758187647
 21
210.4037633469
  0
LINE
  8
0
 62
7
  6
CONTINUOUS
 10
154.3041270934
 20
212.4037633478
 11
153.4257684841
 21
210.9337199656
  0
LINE
  8
0
 62
7
  6
CONTINUOUS
 10
154.3041270934
 20
211.3438410845
 11
153.7424222792
 21
210.4037633473
  0
LINE
  8
0
 62
7
  6
CONTINUOUS
 10
155.4991375536
 20
212.4037633478
 11
154.9016323235
 21
211.4037633478
  0
LINE
  8
0
 62
7
  6
CONTINUOUS
 10
155.4991375536
 20
211.4636978934
 11
154.8658250082
 21
210.4037633476
  0
LINE
  8
0
 62
7
  6
CONTINUOUS
 10
156.6941480138
 20
212.4037633478
 11
155.8157967432
 21
210.9337322479
  0
LINE
  8
0
 62
7
  6
CONTINUOUS
 10
156.6941480138
 20
211.34381652
 11
156.1324578774
 21
210.4037633478
  0
LINE
  8
0
 62
7
  6
CONTINUOUS
 10
157.889158474
 20
212.4037633478
 11
157.2916532439
 21
211.4037633478
  0
POLYLINE
  8
0
 62
7
  6
CONTINUOUS
 66
1
 70
0
  0
VERTEX
  8
0
 62
7
  6
CONTINUOUS
 10
156.8540224913
 20
207.1674919728
  0
VERTEX
  8
0
 62
7
  6
CONTINUOUS
 10
156.8664484597
 20
207.1807320419
  0
VERTEX
  8
0
 62
7
  6
CONTINUOUS
 10
156.9031779395
 20
207.193158018
  0
VERTEX
  8
0
 62
7
  6
CONTINUOUS
 10
156.9624897579
 20
207.2041913153
  0
VERTEX
  8
0
 62
7
  6
CONTINUOUS
 10
157.0415163611
 20
207.2133297305
  0
VERTEX
  8
0
 62
7
  6
CONTINUOUS
 10
157.1363649261
 20
207.2201641942
  0
VERTEX
  8
0
 62
7
  6
CONTINUOUS
 10
157.2423065527
 20
207.2243915723
  0
VERTEX
  8
0
 62
7
  6
CONTINUOUS
 10
157.3540224913
 20
207.2258230168
  0
SEQEND
  0
LINE
  8
2_FEATURE
 62
7
  6
CONTINUOUS
 10
151.4602724496
 20
201.9596337445
 11
151.4165224913
 21
201.929396611
  0
LINE
  8
2_FEATURE
 62
7
  6
CONTINUOUS
 10
153.4290225748
 20
201.9596337445
 11
153.3852724913
 21
201.929396611
  0
LINE
  8
2_FEATURE
 62
7
  6
CONTINUOUS
 10
151.7227724496
 20
201.9482429092
 11
151.6790224913
 21
201.9219240265
  0
LINE
  8
2_FEATURE
 62
7
  6
CONTINUOUS
 10
153.6915225748
 20
201.9482429092
 11
153.6477724913
 21
201.9219240265
  0
POLYLINE
  8
0
 62
7
  6
CONTINUOUS
 66
1
 70
0
  0
VERTEX
  8
0
 62
7
  6
CONTINUOUS
 10
156.8540224913
 20
205.3400347229
  0
VERTEX
  8
0
 62
7
  6
CONTINUOUS
 10
156.8664484597
 20
205.3267946538
  0
VERTEX
  8
0
 62
7
  6
CONTINUOUS
 10
156.9031779395
 20
205.3143686776
  0
VERTEX
  8
0
 62
7
  6
CONTINUOUS
 10
156.9624897579
 20
205.3033353803
  0
VERTEX
  8
0
 62
7
  6
CONTINUOUS
 10
157.0415163611
 20
205.2941969652
  0
VERTEX
  8
0
 62
7
  6
CONTINUOUS
 10
157.1363649261
 20
205.2873625015
  0
VERTEX
  8
0
 62
7
  6
CONTINUOUS
 10
157.2423065527
 20
205.2831351233
  0
VERTEX
  8
0
 62
7
  6
CONTINUOUS
 10
157.3540224913
 20
205.2817036789
  0
SEQEND
  0
LINE
  8
0
 62
7
  6
CONTINUOUS
 10
147.6958062811
 20
210.4037633443
 11
147.1340643322
 21
211.343914778
  0
LINE
  8
0
 62
7
  6
CONTINUOUS
 10
148.0124395635
 20
210.9336921467
 11
147.1340643322
 21
212.4037633478
  0
LINE
  8
0
 62
7
  6
CONTINUOUS
 10
148.9623510853
 20
210.4037633452
 11
148.3290747924
 21
211.4636242
  0
LINE
  8
0
 62
7
  6
CONTINUOUS
 10
148.9265800225
 20
211.4037633478
 11
148.3290747924
 21
212.4037633478
  0
LINE
  8
0
 62
7
  6
CONTINUOUS
 10
150.0858125233
 20
210.4037633458
 11
149.5240852526
 21
211.3438902135
  0
LINE
  8
0
 62
7
  6
CONTINUOUS
 10
150.4024531452
 20
210.9337044289
 11
149.5240852526
 21
212.4037633478
  0
LINE
  8
0
 62
7
  6
CONTINUOUS
 10
151.3523866824
 20
210.4037633465
 11
150.7190957128
 21
211.4636487644
  0
LINE
  8
0
 62
7
  6
CONTINUOUS
 10
151.3166009429
 20
211.4037633478
 11
150.7190957128
 21
212.4037633478
  0
LINE
  8
0
 62
7
  6
CONTINUOUS
 10
152.4758187658
 20
210.4037633469
 11
151.914106173
 21
211.343865649
  0
LINE
  8
2_FEATURE
 62
7
  6
CONTINUOUS
 10
153.2977725748
 20
202.0996550991
 11
153.2977725748
 21
202.2405328828
  0
LINE
  8
2_FEATURE
 62
7
  6
CONTINUOUS
 10
153.3415224079
 20
201.9055368318
 11
153.3415224079
 21
201.9225695203
  0
LINE
  8
2_FEATURE
 62
7
  6
CONTINUOUS
 10
153.3852724913
 20
202.056276644
 11
153.3852724913
 21
202.2128789033
  0
LINE
  8
2_FEATURE
 62
7
  6
CONTINUOUS
 10
153.4290225748
 20
201.9596337445
 11
153.4290225748
 21
202.1915497602
  0
LINE
  8
2_FEATURE
 62
7
  6
CONTINUOUS
 10
153.5165224913
 20
201.9048946512
 11
153.5165224913
 21
202.1049491871
  0
LINE
  8
2_FEATURE
 62
7
  6
CONTINUOUS
 10
153.6477724913
 20
201.9219240265
 11
153.6477724913
 21
202.056276644
  0
LINE
  8
2_FEATURE
 62
7
  6
CONTINUOUS
 10
153.6915225748
 20
202.0018071928
 11
153.6915225748
 21
201.9482429092
  0
LINE
  8
0
 62
7
  6
CONTINUOUS
 10
154.3041270934
 20
211.3438410845
 11
154.3041270934
 21
212.4037633478
  0
LINE
  8
0
 62
7
  6
CONTINUOUS
 10
154.9040224913
 20
205.6468521722
 11
154.9040224913
 21
202.4037633478
  0
LINE
  8
0
 62
7
  6
CONTINUOUS
 10
155.4991375536
 20
211.4636978934
 11
155.4991375536
 21
212.4037633478
  0
LINE
  8
0
 62
7
  6
CONTINUOUS
 10
156.6941480138
 20
211.34381652
 11
156.6941480138
 21
212.4037633478
  0
LINE
  8
0
 62
7
  6
CONTINUOUS
 10
156.8540224913
 20
202.4037633478
 11
156.8540224913
 21
209.9037633478
  0
LINE
  8
0
 62
7
  6
CONTINUOUS
 10
157.3540323363
 20
210.4037633478
 11
157.354051756
 21
211.50819509
  0
LINE
  8
0
 62
7
  6
CONTINUOUS
 10
157.889158474
 20
211.1400185238
 11
157.889158474
 21
212.4037633478
  0
POLYLINE
  8
0
 62
7
  6
CONTINUOUS
 66
1
 70
0
  0
VERTEX
  8
0
 62
7
  6
CONTINUOUS
 10
156.8437842407
 20
207.5037633478
  0
VERTEX
  8
0
 62
7
  6
CONTINUOUS
 10
156.8494873639
 20
207.5377005752
  0
VERTEX
  8
0
 62
7
  6
CONTINUOUS
 10
156.8528925651
 20
207.5712933306
  0
VERTEX
  8
0
 62
7
  6
CONTINUOUS
 10
156.8540224913
 20
207.6044282817
  0
SEQEND
  0
LINE
  8
0
 62
7
  6
CONTINUOUS
 10
157.3540868164
 20
210.5682073785
 11
157.2558312514
 21
210.4037633478
  0
LINE
  8
0
 62
7
  6
CONTINUOUS
 10
157.889158474
 20
211.1400185238
 11
157.4492421557
 21
210.4037633478
  0
LINE
  8
0
 62
7
  6
CONTINUOUS
 10
159.0841689342
 20
212.4037633478
 11
158.1091166332
 21
210.7718909358
  0
LINE
  8
0
 62
7
  6
CONTINUOUS
 10
159.0841689342
 20
211.6675081718
 11
158.3290747924
 21
210.4037633478
  0
LINE
  8
0
 62
7
  6
CONTINUOUS
 10
160.2791793944
 20
212.4037633478
 11
159.6816741643
 21
211.4037633478
  0
LINE
  8
0
 62
7
  6
CONTINUOUS
 10
160.2791793944
 20
211.1400185238
 11
159.8392630761
 21
210.4037633478
  0
LINE
  8
0
 62
7
  6
CONTINUOUS
 10
161.4741898546
 20
212.4037633478
 11
160.4991375536
 21
210.7718909358
  0
LINE
  8
0
 62
7
  6
CONTINUOUS
 10
161.4741898546
 20
211.6675081718
 11
160.7190957128
 21
210.4037633478
  0
LINE
  8
0
 62
7
  6
CONTINUOUS
 10
162.6692003148
 20
212.4037633478
 11
162.0716950847
 21
211.4037633478
  0
LINE
  8
0
 62
7
  6
CONTINUOUS
 10
162.6692003148
 20
211.1400185238
 11
162.2292839965
 21
210.4037633478
  0
LINE
  8
0
 62
7
  6
CONTINUOUS
 10
163.864210775
 20
212.4037633478
 11
162.889158474
 21
210.7718909358
  0
LINE
  8
0
 62
7
  6
CONTINUOUS
 10
152.7924667269
 20
210.9337167111
 11
151.914106173
 21
212.4037633478
  0
LINE
  8
0
 62
7
  6
CONTINUOUS
 10
153.7424222798
 20
210.4037633473
 11
153.1091166332
 21
211.4636733289
  0
LINE
  8
0
 62
7
  6
CONTINUOUS
 10
153.7066218633
 20
211.4037633478
 11
153.1091166332
 21
212.4037633478
  0
LINE
  8
0
 62
7
  6
CONTINUOUS
 10
154.8658250085
 20
210.4037633476
 11
154.3041270934
 21
211.3438410845
  0
LINE
  8
0
 62
7
  6
CONTINUOUS
 10
155.1824803087
 20
210.9337289933
 11
154.3041270934
 21
212.4037633478
  0
LINE
  8
0
 62
7
  6
CONTINUOUS
 10
156.1324578775
 20
210.4037633478
 11
155.4991375536
 21
211.4636978934
  0
LINE
  8
0
 62
7
  6
CONTINUOUS
 10
156.0966427837
 20
211.4037633478
 11
155.4991375536
 21
212.4037633478
  0
LINE
  8
0
 62
7
  6
CONTINUOUS
 10
157.2558312514
 20
210.4037633478
 11
156.6941480138
 21
211.34381652
  0
LINE
  8
0
 62
7
  6
CONTINUOUS
 10
157.3540323363
 20
210.563108931
 11
157.4492421557
 21
210.4037633478
  0
LINE
  8
0
 62
7
  6
CONTINUOUS
 10
157.6692003148
 20
210.7718909358
 11
156.6941480138
 21
212.4037633478
  0
LINE
  8
0
 62
7
  6
CONTINUOUS
 10
157.889158474
 20
211.1400185238
 11
158.3290747924
 21
210.4037633478
  0
LINE
  8
0
 62
7
  6
CONTINUOUS
 10
159.0841689342
 20
212.4037633478
 11
159.0841689342
 21
211.6675081718
  0
LINE
  8
0
 62
7
  6
CONTINUOUS
 10
160.2791793944
 20
211.1400185238
 11
160.2791793944
 21
212.4037633478
  0
LINE
  8
0
 62
7
  6
CONTINUOUS
 10
161.4741898546
 20
212.4037633478
 11
161.4741898546
 21
211.6675081718
  0
LINE
  8
0
 62
7
  6
CONTINUOUS
 10
162.6692003148
 20
211.1400185238
 11
162.6692003148
 21
212.4037633478
  0
LINE
  8
0
 62
7
  6
CONTINUOUS
 10
163.864210775
 20
211.6675081718
 11
163.1091166332
 21
210.4037633478
  0
LINE
  8
0
 62
7
  6
CONTINUOUS
 10
165.0592212352
 20
212.4037633478
 11
164.4617160051
 21
211.4037633478
  0
LINE
  8
0
 62
7
  6
CONTINUOUS
 10
165.0592212352
 20
211.1400185238
 11
164.6193049169
 21
210.4037633478
  0
LINE
  8
0
 62
7
  6
CONTINUOUS
 10
166.2542316955
 20
212.4037633478
 11
165.2791793944
 21
210.7718909358
  0
LINE
  8
0
 62
7
  6
CONTINUOUS
 10
165.5540224913
 20
210.4956201802
 11
165.4991375536
 21
210.4037633478
  0
LINE
  8
0
 62
7
  6
CONTINUOUS
 10
166.2542316955
 20
211.3439145707
 11
165.6924829703
 21
210.4037633435
  0
LINE
  8
0
 62
7
  6
CONTINUOUS
 10
167.4492421557
 20
212.4037633478
 11
166.8517369256
 21
211.4037633478
  0
LINE
  8
0
 62
7
  6
CONTINUOUS
 10
167.4492421557
 20
211.4636244072
 11
166.8159735164
 21
210.4037633443
  0
LINE
  8
0
 62
7
  6
CONTINUOUS
 10
168.6442526159
 20
212.4037633478
 11
167.765879391
 21
210.9336955047
  0
LINE
  8
0
 62
7
  6
CONTINUOUS
 10
168.6442526159
 20
211.3438900062
 11
168.0825185693
 21
210.4037633452
  0
LINE
  8
0
 62
7
  6
CONTINUOUS
 10
169.8392630761
 20
212.4037633478
 11
169.241757846
 21
211.4037633478
  0
POLYLINE
  8
0
 62
7
  6
CONTINUOUS
 66
1
 70
0
  0
VERTEX
  8
0
 62
7
  6
CONTINUOUS
 10
166.0540224913
 20
205.3400347229
  0
VERTEX
  8
0
 62
7
  6
CONTINUOUS
 10
166.041596523
 20
205.3267946538
  0
VERTEX
  8
0
 62
7
  6
CONTINUOUS
 10
166.0048670432
 20
205.3143686776
  0
VERTEX
  8
0
 62
7
  6
CONTINUOUS
 10
165.9455552248
 20
205.3033353803
  0
VERTEX
  8
0
 62
7
  6
CONTINUOUS
 10
165.8665286216
 20
205.2941969652
  0
VERTEX
  8
0
 62
7
  6
CONTINUOUS
 10
165.7716800566
 20
205.2873625015
  0
VERTEX
  8
0
 62
7
  6
CONTINUOUS
 10
165.66573843
 20
205.2831351233
  0
VERTEX
  8
0
 62
7
  6
CONTINUOUS
 10
165.5540224913
 20
205.2817036789
  0
SEQEND
  0
POLYLINE
  8
0
 62
7
  6
CONTINUOUS
 66
1
 70
0
  0
VERTEX
  8
0
 62
7
  6
CONTINUOUS
 10
166.0540224913
 20
207.1674919728
  0
VERTEX
  8
0
 62
7
  6
CONTINUOUS
 10
166.041596523
 20
207.1807320419
  0
VERTEX
  8
0
 62
7
  6
CONTINUOUS
 10
166.0048670432
 20
207.193158018
  0
VERTEX
  8
0
 62
7
  6
CONTINUOUS
 10
165.9455552248
 20
207.2041913153
  0
VERTEX
  8
0
 62
7
  6
CONTINUOUS
 10
165.8665286216
 20
207.2133297305
  0
VERTEX
  8
0
 62
7
  6
CONTINUOUS
 10
165.7716800566
 20
207.2201641942
  0
VERTEX
  8
0
 62
7
  6
CONTINUOUS
 10
165.66573843
 20
207.2243915723
  0
VERTEX
  8
0
 62
7
  6
CONTINUOUS
 10
165.5540224913
 20
207.2258230168
  0
SEQEND
  0
LINE
  8
0
 62
7
  6
CONTINUOUS
 10
158.4866637041
 20
211.4037633478
 11
157.889158474
 21
212.4037633478
  0
LINE
  8
0
 62
7
  6
CONTINUOUS
 10
159.8392630761
 20
210.4037633478
 11
159.0841689342
 21
211.6675081718
  0
LINE
  8
0
 62
7
  6
CONTINUOUS
 10
160.0592212352
 20
210.7718909358
 11
159.0841689342
 21
212.4037633478
  0
LINE
  8
0
 62
7
  6
CONTINUOUS
 10
160.7190957128
 20
210.4037633478
 11
160.2791793944
 21
211.1400185238
  0
LINE
  8
0
 62
7
  6
CONTINUOUS
 10
160.8766846245
 20
211.4037633478
 11
160.2791793944
 21
212.4037633478
  0
LINE
  8
0
 62
7
  6
CONTINUOUS
 10
162.2292839965
 20
210.4037633478
 11
161.4741898546
 21
211.6675081718
  0
LINE
  8
0
 62
7
  6
CONTINUOUS
 10
162.4492421557
 20
210.7718909358
 11
161.4741898546
 21
212.4037633478
  0
LINE
  8
0
 62
7
  6
CONTINUOUS
 10
163.1091166332
 20
210.4037633478
 11
162.6692003148
 21
211.1400185238
  0
LINE
  8
0
 62
7
  6
CONTINUOUS
 10
163.2667055449
 20
211.4037633478
 11
162.6692003148
 21
212.4037633478
  0
LINE
  8
0
 62
7
  6
CONTINUOUS
 10
164.6193049169
 20
210.4037633478
 11
163.864210775
 21
211.6675081718
  0
POLYLINE
  8
0
 62
7
  6
CONTINUOUS
 66
1
 70
0
  0
VERTEX
  8
0
 62
7
  6
CONTINUOUS
 10
166.0540224913
 20
207.6044282817
  0
VERTEX
  8
0
 62
7
  6
CONTINUOUS
 10
166.0551516147
 20
207.571305172
  0
VERTEX
  8
0
 62
7
  6
CONTINUOUS
 10
166.0585574073
 20
207.5377021453
  0
VERTEX
  8
0
 62
7
  6
CONTINUOUS
 10
166.064260742
 20
207.5037633478
  0
SEQEND
  0
LINE
  8
0
 62
7
  6
CONTINUOUS
 10
163.864210775
 20
212.4037633478
 11
163.864210775
 21
211.6675081718
  0
LINE
  8
0
 62
7
  6
CONTINUOUS
 10
165.0592212352
 20
211.1400185238
 11
165.0592212352
 21
212.4037633478
  0
LINE
  8
0
 62
7
  6
CONTINUOUS
 10
165.5540224913
 20
210.4037633478
 11
165.5540224913
 21
211.5756513395
  0
LINE
  8
0
 62
7
  6
CONTINUOUS
 10
166.0540224913
 20
202.4037633478
 11
166.0540224913
 21
209.9037633478
  0
LINE
  8
0
 62
7
  6
CONTINUOUS
 10
166.2542316955
 20
211.3439145707
 11
166.2542316955
 21
212.4037633478
  0
LINE
  8
0
 62
7
  6
CONTINUOUS
 10
167.4492421557
 20
211.4636244072
 11
167.4492421557
 21
212.4037633478
  0
LINE
  8
0
 62
7
  6
CONTINUOUS
 10
168.0040224913
 20
205.6468521722
 11
168.0040224913
 21
202.4037633478
  0
LINE
  8
0
 62
7
  6
CONTINUOUS
 10
169.8392630761
 20
211.4636489717
 11
169.2059797604
 21
210.4037633459
  0
LINE
  8
0
 62
7
  6
CONTINUOUS
 10
171.0342735363
 20
212.4037633478
 11
170.1559076501
 21
210.933707787
  0
LINE
  8
0
 62
7
  6
CONTINUOUS
 10
171.0342735363
 20
211.3438654417
 11
170.472554168
 21
210.4037633465
  0
LINE
  8
0
 62
7
  6
CONTINUOUS
 10
172.2292839965
 20
212.4037633478
 11
171.6317787664
 21
211.4037633478
  0
LINE
  8
0
 62
7
  6
CONTINUOUS
 10
172.2292839965
 20
211.4636735362
 11
171.5959860041
 21
210.4037633469
  0
LINE
  8
0
 62
7
  6
CONTINUOUS
 10
173.4242944567
 20
212.4037633478
 11
172.5459359093
 21
210.9337200693
  0
LINE
  8
0
 62
7
  6
CONTINUOUS
 10
173.4242944567
 20
211.3438408772
 11
172.8625897664
 21
210.4037633473
  0
LINE
  8
0
 62
7
  6
CONTINUOUS
 10
174.6193049169
 20
212.4037633478
 11
174.0217996868
 21
211.4037633478
  0
LINE
  8
0
 62
7
  6
CONTINUOUS
 10
174.6193049169
 20
211.4636981007
 11
173.9859922476
 21
210.4037633476
  0
LINE
  8
0
 62
7
  6
CONTINUOUS
 10
175.8143153771
 20
212.4037633478
 11
174.9359641684
 21
210.9337323515
  0
POLYLINE
  8
0
 62
7
  6
CONTINUOUS
 66
1
 70
0
  0
VERTEX
  8
0
 62
7
  6
CONTINUOUS
 10
175.9540224913
 20
207.1674919728
  0
VERTEX
  8
0
 62
7
  6
CONTINUOUS
 10
175.9664484597
 20
207.1807320419
  0
VERTEX
  8
0
 62
7
  6
CONTINUOUS
 10
176.0031779395
 20
207.193158018
  0
VERTEX
  8
0
 62
7
  6
CONTINUOUS
 10
176.0624897579
 20
207.2041913153
  0
VERTEX
  8
0
 62
7
  6
CONTINUOUS
 10
176.1415163611
 20
207.2133297305
  0
VERTEX
  8
0
 62
7
  6
CONTINUOUS
 10
176.2363649261
 20
207.2201641942
  0
VERTEX
  8
0
 62
7
  6
CONTINUOUS
 10
176.3423065527
 20
207.2243915723
  0
VERTEX
  8
0
 62
7
  6
CONTINUOUS
 10
176.4540224913
 20
207.2258230168
  0
SEQEND
  0
POLYLINE
  8
0
 62
7
  6
CONTINUOUS
 66
1
 70
0
  0
VERTEX
  8
0
 62
7
  6
CONTINUOUS
 10
175.9540224913
 20
205.3400347229
  0
VERTEX
  8
0
 62
7
  6
CONTINUOUS
 10
175.9664484597
 20
205.3267946538
  0
VERTEX
  8
0
 62
7
  6
CONTINUOUS
 10
176.0031779395
 20
205.3143686776
  0
VERTEX
  8
0
 62
7
  6
CONTINUOUS
 10
176.0624897579
 20
205.3033353803
  0
VERTEX
  8
0
 62
7
  6
CONTINUOUS
 10
176.1415163611
 20
205.2941969652
  0
VERTEX
  8
0
 62
7
  6
CONTINUOUS
 10
176.2363649261
 20
205.2873625015
  0
VERTEX
  8
0
 62
7
  6
CONTINUOUS
 10
176.3423065527
 20
205.2831351233
  0
VERTEX
  8
0
 62
7
  6
CONTINUOUS
 10
176.4540224913
 20
205.2817036789
  0
SEQEND
  0
LINE
  8
0
 62
7
  6
CONTINUOUS
 10
164.8392630761
 20
210.7718909358
 11
163.864210775
 21
212.4037633478
  0
LINE
  8
0
 62
7
  6
CONTINUOUS
 10
165.0592212352
 20
211.1400185238
 11
165.4991375536
 21
210.4037633478
  0
LINE
  8
0
 62
7
  6
CONTINUOUS
 10
165.5540224913
 20
210.6354929199
 11
165.6924829756
 21
210.4037633435
  0
LINE
  8
0
 62
7
  6
CONTINUOUS
 10
165.6567264654
 20
211.4037633478
 11
165.0592212352
 21
212.4037633478
  0
LINE
  8
0
 62
7
  6
CONTINUOUS
 10
166.8159735206
 20
210.4037633443
 11
166.2542316955
 21
211.3439145707
  0
LINE
  8
0
 62
7
  6
CONTINUOUS
 10
167.1326068648
 20
210.9336922504
 11
166.2542316955
 21
212.4037633478
  0
LINE
  8
0
 62
7
  6
CONTINUOUS
 10
168.0825185724
 20
210.4037633452
 11
167.4492421557
 21
211.4636244072
  0
LINE
  8
0
 62
7
  6
CONTINUOUS
 10
168.0467473858
 20
211.4037633478
 11
167.4492421557
 21
212.4037633478
  0
LINE
  8
0
 62
7
  6
CONTINUOUS
 10
169.2059797627
 20
210.4037633459
 11
168.6442526159
 21
211.3438900062
  0
LINE
  8
0
 62
7
  6
CONTINUOUS
 10
169.5226204466
 20
210.9337045326
 11
168.6442526159
 21
212.4037633478
  0
LINE
  8
0
 62
7
  6
CONTINUOUS
 10
170.4725541696
 20
210.4037633465
 11
169.8392630761
 21
211.4636489717
  0
LINE
  8
0
 62
7
  6
CONTINUOUS
 10
168.6442526159
 20
211.3438900062
 11
168.6442526159
 21
212.4037633478
  0
LINE
  8
0
 62
7
  6
CONTINUOUS
 10
169.8392630761
 20
211.4636489717
 11
169.8392630761
 21
212.4037633478
  0
LINE
  8
0
 62
7
  6
CONTINUOUS
 10
171.0342735363
 20
211.3438654417
 11
171.0342735363
 21
212.4037633478
  0
LINE
  8
0
 62
7
  6
CONTINUOUS
 10
172.2292839965
 20
211.4636735362
 11
172.2292839965
 21
212.4037633478
  0
LINE
  8
0
 62
7
  6
CONTINUOUS
 10
173.4242944567
 20
211.3438408772
 11
173.4242944567
 21
212.4037633478
  0
LINE
  8
0
 62
7
  6
CONTINUOUS
 10
175.8143153771
 20
211.3438163128
 11
175.2526253645
 21
210.4037633478
  0
LINE
  8
0
 62
7
  6
CONTINUOUS
 10
177.0093258373
 20
212.4037633478
 11
176.4118206072
 21
211.4037633478
  0
LINE
  8
0
 62
7
  6
CONTINUOUS
 10
176.4540868164
 20
210.5344547647
 11
176.3759984909
 21
210.4037633478
  0
LINE
  8
0
 62
7
  6
CONTINUOUS
 10
177.0093258373
 20
211.1400185238
 11
176.5694095189
 21
210.4037633478
  0
LINE
  8
0
 62
7
  6
CONTINUOUS
 10
178.2043362975
 20
212.4037633478
 11
177.2292839965
 21
210.7718909358
  0
LINE
  8
0
 62
7
  6
CONTINUOUS
 10
178.2043362975
 20
211.6675081718
 11
177.4492421557
 21
210.4037633478
  0
LINE
  8
0
 62
7
  6
CONTINUOUS
 10
179.3993467577
 20
212.4037633478
 11
178.8018415276
 21
211.4037633478
  0
LINE
  8
0
 62
7
  6
CONTINUOUS
 10
179.3993467577
 20
211.1400185238
 11
178.9594304394
 21
210.4037633478
  0
LINE
  8
0
 62
7
  6
CONTINUOUS
 10
180.5943572179
 20
212.4037633478
 11
179.6193049169
 21
210.7718909358
  0
LINE
  8
0
 62
7
  6
CONTINUOUS
 10
180.5943572179
 20
211.6675081718
 11
179.8392630761
 21
210.4037633478
  0
LINE
  8
0
 62
7
  6
CONTINUOUS
 10
181.7893676781
 20
212.4037633478
 11
181.191862448
 21
211.4037633478
  0
POLYLINE
  8
0
 62
7
  6
CONTINUOUS
 66
1
 70
0
  0
VERTEX
  8
0
 62
7
  6
CONTINUOUS
 10
185.1540224913
 20
207.1674919728
  0
VERTEX
  8
0
 62
7
  6
CONTINUOUS
 10
185.141596523
 20
207.1807320419
  0
VERTEX
  8
0
 62
7
  6
CONTINUOUS
 10
185.1048670432
 20
207.193158018
  0
VERTEX
  8
0
 62
7
  6
CONTINUOUS
 10
185.0455552248
 20
207.2041913153
  0
VERTEX
  8
0
 62
7
  6
CONTINUOUS
 10
184.9665286216
 20
207.2133297305
  0
VERTEX
  8
0
 62
7
  6
CONTINUOUS
 10
184.8716800566
 20
207.2201641942
  0
VERTEX
  8
0
 62
7
  6
CONTINUOUS
 10
184.76573843
 20
207.2243915723
  0
VERTEX
  8
0
 62
7
  6
CONTINUOUS
 10
184.6540224913
 20
207.2258230168
  0
SEQEND
  0
LINE
  8
0
 62
7
  6
CONTINUOUS
 10
170.4367683062
 20
211.4037633478
 11
169.8392630761
 21
212.4037633478
  0
LINE
  8
0
 62
7
  6
CONTINUOUS
 10
171.5959860052
 20
210.4037633469
 11
171.0342735363
 21
211.3438654417
  0
LINE
  8
0
 62
7
  6
CONTINUOUS
 10
171.9126340283
 20
210.9337168148
 11
171.0342735363
 21
212.4037633478
  0
LINE
  8
0
 62
7
  6
CONTINUOUS
 10
172.862589767
 20
210.4037633473
 11
172.2292839965
 21
211.4636735362
  0
LINE
  8
0
 62
7
  6
CONTINUOUS
 10
172.8267892266
 20
211.4037633478
 11
172.2292839965
 21
212.4037633478
  0
LINE
  8
0
 62
7
  6
CONTINUOUS
 10
173.9859922479
 20
210.4037633476
 11
173.4242944567
 21
211.3438408772
  0
LINE
  8
0
 62
7
  6
CONTINUOUS
 10
174.30264761
 20
210.933729097
 11
173.4242944567
 21
212.4037633478
  0
LINE
  8
0
 62
7
  6
CONTINUOUS
 10
175.2526253646
 20
210.4037633478
 11
174.6193049169
 21
211.4636981007
  0
LINE
  8
0
 62
7
  6
CONTINUOUS
 10
175.216810147
 20
211.4037633478
 11
174.6193049169
 21
212.4037633478
  0
LINE
  8
0
 62
7
  6
CONTINUOUS
 10
176.3759984909
 20
210.4037633478
 11
175.8143153771
 21
211.3438163128
  0
LINE
  8
0
 62
7
  6
CONTINUOUS
 10
176.4540323363
 20
210.5968615448
 11
176.5694095189
 21
210.4037633478
  0
LINE
  8
0
 62
7
  6
CONTINUOUS
 10
174.0040224913
 20
205.646845373
 11
174.0040224913
 21
202.4037633478
  0
LINE
  8
0
 62
7
  6
CONTINUOUS
 10
174.6193049169
 20
211.4636981007
 11
174.6193049169
 21
212.4037633478
  0
LINE
  8
0
 62
7
  6
CONTINUOUS
 10
175.8143153771
 20
211.3438163128
 11
175.8143153771
 21
212.4037633478
  0
LINE
  8
0
 62
7
  6
CONTINUOUS
 10
175.9540224913
 20
202.4037633478
 11
175.9540224913
 21
209.9037633478
  0
LINE
  8
0
 62
7
  6
CONTINUOUS
 10
176.4540323363
 20
210.4037633478
 11
176.454051756
 21
211.4744424762
  0
LINE
  8
0
 62
7
  6
CONTINUOUS
 10
177.0093258373
 20
211.1400185238
 11
177.0093258373
 21
212.4037633478
  0
LINE
  8
0
 62
7
  6
CONTINUOUS
 10
178.2043362975
 20
212.4037633478
 11
178.2043362975
 21
211.6675081718
  0
POLYLINE
  8
0
 62
7
  6
CONTINUOUS
 66
1
 70
0
  0
VERTEX
  8
0
 62
7
  6
CONTINUOUS
 10
175.9437842407
 20
207.5037633478
  0
VERTEX
  8
0
 62
7
  6
CONTINUOUS
 10
175.9494873639
 20
207.5377005752
  0
VERTEX
  8
0
 62
7
  6
CONTINUOUS
 10
175.9528925651
 20
207.5712933306
  0
VERTEX
  8
0
 62
7
  6
CONTINUOUS
 10
175.9540224913
 20
207.6044282817
  0
SEQEND
  0
LINE
  8
0
 62
7
  6
CONTINUOUS
 10
181.7893676781
 20
211.1400185238
 11
181.3494513598
 21
210.4037633478
  0
LINE
  8
0
 62
7
  6
CONTINUOUS
 10
182.9843781383
 20
212.4037633478
 11
182.0093258373
 21
210.7718909358
  0
LINE
  8
0
 62
7
  6
CONTINUOUS
 10
182.9843781383
 20
211.6675081718
 11
182.2292839965
 21
210.4037633478
  0
LINE
  8
0
 62
7
  6
CONTINUOUS
 10
184.1793885985
 20
212.4037633478
 11
183.5818833684
 21
211.4037633478
  0
LINE
  8
0
 62
7
  6
CONTINUOUS
 10
184.1793885985
 20
211.1400185238
 11
183.7394722802
 21
210.4037633478
  0
LINE
  8
0
 62
7
  6
CONTINUOUS
 10
185.3743990587
 20
212.4037633478
 11
184.3993467577
 21
210.7718909358
  0
LINE
  8
0
 62
7
  6
CONTINUOUS
 10
184.6540224913
 20
210.4618675664
 11
184.6193049169
 21
210.4037633478
  0
LINE
  8
0
 62
7
  6
CONTINUOUS
 10
185.3743990587
 20
211.3439143634
 11
184.8126504575
 21
210.4037633435
  0
LINE
  8
0
 62
7
  6
CONTINUOUS
 10
186.5694095189
 20
212.4037633478
 11
185.9719042888
 21
211.4037633478
  0
LINE
  8
0
 62
7
  6
CONTINUOUS
 10
186.5694095189
 20
211.4636246145
 11
185.9361407558
 21
210.4037633443
  0
LINE
  8
0
 62
7
  6
CONTINUOUS
 10
187.7644199791
 20
212.4037633478
 11
186.8860468162
 21
210.9336956084
  0
POLYLINE
  8
0
 62
7
  6
CONTINUOUS
 66
1
 70
0
  0
VERTEX
  8
0
 62
7
  6
CONTINUOUS
 10
185.1540224913
 20
205.3400347229
  0
VERTEX
  8
0
 62
7
  6
CONTINUOUS
 10
185.141596523
 20
205.3267946538
  0
VERTEX
  8
0
 62
7
  6
CONTINUOUS
 10
185.1048670432
 20
205.3143686776
  0
VERTEX
  8
0
 62
7
  6
CONTINUOUS
 10
185.0455552248
 20
205.3033353803
  0
VERTEX
  8
0
 62
7
  6
CONTINUOUS
 10
184.9665286216
 20
205.2941969652
  0
VERTEX
  8
0
 62
7
  6
CONTINUOUS
 10
184.8716800566
 20
205.2873625015
  0
VERTEX
  8
0
 62
7
  6
CONTINUOUS
 10
184.76573843
 20
205.2831351233
  0
VERTEX
  8
0
 62
7
  6
CONTINUOUS
 10
184.6540224913
 20
205.2817036789
  0
SEQEND
  0
LINE
  8
0
 62
7
  6
CONTINUOUS
 10
176.7893676781
 20
210.7718909358
 11
175.8143153771
 21
212.4037633478
  0
LINE
  8
0
 62
7
  6
CONTINUOUS
 10
177.0093258373
 20
211.1400185238
 11
177.4492421557
 21
210.4037633478
  0
LINE
  8
0
 62
7
  6
CONTINUOUS
 10
177.6068310674
 20
211.4037633478
 11
177.0093258373
 21
212.4037633478
  0
LINE
  8
0
 62
7
  6
CONTINUOUS
 10
178.9594304394
 20
210.4037633478
 11
178.2043362975
 21
211.6675081718
  0
LINE
  8
0
 62
7
  6
CONTINUOUS
 10
179.1793885985
 20
210.7718909358
 11
178.2043362975
 21
212.4037633478
  0
LINE
  8
0
 62
7
  6
CONTINUOUS
 10
179.8392630761
 20
210.4037633478
 11
179.3993467577
 21
211.1400185238
  0
LINE
  8
0
 62
7
  6
CONTINUOUS
 10
179.9968519878
 20
211.4037633478
 11
179.3993467577
 21
212.4037633478
  0
LINE
  8
0
 62
7
  6
CONTINUOUS
 10
181.3494513598
 20
210.4037633478
 11
180.5943572179
 21
211.6675081718
  0
LINE
  8
0
 62
7
  6
CONTINUOUS
 10
181.5694095189
 20
210.7718909358
 11
180.5943572179
 21
212.4037633478
  0
LINE
  8
0
 62
7
  6
CONTINUOUS
 10
182.2292839965
 20
210.4037633478
 11
181.7893676781
 21
211.1400185238
  0
LINE
  8
0
 62
7
  6
CONTINUOUS
 10
179.3993467577
 20
211.1400185238
 11
179.3993467577
 21
212.4037633478
  0
LINE
  8
0
 62
7
  6
CONTINUOUS
 10
180.5943572179
 20
212.4037633478
 11
180.5943572179
 21
211.6675081718
  0
LINE
  8
0
 62
7
  6
CONTINUOUS
 10
181.7893676781
 20
211.1400185238
 11
181.7893676781
 21
212.4037633478
  0
LINE
  8
0
 62
7
  6
CONTINUOUS
 10
182.9843781383
 20
212.4037633478
 11
182.9843781383
 21
211.6675081718
  0
LINE
  8
0
 62
7
  6
CONTINUOUS
 10
187.7644199791
 20
211.3438897989
 11
187.2026860564
 21
210.4037633452
  0
LINE
  8
0
 62
7
  6
CONTINUOUS
 10
188.9594304394
 20
212.4037633478
 11
188.3619252093
 21
211.4037633478
  0
LINE
  8
0
 62
7
  6
CONTINUOUS
 10
188.9594304394
 20
211.463649179
 11
188.3261469998
 21
210.4037633459
  0
LINE
  8
0
 62
7
  6
CONTINUOUS
 10
190.1544408996
 20
212.4037633478
 11
189.2760750753
 21
210.9337078906
  0
LINE
  8
0
 62
7
  6
CONTINUOUS
 10
190.1544408996
 20
211.3438652344
 11
189.5927216551
 21
210.4037633465
  0
LINE
  8
0
 62
7
  6
CONTINUOUS
 10
191.3494513598
 20
212.4037633478
 11
190.7519461297
 21
211.4037633478
  0
LINE
  8
0
 62
7
  6
CONTINUOUS
 10
191.3494513598
 20
211.4636737435
 11
190.7161532436
 21
210.403763347
  0
LINE
  8
0
 62
7
  6
CONTINUOUS
 10
192.54446182
 20
212.4037633478
 11
191.6661033345
 21
210.9337201729
  0
LINE
  8
0
 62
7
  6
CONTINUOUS
 10
192.54446182
 20
211.34384067
 11
191.9827572535
 21
210.4037633474
  0
LINE
  8
0
 62
7
  6
CONTINUOUS
 10
193.7394722802
 20
212.4037633478
 11
193.1419670501
 21
211.4037633478
  0
POLYLINE
  8
0
 62
7
  6
CONTINUOUS
 66
1
 70
0
  0
VERTEX
  8
0
 62
7
  6
CONTINUOUS
 10
195.0540224913
 20
207.1674919728
  0
VERTEX
  8
0
 62
7
  6
CONTINUOUS
 10
195.0664484597
 20
207.1807320419
  0
VERTEX
  8
0
 62
7
  6
CONTINUOUS
 10
195.1031779395
 20
207.193158018
  0
VERTEX
  8
0
 62
7
  6
CONTINUOUS
 10
195.1624897579
 20
207.2041913153
  0
VERTEX
  8
0
 62
7
  6
CONTINUOUS
 10
195.2415163611
 20
207.2133297305
  0
VERTEX
  8
0
 62
7
  6
CONTINUOUS
 10
195.3363649261
 20
207.2201641942
  0
VERTEX
  8
0
 62
7
  6
CONTINUOUS
 10
195.4423065527
 20
207.2243915723
  0
VERTEX
  8
0
 62
7
  6
CONTINUOUS
 10
195.5540224913
 20
207.2258230168
  0
SEQEND
  0
POLYLINE
  8
0
 62
7
  6
CONTINUOUS
 66
1
 70
0
  0
VERTEX
  8
0
 62
7
  6
CONTINUOUS
 10
195.0540224913
 20
205.3400347229
  0
VERTEX
  8
0
 62
7
  6
CONTINUOUS
 10
195.0664484597
 20
205.3267946538
  0
VERTEX
  8
0
 62
7
  6
CONTINUOUS
 10
195.1031779395
 20
205.3143686776
  0
VERTEX
  8
0
 62
7
  6
CONTINUOUS
 10
195.1624897579
 20
205.3033353803
  0
VERTEX
  8
0
 62
7
  6
CONTINUOUS
 10
195.2415163611
 20
205.2941969652
  0
VERTEX
  8
0
 62
7
  6
CONTINUOUS
 10
195.3363649261
 20
205.2873625015
  0
VERTEX
  8
0
 62
7
  6
CONTINUOUS
 10
195.4423065527
 20
205.2831351233
  0
VERTEX
  8
0
 62
7
  6
CONTINUOUS
 10
195.5540224913
 20
205.2817036789
  0
SEQEND
  0
LINE
  8
0
 62
7
  6
CONTINUOUS
 10
182.3868729082
 20
211.4037633478
 11
181.7893676781
 21
212.4037633478
  0
LINE
  8
0
 62
7
  6
CONTINUOUS
 10
183.7394722802
 20
210.4037633478
 11
182.9843781383
 21
211.6675081718
  0
LINE
  8
0
 62
7
  6
CONTINUOUS
 10
183.9594304394
 20
210.7718909358
 11
182.9843781383
 21
212.4037633478
  0
LINE
  8
0
 62
7
  6
CONTINUOUS
 10
184.1793885985
 20
211.1400185238
 11
184.6193049169
 21
210.4037633478
  0
LINE
  8
0
 62
7
  6
CONTINUOUS
 10
184.6540224913
 20
210.6692455338
 11
184.8126504627
 21
210.4037633435
  0
LINE
  8
0
 62
7
  6
CONTINUOUS
 10
184.7768938286
 20
211.4037633478
 11
184.1793885985
 21
212.4037633478
  0
LINE
  8
0
 62
7
  6
CONTINUOUS
 10
185.93614076
 20
210.4037633443
 11
185.3743990587
 21
211.3439143634
  0
LINE
  8
0
 62
7
  6
CONTINUOUS
 10
186.2527741662
 20
210.933692354
 11
185.3743990587
 21
212.4037633478
  0
LINE
  8
0
 62
7
  6
CONTINUOUS
 10
187.2026860596
 20
210.4037633452
 11
186.5694095189
 21
211.4636246145
  0
LINE
  8
0
 62
7
  6
CONTINUOUS
 10
187.166914749
 20
211.4037633478
 11
186.5694095189
 21
212.4037633478
  0
LINE
  8
0
 62
7
  6
CONTINUOUS
 10
188.3261470022
 20
210.4037633459
 11
187.7644199791
 21
211.3438897989
  0
POLYLINE
  8
0
 62
7
  6
CONTINUOUS
 66
1
 70
0
  0
VERTEX
  8
0
 62
7
  6
CONTINUOUS
 10
185.1540224913
 20
207.6044282817
  0
VERTEX
  8
0
 62
7
  6
CONTINUOUS
 10
185.1551516147
 20
207.571305172
  0
VERTEX
  8
0
 62
7
  6
CONTINUOUS
 10
185.1585574073
 20
207.5377021453
  0
VERTEX
  8
0
 62
7
  6
CONTINUOUS
 10
185.164260742
 20
207.5037633478
  0
SEQEND
  0
LINE
  8
0
 62
7
  6
CONTINUOUS
 10
184.1793885985
 20
211.1400185238
 11
184.1793885985
 21
212.4037633478
  0
LINE
  8
0
 62
7
  6
CONTINUOUS
 10
184.6540224913
 20
210.4037633478
 11
184.6540224913
 21
211.6094039533
  0
LINE
  8
0
 62
7
  6
CONTINUOUS
 10
185.1540224913
 20
202.4037633478
 11
185.1540224913
 21
209.9037633478
  0
LINE
  8
0
 62
7
  6
CONTINUOUS
 10
185.3743990587
 20
211.3439143634
 11
185.3743990587
 21
212.4037633478
  0
LINE
  8
0
 62
7
  6
CONTINUOUS
 10
186.5694095189
 20
211.4636246145
 11
186.5694095189
 21
212.4037633478
  0
LINE
  8
0
 62
7
  6
CONTINUOUS
 10
187.1040224913
 20
205.6468521722
 11
187.1040224913
 21
202.4037633478
  0
LINE
  8
0
 62
7
  6
CONTINUOUS
 10
187.7644199791
 20
211.3438897989
 11
187.7644199791
 21
212.4037633478
  0
LINE
  8
0
 62
7
  6
CONTINUOUS
 10
193.7394722802
 20
211.4636983079
 11
193.1061594871
 21
210.4037633476
  0
LINE
  8
0
 62
7
  6
CONTINUOUS
 10
194.9344827404
 20
212.4037633478
 11
194.0561315936
 21
210.9337324552
  0
LINE
  8
0
 62
7
  6
CONTINUOUS
 10
194.9344827404
 20
211.3438161055
 11
194.3727928517
 21
210.4037633478
  0
LINE
  8
0
 62
7
  6
CONTINUOUS
 10
196.1294932006
 20
212.4037633478
 11
195.5319879705
 21
211.4037633478
  0
LINE
  8
0
 62
7
  6
CONTINUOUS
 10
195.5540868164
 20
210.5007021509
 11
195.4961657303
 21
210.4037633478
  0
LINE
  8
0
 62
7
  6
CONTINUOUS
 10
196.1294932006
 20
211.1400185238
 11
195.6895768822
 21
210.4037633478
  0
LINE
  8
0
 62
7
  6
CONTINUOUS
 10
197.3245036608
 20
212.4037633478
 11
196.3494513598
 21
210.7718909358
  0
LINE
  8
0
 62
7
  6
CONTINUOUS
 10
197.3245036608
 20
211.6675081718
 11
196.5694095189
 21
210.4037633478
  0
LINE
  8
0
 62
7
  6
CONTINUOUS
 10
198.519514121
 20
212.4037633478
 11
197.9220088909
 21
211.4037633478
  0
LINE
  8
0
 62
7
  6
CONTINUOUS
 10
198.519514121
 20
211.1400185238
 11
198.0795978026
 21
210.4037633478
  0
POLYLINE
  8
0
 62
7
  6
CONTINUOUS
 66
1
 70
0
  0
VERTEX
  8
0
 62
7
  6
CONTINUOUS
 10
204.2540224913
 20
205.3400347229
  0
VERTEX
  8
0
 62
7
  6
CONTINUOUS
 10
204.241596523
 20
205.3267946538
  0
VERTEX
  8
0
 62
7
  6
CONTINUOUS
 10
204.2048670432
 20
205.3143686776
  0
VERTEX
  8
0
 62
7
  6
CONTINUOUS
 10
204.1455552248
 20
205.3033353803
  0
VERTEX
  8
0
 62
7
  6
CONTINUOUS
 10
204.0665286216
 20
205.2941969652
  0
VERTEX
  8
0
 62
7
  6
CONTINUOUS
 10
203.9716800566
 20
205.2873625015
  0
VERTEX
  8
0
 62
7
  6
CONTINUOUS
 10
203.86573843
 20
205.2831351233
  0
VERTEX
  8
0
 62
7
  6
CONTINUOUS
 10
203.7540224913
 20
205.2817036789
  0
SEQEND
  0
POLYLINE
  8
0
 62
7
  6
CONTINUOUS
 66
1
 70
0
  0
VERTEX
  8
0
 62
7
  6
CONTINUOUS
 10
204.2540224913
 20
207.1674919728
  0
VERTEX
  8
0
 62
7
  6
CONTINUOUS
 10
204.241596523
 20
207.1807320419
  0
VERTEX
  8
0
 62
7
  6
CONTINUOUS
 10
204.2048670432
 20
207.193158018
  0
VERTEX
  8
0
 62
7
  6
CONTINUOUS
 10
204.1455552248
 20
207.2041913153
  0
VERTEX
  8
0
 62
7
  6
CONTINUOUS
 10
204.0665286216
 20
207.2133297305
  0
VERTEX
  8
0
 62
7
  6
CONTINUOUS
 10
203.9716800566
 20
207.2201641942
  0
VERTEX
  8
0
 62
7
  6
CONTINUOUS
 10
203.86573843
 20
207.2243915723
  0
VERTEX
  8
0
 62
7
  6
CONTINUOUS
 10
203.7540224913
 20
207.2258230168
  0
SEQEND
  0
LINE
  8
0
 62
7
  6
CONTINUOUS
 10
188.6427877479
 20
210.9337046362
 11
187.7644199791
 21
212.4037633478
  0
LINE
  8
0
 62
7
  6
CONTINUOUS
 10
189.5927216567
 20
210.4037633465
 11
188.9594304394
 21
211.463649179
  0
LINE
  8
0
 62
7
  6
CONTINUOUS
 10
189.5569356695
 20
211.4037633478
 11
188.9594304394
 21
212.4037633478
  0
LINE
  8
0
 62
7
  6
CONTINUOUS
 10
190.7161532446
 20
210.403763347
 11
190.1544408996
 21
211.3438652344
  0
LINE
  8
0
 62
7
  6
CONTINUOUS
 10
191.0328013296
 20
210.9337169184
 11
190.1544408996
 21
212.4037633478
  0
LINE
  8
0
 62
7
  6
CONTINUOUS
 10
191.9827572541
 20
210.4037633474
 11
191.3494513598
 21
211.4636737435
  0
LINE
  8
0
 62
7
  6
CONTINUOUS
 10
191.9469565899
 20
211.4037633478
 11
191.3494513598
 21
212.4037633478
  0
LINE
  8
0
 62
7
  6
CONTINUOUS
 10
193.1061594873
 20
210.4037633476
 11
192.54446182
 21
211.34384067
  0
LINE
  8
0
 62
7
  6
CONTINUOUS
 10
193.4228149114
 20
210.9337292006
 11
192.54446182
 21
212.4037633478
  0
LINE
  8
0
 62
7
  6
CONTINUOUS
 10
194.3727928517
 20
210.4037633478
 11
193.7394722802
 21
211.4636983079
  0
LINE
  8
0
 62
7
  6
CONTINUOUS
 10
188.9594304394
 20
211.463649179
 11
188.9594304394
 21
212.4037633478
  0
LINE
  8
0
 62
7
  6
CONTINUOUS
 10
190.1544408996
 20
211.3438652344
 11
190.1544408996
 21
212.4037633478
  0
LINE
  8
0
 62
7
  6
CONTINUOUS
 10
191.3494513598
 20
211.4636737435
 11
191.3494513598
 21
212.4037633478
  0
LINE
  8
0
 62
7
  6
CONTINUOUS
 10
192.54446182
 20
211.34384067
 11
192.54446182
 21
212.4037633478
  0
LINE
  8
0
 62
7
  6
CONTINUOUS
 10
193.1040224913
 20
205.646845373
 11
193.1040224913
 21
202.4037633478
  0
LINE
  8
0
 62
7
  6
CONTINUOUS
 10
193.7394722802
 20
211.4636983079
 11
193.7394722802
 21
212.4037633478
  0
LINE
  8
0
 62
7
  6
CONTINUOUS
 10
199.7145245812
 20
212.4037633478
 11
198.7394722802
 21
210.7718909358
  0
LINE
  8
0
 62
7
  6
CONTINUOUS
 10
199.7145245812
 20
211.6675081718
 11
198.9594304394
 21
210.4037633478
  0
LINE
  8
0
 62
7
  6
CONTINUOUS
 10
200.9095350414
 20
212.4037633478
 11
200.3120298113
 21
211.4037633478
  0
LINE
  8
0
 62
7
  6
CONTINUOUS
 10
200.9095350414
 20
211.1400185238
 11
200.469618723
 21
210.4037633478
  0
LINE
  8
0
 62
7
  6
CONTINUOUS
 10
202.1045455016
 20
212.4037633478
 11
201.1294932006
 21
210.7718909358
  0
LINE
  8
0
 62
7
  6
CONTINUOUS
 10
202.1045455016
 20
211.6675081718
 11
201.3494513598
 21
210.4037633478
  0
LINE
  8
0
 62
7
  6
CONTINUOUS
 10
203.2995559618
 20
212.4037633478
 11
202.7020507317
 21
211.4037633478
  0
LINE
  8
0
 62
7
  6
CONTINUOUS
 10
203.2995559618
 20
211.1400185238
 11
202.8596396435
 21
210.4037633478
  0
LINE
  8
0
 62
7
  6
CONTINUOUS
 10
204.494566422
 20
212.4037633478
 11
203.519514121
 21
210.7718909358
  0
LINE
  8
0
 62
7
  6
CONTINUOUS
 10
203.7540224913
 20
210.4281149525
 11
203.7394722802
 21
210.4037633478
  0
LINE
  8
0
 62
7
  6
CONTINUOUS
 10
204.494566422
 20
211.3439143268
 11
203.93281792
 21
210.4037633435
  0
POLYLINE
  8
0
 62
7
  6
CONTINUOUS
 66
1
 70
0
  0
VERTEX
  8
0
 62
7
  6
CONTINUOUS
 10
214.4040224913
 20
205.3400347229
  0
VERTEX
  8
0
 62
7
  6
CONTINUOUS
 10
214.4164484597
 20
205.3267946538
  0
VERTEX
  8
0
 62
7
  6
CONTINUOUS
 10
214.4531779395
 20
205.3143686776
  0
VERTEX
  8
0
 62
7
  6
CONTINUOUS
 10
214.5124897579
 20
205.3033353803
  0
VERTEX
  8
0
 62
7
  6
CONTINUOUS
 10
214.5915163611
 20
205.2941969652
  0
VERTEX
  8
0
 62
7
  6
CONTINUOUS
 10
214.6863649261
 20
205.2873625015
  0
VERTEX
  8
0
 62
7
  6
CONTINUOUS
 10
214.7923065527
 20
205.2831351233
  0
VERTEX
  8
0
 62
7
  6
CONTINUOUS
 10
214.9040224913
 20
205.2817036789
  0
SEQEND
  0
LINE
  8
0
 62
7
  6
CONTINUOUS
 10
194.3369775103
 20
211.4037633478
 11
193.7394722802
 21
212.4037633478
  0
LINE
  8
0
 62
7
  6
CONTINUOUS
 10
195.4961657303
 20
210.4037633478
 11
194.9344827404
 21
211.3438161055
  0
LINE
  8
0
 62
7
  6
CONTINUOUS
 10
195.5540323363
 20
210.6306141586
 11
195.6895768822
 21
210.4037633478
  0
LINE
  8
0
 62
7
  6
CONTINUOUS
 10
195.9095350414
 20
210.7718909358
 11
194.9344827404
 21
212.4037633478
  0
LINE
  8
0
 62
7
  6
CONTINUOUS
 10
196.1294932006
 20
211.1400185238
 11
196.5694095189
 21
210.4037633478
  0
LINE
  8
0
 62
7
  6
CONTINUOUS
 10
196.7269984307
 20
211.4037633478
 11
196.1294932006
 21
212.4037633478
  0
LINE
  8
0
 62
7
  6
CONTINUOUS
 10
198.0795978026
 20
210.4037633478
 11
197.3245036608
 21
211.6675081718
  0
LINE
  8
0
 62
7
  6
CONTINUOUS
 10
198.2995559618
 20
210.7718909358
 11
197.3245036608
 21
212.4037633478
  0
LINE
  8
0
 62
7
  6
CONTINUOUS
 10
198.9594304394
 20
210.4037633478
 11
198.519514121
 21
211.1400185238
  0
LINE
  8
0
 62
7
  6
CONTINUOUS
 10
199.1170193511
 20
211.4037633478
 11
198.519514121
 21
212.4037633478
  0
LINE
  8
0
 62
7
  6
CONTINUOUS
 10
200.469618723
 20
210.4037633478
 11
199.7145245812
 21
211.6675081718
  0
LINE
  8
0
 62
7
  6
CONTINUOUS
 10
194.9344827404
 20
211.3438161055
 11
194.9344827404
 21
212.4037633478
  0
LINE
  8
0
 62
7
  6
CONTINUOUS
 10
195.0540224913
 20
202.4037633478
 11
195.0540224913
 21
209.9037633478
  0
LINE
  8
0
 62
7
  6
CONTINUOUS
 10
195.5540323363
 20
210.4037633478
 11
195.554051756
 21
211.4406898623
  0
LINE
  8
0
 62
7
  6
CONTINUOUS
 10
196.1294932006
 20
211.1400185238
 11
196.1294932006
 21
212.4037633478
  0
LINE
  8
0
 62
7
  6
CONTINUOUS
 10
197.3245036608
 20
212.4037633478
 11
197.3245036608
 21
211.6675081718
  0
LINE
  8
0
 62
7
  6
CONTINUOUS
 10
198.519514121
 20
211.1400185238
 11
198.519514121
 21
212.4037633478
  0
POLYLINE
  8
0
 62
7
  6
CONTINUOUS
 66
1
 70
0
  0
VERTEX
  8
0
 62
7
  6
CONTINUOUS
 10
195.0437842407
 20
207.5037633478
  0
VERTEX
  8
0
 62
7
  6
CONTINUOUS
 10
195.0494873639
 20
207.5377005752
  0
VERTEX
  8
0
 62
7
  6
CONTINUOUS
 10
195.0528925651
 20
207.5712933306
  0
VERTEX
  8
0
 62
7
  6
CONTINUOUS
 10
195.0540224913
 20
207.6044282817
  0
SEQEND
  0
LINE
  8
0
 62
7
  6
CONTINUOUS
 10
205.6895768822
 20
212.4037633478
 11
205.0920716521
 21
211.4037633478
  0
LINE
  8
0
 62
7
  6
CONTINUOUS
 10
205.6895768822
 20
211.4636243757
 11
205.0563081746
 21
210.4037633443
  0
LINE
  8
0
 62
7
  6
CONTINUOUS
 10
206.8845873424
 20
212.4037633478
 11
206.0062140864
 21
210.9336954525
  0
LINE
  8
0
 62
7
  6
CONTINUOUS
 10
206.8845873424
 20
211.3438903131
 11
206.3228531898
 21
210.4037633452
  0
LINE
  8
0
 62
7
  6
CONTINUOUS
 10
208.0795978026
 20
212.4037633478
 11
207.4820925725
 21
211.4037633478
  0
LINE
  8
0
 62
7
  6
CONTINUOUS
 10
208.0795978026
 20
211.4636483894
 11
207.4463147476
 21
210.4037633458
  0
LINE
  8
0
 62
7
  6
CONTINUOUS
 10
209.2746082628
 20
212.4037633478
 11
208.3962421809
 21
210.9337074594
  0
LINE
  8
0
 62
7
  6
CONTINUOUS
 10
209.2746082628
 20
211.3438662994
 11
208.7128884594
 21
210.4037633465
  0
LINE
  8
0
 62
7
  6
CONTINUOUS
 10
210.469618723
 20
212.4037633478
 11
209.8721134929
 21
211.4037633478
  0
LINE
  8
0
 62
7
  6
CONTINUOUS
 10
210.469618723
 20
211.4636724031
 11
209.8363213205
 21
210.4037633469
  0
POLYLINE
  8
0
 62
7
  6
CONTINUOUS
 66
1
 70
0
  0
VERTEX
  8
0
 62
7
  6
CONTINUOUS
 10
214.4040224913
 20
207.1674919728
  0
VERTEX
  8
0
 62
7
  6
CONTINUOUS
 10
214.4164484597
 20
207.1807320419
  0
VERTEX
  8
0
 62
7
  6
CONTINUOUS
 10
214.4531779395
 20
207.193158018
  0
VERTEX
  8
0
 62
7
  6
CONTINUOUS
 10
214.5124897579
 20
207.2041913153
  0
VERTEX
  8
0
 62
7
  6
CONTINUOUS
 10
214.5915163611
 20
207.2133297305
  0
VERTEX
  8
0
 62
7
  6
CONTINUOUS
 10
214.6863649261
 20
207.2201641942
  0
VERTEX
  8
0
 62
7
  6
CONTINUOUS
 10
214.7923065527
 20
207.2243915723
  0
VERTEX
  8
0
 62
7
  6
CONTINUOUS
 10
214.9040224913
 20
207.2258230168
  0
SEQEND
  0
POLYLINE
  8
0
 62
7
  6
CONTINUOUS
 66
1
 70
0
  0
VERTEX
  8
0
 62
7
  6
CONTINUOUS
 10
218.3540224913
 20
205.3400347229
  0
VERTEX
  8
0
 62
7
  6
CONTINUOUS
 10
218.341596523
 20
205.3267946538
  0
VERTEX
  8
0
 62
7
  6
CONTINUOUS
 10
218.3048670432
 20
205.3143686776
  0
VERTEX
  8
0
 62
7
  6
CONTINUOUS
 10
218.2455552248
 20
205.3033353803
  0
VERTEX
  8
0
 62
7
  6
CONTINUOUS
 10
218.1665286216
 20
205.2941969652
  0
VERTEX
  8
0
 62
7
  6
CONTINUOUS
 10
218.0716800566
 20
205.2873625015
  0
VERTEX
  8
0
 62
7
  6
CONTINUOUS
 10
217.96573843
 20
205.2831351233
  0
VERTEX
  8
0
 62
7
  6
CONTINUOUS
 10
217.8540224913
 20
205.2817036789
  0
SEQEND
  0
LINE
  8
0
 62
7
  6
CONTINUOUS
 10
200.6895768822
 20
210.7718909358
 11
199.7145245812
 21
212.4037633478
  0
LINE
  8
0
 62
7
  6
CONTINUOUS
 10
201.3494513598
 20
210.4037633478
 11
200.9095350414
 21
211.1400185238
  0
LINE
  8
0
 62
7
  6
CONTINUOUS
 10
201.5070402715
 20
211.4037633478
 11
200.9095350414
 21
212.4037633478
  0
LINE
  8
0
 62
7
  6
CONTINUOUS
 10
202.8596396435
 20
210.4037633478
 11
202.1045455016
 21
211.6675081718
  0
LINE
  8
0
 62
7
  6
CONTINUOUS
 10
203.0795978026
 20
210.7718909358
 11
202.1045455016
 21
212.4037633478
  0
LINE
  8
0
 62
7
  6
CONTINUOUS
 10
203.2995559618
 20
211.1400185238
 11
203.7394722802
 21
210.4037633478
  0
LINE
  8
0
 62
7
  6
CONTINUOUS
 10
203.7540224913
 20
210.7029981476
 11
203.9328179252
 21
210.4037633435
  0
LINE
  8
0
 62
7
  6
CONTINUOUS
 10
203.8970611919
 20
211.4037633478
 11
203.2995559618
 21
212.4037633478
  0
LINE
  8
0
 62
7
  6
CONTINUOUS
 10
205.0563081787
 20
210.4037633443
 11
204.494566422
 21
211.3439143268
  0
LINE
  8
0
 62
7
  6
CONTINUOUS
 10
205.372941579
 20
210.9336922711
 11
204.494566422
 21
212.4037633478
  0
LINE
  8
0
 62
7
  6
CONTINUOUS
 10
206.322853193
 20
210.4037633452
 11
205.6895768822
 21
211.4636243757
  0
LINE
  8
0
 62
7
  6
CONTINUOUS
 10
199.7145245812
 20
212.4037633478
 11
199.7145245812
 21
211.6675081718
  0
LINE
  8
0
 62
7
  6
CONTINUOUS
 10
200.9095350414
 20
211.1400185238
 11
200.9095350414
 21
212.4037633478
  0
LINE
  8
0
 62
7
  6
CONTINUOUS
 10
202.1045455016
 20
212.4037633478
 11
202.1045455016
 21
211.6675081718
  0
LINE
  8
0
 62
7
  6
CONTINUOUS
 10
203.2995559618
 20
211.1400185238
 11
203.2995559618
 21
212.4037633478
  0
LINE
  8
0
 62
7
  6
CONTINUOUS
 10
203.7540224913
 20
210.4037633478
 11
203.7540224913
 21
211.6431565671
  0
POLYLINE
  8
2_FEATURE
 62
7
  6
CONTINUOUS
 66
1
 70
0
  0
VERTEX
  8
2_FEATURE
 62
7
  6
CONTINUOUS
 10
206.2685174555
 20
202.9980311173
  0
VERTEX
  8
2_FEATURE
 62
7
  6
CONTINUOUS
 10
206.3048020011
 20
203.0873386335
  0
VERTEX
  8
2_FEATURE
 62
7
  6
CONTINUOUS
 10
206.342598142
 20
203.1564434332
  0
VERTEX
  8
2_FEATURE
 62
7
  6
CONTINUOUS
 10
206.3803949781
 20
203.2072813759
  0
VERTEX
  8
2_FEATURE
 62
7
  6
CONTINUOUS
 10
206.4164880346
 20
203.2412865142
  0
VERTEX
  8
2_FEATURE
 62
7
  6
CONTINUOUS
 10
206.4504056385
 20
203.261163488
  0
VERTEX
  8
2_FEATURE
 62
7
  6
CONTINUOUS
 10
206.4833943368
 20
203.2692324956
  0
VERTEX
  8
2_FEATURE
 62
7
  6
CONTINUOUS
 10
206.5144565066
 20
203.2658493043
  0
VERTEX
  8
2_FEATURE
 62
7
  6
CONTINUOUS
 10
206.5448087571
 20
203.2501732365
  0
VERTEX
  8
2_FEATURE
 62
7
  6
CONTINUOUS
 10
206.5733646284
 20
203.219136139
  0
VERTEX
  8
2_FEATURE
 62
7
  6
CONTINUOUS
 10
206.5950237709
 20
203.1723051915
  0
VERTEX
  8
2_FEATURE
 62
7
  6
CONTINUOUS
 10
206.6040224913
 20
203.1097798646
  0
SEQEND
  0
LINE
  8
0
 62
7
  6
CONTINUOUS
 10
211.6646291833
 20
212.4037633478
 11
210.7862702755
 21
210.9337194663
  0
LINE
  8
0
 62
7
  6
CONTINUOUS
 10
211.6646291833
 20
211.3438422857
 11
211.1029237287
 21
210.4037633473
  0
LINE
  8
0
 62
7
  6
CONTINUOUS
 10
212.8596396435
 20
212.4037633478
 11
212.2621344134
 21
211.4037633478
  0
LINE
  8
0
 62
7
  6
CONTINUOUS
 10
212.8596396435
 20
211.4636964169
 11
212.226327893
 21
210.4037633476
  0
LINE
  8
0
 62
7
  6
CONTINUOUS
 10
214.0546501037
 20
212.4037633478
 11
213.1762983701
 21
210.9337314732
  0
LINE
  8
0
 62
7
  6
CONTINUOUS
 10
214.0546501037
 20
211.343818272
 11
213.4929589978
 21
210.4037633478
  0
LINE
  8
0
 62
7
  6
CONTINUOUS
 10
215.2496605639
 20
212.4037633478
 11
214.6521553338
 21
211.4037633478
  0
LINE
  8
0
 62
7
  6
CONTINUOUS
 10
214.9040868164
 20
210.8853559165
 11
214.6163344654
 21
210.4037633478
  0
LINE
  8
0
 62
7
  6
CONTINUOUS
 10
214.9040323363
 20
210.5615663026
 11
215.2496605639
 21
211.1400185238
  0
LINE
  8
0
 62
7
  6
CONTINUOUS
 10
216.4446710241
 20
212.4037633478
 11
215.469618723
 21
210.7718909358
  0
LINE
  8
0
 62
7
  6
CONTINUOUS
 10
216.4446710241
 20
211.6675081718
 11
215.6895768822
 21
210.4037633478
  0
LINE
  8
0
 62
7
  6
CONTINUOUS
 10
206.2870821123
 20
211.4037633478
 11
205.6895768822
 21
212.4037633478
  0
LINE
  8
0
 62
7
  6
CONTINUOUS
 10
207.44631475
 20
210.4037633458
 11
206.8845873424
 21
211.3438903131
  0
LINE
  8
0
 62
7
  6
CONTINUOUS
 10
207.7629553253
 20
210.9337042779
 11
206.8845873424
 21
212.4037633478
  0
LINE
  8
0
 62
7
  6
CONTINUOUS
 10
208.712888461
 20
210.4037633465
 11
208.0795978026
 21
211.4636483894
  0
LINE
  8
0
 62
7
  6
CONTINUOUS
 10
208.6771030327
 20
211.4037633478
 11
208.0795978026
 21
212.4037633478
  0
LINE
  8
0
 62
7
  6
CONTINUOUS
 10
209.8363213216
 20
210.4037633469
 11
209.2746082628
 21
211.3438662994
  0
LINE
  8
0
 62
7
  6
CONTINUOUS
 10
210.1529690715
 20
210.9337162847
 11
209.2746082628
 21
212.4037633478
  0
LINE
  8
0
 62
7
  6
CONTINUOUS
 10
211.1029237293
 20
210.4037633473
 11
210.469618723
 21
211.4636724031
  0
LINE
  8
0
 62
7
  6
CONTINUOUS
 10
211.0671239532
 20
211.4037633478
 11
210.469618723
 21
212.4037633478
  0
LINE
  8
0
 62
7
  6
CONTINUOUS
 10
212.2263278934
 20
210.4037633476
 11
211.6646291833
 21
211.3438422857
  0
POLYLINE
  8
0
 62
7
  6
CONTINUOUS
 66
1
 70
0
  0
VERTEX
  8
0
 62
7
  6
CONTINUOUS
 10
204.2540224913
 20
207.6044282817
  0
VERTEX
  8
0
 62
7
  6
CONTINUOUS
 10
204.2551516147
 20
207.571305172
  0
VERTEX
  8
0
 62
7
  6
CONTINUOUS
 10
204.2585574073
 20
207.5377021453
  0
VERTEX
  8
0
 62
7
  6
CONTINUOUS
 10
204.264260742
 20
207.5037633478
  0
SEQEND
  0
LINE
  8
0
 62
7
  6
CONTINUOUS
 10
204.2540224913
 20
202.4037633478
 11
204.2540224913
 21
209.9037633478
  0
LINE
  8
0
 62
7
  6
CONTINUOUS
 10
204.494566422
 20
211.3439143268
 11
204.494566422
 21
212.4037633478
  0
LINE
  8
0
 62
7
  6
CONTINUOUS
 10
205.6895768822
 20
211.4636243757
 11
205.6895768822
 21
212.4037633478
  0
LINE
  8
0
 62
7
  6
CONTINUOUS
 10
206.2040224913
 20
205.646845977
 11
206.2040224913
 21
202.4037633478
  0
LINE
  8
2_FEATURE
 62
7
  6
CONTINUOUS
 10
206.6040224913
 20
203.1097798646
 11
206.6040224913
 21
201.9037633478
  0
LINE
  8
0
 62
7
  6
CONTINUOUS
 10
206.8845873424
 20
211.3438903131
 11
206.8845873424
 21
212.4037633478
  0
LINE
  8
0
 62
7
  6
CONTINUOUS
 10
208.0795978026
 20
211.4636483894
 11
208.0795978026
 21
212.4037633478
  0
POLYLINE
  8
2_FEATURE
 62
7
  6
CONTINUOUS
 66
1
 70
0
  0
VERTEX
  8
2_FEATURE
 62
7
  6
CONTINUOUS
 10
206.2040224913
 20
202.6379096278
  0
VERTEX
  8
2_FEATURE
 62
7
  6
CONTINUOUS
 10
206.2132891069
 20
202.7706115686
  0
VERTEX
  8
2_FEATURE
 62
7
  6
CONTINUOUS
 10
206.2258765817
 20
202.8440593185
  0
VERTEX
  8
2_FEATURE
 62
7
  6
CONTINUOUS
 10
206.2685174555
 20
202.9980311173
  0
SEQEND
  0
LINE
  8
0
 62
7
  6
CONTINUOUS
 10
217.6396814843
 20
212.4037633478
 11
217.0421762542
 21
211.4037633478
  0
LINE
  8
0
 62
7
  6
CONTINUOUS
 10
217.6396814843
 20
211.1400185238
 11
217.1997651659
 21
210.4037633478
  0
LINE
  8
0
 62
7
  6
CONTINUOUS
 10
212.5429828178
 20
210.9337282915
 11
211.6646291833
 21
212.4037633478
  0
LINE
  8
0
 62
7
  6
CONTINUOUS
 10
213.4929589979
 20
210.4037633478
 11
212.8596396435
 21
211.4636964169
  0
LINE
  8
0
 62
7
  6
CONTINUOUS
 10
213.4571448736
 20
211.4037633478
 11
212.8596396435
 21
212.4037633478
  0
LINE
  8
0
 62
7
  6
CONTINUOUS
 10
214.6163344654
 20
210.4037633478
 11
214.0546501037
 21
211.343818272
  0
LINE
  8
0
 62
7
  6
CONTINUOUS
 10
215.0297024047
 20
210.7718909358
 11
214.0546501037
 21
212.4037633478
  0
LINE
  8
0
 62
7
  6
CONTINUOUS
 10
215.2496605639
 20
211.1400185238
 11
215.6895768822
 21
210.4037633478
  0
LINE
  8
0
 62
7
  6
CONTINUOUS
 10
215.847165794
 20
211.4037633478
 11
215.2496605639
 21
212.4037633478
  0
LINE
  8
0
 62
7
  6
CONTINUOUS
 10
217.1997651659
 20
210.4037633478
 11
216.4446710241
 21
211.6675081718
  0
LINE
  8
0
 62
7
  6
CONTINUOUS
 10
217.4197233251
 20
210.7718909358
 11
216.4446710241
 21
212.4037633478
  0
LINE
  8
0
 62
7
  6
CONTINUOUS
 10
217.8540224913
 20
210.7812919449
 11
217.6396814843
 21
211.1400185238
  0
LINE
  8
0
 62
7
  6
CONTINUOUS
 10
209.2746082628
 20
211.3438662994
 11
209.2746082628
 21
212.4037633478
  0
LINE
  8
0
 62
7
  6
CONTINUOUS
 10
210.469618723
 20
211.4636724031
 11
210.469618723
 21
212.4037633478
  0
LINE
  8
0
 62
7
  6
CONTINUOUS
 10
211.6646291833
 20
211.3438422857
 11
211.6646291833
 21
212.4037633478
  0
LINE
  8
0
 62
7
  6
CONTINUOUS
 10
211.7540224913
 20
202.4037633478
 11
211.7540224913
 21
207.5037633478
  0
LINE
  8
0
 62
7
  6
CONTINUOUS
 10
212.8596396435
 20
211.4636964169
 11
212.8596396435
 21
212.4037633478
  0
LINE
  8
0
 62
7
  6
CONTINUOUS
 10
214.0546501037
 20
211.343818272
 11
214.0546501037
 21
212.4037633478
  0
LINE
  8
0
 62
7
  6
CONTINUOUS
 10
214.4040224913
 20
209.9037633478
 11
214.4040224913
 21
202.4037633478
  0
LINE
  8
0
 62
7
  6
CONTINUOUS
 10
214.9040323363
 20
210.4037633478
 11
214.904051756
 21
211.8253436279
  0
LINE
  8
0
 62
7
  6
CONTINUOUS
 10
215.2496605639
 20
211.1400185238
 11
215.2496605639
 21
212.4037633478
  0
LINE
  8
0
 62
7
  6
CONTINUOUS
 10
216.4446710241
 20
212.4037633478
 11
216.4446710241
 21
211.6675081718
  0
LINE
  8
0
 62
7
  6
CONTINUOUS
 10
217.6396814843
 20
211.1400185238
 11
217.6396814843
 21
212.4037633478
  0
LINE
  8
0
 62
7
  6
CONTINUOUS
 10
217.8540224913
 20
210.4037633478
 11
217.8540224913
 21
212.0450367689
  0
LINE
  8
0
 62
7
  6
CONTINUOUS
 10
218.3540224913
 20
209.9037633478
 11
218.3540224913
 21
202.4037647424
  0
LINE
  8
0
 62
7
  6
CONTINUOUS
 10
218.5540224913
 20
204.1037633478
 11
218.5540224913
 21
209.9037633478
  0
POLYLINE
  8
0
 62
7
  6
CONTINUOUS
 66
1
 70
0
  0
VERTEX
  8
0
 62
7
  6
CONTINUOUS
 10
214.3853749773
 20
207.5037633478
  0
VERTEX
  8
0
 62
7
  6
CONTINUOUS
 10
214.3957756677
 20
207.5497448869
  0
VERTEX
  8
0
 62
7
  6
CONTINUOUS
 10
214.4019771193
 20
207.5949921174
  0
VERTEX
  8
0
 62
7
  6
CONTINUOUS
 10
214.4040224913
 20
207.6390400432
  0
SEQEND
  0
LINE
  8
0
 62
7
  6
CONTINUOUS
 10
217.6396814843
 20
212.4037633478
 11
217.8540224913
 21
212.0450367689
  0
LINE
  8
0
 62
7
  6
CONTINUOUS
 10
66.1540224913
 20
106.3345791297
 11
66.1540224913
 21
115.4011521222
  0
LINE
  8
0
 62
7
  6
CONTINUOUS
 10
66.3540224913
 20
98.244299308
 11
66.3540224913
 21
105.7345791297
  0
LINE
  8
0
 62
7
  6
CONTINUOUS
 10
66.3540224913
 20
116.0039681983
 11
66.3540224913
 21
116.9226689744
  0
LINE
  8
0
 62
7
  6
CONTINUOUS
 10
66.8540224913
 20
101.509299308
 11
66.8540224913
 21
116.9226689744
  0
LINE
  8
0
 62
7
  6
CONTINUOUS
 10
67.0683634984
 20
101.509299308
 11
67.0683634984
 21
116.9226689744
  0
LINE
  8
0
 62
7
  6
CONTINUOUS
 10
68.2633739586
 20
101.509299308
 11
68.2633739586
 21
116.9226689744
  0
LINE
  8
0
 62
7
  6
CONTINUOUS
 10
69.4583844188
 20
101.509299308
 11
69.4583844188
 21
116.9226689744
  0
LINE
  8
0
 62
7
  6
CONTINUOUS
 10
69.8040224913
 20
101.509299308
 11
69.8040224913
 21
106.0959965797
  0
LINE
  8
0
 62
7
  6
CONTINUOUS
 10
70.3040224913
 20
98.244299308
 11
70.3040224913
 21
105.0959296415
  0
LINE
  8
0
 62
7
  6
CONTINUOUS
 10
70.653394879
 20
106.0959914806
 11
70.653394879
 21
116.9226689744
  0
LINE
  8
0
 62
7
  6
CONTINUOUS
 10
71.3540224913
 20
117.9226689514
 11
71.3540224913
 21
124.774299308
  0
LINE
  8
0
 62
7
  6
CONTINUOUS
 10
71.8484053392
 20
106.0959843064
 11
71.8484053392
 21
116.9226689744
  0
LINE
  8
0
 62
7
  6
CONTINUOUS
 10
71.8540224913
 20
116.9226689744
 11
71.8540224913
 21
121.509299308
  0
LINE
  8
0
 62
7
  6
CONTINUOUS
 10
73.0434157994
 20
106.0959771323
 11
73.0434157994
 21
121.509299308
  0
LINE
  8
0
 62
7
  6
CONTINUOUS
 10
74.2384262596
 20
106.0959699581
 11
74.2384262596
 21
121.509299308
  0
LINE
  8
0
 62
7
  6
CONTINUOUS
 10
75.4334367199
 20
106.095962784
 11
75.4334367199
 21
121.509299308
  0
POLYLINE
  8
0
 62
7
  6
CONTINUOUS
 66
1
 70
0
  0
VERTEX
  8
0
 62
7
  6
CONTINUOUS
 10
71.3540224913
 20
122.2590441794
  0
VERTEX
  8
0
 62
7
  6
CONTINUOUS
 10
71.3623960308
 20
122.2738352085
  0
VERTEX
  8
0
 62
7
  6
CONTINUOUS
 10
71.3873050926
 20
122.2879936165
  0
VERTEX
  8
0
 62
7
  6
CONTINUOUS
 10
71.4280234404
 20
122.3010703901
  0
VERTEX
  8
0
 62
7
  6
CONTINUOUS
 10
71.4832839327
 20
122.3126559213
  0
VERTEX
  8
0
 62
7
  6
CONTINUOUS
 10
71.5158289095
 20
122.3177747668
  0
VERTEX
  8
0
 62
7
  6
CONTINUOUS
 10
71.5894078992
 20
122.3264663959
  0
VERTEX
  8
0
 62
7
  6
CONTINUOUS
 10
71.6722123561
 20
122.3328790907
  0
VERTEX
  8
0
 62
7
  6
CONTINUOUS
 10
71.7614342546
 20
122.3368126694
  0
VERTEX
  8
0
 62
7
  6
CONTINUOUS
 10
71.8540224913
 20
122.338139789
  0
SEQEND
  0
LINE
  8
0
 62
7
  6
CONTINUOUS
 10
76.6284471801
 20
106.0959556098
 11
76.6284471801
 21
121.509299308
  0
LINE
  8
0
 62
7
  6
CONTINUOUS
 10
77.8234576403
 20
106.0959484357
 11
77.8234576403
 21
121.509299308
  0
LINE
  8
0
 62
7
  6
CONTINUOUS
 10
79.0184681005
 20
106.0959412615
 11
79.0184681005
 21
121.509299308
  0
LINE
  8
0
 62
7
  6
CONTINUOUS
 10
79.6039581663
 20
116.9226689744
 11
79.6040126464
 21
121.509299308
  0
LINE
  8
0
 62
7
  6
CONTINUOUS
 10
80.1040224913
 20
117.9226689744
 11
80.1040224913
 21
124.774299308
  0
LINE
  8
0
 62
7
  6
CONTINUOUS
 10
80.2134785607
 20
106.0959340873
 11
80.2134785607
 21
116.9226689744
  0
LINE
  8
0
 62
7
  6
CONTINUOUS
 10
80.4540224913
 20
105.0959296415
 11
80.4540224913
 21
98.244299308
  0
LINE
  8
0
 62
7
  6
CONTINUOUS
 10
80.9540323363
 20
101.509299308
 11
80.9540868164
 21
106.0959296412
  0
LINE
  8
0
 62
7
  6
CONTINUOUS
 10
66.2378901239
 20
115.6783413225
 11
66.2701548588
 21
115.726778998
  0
LINE
  8
0
 62
7
  6
CONTINUOUS
 10
81.4084890209
 20
101.509299308
 11
81.4084890209
 21
116.9226689744
  0
LINE
  8
0
 62
7
  6
CONTINUOUS
 10
82.6034994811
 20
101.509299308
 11
82.6034994811
 21
116.9226689744
  0
LINE
  8
0
 62
7
  6
CONTINUOUS
 10
83.7985099413
 20
101.509299308
 11
83.7985099413
 21
116.9226689744
  0
LINE
  8
0
 62
7
  6
CONTINUOUS
 10
84.9935204015
 20
101.509299308
 11
84.9935204015
 21
116.9226689744
  0
LINE
  8
0
 62
7
  6
CONTINUOUS
 10
86.1885308617
 20
101.509299308
 11
86.1885308617
 21
116.9226689744
  0
POLYLINE
  8
0
 62
7
  6
CONTINUOUS
 66
1
 70
0
  0
VERTEX
  8
0
 62
7
  6
CONTINUOUS
 10
70.3040224913
 20
100.7595544366
  0
VERTEX
  8
0
 62
7
  6
CONTINUOUS
 10
70.2956489519
 20
100.7447634074
  0
VERTEX
  8
0
 62
7
  6
CONTINUOUS
 10
70.2707398901
 20
100.7306049994
  0
VERTEX
  8
0
 62
7
  6
CONTINUOUS
 10
70.2300215423
 20
100.7175282258
  0
VERTEX
  8
0
 62
7
  6
CONTINUOUS
 10
70.17476105
 20
100.7059426946
  0
VERTEX
  8
0
 62
7
  6
CONTINUOUS
 10
70.1422160732
 20
100.7008238491
  0
VERTEX
  8
0
 62
7
  6
CONTINUOUS
 10
70.0686370835
 20
100.69213222
  0
VERTEX
  8
0
 62
7
  6
CONTINUOUS
 10
69.9858326266
 20
100.6857195252
  0
VERTEX
  8
0
 62
7
  6
CONTINUOUS
 10
69.8966107281
 20
100.6817859466
  0
VERTEX
  8
0
 62
7
  6
CONTINUOUS
 10
69.8040224913
 20
100.6804588269
  0
SEQEND
  0
LINE
  8
0
 62
7
  6
CONTINUOUS
 10
66.8540224913
 20
116.0750001417
 11
67.701691324
 21
116.9226689744
  0
LINE
  8
0
 62
7
  6
CONTINUOUS
 10
71.8540224913
 20
121.0750001417
 11
72.2883216576
 21
121.509299308
  0
LINE
  8
0
 62
7
  6
CONTINUOUS
 10
67.5082798168
 20
101.509299308
 11
66.8540224913
 21
102.1635566334
  0
LINE
  8
0
 62
7
  6
CONTINUOUS
 10
69.8040224913
 20
101.6035775538
 11
66.8540224913
 21
104.5535775538
  0
LINE
  8
0
 62
7
  6
CONTINUOUS
 10
69.8040224913
 20
103.9935984742
 11
66.8540224913
 21
106.9435984742
  0
POLYLINE
  8
0
 62
7
  6
CONTINUOUS
 66
1
 70
0
  0
VERTEX
  8
0
 62
7
  6
CONTINUOUS
 10
80.4540224913
 20
100.7595544366
  0
VERTEX
  8
0
 62
7
  6
CONTINUOUS
 10
80.4623960308
 20
100.7447634074
  0
VERTEX
  8
0
 62
7
  6
CONTINUOUS
 10
80.4873050926
 20
100.7306049994
  0
VERTEX
  8
0
 62
7
  6
CONTINUOUS
 10
80.5280234404
 20
100.7175282258
  0
VERTEX
  8
0
 62
7
  6
CONTINUOUS
 10
80.5832839327
 20
100.7059426946
  0
VERTEX
  8
0
 62
7
  6
CONTINUOUS
 10
80.6158289095
 20
100.7008238491
  0
VERTEX
  8
0
 62
7
  6
CONTINUOUS
 10
80.6894078992
 20
100.69213222
  0
VERTEX
  8
0
 62
7
  6
CONTINUOUS
 10
80.7722123561
 20
100.6857195252
  0
VERTEX
  8
0
 62
7
  6
CONTINUOUS
 10
80.8614342546
 20
100.6817859466
  0
VERTEX
  8
0
 62
7
  6
CONTINUOUS
 10
80.9540224913
 20
100.6804588269
  0
SEQEND
  0
LINE
  8
0
 62
7
  6
CONTINUOUS
 10
87.3835413219
 20
101.509299308
 11
87.3835413219
 21
116.9226689744
  0
LINE
  8
0
 62
7
  6
CONTINUOUS
 10
88.5785517821
 20
101.509299308
 11
88.5785517821
 21
116.9226689744
  0
LINE
  8
0
 62
7
  6
CONTINUOUS
 10
89.1540224913
 20
101.509299308
 11
89.1540224913
 21
106.0959965797
  0
LINE
  8
0
 62
7
  6
CONTINUOUS
 10
89.6540224913
 20
105.0959296415
 11
89.6540224913
 21
98.244299308
  0
LINE
  8
0
 62
7
  6
CONTINUOUS
 10
89.7735622423
 20
106.0959927751
 11
89.7735622423
 21
116.9226689744
  0
LINE
  8
0
 62
7
  6
CONTINUOUS
 10
90.0040224913
 20
117.9226689514
 11
90.0040224913
 21
124.774299308
  0
LINE
  8
0
 62
7
  6
CONTINUOUS
 10
90.5040224913
 20
116.9226689744
 11
90.5040224913
 21
121.509299308
  0
LINE
  8
0
 62
7
  6
CONTINUOUS
 10
90.9685727025
 20
106.0959854364
 11
90.9685727025
 21
121.509299308
  0
LINE
  8
0
 62
7
  6
CONTINUOUS
 10
66.8540224913
 20
113.6849792213
 11
70.0917122444
 21
116.9226689744
  0
LINE
  8
0
 62
7
  6
CONTINUOUS
 10
71.8540224913
 20
118.6849792213
 11
74.678342578
 21
121.509299308
  0
LINE
  8
0
 62
7
  6
CONTINUOUS
 10
66.8540224913
 20
111.2949583009
 11
77.0683634984
 21
121.509299308
  0
LINE
  8
0
 62
7
  6
CONTINUOUS
 10
66.8540224913
 20
108.9049373805
 11
79.4583844188
 21
121.509299308
  0
LINE
  8
0
 62
7
  6
CONTINUOUS
 10
70.091647033
 20
106.095994853
 11
66.8540224913
 21
109.3336193946
  0
LINE
  8
0
 62
7
  6
CONTINUOUS
 10
72.4816823018
 20
106.0959805046
 11
66.8540224913
 21
111.723640315
  0
LINE
  8
0
 62
7
  6
CONTINUOUS
 10
74.8717175706
 20
106.0959661562
 11
66.8540224913
 21
114.1136612354
  0
LINE
  8
0
 62
7
  6
CONTINUOUS
 10
92.1635831627
 20
106.0959780977
 11
92.1635831627
 21
121.509299308
  0
LINE
  8
0
 62
7
  6
CONTINUOUS
 10
93.3585936229
 20
106.095970759
 11
93.3585936229
 21
121.509299308
  0
LINE
  8
0
 62
7
  6
CONTINUOUS
 10
94.5536040831
 20
106.0959634203
 11
94.5536040831
 21
121.509299308
  0
LINE
  8
0
 62
7
  6
CONTINUOUS
 10
95.7486145433
 20
106.0959560816
 11
95.7486145433
 21
121.509299308
  0
POLYLINE
  8
0
 62
7
  6
CONTINUOUS
 66
1
 70
0
  0
VERTEX
  8
0
 62
7
  6
CONTINUOUS
 10
90.0040224913
 20
122.2590441794
  0
VERTEX
  8
0
 62
7
  6
CONTINUOUS
 10
90.0123960308
 20
122.2738352085
  0
VERTEX
  8
0
 62
7
  6
CONTINUOUS
 10
90.0373050926
 20
122.2879936165
  0
VERTEX
  8
0
 62
7
  6
CONTINUOUS
 10
90.0780234404
 20
122.3010703901
  0
VERTEX
  8
0
 62
7
  6
CONTINUOUS
 10
90.1332839327
 20
122.3126559213
  0
VERTEX
  8
0
 62
7
  6
CONTINUOUS
 10
90.1658289095
 20
122.3177747668
  0
VERTEX
  8
0
 62
7
  6
CONTINUOUS
 10
90.2394078992
 20
122.3264663959
  0
VERTEX
  8
0
 62
7
  6
CONTINUOUS
 10
90.3222123561
 20
122.3328790907
  0
VERTEX
  8
0
 62
7
  6
CONTINUOUS
 10
90.4114342546
 20
122.3368126694
  0
VERTEX
  8
0
 62
7
  6
CONTINUOUS
 10
90.5040224913
 20
122.338139789
  0
SEQEND
  0
LINE
  8
0
 62
7
  6
CONTINUOUS
 10
66.8540224913
 20
106.5149164601
 11
79.6039859871
 21
119.2648799558
  0
LINE
  8
0
 62
7
  6
CONTINUOUS
 10
66.8540224913
 20
104.1248955397
 11
79.6517959261
 21
116.9226689744
  0
LINE
  8
0
 62
7
  6
CONTINUOUS
 10
66.8540224913
 20
101.7348746192
 11
69.8040224913
 21
104.6848746192
  0
LINE
  8
0
 62
7
  6
CONTINUOUS
 10
71.2151359803
 20
106.0959881082
 11
82.0418168465
 21
116.9226689744
  0
LINE
  8
0
 62
7
  6
CONTINUOUS
 10
81.8484053392
 20
101.509299308
 11
80.9540429596
 21
102.4036616876
  0
LINE
  8
0
 62
7
  6
CONTINUOUS
 10
77.2617528394
 20
106.0959518078
 11
66.8540224913
 21
116.5036821558
  0
LINE
  8
0
 62
7
  6
CONTINUOUS
 10
84.2384262596
 20
101.509299308
 11
80.954071348
 21
104.7936542196
  0
LINE
  8
0
 62
7
  6
CONTINUOUS
 10
79.6517881082
 20
106.0959374594
 11
68.8250565932
 21
116.9226689744
  0
LINE
  8
0
 62
7
  6
CONTINUOUS
 10
86.6284471801
 20
101.509299308
 11
71.2150775136
 21
116.9226689744
  0
POLYLINE
  8
0
 62
7
  6
CONTINUOUS
 66
1
 70
0
  0
VERTEX
  8
0
 62
7
  6
CONTINUOUS
 10
80.1040224913
 20
122.2590441794
  0
VERTEX
  8
0
 62
7
  6
CONTINUOUS
 10
80.0956489519
 20
122.2738352085
  0
VERTEX
  8
0
 62
7
  6
CONTINUOUS
 10
80.0707398901
 20
122.2879936165
  0
VERTEX
  8
0
 62
7
  6
CONTINUOUS
 10
80.0300215423
 20
122.3010703901
  0
VERTEX
  8
0
 62
7
  6
CONTINUOUS
 10
79.97476105
 20
122.3126559213
  0
VERTEX
  8
0
 62
7
  6
CONTINUOUS
 10
79.9422160732
 20
122.3177747668
  0
VERTEX
  8
0
 62
7
  6
CONTINUOUS
 10
79.8686370835
 20
122.3264663959
  0
VERTEX
  8
0
 62
7
  6
CONTINUOUS
 10
79.7858326266
 20
122.3328790907
  0
VERTEX
  8
0
 62
7
  6
CONTINUOUS
 10
79.6966107281
 20
122.3368126694
  0
VERTEX
  8
0
 62
7
  6
CONTINUOUS
 10
79.6040224913
 20
122.338139789
  0
SEQEND
  0
LINE
  8
0
 62
7
  6
CONTINUOUS
 10
96.9436250035
 20
106.0959487429
 11
96.9436250035
 21
121.509299308
  0
LINE
  8
0
 62
7
  6
CONTINUOUS
 10
98.1386354638
 20
106.0959414042
 11
98.1386354638
 21
121.509299308
  0
LINE
  8
0
 62
7
  6
CONTINUOUS
 10
98.7039581663
 20
116.9226689744
 11
98.7040126464
 21
121.509299308
  0
LINE
  8
0
 62
7
  6
CONTINUOUS
 10
99.2040224913
 20
117.9226689744
 11
99.2040224913
 21
124.774299308
  0
LINE
  8
0
 62
7
  6
CONTINUOUS
 10
99.333645924
 20
106.0959340655
 11
99.333645924
 21
116.9226689744
  0
LINE
  8
0
 62
7
  6
CONTINUOUS
 10
99.5540224913
 20
105.0959296415
 11
99.5540224913
 21
98.244299308
  0
LINE
  8
0
 62
7
  6
CONTINUOUS
 10
100.0540323363
 20
101.509299308
 11
100.0540868164
 21
106.0959296411
  0
LINE
  8
0
 62
7
  6
CONTINUOUS
 10
100.5286563842
 20
101.509299308
 11
100.5286563842
 21
116.9226689744
  0
LINE
  8
0
 62
7
  6
CONTINUOUS
 10
101.7236668444
 20
101.509299308
 11
101.7236668444
 21
116.9226689744
  0
LINE
  8
0
 62
7
  6
CONTINUOUS
 10
69.0184681005
 20
101.509299308
 11
69.8040224913
 21
102.2948536988
  0
LINE
  8
0
 62
7
  6
CONTINUOUS
 10
73.6051425525
 20
106.09597376
 11
84.4318377669
 21
116.9226689744
  0
LINE
  8
0
 62
7
  6
CONTINUOUS
 10
75.9951491247
 20
106.0959594118
 11
86.8218586873
 21
116.9226689744
  0
LINE
  8
0
 62
7
  6
CONTINUOUS
 10
90.5040224913
 20
120.6048327784
 11
91.4084890209
 21
121.509299308
  0
LINE
  8
0
 62
7
  6
CONTINUOUS
 10
78.3851556969
 20
106.0959450635
 11
89.2118796077
 21
116.9226689744
  0
LINE
  8
0
 62
7
  6
CONTINUOUS
 10
90.5040224913
 20
118.214811858
 11
93.7985099413
 21
121.509299308
  0
LINE
  8
0
 62
7
  6
CONTINUOUS
 10
89.0184681005
 20
101.509299308
 11
71.8540224913
 21
118.6737449171
  0
LINE
  8
0
 62
7
  6
CONTINUOUS
 10
89.1540224913
 20
103.7637658375
 11
71.8540224913
 21
121.0637658375
  0
LINE
  8
0
 62
7
  6
CONTINUOUS
 10
89.2118130244
 20
106.0959962248
 11
73.7985099413
 21
121.509299308
  0
POLYLINE
  8
0
 62
7
  6
CONTINUOUS
 66
1
 70
0
  0
VERTEX
  8
0
 62
7
  6
CONTINUOUS
 10
99.5540224913
 20
100.7595544366
  0
VERTEX
  8
0
 62
7
  6
CONTINUOUS
 10
99.5623960308
 20
100.7447634074
  0
VERTEX
  8
0
 62
7
  6
CONTINUOUS
 10
99.5873050926
 20
100.7306049994
  0
VERTEX
  8
0
 62
7
  6
CONTINUOUS
 10
99.6280234404
 20
100.7175282258
  0
VERTEX
  8
0
 62
7
  6
CONTINUOUS
 10
99.6832839327
 20
100.7059426946
  0
VERTEX
  8
0
 62
7
  6
CONTINUOUS
 10
99.7158289095
 20
100.7008238491
  0
VERTEX
  8
0
 62
7
  6
CONTINUOUS
 10
99.7894078992
 20
100.69213222
  0
VERTEX
  8
0
 62
7
  6
CONTINUOUS
 10
99.8722123561
 20
100.6857195252
  0
VERTEX
  8
0
 62
7
  6
CONTINUOUS
 10
99.9614342546
 20
100.6817859466
  0
VERTEX
  8
0
 62
7
  6
CONTINUOUS
 10
100.0540224913
 20
100.6804588269
  0
SEQEND
  0
LINE
  8
0
 62
7
  6
CONTINUOUS
 10
102.9186773046
 20
101.509299308
 11
102.9186773046
 21
116.9226689744
  0
LINE
  8
0
 62
7
  6
CONTINUOUS
 10
104.1136877648
 20
101.509299308
 11
104.1136877648
 21
116.9226689744
  0
LINE
  8
0
 62
7
  6
CONTINUOUS
 10
105.308698225
 20
101.509299308
 11
105.308698225
 21
116.9226689744
  0
LINE
  8
0
 62
7
  6
CONTINUOUS
 10
106.5037086852
 20
101.509299308
 11
106.5037086852
 21
116.9226689744
  0
POLYLINE
  8
0
 62
7
  6
CONTINUOUS
 66
1
 70
0
  0
VERTEX
  8
0
 62
7
  6
CONTINUOUS
 10
89.6540224913
 20
100.7595544366
  0
VERTEX
  8
0
 62
7
  6
CONTINUOUS
 10
89.6456489519
 20
100.7447634074
  0
VERTEX
  8
0
 62
7
  6
CONTINUOUS
 10
89.6207398901
 20
100.7306049994
  0
VERTEX
  8
0
 62
7
  6
CONTINUOUS
 10
89.5800215423
 20
100.7175282258
  0
VERTEX
  8
0
 62
7
  6
CONTINUOUS
 10
89.52476105
 20
100.7059426946
  0
VERTEX
  8
0
 62
7
  6
CONTINUOUS
 10
89.4922160732
 20
100.7008238491
  0
VERTEX
  8
0
 62
7
  6
CONTINUOUS
 10
89.4186370835
 20
100.69213222
  0
VERTEX
  8
0
 62
7
  6
CONTINUOUS
 10
89.3358326266
 20
100.6857195252
  0
VERTEX
  8
0
 62
7
  6
CONTINUOUS
 10
89.2466107281
 20
100.6817859466
  0
VERTEX
  8
0
 62
7
  6
CONTINUOUS
 10
89.1540224913
 20
100.6804588269
  0
SEQEND
  0
LINE
  8
0
 62
7
  6
CONTINUOUS
 10
80.7751622691
 20
106.0959307153
 11
96.1885308617
 21
121.509299308
  0
LINE
  8
0
 62
7
  6
CONTINUOUS
 10
80.9540605527
 20
103.8848080785
 11
98.5785517821
 21
121.509299308
  0
LINE
  8
0
 62
7
  6
CONTINUOUS
 10
80.9685727025
 20
101.509299308
 11
98.7039857476
 21
119.244712353
  0
LINE
  8
0
 62
7
  6
CONTINUOUS
 10
91.6018486223
 20
106.0959815473
 11
80.7751611953
 21
116.9226689744
  0
LINE
  8
0
 62
7
  6
CONTINUOUS
 10
79.6039720777
 20
118.093858092
 11
76.1885308617
 21
121.509299308
  0
LINE
  8
0
 62
7
  6
CONTINUOUS
 10
93.9918842202
 20
106.0959668698
 11
83.1651821157
 21
116.9226689744
  0
LINE
  8
0
 62
7
  6
CONTINUOUS
 10
79.6040004661
 20
120.483850624
 11
78.5785517821
 21
121.509299308
  0
LINE
  8
0
 62
7
  6
CONTINUOUS
 10
100.9685727025
 20
101.509299308
 11
100.0540431991
 21
102.4238288113
  0
LINE
  8
0
 62
7
  6
CONTINUOUS
 10
96.3819198181
 20
106.0959521924
 11
85.5552030361
 21
116.9226689744
  0
LINE
  8
0
 62
7
  6
CONTINUOUS
 10
107.6987191454
 20
101.509299308
 11
107.6987191454
 21
116.9226689744
  0
LINE
  8
0
 62
7
  6
CONTINUOUS
 10
108.2540224913
 20
101.509299308
 11
108.2540224913
 21
106.0959965797
  0
LINE
  8
0
 62
7
  6
CONTINUOUS
 10
108.7540224913
 20
105.0959296415
 11
108.7540224913
 21
98.244299308
  0
LINE
  8
0
 62
7
  6
CONTINUOUS
 10
108.8937296056
 20
106.0959926512
 11
108.8937296056
 21
116.9226689744
  0
LINE
  8
0
 62
7
  6
CONTINUOUS
 10
109.1040224913
 20
117.9226689514
 11
109.1040224913
 21
124.774299308
  0
LINE
  8
0
 62
7
  6
CONTINUOUS
 10
109.6040224913
 20
116.9226689744
 11
109.6040224913
 21
121.509299308
  0
LINE
  8
0
 62
7
  6
CONTINUOUS
 10
110.0887400658
 20
106.0959853125
 11
110.0887400658
 21
121.509299308
  0
LINE
  8
0
 62
7
  6
CONTINUOUS
 10
111.283750526
 20
106.0959779738
 11
111.283750526
 21
121.509299308
  0
POLYLINE
  8
0
 62
7
  6
CONTINUOUS
 66
1
 70
0
  0
VERTEX
  8
0
 62
7
  6
CONTINUOUS
 10
109.1040224913
 20
122.2590441794
  0
VERTEX
  8
0
 62
7
  6
CONTINUOUS
 10
109.1123960308
 20
122.2738352085
  0
VERTEX
  8
0
 62
7
  6
CONTINUOUS
 10
109.1373050926
 20
122.2879936165
  0
VERTEX
  8
0
 62
7
  6
CONTINUOUS
 10
109.1780234404
 20
122.3010703901
  0
VERTEX
  8
0
 62
7
  6
CONTINUOUS
 10
109.2332839327
 20
122.3126559213
  0
VERTEX
  8
0
 62
7
  6
CONTINUOUS
 10
109.2658289095
 20
122.3177747668
  0
VERTEX
  8
0
 62
7
  6
CONTINUOUS
 10
109.3394078992
 20
122.3264663959
  0
VERTEX
  8
0
 62
7
  6
CONTINUOUS
 10
109.4222123561
 20
122.3328790907
  0
VERTEX
  8
0
 62
7
  6
CONTINUOUS
 10
109.5114342546
 20
122.3368126694
  0
VERTEX
  8
0
 62
7
  6
CONTINUOUS
 10
109.6040224913
 20
122.338139789
  0
SEQEND
  0
LINE
  8
0
 62
7
  6
CONTINUOUS
 10
83.3585936229
 20
101.509299308
 11
98.7719632894
 21
116.9226689744
  0
LINE
  8
0
 62
7
  6
CONTINUOUS
 10
85.7486145433
 20
101.509299308
 11
89.1540224913
 21
104.914707256
  0
LINE
  8
0
 62
7
  6
CONTINUOUS
 10
90.3353045607
 20
106.0959893253
 11
101.1619842098
 21
116.9226689744
  0
LINE
  8
0
 62
7
  6
CONTINUOUS
 10
88.1386354638
 20
101.509299308
 11
89.1540224913
 21
102.5246863356
  0
LINE
  8
0
 62
7
  6
CONTINUOUS
 10
92.7253108038
 20
106.095974648
 11
103.5520051302
 21
116.9226689744
  0
LINE
  8
0
 62
7
  6
CONTINUOUS
 10
103.3585936229
 20
101.509299308
 11
100.0540715875
 21
104.8138213434
  0
LINE
  8
0
 62
7
  6
CONTINUOUS
 10
98.771955416
 20
106.0959375149
 11
87.9452239565
 21
116.9226689744
  0
LINE
  8
0
 62
7
  6
CONTINUOUS
 10
105.7486145433
 20
101.509299308
 11
90.3352448769
 21
116.9226689744
  0
LINE
  8
0
 62
7
  6
CONTINUOUS
 10
108.1386354638
 20
101.509299308
 11
90.5040224913
 21
119.1439122804
  0
POLYLINE
  8
0
 62
7
  6
CONTINUOUS
 66
1
 70
0
  0
VERTEX
  8
0
 62
7
  6
CONTINUOUS
 10
99.2040224913
 20
122.2590441794
  0
VERTEX
  8
0
 62
7
  6
CONTINUOUS
 10
99.1956489519
 20
122.2738352085
  0
VERTEX
  8
0
 62
7
  6
CONTINUOUS
 10
99.1707398901
 20
122.2879936165
  0
VERTEX
  8
0
 62
7
  6
CONTINUOUS
 10
99.1300215423
 20
122.3010703901
  0
VERTEX
  8
0
 62
7
  6
CONTINUOUS
 10
99.07476105
 20
122.3126559213
  0
VERTEX
  8
0
 62
7
  6
CONTINUOUS
 10
99.0422160732
 20
122.3177747668
  0
VERTEX
  8
0
 62
7
  6
CONTINUOUS
 10
98.9686370835
 20
122.3264663959
  0
VERTEX
  8
0
 62
7
  6
CONTINUOUS
 10
98.8858326266
 20
122.3328790907
  0
VERTEX
  8
0
 62
7
  6
CONTINUOUS
 10
98.7966107281
 20
122.3368126694
  0
VERTEX
  8
0
 62
7
  6
CONTINUOUS
 10
98.7040224913
 20
122.338139789
  0
SEQEND
  0
LINE
  8
0
 62
7
  6
CONTINUOUS
 10
112.4787609862
 20
106.0959706351
 11
112.4787609862
 21
121.509299308
  0
LINE
  8
0
 62
7
  6
CONTINUOUS
 10
113.6737714464
 20
106.0959632964
 11
113.6737714464
 21
121.509299308
  0
LINE
  8
0
 62
7
  6
CONTINUOUS
 10
114.8687819066
 20
106.0959559577
 11
114.8687819066
 21
121.509299308
  0
LINE
  8
0
 62
7
  6
CONTINUOUS
 10
116.0637923668
 20
106.095948619
 11
116.0637923668
 21
121.509299308
  0
LINE
  8
0
 62
7
  6
CONTINUOUS
 10
95.1153170469
 20
106.0959599707
 11
105.9420260506
 21
116.9226689744
  0
LINE
  8
0
 62
7
  6
CONTINUOUS
 10
109.6040224913
 20
120.5846654151
 11
110.5286563842
 21
121.509299308
  0
LINE
  8
0
 62
7
  6
CONTINUOUS
 10
97.50532329
 20
106.0959452934
 11
108.332046971
 21
116.9226689744
  0
LINE
  8
0
 62
7
  6
CONTINUOUS
 10
109.6040224913
 20
118.1946444947
 11
112.9186773046
 21
121.509299308
  0
LINE
  8
0
 62
7
  6
CONTINUOUS
 10
99.8953295331
 20
106.0959306161
 11
115.308698225
 21
121.509299308
  0
LINE
  8
0
 62
7
  6
CONTINUOUS
 10
108.2540224913
 20
103.7839332008
 11
90.5286563842
 21
121.509299308
  0
LINE
  8
0
 62
7
  6
CONTINUOUS
 10
108.3319805115
 20
106.095996101
 11
92.9186773046
 21
121.509299308
  0
LINE
  8
0
 62
7
  6
CONTINUOUS
 10
110.7220161095
 20
106.0959814235
 11
99.8953285586
 21
116.9226689744
  0
LINE
  8
0
 62
7
  6
CONTINUOUS
 10
98.7039723172
 20
118.1140252157
 11
95.308698225
 21
121.509299308
  0
POLYLINE
  8
0
 62
7
  6
CONTINUOUS
 66
1
 70
0
  0
VERTEX
  8
0
 62
7
  6
CONTINUOUS
 10
118.6540224913
 20
100.7595544366
  0
VERTEX
  8
0
 62
7
  6
CONTINUOUS
 10
118.6623960308
 20
100.7447634074
  0
VERTEX
  8
0
 62
7
  6
CONTINUOUS
 10
118.6873050926
 20
100.7306049994
  0
VERTEX
  8
0
 62
7
  6
CONTINUOUS
 10
118.7280234404
 20
100.7175282258
  0
VERTEX
  8
0
 62
7
  6
CONTINUOUS
 10
118.7832839327
 20
100.7059426946
  0
VERTEX
  8
0
 62
7
  6
CONTINUOUS
 10
118.8158289095
 20
100.7008238491
  0
VERTEX
  8
0
 62
7
  6
CONTINUOUS
 10
118.8894078992
 20
100.69213222
  0
VERTEX
  8
0
 62
7
  6
CONTINUOUS
 10
118.9722123561
 20
100.6857195252
  0
VERTEX
  8
0
 62
7
  6
CONTINUOUS
 10
119.0614342546
 20
100.6817859466
  0
VERTEX
  8
0
 62
7
  6
CONTINUOUS
 10
119.1540224913
 20
100.6804588269
  0
SEQEND
  0
LINE
  8
0
 62
7
  6
CONTINUOUS
 10
117.258802827
 20
106.0959412803
 11
117.258802827
 21
121.509299308
  0
LINE
  8
0
 62
7
  6
CONTINUOUS
 10
117.8039581663
 20
116.9226689744
 11
117.8040126464
 21
121.509299308
  0
LINE
  8
0
 62
7
  6
CONTINUOUS
 10
118.3040224913
 20
117.9226689744
 11
118.3040224913
 21
124.774299308
  0
LINE
  8
0
 62
7
  6
CONTINUOUS
 10
118.4538132872
 20
106.0959339416
 11
118.4538132872
 21
116.9226689744
  0
LINE
  8
0
 62
7
  6
CONTINUOUS
 10
118.6540224913
 20
105.0959296415
 11
118.6540224913
 21
98.244299308
  0
LINE
  8
0
 62
7
  6
CONTINUOUS
 10
119.1540323363
 20
101.509299308
 11
119.1540868164
 21
106.0959296411
  0
LINE
  8
0
 62
7
  6
CONTINUOUS
 10
119.6488237474
 20
101.509299308
 11
119.6488237474
 21
116.9226689744
  0
LINE
  8
0
 62
7
  6
CONTINUOUS
 10
120.8438342077
 20
101.509299308
 11
120.8438342077
 21
116.9226689744
  0
LINE
  8
0
 62
7
  6
CONTINUOUS
 10
122.0388446679
 20
101.509299308
 11
122.0388446679
 21
116.9226689744
  0
POLYLINE
  8
0
 62
7
  6
CONTINUOUS
 66
1
 70
0
  0
VERTEX
  8
0
 62
7
  6
CONTINUOUS
 10
108.7540224913
 20
100.7595544366
  0
VERTEX
  8
0
 62
7
  6
CONTINUOUS
 10
108.7456489519
 20
100.7447634074
  0
VERTEX
  8
0
 62
7
  6
CONTINUOUS
 10
108.7207398901
 20
100.7306049994
  0
VERTEX
  8
0
 62
7
  6
CONTINUOUS
 10
108.6800215423
 20
100.7175282258
  0
VERTEX
  8
0
 62
7
  6
CONTINUOUS
 10
108.62476105
 20
100.7059426946
  0
VERTEX
  8
0
 62
7
  6
CONTINUOUS
 10
108.5922160732
 20
100.7008238491
  0
VERTEX
  8
0
 62
7
  6
CONTINUOUS
 10
108.5186370835
 20
100.69213222
  0
VERTEX
  8
0
 62
7
  6
CONTINUOUS
 10
108.4358326266
 20
100.6857195252
  0
VERTEX
  8
0
 62
7
  6
CONTINUOUS
 10
108.3466107281
 20
100.6817859466
  0
VERTEX
  8
0
 62
7
  6
CONTINUOUS
 10
108.2540224913
 20
100.6804588269
  0
SEQEND
  0
LINE
  8
0
 62
7
  6
CONTINUOUS
 10
100.0540603131
 20
103.8646404757
 11
117.6987191454
 21
121.509299308
  0
LINE
  8
0
 62
7
  6
CONTINUOUS
 10
100.0887400658
 20
101.509299308
 11
117.803985508
 21
119.2245447502
  0
LINE
  8
0
 62
7
  6
CONTINUOUS
 10
102.4787609862
 20
101.509299308
 11
117.8921306526
 21
116.9226689744
  0
LINE
  8
0
 62
7
  6
CONTINUOUS
 10
113.1120517074
 20
106.095966746
 11
102.285349479
 21
116.9226689744
  0
LINE
  8
0
 62
7
  6
CONTINUOUS
 10
98.7040007056
 20
120.5040177477
 11
97.6987191454
 21
121.509299308
  0
LINE
  8
0
 62
7
  6
CONTINUOUS
 10
120.0887400658
 20
101.509299308
 11
119.1540434387
 21
102.4439959351
  0
LINE
  8
0
 62
7
  6
CONTINUOUS
 10
115.5020873053
 20
106.0959520685
 11
104.6753703994
 21
116.9226689744
  0
LINE
  8
0
 62
7
  6
CONTINUOUS
 10
122.4787609862
 20
101.509299308
 11
119.1540718271
 21
104.8339884671
  0
LINE
  8
0
 62
7
  6
CONTINUOUS
 10
117.8921229032
 20
106.095937391
 11
107.0653913198
 21
116.9226689744
  0
LINE
  8
0
 62
7
  6
CONTINUOUS
 10
123.2338551281
 20
101.509299308
 11
123.2338551281
 21
116.9226689744
  0
LINE
  8
0
 62
7
  6
CONTINUOUS
 10
124.4288655883
 20
101.509299308
 11
124.4288655883
 21
116.9226689744
  0
LINE
  8
0
 62
7
  6
CONTINUOUS
 10
125.6238760485
 20
101.509299308
 11
125.6238760485
 21
116.9226689744
  0
LINE
  8
0
 62
7
  6
CONTINUOUS
 10
126.8188865087
 20
101.509299308
 11
126.8188865087
 21
116.9226689744
  0
LINE
  8
0
 62
7
  6
CONTINUOUS
 10
127.3540224913
 20
101.509299308
 11
127.3540224913
 21
106.0959965797
  0
POLYLINE
  8
0
 62
7
  6
CONTINUOUS
 66
1
 70
0
  0
VERTEX
  8
0
 62
7
  6
CONTINUOUS
 10
128.2040224913
 20
122.2590441794
  0
VERTEX
  8
0
 62
7
  6
CONTINUOUS
 10
128.2123960308
 20
122.2738352085
  0
VERTEX
  8
0
 62
7
  6
CONTINUOUS
 10
128.2373050926
 20
122.2879936165
  0
VERTEX
  8
0
 62
7
  6
CONTINUOUS
 10
128.2780234404
 20
122.3010703901
  0
VERTEX
  8
0
 62
7
  6
CONTINUOUS
 10
128.3332839327
 20
122.3126559213
  0
VERTEX
  8
0
 62
7
  6
CONTINUOUS
 10
128.3658289095
 20
122.3177747668
  0
VERTEX
  8
0
 62
7
  6
CONTINUOUS
 10
128.4394078992
 20
122.3264663959
  0
VERTEX
  8
0
 62
7
  6
CONTINUOUS
 10
128.5222123561
 20
122.3328790907
  0
VERTEX
  8
0
 62
7
  6
CONTINUOUS
 10
128.6114342546
 20
122.3368126694
  0
VERTEX
  8
0
 62
7
  6
CONTINUOUS
 10
128.7040224913
 20
122.338139789
  0
SEQEND
  0
LINE
  8
0
 62
7
  6
CONTINUOUS
 10
104.8687819066
 20
101.509299308
 11
108.2540224913
 21
104.8945398927
  0
LINE
  8
0
 62
7
  6
CONTINUOUS
 10
109.4554718002
 20
106.0959892015
 11
120.2821515731
 21
116.9226689744
  0
LINE
  8
0
 62
7
  6
CONTINUOUS
 10
107.258802827
 20
101.509299308
 11
108.2540224913
 21
102.5045189723
  0
LINE
  8
0
 62
7
  6
CONTINUOUS
 10
111.8454780433
 20
106.0959745242
 11
122.6721724935
 21
116.9226689744
  0
LINE
  8
0
 62
7
  6
CONTINUOUS
 10
114.2354842864
 20
106.0959598469
 11
125.0621934139
 21
116.9226689744
  0
LINE
  8
0
 62
7
  6
CONTINUOUS
 10
128.7040224913
 20
120.5644980519
 11
129.6488237474
 21
121.509299308
  0
LINE
  8
0
 62
7
  6
CONTINUOUS
 10
124.8687819066
 20
101.509299308
 11
109.4554122402
 21
116.9226689744
  0
LINE
  8
0
 62
7
  6
CONTINUOUS
 10
127.258802827
 20
101.509299308
 11
109.6040224913
 21
119.1640796436
  0
LINE
  8
0
 62
7
  6
CONTINUOUS
 10
127.3540224913
 20
103.8041005641
 11
109.6488237474
 21
121.509299308
  0
POLYLINE
  8
0
 62
7
  6
CONTINUOUS
 66
1
 70
0
  0
VERTEX
  8
0
 62
7
  6
CONTINUOUS
 10
118.3040224913
 20
122.2590441794
  0
VERTEX
  8
0
 62
7
  6
CONTINUOUS
 10
118.2956489519
 20
122.2738352085
  0
VERTEX
  8
0
 62
7
  6
CONTINUOUS
 10
118.2707398901
 20
122.2879936165
  0
VERTEX
  8
0
 62
7
  6
CONTINUOUS
 10
118.2300215423
 20
122.3010703901
  0
VERTEX
  8
0
 62
7
  6
CONTINUOUS
 10
118.17476105
 20
122.3126559213
  0
VERTEX
  8
0
 62
7
  6
CONTINUOUS
 10
118.1422160732
 20
122.3177747668
  0
VERTEX
  8
0
 62
7
  6
CONTINUOUS
 10
118.0686370835
 20
122.3264663959
  0
VERTEX
  8
0
 62
7
  6
CONTINUOUS
 10
117.9858326266
 20
122.3328790907
  0
VERTEX
  8
0
 62
7
  6
CONTINUOUS
 10
117.8966107281
 20
122.3368126694
  0
VERTEX
  8
0
 62
7
  6
CONTINUOUS
 10
117.8040224913
 20
122.338139789
  0
SEQEND
  0
LINE
  8
0
 62
7
  6
CONTINUOUS
 10
127.8540224913
 20
105.0959296415
 11
127.8540224913
 21
98.244299308
  0
LINE
  8
0
 62
7
  6
CONTINUOUS
 10
128.0138969689
 20
106.0959925274
 11
128.0138969689
 21
116.9226689744
  0
LINE
  8
0
 62
7
  6
CONTINUOUS
 10
128.2040224913
 20
117.9226689514
 11
128.2040224913
 21
124.774299308
  0
LINE
  8
0
 62
7
  6
CONTINUOUS
 10
128.7040224913
 20
116.9226689744
 11
128.7040224913
 21
121.509299308
  0
LINE
  8
0
 62
7
  6
CONTINUOUS
 10
129.2089074291
 20
106.0959851887
 11
129.2089074291
 21
121.509299308
  0
LINE
  8
0
 62
7
  6
CONTINUOUS
 10
130.4039178893
 20
106.09597785
 11
130.4039178893
 21
121.509299308
  0
LINE
  8
0
 62
7
  6
CONTINUOUS
 10
131.5989283495
 20
106.0959705113
 11
131.5989283495
 21
121.509299308
  0
LINE
  8
0
 62
7
  6
CONTINUOUS
 10
116.6254905295
 20
106.0959451696
 11
127.4522143343
 21
116.9226689744
  0
LINE
  8
0
 62
7
  6
CONTINUOUS
 10
128.7040224913
 20
118.1744771314
 11
132.0388446679
 21
121.509299308
  0
LINE
  8
0
 62
7
  6
CONTINUOUS
 10
119.0154967726
 20
106.0959304922
 11
134.4288655883
 21
121.509299308
  0
LINE
  8
0
 62
7
  6
CONTINUOUS
 10
119.1540600736
 20
103.8444728729
 11
136.8188865087
 21
121.509299308
  0
POLYLINE
  8
0
 62
7
  6
CONTINUOUS
 66
1
 70
0
  0
VERTEX
  8
0
 62
7
  6
CONTINUOUS
 10
217.8540224913
 20
100.6804588269
  0
VERTEX
  8
0
 62
7
  6
CONTINUOUS
 10
217.9466107281
 20
100.6817859466
  0
VERTEX
  8
0
 62
7
  6
CONTINUOUS
 10
218.0358326266
 20
100.6857195252
  0
VERTEX
  8
0
 62
7
  6
CONTINUOUS
 10
218.1186370835
 20
100.69213222
  0
VERTEX
  8
0
 62
7
  6
CONTINUOUS
 10
218.1922160732
 20
100.7008238491
  0
VERTEX
  8
0
 62
7
  6
CONTINUOUS
 10
218.22476105
 20
100.7059426946
  0
VERTEX
  8
0
 62
7
  6
CONTINUOUS
 10
218.2800215423
 20
100.7175282258
  0
VERTEX
  8
0
 62
7
  6
CONTINUOUS
 10
218.3207398901
 20
100.7306049994
  0
VERTEX
  8
0
 62
7
  6
CONTINUOUS
 10
218.3456489519
 20
100.7447634074
  0
VERTEX
  8
0
 62
7
  6
CONTINUOUS
 10
218.3540224913
 20
100.7595544366
  0
SEQEND
  0
LINE
  8
0
 62
7
  6
CONTINUOUS
 10
66.8540224913
 20
97.744299308
 11
69.8040224913
 21
97.744299308
  0
LINE
  8
0
 62
7
  6
CONTINUOUS
 10
80.9540224913
 20
97.744299308
 11
89.1540224913
 21
97.744299308
  0
LINE
  8
0
 62
7
  6
CONTINUOUS
 10
100.0540224913
 20
97.744299308
 11
108.2540224913
 21
97.744299308
  0
LINE
  8
0
 62
7
  6
CONTINUOUS
 10
119.1540224913
 20
97.744299308
 11
127.3540224913
 21
97.744299308
  0
LINE
  8
0
 62
7
  6
CONTINUOUS
 10
138.2540224913
 20
97.744299308
 11
146.4540224913
 21
97.744299308
  0
LINE
  8
0
 62
7
  6
CONTINUOUS
 10
157.3540224913
 20
97.744299308
 11
165.5540224913
 21
97.744299308
  0
LINE
  8
0
 62
7
  6
CONTINUOUS
 10
176.4540224913
 20
97.744299308
 11
184.6540224913
 21
97.744299308
  0
LINE
  8
0
 62
7
  6
CONTINUOUS
 10
195.5540224913
 20
97.744299308
 11
203.7540224913
 21
97.744299308
  0
LINE
  8
0
 62
7
  6
CONTINUOUS
 10
214.9040224913
 20
97.744299308
 11
217.8540224913
 21
97.744299308
  0
LINE
  8
0
 62
7
  6
CONTINUOUS
 10
66.8540224913
 20
100.6804588269
 11
69.8040224913
 21
100.6804588269
  0
LINE
  8
0
 62
7
  6
CONTINUOUS
 10
80.9540224913
 20
100.6804588269
 11
89.1540224913
 21
100.6804588269
  0
LINE
  8
0
 62
7
  6
CONTINUOUS
 10
100.0540224913
 20
100.6804588269
 11
108.2540224913
 21
100.6804588269
  0
LINE
  8
0
 62
7
  6
CONTINUOUS
 10
119.1540224913
 20
100.6804588269
 11
127.3540224913
 21
100.6804588269
  0
LINE
  8
0
 62
7
  6
CONTINUOUS
 10
138.2540224913
 20
100.6804588269
 11
146.4540224913
 21
100.6804588269
  0
LINE
  8
0
 62
7
  6
CONTINUOUS
 10
157.3540224913
 20
100.6804588269
 11
165.5540224913
 21
100.6804588269
  0
LINE
  8
0
 62
7
  6
CONTINUOUS
 10
176.4540224913
 20
100.6804588269
 11
184.6540224913
 21
100.6804588269
  0
LINE
  8
0
 62
7
  6
CONTINUOUS
 10
195.5540224913
 20
100.6804588269
 11
203.7540224913
 21
100.6804588269
  0
LINE
  8
0
 62
7
  6
CONTINUOUS
 10
214.9040224913
 20
100.6804588269
 11
217.8540224913
 21
100.6804588269
  0
LINE
  8
0
 62
7
  6
CONTINUOUS
 10
66.8540224913
 20
101.509299308
 11
69.8040224913
 21
101.509299308
  0
LINE
  8
0
 62
7
  6
CONTINUOUS
 10
80.9540323363
 20
101.509299308
 11
89.1540224913
 21
101.509299308
  0
LINE
  8
0
 62
7
  6
CONTINUOUS
 10
100.0540323363
 20
101.509299308
 11
108.2540224913
 21
101.509299308
  0
LINE
  8
0
 62
7
  6
CONTINUOUS
 10
119.1540323363
 20
101.509299308
 11
127.3540224913
 21
101.509299308
  0
LINE
  8
0
 62
7
  6
CONTINUOUS
 10
138.2540323363
 20
101.509299308
 11
146.4540224913
 21
101.509299308
  0
LINE
  8
0
 62
7
  6
CONTINUOUS
 10
157.3540323363
 20
101.509299308
 11
165.5540224913
 21
101.509299308
  0
LINE
  8
0
 62
7
  6
CONTINUOUS
 10
176.4540323363
 20
101.509299308
 11
184.6540224913
 21
101.509299308
  0
LINE
  8
0
 62
7
  6
CONTINUOUS
 10
195.5540323363
 20
101.509299308
 11
203.7540224913
 21
101.509299308
  0
LINE
  8
0
 62
7
  6
CONTINUOUS
 10
214.9040323363
 20
101.509299308
 11
217.8540224913
 21
101.509299308
  0
POLYLINE
  8
0
 62
7
  6
CONTINUOUS
 66
1
 70
0
  0
VERTEX
  8
0
 62
7
  6
CONTINUOUS
 10
66.8540224913
 20
100.6804588269
  0
VERTEX
  8
0
 62
7
  6
CONTINUOUS
 10
66.7614342546
 20
100.6817859466
  0
VERTEX
  8
0
 62
7
  6
CONTINUOUS
 10
66.6722123561
 20
100.6857195252
  0
VERTEX
  8
0
 62
7
  6
CONTINUOUS
 10
66.5894078992
 20
100.69213222
  0
VERTEX
  8
0
 62
7
  6
CONTINUOUS
 10
66.5158289095
 20
100.7008238491
  0
VERTEX
  8
0
 62
7
  6
CONTINUOUS
 10
66.4832839327
 20
100.7059426946
  0
VERTEX
  8
0
 62
7
  6
CONTINUOUS
 10
66.4280234404
 20
100.7175282258
  0
VERTEX
  8
0
 62
7
  6
CONTINUOUS
 10
66.3873050926
 20
100.7306049994
  0
VERTEX
  8
0
 62
7
  6
CONTINUOUS
 10
66.3623960308
 20
100.7447634074
  0
VERTEX
  8
0
 62
7
  6
CONTINUOUS
 10
66.3540224913
 20
100.7595544366
  0
SEQEND
  0
LINE
  8
0
 62
7
  6
CONTINUOUS
 10
127.4521479987
 20
106.0959959771
 11
112.0388446679
 21
121.509299308
  0
LINE
  8
0
 62
7
  6
CONTINUOUS
 10
129.8421835966
 20
106.0959812996
 11
119.0154959218
 21
116.9226689744
  0
LINE
  8
0
 62
7
  6
CONTINUOUS
 10
117.8039725568
 20
118.1341923395
 11
114.4288655883
 21
121.509299308
  0
LINE
  8
0
 62
7
  6
CONTINUOUS
 10
132.2322191945
 20
106.0959666221
 11
121.4055168423
 21
116.9226689744
  0
LINE
  8
0
 62
7
  6
CONTINUOUS
 10
117.8040009452
 20
120.5241848715
 11
116.8188865087
 21
121.509299308
  0
LINE
  8
0
 62
7
  6
CONTINUOUS
 10
132.7939388097
 20
106.0959631726
 11
132.7939388097
 21
121.509299308
  0
LINE
  8
0
 62
7
  6
CONTINUOUS
 10
133.9889492699
 20
106.0959558339
 11
133.9889492699
 21
121.509299308
  0
LINE
  8
0
 62
7
  6
CONTINUOUS
 10
135.1839597301
 20
106.0959484952
 11
135.1839597301
 21
121.509299308
  0
LINE
  8
0
 62
7
  6
CONTINUOUS
 10
136.3789701903
 20
106.0959411565
 11
136.3789701903
 21
121.509299308
  0
LINE
  8
0
 62
7
  6
CONTINUOUS
 10
136.9039581663
 20
116.9226689744
 11
136.9040126464
 21
121.509299308
  0
LINE
  8
0
 62
7
  6
CONTINUOUS
 10
137.4040224913
 20
117.9226689744
 11
137.4040224913
 21
124.774299308
  0
LINE
  8
0
 62
7
  6
CONTINUOUS
 10
137.5739806505
 20
106.0959338178
 11
137.5739806505
 21
116.9226689744
  0
LINE
  8
0
 62
7
  6
CONTINUOUS
 10
137.7540224913
 20
98.244299308
 11
137.7540224913
 21
105.0959296415
  0
POLYLINE
  8
0
 62
7
  6
CONTINUOUS
 66
1
 70
0
  0
VERTEX
  8
0
 62
7
  6
CONTINUOUS
 10
127.8540224913
 20
100.7595544366
  0
VERTEX
  8
0
 62
7
  6
CONTINUOUS
 10
127.8456489519
 20
100.7447634074
  0
VERTEX
  8
0
 62
7
  6
CONTINUOUS
 10
127.8207398901
 20
100.7306049994
  0
VERTEX
  8
0
 62
7
  6
CONTINUOUS
 10
127.7800215423
 20
100.7175282258
  0
VERTEX
  8
0
 62
7
  6
CONTINUOUS
 10
127.72476105
 20
100.7059426946
  0
VERTEX
  8
0
 62
7
  6
CONTINUOUS
 10
127.6922160732
 20
100.7008238491
  0
VERTEX
  8
0
 62
7
  6
CONTINUOUS
 10
127.6186370835
 20
100.69213222
  0
VERTEX
  8
0
 62
7
  6
CONTINUOUS
 10
127.5358326266
 20
100.6857195252
  0
VERTEX
  8
0
 62
7
  6
CONTINUOUS
 10
127.4466107281
 20
100.6817859466
  0
VERTEX
  8
0
 62
7
  6
CONTINUOUS
 10
127.3540224913
 20
100.6804588269
  0
SEQEND
  0
LINE
  8
0
 62
7
  6
CONTINUOUS
 10
119.2089074291
 20
101.509299308
 11
136.9039852684
 21
119.2043771473
  0
LINE
  8
0
 62
7
  6
CONTINUOUS
 10
121.5989283495
 20
101.509299308
 11
137.0122980159
 21
116.9226689744
  0
LINE
  8
0
 62
7
  6
CONTINUOUS
 10
123.9889492699
 20
101.509299308
 11
127.3540224913
 21
104.8743725294
  0
LINE
  8
0
 62
7
  6
CONTINUOUS
 10
128.5756390396
 20
106.0959890776
 11
139.4023189363
 21
116.9226689744
  0
LINE
  8
0
 62
7
  6
CONTINUOUS
 10
203.7540224913
 20
101.9492156263
 11
195.5540375617
 21
101.9492156263
  0
LINE
  8
0
 62
7
  6
CONTINUOUS
 10
184.6540224913
 20
101.9492156263
 11
176.4540375617
 21
101.9492156263
  0
LINE
  8
0
 62
7
  6
CONTINUOUS
 10
165.5540224913
 20
101.9492156263
 11
157.3540375617
 21
101.9492156263
  0
LINE
  8
0
 62
7
  6
CONTINUOUS
 10
146.4540224913
 20
101.9492156263
 11
138.2540375617
 21
101.9492156263
  0
LINE
  8
0
 62
7
  6
CONTINUOUS
 10
66.8540224913
 20
101.9492156263
 11
69.8040224913
 21
101.9492156263
  0
LINE
  8
0
 62
7
  6
CONTINUOUS
 10
80.9540375617
 20
101.9492156263
 11
89.1540224913
 21
101.9492156263
  0
LINE
  8
0
 62
7
  6
CONTINUOUS
 10
100.0540375617
 20
101.9492156263
 11
108.2540224913
 21
101.9492156263
  0
LINE
  8
0
 62
7
  6
CONTINUOUS
 10
119.1540375617
 20
101.9492156263
 11
127.3540224913
 21
101.9492156263
  0
LINE
  8
0
 62
7
  6
CONTINUOUS
 10
214.9040375617
 20
101.9492156263
 11
217.8540224913
 21
101.9492156263
  0
LINE
  8
1_AXIS
 62
2
  6
CENTER
 10
43.0819190077
 20
101.984299308
 11
206.3151370008
 21
101.984299308
  0
LINE
  8
0
 62
7
  6
CONTINUOUS
 10
203.7540224913
 20
103.1442260865
 11
195.554051756
 21
103.1442260865
  0
LINE
  8
0
 62
7
  6
CONTINUOUS
 10
184.6540224913
 20
103.1442260865
 11
176.454051756
 21
103.1442260865
  0
LINE
  8
0
 62
7
  6
CONTINUOUS
 10
165.5540224913
 20
103.1442260865
 11
157.354051756
 21
103.1442260865
  0
LINE
  8
0
 62
7
  6
CONTINUOUS
 10
146.4540224913
 20
103.1442260865
 11
138.254051756
 21
103.1442260865
  0
LINE
  8
0
 62
7
  6
CONTINUOUS
 10
66.8540224913
 20
103.1442260865
 11
69.8040224913
 21
103.1442260865
  0
LINE
  8
0
 62
7
  6
CONTINUOUS
 10
80.954051756
 20
103.1442260865
 11
89.1540224913
 21
103.1442260865
  0
LINE
  8
0
 62
7
  6
CONTINUOUS
 10
100.054051756
 20
103.1442260865
 11
108.2540224913
 21
103.1442260865
  0
LINE
  8
0
 62
7
  6
CONTINUOUS
 10
119.154051756
 20
103.1442260865
 11
127.3540224913
 21
103.1442260865
  0
LINE
  8
0
 62
7
  6
CONTINUOUS
 10
214.904051756
 20
103.1442260865
 11
217.8540224913
 21
103.1442260865
  0
LINE
  8
0
 62
7
  6
CONTINUOUS
 10
203.7540224913
 20
104.3392365467
 11
195.5540659504
 21
104.3392365467
  0
LINE
  8
0
 62
7
  6
CONTINUOUS
 10
184.6540224913
 20
104.3392365467
 11
176.4540659504
 21
104.3392365467
  0
LINE
  8
0
 62
7
  6
CONTINUOUS
 10
165.5540224913
 20
104.3392365467
 11
157.3540659504
 21
104.3392365467
  0
LINE
  8
0
 62
7
  6
CONTINUOUS
 10
146.4540224913
 20
104.3392365467
 11
138.2540659504
 21
104.3392365467
  0
LINE
  8
0
 62
7
  6
CONTINUOUS
 10
66.8540224913
 20
104.3392365467
 11
69.8040224913
 21
104.3392365467
  0
LINE
  8
0
 62
7
  6
CONTINUOUS
 10
80.9540659504
 20
104.3392365467
 11
89.1540224913
 21
104.3392365467
  0
LINE
  8
0
 62
7
  6
CONTINUOUS
 10
100.0540659504
 20
104.3392365467
 11
108.2540224913
 21
104.3392365467
  0
LINE
  8
0
 62
7
  6
CONTINUOUS
 10
119.1540659504
 20
104.3392365467
 11
127.3540224913
 21
104.3392365467
  0
LINE
  8
0
 62
7
  6
CONTINUOUS
 10
214.9040659504
 20
104.3392365467
 11
217.8540224913
 21
104.3392365467
  0
LINE
  8
0
 62
7
  6
CONTINUOUS
 10
203.7540224913
 20
105.5342470069
 11
195.5540801448
 21
105.5342470069
  0
LINE
  8
0
 62
7
  6
CONTINUOUS
 10
184.6540224913
 20
105.5342470069
 11
176.4540801448
 21
105.5342470069
  0
LINE
  8
0
 62
7
  6
CONTINUOUS
 10
165.5540224913
 20
105.5342470069
 11
157.3540801448
 21
105.5342470069
  0
LINE
  8
0
 62
7
  6
CONTINUOUS
 10
146.4540224913
 20
105.5342470069
 11
138.2540801448
 21
105.5342470069
  0
LINE
  8
0
 62
7
  6
CONTINUOUS
 10
66.8540224913
 20
105.5342470069
 11
69.8040224913
 21
105.5342470069
  0
LINE
  8
0
 62
7
  6
CONTINUOUS
 10
80.9540801448
 20
105.5342470069
 11
89.1540224913
 21
105.5342470069
  0
LINE
  8
0
 62
7
  6
CONTINUOUS
 10
100.0540801448
 20
105.5342470069
 11
108.2540224913
 21
105.5342470069
  0
LINE
  8
0
 62
7
  6
CONTINUOUS
 10
119.1540801448
 20
105.5342470069
 11
127.3540224913
 21
105.5342470069
  0
LINE
  8
0
 62
7
  6
CONTINUOUS
 10
214.9040801448
 20
105.5342470069
 11
217.8540224913
 21
105.5342470069
  0
LINE
  8
0
 62
7
  6
CONTINUOUS
 10
213.9040224913
 20
105.5959296415
 11
204.7540224913
 21
105.5959296415
  0
LINE
  8
0
 62
7
  6
CONTINUOUS
 10
194.5540224913
 20
105.5959296415
 11
185.6540224913
 21
105.5959296415
  0
LINE
  8
0
 62
7
  6
CONTINUOUS
 10
175.4540224913
 20
105.5959296415
 11
166.5540224913
 21
105.5959296415
  0
LINE
  8
0
 62
7
  6
CONTINUOUS
 10
156.3540224913
 20
105.5959296415
 11
147.4540224913
 21
105.5959296415
  0
LINE
  8
0
 62
7
  6
CONTINUOUS
 10
137.2540224913
 20
105.5959296415
 11
128.3540224913
 21
105.5959296415
  0
LINE
  8
0
 62
7
  6
CONTINUOUS
 10
118.1540224913
 20
105.5959296415
 11
109.2540224913
 21
105.5959296415
  0
LINE
  8
0
 62
7
  6
CONTINUOUS
 10
99.0540224913
 20
105.5959296415
 11
90.1540224913
 21
105.5959296415
  0
LINE
  8
0
 62
7
  6
CONTINUOUS
 10
79.9540224913
 20
105.5959296415
 11
70.8040224913
 21
105.5959296415
  0
LINE
  8
0
 62
7
  6
CONTINUOUS
 10
69.8040224913
 20
106.0959965797
 11
80.9540868164
 21
106.0959296412
  0
LINE
  8
0
 62
7
  6
CONTINUOUS
 10
89.1540224913
 20
106.0959965797
 11
100.0540868164
 21
106.0959296411
  0
LINE
  8
0
 62
7
  6
CONTINUOUS
 10
108.2540224913
 20
106.0959965797
 11
119.1540868164
 21
106.0959296411
  0
LINE
  8
0
 62
7
  6
CONTINUOUS
 10
127.3540224913
 20
106.0959965797
 11
138.2540868164
 21
106.0959296411
  0
LINE
  8
0
 62
7
  6
CONTINUOUS
 10
146.4540224913
 20
106.0959965797
 11
157.3540868164
 21
106.0959296411
  0
LINE
  8
0
 62
7
  6
CONTINUOUS
 10
165.5540224913
 20
106.0959965797
 11
176.4540868164
 21
106.0959296411
  0
LINE
  8
0
 62
7
  6
CONTINUOUS
 10
184.6540224913
 20
106.0959965797
 11
195.5540868164
 21
106.0959296411
  0
LINE
  8
0
 62
7
  6
CONTINUOUS
 10
203.7540224913
 20
106.0959965797
 11
214.9040868164
 21
106.0959296412
  0
LINE
  8
0
 62
7
  6
CONTINUOUS
 10
66.8540224913
 20
106.7292574671
 11
217.8540224913
 21
106.7292574671
  0
LINE
  8
0
 62
7
  6
CONTINUOUS
 10
139.2089074291
 20
101.509299308
 11
138.2540436782
 21
102.4641630588
  0
LINE
  8
0
 62
7
  6
CONTINUOUS
 10
134.6222547924
 20
106.0959519447
 11
123.7955377627
 21
116.9226689744
  0
LINE
  8
0
 62
7
  6
CONTINUOUS
 10
141.5989283495
 20
101.509299308
 11
138.2540720666
 21
104.8541555909
  0
LINE
  8
0
 62
7
  6
CONTINUOUS
 10
137.0122903903
 20
106.0959372672
 11
126.1855586831
 21
116.9226689744
  0
LINE
  8
0
 62
7
  6
CONTINUOUS
 10
143.9889492699
 20
101.509299308
 11
128.5755796035
 21
116.9226689744
  0
POLYLINE
  8
0
 62
7
  6
CONTINUOUS
 66
1
 70
0
  0
VERTEX
  8
0
 62
7
  6
CONTINUOUS
 10
137.7540224913
 20
100.7595544366
  0
VERTEX
  8
0
 62
7
  6
CONTINUOUS
 10
137.7623960308
 20
100.7447634074
  0
VERTEX
  8
0
 62
7
  6
CONTINUOUS
 10
137.7873050926
 20
100.7306049994
  0
VERTEX
  8
0
 62
7
  6
CONTINUOUS
 10
137.8280234404
 20
100.7175282258
  0
VERTEX
  8
0
 62
7
  6
CONTINUOUS
 10
137.8832839327
 20
100.7059426946
  0
VERTEX
  8
0
 62
7
  6
CONTINUOUS
 10
137.9158289095
 20
100.7008238491
  0
VERTEX
  8
0
 62
7
  6
CONTINUOUS
 10
137.9894078992
 20
100.69213222
  0
VERTEX
  8
0
 62
7
  6
CONTINUOUS
 10
138.0722123561
 20
100.6857195252
  0
VERTEX
  8
0
 62
7
  6
CONTINUOUS
 10
138.1614342546
 20
100.6817859466
  0
VERTEX
  8
0
 62
7
  6
CONTINUOUS
 10
138.2540224913
 20
100.6804588269
  0
SEQEND
  0
LINE
  8
0
 62
7
  6
CONTINUOUS
 10
138.2540323363
 20
101.509299308
 11
138.2540868164
 21
106.0959296411
  0
LINE
  8
0
 62
7
  6
CONTINUOUS
 10
138.7689911107
 20
101.509299308
 11
138.7689911107
 21
116.9226689744
  0
LINE
  8
0
 62
7
  6
CONTINUOUS
 10
139.9640015709
 20
101.509299308
 11
139.9640015709
 21
116.9226689744
  0
LINE
  8
0
 62
7
  6
CONTINUOUS
 10
141.1590120311
 20
101.509299308
 11
141.1590120311
 21
116.9226689744
  0
LINE
  8
1_AXIS
 62
2
  6
CENTER
 10
142.3540224913
 20
129.9358183391
 11
142.3540224913
 21
113.509399308
  0
LINE
  8
1_AXIS
 62
2
  6
CONTINUOUS
 10
142.3540224913
 20
112.559299308
 11
142.3540224913
 21
110.459299308
  0
LINE
  8
1_AXIS
 62
2
  6
CENTER
 10
142.3540224913
 20
92.0573408304
 11
142.3540224913
 21
109.509199308
  0
LINE
  8
0
 62
7
  6
CONTINUOUS
 10
142.3540224913
 20
101.509299308
 11
142.3540224913
 21
116.9226689744
  0
POLYLINE
  8
0
 62
7
  6
CONTINUOUS
 66
1
 70
0
  0
VERTEX
  8
0
 62
7
  6
CONTINUOUS
 10
147.3040224913
 20
122.2590441794
  0
VERTEX
  8
0
 62
7
  6
CONTINUOUS
 10
147.3123960308
 20
122.2738352085
  0
VERTEX
  8
0
 62
7
  6
CONTINUOUS
 10
147.3373050926
 20
122.2879936165
  0
VERTEX
  8
0
 62
7
  6
CONTINUOUS
 10
147.3780234404
 20
122.3010703901
  0
VERTEX
  8
0
 62
7
  6
CONTINUOUS
 10
147.4332839327
 20
122.3126559213
  0
VERTEX
  8
0
 62
7
  6
CONTINUOUS
 10
147.4658289095
 20
122.3177747668
  0
VERTEX
  8
0
 62
7
  6
CONTINUOUS
 10
147.5394078992
 20
122.3264663959
  0
VERTEX
  8
0
 62
7
  6
CONTINUOUS
 10
147.6222123561
 20
122.3328790907
  0
VERTEX
  8
0
 62
7
  6
CONTINUOUS
 10
147.7114342546
 20
122.3368126694
  0
VERTEX
  8
0
 62
7
  6
CONTINUOUS
 10
147.8040224913
 20
122.338139789
  0
SEQEND
  0
LINE
  8
0
 62
7
  6
CONTINUOUS
 10
126.3789701903
 20
101.509299308
 11
127.3540224913
 21
102.484351609
  0
LINE
  8
0
 62
7
  6
CONTINUOUS
 10
130.9656452827
 20
106.0959744003
 11
141.7923398567
 21
116.9226689744
  0
LINE
  8
0
 62
7
  6
CONTINUOUS
 10
133.3556515258
 20
106.095959723
 11
144.1823607772
 21
116.9226689744
  0
LINE
  8
0
 62
7
  6
CONTINUOUS
 10
147.8040224913
 20
120.5443306886
 11
148.7689911107
 21
121.509299308
  0
LINE
  8
0
 62
7
  6
CONTINUOUS
 10
135.7456577689
 20
106.0959450457
 11
146.5723816976
 21
116.9226689744
  0
LINE
  8
0
 62
7
  6
CONTINUOUS
 10
147.8040224913
 20
118.1543097682
 11
151.1590120311
 21
121.509299308
  0
LINE
  8
0
 62
7
  6
CONTINUOUS
 10
66.8540224913
 20
107.9242679273
 11
217.8540224913
 21
107.9242679273
  0
LINE
  8
0
 62
7
  6
CONTINUOUS
 10
66.8540224913
 20
109.1192783875
 11
217.8540224913
 21
109.1192783875
  0
LINE
  8
0
 62
7
  6
CONTINUOUS
 10
66.8540224913
 20
110.3142888478
 11
217.8540224913
 21
110.3142888478
  0
LINE
  8
1_AXIS
 62
2
  6
CENTER
 10
224.1496910035
 20
111.509299308
 11
144.3541224913
 21
111.509299308
  0
LINE
  8
1_AXIS
 62
2
  6
CONTINUOUS
 10
143.4040224913
 20
111.509299308
 11
141.3040224913
 21
111.509299308
  0
LINE
  8
1_AXIS
 62
2
  6
CENTER
 10
64.0555733564
 20
111.509299308
 11
140.3539224913
 21
111.509299308
  0
LINE
  8
0
 62
7
  6
CONTINUOUS
 10
66.8540224913
 20
111.509299308
 11
217.8540224913
 21
111.509299308
  0
LINE
  8
0
 62
7
  6
CONTINUOUS
 10
146.3789701903
 20
101.509299308
 11
128.7040224913
 21
119.1842470069
  0
LINE
  8
0
 62
7
  6
CONTINUOUS
 10
146.4540224913
 20
103.8242679273
 11
128.7689911107
 21
121.509299308
  0
LINE
  8
0
 62
7
  6
CONTINUOUS
 10
146.5723154858
 20
106.0959958533
 11
131.1590120311
 21
121.509299308
  0
LINE
  8
0
 62
7
  6
CONTINUOUS
 10
143.5490329516
 20
101.509299308
 11
143.5490329516
 21
116.9226689744
  0
LINE
  8
0
 62
7
  6
CONTINUOUS
 10
144.7440434118
 20
101.509299308
 11
144.7440434118
 21
116.9226689744
  0
LINE
  8
0
 62
7
  6
CONTINUOUS
 10
145.939053872
 20
101.509299308
 11
145.939053872
 21
116.9226689744
  0
LINE
  8
0
 62
7
  6
CONTINUOUS
 10
146.4540224913
 20
101.509299308
 11
146.4540224913
 21
106.0959965797
  0
LINE
  8
0
 62
7
  6
CONTINUOUS
 10
146.9540224913
 20
105.0959296415
 11
146.9540224913
 21
98.244299308
  0
LINE
  8
0
 62
7
  6
CONTINUOUS
 10
147.1340643322
 20
106.0959924035
 11
147.1340643322
 21
116.9226689744
  0
LINE
  8
0
 62
7
  6
CONTINUOUS
 10
147.3040224913
 20
117.9226689514
 11
147.3040224913
 21
124.774299308
  0
LINE
  8
0
 62
7
  6
CONTINUOUS
 10
147.8040224913
 20
116.9226689744
 11
147.8040224913
 21
121.509299308
  0
LINE
  8
0
 62
7
  6
CONTINUOUS
 10
138.135664012
 20
106.0959303684
 11
153.5490329516
 21
121.509299308
  0
LINE
  8
0
 62
7
  6
CONTINUOUS
 10
138.254059834
 20
103.82430527
 11
155.939053872
 21
121.509299308
  0
LINE
  8
0
 62
7
  6
CONTINUOUS
 10
138.3290747924
 20
101.509299308
 11
156.0039850289
 21
119.1842095445
  0
LINE
  8
0
 62
7
  6
CONTINUOUS
 10
66.8540224913
 20
112.7043097682
 11
217.8540224913
 21
112.7043097682
  0
LINE
  8
0
 62
7
  6
CONTINUOUS
 10
66.8540224913
 20
113.8993202284
 11
217.8540224913
 21
113.8993202284
  0
LINE
  8
0
 62
7
  6
CONTINUOUS
 10
66.8540224913
 20
115.0943306886
 11
217.8540224913
 21
115.0943306886
  0
LINE
  8
0
 62
7
  6
CONTINUOUS
 10
66.8540224913
 20
116.2893411488
 11
217.8540224913
 21
116.2893411488
  0
LINE
  8
0
 62
7
  6
CONTINUOUS
 10
66.8540224913
 20
116.9226689744
 11
71.8540224913
 21
116.9226689744
  0
LINE
  8
0
 62
7
  6
CONTINUOUS
 10
79.6039581663
 20
116.9226689744
 11
90.5040224913
 21
116.9226689744
  0
LINE
  8
0
 62
7
  6
CONTINUOUS
 10
98.7039581663
 20
116.9226689744
 11
109.6040224913
 21
116.9226689744
  0
LINE
  8
0
 62
7
  6
CONTINUOUS
 10
117.8039581663
 20
116.9226689744
 11
128.7040224913
 21
116.9226689744
  0
LINE
  8
0
 62
7
  6
CONTINUOUS
 10
136.9039581663
 20
116.9226689744
 11
147.8040224913
 21
116.9226689744
  0
LINE
  8
0
 62
7
  6
CONTINUOUS
 10
156.0039581663
 20
116.9226689744
 11
166.9040224913
 21
116.9226689744
  0
LINE
  8
0
 62
7
  6
CONTINUOUS
 10
175.1039581663
 20
116.9226689744
 11
186.0040224913
 21
116.9226689744
  0
LINE
  8
0
 62
7
  6
CONTINUOUS
 10
194.2039581663
 20
116.9226689744
 11
205.1040224913
 21
116.9226689744
  0
LINE
  8
0
 62
7
  6
CONTINUOUS
 10
212.8539581784
 20
116.9226689744
 11
217.8540224913
 21
116.9226689744
  0
LINE
  8
0
 62
7
  6
CONTINUOUS
 10
148.9623510837
 20
106.0959811758
 11
138.1356632851
 21
116.9226689744
  0
LINE
  8
0
 62
7
  6
CONTINUOUS
 10
136.9039727963
 20
118.1543594632
 11
133.5490329516
 21
121.509299308
  0
LINE
  8
0
 62
7
  6
CONTINUOUS
 10
151.3523866816
 20
106.0959664983
 11
140.5256842055
 21
116.9226689744
  0
LINE
  8
0
 62
7
  6
CONTINUOUS
 10
136.9040011847
 20
120.5443519952
 11
135.939053872
 21
121.509299308
  0
LINE
  8
0
 62
7
  6
CONTINUOUS
 10
158.3290747924
 20
101.509299308
 11
157.3540439178
 21
102.4843301826
  0
LINE
  8
0
 62
7
  6
CONTINUOUS
 10
153.7424222795
 20
106.0959518208
 11
142.915705126
 21
116.9226689744
  0
POLYLINE
  8
0
 62
7
  6
CONTINUOUS
 66
1
 70
0
  0
VERTEX
  8
0
 62
7
  6
CONTINUOUS
 10
137.4040224913
 20
122.2590441794
  0
VERTEX
  8
0
 62
7
  6
CONTINUOUS
 10
137.3956489519
 20
122.2738352085
  0
VERTEX
  8
0
 62
7
  6
CONTINUOUS
 10
137.3707398901
 20
122.2879936165
  0
VERTEX
  8
0
 62
7
  6
CONTINUOUS
 10
137.3300215423
 20
122.3010703901
  0
VERTEX
  8
0
 62
7
  6
CONTINUOUS
 10
137.27476105
 20
122.3126559213
  0
VERTEX
  8
0
 62
7
  6
CONTINUOUS
 10
137.2422160732
 20
122.3177747668
  0
VERTEX
  8
0
 62
7
  6
CONTINUOUS
 10
137.1686370835
 20
122.3264663959
  0
VERTEX
  8
0
 62
7
  6
CONTINUOUS
 10
137.0858326266
 20
122.3328790907
  0
VERTEX
  8
0
 62
7
  6
CONTINUOUS
 10
136.9966107281
 20
122.3368126694
  0
VERTEX
  8
0
 62
7
  6
CONTINUOUS
 10
136.9040224913
 20
122.338139789
  0
SEQEND
  0
LINE
  8
0
 62
7
  6
CONTINUOUS
 10
148.3290747924
 20
106.0959850648
 11
148.3290747924
 21
121.509299308
  0
LINE
  8
0
 62
7
  6
CONTINUOUS
 10
149.5240852526
 20
106.0959777261
 11
149.5240852526
 21
121.509299308
  0
LINE
  8
0
 62
7
  6
CONTINUOUS
 10
150.7190957128
 20
106.0959703874
 11
150.7190957128
 21
121.509299308
  0
LINE
  8
0
 62
7
  6
CONTINUOUS
 10
151.914106173
 20
106.0959630487
 11
151.914106173
 21
121.509299308
  0
LINE
  8
0
 62
7
  6
CONTINUOUS
 10
153.1091166332
 20
106.09595571
 11
153.1091166332
 21
121.509299308
  0
POLYLINE
  8
0
 62
7
  6
CONTINUOUS
 66
1
 70
0
  0
VERTEX
  8
0
 62
7
  6
CONTINUOUS
 10
146.9540224913
 20
100.7595544366
  0
VERTEX
  8
0
 62
7
  6
CONTINUOUS
 10
146.9456489519
 20
100.7447634074
  0
VERTEX
  8
0
 62
7
  6
CONTINUOUS
 10
146.9207398901
 20
100.7306049994
  0
VERTEX
  8
0
 62
7
  6
CONTINUOUS
 10
146.8800215423
 20
100.7175282258
  0
VERTEX
  8
0
 62
7
  6
CONTINUOUS
 10
146.82476105
 20
100.7059426946
  0
VERTEX
  8
0
 62
7
  6
CONTINUOUS
 10
146.7922160732
 20
100.7008238491
  0
VERTEX
  8
0
 62
7
  6
CONTINUOUS
 10
146.7186370835
 20
100.69213222
  0
VERTEX
  8
0
 62
7
  6
CONTINUOUS
 10
146.6358326266
 20
100.6857195252
  0
VERTEX
  8
0
 62
7
  6
CONTINUOUS
 10
146.5466107281
 20
100.6817859466
  0
VERTEX
  8
0
 62
7
  6
CONTINUOUS
 10
146.4540224913
 20
100.6804588269
  0
SEQEND
  0
LINE
  8
0
 62
7
  6
CONTINUOUS
 10
140.7190957128
 20
101.509299308
 11
156.1324653792
 21
116.9226689744
  0
LINE
  8
0
 62
7
  6
CONTINUOUS
 10
143.1091166332
 20
101.509299308
 11
146.4540224913
 21
104.8542051661
  0
LINE
  8
0
 62
7
  6
CONTINUOUS
 10
147.695806279
 20
106.0959889538
 11
158.5224862996
 21
116.9226689744
  0
LINE
  8
0
 62
7
  6
CONTINUOUS
 10
145.4991375536
 20
101.509299308
 11
146.4540224913
 21
102.4641842457
  0
LINE
  8
0
 62
7
  6
CONTINUOUS
 10
150.0858125221
 20
106.0959742765
 11
160.91250722
 21
116.9226689744
  0
LINE
  8
0
 62
7
  6
CONTINUOUS
 10
152.4758187652
 20
106.0959595992
 11
163.3025281404
 21
116.9226689744
  0
LINE
  8
0
 62
7
  6
CONTINUOUS
 10
166.9040224913
 20
120.5241633253
 11
167.889158474
 21
121.509299308
  0
POLYLINE
  8
0
 62
7
  6
CONTINUOUS
 66
1
 70
0
  0
VERTEX
  8
0
 62
7
  6
CONTINUOUS
 10
66.8540224913
 20
117.4226689744
  0
VERTEX
  8
0
 62
7
  6
CONTINUOUS
 10
66.80122718
 20
117.4198738166
  0
VERTEX
  8
0
 62
7
  6
CONTINUOUS
 10
66.6984926565
 20
117.3978641663
  0
VERTEX
  8
0
 62
7
  6
CONTINUOUS
 10
66.6031016174
 20
117.3551487023
  0
VERTEX
  8
0
 62
7
  6
CONTINUOUS
 10
66.5189562391
 20
117.2937897183
  0
VERTEX
  8
0
 62
7
  6
CONTINUOUS
 10
66.4824850295
 20
117.2572730904
  0
VERTEX
  8
0
 62
7
  6
CONTINUOUS
 10
66.4213263873
 20
117.1732165378
  0
VERTEX
  8
0
 62
7
  6
CONTINUOUS
 10
66.3787578298
 20
117.0779863962
  0
VERTEX
  8
0
 62
7
  6
CONTINUOUS
 10
66.3568109125
 20
116.9754008036
  0
VERTEX
  8
0
 62
7
  6
CONTINUOUS
 10
66.3540224913
 20
116.9226689744
  0
SEQEND
  0
LINE
  8
0
 62
7
  6
CONTINUOUS
 10
66.8540224913
 20
117.4226689744
 11
70.8540224913
 21
117.4226689744
  0
LINE
  8
0
 62
7
  6
CONTINUOUS
 10
80.6040224913
 20
117.4226689744
 11
89.5040224913
 21
117.4226689744
  0
LINE
  8
0
 62
7
  6
CONTINUOUS
 10
99.7040224913
 20
117.4226689744
 11
108.6040224913
 21
117.4226689744
  0
LINE
  8
0
 62
7
  6
CONTINUOUS
 10
118.8040224913
 20
117.4226689744
 11
127.7040224913
 21
117.4226689744
  0
LINE
  8
0
 62
7
  6
CONTINUOUS
 10
137.9040224913
 20
117.4226689744
 11
146.8040224913
 21
117.4226689744
  0
LINE
  8
0
 62
7
  6
CONTINUOUS
 10
157.0040224913
 20
117.4226689744
 11
165.9040224913
 21
117.4226689744
  0
LINE
  8
0
 62
7
  6
CONTINUOUS
 10
176.1040224913
 20
117.4226689744
 11
185.0040224913
 21
117.4226689744
  0
LINE
  8
0
 62
7
  6
CONTINUOUS
 10
195.2040224913
 20
117.4226689744
 11
204.1040224913
 21
117.4226689744
  0
LINE
  8
0
 62
7
  6
CONTINUOUS
 10
213.8540224913
 20
117.4226689744
 11
217.8540224913
 21
117.4226689744
  0
LINE
  8
0
 62
7
  6
CONTINUOUS
 10
212.8539648489
 20
117.484351609
 11
205.1040224913
 21
117.484351609
  0
LINE
  8
0
 62
7
  6
CONTINUOUS
 10
71.8540224913
 20
117.484351609
 11
79.6039648379
 21
117.484351609
  0
LINE
  8
0
 62
7
  6
CONTINUOUS
 10
90.5040224913
 20
117.484351609
 11
98.7039648379
 21
117.484351609
  0
LINE
  8
0
 62
7
  6
CONTINUOUS
 10
109.6040224913
 20
117.484351609
 11
117.8039648379
 21
117.484351609
  0
LINE
  8
0
 62
7
  6
CONTINUOUS
 10
128.7040224913
 20
117.484351609
 11
136.9039648379
 21
117.484351609
  0
LINE
  8
0
 62
7
  6
CONTINUOUS
 10
147.8040224913
 20
117.484351609
 11
156.0039648379
 21
117.484351609
  0
LINE
  8
0
 62
7
  6
CONTINUOUS
 10
166.9040224913
 20
117.484351609
 11
175.1039648379
 21
117.484351609
  0
LINE
  8
0
 62
7
  6
CONTINUOUS
 10
186.0040224913
 20
117.484351609
 11
194.2039648379
 21
117.484351609
  0
LINE
  8
0
 62
7
  6
CONTINUOUS
 10
212.8539790405
 20
118.6793620692
 11
205.1040224913
 21
118.6793620692
  0
LINE
  8
0
 62
7
  6
CONTINUOUS
 10
71.8540224913
 20
118.6793620692
 11
79.6039790323
 21
118.6793620692
  0
LINE
  8
0
 62
7
  6
CONTINUOUS
 10
90.5040224913
 20
118.6793620692
 11
98.7039790323
 21
118.6793620692
  0
LINE
  8
0
 62
7
  6
CONTINUOUS
 10
109.6040224913
 20
118.6793620692
 11
117.8039790323
 21
118.6793620692
  0
LINE
  8
0
 62
7
  6
CONTINUOUS
 10
128.7040224913
 20
118.6793620692
 11
136.9039790323
 21
118.6793620692
  0
LINE
  8
0
 62
7
  6
CONTINUOUS
 10
147.8040224913
 20
118.6793620692
 11
156.0039790323
 21
118.6793620692
  0
LINE
  8
0
 62
7
  6
CONTINUOUS
 10
166.9040224913
 20
118.6793620692
 11
175.1039790323
 21
118.6793620692
  0
LINE
  8
0
 62
7
  6
CONTINUOUS
 10
186.0040224913
 20
118.6793620692
 11
194.2039790323
 21
118.6793620692
  0
LINE
  8
0
 62
7
  6
CONTINUOUS
 10
212.8539932322
 20
119.8743725294
 11
205.1040224913
 21
119.8743725294
  0
LINE
  8
0
 62
7
  6
CONTINUOUS
 10
71.8540224913
 20
119.8743725294
 11
79.6039932267
 21
119.8743725294
  0
LINE
  8
0
 62
7
  6
CONTINUOUS
 10
90.5040224913
 20
119.8743725294
 11
98.7039932267
 21
119.8743725294
  0
LINE
  8
0
 62
7
  6
CONTINUOUS
 10
109.6040224913
 20
119.8743725294
 11
117.8039932267
 21
119.8743725294
  0
LINE
  8
0
 62
7
  6
CONTINUOUS
 10
128.7040224913
 20
119.8743725294
 11
136.9039932267
 21
119.8743725294
  0
LINE
  8
0
 62
7
  6
CONTINUOUS
 10
147.8040224913
 20
119.8743725294
 11
156.0039932267
 21
119.8743725294
  0
LINE
  8
0
 62
7
  6
CONTINUOUS
 10
166.9040224913
 20
119.8743725294
 11
175.1039932267
 21
119.8743725294
  0
LINE
  8
0
 62
7
  6
CONTINUOUS
 10
186.0040224913
 20
119.8743725294
 11
194.2039932267
 21
119.8743725294
  0
LINE
  8
1_AXIS
 62
2
  6
CENTER
 10
42.4540989385
 20
121.034299308
 11
205.6873169316
 21
121.034299308
  0
LINE
  8
0
 62
7
  6
CONTINUOUS
 10
212.8540074239
 20
121.0693829896
 11
205.1040224913
 21
121.0693829896
  0
LINE
  8
0
 62
7
  6
CONTINUOUS
 10
71.8540224913
 20
121.0693829896
 11
79.604007421
 21
121.0693829896
  0
LINE
  8
0
 62
7
  6
CONTINUOUS
 10
90.5040224913
 20
121.0693829896
 11
98.704007421
 21
121.0693829896
  0
LINE
  8
0
 62
7
  6
CONTINUOUS
 10
109.6040224913
 20
121.0693829896
 11
117.804007421
 21
121.0693829896
  0
LINE
  8
0
 62
7
  6
CONTINUOUS
 10
128.7040224913
 20
121.0693829896
 11
136.904007421
 21
121.0693829896
  0
LINE
  8
0
 62
7
  6
CONTINUOUS
 10
147.8040224913
 20
121.0693829896
 11
156.004007421
 21
121.0693829896
  0
LINE
  8
0
 62
7
  6
CONTINUOUS
 10
166.9040224913
 20
121.0693829896
 11
175.104007421
 21
121.0693829896
  0
LINE
  8
0
 62
7
  6
CONTINUOUS
 10
186.0040224913
 20
121.0693829896
 11
194.204007421
 21
121.0693829896
  0
LINE
  8
0
 62
7
  6
CONTINUOUS
 10
71.8540224913
 20
121.509299308
 11
79.6040126464
 21
121.509299308
  0
LINE
  8
0
 62
7
  6
CONTINUOUS
 10
90.5040224913
 20
121.509299308
 11
98.7040126464
 21
121.509299308
  0
LINE
  8
0
 62
7
  6
CONTINUOUS
 10
109.6040224913
 20
121.509299308
 11
117.8040126464
 21
121.509299308
  0
LINE
  8
0
 62
7
  6
CONTINUOUS
 10
128.7040224913
 20
121.509299308
 11
136.9040126464
 21
121.509299308
  0
LINE
  8
0
 62
7
  6
CONTINUOUS
 10
147.8040224913
 20
121.509299308
 11
156.0040126464
 21
121.509299308
  0
LINE
  8
0
 62
7
  6
CONTINUOUS
 10
166.9040224913
 20
121.509299308
 11
175.1040126464
 21
121.509299308
  0
LINE
  8
0
 62
7
  6
CONTINUOUS
 10
186.0040224913
 20
121.509299308
 11
194.2040126464
 21
121.509299308
  0
LINE
  8
0
 62
7
  6
CONTINUOUS
 10
205.1040224913
 20
121.509299308
 11
212.8540126482
 21
121.509299308
  0
LINE
  8
0
 62
7
  6
CONTINUOUS
 10
71.8540224913
 20
122.338139789
 11
79.6040224913
 21
122.338139789
  0
LINE
  8
0
 62
7
  6
CONTINUOUS
 10
90.5040224913
 20
122.338139789
 11
98.7040224913
 21
122.338139789
  0
LINE
  8
0
 62
7
  6
CONTINUOUS
 10
109.6040224913
 20
122.338139789
 11
117.8040224913
 21
122.338139789
  0
LINE
  8
0
 62
7
  6
CONTINUOUS
 10
128.7040224913
 20
122.338139789
 11
136.9040224913
 21
122.338139789
  0
LINE
  8
0
 62
7
  6
CONTINUOUS
 10
147.8040224913
 20
122.338139789
 11
156.0040224913
 21
122.338139789
  0
LINE
  8
0
 62
7
  6
CONTINUOUS
 10
166.9040224913
 20
122.338139789
 11
175.1040224913
 21
122.338139789
  0
LINE
  8
0
 62
7
  6
CONTINUOUS
 10
186.0040224913
 20
122.338139789
 11
194.2040224913
 21
122.338139789
  0
LINE
  8
0
 62
7
  6
CONTINUOUS
 10
205.1040224913
 20
122.338139789
 11
212.8540224913
 21
122.338139789
  0
POLYLINE
  8
0
 62
7
  6
CONTINUOUS
 66
1
 70
0
  0
VERTEX
  8
0
 62
7
  6
CONTINUOUS
 10
217.8540224913
 20
117.4226689744
  0
VERTEX
  8
0
 62
7
  6
CONTINUOUS
 10
217.9068178027
 20
117.4198738166
  0
VERTEX
  8
0
 62
7
  6
CONTINUOUS
 10
218.0095523262
 20
117.3978641663
  0
VERTEX
  8
0
 62
7
  6
CONTINUOUS
 10
218.1049433653
 20
117.3551487023
  0
VERTEX
  8
0
 62
7
  6
CONTINUOUS
 10
218.1890887436
 20
117.2937897183
  0
VERTEX
  8
0
 62
7
  6
CONTINUOUS
 10
218.2255599532
 20
117.2572730904
  0
VERTEX
  8
0
 62
7
  6
CONTINUOUS
 10
218.2867185954
 20
117.1732165378
  0
VERTEX
  8
0
 62
7
  6
CONTINUOUS
 10
218.3292871529
 20
117.0779863962
  0
VERTEX
  8
0
 62
7
  6
CONTINUOUS
 10
218.3512340702
 20
116.9754008036
  0
VERTEX
  8
0
 62
7
  6
CONTINUOUS
 10
218.3540224913
 20
116.9226689744
  0
SEQEND
  0
LINE
  8
0
 62
7
  6
CONTINUOUS
 10
160.7190957128
 20
101.509299308
 11
157.3540723062
 21
104.8743227146
  0
LINE
  8
0
 62
7
  6
CONTINUOUS
 10
156.1324578774
 20
106.0959371433
 11
145.3057260464
 21
116.9226689744
  0
LINE
  8
0
 62
7
  6
CONTINUOUS
 10
163.1091166332
 20
101.509299308
 11
147.6957469668
 21
116.9226689744
  0
LINE
  8
0
 62
7
  6
CONTINUOUS
 10
165.4991375536
 20
101.509299308
 11
147.8040224913
 21
119.2044143702
  0
LINE
  8
0
 62
7
  6
CONTINUOUS
 10
165.5540224913
 20
103.8444352906
 11
147.889158474
 21
121.509299308
  0
POLYLINE
  8
0
 62
7
  6
CONTINUOUS
 66
1
 70
0
  0
VERTEX
  8
0
 62
7
  6
CONTINUOUS
 10
156.8540224913
 20
100.7595544366
  0
VERTEX
  8
0
 62
7
  6
CONTINUOUS
 10
156.8623960308
 20
100.7447634074
  0
VERTEX
  8
0
 62
7
  6
CONTINUOUS
 10
156.8873050926
 20
100.7306049994
  0
VERTEX
  8
0
 62
7
  6
CONTINUOUS
 10
156.9280234404
 20
100.7175282258
  0
VERTEX
  8
0
 62
7
  6
CONTINUOUS
 10
156.9832839327
 20
100.7059426946
  0
VERTEX
  8
0
 62
7
  6
CONTINUOUS
 10
157.0158289095
 20
100.7008238491
  0
VERTEX
  8
0
 62
7
  6
CONTINUOUS
 10
157.0894078992
 20
100.69213222
  0
VERTEX
  8
0
 62
7
  6
CONTINUOUS
 10
157.1722123561
 20
100.6857195252
  0
VERTEX
  8
0
 62
7
  6
CONTINUOUS
 10
157.2614342546
 20
100.6817859466
  0
VERTEX
  8
0
 62
7
  6
CONTINUOUS
 10
157.3540224913
 20
100.6804588269
  0
SEQEND
  0
LINE
  8
0
 62
7
  6
CONTINUOUS
 10
154.3041270934
 20
106.0959483713
 11
154.3041270934
 21
121.509299308
  0
LINE
  8
0
 62
7
  6
CONTINUOUS
 10
155.4991375536
 20
106.0959410326
 11
155.4991375536
 21
121.509299308
  0
LINE
  8
0
 62
7
  6
CONTINUOUS
 10
156.0039581663
 20
116.9226689744
 11
156.0040126464
 21
121.509299308
  0
LINE
  8
0
 62
7
  6
CONTINUOUS
 10
156.5040224913
 20
117.9226689744
 11
156.5040224913
 21
124.774299308
  0
LINE
  8
0
 62
7
  6
CONTINUOUS
 10
156.6941480138
 20
106.0959336939
 11
156.6941480138
 21
116.9226689744
  0
LINE
  8
0
 62
7
  6
CONTINUOUS
 10
156.8540224913
 20
105.0959296415
 11
156.8540224913
 21
98.244299308
  0
LINE
  8
0
 62
7
  6
CONTINUOUS
 10
157.3540323363
 20
101.509299308
 11
157.3540868164
 21
106.0959296411
  0
LINE
  8
0
 62
7
  6
CONTINUOUS
 10
157.889158474
 20
101.509299308
 11
157.889158474
 21
116.9226689744
  0
POLYLINE
  8
0
 62
7
  6
CONTINUOUS
 66
1
 70
0
  0
VERTEX
  8
0
 62
7
  6
CONTINUOUS
 10
166.4040224913
 20
122.2590441794
  0
VERTEX
  8
0
 62
7
  6
CONTINUOUS
 10
166.4123960308
 20
122.2738352085
  0
VERTEX
  8
0
 62
7
  6
CONTINUOUS
 10
166.4373050926
 20
122.2879936165
  0
VERTEX
  8
0
 62
7
  6
CONTINUOUS
 10
166.4780234404
 20
122.3010703901
  0
VERTEX
  8
0
 62
7
  6
CONTINUOUS
 10
166.5332839327
 20
122.3126559213
  0
VERTEX
  8
0
 62
7
  6
CONTINUOUS
 10
166.5658289095
 20
122.3177747668
  0
VERTEX
  8
0
 62
7
  6
CONTINUOUS
 10
166.6394078992
 20
122.3264663959
  0
VERTEX
  8
0
 62
7
  6
CONTINUOUS
 10
166.7222123561
 20
122.3328790907
  0
VERTEX
  8
0
 62
7
  6
CONTINUOUS
 10
166.8114342546
 20
122.3368126694
  0
VERTEX
  8
0
 62
7
  6
CONTINUOUS
 10
166.9040224913
 20
122.338139789
  0
SEQEND
  0
LINE
  8
0
 62
7
  6
CONTINUOUS
 10
154.8658250083
 20
106.0959449219
 11
165.6925490609
 21
116.9226689744
  0
LINE
  8
0
 62
7
  6
CONTINUOUS
 10
166.9040224913
 20
118.1341424049
 11
170.2791793944
 21
121.509299308
  0
LINE
  8
0
 62
7
  6
CONTINUOUS
 10
157.2558312514
 20
106.0959302445
 11
172.6692003148
 21
121.509299308
  0
LINE
  8
0
 62
7
  6
CONTINUOUS
 10
157.3540595945
 20
103.8041376672
 11
175.0592212352
 21
121.509299308
  0
LINE
  8
0
 62
7
  6
CONTINUOUS
 10
71.8540224913
 20
125.274299308
 11
79.6040224913
 21
125.274299308
  0
LINE
  8
0
 62
7
  6
CONTINUOUS
 10
90.5040224913
 20
125.274299308
 11
98.7040224913
 21
125.274299308
  0
LINE
  8
0
 62
7
  6
CONTINUOUS
 10
109.6040224913
 20
125.274299308
 11
117.8040224913
 21
125.274299308
  0
LINE
  8
0
 62
7
  6
CONTINUOUS
 10
128.7040224913
 20
125.274299308
 11
136.9040224913
 21
125.274299308
  0
LINE
  8
0
 62
7
  6
CONTINUOUS
 10
147.8040224913
 20
125.274299308
 11
156.0040224913
 21
125.274299308
  0
LINE
  8
0
 62
7
  6
CONTINUOUS
 10
166.9040224913
 20
125.274299308
 11
175.1040224913
 21
125.274299308
  0
LINE
  8
0
 62
7
  6
CONTINUOUS
 10
186.0040224913
 20
125.274299308
 11
194.2040224913
 21
125.274299308
  0
LINE
  8
0
 62
7
  6
CONTINUOUS
 10
205.1040224913
 20
125.274299308
 11
212.8540224913
 21
125.274299308
  0
LINE
  8
0
 62
7
  6
CONTINUOUS
 10
165.692482973
 20
106.0959957294
 11
150.2791793944
 21
121.509299308
  0
LINE
  8
0
 62
7
  6
CONTINUOUS
 10
168.0825185709
 20
106.0959810519
 11
157.2558306484
 21
116.9226689744
  0
LINE
  8
0
 62
7
  6
CONTINUOUS
 10
156.0039730359
 20
118.1745265869
 11
152.6692003148
 21
121.509299308
  0
LINE
  8
0
 62
7
  6
CONTINUOUS
 10
170.4725541688
 20
106.0959663744
 11
159.6458515688
 21
116.9226689744
  0
LINE
  8
0
 62
7
  6
CONTINUOUS
 10
156.0040014242
 20
120.564519119
 11
155.0592212352
 21
121.509299308
  0
LINE
  8
0
 62
7
  6
CONTINUOUS
 10
159.0841689342
 20
101.509299308
 11
159.0841689342
 21
116.9226689744
  0
LINE
  8
0
 62
7
  6
CONTINUOUS
 10
160.2791793944
 20
101.509299308
 11
160.2791793944
 21
116.9226689744
  0
LINE
  8
0
 62
7
  6
CONTINUOUS
 10
161.4741898546
 20
101.509299308
 11
161.4741898546
 21
116.9226689744
  0
LINE
  8
0
 62
7
  6
CONTINUOUS
 10
162.6692003148
 20
101.509299308
 11
162.6692003148
 21
116.9226689744
  0
LINE
  8
0
 62
7
  6
CONTINUOUS
 10
157.4492421557
 20
101.509299308
 11
175.1039847893
 21
119.1640419416
  0
LINE
  8
0
 62
7
  6
CONTINUOUS
 10
159.8392630761
 20
101.509299308
 11
175.2526327425
 21
116.9226689744
  0
LINE
  8
0
 62
7
  6
CONTINUOUS
 10
162.2292839965
 20
101.509299308
 11
165.5540224913
 21
104.8340378028
  0
LINE
  8
0
 62
7
  6
CONTINUOUS
 10
166.8159735185
 20
106.0959888299
 11
177.6426536629
 21
116.9226689744
  0
LINE
  8
0
 62
7
  6
CONTINUOUS
 10
177.4492421557
 20
101.509299308
 11
176.4540441573
 21
102.5044973063
  0
LINE
  8
0
 62
7
  6
CONTINUOUS
 10
172.8625897667
 20
106.095951697
 11
162.0358724892
 21
116.9226689744
  0
LINE
  8
0
 62
7
  6
CONTINUOUS
 10
179.8392630761
 20
101.509299308
 11
176.4540725457
 21
104.8944898383
  0
LINE
  8
0
 62
7
  6
CONTINUOUS
 10
175.2526253646
 20
106.0959370195
 11
164.4258934096
 21
116.9226689744
  0
LINE
  8
0
 62
7
  6
CONTINUOUS
 10
182.2292839965
 20
101.509299308
 11
166.8159143301
 21
116.9226689744
  0
POLYLINE
  8
0
 62
7
  6
CONTINUOUS
 66
1
 70
0
  0
VERTEX
  8
0
 62
7
  6
CONTINUOUS
 10
156.5040224913
 20
122.2590441794
  0
VERTEX
  8
0
 62
7
  6
CONTINUOUS
 10
156.4956489519
 20
122.2738352085
  0
VERTEX
  8
0
 62
7
  6
CONTINUOUS
 10
156.4707398901
 20
122.2879936165
  0
VERTEX
  8
0
 62
7
  6
CONTINUOUS
 10
156.4300215423
 20
122.3010703901
  0
VERTEX
  8
0
 62
7
  6
CONTINUOUS
 10
156.37476105
 20
122.3126559213
  0
VERTEX
  8
0
 62
7
  6
CONTINUOUS
 10
156.3422160732
 20
122.3177747668
  0
VERTEX
  8
0
 62
7
  6
CONTINUOUS
 10
156.2686370835
 20
122.3264663959
  0
VERTEX
  8
0
 62
7
  6
CONTINUOUS
 10
156.1858326266
 20
122.3328790907
  0
VERTEX
  8
0
 62
7
  6
CONTINUOUS
 10
156.0966107281
 20
122.3368126694
  0
VERTEX
  8
0
 62
7
  6
CONTINUOUS
 10
156.0040224913
 20
122.338139789
  0
SEQEND
  0
LINE
  8
0
 62
7
  6
CONTINUOUS
 10
163.864210775
 20
101.509299308
 11
163.864210775
 21
116.9226689744
  0
LINE
  8
0
 62
7
  6
CONTINUOUS
 10
165.0592212352
 20
101.509299308
 11
165.0592212352
 21
116.9226689744
  0
LINE
  8
0
 62
7
  6
CONTINUOUS
 10
165.5540224913
 20
101.509299308
 11
165.5540224913
 21
106.0959965797
  0
LINE
  8
0
 62
7
  6
CONTINUOUS
 10
166.0540224913
 20
105.0959296415
 11
166.0540224913
 21
98.244299308
  0
LINE
  8
0
 62
7
  6
CONTINUOUS
 10
166.2542316955
 20
106.0959922797
 11
166.2542316955
 21
116.9226689744
  0
LINE
  8
0
 62
7
  6
CONTINUOUS
 10
166.4040224913
 20
117.9226689514
 11
166.4040224913
 21
124.774299308
  0
LINE
  8
0
 62
7
  6
CONTINUOUS
 10
166.9040224913
 20
116.9226689744
 11
166.9040224913
 21
121.509299308
  0
LINE
  8
0
 62
7
  6
CONTINUOUS
 10
167.4492421557
 20
106.095984941
 11
167.4492421557
 21
121.509299308
  0
LINE
  8
0
 62
7
  6
CONTINUOUS
 10
168.6442526159
 20
106.0959776023
 11
168.6442526159
 21
121.509299308
  0
POLYLINE
  8
0
 62
7
  6
CONTINUOUS
 66
1
 70
0
  0
VERTEX
  8
0
 62
7
  6
CONTINUOUS
 10
166.0540224913
 20
100.7595544366
  0
VERTEX
  8
0
 62
7
  6
CONTINUOUS
 10
166.0456489519
 20
100.7447634074
  0
VERTEX
  8
0
 62
7
  6
CONTINUOUS
 10
166.0207398901
 20
100.7306049994
  0
VERTEX
  8
0
 62
7
  6
CONTINUOUS
 10
165.9800215423
 20
100.7175282258
  0
VERTEX
  8
0
 62
7
  6
CONTINUOUS
 10
165.92476105
 20
100.7059426946
  0
VERTEX
  8
0
 62
7
  6
CONTINUOUS
 10
165.8922160732
 20
100.7008238491
  0
VERTEX
  8
0
 62
7
  6
CONTINUOUS
 10
165.8186370835
 20
100.69213222
  0
VERTEX
  8
0
 62
7
  6
CONTINUOUS
 10
165.7358326266
 20
100.6857195252
  0
VERTEX
  8
0
 62
7
  6
CONTINUOUS
 10
165.6466107281
 20
100.6817859466
  0
VERTEX
  8
0
 62
7
  6
CONTINUOUS
 10
165.5540224913
 20
100.6804588269
  0
SEQEND
  0
LINE
  8
0
 62
7
  6
CONTINUOUS
 10
164.6193049169
 20
101.509299308
 11
165.5540224913
 21
102.4440168824
  0
LINE
  8
0
 62
7
  6
CONTINUOUS
 10
169.2059797616
 20
106.0959741526
 11
180.0326745833
 21
116.9226689744
  0
LINE
  8
0
 62
7
  6
CONTINUOUS
 10
171.5959860047
 20
106.0959594753
 11
182.4226955037
 21
116.9226689744
  0
LINE
  8
0
 62
7
  6
CONTINUOUS
 10
186.0040224913
 20
120.503995962
 11
187.0093258373
 21
121.509299308
  0
LINE
  8
0
 62
7
  6
CONTINUOUS
 10
173.9859922478
 20
106.095944798
 11
184.8127164241
 21
116.9226689744
  0
LINE
  8
0
 62
7
  6
CONTINUOUS
 10
186.0040224913
 20
118.1139750416
 11
189.3993467577
 21
121.509299308
  0
LINE
  8
0
 62
7
  6
CONTINUOUS
 10
184.6193049169
 20
101.509299308
 11
166.9040224913
 21
119.2245817335
  0
LINE
  8
0
 62
7
  6
CONTINUOUS
 10
184.6540224913
 20
103.8646026539
 11
167.0093258373
 21
121.509299308
  0
LINE
  8
0
 62
7
  6
CONTINUOUS
 10
184.8126504601
 20
106.0959956056
 11
169.3993467577
 21
121.509299308
  0
POLYLINE
  8
0
 62
7
  6
CONTINUOUS
 66
1
 70
0
  0
VERTEX
  8
0
 62
7
  6
CONTINUOUS
 10
175.9540224913
 20
100.7595544366
  0
VERTEX
  8
0
 62
7
  6
CONTINUOUS
 10
175.9623960308
 20
100.7447634074
  0
VERTEX
  8
0
 62
7
  6
CONTINUOUS
 10
175.9873050926
 20
100.7306049994
  0
VERTEX
  8
0
 62
7
  6
CONTINUOUS
 10
176.0280234404
 20
100.7175282258
  0
VERTEX
  8
0
 62
7
  6
CONTINUOUS
 10
176.0832839327
 20
100.7059426946
  0
VERTEX
  8
0
 62
7
  6
CONTINUOUS
 10
176.1158289095
 20
100.7008238491
  0
VERTEX
  8
0
 62
7
  6
CONTINUOUS
 10
176.1894078992
 20
100.69213222
  0
VERTEX
  8
0
 62
7
  6
CONTINUOUS
 10
176.2722123561
 20
100.6857195252
  0
VERTEX
  8
0
 62
7
  6
CONTINUOUS
 10
176.3614342546
 20
100.6817859466
  0
VERTEX
  8
0
 62
7
  6
CONTINUOUS
 10
176.4540224913
 20
100.6804588269
  0
SEQEND
  0
LINE
  8
0
 62
7
  6
CONTINUOUS
 10
169.8392630761
 20
106.0959702636
 11
169.8392630761
 21
121.509299308
  0
LINE
  8
0
 62
7
  6
CONTINUOUS
 10
171.0342735363
 20
106.0959629249
 11
171.0342735363
 21
121.509299308
  0
LINE
  8
0
 62
7
  6
CONTINUOUS
 10
172.2292839965
 20
106.0959555862
 11
172.2292839965
 21
121.509299308
  0
LINE
  8
0
 62
7
  6
CONTINUOUS
 10
173.4242944567
 20
106.0959482475
 11
173.4242944567
 21
121.509299308
  0
LINE
  8
0
 62
7
  6
CONTINUOUS
 10
176.3759984909
 20
106.0959301207
 11
191.7893676781
 21
121.509299308
  0
LINE
  8
0
 62
7
  6
CONTINUOUS
 10
176.4540593549
 20
103.7839700643
 11
194.1793885985
 21
121.509299308
  0
LINE
  8
0
 62
7
  6
CONTINUOUS
 10
176.5694095189
 20
101.509299308
 11
194.2039845498
 21
119.1438743388
  0
LINE
  8
0
 62
7
  6
CONTINUOUS
 10
187.202686058
 20
106.0959809281
 11
176.3759980117
 21
116.9226689744
  0
LINE
  8
0
 62
7
  6
CONTINUOUS
 10
175.1039732754
 20
118.1946937107
 11
171.7893676781
 21
121.509299308
  0
LINE
  8
0
 62
7
  6
CONTINUOUS
 10
189.5927216559
 20
106.0959662506
 11
178.7660189321
 21
116.9226689744
  0
LINE
  8
0
 62
7
  6
CONTINUOUS
 10
175.1040016638
 20
120.5846862427
 11
174.1793885985
 21
121.509299308
  0
LINE
  8
0
 62
7
  6
CONTINUOUS
 10
196.5694095189
 20
101.509299308
 11
195.5540443969
 21
102.52466443
  0
LINE
  8
0
 62
7
  6
CONTINUOUS
 10
191.9827572538
 20
106.0959515731
 11
181.1560398525
 21
116.9226689744
  0
LINE
  8
0
 62
7
  6
CONTINUOUS
 10
174.6193049169
 20
106.0959409088
 11
174.6193049169
 21
121.509299308
  0
LINE
  8
0
 62
7
  6
CONTINUOUS
 10
175.1039581663
 20
116.9226689744
 11
175.1040126464
 21
121.509299308
  0
LINE
  8
0
 62
7
  6
CONTINUOUS
 10
175.6040224913
 20
117.9226689744
 11
175.6040224913
 21
124.774299308
  0
LINE
  8
0
 62
7
  6
CONTINUOUS
 10
175.8143153771
 20
106.0959335701
 11
175.8143153771
 21
116.9226689744
  0
LINE
  8
0
 62
7
  6
CONTINUOUS
 10
175.9540224913
 20
105.0959296415
 11
175.9540224913
 21
98.244299308
  0
LINE
  8
0
 62
7
  6
CONTINUOUS
 10
176.4540323363
 20
101.509299308
 11
176.4540868164
 21
106.0959296411
  0
LINE
  8
0
 62
7
  6
CONTINUOUS
 10
177.0093258373
 20
101.509299308
 11
177.0093258373
 21
116.9226689744
  0
LINE
  8
0
 62
7
  6
CONTINUOUS
 10
178.2043362975
 20
101.509299308
 11
178.2043362975
 21
116.9226689744
  0
POLYLINE
  8
0
 62
7
  6
CONTINUOUS
 66
1
 70
0
  0
VERTEX
  8
0
 62
7
  6
CONTINUOUS
 10
185.5040224913
 20
122.2590441794
  0
VERTEX
  8
0
 62
7
  6
CONTINUOUS
 10
185.5123960308
 20
122.2738352085
  0
VERTEX
  8
0
 62
7
  6
CONTINUOUS
 10
185.5373050926
 20
122.2879936165
  0
VERTEX
  8
0
 62
7
  6
CONTINUOUS
 10
185.5780234404
 20
122.3010703901
  0
VERTEX
  8
0
 62
7
  6
CONTINUOUS
 10
185.6332839327
 20
122.3126559213
  0
VERTEX
  8
0
 62
7
  6
CONTINUOUS
 10
185.6658289095
 20
122.3177747668
  0
VERTEX
  8
0
 62
7
  6
CONTINUOUS
 10
185.7394078992
 20
122.3264663959
  0
VERTEX
  8
0
 62
7
  6
CONTINUOUS
 10
185.8222123561
 20
122.3328790907
  0
VERTEX
  8
0
 62
7
  6
CONTINUOUS
 10
185.9114342546
 20
122.3368126694
  0
VERTEX
  8
0
 62
7
  6
CONTINUOUS
 10
186.0040224913
 20
122.338139789
  0
SEQEND
  0
LINE
  8
0
 62
7
  6
CONTINUOUS
 10
178.9594304394
 20
101.509299308
 11
194.3728001058
 21
116.9226689744
  0
LINE
  8
0
 62
7
  6
CONTINUOUS
 10
181.3494513598
 20
101.509299308
 11
184.6540224913
 21
104.8138704395
  0
LINE
  8
0
 62
7
  6
CONTINUOUS
 10
185.9361407579
 20
106.0959887061
 11
196.7628210262
 21
116.9226689744
  0
LINE
  8
0
 62
7
  6
CONTINUOUS
 10
183.7394722802
 20
101.509299308
 11
184.6540224913
 21
102.4238495191
  0
LINE
  8
0
 62
7
  6
CONTINUOUS
 10
188.326147001
 20
106.0959740288
 11
199.1528419466
 21
116.9226689744
  0
LINE
  8
0
 62
7
  6
CONTINUOUS
 10
198.9594304394
 20
101.509299308
 11
195.5540727852
 21
104.9146569621
  0
LINE
  8
0
 62
7
  6
CONTINUOUS
 10
194.3727928517
 20
106.0959368956
 11
183.5460607729
 21
116.9226689744
  0
LINE
  8
0
 62
7
  6
CONTINUOUS
 10
201.3494513598
 20
101.509299308
 11
185.9360816933
 21
116.9226689744
  0
LINE
  8
0
 62
7
  6
CONTINUOUS
 10
203.7394722802
 20
101.509299308
 11
186.0040224913
 21
119.2447490968
  0
POLYLINE
  8
0
 62
7
  6
CONTINUOUS
 66
1
 70
0
  0
VERTEX
  8
0
 62
7
  6
CONTINUOUS
 10
175.6040224913
 20
122.2590441794
  0
VERTEX
  8
0
 62
7
  6
CONTINUOUS
 10
175.5956489519
 20
122.2738352085
  0
VERTEX
  8
0
 62
7
  6
CONTINUOUS
 10
175.5707398901
 20
122.2879936165
  0
VERTEX
  8
0
 62
7
  6
CONTINUOUS
 10
175.5300215423
 20
122.3010703901
  0
VERTEX
  8
0
 62
7
  6
CONTINUOUS
 10
175.47476105
 20
122.3126559213
  0
VERTEX
  8
0
 62
7
  6
CONTINUOUS
 10
175.4422160732
 20
122.3177747668
  0
VERTEX
  8
0
 62
7
  6
CONTINUOUS
 10
175.3686370835
 20
122.3264663959
  0
VERTEX
  8
0
 62
7
  6
CONTINUOUS
 10
175.2858326266
 20
122.3328790907
  0
VERTEX
  8
0
 62
7
  6
CONTINUOUS
 10
175.1966107281
 20
122.3368126694
  0
VERTEX
  8
0
 62
7
  6
CONTINUOUS
 10
175.1040224913
 20
122.338139789
  0
SEQEND
  0
LINE
  8
0
 62
7
  6
CONTINUOUS
 10
179.3993467577
 20
101.509299308
 11
179.3993467577
 21
116.9226689744
  0
LINE
  8
0
 62
7
  6
CONTINUOUS
 10
180.5943572179
 20
101.509299308
 11
180.5943572179
 21
116.9226689744
  0
LINE
  8
0
 62
7
  6
CONTINUOUS
 10
181.7893676781
 20
101.509299308
 11
181.7893676781
 21
116.9226689744
  0
LINE
  8
0
 62
7
  6
CONTINUOUS
 10
182.9843781383
 20
101.509299308
 11
182.9843781383
 21
116.9226689744
  0
LINE
  8
0
 62
7
  6
CONTINUOUS
 10
184.1793885985
 20
101.509299308
 11
184.1793885985
 21
116.9226689744
  0
LINE
  8
0
 62
7
  6
CONTINUOUS
 10
190.7161532441
 20
106.0959593515
 11
201.542862867
 21
116.9226689744
  0
LINE
  8
0
 62
7
  6
CONTINUOUS
 10
205.1040224913
 20
120.4838285987
 11
206.1294932006
 21
121.509299308
  0
LINE
  8
0
 62
7
  6
CONTINUOUS
 10
193.1061594872
 20
106.0959446742
 11
203.9328837874
 21
116.9226689744
  0
LINE
  8
0
 62
7
  6
CONTINUOUS
 10
205.1040224913
 20
118.0938076783
 11
208.519514121
 21
121.509299308
  0
LINE
  8
0
 62
7
  6
CONTINUOUS
 10
195.4961657303
 20
106.0959299968
 11
210.9095350414
 21
121.509299308
  0
LINE
  8
0
 62
7
  6
CONTINUOUS
 10
203.7540224913
 20
103.8847700172
 11
186.1294932006
 21
121.509299308
  0
LINE
  8
0
 62
7
  6
CONTINUOUS
 10
203.9328179226
 20
106.0959955064
 11
188.519514121
 21
121.509299308
  0
LINE
  8
0
 62
7
  6
CONTINUOUS
 10
206.3228531914
 20
106.095981158
 11
195.496165375
 21
116.9226689744
  0
LINE
  8
0
 62
7
  6
CONTINUOUS
 10
194.203973515
 20
118.2148608344
 11
190.9095350414
 21
121.509299308
  0
POLYLINE
  8
0
 62
7
  6
CONTINUOUS
 66
1
 70
0
  0
VERTEX
  8
0
 62
7
  6
CONTINUOUS
 10
195.0540224913
 20
100.7595544366
  0
VERTEX
  8
0
 62
7
  6
CONTINUOUS
 10
195.0623960308
 20
100.7447634074
  0
VERTEX
  8
0
 62
7
  6
CONTINUOUS
 10
195.0873050926
 20
100.7306049994
  0
VERTEX
  8
0
 62
7
  6
CONTINUOUS
 10
195.1280234404
 20
100.7175282258
  0
VERTEX
  8
0
 62
7
  6
CONTINUOUS
 10
195.1832839327
 20
100.7059426946
  0
VERTEX
  8
0
 62
7
  6
CONTINUOUS
 10
195.2158289095
 20
100.7008238491
  0
VERTEX
  8
0
 62
7
  6
CONTINUOUS
 10
195.2894078992
 20
100.69213222
  0
VERTEX
  8
0
 62
7
  6
CONTINUOUS
 10
195.3722123561
 20
100.6857195252
  0
VERTEX
  8
0
 62
7
  6
CONTINUOUS
 10
195.4614342546
 20
100.6817859466
  0
VERTEX
  8
0
 62
7
  6
CONTINUOUS
 10
195.5540224913
 20
100.6804588269
  0
SEQEND
  0
LINE
  8
0
 62
7
  6
CONTINUOUS
 10
184.6540224913
 20
101.509299308
 11
184.6540224913
 21
106.0959965797
  0
LINE
  8
0
 62
7
  6
CONTINUOUS
 10
185.1540224913
 20
105.0959296415
 11
185.1540224913
 21
98.244299308
  0
LINE
  8
0
 62
7
  6
CONTINUOUS
 10
185.3743990587
 20
106.0959921558
 11
185.3743990587
 21
116.9226689744
  0
LINE
  8
0
 62
7
  6
CONTINUOUS
 10
185.5040224913
 20
117.9226689514
 11
185.5040224913
 21
124.774299308
  0
LINE
  8
0
 62
7
  6
CONTINUOUS
 10
186.0040224913
 20
116.9226689744
 11
186.0040224913
 21
121.509299308
  0
LINE
  8
0
 62
7
  6
CONTINUOUS
 10
186.5694095189
 20
106.0959848171
 11
186.5694095189
 21
121.509299308
  0
LINE
  8
0
 62
7
  6
CONTINUOUS
 10
187.7644199791
 20
106.0959774784
 11
187.7644199791
 21
121.509299308
  0
LINE
  8
0
 62
7
  6
CONTINUOUS
 10
188.9594304394
 20
106.0959701397
 11
188.9594304394
 21
121.509299308
  0
POLYLINE
  8
0
 62
7
  6
CONTINUOUS
 66
1
 70
0
  0
VERTEX
  8
0
 62
7
  6
CONTINUOUS
 10
185.1540224913
 20
100.7595544366
  0
VERTEX
  8
0
 62
7
  6
CONTINUOUS
 10
185.1456489519
 20
100.7447634074
  0
VERTEX
  8
0
 62
7
  6
CONTINUOUS
 10
185.1207398901
 20
100.7306049994
  0
VERTEX
  8
0
 62
7
  6
CONTINUOUS
 10
185.0800215423
 20
100.7175282258
  0
VERTEX
  8
0
 62
7
  6
CONTINUOUS
 10
185.02476105
 20
100.7059426946
  0
VERTEX
  8
0
 62
7
  6
CONTINUOUS
 10
184.9922160732
 20
100.7008238491
  0
VERTEX
  8
0
 62
7
  6
CONTINUOUS
 10
184.9186370835
 20
100.69213222
  0
VERTEX
  8
0
 62
7
  6
CONTINUOUS
 10
184.8358326266
 20
100.6857195252
  0
VERTEX
  8
0
 62
7
  6
CONTINUOUS
 10
184.7466107281
 20
100.6817859466
  0
VERTEX
  8
0
 62
7
  6
CONTINUOUS
 10
184.6540224913
 20
100.6804588269
  0
SEQEND
  0
LINE
  8
0
 62
7
  6
CONTINUOUS
 10
195.5540591154
 20
103.7638024615
 11
212.854007357
 21
121.0637507031
  0
LINE
  8
0
 62
7
  6
CONTINUOUS
 10
195.6895768822
 20
101.509299308
 11
212.8539789733
 21
118.673701399
  0
LINE
  8
0
 62
7
  6
CONTINUOUS
 10
198.0795978026
 20
101.509299308
 11
213.4929674691
 21
116.9226689744
  0
LINE
  8
0
 62
7
  6
CONTINUOUS
 10
208.7128884602
 20
106.0959668096
 11
197.8861862954
 21
116.9226689744
  0
LINE
  8
0
 62
7
  6
CONTINUOUS
 10
194.2040019033
 20
120.6048533664
 11
193.2995559618
 21
121.509299308
  0
LINE
  8
0
 62
7
  6
CONTINUOUS
 10
215.6895768822
 20
101.509299308
 11
214.9040416669
 21
102.2948345232
  0
LINE
  8
0
 62
7
  6
CONTINUOUS
 10
211.102923729
 20
106.0959524612
 11
200.2762072158
 21
116.9226689744
  0
LINE
  8
0
 62
7
  6
CONTINUOUS
 10
217.8540224913
 20
101.7348746192
 11
214.9040700553
 21
104.6848270553
  0
LINE
  8
0
 62
7
  6
CONTINUOUS
 10
213.4929589978
 20
106.0959381128
 11
202.6662281362
 21
116.9226689744
  0
LINE
  8
0
 62
7
  6
CONTINUOUS
 10
190.1544408996
 20
106.095962801
 11
190.1544408996
 21
121.509299308
  0
LINE
  8
0
 62
7
  6
CONTINUOUS
 10
191.3494513598
 20
106.0959554623
 11
191.3494513598
 21
121.509299308
  0
LINE
  8
0
 62
7
  6
CONTINUOUS
 10
192.54446182
 20
106.0959481236
 11
192.54446182
 21
121.509299308
  0
LINE
  8
0
 62
7
  6
CONTINUOUS
 10
193.7394722802
 20
106.0959407849
 11
193.7394722802
 21
121.509299308
  0
LINE
  8
0
 62
7
  6
CONTINUOUS
 10
194.2039581663
 20
116.9226689744
 11
194.2040126464
 21
121.509299308
  0
POLYLINE
  8
0
 62
7
  6
CONTINUOUS
 66
1
 70
0
  0
VERTEX
  8
0
 62
7
  6
CONTINUOUS
 10
204.6040224913
 20
122.2590441794
  0
VERTEX
  8
0
 62
7
  6
CONTINUOUS
 10
204.6123960308
 20
122.2738352085
  0
VERTEX
  8
0
 62
7
  6
CONTINUOUS
 10
204.6373050926
 20
122.2879936165
  0
VERTEX
  8
0
 62
7
  6
CONTINUOUS
 10
204.6780234404
 20
122.3010703901
  0
VERTEX
  8
0
 62
7
  6
CONTINUOUS
 10
204.7332839327
 20
122.3126559213
  0
VERTEX
  8
0
 62
7
  6
CONTINUOUS
 10
204.7658289095
 20
122.3177747668
  0
VERTEX
  8
0
 62
7
  6
CONTINUOUS
 10
204.8394078992
 20
122.3264663959
  0
VERTEX
  8
0
 62
7
  6
CONTINUOUS
 10
204.9222123561
 20
122.3328790907
  0
VERTEX
  8
0
 62
7
  6
CONTINUOUS
 10
205.0114342546
 20
122.3368126694
  0
VERTEX
  8
0
 62
7
  6
CONTINUOUS
 10
205.1040224913
 20
122.338139789
  0
SEQEND
  0
LINE
  8
0
 62
7
  6
CONTINUOUS
 10
200.469618723
 20
101.509299308
 11
203.7540224913
 21
104.7937030763
  0
LINE
  8
0
 62
7
  6
CONTINUOUS
 10
205.0563081767
 20
106.0959887616
 11
215.8829883895
 21
116.9226689744
  0
LINE
  8
0
 62
7
  6
CONTINUOUS
 10
202.8596396435
 20
101.509299308
 11
203.7540224913
 21
102.4036821558
  0
LINE
  8
0
 62
7
  6
CONTINUOUS
 10
207.4463147488
 20
106.0959744133
 11
217.8540224913
 21
116.5036821558
  0
LINE
  8
0
 62
7
  6
CONTINUOUS
 10
209.836321321
 20
106.0959600651
 11
217.8540224913
 21
114.1136612354
  0
LINE
  8
0
 62
7
  6
CONTINUOUS
 10
217.8540224913
 20
104.1248955397
 11
205.0562490566
 21
116.9226689744
  0
LINE
  8
0
 62
7
  6
CONTINUOUS
 10
217.8540224913
 20
106.5149164601
 11
205.1040224913
 21
119.2649164601
  0
LINE
  8
0
 62
7
  6
CONTINUOUS
 10
217.8540224913
 20
108.9049373805
 11
205.2496605639
 21
121.509299308
  0
POLYLINE
  8
0
 62
7
  6
CONTINUOUS
 66
1
 70
0
  0
VERTEX
  8
0
 62
7
  6
CONTINUOUS
 10
194.7040224913
 20
122.2590441794
  0
VERTEX
  8
0
 62
7
  6
CONTINUOUS
 10
194.6956489519
 20
122.2738352085
  0
VERTEX
  8
0
 62
7
  6
CONTINUOUS
 10
194.6707398901
 20
122.2879936165
  0
VERTEX
  8
0
 62
7
  6
CONTINUOUS
 10
194.6300215423
 20
122.3010703901
  0
VERTEX
  8
0
 62
7
  6
CONTINUOUS
 10
194.57476105
 20
122.3126559213
  0
VERTEX
  8
0
 62
7
  6
CONTINUOUS
 10
194.5422160732
 20
122.3177747668
  0
VERTEX
  8
0
 62
7
  6
CONTINUOUS
 10
194.4686370835
 20
122.3264663959
  0
VERTEX
  8
0
 62
7
  6
CONTINUOUS
 10
194.3858326266
 20
122.3328790907
  0
VERTEX
  8
0
 62
7
  6
CONTINUOUS
 10
194.2966107281
 20
122.3368126694
  0
VERTEX
  8
0
 62
7
  6
CONTINUOUS
 10
194.2040224913
 20
122.338139789
  0
SEQEND
  0
LINE
  8
0
 62
7
  6
CONTINUOUS
 10
194.7040224913
 20
117.9226689744
 11
194.7040224913
 21
124.774299308
  0
LINE
  8
0
 62
7
  6
CONTINUOUS
 10
194.9344827404
 20
106.0959334462
 11
194.9344827404
 21
116.9226689744
  0
LINE
  8
0
 62
7
  6
CONTINUOUS
 10
195.0540224913
 20
98.244299308
 11
195.0540224913
 21
105.0959296415
  0
LINE
  8
0
 62
7
  6
CONTINUOUS
 10
195.5540323363
 20
101.509299308
 11
195.5540868164
 21
106.0959296411
  0
LINE
  8
0
 62
7
  6
CONTINUOUS
 10
196.1294932006
 20
101.509299308
 11
196.1294932006
 21
116.9226689744
  0
LINE
  8
0
 62
7
  6
CONTINUOUS
 10
197.3245036608
 20
101.509299308
 11
197.3245036608
 21
116.9226689744
  0
LINE
  8
0
 62
7
  6
CONTINUOUS
 10
198.519514121
 20
101.509299308
 11
198.519514121
 21
116.9226689744
  0
LINE
  8
0
 62
7
  6
CONTINUOUS
 10
199.7145245812
 20
101.509299308
 11
199.7145245812
 21
116.9226689744
  0
LINE
  8
0
 62
7
  6
CONTINUOUS
 10
212.2263278932
 20
106.0959457169
 11
217.8540224913
 21
111.723640315
  0
LINE
  8
0
 62
7
  6
CONTINUOUS
 10
214.6163344654
 20
106.0959313687
 11
217.8540224913
 21
109.3336193946
  0
LINE
  8
0
 62
7
  6
CONTINUOUS
 10
214.9040618454
 20
103.9936378282
 11
217.8540224913
 21
106.9435984742
  0
LINE
  8
0
 62
7
  6
CONTINUOUS
 10
217.8540224913
 20
111.2949583009
 11
207.6396814843
 21
121.509299308
  0
LINE
  8
0
 62
7
  6
CONTINUOUS
 10
217.8540224913
 20
113.6849792213
 11
214.6163327383
 21
116.9226689744
  0
LINE
  8
0
 62
7
  6
CONTINUOUS
 10
212.8539791078
 20
118.6850226049
 11
210.0297024047
 21
121.509299308
  0
LINE
  8
0
 62
7
  6
CONTINUOUS
 10
217.8540224913
 20
116.0750001417
 11
217.0063536587
 21
116.9226689744
  0
LINE
  8
0
 62
7
  6
CONTINUOUS
 10
212.8540074908
 20
121.0750151423
 11
212.4197233251
 21
121.509299308
  0
POLYLINE
  8
0
 62
7
  6
CONTINUOUS
 66
1
 70
0
  0
VERTEX
  8
0
 62
7
  6
CONTINUOUS
 10
214.4040224913
 20
100.7595544366
  0
VERTEX
  8
0
 62
7
  6
CONTINUOUS
 10
214.4123960308
 20
100.7447634074
  0
VERTEX
  8
0
 62
7
  6
CONTINUOUS
 10
214.4373050926
 20
100.7306049994
  0
VERTEX
  8
0
 62
7
  6
CONTINUOUS
 10
214.4780234404
 20
100.7175282258
  0
VERTEX
  8
0
 62
7
  6
CONTINUOUS
 10
214.5332839327
 20
100.7059426946
  0
VERTEX
  8
0
 62
7
  6
CONTINUOUS
 10
214.5658289095
 20
100.7008238491
  0
VERTEX
  8
0
 62
7
  6
CONTINUOUS
 10
214.6394078992
 20
100.69213222
  0
VERTEX
  8
0
 62
7
  6
CONTINUOUS
 10
214.7222123561
 20
100.6857195252
  0
VERTEX
  8
0
 62
7
  6
CONTINUOUS
 10
214.8114342546
 20
100.6817859466
  0
VERTEX
  8
0
 62
7
  6
CONTINUOUS
 10
214.9040224913
 20
100.6804588269
  0
SEQEND
  0
LINE
  8
0
 62
7
  6
CONTINUOUS
 10
200.9095350414
 20
101.509299308
 11
200.9095350414
 21
116.9226689744
  0
LINE
  8
0
 62
7
  6
CONTINUOUS
 10
202.1045455016
 20
101.509299308
 11
202.1045455016
 21
116.9226689744
  0
LINE
  8
0
 62
7
  6
CONTINUOUS
 10
203.2995559618
 20
101.509299308
 11
203.2995559618
 21
116.9226689744
  0
LINE
  8
0
 62
7
  6
CONTINUOUS
 10
203.7540224913
 20
101.509299308
 11
203.7540224913
 21
106.0959965797
  0
LINE
  8
0
 62
7
  6
CONTINUOUS
 10
204.2540224913
 20
98.244299308
 11
204.2540224913
 21
105.0959296415
  0
LINE
  8
0
 62
7
  6
CONTINUOUS
 10
204.494566422
 20
106.0959921339
 11
204.494566422
 21
116.9226689744
  0
LINE
  8
0
 62
7
  6
CONTINUOUS
 10
204.6040224913
 20
117.9226689514
 11
204.6040224913
 21
124.774299308
  0
POLYLINE
  8
0
 62
7
  6
CONTINUOUS
 66
1
 70
0
  0
VERTEX
  8
0
 62
7
  6
CONTINUOUS
 10
204.2540224913
 20
100.7595544366
  0
VERTEX
  8
0
 62
7
  6
CONTINUOUS
 10
204.2456489519
 20
100.7447634074
  0
VERTEX
  8
0
 62
7
  6
CONTINUOUS
 10
204.2207398901
 20
100.7306049994
  0
VERTEX
  8
0
 62
7
  6
CONTINUOUS
 10
204.1800215423
 20
100.7175282258
  0
VERTEX
  8
0
 62
7
  6
CONTINUOUS
 10
204.12476105
 20
100.7059426946
  0
VERTEX
  8
0
 62
7
  6
CONTINUOUS
 10
204.0922160732
 20
100.7008238491
  0
VERTEX
  8
0
 62
7
  6
CONTINUOUS
 10
204.0186370835
 20
100.69213222
  0
VERTEX
  8
0
 62
7
  6
CONTINUOUS
 10
203.9358326266
 20
100.6857195252
  0
VERTEX
  8
0
 62
7
  6
CONTINUOUS
 10
203.8466107281
 20
100.6817859466
  0
VERTEX
  8
0
 62
7
  6
CONTINUOUS
 10
203.7540224913
 20
100.6804588269
  0
SEQEND
  0
LINE
  8
0
 62
7
  6
CONTINUOUS
 10
214.9040334563
 20
101.6035885187
 11
217.8540224913
 21
104.5535775538
  0
LINE
  8
0
 62
7
  6
CONTINUOUS
 10
217.1997651659
 20
101.509299308
 11
217.8540224913
 21
102.1635566334
  0
LINE
  8
0
 62
7
  6
CONTINUOUS
 10
205.1040224913
 20
116.9226689744
 11
205.1040224913
 21
121.509299308
  0
LINE
  8
0
 62
7
  6
CONTINUOUS
 10
205.6895768822
 20
106.0959849598
 11
205.6895768822
 21
121.509299308
  0
LINE
  8
0
 62
7
  6
CONTINUOUS
 10
206.8845873424
 20
106.0959777856
 11
206.8845873424
 21
121.509299308
  0
LINE
  8
0
 62
7
  6
CONTINUOUS
 10
208.0795978026
 20
106.0959706115
 11
208.0795978026
 21
121.509299308
  0
LINE
  8
0
 62
7
  6
CONTINUOUS
 10
209.2746082628
 20
106.0959634373
 11
209.2746082628
 21
121.509299308
  0
LINE
  8
0
 62
7
  6
CONTINUOUS
 10
218.4378901239
 20
115.726778998
 11
218.4701548588
 21
115.6783413225
  0
POLYLINE
  8
0
 62
7
  6
CONTINUOUS
 66
1
 70
0
  0
VERTEX
  8
0
 62
7
  6
CONTINUOUS
 10
213.3540224913
 20
122.2590441794
  0
VERTEX
  8
0
 62
7
  6
CONTINUOUS
 10
213.3456489519
 20
122.2738352085
  0
VERTEX
  8
0
 62
7
  6
CONTINUOUS
 10
213.3207398901
 20
122.2879936165
  0
VERTEX
  8
0
 62
7
  6
CONTINUOUS
 10
213.2800215423
 20
122.3010703901
  0
VERTEX
  8
0
 62
7
  6
CONTINUOUS
 10
213.22476105
 20
122.3126559213
  0
VERTEX
  8
0
 62
7
  6
CONTINUOUS
 10
213.1922160732
 20
122.3177747668
  0
VERTEX
  8
0
 62
7
  6
CONTINUOUS
 10
213.1186370835
 20
122.3264663959
  0
VERTEX
  8
0
 62
7
  6
CONTINUOUS
 10
213.0358326266
 20
122.3328790907
  0
VERTEX
  8
0
 62
7
  6
CONTINUOUS
 10
212.9466107281
 20
122.3368126694
  0
VERTEX
  8
0
 62
7
  6
CONTINUOUS
 10
212.8540224913
 20
122.338139789
  0
SEQEND
  0
LINE
  8
0
 62
7
  6
CONTINUOUS
 10
210.469618723
 20
106.0959562632
 11
210.469618723
 21
121.509299308
  0
LINE
  8
0
 62
7
  6
CONTINUOUS
 10
211.6646291833
 20
106.095949089
 11
211.6646291833
 21
121.509299308
  0
LINE
  8
0
 62
7
  6
CONTINUOUS
 10
212.8539581784
 20
116.9226689744
 11
212.8540126482
 21
121.509299308
  0
LINE
  8
0
 62
7
  6
CONTINUOUS
 10
212.8596396435
 20
106.0959419148
 11
212.8596396435
 21
116.9226689744
  0
LINE
  8
0
 62
7
  6
CONTINUOUS
 10
213.3540224913
 20
117.9226689744
 11
213.3540224913
 21
124.774299308
  0
LINE
  8
0
 62
7
  6
CONTINUOUS
 10
214.0546501037
 20
106.0959347407
 11
214.0546501037
 21
116.9226689744
  0
LINE
  8
0
 62
7
  6
CONTINUOUS
 10
214.4040224913
 20
105.0959296415
 11
214.4040224913
 21
98.244299308
  0
LINE
  8
0
 62
7
  6
CONTINUOUS
 10
214.9040323363
 20
101.509299308
 11
214.9040868164
 21
106.0959296412
  0
LINE
  8
0
 62
7
  6
CONTINUOUS
 10
215.2496605639
 20
101.509299308
 11
215.2496605639
 21
116.9226689744
  0
LINE
  8
0
 62
7
  6
CONTINUOUS
 10
216.4446710241
 20
101.509299308
 11
216.4446710241
 21
116.9226689744
  0
LINE
  8
0
 62
7
  6
CONTINUOUS
 10
217.6396814843
 20
101.509299308
 11
217.6396814843
 21
116.9226689744
  0
LINE
  8
0
 62
7
  6
CONTINUOUS
 10
217.8540224913
 20
101.509299308
 11
217.8540224913
 21
116.9226689744
  0
LINE
  8
0
 62
7
  6
CONTINUOUS
 10
218.3540224913
 20
116.9226689744
 11
218.3540224913
 21
116.0039681983
  0
LINE
  8
0
 62
7
  6
CONTINUOUS
 10
218.3540224913
 20
105.7345791297
 11
218.3540224913
 21
98.244299308
  0
LINE
  8
0
 62
7
  6
CONTINUOUS
 10
218.5540224913
 20
115.4011521222
 11
218.5540224913
 21
106.3345791297
  0
LINE
  8
0
 62
7
  6
CONTINUOUS
 10
279.861288454
 20
97.744299308
 11
281.8054077919
 21
97.744299308
  0
LINE
  8
0
 62
7
  6
CONTINUOUS
 10
284.9833481229
 20
101.509299308
 11
286.2470929469
 21
101.509299308
  0
LINE
  8
0
 62
7
  6
CONTINUOUS
 10
284.9833481229
 20
100.6804588269
 11
284.8188372004
 21
100.7059426946
  0
LINE
  8
0
 62
7
  6
CONTINUOUS
 10
284.8188372004
 20
100.7059426946
 11
284.662721671
 21
100.7306049994
  0
LINE
  8
0
 62
7
  6
CONTINUOUS
 10
284.662721671
 20
100.7306049994
 11
284.4833481229
 21
100.7595544366
  0
LINE
  8
0
 62
7
  6
CONTINUOUS
 10
285.3420747018
 20
101.9492156263
 11
286.9833481229
 21
101.9492156263
  0
LINE
  8
1_AXIS
 62
2
  6
CONTINUOUS
 10
281.8833481229
 20
101.984299308
 11
279.7833481229
 21
101.984299308
  0
LINE
  8
1_AXIS
 62
2
  6
CENTER
 10
275.5833481229
 20
101.984299308
 11
274.5933481229
 21
101.984299308
  0
LINE
  8
1_AXIS
 62
2
  6
CENTER
 10
286.0833481229
 20
101.984299308
 11
287.0733481229
 21
101.984299308
  0
LINE
  8
0
 62
7
  6
CONTINUOUS
 10
286.9833481229
 20
103.1442260865
 11
286.624621544
 21
103.1442260865
  0
LINE
  8
0
 62
7
  6
CONTINUOUS
 10
285.3420747018
 20
104.3392365467
 11
286.9833481229
 21
104.3392365467
  0
LINE
  8
0
 62
7
  6
CONTINUOUS
 10
285.7102022898
 20
121.509299308
 11
284.9833481229
 21
121.0750001417
  0
LINE
  8
0
 62
7
  6
CONTINUOUS
 10
284.992749132
 20
121.0693829896
 11
284.9833481229
 21
121.0637658375
  0
LINE
  8
0
 62
7
  6
CONTINUOUS
 10
286.9833481229
 20
105.5342470069
 11
286.624621544
 21
105.5342470069
  0
LINE
  8
0
 62
7
  6
CONTINUOUS
 10
285.36087672
 20
101.509299308
 11
284.9833481229
 21
101.7348746192
  0
LINE
  8
0
 62
7
  6
CONTINUOUS
 10
285.7196032989
 20
101.509299308
 11
285.1627114124
 21
101.8420451228
  0
LINE
  8
0
 62
7
  6
CONTINUOUS
 10
285.3420747018
 20
101.9492156263
 11
284.9833481229
 21
102.1635566334
  0
LINE
  8
0
 62
7
  6
CONTINUOUS
 10
276.4833481229
 20
121.034299308
 11
276.4833481229
 21
101.984299308
  0
LINE
  8
0
 62
7
  6
CONTINUOUS
 10
285.9786476184
 20
120.4690691834
 11
286.9833481229
 21
121.0693829896
  0
LINE
  8
0
 62
7
  6
CONTINUOUS
 10
285.3420747018
 20
106.7292574671
 11
286.9833481229
 21
106.7292574671
  0
LINE
  8
0
 62
7
  6
CONTINUOUS
 10
286.9833481229
 20
101.9492156263
 11
285.9833481229
 21
102.5467208564
  0
LINE
  8
0
 62
7
  6
CONTINUOUS
 10
286.9739471138
 20
119.8743725294
 11
284.9833481229
 21
118.6849792213
  0
LINE
  8
0
 62
7
  6
CONTINUOUS
 10
285.9833481229
 20
119.2768672993
 11
286.9833481229
 21
119.8743725294
  0
LINE
  8
0
 62
7
  6
CONTINUOUS
 10
284.9833481229
 20
118.6737449171
 11
284.992749132
 21
118.6793620692
  0
LINE
  8
0
 62
7
  6
CONTINUOUS
 10
282.8505089438
 20
116.4614373789
 11
282.6746968
 21
116.3878556088
  0
LINE
  8
0
 62
7
  6
CONTINUOUS
 10
284.9833481229
 20
104.1248955397
 11
286.624621544
 21
103.1442260865
  0
LINE
  8
0
 62
7
  6
CONTINUOUS
 10
286.9833481229
 20
103.1442260865
 11
285.1627114124
 21
104.2320660432
  0
LINE
  8
0
 62
7
  6
CONTINUOUS
 10
285.3420747018
 20
104.3392365467
 11
284.9833481229
 21
104.5535775538
  0
LINE
  8
0
 62
7
  6
CONTINUOUS
 10
278.1833481229
 20
115.8526859108
 11
278.1833481229
 21
105.6721170909
  0
LINE
  8
0
 62
7
  6
CONTINUOUS
 10
285.9786476184
 20
118.079048263
 11
286.9833481229
 21
118.6793620692
  0
LINE
  8
0
 62
7
  6
CONTINUOUS
 10
286.9833481229
 20
107.9242679273
 11
286.624621544
 21
107.9242679273
  0
LINE
  8
0
 62
7
  6
CONTINUOUS
 10
286.9833481229
 20
104.3392365467
 11
285.9833481229
 21
104.9367417768
  0
LINE
  8
0
 62
7
  6
CONTINUOUS
 10
285.684575154
 20
116.9226689744
 11
284.9833481229
 21
116.5036821558
  0
LINE
  8
0
 62
7
  6
CONTINUOUS
 10
286.0339007237
 20
116.9226689744
 11
286.9739471138
 21
117.484351609
  0
LINE
  8
0
 62
7
  6
CONTINUOUS
 10
285.1627114124
 20
116.3965116523
 11
286.9833481229
 21
117.484351609
  0
LINE
  8
0
 62
7
  6
CONTINUOUS
 10
285.3420747018
 20
116.2893411488
 11
284.9833481229
 21
116.0750001417
  0
LINE
  8
0
 62
7
  6
CONTINUOUS
 10
285.3420747018
 20
109.1192783875
 11
286.9833481229
 21
109.1192783875
  0
LINE
  8
0
 62
7
  6
CONTINUOUS
 10
284.9833481229
 20
106.5149164601
 11
286.624621544
 21
105.5342470069
  0
LINE
  8
0
 62
7
  6
CONTINUOUS
 10
286.9833481229
 20
105.5342470069
 11
285.1627114124
 21
106.6220869636
  0
LINE
  8
0
 62
7
  6
CONTINUOUS
 10
285.3420747018
 20
106.7292574671
 11
284.9833481229
 21
106.9435984742
  0
LINE
  8
1_AXIS
 62
2
  6
CONTINUOUS
 10
280.8333481229
 20
122.084299308
 11
280.8333481229
 21
119.984299308
  0
LINE
  8
1_AXIS
 62
2
  6
CENTER
 10
280.8333481229
 20
115.784299308
 11
280.8333481229
 21
114.794299308
  0
LINE
  8
1_AXIS
 62
2
  6
CONTINUOUS
 10
280.8333481229
 20
103.034299308
 11
280.8333481229
 21
100.934299308
  0
LINE
  8
1_AXIS
 62
2
  6
CENTER
 10
280.8333481229
 20
96.734299308
 11
280.8333481229
 21
95.744299308
  0
LINE
  8
1_AXIS
 62
2
  6
CENTER
 10
280.8333481229
 20
107.234299308
 11
280.8333481229
 21
108.224299308
  0
LINE
  8
1_AXIS
 62
2
  6
CENTER
 10
280.8333481229
 20
126.284299308
 11
280.8333481229
 21
127.274299308
  0
LINE
  8
0
 62
7
  6
CONTINUOUS
 10
281.7727427931
 20
124.9904917917
 11
281.8054077919
 21
125.274299308
  0
LINE
  8
0
 62
7
  6
CONTINUOUS
 10
281.7470767478
 20
124.774299308
 11
281.7727427931
 21
124.9904917917
  0
LINE
  8
0
 62
7
  6
CONTINUOUS
 10
285.9833481229
 20
115.6918359187
 11
286.9833481229
 21
116.2893411488
  0
LINE
  8
0
 62
7
  6
CONTINUOUS
 10
286.9833481229
 20
110.3142888478
 11
286.624621544
 21
110.3142888478
  0
LINE
  8
0
 62
7
  6
CONTINUOUS
 10
286.9833481229
 20
106.7292574671
 11
285.9833481229
 21
107.3267626972
  0
LINE
  8
0
 62
7
  6
CONTINUOUS
 10
281.7837760904
 20
97.9333296653
 11
281.7470767478
 21
98.244299308
  0
LINE
  8
0
 62
7
  6
CONTINUOUS
 10
281.8054077919
 20
97.744299308
 11
281.7837760904
 21
97.9333296653
  0
LINE
  8
0
 62
7
  6
CONTINUOUS
 10
279.861288454
 20
97.744299308
 11
279.8829201554
 21
97.9333296653
  0
POLYLINE
  8
0
 62
7
  6
CONTINUOUS
 66
1
 70
0
  0
VERTEX
  8
0
 62
7
  6
CONTINUOUS
 10
279.8829201554
 20
97.9333296653
  0
VERTEX
  8
0
 62
7
  6
CONTINUOUS
 10
279.9063794288
 20
98.133522218
  0
VERTEX
  8
0
 62
7
  6
CONTINUOUS
 10
279.919619498
 20
98.244299308
  0
SEQEND
  0
LINE
  8
0
 62
7
  6
CONTINUOUS
 10
284.9833481229
 20
114.1136612354
 11
286.624621544
 21
115.0943306886
  0
LINE
  8
0
 62
7
  6
CONTINUOUS
 10
285.1627114124
 20
114.0064907319
 11
286.9833481229
 21
115.0943306886
  0
LINE
  8
0
 62
7
  6
CONTINUOUS
 10
285.3420747018
 20
113.8993202284
 11
284.9833481229
 21
113.6849792213
  0
LINE
  8
1_AXIS
 62
2
  6
CENTER
 10
273.9833477591
 20
111.509299308
 11
288.9833481229
 21
111.509299308
  0
LINE
  8
0
 62
7
  6
CONTINUOUS
 10
285.3420747018
 20
111.509299308
 11
286.9833481229
 21
111.509299308
  0
LINE
  8
0
 62
7
  6
CONTINUOUS
 10
284.9833481229
 20
108.9049373805
 11
286.624621544
 21
107.9242679273
  0
LINE
  8
0
 62
7
  6
CONTINUOUS
 10
286.9833481229
 20
107.9242679273
 11
285.1627114124
 21
109.012107884
  0
LINE
  8
0
 62
7
  6
CONTINUOUS
 10
285.3420747018
 20
109.1192783875
 11
284.9833481229
 21
109.3336193946
  0
LINE
  8
0
 62
7
  6
CONTINUOUS
 10
279.919619498
 20
124.774299308
 11
279.8939534527
 21
124.9904917917
  0
POLYLINE
  8
0
 62
7
  6
CONTINUOUS
 66
1
 70
0
  0
VERTEX
  8
0
 62
7
  6
CONTINUOUS
 10
279.8939534527
 20
124.9904917917
  0
VERTEX
  8
0
 62
7
  6
CONTINUOUS
 10
279.8627198984
 20
125.2616590817
  0
VERTEX
  8
0
 62
7
  6
CONTINUOUS
 10
279.861288454
 20
125.274299308
  0
SEQEND
  0
LINE
  8
0
 62
7
  6
CONTINUOUS
 10
285.9833481229
 20
113.3018149983
 11
286.9833481229
 21
113.8993202284
  0
LINE
  8
0
 62
7
  6
CONTINUOUS
 10
286.9833481229
 20
109.1192783875
 11
285.9833481229
 21
109.7167836177
  0
LINE
  8
0
 62
7
  6
CONTINUOUS
 10
284.9833481229
 20
111.723640315
 11
286.624621544
 21
112.7043097682
  0
LINE
  8
0
 62
7
  6
CONTINUOUS
 10
285.1627114124
 20
111.6164698115
 11
286.9833481229
 21
112.7043097682
  0
LINE
  8
0
 62
7
  6
CONTINUOUS
 10
285.3420747018
 20
111.509299308
 11
284.9833481229
 21
111.2949583009
  0
LINE
  8
0
 62
7
  6
CONTINUOUS
 10
286.9833481229
 20
112.7043097682
 11
286.624621544
 21
112.7043097682
  0
LINE
  8
0
 62
7
  6
CONTINUOUS
 10
284.9833481229
 20
111.2949583009
 11
286.624621544
 21
110.3142888478
  0
LINE
  8
0
 62
7
  6
CONTINUOUS
 10
286.9833481229
 20
110.3142888478
 11
285.1627114124
 21
111.4021288044
  0
LINE
  8
0
 62
7
  6
CONTINUOUS
 10
285.3420747018
 20
111.509299308
 11
284.9833481229
 21
111.723640315
  0
LINE
  8
0
 62
7
  6
CONTINUOUS
 10
285.9833481229
 20
110.9117940779
 11
286.9833481229
 21
111.509299308
  0
LINE
  8
0
 62
7
  6
CONTINUOUS
 10
285.3420747018
 20
113.8993202284
 11
286.9833481229
 21
113.8993202284
  0
LINE
  8
0
 62
7
  6
CONTINUOUS
 10
286.9833481229
 20
111.509299308
 11
285.9833481229
 21
112.1068045381
  0
LINE
  8
0
 62
7
  6
CONTINUOUS
 10
284.9833481229
 20
100.6804588269
 11
284.9833481229
 21
122.338139789
  0
LINE
  8
0
 62
7
  6
CONTINUOUS
 10
284.9833481229
 20
109.3336193946
 11
286.624621544
 21
110.3142888478
  0
LINE
  8
0
 62
7
  6
CONTINUOUS
 10
285.1627114124
 20
109.2264488911
 11
286.9833481229
 21
110.3142888478
  0
LINE
  8
0
 62
7
  6
CONTINUOUS
 10
285.3420747018
 20
109.1192783875
 11
284.9833481229
 21
108.9049373805
  0
LINE
  8
0
 62
7
  6
CONTINUOUS
 10
286.9833481229
 20
115.0943306886
 11
286.624621544
 21
115.0943306886
  0
LINE
  8
0
 62
7
  6
CONTINUOUS
 10
284.9833481229
 20
113.6849792213
 11
286.624621544
 21
112.7043097682
  0
LINE
  8
0
 62
7
  6
CONTINUOUS
 10
286.9833481229
 20
112.7043097682
 11
285.1627114124
 21
113.7921497248
  0
LINE
  8
0
 62
7
  6
CONTINUOUS
 10
285.3420747018
 20
113.8993202284
 11
284.9833481229
 21
114.1136612354
  0
LINE
  8
0
 62
7
  6
CONTINUOUS
 10
285.9833481229
 20
108.5217731574
 11
286.9833481229
 21
109.1192783875
  0
LINE
  8
0
 62
7
  6
CONTINUOUS
 10
285.3420747018
 20
116.2893411488
 11
286.9833481229
 21
116.2893411488
  0
LINE
  8
0
 62
7
  6
CONTINUOUS
 10
282.4904882489
 20
116.3526859108
 11
278.6721924242
 21
116.3526859108
  0
LINE
  8
0
 62
7
  6
CONTINUOUS
 10
286.9833481229
 20
113.8993202284
 11
285.9833481229
 21
114.4968254585
  0
LINE
  8
0
 62
7
  6
CONTINUOUS
 10
284.9833481229
 20
106.9435984742
 11
286.624621544
 21
107.9242679273
  0
LINE
  8
0
 62
7
  6
CONTINUOUS
 10
285.1627114124
 20
106.8364279707
 11
286.9833481229
 21
107.9242679273
  0
LINE
  8
0
 62
7
  6
CONTINUOUS
 10
285.3420747018
 20
106.7292574671
 11
284.9833481229
 21
106.5149164601
  0
LINE
  8
0
 62
7
  6
CONTINUOUS
 10
284.9833481229
 20
116.9226689744
 11
286.0433017329
 21
116.9226689744
  0
LINE
  8
0
 62
7
  6
CONTINUOUS
 10
286.9739471138
 20
117.484351609
 11
286.9833481229
 21
117.484351609
  0
LINE
  8
0
 62
7
  6
CONTINUOUS
 10
284.9833481229
 20
116.0750001417
 11
286.624621544
 21
115.0943306886
  0
LINE
  8
0
 62
7
  6
CONTINUOUS
 10
286.9833481229
 20
115.0943306886
 11
285.1627114124
 21
116.1821706452
  0
LINE
  8
0
 62
7
  6
CONTINUOUS
 10
285.3420747018
 20
116.2893411488
 11
284.9833481229
 21
116.5036821558
  0
LINE
  8
0
 62
7
  6
CONTINUOUS
 10
285.9833481229
 20
106.131752237
 11
286.9833481229
 21
106.7292574671
  0
LINE
  8
0
 62
7
  6
CONTINUOUS
 10
286.9833481229
 20
116.2893411488
 11
285.9833481229
 21
116.8868463789
  0
LINE
  8
0
 62
7
  6
CONTINUOUS
 10
284.9833481229
 20
104.5535775538
 11
286.624621544
 21
105.5342470069
  0
LINE
  8
0
 62
7
  6
CONTINUOUS
 10
285.1627114124
 20
104.4464070503
 11
286.9833481229
 21
105.5342470069
  0
LINE
  8
0
 62
7
  6
CONTINUOUS
 10
284.992749132
 20
118.6793620692
 11
286.9833481229
 21
118.6793620692
  0
LINE
  8
0
 62
7
  6
CONTINUOUS
 10
286.9739471138
 20
117.484351609
 11
284.9833481229
 21
118.6737449171
  0
LINE
  8
0
 62
7
  6
CONTINUOUS
 10
286.9833481229
 20
117.484351609
 11
285.9833481229
 21
118.0818568391
  0
LINE
  8
0
 62
7
  6
CONTINUOUS
 10
284.9833481229
 20
118.6849792213
 11
284.992749132
 21
118.6793620692
  0
LINE
  8
0
 62
7
  6
CONTINUOUS
 10
285.3420747018
 20
104.3392365467
 11
284.9833481229
 21
104.1248955397
  0
LINE
  8
0
 62
7
  6
CONTINUOUS
 10
285.9833481229
 20
103.7417313166
 11
286.9833481229
 21
104.3392365467
  0
LINE
  8
0
 62
7
  6
CONTINUOUS
 10
286.9739471138
 20
119.8743725294
 11
286.9833481229
 21
119.8743725294
  0
LINE
  8
0
 62
7
  6
CONTINUOUS
 10
286.9833481229
 20
118.6793620692
 11
285.9786476184
 21
119.2796758753
  0
LINE
  8
0
 62
7
  6
CONTINUOUS
 10
284.9833481229
 20
102.1635566334
 11
286.624621544
 21
103.1442260865
  0
LINE
  8
0
 62
7
  6
CONTINUOUS
 10
285.1627114124
 20
102.0563861299
 11
286.9833481229
 21
103.1442260865
  0
LINE
  8
1_AXIS
 62
2
  6
CONTINUOUS
 10
281.8833481229
 20
121.034299308
 11
279.7833481229
 21
121.034299308
  0
LINE
  8
1_AXIS
 62
2
  6
CENTER
 10
275.5833481229
 20
121.034299308
 11
274.5933481229
 21
121.034299308
  0
LINE
  8
1_AXIS
 62
2
  6
CENTER
 10
286.0833481229
 20
121.034299308
 11
287.0733481229
 21
121.034299308
  0
LINE
  8
0
 62
7
  6
CONTINUOUS
 10
284.992749132
 20
121.0693829896
 11
286.9833481229
 21
121.0693829896
  0
LINE
  8
0
 62
7
  6
CONTINUOUS
 10
286.9739471138
 20
119.8743725294
 11
284.9833481229
 21
121.0637658375
  0
LINE
  8
0
 62
7
  6
CONTINUOUS
 10
286.9833481229
 20
119.8743725294
 11
285.9833481229
 21
120.4718777595
  0
LINE
  8
0
 62
7
  6
CONTINUOUS
 10
284.9833481229
 20
121.0750001417
 11
284.992749132
 21
121.0693829896
  0
LINE
  8
0
 62
7
  6
CONTINUOUS
 10
285.3420747018
 20
101.9492156263
 11
284.9833481229
 21
101.7348746192
  0
LINE
  8
0
 62
7
  6
CONTINUOUS
 10
286.9833481229
 20
101.9492156263
 11
286.2470929469
 21
101.509299308
  0
LINE
  8
0
 62
7
  6
CONTINUOUS
 10
284.4833481229
 20
122.2590441794
 11
284.662721671
 21
122.2879936165
  0
LINE
  8
0
 62
7
  6
CONTINUOUS
 10
284.662721671
 20
122.2879936165
 11
284.8516212569
 21
122.3177747668
  0
LINE
  8
0
 62
7
  6
CONTINUOUS
 10
284.8516212569
 20
122.3177747668
 11
284.9833481229
 21
122.338139789
  0
LINE
  8
0
 62
7
  6
CONTINUOUS
 10
284.9833481229
 20
121.509299308
 11
286.2470929469
 21
121.509299308
  0
LINE
  8
0
 62
7
  6
CONTINUOUS
 10
286.9833481229
 20
121.0693829896
 11
286.2470929469
 21
121.509299308
  0
LINE
  8
0
 62
7
  6
CONTINUOUS
 10
279.861288454
 20
125.274299308
 11
281.8054077919
 21
125.274299308
  0
ARC
  8
0
 62
7
  6
CONTINUOUS
 10
66.8540224913
 20
202.4037633478
 40
0.5
 50
180.0
 51
270.0
  0
ARC
  8
0
 62
7
  6
CONTINUOUS
 10
72.4540224913
 20
202.4037633478
 40
0.5
 50
270.0
 51
360.0
  0
ARC
  8
0
 62
7
  6
CONTINUOUS
 10
69.8040224913
 20
202.4037633478
 40
0.5
 50
270.0
 51
360.0
  0
ARC
  8
0
 62
7
  6
CONTINUOUS
 10
91.1040224913
 20
202.4037633478
 40
0.5
 50
270.0
 51
360.0
  0
ARC
  8
0
 62
7
  6
CONTINUOUS
 10
89.1540224913
 20
202.4037633478
 40
0.5
 50
270.0
 51
360.0
  0
ARC
  8
0
 62
7
  6
CONTINUOUS
 10
98.1040224913
 20
202.4037633478
 40
0.5
 50
180.0
 51
270.0
  0
ARC
  8
0
 62
7
  6
CONTINUOUS
 10
100.0540224913
 20
202.4037633478
 40
0.5
 50
180.0
 51
270.0
  0
ARC
  8
0
 62
7
  6
CONTINUOUS
 10
79.0040224913
 20
202.4037633478
 40
0.5
 50
180.0
 51
270.0
  0
ARC
  8
0
 62
7
  6
CONTINUOUS
 10
80.9540224913
 20
202.4037633478
 40
0.5
 50
180.0
 51
270.0
  0
ARC
  8
0
 62
7
  6
CONTINUOUS
 10
66.6540224913
 20
204.1037633478
 40
0.5
 50
180.0
 51
233.0214079084
  0
ARC
  8
0
 62
7
  6
CONTINUOUS
 10
110.2040224913
 20
202.4037633478
 40
0.5
 50
270.0
 51
360.0
  0
ARC
  8
0
 62
7
  6
CONTINUOUS
 10
108.2540224913
 20
202.4037633478
 40
0.5
 50
270.0
 51
360.0
  0
ARC
  8
0
 62
7
  6
CONTINUOUS
 10
129.3040224913
 20
202.4037633478
 40
0.5
 50
270.0
 51
360.0
  0
ARC
  8
0
 62
7
  6
CONTINUOUS
 10
127.3540224913
 20
202.4037633478
 40
0.5
 50
270.0
 51
360.0
  0
ARC
  8
0
 62
7
  6
CONTINUOUS
 10
136.3040224913
 20
202.4037633478
 40
0.5
 50
180.0
 51
270.0
  0
ARC
  8
0
 62
7
  6
CONTINUOUS
 10
138.2540224913
 20
202.4037633478
 40
0.5
 50
180.0
 51
270.0
  0
ARC
  8
0
 62
7
  6
CONTINUOUS
 10
117.2040224913
 20
202.4037633478
 40
0.5
 50
180.0
 51
270.0
  0
ARC
  8
0
 62
7
  6
CONTINUOUS
 10
119.1540224913
 20
202.4037633478
 40
0.5
 50
180.0
 51
270.0
  0
ARC
  8
0
 62
7
  6
CONTINUOUS
 10
73.4540224913
 20
207.5037633478
 40
0.5
 50
94.2557403056
 51
180.0
  0
ARC
  8
0
 62
7
  6
CONTINUOUS
 10
100.0540224913
 20
209.9037633478
 40
0.5
 50
90.0
 51
180.0
  0
ARC
  8
0
 62
7
  6
CONTINUOUS
 10
69.8040224913
 20
209.9037633478
 40
0.5
 50
0.0
 51
90.0
  0
ARC
  8
0
 62
7
  6
CONTINUOUS
 10
89.1540224913
 20
209.9037633478
 40
0.5
 50
0.0
 51
90.0
  0
ARC
  8
0
 62
7
  6
CONTINUOUS
 10
80.9540224913
 20
209.9037633478
 40
0.5
 50
90.0
 51
180.0
  0
ARC
  8
0
 62
7
  6
CONTINUOUS
 10
66.6540224913
 20
209.9037633478
 40
0.5
 50
90.0
 51
180.0
  0
ARC
  8
0
 62
7
  6
CONTINUOUS
 10
66.8540224913
 20
209.9037633478
 40
0.5
 50
90.0
 51
180.0
  0
ARC
  8
0
 62
7
  6
CONTINUOUS
 10
119.1540224913
 20
209.9037633478
 40
0.5
 50
90.0
 51
180.0
  0
ARC
  8
0
 62
7
  6
CONTINUOUS
 10
108.2540224913
 20
209.9037633478
 40
0.5
 50
0.0
 51
90.0
  0
ARC
  8
0
 62
7
  6
CONTINUOUS
 10
127.3540224913
 20
209.9037633478
 40
0.5
 50
0.0
 51
90.0
  0
ARC
  8
0
 62
7
  6
CONTINUOUS
 10
138.2540224913
 20
209.9037633478
 40
0.5
 50
90.0
 51
180.0
  0
ARC
  8
0
 62
7
  6
CONTINUOUS
 10
165.5540224913
 20
202.4037633478
 40
0.5
 50
270.0
 51
360.0
  0
ARC
  8
0
 62
7
  6
CONTINUOUS
 10
146.4540224913
 20
202.4037633478
 40
0.5
 50
270.0
 51
360.0
  0
ARC
  8
0
 62
7
  6
CONTINUOUS
 10
148.4040224913
 20
202.4037633478
 40
0.5
 50
270.0
 51
360.0
  0
ARC
  8
0
 62
7
  6
CONTINUOUS
 10
167.5040224913
 20
202.4037633478
 40
0.5
 50
270.0
 51
360.0
  0
ARC
  8
0
 62
7
  6
CONTINUOUS
 10
174.5040224913
 20
202.4037633478
 40
0.5
 50
180.0
 51
270.0
  0
ARC
  8
0
 62
7
  6
CONTINUOUS
 10
176.4540224913
 20
202.4037633478
 40
0.5
 50
180.0
 51
270.0
  0
ARC
  8
0
 62
7
  6
CONTINUOUS
 10
155.4040224913
 20
202.4037633478
 40
0.5
 50
180.0
 51
270.0
  0
ARC
  8
0
 62
7
  6
CONTINUOUS
 10
157.3540224913
 20
202.4037633478
 40
0.5
 50
180.0
 51
270.0
  0
ARC
  8
0
 62
7
  6
CONTINUOUS
 10
217.8540224913
 20
202.4037633478
 40
0.5
 50
270.0
 51
360.0
  0
ARC
  8
0
 62
7
  6
CONTINUOUS
 10
186.6040224913
 20
202.4037633478
 40
0.5
 50
270.0
 51
360.0
  0
ARC
  8
0
 62
7
  6
CONTINUOUS
 10
184.6540224913
 20
202.4037633478
 40
0.5
 50
270.0
 51
360.0
  0
ARC
  8
0
 62
7
  6
CONTINUOUS
 10
212.2540224913
 20
202.4037633478
 40
0.5
 50
180.0
 51
270.0
  0
ARC
  8
0
 62
7
  6
CONTINUOUS
 10
214.9040224913
 20
202.4037633478
 40
0.5
 50
180.0
 51
270.0
  0
ARC
  8
0
 62
7
  6
CONTINUOUS
 10
193.6040224913
 20
202.4037633478
 40
0.5
 50
180.0
 51
270.0
  0
ARC
  8
0
 62
7
  6
CONTINUOUS
 10
195.5540224913
 20
202.4037633478
 40
0.5
 50
180.0
 51
270.0
  0
ARC
  8
0
 62
7
  6
CONTINUOUS
 10
205.7040224913
 20
202.4037633478
 40
0.5
 50
270.0
 51
360.0
  0
ARC
  8
0
 62
7
  6
CONTINUOUS
 10
203.7540224913
 20
202.4037633478
 40
0.5
 50
270.0
 51
360.0
  0
ARC
  8
0
 62
7
  6
CONTINUOUS
 10
218.0540224913
 20
204.1037633478
 40
0.5
 50
306.9785921441
 51
360.0
  0
ARC
  8
0
 62
7
  6
CONTINUOUS
 10
157.3540224913
 20
209.9037633478
 40
0.5
 50
90.0
 51
180.0
  0
ARC
  8
0
 62
7
  6
CONTINUOUS
 10
176.4540224913
 20
209.9037633478
 40
0.5
 50
90.0
 51
180.0
  0
ARC
  8
0
 62
7
  6
CONTINUOUS
 10
165.5540224913
 20
209.9037633478
 40
0.5
 50
0.0
 51
90.0
  0
ARC
  8
0
 62
7
  6
CONTINUOUS
 10
146.4540224913
 20
209.9037633478
 40
0.5
 50
0.0
 51
90.0
  0
ARC
  8
0
 62
7
  6
CONTINUOUS
 10
211.2540224913
 20
207.5037633478
 40
0.5
 50
0.0
 51
85.7442531848
  0
ARC
  8
0
 62
7
  6
CONTINUOUS
 10
214.9040224913
 20
209.9037633478
 40
0.5
 50
90.0
 51
180.0
  0
ARC
  8
0
 62
7
  6
CONTINUOUS
 10
184.6540224913
 20
209.9037633478
 40
0.5
 50
0.0
 51
90.0
  0
ARC
  8
0
 62
7
  6
CONTINUOUS
 10
195.5540224913
 20
209.9037633478
 40
0.5
 50
90.0
 51
180.0
  0
ARC
  8
0
 62
7
  6
CONTINUOUS
 10
203.7540224913
 20
209.9037633478
 40
0.5
 50
0.0
 51
90.0
  0
ARC
  8
0
 62
7
  6
CONTINUOUS
 10
217.8540224913
 20
209.9037633478
 40
0.5
 50
0.0
 51
90.0
  0
ARC
  8
0
 62
7
  6
CONTINUOUS
 10
218.0540224913
 20
209.9037633478
 40
0.5
 50
0.0
 51
90.0
  0
ARC
  8
0
 62
7
  6
CONTINUOUS
 10
100.0540224913
 20
98.244299308
 40
0.5
 50
180.0
 51
270.0
  0
ARC
  8
0
 62
7
  6
CONTINUOUS
 10
69.8040224913
 20
98.244299308
 40
0.5
 50
270.0
 51
360.0
  0
ARC
  8
0
 62
7
  6
CONTINUOUS
 10
89.1540224913
 20
98.244299308
 40
0.5
 50
270.0
 51
360.0
  0
ARC
  8
0
 62
7
  6
CONTINUOUS
 10
80.9540224913
 20
98.244299308
 40
0.5
 50
180.0
 51
270.0
  0
ARC
  8
0
 62
7
  6
CONTINUOUS
 10
66.8540224913
 20
98.244299308
 40
0.5
 50
180.0
 51
270.0
  0
ARC
  8
0
 62
7
  6
CONTINUOUS
 10
79.9540224913
 20
105.0959296415
 40
0.5
 50
0.0
 51
90.0
  0
ARC
  8
0
 62
7
  6
CONTINUOUS
 10
70.8040221931
 20
105.0959299398
 40
0.4999998509
 50
89.9999658243
 51
180.0000341757
  0
ARC
  8
0
 62
7
  6
CONTINUOUS
 10
65.8540224913
 20
105.7345791297
 40
0.5
 50
0.0
 51
36.8698976458
  0
ARC
  8
0
 62
7
  6
CONTINUOUS
 10
66.6540224913
 20
106.3345791297
 40
0.5
 50
180.0
 51
216.8698976458
  0
ARC
  8
0
 62
7
  6
CONTINUOUS
 10
99.0540224913
 20
105.0959296415
 40
0.5
 50
0.0
 51
90.0
  0
ARC
  8
0
 62
7
  6
CONTINUOUS
 10
90.1540221931
 20
105.0959299398
 40
0.4999998509
 50
89.9999658243
 51
180.0000341757
  0
ARC
  8
0
 62
7
  6
CONTINUOUS
 10
119.1540224913
 20
98.244299308
 40
0.5
 50
180.0
 51
270.0
  0
ARC
  8
0
 62
7
  6
CONTINUOUS
 10
108.2540224913
 20
98.244299308
 40
0.5
 50
270.0
 51
360.0
  0
ARC
  8
0
 62
7
  6
CONTINUOUS
 10
127.3540224913
 20
98.244299308
 40
0.5
 50
270.0
 51
360.0
  0
ARC
  8
0
 62
7
  6
CONTINUOUS
 10
138.2540224913
 20
98.244299308
 40
0.5
 50
180.0
 51
270.0
  0
ARC
  8
0
 62
7
  6
CONTINUOUS
 10
118.1540224913
 20
105.0959296415
 40
0.5
 50
0.0
 51
90.0
  0
ARC
  8
0
 62
7
  6
CONTINUOUS
 10
137.2540224913
 20
105.0959296415
 40
0.5
 50
0.0
 51
90.0
  0
ARC
  8
0
 62
7
  6
CONTINUOUS
 10
109.2540221931
 20
105.0959299398
 40
0.4999998509
 50
89.9999658243
 51
180.0000341757
  0
ARC
  8
0
 62
7
  6
CONTINUOUS
 10
128.3540221931
 20
105.0959299398
 40
0.4999998509
 50
89.9999658243
 51
180.0000341757
  0
ARC
  8
0
 62
7
  6
CONTINUOUS
 10
65.8540224913
 20
116.0039681983
 40
0.5
 50
326.3320887789
 51
360.0
  0
ARC
  8
0
 62
7
  6
CONTINUOUS
 10
66.6540224913
 20
115.4011521222
 40
0.5
 50
146.3320887789
 51
180.0
  0
ARC
  8
0
 62
7
  6
CONTINUOUS
 10
80.6040224913
 20
117.9226689744
 40
0.5
 50
180.0
 51
270.0
  0
ARC
  8
0
 62
7
  6
CONTINUOUS
 10
70.8540224913
 20
117.9226689744
 40
0.5
 50
270.0
 51
360.0
  0
ARC
  8
0
 62
7
  6
CONTINUOUS
 10
89.5040224913
 20
117.9226689744
 40
0.5
 50
270.0
 51
360.0
  0
ARC
  8
0
 62
7
  6
CONTINUOUS
 10
99.7040224913
 20
117.9226689744
 40
0.5
 50
180.0
 51
270.0
  0
ARC
  8
0
 62
7
  6
CONTINUOUS
 10
98.7040224913
 20
124.774299308
 40
0.5
 50
0.0
 51
90.0
  0
ARC
  8
0
 62
7
  6
CONTINUOUS
 10
90.5040224913
 20
124.774299308
 40
0.5
 50
90.0
 51
180.0
  0
ARC
  8
0
 62
7
  6
CONTINUOUS
 10
71.8540224913
 20
124.774299308
 40
0.5
 50
90.0
 51
180.0
  0
ARC
  8
0
 62
7
  6
CONTINUOUS
 10
79.6040224913
 20
124.774299308
 40
0.5
 50
0.0
 51
90.0
  0
ARC
  8
0
 62
7
  6
CONTINUOUS
 10
127.7040224913
 20
117.9226689744
 40
0.5
 50
270.0
 51
360.0
  0
ARC
  8
0
 62
7
  6
CONTINUOUS
 10
108.6040224913
 20
117.9226689744
 40
0.5
 50
270.0
 51
360.0
  0
ARC
  8
0
 62
7
  6
CONTINUOUS
 10
137.9040224913
 20
117.9226689744
 40
0.5
 50
180.0
 51
270.0
  0
ARC
  8
0
 62
7
  6
CONTINUOUS
 10
118.8040224913
 20
117.9226689744
 40
0.5
 50
180.0
 51
270.0
  0
ARC
  8
0
 62
7
  6
CONTINUOUS
 10
128.7040224913
 20
124.774299308
 40
0.5
 50
90.0
 51
180.0
  0
ARC
  8
0
 62
7
  6
CONTINUOUS
 10
136.9040224913
 20
124.774299308
 40
0.5
 50
0.0
 51
90.0
  0
ARC
  8
0
 62
7
  6
CONTINUOUS
 10
117.8040224913
 20
124.774299308
 40
0.5
 50
0.0
 51
90.0
  0
ARC
  8
0
 62
7
  6
CONTINUOUS
 10
109.6040224913
 20
124.774299308
 40
0.5
 50
90.0
 51
180.0
  0
ARC
  8
0
 62
7
  6
CONTINUOUS
 10
157.3540224913
 20
98.244299308
 40
0.5
 50
180.0
 51
270.0
  0
ARC
  8
0
 62
7
  6
CONTINUOUS
 10
176.4540224913
 20
98.244299308
 40
0.5
 50
180.0
 51
270.0
  0
ARC
  8
0
 62
7
  6
CONTINUOUS
 10
165.5540224913
 20
98.244299308
 40
0.5
 50
270.0
 51
360.0
  0
ARC
  8
0
 62
7
  6
CONTINUOUS
 10
146.4540224913
 20
98.244299308
 40
0.5
 50
270.0
 51
360.0
  0
ARC
  8
0
 62
7
  6
CONTINUOUS
 10
156.3540224913
 20
105.0959296415
 40
0.5
 50
0.0
 51
90.0
  0
ARC
  8
0
 62
7
  6
CONTINUOUS
 10
175.4540224913
 20
105.0959296415
 40
0.5
 50
0.0
 51
90.0
  0
ARC
  8
0
 62
7
  6
CONTINUOUS
 10
147.4540221931
 20
105.0959299398
 40
0.4999998509
 50
89.9999658243
 51
180.0000341757
  0
ARC
  8
0
 62
7
  6
CONTINUOUS
 10
166.5540221931
 20
105.0959299398
 40
0.4999998509
 50
89.9999658243
 51
180.0000341757
  0
ARC
  8
0
 62
7
  6
CONTINUOUS
 10
214.9040224913
 20
98.244299308
 40
0.5
 50
180.0
 51
270.0
  0
ARC
  8
0
 62
7
  6
CONTINUOUS
 10
184.6540224913
 20
98.244299308
 40
0.5
 50
270.0
 51
360.0
  0
ARC
  8
0
 62
7
  6
CONTINUOUS
 10
195.5540224913
 20
98.244299308
 40
0.5
 50
180.0
 51
270.0
  0
ARC
  8
0
 62
7
  6
CONTINUOUS
 10
203.7540224913
 20
98.244299308
 40
0.5
 50
270.0
 51
360.0
  0
ARC
  8
0
 62
7
  6
CONTINUOUS
 10
217.8540224913
 20
98.244299308
 40
0.5
 50
270.0
 51
360.0
  0
ARC
  8
0
 62
7
  6
CONTINUOUS
 10
194.5540224913
 20
105.0959296415
 40
0.5
 50
0.0
 51
90.0
  0
ARC
  8
0
 62
7
  6
CONTINUOUS
 10
185.6540221931
 20
105.0959299398
 40
0.4999998509
 50
89.9999658243
 51
180.0000341757
  0
ARC
  8
0
 62
7
  6
CONTINUOUS
 10
213.9040224913
 20
105.0959296415
 40
0.5
 50
0.0
 51
90.0
  0
ARC
  8
0
 62
7
  6
CONTINUOUS
 10
204.7540221931
 20
105.0959299398
 40
0.4999998509
 50
89.9999658243
 51
180.0000341757
  0
ARC
  8
0
 62
7
  6
CONTINUOUS
 10
218.8540224913
 20
105.7345791297
 40
0.5
 50
143.1301023542
 51
180.0
  0
ARC
  8
0
 62
7
  6
CONTINUOUS
 10
218.0540224913
 20
106.3345791297
 40
0.5
 50
323.1301023542
 51
360.0
  0
ARC
  8
0
 62
7
  6
CONTINUOUS
 10
165.9040224913
 20
117.9226689744
 40
0.5
 50
270.0
 51
360.0
  0
ARC
  8
0
 62
7
  6
CONTINUOUS
 10
146.8040224913
 20
117.9226689744
 40
0.5
 50
270.0
 51
360.0
  0
ARC
  8
0
 62
7
  6
CONTINUOUS
 10
176.1040224913
 20
117.9226689744
 40
0.5
 50
180.0
 51
270.0
  0
ARC
  8
0
 62
7
  6
CONTINUOUS
 10
157.0040224913
 20
117.9226689744
 40
0.5
 50
180.0
 51
270.0
  0
ARC
  8
0
 62
7
  6
CONTINUOUS
 10
166.9040224913
 20
124.774299308
 40
0.5
 50
90.0
 51
180.0
  0
ARC
  8
0
 62
7
  6
CONTINUOUS
 10
175.1040224913
 20
124.774299308
 40
0.5
 50
0.0
 51
90.0
  0
ARC
  8
0
 62
7
  6
CONTINUOUS
 10
156.0040224913
 20
124.774299308
 40
0.5
 50
0.0
 51
90.0
  0
ARC
  8
0
 62
7
  6
CONTINUOUS
 10
147.8040224913
 20
124.774299308
 40
0.5
 50
90.0
 51
180.0
  0
ARC
  8
0
 62
7
  6
CONTINUOUS
 10
185.0040224913
 20
117.9226689744
 40
0.5
 50
270.0
 51
360.0
  0
ARC
  8
0
 62
7
  6
CONTINUOUS
 10
195.2040224913
 20
117.9226689744
 40
0.5
 50
180.0
 51
270.0
  0
ARC
  8
0
 62
7
  6
CONTINUOUS
 10
218.8540224913
 20
116.0039681983
 40
0.5
 50
180.0
 51
213.6679112211
  0
ARC
  8
0
 62
7
  6
CONTINUOUS
 10
218.0540224913
 20
115.4011521222
 40
0.5
 50
0.0
 51
33.6679112211
  0
ARC
  8
0
 62
7
  6
CONTINUOUS
 10
204.1040224913
 20
117.9226689744
 40
0.5
 50
270.0
 51
360.0
  0
ARC
  8
0
 62
7
  6
CONTINUOUS
 10
213.8540224913
 20
117.9226689744
 40
0.5
 50
180.0
 51
270.0
  0
ARC
  8
0
 62
7
  6
CONTINUOUS
 10
194.2040224913
 20
124.774299308
 40
0.5
 50
0.0
 51
90.0
  0
ARC
  8
0
 62
7
  6
CONTINUOUS
 10
186.0040224913
 20
124.774299308
 40
0.5
 50
90.0
 51
180.0
  0
ARC
  8
0
 62
7
  6
CONTINUOUS
 10
205.1040224913
 20
124.774299308
 40
0.5
 50
90.0
 51
180.0
  0
ARC
  8
0
 62
7
  6
CONTINUOUS
 10
212.8540224913
 20
124.774299308
 40
0.5
 50
0.0
 51
90.0
  0
ARC
  8
0
 62
7
  6
CONTINUOUS
 10
277.6833481229
 20
105.6721170909
 40
0.5
 50
310.5027493696
 51
360.0
  0
ARC
  8
0
 62
7
  6
CONTINUOUS
 10
280.8333481229
 20
101.984299308
 40
4.35
 50
282.9124542829
 51
342.5584061437
  0
ARC
  8
0
 62
7
  6
CONTINUOUS
 10
280.8333481229
 20
101.984299308
 40
4.35
 50
130.5027493696
 51
257.0875457171
  0
CIRCLE
  8
2_FEATURE
 62
7
  6
CONTINUOUS
 10
280.8333481229
 20
101.984299308
 40
2.6
  0
ARC
  8
0
 62
7
  6
CONTINUOUS
 10
278.6833480344
 20
115.8526859108
 40
0.4999999557
 50
90.0
 51
180.0
  0
ARC
  8
0
 62
7
  6
CONTINUOUS
 10
280.8333481229
 20
121.034299308
 40
4.998
 50
293.803024964
 51
311.59628875
  0
ARC
  8
2_FEATURE
 62
7
  6
CONTINUOUS
 10
280.8333481229
 20
121.034299308
 40
4.35
 50
158.2655051901
 51
159.1045638183
  0
ARC
  8
1_AXIS
 62
7
  6
CONTINUOUS
 10
280.8333481229
 20
121.034299308
 40
4.35
 50
167.9921339638
 51
171.6775248428
  0
ARC
  8
0
 62
7
  6
CONTINUOUS
 10
280.8333481229
 20
121.034299308
 40
4.35
 50
102.9124542829
 51
180.0
  0
ARC
  8
2_FEATURE
 62
7
  6
CONTINUOUS
 10
280.8333481229
 20
121.034299308
 40
4.35
 50
178.7486193829
 51
179.7365874815
  0
ARC
  8
0
 62
7
  6
CONTINUOUS
 10
280.8333481229
 20
121.034299308
 40
4.35
 50
17.4415938563
 51
77.0875457171
  0
CIRCLE
  8
0
 62
7
  6
CONTINUOUS
 10
280.8333481229
 20
121.034299308
 40
2.6
  0
ARC
  8
0
 62
7
  6
CONTINUOUS
 10
284.4833481229
 20
116.9226689744
 40
0.5
 50
0.0
 51
131.59628875
  0
ARC
  8
0
 62
7
  6
CONTINUOUS
 10
282.4904882489
 20
116.8526859108
 40
0.5
 50
269.9997759608
 51
291.6182654695
  0
ENDSEC
  0
EOF
