  0
SECTION
  2
HEADER
  9
$EXTMAX
 10
210.0
 20
297.0
 30
0.0
  9
$EXTMIN
 10
0.0
 20
0.0
 30
0.0
  9
$LIMMIN
 10
0.0
 20
0.0
  9
$LIMMAX
 10
210.0
 20
297.0
  9
$VIEWCTR
 10
105.0
 20
148.5
  9
$VIEWSIZE
 40
297.0
  9
$CLAYER
  8
0
  9
$LTSCALE
 40
19.36
  9
$CELTYPE
  6
BYLAYER
  9
$DIMSCALE
 40
1.0
  9
$DIMASZ
 40
3.5
  9
$DIMEXO
 40
1.0
  9
$DIMDLI
 40
13.376
  9
$DIMEXE
 40
2.0
  9
$DIMCEN
 40
3.168
  9
$DIMLFAC
 40
1.0
  9
$DIMBLK
  1
_FILLED
  9
$DIMTXT
 40
3.5
  9
$PDMODE
 70
3
  9
$PDSIZE
 40
0.3125
  9
$TILEMODE
 70
1
  0
ENDSEC
  0
SECTION
  2
TABLES
  0
TABLE
  2
LTYPE
 70
6
  0
LTYPE
  2
BYBLOCK
 70
0
  3

 72
65
 73
0
 40
0.0
  0
LTYPE
  2
BYLAYER
 70
0
  3

 72
65
 73
0
 40
0.0
  0
LTYPE
  2
CONTINUOUS
 70
64
  3
Solid line
 72
65
 73
0
 40
0.0
  0
LTYPE
  2
CENTER
 70
64
  3
____ _ ____ _ ____ _ ____ _ ____ _ ____ _ ____
 72
65
 73
4
 40
0.6
 49
0.375
 49
-0.075
 49
0.075
 49
-0.075
  0
LTYPE
  2
HIDDEN
 70
64
  3
- - - - - - - - - - - - - - - - - - - -
 72
65
 73
2
 40
0.2
 49
0.1
 49
-0.1
  0
LTYPE
  2
PHANTOM
 70
64
  3
_____ _ _ _____ _ _ _____ _ _ _____
 72
65
 73
6
 40
0.8
 49
0.45
 49
-0.05
 49
0.1
 49
-0.05
 49
0.1
 49
-0.05
  0
LTYPE
  2
DOT
 70
64
  3
. . . . . . . . . . . . . . . . . . . .
 72
65
 73
2
 40
0.2
 49
0.1
 49
-0.1
  0
LTYPE
  2
DASHED
 70
64
  3
- - - - - - - - - - - - - - - - - - - -
 72
65
 73
2
 40
0.2
 49
0.1
 49
-0.1
  0
ENDTAB
  0
TABLE
  2
LAYER
 70
36
  0
LAYER
  2
0
 70
0
 62
7
  6
CONTINUOUS
  0
LAYER
  2
DEFAULT_1
 70
0
 62
7
  6
CENTER
  0
LAYER
  2
DEFAULT_2
 70
0
 62
8
  6
HIDDEN
  0
LAYER
  2
DEFAULT_3
 70
0
 62
7
  6
PHANTOM
  0
LAYER
  2
AXES
 70
0
 62
7
  6
CONTINUOUS
  0
LAYER
  2
CSYS
 70
0
 62
7
  6
CONTINUOUS
  0
LAYER
  2
CURVE
 70
0
 62
7
  6
CONTINUOUS
  0
LAYER
  2
CURVES
 70
0
 62
7
  6
CONTINUOUS
  0
LAYER
  2
PLANES
 70
0
 62
7
  6
CONTINUOUS
  0
LAYER
  2
SURFACE
 70
0
 62
7
  6
CONTINUOUS
  0
ENDTAB
  0
TABLE
  2
STYLE
 70
1
  0
STYLE
  2
STANDARD
 70
0
 40
0.0
 41
0.8
 50
0.0
 71
0
 42
0.2
  3
txt
  4

  0
STYLE
  2
TEXTSTYLE_1
 70
0
 40
0.0
 41
0.8
 50
0.0
 71
0
 42
0.2
  3
gdt
  4

  0
STYLE
  2
TEXTSTYLE_2
 70
0
 40
0.0
 41
0.6
 50
0.0
 71
0
 42
0.2
  3
txt
  4

  0
STYLE
  2
TEXTSTYLE_3
 70
0
 40
0.0
 41
1.0
 50
0.0
 71
0
 42
0.2
  3
ftb_____.ttf
  4

  0
STYLE
  2
TEXTSTYLE_4
 70
0
 40
0.0
 41
1.0
 50
0.0
 71
0
 42
0.2
  3
fti_____.ttf
  4

  0
STYLE
  2
TEXTSTYLE_5
 70
0
 40
0.0
 41
1.0
 50
0.0
 71
0
 42
0.2
  3
frutiger light.ttf
  4

  0
STYLE
  2
TEXTSTYLE_6
 70
0
 40
0.0
 41
0.7
 50
0.0
 71
0
 42
0.2
  3
txt
  4

  0
STYLE
  2
TEXTSTYLE_7
 70
0
 40
0.0
 41
0.6
 50
0.0
 71
0
 42
0.2
  3
txt
  4

  0
ENDTAB
  0
ENDSEC
  0
SECTION
  2
BLOCKS
  0
BLOCK
  8
0
 62
2
  6
CONTINUOUS
  2
SYMBOL_8_BL1
 70
64
 10
173.5956734183
 20
35.5937998301
  0
TEXT
  8
0
 62
7
  6
CONTINUOUS
 10
164.6539584268
 20
30.6865562072
  7
TEXTSTYLE_4
 40
1.0655737705
  1
The brand for plastic modular belts and chains
 41
1.0
 72
0
  0
LINE
  8
0
 62
7
  6
CONTINUOUS
 10
149.5737418074
 20
36.1675703219
 11
149.5737418074
 21
34.0364227809
  0
LINE
  8
0
 62
7
  6
CONTINUOUS
 10
149.8628043005
 20
31.0454914852
 11
149.8628043005
 21
31.1422825445
  0
LINE
  8
0
 62
7
  6
CONTINUOUS
 10
149.5737418074
 20
31.1100188581
 11
149.6315543091
 21
30.9164367395
  0
LINE
  8
0
 62
7
  6
CONTINUOUS
 10
150.9671844304
 20
33.9544555678
 11
150.9671844304
 21
36.1675703219
  0
LINE
  8
0
 62
7
  6
CONTINUOUS
 10
151.8862417523
 20
32.1101932727
 11
151.8862417523
 21
30.5937998301
  0
LINE
  8
0
 62
7
  6
CONTINUOUS
 10
152.1753043074
 20
30.5937998301
 11
152.1753043074
 21
31.3358647082
  0
LINE
  8
0
 62
7
  6
CONTINUOUS
 10
152.1753043074
 20
31.4649194539
 11
152.1753043074
 21
32.1101932727
  0
LINE
  8
0
 62
7
  6
CONTINUOUS
 10
149.6315543091
 20
31.3036010218
 11
149.5737418074
 21
31.1100188581
  0
LINE
  8
0
 62
7
  6
CONTINUOUS
 10
149.9784292936
 20
30.8841730531
 11
149.8628043005
 21
31.0454914852
  0
LINE
  8
0
 62
7
  6
CONTINUOUS
 10
151.0768668626
 20
31.400392081
 11
151.1346793074
 21
31.3036010218
  0
LINE
  8
0
 62
7
  6
CONTINUOUS
 10
151.4237418626
 20
31.3036010218
 11
151.3659292523
 21
31.4326557675
  0
LINE
  8
0
 62
7
  6
CONTINUOUS
 10
152.852430332
 20
36.1675703219
 11
152.852430332
 21
34.3642916334
  0
LINE
  8
0
 62
7
  6
CONTINUOUS
 10
152.852430332
 20
33.0528162235
 11
152.852430332
 21
32.3970785186
  0
LINE
  8
0
 62
7
  6
CONTINUOUS
 10
153.2159293074
 20
31.2390736489
 11
153.2159293074
 21
30.5937998301
  0
LINE
  8
0
 62
7
  6
CONTINUOUS
 10
153.5049916972
 20
30.5937998301
 11
153.5049916972
 21
31.2390736489
  0
LINE
  8
0
 62
7
  6
CONTINUOUS
 10
149.8628043005
 20
31.1422825445
 11
149.9206168074
 21
31.2713373354
  0
LINE
  8
0
 62
7
  6
CONTINUOUS
 10
149.6315543091
 20
30.9164367395
 11
149.7471793074
 21
30.7873819712
  0
LINE
  8
0
 62
7
  6
CONTINUOUS
 10
153.1581166972
 20
31.3681283946
 11
153.2159293074
 21
31.2390736489
  0
LINE
  8
0
 62
7
  6
CONTINUOUS
 10
153.9674919177
 20
30.8841730531
 11
154.0253041972
 21
30.7551182848
  0
LINE
  8
0
 62
7
  6
CONTINUOUS
 10
153.5049916972
 20
31.2390736489
 11
153.4471794177
 21
31.400392081
  0
LINE
  8
0
 62
7
  6
CONTINUOUS
 10
153.9674919177
 20
31.4326557675
 11
153.9674919177
 21
31.3681283946
  0
LINE
  8
0
 62
7
  6
CONTINUOUS
 10
153.9674919177
 20
30.9809641124
 11
153.9674919177
 21
30.8841730531
  0
LINE
  8
0
 62
7
  6
CONTINUOUS
 10
154.245872955
 20
32.3970785186
 11
154.245872955
 21
36.1675703219
  0
LINE
  8
0
 62
7
  6
CONTINUOUS
 10
154.2565543074
 20
30.8519093441
 11
154.2565543074
 21
30.9164367395
  0
LINE
  8
0
 62
7
  6
CONTINUOUS
 10
154.5737418074
 20
36.1675703219
 11
154.5737418074
 21
32.3970785186
  0
LINE
  8
0
 62
7
  6
CONTINUOUS
 10
151.3659292523
 20
30.7873819712
 11
151.4237418626
 21
30.9164367395
  0
LINE
  8
0
 62
7
  6
CONTINUOUS
 10
155.759679528
 20
30.6905909007
 11
155.7018665869
 21
30.8519093441
  0
LINE
  8
0
 62
7
  6
CONTINUOUS
 10
155.412804528
 20
31.3681283946
 11
155.412804528
 21
31.2713373354
  0
LINE
  8
0
 62
7
  6
CONTINUOUS
 10
155.412804528
 20
31.1422825445
 11
155.412804528
 21
30.9487004259
  0
LINE
  8
0
 62
7
  6
CONTINUOUS
 10
155.7018665869
 20
30.8519093441
 11
155.7018665869
 21
31.3681283946
  0
LINE
  8
0
 62
7
  6
CONTINUOUS
 10
155.9671844304
 20
32.3970785186
 11
155.9671844304
 21
34.2003572071
  0
LINE
  8
0
 62
7
  6
CONTINUOUS
 10
155.9671844304
 20
35.511832617
 11
155.9671844304
 21
36.1675703219
  0
LINE
  8
0
 62
7
  6
CONTINUOUS
 10
156.279992028
 20
32.1101932727
 11
156.279992028
 21
31.9488748406
  0
LINE
  8
0
 62
7
  6
CONTINUOUS
 10
156.279992028
 20
31.626237886
 11
156.279992028
 21
30.5937998301
  0
LINE
  8
0
 62
7
  6
CONTINUOUS
 10
156.5690540869
 20
30.5937998301
 11
156.5690540869
 21
31.626237886
  0
LINE
  8
0
 62
7
  6
CONTINUOUS
 10
156.5690540869
 20
31.9488748406
 11
156.5690540869
 21
32.1101932727
  0
LINE
  8
0
 62
7
  6
CONTINUOUS
 10
151.1346793074
 20
30.9164367395
 11
151.0768668626
 21
30.8196456577
  0
LINE
  8
0
 62
7
  6
CONTINUOUS
 10
153.4471794177
 20
31.400392081
 11
153.3893668074
 21
31.4649194539
  0
LINE
  8
0
 62
7
  6
CONTINUOUS
 10
154.3143669177
 20
30.7873819712
 11
154.2565543074
 21
30.8519093441
  0
LINE
  8
0
 62
7
  6
CONTINUOUS
 10
155.4706168074
 20
30.6583272086
 11
155.5284290869
 21
30.5937998301
  0
LINE
  8
0
 62
7
  6
CONTINUOUS
 10
155.412804528
 20
30.7551182848
 11
155.4706168074
 21
30.6583272086
  0
LINE
  8
0
 62
7
  6
CONTINUOUS
 10
155.8174918074
 20
30.5937998301
 11
155.759679528
 21
30.6905909007
  0
LINE
  8
0
 62
7
  6
CONTINUOUS
 10
155.7018665869
 20
31.3681283946
 11
155.6440543074
 21
31.4649194539
  0
LINE
  8
0
 62
7
  6
CONTINUOUS
 10
157.0315543074
 20
31.626237886
 11
157.0315543074
 21
30.5937998301
  0
LINE
  8
0
 62
7
  6
CONTINUOUS
 10
157.320617028
 20
30.5937998301
 11
157.320617028
 21
31.3358647082
  0
LINE
  8
0
 62
7
  6
CONTINUOUS
 10
157.320617028
 20
31.4649194539
 11
157.320617028
 21
31.626237886
  0
LINE
  8
0
 62
7
  6
CONTINUOUS
 10
157.852430332
 20
34.6101932727
 11
157.852430332
 21
32.3970785186
  0
LINE
  8
0
 62
7
  6
CONTINUOUS
 10
149.7471793074
 20
31.4326557675
 11
149.6315543091
 21
31.3036010218
  0
LINE
  8
0
 62
7
  6
CONTINUOUS
 10
149.9206168074
 20
31.2713373354
 11
149.9784292936
 21
31.3358647082
  0
LINE
  8
0
 62
7
  6
CONTINUOUS
 10
149.7471793074
 20
30.7873819712
 11
149.8628043005
 21
30.7228545871
  0
LINE
  8
0
 62
7
  6
CONTINUOUS
 10
150.1518667936
 20
30.7873819712
 11
149.9784292936
 21
30.8841730531
  0
LINE
  8
0
 62
7
  6
CONTINUOUS
 10
155.3549915869
 20
31.4326557675
 11
155.412804528
 21
31.3681283946
  0
LINE
  8
0
 62
7
  6
CONTINUOUS
 10
158.3034290869
 20
31.3681283946
 11
158.361242028
 21
31.2068099625
  0
LINE
  8
0
 62
7
  6
CONTINUOUS
 10
158.6503040869
 20
31.2068099625
 11
158.5924918074
 21
31.3681283946
  0
LINE
  8
0
 62
7
  6
CONTINUOUS
 10
158.361242028
 20
31.2068099625
 11
158.361242028
 21
30.5937998301
  0
LINE
  8
0
 62
7
  6
CONTINUOUS
 10
158.6503040869
 20
30.5937998301
 11
158.6503040869
 21
31.2068099625
  0
LINE
  8
0
 62
7
  6
CONTINUOUS
 10
159.1128043074
 20
31.4326557675
 11
159.1128043074
 21
31.3681283946
  0
LINE
  8
0
 62
7
  6
CONTINUOUS
 10
159.245872955
 20
32.3970785186
 11
159.245872955
 21
34.5282260596
  0
LINE
  8
0
 62
7
  6
CONTINUOUS
 10
159.5737418074
 20
36.1675703219
 11
159.5737418074
 21
32.3970785186
  0
LINE
  8
0
 62
7
  6
CONTINUOUS
 10
154.2565543074
 20
30.9164367395
 11
154.3143669177
 21
31.0132277988
  0
LINE
  8
0
 62
7
  6
CONTINUOUS
 10
149.8628043005
 20
30.7228545871
 11
150.0362418212
 21
30.6583272086
  0
LINE
  8
0
 62
7
  6
CONTINUOUS
 10
151.3659292523
 20
31.4326557675
 11
151.1924917523
 21
31.5294468267
  0
LINE
  8
0
 62
7
  6
CONTINUOUS
 10
154.0253041972
 20
30.7551182848
 11
154.1987416972
 21
30.6583272086
  0
LINE
  8
0
 62
7
  6
CONTINUOUS
 10
153.0424918074
 20
31.4326557675
 11
153.1581166972
 21
31.3681283946
  0
LINE
  8
0
 62
7
  6
CONTINUOUS
 10
153.3893668074
 20
31.4649194539
 11
153.2737419177
 21
31.5294468267
  0
LINE
  8
0
 62
7
  6
CONTINUOUS
 10
159.1128043074
 20
30.8519093441
 11
159.228429528
 21
30.7228545871
  0
LINE
  8
0
 62
7
  6
CONTINUOUS
 10
159.4596793074
 20
30.7873819712
 11
159.401867028
 21
30.8519093441
  0
LINE
  8
0
 62
7
  6
CONTINUOUS
 10
159.1128043074
 20
31.3681283946
 11
159.228429528
 21
31.2390736489
  0
LINE
  8
0
 62
7
  6
CONTINUOUS
 10
158.5924918074
 20
31.3681283946
 11
158.534679528
 21
31.4649194539
  0
LINE
  8
0
 62
7
  6
CONTINUOUS
 10
160.9628038663
 20
30.7873819712
 11
160.9628038663
 21
30.8519093441
  0
LINE
  8
0
 62
7
  6
CONTINUOUS
 10
160.9671844304
 20
32.3970785186
 11
160.9671844304
 21
36.1675703219
  0
LINE
  8
0
 62
7
  6
CONTINUOUS
 10
154.0253041972
 20
31.4971831403
 11
153.9674919177
 21
31.4326557675
  0
LINE
  8
0
 62
7
  6
CONTINUOUS
 10
150.9034292799
 20
31.4649194539
 11
151.0768668626
 21
31.400392081
  0
LINE
  8
0
 62
7
  6
CONTINUOUS
 10
155.6440543074
 20
31.4649194539
 11
155.5284290869
 21
31.5294468267
  0
LINE
  8
0
 62
7
  6
CONTINUOUS
 10
159.4596793074
 20
31.3036010218
 11
159.401867028
 21
31.3681283946
  0
LINE
  8
0
 62
7
  6
CONTINUOUS
 10
160.615929528
 20
30.9164367395
 11
160.6737418074
 21
30.8519093441
  0
LINE
  8
0
 62
7
  6
CONTINUOUS
 10
160.9628038663
 20
30.8519093441
 11
160.8471793074
 21
30.9809641124
  0
LINE
  8
0
 62
7
  6
CONTINUOUS
 10
160.615929528
 20
31.4326557675
 11
160.6737418074
 21
31.3681283946
  0
LINE
  8
0
 62
7
  6
CONTINUOUS
 10
160.9628038663
 20
31.3681283946
 11
160.8471793074
 21
31.4971831403
  0
LINE
  8
0
 62
7
  6
CONTINUOUS
 10
154.2565543074
 20
31.3681283946
 11
154.3143669177
 21
31.4326557675
  0
LINE
  8
0
 62
7
  6
CONTINUOUS
 10
154.0831168074
 20
31.1100188581
 11
153.9674919177
 21
30.9809641124
  0
LINE
  8
0
 62
7
  6
CONTINUOUS
 10
155.412804528
 20
30.9487004259
 11
155.3549915869
 21
30.8841730531
  0
LINE
  8
0
 62
7
  6
CONTINUOUS
 10
155.3549915869
 20
30.6905909007
 11
155.412804528
 21
30.7551182848
  0
LINE
  8
0
 62
7
  6
CONTINUOUS
 10
154.1987416972
 20
30.6583272086
 11
154.3143669177
 21
30.6260635193
  0
LINE
  8
0
 62
7
  6
CONTINUOUS
 10
151.1924917523
 20
31.5294468267
 11
150.9612418074
 21
31.5939741996
  0
LINE
  8
0
 62
7
  6
CONTINUOUS
 10
154.5456166972
 20
30.7228545871
 11
154.3143669177
 21
30.7873819712
  0
LINE
  8
0
 62
7
  6
CONTINUOUS
 10
153.2737419177
 20
31.5294468267
 11
153.1003044177
 21
31.5939741996
  0
LINE
  8
0
 62
7
  6
CONTINUOUS
 10
155.5284290869
 20
31.5294468267
 11
155.3549915869
 21
31.5939741996
  0
LINE
  8
0
 62
7
  6
CONTINUOUS
 10
158.187804528
 20
31.4326557675
 11
158.3034290869
 21
31.3681283946
  0
LINE
  8
0
 62
7
  6
CONTINUOUS
 10
158.534679528
 20
31.4649194539
 11
158.4190543074
 21
31.5294468267
  0
LINE
  8
0
 62
7
  6
CONTINUOUS
 10
150.0362418212
 20
30.6583272086
 11
150.2096793212
 21
30.6260635193
  0
LINE
  8
0
 62
7
  6
CONTINUOUS
 10
150.498741835
 20
30.7228545871
 11
150.1518667936
 21
30.7873819712
  0
LINE
  8
0
 62
7
  6
CONTINUOUS
 10
152.9268669177
 20
31.4649194539
 11
153.0424918074
 21
31.4326557675
  0
LINE
  8
0
 62
7
  6
CONTINUOUS
 10
155.239367028
 20
31.4649194539
 11
155.3549915869
 21
31.4326557675
  0
LINE
  8
0
 62
7
  6
CONTINUOUS
 10
159.575304528
 20
30.7551182848
 11
159.4596793074
 21
30.7873819712
  0
LINE
  8
0
 62
7
  6
CONTINUOUS
 10
158.0721793074
 20
31.4649194539
 11
158.187804528
 21
31.4326557675
  0
LINE
  8
0
 62
7
  6
CONTINUOUS
 10
159.228429528
 20
30.7228545871
 11
159.401867028
 21
30.6583272086
  0
LINE
  8
0
 62
7
  6
CONTINUOUS
 10
158.4190543074
 20
31.5294468267
 11
158.2456168074
 21
31.5939741996
  0
LINE
  8
0
 62
7
  6
CONTINUOUS
 10
159.6331168074
 20
31.2390736489
 11
159.4596793074
 21
31.3036010218
  0
LINE
  8
0
 62
7
  6
CONTINUOUS
 10
160.442492028
 20
30.9809641124
 11
160.615929528
 21
30.9164367395
  0
LINE
  8
0
 62
7
  6
CONTINUOUS
 10
160.8471793074
 20
31.4971831403
 11
160.6737418074
 21
31.5617105132
  0
LINE
  8
0
 62
7
  6
CONTINUOUS
 10
159.228429528
 20
31.2390736489
 11
159.4596793074
 21
31.1422825445
  0
LINE
  8
0
 62
7
  6
CONTINUOUS
 10
160.8471793074
 20
30.9809641124
 11
160.615929528
 21
31.0777551716
  0
LINE
  8
0
 62
7
  6
CONTINUOUS
 10
159.401867028
 20
31.3681283946
 11
159.4596793074
 21
31.4326557675
  0
LINE
  8
0
 62
7
  6
CONTINUOUS
 10
149.8628043005
 20
31.4971831403
 11
149.7471793074
 21
31.4326557675
  0
LINE
  8
0
 62
7
  6
CONTINUOUS
 10
149.9784292936
 20
31.3358647082
 11
150.1518667936
 21
31.4326557675
  0
LINE
  8
0
 62
7
  6
CONTINUOUS
 10
152.2909293626
 20
31.5294468267
 11
152.1753043074
 21
31.4649194539
  0
LINE
  8
0
 62
7
  6
CONTINUOUS
 10
152.1753043074
 20
31.3358647082
 11
152.2909293626
 21
31.400392081
  0
LINE
  8
0
 62
7
  6
CONTINUOUS
 10
151.1924917523
 20
30.6905909007
 11
151.3659292523
 21
30.7873819712
  0
LINE
  8
0
 62
7
  6
CONTINUOUS
 10
150.2096793212
 20
30.6260635193
 11
150.5565542799
 21
30.5937998301
  0
LINE
  8
0
 62
7
  6
CONTINUOUS
 10
154.3143669177
 20
30.6260635193
 11
154.5456166972
 21
30.5937998301
  0
LINE
  8
0
 62
7
  6
CONTINUOUS
 10
152.6956168074
 20
31.4971831403
 11
152.9268669177
 21
31.4649194539
  0
LINE
  8
0
 62
7
  6
CONTINUOUS
 10
155.0081169177
 20
31.4971831403
 11
155.239367028
 21
31.4649194539
  0
LINE
  8
0
 62
7
  6
CONTINUOUS
 10
159.4596793074
 20
31.1422825445
 11
160.442492028
 21
30.9809641124
  0
LINE
  8
0
 62
7
  6
CONTINUOUS
 10
160.615929528
 20
31.0777551716
 11
159.6331168074
 21
31.2390736489
  0
LINE
  8
0
 62
7
  6
CONTINUOUS
 10
153.1003044177
 20
31.5939741996
 11
152.9268669177
 21
31.626237886
  0
LINE
  8
0
 62
7
  6
CONTINUOUS
 10
159.401867028
 20
30.6583272086
 11
159.575304528
 21
30.6260635193
  0
LINE
  8
0
 62
7
  6
CONTINUOUS
 10
158.2456168074
 20
31.5939741996
 11
158.0721793074
 21
31.626237886
  0
LINE
  8
0
 62
7
  6
CONTINUOUS
 10
160.5003043074
 20
31.4649194539
 11
160.615929528
 21
31.4326557675
  0
LINE
  8
0
 62
7
  6
CONTINUOUS
 10
160.6737418074
 20
30.8519093441
 11
160.615929528
 21
30.7873819712
  0
LINE
  8
0
 62
7
  6
CONTINUOUS
 10
159.228429528
 20
31.5294468267
 11
159.1128043074
 21
31.4326557675
  0
LINE
  8
0
 62
7
  6
CONTINUOUS
 10
154.1409294177
 20
31.5617105132
 11
154.0253041972
 21
31.4971831403
  0
LINE
  8
0
 62
7
  6
CONTINUOUS
 10
154.1987416972
 20
31.1745462761
 11
154.0831168074
 21
31.1100188581
  0
LINE
  8
0
 62
7
  6
CONTINUOUS
 10
154.3143669177
 20
31.0132277988
 11
154.4299918074
 21
31.0777551716
  0
LINE
  8
0
 62
7
  6
CONTINUOUS
 10
151.8862417523
 20
30.5937998301
 11
152.1753043074
 21
30.5937998301
  0
LINE
  8
0
 62
7
  6
CONTINUOUS
 10
153.2159293074
 20
30.5937998301
 11
153.5049916972
 21
30.5937998301
  0
LINE
  8
0
 62
7
  6
CONTINUOUS
 10
154.5456166972
 20
30.5937998301
 11
154.8924916972
 21
30.5937998301
  0
LINE
  8
0
 62
7
  6
CONTINUOUS
 10
155.5284290869
 20
30.5937998301
 11
155.8174918074
 21
30.5937998301
  0
LINE
  8
0
 62
7
  6
CONTINUOUS
 10
156.279992028
 20
30.5937998301
 11
156.5690540869
 21
30.5937998301
  0
LINE
  8
0
 62
7
  6
CONTINUOUS
 10
157.0315543074
 20
30.5937998301
 11
157.320617028
 21
30.5937998301
  0
LINE
  8
0
 62
7
  6
CONTINUOUS
 10
158.361242028
 20
30.5937998301
 11
158.6503040869
 21
30.5937998301
  0
LINE
  8
0
 62
7
  6
CONTINUOUS
 10
159.922179528
 20
30.5937998301
 11
160.269054528
 21
30.5937998301
  0
LINE
  8
0
 62
7
  6
CONTINUOUS
 10
160.269054528
 20
30.7228545871
 11
159.922179528
 21
30.7228545871
  0
LINE
  8
0
 62
7
  6
CONTINUOUS
 10
154.8924916972
 20
30.7228545871
 11
154.5456166972
 21
30.7228545871
  0
LINE
  8
0
 62
7
  6
CONTINUOUS
 10
159.401867028
 20
30.8519093441
 11
159.1128043074
 21
30.8519093441
  0
LINE
  8
0
 62
7
  6
CONTINUOUS
 10
151.4237418626
 20
30.9164367395
 11
151.1346793074
 21
30.9164367395
  0
LINE
  8
0
 62
7
  6
CONTINUOUS
 10
150.498741835
 20
31.4971831403
 11
150.9034292799
 21
31.4649194539
  0
LINE
  8
0
 62
7
  6
CONTINUOUS
 10
150.9612418074
 20
31.5939741996
 11
150.5565542799
 21
31.626237886
  0
LINE
  8
0
 62
7
  6
CONTINUOUS
 10
159.575304528
 20
30.6260635193
 11
159.922179528
 21
30.5937998301
  0
LINE
  8
0
 62
7
  6
CONTINUOUS
 10
159.922179528
 20
30.7228545871
 11
159.575304528
 21
30.7551182848
  0
LINE
  8
0
 62
7
  6
CONTINUOUS
 10
155.3549915869
 20
31.5939741996
 11
155.0081169177
 21
31.626237886
  0
LINE
  8
0
 62
7
  6
CONTINUOUS
 10
160.1534293074
 20
31.4971831403
 11
160.5003043074
 21
31.4649194539
  0
LINE
  8
0
 62
7
  6
CONTINUOUS
 10
160.5003043074
 20
31.5939741996
 11
160.1534293074
 21
31.626237886
  0
LINE
  8
0
 62
7
  6
CONTINUOUS
 10
157.840929528
 20
31.4971831403
 11
158.0721793074
 21
31.4649194539
  0
LINE
  8
0
 62
7
  6
CONTINUOUS
 10
160.6737418074
 20
31.5617105132
 11
160.5003043074
 21
31.5939741996
  0
LINE
  8
0
 62
7
  6
CONTINUOUS
 10
160.8471793074
 20
30.6905909007
 11
160.9628038663
 21
30.7873819712
  0
LINE
  8
0
 62
7
  6
CONTINUOUS
 10
155.3549915869
 20
30.8841730531
 11
155.1815540869
 21
30.7873819712
  0
LINE
  8
0
 62
7
  6
CONTINUOUS
 10
157.4362415869
 20
31.5294468267
 11
157.320617028
 21
31.4649194539
  0
LINE
  8
0
 62
7
  6
CONTINUOUS
 10
157.320617028
 20
31.3358647082
 11
157.4362415869
 21
31.400392081
  0
LINE
  8
0
 62
7
  6
CONTINUOUS
 10
150.0362418212
 20
31.5617105132
 11
149.8628043005
 21
31.4971831403
  0
LINE
  8
0
 62
7
  6
CONTINUOUS
 10
152.4643666972
 20
31.5939741996
 11
152.2909293626
 21
31.5294468267
  0
LINE
  8
0
 62
7
  6
CONTINUOUS
 10
152.2909293626
 20
31.400392081
 11
152.4643666972
 21
31.4649194539
  0
LINE
  8
0
 62
7
  6
CONTINUOUS
 10
151.0768668626
 20
30.8196456577
 11
150.9034292799
 21
30.7551182848
  0
LINE
  8
0
 62
7
  6
CONTINUOUS
 10
160.5003043074
 20
30.7551182848
 11
160.269054528
 21
30.7228545871
  0
LINE
  8
0
 62
7
  6
CONTINUOUS
 10
154.8924916972
 20
30.5937998301
 11
155.1815540869
 21
30.6260635193
  0
LINE
  8
0
 62
7
  6
CONTINUOUS
 10
160.269054528
 20
30.5937998301
 11
160.615929528
 21
30.6260635193
  0
LINE
  8
0
 62
7
  6
CONTINUOUS
 10
150.5565542799
 20
30.5937998301
 11
150.9612418074
 21
30.6260635193
  0
LINE
  8
0
 62
7
  6
CONTINUOUS
 10
150.9034292799
 20
30.7551182848
 11
150.498741835
 21
30.7228545871
  0
LINE
  8
0
 62
7
  6
CONTINUOUS
 10
154.7768668074
 20
31.1422825445
 11
155.412804528
 21
31.1422825445
  0
LINE
  8
0
 62
7
  6
CONTINUOUS
 10
155.412804528
 20
31.2713373354
 11
154.7768668074
 21
31.2713373354
  0
LINE
  8
0
 62
7
  6
CONTINUOUS
 10
151.1346793074
 20
31.3036010218
 11
151.4237418626
 21
31.3036010218
  0
LINE
  8
0
 62
7
  6
CONTINUOUS
 10
153.9674919177
 20
31.3681283946
 11
154.2565543074
 21
31.3681283946
  0
LINE
  8
0
 62
7
  6
CONTINUOUS
 10
160.6737418074
 20
31.3681283946
 11
160.9628038663
 21
31.3681283946
  0
LINE
  8
0
 62
7
  6
CONTINUOUS
 10
154.6612419177
 20
31.4971831403
 11
155.0081169177
 21
31.4971831403
  0
LINE
  8
0
 62
7
  6
CONTINUOUS
 10
159.8065543074
 20
31.4971831403
 11
160.1534293074
 21
31.4971831403
  0
LINE
  8
0
 62
7
  6
CONTINUOUS
 10
160.1534293074
 20
31.626237886
 11
159.8065543074
 21
31.626237886
  0
LINE
  8
0
 62
7
  6
CONTINUOUS
 10
158.0721793074
 20
31.626237886
 11
157.840929528
 21
31.626237886
  0
LINE
  8
0
 62
7
  6
CONTINUOUS
 10
157.320617028
 20
31.626237886
 11
157.0315543074
 21
31.626237886
  0
LINE
  8
0
 62
7
  6
CONTINUOUS
 10
156.5690540869
 20
31.626237886
 11
156.279992028
 21
31.626237886
  0
LINE
  8
0
 62
7
  6
CONTINUOUS
 10
155.0081169177
 20
31.626237886
 11
154.6612419177
 21
31.626237886
  0
LINE
  8
0
 62
7
  6
CONTINUOUS
 10
152.9268669177
 20
31.626237886
 11
152.6956168074
 21
31.626237886
  0
LINE
  8
0
 62
7
  6
CONTINUOUS
 10
156.279992028
 20
31.9488748406
 11
156.5690540869
 21
31.9488748406
  0
LINE
  8
0
 62
7
  6
CONTINUOUS
 10
156.5690540869
 20
32.1101932727
 11
156.279992028
 21
32.1101932727
  0
LINE
  8
0
 62
7
  6
CONTINUOUS
 10
152.1753043074
 20
32.1101932727
 11
151.8862417523
 21
32.1101932727
  0
LINE
  8
0
 62
7
  6
CONTINUOUS
 10
151.2130860697
 20
32.3970785186
 11
151.6256574183
 21
32.3970785186
  0
LINE
  8
0
 62
7
  6
CONTINUOUS
 10
152.852430332
 20
32.3970785186
 11
154.245872955
 21
32.3970785186
  0
LINE
  8
0
 62
7
  6
CONTINUOUS
 10
154.5737418074
 20
32.3970785186
 11
155.9671844304
 21
32.3970785186
  0
LINE
  8
0
 62
7
  6
CONTINUOUS
 10
157.852430332
 20
32.3970785186
 11
159.245872955
 21
32.3970785186
  0
LINE
  8
0
 62
7
  6
CONTINUOUS
 10
159.5737418074
 20
32.3970785186
 11
160.9671844304
 21
32.3970785186
  0
LINE
  8
0
 62
7
  6
CONTINUOUS
 10
157.6096790869
 20
31.5939741996
 11
157.4362415869
 21
31.5294468267
  0
LINE
  8
0
 62
7
  6
CONTINUOUS
 10
155.1815540869
 20
30.6260635193
 11
155.3549915869
 21
30.6905909007
  0
LINE
  8
0
 62
7
  6
CONTINUOUS
 10
160.615929528
 20
30.6260635193
 11
160.8471793074
 21
30.6905909007
  0
LINE
  8
0
 62
7
  6
CONTINUOUS
 10
160.615929528
 20
30.7873819712
 11
160.5003043074
 21
30.7551182848
  0
LINE
  8
0
 62
7
  6
CONTINUOUS
 10
159.575304528
 20
31.4649194539
 11
159.8065543074
 21
31.4971831403
  0
LINE
  8
0
 62
7
  6
CONTINUOUS
 10
157.6096790869
 20
31.4649194539
 11
157.840929528
 21
31.4971831403
  0
LINE
  8
0
 62
7
  6
CONTINUOUS
 10
154.5456166972
 20
31.1100188581
 11
154.7768668074
 21
31.1422825445
  0
LINE
  8
0
 62
7
  6
CONTINUOUS
 10
157.840929528
 20
31.626237886
 11
157.6096790869
 21
31.5939741996
  0
LINE
  8
0
 62
7
  6
CONTINUOUS
 10
154.4299918074
 20
31.4649194539
 11
154.6612419177
 21
31.4971831403
  0
LINE
  8
0
 62
7
  6
CONTINUOUS
 10
159.8065543074
 20
31.626237886
 11
159.4596793074
 21
31.5939741996
  0
LINE
  8
0
 62
7
  6
CONTINUOUS
 10
154.7768668074
 20
31.2713373354
 11
154.4299918074
 21
31.2390736489
  0
LINE
  8
0
 62
7
  6
CONTINUOUS
 10
150.5565542799
 20
31.626237886
 11
150.2096793212
 21
31.5939741996
  0
LINE
  8
0
 62
7
  6
CONTINUOUS
 10
154.6612419177
 20
31.626237886
 11
154.2565543074
 21
31.5939741996
  0
LINE
  8
0
 62
7
  6
CONTINUOUS
 10
152.0327582009
 20
33.5446195022
 11
151.3770204959
 21
33.5446195022
  0
LINE
  8
0
 62
7
  6
CONTINUOUS
 10
157.4362415869
 20
31.400392081
 11
157.6096790869
 21
31.4649194539
  0
LINE
  8
0
 62
7
  6
CONTINUOUS
 10
159.4596793074
 20
31.4326557675
 11
159.575304528
 21
31.4649194539
  0
LINE
  8
0
 62
7
  6
CONTINUOUS
 10
159.4596793074
 20
31.5939741996
 11
159.228429528
 21
31.5294468267
  0
LINE
  8
0
 62
7
  6
CONTINUOUS
 10
155.1815540869
 20
30.7873819712
 11
154.8924916972
 21
30.7228545871
  0
LINE
  8
0
 62
7
  6
CONTINUOUS
 10
152.4643666972
 20
31.4649194539
 11
152.6956168074
 21
31.4971831403
  0
LINE
  8
0
 62
7
  6
CONTINUOUS
 10
152.6956168074
 20
31.626237886
 11
152.4643666972
 21
31.5939741996
  0
LINE
  8
0
 62
7
  6
CONTINUOUS
 10
150.2674918074
 20
31.4649194539
 11
150.498741835
 21
31.4971831403
  0
LINE
  8
0
 62
7
  6
CONTINUOUS
 10
156.7868565615
 20
35.0200293383
 11
157.4425942664
 21
35.0200293383
  0
LINE
  8
0
 62
7
  6
CONTINUOUS
 10
154.4299918074
 20
31.0777551716
 11
154.5456166972
 21
31.1100188581
  0
LINE
  8
0
 62
7
  6
CONTINUOUS
 10
154.4299918074
 20
31.2390736489
 11
154.1987416972
 21
31.1745462761
  0
LINE
  8
0
 62
7
  6
CONTINUOUS
 10
154.3143669177
 20
31.4326557675
 11
154.4299918074
 21
31.4649194539
  0
LINE
  8
0
 62
7
  6
CONTINUOUS
 10
150.9612418074
 20
30.6260635193
 11
151.1924917523
 21
30.6905909007
  0
LINE
  8
0
 62
7
  6
CONTINUOUS
 10
154.2565543074
 20
31.5939741996
 11
154.1409294177
 21
31.5617105132
  0
LINE
  8
0
 62
7
  6
CONTINUOUS
 10
150.2096793212
 20
31.5939741996
 11
150.0362418212
 21
31.5617105132
  0
LINE
  8
0
 62
7
  6
CONTINUOUS
 10
160.9671844304
 20
36.1675703219
 11
159.5737418074
 21
36.1675703219
  0
LINE
  8
0
 62
7
  6
CONTINUOUS
 10
157.6065286927
 20
36.1675703219
 11
157.1939573441
 21
36.1675703219
  0
LINE
  8
0
 62
7
  6
CONTINUOUS
 10
155.9671844304
 20
36.1675703219
 11
154.5737418074
 21
36.1675703219
  0
LINE
  8
0
 62
7
  6
CONTINUOUS
 10
154.245872955
 20
36.1675703219
 11
152.852430332
 21
36.1675703219
  0
LINE
  8
0
 62
7
  6
CONTINUOUS
 10
150.9671844304
 20
36.1675703219
 11
149.5737418074
 21
36.1675703219
  0
LINE
  8
0
 62
7
  6
CONTINUOUS
 10
150.1518667936
 20
31.4326557675
 11
150.2674918074
 21
31.4649194539
  0
CIRCLE
  8
0
 62
7
  6
CONTINUOUS
 10
160.2704631189
 20
38.5036358957
 40
2.0901639344
  0
ARC
  8
0
 62
7
  6
CONTINUOUS
 10
151.2130860697
 20
34.0364227809
 40
1.6393442623
 50
180.0
 51
270.0
  0
ARC
  8
0
 62
7
  6
CONTINUOUS
 10
157.6065286927
 20
34.5282260596
 40
1.6393442623
 50
0.0
 51
90.0
  0
ARC
  8
0
 62
7
  6
CONTINUOUS
 10
151.6256574183
 20
33.8724883547
 40
1.4754098361
 50
270.0
 51
326.2510114041
  0
ARC
  8
0
 62
7
  6
CONTINUOUS
 10
157.1939573441
 20
34.6921604858
 40
1.4754098361
 50
90.0
 51
146.2510114041
  0
ARC
  8
0
 62
7
  6
CONTINUOUS
 10
152.0327582009
 20
34.3642916334
 40
0.8196721311
 50
270.0
 51
360.0
  0
ARC
  8
0
 62
7
  6
CONTINUOUS
 10
156.7868565615
 20
34.2003572071
 40
0.8196721311
 50
90.0
 51
180.0
  0
ARC
  8
0
 62
7
  6
CONTINUOUS
 10
151.3770204959
 20
33.9544555678
 40
0.4098360656
 50
180.0
 51
270.0
  0
ARC
  8
0
 62
7
  6
CONTINUOUS
 10
157.4425942664
 20
34.6101932727
 40
0.4098360656
 50
0.0
 51
90.0
  0
SOLID
  8
0
 62
7
  6
CONTINUOUS
 10
156.279992028
 20
31.9488752009
 11
156.279992028
 21
32.1101936845
 12
156.5690540869
 22
31.9488752009
 13
156.5690540869
 23
32.1101936845
  0
SOLID
  8
0
 62
7
  6
CONTINUOUS
 10
150.5565542799
 20
31.6262382337
 11
150.9612418074
 21
31.5939740028
 12
150.2096793212
 22
31.5939740028
 13
150.2096793212
 23
31.5939740028
  0
SOLID
  8
0
 62
7
  6
CONTINUOUS
 10
150.0362418212
 20
31.5617111435
 11
150.2096793212
 21
31.5939740028
 12
150.9612418074
 22
31.5939740028
 13
150.9612418074
 23
31.5939740028
  0
SOLID
  8
0
 62
7
  6
CONTINUOUS
 10
150.9612418074
 20
31.5939740028
 11
151.1924917523
 21
31.5294468402
 12
150.0362418212
 22
31.5617111435
 13
150.0362418212
 23
31.5617111435
  0
SOLID
  8
0
 62
7
  6
CONTINUOUS
 10
149.8628043005
 20
31.49718259
 11
150.0362418212
 21
31.5617111435
 12
151.1924917523
 22
31.5294468402
 13
151.1924917523
 23
31.5294468402
  0
SOLID
  8
0
 62
7
  6
CONTINUOUS
 10
149.8628043005
 20
31.49718259
 11
151.1924917523
 21
31.5294468402
 12
150.498741835
 22
31.49718259
 13
150.498741835
 23
31.49718259
  0
SOLID
  8
0
 62
7
  6
CONTINUOUS
 10
150.498741835
 20
31.49718259
 11
151.1924917523
 21
31.5294468402
 12
150.9034292799
 22
31.4649197501
 13
150.9034292799
 23
31.4649197501
  0
SOLID
  8
0
 62
7
  6
CONTINUOUS
 10
151.1924917523
 20
31.5294468402
 11
151.3659292523
 21
31.4326554468
 12
150.9034292799
 22
31.4649197501
 13
150.9034292799
 23
31.4649197501
  0
SOLID
  8
0
 62
7
  6
CONTINUOUS
 10
151.0768668626
 20
31.4003926599
 11
150.9034292799
 21
31.4649197501
 12
151.3659292523
 22
31.4326554468
 13
151.3659292523
 23
31.4326554468
  0
SOLID
  8
0
 62
7
  6
CONTINUOUS
 10
151.0768668626
 20
31.4003926599
 11
151.3659292523
 21
31.4326554468
 12
151.1346793074
 22
31.3036013776
 13
151.1346793074
 23
31.3036013776
  0
SOLID
  8
0
 62
7
  6
CONTINUOUS
 10
151.3659292523
 20
31.4326554468
 11
151.4237418626
 21
31.3036013776
 12
151.1346793074
 22
31.3036013776
 13
151.1346793074
 23
31.3036013776
  0
SOLID
  8
0
 62
7
  6
CONTINUOUS
 10
152.4643666972
 20
31.5939739754
 11
152.6956168074
 21
31.6262382787
 12
152.9268669177
 22
31.6262382787
 13
152.9268669177
 23
31.6262382787
  0
SOLID
  8
0
 62
7
  6
CONTINUOUS
 10
152.9268669177
 20
31.6262382787
 11
153.1003044177
 21
31.5939739754
 12
152.4643666972
 22
31.5939739754
 13
152.4643666972
 23
31.5939739754
  0
SOLID
  8
0
 62
7
  6
CONTINUOUS
 10
152.2909293626
 20
31.5294468852
 11
152.4643666972
 21
31.5939739754
 12
153.1003044177
 22
31.5939739754
 13
153.1003044177
 23
31.5939739754
  0
SOLID
  8
0
 62
7
  6
CONTINUOUS
 10
153.1003044177
 20
31.5939739754
 11
153.2737419177
 21
31.5294468852
 12
152.2909293626
 22
31.5294468852
 13
152.2909293626
 23
31.5294468852
  0
SOLID
  8
0
 62
7
  6
CONTINUOUS
 10
153.2737419177
 20
31.5294468852
 11
152.6956168074
 21
31.4971825369
 12
152.2909293626
 22
31.5294468852
 13
152.2909293626
 23
31.5294468852
  0
SOLID
  8
0
 62
7
  6
CONTINUOUS
 10
152.1753043074
 20
31.4649197951
 11
152.2909293626
 21
31.5294468852
 12
152.6956168074
 22
31.4971825369
 13
152.6956168074
 23
31.4971825369
  0
SOLID
  8
0
 62
7
  6
CONTINUOUS
 10
152.6956168074
 20
31.4971825369
 11
152.4643666972
 21
31.4649197951
 12
152.1753043074
 22
31.4649197951
 13
152.1753043074
 23
31.4649197951
  0
SOLID
  8
0
 62
7
  6
CONTINUOUS
 10
152.6956168074
 20
31.4971825369
 11
153.2737419177
 21
31.5294468852
 12
152.9268669177
 22
31.4649197951
 13
152.9268669177
 23
31.4649197951
  0
SOLID
  8
0
 62
7
  6
CONTINUOUS
 10
153.2737419177
 20
31.5294468852
 11
153.3893668074
 21
31.4649197951
 12
152.9268669177
 22
31.4649197951
 13
152.9268669177
 23
31.4649197951
  0
SOLID
  8
0
 62
7
  6
CONTINUOUS
 10
153.0424918074
 20
31.4326554468
 11
152.9268669177
 21
31.4649197951
 12
153.3893668074
 22
31.4649197951
 13
153.3893668074
 23
31.4649197951
  0
SOLID
  8
0
 62
7
  6
CONTINUOUS
 10
153.3893668074
 20
31.4649197951
 11
153.4471794177
 21
31.4003927049
 12
153.0424918074
 22
31.4326554468
 13
153.0424918074
 23
31.4326554468
  0
SOLID
  8
0
 62
7
  6
CONTINUOUS
 10
153.1581166972
 20
31.3681283566
 11
153.0424918074
 21
31.4326554468
 12
153.4471794177
 22
31.4003927049
 13
153.4471794177
 23
31.4003927049
  0
SOLID
  8
0
 62
7
  6
CONTINUOUS
 10
153.1581166972
 20
31.3681283566
 11
153.4471794177
 21
31.4003927049
 12
153.2159293074
 22
31.2390742213
 13
153.2159293074
 23
31.2390742213
  0
SOLID
  8
0
 62
7
  6
CONTINUOUS
 10
153.4471794177
 20
31.4003927049
 11
153.5049916972
 21
31.2390742213
 12
153.2159293074
 22
31.2390742213
 13
153.2159293074
 23
31.2390742213
  0
SOLID
  8
0
 62
7
  6
CONTINUOUS
 10
152.4643666972
 20
31.4649197951
 11
152.2909293626
 21
31.4003927049
 12
152.1753043074
 22
31.4649197951
 13
152.1753043074
 23
31.4649197951
  0
SOLID
  8
0
 62
7
  6
CONTINUOUS
 10
152.2909293626
 20
31.4003927049
 11
152.1753043074
 21
31.3358640533
 12
152.1753043074
 22
31.4649197951
 13
152.1753043074
 23
31.4649197951
  0
SOLID
  8
0
 62
7
  6
CONTINUOUS
 10
152.1753043074
 20
31.3358640533
 11
151.8862417523
 21
30.5938002869
 12
152.1753043074
 22
31.4649197951
 13
152.1753043074
 23
31.4649197951
  0
SOLID
  8
0
 62
7
  6
CONTINUOUS
 10
152.1753043074
 20
31.4649197951
 11
151.8862417523
 21
30.5938002869
 12
152.1753043074
 22
32.1101937295
 13
152.1753043074
 23
32.1101937295
  0
SOLID
  8
0
 62
7
  6
CONTINUOUS
 10
151.8862417523
 20
30.5938002869
 11
151.8862417523
 21
32.1101937295
 12
152.1753043074
 22
32.1101937295
 13
152.1753043074
 23
32.1101937295
  0
SOLID
  8
0
 62
7
  6
CONTINUOUS
 10
152.1753043074
 20
31.3358640533
 11
152.1753043074
 21
30.5938002869
 12
151.8862417523
 22
30.5938002869
 13
151.8862417523
 23
30.5938002869
  0
SOLID
  8
0
 62
7
  6
CONTINUOUS
 10
153.2159293074
 20
30.5938002869
 11
153.2159293074
 21
31.2390742213
 12
153.5049916972
 22
31.2390742213
 13
153.5049916972
 23
31.2390742213
  0
SOLID
  8
0
 62
7
  6
CONTINUOUS
 10
153.5049916972
 20
31.2390742213
 11
153.5049916972
 21
30.5938002869
 12
153.2159293074
 22
30.5938002869
 13
153.2159293074
 23
30.5938002869
  0
SOLID
  8
0
 62
7
  6
CONTINUOUS
 10
154.2565543074
 20
31.5939738288
 11
154.6612419177
 21
31.6262385959
 12
155.0081169177
 22
31.6262385959
 13
155.0081169177
 23
31.6262385959
  0
SOLID
  8
0
 62
7
  6
CONTINUOUS
 10
155.0081169177
 20
31.6262385959
 11
155.3549915869
 21
31.5939738288
 12
154.2565543074
 22
31.5939738288
 13
154.2565543074
 23
31.5939738288
  0
SOLID
  8
0
 62
7
  6
CONTINUOUS
 10
154.1409294177
 20
31.5617111435
 11
154.2565543074
 21
31.5939738288
 12
155.3549915869
 22
31.5939738288
 13
155.3549915869
 23
31.5939738288
  0
SOLID
  8
0
 62
7
  6
CONTINUOUS
 10
155.3549915869
 20
31.5939738288
 11
155.5284290869
 21
31.5294468402
 12
154.1409294177
 22
31.5617111435
 13
154.1409294177
 23
31.5617111435
  0
SOLID
  8
0
 62
7
  6
CONTINUOUS
 10
154.0253041972
 20
31.4971826249
 11
154.1409294177
 21
31.5617111435
 12
155.5284290869
 22
31.5294468402
 13
155.5284290869
 23
31.5294468402
  0
SOLID
  8
0
 62
7
  6
CONTINUOUS
 10
154.0253041972
 20
31.4971826249
 11
155.5284290869
 21
31.5294468402
 12
154.6612419177
 22
31.4971826249
 13
154.6612419177
 23
31.4971826249
  0
SOLID
  8
0
 62
7
  6
CONTINUOUS
 10
154.6612419177
 20
31.4971826249
 11
155.5284290869
 21
31.5294468402
 12
155.0081169177
 22
31.4971826249
 13
155.0081169177
 23
31.4971826249
  0
SOLID
  8
0
 62
7
  6
CONTINUOUS
 10
155.0081169177
 20
31.4971826249
 11
155.5284290869
 21
31.5294468402
 12
155.239367028
 22
31.4649194065
 13
155.239367028
 23
31.4649194065
  0
SOLID
  8
0
 62
7
  6
CONTINUOUS
 10
155.5284290869
 20
31.5294468402
 11
155.6440543074
 21
31.4649194065
 12
155.239367028
 22
31.4649194065
 13
155.239367028
 23
31.4649194065
  0
SOLID
  8
0
 62
7
  6
CONTINUOUS
 10
153.9674919177
 20
31.4326554138
 11
154.0253041972
 21
31.4971826249
 12
154.6612419177
 22
31.4971826249
 13
154.6612419177
 23
31.4971826249
  0
SOLID
  8
0
 62
7
  6
CONTINUOUS
 10
155.3549915869
 20
31.4326554138
 11
155.239367028
 21
31.4649194065
 12
155.6440543074
 22
31.4649194065
 13
155.6440543074
 23
31.4649194065
  0
SOLID
  8
0
 62
7
  6
CONTINUOUS
 10
155.3549915869
 20
31.4326554138
 11
155.6440543074
 21
31.4649194065
 12
155.412804528
 22
31.3681282026
 13
155.412804528
 23
31.3681282026
  0
SOLID
  8
0
 62
7
  6
CONTINUOUS
 10
155.6440543074
 20
31.4649194065
 11
155.7018665869
 21
31.3681282026
 12
155.412804528
 22
31.3681282026
 13
155.412804528
 23
31.3681282026
  0
SOLID
  8
0
 62
7
  6
CONTINUOUS
 10
155.412804528
 20
31.2713369632
 11
155.412804528
 21
31.3681282026
 12
155.7018665869
 22
31.3681282026
 13
155.7018665869
 23
31.3681282026
  0
SOLID
  8
0
 62
7
  6
CONTINUOUS
 10
155.412804528
 20
31.2713369632
 11
155.7018665869
 21
31.3681282026
 12
155.412804528
 22
31.1422827828
 13
155.412804528
 23
31.1422827828
  0
SOLID
  8
0
 62
7
  6
CONTINUOUS
 10
155.412804528
 20
31.1422827828
 11
155.7018665869
 21
31.3681282026
 12
155.412804528
 22
30.9487004259
 13
155.412804528
 23
30.9487004259
  0
SOLID
  8
0
 62
7
  6
CONTINUOUS
 10
155.7018665869
 20
31.3681282026
 11
155.7018665869
 21
30.8519086025
 12
155.412804528
 22
30.9487004259
 13
155.412804528
 23
30.9487004259
  0
SOLID
  8
0
 62
7
  6
CONTINUOUS
 10
157.6096790869
 20
31.5939736268
 11
157.840929528
 21
31.6262383465
 12
158.0721793074
 22
31.6262383465
 13
158.0721793074
 23
31.6262383465
  0
SOLID
  8
0
 62
7
  6
CONTINUOUS
 10
158.0721793074
 20
31.6262383465
 11
158.2456168074
 21
31.5939736268
 12
157.6096790869
 22
31.5939736268
 13
157.6096790869
 23
31.5939736268
  0
SOLID
  8
0
 62
7
  6
CONTINUOUS
 10
157.4362415869
 20
31.5294472848
 11
157.6096790869
 21
31.5939736268
 12
158.2456168074
 22
31.5939736268
 13
158.2456168074
 23
31.5939736268
  0
SOLID
  8
0
 62
7
  6
CONTINUOUS
 10
158.2456168074
 20
31.5939736268
 11
158.4190543074
 21
31.5294472848
 12
157.4362415869
 22
31.5294472848
 13
157.4362415869
 23
31.5294472848
  0
SOLID
  8
0
 62
7
  6
CONTINUOUS
 10
158.4190543074
 20
31.5294472848
 11
157.840929528
 21
31.4971825369
 12
157.4362415869
 22
31.5294472848
 13
157.4362415869
 23
31.5294472848
  0
SOLID
  8
0
 62
7
  6
CONTINUOUS
 10
157.320617028
 20
31.4649199103
 11
157.4362415869
 21
31.5294472848
 12
157.840929528
 22
31.4971825369
 13
157.840929528
 23
31.4971825369
  0
SOLID
  8
0
 62
7
  6
CONTINUOUS
 10
157.840929528
 20
31.4971825369
 11
157.6096790869
 21
31.4649199103
 12
157.320617028
 22
31.4649199103
 13
157.320617028
 23
31.4649199103
  0
SOLID
  8
0
 62
7
  6
CONTINUOUS
 10
157.840929528
 20
31.4971825369
 11
158.4190543074
 21
31.5294472848
 12
158.0721793074
 22
31.4649199103
 13
158.0721793074
 23
31.4649199103
  0
SOLID
  8
0
 62
7
  6
CONTINUOUS
 10
158.4190543074
 20
31.5294472848
 11
158.534679528
 21
31.4649199103
 12
158.0721793074
 22
31.4649199103
 13
158.0721793074
 23
31.4649199103
  0
SOLID
  8
0
 62
7
  6
CONTINUOUS
 10
158.187804528
 20
31.4326554468
 11
158.0721793074
 21
31.4649199103
 12
158.534679528
 22
31.4649199103
 13
158.534679528
 23
31.4649199103
  0
SOLID
  8
0
 62
7
  6
CONTINUOUS
 10
158.187804528
 20
31.4326554468
 11
158.534679528
 21
31.4649199103
 12
158.3034290869
 22
31.3681288486
 13
158.3034290869
 23
31.3681288486
  0
SOLID
  8
0
 62
7
  6
CONTINUOUS
 10
158.534679528
 20
31.4649199103
 11
158.5924918074
 21
31.3681288486
 12
158.3034290869
 22
31.3681288486
 13
158.3034290869
 23
31.3681288486
  0
SOLID
  8
0
 62
7
  6
CONTINUOUS
 10
158.361242028
 20
31.2068093799
 11
158.3034290869
 21
31.3681288486
 12
158.5924918074
 22
31.3681288486
 13
158.5924918074
 23
31.3681288486
  0
SOLID
  8
0
 62
7
  6
CONTINUOUS
 10
158.5924918074
 20
31.3681288486
 11
158.6503040869
 21
31.2068093799
 12
158.361242028
 22
31.2068093799
 13
158.361242028
 23
31.2068093799
  0
SOLID
  8
0
 62
7
  6
CONTINUOUS
 10
157.6096790869
 20
31.4649199103
 11
157.4362415869
 21
31.4003926599
 12
157.320617028
 22
31.4649199103
 13
157.320617028
 23
31.4649199103
  0
SOLID
  8
0
 62
7
  6
CONTINUOUS
 10
157.4362415869
 20
31.4003926599
 11
157.320617028
 21
31.3358640533
 12
157.320617028
 22
31.4649199103
 13
157.320617028
 23
31.4649199103
  0
SOLID
  8
0
 62
7
  6
CONTINUOUS
 10
157.320617028
 20
31.3358640533
 11
157.0315543074
 21
30.5938003547
 12
157.320617028
 22
31.4649199103
 13
157.320617028
 23
31.4649199103
  0
SOLID
  8
0
 62
7
  6
CONTINUOUS
 10
157.320617028
 20
31.4649199103
 11
157.0315543074
 21
30.5938003547
 12
157.320617028
 22
31.6262383465
 13
157.320617028
 23
31.6262383465
  0
SOLID
  8
0
 62
7
  6
CONTINUOUS
 10
157.0315543074
 20
30.5938003547
 11
157.0315543074
 21
31.6262383465
 12
157.320617028
 22
31.6262383465
 13
157.320617028
 23
31.6262383465
  0
SOLID
  8
0
 62
7
  6
CONTINUOUS
 10
157.320617028
 20
31.3358640533
 11
157.320617028
 21
30.5938003547
 12
157.0315543074
 22
30.5938003547
 13
157.0315543074
 23
30.5938003547
  0
SOLID
  8
0
 62
7
  6
CONTINUOUS
 10
158.361242028
 20
30.5938003547
 11
158.361242028
 21
31.2068093799
 12
158.6503040869
 22
31.2068093799
 13
158.6503040869
 23
31.2068093799
  0
SOLID
  8
0
 62
7
  6
CONTINUOUS
 10
158.6503040869
 20
31.2068093799
 11
158.6503040869
 21
30.5938003547
 12
158.361242028
 22
30.5938003547
 13
158.361242028
 23
30.5938003547
  0
SOLID
  8
0
 62
7
  6
CONTINUOUS
 10
159.4596793074
 20
31.5939739474
 11
159.8065543074
 21
31.6262381969
 12
160.1534293074
 22
31.6262381969
 13
160.1534293074
 23
31.6262381969
  0
SOLID
  8
0
 62
7
  6
CONTINUOUS
 10
160.1534293074
 20
31.6262381969
 11
160.5003043074
 21
31.5939739474
 12
159.4596793074
 22
31.5939739474
 13
159.4596793074
 23
31.5939739474
  0
SOLID
  8
0
 62
7
  6
CONTINUOUS
 10
159.228429528
 20
31.5294468402
 11
159.4596793074
 21
31.5939739474
 12
160.5003043074
 22
31.5939739474
 13
160.5003043074
 23
31.5939739474
  0
SOLID
  8
0
 62
7
  6
CONTINUOUS
 10
159.228429528
 20
31.5294468402
 11
160.5003043074
 21
31.5939739304
 12
160.6737418074
 22
31.5617111435
 13
160.6737418074
 23
31.5617111435
  0
SOLID
  8
0
 62
7
  6
CONTINUOUS
 10
159.228429528
 20
31.5294468402
 11
160.6737418074
 21
31.5617111435
 12
159.8065543074
 22
31.4971825592
 13
159.8065543074
 23
31.4971825592
  0
SOLID
  8
0
 62
7
  6
CONTINUOUS
 10
159.8065543074
 20
31.4971825592
 11
160.6737418074
 21
31.5617111435
 12
160.1534293074
 22
31.4971825592
 13
160.1534293074
 23
31.4971825592
  0
SOLID
  8
0
 62
7
  6
CONTINUOUS
 10
160.6737418074
 20
31.5617111435
 11
160.8471793074
 21
31.4971825592
 12
160.1534293074
 22
31.4971825592
 13
160.1534293074
 23
31.4971825592
  0
SOLID
  8
0
 62
7
  6
CONTINUOUS
 10
160.5003043074
 20
31.4649197501
 11
160.1534293074
 21
31.4971825592
 12
160.8471793074
 22
31.4971825592
 13
160.8471793074
 23
31.4971825592
  0
SOLID
  8
0
 62
7
  6
CONTINUOUS
 10
159.1128043074
 20
31.4326555427
 11
159.228429528
 21
31.5294468402
 12
159.8065543074
 22
31.4971825592
 13
159.8065543074
 23
31.4971825592
  0
SOLID
  8
0
 62
7
  6
CONTINUOUS
 10
160.5003043074
 20
31.4649197501
 11
160.8471793074
 21
31.4971825592
 12
160.615929528
 22
31.4326555427
 13
160.615929528
 23
31.4326555427
  0
SOLID
  8
0
 62
7
  6
CONTINUOUS
 10
160.615929528
 20
31.4326555427
 11
160.8471793074
 21
31.4971825592
 12
160.6737418074
 22
31.3681283005
 13
160.6737418074
 23
31.3681283005
  0
SOLID
  8
0
 62
7
  6
CONTINUOUS
 10
160.8471793074
 20
31.4971825592
 11
160.9628038663
 21
31.3681283005
 12
160.6737418074
 22
31.3681283005
 13
160.6737418074
 23
31.3681283005
  0
SOLID
  8
0
 62
7
  6
CONTINUOUS
 10
150.2674918074
 20
31.4649197501
 11
149.7471793074
 21
31.4326554237
 12
150.498741835
 22
31.4971824493
 13
150.498741835
 23
31.4971824493
  0
SOLID
  8
0
 62
7
  6
CONTINUOUS
 10
149.7471793074
 20
31.4326554237
 11
149.8628043005
 21
31.4971824493
 12
150.498741835
 22
31.4971824493
 13
150.498741835
 23
31.4971824493
  0
SOLID
  8
0
 62
7
  6
CONTINUOUS
 10
150.2674918074
 20
31.4649197501
 11
150.1518667936
 21
31.4326554237
 12
149.7471793074
 22
31.4326554237
 13
149.7471793074
 23
31.4326554237
  0
SOLID
  8
0
 62
7
  6
CONTINUOUS
 10
149.6315543091
 20
31.3036012664
 11
149.7471793074
 21
31.4326554237
 12
150.1518667936
 22
31.4326554237
 13
150.1518667936
 23
31.4326554237
  0
SOLID
  8
0
 62
7
  6
CONTINUOUS
 10
153.9674919177
 20
31.4326554237
 11
154.6612419177
 21
31.4971825369
 12
154.4299918074
 22
31.4649197501
 13
154.4299918074
 23
31.4649197501
  0
SOLID
  8
0
 62
7
  6
CONTINUOUS
 10
154.4299918074
 20
31.4649197501
 11
154.3143669177
 21
31.4326554237
 12
153.9674919177
 22
31.4326554237
 13
153.9674919177
 23
31.4326554237
  0
SOLID
  8
0
 62
7
  6
CONTINUOUS
 10
153.9674919177
 20
31.3681283335
 11
153.9674919177
 21
31.4326554237
 12
154.3143669177
 22
31.4326554237
 13
154.3143669177
 23
31.4326554237
  0
SOLID
  8
0
 62
7
  6
CONTINUOUS
 10
154.3143669177
 20
31.4326554237
 11
154.2565543074
 21
31.3681283335
 12
153.9674919177
 22
31.3681283335
 13
153.9674919177
 23
31.3681283335
  0
SOLID
  8
0
 62
7
  6
CONTINUOUS
 10
159.1128043074
 20
31.4326555528
 11
159.8065543074
 21
31.4971825369
 12
159.575304528
 22
31.4649197501
 13
159.575304528
 23
31.4649197501
  0
SOLID
  8
0
 62
7
  6
CONTINUOUS
 10
159.575304528
 20
31.4649197501
 11
159.4596793074
 21
31.4326555528
 12
159.1128043074
 22
31.4326555528
 13
159.1128043074
 23
31.4326555528
  0
SOLID
  8
0
 62
7
  6
CONTINUOUS
 10
159.1128043074
 20
31.3681284626
 11
159.1128043074
 21
31.4326555528
 12
159.4596793074
 22
31.4326555528
 13
159.4596793074
 23
31.4326555528
  0
SOLID
  8
0
 62
7
  6
CONTINUOUS
 10
159.4596793074
 20
31.4326555528
 11
159.401867028
 21
31.3681284626
 12
159.1128043074
 22
31.3681284626
 13
159.1128043074
 23
31.3681284626
  0
SOLID
  8
0
 62
7
  6
CONTINUOUS
 10
159.228429528
 20
31.2390741763
 11
159.1128043074
 21
31.3681284626
 12
159.401867028
 22
31.3681284626
 13
159.401867028
 23
31.3681284626
  0
SOLID
  8
0
 62
7
  6
CONTINUOUS
 10
149.6315543091
 20
31.3036012664
 11
150.1518667936
 21
31.4326554468
 12
149.9784292936
 22
31.3358640533
 13
149.9784292936
 23
31.3358640533
  0
SOLID
  8
0
 62
7
  6
CONTINUOUS
 10
149.9784292936
 20
31.3358640533
 11
149.9206168074
 21
31.2713369632
 12
149.6315543091
 22
31.3036012664
 13
149.6315543091
 23
31.3036012664
  0
SOLID
  8
0
 62
7
  6
CONTINUOUS
 10
149.5737418074
 20
31.1100184796
 11
149.6315543091
 21
31.3036012664
 12
149.9206168074
 22
31.2713369632
 13
149.9206168074
 23
31.2713369632
  0
SOLID
  8
0
 62
7
  6
CONTINUOUS
 10
154.4299918074
 20
31.2390741763
 11
154.7768668074
 21
31.271336924
 12
155.412804528
 22
31.271336924
 13
155.412804528
 23
31.271336924
  0
SOLID
  8
0
 62
7
  6
CONTINUOUS
 10
154.4299918074
 20
31.2390741763
 11
155.412804528
 21
31.271336924
 12
154.1987416972
 22
31.1745462761
 13
154.1987416972
 23
31.1745462761
  0
SOLID
  8
0
 62
7
  6
CONTINUOUS
 10
154.1987416972
 20
31.1745462761
 11
155.412804528
 21
31.271336924
 12
154.7768668074
 22
31.1422827436
 13
154.7768668074
 23
31.1422827436
  0
SOLID
  8
0
 62
7
  6
CONTINUOUS
 10
155.412804528
 20
31.271336924
 11
155.412804528
 21
31.1422827436
 12
154.7768668074
 22
31.1422827436
 13
154.7768668074
 23
31.1422827436
  0
SOLID
  8
0
 62
7
  6
CONTINUOUS
 10
159.228429528
 20
31.2390745501
 11
159.401867028
 21
31.3681283566
 12
159.4596793074
 22
31.3036012664
 13
159.4596793074
 23
31.3036012664
  0
SOLID
  8
0
 62
7
  6
CONTINUOUS
 10
159.4596793074
 20
31.3036012664
 11
159.6331168074
 21
31.2390745501
 12
159.228429528
 22
31.2390745501
 13
159.228429528
 23
31.2390745501
  0
SOLID
  8
0
 62
7
  6
CONTINUOUS
 10
159.4596793074
 20
31.1422827828
 11
159.228429528
 21
31.2390745501
 12
159.6331168074
 22
31.2390745501
 13
159.6331168074
 23
31.2390745501
  0
SOLID
  8
0
 62
7
  6
CONTINUOUS
 10
159.6331168074
 20
31.2390745501
 11
160.615929528
 21
31.0777556927
 12
159.4596793074
 22
31.1422827828
 13
159.4596793074
 23
31.1422827828
  0
SOLID
  8
0
 62
7
  6
CONTINUOUS
 10
160.442492028
 20
30.9809646623
 11
159.4596793074
 21
31.1422827828
 12
160.615929528
 22
31.0777556927
 13
160.615929528
 23
31.0777556927
  0
SOLID
  8
0
 62
7
  6
CONTINUOUS
 10
160.615929528
 20
31.0777556927
 11
160.8471793074
 21
30.9809646623
 12
160.442492028
 22
30.9809646623
 13
160.442492028
 23
30.9809646623
  0
SOLID
  8
0
 62
7
  6
CONTINUOUS
 10
160.615929528
 20
30.9164372091
 11
160.442492028
 21
30.9809646623
 12
160.8471793074
 22
30.9809646623
 13
160.8471793074
 23
30.9809646623
  0
SOLID
  8
0
 62
7
  6
CONTINUOUS
 10
160.615929528
 20
30.9164372091
 11
160.8471793074
 21
30.9809646623
 12
160.6737418074
 22
30.8519089441
 13
160.6737418074
 23
30.8519089441
  0
SOLID
  8
0
 62
7
  6
CONTINUOUS
 10
160.8471793074
 20
30.9809646623
 11
160.9628038663
 21
30.8519089441
 12
160.6737418074
 22
30.8519089441
 13
160.6737418074
 23
30.8519089441
  0
SOLID
  8
0
 62
7
  6
CONTINUOUS
 10
160.615929528
 20
30.7873818593
 11
160.6737418074
 21
30.8519089441
 12
160.9628038663
 22
30.8519089441
 13
160.9628038663
 23
30.8519089441
  0
SOLID
  8
0
 62
7
  6
CONTINUOUS
 10
160.9628038663
 20
30.8519089441
 11
160.9628038663
 21
30.7873818593
 12
160.615929528
 22
30.7873818593
 13
160.615929528
 23
30.7873818593
  0
SOLID
  8
0
 62
7
  6
CONTINUOUS
 10
160.5003043074
 20
30.7551187255
 11
160.615929528
 21
30.7873818593
 12
160.9628038663
 22
30.7873818593
 13
160.9628038663
 23
30.7873818593
  0
SOLID
  8
0
 62
7
  6
CONTINUOUS
 10
160.5003043074
 20
30.7551187255
 11
160.9628038663
 21
30.7873818593
 12
160.269054528
 22
30.7228547745
 13
160.269054528
 23
30.7228547745
  0
SOLID
  8
0
 62
7
  6
CONTINUOUS
 10
160.9628038663
 20
30.7873818593
 11
160.8471793074
 21
30.6905916353
 12
160.269054528
 22
30.7228547745
 13
160.269054528
 23
30.7228547745
  0
SOLID
  8
0
 62
7
  6
CONTINUOUS
 10
160.8471793074
 20
30.6905916353
 11
159.401867028
 21
30.658327332
 12
160.269054528
 22
30.7228547745
 13
160.269054528
 23
30.7228547745
  0
SOLID
  8
0
 62
7
  6
CONTINUOUS
 10
160.269054528
 20
30.7228547745
 11
159.401867028
 21
30.658327332
 12
159.922179528
 22
30.7228547745
 13
159.922179528
 23
30.7228547745
  0
SOLID
  8
0
 62
7
  6
CONTINUOUS
 10
159.401867028
 20
30.658327332
 11
159.228429528
 21
30.7228547745
 12
159.922179528
 22
30.7228547745
 13
159.922179528
 23
30.7228547745
  0
SOLID
  8
0
 62
7
  6
CONTINUOUS
 10
159.401867028
 20
30.658327332
 11
160.8471793074
 21
30.6905916353
 12
159.575304528
 22
30.6260629858
 13
159.575304528
 23
30.6260629858
  0
SOLID
  8
0
 62
7
  6
CONTINUOUS
 10
160.8471793074
 20
30.6905916353
 11
160.615929528
 21
30.6260629858
 12
159.575304528
 22
30.6260629858
 13
159.575304528
 23
30.6260629858
  0
SOLID
  8
0
 62
7
  6
CONTINUOUS
 10
159.922179528
 20
30.5938006049
 11
159.575304528
 21
30.6260629858
 12
160.615929528
 22
30.6260629858
 13
160.615929528
 23
30.6260629858
  0
SOLID
  8
0
 62
7
  6
CONTINUOUS
 10
160.615929528
 20
30.6260629858
 11
160.269054528
 21
30.5938006049
 12
159.922179528
 22
30.5938006049
 13
159.922179528
 23
30.5938006049
  0
SOLID
  8
0
 62
7
  6
CONTINUOUS
 10
149.5737418074
 20
31.1100184796
 11
149.9206168074
 21
31.2713369632
 12
149.8628043005
 22
31.1422827828
 13
149.8628043005
 23
31.1422827828
  0
SOLID
  8
0
 62
7
  6
CONTINUOUS
 10
149.8628043005
 20
31.1422827828
 11
149.8628043005
 21
31.0454914852
 12
149.5737418074
 22
31.1100184796
 13
149.5737418074
 23
31.1100184796
  0
SOLID
  8
0
 62
7
  6
CONTINUOUS
 10
149.6315543091
 20
30.9164372091
 11
149.5737418074
 21
31.1100184796
 12
149.8628043005
 22
31.0454914852
 13
149.8628043005
 23
31.0454914852
  0
SOLID
  8
0
 62
7
  6
CONTINUOUS
 10
149.8628043005
 20
31.0454914852
 11
149.9784292936
 21
30.8841729058
 12
149.6315543091
 22
30.9164372091
 13
149.6315543091
 23
30.9164372091
  0
SOLID
  8
0
 62
7
  6
CONTINUOUS
 10
149.7471793074
 20
30.7873813202
 11
149.6315543091
 21
30.9164372091
 12
149.9784292936
 22
30.8841729058
 13
149.9784292936
 23
30.8841729058
  0
SOLID
  8
0
 62
7
  6
CONTINUOUS
 10
149.9784292936
 20
30.8841729058
 11
150.1518667936
 21
30.7873813202
 12
149.7471793074
 22
30.7873813202
 13
149.7471793074
 23
30.7873813202
  0
SOLID
  8
0
 62
7
  6
CONTINUOUS
 10
149.8628043005
 20
30.7228547004
 11
149.7471793074
 21
30.7873813202
 12
150.1518667936
 22
30.7873813202
 13
150.1518667936
 23
30.7873813202
  0
SOLID
  8
0
 62
7
  6
CONTINUOUS
 10
150.1518667936
 20
30.7873813202
 11
150.498741835
 21
30.7228547004
 12
149.8628043005
 22
30.7228547004
 13
149.8628043005
 23
30.7228547004
  0
SOLID
  8
0
 62
7
  6
CONTINUOUS
 10
150.0362418212
 20
30.658327332
 11
149.8628043005
 21
30.7228547004
 12
150.498741835
 22
30.7228547004
 13
150.498741835
 23
30.7228547004
  0
SOLID
  8
0
 62
7
  6
CONTINUOUS
 10
154.0831168074
 20
31.1100184386
 11
154.1987416972
 21
31.1745462761
 12
154.7768668074
 22
31.1422827828
 13
154.7768668074
 23
31.1422827828
  0
SOLID
  8
0
 62
7
  6
CONTINUOUS
 10
154.7768668074
 20
31.1422827828
 11
154.5456166972
 21
31.1100184386
 12
154.0831168074
 22
31.1100184386
 13
154.0831168074
 23
31.1100184386
  0
SOLID
  8
0
 62
7
  6
CONTINUOUS
 10
153.9674919177
 20
30.9809642992
 11
154.0831168074
 21
31.1100184386
 12
154.5456166972
 22
31.1100184386
 13
154.5456166972
 23
31.1100184386
  0
SOLID
  8
0
 62
7
  6
CONTINUOUS
 10
154.3143669177
 20
31.0132277988
 11
153.9674919177
 21
30.9809642992
 12
154.4299918074
 22
31.0777556927
 13
154.4299918074
 23
31.0777556927
  0
SOLID
  8
0
 62
7
  6
CONTINUOUS
 10
153.9674919177
 20
30.9809642992
 11
154.5456166972
 21
31.1100184796
 12
154.4299918074
 22
31.0777556927
 13
154.4299918074
 23
31.0777556927
  0
SOLID
  8
0
 62
7
  6
CONTINUOUS
 10
154.3143669177
 20
31.0132277988
 11
154.2565543074
 21
30.9164372091
 12
153.9674919177
 22
30.9809642992
 13
153.9674919177
 23
30.9809642992
  0
SOLID
  8
0
 62
7
  6
CONTINUOUS
 10
153.9674919177
 20
30.8841729058
 11
153.9674919177
 21
30.9809642992
 12
154.2565543074
 22
30.9164372091
 13
154.2565543074
 23
30.9164372091
  0
SOLID
  8
0
 62
7
  6
CONTINUOUS
 10
154.2565543074
 20
30.9164372091
 11
154.2565543074
 21
30.8519086025
 12
153.9674919177
 22
30.8841729058
 13
153.9674919177
 23
30.8841729058
  0
SOLID
  8
0
 62
7
  6
CONTINUOUS
 10
154.0253041972
 20
30.7551187255
 11
153.9674919177
 21
30.8841729058
 12
154.2565543074
 22
30.8519086025
 13
154.2565543074
 23
30.8519086025
  0
SOLID
  8
0
 62
7
  6
CONTINUOUS
 10
155.412804528
 20
30.9487004259
 11
155.7018665869
 21
30.8519086025
 12
155.3549915869
 22
30.8841729058
 13
155.3549915869
 23
30.8841729058
  0
SOLID
  8
0
 62
7
  6
CONTINUOUS
 10
155.1815540869
 20
30.7873815123
 11
155.3549915869
 21
30.8841729058
 12
155.7018665869
 22
30.8519086025
 13
155.7018665869
 23
30.8519086025
  0
SOLID
  8
0
 62
7
  6
CONTINUOUS
 10
155.1815540869
 20
30.7873815123
 11
155.7018665869
 21
30.8519086025
 12
155.412804528
 22
30.7551187255
 13
155.412804528
 23
30.7551187255
  0
SOLID
  8
0
 62
7
  6
CONTINUOUS
 10
155.7018665869
 20
30.8519086025
 11
155.759679528
 21
30.6905916353
 12
155.412804528
 22
30.7551187255
 13
155.412804528
 23
30.7551187255
  0
SOLID
  8
0
 62
7
  6
CONTINUOUS
 10
155.4706168074
 20
30.658327332
 11
155.412804528
 21
30.7551187255
 12
155.759679528
 22
30.6905916353
 13
155.759679528
 23
30.6905916353
  0
SOLID
  8
0
 62
7
  6
CONTINUOUS
 10
155.4706168074
 20
30.658327332
 11
155.759679528
 21
30.6905916353
 12
155.5284290869
 22
30.5938002079
 13
155.5284290869
 23
30.5938002079
  0
SOLID
  8
0
 62
7
  6
CONTINUOUS
 10
155.759679528
 20
30.6905916353
 11
155.8174918074
 21
30.5938002079
 12
155.5284290869
 22
30.5938002079
 13
155.5284290869
 23
30.5938002079
  0
SOLID
  8
0
 62
7
  6
CONTINUOUS
 10
151.0768668626
 20
30.8196456577
 11
151.1346793074
 21
30.9164373395
 12
151.4237418626
 22
30.9164373395
 13
151.4237418626
 23
30.9164373395
  0
SOLID
  8
0
 62
7
  6
CONTINUOUS
 10
151.4237418626
 20
30.9164373395
 11
151.3659292523
 21
30.7873815123
 12
151.0768668626
 22
30.8196456577
 13
151.0768668626
 23
30.8196456577
  0
SOLID
  8
0
 62
7
  6
CONTINUOUS
 10
150.9034292799
 20
30.7551187255
 11
151.0768668626
 21
30.8196456577
 12
151.3659292523
 22
30.7873815123
 13
151.3659292523
 23
30.7873815123
  0
SOLID
  8
0
 62
7
  6
CONTINUOUS
 10
150.9034292799
 20
30.7551187255
 11
151.3659292523
 21
30.7873815123
 12
150.498741835
 22
30.7228544222
 13
150.498741835
 23
30.7228544222
  0
SOLID
  8
0
 62
7
  6
CONTINUOUS
 10
151.3659292523
 20
30.7873815123
 11
151.1924917523
 21
30.6905916353
 12
150.498741835
 22
30.7228544222
 13
150.498741835
 23
30.7228544222
  0
SOLID
  8
0
 62
7
  6
CONTINUOUS
 10
150.0362418212
 20
30.658327332
 11
150.498741835
 21
30.7228544222
 12
151.1924917523
 22
30.6905916353
 13
151.1924917523
 23
30.6905916353
  0
SOLID
  8
0
 62
7
  6
CONTINUOUS
 10
150.0362418212
 20
30.658327332
 11
151.1924917523
 21
30.6905916353
 12
150.2096793212
 22
30.6260631011
 13
150.2096793212
 23
30.6260631011
  0
SOLID
  8
0
 62
7
  6
CONTINUOUS
 10
151.1924917523
 20
30.6905916353
 11
150.9612418074
 21
30.6260631011
 12
150.2096793212
 22
30.6260631011
 13
150.2096793212
 23
30.6260631011
  0
SOLID
  8
0
 62
7
  6
CONTINUOUS
 10
150.5565542799
 20
30.5938002419
 11
150.2096793212
 21
30.6260631011
 12
150.9612418074
 22
30.6260631011
 13
150.9612418074
 23
30.6260631011
  0
SOLID
  8
0
 62
7
  6
CONTINUOUS
 10
154.0253041972
 20
30.7551187255
 11
154.2565543074
 21
30.8519086025
 12
154.3143669177
 22
30.7873815123
 13
154.3143669177
 23
30.7873815123
  0
SOLID
  8
0
 62
7
  6
CONTINUOUS
 10
154.3143669177
 20
30.7873815123
 11
154.5456166972
 21
30.7228544222
 12
154.0253041972
 22
30.7551187255
 13
154.0253041972
 23
30.7551187255
  0
SOLID
  8
0
 62
7
  6
CONTINUOUS
 10
154.1987416972
 20
30.658327332
 11
154.0253041972
 21
30.7551187255
 12
154.5456166972
 22
30.7228544222
 13
154.5456166972
 23
30.7228544222
  0
SOLID
  8
0
 62
7
  6
CONTINUOUS
 10
154.8924916972
 20
30.7228544637
 11
155.1815540869
 21
30.7873815123
 12
155.412804528
 22
30.7551187255
 13
155.412804528
 23
30.7551187255
  0
SOLID
  8
0
 62
7
  6
CONTINUOUS
 10
155.412804528
 20
30.7551187255
 11
155.3549915869
 21
30.6905916353
 12
154.8924916972
 22
30.7228544637
 13
154.8924916972
 23
30.7228544637
  0
SOLID
  8
0
 62
7
  6
CONTINUOUS
 10
155.3549915869
 20
30.6905916353
 11
154.1987416972
 21
30.658327332
 12
154.8924916972
 22
30.7228544637
 13
154.8924916972
 23
30.7228544637
  0
SOLID
  8
0
 62
7
  6
CONTINUOUS
 10
154.1987416972
 20
30.658327332
 11
154.5456166972
 21
30.7228544637
 12
154.8924916972
 22
30.7228544637
 13
154.8924916972
 23
30.7228544637
  0
SOLID
  8
0
 62
7
  6
CONTINUOUS
 10
154.1987416972
 20
30.658327332
 11
155.3549915869
 21
30.6905916353
 12
154.3143669177
 22
30.6260630541
 13
154.3143669177
 23
30.6260630541
  0
SOLID
  8
0
 62
7
  6
CONTINUOUS
 10
155.3549915869
 20
30.6905916353
 11
155.1815540869
 21
30.6260630541
 12
154.3143669177
 22
30.6260630541
 13
154.3143669177
 23
30.6260630541
  0
SOLID
  8
0
 62
7
  6
CONTINUOUS
 10
154.5456166972
 20
30.5938002188
 11
154.3143669177
 21
30.6260630541
 12
155.1815540869
 22
30.6260630541
 13
155.1815540869
 23
30.6260630541
  0
SOLID
  8
0
 62
7
  6
CONTINUOUS
 10
155.1815540869
 20
30.6260630541
 11
154.8924916972
 21
30.5938002188
 12
154.5456166972
 22
30.5938002188
 13
154.5456166972
 23
30.5938002188
  0
SOLID
  8
0
 62
7
  6
CONTINUOUS
 10
159.575304528
 20
30.7551187255
 11
159.228429528
 21
30.7228544637
 12
159.4596793074
 22
30.7873815123
 13
159.4596793074
 23
30.7873815123
  0
SOLID
  8
0
 62
7
  6
CONTINUOUS
 10
159.4596793074
 20
30.7873815123
 11
159.228429528
 21
30.7228544637
 12
159.401867028
 22
30.851908644
 13
159.401867028
 23
30.851908644
  0
SOLID
  8
0
 62
7
  6
CONTINUOUS
 10
159.228429528
 20
30.7228544637
 11
159.1128043074
 21
30.851908644
 12
159.401867028
 22
30.851908644
 13
159.401867028
 23
30.851908644
  0
SOLID
  8
0
 62
7
  6
CONTINUOUS
 10
159.575304528
 20
30.7551187255
 11
159.922179528
 21
30.7228544637
 12
159.228429528
 22
30.7228544637
 13
159.228429528
 23
30.7228544637
  0
SOLID
  8
0
 62
7
  6
CONTINUOUS
 10
156.279992028
 20
30.5938002419
 11
156.279992028
 21
31.6262382337
 12
156.5690540869
 22
30.5938002419
 13
156.5690540869
 23
31.6262382337
  0
ENDBLK
  8
0
  6
BYBLOCK
 62
0
  0
BLOCK
  8
0
 62
2
  6
CONTINUOUS
  2
SYMBOL_3_BL0
 70
64
 10
32.1213064866
 20
19.8534310916
  0
TEXT
  8
0
 62
7
  6
CONTINUOUS
 10
18.3860103289
 20
19.2268451992
  7
TEXTSTYLE_3
 40
2.7338706658
  1
Ammeraal Beltech
 41
1.0
 51
15.0
 72
0
  0
TEXT
  8
0
 62
7
  6
CONTINUOUS
 10
29.1868111546
 20
16.9533085264
  7
TEXTSTYLE_4
 40
1.0935482663
  1
Innovation & Service in Belting
 41
1.0
 72
0
  0
LINE
  8
0
 62
7
  6
CONTINUOUS
 10
12.3614696776
 20
19.9934385078
 11
13.1396216709
 21
23.6543558055
  0
LINE
  8
0
 62
7
  6
CONTINUOUS
 10
23.2347899607
 20
27.3177497171
 11
13.6274394139
 21
24.1961322958
  0
LINE
  8
0
 62
7
  6
CONTINUOUS
 10
12.5867530099
 20
19.3000877048
 11
20.093828271
 21
12.5406867788
  0
LINE
  8
0
 62
7
  6
CONTINUOUS
 10
12.8492874206
 20
20.5352149982
 11
23.6575567857
 21
24.0470345971
  0
LINE
  8
0
 62
7
  6
CONTINUOUS
 10
23.6533516486
 20
13.6972460334
 11
15.2078919798
 21
21.3015720751
  0
LINE
  8
0
 62
7
  6
CONTINUOUS
 10
24.1731743684
 20
26.4728246013
 11
23.1966148312
 21
21.8784731989
  0
LINE
  8
0
 62
7
  6
CONTINUOUS
 10
22.4968128835
 20
18.5861638851
 11
21.810364672
 21
15.3566789607
  0
LINE
  8
0
 62
7
  6
CONTINUOUS
 10
24.8542704669
 20
14.087448211
 11
25.8105020025
 21
18.5861638851
  0
LINE
  8
0
 62
7
  6
CONTINUOUS
 10
26.5103039502
 20
21.8784731989
 11
26.9545457526
 21
23.9684665583
  0
LINE
  8
0
 62
7
  6
CONTINUOUS
 10
20.8069293463
 20
12.3891124661
 11
24.3664527239
 21
13.5456717207
  0
LINE
  8
0
 62
7
  6
CONTINUOUS
 10
23.9478910361
 20
27.1661754044
 11
26.7292624203
 21
24.6618173613
  0
ARC
  8
0
 62
7
  6
CONTINUOUS
 10
13.8527227462
 20
23.5027814928
 40
0.7290321776
 50
108.0
 51
168.0
  0
ARC
  8
0
 62
7
  6
CONTINUOUS
 10
23.4600732931
 20
26.624398914
 40
0.7290321776
 50
348.0
 51
108.0
  0
ARC
  8
0
 62
7
  6
CONTINUOUS
 10
26.2414446773
 20
24.120040871
 40
0.7290321776
 50
348.0
 51
48.0
  0
ARC
  8
0
 62
7
  6
CONTINUOUS
 10
20.581646014
 20
13.0824632691
 40
0.7290321776
 50
228.0
 51
288.0
  0
ARC
  8
0
 62
7
  6
CONTINUOUS
 10
13.0745707529
 20
19.8418641951
 40
0.7290321776
 50
108.0
 51
228.0
  0
ARC
  8
0
 62
7
  6
CONTINUOUS
 10
24.1411693916
 20
14.2390225237
 40
0.7290321776
 50
228.0
 51
348.0
  0
ENDBLK
  8
0
  6
BYBLOCK
 62
0
  0
ENDSEC
  0
SECTION
  2
ENTITIES
  0
TEXT
  8
0
 62
5
  6
CONTINUOUS
 10
96.0
 20
25.636
  7
TEXTSTYLE_2
 40
2.8
  1
Scale :
 41
0.6
 51
0.000019
 72
0
  0
TEXT
  8
0
 62
5
  6
CONTINUOUS
 10
116.0
 20
25.636
  7
TEXTSTYLE_2
 40
2.8
  1
Belt type:
 41
0.6
 51
0.000019
 72
0
  0
INSERT
  8
0
 62
2
  6
CONTINUOUS
  2
SYMBOL_3_BL0
 10
32.1213064866
 20
19.8534310916
  0
INSERT
  8
0
 62
2
  6
CONTINUOUS
  2
SYMBOL_8_BL1
 10
173.5956734183
 20
35.5937998301
  0
LINE
  8
0
 62
2
  6
CONTINUOUS
 10
10.0
 20
30.0
 11
200.0
 21
30.0
  0
LINE
  8
0
 62
2
  6
CONTINUOUS
 10
10.0
 20
30.0
 11
10.0
 21
10.0
  0
LINE
  8
0
 62
2
  6
CONTINUOUS
 10
10.0
 20
10.0
 11
200.0
 21
10.0
  0
LINE
  8
0
 62
2
  6
CONTINUOUS
 10
95.0
 20
30.0
 11
95.0
 21
10.0
  0
LINE
  8
0
 62
2
  6
CONTINUOUS
 10
115.0
 20
30.0
 11
115.0
 21
10.0
  0
LINE
  8
0
 62
2
  6
CONTINUOUS
 10
200.0
 20
30.0
 11
200.0
 21
10.0
  0
TEXT
  8
0
 62
5
  6
CONTINUOUS
 10
13.0
 20
23.303
  7
TEXTSTYLE_5
 40
1.52
  1
                                                                     Ammeraal Beltech Modular A/S
 41
1.0
 72
0
  0
TEXT
  8
0
 62
5
  6
CONTINUOUS
 10
13.0
 20
20.595
  7
TEXTSTYLE_5
 40
1.5
  1
                                                                      Hjulmagervej 21,  7100 Vejle,  DK
 41
1.0
 72
0
  0
TEXT
  8
0
 62
5
  6
CONTINUOUS
 10
13.0
 20
17.881
  7
TEXTSTYLE_5
 40
1.495
  1
                                                                      tel: 
 41
1.0
 72
0
  0
TEXT
  8
0
 62
5
  6
CONTINUOUS
 10
57.9869465649
 20
17.881
  7
TEXTSTYLE_5
 40
1.51
  1
+45 75723100     fax: +45 75723348
 41
1.0
 72
0
  0
TEXT
  8
0
 62
5
  6
CONTINUOUS
 10
13.0
 20
15.177
  7
TEXTSTYLE_5
 40
1.5
  1
                                                                      admin@unichains.dk  www.unichains.com
 41
1.0
 72
0
  0
TEXT
  8
0
 62
5
  6
CONTINUOUS
 10
99.75
 20
13.75
  7
TEXTSTYLE_6
 40
5.0
  1
1:1
 41
0.7
 72
1
 11
105.0
 21
13.75
  0
TEXT
  8
0
 62
5
  6
CONTINUOUS
 10
118.0
 20
13.75
  7
TEXTSTYLE_7
 40
7.5
  1
uni Light-SIDEGUARDS-Right
 41
0.4533653846
 72
0
  0
LINE
  8
0
 62
7
  6
CONTINUOUS
 10
210.0
 20
0.0
 11
0.0
 21
0.0
  0
LINE
  8
0
 62
7
  6
CONTINUOUS
 10
10.0
 20
10.0
 11
200.0
 21
10.0
  0
LINE
  8
0
 62
7
  6
CONTINUOUS
 10
10.0
 20
30.0
 11
200.0
 21
30.0
  0
LINE
  8
0
 62
7
  6
CONTINUOUS
 10
0.0
 20
0.0
 11
0.0
 21
297.0
  0
LINE
  8
0
 62
7
  6
CONTINUOUS
 10
10.0
 20
10.0
 11
10.0
 21
287.0
  0
LINE
  8
0
 62
7
  6
CONTINUOUS
 10
200.0
 20
287.0
 11
200.0
 21
10.0
  0
LINE
  8
0
 62
7
  6
CONTINUOUS
 10
210.0
 20
0.0
 11
210.0
 21
297.0
  0
LINE
  8
0
 62
7
  6
CONTINUOUS
 10
10.0
 20
287.0
 11
200.0
 21
287.0
  0
LINE
  8
0
 62
7
  6
CONTINUOUS
 10
0.0
 20
297.0
 11
210.0
 21
297.0
  0
LINE
  8
0
 62
7
  6
CONTINUOUS
 10
82.1155131584
 20
171.9658194367
 11
82.3045856985
 21
172.0065609984
  0
POLYLINE
  8
0
 62
7
  6
CONTINUOUS
 66
1
 70
0
  0
VERTEX
  8
0
 62
7
  6
CONTINUOUS
 10
81.8045856985
 20
171.9009303919
  0
VERTEX
  8
0
 62
7
  6
CONTINUOUS
 10
81.8435570714
 20
171.9089278787
  0
VERTEX
  8
0
 62
7
  6
CONTINUOUS
 10
82.1155131584
 20
171.9658194367
  0
SEQEND
  0
POLYLINE
  8
0
 62
7
  6
CONTINUOUS
 66
1
 70
0
  0
VERTEX
  8
0
 62
7
  6
CONTINUOUS
 10
70.7545856985
 20
171.9009303919
  0
VERTEX
  8
0
 62
7
  6
CONTINUOUS
 10
70.6058348871
 20
171.9316610048
  0
VERTEX
  8
0
 62
7
  6
CONTINUOUS
 10
70.4436582386
 20
171.9658194367
  0
VERTEX
  8
0
 62
7
  6
CONTINUOUS
 10
70.2545856985
 20
172.0065609984
  0
SEQEND
  0
LINE
  8
0
 62
2
  6
CONTINUOUS
 10
86.6845856985
 20
173.6104624916
 11
84.9245856985
 21
173.6104624916
  0
LINE
  8
DEFAULT_1
 62
2
  6
CENTER
 10
56.3950422145
 20
173.6104624916
 11
62.2045856985
 21
173.6104624916
  0
LINE
  8
0
 62
2
  6
CONTINUOUS
 10
65.8745856985
 20
173.6104624916
 11
67.6345856985
 21
173.6104624916
  0
LINE
  8
DEFAULT_1
 62
2
  6
CENTER
 10
71.1545856985
 20
173.6104624916
 11
81.4045856985
 21
173.6104624916
  0
LINE
  8
DEFAULT_1
 62
2
  6
CENTER
 10
90.2045856985
 20
173.6104624916
 11
98.3766328028
 21
173.6104624916
  0
POLYLINE
  8
0
 62
7
  6
CONTINUOUS
 66
1
 70
0
  0
VERTEX
  8
0
 62
7
  6
CONTINUOUS
 10
70.7545856985
 20
175.3199945913
  0
VERTEX
  8
0
 62
7
  6
CONTINUOUS
 10
70.7156143255
 20
175.3119971045
  0
VERTEX
  8
0
 62
7
  6
CONTINUOUS
 10
70.4436582386
 20
175.2551055465
  0
SEQEND
  0
POLYLINE
  8
0
 62
7
  6
CONTINUOUS
 66
1
 70
0
  0
VERTEX
  8
0
 62
7
  6
CONTINUOUS
 10
81.8045856985
 20
175.3199945913
  0
VERTEX
  8
0
 62
7
  6
CONTINUOUS
 10
81.9533365098
 20
175.2892639784
  0
VERTEX
  8
0
 62
7
  6
CONTINUOUS
 10
82.1155131584
 20
175.2551055465
  0
VERTEX
  8
0
 62
7
  6
CONTINUOUS
 10
82.3045856985
 20
175.2143639849
  0
SEQEND
  0
LINE
  8
0
 62
7
  6
CONTINUOUS
 10
57.6096182993
 20
201.7563605254
 11
65.1306422148
 21
178.6090290379
  0
LINE
  8
0
 62
7
  6
CONTINUOUS
 10
70.4436582386
 20
175.2551055465
 11
70.2545856985
 21
175.2143639849
  0
LINE
  8
0
 62
7
  6
CONTINUOUS
 10
70.8795856985
 20
178.2604624916
 11
81.6795856985
 21
178.2604624916
  0
LINE
  8
0
 62
2
  6
CONTINUOUS
 10
66.7545856985
 20
174.4904624916
 11
66.7545856985
 21
172.7304624916
  0
LINE
  8
DEFAULT_1
 62
2
  6
CENTER
 10
66.7545856985
 20
169.2104624916
 11
66.7545856985
 21
165.7339748097
  0
LINE
  8
DEFAULT_1
 62
2
  6
CENTER
 10
66.7545856985
 20
178.0104624916
 11
66.7545856985
 21
180.4387565398
  0
LINE
  8
0
 62
7
  6
CONTINUOUS
 10
75.9696897956
 20
182.2647178296
 11
76.1884397956
 21
182.2647178296
  0
LINE
  8
0
 62
7
  6
CONTINUOUS
 10
69.8795856985
 20
176.8325542035
 11
69.8795856985
 21
177.2604624916
  0
LINE
  8
0
 62
7
  6
CONTINUOUS
 10
70.7545856985
 20
175.3199945913
 11
70.7545856985
 21
171.9009303919
  0
LINE
  8
0
 62
7
  6
CONTINUOUS
 10
69.8795856985
 20
177.2604624916
 11
69.8840230693
 21
177.3545637741
  0
LINE
  8
0
 62
7
  6
CONTINUOUS
 10
76.1884397956
 20
182.2647178296
 11
76.3342731985
 21
182.3019518677
  0
LINE
  8
0
 62
7
  6
CONTINUOUS
 10
76.3342731985
 20
182.4508880202
 11
76.1884397956
 21
182.4136539821
  0
LINE
  8
0
 62
7
  6
CONTINUOUS
 10
76.1884397956
 20
182.8604624916
 11
76.3342731985
 21
182.897696533
  0
LINE
  8
0
 62
7
  6
CONTINUOUS
 10
76.3342731985
 20
183.0838667464
 11
76.1884397956
 21
183.0466327083
  0
LINE
  8
0
 62
7
  6
CONTINUOUS
 10
77.3551063927
 20
183.865781625
 11
77.5009400042
 21
183.9030156631
  0
LINE
  8
0
 62
7
  6
CONTINUOUS
 10
77.5009400042
 20
184.0519518156
 11
77.3551063927
 21
184.0147177775
  0
LINE
  8
0
 62
7
  6
CONTINUOUS
 10
76.1884397956
 20
182.4136539821
 11
75.9696897956
 21
182.4136539821
  0
LINE
  8
0
 62
7
  6
CONTINUOUS
 10
75.7144816014
 20
182.7115263261
 11
75.5321897956
 21
182.7115263261
  0
LINE
  8
0
 62
7
  6
CONTINUOUS
 10
73.3811481985
 20
182.8604624916
 11
73.5998981985
 21
182.8604624916
  0
LINE
  8
0
 62
7
  6
CONTINUOUS
 10
74.5113564971
 20
182.8604624916
 11
74.7665648999
 21
182.8604624916
  0
LINE
  8
0
 62
7
  6
CONTINUOUS
 10
75.0582314971
 20
182.8604624916
 11
75.2405231985
 21
182.8604624916
  0
LINE
  8
0
 62
7
  6
CONTINUOUS
 10
75.9696897956
 20
182.8604624916
 11
76.1884397956
 21
182.8604624916
  0
LINE
  8
0
 62
7
  6
CONTINUOUS
 10
76.9905231985
 20
182.8604624916
 11
77.1728150042
 21
182.8604624916
  0
LINE
  8
0
 62
7
  6
CONTINUOUS
 10
77.8290650042
 20
182.8604624916
 11
78.0113563927
 21
182.8604624916
  0
LINE
  8
0
 62
7
  6
CONTINUOUS
 10
76.1884397956
 20
183.0466327083
 11
76.0426066014
 21
183.0466327083
  0
LINE
  8
0
 62
7
  6
CONTINUOUS
 10
73.5998981985
 20
183.6423773963
 11
74.2196898478
 21
183.6423773963
  0
LINE
  8
0
 62
7
  6
CONTINUOUS
 10
74.2926064971
 20
183.865781625
 11
73.5998981985
 21
183.865781625
  0
LINE
  8
0
 62
7
  6
CONTINUOUS
 10
75.9696897956
 20
183.865781625
 11
76.1884397956
 21
183.865781625
  0
LINE
  8
0
 62
7
  6
CONTINUOUS
 10
78.3030231985
 20
183.9030156631
 11
78.5946900042
 21
183.9030156631
  0
LINE
  8
0
 62
7
  6
CONTINUOUS
 10
78.7769813927
 20
183.9030156631
 11
79.1780231985
 21
183.9030156631
  0
LINE
  8
0
 62
7
  6
CONTINUOUS
 10
79.1780231985
 20
184.0519518156
 11
78.7769813927
 21
184.0519518156
  0
LINE
  8
0
 62
7
  6
CONTINUOUS
 10
78.5946900042
 20
184.0519518156
 11
78.3030231985
 21
184.0519518156
  0
LINE
  8
0
 62
7
  6
CONTINUOUS
 10
77.6467731985
 20
184.0519518156
 11
77.5009400042
 21
184.0519518156
  0
LINE
  8
0
 62
7
  6
CONTINUOUS
 10
76.6988566014
 20
184.0519518156
 11
76.5165647956
 21
184.0519518156
  0
LINE
  8
0
 62
7
  6
CONTINUOUS
 10
76.1884397956
 20
184.0519518156
 11
75.9696897956
 21
184.0519518156
  0
LINE
  8
0
 62
7
  6
CONTINUOUS
 10
75.2405231985
 20
184.0519518156
 11
75.0582314971
 21
184.0519518156
  0
LINE
  8
0
 62
7
  6
CONTINUOUS
 10
78.8863563927
 20
182.897696533
 11
79.1051063927
 21
182.8604624916
  0
LINE
  8
0
 62
7
  6
CONTINUOUS
 10
79.1051063927
 20
183.0093986571
 11
78.9228150042
 21
183.0466327083
  0
LINE
  8
0
 62
7
  6
CONTINUOUS
 10
75.8238566014
 20
182.3019518677
 11
75.9696897956
 21
182.2647178296
  0
LINE
  8
0
 62
7
  6
CONTINUOUS
 10
75.8238566014
 20
182.897696533
 11
75.9696897956
 21
182.8604624916
  0
LINE
  8
0
 62
7
  6
CONTINUOUS
 10
76.0426066014
 20
183.0466327083
 11
75.8967731985
 21
183.0838667464
  0
LINE
  8
0
 62
7
  6
CONTINUOUS
 10
76.1884397956
 20
183.865781625
 11
76.3342731985
 21
183.8285475869
  0
LINE
  8
0
 62
7
  6
CONTINUOUS
 10
74.2926064971
 20
184.424292301
 11
74.4019814971
 21
184.3870582629
  0
LINE
  8
0
 62
7
  6
CONTINUOUS
 10
78.7769813927
 20
182.9349305744
 11
78.8863563927
 21
182.897696533
  0
LINE
  8
0
 62
7
  6
CONTINUOUS
 10
75.9696897956
 20
182.4136539821
 11
75.8238566014
 21
182.4881220583
  0
LINE
  8
0
 62
7
  6
CONTINUOUS
 10
72.4332315231
 20
185.322164619
 11
72.5790648739
 21
185.247696533
  0
LINE
  8
0
 62
7
  6
CONTINUOUS
 10
75.7144816014
 20
182.376419944
 11
75.8238566014
 21
182.3019518677
  0
LINE
  8
0
 62
7
  6
CONTINUOUS
 10
75.7144816014
 20
182.972164619
 11
75.8238566014
 21
182.897696533
  0
LINE
  8
0
 62
7
  6
CONTINUOUS
 10
75.8967731985
 20
183.0838667464
 11
75.7873981985
 21
183.1583348226
  0
LINE
  8
0
 62
7
  6
CONTINUOUS
 10
72.6155231985
 20
185.4711007845
 11
72.5061481985
 21
185.5455688868
  0
LINE
  8
0
 62
7
  6
CONTINUOUS
 10
72.2873981985
 20
185.4711007845
 11
72.4332315231
 21
185.322164619
  0
LINE
  8
0
 62
7
  6
CONTINUOUS
 10
75.6051066014
 20
182.4881220583
 11
75.7144816014
 21
182.376419944
  0
LINE
  8
0
 62
7
  6
CONTINUOUS
 10
72.2144815329
 20
185.620036963
 11
72.2873981985
 21
185.4711007845
  0
LINE
  8
0
 62
7
  6
CONTINUOUS
 10
72.1780231985
 20
186.3647177775
 11
72.1780231985
 21
185.8062071536
  0
LINE
  8
0
 62
7
  6
CONTINUOUS
 10
72.3967731985
 20
185.8062071536
 11
72.3967731985
 21
186.3647177775
  0
LINE
  8
0
 62
7
  6
CONTINUOUS
 10
75.9696897956
 20
184.0519518156
 11
75.8238566014
 21
184.0147177775
  0
LINE
  8
0
 62
7
  6
CONTINUOUS
 10
80.08948181
 20
185.3966327083
 11
79.9436481985
 21
185.3593986571
  0
LINE
  8
0
 62
7
  6
CONTINUOUS
 10
78.4123981985
 20
185.2104624916
 11
78.5582313927
 21
185.247696533
  0
LINE
  8
0
 62
7
  6
CONTINUOUS
 10
78.5582313927
 20
185.4338667464
 11
78.4123981985
 21
185.3966327083
  0
LINE
  8
0
 62
7
  6
CONTINUOUS
 10
79.5061481985
 20
186.215781625
 11
79.65198181
 21
186.2530156631
  0
LINE
  8
0
 62
7
  6
CONTINUOUS
 10
74.4748981985
 20
185.2104624916
 11
74.6207316014
 21
185.247696533
  0
LINE
  8
0
 62
7
  6
CONTINUOUS
 10
74.6207316014
 20
185.3966327083
 11
74.4748981985
 21
185.3593986571
  0
LINE
  8
0
 62
7
  6
CONTINUOUS
 10
75.9332313927
 20
185.2104624916
 11
76.1155231985
 21
185.247696533
  0
LINE
  8
0
 62
7
  6
CONTINUOUS
 10
73.0894814971
 20
185.2104624916
 11
73.2717731985
 21
185.247696533
  0
LINE
  8
0
 62
7
  6
CONTINUOUS
 10
79.9436481985
 20
185.2104624916
 11
80.1623981985
 21
185.247696533
  0
LINE
  8
0
 62
7
  6
CONTINUOUS
 10
79.65198181
 20
186.4019518156
 11
79.43323181
 21
186.3647177775
  0
LINE
  8
0
 62
7
  6
CONTINUOUS
 10
78.7769813927
 20
184.3498242248
 11
78.5946900042
 21
184.3498242248
  0
LINE
  8
0
 62
7
  6
CONTINUOUS
 10
73.5998981985
 20
184.424292301
 11
74.2926064971
 21
184.424292301
  0
LINE
  8
0
 62
7
  6
CONTINUOUS
 10
75.0582314971
 20
184.424292301
 11
75.2405231985
 21
184.424292301
  0
LINE
  8
0
 62
7
  6
CONTINUOUS
 10
77.1728150042
 20
184.6104624916
 11
76.9905231985
 21
184.6104624916
  0
LINE
  8
0
 62
7
  6
CONTINUOUS
 10
75.2405231985
 20
184.6104624916
 11
75.0582314971
 21
184.6104624916
  0
LINE
  8
0
 62
7
  6
CONTINUOUS
 10
74.2561481985
 20
184.6104624916
 11
73.3811481985
 21
184.6104624916
  0
LINE
  8
0
 62
7
  6
CONTINUOUS
 10
72.7613565492
 20
185.2104624916
 11
73.0894814971
 21
185.2104624916
  0
LINE
  8
0
 62
7
  6
CONTINUOUS
 10
74.3290647956
 20
185.2104624916
 11
74.4748981985
 21
185.2104624916
  0
LINE
  8
0
 62
7
  6
CONTINUOUS
 10
74.8759397956
 20
185.2104624916
 11
75.0582316014
 21
185.2104624916
  0
LINE
  8
0
 62
7
  6
CONTINUOUS
 10
75.7144813927
 20
185.2104624916
 11
75.9332313927
 21
185.2104624916
  0
LINE
  8
0
 62
7
  6
CONTINUOUS
 10
76.3342731985
 20
185.2104624916
 11
76.5165650042
 21
185.2104624916
  0
LINE
  8
0
 62
7
  6
CONTINUOUS
 10
76.8082313927
 20
185.2104624916
 11
76.9905231985
 21
185.2104624916
  0
LINE
  8
0
 62
7
  6
CONTINUOUS
 10
78.1936481985
 20
185.2104624916
 11
78.4123981985
 21
185.2104624916
  0
LINE
  8
0
 62
7
  6
CONTINUOUS
 10
78.7405231985
 20
185.2104624916
 11
78.9228150042
 21
185.2104624916
  0
LINE
  8
0
 62
7
  6
CONTINUOUS
 10
79.7248981985
 20
185.2104624916
 11
79.9436481985
 21
185.2104624916
  0
LINE
  8
0
 62
7
  6
CONTINUOUS
 10
79.9436481985
 20
185.3593986571
 11
79.7248981985
 21
185.3593986571
  0
LINE
  8
0
 62
7
  6
CONTINUOUS
 10
75.9332313927
 20
185.3593986571
 11
75.7144813927
 21
185.3593986571
  0
LINE
  8
0
 62
7
  6
CONTINUOUS
 10
74.4748981985
 20
185.3593986571
 11
74.3290647956
 21
185.3593986571
  0
LINE
  8
0
 62
7
  6
CONTINUOUS
 10
78.4123981985
 20
185.3966327083
 11
78.2665650042
 21
185.3966327083
  0
LINE
  8
0
 62
7
  6
CONTINUOUS
 10
73.0894814971
 20
185.4338667464
 11
72.7613565492
 21
185.4338667464
  0
LINE
  8
0
 62
7
  6
CONTINUOUS
 10
79.3967731985
 20
185.5083348226
 11
79.21448181
 21
185.5083348226
  0
LINE
  8
0
 62
7
  6
CONTINUOUS
 10
75.8603150042
 20
185.8434411917
 11
76.2613563927
 21
185.8434411917
  0
LINE
  8
0
 62
7
  6
CONTINUOUS
 10
73.0530231985
 20
185.9551433582
 11
73.3811481985
 21
185.9551433582
  0
LINE
  8
0
 62
7
  6
CONTINUOUS
 10
79.5061481985
 20
185.247696533
 11
79.7248981985
 21
185.2104624916
  0
LINE
  8
0
 62
7
  6
CONTINUOUS
 10
74.4384398999
 20
184.5732284535
 11
74.2561481985
 21
184.6104624916
  0
LINE
  8
0
 62
7
  6
CONTINUOUS
 10
72.5790648739
 20
185.247696533
 11
72.7613565492
 21
185.2104624916
  0
LINE
  8
0
 62
7
  6
CONTINUOUS
 10
76.3342731985
 20
184.0147177775
 11
76.1884397956
 21
184.0519518156
  0
LINE
  8
0
 62
7
  6
CONTINUOUS
 10
77.5009400042
 20
183.9030156631
 11
77.6467731985
 21
183.865781625
  0
LINE
  8
0
 62
7
  6
CONTINUOUS
 10
72.7613565492
 20
185.4338667464
 11
72.6155231985
 21
185.4711007845
  0
LINE
  8
0
 62
7
  6
CONTINUOUS
 10
74.1832316014
 20
185.247696533
 11
74.3290647956
 21
185.2104624916
  0
LINE
  8
0
 62
7
  6
CONTINUOUS
 10
75.5686481985
 20
185.247696533
 11
75.7144813927
 21
185.2104624916
  0
LINE
  8
0
 62
7
  6
CONTINUOUS
 10
78.0478150042
 20
185.247696533
 11
78.1936481985
 21
185.2104624916
  0
LINE
  8
0
 62
7
  6
CONTINUOUS
 10
77.7561481985
 20
184.0147177775
 11
77.6467731985
 21
184.0519518156
  0
LINE
  8
0
 62
7
  6
CONTINUOUS
 10
76.4071897956
 20
183.9774837394
 11
76.3342731985
 21
184.0147177775
  0
LINE
  8
0
 62
7
  6
CONTINUOUS
 10
74.3290647956
 20
185.3593986571
 11
74.1832316014
 21
185.4338667464
  0
LINE
  8
0
 62
7
  6
CONTINUOUS
 10
77.6467731985
 20
183.865781625
 11
77.7196900042
 21
183.8285475869
  0
LINE
  8
0
 62
7
  6
CONTINUOUS
 10
75.4957316014
 20
185.2849305744
 11
75.5686481985
 21
185.247696533
  0
LINE
  8
0
 62
7
  6
CONTINUOUS
 10
75.7144813927
 20
185.3593986571
 11
75.5686481985
 21
185.4338667464
  0
LINE
  8
0
 62
7
  6
CONTINUOUS
 10
73.4176064971
 20
186.8487603773
 11
73.2717731985
 21
186.9232284535
  0
LINE
  8
0
 62
7
  6
CONTINUOUS
 10
87.8726406885
 20
177.4374258515
 11
87.8982772873
 21
177.4234607254
  0
LINE
  8
0
 62
7
  6
CONTINUOUS
 10
74.0738566014
 20
185.322164619
 11
74.1832316014
 21
185.247696533
  0
LINE
  8
0
 62
7
  6
CONTINUOUS
 10
76.3342731985
 20
183.8285475869
 11
76.4436481985
 21
183.7540795107
  0
LINE
  8
0
 62
7
  6
CONTINUOUS
 10
73.2353148999
 20
186.6998242248
 11
73.3446898999
 21
186.6253561486
  0
LINE
  8
0
 62
7
  6
CONTINUOUS
 10
78.6676063927
 20
183.0093986571
 11
78.7769813927
 21
182.9349305744
  0
LINE
  8
0
 62
7
  6
CONTINUOUS
 10
78.9228150042
 20
183.0466327083
 11
78.8134400042
 21
183.1211007845
  0
LINE
  8
0
 62
7
  6
CONTINUOUS
 10
77.8655231985
 20
183.9402497013
 11
77.7561481985
 21
184.0147177775
  0
LINE
  8
0
 62
7
  6
CONTINUOUS
 10
74.5842731985
 20
184.4615263392
 11
74.4384398999
 21
184.5732284535
  0
LINE
  8
0
 62
7
  6
CONTINUOUS
 10
75.6051066014
 20
183.0838667464
 11
75.7144816014
 21
182.972164619
  0
LINE
  8
0
 62
7
  6
CONTINUOUS
 10
74.4019814971
 20
184.3870582629
 11
74.4748981985
 21
184.3125901867
  0
LINE
  8
0
 62
7
  6
CONTINUOUS
 10
73.9644816014
 20
185.4338667464
 11
74.0738566014
 21
185.322164619
  0
LINE
  8
0
 62
7
  6
CONTINUOUS
 10
73.5634398999
 20
186.6998242248
 11
73.4176064971
 21
186.8487603773
  0
LINE
  8
0
 62
7
  6
CONTINUOUS
 10
76.4801066014
 20
183.9030156631
 11
76.4071897956
 21
183.9774837394
  0
LINE
  8
0
 62
7
  6
CONTINUOUS
 10
75.3863566014
 20
185.3966327083
 11
75.4957316014
 21
185.2849305744
  0
LINE
  8
0
 62
7
  6
CONTINUOUS
 10
74.6936481985
 20
184.3125901867
 11
74.5842731985
 21
184.4615263392
  0
LINE
  8
0
 62
7
  6
CONTINUOUS
 10
72.5061481985
 20
185.5455688868
 11
72.4332315231
 21
185.6572710011
  0
LINE
  8
0
 62
7
  6
CONTINUOUS
 10
75.8238566014
 20
182.4881220583
 11
75.7509397956
 21
182.5998241987
  0
LINE
  8
0
 62
7
  6
CONTINUOUS
 10
74.1832316014
 20
185.4338667464
 11
74.1103147956
 21
185.5455688868
  0
LINE
  8
0
 62
7
  6
CONTINUOUS
 10
73.9280231985
 20
185.5083348226
 11
73.9644816014
 21
185.4338667464
  0
LINE
  8
0
 62
7
  6
CONTINUOUS
 10
74.7665648999
 20
182.8604624916
 11
74.4384398999
 21
183.7168454726
  0
LINE
  8
0
 62
7
  6
CONTINUOUS
 10
74.2196898478
 20
183.6423773963
 11
74.5113564971
 21
182.8604624916
  0
LINE
  8
0
 62
7
  6
CONTINUOUS
 10
73.3446898999
 20
186.6253561486
 11
73.3811481985
 21
186.5136539299
  0
LINE
  8
0
 62
7
  6
CONTINUOUS
 10
72.4332315231
 20
185.6572710011
 11
72.3967731985
 21
185.8062071536
  0
LINE
  8
0
 62
7
  6
CONTINUOUS
 10
72.1780231985
 20
185.8062071536
 11
72.2144815329
 21
185.620036963
  0
LINE
  8
0
 62
7
  6
CONTINUOUS
 10
73.0530231985
 20
186.1785475869
 11
73.0530231985
 21
185.9551433582
  0
LINE
  8
0
 62
7
  6
CONTINUOUS
 10
73.3811481985
 20
185.9551433582
 11
73.3811481985
 21
185.6572710011
  0
LINE
  8
0
 62
7
  6
CONTINUOUS
 10
73.3811481985
 20
184.6104624916
 11
73.3811481985
 21
182.8604624916
  0
LINE
  8
0
 62
7
  6
CONTINUOUS
 10
73.5998981985
 20
182.8604624916
 11
73.5998981985
 21
183.6423773963
  0
LINE
  8
0
 62
7
  6
CONTINUOUS
 10
73.5998981985
 20
183.865781625
 11
73.5998981985
 21
184.424292301
  0
LINE
  8
0
 62
7
  6
CONTINUOUS
 10
73.5998981985
 20
185.620036963
 11
73.5998981985
 21
186.1785475869
  0
LINE
  8
0
 62
7
  6
CONTINUOUS
 10
73.8915648999
 20
186.4019518156
 11
73.8915648999
 21
185.6572710011
  0
LINE
  8
0
 62
7
  6
CONTINUOUS
 10
74.0191689524
 20
188.9008880724
 11
74.0191689524
 21
188.7519518156
  0
LINE
  8
0
 62
7
  6
CONTINUOUS
 10
74.0738566014
 20
185.6572710011
 11
74.0738566014
 21
186.4019518156
  0
LINE
  8
0
 62
7
  6
CONTINUOUS
 10
74.2379189524
 20
188.7891858537
 11
74.2379189524
 21
188.8636539299
  0
LINE
  8
0
 62
7
  6
CONTINUOUS
 10
74.5113564971
 20
184.2008880724
 11
74.5113564971
 21
184.0891858537
  0
LINE
  8
0
 62
7
  6
CONTINUOUS
 10
72.2144815329
 20
186.5508880724
 11
72.1780231985
 21
186.3647177775
  0
LINE
  8
0
 62
7
  6
CONTINUOUS
 10
72.3967731985
 20
186.3647177775
 11
72.4332315231
 21
186.5136539299
  0
LINE
  8
0
 62
7
  6
CONTINUOUS
 10
74.05562729
 20
189.0498242248
 11
74.0191689524
 21
188.9008880724
  0
LINE
  8
0
 62
7
  6
CONTINUOUS
 10
73.5634398999
 20
185.4711007845
 11
73.5998981985
 21
185.620036963
  0
LINE
  8
0
 62
7
  6
CONTINUOUS
 10
74.2379189524
 20
188.8636539299
 11
74.274377277
 21
188.9753561486
  0
LINE
  8
0
 62
7
  6
CONTINUOUS
 10
72.2873981985
 20
186.6998242248
 11
72.2144815329
 21
186.5508880724
  0
LINE
  8
0
 62
7
  6
CONTINUOUS
 10
72.4332315231
 20
186.5136539299
 11
72.5061481985
 21
186.6253561486
  0
LINE
  8
0
 62
7
  6
CONTINUOUS
 10
78.1936481985
 20
186.4019518156
 11
78.0478150042
 21
186.3647177775
  0
LINE
  8
0
 62
7
  6
CONTINUOUS
 10
75.7144813927
 20
185.8062071536
 11
75.8603150042
 21
185.8434411917
  0
LINE
  8
0
 62
7
  6
CONTINUOUS
 10
73.2353148999
 20
185.4711007845
 11
73.0894814971
 21
185.4338667464
  0
LINE
  8
0
 62
7
  6
CONTINUOUS
 10
75.6415647956
 20
186.215781625
 11
75.7873981985
 21
186.2530156631
  0
LINE
  8
0
 62
7
  6
CONTINUOUS
 10
76.6806273552
 20
187.5604624916
 11
76.8264605495
 21
187.597696533
  0
LINE
  8
0
 62
7
  6
CONTINUOUS
 10
72.6155231985
 20
186.6998242248
 11
72.7613565492
 21
186.7370582629
  0
LINE
  8
0
 62
7
  6
CONTINUOUS
 10
76.8264605495
 20
187.7838667464
 11
76.6806273552
 21
187.7466327083
  0
LINE
  8
0
 62
7
  6
CONTINUOUS
 10
77.4644813927
 20
186.4019518156
 11
77.2821900042
 21
186.3647177775
  0
LINE
  8
0
 62
7
  6
CONTINUOUS
 10
72.7613565492
 20
186.9604624916
 11
72.5790648739
 21
186.9232284535
  0
LINE
  8
0
 62
7
  6
CONTINUOUS
 10
77.2457313927
 20
186.1785475869
 11
77.4644813927
 21
186.215781625
  0
LINE
  8
0
 62
7
  6
CONTINUOUS
 10
75.8603150042
 20
185.9923773963
 11
75.6415647956
 21
185.9551433582
  0
LINE
  8
0
 62
7
  6
CONTINUOUS
 10
75.7873981985
 20
186.4019518156
 11
75.5321897956
 21
186.3647177775
  0
LINE
  8
0
 62
7
  6
CONTINUOUS
 10
78.1025021466
 20
187.5604624916
 11
78.3577107581
 21
187.597696533
  0
LINE
  8
0
 62
7
  6
CONTINUOUS
 10
78.3212521466
 20
187.7466327083
 11
78.0660439524
 21
187.7093986571
  0
LINE
  8
0
 62
7
  6
CONTINUOUS
 10
76.2613563927
 20
185.9923773963
 11
75.8603150042
 21
185.9923773963
  0
LINE
  8
0
 62
7
  6
CONTINUOUS
 10
75.3498981985
 20
186.1040795107
 11
75.5321897956
 21
186.1040795107
  0
LINE
  8
0
 62
7
  6
CONTINUOUS
 10
80.19885681
 20
186.1040795107
 11
80.3811481985
 21
186.1040795107
  0
LINE
  8
0
 62
7
  6
CONTINUOUS
 10
73.5998981985
 20
186.1785475869
 11
73.0530231985
 21
186.1785475869
  0
LINE
  8
0
 62
7
  6
CONTINUOUS
 10
78.1936481985
 20
186.215781625
 11
78.4123981985
 21
186.215781625
  0
LINE
  8
0
 62
7
  6
CONTINUOUS
 10
75.7873981985
 20
186.2530156631
 11
76.0061481985
 21
186.2530156631
  0
LINE
  8
0
 62
7
  6
CONTINUOUS
 10
79.65198181
 20
186.2530156631
 11
79.87073181
 21
186.2530156631
  0
LINE
  8
0
 62
7
  6
CONTINUOUS
 10
79.87073181
 20
186.4019518156
 11
79.65198181
 21
186.4019518156
  0
LINE
  8
0
 62
7
  6
CONTINUOUS
 10
78.4123981985
 20
186.4019518156
 11
78.1936481985
 21
186.4019518156
  0
LINE
  8
0
 62
7
  6
CONTINUOUS
 10
76.9905231985
 20
186.4019518156
 11
76.8082313927
 21
186.4019518156
  0
LINE
  8
0
 62
7
  6
CONTINUOUS
 10
76.0061481985
 20
186.4019518156
 11
75.7873981985
 21
186.4019518156
  0
LINE
  8
0
 62
7
  6
CONTINUOUS
 10
74.9853147956
 20
186.4019518156
 11
74.8030231985
 21
186.4019518156
  0
LINE
  8
0
 62
7
  6
CONTINUOUS
 10
74.0738566014
 20
186.4019518156
 11
73.8915648999
 21
186.4019518156
  0
LINE
  8
0
 62
7
  6
CONTINUOUS
 10
73.3811481985
 20
186.5136539299
 11
73.5998981985
 21
186.5136539299
  0
LINE
  8
0
 62
7
  6
CONTINUOUS
 10
72.7613565492
 20
186.7370582629
 11
73.0894814971
 21
186.7370582629
  0
LINE
  8
0
 62
7
  6
CONTINUOUS
 10
78.9228150042
 20
186.9604624916
 11
78.7405231985
 21
186.9604624916
  0
LINE
  8
0
 62
7
  6
CONTINUOUS
 10
73.0894814971
 20
186.9604624916
 11
72.7613565492
 21
186.9604624916
  0
LINE
  8
0
 62
7
  6
CONTINUOUS
 10
74.4202106016
 20
187.5604624916
 11
74.7118773031
 21
187.5604624916
  0
LINE
  8
0
 62
7
  6
CONTINUOUS
 10
75.5504189524
 20
187.5604624916
 11
75.7327105495
 21
187.5604624916
  0
LINE
  8
0
 62
7
  6
CONTINUOUS
 10
76.4618773552
 20
187.5604624916
 11
76.6806273552
 21
187.5604624916
  0
LINE
  8
0
 62
7
  6
CONTINUOUS
 10
77.0087523552
 20
187.5604624916
 11
77.1910439524
 21
187.5604624916
  0
LINE
  8
0
 62
7
  6
CONTINUOUS
 10
76.6806273552
 20
187.7466327083
 11
76.5347939524
 21
187.7466327083
  0
LINE
  8
0
 62
7
  6
CONTINUOUS
 10
74.7118773031
 20
187.7838667464
 11
74.4202106016
 21
187.7838667464
  0
LINE
  8
0
 62
7
  6
CONTINUOUS
 10
79.7248981985
 20
185.3593986571
 11
79.5061481985
 21
185.3966327083
  0
LINE
  8
0
 62
7
  6
CONTINUOUS
 10
76.2248981985
 20
186.3647177775
 11
76.0061481985
 21
186.4019518156
  0
LINE
  8
0
 62
7
  6
CONTINUOUS
 10
79.87073181
 20
186.2530156631
 11
80.08948181
 21
186.215781625
  0
LINE
  8
0
 62
7
  6
CONTINUOUS
 10
80.08948181
 20
186.3647177775
 11
79.87073181
 21
186.4019518156
  0
LINE
  8
0
 62
7
  6
CONTINUOUS
 10
73.2717731985
 20
186.9232284535
 11
73.0894814971
 21
186.9604624916
  0
LINE
  8
0
 62
7
  6
CONTINUOUS
 10
74.2379189524
 20
187.597696533
 11
74.4202106016
 21
187.5604624916
  0
LINE
  8
0
 62
7
  6
CONTINUOUS
 10
78.2665650042
 20
185.3966327083
 11
78.1207313927
 21
185.4338667464
  0
LINE
  8
0
 62
7
  6
CONTINUOUS
 10
73.0894814971
 20
186.7370582629
 11
73.2353148999
 21
186.6998242248
  0
LINE
  8
0
 62
7
  6
CONTINUOUS
 10
76.0061481985
 20
186.2530156631
 11
76.1519813927
 21
186.215781625
  0
LINE
  8
0
 62
7
  6
CONTINUOUS
 10
78.4123981985
 20
186.215781625
 11
78.5582313927
 21
186.1785475869
  0
LINE
  8
0
 62
7
  6
CONTINUOUS
 10
78.5582313927
 20
186.3647177775
 11
78.4123981985
 21
186.4019518156
  0
LINE
  8
0
 62
7
  6
CONTINUOUS
 10
74.4202106016
 20
187.7838667464
 11
74.274377277
 21
187.8211007845
  0
LINE
  8
0
 62
7
  6
CONTINUOUS
 10
76.3160439524
 20
187.597696533
 11
76.4618773552
 21
187.5604624916
  0
LINE
  8
0
 62
7
  6
CONTINUOUS
 10
79.43323181
 20
185.8434411917
 11
80.0530231985
 21
185.6572710011
  0
LINE
  8
0
 62
7
  6
CONTINUOUS
 10
80.1623981985
 20
185.7689731155
 11
79.54260681
 21
185.9551433582
  0
LINE
  8
0
 62
7
  6
CONTINUOUS
 10
79.3967731985
 20
185.2849305744
 11
79.5061481985
 21
185.247696533
  0
LINE
  8
0
 62
7
  6
CONTINUOUS
 10
80.19885681
 20
186.3274837394
 11
80.08948181
 21
186.3647177775
  0
LINE
  8
0
 62
7
  6
CONTINUOUS
 10
76.1519813927
 20
186.215781625
 11
76.2248981985
 21
186.1785475869
  0
LINE
  8
0
 62
7
  6
CONTINUOUS
 10
79.5061481985
 20
185.3966327083
 11
79.43323181
 21
185.4338667464
  0
LINE
  8
0
 62
7
  6
CONTINUOUS
 10
74.2014606277
 20
188.4540795107
 11
74.3472939524
 21
188.3796114344
  0
LINE
  8
0
 62
7
  6
CONTINUOUS
 10
78.6311481985
 20
186.3274837394
 11
78.5582313927
 21
186.3647177775
  0
LINE
  8
0
 62
7
  6
CONTINUOUS
 10
74.05562729
 20
187.7093986571
 11
74.2379189524
 21
187.597696533
  0
LINE
  8
0
 62
7
  6
CONTINUOUS
 10
76.3342731985
 20
186.2902497013
 11
76.2248981985
 21
186.3647177775
  0
LINE
  8
0
 62
7
  6
CONTINUOUS
 10
77.9384400042
 20
185.322164619
 11
78.0478150042
 21
185.247696533
  0
LINE
  8
0
 62
7
  6
CONTINUOUS
 10
78.1207313927
 20
185.4338667464
 11
78.0113563927
 21
185.5083348226
  0
LINE
  8
0
 62
7
  6
CONTINUOUS
 10
74.3837523031
 20
188.6030156631
 11
74.274377277
 21
188.6774837394
  0
LINE
  8
0
 62
7
  6
CONTINUOUS
 10
74.8577106538
 20
188.3051433582
 11
74.9670856538
 21
188.230675282
  0
LINE
  8
0
 62
7
  6
CONTINUOUS
 10
79.2873981985
 20
185.3593986571
 11
79.3967731985
 21
185.2849305744
  0
LINE
  8
0
 62
7
  6
CONTINUOUS
 10
77.7196900042
 20
183.8285475869
 11
77.7926063927
 21
183.7540795107
  0
LINE
  8
0
 62
7
  6
CONTINUOUS
 10
77.9384400042
 20
183.865781625
 11
77.8655231985
 21
183.9402497013
  0
LINE
  8
0
 62
7
  6
CONTINUOUS
 10
74.274377277
 20
187.8211007845
 11
74.165002277
 21
187.9328029249
  0
LINE
  8
0
 62
7
  6
CONTINUOUS
 10
74.05562729
 20
188.6030156631
 11
74.2014606277
 21
188.4540795107
  0
LINE
  8
0
 62
7
  6
CONTINUOUS
 10
76.4071900042
 20
186.215781625
 11
76.3342731985
 21
186.2902497013
  0
LINE
  8
0
 62
7
  6
CONTINUOUS
 10
77.8290650042
 20
185.4338667464
 11
77.9384400042
 21
185.322164619
  0
LINE
  8
0
 62
7
  6
CONTINUOUS
 10
76.4436481985
 20
183.7540795107
 11
76.5165647956
 21
183.6423773963
  0
LINE
  8
0
 62
7
  6
CONTINUOUS
 10
74.9670856538
 20
188.230675282
 11
75.0400022509
 21
188.1189731155
  0
LINE
  8
0
 62
7
  6
CONTINUOUS
 10
73.9462522868
 20
187.8955688868
 11
74.05562729
 21
187.7093986571
  0
LINE
  8
0
 62
7
  6
CONTINUOUS
 10
75.5686481985
 20
183.1583348226
 11
75.6051066014
 21
183.0838667464
  0
LINE
  8
0
 62
7
  6
CONTINUOUS
 10
75.7873981985
 20
183.1583348226
 11
75.7509397956
 21
183.2328029249
  0
LINE
  8
0
 62
7
  6
CONTINUOUS
 10
75.0582316014
 20
185.2104624916
 11
75.0217731985
 21
185.2849305744
  0
LINE
  8
0
 62
7
  6
CONTINUOUS
 10
75.5686481985
 20
185.4338667464
 11
75.5321897956
 21
185.5083348226
  0
LINE
  8
0
 62
7
  6
CONTINUOUS
 10
76.5165647956
 20
183.8285475869
 11
76.4801066014
 21
183.9030156631
  0
LINE
  8
0
 62
7
  6
CONTINUOUS
 10
76.2978150042
 20
185.2849305744
 11
76.3342731985
 21
185.2104624916
  0
LINE
  8
0
 62
7
  6
CONTINUOUS
 10
74.8030231985
 20
185.3966327083
 11
74.8759397956
 21
185.2104624916
  0
LINE
  8
0
 62
7
  6
CONTINUOUS
 10
74.4748981985
 20
184.3125901867
 11
74.5113564971
 21
184.2008880724
  0
LINE
  8
0
 62
7
  6
CONTINUOUS
 10
74.1103147956
 20
185.5455688868
 11
74.0738566014
 21
185.6572710011
  0
LINE
  8
0
 62
7
  6
CONTINUOUS
 10
74.7301064971
 20
184.2008880724
 11
74.6936481985
 21
184.3125901867
  0
LINE
  8
0
 62
7
  6
CONTINUOUS
 10
75.5321897956
 20
182.7115263261
 11
75.6051066014
 21
182.4881220583
  0
LINE
  8
0
 62
7
  6
CONTINUOUS
 10
75.7509397956
 20
182.5998241987
 11
75.7144816014
 21
182.7115263261
  0
LINE
  8
0
 62
7
  6
CONTINUOUS
 10
74.165002277
 20
187.9328029249
 11
74.1285439524
 21
188.0445050393
  0
LINE
  8
0
 62
7
  6
CONTINUOUS
 10
75.7509397956
 20
183.2328029249
 11
75.7144816014
 21
183.3445050393
  0
LINE
  8
0
 62
7
  6
CONTINUOUS
 10
74.274377277
 20
188.6774837394
 11
74.2379189524
 21
188.7891858537
  0
LINE
  8
0
 62
7
  6
CONTINUOUS
 10
73.8915648999
 20
185.6572710011
 11
73.9280231985
 21
185.5083348226
  0
LINE
  8
0
 62
7
  6
CONTINUOUS
 10
73.9097939524
 20
188.0445050393
 11
73.9462522868
 21
187.8955688868
  0
LINE
  8
0
 62
7
  6
CONTINUOUS
 10
74.0191689524
 20
188.7519518156
 11
74.05562729
 21
188.6030156631
  0
LINE
  8
0
 62
7
  6
CONTINUOUS
 10
75.0217731985
 20
185.2849305744
 11
74.9853147956
 21
185.4338667464
  0
LINE
  8
0
 62
7
  6
CONTINUOUS
 10
75.5321897956
 20
183.3072710011
 11
75.5686481985
 21
183.1583348226
  0
LINE
  8
0
 62
7
  6
CONTINUOUS
 10
75.3498981985
 20
185.5455688868
 11
75.3863566014
 21
185.3966327083
  0
LINE
  8
0
 62
7
  6
CONTINUOUS
 10
73.5998981985
 20
186.5136539299
 11
73.5634398999
 21
186.6998242248
  0
LINE
  8
0
 62
7
  6
CONTINUOUS
 10
74.7301064971
 20
184.0519518156
 11
74.7301064971
 21
184.2008880724
  0
LINE
  8
0
 62
7
  6
CONTINUOUS
 10
74.8030231985
 20
186.4019518156
 11
74.8030231985
 21
185.5828029249
  0
LINE
  8
0
 62
7
  6
CONTINUOUS
 10
74.9853147956
 20
185.4338667464
 11
74.9853147956
 21
186.4019518156
  0
LINE
  8
0
 62
7
  6
CONTINUOUS
 10
75.0400022509
 20
188.1189731155
 11
75.0400022509
 21
188.0072710011
  0
LINE
  8
0
 62
7
  6
CONTINUOUS
 10
75.0582314971
 20
184.6104624916
 11
75.0582314971
 21
184.424292301
  0
LINE
  8
0
 62
7
  6
CONTINUOUS
 10
75.0582314971
 20
184.0519518156
 11
75.0582314971
 21
182.8604624916
  0
LINE
  8
0
 62
7
  6
CONTINUOUS
 10
75.2405231985
 20
182.8604624916
 11
75.2405231985
 21
184.0519518156
  0
LINE
  8
0
 62
7
  6
CONTINUOUS
 10
75.2405231985
 20
184.424292301
 11
75.2405231985
 21
184.6104624916
  0
LINE
  8
0
 62
7
  6
CONTINUOUS
 10
75.2587522509
 20
187.970036963
 11
75.2587522509
 21
188.1562071536
  0
LINE
  8
0
 62
7
  6
CONTINUOUS
 10
75.3498981985
 20
186.1785475869
 11
75.3498981985
 21
186.1040795107
  0
LINE
  8
0
 62
7
  6
CONTINUOUS
 10
75.3498981985
 20
185.6572710011
 11
75.3498981985
 21
185.5455688868
  0
LINE
  8
0
 62
7
  6
CONTINUOUS
 10
75.5321897956
 20
183.6051433582
 11
75.5321897956
 21
183.3072710011
  0
LINE
  8
0
 62
7
  6
CONTINUOUS
 10
75.5321897956
 20
185.5083348226
 11
75.5321897956
 21
185.5828029249
  0
LINE
  8
0
 62
7
  6
CONTINUOUS
 10
75.5504189524
 20
189.3104624916
 11
75.5504189524
 21
189.124292301
  0
LINE
  8
0
 62
7
  6
CONTINUOUS
 10
75.5504189524
 20
188.7519518156
 11
75.5504189524
 21
187.5604624916
  0
LINE
  8
0
 62
7
  6
CONTINUOUS
 10
75.7144816014
 20
183.3445050393
 11
75.7144816014
 21
183.5679093201
  0
LINE
  8
0
 62
7
  6
CONTINUOUS
 10
75.7327105495
 20
187.5604624916
 11
75.7327105495
 21
188.7519518156
  0
LINE
  8
0
 62
7
  6
CONTINUOUS
 10
75.7327105495
 20
189.124292301
 11
75.7327105495
 21
189.3104624916
  0
LINE
  8
0
 62
7
  6
CONTINUOUS
 10
76.0243773552
 20
188.3051433582
 11
76.0243773552
 21
188.0072710011
  0
LINE
  8
0
 62
7
  6
CONTINUOUS
 10
76.2066689524
 20
188.0445050393
 11
76.2066689524
 21
188.2679093201
  0
LINE
  8
0
 62
7
  6
CONTINUOUS
 10
76.2613563927
 20
186.1040795107
 11
76.2613563927
 21
185.9923773963
  0
LINE
  8
0
 62
7
  6
CONTINUOUS
 10
76.2613563927
 20
185.8434411917
 11
76.2613563927
 21
185.620036963
  0
LINE
  8
DEFAULT_1
 62
2
  6
CENTER
 10
76.2795856985
 20
167.2604624916
 11
76.2795856985
 21
211.6104624916
  0
LINE
  8
0
 62
7
  6
CONTINUOUS
 10
76.4436481985
 20
185.5083348226
 11
76.4436481985
 21
186.1040795107
  0
LINE
  8
0
 62
7
  6
CONTINUOUS
 10
76.5165647956
 20
184.0519518156
 11
76.5165647956
 21
183.8285475869
  0
LINE
  8
0
 62
7
  6
CONTINUOUS
 10
76.5165647956
 20
183.6423773963
 11
76.5165647956
 21
183.270036963
  0
LINE
  8
0
 62
7
  6
CONTINUOUS
 10
76.5165647956
 20
183.0838667464
 11
76.5165647956
 21
182.7859944089
  0
LINE
  8
0
 62
7
  6
CONTINUOUS
 10
76.0608355495
 20
188.4540795107
 11
76.0243773552
 21
188.3051433582
  0
LINE
  8
0
 62
7
  6
CONTINUOUS
 10
73.3811481985
 20
185.6572710011
 11
73.3446898999
 21
185.5455688868
  0
LINE
  8
0
 62
7
  6
CONTINUOUS
 10
74.5113564971
 20
184.0891858537
 11
74.4748981985
 21
183.9774837394
  0
LINE
  8
0
 62
7
  6
CONTINUOUS
 10
74.6936481985
 20
183.9402497013
 11
74.7301064971
 21
184.0519518156
  0
LINE
  8
0
 62
7
  6
CONTINUOUS
 10
75.1858356538
 20
187.8211007845
 11
75.2587522509
 21
187.970036963
  0
LINE
  8
0
 62
7
  6
CONTINUOUS
 10
76.0972939524
 20
188.5285475869
 11
76.0608355495
 21
188.4540795107
  0
LINE
  8
0
 62
7
  6
CONTINUOUS
 10
75.0400022509
 20
188.0072710011
 11
74.9670856538
 21
187.8955688868
  0
LINE
  8
0
 62
7
  6
CONTINUOUS
 10
74.2014606277
 20
189.1987603773
 11
74.05562729
 21
189.0498242248
  0
LINE
  8
0
 62
7
  6
CONTINUOUS
 10
72.4332315231
 20
186.8487603773
 11
72.2873981985
 21
186.6998242248
  0
LINE
  8
0
 62
7
  6
CONTINUOUS
 10
74.274377277
 20
188.9753561486
 11
74.3837523031
 21
189.0498242248
  0
LINE
  8
0
 62
7
  6
CONTINUOUS
 10
72.5061481985
 20
186.6253561486
 11
72.6155231985
 21
186.6998242248
  0
LINE
  8
0
 62
7
  6
CONTINUOUS
 10
74.3472939524
 20
189.2732284535
 11
74.2014606277
 21
189.1987603773
  0
LINE
  8
0
 62
7
  6
CONTINUOUS
 10
74.3837523031
 20
189.0498242248
 11
74.4931273031
 21
189.0870582629
  0
LINE
  8
0
 62
7
  6
CONTINUOUS
 10
77.9202107581
 20
188.565781625
 11
78.0660439524
 21
188.6030156631
  0
LINE
  8
0
 62
7
  6
CONTINUOUS
 10
74.8577106538
 20
187.8211007845
 11
74.7118773031
 21
187.7838667464
  0
LINE
  8
0
 62
7
  6
CONTINUOUS
 10
76.4618773552
 20
188.7519518156
 11
76.3160439524
 21
188.7147177775
  0
LINE
  8
0
 62
7
  6
CONTINUOUS
 10
74.7118773031
 20
187.5604624916
 11
74.8941689524
 21
187.597696533
  0
LINE
  8
0
 62
7
  6
CONTINUOUS
 10
78.1025021466
 20
188.7519518156
 11
77.8837521466
 21
188.7147177775
  0
LINE
  8
0
 62
7
  6
CONTINUOUS
 10
78.6493771466
 20
187.9328029249
 11
78.4670857581
 21
187.9328029249
  0
LINE
  8
0
 62
7
  6
CONTINUOUS
 10
74.1285439524
 20
188.0445050393
 11
73.9097939524
 21
188.0445050393
  0
LINE
  8
0
 62
7
  6
CONTINUOUS
 10
77.6650021466
 20
188.1562071536
 11
78.6493771466
 21
188.1562071536
  0
LINE
  8
0
 62
7
  6
CONTINUOUS
 10
78.4670857581
 20
188.3051433582
 11
77.7014607581
 21
188.3051433582
  0
LINE
  8
0
 62
7
  6
CONTINUOUS
 10
74.4931273031
 20
188.3423773963
 11
74.7118773031
 21
188.3423773963
  0
LINE
  8
0
 62
7
  6
CONTINUOUS
 10
74.7118773031
 20
188.565781625
 11
74.4931273031
 21
188.565781625
  0
LINE
  8
0
 62
7
  6
CONTINUOUS
 10
76.4618773552
 20
188.565781625
 11
76.6806273552
 21
188.565781625
  0
LINE
  8
0
 62
7
  6
CONTINUOUS
 10
76.6806273552
 20
188.7519518156
 11
76.4618773552
 21
188.7519518156
  0
LINE
  8
0
 62
7
  6
CONTINUOUS
 10
75.7327105495
 20
188.7519518156
 11
75.5504189524
 21
188.7519518156
  0
LINE
  8
0
 62
7
  6
CONTINUOUS
 10
74.9306272509
 20
188.9008880724
 11
75.1493772509
 21
188.9008880724
  0
LINE
  8
0
 62
7
  6
CONTINUOUS
 10
74.4931273031
 20
189.0870582629
 11
74.7118773031
 21
189.0870582629
  0
LINE
  8
0
 62
7
  6
CONTINUOUS
 10
75.5504189524
 20
189.124292301
 11
75.7327105495
 21
189.124292301
  0
LINE
  8
0
 62
7
  6
CONTINUOUS
 10
77.1910439524
 20
189.3104624916
 11
77.0087523552
 21
189.3104624916
  0
LINE
  8
0
 62
7
  6
CONTINUOUS
 10
75.7327105495
 20
189.3104624916
 11
75.5504189524
 21
189.3104624916
  0
LINE
  8
0
 62
7
  6
CONTINUOUS
 10
74.6754189524
 20
189.3104624916
 11
74.4931273031
 21
189.3104624916
  0
LINE
  8
0
 62
7
  6
CONTINUOUS
 10
77.8837521466
 20
187.597696533
 11
78.1025021466
 21
187.5604624916
  0
LINE
  8
0
 62
7
  6
CONTINUOUS
 10
78.0660439524
 20
188.6030156631
 11
78.2847939524
 21
188.565781625
  0
LINE
  8
0
 62
7
  6
CONTINUOUS
 10
78.3212521466
 20
188.7147177775
 11
78.1025021466
 21
188.7519518156
  0
LINE
  8
0
 62
7
  6
CONTINUOUS
 10
74.8941689524
 20
188.5285475869
 11
74.7118773031
 21
188.565781625
  0
LINE
  8
0
 62
7
  6
CONTINUOUS
 10
74.8577106538
 20
189.2732284535
 11
74.6754189524
 21
189.3104624916
  0
LINE
  8
0
 62
7
  6
CONTINUOUS
 10
76.5347939524
 20
187.7466327083
 11
76.3889605495
 21
187.7838667464
  0
LINE
  8
0
 62
7
  6
CONTINUOUS
 10
74.3472939524
 20
188.3796114344
 11
74.4931273031
 21
188.3423773963
  0
LINE
  8
0
 62
7
  6
CONTINUOUS
 10
74.7118773031
 20
188.3423773963
 11
74.8577106538
 21
188.3051433582
  0
LINE
  8
0
 62
7
  6
CONTINUOUS
 10
78.0660439524
 20
187.7093986571
 11
77.9202107581
 21
187.7466327083
  0
LINE
  8
0
 62
7
  6
CONTINUOUS
 10
76.6806273552
 20
188.565781625
 11
76.8264605495
 21
188.5285475869
  0
LINE
  8
0
 62
7
  6
CONTINUOUS
 10
76.8264605495
 20
188.7147177775
 11
76.6806273552
 21
188.7519518156
  0
LINE
  8
0
 62
7
  6
CONTINUOUS
 10
74.4931273031
 20
188.565781625
 11
74.3837523031
 21
188.6030156631
  0
LINE
  8
0
 62
7
  6
CONTINUOUS
 10
77.7743771466
 20
187.6349305744
 11
77.8837521466
 21
187.597696533
  0
LINE
  8
0
 62
7
  6
CONTINUOUS
 10
74.7118773031
 20
189.0870582629
 11
74.8212522509
 21
189.0498242248
  0
LINE
  8
0
 62
7
  6
CONTINUOUS
 10
75.0400022509
 20
188.4540795107
 11
74.8941689524
 21
188.5285475869
  0
LINE
  8
0
 62
7
  6
CONTINUOUS
 10
80.08948181
 20
186.215781625
 11
80.1623981985
 21
186.1785475869
  0
LINE
  8
0
 62
7
  6
CONTINUOUS
 10
77.9202107581
 20
187.7466327083
 11
77.8472939524
 21
187.7838667464
  0
LINE
  8
0
 62
7
  6
CONTINUOUS
 10
76.8993773552
 20
188.6774837394
 11
76.8264605495
 21
188.7147177775
  0
LINE
  8
0
 62
7
  6
CONTINUOUS
 10
76.2066689524
 20
187.672164619
 11
76.3160439524
 21
187.597696533
  0
LINE
  8
0
 62
7
  6
CONTINUOUS
 10
78.5582313927
 20
186.1785475869
 11
78.6676063927
 21
186.1040795107
  0
LINE
  8
0
 62
7
  6
CONTINUOUS
 10
76.3889605495
 20
187.7838667464
 11
76.2795855495
 21
187.8583348226
  0
LINE
  8
0
 62
7
  6
CONTINUOUS
 10
79.54260681
 20
185.9551433582
 11
79.43323181
 21
186.0296114344
  0
LINE
  8
0
 62
7
  6
CONTINUOUS
 10
80.0530231985
 20
185.6572710011
 11
80.1623981985
 21
185.5828029249
  0
LINE
  8
0
 62
7
  6
CONTINUOUS
 10
77.6650021466
 20
187.7093986571
 11
77.7743771466
 21
187.6349305744
  0
LINE
  8
0
 62
7
  6
CONTINUOUS
 10
76.8264605495
 20
188.5285475869
 11
76.9358355495
 21
188.4540795107
  0
LINE
  8
0
 62
7
  6
CONTINUOUS
 10
80.30823181
 20
186.2530156631
 11
80.19885681
 21
186.3274837394
  0
LINE
  8
0
 62
7
  6
CONTINUOUS
 10
75.0035439524
 20
189.1615263392
 11
74.8577106538
 21
189.2732284535
  0
LINE
  8
0
 62
7
  6
CONTINUOUS
 10
79.2873981985
 20
185.9551433582
 11
79.43323181
 21
185.8434411917
  0
LINE
  8
0
 62
7
  6
CONTINUOUS
 10
80.30823181
 20
185.6572710011
 11
80.1623981985
 21
185.7689731155
  0
LINE
  8
0
 62
7
  6
CONTINUOUS
 10
75.1858356538
 20
188.3051433582
 11
75.0400022509
 21
188.4540795107
  0
LINE
  8
0
 62
7
  6
CONTINUOUS
 10
74.8212522509
 20
189.0498242248
 11
74.8941689524
 21
188.9753561486
  0
LINE
  8
0
 62
7
  6
CONTINUOUS
 10
76.0972939524
 20
187.7838667464
 11
76.2066689524
 21
187.672164619
  0
LINE
  8
0
 62
7
  6
CONTINUOUS
 10
78.7040650042
 20
186.2530156631
 11
78.6311481985
 21
186.3274837394
  0
LINE
  8
0
 62
7
  6
CONTINUOUS
 10
77.5920857581
 20
187.7838667464
 11
77.6650021466
 21
187.7093986571
  0
LINE
  8
0
 62
7
  6
CONTINUOUS
 10
76.9722939524
 20
188.6030156631
 11
76.8993773552
 21
188.6774837394
  0
LINE
  8
0
 62
7
  6
CONTINUOUS
 10
77.8472939524
 20
187.7838667464
 11
77.7379189524
 21
187.8955688868
  0
LINE
  8
0
 62
7
  6
CONTINUOUS
 10
75.1129189524
 20
189.0125901867
 11
75.0035439524
 21
189.1615263392
  0
LINE
  8
0
 62
7
  6
CONTINUOUS
 10
76.9358355495
 20
188.4540795107
 11
77.0087523552
 21
188.3423773963
  0
LINE
  8
0
 62
7
  6
CONTINUOUS
 10
78.6676063927
 20
186.1040795107
 11
78.7405231985
 21
185.9923773963
  0
LINE
  8
0
 62
7
  6
CONTINUOUS
 10
76.2248981985
 20
186.1785475869
 11
76.2613563927
 21
186.1040795107
  0
LINE
  8
0
 62
7
  6
CONTINUOUS
 10
75.2587522509
 20
188.1562071536
 11
75.1858356538
 21
188.3051433582
  0
LINE
  8
0
 62
7
  6
CONTINUOUS
 10
74.8941689524
 20
188.9753561486
 11
74.9306272509
 21
188.9008880724
  0
LINE
  8
0
 62
7
  6
CONTINUOUS
 10
77.9748981985
 20
183.7913135488
 11
77.9384400042
 21
183.865781625
  0
LINE
  8
0
 62
7
  6
CONTINUOUS
 10
76.0608355495
 20
187.8583348226
 11
76.0972939524
 21
187.7838667464
  0
LINE
  8
0
 62
7
  6
CONTINUOUS
 10
78.5946900042
 20
183.1583348226
 11
78.6676063927
 21
183.0093986571
  0
LINE
  8
0
 62
7
  6
CONTINUOUS
 10
77.7926063927
 20
185.5083348226
 11
77.8290650042
 21
185.4338667464
  0
LINE
  8
0
 62
7
  6
CONTINUOUS
 10
76.2795855495
 20
187.8583348226
 11
76.2066689524
 21
188.0445050393
  0
LINE
  8
0
 62
7
  6
CONTINUOUS
 10
78.0113563927
 20
185.5083348226
 11
77.9384400042
 21
185.6945050393
  0
LINE
  8
0
 62
7
  6
CONTINUOUS
 10
76.2613563927
 20
185.3966327083
 11
76.2978150042
 21
185.2849305744
  0
LINE
  8
0
 62
7
  6
CONTINUOUS
 10
75.1493772509
 20
188.9008880724
 11
75.1129189524
 21
189.0125901867
  0
LINE
  8
0
 62
7
  6
CONTINUOUS
 10
76.5165650042
 20
185.2104624916
 11
76.4801063927
 21
185.322164619
  0
LINE
  8
0
 62
7
  6
CONTINUOUS
 10
76.4436481985
 20
186.1040795107
 11
76.4071900042
 21
186.215781625
  0
LINE
  8
0
 62
7
  6
CONTINUOUS
 10
76.0243773552
 20
188.0072710011
 11
76.0608355495
 21
187.8583348226
  0
LINE
  8
0
 62
7
  6
CONTINUOUS
 10
77.7926063927
 20
183.7540795107
 11
77.8290650042
 21
183.6051433582
  0
LINE
  8
0
 62
7
  6
CONTINUOUS
 10
76.4801063927
 20
185.322164619
 11
76.4436481985
 21
185.5083348226
  0
LINE
  8
0
 62
7
  6
CONTINUOUS
 10
76.6988566014
 20
182.7859944089
 11
76.6988566014
 21
184.0519518156
  0
LINE
  8
0
 62
7
  6
CONTINUOUS
 10
76.8082313927
 20
186.4019518156
 11
76.8082313927
 21
185.2104624916
  0
LINE
  8
0
 62
7
  6
CONTINUOUS
 10
76.9905231985
 20
184.6104624916
 11
76.9905231985
 21
182.8604624916
  0
LINE
  8
0
 62
7
  6
CONTINUOUS
 10
76.9905231985
 20
185.2104624916
 11
76.9905231985
 21
185.9551433582
  0
LINE
  8
0
 62
7
  6
CONTINUOUS
 10
76.9905231985
 20
186.1785475869
 11
76.9905231985
 21
186.4019518156
  0
LINE
  8
0
 62
7
  6
CONTINUOUS
 10
77.0087523552
 20
189.3104624916
 11
77.0087523552
 21
188.5285475869
  0
LINE
  8
0
 62
7
  6
CONTINUOUS
 10
77.0087523552
 20
188.3423773963
 11
77.0087523552
 21
187.970036963
  0
LINE
  8
0
 62
7
  6
CONTINUOUS
 10
77.0087523552
 20
187.7838667464
 11
77.0087523552
 21
187.5604624916
  0
LINE
  8
0
 62
7
  6
CONTINUOUS
 10
77.1728150042
 20
182.8604624916
 11
77.1728150042
 21
183.7168454726
  0
LINE
  8
0
 62
7
  6
CONTINUOUS
 10
77.1728150042
 20
183.865781625
 11
77.1728150042
 21
184.6104624916
  0
LINE
  8
0
 62
7
  6
CONTINUOUS
 10
77.1910439524
 20
187.5604624916
 11
77.1910439524
 21
189.3104624916
  0
LINE
  8
0
 62
7
  6
CONTINUOUS
 10
77.4644813927
 20
186.215781625
 11
77.4644813927
 21
186.4019518156
  0
LINE
  8
0
 62
7
  6
CONTINUOUS
 10
77.6650021466
 20
188.0817390774
 11
77.6650021466
 21
188.1562071536
  0
LINE
  8
0
 62
7
  6
CONTINUOUS
 10
77.7014607581
 20
188.3051433582
 11
77.7014607581
 21
188.3423773963
  0
LINE
  8
0
 62
7
  6
CONTINUOUS
 10
77.7561481985
 20
185.9551433582
 11
77.7561481985
 21
185.6572710011
  0
LINE
  8
0
 62
7
  6
CONTINUOUS
 10
77.8290650042
 20
183.6051433582
 11
77.8290650042
 21
182.8604624916
  0
LINE
  8
0
 62
7
  6
CONTINUOUS
 10
77.9384400042
 20
185.6945050393
 11
77.9384400042
 21
185.9179093201
  0
LINE
  8
0
 62
7
  6
CONTINUOUS
 10
78.0113563927
 20
182.8604624916
 11
78.0113563927
 21
183.6051433582
  0
LINE
  8
0
 62
7
  6
CONTINUOUS
 10
78.3030231985
 20
184.0519518156
 11
78.3030231985
 21
183.9030156631
  0
LINE
  8
0
 62
7
  6
CONTINUOUS
 10
77.5191689524
 20
188.3796114344
 11
77.4827107581
 21
188.1562071536
  0
LINE
  8
0
 62
7
  6
CONTINUOUS
 10
75.5686481985
 20
183.7540795107
 11
75.5321897956
 21
183.6051433582
  0
LINE
  8
0
 62
7
  6
CONTINUOUS
 10
76.5165647956
 20
182.7859944089
 11
76.4801066014
 21
182.6370582369
  0
LINE
  8
0
 62
7
  6
CONTINUOUS
 10
76.2066689524
 20
188.2679093201
 11
76.2431273552
 21
188.3796114344
  0
LINE
  8
0
 62
7
  6
CONTINUOUS
 10
75.5321897956
 20
185.5828029249
 11
75.5686481985
 21
185.6945050393
  0
LINE
  8
0
 62
7
  6
CONTINUOUS
 10
75.7144816014
 20
183.5679093201
 11
75.7509397956
 21
183.6796114344
  0
LINE
  8
0
 62
7
  6
CONTINUOUS
 10
75.3863566014
 20
186.2530156631
 11
75.3498981985
 21
186.1785475869
  0
LINE
  8
0
 62
7
  6
CONTINUOUS
 10
75.5321897956
 20
186.1040795107
 11
75.5686481985
 21
186.1785475869
  0
LINE
  8
0
 62
7
  6
CONTINUOUS
 10
75.4228147956
 20
185.8062071536
 11
75.3498981985
 21
185.6572710011
  0
LINE
  8
0
 62
7
  6
CONTINUOUS
 10
76.9722939524
 20
187.7093986571
 11
77.0087523552
 21
187.7838667464
  0
LINE
  8
0
 62
7
  6
CONTINUOUS
 10
77.5920857581
 20
188.5285475869
 11
77.5191689524
 21
188.3796114344
  0
LINE
  8
0
 62
7
  6
CONTINUOUS
 10
76.2613563927
 20
185.620036963
 11
76.2248981985
 21
185.5455688868
  0
LINE
  8
0
 62
7
  6
CONTINUOUS
 10
77.7014607581
 20
188.3423773963
 11
77.7379189524
 21
188.4168454726
  0
LINE
  8
0
 62
7
  6
CONTINUOUS
 10
76.2248981985
 20
185.322164619
 11
76.2613563927
 21
185.3966327083
  0
LINE
  8
0
 62
7
  6
CONTINUOUS
 10
75.6051066014
 20
183.8285475869
 11
75.5686481985
 21
183.7540795107
  0
LINE
  8
0
 62
7
  6
CONTINUOUS
 10
76.2431273552
 20
188.3796114344
 11
76.3160439524
 21
188.4913135488
  0
LINE
  8
0
 62
7
  6
CONTINUOUS
 10
74.8030231985
 20
185.5828029249
 11
74.7301066014
 21
185.4711007845
  0
LINE
  8
0
 62
7
  6
CONTINUOUS
 10
77.0087523552
 20
187.970036963
 11
76.9358355495
 21
187.8583348226
  0
LINE
  8
0
 62
7
  6
CONTINUOUS
 10
74.5842731985
 20
183.7913135488
 11
74.6936481985
 21
183.9402497013
  0
LINE
  8
0
 62
7
  6
CONTINUOUS
 10
75.0400022509
 20
187.672164619
 11
75.1858356538
 21
187.8211007845
  0
LINE
  8
0
 62
7
  6
CONTINUOUS
 10
76.2066689524
 20
188.6402497013
 11
76.0972939524
 21
188.5285475869
  0
LINE
  8
0
 62
7
  6
CONTINUOUS
 10
73.4176064971
 20
185.322164619
 11
73.5634398999
 21
185.4711007845
  0
LINE
  8
0
 62
7
  6
CONTINUOUS
 10
77.6650021466
 20
188.6030156631
 11
77.5920857581
 21
188.5285475869
  0
LINE
  8
0
 62
7
  6
CONTINUOUS
 10
75.4592731985
 20
186.3274837394
 11
75.3863566014
 21
186.2530156631
  0
LINE
  8
0
 62
7
  6
CONTINUOUS
 10
76.8993773552
 20
187.6349305744
 11
76.9722939524
 21
187.7093986571
  0
LINE
  8
0
 62
7
  6
CONTINUOUS
 10
77.7379189524
 20
188.4168454726
 11
77.8472939524
 21
188.5285475869
  0
LINE
  8
0
 62
7
  6
CONTINUOUS
 10
74.6936481985
 20
185.2849305744
 11
74.8030231985
 21
185.3966327083
  0
LINE
  8
0
 62
7
  6
CONTINUOUS
 10
75.4957316014
 20
185.880675282
 11
75.4228147956
 21
185.8062071536
  0
LINE
  8
0
 62
7
  6
CONTINUOUS
 10
74.9670856538
 20
187.8955688868
 11
74.8577106538
 21
187.8211007845
  0
LINE
  8
0
 62
7
  6
CONTINUOUS
 10
76.3160439524
 20
188.7147177775
 11
76.2066689524
 21
188.6402497013
  0
LINE
  8
0
 62
7
  6
CONTINUOUS
 10
77.7743771466
 20
188.6774837394
 11
77.6650021466
 21
188.6030156631
  0
LINE
  8
0
 62
7
  6
CONTINUOUS
 10
73.3446898999
 20
185.5455688868
 11
73.2353148999
 21
185.4711007845
  0
LINE
  8
0
 62
7
  6
CONTINUOUS
 10
76.9358355495
 20
187.8583348226
 11
76.8264605495
 21
187.7838667464
  0
LINE
  8
0
 62
7
  6
CONTINUOUS
 10
72.5790648739
 20
186.9232284535
 11
72.4332315231
 21
186.8487603773
  0
LINE
  8
0
 62
7
  6
CONTINUOUS
 10
76.3160439524
 20
188.4913135488
 11
76.4618773552
 21
188.565781625
  0
LINE
  8
0
 62
7
  6
CONTINUOUS
 10
74.8941689524
 20
187.597696533
 11
75.0400022509
 21
187.672164619
  0
LINE
  8
0
 62
7
  6
CONTINUOUS
 10
77.8472939524
 20
188.5285475869
 11
77.9202107581
 21
188.565781625
  0
LINE
  8
0
 62
7
  6
CONTINUOUS
 10
76.8264605495
 20
187.597696533
 11
76.8993773552
 21
187.6349305744
  0
LINE
  8
0
 62
7
  6
CONTINUOUS
 10
77.8837521466
 20
188.7147177775
 11
77.7743771466
 21
188.6774837394
  0
LINE
  8
0
 62
7
  6
CONTINUOUS
 10
74.4931273031
 20
189.3104624916
 11
74.3472939524
 21
189.2732284535
  0
LINE
  8
0
 62
7
  6
CONTINUOUS
 10
78.5035439524
 20
188.6030156631
 11
78.3212521466
 21
188.7147177775
  0
LINE
  8
0
 62
7
  6
CONTINUOUS
 10
78.2847939524
 20
188.565781625
 11
78.3941689524
 21
188.4913135488
  0
LINE
  8
0
 62
7
  6
CONTINUOUS
 10
78.6129189524
 20
188.4540795107
 11
78.5035439524
 21
188.6030156631
  0
LINE
  8
0
 62
7
  6
CONTINUOUS
 10
78.3941689524
 20
188.4913135488
 11
78.4670857581
 21
188.3796114344
  0
LINE
  8
0
 62
7
  6
CONTINUOUS
 10
77.0087523552
 20
188.5285475869
 11
76.9722939524
 21
188.6030156631
  0
LINE
  8
0
 62
7
  6
CONTINUOUS
 10
77.5191689524
 20
187.9328029249
 11
77.5920857581
 21
187.7838667464
  0
LINE
  8
0
 62
7
  6
CONTINUOUS
 10
77.7379189524
 20
187.8955688868
 11
77.7014607581
 21
187.970036963
  0
LINE
  8
0
 62
7
  6
CONTINUOUS
 10
78.7405231985
 20
186.1785475869
 11
78.7040650042
 21
186.2530156631
  0
LINE
  8
0
 62
7
  6
CONTINUOUS
 10
79.21448181
 20
185.5083348226
 11
79.2873981985
 21
185.3593986571
  0
LINE
  8
0
 62
7
  6
CONTINUOUS
 10
79.43323181
 20
185.4338667464
 11
79.3967731985
 21
185.5083348226
  0
LINE
  8
0
 62
7
  6
CONTINUOUS
 10
79.21448181
 20
186.1040795107
 11
79.2873981985
 21
185.9551433582
  0
LINE
  8
0
 62
7
  6
CONTINUOUS
 10
79.43323181
 20
186.0296114344
 11
79.3967731985
 21
186.1040795107
  0
LINE
  8
0
 62
7
  6
CONTINUOUS
 10
80.1623981985
 20
185.5828029249
 11
80.19885681
 21
185.5083348226
  0
LINE
  8
0
 62
7
  6
CONTINUOUS
 10
80.3811481985
 20
185.5083348226
 11
80.30823181
 21
185.6572710011
  0
LINE
  8
0
 62
7
  6
CONTINUOUS
 10
80.1623981985
 20
186.1785475869
 11
80.19885681
 21
186.1040795107
  0
LINE
  8
0
 62
7
  6
CONTINUOUS
 10
78.8134400042
 20
183.1211007845
 11
78.7769813927
 21
183.2328029249
  0
LINE
  8
0
 62
7
  6
CONTINUOUS
 10
77.7014607581
 20
187.970036963
 11
77.6650021466
 21
188.0817390774
  0
LINE
  8
0
 62
7
  6
CONTINUOUS
 10
77.7561481985
 20
185.6572710011
 11
77.7926063927
 21
185.5083348226
  0
LINE
  8
0
 62
7
  6
CONTINUOUS
 10
78.6493771466
 20
188.3051433582
 11
78.6129189524
 21
188.4540795107
  0
LINE
  8
0
 62
7
  6
CONTINUOUS
 10
78.0113563927
 20
183.6051433582
 11
77.9748981985
 21
183.7913135488
  0
LINE
  8
0
 62
7
  6
CONTINUOUS
 10
77.4827107581
 20
188.1562071536
 11
77.5191689524
 21
187.9328029249
  0
LINE
  8
0
 62
7
  6
CONTINUOUS
 10
78.4670857581
 20
188.3796114344
 11
78.4670857581
 21
188.3051433582
  0
LINE
  8
0
 62
7
  6
CONTINUOUS
 10
78.5946900042
 20
184.3498242248
 11
78.5946900042
 21
184.0519518156
  0
LINE
  8
0
 62
7
  6
CONTINUOUS
 10
78.5946900042
 20
183.9030156631
 11
78.5946900042
 21
183.1583348226
  0
LINE
  8
0
 62
7
  6
CONTINUOUS
 10
78.6493771466
 20
188.1562071536
 11
78.6493771466
 21
188.3051433582
  0
LINE
  8
0
 62
7
  6
CONTINUOUS
 10
78.7405231985
 20
186.9604624916
 11
78.7405231985
 21
186.1785475869
  0
LINE
  8
0
 62
7
  6
CONTINUOUS
 10
78.7405231985
 20
185.9923773963
 11
78.7405231985
 21
185.620036963
  0
LINE
  8
0
 62
7
  6
CONTINUOUS
 10
78.7405231985
 20
185.4338667464
 11
78.7405231985
 21
185.2104624916
  0
LINE
  8
0
 62
7
  6
CONTINUOUS
 10
78.7769813927
 20
183.2328029249
 11
78.7769813927
 21
183.9030156631
  0
LINE
  8
0
 62
7
  6
CONTINUOUS
 10
78.7769813927
 20
184.0519518156
 11
78.7769813927
 21
184.3498242248
  0
LINE
  8
0
 62
7
  6
CONTINUOUS
 10
78.9228150042
 20
185.2104624916
 11
78.9228150042
 21
186.9604624916
  0
LINE
  8
0
 62
7
  6
CONTINUOUS
 10
79.1051063927
 20
182.8604624916
 11
79.1051063927
 21
183.0093986571
  0
LINE
  8
0
 62
7
  6
CONTINUOUS
 10
79.1780231985
 20
183.9030156631
 11
79.1780231985
 21
184.0519518156
  0
LINE
  8
0
 62
7
  6
CONTINUOUS
 10
79.21448181
 20
186.1785475869
 11
79.21448181
 21
186.1040795107
  0
LINE
  8
0
 62
7
  6
CONTINUOUS
 10
77.7926063927
 20
186.1040795107
 11
77.7561481985
 21
185.9551433582
  0
LINE
  8
0
 62
7
  6
CONTINUOUS
 10
78.6129189524
 20
187.7838667464
 11
78.6493771466
 21
187.9328029249
  0
LINE
  8
0
 62
7
  6
CONTINUOUS
 10
76.6259397956
 20
182.5253560964
 11
76.6988566014
 21
182.7859944089
  0
LINE
  8
0
 62
7
  6
CONTINUOUS
 10
78.4670857581
 20
187.9328029249
 11
78.4306271466
 21
187.8211007845
  0
LINE
  8
0
 62
7
  6
CONTINUOUS
 10
77.9384400042
 20
185.9179093201
 11
77.9748981985
 21
186.0296114344
  0
LINE
  8
0
 62
7
  6
CONTINUOUS
 10
77.8290650042
 20
186.1785475869
 11
77.7926063927
 21
186.1040795107
  0
LINE
  8
0
 62
7
  6
CONTINUOUS
 10
76.4801066014
 20
183.0093986571
 11
76.5165647956
 21
183.0838667464
  0
LINE
  8
0
 62
7
  6
CONTINUOUS
 10
76.4801066014
 20
182.6370582369
 11
76.4436481985
 21
182.5625901606
  0
LINE
  8
0
 62
7
  6
CONTINUOUS
 10
75.7509397956
 20
183.6796114344
 11
75.8238566014
 21
183.7913135488
  0
LINE
  8
0
 62
7
  6
CONTINUOUS
 10
77.9748981985
 20
186.0296114344
 11
78.0478150042
 21
186.1413135488
  0
LINE
  8
0
 62
7
  6
CONTINUOUS
 10
76.5165647956
 20
183.270036963
 11
76.4436481985
 21
183.1583348226
  0
LINE
  8
0
 62
7
  6
CONTINUOUS
 10
76.9905231985
 20
185.9551433582
 11
77.0998981985
 21
186.1040795107
  0
LINE
  8
0
 62
7
  6
CONTINUOUS
 10
75.5686481985
 20
185.6945050393
 11
75.6415647956
 21
185.7689731155
  0
LINE
  8
0
 62
7
  6
CONTINUOUS
 10
74.4748981985
 20
183.9774837394
 11
74.4019814971
 21
183.9030156631
  0
LINE
  8
0
 62
7
  6
CONTINUOUS
 10
76.2248981985
 20
185.5455688868
 11
76.1155231985
 21
185.4338667464
  0
LINE
  8
0
 62
7
  6
CONTINUOUS
 10
77.0634400042
 20
186.2530156631
 11
76.9905231985
 21
186.1785475869
  0
LINE
  8
0
 62
7
  6
CONTINUOUS
 10
78.5035439524
 20
187.672164619
 11
78.6129189524
 21
187.7838667464
  0
LINE
  8
0
 62
7
  6
CONTINUOUS
 10
77.9384400042
 20
186.2902497013
 11
77.8290650042
 21
186.1785475869
  0
LINE
  8
0
 62
7
  6
CONTINUOUS
 10
75.7144816014
 20
183.9402497013
 11
75.6051066014
 21
183.8285475869
  0
LINE
  8
0
 62
7
  6
CONTINUOUS
 10
74.7301066014
 20
185.4711007845
 11
74.6207316014
 21
185.3966327083
  0
LINE
  8
0
 62
7
  6
CONTINUOUS
 10
78.4306271466
 20
187.8211007845
 11
78.3212521466
 21
187.7466327083
  0
LINE
  8
0
 62
7
  6
CONTINUOUS
 10
77.1728150042
 20
186.3274837394
 11
77.0634400042
 21
186.2530156631
  0
LINE
  8
0
 62
7
  6
CONTINUOUS
 10
76.1155231985
 20
185.247696533
 11
76.2248981985
 21
185.322164619
  0
LINE
  8
0
 62
7
  6
CONTINUOUS
 10
78.0478150042
 20
186.3647177775
 11
77.9384400042
 21
186.2902497013
  0
LINE
  8
0
 62
7
  6
CONTINUOUS
 10
73.2717731985
 20
185.247696533
 11
73.4176064971
 21
185.322164619
  0
LINE
  8
0
 62
7
  6
CONTINUOUS
 10
75.5321897956
 20
186.3647177775
 11
75.4592731985
 21
186.3274837394
  0
LINE
  8
0
 62
7
  6
CONTINUOUS
 10
75.5686481985
 20
186.1785475869
 11
75.6415647956
 21
186.215781625
  0
LINE
  8
0
 62
7
  6
CONTINUOUS
 10
78.3577107581
 20
187.597696533
 11
78.5035439524
 21
187.672164619
  0
LINE
  8
0
 62
7
  6
CONTINUOUS
 10
75.6415647956
 20
185.9551433582
 11
75.4957316014
 21
185.880675282
  0
LINE
  8
0
 62
7
  6
CONTINUOUS
 10
74.6207316014
 20
185.247696533
 11
74.6936481985
 21
185.2849305744
  0
LINE
  8
0
 62
7
  6
CONTINUOUS
 10
75.6415647956
 20
185.7689731155
 11
75.7144813927
 21
185.8062071536
  0
LINE
  8
0
 62
7
  6
CONTINUOUS
 10
77.0998981985
 20
186.1040795107
 11
77.2457313927
 21
186.1785475869
  0
LINE
  8
0
 62
7
  6
CONTINUOUS
 10
78.0478150042
 20
186.1413135488
 11
78.1936481985
 21
186.215781625
  0
LINE
  8
0
 62
7
  6
CONTINUOUS
 10
76.1155231985
 20
185.4338667464
 11
75.9332313927
 21
185.3593986571
  0
LINE
  8
0
 62
7
  6
CONTINUOUS
 10
77.2821900042
 20
186.3647177775
 11
77.1728150042
 21
186.3274837394
  0
LINE
  8
0
 62
7
  6
CONTINUOUS
 10
80.3811481985
 20
186.1040795107
 11
80.30823181
 21
186.2530156631
  0
LINE
  8
0
 62
7
  6
CONTINUOUS
 10
80.3811481985
 20
185.4338667464
 11
80.3811481985
 21
185.5083348226
  0
LINE
  8
0
 62
7
  6
CONTINUOUS
 10
81.8045856985
 20
171.9009303919
 11
81.8045856985
 21
175.3199945913
  0
LINE
  8
0
 62
7
  6
CONTINUOUS
 10
78.7040650042
 20
185.3593986571
 11
78.7405231985
 21
185.4338667464
  0
LINE
  8
0
 62
7
  6
CONTINUOUS
 10
79.3967731985
 20
186.1040795107
 11
79.43323181
 21
186.1785475869
  0
LINE
  8
0
 62
7
  6
CONTINUOUS
 10
80.19885681
 20
185.5083348226
 11
80.1623981985
 21
185.4338667464
  0
LINE
  8
0
 62
7
  6
CONTINUOUS
 10
76.5530231985
 20
182.4136539821
 11
76.6259397956
 21
182.5253560964
  0
LINE
  8
0
 62
7
  6
CONTINUOUS
 10
78.7405231985
 20
185.620036963
 11
78.6676063927
 21
185.5083348226
  0
LINE
  8
0
 62
7
  6
CONTINUOUS
 10
79.2873981985
 20
186.2902497013
 11
79.21448181
 21
186.1785475869
  0
LINE
  8
0
 62
7
  6
CONTINUOUS
 10
80.30823181
 20
185.322164619
 11
80.3811481985
 21
185.4338667464
  0
LINE
  8
0
 62
7
  6
CONTINUOUS
 10
77.2457313927
 20
183.9402497013
 11
77.1728150042
 21
183.865781625
  0
LINE
  8
0
 62
7
  6
CONTINUOUS
 10
78.6311481985
 20
185.2849305744
 11
78.7040650042
 21
185.3593986571
  0
LINE
  8
0
 62
7
  6
CONTINUOUS
 10
77.1728150042
 20
183.7168454726
 11
77.2457313927
 21
183.7913135488
  0
LINE
  8
0
 62
7
  6
CONTINUOUS
 10
76.4071897956
 20
182.9349305744
 11
76.4801066014
 21
183.0093986571
  0
LINE
  8
0
 62
7
  6
CONTINUOUS
 10
76.4436481985
 20
182.5625901606
 11
76.3342731985
 21
182.4508880202
  0
LINE
  8
0
 62
7
  6
CONTINUOUS
 10
75.8238566014
 20
184.0147177775
 11
75.7144816014
 21
183.9402497013
  0
LINE
  8
0
 62
7
  6
CONTINUOUS
 10
78.6676063927
 20
185.5083348226
 11
78.5582313927
 21
185.4338667464
  0
LINE
  8
0
 62
7
  6
CONTINUOUS
 10
77.3551063927
 20
184.0147177775
 11
77.2457313927
 21
183.9402497013
  0
LINE
  8
0
 62
7
  6
CONTINUOUS
 10
77.2457313927
 20
183.7913135488
 11
77.3551063927
 21
183.865781625
  0
LINE
  8
0
 62
7
  6
CONTINUOUS
 10
76.4436481985
 20
183.1583348226
 11
76.3342731985
 21
183.0838667464
  0
LINE
  8
0
 62
7
  6
CONTINUOUS
 10
79.43323181
 20
186.3647177775
 11
79.2873981985
 21
186.2902497013
  0
LINE
  8
0
 62
7
  6
CONTINUOUS
 10
74.4384398999
 20
183.7168454726
 11
74.5842731985
 21
183.7913135488
  0
LINE
  8
0
 62
7
  6
CONTINUOUS
 10
79.43323181
 20
186.1785475869
 11
79.5061481985
 21
186.215781625
  0
LINE
  8
0
 62
7
  6
CONTINUOUS
 10
78.5582313927
 20
185.247696533
 11
78.6311481985
 21
185.2849305744
  0
LINE
  8
0
 62
7
  6
CONTINUOUS
 10
75.8238566014
 20
183.7913135488
 11
75.9696897956
 21
183.865781625
  0
LINE
  8
0
 62
7
  6
CONTINUOUS
 10
80.1623981985
 20
185.4338667464
 11
80.08948181
 21
185.3966327083
  0
LINE
  8
0
 62
7
  6
CONTINUOUS
 10
80.1623981985
 20
185.247696533
 11
80.30823181
 21
185.322164619
  0
LINE
  8
0
 62
7
  6
CONTINUOUS
 10
74.4019814971
 20
183.9030156631
 11
74.2926064971
 21
183.865781625
  0
POLYLINE
  8
0
 62
7
  6
CONTINUOUS
 66
1
 70
0
  0
VERTEX
  8
0
 62
7
  6
CONTINUOUS
 10
82.8380979293
 20
178.0041129276
  0
VERTEX
  8
0
 62
7
  6
CONTINUOUS
 10
82.8557670335
 20
177.9059422194
  0
VERTEX
  8
0
 62
7
  6
CONTINUOUS
 10
82.8527710963
 20
177.8642706472
  0
VERTEX
  8
0
 62
7
  6
CONTINUOUS
 10
82.8309767079
 20
177.7992486688
  0
SEQEND
  0
POLYLINE
  8
0
 62
7
  6
CONTINUOUS
 66
1
 70
0
  0
VERTEX
  8
0
 62
7
  6
CONTINUOUS
 10
82.756074626
 20
178.3050540811
  0
VERTEX
  8
0
 62
7
  6
CONTINUOUS
 10
82.7686097712
 20
178.2200257728
  0
VERTEX
  8
0
 62
7
  6
CONTINUOUS
 10
82.7983233697
 20
178.1205394701
  0
VERTEX
  8
0
 62
7
  6
CONTINUOUS
 10
82.8380986094
 20
178.0041108278
  0
SEQEND
  0
LINE
  8
0
 62
7
  6
CONTINUOUS
 10
82.6795856985
 20
177.2604624916
 11
82.6795856985
 21
176.8325542036
  0
LINE
  8
0
 62
7
  6
CONTINUOUS
 10
82.7560718887
 20
178.3292089387
 11
82.756074626
 21
178.3050540811
  0
LINE
  8
0
 62
7
  6
CONTINUOUS
 10
76.4436481985
 20
182.3391859059
 11
76.5530231985
 21
182.4136539821
  0
LINE
  8
0
 62
7
  6
CONTINUOUS
 10
76.3342731985
 20
182.897696533
 11
76.4071897956
 21
182.9349305744
  0
LINE
  8
0
 62
7
  6
CONTINUOUS
 10
76.3342731985
 20
182.3019518677
 11
76.4436481985
 21
182.3391859059
  0
POLYLINE
  8
0
 62
7
  6
CONTINUOUS
 66
1
 70
0
  0
VERTEX
  8
0
 62
7
  6
CONTINUOUS
 10
82.7560718887
 20
178.3292089387
  0
VERTEX
  8
0
 62
7
  6
CONTINUOUS
 10
82.7636253793
 20
178.3902453859
  0
VERTEX
  8
0
 62
7
  6
CONTINUOUS
 10
82.7731232347
 20
178.4173508336
  0
VERTEX
  8
0
 62
7
  6
CONTINUOUS
 10
82.8019589974
 20
178.4604624916
  0
SEQEND
  0
LINE
  8
DEFAULT_1
 62
2
  6
CENTER
 10
85.8045856985
 20
179.3162541176
 11
85.8045856985
 21
178.1604624916
  0
LINE
  8
0
 62
2
  6
CONTINUOUS
 10
85.8045856985
 20
174.4904624916
 11
85.8045856985
 21
172.7304624916
  0
LINE
  8
DEFAULT_1
 62
2
  6
CENTER
 10
85.8045856985
 20
166.5197265052
 11
85.8045856985
 21
169.0604624916
  0
LINE
  8
0
 62
7
  6
CONTINUOUS
 10
87.4285291822
 20
178.6090290379
 11
94.9495530977
 21
201.7563605254
  0
LINE
  8
0
 62
7
  6
CONTINUOUS
 10
89.2432139999
 20
209.6104624916
 11
63.3159573971
 21
209.6104624916
  0
LINE
  8
0
 62
7
  6
CONTINUOUS
 10
57.3159573971
 20
130.7478989041
 11
57.3159573971
 21
129.4252721318
  0
LINE
  8
0
 62
7
  6
CONTINUOUS
 10
62.4045856985
 20
133.0150449827
 11
62.4045856985
 21
132.1210935651
  0
LINE
  8
0
 62
7
  6
CONTINUOUS
 10
62.4045856985
 20
129.7806266026
 11
62.4045856985
 21
129.3650449827
  0
LINE
  8
DEFAULT_1
 62
2
  6
CENTER
 10
66.7545856985
 20
126.8650449827
 11
66.7545856985
 21
135.5150449827
  0
LINE
  8
0
 62
7
  6
CONTINUOUS
 10
70.7545856985
 20
131.353847785
 11
70.7545856985
 21
129.3650449827
  0
LINE
  8
0
 62
7
  6
CONTINUOUS
 10
70.2545856985
 20
128.8650449827
 11
62.9045856985
 21
128.8650449827
  0
LINE
  8
0
 62
7
  6
CONTINUOUS
 10
94.8357896609
 20
135.8909807396
 11
57.9085707874
 21
128.9335336811
  0
LINE
  8
DEFAULT_1
 62
2
  6
CENTER
 10
76.2795856985
 20
137.9650449827
 11
76.2795856985
 21
135.5651449827
  0
LINE
  8
0
 62
2
  6
CONTINUOUS
 10
76.2795856985
 20
134.4450449827
 11
76.2795856985
 21
132.6850449827
  0
LINE
  8
DEFAULT_1
 62
2
  6
CENTER
 10
76.2795856985
 20
129.1650449827
 11
76.2795856985
 21
131.5649449827
  0
LINE
  8
0
 62
7
  6
CONTINUOUS
 10
69.8030996113
 20
133.5150449827
 11
62.9045865935
 21
133.5150449827
  0
LINE
  8
DEFAULT_1
 62
2
  6
CENTER
 10
102.999939654
 20
133.5650449827
 11
78.2796856985
 21
133.5650449827
  0
LINE
  8
0
 62
2
  6
CONTINUOUS
 10
77.1595856985
 20
133.5650449827
 11
75.3995856985
 21
133.5650449827
  0
LINE
  8
DEFAULT_1
 62
2
  6
CENTER
 10
51.2245154325
 20
133.5650449827
 11
74.2794856985
 21
133.5650449827
  0
LINE
  8
0
 62
7
  6
CONTINUOUS
 10
82.7560717857
 20
133.6150449827
 11
89.6545848091
 21
133.6150449827
  0
LINE
  8
0
 62
7
  6
CONTINUOUS
 10
57.7233816881
 20
131.2391092168
 11
94.6505993606
 21
138.196556049
  0
LINE
  8
0
 62
7
  6
CONTINUOUS
 10
89.6545856985
 20
138.2650449827
 11
82.3045856985
 21
138.2650449827
  0
LINE
  8
0
 62
7
  6
CONTINUOUS
 10
81.8045856985
 20
135.7762421804
 11
81.8045856985
 21
137.7650449827
  0
LINE
  8
DEFAULT_1
 62
2
  6
CENTER
 10
85.8045856985
 20
131.6150449827
 11
85.8045856985
 21
140.2650449827
  0
LINE
  8
0
 62
7
  6
CONTINUOUS
 10
90.1545856985
 20
137.7650449827
 11
90.1545856985
 21
137.3494633628
  0
LINE
  8
0
 62
7
  6
CONTINUOUS
 10
90.1545856985
 20
135.0089964003
 11
90.1545856985
 21
134.1150449827
  0
LINE
  8
0
 62
7
  6
CONTINUOUS
 10
95.2432139999
 20
137.7048137568
 11
95.2432139999
 21
136.382193869
  0
LINE
  8
0
 62
7
  6
CONTINUOUS
 10
138.7843474048
 20
169.2604624916
 11
142.4343474048
 21
169.2604624916
  0
LINE
  8
0
 62
7
  6
CONTINUOUS
 10
143.5343474048
 20
169.2604624916
 11
147.1843474048
 21
169.2604624916
  0
POLYLINE
  8
0
 62
7
  6
CONTINUOUS
 66
1
 70
0
  0
VERTEX
  8
0
 62
7
  6
CONTINUOUS
 10
142.4343474048
 20
171.9009303919
  0
VERTEX
  8
0
 62
7
  6
CONTINUOUS
 10
142.6278741602
 20
171.9089278787
  0
VERTEX
  8
0
 62
7
  6
CONTINUOUS
 10
142.7901900772
 20
171.9316610048
  0
VERTEX
  8
0
 62
7
  6
CONTINUOUS
 10
142.8972205782
 20
171.9658194367
  0
VERTEX
  8
0
 62
7
  6
CONTINUOUS
 10
142.9343474048
 20
172.0065609984
  0
SEQEND
  0
LINE
  8
0
 62
7
  6
CONTINUOUS
 10
138.7843474048
 20
171.9009303919
 11
142.4343474048
 21
171.9009303919
  0
POLYLINE
  8
0
 62
7
  6
CONTINUOUS
 66
1
 70
0
  0
VERTEX
  8
0
 62
7
  6
CONTINUOUS
 10
138.7843474048
 20
171.9009303919
  0
VERTEX
  8
0
 62
7
  6
CONTINUOUS
 10
138.5908206495
 20
171.9089278787
  0
VERTEX
  8
0
 62
7
  6
CONTINUOUS
 10
138.4285047325
 20
171.9316610048
  0
VERTEX
  8
0
 62
7
  6
CONTINUOUS
 10
138.3214742315
 20
171.9658194367
  0
VERTEX
  8
0
 62
7
  6
CONTINUOUS
 10
138.2843474048
 20
172.0065609984
  0
SEQEND
  0
LINE
  8
DEFAULT_1
 62
2
  6
CENTER
 10
136.2843474048
 20
173.6104624916
 11
149.6843474048
 21
173.6104624916
  0
LINE
  8
0
 62
7
  6
CONTINUOUS
 10
142.4343474048
 20
175.3199945913
 11
138.7843474048
 21
175.3199945913
  0
POLYLINE
  8
0
 62
7
  6
CONTINUOUS
 66
1
 70
0
  0
VERTEX
  8
0
 62
7
  6
CONTINUOUS
 10
142.4343474048
 20
175.3199945913
  0
VERTEX
  8
0
 62
7
  6
CONTINUOUS
 10
142.6278741602
 20
175.3119971045
  0
VERTEX
  8
0
 62
7
  6
CONTINUOUS
 10
142.7901900772
 20
175.2892639784
  0
VERTEX
  8
0
 62
7
  6
CONTINUOUS
 10
142.8972205782
 20
175.2551055465
  0
VERTEX
  8
0
 62
7
  6
CONTINUOUS
 10
142.9343474048
 20
175.2143639849
  0
SEQEND
  0
LINE
  8
0
 62
7
  6
CONTINUOUS
 10
138.7843474048
 20
177.9604624916
 11
139.5107261965
 21
177.9604624916
  0
LINE
  8
0
 62
7
  6
CONTINUOUS
 10
146.4577318446
 20
177.9604623456
 11
147.1843474048
 21
177.9604624916
  0
LINE
  8
0
 62
7
  6
CONTINUOUS
 10
142.9486641513
 20
178.2604624916
 11
141.0002202887
 21
178.2604624916
  0
POLYLINE
  8
0
 62
7
  6
CONTINUOUS
 66
1
 70
0
  0
VERTEX
  8
0
 62
7
  6
CONTINUOUS
 10
146.4577435049
 20
177.9604625672
  0
VERTEX
  8
0
 62
7
  6
CONTINUOUS
 10
146.3278893319
 20
177.9881202628
  0
VERTEX
  8
0
 62
7
  6
CONTINUOUS
 10
146.2749508337
 20
178.0217637131
  0
SEQEND
  0
LINE
  8
0
 62
7
  6
CONTINUOUS
 10
143.0343474048
 20
178.0283882615
 11
143.019003307
 21
178.0465141278
  0
LINE
  8
0
 62
7
  6
CONTINUOUS
 10
146.2749508337
 20
178.0217637131
 11
146.275156201
 21
178.0215718174
  0
POLYLINE
  8
0
 62
7
  6
CONTINUOUS
 66
1
 70
0
  0
VERTEX
  8
0
 62
7
  6
CONTINUOUS
 10
146.2751566452
 20
178.0215722922
  0
VERTEX
  8
0
 62
7
  6
CONTINUOUS
 10
146.2525526907
 20
178.0446274343
  0
VERTEX
  8
0
 62
7
  6
CONTINUOUS
 10
146.1908498831
 20
178.1335701574
  0
VERTEX
  8
0
 62
7
  6
CONTINUOUS
 10
146.1640335117
 20
178.1941858397
  0
VERTEX
  8
0
 62
7
  6
CONTINUOUS
 10
146.1349124582
 20
178.3392184409
  0
VERTEX
  8
0
 62
7
  6
CONTINUOUS
 10
146.1352159068
 20
178.396340999
  0
SEQEND
  0
LINE
  8
0
 62
7
  6
CONTINUOUS
 10
138.3493835996
 20
203.0554661445
 11
138.3958361986
 21
201.8803163675
  0
LINE
  8
0
 62
7
  6
CONTINUOUS
 10
138.2843474048
 20
169.7604747325
 11
138.2843474048
 21
177.4604502744
  0
POLYLINE
  8
0
 62
7
  6
CONTINUOUS
 66
1
 70
0
  0
VERTEX
  8
0
 62
7
  6
CONTINUOUS
 10
142.929976422
 20
178.3045093934
  0
VERTEX
  8
0
 62
7
  6
CONTINUOUS
 10
142.9382375811
 20
178.2890749472
  0
VERTEX
  8
0
 62
7
  6
CONTINUOUS
 10
142.9638475148
 20
178.2187965074
  0
SEQEND
  0
LINE
  8
0
 62
7
  6
CONTINUOUS
 10
143.019003307
 20
178.0465141278
 11
142.9895118974
 21
178.116294651
  0
POLYLINE
  8
0
 62
7
  6
CONTINUOUS
 66
1
 70
0
  0
VERTEX
  8
0
 62
7
  6
CONTINUOUS
 10
143.0305913126
 20
178.0375806257
  0
VERTEX
  8
0
 62
7
  6
CONTINUOUS
 10
143.033212719
 20
178.0309490038
  0
VERTEX
  8
0
 62
7
  6
CONTINUOUS
 10
143.0343474048
 20
178.0269507621
  0
SEQEND
  0
LINE
  8
0
 62
7
  6
CONTINUOUS
 10
139.8334884789
 20
178.3961925895
 11
139.8334791068
 21
178.3963376593
  0
LINE
  8
0
 62
7
  6
CONTINUOUS
 10
138.3958361474
 20
201.8803172029
 11
139.8334195912
 21
178.3973098451
  0
POLYLINE
  8
0
 62
7
  6
CONTINUOUS
 66
1
 70
0
  0
VERTEX
  8
0
 62
7
  6
CONTINUOUS
 10
139.8334789028
 20
178.3963409991
  0
VERTEX
  8
0
 62
7
  6
CONTINUOUS
 10
139.8337823515
 20
178.3392184411
  0
VERTEX
  8
0
 62
7
  6
CONTINUOUS
 10
139.8046612982
 20
178.1941858403
  0
VERTEX
  8
0
 62
7
  6
CONTINUOUS
 10
139.7778449269
 20
178.1335701582
  0
VERTEX
  8
0
 62
7
  6
CONTINUOUS
 10
139.7161421197
 20
178.0446274352
  0
VERTEX
  8
0
 62
7
  6
CONTINUOUS
 10
139.6935381652
 20
178.0215722931
  0
SEQEND
  0
LINE
  8
0
 62
7
  6
CONTINUOUS
 10
142.9638475148
 20
178.2187965074
 11
142.9894995975
 21
178.1163530683
  0
LINE
  8
0
 62
7
  6
CONTINUOUS
 10
142.9895019781
 20
178.1163413809
 11
142.9895118974
 21
178.116294651
  0
LINE
  8
0
 62
7
  6
CONTINUOUS
 10
142.9343474048
 20
169.7604747323
 11
142.9343474048
 21
178.0261122902
  0
LINE
  8
DEFAULT_1
 62
2
  6
CENTER
 10
142.9843474048
 20
167.2604624916
 11
142.9843474048
 21
211.6104624916
  0
LINE
  8
0
 62
7
  6
CONTINUOUS
 10
143.0343474048
 20
178.329258556
 11
143.0343474048
 21
169.7604747554
  0
POLYLINE
  8
0
 62
7
  6
CONTINUOUS
 66
1
 70
0
  0
VERTEX
  8
0
 62
7
  6
CONTINUOUS
 10
143.0343468891
 20
178.3292089563
  0
VERTEX
  8
0
 62
7
  6
CONTINUOUS
 10
143.0357697414
 20
178.3902394427
  0
VERTEX
  8
0
 62
7
  6
CONTINUOUS
 10
143.0375572082
 20
178.4173230723
  0
VERTEX
  8
0
 62
7
  6
CONTINUOUS
 10
143.0429924665
 20
178.4604624916
  0
SEQEND
  0
POLYLINE
  8
0
 62
7
  6
CONTINUOUS
 66
1
 70
0
  0
VERTEX
  8
0
 62
7
  6
CONTINUOUS
 10
142.9100278955
 20
177.9153009286
  0
VERTEX
  8
0
 62
7
  6
CONTINUOUS
 10
142.9198980525
 20
177.9719466216
  0
VERTEX
  8
0
 62
7
  6
CONTINUOUS
 10
142.9266550046
 20
178.0013408227
  0
VERTEX
  8
0
 62
7
  6
CONTINUOUS
 10
142.9354627186
 20
178.0297038815
  0
SEQEND
  0
POLYLINE
  8
0
 62
7
  6
CONTINUOUS
 66
1
 70
0
  0
VERTEX
  8
0
 62
7
  6
CONTINUOUS
 10
142.9100242623
 20
177.9153008813
  0
VERTEX
  8
0
 62
7
  6
CONTINUOUS
 10
142.9006109489
 20
177.8642706472
  0
VERTEX
  8
0
 62
7
  6
CONTINUOUS
 10
142.8789350612
 20
177.7992486688
  0
SEQEND
  0
LINE
  8
0
 62
7
  6
CONTINUOUS
 10
142.9791932356
 20
178.116343283
 11
142.9791843703
 21
178.1163015131
  0
LINE
  8
0
 62
7
  6
CONTINUOUS
 10
142.9791956893
 20
178.1163548888
 11
142.9843533557
 21
178.1369049556
  0
POLYLINE
  8
0
 62
7
  6
CONTINUOUS
 66
1
 70
0
  0
VERTEX
  8
0
 62
7
  6
CONTINUOUS
 10
147.5728586111
 20
201.8803163675
  0
VERTEX
  8
0
 62
7
  6
CONTINUOUS
 10
147.6193112258
 20
203.0554669916
  0
VERTEX
  8
0
 62
7
  6
CONTINUOUS
 10
147.616973087
 20
204.2783233975
  0
VERTEX
  8
0
 62
7
  6
CONTINUOUS
 10
147.5635923596
 20
205.4852392702
  0
VERTEX
  8
0
 62
7
  6
CONTINUOUS
 10
147.4691339935
 20
206.536130673
  0
VERTEX
  8
0
 62
7
  6
CONTINUOUS
 10
147.3475696556
 20
207.3961869718
  0
VERTEX
  8
0
 62
7
  6
CONTINUOUS
 10
147.2064083156
 20
208.0860186744
  0
VERTEX
  8
0
 62
7
  6
CONTINUOUS
 10
147.0511162485
 20
208.6192495809
  0
VERTEX
  8
0
 62
7
  6
CONTINUOUS
 10
146.8803397781
 20
209.020838968
  0
VERTEX
  8
0
 62
7
  6
CONTINUOUS
 10
146.6792587149
 20
209.3203698073
  0
VERTEX
  8
0
 62
7
  6
CONTINUOUS
 10
146.4094438156
 20
209.5332358407
  0
VERTEX
  8
0
 62
7
  6
CONTINUOUS
 10
146.0887599705
 20
209.61046223
  0
SEQEND
  0
LINE
  8
0
 62
7
  6
CONTINUOUS
 10
147.5728586623
 20
201.8803172029
 11
146.1352752185
 21
178.397309845
  0
LINE
  8
0
 62
7
  6
CONTINUOUS
 10
146.1352063308
 20
178.3961925895
 11
146.1352157029
 21
178.3963376593
  0
LINE
  8
0
 62
7
  6
CONTINUOUS
 10
147.6843474048
 20
177.4604502746
 11
147.6843474048
 21
169.7604747325
  0
POLYLINE
  8
0
 62
7
  6
CONTINUOUS
 66
1
 70
0
  0
VERTEX
  8
0
 62
7
  6
CONTINUOUS
 10
138.2843474048
 20
175.2143639849
  0
VERTEX
  8
0
 62
7
  6
CONTINUOUS
 10
138.3214742315
 20
175.2551055465
  0
VERTEX
  8
0
 62
7
  6
CONTINUOUS
 10
138.4285047325
 20
175.2892639784
  0
VERTEX
  8
0
 62
7
  6
CONTINUOUS
 10
138.5908206495
 20
175.3119971045
  0
VERTEX
  8
0
 62
7
  6
CONTINUOUS
 10
138.7843474048
 20
175.3199945913
  0
SEQEND
  0
LINE
  8
0
 62
7
  6
CONTINUOUS
 10
139.6937439756
 20
178.0217637127
 11
139.6935386096
 21
178.0215718182
  0
POLYLINE
  8
0
 62
7
  6
CONTINUOUS
 66
1
 70
0
  0
VERTEX
  8
0
 62
7
  6
CONTINUOUS
 10
139.6937439756
 20
178.0217637127
  0
VERTEX
  8
0
 62
7
  6
CONTINUOUS
 10
139.6408055073
 20
177.9881202768
  0
VERTEX
  8
0
 62
7
  6
CONTINUOUS
 10
139.5109513045
 20
177.9604625671
  0
SEQEND
  0
POLYLINE
  8
0
 62
7
  6
CONTINUOUS
 66
1
 70
0
  0
VERTEX
  8
0
 62
7
  6
CONTINUOUS
 10
142.8804134544
 20
177.982873538
  0
VERTEX
  8
0
 62
7
  6
CONTINUOUS
 10
142.9207808072
 20
178.0123616138
  0
VERTEX
  8
0
 62
7
  6
CONTINUOUS
 10
142.9496872505
 20
178.0465058929
  0
VERTEX
  8
0
 62
7
  6
CONTINUOUS
 10
142.9791843703
 20
178.1163015131
  0
SEQEND
  0
LINE
  8
0
 62
7
  6
CONTINUOUS
 10
142.8804134544
 20
177.982873538
 11
142.8804489223
 21
177.9828931772
  0
POLYLINE
  8
0
 62
7
  6
CONTINUOUS
 66
1
 70
0
  0
VERTEX
  8
0
 62
7
  6
CONTINUOUS
 10
139.8799348606
 20
209.61046223
  0
VERTEX
  8
0
 62
7
  6
CONTINUOUS
 10
139.5592508893
 20
209.5332357947
  0
VERTEX
  8
0
 62
7
  6
CONTINUOUS
 10
139.2894359995
 20
209.3203696977
  0
VERTEX
  8
0
 62
7
  6
CONTINUOUS
 10
139.088354929
 20
209.0208387712
  0
VERTEX
  8
0
 62
7
  6
CONTINUOUS
 10
138.9175784325
 20
208.619249216
  0
VERTEX
  8
0
 62
7
  6
CONTINUOUS
 10
138.7622863372
 20
208.0860180285
  0
VERTEX
  8
0
 62
7
  6
CONTINUOUS
 10
138.6211249848
 20
207.396185987
  0
VERTEX
  8
0
 62
7
  6
CONTINUOUS
 10
138.4995606641
 20
206.5361293608
  0
VERTEX
  8
0
 62
7
  6
CONTINUOUS
 10
138.4051023129
 20
205.4852372354
  0
VERTEX
  8
0
 62
7
  6
CONTINUOUS
 10
138.3517216681
 20
204.2783210238
  0
VERTEX
  8
0
 62
7
  6
CONTINUOUS
 10
138.3493835996
 20
203.0554661445
  0
SEQEND
  0
LINE
  8
0
 62
7
  6
CONTINUOUS
 10
139.8804374793
 20
209.6104624916
 11
146.0882573304
 21
209.6104624916
  0
ARC
  8
0
 62
7
  6
CONTINUOUS
 10
66.7545856985
 20
173.6104624916
 40
4.35
 50
23.1410410267
 51
336.8589589733
  0
CIRCLE
  8
0
 62
7
  6
CONTINUOUS
 10
66.7545856985
 20
173.6104624916
 40
2.55
  0
ARC
  8
0
 62
7
  6
CONTINUOUS
 10
64.1795856985
 20
178.3000120435
 40
1.0
 50
298.7708913287
 51
18.0
  0
ARC
  8
0
 62
7
  6
CONTINUOUS
 10
70.8795856985
 20
177.2604624916
 40
1.0
 50
90.0
 51
174.6004046303
  0
ARC
  8
0
 62
7
  6
CONTINUOUS
 10
70.3795856985
 20
176.8325542035
 40
0.5
 50
180.0
 51
221.6323869871
  0
ARC
  8
0
 62
7
  6
CONTINUOUS
 10
63.3159573971
 20
203.6104624916
 40
6.0
 50
90.0
 51
198.0
  0
ARC
  8
0
 62
7
  6
CONTINUOUS
 10
81.6795856985
 20
177.2604624916
 40
1.0
 50
0.0
 51
90.0
  0
ARC
  8
0
 62
7
  6
CONTINUOUS
 10
82.1795856985
 20
176.8325542035
 40
0.5
 50
318.3676130129
 51
360.0
  0
ARC
  8
0
 62
7
  6
CONTINUOUS
 10
85.8045856985
 20
173.6104624916
 40
4.35
 50
203.1410410267
 51
61.6136298177
  0
ARC
  8
0
 62
7
  6
CONTINUOUS
 10
85.8045856985
 20
173.6104624916
 40
4.35
 50
138.3718776489
 51
156.8589589733
  0
CIRCLE
  8
0
 62
7
  6
CONTINUOUS
 10
85.8045856985
 20
173.6104624916
 40
2.55
  0
ARC
  8
0
 62
7
  6
CONTINUOUS
 10
88.3795856985
 20
178.3000120435
 40
1.0
 50
162.0
 51
241.2291086713
  0
ARC
  8
0
 62
7
  6
CONTINUOUS
 10
89.2432139999
 20
203.6104624916
 40
6.0
 50
342.0
 51
90.0
  0
ARC
  8
0
 62
7
  6
CONTINUOUS
 10
57.8159573811
 20
130.7477542116
 40
0.5
 50
100.67
 51
180.0000000282
  0
ARC
  8
0
 62
7
  6
CONTINUOUS
 10
94.7432137101
 20
137.7052083271
 40
0.5
 50
359.9999987161
 51
100.6700000001
  0
ARC
  8
0
 62
7
  6
CONTINUOUS
 10
94.7432140159
 20
136.3823357538
 40
0.5
 50
280.67
 51
360.0
  0
ARC
  8
0
 62
7
  6
CONTINUOUS
 10
57.8159576813
 20
129.4248816372
 40
0.5
 50
179.9999987417
 51
280.6700000001
  0
ARC
  8
0
 62
7
  6
CONTINUOUS
 10
62.9045856985
 20
133.0150449827
 40
0.5
 50
90.0
 51
180.0
  0
ARC
  8
0
 62
7
  6
CONTINUOUS
 10
89.6545856985
 20
137.7650449827
 40
0.5
 50
0.0
 51
90.0
  0
ARC
  8
0
 62
7
  6
CONTINUOUS
 10
89.6545856985
 20
134.1150449827
 40
0.5
 50
270.0
 51
360.0
  0
ARC
  8
0
 62
7
  6
CONTINUOUS
 10
62.9045856985
 20
129.3650449827
 40
0.5
 50
180.0
 51
270.0
  0
ARC
  8
0
 62
7
  6
CONTINUOUS
 10
82.3045856985
 20
137.7650449827
 40
0.5
 50
90.0
 51
180.0
  0
ARC
  8
0
 62
7
  6
CONTINUOUS
 10
70.2545856985
 20
129.3650449827
 40
0.5
 50
270.0
 51
360.0
  0
ARC
  8
0
 62
7
  6
CONTINUOUS
 10
143.5343474048
 20
169.7604624916
 40
0.5
 50
180.0
 51
270.0
  0
ARC
  8
0
 62
7
  6
CONTINUOUS
 10
138.7843474048
 20
177.4604624916
 40
0.5
 50
90.0
 51
180.0
  0
ARC
  8
0
 62
7
  6
CONTINUOUS
 10
138.7843474048
 20
169.7604624916
 40
0.5
 50
180.0
 51
270.0
  0
ARC
  8
0
 62
7
  6
CONTINUOUS
 10
142.4343474048
 20
169.7604624916
 40
0.5
 50
270.0
 51
360.0
  0
ARC
  8
0
 62
7
  6
CONTINUOUS
 10
147.1843474048
 20
177.4604624916
 40
0.5
 50
0.0
 51
90.0
  0
ARC
  8
0
 62
7
  6
CONTINUOUS
 10
147.1843474048
 20
169.7604624916
 40
0.5
 50
270.0
 51
360.0
  0
ENDSEC
  0
EOF
