  0
SECTION
  2
HEADER
  9
$EXTMAX
 10
210.0
 20
297.0
 30
0.0
  9
$EXTMIN
 10
0.0
 20
0.0
 30
0.0
  9
$LIMMIN
 10
0.0
 20
0.0
  9
$LIMMAX
 10
210.0
 20
297.0
  9
$VIEWCTR
 10
105.0
 20
148.5
  9
$VIEWSIZE
 40
297.0
  9
$CLAYER
  8
0
  9
$LTSCALE
 40
19.36
  9
$CELTYPE
  6
BYLAYER
  9
$DIMSCALE
 40
1.0
  9
$DIMASZ
 40
3.5
  9
$DIMEXO
 40
1.0
  9
$DIMDLI
 40
13.376
  9
$DIMEXE
 40
2.0
  9
$DIMCEN
 40
3.168
  9
$DIMLFAC
 40
1.0
  9
$DIMBLK
  1
_FILLED
  9
$DIMTXT
 40
3.5
  9
$PDMODE
 70
3
  9
$PDSIZE
 40
0.3125
  9
$TILEMODE
 70
1
  0
ENDSEC
  0
SECTION
  2
TABLES
  0
TABLE
  2
LTYPE
 70
6
  0
LTYPE
  2
BYBLOCK
 70
0
  3

 72
65
 73
0
 40
0.0
  0
LTYPE
  2
BYLAYER
 70
0
  3

 72
65
 73
0
 40
0.0
  0
LTYPE
  2
CONTINUOUS
 70
64
  3
Solid line
 72
65
 73
0
 40
0.0
  0
LTYPE
  2
CENTER
 70
64
  3
____ _ ____ _ ____ _ ____ _ ____ _ ____ _ ____
 72
65
 73
4
 40
0.6
 49
0.375
 49
-0.075
 49
0.075
 49
-0.075
  0
LTYPE
  2
HIDDEN
 70
64
  3
- - - - - - - - - - - - - - - - - - - -
 72
65
 73
2
 40
0.2
 49
0.1
 49
-0.1
  0
LTYPE
  2
PHANTOM
 70
64
  3
_____ _ _ _____ _ _ _____ _ _ _____
 72
65
 73
6
 40
0.8
 49
0.45
 49
-0.05
 49
0.1
 49
-0.05
 49
0.1
 49
-0.05
  0
LTYPE
  2
DOT
 70
64
  3
. . . . . . . . . . . . . . . . . . . .
 72
65
 73
2
 40
0.2
 49
0.1
 49
-0.1
  0
LTYPE
  2
DASHED
 70
64
  3
- - - - - - - - - - - - - - - - - - - -
 72
65
 73
2
 40
0.2
 49
0.1
 49
-0.1
  0
ENDTAB
  0
TABLE
  2
LAYER
 70
36
  0
LAYER
  2
0
 70
0
 62
7
  6
CONTINUOUS
  0
LAYER
  2
DEFAULT_1
 70
0
 62
7
  6
CENTER
  0
LAYER
  2
DEFAULT_2
 70
0
 62
8
  6
HIDDEN
  0
LAYER
  2
DEFAULT_3
 70
0
 62
7
  6
PHANTOM
  0
LAYER
  2
1_AXIS
 70
0
 62
7
  6
CONTINUOUS
  0
LAYER
  2
1_DATUMPLANE
 70
0
 62
7
  6
CONTINUOUS
  0
LAYER
  2
1_DATUM_PLANES
 70
0
 62
7
  6
CONTINUOUS
  0
LAYER
  2
2_FEATURE
 70
0
 62
7
  6
CONTINUOUS
  0
LAYER
  2
3_CURVE
 70
0
 62
7
  6
CONTINUOUS
  0
LAYER
  2
4_QUILT
 70
0
 62
7
  6
CONTINUOUS
  0
LAYER
  2
4_SURFACE
 70
0
 62
7
  6
CONTINUOUS
  0
LAYER
  2
6_DIM
 70
0
 62
7
  6
CONTINUOUS
  0
LAYER
  2
CSYS
 70
0
 62
7
  6
CONTINUOUS
  0
LAYER
  2
CURVE
 70
0
 62
7
  6
CONTINUOUS
  0
LAYER
  2
NOTES
 70
0
 62
7
  6
CONTINUOUS
  0
LAYER
  2
SURFACE
 70
0
 62
7
  6
CONTINUOUS
  0
ENDTAB
  0
TABLE
  2
STYLE
 70
1
  0
STYLE
  2
STANDARD
 70
0
 40
0.0
 41
0.8
 50
0.0
 71
0
 42
0.2
  3
txt
  4

  0
STYLE
  2
TEXTSTYLE_1
 70
0
 40
0.0
 41
0.8
 50
0.0
 71
0
 42
0.2
  3
gdt
  4

  0
STYLE
  2
TEXTSTYLE_2
 70
0
 40
0.0
 41
0.6
 50
0.0
 71
0
 42
0.2
  3
txt
  4

  0
STYLE
  2
TEXTSTYLE_3
 70
0
 40
0.0
 41
1.0
 50
0.0
 71
0
 42
0.2
  3
ftb_____.ttf
  4

  0
STYLE
  2
TEXTSTYLE_4
 70
0
 40
0.0
 41
1.0
 50
0.0
 71
0
 42
0.2
  3
fti_____.ttf
  4

  0
STYLE
  2
TEXTSTYLE_5
 70
0
 40
0.0
 41
1.0
 50
0.0
 71
0
 42
0.2
  3
frutiger light.ttf
  4

  0
STYLE
  2
TEXTSTYLE_6
 70
0
 40
0.0
 41
0.7
 50
0.0
 71
0
 42
0.2
  3
txt
  4

  0
STYLE
  2
TEXTSTYLE_7
 70
0
 40
0.0
 41
0.32
 50
0.0
 71
0
 42
0.2
  3
txt
  4

  0
ENDTAB
  0
ENDSEC
  0
SECTION
  2
BLOCKS
  0
BLOCK
  8
0
 62
2
  6
CONTINUOUS
  2
SYMBOL_8_BL1
 70
64
 10
173.5956734183
 20
35.5937998301
  0
TEXT
  8
0
 62
7
  6
CONTINUOUS
 10
164.6539584268
 20
30.6865562072
  7
TEXTSTYLE_4
 40
1.0655737705
  1
The brand for plastic modular belts and chains
 41
1.0
 72
0
  0
LINE
  8
0
 62
7
  6
CONTINUOUS
 10
149.5737418074
 20
36.1675703219
 11
149.5737418074
 21
34.0364227809
  0
LINE
  8
0
 62
7
  6
CONTINUOUS
 10
149.8628043005
 20
31.0454914852
 11
149.8628043005
 21
31.1422825445
  0
LINE
  8
0
 62
7
  6
CONTINUOUS
 10
149.5737418074
 20
31.1100188581
 11
149.6315543091
 21
30.9164367395
  0
LINE
  8
0
 62
7
  6
CONTINUOUS
 10
150.9671844304
 20
33.9544555678
 11
150.9671844304
 21
36.1675703219
  0
LINE
  8
0
 62
7
  6
CONTINUOUS
 10
151.8862417523
 20
32.1101932727
 11
151.8862417523
 21
30.5937998301
  0
LINE
  8
0
 62
7
  6
CONTINUOUS
 10
152.1753043074
 20
30.5937998301
 11
152.1753043074
 21
31.3358647082
  0
LINE
  8
0
 62
7
  6
CONTINUOUS
 10
152.1753043074
 20
31.4649194539
 11
152.1753043074
 21
32.1101932727
  0
LINE
  8
0
 62
7
  6
CONTINUOUS
 10
149.6315543091
 20
31.3036010218
 11
149.5737418074
 21
31.1100188581
  0
LINE
  8
0
 62
7
  6
CONTINUOUS
 10
149.9784292936
 20
30.8841730531
 11
149.8628043005
 21
31.0454914852
  0
LINE
  8
0
 62
7
  6
CONTINUOUS
 10
151.0768668626
 20
31.400392081
 11
151.1346793074
 21
31.3036010218
  0
LINE
  8
0
 62
7
  6
CONTINUOUS
 10
151.4237418626
 20
31.3036010218
 11
151.3659292523
 21
31.4326557675
  0
LINE
  8
0
 62
7
  6
CONTINUOUS
 10
152.852430332
 20
36.1675703219
 11
152.852430332
 21
34.3642916334
  0
LINE
  8
0
 62
7
  6
CONTINUOUS
 10
152.852430332
 20
33.0528162235
 11
152.852430332
 21
32.3970785186
  0
LINE
  8
0
 62
7
  6
CONTINUOUS
 10
153.2159293074
 20
31.2390736489
 11
153.2159293074
 21
30.5937998301
  0
LINE
  8
0
 62
7
  6
CONTINUOUS
 10
153.5049916972
 20
30.5937998301
 11
153.5049916972
 21
31.2390736489
  0
LINE
  8
0
 62
7
  6
CONTINUOUS
 10
149.8628043005
 20
31.1422825445
 11
149.9206168074
 21
31.2713373354
  0
LINE
  8
0
 62
7
  6
CONTINUOUS
 10
149.6315543091
 20
30.9164367395
 11
149.7471793074
 21
30.7873819712
  0
LINE
  8
0
 62
7
  6
CONTINUOUS
 10
153.1581166972
 20
31.3681283946
 11
153.2159293074
 21
31.2390736489
  0
LINE
  8
0
 62
7
  6
CONTINUOUS
 10
153.9674919177
 20
30.8841730531
 11
154.0253041972
 21
30.7551182848
  0
LINE
  8
0
 62
7
  6
CONTINUOUS
 10
153.5049916972
 20
31.2390736489
 11
153.4471794177
 21
31.400392081
  0
LINE
  8
0
 62
7
  6
CONTINUOUS
 10
153.9674919177
 20
31.4326557675
 11
153.9674919177
 21
31.3681283946
  0
LINE
  8
0
 62
7
  6
CONTINUOUS
 10
153.9674919177
 20
30.9809641124
 11
153.9674919177
 21
30.8841730531
  0
LINE
  8
0
 62
7
  6
CONTINUOUS
 10
154.245872955
 20
32.3970785186
 11
154.245872955
 21
36.1675703219
  0
LINE
  8
0
 62
7
  6
CONTINUOUS
 10
154.2565543074
 20
30.8519093441
 11
154.2565543074
 21
30.9164367395
  0
LINE
  8
0
 62
7
  6
CONTINUOUS
 10
154.5737418074
 20
36.1675703219
 11
154.5737418074
 21
32.3970785186
  0
LINE
  8
0
 62
7
  6
CONTINUOUS
 10
151.3659292523
 20
30.7873819712
 11
151.4237418626
 21
30.9164367395
  0
LINE
  8
0
 62
7
  6
CONTINUOUS
 10
155.759679528
 20
30.6905909007
 11
155.7018665869
 21
30.8519093441
  0
LINE
  8
0
 62
7
  6
CONTINUOUS
 10
155.412804528
 20
31.3681283946
 11
155.412804528
 21
31.2713373354
  0
LINE
  8
0
 62
7
  6
CONTINUOUS
 10
155.412804528
 20
31.1422825445
 11
155.412804528
 21
30.9487004259
  0
LINE
  8
0
 62
7
  6
CONTINUOUS
 10
155.7018665869
 20
30.8519093441
 11
155.7018665869
 21
31.3681283946
  0
LINE
  8
0
 62
7
  6
CONTINUOUS
 10
155.9671844304
 20
32.3970785186
 11
155.9671844304
 21
34.2003572071
  0
LINE
  8
0
 62
7
  6
CONTINUOUS
 10
155.9671844304
 20
35.511832617
 11
155.9671844304
 21
36.1675703219
  0
LINE
  8
0
 62
7
  6
CONTINUOUS
 10
156.279992028
 20
32.1101932727
 11
156.279992028
 21
31.9488748406
  0
LINE
  8
0
 62
7
  6
CONTINUOUS
 10
156.279992028
 20
31.626237886
 11
156.279992028
 21
30.5937998301
  0
LINE
  8
0
 62
7
  6
CONTINUOUS
 10
156.5690540869
 20
30.5937998301
 11
156.5690540869
 21
31.626237886
  0
LINE
  8
0
 62
7
  6
CONTINUOUS
 10
156.5690540869
 20
31.9488748406
 11
156.5690540869
 21
32.1101932727
  0
LINE
  8
0
 62
7
  6
CONTINUOUS
 10
151.1346793074
 20
30.9164367395
 11
151.0768668626
 21
30.8196456577
  0
LINE
  8
0
 62
7
  6
CONTINUOUS
 10
153.4471794177
 20
31.400392081
 11
153.3893668074
 21
31.4649194539
  0
LINE
  8
0
 62
7
  6
CONTINUOUS
 10
154.3143669177
 20
30.7873819712
 11
154.2565543074
 21
30.8519093441
  0
LINE
  8
0
 62
7
  6
CONTINUOUS
 10
155.4706168074
 20
30.6583272086
 11
155.5284290869
 21
30.5937998301
  0
LINE
  8
0
 62
7
  6
CONTINUOUS
 10
155.412804528
 20
30.7551182848
 11
155.4706168074
 21
30.6583272086
  0
LINE
  8
0
 62
7
  6
CONTINUOUS
 10
155.8174918074
 20
30.5937998301
 11
155.759679528
 21
30.6905909007
  0
LINE
  8
0
 62
7
  6
CONTINUOUS
 10
155.7018665869
 20
31.3681283946
 11
155.6440543074
 21
31.4649194539
  0
LINE
  8
0
 62
7
  6
CONTINUOUS
 10
157.0315543074
 20
31.626237886
 11
157.0315543074
 21
30.5937998301
  0
LINE
  8
0
 62
7
  6
CONTINUOUS
 10
157.320617028
 20
30.5937998301
 11
157.320617028
 21
31.3358647082
  0
LINE
  8
0
 62
7
  6
CONTINUOUS
 10
157.320617028
 20
31.4649194539
 11
157.320617028
 21
31.626237886
  0
LINE
  8
0
 62
7
  6
CONTINUOUS
 10
157.852430332
 20
34.6101932727
 11
157.852430332
 21
32.3970785186
  0
LINE
  8
0
 62
7
  6
CONTINUOUS
 10
149.7471793074
 20
31.4326557675
 11
149.6315543091
 21
31.3036010218
  0
LINE
  8
0
 62
7
  6
CONTINUOUS
 10
149.9206168074
 20
31.2713373354
 11
149.9784292936
 21
31.3358647082
  0
LINE
  8
0
 62
7
  6
CONTINUOUS
 10
149.7471793074
 20
30.7873819712
 11
149.8628043005
 21
30.7228545871
  0
LINE
  8
0
 62
7
  6
CONTINUOUS
 10
150.1518667936
 20
30.7873819712
 11
149.9784292936
 21
30.8841730531
  0
LINE
  8
0
 62
7
  6
CONTINUOUS
 10
155.3549915869
 20
31.4326557675
 11
155.412804528
 21
31.3681283946
  0
LINE
  8
0
 62
7
  6
CONTINUOUS
 10
158.3034290869
 20
31.3681283946
 11
158.361242028
 21
31.2068099625
  0
LINE
  8
0
 62
7
  6
CONTINUOUS
 10
158.6503040869
 20
31.2068099625
 11
158.5924918074
 21
31.3681283946
  0
LINE
  8
0
 62
7
  6
CONTINUOUS
 10
158.361242028
 20
31.2068099625
 11
158.361242028
 21
30.5937998301
  0
LINE
  8
0
 62
7
  6
CONTINUOUS
 10
158.6503040869
 20
30.5937998301
 11
158.6503040869
 21
31.2068099625
  0
LINE
  8
0
 62
7
  6
CONTINUOUS
 10
159.1128043074
 20
31.4326557675
 11
159.1128043074
 21
31.3681283946
  0
LINE
  8
0
 62
7
  6
CONTINUOUS
 10
159.245872955
 20
32.3970785186
 11
159.245872955
 21
34.5282260596
  0
LINE
  8
0
 62
7
  6
CONTINUOUS
 10
159.5737418074
 20
36.1675703219
 11
159.5737418074
 21
32.3970785186
  0
LINE
  8
0
 62
7
  6
CONTINUOUS
 10
154.2565543074
 20
30.9164367395
 11
154.3143669177
 21
31.0132277988
  0
LINE
  8
0
 62
7
  6
CONTINUOUS
 10
149.8628043005
 20
30.7228545871
 11
150.0362418212
 21
30.6583272086
  0
LINE
  8
0
 62
7
  6
CONTINUOUS
 10
151.3659292523
 20
31.4326557675
 11
151.1924917523
 21
31.5294468267
  0
LINE
  8
0
 62
7
  6
CONTINUOUS
 10
154.0253041972
 20
30.7551182848
 11
154.1987416972
 21
30.6583272086
  0
LINE
  8
0
 62
7
  6
CONTINUOUS
 10
153.0424918074
 20
31.4326557675
 11
153.1581166972
 21
31.3681283946
  0
LINE
  8
0
 62
7
  6
CONTINUOUS
 10
153.3893668074
 20
31.4649194539
 11
153.2737419177
 21
31.5294468267
  0
LINE
  8
0
 62
7
  6
CONTINUOUS
 10
159.1128043074
 20
30.8519093441
 11
159.228429528
 21
30.7228545871
  0
LINE
  8
0
 62
7
  6
CONTINUOUS
 10
159.4596793074
 20
30.7873819712
 11
159.401867028
 21
30.8519093441
  0
LINE
  8
0
 62
7
  6
CONTINUOUS
 10
159.1128043074
 20
31.3681283946
 11
159.228429528
 21
31.2390736489
  0
LINE
  8
0
 62
7
  6
CONTINUOUS
 10
158.5924918074
 20
31.3681283946
 11
158.534679528
 21
31.4649194539
  0
LINE
  8
0
 62
7
  6
CONTINUOUS
 10
160.9628038663
 20
30.7873819712
 11
160.9628038663
 21
30.8519093441
  0
LINE
  8
0
 62
7
  6
CONTINUOUS
 10
160.9671844304
 20
32.3970785186
 11
160.9671844304
 21
36.1675703219
  0
LINE
  8
0
 62
7
  6
CONTINUOUS
 10
154.0253041972
 20
31.4971831403
 11
153.9674919177
 21
31.4326557675
  0
LINE
  8
0
 62
7
  6
CONTINUOUS
 10
150.9034292799
 20
31.4649194539
 11
151.0768668626
 21
31.400392081
  0
LINE
  8
0
 62
7
  6
CONTINUOUS
 10
155.6440543074
 20
31.4649194539
 11
155.5284290869
 21
31.5294468267
  0
LINE
  8
0
 62
7
  6
CONTINUOUS
 10
159.4596793074
 20
31.3036010218
 11
159.401867028
 21
31.3681283946
  0
LINE
  8
0
 62
7
  6
CONTINUOUS
 10
160.615929528
 20
30.9164367395
 11
160.6737418074
 21
30.8519093441
  0
LINE
  8
0
 62
7
  6
CONTINUOUS
 10
160.9628038663
 20
30.8519093441
 11
160.8471793074
 21
30.9809641124
  0
LINE
  8
0
 62
7
  6
CONTINUOUS
 10
160.615929528
 20
31.4326557675
 11
160.6737418074
 21
31.3681283946
  0
LINE
  8
0
 62
7
  6
CONTINUOUS
 10
160.9628038663
 20
31.3681283946
 11
160.8471793074
 21
31.4971831403
  0
LINE
  8
0
 62
7
  6
CONTINUOUS
 10
154.2565543074
 20
31.3681283946
 11
154.3143669177
 21
31.4326557675
  0
LINE
  8
0
 62
7
  6
CONTINUOUS
 10
154.0831168074
 20
31.1100188581
 11
153.9674919177
 21
30.9809641124
  0
LINE
  8
0
 62
7
  6
CONTINUOUS
 10
155.412804528
 20
30.9487004259
 11
155.3549915869
 21
30.8841730531
  0
LINE
  8
0
 62
7
  6
CONTINUOUS
 10
155.3549915869
 20
30.6905909007
 11
155.412804528
 21
30.7551182848
  0
LINE
  8
0
 62
7
  6
CONTINUOUS
 10
154.1987416972
 20
30.6583272086
 11
154.3143669177
 21
30.6260635193
  0
LINE
  8
0
 62
7
  6
CONTINUOUS
 10
151.1924917523
 20
31.5294468267
 11
150.9612418074
 21
31.5939741996
  0
LINE
  8
0
 62
7
  6
CONTINUOUS
 10
154.5456166972
 20
30.7228545871
 11
154.3143669177
 21
30.7873819712
  0
LINE
  8
0
 62
7
  6
CONTINUOUS
 10
153.2737419177
 20
31.5294468267
 11
153.1003044177
 21
31.5939741996
  0
LINE
  8
0
 62
7
  6
CONTINUOUS
 10
155.5284290869
 20
31.5294468267
 11
155.3549915869
 21
31.5939741996
  0
LINE
  8
0
 62
7
  6
CONTINUOUS
 10
158.187804528
 20
31.4326557675
 11
158.3034290869
 21
31.3681283946
  0
LINE
  8
0
 62
7
  6
CONTINUOUS
 10
158.534679528
 20
31.4649194539
 11
158.4190543074
 21
31.5294468267
  0
LINE
  8
0
 62
7
  6
CONTINUOUS
 10
150.0362418212
 20
30.6583272086
 11
150.2096793212
 21
30.6260635193
  0
LINE
  8
0
 62
7
  6
CONTINUOUS
 10
150.498741835
 20
30.7228545871
 11
150.1518667936
 21
30.7873819712
  0
LINE
  8
0
 62
7
  6
CONTINUOUS
 10
152.9268669177
 20
31.4649194539
 11
153.0424918074
 21
31.4326557675
  0
LINE
  8
0
 62
7
  6
CONTINUOUS
 10
155.239367028
 20
31.4649194539
 11
155.3549915869
 21
31.4326557675
  0
LINE
  8
0
 62
7
  6
CONTINUOUS
 10
159.575304528
 20
30.7551182848
 11
159.4596793074
 21
30.7873819712
  0
LINE
  8
0
 62
7
  6
CONTINUOUS
 10
158.0721793074
 20
31.4649194539
 11
158.187804528
 21
31.4326557675
  0
LINE
  8
0
 62
7
  6
CONTINUOUS
 10
159.228429528
 20
30.7228545871
 11
159.401867028
 21
30.6583272086
  0
LINE
  8
0
 62
7
  6
CONTINUOUS
 10
158.4190543074
 20
31.5294468267
 11
158.2456168074
 21
31.5939741996
  0
LINE
  8
0
 62
7
  6
CONTINUOUS
 10
159.6331168074
 20
31.2390736489
 11
159.4596793074
 21
31.3036010218
  0
LINE
  8
0
 62
7
  6
CONTINUOUS
 10
160.442492028
 20
30.9809641124
 11
160.615929528
 21
30.9164367395
  0
LINE
  8
0
 62
7
  6
CONTINUOUS
 10
160.8471793074
 20
31.4971831403
 11
160.6737418074
 21
31.5617105132
  0
LINE
  8
0
 62
7
  6
CONTINUOUS
 10
159.228429528
 20
31.2390736489
 11
159.4596793074
 21
31.1422825445
  0
LINE
  8
0
 62
7
  6
CONTINUOUS
 10
160.8471793074
 20
30.9809641124
 11
160.615929528
 21
31.0777551716
  0
LINE
  8
0
 62
7
  6
CONTINUOUS
 10
159.401867028
 20
31.3681283946
 11
159.4596793074
 21
31.4326557675
  0
LINE
  8
0
 62
7
  6
CONTINUOUS
 10
149.8628043005
 20
31.4971831403
 11
149.7471793074
 21
31.4326557675
  0
LINE
  8
0
 62
7
  6
CONTINUOUS
 10
149.9784292936
 20
31.3358647082
 11
150.1518667936
 21
31.4326557675
  0
LINE
  8
0
 62
7
  6
CONTINUOUS
 10
152.2909293626
 20
31.5294468267
 11
152.1753043074
 21
31.4649194539
  0
LINE
  8
0
 62
7
  6
CONTINUOUS
 10
152.1753043074
 20
31.3358647082
 11
152.2909293626
 21
31.400392081
  0
LINE
  8
0
 62
7
  6
CONTINUOUS
 10
151.1924917523
 20
30.6905909007
 11
151.3659292523
 21
30.7873819712
  0
LINE
  8
0
 62
7
  6
CONTINUOUS
 10
150.2096793212
 20
30.6260635193
 11
150.5565542799
 21
30.5937998301
  0
LINE
  8
0
 62
7
  6
CONTINUOUS
 10
154.3143669177
 20
30.6260635193
 11
154.5456166972
 21
30.5937998301
  0
LINE
  8
0
 62
7
  6
CONTINUOUS
 10
152.6956168074
 20
31.4971831403
 11
152.9268669177
 21
31.4649194539
  0
LINE
  8
0
 62
7
  6
CONTINUOUS
 10
155.0081169177
 20
31.4971831403
 11
155.239367028
 21
31.4649194539
  0
LINE
  8
0
 62
7
  6
CONTINUOUS
 10
159.4596793074
 20
31.1422825445
 11
160.442492028
 21
30.9809641124
  0
LINE
  8
0
 62
7
  6
CONTINUOUS
 10
160.615929528
 20
31.0777551716
 11
159.6331168074
 21
31.2390736489
  0
LINE
  8
0
 62
7
  6
CONTINUOUS
 10
153.1003044177
 20
31.5939741996
 11
152.9268669177
 21
31.626237886
  0
LINE
  8
0
 62
7
  6
CONTINUOUS
 10
159.401867028
 20
30.6583272086
 11
159.575304528
 21
30.6260635193
  0
LINE
  8
0
 62
7
  6
CONTINUOUS
 10
158.2456168074
 20
31.5939741996
 11
158.0721793074
 21
31.626237886
  0
LINE
  8
0
 62
7
  6
CONTINUOUS
 10
160.5003043074
 20
31.4649194539
 11
160.615929528
 21
31.4326557675
  0
LINE
  8
0
 62
7
  6
CONTINUOUS
 10
160.6737418074
 20
30.8519093441
 11
160.615929528
 21
30.7873819712
  0
LINE
  8
0
 62
7
  6
CONTINUOUS
 10
159.228429528
 20
31.5294468267
 11
159.1128043074
 21
31.4326557675
  0
LINE
  8
0
 62
7
  6
CONTINUOUS
 10
154.1409294177
 20
31.5617105132
 11
154.0253041972
 21
31.4971831403
  0
LINE
  8
0
 62
7
  6
CONTINUOUS
 10
154.1987416972
 20
31.1745462761
 11
154.0831168074
 21
31.1100188581
  0
LINE
  8
0
 62
7
  6
CONTINUOUS
 10
154.3143669177
 20
31.0132277988
 11
154.4299918074
 21
31.0777551716
  0
LINE
  8
0
 62
7
  6
CONTINUOUS
 10
151.8862417523
 20
30.5937998301
 11
152.1753043074
 21
30.5937998301
  0
LINE
  8
0
 62
7
  6
CONTINUOUS
 10
153.2159293074
 20
30.5937998301
 11
153.5049916972
 21
30.5937998301
  0
LINE
  8
0
 62
7
  6
CONTINUOUS
 10
154.5456166972
 20
30.5937998301
 11
154.8924916972
 21
30.5937998301
  0
LINE
  8
0
 62
7
  6
CONTINUOUS
 10
155.5284290869
 20
30.5937998301
 11
155.8174918074
 21
30.5937998301
  0
LINE
  8
0
 62
7
  6
CONTINUOUS
 10
156.279992028
 20
30.5937998301
 11
156.5690540869
 21
30.5937998301
  0
LINE
  8
0
 62
7
  6
CONTINUOUS
 10
157.0315543074
 20
30.5937998301
 11
157.320617028
 21
30.5937998301
  0
LINE
  8
0
 62
7
  6
CONTINUOUS
 10
158.361242028
 20
30.5937998301
 11
158.6503040869
 21
30.5937998301
  0
LINE
  8
0
 62
7
  6
CONTINUOUS
 10
159.922179528
 20
30.5937998301
 11
160.269054528
 21
30.5937998301
  0
LINE
  8
0
 62
7
  6
CONTINUOUS
 10
160.269054528
 20
30.7228545871
 11
159.922179528
 21
30.7228545871
  0
LINE
  8
0
 62
7
  6
CONTINUOUS
 10
154.8924916972
 20
30.7228545871
 11
154.5456166972
 21
30.7228545871
  0
LINE
  8
0
 62
7
  6
CONTINUOUS
 10
159.401867028
 20
30.8519093441
 11
159.1128043074
 21
30.8519093441
  0
LINE
  8
0
 62
7
  6
CONTINUOUS
 10
151.4237418626
 20
30.9164367395
 11
151.1346793074
 21
30.9164367395
  0
LINE
  8
0
 62
7
  6
CONTINUOUS
 10
150.498741835
 20
31.4971831403
 11
150.9034292799
 21
31.4649194539
  0
LINE
  8
0
 62
7
  6
CONTINUOUS
 10
150.9612418074
 20
31.5939741996
 11
150.5565542799
 21
31.626237886
  0
LINE
  8
0
 62
7
  6
CONTINUOUS
 10
159.575304528
 20
30.6260635193
 11
159.922179528
 21
30.5937998301
  0
LINE
  8
0
 62
7
  6
CONTINUOUS
 10
159.922179528
 20
30.7228545871
 11
159.575304528
 21
30.7551182848
  0
LINE
  8
0
 62
7
  6
CONTINUOUS
 10
155.3549915869
 20
31.5939741996
 11
155.0081169177
 21
31.626237886
  0
LINE
  8
0
 62
7
  6
CONTINUOUS
 10
160.1534293074
 20
31.4971831403
 11
160.5003043074
 21
31.4649194539
  0
LINE
  8
0
 62
7
  6
CONTINUOUS
 10
160.5003043074
 20
31.5939741996
 11
160.1534293074
 21
31.626237886
  0
LINE
  8
0
 62
7
  6
CONTINUOUS
 10
157.840929528
 20
31.4971831403
 11
158.0721793074
 21
31.4649194539
  0
LINE
  8
0
 62
7
  6
CONTINUOUS
 10
160.6737418074
 20
31.5617105132
 11
160.5003043074
 21
31.5939741996
  0
LINE
  8
0
 62
7
  6
CONTINUOUS
 10
160.8471793074
 20
30.6905909007
 11
160.9628038663
 21
30.7873819712
  0
LINE
  8
0
 62
7
  6
CONTINUOUS
 10
155.3549915869
 20
30.8841730531
 11
155.1815540869
 21
30.7873819712
  0
LINE
  8
0
 62
7
  6
CONTINUOUS
 10
157.4362415869
 20
31.5294468267
 11
157.320617028
 21
31.4649194539
  0
LINE
  8
0
 62
7
  6
CONTINUOUS
 10
157.320617028
 20
31.3358647082
 11
157.4362415869
 21
31.400392081
  0
LINE
  8
0
 62
7
  6
CONTINUOUS
 10
150.0362418212
 20
31.5617105132
 11
149.8628043005
 21
31.4971831403
  0
LINE
  8
0
 62
7
  6
CONTINUOUS
 10
152.4643666972
 20
31.5939741996
 11
152.2909293626
 21
31.5294468267
  0
LINE
  8
0
 62
7
  6
CONTINUOUS
 10
152.2909293626
 20
31.400392081
 11
152.4643666972
 21
31.4649194539
  0
LINE
  8
0
 62
7
  6
CONTINUOUS
 10
151.0768668626
 20
30.8196456577
 11
150.9034292799
 21
30.7551182848
  0
LINE
  8
0
 62
7
  6
CONTINUOUS
 10
160.5003043074
 20
30.7551182848
 11
160.269054528
 21
30.7228545871
  0
LINE
  8
0
 62
7
  6
CONTINUOUS
 10
154.8924916972
 20
30.5937998301
 11
155.1815540869
 21
30.6260635193
  0
LINE
  8
0
 62
7
  6
CONTINUOUS
 10
160.269054528
 20
30.5937998301
 11
160.615929528
 21
30.6260635193
  0
LINE
  8
0
 62
7
  6
CONTINUOUS
 10
150.5565542799
 20
30.5937998301
 11
150.9612418074
 21
30.6260635193
  0
LINE
  8
0
 62
7
  6
CONTINUOUS
 10
150.9034292799
 20
30.7551182848
 11
150.498741835
 21
30.7228545871
  0
LINE
  8
0
 62
7
  6
CONTINUOUS
 10
154.7768668074
 20
31.1422825445
 11
155.412804528
 21
31.1422825445
  0
LINE
  8
0
 62
7
  6
CONTINUOUS
 10
155.412804528
 20
31.2713373354
 11
154.7768668074
 21
31.2713373354
  0
LINE
  8
0
 62
7
  6
CONTINUOUS
 10
151.1346793074
 20
31.3036010218
 11
151.4237418626
 21
31.3036010218
  0
LINE
  8
0
 62
7
  6
CONTINUOUS
 10
153.9674919177
 20
31.3681283946
 11
154.2565543074
 21
31.3681283946
  0
LINE
  8
0
 62
7
  6
CONTINUOUS
 10
160.6737418074
 20
31.3681283946
 11
160.9628038663
 21
31.3681283946
  0
LINE
  8
0
 62
7
  6
CONTINUOUS
 10
154.6612419177
 20
31.4971831403
 11
155.0081169177
 21
31.4971831403
  0
LINE
  8
0
 62
7
  6
CONTINUOUS
 10
159.8065543074
 20
31.4971831403
 11
160.1534293074
 21
31.4971831403
  0
LINE
  8
0
 62
7
  6
CONTINUOUS
 10
160.1534293074
 20
31.626237886
 11
159.8065543074
 21
31.626237886
  0
LINE
  8
0
 62
7
  6
CONTINUOUS
 10
158.0721793074
 20
31.626237886
 11
157.840929528
 21
31.626237886
  0
LINE
  8
0
 62
7
  6
CONTINUOUS
 10
157.320617028
 20
31.626237886
 11
157.0315543074
 21
31.626237886
  0
LINE
  8
0
 62
7
  6
CONTINUOUS
 10
156.5690540869
 20
31.626237886
 11
156.279992028
 21
31.626237886
  0
LINE
  8
0
 62
7
  6
CONTINUOUS
 10
155.0081169177
 20
31.626237886
 11
154.6612419177
 21
31.626237886
  0
LINE
  8
0
 62
7
  6
CONTINUOUS
 10
152.9268669177
 20
31.626237886
 11
152.6956168074
 21
31.626237886
  0
LINE
  8
0
 62
7
  6
CONTINUOUS
 10
156.279992028
 20
31.9488748406
 11
156.5690540869
 21
31.9488748406
  0
LINE
  8
0
 62
7
  6
CONTINUOUS
 10
156.5690540869
 20
32.1101932727
 11
156.279992028
 21
32.1101932727
  0
LINE
  8
0
 62
7
  6
CONTINUOUS
 10
152.1753043074
 20
32.1101932727
 11
151.8862417523
 21
32.1101932727
  0
LINE
  8
0
 62
7
  6
CONTINUOUS
 10
151.2130860697
 20
32.3970785186
 11
151.6256574183
 21
32.3970785186
  0
LINE
  8
0
 62
7
  6
CONTINUOUS
 10
152.852430332
 20
32.3970785186
 11
154.245872955
 21
32.3970785186
  0
LINE
  8
0
 62
7
  6
CONTINUOUS
 10
154.5737418074
 20
32.3970785186
 11
155.9671844304
 21
32.3970785186
  0
LINE
  8
0
 62
7
  6
CONTINUOUS
 10
157.852430332
 20
32.3970785186
 11
159.245872955
 21
32.3970785186
  0
LINE
  8
0
 62
7
  6
CONTINUOUS
 10
159.5737418074
 20
32.3970785186
 11
160.9671844304
 21
32.3970785186
  0
LINE
  8
0
 62
7
  6
CONTINUOUS
 10
157.6096790869
 20
31.5939741996
 11
157.4362415869
 21
31.5294468267
  0
LINE
  8
0
 62
7
  6
CONTINUOUS
 10
155.1815540869
 20
30.6260635193
 11
155.3549915869
 21
30.6905909007
  0
LINE
  8
0
 62
7
  6
CONTINUOUS
 10
160.615929528
 20
30.6260635193
 11
160.8471793074
 21
30.6905909007
  0
LINE
  8
0
 62
7
  6
CONTINUOUS
 10
160.615929528
 20
30.7873819712
 11
160.5003043074
 21
30.7551182848
  0
LINE
  8
0
 62
7
  6
CONTINUOUS
 10
159.575304528
 20
31.4649194539
 11
159.8065543074
 21
31.4971831403
  0
LINE
  8
0
 62
7
  6
CONTINUOUS
 10
157.6096790869
 20
31.4649194539
 11
157.840929528
 21
31.4971831403
  0
LINE
  8
0
 62
7
  6
CONTINUOUS
 10
154.5456166972
 20
31.1100188581
 11
154.7768668074
 21
31.1422825445
  0
LINE
  8
0
 62
7
  6
CONTINUOUS
 10
157.840929528
 20
31.626237886
 11
157.6096790869
 21
31.5939741996
  0
LINE
  8
0
 62
7
  6
CONTINUOUS
 10
154.4299918074
 20
31.4649194539
 11
154.6612419177
 21
31.4971831403
  0
LINE
  8
0
 62
7
  6
CONTINUOUS
 10
159.8065543074
 20
31.626237886
 11
159.4596793074
 21
31.5939741996
  0
LINE
  8
0
 62
7
  6
CONTINUOUS
 10
154.7768668074
 20
31.2713373354
 11
154.4299918074
 21
31.2390736489
  0
LINE
  8
0
 62
7
  6
CONTINUOUS
 10
150.5565542799
 20
31.626237886
 11
150.2096793212
 21
31.5939741996
  0
LINE
  8
0
 62
7
  6
CONTINUOUS
 10
154.6612419177
 20
31.626237886
 11
154.2565543074
 21
31.5939741996
  0
LINE
  8
0
 62
7
  6
CONTINUOUS
 10
152.0327582009
 20
33.5446195022
 11
151.3770204959
 21
33.5446195022
  0
LINE
  8
0
 62
7
  6
CONTINUOUS
 10
157.4362415869
 20
31.400392081
 11
157.6096790869
 21
31.4649194539
  0
LINE
  8
0
 62
7
  6
CONTINUOUS
 10
159.4596793074
 20
31.4326557675
 11
159.575304528
 21
31.4649194539
  0
LINE
  8
0
 62
7
  6
CONTINUOUS
 10
159.4596793074
 20
31.5939741996
 11
159.228429528
 21
31.5294468267
  0
LINE
  8
0
 62
7
  6
CONTINUOUS
 10
155.1815540869
 20
30.7873819712
 11
154.8924916972
 21
30.7228545871
  0
LINE
  8
0
 62
7
  6
CONTINUOUS
 10
152.4643666972
 20
31.4649194539
 11
152.6956168074
 21
31.4971831403
  0
LINE
  8
0
 62
7
  6
CONTINUOUS
 10
152.6956168074
 20
31.626237886
 11
152.4643666972
 21
31.5939741996
  0
LINE
  8
0
 62
7
  6
CONTINUOUS
 10
150.2674918074
 20
31.4649194539
 11
150.498741835
 21
31.4971831403
  0
LINE
  8
0
 62
7
  6
CONTINUOUS
 10
156.7868565615
 20
35.0200293383
 11
157.4425942664
 21
35.0200293383
  0
LINE
  8
0
 62
7
  6
CONTINUOUS
 10
154.4299918074
 20
31.0777551716
 11
154.5456166972
 21
31.1100188581
  0
LINE
  8
0
 62
7
  6
CONTINUOUS
 10
154.4299918074
 20
31.2390736489
 11
154.1987416972
 21
31.1745462761
  0
LINE
  8
0
 62
7
  6
CONTINUOUS
 10
154.3143669177
 20
31.4326557675
 11
154.4299918074
 21
31.4649194539
  0
LINE
  8
0
 62
7
  6
CONTINUOUS
 10
150.9612418074
 20
30.6260635193
 11
151.1924917523
 21
30.6905909007
  0
LINE
  8
0
 62
7
  6
CONTINUOUS
 10
154.2565543074
 20
31.5939741996
 11
154.1409294177
 21
31.5617105132
  0
LINE
  8
0
 62
7
  6
CONTINUOUS
 10
150.2096793212
 20
31.5939741996
 11
150.0362418212
 21
31.5617105132
  0
LINE
  8
0
 62
7
  6
CONTINUOUS
 10
160.9671844304
 20
36.1675703219
 11
159.5737418074
 21
36.1675703219
  0
LINE
  8
0
 62
7
  6
CONTINUOUS
 10
157.6065286927
 20
36.1675703219
 11
157.1939573441
 21
36.1675703219
  0
LINE
  8
0
 62
7
  6
CONTINUOUS
 10
155.9671844304
 20
36.1675703219
 11
154.5737418074
 21
36.1675703219
  0
LINE
  8
0
 62
7
  6
CONTINUOUS
 10
154.245872955
 20
36.1675703219
 11
152.852430332
 21
36.1675703219
  0
LINE
  8
0
 62
7
  6
CONTINUOUS
 10
150.9671844304
 20
36.1675703219
 11
149.5737418074
 21
36.1675703219
  0
LINE
  8
0
 62
7
  6
CONTINUOUS
 10
150.1518667936
 20
31.4326557675
 11
150.2674918074
 21
31.4649194539
  0
CIRCLE
  8
0
 62
7
  6
CONTINUOUS
 10
160.2704631189
 20
38.5036358957
 40
2.0901639344
  0
ARC
  8
0
 62
7
  6
CONTINUOUS
 10
151.2130860697
 20
34.0364227809
 40
1.6393442623
 50
180.0
 51
270.0
  0
ARC
  8
0
 62
7
  6
CONTINUOUS
 10
157.6065286927
 20
34.5282260596
 40
1.6393442623
 50
0.0
 51
90.0
  0
ARC
  8
0
 62
7
  6
CONTINUOUS
 10
151.6256574183
 20
33.8724883547
 40
1.4754098361
 50
270.0
 51
326.2510114041
  0
ARC
  8
0
 62
7
  6
CONTINUOUS
 10
157.1939573441
 20
34.6921604858
 40
1.4754098361
 50
90.0
 51
146.2510114041
  0
ARC
  8
0
 62
7
  6
CONTINUOUS
 10
152.0327582009
 20
34.3642916334
 40
0.8196721311
 50
270.0
 51
360.0
  0
ARC
  8
0
 62
7
  6
CONTINUOUS
 10
156.7868565615
 20
34.2003572071
 40
0.8196721311
 50
90.0
 51
180.0
  0
ARC
  8
0
 62
7
  6
CONTINUOUS
 10
151.3770204959
 20
33.9544555678
 40
0.4098360656
 50
180.0
 51
270.0
  0
ARC
  8
0
 62
7
  6
CONTINUOUS
 10
157.4425942664
 20
34.6101932727
 40
0.4098360656
 50
0.0
 51
90.0
  0
SOLID
  8
0
 62
7
  6
CONTINUOUS
 10
156.279992028
 20
31.9488752009
 11
156.279992028
 21
32.1101936845
 12
156.5690540869
 22
31.9488752009
 13
156.5690540869
 23
32.1101936845
  0
SOLID
  8
0
 62
7
  6
CONTINUOUS
 10
150.5565542799
 20
31.6262382337
 11
150.9612418074
 21
31.5939740028
 12
150.2096793212
 22
31.5939740028
 13
150.2096793212
 23
31.5939740028
  0
SOLID
  8
0
 62
7
  6
CONTINUOUS
 10
150.0362418212
 20
31.5617111435
 11
150.2096793212
 21
31.5939740028
 12
150.9612418074
 22
31.5939740028
 13
150.9612418074
 23
31.5939740028
  0
SOLID
  8
0
 62
7
  6
CONTINUOUS
 10
150.9612418074
 20
31.5939740028
 11
151.1924917523
 21
31.5294468402
 12
150.0362418212
 22
31.5617111435
 13
150.0362418212
 23
31.5617111435
  0
SOLID
  8
0
 62
7
  6
CONTINUOUS
 10
149.8628043005
 20
31.49718259
 11
150.0362418212
 21
31.5617111435
 12
151.1924917523
 22
31.5294468402
 13
151.1924917523
 23
31.5294468402
  0
SOLID
  8
0
 62
7
  6
CONTINUOUS
 10
149.8628043005
 20
31.49718259
 11
151.1924917523
 21
31.5294468402
 12
150.498741835
 22
31.49718259
 13
150.498741835
 23
31.49718259
  0
SOLID
  8
0
 62
7
  6
CONTINUOUS
 10
150.498741835
 20
31.49718259
 11
151.1924917523
 21
31.5294468402
 12
150.9034292799
 22
31.4649197501
 13
150.9034292799
 23
31.4649197501
  0
SOLID
  8
0
 62
7
  6
CONTINUOUS
 10
151.1924917523
 20
31.5294468402
 11
151.3659292523
 21
31.4326554468
 12
150.9034292799
 22
31.4649197501
 13
150.9034292799
 23
31.4649197501
  0
SOLID
  8
0
 62
7
  6
CONTINUOUS
 10
151.0768668626
 20
31.4003926599
 11
150.9034292799
 21
31.4649197501
 12
151.3659292523
 22
31.4326554468
 13
151.3659292523
 23
31.4326554468
  0
SOLID
  8
0
 62
7
  6
CONTINUOUS
 10
151.0768668626
 20
31.4003926599
 11
151.3659292523
 21
31.4326554468
 12
151.1346793074
 22
31.3036013776
 13
151.1346793074
 23
31.3036013776
  0
SOLID
  8
0
 62
7
  6
CONTINUOUS
 10
151.3659292523
 20
31.4326554468
 11
151.4237418626
 21
31.3036013776
 12
151.1346793074
 22
31.3036013776
 13
151.1346793074
 23
31.3036013776
  0
SOLID
  8
0
 62
7
  6
CONTINUOUS
 10
152.4643666972
 20
31.5939739754
 11
152.6956168074
 21
31.6262382787
 12
152.9268669177
 22
31.6262382787
 13
152.9268669177
 23
31.6262382787
  0
SOLID
  8
0
 62
7
  6
CONTINUOUS
 10
152.9268669177
 20
31.6262382787
 11
153.1003044177
 21
31.5939739754
 12
152.4643666972
 22
31.5939739754
 13
152.4643666972
 23
31.5939739754
  0
SOLID
  8
0
 62
7
  6
CONTINUOUS
 10
152.2909293626
 20
31.5294468852
 11
152.4643666972
 21
31.5939739754
 12
153.1003044177
 22
31.5939739754
 13
153.1003044177
 23
31.5939739754
  0
SOLID
  8
0
 62
7
  6
CONTINUOUS
 10
153.1003044177
 20
31.5939739754
 11
153.2737419177
 21
31.5294468852
 12
152.2909293626
 22
31.5294468852
 13
152.2909293626
 23
31.5294468852
  0
SOLID
  8
0
 62
7
  6
CONTINUOUS
 10
153.2737419177
 20
31.5294468852
 11
152.6956168074
 21
31.4971825369
 12
152.2909293626
 22
31.5294468852
 13
152.2909293626
 23
31.5294468852
  0
SOLID
  8
0
 62
7
  6
CONTINUOUS
 10
152.1753043074
 20
31.4649197951
 11
152.2909293626
 21
31.5294468852
 12
152.6956168074
 22
31.4971825369
 13
152.6956168074
 23
31.4971825369
  0
SOLID
  8
0
 62
7
  6
CONTINUOUS
 10
152.6956168074
 20
31.4971825369
 11
152.4643666972
 21
31.4649197951
 12
152.1753043074
 22
31.4649197951
 13
152.1753043074
 23
31.4649197951
  0
SOLID
  8
0
 62
7
  6
CONTINUOUS
 10
152.6956168074
 20
31.4971825369
 11
153.2737419177
 21
31.5294468852
 12
152.9268669177
 22
31.4649197951
 13
152.9268669177
 23
31.4649197951
  0
SOLID
  8
0
 62
7
  6
CONTINUOUS
 10
153.2737419177
 20
31.5294468852
 11
153.3893668074
 21
31.4649197951
 12
152.9268669177
 22
31.4649197951
 13
152.9268669177
 23
31.4649197951
  0
SOLID
  8
0
 62
7
  6
CONTINUOUS
 10
153.0424918074
 20
31.4326554468
 11
152.9268669177
 21
31.4649197951
 12
153.3893668074
 22
31.4649197951
 13
153.3893668074
 23
31.4649197951
  0
SOLID
  8
0
 62
7
  6
CONTINUOUS
 10
153.3893668074
 20
31.4649197951
 11
153.4471794177
 21
31.4003927049
 12
153.0424918074
 22
31.4326554468
 13
153.0424918074
 23
31.4326554468
  0
SOLID
  8
0
 62
7
  6
CONTINUOUS
 10
153.1581166972
 20
31.3681283566
 11
153.0424918074
 21
31.4326554468
 12
153.4471794177
 22
31.4003927049
 13
153.4471794177
 23
31.4003927049
  0
SOLID
  8
0
 62
7
  6
CONTINUOUS
 10
153.1581166972
 20
31.3681283566
 11
153.4471794177
 21
31.4003927049
 12
153.2159293074
 22
31.2390742213
 13
153.2159293074
 23
31.2390742213
  0
SOLID
  8
0
 62
7
  6
CONTINUOUS
 10
153.4471794177
 20
31.4003927049
 11
153.5049916972
 21
31.2390742213
 12
153.2159293074
 22
31.2390742213
 13
153.2159293074
 23
31.2390742213
  0
SOLID
  8
0
 62
7
  6
CONTINUOUS
 10
152.4643666972
 20
31.4649197951
 11
152.2909293626
 21
31.4003927049
 12
152.1753043074
 22
31.4649197951
 13
152.1753043074
 23
31.4649197951
  0
SOLID
  8
0
 62
7
  6
CONTINUOUS
 10
152.2909293626
 20
31.4003927049
 11
152.1753043074
 21
31.3358640533
 12
152.1753043074
 22
31.4649197951
 13
152.1753043074
 23
31.4649197951
  0
SOLID
  8
0
 62
7
  6
CONTINUOUS
 10
152.1753043074
 20
31.3358640533
 11
151.8862417523
 21
30.5938002869
 12
152.1753043074
 22
31.4649197951
 13
152.1753043074
 23
31.4649197951
  0
SOLID
  8
0
 62
7
  6
CONTINUOUS
 10
152.1753043074
 20
31.4649197951
 11
151.8862417523
 21
30.5938002869
 12
152.1753043074
 22
32.1101937295
 13
152.1753043074
 23
32.1101937295
  0
SOLID
  8
0
 62
7
  6
CONTINUOUS
 10
151.8862417523
 20
30.5938002869
 11
151.8862417523
 21
32.1101937295
 12
152.1753043074
 22
32.1101937295
 13
152.1753043074
 23
32.1101937295
  0
SOLID
  8
0
 62
7
  6
CONTINUOUS
 10
152.1753043074
 20
31.3358640533
 11
152.1753043074
 21
30.5938002869
 12
151.8862417523
 22
30.5938002869
 13
151.8862417523
 23
30.5938002869
  0
SOLID
  8
0
 62
7
  6
CONTINUOUS
 10
153.2159293074
 20
30.5938002869
 11
153.2159293074
 21
31.2390742213
 12
153.5049916972
 22
31.2390742213
 13
153.5049916972
 23
31.2390742213
  0
SOLID
  8
0
 62
7
  6
CONTINUOUS
 10
153.5049916972
 20
31.2390742213
 11
153.5049916972
 21
30.5938002869
 12
153.2159293074
 22
30.5938002869
 13
153.2159293074
 23
30.5938002869
  0
SOLID
  8
0
 62
7
  6
CONTINUOUS
 10
154.2565543074
 20
31.5939738288
 11
154.6612419177
 21
31.6262385959
 12
155.0081169177
 22
31.6262385959
 13
155.0081169177
 23
31.6262385959
  0
SOLID
  8
0
 62
7
  6
CONTINUOUS
 10
155.0081169177
 20
31.6262385959
 11
155.3549915869
 21
31.5939738288
 12
154.2565543074
 22
31.5939738288
 13
154.2565543074
 23
31.5939738288
  0
SOLID
  8
0
 62
7
  6
CONTINUOUS
 10
154.1409294177
 20
31.5617111435
 11
154.2565543074
 21
31.5939738288
 12
155.3549915869
 22
31.5939738288
 13
155.3549915869
 23
31.5939738288
  0
SOLID
  8
0
 62
7
  6
CONTINUOUS
 10
155.3549915869
 20
31.5939738288
 11
155.5284290869
 21
31.5294468402
 12
154.1409294177
 22
31.5617111435
 13
154.1409294177
 23
31.5617111435
  0
SOLID
  8
0
 62
7
  6
CONTINUOUS
 10
154.0253041972
 20
31.4971826249
 11
154.1409294177
 21
31.5617111435
 12
155.5284290869
 22
31.5294468402
 13
155.5284290869
 23
31.5294468402
  0
SOLID
  8
0
 62
7
  6
CONTINUOUS
 10
154.0253041972
 20
31.4971826249
 11
155.5284290869
 21
31.5294468402
 12
154.6612419177
 22
31.4971826249
 13
154.6612419177
 23
31.4971826249
  0
SOLID
  8
0
 62
7
  6
CONTINUOUS
 10
154.6612419177
 20
31.4971826249
 11
155.5284290869
 21
31.5294468402
 12
155.0081169177
 22
31.4971826249
 13
155.0081169177
 23
31.4971826249
  0
SOLID
  8
0
 62
7
  6
CONTINUOUS
 10
155.0081169177
 20
31.4971826249
 11
155.5284290869
 21
31.5294468402
 12
155.239367028
 22
31.4649194065
 13
155.239367028
 23
31.4649194065
  0
SOLID
  8
0
 62
7
  6
CONTINUOUS
 10
155.5284290869
 20
31.5294468402
 11
155.6440543074
 21
31.4649194065
 12
155.239367028
 22
31.4649194065
 13
155.239367028
 23
31.4649194065
  0
SOLID
  8
0
 62
7
  6
CONTINUOUS
 10
153.9674919177
 20
31.4326554138
 11
154.0253041972
 21
31.4971826249
 12
154.6612419177
 22
31.4971826249
 13
154.6612419177
 23
31.4971826249
  0
SOLID
  8
0
 62
7
  6
CONTINUOUS
 10
155.3549915869
 20
31.4326554138
 11
155.239367028
 21
31.4649194065
 12
155.6440543074
 22
31.4649194065
 13
155.6440543074
 23
31.4649194065
  0
SOLID
  8
0
 62
7
  6
CONTINUOUS
 10
155.3549915869
 20
31.4326554138
 11
155.6440543074
 21
31.4649194065
 12
155.412804528
 22
31.3681282026
 13
155.412804528
 23
31.3681282026
  0
SOLID
  8
0
 62
7
  6
CONTINUOUS
 10
155.6440543074
 20
31.4649194065
 11
155.7018665869
 21
31.3681282026
 12
155.412804528
 22
31.3681282026
 13
155.412804528
 23
31.3681282026
  0
SOLID
  8
0
 62
7
  6
CONTINUOUS
 10
155.412804528
 20
31.2713369632
 11
155.412804528
 21
31.3681282026
 12
155.7018665869
 22
31.3681282026
 13
155.7018665869
 23
31.3681282026
  0
SOLID
  8
0
 62
7
  6
CONTINUOUS
 10
155.412804528
 20
31.2713369632
 11
155.7018665869
 21
31.3681282026
 12
155.412804528
 22
31.1422827828
 13
155.412804528
 23
31.1422827828
  0
SOLID
  8
0
 62
7
  6
CONTINUOUS
 10
155.412804528
 20
31.1422827828
 11
155.7018665869
 21
31.3681282026
 12
155.412804528
 22
30.9487004259
 13
155.412804528
 23
30.9487004259
  0
SOLID
  8
0
 62
7
  6
CONTINUOUS
 10
155.7018665869
 20
31.3681282026
 11
155.7018665869
 21
30.8519086025
 12
155.412804528
 22
30.9487004259
 13
155.412804528
 23
30.9487004259
  0
SOLID
  8
0
 62
7
  6
CONTINUOUS
 10
157.6096790869
 20
31.5939736268
 11
157.840929528
 21
31.6262383465
 12
158.0721793074
 22
31.6262383465
 13
158.0721793074
 23
31.6262383465
  0
SOLID
  8
0
 62
7
  6
CONTINUOUS
 10
158.0721793074
 20
31.6262383465
 11
158.2456168074
 21
31.5939736268
 12
157.6096790869
 22
31.5939736268
 13
157.6096790869
 23
31.5939736268
  0
SOLID
  8
0
 62
7
  6
CONTINUOUS
 10
157.4362415869
 20
31.5294472848
 11
157.6096790869
 21
31.5939736268
 12
158.2456168074
 22
31.5939736268
 13
158.2456168074
 23
31.5939736268
  0
SOLID
  8
0
 62
7
  6
CONTINUOUS
 10
158.2456168074
 20
31.5939736268
 11
158.4190543074
 21
31.5294472848
 12
157.4362415869
 22
31.5294472848
 13
157.4362415869
 23
31.5294472848
  0
SOLID
  8
0
 62
7
  6
CONTINUOUS
 10
158.4190543074
 20
31.5294472848
 11
157.840929528
 21
31.4971825369
 12
157.4362415869
 22
31.5294472848
 13
157.4362415869
 23
31.5294472848
  0
SOLID
  8
0
 62
7
  6
CONTINUOUS
 10
157.320617028
 20
31.4649199103
 11
157.4362415869
 21
31.5294472848
 12
157.840929528
 22
31.4971825369
 13
157.840929528
 23
31.4971825369
  0
SOLID
  8
0
 62
7
  6
CONTINUOUS
 10
157.840929528
 20
31.4971825369
 11
157.6096790869
 21
31.4649199103
 12
157.320617028
 22
31.4649199103
 13
157.320617028
 23
31.4649199103
  0
SOLID
  8
0
 62
7
  6
CONTINUOUS
 10
157.840929528
 20
31.4971825369
 11
158.4190543074
 21
31.5294472848
 12
158.0721793074
 22
31.4649199103
 13
158.0721793074
 23
31.4649199103
  0
SOLID
  8
0
 62
7
  6
CONTINUOUS
 10
158.4190543074
 20
31.5294472848
 11
158.534679528
 21
31.4649199103
 12
158.0721793074
 22
31.4649199103
 13
158.0721793074
 23
31.4649199103
  0
SOLID
  8
0
 62
7
  6
CONTINUOUS
 10
158.187804528
 20
31.4326554468
 11
158.0721793074
 21
31.4649199103
 12
158.534679528
 22
31.4649199103
 13
158.534679528
 23
31.4649199103
  0
SOLID
  8
0
 62
7
  6
CONTINUOUS
 10
158.187804528
 20
31.4326554468
 11
158.534679528
 21
31.4649199103
 12
158.3034290869
 22
31.3681288486
 13
158.3034290869
 23
31.3681288486
  0
SOLID
  8
0
 62
7
  6
CONTINUOUS
 10
158.534679528
 20
31.4649199103
 11
158.5924918074
 21
31.3681288486
 12
158.3034290869
 22
31.3681288486
 13
158.3034290869
 23
31.3681288486
  0
SOLID
  8
0
 62
7
  6
CONTINUOUS
 10
158.361242028
 20
31.2068093799
 11
158.3034290869
 21
31.3681288486
 12
158.5924918074
 22
31.3681288486
 13
158.5924918074
 23
31.3681288486
  0
SOLID
  8
0
 62
7
  6
CONTINUOUS
 10
158.5924918074
 20
31.3681288486
 11
158.6503040869
 21
31.2068093799
 12
158.361242028
 22
31.2068093799
 13
158.361242028
 23
31.2068093799
  0
SOLID
  8
0
 62
7
  6
CONTINUOUS
 10
157.6096790869
 20
31.4649199103
 11
157.4362415869
 21
31.4003926599
 12
157.320617028
 22
31.4649199103
 13
157.320617028
 23
31.4649199103
  0
SOLID
  8
0
 62
7
  6
CONTINUOUS
 10
157.4362415869
 20
31.4003926599
 11
157.320617028
 21
31.3358640533
 12
157.320617028
 22
31.4649199103
 13
157.320617028
 23
31.4649199103
  0
SOLID
  8
0
 62
7
  6
CONTINUOUS
 10
157.320617028
 20
31.3358640533
 11
157.0315543074
 21
30.5938003547
 12
157.320617028
 22
31.4649199103
 13
157.320617028
 23
31.4649199103
  0
SOLID
  8
0
 62
7
  6
CONTINUOUS
 10
157.320617028
 20
31.4649199103
 11
157.0315543074
 21
30.5938003547
 12
157.320617028
 22
31.6262383465
 13
157.320617028
 23
31.6262383465
  0
SOLID
  8
0
 62
7
  6
CONTINUOUS
 10
157.0315543074
 20
30.5938003547
 11
157.0315543074
 21
31.6262383465
 12
157.320617028
 22
31.6262383465
 13
157.320617028
 23
31.6262383465
  0
SOLID
  8
0
 62
7
  6
CONTINUOUS
 10
157.320617028
 20
31.3358640533
 11
157.320617028
 21
30.5938003547
 12
157.0315543074
 22
30.5938003547
 13
157.0315543074
 23
30.5938003547
  0
SOLID
  8
0
 62
7
  6
CONTINUOUS
 10
158.361242028
 20
30.5938003547
 11
158.361242028
 21
31.2068093799
 12
158.6503040869
 22
31.2068093799
 13
158.6503040869
 23
31.2068093799
  0
SOLID
  8
0
 62
7
  6
CONTINUOUS
 10
158.6503040869
 20
31.2068093799
 11
158.6503040869
 21
30.5938003547
 12
158.361242028
 22
30.5938003547
 13
158.361242028
 23
30.5938003547
  0
SOLID
  8
0
 62
7
  6
CONTINUOUS
 10
159.4596793074
 20
31.5939739474
 11
159.8065543074
 21
31.6262381969
 12
160.1534293074
 22
31.6262381969
 13
160.1534293074
 23
31.6262381969
  0
SOLID
  8
0
 62
7
  6
CONTINUOUS
 10
160.1534293074
 20
31.6262381969
 11
160.5003043074
 21
31.5939739474
 12
159.4596793074
 22
31.5939739474
 13
159.4596793074
 23
31.5939739474
  0
SOLID
  8
0
 62
7
  6
CONTINUOUS
 10
159.228429528
 20
31.5294468402
 11
159.4596793074
 21
31.5939739474
 12
160.5003043074
 22
31.5939739474
 13
160.5003043074
 23
31.5939739474
  0
SOLID
  8
0
 62
7
  6
CONTINUOUS
 10
159.228429528
 20
31.5294468402
 11
160.5003043074
 21
31.5939739304
 12
160.6737418074
 22
31.5617111435
 13
160.6737418074
 23
31.5617111435
  0
SOLID
  8
0
 62
7
  6
CONTINUOUS
 10
159.228429528
 20
31.5294468402
 11
160.6737418074
 21
31.5617111435
 12
159.8065543074
 22
31.4971825592
 13
159.8065543074
 23
31.4971825592
  0
SOLID
  8
0
 62
7
  6
CONTINUOUS
 10
159.8065543074
 20
31.4971825592
 11
160.6737418074
 21
31.5617111435
 12
160.1534293074
 22
31.4971825592
 13
160.1534293074
 23
31.4971825592
  0
SOLID
  8
0
 62
7
  6
CONTINUOUS
 10
160.6737418074
 20
31.5617111435
 11
160.8471793074
 21
31.4971825592
 12
160.1534293074
 22
31.4971825592
 13
160.1534293074
 23
31.4971825592
  0
SOLID
  8
0
 62
7
  6
CONTINUOUS
 10
160.5003043074
 20
31.4649197501
 11
160.1534293074
 21
31.4971825592
 12
160.8471793074
 22
31.4971825592
 13
160.8471793074
 23
31.4971825592
  0
SOLID
  8
0
 62
7
  6
CONTINUOUS
 10
159.1128043074
 20
31.4326555427
 11
159.228429528
 21
31.5294468402
 12
159.8065543074
 22
31.4971825592
 13
159.8065543074
 23
31.4971825592
  0
SOLID
  8
0
 62
7
  6
CONTINUOUS
 10
160.5003043074
 20
31.4649197501
 11
160.8471793074
 21
31.4971825592
 12
160.615929528
 22
31.4326555427
 13
160.615929528
 23
31.4326555427
  0
SOLID
  8
0
 62
7
  6
CONTINUOUS
 10
160.615929528
 20
31.4326555427
 11
160.8471793074
 21
31.4971825592
 12
160.6737418074
 22
31.3681283005
 13
160.6737418074
 23
31.3681283005
  0
SOLID
  8
0
 62
7
  6
CONTINUOUS
 10
160.8471793074
 20
31.4971825592
 11
160.9628038663
 21
31.3681283005
 12
160.6737418074
 22
31.3681283005
 13
160.6737418074
 23
31.3681283005
  0
SOLID
  8
0
 62
7
  6
CONTINUOUS
 10
150.2674918074
 20
31.4649197501
 11
149.7471793074
 21
31.4326554237
 12
150.498741835
 22
31.4971824493
 13
150.498741835
 23
31.4971824493
  0
SOLID
  8
0
 62
7
  6
CONTINUOUS
 10
149.7471793074
 20
31.4326554237
 11
149.8628043005
 21
31.4971824493
 12
150.498741835
 22
31.4971824493
 13
150.498741835
 23
31.4971824493
  0
SOLID
  8
0
 62
7
  6
CONTINUOUS
 10
150.2674918074
 20
31.4649197501
 11
150.1518667936
 21
31.4326554237
 12
149.7471793074
 22
31.4326554237
 13
149.7471793074
 23
31.4326554237
  0
SOLID
  8
0
 62
7
  6
CONTINUOUS
 10
149.6315543091
 20
31.3036012664
 11
149.7471793074
 21
31.4326554237
 12
150.1518667936
 22
31.4326554237
 13
150.1518667936
 23
31.4326554237
  0
SOLID
  8
0
 62
7
  6
CONTINUOUS
 10
153.9674919177
 20
31.4326554237
 11
154.6612419177
 21
31.4971825369
 12
154.4299918074
 22
31.4649197501
 13
154.4299918074
 23
31.4649197501
  0
SOLID
  8
0
 62
7
  6
CONTINUOUS
 10
154.4299918074
 20
31.4649197501
 11
154.3143669177
 21
31.4326554237
 12
153.9674919177
 22
31.4326554237
 13
153.9674919177
 23
31.4326554237
  0
SOLID
  8
0
 62
7
  6
CONTINUOUS
 10
153.9674919177
 20
31.3681283335
 11
153.9674919177
 21
31.4326554237
 12
154.3143669177
 22
31.4326554237
 13
154.3143669177
 23
31.4326554237
  0
SOLID
  8
0
 62
7
  6
CONTINUOUS
 10
154.3143669177
 20
31.4326554237
 11
154.2565543074
 21
31.3681283335
 12
153.9674919177
 22
31.3681283335
 13
153.9674919177
 23
31.3681283335
  0
SOLID
  8
0
 62
7
  6
CONTINUOUS
 10
159.1128043074
 20
31.4326555528
 11
159.8065543074
 21
31.4971825369
 12
159.575304528
 22
31.4649197501
 13
159.575304528
 23
31.4649197501
  0
SOLID
  8
0
 62
7
  6
CONTINUOUS
 10
159.575304528
 20
31.4649197501
 11
159.4596793074
 21
31.4326555528
 12
159.1128043074
 22
31.4326555528
 13
159.1128043074
 23
31.4326555528
  0
SOLID
  8
0
 62
7
  6
CONTINUOUS
 10
159.1128043074
 20
31.3681284626
 11
159.1128043074
 21
31.4326555528
 12
159.4596793074
 22
31.4326555528
 13
159.4596793074
 23
31.4326555528
  0
SOLID
  8
0
 62
7
  6
CONTINUOUS
 10
159.4596793074
 20
31.4326555528
 11
159.401867028
 21
31.3681284626
 12
159.1128043074
 22
31.3681284626
 13
159.1128043074
 23
31.3681284626
  0
SOLID
  8
0
 62
7
  6
CONTINUOUS
 10
159.228429528
 20
31.2390741763
 11
159.1128043074
 21
31.3681284626
 12
159.401867028
 22
31.3681284626
 13
159.401867028
 23
31.3681284626
  0
SOLID
  8
0
 62
7
  6
CONTINUOUS
 10
149.6315543091
 20
31.3036012664
 11
150.1518667936
 21
31.4326554468
 12
149.9784292936
 22
31.3358640533
 13
149.9784292936
 23
31.3358640533
  0
SOLID
  8
0
 62
7
  6
CONTINUOUS
 10
149.9784292936
 20
31.3358640533
 11
149.9206168074
 21
31.2713369632
 12
149.6315543091
 22
31.3036012664
 13
149.6315543091
 23
31.3036012664
  0
SOLID
  8
0
 62
7
  6
CONTINUOUS
 10
149.5737418074
 20
31.1100184796
 11
149.6315543091
 21
31.3036012664
 12
149.9206168074
 22
31.2713369632
 13
149.9206168074
 23
31.2713369632
  0
SOLID
  8
0
 62
7
  6
CONTINUOUS
 10
154.4299918074
 20
31.2390741763
 11
154.7768668074
 21
31.271336924
 12
155.412804528
 22
31.271336924
 13
155.412804528
 23
31.271336924
  0
SOLID
  8
0
 62
7
  6
CONTINUOUS
 10
154.4299918074
 20
31.2390741763
 11
155.412804528
 21
31.271336924
 12
154.1987416972
 22
31.1745462761
 13
154.1987416972
 23
31.1745462761
  0
SOLID
  8
0
 62
7
  6
CONTINUOUS
 10
154.1987416972
 20
31.1745462761
 11
155.412804528
 21
31.271336924
 12
154.7768668074
 22
31.1422827436
 13
154.7768668074
 23
31.1422827436
  0
SOLID
  8
0
 62
7
  6
CONTINUOUS
 10
155.412804528
 20
31.271336924
 11
155.412804528
 21
31.1422827436
 12
154.7768668074
 22
31.1422827436
 13
154.7768668074
 23
31.1422827436
  0
SOLID
  8
0
 62
7
  6
CONTINUOUS
 10
159.228429528
 20
31.2390745501
 11
159.401867028
 21
31.3681283566
 12
159.4596793074
 22
31.3036012664
 13
159.4596793074
 23
31.3036012664
  0
SOLID
  8
0
 62
7
  6
CONTINUOUS
 10
159.4596793074
 20
31.3036012664
 11
159.6331168074
 21
31.2390745501
 12
159.228429528
 22
31.2390745501
 13
159.228429528
 23
31.2390745501
  0
SOLID
  8
0
 62
7
  6
CONTINUOUS
 10
159.4596793074
 20
31.1422827828
 11
159.228429528
 21
31.2390745501
 12
159.6331168074
 22
31.2390745501
 13
159.6331168074
 23
31.2390745501
  0
SOLID
  8
0
 62
7
  6
CONTINUOUS
 10
159.6331168074
 20
31.2390745501
 11
160.615929528
 21
31.0777556927
 12
159.4596793074
 22
31.1422827828
 13
159.4596793074
 23
31.1422827828
  0
SOLID
  8
0
 62
7
  6
CONTINUOUS
 10
160.442492028
 20
30.9809646623
 11
159.4596793074
 21
31.1422827828
 12
160.615929528
 22
31.0777556927
 13
160.615929528
 23
31.0777556927
  0
SOLID
  8
0
 62
7
  6
CONTINUOUS
 10
160.615929528
 20
31.0777556927
 11
160.8471793074
 21
30.9809646623
 12
160.442492028
 22
30.9809646623
 13
160.442492028
 23
30.9809646623
  0
SOLID
  8
0
 62
7
  6
CONTINUOUS
 10
160.615929528
 20
30.9164372091
 11
160.442492028
 21
30.9809646623
 12
160.8471793074
 22
30.9809646623
 13
160.8471793074
 23
30.9809646623
  0
SOLID
  8
0
 62
7
  6
CONTINUOUS
 10
160.615929528
 20
30.9164372091
 11
160.8471793074
 21
30.9809646623
 12
160.6737418074
 22
30.8519089441
 13
160.6737418074
 23
30.8519089441
  0
SOLID
  8
0
 62
7
  6
CONTINUOUS
 10
160.8471793074
 20
30.9809646623
 11
160.9628038663
 21
30.8519089441
 12
160.6737418074
 22
30.8519089441
 13
160.6737418074
 23
30.8519089441
  0
SOLID
  8
0
 62
7
  6
CONTINUOUS
 10
160.615929528
 20
30.7873818593
 11
160.6737418074
 21
30.8519089441
 12
160.9628038663
 22
30.8519089441
 13
160.9628038663
 23
30.8519089441
  0
SOLID
  8
0
 62
7
  6
CONTINUOUS
 10
160.9628038663
 20
30.8519089441
 11
160.9628038663
 21
30.7873818593
 12
160.615929528
 22
30.7873818593
 13
160.615929528
 23
30.7873818593
  0
SOLID
  8
0
 62
7
  6
CONTINUOUS
 10
160.5003043074
 20
30.7551187255
 11
160.615929528
 21
30.7873818593
 12
160.9628038663
 22
30.7873818593
 13
160.9628038663
 23
30.7873818593
  0
SOLID
  8
0
 62
7
  6
CONTINUOUS
 10
160.5003043074
 20
30.7551187255
 11
160.9628038663
 21
30.7873818593
 12
160.269054528
 22
30.7228547745
 13
160.269054528
 23
30.7228547745
  0
SOLID
  8
0
 62
7
  6
CONTINUOUS
 10
160.9628038663
 20
30.7873818593
 11
160.8471793074
 21
30.6905916353
 12
160.269054528
 22
30.7228547745
 13
160.269054528
 23
30.7228547745
  0
SOLID
  8
0
 62
7
  6
CONTINUOUS
 10
160.8471793074
 20
30.6905916353
 11
159.401867028
 21
30.658327332
 12
160.269054528
 22
30.7228547745
 13
160.269054528
 23
30.7228547745
  0
SOLID
  8
0
 62
7
  6
CONTINUOUS
 10
160.269054528
 20
30.7228547745
 11
159.401867028
 21
30.658327332
 12
159.922179528
 22
30.7228547745
 13
159.922179528
 23
30.7228547745
  0
SOLID
  8
0
 62
7
  6
CONTINUOUS
 10
159.401867028
 20
30.658327332
 11
159.228429528
 21
30.7228547745
 12
159.922179528
 22
30.7228547745
 13
159.922179528
 23
30.7228547745
  0
SOLID
  8
0
 62
7
  6
CONTINUOUS
 10
159.401867028
 20
30.658327332
 11
160.8471793074
 21
30.6905916353
 12
159.575304528
 22
30.6260629858
 13
159.575304528
 23
30.6260629858
  0
SOLID
  8
0
 62
7
  6
CONTINUOUS
 10
160.8471793074
 20
30.6905916353
 11
160.615929528
 21
30.6260629858
 12
159.575304528
 22
30.6260629858
 13
159.575304528
 23
30.6260629858
  0
SOLID
  8
0
 62
7
  6
CONTINUOUS
 10
159.922179528
 20
30.5938006049
 11
159.575304528
 21
30.6260629858
 12
160.615929528
 22
30.6260629858
 13
160.615929528
 23
30.6260629858
  0
SOLID
  8
0
 62
7
  6
CONTINUOUS
 10
160.615929528
 20
30.6260629858
 11
160.269054528
 21
30.5938006049
 12
159.922179528
 22
30.5938006049
 13
159.922179528
 23
30.5938006049
  0
SOLID
  8
0
 62
7
  6
CONTINUOUS
 10
149.5737418074
 20
31.1100184796
 11
149.9206168074
 21
31.2713369632
 12
149.8628043005
 22
31.1422827828
 13
149.8628043005
 23
31.1422827828
  0
SOLID
  8
0
 62
7
  6
CONTINUOUS
 10
149.8628043005
 20
31.1422827828
 11
149.8628043005
 21
31.0454914852
 12
149.5737418074
 22
31.1100184796
 13
149.5737418074
 23
31.1100184796
  0
SOLID
  8
0
 62
7
  6
CONTINUOUS
 10
149.6315543091
 20
30.9164372091
 11
149.5737418074
 21
31.1100184796
 12
149.8628043005
 22
31.0454914852
 13
149.8628043005
 23
31.0454914852
  0
SOLID
  8
0
 62
7
  6
CONTINUOUS
 10
149.8628043005
 20
31.0454914852
 11
149.9784292936
 21
30.8841729058
 12
149.6315543091
 22
30.9164372091
 13
149.6315543091
 23
30.9164372091
  0
SOLID
  8
0
 62
7
  6
CONTINUOUS
 10
149.7471793074
 20
30.7873813202
 11
149.6315543091
 21
30.9164372091
 12
149.9784292936
 22
30.8841729058
 13
149.9784292936
 23
30.8841729058
  0
SOLID
  8
0
 62
7
  6
CONTINUOUS
 10
149.9784292936
 20
30.8841729058
 11
150.1518667936
 21
30.7873813202
 12
149.7471793074
 22
30.7873813202
 13
149.7471793074
 23
30.7873813202
  0
SOLID
  8
0
 62
7
  6
CONTINUOUS
 10
149.8628043005
 20
30.7228547004
 11
149.7471793074
 21
30.7873813202
 12
150.1518667936
 22
30.7873813202
 13
150.1518667936
 23
30.7873813202
  0
SOLID
  8
0
 62
7
  6
CONTINUOUS
 10
150.1518667936
 20
30.7873813202
 11
150.498741835
 21
30.7228547004
 12
149.8628043005
 22
30.7228547004
 13
149.8628043005
 23
30.7228547004
  0
SOLID
  8
0
 62
7
  6
CONTINUOUS
 10
150.0362418212
 20
30.658327332
 11
149.8628043005
 21
30.7228547004
 12
150.498741835
 22
30.7228547004
 13
150.498741835
 23
30.7228547004
  0
SOLID
  8
0
 62
7
  6
CONTINUOUS
 10
154.0831168074
 20
31.1100184386
 11
154.1987416972
 21
31.1745462761
 12
154.7768668074
 22
31.1422827828
 13
154.7768668074
 23
31.1422827828
  0
SOLID
  8
0
 62
7
  6
CONTINUOUS
 10
154.7768668074
 20
31.1422827828
 11
154.5456166972
 21
31.1100184386
 12
154.0831168074
 22
31.1100184386
 13
154.0831168074
 23
31.1100184386
  0
SOLID
  8
0
 62
7
  6
CONTINUOUS
 10
153.9674919177
 20
30.9809642992
 11
154.0831168074
 21
31.1100184386
 12
154.5456166972
 22
31.1100184386
 13
154.5456166972
 23
31.1100184386
  0
SOLID
  8
0
 62
7
  6
CONTINUOUS
 10
154.3143669177
 20
31.0132277988
 11
153.9674919177
 21
30.9809642992
 12
154.4299918074
 22
31.0777556927
 13
154.4299918074
 23
31.0777556927
  0
SOLID
  8
0
 62
7
  6
CONTINUOUS
 10
153.9674919177
 20
30.9809642992
 11
154.5456166972
 21
31.1100184796
 12
154.4299918074
 22
31.0777556927
 13
154.4299918074
 23
31.0777556927
  0
SOLID
  8
0
 62
7
  6
CONTINUOUS
 10
154.3143669177
 20
31.0132277988
 11
154.2565543074
 21
30.9164372091
 12
153.9674919177
 22
30.9809642992
 13
153.9674919177
 23
30.9809642992
  0
SOLID
  8
0
 62
7
  6
CONTINUOUS
 10
153.9674919177
 20
30.8841729058
 11
153.9674919177
 21
30.9809642992
 12
154.2565543074
 22
30.9164372091
 13
154.2565543074
 23
30.9164372091
  0
SOLID
  8
0
 62
7
  6
CONTINUOUS
 10
154.2565543074
 20
30.9164372091
 11
154.2565543074
 21
30.8519086025
 12
153.9674919177
 22
30.8841729058
 13
153.9674919177
 23
30.8841729058
  0
SOLID
  8
0
 62
7
  6
CONTINUOUS
 10
154.0253041972
 20
30.7551187255
 11
153.9674919177
 21
30.8841729058
 12
154.2565543074
 22
30.8519086025
 13
154.2565543074
 23
30.8519086025
  0
SOLID
  8
0
 62
7
  6
CONTINUOUS
 10
155.412804528
 20
30.9487004259
 11
155.7018665869
 21
30.8519086025
 12
155.3549915869
 22
30.8841729058
 13
155.3549915869
 23
30.8841729058
  0
SOLID
  8
0
 62
7
  6
CONTINUOUS
 10
155.1815540869
 20
30.7873815123
 11
155.3549915869
 21
30.8841729058
 12
155.7018665869
 22
30.8519086025
 13
155.7018665869
 23
30.8519086025
  0
SOLID
  8
0
 62
7
  6
CONTINUOUS
 10
155.1815540869
 20
30.7873815123
 11
155.7018665869
 21
30.8519086025
 12
155.412804528
 22
30.7551187255
 13
155.412804528
 23
30.7551187255
  0
SOLID
  8
0
 62
7
  6
CONTINUOUS
 10
155.7018665869
 20
30.8519086025
 11
155.759679528
 21
30.6905916353
 12
155.412804528
 22
30.7551187255
 13
155.412804528
 23
30.7551187255
  0
SOLID
  8
0
 62
7
  6
CONTINUOUS
 10
155.4706168074
 20
30.658327332
 11
155.412804528
 21
30.7551187255
 12
155.759679528
 22
30.6905916353
 13
155.759679528
 23
30.6905916353
  0
SOLID
  8
0
 62
7
  6
CONTINUOUS
 10
155.4706168074
 20
30.658327332
 11
155.759679528
 21
30.6905916353
 12
155.5284290869
 22
30.5938002079
 13
155.5284290869
 23
30.5938002079
  0
SOLID
  8
0
 62
7
  6
CONTINUOUS
 10
155.759679528
 20
30.6905916353
 11
155.8174918074
 21
30.5938002079
 12
155.5284290869
 22
30.5938002079
 13
155.5284290869
 23
30.5938002079
  0
SOLID
  8
0
 62
7
  6
CONTINUOUS
 10
151.0768668626
 20
30.8196456577
 11
151.1346793074
 21
30.9164373395
 12
151.4237418626
 22
30.9164373395
 13
151.4237418626
 23
30.9164373395
  0
SOLID
  8
0
 62
7
  6
CONTINUOUS
 10
151.4237418626
 20
30.9164373395
 11
151.3659292523
 21
30.7873815123
 12
151.0768668626
 22
30.8196456577
 13
151.0768668626
 23
30.8196456577
  0
SOLID
  8
0
 62
7
  6
CONTINUOUS
 10
150.9034292799
 20
30.7551187255
 11
151.0768668626
 21
30.8196456577
 12
151.3659292523
 22
30.7873815123
 13
151.3659292523
 23
30.7873815123
  0
SOLID
  8
0
 62
7
  6
CONTINUOUS
 10
150.9034292799
 20
30.7551187255
 11
151.3659292523
 21
30.7873815123
 12
150.498741835
 22
30.7228544222
 13
150.498741835
 23
30.7228544222
  0
SOLID
  8
0
 62
7
  6
CONTINUOUS
 10
151.3659292523
 20
30.7873815123
 11
151.1924917523
 21
30.6905916353
 12
150.498741835
 22
30.7228544222
 13
150.498741835
 23
30.7228544222
  0
SOLID
  8
0
 62
7
  6
CONTINUOUS
 10
150.0362418212
 20
30.658327332
 11
150.498741835
 21
30.7228544222
 12
151.1924917523
 22
30.6905916353
 13
151.1924917523
 23
30.6905916353
  0
SOLID
  8
0
 62
7
  6
CONTINUOUS
 10
150.0362418212
 20
30.658327332
 11
151.1924917523
 21
30.6905916353
 12
150.2096793212
 22
30.6260631011
 13
150.2096793212
 23
30.6260631011
  0
SOLID
  8
0
 62
7
  6
CONTINUOUS
 10
151.1924917523
 20
30.6905916353
 11
150.9612418074
 21
30.6260631011
 12
150.2096793212
 22
30.6260631011
 13
150.2096793212
 23
30.6260631011
  0
SOLID
  8
0
 62
7
  6
CONTINUOUS
 10
150.5565542799
 20
30.5938002419
 11
150.2096793212
 21
30.6260631011
 12
150.9612418074
 22
30.6260631011
 13
150.9612418074
 23
30.6260631011
  0
SOLID
  8
0
 62
7
  6
CONTINUOUS
 10
154.0253041972
 20
30.7551187255
 11
154.2565543074
 21
30.8519086025
 12
154.3143669177
 22
30.7873815123
 13
154.3143669177
 23
30.7873815123
  0
SOLID
  8
0
 62
7
  6
CONTINUOUS
 10
154.3143669177
 20
30.7873815123
 11
154.5456166972
 21
30.7228544222
 12
154.0253041972
 22
30.7551187255
 13
154.0253041972
 23
30.7551187255
  0
SOLID
  8
0
 62
7
  6
CONTINUOUS
 10
154.1987416972
 20
30.658327332
 11
154.0253041972
 21
30.7551187255
 12
154.5456166972
 22
30.7228544222
 13
154.5456166972
 23
30.7228544222
  0
SOLID
  8
0
 62
7
  6
CONTINUOUS
 10
154.8924916972
 20
30.7228544637
 11
155.1815540869
 21
30.7873815123
 12
155.412804528
 22
30.7551187255
 13
155.412804528
 23
30.7551187255
  0
SOLID
  8
0
 62
7
  6
CONTINUOUS
 10
155.412804528
 20
30.7551187255
 11
155.3549915869
 21
30.6905916353
 12
154.8924916972
 22
30.7228544637
 13
154.8924916972
 23
30.7228544637
  0
SOLID
  8
0
 62
7
  6
CONTINUOUS
 10
155.3549915869
 20
30.6905916353
 11
154.1987416972
 21
30.658327332
 12
154.8924916972
 22
30.7228544637
 13
154.8924916972
 23
30.7228544637
  0
SOLID
  8
0
 62
7
  6
CONTINUOUS
 10
154.1987416972
 20
30.658327332
 11
154.5456166972
 21
30.7228544637
 12
154.8924916972
 22
30.7228544637
 13
154.8924916972
 23
30.7228544637
  0
SOLID
  8
0
 62
7
  6
CONTINUOUS
 10
154.1987416972
 20
30.658327332
 11
155.3549915869
 21
30.6905916353
 12
154.3143669177
 22
30.6260630541
 13
154.3143669177
 23
30.6260630541
  0
SOLID
  8
0
 62
7
  6
CONTINUOUS
 10
155.3549915869
 20
30.6905916353
 11
155.1815540869
 21
30.6260630541
 12
154.3143669177
 22
30.6260630541
 13
154.3143669177
 23
30.6260630541
  0
SOLID
  8
0
 62
7
  6
CONTINUOUS
 10
154.5456166972
 20
30.5938002188
 11
154.3143669177
 21
30.6260630541
 12
155.1815540869
 22
30.6260630541
 13
155.1815540869
 23
30.6260630541
  0
SOLID
  8
0
 62
7
  6
CONTINUOUS
 10
155.1815540869
 20
30.6260630541
 11
154.8924916972
 21
30.5938002188
 12
154.5456166972
 22
30.5938002188
 13
154.5456166972
 23
30.5938002188
  0
SOLID
  8
0
 62
7
  6
CONTINUOUS
 10
159.575304528
 20
30.7551187255
 11
159.228429528
 21
30.7228544637
 12
159.4596793074
 22
30.7873815123
 13
159.4596793074
 23
30.7873815123
  0
SOLID
  8
0
 62
7
  6
CONTINUOUS
 10
159.4596793074
 20
30.7873815123
 11
159.228429528
 21
30.7228544637
 12
159.401867028
 22
30.851908644
 13
159.401867028
 23
30.851908644
  0
SOLID
  8
0
 62
7
  6
CONTINUOUS
 10
159.228429528
 20
30.7228544637
 11
159.1128043074
 21
30.851908644
 12
159.401867028
 22
30.851908644
 13
159.401867028
 23
30.851908644
  0
SOLID
  8
0
 62
7
  6
CONTINUOUS
 10
159.575304528
 20
30.7551187255
 11
159.922179528
 21
30.7228544637
 12
159.228429528
 22
30.7228544637
 13
159.228429528
 23
30.7228544637
  0
SOLID
  8
0
 62
7
  6
CONTINUOUS
 10
156.279992028
 20
30.5938002419
 11
156.279992028
 21
31.6262382337
 12
156.5690540869
 22
30.5938002419
 13
156.5690540869
 23
31.6262382337
  0
ENDBLK
  8
0
  6
BYBLOCK
 62
0
  0
BLOCK
  8
0
 62
2
  6
CONTINUOUS
  2
SYMBOL_3_BL0
 70
64
 10
32.1213064866
 20
19.8534310916
  0
TEXT
  8
0
 62
7
  6
CONTINUOUS
 10
18.3860103289
 20
19.2268451992
  7
TEXTSTYLE_3
 40
2.7338706658
  1
Ammeraal Beltech
 41
1.0
 51
15.0
 72
0
  0
TEXT
  8
0
 62
7
  6
CONTINUOUS
 10
29.1868111546
 20
16.9533085264
  7
TEXTSTYLE_4
 40
1.0935482663
  1
Innovation & Service in Belting
 41
1.0
 72
0
  0
LINE
  8
0
 62
7
  6
CONTINUOUS
 10
12.3614696776
 20
19.9934385078
 11
13.1396216709
 21
23.6543558055
  0
LINE
  8
0
 62
7
  6
CONTINUOUS
 10
23.2347899607
 20
27.3177497171
 11
13.6274394139
 21
24.1961322958
  0
LINE
  8
0
 62
7
  6
CONTINUOUS
 10
12.5867530099
 20
19.3000877048
 11
20.093828271
 21
12.5406867788
  0
LINE
  8
0
 62
7
  6
CONTINUOUS
 10
12.8492874206
 20
20.5352149982
 11
23.6575567857
 21
24.0470345971
  0
LINE
  8
0
 62
7
  6
CONTINUOUS
 10
23.6533516486
 20
13.6972460334
 11
15.2078919798
 21
21.3015720751
  0
LINE
  8
0
 62
7
  6
CONTINUOUS
 10
24.1731743684
 20
26.4728246013
 11
23.1966148312
 21
21.8784731989
  0
LINE
  8
0
 62
7
  6
CONTINUOUS
 10
22.4968128835
 20
18.5861638851
 11
21.810364672
 21
15.3566789607
  0
LINE
  8
0
 62
7
  6
CONTINUOUS
 10
24.8542704669
 20
14.087448211
 11
25.8105020025
 21
18.5861638851
  0
LINE
  8
0
 62
7
  6
CONTINUOUS
 10
26.5103039502
 20
21.8784731989
 11
26.9545457526
 21
23.9684665583
  0
LINE
  8
0
 62
7
  6
CONTINUOUS
 10
20.8069293463
 20
12.3891124661
 11
24.3664527239
 21
13.5456717207
  0
LINE
  8
0
 62
7
  6
CONTINUOUS
 10
23.9478910361
 20
27.1661754044
 11
26.7292624203
 21
24.6618173613
  0
ARC
  8
0
 62
7
  6
CONTINUOUS
 10
13.8527227462
 20
23.5027814928
 40
0.7290321776
 50
108.0
 51
168.0
  0
ARC
  8
0
 62
7
  6
CONTINUOUS
 10
23.4600732931
 20
26.624398914
 40
0.7290321776
 50
348.0
 51
108.0
  0
ARC
  8
0
 62
7
  6
CONTINUOUS
 10
26.2414446773
 20
24.120040871
 40
0.7290321776
 50
348.0
 51
48.0
  0
ARC
  8
0
 62
7
  6
CONTINUOUS
 10
20.581646014
 20
13.0824632691
 40
0.7290321776
 50
228.0
 51
288.0
  0
ARC
  8
0
 62
7
  6
CONTINUOUS
 10
13.0745707529
 20
19.8418641951
 40
0.7290321776
 50
108.0
 51
228.0
  0
ARC
  8
0
 62
7
  6
CONTINUOUS
 10
24.1411693916
 20
14.2390225237
 40
0.7290321776
 50
228.0
 51
348.0
  0
ENDBLK
  8
0
  6
BYBLOCK
 62
0
  0
ENDSEC
  0
SECTION
  2
ENTITIES
  0
TEXT
  8
0
 62
5
  6
CONTINUOUS
 10
96.0
 20
25.636
  7
TEXTSTYLE_2
 40
2.8
  1
Scale :
 41
0.6
 51
0.000019
 72
0
  0
TEXT
  8
0
 62
5
  6
CONTINUOUS
 10
116.0
 20
25.636
  7
TEXTSTYLE_2
 40
2.8
  1
Belt type:
 41
0.6
 51
0.000019
 72
0
  0
INSERT
  8
0
 62
2
  6
CONTINUOUS
  2
SYMBOL_3_BL0
 10
32.1213064866
 20
19.8534310916
  0
INSERT
  8
0
 62
2
  6
CONTINUOUS
  2
SYMBOL_8_BL1
 10
173.5956734183
 20
35.5937998301
  0
LINE
  8
0
 62
2
  6
CONTINUOUS
 10
10.0
 20
30.0
 11
200.0
 21
30.0
  0
LINE
  8
0
 62
2
  6
CONTINUOUS
 10
10.0
 20
30.0
 11
10.0
 21
10.0
  0
LINE
  8
0
 62
2
  6
CONTINUOUS
 10
10.0
 20
10.0
 11
200.0
 21
10.0
  0
LINE
  8
0
 62
2
  6
CONTINUOUS
 10
95.0
 20
30.0
 11
95.0
 21
10.0
  0
LINE
  8
0
 62
2
  6
CONTINUOUS
 10
115.0
 20
30.0
 11
115.0
 21
10.0
  0
LINE
  8
0
 62
2
  6
CONTINUOUS
 10
200.0
 20
30.0
 11
200.0
 21
10.0
  0
TEXT
  8
0
 62
5
  6
CONTINUOUS
 10
13.0
 20
23.303
  7
TEXTSTYLE_5
 40
1.52
  1
                                                                     Ammeraal Beltech Modular A/S
 41
1.0
 72
0
  0
TEXT
  8
0
 62
5
  6
CONTINUOUS
 10
13.0
 20
20.595
  7
TEXTSTYLE_5
 40
1.5
  1
                                                                      Hjulmagervej 21,  7100 Vejle,  DK
 41
1.0
 72
0
  0
TEXT
  8
0
 62
5
  6
CONTINUOUS
 10
13.0
 20
17.881
  7
TEXTSTYLE_5
 40
1.495
  1
                                                                      tel: 
 41
1.0
 72
0
  0
TEXT
  8
0
 62
5
  6
CONTINUOUS
 10
57.9869465649
 20
17.881
  7
TEXTSTYLE_5
 40
1.51
  1
+45 75723100     fax: +45 75723348
 41
1.0
 72
0
  0
TEXT
  8
0
 62
5
  6
CONTINUOUS
 10
13.0
 20
15.177
  7
TEXTSTYLE_5
 40
1.5
  1
                                                                      admin@unichains.dk  www.unichains.com
 41
1.0
 72
0
  0
TEXT
  8
0
 62
5
  6
CONTINUOUS
 10
99.75
 20
13.75
  7
TEXTSTYLE_6
 40
5.0
  1
1:1
 41
0.7
 72
1
 11
105.0
 21
13.75
  0
TEXT
  8
0
 62
5
  6
CONTINUOUS
 10
118.0
 20
13.75
  7
TEXTSTYLE_7
 40
7.5
  1
uni Light-PRODUCT SUPPORT 8mm-K300
 41
0.2729411765
 72
0
  0
LINE
  8
0
 62
7
  6
CONTINUOUS
 10
210.0
 20
0.0
 11
0.0
 21
0.0
  0
LINE
  8
0
 62
7
  6
CONTINUOUS
 10
10.0
 20
10.0
 11
200.0
 21
10.0
  0
LINE
  8
0
 62
7
  6
CONTINUOUS
 10
10.0
 20
30.0
 11
200.0
 21
30.0
  0
LINE
  8
0
 62
7
  6
CONTINUOUS
 10
0.0
 20
0.0
 11
0.0
 21
297.0
  0
LINE
  8
0
 62
7
  6
CONTINUOUS
 10
10.0
 20
10.0
 11
10.0
 21
287.0
  0
LINE
  8
0
 62
7
  6
CONTINUOUS
 10
200.0
 20
287.0
 11
200.0
 21
10.0
  0
LINE
  8
0
 62
7
  6
CONTINUOUS
 10
210.0
 20
0.0
 11
210.0
 21
297.0
  0
LINE
  8
0
 62
7
  6
CONTINUOUS
 10
10.0
 20
287.0
 11
200.0
 21
287.0
  0
LINE
  8
0
 62
7
  6
CONTINUOUS
 10
0.0
 20
297.0
 11
210.0
 21
297.0
  0
LINE
  8
0
 62
7
  6
CONTINUOUS
 10
31.6727470804
 20
212.4306258474
 11
31.6727470804
 21
218.2306258474
  0
LINE
  8
0
 62
7
  6
CONTINUOUS
 10
31.8727470804
 20
210.730628662
 11
31.8727470804
 21
218.2306258474
  0
LINE
  8
0
 62
7
  6
CONTINUOUS
 10
31.9252605978
 20
224.7480789184
 11
31.8718686312
 21
218.6299655338
  0
POLYLINE
  8
0
 62
7
  6
CONTINUOUS
 66
1
 70
0
  0
VERTEX
  8
0
 62
7
  6
CONTINUOUS
 10
35.8227470804
 20
215.9659025427
  0
VERTEX
  8
0
 62
7
  6
CONTINUOUS
 10
35.8247952954
 20
215.921823694
  0
VERTEX
  8
0
 62
7
  6
CONTINUOUS
 10
35.830986471
 20
215.8766483169
  0
VERTEX
  8
0
 62
7
  6
CONTINUOUS
 10
35.8413945945
 20
215.8306258474
  0
SEQEND
  0
LINE
  8
0
 62
7
  6
CONTINUOUS
 10
35.8227470804
 20
210.7306258474
 11
35.8227470804
 21
218.2306258474
  0
LINE
  8
0
 62
7
  6
CONTINUOUS
 10
38.4727470804
 20
215.8306258474
 11
38.4727470804
 21
210.7306258474
  0
LINE
  8
2_FEATURE
 62
7
  6
CONTINUOUS
 10
43.6227470804
 20
211.4366423641
 11
43.6227470804
 21
210.2306258474
  0
LINE
  8
0
 62
7
  6
CONTINUOUS
 10
44.0227470804
 20
213.9737076504
 11
44.0227470804
 21
210.7306258474
  0
POLYLINE
  8
2_FEATURE
 62
7
  6
CONTINUOUS
 66
1
 70
0
  0
VERTEX
  8
2_FEATURE
 62
7
  6
CONTINUOUS
 10
43.9582521163
 20
211.3248936169
  0
VERTEX
  8
2_FEATURE
 62
7
  6
CONTINUOUS
 10
44.005413047
 20
211.1477506077
  0
VERTEX
  8
2_FEATURE
 62
7
  6
CONTINUOUS
 10
44.0227470804
 20
210.9647721273
  0
SEQEND
  0
LINE
  8
0
 62
7
  6
CONTINUOUS
 10
45.9727470804
 20
218.2306258474
 11
45.9727470804
 21
210.7306258474
  0
POLYLINE
  8
2_FEATURE
 62
7
  6
CONTINUOUS
 66
1
 70
0
  0
VERTEX
  8
2_FEATURE
 62
7
  6
CONTINUOUS
 10
43.6227470804
 20
211.4366423641
  0
VERTEX
  8
2_FEATURE
 62
7
  6
CONTINUOUS
 10
43.6332162501
 20
211.5038350946
  0
VERTEX
  8
2_FEATURE
 62
7
  6
CONTINUOUS
 10
43.6576462012
 20
211.5520420836
  0
VERTEX
  8
2_FEATURE
 62
7
  6
CONTINUOUS
 10
43.6894583365
 20
211.582247414
  0
VERTEX
  8
2_FEATURE
 62
7
  6
CONTINUOUS
 10
43.7243212854
 20
211.5953786376
  0
VERTEX
  8
2_FEATURE
 62
7
  6
CONTINUOUS
 10
43.7596361337
 20
211.5935394582
  0
VERTEX
  8
2_FEATURE
 62
7
  6
CONTINUOUS
 10
43.7978730614
 20
211.5767629613
  0
VERTEX
  8
2_FEATURE
 62
7
  6
CONTINUOUS
 10
43.8391187119
 20
211.5420729496
  0
VERTEX
  8
2_FEATURE
 62
7
  6
CONTINUOUS
 10
43.8802291262
 20
211.4893966442
  0
VERTEX
  8
2_FEATURE
 62
7
  6
CONTINUOUS
 10
43.9205009143
 20
211.4172813169
  0
VERTEX
  8
2_FEATURE
 62
7
  6
CONTINUOUS
 10
43.9582521163
 20
211.3248936169
  0
SEQEND
  0
POLYLINE
  8
0
 62
7
  6
CONTINUOUS
 66
1
 70
0
  0
VERTEX
  8
0
 62
7
  6
CONTINUOUS
 10
35.8227470804
 20
215.4943544723
  0
VERTEX
  8
0
 62
7
  6
CONTINUOUS
 10
35.805855509
 20
215.5097385152
  0
VERTEX
  8
0
 62
7
  6
CONTINUOUS
 10
35.7562113338
 20
215.523879565
  0
VERTEX
  8
0
 62
7
  6
CONTINUOUS
 10
35.677009797
 20
215.5358877908
  0
VERTEX
  8
0
 62
7
  6
CONTINUOUS
 10
35.5735016894
 20
215.5450255327
  0
VERTEX
  8
0
 62
7
  6
CONTINUOUS
 10
35.4526699316
 20
215.5507400244
  0
VERTEX
  8
0
 62
7
  6
CONTINUOUS
 10
35.3227470804
 20
215.5526855163
  0
SEQEND
  0
POLYLINE
  8
0
 62
7
  6
CONTINUOUS
 66
1
 70
0
  0
VERTEX
  8
0
 62
7
  6
CONTINUOUS
 10
45.9625088298
 20
215.8306258474
  0
VERTEX
  8
0
 62
7
  6
CONTINUOUS
 10
45.968211953
 20
215.8645630747
  0
VERTEX
  8
0
 62
7
  6
CONTINUOUS
 10
45.9716171542
 20
215.8981558301
  0
VERTEX
  8
0
 62
7
  6
CONTINUOUS
 10
45.9727470804
 20
215.9312907813
  0
SEQEND
  0
POLYLINE
  8
0
 62
7
  6
CONTINUOUS
 66
1
 70
0
  0
VERTEX
  8
0
 62
7
  6
CONTINUOUS
 10
35.8227470804
 20
213.6668972225
  0
VERTEX
  8
0
 62
7
  6
CONTINUOUS
 10
35.805855509
 20
213.6515131795
  0
VERTEX
  8
0
 62
7
  6
CONTINUOUS
 10
35.7562113338
 20
213.6373721298
  0
VERTEX
  8
0
 62
7
  6
CONTINUOUS
 10
35.677009797
 20
213.625363904
  0
VERTEX
  8
0
 62
7
  6
CONTINUOUS
 10
35.5735016894
 20
213.616226162
  0
VERTEX
  8
0
 62
7
  6
CONTINUOUS
 10
35.4526699316
 20
213.6105116704
  0
VERTEX
  8
0
 62
7
  6
CONTINUOUS
 10
35.3227470804
 20
213.6085661784
  0
SEQEND
  0
POLYLINE
  8
0
 62
7
  6
CONTINUOUS
 66
1
 70
0
  0
VERTEX
  8
0
 62
7
  6
CONTINUOUS
 10
45.9727470804
 20
213.6668972225
  0
VERTEX
  8
0
 62
7
  6
CONTINUOUS
 10
45.9896386519
 20
213.6515131795
  0
VERTEX
  8
0
 62
7
  6
CONTINUOUS
 10
46.0392828271
 20
213.6373721298
  0
VERTEX
  8
0
 62
7
  6
CONTINUOUS
 10
46.1184843639
 20
213.625363904
  0
VERTEX
  8
0
 62
7
  6
CONTINUOUS
 10
46.2219924715
 20
213.616226162
  0
VERTEX
  8
0
 62
7
  6
CONTINUOUS
 10
46.3428242293
 20
213.6105116704
  0
VERTEX
  8
0
 62
7
  6
CONTINUOUS
 10
46.4727470804
 20
213.6085661784
  0
SEQEND
  0
POLYLINE
  8
0
 62
7
  6
CONTINUOUS
 66
1
 70
0
  0
VERTEX
  8
0
 62
7
  6
CONTINUOUS
 10
55.1727470804
 20
215.9312907813
  0
VERTEX
  8
0
 62
7
  6
CONTINUOUS
 10
55.173877191
 20
215.8981531119
  0
VERTEX
  8
0
 62
7
  6
CONTINUOUS
 10
55.1772826144
 20
215.8645600566
  0
VERTEX
  8
0
 62
7
  6
CONTINUOUS
 10
55.1829853311
 20
215.8306258474
  0
SEQEND
  0
LINE
  8
0
 62
7
  6
CONTINUOUS
 10
55.1727470804
 20
210.7306258474
 11
55.1727470804
 21
218.2306258474
  0
POLYLINE
  8
0
 62
7
  6
CONTINUOUS
 66
1
 70
0
  0
VERTEX
  8
0
 62
7
  6
CONTINUOUS
 10
45.9727470804
 20
215.4943544723
  0
VERTEX
  8
0
 62
7
  6
CONTINUOUS
 10
45.9896386519
 20
215.5097385152
  0
VERTEX
  8
0
 62
7
  6
CONTINUOUS
 10
46.0392828271
 20
215.523879565
  0
VERTEX
  8
0
 62
7
  6
CONTINUOUS
 10
46.1184843639
 20
215.5358877908
  0
VERTEX
  8
0
 62
7
  6
CONTINUOUS
 10
46.2219924715
 20
215.5450255327
  0
VERTEX
  8
0
 62
7
  6
CONTINUOUS
 10
46.3428242293
 20
215.5507400244
  0
VERTEX
  8
0
 62
7
  6
CONTINUOUS
 10
46.4727470804
 20
215.5526855163
  0
SEQEND
  0
LINE
  8
0
 62
7
  6
CONTINUOUS
 10
57.1227470804
 20
213.9737146717
 11
57.1227470804
 21
210.7306258474
  0
POLYLINE
  8
0
 62
7
  6
CONTINUOUS
 66
1
 70
0
  0
VERTEX
  8
0
 62
7
  6
CONTINUOUS
 10
55.1727470804
 20
215.4943544723
  0
VERTEX
  8
0
 62
7
  6
CONTINUOUS
 10
55.155855509
 20
215.5097385152
  0
VERTEX
  8
0
 62
7
  6
CONTINUOUS
 10
55.1062113338
 20
215.523879565
  0
VERTEX
  8
0
 62
7
  6
CONTINUOUS
 10
55.027009797
 20
215.5358877908
  0
VERTEX
  8
0
 62
7
  6
CONTINUOUS
 10
54.9235016894
 20
215.5450255327
  0
VERTEX
  8
0
 62
7
  6
CONTINUOUS
 10
54.8026699316
 20
215.5507400244
  0
VERTEX
  8
0
 62
7
  6
CONTINUOUS
 10
54.6727470804
 20
215.5526855163
  0
SEQEND
  0
POLYLINE
  8
1_AXIS
 62
7
  6
CONTINUOUS
 66
1
 70
0
  0
VERTEX
  8
1_AXIS
 62
7
  6
CONTINUOUS
 10
60.9327470804
 20
210.2948966212
  0
VERTEX
  8
1_AXIS
 62
7
  6
CONTINUOUS
 10
60.9379047585
 20
210.2804226216
  0
VERTEX
  8
1_AXIS
 62
7
  6
CONTINUOUS
 10
60.9785285232
 20
210.2576724621
  0
VERTEX
  8
1_AXIS
 62
7
  6
CONTINUOUS
 10
61.0575103076
 20
210.2428801419
  0
VERTEX
  8
1_AXIS
 62
7
  6
CONTINUOUS
 10
61.1710941485
 20
210.2347836893
  0
VERTEX
  8
1_AXIS
 62
7
  6
CONTINUOUS
 10
61.3135823054
 20
210.2314264563
  0
VERTEX
  8
1_AXIS
 62
7
  6
CONTINUOUS
 10
61.4772612089
 20
210.2306437
  0
SEQEND
  0
LINE
  8
2_FEATURE
 62
7
  6
CONTINUOUS
 10
80.7039970804
 20
210.2562591105
 11
80.6164971639
 21
210.2426049683
  0
LINE
  8
2_FEATURE
 62
7
  6
CONTINUOUS
 10
78.7352470804
 20
210.2562591105
 11
78.6477470387
 21
210.2426049683
  0
LINE
  8
2_FEATURE
 62
7
  6
CONTINUOUS
 10
80.9664970804
 20
210.2487865261
 11
80.8352470804
 21
210.2317571507
  0
LINE
  8
2_FEATURE
 62
7
  6
CONTINUOUS
 10
78.9977470804
 20
210.2487865261
 11
78.8664970804
 21
210.2317571507
  0
POLYLINE
  8
2_FEATURE
 62
7
  6
CONTINUOUS
 66
1
 70
0
  0
VERTEX
  8
2_FEATURE
 62
7
  6
CONTINUOUS
 10
80.8352470804
 20
210.4318116866
  0
VERTEX
  8
2_FEATURE
 62
7
  6
CONTINUOUS
 10
80.8790676567
 20
210.4353831568
  0
VERTEX
  8
2_FEATURE
 62
7
  6
CONTINUOUS
 10
80.8902945379
 20
210.4369105326
  0
SEQEND
  0
POLYLINE
  8
2_FEATURE
 62
7
  6
CONTINUOUS
 66
1
 70
0
  0
VERTEX
  8
2_FEATURE
 62
7
  6
CONTINUOUS
 10
78.8664970804
 20
210.4318116866
  0
VERTEX
  8
2_FEATURE
 62
7
  6
CONTINUOUS
 10
78.9103176567
 20
210.4353831568
  0
VERTEX
  8
2_FEATURE
 62
7
  6
CONTINUOUS
 10
78.9215445379
 20
210.4369105326
  0
SEQEND
  0
LINE
  8
2_FEATURE
 62
7
  6
CONTINUOUS
 10
80.6164971639
 20
210.2426049683
 11
80.4852471639
 21
210.2377089243
  0
LINE
  8
2_FEATURE
 62
7
  6
CONTINUOUS
 10
78.6477470387
 20
210.2426049683
 11
78.5164970387
 21
210.2377089243
  0
LINE
  8
2_FEATURE
 62
7
  6
CONTINUOUS
 10
80.7769136849
 20
210.4306995553
 11
80.8352470804
 21
210.4318116866
  0
LINE
  8
2_FEATURE
 62
7
  6
CONTINUOUS
 10
78.8081637266
 20
210.4306995553
 11
78.8664970804
 21
210.4318116866
  0
POLYLINE
  8
2_FEATURE
 62
7
  6
CONTINUOUS
 66
1
 70
0
  0
VERTEX
  8
2_FEATURE
 62
7
  6
CONTINUOUS
 10
80.8352470804
 20
210.2317571507
  0
VERTEX
  8
2_FEATURE
 62
7
  6
CONTINUOUS
 10
80.7769135623
 20
210.2306961655
  0
VERTEX
  8
2_FEATURE
 62
7
  6
CONTINUOUS
 10
80.7575389096
 20
210.2306258673
  0
SEQEND
  0
POLYLINE
  8
2_FEATURE
 62
7
  6
CONTINUOUS
 66
1
 70
0
  0
VERTEX
  8
2_FEATURE
 62
7
  6
CONTINUOUS
 10
78.8664970804
 20
210.2317571507
  0
VERTEX
  8
2_FEATURE
 62
7
  6
CONTINUOUS
 10
78.808163604
 20
210.2306961655
  0
VERTEX
  8
2_FEATURE
 62
7
  6
CONTINUOUS
 10
78.7887889652
 20
210.2306258673
  0
SEQEND
  0
POLYLINE
  8
1_AXIS
 62
7
  6
CONTINUOUS
 66
1
 70
0
  0
VERTEX
  8
1_AXIS
 62
7
  6
CONTINUOUS
 10
61.9183169473
 20
210.4306446364
  0
VERTEX
  8
1_AXIS
 62
7
  6
CONTINUOUS
 10
62.0819980836
 20
210.4314660551
  0
VERTEX
  8
1_AXIS
 62
7
  6
CONTINUOUS
 10
62.2048943167
 20
210.4345032913
  0
SEQEND
  0
POLYLINE
  8
1_AXIS
 62
7
  6
CONTINUOUS
 66
1
 70
0
  0
VERTEX
  8
1_AXIS
 62
7
  6
CONTINUOUS
 10
61.9182287838
 20
210.2306436964
  0
VERTEX
  8
1_AXIS
 62
7
  6
CONTINUOUS
 10
62.0819084787
 20
210.2314264186
  0
VERTEX
  8
1_AXIS
 62
7
  6
CONTINUOUS
 10
62.2243975189
 20
210.2347835858
  0
VERTEX
  8
1_AXIS
 62
7
  6
CONTINUOUS
 10
62.3379823236
 20
210.242879966
  0
VERTEX
  8
1_AXIS
 62
7
  6
CONTINUOUS
 10
62.4169649982
 20
210.2576722645
  0
VERTEX
  8
1_AXIS
 62
7
  6
CONTINUOUS
 10
62.4575893234
 20
210.2804225183
  0
VERTEX
  8
1_AXIS
 62
7
  6
CONTINUOUS
 10
62.4627470804
 20
210.2948966212
  0
SEQEND
  0
LINE
  8
2_FEATURE
 62
7
  6
CONTINUOUS
 10
95.8227470804
 20
210.2306258474
 11
95.7227470804
 21
210.2306258474
  0
LINE
  8
2_FEATURE
 62
7
  6
CONTINUOUS
 10
43.6227470804
 20
210.2306258474
 11
43.5227470804
 21
210.2306258474
  0
LINE
  8
0
 62
7
  6
CONTINUOUS
 10
32.3727470804
 20
210.2306258474
 11
43.5227470804
 21
210.2306258474
  0
LINE
  8
0
 62
7
  6
CONTINUOUS
 10
44.5227470804
 20
210.2306258474
 11
61.529569352
 21
210.2306258474
  0
LINE
  8
0
 62
7
  6
CONTINUOUS
 10
61.8659245694
 20
210.2306258474
 11
77.4227470804
 21
210.2306258474
  0
LINE
  8
0
 62
7
  6
CONTINUOUS
 10
78.8664970804
 20
210.2306258474
 11
79.3914970804
 21
210.2306258474
  0
LINE
  8
0
 62
7
  6
CONTINUOUS
 10
80.8352470804
 20
210.2306258474
 11
94.8227470804
 21
210.2306258474
  0
LINE
  8
0
 62
7
  6
CONTINUOUS
 10
95.8227470804
 20
210.2306258474
 11
106.9727470804
 21
210.2306258474
  0
LINE
  8
2_FEATURE
 62
7
  6
CONTINUOUS
 10
77.6852470804
 20
210.2351649794
 11
78.4727470804
 21
210.2351649794
  0
LINE
  8
2_FEATURE
 62
7
  6
CONTINUOUS
 10
79.6539970804
 20
210.2351649794
 11
80.4414970804
 21
210.2351649794
  0
LINE
  8
2_FEATURE
 62
7
  6
CONTINUOUS
 10
77.6852470804
 20
210.2377089243
 11
78.5164970387
 21
210.2377089243
  0
LINE
  8
2_FEATURE
 62
7
  6
CONTINUOUS
 10
79.6539970804
 20
210.2377089243
 11
80.4852471639
 21
210.2377089243
  0
LINE
  8
2_FEATURE
 62
7
  6
CONTINUOUS
 10
77.4227470804
 20
210.4306258474
 11
77.6852470804
 21
210.4306258474
  0
LINE
  8
2_FEATURE
 62
7
  6
CONTINUOUS
 10
78.7789970387
 20
210.4306258474
 11
78.8081637266
 21
210.4306995553
  0
LINE
  8
2_FEATURE
 62
7
  6
CONTINUOUS
 10
79.3914970804
 20
210.4306258474
 11
79.6539970804
 21
210.4306258474
  0
LINE
  8
2_FEATURE
 62
7
  6
CONTINUOUS
 10
80.7477471639
 20
210.4306258474
 11
80.7769136849
 21
210.4306995553
  0
LINE
  8
2_FEATURE
 62
7
  6
CONTINUOUS
 10
77.6852470804
 20
210.4503910822
 11
78.5164970387
 21
210.4503910822
  0
LINE
  8
2_FEATURE
 62
7
  6
CONTINUOUS
 10
79.6539970804
 20
210.4503910822
 11
80.4852471639
 21
210.4503910822
  0
LINE
  8
2_FEATURE
 62
7
  6
CONTINUOUS
 10
77.4227470804
 20
210.5926948362
 11
78.4727470804
 21
210.5926948362
  0
LINE
  8
2_FEATURE
 62
7
  6
CONTINUOUS
 10
79.3914970804
 20
210.5926948362
 11
80.4414970804
 21
210.5926948362
  0
LINE
  8
1_AXIS
 62
7
  6
CONTINUOUS
 10
61.4772612089
 20
210.2306437
 11
61.9182287838
 21
210.2306436964
  0
POLYLINE
  8
2_FEATURE
 62
7
  6
CONTINUOUS
 66
1
 70
0
  0
VERTEX
  8
2_FEATURE
 62
7
  6
CONTINUOUS
 10
78.7887889652
 20
210.2306258673
  0
VERTEX
  8
2_FEATURE
 62
7
  6
CONTINUOUS
 10
78.7498218762
 20
210.2309102891
  0
VERTEX
  8
2_FEATURE
 62
7
  6
CONTINUOUS
 10
78.6914971222
 20
210.2323993313
  0
SEQEND
  0
POLYLINE
  8
2_FEATURE
 62
7
  6
CONTINUOUS
 66
1
 70
0
  0
VERTEX
  8
2_FEATURE
 62
7
  6
CONTINUOUS
 10
80.7575389096
 20
210.2306258673
  0
VERTEX
  8
2_FEATURE
 62
7
  6
CONTINUOUS
 10
80.7185717928
 20
210.2309102891
  0
VERTEX
  8
2_FEATURE
 62
7
  6
CONTINUOUS
 10
80.660246997
 20
210.2323993313
  0
SEQEND
  0
LINE
  8
2_FEATURE
 62
7
  6
CONTINUOUS
 10
78.6914971222
 20
210.2323993313
 11
78.4727470804
 21
210.2351649794
  0
LINE
  8
2_FEATURE
 62
7
  6
CONTINUOUS
 10
80.660246997
 20
210.2323993313
 11
80.4414970804
 21
210.2351649794
  0
POLYLINE
  8
1_AXIS
 62
7
  6
CONTINUOUS
 66
1
 70
0
  0
VERTEX
  8
1_AXIS
 62
7
  6
CONTINUOUS
 10
61.1906054099
 20
210.4345031653
  0
VERTEX
  8
1_AXIS
 62
7
  6
CONTINUOUS
 10
61.3134948537
 20
210.4314660694
  0
VERTEX
  8
1_AXIS
 62
7
  6
CONTINUOUS
 10
61.4771756862
 20
210.4306446378
  0
VERTEX
  8
1_AXIS
 62
7
  6
CONTINUOUS
 10
61.9183169473
 20
210.4306446364
  0
SEQEND
  0
LINE
  8
0
 62
7
  6
CONTINUOUS
 10
63.1227470804
 20
213.9737146717
 11
63.1227470804
 21
210.7306258474
  0
POLYLINE
  8
1_AXIS
 62
7
  6
CONTINUOUS
 66
1
 70
0
  0
VERTEX
  8
1_AXIS
 62
7
  6
CONTINUOUS
 10
60.9327470804
 20
210.2948966212
  0
VERTEX
  8
1_AXIS
 62
7
  6
CONTINUOUS
 10
60.9379762848
 20
210.3113806831
  0
VERTEX
  8
1_AXIS
 62
7
  6
CONTINUOUS
 10
60.9798305853
 20
210.3493208748
  0
VERTEX
  8
1_AXIS
 62
7
  6
CONTINUOUS
 10
61.0620148585
 20
210.3910701811
  0
VERTEX
  8
1_AXIS
 62
7
  6
CONTINUOUS
 10
61.17966762
 20
210.4318928752
  0
VERTEX
  8
1_AXIS
 62
7
  6
CONTINUOUS
 10
61.3239620263
 20
210.466328558
  0
VERTEX
  8
1_AXIS
 62
7
  6
CONTINUOUS
 10
61.4851985979
 20
210.4900933471
  0
VERTEX
  8
1_AXIS
 62
7
  6
CONTINUOUS
 10
61.654875851
 20
210.5006712837
  0
VERTEX
  8
1_AXIS
 62
7
  6
CONTINUOUS
 10
61.7405312303
 20
210.5006730894
  0
VERTEX
  8
1_AXIS
 62
7
  6
CONTINUOUS
 10
61.9102126049
 20
210.4901020259
  0
VERTEX
  8
1_AXIS
 62
7
  6
CONTINUOUS
 10
62.0714506045
 20
210.4663442305
  0
VERTEX
  8
1_AXIS
 62
7
  6
CONTINUOUS
 10
62.2157899955
 20
210.4319034787
  0
VERTEX
  8
1_AXIS
 62
7
  6
CONTINUOUS
 10
62.3334681425
 20
210.3910748392
  0
VERTEX
  8
1_AXIS
 62
7
  6
CONTINUOUS
 10
62.4156621644
 20
210.3493217893
  0
VERTEX
  8
1_AXIS
 62
7
  6
CONTINUOUS
 10
62.4575173474
 20
210.3113815622
  0
VERTEX
  8
1_AXIS
 62
7
  6
CONTINUOUS
 10
62.4627470804
 20
210.2948966212
  0
SEQEND
  0
POLYLINE
  8
0
 62
7
  6
CONTINUOUS
 66
1
 70
0
  0
VERTEX
  8
0
 62
7
  6
CONTINUOUS
 10
55.1727470804
 20
213.6668972225
  0
VERTEX
  8
0
 62
7
  6
CONTINUOUS
 10
55.155855509
 20
213.6515131795
  0
VERTEX
  8
0
 62
7
  6
CONTINUOUS
 10
55.1062113338
 20
213.6373721298
  0
VERTEX
  8
0
 62
7
  6
CONTINUOUS
 10
55.027009797
 20
213.625363904
  0
VERTEX
  8
0
 62
7
  6
CONTINUOUS
 10
54.9235016894
 20
213.616226162
  0
VERTEX
  8
0
 62
7
  6
CONTINUOUS
 10
54.8026699316
 20
213.6105116704
  0
VERTEX
  8
0
 62
7
  6
CONTINUOUS
 10
54.6727470804
 20
213.6085661784
  0
SEQEND
  0
POLYLINE
  8
0
 62
7
  6
CONTINUOUS
 66
1
 70
0
  0
VERTEX
  8
0
 62
7
  6
CONTINUOUS
 10
106.9727470804
 20
213.6085661784
  0
VERTEX
  8
0
 62
7
  6
CONTINUOUS
 10
107.1026699316
 20
213.6105116704
  0
VERTEX
  8
0
 62
7
  6
CONTINUOUS
 10
107.2235016894
 20
213.616226162
  0
VERTEX
  8
0
 62
7
  6
CONTINUOUS
 10
107.327009797
 20
213.625363904
  0
VERTEX
  8
0
 62
7
  6
CONTINUOUS
 10
107.4062113338
 20
213.6373721298
  0
VERTEX
  8
0
 62
7
  6
CONTINUOUS
 10
107.455855509
 20
213.6515131795
  0
VERTEX
  8
0
 62
7
  6
CONTINUOUS
 10
107.4727470804
 20
213.6668972225
  0
SEQEND
  0
LINE
  8
0
 62
7
  6
CONTINUOUS
 10
32.3727470804
 20
213.6085661784
 11
35.3227470804
 21
213.6085661784
  0
LINE
  8
0
 62
7
  6
CONTINUOUS
 10
46.4727470804
 20
213.6085661784
 11
54.6727470804
 21
213.6085661784
  0
LINE
  8
0
 62
7
  6
CONTINUOUS
 10
65.5727470804
 20
213.6085661784
 11
73.7727470804
 21
213.6085661784
  0
LINE
  8
0
 62
7
  6
CONTINUOUS
 10
84.6727470804
 20
213.6085661784
 11
92.8727470804
 21
213.6085661784
  0
LINE
  8
0
 62
7
  6
CONTINUOUS
 10
104.0227470804
 20
213.6085661784
 11
106.9727470804
 21
213.6085661784
  0
POLYLINE
  8
0
 62
7
  6
CONTINUOUS
 66
1
 70
0
  0
VERTEX
  8
0
 62
7
  6
CONTINUOUS
 10
32.3727470804
 20
213.6085661784
  0
VERTEX
  8
0
 62
7
  6
CONTINUOUS
 10
32.2428242293
 20
213.6105116704
  0
VERTEX
  8
0
 62
7
  6
CONTINUOUS
 10
32.1219924715
 20
213.616226162
  0
VERTEX
  8
0
 62
7
  6
CONTINUOUS
 10
32.0184843639
 20
213.625363904
  0
VERTEX
  8
0
 62
7
  6
CONTINUOUS
 10
31.9392828271
 20
213.6373721298
  0
VERTEX
  8
0
 62
7
  6
CONTINUOUS
 10
31.8896386519
 20
213.6515131795
  0
VERTEX
  8
0
 62
7
  6
CONTINUOUS
 10
31.8727470804
 20
213.6668972225
  0
SEQEND
  0
LINE
  8
2_FEATURE
 62
7
  6
CONTINUOUS
 10
78.4727470804
 20
210.5926948362
 11
78.6914971222
 21
210.561070546
  0
LINE
  8
2_FEATURE
 62
7
  6
CONTINUOUS
 10
80.4414970804
 20
210.5926948362
 11
80.660246997
 21
210.561070546
  0
LINE
  8
2_FEATURE
 62
7
  6
CONTINUOUS
 10
78.5164970387
 20
210.4503910822
 11
78.6477470387
 21
210.4265175987
  0
LINE
  8
2_FEATURE
 62
7
  6
CONTINUOUS
 10
80.4852471639
 20
210.4503910822
 11
80.6164971639
 21
210.4265175987
  0
POLYLINE
  8
0
 62
7
  6
CONTINUOUS
 66
1
 70
0
  0
VERTEX
  8
0
 62
7
  6
CONTINUOUS
 10
65.0727470804
 20
213.6668972225
  0
VERTEX
  8
0
 62
7
  6
CONTINUOUS
 10
65.0896386519
 20
213.6515131795
  0
VERTEX
  8
0
 62
7
  6
CONTINUOUS
 10
65.1392828271
 20
213.6373721298
  0
VERTEX
  8
0
 62
7
  6
CONTINUOUS
 10
65.2184843639
 20
213.625363904
  0
VERTEX
  8
0
 62
7
  6
CONTINUOUS
 10
65.3219924715
 20
213.616226162
  0
VERTEX
  8
0
 62
7
  6
CONTINUOUS
 10
65.4428242293
 20
213.6105116704
  0
VERTEX
  8
0
 62
7
  6
CONTINUOUS
 10
65.5727470804
 20
213.6085661784
  0
SEQEND
  0
LINE
  8
0
 62
7
  6
CONTINUOUS
 10
65.0727470804
 20
210.7306258474
 11
65.0727470804
 21
218.2306258474
  0
POLYLINE
  8
0
 62
7
  6
CONTINUOUS
 66
1
 70
0
  0
VERTEX
  8
0
 62
7
  6
CONTINUOUS
 10
65.0625088298
 20
215.8306258474
  0
VERTEX
  8
0
 62
7
  6
CONTINUOUS
 10
65.068211953
 20
215.8645630747
  0
VERTEX
  8
0
 62
7
  6
CONTINUOUS
 10
65.0716171542
 20
215.8981558301
  0
VERTEX
  8
0
 62
7
  6
CONTINUOUS
 10
65.0727470804
 20
215.9312907813
  0
SEQEND
  0
LINE
  8
0
 62
7
  6
CONTINUOUS
 10
93.8861093458
 20
216.3298809197
 11
93.9144325179
 21
216.3306258474
  0
LINE
  8
0
 62
7
  6
CONTINUOUS
 10
74.7861093458
 20
216.3298809197
 11
74.8144325179
 21
216.3306258474
  0
POLYLINE
  8
0
 62
7
  6
CONTINUOUS
 66
1
 70
0
  0
VERTEX
  8
0
 62
7
  6
CONTINUOUS
 10
32.3727470804
 20
215.5526855163
  0
VERTEX
  8
0
 62
7
  6
CONTINUOUS
 10
32.2428242293
 20
215.5507400244
  0
VERTEX
  8
0
 62
7
  6
CONTINUOUS
 10
32.1219924715
 20
215.5450255327
  0
VERTEX
  8
0
 62
7
  6
CONTINUOUS
 10
32.0184843639
 20
215.5358877908
  0
VERTEX
  8
0
 62
7
  6
CONTINUOUS
 10
31.9392828271
 20
215.523879565
  0
VERTEX
  8
0
 62
7
  6
CONTINUOUS
 10
31.8896386519
 20
215.5097385152
  0
VERTEX
  8
0
 62
7
  6
CONTINUOUS
 10
31.8727470804
 20
215.4943544723
  0
SEQEND
  0
LINE
  8
1_AXIS
 62
2
  6
CENTER
 10
24.2342963748
 20
214.5806258474
 11
108.9481510461
 21
214.5806258474
  0
LINE
  8
0
 62
7
  6
CONTINUOUS
 10
32.3727470804
 20
215.5526855163
 11
35.3227470804
 21
215.5526855163
  0
LINE
  8
0
 62
7
  6
CONTINUOUS
 10
46.4727470804
 20
215.5526855163
 11
54.6727470804
 21
215.5526855163
  0
LINE
  8
0
 62
7
  6
CONTINUOUS
 10
65.5727470804
 20
215.5526855163
 11
73.7727470804
 21
215.5526855163
  0
LINE
  8
0
 62
7
  6
CONTINUOUS
 10
84.6727470804
 20
215.5526855163
 11
92.8727470804
 21
215.5526855163
  0
LINE
  8
0
 62
7
  6
CONTINUOUS
 10
104.0227470804
 20
215.5526855163
 11
106.9727470804
 21
215.5526855163
  0
POLYLINE
  8
0
 62
7
  6
CONTINUOUS
 66
1
 70
0
  0
VERTEX
  8
0
 62
7
  6
CONTINUOUS
 10
106.9727470804
 20
215.5526855163
  0
VERTEX
  8
0
 62
7
  6
CONTINUOUS
 10
107.1026699316
 20
215.5507400244
  0
VERTEX
  8
0
 62
7
  6
CONTINUOUS
 10
107.2235016894
 20
215.5450255327
  0
VERTEX
  8
0
 62
7
  6
CONTINUOUS
 10
107.327009797
 20
215.5358877908
  0
VERTEX
  8
0
 62
7
  6
CONTINUOUS
 10
107.4062113338
 20
215.523879565
  0
VERTEX
  8
0
 62
7
  6
CONTINUOUS
 10
107.455855509
 20
215.5097385152
  0
VERTEX
  8
0
 62
7
  6
CONTINUOUS
 10
107.4727470804
 20
215.4943544723
  0
SEQEND
  0
LINE
  8
0
 62
7
  6
CONTINUOUS
 10
45.4310616489
 20
216.3306258474
 11
45.4593848151
 21
216.3298809197
  0
LINE
  8
0
 62
7
  6
CONTINUOUS
 10
64.5310616489
 20
216.3306258474
 11
64.5593848151
 21
216.3298809197
  0
LINE
  8
2_FEATURE
 62
7
  6
CONTINUOUS
 10
78.6914971222
 20
210.561070546
 11
78.8664970804
 21
210.4757540955
  0
LINE
  8
2_FEATURE
 62
7
  6
CONTINUOUS
 10
80.660246997
 20
210.561070546
 11
80.8352470804
 21
210.4757540955
  0
LINE
  8
2_FEATURE
 62
7
  6
CONTINUOUS
 10
78.6477470387
 20
210.4265175987
 11
78.7352470804
 21
210.3831391435
  0
LINE
  8
2_FEATURE
 62
7
  6
CONTINUOUS
 10
80.6164971639
 20
210.4265175987
 11
80.7039970804
 21
210.3831391435
  0
LINE
  8
1_AXIS
 62
2
  6
CENTER
 10
69.6727470804
 20
207.7306252777
 11
69.6727470804
 21
228.7306258474
  0
POLYLINE
  8
0
 62
7
  6
CONTINUOUS
 66
1
 70
0
  0
VERTEX
  8
0
 62
7
  6
CONTINUOUS
 10
65.0727470804
 20
215.4943544723
  0
VERTEX
  8
0
 62
7
  6
CONTINUOUS
 10
65.0896386519
 20
215.5097385152
  0
VERTEX
  8
0
 62
7
  6
CONTINUOUS
 10
65.1392828271
 20
215.523879565
  0
VERTEX
  8
0
 62
7
  6
CONTINUOUS
 10
65.2184843639
 20
215.5358877908
  0
VERTEX
  8
0
 62
7
  6
CONTINUOUS
 10
65.3219924715
 20
215.5450255327
  0
VERTEX
  8
0
 62
7
  6
CONTINUOUS
 10
65.4428242293
 20
215.5507400244
  0
VERTEX
  8
0
 62
7
  6
CONTINUOUS
 10
65.5727470804
 20
215.5526855163
  0
SEQEND
  0
LINE
  8
0
 62
7
  6
CONTINUOUS
 10
55.6861093458
 20
216.3298809197
 11
55.7144325179
 21
216.3306258474
  0
LINE
  8
0
 62
7
  6
CONTINUOUS
 10
36.3848226684
 20
216.3306258474
 11
45.4310616446
 21
216.3306258474
  0
LINE
  8
0
 62
7
  6
CONTINUOUS
 10
55.7144327488
 20
216.3306258474
 11
64.5310616446
 21
216.3306258474
  0
LINE
  8
0
 62
7
  6
CONTINUOUS
 10
74.8144325221
 20
216.3306258474
 11
83.6310616446
 21
216.3306258474
  0
LINE
  8
0
 62
7
  6
CONTINUOUS
 10
93.9144327488
 20
216.3306258474
 11
102.9606717688
 21
216.3306258474
  0
LINE
  8
0
 62
7
  6
CONTINUOUS
 10
32.1727470804
 20
218.7306258474
 11
107.1727470804
 21
218.7306258474
  0
LINE
  8
0
 62
7
  6
CONTINUOUS
 10
83.6310616489
 20
216.3306258474
 11
83.6593848151
 21
216.3298809197
  0
LINE
  8
2_FEATURE
 62
7
  6
CONTINUOUS
 10
78.8664970804
 20
210.4757540955
 11
78.9977470804
 21
210.3831391435
  0
LINE
  8
2_FEATURE
 62
7
  6
CONTINUOUS
 10
80.8352470804
 20
210.4757540955
 11
80.9664970804
 21
210.3831391435
  0
POLYLINE
  8
0
 62
7
  6
CONTINUOUS
 66
1
 70
0
  0
VERTEX
  8
0
 62
7
  6
CONTINUOUS
 10
74.2727470804
 20
215.4943544723
  0
VERTEX
  8
0
 62
7
  6
CONTINUOUS
 10
74.255855509
 20
215.5097385152
  0
VERTEX
  8
0
 62
7
  6
CONTINUOUS
 10
74.2062113338
 20
215.523879565
  0
VERTEX
  8
0
 62
7
  6
CONTINUOUS
 10
74.127009797
 20
215.5358877908
  0
VERTEX
  8
0
 62
7
  6
CONTINUOUS
 10
74.0235016894
 20
215.5450255327
  0
VERTEX
  8
0
 62
7
  6
CONTINUOUS
 10
73.9026699316
 20
215.5507400244
  0
VERTEX
  8
0
 62
7
  6
CONTINUOUS
 10
73.7727470804
 20
215.5526855163
  0
SEQEND
  0
LINE
  8
2_FEATURE
 62
7
  6
CONTINUOUS
 10
78.7352470804
 20
210.3831391435
 11
78.7789970387
 21
210.3286696924
  0
LINE
  8
2_FEATURE
 62
7
  6
CONTINUOUS
 10
78.9977470804
 20
210.3831391435
 11
79.0414970387
 21
210.3286696924
  0
POLYLINE
  8
0
 62
7
  6
CONTINUOUS
 66
1
 70
0
  0
VERTEX
  8
0
 62
7
  6
CONTINUOUS
 10
74.2727470804
 20
215.9312907813
  0
VERTEX
  8
0
 62
7
  6
CONTINUOUS
 10
74.273877191
 20
215.8981531119
  0
VERTEX
  8
0
 62
7
  6
CONTINUOUS
 10
74.2772826144
 20
215.8645600566
  0
VERTEX
  8
0
 62
7
  6
CONTINUOUS
 10
74.2829853311
 20
215.8306258474
  0
SEQEND
  0
LINE
  8
0
 62
7
  6
CONTINUOUS
 10
74.2727470804
 20
210.7306258474
 11
74.2727470804
 21
218.2306258474
  0
LINE
  8
2_FEATURE
 62
7
  6
CONTINUOUS
 10
80.7039970804
 20
210.3831391435
 11
80.7477471639
 21
210.3286696924
  0
LINE
  8
2_FEATURE
 62
7
  6
CONTINUOUS
 10
80.9664970804
 20
210.3831391435
 11
81.0102471639
 21
210.3286696924
  0
LINE
  8
0
 62
7
  6
CONTINUOUS
 10
76.2227470804
 20
213.9737076891
 11
76.2227470804
 21
210.7306258474
  0
LINE
  8
2_FEATURE
 62
7
  6
CONTINUOUS
 10
77.4227470804
 20
210.5926948362
 11
77.4227470804
 21
210.2306290801
  0
LINE
  8
2_FEATURE
 62
7
  6
CONTINUOUS
 10
77.6852470804
 20
210.2351649794
 11
77.6852470804
 21
210.5926948362
  0
POLYLINE
  8
0
 62
7
  6
CONTINUOUS
 66
1
 70
0
  0
VERTEX
  8
0
 62
7
  6
CONTINUOUS
 10
74.2727470804
 20
213.6668972225
  0
VERTEX
  8
0
 62
7
  6
CONTINUOUS
 10
74.255855509
 20
213.6515131795
  0
VERTEX
  8
0
 62
7
  6
CONTINUOUS
 10
74.2062113338
 20
213.6373721298
  0
VERTEX
  8
0
 62
7
  6
CONTINUOUS
 10
74.127009797
 20
213.625363904
  0
VERTEX
  8
0
 62
7
  6
CONTINUOUS
 10
74.0235016894
 20
213.616226162
  0
VERTEX
  8
0
 62
7
  6
CONTINUOUS
 10
73.9026699316
 20
213.6105116704
  0
VERTEX
  8
0
 62
7
  6
CONTINUOUS
 10
73.7727470804
 20
213.6085661784
  0
SEQEND
  0
POLYLINE
  8
0
 62
7
  6
CONTINUOUS
 66
1
 70
0
  0
VERTEX
  8
0
 62
7
  6
CONTINUOUS
 10
84.1727470804
 20
213.6668972225
  0
VERTEX
  8
0
 62
7
  6
CONTINUOUS
 10
84.1896386519
 20
213.6515131795
  0
VERTEX
  8
0
 62
7
  6
CONTINUOUS
 10
84.2392828271
 20
213.6373721298
  0
VERTEX
  8
0
 62
7
  6
CONTINUOUS
 10
84.3184843639
 20
213.625363904
  0
VERTEX
  8
0
 62
7
  6
CONTINUOUS
 10
84.4219924715
 20
213.616226162
  0
VERTEX
  8
0
 62
7
  6
CONTINUOUS
 10
84.5428242293
 20
213.6105116704
  0
VERTEX
  8
0
 62
7
  6
CONTINUOUS
 10
84.6727470804
 20
213.6085661784
  0
SEQEND
  0
LINE
  8
2_FEATURE
 62
7
  6
CONTINUOUS
 10
78.4727470804
 20
210.2351649794
 11
78.4727470804
 21
210.2377089243
  0
LINE
  8
2_FEATURE
 62
7
  6
CONTINUOUS
 10
78.5164970387
 20
210.4503910822
 11
78.5164970387
 21
210.5863699854
  0
LINE
  8
2_FEATURE
 62
7
  6
CONTINUOUS
 10
78.6477470387
 20
210.4265175987
 11
78.6477470387
 21
210.5673954149
  0
LINE
  8
2_FEATURE
 62
7
  6
CONTINUOUS
 10
78.6914971222
 20
210.2323993313
 11
78.6914971222
 21
210.2494320492
  0
LINE
  8
2_FEATURE
 62
7
  6
CONTINUOUS
 10
78.7352470804
 20
210.3831391435
 11
78.7352470804
 21
210.5397414486
  0
LINE
  8
2_FEATURE
 62
7
  6
CONTINUOUS
 10
78.7789970387
 20
210.286496244
 11
78.7789970387
 21
210.5184123513
  0
LINE
  8
2_FEATURE
 62
7
  6
CONTINUOUS
 10
78.8664970804
 20
210.2317571507
 11
78.8664970804
 21
210.4318116866
  0
LINE
  8
2_FEATURE
 62
7
  6
CONTINUOUS
 10
78.9977470804
 20
210.2487865261
 11
78.9977470804
 21
210.3831391435
  0
LINE
  8
2_FEATURE
 62
7
  6
CONTINUOUS
 10
79.0414970387
 20
210.3286696924
 11
79.0414970387
 21
210.2751054087
  0
LINE
  8
2_FEATURE
 62
7
  6
CONTINUOUS
 10
79.3914970804
 20
210.5926948362
 11
79.3914970804
 21
210.2306290801
  0
LINE
  8
2_FEATURE
 62
7
  6
CONTINUOUS
 10
79.6539970804
 20
210.2351649794
 11
79.6539970804
 21
210.5926948362
  0
LINE
  8
0
 62
7
  6
CONTINUOUS
 10
105.4203097169
 20
226.7306258474
 11
33.925184444
 21
226.7306258474
  0
LINE
  8
2_FEATURE
 62
7
  6
CONTINUOUS
 10
80.4414970804
 20
210.2351649794
 11
80.4414970804
 21
210.2377089243
  0
LINE
  8
2_FEATURE
 62
7
  6
CONTINUOUS
 10
80.4852471639
 20
210.4503910822
 11
80.4852471639
 21
210.5863699637
  0
LINE
  8
2_FEATURE
 62
7
  6
CONTINUOUS
 10
80.6164971639
 20
210.4265175987
 11
80.6164971639
 21
210.5673953823
  0
LINE
  8
2_FEATURE
 62
7
  6
CONTINUOUS
 10
80.660246997
 20
210.2323993313
 11
80.660246997
 21
210.2494320199
  0
LINE
  8
2_FEATURE
 62
7
  6
CONTINUOUS
 10
80.7039970804
 20
210.3831391435
 11
80.7039970804
 21
210.5397414029
  0
LINE
  8
2_FEATURE
 62
7
  6
CONTINUOUS
 10
80.7477471639
 20
210.286496244
 11
80.7477471639
 21
210.5184122597
  0
LINE
  8
2_FEATURE
 62
7
  6
CONTINUOUS
 10
80.8352470804
 20
210.2317571507
 11
80.8352470804
 21
210.4318116866
  0
LINE
  8
2_FEATURE
 62
7
  6
CONTINUOUS
 10
80.9664970804
 20
210.2487865261
 11
80.9664970804
 21
210.3831391435
  0
LINE
  8
2_FEATURE
 62
7
  6
CONTINUOUS
 10
81.0102471639
 20
210.3286696924
 11
81.0102471639
 21
210.2751054087
  0
LINE
  8
0
 62
7
  6
CONTINUOUS
 10
82.2227470804
 20
213.9737146717
 11
82.2227470804
 21
210.7306258474
  0
POLYLINE
  8
0
 62
7
  6
CONTINUOUS
 66
1
 70
0
  0
VERTEX
  8
0
 62
7
  6
CONTINUOUS
 10
84.1727470804
 20
215.4943544723
  0
VERTEX
  8
0
 62
7
  6
CONTINUOUS
 10
84.1896386519
 20
215.5097385152
  0
VERTEX
  8
0
 62
7
  6
CONTINUOUS
 10
84.2392828271
 20
215.523879565
  0
VERTEX
  8
0
 62
7
  6
CONTINUOUS
 10
84.3184843639
 20
215.5358877908
  0
VERTEX
  8
0
 62
7
  6
CONTINUOUS
 10
84.4219924715
 20
215.5450255327
  0
VERTEX
  8
0
 62
7
  6
CONTINUOUS
 10
84.5428242293
 20
215.5507400244
  0
VERTEX
  8
0
 62
7
  6
CONTINUOUS
 10
84.6727470804
 20
215.5526855163
  0
SEQEND
  0
LINE
  8
2_FEATURE
 62
7
  6
CONTINUOUS
 10
78.7789970387
 20
210.286496244
 11
78.7352470804
 21
210.2562591105
  0
LINE
  8
2_FEATURE
 62
7
  6
CONTINUOUS
 10
80.7477471639
 20
210.286496244
 11
80.7039970804
 21
210.2562591105
  0
LINE
  8
2_FEATURE
 62
7
  6
CONTINUOUS
 10
79.0414970387
 20
210.2751054087
 11
78.9977470804
 21
210.2487865261
  0
LINE
  8
2_FEATURE
 62
7
  6
CONTINUOUS
 10
81.0102471639
 20
210.2751054087
 11
80.9664970804
 21
210.2487865261
  0
LINE
  8
0
 62
7
  6
CONTINUOUS
 10
84.1727470804
 20
210.7306258474
 11
84.1727470804
 21
218.2306258474
  0
POLYLINE
  8
0
 62
7
  6
CONTINUOUS
 66
1
 70
0
  0
VERTEX
  8
0
 62
7
  6
CONTINUOUS
 10
84.1625088298
 20
215.8306258474
  0
VERTEX
  8
0
 62
7
  6
CONTINUOUS
 10
84.168211953
 20
215.8645630747
  0
VERTEX
  8
0
 62
7
  6
CONTINUOUS
 10
84.1716171542
 20
215.8981558301
  0
VERTEX
  8
0
 62
7
  6
CONTINUOUS
 10
84.1727470804
 20
215.9312907813
  0
SEQEND
  0
POLYLINE
  8
0
 62
7
  6
CONTINUOUS
 66
1
 70
0
  0
VERTEX
  8
0
 62
7
  6
CONTINUOUS
 10
93.3727470804
 20
215.4943544723
  0
VERTEX
  8
0
 62
7
  6
CONTINUOUS
 10
93.355855509
 20
215.5097385152
  0
VERTEX
  8
0
 62
7
  6
CONTINUOUS
 10
93.3062113338
 20
215.523879565
  0
VERTEX
  8
0
 62
7
  6
CONTINUOUS
 10
93.227009797
 20
215.5358877908
  0
VERTEX
  8
0
 62
7
  6
CONTINUOUS
 10
93.1235016894
 20
215.5450255327
  0
VERTEX
  8
0
 62
7
  6
CONTINUOUS
 10
93.0026699316
 20
215.5507400244
  0
VERTEX
  8
0
 62
7
  6
CONTINUOUS
 10
92.8727470804
 20
215.5526855163
  0
SEQEND
  0
POLYLINE
  8
0
 62
7
  6
CONTINUOUS
 66
1
 70
0
  0
VERTEX
  8
0
 62
7
  6
CONTINUOUS
 10
93.3727470804
 20
213.6668972225
  0
VERTEX
  8
0
 62
7
  6
CONTINUOUS
 10
93.355855509
 20
213.6515131795
  0
VERTEX
  8
0
 62
7
  6
CONTINUOUS
 10
93.3062113338
 20
213.6373721298
  0
VERTEX
  8
0
 62
7
  6
CONTINUOUS
 10
93.227009797
 20
213.625363904
  0
VERTEX
  8
0
 62
7
  6
CONTINUOUS
 10
93.1235016894
 20
213.616226162
  0
VERTEX
  8
0
 62
7
  6
CONTINUOUS
 10
93.0026699316
 20
213.6105116704
  0
VERTEX
  8
0
 62
7
  6
CONTINUOUS
 10
92.8727470804
 20
213.6085661784
  0
SEQEND
  0
POLYLINE
  8
0
 62
7
  6
CONTINUOUS
 66
1
 70
0
  0
VERTEX
  8
0
 62
7
  6
CONTINUOUS
 10
103.5227470804
 20
213.6668972225
  0
VERTEX
  8
0
 62
7
  6
CONTINUOUS
 10
103.5396386519
 20
213.6515131795
  0
VERTEX
  8
0
 62
7
  6
CONTINUOUS
 10
103.5892828271
 20
213.6373721298
  0
VERTEX
  8
0
 62
7
  6
CONTINUOUS
 10
103.6684843639
 20
213.625363904
  0
VERTEX
  8
0
 62
7
  6
CONTINUOUS
 10
103.7719924715
 20
213.616226162
  0
VERTEX
  8
0
 62
7
  6
CONTINUOUS
 10
103.8928242293
 20
213.6105116704
  0
VERTEX
  8
0
 62
7
  6
CONTINUOUS
 10
104.0227470804
 20
213.6085661784
  0
SEQEND
  0
POLYLINE
  8
0
 62
7
  6
CONTINUOUS
 66
1
 70
0
  0
VERTEX
  8
0
 62
7
  6
CONTINUOUS
 10
93.3727470804
 20
215.9312907813
  0
VERTEX
  8
0
 62
7
  6
CONTINUOUS
 10
93.373877191
 20
215.8981531119
  0
VERTEX
  8
0
 62
7
  6
CONTINUOUS
 10
93.3772826144
 20
215.8645600566
  0
VERTEX
  8
0
 62
7
  6
CONTINUOUS
 10
93.3829853311
 20
215.8306258474
  0
SEQEND
  0
LINE
  8
0
 62
7
  6
CONTINUOUS
 10
93.3727470804
 20
210.7306258474
 11
93.3727470804
 21
218.2306258474
  0
LINE
  8
0
 62
7
  6
CONTINUOUS
 10
95.3227470804
 20
213.9737081179
 11
95.3227470804
 21
210.7306258474
  0
LINE
  8
2_FEATURE
 62
7
  6
CONTINUOUS
 10
95.7227470804
 20
211.4366423641
 11
95.7227470804
 21
210.2306258474
  0
POLYLINE
  8
2_FEATURE
 62
7
  6
CONTINUOUS
 66
1
 70
0
  0
VERTEX
  8
2_FEATURE
 62
7
  6
CONTINUOUS
 10
95.3227470804
 20
210.9647721273
  0
VERTEX
  8
2_FEATURE
 62
7
  6
CONTINUOUS
 10
95.3402189873
 20
211.1484975197
  0
VERTEX
  8
2_FEATURE
 62
7
  6
CONTINUOUS
 10
95.3872420446
 20
211.3248936169
  0
SEQEND
  0
POLYLINE
  8
0
 62
7
  6
CONTINUOUS
 66
1
 70
0
  0
VERTEX
  8
0
 62
7
  6
CONTINUOUS
 10
103.5227470804
 20
215.4943544723
  0
VERTEX
  8
0
 62
7
  6
CONTINUOUS
 10
103.5396386519
 20
215.5097385152
  0
VERTEX
  8
0
 62
7
  6
CONTINUOUS
 10
103.5892828271
 20
215.523879565
  0
VERTEX
  8
0
 62
7
  6
CONTINUOUS
 10
103.6684843639
 20
215.5358877908
  0
VERTEX
  8
0
 62
7
  6
CONTINUOUS
 10
103.7719924715
 20
215.5450255327
  0
VERTEX
  8
0
 62
7
  6
CONTINUOUS
 10
103.8928242293
 20
215.5507400244
  0
VERTEX
  8
0
 62
7
  6
CONTINUOUS
 10
104.0227470804
 20
215.5526855163
  0
SEQEND
  0
POLYLINE
  8
2_FEATURE
 62
7
  6
CONTINUOUS
 66
1
 70
0
  0
VERTEX
  8
2_FEATURE
 62
7
  6
CONTINUOUS
 10
95.3872420446
 20
211.3248936169
  0
VERTEX
  8
2_FEATURE
 62
7
  6
CONTINUOUS
 10
95.4249361485
 20
211.4171620678
  0
VERTEX
  8
2_FEATURE
 62
7
  6
CONTINUOUS
 10
95.4648311507
 20
211.4887357801
  0
VERTEX
  8
2_FEATURE
 62
7
  6
CONTINUOUS
 10
95.5056009397
 20
211.5412533605
  0
VERTEX
  8
2_FEATURE
 62
7
  6
CONTINUOUS
 10
95.5462820567
 20
211.5759079644
  0
VERTEX
  8
2_FEATURE
 62
7
  6
CONTINUOUS
 10
95.584424806
 20
211.593180111
  0
VERTEX
  8
2_FEATURE
 62
7
  6
CONTINUOUS
 10
95.6204027615
 20
211.5954891748
  0
VERTEX
  8
2_FEATURE
 62
7
  6
CONTINUOUS
 10
95.6554788214
 20
211.5825962347
  0
VERTEX
  8
2_FEATURE
 62
7
  6
CONTINUOUS
 10
95.6875182977
 20
211.5524856415
  0
VERTEX
  8
2_FEATURE
 62
7
  6
CONTINUOUS
 10
95.7121739854
 20
211.504150314
  0
VERTEX
  8
2_FEATURE
 62
7
  6
CONTINUOUS
 10
95.7227470804
 20
211.4366423641
  0
SEQEND
  0
LINE
  8
0
 62
7
  6
CONTINUOUS
 10
100.8727470804
 20
210.7306258474
 11
100.8727470804
 21
215.8306258474
  0
LINE
  8
0
 62
7
  6
CONTINUOUS
 10
103.5227470804
 20
218.2306258474
 11
103.5227470804
 21
210.7306258474
  0
POLYLINE
  8
0
 62
7
  6
CONTINUOUS
 66
1
 70
0
  0
VERTEX
  8
0
 62
7
  6
CONTINUOUS
 10
103.5040995664
 20
215.8306258474
  0
VERTEX
  8
0
 62
7
  6
CONTINUOUS
 10
103.5145076899
 20
215.8766483169
  0
VERTEX
  8
0
 62
7
  6
CONTINUOUS
 10
103.5206988655
 20
215.921823694
  0
VERTEX
  8
0
 62
7
  6
CONTINUOUS
 10
103.5227470804
 20
215.9659025427
  0
SEQEND
  0
LINE
  8
0
 62
7
  6
CONTINUOUS
 10
107.4736255295
 20
218.6299655532
 11
107.4202335631
 21
224.7480789184
  0
LINE
  8
0
 62
7
  6
CONTINUOUS
 10
107.4727470804
 20
210.7306286353
 11
107.4727470804
 21
218.2306258474
  0
LINE
  8
0
 62
7
  6
CONTINUOUS
 10
107.6727470804
 20
212.4306258474
 11
107.6727470804
 21
218.2306258474
  0
LINE
  8
0
 62
7
  6
CONTINUOUS
 10
31.6727470804
 20
135.1592785241
 11
31.6727470804
 21
144.2258515167
  0
LINE
  8
0
 62
7
  6
CONTINUOUS
 10
31.8718686312
 20
139.2671856035
 11
31.8718686312
 21
141.4008118142
  0
LINE
  8
0
 62
7
  6
CONTINUOUS
 10
31.8727470804
 20
127.0689987024
 11
31.8727470804
 21
134.5592785241
  0
LINE
  8
0
 62
7
  6
CONTINUOUS
 10
31.8727470804
 20
144.8286675927
 11
31.8727470804
 21
145.7473683688
  0
LINE
  8
0
 62
9
  6
CONTINUOUS
 10
31.9252605978
 20
140.1339987024
 11
31.9252605978
 21
140.5339987024
  0
LINE
  8
0
 62
9
  6
CONTINUOUS
 10
32.1727470804
 20
144.2258515167
 11
32.1727470804
 21
142.4381805345
  0
LINE
  8
0
 62
9
  6
CONTINUOUS
 10
32.1727470804
 20
138.229816865
 11
32.1727470804
 21
135.1592785241
  0
POLYLINE
  8
0
 62
7
  6
CONTINUOUS
 66
1
 70
0
  0
VERTEX
  8
0
 62
7
  6
CONTINUOUS
 10
31.8718686485
 20
141.4008121112
  0
VERTEX
  8
0
 62
7
  6
CONTINUOUS
 10
31.8776175669
 20
141.549121793
  0
VERTEX
  8
0
 62
7
  6
CONTINUOUS
 10
31.9283191019
 20
141.8505836879
  0
VERTEX
  8
0
 62
7
  6
CONTINUOUS
 10
31.9762291903
 20
142.0042496684
  0
VERTEX
  8
0
 62
7
  6
CONTINUOUS
 10
32.107485889
 20
142.3059758073
  0
VERTEX
  8
0
 62
7
  6
CONTINUOUS
 10
32.1727470804
 20
142.4381805345
  0
SEQEND
  0
POLYLINE
  8
0
 62
9
  6
CONTINUOUS
 66
1
 70
0
  0
VERTEX
  8
0
 62
9
  6
CONTINUOUS
 10
31.9252605978
 20
140.5339987024
  0
VERTEX
  8
0
 62
9
  6
CONTINUOUS
 10
31.9307384939
 20
140.6385271657
  0
VERTEX
  8
0
 62
9
  6
CONTINUOUS
 10
31.9742022179
 20
140.8430156968
  0
VERTEX
  8
0
 62
9
  6
CONTINUOUS
 10
32.0592300927
 20
141.0339987024
  0
VERTEX
  8
0
 62
9
  6
CONTINUOUS
 10
32.1821059921
 20
141.2031293088
  0
VERTEX
  8
0
 62
9
  6
CONTINUOUS
 10
32.256117393
 20
141.2771435279
  0
VERTEX
  8
0
 62
9
  6
CONTINUOUS
 10
32.4252415594
 20
141.4000241062
  0
VERTEX
  8
0
 62
9
  6
CONTINUOUS
 10
32.6162172929
 20
141.4850552187
  0
VERTEX
  8
0
 62
9
  6
CONTINUOUS
 10
32.8206980378
 20
141.5285205978
  0
SEQEND
  0
POLYLINE
  8
0
 62
9
  6
CONTINUOUS
 66
1
 70
0
  0
VERTEX
  8
0
 62
9
  6
CONTINUOUS
 10
31.8902769714
 20
140.1339987024
  0
VERTEX
  8
0
 62
9
  6
CONTINUOUS
 10
31.8861746705
 20
140.096941096
  0
VERTEX
  8
0
 62
9
  6
CONTINUOUS
 10
31.8822265758
 20
139.9886481107
  0
VERTEX
  8
0
 62
9
  6
CONTINUOUS
 10
31.8784764292
 20
139.8119704551
  0
VERTEX
  8
0
 62
9
  6
CONTINUOUS
 10
31.8750087914
 20
139.5710130372
  0
VERTEX
  8
0
 62
9
  6
CONTINUOUS
 10
31.8718686312
 20
139.2671856035
  0
SEQEND
  0
POLYLINE
  8
0
 62
9
  6
CONTINUOUS
 66
1
 70
0
  0
VERTEX
  8
0
 62
9
  6
CONTINUOUS
 10
31.8902769714
 20
140.5339987024
  0
VERTEX
  8
0
 62
9
  6
CONTINUOUS
 10
31.9153481081
 20
140.7565196523
  0
VERTEX
  8
0
 62
9
  6
CONTINUOUS
 10
31.9893043439
 20
140.967882465
  0
VERTEX
  8
0
 62
9
  6
CONTINUOUS
 10
32.1084372001
 20
141.1574885274
  0
VERTEX
  8
0
 62
9
  6
CONTINUOUS
 10
32.2667728547
 20
141.3158302021
  0
VERTEX
  8
0
 62
9
  6
CONTINUOUS
 10
32.4563716953
 20
141.4349675795
  0
VERTEX
  8
0
 62
9
  6
CONTINUOUS
 10
32.6677264446
 20
141.5089266172
  0
VERTEX
  8
0
 62
9
  6
CONTINUOUS
 10
32.8902388944
 20
141.5339987024
  0
SEQEND
  0
POLYLINE
  8
0
 62
9
  6
CONTINUOUS
 66
1
 70
0
  0
VERTEX
  8
0
 62
9
  6
CONTINUOUS
 10
31.8902769714
 20
140.5339987024
  0
VERTEX
  8
0
 62
9
  6
CONTINUOUS
 10
31.8861751202
 20
140.5710481329
  0
VERTEX
  8
0
 62
9
  6
CONTINUOUS
 10
31.8822260413
 20
140.6793690894
  0
VERTEX
  8
0
 62
9
  6
CONTINUOUS
 10
31.8784750592
 20
140.8561062328
  0
VERTEX
  8
0
 62
9
  6
CONTINUOUS
 10
31.8750067234
 20
141.0971545198
  0
VERTEX
  8
0
 62
9
  6
CONTINUOUS
 10
31.8718686312
 20
141.4008118142
  0
SEQEND
  0
LINE
  8
0
 62
9
  6
CONTINUOUS
 10
32.3727470804
 20
126.5689987024
 11
32.3727470804
 21
134.5592785241
  0
LINE
  8
0
 62
9
  6
CONTINUOUS
 10
32.3727470804
 20
144.8286675927
 11
32.3727470804
 21
146.2473683688
  0
POLYLINE
  8
0
 62
9
  6
CONTINUOUS
 66
1
 70
0
  0
VERTEX
  8
0
 62
9
  6
CONTINUOUS
 10
32.725184444
 20
140.5339987024
  0
VERTEX
  8
0
 62
9
  6
CONTINUOUS
 10
32.7402277076
 20
140.7565197163
  0
VERTEX
  8
0
 62
9
  6
CONTINUOUS
 10
32.7846031621
 20
140.967882576
  0
VERTEX
  8
0
 62
9
  6
CONTINUOUS
 10
32.8560856255
 20
141.1574886524
  0
VERTEX
  8
0
 62
9
  6
CONTINUOUS
 10
32.9510906543
 20
141.3158303063
  0
VERTEX
  8
0
 62
9
  6
CONTINUOUS
 10
33.0648542883
 20
141.4349676407
  0
VERTEX
  8
0
 62
9
  6
CONTINUOUS
 10
33.1916719391
 20
141.5089266357
  0
VERTEX
  8
0
 62
9
  6
CONTINUOUS
 10
33.325184444
 20
141.5339987024
  0
SEQEND
  0
POLYLINE
  8
0
 62
9
  6
CONTINUOUS
 66
1
 70
0
  0
VERTEX
  8
0
 62
9
  6
CONTINUOUS
 10
32.8902388944
 20
139.1339987024
  0
VERTEX
  8
0
 62
9
  6
CONTINUOUS
 10
32.8861755575
 20
139.109763488
  0
VERTEX
  8
0
 62
9
  6
CONTINUOUS
 10
32.8822636339
 20
139.0389438508
  0
VERTEX
  8
0
 62
9
  6
CONTINUOUS
 10
32.8785441648
 20
138.923372426
  0
VERTEX
  8
0
 62
9
  6
CONTINUOUS
 10
32.8750992853
 20
138.7656821128
  0
VERTEX
  8
0
 62
9
  6
CONTINUOUS
 10
32.8719754041
 20
138.5669817082
  0
VERTEX
  8
0
 62
9
  6
CONTINUOUS
 10
32.8692318848
 20
138.3276040354
  0
VERTEX
  8
0
 62
9
  6
CONTINUOUS
 10
32.8670102862
 20
138.0565961544
  0
VERTEX
  8
0
 62
9
  6
CONTINUOUS
 10
32.8653843696
 20
137.7624466531
  0
VERTEX
  8
0
 62
9
  6
CONTINUOUS
 10
32.8643920682
 20
137.4523397712
  0
VERTEX
  8
0
 62
9
  6
CONTINUOUS
 10
32.864058291
 20
137.1339987024
  0
SEQEND
  0
POLYLINE
  8
0
 62
9
  6
CONTINUOUS
 66
1
 70
0
  0
VERTEX
  8
0
 62
9
  6
CONTINUOUS
 10
32.8902388944
 20
141.5339987024
  0
VERTEX
  8
0
 62
9
  6
CONTINUOUS
 10
32.8861732424
 20
141.5582617096
  0
VERTEX
  8
0
 62
9
  6
CONTINUOUS
 10
32.8822577615
 20
141.6291970834
  0
VERTEX
  8
0
 62
9
  6
CONTINUOUS
 10
32.8785352663
 20
141.7449645303
  0
VERTEX
  8
0
 62
9
  6
CONTINUOUS
 10
32.875088036
 20
141.9029247509
  0
VERTEX
  8
0
 62
9
  6
CONTINUOUS
 10
32.8719648697
 20
142.1017996754
  0
VERTEX
  8
0
 62
9
  6
CONTINUOUS
 10
32.8692248099
 20
142.3411203885
  0
VERTEX
  8
0
 62
9
  6
CONTINUOUS
 10
32.8670061909
 20
142.6120032615
  0
VERTEX
  8
0
 62
9
  6
CONTINUOUS
 10
32.8653825105
 20
142.9059800372
  0
VERTEX
  8
0
 62
9
  6
CONTINUOUS
 10
32.8643915974
 20
143.215880827
  0
VERTEX
  8
0
 62
9
  6
CONTINUOUS
 10
32.864058291
 20
143.5339987024
  0
SEQEND
  0
LINE
  8
0
 62
9
  6
CONTINUOUS
 10
35.3227470804
 20
126.5689987024
 11
35.3227470804
 21
134.920629036
  0
LINE
  8
0
 62
7
  6
CONTINUOUS
 10
35.8227470804
 20
127.0689987024
 11
35.8227470804
 21
133.920629036
  0
LINE
  8
0
 62
7
  6
CONTINUOUS
 10
36.8727470804
 20
146.7473683688
 11
36.8727470804
 21
153.5989987024
  0
LINE
  8
0
 62
9
  6
CONTINUOUS
 10
37.3727470804
 20
154.0989987024
 11
37.3727470804
 21
145.7473683688
  0
POLYLINE
  8
0
 62
9
  6
CONTINUOUS
 66
1
 70
0
  0
VERTEX
  8
0
 62
9
  6
CONTINUOUS
 10
33.925184444
 20
140.3339987024
  0
VERTEX
  8
0
 62
9
  6
CONTINUOUS
 10
33.8771710479
 20
140.2053073765
  0
VERTEX
  8
0
 62
9
  6
CONTINUOUS
 10
33.7836463646
 20
139.9580694025
  0
VERTEX
  8
0
 62
9
  6
CONTINUOUS
 10
33.69303174
 20
139.7285673527
  0
VERTEX
  8
0
 62
9
  6
CONTINUOUS
 10
33.6068657021
 20
139.5267634565
  0
VERTEX
  8
0
 62
9
  6
CONTINUOUS
 10
33.5658710808
 20
139.4389480306
  0
VERTEX
  8
0
 62
9
  6
CONTINUOUS
 10
33.4887152334
 20
139.2937978028
  0
VERTEX
  8
0
 62
9
  6
CONTINUOUS
 10
33.4186630437
 20
139.1935599784
  0
VERTEX
  8
0
 62
9
  6
CONTINUOUS
 10
33.354625663
 20
139.1407931157
  0
VERTEX
  8
0
 62
9
  6
CONTINUOUS
 10
33.325184444
 20
139.1339987024
  0
SEQEND
  0
POLYLINE
  8
0
 62
7
  6
CONTINUOUS
 66
1
 70
0
  0
VERTEX
  8
0
 62
7
  6
CONTINUOUS
 10
32.1727470804
 20
142.4381805345
  0
VERTEX
  8
0
 62
7
  6
CONTINUOUS
 10
32.4640607354
 20
142.9484881217
  0
VERTEX
  8
0
 62
7
  6
CONTINUOUS
 10
32.864058291
 20
143.5339987024
  0
SEQEND
  0
LINE
  8
0
 62
7
  6
CONTINUOUS
 10
31.756614713
 20
144.503040717
 11
31.7888794479
 21
144.5514783925
  0
LINE
  8
0
 62
9
  6
CONTINUOUS
 10
32.1727470804
 20
144.2258515167
 11
32.2050118154
 21
144.2742891922
  0
POLYLINE
  8
0
 62
7
  6
CONTINUOUS
 66
1
 70
0
  0
VERTEX
  8
0
 62
7
  6
CONTINUOUS
 10
36.8727470804
 20
151.0837435738
  0
VERTEX
  8
0
 62
7
  6
CONTINUOUS
 10
36.8895192036
 20
151.1045373945
  0
VERTEX
  8
0
 62
7
  6
CONTINUOUS
 10
36.9389108721
 20
151.1236833569
  0
VERTEX
  8
0
 62
7
  6
CONTINUOUS
 10
37.0178972491
 20
151.1399752328
  0
VERTEX
  8
0
 62
7
  6
CONTINUOUS
 10
37.121364501
 20
151.1523991077
  0
VERTEX
  8
0
 62
7
  6
CONTINUOUS
 10
37.2423948122
 20
151.1601842109
  0
VERTEX
  8
0
 62
7
  6
CONTINUOUS
 10
37.3727470804
 20
151.1628391835
  0
SEQEND
  0
POLYLINE
  8
0
 62
7
  6
CONTINUOUS
 66
1
 70
0
  0
VERTEX
  8
0
 62
7
  6
CONTINUOUS
 10
32.864058291
 20
137.1339987024
  0
VERTEX
  8
0
 62
7
  6
CONTINUOUS
 10
32.4640318843
 20
137.7195544843
  0
VERTEX
  8
0
 62
7
  6
CONTINUOUS
 10
32.1727470804
 20
138.229816865
  0
SEQEND
  0
LINE
  8
0
 62
9
  6
CONTINUOUS
 10
35.8227470804
 20
133.920629036
 11
35.3227470804
 21
134.920629036
  0
POLYLINE
  8
0
 62
7
  6
CONTINUOUS
 66
1
 70
0
  0
VERTEX
  8
0
 62
7
  6
CONTINUOUS
 10
32.1727470804
 20
138.229816865
  0
VERTEX
  8
0
 62
7
  6
CONTINUOUS
 10
32.1074382231
 20
138.3621192305
  0
VERTEX
  8
0
 62
7
  6
CONTINUOUS
 10
31.9762861743
 20
138.6635894308
  0
VERTEX
  8
0
 62
7
  6
CONTINUOUS
 10
31.9283649271
 20
138.8172392282
  0
VERTEX
  8
0
 62
7
  6
CONTINUOUS
 10
31.8776193077
 20
139.1188535828
  0
VERTEX
  8
0
 62
7
  6
CONTINUOUS
 10
31.8718686471
 20
139.2671853305
  0
SEQEND
  0
POLYLINE
  8
0
 62
9
  6
CONTINUOUS
 66
1
 70
0
  0
VERTEX
  8
0
 62
9
  6
CONTINUOUS
 10
33.925184444
 20
140.3339987024
  0
VERTEX
  8
0
 62
9
  6
CONTINUOUS
 10
33.8772090159
 20
140.4625885248
  0
VERTEX
  8
0
 62
9
  6
CONTINUOUS
 10
33.7836218991
 20
140.709991637
  0
VERTEX
  8
0
 62
9
  6
CONTINUOUS
 10
33.6929480872
 20
140.9396350501
  0
VERTEX
  8
0
 62
9
  6
CONTINUOUS
 10
33.6067317945
 20
141.1415306618
  0
VERTEX
  8
0
 62
9
  6
CONTINUOUS
 10
33.5657151918
 20
141.2293709236
  0
VERTEX
  8
0
 62
9
  6
CONTINUOUS
 10
33.4885241132
 20
141.3745194558
  0
VERTEX
  8
0
 62
9
  6
CONTINUOUS
 10
33.4184489445
 20
141.4746843013
  0
VERTEX
  8
0
 62
9
  6
CONTINUOUS
 10
33.3545469692
 20
141.5272392851
  0
VERTEX
  8
0
 62
9
  6
CONTINUOUS
 10
33.325184444
 20
141.5339987024
  0
SEQEND
  0
LINE
  8
0
 62
9
  6
CONTINUOUS
 10
45.1227470804
 20
145.7473683688
 11
45.1227470804
 21
154.0989987024
  0
LINE
  8
0
 62
7
  6
CONTINUOUS
 10
45.6227470804
 20
146.7473683688
 11
45.6227470804
 21
153.5989987024
  0
LINE
  8
0
 62
9
  6
CONTINUOUS
 10
45.1227470804
 20
145.7473683688
 11
45.6227470804
 21
146.7473683688
  0
POLYLINE
  8
0
 62
7
  6
CONTINUOUS
 66
1
 70
0
  0
VERTEX
  8
0
 62
7
  6
CONTINUOUS
 10
45.9727470804
 20
129.584253831
  0
VERTEX
  8
0
 62
7
  6
CONTINUOUS
 10
45.9895192036
 20
129.5634600103
  0
VERTEX
  8
0
 62
7
  6
CONTINUOUS
 10
46.0389108721
 20
129.5443140479
  0
VERTEX
  8
0
 62
7
  6
CONTINUOUS
 10
46.1178972491
 20
129.5280221721
  0
VERTEX
  8
0
 62
7
  6
CONTINUOUS
 10
46.221364501
 20
129.5155982972
  0
VERTEX
  8
0
 62
7
  6
CONTINUOUS
 10
46.3423948122
 20
129.507813194
  0
VERTEX
  8
0
 62
7
  6
CONTINUOUS
 10
46.4727470804
 20
129.5051582214
  0
SEQEND
  0
LINE
  8
0
 62
9
  6
CONTINUOUS
 10
36.8727470804
 20
146.7473683688
 11
37.3727470804
 21
145.7473683688
  0
LINE
  8
0
 62
7
  6
CONTINUOUS
 10
45.9727470804
 20
133.920629036
 11
45.9727470804
 21
127.0689987024
  0
LINE
  8
0
 62
9
  6
CONTINUOUS
 10
46.4727470804
 20
134.920629036
 11
46.4727470804
 21
126.5689987024
  0
POLYLINE
  8
0
 62
7
  6
CONTINUOUS
 66
1
 70
0
  0
VERTEX
  8
0
 62
7
  6
CONTINUOUS
 10
35.8227470804
 20
129.584253831
  0
VERTEX
  8
0
 62
7
  6
CONTINUOUS
 10
35.8059749573
 20
129.5634600103
  0
VERTEX
  8
0
 62
7
  6
CONTINUOUS
 10
35.7565832888
 20
129.5443140479
  0
VERTEX
  8
0
 62
7
  6
CONTINUOUS
 10
35.6775969118
 20
129.5280221721
  0
VERTEX
  8
0
 62
7
  6
CONTINUOUS
 10
35.5741296599
 20
129.5155982972
  0
VERTEX
  8
0
 62
7
  6
CONTINUOUS
 10
35.4530993487
 20
129.507813194
  0
VERTEX
  8
0
 62
7
  6
CONTINUOUS
 10
35.3227470804
 20
129.5051582214
  0
SEQEND
  0
LINE
  8
0
 62
9
  6
CONTINUOUS
 10
36.3227470804
 20
134.420629036
 11
35.3227470804
 21
134.920629036
  0
LINE
  8
0
 62
9
  6
CONTINUOUS
 10
46.4727470804
 20
134.920629036
 11
45.9727470804
 21
133.920629036
  0
POLYLINE
  8
0
 62
7
  6
CONTINUOUS
 66
1
 70
0
  0
VERTEX
  8
0
 62
7
  6
CONTINUOUS
 10
55.5227470804
 20
151.0837435738
  0
VERTEX
  8
0
 62
7
  6
CONTINUOUS
 10
55.5395192036
 20
151.1045373945
  0
VERTEX
  8
0
 62
7
  6
CONTINUOUS
 10
55.5889108721
 20
151.1236833569
  0
VERTEX
  8
0
 62
7
  6
CONTINUOUS
 10
55.6678972491
 20
151.1399752328
  0
VERTEX
  8
0
 62
7
  6
CONTINUOUS
 10
55.771364501
 20
151.1523991077
  0
VERTEX
  8
0
 62
7
  6
CONTINUOUS
 10
55.8923948122
 20
151.1601842109
  0
VERTEX
  8
0
 62
7
  6
CONTINUOUS
 10
56.0227470804
 20
151.1628391835
  0
SEQEND
  0
LINE
  8
0
 62
9
  6
CONTINUOUS
 10
31.7727470805
 20
134.8592785241
 11
32.1727470804
 21
135.1592785241
  0
LINE
  8
0
 62
9
  6
CONTINUOUS
 10
45.1227470804
 20
145.7473683688
 11
46.1227470804
 21
146.2473683688
  0
LINE
  8
0
 62
9
  6
CONTINUOUS
 10
31.756614713
 20
144.503040717
 11
32.1727470804
 21
144.2258515167
  0
LINE
  8
0
 62
9
  6
CONTINUOUS
 10
31.7888794479
 20
144.5514783925
 11
32.2050118154
 21
144.2742891922
  0
LINE
  8
0
 62
9
  6
CONTINUOUS
 10
55.1727470804
 20
133.920629036
 11
54.6727470804
 21
134.920629036
  0
LINE
  8
0
 62
9
  6
CONTINUOUS
 10
54.6727470804
 20
126.5689987024
 11
54.6727470804
 21
134.920629036
  0
LINE
  8
0
 62
7
  6
CONTINUOUS
 10
55.1727470804
 20
133.920629036
 11
55.1727470804
 21
127.0689987024
  0
LINE
  8
0
 62
7
  6
CONTINUOUS
 10
55.5227470804
 20
146.7473682511
 11
55.5227470804
 21
153.5989987024
  0
LINE
  8
0
 62
9
  6
CONTINUOUS
 10
56.0227470804
 20
145.7473683688
 11
56.0227470804
 21
154.0989987024
  0
LINE
  8
0
 62
7
  6
CONTINUOUS
 10
32.3727470804
 20
126.5689987024
 11
35.3227470804
 21
126.5689987024
  0
LINE
  8
0
 62
7
  6
CONTINUOUS
 10
46.4727470804
 20
126.5689987024
 11
54.6727470804
 21
126.5689987024
  0
LINE
  8
0
 62
7
  6
CONTINUOUS
 10
65.5727470804
 20
126.5689987024
 11
73.7727470804
 21
126.5689987024
  0
LINE
  8
0
 62
7
  6
CONTINUOUS
 10
84.6727470804
 20
126.5689987024
 11
92.8727470804
 21
126.5689987024
  0
LINE
  8
0
 62
7
  6
CONTINUOUS
 10
104.0227470804
 20
126.5689987024
 11
106.9727470804
 21
126.5689987024
  0
POLYLINE
  8
0
 62
7
  6
CONTINUOUS
 66
1
 70
0
  0
VERTEX
  8
0
 62
7
  6
CONTINUOUS
 10
106.9727470804
 20
129.5051582214
  0
VERTEX
  8
0
 62
7
  6
CONTINUOUS
 10
107.1030993487
 20
129.507813194
  0
VERTEX
  8
0
 62
7
  6
CONTINUOUS
 10
107.2241296599
 20
129.5155982972
  0
VERTEX
  8
0
 62
7
  6
CONTINUOUS
 10
107.3275969118
 20
129.5280221721
  0
VERTEX
  8
0
 62
7
  6
CONTINUOUS
 10
107.4065832888
 20
129.5443140479
  0
VERTEX
  8
0
 62
7
  6
CONTINUOUS
 10
107.4559749573
 20
129.5634600103
  0
VERTEX
  8
0
 62
7
  6
CONTINUOUS
 10
107.4727470804
 20
129.584253831
  0
SEQEND
  0
LINE
  8
0
 62
7
  6
CONTINUOUS
 10
32.3727470804
 20
129.5051582214
 11
35.3227470804
 21
129.5051582214
  0
LINE
  8
0
 62
7
  6
CONTINUOUS
 10
46.4727470804
 20
129.5051582214
 11
54.6727470804
 21
129.5051582214
  0
LINE
  8
0
 62
7
  6
CONTINUOUS
 10
65.5727470804
 20
129.5051582214
 11
73.7727470804
 21
129.5051582214
  0
LINE
  8
0
 62
7
  6
CONTINUOUS
 10
84.6727470804
 20
129.5051582214
 11
92.8727470804
 21
129.5051582214
  0
LINE
  8
0
 62
7
  6
CONTINUOUS
 10
104.0227470804
 20
129.5051582214
 11
106.9727470804
 21
129.5051582214
  0
POLYLINE
  8
0
 62
7
  6
CONTINUOUS
 66
1
 70
0
  0
VERTEX
  8
0
 62
7
  6
CONTINUOUS
 10
32.3727470804
 20
129.5051582214
  0
VERTEX
  8
0
 62
7
  6
CONTINUOUS
 10
32.2423948122
 20
129.507813194
  0
VERTEX
  8
0
 62
7
  6
CONTINUOUS
 10
32.121364501
 20
129.5155982972
  0
VERTEX
  8
0
 62
7
  6
CONTINUOUS
 10
32.0178972491
 20
129.5280221721
  0
VERTEX
  8
0
 62
7
  6
CONTINUOUS
 10
31.9389108721
 20
129.5443140479
  0
VERTEX
  8
0
 62
7
  6
CONTINUOUS
 10
31.8895192036
 20
129.5634600103
  0
VERTEX
  8
0
 62
7
  6
CONTINUOUS
 10
31.8727470804
 20
129.584253831
  0
SEQEND
  0
LINE
  8
0
 62
9
  6
CONTINUOUS
 10
55.6727470804
 20
134.420629036
 11
54.6727470804
 21
134.920629036
  0
POLYLINE
  8
0
 62
7
  6
CONTINUOUS
 66
1
 70
0
  0
VERTEX
  8
0
 62
7
  6
CONTINUOUS
 10
45.6227470804
 20
151.0837435738
  0
VERTEX
  8
0
 62
7
  6
CONTINUOUS
 10
45.6059749573
 20
151.1045373945
  0
VERTEX
  8
0
 62
7
  6
CONTINUOUS
 10
45.5565832888
 20
151.1236833569
  0
VERTEX
  8
0
 62
7
  6
CONTINUOUS
 10
45.4775969118
 20
151.1399752328
  0
VERTEX
  8
0
 62
7
  6
CONTINUOUS
 10
45.3741296599
 20
151.1523991077
  0
VERTEX
  8
0
 62
7
  6
CONTINUOUS
 10
45.2530993487
 20
151.1601842109
  0
VERTEX
  8
0
 62
7
  6
CONTINUOUS
 10
45.1227470804
 20
151.1628391835
  0
SEQEND
  0
POLYLINE
  8
0
 62
9
  6
CONTINUOUS
 66
1
 70
0
  0
VERTEX
  8
0
 62
9
  6
CONTINUOUS
 10
106.0203097169
 20
139.1339987024
  0
VERTEX
  8
0
 62
9
  6
CONTINUOUS
 10
106.1538222774
 20
139.159070788
  0
VERTEX
  8
0
 62
9
  6
CONTINUOUS
 10
106.2806399616
 20
139.2330298274
  0
VERTEX
  8
0
 62
9
  6
CONTINUOUS
 10
106.3944036013
 20
139.352167208
  0
VERTEX
  8
0
 62
9
  6
CONTINUOUS
 10
106.4894086118
 20
139.5105088862
  0
VERTEX
  8
0
 62
9
  6
CONTINUOUS
 10
106.560891044
 20
139.7001149502
  0
VERTEX
  8
0
 62
9
  6
CONTINUOUS
 10
106.6052664691
 20
139.9114777605
  0
VERTEX
  8
0
 62
9
  6
CONTINUOUS
 10
106.6203097169
 20
140.1339987024
  0
SEQEND
  0
LINE
  8
1_AXIS
 62
2
  6
CENTER
 10
23.5678105617
 20
130.8089987024
 11
108.4570562364
 21
130.8089987024
  0
POLYLINE
  8
0
 62
9
  6
CONTINUOUS
 66
1
 70
0
  0
VERTEX
  8
0
 62
9
  6
CONTINUOUS
 10
33.325184444
 20
139.1339987024
  0
VERTEX
  8
0
 62
9
  6
CONTINUOUS
 10
33.1916719241
 20
139.1590707748
  0
VERTEX
  8
0
 62
9
  6
CONTINUOUS
 10
33.0648542644
 20
139.2330297832
  0
VERTEX
  8
0
 62
9
  6
CONTINUOUS
 10
32.9510906293
 20
139.3521671316
  0
VERTEX
  8
0
 62
9
  6
CONTINUOUS
 10
32.8560856059
 20
139.5105087929
  0
VERTEX
  8
0
 62
9
  6
CONTINUOUS
 10
32.7846031514
 20
139.7001148657
  0
VERTEX
  8
0
 62
9
  6
CONTINUOUS
 10
32.7402277046
 20
139.9114777105
  0
VERTEX
  8
0
 62
9
  6
CONTINUOUS
 10
32.725184444
 20
140.1339987024
  0
SEQEND
  0
POLYLINE
  8
0
 62
9
  6
CONTINUOUS
 66
1
 70
0
  0
VERTEX
  8
0
 62
9
  6
CONTINUOUS
 10
33.925184444
 20
140.3339987024
  0
VERTEX
  8
0
 62
9
  6
CONTINUOUS
 10
33.8292291302
 20
140.3554297916
  0
VERTEX
  8
0
 62
9
  6
CONTINUOUS
 10
33.6420557878
 20
140.3966637689
  0
VERTEX
  8
0
 62
9
  6
CONTINUOUS
 10
33.4607112187
 20
140.4349380142
  0
VERTEX
  8
0
 62
9
  6
CONTINUOUS
 10
33.2882793785
 20
140.4685873325
  0
VERTEX
  8
0
 62
9
  6
CONTINUOUS
 10
33.2062463926
 20
140.4832273814
  0
VERTEX
  8
0
 62
9
  6
CONTINUOUS
 10
33.0518643447
 20
140.5074187941
  0
VERTEX
  8
0
 62
9
  6
CONTINUOUS
 10
32.9117124048
 20
140.5241128831
  0
VERTEX
  8
0
 62
9
  6
CONTINUOUS
 10
32.7838985769
 20
140.532872008
  0
VERTEX
  8
0
 62
9
  6
CONTINUOUS
 10
32.725184444
 20
140.5339987024
  0
SEQEND
  0
LINE
  8
0
 62
9
  6
CONTINUOUS
 10
36.3727470804
 20
146.2473683688
 11
37.3727470805
 21
145.7473683688
  0
POLYLINE
  8
0
 62
7
  6
CONTINUOUS
 66
1
 70
0
  0
VERTEX
  8
0
 62
7
  6
CONTINUOUS
 10
65.0727470804
 20
129.584253831
  0
VERTEX
  8
0
 62
7
  6
CONTINUOUS
 10
65.0895192036
 20
129.5634600103
  0
VERTEX
  8
0
 62
7
  6
CONTINUOUS
 10
65.1389108721
 20
129.5443140479
  0
VERTEX
  8
0
 62
7
  6
CONTINUOUS
 10
65.2178972491
 20
129.5280221721
  0
VERTEX
  8
0
 62
7
  6
CONTINUOUS
 10
65.321364501
 20
129.5155982972
  0
VERTEX
  8
0
 62
7
  6
CONTINUOUS
 10
65.4423948122
 20
129.507813194
  0
VERTEX
  8
0
 62
7
  6
CONTINUOUS
 10
65.5727470804
 20
129.5051582214
  0
SEQEND
  0
LINE
  8
0
 62
9
  6
CONTINUOUS
 10
56.0227470804
 20
145.7473683688
 11
55.5227470805
 21
146.7473685225
  0
LINE
  8
0
 62
9
  6
CONTINUOUS
 10
64.2227470804
 20
145.7473683688
 11
64.2227470804
 21
154.0989987024
  0
LINE
  8
0
 62
9
  6
CONTINUOUS
 10
64.2227470804
 20
145.7473683688
 11
64.7227470804
 21
146.7473683688
  0
LINE
  8
0
 62
9
  6
CONTINUOUS
 10
64.2227470804
 20
145.7473683688
 11
65.2227470804
 21
146.2473683688
  0
LINE
  8
0
 62
9
  6
CONTINUOUS
 10
46.4727470804
 20
134.920629036
 11
45.4727470804
 21
134.420629036
  0
POLYLINE
  8
0
 62
9
  6
CONTINUOUS
 66
1
 70
0
  0
VERTEX
  8
0
 62
9
  6
CONTINUOUS
 10
106.0203097169
 20
141.5339987024
  0
VERTEX
  8
0
 62
9
  6
CONTINUOUS
 10
105.9915962961
 20
141.5275247516
  0
VERTEX
  8
0
 62
9
  6
CONTINUOUS
 10
105.9285809809
 20
141.4764430663
  0
VERTEX
  8
0
 62
9
  6
CONTINUOUS
 10
105.8579009294
 20
141.3760741046
  0
VERTEX
  8
0
 62
9
  6
CONTINUOUS
 10
105.7801972782
 20
141.2302332264
  0
VERTEX
  8
0
 62
9
  6
CONTINUOUS
 10
105.7389817738
 20
141.1420166963
  0
VERTEX
  8
0
 62
9
  6
CONTINUOUS
 10
105.6525863319
 20
140.939733744
  0
VERTEX
  8
0
 62
9
  6
CONTINUOUS
 10
105.5620660145
 20
140.7104958028
  0
VERTEX
  8
0
 62
9
  6
CONTINUOUS
 10
105.4684536164
 20
140.4630389722
  0
VERTEX
  8
0
 62
9
  6
CONTINUOUS
 10
105.4203097169
 20
140.3339987024
  0
SEQEND
  0
POLYLINE
  8
0
 62
9
  6
CONTINUOUS
 66
1
 70
0
  0
VERTEX
  8
0
 62
9
  6
CONTINUOUS
 10
106.4552552665
 20
139.1339987024
  0
VERTEX
  8
0
 62
9
  6
CONTINUOUS
 10
106.6777677275
 20
139.1590707902
  0
VERTEX
  8
0
 62
9
  6
CONTINUOUS
 10
106.8891224846
 20
139.2330298345
  0
VERTEX
  8
0
 62
9
  6
CONTINUOUS
 10
107.0787213278
 20
139.35216722
  0
VERTEX
  8
0
 62
9
  6
CONTINUOUS
 10
107.2370569792
 20
139.5105089006
  0
VERTEX
  8
0
 62
9
  6
CONTINUOUS
 10
107.3561898283
 20
139.7001149633
  0
VERTEX
  8
0
 62
9
  6
CONTINUOUS
 10
107.4301460564
 20
139.9114777685
  0
VERTEX
  8
0
 62
9
  6
CONTINUOUS
 10
107.4552171895
 20
140.1339987024
  0
SEQEND
  0
LINE
  8
0
 62
7
  6
CONTINUOUS
 10
103.0227470804
 20
134.420629036
 11
93.8727470804
 21
134.420629036
  0
LINE
  8
0
 62
7
  6
CONTINUOUS
 10
83.6727470804
 20
134.420629036
 11
74.7727470804
 21
134.420629036
  0
LINE
  8
0
 62
7
  6
CONTINUOUS
 10
64.5727470804
 20
134.420629036
 11
55.6727470804
 21
134.420629036
  0
LINE
  8
0
 62
7
  6
CONTINUOUS
 10
45.4727470804
 20
134.420629036
 11
36.3227470804
 21
134.420629036
  0
LINE
  8
0
 62
9
  6
CONTINUOUS
 10
107.4727470804
 20
134.5592785241
 11
106.9727470804
 21
134.5592785241
  0
LINE
  8
0
 62
9
  6
CONTINUOUS
 10
31.8727470804
 20
134.5592785241
 11
32.3727470804
 21
134.5592785241
  0
LINE
  8
0
 62
9
  6
CONTINUOUS
 10
104.0227470804
 20
134.920629036
 11
92.8727470804
 21
134.920629036
  0
LINE
  8
0
 62
9
  6
CONTINUOUS
 10
84.6727470804
 20
134.920629036
 11
73.7727470804
 21
134.920629036
  0
LINE
  8
0
 62
9
  6
CONTINUOUS
 10
65.5727470804
 20
134.920629036
 11
54.6727470804
 21
134.920629036
  0
LINE
  8
0
 62
9
  6
CONTINUOUS
 10
46.4727470804
 20
134.920629036
 11
35.3227470804
 21
134.920629036
  0
LINE
  8
0
 62
9
  6
CONTINUOUS
 10
107.6727470804
 20
135.1592785241
 11
107.1727470804
 21
135.1592785241
  0
LINE
  8
0
 62
9
  6
CONTINUOUS
 10
31.6727470804
 20
135.1592785241
 11
32.1727470804
 21
135.1592785241
  0
POLYLINE
  8
0
 62
9
  6
CONTINUOUS
 66
1
 70
0
  0
VERTEX
  8
0
 62
9
  6
CONTINUOUS
 10
32.8902388944
 20
139.1339987024
  0
VERTEX
  8
0
 62
9
  6
CONTINUOUS
 10
32.6677264439
 20
139.1590707878
  0
VERTEX
  8
0
 62
9
  6
CONTINUOUS
 10
32.4563716942
 20
139.2330298259
  0
VERTEX
  8
0
 62
9
  6
CONTINUOUS
 10
32.2667728534
 20
139.3521672038
  0
VERTEX
  8
0
 62
9
  6
CONTINUOUS
 10
32.108437199
 20
139.5105088788
  0
VERTEX
  8
0
 62
9
  6
CONTINUOUS
 10
31.9893043433
 20
139.7001149412
  0
VERTEX
  8
0
 62
9
  6
CONTINUOUS
 10
31.9153481079
 20
139.9114777535
  0
VERTEX
  8
0
 62
9
  6
CONTINUOUS
 10
31.8902769714
 20
140.1339987024
  0
SEQEND
  0
LINE
  8
0
 62
7
  6
CONTINUOUS
 10
64.7227470804
 20
146.7473683688
 11
64.7227470804
 21
153.5989987024
  0
LINE
  8
0
 62
7
  6
CONTINUOUS
 10
65.0727470804
 20
127.0689987024
 11
65.0727470804
 21
133.920629036
  0
LINE
  8
0
 62
9
  6
CONTINUOUS
 10
65.5727470804
 20
126.5689987024
 11
65.5727470804
 21
134.920629036
  0
POLYLINE
  8
0
 62
7
  6
CONTINUOUS
 66
1
 70
0
  0
VERTEX
  8
0
 62
7
  6
CONTINUOUS
 10
55.1727470804
 20
129.584253831
  0
VERTEX
  8
0
 62
7
  6
CONTINUOUS
 10
55.1559749573
 20
129.5634600103
  0
VERTEX
  8
0
 62
7
  6
CONTINUOUS
 10
55.1065832888
 20
129.5443140479
  0
VERTEX
  8
0
 62
7
  6
CONTINUOUS
 10
55.0275969118
 20
129.5280221721
  0
VERTEX
  8
0
 62
7
  6
CONTINUOUS
 10
54.9241296599
 20
129.5155982972
  0
VERTEX
  8
0
 62
7
  6
CONTINUOUS
 10
54.8030993487
 20
129.507813194
  0
VERTEX
  8
0
 62
7
  6
CONTINUOUS
 10
54.6727470804
 20
129.5051582214
  0
SEQEND
  0
POLYLINE
  8
0
 62
7
  6
CONTINUOUS
 66
1
 70
0
  0
VERTEX
  8
0
 62
7
  6
CONTINUOUS
 10
74.6227470804
 20
151.0837435738
  0
VERTEX
  8
0
 62
7
  6
CONTINUOUS
 10
74.6395192036
 20
151.1045373945
  0
VERTEX
  8
0
 62
7
  6
CONTINUOUS
 10
74.6889108721
 20
151.1236833569
  0
VERTEX
  8
0
 62
7
  6
CONTINUOUS
 10
74.7678972491
 20
151.1399752328
  0
VERTEX
  8
0
 62
7
  6
CONTINUOUS
 10
74.871364501
 20
151.1523991077
  0
VERTEX
  8
0
 62
7
  6
CONTINUOUS
 10
74.9923948122
 20
151.1601842109
  0
VERTEX
  8
0
 62
7
  6
CONTINUOUS
 10
75.1227470804
 20
151.1628391835
  0
SEQEND
  0
POLYLINE
  8
0
 62
9
  6
CONTINUOUS
 66
1
 70
0
  0
VERTEX
  8
0
 62
9
  6
CONTINUOUS
 10
106.42027164
 20
139.1339987024
  0
VERTEX
  8
0
 62
9
  6
CONTINUOUS
 10
106.524796123
 20
139.139476807
  0
VERTEX
  8
0
 62
9
  6
CONTINUOUS
 10
106.7292768676
 20
139.182942186
  0
VERTEX
  8
0
 62
9
  6
CONTINUOUS
 10
106.9202526011
 20
139.2679732984
  0
VERTEX
  8
0
 62
9
  6
CONTINUOUS
 10
107.0893767678
 20
139.3908538768
  0
VERTEX
  8
0
 62
9
  6
CONTINUOUS
 10
107.1633881689
 20
139.4648680962
  0
VERTEX
  8
0
 62
9
  6
CONTINUOUS
 10
107.2862640684
 20
139.6339987028
  0
VERTEX
  8
0
 62
9
  6
CONTINUOUS
 10
107.3712919431
 20
139.8249817084
  0
VERTEX
  8
0
 62
9
  6
CONTINUOUS
 10
107.414755667
 20
140.0294702393
  0
VERTEX
  8
0
 62
9
  6
CONTINUOUS
 10
107.4202335631
 20
140.1339987024
  0
SEQEND
  0
LINE
  8
0
 62
9
  6
CONTINUOUS
 10
32.864058291
 20
137.1339987024
 11
106.4814358699
 21
137.1339987024
  0
POLYLINE
  8
0
 62
9
  6
CONTINUOUS
 66
1
 70
0
  0
VERTEX
  8
0
 62
9
  6
CONTINUOUS
 10
32.9252225209
 20
139.1339987024
  0
VERTEX
  8
0
 62
9
  6
CONTINUOUS
 10
32.8206980378
 20
139.1394768071
  0
VERTEX
  8
0
 62
9
  6
CONTINUOUS
 10
32.6162172929
 20
139.1829421861
  0
VERTEX
  8
0
 62
9
  6
CONTINUOUS
 10
32.4252415594
 20
139.2679732986
  0
VERTEX
  8
0
 62
9
  6
CONTINUOUS
 10
32.256117393
 20
139.3908538769
  0
VERTEX
  8
0
 62
9
  6
CONTINUOUS
 10
32.1821059921
 20
139.4648680961
  0
VERTEX
  8
0
 62
9
  6
CONTINUOUS
 10
32.0592300927
 20
139.6339987024
  0
VERTEX
  8
0
 62
9
  6
CONTINUOUS
 10
31.9742022179
 20
139.824981708
  0
VERTEX
  8
0
 62
9
  6
CONTINUOUS
 10
31.9307384939
 20
140.0294702392
  0
VERTEX
  8
0
 62
9
  6
CONTINUOUS
 10
31.9252605978
 20
140.1339987024
  0
SEQEND
  0
LINE
  8
0
 62
9
  6
CONTINUOUS
 10
74.7727470804
 20
134.420629036
 11
73.7727470804
 21
134.920629036
  0
LINE
  8
1_AXIS
 62
2
  6
CENTER
 10
69.6727470804
 20
156.2422721745
 11
69.6727470804
 21
142.3340987024
  0
LINE
  8
1_AXIS
 62
2
  6
CONTINUOUS
 10
69.6727470804
 20
141.2139987024
 11
69.6727470804
 21
139.4539987024
  0
LINE
  8
1_AXIS
 62
2
  6
CENTER
 10
69.6727470804
 20
122.1462611018
 11
69.6727470804
 21
138.3338987024
  0
LINE
  8
0
 62
9
  6
CONTINUOUS
 10
65.5727470804
 20
134.920629036
 11
65.0727470804
 21
133.920629036
  0
POLYLINE
  8
0
 62
9
  6
CONTINUOUS
 66
1
 70
0
  0
VERTEX
  8
0
 62
9
  6
CONTINUOUS
 10
106.6203097169
 20
140.5339987024
  0
VERTEX
  8
0
 62
9
  6
CONTINUOUS
 10
106.5628931877
 20
140.5329195935
  0
VERTEX
  8
0
 62
9
  6
CONTINUOUS
 10
106.4368535921
 20
140.5244060236
  0
VERTEX
  8
0
 62
9
  6
CONTINUOUS
 10
106.2954914576
 20
140.5076779086
  0
VERTEX
  8
0
 62
9
  6
CONTINUOUS
 10
106.1400843426
 20
140.4833710985
  0
VERTEX
  8
0
 62
9
  6
CONTINUOUS
 10
106.0576535968
 20
140.4686683351
  0
VERTEX
  8
0
 62
9
  6
CONTINUOUS
 10
105.8848634912
 20
140.4349544588
  0
VERTEX
  8
0
 62
9
  6
CONTINUOUS
 10
105.7038261039
 20
140.3967477693
  0
VERTEX
  8
0
 62
9
  6
CONTINUOUS
 10
105.516601948
 20
140.3555048693
  0
VERTEX
  8
0
 62
9
  6
CONTINUOUS
 10
105.4203097169
 20
140.3339987024
  0
SEQEND
  0
LINE
  8
0
 62
7
  6
CONTINUOUS
 10
106.4552552665
 20
139.1339987024
 11
32.8902388944
 21
139.1339987024
  0
LINE
  8
0
 62
9
  6
CONTINUOUS
 10
107.4552171895
 20
140.1339987024
 11
106.6203097169
 21
140.1339987024
  0
LINE
  8
0
 62
9
  6
CONTINUOUS
 10
32.725184444
 20
140.1339987024
 11
31.8902769714
 21
140.1339987024
  0
LINE
  8
1_AXIS
 62
2
  6
CENTER
 10
111.4609667038
 20
140.3339987024
 11
71.6728470804
 21
140.3339987024
  0
LINE
  8
1_AXIS
 62
2
  6
CONTINUOUS
 10
70.5527470804
 20
140.3339987024
 11
68.7927470804
 21
140.3339987024
  0
LINE
  8
1_AXIS
 62
2
  6
CENTER
 10
27.6942234512
 20
140.3339987024
 11
67.6726470804
 21
140.3339987024
  0
LINE
  8
0
 62
9
  6
CONTINUOUS
 10
107.4552171895
 20
140.5339987024
 11
106.6203097169
 21
140.5339987024
  0
LINE
  8
0
 62
9
  6
CONTINUOUS
 10
32.725184444
 20
140.5339987024
 11
31.8902769714
 21
140.5339987024
  0
LINE
  8
0
 62
9
  6
CONTINUOUS
 10
56.0227470804
 20
145.7473683688
 11
55.0227470804
 21
146.2473683688
  0
LINE
  8
0
 62
9
  6
CONTINUOUS
 10
83.3227470804
 20
145.7473683688
 11
84.3227470804
 21
146.2473683688
  0
LINE
  8
0
 62
9
  6
CONTINUOUS
 10
65.5727470804
 20
134.920629036
 11
64.5727470804
 21
134.420629036
  0
LINE
  8
0
 62
7
  6
CONTINUOUS
 10
106.4552552665
 20
141.5339987024
 11
32.8902388944
 21
141.5339987024
  0
POLYLINE
  8
0
 62
9
  6
CONTINUOUS
 66
1
 70
0
  0
VERTEX
  8
0
 62
9
  6
CONTINUOUS
 10
106.6203097169
 20
140.1339987024
  0
VERTEX
  8
0
 62
9
  6
CONTINUOUS
 10
106.5628206746
 20
140.1350804463
  0
VERTEX
  8
0
 62
9
  6
CONTINUOUS
 10
106.4368276602
 20
140.1435938413
  0
VERTEX
  8
0
 62
9
  6
CONTINUOUS
 10
106.2955236083
 20
140.1603150292
  0
VERTEX
  8
0
 62
9
  6
CONTINUOUS
 10
106.1401874773
 20
140.1846085968
  0
VERTEX
  8
0
 62
9
  6
CONTINUOUS
 10
106.057794538
 20
140.1993030574
  0
VERTEX
  8
0
 62
9
  6
CONTINUOUS
 10
105.8850847778
 20
140.2329977621
  0
VERTEX
  8
0
 62
9
  6
CONTINUOUS
 10
105.704127572
 20
140.2711843149
  0
SEQEND
  0
POLYLINE
  8
0
 62
7
  6
CONTINUOUS
 66
1
 70
0
  0
VERTEX
  8
0
 62
7
  6
CONTINUOUS
 10
64.7227470804
 20
151.0837435738
  0
VERTEX
  8
0
 62
7
  6
CONTINUOUS
 10
64.7059749573
 20
151.1045373945
  0
VERTEX
  8
0
 62
7
  6
CONTINUOUS
 10
64.6565832888
 20
151.1236833569
  0
VERTEX
  8
0
 62
7
  6
CONTINUOUS
 10
64.5775969118
 20
151.1399752328
  0
VERTEX
  8
0
 62
7
  6
CONTINUOUS
 10
64.4741296599
 20
151.1523991077
  0
VERTEX
  8
0
 62
7
  6
CONTINUOUS
 10
64.3530993487
 20
151.1601842109
  0
VERTEX
  8
0
 62
7
  6
CONTINUOUS
 10
64.2227470804
 20
151.1628391835
  0
SEQEND
  0
LINE
  8
0
 62
9
  6
CONTINUOUS
 10
74.2727470804
 20
133.920629036
 11
73.7727470804
 21
134.920629036
  0
LINE
  8
0
 62
9
  6
CONTINUOUS
 10
73.7727470804
 20
126.5689987024
 11
73.7727470804
 21
134.920629036
  0
LINE
  8
0
 62
7
  6
CONTINUOUS
 10
74.2727470804
 20
133.920629036
 11
74.2727470804
 21
127.0689987024
  0
LINE
  8
0
 62
7
  6
CONTINUOUS
 10
74.6227470804
 20
146.7473682511
 11
74.6227470804
 21
153.5989987024
  0
LINE
  8
0
 62
9
  6
CONTINUOUS
 10
75.1227470804
 20
145.7473683688
 11
75.1227470804
 21
154.0989987024
  0
LINE
  8
0
 62
9
  6
CONTINUOUS
 10
32.8206980378
 20
141.5285205978
 11
32.9252225209
 21
141.5339987024
  0
LINE
  8
0
 62
9
  6
CONTINUOUS
 10
32.864058291
 20
143.5339987024
 11
106.4814358699
 21
143.5339987024
  0
LINE
  8
0
 62
9
  6
CONTINUOUS
 10
107.6727470804
 20
144.2258515167
 11
107.1727470804
 21
144.2258515167
  0
LINE
  8
0
 62
9
  6
CONTINUOUS
 10
31.6727470804
 20
144.2258515167
 11
32.1727470804
 21
144.2258515167
  0
LINE
  8
0
 62
9
  6
CONTINUOUS
 10
107.4727470804
 20
144.8286675927
 11
106.9727470805
 21
144.8286675927
  0
LINE
  8
0
 62
9
  6
CONTINUOUS
 10
31.8727470804
 20
144.8286675927
 11
32.3727470804
 21
144.8286675927
  0
LINE
  8
0
 62
9
  6
CONTINUOUS
 10
31.8727470804
 20
145.7473683688
 11
37.3727470804
 21
145.7473683688
  0
LINE
  8
0
 62
9
  6
CONTINUOUS
 10
45.1227470804
 20
145.7473683688
 11
56.0227470804
 21
145.7473683688
  0
LINE
  8
0
 62
9
  6
CONTINUOUS
 10
64.2227470804
 20
145.7473683688
 11
75.1227470804
 21
145.7473683688
  0
LINE
  8
0
 62
9
  6
CONTINUOUS
 10
83.3227470804
 20
145.7473683688
 11
94.2227470804
 21
145.7473683688
  0
LINE
  8
0
 62
9
  6
CONTINUOUS
 10
101.9727470804
 20
145.7473683688
 11
107.4727470804
 21
145.7473683688
  0
LINE
  8
0
 62
9
  6
CONTINUOUS
 10
93.8727470804
 20
134.420629036
 11
92.8727470804
 21
134.920629036
  0
POLYLINE
  8
0
 62
7
  6
CONTINUOUS
 66
1
 70
0
  0
VERTEX
  8
0
 62
7
  6
CONTINUOUS
 10
84.1727470804
 20
129.584253831
  0
VERTEX
  8
0
 62
7
  6
CONTINUOUS
 10
84.1895192036
 20
129.5634600103
  0
VERTEX
  8
0
 62
7
  6
CONTINUOUS
 10
84.2389108721
 20
129.5443140479
  0
VERTEX
  8
0
 62
7
  6
CONTINUOUS
 10
84.3178972491
 20
129.5280221721
  0
VERTEX
  8
0
 62
7
  6
CONTINUOUS
 10
84.421364501
 20
129.5155982972
  0
VERTEX
  8
0
 62
7
  6
CONTINUOUS
 10
84.5423948122
 20
129.507813194
  0
VERTEX
  8
0
 62
7
  6
CONTINUOUS
 10
84.6727470804
 20
129.5051582214
  0
SEQEND
  0
POLYLINE
  8
0
 62
9
  6
CONTINUOUS
 66
1
 70
0
  0
VERTEX
  8
0
 62
9
  6
CONTINUOUS
 10
33.925184444
 20
140.3339987024
  0
VERTEX
  8
0
 62
9
  6
CONTINUOUS
 10
33.6421047261
 20
140.2713442408
  0
VERTEX
  8
0
 62
9
  6
CONTINUOUS
 10
33.4608785252
 20
140.2330935568
  0
VERTEX
  8
0
 62
9
  6
CONTINUOUS
 10
33.2885471928
 20
140.1994595245
  0
VERTEX
  8
0
 62
9
  6
CONTINUOUS
 10
33.2065581671
 20
140.1848236151
  0
VERTEX
  8
0
 62
9
  6
CONTINUOUS
 10
33.0522465731
 20
140.1606319203
  0
VERTEX
  8
0
 62
9
  6
CONTINUOUS
 10
32.9121406382
 20
140.14392567
  0
VERTEX
  8
0
 62
9
  6
CONTINUOUS
 10
32.784055885
 20
140.1351312308
  0
VERTEX
  8
0
 62
9
  6
CONTINUOUS
 10
32.725184444
 20
140.1339987024
  0
SEQEND
  0
LINE
  8
0
 62
7
  6
CONTINUOUS
 10
32.3727470804
 20
146.2473683688
 11
36.3727470804
 21
146.2473683688
  0
LINE
  8
0
 62
7
  6
CONTINUOUS
 10
46.1227470804
 20
146.2473683688
 11
55.0227470804
 21
146.2473683688
  0
LINE
  8
0
 62
7
  6
CONTINUOUS
 10
65.2227470804
 20
146.2473683688
 11
74.1227470804
 21
146.2473683688
  0
LINE
  8
0
 62
7
  6
CONTINUOUS
 10
84.3227470804
 20
146.2473683688
 11
93.2227470804
 21
146.2473683688
  0
LINE
  8
0
 62
7
  6
CONTINUOUS
 10
102.9727470804
 20
146.2473683688
 11
106.9727470804
 21
146.2473683688
  0
LINE
  8
0
 62
9
  6
CONTINUOUS
 10
105.704127572
 20
140.2711843149
 11
105.4203097169
 21
140.3339987024
  0
POLYLINE
  8
0
 62
9
  6
CONTINUOUS
 66
1
 70
0
  0
VERTEX
  8
0
 62
9
  6
CONTINUOUS
 10
106.0203097169
 20
139.1339987024
  0
VERTEX
  8
0
 62
9
  6
CONTINUOUS
 10
105.9915600459
 20
139.1404884552
  0
VERTEX
  8
0
 62
9
  6
CONTINUOUS
 10
105.9285680055
 20
139.1915690954
  0
VERTEX
  8
0
 62
9
  6
CONTINUOUS
 10
105.8579170028
 20
139.2918964976
  0
VERTEX
  8
0
 62
9
  6
CONTINUOUS
 10
105.7802488452
 20
139.4376579213
  0
VERTEX
  8
0
 62
9
  6
CONTINUOUS
 10
105.739052244
 20
139.525824635
  0
VERTEX
  8
0
 62
9
  6
CONTINUOUS
 10
105.6526969727
 20
139.7279925541
  0
VERTEX
  8
0
 62
9
  6
CONTINUOUS
 10
105.5622167324
 20
139.9571096553
  0
VERTEX
  8
0
 62
9
  6
CONTINUOUS
 10
105.4685804449
 20
140.2046193156
  0
VERTEX
  8
0
 62
9
  6
CONTINUOUS
 10
105.4203097169
 20
140.3339987024
  0
SEQEND
  0
LINE
  8
0
 62
9
  6
CONTINUOUS
 10
75.1227470804
 20
145.7473683688
 11
74.1227470804
 21
146.2473683688
  0
LINE
  8
0
 62
9
  6
CONTINUOUS
 10
75.1227470804
 20
145.7473683688
 11
74.6227470805
 21
146.7473685225
  0
LINE
  8
0
 62
9
  6
CONTINUOUS
 10
83.3227470804
 20
145.7473683688
 11
83.8227470804
 21
146.7473683688
  0
POLYLINE
  8
0
 62
7
  6
CONTINUOUS
 66
1
 70
0
  0
VERTEX
  8
0
 62
7
  6
CONTINUOUS
 10
74.2727470804
 20
129.584253831
  0
VERTEX
  8
0
 62
7
  6
CONTINUOUS
 10
74.2559749573
 20
129.5634600103
  0
VERTEX
  8
0
 62
7
  6
CONTINUOUS
 10
74.2065832888
 20
129.5443140479
  0
VERTEX
  8
0
 62
7
  6
CONTINUOUS
 10
74.1275969118
 20
129.5280221721
  0
VERTEX
  8
0
 62
7
  6
CONTINUOUS
 10
74.0241296599
 20
129.5155982972
  0
VERTEX
  8
0
 62
7
  6
CONTINUOUS
 10
73.9030993487
 20
129.507813194
  0
VERTEX
  8
0
 62
7
  6
CONTINUOUS
 10
73.7727470804
 20
129.5051582214
  0
SEQEND
  0
LINE
  8
0
 62
9
  6
CONTINUOUS
 10
101.9727470804
 20
145.7473683688
 11
102.9727470804
 21
146.2473683688
  0
POLYLINE
  8
0
 62
7
  6
CONTINUOUS
 66
1
 70
0
  0
VERTEX
  8
0
 62
7
  6
CONTINUOUS
 10
32.3727470804
 20
146.2473683688
  0
VERTEX
  8
0
 62
7
  6
CONTINUOUS
 10
32.2424287851
 20
146.2300868602
  0
VERTEX
  8
0
 62
7
  6
CONTINUOUS
 10
32.1218262065
 20
146.1798480967
  0
VERTEX
  8
0
 62
7
  6
CONTINUOUS
 10
32.0190262237
 20
146.1007542139
  0
VERTEX
  8
0
 62
7
  6
CONTINUOUS
 10
31.9400509764
 20
145.9979159322
  0
VERTEX
  8
0
 62
7
  6
CONTINUOUS
 10
31.889983281
 20
145.8775187201
  0
VERTEX
  8
0
 62
7
  6
CONTINUOUS
 10
31.8727470804
 20
145.7473683688
  0
SEQEND
  0
LINE
  8
1_AXIS
 62
2
  6
CENTER
 10
24.9709385893
 20
149.8589987024
 11
108.0361178281
 21
149.8589987024
  0
LINE
  8
0
 62
7
  6
CONTINUOUS
 10
37.3727470804
 20
151.1628391835
 11
45.1227470804
 21
151.1628391835
  0
LINE
  8
0
 62
7
  6
CONTINUOUS
 10
56.0227470804
 20
151.1628391835
 11
64.2227470804
 21
151.1628391835
  0
LINE
  8
0
 62
7
  6
CONTINUOUS
 10
75.1227470804
 20
151.1628391835
 11
83.3227470804
 21
151.1628391835
  0
LINE
  8
0
 62
7
  6
CONTINUOUS
 10
94.2227470804
 20
151.1628391835
 11
101.9727470804
 21
151.1628391835
  0
POLYLINE
  8
0
 62
7
  6
CONTINUOUS
 66
1
 70
0
  0
VERTEX
  8
0
 62
7
  6
CONTINUOUS
 10
106.9727470804
 20
146.2473683688
  0
VERTEX
  8
0
 62
7
  6
CONTINUOUS
 10
107.1030653758
 20
146.2300868602
  0
VERTEX
  8
0
 62
7
  6
CONTINUOUS
 10
107.2236679544
 20
146.1798480967
  0
VERTEX
  8
0
 62
7
  6
CONTINUOUS
 10
107.3264679372
 20
146.1007542139
  0
VERTEX
  8
0
 62
7
  6
CONTINUOUS
 10
107.4054431845
 20
145.9979159322
  0
VERTEX
  8
0
 62
7
  6
CONTINUOUS
 10
107.4555108799
 20
145.8775187201
  0
VERTEX
  8
0
 62
7
  6
CONTINUOUS
 10
107.4727470804
 20
145.7473683688
  0
SEQEND
  0
LINE
  8
0
 62
9
  6
CONTINUOUS
 10
83.3227470804
 20
145.7473683688
 11
83.3227470804
 21
154.0989987024
  0
POLYLINE
  8
0
 62
7
  6
CONTINUOUS
 66
1
 70
0
  0
VERTEX
  8
0
 62
7
  6
CONTINUOUS
 10
93.7227470804
 20
151.0837435738
  0
VERTEX
  8
0
 62
7
  6
CONTINUOUS
 10
93.7395192036
 20
151.1045373945
  0
VERTEX
  8
0
 62
7
  6
CONTINUOUS
 10
93.7889108721
 20
151.1236833569
  0
VERTEX
  8
0
 62
7
  6
CONTINUOUS
 10
93.8678972491
 20
151.1399752328
  0
VERTEX
  8
0
 62
7
  6
CONTINUOUS
 10
93.971364501
 20
151.1523991077
  0
VERTEX
  8
0
 62
7
  6
CONTINUOUS
 10
94.0923948122
 20
151.1601842109
  0
VERTEX
  8
0
 62
7
  6
CONTINUOUS
 10
94.2227470804
 20
151.1628391835
  0
SEQEND
  0
LINE
  8
0
 62
9
  6
CONTINUOUS
 10
84.6727470804
 20
134.920629036
 11
83.6727470804
 21
134.420629036
  0
LINE
  8
0
 62
7
  6
CONTINUOUS
 10
37.3727470804
 20
154.0989987024
 11
45.1227470804
 21
154.0989987024
  0
LINE
  8
0
 62
7
  6
CONTINUOUS
 10
56.0227470804
 20
154.0989987024
 11
64.2227470804
 21
154.0989987024
  0
LINE
  8
0
 62
7
  6
CONTINUOUS
 10
75.1227470804
 20
154.0989987024
 11
83.3227470804
 21
154.0989987024
  0
LINE
  8
0
 62
7
  6
CONTINUOUS
 10
94.2227470804
 20
154.0989987024
 11
101.9727470804
 21
154.0989987024
  0
LINE
  8
0
 62
7
  6
CONTINUOUS
 10
83.8227470804
 20
146.7473683688
 11
83.8227470804
 21
153.5989987024
  0
LINE
  8
0
 62
7
  6
CONTINUOUS
 10
84.1727470804
 20
133.920629036
 11
84.1727470804
 21
127.0689987024
  0
LINE
  8
0
 62
9
  6
CONTINUOUS
 10
84.6727470804
 20
126.5689987024
 11
84.6727470804
 21
134.920629036
  0
LINE
  8
0
 62
9
  6
CONTINUOUS
 10
84.6727470804
 20
134.920629036
 11
84.1727470804
 21
133.920629036
  0
LINE
  8
0
 62
9
  6
CONTINUOUS
 10
94.2227470804
 20
145.7473683688
 11
93.2227470804
 21
146.2473683688
  0
LINE
  8
0
 62
9
  6
CONTINUOUS
 10
107.556614713
 20
144.5514783925
 11
107.1404823455
 21
144.2742891922
  0
LINE
  8
0
 62
9
  6
CONTINUOUS
 10
107.5888794479
 20
144.503040717
 11
107.1727470804
 21
144.2258515167
  0
LINE
  8
0
 62
9
  6
CONTINUOUS
 10
107.5727470805
 20
134.8592785241
 11
107.1727470805
 21
135.1592785241
  0
POLYLINE
  8
0
 62
7
  6
CONTINUOUS
 66
1
 70
0
  0
VERTEX
  8
0
 62
7
  6
CONTINUOUS
 10
83.8227470804
 20
151.0837435738
  0
VERTEX
  8
0
 62
7
  6
CONTINUOUS
 10
83.8059749573
 20
151.1045373945
  0
VERTEX
  8
0
 62
7
  6
CONTINUOUS
 10
83.7565832888
 20
151.1236833569
  0
VERTEX
  8
0
 62
7
  6
CONTINUOUS
 10
83.6775969118
 20
151.1399752328
  0
VERTEX
  8
0
 62
7
  6
CONTINUOUS
 10
83.5741296599
 20
151.1523991077
  0
VERTEX
  8
0
 62
7
  6
CONTINUOUS
 10
83.4530993487
 20
151.1601842109
  0
VERTEX
  8
0
 62
7
  6
CONTINUOUS
 10
83.3227470804
 20
151.1628391835
  0
SEQEND
  0
LINE
  8
0
 62
9
  6
CONTINUOUS
 10
93.3727470804
 20
133.920629036
 11
92.8727470804
 21
134.920629036
  0
LINE
  8
0
 62
9
  6
CONTINUOUS
 10
104.0227470804
 20
134.920629036
 11
103.0227470804
 21
134.420629036
  0
POLYLINE
  8
0
 62
7
  6
CONTINUOUS
 66
1
 70
0
  0
VERTEX
  8
0
 62
7
  6
CONTINUOUS
 10
103.5227470804
 20
129.584253831
  0
VERTEX
  8
0
 62
7
  6
CONTINUOUS
 10
103.5395192036
 20
129.5634600103
  0
VERTEX
  8
0
 62
7
  6
CONTINUOUS
 10
103.5889108721
 20
129.5443140479
  0
VERTEX
  8
0
 62
7
  6
CONTINUOUS
 10
103.6678972491
 20
129.5280221721
  0
VERTEX
  8
0
 62
7
  6
CONTINUOUS
 10
103.771364501
 20
129.5155982972
  0
VERTEX
  8
0
 62
7
  6
CONTINUOUS
 10
103.8923948122
 20
129.507813194
  0
VERTEX
  8
0
 62
7
  6
CONTINUOUS
 10
104.0227470804
 20
129.5051582214
  0
SEQEND
  0
LINE
  8
0
 62
9
  6
CONTINUOUS
 10
92.8727470804
 20
126.5689987024
 11
92.8727470804
 21
134.920629036
  0
LINE
  8
0
 62
7
  6
CONTINUOUS
 10
93.3727470804
 20
127.0689987024
 11
93.3727470804
 21
133.920629036
  0
LINE
  8
0
 62
7
  6
CONTINUOUS
 10
93.7227470804
 20
146.7473682511
 11
93.7227470804
 21
153.5989987024
  0
LINE
  8
0
 62
9
  6
CONTINUOUS
 10
94.2227470804
 20
145.7473683688
 11
94.2227470804
 21
154.0989987024
  0
LINE
  8
0
 62
9
  6
CONTINUOUS
 10
94.2227470804
 20
145.7473683688
 11
93.7227470805
 21
146.7473685225
  0
LINE
  8
0
 62
9
  6
CONTINUOUS
 10
101.9727470804
 20
145.7473683688
 11
102.4727470804
 21
146.7473683688
  0
POLYLINE
  8
0
 62
7
  6
CONTINUOUS
 66
1
 70
0
  0
VERTEX
  8
0
 62
7
  6
CONTINUOUS
 10
93.3727470804
 20
129.584253831
  0
VERTEX
  8
0
 62
7
  6
CONTINUOUS
 10
93.3559749573
 20
129.5634600103
  0
VERTEX
  8
0
 62
7
  6
CONTINUOUS
 10
93.3065832888
 20
129.5443140479
  0
VERTEX
  8
0
 62
7
  6
CONTINUOUS
 10
93.2275969118
 20
129.5280221721
  0
VERTEX
  8
0
 62
7
  6
CONTINUOUS
 10
93.1241296599
 20
129.5155982972
  0
VERTEX
  8
0
 62
7
  6
CONTINUOUS
 10
93.0030993487
 20
129.507813194
  0
VERTEX
  8
0
 62
7
  6
CONTINUOUS
 10
92.8727470804
 20
129.5051582214
  0
SEQEND
  0
LINE
  8
0
 62
9
  6
CONTINUOUS
 10
101.9727470804
 20
145.7473683688
 11
101.9727470804
 21
154.0989987024
  0
POLYLINE
  8
0
 62
7
  6
CONTINUOUS
 66
1
 70
0
  0
VERTEX
  8
0
 62
7
  6
CONTINUOUS
 10
102.4727470804
 20
151.0837435738
  0
VERTEX
  8
0
 62
7
  6
CONTINUOUS
 10
102.4559749573
 20
151.1045373945
  0
VERTEX
  8
0
 62
7
  6
CONTINUOUS
 10
102.4065832888
 20
151.1236833569
  0
VERTEX
  8
0
 62
7
  6
CONTINUOUS
 10
102.3275969118
 20
151.1399752328
  0
VERTEX
  8
0
 62
7
  6
CONTINUOUS
 10
102.2241296599
 20
151.1523991077
  0
VERTEX
  8
0
 62
7
  6
CONTINUOUS
 10
102.1030993487
 20
151.1601842109
  0
VERTEX
  8
0
 62
7
  6
CONTINUOUS
 10
101.9727470804
 20
151.1628391835
  0
SEQEND
  0
POLYLINE
  8
0
 62
7
  6
CONTINUOUS
 66
1
 70
0
  0
VERTEX
  8
0
 62
7
  6
CONTINUOUS
 10
106.4814358699
 20
143.5339987024
  0
VERTEX
  8
0
 62
7
  6
CONTINUOUS
 10
106.8828199954
 20
142.9463153704
  0
VERTEX
  8
0
 62
7
  6
CONTINUOUS
 10
107.1727470804
 20
142.4381805082
  0
SEQEND
  0
LINE
  8
0
 62
7
  6
CONTINUOUS
 10
102.4727470804
 20
146.7473683688
 11
102.4727470804
 21
153.5989987024
  0
LINE
  8
0
 62
7
  6
CONTINUOUS
 10
103.5227470804
 20
133.920629036
 11
103.5227470804
 21
127.0689987024
  0
LINE
  8
0
 62
9
  6
CONTINUOUS
 10
104.0227470804
 20
134.920629036
 11
104.0227470804
 21
126.5689987024
  0
LINE
  8
0
 62
9
  6
CONTINUOUS
 10
104.0227470804
 20
134.920629036
 11
103.5227470804
 21
133.920629036
  0
POLYLINE
  8
0
 62
7
  6
CONTINUOUS
 66
1
 70
0
  0
VERTEX
  8
0
 62
7
  6
CONTINUOUS
 10
107.1727470804
 20
138.2298168902
  0
VERTEX
  8
0
 62
7
  6
CONTINUOUS
 10
106.8828086998
 20
137.7216643424
  0
VERTEX
  8
0
 62
7
  6
CONTINUOUS
 10
106.4814358699
 20
137.1339987024
  0
SEQEND
  0
LINE
  8
0
 62
9
  6
CONTINUOUS
 10
107.1404823455
 20
144.2742891922
 11
107.1727470804
 21
144.2258515167
  0
LINE
  8
0
 62
7
  6
CONTINUOUS
 10
107.556614713
 20
144.5514783925
 11
107.5888794479
 21
144.503040717
  0
POLYLINE
  8
0
 62
7
  6
CONTINUOUS
 66
1
 70
0
  0
VERTEX
  8
0
 62
7
  6
CONTINUOUS
 10
107.1727470804
 20
142.4381805082
  0
VERTEX
  8
0
 62
7
  6
CONTINUOUS
 10
107.288942768
 20
142.1987828807
  0
VERTEX
  8
0
 62
7
  6
CONTINUOUS
 10
107.3922817986
 20
141.9363561228
  0
VERTEX
  8
0
 62
7
  6
CONTINUOUS
 10
107.4547109998
 20
141.6664621285
  0
VERTEX
  8
0
 62
7
  6
CONTINUOUS
 10
107.4736255032
 20
141.4008124263
  0
SEQEND
  0
POLYLINE
  8
0
 62
9
  6
CONTINUOUS
 66
1
 70
0
  0
VERTEX
  8
0
 62
9
  6
CONTINUOUS
 10
106.6203097169
 20
140.5339987024
  0
VERTEX
  8
0
 62
9
  6
CONTINUOUS
 10
106.6052664728
 20
140.7565196495
  0
VERTEX
  8
0
 62
9
  6
CONTINUOUS
 10
106.5608910491
 20
140.967882463
  0
VERTEX
  8
0
 62
9
  6
CONTINUOUS
 10
106.4894086165
 20
141.1574885278
  0
VERTEX
  8
0
 62
9
  6
CONTINUOUS
 10
106.3944036047
 20
141.3158302043
  0
VERTEX
  8
0
 62
9
  6
CONTINUOUS
 10
106.2806399635
 20
141.4349675819
  0
VERTEX
  8
0
 62
9
  6
CONTINUOUS
 10
106.1538222781
 20
141.5089266182
  0
VERTEX
  8
0
 62
9
  6
CONTINUOUS
 10
106.0203097169
 20
141.5339987024
  0
SEQEND
  0
POLYLINE
  8
0
 62
9
  6
CONTINUOUS
 66
1
 70
0
  0
VERTEX
  8
0
 62
9
  6
CONTINUOUS
 10
107.4202335631
 20
140.5339987024
  0
VERTEX
  8
0
 62
9
  6
CONTINUOUS
 10
107.414755667
 20
140.6385271655
  0
VERTEX
  8
0
 62
9
  6
CONTINUOUS
 10
107.3712919431
 20
140.8430156964
  0
VERTEX
  8
0
 62
9
  6
CONTINUOUS
 10
107.2862640684
 20
141.033998702
  0
VERTEX
  8
0
 62
9
  6
CONTINUOUS
 10
107.1633881689
 20
141.2031293087
  0
VERTEX
  8
0
 62
9
  6
CONTINUOUS
 10
107.0893767678
 20
141.277143528
  0
VERTEX
  8
0
 62
9
  6
CONTINUOUS
 10
106.9202526011
 20
141.4000241065
  0
VERTEX
  8
0
 62
9
  6
CONTINUOUS
 10
106.7292768675
 20
141.4850552189
  0
VERTEX
  8
0
 62
9
  6
CONTINUOUS
 10
106.524796123
 20
141.5285205978
  0
VERTEX
  8
0
 62
9
  6
CONTINUOUS
 10
106.42027164
 20
141.5339987024
  0
SEQEND
  0
POLYLINE
  8
0
 62
9
  6
CONTINUOUS
 66
1
 70
0
  0
VERTEX
  8
0
 62
9
  6
CONTINUOUS
 10
107.4736255295
 20
139.2671855182
  0
VERTEX
  8
0
 62
9
  6
CONTINUOUS
 10
107.4705641256
 20
139.5645087262
  0
VERTEX
  8
0
 62
9
  6
CONTINUOUS
 10
107.467142432
 20
139.8047072545
  0
VERTEX
  8
0
 62
9
  6
CONTINUOUS
 10
107.4634362375
 20
139.9823305788
  0
VERTEX
  8
0
 62
9
  6
CONTINUOUS
 10
107.4594816182
 20
140.0939338888
  0
VERTEX
  8
0
 62
9
  6
CONTINUOUS
 10
107.4552171895
 20
140.1339987024
  0
SEQEND
  0
POLYLINE
  8
0
 62
9
  6
CONTINUOUS
 66
1
 70
0
  0
VERTEX
  8
0
 62
9
  6
CONTINUOUS
 10
106.4814358699
 20
137.1339987024
  0
VERTEX
  8
0
 62
9
  6
CONTINUOUS
 10
106.4811040081
 20
137.451430611
  0
VERTEX
  8
0
 62
9
  6
CONTINUOUS
 10
106.4801164796
 20
137.7609006145
  0
VERTEX
  8
0
 62
9
  6
CONTINUOUS
 10
106.4784956723
 20
138.0548604545
  0
VERTEX
  8
0
 62
9
  6
CONTINUOUS
 10
106.476296639
 20
138.3240664209
  0
VERTEX
  8
0
 62
9
  6
CONTINUOUS
 10
106.4736383415
 20
138.5580300398
  0
VERTEX
  8
0
 62
9
  6
CONTINUOUS
 10
106.4705791374
 20
138.7556129806
  0
VERTEX
  8
0
 62
9
  6
CONTINUOUS
 10
106.4671614784
 20
138.9152148003
  0
VERTEX
  8
0
 62
9
  6
CONTINUOUS
 10
106.4634607973
 20
139.0332280288
  0
VERTEX
  8
0
 62
9
  6
CONTINUOUS
 10
106.4595122846
 20
139.1073821563
  0
VERTEX
  8
0
 62
9
  6
CONTINUOUS
 10
106.4552552665
 20
139.1339987024
  0
SEQEND
  0
LINE
  8
0
 62
9
  6
CONTINUOUS
 10
106.9727470804
 20
146.2473683688
 11
106.9727470804
 21
144.8286675927
  0
LINE
  8
0
 62
9
  6
CONTINUOUS
 10
106.9727470804
 20
134.5592785241
 11
106.9727470804
 21
126.5689987024
  0
LINE
  8
0
 62
9
  6
CONTINUOUS
 10
107.1727470804
 20
135.1592785241
 11
107.1727470804
 21
138.2298168902
  0
LINE
  8
0
 62
9
  6
CONTINUOUS
 10
107.1727470804
 20
142.4381805082
 11
107.1727470804
 21
144.2258515167
  0
LINE
  8
0
 62
9
  6
CONTINUOUS
 10
107.4202335631
 20
140.5339987024
 11
107.4202335631
 21
140.1339987024
  0
LINE
  8
0
 62
7
  6
CONTINUOUS
 10
107.4727470804
 20
145.7473683688
 11
107.4727470804
 21
144.8286675927
  0
LINE
  8
0
 62
7
  6
CONTINUOUS
 10
107.4727470804
 20
134.5592785241
 11
107.4727470804
 21
127.0689987024
  0
LINE
  8
0
 62
7
  6
CONTINUOUS
 10
107.4736255295
 20
141.4008118971
 11
107.4736255295
 21
139.2671855182
  0
LINE
  8
0
 62
7
  6
CONTINUOUS
 10
107.6727470804
 20
144.2258515167
 11
107.6727470804
 21
135.1592785241
  0
POLYLINE
  8
0
 62
9
  6
CONTINUOUS
 66
1
 70
0
  0
VERTEX
  8
0
 62
9
  6
CONTINUOUS
 10
106.4814358699
 20
143.5339987024
  0
VERTEX
  8
0
 62
9
  6
CONTINUOUS
 10
106.4811044921
 20
143.216796934
  0
VERTEX
  8
0
 62
9
  6
CONTINUOUS
 10
106.4801183914
 20
142.9075394619
  0
VERTEX
  8
0
 62
9
  6
CONTINUOUS
 10
106.4784998918
 20
142.6137587106
  0
VERTEX
  8
0
 62
9
  6
CONTINUOUS
 10
106.4763038516
 20
142.3446755873
  0
VERTEX
  8
0
 62
9
  6
CONTINUOUS
 10
106.4736465019
 20
142.1105824103
  0
VERTEX
  8
0
 62
9
  6
CONTINUOUS
 10
106.4705853982
 20
141.9127297959
  0
VERTEX
  8
0
 62
9
  6
CONTINUOUS
 10
106.4671650894
 20
141.7529234865
  0
VERTEX
  8
0
 62
9
  6
CONTINUOUS
 10
106.4634611254
 20
141.6347776449
  0
VERTEX
  8
0
 62
9
  6
CONTINUOUS
 10
106.4595102005
 20
141.5605890167
  0
VERTEX
  8
0
 62
9
  6
CONTINUOUS
 10
106.4552552665
 20
141.5339987024
  0
SEQEND
  0
POLYLINE
  8
0
 62
9
  6
CONTINUOUS
 66
1
 70
0
  0
VERTEX
  8
0
 62
9
  6
CONTINUOUS
 10
107.4736255295
 20
141.4008118971
  0
VERTEX
  8
0
 62
9
  6
CONTINUOUS
 10
107.4705629549
 20
141.1033916369
  0
VERTEX
  8
0
 62
9
  6
CONTINUOUS
 10
107.4671399274
 20
140.8631433272
  0
VERTEX
  8
0
 62
9
  6
CONTINUOUS
 10
107.4634322342
 20
140.6855151894
  0
VERTEX
  8
0
 62
9
  6
CONTINUOUS
 10
107.459477168
 20
140.573979374
  0
VERTEX
  8
0
 62
9
  6
CONTINUOUS
 10
107.4552171895
 20
140.5339987024
  0
SEQEND
  0
POLYLINE
  8
0
 62
7
  6
CONTINUOUS
 66
1
 70
0
  0
VERTEX
  8
0
 62
7
  6
CONTINUOUS
 10
107.4736255044
 20
139.2671850113
  0
VERTEX
  8
0
 62
7
  6
CONTINUOUS
 10
107.4547328554
 20
139.0016843885
  0
VERTEX
  8
0
 62
7
  6
CONTINUOUS
 10
107.3923534763
 20
138.7318669253
  0
VERTEX
  8
0
 62
7
  6
CONTINUOUS
 10
107.2889668754
 20
138.4692671067
  0
VERTEX
  8
0
 62
7
  6
CONTINUOUS
 10
107.1727470804
 20
138.2298168902
  0
SEQEND
  0
POLYLINE
  8
0
 62
9
  6
CONTINUOUS
 66
1
 70
0
  0
VERTEX
  8
0
 62
9
  6
CONTINUOUS
 10
107.4552171895
 20
140.5339987024
  0
VERTEX
  8
0
 62
9
  6
CONTINUOUS
 10
107.4301460564
 20
140.7565196364
  0
VERTEX
  8
0
 62
9
  6
CONTINUOUS
 10
107.3561898283
 20
140.9678824415
  0
VERTEX
  8
0
 62
9
  6
CONTINUOUS
 10
107.2370569792
 20
141.1574885043
  0
VERTEX
  8
0
 62
9
  6
CONTINUOUS
 10
107.0787213278
 20
141.3158301849
  0
VERTEX
  8
0
 62
9
  6
CONTINUOUS
 10
106.8891224846
 20
141.4349675703
  0
VERTEX
  8
0
 62
9
  6
CONTINUOUS
 10
106.6777677275
 20
141.5089266146
  0
VERTEX
  8
0
 62
9
  6
CONTINUOUS
 10
106.4552552665
 20
141.5339987024
  0
SEQEND
  0
LINE
  8
0
 62
7
  6
CONTINUOUS
 10
146.6940706118
 20
126.5689987024
 11
148.6381899497
 21
126.5689987024
  0
LINE
  8
0
 62
7
  6
CONTINUOUS
 10
151.8161302808
 20
129.5051582214
 11
151.6683824592
 21
129.5280221721
  0
POLYLINE
  8
0
 62
7
  6
CONTINUOUS
 66
1
 70
0
  0
VERTEX
  8
0
 62
7
  6
CONTINUOUS
 10
151.6683824592
 20
129.5280221721
  0
VERTEX
  8
0
 62
7
  6
CONTINUOUS
 10
151.4445468646
 20
129.5634600103
  0
VERTEX
  8
0
 62
7
  6
CONTINUOUS
 10
151.3161302808
 20
129.584253831
  0
SEQEND
  0
LINE
  8
1_AXIS
 62
2
  6
CONTINUOUS
 10
148.5461302808
 20
130.8089987024
 11
146.7861302808
 21
130.8089987024
  0
LINE
  8
1_AXIS
 62
2
  6
CENTER
 10
143.2661302808
 20
130.8089987024
 11
141.4261302808
 21
130.8089987024
  0
LINE
  8
1_AXIS
 62
2
  6
CENTER
 10
152.0661302808
 20
130.8089987024
 11
153.9061302808
 21
130.8089987024
  0
LINE
  8
0
 62
7
  6
CONTINUOUS
 10
143.3161302808
 20
149.8589987024
 11
143.3161302808
 21
130.8090383498
  0
LINE
  8
0
 62
7
  6
CONTINUOUS
 10
145.0161302808
 20
144.6773853053
 11
145.0161302808
 21
134.4922038284
  0
LINE
  8
0
 62
7
  6
CONTINUOUS
 10
149.6832911016
 20
145.2861367733
 11
149.5074789579
 21
145.2125550033
  0
LINE
  8
0
 62
7
  6
CONTINUOUS
 10
148.6093839984
 20
153.848214956
 11
148.6381899497
 21
154.0989987024
  0
LINE
  8
0
 62
7
  6
CONTINUOUS
 10
148.5798589057
 20
153.5989987024
 11
148.6093839984
 21
153.848214956
  0
LINE
  8
0
 62
7
  6
CONTINUOUS
 10
148.6093839984
 20
126.8197824488
 11
148.5798589057
 21
127.0689987024
  0
LINE
  8
0
 62
7
  6
CONTINUOUS
 10
148.6381899497
 20
126.5689987024
 11
148.6093839984
 21
126.8197824488
  0
LINE
  8
1_AXIS
 62
2
  6
CONTINUOUS
 10
147.6661302808
 20
150.7389987024
 11
147.6661302808
 21
148.9789987024
  0
LINE
  8
1_AXIS
 62
2
  6
CENTER
 10
147.6661302808
 20
145.4589987024
 11
147.6661302808
 21
143.6189987024
  0
LINE
  8
1_AXIS
 62
2
  6
CONTINUOUS
 10
147.6661302808
 20
131.6889987024
 11
147.6661302808
 21
129.9289987024
  0
LINE
  8
1_AXIS
 62
2
  6
CENTER
 10
147.6661302808
 20
126.4089987024
 11
147.6661302808
 21
124.5689987024
  0
LINE
  8
1_AXIS
 62
2
  6
CENTER
 10
147.6661302808
 20
135.2089987024
 11
147.6661302808
 21
137.0489987024
  0
LINE
  8
1_AXIS
 62
2
  6
CENTER
 10
147.6661302808
 20
154.2589987024
 11
147.6661302808
 21
156.0989987024
  0
LINE
  8
0
 62
7
  6
CONTINUOUS
 10
146.6940706118
 20
126.5689987024
 11
146.7228765632
 21
126.8197824488
  0
LINE
  8
0
 62
7
  6
CONTINUOUS
 10
146.7228765632
 20
126.8197824488
 11
146.7524016558
 21
127.0689987024
  0
LINE
  8
0
 62
7
  6
CONTINUOUS
 10
146.7524016558
 20
153.5989987024
 11
146.7228765632
 21
153.848214956
  0
LINE
  8
0
 62
7
  6
CONTINUOUS
 10
146.7228765632
 20
153.848214956
 11
146.6940706118
 21
154.0989987024
  0
LINE
  8
0
 62
7
  6
CONTINUOUS
 10
158.6161302808
 20
139.1339987024
 11
153.8161302808
 21
139.1339987024
  0
POLYLINE
  8
0
 62
7
  6
CONTINUOUS
 66
1
 70
0
  0
VERTEX
  8
0
 62
7
  6
CONTINUOUS
 10
151.7154699472
 20
141.4008121112
  0
VERTEX
  8
0
 62
7
  6
CONTINUOUS
 10
151.7197372309
 20
141.549121793
  0
VERTEX
  8
0
 62
7
  6
CONTINUOUS
 10
151.7523125401
 20
141.8505836879
  0
VERTEX
  8
0
 62
7
  6
CONTINUOUS
 10
151.7758918699
 20
142.0042496684
  0
VERTEX
  8
0
 62
7
  6
CONTINUOUS
 10
151.8118529622
 20
142.3059758073
  0
VERTEX
  8
0
 62
7
  6
CONTINUOUS
 10
151.8161302808
 20
142.4381805345
  0
SEQEND
  0
LINE
  8
1_AXIS
 62
2
  6
CENTER
 10
140.8161297111
 20
140.3339987024
 11
161.8161302808
 21
140.3339987024
  0
POLYLINE
  8
0
 62
7
  6
CONTINUOUS
 66
1
 70
0
  0
VERTEX
  8
0
 62
7
  6
CONTINUOUS
 10
151.8161302808
 20
138.229816865
  0
VERTEX
  8
0
 62
7
  6
CONTINUOUS
 10
151.8118466847
 20
138.3621192305
  0
VERTEX
  8
0
 62
7
  6
CONTINUOUS
 10
151.7759162227
 20
138.6635894308
  0
VERTEX
  8
0
 62
7
  6
CONTINUOUS
 10
151.7523382164
 20
138.8172392282
  0
VERTEX
  8
0
 62
7
  6
CONTINUOUS
 10
151.7197385038
 20
139.1188535828
  0
VERTEX
  8
0
 62
7
  6
CONTINUOUS
 10
151.7154699461
 20
139.2671853305
  0
SEQEND
  0
LINE
  8
0
 62
7
  6
CONTINUOUS
 10
151.7154699672
 20
139.2671856035
 11
151.7154699702
 21
141.4008118142
  0
LINE
  8
0
 62
7
  6
CONTINUOUS
 10
151.8161302808
 20
129.5051582214
 11
151.8161302808
 21
138.229816865
  0
LINE
  8
0
 62
7
  6
CONTINUOUS
 10
151.8161302808
 20
142.4381805345
 11
151.8161302808
 21
151.1628391835
  0
LINE
  8
0
 62
7
  6
CONTINUOUS
 10
158.6161302808
 20
141.5339987024
 11
153.8161302808
 21
141.5339987024
  0
LINE
  8
0
 62
7
  6
CONTINUOUS
 10
149.3232704067
 20
145.1773853053
 11
145.5049747099
 21
145.1773853053
  0
LINE
  8
1_AXIS
 62
2
  6
CONTINUOUS
 10
148.5461302808
 20
149.8589987024
 11
146.7861302808
 21
149.8589987024
  0
LINE
  8
1_AXIS
 62
2
  6
CENTER
 10
143.2661302808
 20
149.8589987024
 11
141.4261302808
 21
149.8589987024
  0
LINE
  8
1_AXIS
 62
2
  6
CENTER
 10
152.0661302808
 20
149.8589987024
 11
153.9061302808
 21
149.8589987024
  0
LINE
  8
0
 62
7
  6
CONTINUOUS
 10
151.3161302808
 20
151.0837435738
 11
151.5646984692
 21
151.1236833569
  0
POLYLINE
  8
0
 62
7
  6
CONTINUOUS
 66
1
 70
0
  0
VERTEX
  8
0
 62
7
  6
CONTINUOUS
 10
151.5646984692
 20
151.1236833569
  0
VERTEX
  8
0
 62
7
  6
CONTINUOUS
 10
151.7988395993
 20
151.1601842109
  0
VERTEX
  8
0
 62
7
  6
CONTINUOUS
 10
151.8161302808
 20
151.1628391835
  0
SEQEND
  0
LINE
  8
0
 62
7
  6
CONTINUOUS
 10
146.6940706118
 20
154.0989987024
 11
148.6381899497
 21
154.0989987024
  0
ARC
  8
0
 62
7
  6
CONTINUOUS
 10
32.3727470804
 20
210.7306258474
 40
0.5
 50
180.0
 51
270.0
  0
ARC
  8
0
 62
7
  6
CONTINUOUS
 10
35.3227470804
 20
210.7306258474
 40
0.5
 50
270.0
 51
360.0
  0
ARC
  8
0
 62
7
  6
CONTINUOUS
 10
37.9727470804
 20
210.7306258474
 40
0.5
 50
270.0
 51
360.0
  0
ARC
  8
0
 62
7
  6
CONTINUOUS
 10
46.4727470804
 20
210.7306258474
 40
0.5
 50
180.0
 51
270.0
  0
ARC
  8
0
 62
7
  6
CONTINUOUS
 10
44.5227470804
 20
210.7306258474
 40
0.5
 50
180.0
 51
270.0
  0
ARC
  8
0
 62
7
  6
CONTINUOUS
 10
32.1727470804
 20
212.4306258474
 40
0.5
 50
180.0
 51
232.7573568362
  0
ARC
  8
0
 62
7
  6
CONTINUOUS
 10
38.9727470804
 20
215.8306258474
 40
0.5
 50
94.2492436674
 51
180.0
  0
ARC
  8
0
 62
7
  6
CONTINUOUS
 10
54.6727470804
 20
210.7306258474
 40
0.5
 50
270.0
 51
360.0
  0
ARC
  8
0
 62
7
  6
CONTINUOUS
 10
56.6227470804
 20
210.7306258474
 40
0.5
 50
270.0
 51
360.0
  0
ARC
  8
0
 62
7
  6
CONTINUOUS
 10
65.5727470804
 20
210.7306258474
 40
0.5
 50
180.0
 51
270.0
  0
ARC
  8
0
 62
7
  6
CONTINUOUS
 10
63.6227470804
 20
210.7306258474
 40
0.5
 50
180.0
 51
270.0
  0
ARC
  8
0
 62
7
  6
CONTINUOUS
 10
33.925184444
 20
224.7306258474
 40
2.0
 50
90.0
 51
179.5
  0
ARC
  8
0
 62
7
  6
CONTINUOUS
 10
32.3727470804
 20
218.2306258474
 40
0.5
 50
90.0
 51
180.0
  0
ARC
  8
0
 62
7
  6
CONTINUOUS
 10
32.1727470804
 20
218.2306258474
 40
0.5
 50
90.0
 51
180.0
  0
ARC
  8
0
 62
7
  6
CONTINUOUS
 10
35.3227470804
 20
218.2306258474
 40
0.5
 50
0.0
 51
90.0
  0
ARC
  8
0
 62
7
  6
CONTINUOUS
 10
54.6727470804
 20
218.2306258474
 40
0.5
 50
0.0
 51
90.0
  0
ARC
  8
0
 62
7
  6
CONTINUOUS
 10
65.5727470804
 20
218.2306258474
 40
0.5
 50
90.0
 51
180.0
  0
ARC
  8
0
 62
7
  6
CONTINUOUS
 10
46.4727470804
 20
218.2306258474
 40
0.5
 50
90.0
 51
180.0
  0
ARC
  8
0
 62
7
  6
CONTINUOUS
 10
73.7727470804
 20
210.7306258474
 40
0.5
 50
270.0
 51
360.0
  0
ARC
  8
0
 62
7
  6
CONTINUOUS
 10
75.7227470804
 20
210.7306258474
 40
0.5
 50
270.0
 51
360.0
  0
ARC
  8
0
 62
7
  6
CONTINUOUS
 10
84.6727470804
 20
210.7306258474
 40
0.5
 50
180.0
 51
270.0
  0
ARC
  8
0
 62
7
  6
CONTINUOUS
 10
82.7227470804
 20
210.7306258474
 40
0.5
 50
180.0
 51
270.0
  0
ARC
  8
0
 62
7
  6
CONTINUOUS
 10
106.9727470804
 20
210.7306258474
 40
0.5
 50
270.0
 51
360.0
  0
ARC
  8
0
 62
7
  6
CONTINUOUS
 10
107.1727470804
 20
212.4306258474
 40
0.5
 50
307.2426432547
 51
360.0
  0
ARC
  8
0
 62
7
  6
CONTINUOUS
 10
104.0227470804
 20
210.7306258474
 40
0.5
 50
180.0
 51
270.0
  0
ARC
  8
0
 62
7
  6
CONTINUOUS
 10
101.3727470804
 20
210.7306258474
 40
0.5
 50
180.0
 51
270.0
  0
ARC
  8
0
 62
7
  6
CONTINUOUS
 10
92.8727470804
 20
210.7306258474
 40
0.5
 50
270.0
 51
360.0
  0
ARC
  8
0
 62
7
  6
CONTINUOUS
 10
94.8227470804
 20
210.7306258474
 40
0.5
 50
270.0
 51
360.0
  0
ARC
  8
0
 62
7
  6
CONTINUOUS
 10
100.3727470804
 20
215.8306258474
 40
0.5
 50
0.0
 51
85.7507563391
  0
ARC
  8
0
 62
7
  6
CONTINUOUS
 10
105.4203097169
 20
224.7306258474
 40
2.0
 50
0.5
 51
90.0
  0
ARC
  8
0
 62
7
  6
CONTINUOUS
 10
84.6727470804
 20
218.2306258474
 40
0.5
 50
90.0
 51
180.0
  0
ARC
  8
0
 62
7
  6
CONTINUOUS
 10
106.9727470804
 20
218.2306258474
 40
0.5
 50
0.0
 51
90.0
  0
ARC
  8
0
 62
7
  6
CONTINUOUS
 10
107.1727470804
 20
218.2306258474
 40
0.5
 50
0.0
 51
90.0
  0
ARC
  8
0
 62
7
  6
CONTINUOUS
 10
73.7727470804
 20
218.2306258474
 40
0.5
 50
0.0
 51
90.0
  0
ARC
  8
0
 62
7
  6
CONTINUOUS
 10
104.0227470804
 20
218.2306258474
 40
0.5
 50
90.0
 51
180.0
  0
ARC
  8
0
 62
7
  6
CONTINUOUS
 10
92.8727470804
 20
218.2306258474
 40
0.5
 50
0.0
 51
90.0
  0
ARC
  8
0
 62
7
  6
CONTINUOUS
 10
32.3727470804
 20
127.0689987024
 40
0.5
 50
180.0
 51
270.0
  0
ARC
  8
0
 62
7
  6
CONTINUOUS
 10
46.4727470804
 20
127.0689987024
 40
0.5
 50
180.0
 51
270.0
  0
ARC
  8
0
 62
7
  6
CONTINUOUS
 10
35.3227470804
 20
127.0689987024
 40
0.5
 50
270.0
 51
360.0
  0
ARC
  8
0
 62
7
  6
CONTINUOUS
 10
36.3227464667
 20
133.9206296497
 40
0.4999996931
 50
89.9999296723
 51
180.0000703277
  0
ARC
  8
0
 62
9
  6
CONTINUOUS
 10
31.3727470804
 20
134.5592785241
 40
0.999999971
 50
0.0
 51
36.8698976458
  0
ARC
  8
0
 62
7
  6
CONTINUOUS
 10
32.1727470804
 20
135.1592785241
 40
0.5
 50
180.0
 51
216.8698976458
  0
ARC
  8
0
 62
7
  6
CONTINUOUS
 10
31.3727470804
 20
134.5592785241
 40
0.5
 50
0.0
 51
36.8698976458
  0
ARC
  8
0
 62
7
  6
CONTINUOUS
 10
45.4727470804
 20
133.920629036
 40
0.5
 50
0.0
 51
90.0
  0
ARC
  8
0
 62
7
  6
CONTINUOUS
 10
65.5727470804
 20
127.0689987024
 40
0.5
 50
180.0
 51
270.0
  0
ARC
  8
0
 62
7
  6
CONTINUOUS
 10
54.6727470804
 20
127.0689987024
 40
0.5
 50
270.0
 51
360.0
  0
ARC
  8
0
 62
7
  6
CONTINUOUS
 10
64.5727470804
 20
133.920629036
 40
0.5
 50
0.0
 51
90.0
  0
ARC
  8
0
 62
7
  6
CONTINUOUS
 10
55.6727464667
 20
133.9206296497
 40
0.4999996931
 50
89.9999296723
 51
180.0000703277
  0
ARC
  8
0
 62
9
  6
CONTINUOUS
 10
31.3727470804
 20
144.8286675927
 40
0.9999999814
 50
326.3320887789
 51
360.0
  0
ARC
  8
0
 62
7
  6
CONTINUOUS
 10
32.1727470804
 20
144.2258515167
 40
0.5
 50
146.3320887789
 51
180.0
  0
ARC
  8
0
 62
7
  6
CONTINUOUS
 10
31.3727470804
 20
144.8286675927
 40
0.5
 50
326.3320887789
 51
360.0
  0
ARC
  8
0
 62
7
  6
CONTINUOUS
 10
36.372747694
 20
146.7473677553
 40
0.4999996932
 50
269.999929696
 51
0.000070304
  0
ARC
  8
0
 62
7
  6
CONTINUOUS
 10
46.1227470804
 20
146.7473683688
 40
0.5
 50
180.0
 51
270.0
  0
ARC
  8
0
 62
7
  6
CONTINUOUS
 10
37.3727470804
 20
153.5989987024
 40
0.5
 50
90.0
 51
180.0
  0
ARC
  8
0
 62
7
  6
CONTINUOUS
 10
45.1227470804
 20
153.5989987024
 40
0.5
 50
0.0
 51
90.0
  0
ARC
  8
0
 62
7
  6
CONTINUOUS
 10
65.2227470804
 20
146.7473683688
 40
0.5
 50
180.0
 51
270.0
  0
ARC
  8
0
 62
7
  6
CONTINUOUS
 10
55.0227470804
 20
146.7473683688
 40
0.5
 50
270.0
 51
360.0
  0
ARC
  8
0
 62
7
  6
CONTINUOUS
 10
64.2227470804
 20
153.5989987024
 40
0.5
 50
0.0
 51
90.0
  0
ARC
  8
0
 62
7
  6
CONTINUOUS
 10
56.0227470804
 20
153.5989987024
 40
0.5
 50
90.0
 51
180.0
  0
ARC
  8
0
 62
7
  6
CONTINUOUS
 10
84.6727470804
 20
127.0689987024
 40
0.5
 50
180.0
 51
270.0
  0
ARC
  8
0
 62
7
  6
CONTINUOUS
 10
73.7727470804
 20
127.0689987024
 40
0.5
 50
270.0
 51
360.0
  0
ARC
  8
0
 62
7
  6
CONTINUOUS
 10
83.6727470804
 20
133.920629036
 40
0.5
 50
0.0
 51
90.0
  0
ARC
  8
0
 62
7
  6
CONTINUOUS
 10
74.7727464667
 20
133.9206296497
 40
0.4999996931
 50
89.9999296723
 51
180.0000703277
  0
ARC
  8
0
 62
7
  6
CONTINUOUS
 10
106.9727470804
 20
127.0689987024
 40
0.5
 50
270.0
 51
360.0
  0
ARC
  8
0
 62
7
  6
CONTINUOUS
 10
92.8727470804
 20
127.0689987024
 40
0.5
 50
270.0
 51
360.0
  0
ARC
  8
0
 62
7
  6
CONTINUOUS
 10
104.0227470804
 20
127.0689987024
 40
0.5
 50
180.0
 51
270.0
  0
ARC
  8
0
 62
7
  6
CONTINUOUS
 10
93.8727464667
 20
133.9206296497
 40
0.4999996931
 50
89.9999296723
 51
180.0000703277
  0
ARC
  8
0
 62
7
  6
CONTINUOUS
 10
103.0227470804
 20
133.920629036
 40
0.5
 50
0.0
 51
90.0
  0
ARC
  8
0
 62
9
  6
CONTINUOUS
 10
107.9727470804
 20
134.5592785241
 40
0.999999971
 50
143.1301023542
 51
180.0
  0
ARC
  8
0
 62
7
  6
CONTINUOUS
 10
107.1727470804
 20
135.1592785241
 40
0.5
 50
323.1301023542
 51
360.0
  0
ARC
  8
0
 62
7
  6
CONTINUOUS
 10
107.9727470804
 20
134.5592785241
 40
0.5
 50
143.1301023542
 51
180.0
  0
ARC
  8
0
 62
7
  6
CONTINUOUS
 10
84.3227470804
 20
146.7473683688
 40
0.5
 50
180.0
 51
270.0
  0
ARC
  8
0
 62
7
  6
CONTINUOUS
 10
74.1227470804
 20
146.7473683688
 40
0.5
 50
270.0
 51
360.0
  0
ARC
  8
0
 62
7
  6
CONTINUOUS
 10
75.1227470804
 20
153.5989987024
 40
0.5
 50
90.0
 51
180.0
  0
ARC
  8
0
 62
7
  6
CONTINUOUS
 10
83.3227470804
 20
153.5989987024
 40
0.5
 50
0.0
 51
90.0
  0
ARC
  8
0
 62
7
  6
CONTINUOUS
 10
93.2227470804
 20
146.7473683688
 40
0.5
 50
270.0
 51
360.0
  0
ARC
  8
0
 62
9
  6
CONTINUOUS
 10
107.9727470804
 20
144.8286675927
 40
0.9999999814
 50
180.0
 51
213.6679112211
  0
ARC
  8
0
 62
7
  6
CONTINUOUS
 10
107.1727470804
 20
144.2258515167
 40
0.5
 50
0.0
 51
33.6679112211
  0
ARC
  8
0
 62
7
  6
CONTINUOUS
 10
107.9727470804
 20
144.8286675927
 40
0.5
 50
180.0
 51
213.6679112211
  0
ARC
  8
0
 62
7
  6
CONTINUOUS
 10
102.9727470804
 20
146.7473683688
 40
0.5
 50
180.0
 51
270.0
  0
ARC
  8
0
 62
7
  6
CONTINUOUS
 10
94.2227470804
 20
153.5989987024
 40
0.5
 50
90.0
 51
180.0
  0
ARC
  8
0
 62
7
  6
CONTINUOUS
 10
101.9727470804
 20
153.5989987024
 40
0.5
 50
0.0
 51
90.0
  0
ARC
  8
0
 62
7
  6
CONTINUOUS
 10
144.5261302808
 20
134.4922038284
 40
0.49
 50
310.4482011909
 51
360.0
  0
ARC
  8
0
 62
7
  6
CONTINUOUS
 10
147.6661302808
 20
130.8089987024
 40
4.35
 50
129.7340531963
 51
257.0875457171
  0
ARC
  8
0
 62
7
  6
CONTINUOUS
 10
147.6661302808
 20
130.8089987024
 40
4.35
 50
282.9124542829
 51
342.5584061437
  0
CIRCLE
  8
2_FEATURE
 62
7
  6
CONTINUOUS
 10
147.6661302808
 20
130.8089987024
 40
2.6
  0
ARC
  8
0
 62
7
  6
CONTINUOUS
 10
145.5161301923
 20
144.6773853053
 40
0.4999999557
 50
90.0
 51
180.0
  0
ARC
  8
0
 62
7
  6
CONTINUOUS
 10
147.6661302808
 20
149.8589987024
 40
4.998
 50
293.803024964
 51
311.59628875
  0
ARC
  8
0
 62
7
  6
CONTINUOUS
 10
147.6661302808
 20
149.8589987024
 40
4.35
 50
17.4415938563
 51
77.0875457171
  0
ARC
  8
0
 62
7
  6
CONTINUOUS
 10
147.6661302808
 20
149.8589987024
 40
4.35
 50
102.9124542829
 51
180.0
  0
ARC
  8
2_FEATURE
 62
7
  6
CONTINUOUS
 10
147.6661302808
 20
149.8589987024
 40
4.35
 50
178.7486193829
 51
179.7366062701
  0
ARC
  8
1_AXIS
 62
7
  6
CONTINUOUS
 10
147.6661302808
 20
149.8589987024
 40
4.35
 50
167.9921339638
 51
170.4913910924
  0
ARC
  8
2_FEATURE
 62
7
  6
CONTINUOUS
 10
147.6661302808
 20
149.8589987024
 40
4.35
 50
141.3964691506
 51
144.799304322
  0
CIRCLE
  8
0
 62
7
  6
CONTINUOUS
 10
147.6661302808
 20
149.8589987024
 40
2.6
  0
ARC
  8
0
 62
7
  6
CONTINUOUS
 10
149.3232704067
 20
145.6773853053
 40
0.5
 50
270.0
 51
291.6180289573
  0
ARC
  8
0
 62
7
  6
CONTINUOUS
 10
151.3161302808
 20
145.7473683688
 40
0.5
 50
0.0
 51
131.59628875
  0
ARC
  8
0
 62
7
  6
CONTINUOUS
 10
153.8161302808
 20
137.1339987024
 40
2.0
 50
90.0
 51
180.0
  0
ARC
  8
0
 62
7
  6
CONTINUOUS
 10
153.8161302808
 20
143.5339987024
 40
2.0
 50
180.0
 51
270.0
  0
ARC
  8
0
 62
7
  6
CONTINUOUS
 10
158.6161302808
 20
140.3339987024
 40
1.2
 50
270.0
 51
90.0
  0
ENDSEC
  0
EOF
