  0
SECTION
  2
HEADER
  9
$EXTMAX
 10
210.0
 20
297.0
 30
0.0
  9
$EXTMIN
 10
0.0
 20
0.0
 30
0.0
  9
$LIMMIN
 10
0.0
 20
0.0
  9
$LIMMAX
 10
210.0
 20
297.0
  9
$VIEWCTR
 10
105.0
 20
148.5
  9
$VIEWSIZE
 40
297.0
  9
$CLAYER
  8
0
  9
$LTSCALE
 40
19.36
  9
$CELTYPE
  6
BYLAYER
  9
$DIMSCALE
 40
1.0
  9
$DIMASZ
 40
3.5
  9
$DIMEXO
 40
1.0
  9
$DIMDLI
 40
13.376
  9
$DIMEXE
 40
2.0
  9
$DIMCEN
 40
3.168
  9
$DIMLFAC
 40
1.0
  9
$DIMBLK
  1
_FILLED
  9
$DIMTXT
 40
3.5
  9
$PDMODE
 70
3
  9
$PDSIZE
 40
0.3125
  9
$TILEMODE
 70
1
  0
ENDSEC
  0
SECTION
  2
TABLES
  0
TABLE
  2
LTYPE
 70
6
  0
LTYPE
  2
BYBLOCK
 70
0
  3

 72
65
 73
0
 40
0.0
  0
LTYPE
  2
BYLAYER
 70
0
  3

 72
65
 73
0
 40
0.0
  0
LTYPE
  2
CONTINUOUS
 70
64
  3
Solid line
 72
65
 73
0
 40
0.0
  0
LTYPE
  2
CENTER
 70
64
  3
____ _ ____ _ ____ _ ____ _ ____ _ ____ _ ____
 72
65
 73
4
 40
0.6
 49
0.375
 49
-0.075
 49
0.075
 49
-0.075
  0
LTYPE
  2
HIDDEN
 70
64
  3
- - - - - - - - - - - - - - - - - - - -
 72
65
 73
2
 40
0.2
 49
0.1
 49
-0.1
  0
LTYPE
  2
PHANTOM
 70
64
  3
_____ _ _ _____ _ _ _____ _ _ _____
 72
65
 73
6
 40
0.8
 49
0.45
 49
-0.05
 49
0.1
 49
-0.05
 49
0.1
 49
-0.05
  0
LTYPE
  2
DOT
 70
64
  3
. . . . . . . . . . . . . . . . . . . .
 72
65
 73
2
 40
0.2
 49
0.1
 49
-0.1
  0
LTYPE
  2
DASHED
 70
64
  3
- - - - - - - - - - - - - - - - - - - -
 72
65
 73
2
 40
0.2
 49
0.1
 49
-0.1
  0
ENDTAB
  0
TABLE
  2
LAYER
 70
36
  0
LAYER
  2
0
 70
0
 62
7
  6
CONTINUOUS
  0
LAYER
  2
DEFAULT_1
 70
0
 62
7
  6
CENTER
  0
LAYER
  2
DEFAULT_2
 70
0
 62
8
  6
HIDDEN
  0
LAYER
  2
DEFAULT_3
 70
0
 62
7
  6
PHANTOM
  0
LAYER
  2
1_AXIS
 70
0
 62
7
  6
CONTINUOUS
  0
LAYER
  2
1_DATUMPLANE
 70
0
 62
7
  6
CONTINUOUS
  0
LAYER
  2
1_DATUM_PLANES
 70
0
 62
7
  6
CONTINUOUS
  0
LAYER
  2
2_FEATURE
 70
0
 62
7
  6
CONTINUOUS
  0
LAYER
  2
3_CURVE
 70
0
 62
7
  6
CONTINUOUS
  0
LAYER
  2
4_QUILT
 70
0
 62
7
  6
CONTINUOUS
  0
LAYER
  2
4_SURFACE
 70
0
 62
7
  6
CONTINUOUS
  0
LAYER
  2
6_DIM
 70
0
 62
7
  6
CONTINUOUS
  0
LAYER
  2
CSYS
 70
0
 62
7
  6
CONTINUOUS
  0
LAYER
  2
CURVE
 70
0
 62
7
  6
CONTINUOUS
  0
LAYER
  2
NOTES
 70
0
 62
7
  6
CONTINUOUS
  0
LAYER
  2
SURFACE
 70
0
 62
7
  6
CONTINUOUS
  0
ENDTAB
  0
TABLE
  2
STYLE
 70
1
  0
STYLE
  2
STANDARD
 70
0
 40
0.0
 41
0.8
 50
0.0
 71
0
 42
0.2
  3
txt
  4

  0
STYLE
  2
TEXTSTYLE_1
 70
0
 40
0.0
 41
0.8
 50
0.0
 71
0
 42
0.2
  3
gdt
  4

  0
STYLE
  2
TEXTSTYLE_2
 70
0
 40
0.0
 41
0.6
 50
0.0
 71
0
 42
0.2
  3
txt
  4

  0
STYLE
  2
TEXTSTYLE_3
 70
0
 40
0.0
 41
1.0
 50
0.0
 71
0
 42
0.2
  3
ftb_____.ttf
  4

  0
STYLE
  2
TEXTSTYLE_4
 70
0
 40
0.0
 41
1.0
 50
0.0
 71
0
 42
0.2
  3
fti_____.ttf
  4

  0
STYLE
  2
TEXTSTYLE_5
 70
0
 40
0.0
 41
1.0
 50
0.0
 71
0
 42
0.2
  3
frutiger light.ttf
  4

  0
STYLE
  2
TEXTSTYLE_6
 70
0
 40
0.0
 41
0.7
 50
0.0
 71
0
 42
0.2
  3
txt
  4

  0
STYLE
  2
TEXTSTYLE_7
 70
0
 40
0.0
 41
0.32
 50
0.0
 71
0
 42
0.2
  3
txt
  4

  0
ENDTAB
  0
ENDSEC
  0
SECTION
  2
BLOCKS
  0
BLOCK
  8
0
 62
2
  6
CONTINUOUS
  2
SYMBOL_8_BL1
 70
64
 10
173.5956734183
 20
35.5937998301
  0
TEXT
  8
0
 62
7
  6
CONTINUOUS
 10
164.6539584268
 20
30.6865562072
  7
TEXTSTYLE_4
 40
1.0655737705
  1
The brand for plastic modular belts and chains
 41
1.0
 72
0
  0
LINE
  8
0
 62
7
  6
CONTINUOUS
 10
149.5737418074
 20
36.1675703219
 11
149.5737418074
 21
34.0364227809
  0
LINE
  8
0
 62
7
  6
CONTINUOUS
 10
149.8628043005
 20
31.0454914852
 11
149.8628043005
 21
31.1422825445
  0
LINE
  8
0
 62
7
  6
CONTINUOUS
 10
149.5737418074
 20
31.1100188581
 11
149.6315543091
 21
30.9164367395
  0
LINE
  8
0
 62
7
  6
CONTINUOUS
 10
150.9671844304
 20
33.9544555678
 11
150.9671844304
 21
36.1675703219
  0
LINE
  8
0
 62
7
  6
CONTINUOUS
 10
151.8862417523
 20
32.1101932727
 11
151.8862417523
 21
30.5937998301
  0
LINE
  8
0
 62
7
  6
CONTINUOUS
 10
152.1753043074
 20
30.5937998301
 11
152.1753043074
 21
31.3358647082
  0
LINE
  8
0
 62
7
  6
CONTINUOUS
 10
152.1753043074
 20
31.4649194539
 11
152.1753043074
 21
32.1101932727
  0
LINE
  8
0
 62
7
  6
CONTINUOUS
 10
149.6315543091
 20
31.3036010218
 11
149.5737418074
 21
31.1100188581
  0
LINE
  8
0
 62
7
  6
CONTINUOUS
 10
149.9784292936
 20
30.8841730531
 11
149.8628043005
 21
31.0454914852
  0
LINE
  8
0
 62
7
  6
CONTINUOUS
 10
151.0768668626
 20
31.400392081
 11
151.1346793074
 21
31.3036010218
  0
LINE
  8
0
 62
7
  6
CONTINUOUS
 10
151.4237418626
 20
31.3036010218
 11
151.3659292523
 21
31.4326557675
  0
LINE
  8
0
 62
7
  6
CONTINUOUS
 10
152.852430332
 20
36.1675703219
 11
152.852430332
 21
34.3642916334
  0
LINE
  8
0
 62
7
  6
CONTINUOUS
 10
152.852430332
 20
33.0528162235
 11
152.852430332
 21
32.3970785186
  0
LINE
  8
0
 62
7
  6
CONTINUOUS
 10
153.2159293074
 20
31.2390736489
 11
153.2159293074
 21
30.5937998301
  0
LINE
  8
0
 62
7
  6
CONTINUOUS
 10
153.5049916972
 20
30.5937998301
 11
153.5049916972
 21
31.2390736489
  0
LINE
  8
0
 62
7
  6
CONTINUOUS
 10
149.8628043005
 20
31.1422825445
 11
149.9206168074
 21
31.2713373354
  0
LINE
  8
0
 62
7
  6
CONTINUOUS
 10
149.6315543091
 20
30.9164367395
 11
149.7471793074
 21
30.7873819712
  0
LINE
  8
0
 62
7
  6
CONTINUOUS
 10
153.1581166972
 20
31.3681283946
 11
153.2159293074
 21
31.2390736489
  0
LINE
  8
0
 62
7
  6
CONTINUOUS
 10
153.9674919177
 20
30.8841730531
 11
154.0253041972
 21
30.7551182848
  0
LINE
  8
0
 62
7
  6
CONTINUOUS
 10
153.5049916972
 20
31.2390736489
 11
153.4471794177
 21
31.400392081
  0
LINE
  8
0
 62
7
  6
CONTINUOUS
 10
153.9674919177
 20
31.4326557675
 11
153.9674919177
 21
31.3681283946
  0
LINE
  8
0
 62
7
  6
CONTINUOUS
 10
153.9674919177
 20
30.9809641124
 11
153.9674919177
 21
30.8841730531
  0
LINE
  8
0
 62
7
  6
CONTINUOUS
 10
154.245872955
 20
32.3970785186
 11
154.245872955
 21
36.1675703219
  0
LINE
  8
0
 62
7
  6
CONTINUOUS
 10
154.2565543074
 20
30.8519093441
 11
154.2565543074
 21
30.9164367395
  0
LINE
  8
0
 62
7
  6
CONTINUOUS
 10
154.5737418074
 20
36.1675703219
 11
154.5737418074
 21
32.3970785186
  0
LINE
  8
0
 62
7
  6
CONTINUOUS
 10
151.3659292523
 20
30.7873819712
 11
151.4237418626
 21
30.9164367395
  0
LINE
  8
0
 62
7
  6
CONTINUOUS
 10
155.759679528
 20
30.6905909007
 11
155.7018665869
 21
30.8519093441
  0
LINE
  8
0
 62
7
  6
CONTINUOUS
 10
155.412804528
 20
31.3681283946
 11
155.412804528
 21
31.2713373354
  0
LINE
  8
0
 62
7
  6
CONTINUOUS
 10
155.412804528
 20
31.1422825445
 11
155.412804528
 21
30.9487004259
  0
LINE
  8
0
 62
7
  6
CONTINUOUS
 10
155.7018665869
 20
30.8519093441
 11
155.7018665869
 21
31.3681283946
  0
LINE
  8
0
 62
7
  6
CONTINUOUS
 10
155.9671844304
 20
32.3970785186
 11
155.9671844304
 21
34.2003572071
  0
LINE
  8
0
 62
7
  6
CONTINUOUS
 10
155.9671844304
 20
35.511832617
 11
155.9671844304
 21
36.1675703219
  0
LINE
  8
0
 62
7
  6
CONTINUOUS
 10
156.279992028
 20
32.1101932727
 11
156.279992028
 21
31.9488748406
  0
LINE
  8
0
 62
7
  6
CONTINUOUS
 10
156.279992028
 20
31.626237886
 11
156.279992028
 21
30.5937998301
  0
LINE
  8
0
 62
7
  6
CONTINUOUS
 10
156.5690540869
 20
30.5937998301
 11
156.5690540869
 21
31.626237886
  0
LINE
  8
0
 62
7
  6
CONTINUOUS
 10
156.5690540869
 20
31.9488748406
 11
156.5690540869
 21
32.1101932727
  0
LINE
  8
0
 62
7
  6
CONTINUOUS
 10
151.1346793074
 20
30.9164367395
 11
151.0768668626
 21
30.8196456577
  0
LINE
  8
0
 62
7
  6
CONTINUOUS
 10
153.4471794177
 20
31.400392081
 11
153.3893668074
 21
31.4649194539
  0
LINE
  8
0
 62
7
  6
CONTINUOUS
 10
154.3143669177
 20
30.7873819712
 11
154.2565543074
 21
30.8519093441
  0
LINE
  8
0
 62
7
  6
CONTINUOUS
 10
155.4706168074
 20
30.6583272086
 11
155.5284290869
 21
30.5937998301
  0
LINE
  8
0
 62
7
  6
CONTINUOUS
 10
155.412804528
 20
30.7551182848
 11
155.4706168074
 21
30.6583272086
  0
LINE
  8
0
 62
7
  6
CONTINUOUS
 10
155.8174918074
 20
30.5937998301
 11
155.759679528
 21
30.6905909007
  0
LINE
  8
0
 62
7
  6
CONTINUOUS
 10
155.7018665869
 20
31.3681283946
 11
155.6440543074
 21
31.4649194539
  0
LINE
  8
0
 62
7
  6
CONTINUOUS
 10
157.0315543074
 20
31.626237886
 11
157.0315543074
 21
30.5937998301
  0
LINE
  8
0
 62
7
  6
CONTINUOUS
 10
157.320617028
 20
30.5937998301
 11
157.320617028
 21
31.3358647082
  0
LINE
  8
0
 62
7
  6
CONTINUOUS
 10
157.320617028
 20
31.4649194539
 11
157.320617028
 21
31.626237886
  0
LINE
  8
0
 62
7
  6
CONTINUOUS
 10
157.852430332
 20
34.6101932727
 11
157.852430332
 21
32.3970785186
  0
LINE
  8
0
 62
7
  6
CONTINUOUS
 10
149.7471793074
 20
31.4326557675
 11
149.6315543091
 21
31.3036010218
  0
LINE
  8
0
 62
7
  6
CONTINUOUS
 10
149.9206168074
 20
31.2713373354
 11
149.9784292936
 21
31.3358647082
  0
LINE
  8
0
 62
7
  6
CONTINUOUS
 10
149.7471793074
 20
30.7873819712
 11
149.8628043005
 21
30.7228545871
  0
LINE
  8
0
 62
7
  6
CONTINUOUS
 10
150.1518667936
 20
30.7873819712
 11
149.9784292936
 21
30.8841730531
  0
LINE
  8
0
 62
7
  6
CONTINUOUS
 10
155.3549915869
 20
31.4326557675
 11
155.412804528
 21
31.3681283946
  0
LINE
  8
0
 62
7
  6
CONTINUOUS
 10
158.3034290869
 20
31.3681283946
 11
158.361242028
 21
31.2068099625
  0
LINE
  8
0
 62
7
  6
CONTINUOUS
 10
158.6503040869
 20
31.2068099625
 11
158.5924918074
 21
31.3681283946
  0
LINE
  8
0
 62
7
  6
CONTINUOUS
 10
158.361242028
 20
31.2068099625
 11
158.361242028
 21
30.5937998301
  0
LINE
  8
0
 62
7
  6
CONTINUOUS
 10
158.6503040869
 20
30.5937998301
 11
158.6503040869
 21
31.2068099625
  0
LINE
  8
0
 62
7
  6
CONTINUOUS
 10
159.1128043074
 20
31.4326557675
 11
159.1128043074
 21
31.3681283946
  0
LINE
  8
0
 62
7
  6
CONTINUOUS
 10
159.245872955
 20
32.3970785186
 11
159.245872955
 21
34.5282260596
  0
LINE
  8
0
 62
7
  6
CONTINUOUS
 10
159.5737418074
 20
36.1675703219
 11
159.5737418074
 21
32.3970785186
  0
LINE
  8
0
 62
7
  6
CONTINUOUS
 10
154.2565543074
 20
30.9164367395
 11
154.3143669177
 21
31.0132277988
  0
LINE
  8
0
 62
7
  6
CONTINUOUS
 10
149.8628043005
 20
30.7228545871
 11
150.0362418212
 21
30.6583272086
  0
LINE
  8
0
 62
7
  6
CONTINUOUS
 10
151.3659292523
 20
31.4326557675
 11
151.1924917523
 21
31.5294468267
  0
LINE
  8
0
 62
7
  6
CONTINUOUS
 10
154.0253041972
 20
30.7551182848
 11
154.1987416972
 21
30.6583272086
  0
LINE
  8
0
 62
7
  6
CONTINUOUS
 10
153.0424918074
 20
31.4326557675
 11
153.1581166972
 21
31.3681283946
  0
LINE
  8
0
 62
7
  6
CONTINUOUS
 10
153.3893668074
 20
31.4649194539
 11
153.2737419177
 21
31.5294468267
  0
LINE
  8
0
 62
7
  6
CONTINUOUS
 10
159.1128043074
 20
30.8519093441
 11
159.228429528
 21
30.7228545871
  0
LINE
  8
0
 62
7
  6
CONTINUOUS
 10
159.4596793074
 20
30.7873819712
 11
159.401867028
 21
30.8519093441
  0
LINE
  8
0
 62
7
  6
CONTINUOUS
 10
159.1128043074
 20
31.3681283946
 11
159.228429528
 21
31.2390736489
  0
LINE
  8
0
 62
7
  6
CONTINUOUS
 10
158.5924918074
 20
31.3681283946
 11
158.534679528
 21
31.4649194539
  0
LINE
  8
0
 62
7
  6
CONTINUOUS
 10
160.9628038663
 20
30.7873819712
 11
160.9628038663
 21
30.8519093441
  0
LINE
  8
0
 62
7
  6
CONTINUOUS
 10
160.9671844304
 20
32.3970785186
 11
160.9671844304
 21
36.1675703219
  0
LINE
  8
0
 62
7
  6
CONTINUOUS
 10
154.0253041972
 20
31.4971831403
 11
153.9674919177
 21
31.4326557675
  0
LINE
  8
0
 62
7
  6
CONTINUOUS
 10
150.9034292799
 20
31.4649194539
 11
151.0768668626
 21
31.400392081
  0
LINE
  8
0
 62
7
  6
CONTINUOUS
 10
155.6440543074
 20
31.4649194539
 11
155.5284290869
 21
31.5294468267
  0
LINE
  8
0
 62
7
  6
CONTINUOUS
 10
159.4596793074
 20
31.3036010218
 11
159.401867028
 21
31.3681283946
  0
LINE
  8
0
 62
7
  6
CONTINUOUS
 10
160.615929528
 20
30.9164367395
 11
160.6737418074
 21
30.8519093441
  0
LINE
  8
0
 62
7
  6
CONTINUOUS
 10
160.9628038663
 20
30.8519093441
 11
160.8471793074
 21
30.9809641124
  0
LINE
  8
0
 62
7
  6
CONTINUOUS
 10
160.615929528
 20
31.4326557675
 11
160.6737418074
 21
31.3681283946
  0
LINE
  8
0
 62
7
  6
CONTINUOUS
 10
160.9628038663
 20
31.3681283946
 11
160.8471793074
 21
31.4971831403
  0
LINE
  8
0
 62
7
  6
CONTINUOUS
 10
154.2565543074
 20
31.3681283946
 11
154.3143669177
 21
31.4326557675
  0
LINE
  8
0
 62
7
  6
CONTINUOUS
 10
154.0831168074
 20
31.1100188581
 11
153.9674919177
 21
30.9809641124
  0
LINE
  8
0
 62
7
  6
CONTINUOUS
 10
155.412804528
 20
30.9487004259
 11
155.3549915869
 21
30.8841730531
  0
LINE
  8
0
 62
7
  6
CONTINUOUS
 10
155.3549915869
 20
30.6905909007
 11
155.412804528
 21
30.7551182848
  0
LINE
  8
0
 62
7
  6
CONTINUOUS
 10
154.1987416972
 20
30.6583272086
 11
154.3143669177
 21
30.6260635193
  0
LINE
  8
0
 62
7
  6
CONTINUOUS
 10
151.1924917523
 20
31.5294468267
 11
150.9612418074
 21
31.5939741996
  0
LINE
  8
0
 62
7
  6
CONTINUOUS
 10
154.5456166972
 20
30.7228545871
 11
154.3143669177
 21
30.7873819712
  0
LINE
  8
0
 62
7
  6
CONTINUOUS
 10
153.2737419177
 20
31.5294468267
 11
153.1003044177
 21
31.5939741996
  0
LINE
  8
0
 62
7
  6
CONTINUOUS
 10
155.5284290869
 20
31.5294468267
 11
155.3549915869
 21
31.5939741996
  0
LINE
  8
0
 62
7
  6
CONTINUOUS
 10
158.187804528
 20
31.4326557675
 11
158.3034290869
 21
31.3681283946
  0
LINE
  8
0
 62
7
  6
CONTINUOUS
 10
158.534679528
 20
31.4649194539
 11
158.4190543074
 21
31.5294468267
  0
LINE
  8
0
 62
7
  6
CONTINUOUS
 10
150.0362418212
 20
30.6583272086
 11
150.2096793212
 21
30.6260635193
  0
LINE
  8
0
 62
7
  6
CONTINUOUS
 10
150.498741835
 20
30.7228545871
 11
150.1518667936
 21
30.7873819712
  0
LINE
  8
0
 62
7
  6
CONTINUOUS
 10
152.9268669177
 20
31.4649194539
 11
153.0424918074
 21
31.4326557675
  0
LINE
  8
0
 62
7
  6
CONTINUOUS
 10
155.239367028
 20
31.4649194539
 11
155.3549915869
 21
31.4326557675
  0
LINE
  8
0
 62
7
  6
CONTINUOUS
 10
159.575304528
 20
30.7551182848
 11
159.4596793074
 21
30.7873819712
  0
LINE
  8
0
 62
7
  6
CONTINUOUS
 10
158.0721793074
 20
31.4649194539
 11
158.187804528
 21
31.4326557675
  0
LINE
  8
0
 62
7
  6
CONTINUOUS
 10
159.228429528
 20
30.7228545871
 11
159.401867028
 21
30.6583272086
  0
LINE
  8
0
 62
7
  6
CONTINUOUS
 10
158.4190543074
 20
31.5294468267
 11
158.2456168074
 21
31.5939741996
  0
LINE
  8
0
 62
7
  6
CONTINUOUS
 10
159.6331168074
 20
31.2390736489
 11
159.4596793074
 21
31.3036010218
  0
LINE
  8
0
 62
7
  6
CONTINUOUS
 10
160.442492028
 20
30.9809641124
 11
160.615929528
 21
30.9164367395
  0
LINE
  8
0
 62
7
  6
CONTINUOUS
 10
160.8471793074
 20
31.4971831403
 11
160.6737418074
 21
31.5617105132
  0
LINE
  8
0
 62
7
  6
CONTINUOUS
 10
159.228429528
 20
31.2390736489
 11
159.4596793074
 21
31.1422825445
  0
LINE
  8
0
 62
7
  6
CONTINUOUS
 10
160.8471793074
 20
30.9809641124
 11
160.615929528
 21
31.0777551716
  0
LINE
  8
0
 62
7
  6
CONTINUOUS
 10
159.401867028
 20
31.3681283946
 11
159.4596793074
 21
31.4326557675
  0
LINE
  8
0
 62
7
  6
CONTINUOUS
 10
149.8628043005
 20
31.4971831403
 11
149.7471793074
 21
31.4326557675
  0
LINE
  8
0
 62
7
  6
CONTINUOUS
 10
149.9784292936
 20
31.3358647082
 11
150.1518667936
 21
31.4326557675
  0
LINE
  8
0
 62
7
  6
CONTINUOUS
 10
152.2909293626
 20
31.5294468267
 11
152.1753043074
 21
31.4649194539
  0
LINE
  8
0
 62
7
  6
CONTINUOUS
 10
152.1753043074
 20
31.3358647082
 11
152.2909293626
 21
31.400392081
  0
LINE
  8
0
 62
7
  6
CONTINUOUS
 10
151.1924917523
 20
30.6905909007
 11
151.3659292523
 21
30.7873819712
  0
LINE
  8
0
 62
7
  6
CONTINUOUS
 10
150.2096793212
 20
30.6260635193
 11
150.5565542799
 21
30.5937998301
  0
LINE
  8
0
 62
7
  6
CONTINUOUS
 10
154.3143669177
 20
30.6260635193
 11
154.5456166972
 21
30.5937998301
  0
LINE
  8
0
 62
7
  6
CONTINUOUS
 10
152.6956168074
 20
31.4971831403
 11
152.9268669177
 21
31.4649194539
  0
LINE
  8
0
 62
7
  6
CONTINUOUS
 10
155.0081169177
 20
31.4971831403
 11
155.239367028
 21
31.4649194539
  0
LINE
  8
0
 62
7
  6
CONTINUOUS
 10
159.4596793074
 20
31.1422825445
 11
160.442492028
 21
30.9809641124
  0
LINE
  8
0
 62
7
  6
CONTINUOUS
 10
160.615929528
 20
31.0777551716
 11
159.6331168074
 21
31.2390736489
  0
LINE
  8
0
 62
7
  6
CONTINUOUS
 10
153.1003044177
 20
31.5939741996
 11
152.9268669177
 21
31.626237886
  0
LINE
  8
0
 62
7
  6
CONTINUOUS
 10
159.401867028
 20
30.6583272086
 11
159.575304528
 21
30.6260635193
  0
LINE
  8
0
 62
7
  6
CONTINUOUS
 10
158.2456168074
 20
31.5939741996
 11
158.0721793074
 21
31.626237886
  0
LINE
  8
0
 62
7
  6
CONTINUOUS
 10
160.5003043074
 20
31.4649194539
 11
160.615929528
 21
31.4326557675
  0
LINE
  8
0
 62
7
  6
CONTINUOUS
 10
160.6737418074
 20
30.8519093441
 11
160.615929528
 21
30.7873819712
  0
LINE
  8
0
 62
7
  6
CONTINUOUS
 10
159.228429528
 20
31.5294468267
 11
159.1128043074
 21
31.4326557675
  0
LINE
  8
0
 62
7
  6
CONTINUOUS
 10
154.1409294177
 20
31.5617105132
 11
154.0253041972
 21
31.4971831403
  0
LINE
  8
0
 62
7
  6
CONTINUOUS
 10
154.1987416972
 20
31.1745462761
 11
154.0831168074
 21
31.1100188581
  0
LINE
  8
0
 62
7
  6
CONTINUOUS
 10
154.3143669177
 20
31.0132277988
 11
154.4299918074
 21
31.0777551716
  0
LINE
  8
0
 62
7
  6
CONTINUOUS
 10
151.8862417523
 20
30.5937998301
 11
152.1753043074
 21
30.5937998301
  0
LINE
  8
0
 62
7
  6
CONTINUOUS
 10
153.2159293074
 20
30.5937998301
 11
153.5049916972
 21
30.5937998301
  0
LINE
  8
0
 62
7
  6
CONTINUOUS
 10
154.5456166972
 20
30.5937998301
 11
154.8924916972
 21
30.5937998301
  0
LINE
  8
0
 62
7
  6
CONTINUOUS
 10
155.5284290869
 20
30.5937998301
 11
155.8174918074
 21
30.5937998301
  0
LINE
  8
0
 62
7
  6
CONTINUOUS
 10
156.279992028
 20
30.5937998301
 11
156.5690540869
 21
30.5937998301
  0
LINE
  8
0
 62
7
  6
CONTINUOUS
 10
157.0315543074
 20
30.5937998301
 11
157.320617028
 21
30.5937998301
  0
LINE
  8
0
 62
7
  6
CONTINUOUS
 10
158.361242028
 20
30.5937998301
 11
158.6503040869
 21
30.5937998301
  0
LINE
  8
0
 62
7
  6
CONTINUOUS
 10
159.922179528
 20
30.5937998301
 11
160.269054528
 21
30.5937998301
  0
LINE
  8
0
 62
7
  6
CONTINUOUS
 10
160.269054528
 20
30.7228545871
 11
159.922179528
 21
30.7228545871
  0
LINE
  8
0
 62
7
  6
CONTINUOUS
 10
154.8924916972
 20
30.7228545871
 11
154.5456166972
 21
30.7228545871
  0
LINE
  8
0
 62
7
  6
CONTINUOUS
 10
159.401867028
 20
30.8519093441
 11
159.1128043074
 21
30.8519093441
  0
LINE
  8
0
 62
7
  6
CONTINUOUS
 10
151.4237418626
 20
30.9164367395
 11
151.1346793074
 21
30.9164367395
  0
LINE
  8
0
 62
7
  6
CONTINUOUS
 10
150.498741835
 20
31.4971831403
 11
150.9034292799
 21
31.4649194539
  0
LINE
  8
0
 62
7
  6
CONTINUOUS
 10
150.9612418074
 20
31.5939741996
 11
150.5565542799
 21
31.626237886
  0
LINE
  8
0
 62
7
  6
CONTINUOUS
 10
159.575304528
 20
30.6260635193
 11
159.922179528
 21
30.5937998301
  0
LINE
  8
0
 62
7
  6
CONTINUOUS
 10
159.922179528
 20
30.7228545871
 11
159.575304528
 21
30.7551182848
  0
LINE
  8
0
 62
7
  6
CONTINUOUS
 10
155.3549915869
 20
31.5939741996
 11
155.0081169177
 21
31.626237886
  0
LINE
  8
0
 62
7
  6
CONTINUOUS
 10
160.1534293074
 20
31.4971831403
 11
160.5003043074
 21
31.4649194539
  0
LINE
  8
0
 62
7
  6
CONTINUOUS
 10
160.5003043074
 20
31.5939741996
 11
160.1534293074
 21
31.626237886
  0
LINE
  8
0
 62
7
  6
CONTINUOUS
 10
157.840929528
 20
31.4971831403
 11
158.0721793074
 21
31.4649194539
  0
LINE
  8
0
 62
7
  6
CONTINUOUS
 10
160.6737418074
 20
31.5617105132
 11
160.5003043074
 21
31.5939741996
  0
LINE
  8
0
 62
7
  6
CONTINUOUS
 10
160.8471793074
 20
30.6905909007
 11
160.9628038663
 21
30.7873819712
  0
LINE
  8
0
 62
7
  6
CONTINUOUS
 10
155.3549915869
 20
30.8841730531
 11
155.1815540869
 21
30.7873819712
  0
LINE
  8
0
 62
7
  6
CONTINUOUS
 10
157.4362415869
 20
31.5294468267
 11
157.320617028
 21
31.4649194539
  0
LINE
  8
0
 62
7
  6
CONTINUOUS
 10
157.320617028
 20
31.3358647082
 11
157.4362415869
 21
31.400392081
  0
LINE
  8
0
 62
7
  6
CONTINUOUS
 10
150.0362418212
 20
31.5617105132
 11
149.8628043005
 21
31.4971831403
  0
LINE
  8
0
 62
7
  6
CONTINUOUS
 10
152.4643666972
 20
31.5939741996
 11
152.2909293626
 21
31.5294468267
  0
LINE
  8
0
 62
7
  6
CONTINUOUS
 10
152.2909293626
 20
31.400392081
 11
152.4643666972
 21
31.4649194539
  0
LINE
  8
0
 62
7
  6
CONTINUOUS
 10
151.0768668626
 20
30.8196456577
 11
150.9034292799
 21
30.7551182848
  0
LINE
  8
0
 62
7
  6
CONTINUOUS
 10
160.5003043074
 20
30.7551182848
 11
160.269054528
 21
30.7228545871
  0
LINE
  8
0
 62
7
  6
CONTINUOUS
 10
154.8924916972
 20
30.5937998301
 11
155.1815540869
 21
30.6260635193
  0
LINE
  8
0
 62
7
  6
CONTINUOUS
 10
160.269054528
 20
30.5937998301
 11
160.615929528
 21
30.6260635193
  0
LINE
  8
0
 62
7
  6
CONTINUOUS
 10
150.5565542799
 20
30.5937998301
 11
150.9612418074
 21
30.6260635193
  0
LINE
  8
0
 62
7
  6
CONTINUOUS
 10
150.9034292799
 20
30.7551182848
 11
150.498741835
 21
30.7228545871
  0
LINE
  8
0
 62
7
  6
CONTINUOUS
 10
154.7768668074
 20
31.1422825445
 11
155.412804528
 21
31.1422825445
  0
LINE
  8
0
 62
7
  6
CONTINUOUS
 10
155.412804528
 20
31.2713373354
 11
154.7768668074
 21
31.2713373354
  0
LINE
  8
0
 62
7
  6
CONTINUOUS
 10
151.1346793074
 20
31.3036010218
 11
151.4237418626
 21
31.3036010218
  0
LINE
  8
0
 62
7
  6
CONTINUOUS
 10
153.9674919177
 20
31.3681283946
 11
154.2565543074
 21
31.3681283946
  0
LINE
  8
0
 62
7
  6
CONTINUOUS
 10
160.6737418074
 20
31.3681283946
 11
160.9628038663
 21
31.3681283946
  0
LINE
  8
0
 62
7
  6
CONTINUOUS
 10
154.6612419177
 20
31.4971831403
 11
155.0081169177
 21
31.4971831403
  0
LINE
  8
0
 62
7
  6
CONTINUOUS
 10
159.8065543074
 20
31.4971831403
 11
160.1534293074
 21
31.4971831403
  0
LINE
  8
0
 62
7
  6
CONTINUOUS
 10
160.1534293074
 20
31.626237886
 11
159.8065543074
 21
31.626237886
  0
LINE
  8
0
 62
7
  6
CONTINUOUS
 10
158.0721793074
 20
31.626237886
 11
157.840929528
 21
31.626237886
  0
LINE
  8
0
 62
7
  6
CONTINUOUS
 10
157.320617028
 20
31.626237886
 11
157.0315543074
 21
31.626237886
  0
LINE
  8
0
 62
7
  6
CONTINUOUS
 10
156.5690540869
 20
31.626237886
 11
156.279992028
 21
31.626237886
  0
LINE
  8
0
 62
7
  6
CONTINUOUS
 10
155.0081169177
 20
31.626237886
 11
154.6612419177
 21
31.626237886
  0
LINE
  8
0
 62
7
  6
CONTINUOUS
 10
152.9268669177
 20
31.626237886
 11
152.6956168074
 21
31.626237886
  0
LINE
  8
0
 62
7
  6
CONTINUOUS
 10
156.279992028
 20
31.9488748406
 11
156.5690540869
 21
31.9488748406
  0
LINE
  8
0
 62
7
  6
CONTINUOUS
 10
156.5690540869
 20
32.1101932727
 11
156.279992028
 21
32.1101932727
  0
LINE
  8
0
 62
7
  6
CONTINUOUS
 10
152.1753043074
 20
32.1101932727
 11
151.8862417523
 21
32.1101932727
  0
LINE
  8
0
 62
7
  6
CONTINUOUS
 10
151.2130860697
 20
32.3970785186
 11
151.6256574183
 21
32.3970785186
  0
LINE
  8
0
 62
7
  6
CONTINUOUS
 10
152.852430332
 20
32.3970785186
 11
154.245872955
 21
32.3970785186
  0
LINE
  8
0
 62
7
  6
CONTINUOUS
 10
154.5737418074
 20
32.3970785186
 11
155.9671844304
 21
32.3970785186
  0
LINE
  8
0
 62
7
  6
CONTINUOUS
 10
157.852430332
 20
32.3970785186
 11
159.245872955
 21
32.3970785186
  0
LINE
  8
0
 62
7
  6
CONTINUOUS
 10
159.5737418074
 20
32.3970785186
 11
160.9671844304
 21
32.3970785186
  0
LINE
  8
0
 62
7
  6
CONTINUOUS
 10
157.6096790869
 20
31.5939741996
 11
157.4362415869
 21
31.5294468267
  0
LINE
  8
0
 62
7
  6
CONTINUOUS
 10
155.1815540869
 20
30.6260635193
 11
155.3549915869
 21
30.6905909007
  0
LINE
  8
0
 62
7
  6
CONTINUOUS
 10
160.615929528
 20
30.6260635193
 11
160.8471793074
 21
30.6905909007
  0
LINE
  8
0
 62
7
  6
CONTINUOUS
 10
160.615929528
 20
30.7873819712
 11
160.5003043074
 21
30.7551182848
  0
LINE
  8
0
 62
7
  6
CONTINUOUS
 10
159.575304528
 20
31.4649194539
 11
159.8065543074
 21
31.4971831403
  0
LINE
  8
0
 62
7
  6
CONTINUOUS
 10
157.6096790869
 20
31.4649194539
 11
157.840929528
 21
31.4971831403
  0
LINE
  8
0
 62
7
  6
CONTINUOUS
 10
154.5456166972
 20
31.1100188581
 11
154.7768668074
 21
31.1422825445
  0
LINE
  8
0
 62
7
  6
CONTINUOUS
 10
157.840929528
 20
31.626237886
 11
157.6096790869
 21
31.5939741996
  0
LINE
  8
0
 62
7
  6
CONTINUOUS
 10
154.4299918074
 20
31.4649194539
 11
154.6612419177
 21
31.4971831403
  0
LINE
  8
0
 62
7
  6
CONTINUOUS
 10
159.8065543074
 20
31.626237886
 11
159.4596793074
 21
31.5939741996
  0
LINE
  8
0
 62
7
  6
CONTINUOUS
 10
154.7768668074
 20
31.2713373354
 11
154.4299918074
 21
31.2390736489
  0
LINE
  8
0
 62
7
  6
CONTINUOUS
 10
150.5565542799
 20
31.626237886
 11
150.2096793212
 21
31.5939741996
  0
LINE
  8
0
 62
7
  6
CONTINUOUS
 10
154.6612419177
 20
31.626237886
 11
154.2565543074
 21
31.5939741996
  0
LINE
  8
0
 62
7
  6
CONTINUOUS
 10
152.0327582009
 20
33.5446195022
 11
151.3770204959
 21
33.5446195022
  0
LINE
  8
0
 62
7
  6
CONTINUOUS
 10
157.4362415869
 20
31.400392081
 11
157.6096790869
 21
31.4649194539
  0
LINE
  8
0
 62
7
  6
CONTINUOUS
 10
159.4596793074
 20
31.4326557675
 11
159.575304528
 21
31.4649194539
  0
LINE
  8
0
 62
7
  6
CONTINUOUS
 10
159.4596793074
 20
31.5939741996
 11
159.228429528
 21
31.5294468267
  0
LINE
  8
0
 62
7
  6
CONTINUOUS
 10
155.1815540869
 20
30.7873819712
 11
154.8924916972
 21
30.7228545871
  0
LINE
  8
0
 62
7
  6
CONTINUOUS
 10
152.4643666972
 20
31.4649194539
 11
152.6956168074
 21
31.4971831403
  0
LINE
  8
0
 62
7
  6
CONTINUOUS
 10
152.6956168074
 20
31.626237886
 11
152.4643666972
 21
31.5939741996
  0
LINE
  8
0
 62
7
  6
CONTINUOUS
 10
150.2674918074
 20
31.4649194539
 11
150.498741835
 21
31.4971831403
  0
LINE
  8
0
 62
7
  6
CONTINUOUS
 10
156.7868565615
 20
35.0200293383
 11
157.4425942664
 21
35.0200293383
  0
LINE
  8
0
 62
7
  6
CONTINUOUS
 10
154.4299918074
 20
31.0777551716
 11
154.5456166972
 21
31.1100188581
  0
LINE
  8
0
 62
7
  6
CONTINUOUS
 10
154.4299918074
 20
31.2390736489
 11
154.1987416972
 21
31.1745462761
  0
LINE
  8
0
 62
7
  6
CONTINUOUS
 10
154.3143669177
 20
31.4326557675
 11
154.4299918074
 21
31.4649194539
  0
LINE
  8
0
 62
7
  6
CONTINUOUS
 10
150.9612418074
 20
30.6260635193
 11
151.1924917523
 21
30.6905909007
  0
LINE
  8
0
 62
7
  6
CONTINUOUS
 10
154.2565543074
 20
31.5939741996
 11
154.1409294177
 21
31.5617105132
  0
LINE
  8
0
 62
7
  6
CONTINUOUS
 10
150.2096793212
 20
31.5939741996
 11
150.0362418212
 21
31.5617105132
  0
LINE
  8
0
 62
7
  6
CONTINUOUS
 10
160.9671844304
 20
36.1675703219
 11
159.5737418074
 21
36.1675703219
  0
LINE
  8
0
 62
7
  6
CONTINUOUS
 10
157.6065286927
 20
36.1675703219
 11
157.1939573441
 21
36.1675703219
  0
LINE
  8
0
 62
7
  6
CONTINUOUS
 10
155.9671844304
 20
36.1675703219
 11
154.5737418074
 21
36.1675703219
  0
LINE
  8
0
 62
7
  6
CONTINUOUS
 10
154.245872955
 20
36.1675703219
 11
152.852430332
 21
36.1675703219
  0
LINE
  8
0
 62
7
  6
CONTINUOUS
 10
150.9671844304
 20
36.1675703219
 11
149.5737418074
 21
36.1675703219
  0
LINE
  8
0
 62
7
  6
CONTINUOUS
 10
150.1518667936
 20
31.4326557675
 11
150.2674918074
 21
31.4649194539
  0
CIRCLE
  8
0
 62
7
  6
CONTINUOUS
 10
160.2704631189
 20
38.5036358957
 40
2.0901639344
  0
ARC
  8
0
 62
7
  6
CONTINUOUS
 10
151.2130860697
 20
34.0364227809
 40
1.6393442623
 50
180.0
 51
270.0
  0
ARC
  8
0
 62
7
  6
CONTINUOUS
 10
157.6065286927
 20
34.5282260596
 40
1.6393442623
 50
0.0
 51
90.0
  0
ARC
  8
0
 62
7
  6
CONTINUOUS
 10
151.6256574183
 20
33.8724883547
 40
1.4754098361
 50
270.0
 51
326.2510114041
  0
ARC
  8
0
 62
7
  6
CONTINUOUS
 10
157.1939573441
 20
34.6921604858
 40
1.4754098361
 50
90.0
 51
146.2510114041
  0
ARC
  8
0
 62
7
  6
CONTINUOUS
 10
152.0327582009
 20
34.3642916334
 40
0.8196721311
 50
270.0
 51
360.0
  0
ARC
  8
0
 62
7
  6
CONTINUOUS
 10
156.7868565615
 20
34.2003572071
 40
0.8196721311
 50
90.0
 51
180.0
  0
ARC
  8
0
 62
7
  6
CONTINUOUS
 10
151.3770204959
 20
33.9544555678
 40
0.4098360656
 50
180.0
 51
270.0
  0
ARC
  8
0
 62
7
  6
CONTINUOUS
 10
157.4425942664
 20
34.6101932727
 40
0.4098360656
 50
0.0
 51
90.0
  0
SOLID
  8
0
 62
7
  6
CONTINUOUS
 10
156.279992028
 20
31.9488752009
 11
156.279992028
 21
32.1101936845
 12
156.5690540869
 22
31.9488752009
 13
156.5690540869
 23
32.1101936845
  0
SOLID
  8
0
 62
7
  6
CONTINUOUS
 10
150.5565542799
 20
31.6262382337
 11
150.9612418074
 21
31.5939740028
 12
150.2096793212
 22
31.5939740028
 13
150.2096793212
 23
31.5939740028
  0
SOLID
  8
0
 62
7
  6
CONTINUOUS
 10
150.0362418212
 20
31.5617111435
 11
150.2096793212
 21
31.5939740028
 12
150.9612418074
 22
31.5939740028
 13
150.9612418074
 23
31.5939740028
  0
SOLID
  8
0
 62
7
  6
CONTINUOUS
 10
150.9612418074
 20
31.5939740028
 11
151.1924917523
 21
31.5294468402
 12
150.0362418212
 22
31.5617111435
 13
150.0362418212
 23
31.5617111435
  0
SOLID
  8
0
 62
7
  6
CONTINUOUS
 10
149.8628043005
 20
31.49718259
 11
150.0362418212
 21
31.5617111435
 12
151.1924917523
 22
31.5294468402
 13
151.1924917523
 23
31.5294468402
  0
SOLID
  8
0
 62
7
  6
CONTINUOUS
 10
149.8628043005
 20
31.49718259
 11
151.1924917523
 21
31.5294468402
 12
150.498741835
 22
31.49718259
 13
150.498741835
 23
31.49718259
  0
SOLID
  8
0
 62
7
  6
CONTINUOUS
 10
150.498741835
 20
31.49718259
 11
151.1924917523
 21
31.5294468402
 12
150.9034292799
 22
31.4649197501
 13
150.9034292799
 23
31.4649197501
  0
SOLID
  8
0
 62
7
  6
CONTINUOUS
 10
151.1924917523
 20
31.5294468402
 11
151.3659292523
 21
31.4326554468
 12
150.9034292799
 22
31.4649197501
 13
150.9034292799
 23
31.4649197501
  0
SOLID
  8
0
 62
7
  6
CONTINUOUS
 10
151.0768668626
 20
31.4003926599
 11
150.9034292799
 21
31.4649197501
 12
151.3659292523
 22
31.4326554468
 13
151.3659292523
 23
31.4326554468
  0
SOLID
  8
0
 62
7
  6
CONTINUOUS
 10
151.0768668626
 20
31.4003926599
 11
151.3659292523
 21
31.4326554468
 12
151.1346793074
 22
31.3036013776
 13
151.1346793074
 23
31.3036013776
  0
SOLID
  8
0
 62
7
  6
CONTINUOUS
 10
151.3659292523
 20
31.4326554468
 11
151.4237418626
 21
31.3036013776
 12
151.1346793074
 22
31.3036013776
 13
151.1346793074
 23
31.3036013776
  0
SOLID
  8
0
 62
7
  6
CONTINUOUS
 10
152.4643666972
 20
31.5939739754
 11
152.6956168074
 21
31.6262382787
 12
152.9268669177
 22
31.6262382787
 13
152.9268669177
 23
31.6262382787
  0
SOLID
  8
0
 62
7
  6
CONTINUOUS
 10
152.9268669177
 20
31.6262382787
 11
153.1003044177
 21
31.5939739754
 12
152.4643666972
 22
31.5939739754
 13
152.4643666972
 23
31.5939739754
  0
SOLID
  8
0
 62
7
  6
CONTINUOUS
 10
152.2909293626
 20
31.5294468852
 11
152.4643666972
 21
31.5939739754
 12
153.1003044177
 22
31.5939739754
 13
153.1003044177
 23
31.5939739754
  0
SOLID
  8
0
 62
7
  6
CONTINUOUS
 10
153.1003044177
 20
31.5939739754
 11
153.2737419177
 21
31.5294468852
 12
152.2909293626
 22
31.5294468852
 13
152.2909293626
 23
31.5294468852
  0
SOLID
  8
0
 62
7
  6
CONTINUOUS
 10
153.2737419177
 20
31.5294468852
 11
152.6956168074
 21
31.4971825369
 12
152.2909293626
 22
31.5294468852
 13
152.2909293626
 23
31.5294468852
  0
SOLID
  8
0
 62
7
  6
CONTINUOUS
 10
152.1753043074
 20
31.4649197951
 11
152.2909293626
 21
31.5294468852
 12
152.6956168074
 22
31.4971825369
 13
152.6956168074
 23
31.4971825369
  0
SOLID
  8
0
 62
7
  6
CONTINUOUS
 10
152.6956168074
 20
31.4971825369
 11
152.4643666972
 21
31.4649197951
 12
152.1753043074
 22
31.4649197951
 13
152.1753043074
 23
31.4649197951
  0
SOLID
  8
0
 62
7
  6
CONTINUOUS
 10
152.6956168074
 20
31.4971825369
 11
153.2737419177
 21
31.5294468852
 12
152.9268669177
 22
31.4649197951
 13
152.9268669177
 23
31.4649197951
  0
SOLID
  8
0
 62
7
  6
CONTINUOUS
 10
153.2737419177
 20
31.5294468852
 11
153.3893668074
 21
31.4649197951
 12
152.9268669177
 22
31.4649197951
 13
152.9268669177
 23
31.4649197951
  0
SOLID
  8
0
 62
7
  6
CONTINUOUS
 10
153.0424918074
 20
31.4326554468
 11
152.9268669177
 21
31.4649197951
 12
153.3893668074
 22
31.4649197951
 13
153.3893668074
 23
31.4649197951
  0
SOLID
  8
0
 62
7
  6
CONTINUOUS
 10
153.3893668074
 20
31.4649197951
 11
153.4471794177
 21
31.4003927049
 12
153.0424918074
 22
31.4326554468
 13
153.0424918074
 23
31.4326554468
  0
SOLID
  8
0
 62
7
  6
CONTINUOUS
 10
153.1581166972
 20
31.3681283566
 11
153.0424918074
 21
31.4326554468
 12
153.4471794177
 22
31.4003927049
 13
153.4471794177
 23
31.4003927049
  0
SOLID
  8
0
 62
7
  6
CONTINUOUS
 10
153.1581166972
 20
31.3681283566
 11
153.4471794177
 21
31.4003927049
 12
153.2159293074
 22
31.2390742213
 13
153.2159293074
 23
31.2390742213
  0
SOLID
  8
0
 62
7
  6
CONTINUOUS
 10
153.4471794177
 20
31.4003927049
 11
153.5049916972
 21
31.2390742213
 12
153.2159293074
 22
31.2390742213
 13
153.2159293074
 23
31.2390742213
  0
SOLID
  8
0
 62
7
  6
CONTINUOUS
 10
152.4643666972
 20
31.4649197951
 11
152.2909293626
 21
31.4003927049
 12
152.1753043074
 22
31.4649197951
 13
152.1753043074
 23
31.4649197951
  0
SOLID
  8
0
 62
7
  6
CONTINUOUS
 10
152.2909293626
 20
31.4003927049
 11
152.1753043074
 21
31.3358640533
 12
152.1753043074
 22
31.4649197951
 13
152.1753043074
 23
31.4649197951
  0
SOLID
  8
0
 62
7
  6
CONTINUOUS
 10
152.1753043074
 20
31.3358640533
 11
151.8862417523
 21
30.5938002869
 12
152.1753043074
 22
31.4649197951
 13
152.1753043074
 23
31.4649197951
  0
SOLID
  8
0
 62
7
  6
CONTINUOUS
 10
152.1753043074
 20
31.4649197951
 11
151.8862417523
 21
30.5938002869
 12
152.1753043074
 22
32.1101937295
 13
152.1753043074
 23
32.1101937295
  0
SOLID
  8
0
 62
7
  6
CONTINUOUS
 10
151.8862417523
 20
30.5938002869
 11
151.8862417523
 21
32.1101937295
 12
152.1753043074
 22
32.1101937295
 13
152.1753043074
 23
32.1101937295
  0
SOLID
  8
0
 62
7
  6
CONTINUOUS
 10
152.1753043074
 20
31.3358640533
 11
152.1753043074
 21
30.5938002869
 12
151.8862417523
 22
30.5938002869
 13
151.8862417523
 23
30.5938002869
  0
SOLID
  8
0
 62
7
  6
CONTINUOUS
 10
153.2159293074
 20
30.5938002869
 11
153.2159293074
 21
31.2390742213
 12
153.5049916972
 22
31.2390742213
 13
153.5049916972
 23
31.2390742213
  0
SOLID
  8
0
 62
7
  6
CONTINUOUS
 10
153.5049916972
 20
31.2390742213
 11
153.5049916972
 21
30.5938002869
 12
153.2159293074
 22
30.5938002869
 13
153.2159293074
 23
30.5938002869
  0
SOLID
  8
0
 62
7
  6
CONTINUOUS
 10
154.2565543074
 20
31.5939738288
 11
154.6612419177
 21
31.6262385959
 12
155.0081169177
 22
31.6262385959
 13
155.0081169177
 23
31.6262385959
  0
SOLID
  8
0
 62
7
  6
CONTINUOUS
 10
155.0081169177
 20
31.6262385959
 11
155.3549915869
 21
31.5939738288
 12
154.2565543074
 22
31.5939738288
 13
154.2565543074
 23
31.5939738288
  0
SOLID
  8
0
 62
7
  6
CONTINUOUS
 10
154.1409294177
 20
31.5617111435
 11
154.2565543074
 21
31.5939738288
 12
155.3549915869
 22
31.5939738288
 13
155.3549915869
 23
31.5939738288
  0
SOLID
  8
0
 62
7
  6
CONTINUOUS
 10
155.3549915869
 20
31.5939738288
 11
155.5284290869
 21
31.5294468402
 12
154.1409294177
 22
31.5617111435
 13
154.1409294177
 23
31.5617111435
  0
SOLID
  8
0
 62
7
  6
CONTINUOUS
 10
154.0253041972
 20
31.4971826249
 11
154.1409294177
 21
31.5617111435
 12
155.5284290869
 22
31.5294468402
 13
155.5284290869
 23
31.5294468402
  0
SOLID
  8
0
 62
7
  6
CONTINUOUS
 10
154.0253041972
 20
31.4971826249
 11
155.5284290869
 21
31.5294468402
 12
154.6612419177
 22
31.4971826249
 13
154.6612419177
 23
31.4971826249
  0
SOLID
  8
0
 62
7
  6
CONTINUOUS
 10
154.6612419177
 20
31.4971826249
 11
155.5284290869
 21
31.5294468402
 12
155.0081169177
 22
31.4971826249
 13
155.0081169177
 23
31.4971826249
  0
SOLID
  8
0
 62
7
  6
CONTINUOUS
 10
155.0081169177
 20
31.4971826249
 11
155.5284290869
 21
31.5294468402
 12
155.239367028
 22
31.4649194065
 13
155.239367028
 23
31.4649194065
  0
SOLID
  8
0
 62
7
  6
CONTINUOUS
 10
155.5284290869
 20
31.5294468402
 11
155.6440543074
 21
31.4649194065
 12
155.239367028
 22
31.4649194065
 13
155.239367028
 23
31.4649194065
  0
SOLID
  8
0
 62
7
  6
CONTINUOUS
 10
153.9674919177
 20
31.4326554138
 11
154.0253041972
 21
31.4971826249
 12
154.6612419177
 22
31.4971826249
 13
154.6612419177
 23
31.4971826249
  0
SOLID
  8
0
 62
7
  6
CONTINUOUS
 10
155.3549915869
 20
31.4326554138
 11
155.239367028
 21
31.4649194065
 12
155.6440543074
 22
31.4649194065
 13
155.6440543074
 23
31.4649194065
  0
SOLID
  8
0
 62
7
  6
CONTINUOUS
 10
155.3549915869
 20
31.4326554138
 11
155.6440543074
 21
31.4649194065
 12
155.412804528
 22
31.3681282026
 13
155.412804528
 23
31.3681282026
  0
SOLID
  8
0
 62
7
  6
CONTINUOUS
 10
155.6440543074
 20
31.4649194065
 11
155.7018665869
 21
31.3681282026
 12
155.412804528
 22
31.3681282026
 13
155.412804528
 23
31.3681282026
  0
SOLID
  8
0
 62
7
  6
CONTINUOUS
 10
155.412804528
 20
31.2713369632
 11
155.412804528
 21
31.3681282026
 12
155.7018665869
 22
31.3681282026
 13
155.7018665869
 23
31.3681282026
  0
SOLID
  8
0
 62
7
  6
CONTINUOUS
 10
155.412804528
 20
31.2713369632
 11
155.7018665869
 21
31.3681282026
 12
155.412804528
 22
31.1422827828
 13
155.412804528
 23
31.1422827828
  0
SOLID
  8
0
 62
7
  6
CONTINUOUS
 10
155.412804528
 20
31.1422827828
 11
155.7018665869
 21
31.3681282026
 12
155.412804528
 22
30.9487004259
 13
155.412804528
 23
30.9487004259
  0
SOLID
  8
0
 62
7
  6
CONTINUOUS
 10
155.7018665869
 20
31.3681282026
 11
155.7018665869
 21
30.8519086025
 12
155.412804528
 22
30.9487004259
 13
155.412804528
 23
30.9487004259
  0
SOLID
  8
0
 62
7
  6
CONTINUOUS
 10
157.6096790869
 20
31.5939736268
 11
157.840929528
 21
31.6262383465
 12
158.0721793074
 22
31.6262383465
 13
158.0721793074
 23
31.6262383465
  0
SOLID
  8
0
 62
7
  6
CONTINUOUS
 10
158.0721793074
 20
31.6262383465
 11
158.2456168074
 21
31.5939736268
 12
157.6096790869
 22
31.5939736268
 13
157.6096790869
 23
31.5939736268
  0
SOLID
  8
0
 62
7
  6
CONTINUOUS
 10
157.4362415869
 20
31.5294472848
 11
157.6096790869
 21
31.5939736268
 12
158.2456168074
 22
31.5939736268
 13
158.2456168074
 23
31.5939736268
  0
SOLID
  8
0
 62
7
  6
CONTINUOUS
 10
158.2456168074
 20
31.5939736268
 11
158.4190543074
 21
31.5294472848
 12
157.4362415869
 22
31.5294472848
 13
157.4362415869
 23
31.5294472848
  0
SOLID
  8
0
 62
7
  6
CONTINUOUS
 10
158.4190543074
 20
31.5294472848
 11
157.840929528
 21
31.4971825369
 12
157.4362415869
 22
31.5294472848
 13
157.4362415869
 23
31.5294472848
  0
SOLID
  8
0
 62
7
  6
CONTINUOUS
 10
157.320617028
 20
31.4649199103
 11
157.4362415869
 21
31.5294472848
 12
157.840929528
 22
31.4971825369
 13
157.840929528
 23
31.4971825369
  0
SOLID
  8
0
 62
7
  6
CONTINUOUS
 10
157.840929528
 20
31.4971825369
 11
157.6096790869
 21
31.4649199103
 12
157.320617028
 22
31.4649199103
 13
157.320617028
 23
31.4649199103
  0
SOLID
  8
0
 62
7
  6
CONTINUOUS
 10
157.840929528
 20
31.4971825369
 11
158.4190543074
 21
31.5294472848
 12
158.0721793074
 22
31.4649199103
 13
158.0721793074
 23
31.4649199103
  0
SOLID
  8
0
 62
7
  6
CONTINUOUS
 10
158.4190543074
 20
31.5294472848
 11
158.534679528
 21
31.4649199103
 12
158.0721793074
 22
31.4649199103
 13
158.0721793074
 23
31.4649199103
  0
SOLID
  8
0
 62
7
  6
CONTINUOUS
 10
158.187804528
 20
31.4326554468
 11
158.0721793074
 21
31.4649199103
 12
158.534679528
 22
31.4649199103
 13
158.534679528
 23
31.4649199103
  0
SOLID
  8
0
 62
7
  6
CONTINUOUS
 10
158.187804528
 20
31.4326554468
 11
158.534679528
 21
31.4649199103
 12
158.3034290869
 22
31.3681288486
 13
158.3034290869
 23
31.3681288486
  0
SOLID
  8
0
 62
7
  6
CONTINUOUS
 10
158.534679528
 20
31.4649199103
 11
158.5924918074
 21
31.3681288486
 12
158.3034290869
 22
31.3681288486
 13
158.3034290869
 23
31.3681288486
  0
SOLID
  8
0
 62
7
  6
CONTINUOUS
 10
158.361242028
 20
31.2068093799
 11
158.3034290869
 21
31.3681288486
 12
158.5924918074
 22
31.3681288486
 13
158.5924918074
 23
31.3681288486
  0
SOLID
  8
0
 62
7
  6
CONTINUOUS
 10
158.5924918074
 20
31.3681288486
 11
158.6503040869
 21
31.2068093799
 12
158.361242028
 22
31.2068093799
 13
158.361242028
 23
31.2068093799
  0
SOLID
  8
0
 62
7
  6
CONTINUOUS
 10
157.6096790869
 20
31.4649199103
 11
157.4362415869
 21
31.4003926599
 12
157.320617028
 22
31.4649199103
 13
157.320617028
 23
31.4649199103
  0
SOLID
  8
0
 62
7
  6
CONTINUOUS
 10
157.4362415869
 20
31.4003926599
 11
157.320617028
 21
31.3358640533
 12
157.320617028
 22
31.4649199103
 13
157.320617028
 23
31.4649199103
  0
SOLID
  8
0
 62
7
  6
CONTINUOUS
 10
157.320617028
 20
31.3358640533
 11
157.0315543074
 21
30.5938003547
 12
157.320617028
 22
31.4649199103
 13
157.320617028
 23
31.4649199103
  0
SOLID
  8
0
 62
7
  6
CONTINUOUS
 10
157.320617028
 20
31.4649199103
 11
157.0315543074
 21
30.5938003547
 12
157.320617028
 22
31.6262383465
 13
157.320617028
 23
31.6262383465
  0
SOLID
  8
0
 62
7
  6
CONTINUOUS
 10
157.0315543074
 20
30.5938003547
 11
157.0315543074
 21
31.6262383465
 12
157.320617028
 22
31.6262383465
 13
157.320617028
 23
31.6262383465
  0
SOLID
  8
0
 62
7
  6
CONTINUOUS
 10
157.320617028
 20
31.3358640533
 11
157.320617028
 21
30.5938003547
 12
157.0315543074
 22
30.5938003547
 13
157.0315543074
 23
30.5938003547
  0
SOLID
  8
0
 62
7
  6
CONTINUOUS
 10
158.361242028
 20
30.5938003547
 11
158.361242028
 21
31.2068093799
 12
158.6503040869
 22
31.2068093799
 13
158.6503040869
 23
31.2068093799
  0
SOLID
  8
0
 62
7
  6
CONTINUOUS
 10
158.6503040869
 20
31.2068093799
 11
158.6503040869
 21
30.5938003547
 12
158.361242028
 22
30.5938003547
 13
158.361242028
 23
30.5938003547
  0
SOLID
  8
0
 62
7
  6
CONTINUOUS
 10
159.4596793074
 20
31.5939739474
 11
159.8065543074
 21
31.6262381969
 12
160.1534293074
 22
31.6262381969
 13
160.1534293074
 23
31.6262381969
  0
SOLID
  8
0
 62
7
  6
CONTINUOUS
 10
160.1534293074
 20
31.6262381969
 11
160.5003043074
 21
31.5939739474
 12
159.4596793074
 22
31.5939739474
 13
159.4596793074
 23
31.5939739474
  0
SOLID
  8
0
 62
7
  6
CONTINUOUS
 10
159.228429528
 20
31.5294468402
 11
159.4596793074
 21
31.5939739474
 12
160.5003043074
 22
31.5939739474
 13
160.5003043074
 23
31.5939739474
  0
SOLID
  8
0
 62
7
  6
CONTINUOUS
 10
159.228429528
 20
31.5294468402
 11
160.5003043074
 21
31.5939739304
 12
160.6737418074
 22
31.5617111435
 13
160.6737418074
 23
31.5617111435
  0
SOLID
  8
0
 62
7
  6
CONTINUOUS
 10
159.228429528
 20
31.5294468402
 11
160.6737418074
 21
31.5617111435
 12
159.8065543074
 22
31.4971825592
 13
159.8065543074
 23
31.4971825592
  0
SOLID
  8
0
 62
7
  6
CONTINUOUS
 10
159.8065543074
 20
31.4971825592
 11
160.6737418074
 21
31.5617111435
 12
160.1534293074
 22
31.4971825592
 13
160.1534293074
 23
31.4971825592
  0
SOLID
  8
0
 62
7
  6
CONTINUOUS
 10
160.6737418074
 20
31.5617111435
 11
160.8471793074
 21
31.4971825592
 12
160.1534293074
 22
31.4971825592
 13
160.1534293074
 23
31.4971825592
  0
SOLID
  8
0
 62
7
  6
CONTINUOUS
 10
160.5003043074
 20
31.4649197501
 11
160.1534293074
 21
31.4971825592
 12
160.8471793074
 22
31.4971825592
 13
160.8471793074
 23
31.4971825592
  0
SOLID
  8
0
 62
7
  6
CONTINUOUS
 10
159.1128043074
 20
31.4326555427
 11
159.228429528
 21
31.5294468402
 12
159.8065543074
 22
31.4971825592
 13
159.8065543074
 23
31.4971825592
  0
SOLID
  8
0
 62
7
  6
CONTINUOUS
 10
160.5003043074
 20
31.4649197501
 11
160.8471793074
 21
31.4971825592
 12
160.615929528
 22
31.4326555427
 13
160.615929528
 23
31.4326555427
  0
SOLID
  8
0
 62
7
  6
CONTINUOUS
 10
160.615929528
 20
31.4326555427
 11
160.8471793074
 21
31.4971825592
 12
160.6737418074
 22
31.3681283005
 13
160.6737418074
 23
31.3681283005
  0
SOLID
  8
0
 62
7
  6
CONTINUOUS
 10
160.8471793074
 20
31.4971825592
 11
160.9628038663
 21
31.3681283005
 12
160.6737418074
 22
31.3681283005
 13
160.6737418074
 23
31.3681283005
  0
SOLID
  8
0
 62
7
  6
CONTINUOUS
 10
150.2674918074
 20
31.4649197501
 11
149.7471793074
 21
31.4326554237
 12
150.498741835
 22
31.4971824493
 13
150.498741835
 23
31.4971824493
  0
SOLID
  8
0
 62
7
  6
CONTINUOUS
 10
149.7471793074
 20
31.4326554237
 11
149.8628043005
 21
31.4971824493
 12
150.498741835
 22
31.4971824493
 13
150.498741835
 23
31.4971824493
  0
SOLID
  8
0
 62
7
  6
CONTINUOUS
 10
150.2674918074
 20
31.4649197501
 11
150.1518667936
 21
31.4326554237
 12
149.7471793074
 22
31.4326554237
 13
149.7471793074
 23
31.4326554237
  0
SOLID
  8
0
 62
7
  6
CONTINUOUS
 10
149.6315543091
 20
31.3036012664
 11
149.7471793074
 21
31.4326554237
 12
150.1518667936
 22
31.4326554237
 13
150.1518667936
 23
31.4326554237
  0
SOLID
  8
0
 62
7
  6
CONTINUOUS
 10
153.9674919177
 20
31.4326554237
 11
154.6612419177
 21
31.4971825369
 12
154.4299918074
 22
31.4649197501
 13
154.4299918074
 23
31.4649197501
  0
SOLID
  8
0
 62
7
  6
CONTINUOUS
 10
154.4299918074
 20
31.4649197501
 11
154.3143669177
 21
31.4326554237
 12
153.9674919177
 22
31.4326554237
 13
153.9674919177
 23
31.4326554237
  0
SOLID
  8
0
 62
7
  6
CONTINUOUS
 10
153.9674919177
 20
31.3681283335
 11
153.9674919177
 21
31.4326554237
 12
154.3143669177
 22
31.4326554237
 13
154.3143669177
 23
31.4326554237
  0
SOLID
  8
0
 62
7
  6
CONTINUOUS
 10
154.3143669177
 20
31.4326554237
 11
154.2565543074
 21
31.3681283335
 12
153.9674919177
 22
31.3681283335
 13
153.9674919177
 23
31.3681283335
  0
SOLID
  8
0
 62
7
  6
CONTINUOUS
 10
159.1128043074
 20
31.4326555528
 11
159.8065543074
 21
31.4971825369
 12
159.575304528
 22
31.4649197501
 13
159.575304528
 23
31.4649197501
  0
SOLID
  8
0
 62
7
  6
CONTINUOUS
 10
159.575304528
 20
31.4649197501
 11
159.4596793074
 21
31.4326555528
 12
159.1128043074
 22
31.4326555528
 13
159.1128043074
 23
31.4326555528
  0
SOLID
  8
0
 62
7
  6
CONTINUOUS
 10
159.1128043074
 20
31.3681284626
 11
159.1128043074
 21
31.4326555528
 12
159.4596793074
 22
31.4326555528
 13
159.4596793074
 23
31.4326555528
  0
SOLID
  8
0
 62
7
  6
CONTINUOUS
 10
159.4596793074
 20
31.4326555528
 11
159.401867028
 21
31.3681284626
 12
159.1128043074
 22
31.3681284626
 13
159.1128043074
 23
31.3681284626
  0
SOLID
  8
0
 62
7
  6
CONTINUOUS
 10
159.228429528
 20
31.2390741763
 11
159.1128043074
 21
31.3681284626
 12
159.401867028
 22
31.3681284626
 13
159.401867028
 23
31.3681284626
  0
SOLID
  8
0
 62
7
  6
CONTINUOUS
 10
149.6315543091
 20
31.3036012664
 11
150.1518667936
 21
31.4326554468
 12
149.9784292936
 22
31.3358640533
 13
149.9784292936
 23
31.3358640533
  0
SOLID
  8
0
 62
7
  6
CONTINUOUS
 10
149.9784292936
 20
31.3358640533
 11
149.9206168074
 21
31.2713369632
 12
149.6315543091
 22
31.3036012664
 13
149.6315543091
 23
31.3036012664
  0
SOLID
  8
0
 62
7
  6
CONTINUOUS
 10
149.5737418074
 20
31.1100184796
 11
149.6315543091
 21
31.3036012664
 12
149.9206168074
 22
31.2713369632
 13
149.9206168074
 23
31.2713369632
  0
SOLID
  8
0
 62
7
  6
CONTINUOUS
 10
154.4299918074
 20
31.2390741763
 11
154.7768668074
 21
31.271336924
 12
155.412804528
 22
31.271336924
 13
155.412804528
 23
31.271336924
  0
SOLID
  8
0
 62
7
  6
CONTINUOUS
 10
154.4299918074
 20
31.2390741763
 11
155.412804528
 21
31.271336924
 12
154.1987416972
 22
31.1745462761
 13
154.1987416972
 23
31.1745462761
  0
SOLID
  8
0
 62
7
  6
CONTINUOUS
 10
154.1987416972
 20
31.1745462761
 11
155.412804528
 21
31.271336924
 12
154.7768668074
 22
31.1422827436
 13
154.7768668074
 23
31.1422827436
  0
SOLID
  8
0
 62
7
  6
CONTINUOUS
 10
155.412804528
 20
31.271336924
 11
155.412804528
 21
31.1422827436
 12
154.7768668074
 22
31.1422827436
 13
154.7768668074
 23
31.1422827436
  0
SOLID
  8
0
 62
7
  6
CONTINUOUS
 10
159.228429528
 20
31.2390745501
 11
159.401867028
 21
31.3681283566
 12
159.4596793074
 22
31.3036012664
 13
159.4596793074
 23
31.3036012664
  0
SOLID
  8
0
 62
7
  6
CONTINUOUS
 10
159.4596793074
 20
31.3036012664
 11
159.6331168074
 21
31.2390745501
 12
159.228429528
 22
31.2390745501
 13
159.228429528
 23
31.2390745501
  0
SOLID
  8
0
 62
7
  6
CONTINUOUS
 10
159.4596793074
 20
31.1422827828
 11
159.228429528
 21
31.2390745501
 12
159.6331168074
 22
31.2390745501
 13
159.6331168074
 23
31.2390745501
  0
SOLID
  8
0
 62
7
  6
CONTINUOUS
 10
159.6331168074
 20
31.2390745501
 11
160.615929528
 21
31.0777556927
 12
159.4596793074
 22
31.1422827828
 13
159.4596793074
 23
31.1422827828
  0
SOLID
  8
0
 62
7
  6
CONTINUOUS
 10
160.442492028
 20
30.9809646623
 11
159.4596793074
 21
31.1422827828
 12
160.615929528
 22
31.0777556927
 13
160.615929528
 23
31.0777556927
  0
SOLID
  8
0
 62
7
  6
CONTINUOUS
 10
160.615929528
 20
31.0777556927
 11
160.8471793074
 21
30.9809646623
 12
160.442492028
 22
30.9809646623
 13
160.442492028
 23
30.9809646623
  0
SOLID
  8
0
 62
7
  6
CONTINUOUS
 10
160.615929528
 20
30.9164372091
 11
160.442492028
 21
30.9809646623
 12
160.8471793074
 22
30.9809646623
 13
160.8471793074
 23
30.9809646623
  0
SOLID
  8
0
 62
7
  6
CONTINUOUS
 10
160.615929528
 20
30.9164372091
 11
160.8471793074
 21
30.9809646623
 12
160.6737418074
 22
30.8519089441
 13
160.6737418074
 23
30.8519089441
  0
SOLID
  8
0
 62
7
  6
CONTINUOUS
 10
160.8471793074
 20
30.9809646623
 11
160.9628038663
 21
30.8519089441
 12
160.6737418074
 22
30.8519089441
 13
160.6737418074
 23
30.8519089441
  0
SOLID
  8
0
 62
7
  6
CONTINUOUS
 10
160.615929528
 20
30.7873818593
 11
160.6737418074
 21
30.8519089441
 12
160.9628038663
 22
30.8519089441
 13
160.9628038663
 23
30.8519089441
  0
SOLID
  8
0
 62
7
  6
CONTINUOUS
 10
160.9628038663
 20
30.8519089441
 11
160.9628038663
 21
30.7873818593
 12
160.615929528
 22
30.7873818593
 13
160.615929528
 23
30.7873818593
  0
SOLID
  8
0
 62
7
  6
CONTINUOUS
 10
160.5003043074
 20
30.7551187255
 11
160.615929528
 21
30.7873818593
 12
160.9628038663
 22
30.7873818593
 13
160.9628038663
 23
30.7873818593
  0
SOLID
  8
0
 62
7
  6
CONTINUOUS
 10
160.5003043074
 20
30.7551187255
 11
160.9628038663
 21
30.7873818593
 12
160.269054528
 22
30.7228547745
 13
160.269054528
 23
30.7228547745
  0
SOLID
  8
0
 62
7
  6
CONTINUOUS
 10
160.9628038663
 20
30.7873818593
 11
160.8471793074
 21
30.6905916353
 12
160.269054528
 22
30.7228547745
 13
160.269054528
 23
30.7228547745
  0
SOLID
  8
0
 62
7
  6
CONTINUOUS
 10
160.8471793074
 20
30.6905916353
 11
159.401867028
 21
30.658327332
 12
160.269054528
 22
30.7228547745
 13
160.269054528
 23
30.7228547745
  0
SOLID
  8
0
 62
7
  6
CONTINUOUS
 10
160.269054528
 20
30.7228547745
 11
159.401867028
 21
30.658327332
 12
159.922179528
 22
30.7228547745
 13
159.922179528
 23
30.7228547745
  0
SOLID
  8
0
 62
7
  6
CONTINUOUS
 10
159.401867028
 20
30.658327332
 11
159.228429528
 21
30.7228547745
 12
159.922179528
 22
30.7228547745
 13
159.922179528
 23
30.7228547745
  0
SOLID
  8
0
 62
7
  6
CONTINUOUS
 10
159.401867028
 20
30.658327332
 11
160.8471793074
 21
30.6905916353
 12
159.575304528
 22
30.6260629858
 13
159.575304528
 23
30.6260629858
  0
SOLID
  8
0
 62
7
  6
CONTINUOUS
 10
160.8471793074
 20
30.6905916353
 11
160.615929528
 21
30.6260629858
 12
159.575304528
 22
30.6260629858
 13
159.575304528
 23
30.6260629858
  0
SOLID
  8
0
 62
7
  6
CONTINUOUS
 10
159.922179528
 20
30.5938006049
 11
159.575304528
 21
30.6260629858
 12
160.615929528
 22
30.6260629858
 13
160.615929528
 23
30.6260629858
  0
SOLID
  8
0
 62
7
  6
CONTINUOUS
 10
160.615929528
 20
30.6260629858
 11
160.269054528
 21
30.5938006049
 12
159.922179528
 22
30.5938006049
 13
159.922179528
 23
30.5938006049
  0
SOLID
  8
0
 62
7
  6
CONTINUOUS
 10
149.5737418074
 20
31.1100184796
 11
149.9206168074
 21
31.2713369632
 12
149.8628043005
 22
31.1422827828
 13
149.8628043005
 23
31.1422827828
  0
SOLID
  8
0
 62
7
  6
CONTINUOUS
 10
149.8628043005
 20
31.1422827828
 11
149.8628043005
 21
31.0454914852
 12
149.5737418074
 22
31.1100184796
 13
149.5737418074
 23
31.1100184796
  0
SOLID
  8
0
 62
7
  6
CONTINUOUS
 10
149.6315543091
 20
30.9164372091
 11
149.5737418074
 21
31.1100184796
 12
149.8628043005
 22
31.0454914852
 13
149.8628043005
 23
31.0454914852
  0
SOLID
  8
0
 62
7
  6
CONTINUOUS
 10
149.8628043005
 20
31.0454914852
 11
149.9784292936
 21
30.8841729058
 12
149.6315543091
 22
30.9164372091
 13
149.6315543091
 23
30.9164372091
  0
SOLID
  8
0
 62
7
  6
CONTINUOUS
 10
149.7471793074
 20
30.7873813202
 11
149.6315543091
 21
30.9164372091
 12
149.9784292936
 22
30.8841729058
 13
149.9784292936
 23
30.8841729058
  0
SOLID
  8
0
 62
7
  6
CONTINUOUS
 10
149.9784292936
 20
30.8841729058
 11
150.1518667936
 21
30.7873813202
 12
149.7471793074
 22
30.7873813202
 13
149.7471793074
 23
30.7873813202
  0
SOLID
  8
0
 62
7
  6
CONTINUOUS
 10
149.8628043005
 20
30.7228547004
 11
149.7471793074
 21
30.7873813202
 12
150.1518667936
 22
30.7873813202
 13
150.1518667936
 23
30.7873813202
  0
SOLID
  8
0
 62
7
  6
CONTINUOUS
 10
150.1518667936
 20
30.7873813202
 11
150.498741835
 21
30.7228547004
 12
149.8628043005
 22
30.7228547004
 13
149.8628043005
 23
30.7228547004
  0
SOLID
  8
0
 62
7
  6
CONTINUOUS
 10
150.0362418212
 20
30.658327332
 11
149.8628043005
 21
30.7228547004
 12
150.498741835
 22
30.7228547004
 13
150.498741835
 23
30.7228547004
  0
SOLID
  8
0
 62
7
  6
CONTINUOUS
 10
154.0831168074
 20
31.1100184386
 11
154.1987416972
 21
31.1745462761
 12
154.7768668074
 22
31.1422827828
 13
154.7768668074
 23
31.1422827828
  0
SOLID
  8
0
 62
7
  6
CONTINUOUS
 10
154.7768668074
 20
31.1422827828
 11
154.5456166972
 21
31.1100184386
 12
154.0831168074
 22
31.1100184386
 13
154.0831168074
 23
31.1100184386
  0
SOLID
  8
0
 62
7
  6
CONTINUOUS
 10
153.9674919177
 20
30.9809642992
 11
154.0831168074
 21
31.1100184386
 12
154.5456166972
 22
31.1100184386
 13
154.5456166972
 23
31.1100184386
  0
SOLID
  8
0
 62
7
  6
CONTINUOUS
 10
154.3143669177
 20
31.0132277988
 11
153.9674919177
 21
30.9809642992
 12
154.4299918074
 22
31.0777556927
 13
154.4299918074
 23
31.0777556927
  0
SOLID
  8
0
 62
7
  6
CONTINUOUS
 10
153.9674919177
 20
30.9809642992
 11
154.5456166972
 21
31.1100184796
 12
154.4299918074
 22
31.0777556927
 13
154.4299918074
 23
31.0777556927
  0
SOLID
  8
0
 62
7
  6
CONTINUOUS
 10
154.3143669177
 20
31.0132277988
 11
154.2565543074
 21
30.9164372091
 12
153.9674919177
 22
30.9809642992
 13
153.9674919177
 23
30.9809642992
  0
SOLID
  8
0
 62
7
  6
CONTINUOUS
 10
153.9674919177
 20
30.8841729058
 11
153.9674919177
 21
30.9809642992
 12
154.2565543074
 22
30.9164372091
 13
154.2565543074
 23
30.9164372091
  0
SOLID
  8
0
 62
7
  6
CONTINUOUS
 10
154.2565543074
 20
30.9164372091
 11
154.2565543074
 21
30.8519086025
 12
153.9674919177
 22
30.8841729058
 13
153.9674919177
 23
30.8841729058
  0
SOLID
  8
0
 62
7
  6
CONTINUOUS
 10
154.0253041972
 20
30.7551187255
 11
153.9674919177
 21
30.8841729058
 12
154.2565543074
 22
30.8519086025
 13
154.2565543074
 23
30.8519086025
  0
SOLID
  8
0
 62
7
  6
CONTINUOUS
 10
155.412804528
 20
30.9487004259
 11
155.7018665869
 21
30.8519086025
 12
155.3549915869
 22
30.8841729058
 13
155.3549915869
 23
30.8841729058
  0
SOLID
  8
0
 62
7
  6
CONTINUOUS
 10
155.1815540869
 20
30.7873815123
 11
155.3549915869
 21
30.8841729058
 12
155.7018665869
 22
30.8519086025
 13
155.7018665869
 23
30.8519086025
  0
SOLID
  8
0
 62
7
  6
CONTINUOUS
 10
155.1815540869
 20
30.7873815123
 11
155.7018665869
 21
30.8519086025
 12
155.412804528
 22
30.7551187255
 13
155.412804528
 23
30.7551187255
  0
SOLID
  8
0
 62
7
  6
CONTINUOUS
 10
155.7018665869
 20
30.8519086025
 11
155.759679528
 21
30.6905916353
 12
155.412804528
 22
30.7551187255
 13
155.412804528
 23
30.7551187255
  0
SOLID
  8
0
 62
7
  6
CONTINUOUS
 10
155.4706168074
 20
30.658327332
 11
155.412804528
 21
30.7551187255
 12
155.759679528
 22
30.6905916353
 13
155.759679528
 23
30.6905916353
  0
SOLID
  8
0
 62
7
  6
CONTINUOUS
 10
155.4706168074
 20
30.658327332
 11
155.759679528
 21
30.6905916353
 12
155.5284290869
 22
30.5938002079
 13
155.5284290869
 23
30.5938002079
  0
SOLID
  8
0
 62
7
  6
CONTINUOUS
 10
155.759679528
 20
30.6905916353
 11
155.8174918074
 21
30.5938002079
 12
155.5284290869
 22
30.5938002079
 13
155.5284290869
 23
30.5938002079
  0
SOLID
  8
0
 62
7
  6
CONTINUOUS
 10
151.0768668626
 20
30.8196456577
 11
151.1346793074
 21
30.9164373395
 12
151.4237418626
 22
30.9164373395
 13
151.4237418626
 23
30.9164373395
  0
SOLID
  8
0
 62
7
  6
CONTINUOUS
 10
151.4237418626
 20
30.9164373395
 11
151.3659292523
 21
30.7873815123
 12
151.0768668626
 22
30.8196456577
 13
151.0768668626
 23
30.8196456577
  0
SOLID
  8
0
 62
7
  6
CONTINUOUS
 10
150.9034292799
 20
30.7551187255
 11
151.0768668626
 21
30.8196456577
 12
151.3659292523
 22
30.7873815123
 13
151.3659292523
 23
30.7873815123
  0
SOLID
  8
0
 62
7
  6
CONTINUOUS
 10
150.9034292799
 20
30.7551187255
 11
151.3659292523
 21
30.7873815123
 12
150.498741835
 22
30.7228544222
 13
150.498741835
 23
30.7228544222
  0
SOLID
  8
0
 62
7
  6
CONTINUOUS
 10
151.3659292523
 20
30.7873815123
 11
151.1924917523
 21
30.6905916353
 12
150.498741835
 22
30.7228544222
 13
150.498741835
 23
30.7228544222
  0
SOLID
  8
0
 62
7
  6
CONTINUOUS
 10
150.0362418212
 20
30.658327332
 11
150.498741835
 21
30.7228544222
 12
151.1924917523
 22
30.6905916353
 13
151.1924917523
 23
30.6905916353
  0
SOLID
  8
0
 62
7
  6
CONTINUOUS
 10
150.0362418212
 20
30.658327332
 11
151.1924917523
 21
30.6905916353
 12
150.2096793212
 22
30.6260631011
 13
150.2096793212
 23
30.6260631011
  0
SOLID
  8
0
 62
7
  6
CONTINUOUS
 10
151.1924917523
 20
30.6905916353
 11
150.9612418074
 21
30.6260631011
 12
150.2096793212
 22
30.6260631011
 13
150.2096793212
 23
30.6260631011
  0
SOLID
  8
0
 62
7
  6
CONTINUOUS
 10
150.5565542799
 20
30.5938002419
 11
150.2096793212
 21
30.6260631011
 12
150.9612418074
 22
30.6260631011
 13
150.9612418074
 23
30.6260631011
  0
SOLID
  8
0
 62
7
  6
CONTINUOUS
 10
154.0253041972
 20
30.7551187255
 11
154.2565543074
 21
30.8519086025
 12
154.3143669177
 22
30.7873815123
 13
154.3143669177
 23
30.7873815123
  0
SOLID
  8
0
 62
7
  6
CONTINUOUS
 10
154.3143669177
 20
30.7873815123
 11
154.5456166972
 21
30.7228544222
 12
154.0253041972
 22
30.7551187255
 13
154.0253041972
 23
30.7551187255
  0
SOLID
  8
0
 62
7
  6
CONTINUOUS
 10
154.1987416972
 20
30.658327332
 11
154.0253041972
 21
30.7551187255
 12
154.5456166972
 22
30.7228544222
 13
154.5456166972
 23
30.7228544222
  0
SOLID
  8
0
 62
7
  6
CONTINUOUS
 10
154.8924916972
 20
30.7228544637
 11
155.1815540869
 21
30.7873815123
 12
155.412804528
 22
30.7551187255
 13
155.412804528
 23
30.7551187255
  0
SOLID
  8
0
 62
7
  6
CONTINUOUS
 10
155.412804528
 20
30.7551187255
 11
155.3549915869
 21
30.6905916353
 12
154.8924916972
 22
30.7228544637
 13
154.8924916972
 23
30.7228544637
  0
SOLID
  8
0
 62
7
  6
CONTINUOUS
 10
155.3549915869
 20
30.6905916353
 11
154.1987416972
 21
30.658327332
 12
154.8924916972
 22
30.7228544637
 13
154.8924916972
 23
30.7228544637
  0
SOLID
  8
0
 62
7
  6
CONTINUOUS
 10
154.1987416972
 20
30.658327332
 11
154.5456166972
 21
30.7228544637
 12
154.8924916972
 22
30.7228544637
 13
154.8924916972
 23
30.7228544637
  0
SOLID
  8
0
 62
7
  6
CONTINUOUS
 10
154.1987416972
 20
30.658327332
 11
155.3549915869
 21
30.6905916353
 12
154.3143669177
 22
30.6260630541
 13
154.3143669177
 23
30.6260630541
  0
SOLID
  8
0
 62
7
  6
CONTINUOUS
 10
155.3549915869
 20
30.6905916353
 11
155.1815540869
 21
30.6260630541
 12
154.3143669177
 22
30.6260630541
 13
154.3143669177
 23
30.6260630541
  0
SOLID
  8
0
 62
7
  6
CONTINUOUS
 10
154.5456166972
 20
30.5938002188
 11
154.3143669177
 21
30.6260630541
 12
155.1815540869
 22
30.6260630541
 13
155.1815540869
 23
30.6260630541
  0
SOLID
  8
0
 62
7
  6
CONTINUOUS
 10
155.1815540869
 20
30.6260630541
 11
154.8924916972
 21
30.5938002188
 12
154.5456166972
 22
30.5938002188
 13
154.5456166972
 23
30.5938002188
  0
SOLID
  8
0
 62
7
  6
CONTINUOUS
 10
159.575304528
 20
30.7551187255
 11
159.228429528
 21
30.7228544637
 12
159.4596793074
 22
30.7873815123
 13
159.4596793074
 23
30.7873815123
  0
SOLID
  8
0
 62
7
  6
CONTINUOUS
 10
159.4596793074
 20
30.7873815123
 11
159.228429528
 21
30.7228544637
 12
159.401867028
 22
30.851908644
 13
159.401867028
 23
30.851908644
  0
SOLID
  8
0
 62
7
  6
CONTINUOUS
 10
159.228429528
 20
30.7228544637
 11
159.1128043074
 21
30.851908644
 12
159.401867028
 22
30.851908644
 13
159.401867028
 23
30.851908644
  0
SOLID
  8
0
 62
7
  6
CONTINUOUS
 10
159.575304528
 20
30.7551187255
 11
159.922179528
 21
30.7228544637
 12
159.228429528
 22
30.7228544637
 13
159.228429528
 23
30.7228544637
  0
SOLID
  8
0
 62
7
  6
CONTINUOUS
 10
156.279992028
 20
30.5938002419
 11
156.279992028
 21
31.6262382337
 12
156.5690540869
 22
30.5938002419
 13
156.5690540869
 23
31.6262382337
  0
ENDBLK
  8
0
  6
BYBLOCK
 62
0
  0
BLOCK
  8
0
 62
2
  6
CONTINUOUS
  2
SYMBOL_3_BL0
 70
64
 10
32.1213064866
 20
19.8534310916
  0
TEXT
  8
0
 62
7
  6
CONTINUOUS
 10
18.3860103289
 20
19.2268451992
  7
TEXTSTYLE_3
 40
2.7338706658
  1
Ammeraal Beltech
 41
1.0
 51
15.0
 72
0
  0
TEXT
  8
0
 62
7
  6
CONTINUOUS
 10
29.1868111546
 20
16.9533085264
  7
TEXTSTYLE_4
 40
1.0935482663
  1
Innovation & Service in Belting
 41
1.0
 72
0
  0
LINE
  8
0
 62
7
  6
CONTINUOUS
 10
12.3614696776
 20
19.9934385078
 11
13.1396216709
 21
23.6543558055
  0
LINE
  8
0
 62
7
  6
CONTINUOUS
 10
23.2347899607
 20
27.3177497171
 11
13.6274394139
 21
24.1961322958
  0
LINE
  8
0
 62
7
  6
CONTINUOUS
 10
12.5867530099
 20
19.3000877048
 11
20.093828271
 21
12.5406867788
  0
LINE
  8
0
 62
7
  6
CONTINUOUS
 10
12.8492874206
 20
20.5352149982
 11
23.6575567857
 21
24.0470345971
  0
LINE
  8
0
 62
7
  6
CONTINUOUS
 10
23.6533516486
 20
13.6972460334
 11
15.2078919798
 21
21.3015720751
  0
LINE
  8
0
 62
7
  6
CONTINUOUS
 10
24.1731743684
 20
26.4728246013
 11
23.1966148312
 21
21.8784731989
  0
LINE
  8
0
 62
7
  6
CONTINUOUS
 10
22.4968128835
 20
18.5861638851
 11
21.810364672
 21
15.3566789607
  0
LINE
  8
0
 62
7
  6
CONTINUOUS
 10
24.8542704669
 20
14.087448211
 11
25.8105020025
 21
18.5861638851
  0
LINE
  8
0
 62
7
  6
CONTINUOUS
 10
26.5103039502
 20
21.8784731989
 11
26.9545457526
 21
23.9684665583
  0
LINE
  8
0
 62
7
  6
CONTINUOUS
 10
20.8069293463
 20
12.3891124661
 11
24.3664527239
 21
13.5456717207
  0
LINE
  8
0
 62
7
  6
CONTINUOUS
 10
23.9478910361
 20
27.1661754044
 11
26.7292624203
 21
24.6618173613
  0
ARC
  8
0
 62
7
  6
CONTINUOUS
 10
13.8527227462
 20
23.5027814928
 40
0.7290321776
 50
108.0
 51
168.0
  0
ARC
  8
0
 62
7
  6
CONTINUOUS
 10
23.4600732931
 20
26.624398914
 40
0.7290321776
 50
348.0
 51
108.0
  0
ARC
  8
0
 62
7
  6
CONTINUOUS
 10
26.2414446773
 20
24.120040871
 40
0.7290321776
 50
348.0
 51
48.0
  0
ARC
  8
0
 62
7
  6
CONTINUOUS
 10
20.581646014
 20
13.0824632691
 40
0.7290321776
 50
228.0
 51
288.0
  0
ARC
  8
0
 62
7
  6
CONTINUOUS
 10
13.0745707529
 20
19.8418641951
 40
0.7290321776
 50
108.0
 51
228.0
  0
ARC
  8
0
 62
7
  6
CONTINUOUS
 10
24.1411693916
 20
14.2390225237
 40
0.7290321776
 50
228.0
 51
348.0
  0
ENDBLK
  8
0
  6
BYBLOCK
 62
0
  0
ENDSEC
  0
SECTION
  2
ENTITIES
  0
TEXT
  8
0
 62
5
  6
CONTINUOUS
 10
96.0
 20
25.636
  7
TEXTSTYLE_2
 40
2.8
  1
Scale :
 41
0.6
 51
0.000019
 72
0
  0
TEXT
  8
0
 62
5
  6
CONTINUOUS
 10
116.0
 20
25.636
  7
TEXTSTYLE_2
 40
2.8
  1
Belt type:
 41
0.6
 51
0.000019
 72
0
  0
INSERT
  8
0
 62
2
  6
CONTINUOUS
  2
SYMBOL_3_BL0
 10
32.1213064866
 20
19.8534310916
  0
INSERT
  8
0
 62
2
  6
CONTINUOUS
  2
SYMBOL_8_BL1
 10
173.5956734183
 20
35.5937998301
  0
LINE
  8
0
 62
2
  6
CONTINUOUS
 10
10.0
 20
30.0
 11
200.0
 21
30.0
  0
LINE
  8
0
 62
2
  6
CONTINUOUS
 10
10.0
 20
30.0
 11
10.0
 21
10.0
  0
LINE
  8
0
 62
2
  6
CONTINUOUS
 10
10.0
 20
10.0
 11
200.0
 21
10.0
  0
LINE
  8
0
 62
2
  6
CONTINUOUS
 10
95.0
 20
30.0
 11
95.0
 21
10.0
  0
LINE
  8
0
 62
2
  6
CONTINUOUS
 10
115.0
 20
30.0
 11
115.0
 21
10.0
  0
LINE
  8
0
 62
2
  6
CONTINUOUS
 10
200.0
 20
30.0
 11
200.0
 21
10.0
  0
TEXT
  8
0
 62
5
  6
CONTINUOUS
 10
13.0
 20
23.303
  7
TEXTSTYLE_5
 40
1.52
  1
                                                                     Ammeraal Beltech Modular A/S
 41
1.0
 72
0
  0
TEXT
  8
0
 62
5
  6
CONTINUOUS
 10
13.0
 20
20.595
  7
TEXTSTYLE_5
 40
1.5
  1
                                                                      Hjulmagervej 21,  7100 Vejle,  DK
 41
1.0
 72
0
  0
TEXT
  8
0
 62
5
  6
CONTINUOUS
 10
13.0
 20
17.881
  7
TEXTSTYLE_5
 40
1.495
  1
                                                                      tel: 
 41
1.0
 72
0
  0
TEXT
  8
0
 62
5
  6
CONTINUOUS
 10
57.9869465649
 20
17.881
  7
TEXTSTYLE_5
 40
1.51
  1
+45 75723100     fax: +45 75723348
 41
1.0
 72
0
  0
TEXT
  8
0
 62
5
  6
CONTINUOUS
 10
13.0
 20
15.177
  7
TEXTSTYLE_5
 40
1.5
  1
                                                                      admin@unichains.dk  www.unichains.com
 41
1.0
 72
0
  0
TEXT
  8
0
 62
5
  6
CONTINUOUS
 10
99.75
 20
13.75
  7
TEXTSTYLE_6
 40
5.0
  1
1:1
 41
0.7
 72
1
 11
105.0
 21
13.75
  0
TEXT
  8
0
 62
5
  6
CONTINUOUS
 10
118.0
 20
13.75
  7
TEXTSTYLE_7
 40
7.5
  1
uni Light-PRODUCT SUPPORT 1-WITH RIB-K300
 41
0.2634146341
 72
0
  0
LINE
  8
0
 62
7
  6
CONTINUOUS
 10
210.0
 20
0.0
 11
0.0
 21
0.0
  0
LINE
  8
0
 62
7
  6
CONTINUOUS
 10
10.0
 20
10.0
 11
200.0
 21
10.0
  0
LINE
  8
0
 62
7
  6
CONTINUOUS
 10
10.0
 20
30.0
 11
200.0
 21
30.0
  0
LINE
  8
0
 62
7
  6
CONTINUOUS
 10
0.0
 20
0.0
 11
0.0
 21
297.0
  0
LINE
  8
0
 62
7
  6
CONTINUOUS
 10
10.0
 20
10.0
 11
10.0
 21
287.0
  0
LINE
  8
0
 62
7
  6
CONTINUOUS
 10
200.0
 20
287.0
 11
200.0
 21
10.0
  0
LINE
  8
0
 62
7
  6
CONTINUOUS
 10
210.0
 20
0.0
 11
210.0
 21
297.0
  0
LINE
  8
0
 62
7
  6
CONTINUOUS
 10
10.0
 20
287.0
 11
200.0
 21
287.0
  0
LINE
  8
0
 62
7
  6
CONTINUOUS
 10
0.0
 20
297.0
 11
210.0
 21
297.0
  0
LINE
  8
0
 62
7
  6
CONTINUOUS
 10
31.6727470804
 20
203.7306258474
 11
31.6727470804
 21
209.5306258474
  0
LINE
  8
0
 62
7
  6
CONTINUOUS
 10
31.8727470804
 20
202.030628662
 11
31.8727470804
 21
209.5306258474
  0
LINE
  8
0
 62
7
  6
CONTINUOUS
 10
32.1857588099
 20
234.4393523829
 11
31.9723814057
 21
209.9887236705
  0
POLYLINE
  8
0
 62
7
  6
CONTINUOUS
 66
1
 70
0
  0
VERTEX
  8
0
 62
7
  6
CONTINUOUS
 10
35.8227470804
 20
207.2659025427
  0
VERTEX
  8
0
 62
7
  6
CONTINUOUS
 10
35.8247952954
 20
207.221823694
  0
VERTEX
  8
0
 62
7
  6
CONTINUOUS
 10
35.830986471
 20
207.1766483169
  0
VERTEX
  8
0
 62
7
  6
CONTINUOUS
 10
35.8413945945
 20
207.1306258474
  0
SEQEND
  0
LINE
  8
0
 62
7
  6
CONTINUOUS
 10
35.8227470804
 20
202.0306258474
 11
35.8227470804
 21
209.5306258474
  0
LINE
  8
0
 62
7
  6
CONTINUOUS
 10
38.4727470804
 20
207.1306258474
 11
38.4727470804
 21
202.0306258474
  0
POLYLINE
  8
0
 62
7
  6
CONTINUOUS
 66
1
 70
0
  0
VERTEX
  8
0
 62
7
  6
CONTINUOUS
 10
39.614783588
 20
234.4480782538
  0
VERTEX
  8
0
 62
7
  6
CONTINUOUS
 10
39.6284932345
 20
234.5597207946
  0
VERTEX
  8
0
 62
7
  6
CONTINUOUS
 10
39.673147434
 20
234.6730702893
  0
VERTEX
  8
0
 62
7
  6
CONTINUOUS
 10
39.7571874436
 20
234.7887935592
  0
VERTEX
  8
0
 62
7
  6
CONTINUOUS
 10
39.8957544539
 20
234.9047928618
  0
VERTEX
  8
0
 62
7
  6
CONTINUOUS
 10
40.1087359988
 20
235.0132773258
  0
VERTEX
  8
0
 62
7
  6
CONTINUOUS
 10
40.4158664118
 20
235.101062561
  0
VERTEX
  8
0
 62
7
  6
CONTINUOUS
 10
40.8092130037
 20
235.1504793112
  0
VERTEX
  8
0
 62
7
  6
CONTINUOUS
 10
41.2362467343
 20
235.1504813951
  0
VERTEX
  8
0
 62
7
  6
CONTINUOUS
 10
41.6295976315
 20
235.1010686092
  0
VERTEX
  8
0
 62
7
  6
CONTINUOUS
 10
41.9367449694
 20
235.0132824912
  0
VERTEX
  8
0
 62
7
  6
CONTINUOUS
 10
42.1497378957
 20
234.9047940611
  0
VERTEX
  8
0
 62
7
  6
CONTINUOUS
 10
42.288306171
 20
234.7887941478
  0
VERTEX
  8
0
 62
7
  6
CONTINUOUS
 10
42.3723464289
 20
234.6730708365
  0
VERTEX
  8
0
 62
7
  6
CONTINUOUS
 10
42.4170009007
 20
234.5597208968
  0
VERTEX
  8
0
 62
7
  6
CONTINUOUS
 10
42.4307105729
 20
234.4480782538
  0
SEQEND
  0
POLYLINE
  8
0
 62
7
  6
CONTINUOUS
 66
1
 70
0
  0
VERTEX
  8
0
 62
7
  6
CONTINUOUS
 10
35.8227470804
 20
206.7943544723
  0
VERTEX
  8
0
 62
7
  6
CONTINUOUS
 10
35.805855509
 20
206.8097385152
  0
VERTEX
  8
0
 62
7
  6
CONTINUOUS
 10
35.7562113338
 20
206.823879565
  0
VERTEX
  8
0
 62
7
  6
CONTINUOUS
 10
35.677009797
 20
206.8358877908
  0
VERTEX
  8
0
 62
7
  6
CONTINUOUS
 10
35.5735016894
 20
206.8450255327
  0
VERTEX
  8
0
 62
7
  6
CONTINUOUS
 10
35.4526699316
 20
206.8507400244
  0
VERTEX
  8
0
 62
7
  6
CONTINUOUS
 10
35.3227470804
 20
206.8526855163
  0
SEQEND
  0
POLYLINE
  8
0
 62
7
  6
CONTINUOUS
 66
1
 70
0
  0
VERTEX
  8
0
 62
7
  6
CONTINUOUS
 10
39.6950821958
 20
213.4767351006
  0
VERTEX
  8
0
 62
7
  6
CONTINUOUS
 10
39.6683544888
 20
220.3204343134
  0
VERTEX
  8
0
 62
7
  6
CONTINUOUS
 10
39.6415890821
 20
227.3104753893
  0
VERTEX
  8
0
 62
7
  6
CONTINUOUS
 10
39.614783588
 20
234.4480782538
  0
SEQEND
  0
POLYLINE
  8
2_FEATURE
 62
7
  6
CONTINUOUS
 66
1
 70
0
  0
VERTEX
  8
2_FEATURE
 62
7
  6
CONTINUOUS
 10
43.9582521163
 20
202.6248936169
  0
VERTEX
  8
2_FEATURE
 62
7
  6
CONTINUOUS
 10
44.005413047
 20
202.4477506077
  0
VERTEX
  8
2_FEATURE
 62
7
  6
CONTINUOUS
 10
44.0227470804
 20
202.2647721273
  0
SEQEND
  0
LINE
  8
2_FEATURE
 62
7
  6
CONTINUOUS
 10
43.6227470804
 20
202.7366423641
 11
43.6227470804
 21
201.5306258474
  0
LINE
  8
0
 62
7
  6
CONTINUOUS
 10
44.0227470804
 20
205.2737076504
 11
44.0227470804
 21
202.0306258474
  0
POLYLINE
  8
0
 62
7
  6
CONTINUOUS
 66
1
 70
0
  0
VERTEX
  8
0
 62
7
  6
CONTINUOUS
 10
42.4307105729
 20
234.4480782538
  0
VERTEX
  8
0
 62
7
  6
CONTINUOUS
 10
42.4039050845
 20
227.3104769017
  0
VERTEX
  8
0
 62
7
  6
CONTINUOUS
 10
42.3771396787
 20
220.3204360003
  0
VERTEX
  8
0
 62
7
  6
CONTINUOUS
 10
42.3504119651
 20
213.4767351006
  0
SEQEND
  0
POLYLINE
  8
0
 62
7
  6
CONTINUOUS
 66
1
 70
0
  0
VERTEX
  8
0
 62
7
  6
CONTINUOUS
 10
42.3504119651
 20
213.4767351006
  0
VERTEX
  8
0
 62
7
  6
CONTINUOUS
 10
42.3219469794
 20
213.2085145987
  0
VERTEX
  8
0
 62
7
  6
CONTINUOUS
 10
42.2398441718
 20
212.9515837677
  0
VERTEX
  8
0
 62
7
  6
CONTINUOUS
 10
42.1074933876
 20
212.7165504059
  0
VERTEX
  8
0
 62
7
  6
CONTINUOUS
 10
41.9327412464
 20
212.5153543481
  0
VERTEX
  8
0
 62
7
  6
CONTINUOUS
 10
41.7306009189
 20
212.3589035385
  0
VERTEX
  8
0
 62
7
  6
CONTINUOUS
 10
41.5080107916
 20
212.2463432812
  0
VERTEX
  8
0
 62
7
  6
CONTINUOUS
 10
41.2698439565
 20
212.1776908308
  0
VERTEX
  8
0
 62
7
  6
CONTINUOUS
 10
41.0227400803
 20
212.1544978225
  0
VERTEX
  8
0
 62
7
  6
CONTINUOUS
 10
40.7756375118
 20
212.1776932348
  0
VERTEX
  8
0
 62
7
  6
CONTINUOUS
 10
40.5374722461
 20
212.2463476483
  0
VERTEX
  8
0
 62
7
  6
CONTINUOUS
 10
40.3148833466
 20
212.3589097736
  0
VERTEX
  8
0
 62
7
  6
CONTINUOUS
 10
40.1127427162
 20
212.5153639462
  0
VERTEX
  8
0
 62
7
  6
CONTINUOUS
 10
39.9380013104
 20
212.7165496449
  0
VERTEX
  8
0
 62
7
  6
CONTINUOUS
 10
39.805650236
 20
212.9515832014
  0
VERTEX
  8
0
 62
7
  6
CONTINUOUS
 10
39.7235472474
 20
213.2085142858
  0
VERTEX
  8
0
 62
7
  6
CONTINUOUS
 10
39.6950821958
 20
213.4767351006
  0
SEQEND
  0
POLYLINE
  8
0
 62
7
  6
CONTINUOUS
 66
1
 70
0
  0
VERTEX
  8
0
 62
7
  6
CONTINUOUS
 10
45.9727470804
 20
204.9668972225
  0
VERTEX
  8
0
 62
7
  6
CONTINUOUS
 10
45.9896386519
 20
204.9515131795
  0
VERTEX
  8
0
 62
7
  6
CONTINUOUS
 10
46.0392828271
 20
204.9373721298
  0
VERTEX
  8
0
 62
7
  6
CONTINUOUS
 10
46.1184843639
 20
204.925363904
  0
VERTEX
  8
0
 62
7
  6
CONTINUOUS
 10
46.2219924715
 20
204.916226162
  0
VERTEX
  8
0
 62
7
  6
CONTINUOUS
 10
46.3428242293
 20
204.9105116704
  0
VERTEX
  8
0
 62
7
  6
CONTINUOUS
 10
46.4727470804
 20
204.9085661784
  0
SEQEND
  0
LINE
  8
0
 62
7
  6
CONTINUOUS
 10
45.9727470804
 20
209.5306258474
 11
45.9727470804
 21
202.0306258474
  0
POLYLINE
  8
0
 62
7
  6
CONTINUOUS
 66
1
 70
0
  0
VERTEX
  8
0
 62
7
  6
CONTINUOUS
 10
49.164783588
 20
234.4480782538
  0
VERTEX
  8
0
 62
7
  6
CONTINUOUS
 10
49.1784932345
 20
234.5597207946
  0
VERTEX
  8
0
 62
7
  6
CONTINUOUS
 10
49.223147434
 20
234.6730702893
  0
VERTEX
  8
0
 62
7
  6
CONTINUOUS
 10
49.3071874436
 20
234.7887935592
  0
VERTEX
  8
0
 62
7
  6
CONTINUOUS
 10
49.4457544539
 20
234.9047928618
  0
VERTEX
  8
0
 62
7
  6
CONTINUOUS
 10
49.6587359988
 20
235.0132773258
  0
VERTEX
  8
0
 62
7
  6
CONTINUOUS
 10
49.9658664118
 20
235.101062561
  0
VERTEX
  8
0
 62
7
  6
CONTINUOUS
 10
50.3592130037
 20
235.1504793112
  0
VERTEX
  8
0
 62
7
  6
CONTINUOUS
 10
50.7862467343
 20
235.1504813951
  0
VERTEX
  8
0
 62
7
  6
CONTINUOUS
 10
51.1795976315
 20
235.1010686092
  0
VERTEX
  8
0
 62
7
  6
CONTINUOUS
 10
51.4867449694
 20
235.0132824912
  0
VERTEX
  8
0
 62
7
  6
CONTINUOUS
 10
51.6997378957
 20
234.9047940611
  0
VERTEX
  8
0
 62
7
  6
CONTINUOUS
 10
51.838306171
 20
234.7887941478
  0
VERTEX
  8
0
 62
7
  6
CONTINUOUS
 10
51.9223464289
 20
234.6730708365
  0
VERTEX
  8
0
 62
7
  6
CONTINUOUS
 10
51.9670009007
 20
234.5597208968
  0
VERTEX
  8
0
 62
7
  6
CONTINUOUS
 10
51.9807105729
 20
234.4480782538
  0
SEQEND
  0
POLYLINE
  8
2_FEATURE
 62
7
  6
CONTINUOUS
 66
1
 70
0
  0
VERTEX
  8
2_FEATURE
 62
7
  6
CONTINUOUS
 10
43.6227470804
 20
202.7366423641
  0
VERTEX
  8
2_FEATURE
 62
7
  6
CONTINUOUS
 10
43.6332162501
 20
202.8038350946
  0
VERTEX
  8
2_FEATURE
 62
7
  6
CONTINUOUS
 10
43.6576462012
 20
202.8520420836
  0
VERTEX
  8
2_FEATURE
 62
7
  6
CONTINUOUS
 10
43.6894583365
 20
202.882247414
  0
VERTEX
  8
2_FEATURE
 62
7
  6
CONTINUOUS
 10
43.7243212854
 20
202.8953786376
  0
VERTEX
  8
2_FEATURE
 62
7
  6
CONTINUOUS
 10
43.7596361337
 20
202.8935394582
  0
VERTEX
  8
2_FEATURE
 62
7
  6
CONTINUOUS
 10
43.7978730614
 20
202.8767629613
  0
VERTEX
  8
2_FEATURE
 62
7
  6
CONTINUOUS
 10
43.8391187119
 20
202.8420729496
  0
VERTEX
  8
2_FEATURE
 62
7
  6
CONTINUOUS
 10
43.8802291262
 20
202.7893966442
  0
VERTEX
  8
2_FEATURE
 62
7
  6
CONTINUOUS
 10
43.9205009143
 20
202.7172813169
  0
VERTEX
  8
2_FEATURE
 62
7
  6
CONTINUOUS
 10
43.9582521163
 20
202.6248936169
  0
SEQEND
  0
POLYLINE
  8
0
 62
7
  6
CONTINUOUS
 66
1
 70
0
  0
VERTEX
  8
0
 62
7
  6
CONTINUOUS
 10
49.2450821958
 20
213.4767351006
  0
VERTEX
  8
0
 62
7
  6
CONTINUOUS
 10
49.2183544888
 20
220.3204343134
  0
VERTEX
  8
0
 62
7
  6
CONTINUOUS
 10
49.1915890821
 20
227.3104753893
  0
VERTEX
  8
0
 62
7
  6
CONTINUOUS
 10
49.164783588
 20
234.4480782538
  0
SEQEND
  0
POLYLINE
  8
0
 62
7
  6
CONTINUOUS
 66
1
 70
0
  0
VERTEX
  8
0
 62
7
  6
CONTINUOUS
 10
45.9625088298
 20
207.1306258474
  0
VERTEX
  8
0
 62
7
  6
CONTINUOUS
 10
45.968211953
 20
207.1645630747
  0
VERTEX
  8
0
 62
7
  6
CONTINUOUS
 10
45.9716171542
 20
207.1981558301
  0
VERTEX
  8
0
 62
7
  6
CONTINUOUS
 10
45.9727470804
 20
207.2312907813
  0
SEQEND
  0
POLYLINE
  8
0
 62
7
  6
CONTINUOUS
 66
1
 70
0
  0
VERTEX
  8
0
 62
7
  6
CONTINUOUS
 10
51.9807105729
 20
234.4480782538
  0
VERTEX
  8
0
 62
7
  6
CONTINUOUS
 10
51.9539050845
 20
227.3104769017
  0
VERTEX
  8
0
 62
7
  6
CONTINUOUS
 10
51.9271396787
 20
220.3204360003
  0
VERTEX
  8
0
 62
7
  6
CONTINUOUS
 10
51.9004119651
 20
213.4767351006
  0
SEQEND
  0
POLYLINE
  8
0
 62
7
  6
CONTINUOUS
 66
1
 70
0
  0
VERTEX
  8
0
 62
7
  6
CONTINUOUS
 10
51.9004119651
 20
213.4767351006
  0
VERTEX
  8
0
 62
7
  6
CONTINUOUS
 10
51.8719469794
 20
213.2085145987
  0
VERTEX
  8
0
 62
7
  6
CONTINUOUS
 10
51.7898441718
 20
212.9515837677
  0
VERTEX
  8
0
 62
7
  6
CONTINUOUS
 10
51.6574933876
 20
212.7165504059
  0
VERTEX
  8
0
 62
7
  6
CONTINUOUS
 10
51.4827412464
 20
212.5153543481
  0
VERTEX
  8
0
 62
7
  6
CONTINUOUS
 10
51.2806009189
 20
212.3589035385
  0
VERTEX
  8
0
 62
7
  6
CONTINUOUS
 10
51.0580107916
 20
212.2463432812
  0
VERTEX
  8
0
 62
7
  6
CONTINUOUS
 10
50.8198439565
 20
212.1776908308
  0
VERTEX
  8
0
 62
7
  6
CONTINUOUS
 10
50.5727400803
 20
212.1544978225
  0
VERTEX
  8
0
 62
7
  6
CONTINUOUS
 10
50.3256375118
 20
212.1776932348
  0
VERTEX
  8
0
 62
7
  6
CONTINUOUS
 10
50.0874722461
 20
212.2463476483
  0
VERTEX
  8
0
 62
7
  6
CONTINUOUS
 10
49.8648833466
 20
212.3589097736
  0
VERTEX
  8
0
 62
7
  6
CONTINUOUS
 10
49.6627427162
 20
212.5153639462
  0
VERTEX
  8
0
 62
7
  6
CONTINUOUS
 10
49.4880013104
 20
212.7165496449
  0
VERTEX
  8
0
 62
7
  6
CONTINUOUS
 10
49.355650236
 20
212.9515832014
  0
VERTEX
  8
0
 62
7
  6
CONTINUOUS
 10
49.2735472474
 20
213.2085142858
  0
VERTEX
  8
0
 62
7
  6
CONTINUOUS
 10
49.2450821958
 20
213.4767351006
  0
SEQEND
  0
LINE
  8
2_FEATURE
 62
7
  6
CONTINUOUS
 10
80.7039970804
 20
201.5562591105
 11
80.6164971639
 21
201.5426049683
  0
LINE
  8
2_FEATURE
 62
7
  6
CONTINUOUS
 10
78.7352470804
 20
201.5562591105
 11
78.6477470387
 21
201.5426049683
  0
LINE
  8
2_FEATURE
 62
7
  6
CONTINUOUS
 10
80.9664970804
 20
201.5487865261
 11
80.8352470804
 21
201.5317571507
  0
LINE
  8
2_FEATURE
 62
7
  6
CONTINUOUS
 10
78.9977470804
 20
201.5487865261
 11
78.8664970804
 21
201.5317571507
  0
POLYLINE
  8
2_FEATURE
 62
7
  6
CONTINUOUS
 66
1
 70
0
  0
VERTEX
  8
2_FEATURE
 62
7
  6
CONTINUOUS
 10
80.8352470804
 20
201.7318116866
  0
VERTEX
  8
2_FEATURE
 62
7
  6
CONTINUOUS
 10
80.8790676567
 20
201.7353831568
  0
VERTEX
  8
2_FEATURE
 62
7
  6
CONTINUOUS
 10
80.8902945379
 20
201.7369105326
  0
SEQEND
  0
POLYLINE
  8
2_FEATURE
 62
7
  6
CONTINUOUS
 66
1
 70
0
  0
VERTEX
  8
2_FEATURE
 62
7
  6
CONTINUOUS
 10
78.8664970804
 20
201.7318116866
  0
VERTEX
  8
2_FEATURE
 62
7
  6
CONTINUOUS
 10
78.9103176567
 20
201.7353831568
  0
VERTEX
  8
2_FEATURE
 62
7
  6
CONTINUOUS
 10
78.9215445379
 20
201.7369105326
  0
SEQEND
  0
LINE
  8
2_FEATURE
 62
7
  6
CONTINUOUS
 10
80.6164971639
 20
201.5426049683
 11
80.4852471639
 21
201.5377089243
  0
LINE
  8
2_FEATURE
 62
7
  6
CONTINUOUS
 10
78.6477470387
 20
201.5426049683
 11
78.5164970387
 21
201.5377089243
  0
LINE
  8
2_FEATURE
 62
7
  6
CONTINUOUS
 10
80.7769136849
 20
201.7306995553
 11
80.8352470804
 21
201.7318116866
  0
LINE
  8
2_FEATURE
 62
7
  6
CONTINUOUS
 10
78.8081637266
 20
201.7306995553
 11
78.8664970804
 21
201.7318116866
  0
POLYLINE
  8
2_FEATURE
 62
7
  6
CONTINUOUS
 66
1
 70
0
  0
VERTEX
  8
2_FEATURE
 62
7
  6
CONTINUOUS
 10
80.8352470804
 20
201.5317571507
  0
VERTEX
  8
2_FEATURE
 62
7
  6
CONTINUOUS
 10
80.7769135623
 20
201.5306961655
  0
VERTEX
  8
2_FEATURE
 62
7
  6
CONTINUOUS
 10
80.7575389096
 20
201.5306258673
  0
SEQEND
  0
POLYLINE
  8
2_FEATURE
 62
7
  6
CONTINUOUS
 66
1
 70
0
  0
VERTEX
  8
2_FEATURE
 62
7
  6
CONTINUOUS
 10
78.8664970804
 20
201.5317571507
  0
VERTEX
  8
2_FEATURE
 62
7
  6
CONTINUOUS
 10
78.808163604
 20
201.5306961655
  0
VERTEX
  8
2_FEATURE
 62
7
  6
CONTINUOUS
 10
78.7887889652
 20
201.5306258673
  0
SEQEND
  0
POLYLINE
  8
1_AXIS
 62
7
  6
CONTINUOUS
 66
1
 70
0
  0
VERTEX
  8
1_AXIS
 62
7
  6
CONTINUOUS
 10
61.9183169473
 20
201.7306446364
  0
VERTEX
  8
1_AXIS
 62
7
  6
CONTINUOUS
 10
62.0819980836
 20
201.7314660551
  0
VERTEX
  8
1_AXIS
 62
7
  6
CONTINUOUS
 10
62.2024140749
 20
201.7344419951
  0
SEQEND
  0
POLYLINE
  8
1_AXIS
 62
7
  6
CONTINUOUS
 66
1
 70
0
  0
VERTEX
  8
1_AXIS
 62
7
  6
CONTINUOUS
 10
61.9182334771
 20
201.5306437004
  0
VERTEX
  8
1_AXIS
 62
7
  6
CONTINUOUS
 10
62.0819143564
 20
201.5314264841
  0
VERTEX
  8
1_AXIS
 62
7
  6
CONTINUOUS
 10
62.2244028524
 20
201.5347838073
  0
VERTEX
  8
1_AXIS
 62
7
  6
CONTINUOUS
 10
62.3379865422
 20
201.5428804512
  0
VERTEX
  8
1_AXIS
 62
7
  6
CONTINUOUS
 10
62.4169671732
 20
201.5576729368
  0
VERTEX
  8
1_AXIS
 62
7
  6
CONTINUOUS
 10
62.4575896999
 20
201.5804230107
  0
VERTEX
  8
1_AXIS
 62
7
  6
CONTINUOUS
 10
62.4627470804
 20
201.5948966212
  0
SEQEND
  0
LINE
  8
2_FEATURE
 62
7
  6
CONTINUOUS
 10
95.8227470804
 20
201.5306258474
 11
95.7227470804
 21
201.5306258474
  0
LINE
  8
2_FEATURE
 62
7
  6
CONTINUOUS
 10
43.6227470804
 20
201.5306258474
 11
43.5227470804
 21
201.5306258474
  0
LINE
  8
0
 62
7
  6
CONTINUOUS
 10
32.3727470804
 20
201.5306258474
 11
43.5227470804
 21
201.5306258474
  0
LINE
  8
0
 62
7
  6
CONTINUOUS
 10
44.5227470804
 20
201.5306258474
 11
61.529569524
 21
201.5306258474
  0
LINE
  8
0
 62
7
  6
CONTINUOUS
 10
61.8659247264
 20
201.5306258474
 11
77.4227470804
 21
201.5306258474
  0
LINE
  8
0
 62
7
  6
CONTINUOUS
 10
78.8664970804
 20
201.5306258474
 11
79.3914970804
 21
201.5306258474
  0
LINE
  8
0
 62
7
  6
CONTINUOUS
 10
80.8352470804
 20
201.5306258474
 11
94.8227470804
 21
201.5306258474
  0
LINE
  8
0
 62
7
  6
CONTINUOUS
 10
95.8227470804
 20
201.5306258474
 11
106.9727470804
 21
201.5306258474
  0
LINE
  8
2_FEATURE
 62
7
  6
CONTINUOUS
 10
77.6852470804
 20
201.5351649794
 11
78.4727470804
 21
201.5351649794
  0
LINE
  8
2_FEATURE
 62
7
  6
CONTINUOUS
 10
79.6539970804
 20
201.5351649794
 11
80.4414970804
 21
201.5351649794
  0
LINE
  8
2_FEATURE
 62
7
  6
CONTINUOUS
 10
77.6852470804
 20
201.5377089243
 11
78.5164970387
 21
201.5377089243
  0
LINE
  8
2_FEATURE
 62
7
  6
CONTINUOUS
 10
79.6539970804
 20
201.5377089243
 11
80.4852471639
 21
201.5377089243
  0
LINE
  8
2_FEATURE
 62
7
  6
CONTINUOUS
 10
77.4227470804
 20
201.7306258474
 11
77.6852470804
 21
201.7306258474
  0
LINE
  8
2_FEATURE
 62
7
  6
CONTINUOUS
 10
78.7789970387
 20
201.7306258474
 11
78.8081637266
 21
201.7306995553
  0
LINE
  8
2_FEATURE
 62
7
  6
CONTINUOUS
 10
79.3914970804
 20
201.7306258474
 11
79.6539970804
 21
201.7306258474
  0
LINE
  8
2_FEATURE
 62
7
  6
CONTINUOUS
 10
80.7477471639
 20
201.7306258474
 11
80.7769136849
 21
201.7306995553
  0
LINE
  8
2_FEATURE
 62
7
  6
CONTINUOUS
 10
77.6852470804
 20
201.7503910822
 11
78.5164970387
 21
201.7503910822
  0
LINE
  8
2_FEATURE
 62
7
  6
CONTINUOUS
 10
79.6539970804
 20
201.7503910822
 11
80.4852471639
 21
201.7503910822
  0
LINE
  8
2_FEATURE
 62
7
  6
CONTINUOUS
 10
77.4227470804
 20
201.8926948362
 11
78.4727470804
 21
201.8926948362
  0
LINE
  8
2_FEATURE
 62
7
  6
CONTINUOUS
 10
79.3914970804
 20
201.8926948362
 11
80.4414970804
 21
201.8926948362
  0
LINE
  8
1_AXIS
 62
7
  6
CONTINUOUS
 10
61.4772621339
 20
201.5306436992
 11
61.9182334771
 21
201.5306437004
  0
POLYLINE
  8
2_FEATURE
 62
7
  6
CONTINUOUS
 66
1
 70
0
  0
VERTEX
  8
2_FEATURE
 62
7
  6
CONTINUOUS
 10
78.7887889652
 20
201.5306258673
  0
VERTEX
  8
2_FEATURE
 62
7
  6
CONTINUOUS
 10
78.7498218762
 20
201.5309102891
  0
VERTEX
  8
2_FEATURE
 62
7
  6
CONTINUOUS
 10
78.6914971222
 20
201.5323993313
  0
SEQEND
  0
POLYLINE
  8
2_FEATURE
 62
7
  6
CONTINUOUS
 66
1
 70
0
  0
VERTEX
  8
2_FEATURE
 62
7
  6
CONTINUOUS
 10
80.7575389096
 20
201.5306258673
  0
VERTEX
  8
2_FEATURE
 62
7
  6
CONTINUOUS
 10
80.7185717928
 20
201.5309102891
  0
VERTEX
  8
2_FEATURE
 62
7
  6
CONTINUOUS
 10
80.660246997
 20
201.5323993313
  0
SEQEND
  0
LINE
  8
2_FEATURE
 62
7
  6
CONTINUOUS
 10
78.6914971222
 20
201.5323993313
 11
78.4727470804
 21
201.5351649794
  0
LINE
  8
2_FEATURE
 62
7
  6
CONTINUOUS
 10
80.660246997
 20
201.5323993313
 11
80.4414970804
 21
201.5351649794
  0
POLYLINE
  8
1_AXIS
 62
7
  6
CONTINUOUS
 66
1
 70
0
  0
VERTEX
  8
1_AXIS
 62
7
  6
CONTINUOUS
 10
61.1930817847
 20
201.7344419641
  0
VERTEX
  8
1_AXIS
 62
7
  6
CONTINUOUS
 10
61.3134948537
 20
201.7314660694
  0
VERTEX
  8
1_AXIS
 62
7
  6
CONTINUOUS
 10
61.4771756862
 20
201.7306446378
  0
VERTEX
  8
1_AXIS
 62
7
  6
CONTINUOUS
 10
61.9183169473
 20
201.7306446364
  0
SEQEND
  0
POLYLINE
  8
0
 62
7
  6
CONTINUOUS
 66
1
 70
0
  0
VERTEX
  8
0
 62
7
  6
CONTINUOUS
 10
55.1727470804
 20
206.7943544723
  0
VERTEX
  8
0
 62
7
  6
CONTINUOUS
 10
55.155855509
 20
206.8097385152
  0
VERTEX
  8
0
 62
7
  6
CONTINUOUS
 10
55.1062113338
 20
206.823879565
  0
VERTEX
  8
0
 62
7
  6
CONTINUOUS
 10
55.027009797
 20
206.8358877908
  0
VERTEX
  8
0
 62
7
  6
CONTINUOUS
 10
54.9235016894
 20
206.8450255327
  0
VERTEX
  8
0
 62
7
  6
CONTINUOUS
 10
54.8026699316
 20
206.8507400244
  0
VERTEX
  8
0
 62
7
  6
CONTINUOUS
 10
54.6727470804
 20
206.8526855163
  0
SEQEND
  0
POLYLINE
  8
0
 62
7
  6
CONTINUOUS
 66
1
 70
0
  0
VERTEX
  8
0
 62
7
  6
CONTINUOUS
 10
55.1727470804
 20
207.2312907813
  0
VERTEX
  8
0
 62
7
  6
CONTINUOUS
 10
55.173877191
 20
207.1981531119
  0
VERTEX
  8
0
 62
7
  6
CONTINUOUS
 10
55.1772826144
 20
207.1645600566
  0
VERTEX
  8
0
 62
7
  6
CONTINUOUS
 10
55.1829853311
 20
207.1306258474
  0
SEQEND
  0
LINE
  8
0
 62
7
  6
CONTINUOUS
 10
55.1727470804
 20
202.0306258474
 11
55.1727470804
 21
209.5306258474
  0
POLYLINE
  8
0
 62
7
  6
CONTINUOUS
 66
1
 70
0
  0
VERTEX
  8
0
 62
7
  6
CONTINUOUS
 10
106.9727470804
 20
204.9085661784
  0
VERTEX
  8
0
 62
7
  6
CONTINUOUS
 10
107.1026699316
 20
204.9105116704
  0
VERTEX
  8
0
 62
7
  6
CONTINUOUS
 10
107.2235016894
 20
204.916226162
  0
VERTEX
  8
0
 62
7
  6
CONTINUOUS
 10
107.327009797
 20
204.925363904
  0
VERTEX
  8
0
 62
7
  6
CONTINUOUS
 10
107.4062113338
 20
204.9373721298
  0
VERTEX
  8
0
 62
7
  6
CONTINUOUS
 10
107.455855509
 20
204.9515131795
  0
VERTEX
  8
0
 62
7
  6
CONTINUOUS
 10
107.4727470804
 20
204.9668972225
  0
SEQEND
  0
LINE
  8
0
 62
7
  6
CONTINUOUS
 10
32.3727470804
 20
204.9085661784
 11
35.3227470804
 21
204.9085661784
  0
LINE
  8
0
 62
7
  6
CONTINUOUS
 10
46.4727470804
 20
204.9085661784
 11
54.6727470804
 21
204.9085661784
  0
LINE
  8
0
 62
7
  6
CONTINUOUS
 10
65.5727470804
 20
204.9085661784
 11
73.7727470804
 21
204.9085661784
  0
LINE
  8
0
 62
7
  6
CONTINUOUS
 10
84.6727470804
 20
204.9085661784
 11
92.8727470804
 21
204.9085661784
  0
LINE
  8
0
 62
7
  6
CONTINUOUS
 10
104.0227470804
 20
204.9085661784
 11
106.9727470804
 21
204.9085661784
  0
POLYLINE
  8
0
 62
7
  6
CONTINUOUS
 66
1
 70
0
  0
VERTEX
  8
0
 62
7
  6
CONTINUOUS
 10
32.3727470804
 20
204.9085661784
  0
VERTEX
  8
0
 62
7
  6
CONTINUOUS
 10
32.2428242293
 20
204.9105116704
  0
VERTEX
  8
0
 62
7
  6
CONTINUOUS
 10
32.1219924715
 20
204.916226162
  0
VERTEX
  8
0
 62
7
  6
CONTINUOUS
 10
32.0184843639
 20
204.925363904
  0
VERTEX
  8
0
 62
7
  6
CONTINUOUS
 10
31.9392828271
 20
204.9373721298
  0
VERTEX
  8
0
 62
7
  6
CONTINUOUS
 10
31.8896386519
 20
204.9515131795
  0
VERTEX
  8
0
 62
7
  6
CONTINUOUS
 10
31.8727470804
 20
204.9668972225
  0
SEQEND
  0
LINE
  8
2_FEATURE
 62
7
  6
CONTINUOUS
 10
78.4727470804
 20
201.8926948362
 11
78.6914971222
 21
201.861070546
  0
LINE
  8
2_FEATURE
 62
7
  6
CONTINUOUS
 10
80.4414970804
 20
201.8926948362
 11
80.660246997
 21
201.861070546
  0
LINE
  8
2_FEATURE
 62
7
  6
CONTINUOUS
 10
78.5164970387
 20
201.7503910822
 11
78.6477470387
 21
201.7265175987
  0
LINE
  8
2_FEATURE
 62
7
  6
CONTINUOUS
 10
80.4852471639
 20
201.7503910822
 11
80.6164971639
 21
201.7265175987
  0
POLYLINE
  8
1_AXIS
 62
7
  6
CONTINUOUS
 66
1
 70
0
  0
VERTEX
  8
1_AXIS
 62
7
  6
CONTINUOUS
 10
60.9327470804
 20
201.5948966212
  0
VERTEX
  8
1_AXIS
 62
7
  6
CONTINUOUS
 10
60.9379044869
 20
201.5804229768
  0
VERTEX
  8
1_AXIS
 62
7
  6
CONTINUOUS
 10
60.9785271937
 20
201.5576728731
  0
VERTEX
  8
1_AXIS
 62
7
  6
CONTINUOUS
 10
61.0575080959
 20
201.5428803963
  0
VERTEX
  8
1_AXIS
 62
7
  6
CONTINUOUS
 10
61.1710921241
 20
201.5347837734
  0
VERTEX
  8
1_AXIS
 62
7
  6
CONTINUOUS
 10
61.3135808957
 20
201.531426472
  0
VERTEX
  8
1_AXIS
 62
7
  6
CONTINUOUS
 10
61.4772621339
 20
201.5306436992
  0
SEQEND
  0
POLYLINE
  8
0
 62
7
  6
CONTINUOUS
 66
1
 70
0
  0
VERTEX
  8
0
 62
7
  6
CONTINUOUS
 10
58.7950821958
 20
213.4767351006
  0
VERTEX
  8
0
 62
7
  6
CONTINUOUS
 10
58.7683544888
 20
220.3204343134
  0
VERTEX
  8
0
 62
7
  6
CONTINUOUS
 10
58.7415890821
 20
227.3104753893
  0
VERTEX
  8
0
 62
7
  6
CONTINUOUS
 10
58.714783588
 20
234.4480782538
  0
SEQEND
  0
LINE
  8
0
 62
7
  6
CONTINUOUS
 10
57.1227470804
 20
205.2737146717
 11
57.1227470804
 21
202.0306258474
  0
POLYLINE
  8
0
 62
7
  6
CONTINUOUS
 66
1
 70
0
  0
VERTEX
  8
0
 62
7
  6
CONTINUOUS
 10
58.714783588
 20
234.4480782538
  0
VERTEX
  8
0
 62
7
  6
CONTINUOUS
 10
58.7284932345
 20
234.5597207946
  0
VERTEX
  8
0
 62
7
  6
CONTINUOUS
 10
58.773147434
 20
234.6730702893
  0
VERTEX
  8
0
 62
7
  6
CONTINUOUS
 10
58.8571874436
 20
234.7887935592
  0
VERTEX
  8
0
 62
7
  6
CONTINUOUS
 10
58.9957544539
 20
234.9047928618
  0
VERTEX
  8
0
 62
7
  6
CONTINUOUS
 10
59.2087359988
 20
235.0132773258
  0
VERTEX
  8
0
 62
7
  6
CONTINUOUS
 10
59.5158664118
 20
235.101062561
  0
VERTEX
  8
0
 62
7
  6
CONTINUOUS
 10
59.9092130037
 20
235.1504793112
  0
VERTEX
  8
0
 62
7
  6
CONTINUOUS
 10
60.3362467343
 20
235.1504813951
  0
VERTEX
  8
0
 62
7
  6
CONTINUOUS
 10
60.7295976315
 20
235.1010686092
  0
VERTEX
  8
0
 62
7
  6
CONTINUOUS
 10
61.0367449694
 20
235.0132824912
  0
VERTEX
  8
0
 62
7
  6
CONTINUOUS
 10
61.2497378957
 20
234.9047940611
  0
VERTEX
  8
0
 62
7
  6
CONTINUOUS
 10
61.388306171
 20
234.7887941478
  0
VERTEX
  8
0
 62
7
  6
CONTINUOUS
 10
61.4723464289
 20
234.6730708365
  0
VERTEX
  8
0
 62
7
  6
CONTINUOUS
 10
61.5170009007
 20
234.5597208968
  0
VERTEX
  8
0
 62
7
  6
CONTINUOUS
 10
61.5307105729
 20
234.4480782538
  0
SEQEND
  0
POLYLINE
  8
0
 62
7
  6
CONTINUOUS
 66
1
 70
0
  0
VERTEX
  8
0
 62
7
  6
CONTINUOUS
 10
35.8227470804
 20
204.9668972225
  0
VERTEX
  8
0
 62
7
  6
CONTINUOUS
 10
35.805855509
 20
204.9515131795
  0
VERTEX
  8
0
 62
7
  6
CONTINUOUS
 10
35.7562113338
 20
204.9373721298
  0
VERTEX
  8
0
 62
7
  6
CONTINUOUS
 10
35.677009797
 20
204.925363904
  0
VERTEX
  8
0
 62
7
  6
CONTINUOUS
 10
35.5735016894
 20
204.916226162
  0
VERTEX
  8
0
 62
7
  6
CONTINUOUS
 10
35.4526699316
 20
204.9105116704
  0
VERTEX
  8
0
 62
7
  6
CONTINUOUS
 10
35.3227470804
 20
204.9085661784
  0
SEQEND
  0
LINE
  8
0
 62
7
  6
CONTINUOUS
 10
93.8861093458
 20
207.6298809197
 11
93.9144325179
 21
207.6306258474
  0
LINE
  8
0
 62
7
  6
CONTINUOUS
 10
74.7861093458
 20
207.6298809197
 11
74.8144325179
 21
207.6306258474
  0
POLYLINE
  8
0
 62
7
  6
CONTINUOUS
 66
1
 70
0
  0
VERTEX
  8
0
 62
7
  6
CONTINUOUS
 10
32.3727470804
 20
206.8526855163
  0
VERTEX
  8
0
 62
7
  6
CONTINUOUS
 10
32.2428242293
 20
206.8507400244
  0
VERTEX
  8
0
 62
7
  6
CONTINUOUS
 10
32.1219924715
 20
206.8450255327
  0
VERTEX
  8
0
 62
7
  6
CONTINUOUS
 10
32.0184843639
 20
206.8358877908
  0
VERTEX
  8
0
 62
7
  6
CONTINUOUS
 10
31.9392828271
 20
206.823879565
  0
VERTEX
  8
0
 62
7
  6
CONTINUOUS
 10
31.8896386519
 20
206.8097385152
  0
VERTEX
  8
0
 62
7
  6
CONTINUOUS
 10
31.8727470804
 20
206.7943544723
  0
SEQEND
  0
LINE
  8
1_AXIS
 62
2
  6
CENTER
 10
24.2342963748
 20
205.8806258474
 11
108.9481510461
 21
205.8806258474
  0
LINE
  8
0
 62
7
  6
CONTINUOUS
 10
32.3727470804
 20
206.8526855163
 11
35.3227470804
 21
206.8526855163
  0
LINE
  8
0
 62
7
  6
CONTINUOUS
 10
46.4727470804
 20
206.8526855163
 11
54.6727470804
 21
206.8526855163
  0
LINE
  8
0
 62
7
  6
CONTINUOUS
 10
65.5727470804
 20
206.8526855163
 11
73.7727470804
 21
206.8526855163
  0
LINE
  8
0
 62
7
  6
CONTINUOUS
 10
84.6727470804
 20
206.8526855163
 11
92.8727470804
 21
206.8526855163
  0
LINE
  8
0
 62
7
  6
CONTINUOUS
 10
104.0227470804
 20
206.8526855163
 11
106.9727470804
 21
206.8526855163
  0
LINE
  8
0
 62
7
  6
CONTINUOUS
 10
36.3848226684
 20
207.6306258474
 11
45.4310616446
 21
207.6306258474
  0
LINE
  8
0
 62
7
  6
CONTINUOUS
 10
55.7144327488
 20
207.6306258474
 11
64.5310616446
 21
207.6306258474
  0
LINE
  8
0
 62
7
  6
CONTINUOUS
 10
74.8144325221
 20
207.6306258474
 11
83.6310616446
 21
207.6306258474
  0
LINE
  8
0
 62
7
  6
CONTINUOUS
 10
93.9144327488
 20
207.6306258474
 11
102.9606717688
 21
207.6306258474
  0
POLYLINE
  8
0
 62
7
  6
CONTINUOUS
 66
1
 70
0
  0
VERTEX
  8
0
 62
7
  6
CONTINUOUS
 10
106.9727470804
 20
206.8526855163
  0
VERTEX
  8
0
 62
7
  6
CONTINUOUS
 10
107.1026699316
 20
206.8507400244
  0
VERTEX
  8
0
 62
7
  6
CONTINUOUS
 10
107.2235016894
 20
206.8450255327
  0
VERTEX
  8
0
 62
7
  6
CONTINUOUS
 10
107.327009797
 20
206.8358877908
  0
VERTEX
  8
0
 62
7
  6
CONTINUOUS
 10
107.4062113338
 20
206.823879565
  0
VERTEX
  8
0
 62
7
  6
CONTINUOUS
 10
107.455855509
 20
206.8097385152
  0
VERTEX
  8
0
 62
7
  6
CONTINUOUS
 10
107.4727470804
 20
206.7943544723
  0
SEQEND
  0
LINE
  8
0
 62
7
  6
CONTINUOUS
 10
45.4310616489
 20
207.6306258474
 11
45.4593848151
 21
207.6298809197
  0
LINE
  8
0
 62
7
  6
CONTINUOUS
 10
64.5310616489
 20
207.6306258474
 11
64.5593848151
 21
207.6298809197
  0
LINE
  8
2_FEATURE
 62
7
  6
CONTINUOUS
 10
78.6914971222
 20
201.861070546
 11
78.8664970804
 21
201.7757540955
  0
LINE
  8
2_FEATURE
 62
7
  6
CONTINUOUS
 10
78.6477470387
 20
201.7265175987
 11
78.7352470804
 21
201.6831391435
  0
POLYLINE
  8
0
 62
7
  6
CONTINUOUS
 66
1
 70
0
  0
VERTEX
  8
0
 62
7
  6
CONTINUOUS
 10
65.0727470804
 20
204.9668972225
  0
VERTEX
  8
0
 62
7
  6
CONTINUOUS
 10
65.0896386519
 20
204.9515131795
  0
VERTEX
  8
0
 62
7
  6
CONTINUOUS
 10
65.1392828271
 20
204.9373721298
  0
VERTEX
  8
0
 62
7
  6
CONTINUOUS
 10
65.2184843639
 20
204.925363904
  0
VERTEX
  8
0
 62
7
  6
CONTINUOUS
 10
65.3219924715
 20
204.916226162
  0
VERTEX
  8
0
 62
7
  6
CONTINUOUS
 10
65.4428242293
 20
204.9105116704
  0
VERTEX
  8
0
 62
7
  6
CONTINUOUS
 10
65.5727470804
 20
204.9085661784
  0
SEQEND
  0
POLYLINE
  8
0
 62
7
  6
CONTINUOUS
 66
1
 70
0
  0
VERTEX
  8
0
 62
7
  6
CONTINUOUS
 10
61.5307105729
 20
234.4480782538
  0
VERTEX
  8
0
 62
7
  6
CONTINUOUS
 10
61.5039050845
 20
227.3104769017
  0
VERTEX
  8
0
 62
7
  6
CONTINUOUS
 10
61.4771396787
 20
220.3204360003
  0
VERTEX
  8
0
 62
7
  6
CONTINUOUS
 10
61.4504119651
 20
213.4767351006
  0
SEQEND
  0
LINE
  8
0
 62
7
  6
CONTINUOUS
 10
55.6861093458
 20
207.6298809197
 11
55.7144325179
 21
207.6306258474
  0
LINE
  8
0
 62
7
  6
CONTINUOUS
 10
32.1727470804
 20
210.0306258474
 11
107.1727470804
 21
210.0306258474
  0
LINE
  8
0
 62
7
  6
CONTINUOUS
 10
83.6310616489
 20
207.6306258474
 11
83.6593848151
 21
207.6298809197
  0
LINE
  8
2_FEATURE
 62
7
  6
CONTINUOUS
 10
80.660246997
 20
201.861070546
 11
80.8352470804
 21
201.7757540955
  0
LINE
  8
2_FEATURE
 62
7
  6
CONTINUOUS
 10
80.6164971639
 20
201.7265175987
 11
80.7039970804
 21
201.6831391435
  0
LINE
  8
2_FEATURE
 62
7
  6
CONTINUOUS
 10
78.8664970804
 20
201.7757540955
 11
78.9977470804
 21
201.6831391435
  0
LINE
  8
0
 62
7
  6
CONTINUOUS
 10
63.1227470804
 20
205.2737146717
 11
63.1227470804
 21
202.0306258474
  0
POLYLINE
  8
0
 62
7
  6
CONTINUOUS
 66
1
 70
0
  0
VERTEX
  8
0
 62
7
  6
CONTINUOUS
 10
61.4504119651
 20
213.4767351006
  0
VERTEX
  8
0
 62
7
  6
CONTINUOUS
 10
61.4219469794
 20
213.2085145987
  0
VERTEX
  8
0
 62
7
  6
CONTINUOUS
 10
61.3398441718
 20
212.9515837677
  0
VERTEX
  8
0
 62
7
  6
CONTINUOUS
 10
61.2074933876
 20
212.7165504059
  0
VERTEX
  8
0
 62
7
  6
CONTINUOUS
 10
61.0327412464
 20
212.5153543481
  0
VERTEX
  8
0
 62
7
  6
CONTINUOUS
 10
60.8306009189
 20
212.3589035385
  0
VERTEX
  8
0
 62
7
  6
CONTINUOUS
 10
60.6080107916
 20
212.2463432812
  0
VERTEX
  8
0
 62
7
  6
CONTINUOUS
 10
60.3698439565
 20
212.1776908308
  0
VERTEX
  8
0
 62
7
  6
CONTINUOUS
 10
60.1227400803
 20
212.1544978225
  0
VERTEX
  8
0
 62
7
  6
CONTINUOUS
 10
59.8756375118
 20
212.1776932348
  0
VERTEX
  8
0
 62
7
  6
CONTINUOUS
 10
59.6374722461
 20
212.2463476483
  0
VERTEX
  8
0
 62
7
  6
CONTINUOUS
 10
59.4148833466
 20
212.3589097736
  0
VERTEX
  8
0
 62
7
  6
CONTINUOUS
 10
59.2127427162
 20
212.5153639462
  0
VERTEX
  8
0
 62
7
  6
CONTINUOUS
 10
59.0380013104
 20
212.7165496449
  0
VERTEX
  8
0
 62
7
  6
CONTINUOUS
 10
58.905650236
 20
212.9515832014
  0
VERTEX
  8
0
 62
7
  6
CONTINUOUS
 10
58.8235472474
 20
213.2085142858
  0
VERTEX
  8
0
 62
7
  6
CONTINUOUS
 10
58.7950821958
 20
213.4767351006
  0
SEQEND
  0
POLYLINE
  8
0
 62
7
  6
CONTINUOUS
 66
1
 70
0
  0
VERTEX
  8
0
 62
7
  6
CONTINUOUS
 10
45.9727470804
 20
206.7943544723
  0
VERTEX
  8
0
 62
7
  6
CONTINUOUS
 10
45.9896386519
 20
206.8097385152
  0
VERTEX
  8
0
 62
7
  6
CONTINUOUS
 10
46.0392828271
 20
206.823879565
  0
VERTEX
  8
0
 62
7
  6
CONTINUOUS
 10
46.1184843639
 20
206.8358877908
  0
VERTEX
  8
0
 62
7
  6
CONTINUOUS
 10
46.2219924715
 20
206.8450255327
  0
VERTEX
  8
0
 62
7
  6
CONTINUOUS
 10
46.3428242293
 20
206.8507400244
  0
VERTEX
  8
0
 62
7
  6
CONTINUOUS
 10
46.4727470804
 20
206.8526855163
  0
SEQEND
  0
LINE
  8
2_FEATURE
 62
7
  6
CONTINUOUS
 10
80.8352470804
 20
201.7757540955
 11
80.9664970804
 21
201.6831391435
  0
POLYLINE
  8
0
 62
7
  6
CONTINUOUS
 66
1
 70
0
  0
VERTEX
  8
0
 62
7
  6
CONTINUOUS
 10
74.2727470804
 20
206.7943544723
  0
VERTEX
  8
0
 62
7
  6
CONTINUOUS
 10
74.255855509
 20
206.8097385152
  0
VERTEX
  8
0
 62
7
  6
CONTINUOUS
 10
74.2062113338
 20
206.823879565
  0
VERTEX
  8
0
 62
7
  6
CONTINUOUS
 10
74.127009797
 20
206.8358877908
  0
VERTEX
  8
0
 62
7
  6
CONTINUOUS
 10
74.0235016894
 20
206.8450255327
  0
VERTEX
  8
0
 62
7
  6
CONTINUOUS
 10
73.9026699316
 20
206.8507400244
  0
VERTEX
  8
0
 62
7
  6
CONTINUOUS
 10
73.7727470804
 20
206.8526855163
  0
SEQEND
  0
LINE
  8
0
 62
7
  6
CONTINUOUS
 10
65.0727470804
 20
202.0306258474
 11
65.0727470804
 21
209.5306258474
  0
POLYLINE
  8
0
 62
7
  6
CONTINUOUS
 66
1
 70
0
  0
VERTEX
  8
0
 62
7
  6
CONTINUOUS
 10
68.264783588
 20
234.4480782538
  0
VERTEX
  8
0
 62
7
  6
CONTINUOUS
 10
68.2784932345
 20
234.5597207946
  0
VERTEX
  8
0
 62
7
  6
CONTINUOUS
 10
68.323147434
 20
234.6730702893
  0
VERTEX
  8
0
 62
7
  6
CONTINUOUS
 10
68.4071874436
 20
234.7887935592
  0
VERTEX
  8
0
 62
7
  6
CONTINUOUS
 10
68.5457544539
 20
234.9047928618
  0
VERTEX
  8
0
 62
7
  6
CONTINUOUS
 10
68.7587359988
 20
235.0132773258
  0
VERTEX
  8
0
 62
7
  6
CONTINUOUS
 10
69.0658664118
 20
235.101062561
  0
VERTEX
  8
0
 62
7
  6
CONTINUOUS
 10
69.4592130037
 20
235.1504793112
  0
VERTEX
  8
0
 62
7
  6
CONTINUOUS
 10
69.8862467343
 20
235.1504813951
  0
VERTEX
  8
0
 62
7
  6
CONTINUOUS
 10
70.2795976315
 20
235.1010686092
  0
VERTEX
  8
0
 62
7
  6
CONTINUOUS
 10
70.5867449694
 20
235.0132824912
  0
VERTEX
  8
0
 62
7
  6
CONTINUOUS
 10
70.7997378957
 20
234.9047940611
  0
VERTEX
  8
0
 62
7
  6
CONTINUOUS
 10
70.938306171
 20
234.7887941478
  0
VERTEX
  8
0
 62
7
  6
CONTINUOUS
 10
71.0223464289
 20
234.6730708365
  0
VERTEX
  8
0
 62
7
  6
CONTINUOUS
 10
71.0670009007
 20
234.5597208968
  0
VERTEX
  8
0
 62
7
  6
CONTINUOUS
 10
71.0807105729
 20
234.4480782538
  0
SEQEND
  0
POLYLINE
  8
0
 62
7
  6
CONTINUOUS
 66
1
 70
0
  0
VERTEX
  8
0
 62
7
  6
CONTINUOUS
 10
65.0625088298
 20
207.1306258474
  0
VERTEX
  8
0
 62
7
  6
CONTINUOUS
 10
65.068211953
 20
207.1645630747
  0
VERTEX
  8
0
 62
7
  6
CONTINUOUS
 10
65.0716171542
 20
207.1981558301
  0
VERTEX
  8
0
 62
7
  6
CONTINUOUS
 10
65.0727470804
 20
207.2312907813
  0
SEQEND
  0
LINE
  8
2_FEATURE
 62
7
  6
CONTINUOUS
 10
78.7352470804
 20
201.6831391435
 11
78.7789970387
 21
201.6286696924
  0
LINE
  8
2_FEATURE
 62
7
  6
CONTINUOUS
 10
78.9977470804
 20
201.6831391435
 11
79.0414970387
 21
201.6286696924
  0
POLYLINE
  8
0
 62
7
  6
CONTINUOUS
 66
1
 70
0
  0
VERTEX
  8
0
 62
7
  6
CONTINUOUS
 10
68.3450821958
 20
213.4767351006
  0
VERTEX
  8
0
 62
7
  6
CONTINUOUS
 10
68.3183544888
 20
220.3204343134
  0
VERTEX
  8
0
 62
7
  6
CONTINUOUS
 10
68.2915890821
 20
227.3104753893
  0
VERTEX
  8
0
 62
7
  6
CONTINUOUS
 10
68.264783588
 20
234.4480782538
  0
SEQEND
  0
LINE
  8
1_AXIS
 62
2
  6
CENTER
 10
69.6727470804
 20
199.0306252777
 11
69.6727470804
 21
237.4306258474
  0
POLYLINE
  8
0
 62
7
  6
CONTINUOUS
 66
1
 70
0
  0
VERTEX
  8
0
 62
7
  6
CONTINUOUS
 10
55.1727470804
 20
204.9668972225
  0
VERTEX
  8
0
 62
7
  6
CONTINUOUS
 10
55.155855509
 20
204.9515131795
  0
VERTEX
  8
0
 62
7
  6
CONTINUOUS
 10
55.1062113338
 20
204.9373721298
  0
VERTEX
  8
0
 62
7
  6
CONTINUOUS
 10
55.027009797
 20
204.925363904
  0
VERTEX
  8
0
 62
7
  6
CONTINUOUS
 10
54.9235016894
 20
204.916226162
  0
VERTEX
  8
0
 62
7
  6
CONTINUOUS
 10
54.8026699316
 20
204.9105116704
  0
VERTEX
  8
0
 62
7
  6
CONTINUOUS
 10
54.6727470804
 20
204.9085661784
  0
SEQEND
  0
POLYLINE
  8
0
 62
7
  6
CONTINUOUS
 66
1
 70
0
  0
VERTEX
  8
0
 62
7
  6
CONTINUOUS
 10
84.1727470804
 20
204.9668972225
  0
VERTEX
  8
0
 62
7
  6
CONTINUOUS
 10
84.1896386519
 20
204.9515131795
  0
VERTEX
  8
0
 62
7
  6
CONTINUOUS
 10
84.2392828271
 20
204.9373721298
  0
VERTEX
  8
0
 62
7
  6
CONTINUOUS
 10
84.3184843639
 20
204.925363904
  0
VERTEX
  8
0
 62
7
  6
CONTINUOUS
 10
84.4219924715
 20
204.916226162
  0
VERTEX
  8
0
 62
7
  6
CONTINUOUS
 10
84.5428242293
 20
204.9105116704
  0
VERTEX
  8
0
 62
7
  6
CONTINUOUS
 10
84.6727470804
 20
204.9085661784
  0
SEQEND
  0
LINE
  8
2_FEATURE
 62
7
  6
CONTINUOUS
 10
80.7039970804
 20
201.6831391435
 11
80.7477471639
 21
201.6286696924
  0
LINE
  8
2_FEATURE
 62
7
  6
CONTINUOUS
 10
80.9664970804
 20
201.6831391435
 11
81.0102471639
 21
201.6286696924
  0
POLYLINE
  8
0
 62
7
  6
CONTINUOUS
 66
1
 70
0
  0
VERTEX
  8
0
 62
7
  6
CONTINUOUS
 10
71.0807105729
 20
234.4480782538
  0
VERTEX
  8
0
 62
7
  6
CONTINUOUS
 10
71.0539050845
 20
227.3104769017
  0
VERTEX
  8
0
 62
7
  6
CONTINUOUS
 10
71.0271396787
 20
220.3204360003
  0
VERTEX
  8
0
 62
7
  6
CONTINUOUS
 10
71.0004119651
 20
213.4767351006
  0
SEQEND
  0
POLYLINE
  8
0
 62
7
  6
CONTINUOUS
 66
1
 70
0
  0
VERTEX
  8
0
 62
7
  6
CONTINUOUS
 10
71.0004119651
 20
213.4767351006
  0
VERTEX
  8
0
 62
7
  6
CONTINUOUS
 10
70.9719469794
 20
213.2085145987
  0
VERTEX
  8
0
 62
7
  6
CONTINUOUS
 10
70.8898441718
 20
212.9515837677
  0
VERTEX
  8
0
 62
7
  6
CONTINUOUS
 10
70.7574933876
 20
212.7165504059
  0
VERTEX
  8
0
 62
7
  6
CONTINUOUS
 10
70.5827412464
 20
212.5153543481
  0
VERTEX
  8
0
 62
7
  6
CONTINUOUS
 10
70.3806009189
 20
212.3589035385
  0
VERTEX
  8
0
 62
7
  6
CONTINUOUS
 10
70.1580107916
 20
212.2463432812
  0
VERTEX
  8
0
 62
7
  6
CONTINUOUS
 10
69.9198439565
 20
212.1776908308
  0
VERTEX
  8
0
 62
7
  6
CONTINUOUS
 10
69.6727400803
 20
212.1544978225
  0
VERTEX
  8
0
 62
7
  6
CONTINUOUS
 10
69.4256375118
 20
212.1776932348
  0
VERTEX
  8
0
 62
7
  6
CONTINUOUS
 10
69.1874722461
 20
212.2463476483
  0
VERTEX
  8
0
 62
7
  6
CONTINUOUS
 10
68.9648833466
 20
212.3589097736
  0
VERTEX
  8
0
 62
7
  6
CONTINUOUS
 10
68.7627427162
 20
212.5153639462
  0
VERTEX
  8
0
 62
7
  6
CONTINUOUS
 10
68.5880013104
 20
212.7165496449
  0
VERTEX
  8
0
 62
7
  6
CONTINUOUS
 10
68.455650236
 20
212.9515832014
  0
VERTEX
  8
0
 62
7
  6
CONTINUOUS
 10
68.3735472474
 20
213.2085142858
  0
VERTEX
  8
0
 62
7
  6
CONTINUOUS
 10
68.3450821958
 20
213.4767351006
  0
SEQEND
  0
POLYLINE
  8
1_AXIS
 62
7
  6
CONTINUOUS
 66
1
 70
0
  0
VERTEX
  8
1_AXIS
 62
7
  6
CONTINUOUS
 10
60.9327470804
 20
201.5948966212
  0
VERTEX
  8
1_AXIS
 62
7
  6
CONTINUOUS
 10
60.9522352345
 20
201.6282858985
  0
VERTEX
  8
1_AXIS
 62
7
  6
CONTINUOUS
 10
61.0104742222
 20
201.6670777937
  0
VERTEX
  8
1_AXIS
 62
7
  6
CONTINUOUS
 10
61.1039984022
 20
201.7073722174
  0
VERTEX
  8
1_AXIS
 62
7
  6
CONTINUOUS
 10
61.2272767821
 20
201.7448327899
  0
VERTEX
  8
1_AXIS
 62
7
  6
CONTINUOUS
 10
61.3728838892
 20
201.7750420413
  0
VERTEX
  8
1_AXIS
 62
7
  6
CONTINUOUS
 10
61.5319477873
 20
201.7944317609
  0
VERTEX
  8
1_AXIS
 62
7
  6
CONTINUOUS
 10
61.6977850998
 20
201.8011160726
  0
VERTEX
  8
1_AXIS
 62
7
  6
CONTINUOUS
 10
61.8635726661
 20
201.7944296296
  0
VERTEX
  8
1_AXIS
 62
7
  6
CONTINUOUS
 10
62.022692851
 20
201.7750284764
  0
VERTEX
  8
1_AXIS
 62
7
  6
CONTINUOUS
 10
62.1682494383
 20
201.7448246386
  0
VERTEX
  8
1_AXIS
 62
7
  6
CONTINUOUS
 10
62.2915331432
 20
201.7073586831
  0
VERTEX
  8
1_AXIS
 62
7
  6
CONTINUOUS
 10
62.3850487151
 20
201.6670626908
  0
VERTEX
  8
1_AXIS
 62
7
  6
CONTINUOUS
 10
62.4432932934
 20
201.628253699
  0
VERTEX
  8
1_AXIS
 62
7
  6
CONTINUOUS
 10
62.4627470804
 20
201.5948966212
  0
SEQEND
  0
POLYLINE
  8
0
 62
7
  6
CONTINUOUS
 66
1
 70
0
  0
VERTEX
  8
0
 62
7
  6
CONTINUOUS
 10
74.2727470804
 20
207.2312907813
  0
VERTEX
  8
0
 62
7
  6
CONTINUOUS
 10
74.273877191
 20
207.1981531119
  0
VERTEX
  8
0
 62
7
  6
CONTINUOUS
 10
74.2772826144
 20
207.1645600566
  0
VERTEX
  8
0
 62
7
  6
CONTINUOUS
 10
74.2829853311
 20
207.1306258474
  0
SEQEND
  0
LINE
  8
0
 62
7
  6
CONTINUOUS
 10
74.2727470804
 20
202.0306258474
 11
74.2727470804
 21
209.5306258474
  0
POLYLINE
  8
0
 62
7
  6
CONTINUOUS
 66
1
 70
0
  0
VERTEX
  8
0
 62
7
  6
CONTINUOUS
 10
65.0727470804
 20
206.7943544723
  0
VERTEX
  8
0
 62
7
  6
CONTINUOUS
 10
65.0896386519
 20
206.8097385152
  0
VERTEX
  8
0
 62
7
  6
CONTINUOUS
 10
65.1392828271
 20
206.823879565
  0
VERTEX
  8
0
 62
7
  6
CONTINUOUS
 10
65.2184843639
 20
206.8358877908
  0
VERTEX
  8
0
 62
7
  6
CONTINUOUS
 10
65.3219924715
 20
206.8450255327
  0
VERTEX
  8
0
 62
7
  6
CONTINUOUS
 10
65.4428242293
 20
206.8507400244
  0
VERTEX
  8
0
 62
7
  6
CONTINUOUS
 10
65.5727470804
 20
206.8526855163
  0
SEQEND
  0
POLYLINE
  8
0
 62
7
  6
CONTINUOUS
 66
1
 70
0
  0
VERTEX
  8
0
 62
7
  6
CONTINUOUS
 10
77.8950821958
 20
213.4767351006
  0
VERTEX
  8
0
 62
7
  6
CONTINUOUS
 10
77.8683544888
 20
220.3204343134
  0
VERTEX
  8
0
 62
7
  6
CONTINUOUS
 10
77.8415890821
 20
227.3104753893
  0
VERTEX
  8
0
 62
7
  6
CONTINUOUS
 10
77.814783588
 20
234.4480782538
  0
SEQEND
  0
LINE
  8
0
 62
7
  6
CONTINUOUS
 10
76.2227470804
 20
205.2737076891
 11
76.2227470804
 21
202.0306258474
  0
LINE
  8
2_FEATURE
 62
7
  6
CONTINUOUS
 10
77.4227470804
 20
201.8926948362
 11
77.4227470804
 21
201.5306290801
  0
LINE
  8
2_FEATURE
 62
7
  6
CONTINUOUS
 10
77.6852470804
 20
201.5351649794
 11
77.6852470804
 21
201.8926948362
  0
POLYLINE
  8
0
 62
7
  6
CONTINUOUS
 66
1
 70
0
  0
VERTEX
  8
0
 62
7
  6
CONTINUOUS
 10
77.814783588
 20
234.4480782538
  0
VERTEX
  8
0
 62
7
  6
CONTINUOUS
 10
77.8284932345
 20
234.5597207946
  0
VERTEX
  8
0
 62
7
  6
CONTINUOUS
 10
77.873147434
 20
234.6730702893
  0
VERTEX
  8
0
 62
7
  6
CONTINUOUS
 10
77.9571874436
 20
234.7887935592
  0
VERTEX
  8
0
 62
7
  6
CONTINUOUS
 10
78.0957544539
 20
234.9047928618
  0
VERTEX
  8
0
 62
7
  6
CONTINUOUS
 10
78.3087359988
 20
235.0132773258
  0
VERTEX
  8
0
 62
7
  6
CONTINUOUS
 10
78.6158664118
 20
235.101062561
  0
VERTEX
  8
0
 62
7
  6
CONTINUOUS
 10
79.0092130037
 20
235.1504793112
  0
VERTEX
  8
0
 62
7
  6
CONTINUOUS
 10
79.4362467343
 20
235.1504813951
  0
VERTEX
  8
0
 62
7
  6
CONTINUOUS
 10
79.8295976315
 20
235.1010686092
  0
VERTEX
  8
0
 62
7
  6
CONTINUOUS
 10
80.1367449694
 20
235.0132824912
  0
VERTEX
  8
0
 62
7
  6
CONTINUOUS
 10
80.3497378957
 20
234.9047940611
  0
VERTEX
  8
0
 62
7
  6
CONTINUOUS
 10
80.488306171
 20
234.7887941478
  0
VERTEX
  8
0
 62
7
  6
CONTINUOUS
 10
80.5723464289
 20
234.6730708365
  0
VERTEX
  8
0
 62
7
  6
CONTINUOUS
 10
80.6170009007
 20
234.5597208968
  0
VERTEX
  8
0
 62
7
  6
CONTINUOUS
 10
80.6307105729
 20
234.4480782538
  0
SEQEND
  0
POLYLINE
  8
0
 62
7
  6
CONTINUOUS
 66
1
 70
0
  0
VERTEX
  8
0
 62
7
  6
CONTINUOUS
 10
93.3727470804
 20
206.7943544723
  0
VERTEX
  8
0
 62
7
  6
CONTINUOUS
 10
93.355855509
 20
206.8097385152
  0
VERTEX
  8
0
 62
7
  6
CONTINUOUS
 10
93.3062113338
 20
206.823879565
  0
VERTEX
  8
0
 62
7
  6
CONTINUOUS
 10
93.227009797
 20
206.8358877908
  0
VERTEX
  8
0
 62
7
  6
CONTINUOUS
 10
93.1235016894
 20
206.8450255327
  0
VERTEX
  8
0
 62
7
  6
CONTINUOUS
 10
93.0026699316
 20
206.8507400244
  0
VERTEX
  8
0
 62
7
  6
CONTINUOUS
 10
92.8727470804
 20
206.8526855163
  0
SEQEND
  0
LINE
  8
2_FEATURE
 62
7
  6
CONTINUOUS
 10
78.4727470804
 20
201.5351649794
 11
78.4727470804
 21
201.5377089243
  0
LINE
  8
2_FEATURE
 62
7
  6
CONTINUOUS
 10
78.5164970387
 20
201.7503910822
 11
78.5164970387
 21
201.8863699854
  0
LINE
  8
2_FEATURE
 62
7
  6
CONTINUOUS
 10
78.6477470387
 20
201.7265175987
 11
78.6477470387
 21
201.8673954149
  0
LINE
  8
2_FEATURE
 62
7
  6
CONTINUOUS
 10
78.6914971222
 20
201.5323993313
 11
78.6914971222
 21
201.5494320492
  0
LINE
  8
2_FEATURE
 62
7
  6
CONTINUOUS
 10
78.7352470804
 20
201.6831391435
 11
78.7352470804
 21
201.8397414486
  0
LINE
  8
2_FEATURE
 62
7
  6
CONTINUOUS
 10
78.7789970387
 20
201.586496244
 11
78.7789970387
 21
201.8184123513
  0
LINE
  8
2_FEATURE
 62
7
  6
CONTINUOUS
 10
78.8664970804
 20
201.5317571507
 11
78.8664970804
 21
201.7318116866
  0
LINE
  8
2_FEATURE
 62
7
  6
CONTINUOUS
 10
78.9977470804
 20
201.5487865261
 11
78.9977470804
 21
201.6831391435
  0
LINE
  8
2_FEATURE
 62
7
  6
CONTINUOUS
 10
79.0414970387
 20
201.6286696924
 11
79.0414970387
 21
201.5751054087
  0
LINE
  8
2_FEATURE
 62
7
  6
CONTINUOUS
 10
79.3914970804
 20
201.8926948362
 11
79.3914970804
 21
201.5306290801
  0
LINE
  8
2_FEATURE
 62
7
  6
CONTINUOUS
 10
79.6539970804
 20
201.5351649794
 11
79.6539970804
 21
201.8926948362
  0
LINE
  8
2_FEATURE
 62
7
  6
CONTINUOUS
 10
80.4414970804
 20
201.5351649794
 11
80.4414970804
 21
201.5377089243
  0
LINE
  8
2_FEATURE
 62
7
  6
CONTINUOUS
 10
80.4852471639
 20
201.7503910822
 11
80.4852471639
 21
201.8863699637
  0
LINE
  8
2_FEATURE
 62
7
  6
CONTINUOUS
 10
80.6164971639
 20
201.7265175987
 11
80.6164971639
 21
201.8673953823
  0
LINE
  8
2_FEATURE
 62
7
  6
CONTINUOUS
 10
80.660246997
 20
201.5323993313
 11
80.660246997
 21
201.5494320199
  0
LINE
  8
2_FEATURE
 62
7
  6
CONTINUOUS
 10
80.7039970804
 20
201.6831391435
 11
80.7039970804
 21
201.8397414029
  0
LINE
  8
2_FEATURE
 62
7
  6
CONTINUOUS
 10
80.7477471639
 20
201.586496244
 11
80.7477471639
 21
201.8184122597
  0
LINE
  8
2_FEATURE
 62
7
  6
CONTINUOUS
 10
80.8352470804
 20
201.5317571507
 11
80.8352470804
 21
201.7318116866
  0
LINE
  8
2_FEATURE
 62
7
  6
CONTINUOUS
 10
80.9664970804
 20
201.5487865261
 11
80.9664970804
 21
201.6831391435
  0
LINE
  8
2_FEATURE
 62
7
  6
CONTINUOUS
 10
81.0102471639
 20
201.6286696924
 11
81.0102471639
 21
201.5751054087
  0
POLYLINE
  8
0
 62
7
  6
CONTINUOUS
 66
1
 70
0
  0
VERTEX
  8
0
 62
7
  6
CONTINUOUS
 10
80.6307105729
 20
234.4480782538
  0
VERTEX
  8
0
 62
7
  6
CONTINUOUS
 10
80.6039050845
 20
227.3104769017
  0
VERTEX
  8
0
 62
7
  6
CONTINUOUS
 10
80.5771396787
 20
220.3204360003
  0
VERTEX
  8
0
 62
7
  6
CONTINUOUS
 10
80.5504119651
 20
213.4767351006
  0
SEQEND
  0
POLYLINE
  8
0
 62
7
  6
CONTINUOUS
 66
1
 70
0
  0
VERTEX
  8
0
 62
7
  6
CONTINUOUS
 10
80.5504119651
 20
213.4767351006
  0
VERTEX
  8
0
 62
7
  6
CONTINUOUS
 10
80.5219469794
 20
213.2085145987
  0
VERTEX
  8
0
 62
7
  6
CONTINUOUS
 10
80.4398441718
 20
212.9515837677
  0
VERTEX
  8
0
 62
7
  6
CONTINUOUS
 10
80.3074933876
 20
212.7165504059
  0
VERTEX
  8
0
 62
7
  6
CONTINUOUS
 10
80.1327412464
 20
212.5153543481
  0
VERTEX
  8
0
 62
7
  6
CONTINUOUS
 10
79.9306009189
 20
212.3589035385
  0
VERTEX
  8
0
 62
7
  6
CONTINUOUS
 10
79.7080107916
 20
212.2463432812
  0
VERTEX
  8
0
 62
7
  6
CONTINUOUS
 10
79.4698439565
 20
212.1776908308
  0
VERTEX
  8
0
 62
7
  6
CONTINUOUS
 10
79.2227400803
 20
212.1544978225
  0
VERTEX
  8
0
 62
7
  6
CONTINUOUS
 10
78.9756375118
 20
212.1776932348
  0
VERTEX
  8
0
 62
7
  6
CONTINUOUS
 10
78.7374722461
 20
212.2463476483
  0
VERTEX
  8
0
 62
7
  6
CONTINUOUS
 10
78.5148833466
 20
212.3589097736
  0
VERTEX
  8
0
 62
7
  6
CONTINUOUS
 10
78.3127427162
 20
212.5153639462
  0
VERTEX
  8
0
 62
7
  6
CONTINUOUS
 10
78.1380013104
 20
212.7165496449
  0
VERTEX
  8
0
 62
7
  6
CONTINUOUS
 10
78.005650236
 20
212.9515832014
  0
VERTEX
  8
0
 62
7
  6
CONTINUOUS
 10
77.9235472474
 20
213.2085142858
  0
VERTEX
  8
0
 62
7
  6
CONTINUOUS
 10
77.8950821958
 20
213.4767351006
  0
SEQEND
  0
LINE
  8
0
 62
7
  6
CONTINUOUS
 10
82.2227470804
 20
205.2737146717
 11
82.2227470804
 21
202.0306258474
  0
POLYLINE
  8
0
 62
7
  6
CONTINUOUS
 66
1
 70
0
  0
VERTEX
  8
0
 62
7
  6
CONTINUOUS
 10
74.2727470804
 20
204.9668972225
  0
VERTEX
  8
0
 62
7
  6
CONTINUOUS
 10
74.255855509
 20
204.9515131795
  0
VERTEX
  8
0
 62
7
  6
CONTINUOUS
 10
74.2062113338
 20
204.9373721298
  0
VERTEX
  8
0
 62
7
  6
CONTINUOUS
 10
74.127009797
 20
204.925363904
  0
VERTEX
  8
0
 62
7
  6
CONTINUOUS
 10
74.0235016894
 20
204.916226162
  0
VERTEX
  8
0
 62
7
  6
CONTINUOUS
 10
73.9026699316
 20
204.9105116704
  0
VERTEX
  8
0
 62
7
  6
CONTINUOUS
 10
73.7727470804
 20
204.9085661784
  0
SEQEND
  0
POLYLINE
  8
0
 62
7
  6
CONTINUOUS
 66
1
 70
0
  0
VERTEX
  8
0
 62
7
  6
CONTINUOUS
 10
103.5227470804
 20
204.9668972225
  0
VERTEX
  8
0
 62
7
  6
CONTINUOUS
 10
103.5396386519
 20
204.9515131795
  0
VERTEX
  8
0
 62
7
  6
CONTINUOUS
 10
103.5892828271
 20
204.9373721298
  0
VERTEX
  8
0
 62
7
  6
CONTINUOUS
 10
103.6684843639
 20
204.925363904
  0
VERTEX
  8
0
 62
7
  6
CONTINUOUS
 10
103.7719924715
 20
204.916226162
  0
VERTEX
  8
0
 62
7
  6
CONTINUOUS
 10
103.8928242293
 20
204.9105116704
  0
VERTEX
  8
0
 62
7
  6
CONTINUOUS
 10
104.0227470804
 20
204.9085661784
  0
SEQEND
  0
LINE
  8
0
 62
7
  6
CONTINUOUS
 10
84.1727470804
 20
202.0306258474
 11
84.1727470804
 21
209.5306258474
  0
POLYLINE
  8
0
 62
7
  6
CONTINUOUS
 66
1
 70
0
  0
VERTEX
  8
0
 62
7
  6
CONTINUOUS
 10
87.364783588
 20
234.4480782538
  0
VERTEX
  8
0
 62
7
  6
CONTINUOUS
 10
87.3784932345
 20
234.5597207946
  0
VERTEX
  8
0
 62
7
  6
CONTINUOUS
 10
87.423147434
 20
234.6730702893
  0
VERTEX
  8
0
 62
7
  6
CONTINUOUS
 10
87.5071874436
 20
234.7887935592
  0
VERTEX
  8
0
 62
7
  6
CONTINUOUS
 10
87.6457544539
 20
234.9047928618
  0
VERTEX
  8
0
 62
7
  6
CONTINUOUS
 10
87.8587359988
 20
235.0132773258
  0
VERTEX
  8
0
 62
7
  6
CONTINUOUS
 10
88.1658664118
 20
235.101062561
  0
VERTEX
  8
0
 62
7
  6
CONTINUOUS
 10
88.5592130037
 20
235.1504793112
  0
VERTEX
  8
0
 62
7
  6
CONTINUOUS
 10
88.9862467343
 20
235.1504813951
  0
VERTEX
  8
0
 62
7
  6
CONTINUOUS
 10
89.3795976315
 20
235.1010686092
  0
VERTEX
  8
0
 62
7
  6
CONTINUOUS
 10
89.6867449694
 20
235.0132824912
  0
VERTEX
  8
0
 62
7
  6
CONTINUOUS
 10
89.8997378957
 20
234.9047940611
  0
VERTEX
  8
0
 62
7
  6
CONTINUOUS
 10
90.038306171
 20
234.7887941478
  0
VERTEX
  8
0
 62
7
  6
CONTINUOUS
 10
90.1223464289
 20
234.6730708365
  0
VERTEX
  8
0
 62
7
  6
CONTINUOUS
 10
90.1670009007
 20
234.5597208968
  0
VERTEX
  8
0
 62
7
  6
CONTINUOUS
 10
90.1807105729
 20
234.4480782538
  0
SEQEND
  0
POLYLINE
  8
0
 62
7
  6
CONTINUOUS
 66
1
 70
0
  0
VERTEX
  8
0
 62
7
  6
CONTINUOUS
 10
84.1625088298
 20
207.1306258474
  0
VERTEX
  8
0
 62
7
  6
CONTINUOUS
 10
84.168211953
 20
207.1645630747
  0
VERTEX
  8
0
 62
7
  6
CONTINUOUS
 10
84.1716171542
 20
207.1981558301
  0
VERTEX
  8
0
 62
7
  6
CONTINUOUS
 10
84.1727470804
 20
207.2312907813
  0
SEQEND
  0
LINE
  8
0
 62
7
  6
CONTINUOUS
 10
33.1857207329
 20
235.4306258474
 11
106.159773428
 21
235.4306258474
  0
POLYLINE
  8
0
 62
7
  6
CONTINUOUS
 66
1
 70
0
  0
VERTEX
  8
0
 62
7
  6
CONTINUOUS
 10
87.4450821958
 20
213.4767351006
  0
VERTEX
  8
0
 62
7
  6
CONTINUOUS
 10
87.4183544888
 20
220.3204343134
  0
VERTEX
  8
0
 62
7
  6
CONTINUOUS
 10
87.3915890821
 20
227.3104753893
  0
VERTEX
  8
0
 62
7
  6
CONTINUOUS
 10
87.364783588
 20
234.4480782538
  0
SEQEND
  0
POLYLINE
  8
0
 62
7
  6
CONTINUOUS
 66
1
 70
0
  0
VERTEX
  8
0
 62
7
  6
CONTINUOUS
 10
84.1727470804
 20
206.7943544723
  0
VERTEX
  8
0
 62
7
  6
CONTINUOUS
 10
84.1896386519
 20
206.8097385152
  0
VERTEX
  8
0
 62
7
  6
CONTINUOUS
 10
84.2392828271
 20
206.823879565
  0
VERTEX
  8
0
 62
7
  6
CONTINUOUS
 10
84.3184843639
 20
206.8358877908
  0
VERTEX
  8
0
 62
7
  6
CONTINUOUS
 10
84.4219924715
 20
206.8450255327
  0
VERTEX
  8
0
 62
7
  6
CONTINUOUS
 10
84.5428242293
 20
206.8507400244
  0
VERTEX
  8
0
 62
7
  6
CONTINUOUS
 10
84.6727470804
 20
206.8526855163
  0
SEQEND
  0
LINE
  8
2_FEATURE
 62
7
  6
CONTINUOUS
 10
78.7789970387
 20
201.586496244
 11
78.7352470804
 21
201.5562591105
  0
LINE
  8
2_FEATURE
 62
7
  6
CONTINUOUS
 10
79.0414970387
 20
201.5751054087
 11
78.9977470804
 21
201.5487865261
  0
POLYLINE
  8
0
 62
7
  6
CONTINUOUS
 66
1
 70
0
  0
VERTEX
  8
0
 62
7
  6
CONTINUOUS
 10
90.1807105729
 20
234.4480782538
  0
VERTEX
  8
0
 62
7
  6
CONTINUOUS
 10
90.1539050845
 20
227.3104769017
  0
VERTEX
  8
0
 62
7
  6
CONTINUOUS
 10
90.1271396787
 20
220.3204360003
  0
VERTEX
  8
0
 62
7
  6
CONTINUOUS
 10
90.1004119651
 20
213.4767351006
  0
SEQEND
  0
POLYLINE
  8
0
 62
7
  6
CONTINUOUS
 66
1
 70
0
  0
VERTEX
  8
0
 62
7
  6
CONTINUOUS
 10
90.1004119651
 20
213.4767351006
  0
VERTEX
  8
0
 62
7
  6
CONTINUOUS
 10
90.0719469794
 20
213.2085145987
  0
VERTEX
  8
0
 62
7
  6
CONTINUOUS
 10
89.9898441718
 20
212.9515837677
  0
VERTEX
  8
0
 62
7
  6
CONTINUOUS
 10
89.8574933876
 20
212.7165504059
  0
VERTEX
  8
0
 62
7
  6
CONTINUOUS
 10
89.6827412464
 20
212.5153543481
  0
VERTEX
  8
0
 62
7
  6
CONTINUOUS
 10
89.4806009189
 20
212.3589035385
  0
VERTEX
  8
0
 62
7
  6
CONTINUOUS
 10
89.2580107916
 20
212.2463432812
  0
VERTEX
  8
0
 62
7
  6
CONTINUOUS
 10
89.0198439565
 20
212.1776908308
  0
VERTEX
  8
0
 62
7
  6
CONTINUOUS
 10
88.7727400803
 20
212.1544978225
  0
VERTEX
  8
0
 62
7
  6
CONTINUOUS
 10
88.5256375118
 20
212.1776932348
  0
VERTEX
  8
0
 62
7
  6
CONTINUOUS
 10
88.2874722461
 20
212.2463476483
  0
VERTEX
  8
0
 62
7
  6
CONTINUOUS
 10
88.0648833466
 20
212.3589097736
  0
VERTEX
  8
0
 62
7
  6
CONTINUOUS
 10
87.8627427162
 20
212.5153639462
  0
VERTEX
  8
0
 62
7
  6
CONTINUOUS
 10
87.6880013104
 20
212.7165496449
  0
VERTEX
  8
0
 62
7
  6
CONTINUOUS
 10
87.555650236
 20
212.9515832014
  0
VERTEX
  8
0
 62
7
  6
CONTINUOUS
 10
87.4735472474
 20
213.2085142858
  0
VERTEX
  8
0
 62
7
  6
CONTINUOUS
 10
87.4450821958
 20
213.4767351006
  0
SEQEND
  0
LINE
  8
2_FEATURE
 62
7
  6
CONTINUOUS
 10
80.7477471639
 20
201.586496244
 11
80.7039970804
 21
201.5562591105
  0
LINE
  8
2_FEATURE
 62
7
  6
CONTINUOUS
 10
81.0102471639
 20
201.5751054087
 11
80.9664970804
 21
201.5487865261
  0
POLYLINE
  8
0
 62
7
  6
CONTINUOUS
 66
1
 70
0
  0
VERTEX
  8
0
 62
7
  6
CONTINUOUS
 10
93.3727470804
 20
207.2312907813
  0
VERTEX
  8
0
 62
7
  6
CONTINUOUS
 10
93.373877191
 20
207.1981531119
  0
VERTEX
  8
0
 62
7
  6
CONTINUOUS
 10
93.3772826144
 20
207.1645600566
  0
VERTEX
  8
0
 62
7
  6
CONTINUOUS
 10
93.3829853311
 20
207.1306258474
  0
SEQEND
  0
LINE
  8
0
 62
7
  6
CONTINUOUS
 10
93.3727470804
 20
202.0306258474
 11
93.3727470804
 21
209.5306258474
  0
POLYLINE
  8
0
 62
7
  6
CONTINUOUS
 66
1
 70
0
  0
VERTEX
  8
0
 62
7
  6
CONTINUOUS
 10
96.914783588
 20
234.4480782538
  0
VERTEX
  8
0
 62
7
  6
CONTINUOUS
 10
96.9284932345
 20
234.5597207946
  0
VERTEX
  8
0
 62
7
  6
CONTINUOUS
 10
96.973147434
 20
234.6730702893
  0
VERTEX
  8
0
 62
7
  6
CONTINUOUS
 10
97.0571874436
 20
234.7887935592
  0
VERTEX
  8
0
 62
7
  6
CONTINUOUS
 10
97.1957544539
 20
234.9047928618
  0
VERTEX
  8
0
 62
7
  6
CONTINUOUS
 10
97.4087359988
 20
235.0132773258
  0
VERTEX
  8
0
 62
7
  6
CONTINUOUS
 10
97.7158664118
 20
235.101062561
  0
VERTEX
  8
0
 62
7
  6
CONTINUOUS
 10
98.1092130037
 20
235.1504793112
  0
VERTEX
  8
0
 62
7
  6
CONTINUOUS
 10
98.5362467343
 20
235.1504813951
  0
VERTEX
  8
0
 62
7
  6
CONTINUOUS
 10
98.9295976315
 20
235.1010686092
  0
VERTEX
  8
0
 62
7
  6
CONTINUOUS
 10
99.2367449694
 20
235.0132824912
  0
VERTEX
  8
0
 62
7
  6
CONTINUOUS
 10
99.4497378957
 20
234.9047940611
  0
VERTEX
  8
0
 62
7
  6
CONTINUOUS
 10
99.588306171
 20
234.7887941478
  0
VERTEX
  8
0
 62
7
  6
CONTINUOUS
 10
99.6723464289
 20
234.6730708365
  0
VERTEX
  8
0
 62
7
  6
CONTINUOUS
 10
99.7170009007
 20
234.5597208968
  0
VERTEX
  8
0
 62
7
  6
CONTINUOUS
 10
99.7307105729
 20
234.4480782538
  0
SEQEND
  0
POLYLINE
  8
0
 62
7
  6
CONTINUOUS
 66
1
 70
0
  0
VERTEX
  8
0
 62
7
  6
CONTINUOUS
 10
96.9950821958
 20
213.4767351006
  0
VERTEX
  8
0
 62
7
  6
CONTINUOUS
 10
96.9683544888
 20
220.3204343134
  0
VERTEX
  8
0
 62
7
  6
CONTINUOUS
 10
96.9415890821
 20
227.3104753893
  0
VERTEX
  8
0
 62
7
  6
CONTINUOUS
 10
96.914783588
 20
234.4480782538
  0
SEQEND
  0
LINE
  8
0
 62
7
  6
CONTINUOUS
 10
95.3227470804
 20
205.2737081179
 11
95.3227470804
 21
202.0306258474
  0
LINE
  8
2_FEATURE
 62
7
  6
CONTINUOUS
 10
95.7227470804
 20
202.7366423641
 11
95.7227470804
 21
201.5306258474
  0
POLYLINE
  8
2_FEATURE
 62
7
  6
CONTINUOUS
 66
1
 70
0
  0
VERTEX
  8
2_FEATURE
 62
7
  6
CONTINUOUS
 10
95.3227470804
 20
202.2647721273
  0
VERTEX
  8
2_FEATURE
 62
7
  6
CONTINUOUS
 10
95.3402189873
 20
202.4484975197
  0
VERTEX
  8
2_FEATURE
 62
7
  6
CONTINUOUS
 10
95.3872420446
 20
202.6248936169
  0
SEQEND
  0
POLYLINE
  8
0
 62
7
  6
CONTINUOUS
 66
1
 70
0
  0
VERTEX
  8
0
 62
7
  6
CONTINUOUS
 10
93.3727470804
 20
204.9668972225
  0
VERTEX
  8
0
 62
7
  6
CONTINUOUS
 10
93.355855509
 20
204.9515131795
  0
VERTEX
  8
0
 62
7
  6
CONTINUOUS
 10
93.3062113338
 20
204.9373721298
  0
VERTEX
  8
0
 62
7
  6
CONTINUOUS
 10
93.227009797
 20
204.925363904
  0
VERTEX
  8
0
 62
7
  6
CONTINUOUS
 10
93.1235016894
 20
204.916226162
  0
VERTEX
  8
0
 62
7
  6
CONTINUOUS
 10
93.0026699316
 20
204.9105116704
  0
VERTEX
  8
0
 62
7
  6
CONTINUOUS
 10
92.8727470804
 20
204.9085661784
  0
SEQEND
  0
POLYLINE
  8
0
 62
7
  6
CONTINUOUS
 66
1
 70
0
  0
VERTEX
  8
0
 62
7
  6
CONTINUOUS
 10
99.7307105729
 20
234.4480782538
  0
VERTEX
  8
0
 62
7
  6
CONTINUOUS
 10
99.7039050845
 20
227.3104769017
  0
VERTEX
  8
0
 62
7
  6
CONTINUOUS
 10
99.6771396787
 20
220.3204360003
  0
VERTEX
  8
0
 62
7
  6
CONTINUOUS
 10
99.6504119651
 20
213.4767351006
  0
SEQEND
  0
POLYLINE
  8
0
 62
7
  6
CONTINUOUS
 66
1
 70
0
  0
VERTEX
  8
0
 62
7
  6
CONTINUOUS
 10
99.6504119651
 20
213.4767351006
  0
VERTEX
  8
0
 62
7
  6
CONTINUOUS
 10
99.6219469794
 20
213.2085145987
  0
VERTEX
  8
0
 62
7
  6
CONTINUOUS
 10
99.5398441718
 20
212.9515837677
  0
VERTEX
  8
0
 62
7
  6
CONTINUOUS
 10
99.4074933876
 20
212.7165504059
  0
VERTEX
  8
0
 62
7
  6
CONTINUOUS
 10
99.2327412464
 20
212.5153543481
  0
VERTEX
  8
0
 62
7
  6
CONTINUOUS
 10
99.0306009189
 20
212.3589035385
  0
VERTEX
  8
0
 62
7
  6
CONTINUOUS
 10
98.8080107916
 20
212.2463432812
  0
VERTEX
  8
0
 62
7
  6
CONTINUOUS
 10
98.5698439565
 20
212.1776908308
  0
VERTEX
  8
0
 62
7
  6
CONTINUOUS
 10
98.3227400803
 20
212.1544978225
  0
VERTEX
  8
0
 62
7
  6
CONTINUOUS
 10
98.0756375118
 20
212.1776932348
  0
VERTEX
  8
0
 62
7
  6
CONTINUOUS
 10
97.8374722461
 20
212.2463476483
  0
VERTEX
  8
0
 62
7
  6
CONTINUOUS
 10
97.6148833466
 20
212.3589097736
  0
VERTEX
  8
0
 62
7
  6
CONTINUOUS
 10
97.4127427162
 20
212.5153639462
  0
VERTEX
  8
0
 62
7
  6
CONTINUOUS
 10
97.2380013104
 20
212.7165496449
  0
VERTEX
  8
0
 62
7
  6
CONTINUOUS
 10
97.105650236
 20
212.9515832014
  0
VERTEX
  8
0
 62
7
  6
CONTINUOUS
 10
97.0235472474
 20
213.2085142858
  0
VERTEX
  8
0
 62
7
  6
CONTINUOUS
 10
96.9950821958
 20
213.4767351006
  0
SEQEND
  0
POLYLINE
  8
2_FEATURE
 62
7
  6
CONTINUOUS
 66
1
 70
0
  0
VERTEX
  8
2_FEATURE
 62
7
  6
CONTINUOUS
 10
95.3872420446
 20
202.6248936169
  0
VERTEX
  8
2_FEATURE
 62
7
  6
CONTINUOUS
 10
95.4249361485
 20
202.7171620678
  0
VERTEX
  8
2_FEATURE
 62
7
  6
CONTINUOUS
 10
95.4648311507
 20
202.7887357801
  0
VERTEX
  8
2_FEATURE
 62
7
  6
CONTINUOUS
 10
95.5056009397
 20
202.8412533605
  0
VERTEX
  8
2_FEATURE
 62
7
  6
CONTINUOUS
 10
95.5462820567
 20
202.8759079644
  0
VERTEX
  8
2_FEATURE
 62
7
  6
CONTINUOUS
 10
95.584424806
 20
202.893180111
  0
VERTEX
  8
2_FEATURE
 62
7
  6
CONTINUOUS
 10
95.6204027615
 20
202.8954891748
  0
VERTEX
  8
2_FEATURE
 62
7
  6
CONTINUOUS
 10
95.6554788214
 20
202.8825962347
  0
VERTEX
  8
2_FEATURE
 62
7
  6
CONTINUOUS
 10
95.6875182977
 20
202.8524856415
  0
VERTEX
  8
2_FEATURE
 62
7
  6
CONTINUOUS
 10
95.7121739854
 20
202.804150314
  0
VERTEX
  8
2_FEATURE
 62
7
  6
CONTINUOUS
 10
95.7227470804
 20
202.7366423641
  0
SEQEND
  0
LINE
  8
0
 62
7
  6
CONTINUOUS
 10
100.8727470804
 20
202.0306258474
 11
100.8727470804
 21
207.1306258474
  0
POLYLINE
  8
0
 62
7
  6
CONTINUOUS
 66
1
 70
0
  0
VERTEX
  8
0
 62
7
  6
CONTINUOUS
 10
103.5227470804
 20
206.7943544723
  0
VERTEX
  8
0
 62
7
  6
CONTINUOUS
 10
103.5396386519
 20
206.8097385152
  0
VERTEX
  8
0
 62
7
  6
CONTINUOUS
 10
103.5892828271
 20
206.823879565
  0
VERTEX
  8
0
 62
7
  6
CONTINUOUS
 10
103.6684843639
 20
206.8358877908
  0
VERTEX
  8
0
 62
7
  6
CONTINUOUS
 10
103.7719924715
 20
206.8450255327
  0
VERTEX
  8
0
 62
7
  6
CONTINUOUS
 10
103.8928242293
 20
206.8507400244
  0
VERTEX
  8
0
 62
7
  6
CONTINUOUS
 10
104.0227470804
 20
206.8526855163
  0
SEQEND
  0
LINE
  8
0
 62
7
  6
CONTINUOUS
 10
103.5227470804
 20
209.5306258474
 11
103.5227470804
 21
202.0306258474
  0
POLYLINE
  8
0
 62
7
  6
CONTINUOUS
 66
1
 70
0
  0
VERTEX
  8
0
 62
7
  6
CONTINUOUS
 10
103.5040995664
 20
207.1306258474
  0
VERTEX
  8
0
 62
7
  6
CONTINUOUS
 10
103.5145076899
 20
207.1766483169
  0
VERTEX
  8
0
 62
7
  6
CONTINUOUS
 10
103.5206988655
 20
207.221823694
  0
VERTEX
  8
0
 62
7
  6
CONTINUOUS
 10
103.5227470804
 20
207.2659025427
  0
SEQEND
  0
LINE
  8
0
 62
7
  6
CONTINUOUS
 10
107.3731127553
 20
209.9887236632
 11
107.159735351
 21
234.4393523829
  0
LINE
  8
0
 62
7
  6
CONTINUOUS
 10
107.4727470804
 20
202.0306286353
 11
107.4727470804
 21
209.5306258474
  0
LINE
  8
0
 62
7
  6
CONTINUOUS
 10
107.6727470804
 20
203.7306258474
 11
107.6727470804
 21
209.5306258474
  0
LINE
  8
0
 62
9
  6
CONTINUOUS
 10
31.9758056928
 20
144.5740684511
 11
32.1853644096
 21
140.8343740642
  0
POLYLINE
  8
0
 62
9
  6
CONTINUOUS
 66
1
 70
0
  0
VERTEX
  8
0
 62
9
  6
CONTINUOUS
 10
31.973440173
 20
144.6569378856
  0
VERTEX
  8
0
 62
9
  6
CONTINUOUS
 10
31.974964062
 20
144.5939955116
  0
VERTEX
  8
0
 62
9
  6
CONTINUOUS
 10
31.9758056928
 20
144.5740684511
  0
SEQEND
  0
POLYLINE
  8
0
 62
9
  6
CONTINUOUS
 66
1
 70
0
  0
VERTEX
  8
0
 62
9
  6
CONTINUOUS
 10
31.9709810313
 20
144.8546771306
  0
VERTEX
  8
0
 62
9
  6
CONTINUOUS
 10
31.9715338874
 20
144.7966122937
  0
VERTEX
  8
0
 62
9
  6
CONTINUOUS
 10
31.973440173
 20
144.6569378856
  0
SEQEND
  0
LINE
  8
0
 62
7
  6
CONTINUOUS
 10
31.9723814055
 20
144.2258515167
 11
31.9710962176
 21
144.7187782301
  0
LINE
  8
0
 62
7
  6
CONTINUOUS
 10
31.6727470804
 20
135.1592785241
 11
31.6727470804
 21
144.2258515167
  0
LINE
  8
0
 62
7
  6
CONTINUOUS
 10
31.8727470804
 20
127.0689987024
 11
31.8727470804
 21
134.5592785241
  0
LINE
  8
0
 62
7
  6
CONTINUOUS
 10
31.8727470804
 20
144.8286675927
 11
31.8727470804
 21
145.7473683688
  0
LINE
  8
0
 62
7
  6
CONTINUOUS
 10
31.9710962176
 20
144.7187782301
 11
31.9709810313
 21
144.8546771306
  0
LINE
  8
0
 62
7
  6
CONTINUOUS
 10
31.9723814057
 20
138.3787925757
 11
31.9723814055
 21
144.2258515167
  0
LINE
  8
0
 62
9
  6
CONTINUOUS
 10
32.1727470804
 20
137.5746899359
 11
32.1727470804
 21
135.1592785241
  0
LINE
  8
0
 62
9
  6
CONTINUOUS
 10
32.1857588099
 20
139.8339986995
 11
32.1857588099
 21
140.833979664
  0
POLYLINE
  8
0
 62
7
  6
CONTINUOUS
 66
1
 70
0
  0
VERTEX
  8
0
 62
7
  6
CONTINUOUS
 10
31.9709810772
 20
144.8546783031
  0
VERTEX
  8
0
 62
7
  6
CONTINUOUS
 10
31.9811520009
 20
144.9880151722
  0
VERTEX
  8
0
 62
7
  6
CONTINUOUS
 10
32.0128616331
 20
145.1043576485
  0
VERTEX
  8
0
 62
7
  6
CONTINUOUS
 10
32.0703512429
 20
145.2065610086
  0
VERTEX
  8
0
 62
7
  6
CONTINUOUS
 10
32.1529475671
 20
145.2938031144
  0
VERTEX
  8
0
 62
7
  6
CONTINUOUS
 10
32.2337076286
 20
145.3567813068
  0
VERTEX
  8
0
 62
7
  6
CONTINUOUS
 10
32.3029724164
 20
145.4066593508
  0
VERTEX
  8
0
 62
7
  6
CONTINUOUS
 10
32.358113659
 20
145.4512496422
  0
VERTEX
  8
0
 62
7
  6
CONTINUOUS
 10
32.3966390799
 20
145.4940133505
  0
VERTEX
  8
0
 62
7
  6
CONTINUOUS
 10
32.4168096162
 20
145.5351728894
  0
VERTEX
  8
0
 62
7
  6
CONTINUOUS
 10
32.4197756484
 20
145.5745893583
  0
VERTEX
  8
0
 62
7
  6
CONTINUOUS
 10
32.405974904
 20
145.6153317571
  0
VERTEX
  8
0
 62
7
  6
CONTINUOUS
 10
32.3727470804
 20
145.6588634094
  0
SEQEND
  0
POLYLINE
  8
0
 62
9
  6
CONTINUOUS
 66
1
 70
0
  0
VERTEX
  8
0
 62
9
  6
CONTINUOUS
 10
31.9898581316
 20
139.4421675018
  0
VERTEX
  8
0
 62
9
  6
CONTINUOUS
 10
31.9864245347
 20
139.4040435972
  0
VERTEX
  8
0
 62
9
  6
CONTINUOUS
 10
31.9831187749
 20
139.3056672522
  0
VERTEX
  8
0
 62
9
  6
CONTINUOUS
 10
31.979990769
 20
139.1495766236
  0
VERTEX
  8
0
 62
9
  6
CONTINUOUS
 10
31.9771125604
 20
138.9394446029
  0
VERTEX
  8
0
 62
9
  6
CONTINUOUS
 10
31.9745559076
 20
138.6804947787
  0
VERTEX
  8
0
 62
9
  6
CONTINUOUS
 10
31.9723814057
 20
138.3787925757
  0
SEQEND
  0
LINE
  8
0
 62
9
  6
CONTINUOUS
 10
32.4757866544
 20
145.0681131445
 11
32.6850305764
 21
141.3340364485
  0
POLYLINE
  8
0
 62
9
  6
CONTINUOUS
 66
1
 70
0
  0
VERTEX
  8
0
 62
9
  6
CONTINUOUS
 10
34.4684026857
 20
144.551462687
  0
VERTEX
  8
0
 62
9
  6
CONTINUOUS
 10
34.4628680814
 20
144.6577846269
  0
VERTEX
  8
0
 62
9
  6
CONTINUOUS
 10
34.4188801942
 20
144.8659286461
  0
VERTEX
  8
0
 62
9
  6
CONTINUOUS
 10
34.3330462828
 20
145.0597108054
  0
VERTEX
  8
0
 62
9
  6
CONTINUOUS
 10
34.2095056588
 20
145.2305836713
  0
VERTEX
  8
0
 62
9
  6
CONTINUOUS
 10
34.1353402107
 20
145.3050932708
  0
VERTEX
  8
0
 62
9
  6
CONTINUOUS
 10
33.9664279727
 20
145.428384007
  0
VERTEX
  8
0
 62
9
  6
CONTINUOUS
 10
33.7763425909
 20
145.5133867971
  0
VERTEX
  8
0
 62
9
  6
CONTINUOUS
 10
33.573281029
 20
145.5567144548
  0
VERTEX
  8
0
 62
9
  6
CONTINUOUS
 10
33.4697075065
 20
145.5621578379
  0
SEQEND
  0
POLYLINE
  8
0
 62
9
  6
CONTINUOUS
 66
1
 70
0
  0
VERTEX
  8
0
 62
9
  6
CONTINUOUS
 10
32.4684026857
 20
145.5621578379
  0
VERTEX
  8
0
 62
9
  6
CONTINUOUS
 10
32.4685922132
 20
145.4585177926
  0
VERTEX
  8
0
 62
9
  6
CONTINUOUS
 10
32.4691541216
 20
145.3591800371
  0
VERTEX
  8
0
 62
9
  6
CONTINUOUS
 10
32.4700497831
 20
145.2698153108
  0
VERTEX
  8
0
 62
9
  6
CONTINUOUS
 10
32.4711591206
 20
145.1974838099
  0
VERTEX
  8
0
 62
9
  6
CONTINUOUS
 10
32.4724794161
 20
145.1390538678
  0
VERTEX
  8
0
 62
9
  6
CONTINUOUS
 10
32.4739894936
 20
145.0956463785
  0
VERTEX
  8
0
 62
9
  6
CONTINUOUS
 10
32.4757866544
 20
145.0681131445
  0
SEQEND
  0
LINE
  8
0
 62
9
  6
CONTINUOUS
 10
32.3727470804
 20
126.5689987024
 11
32.3727470804
 21
134.5592785241
  0
LINE
  8
0
 62
9
  6
CONTINUOUS
 10
32.3727470804
 20
145.6588634094
 11
32.3727470804
 21
146.2473683688
  0
LINE
  8
0
 62
9
  6
CONTINUOUS
 10
33.4697075065
 20
145.0681131445
 11
33.4697075065
 21
145.5621578379
  0
POLYLINE
  8
0
 62
9
  6
CONTINUOUS
 66
1
 70
0
  0
VERTEX
  8
0
 62
9
  6
CONTINUOUS
 10
34.4684026857
 20
144.551462687
  0
VERTEX
  8
0
 62
9
  6
CONTINUOUS
 10
34.468204871
 20
143.1832144372
  0
VERTEX
  8
0
 62
9
  6
CONTINUOUS
 10
34.4676256525
 20
142.8507858203
  0
VERTEX
  8
0
 62
9
  6
CONTINUOUS
 10
34.4666822396
 20
142.5384650398
  0
VERTEX
  8
0
 62
9
  6
CONTINUOUS
 10
34.465402508
 20
142.2554624533
  0
VERTEX
  8
0
 62
9
  6
CONTINUOUS
 10
34.4638243028
 20
142.0101476422
  0
VERTEX
  8
0
 62
9
  6
CONTINUOUS
 10
34.4619942889
 20
141.8097763146
  0
VERTEX
  8
0
 62
9
  6
CONTINUOUS
 10
34.4599663526
 20
141.6602635474
  0
VERTEX
  8
0
 62
9
  6
CONTINUOUS
 10
34.4577795044
 20
141.5654367236
  0
VERTEX
  8
0
 62
9
  6
CONTINUOUS
 10
34.455426617
 20
141.52967093
  0
SEQEND
  0
POLYLINE
  8
0
 62
9
  6
CONTINUOUS
 66
1
 70
0
  0
VERTEX
  8
0
 62
9
  6
CONTINUOUS
 10
33.9684217242
 20
144.551462687
  0
VERTEX
  8
0
 62
9
  6
CONTINUOUS
 10
33.9682239088
 20
143.2698095219
  0
VERTEX
  8
0
 62
9
  6
CONTINUOUS
 10
33.9676446908
 20
143.0204880592
  0
VERTEX
  8
0
 62
9
  6
CONTINUOUS
 10
33.966701278
 20
142.7862474739
  0
VERTEX
  8
0
 62
9
  6
CONTINUOUS
 10
33.9654215465
 20
142.573995534
  0
VERTEX
  8
0
 62
9
  6
CONTINUOUS
 10
33.9638433413
 20
142.3900094256
  0
VERTEX
  8
0
 62
9
  6
CONTINUOUS
 10
33.9620133274
 20
142.23973093
  0
VERTEX
  8
0
 62
9
  6
CONTINUOUS
 10
33.9599853919
 20
142.1275963545
  0
VERTEX
  8
0
 62
9
  6
CONTINUOUS
 10
33.9577985463
 20
142.0564762368
  0
VERTEX
  8
0
 62
9
  6
CONTINUOUS
 10
33.9554456555
 20
142.0296518915
  0
SEQEND
  0
POLYLINE
  8
0
 62
9
  6
CONTINUOUS
 66
1
 70
0
  0
VERTEX
  8
0
 62
9
  6
CONTINUOUS
 10
32.4720011642
 20
138.0428597595
  0
VERTEX
  8
0
 62
9
  6
CONTINUOUS
 10
32.4702736776
 20
137.7528841036
  0
VERTEX
  8
0
 62
9
  6
CONTINUOUS
 10
32.4690820466
 20
137.4377564265
  0
VERTEX
  8
0
 62
9
  6
CONTINUOUS
 10
32.4684026857
 20
136.9425482639
  0
SEQEND
  0
POLYLINE
  8
0
 62
9
  6
CONTINUOUS
 66
1
 70
0
  0
VERTEX
  8
0
 62
9
  6
CONTINUOUS
 10
33.3195090585
 20
142.3877364862
  0
VERTEX
  8
0
 62
9
  6
CONTINUOUS
 10
33.3177513773
 20
142.3225363708
  0
VERTEX
  8
0
 62
9
  6
CONTINUOUS
 10
33.3249345593
 20
142.1989759939
  0
VERTEX
  8
0
 62
9
  6
CONTINUOUS
 10
33.3450515945
 20
142.0814628624
  0
VERTEX
  8
0
 62
9
  6
CONTINUOUS
 10
33.3769000112
 20
141.9706653387
  0
VERTEX
  8
0
 62
9
  6
CONTINUOUS
 10
33.4191658747
 20
141.8676707202
  0
VERTEX
  8
0
 62
9
  6
CONTINUOUS
 10
33.4703785254
 20
141.7734490136
  0
VERTEX
  8
0
 62
9
  6
CONTINUOUS
 10
33.4971232844
 20
141.7323618963
  0
VERTEX
  8
0
 62
9
  6
CONTINUOUS
 10
33.5491838096
 20
141.6634320504
  0
VERTEX
  8
0
 62
9
  6
CONTINUOUS
 10
33.5997395872
 20
141.6071297943
  0
VERTEX
  8
0
 62
9
  6
CONTINUOUS
 10
33.6475572919
 20
141.5613332025
  0
VERTEX
  8
0
 62
9
  6
CONTINUOUS
 10
33.6919746198
 20
141.524132975
  0
VERTEX
  8
0
 62
9
  6
CONTINUOUS
 10
33.7385917657
 20
141.4898179846
  0
VERTEX
  8
0
 62
9
  6
CONTINUOUS
 10
33.7674705585
 20
141.4707225171
  0
SEQEND
  0
LINE
  8
0
 62
9
  6
CONTINUOUS
 10
33.4697075065
 20
145.0681131445
 11
33.3195090585
 21
142.3877364862
  0
LINE
  8
0
 62
9
  6
CONTINUOUS
 10
33.9684217242
 20
144.551462687
 11
33.819490285
 21
141.893696521
  0
POLYLINE
  8
0
 62
7
  6
CONTINUOUS
 66
1
 70
0
  0
VERTEX
  8
0
 62
7
  6
CONTINUOUS
 10
32.1853644096
 20
140.8343740642
  0
VERTEX
  8
0
 62
7
  6
CONTINUOUS
 10
32.1979425008
 20
140.9453985195
  0
VERTEX
  8
0
 62
7
  6
CONTINUOUS
 10
32.2348860132
 20
141.0508649822
  0
VERTEX
  8
0
 62
7
  6
CONTINUOUS
 10
32.2943631655
 20
141.1455278524
  0
VERTEX
  8
0
 62
7
  6
CONTINUOUS
 10
32.3734337293
 20
141.2246610777
  0
VERTEX
  8
0
 62
7
  6
CONTINUOUS
 10
32.468183488
 20
141.2842895208
  0
VERTEX
  8
0
 62
7
  6
CONTINUOUS
 10
32.5739093322
 20
141.3213882932
  0
VERTEX
  8
0
 62
7
  6
CONTINUOUS
 10
32.6850305764
 20
141.3340364485
  0
SEQEND
  0
POLYLINE
  8
0
 62
9
  6
CONTINUOUS
 66
1
 70
0
  0
VERTEX
  8
0
 62
9
  6
CONTINUOUS
 10
32.1857588099
 20
140.833979664
  0
VERTEX
  8
0
 62
9
  6
CONTINUOUS
 10
32.2028034596
 20
140.9633781298
  0
VERTEX
  8
0
 62
9
  6
CONTINUOUS
 10
32.2527562482
 20
141.0839591541
  0
VERTEX
  8
0
 62
9
  6
CONTINUOUS
 10
32.3322133037
 20
141.1875061316
  0
VERTEX
  8
0
 62
9
  6
CONTINUOUS
 10
32.4357602812
 20
141.2669631872
  0
VERTEX
  8
0
 62
9
  6
CONTINUOUS
 10
32.5563413056
 20
141.3169159757
  0
VERTEX
  8
0
 62
9
  6
CONTINUOUS
 10
32.6857397714
 20
141.3339606255
  0
SEQEND
  0
POLYLINE
  8
0
 62
9
  6
CONTINUOUS
 66
1
 70
0
  0
VERTEX
  8
0
 62
9
  6
CONTINUOUS
 10
32.4898390931
 20
138.9422436542
  0
VERTEX
  8
0
 62
9
  6
CONTINUOUS
 10
32.4880447371
 20
138.932583921
  0
VERTEX
  8
0
 62
9
  6
CONTINUOUS
 10
32.4845809148
 20
138.8745904638
  0
VERTEX
  8
0
 62
9
  6
CONTINUOUS
 10
32.4812662883
 20
138.7663678758
  0
VERTEX
  8
0
 62
9
  6
CONTINUOUS
 10
32.4781845536
 20
138.6107083671
  0
VERTEX
  8
0
 62
9
  6
CONTINUOUS
 10
32.4754159961
 20
138.4116722619
  0
VERTEX
  8
0
 62
9
  6
CONTINUOUS
 10
32.4720011642
 20
138.0428597595
  0
SEQEND
  0
POLYLINE
  8
0
 62
7
  6
CONTINUOUS
 66
1
 70
0
  0
VERTEX
  8
0
 62
7
  6
CONTINUOUS
 10
32.4684026857
 20
136.9425482639
  0
VERTEX
  8
0
 62
7
  6
CONTINUOUS
 10
32.3565096222
 20
137.1684050815
  0
VERTEX
  8
0
 62
7
  6
CONTINUOUS
 10
32.2570777784
 20
137.3790889164
  0
VERTEX
  8
0
 62
7
  6
CONTINUOUS
 10
32.1727470804
 20
137.5746899359
  0
SEQEND
  0
POLYLINE
  8
0
 62
9
  6
CONTINUOUS
 66
1
 70
0
  0
VERTEX
  8
0
 62
9
  6
CONTINUOUS
 10
32.2527689367
 20
139.5840587523
  0
VERTEX
  8
0
 62
9
  6
CONTINUOUS
 10
32.2028116698
 20
139.7046211425
  0
VERTEX
  8
0
 62
9
  6
CONTINUOUS
 10
32.1857588099
 20
139.8339986995
  0
SEQEND
  0
POLYLINE
  8
0
 62
7
  6
CONTINUOUS
 66
1
 70
0
  0
VERTEX
  8
0
 62
7
  6
CONTINUOUS
 10
32.1727470804
 20
137.5746899359
  0
VERTEX
  8
0
 62
7
  6
CONTINUOUS
 10
32.0611026316
 20
137.8621795156
  0
VERTEX
  8
0
 62
7
  6
CONTINUOUS
 10
31.9923177321
 20
138.1337125066
  0
VERTEX
  8
0
 62
7
  6
CONTINUOUS
 10
31.9723814134
 20
138.3787923516
  0
SEQEND
  0
POLYLINE
  8
0
 62
9
  6
CONTINUOUS
 66
1
 70
0
  0
VERTEX
  8
0
 62
9
  6
CONTINUOUS
 10
33.9554456555
 20
142.0296518915
  0
VERTEX
  8
0
 62
9
  6
CONTINUOUS
 10
33.9724903053
 20
141.9002534257
  0
VERTEX
  8
0
 62
9
  6
CONTINUOUS
 10
34.0224430938
 20
141.7796724013
  0
VERTEX
  8
0
 62
9
  6
CONTINUOUS
 10
34.1019001494
 20
141.6761254238
  0
VERTEX
  8
0
 62
9
  6
CONTINUOUS
 10
34.2054471269
 20
141.5966683683
  0
VERTEX
  8
0
 62
9
  6
CONTINUOUS
 10
34.3260281512
 20
141.5467155797
  0
VERTEX
  8
0
 62
9
  6
CONTINUOUS
 10
34.455426617
 20
141.52967093
  0
SEQEND
  0
POLYLINE
  8
0
 62
9
  6
CONTINUOUS
 66
1
 70
0
  0
VERTEX
  8
0
 62
9
  6
CONTINUOUS
 10
33.819490285
 20
141.893696521
  0
VERTEX
  8
0
 62
9
  6
CONTINUOUS
 10
33.8048259138
 20
142.011830161
  0
VERTEX
  8
0
 62
9
  6
CONTINUOUS
 10
33.7620046545
 20
142.1231100166
  0
VERTEX
  8
0
 62
9
  6
CONTINUOUS
 10
33.6935109629
 20
142.2210797804
  0
VERTEX
  8
0
 62
9
  6
CONTINUOUS
 10
33.6508263227
 20
142.2632576284
  0
VERTEX
  8
0
 62
9
  6
CONTINUOUS
 10
33.5516793213
 20
142.3309381361
  0
VERTEX
  8
0
 62
9
  6
CONTINUOUS
 10
33.4390624082
 20
142.3732509551
  0
VERTEX
  8
0
 62
9
  6
CONTINUOUS
 10
33.3195093234
 20
142.3877412144
  0
SEQEND
  0
LINE
  8
0
 62
9
  6
CONTINUOUS
 10
35.3227470804
 20
126.5689987024
 11
35.3227470804
 21
134.920629036
  0
LINE
  8
0
 62
7
  6
CONTINUOUS
 10
35.8227470804
 20
127.0689987024
 11
35.8227470804
 21
133.920629036
  0
LINE
  8
0
 62
7
  6
CONTINUOUS
 10
36.8727470804
 20
146.7473683688
 11
36.8727470804
 21
153.5989987024
  0
LINE
  8
0
 62
9
  6
CONTINUOUS
 10
37.3727470804
 20
154.0989987024
 11
37.3727470804
 21
145.7473683688
  0
LINE
  8
0
 62
9
  6
CONTINUOUS
 10
32.1857588099
 20
139.8339986995
 11
31.9898581316
 21
139.4421675018
  0
LINE
  8
0
 62
9
  6
CONTINUOUS
 10
33.1857207329
 20
140.3339987024
 11
32.4898390931
 21
138.9422436542
  0
LINE
  8
0
 62
7
  6
CONTINUOUS
 10
31.756614713
 20
144.503040717
 11
31.7888794479
 21
144.5514783925
  0
POLYLINE
  8
0
 62
7
  6
CONTINUOUS
 66
1
 70
0
  0
VERTEX
  8
0
 62
7
  6
CONTINUOUS
 10
36.8727470804
 20
151.0837435738
  0
VERTEX
  8
0
 62
7
  6
CONTINUOUS
 10
36.8895192036
 20
151.1045373945
  0
VERTEX
  8
0
 62
7
  6
CONTINUOUS
 10
36.9389108721
 20
151.1236833569
  0
VERTEX
  8
0
 62
7
  6
CONTINUOUS
 10
37.0178972491
 20
151.1399752328
  0
VERTEX
  8
0
 62
7
  6
CONTINUOUS
 10
37.121364501
 20
151.1523991077
  0
VERTEX
  8
0
 62
7
  6
CONTINUOUS
 10
37.2423948122
 20
151.1601842109
  0
VERTEX
  8
0
 62
7
  6
CONTINUOUS
 10
37.3727470804
 20
151.1628391835
  0
SEQEND
  0
LINE
  8
0
 62
9
  6
CONTINUOUS
 10
35.8227470804
 20
133.920629036
 11
35.3227470804
 21
134.920629036
  0
LINE
  8
0
 62
9
  6
CONTINUOUS
 10
33.1857207329
 20
140.3339987024
 11
32.6857397714
 21
141.3339606255
  0
LINE
  8
0
 62
9
  6
CONTINUOUS
 10
40.2059048948
 20
141.8637955021
 11
40.0270724367
 21
148.1793831208
  0
POLYLINE
  8
0
 62
9
  6
CONTINUOUS
 66
1
 70
0
  0
VERTEX
  8
0
 62
9
  6
CONTINUOUS
 10
40.0272705024
 20
143.2696464158
  0
VERTEX
  8
0
 62
9
  6
CONTINUOUS
 10
40.0278496359
 20
143.0204353965
  0
VERTEX
  8
0
 62
9
  6
CONTINUOUS
 10
40.028792677
 20
142.7862888107
  0
VERTEX
  8
0
 62
9
  6
CONTINUOUS
 10
40.0300717768
 20
142.5741116801
  0
VERTEX
  8
0
 62
9
  6
CONTINUOUS
 10
40.0316491378
 20
142.3901744064
  0
VERTEX
  8
0
 62
9
  6
CONTINUOUS
 10
40.0334781594
 20
142.2399128697
  0
VERTEX
  8
0
 62
9
  6
CONTINUOUS
 10
40.0355050598
 20
142.1277581047
  0
VERTEX
  8
0
 62
9
  6
CONTINUOUS
 10
40.037691278
 20
142.0565716886
  0
VERTEX
  8
0
 62
9
  6
CONTINUOUS
 10
40.0400485054
 20
142.0296518915
  0
SEQEND
  0
POLYLINE
  8
0
 62
9
  6
CONTINUOUS
 66
1
 70
0
  0
VERTEX
  8
0
 62
9
  6
CONTINUOUS
 10
39.5272895402
 20
143.1829969624
  0
VERTEX
  8
0
 62
9
  6
CONTINUOUS
 10
39.5278686742
 20
142.8507156033
  0
VERTEX
  8
0
 62
9
  6
CONTINUOUS
 10
39.5288117155
 20
142.5385201555
  0
VERTEX
  8
0
 62
9
  6
CONTINUOUS
 10
39.5300908152
 20
142.2556173147
  0
VERTEX
  8
0
 62
9
  6
CONTINUOUS
 10
39.5316681762
 20
142.0103676165
  0
VERTEX
  8
0
 62
9
  6
CONTINUOUS
 10
39.533497198
 20
141.8100189008
  0
VERTEX
  8
0
 62
9
  6
CONTINUOUS
 10
39.535524099
 20
141.6604792142
  0
VERTEX
  8
0
 62
9
  6
CONTINUOUS
 10
39.5377103199
 20
141.5655639927
  0
VERTEX
  8
0
 62
9
  6
CONTINUOUS
 10
39.5400675439
 20
141.52967093
  0
SEQEND
  0
LINE
  8
0
 62
9
  6
CONTINUOUS
 10
39.5270914752
 20
148.1793831208
 11
39.5272895402
 21
143.1829969624
  0
LINE
  8
0
 62
9
  6
CONTINUOUS
 10
40.0270724367
 20
148.1793831208
 11
40.0272705024
 21
143.2696464158
  0
POLYLINE
  8
0
 62
9
  6
CONTINUOUS
 66
1
 70
0
  0
VERTEX
  8
0
 62
9
  6
CONTINUOUS
 10
40.2059048959
 20
141.8637955009
  0
VERTEX
  8
0
 62
9
  6
CONTINUOUS
 10
40.2055259738
 20
141.7960495143
  0
VERTEX
  8
0
 62
9
  6
CONTINUOUS
 10
40.1981160141
 20
141.7358041625
  0
VERTEX
  8
0
 62
9
  6
CONTINUOUS
 10
40.1847298396
 20
141.6793909711
  0
VERTEX
  8
0
 62
9
  6
CONTINUOUS
 10
40.1657209808
 20
141.6260849878
  0
VERTEX
  8
0
 62
9
  6
CONTINUOUS
 10
40.141597462
 20
141.5764361658
  0
VERTEX
  8
0
 62
9
  6
CONTINUOUS
 10
40.112987364
 20
141.5310008495
  0
VERTEX
  8
0
 62
9
  6
CONTINUOUS
 10
40.0841389167
 20
141.4942450532
  0
VERTEX
  8
0
 62
9
  6
CONTINUOUS
 10
40.0565669436
 20
141.4650423611
  0
VERTEX
  8
0
 62
9
  6
CONTINUOUS
 10
40.0304630374
 20
141.4414979482
  0
VERTEX
  8
0
 62
9
  6
CONTINUOUS
 10
40.0065141692
 20
141.4227824258
  0
VERTEX
  8
0
 62
9
  6
CONTINUOUS
 10
39.9817671218
 20
141.4059277501
  0
SEQEND
  0
POLYLINE
  8
0
 62
9
  6
CONTINUOUS
 66
1
 70
0
  0
VERTEX
  8
0
 62
9
  6
CONTINUOUS
 10
40.0270724367
 20
148.1793831208
  0
VERTEX
  8
0
 62
9
  6
CONTINUOUS
 10
40.0368869605
 20
148.2928674263
  0
VERTEX
  8
0
 62
9
  6
CONTINUOUS
 10
40.0665013434
 20
148.4018147111
  0
VERTEX
  8
0
 62
9
  6
CONTINUOUS
 10
40.1141577211
 20
148.5007402463
  0
VERTEX
  8
0
 62
9
  6
CONTINUOUS
 10
40.1774322472
 20
148.586025955
  0
VERTEX
  8
0
 62
9
  6
CONTINUOUS
 10
40.2532581116
 20
148.6546909352
  0
VERTEX
  8
0
 62
9
  6
CONTINUOUS
 10
40.3386282237
 20
148.7048936468
  0
VERTEX
  8
0
 62
9
  6
CONTINUOUS
 10
40.4306423167
 20
148.7353891503
  0
VERTEX
  8
0
 62
9
  6
CONTINUOUS
 10
40.5245592745
 20
148.7452866819
  0
SEQEND
  0
POLYLINE
  8
0
 62
9
  6
CONTINUOUS
 66
1
 70
0
  0
VERTEX
  8
0
 62
9
  6
CONTINUOUS
 10
39.5270914752
 20
148.1793831208
  0
VERTEX
  8
0
 62
9
  6
CONTINUOUS
 10
39.5472223174
 20
148.3882305815
  0
VERTEX
  8
0
 62
9
  6
CONTINUOUS
 10
39.6069367914
 20
148.5888884972
  0
VERTEX
  8
0
 62
9
  6
CONTINUOUS
 10
39.7026984818
 20
148.7711882255
  0
VERTEX
  8
0
 62
9
  6
CONTINUOUS
 10
39.8296426079
 20
148.9284523241
  0
VERTEX
  8
0
 62
9
  6
CONTINUOUS
 10
39.9816133048
 20
149.0551724807
  0
VERTEX
  8
0
 62
9
  6
CONTINUOUS
 10
40.1525861385
 20
149.1479491729
  0
VERTEX
  8
0
 62
9
  6
CONTINUOUS
 10
40.3367514966
 20
149.2044799988
  0
VERTEX
  8
0
 62
9
  6
CONTINUOUS
 10
40.5245592745
 20
149.2231085993
  0
SEQEND
  0
LINE
  8
0
 62
9
  6
CONTINUOUS
 10
32.3323511659
 20
139.4806291355
 11
32.2529008789
 21
139.5841568774
  0
POLYLINE
  8
0
 62
7
  6
CONTINUOUS
 66
1
 70
0
  0
VERTEX
  8
0
 62
7
  6
CONTINUOUS
 10
39.6950821958
 20
138.9680948509
  0
VERTEX
  8
0
 62
7
  6
CONTINUOUS
 10
39.6683544888
 20
139.087552065
  0
VERTEX
  8
0
 62
7
  6
CONTINUOUS
 10
39.6415890821
 20
139.2095636858
  0
VERTEX
  8
0
 62
7
  6
CONTINUOUS
 10
39.614783588
 20
139.3341510073
  0
SEQEND
  0
LINE
  8
0
 62
9
  6
CONTINUOUS
 10
40.7058860049
 20
142.3416121716
 11
40.5245592745
 21
148.7452866819
  0
POLYLINE
  8
0
 62
9
  6
CONTINUOUS
 66
1
 70
0
  0
VERTEX
  8
0
 62
9
  6
CONTINUOUS
 10
41.3396081921
 20
142.341613446
  0
VERTEX
  8
0
 62
9
  6
CONTINUOUS
 10
41.3396881035
 20
142.2789903978
  0
VERTEX
  8
0
 62
9
  6
CONTINUOUS
 10
41.3500350839
 20
142.160858458
  0
VERTEX
  8
0
 62
9
  6
CONTINUOUS
 10
41.3727178777
 20
142.0485304428
  0
VERTEX
  8
0
 62
9
  6
CONTINUOUS
 10
41.4066483212
 20
141.942292185
  0
VERTEX
  8
0
 62
9
  6
CONTINUOUS
 10
41.4506175779
 20
141.8431559041
  0
VERTEX
  8
0
 62
9
  6
CONTINUOUS
 10
41.5034908073
 20
141.7517126678
  0
VERTEX
  8
0
 62
9
  6
CONTINUOUS
 10
41.531337577
 20
141.7112040003
  0
VERTEX
  8
0
 62
9
  6
CONTINUOUS
 10
41.5856847204
 20
141.6428343298
  0
VERTEX
  8
0
 62
9
  6
CONTINUOUS
 10
41.6383654722
 20
141.5869253093
  0
VERTEX
  8
0
 62
9
  6
CONTINUOUS
 10
41.6881543572
 20
141.5413972046
  0
VERTEX
  8
0
 62
9
  6
CONTINUOUS
 10
41.7337863139
 20
141.504838016
  0
VERTEX
  8
0
 62
9
  6
CONTINUOUS
 10
41.7824154607
 20
141.4705543971
  0
VERTEX
  8
0
 62
9
  6
CONTINUOUS
 10
41.8131269829
 20
141.4511250479
  0
SEQEND
  0
LINE
  8
0
 62
9
  6
CONTINUOUS
 10
40.5245592745
 20
148.7452866819
 11
40.5245592745
 21
149.2231085993
  0
LINE
  8
0
 62
9
  6
CONTINUOUS
 10
41.5209348864
 20
149.2231085993
 11
41.5209348864
 21
148.7452866819
  0
LINE
  8
0
 62
9
  6
CONTINUOUS
 10
41.5209348864
 20
148.7452866819
 11
41.3396081921
 21
142.341613446
  0
LINE
  8
0
 62
9
  6
CONTINUOUS
 10
42.0184217242
 20
148.1793831208
 11
41.8387402901
 21
141.8315928685
  0
POLYLINE
  8
0
 62
9
  6
CONTINUOUS
 66
1
 70
0
  0
VERTEX
  8
0
 62
9
  6
CONTINUOUS
 10
42.505426617
 20
141.52967093
  0
VERTEX
  8
0
 62
9
  6
CONTINUOUS
 10
42.5076931357
 20
141.5629502378
  0
VERTEX
  8
0
 62
9
  6
CONTINUOUS
 10
42.5098628821
 20
141.6543264807
  0
VERTEX
  8
0
 62
9
  6
CONTINUOUS
 10
42.5118979642
 20
141.801124974
  0
VERTEX
  8
0
 62
9
  6
CONTINUOUS
 10
42.5137383822
 20
141.9990094757
  0
VERTEX
  8
0
 62
9
  6
CONTINUOUS
 10
42.5153297532
 20
142.2421312404
  0
VERTEX
  8
0
 62
9
  6
CONTINUOUS
 10
42.5166250565
 20
142.5233067182
  0
VERTEX
  8
0
 62
9
  6
CONTINUOUS
 10
42.5175861014
 20
142.8342663759
  0
VERTEX
  8
0
 62
9
  6
CONTINUOUS
 10
42.518188329
 20
143.1691371758
  0
VERTEX
  8
0
 62
9
  6
CONTINUOUS
 10
42.5184026857
 20
148.1793831208
  0
SEQEND
  0
POLYLINE
  8
0
 62
9
  6
CONTINUOUS
 66
1
 70
0
  0
VERTEX
  8
0
 62
9
  6
CONTINUOUS
 10
42.0054456555
 20
142.0296518915
  0
VERTEX
  8
0
 62
9
  6
CONTINUOUS
 10
42.0077121779
 20
142.0546113724
  0
VERTEX
  8
0
 62
9
  6
CONTINUOUS
 10
42.009881921
 20
142.1231435545
  0
VERTEX
  8
0
 62
9
  6
CONTINUOUS
 10
42.0119170027
 20
142.2332424245
  0
VERTEX
  8
0
 62
9
  6
CONTINUOUS
 10
42.0137574206
 20
142.3816558008
  0
VERTEX
  8
0
 62
9
  6
CONTINUOUS
 10
42.0153487917
 20
142.5639971243
  0
VERTEX
  8
0
 62
9
  6
CONTINUOUS
 10
42.0166440949
 20
142.7748787326
  0
VERTEX
  8
0
 62
9
  6
CONTINUOUS
 10
42.0176051396
 20
143.008098476
  0
VERTEX
  8
0
 62
9
  6
CONTINUOUS
 10
42.0182073668
 20
143.2592515758
  0
VERTEX
  8
0
 62
9
  6
CONTINUOUS
 10
42.0184217242
 20
148.1793831208
  0
SEQEND
  0
LINE
  8
0
 62
9
  6
CONTINUOUS
 10
32.6857968854
 20
139.3341510073
 11
32.6857397714
 21
139.3340748519
  0
POLYLINE
  8
0
 62
9
  6
CONTINUOUS
 66
1
 70
0
  0
VERTEX
  8
0
 62
9
  6
CONTINUOUS
 10
41.8395892661
 20
141.8637955021
  0
VERTEX
  8
0
 62
9
  6
CONTINUOUS
 10
41.8248009636
 20
141.9779626957
  0
VERTEX
  8
0
 62
9
  6
CONTINUOUS
 10
41.7819067589
 20
142.0855165319
  0
VERTEX
  8
0
 62
9
  6
CONTINUOUS
 10
41.7133914677
 20
142.1802265913
  0
VERTEX
  8
0
 62
9
  6
CONTINUOUS
 10
41.6707139331
 20
142.2210126685
  0
VERTEX
  8
0
 62
9
  6
CONTINUOUS
 10
41.5716116167
 20
142.2864914157
  0
VERTEX
  8
0
 62
9
  6
CONTINUOUS
 10
41.4590700016
 20
142.3274845343
  0
VERTEX
  8
0
 62
9
  6
CONTINUOUS
 10
41.3396083046
 20
142.3416174195
  0
SEQEND
  0
LINE
  8
0
 62
9
  6
CONTINUOUS
 10
45.1227470804
 20
145.7473683688
 11
45.1227470804
 21
154.0989987024
  0
LINE
  8
0
 62
7
  6
CONTINUOUS
 10
45.6227470804
 20
146.7473683688
 11
45.6227470804
 21
153.5989987024
  0
POLYLINE
  8
0
 62
7
  6
CONTINUOUS
 66
1
 70
0
  0
VERTEX
  8
0
 62
7
  6
CONTINUOUS
 10
42.4307105729
 20
139.3341510073
  0
VERTEX
  8
0
 62
7
  6
CONTINUOUS
 10
42.4039050845
 20
139.2095637122
  0
VERTEX
  8
0
 62
7
  6
CONTINUOUS
 10
42.3771396787
 20
139.0875520944
  0
VERTEX
  8
0
 62
7
  6
CONTINUOUS
 10
42.3504119651
 20
138.9680948509
  0
SEQEND
  0
LINE
  8
0
 62
9
  6
CONTINUOUS
 10
45.1227470804
 20
145.7473683688
 11
45.6227470804
 21
146.7473683688
  0
LINE
  8
0
 62
9
  6
CONTINUOUS
 10
33.9554456555
 20
142.0296518915
 11
33.819490285
 21
141.893696521
  0
LINE
  8
0
 62
9
  6
CONTINUOUS
 10
34.455426617
 20
141.52967093
 11
34.2601107161
 21
141.334355029
  0
LINE
  8
0
 62
9
  6
CONTINUOUS
 10
32.1857588099
 20
140.833979664
 11
32.1853644096
 21
140.8343740642
  0
LINE
  8
0
 62
9
  6
CONTINUOUS
 10
32.6857397714
 20
141.3339606255
 11
32.6856639484
 21
141.3340364485
  0
POLYLINE
  8
0
 62
7
  6
CONTINUOUS
 66
1
 70
0
  0
VERTEX
  8
0
 62
7
  6
CONTINUOUS
 10
45.9727470804
 20
129.584253831
  0
VERTEX
  8
0
 62
7
  6
CONTINUOUS
 10
45.9895192036
 20
129.5634600103
  0
VERTEX
  8
0
 62
7
  6
CONTINUOUS
 10
46.0389108721
 20
129.5443140479
  0
VERTEX
  8
0
 62
7
  6
CONTINUOUS
 10
46.1178972491
 20
129.5280221721
  0
VERTEX
  8
0
 62
7
  6
CONTINUOUS
 10
46.221364501
 20
129.5155982972
  0
VERTEX
  8
0
 62
7
  6
CONTINUOUS
 10
46.3423948122
 20
129.507813194
  0
VERTEX
  8
0
 62
7
  6
CONTINUOUS
 10
46.4727470804
 20
129.5051582214
  0
SEQEND
  0
LINE
  8
0
 62
9
  6
CONTINUOUS
 10
36.8727470804
 20
146.7473683688
 11
37.3727470804
 21
145.7473683688
  0
LINE
  8
0
 62
7
  6
CONTINUOUS
 10
45.9727470804
 20
133.920629036
 11
45.9727470804
 21
127.0689987024
  0
LINE
  8
0
 62
9
  6
CONTINUOUS
 10
46.4727470804
 20
134.920629036
 11
46.4727470804
 21
126.5689987024
  0
LINE
  8
0
 62
7
  6
CONTINUOUS
 10
32.3727470804
 20
145.6588634094
 11
32.4684026857
 21
145.5621578379
  0
POLYLINE
  8
0
 62
7
  6
CONTINUOUS
 66
1
 70
0
  0
VERTEX
  8
0
 62
7
  6
CONTINUOUS
 10
35.8227470804
 20
129.584253831
  0
VERTEX
  8
0
 62
7
  6
CONTINUOUS
 10
35.8059749573
 20
129.5634600103
  0
VERTEX
  8
0
 62
7
  6
CONTINUOUS
 10
35.7565832888
 20
129.5443140479
  0
VERTEX
  8
0
 62
7
  6
CONTINUOUS
 10
35.6775969118
 20
129.5280221721
  0
VERTEX
  8
0
 62
7
  6
CONTINUOUS
 10
35.5741296599
 20
129.5155982972
  0
VERTEX
  8
0
 62
7
  6
CONTINUOUS
 10
35.4530993487
 20
129.507813194
  0
VERTEX
  8
0
 62
7
  6
CONTINUOUS
 10
35.3227470804
 20
129.5051582214
  0
SEQEND
  0
LINE
  8
0
 62
9
  6
CONTINUOUS
 10
41.8395892661
 20
141.8637955021
 11
42.0054456555
 21
142.0296518915
  0
LINE
  8
0
 62
9
  6
CONTINUOUS
 10
42.3104301335
 20
141.3346744464
 11
42.505426617
 21
141.52967093
  0
LINE
  8
0
 62
9
  6
CONTINUOUS
 10
32.1858730378
 20
139.8340748548
 11
32.1857588099
 21
139.8339986995
  0
LINE
  8
0
 62
9
  6
CONTINUOUS
 10
36.3227470804
 20
134.420629036
 11
35.3227470804
 21
134.920629036
  0
POLYLINE
  8
0
 62
9
  6
CONTINUOUS
 66
1
 70
0
  0
VERTEX
  8
0
 62
9
  6
CONTINUOUS
 10
34.0177637796
 20
141.4094800494
  0
VERTEX
  8
0
 62
9
  6
CONTINUOUS
 10
34.0038588642
 20
141.4195624141
  0
VERTEX
  8
0
 62
9
  6
CONTINUOUS
 10
33.9815112124
 20
141.4376806673
  0
VERTEX
  8
0
 62
9
  6
CONTINUOUS
 10
33.9603444364
 20
141.4573225935
  0
VERTEX
  8
0
 62
9
  6
CONTINUOUS
 10
33.9377184511
 20
141.4815037549
  0
VERTEX
  8
0
 62
9
  6
CONTINUOUS
 10
33.9140180389
 20
141.5112323406
  0
VERTEX
  8
0
 62
9
  6
CONTINUOUS
 10
33.8899194423
 20
141.547628871
  0
VERTEX
  8
0
 62
9
  6
CONTINUOUS
 10
33.8776986039
 20
141.5693240382
  0
VERTEX
  8
0
 62
9
  6
CONTINUOUS
 10
33.8547334187
 20
141.6190760979
  0
VERTEX
  8
0
 62
9
  6
CONTINUOUS
 10
33.8364880822
 20
141.6734609579
  0
VERTEX
  8
0
 62
9
  6
CONTINUOUS
 10
33.8236707429
 20
141.7319665905
  0
VERTEX
  8
0
 62
9
  6
CONTINUOUS
 10
33.8169079275
 20
141.79401885
  0
VERTEX
  8
0
 62
9
  6
CONTINUOUS
 10
33.8167821697
 20
141.8592648581
  0
VERTEX
  8
0
 62
9
  6
CONTINUOUS
 10
33.8194902849
 20
141.8936965209
  0
SEQEND
  0
LINE
  8
0
 62
9
  6
CONTINUOUS
 10
39.5400675439
 20
141.52967093
 11
39.7350640306
 21
141.3346744432
  0
LINE
  8
0
 62
9
  6
CONTINUOUS
 10
40.0400485054
 20
142.0296518915
 11
40.2059048948
 21
141.8637955021
  0
POLYLINE
  8
0
 62
7
  6
CONTINUOUS
 66
1
 70
0
  0
VERTEX
  8
0
 62
7
  6
CONTINUOUS
 10
49.2450821958
 20
138.9680948509
  0
VERTEX
  8
0
 62
7
  6
CONTINUOUS
 10
49.2183544888
 20
139.087552065
  0
VERTEX
  8
0
 62
7
  6
CONTINUOUS
 10
49.1915890821
 20
139.2095636858
  0
VERTEX
  8
0
 62
7
  6
CONTINUOUS
 10
49.164783588
 20
139.3341510073
  0
SEQEND
  0
POLYLINE
  8
0
 62
7
  6
CONTINUOUS
 66
1
 70
0
  0
VERTEX
  8
0
 62
7
  6
CONTINUOUS
 10
51.9807105729
 20
139.3341510073
  0
VERTEX
  8
0
 62
7
  6
CONTINUOUS
 10
51.9539050845
 20
139.2095637122
  0
VERTEX
  8
0
 62
7
  6
CONTINUOUS
 10
51.9271396787
 20
139.0875520944
  0
VERTEX
  8
0
 62
7
  6
CONTINUOUS
 10
51.9004119651
 20
138.9680948509
  0
SEQEND
  0
LINE
  8
0
 62
9
  6
CONTINUOUS
 10
46.4727470804
 20
134.920629036
 11
45.9727470804
 21
133.920629036
  0
POLYLINE
  8
0
 62
7
  6
CONTINUOUS
 66
1
 70
0
  0
VERTEX
  8
0
 62
7
  6
CONTINUOUS
 10
55.5227470804
 20
151.0837435738
  0
VERTEX
  8
0
 62
7
  6
CONTINUOUS
 10
55.5395192036
 20
151.1045373945
  0
VERTEX
  8
0
 62
7
  6
CONTINUOUS
 10
55.5889108721
 20
151.1236833569
  0
VERTEX
  8
0
 62
7
  6
CONTINUOUS
 10
55.6678972491
 20
151.1399752328
  0
VERTEX
  8
0
 62
7
  6
CONTINUOUS
 10
55.771364501
 20
151.1523991077
  0
VERTEX
  8
0
 62
7
  6
CONTINUOUS
 10
55.8923948122
 20
151.1601842109
  0
VERTEX
  8
0
 62
7
  6
CONTINUOUS
 10
56.0227470804
 20
151.1628391835
  0
SEQEND
  0
LINE
  8
0
 62
9
  6
CONTINUOUS
 10
31.7727470805
 20
134.8592785241
 11
32.1727470804
 21
135.1592785241
  0
POLYLINE
  8
0
 62
9
  6
CONTINUOUS
 66
1
 70
0
  0
VERTEX
  8
0
 62
9
  6
CONTINUOUS
 10
40.232367178
 20
141.4511250479
  0
VERTEX
  8
0
 62
9
  6
CONTINUOUS
 10
40.2827881129
 20
141.4839076478
  0
VERTEX
  8
0
 62
9
  6
CONTINUOUS
 10
40.3317158035
 20
141.5203093137
  0
VERTEX
  8
0
 62
9
  6
CONTINUOUS
 10
40.3852194902
 20
141.5661022597
  0
VERTEX
  8
0
 62
9
  6
CONTINUOUS
 10
40.4419716599
 20
141.6228998383
  0
VERTEX
  8
0
 62
9
  6
CONTINUOUS
 10
40.5016932933
 20
141.6943865632
  0
VERTEX
  8
0
 62
9
  6
CONTINUOUS
 10
40.5614171068
 20
141.782752654
  0
VERTEX
  8
0
 62
9
  6
CONTINUOUS
 10
40.6124015156
 20
141.8793133113
  0
VERTEX
  8
0
 62
9
  6
CONTINUOUS
 10
40.6533591071
 20
141.9829853771
  0
VERTEX
  8
0
 62
9
  6
CONTINUOUS
 10
40.6832437229
 20
142.0926996213
  0
VERTEX
  8
0
 62
9
  6
CONTINUOUS
 10
40.7013883317
 20
142.2098657554
  0
VERTEX
  8
0
 62
9
  6
CONTINUOUS
 10
40.7058860049
 20
142.3416121716
  0
SEQEND
  0
LINE
  8
0
 62
9
  6
CONTINUOUS
 10
33.1857207329
 20
140.3339987024
 11
32.1858730378
 21
139.8340748548
  0
LINE
  8
0
 62
9
  6
CONTINUOUS
 10
45.1227470804
 20
145.7473683688
 11
46.1227470804
 21
146.2473683688
  0
LINE
  8
0
 62
9
  6
CONTINUOUS
 10
33.1857207329
 20
140.3339987024
 11
32.1857588099
 21
140.833979664
  0
POLYLINE
  8
0
 62
9
  6
CONTINUOUS
 66
1
 70
0
  0
VERTEX
  8
0
 62
9
  6
CONTINUOUS
 10
33.7674705585
 20
141.4707225171
  0
VERTEX
  8
0
 62
9
  6
CONTINUOUS
 10
33.8139451929
 20
141.4431293134
  0
VERTEX
  8
0
 62
9
  6
CONTINUOUS
 10
33.8591555316
 20
141.4196905164
  0
VERTEX
  8
0
 62
9
  6
CONTINUOUS
 10
33.9059028168
 20
141.3986900027
  0
VERTEX
  8
0
 62
9
  6
CONTINUOUS
 10
33.9564172995
 20
141.3794219528
  0
VERTEX
  8
0
 62
9
  6
CONTINUOUS
 10
33.98137003
 20
141.3711439422
  0
VERTEX
  8
0
 62
9
  6
CONTINUOUS
 10
34.0288076029
 20
141.357559031
  0
VERTEX
  8
0
 62
9
  6
CONTINUOUS
 10
34.0736346297
 20
141.3472124194
  0
VERTEX
  8
0
 62
9
  6
CONTINUOUS
 10
34.116424794
 20
141.3395068572
  0
VERTEX
  8
0
 62
9
  6
CONTINUOUS
 10
34.1575758239
 20
141.3340364368
  0
SEQEND
  0
LINE
  8
0
 62
9
  6
CONTINUOUS
 10
31.756614713
 20
144.503040717
 11
31.9722069676
 21
144.359432939
  0
LINE
  8
0
 62
9
  6
CONTINUOUS
 10
31.7888794479
 20
144.5514783925
 11
31.9719988694
 21
144.4295010363
  0
LINE
  8
0
 62
9
  6
CONTINUOUS
 10
55.1727470804
 20
133.920629036
 11
54.6727470804
 21
134.920629036
  0
LINE
  8
0
 62
9
  6
CONTINUOUS
 10
54.6727470804
 20
126.5689987024
 11
54.6727470804
 21
134.920629036
  0
LINE
  8
0
 62
7
  6
CONTINUOUS
 10
55.1727470804
 20
133.920629036
 11
55.1727470804
 21
127.0689987024
  0
LINE
  8
0
 62
7
  6
CONTINUOUS
 10
55.5227470804
 20
146.7473682511
 11
55.5227470804
 21
153.5989987024
  0
LINE
  8
0
 62
9
  6
CONTINUOUS
 10
56.0227470804
 20
145.7473683688
 11
56.0227470804
 21
154.0989987024
  0
POLYLINE
  8
0
 62
7
  6
CONTINUOUS
 66
1
 70
0
  0
VERTEX
  8
0
 62
7
  6
CONTINUOUS
 10
39.614783588
 20
139.3341510073
  0
VERTEX
  8
0
 62
7
  6
CONTINUOUS
 10
39.6284932345
 20
139.3423664649
  0
VERTEX
  8
0
 62
7
  6
CONTINUOUS
 10
39.673147434
 20
139.3638334111
  0
VERTEX
  8
0
 62
7
  6
CONTINUOUS
 10
39.7571874436
 20
139.4003414365
  0
VERTEX
  8
0
 62
7
  6
CONTINUOUS
 10
39.8957544539
 20
139.4535637858
  0
VERTEX
  8
0
 62
7
  6
CONTINUOUS
 10
40.1087359988
 20
139.5212765761
  0
VERTEX
  8
0
 62
7
  6
CONTINUOUS
 10
40.4158664118
 20
139.5920319828
  0
VERTEX
  8
0
 62
7
  6
CONTINUOUS
 10
40.8092130037
 20
139.6398726399
  0
VERTEX
  8
0
 62
7
  6
CONTINUOUS
 10
41.2362467343
 20
139.6398748011
  0
VERTEX
  8
0
 62
7
  6
CONTINUOUS
 10
41.6295976315
 20
139.592037448
  0
VERTEX
  8
0
 62
7
  6
CONTINUOUS
 10
41.9367449694
 20
139.5212802792
  0
VERTEX
  8
0
 62
7
  6
CONTINUOUS
 10
42.1497378957
 20
139.4535644317
  0
VERTEX
  8
0
 62
7
  6
CONTINUOUS
 10
42.288306171
 20
139.4003416623
  0
VERTEX
  8
0
 62
7
  6
CONTINUOUS
 10
42.3723464289
 20
139.3638335478
  0
VERTEX
  8
0
 62
7
  6
CONTINUOUS
 10
42.4170009007
 20
139.3423664782
  0
VERTEX
  8
0
 62
7
  6
CONTINUOUS
 10
42.4307105729
 20
139.3341510073
  0
SEQEND
  0
POLYLINE
  8
0
 62
9
  6
CONTINUOUS
 66
1
 70
0
  0
VERTEX
  8
0
 62
9
  6
CONTINUOUS
 10
39.9817671218
 20
141.4059277501
  0
VERTEX
  8
0
 62
9
  6
CONTINUOUS
 10
39.9382860657
 20
141.3815588737
  0
VERTEX
  8
0
 62
9
  6
CONTINUOUS
 10
39.8951112928
 20
141.3630627996
  0
VERTEX
  8
0
 62
9
  6
CONTINUOUS
 10
39.8538684534
 20
141.3500381145
  0
VERTEX
  8
0
 62
9
  6
CONTINUOUS
 10
39.8341390981
 20
141.3452833209
  0
VERTEX
  8
0
 62
9
  6
CONTINUOUS
 10
39.7969661124
 20
141.3387700357
  0
VERTEX
  8
0
 62
9
  6
CONTINUOUS
 10
39.7639755895
 20
141.3355604851
  0
VERTEX
  8
0
 62
9
  6
CONTINUOUS
 10
39.7350640306
 20
141.3346744432
  0
SEQEND
  0
LINE
  8
0
 62
7
  6
CONTINUOUS
 10
32.3727470804
 20
126.5689987024
 11
35.3227470804
 21
126.5689987024
  0
LINE
  8
0
 62
7
  6
CONTINUOUS
 10
46.4727470804
 20
126.5689987024
 11
54.6727470804
 21
126.5689987024
  0
LINE
  8
0
 62
7
  6
CONTINUOUS
 10
65.5727470804
 20
126.5689987024
 11
73.7727470804
 21
126.5689987024
  0
LINE
  8
0
 62
7
  6
CONTINUOUS
 10
84.6727470804
 20
126.5689987024
 11
92.8727470804
 21
126.5689987024
  0
LINE
  8
0
 62
7
  6
CONTINUOUS
 10
104.0227470804
 20
126.5689987024
 11
106.9727470804
 21
126.5689987024
  0
LINE
  8
0
 62
9
  6
CONTINUOUS
 10
32.5564315802
 20
139.3512183344
 11
32.4358789078
 21
139.4011788484
  0
POLYLINE
  8
0
 62
9
  6
CONTINUOUS
 66
1
 70
0
  0
VERTEX
  8
0
 62
9
  6
CONTINUOUS
 10
42.0637270391
 20
141.4059277501
  0
VERTEX
  8
0
 62
9
  6
CONTINUOUS
 10
42.0486456122
 20
141.4159172256
  0
VERTEX
  8
0
 62
9
  6
CONTINUOUS
 10
42.0248160917
 20
141.4335436061
  0
VERTEX
  8
0
 62
9
  6
CONTINUOUS
 10
42.0025174543
 20
141.4523402413
  0
VERTEX
  8
0
 62
9
  6
CONTINUOUS
 10
41.9782673342
 20
141.4757486151
  0
VERTEX
  8
0
 62
9
  6
CONTINUOUS
 10
41.9527185526
 20
141.5044946401
  0
VERTEX
  8
0
 62
9
  6
CONTINUOUS
 10
41.926513398
 20
141.5396477522
  0
VERTEX
  8
0
 62
9
  6
CONTINUOUS
 10
41.9131638263
 20
141.5604761672
  0
VERTEX
  8
0
 62
9
  6
CONTINUOUS
 10
41.8880230703
 20
141.6074938264
  0
VERTEX
  8
0
 62
9
  6
CONTINUOUS
 10
41.8674439217
 20
141.658467332
  0
VERTEX
  8
0
 62
9
  6
CONTINUOUS
 10
41.8519853299
 20
141.7130931017
  0
VERTEX
  8
0
 62
9
  6
CONTINUOUS
 10
41.8422374327
 20
141.770850589
  0
VERTEX
  8
0
 62
9
  6
CONTINUOUS
 10
41.8387402901
 20
141.8315928685
  0
SEQEND
  0
POLYLINE
  8
0
 62
9
  6
CONTINUOUS
 66
1
 70
0
  0
VERTEX
  8
0
 62
9
  6
CONTINUOUS
 10
59.1272705024
 20
143.2696464158
  0
VERTEX
  8
0
 62
9
  6
CONTINUOUS
 10
59.1278496359
 20
143.0204353965
  0
VERTEX
  8
0
 62
9
  6
CONTINUOUS
 10
59.128792677
 20
142.7862888107
  0
VERTEX
  8
0
 62
9
  6
CONTINUOUS
 10
59.1300717768
 20
142.5741116801
  0
VERTEX
  8
0
 62
9
  6
CONTINUOUS
 10
59.1316491378
 20
142.3901744064
  0
VERTEX
  8
0
 62
9
  6
CONTINUOUS
 10
59.1334781594
 20
142.2399128697
  0
VERTEX
  8
0
 62
9
  6
CONTINUOUS
 10
59.1355050598
 20
142.1277581047
  0
VERTEX
  8
0
 62
9
  6
CONTINUOUS
 10
59.137691278
 20
142.0565716886
  0
VERTEX
  8
0
 62
9
  6
CONTINUOUS
 10
59.1400485054
 20
142.0296518915
  0
SEQEND
  0
POLYLINE
  8
0
 62
9
  6
CONTINUOUS
 66
1
 70
0
  0
VERTEX
  8
0
 62
9
  6
CONTINUOUS
 10
58.6272895402
 20
143.1829969624
  0
VERTEX
  8
0
 62
9
  6
CONTINUOUS
 10
58.6278686742
 20
142.8507156033
  0
VERTEX
  8
0
 62
9
  6
CONTINUOUS
 10
58.6288117155
 20
142.5385201555
  0
VERTEX
  8
0
 62
9
  6
CONTINUOUS
 10
58.6300908152
 20
142.2556173147
  0
VERTEX
  8
0
 62
9
  6
CONTINUOUS
 10
58.6316681762
 20
142.0103676165
  0
VERTEX
  8
0
 62
9
  6
CONTINUOUS
 10
58.633497198
 20
141.8100189008
  0
VERTEX
  8
0
 62
9
  6
CONTINUOUS
 10
58.635524099
 20
141.6604792142
  0
VERTEX
  8
0
 62
9
  6
CONTINUOUS
 10
58.6377103199
 20
141.5655639927
  0
VERTEX
  8
0
 62
9
  6
CONTINUOUS
 10
58.6400675439
 20
141.52967093
  0
SEQEND
  0
LINE
  8
0
 62
9
  6
CONTINUOUS
 10
58.6270914752
 20
148.1793831208
 11
58.6272895402
 21
143.1829969624
  0
LINE
  8
0
 62
9
  6
CONTINUOUS
 10
59.1270724367
 20
148.1793831208
 11
59.1272705024
 21
143.2696464158
  0
POLYLINE
  8
0
 62
9
  6
CONTINUOUS
 66
1
 70
0
  0
VERTEX
  8
0
 62
9
  6
CONTINUOUS
 10
59.1270724367
 20
148.1793831208
  0
VERTEX
  8
0
 62
9
  6
CONTINUOUS
 10
59.1368869605
 20
148.2928674263
  0
VERTEX
  8
0
 62
9
  6
CONTINUOUS
 10
59.1665013434
 20
148.4018147111
  0
VERTEX
  8
0
 62
9
  6
CONTINUOUS
 10
59.2141577211
 20
148.5007402463
  0
VERTEX
  8
0
 62
9
  6
CONTINUOUS
 10
59.2774322472
 20
148.586025955
  0
VERTEX
  8
0
 62
9
  6
CONTINUOUS
 10
59.3532581116
 20
148.6546909352
  0
VERTEX
  8
0
 62
9
  6
CONTINUOUS
 10
59.4386282237
 20
148.7048936468
  0
VERTEX
  8
0
 62
9
  6
CONTINUOUS
 10
59.5306423167
 20
148.7353891503
  0
VERTEX
  8
0
 62
9
  6
CONTINUOUS
 10
59.6245592745
 20
148.7452866819
  0
SEQEND
  0
POLYLINE
  8
0
 62
9
  6
CONTINUOUS
 66
1
 70
0
  0
VERTEX
  8
0
 62
9
  6
CONTINUOUS
 10
58.6270914752
 20
148.1793831208
  0
VERTEX
  8
0
 62
9
  6
CONTINUOUS
 10
58.6472223174
 20
148.3882305815
  0
VERTEX
  8
0
 62
9
  6
CONTINUOUS
 10
58.7069367914
 20
148.5888884972
  0
VERTEX
  8
0
 62
9
  6
CONTINUOUS
 10
58.8026984818
 20
148.7711882255
  0
VERTEX
  8
0
 62
9
  6
CONTINUOUS
 10
58.9296426079
 20
148.9284523241
  0
VERTEX
  8
0
 62
9
  6
CONTINUOUS
 10
59.0816133048
 20
149.0551724807
  0
VERTEX
  8
0
 62
9
  6
CONTINUOUS
 10
59.2525861385
 20
149.1479491729
  0
VERTEX
  8
0
 62
9
  6
CONTINUOUS
 10
59.4367514966
 20
149.2044799988
  0
VERTEX
  8
0
 62
9
  6
CONTINUOUS
 10
59.6245592745
 20
149.2231085993
  0
SEQEND
  0
POLYLINE
  8
0
 62
7
  6
CONTINUOUS
 66
1
 70
0
  0
VERTEX
  8
0
 62
7
  6
CONTINUOUS
 10
106.9727470804
 20
129.5051582214
  0
VERTEX
  8
0
 62
7
  6
CONTINUOUS
 10
107.1030993487
 20
129.507813194
  0
VERTEX
  8
0
 62
7
  6
CONTINUOUS
 10
107.2241296599
 20
129.5155982972
  0
VERTEX
  8
0
 62
7
  6
CONTINUOUS
 10
107.3275969118
 20
129.5280221721
  0
VERTEX
  8
0
 62
7
  6
CONTINUOUS
 10
107.4065832888
 20
129.5443140479
  0
VERTEX
  8
0
 62
7
  6
CONTINUOUS
 10
107.4559749573
 20
129.5634600103
  0
VERTEX
  8
0
 62
7
  6
CONTINUOUS
 10
107.4727470804
 20
129.584253831
  0
SEQEND
  0
LINE
  8
0
 62
7
  6
CONTINUOUS
 10
32.3727470804
 20
129.5051582214
 11
35.3227470804
 21
129.5051582214
  0
LINE
  8
0
 62
7
  6
CONTINUOUS
 10
46.4727470804
 20
129.5051582214
 11
54.6727470804
 21
129.5051582214
  0
LINE
  8
0
 62
7
  6
CONTINUOUS
 10
65.5727470804
 20
129.5051582214
 11
73.7727470804
 21
129.5051582214
  0
LINE
  8
0
 62
7
  6
CONTINUOUS
 10
84.6727470804
 20
129.5051582214
 11
92.8727470804
 21
129.5051582214
  0
LINE
  8
0
 62
7
  6
CONTINUOUS
 10
104.0227470804
 20
129.5051582214
 11
106.9727470804
 21
129.5051582214
  0
POLYLINE
  8
0
 62
7
  6
CONTINUOUS
 66
1
 70
0
  0
VERTEX
  8
0
 62
7
  6
CONTINUOUS
 10
32.3727470804
 20
129.5051582214
  0
VERTEX
  8
0
 62
7
  6
CONTINUOUS
 10
32.2423948122
 20
129.507813194
  0
VERTEX
  8
0
 62
7
  6
CONTINUOUS
 10
32.121364501
 20
129.5155982972
  0
VERTEX
  8
0
 62
7
  6
CONTINUOUS
 10
32.0178972491
 20
129.5280221721
  0
VERTEX
  8
0
 62
7
  6
CONTINUOUS
 10
31.9389108721
 20
129.5443140479
  0
VERTEX
  8
0
 62
7
  6
CONTINUOUS
 10
31.8895192036
 20
129.5634600103
  0
VERTEX
  8
0
 62
7
  6
CONTINUOUS
 10
31.8727470804
 20
129.584253831
  0
SEQEND
  0
LINE
  8
0
 62
9
  6
CONTINUOUS
 10
55.6727470804
 20
134.420629036
 11
54.6727470804
 21
134.920629036
  0
POLYLINE
  8
0
 62
9
  6
CONTINUOUS
 66
1
 70
0
  0
VERTEX
  8
0
 62
9
  6
CONTINUOUS
 10
41.8131269829
 20
141.4511250479
  0
VERTEX
  8
0
 62
9
  6
CONTINUOUS
 10
41.8912843551
 20
141.4085763024
  0
VERTEX
  8
0
 62
9
  6
CONTINUOUS
 10
41.9672522994
 20
141.375687565
  0
VERTEX
  8
0
 62
9
  6
CONTINUOUS
 10
42.0394367611
 20
141.3513420323
  0
VERTEX
  8
0
 62
9
  6
CONTINUOUS
 10
42.1075980618
 20
141.3340366392
  0
SEQEND
  0
POLYLINE
  8
0
 62
7
  6
CONTINUOUS
 66
1
 70
0
  0
VERTEX
  8
0
 62
7
  6
CONTINUOUS
 10
45.6227470804
 20
151.0837435738
  0
VERTEX
  8
0
 62
7
  6
CONTINUOUS
 10
45.6059749573
 20
151.1045373945
  0
VERTEX
  8
0
 62
7
  6
CONTINUOUS
 10
45.5565832888
 20
151.1236833569
  0
VERTEX
  8
0
 62
7
  6
CONTINUOUS
 10
45.4775969118
 20
151.1399752328
  0
VERTEX
  8
0
 62
7
  6
CONTINUOUS
 10
45.3741296599
 20
151.1523991077
  0
VERTEX
  8
0
 62
7
  6
CONTINUOUS
 10
45.2530993487
 20
151.1601842109
  0
VERTEX
  8
0
 62
7
  6
CONTINUOUS
 10
45.1227470804
 20
151.1628391835
  0
SEQEND
  0
POLYLINE
  8
0
 62
7
  6
CONTINUOUS
 66
1
 70
0
  0
VERTEX
  8
0
 62
7
  6
CONTINUOUS
 10
58.7950821958
 20
138.9680948509
  0
VERTEX
  8
0
 62
7
  6
CONTINUOUS
 10
58.7683544888
 20
139.087552065
  0
VERTEX
  8
0
 62
7
  6
CONTINUOUS
 10
58.7415890821
 20
139.2095636858
  0
VERTEX
  8
0
 62
7
  6
CONTINUOUS
 10
58.714783588
 20
139.3341510073
  0
SEQEND
  0
LINE
  8
0
 62
9
  6
CONTINUOUS
 10
59.3059048948
 20
141.8637955021
 11
59.1270724367
 21
148.1793831208
  0
LINE
  8
0
 62
9
  6
CONTINUOUS
 10
59.8058860049
 20
142.3416121716
 11
59.6245592745
 21
148.7452866819
  0
POLYLINE
  8
0
 62
9
  6
CONTINUOUS
 66
1
 70
0
  0
VERTEX
  8
0
 62
9
  6
CONTINUOUS
 10
60.4396081921
 20
142.341613446
  0
VERTEX
  8
0
 62
9
  6
CONTINUOUS
 10
60.4396881035
 20
142.2789903978
  0
VERTEX
  8
0
 62
9
  6
CONTINUOUS
 10
60.4500350839
 20
142.160858458
  0
VERTEX
  8
0
 62
9
  6
CONTINUOUS
 10
60.4727178777
 20
142.0485304428
  0
VERTEX
  8
0
 62
9
  6
CONTINUOUS
 10
60.5066483212
 20
141.942292185
  0
VERTEX
  8
0
 62
9
  6
CONTINUOUS
 10
60.5506175779
 20
141.8431559041
  0
VERTEX
  8
0
 62
9
  6
CONTINUOUS
 10
60.6034908073
 20
141.7517126678
  0
VERTEX
  8
0
 62
9
  6
CONTINUOUS
 10
60.631337577
 20
141.7112040003
  0
VERTEX
  8
0
 62
9
  6
CONTINUOUS
 10
60.6856847204
 20
141.6428343298
  0
VERTEX
  8
0
 62
9
  6
CONTINUOUS
 10
60.7383654722
 20
141.5869253093
  0
VERTEX
  8
0
 62
9
  6
CONTINUOUS
 10
60.7881543572
 20
141.5413972046
  0
VERTEX
  8
0
 62
9
  6
CONTINUOUS
 10
60.8337863139
 20
141.504838016
  0
VERTEX
  8
0
 62
9
  6
CONTINUOUS
 10
60.8824154607
 20
141.4705543971
  0
VERTEX
  8
0
 62
9
  6
CONTINUOUS
 10
60.9131269829
 20
141.4511250479
  0
SEQEND
  0
LINE
  8
0
 62
9
  6
CONTINUOUS
 10
59.6245592745
 20
148.7452866819
 11
59.6245592745
 21
149.2231085993
  0
LINE
  8
0
 62
9
  6
CONTINUOUS
 10
60.6209348864
 20
149.2231085993
 11
60.6209348864
 21
148.7452866819
  0
POLYLINE
  8
0
 62
9
  6
CONTINUOUS
 66
1
 70
0
  0
VERTEX
  8
0
 62
9
  6
CONTINUOUS
 10
59.3059048959
 20
141.8637955009
  0
VERTEX
  8
0
 62
9
  6
CONTINUOUS
 10
59.3055259738
 20
141.7960495143
  0
VERTEX
  8
0
 62
9
  6
CONTINUOUS
 10
59.2981160141
 20
141.7358041625
  0
VERTEX
  8
0
 62
9
  6
CONTINUOUS
 10
59.2847298396
 20
141.6793909711
  0
VERTEX
  8
0
 62
9
  6
CONTINUOUS
 10
59.2657209808
 20
141.6260849878
  0
VERTEX
  8
0
 62
9
  6
CONTINUOUS
 10
59.241597462
 20
141.5764361658
  0
VERTEX
  8
0
 62
9
  6
CONTINUOUS
 10
59.212987364
 20
141.5310008495
  0
VERTEX
  8
0
 62
9
  6
CONTINUOUS
 10
59.1841389167
 20
141.4942450532
  0
VERTEX
  8
0
 62
9
  6
CONTINUOUS
 10
59.1565669436
 20
141.4650423611
  0
VERTEX
  8
0
 62
9
  6
CONTINUOUS
 10
59.1304630374
 20
141.4414979482
  0
VERTEX
  8
0
 62
9
  6
CONTINUOUS
 10
59.1065141692
 20
141.4227824258
  0
VERTEX
  8
0
 62
9
  6
CONTINUOUS
 10
59.0817671218
 20
141.4059277501
  0
SEQEND
  0
LINE
  8
0
 62
9
  6
CONTINUOUS
 10
60.6209348864
 20
148.7452866819
 11
60.4396081921
 21
142.341613446
  0
LINE
  8
0
 62
9
  6
CONTINUOUS
 10
61.1184217242
 20
148.1793831208
 11
60.9387402901
 21
141.8315928685
  0
POLYLINE
  8
0
 62
9
  6
CONTINUOUS
 66
1
 70
0
  0
VERTEX
  8
0
 62
9
  6
CONTINUOUS
 10
61.605426617
 20
141.52967093
  0
VERTEX
  8
0
 62
9
  6
CONTINUOUS
 10
61.6076931357
 20
141.5629502378
  0
VERTEX
  8
0
 62
9
  6
CONTINUOUS
 10
61.6098628821
 20
141.6543264807
  0
VERTEX
  8
0
 62
9
  6
CONTINUOUS
 10
61.6118979642
 20
141.801124974
  0
VERTEX
  8
0
 62
9
  6
CONTINUOUS
 10
61.6137383822
 20
141.9990094757
  0
VERTEX
  8
0
 62
9
  6
CONTINUOUS
 10
61.6153297532
 20
142.2421312404
  0
VERTEX
  8
0
 62
9
  6
CONTINUOUS
 10
61.6166250565
 20
142.5233067182
  0
VERTEX
  8
0
 62
9
  6
CONTINUOUS
 10
61.6175861014
 20
142.8342663759
  0
VERTEX
  8
0
 62
9
  6
CONTINUOUS
 10
61.618188329
 20
143.1691371758
  0
VERTEX
  8
0
 62
9
  6
CONTINUOUS
 10
61.6184026857
 20
148.1793831208
  0
SEQEND
  0
POLYLINE
  8
0
 62
9
  6
CONTINUOUS
 66
1
 70
0
  0
VERTEX
  8
0
 62
9
  6
CONTINUOUS
 10
61.1054456555
 20
142.0296518915
  0
VERTEX
  8
0
 62
9
  6
CONTINUOUS
 10
61.1077121779
 20
142.0546113724
  0
VERTEX
  8
0
 62
9
  6
CONTINUOUS
 10
61.109881921
 20
142.1231435545
  0
VERTEX
  8
0
 62
9
  6
CONTINUOUS
 10
61.1119170027
 20
142.2332424245
  0
VERTEX
  8
0
 62
9
  6
CONTINUOUS
 10
61.1137574206
 20
142.3816558008
  0
VERTEX
  8
0
 62
9
  6
CONTINUOUS
 10
61.1153487917
 20
142.5639971243
  0
VERTEX
  8
0
 62
9
  6
CONTINUOUS
 10
61.1166440949
 20
142.7748787326
  0
VERTEX
  8
0
 62
9
  6
CONTINUOUS
 10
61.1176051396
 20
143.008098476
  0
VERTEX
  8
0
 62
9
  6
CONTINUOUS
 10
61.1182073668
 20
143.2592515758
  0
VERTEX
  8
0
 62
9
  6
CONTINUOUS
 10
61.1184217242
 20
148.1793831208
  0
SEQEND
  0
POLYLINE
  8
0
 62
7
  6
CONTINUOUS
 66
1
 70
0
  0
VERTEX
  8
0
 62
7
  6
CONTINUOUS
 10
61.5307105729
 20
139.3341510073
  0
VERTEX
  8
0
 62
7
  6
CONTINUOUS
 10
61.5039050845
 20
139.2095637122
  0
VERTEX
  8
0
 62
7
  6
CONTINUOUS
 10
61.4771396787
 20
139.0875520944
  0
VERTEX
  8
0
 62
7
  6
CONTINUOUS
 10
61.4504119651
 20
138.9680948509
  0
SEQEND
  0
POLYLINE
  8
0
 62
7
  6
CONTINUOUS
 66
1
 70
0
  0
VERTEX
  8
0
 62
7
  6
CONTINUOUS
 10
49.164783588
 20
139.3341510073
  0
VERTEX
  8
0
 62
7
  6
CONTINUOUS
 10
49.1784932345
 20
139.3423664649
  0
VERTEX
  8
0
 62
7
  6
CONTINUOUS
 10
49.223147434
 20
139.3638334111
  0
VERTEX
  8
0
 62
7
  6
CONTINUOUS
 10
49.3071874436
 20
139.4003414365
  0
VERTEX
  8
0
 62
7
  6
CONTINUOUS
 10
49.4457544539
 20
139.4535637858
  0
VERTEX
  8
0
 62
7
  6
CONTINUOUS
 10
49.6587359988
 20
139.5212765761
  0
VERTEX
  8
0
 62
7
  6
CONTINUOUS
 10
49.9658664118
 20
139.5920319828
  0
VERTEX
  8
0
 62
7
  6
CONTINUOUS
 10
50.3592130037
 20
139.6398726399
  0
VERTEX
  8
0
 62
7
  6
CONTINUOUS
 10
50.7862467343
 20
139.6398748011
  0
VERTEX
  8
0
 62
7
  6
CONTINUOUS
 10
51.1795976315
 20
139.592037448
  0
VERTEX
  8
0
 62
7
  6
CONTINUOUS
 10
51.4867449694
 20
139.5212802792
  0
VERTEX
  8
0
 62
7
  6
CONTINUOUS
 10
51.6997378957
 20
139.4535644317
  0
VERTEX
  8
0
 62
7
  6
CONTINUOUS
 10
51.838306171
 20
139.4003416623
  0
VERTEX
  8
0
 62
7
  6
CONTINUOUS
 10
51.9223464289
 20
139.3638335478
  0
VERTEX
  8
0
 62
7
  6
CONTINUOUS
 10
51.9670009007
 20
139.3423664782
  0
VERTEX
  8
0
 62
7
  6
CONTINUOUS
 10
51.9807105729
 20
139.3341510073
  0
SEQEND
  0
LINE
  8
1_AXIS
 62
2
  6
CENTER
 10
23.5678105617
 20
130.8089987024
 11
108.4570562364
 21
130.8089987024
  0
LINE
  8
0
 62
9
  6
CONTINUOUS
 10
36.3727470804
 20
146.2473683688
 11
37.3727470805
 21
145.7473683688
  0
POLYLINE
  8
0
 62
7
  6
CONTINUOUS
 66
1
 70
0
  0
VERTEX
  8
0
 62
7
  6
CONTINUOUS
 10
65.0727470804
 20
129.584253831
  0
VERTEX
  8
0
 62
7
  6
CONTINUOUS
 10
65.0895192036
 20
129.5634600103
  0
VERTEX
  8
0
 62
7
  6
CONTINUOUS
 10
65.1389108721
 20
129.5443140479
  0
VERTEX
  8
0
 62
7
  6
CONTINUOUS
 10
65.2178972491
 20
129.5280221721
  0
VERTEX
  8
0
 62
7
  6
CONTINUOUS
 10
65.321364501
 20
129.5155982972
  0
VERTEX
  8
0
 62
7
  6
CONTINUOUS
 10
65.4423948122
 20
129.507813194
  0
VERTEX
  8
0
 62
7
  6
CONTINUOUS
 10
65.5727470804
 20
129.5051582214
  0
SEQEND
  0
LINE
  8
0
 62
9
  6
CONTINUOUS
 10
56.0227470804
 20
145.7473683688
 11
55.5227470805
 21
146.7473685225
  0
POLYLINE
  8
0
 62
9
  6
CONTINUOUS
 66
1
 70
0
  0
VERTEX
  8
0
 62
9
  6
CONTINUOUS
 10
60.9395892661
 20
141.8637955021
  0
VERTEX
  8
0
 62
9
  6
CONTINUOUS
 10
60.9248009636
 20
141.9779626957
  0
VERTEX
  8
0
 62
9
  6
CONTINUOUS
 10
60.8819067589
 20
142.0855165319
  0
VERTEX
  8
0
 62
9
  6
CONTINUOUS
 10
60.8133914677
 20
142.1802265913
  0
VERTEX
  8
0
 62
9
  6
CONTINUOUS
 10
60.7707139331
 20
142.2210126685
  0
VERTEX
  8
0
 62
9
  6
CONTINUOUS
 10
60.6716116167
 20
142.2864914157
  0
VERTEX
  8
0
 62
9
  6
CONTINUOUS
 10
60.5590700016
 20
142.3274845343
  0
VERTEX
  8
0
 62
9
  6
CONTINUOUS
 10
60.4396083046
 20
142.3416174195
  0
SEQEND
  0
LINE
  8
0
 62
9
  6
CONTINUOUS
 10
64.2227470804
 20
145.7473683688
 11
64.2227470804
 21
154.0989987024
  0
LINE
  8
0
 62
9
  6
CONTINUOUS
 10
64.2227470804
 20
145.7473683688
 11
64.7227470804
 21
146.7473683688
  0
LINE
  8
0
 62
9
  6
CONTINUOUS
 10
60.9395892661
 20
141.8637955021
 11
61.1054456555
 21
142.0296518915
  0
LINE
  8
0
 62
9
  6
CONTINUOUS
 10
61.4104301335
 20
141.3346744464
 11
61.605426617
 21
141.52967093
  0
POLYLINE
  8
0
 62
9
  6
CONTINUOUS
 66
1
 70
0
  0
VERTEX
  8
0
 62
9
  6
CONTINUOUS
 10
59.332367178
 20
141.4511250479
  0
VERTEX
  8
0
 62
9
  6
CONTINUOUS
 10
59.3827881129
 20
141.4839076478
  0
VERTEX
  8
0
 62
9
  6
CONTINUOUS
 10
59.4317158035
 20
141.5203093137
  0
VERTEX
  8
0
 62
9
  6
CONTINUOUS
 10
59.4852194902
 20
141.5661022597
  0
VERTEX
  8
0
 62
9
  6
CONTINUOUS
 10
59.5419716599
 20
141.6228998383
  0
VERTEX
  8
0
 62
9
  6
CONTINUOUS
 10
59.6016932933
 20
141.6943865632
  0
VERTEX
  8
0
 62
9
  6
CONTINUOUS
 10
59.6614171068
 20
141.782752654
  0
VERTEX
  8
0
 62
9
  6
CONTINUOUS
 10
59.7124015156
 20
141.8793133113
  0
VERTEX
  8
0
 62
9
  6
CONTINUOUS
 10
59.7533591071
 20
141.9829853771
  0
VERTEX
  8
0
 62
9
  6
CONTINUOUS
 10
59.7832437229
 20
142.0926996213
  0
VERTEX
  8
0
 62
9
  6
CONTINUOUS
 10
59.8013883317
 20
142.2098657554
  0
VERTEX
  8
0
 62
9
  6
CONTINUOUS
 10
59.8058860049
 20
142.3416121716
  0
SEQEND
  0
POLYLINE
  8
0
 62
9
  6
CONTINUOUS
 66
1
 70
0
  0
VERTEX
  8
0
 62
9
  6
CONTINUOUS
 10
59.0817671218
 20
141.4059277501
  0
VERTEX
  8
0
 62
9
  6
CONTINUOUS
 10
59.0382860657
 20
141.3815588737
  0
VERTEX
  8
0
 62
9
  6
CONTINUOUS
 10
58.9951112928
 20
141.3630627996
  0
VERTEX
  8
0
 62
9
  6
CONTINUOUS
 10
58.9538684534
 20
141.3500381145
  0
VERTEX
  8
0
 62
9
  6
CONTINUOUS
 10
58.9341390981
 20
141.3452833209
  0
VERTEX
  8
0
 62
9
  6
CONTINUOUS
 10
58.8969661124
 20
141.3387700357
  0
VERTEX
  8
0
 62
9
  6
CONTINUOUS
 10
58.8639755895
 20
141.3355604851
  0
VERTEX
  8
0
 62
9
  6
CONTINUOUS
 10
58.8350640306
 20
141.3346744432
  0
SEQEND
  0
LINE
  8
0
 62
9
  6
CONTINUOUS
 10
64.2227470804
 20
145.7473683688
 11
65.2227470804
 21
146.2473683688
  0
LINE
  8
0
 62
9
  6
CONTINUOUS
 10
46.4727470804
 20
134.920629036
 11
45.4727470804
 21
134.420629036
  0
POLYLINE
  8
0
 62
9
  6
CONTINUOUS
 66
1
 70
0
  0
VERTEX
  8
0
 62
9
  6
CONTINUOUS
 10
97.237897984
 20
141.3340365057
  0
VERTEX
  8
0
 62
9
  6
CONTINUOUS
 10
97.2771495097
 20
141.3433493832
  0
VERTEX
  8
0
 62
9
  6
CONTINUOUS
 10
97.3592745247
 20
141.3686640551
  0
VERTEX
  8
0
 62
9
  6
CONTINUOUS
 10
97.4019543889
 20
141.3851184042
  0
VERTEX
  8
0
 62
9
  6
CONTINUOUS
 10
97.489064621
 20
141.426388341
  0
VERTEX
  8
0
 62
9
  6
CONTINUOUS
 10
97.532367178
 20
141.4511250479
  0
SEQEND
  0
POLYLINE
  8
0
 62
7
  6
CONTINUOUS
 66
1
 70
0
  0
VERTEX
  8
0
 62
7
  6
CONTINUOUS
 10
99.6504119651
 20
138.9680948509
  0
VERTEX
  8
0
 62
7
  6
CONTINUOUS
 10
99.6219469794
 20
138.9634130446
  0
VERTEX
  8
0
 62
7
  6
CONTINUOUS
 10
99.5398441718
 20
138.9589283003
  0
VERTEX
  8
0
 62
7
  6
CONTINUOUS
 10
99.4074933876
 20
138.9548257777
  0
VERTEX
  8
0
 62
7
  6
CONTINUOUS
 10
99.2327412464
 20
138.9513138874
  0
VERTEX
  8
0
 62
7
  6
CONTINUOUS
 10
99.0306009189
 20
138.9485830284
  0
VERTEX
  8
0
 62
7
  6
CONTINUOUS
 10
98.8080107916
 20
138.9466182818
  0
VERTEX
  8
0
 62
7
  6
CONTINUOUS
 10
98.5698439565
 20
138.9454199488
  0
VERTEX
  8
0
 62
7
  6
CONTINUOUS
 10
98.3227400803
 20
138.9450151134
  0
VERTEX
  8
0
 62
7
  6
CONTINUOUS
 10
98.0756375118
 20
138.9454199908
  0
VERTEX
  8
0
 62
7
  6
CONTINUOUS
 10
97.8374722461
 20
138.946618358
  0
VERTEX
  8
0
 62
7
  6
CONTINUOUS
 10
97.6148833466
 20
138.9485831372
  0
VERTEX
  8
0
 62
7
  6
CONTINUOUS
 10
97.4127427162
 20
138.951314055
  0
VERTEX
  8
0
 62
7
  6
CONTINUOUS
 10
97.2380013104
 20
138.9548257644
  0
VERTEX
  8
0
 62
7
  6
CONTINUOUS
 10
97.105650236
 20
138.9589282904
  0
VERTEX
  8
0
 62
7
  6
CONTINUOUS
 10
97.0235472474
 20
138.9634130392
  0
VERTEX
  8
0
 62
7
  6
CONTINUOUS
 10
96.9950821958
 20
138.9680948509
  0
SEQEND
  0
POLYLINE
  8
0
 62
9
  6
CONTINUOUS
 66
1
 70
0
  0
VERTEX
  8
0
 62
9
  6
CONTINUOUS
 10
106.6596972755
 20
139.3341510073
  0
VERTEX
  8
0
 62
9
  6
CONTINUOUS
 10
106.7890624014
 20
139.3512182862
  0
VERTEX
  8
0
 62
9
  6
CONTINUOUS
 10
106.9096149796
 20
139.4011786901
  0
VERTEX
  8
0
 62
9
  6
CONTINUOUS
 10
107.0131427411
 20
139.4806288811
  0
SEQEND
  0
POLYLINE
  8
0
 62
9
  6
CONTINUOUS
 66
1
 70
0
  0
VERTEX
  8
0
 62
9
  6
CONTINUOUS
 10
106.8556550678
 20
138.9422436542
  0
VERTEX
  8
0
 62
9
  6
CONTINUOUS
 10
106.9850474056
 20
138.9592945661
  0
VERTEX
  8
0
 62
9
  6
CONTINUOUS
 10
107.1056235695
 20
139.0092461263
  0
VERTEX
  8
0
 62
9
  6
CONTINUOUS
 10
107.2091680773
 20
139.0886948748
  0
VERTEX
  8
0
 62
9
  6
CONTINUOUS
 10
107.2886259025
 20
139.1922275545
  0
VERTEX
  8
0
 62
9
  6
CONTINUOUS
 10
107.3385831694
 20
139.3127899447
  0
VERTEX
  8
0
 62
9
  6
CONTINUOUS
 10
107.3556360293
 20
139.4421675018
  0
SEQEND
  0
LINE
  8
0
 62
7
  6
CONTINUOUS
 10
103.0227470804
 20
134.420629036
 11
93.8727470804
 21
134.420629036
  0
LINE
  8
0
 62
7
  6
CONTINUOUS
 10
83.6727470804
 20
134.420629036
 11
74.7727470804
 21
134.420629036
  0
LINE
  8
0
 62
7
  6
CONTINUOUS
 10
64.5727470804
 20
134.420629036
 11
55.6727470804
 21
134.420629036
  0
LINE
  8
0
 62
7
  6
CONTINUOUS
 10
45.4727470804
 20
134.420629036
 11
36.3227470804
 21
134.420629036
  0
LINE
  8
0
 62
9
  6
CONTINUOUS
 10
107.4727470804
 20
134.5592785241
 11
106.9727470804
 21
134.5592785241
  0
LINE
  8
0
 62
9
  6
CONTINUOUS
 10
31.8727470804
 20
134.5592785241
 11
32.3727470804
 21
134.5592785241
  0
LINE
  8
0
 62
9
  6
CONTINUOUS
 10
104.0227470804
 20
134.920629036
 11
92.8727470804
 21
134.920629036
  0
LINE
  8
0
 62
9
  6
CONTINUOUS
 10
84.6727470804
 20
134.920629036
 11
73.7727470804
 21
134.920629036
  0
LINE
  8
0
 62
9
  6
CONTINUOUS
 10
65.5727470804
 20
134.920629036
 11
54.6727470804
 21
134.920629036
  0
LINE
  8
0
 62
9
  6
CONTINUOUS
 10
46.4727470804
 20
134.920629036
 11
35.3227470804
 21
134.920629036
  0
LINE
  8
0
 62
9
  6
CONTINUOUS
 10
107.6727470804
 20
135.1592785241
 11
107.1727470804
 21
135.1592785241
  0
LINE
  8
0
 62
9
  6
CONTINUOUS
 10
31.6727470804
 20
135.1592785241
 11
32.1727470804
 21
135.1592785241
  0
POLYLINE
  8
0
 62
9
  6
CONTINUOUS
 66
1
 70
0
  0
VERTEX
  8
0
 62
9
  6
CONTINUOUS
 10
32.4898390931
 20
138.9422436542
  0
VERTEX
  8
0
 62
9
  6
CONTINUOUS
 10
32.3604467662
 20
138.9592945632
  0
VERTEX
  8
0
 62
9
  6
CONTINUOUS
 10
32.2398706089
 20
139.0092461162
  0
VERTEX
  8
0
 62
9
  6
CONTINUOUS
 10
32.1363261013
 20
139.0886948571
  0
VERTEX
  8
0
 62
9
  6
CONTINUOUS
 10
32.0568682704
 20
139.1922275338
  0
VERTEX
  8
0
 62
9
  6
CONTINUOUS
 10
32.0069109956
 20
139.3127899294
  0
VERTEX
  8
0
 62
9
  6
CONTINUOUS
 10
31.9898581316
 20
139.4421675018
  0
SEQEND
  0
POLYLINE
  8
0
 62
9
  6
CONTINUOUS
 66
1
 70
0
  0
VERTEX
  8
0
 62
9
  6
CONTINUOUS
 10
32.6857397714
 20
139.3340748519
  0
VERTEX
  8
0
 62
9
  6
CONTINUOUS
 10
32.5563474336
 20
139.3511257639
  0
VERTEX
  8
0
 62
9
  6
CONTINUOUS
 10
32.4357712697
 20
139.4010773241
  0
VERTEX
  8
0
 62
9
  6
CONTINUOUS
 10
32.3322267619
 20
139.4805260726
  0
SEQEND
  0
LINE
  8
0
 62
9
  6
CONTINUOUS
 10
58.6400675439
 20
141.52967093
 11
58.8350640306
 21
141.3346744432
  0
LINE
  8
0
 62
9
  6
CONTINUOUS
 10
59.1400485054
 20
142.0296518915
 11
59.3059048948
 21
141.8637955021
  0
LINE
  8
0
 62
7
  6
CONTINUOUS
 10
64.7227470804
 20
146.7473683688
 11
64.7227470804
 21
153.5989987024
  0
LINE
  8
0
 62
7
  6
CONTINUOUS
 10
65.0727470804
 20
127.0689987024
 11
65.0727470804
 21
133.920629036
  0
LINE
  8
0
 62
9
  6
CONTINUOUS
 10
65.5727470804
 20
126.5689987024
 11
65.5727470804
 21
134.920629036
  0
POLYLINE
  8
0
 62
7
  6
CONTINUOUS
 66
1
 70
0
  0
VERTEX
  8
0
 62
7
  6
CONTINUOUS
 10
55.1727470804
 20
129.584253831
  0
VERTEX
  8
0
 62
7
  6
CONTINUOUS
 10
55.1559749573
 20
129.5634600103
  0
VERTEX
  8
0
 62
7
  6
CONTINUOUS
 10
55.1065832888
 20
129.5443140479
  0
VERTEX
  8
0
 62
7
  6
CONTINUOUS
 10
55.0275969118
 20
129.5280221721
  0
VERTEX
  8
0
 62
7
  6
CONTINUOUS
 10
54.9241296599
 20
129.5155982972
  0
VERTEX
  8
0
 62
7
  6
CONTINUOUS
 10
54.8030993487
 20
129.507813194
  0
VERTEX
  8
0
 62
7
  6
CONTINUOUS
 10
54.6727470804
 20
129.5051582214
  0
SEQEND
  0
POLYLINE
  8
0
 62
7
  6
CONTINUOUS
 66
1
 70
0
  0
VERTEX
  8
0
 62
7
  6
CONTINUOUS
 10
74.6227470804
 20
151.0837435738
  0
VERTEX
  8
0
 62
7
  6
CONTINUOUS
 10
74.6395192036
 20
151.1045373945
  0
VERTEX
  8
0
 62
7
  6
CONTINUOUS
 10
74.6889108721
 20
151.1236833569
  0
VERTEX
  8
0
 62
7
  6
CONTINUOUS
 10
74.7678972491
 20
151.1399752328
  0
VERTEX
  8
0
 62
7
  6
CONTINUOUS
 10
74.871364501
 20
151.1523991077
  0
VERTEX
  8
0
 62
7
  6
CONTINUOUS
 10
74.9923948122
 20
151.1601842109
  0
VERTEX
  8
0
 62
7
  6
CONTINUOUS
 10
75.1227470804
 20
151.1628391835
  0
SEQEND
  0
POLYLINE
  8
0
 62
7
  6
CONTINUOUS
 66
1
 70
0
  0
VERTEX
  8
0
 62
7
  6
CONTINUOUS
 10
58.714783588
 20
139.3341510073
  0
VERTEX
  8
0
 62
7
  6
CONTINUOUS
 10
58.7284932345
 20
139.3423664649
  0
VERTEX
  8
0
 62
7
  6
CONTINUOUS
 10
58.773147434
 20
139.3638334111
  0
VERTEX
  8
0
 62
7
  6
CONTINUOUS
 10
58.8571874436
 20
139.4003414365
  0
VERTEX
  8
0
 62
7
  6
CONTINUOUS
 10
58.9957544539
 20
139.4535637858
  0
VERTEX
  8
0
 62
7
  6
CONTINUOUS
 10
59.2087359988
 20
139.5212765761
  0
VERTEX
  8
0
 62
7
  6
CONTINUOUS
 10
59.5158664118
 20
139.5920319828
  0
VERTEX
  8
0
 62
7
  6
CONTINUOUS
 10
59.9092130037
 20
139.6398726399
  0
VERTEX
  8
0
 62
7
  6
CONTINUOUS
 10
60.3362467343
 20
139.6398748011
  0
VERTEX
  8
0
 62
7
  6
CONTINUOUS
 10
60.7295976315
 20
139.592037448
  0
VERTEX
  8
0
 62
7
  6
CONTINUOUS
 10
61.0367449694
 20
139.5212802792
  0
VERTEX
  8
0
 62
7
  6
CONTINUOUS
 10
61.2497378957
 20
139.4535644317
  0
VERTEX
  8
0
 62
7
  6
CONTINUOUS
 10
61.388306171
 20
139.4003416623
  0
VERTEX
  8
0
 62
7
  6
CONTINUOUS
 10
61.4723464289
 20
139.3638335478
  0
VERTEX
  8
0
 62
7
  6
CONTINUOUS
 10
61.5170009007
 20
139.3423664782
  0
VERTEX
  8
0
 62
7
  6
CONTINUOUS
 10
61.5307105729
 20
139.3341510073
  0
SEQEND
  0
POLYLINE
  8
0
 62
7
  6
CONTINUOUS
 66
1
 70
0
  0
VERTEX
  8
0
 62
7
  6
CONTINUOUS
 10
90.1004119651
 20
138.9680948509
  0
VERTEX
  8
0
 62
7
  6
CONTINUOUS
 10
90.0719469794
 20
138.9634130446
  0
VERTEX
  8
0
 62
7
  6
CONTINUOUS
 10
89.9898441718
 20
138.9589283003
  0
VERTEX
  8
0
 62
7
  6
CONTINUOUS
 10
89.8574933876
 20
138.9548257777
  0
VERTEX
  8
0
 62
7
  6
CONTINUOUS
 10
89.6827412464
 20
138.9513138874
  0
VERTEX
  8
0
 62
7
  6
CONTINUOUS
 10
89.4806009189
 20
138.9485830284
  0
VERTEX
  8
0
 62
7
  6
CONTINUOUS
 10
89.2580107916
 20
138.9466182818
  0
VERTEX
  8
0
 62
7
  6
CONTINUOUS
 10
89.0198439565
 20
138.9454199488
  0
VERTEX
  8
0
 62
7
  6
CONTINUOUS
 10
88.7727400803
 20
138.9450151134
  0
VERTEX
  8
0
 62
7
  6
CONTINUOUS
 10
88.5256375118
 20
138.9454199908
  0
VERTEX
  8
0
 62
7
  6
CONTINUOUS
 10
88.2874722461
 20
138.946618358
  0
VERTEX
  8
0
 62
7
  6
CONTINUOUS
 10
88.0648833466
 20
138.9485831372
  0
VERTEX
  8
0
 62
7
  6
CONTINUOUS
 10
87.8627427162
 20
138.951314055
  0
VERTEX
  8
0
 62
7
  6
CONTINUOUS
 10
87.6880013104
 20
138.9548257644
  0
VERTEX
  8
0
 62
7
  6
CONTINUOUS
 10
87.555650236
 20
138.9589282904
  0
VERTEX
  8
0
 62
7
  6
CONTINUOUS
 10
87.4735472474
 20
138.9634130392
  0
VERTEX
  8
0
 62
7
  6
CONTINUOUS
 10
87.4450821958
 20
138.9680948509
  0
SEQEND
  0
POLYLINE
  8
0
 62
7
  6
CONTINUOUS
 66
1
 70
0
  0
VERTEX
  8
0
 62
7
  6
CONTINUOUS
 10
80.5504119651
 20
138.9680948509
  0
VERTEX
  8
0
 62
7
  6
CONTINUOUS
 10
80.5219469794
 20
138.9634130446
  0
VERTEX
  8
0
 62
7
  6
CONTINUOUS
 10
80.4398441718
 20
138.9589283003
  0
VERTEX
  8
0
 62
7
  6
CONTINUOUS
 10
80.3074933876
 20
138.9548257777
  0
VERTEX
  8
0
 62
7
  6
CONTINUOUS
 10
80.1327412464
 20
138.9513138874
  0
VERTEX
  8
0
 62
7
  6
CONTINUOUS
 10
79.9306009189
 20
138.9485830284
  0
VERTEX
  8
0
 62
7
  6
CONTINUOUS
 10
79.7080107916
 20
138.9466182818
  0
VERTEX
  8
0
 62
7
  6
CONTINUOUS
 10
79.4698439565
 20
138.9454199488
  0
VERTEX
  8
0
 62
7
  6
CONTINUOUS
 10
79.2227400803
 20
138.9450151134
  0
VERTEX
  8
0
 62
7
  6
CONTINUOUS
 10
78.9756375118
 20
138.9454199908
  0
VERTEX
  8
0
 62
7
  6
CONTINUOUS
 10
78.7374722461
 20
138.946618358
  0
VERTEX
  8
0
 62
7
  6
CONTINUOUS
 10
78.5148833466
 20
138.9485831372
  0
VERTEX
  8
0
 62
7
  6
CONTINUOUS
 10
78.3127427162
 20
138.951314055
  0
VERTEX
  8
0
 62
7
  6
CONTINUOUS
 10
78.1380013104
 20
138.9548257644
  0
VERTEX
  8
0
 62
7
  6
CONTINUOUS
 10
78.005650236
 20
138.9589282904
  0
VERTEX
  8
0
 62
7
  6
CONTINUOUS
 10
77.9235472474
 20
138.9634130392
  0
VERTEX
  8
0
 62
7
  6
CONTINUOUS
 10
77.8950821958
 20
138.9680948509
  0
SEQEND
  0
POLYLINE
  8
0
 62
9
  6
CONTINUOUS
 66
1
 70
0
  0
VERTEX
  8
0
 62
9
  6
CONTINUOUS
 10
104.8900675439
 20
141.52967093
  0
VERTEX
  8
0
 62
9
  6
CONTINUOUS
 10
105.0194660097
 20
141.5467155797
  0
VERTEX
  8
0
 62
9
  6
CONTINUOUS
 10
105.140047034
 20
141.5966683683
  0
VERTEX
  8
0
 62
9
  6
CONTINUOUS
 10
105.2435940115
 20
141.6761254238
  0
VERTEX
  8
0
 62
9
  6
CONTINUOUS
 10
105.3230510671
 20
141.7796724013
  0
VERTEX
  8
0
 62
9
  6
CONTINUOUS
 10
105.3730038556
 20
141.9002534257
  0
VERTEX
  8
0
 62
9
  6
CONTINUOUS
 10
105.3900485054
 20
142.0296518915
  0
SEQEND
  0
POLYLINE
  8
0
 62
9
  6
CONTINUOUS
 66
1
 70
0
  0
VERTEX
  8
0
 62
9
  6
CONTINUOUS
 10
96.8400675439
 20
141.52967093
  0
VERTEX
  8
0
 62
9
  6
CONTINUOUS
 10
96.9694660097
 20
141.5467155797
  0
VERTEX
  8
0
 62
9
  6
CONTINUOUS
 10
97.090047034
 20
141.5966683683
  0
VERTEX
  8
0
 62
9
  6
CONTINUOUS
 10
97.1935940115
 20
141.6761254238
  0
VERTEX
  8
0
 62
9
  6
CONTINUOUS
 10
97.2730510671
 20
141.7796724013
  0
VERTEX
  8
0
 62
9
  6
CONTINUOUS
 10
97.3230038556
 20
141.9002534257
  0
VERTEX
  8
0
 62
9
  6
CONTINUOUS
 10
97.3400485054
 20
142.0296518915
  0
SEQEND
  0
POLYLINE
  8
0
 62
9
  6
CONTINUOUS
 66
1
 70
0
  0
VERTEX
  8
0
 62
9
  6
CONTINUOUS
 10
105.1879225711
 20
141.3340362832
  0
VERTEX
  8
0
 62
9
  6
CONTINUOUS
 10
105.2114903006
 20
141.3369395162
  0
VERTEX
  8
0
 62
9
  6
CONTINUOUS
 10
105.2599642464
 20
141.3448601453
  0
VERTEX
  8
0
 62
9
  6
CONTINUOUS
 10
105.3107400547
 20
141.3560492633
  0
VERTEX
  8
0
 62
9
  6
CONTINUOUS
 10
105.364798565
 20
141.3713570416
  0
VERTEX
  8
0
 62
9
  6
CONTINUOUS
 10
105.3920734838
 20
141.380470003
  0
VERTEX
  8
0
 62
9
  6
CONTINUOUS
 10
105.443803544
 20
141.400453919
  0
VERTEX
  8
0
 62
9
  6
CONTINUOUS
 10
105.4959009431
 20
141.4243829341
  0
VERTEX
  8
0
 62
9
  6
CONTINUOUS
 10
105.550425314
 20
141.4538898471
  0
VERTEX
  8
0
 62
9
  6
CONTINUOUS
 10
105.5780236024
 20
141.4707225171
  0
SEQEND
  0
POLYLINE
  8
0
 62
9
  6
CONTINUOUS
 66
1
 70
0
  0
VERTEX
  8
0
 62
9
  6
CONTINUOUS
 10
106.0259848375
 20
142.3877412144
  0
VERTEX
  8
0
 62
9
  6
CONTINUOUS
 10
105.9064317487
 20
142.3732509541
  0
VERTEX
  8
0
 62
9
  6
CONTINUOUS
 10
105.7938147928
 20
142.3309381118
  0
VERTEX
  8
0
 62
9
  6
CONTINUOUS
 10
105.694667858
 20
142.2632576457
  0
VERTEX
  8
0
 62
9
  6
CONTINUOUS
 10
105.6519832154
 20
142.2210797999
  0
VERTEX
  8
0
 62
9
  6
CONTINUOUS
 10
105.5834894816
 20
142.12310997
  0
VERTEX
  8
0
 62
9
  6
CONTINUOUS
 10
105.5406682459
 20
142.0118301563
  0
VERTEX
  8
0
 62
9
  6
CONTINUOUS
 10
105.5260038759
 20
141.893696521
  0
SEQEND
  0
LINE
  8
0
 62
9
  6
CONTINUOUS
 10
32.4684026857
 20
136.9425482639
 11
106.8770914752
 21
136.9425482639
  0
POLYLINE
  8
0
 62
9
  6
CONTINUOUS
 66
1
 70
0
  0
VERTEX
  8
0
 62
9
  6
CONTINUOUS
 10
42.505426617
 20
141.52967093
  0
VERTEX
  8
0
 62
9
  6
CONTINUOUS
 10
42.3760281409
 20
141.5467155825
  0
VERTEX
  8
0
 62
9
  6
CONTINUOUS
 10
42.2554471103
 20
141.5966683778
  0
VERTEX
  8
0
 62
9
  6
CONTINUOUS
 10
42.1519001329
 20
141.6761254403
  0
VERTEX
  8
0
 62
9
  6
CONTINUOUS
 10
42.0724430828
 20
141.7796724204
  0
VERTEX
  8
0
 62
9
  6
CONTINUOUS
 10
42.0224903016
 20
141.9002534394
  0
VERTEX
  8
0
 62
9
  6
CONTINUOUS
 10
42.0054456555
 20
142.0296518915
  0
SEQEND
  0
LINE
  8
0
 62
9
  6
CONTINUOUS
 10
74.7727470804
 20
134.420629036
 11
73.7727470804
 21
134.920629036
  0
POLYLINE
  8
0
 62
9
  6
CONTINUOUS
 66
1
 70
0
  0
VERTEX
  8
0
 62
9
  6
CONTINUOUS
 10
60.9131269829
 20
141.4511250479
  0
VERTEX
  8
0
 62
9
  6
CONTINUOUS
 10
60.9912843551
 20
141.4085763024
  0
VERTEX
  8
0
 62
9
  6
CONTINUOUS
 10
61.0672522994
 20
141.375687565
  0
VERTEX
  8
0
 62
9
  6
CONTINUOUS
 10
61.1394367611
 20
141.3513420323
  0
VERTEX
  8
0
 62
9
  6
CONTINUOUS
 10
61.2075980618
 20
141.3340366392
  0
SEQEND
  0
POLYLINE
  8
0
 62
9
  6
CONTINUOUS
 66
1
 70
0
  0
VERTEX
  8
0
 62
9
  6
CONTINUOUS
 10
61.1637270391
 20
141.4059277501
  0
VERTEX
  8
0
 62
9
  6
CONTINUOUS
 10
61.1486456122
 20
141.4159172256
  0
VERTEX
  8
0
 62
9
  6
CONTINUOUS
 10
61.1248160917
 20
141.4335436061
  0
VERTEX
  8
0
 62
9
  6
CONTINUOUS
 10
61.1025174543
 20
141.4523402413
  0
VERTEX
  8
0
 62
9
  6
CONTINUOUS
 10
61.0782673342
 20
141.4757486151
  0
VERTEX
  8
0
 62
9
  6
CONTINUOUS
 10
61.0527185526
 20
141.5044946401
  0
VERTEX
  8
0
 62
9
  6
CONTINUOUS
 10
61.026513398
 20
141.5396477522
  0
VERTEX
  8
0
 62
9
  6
CONTINUOUS
 10
61.0131638263
 20
141.5604761672
  0
VERTEX
  8
0
 62
9
  6
CONTINUOUS
 10
60.9880230703
 20
141.6074938264
  0
VERTEX
  8
0
 62
9
  6
CONTINUOUS
 10
60.9674439217
 20
141.658467332
  0
VERTEX
  8
0
 62
9
  6
CONTINUOUS
 10
60.9519853299
 20
141.7130931017
  0
VERTEX
  8
0
 62
9
  6
CONTINUOUS
 10
60.9422374327
 20
141.770850589
  0
VERTEX
  8
0
 62
9
  6
CONTINUOUS
 10
60.9387402901
 20
141.8315928685
  0
SEQEND
  0
LINE
  8
1_AXIS
 62
2
  6
CENTER
 10
69.6727470804
 20
156.2422721745
 11
69.6727470804
 21
142.3340987024
  0
LINE
  8
1_AXIS
 62
2
  6
CONTINUOUS
 10
69.6727470804
 20
141.2139987024
 11
69.6727470804
 21
139.4539987024
  0
LINE
  8
1_AXIS
 62
2
  6
CENTER
 10
69.6727470804
 20
122.1462611018
 11
69.6727470804
 21
138.3338987024
  0
LINE
  8
0
 62
9
  6
CONTINUOUS
 10
65.5727470804
 20
134.920629036
 11
65.0727470804
 21
133.920629036
  0
POLYLINE
  8
0
 62
7
  6
CONTINUOUS
 66
1
 70
0
  0
VERTEX
  8
0
 62
7
  6
CONTINUOUS
 10
68.264783588
 20
139.3341510073
  0
VERTEX
  8
0
 62
7
  6
CONTINUOUS
 10
68.2784932345
 20
139.3423664649
  0
VERTEX
  8
0
 62
7
  6
CONTINUOUS
 10
68.323147434
 20
139.3638334111
  0
VERTEX
  8
0
 62
7
  6
CONTINUOUS
 10
68.4071874436
 20
139.4003414365
  0
VERTEX
  8
0
 62
7
  6
CONTINUOUS
 10
68.5457544539
 20
139.4535637858
  0
VERTEX
  8
0
 62
7
  6
CONTINUOUS
 10
68.7587359988
 20
139.5212765761
  0
VERTEX
  8
0
 62
7
  6
CONTINUOUS
 10
69.0658664118
 20
139.5920319828
  0
VERTEX
  8
0
 62
7
  6
CONTINUOUS
 10
69.4592130037
 20
139.6398726399
  0
VERTEX
  8
0
 62
7
  6
CONTINUOUS
 10
69.8862467343
 20
139.6398748011
  0
VERTEX
  8
0
 62
7
  6
CONTINUOUS
 10
70.2795976315
 20
139.592037448
  0
VERTEX
  8
0
 62
7
  6
CONTINUOUS
 10
70.5867449694
 20
139.5212802792
  0
VERTEX
  8
0
 62
7
  6
CONTINUOUS
 10
70.7997378957
 20
139.4535644317
  0
VERTEX
  8
0
 62
7
  6
CONTINUOUS
 10
70.938306171
 20
139.4003416623
  0
VERTEX
  8
0
 62
7
  6
CONTINUOUS
 10
71.0223464289
 20
139.3638335478
  0
VERTEX
  8
0
 62
7
  6
CONTINUOUS
 10
71.0670009007
 20
139.3423664782
  0
VERTEX
  8
0
 62
7
  6
CONTINUOUS
 10
71.0807105729
 20
139.3341510073
  0
SEQEND
  0
POLYLINE
  8
0
 62
9
  6
CONTINUOUS
 66
1
 70
0
  0
VERTEX
  8
0
 62
9
  6
CONTINUOUS
 10
78.137897984
 20
141.3340365057
  0
VERTEX
  8
0
 62
9
  6
CONTINUOUS
 10
78.1771495097
 20
141.3433493832
  0
VERTEX
  8
0
 62
9
  6
CONTINUOUS
 10
78.2592745247
 20
141.3686640551
  0
VERTEX
  8
0
 62
9
  6
CONTINUOUS
 10
78.3019543889
 20
141.3851184042
  0
VERTEX
  8
0
 62
9
  6
CONTINUOUS
 10
78.389064621
 20
141.426388341
  0
VERTEX
  8
0
 62
9
  6
CONTINUOUS
 10
78.432367178
 20
141.4511250479
  0
SEQEND
  0
POLYLINE
  8
0
 62
7
  6
CONTINUOUS
 66
1
 70
0
  0
VERTEX
  8
0
 62
7
  6
CONTINUOUS
 10
71.0004119651
 20
138.9680948509
  0
VERTEX
  8
0
 62
7
  6
CONTINUOUS
 10
70.9719469794
 20
138.9634130446
  0
VERTEX
  8
0
 62
7
  6
CONTINUOUS
 10
70.8898441718
 20
138.9589283003
  0
VERTEX
  8
0
 62
7
  6
CONTINUOUS
 10
70.7574933876
 20
138.9548257777
  0
VERTEX
  8
0
 62
7
  6
CONTINUOUS
 10
70.5827412464
 20
138.9513138874
  0
VERTEX
  8
0
 62
7
  6
CONTINUOUS
 10
70.3806009189
 20
138.9485830284
  0
VERTEX
  8
0
 62
7
  6
CONTINUOUS
 10
70.1580107916
 20
138.9466182818
  0
VERTEX
  8
0
 62
7
  6
CONTINUOUS
 10
69.9198439565
 20
138.9454199488
  0
VERTEX
  8
0
 62
7
  6
CONTINUOUS
 10
69.6727400803
 20
138.9450151134
  0
VERTEX
  8
0
 62
7
  6
CONTINUOUS
 10
69.4256375118
 20
138.9454199908
  0
VERTEX
  8
0
 62
7
  6
CONTINUOUS
 10
69.1874722461
 20
138.946618358
  0
VERTEX
  8
0
 62
7
  6
CONTINUOUS
 10
68.9648833466
 20
138.9485831372
  0
VERTEX
  8
0
 62
7
  6
CONTINUOUS
 10
68.7627427162
 20
138.951314055
  0
VERTEX
  8
0
 62
7
  6
CONTINUOUS
 10
68.5880013104
 20
138.9548257644
  0
VERTEX
  8
0
 62
7
  6
CONTINUOUS
 10
68.455650236
 20
138.9589282904
  0
VERTEX
  8
0
 62
7
  6
CONTINUOUS
 10
68.3735472474
 20
138.9634130392
  0
VERTEX
  8
0
 62
7
  6
CONTINUOUS
 10
68.3450821958
 20
138.9680948509
  0
SEQEND
  0
POLYLINE
  8
0
 62
7
  6
CONTINUOUS
 66
1
 70
0
  0
VERTEX
  8
0
 62
7
  6
CONTINUOUS
 10
61.4504119651
 20
138.9680948509
  0
VERTEX
  8
0
 62
7
  6
CONTINUOUS
 10
61.4219469794
 20
138.9634130446
  0
VERTEX
  8
0
 62
7
  6
CONTINUOUS
 10
61.3398441718
 20
138.9589283003
  0
VERTEX
  8
0
 62
7
  6
CONTINUOUS
 10
61.2074933876
 20
138.9548257777
  0
VERTEX
  8
0
 62
7
  6
CONTINUOUS
 10
61.0327412464
 20
138.9513138874
  0
VERTEX
  8
0
 62
7
  6
CONTINUOUS
 10
60.8306009189
 20
138.9485830284
  0
VERTEX
  8
0
 62
7
  6
CONTINUOUS
 10
60.6080107916
 20
138.9466182818
  0
VERTEX
  8
0
 62
7
  6
CONTINUOUS
 10
60.3698439565
 20
138.9454199488
  0
VERTEX
  8
0
 62
7
  6
CONTINUOUS
 10
60.1227400803
 20
138.9450151134
  0
VERTEX
  8
0
 62
7
  6
CONTINUOUS
 10
59.8756375118
 20
138.9454199908
  0
VERTEX
  8
0
 62
7
  6
CONTINUOUS
 10
59.6374722461
 20
138.946618358
  0
VERTEX
  8
0
 62
7
  6
CONTINUOUS
 10
59.4148833466
 20
138.9485831372
  0
VERTEX
  8
0
 62
7
  6
CONTINUOUS
 10
59.2127427162
 20
138.951314055
  0
VERTEX
  8
0
 62
7
  6
CONTINUOUS
 10
59.0380013104
 20
138.9548257644
  0
VERTEX
  8
0
 62
7
  6
CONTINUOUS
 10
58.905650236
 20
138.9589282904
  0
VERTEX
  8
0
 62
7
  6
CONTINUOUS
 10
58.8235472474
 20
138.9634130392
  0
VERTEX
  8
0
 62
7
  6
CONTINUOUS
 10
58.7950821958
 20
138.9680948509
  0
SEQEND
  0
POLYLINE
  8
0
 62
9
  6
CONTINUOUS
 66
1
 70
0
  0
VERTEX
  8
0
 62
9
  6
CONTINUOUS
 10
77.7400675439
 20
141.52967093
  0
VERTEX
  8
0
 62
9
  6
CONTINUOUS
 10
77.8694660097
 20
141.5467155797
  0
VERTEX
  8
0
 62
9
  6
CONTINUOUS
 10
77.990047034
 20
141.5966683683
  0
VERTEX
  8
0
 62
9
  6
CONTINUOUS
 10
78.0935940115
 20
141.6761254238
  0
VERTEX
  8
0
 62
9
  6
CONTINUOUS
 10
78.1730510671
 20
141.7796724013
  0
VERTEX
  8
0
 62
9
  6
CONTINUOUS
 10
78.2230038556
 20
141.9002534257
  0
VERTEX
  8
0
 62
9
  6
CONTINUOUS
 10
78.2400485054
 20
142.0296518915
  0
SEQEND
  0
POLYLINE
  8
0
 62
9
  6
CONTINUOUS
 66
1
 70
0
  0
VERTEX
  8
0
 62
9
  6
CONTINUOUS
 10
98.0058858563
 20
142.3416174195
  0
VERTEX
  8
0
 62
9
  6
CONTINUOUS
 10
97.8864241622
 20
142.327484535
  0
VERTEX
  8
0
 62
9
  6
CONTINUOUS
 10
97.7738825467
 20
142.286491417
  0
VERTEX
  8
0
 62
9
  6
CONTINUOUS
 10
97.6747802294
 20
142.2210126699
  0
VERTEX
  8
0
 62
9
  6
CONTINUOUS
 10
97.6321026945
 20
142.1802265927
  0
VERTEX
  8
0
 62
9
  6
CONTINUOUS
 10
97.5635874026
 20
142.085516533
  0
VERTEX
  8
0
 62
9
  6
CONTINUOUS
 10
97.5206931974
 20
141.9779626963
  0
VERTEX
  8
0
 62
9
  6
CONTINUOUS
 10
97.5059048948
 20
141.8637955021
  0
SEQEND
  0
LINE
  8
0
 62
9
  6
CONTINUOUS
 10
32.4898390931
 20
138.9422436542
 11
106.8556550678
 21
138.9422436542
  0
LINE
  8
0
 62
9
  6
CONTINUOUS
 10
32.6857968854
 20
139.3341510073
 11
39.614783588
 21
139.3341510073
  0
LINE
  8
0
 62
9
  6
CONTINUOUS
 10
42.4307105729
 20
139.3341510073
 11
49.164783588
 21
139.3341510073
  0
LINE
  8
0
 62
9
  6
CONTINUOUS
 10
51.9807105729
 20
139.3341510073
 11
58.714783588
 21
139.3341510073
  0
LINE
  8
0
 62
9
  6
CONTINUOUS
 10
61.5307105729
 20
139.3341510073
 11
68.264783588
 21
139.3341510073
  0
LINE
  8
0
 62
9
  6
CONTINUOUS
 10
71.0807105729
 20
139.3341510073
 11
77.814783588
 21
139.3341510073
  0
LINE
  8
0
 62
9
  6
CONTINUOUS
 10
80.6307105729
 20
139.3341510073
 11
87.364783588
 21
139.3341510073
  0
LINE
  8
0
 62
9
  6
CONTINUOUS
 10
90.1807105729
 20
139.3341510073
 11
96.914783588
 21
139.3341510073
  0
LINE
  8
0
 62
9
  6
CONTINUOUS
 10
99.7307105729
 20
139.3341510073
 11
106.6596972755
 21
139.3341510073
  0
LINE
  8
1_AXIS
 62
2
  6
CENTER
 10
111.4609667038
 20
140.3339987024
 11
71.6728470804
 21
140.3339987024
  0
LINE
  8
1_AXIS
 62
2
  6
CONTINUOUS
 10
70.5527470804
 20
140.3339987024
 11
68.7927470804
 21
140.3339987024
  0
LINE
  8
1_AXIS
 62
2
  6
CENTER
 10
27.6942234512
 20
140.3339987024
 11
67.6726470804
 21
140.3339987024
  0
POLYLINE
  8
0
 62
9
  6
CONTINUOUS
 66
1
 70
0
  0
VERTEX
  8
0
 62
9
  6
CONTINUOUS
 10
34.2601107161
 20
141.334355029
  0
VERTEX
  8
0
 62
9
  6
CONTINUOUS
 10
34.2432477563
 20
141.3346731955
  0
VERTEX
  8
0
 62
9
  6
CONTINUOUS
 10
34.2259345842
 20
141.3356712218
  0
VERTEX
  8
0
 62
9
  6
CONTINUOUS
 10
34.2075547027
 20
141.3374888258
  0
VERTEX
  8
0
 62
9
  6
CONTINUOUS
 10
34.1884025836
 20
141.3402330394
  0
VERTEX
  8
0
 62
9
  6
CONTINUOUS
 10
34.1685852051
 20
141.3440132579
  0
VERTEX
  8
0
 62
9
  6
CONTINUOUS
 10
34.147951743
 20
141.349003282
  0
VERTEX
  8
0
 62
9
  6
CONTINUOUS
 10
34.12628547
 20
141.3554530285
  0
VERTEX
  8
0
 62
9
  6
CONTINUOUS
 10
34.1033424424
 20
141.3637096661
  0
VERTEX
  8
0
 62
9
  6
CONTINUOUS
 10
34.0804660552
 20
141.3735028021
  0
VERTEX
  8
0
 62
9
  6
CONTINUOUS
 10
34.0593747698
 20
141.3840206581
  0
VERTEX
  8
0
 62
9
  6
CONTINUOUS
 10
34.0388231217
 20
141.3957642196
  0
VERTEX
  8
0
 62
9
  6
CONTINUOUS
 10
34.0177637796
 20
141.4094800494
  0
SEQEND
  0
POLYLINE
  8
0
 62
9
  6
CONTINUOUS
 66
1
 70
0
  0
VERTEX
  8
0
 62
9
  6
CONTINUOUS
 10
61.605426617
 20
141.52967093
  0
VERTEX
  8
0
 62
9
  6
CONTINUOUS
 10
61.4760281409
 20
141.5467155825
  0
VERTEX
  8
0
 62
9
  6
CONTINUOUS
 10
61.3554471103
 20
141.5966683778
  0
VERTEX
  8
0
 62
9
  6
CONTINUOUS
 10
61.2519001329
 20
141.6761254403
  0
VERTEX
  8
0
 62
9
  6
CONTINUOUS
 10
61.1724430828
 20
141.7796724204
  0
VERTEX
  8
0
 62
9
  6
CONTINUOUS
 10
61.1224903016
 20
141.9002534394
  0
VERTEX
  8
0
 62
9
  6
CONTINUOUS
 10
61.1054456555
 20
142.0296518915
  0
SEQEND
  0
LINE
  8
0
 62
9
  6
CONTINUOUS
 10
56.0227470804
 20
145.7473683688
 11
55.0227470804
 21
146.2473683688
  0
POLYLINE
  8
0
 62
7
  6
CONTINUOUS
 66
1
 70
0
  0
VERTEX
  8
0
 62
7
  6
CONTINUOUS
 10
68.3450821958
 20
138.9680948509
  0
VERTEX
  8
0
 62
7
  6
CONTINUOUS
 10
68.3183544888
 20
139.087552065
  0
VERTEX
  8
0
 62
7
  6
CONTINUOUS
 10
68.2915890821
 20
139.2095636858
  0
VERTEX
  8
0
 62
7
  6
CONTINUOUS
 10
68.264783588
 20
139.3341510073
  0
SEQEND
  0
POLYLINE
  8
0
 62
7
  6
CONTINUOUS
 66
1
 70
0
  0
VERTEX
  8
0
 62
7
  6
CONTINUOUS
 10
71.0807105729
 20
139.3341510073
  0
VERTEX
  8
0
 62
7
  6
CONTINUOUS
 10
71.0539050845
 20
139.2095637122
  0
VERTEX
  8
0
 62
7
  6
CONTINUOUS
 10
71.0271396787
 20
139.0875520944
  0
VERTEX
  8
0
 62
7
  6
CONTINUOUS
 10
71.0004119651
 20
138.9680948509
  0
SEQEND
  0
LINE
  8
0
 62
9
  6
CONTINUOUS
 10
83.3227470804
 20
145.7473683688
 11
84.3227470804
 21
146.2473683688
  0
LINE
  8
0
 62
9
  6
CONTINUOUS
 10
65.5727470804
 20
134.920629036
 11
64.5727470804
 21
134.420629036
  0
POLYLINE
  8
0
 62
7
  6
CONTINUOUS
 66
1
 70
0
  0
VERTEX
  8
0
 62
7
  6
CONTINUOUS
 10
51.9004119651
 20
138.9680948509
  0
VERTEX
  8
0
 62
7
  6
CONTINUOUS
 10
51.8719469794
 20
138.9634130446
  0
VERTEX
  8
0
 62
7
  6
CONTINUOUS
 10
51.7898441718
 20
138.9589283003
  0
VERTEX
  8
0
 62
7
  6
CONTINUOUS
 10
51.6574933876
 20
138.9548257777
  0
VERTEX
  8
0
 62
7
  6
CONTINUOUS
 10
51.4827412464
 20
138.9513138874
  0
VERTEX
  8
0
 62
7
  6
CONTINUOUS
 10
51.2806009189
 20
138.9485830284
  0
VERTEX
  8
0
 62
7
  6
CONTINUOUS
 10
51.0580107916
 20
138.9466182818
  0
VERTEX
  8
0
 62
7
  6
CONTINUOUS
 10
50.8198439565
 20
138.9454199488
  0
VERTEX
  8
0
 62
7
  6
CONTINUOUS
 10
50.5727400803
 20
138.9450151134
  0
VERTEX
  8
0
 62
7
  6
CONTINUOUS
 10
50.3256375118
 20
138.9454199908
  0
VERTEX
  8
0
 62
7
  6
CONTINUOUS
 10
50.0874722461
 20
138.946618358
  0
VERTEX
  8
0
 62
7
  6
CONTINUOUS
 10
49.8648833466
 20
138.9485831372
  0
VERTEX
  8
0
 62
7
  6
CONTINUOUS
 10
49.6627427162
 20
138.951314055
  0
VERTEX
  8
0
 62
7
  6
CONTINUOUS
 10
49.4880013104
 20
138.9548257644
  0
VERTEX
  8
0
 62
7
  6
CONTINUOUS
 10
49.355650236
 20
138.9589282904
  0
VERTEX
  8
0
 62
7
  6
CONTINUOUS
 10
49.2735472474
 20
138.9634130392
  0
VERTEX
  8
0
 62
7
  6
CONTINUOUS
 10
49.2450821958
 20
138.9680948509
  0
SEQEND
  0
POLYLINE
  8
0
 62
9
  6
CONTINUOUS
 66
1
 70
0
  0
VERTEX
  8
0
 62
9
  6
CONTINUOUS
 10
58.6400675439
 20
141.52967093
  0
VERTEX
  8
0
 62
9
  6
CONTINUOUS
 10
58.7694660097
 20
141.5467155797
  0
VERTEX
  8
0
 62
9
  6
CONTINUOUS
 10
58.890047034
 20
141.5966683683
  0
VERTEX
  8
0
 62
9
  6
CONTINUOUS
 10
58.9935940115
 20
141.6761254238
  0
VERTEX
  8
0
 62
9
  6
CONTINUOUS
 10
59.0730510671
 20
141.7796724013
  0
VERTEX
  8
0
 62
9
  6
CONTINUOUS
 10
59.1230038556
 20
141.9002534257
  0
VERTEX
  8
0
 62
9
  6
CONTINUOUS
 10
59.1400485054
 20
142.0296518915
  0
SEQEND
  0
POLYLINE
  8
0
 62
9
  6
CONTINUOUS
 66
1
 70
0
  0
VERTEX
  8
0
 62
9
  6
CONTINUOUS
 10
78.9058858563
 20
142.3416174195
  0
VERTEX
  8
0
 62
9
  6
CONTINUOUS
 10
78.7864241622
 20
142.327484535
  0
VERTEX
  8
0
 62
9
  6
CONTINUOUS
 10
78.6738825467
 20
142.286491417
  0
VERTEX
  8
0
 62
9
  6
CONTINUOUS
 10
78.5747802294
 20
142.2210126699
  0
VERTEX
  8
0
 62
9
  6
CONTINUOUS
 10
78.5321026945
 20
142.1802265927
  0
VERTEX
  8
0
 62
9
  6
CONTINUOUS
 10
78.4635874026
 20
142.085516533
  0
VERTEX
  8
0
 62
9
  6
CONTINUOUS
 10
78.4206931974
 20
141.9779626963
  0
VERTEX
  8
0
 62
9
  6
CONTINUOUS
 10
78.4059048948
 20
141.8637955021
  0
SEQEND
  0
LINE
  8
0
 62
7
  6
CONTINUOUS
 10
34.2218698561
 20
141.3341377198
 11
34.2601107161
 21
141.334355029
  0
LINE
  8
0
 62
7
  6
CONTINUOUS
 10
80.4228897237
 20
141.3342010155
 11
80.5104301335
 21
141.3346744464
  0
LINE
  8
0
 62
7
  6
CONTINUOUS
 10
99.4994778596
 20
141.3341370866
 11
99.6104301335
 21
141.3346744464
  0
LINE
  8
0
 62
7
  6
CONTINUOUS
 10
61.2995699772
 20
141.3341373022
 11
61.4104301335
 21
141.3346744464
  0
LINE
  8
0
 62
7
  6
CONTINUOUS
 10
42.1993322559
 20
141.3341367464
 11
42.3104301335
 21
141.3346744464
  0
LINE
  8
0
 62
9
  6
CONTINUOUS
 10
99.4994778596
 20
141.3341370866
 11
105.123942984
 21
141.3341365891
  0
LINE
  8
0
 62
9
  6
CONTINUOUS
 10
61.2995699772
 20
141.3341373022
 11
77.9801560579
 21
141.3343728035
  0
LINE
  8
0
 62
9
  6
CONTINUOUS
 10
42.1993322559
 20
141.3341367464
 11
58.8802619399
 21
141.3343722653
  0
LINE
  8
0
 62
9
  6
CONTINUOUS
 10
80.4228897237
 20
141.3342010155
 11
97.0802502563
 21
141.3343723247
  0
LINE
  8
0
 62
9
  6
CONTINUOUS
 10
34.2218698561
 20
141.3341377198
 11
39.7755127234
 21
141.3343970434
  0
LINE
  8
0
 62
7
  6
CONTINUOUS
 10
99.4994778596
 20
141.3341370866
 11
97.237897984
 21
141.3340365057
  0
LINE
  8
0
 62
7
  6
CONTINUOUS
 10
80.4228897237
 20
141.3342010155
 11
78.137897984
 21
141.3340365057
  0
LINE
  8
0
 62
7
  6
CONTINUOUS
 10
34.2218698561
 20
141.3341377198
 11
32.6850305764
 21
141.3340364485
  0
LINE
  8
0
 62
7
  6
CONTINUOUS
 10
61.2995699772
 20
141.3341373022
 11
59.037897984
 21
141.3340365057
  0
LINE
  8
0
 62
7
  6
CONTINUOUS
 10
42.1993322559
 20
141.3341367464
 11
39.937897984
 21
141.3340365057
  0
LINE
  8
0
 62
9
  6
CONTINUOUS
 10
34.455426617
 20
141.52967093
 11
39.5400675439
 21
141.52967093
  0
LINE
  8
0
 62
9
  6
CONTINUOUS
 10
42.505426617
 20
141.52967093
 11
58.6400675439
 21
141.52967093
  0
LINE
  8
0
 62
9
  6
CONTINUOUS
 10
61.605426617
 20
141.52967093
 11
77.7400675439
 21
141.52967093
  0
LINE
  8
0
 62
9
  6
CONTINUOUS
 10
80.705426617
 20
141.52967093
 11
96.8400675439
 21
141.52967093
  0
LINE
  8
0
 62
9
  6
CONTINUOUS
 10
99.805426617
 20
141.52967093
 11
104.8900675439
 21
141.52967093
  0
LINE
  8
0
 62
7
  6
CONTINUOUS
 10
105.123942984
 20
141.3341365891
 11
106.6604635845
 21
141.3340364486
  0
POLYLINE
  8
0
 62
7
  6
CONTINUOUS
 66
1
 70
0
  0
VERTEX
  8
0
 62
7
  6
CONTINUOUS
 10
58.8350640306
 20
141.3346744432
  0
VERTEX
  8
0
 62
7
  6
CONTINUOUS
 10
58.8802619399
 20
141.3343722653
  0
VERTEX
  8
0
 62
7
  6
CONTINUOUS
 10
59.0378814259
 20
141.3340367808
  0
SEQEND
  0
POLYLINE
  8
0
 62
7
  6
CONTINUOUS
 66
1
 70
0
  0
VERTEX
  8
0
 62
7
  6
CONTINUOUS
 10
77.9350640306
 20
141.3346744432
  0
VERTEX
  8
0
 62
7
  6
CONTINUOUS
 10
77.9801560579
 20
141.3343728035
  0
VERTEX
  8
0
 62
7
  6
CONTINUOUS
 10
78.1378814069
 20
141.3340367808
  0
SEQEND
  0
POLYLINE
  8
0
 62
7
  6
CONTINUOUS
 66
1
 70
0
  0
VERTEX
  8
0
 62
7
  6
CONTINUOUS
 10
97.0350640306
 20
141.3346744432
  0
VERTEX
  8
0
 62
7
  6
CONTINUOUS
 10
97.0802502563
 20
141.3343723247
  0
VERTEX
  8
0
 62
7
  6
CONTINUOUS
 10
97.2378814242
 20
141.3340367808
  0
SEQEND
  0
POLYLINE
  8
0
 62
7
  6
CONTINUOUS
 66
1
 70
0
  0
VERTEX
  8
0
 62
7
  6
CONTINUOUS
 10
39.7350640306
 20
141.3346744432
  0
VERTEX
  8
0
 62
7
  6
CONTINUOUS
 10
39.7755127234
 20
141.3343970434
  0
VERTEX
  8
0
 62
7
  6
CONTINUOUS
 10
39.9378721734
 20
141.3340367808
  0
SEQEND
  0
LINE
  8
0
 62
7
  6
CONTINUOUS
 10
105.0853834439
 20
141.3343550299
 11
105.123942984
 21
141.3341365891
  0
POLYLINE
  8
0
 62
9
  6
CONTINUOUS
 66
1
 70
0
  0
VERTEX
  8
0
 62
9
  6
CONTINUOUS
 10
42.3104301335
 20
141.3346744464
  0
VERTEX
  8
0
 62
9
  6
CONTINUOUS
 10
42.2966158556
 20
141.3348756853
  0
VERTEX
  8
0
 62
9
  6
CONTINUOUS
 10
42.2689772601
 20
141.336501591
  0
VERTEX
  8
0
 62
9
  6
CONTINUOUS
 10
42.2397718452
 20
141.3400233788
  0
VERTEX
  8
0
 62
9
  6
CONTINUOUS
 10
42.2082226098
 20
141.3459768544
  0
VERTEX
  8
0
 62
9
  6
CONTINUOUS
 10
42.19165587
 20
141.3500301322
  0
VERTEX
  8
0
 62
9
  6
CONTINUOUS
 10
42.1570880109
 20
141.3606498308
  0
VERTEX
  8
0
 62
9
  6
CONTINUOUS
 10
42.1206968064
 20
141.3752100469
  0
VERTEX
  8
0
 62
9
  6
CONTINUOUS
 10
42.0828590863
 20
141.3944346235
  0
VERTEX
  8
0
 62
9
  6
CONTINUOUS
 10
42.0637270391
 20
141.4059277501
  0
SEQEND
  0
POLYLINE
  8
0
 62
9
  6
CONTINUOUS
 66
1
 70
0
  0
VERTEX
  8
0
 62
9
  6
CONTINUOUS
 10
61.4104301335
 20
141.3346744464
  0
VERTEX
  8
0
 62
9
  6
CONTINUOUS
 10
61.3966158556
 20
141.3348756853
  0
VERTEX
  8
0
 62
9
  6
CONTINUOUS
 10
61.3689772601
 20
141.336501591
  0
VERTEX
  8
0
 62
9
  6
CONTINUOUS
 10
61.3397718452
 20
141.3400233788
  0
VERTEX
  8
0
 62
9
  6
CONTINUOUS
 10
61.3082226098
 20
141.3459768544
  0
VERTEX
  8
0
 62
9
  6
CONTINUOUS
 10
61.29165587
 20
141.3500301322
  0
VERTEX
  8
0
 62
9
  6
CONTINUOUS
 10
61.2570880109
 20
141.3606498308
  0
VERTEX
  8
0
 62
9
  6
CONTINUOUS
 10
61.2206968064
 20
141.3752100469
  0
VERTEX
  8
0
 62
9
  6
CONTINUOUS
 10
61.1828590863
 20
141.3944346235
  0
VERTEX
  8
0
 62
9
  6
CONTINUOUS
 10
61.1637270391
 20
141.4059277501
  0
SEQEND
  0
POLYLINE
  8
0
 62
9
  6
CONTINUOUS
 66
1
 70
0
  0
VERTEX
  8
0
 62
9
  6
CONTINUOUS
 10
80.5104301335
 20
141.3346744464
  0
VERTEX
  8
0
 62
9
  6
CONTINUOUS
 10
80.4966158556
 20
141.3348756853
  0
VERTEX
  8
0
 62
9
  6
CONTINUOUS
 10
80.4689772601
 20
141.336501591
  0
VERTEX
  8
0
 62
9
  6
CONTINUOUS
 10
80.4397718452
 20
141.3400233788
  0
VERTEX
  8
0
 62
9
  6
CONTINUOUS
 10
80.4082226098
 20
141.3459768544
  0
VERTEX
  8
0
 62
9
  6
CONTINUOUS
 10
80.39165587
 20
141.3500301322
  0
VERTEX
  8
0
 62
9
  6
CONTINUOUS
 10
80.3570880109
 20
141.3606498308
  0
VERTEX
  8
0
 62
9
  6
CONTINUOUS
 10
80.3206968064
 20
141.3752100469
  0
VERTEX
  8
0
 62
9
  6
CONTINUOUS
 10
80.2828590863
 20
141.3944346235
  0
VERTEX
  8
0
 62
9
  6
CONTINUOUS
 10
80.2637270391
 20
141.4059277501
  0
SEQEND
  0
POLYLINE
  8
0
 62
9
  6
CONTINUOUS
 66
1
 70
0
  0
VERTEX
  8
0
 62
9
  6
CONTINUOUS
 10
99.6104301335
 20
141.3346744464
  0
VERTEX
  8
0
 62
9
  6
CONTINUOUS
 10
99.5966158556
 20
141.3348756853
  0
VERTEX
  8
0
 62
9
  6
CONTINUOUS
 10
99.5689772601
 20
141.336501591
  0
VERTEX
  8
0
 62
9
  6
CONTINUOUS
 10
99.5397718452
 20
141.3400233788
  0
VERTEX
  8
0
 62
9
  6
CONTINUOUS
 10
99.5082226098
 20
141.3459768544
  0
VERTEX
  8
0
 62
9
  6
CONTINUOUS
 10
99.49165587
 20
141.3500301322
  0
VERTEX
  8
0
 62
9
  6
CONTINUOUS
 10
99.4570880109
 20
141.3606498308
  0
VERTEX
  8
0
 62
9
  6
CONTINUOUS
 10
99.4206968064
 20
141.3752100469
  0
VERTEX
  8
0
 62
9
  6
CONTINUOUS
 10
99.3828590863
 20
141.3944346235
  0
VERTEX
  8
0
 62
9
  6
CONTINUOUS
 10
99.3637270391
 20
141.4059277501
  0
SEQEND
  0
POLYLINE
  8
0
 62
9
  6
CONTINUOUS
 66
1
 70
0
  0
VERTEX
  8
0
 62
9
  6
CONTINUOUS
 10
33.4697075065
 20
145.0681131445
  0
VERTEX
  8
0
 62
9
  6
CONTINUOUS
 10
33.520944769
 20
145.0654539956
  0
VERTEX
  8
0
 62
9
  6
CONTINUOUS
 10
33.6225360547
 20
145.043509221
  0
VERTEX
  8
0
 62
9
  6
CONTINUOUS
 10
33.7178229729
 20
145.0000754652
  0
VERTEX
  8
0
 62
9
  6
CONTINUOUS
 10
33.802231986
 20
144.937114277
  0
VERTEX
  8
0
 62
9
  6
CONTINUOUS
 10
33.8393454095
 20
144.8989698618
  0
VERTEX
  8
0
 62
9
  6
CONTINUOUS
 10
33.9010525839
 20
144.8115551526
  0
VERTEX
  8
0
 62
9
  6
CONTINUOUS
 10
33.943940036
 20
144.7121542662
  0
VERTEX
  8
0
 62
9
  6
CONTINUOUS
 10
33.9657625965
 20
144.6055013013
  0
VERTEX
  8
0
 62
9
  6
CONTINUOUS
 10
33.9684217242
 20
144.551462687
  0
SEQEND
  0
POLYLINE
  8
0
 62
9
  6
CONTINUOUS
 66
1
 70
0
  0
VERTEX
  8
0
 62
9
  6
CONTINUOUS
 10
80.705426617
 20
141.52967093
  0
VERTEX
  8
0
 62
9
  6
CONTINUOUS
 10
80.5760281409
 20
141.5467155825
  0
VERTEX
  8
0
 62
9
  6
CONTINUOUS
 10
80.4554471103
 20
141.5966683778
  0
VERTEX
  8
0
 62
9
  6
CONTINUOUS
 10
80.3519001329
 20
141.6761254403
  0
VERTEX
  8
0
 62
9
  6
CONTINUOUS
 10
80.2724430828
 20
141.7796724204
  0
VERTEX
  8
0
 62
9
  6
CONTINUOUS
 10
80.2224903016
 20
141.9002534394
  0
VERTEX
  8
0
 62
9
  6
CONTINUOUS
 10
80.2054456555
 20
142.0296518915
  0
SEQEND
  0
POLYLINE
  8
0
 62
7
  6
CONTINUOUS
 66
1
 70
0
  0
VERTEX
  8
0
 62
7
  6
CONTINUOUS
 10
64.7227470804
 20
151.0837435738
  0
VERTEX
  8
0
 62
7
  6
CONTINUOUS
 10
64.7059749573
 20
151.1045373945
  0
VERTEX
  8
0
 62
7
  6
CONTINUOUS
 10
64.6565832888
 20
151.1236833569
  0
VERTEX
  8
0
 62
7
  6
CONTINUOUS
 10
64.5775969118
 20
151.1399752328
  0
VERTEX
  8
0
 62
7
  6
CONTINUOUS
 10
64.4741296599
 20
151.1523991077
  0
VERTEX
  8
0
 62
7
  6
CONTINUOUS
 10
64.3530993487
 20
151.1601842109
  0
VERTEX
  8
0
 62
7
  6
CONTINUOUS
 10
64.2227470804
 20
151.1628391835
  0
SEQEND
  0
LINE
  8
0
 62
9
  6
CONTINUOUS
 10
74.2727470804
 20
133.920629036
 11
73.7727470804
 21
134.920629036
  0
LINE
  8
0
 62
9
  6
CONTINUOUS
 10
73.7727470804
 20
126.5689987024
 11
73.7727470804
 21
134.920629036
  0
LINE
  8
0
 62
7
  6
CONTINUOUS
 10
74.2727470804
 20
133.920629036
 11
74.2727470804
 21
127.0689987024
  0
LINE
  8
0
 62
7
  6
CONTINUOUS
 10
74.6227470804
 20
146.7473682511
 11
74.6227470804
 21
153.5989987024
  0
LINE
  8
0
 62
9
  6
CONTINUOUS
 10
75.1227470804
 20
145.7473683688
 11
75.1227470804
 21
154.0989987024
  0
POLYLINE
  8
0
 62
9
  6
CONTINUOUS
 66
1
 70
0
  0
VERTEX
  8
0
 62
9
  6
CONTINUOUS
 10
78.432367178
 20
141.4511250479
  0
VERTEX
  8
0
 62
9
  6
CONTINUOUS
 10
78.4827881129
 20
141.4839076478
  0
VERTEX
  8
0
 62
9
  6
CONTINUOUS
 10
78.5317158035
 20
141.5203093137
  0
VERTEX
  8
0
 62
9
  6
CONTINUOUS
 10
78.5852194902
 20
141.5661022597
  0
VERTEX
  8
0
 62
9
  6
CONTINUOUS
 10
78.6419716599
 20
141.6228998383
  0
VERTEX
  8
0
 62
9
  6
CONTINUOUS
 10
78.7016932933
 20
141.6943865632
  0
VERTEX
  8
0
 62
9
  6
CONTINUOUS
 10
78.7614171068
 20
141.782752654
  0
VERTEX
  8
0
 62
9
  6
CONTINUOUS
 10
78.8124015156
 20
141.8793133113
  0
VERTEX
  8
0
 62
9
  6
CONTINUOUS
 10
78.8533591071
 20
141.9829853771
  0
VERTEX
  8
0
 62
9
  6
CONTINUOUS
 10
78.8832437229
 20
142.0926996213
  0
VERTEX
  8
0
 62
9
  6
CONTINUOUS
 10
78.9013883317
 20
142.2098657554
  0
VERTEX
  8
0
 62
9
  6
CONTINUOUS
 10
78.9058860049
 20
142.3416121716
  0
SEQEND
  0
POLYLINE
  8
0
 62
7
  6
CONTINUOUS
 66
1
 70
0
  0
VERTEX
  8
0
 62
7
  6
CONTINUOUS
 10
77.814783588
 20
139.3341510073
  0
VERTEX
  8
0
 62
7
  6
CONTINUOUS
 10
77.8284932345
 20
139.3423664649
  0
VERTEX
  8
0
 62
7
  6
CONTINUOUS
 10
77.873147434
 20
139.3638334111
  0
VERTEX
  8
0
 62
7
  6
CONTINUOUS
 10
77.9571874436
 20
139.4003414365
  0
VERTEX
  8
0
 62
7
  6
CONTINUOUS
 10
78.0957544539
 20
139.4535637858
  0
VERTEX
  8
0
 62
7
  6
CONTINUOUS
 10
78.3087359988
 20
139.5212765761
  0
VERTEX
  8
0
 62
7
  6
CONTINUOUS
 10
78.6158664118
 20
139.5920319828
  0
VERTEX
  8
0
 62
7
  6
CONTINUOUS
 10
79.0092130037
 20
139.6398726399
  0
VERTEX
  8
0
 62
7
  6
CONTINUOUS
 10
79.4362467343
 20
139.6398748011
  0
VERTEX
  8
0
 62
7
  6
CONTINUOUS
 10
79.8295976315
 20
139.592037448
  0
VERTEX
  8
0
 62
7
  6
CONTINUOUS
 10
80.1367449694
 20
139.5212802792
  0
VERTEX
  8
0
 62
7
  6
CONTINUOUS
 10
80.3497378957
 20
139.4535644317
  0
VERTEX
  8
0
 62
7
  6
CONTINUOUS
 10
80.488306171
 20
139.4003416623
  0
VERTEX
  8
0
 62
7
  6
CONTINUOUS
 10
80.5723464289
 20
139.3638335478
  0
VERTEX
  8
0
 62
7
  6
CONTINUOUS
 10
80.6170009007
 20
139.3423664782
  0
VERTEX
  8
0
 62
7
  6
CONTINUOUS
 10
80.6307105729
 20
139.3341510073
  0
SEQEND
  0
POLYLINE
  8
0
 62
9
  6
CONTINUOUS
 66
1
 70
0
  0
VERTEX
  8
0
 62
9
  6
CONTINUOUS
 10
78.1817671218
 20
141.4059277501
  0
VERTEX
  8
0
 62
9
  6
CONTINUOUS
 10
78.1382860657
 20
141.3815588737
  0
VERTEX
  8
0
 62
9
  6
CONTINUOUS
 10
78.0951112928
 20
141.3630627996
  0
VERTEX
  8
0
 62
9
  6
CONTINUOUS
 10
78.0538684534
 20
141.3500381145
  0
VERTEX
  8
0
 62
9
  6
CONTINUOUS
 10
78.0341390981
 20
141.3452833209
  0
VERTEX
  8
0
 62
9
  6
CONTINUOUS
 10
77.9969661124
 20
141.3387700357
  0
VERTEX
  8
0
 62
9
  6
CONTINUOUS
 10
77.9639755895
 20
141.3355604851
  0
VERTEX
  8
0
 62
9
  6
CONTINUOUS
 10
77.9350640306
 20
141.3346744432
  0
SEQEND
  0
POLYLINE
  8
0
 62
9
  6
CONTINUOUS
 66
1
 70
0
  0
VERTEX
  8
0
 62
9
  6
CONTINUOUS
 10
59.037897984
 20
141.3340365057
  0
VERTEX
  8
0
 62
9
  6
CONTINUOUS
 10
59.0771495097
 20
141.3433493832
  0
VERTEX
  8
0
 62
9
  6
CONTINUOUS
 10
59.1592745247
 20
141.3686640551
  0
VERTEX
  8
0
 62
9
  6
CONTINUOUS
 10
59.2019543889
 20
141.3851184042
  0
VERTEX
  8
0
 62
9
  6
CONTINUOUS
 10
59.289064621
 20
141.426388341
  0
VERTEX
  8
0
 62
9
  6
CONTINUOUS
 10
59.332367178
 20
141.4511250479
  0
SEQEND
  0
POLYLINE
  8
0
 62
7
  6
CONTINUOUS
 66
1
 70
0
  0
VERTEX
  8
0
 62
7
  6
CONTINUOUS
 10
42.3504119651
 20
138.9680948509
  0
VERTEX
  8
0
 62
7
  6
CONTINUOUS
 10
42.3219469794
 20
138.9634130446
  0
VERTEX
  8
0
 62
7
  6
CONTINUOUS
 10
42.2398441718
 20
138.9589283003
  0
VERTEX
  8
0
 62
7
  6
CONTINUOUS
 10
42.1074933876
 20
138.9548257777
  0
VERTEX
  8
0
 62
7
  6
CONTINUOUS
 10
41.9327412464
 20
138.9513138874
  0
VERTEX
  8
0
 62
7
  6
CONTINUOUS
 10
41.7306009189
 20
138.9485830284
  0
VERTEX
  8
0
 62
7
  6
CONTINUOUS
 10
41.5080107916
 20
138.9466182818
  0
VERTEX
  8
0
 62
7
  6
CONTINUOUS
 10
41.2698439565
 20
138.9454199488
  0
VERTEX
  8
0
 62
7
  6
CONTINUOUS
 10
41.0227400803
 20
138.9450151134
  0
VERTEX
  8
0
 62
7
  6
CONTINUOUS
 10
40.7756375118
 20
138.9454199908
  0
VERTEX
  8
0
 62
7
  6
CONTINUOUS
 10
40.5374722461
 20
138.946618358
  0
VERTEX
  8
0
 62
7
  6
CONTINUOUS
 10
40.3148833466
 20
138.9485831372
  0
VERTEX
  8
0
 62
7
  6
CONTINUOUS
 10
40.1127427162
 20
138.951314055
  0
VERTEX
  8
0
 62
7
  6
CONTINUOUS
 10
39.9380013104
 20
138.9548257644
  0
VERTEX
  8
0
 62
7
  6
CONTINUOUS
 10
39.805650236
 20
138.9589282904
  0
VERTEX
  8
0
 62
7
  6
CONTINUOUS
 10
39.7235472474
 20
138.9634130392
  0
VERTEX
  8
0
 62
7
  6
CONTINUOUS
 10
39.6950821958
 20
138.9680948509
  0
SEQEND
  0
POLYLINE
  8
0
 62
9
  6
CONTINUOUS
 66
1
 70
0
  0
VERTEX
  8
0
 62
9
  6
CONTINUOUS
 10
39.5400675439
 20
141.52967093
  0
VERTEX
  8
0
 62
9
  6
CONTINUOUS
 10
39.6694660097
 20
141.5467155797
  0
VERTEX
  8
0
 62
9
  6
CONTINUOUS
 10
39.790047034
 20
141.5966683683
  0
VERTEX
  8
0
 62
9
  6
CONTINUOUS
 10
39.8935940115
 20
141.6761254238
  0
VERTEX
  8
0
 62
9
  6
CONTINUOUS
 10
39.9730510671
 20
141.7796724013
  0
VERTEX
  8
0
 62
9
  6
CONTINUOUS
 10
40.0230038556
 20
141.9002534257
  0
VERTEX
  8
0
 62
9
  6
CONTINUOUS
 10
40.0400485054
 20
142.0296518915
  0
SEQEND
  0
POLYLINE
  8
0
 62
9
  6
CONTINUOUS
 66
1
 70
0
  0
VERTEX
  8
0
 62
9
  6
CONTINUOUS
 10
59.8058858563
 20
142.3416174195
  0
VERTEX
  8
0
 62
9
  6
CONTINUOUS
 10
59.6864241622
 20
142.327484535
  0
VERTEX
  8
0
 62
9
  6
CONTINUOUS
 10
59.5738825467
 20
142.286491417
  0
VERTEX
  8
0
 62
9
  6
CONTINUOUS
 10
59.4747802294
 20
142.2210126699
  0
VERTEX
  8
0
 62
9
  6
CONTINUOUS
 10
59.4321026945
 20
142.1802265927
  0
VERTEX
  8
0
 62
9
  6
CONTINUOUS
 10
59.3635874026
 20
142.085516533
  0
VERTEX
  8
0
 62
9
  6
CONTINUOUS
 10
59.3206931974
 20
141.9779626963
  0
VERTEX
  8
0
 62
9
  6
CONTINUOUS
 10
59.3059048948
 20
141.8637955021
  0
SEQEND
  0
POLYLINE
  8
0
 62
9
  6
CONTINUOUS
 66
1
 70
0
  0
VERTEX
  8
0
 62
9
  6
CONTINUOUS
 10
40.7058858563
 20
142.3416174195
  0
VERTEX
  8
0
 62
9
  6
CONTINUOUS
 10
40.5864241622
 20
142.327484535
  0
VERTEX
  8
0
 62
9
  6
CONTINUOUS
 10
40.4738825467
 20
142.286491417
  0
VERTEX
  8
0
 62
9
  6
CONTINUOUS
 10
40.3747802294
 20
142.2210126699
  0
VERTEX
  8
0
 62
9
  6
CONTINUOUS
 10
40.3321026945
 20
142.1802265927
  0
VERTEX
  8
0
 62
9
  6
CONTINUOUS
 10
40.2635874026
 20
142.085516533
  0
VERTEX
  8
0
 62
9
  6
CONTINUOUS
 10
40.2206931974
 20
141.9779626963
  0
VERTEX
  8
0
 62
9
  6
CONTINUOUS
 10
40.2059048948
 20
141.8637955021
  0
SEQEND
  0
POLYLINE
  8
0
 62
9
  6
CONTINUOUS
 66
1
 70
0
  0
VERTEX
  8
0
 62
9
  6
CONTINUOUS
 10
105.8757866544
 20
145.5621578379
  0
VERTEX
  8
0
 62
9
  6
CONTINUOUS
 10
105.7722073723
 20
145.5567138278
  0
VERTEX
  8
0
 62
9
  6
CONTINUOUS
 10
105.5691424589
 20
145.5133837904
  0
VERTEX
  8
0
 62
9
  6
CONTINUOUS
 10
105.3790571296
 20
145.4283787255
  0
VERTEX
  8
0
 62
9
  6
CONTINUOUS
 10
105.2101457582
 20
145.3050858518
  0
VERTEX
  8
0
 62
9
  6
CONTINUOUS
 10
105.1359808686
 20
145.2305751624
  0
VERTEX
  8
0
 62
9
  6
CONTINUOUS
 10
105.0124450923
 20
145.0597059978
  0
VERTEX
  8
0
 62
9
  6
CONTINUOUS
 10
104.9266121145
 20
144.8659229922
  0
VERTEX
  8
0
 62
9
  6
CONTINUOUS
 10
104.8826257842
 20
144.6577818955
  0
VERTEX
  8
0
 62
9
  6
CONTINUOUS
 10
104.8770914752
 20
144.551462687
  0
SEQEND
  0
LINE
  8
0
 62
9
  6
CONTINUOUS
 10
33.9684217242
 20
143.5295947761
 11
40.0270724367
 21
143.5295947761
  0
LINE
  8
0
 62
9
  6
CONTINUOUS
 10
42.0184217242
 20
143.5295947761
 11
59.1270724367
 21
143.5295947761
  0
LINE
  8
0
 62
9
  6
CONTINUOUS
 10
61.1184217242
 20
143.5295947761
 11
78.2270724367
 21
143.5295947761
  0
LINE
  8
0
 62
9
  6
CONTINUOUS
 10
80.2184217242
 20
143.5295947761
 11
97.3270724367
 21
143.5295947761
  0
LINE
  8
0
 62
9
  6
CONTINUOUS
 10
99.3184217242
 20
143.5295947761
 11
105.3770724367
 21
143.5295947761
  0
LINE
  8
0
 62
9
  6
CONTINUOUS
 10
107.6727470804
 20
144.2258515167
 11
107.3731127554
 21
144.2258515167
  0
LINE
  8
0
 62
9
  6
CONTINUOUS
 10
31.6727470804
 20
144.2258515167
 11
31.9723814055
 21
144.2258515167
  0
LINE
  8
0
 62
9
  6
CONTINUOUS
 10
33.9684217242
 20
144.551462687
 11
34.4684026857
 21
144.551462687
  0
LINE
  8
0
 62
9
  6
CONTINUOUS
 10
104.8770914752
 20
144.551462687
 11
105.3770724367
 21
144.551462687
  0
LINE
  8
0
 62
9
  6
CONTINUOUS
 10
107.4727470804
 20
144.8286675927
 11
107.3745131305
 21
144.8286675927
  0
LINE
  8
0
 62
9
  6
CONTINUOUS
 10
31.8727470804
 20
144.8286675927
 11
31.9709810304
 21
144.8286675927
  0
LINE
  8
0
 62
9
  6
CONTINUOUS
 10
106.8697075065
 20
145.0681131445
 11
105.8757866544
 21
145.0681131445
  0
LINE
  8
0
 62
9
  6
CONTINUOUS
 10
33.4697075065
 20
145.0681131445
 11
32.4757866544
 21
145.0681131445
  0
LINE
  8
0
 62
9
  6
CONTINUOUS
 10
106.8770914752
 20
145.5621578379
 11
105.8757866544
 21
145.5621578379
  0
LINE
  8
0
 62
9
  6
CONTINUOUS
 10
33.4697075065
 20
145.5621578379
 11
32.4684026857
 21
145.5621578379
  0
LINE
  8
0
 62
9
  6
CONTINUOUS
 10
31.8727470804
 20
145.7473683688
 11
37.3727470804
 21
145.7473683688
  0
LINE
  8
0
 62
9
  6
CONTINUOUS
 10
45.1227470804
 20
145.7473683688
 11
56.0227470804
 21
145.7473683688
  0
LINE
  8
0
 62
9
  6
CONTINUOUS
 10
64.2227470804
 20
145.7473683688
 11
75.1227470804
 21
145.7473683688
  0
LINE
  8
0
 62
9
  6
CONTINUOUS
 10
83.3227470804
 20
145.7473683688
 11
94.2227470804
 21
145.7473683688
  0
LINE
  8
0
 62
9
  6
CONTINUOUS
 10
101.9727470804
 20
145.7473683688
 11
107.4727470804
 21
145.7473683688
  0
POLYLINE
  8
0
 62
9
  6
CONTINUOUS
 66
1
 70
0
  0
VERTEX
  8
0
 62
9
  6
CONTINUOUS
 10
41.5209348864
 20
148.7452866819
  0
VERTEX
  8
0
 62
9
  6
CONTINUOUS
 10
41.6148518442
 20
148.7353891503
  0
VERTEX
  8
0
 62
9
  6
CONTINUOUS
 10
41.7068659372
 20
148.7048936468
  0
VERTEX
  8
0
 62
9
  6
CONTINUOUS
 10
41.7922360492
 20
148.6546909352
  0
VERTEX
  8
0
 62
9
  6
CONTINUOUS
 10
41.8680619137
 20
148.586025955
  0
VERTEX
  8
0
 62
9
  6
CONTINUOUS
 10
41.9313364398
 20
148.5007402463
  0
VERTEX
  8
0
 62
9
  6
CONTINUOUS
 10
41.9789928175
 20
148.4018147111
  0
VERTEX
  8
0
 62
9
  6
CONTINUOUS
 10
42.0086072004
 20
148.2928674263
  0
VERTEX
  8
0
 62
9
  6
CONTINUOUS
 10
42.0184217242
 20
148.1793831208
  0
SEQEND
  0
POLYLINE
  8
0
 62
9
  6
CONTINUOUS
 66
1
 70
0
  0
VERTEX
  8
0
 62
9
  6
CONTINUOUS
 10
99.805426617
 20
141.52967093
  0
VERTEX
  8
0
 62
9
  6
CONTINUOUS
 10
99.6760281409
 20
141.5467155825
  0
VERTEX
  8
0
 62
9
  6
CONTINUOUS
 10
99.5554471103
 20
141.5966683778
  0
VERTEX
  8
0
 62
9
  6
CONTINUOUS
 10
99.4519001329
 20
141.6761254403
  0
VERTEX
  8
0
 62
9
  6
CONTINUOUS
 10
99.3724430828
 20
141.7796724204
  0
VERTEX
  8
0
 62
9
  6
CONTINUOUS
 10
99.3224903016
 20
141.9002534394
  0
VERTEX
  8
0
 62
9
  6
CONTINUOUS
 10
99.3054456555
 20
142.0296518915
  0
SEQEND
  0
LINE
  8
0
 62
9
  6
CONTINUOUS
 10
93.8727470804
 20
134.420629036
 11
92.8727470804
 21
134.920629036
  0
POLYLINE
  8
0
 62
7
  6
CONTINUOUS
 66
1
 70
0
  0
VERTEX
  8
0
 62
7
  6
CONTINUOUS
 10
84.1727470804
 20
129.584253831
  0
VERTEX
  8
0
 62
7
  6
CONTINUOUS
 10
84.1895192036
 20
129.5634600103
  0
VERTEX
  8
0
 62
7
  6
CONTINUOUS
 10
84.2389108721
 20
129.5443140479
  0
VERTEX
  8
0
 62
7
  6
CONTINUOUS
 10
84.3178972491
 20
129.5280221721
  0
VERTEX
  8
0
 62
7
  6
CONTINUOUS
 10
84.421364501
 20
129.5155982972
  0
VERTEX
  8
0
 62
7
  6
CONTINUOUS
 10
84.5423948122
 20
129.507813194
  0
VERTEX
  8
0
 62
7
  6
CONTINUOUS
 10
84.6727470804
 20
129.5051582214
  0
SEQEND
  0
POLYLINE
  8
0
 62
9
  6
CONTINUOUS
 66
1
 70
0
  0
VERTEX
  8
0
 62
9
  6
CONTINUOUS
 10
77.7272895402
 20
143.1829969624
  0
VERTEX
  8
0
 62
9
  6
CONTINUOUS
 10
77.7278686742
 20
142.8507156033
  0
VERTEX
  8
0
 62
9
  6
CONTINUOUS
 10
77.7288117155
 20
142.5385201555
  0
VERTEX
  8
0
 62
9
  6
CONTINUOUS
 10
77.7300908152
 20
142.2556173147
  0
VERTEX
  8
0
 62
9
  6
CONTINUOUS
 10
77.7316681762
 20
142.0103676165
  0
VERTEX
  8
0
 62
9
  6
CONTINUOUS
 10
77.733497198
 20
141.8100189008
  0
VERTEX
  8
0
 62
9
  6
CONTINUOUS
 10
77.735524099
 20
141.6604792142
  0
VERTEX
  8
0
 62
9
  6
CONTINUOUS
 10
77.7377103199
 20
141.5655639927
  0
VERTEX
  8
0
 62
9
  6
CONTINUOUS
 10
77.7400675439
 20
141.52967093
  0
SEQEND
  0
LINE
  8
0
 62
9
  6
CONTINUOUS
 10
77.7270914752
 20
148.1793831208
 11
77.7272895402
 21
143.1829969624
  0
POLYLINE
  8
0
 62
9
  6
CONTINUOUS
 66
1
 70
0
  0
VERTEX
  8
0
 62
9
  6
CONTINUOUS
 10
78.2270724367
 20
148.1793831208
  0
VERTEX
  8
0
 62
9
  6
CONTINUOUS
 10
78.2368869605
 20
148.2928674263
  0
VERTEX
  8
0
 62
9
  6
CONTINUOUS
 10
78.2665013434
 20
148.4018147111
  0
VERTEX
  8
0
 62
9
  6
CONTINUOUS
 10
78.3141577211
 20
148.5007402463
  0
VERTEX
  8
0
 62
9
  6
CONTINUOUS
 10
78.3774322472
 20
148.586025955
  0
VERTEX
  8
0
 62
9
  6
CONTINUOUS
 10
78.4532581116
 20
148.6546909352
  0
VERTEX
  8
0
 62
9
  6
CONTINUOUS
 10
78.5386282237
 20
148.7048936468
  0
VERTEX
  8
0
 62
9
  6
CONTINUOUS
 10
78.6306423167
 20
148.7353891503
  0
VERTEX
  8
0
 62
9
  6
CONTINUOUS
 10
78.7245592745
 20
148.7452866819
  0
SEQEND
  0
POLYLINE
  8
0
 62
9
  6
CONTINUOUS
 66
1
 70
0
  0
VERTEX
  8
0
 62
9
  6
CONTINUOUS
 10
77.7270914752
 20
148.1793831208
  0
VERTEX
  8
0
 62
9
  6
CONTINUOUS
 10
77.7472223174
 20
148.3882305815
  0
VERTEX
  8
0
 62
9
  6
CONTINUOUS
 10
77.8069367914
 20
148.5888884972
  0
VERTEX
  8
0
 62
9
  6
CONTINUOUS
 10
77.9026984818
 20
148.7711882255
  0
VERTEX
  8
0
 62
9
  6
CONTINUOUS
 10
78.0296426079
 20
148.9284523241
  0
VERTEX
  8
0
 62
9
  6
CONTINUOUS
 10
78.1816133048
 20
149.0551724807
  0
VERTEX
  8
0
 62
9
  6
CONTINUOUS
 10
78.3525861385
 20
149.1479491729
  0
VERTEX
  8
0
 62
9
  6
CONTINUOUS
 10
78.5367514966
 20
149.2044799988
  0
VERTEX
  8
0
 62
9
  6
CONTINUOUS
 10
78.7245592745
 20
149.2231085993
  0
SEQEND
  0
LINE
  8
0
 62
9
  6
CONTINUOUS
 10
80.0395892661
 20
141.8637955021
 11
80.2054456555
 21
142.0296518915
  0
LINE
  8
0
 62
9
  6
CONTINUOUS
 10
80.5104301335
 20
141.3346744464
 11
80.705426617
 21
141.52967093
  0
POLYLINE
  8
0
 62
9
  6
CONTINUOUS
 66
1
 70
0
  0
VERTEX
  8
0
 62
9
  6
CONTINUOUS
 10
39.937897984
 20
141.3340365057
  0
VERTEX
  8
0
 62
9
  6
CONTINUOUS
 10
39.9771495097
 20
141.3433493832
  0
VERTEX
  8
0
 62
9
  6
CONTINUOUS
 10
40.0592745247
 20
141.3686640551
  0
VERTEX
  8
0
 62
9
  6
CONTINUOUS
 10
40.1019543889
 20
141.3851184042
  0
VERTEX
  8
0
 62
9
  6
CONTINUOUS
 10
40.189064621
 20
141.426388341
  0
VERTEX
  8
0
 62
9
  6
CONTINUOUS
 10
40.232367178
 20
141.4511250479
  0
SEQEND
  0
LINE
  8
0
 62
7
  6
CONTINUOUS
 10
32.3727470804
 20
146.2473683688
 11
36.3727470804
 21
146.2473683688
  0
LINE
  8
0
 62
7
  6
CONTINUOUS
 10
46.1227470804
 20
146.2473683688
 11
55.0227470804
 21
146.2473683688
  0
LINE
  8
0
 62
7
  6
CONTINUOUS
 10
65.2227470804
 20
146.2473683688
 11
74.1227470804
 21
146.2473683688
  0
LINE
  8
0
 62
7
  6
CONTINUOUS
 10
84.3227470804
 20
146.2473683688
 11
93.2227470804
 21
146.2473683688
  0
LINE
  8
0
 62
7
  6
CONTINUOUS
 10
102.9727470804
 20
146.2473683688
 11
106.9727470804
 21
146.2473683688
  0
LINE
  8
0
 62
9
  6
CONTINUOUS
 10
39.5270914752
 20
148.1793831208
 11
40.0270724367
 21
148.1793831208
  0
LINE
  8
0
 62
9
  6
CONTINUOUS
 10
42.0184217242
 20
148.1793831208
 11
42.5184026857
 21
148.1793831208
  0
LINE
  8
0
 62
9
  6
CONTINUOUS
 10
58.6270914752
 20
148.1793831208
 11
59.1270724367
 21
148.1793831208
  0
LINE
  8
0
 62
9
  6
CONTINUOUS
 10
61.1184217242
 20
148.1793831208
 11
61.6184026857
 21
148.1793831208
  0
LINE
  8
0
 62
9
  6
CONTINUOUS
 10
77.7270914752
 20
148.1793831208
 11
78.2270724367
 21
148.1793831208
  0
LINE
  8
0
 62
9
  6
CONTINUOUS
 10
80.2184217242
 20
148.1793831208
 11
80.7184026857
 21
148.1793831208
  0
LINE
  8
0
 62
9
  6
CONTINUOUS
 10
96.8270914752
 20
148.1793831208
 11
97.3270724367
 21
148.1793831208
  0
LINE
  8
0
 62
9
  6
CONTINUOUS
 10
99.3184217242
 20
148.1793831208
 11
99.8184026857
 21
148.1793831208
  0
LINE
  8
0
 62
9
  6
CONTINUOUS
 10
98.8209348864
 20
148.7452866819
 11
97.8245592745
 21
148.7452866819
  0
LINE
  8
0
 62
9
  6
CONTINUOUS
 10
79.7209348864
 20
148.7452866819
 11
78.7245592745
 21
148.7452866819
  0
LINE
  8
0
 62
9
  6
CONTINUOUS
 10
60.6209348864
 20
148.7452866819
 11
59.6245592745
 21
148.7452866819
  0
LINE
  8
0
 62
9
  6
CONTINUOUS
 10
41.5209348864
 20
148.7452866819
 11
40.5245592745
 21
148.7452866819
  0
POLYLINE
  8
0
 62
9
  6
CONTINUOUS
 66
1
 70
0
  0
VERTEX
  8
0
 62
9
  6
CONTINUOUS
 10
41.5209348864
 20
149.2231085993
  0
VERTEX
  8
0
 62
9
  6
CONTINUOUS
 10
41.7087426644
 20
149.2044799993
  0
VERTEX
  8
0
 62
9
  6
CONTINUOUS
 10
41.8929080224
 20
149.147949173
  0
VERTEX
  8
0
 62
9
  6
CONTINUOUS
 10
42.0638808561
 20
149.0551724807
  0
VERTEX
  8
0
 62
9
  6
CONTINUOUS
 10
42.215851553
 20
148.9284523241
  0
VERTEX
  8
0
 62
9
  6
CONTINUOUS
 10
42.3427956791
 20
148.7711882255
  0
VERTEX
  8
0
 62
9
  6
CONTINUOUS
 10
42.4385573695
 20
148.5888884972
  0
VERTEX
  8
0
 62
9
  6
CONTINUOUS
 10
42.4982718434
 20
148.3882305815
  0
VERTEX
  8
0
 62
9
  6
CONTINUOUS
 10
42.5184026857
 20
148.1793831208
  0
SEQEND
  0
POLYLINE
  8
0
 62
9
  6
CONTINUOUS
 66
1
 70
0
  0
VERTEX
  8
0
 62
9
  6
CONTINUOUS
 10
60.6209348864
 20
149.2231085993
  0
VERTEX
  8
0
 62
9
  6
CONTINUOUS
 10
60.8087426644
 20
149.2044799993
  0
VERTEX
  8
0
 62
9
  6
CONTINUOUS
 10
60.9929080224
 20
149.147949173
  0
VERTEX
  8
0
 62
9
  6
CONTINUOUS
 10
61.1638808561
 20
149.0551724807
  0
VERTEX
  8
0
 62
9
  6
CONTINUOUS
 10
61.315851553
 20
148.9284523241
  0
VERTEX
  8
0
 62
9
  6
CONTINUOUS
 10
61.4427956791
 20
148.7711882255
  0
VERTEX
  8
0
 62
9
  6
CONTINUOUS
 10
61.5385573695
 20
148.5888884972
  0
VERTEX
  8
0
 62
9
  6
CONTINUOUS
 10
61.5982718434
 20
148.3882305815
  0
VERTEX
  8
0
 62
9
  6
CONTINUOUS
 10
61.6184026857
 20
148.1793831208
  0
SEQEND
  0
POLYLINE
  8
0
 62
9
  6
CONTINUOUS
 66
1
 70
0
  0
VERTEX
  8
0
 62
9
  6
CONTINUOUS
 10
60.6209348864
 20
148.7452866819
  0
VERTEX
  8
0
 62
9
  6
CONTINUOUS
 10
60.7148518442
 20
148.7353891503
  0
VERTEX
  8
0
 62
9
  6
CONTINUOUS
 10
60.8068659372
 20
148.7048936468
  0
VERTEX
  8
0
 62
9
  6
CONTINUOUS
 10
60.8922360492
 20
148.6546909352
  0
VERTEX
  8
0
 62
9
  6
CONTINUOUS
 10
60.9680619137
 20
148.586025955
  0
VERTEX
  8
0
 62
9
  6
CONTINUOUS
 10
61.0313364398
 20
148.5007402463
  0
VERTEX
  8
0
 62
9
  6
CONTINUOUS
 10
61.0789928175
 20
148.4018147111
  0
VERTEX
  8
0
 62
9
  6
CONTINUOUS
 10
61.1086072004
 20
148.2928674263
  0
VERTEX
  8
0
 62
9
  6
CONTINUOUS
 10
61.1184217242
 20
148.1793831208
  0
SEQEND
  0
LINE
  8
0
 62
9
  6
CONTINUOUS
 10
75.1227470804
 20
145.7473683688
 11
74.1227470804
 21
146.2473683688
  0
POLYLINE
  8
0
 62
9
  6
CONTINUOUS
 66
1
 70
0
  0
VERTEX
  8
0
 62
9
  6
CONTINUOUS
 10
80.0131269829
 20
141.4511250479
  0
VERTEX
  8
0
 62
9
  6
CONTINUOUS
 10
80.0912843551
 20
141.4085763024
  0
VERTEX
  8
0
 62
9
  6
CONTINUOUS
 10
80.1672522994
 20
141.375687565
  0
VERTEX
  8
0
 62
9
  6
CONTINUOUS
 10
80.2394367611
 20
141.3513420323
  0
VERTEX
  8
0
 62
9
  6
CONTINUOUS
 10
80.3075980618
 20
141.3340366392
  0
SEQEND
  0
POLYLINE
  8
0
 62
9
  6
CONTINUOUS
 66
1
 70
0
  0
VERTEX
  8
0
 62
9
  6
CONTINUOUS
 10
80.2637270391
 20
141.4059277501
  0
VERTEX
  8
0
 62
9
  6
CONTINUOUS
 10
80.2486456122
 20
141.4159172256
  0
VERTEX
  8
0
 62
9
  6
CONTINUOUS
 10
80.2248160917
 20
141.4335436061
  0
VERTEX
  8
0
 62
9
  6
CONTINUOUS
 10
80.2025174543
 20
141.4523402413
  0
VERTEX
  8
0
 62
9
  6
CONTINUOUS
 10
80.1782673342
 20
141.4757486151
  0
VERTEX
  8
0
 62
9
  6
CONTINUOUS
 10
80.1527185526
 20
141.5044946401
  0
VERTEX
  8
0
 62
9
  6
CONTINUOUS
 10
80.126513398
 20
141.5396477522
  0
VERTEX
  8
0
 62
9
  6
CONTINUOUS
 10
80.1131638263
 20
141.5604761672
  0
VERTEX
  8
0
 62
9
  6
CONTINUOUS
 10
80.0880230703
 20
141.6074938264
  0
VERTEX
  8
0
 62
9
  6
CONTINUOUS
 10
80.0674439217
 20
141.658467332
  0
VERTEX
  8
0
 62
9
  6
CONTINUOUS
 10
80.0519853299
 20
141.7130931017
  0
VERTEX
  8
0
 62
9
  6
CONTINUOUS
 10
80.0422374327
 20
141.770850589
  0
VERTEX
  8
0
 62
9
  6
CONTINUOUS
 10
80.0387402901
 20
141.8315928685
  0
SEQEND
  0
LINE
  8
0
 62
9
  6
CONTINUOUS
 10
77.7400675439
 20
141.52967093
 11
77.9350640306
 21
141.3346744432
  0
LINE
  8
0
 62
9
  6
CONTINUOUS
 10
78.2400485054
 20
142.0296518915
 11
78.4059048948
 21
141.8637955021
  0
LINE
  8
0
 62
9
  6
CONTINUOUS
 10
75.1227470804
 20
145.7473683688
 11
74.6227470805
 21
146.7473685225
  0
POLYLINE
  8
0
 62
7
  6
CONTINUOUS
 66
1
 70
0
  0
VERTEX
  8
0
 62
7
  6
CONTINUOUS
 10
77.8950821958
 20
138.9680948509
  0
VERTEX
  8
0
 62
7
  6
CONTINUOUS
 10
77.8683544888
 20
139.087552065
  0
VERTEX
  8
0
 62
7
  6
CONTINUOUS
 10
77.8415890821
 20
139.2095636858
  0
VERTEX
  8
0
 62
7
  6
CONTINUOUS
 10
77.814783588
 20
139.3341510073
  0
SEQEND
  0
LINE
  8
0
 62
9
  6
CONTINUOUS
 10
78.4059048948
 20
141.8637955021
 11
78.2270724367
 21
148.1793831208
  0
LINE
  8
0
 62
9
  6
CONTINUOUS
 10
78.9058860049
 20
142.3416121716
 11
78.7245592745
 21
148.7452866819
  0
POLYLINE
  8
0
 62
9
  6
CONTINUOUS
 66
1
 70
0
  0
VERTEX
  8
0
 62
9
  6
CONTINUOUS
 10
78.2272705024
 20
143.2696464158
  0
VERTEX
  8
0
 62
9
  6
CONTINUOUS
 10
78.2278496359
 20
143.0204353965
  0
VERTEX
  8
0
 62
9
  6
CONTINUOUS
 10
78.228792677
 20
142.7862888107
  0
VERTEX
  8
0
 62
9
  6
CONTINUOUS
 10
78.2300717768
 20
142.5741116801
  0
VERTEX
  8
0
 62
9
  6
CONTINUOUS
 10
78.2316491378
 20
142.3901744064
  0
VERTEX
  8
0
 62
9
  6
CONTINUOUS
 10
78.2334781594
 20
142.2399128697
  0
VERTEX
  8
0
 62
9
  6
CONTINUOUS
 10
78.2355050598
 20
142.1277581047
  0
VERTEX
  8
0
 62
9
  6
CONTINUOUS
 10
78.237691278
 20
142.0565716886
  0
VERTEX
  8
0
 62
9
  6
CONTINUOUS
 10
78.2400485054
 20
142.0296518915
  0
SEQEND
  0
POLYLINE
  8
0
 62
9
  6
CONTINUOUS
 66
1
 70
0
  0
VERTEX
  8
0
 62
9
  6
CONTINUOUS
 10
79.5396081921
 20
142.341613446
  0
VERTEX
  8
0
 62
9
  6
CONTINUOUS
 10
79.5396881035
 20
142.2789903978
  0
VERTEX
  8
0
 62
9
  6
CONTINUOUS
 10
79.5500350839
 20
142.160858458
  0
VERTEX
  8
0
 62
9
  6
CONTINUOUS
 10
79.5727178777
 20
142.0485304428
  0
VERTEX
  8
0
 62
9
  6
CONTINUOUS
 10
79.6066483212
 20
141.942292185
  0
VERTEX
  8
0
 62
9
  6
CONTINUOUS
 10
79.6506175779
 20
141.8431559041
  0
VERTEX
  8
0
 62
9
  6
CONTINUOUS
 10
79.7034908073
 20
141.7517126678
  0
VERTEX
  8
0
 62
9
  6
CONTINUOUS
 10
79.731337577
 20
141.7112040003
  0
VERTEX
  8
0
 62
9
  6
CONTINUOUS
 10
79.7856847204
 20
141.6428343298
  0
VERTEX
  8
0
 62
9
  6
CONTINUOUS
 10
79.8383654722
 20
141.5869253093
  0
VERTEX
  8
0
 62
9
  6
CONTINUOUS
 10
79.8881543572
 20
141.5413972046
  0
VERTEX
  8
0
 62
9
  6
CONTINUOUS
 10
79.9337863139
 20
141.504838016
  0
VERTEX
  8
0
 62
9
  6
CONTINUOUS
 10
79.9824154607
 20
141.4705543971
  0
VERTEX
  8
0
 62
9
  6
CONTINUOUS
 10
80.0131269829
 20
141.4511250479
  0
SEQEND
  0
LINE
  8
0
 62
9
  6
CONTINUOUS
 10
78.2270724367
 20
148.1793831208
 11
78.2272705024
 21
143.2696464158
  0
LINE
  8
0
 62
9
  6
CONTINUOUS
 10
78.7245592745
 20
148.7452866819
 11
78.7245592745
 21
149.2231085993
  0
LINE
  8
0
 62
9
  6
CONTINUOUS
 10
79.7209348864
 20
149.2231085993
 11
79.7209348864
 21
148.7452866819
  0
POLYLINE
  8
0
 62
9
  6
CONTINUOUS
 66
1
 70
0
  0
VERTEX
  8
0
 62
9
  6
CONTINUOUS
 10
78.4059048959
 20
141.8637955009
  0
VERTEX
  8
0
 62
9
  6
CONTINUOUS
 10
78.4055259738
 20
141.7960495143
  0
VERTEX
  8
0
 62
9
  6
CONTINUOUS
 10
78.3981160141
 20
141.7358041625
  0
VERTEX
  8
0
 62
9
  6
CONTINUOUS
 10
78.3847298396
 20
141.6793909711
  0
VERTEX
  8
0
 62
9
  6
CONTINUOUS
 10
78.3657209808
 20
141.6260849878
  0
VERTEX
  8
0
 62
9
  6
CONTINUOUS
 10
78.341597462
 20
141.5764361658
  0
VERTEX
  8
0
 62
9
  6
CONTINUOUS
 10
78.312987364
 20
141.5310008495
  0
VERTEX
  8
0
 62
9
  6
CONTINUOUS
 10
78.2841389167
 20
141.4942450532
  0
VERTEX
  8
0
 62
9
  6
CONTINUOUS
 10
78.2565669436
 20
141.4650423611
  0
VERTEX
  8
0
 62
9
  6
CONTINUOUS
 10
78.2304630374
 20
141.4414979482
  0
VERTEX
  8
0
 62
9
  6
CONTINUOUS
 10
78.2065141692
 20
141.4227824258
  0
VERTEX
  8
0
 62
9
  6
CONTINUOUS
 10
78.1817671218
 20
141.4059277501
  0
SEQEND
  0
LINE
  8
0
 62
9
  6
CONTINUOUS
 10
79.7209348864
 20
148.7452866819
 11
79.5396081921
 21
142.341613446
  0
LINE
  8
0
 62
9
  6
CONTINUOUS
 10
80.2184217242
 20
148.1793831208
 11
80.0387402901
 21
141.8315928685
  0
POLYLINE
  8
0
 62
9
  6
CONTINUOUS
 66
1
 70
0
  0
VERTEX
  8
0
 62
9
  6
CONTINUOUS
 10
80.705426617
 20
141.52967093
  0
VERTEX
  8
0
 62
9
  6
CONTINUOUS
 10
80.7076931357
 20
141.5629502378
  0
VERTEX
  8
0
 62
9
  6
CONTINUOUS
 10
80.7098628821
 20
141.6543264807
  0
VERTEX
  8
0
 62
9
  6
CONTINUOUS
 10
80.7118979642
 20
141.801124974
  0
VERTEX
  8
0
 62
9
  6
CONTINUOUS
 10
80.7137383822
 20
141.9990094757
  0
VERTEX
  8
0
 62
9
  6
CONTINUOUS
 10
80.7153297532
 20
142.2421312404
  0
VERTEX
  8
0
 62
9
  6
CONTINUOUS
 10
80.7166250565
 20
142.5233067182
  0
VERTEX
  8
0
 62
9
  6
CONTINUOUS
 10
80.7175861014
 20
142.8342663759
  0
VERTEX
  8
0
 62
9
  6
CONTINUOUS
 10
80.718188329
 20
143.1691371758
  0
VERTEX
  8
0
 62
9
  6
CONTINUOUS
 10
80.7184026857
 20
148.1793831208
  0
SEQEND
  0
POLYLINE
  8
0
 62
9
  6
CONTINUOUS
 66
1
 70
0
  0
VERTEX
  8
0
 62
9
  6
CONTINUOUS
 10
80.2054456555
 20
142.0296518915
  0
VERTEX
  8
0
 62
9
  6
CONTINUOUS
 10
80.2077121779
 20
142.0546113724
  0
VERTEX
  8
0
 62
9
  6
CONTINUOUS
 10
80.209881921
 20
142.1231435545
  0
VERTEX
  8
0
 62
9
  6
CONTINUOUS
 10
80.2119170027
 20
142.2332424245
  0
VERTEX
  8
0
 62
9
  6
CONTINUOUS
 10
80.2137574206
 20
142.3816558008
  0
VERTEX
  8
0
 62
9
  6
CONTINUOUS
 10
80.2153487917
 20
142.5639971243
  0
VERTEX
  8
0
 62
9
  6
CONTINUOUS
 10
80.2166440949
 20
142.7748787326
  0
VERTEX
  8
0
 62
9
  6
CONTINUOUS
 10
80.2176051396
 20
143.008098476
  0
VERTEX
  8
0
 62
9
  6
CONTINUOUS
 10
80.2182073668
 20
143.2592515758
  0
VERTEX
  8
0
 62
9
  6
CONTINUOUS
 10
80.2184217242
 20
148.1793831208
  0
SEQEND
  0
POLYLINE
  8
0
 62
7
  6
CONTINUOUS
 66
1
 70
0
  0
VERTEX
  8
0
 62
7
  6
CONTINUOUS
 10
80.6307105729
 20
139.3341510073
  0
VERTEX
  8
0
 62
7
  6
CONTINUOUS
 10
80.6039050845
 20
139.2095637122
  0
VERTEX
  8
0
 62
7
  6
CONTINUOUS
 10
80.5771396787
 20
139.0875520944
  0
VERTEX
  8
0
 62
7
  6
CONTINUOUS
 10
80.5504119651
 20
138.9680948509
  0
SEQEND
  0
LINE
  8
0
 62
9
  6
CONTINUOUS
 10
83.3227470804
 20
145.7473683688
 11
83.8227470804
 21
146.7473683688
  0
POLYLINE
  8
0
 62
7
  6
CONTINUOUS
 66
1
 70
0
  0
VERTEX
  8
0
 62
7
  6
CONTINUOUS
 10
74.2727470804
 20
129.584253831
  0
VERTEX
  8
0
 62
7
  6
CONTINUOUS
 10
74.2559749573
 20
129.5634600103
  0
VERTEX
  8
0
 62
7
  6
CONTINUOUS
 10
74.2065832888
 20
129.5443140479
  0
VERTEX
  8
0
 62
7
  6
CONTINUOUS
 10
74.1275969118
 20
129.5280221721
  0
VERTEX
  8
0
 62
7
  6
CONTINUOUS
 10
74.0241296599
 20
129.5155982972
  0
VERTEX
  8
0
 62
7
  6
CONTINUOUS
 10
73.9030993487
 20
129.507813194
  0
VERTEX
  8
0
 62
7
  6
CONTINUOUS
 10
73.7727470804
 20
129.5051582214
  0
SEQEND
  0
POLYLINE
  8
0
 62
7
  6
CONTINUOUS
 66
1
 70
0
  0
VERTEX
  8
0
 62
7
  6
CONTINUOUS
 10
87.364783588
 20
139.3341510073
  0
VERTEX
  8
0
 62
7
  6
CONTINUOUS
 10
87.3784932345
 20
139.3423664649
  0
VERTEX
  8
0
 62
7
  6
CONTINUOUS
 10
87.423147434
 20
139.3638334111
  0
VERTEX
  8
0
 62
7
  6
CONTINUOUS
 10
87.5071874436
 20
139.4003414365
  0
VERTEX
  8
0
 62
7
  6
CONTINUOUS
 10
87.6457544539
 20
139.4535637858
  0
VERTEX
  8
0
 62
7
  6
CONTINUOUS
 10
87.8587359988
 20
139.5212765761
  0
VERTEX
  8
0
 62
7
  6
CONTINUOUS
 10
88.1658664118
 20
139.5920319828
  0
VERTEX
  8
0
 62
7
  6
CONTINUOUS
 10
88.5592130037
 20
139.6398726399
  0
VERTEX
  8
0
 62
7
  6
CONTINUOUS
 10
88.9862467343
 20
139.6398748011
  0
VERTEX
  8
0
 62
7
  6
CONTINUOUS
 10
89.3795976315
 20
139.592037448
  0
VERTEX
  8
0
 62
7
  6
CONTINUOUS
 10
89.6867449694
 20
139.5212802792
  0
VERTEX
  8
0
 62
7
  6
CONTINUOUS
 10
89.8997378957
 20
139.4535644317
  0
VERTEX
  8
0
 62
7
  6
CONTINUOUS
 10
90.038306171
 20
139.4003416623
  0
VERTEX
  8
0
 62
7
  6
CONTINUOUS
 10
90.1223464289
 20
139.3638335478
  0
VERTEX
  8
0
 62
7
  6
CONTINUOUS
 10
90.1670009007
 20
139.3423664782
  0
VERTEX
  8
0
 62
7
  6
CONTINUOUS
 10
90.1807105729
 20
139.3341510073
  0
SEQEND
  0
LINE
  8
0
 62
9
  6
CONTINUOUS
 10
101.9727470804
 20
145.7473683688
 11
102.9727470804
 21
146.2473683688
  0
POLYLINE
  8
0
 62
9
  6
CONTINUOUS
 66
1
 70
0
  0
VERTEX
  8
0
 62
9
  6
CONTINUOUS
 10
32.4757866544
 20
145.0681131445
  0
VERTEX
  8
0
 62
9
  6
CONTINUOUS
 10
32.3464900329
 20
145.0511360215
  0
VERTEX
  8
0
 62
9
  6
CONTINUOUS
 10
32.2259897895
 20
145.0017027779
  0
VERTEX
  8
0
 62
9
  6
CONTINUOUS
 10
32.1224838624
 20
144.9231764831
  0
VERTEX
  8
0
 62
9
  6
CONTINUOUS
 10
32.0430140231
 20
144.8208994807
  0
VERTEX
  8
0
 62
9
  6
CONTINUOUS
 10
31.992986807
 20
144.7018299353
  0
VERTEX
  8
0
 62
9
  6
CONTINUOUS
 10
31.9758056928
 20
144.5740684511
  0
SEQEND
  0
POLYLINE
  8
0
 62
7
  6
CONTINUOUS
 66
1
 70
0
  0
VERTEX
  8
0
 62
7
  6
CONTINUOUS
 10
32.3727470804
 20
146.2473683688
  0
VERTEX
  8
0
 62
7
  6
CONTINUOUS
 10
32.2521998003
 20
146.2326191836
  0
VERTEX
  8
0
 62
7
  6
CONTINUOUS
 10
32.1395396217
 20
146.1896514018
  0
VERTEX
  8
0
 62
7
  6
CONTINUOUS
 10
32.0407111051
 20
146.1212027052
  0
VERTEX
  8
0
 62
7
  6
CONTINUOUS
 10
31.9985416368
 20
146.0789860493
  0
VERTEX
  8
0
 62
7
  6
CONTINUOUS
 10
31.9303202402
 20
145.9803028898
  0
VERTEX
  8
0
 62
7
  6
CONTINUOUS
 10
31.8874424023
 20
145.86769862
  0
VERTEX
  8
0
 62
7
  6
CONTINUOUS
 10
31.8727470804
 20
145.7473683688
  0
SEQEND
  0
LINE
  8
0
 62
9
  6
CONTINUOUS
 10
98.8209348864
 20
149.2231085993
 11
97.8245592745
 21
149.2231085993
  0
LINE
  8
0
 62
9
  6
CONTINUOUS
 10
79.7209348864
 20
149.2231085993
 11
78.7245592745
 21
149.2231085993
  0
LINE
  8
0
 62
9
  6
CONTINUOUS
 10
60.6209348864
 20
149.2231085993
 11
59.6245592745
 21
149.2231085993
  0
LINE
  8
0
 62
9
  6
CONTINUOUS
 10
41.5209348864
 20
149.2231085993
 11
40.5245592745
 21
149.2231085993
  0
LINE
  8
1_AXIS
 62
2
  6
CENTER
 10
24.9709385893
 20
149.8589987024
 11
108.0361178281
 21
149.8589987024
  0
LINE
  8
0
 62
7
  6
CONTINUOUS
 10
37.3727470804
 20
151.1628391835
 11
45.1227470804
 21
151.1628391835
  0
LINE
  8
0
 62
7
  6
CONTINUOUS
 10
56.0227470804
 20
151.1628391835
 11
64.2227470804
 21
151.1628391835
  0
LINE
  8
0
 62
7
  6
CONTINUOUS
 10
75.1227470804
 20
151.1628391835
 11
83.3227470804
 21
151.1628391835
  0
LINE
  8
0
 62
7
  6
CONTINUOUS
 10
94.2227470804
 20
151.1628391835
 11
101.9727470804
 21
151.1628391835
  0
POLYLINE
  8
0
 62
9
  6
CONTINUOUS
 66
1
 70
0
  0
VERTEX
  8
0
 62
9
  6
CONTINUOUS
 10
79.7209348864
 20
149.2231085993
  0
VERTEX
  8
0
 62
9
  6
CONTINUOUS
 10
79.9087426644
 20
149.2044799993
  0
VERTEX
  8
0
 62
9
  6
CONTINUOUS
 10
80.0929080224
 20
149.147949173
  0
VERTEX
  8
0
 62
9
  6
CONTINUOUS
 10
80.2638808561
 20
149.0551724807
  0
VERTEX
  8
0
 62
9
  6
CONTINUOUS
 10
80.415851553
 20
148.9284523241
  0
VERTEX
  8
0
 62
9
  6
CONTINUOUS
 10
80.5427956791
 20
148.7711882255
  0
VERTEX
  8
0
 62
9
  6
CONTINUOUS
 10
80.6385573695
 20
148.5888884972
  0
VERTEX
  8
0
 62
9
  6
CONTINUOUS
 10
80.6982718434
 20
148.3882305815
  0
VERTEX
  8
0
 62
9
  6
CONTINUOUS
 10
80.7184026857
 20
148.1793831208
  0
SEQEND
  0
POLYLINE
  8
0
 62
9
  6
CONTINUOUS
 66
1
 70
0
  0
VERTEX
  8
0
 62
9
  6
CONTINUOUS
 10
79.7209348864
 20
148.7452866819
  0
VERTEX
  8
0
 62
9
  6
CONTINUOUS
 10
79.8148518442
 20
148.7353891503
  0
VERTEX
  8
0
 62
9
  6
CONTINUOUS
 10
79.9068659372
 20
148.7048936468
  0
VERTEX
  8
0
 62
9
  6
CONTINUOUS
 10
79.9922360492
 20
148.6546909352
  0
VERTEX
  8
0
 62
9
  6
CONTINUOUS
 10
80.0680619137
 20
148.586025955
  0
VERTEX
  8
0
 62
9
  6
CONTINUOUS
 10
80.1313364398
 20
148.5007402463
  0
VERTEX
  8
0
 62
9
  6
CONTINUOUS
 10
80.1789928175
 20
148.4018147111
  0
VERTEX
  8
0
 62
9
  6
CONTINUOUS
 10
80.2086072004
 20
148.2928674263
  0
VERTEX
  8
0
 62
9
  6
CONTINUOUS
 10
80.2184217242
 20
148.1793831208
  0
SEQEND
  0
POLYLINE
  8
0
 62
7
  6
CONTINUOUS
 66
1
 70
0
  0
VERTEX
  8
0
 62
7
  6
CONTINUOUS
 10
106.9727470804
 20
146.2473683688
  0
VERTEX
  8
0
 62
7
  6
CONTINUOUS
 10
107.0932943606
 20
146.2326191836
  0
VERTEX
  8
0
 62
7
  6
CONTINUOUS
 10
107.2059545392
 20
146.1896514018
  0
VERTEX
  8
0
 62
7
  6
CONTINUOUS
 10
107.3047830558
 20
146.1212027052
  0
VERTEX
  8
0
 62
7
  6
CONTINUOUS
 10
107.3469525241
 20
146.0789860493
  0
VERTEX
  8
0
 62
7
  6
CONTINUOUS
 10
107.4151739207
 20
145.9803028898
  0
VERTEX
  8
0
 62
7
  6
CONTINUOUS
 10
107.4580517586
 20
145.86769862
  0
VERTEX
  8
0
 62
7
  6
CONTINUOUS
 10
107.4727470804
 20
145.7473683688
  0
SEQEND
  0
POLYLINE
  8
0
 62
9
  6
CONTINUOUS
 66
1
 70
0
  0
VERTEX
  8
0
 62
9
  6
CONTINUOUS
 10
106.8697075065
 20
145.0681131445
  0
VERTEX
  8
0
 62
9
  6
CONTINUOUS
 10
106.9990040658
 20
145.051136038
  0
VERTEX
  8
0
 62
9
  6
CONTINUOUS
 10
107.1195042726
 20
145.0017028344
  0
VERTEX
  8
0
 62
9
  6
CONTINUOUS
 10
107.2230102015
 20
144.9231765789
  0
VERTEX
  8
0
 62
9
  6
CONTINUOUS
 10
107.3024800747
 20
144.8208995885
  0
VERTEX
  8
0
 62
9
  6
CONTINUOUS
 10
107.3525073334
 20
144.7018300108
  0
VERTEX
  8
0
 62
9
  6
CONTINUOUS
 10
107.3696884681
 20
144.5740684511
  0
SEQEND
  0
POLYLINE
  8
0
 62
9
  6
CONTINUOUS
 66
1
 70
0
  0
VERTEX
  8
0
 62
9
  6
CONTINUOUS
 10
80.0395892661
 20
141.8637955021
  0
VERTEX
  8
0
 62
9
  6
CONTINUOUS
 10
80.0248009636
 20
141.9779626957
  0
VERTEX
  8
0
 62
9
  6
CONTINUOUS
 10
79.9819067589
 20
142.0855165319
  0
VERTEX
  8
0
 62
9
  6
CONTINUOUS
 10
79.9133914677
 20
142.1802265913
  0
VERTEX
  8
0
 62
9
  6
CONTINUOUS
 10
79.8707139331
 20
142.2210126685
  0
VERTEX
  8
0
 62
9
  6
CONTINUOUS
 10
79.7716116167
 20
142.2864914157
  0
VERTEX
  8
0
 62
9
  6
CONTINUOUS
 10
79.6590700016
 20
142.3274845343
  0
VERTEX
  8
0
 62
9
  6
CONTINUOUS
 10
79.5396083046
 20
142.3416174195
  0
SEQEND
  0
LINE
  8
0
 62
9
  6
CONTINUOUS
 10
83.3227470804
 20
145.7473683688
 11
83.3227470804
 21
154.0989987024
  0
POLYLINE
  8
0
 62
7
  6
CONTINUOUS
 66
1
 70
0
  0
VERTEX
  8
0
 62
7
  6
CONTINUOUS
 10
93.7227470804
 20
151.0837435738
  0
VERTEX
  8
0
 62
7
  6
CONTINUOUS
 10
93.7395192036
 20
151.1045373945
  0
VERTEX
  8
0
 62
7
  6
CONTINUOUS
 10
93.7889108721
 20
151.1236833569
  0
VERTEX
  8
0
 62
7
  6
CONTINUOUS
 10
93.8678972491
 20
151.1399752328
  0
VERTEX
  8
0
 62
7
  6
CONTINUOUS
 10
93.971364501
 20
151.1523991077
  0
VERTEX
  8
0
 62
7
  6
CONTINUOUS
 10
94.0923948122
 20
151.1601842109
  0
VERTEX
  8
0
 62
7
  6
CONTINUOUS
 10
94.2227470804
 20
151.1628391835
  0
SEQEND
  0
POLYLINE
  8
0
 62
9
  6
CONTINUOUS
 66
1
 70
0
  0
VERTEX
  8
0
 62
9
  6
CONTINUOUS
 10
97.2817671218
 20
141.4059277501
  0
VERTEX
  8
0
 62
9
  6
CONTINUOUS
 10
97.2382860657
 20
141.3815588737
  0
VERTEX
  8
0
 62
9
  6
CONTINUOUS
 10
97.1951112928
 20
141.3630627996
  0
VERTEX
  8
0
 62
9
  6
CONTINUOUS
 10
97.1538684534
 20
141.3500381145
  0
VERTEX
  8
0
 62
9
  6
CONTINUOUS
 10
97.1341390981
 20
141.3452833209
  0
VERTEX
  8
0
 62
9
  6
CONTINUOUS
 10
97.0969661124
 20
141.3387700357
  0
VERTEX
  8
0
 62
9
  6
CONTINUOUS
 10
97.0639755895
 20
141.3355604851
  0
VERTEX
  8
0
 62
9
  6
CONTINUOUS
 10
97.0350640306
 20
141.3346744432
  0
SEQEND
  0
LINE
  8
0
 62
9
  6
CONTINUOUS
 10
84.6727470804
 20
134.920629036
 11
83.6727470804
 21
134.420629036
  0
LINE
  8
0
 62
7
  6
CONTINUOUS
 10
37.3727470804
 20
154.0989987024
 11
45.1227470804
 21
154.0989987024
  0
LINE
  8
0
 62
7
  6
CONTINUOUS
 10
56.0227470804
 20
154.0989987024
 11
64.2227470804
 21
154.0989987024
  0
LINE
  8
0
 62
7
  6
CONTINUOUS
 10
75.1227470804
 20
154.0989987024
 11
83.3227470804
 21
154.0989987024
  0
LINE
  8
0
 62
7
  6
CONTINUOUS
 10
94.2227470804
 20
154.0989987024
 11
101.9727470804
 21
154.0989987024
  0
POLYLINE
  8
0
 62
9
  6
CONTINUOUS
 66
1
 70
0
  0
VERTEX
  8
0
 62
9
  6
CONTINUOUS
 10
98.8209348864
 20
149.2231085993
  0
VERTEX
  8
0
 62
9
  6
CONTINUOUS
 10
99.0087426644
 20
149.2044799993
  0
VERTEX
  8
0
 62
9
  6
CONTINUOUS
 10
99.1929080224
 20
149.147949173
  0
VERTEX
  8
0
 62
9
  6
CONTINUOUS
 10
99.3638808561
 20
149.0551724807
  0
VERTEX
  8
0
 62
9
  6
CONTINUOUS
 10
99.515851553
 20
148.9284523241
  0
VERTEX
  8
0
 62
9
  6
CONTINUOUS
 10
99.6427956791
 20
148.7711882255
  0
VERTEX
  8
0
 62
9
  6
CONTINUOUS
 10
99.7385573695
 20
148.5888884972
  0
VERTEX
  8
0
 62
9
  6
CONTINUOUS
 10
99.7982718434
 20
148.3882305815
  0
VERTEX
  8
0
 62
9
  6
CONTINUOUS
 10
99.8184026857
 20
148.1793831208
  0
SEQEND
  0
POLYLINE
  8
0
 62
9
  6
CONTINUOUS
 66
1
 70
0
  0
VERTEX
  8
0
 62
9
  6
CONTINUOUS
 10
98.8209348864
 20
148.7452866819
  0
VERTEX
  8
0
 62
9
  6
CONTINUOUS
 10
98.9148518442
 20
148.7353891503
  0
VERTEX
  8
0
 62
9
  6
CONTINUOUS
 10
99.0068659372
 20
148.7048936468
  0
VERTEX
  8
0
 62
9
  6
CONTINUOUS
 10
99.0922360492
 20
148.6546909352
  0
VERTEX
  8
0
 62
9
  6
CONTINUOUS
 10
99.1680619137
 20
148.586025955
  0
VERTEX
  8
0
 62
9
  6
CONTINUOUS
 10
99.2313364398
 20
148.5007402463
  0
VERTEX
  8
0
 62
9
  6
CONTINUOUS
 10
99.2789928175
 20
148.4018147111
  0
VERTEX
  8
0
 62
9
  6
CONTINUOUS
 10
99.3086072004
 20
148.2928674263
  0
VERTEX
  8
0
 62
9
  6
CONTINUOUS
 10
99.3184217242
 20
148.1793831208
  0
SEQEND
  0
LINE
  8
0
 62
7
  6
CONTINUOUS
 10
83.8227470804
 20
146.7473683688
 11
83.8227470804
 21
153.5989987024
  0
LINE
  8
0
 62
7
  6
CONTINUOUS
 10
84.1727470804
 20
133.920629036
 11
84.1727470804
 21
127.0689987024
  0
LINE
  8
0
 62
9
  6
CONTINUOUS
 10
84.6727470804
 20
126.5689987024
 11
84.6727470804
 21
134.920629036
  0
LINE
  8
0
 62
9
  6
CONTINUOUS
 10
84.6727470804
 20
134.920629036
 11
84.1727470804
 21
133.920629036
  0
POLYLINE
  8
0
 62
9
  6
CONTINUOUS
 66
1
 70
0
  0
VERTEX
  8
0
 62
9
  6
CONTINUOUS
 10
97.532367178
 20
141.4511250479
  0
VERTEX
  8
0
 62
9
  6
CONTINUOUS
 10
97.5827881129
 20
141.4839076478
  0
VERTEX
  8
0
 62
9
  6
CONTINUOUS
 10
97.6317158035
 20
141.5203093137
  0
VERTEX
  8
0
 62
9
  6
CONTINUOUS
 10
97.6852194902
 20
141.5661022597
  0
VERTEX
  8
0
 62
9
  6
CONTINUOUS
 10
97.7419716599
 20
141.6228998383
  0
VERTEX
  8
0
 62
9
  6
CONTINUOUS
 10
97.8016932933
 20
141.6943865632
  0
VERTEX
  8
0
 62
9
  6
CONTINUOUS
 10
97.8614171068
 20
141.782752654
  0
VERTEX
  8
0
 62
9
  6
CONTINUOUS
 10
97.9124015156
 20
141.8793133113
  0
VERTEX
  8
0
 62
9
  6
CONTINUOUS
 10
97.9533591071
 20
141.9829853771
  0
VERTEX
  8
0
 62
9
  6
CONTINUOUS
 10
97.9832437229
 20
142.0926996213
  0
VERTEX
  8
0
 62
9
  6
CONTINUOUS
 10
98.0013883317
 20
142.2098657554
  0
VERTEX
  8
0
 62
9
  6
CONTINUOUS
 10
98.0058860049
 20
142.3416121716
  0
SEQEND
  0
POLYLINE
  8
0
 62
7
  6
CONTINUOUS
 66
1
 70
0
  0
VERTEX
  8
0
 62
7
  6
CONTINUOUS
 10
96.914783588
 20
139.3341510073
  0
VERTEX
  8
0
 62
7
  6
CONTINUOUS
 10
96.9284932345
 20
139.3423664649
  0
VERTEX
  8
0
 62
7
  6
CONTINUOUS
 10
96.973147434
 20
139.3638334111
  0
VERTEX
  8
0
 62
7
  6
CONTINUOUS
 10
97.0571874436
 20
139.4003414365
  0
VERTEX
  8
0
 62
7
  6
CONTINUOUS
 10
97.1957544539
 20
139.4535637858
  0
VERTEX
  8
0
 62
7
  6
CONTINUOUS
 10
97.4087359988
 20
139.5212765761
  0
VERTEX
  8
0
 62
7
  6
CONTINUOUS
 10
97.7158664118
 20
139.5920319828
  0
VERTEX
  8
0
 62
7
  6
CONTINUOUS
 10
98.1092130037
 20
139.6398726399
  0
VERTEX
  8
0
 62
7
  6
CONTINUOUS
 10
98.5362467343
 20
139.6398748011
  0
VERTEX
  8
0
 62
7
  6
CONTINUOUS
 10
98.9295976315
 20
139.592037448
  0
VERTEX
  8
0
 62
7
  6
CONTINUOUS
 10
99.2367449694
 20
139.5212802792
  0
VERTEX
  8
0
 62
7
  6
CONTINUOUS
 10
99.4497378957
 20
139.4535644317
  0
VERTEX
  8
0
 62
7
  6
CONTINUOUS
 10
99.588306171
 20
139.4003416623
  0
VERTEX
  8
0
 62
7
  6
CONTINUOUS
 10
99.6723464289
 20
139.3638335478
  0
VERTEX
  8
0
 62
7
  6
CONTINUOUS
 10
99.7170009007
 20
139.3423664782
  0
VERTEX
  8
0
 62
7
  6
CONTINUOUS
 10
99.7307105729
 20
139.3341510073
  0
SEQEND
  0
LINE
  8
0
 62
9
  6
CONTINUOUS
 10
107.159735351
 20
140.833979664
 11
106.159773428
 21
140.3339987024
  0
LINE
  8
0
 62
9
  6
CONTINUOUS
 10
94.2227470804
 20
145.7473683688
 11
93.2227470804
 21
146.2473683688
  0
LINE
  8
0
 62
9
  6
CONTINUOUS
 10
107.1596211231
 20
139.8340748548
 11
106.159773428
 21
140.3339987024
  0
POLYLINE
  8
0
 62
9
  6
CONTINUOUS
 66
1
 70
0
  0
VERTEX
  8
0
 62
9
  6
CONTINUOUS
 10
99.1131269829
 20
141.4511250479
  0
VERTEX
  8
0
 62
9
  6
CONTINUOUS
 10
99.1912843551
 20
141.4085763024
  0
VERTEX
  8
0
 62
9
  6
CONTINUOUS
 10
99.2672522994
 20
141.375687565
  0
VERTEX
  8
0
 62
9
  6
CONTINUOUS
 10
99.3394367611
 20
141.3513420323
  0
VERTEX
  8
0
 62
9
  6
CONTINUOUS
 10
99.4075980618
 20
141.3340366392
  0
SEQEND
  0
LINE
  8
0
 62
9
  6
CONTINUOUS
 10
107.556614713
 20
144.5514783925
 11
107.3734952915
 21
144.4295010363
  0
LINE
  8
0
 62
9
  6
CONTINUOUS
 10
107.5888794479
 20
144.503040717
 11
107.3732871933
 21
144.359432939
  0
POLYLINE
  8
0
 62
9
  6
CONTINUOUS
 66
1
 70
0
  0
VERTEX
  8
0
 62
9
  6
CONTINUOUS
 10
105.3277303813
 20
141.4094800494
  0
VERTEX
  8
0
 62
9
  6
CONTINUOUS
 10
105.3023835519
 20
141.3931858144
  0
VERTEX
  8
0
 62
9
  6
CONTINUOUS
 10
105.2775799774
 20
141.3795824454
  0
VERTEX
  8
0
 62
9
  6
CONTINUOUS
 10
105.2537477843
 20
141.3684718321
  0
VERTEX
  8
0
 62
9
  6
CONTINUOUS
 10
105.2291016989
 20
141.358828073
  0
VERTEX
  8
0
 62
9
  6
CONTINUOUS
 10
105.203579507
 20
141.3506732696
  0
VERTEX
  8
0
 62
9
  6
CONTINUOUS
 10
105.1912910921
 20
141.3473752485
  0
VERTEX
  8
0
 62
9
  6
CONTINUOUS
 10
105.1676754605
 20
141.3421308734
  0
VERTEX
  8
0
 62
9
  6
CONTINUOUS
 10
105.1449488748
 20
141.3383912893
  0
VERTEX
  8
0
 62
9
  6
CONTINUOUS
 10
105.1230660471
 20
141.3359572304
  0
VERTEX
  8
0
 62
9
  6
CONTINUOUS
 10
105.1029928559
 20
141.3347021143
  0
VERTEX
  8
0
 62
9
  6
CONTINUOUS
 10
105.0853834439
 20
141.3343550299
  0
SEQEND
  0
POLYLINE
  8
0
 62
9
  6
CONTINUOUS
 66
1
 70
0
  0
VERTEX
  8
0
 62
9
  6
CONTINUOUS
 10
99.3637270391
 20
141.4059277501
  0
VERTEX
  8
0
 62
9
  6
CONTINUOUS
 10
99.3486456122
 20
141.4159172256
  0
VERTEX
  8
0
 62
9
  6
CONTINUOUS
 10
99.3248160917
 20
141.4335436061
  0
VERTEX
  8
0
 62
9
  6
CONTINUOUS
 10
99.3025174543
 20
141.4523402413
  0
VERTEX
  8
0
 62
9
  6
CONTINUOUS
 10
99.2782673342
 20
141.4757486151
  0
VERTEX
  8
0
 62
9
  6
CONTINUOUS
 10
99.2527185526
 20
141.5044946401
  0
VERTEX
  8
0
 62
9
  6
CONTINUOUS
 10
99.226513398
 20
141.5396477522
  0
VERTEX
  8
0
 62
9
  6
CONTINUOUS
 10
99.2131638263
 20
141.5604761672
  0
VERTEX
  8
0
 62
9
  6
CONTINUOUS
 10
99.1880230703
 20
141.6074938264
  0
VERTEX
  8
0
 62
9
  6
CONTINUOUS
 10
99.1674439217
 20
141.658467332
  0
VERTEX
  8
0
 62
9
  6
CONTINUOUS
 10
99.1519853299
 20
141.7130931017
  0
VERTEX
  8
0
 62
9
  6
CONTINUOUS
 10
99.1422374327
 20
141.770850589
  0
VERTEX
  8
0
 62
9
  6
CONTINUOUS
 10
99.1387402901
 20
141.8315928685
  0
SEQEND
  0
LINE
  8
0
 62
9
  6
CONTINUOUS
 10
107.5727470805
 20
134.8592785241
 11
107.1727470805
 21
135.1592785241
  0
POLYLINE
  8
0
 62
7
  6
CONTINUOUS
 66
1
 70
0
  0
VERTEX
  8
0
 62
7
  6
CONTINUOUS
 10
83.8227470804
 20
151.0837435738
  0
VERTEX
  8
0
 62
7
  6
CONTINUOUS
 10
83.8059749573
 20
151.1045373945
  0
VERTEX
  8
0
 62
7
  6
CONTINUOUS
 10
83.7565832888
 20
151.1236833569
  0
VERTEX
  8
0
 62
7
  6
CONTINUOUS
 10
83.6775969118
 20
151.1399752328
  0
VERTEX
  8
0
 62
7
  6
CONTINUOUS
 10
83.5741296599
 20
151.1523991077
  0
VERTEX
  8
0
 62
7
  6
CONTINUOUS
 10
83.4530993487
 20
151.1601842109
  0
VERTEX
  8
0
 62
7
  6
CONTINUOUS
 10
83.3227470804
 20
151.1628391835
  0
SEQEND
  0
LINE
  8
0
 62
9
  6
CONTINUOUS
 10
93.3727470804
 20
133.920629036
 11
92.8727470804
 21
134.920629036
  0
POLYLINE
  8
0
 62
7
  6
CONTINUOUS
 66
1
 70
0
  0
VERTEX
  8
0
 62
7
  6
CONTINUOUS
 10
87.4450821958
 20
138.9680948509
  0
VERTEX
  8
0
 62
7
  6
CONTINUOUS
 10
87.4183544888
 20
139.087552065
  0
VERTEX
  8
0
 62
7
  6
CONTINUOUS
 10
87.3915890821
 20
139.2095636858
  0
VERTEX
  8
0
 62
7
  6
CONTINUOUS
 10
87.364783588
 20
139.3341510073
  0
SEQEND
  0
POLYLINE
  8
0
 62
7
  6
CONTINUOUS
 66
1
 70
0
  0
VERTEX
  8
0
 62
7
  6
CONTINUOUS
 10
90.1807105729
 20
139.3341510073
  0
VERTEX
  8
0
 62
7
  6
CONTINUOUS
 10
90.1539050845
 20
139.2095637122
  0
VERTEX
  8
0
 62
7
  6
CONTINUOUS
 10
90.1271396787
 20
139.0875520944
  0
VERTEX
  8
0
 62
7
  6
CONTINUOUS
 10
90.1004119651
 20
138.9680948509
  0
SEQEND
  0
LINE
  8
0
 62
9
  6
CONTINUOUS
 10
99.1395892661
 20
141.8637955021
 11
99.3054456555
 21
142.0296518915
  0
LINE
  8
0
 62
9
  6
CONTINUOUS
 10
99.6104301335
 20
141.3346744464
 11
99.805426617
 21
141.52967093
  0
POLYLINE
  8
0
 62
9
  6
CONTINUOUS
 66
1
 70
0
  0
VERTEX
  8
0
 62
9
  6
CONTINUOUS
 10
105.5780236024
 20
141.4707225171
  0
VERTEX
  8
0
 62
9
  6
CONTINUOUS
 10
105.6275140182
 20
141.5044346473
  0
VERTEX
  8
0
 62
9
  6
CONTINUOUS
 10
105.6756962873
 20
141.5421164213
  0
VERTEX
  8
0
 62
9
  6
CONTINUOUS
 10
105.7275665001
 20
141.5889405709
  0
VERTEX
  8
0
 62
9
  6
CONTINUOUS
 10
105.7819669877
 20
141.6465226174
  0
VERTEX
  8
0
 62
9
  6
CONTINUOUS
 10
105.8385562665
 20
141.7183480188
  0
VERTEX
  8
0
 62
9
  6
CONTINUOUS
 10
105.8951389236
 20
141.8074692269
  0
VERTEX
  8
0
 62
9
  6
CONTINUOUS
 10
105.9437441471
 20
141.9063351512
  0
VERTEX
  8
0
 62
9
  6
CONTINUOUS
 10
105.98262001
 20
142.0139724769
  0
VERTEX
  8
0
 62
9
  6
CONTINUOUS
 10
106.0100672191
 20
142.1282779458
  0
VERTEX
  8
0
 62
9
  6
CONTINUOUS
 10
106.025246563
 20
142.2504716492
  0
VERTEX
  8
0
 62
9
  6
CONTINUOUS
 10
106.0259849329
 20
142.3877412146
  0
SEQEND
  0
LINE
  8
0
 62
9
  6
CONTINUOUS
 10
104.0227470804
 20
134.920629036
 11
103.0227470804
 21
134.420629036
  0
LINE
  8
0
 62
9
  6
CONTINUOUS
 10
107.159735351
 20
139.8339986995
 11
107.1596211231
 21
139.8340748548
  0
LINE
  8
0
 62
9
  6
CONTINUOUS
 10
96.8400675439
 20
141.52967093
 11
97.0350640306
 21
141.3346744432
  0
LINE
  8
0
 62
9
  6
CONTINUOUS
 10
97.3400485054
 20
142.0296518915
 11
97.5059048948
 21
141.8637955021
  0
POLYLINE
  8
0
 62
7
  6
CONTINUOUS
 66
1
 70
0
  0
VERTEX
  8
0
 62
7
  6
CONTINUOUS
 10
103.5227470804
 20
129.584253831
  0
VERTEX
  8
0
 62
7
  6
CONTINUOUS
 10
103.5395192036
 20
129.5634600103
  0
VERTEX
  8
0
 62
7
  6
CONTINUOUS
 10
103.5889108721
 20
129.5443140479
  0
VERTEX
  8
0
 62
7
  6
CONTINUOUS
 10
103.6678972491
 20
129.5280221721
  0
VERTEX
  8
0
 62
7
  6
CONTINUOUS
 10
103.771364501
 20
129.5155982972
  0
VERTEX
  8
0
 62
7
  6
CONTINUOUS
 10
103.8923948122
 20
129.507813194
  0
VERTEX
  8
0
 62
7
  6
CONTINUOUS
 10
104.0227470804
 20
129.5051582214
  0
SEQEND
  0
LINE
  8
0
 62
9
  6
CONTINUOUS
 10
92.8727470804
 20
126.5689987024
 11
92.8727470804
 21
134.920629036
  0
LINE
  8
0
 62
7
  6
CONTINUOUS
 10
93.3727470804
 20
127.0689987024
 11
93.3727470804
 21
133.920629036
  0
LINE
  8
0
 62
7
  6
CONTINUOUS
 10
93.7227470804
 20
146.7473682511
 11
93.7227470804
 21
153.5989987024
  0
LINE
  8
0
 62
9
  6
CONTINUOUS
 10
94.2227470804
 20
145.7473683688
 11
94.2227470804
 21
154.0989987024
  0
LINE
  8
0
 62
7
  6
CONTINUOUS
 10
106.9515296256
 20
145.637108988
 11
106.9727470804
 21
145.6588635178
  0
LINE
  8
0
 62
7
  6
CONTINUOUS
 10
106.9196287909
 20
145.6048029914
 11
106.9515296256
 21
145.637108988
  0
LINE
  8
0
 62
7
  6
CONTINUOUS
 10
106.8770914752
 20
145.5621578379
 11
106.9196287909
 21
145.6048029914
  0
POLYLINE
  8
0
 62
9
  6
CONTINUOUS
 66
1
 70
0
  0
VERTEX
  8
0
 62
9
  6
CONTINUOUS
 10
106.9097228911
 20
139.401077324
  0
VERTEX
  8
0
 62
9
  6
CONTINUOUS
 10
107.013267399
 20
139.4805260725
  0
VERTEX
  8
0
 62
9
  6
CONTINUOUS
 10
107.0927252241
 20
139.5840587522
  0
SEQEND
  0
LINE
  8
0
 62
9
  6
CONTINUOUS
 10
94.2227470804
 20
145.7473683688
 11
93.7227470805
 21
146.7473685225
  0
POLYLINE
  8
0
 62
9
  6
CONTINUOUS
 66
1
 70
0
  0
VERTEX
  8
0
 62
9
  6
CONTINUOUS
 10
96.8272895402
 20
143.1829969624
  0
VERTEX
  8
0
 62
9
  6
CONTINUOUS
 10
96.8278686742
 20
142.8507156033
  0
VERTEX
  8
0
 62
9
  6
CONTINUOUS
 10
96.8288117155
 20
142.5385201555
  0
VERTEX
  8
0
 62
9
  6
CONTINUOUS
 10
96.8300908152
 20
142.2556173147
  0
VERTEX
  8
0
 62
9
  6
CONTINUOUS
 10
96.8316681762
 20
142.0103676165
  0
VERTEX
  8
0
 62
9
  6
CONTINUOUS
 10
96.833497198
 20
141.8100189008
  0
VERTEX
  8
0
 62
9
  6
CONTINUOUS
 10
96.835524099
 20
141.6604792142
  0
VERTEX
  8
0
 62
9
  6
CONTINUOUS
 10
96.8377103199
 20
141.5655639927
  0
VERTEX
  8
0
 62
9
  6
CONTINUOUS
 10
96.8400675439
 20
141.52967093
  0
SEQEND
  0
LINE
  8
0
 62
9
  6
CONTINUOUS
 10
96.8270914752
 20
148.1793831208
 11
96.8272895402
 21
143.1829969624
  0
POLYLINE
  8
0
 62
9
  6
CONTINUOUS
 66
1
 70
0
  0
VERTEX
  8
0
 62
9
  6
CONTINUOUS
 10
97.3270724367
 20
148.1793831208
  0
VERTEX
  8
0
 62
9
  6
CONTINUOUS
 10
97.3368869605
 20
148.2928674263
  0
VERTEX
  8
0
 62
9
  6
CONTINUOUS
 10
97.3665013434
 20
148.4018147111
  0
VERTEX
  8
0
 62
9
  6
CONTINUOUS
 10
97.4141577211
 20
148.5007402463
  0
VERTEX
  8
0
 62
9
  6
CONTINUOUS
 10
97.4774322472
 20
148.586025955
  0
VERTEX
  8
0
 62
9
  6
CONTINUOUS
 10
97.5532581116
 20
148.6546909352
  0
VERTEX
  8
0
 62
9
  6
CONTINUOUS
 10
97.6386282237
 20
148.7048936468
  0
VERTEX
  8
0
 62
9
  6
CONTINUOUS
 10
97.7306423167
 20
148.7353891503
  0
VERTEX
  8
0
 62
9
  6
CONTINUOUS
 10
97.8245592745
 20
148.7452866819
  0
SEQEND
  0
POLYLINE
  8
0
 62
9
  6
CONTINUOUS
 66
1
 70
0
  0
VERTEX
  8
0
 62
9
  6
CONTINUOUS
 10
96.8270914752
 20
148.1793831208
  0
VERTEX
  8
0
 62
9
  6
CONTINUOUS
 10
96.8472223174
 20
148.3882305815
  0
VERTEX
  8
0
 62
9
  6
CONTINUOUS
 10
96.9069367914
 20
148.5888884972
  0
VERTEX
  8
0
 62
9
  6
CONTINUOUS
 10
97.0026984818
 20
148.7711882255
  0
VERTEX
  8
0
 62
9
  6
CONTINUOUS
 10
97.1296426079
 20
148.9284523241
  0
VERTEX
  8
0
 62
9
  6
CONTINUOUS
 10
97.2816133048
 20
149.0551724807
  0
VERTEX
  8
0
 62
9
  6
CONTINUOUS
 10
97.4525861385
 20
149.1479491729
  0
VERTEX
  8
0
 62
9
  6
CONTINUOUS
 10
97.6367514966
 20
149.2044799988
  0
VERTEX
  8
0
 62
9
  6
CONTINUOUS
 10
97.8245592745
 20
149.2231085993
  0
SEQEND
  0
LINE
  8
0
 62
9
  6
CONTINUOUS
 10
101.9727470804
 20
145.7473683688
 11
102.4727470804
 21
146.7473683688
  0
POLYLINE
  8
0
 62
7
  6
CONTINUOUS
 66
1
 70
0
  0
VERTEX
  8
0
 62
7
  6
CONTINUOUS
 10
106.9727470804
 20
145.6588635178
  0
VERTEX
  8
0
 62
7
  6
CONTINUOUS
 10
106.9398947551
 20
145.6160129445
  0
VERTEX
  8
0
 62
7
  6
CONTINUOUS
 10
106.9258461539
 20
145.5755443548
  0
VERTEX
  8
0
 62
7
  6
CONTINUOUS
 10
106.9283548392
 20
145.5363822355
  0
VERTEX
  8
0
 62
7
  6
CONTINUOUS
 10
106.9483255651
 20
145.4947752586
  0
VERTEX
  8
0
 62
7
  6
CONTINUOUS
 10
106.9868383063
 20
145.4517482574
  0
VERTEX
  8
0
 62
7
  6
CONTINUOUS
 10
107.0410437854
 20
145.4077554654
  0
VERTEX
  8
0
 62
7
  6
CONTINUOUS
 10
107.1080400177
 20
145.3594867513
  0
VERTEX
  8
0
 62
7
  6
CONTINUOUS
 10
107.1879072209
 20
145.2977945915
  0
VERTEX
  8
0
 62
7
  6
CONTINUOUS
 10
107.2723969389
 20
145.2101898301
  0
VERTEX
  8
0
 62
7
  6
CONTINUOUS
 10
107.331734791
 20
145.1065737198
  0
VERTEX
  8
0
 62
7
  6
CONTINUOUS
 10
107.3640576095
 20
144.9897313497
  0
VERTEX
  8
0
 62
7
  6
CONTINUOUS
 10
107.374513028
 20
144.854679787
  0
SEQEND
  0
POLYLINE
  8
0
 62
7
  6
CONTINUOUS
 66
1
 70
0
  0
VERTEX
  8
0
 62
7
  6
CONTINUOUS
 10
93.3727470804
 20
129.584253831
  0
VERTEX
  8
0
 62
7
  6
CONTINUOUS
 10
93.3559749573
 20
129.5634600103
  0
VERTEX
  8
0
 62
7
  6
CONTINUOUS
 10
93.3065832888
 20
129.5443140479
  0
VERTEX
  8
0
 62
7
  6
CONTINUOUS
 10
93.2275969118
 20
129.5280221721
  0
VERTEX
  8
0
 62
7
  6
CONTINUOUS
 10
93.1241296599
 20
129.5155982972
  0
VERTEX
  8
0
 62
7
  6
CONTINUOUS
 10
93.0030993487
 20
129.507813194
  0
VERTEX
  8
0
 62
7
  6
CONTINUOUS
 10
92.8727470804
 20
129.5051582214
  0
SEQEND
  0
LINE
  8
0
 62
9
  6
CONTINUOUS
 10
106.6598302125
 20
141.3340364485
 11
106.6597543895
 21
141.3339606255
  0
LINE
  8
0
 62
9
  6
CONTINUOUS
 10
107.1601297513
 20
140.8343740642
 11
107.159735351
 21
140.833979664
  0
LINE
  8
0
 62
9
  6
CONTINUOUS
 10
104.8900675439
 20
141.52967093
 11
105.0853834439
 21
141.3343550299
  0
LINE
  8
0
 62
9
  6
CONTINUOUS
 10
105.3900485054
 20
142.0296518915
 11
105.5260038759
 21
141.893696521
  0
POLYLINE
  8
0
 62
7
  6
CONTINUOUS
 66
1
 70
0
  0
VERTEX
  8
0
 62
7
  6
CONTINUOUS
 10
96.9950821958
 20
138.9680948509
  0
VERTEX
  8
0
 62
7
  6
CONTINUOUS
 10
96.9683544888
 20
139.087552065
  0
VERTEX
  8
0
 62
7
  6
CONTINUOUS
 10
96.9415890821
 20
139.2095636858
  0
VERTEX
  8
0
 62
7
  6
CONTINUOUS
 10
96.914783588
 20
139.3341510073
  0
SEQEND
  0
LINE
  8
0
 62
9
  6
CONTINUOUS
 10
97.5059048948
 20
141.8637955021
 11
97.3270724367
 21
148.1793831208
  0
LINE
  8
0
 62
9
  6
CONTINUOUS
 10
98.0058860049
 20
142.3416121716
 11
97.8245592745
 21
148.7452866819
  0
POLYLINE
  8
0
 62
9
  6
CONTINUOUS
 66
1
 70
0
  0
VERTEX
  8
0
 62
9
  6
CONTINUOUS
 10
97.3272705024
 20
143.2696464158
  0
VERTEX
  8
0
 62
9
  6
CONTINUOUS
 10
97.3278496359
 20
143.0204353965
  0
VERTEX
  8
0
 62
9
  6
CONTINUOUS
 10
97.328792677
 20
142.7862888107
  0
VERTEX
  8
0
 62
9
  6
CONTINUOUS
 10
97.3300717768
 20
142.5741116801
  0
VERTEX
  8
0
 62
9
  6
CONTINUOUS
 10
97.3316491378
 20
142.3901744064
  0
VERTEX
  8
0
 62
9
  6
CONTINUOUS
 10
97.3334781594
 20
142.2399128697
  0
VERTEX
  8
0
 62
9
  6
CONTINUOUS
 10
97.3355050598
 20
142.1277581047
  0
VERTEX
  8
0
 62
9
  6
CONTINUOUS
 10
97.337691278
 20
142.0565716886
  0
VERTEX
  8
0
 62
9
  6
CONTINUOUS
 10
97.3400485054
 20
142.0296518915
  0
SEQEND
  0
POLYLINE
  8
0
 62
9
  6
CONTINUOUS
 66
1
 70
0
  0
VERTEX
  8
0
 62
9
  6
CONTINUOUS
 10
98.6396081921
 20
142.341613446
  0
VERTEX
  8
0
 62
9
  6
CONTINUOUS
 10
98.6396881035
 20
142.2789903978
  0
VERTEX
  8
0
 62
9
  6
CONTINUOUS
 10
98.6500350839
 20
142.160858458
  0
VERTEX
  8
0
 62
9
  6
CONTINUOUS
 10
98.6727178777
 20
142.0485304428
  0
VERTEX
  8
0
 62
9
  6
CONTINUOUS
 10
98.7066483212
 20
141.942292185
  0
VERTEX
  8
0
 62
9
  6
CONTINUOUS
 10
98.7506175779
 20
141.8431559041
  0
VERTEX
  8
0
 62
9
  6
CONTINUOUS
 10
98.8034908073
 20
141.7517126678
  0
VERTEX
  8
0
 62
9
  6
CONTINUOUS
 10
98.831337577
 20
141.7112040003
  0
VERTEX
  8
0
 62
9
  6
CONTINUOUS
 10
98.8856847204
 20
141.6428343298
  0
VERTEX
  8
0
 62
9
  6
CONTINUOUS
 10
98.9383654722
 20
141.5869253093
  0
VERTEX
  8
0
 62
9
  6
CONTINUOUS
 10
98.9881543572
 20
141.5413972046
  0
VERTEX
  8
0
 62
9
  6
CONTINUOUS
 10
99.0337863139
 20
141.504838016
  0
VERTEX
  8
0
 62
9
  6
CONTINUOUS
 10
99.0824154607
 20
141.4705543971
  0
VERTEX
  8
0
 62
9
  6
CONTINUOUS
 10
99.1131269829
 20
141.4511250479
  0
SEQEND
  0
LINE
  8
0
 62
9
  6
CONTINUOUS
 10
97.3270724367
 20
148.1793831208
 11
97.3272705024
 21
143.2696464158
  0
LINE
  8
0
 62
9
  6
CONTINUOUS
 10
97.8245592745
 20
148.7452866819
 11
97.8245592745
 21
149.2231085993
  0
LINE
  8
0
 62
9
  6
CONTINUOUS
 10
98.8209348864
 20
149.2231085993
 11
98.8209348864
 21
148.7452866819
  0
POLYLINE
  8
0
 62
9
  6
CONTINUOUS
 66
1
 70
0
  0
VERTEX
  8
0
 62
9
  6
CONTINUOUS
 10
97.5059048959
 20
141.8637955009
  0
VERTEX
  8
0
 62
9
  6
CONTINUOUS
 10
97.5055259738
 20
141.7960495143
  0
VERTEX
  8
0
 62
9
  6
CONTINUOUS
 10
97.4981160141
 20
141.7358041625
  0
VERTEX
  8
0
 62
9
  6
CONTINUOUS
 10
97.4847298396
 20
141.6793909711
  0
VERTEX
  8
0
 62
9
  6
CONTINUOUS
 10
97.4657209808
 20
141.6260849878
  0
VERTEX
  8
0
 62
9
  6
CONTINUOUS
 10
97.441597462
 20
141.5764361658
  0
VERTEX
  8
0
 62
9
  6
CONTINUOUS
 10
97.412987364
 20
141.5310008495
  0
VERTEX
  8
0
 62
9
  6
CONTINUOUS
 10
97.3841389167
 20
141.4942450532
  0
VERTEX
  8
0
 62
9
  6
CONTINUOUS
 10
97.3565669436
 20
141.4650423611
  0
VERTEX
  8
0
 62
9
  6
CONTINUOUS
 10
97.3304630374
 20
141.4414979482
  0
VERTEX
  8
0
 62
9
  6
CONTINUOUS
 10
97.3065141692
 20
141.4227824258
  0
VERTEX
  8
0
 62
9
  6
CONTINUOUS
 10
97.2817671218
 20
141.4059277501
  0
SEQEND
  0
LINE
  8
0
 62
9
  6
CONTINUOUS
 10
98.8209348864
 20
148.7452866819
 11
98.6396081921
 21
142.341613446
  0
LINE
  8
0
 62
9
  6
CONTINUOUS
 10
99.3184217242
 20
148.1793831208
 11
99.1387402901
 21
141.8315928685
  0
POLYLINE
  8
0
 62
9
  6
CONTINUOUS
 66
1
 70
0
  0
VERTEX
  8
0
 62
9
  6
CONTINUOUS
 10
99.805426617
 20
141.52967093
  0
VERTEX
  8
0
 62
9
  6
CONTINUOUS
 10
99.8076931357
 20
141.5629502378
  0
VERTEX
  8
0
 62
9
  6
CONTINUOUS
 10
99.8098628821
 20
141.6543264807
  0
VERTEX
  8
0
 62
9
  6
CONTINUOUS
 10
99.8118979642
 20
141.801124974
  0
VERTEX
  8
0
 62
9
  6
CONTINUOUS
 10
99.8137383822
 20
141.9990094757
  0
VERTEX
  8
0
 62
9
  6
CONTINUOUS
 10
99.8153297532
 20
142.2421312404
  0
VERTEX
  8
0
 62
9
  6
CONTINUOUS
 10
99.8166250565
 20
142.5233067182
  0
VERTEX
  8
0
 62
9
  6
CONTINUOUS
 10
99.8175861014
 20
142.8342663759
  0
VERTEX
  8
0
 62
9
  6
CONTINUOUS
 10
99.818188329
 20
143.1691371758
  0
VERTEX
  8
0
 62
9
  6
CONTINUOUS
 10
99.8184026857
 20
148.1793831208
  0
SEQEND
  0
POLYLINE
  8
0
 62
9
  6
CONTINUOUS
 66
1
 70
0
  0
VERTEX
  8
0
 62
9
  6
CONTINUOUS
 10
99.3054456555
 20
142.0296518915
  0
VERTEX
  8
0
 62
9
  6
CONTINUOUS
 10
99.3077121779
 20
142.0546113724
  0
VERTEX
  8
0
 62
9
  6
CONTINUOUS
 10
99.309881921
 20
142.1231435545
  0
VERTEX
  8
0
 62
9
  6
CONTINUOUS
 10
99.3119170027
 20
142.2332424245
  0
VERTEX
  8
0
 62
9
  6
CONTINUOUS
 10
99.3137574206
 20
142.3816558008
  0
VERTEX
  8
0
 62
9
  6
CONTINUOUS
 10
99.3153487917
 20
142.5639971243
  0
VERTEX
  8
0
 62
9
  6
CONTINUOUS
 10
99.3166440949
 20
142.7748787326
  0
VERTEX
  8
0
 62
9
  6
CONTINUOUS
 10
99.3176051396
 20
143.008098476
  0
VERTEX
  8
0
 62
9
  6
CONTINUOUS
 10
99.3182073668
 20
143.2592515758
  0
VERTEX
  8
0
 62
9
  6
CONTINUOUS
 10
99.3184217242
 20
148.1793831208
  0
SEQEND
  0
POLYLINE
  8
0
 62
7
  6
CONTINUOUS
 66
1
 70
0
  0
VERTEX
  8
0
 62
7
  6
CONTINUOUS
 10
99.7307105729
 20
139.3341510073
  0
VERTEX
  8
0
 62
7
  6
CONTINUOUS
 10
99.7039050845
 20
139.2095637122
  0
VERTEX
  8
0
 62
7
  6
CONTINUOUS
 10
99.6771396787
 20
139.0875520944
  0
VERTEX
  8
0
 62
7
  6
CONTINUOUS
 10
99.6504119651
 20
138.9680948509
  0
SEQEND
  0
LINE
  8
0
 62
9
  6
CONTINUOUS
 10
106.6597543895
 20
139.3340748519
 11
106.6596972755
 21
139.3341510073
  0
POLYLINE
  8
0
 62
9
  6
CONTINUOUS
 66
1
 70
0
  0
VERTEX
  8
0
 62
9
  6
CONTINUOUS
 10
99.1395892661
 20
141.8637955021
  0
VERTEX
  8
0
 62
9
  6
CONTINUOUS
 10
99.1248009636
 20
141.9779626957
  0
VERTEX
  8
0
 62
9
  6
CONTINUOUS
 10
99.0819067589
 20
142.0855165319
  0
VERTEX
  8
0
 62
9
  6
CONTINUOUS
 10
99.0133914677
 20
142.1802265913
  0
VERTEX
  8
0
 62
9
  6
CONTINUOUS
 10
98.9707139331
 20
142.2210126685
  0
VERTEX
  8
0
 62
9
  6
CONTINUOUS
 10
98.8716116167
 20
142.2864914157
  0
VERTEX
  8
0
 62
9
  6
CONTINUOUS
 10
98.7590700016
 20
142.3274845343
  0
VERTEX
  8
0
 62
9
  6
CONTINUOUS
 10
98.6396083046
 20
142.3416174195
  0
SEQEND
  0
LINE
  8
0
 62
9
  6
CONTINUOUS
 10
101.9727470804
 20
145.7473683688
 11
101.9727470804
 21
154.0989987024
  0
LINE
  8
0
 62
9
  6
CONTINUOUS
 10
106.6597543895
 20
141.3339606255
 11
106.159773428
 21
140.3339987024
  0
POLYLINE
  8
0
 62
7
  6
CONTINUOUS
 66
1
 70
0
  0
VERTEX
  8
0
 62
7
  6
CONTINUOUS
 10
102.4727470804
 20
151.0837435738
  0
VERTEX
  8
0
 62
7
  6
CONTINUOUS
 10
102.4559749573
 20
151.1045373945
  0
VERTEX
  8
0
 62
7
  6
CONTINUOUS
 10
102.4065832888
 20
151.1236833569
  0
VERTEX
  8
0
 62
7
  6
CONTINUOUS
 10
102.3275969118
 20
151.1399752328
  0
VERTEX
  8
0
 62
7
  6
CONTINUOUS
 10
102.2241296599
 20
151.1523991077
  0
VERTEX
  8
0
 62
7
  6
CONTINUOUS
 10
102.1030993487
 20
151.1601842109
  0
VERTEX
  8
0
 62
7
  6
CONTINUOUS
 10
101.9727470804
 20
151.1628391835
  0
SEQEND
  0
LINE
  8
0
 62
9
  6
CONTINUOUS
 10
106.8556550678
 20
138.9422436542
 11
106.159773428
 21
140.3339987024
  0
POLYLINE
  8
0
 62
9
  6
CONTINUOUS
 66
1
 70
0
  0
VERTEX
  8
0
 62
9
  6
CONTINUOUS
 10
104.8772895297
 20
143.183006115
  0
VERTEX
  8
0
 62
9
  6
CONTINUOUS
 10
104.8778687014
 20
142.8507041
  0
VERTEX
  8
0
 62
9
  6
CONTINUOUS
 10
104.8788118256
 20
142.5384906624
  0
VERTEX
  8
0
 62
9
  6
CONTINUOUS
 10
104.8800910474
 20
142.2555743868
  0
VERTEX
  8
0
 62
9
  6
CONTINUOUS
 10
104.8816685611
 20
142.0103172665
  0
VERTEX
  8
0
 62
9
  6
CONTINUOUS
 10
104.8834977558
 20
141.8099682892
  0
VERTEX
  8
0
 62
9
  6
CONTINUOUS
 10
104.8855248347
 20
141.6604364241
  0
VERTEX
  8
0
 62
9
  6
CONTINUOUS
 10
104.8877110937
 20
141.5655412668
  0
VERTEX
  8
0
 62
9
  6
CONTINUOUS
 10
104.8900675439
 20
141.52967093
  0
SEQEND
  0
LINE
  8
0
 62
7
  6
CONTINUOUS
 10
102.4727470804
 20
146.7473683688
 11
102.4727470804
 21
153.5989987024
  0
LINE
  8
0
 62
7
  6
CONTINUOUS
 10
103.5227470804
 20
133.920629036
 11
103.5227470804
 21
127.0689987024
  0
LINE
  8
0
 62
9
  6
CONTINUOUS
 10
104.0227470804
 20
134.920629036
 11
104.0227470804
 21
126.5689987024
  0
LINE
  8
0
 62
9
  6
CONTINUOUS
 10
104.8770914752
 20
144.551462687
 11
104.8772895297
 21
143.183006115
  0
LINE
  8
0
 62
9
  6
CONTINUOUS
 10
107.0925931289
 20
139.5841566118
 11
107.1425537511
 21
139.7047093819
  0
LINE
  8
0
 62
9
  6
CONTINUOUS
 10
104.0227470804
 20
134.920629036
 11
103.5227470804
 21
133.920629036
  0
LINE
  8
0
 62
7
  6
CONTINUOUS
 10
107.556614713
 20
144.5514783925
 11
107.5888794479
 21
144.503040717
  0
LINE
  8
0
 62
9
  6
CONTINUOUS
 10
107.3556360293
 20
139.4421675018
 11
107.159735351
 21
139.8339986995
  0
LINE
  8
0
 62
9
  6
CONTINUOUS
 10
105.3770724367
 20
144.551462687
 11
105.5260038759
 21
141.893696521
  0
LINE
  8
0
 62
9
  6
CONTINUOUS
 10
105.8757866544
 20
145.0681131445
 11
106.0259849329
 21
142.3877412146
  0
POLYLINE
  8
0
 62
9
  6
CONTINUOUS
 66
1
 70
0
  0
VERTEX
  8
0
 62
9
  6
CONTINUOUS
 10
105.5260038766
 20
141.8936965203
  0
VERTEX
  8
0
 62
9
  6
CONTINUOUS
 10
105.5294853403
 20
141.821211023
  0
VERTEX
  8
0
 62
9
  6
CONTINUOUS
 10
105.525322864
 20
141.7566869977
  0
VERTEX
  8
0
 62
9
  6
CONTINUOUS
 10
105.5148047036
 20
141.6963288428
  0
VERTEX
  8
0
 62
9
  6
CONTINUOUS
 10
105.4983847248
 20
141.6394922199
  0
VERTEX
  8
0
 62
9
  6
CONTINUOUS
 10
105.4768536569
 20
141.587287767
  0
VERTEX
  8
0
 62
9
  6
CONTINUOUS
 10
105.4510601679
 20
141.5402292082
  0
VERTEX
  8
0
 62
9
  6
CONTINUOUS
 10
105.4247782288
 20
141.5023038132
  0
VERTEX
  8
0
 62
9
  6
CONTINUOUS
 10
105.3991912295
 20
141.4718995972
  0
VERTEX
  8
0
 62
9
  6
CONTINUOUS
 10
105.3745676579
 20
141.4471759841
  0
VERTEX
  8
0
 62
9
  6
CONTINUOUS
 10
105.3515317818
 20
141.4272799221
  0
VERTEX
  8
0
 62
9
  6
CONTINUOUS
 10
105.3277303813
 20
141.4094800494
  0
SEQEND
  0
POLYLINE
  8
0
 62
9
  6
CONTINUOUS
 66
1
 70
0
  0
VERTEX
  8
0
 62
9
  6
CONTINUOUS
 10
106.8701827279
 20
138.4027595664
  0
VERTEX
  8
0
 62
9
  6
CONTINUOUS
 10
106.8674323236
 20
138.6032133995
  0
VERTEX
  8
0
 62
9
  6
CONTINUOUS
 10
106.8643666079
 20
138.7605908593
  0
VERTEX
  8
0
 62
9
  6
CONTINUOUS
 10
106.8610624533
 20
138.8708788945
  0
VERTEX
  8
0
 62
9
  6
CONTINUOUS
 10
106.8574970784
 20
138.9321413676
  0
VERTEX
  8
0
 62
9
  6
CONTINUOUS
 10
106.8556550678
 20
138.9422436542
  0
SEQEND
  0
POLYLINE
  8
0
 62
9
  6
CONTINUOUS
 66
1
 70
0
  0
VERTEX
  8
0
 62
9
  6
CONTINUOUS
 10
107.3731127553
 20
138.3787925662
  0
VERTEX
  8
0
 62
9
  6
CONTINUOUS
 10
107.3709587951
 20
138.6780575683
  0
VERTEX
  8
0
 62
9
  6
CONTINUOUS
 10
107.3684263575
 20
138.9355711929
  0
VERTEX
  8
0
 62
9
  6
CONTINUOUS
 10
107.3655776864
 20
139.1450257126
  0
VERTEX
  8
0
 62
9
  6
CONTINUOUS
 10
107.3624778066
 20
139.3015825391
  0
VERTEX
  8
0
 62
9
  6
CONTINUOUS
 10
107.3591618329
 20
139.4021440215
  0
VERTEX
  8
0
 62
9
  6
CONTINUOUS
 10
107.3556360293
 20
139.4421675018
  0
SEQEND
  0
POLYLINE
  8
0
 62
9
  6
CONTINUOUS
 66
1
 70
0
  0
VERTEX
  8
0
 62
9
  6
CONTINUOUS
 10
106.8764130558
 20
137.4374185358
  0
VERTEX
  8
0
 62
9
  6
CONTINUOUS
 10
106.8752385347
 20
137.7491397851
  0
VERTEX
  8
0
 62
9
  6
CONTINUOUS
 10
106.873563538
 20
138.032980967
  0
VERTEX
  8
0
 62
9
  6
CONTINUOUS
 10
106.8701827279
 20
138.4027595664
  0
SEQEND
  0
POLYLINE
  8
0
 62
9
  6
CONTINUOUS
 66
1
 70
0
  0
VERTEX
  8
0
 62
9
  6
CONTINUOUS
 10
105.3772704919
 20
143.2696532802
  0
VERTEX
  8
0
 62
9
  6
CONTINUOUS
 10
105.3778496631
 20
143.020426769
  0
VERTEX
  8
0
 62
9
  6
CONTINUOUS
 10
105.3787927872
 20
142.7862666908
  0
VERTEX
  8
0
 62
9
  6
CONTINUOUS
 10
105.3800720089
 20
142.5740794841
  0
VERTEX
  8
0
 62
9
  6
CONTINUOUS
 10
105.3816495227
 20
142.3901366439
  0
VERTEX
  8
0
 62
9
  6
CONTINUOUS
 10
105.3834787172
 20
142.239874911
  0
VERTEX
  8
0
 62
9
  6
CONTINUOUS
 10
105.3855057954
 20
142.1277260121
  0
VERTEX
  8
0
 62
9
  6
CONTINUOUS
 10
105.3876920518
 20
142.0565546441
  0
VERTEX
  8
0
 62
9
  6
CONTINUOUS
 10
105.3900485054
 20
142.0296518915
  0
SEQEND
  0
LINE
  8
0
 62
9
  6
CONTINUOUS
 10
106.8770914752
 20
136.9425482639
 11
106.8764130558
 21
137.4374185358
  0
LINE
  8
0
 62
9
  6
CONTINUOUS
 10
105.3770724367
 20
144.551462687
 11
105.3772704919
 21
143.2696532802
  0
LINE
  8
0
 62
9
  6
CONTINUOUS
 10
105.8757866544
 20
145.0681131445
 11
105.8757866544
 21
145.5621578379
  0
LINE
  8
0
 62
9
  6
CONTINUOUS
 10
106.9727470804
 20
146.2473683688
 11
106.9727470804
 21
145.6588635178
  0
LINE
  8
0
 62
9
  6
CONTINUOUS
 10
106.9727470804
 20
134.5592785241
 11
106.9727470804
 21
126.5689987024
  0
LINE
  8
0
 62
9
  6
CONTINUOUS
 10
107.159735351
 20
140.833979664
 11
107.159735351
 21
139.8339986995
  0
LINE
  8
0
 62
9
  6
CONTINUOUS
 10
107.1727470804
 20
137.5746898969
 11
107.1727470804
 21
135.1592785241
  0
LINE
  8
0
 62
7
  6
CONTINUOUS
 10
107.4727470804
 20
145.7473683688
 11
107.4727470804
 21
144.8286675927
  0
LINE
  8
0
 62
7
  6
CONTINUOUS
 10
107.4727470804
 20
134.5592785241
 11
107.4727470804
 21
127.0689987024
  0
LINE
  8
0
 62
7
  6
CONTINUOUS
 10
107.6727470804
 20
144.2258515167
 11
107.6727470804
 21
135.1592785241
  0
POLYLINE
  8
0
 62
7
  6
CONTINUOUS
 66
1
 70
0
  0
VERTEX
  8
0
 62
7
  6
CONTINUOUS
 10
107.3731127553
 20
138.3787925662
  0
VERTEX
  8
0
 62
7
  6
CONTINUOUS
 10
107.3737496223
 20
144.5044290503
  0
VERTEX
  8
0
 62
7
  6
CONTINUOUS
 10
107.3741710306
 20
144.6306460177
  0
VERTEX
  8
0
 62
7
  6
CONTINUOUS
 10
107.3745131286
 20
144.8546772562
  0
SEQEND
  0
POLYLINE
  8
0
 62
9
  6
CONTINUOUS
 66
1
 70
0
  0
VERTEX
  8
0
 62
9
  6
CONTINUOUS
 10
107.3696884681
 20
144.5740684511
  0
VERTEX
  8
0
 62
9
  6
CONTINUOUS
 10
107.3704764467
 20
144.5924266209
  0
VERTEX
  8
0
 62
9
  6
CONTINUOUS
 10
107.3719441828
 20
144.6511371874
  0
VERTEX
  8
0
 62
9
  6
CONTINUOUS
 10
107.372637317
 20
144.691441679
  0
VERTEX
  8
0
 62
9
  6
CONTINUOUS
 10
107.3745131286
 20
144.8546772562
  0
SEQEND
  0
POLYLINE
  8
0
 62
9
  6
CONTINUOUS
 66
1
 70
0
  0
VERTEX
  8
0
 62
9
  6
CONTINUOUS
 10
105.3770724367
 20
144.551462687
  0
VERTEX
  8
0
 62
9
  6
CONTINUOUS
 10
105.3797302137
 20
144.6054877995
  0
VERTEX
  8
0
 62
9
  6
CONTINUOUS
 10
105.4015464098
 20
144.7121297092
  0
VERTEX
  8
0
 62
9
  6
CONTINUOUS
 10
105.444431171
 20
144.8115366013
  0
VERTEX
  8
0
 62
9
  6
CONTINUOUS
 10
105.5061335548
 20
144.8989525273
  0
VERTEX
  8
0
 62
9
  6
CONTINUOUS
 10
105.5432452245
 20
144.9370986168
  0
VERTEX
  8
0
 62
9
  6
CONTINUOUS
 10
105.6276519046
 20
145.000064053
  0
VERTEX
  8
0
 62
9
  6
CONTINUOUS
 10
105.7229308819
 20
145.0435001931
  0
VERTEX
  8
0
 62
9
  6
CONTINUOUS
 10
105.8245345907
 20
145.0654524348
  0
VERTEX
  8
0
 62
9
  6
CONTINUOUS
 10
105.8757866544
 20
145.0681131445
  0
SEQEND
  0
LINE
  8
0
 62
9
  6
CONTINUOUS
 10
106.6604635845
 20
141.3340364486
 11
106.8697075065
 21
145.0681131445
  0
LINE
  8
0
 62
9
  6
CONTINUOUS
 10
107.1601297513
 20
140.8343740642
 11
107.3696884681
 21
144.5740684511
  0
POLYLINE
  8
0
 62
9
  6
CONTINUOUS
 66
1
 70
0
  0
VERTEX
  8
0
 62
9
  6
CONTINUOUS
 10
106.8697075065
 20
145.0681131445
  0
VERTEX
  8
0
 62
9
  6
CONTINUOUS
 10
106.8713519446
 20
145.09236566
  0
VERTEX
  8
0
 62
9
  6
CONTINUOUS
 10
106.8728643551
 20
145.1337490786
  0
VERTEX
  8
0
 62
9
  6
CONTINUOUS
 10
106.8742145088
 20
145.1911271967
  0
VERTEX
  8
0
 62
9
  6
CONTINUOUS
 10
106.8754210022
 20
145.2679659846
  0
VERTEX
  8
0
 62
9
  6
CONTINUOUS
 10
106.8763363758
 20
145.3587086467
  0
VERTEX
  8
0
 62
9
  6
CONTINUOUS
 10
106.8769006711
 20
145.4581737499
  0
VERTEX
  8
0
 62
9
  6
CONTINUOUS
 10
106.8770914752
 20
145.5621578379
  0
SEQEND
  0
POLYLINE
  8
0
 62
7
  6
CONTINUOUS
 66
1
 70
0
  0
VERTEX
  8
0
 62
7
  6
CONTINUOUS
 10
107.3731127502
 20
138.3787924194
  0
VERTEX
  8
0
 62
7
  6
CONTINUOUS
 10
107.3531978499
 20
138.1338435354
  0
VERTEX
  8
0
 62
7
  6
CONTINUOUS
 10
107.2844907062
 20
137.8624735658
  0
VERTEX
  8
0
 62
7
  6
CONTINUOUS
 10
107.1727470804
 20
137.5746898969
  0
SEQEND
  0
LINE
  8
0
 62
9
  6
CONTINUOUS
 10
107.1426824911
 20
139.7046211424
 11
107.159735351
 21
139.8339986995
  0
POLYLINE
  8
0
 62
7
  6
CONTINUOUS
 66
1
 70
0
  0
VERTEX
  8
0
 62
7
  6
CONTINUOUS
 10
107.1727470804
 20
137.5746898969
  0
VERTEX
  8
0
 62
7
  6
CONTINUOUS
 10
107.088258352
 20
137.378740629
  0
VERTEX
  8
0
 62
7
  6
CONTINUOUS
 10
106.9888539617
 20
137.1681370532
  0
VERTEX
  8
0
 62
7
  6
CONTINUOUS
 10
106.8770914752
 20
136.9425482639
  0
SEQEND
  0
POLYLINE
  8
0
 62
9
  6
CONTINUOUS
 66
1
 70
0
  0
VERTEX
  8
0
 62
9
  6
CONTINUOUS
 10
107.159735351
 20
140.833979664
  0
VERTEX
  8
0
 62
9
  6
CONTINUOUS
 10
107.1426907541
 20
140.963377933
  0
VERTEX
  8
0
 62
9
  6
CONTINUOUS
 10
107.0927380863
 20
141.0839588538
  0
VERTEX
  8
0
 62
9
  6
CONTINUOUS
 10
107.0132811363
 20
141.1875058527
  0
VERTEX
  8
0
 62
9
  6
CONTINUOUS
 10
106.9097341711
 20
141.266963019
  0
VERTEX
  8
0
 62
9
  6
CONTINUOUS
 10
106.7891530397
 20
141.3169159264
  0
VERTEX
  8
0
 62
9
  6
CONTINUOUS
 10
106.6597543895
 20
141.3339606255
  0
SEQEND
  0
POLYLINE
  8
0
 62
7
  6
CONTINUOUS
 66
1
 70
0
  0
VERTEX
  8
0
 62
7
  6
CONTINUOUS
 10
107.1601297513
 20
140.8343740642
  0
VERTEX
  8
0
 62
7
  6
CONTINUOUS
 10
107.1475787138
 20
140.9452801883
  0
VERTEX
  8
0
 62
7
  6
CONTINUOUS
 10
107.1106608549
 20
141.0507555433
  0
VERTEX
  8
0
 62
7
  6
CONTINUOUS
 10
107.0511612973
 20
141.1454898336
  0
VERTEX
  8
0
 62
7
  6
CONTINUOUS
 10
106.9720223956
 20
141.2246914435
  0
VERTEX
  8
0
 62
7
  6
CONTINUOUS
 10
106.8772010633
 20
141.2843424024
  0
VERTEX
  8
0
 62
7
  6
CONTINUOUS
 10
106.7714662093
 20
141.3214154655
  0
VERTEX
  8
0
 62
7
  6
CONTINUOUS
 10
106.6598302125
 20
141.3340364485
  0
SEQEND
  0
LINE
  8
0
 62
7
  6
CONTINUOUS
 10
134.6161302808
 20
149.8589987024
 11
134.6161302808
 21
130.8090383498
  0
LINE
  8
0
 62
7
  6
CONTINUOUS
 10
136.3161302808
 20
144.6773853053
 11
136.3161302808
 21
134.4922038284
  0
LINE
  8
0
 62
7
  6
CONTINUOUS
 10
139.9093839984
 20
153.848214956
 11
139.9381899497
 21
154.0989987024
  0
LINE
  8
0
 62
7
  6
CONTINUOUS
 10
139.8798589057
 20
153.5989987024
 11
139.9093839984
 21
153.848214956
  0
LINE
  8
0
 62
7
  6
CONTINUOUS
 10
137.9940706118
 20
126.5689987024
 11
139.9381899497
 21
126.5689987024
  0
LINE
  8
0
 62
7
  6
CONTINUOUS
 10
139.9093839984
 20
126.8197824488
 11
139.8798589057
 21
127.0689987024
  0
LINE
  8
0
 62
7
  6
CONTINUOUS
 10
139.9381899497
 20
126.5689987024
 11
139.9093839984
 21
126.8197824488
  0
LINE
  8
1_AXIS
 62
2
  6
CONTINUOUS
 10
138.9661302808
 20
150.7389987024
 11
138.9661302808
 21
148.9789987024
  0
LINE
  8
1_AXIS
 62
2
  6
CENTER
 10
138.9661302808
 20
145.4589987024
 11
138.9661302808
 21
143.6189987024
  0
LINE
  8
1_AXIS
 62
2
  6
CONTINUOUS
 10
138.9661302808
 20
131.6889987024
 11
138.9661302808
 21
129.9289987024
  0
LINE
  8
1_AXIS
 62
2
  6
CENTER
 10
138.9661302808
 20
126.4089987024
 11
138.9661302808
 21
124.5689987024
  0
LINE
  8
1_AXIS
 62
2
  6
CENTER
 10
138.9661302808
 20
135.2089987024
 11
138.9661302808
 21
137.0489987024
  0
LINE
  8
1_AXIS
 62
2
  6
CENTER
 10
138.9661302808
 20
154.2589987024
 11
138.9661302808
 21
156.0989987024
  0
LINE
  8
0
 62
7
  6
CONTINUOUS
 10
137.9940706118
 20
126.5689987024
 11
138.0228765632
 21
126.8197824488
  0
LINE
  8
0
 62
7
  6
CONTINUOUS
 10
138.0228765632
 20
126.8197824488
 11
138.0524016558
 21
127.0689987024
  0
LINE
  8
0
 62
7
  6
CONTINUOUS
 10
143.1161302808
 20
129.5051582214
 11
142.9683824592
 21
129.5280221721
  0
POLYLINE
  8
0
 62
7
  6
CONTINUOUS
 66
1
 70
0
  0
VERTEX
  8
0
 62
7
  6
CONTINUOUS
 10
142.9683824592
 20
129.5280221721
  0
VERTEX
  8
0
 62
7
  6
CONTINUOUS
 10
142.7445468646
 20
129.5634600103
  0
VERTEX
  8
0
 62
7
  6
CONTINUOUS
 10
142.6161302808
 20
129.584253831
  0
SEQEND
  0
LINE
  8
0
 62
7
  6
CONTINUOUS
 10
138.0524016558
 20
153.5989987024
 11
138.0228765632
 21
153.848214956
  0
LINE
  8
0
 62
7
  6
CONTINUOUS
 10
138.0228765632
 20
153.848214956
 11
137.9940706118
 21
154.0989987024
  0
POLYLINE
  8
0
 62
7
  6
CONTINUOUS
 66
1
 70
0
  0
VERTEX
  8
0
 62
7
  6
CONTINUOUS
 10
143.1161302808
 20
137.5746899359
  0
VERTEX
  8
0
 62
7
  6
CONTINUOUS
 10
143.1035064364
 20
137.8621795156
  0
VERTEX
  8
0
 62
7
  6
CONTINUOUS
 10
143.0824405318
 20
138.1337125066
  0
VERTEX
  8
0
 62
7
  6
CONTINUOUS
 10
143.0742280863
 20
138.3787923516
  0
SEQEND
  0
LINE
  8
0
 62
7
  6
CONTINUOUS
 10
142.9137609933
 20
144.8286675927
 11
142.9137610905
 21
144.8546771306
  0
POLYLINE
  8
0
 62
7
  6
CONTINUOUS
 66
1
 70
0
  0
VERTEX
  8
0
 62
7
  6
CONTINUOUS
 10
142.9137610565
 20
144.8546783031
  0
VERTEX
  8
0
 62
7
  6
CONTINUOUS
 10
142.9270214091
 20
144.9880151722
  0
VERTEX
  8
0
 62
7
  6
CONTINUOUS
 10
142.9632361216
 20
145.1043576485
  0
VERTEX
  8
0
 62
7
  6
CONTINUOUS
 10
143.0143221408
 20
145.2065610086
  0
VERTEX
  8
0
 62
7
  6
CONTINUOUS
 10
143.0652273459
 20
145.2938031144
  0
VERTEX
  8
0
 62
7
  6
CONTINUOUS
 10
143.0964093984
 20
145.3567813068
  0
VERTEX
  8
0
 62
7
  6
CONTINUOUS
 10
143.1112378411
 20
145.4066593508
  0
VERTEX
  8
0
 62
7
  6
CONTINUOUS
 10
143.1159160979
 20
145.4512496422
  0
VERTEX
  8
0
 62
7
  6
CONTINUOUS
 10
143.116130062
 20
145.4659352396
  0
SEQEND
  0
LINE
  8
0
 62
7
  6
CONTINUOUS
 10
140.9832911016
 20
145.2861367733
 11
140.8074789579
 21
145.2125550033
  0
LINE
  8
1_AXIS
 62
2
  6
CONTINUOUS
 10
139.8461302808
 20
130.8089987024
 11
138.0861302808
 21
130.8089987024
  0
LINE
  8
1_AXIS
 62
2
  6
CENTER
 10
134.5661302808
 20
130.8089987024
 11
132.7261302808
 21
130.8089987024
  0
LINE
  8
1_AXIS
 62
2
  6
CENTER
 10
143.3661302808
 20
130.8089987024
 11
145.2061302808
 21
130.8089987024
  0
POLYLINE
  8
0
 62
7
  6
CONTINUOUS
 66
1
 70
0
  0
VERTEX
  8
0
 62
7
  6
CONTINUOUS
 10
143.0742280829
 20
144.2258515167
  0
VERTEX
  8
0
 62
7
  6
CONTINUOUS
 10
143.0719925478
 20
144.2709666078
  0
VERTEX
  8
0
 62
7
  6
CONTINUOUS
 10
143.0653078464
 20
144.3156396539
  0
VERTEX
  8
0
 62
7
  6
CONTINUOUS
 10
143.0542394758
 20
144.359432939
  0
SEQEND
  0
LINE
  8
0
 62
7
  6
CONTINUOUS
 10
143.0742281039
 20
138.3787925757
 11
143.0742280829
 21
144.2258515167
  0
LINE
  8
0
 62
7
  6
CONTINUOUS
 10
143.1161302808
 20
129.5051582214
 11
143.1161302808
 21
137.5746899359
  0
LINE
  8
0
 62
7
  6
CONTINUOUS
 10
143.1161302808
 20
145.4659058363
 11
143.1161302808
 21
151.1628391835
  0
POLYLINE
  8
0
 62
7
  6
CONTINUOUS
 66
1
 70
0
  0
VERTEX
  8
0
 62
7
  6
CONTINUOUS
 10
142.9137609933
 20
144.8286675927
  0
VERTEX
  8
0
 62
7
  6
CONTINUOUS
 10
142.9269601307
 20
144.7187782301
  0
VERTEX
  8
0
 62
7
  6
CONTINUOUS
 10
142.9674096202
 20
144.5909013979
  0
VERTEX
  8
0
 62
7
  6
CONTINUOUS
 10
143.0303937844
 20
144.4295010363
  0
SEQEND
  0
POLYLINE
  8
0
 62
7
  6
CONTINUOUS
 66
1
 70
0
  0
VERTEX
  8
0
 62
7
  6
CONTINUOUS
 10
143.0303937844
 20
144.4295010363
  0
VERTEX
  8
0
 62
7
  6
CONTINUOUS
 10
143.038617078
 20
144.4069337567
  0
VERTEX
  8
0
 62
7
  6
CONTINUOUS
 10
143.0465748843
 20
144.3835742932
  0
VERTEX
  8
0
 62
7
  6
CONTINUOUS
 10
143.0542394758
 20
144.359432939
  0
SEQEND
  0
LINE
  8
0
 62
7
  6
CONTINUOUS
 10
167.5335826872
 20
139.3341510073
 11
145.0812254679
 21
138.9422436542
  0
LINE
  8
1_AXIS
 62
2
  6
CENTER
 10
132.1161297111
 20
140.3339987024
 11
170.5161302808
 21
140.3339987024
  0
LINE
  8
0
 62
7
  6
CONTINUOUS
 10
167.5248568163
 20
141.3339606255
 11
167.5161683577
 21
141.3340364485
  0
LINE
  8
0
 62
7
  6
CONTINUOUS
 10
143.5391897784
 20
145.0681131445
 11
167.5161683577
 21
141.3340364485
  0
LINE
  8
0
 62
7
  6
CONTINUOUS
 10
140.6232704067
 20
145.1773853053
 11
136.8049747099
 21
145.1773853053
  0
LINE
  8
0
 62
7
  6
CONTINUOUS
 10
167.5161311733
 20
141.3340365057
 11
143.4688678781
 21
148.7452866819
  0
LINE
  8
1_AXIS
 62
2
  6
CONTINUOUS
 10
139.8461302808
 20
149.8589987024
 11
138.0861302808
 21
149.8589987024
  0
LINE
  8
1_AXIS
 62
2
  6
CENTER
 10
134.5661302808
 20
149.8589987024
 11
132.7261302808
 21
149.8589987024
  0
LINE
  8
1_AXIS
 62
2
  6
CENTER
 10
143.3661302808
 20
149.8589987024
 11
145.2061302808
 21
149.8589987024
  0
LINE
  8
0
 62
7
  6
CONTINUOUS
 10
142.6161302808
 20
151.0837435738
 11
142.8646984692
 21
151.1236833569
  0
POLYLINE
  8
0
 62
7
  6
CONTINUOUS
 66
1
 70
0
  0
VERTEX
  8
0
 62
7
  6
CONTINUOUS
 10
142.8646984692
 20
151.1236833569
  0
VERTEX
  8
0
 62
7
  6
CONTINUOUS
 10
143.0988395993
 20
151.1601842109
  0
VERTEX
  8
0
 62
7
  6
CONTINUOUS
 10
143.1161302808
 20
151.1628391835
  0
SEQEND
  0
LINE
  8
0
 62
7
  6
CONTINUOUS
 10
137.9940706118
 20
154.0989987024
 11
139.9381899497
 21
154.0989987024
  0
LINE
  8
0
 62
7
  6
CONTINUOUS
 10
167.5161063381
 20
141.3213882932
 11
167.5161683577
 21
141.3340364485
  0
POLYLINE
  8
0
 62
7
  6
CONTINUOUS
 66
1
 70
0
  0
VERTEX
  8
0
 62
7
  6
CONTINUOUS
 10
167.5099443053
 20
141.2246610777
  0
VERTEX
  8
0
 62
7
  6
CONTINUOUS
 10
167.5139945937
 20
141.2842895208
  0
VERTEX
  8
0
 62
7
  6
CONTINUOUS
 10
167.5161063381
 20
141.3213882932
  0
SEQEND
  0
LINE
  8
0
 62
7
  6
CONTINUOUS
 10
167.4969381828
 20
141.0508649822
 11
167.5099443053
 21
141.2246610777
  0
LINE
  8
0
 62
7
  6
CONTINUOUS
 10
167.4796630267
 20
140.8343740642
 11
167.4969381828
 21
141.0508649822
  0
ARC
  8
0
 62
7
  6
CONTINUOUS
 10
32.3727470804
 20
202.0306258474
 40
0.5
 50
180.0
 51
270.0
  0
ARC
  8
0
 62
7
  6
CONTINUOUS
 10
35.3227470804
 20
202.0306258474
 40
0.5
 50
270.0
 51
360.0
  0
ARC
  8
0
 62
7
  6
CONTINUOUS
 10
37.9727470804
 20
202.0306258474
 40
0.5
 50
270.0
 51
360.0
  0
ARC
  8
0
 62
7
  6
CONTINUOUS
 10
46.4727470804
 20
202.0306258474
 40
0.5
 50
180.0
 51
270.0
  0
ARC
  8
0
 62
7
  6
CONTINUOUS
 10
44.5227470804
 20
202.0306258474
 40
0.5
 50
180.0
 51
270.0
  0
ARC
  8
0
 62
7
  6
CONTINUOUS
 10
32.1727470804
 20
203.7306258474
 40
0.5
 50
180.0
 51
232.7573568362
  0
ARC
  8
0
 62
7
  6
CONTINUOUS
 10
38.9727470804
 20
207.1306258474
 40
0.5
 50
93.9490995476
 51
180.0
  0
ARC
  8
0
 62
7
  6
CONTINUOUS
 10
35.3227470804
 20
209.5306258474
 40
0.5
 50
0.0
 51
90.0
  0
ARC
  8
0
 62
7
  6
CONTINUOUS
 10
32.3727470804
 20
209.5306258474
 40
0.5
 50
90.0
 51
180.0
  0
ARC
  8
0
 62
7
  6
CONTINUOUS
 10
32.1727470804
 20
209.5306258474
 40
0.5
 50
90.0
 51
180.0
  0
ARC
  8
0
 62
7
  6
CONTINUOUS
 10
46.4727470804
 20
209.5306258474
 40
0.5
 50
90.0
 51
180.0
  0
ARC
  8
0
 62
7
  6
CONTINUOUS
 10
54.6727470804
 20
202.0306258474
 40
0.5
 50
270.0
 51
360.0
  0
ARC
  8
0
 62
7
  6
CONTINUOUS
 10
56.6227470804
 20
202.0306258474
 40
0.5
 50
270.0
 51
360.0
  0
ARC
  8
0
 62
7
  6
CONTINUOUS
 10
65.5727470804
 20
202.0306258474
 40
0.5
 50
180.0
 51
270.0
  0
ARC
  8
0
 62
7
  6
CONTINUOUS
 10
63.6227470804
 20
202.0306258474
 40
0.5
 50
180.0
 51
270.0
  0
ARC
  8
0
 62
7
  6
CONTINUOUS
 10
54.6727470804
 20
209.5306258474
 40
0.5
 50
0.0
 51
90.0
  0
ARC
  8
0
 62
7
  6
CONTINUOUS
 10
65.5727470804
 20
209.5306258474
 40
0.5
 50
90.0
 51
180.0
  0
ARC
  8
0
 62
7
  6
CONTINUOUS
 10
33.1857207329
 20
234.4306258474
 40
1.0
 50
90.0
 51
179.5
  0
ARC
  8
0
 62
7
  6
CONTINUOUS
 10
73.7727470804
 20
202.0306258474
 40
0.5
 50
270.0
 51
360.0
  0
ARC
  8
0
 62
7
  6
CONTINUOUS
 10
75.7227470804
 20
202.0306258474
 40
0.5
 50
270.0
 51
360.0
  0
ARC
  8
0
 62
7
  6
CONTINUOUS
 10
84.6727470804
 20
202.0306258474
 40
0.5
 50
180.0
 51
270.0
  0
ARC
  8
0
 62
7
  6
CONTINUOUS
 10
82.7227470804
 20
202.0306258474
 40
0.5
 50
180.0
 51
270.0
  0
ARC
  8
0
 62
7
  6
CONTINUOUS
 10
84.6727470804
 20
209.5306258474
 40
0.5
 50
90.0
 51
180.0
  0
ARC
  8
0
 62
7
  6
CONTINUOUS
 10
73.7727470804
 20
209.5306258474
 40
0.5
 50
0.0
 51
90.0
  0
ARC
  8
0
 62
7
  6
CONTINUOUS
 10
106.9727470804
 20
202.0306258474
 40
0.5
 50
270.0
 51
360.0
  0
ARC
  8
0
 62
7
  6
CONTINUOUS
 10
104.0227470804
 20
202.0306258474
 40
0.5
 50
180.0
 51
270.0
  0
ARC
  8
0
 62
7
  6
CONTINUOUS
 10
101.3727470804
 20
202.0306258474
 40
0.5
 50
180.0
 51
270.0
  0
ARC
  8
0
 62
7
  6
CONTINUOUS
 10
107.1727470804
 20
203.7306258474
 40
0.5
 50
307.2426432547
 51
360.0
  0
ARC
  8
0
 62
7
  6
CONTINUOUS
 10
92.8727470804
 20
202.0306258474
 40
0.5
 50
270.0
 51
360.0
  0
ARC
  8
0
 62
7
  6
CONTINUOUS
 10
94.8227470804
 20
202.0306258474
 40
0.5
 50
270.0
 51
360.0
  0
ARC
  8
0
 62
7
  6
CONTINUOUS
 10
92.8727470804
 20
209.5306258474
 40
0.5
 50
0.0
 51
90.0
  0
ARC
  8
0
 62
7
  6
CONTINUOUS
 10
100.3727470804
 20
207.1306258474
 40
0.5
 50
0.0
 51
86.0509004526
  0
ARC
  8
0
 62
7
  6
CONTINUOUS
 10
104.0227470804
 20
209.5306258474
 40
0.5
 50
90.0
 51
180.0
  0
ARC
  8
0
 62
7
  6
CONTINUOUS
 10
106.9727470804
 20
209.5306258474
 40
0.5
 50
0.0
 51
90.0
  0
ARC
  8
0
 62
7
  6
CONTINUOUS
 10
107.1727470804
 20
209.5306258474
 40
0.5
 50
0.0
 51
90.0
  0
ARC
  8
0
 62
7
  6
CONTINUOUS
 10
106.159773428
 20
234.4306258474
 40
1.0
 50
0.5
 51
90.0
  0
ARC
  8
0
 62
7
  6
CONTINUOUS
 10
32.3727470804
 20
127.0689987024
 40
0.5
 50
180.0
 51
270.0
  0
ARC
  8
0
 62
7
  6
CONTINUOUS
 10
35.3227470804
 20
127.0689987024
 40
0.5
 50
270.0
 51
360.0
  0
ARC
  8
0
 62
7
  6
CONTINUOUS
 10
46.4727470804
 20
127.0689987024
 40
0.5
 50
180.0
 51
270.0
  0
ARC
  8
0
 62
9
  6
CONTINUOUS
 10
31.3727470804
 20
134.5592785241
 40
0.999999971
 50
0.0
 51
36.8698976458
  0
ARC
  8
0
 62
7
  6
CONTINUOUS
 10
31.3727470804
 20
134.5592785241
 40
0.5
 50
0.0
 51
36.8698976458
  0
ARC
  8
0
 62
7
  6
CONTINUOUS
 10
36.3227464667
 20
133.9206296497
 40
0.4999996931
 50
89.9999296723
 51
180.0000703277
  0
ARC
  8
0
 62
7
  6
CONTINUOUS
 10
32.1727470804
 20
135.1592785241
 40
0.5
 50
180.0
 51
216.8698976458
  0
ARC
  8
0
 62
7
  6
CONTINUOUS
 10
45.4727470804
 20
133.920629036
 40
0.5
 50
0.0
 51
90.0
  0
ARC
  8
0
 62
9
  6
CONTINUOUS
 10
41.0227470804
 20
136.180741735
 40
3.0873988144
 50
64.5307256443
 51
115.4692743557
  0
ARC
  8
0
 62
7
  6
CONTINUOUS
 10
54.6727470804
 20
127.0689987024
 40
0.5
 50
270.0
 51
360.0
  0
ARC
  8
0
 62
7
  6
CONTINUOUS
 10
65.5727470804
 20
127.0689987024
 40
0.5
 50
180.0
 51
270.0
  0
ARC
  8
0
 62
7
  6
CONTINUOUS
 10
55.6727464667
 20
133.9206296497
 40
0.4999996931
 50
89.9999296723
 51
180.0000703277
  0
ARC
  8
0
 62
9
  6
CONTINUOUS
 10
50.5727470804
 20
136.180741735
 40
3.0873988144
 50
64.5307256443
 51
115.4692743557
  0
ARC
  8
0
 62
7
  6
CONTINUOUS
 10
64.5727470804
 20
133.920629036
 40
0.5
 50
0.0
 51
90.0
  0
ARC
  8
0
 62
9
  6
CONTINUOUS
 10
60.1227470804
 20
136.180741735
 40
3.0873988144
 50
64.5307256443
 51
115.4692743557
  0
ARC
  8
0
 62
7
  6
CONTINUOUS
 10
32.1727470804
 20
144.2258515167
 40
0.5
 50
146.3320887789
 51
180.0
  0
ARC
  8
0
 62
7
  6
CONTINUOUS
 10
31.3727470804
 20
144.8286675927
 40
0.5
 50
326.3320887789
 51
360.0
  0
ARC
  8
0
 62
7
  6
CONTINUOUS
 10
36.372747694
 20
146.7473677553
 40
0.4999996932
 50
269.999929696
 51
0.000070304
  0
ARC
  8
0
 62
7
  6
CONTINUOUS
 10
46.1227470804
 20
146.7473683688
 40
0.5
 50
180.0
 51
270.0
  0
ARC
  8
0
 62
7
  6
CONTINUOUS
 10
37.3727470804
 20
153.5989987024
 40
0.5
 50
90.0
 51
180.0
  0
ARC
  8
0
 62
7
  6
CONTINUOUS
 10
45.1227470804
 20
153.5989987024
 40
0.5
 50
0.0
 51
90.0
  0
ARC
  8
0
 62
7
  6
CONTINUOUS
 10
65.2227470804
 20
146.7473683688
 40
0.5
 50
180.0
 51
270.0
  0
ARC
  8
0
 62
7
  6
CONTINUOUS
 10
55.0227470804
 20
146.7473683688
 40
0.5
 50
270.0
 51
360.0
  0
ARC
  8
0
 62
7
  6
CONTINUOUS
 10
64.2227470804
 20
153.5989987024
 40
0.5
 50
0.0
 51
90.0
  0
ARC
  8
0
 62
7
  6
CONTINUOUS
 10
56.0227470804
 20
153.5989987024
 40
0.5
 50
90.0
 51
180.0
  0
ARC
  8
0
 62
7
  6
CONTINUOUS
 10
84.6727470804
 20
127.0689987024
 40
0.5
 50
180.0
 51
270.0
  0
ARC
  8
0
 62
7
  6
CONTINUOUS
 10
73.7727470804
 20
127.0689987024
 40
0.5
 50
270.0
 51
360.0
  0
ARC
  8
0
 62
7
  6
CONTINUOUS
 10
74.7727464667
 20
133.9206296497
 40
0.4999996931
 50
89.9999296723
 51
180.0000703277
  0
ARC
  8
0
 62
9
  6
CONTINUOUS
 10
69.6727470804
 20
136.180741735
 40
3.0873988144
 50
64.5307256443
 51
115.4692743557
  0
ARC
  8
0
 62
7
  6
CONTINUOUS
 10
83.6727470804
 20
133.920629036
 40
0.5
 50
0.0
 51
90.0
  0
ARC
  8
0
 62
9
  6
CONTINUOUS
 10
79.2227470804
 20
136.180741735
 40
3.0873988144
 50
64.5307256443
 51
115.4692743557
  0
ARC
  8
0
 62
9
  6
CONTINUOUS
 10
88.7727470804
 20
136.180741735
 40
3.0873988144
 50
64.5307256443
 51
115.4692743557
  0
ARC
  8
0
 62
7
  6
CONTINUOUS
 10
106.9727470804
 20
127.0689987024
 40
0.5
 50
270.0
 51
360.0
  0
ARC
  8
0
 62
7
  6
CONTINUOUS
 10
104.0227470804
 20
127.0689987024
 40
0.5
 50
180.0
 51
270.0
  0
ARC
  8
0
 62
7
  6
CONTINUOUS
 10
92.8727470804
 20
127.0689987024
 40
0.5
 50
270.0
 51
360.0
  0
ARC
  8
0
 62
7
  6
CONTINUOUS
 10
93.8727464667
 20
133.9206296497
 40
0.4999996931
 50
89.9999296723
 51
180.0000703277
  0
ARC
  8
0
 62
9
  6
CONTINUOUS
 10
98.3227470804
 20
136.180741735
 40
3.0873988144
 50
64.5307256443
 51
115.4692743557
  0
ARC
  8
0
 62
9
  6
CONTINUOUS
 10
107.9727470804
 20
134.5592785241
 40
0.999999971
 50
143.1301023542
 51
180.0
  0
ARC
  8
0
 62
7
  6
CONTINUOUS
 10
107.9727470804
 20
134.5592785241
 40
0.5
 50
143.1301023542
 51
180.0
  0
ARC
  8
0
 62
7
  6
CONTINUOUS
 10
103.0227470804
 20
133.920629036
 40
0.5
 50
0.0
 51
90.0
  0
ARC
  8
0
 62
7
  6
CONTINUOUS
 10
107.1727470804
 20
135.1592785241
 40
0.5
 50
323.1301023542
 51
360.0
  0
ARC
  8
0
 62
7
  6
CONTINUOUS
 10
84.3227470804
 20
146.7473683688
 40
0.5
 50
180.0
 51
270.0
  0
ARC
  8
0
 62
7
  6
CONTINUOUS
 10
74.1227470804
 20
146.7473683688
 40
0.5
 50
270.0
 51
360.0
  0
ARC
  8
0
 62
7
  6
CONTINUOUS
 10
75.1227470804
 20
153.5989987024
 40
0.5
 50
90.0
 51
180.0
  0
ARC
  8
0
 62
7
  6
CONTINUOUS
 10
83.3227470804
 20
153.5989987024
 40
0.5
 50
0.0
 51
90.0
  0
ARC
  8
0
 62
7
  6
CONTINUOUS
 10
93.2227470804
 20
146.7473683688
 40
0.5
 50
270.0
 51
360.0
  0
ARC
  8
0
 62
7
  6
CONTINUOUS
 10
107.1727470804
 20
144.2258515167
 40
0.5
 50
0.0
 51
33.6679112211
  0
ARC
  8
0
 62
7
  6
CONTINUOUS
 10
107.9727470804
 20
144.8286675927
 40
0.5
 50
180.0
 51
213.6679112211
  0
ARC
  8
0
 62
7
  6
CONTINUOUS
 10
102.9727470804
 20
146.7473683688
 40
0.5
 50
180.0
 51
270.0
  0
ARC
  8
0
 62
7
  6
CONTINUOUS
 10
94.2227470804
 20
153.5989987024
 40
0.5
 50
90.0
 51
180.0
  0
ARC
  8
0
 62
7
  6
CONTINUOUS
 10
101.9727470804
 20
153.5989987024
 40
0.5
 50
0.0
 51
90.0
  0
ARC
  8
0
 62
7
  6
CONTINUOUS
 10
138.9661302808
 20
130.8089987024
 40
4.35
 50
130.4482011909
 51
257.0875457171
  0
ARC
  8
0
 62
7
  6
CONTINUOUS
 10
138.9661302808
 20
130.8089987024
 40
4.35
 50
282.9124542829
 51
342.5584061437
  0
CIRCLE
  8
2_FEATURE
 62
7
  6
CONTINUOUS
 10
138.9661302808
 20
130.8089987024
 40
2.6
  0
ARC
  8
0
 62
7
  6
CONTINUOUS
 10
135.8261302808
 20
134.4922038284
 40
0.49
 50
310.4482011909
 51
360.0
  0
ARC
  8
0
 62
7
  6
CONTINUOUS
 10
145.1161302808
 20
136.9425482639
 40
2.0
 50
91.0
 51
180.0
  0
ARC
  8
0
 62
7
  6
CONTINUOUS
 10
136.8161302808
 20
144.6773853053
 40
0.5
 50
90.0
 51
180.0
  0
ARC
  8
0
 62
7
  6
CONTINUOUS
 10
138.9661302808
 20
149.8589987024
 40
4.998
 50
293.803024964
 51
311.59628875
  0
ARC
  8
0
 62
7
  6
CONTINUOUS
 10
138.9661302808
 20
149.8589987024
 40
4.35
 50
17.4415938563
 51
77.0875457171
  0
ARC
  8
0
 62
7
  6
CONTINUOUS
 10
138.9661302808
 20
149.8589987024
 40
4.35
 50
102.9124542829
 51
180.0
  0
ARC
  8
2_FEATURE
 62
7
  6
CONTINUOUS
 10
138.9661302808
 20
149.8589987024
 40
4.35
 50
178.7486193829
 51
179.7366063479
  0
ARC
  8
1_AXIS
 62
7
  6
CONTINUOUS
 10
138.9661302808
 20
149.8589987024
 40
4.35
 50
167.9921339638
 51
170.4913910924
  0
ARC
  8
2_FEATURE
 62
7
  6
CONTINUOUS
 10
138.9661302808
 20
149.8589987024
 40
4.35
 50
141.3964691506
 51
144.799304322
  0
CIRCLE
  8
0
 62
7
  6
CONTINUOUS
 10
138.9661302808
 20
149.8589987024
 40
2.6
  0
ARC
  8
0
 62
7
  6
CONTINUOUS
 10
143.6161302808
 20
145.5621578379
 40
0.5
 50
180.0
 51
261.1480960316
  0
ARC
  8
0
 62
7
  6
CONTINUOUS
 10
140.6232704067
 20
145.6773853053
 40
0.5
 50
270.0
 51
291.6180289573
  0
ARC
  8
0
 62
7
  6
CONTINUOUS
 10
142.6161302808
 20
145.7473683688
 40
0.5
 50
0.0
 51
131.59628875
  0
ARC
  8
0
 62
7
  6
CONTINUOUS
 10
143.6161302808
 20
149.2231078785
 40
0.4999996556
 50
179.999917402
 51
252.8709308618
  0
ARC
  8
0
 62
7
  6
CONTINUOUS
 10
167.5161302808
 20
140.3339987024
 40
1.0
 50
271.0
 51
89.5
  0
ENDSEC
  0
EOF
