  0
SECTION
  2
HEADER
  9
$EXTMAX
 10
210.0
 20
297.0
 30
0.0
  9
$EXTMIN
 10
0.0
 20
0.0
 30
0.0
  9
$LIMMIN
 10
0.0
 20
0.0
  9
$LIMMAX
 10
210.0
 20
297.0
  9
$VIEWCTR
 10
105.0
 20
148.5
  9
$VIEWSIZE
 40
297.0
  9
$CLAYER
  8
0
  9
$LTSCALE
 40
19.36
  9
$CELTYPE
  6
BYLAYER
  9
$DIMSCALE
 40
1.0
  9
$DIMASZ
 40
3.5
  9
$DIMEXO
 40
1.0
  9
$DIMDLI
 40
13.376
  9
$DIMEXE
 40
2.0
  9
$DIMCEN
 40
3.168
  9
$DIMLFAC
 40
1.0
  9
$DIMBLK
  1
_FILLED
  9
$DIMTXT
 40
3.5
  9
$PDMODE
 70
3
  9
$PDSIZE
 40
0.3125
  9
$TILEMODE
 70
1
  0
ENDSEC
  0
SECTION
  2
TABLES
  0
TABLE
  2
LTYPE
 70
6
  0
LTYPE
  2
BYBLOCK
 70
0
  3

 72
65
 73
0
 40
0.0
  0
LTYPE
  2
BYLAYER
 70
0
  3

 72
65
 73
0
 40
0.0
  0
LTYPE
  2
CONTINUOUS
 70
64
  3
Solid line
 72
65
 73
0
 40
0.0
  0
LTYPE
  2
CENTER
 70
64
  3
____ _ ____ _ ____ _ ____ _ ____ _ ____ _ ____
 72
65
 73
4
 40
0.6
 49
0.375
 49
-0.075
 49
0.075
 49
-0.075
  0
LTYPE
  2
HIDDEN
 70
64
  3
- - - - - - - - - - - - - - - - - - - -
 72
65
 73
2
 40
0.2
 49
0.1
 49
-0.1
  0
LTYPE
  2
PHANTOM
 70
64
  3
_____ _ _ _____ _ _ _____ _ _ _____
 72
65
 73
6
 40
0.8
 49
0.45
 49
-0.05
 49
0.1
 49
-0.05
 49
0.1
 49
-0.05
  0
LTYPE
  2
DOT
 70
64
  3
. . . . . . . . . . . . . . . . . . . .
 72
65
 73
2
 40
0.2
 49
0.1
 49
-0.1
  0
LTYPE
  2
DASHED
 70
64
  3
- - - - - - - - - - - - - - - - - - - -
 72
65
 73
2
 40
0.2
 49
0.1
 49
-0.1
  0
ENDTAB
  0
TABLE
  2
LAYER
 70
36
  0
LAYER
  2
0
 70
0
 62
7
  6
CONTINUOUS
  0
LAYER
  2
DEFAULT_1
 70
0
 62
7
  6
CENTER
  0
LAYER
  2
DEFAULT_2
 70
0
 62
8
  6
HIDDEN
  0
LAYER
  2
DEFAULT_3
 70
0
 62
7
  6
PHANTOM
  0
LAYER
  2
1_AXIS
 70
0
 62
7
  6
CONTINUOUS
  0
LAYER
  2
1_DATUMPLANE
 70
0
 62
7
  6
CONTINUOUS
  0
LAYER
  2
1_DATUM_PLANES
 70
0
 62
7
  6
CONTINUOUS
  0
LAYER
  2
2_FEATURE
 70
0
 62
7
  6
CONTINUOUS
  0
LAYER
  2
3_CURVE
 70
0
 62
7
  6
CONTINUOUS
  0
LAYER
  2
4_QUILT
 70
0
 62
7
  6
CONTINUOUS
  0
LAYER
  2
4_SURFACE
 70
0
 62
7
  6
CONTINUOUS
  0
LAYER
  2
6_DIM
 70
0
 62
7
  6
CONTINUOUS
  0
LAYER
  2
CSYS
 70
0
 62
7
  6
CONTINUOUS
  0
LAYER
  2
CURVE
 70
0
 62
7
  6
CONTINUOUS
  0
LAYER
  2
SURFACE
 70
0
 62
7
  6
CONTINUOUS
  0
ENDTAB
  0
TABLE
  2
STYLE
 70
1
  0
STYLE
  2
STANDARD
 70
0
 40
0.0
 41
0.8
 50
0.0
 71
0
 42
0.2
  3
txt
  4

  0
STYLE
  2
TEXTSTYLE_1
 70
0
 40
0.0
 41
0.8
 50
0.0
 71
0
 42
0.2
  3
gdt
  4

  0
STYLE
  2
TEXTSTYLE_2
 70
0
 40
0.0
 41
0.6
 50
0.0
 71
0
 42
0.2
  3
txt
  4

  0
STYLE
  2
TEXTSTYLE_3
 70
0
 40
0.0
 41
1.0
 50
0.0
 71
0
 42
0.2
  3
ftb_____.ttf
  4

  0
STYLE
  2
TEXTSTYLE_4
 70
0
 40
0.0
 41
1.0
 50
0.0
 71
0
 42
0.2
  3
fti_____.ttf
  4

  0
STYLE
  2
TEXTSTYLE_5
 70
0
 40
0.0
 41
1.0
 50
0.0
 71
0
 42
0.2
  3
frutiger light.ttf
  4

  0
STYLE
  2
TEXTSTYLE_6
 70
0
 40
0.0
 41
0.7
 50
0.0
 71
0
 42
0.2
  3
txt
  4

  0
STYLE
  2
TEXTSTYLE_7
 70
0
 40
0.0
 41
0.35
 50
0.0
 71
0
 42
0.2
  3
txt
  4

  0
ENDTAB
  0
ENDSEC
  0
SECTION
  2
BLOCKS
  0
BLOCK
  8
0
 62
2
  6
CONTINUOUS
  2
SYMBOL_8_BL1
 70
64
 10
173.5956734183
 20
35.5937998301
  0
TEXT
  8
0
 62
7
  6
CONTINUOUS
 10
164.6539584268
 20
30.6865562072
  7
TEXTSTYLE_4
 40
1.0655737705
  1
The brand for plastic modular belts and chains
 41
1.0
 72
0
  0
LINE
  8
0
 62
7
  6
CONTINUOUS
 10
149.5737418074
 20
36.1675703219
 11
149.5737418074
 21
34.0364227809
  0
LINE
  8
0
 62
7
  6
CONTINUOUS
 10
149.8628043005
 20
31.0454914852
 11
149.8628043005
 21
31.1422825445
  0
LINE
  8
0
 62
7
  6
CONTINUOUS
 10
149.5737418074
 20
31.1100188581
 11
149.6315543091
 21
30.9164367395
  0
LINE
  8
0
 62
7
  6
CONTINUOUS
 10
150.9671844304
 20
33.9544555678
 11
150.9671844304
 21
36.1675703219
  0
LINE
  8
0
 62
7
  6
CONTINUOUS
 10
151.8862417523
 20
32.1101932727
 11
151.8862417523
 21
30.5937998301
  0
LINE
  8
0
 62
7
  6
CONTINUOUS
 10
152.1753043074
 20
30.5937998301
 11
152.1753043074
 21
31.3358647082
  0
LINE
  8
0
 62
7
  6
CONTINUOUS
 10
152.1753043074
 20
31.4649194539
 11
152.1753043074
 21
32.1101932727
  0
LINE
  8
0
 62
7
  6
CONTINUOUS
 10
149.6315543091
 20
31.3036010218
 11
149.5737418074
 21
31.1100188581
  0
LINE
  8
0
 62
7
  6
CONTINUOUS
 10
149.9784292936
 20
30.8841730531
 11
149.8628043005
 21
31.0454914852
  0
LINE
  8
0
 62
7
  6
CONTINUOUS
 10
151.0768668626
 20
31.400392081
 11
151.1346793074
 21
31.3036010218
  0
LINE
  8
0
 62
7
  6
CONTINUOUS
 10
151.4237418626
 20
31.3036010218
 11
151.3659292523
 21
31.4326557675
  0
LINE
  8
0
 62
7
  6
CONTINUOUS
 10
152.852430332
 20
36.1675703219
 11
152.852430332
 21
34.3642916334
  0
LINE
  8
0
 62
7
  6
CONTINUOUS
 10
152.852430332
 20
33.0528162235
 11
152.852430332
 21
32.3970785186
  0
LINE
  8
0
 62
7
  6
CONTINUOUS
 10
153.2159293074
 20
31.2390736489
 11
153.2159293074
 21
30.5937998301
  0
LINE
  8
0
 62
7
  6
CONTINUOUS
 10
153.5049916972
 20
30.5937998301
 11
153.5049916972
 21
31.2390736489
  0
LINE
  8
0
 62
7
  6
CONTINUOUS
 10
149.8628043005
 20
31.1422825445
 11
149.9206168074
 21
31.2713373354
  0
LINE
  8
0
 62
7
  6
CONTINUOUS
 10
149.6315543091
 20
30.9164367395
 11
149.7471793074
 21
30.7873819712
  0
LINE
  8
0
 62
7
  6
CONTINUOUS
 10
153.1581166972
 20
31.3681283946
 11
153.2159293074
 21
31.2390736489
  0
LINE
  8
0
 62
7
  6
CONTINUOUS
 10
153.9674919177
 20
30.8841730531
 11
154.0253041972
 21
30.7551182848
  0
LINE
  8
0
 62
7
  6
CONTINUOUS
 10
153.5049916972
 20
31.2390736489
 11
153.4471794177
 21
31.400392081
  0
LINE
  8
0
 62
7
  6
CONTINUOUS
 10
153.9674919177
 20
31.4326557675
 11
153.9674919177
 21
31.3681283946
  0
LINE
  8
0
 62
7
  6
CONTINUOUS
 10
153.9674919177
 20
30.9809641124
 11
153.9674919177
 21
30.8841730531
  0
LINE
  8
0
 62
7
  6
CONTINUOUS
 10
154.245872955
 20
32.3970785186
 11
154.245872955
 21
36.1675703219
  0
LINE
  8
0
 62
7
  6
CONTINUOUS
 10
154.2565543074
 20
30.8519093441
 11
154.2565543074
 21
30.9164367395
  0
LINE
  8
0
 62
7
  6
CONTINUOUS
 10
154.5737418074
 20
36.1675703219
 11
154.5737418074
 21
32.3970785186
  0
LINE
  8
0
 62
7
  6
CONTINUOUS
 10
151.3659292523
 20
30.7873819712
 11
151.4237418626
 21
30.9164367395
  0
LINE
  8
0
 62
7
  6
CONTINUOUS
 10
155.759679528
 20
30.6905909007
 11
155.7018665869
 21
30.8519093441
  0
LINE
  8
0
 62
7
  6
CONTINUOUS
 10
155.412804528
 20
31.3681283946
 11
155.412804528
 21
31.2713373354
  0
LINE
  8
0
 62
7
  6
CONTINUOUS
 10
155.412804528
 20
31.1422825445
 11
155.412804528
 21
30.9487004259
  0
LINE
  8
0
 62
7
  6
CONTINUOUS
 10
155.7018665869
 20
30.8519093441
 11
155.7018665869
 21
31.3681283946
  0
LINE
  8
0
 62
7
  6
CONTINUOUS
 10
155.9671844304
 20
32.3970785186
 11
155.9671844304
 21
34.2003572071
  0
LINE
  8
0
 62
7
  6
CONTINUOUS
 10
155.9671844304
 20
35.511832617
 11
155.9671844304
 21
36.1675703219
  0
LINE
  8
0
 62
7
  6
CONTINUOUS
 10
156.279992028
 20
32.1101932727
 11
156.279992028
 21
31.9488748406
  0
LINE
  8
0
 62
7
  6
CONTINUOUS
 10
156.279992028
 20
31.626237886
 11
156.279992028
 21
30.5937998301
  0
LINE
  8
0
 62
7
  6
CONTINUOUS
 10
156.5690540869
 20
30.5937998301
 11
156.5690540869
 21
31.626237886
  0
LINE
  8
0
 62
7
  6
CONTINUOUS
 10
156.5690540869
 20
31.9488748406
 11
156.5690540869
 21
32.1101932727
  0
LINE
  8
0
 62
7
  6
CONTINUOUS
 10
151.1346793074
 20
30.9164367395
 11
151.0768668626
 21
30.8196456577
  0
LINE
  8
0
 62
7
  6
CONTINUOUS
 10
153.4471794177
 20
31.400392081
 11
153.3893668074
 21
31.4649194539
  0
LINE
  8
0
 62
7
  6
CONTINUOUS
 10
154.3143669177
 20
30.7873819712
 11
154.2565543074
 21
30.8519093441
  0
LINE
  8
0
 62
7
  6
CONTINUOUS
 10
155.4706168074
 20
30.6583272086
 11
155.5284290869
 21
30.5937998301
  0
LINE
  8
0
 62
7
  6
CONTINUOUS
 10
155.412804528
 20
30.7551182848
 11
155.4706168074
 21
30.6583272086
  0
LINE
  8
0
 62
7
  6
CONTINUOUS
 10
155.8174918074
 20
30.5937998301
 11
155.759679528
 21
30.6905909007
  0
LINE
  8
0
 62
7
  6
CONTINUOUS
 10
155.7018665869
 20
31.3681283946
 11
155.6440543074
 21
31.4649194539
  0
LINE
  8
0
 62
7
  6
CONTINUOUS
 10
157.0315543074
 20
31.626237886
 11
157.0315543074
 21
30.5937998301
  0
LINE
  8
0
 62
7
  6
CONTINUOUS
 10
157.320617028
 20
30.5937998301
 11
157.320617028
 21
31.3358647082
  0
LINE
  8
0
 62
7
  6
CONTINUOUS
 10
157.320617028
 20
31.4649194539
 11
157.320617028
 21
31.626237886
  0
LINE
  8
0
 62
7
  6
CONTINUOUS
 10
157.852430332
 20
34.6101932727
 11
157.852430332
 21
32.3970785186
  0
LINE
  8
0
 62
7
  6
CONTINUOUS
 10
149.7471793074
 20
31.4326557675
 11
149.6315543091
 21
31.3036010218
  0
LINE
  8
0
 62
7
  6
CONTINUOUS
 10
149.9206168074
 20
31.2713373354
 11
149.9784292936
 21
31.3358647082
  0
LINE
  8
0
 62
7
  6
CONTINUOUS
 10
149.7471793074
 20
30.7873819712
 11
149.8628043005
 21
30.7228545871
  0
LINE
  8
0
 62
7
  6
CONTINUOUS
 10
150.1518667936
 20
30.7873819712
 11
149.9784292936
 21
30.8841730531
  0
LINE
  8
0
 62
7
  6
CONTINUOUS
 10
155.3549915869
 20
31.4326557675
 11
155.412804528
 21
31.3681283946
  0
LINE
  8
0
 62
7
  6
CONTINUOUS
 10
158.3034290869
 20
31.3681283946
 11
158.361242028
 21
31.2068099625
  0
LINE
  8
0
 62
7
  6
CONTINUOUS
 10
158.6503040869
 20
31.2068099625
 11
158.5924918074
 21
31.3681283946
  0
LINE
  8
0
 62
7
  6
CONTINUOUS
 10
158.361242028
 20
31.2068099625
 11
158.361242028
 21
30.5937998301
  0
LINE
  8
0
 62
7
  6
CONTINUOUS
 10
158.6503040869
 20
30.5937998301
 11
158.6503040869
 21
31.2068099625
  0
LINE
  8
0
 62
7
  6
CONTINUOUS
 10
159.1128043074
 20
31.4326557675
 11
159.1128043074
 21
31.3681283946
  0
LINE
  8
0
 62
7
  6
CONTINUOUS
 10
159.245872955
 20
32.3970785186
 11
159.245872955
 21
34.5282260596
  0
LINE
  8
0
 62
7
  6
CONTINUOUS
 10
159.5737418074
 20
36.1675703219
 11
159.5737418074
 21
32.3970785186
  0
LINE
  8
0
 62
7
  6
CONTINUOUS
 10
154.2565543074
 20
30.9164367395
 11
154.3143669177
 21
31.0132277988
  0
LINE
  8
0
 62
7
  6
CONTINUOUS
 10
149.8628043005
 20
30.7228545871
 11
150.0362418212
 21
30.6583272086
  0
LINE
  8
0
 62
7
  6
CONTINUOUS
 10
151.3659292523
 20
31.4326557675
 11
151.1924917523
 21
31.5294468267
  0
LINE
  8
0
 62
7
  6
CONTINUOUS
 10
154.0253041972
 20
30.7551182848
 11
154.1987416972
 21
30.6583272086
  0
LINE
  8
0
 62
7
  6
CONTINUOUS
 10
153.0424918074
 20
31.4326557675
 11
153.1581166972
 21
31.3681283946
  0
LINE
  8
0
 62
7
  6
CONTINUOUS
 10
153.3893668074
 20
31.4649194539
 11
153.2737419177
 21
31.5294468267
  0
LINE
  8
0
 62
7
  6
CONTINUOUS
 10
159.1128043074
 20
30.8519093441
 11
159.228429528
 21
30.7228545871
  0
LINE
  8
0
 62
7
  6
CONTINUOUS
 10
159.4596793074
 20
30.7873819712
 11
159.401867028
 21
30.8519093441
  0
LINE
  8
0
 62
7
  6
CONTINUOUS
 10
159.1128043074
 20
31.3681283946
 11
159.228429528
 21
31.2390736489
  0
LINE
  8
0
 62
7
  6
CONTINUOUS
 10
158.5924918074
 20
31.3681283946
 11
158.534679528
 21
31.4649194539
  0
LINE
  8
0
 62
7
  6
CONTINUOUS
 10
160.9628038663
 20
30.7873819712
 11
160.9628038663
 21
30.8519093441
  0
LINE
  8
0
 62
7
  6
CONTINUOUS
 10
160.9671844304
 20
32.3970785186
 11
160.9671844304
 21
36.1675703219
  0
LINE
  8
0
 62
7
  6
CONTINUOUS
 10
154.0253041972
 20
31.4971831403
 11
153.9674919177
 21
31.4326557675
  0
LINE
  8
0
 62
7
  6
CONTINUOUS
 10
150.9034292799
 20
31.4649194539
 11
151.0768668626
 21
31.400392081
  0
LINE
  8
0
 62
7
  6
CONTINUOUS
 10
155.6440543074
 20
31.4649194539
 11
155.5284290869
 21
31.5294468267
  0
LINE
  8
0
 62
7
  6
CONTINUOUS
 10
159.4596793074
 20
31.3036010218
 11
159.401867028
 21
31.3681283946
  0
LINE
  8
0
 62
7
  6
CONTINUOUS
 10
160.615929528
 20
30.9164367395
 11
160.6737418074
 21
30.8519093441
  0
LINE
  8
0
 62
7
  6
CONTINUOUS
 10
160.9628038663
 20
30.8519093441
 11
160.8471793074
 21
30.9809641124
  0
LINE
  8
0
 62
7
  6
CONTINUOUS
 10
160.615929528
 20
31.4326557675
 11
160.6737418074
 21
31.3681283946
  0
LINE
  8
0
 62
7
  6
CONTINUOUS
 10
160.9628038663
 20
31.3681283946
 11
160.8471793074
 21
31.4971831403
  0
LINE
  8
0
 62
7
  6
CONTINUOUS
 10
154.2565543074
 20
31.3681283946
 11
154.3143669177
 21
31.4326557675
  0
LINE
  8
0
 62
7
  6
CONTINUOUS
 10
154.0831168074
 20
31.1100188581
 11
153.9674919177
 21
30.9809641124
  0
LINE
  8
0
 62
7
  6
CONTINUOUS
 10
155.412804528
 20
30.9487004259
 11
155.3549915869
 21
30.8841730531
  0
LINE
  8
0
 62
7
  6
CONTINUOUS
 10
155.3549915869
 20
30.6905909007
 11
155.412804528
 21
30.7551182848
  0
LINE
  8
0
 62
7
  6
CONTINUOUS
 10
154.1987416972
 20
30.6583272086
 11
154.3143669177
 21
30.6260635193
  0
LINE
  8
0
 62
7
  6
CONTINUOUS
 10
151.1924917523
 20
31.5294468267
 11
150.9612418074
 21
31.5939741996
  0
LINE
  8
0
 62
7
  6
CONTINUOUS
 10
154.5456166972
 20
30.7228545871
 11
154.3143669177
 21
30.7873819712
  0
LINE
  8
0
 62
7
  6
CONTINUOUS
 10
153.2737419177
 20
31.5294468267
 11
153.1003044177
 21
31.5939741996
  0
LINE
  8
0
 62
7
  6
CONTINUOUS
 10
155.5284290869
 20
31.5294468267
 11
155.3549915869
 21
31.5939741996
  0
LINE
  8
0
 62
7
  6
CONTINUOUS
 10
158.187804528
 20
31.4326557675
 11
158.3034290869
 21
31.3681283946
  0
LINE
  8
0
 62
7
  6
CONTINUOUS
 10
158.534679528
 20
31.4649194539
 11
158.4190543074
 21
31.5294468267
  0
LINE
  8
0
 62
7
  6
CONTINUOUS
 10
150.0362418212
 20
30.6583272086
 11
150.2096793212
 21
30.6260635193
  0
LINE
  8
0
 62
7
  6
CONTINUOUS
 10
150.498741835
 20
30.7228545871
 11
150.1518667936
 21
30.7873819712
  0
LINE
  8
0
 62
7
  6
CONTINUOUS
 10
152.9268669177
 20
31.4649194539
 11
153.0424918074
 21
31.4326557675
  0
LINE
  8
0
 62
7
  6
CONTINUOUS
 10
155.239367028
 20
31.4649194539
 11
155.3549915869
 21
31.4326557675
  0
LINE
  8
0
 62
7
  6
CONTINUOUS
 10
159.575304528
 20
30.7551182848
 11
159.4596793074
 21
30.7873819712
  0
LINE
  8
0
 62
7
  6
CONTINUOUS
 10
158.0721793074
 20
31.4649194539
 11
158.187804528
 21
31.4326557675
  0
LINE
  8
0
 62
7
  6
CONTINUOUS
 10
159.228429528
 20
30.7228545871
 11
159.401867028
 21
30.6583272086
  0
LINE
  8
0
 62
7
  6
CONTINUOUS
 10
158.4190543074
 20
31.5294468267
 11
158.2456168074
 21
31.5939741996
  0
LINE
  8
0
 62
7
  6
CONTINUOUS
 10
159.6331168074
 20
31.2390736489
 11
159.4596793074
 21
31.3036010218
  0
LINE
  8
0
 62
7
  6
CONTINUOUS
 10
160.442492028
 20
30.9809641124
 11
160.615929528
 21
30.9164367395
  0
LINE
  8
0
 62
7
  6
CONTINUOUS
 10
160.8471793074
 20
31.4971831403
 11
160.6737418074
 21
31.5617105132
  0
LINE
  8
0
 62
7
  6
CONTINUOUS
 10
159.228429528
 20
31.2390736489
 11
159.4596793074
 21
31.1422825445
  0
LINE
  8
0
 62
7
  6
CONTINUOUS
 10
160.8471793074
 20
30.9809641124
 11
160.615929528
 21
31.0777551716
  0
LINE
  8
0
 62
7
  6
CONTINUOUS
 10
159.401867028
 20
31.3681283946
 11
159.4596793074
 21
31.4326557675
  0
LINE
  8
0
 62
7
  6
CONTINUOUS
 10
149.8628043005
 20
31.4971831403
 11
149.7471793074
 21
31.4326557675
  0
LINE
  8
0
 62
7
  6
CONTINUOUS
 10
149.9784292936
 20
31.3358647082
 11
150.1518667936
 21
31.4326557675
  0
LINE
  8
0
 62
7
  6
CONTINUOUS
 10
152.2909293626
 20
31.5294468267
 11
152.1753043074
 21
31.4649194539
  0
LINE
  8
0
 62
7
  6
CONTINUOUS
 10
152.1753043074
 20
31.3358647082
 11
152.2909293626
 21
31.400392081
  0
LINE
  8
0
 62
7
  6
CONTINUOUS
 10
151.1924917523
 20
30.6905909007
 11
151.3659292523
 21
30.7873819712
  0
LINE
  8
0
 62
7
  6
CONTINUOUS
 10
150.2096793212
 20
30.6260635193
 11
150.5565542799
 21
30.5937998301
  0
LINE
  8
0
 62
7
  6
CONTINUOUS
 10
154.3143669177
 20
30.6260635193
 11
154.5456166972
 21
30.5937998301
  0
LINE
  8
0
 62
7
  6
CONTINUOUS
 10
152.6956168074
 20
31.4971831403
 11
152.9268669177
 21
31.4649194539
  0
LINE
  8
0
 62
7
  6
CONTINUOUS
 10
155.0081169177
 20
31.4971831403
 11
155.239367028
 21
31.4649194539
  0
LINE
  8
0
 62
7
  6
CONTINUOUS
 10
159.4596793074
 20
31.1422825445
 11
160.442492028
 21
30.9809641124
  0
LINE
  8
0
 62
7
  6
CONTINUOUS
 10
160.615929528
 20
31.0777551716
 11
159.6331168074
 21
31.2390736489
  0
LINE
  8
0
 62
7
  6
CONTINUOUS
 10
153.1003044177
 20
31.5939741996
 11
152.9268669177
 21
31.626237886
  0
LINE
  8
0
 62
7
  6
CONTINUOUS
 10
159.401867028
 20
30.6583272086
 11
159.575304528
 21
30.6260635193
  0
LINE
  8
0
 62
7
  6
CONTINUOUS
 10
158.2456168074
 20
31.5939741996
 11
158.0721793074
 21
31.626237886
  0
LINE
  8
0
 62
7
  6
CONTINUOUS
 10
160.5003043074
 20
31.4649194539
 11
160.615929528
 21
31.4326557675
  0
LINE
  8
0
 62
7
  6
CONTINUOUS
 10
160.6737418074
 20
30.8519093441
 11
160.615929528
 21
30.7873819712
  0
LINE
  8
0
 62
7
  6
CONTINUOUS
 10
159.228429528
 20
31.5294468267
 11
159.1128043074
 21
31.4326557675
  0
LINE
  8
0
 62
7
  6
CONTINUOUS
 10
154.1409294177
 20
31.5617105132
 11
154.0253041972
 21
31.4971831403
  0
LINE
  8
0
 62
7
  6
CONTINUOUS
 10
154.1987416972
 20
31.1745462761
 11
154.0831168074
 21
31.1100188581
  0
LINE
  8
0
 62
7
  6
CONTINUOUS
 10
154.3143669177
 20
31.0132277988
 11
154.4299918074
 21
31.0777551716
  0
LINE
  8
0
 62
7
  6
CONTINUOUS
 10
151.8862417523
 20
30.5937998301
 11
152.1753043074
 21
30.5937998301
  0
LINE
  8
0
 62
7
  6
CONTINUOUS
 10
153.2159293074
 20
30.5937998301
 11
153.5049916972
 21
30.5937998301
  0
LINE
  8
0
 62
7
  6
CONTINUOUS
 10
154.5456166972
 20
30.5937998301
 11
154.8924916972
 21
30.5937998301
  0
LINE
  8
0
 62
7
  6
CONTINUOUS
 10
155.5284290869
 20
30.5937998301
 11
155.8174918074
 21
30.5937998301
  0
LINE
  8
0
 62
7
  6
CONTINUOUS
 10
156.279992028
 20
30.5937998301
 11
156.5690540869
 21
30.5937998301
  0
LINE
  8
0
 62
7
  6
CONTINUOUS
 10
157.0315543074
 20
30.5937998301
 11
157.320617028
 21
30.5937998301
  0
LINE
  8
0
 62
7
  6
CONTINUOUS
 10
158.361242028
 20
30.5937998301
 11
158.6503040869
 21
30.5937998301
  0
LINE
  8
0
 62
7
  6
CONTINUOUS
 10
159.922179528
 20
30.5937998301
 11
160.269054528
 21
30.5937998301
  0
LINE
  8
0
 62
7
  6
CONTINUOUS
 10
160.269054528
 20
30.7228545871
 11
159.922179528
 21
30.7228545871
  0
LINE
  8
0
 62
7
  6
CONTINUOUS
 10
154.8924916972
 20
30.7228545871
 11
154.5456166972
 21
30.7228545871
  0
LINE
  8
0
 62
7
  6
CONTINUOUS
 10
159.401867028
 20
30.8519093441
 11
159.1128043074
 21
30.8519093441
  0
LINE
  8
0
 62
7
  6
CONTINUOUS
 10
151.4237418626
 20
30.9164367395
 11
151.1346793074
 21
30.9164367395
  0
LINE
  8
0
 62
7
  6
CONTINUOUS
 10
150.498741835
 20
31.4971831403
 11
150.9034292799
 21
31.4649194539
  0
LINE
  8
0
 62
7
  6
CONTINUOUS
 10
150.9612418074
 20
31.5939741996
 11
150.5565542799
 21
31.626237886
  0
LINE
  8
0
 62
7
  6
CONTINUOUS
 10
159.575304528
 20
30.6260635193
 11
159.922179528
 21
30.5937998301
  0
LINE
  8
0
 62
7
  6
CONTINUOUS
 10
159.922179528
 20
30.7228545871
 11
159.575304528
 21
30.7551182848
  0
LINE
  8
0
 62
7
  6
CONTINUOUS
 10
155.3549915869
 20
31.5939741996
 11
155.0081169177
 21
31.626237886
  0
LINE
  8
0
 62
7
  6
CONTINUOUS
 10
160.1534293074
 20
31.4971831403
 11
160.5003043074
 21
31.4649194539
  0
LINE
  8
0
 62
7
  6
CONTINUOUS
 10
160.5003043074
 20
31.5939741996
 11
160.1534293074
 21
31.626237886
  0
LINE
  8
0
 62
7
  6
CONTINUOUS
 10
157.840929528
 20
31.4971831403
 11
158.0721793074
 21
31.4649194539
  0
LINE
  8
0
 62
7
  6
CONTINUOUS
 10
160.6737418074
 20
31.5617105132
 11
160.5003043074
 21
31.5939741996
  0
LINE
  8
0
 62
7
  6
CONTINUOUS
 10
160.8471793074
 20
30.6905909007
 11
160.9628038663
 21
30.7873819712
  0
LINE
  8
0
 62
7
  6
CONTINUOUS
 10
155.3549915869
 20
30.8841730531
 11
155.1815540869
 21
30.7873819712
  0
LINE
  8
0
 62
7
  6
CONTINUOUS
 10
157.4362415869
 20
31.5294468267
 11
157.320617028
 21
31.4649194539
  0
LINE
  8
0
 62
7
  6
CONTINUOUS
 10
157.320617028
 20
31.3358647082
 11
157.4362415869
 21
31.400392081
  0
LINE
  8
0
 62
7
  6
CONTINUOUS
 10
150.0362418212
 20
31.5617105132
 11
149.8628043005
 21
31.4971831403
  0
LINE
  8
0
 62
7
  6
CONTINUOUS
 10
152.4643666972
 20
31.5939741996
 11
152.2909293626
 21
31.5294468267
  0
LINE
  8
0
 62
7
  6
CONTINUOUS
 10
152.2909293626
 20
31.400392081
 11
152.4643666972
 21
31.4649194539
  0
LINE
  8
0
 62
7
  6
CONTINUOUS
 10
151.0768668626
 20
30.8196456577
 11
150.9034292799
 21
30.7551182848
  0
LINE
  8
0
 62
7
  6
CONTINUOUS
 10
160.5003043074
 20
30.7551182848
 11
160.269054528
 21
30.7228545871
  0
LINE
  8
0
 62
7
  6
CONTINUOUS
 10
154.8924916972
 20
30.5937998301
 11
155.1815540869
 21
30.6260635193
  0
LINE
  8
0
 62
7
  6
CONTINUOUS
 10
160.269054528
 20
30.5937998301
 11
160.615929528
 21
30.6260635193
  0
LINE
  8
0
 62
7
  6
CONTINUOUS
 10
150.5565542799
 20
30.5937998301
 11
150.9612418074
 21
30.6260635193
  0
LINE
  8
0
 62
7
  6
CONTINUOUS
 10
150.9034292799
 20
30.7551182848
 11
150.498741835
 21
30.7228545871
  0
LINE
  8
0
 62
7
  6
CONTINUOUS
 10
154.7768668074
 20
31.1422825445
 11
155.412804528
 21
31.1422825445
  0
LINE
  8
0
 62
7
  6
CONTINUOUS
 10
155.412804528
 20
31.2713373354
 11
154.7768668074
 21
31.2713373354
  0
LINE
  8
0
 62
7
  6
CONTINUOUS
 10
151.1346793074
 20
31.3036010218
 11
151.4237418626
 21
31.3036010218
  0
LINE
  8
0
 62
7
  6
CONTINUOUS
 10
153.9674919177
 20
31.3681283946
 11
154.2565543074
 21
31.3681283946
  0
LINE
  8
0
 62
7
  6
CONTINUOUS
 10
160.6737418074
 20
31.3681283946
 11
160.9628038663
 21
31.3681283946
  0
LINE
  8
0
 62
7
  6
CONTINUOUS
 10
154.6612419177
 20
31.4971831403
 11
155.0081169177
 21
31.4971831403
  0
LINE
  8
0
 62
7
  6
CONTINUOUS
 10
159.8065543074
 20
31.4971831403
 11
160.1534293074
 21
31.4971831403
  0
LINE
  8
0
 62
7
  6
CONTINUOUS
 10
160.1534293074
 20
31.626237886
 11
159.8065543074
 21
31.626237886
  0
LINE
  8
0
 62
7
  6
CONTINUOUS
 10
158.0721793074
 20
31.626237886
 11
157.840929528
 21
31.626237886
  0
LINE
  8
0
 62
7
  6
CONTINUOUS
 10
157.320617028
 20
31.626237886
 11
157.0315543074
 21
31.626237886
  0
LINE
  8
0
 62
7
  6
CONTINUOUS
 10
156.5690540869
 20
31.626237886
 11
156.279992028
 21
31.626237886
  0
LINE
  8
0
 62
7
  6
CONTINUOUS
 10
155.0081169177
 20
31.626237886
 11
154.6612419177
 21
31.626237886
  0
LINE
  8
0
 62
7
  6
CONTINUOUS
 10
152.9268669177
 20
31.626237886
 11
152.6956168074
 21
31.626237886
  0
LINE
  8
0
 62
7
  6
CONTINUOUS
 10
156.279992028
 20
31.9488748406
 11
156.5690540869
 21
31.9488748406
  0
LINE
  8
0
 62
7
  6
CONTINUOUS
 10
156.5690540869
 20
32.1101932727
 11
156.279992028
 21
32.1101932727
  0
LINE
  8
0
 62
7
  6
CONTINUOUS
 10
152.1753043074
 20
32.1101932727
 11
151.8862417523
 21
32.1101932727
  0
LINE
  8
0
 62
7
  6
CONTINUOUS
 10
151.2130860697
 20
32.3970785186
 11
151.6256574183
 21
32.3970785186
  0
LINE
  8
0
 62
7
  6
CONTINUOUS
 10
152.852430332
 20
32.3970785186
 11
154.245872955
 21
32.3970785186
  0
LINE
  8
0
 62
7
  6
CONTINUOUS
 10
154.5737418074
 20
32.3970785186
 11
155.9671844304
 21
32.3970785186
  0
LINE
  8
0
 62
7
  6
CONTINUOUS
 10
157.852430332
 20
32.3970785186
 11
159.245872955
 21
32.3970785186
  0
LINE
  8
0
 62
7
  6
CONTINUOUS
 10
159.5737418074
 20
32.3970785186
 11
160.9671844304
 21
32.3970785186
  0
LINE
  8
0
 62
7
  6
CONTINUOUS
 10
157.6096790869
 20
31.5939741996
 11
157.4362415869
 21
31.5294468267
  0
LINE
  8
0
 62
7
  6
CONTINUOUS
 10
155.1815540869
 20
30.6260635193
 11
155.3549915869
 21
30.6905909007
  0
LINE
  8
0
 62
7
  6
CONTINUOUS
 10
160.615929528
 20
30.6260635193
 11
160.8471793074
 21
30.6905909007
  0
LINE
  8
0
 62
7
  6
CONTINUOUS
 10
160.615929528
 20
30.7873819712
 11
160.5003043074
 21
30.7551182848
  0
LINE
  8
0
 62
7
  6
CONTINUOUS
 10
159.575304528
 20
31.4649194539
 11
159.8065543074
 21
31.4971831403
  0
LINE
  8
0
 62
7
  6
CONTINUOUS
 10
157.6096790869
 20
31.4649194539
 11
157.840929528
 21
31.4971831403
  0
LINE
  8
0
 62
7
  6
CONTINUOUS
 10
154.5456166972
 20
31.1100188581
 11
154.7768668074
 21
31.1422825445
  0
LINE
  8
0
 62
7
  6
CONTINUOUS
 10
157.840929528
 20
31.626237886
 11
157.6096790869
 21
31.5939741996
  0
LINE
  8
0
 62
7
  6
CONTINUOUS
 10
154.4299918074
 20
31.4649194539
 11
154.6612419177
 21
31.4971831403
  0
LINE
  8
0
 62
7
  6
CONTINUOUS
 10
159.8065543074
 20
31.626237886
 11
159.4596793074
 21
31.5939741996
  0
LINE
  8
0
 62
7
  6
CONTINUOUS
 10
154.7768668074
 20
31.2713373354
 11
154.4299918074
 21
31.2390736489
  0
LINE
  8
0
 62
7
  6
CONTINUOUS
 10
150.5565542799
 20
31.626237886
 11
150.2096793212
 21
31.5939741996
  0
LINE
  8
0
 62
7
  6
CONTINUOUS
 10
154.6612419177
 20
31.626237886
 11
154.2565543074
 21
31.5939741996
  0
LINE
  8
0
 62
7
  6
CONTINUOUS
 10
152.0327582009
 20
33.5446195022
 11
151.3770204959
 21
33.5446195022
  0
LINE
  8
0
 62
7
  6
CONTINUOUS
 10
157.4362415869
 20
31.400392081
 11
157.6096790869
 21
31.4649194539
  0
LINE
  8
0
 62
7
  6
CONTINUOUS
 10
159.4596793074
 20
31.4326557675
 11
159.575304528
 21
31.4649194539
  0
LINE
  8
0
 62
7
  6
CONTINUOUS
 10
159.4596793074
 20
31.5939741996
 11
159.228429528
 21
31.5294468267
  0
LINE
  8
0
 62
7
  6
CONTINUOUS
 10
155.1815540869
 20
30.7873819712
 11
154.8924916972
 21
30.7228545871
  0
LINE
  8
0
 62
7
  6
CONTINUOUS
 10
152.4643666972
 20
31.4649194539
 11
152.6956168074
 21
31.4971831403
  0
LINE
  8
0
 62
7
  6
CONTINUOUS
 10
152.6956168074
 20
31.626237886
 11
152.4643666972
 21
31.5939741996
  0
LINE
  8
0
 62
7
  6
CONTINUOUS
 10
150.2674918074
 20
31.4649194539
 11
150.498741835
 21
31.4971831403
  0
LINE
  8
0
 62
7
  6
CONTINUOUS
 10
156.7868565615
 20
35.0200293383
 11
157.4425942664
 21
35.0200293383
  0
LINE
  8
0
 62
7
  6
CONTINUOUS
 10
154.4299918074
 20
31.0777551716
 11
154.5456166972
 21
31.1100188581
  0
LINE
  8
0
 62
7
  6
CONTINUOUS
 10
154.4299918074
 20
31.2390736489
 11
154.1987416972
 21
31.1745462761
  0
LINE
  8
0
 62
7
  6
CONTINUOUS
 10
154.3143669177
 20
31.4326557675
 11
154.4299918074
 21
31.4649194539
  0
LINE
  8
0
 62
7
  6
CONTINUOUS
 10
150.9612418074
 20
30.6260635193
 11
151.1924917523
 21
30.6905909007
  0
LINE
  8
0
 62
7
  6
CONTINUOUS
 10
154.2565543074
 20
31.5939741996
 11
154.1409294177
 21
31.5617105132
  0
LINE
  8
0
 62
7
  6
CONTINUOUS
 10
150.2096793212
 20
31.5939741996
 11
150.0362418212
 21
31.5617105132
  0
LINE
  8
0
 62
7
  6
CONTINUOUS
 10
160.9671844304
 20
36.1675703219
 11
159.5737418074
 21
36.1675703219
  0
LINE
  8
0
 62
7
  6
CONTINUOUS
 10
157.6065286927
 20
36.1675703219
 11
157.1939573441
 21
36.1675703219
  0
LINE
  8
0
 62
7
  6
CONTINUOUS
 10
155.9671844304
 20
36.1675703219
 11
154.5737418074
 21
36.1675703219
  0
LINE
  8
0
 62
7
  6
CONTINUOUS
 10
154.245872955
 20
36.1675703219
 11
152.852430332
 21
36.1675703219
  0
LINE
  8
0
 62
7
  6
CONTINUOUS
 10
150.9671844304
 20
36.1675703219
 11
149.5737418074
 21
36.1675703219
  0
LINE
  8
0
 62
7
  6
CONTINUOUS
 10
150.1518667936
 20
31.4326557675
 11
150.2674918074
 21
31.4649194539
  0
CIRCLE
  8
0
 62
7
  6
CONTINUOUS
 10
160.2704631189
 20
38.5036358957
 40
2.0901639344
  0
ARC
  8
0
 62
7
  6
CONTINUOUS
 10
151.2130860697
 20
34.0364227809
 40
1.6393442623
 50
180.0
 51
270.0
  0
ARC
  8
0
 62
7
  6
CONTINUOUS
 10
157.6065286927
 20
34.5282260596
 40
1.6393442623
 50
0.0
 51
90.0
  0
ARC
  8
0
 62
7
  6
CONTINUOUS
 10
151.6256574183
 20
33.8724883547
 40
1.4754098361
 50
270.0
 51
326.2510114041
  0
ARC
  8
0
 62
7
  6
CONTINUOUS
 10
157.1939573441
 20
34.6921604858
 40
1.4754098361
 50
90.0
 51
146.2510114041
  0
ARC
  8
0
 62
7
  6
CONTINUOUS
 10
152.0327582009
 20
34.3642916334
 40
0.8196721311
 50
270.0
 51
360.0
  0
ARC
  8
0
 62
7
  6
CONTINUOUS
 10
156.7868565615
 20
34.2003572071
 40
0.8196721311
 50
90.0
 51
180.0
  0
ARC
  8
0
 62
7
  6
CONTINUOUS
 10
151.3770204959
 20
33.9544555678
 40
0.4098360656
 50
180.0
 51
270.0
  0
ARC
  8
0
 62
7
  6
CONTINUOUS
 10
157.4425942664
 20
34.6101932727
 40
0.4098360656
 50
0.0
 51
90.0
  0
SOLID
  8
0
 62
7
  6
CONTINUOUS
 10
156.279992028
 20
31.9488752009
 11
156.279992028
 21
32.1101936845
 12
156.5690540869
 22
31.9488752009
 13
156.5690540869
 23
32.1101936845
  0
SOLID
  8
0
 62
7
  6
CONTINUOUS
 10
150.5565542799
 20
31.6262382337
 11
150.9612418074
 21
31.5939740028
 12
150.2096793212
 22
31.5939740028
 13
150.2096793212
 23
31.5939740028
  0
SOLID
  8
0
 62
7
  6
CONTINUOUS
 10
150.0362418212
 20
31.5617111435
 11
150.2096793212
 21
31.5939740028
 12
150.9612418074
 22
31.5939740028
 13
150.9612418074
 23
31.5939740028
  0
SOLID
  8
0
 62
7
  6
CONTINUOUS
 10
150.9612418074
 20
31.5939740028
 11
151.1924917523
 21
31.5294468402
 12
150.0362418212
 22
31.5617111435
 13
150.0362418212
 23
31.5617111435
  0
SOLID
  8
0
 62
7
  6
CONTINUOUS
 10
149.8628043005
 20
31.49718259
 11
150.0362418212
 21
31.5617111435
 12
151.1924917523
 22
31.5294468402
 13
151.1924917523
 23
31.5294468402
  0
SOLID
  8
0
 62
7
  6
CONTINUOUS
 10
149.8628043005
 20
31.49718259
 11
151.1924917523
 21
31.5294468402
 12
150.498741835
 22
31.49718259
 13
150.498741835
 23
31.49718259
  0
SOLID
  8
0
 62
7
  6
CONTINUOUS
 10
150.498741835
 20
31.49718259
 11
151.1924917523
 21
31.5294468402
 12
150.9034292799
 22
31.4649197501
 13
150.9034292799
 23
31.4649197501
  0
SOLID
  8
0
 62
7
  6
CONTINUOUS
 10
151.1924917523
 20
31.5294468402
 11
151.3659292523
 21
31.4326554468
 12
150.9034292799
 22
31.4649197501
 13
150.9034292799
 23
31.4649197501
  0
SOLID
  8
0
 62
7
  6
CONTINUOUS
 10
151.0768668626
 20
31.4003926599
 11
150.9034292799
 21
31.4649197501
 12
151.3659292523
 22
31.4326554468
 13
151.3659292523
 23
31.4326554468
  0
SOLID
  8
0
 62
7
  6
CONTINUOUS
 10
151.0768668626
 20
31.4003926599
 11
151.3659292523
 21
31.4326554468
 12
151.1346793074
 22
31.3036013776
 13
151.1346793074
 23
31.3036013776
  0
SOLID
  8
0
 62
7
  6
CONTINUOUS
 10
151.3659292523
 20
31.4326554468
 11
151.4237418626
 21
31.3036013776
 12
151.1346793074
 22
31.3036013776
 13
151.1346793074
 23
31.3036013776
  0
SOLID
  8
0
 62
7
  6
CONTINUOUS
 10
152.4643666972
 20
31.5939739754
 11
152.6956168074
 21
31.6262382787
 12
152.9268669177
 22
31.6262382787
 13
152.9268669177
 23
31.6262382787
  0
SOLID
  8
0
 62
7
  6
CONTINUOUS
 10
152.9268669177
 20
31.6262382787
 11
153.1003044177
 21
31.5939739754
 12
152.4643666972
 22
31.5939739754
 13
152.4643666972
 23
31.5939739754
  0
SOLID
  8
0
 62
7
  6
CONTINUOUS
 10
152.2909293626
 20
31.5294468852
 11
152.4643666972
 21
31.5939739754
 12
153.1003044177
 22
31.5939739754
 13
153.1003044177
 23
31.5939739754
  0
SOLID
  8
0
 62
7
  6
CONTINUOUS
 10
153.1003044177
 20
31.5939739754
 11
153.2737419177
 21
31.5294468852
 12
152.2909293626
 22
31.5294468852
 13
152.2909293626
 23
31.5294468852
  0
SOLID
  8
0
 62
7
  6
CONTINUOUS
 10
153.2737419177
 20
31.5294468852
 11
152.6956168074
 21
31.4971825369
 12
152.2909293626
 22
31.5294468852
 13
152.2909293626
 23
31.5294468852
  0
SOLID
  8
0
 62
7
  6
CONTINUOUS
 10
152.1753043074
 20
31.4649197951
 11
152.2909293626
 21
31.5294468852
 12
152.6956168074
 22
31.4971825369
 13
152.6956168074
 23
31.4971825369
  0
SOLID
  8
0
 62
7
  6
CONTINUOUS
 10
152.6956168074
 20
31.4971825369
 11
152.4643666972
 21
31.4649197951
 12
152.1753043074
 22
31.4649197951
 13
152.1753043074
 23
31.4649197951
  0
SOLID
  8
0
 62
7
  6
CONTINUOUS
 10
152.6956168074
 20
31.4971825369
 11
153.2737419177
 21
31.5294468852
 12
152.9268669177
 22
31.4649197951
 13
152.9268669177
 23
31.4649197951
  0
SOLID
  8
0
 62
7
  6
CONTINUOUS
 10
153.2737419177
 20
31.5294468852
 11
153.3893668074
 21
31.4649197951
 12
152.9268669177
 22
31.4649197951
 13
152.9268669177
 23
31.4649197951
  0
SOLID
  8
0
 62
7
  6
CONTINUOUS
 10
153.0424918074
 20
31.4326554468
 11
152.9268669177
 21
31.4649197951
 12
153.3893668074
 22
31.4649197951
 13
153.3893668074
 23
31.4649197951
  0
SOLID
  8
0
 62
7
  6
CONTINUOUS
 10
153.3893668074
 20
31.4649197951
 11
153.4471794177
 21
31.4003927049
 12
153.0424918074
 22
31.4326554468
 13
153.0424918074
 23
31.4326554468
  0
SOLID
  8
0
 62
7
  6
CONTINUOUS
 10
153.1581166972
 20
31.3681283566
 11
153.0424918074
 21
31.4326554468
 12
153.4471794177
 22
31.4003927049
 13
153.4471794177
 23
31.4003927049
  0
SOLID
  8
0
 62
7
  6
CONTINUOUS
 10
153.1581166972
 20
31.3681283566
 11
153.4471794177
 21
31.4003927049
 12
153.2159293074
 22
31.2390742213
 13
153.2159293074
 23
31.2390742213
  0
SOLID
  8
0
 62
7
  6
CONTINUOUS
 10
153.4471794177
 20
31.4003927049
 11
153.5049916972
 21
31.2390742213
 12
153.2159293074
 22
31.2390742213
 13
153.2159293074
 23
31.2390742213
  0
SOLID
  8
0
 62
7
  6
CONTINUOUS
 10
152.4643666972
 20
31.4649197951
 11
152.2909293626
 21
31.4003927049
 12
152.1753043074
 22
31.4649197951
 13
152.1753043074
 23
31.4649197951
  0
SOLID
  8
0
 62
7
  6
CONTINUOUS
 10
152.2909293626
 20
31.4003927049
 11
152.1753043074
 21
31.3358640533
 12
152.1753043074
 22
31.4649197951
 13
152.1753043074
 23
31.4649197951
  0
SOLID
  8
0
 62
7
  6
CONTINUOUS
 10
152.1753043074
 20
31.3358640533
 11
151.8862417523
 21
30.5938002869
 12
152.1753043074
 22
31.4649197951
 13
152.1753043074
 23
31.4649197951
  0
SOLID
  8
0
 62
7
  6
CONTINUOUS
 10
152.1753043074
 20
31.4649197951
 11
151.8862417523
 21
30.5938002869
 12
152.1753043074
 22
32.1101937295
 13
152.1753043074
 23
32.1101937295
  0
SOLID
  8
0
 62
7
  6
CONTINUOUS
 10
151.8862417523
 20
30.5938002869
 11
151.8862417523
 21
32.1101937295
 12
152.1753043074
 22
32.1101937295
 13
152.1753043074
 23
32.1101937295
  0
SOLID
  8
0
 62
7
  6
CONTINUOUS
 10
152.1753043074
 20
31.3358640533
 11
152.1753043074
 21
30.5938002869
 12
151.8862417523
 22
30.5938002869
 13
151.8862417523
 23
30.5938002869
  0
SOLID
  8
0
 62
7
  6
CONTINUOUS
 10
153.2159293074
 20
30.5938002869
 11
153.2159293074
 21
31.2390742213
 12
153.5049916972
 22
31.2390742213
 13
153.5049916972
 23
31.2390742213
  0
SOLID
  8
0
 62
7
  6
CONTINUOUS
 10
153.5049916972
 20
31.2390742213
 11
153.5049916972
 21
30.5938002869
 12
153.2159293074
 22
30.5938002869
 13
153.2159293074
 23
30.5938002869
  0
SOLID
  8
0
 62
7
  6
CONTINUOUS
 10
154.2565543074
 20
31.5939738288
 11
154.6612419177
 21
31.6262385959
 12
155.0081169177
 22
31.6262385959
 13
155.0081169177
 23
31.6262385959
  0
SOLID
  8
0
 62
7
  6
CONTINUOUS
 10
155.0081169177
 20
31.6262385959
 11
155.3549915869
 21
31.5939738288
 12
154.2565543074
 22
31.5939738288
 13
154.2565543074
 23
31.5939738288
  0
SOLID
  8
0
 62
7
  6
CONTINUOUS
 10
154.1409294177
 20
31.5617111435
 11
154.2565543074
 21
31.5939738288
 12
155.3549915869
 22
31.5939738288
 13
155.3549915869
 23
31.5939738288
  0
SOLID
  8
0
 62
7
  6
CONTINUOUS
 10
155.3549915869
 20
31.5939738288
 11
155.5284290869
 21
31.5294468402
 12
154.1409294177
 22
31.5617111435
 13
154.1409294177
 23
31.5617111435
  0
SOLID
  8
0
 62
7
  6
CONTINUOUS
 10
154.0253041972
 20
31.4971826249
 11
154.1409294177
 21
31.5617111435
 12
155.5284290869
 22
31.5294468402
 13
155.5284290869
 23
31.5294468402
  0
SOLID
  8
0
 62
7
  6
CONTINUOUS
 10
154.0253041972
 20
31.4971826249
 11
155.5284290869
 21
31.5294468402
 12
154.6612419177
 22
31.4971826249
 13
154.6612419177
 23
31.4971826249
  0
SOLID
  8
0
 62
7
  6
CONTINUOUS
 10
154.6612419177
 20
31.4971826249
 11
155.5284290869
 21
31.5294468402
 12
155.0081169177
 22
31.4971826249
 13
155.0081169177
 23
31.4971826249
  0
SOLID
  8
0
 62
7
  6
CONTINUOUS
 10
155.0081169177
 20
31.4971826249
 11
155.5284290869
 21
31.5294468402
 12
155.239367028
 22
31.4649194065
 13
155.239367028
 23
31.4649194065
  0
SOLID
  8
0
 62
7
  6
CONTINUOUS
 10
155.5284290869
 20
31.5294468402
 11
155.6440543074
 21
31.4649194065
 12
155.239367028
 22
31.4649194065
 13
155.239367028
 23
31.4649194065
  0
SOLID
  8
0
 62
7
  6
CONTINUOUS
 10
153.9674919177
 20
31.4326554138
 11
154.0253041972
 21
31.4971826249
 12
154.6612419177
 22
31.4971826249
 13
154.6612419177
 23
31.4971826249
  0
SOLID
  8
0
 62
7
  6
CONTINUOUS
 10
155.3549915869
 20
31.4326554138
 11
155.239367028
 21
31.4649194065
 12
155.6440543074
 22
31.4649194065
 13
155.6440543074
 23
31.4649194065
  0
SOLID
  8
0
 62
7
  6
CONTINUOUS
 10
155.3549915869
 20
31.4326554138
 11
155.6440543074
 21
31.4649194065
 12
155.412804528
 22
31.3681282026
 13
155.412804528
 23
31.3681282026
  0
SOLID
  8
0
 62
7
  6
CONTINUOUS
 10
155.6440543074
 20
31.4649194065
 11
155.7018665869
 21
31.3681282026
 12
155.412804528
 22
31.3681282026
 13
155.412804528
 23
31.3681282026
  0
SOLID
  8
0
 62
7
  6
CONTINUOUS
 10
155.412804528
 20
31.2713369632
 11
155.412804528
 21
31.3681282026
 12
155.7018665869
 22
31.3681282026
 13
155.7018665869
 23
31.3681282026
  0
SOLID
  8
0
 62
7
  6
CONTINUOUS
 10
155.412804528
 20
31.2713369632
 11
155.7018665869
 21
31.3681282026
 12
155.412804528
 22
31.1422827828
 13
155.412804528
 23
31.1422827828
  0
SOLID
  8
0
 62
7
  6
CONTINUOUS
 10
155.412804528
 20
31.1422827828
 11
155.7018665869
 21
31.3681282026
 12
155.412804528
 22
30.9487004259
 13
155.412804528
 23
30.9487004259
  0
SOLID
  8
0
 62
7
  6
CONTINUOUS
 10
155.7018665869
 20
31.3681282026
 11
155.7018665869
 21
30.8519086025
 12
155.412804528
 22
30.9487004259
 13
155.412804528
 23
30.9487004259
  0
SOLID
  8
0
 62
7
  6
CONTINUOUS
 10
157.6096790869
 20
31.5939736268
 11
157.840929528
 21
31.6262383465
 12
158.0721793074
 22
31.6262383465
 13
158.0721793074
 23
31.6262383465
  0
SOLID
  8
0
 62
7
  6
CONTINUOUS
 10
158.0721793074
 20
31.6262383465
 11
158.2456168074
 21
31.5939736268
 12
157.6096790869
 22
31.5939736268
 13
157.6096790869
 23
31.5939736268
  0
SOLID
  8
0
 62
7
  6
CONTINUOUS
 10
157.4362415869
 20
31.5294472848
 11
157.6096790869
 21
31.5939736268
 12
158.2456168074
 22
31.5939736268
 13
158.2456168074
 23
31.5939736268
  0
SOLID
  8
0
 62
7
  6
CONTINUOUS
 10
158.2456168074
 20
31.5939736268
 11
158.4190543074
 21
31.5294472848
 12
157.4362415869
 22
31.5294472848
 13
157.4362415869
 23
31.5294472848
  0
SOLID
  8
0
 62
7
  6
CONTINUOUS
 10
158.4190543074
 20
31.5294472848
 11
157.840929528
 21
31.4971825369
 12
157.4362415869
 22
31.5294472848
 13
157.4362415869
 23
31.5294472848
  0
SOLID
  8
0
 62
7
  6
CONTINUOUS
 10
157.320617028
 20
31.4649199103
 11
157.4362415869
 21
31.5294472848
 12
157.840929528
 22
31.4971825369
 13
157.840929528
 23
31.4971825369
  0
SOLID
  8
0
 62
7
  6
CONTINUOUS
 10
157.840929528
 20
31.4971825369
 11
157.6096790869
 21
31.4649199103
 12
157.320617028
 22
31.4649199103
 13
157.320617028
 23
31.4649199103
  0
SOLID
  8
0
 62
7
  6
CONTINUOUS
 10
157.840929528
 20
31.4971825369
 11
158.4190543074
 21
31.5294472848
 12
158.0721793074
 22
31.4649199103
 13
158.0721793074
 23
31.4649199103
  0
SOLID
  8
0
 62
7
  6
CONTINUOUS
 10
158.4190543074
 20
31.5294472848
 11
158.534679528
 21
31.4649199103
 12
158.0721793074
 22
31.4649199103
 13
158.0721793074
 23
31.4649199103
  0
SOLID
  8
0
 62
7
  6
CONTINUOUS
 10
158.187804528
 20
31.4326554468
 11
158.0721793074
 21
31.4649199103
 12
158.534679528
 22
31.4649199103
 13
158.534679528
 23
31.4649199103
  0
SOLID
  8
0
 62
7
  6
CONTINUOUS
 10
158.187804528
 20
31.4326554468
 11
158.534679528
 21
31.4649199103
 12
158.3034290869
 22
31.3681288486
 13
158.3034290869
 23
31.3681288486
  0
SOLID
  8
0
 62
7
  6
CONTINUOUS
 10
158.534679528
 20
31.4649199103
 11
158.5924918074
 21
31.3681288486
 12
158.3034290869
 22
31.3681288486
 13
158.3034290869
 23
31.3681288486
  0
SOLID
  8
0
 62
7
  6
CONTINUOUS
 10
158.361242028
 20
31.2068093799
 11
158.3034290869
 21
31.3681288486
 12
158.5924918074
 22
31.3681288486
 13
158.5924918074
 23
31.3681288486
  0
SOLID
  8
0
 62
7
  6
CONTINUOUS
 10
158.5924918074
 20
31.3681288486
 11
158.6503040869
 21
31.2068093799
 12
158.361242028
 22
31.2068093799
 13
158.361242028
 23
31.2068093799
  0
SOLID
  8
0
 62
7
  6
CONTINUOUS
 10
157.6096790869
 20
31.4649199103
 11
157.4362415869
 21
31.4003926599
 12
157.320617028
 22
31.4649199103
 13
157.320617028
 23
31.4649199103
  0
SOLID
  8
0
 62
7
  6
CONTINUOUS
 10
157.4362415869
 20
31.4003926599
 11
157.320617028
 21
31.3358640533
 12
157.320617028
 22
31.4649199103
 13
157.320617028
 23
31.4649199103
  0
SOLID
  8
0
 62
7
  6
CONTINUOUS
 10
157.320617028
 20
31.3358640533
 11
157.0315543074
 21
30.5938003547
 12
157.320617028
 22
31.4649199103
 13
157.320617028
 23
31.4649199103
  0
SOLID
  8
0
 62
7
  6
CONTINUOUS
 10
157.320617028
 20
31.4649199103
 11
157.0315543074
 21
30.5938003547
 12
157.320617028
 22
31.6262383465
 13
157.320617028
 23
31.6262383465
  0
SOLID
  8
0
 62
7
  6
CONTINUOUS
 10
157.0315543074
 20
30.5938003547
 11
157.0315543074
 21
31.6262383465
 12
157.320617028
 22
31.6262383465
 13
157.320617028
 23
31.6262383465
  0
SOLID
  8
0
 62
7
  6
CONTINUOUS
 10
157.320617028
 20
31.3358640533
 11
157.320617028
 21
30.5938003547
 12
157.0315543074
 22
30.5938003547
 13
157.0315543074
 23
30.5938003547
  0
SOLID
  8
0
 62
7
  6
CONTINUOUS
 10
158.361242028
 20
30.5938003547
 11
158.361242028
 21
31.2068093799
 12
158.6503040869
 22
31.2068093799
 13
158.6503040869
 23
31.2068093799
  0
SOLID
  8
0
 62
7
  6
CONTINUOUS
 10
158.6503040869
 20
31.2068093799
 11
158.6503040869
 21
30.5938003547
 12
158.361242028
 22
30.5938003547
 13
158.361242028
 23
30.5938003547
  0
SOLID
  8
0
 62
7
  6
CONTINUOUS
 10
159.4596793074
 20
31.5939739474
 11
159.8065543074
 21
31.6262381969
 12
160.1534293074
 22
31.6262381969
 13
160.1534293074
 23
31.6262381969
  0
SOLID
  8
0
 62
7
  6
CONTINUOUS
 10
160.1534293074
 20
31.6262381969
 11
160.5003043074
 21
31.5939739474
 12
159.4596793074
 22
31.5939739474
 13
159.4596793074
 23
31.5939739474
  0
SOLID
  8
0
 62
7
  6
CONTINUOUS
 10
159.228429528
 20
31.5294468402
 11
159.4596793074
 21
31.5939739474
 12
160.5003043074
 22
31.5939739474
 13
160.5003043074
 23
31.5939739474
  0
SOLID
  8
0
 62
7
  6
CONTINUOUS
 10
159.228429528
 20
31.5294468402
 11
160.5003043074
 21
31.5939739304
 12
160.6737418074
 22
31.5617111435
 13
160.6737418074
 23
31.5617111435
  0
SOLID
  8
0
 62
7
  6
CONTINUOUS
 10
159.228429528
 20
31.5294468402
 11
160.6737418074
 21
31.5617111435
 12
159.8065543074
 22
31.4971825592
 13
159.8065543074
 23
31.4971825592
  0
SOLID
  8
0
 62
7
  6
CONTINUOUS
 10
159.8065543074
 20
31.4971825592
 11
160.6737418074
 21
31.5617111435
 12
160.1534293074
 22
31.4971825592
 13
160.1534293074
 23
31.4971825592
  0
SOLID
  8
0
 62
7
  6
CONTINUOUS
 10
160.6737418074
 20
31.5617111435
 11
160.8471793074
 21
31.4971825592
 12
160.1534293074
 22
31.4971825592
 13
160.1534293074
 23
31.4971825592
  0
SOLID
  8
0
 62
7
  6
CONTINUOUS
 10
160.5003043074
 20
31.4649197501
 11
160.1534293074
 21
31.4971825592
 12
160.8471793074
 22
31.4971825592
 13
160.8471793074
 23
31.4971825592
  0
SOLID
  8
0
 62
7
  6
CONTINUOUS
 10
159.1128043074
 20
31.4326555427
 11
159.228429528
 21
31.5294468402
 12
159.8065543074
 22
31.4971825592
 13
159.8065543074
 23
31.4971825592
  0
SOLID
  8
0
 62
7
  6
CONTINUOUS
 10
160.5003043074
 20
31.4649197501
 11
160.8471793074
 21
31.4971825592
 12
160.615929528
 22
31.4326555427
 13
160.615929528
 23
31.4326555427
  0
SOLID
  8
0
 62
7
  6
CONTINUOUS
 10
160.615929528
 20
31.4326555427
 11
160.8471793074
 21
31.4971825592
 12
160.6737418074
 22
31.3681283005
 13
160.6737418074
 23
31.3681283005
  0
SOLID
  8
0
 62
7
  6
CONTINUOUS
 10
160.8471793074
 20
31.4971825592
 11
160.9628038663
 21
31.3681283005
 12
160.6737418074
 22
31.3681283005
 13
160.6737418074
 23
31.3681283005
  0
SOLID
  8
0
 62
7
  6
CONTINUOUS
 10
150.2674918074
 20
31.4649197501
 11
149.7471793074
 21
31.4326554237
 12
150.498741835
 22
31.4971824493
 13
150.498741835
 23
31.4971824493
  0
SOLID
  8
0
 62
7
  6
CONTINUOUS
 10
149.7471793074
 20
31.4326554237
 11
149.8628043005
 21
31.4971824493
 12
150.498741835
 22
31.4971824493
 13
150.498741835
 23
31.4971824493
  0
SOLID
  8
0
 62
7
  6
CONTINUOUS
 10
150.2674918074
 20
31.4649197501
 11
150.1518667936
 21
31.4326554237
 12
149.7471793074
 22
31.4326554237
 13
149.7471793074
 23
31.4326554237
  0
SOLID
  8
0
 62
7
  6
CONTINUOUS
 10
149.6315543091
 20
31.3036012664
 11
149.7471793074
 21
31.4326554237
 12
150.1518667936
 22
31.4326554237
 13
150.1518667936
 23
31.4326554237
  0
SOLID
  8
0
 62
7
  6
CONTINUOUS
 10
153.9674919177
 20
31.4326554237
 11
154.6612419177
 21
31.4971825369
 12
154.4299918074
 22
31.4649197501
 13
154.4299918074
 23
31.4649197501
  0
SOLID
  8
0
 62
7
  6
CONTINUOUS
 10
154.4299918074
 20
31.4649197501
 11
154.3143669177
 21
31.4326554237
 12
153.9674919177
 22
31.4326554237
 13
153.9674919177
 23
31.4326554237
  0
SOLID
  8
0
 62
7
  6
CONTINUOUS
 10
153.9674919177
 20
31.3681283335
 11
153.9674919177
 21
31.4326554237
 12
154.3143669177
 22
31.4326554237
 13
154.3143669177
 23
31.4326554237
  0
SOLID
  8
0
 62
7
  6
CONTINUOUS
 10
154.3143669177
 20
31.4326554237
 11
154.2565543074
 21
31.3681283335
 12
153.9674919177
 22
31.3681283335
 13
153.9674919177
 23
31.3681283335
  0
SOLID
  8
0
 62
7
  6
CONTINUOUS
 10
159.1128043074
 20
31.4326555528
 11
159.8065543074
 21
31.4971825369
 12
159.575304528
 22
31.4649197501
 13
159.575304528
 23
31.4649197501
  0
SOLID
  8
0
 62
7
  6
CONTINUOUS
 10
159.575304528
 20
31.4649197501
 11
159.4596793074
 21
31.4326555528
 12
159.1128043074
 22
31.4326555528
 13
159.1128043074
 23
31.4326555528
  0
SOLID
  8
0
 62
7
  6
CONTINUOUS
 10
159.1128043074
 20
31.3681284626
 11
159.1128043074
 21
31.4326555528
 12
159.4596793074
 22
31.4326555528
 13
159.4596793074
 23
31.4326555528
  0
SOLID
  8
0
 62
7
  6
CONTINUOUS
 10
159.4596793074
 20
31.4326555528
 11
159.401867028
 21
31.3681284626
 12
159.1128043074
 22
31.3681284626
 13
159.1128043074
 23
31.3681284626
  0
SOLID
  8
0
 62
7
  6
CONTINUOUS
 10
159.228429528
 20
31.2390741763
 11
159.1128043074
 21
31.3681284626
 12
159.401867028
 22
31.3681284626
 13
159.401867028
 23
31.3681284626
  0
SOLID
  8
0
 62
7
  6
CONTINUOUS
 10
149.6315543091
 20
31.3036012664
 11
150.1518667936
 21
31.4326554468
 12
149.9784292936
 22
31.3358640533
 13
149.9784292936
 23
31.3358640533
  0
SOLID
  8
0
 62
7
  6
CONTINUOUS
 10
149.9784292936
 20
31.3358640533
 11
149.9206168074
 21
31.2713369632
 12
149.6315543091
 22
31.3036012664
 13
149.6315543091
 23
31.3036012664
  0
SOLID
  8
0
 62
7
  6
CONTINUOUS
 10
149.5737418074
 20
31.1100184796
 11
149.6315543091
 21
31.3036012664
 12
149.9206168074
 22
31.2713369632
 13
149.9206168074
 23
31.2713369632
  0
SOLID
  8
0
 62
7
  6
CONTINUOUS
 10
154.4299918074
 20
31.2390741763
 11
154.7768668074
 21
31.271336924
 12
155.412804528
 22
31.271336924
 13
155.412804528
 23
31.271336924
  0
SOLID
  8
0
 62
7
  6
CONTINUOUS
 10
154.4299918074
 20
31.2390741763
 11
155.412804528
 21
31.271336924
 12
154.1987416972
 22
31.1745462761
 13
154.1987416972
 23
31.1745462761
  0
SOLID
  8
0
 62
7
  6
CONTINUOUS
 10
154.1987416972
 20
31.1745462761
 11
155.412804528
 21
31.271336924
 12
154.7768668074
 22
31.1422827436
 13
154.7768668074
 23
31.1422827436
  0
SOLID
  8
0
 62
7
  6
CONTINUOUS
 10
155.412804528
 20
31.271336924
 11
155.412804528
 21
31.1422827436
 12
154.7768668074
 22
31.1422827436
 13
154.7768668074
 23
31.1422827436
  0
SOLID
  8
0
 62
7
  6
CONTINUOUS
 10
159.228429528
 20
31.2390745501
 11
159.401867028
 21
31.3681283566
 12
159.4596793074
 22
31.3036012664
 13
159.4596793074
 23
31.3036012664
  0
SOLID
  8
0
 62
7
  6
CONTINUOUS
 10
159.4596793074
 20
31.3036012664
 11
159.6331168074
 21
31.2390745501
 12
159.228429528
 22
31.2390745501
 13
159.228429528
 23
31.2390745501
  0
SOLID
  8
0
 62
7
  6
CONTINUOUS
 10
159.4596793074
 20
31.1422827828
 11
159.228429528
 21
31.2390745501
 12
159.6331168074
 22
31.2390745501
 13
159.6331168074
 23
31.2390745501
  0
SOLID
  8
0
 62
7
  6
CONTINUOUS
 10
159.6331168074
 20
31.2390745501
 11
160.615929528
 21
31.0777556927
 12
159.4596793074
 22
31.1422827828
 13
159.4596793074
 23
31.1422827828
  0
SOLID
  8
0
 62
7
  6
CONTINUOUS
 10
160.442492028
 20
30.9809646623
 11
159.4596793074
 21
31.1422827828
 12
160.615929528
 22
31.0777556927
 13
160.615929528
 23
31.0777556927
  0
SOLID
  8
0
 62
7
  6
CONTINUOUS
 10
160.615929528
 20
31.0777556927
 11
160.8471793074
 21
30.9809646623
 12
160.442492028
 22
30.9809646623
 13
160.442492028
 23
30.9809646623
  0
SOLID
  8
0
 62
7
  6
CONTINUOUS
 10
160.615929528
 20
30.9164372091
 11
160.442492028
 21
30.9809646623
 12
160.8471793074
 22
30.9809646623
 13
160.8471793074
 23
30.9809646623
  0
SOLID
  8
0
 62
7
  6
CONTINUOUS
 10
160.615929528
 20
30.9164372091
 11
160.8471793074
 21
30.9809646623
 12
160.6737418074
 22
30.8519089441
 13
160.6737418074
 23
30.8519089441
  0
SOLID
  8
0
 62
7
  6
CONTINUOUS
 10
160.8471793074
 20
30.9809646623
 11
160.9628038663
 21
30.8519089441
 12
160.6737418074
 22
30.8519089441
 13
160.6737418074
 23
30.8519089441
  0
SOLID
  8
0
 62
7
  6
CONTINUOUS
 10
160.615929528
 20
30.7873818593
 11
160.6737418074
 21
30.8519089441
 12
160.9628038663
 22
30.8519089441
 13
160.9628038663
 23
30.8519089441
  0
SOLID
  8
0
 62
7
  6
CONTINUOUS
 10
160.9628038663
 20
30.8519089441
 11
160.9628038663
 21
30.7873818593
 12
160.615929528
 22
30.7873818593
 13
160.615929528
 23
30.7873818593
  0
SOLID
  8
0
 62
7
  6
CONTINUOUS
 10
160.5003043074
 20
30.7551187255
 11
160.615929528
 21
30.7873818593
 12
160.9628038663
 22
30.7873818593
 13
160.9628038663
 23
30.7873818593
  0
SOLID
  8
0
 62
7
  6
CONTINUOUS
 10
160.5003043074
 20
30.7551187255
 11
160.9628038663
 21
30.7873818593
 12
160.269054528
 22
30.7228547745
 13
160.269054528
 23
30.7228547745
  0
SOLID
  8
0
 62
7
  6
CONTINUOUS
 10
160.9628038663
 20
30.7873818593
 11
160.8471793074
 21
30.6905916353
 12
160.269054528
 22
30.7228547745
 13
160.269054528
 23
30.7228547745
  0
SOLID
  8
0
 62
7
  6
CONTINUOUS
 10
160.8471793074
 20
30.6905916353
 11
159.401867028
 21
30.658327332
 12
160.269054528
 22
30.7228547745
 13
160.269054528
 23
30.7228547745
  0
SOLID
  8
0
 62
7
  6
CONTINUOUS
 10
160.269054528
 20
30.7228547745
 11
159.401867028
 21
30.658327332
 12
159.922179528
 22
30.7228547745
 13
159.922179528
 23
30.7228547745
  0
SOLID
  8
0
 62
7
  6
CONTINUOUS
 10
159.401867028
 20
30.658327332
 11
159.228429528
 21
30.7228547745
 12
159.922179528
 22
30.7228547745
 13
159.922179528
 23
30.7228547745
  0
SOLID
  8
0
 62
7
  6
CONTINUOUS
 10
159.401867028
 20
30.658327332
 11
160.8471793074
 21
30.6905916353
 12
159.575304528
 22
30.6260629858
 13
159.575304528
 23
30.6260629858
  0
SOLID
  8
0
 62
7
  6
CONTINUOUS
 10
160.8471793074
 20
30.6905916353
 11
160.615929528
 21
30.6260629858
 12
159.575304528
 22
30.6260629858
 13
159.575304528
 23
30.6260629858
  0
SOLID
  8
0
 62
7
  6
CONTINUOUS
 10
159.922179528
 20
30.5938006049
 11
159.575304528
 21
30.6260629858
 12
160.615929528
 22
30.6260629858
 13
160.615929528
 23
30.6260629858
  0
SOLID
  8
0
 62
7
  6
CONTINUOUS
 10
160.615929528
 20
30.6260629858
 11
160.269054528
 21
30.5938006049
 12
159.922179528
 22
30.5938006049
 13
159.922179528
 23
30.5938006049
  0
SOLID
  8
0
 62
7
  6
CONTINUOUS
 10
149.5737418074
 20
31.1100184796
 11
149.9206168074
 21
31.2713369632
 12
149.8628043005
 22
31.1422827828
 13
149.8628043005
 23
31.1422827828
  0
SOLID
  8
0
 62
7
  6
CONTINUOUS
 10
149.8628043005
 20
31.1422827828
 11
149.8628043005
 21
31.0454914852
 12
149.5737418074
 22
31.1100184796
 13
149.5737418074
 23
31.1100184796
  0
SOLID
  8
0
 62
7
  6
CONTINUOUS
 10
149.6315543091
 20
30.9164372091
 11
149.5737418074
 21
31.1100184796
 12
149.8628043005
 22
31.0454914852
 13
149.8628043005
 23
31.0454914852
  0
SOLID
  8
0
 62
7
  6
CONTINUOUS
 10
149.8628043005
 20
31.0454914852
 11
149.9784292936
 21
30.8841729058
 12
149.6315543091
 22
30.9164372091
 13
149.6315543091
 23
30.9164372091
  0
SOLID
  8
0
 62
7
  6
CONTINUOUS
 10
149.7471793074
 20
30.7873813202
 11
149.6315543091
 21
30.9164372091
 12
149.9784292936
 22
30.8841729058
 13
149.9784292936
 23
30.8841729058
  0
SOLID
  8
0
 62
7
  6
CONTINUOUS
 10
149.9784292936
 20
30.8841729058
 11
150.1518667936
 21
30.7873813202
 12
149.7471793074
 22
30.7873813202
 13
149.7471793074
 23
30.7873813202
  0
SOLID
  8
0
 62
7
  6
CONTINUOUS
 10
149.8628043005
 20
30.7228547004
 11
149.7471793074
 21
30.7873813202
 12
150.1518667936
 22
30.7873813202
 13
150.1518667936
 23
30.7873813202
  0
SOLID
  8
0
 62
7
  6
CONTINUOUS
 10
150.1518667936
 20
30.7873813202
 11
150.498741835
 21
30.7228547004
 12
149.8628043005
 22
30.7228547004
 13
149.8628043005
 23
30.7228547004
  0
SOLID
  8
0
 62
7
  6
CONTINUOUS
 10
150.0362418212
 20
30.658327332
 11
149.8628043005
 21
30.7228547004
 12
150.498741835
 22
30.7228547004
 13
150.498741835
 23
30.7228547004
  0
SOLID
  8
0
 62
7
  6
CONTINUOUS
 10
154.0831168074
 20
31.1100184386
 11
154.1987416972
 21
31.1745462761
 12
154.7768668074
 22
31.1422827828
 13
154.7768668074
 23
31.1422827828
  0
SOLID
  8
0
 62
7
  6
CONTINUOUS
 10
154.7768668074
 20
31.1422827828
 11
154.5456166972
 21
31.1100184386
 12
154.0831168074
 22
31.1100184386
 13
154.0831168074
 23
31.1100184386
  0
SOLID
  8
0
 62
7
  6
CONTINUOUS
 10
153.9674919177
 20
30.9809642992
 11
154.0831168074
 21
31.1100184386
 12
154.5456166972
 22
31.1100184386
 13
154.5456166972
 23
31.1100184386
  0
SOLID
  8
0
 62
7
  6
CONTINUOUS
 10
154.3143669177
 20
31.0132277988
 11
153.9674919177
 21
30.9809642992
 12
154.4299918074
 22
31.0777556927
 13
154.4299918074
 23
31.0777556927
  0
SOLID
  8
0
 62
7
  6
CONTINUOUS
 10
153.9674919177
 20
30.9809642992
 11
154.5456166972
 21
31.1100184796
 12
154.4299918074
 22
31.0777556927
 13
154.4299918074
 23
31.0777556927
  0
SOLID
  8
0
 62
7
  6
CONTINUOUS
 10
154.3143669177
 20
31.0132277988
 11
154.2565543074
 21
30.9164372091
 12
153.9674919177
 22
30.9809642992
 13
153.9674919177
 23
30.9809642992
  0
SOLID
  8
0
 62
7
  6
CONTINUOUS
 10
153.9674919177
 20
30.8841729058
 11
153.9674919177
 21
30.9809642992
 12
154.2565543074
 22
30.9164372091
 13
154.2565543074
 23
30.9164372091
  0
SOLID
  8
0
 62
7
  6
CONTINUOUS
 10
154.2565543074
 20
30.9164372091
 11
154.2565543074
 21
30.8519086025
 12
153.9674919177
 22
30.8841729058
 13
153.9674919177
 23
30.8841729058
  0
SOLID
  8
0
 62
7
  6
CONTINUOUS
 10
154.0253041972
 20
30.7551187255
 11
153.9674919177
 21
30.8841729058
 12
154.2565543074
 22
30.8519086025
 13
154.2565543074
 23
30.8519086025
  0
SOLID
  8
0
 62
7
  6
CONTINUOUS
 10
155.412804528
 20
30.9487004259
 11
155.7018665869
 21
30.8519086025
 12
155.3549915869
 22
30.8841729058
 13
155.3549915869
 23
30.8841729058
  0
SOLID
  8
0
 62
7
  6
CONTINUOUS
 10
155.1815540869
 20
30.7873815123
 11
155.3549915869
 21
30.8841729058
 12
155.7018665869
 22
30.8519086025
 13
155.7018665869
 23
30.8519086025
  0
SOLID
  8
0
 62
7
  6
CONTINUOUS
 10
155.1815540869
 20
30.7873815123
 11
155.7018665869
 21
30.8519086025
 12
155.412804528
 22
30.7551187255
 13
155.412804528
 23
30.7551187255
  0
SOLID
  8
0
 62
7
  6
CONTINUOUS
 10
155.7018665869
 20
30.8519086025
 11
155.759679528
 21
30.6905916353
 12
155.412804528
 22
30.7551187255
 13
155.412804528
 23
30.7551187255
  0
SOLID
  8
0
 62
7
  6
CONTINUOUS
 10
155.4706168074
 20
30.658327332
 11
155.412804528
 21
30.7551187255
 12
155.759679528
 22
30.6905916353
 13
155.759679528
 23
30.6905916353
  0
SOLID
  8
0
 62
7
  6
CONTINUOUS
 10
155.4706168074
 20
30.658327332
 11
155.759679528
 21
30.6905916353
 12
155.5284290869
 22
30.5938002079
 13
155.5284290869
 23
30.5938002079
  0
SOLID
  8
0
 62
7
  6
CONTINUOUS
 10
155.759679528
 20
30.6905916353
 11
155.8174918074
 21
30.5938002079
 12
155.5284290869
 22
30.5938002079
 13
155.5284290869
 23
30.5938002079
  0
SOLID
  8
0
 62
7
  6
CONTINUOUS
 10
151.0768668626
 20
30.8196456577
 11
151.1346793074
 21
30.9164373395
 12
151.4237418626
 22
30.9164373395
 13
151.4237418626
 23
30.9164373395
  0
SOLID
  8
0
 62
7
  6
CONTINUOUS
 10
151.4237418626
 20
30.9164373395
 11
151.3659292523
 21
30.7873815123
 12
151.0768668626
 22
30.8196456577
 13
151.0768668626
 23
30.8196456577
  0
SOLID
  8
0
 62
7
  6
CONTINUOUS
 10
150.9034292799
 20
30.7551187255
 11
151.0768668626
 21
30.8196456577
 12
151.3659292523
 22
30.7873815123
 13
151.3659292523
 23
30.7873815123
  0
SOLID
  8
0
 62
7
  6
CONTINUOUS
 10
150.9034292799
 20
30.7551187255
 11
151.3659292523
 21
30.7873815123
 12
150.498741835
 22
30.7228544222
 13
150.498741835
 23
30.7228544222
  0
SOLID
  8
0
 62
7
  6
CONTINUOUS
 10
151.3659292523
 20
30.7873815123
 11
151.1924917523
 21
30.6905916353
 12
150.498741835
 22
30.7228544222
 13
150.498741835
 23
30.7228544222
  0
SOLID
  8
0
 62
7
  6
CONTINUOUS
 10
150.0362418212
 20
30.658327332
 11
150.498741835
 21
30.7228544222
 12
151.1924917523
 22
30.6905916353
 13
151.1924917523
 23
30.6905916353
  0
SOLID
  8
0
 62
7
  6
CONTINUOUS
 10
150.0362418212
 20
30.658327332
 11
151.1924917523
 21
30.6905916353
 12
150.2096793212
 22
30.6260631011
 13
150.2096793212
 23
30.6260631011
  0
SOLID
  8
0
 62
7
  6
CONTINUOUS
 10
151.1924917523
 20
30.6905916353
 11
150.9612418074
 21
30.6260631011
 12
150.2096793212
 22
30.6260631011
 13
150.2096793212
 23
30.6260631011
  0
SOLID
  8
0
 62
7
  6
CONTINUOUS
 10
150.5565542799
 20
30.5938002419
 11
150.2096793212
 21
30.6260631011
 12
150.9612418074
 22
30.6260631011
 13
150.9612418074
 23
30.6260631011
  0
SOLID
  8
0
 62
7
  6
CONTINUOUS
 10
154.0253041972
 20
30.7551187255
 11
154.2565543074
 21
30.8519086025
 12
154.3143669177
 22
30.7873815123
 13
154.3143669177
 23
30.7873815123
  0
SOLID
  8
0
 62
7
  6
CONTINUOUS
 10
154.3143669177
 20
30.7873815123
 11
154.5456166972
 21
30.7228544222
 12
154.0253041972
 22
30.7551187255
 13
154.0253041972
 23
30.7551187255
  0
SOLID
  8
0
 62
7
  6
CONTINUOUS
 10
154.1987416972
 20
30.658327332
 11
154.0253041972
 21
30.7551187255
 12
154.5456166972
 22
30.7228544222
 13
154.5456166972
 23
30.7228544222
  0
SOLID
  8
0
 62
7
  6
CONTINUOUS
 10
154.8924916972
 20
30.7228544637
 11
155.1815540869
 21
30.7873815123
 12
155.412804528
 22
30.7551187255
 13
155.412804528
 23
30.7551187255
  0
SOLID
  8
0
 62
7
  6
CONTINUOUS
 10
155.412804528
 20
30.7551187255
 11
155.3549915869
 21
30.6905916353
 12
154.8924916972
 22
30.7228544637
 13
154.8924916972
 23
30.7228544637
  0
SOLID
  8
0
 62
7
  6
CONTINUOUS
 10
155.3549915869
 20
30.6905916353
 11
154.1987416972
 21
30.658327332
 12
154.8924916972
 22
30.7228544637
 13
154.8924916972
 23
30.7228544637
  0
SOLID
  8
0
 62
7
  6
CONTINUOUS
 10
154.1987416972
 20
30.658327332
 11
154.5456166972
 21
30.7228544637
 12
154.8924916972
 22
30.7228544637
 13
154.8924916972
 23
30.7228544637
  0
SOLID
  8
0
 62
7
  6
CONTINUOUS
 10
154.1987416972
 20
30.658327332
 11
155.3549915869
 21
30.6905916353
 12
154.3143669177
 22
30.6260630541
 13
154.3143669177
 23
30.6260630541
  0
SOLID
  8
0
 62
7
  6
CONTINUOUS
 10
155.3549915869
 20
30.6905916353
 11
155.1815540869
 21
30.6260630541
 12
154.3143669177
 22
30.6260630541
 13
154.3143669177
 23
30.6260630541
  0
SOLID
  8
0
 62
7
  6
CONTINUOUS
 10
154.5456166972
 20
30.5938002188
 11
154.3143669177
 21
30.6260630541
 12
155.1815540869
 22
30.6260630541
 13
155.1815540869
 23
30.6260630541
  0
SOLID
  8
0
 62
7
  6
CONTINUOUS
 10
155.1815540869
 20
30.6260630541
 11
154.8924916972
 21
30.5938002188
 12
154.5456166972
 22
30.5938002188
 13
154.5456166972
 23
30.5938002188
  0
SOLID
  8
0
 62
7
  6
CONTINUOUS
 10
159.575304528
 20
30.7551187255
 11
159.228429528
 21
30.7228544637
 12
159.4596793074
 22
30.7873815123
 13
159.4596793074
 23
30.7873815123
  0
SOLID
  8
0
 62
7
  6
CONTINUOUS
 10
159.4596793074
 20
30.7873815123
 11
159.228429528
 21
30.7228544637
 12
159.401867028
 22
30.851908644
 13
159.401867028
 23
30.851908644
  0
SOLID
  8
0
 62
7
  6
CONTINUOUS
 10
159.228429528
 20
30.7228544637
 11
159.1128043074
 21
30.851908644
 12
159.401867028
 22
30.851908644
 13
159.401867028
 23
30.851908644
  0
SOLID
  8
0
 62
7
  6
CONTINUOUS
 10
159.575304528
 20
30.7551187255
 11
159.922179528
 21
30.7228544637
 12
159.228429528
 22
30.7228544637
 13
159.228429528
 23
30.7228544637
  0
SOLID
  8
0
 62
7
  6
CONTINUOUS
 10
156.279992028
 20
30.5938002419
 11
156.279992028
 21
31.6262382337
 12
156.5690540869
 22
30.5938002419
 13
156.5690540869
 23
31.6262382337
  0
ENDBLK
  8
0
  6
BYBLOCK
 62
0
  0
BLOCK
  8
0
 62
2
  6
CONTINUOUS
  2
SYMBOL_3_BL0
 70
64
 10
32.1213064866
 20
19.8534310916
  0
TEXT
  8
0
 62
7
  6
CONTINUOUS
 10
18.3860103289
 20
19.2268451992
  7
TEXTSTYLE_3
 40
2.7338706658
  1
Ammeraal Beltech
 41
1.0
 51
15.0
 72
0
  0
TEXT
  8
0
 62
7
  6
CONTINUOUS
 10
29.1868111546
 20
16.9533085264
  7
TEXTSTYLE_4
 40
1.0935482663
  1
Innovation & Service in Belting
 41
1.0
 72
0
  0
LINE
  8
0
 62
7
  6
CONTINUOUS
 10
12.3614696776
 20
19.9934385078
 11
13.1396216709
 21
23.6543558055
  0
LINE
  8
0
 62
7
  6
CONTINUOUS
 10
23.2347899607
 20
27.3177497171
 11
13.6274394139
 21
24.1961322958
  0
LINE
  8
0
 62
7
  6
CONTINUOUS
 10
12.5867530099
 20
19.3000877048
 11
20.093828271
 21
12.5406867788
  0
LINE
  8
0
 62
7
  6
CONTINUOUS
 10
12.8492874206
 20
20.5352149982
 11
23.6575567857
 21
24.0470345971
  0
LINE
  8
0
 62
7
  6
CONTINUOUS
 10
23.6533516486
 20
13.6972460334
 11
15.2078919798
 21
21.3015720751
  0
LINE
  8
0
 62
7
  6
CONTINUOUS
 10
24.1731743684
 20
26.4728246013
 11
23.1966148312
 21
21.8784731989
  0
LINE
  8
0
 62
7
  6
CONTINUOUS
 10
22.4968128835
 20
18.5861638851
 11
21.810364672
 21
15.3566789607
  0
LINE
  8
0
 62
7
  6
CONTINUOUS
 10
24.8542704669
 20
14.087448211
 11
25.8105020025
 21
18.5861638851
  0
LINE
  8
0
 62
7
  6
CONTINUOUS
 10
26.5103039502
 20
21.8784731989
 11
26.9545457526
 21
23.9684665583
  0
LINE
  8
0
 62
7
  6
CONTINUOUS
 10
20.8069293463
 20
12.3891124661
 11
24.3664527239
 21
13.5456717207
  0
LINE
  8
0
 62
7
  6
CONTINUOUS
 10
23.9478910361
 20
27.1661754044
 11
26.7292624203
 21
24.6618173613
  0
ARC
  8
0
 62
7
  6
CONTINUOUS
 10
13.8527227462
 20
23.5027814928
 40
0.7290321776
 50
108.0
 51
168.0
  0
ARC
  8
0
 62
7
  6
CONTINUOUS
 10
23.4600732931
 20
26.624398914
 40
0.7290321776
 50
348.0
 51
108.0
  0
ARC
  8
0
 62
7
  6
CONTINUOUS
 10
26.2414446773
 20
24.120040871
 40
0.7290321776
 50
348.0
 51
48.0
  0
ARC
  8
0
 62
7
  6
CONTINUOUS
 10
20.581646014
 20
13.0824632691
 40
0.7290321776
 50
228.0
 51
288.0
  0
ARC
  8
0
 62
7
  6
CONTINUOUS
 10
13.0745707529
 20
19.8418641951
 40
0.7290321776
 50
108.0
 51
228.0
  0
ARC
  8
0
 62
7
  6
CONTINUOUS
 10
24.1411693916
 20
14.2390225237
 40
0.7290321776
 50
228.0
 51
348.0
  0
ENDBLK
  8
0
  6
BYBLOCK
 62
0
  0
ENDSEC
  0
SECTION
  2
ENTITIES
  0
TEXT
  8
0
 62
5
  6
CONTINUOUS
 10
96.0
 20
25.636
  7
TEXTSTYLE_2
 40
2.8
  1
Scale :
 41
0.6
 51
0.000019
 72
0
  0
TEXT
  8
0
 62
5
  6
CONTINUOUS
 10
116.0
 20
25.636
  7
TEXTSTYLE_2
 40
2.8
  1
Belt type:
 41
0.6
 51
0.000019
 72
0
  0
INSERT
  8
0
 62
2
  6
CONTINUOUS
  2
SYMBOL_3_BL0
 10
32.1213064866
 20
19.8534310916
  0
INSERT
  8
0
 62
2
  6
CONTINUOUS
  2
SYMBOL_8_BL1
 10
173.5956734183
 20
35.5937998301
  0
LINE
  8
0
 62
2
  6
CONTINUOUS
 10
10.0
 20
30.0
 11
200.0
 21
30.0
  0
LINE
  8
0
 62
2
  6
CONTINUOUS
 10
10.0
 20
30.0
 11
10.0
 21
10.0
  0
LINE
  8
0
 62
2
  6
CONTINUOUS
 10
10.0
 20
10.0
 11
200.0
 21
10.0
  0
LINE
  8
0
 62
2
  6
CONTINUOUS
 10
95.0
 20
30.0
 11
95.0
 21
10.0
  0
LINE
  8
0
 62
2
  6
CONTINUOUS
 10
115.0
 20
30.0
 11
115.0
 21
10.0
  0
LINE
  8
0
 62
2
  6
CONTINUOUS
 10
200.0
 20
30.0
 11
200.0
 21
10.0
  0
TEXT
  8
0
 62
5
  6
CONTINUOUS
 10
13.0
 20
23.303
  7
TEXTSTYLE_5
 40
1.52
  1
                                                                     Ammeraal Beltech Modular A/S
 41
1.0
 72
0
  0
TEXT
  8
0
 62
5
  6
CONTINUOUS
 10
13.0
 20
20.595
  7
TEXTSTYLE_5
 40
1.5
  1
                                                                      Hjulmagervej 21,  7100 Vejle,  DK
 41
1.0
 72
0
  0
TEXT
  8
0
 62
5
  6
CONTINUOUS
 10
13.0
 20
17.881
  7
TEXTSTYLE_5
 40
1.495
  1
                                                                      tel: 
 41
1.0
 72
0
  0
TEXT
  8
0
 62
5
  6
CONTINUOUS
 10
57.9869465649
 20
17.881
  7
TEXTSTYLE_5
 40
1.51
  1
+45 75723100     fax: +45 75723348
 41
1.0
 72
0
  0
TEXT
  8
0
 62
5
  6
CONTINUOUS
 10
13.0
 20
15.177
  7
TEXTSTYLE_5
 40
1.5
  1
                                                                      admin@unichains.dk  www.unichains.com
 41
1.0
 72
0
  0
TEXT
  8
0
 62
5
  6
CONTINUOUS
 10
99.75
 20
13.75
  7
TEXTSTYLE_6
 40
5.0
  1
1:1
 41
0.7
 72
1
 11
105.0
 21
13.75
  0
TEXT
  8
0
 62
5
  6
CONTINUOUS
 10
118.0
 20
13.75
  7
TEXTSTYLE_7
 40
7.5
  1
uni Light-PRODUCT SUPPORT 1-FLAT-K300
 41
0.2920608108
 72
0
  0
LINE
  8
0
 62
7
  6
CONTINUOUS
 10
210.0
 20
0.0
 11
0.0
 21
0.0
  0
LINE
  8
0
 62
7
  6
CONTINUOUS
 10
10.0
 20
10.0
 11
200.0
 21
10.0
  0
LINE
  8
0
 62
7
  6
CONTINUOUS
 10
10.0
 20
30.0
 11
200.0
 21
30.0
  0
LINE
  8
0
 62
7
  6
CONTINUOUS
 10
0.0
 20
0.0
 11
0.0
 21
297.0
  0
LINE
  8
0
 62
7
  6
CONTINUOUS
 10
10.0
 20
10.0
 11
10.0
 21
287.0
  0
LINE
  8
0
 62
7
  6
CONTINUOUS
 10
200.0
 20
287.0
 11
200.0
 21
10.0
  0
LINE
  8
0
 62
7
  6
CONTINUOUS
 10
210.0
 20
0.0
 11
210.0
 21
297.0
  0
LINE
  8
0
 62
7
  6
CONTINUOUS
 10
10.0
 20
287.0
 11
200.0
 21
287.0
  0
LINE
  8
0
 62
7
  6
CONTINUOUS
 10
0.0
 20
297.0
 11
210.0
 21
297.0
  0
LINE
  8
0
 62
7
  6
CONTINUOUS
 10
30.8528278689
 20
214.8594024867
 11
30.8528278689
 21
220.6594024867
  0
LINE
  8
0
 62
7
  6
CONTINUOUS
 10
31.0528278689
 20
213.1594053013
 11
31.0528278689
 21
220.6594024867
  0
LINE
  8
0
 62
7
  6
CONTINUOUS
 10
31.2571888858
 20
244.5768555577
 11
31.0519494196
 21
221.0587421735
  0
POLYLINE
  8
0
 62
7
  6
CONTINUOUS
 66
1
 70
0
  0
VERTEX
  8
0
 62
7
  6
CONTINUOUS
 10
35.0028278689
 20
218.3946791821
  0
VERTEX
  8
0
 62
7
  6
CONTINUOUS
 10
35.0048760838
 20
218.3506003333
  0
VERTEX
  8
0
 62
7
  6
CONTINUOUS
 10
35.0110672594
 20
218.3054249562
  0
VERTEX
  8
0
 62
7
  6
CONTINUOUS
 10
35.0214753829
 20
218.2594024867
  0
SEQEND
  0
LINE
  8
0
 62
7
  6
CONTINUOUS
 10
35.0028278689
 20
213.1594024867
 11
35.0028278689
 21
220.6594024867
  0
LINE
  8
0
 62
7
  6
CONTINUOUS
 10
37.6528278689
 20
218.2594024867
 11
37.6528278689
 21
213.1594024867
  0
LINE
  8
0
 62
7
  6
CONTINUOUS
 10
38.7028278689
 20
245.3594024867
 11
38.7028278689
 21
224.6594024867
  0
POLYLINE
  8
0
 62
7
  6
CONTINUOUS
 66
1
 70
0
  0
VERTEX
  8
0
 62
7
  6
CONTINUOUS
 10
38.7028278689
 20
245.3594024867
  0
VERTEX
  8
0
 62
7
  6
CONTINUOUS
 10
38.7064371699
 20
245.4194187486
  0
VERTEX
  8
0
 62
7
  6
CONTINUOUS
 10
38.7362270183
 20
245.5404432967
  0
VERTEX
  8
0
 62
7
  6
CONTINUOUS
 10
38.8008439842
 20
245.6639600681
  0
VERTEX
  8
0
 62
7
  6
CONTINUOUS
 10
38.9108911088
 20
245.7896852355
  0
VERTEX
  8
0
 62
7
  6
CONTINUOUS
 10
39.0828531803
 20
245.9137697998
  0
VERTEX
  8
0
 62
7
  6
CONTINUOUS
 10
39.3362866589
 20
246.0265006833
  0
VERTEX
  8
0
 62
7
  6
CONTINUOUS
 10
39.6807698968
 20
246.1114588862
  0
VERTEX
  8
0
 62
7
  6
CONTINUOUS
 10
40.0945030523
 20
246.1514184625
  0
VERTEX
  8
0
 62
7
  6
CONTINUOUS
 10
40.3111587921
 20
246.1514182694
  0
VERTEX
  8
0
 62
7
  6
CONTINUOUS
 10
40.7248903571
 20
246.1114581277
  0
VERTEX
  8
0
 62
7
  6
CONTINUOUS
 10
41.0693722389
 20
246.0264996065
  0
VERTEX
  8
0
 62
7
  6
CONTINUOUS
 10
41.3228042077
 20
245.91376885
  0
VERTEX
  8
0
 62
7
  6
CONTINUOUS
 10
41.4947658816
 20
245.7896840904
  0
VERTEX
  8
0
 62
7
  6
CONTINUOUS
 10
41.6048125926
 20
245.6639588362
  0
VERTEX
  8
0
 62
7
  6
CONTINUOUS
 10
41.6694293121
 20
245.5404417206
  0
VERTEX
  8
0
 62
7
  6
CONTINUOUS
 10
41.6992186993
 20
245.4194176571
  0
VERTEX
  8
0
 62
7
  6
CONTINUOUS
 10
41.7028278689
 20
245.3594024867
  0
SEQEND
  0
POLYLINE
  8
0
 62
7
  6
CONTINUOUS
 66
1
 70
0
  0
VERTEX
  8
0
 62
7
  6
CONTINUOUS
 10
35.0028278689
 20
217.9231311116
  0
VERTEX
  8
0
 62
7
  6
CONTINUOUS
 10
34.9859362974
 20
217.9385151546
  0
VERTEX
  8
0
 62
7
  6
CONTINUOUS
 10
34.9362921222
 20
217.9526562043
  0
VERTEX
  8
0
 62
7
  6
CONTINUOUS
 10
34.8570905854
 20
217.9646644301
  0
VERTEX
  8
0
 62
7
  6
CONTINUOUS
 10
34.7535824778
 20
217.9738021721
  0
VERTEX
  8
0
 62
7
  6
CONTINUOUS
 10
34.63275072
 20
217.9795166637
  0
VERTEX
  8
0
 62
7
  6
CONTINUOUS
 10
34.5028278689
 20
217.9814621557
  0
SEQEND
  0
POLYLINE
  8
2_FEATURE
 62
7
  6
CONTINUOUS
 66
1
 70
0
  0
VERTEX
  8
2_FEATURE
 62
7
  6
CONTINUOUS
 10
43.1383329047
 20
213.7536702562
  0
VERTEX
  8
2_FEATURE
 62
7
  6
CONTINUOUS
 10
43.1854938354
 20
213.5765272471
  0
VERTEX
  8
2_FEATURE
 62
7
  6
CONTINUOUS
 10
43.2028278689
 20
213.3935487666
  0
SEQEND
  0
LINE
  8
0
 62
7
  6
CONTINUOUS
 10
41.7028278689
 20
245.3594024867
 11
41.7028278689
 21
224.6594024867
  0
LINE
  8
2_FEATURE
 62
7
  6
CONTINUOUS
 10
42.8028278689
 20
213.8654190035
 11
42.8028278689
 21
212.6594024867
  0
LINE
  8
0
 62
7
  6
CONTINUOUS
 10
43.2028278689
 20
216.4024842897
 11
43.2028278689
 21
213.1594024867
  0
POLYLINE
  8
0
 62
7
  6
CONTINUOUS
 66
1
 70
0
  0
VERTEX
  8
0
 62
7
  6
CONTINUOUS
 10
45.1528278689
 20
216.0956738618
  0
VERTEX
  8
0
 62
7
  6
CONTINUOUS
 10
45.1697194403
 20
216.0802898189
  0
VERTEX
  8
0
 62
7
  6
CONTINUOUS
 10
45.2193636155
 20
216.0661487691
  0
VERTEX
  8
0
 62
7
  6
CONTINUOUS
 10
45.2985651523
 20
216.0541405433
  0
VERTEX
  8
0
 62
7
  6
CONTINUOUS
 10
45.4020732599
 20
216.0450028013
  0
VERTEX
  8
0
 62
7
  6
CONTINUOUS
 10
45.5229050177
 20
216.0392883097
  0
VERTEX
  8
0
 62
7
  6
CONTINUOUS
 10
45.6528278689
 20
216.0373428178
  0
SEQEND
  0
LINE
  8
0
 62
7
  6
CONTINUOUS
 10
45.1528278689
 20
220.6594024867
 11
45.1528278689
 21
213.1594024867
  0
POLYLINE
  8
2_FEATURE
 62
7
  6
CONTINUOUS
 66
1
 70
0
  0
VERTEX
  8
2_FEATURE
 62
7
  6
CONTINUOUS
 10
42.8028278689
 20
213.8654190035
  0
VERTEX
  8
2_FEATURE
 62
7
  6
CONTINUOUS
 10
42.8132970385
 20
213.9326117339
  0
VERTEX
  8
2_FEATURE
 62
7
  6
CONTINUOUS
 10
42.8377269896
 20
213.9808187229
  0
VERTEX
  8
2_FEATURE
 62
7
  6
CONTINUOUS
 10
42.8695391249
 20
214.0110240534
  0
VERTEX
  8
2_FEATURE
 62
7
  6
CONTINUOUS
 10
42.9044020738
 20
214.0241552769
  0
VERTEX
  8
2_FEATURE
 62
7
  6
CONTINUOUS
 10
42.9397169221
 20
214.0223160975
  0
VERTEX
  8
2_FEATURE
 62
7
  6
CONTINUOUS
 10
42.9779538498
 20
214.0055396007
  0
VERTEX
  8
2_FEATURE
 62
7
  6
CONTINUOUS
 10
43.0191995003
 20
213.970849589
  0
VERTEX
  8
2_FEATURE
 62
7
  6
CONTINUOUS
 10
43.0603099146
 20
213.9181732835
  0
VERTEX
  8
2_FEATURE
 62
7
  6
CONTINUOUS
 10
43.1005817027
 20
213.8460579562
  0
VERTEX
  8
2_FEATURE
 62
7
  6
CONTINUOUS
 10
43.1383329047
 20
213.7536702562
  0
SEQEND
  0
LINE
  8
0
 62
7
  6
CONTINUOUS
 10
48.2528278689
 20
245.3594024867
 11
48.2528278689
 21
224.6594024867
  0
POLYLINE
  8
0
 62
7
  6
CONTINUOUS
 66
1
 70
0
  0
VERTEX
  8
0
 62
7
  6
CONTINUOUS
 10
48.2528278689
 20
245.3594024867
  0
VERTEX
  8
0
 62
7
  6
CONTINUOUS
 10
48.2564371699
 20
245.4194187486
  0
VERTEX
  8
0
 62
7
  6
CONTINUOUS
 10
48.2862270183
 20
245.5404432967
  0
VERTEX
  8
0
 62
7
  6
CONTINUOUS
 10
48.3508439842
 20
245.6639600681
  0
VERTEX
  8
0
 62
7
  6
CONTINUOUS
 10
48.4608911088
 20
245.7896852355
  0
VERTEX
  8
0
 62
7
  6
CONTINUOUS
 10
48.6328531803
 20
245.9137697998
  0
VERTEX
  8
0
 62
7
  6
CONTINUOUS
 10
48.8862866589
 20
246.0265006833
  0
VERTEX
  8
0
 62
7
  6
CONTINUOUS
 10
49.2307698968
 20
246.1114588862
  0
VERTEX
  8
0
 62
7
  6
CONTINUOUS
 10
49.6445030523
 20
246.1514184625
  0
VERTEX
  8
0
 62
7
  6
CONTINUOUS
 10
49.8611587921
 20
246.1514182694
  0
VERTEX
  8
0
 62
7
  6
CONTINUOUS
 10
50.2748903571
 20
246.1114581277
  0
VERTEX
  8
0
 62
7
  6
CONTINUOUS
 10
50.6193722389
 20
246.0264996065
  0
VERTEX
  8
0
 62
7
  6
CONTINUOUS
 10
50.8728042077
 20
245.91376885
  0
VERTEX
  8
0
 62
7
  6
CONTINUOUS
 10
51.0447658816
 20
245.7896840904
  0
VERTEX
  8
0
 62
7
  6
CONTINUOUS
 10
51.1548125926
 20
245.6639588362
  0
VERTEX
  8
0
 62
7
  6
CONTINUOUS
 10
51.2194293121
 20
245.5404417206
  0
VERTEX
  8
0
 62
7
  6
CONTINUOUS
 10
51.2492186993
 20
245.4194176571
  0
VERTEX
  8
0
 62
7
  6
CONTINUOUS
 10
51.2528278689
 20
245.3594024867
  0
SEQEND
  0
POLYLINE
  8
0
 62
7
  6
CONTINUOUS
 66
1
 70
0
  0
VERTEX
  8
0
 62
7
  6
CONTINUOUS
 10
45.1425896182
 20
218.2594024867
  0
VERTEX
  8
0
 62
7
  6
CONTINUOUS
 10
45.1482927414
 20
218.293339714
  0
VERTEX
  8
0
 62
7
  6
CONTINUOUS
 10
45.1516979426
 20
218.3269324695
  0
VERTEX
  8
0
 62
7
  6
CONTINUOUS
 10
45.1528278689
 20
218.3600674206
  0
SEQEND
  0
LINE
  8
0
 62
7
  6
CONTINUOUS
 10
51.2528278689
 20
245.3594024867
 11
51.2528278689
 21
224.6594024867
  0
LINE
  8
2_FEATURE
 62
7
  6
CONTINUOUS
 10
79.8840778689
 20
212.6850357498
 11
79.7965779523
 21
212.6713816076
  0
LINE
  8
2_FEATURE
 62
7
  6
CONTINUOUS
 10
77.9153278689
 20
212.6850357498
 11
77.8278278271
 21
212.6713816076
  0
LINE
  8
2_FEATURE
 62
7
  6
CONTINUOUS
 10
80.1465778689
 20
212.6775631654
 11
80.0153278689
 21
212.6605337901
  0
LINE
  8
2_FEATURE
 62
7
  6
CONTINUOUS
 10
78.1778278689
 20
212.6775631654
 11
78.0465778689
 21
212.6605337901
  0
POLYLINE
  8
2_FEATURE
 62
7
  6
CONTINUOUS
 66
1
 70
0
  0
VERTEX
  8
2_FEATURE
 62
7
  6
CONTINUOUS
 10
80.0153278689
 20
212.860588326
  0
VERTEX
  8
2_FEATURE
 62
7
  6
CONTINUOUS
 10
80.0591484451
 20
212.8641597962
  0
VERTEX
  8
2_FEATURE
 62
7
  6
CONTINUOUS
 10
80.0703753263
 20
212.865687172
  0
SEQEND
  0
POLYLINE
  8
2_FEATURE
 62
7
  6
CONTINUOUS
 66
1
 70
0
  0
VERTEX
  8
2_FEATURE
 62
7
  6
CONTINUOUS
 10
78.0465778689
 20
212.860588326
  0
VERTEX
  8
2_FEATURE
 62
7
  6
CONTINUOUS
 10
78.0903984451
 20
212.8641597962
  0
VERTEX
  8
2_FEATURE
 62
7
  6
CONTINUOUS
 10
78.1016253263
 20
212.865687172
  0
SEQEND
  0
LINE
  8
2_FEATURE
 62
7
  6
CONTINUOUS
 10
79.7965779523
 20
212.6713816076
 11
79.6653279523
 21
212.6664855637
  0
LINE
  8
2_FEATURE
 62
7
  6
CONTINUOUS
 10
77.8278278271
 20
212.6713816076
 11
77.6965778271
 21
212.6664855637
  0
LINE
  8
2_FEATURE
 62
7
  6
CONTINUOUS
 10
79.9569944733
 20
212.8594761947
 11
80.0153278689
 21
212.860588326
  0
LINE
  8
2_FEATURE
 62
7
  6
CONTINUOUS
 10
77.988244515
 20
212.8594761947
 11
78.0465778689
 21
212.860588326
  0
POLYLINE
  8
2_FEATURE
 62
7
  6
CONTINUOUS
 66
1
 70
0
  0
VERTEX
  8
2_FEATURE
 62
7
  6
CONTINUOUS
 10
80.0153278689
 20
212.6605337901
  0
VERTEX
  8
2_FEATURE
 62
7
  6
CONTINUOUS
 10
79.9569943507
 20
212.6594728048
  0
VERTEX
  8
2_FEATURE
 62
7
  6
CONTINUOUS
 10
79.937619698
 20
212.6594025066
  0
SEQEND
  0
POLYLINE
  8
2_FEATURE
 62
7
  6
CONTINUOUS
 66
1
 70
0
  0
VERTEX
  8
2_FEATURE
 62
7
  6
CONTINUOUS
 10
78.0465778689
 20
212.6605337901
  0
VERTEX
  8
2_FEATURE
 62
7
  6
CONTINUOUS
 10
77.9882443924
 20
212.6594728048
  0
VERTEX
  8
2_FEATURE
 62
7
  6
CONTINUOUS
 10
77.9688697536
 20
212.6594025066
  0
SEQEND
  0
POLYLINE
  8
1_AXIS
 62
7
  6
CONTINUOUS
 66
1
 70
0
  0
VERTEX
  8
1_AXIS
 62
7
  6
CONTINUOUS
 10
61.0983977357
 20
212.8594212757
  0
VERTEX
  8
1_AXIS
 62
7
  6
CONTINUOUS
 10
61.262078872
 20
212.8602426944
  0
VERTEX
  8
1_AXIS
 62
7
  6
CONTINUOUS
 10
61.3824948634
 20
212.8632186344
  0
SEQEND
  0
POLYLINE
  8
1_AXIS
 62
7
  6
CONTINUOUS
 66
1
 70
0
  0
VERTEX
  8
1_AXIS
 62
7
  6
CONTINUOUS
 10
61.0983142655
 20
212.6594203398
  0
VERTEX
  8
1_AXIS
 62
7
  6
CONTINUOUS
 10
61.2619951448
 20
212.6602031235
  0
VERTEX
  8
1_AXIS
 62
7
  6
CONTINUOUS
 10
61.4044836408
 20
212.6635604466
  0
VERTEX
  8
1_AXIS
 62
7
  6
CONTINUOUS
 10
61.5180673306
 20
212.6716570905
  0
VERTEX
  8
1_AXIS
 62
7
  6
CONTINUOUS
 10
61.5970479616
 20
212.6864495761
  0
VERTEX
  8
1_AXIS
 62
7
  6
CONTINUOUS
 10
61.6376704883
 20
212.70919965
  0
VERTEX
  8
1_AXIS
 62
7
  6
CONTINUOUS
 10
61.6428278689
 20
212.7236732606
  0
SEQEND
  0
LINE
  8
2_FEATURE
 62
7
  6
CONTINUOUS
 10
95.0028278689
 20
212.6594024867
 11
94.9028278689
 21
212.6594024867
  0
LINE
  8
2_FEATURE
 62
7
  6
CONTINUOUS
 10
42.8028278689
 20
212.6594024867
 11
42.7028278689
 21
212.6594024867
  0
LINE
  8
0
 62
7
  6
CONTINUOUS
 10
31.5528278689
 20
212.6594024867
 11
42.7028278689
 21
212.6594024867
  0
LINE
  8
0
 62
7
  6
CONTINUOUS
 10
43.7028278689
 20
212.6594024867
 11
60.7096503124
 21
212.6594024867
  0
LINE
  8
0
 62
7
  6
CONTINUOUS
 10
61.0460055148
 20
212.6594024867
 11
76.6028278689
 21
212.6594024867
  0
LINE
  8
0
 62
7
  6
CONTINUOUS
 10
78.0465778689
 20
212.6594024867
 11
78.5715778689
 21
212.6594024867
  0
LINE
  8
0
 62
7
  6
CONTINUOUS
 10
80.0153278689
 20
212.6594024867
 11
94.0028278689
 21
212.6594024867
  0
LINE
  8
0
 62
7
  6
CONTINUOUS
 10
95.0028278689
 20
212.6594024867
 11
106.1528278689
 21
212.6594024867
  0
LINE
  8
2_FEATURE
 62
7
  6
CONTINUOUS
 10
76.8653278689
 20
212.6639416187
 11
77.6528278689
 21
212.6639416187
  0
LINE
  8
2_FEATURE
 62
7
  6
CONTINUOUS
 10
78.8340778689
 20
212.6639416187
 11
79.6215778689
 21
212.6639416187
  0
LINE
  8
2_FEATURE
 62
7
  6
CONTINUOUS
 10
76.8653278689
 20
212.6664855637
 11
77.6965778271
 21
212.6664855637
  0
LINE
  8
2_FEATURE
 62
7
  6
CONTINUOUS
 10
78.8340778689
 20
212.6664855637
 11
79.6653279523
 21
212.6664855637
  0
LINE
  8
2_FEATURE
 62
7
  6
CONTINUOUS
 10
76.6028278689
 20
212.8594024867
 11
76.8653278689
 21
212.8594024867
  0
LINE
  8
2_FEATURE
 62
7
  6
CONTINUOUS
 10
77.9590778271
 20
212.8594024867
 11
77.988244515
 21
212.8594761947
  0
LINE
  8
2_FEATURE
 62
7
  6
CONTINUOUS
 10
78.5715778689
 20
212.8594024867
 11
78.8340778689
 21
212.8594024867
  0
LINE
  8
2_FEATURE
 62
7
  6
CONTINUOUS
 10
79.9278279523
 20
212.8594024867
 11
79.9569944733
 21
212.8594761947
  0
LINE
  8
2_FEATURE
 62
7
  6
CONTINUOUS
 10
76.8653278689
 20
212.8791677216
 11
77.6965778271
 21
212.8791677216
  0
LINE
  8
2_FEATURE
 62
7
  6
CONTINUOUS
 10
78.8340778689
 20
212.8791677216
 11
79.6653279523
 21
212.8791677216
  0
LINE
  8
2_FEATURE
 62
7
  6
CONTINUOUS
 10
76.6028278689
 20
213.0214714755
 11
77.6528278689
 21
213.0214714755
  0
LINE
  8
2_FEATURE
 62
7
  6
CONTINUOUS
 10
78.5715778689
 20
213.0214714755
 11
79.6215778689
 21
213.0214714755
  0
LINE
  8
1_AXIS
 62
7
  6
CONTINUOUS
 10
60.6573429223
 20
212.6594203385
 11
61.0983142655
 21
212.6594203398
  0
POLYLINE
  8
2_FEATURE
 62
7
  6
CONTINUOUS
 66
1
 70
0
  0
VERTEX
  8
2_FEATURE
 62
7
  6
CONTINUOUS
 10
77.9688697536
 20
212.6594025066
  0
VERTEX
  8
2_FEATURE
 62
7
  6
CONTINUOUS
 10
77.9299026646
 20
212.6596869285
  0
VERTEX
  8
2_FEATURE
 62
7
  6
CONTINUOUS
 10
77.8715779106
 20
212.6611759707
  0
SEQEND
  0
POLYLINE
  8
2_FEATURE
 62
7
  6
CONTINUOUS
 66
1
 70
0
  0
VERTEX
  8
2_FEATURE
 62
7
  6
CONTINUOUS
 10
79.937619698
 20
212.6594025066
  0
VERTEX
  8
2_FEATURE
 62
7
  6
CONTINUOUS
 10
79.8986525812
 20
212.6596869285
  0
VERTEX
  8
2_FEATURE
 62
7
  6
CONTINUOUS
 10
79.8403277854
 20
212.6611759707
  0
SEQEND
  0
LINE
  8
2_FEATURE
 62
7
  6
CONTINUOUS
 10
77.8715779106
 20
212.6611759707
 11
77.6528278689
 21
212.6639416187
  0
LINE
  8
2_FEATURE
 62
7
  6
CONTINUOUS
 10
79.8403277854
 20
212.6611759707
 11
79.6215778689
 21
212.6639416187
  0
POLYLINE
  8
1_AXIS
 62
7
  6
CONTINUOUS
 66
1
 70
0
  0
VERTEX
  8
1_AXIS
 62
7
  6
CONTINUOUS
 10
60.3731625731
 20
212.8632186034
  0
VERTEX
  8
1_AXIS
 62
7
  6
CONTINUOUS
 10
60.4935756422
 20
212.8602427087
  0
VERTEX
  8
1_AXIS
 62
7
  6
CONTINUOUS
 10
60.6572564746
 20
212.8594212771
  0
VERTEX
  8
1_AXIS
 62
7
  6
CONTINUOUS
 10
61.0983977357
 20
212.8594212757
  0
SEQEND
  0
POLYLINE
  8
0
 62
7
  6
CONTINUOUS
 66
1
 70
0
  0
VERTEX
  8
0
 62
7
  6
CONTINUOUS
 10
54.3528278689
 20
217.9231311116
  0
VERTEX
  8
0
 62
7
  6
CONTINUOUS
 10
54.3359362974
 20
217.9385151546
  0
VERTEX
  8
0
 62
7
  6
CONTINUOUS
 10
54.2862921222
 20
217.9526562043
  0
VERTEX
  8
0
 62
7
  6
CONTINUOUS
 10
54.2070905854
 20
217.9646644301
  0
VERTEX
  8
0
 62
7
  6
CONTINUOUS
 10
54.1035824778
 20
217.9738021721
  0
VERTEX
  8
0
 62
7
  6
CONTINUOUS
 10
53.98275072
 20
217.9795166637
  0
VERTEX
  8
0
 62
7
  6
CONTINUOUS
 10
53.8528278689
 20
217.9814621557
  0
SEQEND
  0
POLYLINE
  8
0
 62
7
  6
CONTINUOUS
 66
1
 70
0
  0
VERTEX
  8
0
 62
7
  6
CONTINUOUS
 10
54.3528278689
 20
218.3600674206
  0
VERTEX
  8
0
 62
7
  6
CONTINUOUS
 10
54.3539579794
 20
218.3269297513
  0
VERTEX
  8
0
 62
7
  6
CONTINUOUS
 10
54.3573634028
 20
218.2933366959
  0
VERTEX
  8
0
 62
7
  6
CONTINUOUS
 10
54.3630661195
 20
218.2594024867
  0
SEQEND
  0
LINE
  8
0
 62
7
  6
CONTINUOUS
 10
54.3528278689
 20
213.1594024867
 11
54.3528278689
 21
220.6594024867
  0
POLYLINE
  8
0
 62
7
  6
CONTINUOUS
 66
1
 70
0
  0
VERTEX
  8
0
 62
7
  6
CONTINUOUS
 10
106.1528278689
 20
216.0373428178
  0
VERTEX
  8
0
 62
7
  6
CONTINUOUS
 10
106.28275072
 20
216.0392883097
  0
VERTEX
  8
0
 62
7
  6
CONTINUOUS
 10
106.4035824778
 20
216.0450028013
  0
VERTEX
  8
0
 62
7
  6
CONTINUOUS
 10
106.5070905854
 20
216.0541405433
  0
VERTEX
  8
0
 62
7
  6
CONTINUOUS
 10
106.5862921222
 20
216.0661487691
  0
VERTEX
  8
0
 62
7
  6
CONTINUOUS
 10
106.6359362974
 20
216.0802898189
  0
VERTEX
  8
0
 62
7
  6
CONTINUOUS
 10
106.6528278689
 20
216.0956738618
  0
SEQEND
  0
LINE
  8
0
 62
7
  6
CONTINUOUS
 10
31.5528278689
 20
216.0373428178
 11
34.5028278689
 21
216.0373428178
  0
LINE
  8
0
 62
7
  6
CONTINUOUS
 10
45.6528278689
 20
216.0373428178
 11
53.8528278689
 21
216.0373428178
  0
LINE
  8
0
 62
7
  6
CONTINUOUS
 10
64.7528278689
 20
216.0373428178
 11
72.9528278689
 21
216.0373428178
  0
LINE
  8
0
 62
7
  6
CONTINUOUS
 10
83.8528278689
 20
216.0373428178
 11
92.0528278689
 21
216.0373428178
  0
LINE
  8
0
 62
7
  6
CONTINUOUS
 10
103.2028278689
 20
216.0373428178
 11
106.1528278689
 21
216.0373428178
  0
POLYLINE
  8
0
 62
7
  6
CONTINUOUS
 66
1
 70
0
  0
VERTEX
  8
0
 62
7
  6
CONTINUOUS
 10
31.5528278689
 20
216.0373428178
  0
VERTEX
  8
0
 62
7
  6
CONTINUOUS
 10
31.4229050177
 20
216.0392883097
  0
VERTEX
  8
0
 62
7
  6
CONTINUOUS
 10
31.3020732599
 20
216.0450028013
  0
VERTEX
  8
0
 62
7
  6
CONTINUOUS
 10
31.1985651523
 20
216.0541405433
  0
VERTEX
  8
0
 62
7
  6
CONTINUOUS
 10
31.1193636155
 20
216.0661487691
  0
VERTEX
  8
0
 62
7
  6
CONTINUOUS
 10
31.0697194403
 20
216.0802898189
  0
VERTEX
  8
0
 62
7
  6
CONTINUOUS
 10
31.0528278689
 20
216.0956738618
  0
SEQEND
  0
LINE
  8
2_FEATURE
 62
7
  6
CONTINUOUS
 10
77.6528278689
 20
213.0214714755
 11
77.8715779106
 21
212.9898471854
  0
LINE
  8
2_FEATURE
 62
7
  6
CONTINUOUS
 10
79.6215778689
 20
213.0214714755
 11
79.8403277854
 21
212.9898471854
  0
LINE
  8
2_FEATURE
 62
7
  6
CONTINUOUS
 10
77.6965778271
 20
212.8791677216
 11
77.8278278271
 21
212.855294238
  0
LINE
  8
2_FEATURE
 62
7
  6
CONTINUOUS
 10
79.6653279523
 20
212.8791677216
 11
79.7965779523
 21
212.855294238
  0
POLYLINE
  8
1_AXIS
 62
7
  6
CONTINUOUS
 66
1
 70
0
  0
VERTEX
  8
1_AXIS
 62
7
  6
CONTINUOUS
 10
60.1128278689
 20
212.7236732606
  0
VERTEX
  8
1_AXIS
 62
7
  6
CONTINUOUS
 10
60.1179852753
 20
212.7091996162
  0
VERTEX
  8
1_AXIS
 62
7
  6
CONTINUOUS
 10
60.1586079821
 20
212.6864495125
  0
VERTEX
  8
1_AXIS
 62
7
  6
CONTINUOUS
 10
60.2375888843
 20
212.6716570356
  0
VERTEX
  8
1_AXIS
 62
7
  6
CONTINUOUS
 10
60.3511729125
 20
212.6635604127
  0
VERTEX
  8
1_AXIS
 62
7
  6
CONTINUOUS
 10
60.4936616841
 20
212.6602031113
  0
VERTEX
  8
1_AXIS
 62
7
  6
CONTINUOUS
 10
60.6573429223
 20
212.6594203385
  0
SEQEND
  0
LINE
  8
0
 62
7
  6
CONTINUOUS
 10
56.3028278689
 20
216.402491311
 11
56.3028278689
 21
213.1594024867
  0
LINE
  8
0
 62
7
  6
CONTINUOUS
 10
57.8028278689
 20
245.3594024867
 11
57.8028278689
 21
224.6594024867
  0
POLYLINE
  8
0
 62
7
  6
CONTINUOUS
 66
1
 70
0
  0
VERTEX
  8
0
 62
7
  6
CONTINUOUS
 10
57.8028278689
 20
245.3594024867
  0
VERTEX
  8
0
 62
7
  6
CONTINUOUS
 10
57.8064371699
 20
245.4194187486
  0
VERTEX
  8
0
 62
7
  6
CONTINUOUS
 10
57.8362270183
 20
245.5404432967
  0
VERTEX
  8
0
 62
7
  6
CONTINUOUS
 10
57.9008439842
 20
245.6639600681
  0
VERTEX
  8
0
 62
7
  6
CONTINUOUS
 10
58.0108911088
 20
245.7896852355
  0
VERTEX
  8
0
 62
7
  6
CONTINUOUS
 10
58.1828531803
 20
245.9137697998
  0
VERTEX
  8
0
 62
7
  6
CONTINUOUS
 10
58.4362866589
 20
246.0265006833
  0
VERTEX
  8
0
 62
7
  6
CONTINUOUS
 10
58.7807698968
 20
246.1114588862
  0
VERTEX
  8
0
 62
7
  6
CONTINUOUS
 10
59.1945030523
 20
246.1514184625
  0
VERTEX
  8
0
 62
7
  6
CONTINUOUS
 10
59.4111587921
 20
246.1514182694
  0
VERTEX
  8
0
 62
7
  6
CONTINUOUS
 10
59.8248903571
 20
246.1114581277
  0
VERTEX
  8
0
 62
7
  6
CONTINUOUS
 10
60.1693722389
 20
246.0264996065
  0
VERTEX
  8
0
 62
7
  6
CONTINUOUS
 10
60.4228042077
 20
245.91376885
  0
VERTEX
  8
0
 62
7
  6
CONTINUOUS
 10
60.5947658816
 20
245.7896840904
  0
VERTEX
  8
0
 62
7
  6
CONTINUOUS
 10
60.7048125926
 20
245.6639588362
  0
VERTEX
  8
0
 62
7
  6
CONTINUOUS
 10
60.7694293121
 20
245.5404417206
  0
VERTEX
  8
0
 62
7
  6
CONTINUOUS
 10
60.7992186993
 20
245.4194176571
  0
VERTEX
  8
0
 62
7
  6
CONTINUOUS
 10
60.8028278689
 20
245.3594024867
  0
SEQEND
  0
POLYLINE
  8
0
 62
7
  6
CONTINUOUS
 66
1
 70
0
  0
VERTEX
  8
0
 62
7
  6
CONTINUOUS
 10
35.0028278689
 20
216.0956738618
  0
VERTEX
  8
0
 62
7
  6
CONTINUOUS
 10
34.9859362974
 20
216.0802898189
  0
VERTEX
  8
0
 62
7
  6
CONTINUOUS
 10
34.9362921222
 20
216.0661487691
  0
VERTEX
  8
0
 62
7
  6
CONTINUOUS
 10
34.8570905854
 20
216.0541405433
  0
VERTEX
  8
0
 62
7
  6
CONTINUOUS
 10
34.7535824778
 20
216.0450028013
  0
VERTEX
  8
0
 62
7
  6
CONTINUOUS
 10
34.63275072
 20
216.0392883097
  0
VERTEX
  8
0
 62
7
  6
CONTINUOUS
 10
34.5028278689
 20
216.0373428178
  0
SEQEND
  0
LINE
  8
0
 62
7
  6
CONTINUOUS
 10
93.0661901342
 20
218.7586575591
 11
93.0945133063
 21
218.7594024867
  0
LINE
  8
0
 62
7
  6
CONTINUOUS
 10
73.9661901342
 20
218.7586575591
 11
73.9945133063
 21
218.7594024867
  0
POLYLINE
  8
0
 62
7
  6
CONTINUOUS
 66
1
 70
0
  0
VERTEX
  8
0
 62
7
  6
CONTINUOUS
 10
31.5528278689
 20
217.9814621557
  0
VERTEX
  8
0
 62
7
  6
CONTINUOUS
 10
31.4229050177
 20
217.9795166637
  0
VERTEX
  8
0
 62
7
  6
CONTINUOUS
 10
31.3020732599
 20
217.9738021721
  0
VERTEX
  8
0
 62
7
  6
CONTINUOUS
 10
31.1985651523
 20
217.9646644301
  0
VERTEX
  8
0
 62
7
  6
CONTINUOUS
 10
31.1193636155
 20
217.9526562043
  0
VERTEX
  8
0
 62
7
  6
CONTINUOUS
 10
31.0697194403
 20
217.9385151546
  0
VERTEX
  8
0
 62
7
  6
CONTINUOUS
 10
31.0528278689
 20
217.9231311116
  0
SEQEND
  0
LINE
  8
1_AXIS
 62
2
  6
CENTER
 10
26.3890158303
 20
217.0094024867
 11
118.4284524204
 21
217.0094024867
  0
LINE
  8
0
 62
7
  6
CONTINUOUS
 10
31.5528278689
 20
217.9814621557
 11
34.5028278689
 21
217.9814621557
  0
LINE
  8
0
 62
7
  6
CONTINUOUS
 10
45.6528278689
 20
217.9814621557
 11
53.8528278689
 21
217.9814621557
  0
LINE
  8
0
 62
7
  6
CONTINUOUS
 10
64.7528278689
 20
217.9814621557
 11
72.9528278689
 21
217.9814621557
  0
LINE
  8
0
 62
7
  6
CONTINUOUS
 10
83.8528278689
 20
217.9814621557
 11
92.0528278689
 21
217.9814621557
  0
LINE
  8
0
 62
7
  6
CONTINUOUS
 10
103.2028278689
 20
217.9814621557
 11
106.1528278689
 21
217.9814621557
  0
LINE
  8
0
 62
7
  6
CONTINUOUS
 10
35.5649034568
 20
218.7594024867
 11
44.611142433
 21
218.7594024867
  0
LINE
  8
0
 62
7
  6
CONTINUOUS
 10
54.8945135372
 20
218.7594024867
 11
63.711142433
 21
218.7594024867
  0
LINE
  8
0
 62
7
  6
CONTINUOUS
 10
73.9945133105
 20
218.7594024867
 11
82.811142433
 21
218.7594024867
  0
LINE
  8
0
 62
7
  6
CONTINUOUS
 10
93.0945135372
 20
218.7594024867
 11
102.1407525572
 21
218.7594024867
  0
POLYLINE
  8
0
 62
7
  6
CONTINUOUS
 66
1
 70
0
  0
VERTEX
  8
0
 62
7
  6
CONTINUOUS
 10
106.1528278689
 20
217.9814621557
  0
VERTEX
  8
0
 62
7
  6
CONTINUOUS
 10
106.28275072
 20
217.9795166637
  0
VERTEX
  8
0
 62
7
  6
CONTINUOUS
 10
106.4035824778
 20
217.9738021721
  0
VERTEX
  8
0
 62
7
  6
CONTINUOUS
 10
106.5070905854
 20
217.9646644301
  0
VERTEX
  8
0
 62
7
  6
CONTINUOUS
 10
106.5862921222
 20
217.9526562043
  0
VERTEX
  8
0
 62
7
  6
CONTINUOUS
 10
106.6359362974
 20
217.9385151546
  0
VERTEX
  8
0
 62
7
  6
CONTINUOUS
 10
106.6528278689
 20
217.9231311116
  0
SEQEND
  0
LINE
  8
0
 62
7
  6
CONTINUOUS
 10
44.6111424373
 20
218.7594024867
 11
44.6394656035
 21
218.7586575591
  0
LINE
  8
0
 62
7
  6
CONTINUOUS
 10
63.7111424373
 20
218.7594024867
 11
63.7394656035
 21
218.7586575591
  0
LINE
  8
2_FEATURE
 62
7
  6
CONTINUOUS
 10
77.8715779106
 20
212.9898471854
 11
78.0465778689
 21
212.9045307348
  0
LINE
  8
2_FEATURE
 62
7
  6
CONTINUOUS
 10
77.8278278271
 20
212.855294238
 11
77.9153278689
 21
212.8119157829
  0
POLYLINE
  8
0
 62
7
  6
CONTINUOUS
 66
1
 70
0
  0
VERTEX
  8
0
 62
7
  6
CONTINUOUS
 10
64.2528278689
 20
216.0956738618
  0
VERTEX
  8
0
 62
7
  6
CONTINUOUS
 10
64.2697194403
 20
216.0802898189
  0
VERTEX
  8
0
 62
7
  6
CONTINUOUS
 10
64.3193636155
 20
216.0661487691
  0
VERTEX
  8
0
 62
7
  6
CONTINUOUS
 10
64.3985651523
 20
216.0541405433
  0
VERTEX
  8
0
 62
7
  6
CONTINUOUS
 10
64.5020732599
 20
216.0450028013
  0
VERTEX
  8
0
 62
7
  6
CONTINUOUS
 10
64.6229050177
 20
216.0392883097
  0
VERTEX
  8
0
 62
7
  6
CONTINUOUS
 10
64.7528278689
 20
216.0373428178
  0
SEQEND
  0
LINE
  8
0
 62
7
  6
CONTINUOUS
 10
60.8028278689
 20
245.3594024867
 11
60.8028278689
 21
224.6594024867
  0
LINE
  8
0
 62
7
  6
CONTINUOUS
 10
54.8661901342
 20
218.7586575591
 11
54.8945133063
 21
218.7594024867
  0
LINE
  8
0
 62
7
  6
CONTINUOUS
 10
31.3528278689
 20
221.1594024867
 11
106.3528278689
 21
221.1594024867
  0
LINE
  8
0
 62
7
  6
CONTINUOUS
 10
82.8111424373
 20
218.7594024867
 11
82.8394656035
 21
218.7586575591
  0
LINE
  8
2_FEATURE
 62
7
  6
CONTINUOUS
 10
79.8403277854
 20
212.9898471854
 11
80.0153278689
 21
212.9045307348
  0
LINE
  8
2_FEATURE
 62
7
  6
CONTINUOUS
 10
79.7965779523
 20
212.855294238
 11
79.8840778689
 21
212.8119157829
  0
LINE
  8
2_FEATURE
 62
7
  6
CONTINUOUS
 10
78.0465778689
 20
212.9045307348
 11
78.1778278689
 21
212.8119157829
  0
LINE
  8
0
 62
7
  6
CONTINUOUS
 10
62.3028278689
 20
216.402491311
 11
62.3028278689
 21
213.1594024867
  0
POLYLINE
  8
0
 62
7
  6
CONTINUOUS
 66
1
 70
0
  0
VERTEX
  8
0
 62
7
  6
CONTINUOUS
 10
45.1528278689
 20
217.9231311116
  0
VERTEX
  8
0
 62
7
  6
CONTINUOUS
 10
45.1697194403
 20
217.9385151546
  0
VERTEX
  8
0
 62
7
  6
CONTINUOUS
 10
45.2193636155
 20
217.9526562043
  0
VERTEX
  8
0
 62
7
  6
CONTINUOUS
 10
45.2985651523
 20
217.9646644301
  0
VERTEX
  8
0
 62
7
  6
CONTINUOUS
 10
45.4020732599
 20
217.9738021721
  0
VERTEX
  8
0
 62
7
  6
CONTINUOUS
 10
45.5229050177
 20
217.9795166637
  0
VERTEX
  8
0
 62
7
  6
CONTINUOUS
 10
45.6528278689
 20
217.9814621557
  0
SEQEND
  0
LINE
  8
2_FEATURE
 62
7
  6
CONTINUOUS
 10
80.0153278689
 20
212.9045307348
 11
80.1465778689
 21
212.8119157829
  0
POLYLINE
  8
0
 62
7
  6
CONTINUOUS
 66
1
 70
0
  0
VERTEX
  8
0
 62
7
  6
CONTINUOUS
 10
73.4528278689
 20
217.9231311116
  0
VERTEX
  8
0
 62
7
  6
CONTINUOUS
 10
73.4359362974
 20
217.9385151546
  0
VERTEX
  8
0
 62
7
  6
CONTINUOUS
 10
73.3862921222
 20
217.9526562043
  0
VERTEX
  8
0
 62
7
  6
CONTINUOUS
 10
73.3070905854
 20
217.9646644301
  0
VERTEX
  8
0
 62
7
  6
CONTINUOUS
 10
73.2035824778
 20
217.9738021721
  0
VERTEX
  8
0
 62
7
  6
CONTINUOUS
 10
73.08275072
 20
217.9795166637
  0
VERTEX
  8
0
 62
7
  6
CONTINUOUS
 10
72.9528278689
 20
217.9814621557
  0
SEQEND
  0
LINE
  8
0
 62
7
  6
CONTINUOUS
 10
64.2528278689
 20
213.1594024867
 11
64.2528278689
 21
220.6594024867
  0
POLYLINE
  8
0
 62
7
  6
CONTINUOUS
 66
1
 70
0
  0
VERTEX
  8
0
 62
7
  6
CONTINUOUS
 10
67.3528278689
 20
245.3594024867
  0
VERTEX
  8
0
 62
7
  6
CONTINUOUS
 10
67.3564371699
 20
245.4194187486
  0
VERTEX
  8
0
 62
7
  6
CONTINUOUS
 10
67.3862270183
 20
245.5404432967
  0
VERTEX
  8
0
 62
7
  6
CONTINUOUS
 10
67.4508439842
 20
245.6639600681
  0
VERTEX
  8
0
 62
7
  6
CONTINUOUS
 10
67.5608911088
 20
245.7896852355
  0
VERTEX
  8
0
 62
7
  6
CONTINUOUS
 10
67.7328531803
 20
245.9137697998
  0
VERTEX
  8
0
 62
7
  6
CONTINUOUS
 10
67.9862866589
 20
246.0265006833
  0
VERTEX
  8
0
 62
7
  6
CONTINUOUS
 10
68.3307698968
 20
246.1114588862
  0
VERTEX
  8
0
 62
7
  6
CONTINUOUS
 10
68.7445030523
 20
246.1514184625
  0
VERTEX
  8
0
 62
7
  6
CONTINUOUS
 10
68.9611587921
 20
246.1514182694
  0
VERTEX
  8
0
 62
7
  6
CONTINUOUS
 10
69.3748903571
 20
246.1114581277
  0
VERTEX
  8
0
 62
7
  6
CONTINUOUS
 10
69.7193722389
 20
246.0264996065
  0
VERTEX
  8
0
 62
7
  6
CONTINUOUS
 10
69.9728042077
 20
245.91376885
  0
VERTEX
  8
0
 62
7
  6
CONTINUOUS
 10
70.1447658816
 20
245.7896840904
  0
VERTEX
  8
0
 62
7
  6
CONTINUOUS
 10
70.2548125926
 20
245.6639588362
  0
VERTEX
  8
0
 62
7
  6
CONTINUOUS
 10
70.3194293121
 20
245.5404417206
  0
VERTEX
  8
0
 62
7
  6
CONTINUOUS
 10
70.3492186993
 20
245.4194176571
  0
VERTEX
  8
0
 62
7
  6
CONTINUOUS
 10
70.3528278689
 20
245.3594024867
  0
SEQEND
  0
POLYLINE
  8
0
 62
7
  6
CONTINUOUS
 66
1
 70
0
  0
VERTEX
  8
0
 62
7
  6
CONTINUOUS
 10
64.2425896182
 20
218.2594024867
  0
VERTEX
  8
0
 62
7
  6
CONTINUOUS
 10
64.2482927414
 20
218.293339714
  0
VERTEX
  8
0
 62
7
  6
CONTINUOUS
 10
64.2516979426
 20
218.3269324695
  0
VERTEX
  8
0
 62
7
  6
CONTINUOUS
 10
64.2528278689
 20
218.3600674206
  0
SEQEND
  0
LINE
  8
2_FEATURE
 62
7
  6
CONTINUOUS
 10
77.9153278689
 20
212.8119157829
 11
77.9590778271
 21
212.7574463317
  0
LINE
  8
2_FEATURE
 62
7
  6
CONTINUOUS
 10
78.1778278689
 20
212.8119157829
 11
78.2215778271
 21
212.7574463317
  0
LINE
  8
0
 62
7
  6
CONTINUOUS
 10
67.3528278689
 20
245.3594024867
 11
67.3528278689
 21
224.6594024867
  0
LINE
  8
1_AXIS
 62
2
  6
CENTER
 10
68.8528278689
 20
210.1594019171
 11
68.8528278689
 21
248.5594024867
  0
POLYLINE
  8
0
 62
7
  6
CONTINUOUS
 66
1
 70
0
  0
VERTEX
  8
0
 62
7
  6
CONTINUOUS
 10
54.3528278689
 20
216.0956738618
  0
VERTEX
  8
0
 62
7
  6
CONTINUOUS
 10
54.3359362974
 20
216.0802898189
  0
VERTEX
  8
0
 62
7
  6
CONTINUOUS
 10
54.2862921222
 20
216.0661487691
  0
VERTEX
  8
0
 62
7
  6
CONTINUOUS
 10
54.2070905854
 20
216.0541405433
  0
VERTEX
  8
0
 62
7
  6
CONTINUOUS
 10
54.1035824778
 20
216.0450028013
  0
VERTEX
  8
0
 62
7
  6
CONTINUOUS
 10
53.98275072
 20
216.0392883097
  0
VERTEX
  8
0
 62
7
  6
CONTINUOUS
 10
53.8528278689
 20
216.0373428178
  0
SEQEND
  0
POLYLINE
  8
0
 62
7
  6
CONTINUOUS
 66
1
 70
0
  0
VERTEX
  8
0
 62
7
  6
CONTINUOUS
 10
83.3528278689
 20
216.0956738618
  0
VERTEX
  8
0
 62
7
  6
CONTINUOUS
 10
83.3697194403
 20
216.0802898189
  0
VERTEX
  8
0
 62
7
  6
CONTINUOUS
 10
83.4193636155
 20
216.0661487691
  0
VERTEX
  8
0
 62
7
  6
CONTINUOUS
 10
83.4985651523
 20
216.0541405433
  0
VERTEX
  8
0
 62
7
  6
CONTINUOUS
 10
83.6020732599
 20
216.0450028013
  0
VERTEX
  8
0
 62
7
  6
CONTINUOUS
 10
83.7229050177
 20
216.0392883097
  0
VERTEX
  8
0
 62
7
  6
CONTINUOUS
 10
83.8528278689
 20
216.0373428178
  0
SEQEND
  0
LINE
  8
2_FEATURE
 62
7
  6
CONTINUOUS
 10
79.8840778689
 20
212.8119157829
 11
79.9278279523
 21
212.7574463317
  0
LINE
  8
2_FEATURE
 62
7
  6
CONTINUOUS
 10
80.1465778689
 20
212.8119157829
 11
80.1903279523
 21
212.7574463317
  0
LINE
  8
0
 62
7
  6
CONTINUOUS
 10
70.3528278689
 20
245.3594024867
 11
70.3528278689
 21
224.6594024867
  0
POLYLINE
  8
1_AXIS
 62
7
  6
CONTINUOUS
 66
1
 70
0
  0
VERTEX
  8
1_AXIS
 62
7
  6
CONTINUOUS
 10
60.1128278689
 20
212.7236732606
  0
VERTEX
  8
1_AXIS
 62
7
  6
CONTINUOUS
 10
60.1323160229
 20
212.7570625379
  0
VERTEX
  8
1_AXIS
 62
7
  6
CONTINUOUS
 10
60.1905550106
 20
212.795854433
  0
VERTEX
  8
1_AXIS
 62
7
  6
CONTINUOUS
 10
60.2840791906
 20
212.8361488567
  0
VERTEX
  8
1_AXIS
 62
7
  6
CONTINUOUS
 10
60.4073575705
 20
212.8736094293
  0
VERTEX
  8
1_AXIS
 62
7
  6
CONTINUOUS
 10
60.5529646776
 20
212.9038186806
  0
VERTEX
  8
1_AXIS
 62
7
  6
CONTINUOUS
 10
60.7120285757
 20
212.9232084002
  0
VERTEX
  8
1_AXIS
 62
7
  6
CONTINUOUS
 10
60.8778658882
 20
212.9298927119
  0
VERTEX
  8
1_AXIS
 62
7
  6
CONTINUOUS
 10
61.0436534545
 20
212.923206269
  0
VERTEX
  8
1_AXIS
 62
7
  6
CONTINUOUS
 10
61.2027736394
 20
212.9038051158
  0
VERTEX
  8
1_AXIS
 62
7
  6
CONTINUOUS
 10
61.3483302267
 20
212.8736012779
  0
VERTEX
  8
1_AXIS
 62
7
  6
CONTINUOUS
 10
61.4716139316
 20
212.8361353224
  0
VERTEX
  8
1_AXIS
 62
7
  6
CONTINUOUS
 10
61.5651295035
 20
212.7958393302
  0
VERTEX
  8
1_AXIS
 62
7
  6
CONTINUOUS
 10
61.6233740818
 20
212.7570303384
  0
VERTEX
  8
1_AXIS
 62
7
  6
CONTINUOUS
 10
61.6428278689
 20
212.7236732606
  0
SEQEND
  0
POLYLINE
  8
0
 62
7
  6
CONTINUOUS
 66
1
 70
0
  0
VERTEX
  8
0
 62
7
  6
CONTINUOUS
 10
73.4528278689
 20
218.3600674206
  0
VERTEX
  8
0
 62
7
  6
CONTINUOUS
 10
73.4539579794
 20
218.3269297513
  0
VERTEX
  8
0
 62
7
  6
CONTINUOUS
 10
73.4573634028
 20
218.2933366959
  0
VERTEX
  8
0
 62
7
  6
CONTINUOUS
 10
73.4630661195
 20
218.2594024867
  0
SEQEND
  0
LINE
  8
0
 62
7
  6
CONTINUOUS
 10
73.4528278689
 20
213.1594024867
 11
73.4528278689
 21
220.6594024867
  0
POLYLINE
  8
0
 62
7
  6
CONTINUOUS
 66
1
 70
0
  0
VERTEX
  8
0
 62
7
  6
CONTINUOUS
 10
64.2528278689
 20
217.9231311116
  0
VERTEX
  8
0
 62
7
  6
CONTINUOUS
 10
64.2697194403
 20
217.9385151546
  0
VERTEX
  8
0
 62
7
  6
CONTINUOUS
 10
64.3193636155
 20
217.9526562043
  0
VERTEX
  8
0
 62
7
  6
CONTINUOUS
 10
64.3985651523
 20
217.9646644301
  0
VERTEX
  8
0
 62
7
  6
CONTINUOUS
 10
64.5020732599
 20
217.9738021721
  0
VERTEX
  8
0
 62
7
  6
CONTINUOUS
 10
64.6229050177
 20
217.9795166637
  0
VERTEX
  8
0
 62
7
  6
CONTINUOUS
 10
64.7528278689
 20
217.9814621557
  0
SEQEND
  0
LINE
  8
0
 62
7
  6
CONTINUOUS
 10
75.4028278689
 20
216.4024843284
 11
75.4028278689
 21
213.1594024867
  0
LINE
  8
2_FEATURE
 62
7
  6
CONTINUOUS
 10
76.6028278689
 20
213.0214714755
 11
76.6028278689
 21
212.6594057194
  0
LINE
  8
2_FEATURE
 62
7
  6
CONTINUOUS
 10
76.8653278689
 20
212.6639416187
 11
76.8653278689
 21
213.0214714755
  0
LINE
  8
0
 62
7
  6
CONTINUOUS
 10
76.9028278689
 20
245.3594024867
 11
76.9028278689
 21
224.6594024867
  0
POLYLINE
  8
0
 62
7
  6
CONTINUOUS
 66
1
 70
0
  0
VERTEX
  8
0
 62
7
  6
CONTINUOUS
 10
76.9028278689
 20
245.3594024867
  0
VERTEX
  8
0
 62
7
  6
CONTINUOUS
 10
76.9064371699
 20
245.4194187486
  0
VERTEX
  8
0
 62
7
  6
CONTINUOUS
 10
76.9362270183
 20
245.5404432967
  0
VERTEX
  8
0
 62
7
  6
CONTINUOUS
 10
77.0008439842
 20
245.6639600681
  0
VERTEX
  8
0
 62
7
  6
CONTINUOUS
 10
77.1108911088
 20
245.7896852355
  0
VERTEX
  8
0
 62
7
  6
CONTINUOUS
 10
77.2828531803
 20
245.9137697998
  0
VERTEX
  8
0
 62
7
  6
CONTINUOUS
 10
77.5362866589
 20
246.0265006833
  0
VERTEX
  8
0
 62
7
  6
CONTINUOUS
 10
77.8807698968
 20
246.1114588862
  0
VERTEX
  8
0
 62
7
  6
CONTINUOUS
 10
78.2945030523
 20
246.1514184625
  0
VERTEX
  8
0
 62
7
  6
CONTINUOUS
 10
78.5111587921
 20
246.1514182694
  0
VERTEX
  8
0
 62
7
  6
CONTINUOUS
 10
78.9248903571
 20
246.1114581277
  0
VERTEX
  8
0
 62
7
  6
CONTINUOUS
 10
79.2693722389
 20
246.0264996065
  0
VERTEX
  8
0
 62
7
  6
CONTINUOUS
 10
79.5228042077
 20
245.91376885
  0
VERTEX
  8
0
 62
7
  6
CONTINUOUS
 10
79.6947658816
 20
245.7896840904
  0
VERTEX
  8
0
 62
7
  6
CONTINUOUS
 10
79.8048125926
 20
245.6639588362
  0
VERTEX
  8
0
 62
7
  6
CONTINUOUS
 10
79.8694293121
 20
245.5404417206
  0
VERTEX
  8
0
 62
7
  6
CONTINUOUS
 10
79.8992186993
 20
245.4194176571
  0
VERTEX
  8
0
 62
7
  6
CONTINUOUS
 10
79.9028278689
 20
245.3594024867
  0
SEQEND
  0
POLYLINE
  8
0
 62
7
  6
CONTINUOUS
 66
1
 70
0
  0
VERTEX
  8
0
 62
7
  6
CONTINUOUS
 10
92.5528278689
 20
217.9231311116
  0
VERTEX
  8
0
 62
7
  6
CONTINUOUS
 10
92.5359362974
 20
217.9385151546
  0
VERTEX
  8
0
 62
7
  6
CONTINUOUS
 10
92.4862921222
 20
217.9526562043
  0
VERTEX
  8
0
 62
7
  6
CONTINUOUS
 10
92.4070905854
 20
217.9646644301
  0
VERTEX
  8
0
 62
7
  6
CONTINUOUS
 10
92.3035824778
 20
217.9738021721
  0
VERTEX
  8
0
 62
7
  6
CONTINUOUS
 10
92.18275072
 20
217.9795166637
  0
VERTEX
  8
0
 62
7
  6
CONTINUOUS
 10
92.0528278689
 20
217.9814621557
  0
SEQEND
  0
LINE
  8
2_FEATURE
 62
7
  6
CONTINUOUS
 10
77.6528278689
 20
212.6639416187
 11
77.6528278689
 21
212.6664855637
  0
LINE
  8
2_FEATURE
 62
7
  6
CONTINUOUS
 10
77.6965778271
 20
212.8791677216
 11
77.6965778271
 21
213.0151466247
  0
LINE
  8
2_FEATURE
 62
7
  6
CONTINUOUS
 10
77.8278278271
 20
212.855294238
 11
77.8278278271
 21
212.9961720543
  0
LINE
  8
2_FEATURE
 62
7
  6
CONTINUOUS
 10
77.8715779106
 20
212.6611759707
 11
77.8715779106
 21
212.6782086885
  0
LINE
  8
2_FEATURE
 62
7
  6
CONTINUOUS
 10
77.9153278689
 20
212.8119157829
 11
77.9153278689
 21
212.968518088
  0
LINE
  8
2_FEATURE
 62
7
  6
CONTINUOUS
 10
77.9590778271
 20
212.7152728833
 11
77.9590778271
 21
212.9471889906
  0
LINE
  8
2_FEATURE
 62
7
  6
CONTINUOUS
 10
78.0465778689
 20
212.6605337901
 11
78.0465778689
 21
212.860588326
  0
LINE
  8
2_FEATURE
 62
7
  6
CONTINUOUS
 10
78.1778278689
 20
212.6775631654
 11
78.1778278689
 21
212.8119157829
  0
LINE
  8
2_FEATURE
 62
7
  6
CONTINUOUS
 10
78.2215778271
 20
212.7574463317
 11
78.2215778271
 21
212.7038820481
  0
LINE
  8
2_FEATURE
 62
7
  6
CONTINUOUS
 10
78.5715778689
 20
213.0214714755
 11
78.5715778689
 21
212.6594057194
  0
LINE
  8
2_FEATURE
 62
7
  6
CONTINUOUS
 10
78.8340778689
 20
212.6639416187
 11
78.8340778689
 21
213.0214714755
  0
LINE
  8
2_FEATURE
 62
7
  6
CONTINUOUS
 10
79.6215778689
 20
212.6639416187
 11
79.6215778689
 21
212.6664855637
  0
LINE
  8
2_FEATURE
 62
7
  6
CONTINUOUS
 10
79.6653279523
 20
212.8791677216
 11
79.6653279523
 21
213.015146603
  0
LINE
  8
2_FEATURE
 62
7
  6
CONTINUOUS
 10
79.7965779523
 20
212.855294238
 11
79.7965779523
 21
212.9961720217
  0
LINE
  8
2_FEATURE
 62
7
  6
CONTINUOUS
 10
79.8403277854
 20
212.6611759707
 11
79.8403277854
 21
212.6782086592
  0
LINE
  8
2_FEATURE
 62
7
  6
CONTINUOUS
 10
79.8840778689
 20
212.8119157829
 11
79.8840778689
 21
212.9685180422
  0
LINE
  8
0
 62
7
  6
CONTINUOUS
 10
79.9028278689
 20
245.3594024867
 11
79.9028278689
 21
224.6594024867
  0
LINE
  8
2_FEATURE
 62
7
  6
CONTINUOUS
 10
79.9278279523
 20
212.7152728833
 11
79.9278279523
 21
212.9471888991
  0
LINE
  8
2_FEATURE
 62
7
  6
CONTINUOUS
 10
80.0153278689
 20
212.6605337901
 11
80.0153278689
 21
212.860588326
  0
LINE
  8
2_FEATURE
 62
7
  6
CONTINUOUS
 10
80.1465778689
 20
212.6775631654
 11
80.1465778689
 21
212.8119157829
  0
LINE
  8
2_FEATURE
 62
7
  6
CONTINUOUS
 10
80.1903279523
 20
212.7574463317
 11
80.1903279523
 21
212.7038820481
  0
LINE
  8
0
 62
7
  6
CONTINUOUS
 10
81.4028278689
 20
216.402491311
 11
81.4028278689
 21
213.1594024867
  0
POLYLINE
  8
0
 62
7
  6
CONTINUOUS
 66
1
 70
0
  0
VERTEX
  8
0
 62
7
  6
CONTINUOUS
 10
73.4528278689
 20
216.0956738618
  0
VERTEX
  8
0
 62
7
  6
CONTINUOUS
 10
73.4359362974
 20
216.0802898189
  0
VERTEX
  8
0
 62
7
  6
CONTINUOUS
 10
73.3862921222
 20
216.0661487691
  0
VERTEX
  8
0
 62
7
  6
CONTINUOUS
 10
73.3070905854
 20
216.0541405433
  0
VERTEX
  8
0
 62
7
  6
CONTINUOUS
 10
73.2035824778
 20
216.0450028013
  0
VERTEX
  8
0
 62
7
  6
CONTINUOUS
 10
73.08275072
 20
216.0392883097
  0
VERTEX
  8
0
 62
7
  6
CONTINUOUS
 10
72.9528278689
 20
216.0373428178
  0
SEQEND
  0
POLYLINE
  8
0
 62
7
  6
CONTINUOUS
 66
1
 70
0
  0
VERTEX
  8
0
 62
7
  6
CONTINUOUS
 10
102.7028278689
 20
216.0956738618
  0
VERTEX
  8
0
 62
7
  6
CONTINUOUS
 10
102.7197194403
 20
216.0802898189
  0
VERTEX
  8
0
 62
7
  6
CONTINUOUS
 10
102.7693636155
 20
216.0661487691
  0
VERTEX
  8
0
 62
7
  6
CONTINUOUS
 10
102.8485651523
 20
216.0541405433
  0
VERTEX
  8
0
 62
7
  6
CONTINUOUS
 10
102.9520732599
 20
216.0450028013
  0
VERTEX
  8
0
 62
7
  6
CONTINUOUS
 10
103.0729050177
 20
216.0392883097
  0
VERTEX
  8
0
 62
7
  6
CONTINUOUS
 10
103.2028278689
 20
216.0373428178
  0
SEQEND
  0
LINE
  8
0
 62
7
  6
CONTINUOUS
 10
83.3528278689
 20
213.1594024867
 11
83.3528278689
 21
220.6594024867
  0
POLYLINE
  8
0
 62
7
  6
CONTINUOUS
 66
1
 70
0
  0
VERTEX
  8
0
 62
7
  6
CONTINUOUS
 10
86.4528278689
 20
245.3594024867
  0
VERTEX
  8
0
 62
7
  6
CONTINUOUS
 10
86.4564371699
 20
245.4194187486
  0
VERTEX
  8
0
 62
7
  6
CONTINUOUS
 10
86.4862270183
 20
245.5404432967
  0
VERTEX
  8
0
 62
7
  6
CONTINUOUS
 10
86.5508439842
 20
245.6639600681
  0
VERTEX
  8
0
 62
7
  6
CONTINUOUS
 10
86.6608911088
 20
245.7896852355
  0
VERTEX
  8
0
 62
7
  6
CONTINUOUS
 10
86.8328531803
 20
245.9137697998
  0
VERTEX
  8
0
 62
7
  6
CONTINUOUS
 10
87.0862866589
 20
246.0265006833
  0
VERTEX
  8
0
 62
7
  6
CONTINUOUS
 10
87.4307698968
 20
246.1114588862
  0
VERTEX
  8
0
 62
7
  6
CONTINUOUS
 10
87.8445030523
 20
246.1514184625
  0
VERTEX
  8
0
 62
7
  6
CONTINUOUS
 10
88.0611587921
 20
246.1514182694
  0
VERTEX
  8
0
 62
7
  6
CONTINUOUS
 10
88.4748903571
 20
246.1114581277
  0
VERTEX
  8
0
 62
7
  6
CONTINUOUS
 10
88.8193722389
 20
246.0264996065
  0
VERTEX
  8
0
 62
7
  6
CONTINUOUS
 10
89.0728042077
 20
245.91376885
  0
VERTEX
  8
0
 62
7
  6
CONTINUOUS
 10
89.2447658816
 20
245.7896840904
  0
VERTEX
  8
0
 62
7
  6
CONTINUOUS
 10
89.3548125926
 20
245.6639588362
  0
VERTEX
  8
0
 62
7
  6
CONTINUOUS
 10
89.4194293121
 20
245.5404417206
  0
VERTEX
  8
0
 62
7
  6
CONTINUOUS
 10
89.4492186993
 20
245.4194176571
  0
VERTEX
  8
0
 62
7
  6
CONTINUOUS
 10
89.4528278689
 20
245.3594024867
  0
SEQEND
  0
POLYLINE
  8
0
 62
7
  6
CONTINUOUS
 66
1
 70
0
  0
VERTEX
  8
0
 62
7
  6
CONTINUOUS
 10
83.3425896182
 20
218.2594024867
  0
VERTEX
  8
0
 62
7
  6
CONTINUOUS
 10
83.3482927414
 20
218.293339714
  0
VERTEX
  8
0
 62
7
  6
CONTINUOUS
 10
83.3516979426
 20
218.3269324695
  0
VERTEX
  8
0
 62
7
  6
CONTINUOUS
 10
83.3528278689
 20
218.3600674206
  0
SEQEND
  0
LINE
  8
0
 62
7
  6
CONTINUOUS
 10
104.4485430058
 20
246.5594024867
 11
33.2571127319
 21
246.5594024867
  0
LINE
  8
0
 62
7
  6
CONTINUOUS
 10
86.4528278689
 20
245.3594024867
 11
86.4528278689
 21
224.6594024867
  0
POLYLINE
  8
0
 62
7
  6
CONTINUOUS
 66
1
 70
0
  0
VERTEX
  8
0
 62
7
  6
CONTINUOUS
 10
83.3528278689
 20
217.9231311116
  0
VERTEX
  8
0
 62
7
  6
CONTINUOUS
 10
83.3697194403
 20
217.9385151546
  0
VERTEX
  8
0
 62
7
  6
CONTINUOUS
 10
83.4193636155
 20
217.9526562043
  0
VERTEX
  8
0
 62
7
  6
CONTINUOUS
 10
83.4985651523
 20
217.9646644301
  0
VERTEX
  8
0
 62
7
  6
CONTINUOUS
 10
83.6020732599
 20
217.9738021721
  0
VERTEX
  8
0
 62
7
  6
CONTINUOUS
 10
83.7229050177
 20
217.9795166637
  0
VERTEX
  8
0
 62
7
  6
CONTINUOUS
 10
83.8528278689
 20
217.9814621557
  0
SEQEND
  0
LINE
  8
2_FEATURE
 62
7
  6
CONTINUOUS
 10
77.9590778271
 20
212.7152728833
 11
77.9153278689
 21
212.6850357498
  0
LINE
  8
2_FEATURE
 62
7
  6
CONTINUOUS
 10
78.2215778271
 20
212.7038820481
 11
78.1778278689
 21
212.6775631654
  0
LINE
  8
0
 62
7
  6
CONTINUOUS
 10
89.4528278689
 20
245.3594024867
 11
89.4528278689
 21
224.6594024867
  0
LINE
  8
2_FEATURE
 62
7
  6
CONTINUOUS
 10
79.9278279523
 20
212.7152728833
 11
79.8840778689
 21
212.6850357498
  0
LINE
  8
2_FEATURE
 62
7
  6
CONTINUOUS
 10
80.1903279523
 20
212.7038820481
 11
80.1465778689
 21
212.6775631654
  0
POLYLINE
  8
0
 62
7
  6
CONTINUOUS
 66
1
 70
0
  0
VERTEX
  8
0
 62
7
  6
CONTINUOUS
 10
92.5528278689
 20
218.3600674206
  0
VERTEX
  8
0
 62
7
  6
CONTINUOUS
 10
92.5539579794
 20
218.3269297513
  0
VERTEX
  8
0
 62
7
  6
CONTINUOUS
 10
92.5573634028
 20
218.2933366959
  0
VERTEX
  8
0
 62
7
  6
CONTINUOUS
 10
92.5630661195
 20
218.2594024867
  0
SEQEND
  0
LINE
  8
0
 62
7
  6
CONTINUOUS
 10
92.5528278689
 20
213.1594024867
 11
92.5528278689
 21
220.6594024867
  0
LINE
  8
0
 62
7
  6
CONTINUOUS
 10
94.5028278689
 20
216.4024847572
 11
94.5028278689
 21
213.1594024867
  0
LINE
  8
2_FEATURE
 62
7
  6
CONTINUOUS
 10
94.9028278689
 20
213.8654190035
 11
94.9028278689
 21
212.6594024867
  0
LINE
  8
0
 62
7
  6
CONTINUOUS
 10
96.0028278689
 20
245.3594024867
 11
96.0028278689
 21
224.6594024867
  0
POLYLINE
  8
0
 62
7
  6
CONTINUOUS
 66
1
 70
0
  0
VERTEX
  8
0
 62
7
  6
CONTINUOUS
 10
96.0028278689
 20
245.3594024867
  0
VERTEX
  8
0
 62
7
  6
CONTINUOUS
 10
96.0064371699
 20
245.4194187486
  0
VERTEX
  8
0
 62
7
  6
CONTINUOUS
 10
96.0362270183
 20
245.5404432967
  0
VERTEX
  8
0
 62
7
  6
CONTINUOUS
 10
96.1008439842
 20
245.6639600681
  0
VERTEX
  8
0
 62
7
  6
CONTINUOUS
 10
96.2108911088
 20
245.7896852355
  0
VERTEX
  8
0
 62
7
  6
CONTINUOUS
 10
96.3828531803
 20
245.9137697998
  0
VERTEX
  8
0
 62
7
  6
CONTINUOUS
 10
96.6362866589
 20
246.0265006833
  0
VERTEX
  8
0
 62
7
  6
CONTINUOUS
 10
96.9807698968
 20
246.1114588862
  0
VERTEX
  8
0
 62
7
  6
CONTINUOUS
 10
97.3945030523
 20
246.1514184625
  0
VERTEX
  8
0
 62
7
  6
CONTINUOUS
 10
97.6111587921
 20
246.1514182694
  0
VERTEX
  8
0
 62
7
  6
CONTINUOUS
 10
98.0248903571
 20
246.1114581277
  0
VERTEX
  8
0
 62
7
  6
CONTINUOUS
 10
98.3693722389
 20
246.0264996065
  0
VERTEX
  8
0
 62
7
  6
CONTINUOUS
 10
98.6228042077
 20
245.91376885
  0
VERTEX
  8
0
 62
7
  6
CONTINUOUS
 10
98.7947658816
 20
245.7896840904
  0
VERTEX
  8
0
 62
7
  6
CONTINUOUS
 10
98.9048125926
 20
245.6639588362
  0
VERTEX
  8
0
 62
7
  6
CONTINUOUS
 10
98.9694293121
 20
245.5404417206
  0
VERTEX
  8
0
 62
7
  6
CONTINUOUS
 10
98.9992186993
 20
245.4194176571
  0
VERTEX
  8
0
 62
7
  6
CONTINUOUS
 10
99.0028278689
 20
245.3594024867
  0
SEQEND
  0
POLYLINE
  8
2_FEATURE
 62
7
  6
CONTINUOUS
 66
1
 70
0
  0
VERTEX
  8
2_FEATURE
 62
7
  6
CONTINUOUS
 10
94.5028278689
 20
213.3935487666
  0
VERTEX
  8
2_FEATURE
 62
7
  6
CONTINUOUS
 10
94.5202997757
 20
213.5772741591
  0
VERTEX
  8
2_FEATURE
 62
7
  6
CONTINUOUS
 10
94.567322833
 20
213.7536702562
  0
SEQEND
  0
POLYLINE
  8
0
 62
7
  6
CONTINUOUS
 66
1
 70
0
  0
VERTEX
  8
0
 62
7
  6
CONTINUOUS
 10
92.5528278689
 20
216.0956738618
  0
VERTEX
  8
0
 62
7
  6
CONTINUOUS
 10
92.5359362974
 20
216.0802898189
  0
VERTEX
  8
0
 62
7
  6
CONTINUOUS
 10
92.4862921222
 20
216.0661487691
  0
VERTEX
  8
0
 62
7
  6
CONTINUOUS
 10
92.4070905854
 20
216.0541405433
  0
VERTEX
  8
0
 62
7
  6
CONTINUOUS
 10
92.3035824778
 20
216.0450028013
  0
VERTEX
  8
0
 62
7
  6
CONTINUOUS
 10
92.18275072
 20
216.0392883097
  0
VERTEX
  8
0
 62
7
  6
CONTINUOUS
 10
92.0528278689
 20
216.0373428178
  0
SEQEND
  0
LINE
  8
0
 62
7
  6
CONTINUOUS
 10
99.0028278689
 20
245.3594024867
 11
99.0028278689
 21
224.6594024867
  0
POLYLINE
  8
2_FEATURE
 62
7
  6
CONTINUOUS
 66
1
 70
0
  0
VERTEX
  8
2_FEATURE
 62
7
  6
CONTINUOUS
 10
94.567322833
 20
213.7536702562
  0
VERTEX
  8
2_FEATURE
 62
7
  6
CONTINUOUS
 10
94.6050169369
 20
213.8459387071
  0
VERTEX
  8
2_FEATURE
 62
7
  6
CONTINUOUS
 10
94.6449119391
 20
213.9175124195
  0
VERTEX
  8
2_FEATURE
 62
7
  6
CONTINUOUS
 10
94.6856817281
 20
213.9700299998
  0
VERTEX
  8
2_FEATURE
 62
7
  6
CONTINUOUS
 10
94.7263628451
 20
214.0046846037
  0
VERTEX
  8
2_FEATURE
 62
7
  6
CONTINUOUS
 10
94.7645055944
 20
214.0219567504
  0
VERTEX
  8
2_FEATURE
 62
7
  6
CONTINUOUS
 10
94.8004835499
 20
214.0242658141
  0
VERTEX
  8
2_FEATURE
 62
7
  6
CONTINUOUS
 10
94.8355596098
 20
214.011372874
  0
VERTEX
  8
2_FEATURE
 62
7
  6
CONTINUOUS
 10
94.8675990861
 20
213.9812622809
  0
VERTEX
  8
2_FEATURE
 62
7
  6
CONTINUOUS
 10
94.8922547738
 20
213.9329269534
  0
VERTEX
  8
2_FEATURE
 62
7
  6
CONTINUOUS
 10
94.9028278689
 20
213.8654190035
  0
SEQEND
  0
LINE
  8
0
 62
7
  6
CONTINUOUS
 10
100.0528278689
 20
213.1594024867
 11
100.0528278689
 21
218.2594024867
  0
POLYLINE
  8
0
 62
7
  6
CONTINUOUS
 66
1
 70
0
  0
VERTEX
  8
0
 62
7
  6
CONTINUOUS
 10
102.7028278689
 20
217.9231311116
  0
VERTEX
  8
0
 62
7
  6
CONTINUOUS
 10
102.7197194403
 20
217.9385151546
  0
VERTEX
  8
0
 62
7
  6
CONTINUOUS
 10
102.7693636155
 20
217.9526562043
  0
VERTEX
  8
0
 62
7
  6
CONTINUOUS
 10
102.8485651523
 20
217.9646644301
  0
VERTEX
  8
0
 62
7
  6
CONTINUOUS
 10
102.9520732599
 20
217.9738021721
  0
VERTEX
  8
0
 62
7
  6
CONTINUOUS
 10
103.0729050177
 20
217.9795166637
  0
VERTEX
  8
0
 62
7
  6
CONTINUOUS
 10
103.2028278689
 20
217.9814621557
  0
SEQEND
  0
LINE
  8
0
 62
7
  6
CONTINUOUS
 10
102.7028278689
 20
220.6594024867
 11
102.7028278689
 21
213.1594024867
  0
POLYLINE
  8
0
 62
7
  6
CONTINUOUS
 66
1
 70
0
  0
VERTEX
  8
0
 62
7
  6
CONTINUOUS
 10
102.6841803548
 20
218.2594024867
  0
VERTEX
  8
0
 62
7
  6
CONTINUOUS
 10
102.6945884783
 20
218.3054249562
  0
VERTEX
  8
0
 62
7
  6
CONTINUOUS
 10
102.7007796539
 20
218.3506003333
  0
VERTEX
  8
0
 62
7
  6
CONTINUOUS
 10
102.7028278689
 20
218.3946791821
  0
SEQEND
  0
LINE
  8
0
 62
7
  6
CONTINUOUS
 10
106.653706318
 20
221.0587421864
 11
106.4484668519
 21
244.5768555577
  0
LINE
  8
0
 62
7
  6
CONTINUOUS
 10
106.6528278689
 20
213.1594052746
 11
106.6528278689
 21
220.6594024867
  0
LINE
  8
0
 62
7
  6
CONTINUOUS
 10
106.8528278689
 20
214.8594024867
 11
106.8528278689
 21
220.6594024867
  0
LINE
  8
0
 62
7
  6
CONTINUOUS
 10
30.8528278689
 20
123.0002552315
 11
30.8528278689
 21
132.0668282241
  0
LINE
  8
0
 62
7
  6
CONTINUOUS
 10
31.0519494196
 20
127.1081623096
 11
31.0519494196
 21
129.241788523
  0
LINE
  8
0
 62
7
  6
CONTINUOUS
 10
31.0528278689
 20
114.9099754098
 11
31.0528278689
 21
122.4002552315
  0
LINE
  8
0
 62
7
  6
CONTINUOUS
 10
31.0528278689
 20
132.6696443001
 11
31.0528278689
 21
133.5883450763
  0
POLYLINE
  8
0
 62
7
  6
CONTINUOUS
 66
1
 70
0
  0
VERTEX
  8
0
 62
7
  6
CONTINUOUS
 10
31.0519494371
 20
129.2417888227
  0
VERTEX
  8
0
 62
7
  6
CONTINUOUS
 10
31.0576961779
 20
129.3900708335
  0
VERTEX
  8
0
 62
7
  6
CONTINUOUS
 10
31.1083782147
 20
129.6914778302
  0
VERTEX
  8
0
 62
7
  6
CONTINUOUS
 10
31.1562537586
 20
129.8450701537
  0
VERTEX
  8
0
 62
7
  6
CONTINUOUS
 10
31.2875283162
 20
130.146873945
  0
VERTEX
  8
0
 62
7
  6
CONTINUOUS
 10
31.3528278689
 20
130.2791572406
  0
SEQEND
  0
LINE
  8
0
 62
7
  6
CONTINUOUS
 10
35.0028278689
 20
114.9099754098
 11
35.0028278689
 21
121.7616057434
  0
LINE
  8
0
 62
7
  6
CONTINUOUS
 10
36.0528278689
 20
134.5883450763
 11
36.0528278689
 21
141.4399754098
  0
POLYLINE
  8
0
 62
7
  6
CONTINUOUS
 66
1
 70
0
  0
VERTEX
  8
0
 62
7
  6
CONTINUOUS
 10
31.3528278689
 20
130.2791572406
  0
VERTEX
  8
0
 62
7
  6
CONTINUOUS
 10
31.6437232975
 20
130.7888096261
  0
VERTEX
  8
0
 62
7
  6
CONTINUOUS
 10
32.0441390794
 20
131.3749754098
  0
SEQEND
  0
LINE
  8
0
 62
7
  6
CONTINUOUS
 10
30.9366955014
 20
132.3440174244
 11
30.9689602363
 21
132.3924550999
  0
POLYLINE
  8
0
 62
7
  6
CONTINUOUS
 66
1
 70
0
  0
VERTEX
  8
0
 62
7
  6
CONTINUOUS
 10
36.0528278689
 20
138.9247202812
  0
VERTEX
  8
0
 62
7
  6
CONTINUOUS
 10
36.069599992
 20
138.9455141019
  0
VERTEX
  8
0
 62
7
  6
CONTINUOUS
 10
36.1189916605
 20
138.9646600644
  0
VERTEX
  8
0
 62
7
  6
CONTINUOUS
 10
36.1979780375
 20
138.9809519402
  0
VERTEX
  8
0
 62
7
  6
CONTINUOUS
 10
36.3014452895
 20
138.9933758151
  0
VERTEX
  8
0
 62
7
  6
CONTINUOUS
 10
36.4224756006
 20
139.0011609183
  0
VERTEX
  8
0
 62
7
  6
CONTINUOUS
 10
36.5528278689
 20
139.0038158909
  0
SEQEND
  0
POLYLINE
  8
0
 62
7
  6
CONTINUOUS
 66
1
 70
0
  0
VERTEX
  8
0
 62
7
  6
CONTINUOUS
 10
32.0441390794
 20
124.9749754098
  0
VERTEX
  8
0
 62
7
  6
CONTINUOUS
 10
31.6423840492
 20
125.5632403067
  0
VERTEX
  8
0
 62
7
  6
CONTINUOUS
 10
31.3528278689
 20
126.0707935736
  0
SEQEND
  0
POLYLINE
  8
0
 62
7
  6
CONTINUOUS
 66
1
 70
0
  0
VERTEX
  8
0
 62
7
  6
CONTINUOUS
 10
31.3528278689
 20
126.0707935736
  0
VERTEX
  8
0
 62
7
  6
CONTINUOUS
 10
31.2365714333
 20
126.3103237358
  0
VERTEX
  8
0
 62
7
  6
CONTINUOUS
 10
31.1331543029
 20
126.5730552149
  0
VERTEX
  8
0
 62
7
  6
CONTINUOUS
 10
31.070556291
 20
126.8446196735
  0
VERTEX
  8
0
 62
7
  6
CONTINUOUS
 10
31.0519494356
 20
127.1081619835
  0
SEQEND
  0
LINE
  8
0
 62
7
  6
CONTINUOUS
 10
44.8028278689
 20
134.5883450763
 11
44.8028278689
 21
141.4399754098
  0
POLYLINE
  8
0
 62
7
  6
CONTINUOUS
 66
1
 70
0
  0
VERTEX
  8
0
 62
7
  6
CONTINUOUS
 10
45.1528278689
 20
117.4252305384
  0
VERTEX
  8
0
 62
7
  6
CONTINUOUS
 10
45.169599992
 20
117.4044367177
  0
VERTEX
  8
0
 62
7
  6
CONTINUOUS
 10
45.2189916605
 20
117.3852907553
  0
VERTEX
  8
0
 62
7
  6
CONTINUOUS
 10
45.2979780375
 20
117.3689988795
  0
VERTEX
  8
0
 62
7
  6
CONTINUOUS
 10
45.4014452895
 20
117.3565750046
  0
VERTEX
  8
0
 62
7
  6
CONTINUOUS
 10
45.5224756006
 20
117.3487899014
  0
VERTEX
  8
0
 62
7
  6
CONTINUOUS
 10
45.6528278689
 20
117.3461349288
  0
SEQEND
  0
LINE
  8
0
 62
7
  6
CONTINUOUS
 10
45.1528278689
 20
121.7616057434
 11
45.1528278689
 21
114.9099754098
  0
POLYLINE
  8
0
 62
7
  6
CONTINUOUS
 66
1
 70
0
  0
VERTEX
  8
0
 62
7
  6
CONTINUOUS
 10
35.0028278689
 20
117.4252305384
  0
VERTEX
  8
0
 62
7
  6
CONTINUOUS
 10
34.9860557457
 20
117.4044367177
  0
VERTEX
  8
0
 62
7
  6
CONTINUOUS
 10
34.9366640772
 20
117.3852907553
  0
VERTEX
  8
0
 62
7
  6
CONTINUOUS
 10
34.8576777002
 20
117.3689988795
  0
VERTEX
  8
0
 62
7
  6
CONTINUOUS
 10
34.7542104483
 20
117.3565750046
  0
VERTEX
  8
0
 62
7
  6
CONTINUOUS
 10
34.6331801371
 20
117.3487899014
  0
VERTEX
  8
0
 62
7
  6
CONTINUOUS
 10
34.5028278689
 20
117.3461349288
  0
SEQEND
  0
POLYLINE
  8
0
 62
7
  6
CONTINUOUS
 66
1
 70
0
  0
VERTEX
  8
0
 62
7
  6
CONTINUOUS
 10
54.7028278689
 20
138.9247202812
  0
VERTEX
  8
0
 62
7
  6
CONTINUOUS
 10
54.719599992
 20
138.9455141019
  0
VERTEX
  8
0
 62
7
  6
CONTINUOUS
 10
54.7689916605
 20
138.9646600644
  0
VERTEX
  8
0
 62
7
  6
CONTINUOUS
 10
54.8479780375
 20
138.9809519402
  0
VERTEX
  8
0
 62
7
  6
CONTINUOUS
 10
54.9514452895
 20
138.9933758151
  0
VERTEX
  8
0
 62
7
  6
CONTINUOUS
 10
55.0724756006
 20
139.0011609183
  0
VERTEX
  8
0
 62
7
  6
CONTINUOUS
 10
55.2028278689
 20
139.0038158909
  0
SEQEND
  0
LINE
  8
0
 62
7
  6
CONTINUOUS
 10
54.3528278689
 20
121.7616057434
 11
54.3528278689
 21
114.9099754098
  0
LINE
  8
0
 62
7
  6
CONTINUOUS
 10
54.7028278689
 20
134.5883449585
 11
54.7028278689
 21
141.4399754098
  0
LINE
  8
0
 62
7
  6
CONTINUOUS
 10
31.5528278689
 20
114.4099754098
 11
34.5028278689
 21
114.4099754098
  0
LINE
  8
0
 62
7
  6
CONTINUOUS
 10
45.6528278689
 20
114.4099754098
 11
53.8528278689
 21
114.4099754098
  0
LINE
  8
0
 62
7
  6
CONTINUOUS
 10
64.7528278689
 20
114.4099754098
 11
72.9528278689
 21
114.4099754098
  0
LINE
  8
0
 62
7
  6
CONTINUOUS
 10
83.8528278689
 20
114.4099754098
 11
92.0528278689
 21
114.4099754098
  0
LINE
  8
0
 62
7
  6
CONTINUOUS
 10
103.2028278689
 20
114.4099754098
 11
106.1528278689
 21
114.4099754098
  0
POLYLINE
  8
0
 62
7
  6
CONTINUOUS
 66
1
 70
0
  0
VERTEX
  8
0
 62
7
  6
CONTINUOUS
 10
106.1528278689
 20
117.3461349288
  0
VERTEX
  8
0
 62
7
  6
CONTINUOUS
 10
106.2831801371
 20
117.3487899014
  0
VERTEX
  8
0
 62
7
  6
CONTINUOUS
 10
106.4042104483
 20
117.3565750046
  0
VERTEX
  8
0
 62
7
  6
CONTINUOUS
 10
106.5076777002
 20
117.3689988795
  0
VERTEX
  8
0
 62
7
  6
CONTINUOUS
 10
106.5866640772
 20
117.3852907553
  0
VERTEX
  8
0
 62
7
  6
CONTINUOUS
 10
106.6360557457
 20
117.4044367177
  0
VERTEX
  8
0
 62
7
  6
CONTINUOUS
 10
106.6528278689
 20
117.4252305384
  0
SEQEND
  0
LINE
  8
0
 62
7
  6
CONTINUOUS
 10
31.5528278689
 20
117.3461349288
 11
34.5028278689
 21
117.3461349288
  0
LINE
  8
0
 62
7
  6
CONTINUOUS
 10
45.6528278689
 20
117.3461349288
 11
53.8528278689
 21
117.3461349288
  0
LINE
  8
0
 62
7
  6
CONTINUOUS
 10
64.7528278689
 20
117.3461349288
 11
72.9528278689
 21
117.3461349288
  0
LINE
  8
0
 62
7
  6
CONTINUOUS
 10
83.8528278689
 20
117.3461349288
 11
92.0528278689
 21
117.3461349288
  0
LINE
  8
0
 62
7
  6
CONTINUOUS
 10
103.2028278689
 20
117.3461349288
 11
106.1528278689
 21
117.3461349288
  0
POLYLINE
  8
0
 62
7
  6
CONTINUOUS
 66
1
 70
0
  0
VERTEX
  8
0
 62
7
  6
CONTINUOUS
 10
31.5528278689
 20
117.3461349288
  0
VERTEX
  8
0
 62
7
  6
CONTINUOUS
 10
31.4224756006
 20
117.3487899014
  0
VERTEX
  8
0
 62
7
  6
CONTINUOUS
 10
31.3014452895
 20
117.3565750046
  0
VERTEX
  8
0
 62
7
  6
CONTINUOUS
 10
31.1979780375
 20
117.3689988795
  0
VERTEX
  8
0
 62
7
  6
CONTINUOUS
 10
31.1189916605
 20
117.3852907553
  0
VERTEX
  8
0
 62
7
  6
CONTINUOUS
 10
31.069599992
 20
117.4044367177
  0
VERTEX
  8
0
 62
7
  6
CONTINUOUS
 10
31.0528278689
 20
117.4252305384
  0
SEQEND
  0
POLYLINE
  8
0
 62
7
  6
CONTINUOUS
 66
1
 70
0
  0
VERTEX
  8
0
 62
7
  6
CONTINUOUS
 10
44.8028278689
 20
138.9247202812
  0
VERTEX
  8
0
 62
7
  6
CONTINUOUS
 10
44.7860557457
 20
138.9455141019
  0
VERTEX
  8
0
 62
7
  6
CONTINUOUS
 10
44.7366640772
 20
138.9646600644
  0
VERTEX
  8
0
 62
7
  6
CONTINUOUS
 10
44.6576777002
 20
138.9809519402
  0
VERTEX
  8
0
 62
7
  6
CONTINUOUS
 10
44.5542104483
 20
138.9933758151
  0
VERTEX
  8
0
 62
7
  6
CONTINUOUS
 10
44.4331801371
 20
139.0011609183
  0
VERTEX
  8
0
 62
7
  6
CONTINUOUS
 10
44.3028278689
 20
139.0038158909
  0
SEQEND
  0
LINE
  8
1_AXIS
 62
2
  6
CENTER
 10
28.699059109
 20
118.6499754098
 11
112.1929974696
 21
118.6499754098
  0
POLYLINE
  8
0
 62
7
  6
CONTINUOUS
 66
1
 70
0
  0
VERTEX
  8
0
 62
7
  6
CONTINUOUS
 10
64.2528278689
 20
117.4252305384
  0
VERTEX
  8
0
 62
7
  6
CONTINUOUS
 10
64.269599992
 20
117.4044367177
  0
VERTEX
  8
0
 62
7
  6
CONTINUOUS
 10
64.3189916605
 20
117.3852907553
  0
VERTEX
  8
0
 62
7
  6
CONTINUOUS
 10
64.3979780375
 20
117.3689988795
  0
VERTEX
  8
0
 62
7
  6
CONTINUOUS
 10
64.5014452895
 20
117.3565750046
  0
VERTEX
  8
0
 62
7
  6
CONTINUOUS
 10
64.6224756006
 20
117.3487899014
  0
VERTEX
  8
0
 62
7
  6
CONTINUOUS
 10
64.7528278689
 20
117.3461349288
  0
SEQEND
  0
LINE
  8
0
 62
7
  6
CONTINUOUS
 10
102.2028278689
 20
122.2616057434
 11
93.0528278689
 21
122.2616057434
  0
LINE
  8
0
 62
7
  6
CONTINUOUS
 10
82.8528278689
 20
122.2616057434
 11
73.9528278689
 21
122.2616057434
  0
LINE
  8
0
 62
7
  6
CONTINUOUS
 10
63.7528278689
 20
122.2616057434
 11
54.8528278689
 21
122.2616057434
  0
LINE
  8
0
 62
7
  6
CONTINUOUS
 10
44.6528278689
 20
122.2616057434
 11
35.5028278689
 21
122.2616057434
  0
LINE
  8
0
 62
7
  6
CONTINUOUS
 10
63.9028278689
 20
134.5883450763
 11
63.9028278689
 21
141.4399754098
  0
LINE
  8
0
 62
7
  6
CONTINUOUS
 10
64.2528278689
 20
114.9099754098
 11
64.2528278689
 21
121.7616057434
  0
POLYLINE
  8
0
 62
7
  6
CONTINUOUS
 66
1
 70
0
  0
VERTEX
  8
0
 62
7
  6
CONTINUOUS
 10
54.3528278689
 20
117.4252305384
  0
VERTEX
  8
0
 62
7
  6
CONTINUOUS
 10
54.3360557457
 20
117.4044367177
  0
VERTEX
  8
0
 62
7
  6
CONTINUOUS
 10
54.2866640772
 20
117.3852907553
  0
VERTEX
  8
0
 62
7
  6
CONTINUOUS
 10
54.2076777002
 20
117.3689988795
  0
VERTEX
  8
0
 62
7
  6
CONTINUOUS
 10
54.1042104483
 20
117.3565750046
  0
VERTEX
  8
0
 62
7
  6
CONTINUOUS
 10
53.9831801371
 20
117.3487899014
  0
VERTEX
  8
0
 62
7
  6
CONTINUOUS
 10
53.8528278689
 20
117.3461349288
  0
SEQEND
  0
POLYLINE
  8
0
 62
7
  6
CONTINUOUS
 66
1
 70
0
  0
VERTEX
  8
0
 62
7
  6
CONTINUOUS
 10
73.8028278689
 20
138.9247202812
  0
VERTEX
  8
0
 62
7
  6
CONTINUOUS
 10
73.819599992
 20
138.9455141019
  0
VERTEX
  8
0
 62
7
  6
CONTINUOUS
 10
73.8689916605
 20
138.9646600644
  0
VERTEX
  8
0
 62
7
  6
CONTINUOUS
 10
73.9479780375
 20
138.9809519402
  0
VERTEX
  8
0
 62
7
  6
CONTINUOUS
 10
74.0514452895
 20
138.9933758151
  0
VERTEX
  8
0
 62
7
  6
CONTINUOUS
 10
74.1724756006
 20
139.0011609183
  0
VERTEX
  8
0
 62
7
  6
CONTINUOUS
 10
74.3028278689
 20
139.0038158909
  0
SEQEND
  0
LINE
  8
1_AXIS
 62
2
  6
CENTER
 10
68.8528278689
 20
147.4115423595
 11
68.8528278689
 21
130.1750754098
  0
LINE
  8
1_AXIS
 62
2
  6
CONTINUOUS
 10
68.8528278689
 20
129.0549754098
 11
68.8528278689
 21
127.2949754098
  0
LINE
  8
1_AXIS
 62
2
  6
CENTER
 10
68.8528278689
 20
110.5838020317
 11
68.8528278689
 21
126.1748754098
  0
LINE
  8
0
 62
7
  6
CONTINUOUS
 10
32.0703196828
 20
126.9749754098
 11
105.6353360549
 21
126.9749754098
  0
LINE
  8
1_AXIS
 62
2
  6
CENTER
 10
111.9270932073
 20
128.1749754098
 11
70.8529278689
 21
128.1749754098
  0
LINE
  8
1_AXIS
 62
2
  6
CONTINUOUS
 10
69.7328278689
 20
128.1749754098
 11
67.9728278689
 21
128.1749754098
  0
LINE
  8
1_AXIS
 62
2
  6
CENTER
 10
27.9013463221
 20
128.1749754098
 11
66.8527278689
 21
128.1749754098
  0
LINE
  8
0
 62
7
  6
CONTINUOUS
 10
105.6353360549
 20
129.3749754098
 11
32.0703196828
 21
129.3749754098
  0
POLYLINE
  8
0
 62
7
  6
CONTINUOUS
 66
1
 70
0
  0
VERTEX
  8
0
 62
7
  6
CONTINUOUS
 10
63.9028278689
 20
138.9247202812
  0
VERTEX
  8
0
 62
7
  6
CONTINUOUS
 10
63.8860557457
 20
138.9455141019
  0
VERTEX
  8
0
 62
7
  6
CONTINUOUS
 10
63.8366640772
 20
138.9646600644
  0
VERTEX
  8
0
 62
7
  6
CONTINUOUS
 10
63.7576777002
 20
138.9809519402
  0
VERTEX
  8
0
 62
7
  6
CONTINUOUS
 10
63.6542104483
 20
138.9933758151
  0
VERTEX
  8
0
 62
7
  6
CONTINUOUS
 10
63.5331801371
 20
139.0011609183
  0
VERTEX
  8
0
 62
7
  6
CONTINUOUS
 10
63.4028278689
 20
139.0038158909
  0
SEQEND
  0
LINE
  8
0
 62
7
  6
CONTINUOUS
 10
73.4528278689
 20
121.7616057434
 11
73.4528278689
 21
114.9099754098
  0
LINE
  8
0
 62
7
  6
CONTINUOUS
 10
73.8028278689
 20
134.5883449585
 11
73.8028278689
 21
141.4399754098
  0
POLYLINE
  8
0
 62
7
  6
CONTINUOUS
 66
1
 70
0
  0
VERTEX
  8
0
 62
7
  6
CONTINUOUS
 10
83.3528278689
 20
117.4252305384
  0
VERTEX
  8
0
 62
7
  6
CONTINUOUS
 10
83.369599992
 20
117.4044367177
  0
VERTEX
  8
0
 62
7
  6
CONTINUOUS
 10
83.4189916605
 20
117.3852907553
  0
VERTEX
  8
0
 62
7
  6
CONTINUOUS
 10
83.4979780375
 20
117.3689988795
  0
VERTEX
  8
0
 62
7
  6
CONTINUOUS
 10
83.6014452895
 20
117.3565750046
  0
VERTEX
  8
0
 62
7
  6
CONTINUOUS
 10
83.7224756006
 20
117.3487899014
  0
VERTEX
  8
0
 62
7
  6
CONTINUOUS
 10
83.8528278689
 20
117.3461349288
  0
SEQEND
  0
LINE
  8
0
 62
7
  6
CONTINUOUS
 10
31.5528278689
 20
134.0883450763
 11
35.5528278689
 21
134.0883450763
  0
LINE
  8
0
 62
7
  6
CONTINUOUS
 10
45.3028278689
 20
134.0883450763
 11
54.2028278689
 21
134.0883450763
  0
LINE
  8
0
 62
7
  6
CONTINUOUS
 10
64.4028278689
 20
134.0883450763
 11
73.3028278689
 21
134.0883450763
  0
LINE
  8
0
 62
7
  6
CONTINUOUS
 10
83.5028278689
 20
134.0883450763
 11
92.4028278689
 21
134.0883450763
  0
LINE
  8
0
 62
7
  6
CONTINUOUS
 10
102.1528278689
 20
134.0883450763
 11
106.1528278689
 21
134.0883450763
  0
POLYLINE
  8
0
 62
7
  6
CONTINUOUS
 66
1
 70
0
  0
VERTEX
  8
0
 62
7
  6
CONTINUOUS
 10
73.4528278689
 20
117.4252305384
  0
VERTEX
  8
0
 62
7
  6
CONTINUOUS
 10
73.4360557457
 20
117.4044367177
  0
VERTEX
  8
0
 62
7
  6
CONTINUOUS
 10
73.3866640772
 20
117.3852907553
  0
VERTEX
  8
0
 62
7
  6
CONTINUOUS
 10
73.3076777002
 20
117.3689988795
  0
VERTEX
  8
0
 62
7
  6
CONTINUOUS
 10
73.2042104483
 20
117.3565750046
  0
VERTEX
  8
0
 62
7
  6
CONTINUOUS
 10
73.0831801371
 20
117.3487899014
  0
VERTEX
  8
0
 62
7
  6
CONTINUOUS
 10
72.9528278689
 20
117.3461349288
  0
SEQEND
  0
POLYLINE
  8
0
 62
7
  6
CONTINUOUS
 66
1
 70
0
  0
VERTEX
  8
0
 62
7
  6
CONTINUOUS
 10
31.5528278689
 20
134.0883450763
  0
VERTEX
  8
0
 62
7
  6
CONTINUOUS
 10
31.4322805887
 20
134.073595891
  0
VERTEX
  8
0
 62
7
  6
CONTINUOUS
 10
31.3196204101
 20
134.0306281092
  0
VERTEX
  8
0
 62
7
  6
CONTINUOUS
 10
31.2207918935
 20
133.9621794127
  0
VERTEX
  8
0
 62
7
  6
CONTINUOUS
 10
31.1786224252
 20
133.9199627567
  0
VERTEX
  8
0
 62
7
  6
CONTINUOUS
 10
31.1104010286
 20
133.8212795972
  0
VERTEX
  8
0
 62
7
  6
CONTINUOUS
 10
31.0675231907
 20
133.7086753275
  0
VERTEX
  8
0
 62
7
  6
CONTINUOUS
 10
31.0528278689
 20
133.5883450763
  0
SEQEND
  0
LINE
  8
1_AXIS
 62
2
  6
CENTER
 10
29.3638197647
 20
137.6999754098
 11
111.1293804204
 21
137.6999754098
  0
LINE
  8
0
 62
7
  6
CONTINUOUS
 10
36.5528278689
 20
139.0038158909
 11
44.3028278689
 21
139.0038158909
  0
LINE
  8
0
 62
7
  6
CONTINUOUS
 10
55.2028278689
 20
139.0038158909
 11
63.4028278689
 21
139.0038158909
  0
LINE
  8
0
 62
7
  6
CONTINUOUS
 10
74.3028278689
 20
139.0038158909
 11
82.5028278689
 21
139.0038158909
  0
LINE
  8
0
 62
7
  6
CONTINUOUS
 10
93.4028278689
 20
139.0038158909
 11
101.1528278689
 21
139.0038158909
  0
POLYLINE
  8
0
 62
7
  6
CONTINUOUS
 66
1
 70
0
  0
VERTEX
  8
0
 62
7
  6
CONTINUOUS
 10
106.1528278689
 20
134.0883450763
  0
VERTEX
  8
0
 62
7
  6
CONTINUOUS
 10
106.273375149
 20
134.073595891
  0
VERTEX
  8
0
 62
7
  6
CONTINUOUS
 10
106.3860353276
 20
134.0306281092
  0
VERTEX
  8
0
 62
7
  6
CONTINUOUS
 10
106.4848638442
 20
133.9621794127
  0
VERTEX
  8
0
 62
7
  6
CONTINUOUS
 10
106.5270333125
 20
133.9199627567
  0
VERTEX
  8
0
 62
7
  6
CONTINUOUS
 10
106.5952547091
 20
133.8212795972
  0
VERTEX
  8
0
 62
7
  6
CONTINUOUS
 10
106.638132547
 20
133.7086753275
  0
VERTEX
  8
0
 62
7
  6
CONTINUOUS
 10
106.6528278689
 20
133.5883450763
  0
SEQEND
  0
POLYLINE
  8
0
 62
7
  6
CONTINUOUS
 66
1
 70
0
  0
VERTEX
  8
0
 62
7
  6
CONTINUOUS
 10
92.9028278689
 20
138.9247202812
  0
VERTEX
  8
0
 62
7
  6
CONTINUOUS
 10
92.919599992
 20
138.9455141019
  0
VERTEX
  8
0
 62
7
  6
CONTINUOUS
 10
92.9689916605
 20
138.9646600644
  0
VERTEX
  8
0
 62
7
  6
CONTINUOUS
 10
93.0479780375
 20
138.9809519402
  0
VERTEX
  8
0
 62
7
  6
CONTINUOUS
 10
93.1514452895
 20
138.9933758151
  0
VERTEX
  8
0
 62
7
  6
CONTINUOUS
 10
93.2724756006
 20
139.0011609183
  0
VERTEX
  8
0
 62
7
  6
CONTINUOUS
 10
93.4028278689
 20
139.0038158909
  0
SEQEND
  0
LINE
  8
0
 62
7
  6
CONTINUOUS
 10
36.5528278689
 20
141.9399754098
 11
44.3028278689
 21
141.9399754098
  0
LINE
  8
0
 62
7
  6
CONTINUOUS
 10
55.2028278689
 20
141.9399754098
 11
63.4028278689
 21
141.9399754098
  0
LINE
  8
0
 62
7
  6
CONTINUOUS
 10
74.3028278689
 20
141.9399754098
 11
82.5028278689
 21
141.9399754098
  0
LINE
  8
0
 62
7
  6
CONTINUOUS
 10
93.4028278689
 20
141.9399754098
 11
101.1528278689
 21
141.9399754098
  0
LINE
  8
0
 62
7
  6
CONTINUOUS
 10
83.0028278689
 20
134.5883450763
 11
83.0028278689
 21
141.4399754098
  0
LINE
  8
0
 62
7
  6
CONTINUOUS
 10
83.3528278689
 20
121.7616057434
 11
83.3528278689
 21
114.9099754098
  0
POLYLINE
  8
0
 62
7
  6
CONTINUOUS
 66
1
 70
0
  0
VERTEX
  8
0
 62
7
  6
CONTINUOUS
 10
83.0028278689
 20
138.9247202812
  0
VERTEX
  8
0
 62
7
  6
CONTINUOUS
 10
82.9860557457
 20
138.9455141019
  0
VERTEX
  8
0
 62
7
  6
CONTINUOUS
 10
82.9366640772
 20
138.9646600644
  0
VERTEX
  8
0
 62
7
  6
CONTINUOUS
 10
82.8576777002
 20
138.9809519402
  0
VERTEX
  8
0
 62
7
  6
CONTINUOUS
 10
82.7542104483
 20
138.9933758151
  0
VERTEX
  8
0
 62
7
  6
CONTINUOUS
 10
82.6331801371
 20
139.0011609183
  0
VERTEX
  8
0
 62
7
  6
CONTINUOUS
 10
82.5028278689
 20
139.0038158909
  0
SEQEND
  0
POLYLINE
  8
0
 62
7
  6
CONTINUOUS
 66
1
 70
0
  0
VERTEX
  8
0
 62
7
  6
CONTINUOUS
 10
102.7028278689
 20
117.4252305384
  0
VERTEX
  8
0
 62
7
  6
CONTINUOUS
 10
102.719599992
 20
117.4044367177
  0
VERTEX
  8
0
 62
7
  6
CONTINUOUS
 10
102.7689916605
 20
117.3852907553
  0
VERTEX
  8
0
 62
7
  6
CONTINUOUS
 10
102.8479780375
 20
117.3689988795
  0
VERTEX
  8
0
 62
7
  6
CONTINUOUS
 10
102.9514452895
 20
117.3565750046
  0
VERTEX
  8
0
 62
7
  6
CONTINUOUS
 10
103.0724756006
 20
117.3487899014
  0
VERTEX
  8
0
 62
7
  6
CONTINUOUS
 10
103.2028278689
 20
117.3461349288
  0
SEQEND
  0
LINE
  8
0
 62
7
  6
CONTINUOUS
 10
92.5528278689
 20
114.9099754098
 11
92.5528278689
 21
121.7616057434
  0
LINE
  8
0
 62
7
  6
CONTINUOUS
 10
92.9028278689
 20
134.5883449585
 11
92.9028278689
 21
141.4399754098
  0
POLYLINE
  8
0
 62
7
  6
CONTINUOUS
 66
1
 70
0
  0
VERTEX
  8
0
 62
7
  6
CONTINUOUS
 10
92.5528278689
 20
117.4252305384
  0
VERTEX
  8
0
 62
7
  6
CONTINUOUS
 10
92.5360557457
 20
117.4044367177
  0
VERTEX
  8
0
 62
7
  6
CONTINUOUS
 10
92.4866640772
 20
117.3852907553
  0
VERTEX
  8
0
 62
7
  6
CONTINUOUS
 10
92.4076777002
 20
117.3689988795
  0
VERTEX
  8
0
 62
7
  6
CONTINUOUS
 10
92.3042104483
 20
117.3565750046
  0
VERTEX
  8
0
 62
7
  6
CONTINUOUS
 10
92.1831801371
 20
117.3487899014
  0
VERTEX
  8
0
 62
7
  6
CONTINUOUS
 10
92.0528278689
 20
117.3461349288
  0
SEQEND
  0
POLYLINE
  8
0
 62
7
  6
CONTINUOUS
 66
1
 70
0
  0
VERTEX
  8
0
 62
7
  6
CONTINUOUS
 10
101.6528278689
 20
138.9247202812
  0
VERTEX
  8
0
 62
7
  6
CONTINUOUS
 10
101.6360557457
 20
138.9455141019
  0
VERTEX
  8
0
 62
7
  6
CONTINUOUS
 10
101.5866640772
 20
138.9646600644
  0
VERTEX
  8
0
 62
7
  6
CONTINUOUS
 10
101.5076777002
 20
138.9809519402
  0
VERTEX
  8
0
 62
7
  6
CONTINUOUS
 10
101.4042104483
 20
138.9933758151
  0
VERTEX
  8
0
 62
7
  6
CONTINUOUS
 10
101.2831801371
 20
139.0011609183
  0
VERTEX
  8
0
 62
7
  6
CONTINUOUS
 10
101.1528278689
 20
139.0038158909
  0
SEQEND
  0
POLYLINE
  8
0
 62
7
  6
CONTINUOUS
 66
1
 70
0
  0
VERTEX
  8
0
 62
7
  6
CONTINUOUS
 10
105.6615166583
 20
131.3749754098
  0
VERTEX
  8
0
 62
7
  6
CONTINUOUS
 10
106.0631527162
 20
130.786897081
  0
VERTEX
  8
0
 62
7
  6
CONTINUOUS
 10
106.3528278689
 20
130.2791572316
  0
SEQEND
  0
LINE
  8
0
 62
7
  6
CONTINUOUS
 10
101.6528278689
 20
134.5883450763
 11
101.6528278689
 21
141.4399754098
  0
LINE
  8
0
 62
7
  6
CONTINUOUS
 10
102.7028278689
 20
121.7616057434
 11
102.7028278689
 21
114.9099754098
  0
POLYLINE
  8
0
 62
7
  6
CONTINUOUS
 66
1
 70
0
  0
VERTEX
  8
0
 62
7
  6
CONTINUOUS
 10
106.3528278689
 20
126.0707935822
  0
VERTEX
  8
0
 62
7
  6
CONTINUOUS
 10
106.063154648
 20
125.5630567801
  0
VERTEX
  8
0
 62
7
  6
CONTINUOUS
 10
105.6615166583
 20
124.9749754098
  0
SEQEND
  0
LINE
  8
0
 62
7
  6
CONTINUOUS
 10
106.7366955014
 20
132.3924550999
 11
106.7689602363
 21
132.3440174244
  0
POLYLINE
  8
0
 62
7
  6
CONTINUOUS
 66
1
 70
0
  0
VERTEX
  8
0
 62
7
  6
CONTINUOUS
 10
106.3528278689
 20
130.2791572316
  0
VERTEX
  8
0
 62
7
  6
CONTINUOUS
 10
106.4184107642
 20
130.1462935408
  0
VERTEX
  8
0
 62
7
  6
CONTINUOUS
 10
106.5440034955
 20
129.8598898771
  0
VERTEX
  8
0
 62
7
  6
CONTINUOUS
 10
106.5936879324
 20
129.7049298621
  0
VERTEX
  8
0
 62
7
  6
CONTINUOUS
 10
106.6476469292
 20
129.3939906875
  0
VERTEX
  8
0
 62
7
  6
CONTINUOUS
 10
106.6537062946
 20
129.2417889641
  0
SEQEND
  0
LINE
  8
0
 62
7
  6
CONTINUOUS
 10
106.6528278689
 20
133.5883450763
 11
106.6528278689
 21
132.6696443001
  0
LINE
  8
0
 62
7
  6
CONTINUOUS
 10
106.6528278689
 20
122.4002552315
 11
106.6528278689
 21
114.9099754098
  0
LINE
  8
0
 62
7
  6
CONTINUOUS
 10
106.653706318
 20
129.2417885779
 11
106.653706318
 21
127.1081622528
  0
LINE
  8
0
 62
7
  6
CONTINUOUS
 10
106.8528278689
 20
132.0668282241
 11
106.8528278689
 21
123.0002552315
  0
POLYLINE
  8
0
 62
7
  6
CONTINUOUS
 66
1
 70
0
  0
VERTEX
  8
0
 62
7
  6
CONTINUOUS
 10
106.6537062958
 20
127.108161887
  0
VERTEX
  8
0
 62
7
  6
CONTINUOUS
 10
106.6476323295
 20
126.9557797546
  0
VERTEX
  8
0
 62
7
  6
CONTINUOUS
 10
106.5935364522
 20
126.6444627783
  0
VERTEX
  8
0
 62
7
  6
CONTINUOUS
 10
106.5438350541
 20
126.4896042538
  0
VERTEX
  8
0
 62
7
  6
CONTINUOUS
 10
106.4183283601
 20
126.2034884707
  0
VERTEX
  8
0
 62
7
  6
CONTINUOUS
 10
106.3528278689
 20
126.0707935822
  0
SEQEND
  0
LINE
  8
0
 62
7
  6
CONTINUOUS
 10
141.5708615031
 20
137.6999754098
 11
141.5708615031
 21
118.6500150572
  0
LINE
  8
0
 62
7
  6
CONTINUOUS
 10
143.2708615031
 20
132.5183620127
 11
143.2708615031
 21
122.3331805358
  0
LINE
  8
0
 62
7
  6
CONTINUOUS
 10
146.8641152207
 20
141.6891916634
 11
146.8929211721
 21
141.9399754098
  0
LINE
  8
0
 62
7
  6
CONTINUOUS
 10
146.834590128
 20
141.4399754098
 11
146.8641152207
 21
141.6891916634
  0
LINE
  8
0
 62
7
  6
CONTINUOUS
 10
144.9488018342
 20
114.4099754098
 11
146.8929211721
 21
114.4099754098
  0
LINE
  8
0
 62
7
  6
CONTINUOUS
 10
146.8641152207
 20
114.6607591563
 11
146.834590128
 21
114.9099754098
  0
LINE
  8
0
 62
7
  6
CONTINUOUS
 10
146.8929211721
 20
114.4099754098
 11
146.8641152207
 21
114.6607591563
  0
LINE
  8
1_AXIS
 62
2
  6
CONTINUOUS
 10
145.9208615031
 20
138.5799754098
 11
145.9208615031
 21
136.8199754098
  0
LINE
  8
1_AXIS
 62
2
  6
CENTER
 10
145.9208615031
 20
133.2999754098
 11
145.9208615031
 21
131.4599754098
  0
LINE
  8
1_AXIS
 62
2
  6
CONTINUOUS
 10
145.9208615031
 20
119.5299754098
 11
145.9208615031
 21
117.7699754098
  0
LINE
  8
1_AXIS
 62
2
  6
CENTER
 10
145.9208615031
 20
114.2499754098
 11
145.9208615031
 21
112.4099754098
  0
LINE
  8
1_AXIS
 62
2
  6
CENTER
 10
145.9208615031
 20
123.0499754098
 11
145.9208615031
 21
124.8899754098
  0
LINE
  8
1_AXIS
 62
2
  6
CENTER
 10
145.9208615031
 20
142.0999754098
 11
145.9208615031
 21
143.9399754098
  0
LINE
  8
0
 62
7
  6
CONTINUOUS
 10
144.9488018342
 20
114.4099754098
 11
144.9776077855
 21
114.6607591563
  0
LINE
  8
0
 62
7
  6
CONTINUOUS
 10
144.9776077855
 20
114.6607591563
 11
145.0071328782
 21
114.9099754098
  0
LINE
  8
0
 62
7
  6
CONTINUOUS
 10
150.0708615031
 20
117.3461349288
 11
149.9231136815
 21
117.3689988795
  0
POLYLINE
  8
0
 62
7
  6
CONTINUOUS
 66
1
 70
0
  0
VERTEX
  8
0
 62
7
  6
CONTINUOUS
 10
149.9231136815
 20
117.3689988795
  0
VERTEX
  8
0
 62
7
  6
CONTINUOUS
 10
149.6992780869
 20
117.4044367177
  0
VERTEX
  8
0
 62
7
  6
CONTINUOUS
 10
149.5708615031
 20
117.4252305384
  0
SEQEND
  0
LINE
  8
0
 62
7
  6
CONTINUOUS
 10
145.0071328782
 20
141.4399754098
 11
144.9776077855
 21
141.6891916634
  0
LINE
  8
0
 62
7
  6
CONTINUOUS
 10
144.9776077855
 20
141.6891916634
 11
144.9488018342
 21
141.9399754098
  0
POLYLINE
  8
0
 62
7
  6
CONTINUOUS
 66
1
 70
0
  0
VERTEX
  8
0
 62
7
  6
CONTINUOUS
 10
150.0708615031
 20
126.0707935736
  0
VERTEX
  8
0
 62
7
  6
CONTINUOUS
 10
150.0571581628
 20
126.3103237358
  0
VERTEX
  8
0
 62
7
  6
CONTINUOUS
 10
150.0200201882
 20
126.5730552149
  0
VERTEX
  8
0
 62
7
  6
CONTINUOUS
 10
149.9835632796
 20
126.8446196735
  0
VERTEX
  8
0
 62
7
  6
CONTINUOUS
 10
149.9702011686
 20
127.1081619835
  0
SEQEND
  0
LINE
  8
0
 62
7
  6
CONTINUOUS
 10
149.9702011899
 20
127.1081623096
 11
149.9702011928
 21
129.241788523
  0
POLYLINE
  8
0
 62
7
  6
CONTINUOUS
 66
1
 70
0
  0
VERTEX
  8
0
 62
7
  6
CONTINUOUS
 10
149.9702011697
 20
129.2417888227
  0
VERTEX
  8
0
 62
7
  6
CONTINUOUS
 10
149.9744668611
 20
129.3900708335
  0
VERTEX
  8
0
 62
7
  6
CONTINUOUS
 10
150.0070316151
 20
129.6914778302
  0
VERTEX
  8
0
 62
7
  6
CONTINUOUS
 10
150.0305990578
 20
129.8450701537
  0
VERTEX
  8
0
 62
7
  6
CONTINUOUS
 10
150.0665791328
 20
130.146873945
  0
VERTEX
  8
0
 62
7
  6
CONTINUOUS
 10
150.0708615031
 20
130.2791572406
  0
SEQEND
  0
LINE
  8
0
 62
7
  6
CONTINUOUS
 10
147.938022324
 20
133.1271134807
 11
147.7622101802
 21
133.0535317107
  0
LINE
  8
1_AXIS
 62
2
  6
CONTINUOUS
 10
146.8008615031
 20
118.6499754098
 11
145.0408615031
 21
118.6499754098
  0
LINE
  8
1_AXIS
 62
2
  6
CENTER
 10
141.5208615031
 20
118.6499754098
 11
139.6808615031
 21
118.6499754098
  0
LINE
  8
1_AXIS
 62
2
  6
CENTER
 10
150.3208615031
 20
118.6499754098
 11
152.1608615031
 21
118.6499754098
  0
LINE
  8
0
 62
7
  6
CONTINUOUS
 10
150.0708615031
 20
117.3461349288
 11
150.0708615031
 21
126.0707935736
  0
LINE
  8
0
 62
7
  6
CONTINUOUS
 10
150.0708615031
 20
130.2791572406
 11
150.0708615031
 21
139.0038158909
  0
LINE
  8
0
 62
7
  6
CONTINUOUS
 10
174.2708615031
 20
126.9749754098
 11
152.0708615031
 21
126.9749754098
  0
LINE
  8
1_AXIS
 62
2
  6
CENTER
 10
139.0708609335
 20
128.1749754098
 11
177.4708615031
 21
128.1749754098
  0
LINE
  8
0
 62
7
  6
CONTINUOUS
 10
174.2708615031
 20
129.3749754098
 11
152.0708615031
 21
129.3749754098
  0
LINE
  8
0
 62
7
  6
CONTINUOUS
 10
147.5780016291
 20
133.0183620127
 11
143.7597059322
 21
133.0183620127
  0
LINE
  8
1_AXIS
 62
2
  6
CONTINUOUS
 10
146.8008615031
 20
137.6999754098
 11
145.0408615031
 21
137.6999754098
  0
LINE
  8
1_AXIS
 62
2
  6
CENTER
 10
141.5208615031
 20
137.6999754098
 11
139.6808615031
 21
137.6999754098
  0
LINE
  8
1_AXIS
 62
2
  6
CENTER
 10
150.3208615031
 20
137.6999754098
 11
152.1608615031
 21
137.6999754098
  0
LINE
  8
0
 62
7
  6
CONTINUOUS
 10
149.5708615031
 20
138.9247202812
 11
149.8194296915
 21
138.9646600644
  0
POLYLINE
  8
0
 62
7
  6
CONTINUOUS
 66
1
 70
0
  0
VERTEX
  8
0
 62
7
  6
CONTINUOUS
 10
149.8194296915
 20
138.9646600644
  0
VERTEX
  8
0
 62
7
  6
CONTINUOUS
 10
150.0535708216
 20
139.0011609183
  0
VERTEX
  8
0
 62
7
  6
CONTINUOUS
 10
150.0708615031
 20
139.0038158909
  0
SEQEND
  0
LINE
  8
0
 62
7
  6
CONTINUOUS
 10
144.9488018342
 20
141.9399754098
 11
146.8929211721
 21
141.9399754098
  0
ARC
  8
0
 62
7
  6
CONTINUOUS
 10
31.5528278689
 20
213.1594024867
 40
0.5
 50
180.0
 51
270.0
  0
ARC
  8
0
 62
7
  6
CONTINUOUS
 10
31.3528278689
 20
214.8594024867
 40
0.5
 50
180.0
 51
232.7573575348
  0
ARC
  8
0
 62
7
  6
CONTINUOUS
 10
37.1528278689
 20
213.1594024867
 40
0.5
 50
270.0
 51
360.0
  0
ARC
  8
0
 62
7
  6
CONTINUOUS
 10
34.5028278689
 20
213.1594024867
 40
0.5
 50
270.0
 51
360.0
  0
ARC
  8
0
 62
7
  6
CONTINUOUS
 10
38.1528278689
 20
218.2594024867
 40
0.5
 50
93.9490995476
 51
180.0
  0
ARC
  8
0
 62
7
  6
CONTINUOUS
 10
43.7028278689
 20
213.1594024867
 40
0.5
 50
180.0
 51
270.0
  0
ARC
  8
0
 62
7
  6
CONTINUOUS
 10
45.6528278689
 20
213.1594024867
 40
0.5
 50
180.0
 51
270.0
  0
ARC
  8
0
 62
7
  6
CONTINUOUS
 10
40.2028278689
 20
224.6594024867
 40
1.5
 50
180.0
 51
360.0
  0
ARC
  8
0
 62
7
  6
CONTINUOUS
 10
31.3528278689
 20
220.6594024867
 40
0.5
 50
90.0
 51
180.0
  0
ARC
  8
0
 62
7
  6
CONTINUOUS
 10
31.5528278689
 20
220.6594024867
 40
0.5
 50
90.0
 51
180.0
  0
ARC
  8
0
 62
7
  6
CONTINUOUS
 10
34.5028278689
 20
220.6594024867
 40
0.5
 50
0.0
 51
90.0
  0
ARC
  8
0
 62
7
  6
CONTINUOUS
 10
45.6528278689
 20
220.6594024867
 40
0.5
 50
90.0
 51
180.0
  0
ARC
  8
0
 62
7
  6
CONTINUOUS
 10
62.8028278689
 20
213.1594024867
 40
0.5
 50
180.0
 51
270.0
  0
ARC
  8
0
 62
7
  6
CONTINUOUS
 10
64.7528278689
 20
213.1594024867
 40
0.5
 50
180.0
 51
270.0
  0
ARC
  8
0
 62
7
  6
CONTINUOUS
 10
55.8028278689
 20
213.1594024867
 40
0.5
 50
270.0
 51
360.0
  0
ARC
  8
0
 62
7
  6
CONTINUOUS
 10
53.8528278689
 20
213.1594024867
 40
0.5
 50
270.0
 51
360.0
  0
ARC
  8
0
 62
7
  6
CONTINUOUS
 10
49.7528278689
 20
224.6594024867
 40
1.5
 50
180.0
 51
360.0
  0
ARC
  8
0
 62
7
  6
CONTINUOUS
 10
59.3028278689
 20
224.6594024867
 40
1.5
 50
180.0
 51
360.0
  0
ARC
  8
0
 62
7
  6
CONTINUOUS
 10
64.7528278689
 20
220.6594024867
 40
0.5
 50
90.0
 51
180.0
  0
ARC
  8
0
 62
7
  6
CONTINUOUS
 10
53.8528278689
 20
220.6594024867
 40
0.5
 50
0.0
 51
90.0
  0
ARC
  8
0
 62
7
  6
CONTINUOUS
 10
33.2571127319
 20
244.5594024867
 40
2.0
 50
90.0
 51
179.5
  0
ARC
  8
0
 62
7
  6
CONTINUOUS
 10
74.9028278689
 20
213.1594024867
 40
0.5
 50
270.0
 51
360.0
  0
ARC
  8
0
 62
7
  6
CONTINUOUS
 10
72.9528278689
 20
213.1594024867
 40
0.5
 50
270.0
 51
360.0
  0
ARC
  8
0
 62
7
  6
CONTINUOUS
 10
81.9028278689
 20
213.1594024867
 40
0.5
 50
180.0
 51
270.0
  0
ARC
  8
0
 62
7
  6
CONTINUOUS
 10
83.8528278689
 20
213.1594024867
 40
0.5
 50
180.0
 51
270.0
  0
ARC
  8
0
 62
7
  6
CONTINUOUS
 10
68.8528278689
 20
224.6594024867
 40
1.5
 50
180.0
 51
360.0
  0
ARC
  8
0
 62
7
  6
CONTINUOUS
 10
78.4028278689
 20
224.6594024867
 40
1.5
 50
180.0
 51
360.0
  0
ARC
  8
0
 62
7
  6
CONTINUOUS
 10
83.8528278689
 20
220.6594024867
 40
0.5
 50
90.0
 51
180.0
  0
ARC
  8
0
 62
7
  6
CONTINUOUS
 10
72.9528278689
 20
220.6594024867
 40
0.5
 50
0.0
 51
90.0
  0
ARC
  8
0
 62
7
  6
CONTINUOUS
 10
94.0028278689
 20
213.1594024867
 40
0.5
 50
270.0
 51
360.0
  0
ARC
  8
0
 62
7
  6
CONTINUOUS
 10
92.0528278689
 20
213.1594024867
 40
0.5
 50
270.0
 51
360.0
  0
ARC
  8
0
 62
7
  6
CONTINUOUS
 10
106.1528278689
 20
213.1594024867
 40
0.5
 50
270.0
 51
360.0
  0
ARC
  8
0
 62
7
  6
CONTINUOUS
 10
106.3528278689
 20
214.8594024867
 40
0.5
 50
307.2426432547
 51
360.0
  0
ARC
  8
0
 62
7
  6
CONTINUOUS
 10
100.5528278689
 20
213.1594024867
 40
0.5
 50
180.0
 51
270.0
  0
ARC
  8
0
 62
7
  6
CONTINUOUS
 10
103.2028278689
 20
213.1594024867
 40
0.5
 50
180.0
 51
270.0
  0
ARC
  8
0
 62
7
  6
CONTINUOUS
 10
99.5528278689
 20
218.2594024867
 40
0.5
 50
0.0
 51
86.0509004526
  0
ARC
  8
0
 62
7
  6
CONTINUOUS
 10
87.9528278689
 20
224.6594024867
 40
1.5
 50
180.0
 51
360.0
  0
ARC
  8
0
 62
7
  6
CONTINUOUS
 10
97.5028278689
 20
224.6594024867
 40
1.5
 50
180.0
 51
360.0
  0
ARC
  8
0
 62
7
  6
CONTINUOUS
 10
106.1528278689
 20
220.6594024867
 40
0.5
 50
0.0
 51
90.0
  0
ARC
  8
0
 62
7
  6
CONTINUOUS
 10
106.3528278689
 20
220.6594024867
 40
0.5
 50
0.0
 51
90.0
  0
ARC
  8
0
 62
7
  6
CONTINUOUS
 10
103.2028278689
 20
220.6594024867
 40
0.5
 50
90.0
 51
180.0
  0
ARC
  8
0
 62
7
  6
CONTINUOUS
 10
92.0528278689
 20
220.6594024867
 40
0.5
 50
0.0
 51
90.0
  0
ARC
  8
0
 62
7
  6
CONTINUOUS
 10
104.4485430058
 20
244.5594024867
 40
2.0
 50
0.5
 51
90.0
  0
ARC
  8
0
 62
7
  6
CONTINUOUS
 10
31.5528278689
 20
114.9099754098
 40
0.5
 50
180.0
 51
270.0
  0
ARC
  8
0
 62
7
  6
CONTINUOUS
 10
45.6528278689
 20
114.9099754098
 40
0.5
 50
180.0
 51
270.0
  0
ARC
  8
0
 62
7
  6
CONTINUOUS
 10
34.5028278689
 20
114.9099754098
 40
0.5
 50
270.0
 51
360.0
  0
ARC
  8
0
 62
7
  6
CONTINUOUS
 10
30.5528278689
 20
122.4002552315
 40
0.5
 50
0.0
 51
36.8698976458
  0
ARC
  8
0
 62
7
  6
CONTINUOUS
 10
35.5028272551
 20
121.7616063571
 40
0.4999996931
 50
89.9999296723
 51
180.0000703277
  0
ARC
  8
0
 62
7
  6
CONTINUOUS
 10
31.3528278689
 20
123.0002552315
 40
0.5
 50
180.0
 51
216.8698976458
  0
ARC
  8
0
 62
7
  6
CONTINUOUS
 10
44.6528278689
 20
121.7616057434
 40
0.5
 50
0.0
 51
90.0
  0
ARC
  8
0
 62
7
  6
CONTINUOUS
 10
40.2028278689
 20
123.3749754098
 40
3.9
 50
67.380135052
 51
112.619864948
  0
ARC
  8
0
 62
7
  6
CONTINUOUS
 10
53.8528278689
 20
114.9099754098
 40
0.5
 50
270.0
 51
360.0
  0
ARC
  8
0
 62
7
  6
CONTINUOUS
 10
64.7528278689
 20
114.9099754098
 40
0.5
 50
180.0
 51
270.0
  0
ARC
  8
0
 62
7
  6
CONTINUOUS
 10
54.8528272551
 20
121.7616063571
 40
0.4999996931
 50
89.9999296723
 51
180.0000703277
  0
ARC
  8
0
 62
7
  6
CONTINUOUS
 10
49.7528278689
 20
123.3749754098
 40
3.9
 50
67.380135052
 51
112.619864948
  0
ARC
  8
0
 62
7
  6
CONTINUOUS
 10
63.7528278689
 20
121.7616057434
 40
0.5
 50
0.0
 51
90.0
  0
ARC
  8
0
 62
7
  6
CONTINUOUS
 10
59.3028278689
 20
123.3749754098
 40
3.9
 50
67.380135052
 51
112.619864948
  0
ARC
  8
0
 62
7
  6
CONTINUOUS
 10
31.3528278689
 20
132.0668282241
 40
0.5
 50
146.3320887789
 51
180.0
  0
ARC
  8
0
 62
7
  6
CONTINUOUS
 10
30.5528278689
 20
132.6696443001
 40
0.5
 50
326.3320887789
 51
360.0
  0
ARC
  8
0
 62
7
  6
CONTINUOUS
 10
35.5528284824
 20
134.5883444627
 40
0.4999996932
 50
269.999929696
 51
0.000070304
  0
ARC
  8
0
 62
7
  6
CONTINUOUS
 10
40.2028278689
 20
132.9749754098
 40
3.9
 50
247.380135052
 51
292.619864948
  0
ARC
  8
0
 62
7
  6
CONTINUOUS
 10
45.3028278689
 20
134.5883450763
 40
0.5
 50
180.0
 51
270.0
  0
ARC
  8
0
 62
7
  6
CONTINUOUS
 10
36.5528278689
 20
141.4399754098
 40
0.5
 50
90.0
 51
180.0
  0
ARC
  8
0
 62
7
  6
CONTINUOUS
 10
44.3028278689
 20
141.4399754098
 40
0.5
 50
0.0
 51
90.0
  0
ARC
  8
0
 62
7
  6
CONTINUOUS
 10
49.7528278689
 20
132.9749754098
 40
3.9
 50
247.380135052
 51
292.619864948
  0
ARC
  8
0
 62
7
  6
CONTINUOUS
 10
54.2028278689
 20
134.5883450763
 40
0.5
 50
270.0
 51
360.0
  0
ARC
  8
0
 62
7
  6
CONTINUOUS
 10
59.3028278689
 20
132.9749754098
 40
3.9
 50
247.380135052
 51
292.619864948
  0
ARC
  8
0
 62
7
  6
CONTINUOUS
 10
64.4028278689
 20
134.5883450763
 40
0.5
 50
180.0
 51
270.0
  0
ARC
  8
0
 62
7
  6
CONTINUOUS
 10
63.4028278689
 20
141.4399754098
 40
0.5
 50
0.0
 51
90.0
  0
ARC
  8
0
 62
7
  6
CONTINUOUS
 10
55.2028278689
 20
141.4399754098
 40
0.5
 50
90.0
 51
180.0
  0
ARC
  8
0
 62
7
  6
CONTINUOUS
 10
83.8528278689
 20
114.9099754098
 40
0.5
 50
180.0
 51
270.0
  0
ARC
  8
0
 62
7
  6
CONTINUOUS
 10
72.9528278689
 20
114.9099754098
 40
0.5
 50
270.0
 51
360.0
  0
ARC
  8
0
 62
7
  6
CONTINUOUS
 10
73.9528272551
 20
121.7616063571
 40
0.4999996931
 50
89.9999296723
 51
180.0000703277
  0
ARC
  8
0
 62
7
  6
CONTINUOUS
 10
68.8528278689
 20
123.3749754098
 40
3.9
 50
67.380135052
 51
112.619864948
  0
ARC
  8
0
 62
7
  6
CONTINUOUS
 10
82.8528278689
 20
121.7616057434
 40
0.5
 50
0.0
 51
90.0
  0
ARC
  8
0
 62
7
  6
CONTINUOUS
 10
78.4028278689
 20
123.3749754098
 40
3.9
 50
67.380135052
 51
112.619864948
  0
ARC
  8
0
 62
7
  6
CONTINUOUS
 10
87.9528278689
 20
123.3749754098
 40
3.9
 50
67.380135052
 51
112.619864948
  0
ARC
  8
0
 62
7
  6
CONTINUOUS
 10
106.1528278689
 20
114.9099754098
 40
0.5
 50
270.0
 51
360.0
  0
ARC
  8
0
 62
7
  6
CONTINUOUS
 10
92.0528278689
 20
114.9099754098
 40
0.5
 50
270.0
 51
360.0
  0
ARC
  8
0
 62
7
  6
CONTINUOUS
 10
103.2028278689
 20
114.9099754098
 40
0.5
 50
180.0
 51
270.0
  0
ARC
  8
0
 62
7
  6
CONTINUOUS
 10
93.0528272551
 20
121.7616063571
 40
0.4999996931
 50
89.9999296723
 51
180.0000703277
  0
ARC
  8
0
 62
7
  6
CONTINUOUS
 10
97.5028278689
 20
123.3749754098
 40
3.9
 50
67.380135052
 51
112.619864948
  0
ARC
  8
0
 62
7
  6
CONTINUOUS
 10
107.1528278689
 20
122.4002552315
 40
0.5
 50
143.1301023542
 51
180.0
  0
ARC
  8
0
 62
7
  6
CONTINUOUS
 10
102.2028278689
 20
121.7616057434
 40
0.5
 50
0.0
 51
90.0
  0
ARC
  8
0
 62
7
  6
CONTINUOUS
 10
106.3528278689
 20
123.0002552315
 40
0.5
 50
323.1301023542
 51
360.0
  0
ARC
  8
0
 62
7
  6
CONTINUOUS
 10
68.8528278689
 20
132.9749754098
 40
3.9
 50
247.380135052
 51
292.619864948
  0
ARC
  8
0
 62
7
  6
CONTINUOUS
 10
73.3028278689
 20
134.5883450763
 40
0.5
 50
270.0
 51
360.0
  0
ARC
  8
0
 62
7
  6
CONTINUOUS
 10
78.4028278689
 20
132.9749754098
 40
3.9
 50
247.380135052
 51
292.619864948
  0
ARC
  8
0
 62
7
  6
CONTINUOUS
 10
87.9528278689
 20
132.9749754098
 40
3.9
 50
247.380135052
 51
292.619864948
  0
ARC
  8
0
 62
7
  6
CONTINUOUS
 10
83.5028278689
 20
134.5883450763
 40
0.5
 50
180.0
 51
270.0
  0
ARC
  8
0
 62
7
  6
CONTINUOUS
 10
74.3028278689
 20
141.4399754098
 40
0.5
 50
90.0
 51
180.0
  0
ARC
  8
0
 62
7
  6
CONTINUOUS
 10
82.5028278689
 20
141.4399754098
 40
0.5
 50
0.0
 51
90.0
  0
ARC
  8
0
 62
7
  6
CONTINUOUS
 10
97.5028278689
 20
132.9749754098
 40
3.9
 50
247.380135052
 51
292.619864948
  0
ARC
  8
0
 62
7
  6
CONTINUOUS
 10
92.4028278689
 20
134.5883450763
 40
0.5
 50
270.0
 51
360.0
  0
ARC
  8
0
 62
7
  6
CONTINUOUS
 10
106.3528278689
 20
132.0668282241
 40
0.5
 50
0.0
 51
33.6679112211
  0
ARC
  8
0
 62
7
  6
CONTINUOUS
 10
107.1528278689
 20
132.6696443001
 40
0.5
 50
180.0
 51
213.6679112211
  0
ARC
  8
0
 62
7
  6
CONTINUOUS
 10
102.1528278689
 20
134.5883450763
 40
0.5
 50
180.0
 51
270.0
  0
ARC
  8
0
 62
7
  6
CONTINUOUS
 10
93.4028278689
 20
141.4399754098
 40
0.5
 50
90.0
 51
180.0
  0
ARC
  8
0
 62
7
  6
CONTINUOUS
 10
101.1528278689
 20
141.4399754098
 40
0.5
 50
0.0
 51
90.0
  0
ARC
  8
0
 62
7
  6
CONTINUOUS
 10
145.9208615031
 20
118.6499754098
 40
4.35
 50
129.7340531963
 51
257.0875457171
  0
ARC
  8
0
 62
7
  6
CONTINUOUS
 10
145.9208615031
 20
118.6499754098
 40
4.35
 50
282.9124542829
 51
342.5584061437
  0
CIRCLE
  8
2_FEATURE
 62
7
  6
CONTINUOUS
 10
145.9208615031
 20
118.6499754098
 40
2.6
  0
ARC
  8
0
 62
7
  6
CONTINUOUS
 10
142.7808615031
 20
122.3331805358
 40
0.49
 50
310.4482011909
 51
360.0
  0
ARC
  8
0
 62
7
  6
CONTINUOUS
 10
152.0708615031
 20
124.9749754098
 40
2.0
 50
90.0
 51
180.0
  0
ARC
  8
0
 62
7
  6
CONTINUOUS
 10
143.7708614146
 20
132.5183620127
 40
0.4999999557
 50
90.0
 51
180.0
  0
ARC
  8
0
 62
7
  6
CONTINUOUS
 10
147.5780016291
 20
133.5183620127
 40
0.5
 50
270.0
 51
291.6180289573
  0
ARC
  8
0
 62
7
  6
CONTINUOUS
 10
145.9208615031
 20
137.6999754098
 40
4.998
 50
293.803024964
 51
311.59628875
  0
ARC
  8
2_FEATURE
 62
7
  6
CONTINUOUS
 10
145.9208615031
 20
137.6999754098
 40
4.35
 50
178.7486193829
 51
179.7366063479
  0
ARC
  8
0
 62
7
  6
CONTINUOUS
 10
145.9208615031
 20
137.6999754098
 40
4.35
 50
102.9124542829
 51
180.0
  0
ARC
  8
0
 62
7
  6
CONTINUOUS
 10
145.9208615031
 20
137.6999754098
 40
4.35
 50
17.4415938563
 51
77.0875457171
  0
ARC
  8
1_AXIS
 62
7
  6
CONTINUOUS
 10
145.9208615031
 20
137.6999754098
 40
4.35
 50
167.9921339638
 51
170.4913910924
  0
ARC
  8
2_FEATURE
 62
7
  6
CONTINUOUS
 10
145.9208615031
 20
137.6999754098
 40
4.35
 50
147.6457933844
 51
151.4095349032
  0
ARC
  8
2_FEATURE
 62
7
  6
CONTINUOUS
 10
145.9208615031
 20
137.6999754098
 40
4.35
 50
141.3964691506
 51
144.799304322
  0
ARC
  8
2_FEATURE
 62
7
  6
CONTINUOUS
 10
145.9208615031
 20
137.6999754098
 40
4.35
 50
131.2420177273
 51
131.5423372598
  0
CIRCLE
  8
0
 62
7
  6
CONTINUOUS
 10
145.9208615031
 20
137.6999754098
 40
2.6
  0
ARC
  8
0
 62
7
  6
CONTINUOUS
 10
152.0708615031
 20
131.3749754098
 40
2.0
 50
180.0
 51
270.0
  0
ARC
  8
0
 62
7
  6
CONTINUOUS
 10
149.5708615031
 20
133.5883450763
 40
0.5
 50
0.0
 51
131.59628875
  0
ARC
  8
0
 62
7
  6
CONTINUOUS
 10
174.2708615031
 20
128.1749754098
 40
1.2
 50
270.0
 51
90.0
  0
ENDSEC
  0
EOF
