  0
SECTION
  2
HEADER
  9
$EXTMAX
 10
210.0
 20
297.0
 30
0.0
  9
$EXTMIN
 10
0.0
 20
0.0
 30
0.0
  9
$LIMMIN
 10
0.0
 20
0.0
  9
$LIMMAX
 10
210.0
 20
297.0
  9
$VIEWCTR
 10
105.0
 20
148.5
  9
$VIEWSIZE
 40
297.0
  9
$CLAYER
  8
0
  9
$LTSCALE
 40
19.36
  9
$CELTYPE
  6
BYLAYER
  9
$DIMSCALE
 40
1.0
  9
$DIMASZ
 40
3.5
  9
$DIMEXO
 40
1.0
  9
$DIMDLI
 40
13.376
  9
$DIMEXE
 40
2.0
  9
$DIMCEN
 40
3.168
  9
$DIMLFAC
 40
1.0
  9
$DIMBLK
  1
_FILLED
  9
$DIMALT
 70
0
  9
$DIMALTF
 40
0.0393700787
  9
$DIMTXT
 40
3.5
  9
$AUNITS
 70
0
  9
$PDMODE
 70
3
  9
$PDSIZE
 40
0.3125
  9
$TILEMODE
 70
1
  0
ENDSEC
  0
SECTION
  2
TABLES
  0
TABLE
  2
LTYPE
 70
6
  0
LTYPE
  2
BYBLOCK
 70
0
  3

 72
65
 73
0
 40
0.0
  0
LTYPE
  2
BYLAYER
 70
0
  3

 72
65
 73
0
 40
0.0
  0
LTYPE
  2
CONTINUOUS
 70
64
  3
Solid line
 72
65
 73
0
 40
0.0
  0
LTYPE
  2
CENTER
 70
64
  3
____ _ ____ _ ____ _ ____ _ ____ _ ____ _ ____
 72
65
 73
4
 40
0.6
 49
0.375
 49
-0.075
 49
0.075
 49
-0.075
  0
LTYPE
  2
HIDDEN
 70
64
  3
- - - - - - - - - - - - - - - - - - - -
 72
65
 73
2
 40
0.2
 49
0.1
 49
-0.1
  0
LTYPE
  2
PHANTOM
 70
64
  3
_____ _ _ _____ _ _ _____ _ _ _____
 72
65
 73
6
 40
0.8
 49
0.45
 49
-0.05
 49
0.1
 49
-0.05
 49
0.1
 49
-0.05
  0
LTYPE
  2
DOT
 70
64
  3
. . . . . . . . . . . . . . . . . . . .
 72
65
 73
2
 40
0.2
 49
0.1
 49
-0.1
  0
LTYPE
  2
DASHED
 70
64
  3
- - - - - - - - - - - - - - - - - - - -
 72
65
 73
2
 40
0.2
 49
0.1
 49
-0.1
  0
ENDTAB
  0
TABLE
  2
LAYER
 70
36
  0
LAYER
  2
0
 70
0
 62
7
  6
CONTINUOUS
  0
LAYER
  2
DEFAULT_1
 70
0
 62
7
  6
CENTER
  0
LAYER
  2
DEFAULT_2
 70
0
 62
8
  6
HIDDEN
  0
LAYER
  2
DEFAULT_3
 70
0
 62
7
  6
PHANTOM
  0
LAYER
  2
1_AXIS
 70
0
 62
7
  6
CONTINUOUS
  0
LAYER
  2
1_DATUMPLANE
 70
0
 62
7
  6
CONTINUOUS
  0
LAYER
  2
1_DATUM_PLANES
 70
0
 62
7
  6
CONTINUOUS
  0
LAYER
  2
2_FEATURE
 70
0
 62
7
  6
CONTINUOUS
  0
LAYER
  2
4_QUILT
 70
0
 62
7
  6
CONTINUOUS
  0
LAYER
  2
6_DIM
 70
0
 62
7
  6
CONTINUOUS
  0
LAYER
  2
CSYS
 70
0
 62
7
  6
CONTINUOUS
  0
LAYER
  2
CURVE
 70
0
 62
7
  6
CONTINUOUS
  0
LAYER
  2
NOTES
 70
0
 62
7
  6
CONTINUOUS
  0
ENDTAB
  0
TABLE
  2
STYLE
 70
1
  0
STYLE
  2
STANDARD
 70
0
 40
0.0
 41
0.8
 50
0.0
 71
0
 42
0.2
  3
txt
  4

  0
STYLE
  2
TEXTSTYLE_1
 70
0
 40
0.0
 41
0.8
 50
0.0
 71
0
 42
0.2
  3
gdt
  4

  0
STYLE
  2
TEXTSTYLE_2
 70
0
 40
0.0
 41
0.6
 50
0.0
 71
0
 42
0.2
  3
txt
  4

  0
STYLE
  2
TEXTSTYLE_3
 70
0
 40
0.0
 41
1.0
 50
0.0
 71
0
 42
0.2
  3
ftb_____.ttf
  4

  0
STYLE
  2
TEXTSTYLE_4
 70
0
 40
0.0
 41
1.0
 50
0.0
 71
0
 42
0.2
  3
fti_____.ttf
  4

  0
STYLE
  2
TEXTSTYLE_5
 70
0
 40
0.0
 41
1.0
 50
0.0
 71
0
 42
0.2
  3
frutiger light.ttf
  4

  0
STYLE
  2
TEXTSTYLE_6
 70
0
 40
0.0
 41
0.7
 50
0.0
 71
0
 42
0.2
  3
txt
  4

  0
STYLE
  2
TEXTSTYLE_7
 70
0
 40
0.0
 41
0.38
 50
0.0
 71
0
 42
0.2
  3
txt
  4

  0
ENDTAB
  0
ENDSEC
  0
SECTION
  2
BLOCKS
  0
BLOCK
  8
0
 62
2
  6
CONTINUOUS
  2
UNI_LOGO2_BL1
 70
64
 10
173.5956734183
 20
35.5937998301
  0
TEXT
  8
0
 62
7
  6
CONTINUOUS
 10
164.6539584268
 20
30.6865562072
  7
TEXTSTYLE_4
 40
1.0655737705
  1
The brand for plastic modular belts and chains
 41
1.0
 72
0
  0
LINE
  8
0
 62
7
  6
CONTINUOUS
 10
149.5737418074
 20
36.1675703219
 11
149.5737418074
 21
34.0364227809
  0
LINE
  8
0
 62
7
  6
CONTINUOUS
 10
149.8628043005
 20
31.0454914852
 11
149.8628043005
 21
31.1422825445
  0
LINE
  8
0
 62
7
  6
CONTINUOUS
 10
149.5737418074
 20
31.1100188581
 11
149.6315543091
 21
30.9164367395
  0
LINE
  8
0
 62
7
  6
CONTINUOUS
 10
150.9671844304
 20
33.9544555678
 11
150.9671844304
 21
36.1675703219
  0
LINE
  8
0
 62
7
  6
CONTINUOUS
 10
151.8862417523
 20
32.1101932727
 11
151.8862417523
 21
30.5937998301
  0
LINE
  8
0
 62
7
  6
CONTINUOUS
 10
152.1753043074
 20
30.5937998301
 11
152.1753043074
 21
31.3358647082
  0
LINE
  8
0
 62
7
  6
CONTINUOUS
 10
152.1753043074
 20
31.4649194539
 11
152.1753043074
 21
32.1101932727
  0
LINE
  8
0
 62
7
  6
CONTINUOUS
 10
149.6315543091
 20
31.3036010218
 11
149.5737418074
 21
31.1100188581
  0
LINE
  8
0
 62
7
  6
CONTINUOUS
 10
149.9784292936
 20
30.8841730531
 11
149.8628043005
 21
31.0454914852
  0
LINE
  8
0
 62
7
  6
CONTINUOUS
 10
151.0768668626
 20
31.400392081
 11
151.1346793074
 21
31.3036010218
  0
LINE
  8
0
 62
7
  6
CONTINUOUS
 10
151.4237418626
 20
31.3036010218
 11
151.3659292523
 21
31.4326557675
  0
LINE
  8
0
 62
7
  6
CONTINUOUS
 10
152.852430332
 20
36.1675703219
 11
152.852430332
 21
34.3642916334
  0
LINE
  8
0
 62
7
  6
CONTINUOUS
 10
152.852430332
 20
33.0528162235
 11
152.852430332
 21
32.3970785186
  0
LINE
  8
0
 62
7
  6
CONTINUOUS
 10
153.2159293074
 20
31.2390736489
 11
153.2159293074
 21
30.5937998301
  0
LINE
  8
0
 62
7
  6
CONTINUOUS
 10
153.5049916972
 20
30.5937998301
 11
153.5049916972
 21
31.2390736489
  0
LINE
  8
0
 62
7
  6
CONTINUOUS
 10
149.8628043005
 20
31.1422825445
 11
149.9206168074
 21
31.2713373354
  0
LINE
  8
0
 62
7
  6
CONTINUOUS
 10
149.6315543091
 20
30.9164367395
 11
149.7471793074
 21
30.7873819712
  0
LINE
  8
0
 62
7
  6
CONTINUOUS
 10
153.1581166972
 20
31.3681283946
 11
153.2159293074
 21
31.2390736489
  0
LINE
  8
0
 62
7
  6
CONTINUOUS
 10
153.9674919177
 20
30.8841730531
 11
154.0253041972
 21
30.7551182848
  0
LINE
  8
0
 62
7
  6
CONTINUOUS
 10
153.5049916972
 20
31.2390736489
 11
153.4471794177
 21
31.400392081
  0
LINE
  8
0
 62
7
  6
CONTINUOUS
 10
153.9674919177
 20
31.4326557675
 11
153.9674919177
 21
31.3681283946
  0
LINE
  8
0
 62
7
  6
CONTINUOUS
 10
153.9674919177
 20
30.9809641124
 11
153.9674919177
 21
30.8841730531
  0
LINE
  8
0
 62
7
  6
CONTINUOUS
 10
154.245872955
 20
32.3970785186
 11
154.245872955
 21
36.1675703219
  0
LINE
  8
0
 62
7
  6
CONTINUOUS
 10
154.2565543074
 20
30.8519093441
 11
154.2565543074
 21
30.9164367395
  0
LINE
  8
0
 62
7
  6
CONTINUOUS
 10
154.5737418074
 20
36.1675703219
 11
154.5737418074
 21
32.3970785186
  0
LINE
  8
0
 62
7
  6
CONTINUOUS
 10
151.3659292523
 20
30.7873819712
 11
151.4237418626
 21
30.9164367395
  0
LINE
  8
0
 62
7
  6
CONTINUOUS
 10
155.759679528
 20
30.6905909007
 11
155.7018665869
 21
30.8519093441
  0
LINE
  8
0
 62
7
  6
CONTINUOUS
 10
155.412804528
 20
31.3681283946
 11
155.412804528
 21
31.2713373354
  0
LINE
  8
0
 62
7
  6
CONTINUOUS
 10
155.412804528
 20
31.1422825445
 11
155.412804528
 21
30.9487004259
  0
LINE
  8
0
 62
7
  6
CONTINUOUS
 10
155.7018665869
 20
30.8519093441
 11
155.7018665869
 21
31.3681283946
  0
LINE
  8
0
 62
7
  6
CONTINUOUS
 10
155.9671844304
 20
32.3970785186
 11
155.9671844304
 21
34.2003572071
  0
LINE
  8
0
 62
7
  6
CONTINUOUS
 10
155.9671844304
 20
35.511832617
 11
155.9671844304
 21
36.1675703219
  0
LINE
  8
0
 62
7
  6
CONTINUOUS
 10
156.279992028
 20
32.1101932727
 11
156.279992028
 21
31.9488748406
  0
LINE
  8
0
 62
7
  6
CONTINUOUS
 10
156.279992028
 20
31.626237886
 11
156.279992028
 21
30.5937998301
  0
LINE
  8
0
 62
7
  6
CONTINUOUS
 10
156.5690540869
 20
30.5937998301
 11
156.5690540869
 21
31.626237886
  0
LINE
  8
0
 62
7
  6
CONTINUOUS
 10
156.5690540869
 20
31.9488748406
 11
156.5690540869
 21
32.1101932727
  0
LINE
  8
0
 62
7
  6
CONTINUOUS
 10
151.1346793074
 20
30.9164367395
 11
151.0768668626
 21
30.8196456577
  0
LINE
  8
0
 62
7
  6
CONTINUOUS
 10
153.4471794177
 20
31.400392081
 11
153.3893668074
 21
31.4649194539
  0
LINE
  8
0
 62
7
  6
CONTINUOUS
 10
154.3143669177
 20
30.7873819712
 11
154.2565543074
 21
30.8519093441
  0
LINE
  8
0
 62
7
  6
CONTINUOUS
 10
155.4706168074
 20
30.6583272086
 11
155.5284290869
 21
30.5937998301
  0
LINE
  8
0
 62
7
  6
CONTINUOUS
 10
155.412804528
 20
30.7551182848
 11
155.4706168074
 21
30.6583272086
  0
LINE
  8
0
 62
7
  6
CONTINUOUS
 10
155.8174918074
 20
30.5937998301
 11
155.759679528
 21
30.6905909007
  0
LINE
  8
0
 62
7
  6
CONTINUOUS
 10
155.7018665869
 20
31.3681283946
 11
155.6440543074
 21
31.4649194539
  0
LINE
  8
0
 62
7
  6
CONTINUOUS
 10
157.0315543074
 20
31.626237886
 11
157.0315543074
 21
30.5937998301
  0
LINE
  8
0
 62
7
  6
CONTINUOUS
 10
157.320617028
 20
30.5937998301
 11
157.320617028
 21
31.3358647082
  0
LINE
  8
0
 62
7
  6
CONTINUOUS
 10
157.320617028
 20
31.4649194539
 11
157.320617028
 21
31.626237886
  0
LINE
  8
0
 62
7
  6
CONTINUOUS
 10
157.852430332
 20
34.6101932727
 11
157.852430332
 21
32.3970785186
  0
LINE
  8
0
 62
7
  6
CONTINUOUS
 10
149.7471793074
 20
31.4326557675
 11
149.6315543091
 21
31.3036010218
  0
LINE
  8
0
 62
7
  6
CONTINUOUS
 10
149.9206168074
 20
31.2713373354
 11
149.9784292936
 21
31.3358647082
  0
LINE
  8
0
 62
7
  6
CONTINUOUS
 10
149.7471793074
 20
30.7873819712
 11
149.8628043005
 21
30.7228545871
  0
LINE
  8
0
 62
7
  6
CONTINUOUS
 10
150.1518667936
 20
30.7873819712
 11
149.9784292936
 21
30.8841730531
  0
LINE
  8
0
 62
7
  6
CONTINUOUS
 10
155.3549915869
 20
31.4326557675
 11
155.412804528
 21
31.3681283946
  0
LINE
  8
0
 62
7
  6
CONTINUOUS
 10
158.3034290869
 20
31.3681283946
 11
158.361242028
 21
31.2068099625
  0
LINE
  8
0
 62
7
  6
CONTINUOUS
 10
158.6503040869
 20
31.2068099625
 11
158.5924918074
 21
31.3681283946
  0
LINE
  8
0
 62
7
  6
CONTINUOUS
 10
158.361242028
 20
31.2068099625
 11
158.361242028
 21
30.5937998301
  0
LINE
  8
0
 62
7
  6
CONTINUOUS
 10
158.6503040869
 20
30.5937998301
 11
158.6503040869
 21
31.2068099625
  0
LINE
  8
0
 62
7
  6
CONTINUOUS
 10
159.1128043074
 20
31.4326557675
 11
159.1128043074
 21
31.3681283946
  0
LINE
  8
0
 62
7
  6
CONTINUOUS
 10
159.245872955
 20
32.3970785186
 11
159.245872955
 21
34.5282260596
  0
LINE
  8
0
 62
7
  6
CONTINUOUS
 10
159.5737418074
 20
36.1675703219
 11
159.5737418074
 21
32.3970785186
  0
LINE
  8
0
 62
7
  6
CONTINUOUS
 10
154.2565543074
 20
30.9164367395
 11
154.3143669177
 21
31.0132277988
  0
LINE
  8
0
 62
7
  6
CONTINUOUS
 10
149.8628043005
 20
30.7228545871
 11
150.0362418212
 21
30.6583272086
  0
LINE
  8
0
 62
7
  6
CONTINUOUS
 10
151.3659292523
 20
31.4326557675
 11
151.1924917523
 21
31.5294468267
  0
LINE
  8
0
 62
7
  6
CONTINUOUS
 10
154.0253041972
 20
30.7551182848
 11
154.1987416972
 21
30.6583272086
  0
LINE
  8
0
 62
7
  6
CONTINUOUS
 10
153.0424918074
 20
31.4326557675
 11
153.1581166972
 21
31.3681283946
  0
LINE
  8
0
 62
7
  6
CONTINUOUS
 10
153.3893668074
 20
31.4649194539
 11
153.2737419177
 21
31.5294468267
  0
LINE
  8
0
 62
7
  6
CONTINUOUS
 10
159.1128043074
 20
30.8519093441
 11
159.228429528
 21
30.7228545871
  0
LINE
  8
0
 62
7
  6
CONTINUOUS
 10
159.4596793074
 20
30.7873819712
 11
159.401867028
 21
30.8519093441
  0
LINE
  8
0
 62
7
  6
CONTINUOUS
 10
159.1128043074
 20
31.3681283946
 11
159.228429528
 21
31.2390736489
  0
LINE
  8
0
 62
7
  6
CONTINUOUS
 10
158.5924918074
 20
31.3681283946
 11
158.534679528
 21
31.4649194539
  0
LINE
  8
0
 62
7
  6
CONTINUOUS
 10
160.9628038663
 20
30.7873819712
 11
160.9628038663
 21
30.8519093441
  0
LINE
  8
0
 62
7
  6
CONTINUOUS
 10
160.9671844304
 20
32.3970785186
 11
160.9671844304
 21
36.1675703219
  0
LINE
  8
0
 62
7
  6
CONTINUOUS
 10
154.0253041972
 20
31.4971831403
 11
153.9674919177
 21
31.4326557675
  0
LINE
  8
0
 62
7
  6
CONTINUOUS
 10
150.9034292799
 20
31.4649194539
 11
151.0768668626
 21
31.400392081
  0
LINE
  8
0
 62
7
  6
CONTINUOUS
 10
155.6440543074
 20
31.4649194539
 11
155.5284290869
 21
31.5294468267
  0
LINE
  8
0
 62
7
  6
CONTINUOUS
 10
159.4596793074
 20
31.3036010218
 11
159.401867028
 21
31.3681283946
  0
LINE
  8
0
 62
7
  6
CONTINUOUS
 10
160.615929528
 20
30.9164367395
 11
160.6737418074
 21
30.8519093441
  0
LINE
  8
0
 62
7
  6
CONTINUOUS
 10
160.9628038663
 20
30.8519093441
 11
160.8471793074
 21
30.9809641124
  0
LINE
  8
0
 62
7
  6
CONTINUOUS
 10
160.615929528
 20
31.4326557675
 11
160.6737418074
 21
31.3681283946
  0
LINE
  8
0
 62
7
  6
CONTINUOUS
 10
160.9628038663
 20
31.3681283946
 11
160.8471793074
 21
31.4971831403
  0
LINE
  8
0
 62
7
  6
CONTINUOUS
 10
154.2565543074
 20
31.3681283946
 11
154.3143669177
 21
31.4326557675
  0
LINE
  8
0
 62
7
  6
CONTINUOUS
 10
154.0831168074
 20
31.1100188581
 11
153.9674919177
 21
30.9809641124
  0
LINE
  8
0
 62
7
  6
CONTINUOUS
 10
155.412804528
 20
30.9487004259
 11
155.3549915869
 21
30.8841730531
  0
LINE
  8
0
 62
7
  6
CONTINUOUS
 10
155.3549915869
 20
30.6905909007
 11
155.412804528
 21
30.7551182848
  0
LINE
  8
0
 62
7
  6
CONTINUOUS
 10
154.1987416972
 20
30.6583272086
 11
154.3143669177
 21
30.6260635193
  0
LINE
  8
0
 62
7
  6
CONTINUOUS
 10
151.1924917523
 20
31.5294468267
 11
150.9612418074
 21
31.5939741996
  0
LINE
  8
0
 62
7
  6
CONTINUOUS
 10
154.5456166972
 20
30.7228545871
 11
154.3143669177
 21
30.7873819712
  0
LINE
  8
0
 62
7
  6
CONTINUOUS
 10
153.2737419177
 20
31.5294468267
 11
153.1003044177
 21
31.5939741996
  0
LINE
  8
0
 62
7
  6
CONTINUOUS
 10
155.5284290869
 20
31.5294468267
 11
155.3549915869
 21
31.5939741996
  0
LINE
  8
0
 62
7
  6
CONTINUOUS
 10
158.187804528
 20
31.4326557675
 11
158.3034290869
 21
31.3681283946
  0
LINE
  8
0
 62
7
  6
CONTINUOUS
 10
158.534679528
 20
31.4649194539
 11
158.4190543074
 21
31.5294468267
  0
LINE
  8
0
 62
7
  6
CONTINUOUS
 10
150.0362418212
 20
30.6583272086
 11
150.2096793212
 21
30.6260635193
  0
LINE
  8
0
 62
7
  6
CONTINUOUS
 10
150.498741835
 20
30.7228545871
 11
150.1518667936
 21
30.7873819712
  0
LINE
  8
0
 62
7
  6
CONTINUOUS
 10
152.9268669177
 20
31.4649194539
 11
153.0424918074
 21
31.4326557675
  0
LINE
  8
0
 62
7
  6
CONTINUOUS
 10
155.239367028
 20
31.4649194539
 11
155.3549915869
 21
31.4326557675
  0
LINE
  8
0
 62
7
  6
CONTINUOUS
 10
159.575304528
 20
30.7551182848
 11
159.4596793074
 21
30.7873819712
  0
LINE
  8
0
 62
7
  6
CONTINUOUS
 10
158.0721793074
 20
31.4649194539
 11
158.187804528
 21
31.4326557675
  0
LINE
  8
0
 62
7
  6
CONTINUOUS
 10
159.228429528
 20
30.7228545871
 11
159.401867028
 21
30.6583272086
  0
LINE
  8
0
 62
7
  6
CONTINUOUS
 10
158.4190543074
 20
31.5294468267
 11
158.2456168074
 21
31.5939741996
  0
LINE
  8
0
 62
7
  6
CONTINUOUS
 10
159.6331168074
 20
31.2390736489
 11
159.4596793074
 21
31.3036010218
  0
LINE
  8
0
 62
7
  6
CONTINUOUS
 10
160.442492028
 20
30.9809641124
 11
160.615929528
 21
30.9164367395
  0
LINE
  8
0
 62
7
  6
CONTINUOUS
 10
160.8471793074
 20
31.4971831403
 11
160.6737418074
 21
31.5617105132
  0
LINE
  8
0
 62
7
  6
CONTINUOUS
 10
159.228429528
 20
31.2390736489
 11
159.4596793074
 21
31.1422825445
  0
LINE
  8
0
 62
7
  6
CONTINUOUS
 10
160.8471793074
 20
30.9809641124
 11
160.615929528
 21
31.0777551716
  0
LINE
  8
0
 62
7
  6
CONTINUOUS
 10
159.401867028
 20
31.3681283946
 11
159.4596793074
 21
31.4326557675
  0
LINE
  8
0
 62
7
  6
CONTINUOUS
 10
149.8628043005
 20
31.4971831403
 11
149.7471793074
 21
31.4326557675
  0
LINE
  8
0
 62
7
  6
CONTINUOUS
 10
149.9784292936
 20
31.3358647082
 11
150.1518667936
 21
31.4326557675
  0
LINE
  8
0
 62
7
  6
CONTINUOUS
 10
152.2909293626
 20
31.5294468267
 11
152.1753043074
 21
31.4649194539
  0
LINE
  8
0
 62
7
  6
CONTINUOUS
 10
152.1753043074
 20
31.3358647082
 11
152.2909293626
 21
31.400392081
  0
LINE
  8
0
 62
7
  6
CONTINUOUS
 10
151.1924917523
 20
30.6905909007
 11
151.3659292523
 21
30.7873819712
  0
LINE
  8
0
 62
7
  6
CONTINUOUS
 10
150.2096793212
 20
30.6260635193
 11
150.5565542799
 21
30.5937998301
  0
LINE
  8
0
 62
7
  6
CONTINUOUS
 10
154.3143669177
 20
30.6260635193
 11
154.5456166972
 21
30.5937998301
  0
LINE
  8
0
 62
7
  6
CONTINUOUS
 10
152.6956168074
 20
31.4971831403
 11
152.9268669177
 21
31.4649194539
  0
LINE
  8
0
 62
7
  6
CONTINUOUS
 10
155.0081169177
 20
31.4971831403
 11
155.239367028
 21
31.4649194539
  0
LINE
  8
0
 62
7
  6
CONTINUOUS
 10
159.4596793074
 20
31.1422825445
 11
160.442492028
 21
30.9809641124
  0
LINE
  8
0
 62
7
  6
CONTINUOUS
 10
160.615929528
 20
31.0777551716
 11
159.6331168074
 21
31.2390736489
  0
LINE
  8
0
 62
7
  6
CONTINUOUS
 10
153.1003044177
 20
31.5939741996
 11
152.9268669177
 21
31.626237886
  0
LINE
  8
0
 62
7
  6
CONTINUOUS
 10
159.401867028
 20
30.6583272086
 11
159.575304528
 21
30.6260635193
  0
LINE
  8
0
 62
7
  6
CONTINUOUS
 10
158.2456168074
 20
31.5939741996
 11
158.0721793074
 21
31.626237886
  0
LINE
  8
0
 62
7
  6
CONTINUOUS
 10
160.5003043074
 20
31.4649194539
 11
160.615929528
 21
31.4326557675
  0
LINE
  8
0
 62
7
  6
CONTINUOUS
 10
160.6737418074
 20
30.8519093441
 11
160.615929528
 21
30.7873819712
  0
LINE
  8
0
 62
7
  6
CONTINUOUS
 10
159.228429528
 20
31.5294468267
 11
159.1128043074
 21
31.4326557675
  0
LINE
  8
0
 62
7
  6
CONTINUOUS
 10
154.1409294177
 20
31.5617105132
 11
154.0253041972
 21
31.4971831403
  0
LINE
  8
0
 62
7
  6
CONTINUOUS
 10
154.1987416972
 20
31.1745462761
 11
154.0831168074
 21
31.1100188581
  0
LINE
  8
0
 62
7
  6
CONTINUOUS
 10
154.3143669177
 20
31.0132277988
 11
154.4299918074
 21
31.0777551716
  0
LINE
  8
0
 62
7
  6
CONTINUOUS
 10
151.8862417523
 20
30.5937998301
 11
152.1753043074
 21
30.5937998301
  0
LINE
  8
0
 62
7
  6
CONTINUOUS
 10
153.2159293074
 20
30.5937998301
 11
153.5049916972
 21
30.5937998301
  0
LINE
  8
0
 62
7
  6
CONTINUOUS
 10
154.5456166972
 20
30.5937998301
 11
154.8924916972
 21
30.5937998301
  0
LINE
  8
0
 62
7
  6
CONTINUOUS
 10
155.5284290869
 20
30.5937998301
 11
155.8174918074
 21
30.5937998301
  0
LINE
  8
0
 62
7
  6
CONTINUOUS
 10
156.279992028
 20
30.5937998301
 11
156.5690540869
 21
30.5937998301
  0
LINE
  8
0
 62
7
  6
CONTINUOUS
 10
157.0315543074
 20
30.5937998301
 11
157.320617028
 21
30.5937998301
  0
LINE
  8
0
 62
7
  6
CONTINUOUS
 10
158.361242028
 20
30.5937998301
 11
158.6503040869
 21
30.5937998301
  0
LINE
  8
0
 62
7
  6
CONTINUOUS
 10
159.922179528
 20
30.5937998301
 11
160.269054528
 21
30.5937998301
  0
LINE
  8
0
 62
7
  6
CONTINUOUS
 10
160.269054528
 20
30.7228545871
 11
159.922179528
 21
30.7228545871
  0
LINE
  8
0
 62
7
  6
CONTINUOUS
 10
154.8924916972
 20
30.7228545871
 11
154.5456166972
 21
30.7228545871
  0
LINE
  8
0
 62
7
  6
CONTINUOUS
 10
159.401867028
 20
30.8519093441
 11
159.1128043074
 21
30.8519093441
  0
LINE
  8
0
 62
7
  6
CONTINUOUS
 10
151.4237418626
 20
30.9164367395
 11
151.1346793074
 21
30.9164367395
  0
LINE
  8
0
 62
7
  6
CONTINUOUS
 10
150.498741835
 20
31.4971831403
 11
150.9034292799
 21
31.4649194539
  0
LINE
  8
0
 62
7
  6
CONTINUOUS
 10
150.9612418074
 20
31.5939741996
 11
150.5565542799
 21
31.626237886
  0
LINE
  8
0
 62
7
  6
CONTINUOUS
 10
159.575304528
 20
30.6260635193
 11
159.922179528
 21
30.5937998301
  0
LINE
  8
0
 62
7
  6
CONTINUOUS
 10
159.922179528
 20
30.7228545871
 11
159.575304528
 21
30.7551182848
  0
LINE
  8
0
 62
7
  6
CONTINUOUS
 10
155.3549915869
 20
31.5939741996
 11
155.0081169177
 21
31.626237886
  0
LINE
  8
0
 62
7
  6
CONTINUOUS
 10
160.1534293074
 20
31.4971831403
 11
160.5003043074
 21
31.4649194539
  0
LINE
  8
0
 62
7
  6
CONTINUOUS
 10
160.5003043074
 20
31.5939741996
 11
160.1534293074
 21
31.626237886
  0
LINE
  8
0
 62
7
  6
CONTINUOUS
 10
157.840929528
 20
31.4971831403
 11
158.0721793074
 21
31.4649194539
  0
LINE
  8
0
 62
7
  6
CONTINUOUS
 10
160.6737418074
 20
31.5617105132
 11
160.5003043074
 21
31.5939741996
  0
LINE
  8
0
 62
7
  6
CONTINUOUS
 10
160.8471793074
 20
30.6905909007
 11
160.9628038663
 21
30.7873819712
  0
LINE
  8
0
 62
7
  6
CONTINUOUS
 10
155.3549915869
 20
30.8841730531
 11
155.1815540869
 21
30.7873819712
  0
LINE
  8
0
 62
7
  6
CONTINUOUS
 10
157.4362415869
 20
31.5294468267
 11
157.320617028
 21
31.4649194539
  0
LINE
  8
0
 62
7
  6
CONTINUOUS
 10
157.320617028
 20
31.3358647082
 11
157.4362415869
 21
31.400392081
  0
LINE
  8
0
 62
7
  6
CONTINUOUS
 10
150.0362418212
 20
31.5617105132
 11
149.8628043005
 21
31.4971831403
  0
LINE
  8
0
 62
7
  6
CONTINUOUS
 10
152.4643666972
 20
31.5939741996
 11
152.2909293626
 21
31.5294468267
  0
LINE
  8
0
 62
7
  6
CONTINUOUS
 10
152.2909293626
 20
31.400392081
 11
152.4643666972
 21
31.4649194539
  0
LINE
  8
0
 62
7
  6
CONTINUOUS
 10
151.0768668626
 20
30.8196456577
 11
150.9034292799
 21
30.7551182848
  0
LINE
  8
0
 62
7
  6
CONTINUOUS
 10
160.5003043074
 20
30.7551182848
 11
160.269054528
 21
30.7228545871
  0
LINE
  8
0
 62
7
  6
CONTINUOUS
 10
154.8924916972
 20
30.5937998301
 11
155.1815540869
 21
30.6260635193
  0
LINE
  8
0
 62
7
  6
CONTINUOUS
 10
160.269054528
 20
30.5937998301
 11
160.615929528
 21
30.6260635193
  0
LINE
  8
0
 62
7
  6
CONTINUOUS
 10
150.5565542799
 20
30.5937998301
 11
150.9612418074
 21
30.6260635193
  0
LINE
  8
0
 62
7
  6
CONTINUOUS
 10
150.9034292799
 20
30.7551182848
 11
150.498741835
 21
30.7228545871
  0
LINE
  8
0
 62
7
  6
CONTINUOUS
 10
154.7768668074
 20
31.1422825445
 11
155.412804528
 21
31.1422825445
  0
LINE
  8
0
 62
7
  6
CONTINUOUS
 10
155.412804528
 20
31.2713373354
 11
154.7768668074
 21
31.2713373354
  0
LINE
  8
0
 62
7
  6
CONTINUOUS
 10
151.1346793074
 20
31.3036010218
 11
151.4237418626
 21
31.3036010218
  0
LINE
  8
0
 62
7
  6
CONTINUOUS
 10
153.9674919177
 20
31.3681283946
 11
154.2565543074
 21
31.3681283946
  0
LINE
  8
0
 62
7
  6
CONTINUOUS
 10
160.6737418074
 20
31.3681283946
 11
160.9628038663
 21
31.3681283946
  0
LINE
  8
0
 62
7
  6
CONTINUOUS
 10
154.6612419177
 20
31.4971831403
 11
155.0081169177
 21
31.4971831403
  0
LINE
  8
0
 62
7
  6
CONTINUOUS
 10
159.8065543074
 20
31.4971831403
 11
160.1534293074
 21
31.4971831403
  0
LINE
  8
0
 62
7
  6
CONTINUOUS
 10
160.1534293074
 20
31.626237886
 11
159.8065543074
 21
31.626237886
  0
LINE
  8
0
 62
7
  6
CONTINUOUS
 10
158.0721793074
 20
31.626237886
 11
157.840929528
 21
31.626237886
  0
LINE
  8
0
 62
7
  6
CONTINUOUS
 10
157.320617028
 20
31.626237886
 11
157.0315543074
 21
31.626237886
  0
LINE
  8
0
 62
7
  6
CONTINUOUS
 10
156.5690540869
 20
31.626237886
 11
156.279992028
 21
31.626237886
  0
LINE
  8
0
 62
7
  6
CONTINUOUS
 10
155.0081169177
 20
31.626237886
 11
154.6612419177
 21
31.626237886
  0
LINE
  8
0
 62
7
  6
CONTINUOUS
 10
152.9268669177
 20
31.626237886
 11
152.6956168074
 21
31.626237886
  0
LINE
  8
0
 62
7
  6
CONTINUOUS
 10
156.279992028
 20
31.9488748406
 11
156.5690540869
 21
31.9488748406
  0
LINE
  8
0
 62
7
  6
CONTINUOUS
 10
156.5690540869
 20
32.1101932727
 11
156.279992028
 21
32.1101932727
  0
LINE
  8
0
 62
7
  6
CONTINUOUS
 10
152.1753043074
 20
32.1101932727
 11
151.8862417523
 21
32.1101932727
  0
LINE
  8
0
 62
7
  6
CONTINUOUS
 10
151.2130860697
 20
32.3970785186
 11
151.6256574183
 21
32.3970785186
  0
LINE
  8
0
 62
7
  6
CONTINUOUS
 10
152.852430332
 20
32.3970785186
 11
154.245872955
 21
32.3970785186
  0
LINE
  8
0
 62
7
  6
CONTINUOUS
 10
154.5737418074
 20
32.3970785186
 11
155.9671844304
 21
32.3970785186
  0
LINE
  8
0
 62
7
  6
CONTINUOUS
 10
157.852430332
 20
32.3970785186
 11
159.245872955
 21
32.3970785186
  0
LINE
  8
0
 62
7
  6
CONTINUOUS
 10
159.5737418074
 20
32.3970785186
 11
160.9671844304
 21
32.3970785186
  0
LINE
  8
0
 62
7
  6
CONTINUOUS
 10
157.6096790869
 20
31.5939741996
 11
157.4362415869
 21
31.5294468267
  0
LINE
  8
0
 62
7
  6
CONTINUOUS
 10
155.1815540869
 20
30.6260635193
 11
155.3549915869
 21
30.6905909007
  0
LINE
  8
0
 62
7
  6
CONTINUOUS
 10
160.615929528
 20
30.6260635193
 11
160.8471793074
 21
30.6905909007
  0
LINE
  8
0
 62
7
  6
CONTINUOUS
 10
160.615929528
 20
30.7873819712
 11
160.5003043074
 21
30.7551182848
  0
LINE
  8
0
 62
7
  6
CONTINUOUS
 10
159.575304528
 20
31.4649194539
 11
159.8065543074
 21
31.4971831403
  0
LINE
  8
0
 62
7
  6
CONTINUOUS
 10
157.6096790869
 20
31.4649194539
 11
157.840929528
 21
31.4971831403
  0
LINE
  8
0
 62
7
  6
CONTINUOUS
 10
154.5456166972
 20
31.1100188581
 11
154.7768668074
 21
31.1422825445
  0
LINE
  8
0
 62
7
  6
CONTINUOUS
 10
157.840929528
 20
31.626237886
 11
157.6096790869
 21
31.5939741996
  0
LINE
  8
0
 62
7
  6
CONTINUOUS
 10
154.4299918074
 20
31.4649194539
 11
154.6612419177
 21
31.4971831403
  0
LINE
  8
0
 62
7
  6
CONTINUOUS
 10
159.8065543074
 20
31.626237886
 11
159.4596793074
 21
31.5939741996
  0
LINE
  8
0
 62
7
  6
CONTINUOUS
 10
154.7768668074
 20
31.2713373354
 11
154.4299918074
 21
31.2390736489
  0
LINE
  8
0
 62
7
  6
CONTINUOUS
 10
150.5565542799
 20
31.626237886
 11
150.2096793212
 21
31.5939741996
  0
LINE
  8
0
 62
7
  6
CONTINUOUS
 10
154.6612419177
 20
31.626237886
 11
154.2565543074
 21
31.5939741996
  0
LINE
  8
0
 62
7
  6
CONTINUOUS
 10
152.0327582009
 20
33.5446195022
 11
151.3770204959
 21
33.5446195022
  0
LINE
  8
0
 62
7
  6
CONTINUOUS
 10
157.4362415869
 20
31.400392081
 11
157.6096790869
 21
31.4649194539
  0
LINE
  8
0
 62
7
  6
CONTINUOUS
 10
159.4596793074
 20
31.4326557675
 11
159.575304528
 21
31.4649194539
  0
LINE
  8
0
 62
7
  6
CONTINUOUS
 10
159.4596793074
 20
31.5939741996
 11
159.228429528
 21
31.5294468267
  0
LINE
  8
0
 62
7
  6
CONTINUOUS
 10
155.1815540869
 20
30.7873819712
 11
154.8924916972
 21
30.7228545871
  0
LINE
  8
0
 62
7
  6
CONTINUOUS
 10
152.4643666972
 20
31.4649194539
 11
152.6956168074
 21
31.4971831403
  0
LINE
  8
0
 62
7
  6
CONTINUOUS
 10
152.6956168074
 20
31.626237886
 11
152.4643666972
 21
31.5939741996
  0
LINE
  8
0
 62
7
  6
CONTINUOUS
 10
150.2674918074
 20
31.4649194539
 11
150.498741835
 21
31.4971831403
  0
LINE
  8
0
 62
7
  6
CONTINUOUS
 10
156.7868565615
 20
35.0200293383
 11
157.4425942664
 21
35.0200293383
  0
LINE
  8
0
 62
7
  6
CONTINUOUS
 10
154.4299918074
 20
31.0777551716
 11
154.5456166972
 21
31.1100188581
  0
LINE
  8
0
 62
7
  6
CONTINUOUS
 10
154.4299918074
 20
31.2390736489
 11
154.1987416972
 21
31.1745462761
  0
LINE
  8
0
 62
7
  6
CONTINUOUS
 10
154.3143669177
 20
31.4326557675
 11
154.4299918074
 21
31.4649194539
  0
LINE
  8
0
 62
7
  6
CONTINUOUS
 10
150.9612418074
 20
30.6260635193
 11
151.1924917523
 21
30.6905909007
  0
LINE
  8
0
 62
7
  6
CONTINUOUS
 10
154.2565543074
 20
31.5939741996
 11
154.1409294177
 21
31.5617105132
  0
LINE
  8
0
 62
7
  6
CONTINUOUS
 10
150.2096793212
 20
31.5939741996
 11
150.0362418212
 21
31.5617105132
  0
LINE
  8
0
 62
7
  6
CONTINUOUS
 10
160.9671844304
 20
36.1675703219
 11
159.5737418074
 21
36.1675703219
  0
LINE
  8
0
 62
7
  6
CONTINUOUS
 10
157.6065286927
 20
36.1675703219
 11
157.1939573441
 21
36.1675703219
  0
LINE
  8
0
 62
7
  6
CONTINUOUS
 10
155.9671844304
 20
36.1675703219
 11
154.5737418074
 21
36.1675703219
  0
LINE
  8
0
 62
7
  6
CONTINUOUS
 10
154.245872955
 20
36.1675703219
 11
152.852430332
 21
36.1675703219
  0
LINE
  8
0
 62
7
  6
CONTINUOUS
 10
150.9671844304
 20
36.1675703219
 11
149.5737418074
 21
36.1675703219
  0
LINE
  8
0
 62
7
  6
CONTINUOUS
 10
150.1518667936
 20
31.4326557675
 11
150.2674918074
 21
31.4649194539
  0
CIRCLE
  8
0
 62
7
  6
CONTINUOUS
 10
160.2704631189
 20
38.5036358957
 40
2.0901639344
  0
ARC
  8
0
 62
7
  6
CONTINUOUS
 10
151.2130860697
 20
34.0364227809
 40
1.6393442623
 50
180.0
 51
270.0
  0
ARC
  8
0
 62
7
  6
CONTINUOUS
 10
157.6065286927
 20
34.5282260596
 40
1.6393442623
 50
0.0
 51
90.0
  0
ARC
  8
0
 62
7
  6
CONTINUOUS
 10
151.6256574183
 20
33.8724883547
 40
1.4754098361
 50
270.0
 51
326.2510114041
  0
ARC
  8
0
 62
7
  6
CONTINUOUS
 10
157.1939573441
 20
34.6921604858
 40
1.4754098361
 50
90.0
 51
146.2510114041
  0
ARC
  8
0
 62
7
  6
CONTINUOUS
 10
152.0327582009
 20
34.3642916334
 40
0.8196721311
 50
270.0
 51
360.0
  0
ARC
  8
0
 62
7
  6
CONTINUOUS
 10
156.7868565615
 20
34.2003572071
 40
0.8196721311
 50
90.0
 51
180.0
  0
ARC
  8
0
 62
7
  6
CONTINUOUS
 10
151.3770204959
 20
33.9544555678
 40
0.4098360656
 50
180.0
 51
270.0
  0
ARC
  8
0
 62
7
  6
CONTINUOUS
 10
157.4425942664
 20
34.6101932727
 40
0.4098360656
 50
0.0
 51
90.0
  0
SOLID
  8
0
 62
7
  6
CONTINUOUS
 10
156.279992028
 20
31.9488752009
 11
156.279992028
 21
32.1101936845
 12
156.5690540869
 22
31.9488752009
 13
156.5690540869
 23
32.1101936845
  0
SOLID
  8
0
 62
7
  6
CONTINUOUS
 10
150.5565542799
 20
31.6262382337
 11
150.9612418074
 21
31.5939740028
 12
150.2096793212
 22
31.5939740028
 13
150.2096793212
 23
31.5939740028
  0
SOLID
  8
0
 62
7
  6
CONTINUOUS
 10
150.0362418212
 20
31.5617111435
 11
150.2096793212
 21
31.5939740028
 12
150.9612418074
 22
31.5939740028
 13
150.9612418074
 23
31.5939740028
  0
SOLID
  8
0
 62
7
  6
CONTINUOUS
 10
150.9612418074
 20
31.5939740028
 11
151.1924917523
 21
31.5294468402
 12
150.0362418212
 22
31.5617111435
 13
150.0362418212
 23
31.5617111435
  0
SOLID
  8
0
 62
7
  6
CONTINUOUS
 10
149.8628043005
 20
31.49718259
 11
150.0362418212
 21
31.5617111435
 12
151.1924917523
 22
31.5294468402
 13
151.1924917523
 23
31.5294468402
  0
SOLID
  8
0
 62
7
  6
CONTINUOUS
 10
149.8628043005
 20
31.49718259
 11
151.1924917523
 21
31.5294468402
 12
150.498741835
 22
31.49718259
 13
150.498741835
 23
31.49718259
  0
SOLID
  8
0
 62
7
  6
CONTINUOUS
 10
150.498741835
 20
31.49718259
 11
151.1924917523
 21
31.5294468402
 12
150.9034292799
 22
31.4649197501
 13
150.9034292799
 23
31.4649197501
  0
SOLID
  8
0
 62
7
  6
CONTINUOUS
 10
151.1924917523
 20
31.5294468402
 11
151.3659292523
 21
31.4326554468
 12
150.9034292799
 22
31.4649197501
 13
150.9034292799
 23
31.4649197501
  0
SOLID
  8
0
 62
7
  6
CONTINUOUS
 10
151.0768668626
 20
31.4003926599
 11
150.9034292799
 21
31.4649197501
 12
151.3659292523
 22
31.4326554468
 13
151.3659292523
 23
31.4326554468
  0
SOLID
  8
0
 62
7
  6
CONTINUOUS
 10
151.0768668626
 20
31.4003926599
 11
151.3659292523
 21
31.4326554468
 12
151.1346793074
 22
31.3036013776
 13
151.1346793074
 23
31.3036013776
  0
SOLID
  8
0
 62
7
  6
CONTINUOUS
 10
151.3659292523
 20
31.4326554468
 11
151.4237418626
 21
31.3036013776
 12
151.1346793074
 22
31.3036013776
 13
151.1346793074
 23
31.3036013776
  0
SOLID
  8
0
 62
7
  6
CONTINUOUS
 10
152.4643666972
 20
31.5939739754
 11
152.6956168074
 21
31.6262382787
 12
152.9268669177
 22
31.6262382787
 13
152.9268669177
 23
31.6262382787
  0
SOLID
  8
0
 62
7
  6
CONTINUOUS
 10
152.9268669177
 20
31.6262382787
 11
153.1003044177
 21
31.5939739754
 12
152.4643666972
 22
31.5939739754
 13
152.4643666972
 23
31.5939739754
  0
SOLID
  8
0
 62
7
  6
CONTINUOUS
 10
152.2909293626
 20
31.5294468852
 11
152.4643666972
 21
31.5939739754
 12
153.1003044177
 22
31.5939739754
 13
153.1003044177
 23
31.5939739754
  0
SOLID
  8
0
 62
7
  6
CONTINUOUS
 10
153.1003044177
 20
31.5939739754
 11
153.2737419177
 21
31.5294468852
 12
152.2909293626
 22
31.5294468852
 13
152.2909293626
 23
31.5294468852
  0
SOLID
  8
0
 62
7
  6
CONTINUOUS
 10
153.2737419177
 20
31.5294468852
 11
152.6956168074
 21
31.4971825369
 12
152.2909293626
 22
31.5294468852
 13
152.2909293626
 23
31.5294468852
  0
SOLID
  8
0
 62
7
  6
CONTINUOUS
 10
152.1753043074
 20
31.4649197951
 11
152.2909293626
 21
31.5294468852
 12
152.6956168074
 22
31.4971825369
 13
152.6956168074
 23
31.4971825369
  0
SOLID
  8
0
 62
7
  6
CONTINUOUS
 10
152.6956168074
 20
31.4971825369
 11
152.4643666972
 21
31.4649197951
 12
152.1753043074
 22
31.4649197951
 13
152.1753043074
 23
31.4649197951
  0
SOLID
  8
0
 62
7
  6
CONTINUOUS
 10
152.6956168074
 20
31.4971825369
 11
153.2737419177
 21
31.5294468852
 12
152.9268669177
 22
31.4649197951
 13
152.9268669177
 23
31.4649197951
  0
SOLID
  8
0
 62
7
  6
CONTINUOUS
 10
153.2737419177
 20
31.5294468852
 11
153.3893668074
 21
31.4649197951
 12
152.9268669177
 22
31.4649197951
 13
152.9268669177
 23
31.4649197951
  0
SOLID
  8
0
 62
7
  6
CONTINUOUS
 10
153.0424918074
 20
31.4326554468
 11
152.9268669177
 21
31.4649197951
 12
153.3893668074
 22
31.4649197951
 13
153.3893668074
 23
31.4649197951
  0
SOLID
  8
0
 62
7
  6
CONTINUOUS
 10
153.3893668074
 20
31.4649197951
 11
153.4471794177
 21
31.4003927049
 12
153.0424918074
 22
31.4326554468
 13
153.0424918074
 23
31.4326554468
  0
SOLID
  8
0
 62
7
  6
CONTINUOUS
 10
153.1581166972
 20
31.3681283566
 11
153.0424918074
 21
31.4326554468
 12
153.4471794177
 22
31.4003927049
 13
153.4471794177
 23
31.4003927049
  0
SOLID
  8
0
 62
7
  6
CONTINUOUS
 10
153.1581166972
 20
31.3681283566
 11
153.4471794177
 21
31.4003927049
 12
153.2159293074
 22
31.2390742213
 13
153.2159293074
 23
31.2390742213
  0
SOLID
  8
0
 62
7
  6
CONTINUOUS
 10
153.4471794177
 20
31.4003927049
 11
153.5049916972
 21
31.2390742213
 12
153.2159293074
 22
31.2390742213
 13
153.2159293074
 23
31.2390742213
  0
SOLID
  8
0
 62
7
  6
CONTINUOUS
 10
152.4643666972
 20
31.4649197951
 11
152.2909293626
 21
31.4003927049
 12
152.1753043074
 22
31.4649197951
 13
152.1753043074
 23
31.4649197951
  0
SOLID
  8
0
 62
7
  6
CONTINUOUS
 10
152.2909293626
 20
31.4003927049
 11
152.1753043074
 21
31.3358640533
 12
152.1753043074
 22
31.4649197951
 13
152.1753043074
 23
31.4649197951
  0
SOLID
  8
0
 62
7
  6
CONTINUOUS
 10
152.1753043074
 20
31.3358640533
 11
151.8862417523
 21
30.5938002869
 12
152.1753043074
 22
31.4649197951
 13
152.1753043074
 23
31.4649197951
  0
SOLID
  8
0
 62
7
  6
CONTINUOUS
 10
152.1753043074
 20
31.4649197951
 11
151.8862417523
 21
30.5938002869
 12
152.1753043074
 22
32.1101937295
 13
152.1753043074
 23
32.1101937295
  0
SOLID
  8
0
 62
7
  6
CONTINUOUS
 10
151.8862417523
 20
30.5938002869
 11
151.8862417523
 21
32.1101937295
 12
152.1753043074
 22
32.1101937295
 13
152.1753043074
 23
32.1101937295
  0
SOLID
  8
0
 62
7
  6
CONTINUOUS
 10
152.1753043074
 20
31.3358640533
 11
152.1753043074
 21
30.5938002869
 12
151.8862417523
 22
30.5938002869
 13
151.8862417523
 23
30.5938002869
  0
SOLID
  8
0
 62
7
  6
CONTINUOUS
 10
153.2159293074
 20
30.5938002869
 11
153.2159293074
 21
31.2390742213
 12
153.5049916972
 22
31.2390742213
 13
153.5049916972
 23
31.2390742213
  0
SOLID
  8
0
 62
7
  6
CONTINUOUS
 10
153.5049916972
 20
31.2390742213
 11
153.5049916972
 21
30.5938002869
 12
153.2159293074
 22
30.5938002869
 13
153.2159293074
 23
30.5938002869
  0
SOLID
  8
0
 62
7
  6
CONTINUOUS
 10
154.2565543074
 20
31.5939738288
 11
154.6612419177
 21
31.6262385959
 12
155.0081169177
 22
31.6262385959
 13
155.0081169177
 23
31.6262385959
  0
SOLID
  8
0
 62
7
  6
CONTINUOUS
 10
155.0081169177
 20
31.6262385959
 11
155.3549915869
 21
31.5939738288
 12
154.2565543074
 22
31.5939738288
 13
154.2565543074
 23
31.5939738288
  0
SOLID
  8
0
 62
7
  6
CONTINUOUS
 10
154.1409294177
 20
31.5617111435
 11
154.2565543074
 21
31.5939738288
 12
155.3549915869
 22
31.5939738288
 13
155.3549915869
 23
31.5939738288
  0
SOLID
  8
0
 62
7
  6
CONTINUOUS
 10
155.3549915869
 20
31.5939738288
 11
155.5284290869
 21
31.5294468402
 12
154.1409294177
 22
31.5617111435
 13
154.1409294177
 23
31.5617111435
  0
SOLID
  8
0
 62
7
  6
CONTINUOUS
 10
154.0253041972
 20
31.4971826249
 11
154.1409294177
 21
31.5617111435
 12
155.5284290869
 22
31.5294468402
 13
155.5284290869
 23
31.5294468402
  0
SOLID
  8
0
 62
7
  6
CONTINUOUS
 10
154.0253041972
 20
31.4971826249
 11
155.5284290869
 21
31.5294468402
 12
154.6612419177
 22
31.4971826249
 13
154.6612419177
 23
31.4971826249
  0
SOLID
  8
0
 62
7
  6
CONTINUOUS
 10
154.6612419177
 20
31.4971826249
 11
155.5284290869
 21
31.5294468402
 12
155.0081169177
 22
31.4971826249
 13
155.0081169177
 23
31.4971826249
  0
SOLID
  8
0
 62
7
  6
CONTINUOUS
 10
155.0081169177
 20
31.4971826249
 11
155.5284290869
 21
31.5294468402
 12
155.239367028
 22
31.4649194065
 13
155.239367028
 23
31.4649194065
  0
SOLID
  8
0
 62
7
  6
CONTINUOUS
 10
155.5284290869
 20
31.5294468402
 11
155.6440543074
 21
31.4649194065
 12
155.239367028
 22
31.4649194065
 13
155.239367028
 23
31.4649194065
  0
SOLID
  8
0
 62
7
  6
CONTINUOUS
 10
153.9674919177
 20
31.4326554138
 11
154.0253041972
 21
31.4971826249
 12
154.6612419177
 22
31.4971826249
 13
154.6612419177
 23
31.4971826249
  0
SOLID
  8
0
 62
7
  6
CONTINUOUS
 10
155.3549915869
 20
31.4326554138
 11
155.239367028
 21
31.4649194065
 12
155.6440543074
 22
31.4649194065
 13
155.6440543074
 23
31.4649194065
  0
SOLID
  8
0
 62
7
  6
CONTINUOUS
 10
155.3549915869
 20
31.4326554138
 11
155.6440543074
 21
31.4649194065
 12
155.412804528
 22
31.3681282026
 13
155.412804528
 23
31.3681282026
  0
SOLID
  8
0
 62
7
  6
CONTINUOUS
 10
155.6440543074
 20
31.4649194065
 11
155.7018665869
 21
31.3681282026
 12
155.412804528
 22
31.3681282026
 13
155.412804528
 23
31.3681282026
  0
SOLID
  8
0
 62
7
  6
CONTINUOUS
 10
155.412804528
 20
31.2713369632
 11
155.412804528
 21
31.3681282026
 12
155.7018665869
 22
31.3681282026
 13
155.7018665869
 23
31.3681282026
  0
SOLID
  8
0
 62
7
  6
CONTINUOUS
 10
155.412804528
 20
31.2713369632
 11
155.7018665869
 21
31.3681282026
 12
155.412804528
 22
31.1422827828
 13
155.412804528
 23
31.1422827828
  0
SOLID
  8
0
 62
7
  6
CONTINUOUS
 10
155.412804528
 20
31.1422827828
 11
155.7018665869
 21
31.3681282026
 12
155.412804528
 22
30.9487004259
 13
155.412804528
 23
30.9487004259
  0
SOLID
  8
0
 62
7
  6
CONTINUOUS
 10
155.7018665869
 20
31.3681282026
 11
155.7018665869
 21
30.8519086025
 12
155.412804528
 22
30.9487004259
 13
155.412804528
 23
30.9487004259
  0
SOLID
  8
0
 62
7
  6
CONTINUOUS
 10
157.6096790869
 20
31.5939736268
 11
157.840929528
 21
31.6262383465
 12
158.0721793074
 22
31.6262383465
 13
158.0721793074
 23
31.6262383465
  0
SOLID
  8
0
 62
7
  6
CONTINUOUS
 10
158.0721793074
 20
31.6262383465
 11
158.2456168074
 21
31.5939736268
 12
157.6096790869
 22
31.5939736268
 13
157.6096790869
 23
31.5939736268
  0
SOLID
  8
0
 62
7
  6
CONTINUOUS
 10
157.4362415869
 20
31.5294472848
 11
157.6096790869
 21
31.5939736268
 12
158.2456168074
 22
31.5939736268
 13
158.2456168074
 23
31.5939736268
  0
SOLID
  8
0
 62
7
  6
CONTINUOUS
 10
158.2456168074
 20
31.5939736268
 11
158.4190543074
 21
31.5294472848
 12
157.4362415869
 22
31.5294472848
 13
157.4362415869
 23
31.5294472848
  0
SOLID
  8
0
 62
7
  6
CONTINUOUS
 10
158.4190543074
 20
31.5294472848
 11
157.840929528
 21
31.4971825369
 12
157.4362415869
 22
31.5294472848
 13
157.4362415869
 23
31.5294472848
  0
SOLID
  8
0
 62
7
  6
CONTINUOUS
 10
157.320617028
 20
31.4649199103
 11
157.4362415869
 21
31.5294472848
 12
157.840929528
 22
31.4971825369
 13
157.840929528
 23
31.4971825369
  0
SOLID
  8
0
 62
7
  6
CONTINUOUS
 10
157.840929528
 20
31.4971825369
 11
157.6096790869
 21
31.4649199103
 12
157.320617028
 22
31.4649199103
 13
157.320617028
 23
31.4649199103
  0
SOLID
  8
0
 62
7
  6
CONTINUOUS
 10
157.840929528
 20
31.4971825369
 11
158.4190543074
 21
31.5294472848
 12
158.0721793074
 22
31.4649199103
 13
158.0721793074
 23
31.4649199103
  0
SOLID
  8
0
 62
7
  6
CONTINUOUS
 10
158.4190543074
 20
31.5294472848
 11
158.534679528
 21
31.4649199103
 12
158.0721793074
 22
31.4649199103
 13
158.0721793074
 23
31.4649199103
  0
SOLID
  8
0
 62
7
  6
CONTINUOUS
 10
158.187804528
 20
31.4326554468
 11
158.0721793074
 21
31.4649199103
 12
158.534679528
 22
31.4649199103
 13
158.534679528
 23
31.4649199103
  0
SOLID
  8
0
 62
7
  6
CONTINUOUS
 10
158.187804528
 20
31.4326554468
 11
158.534679528
 21
31.4649199103
 12
158.3034290869
 22
31.3681288486
 13
158.3034290869
 23
31.3681288486
  0
SOLID
  8
0
 62
7
  6
CONTINUOUS
 10
158.534679528
 20
31.4649199103
 11
158.5924918074
 21
31.3681288486
 12
158.3034290869
 22
31.3681288486
 13
158.3034290869
 23
31.3681288486
  0
SOLID
  8
0
 62
7
  6
CONTINUOUS
 10
158.361242028
 20
31.2068093799
 11
158.3034290869
 21
31.3681288486
 12
158.5924918074
 22
31.3681288486
 13
158.5924918074
 23
31.3681288486
  0
SOLID
  8
0
 62
7
  6
CONTINUOUS
 10
158.5924918074
 20
31.3681288486
 11
158.6503040869
 21
31.2068093799
 12
158.361242028
 22
31.2068093799
 13
158.361242028
 23
31.2068093799
  0
SOLID
  8
0
 62
7
  6
CONTINUOUS
 10
157.6096790869
 20
31.4649199103
 11
157.4362415869
 21
31.4003926599
 12
157.320617028
 22
31.4649199103
 13
157.320617028
 23
31.4649199103
  0
SOLID
  8
0
 62
7
  6
CONTINUOUS
 10
157.4362415869
 20
31.4003926599
 11
157.320617028
 21
31.3358640533
 12
157.320617028
 22
31.4649199103
 13
157.320617028
 23
31.4649199103
  0
SOLID
  8
0
 62
7
  6
CONTINUOUS
 10
157.320617028
 20
31.3358640533
 11
157.0315543074
 21
30.5938003547
 12
157.320617028
 22
31.4649199103
 13
157.320617028
 23
31.4649199103
  0
SOLID
  8
0
 62
7
  6
CONTINUOUS
 10
157.320617028
 20
31.4649199103
 11
157.0315543074
 21
30.5938003547
 12
157.320617028
 22
31.6262383465
 13
157.320617028
 23
31.6262383465
  0
SOLID
  8
0
 62
7
  6
CONTINUOUS
 10
157.0315543074
 20
30.5938003547
 11
157.0315543074
 21
31.6262383465
 12
157.320617028
 22
31.6262383465
 13
157.320617028
 23
31.6262383465
  0
SOLID
  8
0
 62
7
  6
CONTINUOUS
 10
157.320617028
 20
31.3358640533
 11
157.320617028
 21
30.5938003547
 12
157.0315543074
 22
30.5938003547
 13
157.0315543074
 23
30.5938003547
  0
SOLID
  8
0
 62
7
  6
CONTINUOUS
 10
158.361242028
 20
30.5938003547
 11
158.361242028
 21
31.2068093799
 12
158.6503040869
 22
31.2068093799
 13
158.6503040869
 23
31.2068093799
  0
SOLID
  8
0
 62
7
  6
CONTINUOUS
 10
158.6503040869
 20
31.2068093799
 11
158.6503040869
 21
30.5938003547
 12
158.361242028
 22
30.5938003547
 13
158.361242028
 23
30.5938003547
  0
SOLID
  8
0
 62
7
  6
CONTINUOUS
 10
159.4596793074
 20
31.5939739474
 11
159.8065543074
 21
31.6262381969
 12
160.1534293074
 22
31.6262381969
 13
160.1534293074
 23
31.6262381969
  0
SOLID
  8
0
 62
7
  6
CONTINUOUS
 10
160.1534293074
 20
31.6262381969
 11
160.5003043074
 21
31.5939739474
 12
159.4596793074
 22
31.5939739474
 13
159.4596793074
 23
31.5939739474
  0
SOLID
  8
0
 62
7
  6
CONTINUOUS
 10
159.228429528
 20
31.5294468402
 11
159.4596793074
 21
31.5939739474
 12
160.5003043074
 22
31.5939739474
 13
160.5003043074
 23
31.5939739474
  0
SOLID
  8
0
 62
7
  6
CONTINUOUS
 10
159.228429528
 20
31.5294468402
 11
160.5003043074
 21
31.5939739304
 12
160.6737418074
 22
31.5617111435
 13
160.6737418074
 23
31.5617111435
  0
SOLID
  8
0
 62
7
  6
CONTINUOUS
 10
159.228429528
 20
31.5294468402
 11
160.6737418074
 21
31.5617111435
 12
159.8065543074
 22
31.4971825592
 13
159.8065543074
 23
31.4971825592
  0
SOLID
  8
0
 62
7
  6
CONTINUOUS
 10
159.8065543074
 20
31.4971825592
 11
160.6737418074
 21
31.5617111435
 12
160.1534293074
 22
31.4971825592
 13
160.1534293074
 23
31.4971825592
  0
SOLID
  8
0
 62
7
  6
CONTINUOUS
 10
160.6737418074
 20
31.5617111435
 11
160.8471793074
 21
31.4971825592
 12
160.1534293074
 22
31.4971825592
 13
160.1534293074
 23
31.4971825592
  0
SOLID
  8
0
 62
7
  6
CONTINUOUS
 10
160.5003043074
 20
31.4649197501
 11
160.1534293074
 21
31.4971825592
 12
160.8471793074
 22
31.4971825592
 13
160.8471793074
 23
31.4971825592
  0
SOLID
  8
0
 62
7
  6
CONTINUOUS
 10
159.1128043074
 20
31.4326555427
 11
159.228429528
 21
31.5294468402
 12
159.8065543074
 22
31.4971825592
 13
159.8065543074
 23
31.4971825592
  0
SOLID
  8
0
 62
7
  6
CONTINUOUS
 10
160.5003043074
 20
31.4649197501
 11
160.8471793074
 21
31.4971825592
 12
160.615929528
 22
31.4326555427
 13
160.615929528
 23
31.4326555427
  0
SOLID
  8
0
 62
7
  6
CONTINUOUS
 10
160.615929528
 20
31.4326555427
 11
160.8471793074
 21
31.4971825592
 12
160.6737418074
 22
31.3681283005
 13
160.6737418074
 23
31.3681283005
  0
SOLID
  8
0
 62
7
  6
CONTINUOUS
 10
160.8471793074
 20
31.4971825592
 11
160.9628038663
 21
31.3681283005
 12
160.6737418074
 22
31.3681283005
 13
160.6737418074
 23
31.3681283005
  0
SOLID
  8
0
 62
7
  6
CONTINUOUS
 10
150.2674918074
 20
31.4649197501
 11
149.7471793074
 21
31.4326554237
 12
150.498741835
 22
31.4971824493
 13
150.498741835
 23
31.4971824493
  0
SOLID
  8
0
 62
7
  6
CONTINUOUS
 10
149.7471793074
 20
31.4326554237
 11
149.8628043005
 21
31.4971824493
 12
150.498741835
 22
31.4971824493
 13
150.498741835
 23
31.4971824493
  0
SOLID
  8
0
 62
7
  6
CONTINUOUS
 10
150.2674918074
 20
31.4649197501
 11
150.1518667936
 21
31.4326554237
 12
149.7471793074
 22
31.4326554237
 13
149.7471793074
 23
31.4326554237
  0
SOLID
  8
0
 62
7
  6
CONTINUOUS
 10
149.6315543091
 20
31.3036012664
 11
149.7471793074
 21
31.4326554237
 12
150.1518667936
 22
31.4326554237
 13
150.1518667936
 23
31.4326554237
  0
SOLID
  8
0
 62
7
  6
CONTINUOUS
 10
153.9674919177
 20
31.4326554237
 11
154.6612419177
 21
31.4971825369
 12
154.4299918074
 22
31.4649197501
 13
154.4299918074
 23
31.4649197501
  0
SOLID
  8
0
 62
7
  6
CONTINUOUS
 10
154.4299918074
 20
31.4649197501
 11
154.3143669177
 21
31.4326554237
 12
153.9674919177
 22
31.4326554237
 13
153.9674919177
 23
31.4326554237
  0
SOLID
  8
0
 62
7
  6
CONTINUOUS
 10
153.9674919177
 20
31.3681283335
 11
153.9674919177
 21
31.4326554237
 12
154.3143669177
 22
31.4326554237
 13
154.3143669177
 23
31.4326554237
  0
SOLID
  8
0
 62
7
  6
CONTINUOUS
 10
154.3143669177
 20
31.4326554237
 11
154.2565543074
 21
31.3681283335
 12
153.9674919177
 22
31.3681283335
 13
153.9674919177
 23
31.3681283335
  0
SOLID
  8
0
 62
7
  6
CONTINUOUS
 10
159.1128043074
 20
31.4326555528
 11
159.8065543074
 21
31.4971825369
 12
159.575304528
 22
31.4649197501
 13
159.575304528
 23
31.4649197501
  0
SOLID
  8
0
 62
7
  6
CONTINUOUS
 10
159.575304528
 20
31.4649197501
 11
159.4596793074
 21
31.4326555528
 12
159.1128043074
 22
31.4326555528
 13
159.1128043074
 23
31.4326555528
  0
SOLID
  8
0
 62
7
  6
CONTINUOUS
 10
159.1128043074
 20
31.3681284626
 11
159.1128043074
 21
31.4326555528
 12
159.4596793074
 22
31.4326555528
 13
159.4596793074
 23
31.4326555528
  0
SOLID
  8
0
 62
7
  6
CONTINUOUS
 10
159.4596793074
 20
31.4326555528
 11
159.401867028
 21
31.3681284626
 12
159.1128043074
 22
31.3681284626
 13
159.1128043074
 23
31.3681284626
  0
SOLID
  8
0
 62
7
  6
CONTINUOUS
 10
159.228429528
 20
31.2390741763
 11
159.1128043074
 21
31.3681284626
 12
159.401867028
 22
31.3681284626
 13
159.401867028
 23
31.3681284626
  0
SOLID
  8
0
 62
7
  6
CONTINUOUS
 10
149.6315543091
 20
31.3036012664
 11
150.1518667936
 21
31.4326554468
 12
149.9784292936
 22
31.3358640533
 13
149.9784292936
 23
31.3358640533
  0
SOLID
  8
0
 62
7
  6
CONTINUOUS
 10
149.9784292936
 20
31.3358640533
 11
149.9206168074
 21
31.2713369632
 12
149.6315543091
 22
31.3036012664
 13
149.6315543091
 23
31.3036012664
  0
SOLID
  8
0
 62
7
  6
CONTINUOUS
 10
149.5737418074
 20
31.1100184796
 11
149.6315543091
 21
31.3036012664
 12
149.9206168074
 22
31.2713369632
 13
149.9206168074
 23
31.2713369632
  0
SOLID
  8
0
 62
7
  6
CONTINUOUS
 10
154.4299918074
 20
31.2390741763
 11
154.7768668074
 21
31.271336924
 12
155.412804528
 22
31.271336924
 13
155.412804528
 23
31.271336924
  0
SOLID
  8
0
 62
7
  6
CONTINUOUS
 10
154.4299918074
 20
31.2390741763
 11
155.412804528
 21
31.271336924
 12
154.1987416972
 22
31.1745462761
 13
154.1987416972
 23
31.1745462761
  0
SOLID
  8
0
 62
7
  6
CONTINUOUS
 10
154.1987416972
 20
31.1745462761
 11
155.412804528
 21
31.271336924
 12
154.7768668074
 22
31.1422827436
 13
154.7768668074
 23
31.1422827436
  0
SOLID
  8
0
 62
7
  6
CONTINUOUS
 10
155.412804528
 20
31.271336924
 11
155.412804528
 21
31.1422827436
 12
154.7768668074
 22
31.1422827436
 13
154.7768668074
 23
31.1422827436
  0
SOLID
  8
0
 62
7
  6
CONTINUOUS
 10
159.228429528
 20
31.2390745501
 11
159.401867028
 21
31.3681283566
 12
159.4596793074
 22
31.3036012664
 13
159.4596793074
 23
31.3036012664
  0
SOLID
  8
0
 62
7
  6
CONTINUOUS
 10
159.4596793074
 20
31.3036012664
 11
159.6331168074
 21
31.2390745501
 12
159.228429528
 22
31.2390745501
 13
159.228429528
 23
31.2390745501
  0
SOLID
  8
0
 62
7
  6
CONTINUOUS
 10
159.4596793074
 20
31.1422827828
 11
159.228429528
 21
31.2390745501
 12
159.6331168074
 22
31.2390745501
 13
159.6331168074
 23
31.2390745501
  0
SOLID
  8
0
 62
7
  6
CONTINUOUS
 10
159.6331168074
 20
31.2390745501
 11
160.615929528
 21
31.0777556927
 12
159.4596793074
 22
31.1422827828
 13
159.4596793074
 23
31.1422827828
  0
SOLID
  8
0
 62
7
  6
CONTINUOUS
 10
160.442492028
 20
30.9809646623
 11
159.4596793074
 21
31.1422827828
 12
160.615929528
 22
31.0777556927
 13
160.615929528
 23
31.0777556927
  0
SOLID
  8
0
 62
7
  6
CONTINUOUS
 10
160.615929528
 20
31.0777556927
 11
160.8471793074
 21
30.9809646623
 12
160.442492028
 22
30.9809646623
 13
160.442492028
 23
30.9809646623
  0
SOLID
  8
0
 62
7
  6
CONTINUOUS
 10
160.615929528
 20
30.9164372091
 11
160.442492028
 21
30.9809646623
 12
160.8471793074
 22
30.9809646623
 13
160.8471793074
 23
30.9809646623
  0
SOLID
  8
0
 62
7
  6
CONTINUOUS
 10
160.615929528
 20
30.9164372091
 11
160.8471793074
 21
30.9809646623
 12
160.6737418074
 22
30.8519089441
 13
160.6737418074
 23
30.8519089441
  0
SOLID
  8
0
 62
7
  6
CONTINUOUS
 10
160.8471793074
 20
30.9809646623
 11
160.9628038663
 21
30.8519089441
 12
160.6737418074
 22
30.8519089441
 13
160.6737418074
 23
30.8519089441
  0
SOLID
  8
0
 62
7
  6
CONTINUOUS
 10
160.615929528
 20
30.7873818593
 11
160.6737418074
 21
30.8519089441
 12
160.9628038663
 22
30.8519089441
 13
160.9628038663
 23
30.8519089441
  0
SOLID
  8
0
 62
7
  6
CONTINUOUS
 10
160.9628038663
 20
30.8519089441
 11
160.9628038663
 21
30.7873818593
 12
160.615929528
 22
30.7873818593
 13
160.615929528
 23
30.7873818593
  0
SOLID
  8
0
 62
7
  6
CONTINUOUS
 10
160.5003043074
 20
30.7551187255
 11
160.615929528
 21
30.7873818593
 12
160.9628038663
 22
30.7873818593
 13
160.9628038663
 23
30.7873818593
  0
SOLID
  8
0
 62
7
  6
CONTINUOUS
 10
160.5003043074
 20
30.7551187255
 11
160.9628038663
 21
30.7873818593
 12
160.269054528
 22
30.7228547745
 13
160.269054528
 23
30.7228547745
  0
SOLID
  8
0
 62
7
  6
CONTINUOUS
 10
160.9628038663
 20
30.7873818593
 11
160.8471793074
 21
30.6905916353
 12
160.269054528
 22
30.7228547745
 13
160.269054528
 23
30.7228547745
  0
SOLID
  8
0
 62
7
  6
CONTINUOUS
 10
160.8471793074
 20
30.6905916353
 11
159.401867028
 21
30.658327332
 12
160.269054528
 22
30.7228547745
 13
160.269054528
 23
30.7228547745
  0
SOLID
  8
0
 62
7
  6
CONTINUOUS
 10
160.269054528
 20
30.7228547745
 11
159.401867028
 21
30.658327332
 12
159.922179528
 22
30.7228547745
 13
159.922179528
 23
30.7228547745
  0
SOLID
  8
0
 62
7
  6
CONTINUOUS
 10
159.401867028
 20
30.658327332
 11
159.228429528
 21
30.7228547745
 12
159.922179528
 22
30.7228547745
 13
159.922179528
 23
30.7228547745
  0
SOLID
  8
0
 62
7
  6
CONTINUOUS
 10
159.401867028
 20
30.658327332
 11
160.8471793074
 21
30.6905916353
 12
159.575304528
 22
30.6260629858
 13
159.575304528
 23
30.6260629858
  0
SOLID
  8
0
 62
7
  6
CONTINUOUS
 10
160.8471793074
 20
30.6905916353
 11
160.615929528
 21
30.6260629858
 12
159.575304528
 22
30.6260629858
 13
159.575304528
 23
30.6260629858
  0
SOLID
  8
0
 62
7
  6
CONTINUOUS
 10
159.922179528
 20
30.5938006049
 11
159.575304528
 21
30.6260629858
 12
160.615929528
 22
30.6260629858
 13
160.615929528
 23
30.6260629858
  0
SOLID
  8
0
 62
7
  6
CONTINUOUS
 10
160.615929528
 20
30.6260629858
 11
160.269054528
 21
30.5938006049
 12
159.922179528
 22
30.5938006049
 13
159.922179528
 23
30.5938006049
  0
SOLID
  8
0
 62
7
  6
CONTINUOUS
 10
149.5737418074
 20
31.1100184796
 11
149.9206168074
 21
31.2713369632
 12
149.8628043005
 22
31.1422827828
 13
149.8628043005
 23
31.1422827828
  0
SOLID
  8
0
 62
7
  6
CONTINUOUS
 10
149.8628043005
 20
31.1422827828
 11
149.8628043005
 21
31.0454914852
 12
149.5737418074
 22
31.1100184796
 13
149.5737418074
 23
31.1100184796
  0
SOLID
  8
0
 62
7
  6
CONTINUOUS
 10
149.6315543091
 20
30.9164372091
 11
149.5737418074
 21
31.1100184796
 12
149.8628043005
 22
31.0454914852
 13
149.8628043005
 23
31.0454914852
  0
SOLID
  8
0
 62
7
  6
CONTINUOUS
 10
149.8628043005
 20
31.0454914852
 11
149.9784292936
 21
30.8841729058
 12
149.6315543091
 22
30.9164372091
 13
149.6315543091
 23
30.9164372091
  0
SOLID
  8
0
 62
7
  6
CONTINUOUS
 10
149.7471793074
 20
30.7873813202
 11
149.6315543091
 21
30.9164372091
 12
149.9784292936
 22
30.8841729058
 13
149.9784292936
 23
30.8841729058
  0
SOLID
  8
0
 62
7
  6
CONTINUOUS
 10
149.9784292936
 20
30.8841729058
 11
150.1518667936
 21
30.7873813202
 12
149.7471793074
 22
30.7873813202
 13
149.7471793074
 23
30.7873813202
  0
SOLID
  8
0
 62
7
  6
CONTINUOUS
 10
149.8628043005
 20
30.7228547004
 11
149.7471793074
 21
30.7873813202
 12
150.1518667936
 22
30.7873813202
 13
150.1518667936
 23
30.7873813202
  0
SOLID
  8
0
 62
7
  6
CONTINUOUS
 10
150.1518667936
 20
30.7873813202
 11
150.498741835
 21
30.7228547004
 12
149.8628043005
 22
30.7228547004
 13
149.8628043005
 23
30.7228547004
  0
SOLID
  8
0
 62
7
  6
CONTINUOUS
 10
150.0362418212
 20
30.658327332
 11
149.8628043005
 21
30.7228547004
 12
150.498741835
 22
30.7228547004
 13
150.498741835
 23
30.7228547004
  0
SOLID
  8
0
 62
7
  6
CONTINUOUS
 10
154.0831168074
 20
31.1100184386
 11
154.1987416972
 21
31.1745462761
 12
154.7768668074
 22
31.1422827828
 13
154.7768668074
 23
31.1422827828
  0
SOLID
  8
0
 62
7
  6
CONTINUOUS
 10
154.7768668074
 20
31.1422827828
 11
154.5456166972
 21
31.1100184386
 12
154.0831168074
 22
31.1100184386
 13
154.0831168074
 23
31.1100184386
  0
SOLID
  8
0
 62
7
  6
CONTINUOUS
 10
153.9674919177
 20
30.9809642992
 11
154.0831168074
 21
31.1100184386
 12
154.5456166972
 22
31.1100184386
 13
154.5456166972
 23
31.1100184386
  0
SOLID
  8
0
 62
7
  6
CONTINUOUS
 10
154.3143669177
 20
31.0132277988
 11
153.9674919177
 21
30.9809642992
 12
154.4299918074
 22
31.0777556927
 13
154.4299918074
 23
31.0777556927
  0
SOLID
  8
0
 62
7
  6
CONTINUOUS
 10
153.9674919177
 20
30.9809642992
 11
154.5456166972
 21
31.1100184796
 12
154.4299918074
 22
31.0777556927
 13
154.4299918074
 23
31.0777556927
  0
SOLID
  8
0
 62
7
  6
CONTINUOUS
 10
154.3143669177
 20
31.0132277988
 11
154.2565543074
 21
30.9164372091
 12
153.9674919177
 22
30.9809642992
 13
153.9674919177
 23
30.9809642992
  0
SOLID
  8
0
 62
7
  6
CONTINUOUS
 10
153.9674919177
 20
30.8841729058
 11
153.9674919177
 21
30.9809642992
 12
154.2565543074
 22
30.9164372091
 13
154.2565543074
 23
30.9164372091
  0
SOLID
  8
0
 62
7
  6
CONTINUOUS
 10
154.2565543074
 20
30.9164372091
 11
154.2565543074
 21
30.8519086025
 12
153.9674919177
 22
30.8841729058
 13
153.9674919177
 23
30.8841729058
  0
SOLID
  8
0
 62
7
  6
CONTINUOUS
 10
154.0253041972
 20
30.7551187255
 11
153.9674919177
 21
30.8841729058
 12
154.2565543074
 22
30.8519086025
 13
154.2565543074
 23
30.8519086025
  0
SOLID
  8
0
 62
7
  6
CONTINUOUS
 10
155.412804528
 20
30.9487004259
 11
155.7018665869
 21
30.8519086025
 12
155.3549915869
 22
30.8841729058
 13
155.3549915869
 23
30.8841729058
  0
SOLID
  8
0
 62
7
  6
CONTINUOUS
 10
155.1815540869
 20
30.7873815123
 11
155.3549915869
 21
30.8841729058
 12
155.7018665869
 22
30.8519086025
 13
155.7018665869
 23
30.8519086025
  0
SOLID
  8
0
 62
7
  6
CONTINUOUS
 10
155.1815540869
 20
30.7873815123
 11
155.7018665869
 21
30.8519086025
 12
155.412804528
 22
30.7551187255
 13
155.412804528
 23
30.7551187255
  0
SOLID
  8
0
 62
7
  6
CONTINUOUS
 10
155.7018665869
 20
30.8519086025
 11
155.759679528
 21
30.6905916353
 12
155.412804528
 22
30.7551187255
 13
155.412804528
 23
30.7551187255
  0
SOLID
  8
0
 62
7
  6
CONTINUOUS
 10
155.4706168074
 20
30.658327332
 11
155.412804528
 21
30.7551187255
 12
155.759679528
 22
30.6905916353
 13
155.759679528
 23
30.6905916353
  0
SOLID
  8
0
 62
7
  6
CONTINUOUS
 10
155.4706168074
 20
30.658327332
 11
155.759679528
 21
30.6905916353
 12
155.5284290869
 22
30.5938002079
 13
155.5284290869
 23
30.5938002079
  0
SOLID
  8
0
 62
7
  6
CONTINUOUS
 10
155.759679528
 20
30.6905916353
 11
155.8174918074
 21
30.5938002079
 12
155.5284290869
 22
30.5938002079
 13
155.5284290869
 23
30.5938002079
  0
SOLID
  8
0
 62
7
  6
CONTINUOUS
 10
151.0768668626
 20
30.8196456577
 11
151.1346793074
 21
30.9164373395
 12
151.4237418626
 22
30.9164373395
 13
151.4237418626
 23
30.9164373395
  0
SOLID
  8
0
 62
7
  6
CONTINUOUS
 10
151.4237418626
 20
30.9164373395
 11
151.3659292523
 21
30.7873815123
 12
151.0768668626
 22
30.8196456577
 13
151.0768668626
 23
30.8196456577
  0
SOLID
  8
0
 62
7
  6
CONTINUOUS
 10
150.9034292799
 20
30.7551187255
 11
151.0768668626
 21
30.8196456577
 12
151.3659292523
 22
30.7873815123
 13
151.3659292523
 23
30.7873815123
  0
SOLID
  8
0
 62
7
  6
CONTINUOUS
 10
150.9034292799
 20
30.7551187255
 11
151.3659292523
 21
30.7873815123
 12
150.498741835
 22
30.7228544222
 13
150.498741835
 23
30.7228544222
  0
SOLID
  8
0
 62
7
  6
CONTINUOUS
 10
151.3659292523
 20
30.7873815123
 11
151.1924917523
 21
30.6905916353
 12
150.498741835
 22
30.7228544222
 13
150.498741835
 23
30.7228544222
  0
SOLID
  8
0
 62
7
  6
CONTINUOUS
 10
150.0362418212
 20
30.658327332
 11
150.498741835
 21
30.7228544222
 12
151.1924917523
 22
30.6905916353
 13
151.1924917523
 23
30.6905916353
  0
SOLID
  8
0
 62
7
  6
CONTINUOUS
 10
150.0362418212
 20
30.658327332
 11
151.1924917523
 21
30.6905916353
 12
150.2096793212
 22
30.6260631011
 13
150.2096793212
 23
30.6260631011
  0
SOLID
  8
0
 62
7
  6
CONTINUOUS
 10
151.1924917523
 20
30.6905916353
 11
150.9612418074
 21
30.6260631011
 12
150.2096793212
 22
30.6260631011
 13
150.2096793212
 23
30.6260631011
  0
SOLID
  8
0
 62
7
  6
CONTINUOUS
 10
150.5565542799
 20
30.5938002419
 11
150.2096793212
 21
30.6260631011
 12
150.9612418074
 22
30.6260631011
 13
150.9612418074
 23
30.6260631011
  0
SOLID
  8
0
 62
7
  6
CONTINUOUS
 10
154.0253041972
 20
30.7551187255
 11
154.2565543074
 21
30.8519086025
 12
154.3143669177
 22
30.7873815123
 13
154.3143669177
 23
30.7873815123
  0
SOLID
  8
0
 62
7
  6
CONTINUOUS
 10
154.3143669177
 20
30.7873815123
 11
154.5456166972
 21
30.7228544222
 12
154.0253041972
 22
30.7551187255
 13
154.0253041972
 23
30.7551187255
  0
SOLID
  8
0
 62
7
  6
CONTINUOUS
 10
154.1987416972
 20
30.658327332
 11
154.0253041972
 21
30.7551187255
 12
154.5456166972
 22
30.7228544222
 13
154.5456166972
 23
30.7228544222
  0
SOLID
  8
0
 62
7
  6
CONTINUOUS
 10
154.8924916972
 20
30.7228544637
 11
155.1815540869
 21
30.7873815123
 12
155.412804528
 22
30.7551187255
 13
155.412804528
 23
30.7551187255
  0
SOLID
  8
0
 62
7
  6
CONTINUOUS
 10
155.412804528
 20
30.7551187255
 11
155.3549915869
 21
30.6905916353
 12
154.8924916972
 22
30.7228544637
 13
154.8924916972
 23
30.7228544637
  0
SOLID
  8
0
 62
7
  6
CONTINUOUS
 10
155.3549915869
 20
30.6905916353
 11
154.1987416972
 21
30.658327332
 12
154.8924916972
 22
30.7228544637
 13
154.8924916972
 23
30.7228544637
  0
SOLID
  8
0
 62
7
  6
CONTINUOUS
 10
154.1987416972
 20
30.658327332
 11
154.5456166972
 21
30.7228544637
 12
154.8924916972
 22
30.7228544637
 13
154.8924916972
 23
30.7228544637
  0
SOLID
  8
0
 62
7
  6
CONTINUOUS
 10
154.1987416972
 20
30.658327332
 11
155.3549915869
 21
30.6905916353
 12
154.3143669177
 22
30.6260630541
 13
154.3143669177
 23
30.6260630541
  0
SOLID
  8
0
 62
7
  6
CONTINUOUS
 10
155.3549915869
 20
30.6905916353
 11
155.1815540869
 21
30.6260630541
 12
154.3143669177
 22
30.6260630541
 13
154.3143669177
 23
30.6260630541
  0
SOLID
  8
0
 62
7
  6
CONTINUOUS
 10
154.5456166972
 20
30.5938002188
 11
154.3143669177
 21
30.6260630541
 12
155.1815540869
 22
30.6260630541
 13
155.1815540869
 23
30.6260630541
  0
SOLID
  8
0
 62
7
  6
CONTINUOUS
 10
155.1815540869
 20
30.6260630541
 11
154.8924916972
 21
30.5938002188
 12
154.5456166972
 22
30.5938002188
 13
154.5456166972
 23
30.5938002188
  0
SOLID
  8
0
 62
7
  6
CONTINUOUS
 10
159.575304528
 20
30.7551187255
 11
159.228429528
 21
30.7228544637
 12
159.4596793074
 22
30.7873815123
 13
159.4596793074
 23
30.7873815123
  0
SOLID
  8
0
 62
7
  6
CONTINUOUS
 10
159.4596793074
 20
30.7873815123
 11
159.228429528
 21
30.7228544637
 12
159.401867028
 22
30.851908644
 13
159.401867028
 23
30.851908644
  0
SOLID
  8
0
 62
7
  6
CONTINUOUS
 10
159.228429528
 20
30.7228544637
 11
159.1128043074
 21
30.851908644
 12
159.401867028
 22
30.851908644
 13
159.401867028
 23
30.851908644
  0
SOLID
  8
0
 62
7
  6
CONTINUOUS
 10
159.575304528
 20
30.7551187255
 11
159.922179528
 21
30.7228544637
 12
159.228429528
 22
30.7228544637
 13
159.228429528
 23
30.7228544637
  0
SOLID
  8
0
 62
7
  6
CONTINUOUS
 10
156.279992028
 20
30.5938002419
 11
156.279992028
 21
31.6262382337
 12
156.5690540869
 22
30.5938002419
 13
156.5690540869
 23
31.6262382337
  0
ENDBLK
  8
0
  6
BYBLOCK
 62
0
  0
BLOCK
  8
0
 62
2
  6
CONTINUOUS
  2
AMMEAAL_LOGO_BL0
 70
64
 10
32.1213064866
 20
19.8534310916
  0
TEXT
  8
0
 62
7
  6
CONTINUOUS
 10
18.3860103289
 20
19.2268451992
  7
TEXTSTYLE_3
 40
2.7338706658
  1
Ammeraal Beltech
 41
1.0
 51
15.0
 72
0
  0
TEXT
  8
0
 62
7
  6
CONTINUOUS
 10
29.1868111546
 20
16.9533085264
  7
TEXTSTYLE_4
 40
1.0935482663
  1
Innovation & Service in Belting
 41
1.0
 72
0
  0
LINE
  8
0
 62
7
  6
CONTINUOUS
 10
12.3614696776
 20
19.9934385078
 11
13.1396216709
 21
23.6543558055
  0
LINE
  8
0
 62
7
  6
CONTINUOUS
 10
23.2347899607
 20
27.3177497171
 11
13.6274394139
 21
24.1961322958
  0
LINE
  8
0
 62
7
  6
CONTINUOUS
 10
12.5867530099
 20
19.3000877048
 11
20.093828271
 21
12.5406867788
  0
LINE
  8
0
 62
7
  6
CONTINUOUS
 10
12.8492874206
 20
20.5352149982
 11
23.6575567857
 21
24.0470345971
  0
LINE
  8
0
 62
7
  6
CONTINUOUS
 10
23.6533516486
 20
13.6972460334
 11
15.2078919798
 21
21.3015720751
  0
LINE
  8
0
 62
7
  6
CONTINUOUS
 10
24.1731743684
 20
26.4728246013
 11
23.1966148312
 21
21.8784731989
  0
LINE
  8
0
 62
7
  6
CONTINUOUS
 10
22.4968128835
 20
18.5861638851
 11
21.810364672
 21
15.3566789607
  0
LINE
  8
0
 62
7
  6
CONTINUOUS
 10
24.8542704669
 20
14.087448211
 11
25.8105020025
 21
18.5861638851
  0
LINE
  8
0
 62
7
  6
CONTINUOUS
 10
26.5103039502
 20
21.8784731989
 11
26.9545457526
 21
23.9684665583
  0
LINE
  8
0
 62
7
  6
CONTINUOUS
 10
20.8069293463
 20
12.3891124661
 11
24.3664527239
 21
13.5456717207
  0
LINE
  8
0
 62
7
  6
CONTINUOUS
 10
23.9478910361
 20
27.1661754044
 11
26.7292624203
 21
24.6618173613
  0
ARC
  8
0
 62
7
  6
CONTINUOUS
 10
13.8527227462
 20
23.5027814928
 40
0.7290321776
 50
108.0
 51
168.0
  0
ARC
  8
0
 62
7
  6
CONTINUOUS
 10
23.4600732931
 20
26.624398914
 40
0.7290321776
 50
348.0
 51
108.0
  0
ARC
  8
0
 62
7
  6
CONTINUOUS
 10
26.2414446773
 20
24.120040871
 40
0.7290321776
 50
348.0
 51
48.0
  0
ARC
  8
0
 62
7
  6
CONTINUOUS
 10
20.581646014
 20
13.0824632691
 40
0.7290321776
 50
228.0
 51
288.0
  0
ARC
  8
0
 62
7
  6
CONTINUOUS
 10
13.0745707529
 20
19.8418641951
 40
0.7290321776
 50
108.0
 51
228.0
  0
ARC
  8
0
 62
7
  6
CONTINUOUS
 10
24.1411693916
 20
14.2390225237
 40
0.7290321776
 50
228.0
 51
348.0
  0
ENDBLK
  8
0
  6
BYBLOCK
 62
0
  0
ENDSEC
  0
SECTION
  2
ENTITIES
  0
TEXT
  8
0
 62
5
  6
CONTINUOUS
 10
96.0
 20
25.636
  7
TEXTSTYLE_2
 40
2.8
  1
Scale :
 41
0.6
 51
0.000019
 72
0
  0
TEXT
  8
0
 62
5
  6
CONTINUOUS
 10
116.0
 20
25.636
  7
TEXTSTYLE_2
 40
2.8
  1
Belt type:
 41
0.6
 51
0.000019
 72
0
  0
INSERT
  8
0
 62
2
  6
CONTINUOUS
  2
AMMEAAL_LOGO_BL0
 10
32.1213064866
 20
19.8534310916
  0
INSERT
  8
0
 62
2
  6
CONTINUOUS
  2
UNI_LOGO2_BL1
 10
173.5956734183
 20
35.5937998301
  0
LINE
  8
0
 62
2
  6
CONTINUOUS
 10
10.0
 20
30.0
 11
200.0
 21
30.0
  0
LINE
  8
0
 62
2
  6
CONTINUOUS
 10
10.0
 20
30.0
 11
10.0
 21
10.0
  0
LINE
  8
0
 62
2
  6
CONTINUOUS
 10
10.0
 20
10.0
 11
200.0
 21
10.0
  0
LINE
  8
0
 62
2
  6
CONTINUOUS
 10
95.0
 20
30.0
 11
95.0
 21
10.0
  0
LINE
  8
0
 62
2
  6
CONTINUOUS
 10
115.0
 20
30.0
 11
115.0
 21
10.0
  0
LINE
  8
0
 62
2
  6
CONTINUOUS
 10
200.0
 20
30.0
 11
200.0
 21
10.0
  0
TEXT
  8
0
 62
5
  6
CONTINUOUS
 10
13.0
 20
23.303
  7
TEXTSTYLE_5
 40
1.52
  1
                                                                     Ammeraal Beltech Modular A/S
 41
1.0
 72
0
  0
TEXT
  8
0
 62
5
  6
CONTINUOUS
 10
13.0
 20
20.595
  7
TEXTSTYLE_5
 40
1.5
  1
                                                                      Hjulmagervej 21,  7100 Vejle,  DK
 41
1.0
 72
0
  0
TEXT
  8
0
 62
5
  6
CONTINUOUS
 10
13.0
 20
17.881
  7
TEXTSTYLE_5
 40
1.495
  1
                                                                      tel: 
 41
1.0
 72
0
  0
TEXT
  8
0
 62
5
  6
CONTINUOUS
 10
57.9869465649
 20
17.881
  7
TEXTSTYLE_5
 40
1.51
  1
+45 75723100     fax: +45 75723348
 41
1.0
 72
0
  0
TEXT
  8
0
 62
5
  6
CONTINUOUS
 10
13.0
 20
15.177
  7
TEXTSTYLE_5
 40
1.5
  1
                                                                      admin@unichains.dk  www.unichains.com
 41
1.0
 72
0
  0
TEXT
  8
0
 62
5
  6
CONTINUOUS
 10
99.75
 20
13.75
  7
TEXTSTYLE_6
 40
5.0
  1
1:1
 41
0.7
 72
1
 11
105.0
 21
13.75
  0
TEXT
  8
0
 62
5
  6
CONTINUOUS
 10
118.0
 20
13.75
  7
TEXTSTYLE_7
 40
7.5
  1
uni Light EP Vacuum 1/8 x 10 K400
 41
0.3169065657
 72
0
  0
LINE
  8
0
 62
7
  6
CONTINUOUS
 10
210.0
 20
0.0
 11
0.0
 21
0.0
  0
LINE
  8
0
 62
7
  6
CONTINUOUS
 10
10.0
 20
10.0
 11
200.0
 21
10.0
  0
LINE
  8
0
 62
7
  6
CONTINUOUS
 10
10.0
 20
30.0
 11
200.0
 21
30.0
  0
LINE
  8
0
 62
7
  6
CONTINUOUS
 10
0.0
 20
0.0
 11
0.0
 21
297.0
  0
LINE
  8
0
 62
7
  6
CONTINUOUS
 10
10.0
 20
10.0
 11
10.0
 21
287.0
  0
LINE
  8
0
 62
7
  6
CONTINUOUS
 10
200.0
 20
287.0
 11
200.0
 21
10.0
  0
LINE
  8
0
 62
7
  6
CONTINUOUS
 10
210.0
 20
0.0
 11
210.0
 21
297.0
  0
LINE
  8
0
 62
7
  6
CONTINUOUS
 10
10.0
 20
287.0
 11
200.0
 21
287.0
  0
LINE
  8
0
 62
7
  6
CONTINUOUS
 10
0.0
 20
297.0
 11
210.0
 21
297.0
  0
POLYLINE
  8
0
 62
7
  6
CONTINUOUS
 66
1
 70
0
  0
VERTEX
  8
0
 62
7
  6
CONTINUOUS
 10
25.6940214785
 20
126.7033735369
  0
VERTEX
  8
0
 62
7
  6
CONTINUOUS
 10
25.7074748242
 20
126.8185792363
  0
VERTEX
  8
0
 62
7
  6
CONTINUOUS
 10
25.7450983733
 20
126.9235281316
  0
VERTEX
  8
0
 62
7
  6
CONTINUOUS
 10
25.8037332462
 20
127.0159036887
  0
VERTEX
  8
0
 62
7
  6
CONTINUOUS
 10
25.8811015876
 20
127.0933493591
  0
VERTEX
  8
0
 62
7
  6
CONTINUOUS
 10
25.9702254196
 20
127.1504924518
  0
VERTEX
  8
0
 62
7
  6
CONTINUOUS
 10
26.0753452732
 20
127.1890853427
  0
VERTEX
  8
0
 62
7
  6
CONTINUOUS
 10
26.1940214785
 20
127.2033735369
  0
SEQEND
  0
LINE
  8
0
 62
7
  6
CONTINUOUS
 10
25.4940214785
 20
96.3176778523
 11
25.4940214785
 21
125.1339293536
  0
LINE
  8
0
 62
7
  6
CONTINUOUS
 10
25.6940214785
 20
126.7033735369
 11
25.6940214785
 21
88.9776778523
  0
POLYLINE
  8
0
 62
7
  6
CONTINUOUS
 66
1
 70
0
  0
VERTEX
  8
0
 62
7
  6
CONTINUOUS
 10
28.7440219351
 20
128.1856915749
  0
VERTEX
  8
0
 62
7
  6
CONTINUOUS
 10
28.7405514883
 20
128.0590456278
  0
VERTEX
  8
0
 62
7
  6
CONTINUOUS
 10
28.7279421277
 20
127.9207735278
  0
VERTEX
  8
0
 62
7
  6
CONTINUOUS
 10
28.7057179851
 20
127.7891258206
  0
VERTEX
  8
0
 62
7
  6
CONTINUOUS
 10
28.6738014946
 20
127.6661191962
  0
VERTEX
  8
0
 62
7
  6
CONTINUOUS
 10
28.6324720611
 20
127.5537155591
  0
VERTEX
  8
0
 62
7
  6
CONTINUOUS
 10
28.582404641
 20
127.4538685811
  0
VERTEX
  8
0
 62
7
  6
CONTINUOUS
 10
28.5243811328
 20
127.3680786278
  0
VERTEX
  8
0
 62
7
  6
CONTINUOUS
 10
28.4589681718
 20
127.2976048562
  0
VERTEX
  8
0
 62
7
  6
CONTINUOUS
 10
28.3873154819
 20
127.2447540014
  0
VERTEX
  8
0
 62
7
  6
CONTINUOUS
 10
28.3114528415
 20
127.2125280859
  0
VERTEX
  8
0
 62
7
  6
CONTINUOUS
 10
28.2440214785
 20
127.203373618
  0
SEQEND
  0
POLYLINE
  8
0
 62
7
  6
CONTINUOUS
 66
1
 70
0
  0
VERTEX
  8
0
 62
7
  6
CONTINUOUS
 10
28.7440214785
 20
132.0424227237
  0
VERTEX
  8
0
 62
7
  6
CONTINUOUS
 10
28.758321199
 20
132.0616591013
  0
VERTEX
  8
0
 62
7
  6
CONTINUOUS
 10
28.800559601
 20
132.0795745082
  0
VERTEX
  8
0
 62
7
  6
CONTINUOUS
 10
28.8685533814
 20
132.0952047418
  0
VERTEX
  8
0
 62
7
  6
CONTINUOUS
 10
28.9111017986
 20
132.1018970807
  0
VERTEX
  8
0
 62
7
  6
CONTINUOUS
 10
29.0103097558
 20
132.112593568
  0
VERTEX
  8
0
 62
7
  6
CONTINUOUS
 10
29.1234766923
 20
132.1192540406
  0
VERTEX
  8
0
 62
7
  6
CONTINUOUS
 10
29.2440214785
 20
132.1215183334
  0
SEQEND
  0
LINE
  8
0
 62
7
  6
CONTINUOUS
 10
28.4940214785
 20
88.9776778523
 11
28.4940214785
 21
95.3496923433
  0
LINE
  8
0
 62
7
  6
CONTINUOUS
 10
28.7440214785
 20
134.5576778523
 11
28.7440214785
 21
128.1856634147
  0
POLYLINE
  8
0
 62
7
  6
CONTINUOUS
 66
1
 70
0
  0
VERTEX
  8
0
 62
7
  6
CONTINUOUS
 10
28.4940212694
 20
95.3496552622
  0
VERTEX
  8
0
 62
7
  6
CONTINUOUS
 10
28.4974916603
 20
95.4763138885
  0
VERTEX
  8
0
 62
7
  6
CONTINUOUS
 10
28.5101012371
 20
95.6145874207
  0
VERTEX
  8
0
 62
7
  6
CONTINUOUS
 10
28.5323253498
 20
95.7462324888
  0
VERTEX
  8
0
 62
7
  6
CONTINUOUS
 10
28.5642415436
 20
95.8692371882
  0
VERTEX
  8
0
 62
7
  6
CONTINUOUS
 10
28.6055711018
 20
95.9816407078
  0
VERTEX
  8
0
 62
7
  6
CONTINUOUS
 10
28.6556382296
 20
96.0814870063
  0
VERTEX
  8
0
 62
7
  6
CONTINUOUS
 10
28.7136622157
 20
96.1672774239
  0
VERTEX
  8
0
 62
7
  6
CONTINUOUS
 10
28.7790749555
 20
96.2377510721
  0
VERTEX
  8
0
 62
7
  6
CONTINUOUS
 10
28.8507282715
 20
96.2906022284
  0
VERTEX
  8
0
 62
7
  6
CONTINUOUS
 10
28.9265938739
 20
96.3228286271
  0
VERTEX
  8
0
 62
7
  6
CONTINUOUS
 10
28.9940214785
 20
96.3319820848
  0
SEQEND
  0
LINE
  8
0
 62
7
  6
CONTINUOUS
 10
25.4940214785
 20
96.3176778523
 11
25.6940214785
 21
96.1176778523
  0
POLYLINE
  8
0
 62
7
  6
CONTINUOUS
 66
1
 70
0
  0
VERTEX
  8
0
 62
7
  6
CONTINUOUS
 10
35.0940214785
 20
91.492932981
  0
VERTEX
  8
0
 62
7
  6
CONTINUOUS
 10
35.108321199
 20
91.4736966034
  0
VERTEX
  8
0
 62
7
  6
CONTINUOUS
 10
35.150559601
 20
91.4557811965
  0
VERTEX
  8
0
 62
7
  6
CONTINUOUS
 10
35.2185533814
 20
91.4401509629
  0
VERTEX
  8
0
 62
7
  6
CONTINUOUS
 10
35.2611017986
 20
91.433458624
  0
VERTEX
  8
0
 62
7
  6
CONTINUOUS
 10
35.3603097558
 20
91.4227621367
  0
VERTEX
  8
0
 62
7
  6
CONTINUOUS
 10
35.4734766923
 20
91.4161016641
  0
VERTEX
  8
0
 62
7
  6
CONTINUOUS
 10
35.5940214785
 20
91.4138373713
  0
SEQEND
  0
LINE
  8
0
 62
7
  6
CONTINUOUS
 10
34.8440214785
 20
127.882048251
 11
34.8440214785
 21
134.5576778523
  0
LINE
  8
0
 62
7
  6
CONTINUOUS
 10
35.0940214785
 20
95.34969229
 11
35.0940214785
 21
88.9776778523
  0
LINE
  8
0
 62
7
  6
CONTINUOUS
 10
41.1940214785
 20
88.9776778523
 11
41.1940214785
 21
95.6533074537
  0
LINE
  8
0
 62
7
  6
CONTINUOUS
 10
41.4440214785
 20
134.5576778523
 11
41.4440214785
 21
128.1856634147
  0
POLYLINE
  8
0
 62
7
  6
CONTINUOUS
 66
1
 70
0
  0
VERTEX
  8
0
 62
7
  6
CONTINUOUS
 10
41.4440219351
 20
128.1856915749
  0
VERTEX
  8
0
 62
7
  6
CONTINUOUS
 10
41.4405514883
 20
128.0590456278
  0
VERTEX
  8
0
 62
7
  6
CONTINUOUS
 10
41.4279421277
 20
127.9207735278
  0
VERTEX
  8
0
 62
7
  6
CONTINUOUS
 10
41.4057179851
 20
127.7891258206
  0
VERTEX
  8
0
 62
7
  6
CONTINUOUS
 10
41.3738014946
 20
127.6661191962
  0
VERTEX
  8
0
 62
7
  6
CONTINUOUS
 10
41.3324720611
 20
127.5537155591
  0
VERTEX
  8
0
 62
7
  6
CONTINUOUS
 10
41.282404641
 20
127.4538685811
  0
VERTEX
  8
0
 62
7
  6
CONTINUOUS
 10
41.2243811328
 20
127.3680786278
  0
VERTEX
  8
0
 62
7
  6
CONTINUOUS
 10
41.1589681718
 20
127.2976048562
  0
VERTEX
  8
0
 62
7
  6
CONTINUOUS
 10
41.0873154819
 20
127.2447540014
  0
VERTEX
  8
0
 62
7
  6
CONTINUOUS
 10
41.0114528415
 20
127.2125280859
  0
VERTEX
  8
0
 62
7
  6
CONTINUOUS
 10
40.9440214785
 20
127.203373618
  0
SEQEND
  0
POLYLINE
  8
0
 62
7
  6
CONTINUOUS
 66
1
 70
0
  0
VERTEX
  8
0
 62
7
  6
CONTINUOUS
 10
41.194021269
 20
95.3496551782
  0
VERTEX
  8
0
 62
7
  6
CONTINUOUS
 10
41.1974916604
 20
95.476313912
  0
VERTEX
  8
0
 62
7
  6
CONTINUOUS
 10
41.2101012391
 20
95.6145874524
  0
VERTEX
  8
0
 62
7
  6
CONTINUOUS
 10
41.2323253513
 20
95.7462324981
  0
VERTEX
  8
0
 62
7
  6
CONTINUOUS
 10
41.2642415429
 20
95.8692371859
  0
VERTEX
  8
0
 62
7
  6
CONTINUOUS
 10
41.3055710999
 20
95.9816407026
  0
VERTEX
  8
0
 62
7
  6
CONTINUOUS
 10
41.3556382191
 20
96.0814869872
  0
VERTEX
  8
0
 62
7
  6
CONTINUOUS
 10
41.4136622168
 20
96.1672774199
  0
VERTEX
  8
0
 62
7
  6
CONTINUOUS
 10
41.4790749307
 20
96.2377510489
  0
VERTEX
  8
0
 62
7
  6
CONTINUOUS
 10
41.5507282579
 20
96.2906022212
  0
VERTEX
  8
0
 62
7
  6
CONTINUOUS
 10
41.6265938767
 20
96.3228286278
  0
VERTEX
  8
0
 62
7
  6
CONTINUOUS
 10
41.6940214785
 20
96.3319820852
  0
SEQEND
  0
POLYLINE
  8
0
 62
7
  6
CONTINUOUS
 66
1
 70
0
  0
VERTEX
  8
0
 62
7
  6
CONTINUOUS
 10
54.1440214785
 20
132.0424227237
  0
VERTEX
  8
0
 62
7
  6
CONTINUOUS
 10
54.158321199
 20
132.0616591013
  0
VERTEX
  8
0
 62
7
  6
CONTINUOUS
 10
54.200559601
 20
132.0795745082
  0
VERTEX
  8
0
 62
7
  6
CONTINUOUS
 10
54.2685533814
 20
132.0952047418
  0
VERTEX
  8
0
 62
7
  6
CONTINUOUS
 10
54.3111017986
 20
132.1018970807
  0
VERTEX
  8
0
 62
7
  6
CONTINUOUS
 10
54.4103097558
 20
132.112593568
  0
VERTEX
  8
0
 62
7
  6
CONTINUOUS
 10
54.5234766923
 20
132.1192540406
  0
VERTEX
  8
0
 62
7
  6
CONTINUOUS
 10
54.6440214785
 20
132.1215183334
  0
SEQEND
  0
LINE
  8
0
 62
7
  6
CONTINUOUS
 10
47.5440214785
 20
128.1856633612
 11
47.5440214785
 21
134.5576778523
  0
LINE
  8
0
 62
7
  6
CONTINUOUS
 10
47.7940214785
 20
88.9776778523
 11
47.7940214785
 21
95.34969229
  0
LINE
  8
0
 62
7
  6
CONTINUOUS
 10
53.8940214785
 20
88.9776778523
 11
53.8940214785
 21
95.3496923433
  0
LINE
  8
0
 62
7
  6
CONTINUOUS
 10
54.1440214785
 20
134.5576778523
 11
54.1440214785
 21
128.1856634147
  0
POLYLINE
  8
0
 62
7
  6
CONTINUOUS
 66
1
 70
0
  0
VERTEX
  8
0
 62
7
  6
CONTINUOUS
 10
54.1440219341
 20
128.1856914741
  0
VERTEX
  8
0
 62
7
  6
CONTINUOUS
 10
54.1405514903
 20
128.0590456479
  0
VERTEX
  8
0
 62
7
  6
CONTINUOUS
 10
54.1279421296
 20
127.9207735511
  0
VERTEX
  8
0
 62
7
  6
CONTINUOUS
 10
54.105717986
 20
127.7891258258
  0
VERTEX
  8
0
 62
7
  6
CONTINUOUS
 10
54.0738014933
 20
127.6661191913
  0
VERTEX
  8
0
 62
7
  6
CONTINUOUS
 10
54.0324720587
 20
127.5537155539
  0
VERTEX
  8
0
 62
7
  6
CONTINUOUS
 10
53.9824046227
 20
127.4538685511
  0
VERTEX
  8
0
 62
7
  6
CONTINUOUS
 10
53.9243811363
 20
127.3680786274
  0
VERTEX
  8
0
 62
7
  6
CONTINUOUS
 10
53.8589681485
 20
127.2976048344
  0
VERTEX
  8
0
 62
7
  6
CONTINUOUS
 10
53.7873154696
 20
127.2447539935
  0
VERTEX
  8
0
 62
7
  6
CONTINUOUS
 10
53.7114528452
 20
127.2125280868
  0
VERTEX
  8
0
 62
7
  6
CONTINUOUS
 10
53.6440214785
 20
127.2033736184
  0
SEQEND
  0
POLYLINE
  8
0
 62
7
  6
CONTINUOUS
 66
1
 70
0
  0
VERTEX
  8
0
 62
7
  6
CONTINUOUS
 10
53.8940212694
 20
95.3496552622
  0
VERTEX
  8
0
 62
7
  6
CONTINUOUS
 10
53.8974916603
 20
95.4763138885
  0
VERTEX
  8
0
 62
7
  6
CONTINUOUS
 10
53.9101012371
 20
95.6145874207
  0
VERTEX
  8
0
 62
7
  6
CONTINUOUS
 10
53.9323253498
 20
95.7462324888
  0
VERTEX
  8
0
 62
7
  6
CONTINUOUS
 10
53.9642415436
 20
95.8692371882
  0
VERTEX
  8
0
 62
7
  6
CONTINUOUS
 10
54.0055711018
 20
95.9816407078
  0
VERTEX
  8
0
 62
7
  6
CONTINUOUS
 10
54.0556382296
 20
96.0814870063
  0
VERTEX
  8
0
 62
7
  6
CONTINUOUS
 10
54.1136622157
 20
96.1672774239
  0
VERTEX
  8
0
 62
7
  6
CONTINUOUS
 10
54.1790749555
 20
96.2377510721
  0
VERTEX
  8
0
 62
7
  6
CONTINUOUS
 10
54.2507282715
 20
96.2906022284
  0
VERTEX
  8
0
 62
7
  6
CONTINUOUS
 10
54.3265938739
 20
96.3228286271
  0
VERTEX
  8
0
 62
7
  6
CONTINUOUS
 10
54.3940214785
 20
96.3319820848
  0
SEQEND
  0
LINE
  8
0
 62
7
  6
CONTINUOUS
 10
26.1940214785
 20
88.4776778523
 11
27.9940214785
 21
88.4776778523
  0
LINE
  8
0
 62
7
  6
CONTINUOUS
 10
35.5940214785
 20
88.4776778523
 11
40.6940214785
 21
88.4776778523
  0
LINE
  8
0
 62
7
  6
CONTINUOUS
 10
48.2940214785
 20
88.4776778523
 11
53.3940214785
 21
88.4776778523
  0
LINE
  8
0
 62
7
  6
CONTINUOUS
 10
60.9940214785
 20
88.4776778523
 11
66.0940214785
 21
88.4776778523
  0
LINE
  8
0
 62
7
  6
CONTINUOUS
 10
73.6940214785
 20
88.4776778523
 11
78.7940214785
 21
88.4776778523
  0
LINE
  8
0
 62
7
  6
CONTINUOUS
 10
86.3940214785
 20
88.4776778523
 11
91.4940214785
 21
88.4776778523
  0
LINE
  8
0
 62
7
  6
CONTINUOUS
 10
99.0940214785
 20
88.4776778523
 11
104.1940214785
 21
88.4776778523
  0
LINE
  8
0
 62
7
  6
CONTINUOUS
 10
111.7940214785
 20
88.4776778523
 11
116.8940214785
 21
88.4776778523
  0
LINE
  8
0
 62
7
  6
CONTINUOUS
 10
124.4940214785
 20
88.4776778523
 11
126.2940214785
 21
88.4776778523
  0
POLYLINE
  8
0
 62
7
  6
CONTINUOUS
 66
1
 70
0
  0
VERTEX
  8
0
 62
7
  6
CONTINUOUS
 10
60.4940214785
 20
91.492932981
  0
VERTEX
  8
0
 62
7
  6
CONTINUOUS
 10
60.508321199
 20
91.4736966034
  0
VERTEX
  8
0
 62
7
  6
CONTINUOUS
 10
60.550559601
 20
91.4557811965
  0
VERTEX
  8
0
 62
7
  6
CONTINUOUS
 10
60.6185533814
 20
91.4401509629
  0
VERTEX
  8
0
 62
7
  6
CONTINUOUS
 10
60.6611017986
 20
91.433458624
  0
VERTEX
  8
0
 62
7
  6
CONTINUOUS
 10
60.7603097558
 20
91.4227621367
  0
VERTEX
  8
0
 62
7
  6
CONTINUOUS
 10
60.8734766923
 20
91.4161016641
  0
VERTEX
  8
0
 62
7
  6
CONTINUOUS
 10
60.9940214785
 20
91.4138373713
  0
SEQEND
  0
POLYLINE
  8
0
 62
7
  6
CONTINUOUS
 66
1
 70
0
  0
VERTEX
  8
0
 62
7
  6
CONTINUOUS
 10
116.8940214785
 20
91.4138373713
  0
VERTEX
  8
0
 62
7
  6
CONTINUOUS
 10
117.0145662648
 20
91.4161016641
  0
VERTEX
  8
0
 62
7
  6
CONTINUOUS
 10
117.1277332012
 20
91.4227621367
  0
VERTEX
  8
0
 62
7
  6
CONTINUOUS
 10
117.2269411585
 20
91.433458624
  0
VERTEX
  8
0
 62
7
  6
CONTINUOUS
 10
117.2694895757
 20
91.4401509629
  0
VERTEX
  8
0
 62
7
  6
CONTINUOUS
 10
117.337483356
 20
91.4557811965
  0
VERTEX
  8
0
 62
7
  6
CONTINUOUS
 10
117.379721758
 20
91.4736966034
  0
VERTEX
  8
0
 62
7
  6
CONTINUOUS
 10
117.3940214785
 20
91.492932981
  0
SEQEND
  0
POLYLINE
  8
0
 62
7
  6
CONTINUOUS
 66
1
 70
0
  0
VERTEX
  8
0
 62
7
  6
CONTINUOUS
 10
104.1940214785
 20
91.4138373713
  0
VERTEX
  8
0
 62
7
  6
CONTINUOUS
 10
104.3145662648
 20
91.4161016641
  0
VERTEX
  8
0
 62
7
  6
CONTINUOUS
 10
104.4277332012
 20
91.4227621367
  0
VERTEX
  8
0
 62
7
  6
CONTINUOUS
 10
104.5269411585
 20
91.433458624
  0
VERTEX
  8
0
 62
7
  6
CONTINUOUS
 10
104.5694895757
 20
91.4401509629
  0
VERTEX
  8
0
 62
7
  6
CONTINUOUS
 10
104.637483356
 20
91.4557811965
  0
VERTEX
  8
0
 62
7
  6
CONTINUOUS
 10
104.679721758
 20
91.4736966034
  0
VERTEX
  8
0
 62
7
  6
CONTINUOUS
 10
104.6940214785
 20
91.492932981
  0
SEQEND
  0
POLYLINE
  8
0
 62
7
  6
CONTINUOUS
 66
1
 70
0
  0
VERTEX
  8
0
 62
7
  6
CONTINUOUS
 10
91.4940214785
 20
91.4138373713
  0
VERTEX
  8
0
 62
7
  6
CONTINUOUS
 10
91.6145662648
 20
91.4161016641
  0
VERTEX
  8
0
 62
7
  6
CONTINUOUS
 10
91.7277332012
 20
91.4227621367
  0
VERTEX
  8
0
 62
7
  6
CONTINUOUS
 10
91.8269411585
 20
91.433458624
  0
VERTEX
  8
0
 62
7
  6
CONTINUOUS
 10
91.8694895757
 20
91.4401509629
  0
VERTEX
  8
0
 62
7
  6
CONTINUOUS
 10
91.937483356
 20
91.4557811965
  0
VERTEX
  8
0
 62
7
  6
CONTINUOUS
 10
91.979721758
 20
91.4736966034
  0
VERTEX
  8
0
 62
7
  6
CONTINUOUS
 10
91.9940214785
 20
91.492932981
  0
SEQEND
  0
POLYLINE
  8
0
 62
7
  6
CONTINUOUS
 66
1
 70
0
  0
VERTEX
  8
0
 62
7
  6
CONTINUOUS
 10
78.7940214785
 20
91.4138373713
  0
VERTEX
  8
0
 62
7
  6
CONTINUOUS
 10
78.9145662648
 20
91.4161016641
  0
VERTEX
  8
0
 62
7
  6
CONTINUOUS
 10
79.0277332012
 20
91.4227621367
  0
VERTEX
  8
0
 62
7
  6
CONTINUOUS
 10
79.1269411585
 20
91.433458624
  0
VERTEX
  8
0
 62
7
  6
CONTINUOUS
 10
79.1694895757
 20
91.4401509629
  0
VERTEX
  8
0
 62
7
  6
CONTINUOUS
 10
79.237483356
 20
91.4557811965
  0
VERTEX
  8
0
 62
7
  6
CONTINUOUS
 10
79.279721758
 20
91.4736966034
  0
VERTEX
  8
0
 62
7
  6
CONTINUOUS
 10
79.2940214785
 20
91.492932981
  0
SEQEND
  0
POLYLINE
  8
0
 62
7
  6
CONTINUOUS
 66
1
 70
0
  0
VERTEX
  8
0
 62
7
  6
CONTINUOUS
 10
66.0940214785
 20
91.4138373713
  0
VERTEX
  8
0
 62
7
  6
CONTINUOUS
 10
66.2145662648
 20
91.4161016641
  0
VERTEX
  8
0
 62
7
  6
CONTINUOUS
 10
66.3277332012
 20
91.4227621367
  0
VERTEX
  8
0
 62
7
  6
CONTINUOUS
 10
66.4269411585
 20
91.433458624
  0
VERTEX
  8
0
 62
7
  6
CONTINUOUS
 10
66.4694895757
 20
91.4401509629
  0
VERTEX
  8
0
 62
7
  6
CONTINUOUS
 10
66.537483356
 20
91.4557811965
  0
VERTEX
  8
0
 62
7
  6
CONTINUOUS
 10
66.579721758
 20
91.4736966034
  0
VERTEX
  8
0
 62
7
  6
CONTINUOUS
 10
66.5940214785
 20
91.492932981
  0
SEQEND
  0
POLYLINE
  8
0
 62
7
  6
CONTINUOUS
 66
1
 70
0
  0
VERTEX
  8
0
 62
7
  6
CONTINUOUS
 10
53.3940214785
 20
91.4138373713
  0
VERTEX
  8
0
 62
7
  6
CONTINUOUS
 10
53.5145662648
 20
91.4161016641
  0
VERTEX
  8
0
 62
7
  6
CONTINUOUS
 10
53.6277332012
 20
91.4227621367
  0
VERTEX
  8
0
 62
7
  6
CONTINUOUS
 10
53.7269411585
 20
91.433458624
  0
VERTEX
  8
0
 62
7
  6
CONTINUOUS
 10
53.7694895757
 20
91.4401509629
  0
VERTEX
  8
0
 62
7
  6
CONTINUOUS
 10
53.837483356
 20
91.4557811965
  0
VERTEX
  8
0
 62
7
  6
CONTINUOUS
 10
53.879721758
 20
91.4736966034
  0
VERTEX
  8
0
 62
7
  6
CONTINUOUS
 10
53.8940214785
 20
91.492932981
  0
SEQEND
  0
POLYLINE
  8
0
 62
7
  6
CONTINUOUS
 66
1
 70
0
  0
VERTEX
  8
0
 62
7
  6
CONTINUOUS
 10
27.9940214785
 20
91.4138373713
  0
VERTEX
  8
0
 62
7
  6
CONTINUOUS
 10
28.1145662648
 20
91.4161016641
  0
VERTEX
  8
0
 62
7
  6
CONTINUOUS
 10
28.2277332012
 20
91.4227621367
  0
VERTEX
  8
0
 62
7
  6
CONTINUOUS
 10
28.3269411585
 20
91.433458624
  0
VERTEX
  8
0
 62
7
  6
CONTINUOUS
 10
28.3694895757
 20
91.4401509629
  0
VERTEX
  8
0
 62
7
  6
CONTINUOUS
 10
28.437483356
 20
91.4557811965
  0
VERTEX
  8
0
 62
7
  6
CONTINUOUS
 10
28.479721758
 20
91.4736966034
  0
VERTEX
  8
0
 62
7
  6
CONTINUOUS
 10
28.4940214785
 20
91.492932981
  0
SEQEND
  0
LINE
  8
0
 62
7
  6
CONTINUOUS
 10
26.1940214785
 20
91.4138373713
 11
27.9940214785
 21
91.4138373713
  0
LINE
  8
0
 62
7
  6
CONTINUOUS
 10
35.5940214785
 20
91.4138373713
 11
40.6940214785
 21
91.4138373713
  0
LINE
  8
0
 62
7
  6
CONTINUOUS
 10
48.2940214785
 20
91.4138373713
 11
53.3940214785
 21
91.4138373713
  0
LINE
  8
0
 62
7
  6
CONTINUOUS
 10
60.9940214785
 20
91.4138373713
 11
66.0940214785
 21
91.4138373713
  0
LINE
  8
0
 62
7
  6
CONTINUOUS
 10
73.6940214785
 20
91.4138373713
 11
78.7940214785
 21
91.4138373713
  0
LINE
  8
0
 62
7
  6
CONTINUOUS
 10
86.3940214785
 20
91.4138373713
 11
91.4940214785
 21
91.4138373713
  0
LINE
  8
0
 62
7
  6
CONTINUOUS
 10
99.0940214785
 20
91.4138373713
 11
104.1940214785
 21
91.4138373713
  0
LINE
  8
0
 62
7
  6
CONTINUOUS
 10
111.7940214785
 20
91.4138373713
 11
116.8940214785
 21
91.4138373713
  0
LINE
  8
0
 62
7
  6
CONTINUOUS
 10
124.4940214785
 20
91.4138373713
 11
126.2940214785
 21
91.4138373713
  0
LINE
  8
1_AXIS
 62
2
  6
CENTER
 10
21.2834738255
 20
92.7176778523
 11
132.7290362416
 21
92.7176778523
  0
POLYLINE
  8
0
 62
7
  6
CONTINUOUS
 66
1
 70
0
  0
VERTEX
  8
0
 62
7
  6
CONTINUOUS
 10
26.1940214785
 20
91.4138373713
  0
VERTEX
  8
0
 62
7
  6
CONTINUOUS
 10
26.0734766923
 20
91.4161016641
  0
VERTEX
  8
0
 62
7
  6
CONTINUOUS
 10
25.9603097558
 20
91.4227621367
  0
VERTEX
  8
0
 62
7
  6
CONTINUOUS
 10
25.8611017986
 20
91.433458624
  0
VERTEX
  8
0
 62
7
  6
CONTINUOUS
 10
25.8185533814
 20
91.4401509629
  0
VERTEX
  8
0
 62
7
  6
CONTINUOUS
 10
25.750559601
 20
91.4557811965
  0
VERTEX
  8
0
 62
7
  6
CONTINUOUS
 10
25.708321199
 20
91.4736966034
  0
VERTEX
  8
0
 62
7
  6
CONTINUOUS
 10
25.6940214785
 20
91.492932981
  0
SEQEND
  0
POLYLINE
  8
0
 62
7
  6
CONTINUOUS
 66
1
 70
0
  0
VERTEX
  8
0
 62
7
  6
CONTINUOUS
 10
48.2940214785
 20
91.4138373713
  0
VERTEX
  8
0
 62
7
  6
CONTINUOUS
 10
48.1734766923
 20
91.4161016641
  0
VERTEX
  8
0
 62
7
  6
CONTINUOUS
 10
48.0603097558
 20
91.4227621367
  0
VERTEX
  8
0
 62
7
  6
CONTINUOUS
 10
47.9611017986
 20
91.433458624
  0
VERTEX
  8
0
 62
7
  6
CONTINUOUS
 10
47.9185533814
 20
91.4401509629
  0
VERTEX
  8
0
 62
7
  6
CONTINUOUS
 10
47.850559601
 20
91.4557811965
  0
VERTEX
  8
0
 62
7
  6
CONTINUOUS
 10
47.808321199
 20
91.4736966034
  0
VERTEX
  8
0
 62
7
  6
CONTINUOUS
 10
47.7940214785
 20
91.492932981
  0
SEQEND
  0
POLYLINE
  8
0
 62
7
  6
CONTINUOUS
 66
1
 70
0
  0
VERTEX
  8
0
 62
7
  6
CONTINUOUS
 10
34.5940214741
 20
96.3319820872
  0
VERTEX
  8
0
 62
7
  6
CONTINUOUS
 10
34.6608106031
 20
96.3230010381
  0
VERTEX
  8
0
 62
7
  6
CONTINUOUS
 10
34.736693161
 20
96.2909621768
  0
VERTEX
  8
0
 62
7
  6
CONTINUOUS
 10
34.8083936197
 20
96.2382689041
  0
VERTEX
  8
0
 62
7
  6
CONTINUOUS
 10
34.8738666702
 20
96.1679286633
  0
VERTEX
  8
0
 62
7
  6
CONTINUOUS
 10
34.9319553583
 20
96.0822578111
  0
VERTEX
  8
0
 62
7
  6
CONTINUOUS
 10
34.9820927504
 20
95.9825197403
  0
VERTEX
  8
0
 62
7
  6
CONTINUOUS
 10
35.0234949414
 20
95.870220949
  0
VERTEX
  8
0
 62
7
  6
CONTINUOUS
 10
35.0554870492
 20
95.7473162601
  0
VERTEX
  8
0
 62
7
  6
CONTINUOUS
 10
35.0777891364
 20
95.6157703142
  0
VERTEX
  8
0
 62
7
  6
CONTINUOUS
 10
35.0904785586
 20
95.477601469
  0
VERTEX
  8
0
 62
7
  6
CONTINUOUS
 10
35.0940219375
 20
95.3496645139
  0
SEQEND
  0
POLYLINE
  8
0
 62
7
  6
CONTINUOUS
 66
1
 70
0
  0
VERTEX
  8
0
 62
7
  6
CONTINUOUS
 10
47.2940214741
 20
96.3319820875
  0
VERTEX
  8
0
 62
7
  6
CONTINUOUS
 10
47.3608106002
 20
96.3230010388
  0
VERTEX
  8
0
 62
7
  6
CONTINUOUS
 10
47.4366931742
 20
96.2909621683
  0
VERTEX
  8
0
 62
7
  6
CONTINUOUS
 10
47.5083936417
 20
96.2382688833
  0
VERTEX
  8
0
 62
7
  6
CONTINUOUS
 10
47.5738666611
 20
96.1679286704
  0
VERTEX
  8
0
 62
7
  6
CONTINUOUS
 10
47.6319553718
 20
96.0822577886
  0
VERTEX
  8
0
 62
7
  6
CONTINUOUS
 10
47.682092752
 20
95.9825197371
  0
VERTEX
  8
0
 62
7
  6
CONTINUOUS
 10
47.7234949427
 20
95.8702209446
  0
VERTEX
  8
0
 62
7
  6
CONTINUOUS
 10
47.7554870486
 20
95.7473162649
  0
VERTEX
  8
0
 62
7
  6
CONTINUOUS
 10
47.7777891347
 20
95.615770337
  0
VERTEX
  8
0
 62
7
  6
CONTINUOUS
 10
47.7904785562
 20
95.4776014912
  0
VERTEX
  8
0
 62
7
  6
CONTINUOUS
 10
47.7940219387
 20
95.3496643972
  0
SEQEND
  0
POLYLINE
  8
0
 62
7
  6
CONTINUOUS
 66
1
 70
0
  0
VERTEX
  8
0
 62
7
  6
CONTINUOUS
 10
34.8440214785
 20
132.0424227237
  0
VERTEX
  8
0
 62
7
  6
CONTINUOUS
 10
34.829721758
 20
132.0616591013
  0
VERTEX
  8
0
 62
7
  6
CONTINUOUS
 10
34.787483356
 20
132.0795745082
  0
VERTEX
  8
0
 62
7
  6
CONTINUOUS
 10
34.7194895757
 20
132.0952047418
  0
VERTEX
  8
0
 62
7
  6
CONTINUOUS
 10
34.6769411585
 20
132.1018970807
  0
VERTEX
  8
0
 62
7
  6
CONTINUOUS
 10
34.5777332012
 20
132.112593568
  0
VERTEX
  8
0
 62
7
  6
CONTINUOUS
 10
34.4645662648
 20
132.1192540406
  0
VERTEX
  8
0
 62
7
  6
CONTINUOUS
 10
34.3440214785
 20
132.1215183334
  0
SEQEND
  0
LINE
  8
0
 62
7
  6
CONTINUOUS
 10
60.2440214785
 20
128.1856633613
 11
60.2440214785
 21
134.5576778523
  0
LINE
  8
0
 62
7
  6
CONTINUOUS
 10
60.4940214785
 20
88.9776778523
 11
60.4940214785
 21
95.34969229
  0
POLYLINE
  8
0
 62
7
  6
CONTINUOUS
 66
1
 70
0
  0
VERTEX
  8
0
 62
7
  6
CONTINUOUS
 10
41.1940214785
 20
91.492932981
  0
VERTEX
  8
0
 62
7
  6
CONTINUOUS
 10
41.179721758
 20
91.4736966034
  0
VERTEX
  8
0
 62
7
  6
CONTINUOUS
 10
41.137483356
 20
91.4557811965
  0
VERTEX
  8
0
 62
7
  6
CONTINUOUS
 10
41.0694895757
 20
91.4401509629
  0
VERTEX
  8
0
 62
7
  6
CONTINUOUS
 10
41.0269411585
 20
91.433458624
  0
VERTEX
  8
0
 62
7
  6
CONTINUOUS
 10
40.9277332012
 20
91.4227621367
  0
VERTEX
  8
0
 62
7
  6
CONTINUOUS
 10
40.8145662648
 20
91.4161016641
  0
VERTEX
  8
0
 62
7
  6
CONTINUOUS
 10
40.6940214785
 20
91.4138373713
  0
SEQEND
  0
LINE
  8
0
 62
7
  6
CONTINUOUS
 10
28.9940214785
 20
96.3319821678
 11
34.5940214741
 21
96.3319821678
  0
LINE
  8
0
 62
7
  6
CONTINUOUS
 10
41.6940214785
 20
96.3319821678
 11
47.2940214741
 21
96.3319821678
  0
LINE
  8
0
 62
7
  6
CONTINUOUS
 10
54.3940214785
 20
96.3319821678
 11
59.9940214741
 21
96.3319821678
  0
LINE
  8
0
 62
7
  6
CONTINUOUS
 10
67.0940214785
 20
96.3319821678
 11
72.6940214741
 21
96.3319821678
  0
LINE
  8
0
 62
7
  6
CONTINUOUS
 10
79.7940214785
 20
96.3319821678
 11
85.3940214741
 21
96.3319821678
  0
LINE
  8
0
 62
7
  6
CONTINUOUS
 10
92.4940214785
 20
96.3319821678
 11
98.0940214741
 21
96.3319821678
  0
LINE
  8
0
 62
7
  6
CONTINUOUS
 10
105.1940214785
 20
96.3319821678
 11
110.7940214741
 21
96.3319821678
  0
LINE
  8
0
 62
7
  6
CONTINUOUS
 10
117.8940214785
 20
96.3319821678
 11
123.4940214741
 21
96.3319821678
  0
LINE
  8
0
 62
7
  6
CONTINUOUS
 10
25.4940214785
 20
97.2536994698
 11
25.6940214785
 21
97.2536994698
  0
LINE
  8
0
 62
7
  6
CONTINUOUS
 10
126.7940214785
 20
97.2536994698
 11
126.9940214785
 21
97.2536994698
  0
POLYLINE
  8
0
 62
7
  6
CONTINUOUS
 66
1
 70
0
  0
VERTEX
  8
0
 62
7
  6
CONTINUOUS
 10
59.9940214741
 20
96.3319820872
  0
VERTEX
  8
0
 62
7
  6
CONTINUOUS
 10
60.0608106031
 20
96.3230010381
  0
VERTEX
  8
0
 62
7
  6
CONTINUOUS
 10
60.136693161
 20
96.2909621768
  0
VERTEX
  8
0
 62
7
  6
CONTINUOUS
 10
60.2083936197
 20
96.2382689041
  0
VERTEX
  8
0
 62
7
  6
CONTINUOUS
 10
60.2738666702
 20
96.1679286633
  0
VERTEX
  8
0
 62
7
  6
CONTINUOUS
 10
60.3319553583
 20
96.0822578111
  0
VERTEX
  8
0
 62
7
  6
CONTINUOUS
 10
60.3820927504
 20
95.9825197403
  0
VERTEX
  8
0
 62
7
  6
CONTINUOUS
 10
60.4234949414
 20
95.870220949
  0
VERTEX
  8
0
 62
7
  6
CONTINUOUS
 10
60.4554870492
 20
95.7473162601
  0
VERTEX
  8
0
 62
7
  6
CONTINUOUS
 10
60.4777891364
 20
95.6157703142
  0
VERTEX
  8
0
 62
7
  6
CONTINUOUS
 10
60.4904785586
 20
95.477601469
  0
VERTEX
  8
0
 62
7
  6
CONTINUOUS
 10
60.4940219375
 20
95.3496645139
  0
SEQEND
  0
POLYLINE
  8
0
 62
7
  6
CONTINUOUS
 66
1
 70
0
  0
VERTEX
  8
0
 62
7
  6
CONTINUOUS
 10
72.6940214741
 20
96.3319820875
  0
VERTEX
  8
0
 62
7
  6
CONTINUOUS
 10
72.7608106002
 20
96.3230010388
  0
VERTEX
  8
0
 62
7
  6
CONTINUOUS
 10
72.8366931742
 20
96.2909621683
  0
VERTEX
  8
0
 62
7
  6
CONTINUOUS
 10
72.9083936417
 20
96.2382688833
  0
VERTEX
  8
0
 62
7
  6
CONTINUOUS
 10
72.9738666611
 20
96.1679286704
  0
VERTEX
  8
0
 62
7
  6
CONTINUOUS
 10
73.0319553718
 20
96.0822577886
  0
VERTEX
  8
0
 62
7
  6
CONTINUOUS
 10
73.082092752
 20
95.9825197371
  0
VERTEX
  8
0
 62
7
  6
CONTINUOUS
 10
73.1234949427
 20
95.8702209446
  0
VERTEX
  8
0
 62
7
  6
CONTINUOUS
 10
73.1554870486
 20
95.7473162649
  0
VERTEX
  8
0
 62
7
  6
CONTINUOUS
 10
73.1777891347
 20
95.615770337
  0
VERTEX
  8
0
 62
7
  6
CONTINUOUS
 10
73.1904785562
 20
95.4776014912
  0
VERTEX
  8
0
 62
7
  6
CONTINUOUS
 10
73.1940219387
 20
95.3496643972
  0
SEQEND
  0
POLYLINE
  8
0
 62
7
  6
CONTINUOUS
 66
1
 70
0
  0
VERTEX
  8
0
 62
7
  6
CONTINUOUS
 10
73.1940214785
 20
91.492932981
  0
VERTEX
  8
0
 62
7
  6
CONTINUOUS
 10
73.208321199
 20
91.4736966034
  0
VERTEX
  8
0
 62
7
  6
CONTINUOUS
 10
73.250559601
 20
91.4557811965
  0
VERTEX
  8
0
 62
7
  6
CONTINUOUS
 10
73.3185533814
 20
91.4401509629
  0
VERTEX
  8
0
 62
7
  6
CONTINUOUS
 10
73.3611017986
 20
91.433458624
  0
VERTEX
  8
0
 62
7
  6
CONTINUOUS
 10
73.4603097558
 20
91.4227621367
  0
VERTEX
  8
0
 62
7
  6
CONTINUOUS
 10
73.5734766923
 20
91.4161016641
  0
VERTEX
  8
0
 62
7
  6
CONTINUOUS
 10
73.6940214785
 20
91.4138373713
  0
SEQEND
  0
POLYLINE
  8
0
 62
7
  6
CONTINUOUS
 66
1
 70
0
  0
VERTEX
  8
0
 62
7
  6
CONTINUOUS
 10
85.3940214741
 20
96.3319820872
  0
VERTEX
  8
0
 62
7
  6
CONTINUOUS
 10
85.4608106031
 20
96.3230010381
  0
VERTEX
  8
0
 62
7
  6
CONTINUOUS
 10
85.536693161
 20
96.2909621768
  0
VERTEX
  8
0
 62
7
  6
CONTINUOUS
 10
85.6083936197
 20
96.2382689041
  0
VERTEX
  8
0
 62
7
  6
CONTINUOUS
 10
85.6738666702
 20
96.1679286633
  0
VERTEX
  8
0
 62
7
  6
CONTINUOUS
 10
85.7319553583
 20
96.0822578111
  0
VERTEX
  8
0
 62
7
  6
CONTINUOUS
 10
85.7820927504
 20
95.9825197403
  0
VERTEX
  8
0
 62
7
  6
CONTINUOUS
 10
85.8234949414
 20
95.870220949
  0
VERTEX
  8
0
 62
7
  6
CONTINUOUS
 10
85.8554870492
 20
95.7473162601
  0
VERTEX
  8
0
 62
7
  6
CONTINUOUS
 10
85.8777891364
 20
95.6157703142
  0
VERTEX
  8
0
 62
7
  6
CONTINUOUS
 10
85.8904785586
 20
95.477601469
  0
VERTEX
  8
0
 62
7
  6
CONTINUOUS
 10
85.8940219375
 20
95.3496645139
  0
SEQEND
  0
POLYLINE
  8
0
 62
7
  6
CONTINUOUS
 66
1
 70
0
  0
VERTEX
  8
0
 62
7
  6
CONTINUOUS
 10
98.0940214741
 20
96.3319820875
  0
VERTEX
  8
0
 62
7
  6
CONTINUOUS
 10
98.1608106002
 20
96.3230010388
  0
VERTEX
  8
0
 62
7
  6
CONTINUOUS
 10
98.2366931742
 20
96.2909621683
  0
VERTEX
  8
0
 62
7
  6
CONTINUOUS
 10
98.3083936417
 20
96.2382688833
  0
VERTEX
  8
0
 62
7
  6
CONTINUOUS
 10
98.3738666611
 20
96.1679286704
  0
VERTEX
  8
0
 62
7
  6
CONTINUOUS
 10
98.4319553718
 20
96.0822577886
  0
VERTEX
  8
0
 62
7
  6
CONTINUOUS
 10
98.482092752
 20
95.9825197371
  0
VERTEX
  8
0
 62
7
  6
CONTINUOUS
 10
98.5234949427
 20
95.8702209446
  0
VERTEX
  8
0
 62
7
  6
CONTINUOUS
 10
98.5554870486
 20
95.7473162649
  0
VERTEX
  8
0
 62
7
  6
CONTINUOUS
 10
98.5777891347
 20
95.615770337
  0
VERTEX
  8
0
 62
7
  6
CONTINUOUS
 10
98.5904785562
 20
95.4776014912
  0
VERTEX
  8
0
 62
7
  6
CONTINUOUS
 10
98.5940219387
 20
95.3496643972
  0
SEQEND
  0
POLYLINE
  8
0
 62
7
  6
CONTINUOUS
 66
1
 70
0
  0
VERTEX
  8
0
 62
7
  6
CONTINUOUS
 10
110.7940214741
 20
96.3319820872
  0
VERTEX
  8
0
 62
7
  6
CONTINUOUS
 10
110.8608106031
 20
96.3230010381
  0
VERTEX
  8
0
 62
7
  6
CONTINUOUS
 10
110.936693161
 20
96.2909621768
  0
VERTEX
  8
0
 62
7
  6
CONTINUOUS
 10
111.0083936197
 20
96.2382689041
  0
VERTEX
  8
0
 62
7
  6
CONTINUOUS
 10
111.0738666702
 20
96.1679286633
  0
VERTEX
  8
0
 62
7
  6
CONTINUOUS
 10
111.1319553583
 20
96.0822578111
  0
VERTEX
  8
0
 62
7
  6
CONTINUOUS
 10
111.1820927504
 20
95.9825197403
  0
VERTEX
  8
0
 62
7
  6
CONTINUOUS
 10
111.2234949414
 20
95.870220949
  0
VERTEX
  8
0
 62
7
  6
CONTINUOUS
 10
111.2554870492
 20
95.7473162601
  0
VERTEX
  8
0
 62
7
  6
CONTINUOUS
 10
111.2777891364
 20
95.6157703142
  0
VERTEX
  8
0
 62
7
  6
CONTINUOUS
 10
111.2904785586
 20
95.477601469
  0
VERTEX
  8
0
 62
7
  6
CONTINUOUS
 10
111.2940219375
 20
95.3496645139
  0
SEQEND
  0
LINE
  8
0
 62
7
  6
CONTINUOUS
 10
66.5940214785
 20
88.9776778523
 11
66.5940214785
 21
95.3496923434
  0
LINE
  8
0
 62
7
  6
CONTINUOUS
 10
66.8440214785
 20
134.5576778523
 11
66.8440214785
 21
128.1856634147
  0
POLYLINE
  8
0
 62
7
  6
CONTINUOUS
 66
1
 70
0
  0
VERTEX
  8
0
 62
7
  6
CONTINUOUS
 10
66.8440219351
 20
128.1856915749
  0
VERTEX
  8
0
 62
7
  6
CONTINUOUS
 10
66.8405514883
 20
128.0590456278
  0
VERTEX
  8
0
 62
7
  6
CONTINUOUS
 10
66.8279421277
 20
127.9207735278
  0
VERTEX
  8
0
 62
7
  6
CONTINUOUS
 10
66.8057179851
 20
127.7891258206
  0
VERTEX
  8
0
 62
7
  6
CONTINUOUS
 10
66.7738014946
 20
127.6661191962
  0
VERTEX
  8
0
 62
7
  6
CONTINUOUS
 10
66.7324720611
 20
127.5537155591
  0
VERTEX
  8
0
 62
7
  6
CONTINUOUS
 10
66.682404641
 20
127.4538685811
  0
VERTEX
  8
0
 62
7
  6
CONTINUOUS
 10
66.6243811328
 20
127.3680786278
  0
VERTEX
  8
0
 62
7
  6
CONTINUOUS
 10
66.5589681718
 20
127.2976048562
  0
VERTEX
  8
0
 62
7
  6
CONTINUOUS
 10
66.4873154819
 20
127.2447540014
  0
VERTEX
  8
0
 62
7
  6
CONTINUOUS
 10
66.4114528415
 20
127.2125280859
  0
VERTEX
  8
0
 62
7
  6
CONTINUOUS
 10
66.3440214785
 20
127.203373618
  0
SEQEND
  0
POLYLINE
  8
0
 62
7
  6
CONTINUOUS
 66
1
 70
0
  0
VERTEX
  8
0
 62
7
  6
CONTINUOUS
 10
66.594021269
 20
95.3496551782
  0
VERTEX
  8
0
 62
7
  6
CONTINUOUS
 10
66.5974916604
 20
95.476313912
  0
VERTEX
  8
0
 62
7
  6
CONTINUOUS
 10
66.6101012391
 20
95.6145874524
  0
VERTEX
  8
0
 62
7
  6
CONTINUOUS
 10
66.6323253513
 20
95.7462324981
  0
VERTEX
  8
0
 62
7
  6
CONTINUOUS
 10
66.6642415429
 20
95.8692371859
  0
VERTEX
  8
0
 62
7
  6
CONTINUOUS
 10
66.7055710999
 20
95.9816407026
  0
VERTEX
  8
0
 62
7
  6
CONTINUOUS
 10
66.7556382191
 20
96.0814869872
  0
VERTEX
  8
0
 62
7
  6
CONTINUOUS
 10
66.8136622168
 20
96.1672774199
  0
VERTEX
  8
0
 62
7
  6
CONTINUOUS
 10
66.8790749307
 20
96.2377510489
  0
VERTEX
  8
0
 62
7
  6
CONTINUOUS
 10
66.9507282579
 20
96.2906022212
  0
VERTEX
  8
0
 62
7
  6
CONTINUOUS
 10
67.0265938767
 20
96.3228286278
  0
VERTEX
  8
0
 62
7
  6
CONTINUOUS
 10
67.0940214785
 20
96.3319820852
  0
SEQEND
  0
POLYLINE
  8
0
 62
7
  6
CONTINUOUS
 66
1
 70
0
  0
VERTEX
  8
0
 62
7
  6
CONTINUOUS
 10
79.5440214785
 20
132.0424227237
  0
VERTEX
  8
0
 62
7
  6
CONTINUOUS
 10
79.558321199
 20
132.0616591013
  0
VERTEX
  8
0
 62
7
  6
CONTINUOUS
 10
79.600559601
 20
132.0795745082
  0
VERTEX
  8
0
 62
7
  6
CONTINUOUS
 10
79.6685533814
 20
132.0952047418
  0
VERTEX
  8
0
 62
7
  6
CONTINUOUS
 10
79.7111017986
 20
132.1018970807
  0
VERTEX
  8
0
 62
7
  6
CONTINUOUS
 10
79.8103097558
 20
132.112593568
  0
VERTEX
  8
0
 62
7
  6
CONTINUOUS
 10
79.9234766923
 20
132.1192540406
  0
VERTEX
  8
0
 62
7
  6
CONTINUOUS
 10
80.0440214785
 20
132.1215183334
  0
SEQEND
  0
POLYLINE
  8
0
 62
7
  6
CONTINUOUS
 66
1
 70
0
  0
VERTEX
  8
0
 62
7
  6
CONTINUOUS
 10
123.4940214741
 20
96.3319820872
  0
VERTEX
  8
0
 62
7
  6
CONTINUOUS
 10
123.5608106031
 20
96.3230010381
  0
VERTEX
  8
0
 62
7
  6
CONTINUOUS
 10
123.636693161
 20
96.2909621768
  0
VERTEX
  8
0
 62
7
  6
CONTINUOUS
 10
123.7083936197
 20
96.2382689041
  0
VERTEX
  8
0
 62
7
  6
CONTINUOUS
 10
123.7738666702
 20
96.1679286633
  0
VERTEX
  8
0
 62
7
  6
CONTINUOUS
 10
123.8319553583
 20
96.0822578111
  0
VERTEX
  8
0
 62
7
  6
CONTINUOUS
 10
123.8820927504
 20
95.9825197403
  0
VERTEX
  8
0
 62
7
  6
CONTINUOUS
 10
123.9234949414
 20
95.870220949
  0
VERTEX
  8
0
 62
7
  6
CONTINUOUS
 10
123.9554870492
 20
95.7473162601
  0
VERTEX
  8
0
 62
7
  6
CONTINUOUS
 10
123.9777891364
 20
95.6157703142
  0
VERTEX
  8
0
 62
7
  6
CONTINUOUS
 10
123.9904785586
 20
95.477601469
  0
VERTEX
  8
0
 62
7
  6
CONTINUOUS
 10
123.9940219375
 20
95.3496645139
  0
SEQEND
  0
LINE
  8
0
 62
7
  6
CONTINUOUS
 10
72.9440214785
 20
128.1856633612
 11
72.9440214785
 21
134.5576778523
  0
POLYLINE
  8
0
 62
7
  6
CONTINUOUS
 66
1
 70
0
  0
VERTEX
  8
0
 62
7
  6
CONTINUOUS
 10
85.8940214785
 20
91.492932981
  0
VERTEX
  8
0
 62
7
  6
CONTINUOUS
 10
85.908321199
 20
91.4736966034
  0
VERTEX
  8
0
 62
7
  6
CONTINUOUS
 10
85.950559601
 20
91.4557811965
  0
VERTEX
  8
0
 62
7
  6
CONTINUOUS
 10
86.0185533814
 20
91.4401509629
  0
VERTEX
  8
0
 62
7
  6
CONTINUOUS
 10
86.0611017986
 20
91.433458624
  0
VERTEX
  8
0
 62
7
  6
CONTINUOUS
 10
86.1603097558
 20
91.4227621367
  0
VERTEX
  8
0
 62
7
  6
CONTINUOUS
 10
86.2734766923
 20
91.4161016641
  0
VERTEX
  8
0
 62
7
  6
CONTINUOUS
 10
86.3940214785
 20
91.4138373713
  0
SEQEND
  0
LINE
  8
0
 62
7
  6
CONTINUOUS
 10
73.1940214785
 20
88.9776778523
 11
73.1940214785
 21
95.34969229
  0
LINE
  8
1_AXIS
 62
2
  6
CENTER
 10
76.2440214785
 20
140.0181583893
 11
76.2440214785
 21
113.7677778523
  0
LINE
  8
1_AXIS
 62
2
  6
CONTINUOUS
 10
76.2440214785
 20
112.6476778523
 11
76.2440214785
 21
110.8876778523
  0
LINE
  8
1_AXIS
 62
2
  6
CENTER
 10
76.2440214785
 20
84.0912644295
 11
76.2440214785
 21
109.7675778523
  0
LINE
  8
1_AXIS
 62
2
  6
CENTER
 10
132.5249234899
 20
111.7676778523
 11
78.2441214785
 21
111.7676778523
  0
LINE
  8
1_AXIS
 62
2
  6
CONTINUOUS
 10
77.1240214785
 20
111.7676778523
 11
75.3640214785
 21
111.7676778523
  0
LINE
  8
1_AXIS
 62
2
  6
CENTER
 10
22.5081503356
 20
111.7676778523
 11
74.2439214785
 21
111.7676778523
  0
POLYLINE
  8
0
 62
7
  6
CONTINUOUS
 66
1
 70
0
  0
VERTEX
  8
0
 62
7
  6
CONTINUOUS
 10
60.2440214785
 20
132.0424227237
  0
VERTEX
  8
0
 62
7
  6
CONTINUOUS
 10
60.229721758
 20
132.0616591013
  0
VERTEX
  8
0
 62
7
  6
CONTINUOUS
 10
60.187483356
 20
132.0795745082
  0
VERTEX
  8
0
 62
7
  6
CONTINUOUS
 10
60.1194895757
 20
132.0952047418
  0
VERTEX
  8
0
 62
7
  6
CONTINUOUS
 10
60.0769411585
 20
132.1018970807
  0
VERTEX
  8
0
 62
7
  6
CONTINUOUS
 10
59.9777332012
 20
132.112593568
  0
VERTEX
  8
0
 62
7
  6
CONTINUOUS
 10
59.8645662648
 20
132.1192540406
  0
VERTEX
  8
0
 62
7
  6
CONTINUOUS
 10
59.7440214785
 20
132.1215183334
  0
SEQEND
  0
LINE
  8
0
 62
7
  6
CONTINUOUS
 10
79.2940214785
 20
88.9776778523
 11
79.2940214785
 21
95.3496923433
  0
LINE
  8
0
 62
7
  6
CONTINUOUS
 10
79.5440214785
 20
128.1856634147
 11
79.5440214785
 21
134.5576778523
  0
POLYLINE
  8
0
 62
7
  6
CONTINUOUS
 66
1
 70
0
  0
VERTEX
  8
0
 62
7
  6
CONTINUOUS
 10
79.5440219341
 20
128.1856914741
  0
VERTEX
  8
0
 62
7
  6
CONTINUOUS
 10
79.5405514903
 20
128.0590456479
  0
VERTEX
  8
0
 62
7
  6
CONTINUOUS
 10
79.5279421296
 20
127.9207735511
  0
VERTEX
  8
0
 62
7
  6
CONTINUOUS
 10
79.505717986
 20
127.7891258258
  0
VERTEX
  8
0
 62
7
  6
CONTINUOUS
 10
79.4738014933
 20
127.6661191913
  0
VERTEX
  8
0
 62
7
  6
CONTINUOUS
 10
79.4324720587
 20
127.5537155539
  0
VERTEX
  8
0
 62
7
  6
CONTINUOUS
 10
79.3824046227
 20
127.4538685511
  0
VERTEX
  8
0
 62
7
  6
CONTINUOUS
 10
79.3243811363
 20
127.3680786274
  0
VERTEX
  8
0
 62
7
  6
CONTINUOUS
 10
79.2589681485
 20
127.2976048344
  0
VERTEX
  8
0
 62
7
  6
CONTINUOUS
 10
79.1873154696
 20
127.2447539935
  0
VERTEX
  8
0
 62
7
  6
CONTINUOUS
 10
79.1114528452
 20
127.2125280868
  0
VERTEX
  8
0
 62
7
  6
CONTINUOUS
 10
79.0440214785
 20
127.2033736184
  0
SEQEND
  0
POLYLINE
  8
0
 62
7
  6
CONTINUOUS
 66
1
 70
0
  0
VERTEX
  8
0
 62
7
  6
CONTINUOUS
 10
79.2940212694
 20
95.3496552622
  0
VERTEX
  8
0
 62
7
  6
CONTINUOUS
 10
79.2974916603
 20
95.4763138885
  0
VERTEX
  8
0
 62
7
  6
CONTINUOUS
 10
79.3101012371
 20
95.6145874207
  0
VERTEX
  8
0
 62
7
  6
CONTINUOUS
 10
79.3323253498
 20
95.7462324888
  0
VERTEX
  8
0
 62
7
  6
CONTINUOUS
 10
79.3642415436
 20
95.8692371882
  0
VERTEX
  8
0
 62
7
  6
CONTINUOUS
 10
79.4055711018
 20
95.9816407078
  0
VERTEX
  8
0
 62
7
  6
CONTINUOUS
 10
79.4556382296
 20
96.0814870063
  0
VERTEX
  8
0
 62
7
  6
CONTINUOUS
 10
79.5136622157
 20
96.1672774239
  0
VERTEX
  8
0
 62
7
  6
CONTINUOUS
 10
79.5790749555
 20
96.2377510721
  0
VERTEX
  8
0
 62
7
  6
CONTINUOUS
 10
79.6507282715
 20
96.2906022284
  0
VERTEX
  8
0
 62
7
  6
CONTINUOUS
 10
79.7265938739
 20
96.3228286271
  0
VERTEX
  8
0
 62
7
  6
CONTINUOUS
 10
79.7940214785
 20
96.3319820848
  0
SEQEND
  0
POLYLINE
  8
0
 62
7
  6
CONTINUOUS
 66
1
 70
0
  0
VERTEX
  8
0
 62
7
  6
CONTINUOUS
 10
98.5940214785
 20
91.492932981
  0
VERTEX
  8
0
 62
7
  6
CONTINUOUS
 10
98.608321199
 20
91.4736966034
  0
VERTEX
  8
0
 62
7
  6
CONTINUOUS
 10
98.650559601
 20
91.4557811965
  0
VERTEX
  8
0
 62
7
  6
CONTINUOUS
 10
98.7185533814
 20
91.4401509629
  0
VERTEX
  8
0
 62
7
  6
CONTINUOUS
 10
98.7611017986
 20
91.433458624
  0
VERTEX
  8
0
 62
7
  6
CONTINUOUS
 10
98.8603097558
 20
91.4227621367
  0
VERTEX
  8
0
 62
7
  6
CONTINUOUS
 10
98.9734766923
 20
91.4161016641
  0
VERTEX
  8
0
 62
7
  6
CONTINUOUS
 10
99.0940214785
 20
91.4138373713
  0
SEQEND
  0
LINE
  8
0
 62
7
  6
CONTINUOUS
 10
85.6440214785
 20
128.1856633613
 11
85.6440214785
 21
134.5576778523
  0
LINE
  8
0
 62
7
  6
CONTINUOUS
 10
85.8940214785
 20
88.9776778523
 11
85.8940214785
 21
95.34969229
  0
POLYLINE
  8
0
 62
7
  6
CONTINUOUS
 66
1
 70
0
  0
VERTEX
  8
0
 62
7
  6
CONTINUOUS
 10
104.9440214785
 20
132.0424227237
  0
VERTEX
  8
0
 62
7
  6
CONTINUOUS
 10
104.958321199
 20
132.0616591013
  0
VERTEX
  8
0
 62
7
  6
CONTINUOUS
 10
105.000559601
 20
132.0795745082
  0
VERTEX
  8
0
 62
7
  6
CONTINUOUS
 10
105.0685533814
 20
132.0952047418
  0
VERTEX
  8
0
 62
7
  6
CONTINUOUS
 10
105.1111017986
 20
132.1018970807
  0
VERTEX
  8
0
 62
7
  6
CONTINUOUS
 10
105.2103097558
 20
132.112593568
  0
VERTEX
  8
0
 62
7
  6
CONTINUOUS
 10
105.3234766923
 20
132.1192540406
  0
VERTEX
  8
0
 62
7
  6
CONTINUOUS
 10
105.4440214785
 20
132.1215183334
  0
SEQEND
  0
POLYLINE
  8
0
 62
7
  6
CONTINUOUS
 66
1
 70
0
  0
VERTEX
  8
0
 62
7
  6
CONTINUOUS
 10
35.344021517
 20
127.2033736202
  0
VERTEX
  8
0
 62
7
  6
CONTINUOUS
 10
35.277236324
 20
127.2123536106
  0
VERTEX
  8
0
 62
7
  6
CONTINUOUS
 10
35.2013506892
 20
127.2443929594
  0
VERTEX
  8
0
 62
7
  6
CONTINUOUS
 10
35.1296495788
 20
127.2970865272
  0
VERTEX
  8
0
 62
7
  6
CONTINUOUS
 10
35.064176716
 20
127.3674266511
  0
VERTEX
  8
0
 62
7
  6
CONTINUOUS
 10
35.0060875376
 20
127.4530979716
  0
VERTEX
  8
0
 62
7
  6
CONTINUOUS
 10
34.9559504081
 20
127.552835422
  0
VERTEX
  8
0
 62
7
  6
CONTINUOUS
 10
34.9145480999
 20
127.6651340743
  0
VERTEX
  8
0
 62
7
  6
CONTINUOUS
 10
34.8825562851
 20
127.7880368536
  0
VERTEX
  8
0
 62
7
  6
CONTINUOUS
 10
34.8602542382
 20
127.9195801185
  0
VERTEX
  8
0
 62
7
  6
CONTINUOUS
 10
34.8475646113
 20
128.0577504147
  0
VERTEX
  8
0
 62
7
  6
CONTINUOUS
 10
34.8440212653
 20
128.1857003792
  0
SEQEND
  0
POLYLINE
  8
0
 62
7
  6
CONTINUOUS
 66
1
 70
0
  0
VERTEX
  8
0
 62
7
  6
CONTINUOUS
 10
48.0440215168
 20
127.2033736198
  0
VERTEX
  8
0
 62
7
  6
CONTINUOUS
 10
47.9772363265
 20
127.21235361
  0
VERTEX
  8
0
 62
7
  6
CONTINUOUS
 10
47.9013506748
 20
127.2443929669
  0
VERTEX
  8
0
 62
7
  6
CONTINUOUS
 10
47.8296495522
 20
127.2970865516
  0
VERTEX
  8
0
 62
7
  6
CONTINUOUS
 10
47.7641767132
 20
127.3674266611
  0
VERTEX
  8
0
 62
7
  6
CONTINUOUS
 10
47.7060875234
 20
127.4530979967
  0
VERTEX
  8
0
 62
7
  6
CONTINUOUS
 10
47.6559504048
 20
127.5528354305
  0
VERTEX
  8
0
 62
7
  6
CONTINUOUS
 10
47.6145480987
 20
127.6651340788
  0
VERTEX
  8
0
 62
7
  6
CONTINUOUS
 10
47.5825562865
 20
127.788036846
  0
VERTEX
  8
0
 62
7
  6
CONTINUOUS
 10
47.5602542403
 20
127.9195800879
  0
VERTEX
  8
0
 62
7
  6
CONTINUOUS
 10
47.5475646115
 20
128.057750393
  0
VERTEX
  8
0
 62
7
  6
CONTINUOUS
 10
47.5440212649
 20
128.1857004543
  0
SEQEND
  0
POLYLINE
  8
0
 62
7
  6
CONTINUOUS
 66
1
 70
0
  0
VERTEX
  8
0
 62
7
  6
CONTINUOUS
 10
60.744021517
 20
127.2033736202
  0
VERTEX
  8
0
 62
7
  6
CONTINUOUS
 10
60.677236324
 20
127.2123536106
  0
VERTEX
  8
0
 62
7
  6
CONTINUOUS
 10
60.6013506892
 20
127.2443929594
  0
VERTEX
  8
0
 62
7
  6
CONTINUOUS
 10
60.5296495788
 20
127.2970865272
  0
VERTEX
  8
0
 62
7
  6
CONTINUOUS
 10
60.464176716
 20
127.3674266511
  0
VERTEX
  8
0
 62
7
  6
CONTINUOUS
 10
60.4060875376
 20
127.4530979716
  0
VERTEX
  8
0
 62
7
  6
CONTINUOUS
 10
60.3559504081
 20
127.552835422
  0
VERTEX
  8
0
 62
7
  6
CONTINUOUS
 10
60.3145480999
 20
127.6651340743
  0
VERTEX
  8
0
 62
7
  6
CONTINUOUS
 10
60.2825562851
 20
127.7880368536
  0
VERTEX
  8
0
 62
7
  6
CONTINUOUS
 10
60.2602542382
 20
127.9195801185
  0
VERTEX
  8
0
 62
7
  6
CONTINUOUS
 10
60.2475646113
 20
128.0577504147
  0
VERTEX
  8
0
 62
7
  6
CONTINUOUS
 10
60.2440212653
 20
128.1857003792
  0
SEQEND
  0
POLYLINE
  8
0
 62
7
  6
CONTINUOUS
 66
1
 70
0
  0
VERTEX
  8
0
 62
7
  6
CONTINUOUS
 10
73.4440215168
 20
127.2033736198
  0
VERTEX
  8
0
 62
7
  6
CONTINUOUS
 10
73.3772363265
 20
127.21235361
  0
VERTEX
  8
0
 62
7
  6
CONTINUOUS
 10
73.3013506748
 20
127.2443929669
  0
VERTEX
  8
0
 62
7
  6
CONTINUOUS
 10
73.2296495522
 20
127.2970865516
  0
VERTEX
  8
0
 62
7
  6
CONTINUOUS
 10
73.1641767132
 20
127.3674266611
  0
VERTEX
  8
0
 62
7
  6
CONTINUOUS
 10
73.1060875234
 20
127.4530979967
  0
VERTEX
  8
0
 62
7
  6
CONTINUOUS
 10
73.0559504048
 20
127.5528354305
  0
VERTEX
  8
0
 62
7
  6
CONTINUOUS
 10
73.0145480987
 20
127.6651340788
  0
VERTEX
  8
0
 62
7
  6
CONTINUOUS
 10
72.9825562865
 20
127.788036846
  0
VERTEX
  8
0
 62
7
  6
CONTINUOUS
 10
72.9602542403
 20
127.9195800879
  0
VERTEX
  8
0
 62
7
  6
CONTINUOUS
 10
72.9475646115
 20
128.057750393
  0
VERTEX
  8
0
 62
7
  6
CONTINUOUS
 10
72.9440212649
 20
128.1857004543
  0
SEQEND
  0
LINE
  8
0
 62
7
  6
CONTINUOUS
 10
91.9940214785
 20
88.9776778523
 11
91.9940214785
 21
95.3496923434
  0
LINE
  8
0
 62
7
  6
CONTINUOUS
 10
92.2440214785
 20
128.1856634147
 11
92.2440214785
 21
134.5576778523
  0
POLYLINE
  8
0
 62
7
  6
CONTINUOUS
 66
1
 70
0
  0
VERTEX
  8
0
 62
7
  6
CONTINUOUS
 10
92.2440219351
 20
128.1856915749
  0
VERTEX
  8
0
 62
7
  6
CONTINUOUS
 10
92.2405514883
 20
128.0590456278
  0
VERTEX
  8
0
 62
7
  6
CONTINUOUS
 10
92.2279421277
 20
127.9207735278
  0
VERTEX
  8
0
 62
7
  6
CONTINUOUS
 10
92.2057179851
 20
127.7891258206
  0
VERTEX
  8
0
 62
7
  6
CONTINUOUS
 10
92.1738014946
 20
127.6661191962
  0
VERTEX
  8
0
 62
7
  6
CONTINUOUS
 10
92.1324720611
 20
127.5537155591
  0
VERTEX
  8
0
 62
7
  6
CONTINUOUS
 10
92.082404641
 20
127.4538685811
  0
VERTEX
  8
0
 62
7
  6
CONTINUOUS
 10
92.0243811328
 20
127.3680786278
  0
VERTEX
  8
0
 62
7
  6
CONTINUOUS
 10
91.9589681718
 20
127.2976048562
  0
VERTEX
  8
0
 62
7
  6
CONTINUOUS
 10
91.8873154819
 20
127.2447540014
  0
VERTEX
  8
0
 62
7
  6
CONTINUOUS
 10
91.8114528415
 20
127.2125280859
  0
VERTEX
  8
0
 62
7
  6
CONTINUOUS
 10
91.7440214785
 20
127.203373618
  0
SEQEND
  0
POLYLINE
  8
0
 62
7
  6
CONTINUOUS
 66
1
 70
0
  0
VERTEX
  8
0
 62
7
  6
CONTINUOUS
 10
91.994021269
 20
95.3496551782
  0
VERTEX
  8
0
 62
7
  6
CONTINUOUS
 10
91.9974916604
 20
95.476313912
  0
VERTEX
  8
0
 62
7
  6
CONTINUOUS
 10
92.0101012391
 20
95.6145874524
  0
VERTEX
  8
0
 62
7
  6
CONTINUOUS
 10
92.0323253513
 20
95.7462324981
  0
VERTEX
  8
0
 62
7
  6
CONTINUOUS
 10
92.0642415429
 20
95.8692371859
  0
VERTEX
  8
0
 62
7
  6
CONTINUOUS
 10
92.1055710999
 20
95.9816407026
  0
VERTEX
  8
0
 62
7
  6
CONTINUOUS
 10
92.1556382191
 20
96.0814869872
  0
VERTEX
  8
0
 62
7
  6
CONTINUOUS
 10
92.2136622168
 20
96.1672774199
  0
VERTEX
  8
0
 62
7
  6
CONTINUOUS
 10
92.2790749307
 20
96.2377510489
  0
VERTEX
  8
0
 62
7
  6
CONTINUOUS
 10
92.3507282579
 20
96.2906022212
  0
VERTEX
  8
0
 62
7
  6
CONTINUOUS
 10
92.4265938767
 20
96.3228286278
  0
VERTEX
  8
0
 62
7
  6
CONTINUOUS
 10
92.4940214785
 20
96.3319820852
  0
SEQEND
  0
LINE
  8
0
 62
7
  6
CONTINUOUS
 10
126.2940214785
 20
127.2033735369
 11
124.2440215129
 21
127.2033735369
  0
LINE
  8
0
 62
7
  6
CONTINUOUS
 10
117.1440214785
 20
127.2033735369
 11
111.544021517
 21
127.2033735369
  0
LINE
  8
0
 62
7
  6
CONTINUOUS
 10
104.4440214785
 20
127.2033735369
 11
98.8440215168
 21
127.2033735369
  0
LINE
  8
0
 62
7
  6
CONTINUOUS
 10
91.7440214785
 20
127.2033735369
 11
86.144021517
 21
127.2033735369
  0
LINE
  8
0
 62
7
  6
CONTINUOUS
 10
79.0440214785
 20
127.2033735369
 11
73.4440215168
 21
127.2033735369
  0
LINE
  8
0
 62
7
  6
CONTINUOUS
 10
66.3440214785
 20
127.2033735369
 11
60.744021517
 21
127.2033735369
  0
LINE
  8
0
 62
7
  6
CONTINUOUS
 10
53.6440214785
 20
127.2033735369
 11
48.0440215168
 21
127.2033735369
  0
LINE
  8
0
 62
7
  6
CONTINUOUS
 10
40.9440214785
 20
127.2033735369
 11
35.344021517
 21
127.2033735369
  0
LINE
  8
0
 62
7
  6
CONTINUOUS
 10
28.2440214785
 20
127.2033735369
 11
26.1940214785
 21
127.2033735369
  0
LINE
  8
1_AXIS
 62
2
  6
CENTER
 10
21.0793610738
 20
130.8176778523
 11
132.1166979866
 21
130.8176778523
  0
POLYLINE
  8
0
 62
7
  6
CONTINUOUS
 66
1
 70
0
  0
VERTEX
  8
0
 62
7
  6
CONTINUOUS
 10
86.144021517
 20
127.2033736202
  0
VERTEX
  8
0
 62
7
  6
CONTINUOUS
 10
86.077236324
 20
127.2123536106
  0
VERTEX
  8
0
 62
7
  6
CONTINUOUS
 10
86.0013506892
 20
127.2443929594
  0
VERTEX
  8
0
 62
7
  6
CONTINUOUS
 10
85.9296495788
 20
127.2970865272
  0
VERTEX
  8
0
 62
7
  6
CONTINUOUS
 10
85.864176716
 20
127.3674266511
  0
VERTEX
  8
0
 62
7
  6
CONTINUOUS
 10
85.8060875376
 20
127.4530979716
  0
VERTEX
  8
0
 62
7
  6
CONTINUOUS
 10
85.7559504081
 20
127.552835422
  0
VERTEX
  8
0
 62
7
  6
CONTINUOUS
 10
85.7145480999
 20
127.6651340743
  0
VERTEX
  8
0
 62
7
  6
CONTINUOUS
 10
85.6825562851
 20
127.7880368536
  0
VERTEX
  8
0
 62
7
  6
CONTINUOUS
 10
85.6602542382
 20
127.9195801185
  0
VERTEX
  8
0
 62
7
  6
CONTINUOUS
 10
85.6475646113
 20
128.0577504147
  0
VERTEX
  8
0
 62
7
  6
CONTINUOUS
 10
85.6440212653
 20
128.1857003792
  0
SEQEND
  0
POLYLINE
  8
0
 62
7
  6
CONTINUOUS
 66
1
 70
0
  0
VERTEX
  8
0
 62
7
  6
CONTINUOUS
 10
98.8440215168
 20
127.2033736198
  0
VERTEX
  8
0
 62
7
  6
CONTINUOUS
 10
98.7772363265
 20
127.21235361
  0
VERTEX
  8
0
 62
7
  6
CONTINUOUS
 10
98.7013506748
 20
127.2443929669
  0
VERTEX
  8
0
 62
7
  6
CONTINUOUS
 10
98.6296495522
 20
127.2970865516
  0
VERTEX
  8
0
 62
7
  6
CONTINUOUS
 10
98.5641767132
 20
127.3674266611
  0
VERTEX
  8
0
 62
7
  6
CONTINUOUS
 10
98.5060875234
 20
127.4530979967
  0
VERTEX
  8
0
 62
7
  6
CONTINUOUS
 10
98.4559504048
 20
127.5528354305
  0
VERTEX
  8
0
 62
7
  6
CONTINUOUS
 10
98.4145480987
 20
127.6651340788
  0
VERTEX
  8
0
 62
7
  6
CONTINUOUS
 10
98.3825562865
 20
127.788036846
  0
VERTEX
  8
0
 62
7
  6
CONTINUOUS
 10
98.3602542403
 20
127.9195800879
  0
VERTEX
  8
0
 62
7
  6
CONTINUOUS
 10
98.3475646115
 20
128.057750393
  0
VERTEX
  8
0
 62
7
  6
CONTINUOUS
 10
98.3440212649
 20
128.1857004543
  0
SEQEND
  0
POLYLINE
  8
0
 62
7
  6
CONTINUOUS
 66
1
 70
0
  0
VERTEX
  8
0
 62
7
  6
CONTINUOUS
 10
111.2940214785
 20
91.492932981
  0
VERTEX
  8
0
 62
7
  6
CONTINUOUS
 10
111.308321199
 20
91.4736966034
  0
VERTEX
  8
0
 62
7
  6
CONTINUOUS
 10
111.350559601
 20
91.4557811965
  0
VERTEX
  8
0
 62
7
  6
CONTINUOUS
 10
111.4185533814
 20
91.4401509629
  0
VERTEX
  8
0
 62
7
  6
CONTINUOUS
 10
111.4611017986
 20
91.433458624
  0
VERTEX
  8
0
 62
7
  6
CONTINUOUS
 10
111.5603097558
 20
91.4227621367
  0
VERTEX
  8
0
 62
7
  6
CONTINUOUS
 10
111.6734766923
 20
91.4161016641
  0
VERTEX
  8
0
 62
7
  6
CONTINUOUS
 10
111.7940214785
 20
91.4138373713
  0
SEQEND
  0
LINE
  8
0
 62
7
  6
CONTINUOUS
 10
98.3440214785
 20
128.1856633612
 11
98.3440214785
 21
134.5576778523
  0
LINE
  8
0
 62
7
  6
CONTINUOUS
 10
98.5940214785
 20
95.34969229
 11
98.5940214785
 21
88.9776778523
  0
POLYLINE
  8
0
 62
7
  6
CONTINUOUS
 66
1
 70
0
  0
VERTEX
  8
0
 62
7
  6
CONTINUOUS
 10
117.6440214785
 20
132.0424227237
  0
VERTEX
  8
0
 62
7
  6
CONTINUOUS
 10
117.658321199
 20
132.0616591013
  0
VERTEX
  8
0
 62
7
  6
CONTINUOUS
 10
117.700559601
 20
132.0795745082
  0
VERTEX
  8
0
 62
7
  6
CONTINUOUS
 10
117.7685533814
 20
132.0952047418
  0
VERTEX
  8
0
 62
7
  6
CONTINUOUS
 10
117.8111017986
 20
132.1018970807
  0
VERTEX
  8
0
 62
7
  6
CONTINUOUS
 10
117.9103097558
 20
132.112593568
  0
VERTEX
  8
0
 62
7
  6
CONTINUOUS
 10
118.0234766923
 20
132.1192540406
  0
VERTEX
  8
0
 62
7
  6
CONTINUOUS
 10
118.1440214785
 20
132.1215183334
  0
SEQEND
  0
POLYLINE
  8
0
 62
7
  6
CONTINUOUS
 66
1
 70
0
  0
VERTEX
  8
0
 62
7
  6
CONTINUOUS
 10
92.7440214785
 20
132.1215183334
  0
VERTEX
  8
0
 62
7
  6
CONTINUOUS
 10
92.6234766923
 20
132.1192540406
  0
VERTEX
  8
0
 62
7
  6
CONTINUOUS
 10
92.5103097558
 20
132.112593568
  0
VERTEX
  8
0
 62
7
  6
CONTINUOUS
 10
92.4111017986
 20
132.1018970807
  0
VERTEX
  8
0
 62
7
  6
CONTINUOUS
 10
92.3685533814
 20
132.0952047418
  0
VERTEX
  8
0
 62
7
  6
CONTINUOUS
 10
92.300559601
 20
132.0795745082
  0
VERTEX
  8
0
 62
7
  6
CONTINUOUS
 10
92.258321199
 20
132.0616591013
  0
VERTEX
  8
0
 62
7
  6
CONTINUOUS
 10
92.2440214785
 20
132.0424227237
  0
SEQEND
  0
POLYLINE
  8
0
 62
7
  6
CONTINUOUS
 66
1
 70
0
  0
VERTEX
  8
0
 62
7
  6
CONTINUOUS
 10
67.3440214785
 20
132.1215183334
  0
VERTEX
  8
0
 62
7
  6
CONTINUOUS
 10
67.2234766923
 20
132.1192540406
  0
VERTEX
  8
0
 62
7
  6
CONTINUOUS
 10
67.1103097558
 20
132.112593568
  0
VERTEX
  8
0
 62
7
  6
CONTINUOUS
 10
67.0111017986
 20
132.1018970807
  0
VERTEX
  8
0
 62
7
  6
CONTINUOUS
 10
66.9685533814
 20
132.0952047418
  0
VERTEX
  8
0
 62
7
  6
CONTINUOUS
 10
66.900559601
 20
132.0795745082
  0
VERTEX
  8
0
 62
7
  6
CONTINUOUS
 10
66.858321199
 20
132.0616591013
  0
VERTEX
  8
0
 62
7
  6
CONTINUOUS
 10
66.8440214785
 20
132.0424227237
  0
SEQEND
  0
POLYLINE
  8
0
 62
7
  6
CONTINUOUS
 66
1
 70
0
  0
VERTEX
  8
0
 62
7
  6
CONTINUOUS
 10
41.9440214785
 20
132.1215183334
  0
VERTEX
  8
0
 62
7
  6
CONTINUOUS
 10
41.8234766923
 20
132.1192540406
  0
VERTEX
  8
0
 62
7
  6
CONTINUOUS
 10
41.7103097558
 20
132.112593568
  0
VERTEX
  8
0
 62
7
  6
CONTINUOUS
 10
41.6111017986
 20
132.1018970807
  0
VERTEX
  8
0
 62
7
  6
CONTINUOUS
 10
41.5685533814
 20
132.0952047418
  0
VERTEX
  8
0
 62
7
  6
CONTINUOUS
 10
41.500559601
 20
132.0795745082
  0
VERTEX
  8
0
 62
7
  6
CONTINUOUS
 10
41.458321199
 20
132.0616591013
  0
VERTEX
  8
0
 62
7
  6
CONTINUOUS
 10
41.4440214785
 20
132.0424227237
  0
SEQEND
  0
LINE
  8
0
 62
7
  6
CONTINUOUS
 10
29.2440214785
 20
132.1215183334
 11
34.3440214785
 21
132.1215183334
  0
LINE
  8
0
 62
7
  6
CONTINUOUS
 10
41.9440214785
 20
132.1215183334
 11
47.0440214785
 21
132.1215183334
  0
LINE
  8
0
 62
7
  6
CONTINUOUS
 10
54.6440214785
 20
132.1215183334
 11
59.7440214785
 21
132.1215183334
  0
LINE
  8
0
 62
7
  6
CONTINUOUS
 10
67.3440214785
 20
132.1215183334
 11
72.4440214785
 21
132.1215183334
  0
LINE
  8
0
 62
7
  6
CONTINUOUS
 10
80.0440214785
 20
132.1215183334
 11
85.1440214785
 21
132.1215183334
  0
LINE
  8
0
 62
7
  6
CONTINUOUS
 10
92.7440214785
 20
132.1215183334
 11
97.8440214785
 21
132.1215183334
  0
LINE
  8
0
 62
7
  6
CONTINUOUS
 10
105.4440214785
 20
132.1215183334
 11
110.5440214785
 21
132.1215183334
  0
LINE
  8
0
 62
7
  6
CONTINUOUS
 10
118.1440214785
 20
132.1215183334
 11
123.2440214785
 21
132.1215183334
  0
POLYLINE
  8
0
 62
7
  6
CONTINUOUS
 66
1
 70
0
  0
VERTEX
  8
0
 62
7
  6
CONTINUOUS
 10
47.0440214785
 20
132.1215183334
  0
VERTEX
  8
0
 62
7
  6
CONTINUOUS
 10
47.1645662648
 20
132.1192540406
  0
VERTEX
  8
0
 62
7
  6
CONTINUOUS
 10
47.2777332012
 20
132.112593568
  0
VERTEX
  8
0
 62
7
  6
CONTINUOUS
 10
47.3769411585
 20
132.1018970807
  0
VERTEX
  8
0
 62
7
  6
CONTINUOUS
 10
47.4194895757
 20
132.0952047418
  0
VERTEX
  8
0
 62
7
  6
CONTINUOUS
 10
47.487483356
 20
132.0795745082
  0
VERTEX
  8
0
 62
7
  6
CONTINUOUS
 10
47.529721758
 20
132.0616591013
  0
VERTEX
  8
0
 62
7
  6
CONTINUOUS
 10
47.5440214785
 20
132.0424227237
  0
SEQEND
  0
POLYLINE
  8
0
 62
7
  6
CONTINUOUS
 66
1
 70
0
  0
VERTEX
  8
0
 62
7
  6
CONTINUOUS
 10
72.4440214785
 20
132.1215183334
  0
VERTEX
  8
0
 62
7
  6
CONTINUOUS
 10
72.5645662648
 20
132.1192540406
  0
VERTEX
  8
0
 62
7
  6
CONTINUOUS
 10
72.6777332012
 20
132.112593568
  0
VERTEX
  8
0
 62
7
  6
CONTINUOUS
 10
72.7769411585
 20
132.1018970807
  0
VERTEX
  8
0
 62
7
  6
CONTINUOUS
 10
72.8194895757
 20
132.0952047418
  0
VERTEX
  8
0
 62
7
  6
CONTINUOUS
 10
72.887483356
 20
132.0795745082
  0
VERTEX
  8
0
 62
7
  6
CONTINUOUS
 10
72.929721758
 20
132.0616591013
  0
VERTEX
  8
0
 62
7
  6
CONTINUOUS
 10
72.9440214785
 20
132.0424227237
  0
SEQEND
  0
POLYLINE
  8
0
 62
7
  6
CONTINUOUS
 66
1
 70
0
  0
VERTEX
  8
0
 62
7
  6
CONTINUOUS
 10
97.8440214785
 20
132.1215183334
  0
VERTEX
  8
0
 62
7
  6
CONTINUOUS
 10
97.9645662648
 20
132.1192540406
  0
VERTEX
  8
0
 62
7
  6
CONTINUOUS
 10
98.0777332012
 20
132.112593568
  0
VERTEX
  8
0
 62
7
  6
CONTINUOUS
 10
98.1769411585
 20
132.1018970807
  0
VERTEX
  8
0
 62
7
  6
CONTINUOUS
 10
98.2194895757
 20
132.0952047418
  0
VERTEX
  8
0
 62
7
  6
CONTINUOUS
 10
98.287483356
 20
132.0795745082
  0
VERTEX
  8
0
 62
7
  6
CONTINUOUS
 10
98.329721758
 20
132.0616591013
  0
VERTEX
  8
0
 62
7
  6
CONTINUOUS
 10
98.3440214785
 20
132.0424227237
  0
SEQEND
  0
POLYLINE
  8
0
 62
7
  6
CONTINUOUS
 66
1
 70
0
  0
VERTEX
  8
0
 62
7
  6
CONTINUOUS
 10
110.5440214785
 20
132.1215183334
  0
VERTEX
  8
0
 62
7
  6
CONTINUOUS
 10
110.6645662648
 20
132.1192540406
  0
VERTEX
  8
0
 62
7
  6
CONTINUOUS
 10
110.7777332012
 20
132.112593568
  0
VERTEX
  8
0
 62
7
  6
CONTINUOUS
 10
110.8769411585
 20
132.1018970807
  0
VERTEX
  8
0
 62
7
  6
CONTINUOUS
 10
110.9194895757
 20
132.0952047418
  0
VERTEX
  8
0
 62
7
  6
CONTINUOUS
 10
110.987483356
 20
132.0795745082
  0
VERTEX
  8
0
 62
7
  6
CONTINUOUS
 10
111.029721758
 20
132.0616591013
  0
VERTEX
  8
0
 62
7
  6
CONTINUOUS
 10
111.0440214785
 20
132.0424227237
  0
SEQEND
  0
POLYLINE
  8
0
 62
7
  6
CONTINUOUS
 66
1
 70
0
  0
VERTEX
  8
0
 62
7
  6
CONTINUOUS
 10
123.2440214785
 20
132.1215183334
  0
VERTEX
  8
0
 62
7
  6
CONTINUOUS
 10
123.3645662648
 20
132.1192540406
  0
VERTEX
  8
0
 62
7
  6
CONTINUOUS
 10
123.4777332012
 20
132.112593568
  0
VERTEX
  8
0
 62
7
  6
CONTINUOUS
 10
123.5769411585
 20
132.1018970807
  0
VERTEX
  8
0
 62
7
  6
CONTINUOUS
 10
123.6194895757
 20
132.0952047418
  0
VERTEX
  8
0
 62
7
  6
CONTINUOUS
 10
123.687483356
 20
132.0795745082
  0
VERTEX
  8
0
 62
7
  6
CONTINUOUS
 10
123.729721758
 20
132.0616591013
  0
VERTEX
  8
0
 62
7
  6
CONTINUOUS
 10
123.7440214785
 20
132.0424227237
  0
SEQEND
  0
POLYLINE
  8
0
 62
7
  6
CONTINUOUS
 66
1
 70
0
  0
VERTEX
  8
0
 62
7
  6
CONTINUOUS
 10
126.2940214785
 20
127.2033735369
  0
VERTEX
  8
0
 62
7
  6
CONTINUOUS
 10
126.4145694474
 20
127.1886241806
  0
VERTEX
  8
0
 62
7
  6
CONTINUOUS
 10
126.5272296736
 20
127.1456561816
  0
VERTEX
  8
0
 62
7
  6
CONTINUOUS
 10
126.6260580291
 20
127.0772073624
  0
VERTEX
  8
0
 62
7
  6
CONTINUOUS
 10
126.6682268878
 20
127.0349912561
  0
VERTEX
  8
0
 62
7
  6
CONTINUOUS
 10
126.7364481186
 20
126.936308438
  0
VERTEX
  8
0
 62
7
  6
CONTINUOUS
 10
126.7793260377
 20
126.823704268
  0
VERTEX
  8
0
 62
7
  6
CONTINUOUS
 10
126.7940214785
 20
126.7033735369
  0
SEQEND
  0
POLYLINE
  8
0
 62
7
  6
CONTINUOUS
 66
1
 70
0
  0
VERTEX
  8
0
 62
7
  6
CONTINUOUS
 10
111.544021517
 20
127.2033736202
  0
VERTEX
  8
0
 62
7
  6
CONTINUOUS
 10
111.477236324
 20
127.2123536106
  0
VERTEX
  8
0
 62
7
  6
CONTINUOUS
 10
111.4013506892
 20
127.2443929594
  0
VERTEX
  8
0
 62
7
  6
CONTINUOUS
 10
111.3296495788
 20
127.2970865272
  0
VERTEX
  8
0
 62
7
  6
CONTINUOUS
 10
111.264176716
 20
127.3674266511
  0
VERTEX
  8
0
 62
7
  6
CONTINUOUS
 10
111.2060875376
 20
127.4530979716
  0
VERTEX
  8
0
 62
7
  6
CONTINUOUS
 10
111.1559504081
 20
127.552835422
  0
VERTEX
  8
0
 62
7
  6
CONTINUOUS
 10
111.1145480999
 20
127.6651340743
  0
VERTEX
  8
0
 62
7
  6
CONTINUOUS
 10
111.0825562851
 20
127.7880368536
  0
VERTEX
  8
0
 62
7
  6
CONTINUOUS
 10
111.0602542382
 20
127.9195801185
  0
VERTEX
  8
0
 62
7
  6
CONTINUOUS
 10
111.0475646113
 20
128.0577504147
  0
VERTEX
  8
0
 62
7
  6
CONTINUOUS
 10
111.0440212653
 20
128.1857003792
  0
SEQEND
  0
POLYLINE
  8
0
 62
7
  6
CONTINUOUS
 66
1
 70
0
  0
VERTEX
  8
0
 62
7
  6
CONTINUOUS
 10
124.2440215129
 20
127.2033736198
  0
VERTEX
  8
0
 62
7
  6
CONTINUOUS
 10
124.1772363249
 20
127.2123536104
  0
VERTEX
  8
0
 62
7
  6
CONTINUOUS
 10
124.1013506736
 20
127.2443929676
  0
VERTEX
  8
0
 62
7
  6
CONTINUOUS
 10
124.0296495512
 20
127.2970865525
  0
VERTEX
  8
0
 62
7
  6
CONTINUOUS
 10
123.9641767125
 20
127.367426662
  0
VERTEX
  8
0
 62
7
  6
CONTINUOUS
 10
123.9060875229
 20
127.4530979976
  0
VERTEX
  8
0
 62
7
  6
CONTINUOUS
 10
123.8559504045
 20
127.5528354313
  0
VERTEX
  8
0
 62
7
  6
CONTINUOUS
 10
123.8145480985
 20
127.6651340795
  0
VERTEX
  8
0
 62
7
  6
CONTINUOUS
 10
123.7825562864
 20
127.7880368465
  0
VERTEX
  8
0
 62
7
  6
CONTINUOUS
 10
123.7602542402
 20
127.9195800883
  0
VERTEX
  8
0
 62
7
  6
CONTINUOUS
 10
123.7475646115
 20
128.0577503931
  0
VERTEX
  8
0
 62
7
  6
CONTINUOUS
 10
123.7440212649
 20
128.1857004543
  0
SEQEND
  0
POLYLINE
  8
0
 62
7
  6
CONTINUOUS
 66
1
 70
0
  0
VERTEX
  8
0
 62
7
  6
CONTINUOUS
 10
85.6440214785
 20
132.0424227237
  0
VERTEX
  8
0
 62
7
  6
CONTINUOUS
 10
85.629721758
 20
132.0616591013
  0
VERTEX
  8
0
 62
7
  6
CONTINUOUS
 10
85.587483356
 20
132.0795745082
  0
VERTEX
  8
0
 62
7
  6
CONTINUOUS
 10
85.5194895757
 20
132.0952047418
  0
VERTEX
  8
0
 62
7
  6
CONTINUOUS
 10
85.4769411585
 20
132.1018970807
  0
VERTEX
  8
0
 62
7
  6
CONTINUOUS
 10
85.3777332012
 20
132.112593568
  0
VERTEX
  8
0
 62
7
  6
CONTINUOUS
 10
85.2645662648
 20
132.1192540406
  0
VERTEX
  8
0
 62
7
  6
CONTINUOUS
 10
85.1440214785
 20
132.1215183334
  0
SEQEND
  0
LINE
  8
0
 62
7
  6
CONTINUOUS
 10
29.2440214785
 20
135.0576778523
 11
34.3440214785
 21
135.0576778523
  0
LINE
  8
0
 62
7
  6
CONTINUOUS
 10
41.9440214785
 20
135.0576778523
 11
47.0440214785
 21
135.0576778523
  0
LINE
  8
0
 62
7
  6
CONTINUOUS
 10
54.6440214785
 20
135.0576778523
 11
59.7440214785
 21
135.0576778523
  0
LINE
  8
0
 62
7
  6
CONTINUOUS
 10
67.3440214785
 20
135.0576778523
 11
72.4440214785
 21
135.0576778523
  0
LINE
  8
0
 62
7
  6
CONTINUOUS
 10
80.0440214785
 20
135.0576778523
 11
85.1440214785
 21
135.0576778523
  0
LINE
  8
0
 62
7
  6
CONTINUOUS
 10
92.7440214785
 20
135.0576778523
 11
97.8440214785
 21
135.0576778523
  0
LINE
  8
0
 62
7
  6
CONTINUOUS
 10
105.4440214785
 20
135.0576778523
 11
110.5440214785
 21
135.0576778523
  0
LINE
  8
0
 62
7
  6
CONTINUOUS
 10
118.1440214785
 20
135.0576778523
 11
123.2440214785
 21
135.0576778523
  0
POLYLINE
  8
0
 62
7
  6
CONTINUOUS
 66
1
 70
0
  0
VERTEX
  8
0
 62
7
  6
CONTINUOUS
 10
123.9940214785
 20
91.492932981
  0
VERTEX
  8
0
 62
7
  6
CONTINUOUS
 10
124.008321199
 20
91.4736966034
  0
VERTEX
  8
0
 62
7
  6
CONTINUOUS
 10
124.050559601
 20
91.4557811965
  0
VERTEX
  8
0
 62
7
  6
CONTINUOUS
 10
124.1185533814
 20
91.4401509629
  0
VERTEX
  8
0
 62
7
  6
CONTINUOUS
 10
124.1611017986
 20
91.433458624
  0
VERTEX
  8
0
 62
7
  6
CONTINUOUS
 10
124.2603097558
 20
91.4227621367
  0
VERTEX
  8
0
 62
7
  6
CONTINUOUS
 10
124.3734766923
 20
91.4161016641
  0
VERTEX
  8
0
 62
7
  6
CONTINUOUS
 10
124.4940214785
 20
91.4138373713
  0
SEQEND
  0
LINE
  8
0
 62
7
  6
CONTINUOUS
 10
104.6940214785
 20
88.9776778523
 11
104.6940214785
 21
95.3496923433
  0
LINE
  8
0
 62
7
  6
CONTINUOUS
 10
104.9440214785
 20
134.5576778523
 11
104.9440214785
 21
128.1856634147
  0
POLYLINE
  8
0
 62
7
  6
CONTINUOUS
 66
1
 70
0
  0
VERTEX
  8
0
 62
7
  6
CONTINUOUS
 10
104.9440219341
 20
128.1856914741
  0
VERTEX
  8
0
 62
7
  6
CONTINUOUS
 10
104.9405514903
 20
128.0590456479
  0
VERTEX
  8
0
 62
7
  6
CONTINUOUS
 10
104.9279421296
 20
127.9207735511
  0
VERTEX
  8
0
 62
7
  6
CONTINUOUS
 10
104.905717986
 20
127.7891258258
  0
VERTEX
  8
0
 62
7
  6
CONTINUOUS
 10
104.8738014933
 20
127.6661191913
  0
VERTEX
  8
0
 62
7
  6
CONTINUOUS
 10
104.8324720587
 20
127.5537155539
  0
VERTEX
  8
0
 62
7
  6
CONTINUOUS
 10
104.7824046227
 20
127.4538685511
  0
VERTEX
  8
0
 62
7
  6
CONTINUOUS
 10
104.7243811363
 20
127.3680786274
  0
VERTEX
  8
0
 62
7
  6
CONTINUOUS
 10
104.6589681485
 20
127.2976048344
  0
VERTEX
  8
0
 62
7
  6
CONTINUOUS
 10
104.5873154696
 20
127.2447539935
  0
VERTEX
  8
0
 62
7
  6
CONTINUOUS
 10
104.5114528452
 20
127.2125280868
  0
VERTEX
  8
0
 62
7
  6
CONTINUOUS
 10
104.4440214785
 20
127.2033736184
  0
SEQEND
  0
POLYLINE
  8
0
 62
7
  6
CONTINUOUS
 66
1
 70
0
  0
VERTEX
  8
0
 62
7
  6
CONTINUOUS
 10
104.6940212694
 20
95.3496552622
  0
VERTEX
  8
0
 62
7
  6
CONTINUOUS
 10
104.6974916603
 20
95.4763138885
  0
VERTEX
  8
0
 62
7
  6
CONTINUOUS
 10
104.7101012371
 20
95.6145874207
  0
VERTEX
  8
0
 62
7
  6
CONTINUOUS
 10
104.7323253498
 20
95.7462324888
  0
VERTEX
  8
0
 62
7
  6
CONTINUOUS
 10
104.7642415436
 20
95.8692371882
  0
VERTEX
  8
0
 62
7
  6
CONTINUOUS
 10
104.8055711018
 20
95.9816407078
  0
VERTEX
  8
0
 62
7
  6
CONTINUOUS
 10
104.8556382296
 20
96.0814870063
  0
VERTEX
  8
0
 62
7
  6
CONTINUOUS
 10
104.9136622157
 20
96.1672774239
  0
VERTEX
  8
0
 62
7
  6
CONTINUOUS
 10
104.9790749555
 20
96.2377510721
  0
VERTEX
  8
0
 62
7
  6
CONTINUOUS
 10
105.0507282715
 20
96.2906022284
  0
VERTEX
  8
0
 62
7
  6
CONTINUOUS
 10
105.1265938739
 20
96.3228286271
  0
VERTEX
  8
0
 62
7
  6
CONTINUOUS
 10
105.1940214785
 20
96.3319820848
  0
SEQEND
  0
LINE
  8
0
 62
7
  6
CONTINUOUS
 10
111.0440214785
 20
128.1856633613
 11
111.0440214785
 21
134.5576778523
  0
LINE
  8
0
 62
7
  6
CONTINUOUS
 10
111.2940214785
 20
88.9776778523
 11
111.2940214785
 21
95.6533074537
  0
LINE
  8
0
 62
7
  6
CONTINUOUS
 10
117.3940214785
 20
88.9776778523
 11
117.3940214785
 21
95.3496923433
  0
LINE
  8
0
 62
7
  6
CONTINUOUS
 10
117.6440214785
 20
134.5576778523
 11
117.6440214785
 21
127.882048251
  0
POLYLINE
  8
0
 62
7
  6
CONTINUOUS
 66
1
 70
0
  0
VERTEX
  8
0
 62
7
  6
CONTINUOUS
 10
117.6440219341
 20
128.1856914741
  0
VERTEX
  8
0
 62
7
  6
CONTINUOUS
 10
117.6405514903
 20
128.0590456479
  0
VERTEX
  8
0
 62
7
  6
CONTINUOUS
 10
117.6279421296
 20
127.9207735511
  0
VERTEX
  8
0
 62
7
  6
CONTINUOUS
 10
117.605717986
 20
127.7891258258
  0
VERTEX
  8
0
 62
7
  6
CONTINUOUS
 10
117.5738014933
 20
127.6661191913
  0
VERTEX
  8
0
 62
7
  6
CONTINUOUS
 10
117.5324720587
 20
127.5537155539
  0
VERTEX
  8
0
 62
7
  6
CONTINUOUS
 10
117.4824046227
 20
127.4538685511
  0
VERTEX
  8
0
 62
7
  6
CONTINUOUS
 10
117.4243811363
 20
127.3680786274
  0
VERTEX
  8
0
 62
7
  6
CONTINUOUS
 10
117.3589681485
 20
127.2976048344
  0
VERTEX
  8
0
 62
7
  6
CONTINUOUS
 10
117.2873154696
 20
127.2447539935
  0
VERTEX
  8
0
 62
7
  6
CONTINUOUS
 10
117.2114528452
 20
127.2125280868
  0
VERTEX
  8
0
 62
7
  6
CONTINUOUS
 10
117.1440214785
 20
127.2033736184
  0
SEQEND
  0
POLYLINE
  8
0
 62
7
  6
CONTINUOUS
 66
1
 70
0
  0
VERTEX
  8
0
 62
7
  6
CONTINUOUS
 10
117.3940212694
 20
95.3496552622
  0
VERTEX
  8
0
 62
7
  6
CONTINUOUS
 10
117.3974916603
 20
95.4763138885
  0
VERTEX
  8
0
 62
7
  6
CONTINUOUS
 10
117.4101012371
 20
95.6145874207
  0
VERTEX
  8
0
 62
7
  6
CONTINUOUS
 10
117.4323253498
 20
95.7462324888
  0
VERTEX
  8
0
 62
7
  6
CONTINUOUS
 10
117.4642415436
 20
95.8692371882
  0
VERTEX
  8
0
 62
7
  6
CONTINUOUS
 10
117.5055711018
 20
95.9816407078
  0
VERTEX
  8
0
 62
7
  6
CONTINUOUS
 10
117.5556382296
 20
96.0814870063
  0
VERTEX
  8
0
 62
7
  6
CONTINUOUS
 10
117.6136622157
 20
96.1672774239
  0
VERTEX
  8
0
 62
7
  6
CONTINUOUS
 10
117.6790749555
 20
96.2377510721
  0
VERTEX
  8
0
 62
7
  6
CONTINUOUS
 10
117.7507282715
 20
96.2906022284
  0
VERTEX
  8
0
 62
7
  6
CONTINUOUS
 10
117.8265938739
 20
96.3228286271
  0
VERTEX
  8
0
 62
7
  6
CONTINUOUS
 10
117.8940214785
 20
96.3319820848
  0
SEQEND
  0
LINE
  8
0
 62
7
  6
CONTINUOUS
 10
123.7440214785
 20
128.1856633642
 11
123.7440214785
 21
134.5576778523
  0
LINE
  8
0
 62
7
  6
CONTINUOUS
 10
123.9940214785
 20
95.34969229
 11
123.9940214785
 21
88.9776778523
  0
LINE
  8
0
 62
7
  6
CONTINUOUS
 10
126.7940214785
 20
96.1176778523
 11
126.9940214785
 21
96.3176778523
  0
LINE
  8
0
 62
7
  6
CONTINUOUS
 10
126.7940214785
 20
88.9776778523
 11
126.7940214785
 21
126.7033735369
  0
LINE
  8
0
 62
7
  6
CONTINUOUS
 10
126.9940214785
 20
125.1339293536
 11
126.9940214785
 21
96.3176778523
  0
POLYLINE
  8
0
 62
7
  6
CONTINUOUS
 66
1
 70
0
  0
VERTEX
  8
0
 62
7
  6
CONTINUOUS
 10
126.7940214785
 20
91.492932981
  0
VERTEX
  8
0
 62
7
  6
CONTINUOUS
 10
126.779721758
 20
91.4736966034
  0
VERTEX
  8
0
 62
7
  6
CONTINUOUS
 10
126.737483356
 20
91.4557811965
  0
VERTEX
  8
0
 62
7
  6
CONTINUOUS
 10
126.6694895757
 20
91.4401509629
  0
VERTEX
  8
0
 62
7
  6
CONTINUOUS
 10
126.6269411585
 20
91.433458624
  0
VERTEX
  8
0
 62
7
  6
CONTINUOUS
 10
126.5277332012
 20
91.4227621367
  0
VERTEX
  8
0
 62
7
  6
CONTINUOUS
 10
126.4145662648
 20
91.4161016641
  0
VERTEX
  8
0
 62
7
  6
CONTINUOUS
 10
126.2940214785
 20
91.4138373713
  0
SEQEND
  0
LINE
  8
0
 62
7
  6
CONTINUOUS
 10
168.2592100698
 20
88.4776778523
 11
170.2033294077
 21
88.4776778523
  0
LINE
  8
1_AXIS
 62
2
  6
CONTINUOUS
 10
170.1112697387
 20
92.7176778523
 11
168.3512697387
 21
92.7176778523
  0
LINE
  8
1_AXIS
 62
2
  6
CENTER
 10
164.8312697387
 20
92.7176778523
 11
163.0812685069
 21
92.7176778523
  0
LINE
  8
1_AXIS
 62
2
  6
CENTER
 10
173.6312697387
 20
92.7176778523
 11
175.3812709706
 21
92.7176778523
  0
LINE
  8
0
 62
7
  6
CONTINUOUS
 10
173.3812697387
 20
91.4138373713
 11
173.2114571219
 21
91.4401509629
  0
POLYLINE
  8
0
 62
7
  6
CONTINUOUS
 66
1
 70
0
  0
VERTEX
  8
0
 62
7
  6
CONTINUOUS
 10
173.2114571219
 20
91.4401509629
  0
VERTEX
  8
0
 62
7
  6
CONTINUOUS
 10
172.9999931083
 20
91.4736966034
  0
VERTEX
  8
0
 62
7
  6
CONTINUOUS
 10
172.8812697387
 20
91.492932981
  0
SEQEND
  0
LINE
  8
0
 62
7
  6
CONTINUOUS
 10
172.7713828387
 20
96.1176778523
 11
167.0178697387
 21
96.1176778523
  0
POLYLINE
  8
0
 62
7
  6
CONTINUOUS
 66
1
 70
0
  0
VERTEX
  8
0
 62
7
  6
CONTINUOUS
 10
166.9906666179
 20
96.1187251598
  0
VERTEX
  8
0
 62
7
  6
CONTINUOUS
 10
166.9997355464
 20
96.118143068
  0
VERTEX
  8
0
 62
7
  6
CONTINUOUS
 10
167.0088030116
 20
96.1177941181
  0
VERTEX
  8
0
 62
7
  6
CONTINUOUS
 10
167.0178697387
 20
96.1176778523
  0
SEQEND
  0
POLYLINE
  8
0
 62
7
  6
CONTINUOUS
 66
1
 70
0
  0
VERTEX
  8
0
 62
7
  6
CONTINUOUS
 10
166.748190638
 20
96.3503848926
  0
VERTEX
  8
0
 62
7
  6
CONTINUOUS
 10
166.8331817271
 20
96.3324032002
  0
VERTEX
  8
0
 62
7
  6
CONTINUOUS
 10
166.9233243746
 20
96.3215025948
  0
VERTEX
  8
0
 62
7
  6
CONTINUOUS
 10
167.0178697387
 20
96.3176850657
  0
SEQEND
  0
LINE
  8
0
 62
7
  6
CONTINUOUS
 10
167.0178697387
 20
96.3176778523
 11
172.5557848554
 21
96.3176778523
  0
LINE
  8
0
 62
7
  6
CONTINUOUS
 10
172.5557848554
 20
96.3176778523
 11
172.7713828387
 21
96.1176778523
  0
POLYLINE
  8
0
 62
7
  6
CONTINUOUS
 66
1
 70
0
  0
VERTEX
  8
0
 62
7
  6
CONTINUOUS
 10
166.5178697387
 20
96.5247846335
  0
VERTEX
  8
0
 62
7
  6
CONTINUOUS
 10
166.5303187912
 20
96.4788571956
  0
VERTEX
  8
0
 62
7
  6
CONTINUOUS
 10
166.5675370623
 20
96.4347939554
  0
VERTEX
  8
0
 62
7
  6
CONTINUOUS
 10
166.5947661228
 20
96.4144269693
  0
VERTEX
  8
0
 62
7
  6
CONTINUOUS
 10
166.6636168643
 20
96.3786283342
  0
VERTEX
  8
0
 62
7
  6
CONTINUOUS
 10
166.748190638
 20
96.3503848926
  0
SEQEND
  0
LINE
  8
0
 62
7
  6
CONTINUOUS
 10
164.8812697387
 20
92.7176778523
 11
164.8812697387
 21
130.8176778523
  0
POLYLINE
  8
0
 62
7
  6
CONTINUOUS
 66
1
 70
0
  0
VERTEX
  8
0
 62
7
  6
CONTINUOUS
 10
166.5178697387
 20
96.3375837144
  0
VERTEX
  8
0
 62
7
  6
CONTINUOUS
 10
166.5178957075
 20
96.3343747902
  0
VERTEX
  8
0
 62
7
  6
CONTINUOUS
 10
166.5181437359
 20
96.3286666901
  0
VERTEX
  8
0
 62
7
  6
CONTINUOUS
 10
166.518751766
 20
96.3230859369
  0
VERTEX
  8
0
 62
7
  6
CONTINUOUS
 10
166.5198902716
 20
96.3170834784
  0
VERTEX
  8
0
 62
7
  6
CONTINUOUS
 10
166.5217936402
 20
96.3103871597
  0
VERTEX
  8
0
 62
7
  6
CONTINUOUS
 10
166.5247782516
 20
96.3027972207
  0
VERTEX
  8
0
 62
7
  6
CONTINUOUS
 10
166.529345031
 20
96.2940007446
  0
VERTEX
  8
0
 62
7
  6
CONTINUOUS
 10
166.5362978077
 20
96.283575994
  0
VERTEX
  8
0
 62
7
  6
CONTINUOUS
 10
166.5410167566
 20
96.2776235434
  0
VERTEX
  8
0
 62
7
  6
CONTINUOUS
 10
166.5539891241
 20
96.2638859362
  0
VERTEX
  8
0
 62
7
  6
CONTINUOUS
 10
166.5736874384
 20
96.2472033753
  0
VERTEX
  8
0
 62
7
  6
CONTINUOUS
 10
166.6037775792
 20
96.2268591588
  0
VERTEX
  8
0
 62
7
  6
CONTINUOUS
 10
166.6504688687
 20
96.2020095609
  0
VERTEX
  8
0
 62
7
  6
CONTINUOUS
 10
166.7234179893
 20
96.1725856479
  0
VERTEX
  8
0
 62
7
  6
CONTINUOUS
 10
166.822286757
 20
96.144369532
  0
VERTEX
  8
0
 62
7
  6
CONTINUOUS
 10
166.9328443738
 20
96.1246488835
  0
VERTEX
  8
0
 62
7
  6
CONTINUOUS
 10
166.9906666179
 20
96.1187251598
  0
SEQEND
  0
LINE
  8
0
 62
7
  6
CONTINUOUS
 10
166.5178697387
 20
96.3375837144
 11
166.5178697387
 21
125.6339293536
  0
LINE
  8
0
 62
7
  6
CONTINUOUS
 10
170.2033294077
 20
135.0576778523
 11
170.1724660351
 21
134.78927089
  0
LINE
  8
0
 62
7
  6
CONTINUOUS
 10
170.1724660351
 20
134.78927089
 11
170.1449983636
 21
134.5576778523
  0
LINE
  8
0
 62
7
  6
CONTINUOUS
 10
170.1449983636
 20
88.9776778523
 11
170.1724660351
 21
88.7460848146
  0
LINE
  8
0
 62
7
  6
CONTINUOUS
 10
170.1724660351
 20
88.7460848146
 11
170.2033294077
 21
88.4776778523
  0
LINE
  8
1_AXIS
 62
2
  6
CENTER
 10
169.2312697387
 20
135.2176778523
 11
169.2312697387
 21
134.0676778523
  0
LINE
  8
1_AXIS
 62
2
  6
CONTINUOUS
 10
169.2312697387
 20
131.6976778523
 11
169.2312697387
 21
129.9376778523
  0
LINE
  8
1_AXIS
 62
2
  6
CONTINUOUS
 10
169.2312697387
 20
93.5976778523
 11
169.2312697387
 21
91.8376778523
  0
LINE
  8
1_AXIS
 62
2
  6
CENTER
 10
169.2312697387
 20
88.3176778523
 11
169.2312697387
 21
86.5676766205
  0
LINE
  8
1_AXIS
 62
2
  6
CENTER
 10
169.2312697387
 20
97.1176778523
 11
169.2312697387
 21
98.8676790842
  0
LINE
  8
1_AXIS
 62
2
  6
CENTER
 10
169.2312697387
 20
126.4176778523
 11
169.2312697387
 21
127.5676778523
  0
LINE
  8
1_AXIS
 62
2
  6
CENTER
 10
162.3812697387
 20
111.7676778523
 11
175.3812709706
 21
111.7676778523
  0
LINE
  8
0
 62
7
  6
CONTINUOUS
 10
168.273620993
 20
88.6040818515
 11
168.2592100698
 21
88.4776778523
  0
LINE
  8
0
 62
7
  6
CONTINUOUS
 10
168.273620993
 20
134.9312738532
 11
168.2592100698
 21
135.0576778523
  0
LINE
  8
0
 62
7
  6
CONTINUOUS
 10
170.9812697387
 20
97.2536994698
 11
170.9812697387
 21
125.1339293536
  0
LINE
  8
2_FEATURE
 62
7
  6
CONTINUOUS
 10
170.9812697387
 20
125.1339293536
 11
170.9812697387
 21
126.1339293536
  0
POLYLINE
  8
0
 62
7
  6
CONTINUOUS
 66
1
 70
0
  0
VERTEX
  8
0
 62
7
  6
CONTINUOUS
 10
168.3175411138
 20
88.9776778523
  0
VERTEX
  8
0
 62
7
  6
CONTINUOUS
 10
168.3033085211
 20
88.8585323004
  0
VERTEX
  8
0
 62
7
  6
CONTINUOUS
 10
168.273620993
 20
88.6040818515
  0
SEQEND
  0
LINE
  8
0
 62
7
  6
CONTINUOUS
 10
168.3175411138
 20
134.5576778523
 11
168.2900734424
 21
134.78927089
  0
LINE
  8
0
 62
7
  6
CONTINUOUS
 10
168.2900734424
 20
134.78927089
 11
168.273620993
 21
134.9312738532
  0
LINE
  8
0
 62
7
  6
CONTINUOUS
 10
173.3812697387
 20
132.1215183334
 11
173.3812697387
 21
91.4138373713
  0
POLYLINE
  8
0
 62
7
  6
CONTINUOUS
 66
1
 70
0
  0
VERTEX
  8
0
 62
7
  6
CONTINUOUS
 10
170.9652833092
 20
126.1652103068
  0
VERTEX
  8
0
 62
7
  6
CONTINUOUS
 10
170.9228378835
 20
126.2927723538
  0
VERTEX
  8
0
 62
7
  6
CONTINUOUS
 10
170.8940490935
 20
126.3684157702
  0
VERTEX
  8
0
 62
7
  6
CONTINUOUS
 10
170.8782442342
 20
126.4025805955
  0
VERTEX
  8
0
 62
7
  6
CONTINUOUS
 10
170.8440209072
 20
126.4579794347
  0
VERTEX
  8
0
 62
7
  6
CONTINUOUS
 10
170.8016710724
 20
126.4983446862
  0
VERTEX
  8
0
 62
7
  6
CONTINUOUS
 10
170.7421528323
 20
126.5248519899
  0
VERTEX
  8
0
 62
7
  6
CONTINUOUS
 10
170.665072139
 20
126.5360421214
  0
VERTEX
  8
0
 62
7
  6
CONTINUOUS
 10
170.6197001854
 20
126.537226837
  0
SEQEND
  0
POLYLINE
  8
0
 62
7
  6
CONTINUOUS
 66
1
 70
0
  0
VERTEX
  8
0
 62
7
  6
CONTINUOUS
 10
170.9810150625
 20
126.1339293536
  0
VERTEX
  8
0
 62
7
  6
CONTINUOUS
 10
170.9771641545
 20
126.1374326144
  0
VERTEX
  8
0
 62
7
  6
CONTINUOUS
 10
170.9652833092
 20
126.1652103068
  0
SEQEND
  0
LINE
  8
0
 62
7
  6
CONTINUOUS
 10
170.9812697387
 20
126.1339293536
 11
167.0178697387
 21
126.1339293536
  0
POLYLINE
  8
0
 62
7
  6
CONTINUOUS
 66
1
 70
0
  0
VERTEX
  8
0
 62
7
  6
CONTINUOUS
 10
164.8812697387
 20
126.4520212031
  0
VERTEX
  8
0
 62
7
  6
CONTINUOUS
 10
164.8957905801
 20
126.4557670362
  0
VERTEX
  8
0
 62
7
  6
CONTINUOUS
 10
164.9385150286
 20
126.4592956177
  0
VERTEX
  8
0
 62
7
  6
CONTINUOUS
 10
165.0069697554
 20
126.462401905
  0
VERTEX
  8
0
 62
7
  6
CONTINUOUS
 10
165.0496581762
 20
126.4637389796
  0
VERTEX
  8
0
 62
7
  6
CONTINUOUS
 10
165.1488577031
 20
126.4658836483
  0
VERTEX
  8
0
 62
7
  6
CONTINUOUS
 10
165.2615784136
 20
126.46722264
  0
VERTEX
  8
0
 62
7
  6
CONTINUOUS
 10
165.3812697387
 20
126.4676778523
  0
SEQEND
  0
POLYLINE
  8
0
 62
7
  6
CONTINUOUS
 66
1
 70
0
  0
VERTEX
  8
0
 62
7
  6
CONTINUOUS
 10
166.5935326768
 20
126.4789025754
  0
VERTEX
  8
0
 62
7
  6
CONTINUOUS
 10
166.6802514024
 20
126.4978667041
  0
VERTEX
  8
0
 62
7
  6
CONTINUOUS
 10
166.7190236935
 20
126.5058872226
  0
VERTEX
  8
0
 62
7
  6
CONTINUOUS
 10
166.7636759753
 20
126.5142457274
  0
VERTEX
  8
0
 62
7
  6
CONTINUOUS
 10
166.8177855121
 20
126.5228275488
  0
VERTEX
  8
0
 62
7
  6
CONTINUOUS
 10
166.884958109
 20
126.5308179832
  0
VERTEX
  8
0
 62
7
  6
CONTINUOUS
 10
166.9687179383
 20
126.5363465546
  0
VERTEX
  8
0
 62
7
  6
CONTINUOUS
 10
167.0178697387
 20
126.5372272123
  0
SEQEND
  0
POLYLINE
  8
0
 62
7
  6
CONTINUOUS
 66
1
 70
0
  0
VERTEX
  8
0
 62
7
  6
CONTINUOUS
 10
166.5161814803
 20
126.4676787662
  0
VERTEX
  8
0
 62
7
  6
CONTINUOUS
 10
166.524596335
 20
126.4679355768
  0
VERTEX
  8
0
 62
7
  6
CONTINUOUS
 10
166.5433971938
 20
126.4698088166
  0
VERTEX
  8
0
 62
7
  6
CONTINUOUS
 10
166.5659549316
 20
126.4734366969
  0
VERTEX
  8
0
 62
7
  6
CONTINUOUS
 10
166.5935326768
 20
126.4789025754
  0
SEQEND
  0
LINE
  8
0
 62
7
  6
CONTINUOUS
 10
165.3812697387
 20
126.4676778523
 11
166.5161529535
 21
126.4676787662
  0
LINE
  8
0
 62
7
  6
CONTINUOUS
 10
167.0178697387
 20
126.5372272123
 11
170.6197001854
 21
126.537226837
  0
LINE
  8
1_AXIS
 62
2
  6
CENTER
 10
173.6312697387
 20
130.8176778523
 11
172.4812697387
 21
130.8176778523
  0
LINE
  8
1_AXIS
 62
2
  6
CONTINUOUS
 10
170.1112697387
 20
130.8176778523
 11
168.3512697387
 21
130.8176778523
  0
LINE
  8
1_AXIS
 62
2
  6
CENTER
 10
164.8312697387
 20
130.8176778523
 11
165.9812697387
 21
130.8176778523
  0
LINE
  8
0
 62
7
  6
CONTINUOUS
 10
172.8812697387
 20
132.0424227237
 11
173.1122276639
 21
132.0795745082
  0
LINE
  8
0
 62
7
  6
CONTINUOUS
 10
173.1122276639
 20
132.0795745082
 11
173.3232865152
 21
132.112593568
  0
LINE
  8
0
 62
7
  6
CONTINUOUS
 10
173.3232865152
 20
132.112593568
 11
173.3812697387
 21
132.1215183334
  0
LINE
  8
0
 62
7
  6
CONTINUOUS
 10
168.2592100698
 20
135.0576778523
 11
170.2033294077
 21
135.0576778523
  0
LINE
  8
0
 62
7
  6
CONTINUOUS
 10
25.4940214785
 20
218.4878348394
 11
25.4940214785
 21
224.025749956
  0
LINE
  8
0
 62
7
  6
CONTINUOUS
 10
25.6940214785
 20
216.8512349213
 11
25.6940214785
 21
224.3512348394
  0
LINE
  8
0
 62
7
  6
CONTINUOUS
 10
28.4940214785
 20
216.8512348394
 11
28.4940214785
 21
224.3512348394
  0
POLYLINE
  8
0
 62
7
  6
CONTINUOUS
 66
1
 70
0
  0
VERTEX
  8
0
 62
7
  6
CONTINUOUS
 10
25.5293027089
 20
218.3031468278
  0
VERTEX
  8
0
 62
7
  6
CONTINUOUS
 10
25.5029532107
 20
218.3932894752
  0
VERTEX
  8
0
 62
7
  6
CONTINUOUS
 10
25.4940142651
 20
218.4878348394
  0
SEQEND
  0
LINE
  8
0
 62
7
  6
CONTINUOUS
 10
30.3440214785
 20
216.8512348394
 11
30.3440214785
 21
218.6277967806
  0
LINE
  8
0
 62
7
  6
CONTINUOUS
 10
25.5729832586
 20
218.2181557387
 11
25.5293027089
 21
218.3031468278
  0
LINE
  8
0
 62
7
  6
CONTINUOUS
 10
32.8440214785
 20
217.8572924745
 11
32.8440214785
 21
216.5512373024
  0
LINE
  8
0
 62
7
  6
CONTINUOUS
 10
33.2440214785
 20
216.8512348394
 11
33.2440214785
 21
218.628197023
  0
LINE
  8
0
 62
7
  6
CONTINUOUS
 10
35.0940214785
 20
224.3512348394
 11
35.0940214785
 21
216.8512348394
  0
POLYLINE
  8
0
 62
7
  6
CONTINUOUS
 66
1
 70
0
  0
VERTEX
  8
0
 62
7
  6
CONTINUOUS
 10
32.8440212185
 20
217.8573499858
  0
VERTEX
  8
0
 62
7
  6
CONTINUOUS
 10
32.8548102814
 20
217.943705752
  0
VERTEX
  8
0
 62
7
  6
CONTINUOUS
 10
32.8698833037
 20
217.9939443562
  0
VERTEX
  8
0
 62
7
  6
CONTINUOUS
 10
32.9143892059
 20
218.0863621999
  0
SEQEND
  0
POLYLINE
  8
0
 62
7
  6
CONTINUOUS
 66
1
 70
0
  0
VERTEX
  8
0
 62
7
  6
CONTINUOUS
 10
33.0652665529
 20
217.9390480229
  0
VERTEX
  8
0
 62
7
  6
CONTINUOUS
 10
33.1632668485
 20
217.6890579564
  0
VERTEX
  8
0
 62
7
  6
CONTINUOUS
 10
33.2249162807
 20
217.4367076174
  0
VERTEX
  8
0
 62
7
  6
CONTINUOUS
 10
33.2440216612
 20
217.2155626869
  0
SEQEND
  0
LINE
  8
0
 62
7
  6
CONTINUOUS
 10
34.2611392241
 20
217.4888916586
 11
34.493327074
 21
216.7059222186
  0
POLYLINE
  8
0
 62
7
  6
CONTINUOUS
 66
1
 70
0
  0
VERTEX
  8
0
 62
7
  6
CONTINUOUS
 10
34.4933276403
 20
216.7059204037
  0
VERTEX
  8
0
 62
7
  6
CONTINUOUS
 10
34.4863688005
 20
216.7319498892
  0
VERTEX
  8
0
 62
7
  6
CONTINUOUS
 10
34.4727472362
 20
216.8512348394
  0
SEQEND
  0
LINE
  8
0
 62
7
  6
CONTINUOUS
 10
39.1940214785
 20
217.8572930215
 11
39.1940214785
 21
216.5512373024
  0
POLYLINE
  8
0
 62
7
  6
CONTINUOUS
 66
1
 70
0
  0
VERTEX
  8
0
 62
7
  6
CONTINUOUS
 10
39.194021172
 20
217.8572939459
  0
VERTEX
  8
0
 62
7
  6
CONTINUOUS
 10
39.1946110428
 20
217.8766368307
  0
VERTEX
  8
0
 62
7
  6
CONTINUOUS
 10
39.1973761526
 20
217.9043842342
  0
VERTEX
  8
0
 62
7
  6
CONTINUOUS
 10
39.2023048102
 20
217.9325624763
  0
VERTEX
  8
0
 62
7
  6
CONTINUOUS
 10
39.2092464595
 20
217.960789534
  0
VERTEX
  8
0
 62
7
  6
CONTINUOUS
 10
39.2180236276
 20
217.9887016432
  0
VERTEX
  8
0
 62
7
  6
CONTINUOUS
 10
39.2284318866
 20
218.015959301
  0
VERTEX
  8
0
 62
7
  6
CONTINUOUS
 10
39.2402769416
 20
218.0423031516
  0
VERTEX
  8
0
 62
7
  6
CONTINUOUS
 10
39.2533421462
 20
218.0674646906
  0
VERTEX
  8
0
 62
7
  6
CONTINUOUS
 10
39.267405066
 20
218.0912043646
  0
VERTEX
  8
0
 62
7
  6
CONTINUOUS
 10
39.2822499558
 20
218.1133304893
  0
VERTEX
  8
0
 62
7
  6
CONTINUOUS
 10
39.2976703945
 20
218.133689577
  0
VERTEX
  8
0
 62
7
  6
CONTINUOUS
 10
39.3135513691
 20
218.1522533653
  0
VERTEX
  8
0
 62
7
  6
CONTINUOUS
 10
39.3299949324
 20
218.1691788623
  0
VERTEX
  8
0
 62
7
  6
CONTINUOUS
 10
39.347062269
 20
218.1844578476
  0
VERTEX
  8
0
 62
7
  6
CONTINUOUS
 10
39.3647500806
 20
218.1979386786
  0
VERTEX
  8
0
 62
7
  6
CONTINUOUS
 10
39.3833591855
 20
218.209551281
  0
VERTEX
  8
0
 62
7
  6
CONTINUOUS
 10
39.4028984181
 20
218.2187956689
  0
VERTEX
  8
0
 62
7
  6
CONTINUOUS
 10
39.4230339083
 20
218.2248622916
  0
VERTEX
  8
0
 62
7
  6
CONTINUOUS
 10
39.4423660153
 20
218.2269516601
  0
VERTEX
  8
0
 62
7
  6
CONTINUOUS
 10
39.4601595524
 20
218.2254103634
  0
VERTEX
  8
0
 62
7
  6
CONTINUOUS
 10
39.4765223114
 20
218.221199425
  0
VERTEX
  8
0
 62
7
  6
CONTINUOUS
 10
39.4925080451
 20
218.2147567429
  0
VERTEX
  8
0
 62
7
  6
CONTINUOUS
 10
39.5013527737
 20
218.210279252
  0
SEQEND
  0
POLYLINE
  8
0
 62
7
  6
CONTINUOUS
 66
1
 70
0
  0
VERTEX
  8
0
 62
7
  6
CONTINUOUS
 10
32.8696842395
 20
217.9932808724
  0
VERTEX
  8
0
 62
7
  6
CONTINUOUS
 10
32.8801423088
 20
218.0200229187
  0
VERTEX
  8
0
 62
7
  6
CONTINUOUS
 10
32.8925633794
 20
218.0469639824
  0
VERTEX
  8
0
 62
7
  6
CONTINUOUS
 10
32.9062353521
 20
218.0726019071
  0
SEQEND
  0
LINE
  8
0
 62
7
  6
CONTINUOUS
 10
25.4940214785
 20
224.025749956
 11
25.6940214785
 21
224.2413479394
  0
LINE
  8
0
 62
7
  6
CONTINUOUS
 10
32.9961362649
 20
218.0867863593
 11
33.0076600369
 21
218.0623694492
  0
LINE
  8
0
 62
7
  6
CONTINUOUS
 10
33.0076600369
 20
218.0623694492
 11
33.0652925291
 21
217.9389951278
  0
POLYLINE
  8
0
 62
7
  6
CONTINUOUS
 66
1
 70
0
  0
VERTEX
  8
0
 62
7
  6
CONTINUOUS
 10
34.2582351818
 20
217.4982919037
  0
VERTEX
  8
0
 62
7
  6
CONTINUOUS
 10
34.2577328945
 20
217.4995716266
  0
VERTEX
  8
0
 62
7
  6
CONTINUOUS
 10
34.261134813
 20
217.4889065002
  0
SEQEND
  0
LINE
  8
0
 62
7
  6
CONTINUOUS
 10
41.1940214785
 20
218.2103243459
 11
41.1940214785
 21
224.3512348394
  0
LINE
  8
2_FEATURE
 62
7
  6
CONTINUOUS
 10
41.244021097
 20
222.3985801769
 11
41.244021097
 21
222.3512348394
  0
LINE
  8
2_FEATURE
 62
7
  6
CONTINUOUS
 10
41.2940214785
 20
222.4303803116
 11
41.2940214785
 21
222.3512348394
  0
LINE
  8
0
 62
7
  6
CONTINUOUS
 10
41.4440214785
 20
216.8513039351
 11
41.4440214785
 21
222.2755265498
  0
LINE
  8
2_FEATURE
 62
7
  6
CONTINUOUS
 10
41.49402186
 20
222.4512348394
 11
41.49402186
 21
222.3512348394
  0
LINE
  8
2_FEATURE
 62
7
  6
CONTINUOUS
 10
41.5190214785
 20
222.4512348394
 11
41.5190214785
 21
222.3512348394
  0
LINE
  8
2_FEATURE
 62
7
  6
CONTINUOUS
 10
41.544021097
 20
222.4512348394
 11
41.544021097
 21
222.3512348394
  0
LINE
  8
2_FEATURE
 62
7
  6
CONTINUOUS
 10
41.5940214785
 20
222.4512348394
 11
41.5940214785
 21
222.3512348394
  0
LINE
  8
2_FEATURE
 62
7
  6
CONTINUOUS
 10
41.6690214785
 20
222.4512348394
 11
41.6690214785
 21
222.3512348394
  0
LINE
  8
2_FEATURE
 62
7
  6
CONTINUOUS
 10
41.79402186
 20
222.4512348394
 11
41.79402186
 21
222.3512348394
  0
LINE
  8
2_FEATURE
 62
7
  6
CONTINUOUS
 10
41.94402186
 20
222.4512348394
 11
41.94402186
 21
222.3512348394
  0
LINE
  8
1_AXIS
 62
7
  6
CONTINUOUS
 10
42.0740214785
 20
222.4512348394
 11
42.0740214785
 21
222.3512348394
  0
LINE
  8
1_AXIS
 62
7
  6
CONTINUOUS
 10
42.5840214785
 20
222.4512348394
 11
42.5840214785
 21
222.3512348394
  0
LINE
  8
0
 62
7
  6
CONTINUOUS
 10
41.1842524566
 20
218.0817994872
 11
41.1940222541
 21
218.2102175229
  0
POLYLINE
  8
0
 62
7
  6
CONTINUOUS
 66
1
 70
0
  0
VERTEX
  8
0
 62
7
  6
CONTINUOUS
 10
41.1940214785
 20
222.2755265498
  0
VERTEX
  8
0
 62
7
  6
CONTINUOUS
 10
41.2030736107
 20
222.3324061746
  0
VERTEX
  8
0
 62
7
  6
CONTINUOUS
 10
41.2329164696
 20
222.3875469631
  0
VERTEX
  8
0
 62
7
  6
CONTINUOUS
 10
41.255585157
 20
222.4100698687
  0
VERTEX
  8
0
 62
7
  6
CONTINUOUS
 10
41.3135361518
 20
222.4406922156
  0
VERTEX
  8
0
 62
7
  6
CONTINUOUS
 10
41.3869204201
 20
222.4512348394
  0
SEQEND
  0
LINE
  8
0
 62
7
  6
CONTINUOUS
 10
32.9543226394
 20
218.1541038081
 11
32.9572957121
 21
218.1594554515
  0
LINE
  8
0
 62
7
  6
CONTINUOUS
 10
32.949828197
 20
218.1461211224
 11
32.9543226394
 21
218.1541038081
  0
LINE
  8
0
 62
7
  6
CONTINUOUS
 10
32.9450416376
 20
218.137743869
 11
32.949828197
 21
218.1461211224
  0
LINE
  8
0
 62
7
  6
CONTINUOUS
 10
32.9401944825
 20
218.1293771283
 11
32.9450416376
 21
218.137743869
  0
LINE
  8
0
 62
7
  6
CONTINUOUS
 10
32.9358251429
 20
218.1219253965
 11
32.9401944825
 21
218.1293771283
  0
LINE
  8
0
 62
7
  6
CONTINUOUS
 10
32.9305605575
 20
218.1130489855
 11
32.9358251429
 21
218.1219253965
  0
LINE
  8
0
 62
7
  6
CONTINUOUS
 10
32.9255304225
 20
218.1046617082
 11
32.9305605575
 21
218.1130489855
  0
LINE
  8
0
 62
7
  6
CONTINUOUS
 10
32.9135097002
 20
218.0845358798
 11
32.9255304225
 21
218.1046617082
  0
POLYLINE
  8
0
 62
7
  6
CONTINUOUS
 66
1
 70
0
  0
VERTEX
  8
0
 62
7
  6
CONTINUOUS
 10
32.9209121794
 20
218.0966800588
  0
VERTEX
  8
0
 62
7
  6
CONTINUOUS
 10
32.9363601444
 20
218.119000215
  0
VERTEX
  8
0
 62
7
  6
CONTINUOUS
 10
32.952354356
 20
218.1394050612
  0
VERTEX
  8
0
 62
7
  6
CONTINUOUS
 10
32.9605307631
 20
218.1488972196
  0
VERTEX
  8
0
 62
7
  6
CONTINUOUS
 10
32.9626464146
 20
218.1511248534
  0
SEQEND
  0
POLYLINE
  8
0
 62
7
  6
CONTINUOUS
 66
1
 70
0
  0
VERTEX
  8
0
 62
7
  6
CONTINUOUS
 10
25.6940214785
 20
221.6149634643
  0
VERTEX
  8
0
 62
7
  6
CONTINUOUS
 10
25.7084245907
 20
221.629196057
  0
VERTEX
  8
0
 62
7
  6
CONTINUOUS
 10
25.7508909505
 20
221.6424311358
  0
VERTEX
  8
0
 62
7
  6
CONTINUOUS
 10
25.8191022233
 20
221.6539563614
  0
VERTEX
  8
0
 62
7
  6
CONTINUOUS
 10
25.8617173586
 20
221.6588835851
  0
VERTEX
  8
0
 62
7
  6
CONTINUOUS
 10
25.9609232668
 20
221.6667476235
  0
VERTEX
  8
0
 62
7
  6
CONTINUOUS
 10
26.0738807801
 20
221.6716354579
  0
VERTEX
  8
0
 62
7
  6
CONTINUOUS
 10
26.1940214785
 20
221.6732945083
  0
SEQEND
  0
POLYLINE
  8
0
 62
7
  6
CONTINUOUS
 66
1
 70
0
  0
VERTEX
  8
0
 62
7
  6
CONTINUOUS
 10
25.6940214785
 20
219.7875062145
  0
VERTEX
  8
0
 62
7
  6
CONTINUOUS
 10
25.7084245907
 20
219.7732736218
  0
VERTEX
  8
0
 62
7
  6
CONTINUOUS
 10
25.7508909505
 20
219.760038543
  0
VERTEX
  8
0
 62
7
  6
CONTINUOUS
 10
25.8191022233
 20
219.7485133174
  0
VERTEX
  8
0
 62
7
  6
CONTINUOUS
 10
25.8617173586
 20
219.7435860937
  0
VERTEX
  8
0
 62
7
  6
CONTINUOUS
 10
25.9609232668
 20
219.7357220553
  0
VERTEX
  8
0
 62
7
  6
CONTINUOUS
 10
26.0738807801
 20
219.7308342209
  0
VERTEX
  8
0
 62
7
  6
CONTINUOUS
 10
26.1940214785
 20
219.7291751704
  0
SEQEND
  0
POLYLINE
  8
0
 62
7
  6
CONTINUOUS
 66
1
 70
0
  0
VERTEX
  8
0
 62
7
  6
CONTINUOUS
 10
41.4440214785
 20
222.2755265498
  0
VERTEX
  8
0
 62
7
  6
CONTINUOUS
 10
41.4349666337
 20
222.3324145393
  0
VERTEX
  8
0
 62
7
  6
CONTINUOUS
 10
41.4051018321
 20
222.3875769833
  0
VERTEX
  8
0
 62
7
  6
CONTINUOUS
 10
41.3824277666
 20
222.4100942107
  0
VERTEX
  8
0
 62
7
  6
CONTINUOUS
 10
41.3244855361
 20
222.4406989245
  0
VERTEX
  8
0
 62
7
  6
CONTINUOUS
 10
41.3190332484
 20
222.4414819464
  0
SEQEND
  0
LINE
  8
1_AXIS
 62
7
  6
CONTINUOUS
 10
43.2740214785
 20
222.4512348394
 11
43.2740214785
 21
222.3512348394
  0
LINE
  8
1_AXIS
 62
7
  6
CONTINUOUS
 10
43.7840214785
 20
222.4512348394
 11
43.7840214785
 21
222.3512348394
  0
LINE
  8
2_FEATURE
 62
7
  6
CONTINUOUS
 10
43.8190212878
 20
222.4512348394
 11
43.8190212878
 21
222.3512348394
  0
LINE
  8
1_AXIS
 62
7
  6
CONTINUOUS
 10
43.9040214785
 20
222.4512348394
 11
43.9040214785
 21
222.3512348394
  0
LINE
  8
1_AXIS
 62
7
  6
CONTINUOUS
 10
44.4140214785
 20
222.4512348394
 11
44.4140214785
 21
222.3512348394
  0
LINE
  8
1_AXIS
 62
7
  6
CONTINUOUS
 10
45.2240214785
 20
222.4512348394
 11
45.2240214785
 21
222.3512348394
  0
LINE
  8
0
 62
7
  6
CONTINUOUS
 10
33.2703800169
 20
222.4502444942
 11
32.7713703621
 21
221.9512348394
  0
POLYLINE
  8
0
 62
7
  6
CONTINUOUS
 66
1
 70
0
  0
VERTEX
  8
0
 62
7
  6
CONTINUOUS
 10
28.4940214785
 20
221.6149634643
  0
VERTEX
  8
0
 62
7
  6
CONTINUOUS
 10
28.4796183663
 20
221.629196057
  0
VERTEX
  8
0
 62
7
  6
CONTINUOUS
 10
28.4371520066
 20
221.6424311358
  0
VERTEX
  8
0
 62
7
  6
CONTINUOUS
 10
28.3689407338
 20
221.6539563614
  0
VERTEX
  8
0
 62
7
  6
CONTINUOUS
 10
28.3263255985
 20
221.6588835851
  0
VERTEX
  8
0
 62
7
  6
CONTINUOUS
 10
28.2271196903
 20
221.6667476235
  0
VERTEX
  8
0
 62
7
  6
CONTINUOUS
 10
28.114162177
 20
221.6716354579
  0
VERTEX
  8
0
 62
7
  6
CONTINUOUS
 10
27.9940214785
 20
221.6732945083
  0
SEQEND
  0
LINE
  8
0
 62
7
  6
CONTINUOUS
 10
30.8167996836
 20
221.9512348394
 11
30.3177792458
 21
222.4502552772
  0
LINE
  8
1_AXIS
 62
7
  6
CONTINUOUS
 10
46.7540214785
 20
222.4512348394
 11
46.7540214785
 21
222.3512348394
  0
LINE
  8
2_FEATURE
 62
7
  6
CONTINUOUS
 10
46.8440214785
 20
222.4512348394
 11
46.8440214785
 21
222.3512348394
  0
LINE
  8
2_FEATURE
 62
7
  6
CONTINUOUS
 10
46.9190214785
 20
222.4512348394
 11
46.9190214785
 21
222.3512348394
  0
LINE
  8
2_FEATURE
 62
7
  6
CONTINUOUS
 10
46.9940214785
 20
222.4512348394
 11
46.9940214785
 21
222.3512348394
  0
LINE
  8
2_FEATURE
 62
7
  6
CONTINUOUS
 10
47.0440212878
 20
222.4512348394
 11
47.0440212878
 21
222.3512348394
  0
LINE
  8
2_FEATURE
 62
7
  6
CONTINUOUS
 10
47.2440216693
 20
222.4512348394
 11
47.2440216693
 21
222.3512348394
  0
LINE
  8
2_FEATURE
 62
7
  6
CONTINUOUS
 10
47.4440214785
 20
222.4512348394
 11
47.4440214785
 21
222.3512348394
  0
LINE
  8
0
 62
7
  6
CONTINUOUS
 10
47.5440214785
 20
216.8513039351
 11
47.5440214785
 21
222.2755265498
  0
LINE
  8
2_FEATURE
 62
7
  6
CONTINUOUS
 10
47.5690215739
 20
222.4512348394
 11
47.5690215739
 21
222.3512348394
  0
LINE
  8
2_FEATURE
 62
7
  6
CONTINUOUS
 10
47.5940214785
 20
222.4512348394
 11
47.5940214785
 21
222.3512348394
  0
LINE
  8
2_FEATURE
 62
7
  6
CONTINUOUS
 10
47.6190213832
 20
222.4512348394
 11
47.6190213832
 21
222.3512348394
  0
LINE
  8
2_FEATURE
 62
7
  6
CONTINUOUS
 10
47.6440215739
 20
222.4450652245
 11
47.6440215739
 21
222.3512348394
  0
LINE
  8
2_FEATURE
 62
7
  6
CONTINUOUS
 10
47.7190215739
 20
222.4171171564
 11
47.7190215739
 21
222.3512348394
  0
LINE
  8
0
 62
7
  6
CONTINUOUS
 10
47.7940214785
 20
216.8512360924
 11
47.7940214785
 21
224.3512348394
  0
POLYLINE
  8
0
 62
7
  6
CONTINUOUS
 66
1
 70
0
  0
VERTEX
  8
0
 62
7
  6
CONTINUOUS
 10
47.5645557436
 20
222.3536418111
  0
VERTEX
  8
0
 62
7
  6
CONTINUOUS
 10
47.5530184897
 20
222.3322359022
  0
VERTEX
  8
0
 62
7
  6
CONTINUOUS
 10
47.5440214785
 20
222.2755265498
  0
SEQEND
  0
POLYLINE
  8
0
 62
7
  6
CONTINUOUS
 66
1
 70
0
  0
VERTEX
  8
0
 62
7
  6
CONTINUOUS
 10
41.1940214785
 20
219.7875062145
  0
VERTEX
  8
0
 62
7
  6
CONTINUOUS
 10
41.1796183663
 20
219.7732736218
  0
VERTEX
  8
0
 62
7
  6
CONTINUOUS
 10
41.1371520066
 20
219.760038543
  0
VERTEX
  8
0
 62
7
  6
CONTINUOUS
 10
41.0689407338
 20
219.7485133174
  0
VERTEX
  8
0
 62
7
  6
CONTINUOUS
 10
41.0263255985
 20
219.7435860937
  0
VERTEX
  8
0
 62
7
  6
CONTINUOUS
 10
40.9271196903
 20
219.7357220553
  0
VERTEX
  8
0
 62
7
  6
CONTINUOUS
 10
40.814162177
 20
219.7308342209
  0
VERTEX
  8
0
 62
7
  6
CONTINUOUS
 10
40.6940214785
 20
219.7291751704
  0
SEQEND
  0
LINE
  8
0
 62
7
  6
CONTINUOUS
 10
53.8940214785
 20
216.8512348394
 11
53.8940214785
 21
224.3512348394
  0
LINE
  8
0
 62
7
  6
CONTINUOUS
 10
55.7440214785
 20
216.8512348394
 11
55.7440214785
 21
218.6281970144
  0
POLYLINE
  8
0
 62
7
  6
CONTINUOUS
 66
1
 70
0
  0
VERTEX
  8
0
 62
7
  6
CONTINUOUS
 10
54.4947153168
 20
216.7059204037
  0
VERTEX
  8
0
 62
7
  6
CONTINUOUS
 10
54.5016741566
 20
216.7319498892
  0
VERTEX
  8
0
 62
7
  6
CONTINUOUS
 10
54.5152957209
 20
216.8512348394
  0
SEQEND
  0
POLYLINE
  8
0
 62
7
  6
CONTINUOUS
 66
1
 70
0
  0
VERTEX
  8
0
 62
7
  6
CONTINUOUS
 10
47.7940214785
 20
221.6149634643
  0
VERTEX
  8
0
 62
7
  6
CONTINUOUS
 10
47.8084245907
 20
221.629196057
  0
VERTEX
  8
0
 62
7
  6
CONTINUOUS
 10
47.8508909505
 20
221.6424311358
  0
VERTEX
  8
0
 62
7
  6
CONTINUOUS
 10
47.9191022233
 20
221.6539563614
  0
VERTEX
  8
0
 62
7
  6
CONTINUOUS
 10
47.9617173586
 20
221.6588835851
  0
VERTEX
  8
0
 62
7
  6
CONTINUOUS
 10
48.0609232668
 20
221.6667476235
  0
VERTEX
  8
0
 62
7
  6
CONTINUOUS
 10
48.1738807801
 20
221.6716354579
  0
VERTEX
  8
0
 62
7
  6
CONTINUOUS
 10
48.2940214785
 20
221.6732945083
  0
SEQEND
  0
LINE
  8
0
 62
7
  6
CONTINUOUS
 10
58.6440214785
 20
216.8512348394
 11
58.6440214785
 21
218.6281970226
  0
LINE
  8
0
 62
7
  6
CONTINUOUS
 10
54.494715883
 20
216.7059222186
 11
54.7269037329
 21
217.4888916586
  0
LINE
  8
0
 62
7
  6
CONTINUOUS
 10
54.7269084587
 20
217.4889075612
 11
54.7302648386
 21
217.4994466673
  0
POLYLINE
  8
0
 62
7
  6
CONTINUOUS
 66
1
 70
0
  0
VERTEX
  8
0
 62
7
  6
CONTINUOUS
 10
39.5013555436
 20
218.2102789128
  0
VERTEX
  8
0
 62
7
  6
CONTINUOUS
 10
39.828771751
 20
218.0419567603
  0
VERTEX
  8
0
 62
7
  6
CONTINUOUS
 10
40.2107426453
 20
217.865352062
  0
VERTEX
  8
0
 62
7
  6
CONTINUOUS
 10
40.6208666768
 20
217.6952417669
  0
SEQEND
  0
POLYLINE
  8
0
 62
7
  6
CONTINUOUS
 66
1
 70
0
  0
VERTEX
  8
0
 62
7
  6
CONTINUOUS
 10
59.6582351818
 20
217.4982919037
  0
VERTEX
  8
0
 62
7
  6
CONTINUOUS
 10
59.6577328945
 20
217.4995716266
  0
VERTEX
  8
0
 62
7
  6
CONTINUOUS
 10
59.661134813
 20
217.4889065002
  0
SEQEND
  0
LINE
  8
0
 62
7
  6
CONTINUOUS
 10
59.6611392241
 20
217.4888916586
 11
59.893327074
 21
216.7059222186
  0
POLYLINE
  8
0
 62
7
  6
CONTINUOUS
 66
1
 70
0
  0
VERTEX
  8
0
 62
7
  6
CONTINUOUS
 10
59.8933276403
 20
216.7059204037
  0
VERTEX
  8
0
 62
7
  6
CONTINUOUS
 10
59.8863688005
 20
216.7319498892
  0
VERTEX
  8
0
 62
7
  6
CONTINUOUS
 10
59.8727472362
 20
216.8512348394
  0
SEQEND
  0
LINE
  8
0
 62
7
  6
CONTINUOUS
 10
60.4940214785
 20
216.8512348394
 11
60.4940214785
 21
224.3512348394
  0
LINE
  8
0
 62
7
  6
CONTINUOUS
 10
58.6703800169
 20
222.4502444942
 11
58.1713703621
 21
221.9512348394
  0
POLYLINE
  8
0
 62
7
  6
CONTINUOUS
 66
1
 70
0
  0
VERTEX
  8
0
 62
7
  6
CONTINUOUS
 10
32.9310051809
 20
218.1867873002
  0
VERTEX
  8
0
 62
7
  6
CONTINUOUS
 10
32.9307889888
 20
218.1868559851
  0
VERTEX
  8
0
 62
7
  6
CONTINUOUS
 10
32.9324602093
 20
218.1859899157
  0
VERTEX
  8
0
 62
7
  6
CONTINUOUS
 10
32.9367799503
 20
218.1830089388
  0
VERTEX
  8
0
 62
7
  6
CONTINUOUS
 10
32.9420573572
 20
218.1783468
  0
VERTEX
  8
0
 62
7
  6
CONTINUOUS
 10
32.9470406951
 20
218.1730404999
  0
VERTEX
  8
0
 62
7
  6
CONTINUOUS
 10
32.9519197431
 20
218.1670232935
  0
VERTEX
  8
0
 62
7
  6
CONTINUOUS
 10
32.9563030505
 20
218.1609566134
  0
VERTEX
  8
0
 62
7
  6
CONTINUOUS
 10
32.9605488287
 20
218.1545358951
  0
VERTEX
  8
0
 62
7
  6
CONTINUOUS
 10
32.9647569996
 20
218.1476926728
  0
VERTEX
  8
0
 62
7
  6
CONTINUOUS
 10
32.9689162378
 20
218.1405101491
  0
VERTEX
  8
0
 62
7
  6
CONTINUOUS
 10
32.9730891717
 20
218.132937827
  0
VERTEX
  8
0
 62
7
  6
CONTINUOUS
 10
32.9773366159
 20
218.1249086116
  0
VERTEX
  8
0
 62
7
  6
CONTINUOUS
 10
32.9816833643
 20
218.1164123718
  0
VERTEX
  8
0
 62
7
  6
CONTINUOUS
 10
32.9861803294
 20
218.1073829334
  0
VERTEX
  8
0
 62
7
  6
CONTINUOUS
 10
32.990957685
 20
218.0975841498
  0
VERTEX
  8
0
 62
7
  6
CONTINUOUS
 10
32.9961362649
 20
218.0867863593
  0
SEQEND
  0
LINE
  8
0
 62
7
  6
CONTINUOUS
 10
40.6185460059
 20
217.6962043294
 11
40.6208670237
 21
217.6952414674
  0
POLYLINE
  8
0
 62
7
  6
CONTINUOUS
 66
1
 70
0
  0
VERTEX
  8
0
 62
7
  6
CONTINUOUS
 10
53.8940214785
 20
221.6149634643
  0
VERTEX
  8
0
 62
7
  6
CONTINUOUS
 10
53.8796183663
 20
221.629196057
  0
VERTEX
  8
0
 62
7
  6
CONTINUOUS
 10
53.8371520066
 20
221.6424311358
  0
VERTEX
  8
0
 62
7
  6
CONTINUOUS
 10
53.7689407338
 20
221.6539563614
  0
VERTEX
  8
0
 62
7
  6
CONTINUOUS
 10
53.7263255985
 20
221.6588835851
  0
VERTEX
  8
0
 62
7
  6
CONTINUOUS
 10
53.6271196903
 20
221.6667476235
  0
VERTEX
  8
0
 62
7
  6
CONTINUOUS
 10
53.514162177
 20
221.6716354579
  0
VERTEX
  8
0
 62
7
  6
CONTINUOUS
 10
53.3940214785
 20
221.6732945083
  0
SEQEND
  0
LINE
  8
0
 62
7
  6
CONTINUOUS
 10
56.216672595
 20
221.9512348394
 11
55.7176629402
 21
222.4502444942
  0
POLYLINE
  8
0
 62
7
  6
CONTINUOUS
 66
1
 70
0
  0
VERTEX
  8
0
 62
7
  6
CONTINUOUS
 10
66.5940214785
 20
222.2755265498
  0
VERTEX
  8
0
 62
7
  6
CONTINUOUS
 10
66.6030736107
 20
222.3324061746
  0
VERTEX
  8
0
 62
7
  6
CONTINUOUS
 10
66.6329164696
 20
222.3875469631
  0
VERTEX
  8
0
 62
7
  6
CONTINUOUS
 10
66.655585157
 20
222.4100698687
  0
VERTEX
  8
0
 62
7
  6
CONTINUOUS
 10
66.7135361518
 20
222.4406922156
  0
VERTEX
  8
0
 62
7
  6
CONTINUOUS
 10
66.7869204201
 20
222.4512348394
  0
SEQEND
  0
POLYLINE
  8
0
 62
7
  6
CONTINUOUS
 66
1
 70
0
  0
VERTEX
  8
0
 62
7
  6
CONTINUOUS
 10
118.1261751209
 20
216.3512776088
  0
VERTEX
  8
0
 62
7
  6
CONTINUOUS
 10
118.2448993303
 20
216.3672138605
  0
VERTEX
  8
0
 62
7
  6
CONTINUOUS
 10
118.3564888566
 20
216.4109272596
  0
VERTEX
  8
0
 62
7
  6
CONTINUOUS
 10
118.4545719699
 20
216.4798183043
  0
VERTEX
  8
0
 62
7
  6
CONTINUOUS
 10
118.4967687274
 20
216.5224955889
  0
VERTEX
  8
0
 62
7
  6
CONTINUOUS
 10
118.5644997724
 20
216.621215352
  0
VERTEX
  8
0
 62
7
  6
CONTINUOUS
 10
118.6070046159
 20
216.7329199511
  0
VERTEX
  8
0
 62
7
  6
CONTINUOUS
 10
118.6219573186
 20
216.8512348394
  0
SEQEND
  0
POLYLINE
  8
0
 62
7
  6
CONTINUOUS
 66
1
 70
0
  0
VERTEX
  8
0
 62
7
  6
CONTINUOUS
 10
34.3618678362
 20
216.3512776088
  0
VERTEX
  8
0
 62
7
  6
CONTINUOUS
 10
34.2431436268
 20
216.3672138605
  0
VERTEX
  8
0
 62
7
  6
CONTINUOUS
 10
34.1315541005
 20
216.4109272596
  0
VERTEX
  8
0
 62
7
  6
CONTINUOUS
 10
34.0334709871
 20
216.4798183043
  0
VERTEX
  8
0
 62
7
  6
CONTINUOUS
 10
33.9912742297
 20
216.5224955889
  0
VERTEX
  8
0
 62
7
  6
CONTINUOUS
 10
33.9235431846
 20
216.621215352
  0
VERTEX
  8
0
 62
7
  6
CONTINUOUS
 10
33.8810383411
 20
216.7329199511
  0
VERTEX
  8
0
 62
7
  6
CONTINUOUS
 10
33.8660856385
 20
216.8512348394
  0
SEQEND
  0
POLYLINE
  8
0
 62
7
  6
CONTINUOUS
 66
1
 70
0
  0
VERTEX
  8
0
 62
7
  6
CONTINUOUS
 10
40.6208721141
 20
217.6952397375
  0
VERTEX
  8
0
 62
7
  6
CONTINUOUS
 10
40.7089894062
 20
217.6710226146
  0
VERTEX
  8
0
 62
7
  6
CONTINUOUS
 10
40.8076719269
 20
217.6678461411
  0
VERTEX
  8
0
 62
7
  6
CONTINUOUS
 10
40.9010884643
 20
217.6891874615
  0
VERTEX
  8
0
 62
7
  6
CONTINUOUS
 10
40.9871469148
 20
217.7341794286
  0
VERTEX
  8
0
 62
7
  6
CONTINUOUS
 10
41.0267561003
 20
217.7656929627
  0
VERTEX
  8
0
 62
7
  6
CONTINUOUS
 10
41.0972991446
 20
217.8479189885
  0
VERTEX
  8
0
 62
7
  6
CONTINUOUS
 10
41.1515644152
 20
217.9551196869
  0
VERTEX
  8
0
 62
7
  6
CONTINUOUS
 10
41.1843700152
 20
218.082255076
  0
SEQEND
  0
LINE
  8
0
 62
7
  6
CONTINUOUS
 10
66.5940214785
 20
216.8512360924
 11
66.5940214785
 21
224.3512348394
  0
LINE
  8
0
 62
7
  6
CONTINUOUS
 10
66.8440214785
 20
216.8513039351
 11
66.8440214785
 21
222.2755265498
  0
LINE
  8
2_FEATURE
 62
7
  6
CONTINUOUS
 10
67.2690214368
 20
222.4512348394
 11
67.2690214368
 21
222.3512348394
  0
LINE
  8
2_FEATURE
 62
7
  6
CONTINUOUS
 10
67.6190214785
 20
222.4512348394
 11
67.6190214785
 21
222.3512348394
  0
LINE
  8
2_FEATURE
 62
7
  6
CONTINUOUS
 10
67.6440214785
 20
222.4512348394
 11
67.6440214785
 21
222.3512348394
  0
LINE
  8
2_FEATURE
 62
7
  6
CONTINUOUS
 10
67.6940212878
 20
222.4512348394
 11
67.6940212878
 21
222.3512348394
  0
LINE
  8
2_FEATURE
 62
7
  6
CONTINUOUS
 10
67.7690212878
 20
222.4512348394
 11
67.7690212878
 21
222.3512348394
  0
LINE
  8
2_FEATURE
 62
7
  6
CONTINUOUS
 10
67.8940216693
 20
222.4512348394
 11
67.8940216693
 21
222.3512348394
  0
LINE
  8
2_FEATURE
 62
7
  6
CONTINUOUS
 10
67.9690215202
 20
222.4512348394
 11
67.9690215202
 21
222.3512348394
  0
LINE
  8
2_FEATURE
 62
7
  6
CONTINUOUS
 10
69.0190213951
 20
222.4512348394
 11
69.0190213951
 21
222.3512348394
  0
LINE
  8
2_FEATURE
 62
7
  6
CONTINUOUS
 10
69.2815213951
 20
222.4512348394
 11
69.2815213951
 21
222.3512348394
  0
LINE
  8
2_FEATURE
 62
7
  6
CONTINUOUS
 10
69.7190214785
 20
222.4512348394
 11
69.7190214785
 21
222.3512348394
  0
LINE
  8
2_FEATURE
 62
7
  6
CONTINUOUS
 10
69.7940212878
 20
222.4512348394
 11
69.7940212878
 21
222.3512348394
  0
LINE
  8
2_FEATURE
 62
7
  6
CONTINUOUS
 10
69.8690212878
 20
222.4512348394
 11
69.8690212878
 21
222.3512348394
  0
POLYLINE
  8
0
 62
7
  6
CONTINUOUS
 66
1
 70
0
  0
VERTEX
  8
0
 62
7
  6
CONTINUOUS
 10
105.4261751209
 20
216.3512776088
  0
VERTEX
  8
0
 62
7
  6
CONTINUOUS
 10
105.5448993303
 20
216.3672138605
  0
VERTEX
  8
0
 62
7
  6
CONTINUOUS
 10
105.6564888566
 20
216.4109272596
  0
VERTEX
  8
0
 62
7
  6
CONTINUOUS
 10
105.7545719699
 20
216.4798183043
  0
VERTEX
  8
0
 62
7
  6
CONTINUOUS
 10
105.7967687274
 20
216.5224955889
  0
VERTEX
  8
0
 62
7
  6
CONTINUOUS
 10
105.8644997724
 20
216.621215352
  0
VERTEX
  8
0
 62
7
  6
CONTINUOUS
 10
105.9070046159
 20
216.7329199511
  0
VERTEX
  8
0
 62
7
  6
CONTINUOUS
 10
105.9219573186
 20
216.8512348394
  0
SEQEND
  0
POLYLINE
  8
0
 62
7
  6
CONTINUOUS
 66
1
 70
0
  0
VERTEX
  8
0
 62
7
  6
CONTINUOUS
 10
117.5195856265
 20
216.3512348394
  0
VERTEX
  8
0
 62
7
  6
CONTINUOUS
 10
117.6392847352
 20
216.3658566413
  0
VERTEX
  8
0
 62
7
  6
CONTINUOUS
 10
117.7516704519
 20
216.4088035566
  0
VERTEX
  8
0
 62
7
  6
CONTINUOUS
 10
117.8502169112
 20
216.4774771082
  0
VERTEX
  8
0
 62
7
  6
CONTINUOUS
 10
117.8924810421
 20
216.5202360014
  0
VERTEX
  8
0
 62
7
  6
CONTINUOUS
 10
117.9599634818
 20
216.6194405178
  0
VERTEX
  8
0
 62
7
  6
CONTINUOUS
 10
117.9947153168
 20
216.7059204037
  0
SEQEND
  0
POLYLINE
  8
0
 62
7
  6
CONTINUOUS
 66
1
 70
0
  0
VERTEX
  8
0
 62
7
  6
CONTINUOUS
 10
104.8195856265
 20
216.3512348394
  0
VERTEX
  8
0
 62
7
  6
CONTINUOUS
 10
104.9392847352
 20
216.3658566413
  0
VERTEX
  8
0
 62
7
  6
CONTINUOUS
 10
105.0516704519
 20
216.4088035566
  0
VERTEX
  8
0
 62
7
  6
CONTINUOUS
 10
105.1502169112
 20
216.4774771082
  0
VERTEX
  8
0
 62
7
  6
CONTINUOUS
 10
105.1924810421
 20
216.5202360014
  0
VERTEX
  8
0
 62
7
  6
CONTINUOUS
 10
105.2599634818
 20
216.6194405178
  0
VERTEX
  8
0
 62
7
  6
CONTINUOUS
 10
105.2947153168
 20
216.7059204037
  0
SEQEND
  0
POLYLINE
  8
0
 62
7
  6
CONTINUOUS
 66
1
 70
0
  0
VERTEX
  8
0
 62
7
  6
CONTINUOUS
 10
34.9684573306
 20
216.3512348394
  0
VERTEX
  8
0
 62
7
  6
CONTINUOUS
 10
34.8487582218
 20
216.3658566413
  0
VERTEX
  8
0
 62
7
  6
CONTINUOUS
 10
34.7363725052
 20
216.4088035566
  0
VERTEX
  8
0
 62
7
  6
CONTINUOUS
 10
34.6378260458
 20
216.4774771082
  0
VERTEX
  8
0
 62
7
  6
CONTINUOUS
 10
34.595561915
 20
216.5202360014
  0
VERTEX
  8
0
 62
7
  6
CONTINUOUS
 10
34.5280794752
 20
216.6194405178
  0
VERTEX
  8
0
 62
7
  6
CONTINUOUS
 10
34.4933276403
 20
216.7059204037
  0
SEQEND
  0
POLYLINE
  8
0
 62
7
  6
CONTINUOUS
 66
1
 70
0
  0
VERTEX
  8
0
 62
7
  6
CONTINUOUS
 10
59.7618678362
 20
216.3512776088
  0
VERTEX
  8
0
 62
7
  6
CONTINUOUS
 10
59.6431436268
 20
216.3672138605
  0
VERTEX
  8
0
 62
7
  6
CONTINUOUS
 10
59.5315541005
 20
216.4109272596
  0
VERTEX
  8
0
 62
7
  6
CONTINUOUS
 10
59.4334709871
 20
216.4798183043
  0
VERTEX
  8
0
 62
7
  6
CONTINUOUS
 10
59.3912742297
 20
216.5224955889
  0
VERTEX
  8
0
 62
7
  6
CONTINUOUS
 10
59.3235431846
 20
216.621215352
  0
VERTEX
  8
0
 62
7
  6
CONTINUOUS
 10
59.2810383411
 20
216.7329199511
  0
VERTEX
  8
0
 62
7
  6
CONTINUOUS
 10
59.2660856385
 20
216.8512348394
  0
SEQEND
  0
LINE
  8
0
 62
7
  6
CONTINUOUS
 10
66.8349666337
 20
222.3324145393
 11
66.8234726772
 21
222.3536447066
  0
LINE
  8
0
 62
7
  6
CONTINUOUS
 10
66.8440214785
 20
222.2755265498
 11
66.8349666337
 21
222.3324145393
  0
LINE
  8
2_FEATURE
 62
7
  6
CONTINUOUS
 10
69.9190216693
 20
222.4512348394
 11
69.9190216693
 21
222.3512348394
  0
LINE
  8
2_FEATURE
 62
7
  6
CONTINUOUS
 10
70.0690213951
 20
222.4512348394
 11
70.0690213951
 21
222.3512348394
  0
LINE
  8
2_FEATURE
 62
7
  6
CONTINUOUS
 10
70.1127714785
 20
222.4512348394
 11
70.1127714785
 21
222.3512348394
  0
LINE
  8
2_FEATURE
 62
7
  6
CONTINUOUS
 10
70.156521562
 20
222.4512348394
 11
70.156521562
 21
222.3512348394
  0
LINE
  8
2_FEATURE
 62
7
  6
CONTINUOUS
 10
70.2440214785
 20
222.4512348394
 11
70.2440214785
 21
222.3512348394
  0
LINE
  8
2_FEATURE
 62
7
  6
CONTINUOUS
 10
70.3752714785
 20
222.4512348394
 11
70.3752714785
 21
222.3512348394
  0
LINE
  8
2_FEATURE
 62
7
  6
CONTINUOUS
 10
70.5940216454
 20
222.4512348394
 11
70.5940216454
 21
222.3512348394
  0
LINE
  8
2_FEATURE
 62
7
  6
CONTINUOUS
 10
70.8565216454
 20
222.4512348394
 11
70.8565216454
 21
222.3512348394
  0
LINE
  8
2_FEATURE
 62
7
  6
CONTINUOUS
 10
71.1190216454
 20
222.4512348394
 11
71.1190216454
 21
222.3512348394
  0
LINE
  8
2_FEATURE
 62
7
  6
CONTINUOUS
 10
71.3377713116
 20
222.4512348394
 11
71.3377713116
 21
222.3512348394
  0
LINE
  8
2_FEATURE
 62
7
  6
CONTINUOUS
 10
71.4690213116
 20
222.4512348394
 11
71.4690213116
 21
222.3512348394
  0
LINE
  8
2_FEATURE
 62
7
  6
CONTINUOUS
 10
71.5565214785
 20
222.4512348394
 11
71.5565214785
 21
222.3512348394
  0
LINE
  8
2_FEATURE
 62
7
  6
CONTINUOUS
 10
71.6002713116
 20
222.4512348394
 11
71.6002713116
 21
222.3512348394
  0
LINE
  8
2_FEATURE
 62
7
  6
CONTINUOUS
 10
71.6440216454
 20
222.4512348394
 11
71.6440216454
 21
222.3512348394
  0
LINE
  8
2_FEATURE
 62
7
  6
CONTINUOUS
 10
71.6940214785
 20
222.4512348394
 11
71.6940214785
 21
222.3512348394
  0
LINE
  8
2_FEATURE
 62
7
  6
CONTINUOUS
 10
71.8440214785
 20
222.4512348394
 11
71.8440214785
 21
222.3512348394
  0
LINE
  8
2_FEATURE
 62
7
  6
CONTINUOUS
 10
71.9190214785
 20
222.4512348394
 11
71.9190214785
 21
222.3512348394
  0
LINE
  8
2_FEATURE
 62
7
  6
CONTINUOUS
 10
71.9940213116
 20
222.4512348394
 11
71.9940213116
 21
222.3512348394
  0
LINE
  8
2_FEATURE
 62
7
  6
CONTINUOUS
 10
72.0377716454
 20
222.4512348394
 11
72.0377716454
 21
222.3512348394
  0
LINE
  8
2_FEATURE
 62
7
  6
CONTINUOUS
 10
72.0815214785
 20
222.4512348394
 11
72.0815214785
 21
222.3512348394
  0
LINE
  8
2_FEATURE
 62
7
  6
CONTINUOUS
 10
72.1690216454
 20
222.4512348394
 11
72.1690216454
 21
222.3512348394
  0
LINE
  8
2_FEATURE
 62
7
  6
CONTINUOUS
 10
72.3002716454
 20
222.4512348394
 11
72.3002716454
 21
222.3512348394
  0
LINE
  8
2_FEATURE
 62
7
  6
CONTINUOUS
 10
72.5190213116
 20
222.4512348394
 11
72.5190213116
 21
222.3512348394
  0
LINE
  8
2_FEATURE
 62
7
  6
CONTINUOUS
 10
72.7815213116
 20
222.4512348394
 11
72.7815213116
 21
222.3512348394
  0
LINE
  8
0
 62
7
  6
CONTINUOUS
 10
72.9440214785
 20
216.8513039351
 11
72.9440214785
 21
222.2755265498
  0
LINE
  8
2_FEATURE
 62
7
  6
CONTINUOUS
 10
73.0440213116
 20
222.4450652623
 11
73.0440213116
 21
222.3512348394
  0
LINE
  8
0
 62
7
  6
CONTINUOUS
 10
73.1940214785
 20
216.8512360924
 11
73.1940214785
 21
224.3512348394
  0
POLYLINE
  8
0
 62
7
  6
CONTINUOUS
 66
1
 70
0
  0
VERTEX
  8
0
 62
7
  6
CONTINUOUS
 10
72.9632584455
 20
222.3512348394
  0
VERTEX
  8
0
 62
7
  6
CONTINUOUS
 10
72.9530184897
 20
222.3322359022
  0
VERTEX
  8
0
 62
7
  6
CONTINUOUS
 10
72.9440214785
 20
222.2755265498
  0
SEQEND
  0
POLYLINE
  8
0
 62
7
  6
CONTINUOUS
 66
1
 70
0
  0
VERTEX
  8
0
 62
7
  6
CONTINUOUS
 10
80.0261751209
 20
216.3512776088
  0
VERTEX
  8
0
 62
7
  6
CONTINUOUS
 10
80.1448993303
 20
216.3672138605
  0
VERTEX
  8
0
 62
7
  6
CONTINUOUS
 10
80.2564888566
 20
216.4109272596
  0
VERTEX
  8
0
 62
7
  6
CONTINUOUS
 10
80.3545719699
 20
216.4798183043
  0
VERTEX
  8
0
 62
7
  6
CONTINUOUS
 10
80.3967687274
 20
216.5224955889
  0
VERTEX
  8
0
 62
7
  6
CONTINUOUS
 10
80.4644997724
 20
216.621215352
  0
VERTEX
  8
0
 62
7
  6
CONTINUOUS
 10
80.5070046159
 20
216.7329199511
  0
VERTEX
  8
0
 62
7
  6
CONTINUOUS
 10
80.5219573186
 20
216.8512348394
  0
SEQEND
  0
POLYLINE
  8
0
 62
7
  6
CONTINUOUS
 66
1
 70
0
  0
VERTEX
  8
0
 62
7
  6
CONTINUOUS
 10
79.4195856265
 20
216.3512348394
  0
VERTEX
  8
0
 62
7
  6
CONTINUOUS
 10
79.5392847352
 20
216.3658566413
  0
VERTEX
  8
0
 62
7
  6
CONTINUOUS
 10
79.6516704519
 20
216.4088035566
  0
VERTEX
  8
0
 62
7
  6
CONTINUOUS
 10
79.7502169112
 20
216.4774771082
  0
VERTEX
  8
0
 62
7
  6
CONTINUOUS
 10
79.7924810421
 20
216.5202360014
  0
VERTEX
  8
0
 62
7
  6
CONTINUOUS
 10
79.8599634818
 20
216.6194405178
  0
VERTEX
  8
0
 62
7
  6
CONTINUOUS
 10
79.8947153168
 20
216.7059204037
  0
SEQEND
  0
LINE
  8
0
 62
7
  6
CONTINUOUS
 10
118.1261751209
 20
216.3512776088
 11
118.1196351368
 21
216.3512348394
  0
LINE
  8
0
 62
7
  6
CONTINUOUS
 10
105.4261751209
 20
216.3512776088
 11
105.4196351368
 21
216.3512348394
  0
LINE
  8
0
 62
7
  6
CONTINUOUS
 10
80.0261751209
 20
216.3512776088
 11
80.0196351368
 21
216.3512348394
  0
LINE
  8
0
 62
7
  6
CONTINUOUS
 10
54.6261751209
 20
216.3512776088
 11
54.6196351368
 21
216.3512348394
  0
LINE
  8
0
 62
7
  6
CONTINUOUS
 10
118.7440214785
 20
216.3512348394
 11
118.1440214785
 21
216.3512348394
  0
LINE
  8
0
 62
7
  6
CONTINUOUS
 10
118.1196351368
 20
216.3512348394
 11
117.5249970312
 21
216.3512348394
  0
LINE
  8
0
 62
7
  6
CONTINUOUS
 10
111.1630459258
 20
216.3512348394
 11
110.5684078202
 21
216.3512348394
  0
LINE
  8
0
 62
7
  6
CONTINUOUS
 10
105.4196351368
 20
216.3512348394
 11
104.8249970312
 21
216.3512348394
  0
LINE
  8
0
 62
7
  6
CONTINUOUS
 10
85.7630459258
 20
216.3512348394
 11
85.1684078202
 21
216.3512348394
  0
LINE
  8
0
 62
7
  6
CONTINUOUS
 10
80.0196351368
 20
216.3512348394
 11
79.4249970312
 21
216.3512348394
  0
LINE
  8
0
 62
7
  6
CONTINUOUS
 10
60.3630459258
 20
216.3512348394
 11
59.7684078202
 21
216.3512348394
  0
LINE
  8
0
 62
7
  6
CONTINUOUS
 10
54.6196351368
 20
216.3512348394
 11
54.0249970312
 21
216.3512348394
  0
LINE
  8
0
 62
7
  6
CONTINUOUS
 10
34.9630459258
 20
216.3512348394
 11
34.3684078202
 21
216.3512348394
  0
LINE
  8
0
 62
7
  6
CONTINUOUS
 10
34.3618678362
 20
216.3512348394
 11
33.7440214785
 21
216.3512348394
  0
LINE
  8
0
 62
7
  6
CONTINUOUS
 10
26.1940214785
 20
216.3512348394
 11
32.6440214785
 21
216.3512348394
  0
LINE
  8
0
 62
7
  6
CONTINUOUS
 10
34.9684573306
 20
216.3512348394
 11
38.9940214785
 21
216.3512348394
  0
LINE
  8
0
 62
7
  6
CONTINUOUS
 10
41.9440214785
 20
216.3512348394
 11
47.0440214785
 21
216.3512348394
  0
LINE
  8
0
 62
7
  6
CONTINUOUS
 10
48.2940214785
 20
216.3512348394
 11
54.0195856265
 21
216.3512348394
  0
LINE
  8
0
 62
7
  6
CONTINUOUS
 10
54.6440214785
 20
216.3512348394
 11
59.7618678362
 21
216.3512348394
  0
LINE
  8
0
 62
7
  6
CONTINUOUS
 10
60.3684573306
 20
216.3512348394
 11
66.0940214785
 21
216.3512348394
  0
LINE
  8
0
 62
7
  6
CONTINUOUS
 10
67.3440214785
 20
216.3512348394
 11
72.4440214785
 21
216.3512348394
  0
LINE
  8
0
 62
7
  6
CONTINUOUS
 10
73.6940214785
 20
216.3512348394
 11
79.4195856265
 21
216.3512348394
  0
LINE
  8
0
 62
7
  6
CONTINUOUS
 10
80.0440214785
 20
216.3512348394
 11
85.1618678362
 21
216.3512348394
  0
LINE
  8
0
 62
7
  6
CONTINUOUS
 10
85.7684573306
 20
216.3512348394
 11
91.4940214785
 21
216.3512348394
  0
LINE
  8
0
 62
7
  6
CONTINUOUS
 10
92.7440214785
 20
216.3512348394
 11
97.8440214785
 21
216.3512348394
  0
LINE
  8
0
 62
7
  6
CONTINUOUS
 10
99.0940214785
 20
216.3512348394
 11
104.8195856265
 21
216.3512348394
  0
LINE
  8
0
 62
7
  6
CONTINUOUS
 10
105.4440214785
 20
216.3512348394
 11
110.5618678362
 21
216.3512348394
  0
LINE
  8
0
 62
7
  6
CONTINUOUS
 10
111.1684573306
 20
216.3512348394
 11
112.3940214785
 21
216.3512348394
  0
LINE
  8
0
 62
7
  6
CONTINUOUS
 10
113.4940214785
 20
216.3512348394
 11
117.5195856265
 21
216.3512348394
  0
LINE
  8
0
 62
7
  6
CONTINUOUS
 10
119.8440214785
 20
216.3512348394
 11
126.2940214785
 21
216.3512348394
  0
LINE
  8
0
 62
7
  6
CONTINUOUS
 10
34.3618678362
 20
216.3512776088
 11
34.3684078202
 21
216.3512348394
  0
LINE
  8
0
 62
7
  6
CONTINUOUS
 10
59.7618678362
 20
216.3512776088
 11
59.7684078202
 21
216.3512348394
  0
LINE
  8
0
 62
7
  6
CONTINUOUS
 10
85.1618678362
 20
216.3512776088
 11
85.1684078202
 21
216.3512348394
  0
LINE
  8
0
 62
7
  6
CONTINUOUS
 10
110.5618678362
 20
216.3512776088
 11
110.5684078202
 21
216.3512348394
  0
LINE
  8
0
 62
7
  6
CONTINUOUS
 10
40.7078466457
 20
217.6712066363
 11
40.7083889874
 21
217.6711876266
  0
POLYLINE
  8
0
 62
7
  6
CONTINUOUS
 66
1
 70
0
  0
VERTEX
  8
0
 62
7
  6
CONTINUOUS
 10
60.3684573306
 20
216.3512348394
  0
VERTEX
  8
0
 62
7
  6
CONTINUOUS
 10
60.2487582218
 20
216.3658566413
  0
VERTEX
  8
0
 62
7
  6
CONTINUOUS
 10
60.1363725052
 20
216.4088035566
  0
VERTEX
  8
0
 62
7
  6
CONTINUOUS
 10
60.0378260458
 20
216.4774771082
  0
VERTEX
  8
0
 62
7
  6
CONTINUOUS
 10
59.995561915
 20
216.5202360014
  0
VERTEX
  8
0
 62
7
  6
CONTINUOUS
 10
59.9280794752
 20
216.6194405178
  0
VERTEX
  8
0
 62
7
  6
CONTINUOUS
 10
59.8933276403
 20
216.7059204037
  0
SEQEND
  0
POLYLINE
  8
0
 62
7
  6
CONTINUOUS
 66
1
 70
0
  0
VERTEX
  8
0
 62
7
  6
CONTINUOUS
 10
85.7684573306
 20
216.3512348394
  0
VERTEX
  8
0
 62
7
  6
CONTINUOUS
 10
85.6487582218
 20
216.3658566413
  0
VERTEX
  8
0
 62
7
  6
CONTINUOUS
 10
85.5363725052
 20
216.4088035566
  0
VERTEX
  8
0
 62
7
  6
CONTINUOUS
 10
85.4378260458
 20
216.4774771082
  0
VERTEX
  8
0
 62
7
  6
CONTINUOUS
 10
85.395561915
 20
216.5202360014
  0
VERTEX
  8
0
 62
7
  6
CONTINUOUS
 10
85.3280794752
 20
216.6194405178
  0
VERTEX
  8
0
 62
7
  6
CONTINUOUS
 10
85.2933276403
 20
216.7059204037
  0
SEQEND
  0
POLYLINE
  8
0
 62
7
  6
CONTINUOUS
 66
1
 70
0
  0
VERTEX
  8
0
 62
7
  6
CONTINUOUS
 10
85.1618678362
 20
216.3512776088
  0
VERTEX
  8
0
 62
7
  6
CONTINUOUS
 10
85.0431436268
 20
216.3672138605
  0
VERTEX
  8
0
 62
7
  6
CONTINUOUS
 10
84.9315541005
 20
216.4109272596
  0
VERTEX
  8
0
 62
7
  6
CONTINUOUS
 10
84.8334709871
 20
216.4798183043
  0
VERTEX
  8
0
 62
7
  6
CONTINUOUS
 10
84.7912742297
 20
216.5224955889
  0
VERTEX
  8
0
 62
7
  6
CONTINUOUS
 10
84.7235431846
 20
216.621215352
  0
VERTEX
  8
0
 62
7
  6
CONTINUOUS
 10
84.6810383411
 20
216.7329199511
  0
VERTEX
  8
0
 62
7
  6
CONTINUOUS
 10
84.6660856385
 20
216.8512348394
  0
SEQEND
  0
POLYLINE
  8
0
 62
7
  6
CONTINUOUS
 66
1
 70
0
  0
VERTEX
  8
0
 62
7
  6
CONTINUOUS
 10
66.5940214785
 20
221.6149634643
  0
VERTEX
  8
0
 62
7
  6
CONTINUOUS
 10
66.5796183663
 20
221.629196057
  0
VERTEX
  8
0
 62
7
  6
CONTINUOUS
 10
66.5371520066
 20
221.6424311358
  0
VERTEX
  8
0
 62
7
  6
CONTINUOUS
 10
66.4689407338
 20
221.6539563614
  0
VERTEX
  8
0
 62
7
  6
CONTINUOUS
 10
66.4263255985
 20
221.6588835851
  0
VERTEX
  8
0
 62
7
  6
CONTINUOUS
 10
66.3271196903
 20
221.6667476235
  0
VERTEX
  8
0
 62
7
  6
CONTINUOUS
 10
66.214162177
 20
221.6716354579
  0
VERTEX
  8
0
 62
7
  6
CONTINUOUS
 10
66.0940214785
 20
221.6732945083
  0
SEQEND
  0
LINE
  8
1_AXIS
 62
2
  6
CENTER
 10
76.2440214785
 20
213.8512348394
 11
76.2440214785
 21
226.8512360713
  0
POLYLINE
  8
0
 62
7
  6
CONTINUOUS
 66
1
 70
0
  0
VERTEX
  8
0
 62
7
  6
CONTINUOUS
 10
54.6261751209
 20
216.3512776088
  0
VERTEX
  8
0
 62
7
  6
CONTINUOUS
 10
54.7448993303
 20
216.3672138605
  0
VERTEX
  8
0
 62
7
  6
CONTINUOUS
 10
54.8564888566
 20
216.4109272596
  0
VERTEX
  8
0
 62
7
  6
CONTINUOUS
 10
54.9545719699
 20
216.4798183043
  0
VERTEX
  8
0
 62
7
  6
CONTINUOUS
 10
54.9967687274
 20
216.5224955889
  0
VERTEX
  8
0
 62
7
  6
CONTINUOUS
 10
55.0644997724
 20
216.621215352
  0
VERTEX
  8
0
 62
7
  6
CONTINUOUS
 10
55.1070046159
 20
216.7329199511
  0
VERTEX
  8
0
 62
7
  6
CONTINUOUS
 10
55.1219573186
 20
216.8512348394
  0
SEQEND
  0
POLYLINE
  8
0
 62
7
  6
CONTINUOUS
 66
1
 70
0
  0
VERTEX
  8
0
 62
7
  6
CONTINUOUS
 10
54.0195856265
 20
216.3512348394
  0
VERTEX
  8
0
 62
7
  6
CONTINUOUS
 10
54.1392847352
 20
216.3658566413
  0
VERTEX
  8
0
 62
7
  6
CONTINUOUS
 10
54.2516704519
 20
216.4088035566
  0
VERTEX
  8
0
 62
7
  6
CONTINUOUS
 10
54.3502169112
 20
216.4774771082
  0
VERTEX
  8
0
 62
7
  6
CONTINUOUS
 10
54.3924810421
 20
216.5202360014
  0
VERTEX
  8
0
 62
7
  6
CONTINUOUS
 10
54.4599634818
 20
216.6194405178
  0
VERTEX
  8
0
 62
7
  6
CONTINUOUS
 10
54.4947153168
 20
216.7059204037
  0
SEQEND
  0
POLYLINE
  8
0
 62
7
  6
CONTINUOUS
 66
1
 70
0
  0
VERTEX
  8
0
 62
7
  6
CONTINUOUS
 10
116.8940214785
 20
219.7291751704
  0
VERTEX
  8
0
 62
7
  6
CONTINUOUS
 10
117.014162177
 20
219.7308342209
  0
VERTEX
  8
0
 62
7
  6
CONTINUOUS
 10
117.1271196903
 20
219.7357220553
  0
VERTEX
  8
0
 62
7
  6
CONTINUOUS
 10
117.2263255985
 20
219.7435860937
  0
VERTEX
  8
0
 62
7
  6
CONTINUOUS
 10
117.2689407338
 20
219.7485133174
  0
VERTEX
  8
0
 62
7
  6
CONTINUOUS
 10
117.3371520066
 20
219.760038543
  0
VERTEX
  8
0
 62
7
  6
CONTINUOUS
 10
117.3796183663
 20
219.7732736218
  0
VERTEX
  8
0
 62
7
  6
CONTINUOUS
 10
117.3940214785
 20
219.7875062145
  0
SEQEND
  0
POLYLINE
  8
0
 62
7
  6
CONTINUOUS
 66
1
 70
0
  0
VERTEX
  8
0
 62
7
  6
CONTINUOUS
 10
104.1940214785
 20
219.7291751704
  0
VERTEX
  8
0
 62
7
  6
CONTINUOUS
 10
104.314162177
 20
219.7308342209
  0
VERTEX
  8
0
 62
7
  6
CONTINUOUS
 10
104.4271196903
 20
219.7357220553
  0
VERTEX
  8
0
 62
7
  6
CONTINUOUS
 10
104.5263255985
 20
219.7435860937
  0
VERTEX
  8
0
 62
7
  6
CONTINUOUS
 10
104.5689407338
 20
219.7485133174
  0
VERTEX
  8
0
 62
7
  6
CONTINUOUS
 10
104.6371520066
 20
219.760038543
  0
VERTEX
  8
0
 62
7
  6
CONTINUOUS
 10
104.6796183663
 20
219.7732736218
  0
VERTEX
  8
0
 62
7
  6
CONTINUOUS
 10
104.6940214785
 20
219.7875062145
  0
SEQEND
  0
POLYLINE
  8
0
 62
7
  6
CONTINUOUS
 66
1
 70
0
  0
VERTEX
  8
0
 62
7
  6
CONTINUOUS
 10
91.4940214785
 20
219.7291751704
  0
VERTEX
  8
0
 62
7
  6
CONTINUOUS
 10
91.614162177
 20
219.7308342209
  0
VERTEX
  8
0
 62
7
  6
CONTINUOUS
 10
91.7271196903
 20
219.7357220553
  0
VERTEX
  8
0
 62
7
  6
CONTINUOUS
 10
91.8263255985
 20
219.7435860937
  0
VERTEX
  8
0
 62
7
  6
CONTINUOUS
 10
91.8689407338
 20
219.7485133174
  0
VERTEX
  8
0
 62
7
  6
CONTINUOUS
 10
91.9371520066
 20
219.760038543
  0
VERTEX
  8
0
 62
7
  6
CONTINUOUS
 10
91.9796183663
 20
219.7732736218
  0
VERTEX
  8
0
 62
7
  6
CONTINUOUS
 10
91.9940214785
 20
219.7875062145
  0
SEQEND
  0
POLYLINE
  8
0
 62
7
  6
CONTINUOUS
 66
1
 70
0
  0
VERTEX
  8
0
 62
7
  6
CONTINUOUS
 10
78.7940214785
 20
219.7291751704
  0
VERTEX
  8
0
 62
7
  6
CONTINUOUS
 10
78.914162177
 20
219.7308342209
  0
VERTEX
  8
0
 62
7
  6
CONTINUOUS
 10
79.0271196903
 20
219.7357220553
  0
VERTEX
  8
0
 62
7
  6
CONTINUOUS
 10
79.1263255985
 20
219.7435860937
  0
VERTEX
  8
0
 62
7
  6
CONTINUOUS
 10
79.1689407338
 20
219.7485133174
  0
VERTEX
  8
0
 62
7
  6
CONTINUOUS
 10
79.2371520066
 20
219.760038543
  0
VERTEX
  8
0
 62
7
  6
CONTINUOUS
 10
79.2796183663
 20
219.7732736218
  0
VERTEX
  8
0
 62
7
  6
CONTINUOUS
 10
79.2940214785
 20
219.7875062145
  0
SEQEND
  0
POLYLINE
  8
0
 62
7
  6
CONTINUOUS
 66
1
 70
0
  0
VERTEX
  8
0
 62
7
  6
CONTINUOUS
 10
66.0940214785
 20
219.7291751704
  0
VERTEX
  8
0
 62
7
  6
CONTINUOUS
 10
66.214162177
 20
219.7308342209
  0
VERTEX
  8
0
 62
7
  6
CONTINUOUS
 10
66.3271196903
 20
219.7357220553
  0
VERTEX
  8
0
 62
7
  6
CONTINUOUS
 10
66.4263255985
 20
219.7435860937
  0
VERTEX
  8
0
 62
7
  6
CONTINUOUS
 10
66.4689407338
 20
219.7485133174
  0
VERTEX
  8
0
 62
7
  6
CONTINUOUS
 10
66.5371520066
 20
219.760038543
  0
VERTEX
  8
0
 62
7
  6
CONTINUOUS
 10
66.5796183663
 20
219.7732736218
  0
VERTEX
  8
0
 62
7
  6
CONTINUOUS
 10
66.5940214785
 20
219.7875062145
  0
SEQEND
  0
POLYLINE
  8
0
 62
7
  6
CONTINUOUS
 66
1
 70
0
  0
VERTEX
  8
0
 62
7
  6
CONTINUOUS
 10
53.3940214785
 20
219.7291751704
  0
VERTEX
  8
0
 62
7
  6
CONTINUOUS
 10
53.514162177
 20
219.7308342209
  0
VERTEX
  8
0
 62
7
  6
CONTINUOUS
 10
53.6271196903
 20
219.7357220553
  0
VERTEX
  8
0
 62
7
  6
CONTINUOUS
 10
53.7263255985
 20
219.7435860937
  0
VERTEX
  8
0
 62
7
  6
CONTINUOUS
 10
53.7689407338
 20
219.7485133174
  0
VERTEX
  8
0
 62
7
  6
CONTINUOUS
 10
53.8371520066
 20
219.760038543
  0
VERTEX
  8
0
 62
7
  6
CONTINUOUS
 10
53.8796183663
 20
219.7732736218
  0
VERTEX
  8
0
 62
7
  6
CONTINUOUS
 10
53.8940214785
 20
219.7875062145
  0
SEQEND
  0
POLYLINE
  8
0
 62
7
  6
CONTINUOUS
 66
1
 70
0
  0
VERTEX
  8
0
 62
7
  6
CONTINUOUS
 10
27.9940214785
 20
219.7291751704
  0
VERTEX
  8
0
 62
7
  6
CONTINUOUS
 10
28.114162177
 20
219.7308342209
  0
VERTEX
  8
0
 62
7
  6
CONTINUOUS
 10
28.2271196903
 20
219.7357220553
  0
VERTEX
  8
0
 62
7
  6
CONTINUOUS
 10
28.3263255985
 20
219.7435860937
  0
VERTEX
  8
0
 62
7
  6
CONTINUOUS
 10
28.3689407338
 20
219.7485133174
  0
VERTEX
  8
0
 62
7
  6
CONTINUOUS
 10
28.4371520066
 20
219.760038543
  0
VERTEX
  8
0
 62
7
  6
CONTINUOUS
 10
28.4796183663
 20
219.7732736218
  0
VERTEX
  8
0
 62
7
  6
CONTINUOUS
 10
28.4940214785
 20
219.7875062145
  0
SEQEND
  0
POLYLINE
  8
0
 62
7
  6
CONTINUOUS
 66
1
 70
0
  0
VERTEX
  8
0
 62
7
  6
CONTINUOUS
 10
124.4940214785
 20
221.6732945083
  0
VERTEX
  8
0
 62
7
  6
CONTINUOUS
 10
124.3738807801
 20
221.6716354579
  0
VERTEX
  8
0
 62
7
  6
CONTINUOUS
 10
124.2609232668
 20
221.6667476235
  0
VERTEX
  8
0
 62
7
  6
CONTINUOUS
 10
124.1617173586
 20
221.6588835851
  0
VERTEX
  8
0
 62
7
  6
CONTINUOUS
 10
124.1191022233
 20
221.6539563614
  0
VERTEX
  8
0
 62
7
  6
CONTINUOUS
 10
124.0508909505
 20
221.6424311358
  0
VERTEX
  8
0
 62
7
  6
CONTINUOUS
 10
124.0084245907
 20
221.629196057
  0
VERTEX
  8
0
 62
7
  6
CONTINUOUS
 10
123.9940214785
 20
221.6149634643
  0
SEQEND
  0
LINE
  8
0
 62
7
  6
CONTINUOUS
 10
26.1940214785
 20
219.7291751704
 11
27.9940214785
 21
219.7291751704
  0
LINE
  8
0
 62
7
  6
CONTINUOUS
 10
35.5940214785
 20
219.7291751704
 11
40.6940214785
 21
219.7291751704
  0
LINE
  8
0
 62
7
  6
CONTINUOUS
 10
48.2940214785
 20
219.7291751704
 11
53.3940214785
 21
219.7291751704
  0
LINE
  8
0
 62
7
  6
CONTINUOUS
 10
60.9940214785
 20
219.7291751704
 11
66.0940214785
 21
219.7291751704
  0
LINE
  8
0
 62
7
  6
CONTINUOUS
 10
73.6940214785
 20
219.7291751704
 11
78.7940214785
 21
219.7291751704
  0
LINE
  8
0
 62
7
  6
CONTINUOUS
 10
86.3940214785
 20
219.7291751704
 11
91.4940214785
 21
219.7291751704
  0
LINE
  8
0
 62
7
  6
CONTINUOUS
 10
99.0940214785
 20
219.7291751704
 11
104.1940214785
 21
219.7291751704
  0
LINE
  8
0
 62
7
  6
CONTINUOUS
 10
111.7940214785
 20
219.7291751704
 11
116.8940214785
 21
219.7291751704
  0
LINE
  8
0
 62
7
  6
CONTINUOUS
 10
124.4940214785
 20
219.7291751704
 11
126.2940214785
 21
219.7291751704
  0
LINE
  8
1_AXIS
 62
2
  6
CENTER
 10
19.6378147651
 20
220.7012348394
 11
133.9409557047
 21
220.7012348394
  0
POLYLINE
  8
0
 62
7
  6
CONTINUOUS
 66
1
 70
0
  0
VERTEX
  8
0
 62
7
  6
CONTINUOUS
 10
35.5940214785
 20
219.7291751704
  0
VERTEX
  8
0
 62
7
  6
CONTINUOUS
 10
35.4738807801
 20
219.7308342209
  0
VERTEX
  8
0
 62
7
  6
CONTINUOUS
 10
35.3609232668
 20
219.7357220553
  0
VERTEX
  8
0
 62
7
  6
CONTINUOUS
 10
35.2617173586
 20
219.7435860937
  0
VERTEX
  8
0
 62
7
  6
CONTINUOUS
 10
35.2191022233
 20
219.7485133174
  0
VERTEX
  8
0
 62
7
  6
CONTINUOUS
 10
35.1508909505
 20
219.760038543
  0
VERTEX
  8
0
 62
7
  6
CONTINUOUS
 10
35.1084245907
 20
219.7732736218
  0
VERTEX
  8
0
 62
7
  6
CONTINUOUS
 10
35.0940214785
 20
219.7875062145
  0
SEQEND
  0
POLYLINE
  8
0
 62
7
  6
CONTINUOUS
 66
1
 70
0
  0
VERTEX
  8
0
 62
7
  6
CONTINUOUS
 10
48.2940214785
 20
219.7291751704
  0
VERTEX
  8
0
 62
7
  6
CONTINUOUS
 10
48.1738807801
 20
219.7308342209
  0
VERTEX
  8
0
 62
7
  6
CONTINUOUS
 10
48.0609232668
 20
219.7357220553
  0
VERTEX
  8
0
 62
7
  6
CONTINUOUS
 10
47.9617173586
 20
219.7435860937
  0
VERTEX
  8
0
 62
7
  6
CONTINUOUS
 10
47.9191022233
 20
219.7485133174
  0
VERTEX
  8
0
 62
7
  6
CONTINUOUS
 10
47.8508909505
 20
219.760038543
  0
VERTEX
  8
0
 62
7
  6
CONTINUOUS
 10
47.8084245907
 20
219.7732736218
  0
VERTEX
  8
0
 62
7
  6
CONTINUOUS
 10
47.7940214785
 20
219.7875062145
  0
SEQEND
  0
POLYLINE
  8
0
 62
7
  6
CONTINUOUS
 66
1
 70
0
  0
VERTEX
  8
0
 62
7
  6
CONTINUOUS
 10
60.9940214785
 20
219.7291751704
  0
VERTEX
  8
0
 62
7
  6
CONTINUOUS
 10
60.8738807801
 20
219.7308342209
  0
VERTEX
  8
0
 62
7
  6
CONTINUOUS
 10
60.7609232668
 20
219.7357220553
  0
VERTEX
  8
0
 62
7
  6
CONTINUOUS
 10
60.6617173586
 20
219.7435860937
  0
VERTEX
  8
0
 62
7
  6
CONTINUOUS
 10
60.6191022233
 20
219.7485133174
  0
VERTEX
  8
0
 62
7
  6
CONTINUOUS
 10
60.5508909505
 20
219.760038543
  0
VERTEX
  8
0
 62
7
  6
CONTINUOUS
 10
60.5084245907
 20
219.7732736218
  0
VERTEX
  8
0
 62
7
  6
CONTINUOUS
 10
60.4940214785
 20
219.7875062145
  0
SEQEND
  0
POLYLINE
  8
0
 62
7
  6
CONTINUOUS
 66
1
 70
0
  0
VERTEX
  8
0
 62
7
  6
CONTINUOUS
 10
86.3940214785
 20
219.7291751704
  0
VERTEX
  8
0
 62
7
  6
CONTINUOUS
 10
86.2738807801
 20
219.7308342209
  0
VERTEX
  8
0
 62
7
  6
CONTINUOUS
 10
86.1609232668
 20
219.7357220553
  0
VERTEX
  8
0
 62
7
  6
CONTINUOUS
 10
86.0617173586
 20
219.7435860937
  0
VERTEX
  8
0
 62
7
  6
CONTINUOUS
 10
86.0191022233
 20
219.7485133174
  0
VERTEX
  8
0
 62
7
  6
CONTINUOUS
 10
85.9508909505
 20
219.760038543
  0
VERTEX
  8
0
 62
7
  6
CONTINUOUS
 10
85.9084245907
 20
219.7732736218
  0
VERTEX
  8
0
 62
7
  6
CONTINUOUS
 10
85.8940214785
 20
219.7875062145
  0
SEQEND
  0
POLYLINE
  8
0
 62
7
  6
CONTINUOUS
 66
1
 70
0
  0
VERTEX
  8
0
 62
7
  6
CONTINUOUS
 10
111.7940214785
 20
219.7291751704
  0
VERTEX
  8
0
 62
7
  6
CONTINUOUS
 10
111.6738807801
 20
219.7308342209
  0
VERTEX
  8
0
 62
7
  6
CONTINUOUS
 10
111.5609232668
 20
219.7357220553
  0
VERTEX
  8
0
 62
7
  6
CONTINUOUS
 10
111.4617173586
 20
219.7435860937
  0
VERTEX
  8
0
 62
7
  6
CONTINUOUS
 10
111.4191022233
 20
219.7485133174
  0
VERTEX
  8
0
 62
7
  6
CONTINUOUS
 10
111.3508909505
 20
219.760038543
  0
VERTEX
  8
0
 62
7
  6
CONTINUOUS
 10
111.3084245907
 20
219.7732736218
  0
VERTEX
  8
0
 62
7
  6
CONTINUOUS
 10
111.2940214785
 20
219.7875062145
  0
SEQEND
  0
POLYLINE
  8
0
 62
7
  6
CONTINUOUS
 66
1
 70
0
  0
VERTEX
  8
0
 62
7
  6
CONTINUOUS
 10
124.4940214785
 20
219.7291751704
  0
VERTEX
  8
0
 62
7
  6
CONTINUOUS
 10
124.3738807801
 20
219.7308342209
  0
VERTEX
  8
0
 62
7
  6
CONTINUOUS
 10
124.2609232668
 20
219.7357220553
  0
VERTEX
  8
0
 62
7
  6
CONTINUOUS
 10
124.1617173586
 20
219.7435860937
  0
VERTEX
  8
0
 62
7
  6
CONTINUOUS
 10
124.1191022233
 20
219.7485133174
  0
VERTEX
  8
0
 62
7
  6
CONTINUOUS
 10
124.0508909505
 20
219.760038543
  0
VERTEX
  8
0
 62
7
  6
CONTINUOUS
 10
124.0084245907
 20
219.7732736218
  0
VERTEX
  8
0
 62
7
  6
CONTINUOUS
 10
123.9940214785
 20
219.7875062145
  0
SEQEND
  0
POLYLINE
  8
0
 62
7
  6
CONTINUOUS
 66
1
 70
0
  0
VERTEX
  8
0
 62
7
  6
CONTINUOUS
 10
111.1684573306
 20
216.3512348394
  0
VERTEX
  8
0
 62
7
  6
CONTINUOUS
 10
111.0487582218
 20
216.3658566413
  0
VERTEX
  8
0
 62
7
  6
CONTINUOUS
 10
110.9363725052
 20
216.4088035566
  0
VERTEX
  8
0
 62
7
  6
CONTINUOUS
 10
110.8378260458
 20
216.4774771082
  0
VERTEX
  8
0
 62
7
  6
CONTINUOUS
 10
110.795561915
 20
216.5202360014
  0
VERTEX
  8
0
 62
7
  6
CONTINUOUS
 10
110.7280794752
 20
216.6194405178
  0
VERTEX
  8
0
 62
7
  6
CONTINUOUS
 10
110.6933276403
 20
216.7059204037
  0
SEQEND
  0
POLYLINE
  8
0
 62
7
  6
CONTINUOUS
 66
1
 70
0
  0
VERTEX
  8
0
 62
7
  6
CONTINUOUS
 10
110.5618678362
 20
216.3512776088
  0
VERTEX
  8
0
 62
7
  6
CONTINUOUS
 10
110.4431436268
 20
216.3672138605
  0
VERTEX
  8
0
 62
7
  6
CONTINUOUS
 10
110.3315541005
 20
216.4109272596
  0
VERTEX
  8
0
 62
7
  6
CONTINUOUS
 10
110.2334709871
 20
216.4798183043
  0
VERTEX
  8
0
 62
7
  6
CONTINUOUS
 10
110.1912742297
 20
216.5224955889
  0
VERTEX
  8
0
 62
7
  6
CONTINUOUS
 10
110.1235431846
 20
216.621215352
  0
VERTEX
  8
0
 62
7
  6
CONTINUOUS
 10
110.0810383411
 20
216.7329199511
  0
VERTEX
  8
0
 62
7
  6
CONTINUOUS
 10
110.0660856385
 20
216.8512348394
  0
SEQEND
  0
POLYLINE
  8
0
 62
7
  6
CONTINUOUS
 66
1
 70
0
  0
VERTEX
  8
0
 62
7
  6
CONTINUOUS
 10
47.6011225369
 20
222.4512348394
  0
VERTEX
  8
0
 62
7
  6
CONTINUOUS
 10
47.6745724888
 20
222.4406714807
  0
VERTEX
  8
0
 62
7
  6
CONTINUOUS
 10
47.7327154864
 20
222.4098605199
  0
VERTEX
  8
0
 62
7
  6
CONTINUOUS
 10
47.7553495903
 20
222.3872746307
  0
VERTEX
  8
0
 62
7
  6
CONTINUOUS
 10
47.7850203008
 20
222.3322487927
  0
VERTEX
  8
0
 62
7
  6
CONTINUOUS
 10
47.7940214785
 20
222.2755265498
  0
SEQEND
  0
POLYLINE
  8
0
 62
7
  6
CONTINUOUS
 66
1
 70
0
  0
VERTEX
  8
0
 62
7
  6
CONTINUOUS
 10
73.1940214785
 20
219.7875062145
  0
VERTEX
  8
0
 62
7
  6
CONTINUOUS
 10
73.2084245907
 20
219.7732736218
  0
VERTEX
  8
0
 62
7
  6
CONTINUOUS
 10
73.2508909505
 20
219.760038543
  0
VERTEX
  8
0
 62
7
  6
CONTINUOUS
 10
73.3191022233
 20
219.7485133174
  0
VERTEX
  8
0
 62
7
  6
CONTINUOUS
 10
73.3617173586
 20
219.7435860937
  0
VERTEX
  8
0
 62
7
  6
CONTINUOUS
 10
73.4609232668
 20
219.7357220553
  0
VERTEX
  8
0
 62
7
  6
CONTINUOUS
 10
73.5738807801
 20
219.7308342209
  0
VERTEX
  8
0
 62
7
  6
CONTINUOUS
 10
73.6940214785
 20
219.7291751704
  0
SEQEND
  0
LINE
  8
0
 62
7
  6
CONTINUOUS
 10
79.2940214785
 20
216.8512348394
 11
79.2940214785
 21
224.3512348394
  0
POLYLINE
  8
0
 62
7
  6
CONTINUOUS
 66
1
 70
0
  0
VERTEX
  8
0
 62
7
  6
CONTINUOUS
 10
99.0940214785
 20
221.6732945083
  0
VERTEX
  8
0
 62
7
  6
CONTINUOUS
 10
98.9738807801
 20
221.6716354579
  0
VERTEX
  8
0
 62
7
  6
CONTINUOUS
 10
98.8609232668
 20
221.6667476235
  0
VERTEX
  8
0
 62
7
  6
CONTINUOUS
 10
98.7617173586
 20
221.6588835851
  0
VERTEX
  8
0
 62
7
  6
CONTINUOUS
 10
98.7191022233
 20
221.6539563614
  0
VERTEX
  8
0
 62
7
  6
CONTINUOUS
 10
98.6508909505
 20
221.6424311358
  0
VERTEX
  8
0
 62
7
  6
CONTINUOUS
 10
98.6084245907
 20
221.629196057
  0
VERTEX
  8
0
 62
7
  6
CONTINUOUS
 10
98.5940214785
 20
221.6149634643
  0
SEQEND
  0
POLYLINE
  8
0
 62
7
  6
CONTINUOUS
 66
1
 70
0
  0
VERTEX
  8
0
 62
7
  6
CONTINUOUS
 10
86.3940214785
 20
221.6732945083
  0
VERTEX
  8
0
 62
7
  6
CONTINUOUS
 10
86.2738807801
 20
221.6716354579
  0
VERTEX
  8
0
 62
7
  6
CONTINUOUS
 10
86.1609232668
 20
221.6667476235
  0
VERTEX
  8
0
 62
7
  6
CONTINUOUS
 10
86.0617173586
 20
221.6588835851
  0
VERTEX
  8
0
 62
7
  6
CONTINUOUS
 10
86.0191022233
 20
221.6539563614
  0
VERTEX
  8
0
 62
7
  6
CONTINUOUS
 10
85.9508909505
 20
221.6424311358
  0
VERTEX
  8
0
 62
7
  6
CONTINUOUS
 10
85.9084245907
 20
221.629196057
  0
VERTEX
  8
0
 62
7
  6
CONTINUOUS
 10
85.8940214785
 20
221.6149634643
  0
SEQEND
  0
POLYLINE
  8
0
 62
7
  6
CONTINUOUS
 66
1
 70
0
  0
VERTEX
  8
0
 62
7
  6
CONTINUOUS
 10
73.6940214785
 20
221.6732945083
  0
VERTEX
  8
0
 62
7
  6
CONTINUOUS
 10
73.5738807801
 20
221.6716354579
  0
VERTEX
  8
0
 62
7
  6
CONTINUOUS
 10
73.4609232668
 20
221.6667476235
  0
VERTEX
  8
0
 62
7
  6
CONTINUOUS
 10
73.3617173586
 20
221.6588835851
  0
VERTEX
  8
0
 62
7
  6
CONTINUOUS
 10
73.3191022233
 20
221.6539563614
  0
VERTEX
  8
0
 62
7
  6
CONTINUOUS
 10
73.2508909505
 20
221.6424311358
  0
VERTEX
  8
0
 62
7
  6
CONTINUOUS
 10
73.2084245907
 20
221.629196057
  0
VERTEX
  8
0
 62
7
  6
CONTINUOUS
 10
73.1940214785
 20
221.6149634643
  0
SEQEND
  0
POLYLINE
  8
0
 62
7
  6
CONTINUOUS
 66
1
 70
0
  0
VERTEX
  8
0
 62
7
  6
CONTINUOUS
 10
60.9940214785
 20
221.6732945083
  0
VERTEX
  8
0
 62
7
  6
CONTINUOUS
 10
60.8738807801
 20
221.6716354579
  0
VERTEX
  8
0
 62
7
  6
CONTINUOUS
 10
60.7609232668
 20
221.6667476235
  0
VERTEX
  8
0
 62
7
  6
CONTINUOUS
 10
60.6617173586
 20
221.6588835851
  0
VERTEX
  8
0
 62
7
  6
CONTINUOUS
 10
60.6191022233
 20
221.6539563614
  0
VERTEX
  8
0
 62
7
  6
CONTINUOUS
 10
60.5508909505
 20
221.6424311358
  0
VERTEX
  8
0
 62
7
  6
CONTINUOUS
 10
60.5084245907
 20
221.629196057
  0
VERTEX
  8
0
 62
7
  6
CONTINUOUS
 10
60.4940214785
 20
221.6149634643
  0
SEQEND
  0
POLYLINE
  8
0
 62
7
  6
CONTINUOUS
 66
1
 70
0
  0
VERTEX
  8
0
 62
7
  6
CONTINUOUS
 10
35.5940214785
 20
221.6732945083
  0
VERTEX
  8
0
 62
7
  6
CONTINUOUS
 10
35.4738807801
 20
221.6716354579
  0
VERTEX
  8
0
 62
7
  6
CONTINUOUS
 10
35.3609232668
 20
221.6667476235
  0
VERTEX
  8
0
 62
7
  6
CONTINUOUS
 10
35.2617173586
 20
221.6588835851
  0
VERTEX
  8
0
 62
7
  6
CONTINUOUS
 10
35.2191022233
 20
221.6539563614
  0
VERTEX
  8
0
 62
7
  6
CONTINUOUS
 10
35.1508909505
 20
221.6424311358
  0
VERTEX
  8
0
 62
7
  6
CONTINUOUS
 10
35.1084245907
 20
221.629196057
  0
VERTEX
  8
0
 62
7
  6
CONTINUOUS
 10
35.0940214785
 20
221.6149634643
  0
SEQEND
  0
LINE
  8
0
 62
7
  6
CONTINUOUS
 10
26.1940214785
 20
221.6732945083
 11
27.9940214785
 21
221.6732945083
  0
LINE
  8
0
 62
7
  6
CONTINUOUS
 10
35.5940214785
 20
221.6732945083
 11
40.6940214785
 21
221.6732945083
  0
LINE
  8
0
 62
7
  6
CONTINUOUS
 10
48.2940214785
 20
221.6732945083
 11
53.3940214785
 21
221.6732945083
  0
LINE
  8
0
 62
7
  6
CONTINUOUS
 10
60.9940214785
 20
221.6732945083
 11
66.0940214785
 21
221.6732945083
  0
LINE
  8
0
 62
7
  6
CONTINUOUS
 10
73.6940214785
 20
221.6732945083
 11
78.7940214785
 21
221.6732945083
  0
LINE
  8
0
 62
7
  6
CONTINUOUS
 10
86.3940214785
 20
221.6732945083
 11
91.4940214785
 21
221.6732945083
  0
LINE
  8
0
 62
7
  6
CONTINUOUS
 10
99.0940214785
 20
221.6732945083
 11
104.1940214785
 21
221.6732945083
  0
LINE
  8
0
 62
7
  6
CONTINUOUS
 10
111.7940214785
 20
221.6732945083
 11
116.8940214785
 21
221.6732945083
  0
LINE
  8
0
 62
7
  6
CONTINUOUS
 10
124.4940214785
 20
221.6732945083
 11
126.2940214785
 21
221.6732945083
  0
LINE
  8
2_FEATURE
 62
7
  6
CONTINUOUS
 10
98.4190213951
 20
222.3512348394
 11
98.2002714785
 21
222.3512348394
  0
LINE
  8
2_FEATURE
 62
7
  6
CONTINUOUS
 10
96.981521562
 20
222.3512348394
 11
92.2065218123
 21
222.3512348394
  0
LINE
  8
2_FEATURE
 62
7
  6
CONTINUOUS
 10
73.1747827558
 20
222.3512348394
 11
70.0690213951
 21
222.3512348394
  0
LINE
  8
2_FEATURE
 62
7
  6
CONTINUOUS
 10
69.9190216693
 20
222.3512348394
 11
66.6132639109
 21
222.3512348394
  0
LINE
  8
2_FEATURE
 62
7
  6
CONTINUOUS
 10
47.7747827558
 20
222.3512348394
 11
47.4440214785
 21
222.3512348394
  0
LINE
  8
2_FEATURE
 62
7
  6
CONTINUOUS
 10
47.2440216693
 20
222.3512348394
 11
46.7540214785
 21
222.3512348394
  0
LINE
  8
2_FEATURE
 62
7
  6
CONTINUOUS
 10
43.8190212878
 20
222.3512348394
 11
43.7840214785
 21
222.3512348394
  0
LINE
  8
1_AXIS
 62
7
  6
CONTINUOUS
 10
46.7540214785
 20
222.3512348394
 11
43.9040214785
 21
222.3512348394
  0
LINE
  8
1_AXIS
 62
7
  6
CONTINUOUS
 10
43.7840214785
 20
222.3512348394
 11
42.0740214785
 21
222.3512348394
  0
LINE
  8
2_FEATURE
 62
7
  6
CONTINUOUS
 10
42.0740214785
 20
222.3512348394
 11
41.49402186
 21
222.3512348394
  0
LINE
  8
2_FEATURE
 62
7
  6
CONTINUOUS
 10
41.2940214785
 20
222.3512348394
 11
41.2132639109
 21
222.3512348394
  0
LINE
  8
2_FEATURE
 62
7
  6
CONTINUOUS
 10
28.4940214785
 20
222.4512348394
 11
35.0940214785
 21
222.4512348394
  0
LINE
  8
0
 62
7
  6
CONTINUOUS
 10
41.3869204201
 20
222.4512348394
 11
41.6940214785
 21
222.4512348394
  0
LINE
  8
2_FEATURE
 62
7
  6
CONTINUOUS
 10
41.6940214785
 20
222.4512348394
 11
47.2940214785
 21
222.4512348394
  0
LINE
  8
0
 62
7
  6
CONTINUOUS
 10
47.2940214785
 20
222.4512348394
 11
47.6011225369
 21
222.4512348394
  0
LINE
  8
2_FEATURE
 62
7
  6
CONTINUOUS
 10
53.8940214785
 20
222.4512348394
 11
60.4940214785
 21
222.4512348394
  0
LINE
  8
0
 62
7
  6
CONTINUOUS
 10
66.7869204201
 20
222.4512348394
 11
67.0940214785
 21
222.4512348394
  0
LINE
  8
2_FEATURE
 62
7
  6
CONTINUOUS
 10
67.0940214785
 20
222.4512348394
 11
72.6940214785
 21
222.4512348394
  0
LINE
  8
0
 62
7
  6
CONTINUOUS
 10
72.6940214785
 20
222.4512348394
 11
73.0011225369
 21
222.4512348394
  0
LINE
  8
2_FEATURE
 62
7
  6
CONTINUOUS
 10
79.2940214785
 20
222.4512348394
 11
85.8940214785
 21
222.4512348394
  0
LINE
  8
0
 62
7
  6
CONTINUOUS
 10
92.1869204201
 20
222.4512348394
 11
92.4940214785
 21
222.4512348394
  0
LINE
  8
2_FEATURE
 62
7
  6
CONTINUOUS
 10
92.4940214785
 20
222.4512348394
 11
98.0940214785
 21
222.4512348394
  0
LINE
  8
0
 62
7
  6
CONTINUOUS
 10
98.0940214785
 20
222.4512348394
 11
98.4011225369
 21
222.4512348394
  0
LINE
  8
2_FEATURE
 62
7
  6
CONTINUOUS
 10
104.6940214785
 20
222.4512348394
 11
111.2940214785
 21
222.4512348394
  0
LINE
  8
2_FEATURE
 62
7
  6
CONTINUOUS
 10
117.3940214785
 20
222.4512348394
 11
123.9940214785
 21
222.4512348394
  0
POLYLINE
  8
0
 62
7
  6
CONTINUOUS
 66
1
 70
0
  0
VERTEX
  8
0
 62
7
  6
CONTINUOUS
 10
40.6940214785
 20
221.6732945083
  0
VERTEX
  8
0
 62
7
  6
CONTINUOUS
 10
40.814162177
 20
221.6716354579
  0
VERTEX
  8
0
 62
7
  6
CONTINUOUS
 10
40.9271196903
 20
221.6667476235
  0
VERTEX
  8
0
 62
7
  6
CONTINUOUS
 10
41.0263255985
 20
221.6588835851
  0
VERTEX
  8
0
 62
7
  6
CONTINUOUS
 10
41.0689407338
 20
221.6539563614
  0
VERTEX
  8
0
 62
7
  6
CONTINUOUS
 10
41.1371520066
 20
221.6424311358
  0
VERTEX
  8
0
 62
7
  6
CONTINUOUS
 10
41.1796183663
 20
221.629196057
  0
VERTEX
  8
0
 62
7
  6
CONTINUOUS
 10
41.1940214785
 20
221.6149634643
  0
SEQEND
  0
POLYLINE
  8
0
 62
7
  6
CONTINUOUS
 66
1
 70
0
  0
VERTEX
  8
0
 62
7
  6
CONTINUOUS
 10
73.0011225369
 20
222.4512348394
  0
VERTEX
  8
0
 62
7
  6
CONTINUOUS
 10
73.0745724888
 20
222.4406714807
  0
VERTEX
  8
0
 62
7
  6
CONTINUOUS
 10
73.1327154864
 20
222.4098605199
  0
VERTEX
  8
0
 62
7
  6
CONTINUOUS
 10
73.1553495903
 20
222.3872746307
  0
VERTEX
  8
0
 62
7
  6
CONTINUOUS
 10
73.1850203008
 20
222.3322487927
  0
VERTEX
  8
0
 62
7
  6
CONTINUOUS
 10
73.1940214785
 20
222.2755265498
  0
SEQEND
  0
POLYLINE
  8
0
 62
7
  6
CONTINUOUS
 66
1
 70
0
  0
VERTEX
  8
0
 62
7
  6
CONTINUOUS
 10
79.2940214785
 20
221.6149634643
  0
VERTEX
  8
0
 62
7
  6
CONTINUOUS
 10
79.2796183663
 20
221.629196057
  0
VERTEX
  8
0
 62
7
  6
CONTINUOUS
 10
79.2371520066
 20
221.6424311358
  0
VERTEX
  8
0
 62
7
  6
CONTINUOUS
 10
79.1689407338
 20
221.6539563614
  0
VERTEX
  8
0
 62
7
  6
CONTINUOUS
 10
79.1263255985
 20
221.6588835851
  0
VERTEX
  8
0
 62
7
  6
CONTINUOUS
 10
79.0271196903
 20
221.6667476235
  0
VERTEX
  8
0
 62
7
  6
CONTINUOUS
 10
78.914162177
 20
221.6716354579
  0
VERTEX
  8
0
 62
7
  6
CONTINUOUS
 10
78.7940214785
 20
221.6732945083
  0
SEQEND
  0
LINE
  8
0
 62
7
  6
CONTINUOUS
 10
81.1440214785
 20
216.8512348394
 11
81.1440214785
 21
218.6281970144
  0
POLYLINE
  8
0
 62
7
  6
CONTINUOUS
 66
1
 70
0
  0
VERTEX
  8
0
 62
7
  6
CONTINUOUS
 10
79.8947153168
 20
216.7059204037
  0
VERTEX
  8
0
 62
7
  6
CONTINUOUS
 10
79.9016741566
 20
216.7319498892
  0
VERTEX
  8
0
 62
7
  6
CONTINUOUS
 10
79.9152957209
 20
216.8512348394
  0
SEQEND
  0
LINE
  8
0
 62
7
  6
CONTINUOUS
 10
79.894715883
 20
216.7059222186
 11
80.1269037329
 21
217.4888916586
  0
LINE
  8
0
 62
7
  6
CONTINUOUS
 10
80.1269084587
 20
217.4889075612
 11
80.1302648386
 21
217.4994466673
  0
LINE
  8
0
 62
7
  6
CONTINUOUS
 10
84.0703800169
 20
222.4502444942
 11
83.5713703621
 21
221.9512348394
  0
LINE
  8
0
 62
7
  6
CONTINUOUS
 10
26.1940214785
 20
224.8512348394
 11
126.2940214785
 21
224.8512348394
  0
POLYLINE
  8
0
 62
7
  6
CONTINUOUS
 66
1
 70
0
  0
VERTEX
  8
0
 62
7
  6
CONTINUOUS
 10
98.4011225369
 20
222.4512348394
  0
VERTEX
  8
0
 62
7
  6
CONTINUOUS
 10
98.4745724888
 20
222.4406714807
  0
VERTEX
  8
0
 62
7
  6
CONTINUOUS
 10
98.5327154864
 20
222.4098605199
  0
VERTEX
  8
0
 62
7
  6
CONTINUOUS
 10
98.5553495903
 20
222.3872746307
  0
VERTEX
  8
0
 62
7
  6
CONTINUOUS
 10
98.5850203008
 20
222.3322487927
  0
VERTEX
  8
0
 62
7
  6
CONTINUOUS
 10
98.5940214785
 20
222.2755265498
  0
SEQEND
  0
LINE
  8
0
 62
7
  6
CONTINUOUS
 10
81.616672595
 20
221.9512348394
 11
81.1176629402
 21
222.4502444942
  0
POLYLINE
  8
0
 62
7
  6
CONTINUOUS
 66
1
 70
0
  0
VERTEX
  8
0
 62
7
  6
CONTINUOUS
 10
85.0582351818
 20
217.4982919037
  0
VERTEX
  8
0
 62
7
  6
CONTINUOUS
 10
85.0577328945
 20
217.4995716266
  0
VERTEX
  8
0
 62
7
  6
CONTINUOUS
 10
85.061134813
 20
217.4889065002
  0
SEQEND
  0
LINE
  8
0
 62
7
  6
CONTINUOUS
 10
84.0440214785
 20
216.8512348394
 11
84.0440214785
 21
218.6281970226
  0
LINE
  8
0
 62
7
  6
CONTINUOUS
 10
85.8940214785
 20
216.8512348394
 11
85.8940214785
 21
224.3512348394
  0
LINE
  8
0
 62
7
  6
CONTINUOUS
 10
85.0611392241
 20
217.4888916586
 11
85.293327074
 21
216.7059222186
  0
POLYLINE
  8
0
 62
7
  6
CONTINUOUS
 66
1
 70
0
  0
VERTEX
  8
0
 62
7
  6
CONTINUOUS
 10
85.2933276403
 20
216.7059204037
  0
VERTEX
  8
0
 62
7
  6
CONTINUOUS
 10
85.2863688005
 20
216.7319498892
  0
VERTEX
  8
0
 62
7
  6
CONTINUOUS
 10
85.2727472362
 20
216.8512348394
  0
SEQEND
  0
POLYLINE
  8
0
 62
7
  6
CONTINUOUS
 66
1
 70
0
  0
VERTEX
  8
0
 62
7
  6
CONTINUOUS
 10
91.9940214785
 20
221.6149634643
  0
VERTEX
  8
0
 62
7
  6
CONTINUOUS
 10
91.9796183663
 20
221.629196057
  0
VERTEX
  8
0
 62
7
  6
CONTINUOUS
 10
91.9371520066
 20
221.6424311358
  0
VERTEX
  8
0
 62
7
  6
CONTINUOUS
 10
91.8689407338
 20
221.6539563614
  0
VERTEX
  8
0
 62
7
  6
CONTINUOUS
 10
91.8263255985
 20
221.6588835851
  0
VERTEX
  8
0
 62
7
  6
CONTINUOUS
 10
91.7271196903
 20
221.6667476235
  0
VERTEX
  8
0
 62
7
  6
CONTINUOUS
 10
91.614162177
 20
221.6716354579
  0
VERTEX
  8
0
 62
7
  6
CONTINUOUS
 10
91.4940214785
 20
221.6732945083
  0
SEQEND
  0
LINE
  8
0
 62
7
  6
CONTINUOUS
 10
91.9940214785
 20
216.8512360924
 11
91.9940214785
 21
224.3512348394
  0
LINE
  8
2_FEATURE
 62
7
  6
CONTINUOUS
 10
92.2065218123
 20
222.4512348394
 11
92.2065218123
 21
222.3512348394
  0
LINE
  8
0
 62
7
  6
CONTINUOUS
 10
92.2440214785
 20
222.3512348394
 11
92.2440214785
 21
216.8513039351
  0
LINE
  8
2_FEATURE
 62
7
  6
CONTINUOUS
 10
92.2502711447
 20
222.4512348394
 11
92.2502711447
 21
222.3512348394
  0
LINE
  8
2_FEATURE
 62
7
  6
CONTINUOUS
 10
92.3815211447
 20
222.4512348394
 11
92.3815211447
 21
222.3512348394
  0
LINE
  8
2_FEATURE
 62
7
  6
CONTINUOUS
 10
92.5565214785
 20
222.4512348394
 11
92.5565214785
 21
222.3512348394
  0
LINE
  8
2_FEATURE
 62
7
  6
CONTINUOUS
 10
92.7752711447
 20
222.4512348394
 11
92.7752711447
 21
222.3512348394
  0
LINE
  8
2_FEATURE
 62
7
  6
CONTINUOUS
 10
93.3940214785
 20
222.4512348394
 11
93.3940214785
 21
222.3512348394
  0
POLYLINE
  8
0
 62
7
  6
CONTINUOUS
 66
1
 70
0
  0
VERTEX
  8
0
 62
7
  6
CONTINUOUS
 10
91.9940214785
 20
222.2755265498
  0
VERTEX
  8
0
 62
7
  6
CONTINUOUS
 10
92.0030736107
 20
222.3324061746
  0
VERTEX
  8
0
 62
7
  6
CONTINUOUS
 10
92.0329164696
 20
222.3875469631
  0
VERTEX
  8
0
 62
7
  6
CONTINUOUS
 10
92.055585157
 20
222.4100698687
  0
VERTEX
  8
0
 62
7
  6
CONTINUOUS
 10
92.1135361518
 20
222.4406922156
  0
VERTEX
  8
0
 62
7
  6
CONTINUOUS
 10
92.1869204201
 20
222.4512348394
  0
SEQEND
  0
POLYLINE
  8
0
 62
7
  6
CONTINUOUS
 66
1
 70
0
  0
VERTEX
  8
0
 62
7
  6
CONTINUOUS
 10
111.8671757137
 20
217.6952415413
  0
VERTEX
  8
0
 62
7
  6
CONTINUOUS
 10
112.2784613007
 20
217.8658605421
  0
VERTEX
  8
0
 62
7
  6
CONTINUOUS
 10
112.6604151599
 20
218.0425156726
  0
VERTEX
  8
0
 62
7
  6
CONTINUOUS
 10
112.9866875631
 20
218.2102790001
  0
SEQEND
  0
POLYLINE
  8
0
 62
7
  6
CONTINUOUS
 66
1
 70
0
  0
VERTEX
  8
0
 62
7
  6
CONTINUOUS
 10
98.5940214785
 20
219.7875062145
  0
VERTEX
  8
0
 62
7
  6
CONTINUOUS
 10
98.6084245907
 20
219.7732736218
  0
VERTEX
  8
0
 62
7
  6
CONTINUOUS
 10
98.6508909505
 20
219.760038543
  0
VERTEX
  8
0
 62
7
  6
CONTINUOUS
 10
98.7191022233
 20
219.7485133174
  0
VERTEX
  8
0
 62
7
  6
CONTINUOUS
 10
98.7617173586
 20
219.7435860937
  0
VERTEX
  8
0
 62
7
  6
CONTINUOUS
 10
98.8609232668
 20
219.7357220553
  0
VERTEX
  8
0
 62
7
  6
CONTINUOUS
 10
98.9738807801
 20
219.7308342209
  0
VERTEX
  8
0
 62
7
  6
CONTINUOUS
 10
99.0940214785
 20
219.7291751704
  0
SEQEND
  0
LINE
  8
2_FEATURE
 62
7
  6
CONTINUOUS
 10
94.4440214785
 20
222.4512348394
 11
94.4440214785
 21
222.3512348394
  0
LINE
  8
2_FEATURE
 62
7
  6
CONTINUOUS
 10
94.6627715202
 20
222.4512348394
 11
94.6627715202
 21
222.3512348394
  0
LINE
  8
2_FEATURE
 62
7
  6
CONTINUOUS
 10
94.8377714785
 20
222.4512348394
 11
94.8377714785
 21
222.3512348394
  0
LINE
  8
2_FEATURE
 62
7
  6
CONTINUOUS
 10
94.9690214785
 20
222.4512348394
 11
94.9690214785
 21
222.3512348394
  0
LINE
  8
2_FEATURE
 62
7
  6
CONTINUOUS
 10
95.0127714368
 20
222.4512348394
 11
95.0127714368
 21
222.3512348394
  0
LINE
  8
2_FEATURE
 62
7
  6
CONTINUOUS
 10
95.3627714785
 20
222.4512348394
 11
95.3627714785
 21
222.3512348394
  0
LINE
  8
2_FEATURE
 62
7
  6
CONTINUOUS
 10
96.4127714785
 20
222.4512348394
 11
96.4127714785
 21
222.3512348394
  0
LINE
  8
2_FEATURE
 62
7
  6
CONTINUOUS
 10
96.6315213951
 20
222.4512348394
 11
96.6315213951
 21
222.3512348394
  0
LINE
  8
2_FEATURE
 62
7
  6
CONTINUOUS
 10
96.8065214785
 20
222.4512348394
 11
96.8065214785
 21
222.3512348394
  0
LINE
  8
2_FEATURE
 62
7
  6
CONTINUOUS
 10
96.9377714785
 20
222.4512348394
 11
96.9377714785
 21
222.3512348394
  0
LINE
  8
2_FEATURE
 62
7
  6
CONTINUOUS
 10
96.981521562
 20
222.4512348394
 11
96.981521562
 21
222.3512348394
  0
POLYLINE
  8
0
 62
7
  6
CONTINUOUS
 66
1
 70
0
  0
VERTEX
  8
0
 62
7
  6
CONTINUOUS
 10
112.9866900994
 20
218.2102792082
  0
VERTEX
  8
0
 62
7
  6
CONTINUOUS
 10
112.996507482
 20
218.2152101481
  0
VERTEX
  8
0
 62
7
  6
CONTINUOUS
 10
113.0123257404
 20
218.221465009
  0
VERTEX
  8
0
 62
7
  6
CONTINUOUS
 10
113.0278874164
 20
218.2254110779
  0
VERTEX
  8
0
 62
7
  6
CONTINUOUS
 10
113.0446735789
 20
218.2269534009
  0
VERTEX
  8
0
 62
7
  6
CONTINUOUS
 10
113.0625990256
 20
218.2253312995
  0
VERTEX
  8
0
 62
7
  6
CONTINUOUS
 10
113.0804370583
 20
218.2205443234
  0
VERTEX
  8
0
 62
7
  6
CONTINUOUS
 10
113.0975510465
 20
218.213287727
  0
VERTEX
  8
0
 62
7
  6
CONTINUOUS
 10
113.1139882599
 20
218.2040793839
  0
VERTEX
  8
0
 62
7
  6
CONTINUOUS
 10
113.1296820875
 20
218.1933433374
  0
VERTEX
  8
0
 62
7
  6
CONTINUOUS
 10
113.144731297
 20
218.1812930463
  0
VERTEX
  8
0
 62
7
  6
CONTINUOUS
 10
113.15936357
 20
218.1679060572
  0
VERTEX
  8
0
 62
7
  6
CONTINUOUS
 10
113.1735380216
 20
218.1532964715
  0
VERTEX
  8
0
 62
7
  6
CONTINUOUS
 10
113.1872907601
 20
218.1374733582
  0
VERTEX
  8
0
 62
7
  6
CONTINUOUS
 10
113.2006989074
 20
218.1203302888
  0
VERTEX
  8
0
 62
7
  6
CONTINUOUS
 10
113.2137320343
 20
218.101834779
  0
VERTEX
  8
0
 62
7
  6
CONTINUOUS
 10
113.2262574214
 20
218.0820776828
  0
VERTEX
  8
0
 62
7
  6
CONTINUOUS
 10
113.2381431418
 20
218.0611617269
  0
VERTEX
  8
0
 62
7
  6
CONTINUOUS
 10
113.2492422178
 20
218.0392284495
  0
VERTEX
  8
0
 62
7
  6
CONTINUOUS
 10
113.2594133966
 20
218.0164340566
  0
VERTEX
  8
0
 62
7
  6
CONTINUOUS
 10
113.2685152183
 20
217.9929563983
  0
VERTEX
  8
0
 62
7
  6
CONTINUOUS
 10
113.2764250457
 20
217.9689529878
  0
VERTEX
  8
0
 62
7
  6
CONTINUOUS
 10
113.2830072296
 20
217.9446455065
  0
VERTEX
  8
0
 62
7
  6
CONTINUOUS
 10
113.2881448882
 20
217.9202452214
  0
VERTEX
  8
0
 62
7
  6
CONTINUOUS
 10
113.2917265328
 20
217.8960196481
  0
VERTEX
  8
0
 62
7
  6
CONTINUOUS
 10
113.2936691268
 20
217.8721958774
  0
VERTEX
  8
0
 62
7
  6
CONTINUOUS
 10
113.2940217855
 20
217.8572931884
  0
SEQEND
  0
POLYLINE
  8
0
 62
7
  6
CONTINUOUS
 66
1
 70
0
  0
VERTEX
  8
0
 62
7
  6
CONTINUOUS
 10
104.6940214785
 20
221.6149634643
  0
VERTEX
  8
0
 62
7
  6
CONTINUOUS
 10
104.6796183663
 20
221.629196057
  0
VERTEX
  8
0
 62
7
  6
CONTINUOUS
 10
104.6371520066
 20
221.6424311358
  0
VERTEX
  8
0
 62
7
  6
CONTINUOUS
 10
104.5689407338
 20
221.6539563614
  0
VERTEX
  8
0
 62
7
  6
CONTINUOUS
 10
104.5263255985
 20
221.6588835851
  0
VERTEX
  8
0
 62
7
  6
CONTINUOUS
 10
104.4271196903
 20
221.6667476235
  0
VERTEX
  8
0
 62
7
  6
CONTINUOUS
 10
104.314162177
 20
221.6716354579
  0
VERTEX
  8
0
 62
7
  6
CONTINUOUS
 10
104.1940214785
 20
221.6732945083
  0
SEQEND
  0
LINE
  8
2_FEATURE
 62
7
  6
CONTINUOUS
 10
98.2002714785
 20
222.4512348394
 11
98.2002714785
 21
222.3512348394
  0
LINE
  8
0
 62
7
  6
CONTINUOUS
 10
98.3440214785
 20
216.8513039351
 11
98.3440214785
 21
222.3512348394
  0
LINE
  8
2_FEATURE
 62
7
  6
CONTINUOUS
 10
98.4190213951
 20
222.4512348394
 11
98.4190213951
 21
222.3512348394
  0
LINE
  8
0
 62
7
  6
CONTINUOUS
 10
98.5940214785
 20
216.8512360924
 11
98.5940214785
 21
224.3512348394
  0
LINE
  8
0
 62
7
  6
CONTINUOUS
 10
109.4703800169
 20
222.4502444942
 11
108.9713703621
 21
221.9512348394
  0
POLYLINE
  8
0
 62
7
  6
CONTINUOUS
 66
1
 70
0
  0
VERTEX
  8
0
 62
7
  6
CONTINUOUS
 10
111.2940214785
 20
221.6149634643
  0
VERTEX
  8
0
 62
7
  6
CONTINUOUS
 10
111.3084245907
 20
221.629196057
  0
VERTEX
  8
0
 62
7
  6
CONTINUOUS
 10
111.3508909505
 20
221.6424311358
  0
VERTEX
  8
0
 62
7
  6
CONTINUOUS
 10
111.4191022233
 20
221.6539563614
  0
VERTEX
  8
0
 62
7
  6
CONTINUOUS
 10
111.4617173586
 20
221.6588835851
  0
VERTEX
  8
0
 62
7
  6
CONTINUOUS
 10
111.5609232668
 20
221.6667476235
  0
VERTEX
  8
0
 62
7
  6
CONTINUOUS
 10
111.6738807801
 20
221.6716354579
  0
VERTEX
  8
0
 62
7
  6
CONTINUOUS
 10
111.7940214785
 20
221.6732945083
  0
SEQEND
  0
LINE
  8
0
 62
7
  6
CONTINUOUS
 10
107.016672595
 20
221.9512348394
 11
106.5176629402
 21
222.4502444942
  0
LINE
  8
0
 62
7
  6
CONTINUOUS
 10
104.6940214785
 20
216.8512348394
 11
104.6940214785
 21
224.3512348394
  0
LINE
  8
0
 62
7
  6
CONTINUOUS
 10
106.5440214785
 20
216.8512348394
 11
106.5440214785
 21
218.6281970342
  0
POLYLINE
  8
0
 62
7
  6
CONTINUOUS
 66
1
 70
0
  0
VERTEX
  8
0
 62
7
  6
CONTINUOUS
 10
105.2947153168
 20
216.7059204037
  0
VERTEX
  8
0
 62
7
  6
CONTINUOUS
 10
105.3016741566
 20
216.7319498892
  0
VERTEX
  8
0
 62
7
  6
CONTINUOUS
 10
105.3152957209
 20
216.8512348394
  0
SEQEND
  0
LINE
  8
0
 62
7
  6
CONTINUOUS
 10
105.294715883
 20
216.7059222186
 11
105.5269037329
 21
217.4888916586
  0
LINE
  8
0
 62
7
  6
CONTINUOUS
 10
105.5269084587
 20
217.4889075612
 11
105.5302648386
 21
217.4994466673
  0
POLYLINE
  8
0
 62
7
  6
CONTINUOUS
 66
1
 70
0
  0
VERTEX
  8
0
 62
7
  6
CONTINUOUS
 10
117.3940214785
 20
221.6149634643
  0
VERTEX
  8
0
 62
7
  6
CONTINUOUS
 10
117.3796183663
 20
221.629196057
  0
VERTEX
  8
0
 62
7
  6
CONTINUOUS
 10
117.3371520066
 20
221.6424311358
  0
VERTEX
  8
0
 62
7
  6
CONTINUOUS
 10
117.2689407338
 20
221.6539563614
  0
VERTEX
  8
0
 62
7
  6
CONTINUOUS
 10
117.2263255985
 20
221.6588835851
  0
VERTEX
  8
0
 62
7
  6
CONTINUOUS
 10
117.1271196903
 20
221.6667476235
  0
VERTEX
  8
0
 62
7
  6
CONTINUOUS
 10
117.014162177
 20
221.6716354579
  0
VERTEX
  8
0
 62
7
  6
CONTINUOUS
 10
116.8940214785
 20
221.6732945083
  0
SEQEND
  0
POLYLINE
  8
0
 62
7
  6
CONTINUOUS
 66
1
 70
0
  0
VERTEX
  8
0
 62
7
  6
CONTINUOUS
 10
119.5234451635
 20
218.1533708917
  0
VERTEX
  8
0
 62
7
  6
CONTINUOUS
 10
119.5367801871
 20
218.1380915502
  0
VERTEX
  8
0
 62
7
  6
CONTINUOUS
 10
119.550221538
 20
218.1209719133
  0
VERTEX
  8
0
 62
7
  6
CONTINUOUS
 10
119.5632836478
 20
218.1025040437
  0
SEQEND
  0
POLYLINE
  8
0
 62
7
  6
CONTINUOUS
 66
1
 70
0
  0
VERTEX
  8
0
 62
7
  6
CONTINUOUS
 10
110.4582351818
 20
217.4982919037
  0
VERTEX
  8
0
 62
7
  6
CONTINUOUS
 10
110.4577328945
 20
217.4995716266
  0
VERTEX
  8
0
 62
7
  6
CONTINUOUS
 10
110.461134813
 20
217.4889065002
  0
SEQEND
  0
LINE
  8
0
 62
7
  6
CONTINUOUS
 10
109.4440214785
 20
216.8512348394
 11
109.4440214785
 21
218.6281970226
  0
LINE
  8
0
 62
7
  6
CONTINUOUS
 10
122.1702637113
 20
222.4502552772
 11
121.6712432735
 21
221.9512348394
  0
LINE
  8
0
 62
7
  6
CONTINUOUS
 10
119.716672595
 20
221.9512348394
 11
119.2176629402
 21
222.4502444942
  0
LINE
  8
0
 62
7
  6
CONTINUOUS
 10
113.2236537518
 20
218.0863621994
 11
113.2680187915
 21
217.9942369045
  0
LINE
  8
0
 62
7
  6
CONTINUOUS
 10
110.4611392241
 20
217.4888916586
 11
110.693327074
 21
216.7059222186
  0
POLYLINE
  8
0
 62
7
  6
CONTINUOUS
 66
1
 70
0
  0
VERTEX
  8
0
 62
7
  6
CONTINUOUS
 10
110.6933276403
 20
216.7059204037
  0
VERTEX
  8
0
 62
7
  6
CONTINUOUS
 10
110.6863688005
 20
216.7319498892
  0
VERTEX
  8
0
 62
7
  6
CONTINUOUS
 10
110.6727472362
 20
216.8512348394
  0
SEQEND
  0
POLYLINE
  8
0
 62
7
  6
CONTINUOUS
 66
1
 70
0
  0
VERTEX
  8
0
 62
7
  6
CONTINUOUS
 10
111.2940210845
 20
218.2101617321
  0
VERTEX
  8
0
 62
7
  6
CONTINUOUS
 10
111.3038066247
 20
218.0814087627
  0
VERTEX
  8
0
 62
7
  6
CONTINUOUS
 10
111.3367211059
 20
217.9544698537
  0
VERTEX
  8
0
 62
7
  6
CONTINUOUS
 10
111.3910631379
 20
217.8474401456
  0
VERTEX
  8
0
 62
7
  6
CONTINUOUS
 10
111.4616391206
 20
217.7653757363
  0
VERTEX
  8
0
 62
7
  6
CONTINUOUS
 10
111.5012473921
 20
217.7339347297
  0
VERTEX
  8
0
 62
7
  6
CONTINUOUS
 10
111.5873145974
 20
217.6890548068
  0
VERTEX
  8
0
 62
7
  6
CONTINUOUS
 10
111.6809576143
 20
217.6677900988
  0
VERTEX
  8
0
 62
7
  6
CONTINUOUS
 10
111.7800613058
 20
217.6711844988
  0
VERTEX
  8
0
 62
7
  6
CONTINUOUS
 10
111.8671704644
 20
217.6952393789
  0
SEQEND
  0
LINE
  8
0
 62
7
  6
CONTINUOUS
 10
111.2940214785
 20
216.8512348394
 11
111.2940214785
 21
224.3512348394
  0
LINE
  8
0
 62
7
  6
CONTINUOUS
 10
112.8940214785
 20
216.8512348394
 11
112.8940214785
 21
217.2156324488
  0
LINE
  8
0
 62
7
  6
CONTINUOUS
 10
113.2940214785
 20
217.8572918706
 11
113.2940214785
 21
216.5512348394
  0
POLYLINE
  8
0
 62
7
  6
CONTINUOUS
 66
1
 70
0
  0
VERTEX
  8
0
 62
7
  6
CONTINUOUS
 10
112.8940210911
 20
217.215593598
  0
VERTEX
  8
0
 62
7
  6
CONTINUOUS
 10
112.9131258493
 20
217.4367042617
  0
VERTEX
  8
0
 62
7
  6
CONTINUOUS
 10
112.9747755842
 20
217.6890569688
  0
VERTEX
  8
0
 62
7
  6
CONTINUOUS
 10
113.0727763834
 20
217.9390480555
  0
SEQEND
  0
POLYLINE
  8
0
 62
7
  6
CONTINUOUS
 66
1
 70
0
  0
VERTEX
  8
0
 62
7
  6
CONTINUOUS
 10
113.1231254986
 20
218.0492762706
  0
VERTEX
  8
0
 62
7
  6
CONTINUOUS
 10
113.1400375385
 20
218.088036502
  0
VERTEX
  8
0
 62
7
  6
CONTINUOUS
 10
113.1453355648
 20
218.0999047026
  0
VERTEX
  8
0
 62
7
  6
CONTINUOUS
 10
113.1506599207
 20
218.1114129711
  0
VERTEX
  8
0
 62
7
  6
CONTINUOUS
 10
113.156038488
 20
218.1224860501
  0
VERTEX
  8
0
 62
7
  6
CONTINUOUS
 10
113.1614424654
 20
218.1329809575
  0
VERTEX
  8
0
 62
7
  6
CONTINUOUS
 10
113.1668973511
 20
218.1428680538
  0
VERTEX
  8
0
 62
7
  6
CONTINUOUS
 10
113.1725094853
 20
218.1522316279
  0
VERTEX
  8
0
 62
7
  6
CONTINUOUS
 10
113.1733484358
 20
218.1534918773
  0
SEQEND
  0
POLYLINE
  8
0
 62
7
  6
CONTINUOUS
 66
1
 70
0
  0
VERTEX
  8
0
 62
7
  6
CONTINUOUS
 10
113.1106128037
 20
218.0211301784
  0
VERTEX
  8
0
 62
7
  6
CONTINUOUS
 10
113.1169535226
 20
218.0352943615
  0
VERTEX
  8
0
 62
7
  6
CONTINUOUS
 10
113.1231254986
 20
218.0492762706
  0
SEQEND
  0
LINE
  8
0
 62
7
  6
CONTINUOUS
 10
113.0969806975
 20
217.9912203075
 11
113.1106128037
 21
218.0211301784
  0
LINE
  8
0
 62
7
  6
CONTINUOUS
 10
113.0727755836
 20
217.9390492304
 11
113.0969806975
 21
217.9912203075
  0
POLYLINE
  8
0
 62
7
  6
CONTINUOUS
 66
1
 70
0
  0
VERTEX
  8
0
 62
7
  6
CONTINUOUS
 10
126.7940214785
 20
219.7875062145
  0
VERTEX
  8
0
 62
7
  6
CONTINUOUS
 10
126.7796183663
 20
219.7732736218
  0
VERTEX
  8
0
 62
7
  6
CONTINUOUS
 10
126.7371520066
 20
219.760038543
  0
VERTEX
  8
0
 62
7
  6
CONTINUOUS
 10
126.6689407338
 20
219.7485133174
  0
VERTEX
  8
0
 62
7
  6
CONTINUOUS
 10
126.6263255985
 20
219.7435860937
  0
VERTEX
  8
0
 62
7
  6
CONTINUOUS
 10
126.5271196903
 20
219.7357220553
  0
VERTEX
  8
0
 62
7
  6
CONTINUOUS
 10
126.414162177
 20
219.7308342209
  0
VERTEX
  8
0
 62
7
  6
CONTINUOUS
 10
126.2940214785
 20
219.7291751704
  0
SEQEND
  0
POLYLINE
  8
0
 62
7
  6
CONTINUOUS
 66
1
 70
0
  0
VERTEX
  8
0
 62
7
  6
CONTINUOUS
 10
126.7940214785
 20
221.6149634643
  0
VERTEX
  8
0
 62
7
  6
CONTINUOUS
 10
126.7796183663
 20
221.629196057
  0
VERTEX
  8
0
 62
7
  6
CONTINUOUS
 10
126.7371520066
 20
221.6424311358
  0
VERTEX
  8
0
 62
7
  6
CONTINUOUS
 10
126.6689407338
 20
221.6539563614
  0
VERTEX
  8
0
 62
7
  6
CONTINUOUS
 10
126.6263255985
 20
221.6588835851
  0
VERTEX
  8
0
 62
7
  6
CONTINUOUS
 10
126.5271196903
 20
221.6667476235
  0
VERTEX
  8
0
 62
7
  6
CONTINUOUS
 10
126.414162177
 20
221.6716354579
  0
VERTEX
  8
0
 62
7
  6
CONTINUOUS
 10
126.2940214785
 20
221.6732945083
  0
SEQEND
  0
LINE
  8
0
 62
7
  6
CONTINUOUS
 10
119.5632836478
 20
218.1025040437
 11
119.5739574798
 21
218.0857299286
  0
POLYLINE
  8
0
 62
7
  6
CONTINUOUS
 66
1
 70
0
  0
VERTEX
  8
0
 62
7
  6
CONTINUOUS
 10
119.5289216931
 20
218.1614687668
  0
VERTEX
  8
0
 62
7
  6
CONTINUOUS
 10
119.5330731523
 20
218.1542020369
  0
VERTEX
  8
0
 62
7
  6
CONTINUOUS
 10
119.5500051448
 20
218.1253853782
  0
VERTEX
  8
0
 62
7
  6
CONTINUOUS
 10
119.5644202191
 20
218.1014617097
  0
VERTEX
  8
0
 62
7
  6
CONTINUOUS
 10
119.5736317714
 20
218.0864008584
  0
SEQEND
  0
LINE
  8
0
 62
7
  6
CONTINUOUS
 10
117.3940214785
 20
216.8512348394
 11
117.3940214785
 21
224.3512348394
  0
LINE
  8
0
 62
7
  6
CONTINUOUS
 10
117.994715883
 20
216.7059222186
 11
118.2269037329
 21
217.4888916586
  0
LINE
  8
0
 62
7
  6
CONTINUOUS
 10
118.2269084587
 20
217.4889075612
 11
118.2302648386
 21
217.4994466673
  0
POLYLINE
  8
0
 62
7
  6
CONTINUOUS
 66
1
 70
0
  0
VERTEX
  8
0
 62
7
  6
CONTINUOUS
 10
119.4873401688
 20
218.0815488226
  0
VERTEX
  8
0
 62
7
  6
CONTINUOUS
 10
119.49161796
 20
218.0912063523
  0
VERTEX
  8
0
 62
7
  6
CONTINUOUS
 10
119.4957002731
 20
218.1002564848
  0
VERTEX
  8
0
 62
7
  6
CONTINUOUS
 10
119.4996899486
 20
218.1088792382
  0
VERTEX
  8
0
 62
7
  6
CONTINUOUS
 10
119.503641269
 20
218.1171508743
  0
VERTEX
  8
0
 62
7
  6
CONTINUOUS
 10
119.507570324
 20
218.1250744341
  0
VERTEX
  8
0
 62
7
  6
CONTINUOUS
 10
119.5114988685
 20
218.132663543
  0
VERTEX
  8
0
 62
7
  6
CONTINUOUS
 10
119.5154667024
 20
218.1399588038
  0
VERTEX
  8
0
 62
7
  6
CONTINUOUS
 10
119.5195165415
 20
218.1469904858
  0
VERTEX
  8
0
 62
7
  6
CONTINUOUS
 10
119.5236426806
 20
218.1536916756
  0
VERTEX
  8
0
 62
7
  6
CONTINUOUS
 10
119.527915
 20
218.1601003232
  0
VERTEX
  8
0
 62
7
  6
CONTINUOUS
 10
119.5324960015
 20
218.1663274857
  0
VERTEX
  8
0
 62
7
  6
CONTINUOUS
 10
119.5374634664
 20
218.1723249261
  0
VERTEX
  8
0
 62
7
  6
CONTINUOUS
 10
119.5425334749
 20
218.177655289
  0
VERTEX
  8
0
 62
7
  6
CONTINUOUS
 10
119.5479403031
 20
218.1824452888
  0
VERTEX
  8
0
 62
7
  6
CONTINUOUS
 10
119.5525082935
 20
218.1856826921
  0
VERTEX
  8
0
 62
7
  6
CONTINUOUS
 10
119.5541803802
 20
218.1866126448
  0
SEQEND
  0
POLYLINE
  8
0
 62
7
  6
CONTINUOUS
 66
1
 70
0
  0
VERTEX
  8
0
 62
7
  6
CONTINUOUS
 10
119.4669599194
 20
218.0351508552
  0
VERTEX
  8
0
 62
7
  6
CONTINUOUS
 10
119.4725810076
 20
218.0478423817
  0
VERTEX
  8
0
 62
7
  6
CONTINUOUS
 10
119.4873401688
 20
218.0815488226
  0
SEQEND
  0
LINE
  8
0
 62
7
  6
CONTINUOUS
 10
119.4551266518
 20
218.0089278518
 11
119.4669599194
 21
218.0351508552
  0
LINE
  8
0
 62
7
  6
CONTINUOUS
 10
119.4421327924
 20
217.9806777029
 11
119.4551266518
 21
218.0089278518
  0
LINE
  8
0
 62
7
  6
CONTINUOUS
 10
119.4205993162
 20
217.9343716585
 11
119.4421327924
 21
217.9806777029
  0
LINE
  8
0
 62
7
  6
CONTINUOUS
 10
126.7940214785
 20
224.2413479394
 11
126.9940214785
 21
224.025749956
  0
POLYLINE
  8
0
 62
7
  6
CONTINUOUS
 66
1
 70
0
  0
VERTEX
  8
0
 62
7
  6
CONTINUOUS
 10
119.573653294
 20
218.0863629428
  0
VERTEX
  8
0
 62
7
  6
CONTINUOUS
 10
119.6184467052
 20
217.9931473219
  0
VERTEX
  8
0
 62
7
  6
CONTINUOUS
 10
119.6334166806
 20
217.9429316946
  0
VERTEX
  8
0
 62
7
  6
CONTINUOUS
 10
119.6440217399
 20
217.8573531661
  0
SEQEND
  0
POLYLINE
  8
0
 62
7
  6
CONTINUOUS
 66
1
 70
0
  0
VERTEX
  8
0
 62
7
  6
CONTINUOUS
 10
119.618392869
 20
217.9932593556
  0
VERTEX
  8
0
 62
7
  6
CONTINUOUS
 10
119.6261894785
 20
217.9697346631
  0
VERTEX
  8
0
 62
7
  6
CONTINUOUS
 10
119.6328188921
 20
217.9454239068
  0
VERTEX
  8
0
 62
7
  6
CONTINUOUS
 10
119.633179206
 20
217.943728285
  0
SEQEND
  0
LINE
  8
0
 62
7
  6
CONTINUOUS
 10
119.2440214785
 20
216.8512348394
 11
119.2440214785
 21
218.6281970152
  0
LINE
  8
0
 62
7
  6
CONTINUOUS
 10
119.6440214765
 20
217.8573529197
 11
119.6440214785
 21
216.5512348394
  0
POLYLINE
  8
0
 62
7
  6
CONTINUOUS
 66
1
 70
0
  0
VERTEX
  8
0
 62
7
  6
CONTINUOUS
 10
119.2440210955
 20
217.2155930414
  0
VERTEX
  8
0
 62
7
  6
CONTINUOUS
 10
119.2633261666
 20
217.4379122863
  0
VERTEX
  8
0
 62
7
  6
CONTINUOUS
 10
119.3251540449
 20
217.6902396651
  0
VERTEX
  8
0
 62
7
  6
CONTINUOUS
 10
119.4227764749
 20
217.9390480613
  0
SEQEND
  0
POLYLINE
  8
0
 62
7
  6
CONTINUOUS
 66
1
 70
0
  0
VERTEX
  8
0
 62
7
  6
CONTINUOUS
 10
117.9947153168
 20
216.7059204037
  0
VERTEX
  8
0
 62
7
  6
CONTINUOUS
 10
118.0016741566
 20
216.7319498892
  0
VERTEX
  8
0
 62
7
  6
CONTINUOUS
 10
118.0152957209
 20
216.8512348394
  0
SEQEND
  0
LINE
  8
0
 62
7
  6
CONTINUOUS
 10
122.1440214785
 20
216.8512348394
 11
122.1440214785
 21
218.627796789
  0
LINE
  8
0
 62
7
  6
CONTINUOUS
 10
123.9940214785
 20
224.3512348394
 11
123.9940214785
 21
216.8512348394
  0
LINE
  8
0
 62
7
  6
CONTINUOUS
 10
126.7940214785
 20
224.3512348394
 11
126.7940214785
 21
216.8512349213
  0
LINE
  8
0
 62
7
  6
CONTINUOUS
 10
126.9940214785
 20
224.025749956
 11
126.9940214785
 21
218.4878348394
  0
LINE
  8
0
 62
7
  6
CONTINUOUS
 10
126.9940286879
 20
218.4878348394
 11
126.9851081702
 21
218.3933854913
  0
POLYLINE
  8
0
 62
7
  6
CONTINUOUS
 66
1
 70
0
  0
VERTEX
  8
0
 62
7
  6
CONTINUOUS
 10
126.9851081702
 20
218.3933854913
  0
VERTEX
  8
0
 62
7
  6
CONTINUOUS
 10
126.958740827
 20
218.3031482812
  0
VERTEX
  8
0
 62
7
  6
CONTINUOUS
 10
126.9150596985
 20
218.2181557387
  0
SEQEND
  0
CIRCLE
  8
0
 62
7
  6
CONTINUOUS
 10
57.1940214785
 20
104.2676778523
 40
2.0
  0
CIRCLE
  8
0
 62
7
  6
CONTINUOUS
 10
31.7940214785
 20
104.2676778523
 40
2.0
  0
CIRCLE
  8
0
 62
7
  6
CONTINUOUS
 10
57.1940214785
 20
104.2676778523
 40
1.6
  0
CIRCLE
  8
0
 62
7
  6
CONTINUOUS
 10
31.7940214785
 20
104.2676778523
 40
1.6
  0
ARC
  8
0
 62
7
  6
CONTINUOUS
 10
26.1940214785
 20
88.9776778523
 40
0.5
 50
180.0
 51
270.0
  0
ARC
  8
0
 62
7
  6
CONTINUOUS
 10
35.5940214785
 20
88.9776778523
 40
0.5
 50
180.0
 51
270.0
  0
ARC
  8
0
 62
7
  6
CONTINUOUS
 10
27.9940214785
 20
88.9776778523
 40
0.5
 50
270.0
 51
360.0
  0
ARC
  8
0
 62
7
  6
CONTINUOUS
 10
40.6940214785
 20
88.9776778523
 40
0.5
 50
270.0
 51
360.0
  0
ARC
  8
0
 62
7
  6
CONTINUOUS
 10
48.2940214785
 20
88.9776778523
 40
0.5
 50
180.0
 51
270.0
  0
ARC
  8
0
 62
7
  6
CONTINUOUS
 10
60.9940214785
 20
88.9776778523
 40
0.5
 50
180.0
 51
270.0
  0
ARC
  8
0
 62
7
  6
CONTINUOUS
 10
53.3940214785
 20
88.9776778523
 40
0.5
 50
270.0
 51
360.0
  0
ARC
  8
0
 62
7
  6
CONTINUOUS
 10
73.6940214785
 20
88.9776778523
 40
0.5
 50
180.0
 51
270.0
  0
ARC
  8
0
 62
7
  6
CONTINUOUS
 10
66.0940214785
 20
88.9776778523
 40
0.5
 50
270.0
 51
360.0
  0
CIRCLE
  8
0
 62
7
  6
CONTINUOUS
 10
57.1940214785
 20
119.2676778523
 40
2.0
  0
CIRCLE
  8
0
 62
7
  6
CONTINUOUS
 10
31.7940214785
 20
119.2676778523
 40
2.0
  0
CIRCLE
  8
0
 62
7
  6
CONTINUOUS
 10
57.1940214785
 20
119.2676778523
 40
1.6
  0
CIRCLE
  8
0
 62
7
  6
CONTINUOUS
 10
31.7940214785
 20
119.2676778523
 40
1.6
  0
ARC
  8
2_FEATURE
 62
7
  6
CONTINUOUS
 10
26.4940214785
 20
125.1339293536
 40
1.0
 50
144.1408399887
 51
180.0
  0
ARC
  8
0
 62
7
  6
CONTINUOUS
 10
41.9440214785
 20
134.5576778523
 40
0.5
 50
90.0
 51
180.0
  0
ARC
  8
0
 62
7
  6
CONTINUOUS
 10
67.3440214785
 20
134.5576778523
 40
0.5
 50
90.0
 51
180.0
  0
ARC
  8
0
 62
7
  6
CONTINUOUS
 10
29.2440214785
 20
134.5576778523
 40
0.5
 50
90.0
 51
180.0
  0
ARC
  8
0
 62
7
  6
CONTINUOUS
 10
34.3440214785
 20
134.5576778523
 40
0.5
 50
0.0
 51
90.0
  0
ARC
  8
0
 62
7
  6
CONTINUOUS
 10
54.6440214785
 20
134.5576778523
 40
0.5
 50
90.0
 51
180.0
  0
ARC
  8
0
 62
7
  6
CONTINUOUS
 10
47.0440214785
 20
134.5576778523
 40
0.5
 50
0.0
 51
90.0
  0
ARC
  8
0
 62
7
  6
CONTINUOUS
 10
59.7440214785
 20
134.5576778523
 40
0.5
 50
0.0
 51
90.0
  0
ARC
  8
0
 62
7
  6
CONTINUOUS
 10
72.4440214785
 20
134.5576778523
 40
0.5
 50
0.0
 51
90.0
  0
CIRCLE
  8
0
 62
7
  6
CONTINUOUS
 10
107.9940214785
 20
104.2676778523
 40
2.0
  0
CIRCLE
  8
0
 62
7
  6
CONTINUOUS
 10
82.5940214785
 20
104.2676778523
 40
2.0
  0
CIRCLE
  8
0
 62
7
  6
CONTINUOUS
 10
120.6940214785
 20
104.2676778523
 40
2.0
  0
CIRCLE
  8
0
 62
7
  6
CONTINUOUS
 10
82.5940214785
 20
104.2676778523
 40
1.6
  0
CIRCLE
  8
0
 62
7
  6
CONTINUOUS
 10
107.9940214785
 20
104.2676778523
 40
1.6
  0
CIRCLE
  8
0
 62
7
  6
CONTINUOUS
 10
120.6940214785
 20
104.2676778523
 40
1.6
  0
ARC
  8
0
 62
7
  6
CONTINUOUS
 10
116.8940214785
 20
88.9776778523
 40
0.5
 50
270.0
 51
360.0
  0
ARC
  8
0
 62
7
  6
CONTINUOUS
 10
126.2940214785
 20
88.9776778523
 40
0.5
 50
270.0
 51
360.0
  0
ARC
  8
0
 62
7
  6
CONTINUOUS
 10
86.3940214785
 20
88.9776778523
 40
0.5
 50
180.0
 51
270.0
  0
ARC
  8
0
 62
7
  6
CONTINUOUS
 10
78.7940214785
 20
88.9776778523
 40
0.5
 50
270.0
 51
360.0
  0
ARC
  8
0
 62
7
  6
CONTINUOUS
 10
99.0940214785
 20
88.9776778523
 40
0.5
 50
180.0
 51
270.0
  0
ARC
  8
0
 62
7
  6
CONTINUOUS
 10
91.4940214785
 20
88.9776778523
 40
0.5
 50
270.0
 51
360.0
  0
ARC
  8
0
 62
7
  6
CONTINUOUS
 10
111.7940214785
 20
88.9776778523
 40
0.5
 50
180.0
 51
270.0
  0
ARC
  8
0
 62
7
  6
CONTINUOUS
 10
104.1940214785
 20
88.9776778523
 40
0.5
 50
270.0
 51
360.0
  0
ARC
  8
0
 62
7
  6
CONTINUOUS
 10
124.4940214785
 20
88.9776778523
 40
0.5
 50
180.0
 51
270.0
  0
CIRCLE
  8
0
 62
7
  6
CONTINUOUS
 10
120.6940214785
 20
119.2676778523
 40
2.0
  0
CIRCLE
  8
0
 62
7
  6
CONTINUOUS
 10
107.9940214785
 20
119.2676778523
 40
2.0
  0
CIRCLE
  8
0
 62
7
  6
CONTINUOUS
 10
82.5940214785
 20
119.2676778523
 40
2.0
  0
CIRCLE
  8
0
 62
7
  6
CONTINUOUS
 10
82.5940214785
 20
119.2676778523
 40
1.6
  0
CIRCLE
  8
0
 62
7
  6
CONTINUOUS
 10
107.9940214785
 20
119.2676778523
 40
1.6
  0
CIRCLE
  8
0
 62
7
  6
CONTINUOUS
 10
120.6940214785
 20
119.2676778523
 40
1.6
  0
ARC
  8
2_FEATURE
 62
7
  6
CONTINUOUS
 10
125.9940214785
 20
125.1339293536
 40
1.0
 50
0.0
 51
35.8591600113
  0
ARC
  8
0
 62
7
  6
CONTINUOUS
 10
123.2440214785
 20
134.5576778523
 40
0.5
 50
0.0
 51
90.0
  0
ARC
  8
0
 62
7
  6
CONTINUOUS
 10
80.0440214785
 20
134.5576778523
 40
0.5
 50
90.0
 51
180.0
  0
ARC
  8
0
 62
7
  6
CONTINUOUS
 10
118.1440214785
 20
134.5576778523
 40
0.5
 50
90.0
 51
180.0
  0
ARC
  8
0
 62
7
  6
CONTINUOUS
 10
110.5440214785
 20
134.5576778523
 40
0.5
 50
0.0
 51
90.0
  0
ARC
  8
0
 62
7
  6
CONTINUOUS
 10
105.4440214785
 20
134.5576778523
 40
0.5
 50
90.0
 51
180.0
  0
ARC
  8
0
 62
7
  6
CONTINUOUS
 10
97.8440214785
 20
134.5576778523
 40
0.5
 50
0.0
 51
90.0
  0
ARC
  8
0
 62
7
  6
CONTINUOUS
 10
85.1440214785
 20
134.5576778523
 40
0.5
 50
0.0
 51
90.0
  0
ARC
  8
0
 62
7
  6
CONTINUOUS
 10
92.7440214785
 20
134.5576778523
 40
0.5
 50
90.0
 51
180.0
  0
ARC
  8
0
 62
7
  6
CONTINUOUS
 10
166.0178697387
 20
96.3503848926
 40
0.5
 50
311.4951540653
 51
358.6903416646
  0
ARC
  8
0
 62
7
  6
CONTINUOUS
 10
169.2312697387
 20
92.5176778523
 40
5.0489999763
 50
48.818215835
 51
69.7203027258
  0
ARC
  8
0
 62
7
  6
CONTINUOUS
 10
169.2312697387
 20
92.7176778523
 40
4.35
 50
282.9124542829
 51
342.5584061437
  0
ARC
  8
0
 62
7
  6
CONTINUOUS
 10
169.2312697387
 20
92.7176778523
 40
4.35
 50
131.4951540653
 51
257.0875457171
  0
CIRCLE
  8
2_FEATURE
 62
7
  6
CONTINUOUS
 10
169.2312697387
 20
92.7176778523
 40
2.5
  0
ARC
  8
0
 62
7
  6
CONTINUOUS
 10
167.0178697387
 20
125.6339293536
 40
0.5
 50
90.0
 51
180.0
  0
ARC
  8
2_FEATURE
 62
7
  6
CONTINUOUS
 10
169.2312697387
 20
130.8176778523
 40
5.0
 50
290.4873151147
 51
311.5777957855
  0
ARC
  8
0
 62
7
  6
CONTINUOUS
 10
169.2312697387
 20
130.8176778523
 40
5.0
 50
290.4873151147
 51
311.5777957855
  0
ARC
  8
0
 62
7
  6
CONTINUOUS
 10
169.2312697387
 20
130.8176778523
 40
4.35
 50
102.9124542829
 51
180.0
  0
ARC
  8
0
 62
7
  6
CONTINUOUS
 10
169.2312697387
 20
130.8176778523
 40
4.35
 50
17.4415938563
 51
77.0875457171
  0
CIRCLE
  8
2_FEATURE
 62
7
  6
CONTINUOUS
 10
169.2312697387
 20
130.8176778523
 40
2.5
  0
ARC
  8
0
 62
7
  6
CONTINUOUS
 10
172.8812697387
 20
126.7033742377
 40
0.4999997253
 50
0.0
 51
131.5778490799
  0
ARC
  8
0
 62
7
  6
CONTINUOUS
 10
26.1940214785
 20
216.8512348394
 40
0.5
 50
180.0
 51
270.0
  0
ARC
  8
0
 62
7
  6
CONTINUOUS
 10
41.9440214785
 20
216.8512348394
 40
0.5
 50
180.0
 51
270.0
  0
ARC
  8
0
 62
7
  6
CONTINUOUS
 10
48.2940214785
 20
216.8512348394
 40
0.5
 50
180.0
 51
270.0
  0
ARC
  8
0
 62
7
  6
CONTINUOUS
 10
47.0440214785
 20
216.8512348394
 40
0.5
 50
270.0
 51
360.0
  0
ARC
  8
0
 62
7
  6
CONTINUOUS
 10
33.7440214785
 20
216.8512348394
 40
0.5
 50
180.0
 51
270.0
  0
ARC
  8
0
 62
7
  6
CONTINUOUS
 10
35.5940214785
 20
216.8512348394
 40
0.5
 50
180.0
 51
270.0
  0
ARC
  8
0
 62
7
  6
CONTINUOUS
 10
27.9940214785
 20
216.8512348394
 40
0.5
 50
270.0
 51
360.0
  0
ARC
  8
0
 62
7
  6
CONTINUOUS
 10
29.8440214785
 20
216.8512348394
 40
0.5
 50
270.0
 51
360.0
  0
ARC
  8
0
 62
7
  6
CONTINUOUS
 10
32.6440214785
 20
216.5512348394
 40
0.2
 50
270.0
 51
360.0
  0
ARC
  8
0
 62
7
  6
CONTINUOUS
 10
38.9940214785
 20
216.5512348394
 40
0.2
 50
270.0
 51
360.0
  0
ARC
  8
0
 62
7
  6
CONTINUOUS
 10
25.9940214785
 20
218.4878348394
 40
0.5
 50
212.6399595159
 51
230.7851013361
  0
ARC
  8
0
 62
7
  6
CONTINUOUS
 10
67.3440214785
 20
216.8512348394
 40
0.5
 50
180.0
 51
270.0
  0
ARC
  8
0
 62
7
  6
CONTINUOUS
 10
73.6940214785
 20
216.8512348394
 40
0.5
 50
180.0
 51
270.0
  0
ARC
  8
0
 62
7
  6
CONTINUOUS
 10
66.0940214785
 20
216.8512348394
 40
0.5
 50
270.0
 51
360.0
  0
ARC
  8
0
 62
7
  6
CONTINUOUS
 10
72.4440214785
 20
216.8512348394
 40
0.5
 50
270.0
 51
360.0
  0
ARC
  8
0
 62
7
  6
CONTINUOUS
 10
59.1440214785
 20
216.8512348394
 40
0.5
 50
180.0
 51
270.0
  0
ARC
  8
0
 62
7
  6
CONTINUOUS
 10
60.9940214785
 20
216.8512348394
 40
0.5
 50
180.0
 51
270.0
  0
ARC
  8
0
 62
7
  6
CONTINUOUS
 10
53.3940214785
 20
216.8512348394
 40
0.5
 50
270.0
 51
360.0
  0
ARC
  8
0
 62
7
  6
CONTINUOUS
 10
55.2440214785
 20
216.8512348394
 40
0.5
 50
270.0
 51
360.0
  0
ARC
  8
0
 62
7
  6
CONTINUOUS
 10
35.5940214785
 20
224.3512348394
 40
0.5
 50
90.0
 51
180.0
  0
ARC
  8
0
 62
7
  6
CONTINUOUS
 10
26.1940214785
 20
224.3512348394
 40
0.5
 50
90.0
 51
180.0
  0
ARC
  8
0
 62
7
  6
CONTINUOUS
 10
27.9940214785
 20
224.3512348394
 40
0.5
 50
0.0
 51
90.0
  0
ARC
  8
0
 62
7
  6
CONTINUOUS
 10
40.6940214785
 20
224.3512348394
 40
0.5
 50
0.0
 51
90.0
  0
ARC
  8
0
 62
7
  6
CONTINUOUS
 10
48.2940214785
 20
224.3512348394
 40
0.5
 50
90.0
 51
180.0
  0
ARC
  8
0
 62
7
  6
CONTINUOUS
 10
60.9940214785
 20
224.3512348394
 40
0.5
 50
90.0
 51
180.0
  0
ARC
  8
0
 62
7
  6
CONTINUOUS
 10
53.3940214785
 20
224.3512348394
 40
0.5
 50
0.0
 51
90.0
  0
ARC
  8
0
 62
7
  6
CONTINUOUS
 10
73.6940214785
 20
224.3512348394
 40
0.5
 50
90.0
 51
180.0
  0
ARC
  8
0
 62
7
  6
CONTINUOUS
 10
66.0940214785
 20
224.3512348394
 40
0.5
 50
0.0
 51
90.0
  0
ARC
  8
0
 62
7
  6
CONTINUOUS
 10
97.8440214785
 20
216.8512348394
 40
0.5
 50
270.0
 51
360.0
  0
ARC
  8
0
 62
7
  6
CONTINUOUS
 10
92.7440214785
 20
216.8512348394
 40
0.5
 50
180.0
 51
270.0
  0
ARC
  8
0
 62
7
  6
CONTINUOUS
 10
99.0940214785
 20
216.8512348394
 40
0.5
 50
180.0
 51
270.0
  0
ARC
  8
0
 62
7
  6
CONTINUOUS
 10
91.4940214785
 20
216.8512348394
 40
0.5
 50
270.0
 51
360.0
  0
ARC
  8
0
 62
7
  6
CONTINUOUS
 10
80.6440214785
 20
216.8512348394
 40
0.5
 50
270.0
 51
360.0
  0
ARC
  8
0
 62
7
  6
CONTINUOUS
 10
78.7940214785
 20
216.8512348394
 40
0.5
 50
270.0
 51
360.0
  0
ARC
  8
0
 62
7
  6
CONTINUOUS
 10
86.3940214785
 20
216.8512348394
 40
0.5
 50
180.0
 51
270.0
  0
ARC
  8
0
 62
7
  6
CONTINUOUS
 10
84.5440214785
 20
216.8512348394
 40
0.5
 50
180.0
 51
270.0
  0
ARC
  8
0
 62
7
  6
CONTINUOUS
 10
126.2940214785
 20
216.8512348394
 40
0.5
 50
270.0
 51
360.0
  0
ARC
  8
0
 62
7
  6
CONTINUOUS
 10
118.7440214785
 20
216.8512348394
 40
0.5
 50
270.0
 51
360.0
  0
ARC
  8
0
 62
7
  6
CONTINUOUS
 10
116.8940214785
 20
216.8512348394
 40
0.5
 50
270.0
 51
360.0
  0
ARC
  8
0
 62
7
  6
CONTINUOUS
 10
124.4940214785
 20
216.8512348394
 40
0.5
 50
180.0
 51
270.0
  0
ARC
  8
0
 62
7
  6
CONTINUOUS
 10
122.6440214785
 20
216.8512348394
 40
0.5
 50
180.0
 51
270.0
  0
ARC
  8
0
 62
7
  6
CONTINUOUS
 10
106.0440214785
 20
216.8512348394
 40
0.5
 50
270.0
 51
360.0
  0
ARC
  8
0
 62
7
  6
CONTINUOUS
 10
104.1940214785
 20
216.8512348394
 40
0.5
 50
270.0
 51
360.0
  0
ARC
  8
0
 62
7
  6
CONTINUOUS
 10
111.7940214785
 20
216.8512348394
 40
0.5
 50
179.9993266383
 51
270.0
  0
ARC
  8
0
 62
7
  6
CONTINUOUS
 10
109.9440214785
 20
216.8512348394
 40
0.5
 50
180.0
 51
270.0
  0
ARC
  8
0
 62
7
  6
CONTINUOUS
 10
112.3940214785
 20
216.8512348394
 40
0.5
 50
270.0
 51
360.0
  0
ARC
  8
0
 62
7
  6
CONTINUOUS
 10
113.4940214785
 20
216.5512348394
 40
0.2
 50
180.0
 51
270.0
  0
ARC
  8
0
 62
7
  6
CONTINUOUS
 10
119.8440214785
 20
216.5512348394
 40
0.2
 50
180.0
 51
270.0
  0
ARC
  8
0
 62
7
  6
CONTINUOUS
 10
126.4940214785
 20
218.4878348394
 40
0.5
 50
309.2151435207
 51
327.3600404841
  0
ARC
  8
0
 62
7
  6
CONTINUOUS
 10
99.0940214785
 20
224.3512348394
 40
0.5
 50
90.0
 51
180.0
  0
ARC
  8
0
 62
7
  6
CONTINUOUS
 10
124.4940214785
 20
224.3512348394
 40
0.5
 50
90.0
 51
180.0
  0
ARC
  8
0
 62
7
  6
CONTINUOUS
 10
126.2940214785
 20
224.3512348394
 40
0.5
 50
0.0
 51
90.0
  0
ARC
  8
0
 62
7
  6
CONTINUOUS
 10
116.8940214785
 20
224.3512348394
 40
0.5
 50
0.0
 51
90.0
  0
ARC
  8
0
 62
7
  6
CONTINUOUS
 10
104.1940214785
 20
224.3512348394
 40
0.5
 50
0.0
 51
90.0
  0
ARC
  8
0
 62
7
  6
CONTINUOUS
 10
111.7940214785
 20
224.3512348394
 40
0.5
 50
90.0
 51
180.0
  0
ARC
  8
0
 62
7
  6
CONTINUOUS
 10
91.4940214785
 20
224.3512348394
 40
0.5
 50
0.0
 51
90.0
  0
ARC
  8
0
 62
7
  6
CONTINUOUS
 10
78.7940214785
 20
224.3512348394
 40
0.5
 50
0.0
 51
90.0
  0
ARC
  8
0
 62
7
  6
CONTINUOUS
 10
86.3940214785
 20
224.3512348394
 40
0.5
 50
90.0
 51
180.0
  0
ENDSEC
  0
EOF
