  0
SECTION
  2
HEADER
  9
$EXTMAX
 10
210.0
 20
297.0
 30
0.0
  9
$EXTMIN
 10
0.0
 20
0.0
 30
0.0
  9
$LIMMIN
 10
0.0
 20
0.0
  9
$LIMMAX
 10
210.0
 20
297.0
  9
$VIEWCTR
 10
105.0
 20
148.5
  9
$VIEWSIZE
 40
297.0
  9
$CLAYER
  8
0
  9
$LTSCALE
 40
19.36
  9
$CELTYPE
  6
BYLAYER
  9
$DIMSCALE
 40
1.0
  9
$DIMASZ
 40
3.5
  9
$DIMEXO
 40
1.0
  9
$DIMDLI
 40
13.376
  9
$DIMEXE
 40
2.0
  9
$DIMCEN
 40
3.168
  9
$DIMLFAC
 40
1.0
  9
$DIMBLK
  1
_FILLED
  9
$DIMALT
 70
0
  9
$DIMALTF
 40
0.0393700787
  9
$DIMTXT
 40
3.5
  9
$AUNITS
 70
0
  9
$PDMODE
 70
3
  9
$PDSIZE
 40
0.3125
  9
$TILEMODE
 70
1
  0
ENDSEC
  0
SECTION
  2
TABLES
  0
TABLE
  2
LTYPE
 70
6
  0
LTYPE
  2
BYBLOCK
 70
0
  3

 72
65
 73
0
 40
0.0
  0
LTYPE
  2
BYLAYER
 70
0
  3

 72
65
 73
0
 40
0.0
  0
LTYPE
  2
CONTINUOUS
 70
64
  3
Solid line
 72
65
 73
0
 40
0.0
  0
LTYPE
  2
CENTER
 70
64
  3
____ _ ____ _ ____ _ ____ _ ____ _ ____ _ ____
 72
65
 73
4
 40
0.6
 49
0.375
 49
-0.075
 49
0.075
 49
-0.075
  0
LTYPE
  2
HIDDEN
 70
64
  3
- - - - - - - - - - - - - - - - - - - -
 72
65
 73
2
 40
0.2
 49
0.1
 49
-0.1
  0
LTYPE
  2
PHANTOM
 70
64
  3
_____ _ _ _____ _ _ _____ _ _ _____
 72
65
 73
6
 40
0.8
 49
0.45
 49
-0.05
 49
0.1
 49
-0.05
 49
0.1
 49
-0.05
  0
LTYPE
  2
DOT
 70
64
  3
. . . . . . . . . . . . . . . . . . . .
 72
65
 73
2
 40
0.2
 49
0.1
 49
-0.1
  0
LTYPE
  2
DASHED
 70
64
  3
- - - - - - - - - - - - - - - - - - - -
 72
65
 73
2
 40
0.2
 49
0.1
 49
-0.1
  0
ENDTAB
  0
TABLE
  2
LAYER
 70
36
  0
LAYER
  2
0
 70
0
 62
7
  6
CONTINUOUS
  0
LAYER
  2
DEFAULT_1
 70
0
 62
7
  6
CENTER
  0
LAYER
  2
DEFAULT_2
 70
0
 62
8
  6
HIDDEN
  0
LAYER
  2
DEFAULT_3
 70
0
 62
7
  6
PHANTOM
  0
LAYER
  2
1_AXIS
 70
0
 62
7
  6
CONTINUOUS
  0
LAYER
  2
1_DATUMPLANE
 70
0
 62
7
  6
CONTINUOUS
  0
LAYER
  2
1_DATUM_PLANES
 70
0
 62
7
  6
CONTINUOUS
  0
LAYER
  2
2_FEATURE
 70
0
 62
7
  6
CONTINUOUS
  0
LAYER
  2
4_QUILT
 70
0
 62
7
  6
CONTINUOUS
  0
LAYER
  2
6_DIM
 70
0
 62
7
  6
CONTINUOUS
  0
LAYER
  2
CSYS
 70
0
 62
7
  6
CONTINUOUS
  0
LAYER
  2
CURVE
 70
0
 62
7
  6
CONTINUOUS
  0
LAYER
  2
NOTES
 70
0
 62
7
  6
CONTINUOUS
  0
ENDTAB
  0
TABLE
  2
STYLE
 70
1
  0
STYLE
  2
STANDARD
 70
0
 40
0.0
 41
0.8
 50
0.0
 71
0
 42
0.2
  3
txt
  4

  0
STYLE
  2
TEXTSTYLE_1
 70
0
 40
0.0
 41
0.8
 50
0.0
 71
0
 42
0.2
  3
gdt
  4

  0
STYLE
  2
TEXTSTYLE_2
 70
0
 40
0.0
 41
0.6
 50
0.0
 71
0
 42
0.2
  3
txt
  4

  0
STYLE
  2
TEXTSTYLE_3
 70
0
 40
0.0
 41
1.0
 50
0.0
 71
0
 42
0.2
  3
ftb_____.ttf
  4

  0
STYLE
  2
TEXTSTYLE_4
 70
0
 40
0.0
 41
1.0
 50
0.0
 71
0
 42
0.2
  3
fti_____.ttf
  4

  0
STYLE
  2
TEXTSTYLE_5
 70
0
 40
0.0
 41
1.0
 50
0.0
 71
0
 42
0.2
  3
frutiger light.ttf
  4

  0
STYLE
  2
TEXTSTYLE_6
 70
0
 40
0.0
 41
0.7
 50
0.0
 71
0
 42
0.2
  3
txt
  4

  0
STYLE
  2
TEXTSTYLE_7
 70
0
 40
0.0
 41
0.6
 50
0.0
 71
0
 42
0.2
  3
txt
  4

  0
ENDTAB
  0
ENDSEC
  0
SECTION
  2
BLOCKS
  0
BLOCK
  8
0
 62
2
  6
CONTINUOUS
  2
UNI_LOGO2_BL1
 70
64
 10
173.5956734183
 20
35.5937998301
  0
TEXT
  8
0
 62
7
  6
CONTINUOUS
 10
164.6539584268
 20
30.6865562072
  7
TEXTSTYLE_4
 40
1.0655737705
  1
The brand for plastic modular belts and chains
 41
1.0
 72
0
  0
LINE
  8
0
 62
7
  6
CONTINUOUS
 10
149.5737418074
 20
36.1675703219
 11
149.5737418074
 21
34.0364227809
  0
LINE
  8
0
 62
7
  6
CONTINUOUS
 10
149.8628043005
 20
31.0454914852
 11
149.8628043005
 21
31.1422825445
  0
LINE
  8
0
 62
7
  6
CONTINUOUS
 10
149.5737418074
 20
31.1100188581
 11
149.6315543091
 21
30.9164367395
  0
LINE
  8
0
 62
7
  6
CONTINUOUS
 10
150.9671844304
 20
33.9544555678
 11
150.9671844304
 21
36.1675703219
  0
LINE
  8
0
 62
7
  6
CONTINUOUS
 10
151.8862417523
 20
32.1101932727
 11
151.8862417523
 21
30.5937998301
  0
LINE
  8
0
 62
7
  6
CONTINUOUS
 10
152.1753043074
 20
30.5937998301
 11
152.1753043074
 21
31.3358647082
  0
LINE
  8
0
 62
7
  6
CONTINUOUS
 10
152.1753043074
 20
31.4649194539
 11
152.1753043074
 21
32.1101932727
  0
LINE
  8
0
 62
7
  6
CONTINUOUS
 10
149.6315543091
 20
31.3036010218
 11
149.5737418074
 21
31.1100188581
  0
LINE
  8
0
 62
7
  6
CONTINUOUS
 10
149.9784292936
 20
30.8841730531
 11
149.8628043005
 21
31.0454914852
  0
LINE
  8
0
 62
7
  6
CONTINUOUS
 10
151.0768668626
 20
31.400392081
 11
151.1346793074
 21
31.3036010218
  0
LINE
  8
0
 62
7
  6
CONTINUOUS
 10
151.4237418626
 20
31.3036010218
 11
151.3659292523
 21
31.4326557675
  0
LINE
  8
0
 62
7
  6
CONTINUOUS
 10
152.852430332
 20
36.1675703219
 11
152.852430332
 21
34.3642916334
  0
LINE
  8
0
 62
7
  6
CONTINUOUS
 10
152.852430332
 20
33.0528162235
 11
152.852430332
 21
32.3970785186
  0
LINE
  8
0
 62
7
  6
CONTINUOUS
 10
153.2159293074
 20
31.2390736489
 11
153.2159293074
 21
30.5937998301
  0
LINE
  8
0
 62
7
  6
CONTINUOUS
 10
153.5049916972
 20
30.5937998301
 11
153.5049916972
 21
31.2390736489
  0
LINE
  8
0
 62
7
  6
CONTINUOUS
 10
149.8628043005
 20
31.1422825445
 11
149.9206168074
 21
31.2713373354
  0
LINE
  8
0
 62
7
  6
CONTINUOUS
 10
149.6315543091
 20
30.9164367395
 11
149.7471793074
 21
30.7873819712
  0
LINE
  8
0
 62
7
  6
CONTINUOUS
 10
153.1581166972
 20
31.3681283946
 11
153.2159293074
 21
31.2390736489
  0
LINE
  8
0
 62
7
  6
CONTINUOUS
 10
153.9674919177
 20
30.8841730531
 11
154.0253041972
 21
30.7551182848
  0
LINE
  8
0
 62
7
  6
CONTINUOUS
 10
153.5049916972
 20
31.2390736489
 11
153.4471794177
 21
31.400392081
  0
LINE
  8
0
 62
7
  6
CONTINUOUS
 10
153.9674919177
 20
31.4326557675
 11
153.9674919177
 21
31.3681283946
  0
LINE
  8
0
 62
7
  6
CONTINUOUS
 10
153.9674919177
 20
30.9809641124
 11
153.9674919177
 21
30.8841730531
  0
LINE
  8
0
 62
7
  6
CONTINUOUS
 10
154.245872955
 20
32.3970785186
 11
154.245872955
 21
36.1675703219
  0
LINE
  8
0
 62
7
  6
CONTINUOUS
 10
154.2565543074
 20
30.8519093441
 11
154.2565543074
 21
30.9164367395
  0
LINE
  8
0
 62
7
  6
CONTINUOUS
 10
154.5737418074
 20
36.1675703219
 11
154.5737418074
 21
32.3970785186
  0
LINE
  8
0
 62
7
  6
CONTINUOUS
 10
151.3659292523
 20
30.7873819712
 11
151.4237418626
 21
30.9164367395
  0
LINE
  8
0
 62
7
  6
CONTINUOUS
 10
155.759679528
 20
30.6905909007
 11
155.7018665869
 21
30.8519093441
  0
LINE
  8
0
 62
7
  6
CONTINUOUS
 10
155.412804528
 20
31.3681283946
 11
155.412804528
 21
31.2713373354
  0
LINE
  8
0
 62
7
  6
CONTINUOUS
 10
155.412804528
 20
31.1422825445
 11
155.412804528
 21
30.9487004259
  0
LINE
  8
0
 62
7
  6
CONTINUOUS
 10
155.7018665869
 20
30.8519093441
 11
155.7018665869
 21
31.3681283946
  0
LINE
  8
0
 62
7
  6
CONTINUOUS
 10
155.9671844304
 20
32.3970785186
 11
155.9671844304
 21
34.2003572071
  0
LINE
  8
0
 62
7
  6
CONTINUOUS
 10
155.9671844304
 20
35.511832617
 11
155.9671844304
 21
36.1675703219
  0
LINE
  8
0
 62
7
  6
CONTINUOUS
 10
156.279992028
 20
32.1101932727
 11
156.279992028
 21
31.9488748406
  0
LINE
  8
0
 62
7
  6
CONTINUOUS
 10
156.279992028
 20
31.626237886
 11
156.279992028
 21
30.5937998301
  0
LINE
  8
0
 62
7
  6
CONTINUOUS
 10
156.5690540869
 20
30.5937998301
 11
156.5690540869
 21
31.626237886
  0
LINE
  8
0
 62
7
  6
CONTINUOUS
 10
156.5690540869
 20
31.9488748406
 11
156.5690540869
 21
32.1101932727
  0
LINE
  8
0
 62
7
  6
CONTINUOUS
 10
151.1346793074
 20
30.9164367395
 11
151.0768668626
 21
30.8196456577
  0
LINE
  8
0
 62
7
  6
CONTINUOUS
 10
153.4471794177
 20
31.400392081
 11
153.3893668074
 21
31.4649194539
  0
LINE
  8
0
 62
7
  6
CONTINUOUS
 10
154.3143669177
 20
30.7873819712
 11
154.2565543074
 21
30.8519093441
  0
LINE
  8
0
 62
7
  6
CONTINUOUS
 10
155.4706168074
 20
30.6583272086
 11
155.5284290869
 21
30.5937998301
  0
LINE
  8
0
 62
7
  6
CONTINUOUS
 10
155.412804528
 20
30.7551182848
 11
155.4706168074
 21
30.6583272086
  0
LINE
  8
0
 62
7
  6
CONTINUOUS
 10
155.8174918074
 20
30.5937998301
 11
155.759679528
 21
30.6905909007
  0
LINE
  8
0
 62
7
  6
CONTINUOUS
 10
155.7018665869
 20
31.3681283946
 11
155.6440543074
 21
31.4649194539
  0
LINE
  8
0
 62
7
  6
CONTINUOUS
 10
157.0315543074
 20
31.626237886
 11
157.0315543074
 21
30.5937998301
  0
LINE
  8
0
 62
7
  6
CONTINUOUS
 10
157.320617028
 20
30.5937998301
 11
157.320617028
 21
31.3358647082
  0
LINE
  8
0
 62
7
  6
CONTINUOUS
 10
157.320617028
 20
31.4649194539
 11
157.320617028
 21
31.626237886
  0
LINE
  8
0
 62
7
  6
CONTINUOUS
 10
157.852430332
 20
34.6101932727
 11
157.852430332
 21
32.3970785186
  0
LINE
  8
0
 62
7
  6
CONTINUOUS
 10
149.7471793074
 20
31.4326557675
 11
149.6315543091
 21
31.3036010218
  0
LINE
  8
0
 62
7
  6
CONTINUOUS
 10
149.9206168074
 20
31.2713373354
 11
149.9784292936
 21
31.3358647082
  0
LINE
  8
0
 62
7
  6
CONTINUOUS
 10
149.7471793074
 20
30.7873819712
 11
149.8628043005
 21
30.7228545871
  0
LINE
  8
0
 62
7
  6
CONTINUOUS
 10
150.1518667936
 20
30.7873819712
 11
149.9784292936
 21
30.8841730531
  0
LINE
  8
0
 62
7
  6
CONTINUOUS
 10
155.3549915869
 20
31.4326557675
 11
155.412804528
 21
31.3681283946
  0
LINE
  8
0
 62
7
  6
CONTINUOUS
 10
158.3034290869
 20
31.3681283946
 11
158.361242028
 21
31.2068099625
  0
LINE
  8
0
 62
7
  6
CONTINUOUS
 10
158.6503040869
 20
31.2068099625
 11
158.5924918074
 21
31.3681283946
  0
LINE
  8
0
 62
7
  6
CONTINUOUS
 10
158.361242028
 20
31.2068099625
 11
158.361242028
 21
30.5937998301
  0
LINE
  8
0
 62
7
  6
CONTINUOUS
 10
158.6503040869
 20
30.5937998301
 11
158.6503040869
 21
31.2068099625
  0
LINE
  8
0
 62
7
  6
CONTINUOUS
 10
159.1128043074
 20
31.4326557675
 11
159.1128043074
 21
31.3681283946
  0
LINE
  8
0
 62
7
  6
CONTINUOUS
 10
159.245872955
 20
32.3970785186
 11
159.245872955
 21
34.5282260596
  0
LINE
  8
0
 62
7
  6
CONTINUOUS
 10
159.5737418074
 20
36.1675703219
 11
159.5737418074
 21
32.3970785186
  0
LINE
  8
0
 62
7
  6
CONTINUOUS
 10
154.2565543074
 20
30.9164367395
 11
154.3143669177
 21
31.0132277988
  0
LINE
  8
0
 62
7
  6
CONTINUOUS
 10
149.8628043005
 20
30.7228545871
 11
150.0362418212
 21
30.6583272086
  0
LINE
  8
0
 62
7
  6
CONTINUOUS
 10
151.3659292523
 20
31.4326557675
 11
151.1924917523
 21
31.5294468267
  0
LINE
  8
0
 62
7
  6
CONTINUOUS
 10
154.0253041972
 20
30.7551182848
 11
154.1987416972
 21
30.6583272086
  0
LINE
  8
0
 62
7
  6
CONTINUOUS
 10
153.0424918074
 20
31.4326557675
 11
153.1581166972
 21
31.3681283946
  0
LINE
  8
0
 62
7
  6
CONTINUOUS
 10
153.3893668074
 20
31.4649194539
 11
153.2737419177
 21
31.5294468267
  0
LINE
  8
0
 62
7
  6
CONTINUOUS
 10
159.1128043074
 20
30.8519093441
 11
159.228429528
 21
30.7228545871
  0
LINE
  8
0
 62
7
  6
CONTINUOUS
 10
159.4596793074
 20
30.7873819712
 11
159.401867028
 21
30.8519093441
  0
LINE
  8
0
 62
7
  6
CONTINUOUS
 10
159.1128043074
 20
31.3681283946
 11
159.228429528
 21
31.2390736489
  0
LINE
  8
0
 62
7
  6
CONTINUOUS
 10
158.5924918074
 20
31.3681283946
 11
158.534679528
 21
31.4649194539
  0
LINE
  8
0
 62
7
  6
CONTINUOUS
 10
160.9628038663
 20
30.7873819712
 11
160.9628038663
 21
30.8519093441
  0
LINE
  8
0
 62
7
  6
CONTINUOUS
 10
160.9671844304
 20
32.3970785186
 11
160.9671844304
 21
36.1675703219
  0
LINE
  8
0
 62
7
  6
CONTINUOUS
 10
154.0253041972
 20
31.4971831403
 11
153.9674919177
 21
31.4326557675
  0
LINE
  8
0
 62
7
  6
CONTINUOUS
 10
150.9034292799
 20
31.4649194539
 11
151.0768668626
 21
31.400392081
  0
LINE
  8
0
 62
7
  6
CONTINUOUS
 10
155.6440543074
 20
31.4649194539
 11
155.5284290869
 21
31.5294468267
  0
LINE
  8
0
 62
7
  6
CONTINUOUS
 10
159.4596793074
 20
31.3036010218
 11
159.401867028
 21
31.3681283946
  0
LINE
  8
0
 62
7
  6
CONTINUOUS
 10
160.615929528
 20
30.9164367395
 11
160.6737418074
 21
30.8519093441
  0
LINE
  8
0
 62
7
  6
CONTINUOUS
 10
160.9628038663
 20
30.8519093441
 11
160.8471793074
 21
30.9809641124
  0
LINE
  8
0
 62
7
  6
CONTINUOUS
 10
160.615929528
 20
31.4326557675
 11
160.6737418074
 21
31.3681283946
  0
LINE
  8
0
 62
7
  6
CONTINUOUS
 10
160.9628038663
 20
31.3681283946
 11
160.8471793074
 21
31.4971831403
  0
LINE
  8
0
 62
7
  6
CONTINUOUS
 10
154.2565543074
 20
31.3681283946
 11
154.3143669177
 21
31.4326557675
  0
LINE
  8
0
 62
7
  6
CONTINUOUS
 10
154.0831168074
 20
31.1100188581
 11
153.9674919177
 21
30.9809641124
  0
LINE
  8
0
 62
7
  6
CONTINUOUS
 10
155.412804528
 20
30.9487004259
 11
155.3549915869
 21
30.8841730531
  0
LINE
  8
0
 62
7
  6
CONTINUOUS
 10
155.3549915869
 20
30.6905909007
 11
155.412804528
 21
30.7551182848
  0
LINE
  8
0
 62
7
  6
CONTINUOUS
 10
154.1987416972
 20
30.6583272086
 11
154.3143669177
 21
30.6260635193
  0
LINE
  8
0
 62
7
  6
CONTINUOUS
 10
151.1924917523
 20
31.5294468267
 11
150.9612418074
 21
31.5939741996
  0
LINE
  8
0
 62
7
  6
CONTINUOUS
 10
154.5456166972
 20
30.7228545871
 11
154.3143669177
 21
30.7873819712
  0
LINE
  8
0
 62
7
  6
CONTINUOUS
 10
153.2737419177
 20
31.5294468267
 11
153.1003044177
 21
31.5939741996
  0
LINE
  8
0
 62
7
  6
CONTINUOUS
 10
155.5284290869
 20
31.5294468267
 11
155.3549915869
 21
31.5939741996
  0
LINE
  8
0
 62
7
  6
CONTINUOUS
 10
158.187804528
 20
31.4326557675
 11
158.3034290869
 21
31.3681283946
  0
LINE
  8
0
 62
7
  6
CONTINUOUS
 10
158.534679528
 20
31.4649194539
 11
158.4190543074
 21
31.5294468267
  0
LINE
  8
0
 62
7
  6
CONTINUOUS
 10
150.0362418212
 20
30.6583272086
 11
150.2096793212
 21
30.6260635193
  0
LINE
  8
0
 62
7
  6
CONTINUOUS
 10
150.498741835
 20
30.7228545871
 11
150.1518667936
 21
30.7873819712
  0
LINE
  8
0
 62
7
  6
CONTINUOUS
 10
152.9268669177
 20
31.4649194539
 11
153.0424918074
 21
31.4326557675
  0
LINE
  8
0
 62
7
  6
CONTINUOUS
 10
155.239367028
 20
31.4649194539
 11
155.3549915869
 21
31.4326557675
  0
LINE
  8
0
 62
7
  6
CONTINUOUS
 10
159.575304528
 20
30.7551182848
 11
159.4596793074
 21
30.7873819712
  0
LINE
  8
0
 62
7
  6
CONTINUOUS
 10
158.0721793074
 20
31.4649194539
 11
158.187804528
 21
31.4326557675
  0
LINE
  8
0
 62
7
  6
CONTINUOUS
 10
159.228429528
 20
30.7228545871
 11
159.401867028
 21
30.6583272086
  0
LINE
  8
0
 62
7
  6
CONTINUOUS
 10
158.4190543074
 20
31.5294468267
 11
158.2456168074
 21
31.5939741996
  0
LINE
  8
0
 62
7
  6
CONTINUOUS
 10
159.6331168074
 20
31.2390736489
 11
159.4596793074
 21
31.3036010218
  0
LINE
  8
0
 62
7
  6
CONTINUOUS
 10
160.442492028
 20
30.9809641124
 11
160.615929528
 21
30.9164367395
  0
LINE
  8
0
 62
7
  6
CONTINUOUS
 10
160.8471793074
 20
31.4971831403
 11
160.6737418074
 21
31.5617105132
  0
LINE
  8
0
 62
7
  6
CONTINUOUS
 10
159.228429528
 20
31.2390736489
 11
159.4596793074
 21
31.1422825445
  0
LINE
  8
0
 62
7
  6
CONTINUOUS
 10
160.8471793074
 20
30.9809641124
 11
160.615929528
 21
31.0777551716
  0
LINE
  8
0
 62
7
  6
CONTINUOUS
 10
159.401867028
 20
31.3681283946
 11
159.4596793074
 21
31.4326557675
  0
LINE
  8
0
 62
7
  6
CONTINUOUS
 10
149.8628043005
 20
31.4971831403
 11
149.7471793074
 21
31.4326557675
  0
LINE
  8
0
 62
7
  6
CONTINUOUS
 10
149.9784292936
 20
31.3358647082
 11
150.1518667936
 21
31.4326557675
  0
LINE
  8
0
 62
7
  6
CONTINUOUS
 10
152.2909293626
 20
31.5294468267
 11
152.1753043074
 21
31.4649194539
  0
LINE
  8
0
 62
7
  6
CONTINUOUS
 10
152.1753043074
 20
31.3358647082
 11
152.2909293626
 21
31.400392081
  0
LINE
  8
0
 62
7
  6
CONTINUOUS
 10
151.1924917523
 20
30.6905909007
 11
151.3659292523
 21
30.7873819712
  0
LINE
  8
0
 62
7
  6
CONTINUOUS
 10
150.2096793212
 20
30.6260635193
 11
150.5565542799
 21
30.5937998301
  0
LINE
  8
0
 62
7
  6
CONTINUOUS
 10
154.3143669177
 20
30.6260635193
 11
154.5456166972
 21
30.5937998301
  0
LINE
  8
0
 62
7
  6
CONTINUOUS
 10
152.6956168074
 20
31.4971831403
 11
152.9268669177
 21
31.4649194539
  0
LINE
  8
0
 62
7
  6
CONTINUOUS
 10
155.0081169177
 20
31.4971831403
 11
155.239367028
 21
31.4649194539
  0
LINE
  8
0
 62
7
  6
CONTINUOUS
 10
159.4596793074
 20
31.1422825445
 11
160.442492028
 21
30.9809641124
  0
LINE
  8
0
 62
7
  6
CONTINUOUS
 10
160.615929528
 20
31.0777551716
 11
159.6331168074
 21
31.2390736489
  0
LINE
  8
0
 62
7
  6
CONTINUOUS
 10
153.1003044177
 20
31.5939741996
 11
152.9268669177
 21
31.626237886
  0
LINE
  8
0
 62
7
  6
CONTINUOUS
 10
159.401867028
 20
30.6583272086
 11
159.575304528
 21
30.6260635193
  0
LINE
  8
0
 62
7
  6
CONTINUOUS
 10
158.2456168074
 20
31.5939741996
 11
158.0721793074
 21
31.626237886
  0
LINE
  8
0
 62
7
  6
CONTINUOUS
 10
160.5003043074
 20
31.4649194539
 11
160.615929528
 21
31.4326557675
  0
LINE
  8
0
 62
7
  6
CONTINUOUS
 10
160.6737418074
 20
30.8519093441
 11
160.615929528
 21
30.7873819712
  0
LINE
  8
0
 62
7
  6
CONTINUOUS
 10
159.228429528
 20
31.5294468267
 11
159.1128043074
 21
31.4326557675
  0
LINE
  8
0
 62
7
  6
CONTINUOUS
 10
154.1409294177
 20
31.5617105132
 11
154.0253041972
 21
31.4971831403
  0
LINE
  8
0
 62
7
  6
CONTINUOUS
 10
154.1987416972
 20
31.1745462761
 11
154.0831168074
 21
31.1100188581
  0
LINE
  8
0
 62
7
  6
CONTINUOUS
 10
154.3143669177
 20
31.0132277988
 11
154.4299918074
 21
31.0777551716
  0
LINE
  8
0
 62
7
  6
CONTINUOUS
 10
151.8862417523
 20
30.5937998301
 11
152.1753043074
 21
30.5937998301
  0
LINE
  8
0
 62
7
  6
CONTINUOUS
 10
153.2159293074
 20
30.5937998301
 11
153.5049916972
 21
30.5937998301
  0
LINE
  8
0
 62
7
  6
CONTINUOUS
 10
154.5456166972
 20
30.5937998301
 11
154.8924916972
 21
30.5937998301
  0
LINE
  8
0
 62
7
  6
CONTINUOUS
 10
155.5284290869
 20
30.5937998301
 11
155.8174918074
 21
30.5937998301
  0
LINE
  8
0
 62
7
  6
CONTINUOUS
 10
156.279992028
 20
30.5937998301
 11
156.5690540869
 21
30.5937998301
  0
LINE
  8
0
 62
7
  6
CONTINUOUS
 10
157.0315543074
 20
30.5937998301
 11
157.320617028
 21
30.5937998301
  0
LINE
  8
0
 62
7
  6
CONTINUOUS
 10
158.361242028
 20
30.5937998301
 11
158.6503040869
 21
30.5937998301
  0
LINE
  8
0
 62
7
  6
CONTINUOUS
 10
159.922179528
 20
30.5937998301
 11
160.269054528
 21
30.5937998301
  0
LINE
  8
0
 62
7
  6
CONTINUOUS
 10
160.269054528
 20
30.7228545871
 11
159.922179528
 21
30.7228545871
  0
LINE
  8
0
 62
7
  6
CONTINUOUS
 10
154.8924916972
 20
30.7228545871
 11
154.5456166972
 21
30.7228545871
  0
LINE
  8
0
 62
7
  6
CONTINUOUS
 10
159.401867028
 20
30.8519093441
 11
159.1128043074
 21
30.8519093441
  0
LINE
  8
0
 62
7
  6
CONTINUOUS
 10
151.4237418626
 20
30.9164367395
 11
151.1346793074
 21
30.9164367395
  0
LINE
  8
0
 62
7
  6
CONTINUOUS
 10
150.498741835
 20
31.4971831403
 11
150.9034292799
 21
31.4649194539
  0
LINE
  8
0
 62
7
  6
CONTINUOUS
 10
150.9612418074
 20
31.5939741996
 11
150.5565542799
 21
31.626237886
  0
LINE
  8
0
 62
7
  6
CONTINUOUS
 10
159.575304528
 20
30.6260635193
 11
159.922179528
 21
30.5937998301
  0
LINE
  8
0
 62
7
  6
CONTINUOUS
 10
159.922179528
 20
30.7228545871
 11
159.575304528
 21
30.7551182848
  0
LINE
  8
0
 62
7
  6
CONTINUOUS
 10
155.3549915869
 20
31.5939741996
 11
155.0081169177
 21
31.626237886
  0
LINE
  8
0
 62
7
  6
CONTINUOUS
 10
160.1534293074
 20
31.4971831403
 11
160.5003043074
 21
31.4649194539
  0
LINE
  8
0
 62
7
  6
CONTINUOUS
 10
160.5003043074
 20
31.5939741996
 11
160.1534293074
 21
31.626237886
  0
LINE
  8
0
 62
7
  6
CONTINUOUS
 10
157.840929528
 20
31.4971831403
 11
158.0721793074
 21
31.4649194539
  0
LINE
  8
0
 62
7
  6
CONTINUOUS
 10
160.6737418074
 20
31.5617105132
 11
160.5003043074
 21
31.5939741996
  0
LINE
  8
0
 62
7
  6
CONTINUOUS
 10
160.8471793074
 20
30.6905909007
 11
160.9628038663
 21
30.7873819712
  0
LINE
  8
0
 62
7
  6
CONTINUOUS
 10
155.3549915869
 20
30.8841730531
 11
155.1815540869
 21
30.7873819712
  0
LINE
  8
0
 62
7
  6
CONTINUOUS
 10
157.4362415869
 20
31.5294468267
 11
157.320617028
 21
31.4649194539
  0
LINE
  8
0
 62
7
  6
CONTINUOUS
 10
157.320617028
 20
31.3358647082
 11
157.4362415869
 21
31.400392081
  0
LINE
  8
0
 62
7
  6
CONTINUOUS
 10
150.0362418212
 20
31.5617105132
 11
149.8628043005
 21
31.4971831403
  0
LINE
  8
0
 62
7
  6
CONTINUOUS
 10
152.4643666972
 20
31.5939741996
 11
152.2909293626
 21
31.5294468267
  0
LINE
  8
0
 62
7
  6
CONTINUOUS
 10
152.2909293626
 20
31.400392081
 11
152.4643666972
 21
31.4649194539
  0
LINE
  8
0
 62
7
  6
CONTINUOUS
 10
151.0768668626
 20
30.8196456577
 11
150.9034292799
 21
30.7551182848
  0
LINE
  8
0
 62
7
  6
CONTINUOUS
 10
160.5003043074
 20
30.7551182848
 11
160.269054528
 21
30.7228545871
  0
LINE
  8
0
 62
7
  6
CONTINUOUS
 10
154.8924916972
 20
30.5937998301
 11
155.1815540869
 21
30.6260635193
  0
LINE
  8
0
 62
7
  6
CONTINUOUS
 10
160.269054528
 20
30.5937998301
 11
160.615929528
 21
30.6260635193
  0
LINE
  8
0
 62
7
  6
CONTINUOUS
 10
150.5565542799
 20
30.5937998301
 11
150.9612418074
 21
30.6260635193
  0
LINE
  8
0
 62
7
  6
CONTINUOUS
 10
150.9034292799
 20
30.7551182848
 11
150.498741835
 21
30.7228545871
  0
LINE
  8
0
 62
7
  6
CONTINUOUS
 10
154.7768668074
 20
31.1422825445
 11
155.412804528
 21
31.1422825445
  0
LINE
  8
0
 62
7
  6
CONTINUOUS
 10
155.412804528
 20
31.2713373354
 11
154.7768668074
 21
31.2713373354
  0
LINE
  8
0
 62
7
  6
CONTINUOUS
 10
151.1346793074
 20
31.3036010218
 11
151.4237418626
 21
31.3036010218
  0
LINE
  8
0
 62
7
  6
CONTINUOUS
 10
153.9674919177
 20
31.3681283946
 11
154.2565543074
 21
31.3681283946
  0
LINE
  8
0
 62
7
  6
CONTINUOUS
 10
160.6737418074
 20
31.3681283946
 11
160.9628038663
 21
31.3681283946
  0
LINE
  8
0
 62
7
  6
CONTINUOUS
 10
154.6612419177
 20
31.4971831403
 11
155.0081169177
 21
31.4971831403
  0
LINE
  8
0
 62
7
  6
CONTINUOUS
 10
159.8065543074
 20
31.4971831403
 11
160.1534293074
 21
31.4971831403
  0
LINE
  8
0
 62
7
  6
CONTINUOUS
 10
160.1534293074
 20
31.626237886
 11
159.8065543074
 21
31.626237886
  0
LINE
  8
0
 62
7
  6
CONTINUOUS
 10
158.0721793074
 20
31.626237886
 11
157.840929528
 21
31.626237886
  0
LINE
  8
0
 62
7
  6
CONTINUOUS
 10
157.320617028
 20
31.626237886
 11
157.0315543074
 21
31.626237886
  0
LINE
  8
0
 62
7
  6
CONTINUOUS
 10
156.5690540869
 20
31.626237886
 11
156.279992028
 21
31.626237886
  0
LINE
  8
0
 62
7
  6
CONTINUOUS
 10
155.0081169177
 20
31.626237886
 11
154.6612419177
 21
31.626237886
  0
LINE
  8
0
 62
7
  6
CONTINUOUS
 10
152.9268669177
 20
31.626237886
 11
152.6956168074
 21
31.626237886
  0
LINE
  8
0
 62
7
  6
CONTINUOUS
 10
156.279992028
 20
31.9488748406
 11
156.5690540869
 21
31.9488748406
  0
LINE
  8
0
 62
7
  6
CONTINUOUS
 10
156.5690540869
 20
32.1101932727
 11
156.279992028
 21
32.1101932727
  0
LINE
  8
0
 62
7
  6
CONTINUOUS
 10
152.1753043074
 20
32.1101932727
 11
151.8862417523
 21
32.1101932727
  0
LINE
  8
0
 62
7
  6
CONTINUOUS
 10
151.2130860697
 20
32.3970785186
 11
151.6256574183
 21
32.3970785186
  0
LINE
  8
0
 62
7
  6
CONTINUOUS
 10
152.852430332
 20
32.3970785186
 11
154.245872955
 21
32.3970785186
  0
LINE
  8
0
 62
7
  6
CONTINUOUS
 10
154.5737418074
 20
32.3970785186
 11
155.9671844304
 21
32.3970785186
  0
LINE
  8
0
 62
7
  6
CONTINUOUS
 10
157.852430332
 20
32.3970785186
 11
159.245872955
 21
32.3970785186
  0
LINE
  8
0
 62
7
  6
CONTINUOUS
 10
159.5737418074
 20
32.3970785186
 11
160.9671844304
 21
32.3970785186
  0
LINE
  8
0
 62
7
  6
CONTINUOUS
 10
157.6096790869
 20
31.5939741996
 11
157.4362415869
 21
31.5294468267
  0
LINE
  8
0
 62
7
  6
CONTINUOUS
 10
155.1815540869
 20
30.6260635193
 11
155.3549915869
 21
30.6905909007
  0
LINE
  8
0
 62
7
  6
CONTINUOUS
 10
160.615929528
 20
30.6260635193
 11
160.8471793074
 21
30.6905909007
  0
LINE
  8
0
 62
7
  6
CONTINUOUS
 10
160.615929528
 20
30.7873819712
 11
160.5003043074
 21
30.7551182848
  0
LINE
  8
0
 62
7
  6
CONTINUOUS
 10
159.575304528
 20
31.4649194539
 11
159.8065543074
 21
31.4971831403
  0
LINE
  8
0
 62
7
  6
CONTINUOUS
 10
157.6096790869
 20
31.4649194539
 11
157.840929528
 21
31.4971831403
  0
LINE
  8
0
 62
7
  6
CONTINUOUS
 10
154.5456166972
 20
31.1100188581
 11
154.7768668074
 21
31.1422825445
  0
LINE
  8
0
 62
7
  6
CONTINUOUS
 10
157.840929528
 20
31.626237886
 11
157.6096790869
 21
31.5939741996
  0
LINE
  8
0
 62
7
  6
CONTINUOUS
 10
154.4299918074
 20
31.4649194539
 11
154.6612419177
 21
31.4971831403
  0
LINE
  8
0
 62
7
  6
CONTINUOUS
 10
159.8065543074
 20
31.626237886
 11
159.4596793074
 21
31.5939741996
  0
LINE
  8
0
 62
7
  6
CONTINUOUS
 10
154.7768668074
 20
31.2713373354
 11
154.4299918074
 21
31.2390736489
  0
LINE
  8
0
 62
7
  6
CONTINUOUS
 10
150.5565542799
 20
31.626237886
 11
150.2096793212
 21
31.5939741996
  0
LINE
  8
0
 62
7
  6
CONTINUOUS
 10
154.6612419177
 20
31.626237886
 11
154.2565543074
 21
31.5939741996
  0
LINE
  8
0
 62
7
  6
CONTINUOUS
 10
152.0327582009
 20
33.5446195022
 11
151.3770204959
 21
33.5446195022
  0
LINE
  8
0
 62
7
  6
CONTINUOUS
 10
157.4362415869
 20
31.400392081
 11
157.6096790869
 21
31.4649194539
  0
LINE
  8
0
 62
7
  6
CONTINUOUS
 10
159.4596793074
 20
31.4326557675
 11
159.575304528
 21
31.4649194539
  0
LINE
  8
0
 62
7
  6
CONTINUOUS
 10
159.4596793074
 20
31.5939741996
 11
159.228429528
 21
31.5294468267
  0
LINE
  8
0
 62
7
  6
CONTINUOUS
 10
155.1815540869
 20
30.7873819712
 11
154.8924916972
 21
30.7228545871
  0
LINE
  8
0
 62
7
  6
CONTINUOUS
 10
152.4643666972
 20
31.4649194539
 11
152.6956168074
 21
31.4971831403
  0
LINE
  8
0
 62
7
  6
CONTINUOUS
 10
152.6956168074
 20
31.626237886
 11
152.4643666972
 21
31.5939741996
  0
LINE
  8
0
 62
7
  6
CONTINUOUS
 10
150.2674918074
 20
31.4649194539
 11
150.498741835
 21
31.4971831403
  0
LINE
  8
0
 62
7
  6
CONTINUOUS
 10
156.7868565615
 20
35.0200293383
 11
157.4425942664
 21
35.0200293383
  0
LINE
  8
0
 62
7
  6
CONTINUOUS
 10
154.4299918074
 20
31.0777551716
 11
154.5456166972
 21
31.1100188581
  0
LINE
  8
0
 62
7
  6
CONTINUOUS
 10
154.4299918074
 20
31.2390736489
 11
154.1987416972
 21
31.1745462761
  0
LINE
  8
0
 62
7
  6
CONTINUOUS
 10
154.3143669177
 20
31.4326557675
 11
154.4299918074
 21
31.4649194539
  0
LINE
  8
0
 62
7
  6
CONTINUOUS
 10
150.9612418074
 20
30.6260635193
 11
151.1924917523
 21
30.6905909007
  0
LINE
  8
0
 62
7
  6
CONTINUOUS
 10
154.2565543074
 20
31.5939741996
 11
154.1409294177
 21
31.5617105132
  0
LINE
  8
0
 62
7
  6
CONTINUOUS
 10
150.2096793212
 20
31.5939741996
 11
150.0362418212
 21
31.5617105132
  0
LINE
  8
0
 62
7
  6
CONTINUOUS
 10
160.9671844304
 20
36.1675703219
 11
159.5737418074
 21
36.1675703219
  0
LINE
  8
0
 62
7
  6
CONTINUOUS
 10
157.6065286927
 20
36.1675703219
 11
157.1939573441
 21
36.1675703219
  0
LINE
  8
0
 62
7
  6
CONTINUOUS
 10
155.9671844304
 20
36.1675703219
 11
154.5737418074
 21
36.1675703219
  0
LINE
  8
0
 62
7
  6
CONTINUOUS
 10
154.245872955
 20
36.1675703219
 11
152.852430332
 21
36.1675703219
  0
LINE
  8
0
 62
7
  6
CONTINUOUS
 10
150.9671844304
 20
36.1675703219
 11
149.5737418074
 21
36.1675703219
  0
LINE
  8
0
 62
7
  6
CONTINUOUS
 10
150.1518667936
 20
31.4326557675
 11
150.2674918074
 21
31.4649194539
  0
CIRCLE
  8
0
 62
7
  6
CONTINUOUS
 10
160.2704631189
 20
38.5036358957
 40
2.0901639344
  0
ARC
  8
0
 62
7
  6
CONTINUOUS
 10
151.2130860697
 20
34.0364227809
 40
1.6393442623
 50
180.0
 51
270.0
  0
ARC
  8
0
 62
7
  6
CONTINUOUS
 10
157.6065286927
 20
34.5282260596
 40
1.6393442623
 50
0.0
 51
90.0
  0
ARC
  8
0
 62
7
  6
CONTINUOUS
 10
151.6256574183
 20
33.8724883547
 40
1.4754098361
 50
270.0
 51
326.2510114041
  0
ARC
  8
0
 62
7
  6
CONTINUOUS
 10
157.1939573441
 20
34.6921604858
 40
1.4754098361
 50
90.0
 51
146.2510114041
  0
ARC
  8
0
 62
7
  6
CONTINUOUS
 10
152.0327582009
 20
34.3642916334
 40
0.8196721311
 50
270.0
 51
360.0
  0
ARC
  8
0
 62
7
  6
CONTINUOUS
 10
156.7868565615
 20
34.2003572071
 40
0.8196721311
 50
90.0
 51
180.0
  0
ARC
  8
0
 62
7
  6
CONTINUOUS
 10
151.3770204959
 20
33.9544555678
 40
0.4098360656
 50
180.0
 51
270.0
  0
ARC
  8
0
 62
7
  6
CONTINUOUS
 10
157.4425942664
 20
34.6101932727
 40
0.4098360656
 50
0.0
 51
90.0
  0
SOLID
  8
0
 62
7
  6
CONTINUOUS
 10
156.279992028
 20
31.9488752009
 11
156.279992028
 21
32.1101936845
 12
156.5690540869
 22
31.9488752009
 13
156.5690540869
 23
32.1101936845
  0
SOLID
  8
0
 62
7
  6
CONTINUOUS
 10
150.5565542799
 20
31.6262382337
 11
150.9612418074
 21
31.5939740028
 12
150.2096793212
 22
31.5939740028
 13
150.2096793212
 23
31.5939740028
  0
SOLID
  8
0
 62
7
  6
CONTINUOUS
 10
150.0362418212
 20
31.5617111435
 11
150.2096793212
 21
31.5939740028
 12
150.9612418074
 22
31.5939740028
 13
150.9612418074
 23
31.5939740028
  0
SOLID
  8
0
 62
7
  6
CONTINUOUS
 10
150.9612418074
 20
31.5939740028
 11
151.1924917523
 21
31.5294468402
 12
150.0362418212
 22
31.5617111435
 13
150.0362418212
 23
31.5617111435
  0
SOLID
  8
0
 62
7
  6
CONTINUOUS
 10
149.8628043005
 20
31.49718259
 11
150.0362418212
 21
31.5617111435
 12
151.1924917523
 22
31.5294468402
 13
151.1924917523
 23
31.5294468402
  0
SOLID
  8
0
 62
7
  6
CONTINUOUS
 10
149.8628043005
 20
31.49718259
 11
151.1924917523
 21
31.5294468402
 12
150.498741835
 22
31.49718259
 13
150.498741835
 23
31.49718259
  0
SOLID
  8
0
 62
7
  6
CONTINUOUS
 10
150.498741835
 20
31.49718259
 11
151.1924917523
 21
31.5294468402
 12
150.9034292799
 22
31.4649197501
 13
150.9034292799
 23
31.4649197501
  0
SOLID
  8
0
 62
7
  6
CONTINUOUS
 10
151.1924917523
 20
31.5294468402
 11
151.3659292523
 21
31.4326554468
 12
150.9034292799
 22
31.4649197501
 13
150.9034292799
 23
31.4649197501
  0
SOLID
  8
0
 62
7
  6
CONTINUOUS
 10
151.0768668626
 20
31.4003926599
 11
150.9034292799
 21
31.4649197501
 12
151.3659292523
 22
31.4326554468
 13
151.3659292523
 23
31.4326554468
  0
SOLID
  8
0
 62
7
  6
CONTINUOUS
 10
151.0768668626
 20
31.4003926599
 11
151.3659292523
 21
31.4326554468
 12
151.1346793074
 22
31.3036013776
 13
151.1346793074
 23
31.3036013776
  0
SOLID
  8
0
 62
7
  6
CONTINUOUS
 10
151.3659292523
 20
31.4326554468
 11
151.4237418626
 21
31.3036013776
 12
151.1346793074
 22
31.3036013776
 13
151.1346793074
 23
31.3036013776
  0
SOLID
  8
0
 62
7
  6
CONTINUOUS
 10
152.4643666972
 20
31.5939739754
 11
152.6956168074
 21
31.6262382787
 12
152.9268669177
 22
31.6262382787
 13
152.9268669177
 23
31.6262382787
  0
SOLID
  8
0
 62
7
  6
CONTINUOUS
 10
152.9268669177
 20
31.6262382787
 11
153.1003044177
 21
31.5939739754
 12
152.4643666972
 22
31.5939739754
 13
152.4643666972
 23
31.5939739754
  0
SOLID
  8
0
 62
7
  6
CONTINUOUS
 10
152.2909293626
 20
31.5294468852
 11
152.4643666972
 21
31.5939739754
 12
153.1003044177
 22
31.5939739754
 13
153.1003044177
 23
31.5939739754
  0
SOLID
  8
0
 62
7
  6
CONTINUOUS
 10
153.1003044177
 20
31.5939739754
 11
153.2737419177
 21
31.5294468852
 12
152.2909293626
 22
31.5294468852
 13
152.2909293626
 23
31.5294468852
  0
SOLID
  8
0
 62
7
  6
CONTINUOUS
 10
153.2737419177
 20
31.5294468852
 11
152.6956168074
 21
31.4971825369
 12
152.2909293626
 22
31.5294468852
 13
152.2909293626
 23
31.5294468852
  0
SOLID
  8
0
 62
7
  6
CONTINUOUS
 10
152.1753043074
 20
31.4649197951
 11
152.2909293626
 21
31.5294468852
 12
152.6956168074
 22
31.4971825369
 13
152.6956168074
 23
31.4971825369
  0
SOLID
  8
0
 62
7
  6
CONTINUOUS
 10
152.6956168074
 20
31.4971825369
 11
152.4643666972
 21
31.4649197951
 12
152.1753043074
 22
31.4649197951
 13
152.1753043074
 23
31.4649197951
  0
SOLID
  8
0
 62
7
  6
CONTINUOUS
 10
152.6956168074
 20
31.4971825369
 11
153.2737419177
 21
31.5294468852
 12
152.9268669177
 22
31.4649197951
 13
152.9268669177
 23
31.4649197951
  0
SOLID
  8
0
 62
7
  6
CONTINUOUS
 10
153.2737419177
 20
31.5294468852
 11
153.3893668074
 21
31.4649197951
 12
152.9268669177
 22
31.4649197951
 13
152.9268669177
 23
31.4649197951
  0
SOLID
  8
0
 62
7
  6
CONTINUOUS
 10
153.0424918074
 20
31.4326554468
 11
152.9268669177
 21
31.4649197951
 12
153.3893668074
 22
31.4649197951
 13
153.3893668074
 23
31.4649197951
  0
SOLID
  8
0
 62
7
  6
CONTINUOUS
 10
153.3893668074
 20
31.4649197951
 11
153.4471794177
 21
31.4003927049
 12
153.0424918074
 22
31.4326554468
 13
153.0424918074
 23
31.4326554468
  0
SOLID
  8
0
 62
7
  6
CONTINUOUS
 10
153.1581166972
 20
31.3681283566
 11
153.0424918074
 21
31.4326554468
 12
153.4471794177
 22
31.4003927049
 13
153.4471794177
 23
31.4003927049
  0
SOLID
  8
0
 62
7
  6
CONTINUOUS
 10
153.1581166972
 20
31.3681283566
 11
153.4471794177
 21
31.4003927049
 12
153.2159293074
 22
31.2390742213
 13
153.2159293074
 23
31.2390742213
  0
SOLID
  8
0
 62
7
  6
CONTINUOUS
 10
153.4471794177
 20
31.4003927049
 11
153.5049916972
 21
31.2390742213
 12
153.2159293074
 22
31.2390742213
 13
153.2159293074
 23
31.2390742213
  0
SOLID
  8
0
 62
7
  6
CONTINUOUS
 10
152.4643666972
 20
31.4649197951
 11
152.2909293626
 21
31.4003927049
 12
152.1753043074
 22
31.4649197951
 13
152.1753043074
 23
31.4649197951
  0
SOLID
  8
0
 62
7
  6
CONTINUOUS
 10
152.2909293626
 20
31.4003927049
 11
152.1753043074
 21
31.3358640533
 12
152.1753043074
 22
31.4649197951
 13
152.1753043074
 23
31.4649197951
  0
SOLID
  8
0
 62
7
  6
CONTINUOUS
 10
152.1753043074
 20
31.3358640533
 11
151.8862417523
 21
30.5938002869
 12
152.1753043074
 22
31.4649197951
 13
152.1753043074
 23
31.4649197951
  0
SOLID
  8
0
 62
7
  6
CONTINUOUS
 10
152.1753043074
 20
31.4649197951
 11
151.8862417523
 21
30.5938002869
 12
152.1753043074
 22
32.1101937295
 13
152.1753043074
 23
32.1101937295
  0
SOLID
  8
0
 62
7
  6
CONTINUOUS
 10
151.8862417523
 20
30.5938002869
 11
151.8862417523
 21
32.1101937295
 12
152.1753043074
 22
32.1101937295
 13
152.1753043074
 23
32.1101937295
  0
SOLID
  8
0
 62
7
  6
CONTINUOUS
 10
152.1753043074
 20
31.3358640533
 11
152.1753043074
 21
30.5938002869
 12
151.8862417523
 22
30.5938002869
 13
151.8862417523
 23
30.5938002869
  0
SOLID
  8
0
 62
7
  6
CONTINUOUS
 10
153.2159293074
 20
30.5938002869
 11
153.2159293074
 21
31.2390742213
 12
153.5049916972
 22
31.2390742213
 13
153.5049916972
 23
31.2390742213
  0
SOLID
  8
0
 62
7
  6
CONTINUOUS
 10
153.5049916972
 20
31.2390742213
 11
153.5049916972
 21
30.5938002869
 12
153.2159293074
 22
30.5938002869
 13
153.2159293074
 23
30.5938002869
  0
SOLID
  8
0
 62
7
  6
CONTINUOUS
 10
154.2565543074
 20
31.5939738288
 11
154.6612419177
 21
31.6262385959
 12
155.0081169177
 22
31.6262385959
 13
155.0081169177
 23
31.6262385959
  0
SOLID
  8
0
 62
7
  6
CONTINUOUS
 10
155.0081169177
 20
31.6262385959
 11
155.3549915869
 21
31.5939738288
 12
154.2565543074
 22
31.5939738288
 13
154.2565543074
 23
31.5939738288
  0
SOLID
  8
0
 62
7
  6
CONTINUOUS
 10
154.1409294177
 20
31.5617111435
 11
154.2565543074
 21
31.5939738288
 12
155.3549915869
 22
31.5939738288
 13
155.3549915869
 23
31.5939738288
  0
SOLID
  8
0
 62
7
  6
CONTINUOUS
 10
155.3549915869
 20
31.5939738288
 11
155.5284290869
 21
31.5294468402
 12
154.1409294177
 22
31.5617111435
 13
154.1409294177
 23
31.5617111435
  0
SOLID
  8
0
 62
7
  6
CONTINUOUS
 10
154.0253041972
 20
31.4971826249
 11
154.1409294177
 21
31.5617111435
 12
155.5284290869
 22
31.5294468402
 13
155.5284290869
 23
31.5294468402
  0
SOLID
  8
0
 62
7
  6
CONTINUOUS
 10
154.0253041972
 20
31.4971826249
 11
155.5284290869
 21
31.5294468402
 12
154.6612419177
 22
31.4971826249
 13
154.6612419177
 23
31.4971826249
  0
SOLID
  8
0
 62
7
  6
CONTINUOUS
 10
154.6612419177
 20
31.4971826249
 11
155.5284290869
 21
31.5294468402
 12
155.0081169177
 22
31.4971826249
 13
155.0081169177
 23
31.4971826249
  0
SOLID
  8
0
 62
7
  6
CONTINUOUS
 10
155.0081169177
 20
31.4971826249
 11
155.5284290869
 21
31.5294468402
 12
155.239367028
 22
31.4649194065
 13
155.239367028
 23
31.4649194065
  0
SOLID
  8
0
 62
7
  6
CONTINUOUS
 10
155.5284290869
 20
31.5294468402
 11
155.6440543074
 21
31.4649194065
 12
155.239367028
 22
31.4649194065
 13
155.239367028
 23
31.4649194065
  0
SOLID
  8
0
 62
7
  6
CONTINUOUS
 10
153.9674919177
 20
31.4326554138
 11
154.0253041972
 21
31.4971826249
 12
154.6612419177
 22
31.4971826249
 13
154.6612419177
 23
31.4971826249
  0
SOLID
  8
0
 62
7
  6
CONTINUOUS
 10
155.3549915869
 20
31.4326554138
 11
155.239367028
 21
31.4649194065
 12
155.6440543074
 22
31.4649194065
 13
155.6440543074
 23
31.4649194065
  0
SOLID
  8
0
 62
7
  6
CONTINUOUS
 10
155.3549915869
 20
31.4326554138
 11
155.6440543074
 21
31.4649194065
 12
155.412804528
 22
31.3681282026
 13
155.412804528
 23
31.3681282026
  0
SOLID
  8
0
 62
7
  6
CONTINUOUS
 10
155.6440543074
 20
31.4649194065
 11
155.7018665869
 21
31.3681282026
 12
155.412804528
 22
31.3681282026
 13
155.412804528
 23
31.3681282026
  0
SOLID
  8
0
 62
7
  6
CONTINUOUS
 10
155.412804528
 20
31.2713369632
 11
155.412804528
 21
31.3681282026
 12
155.7018665869
 22
31.3681282026
 13
155.7018665869
 23
31.3681282026
  0
SOLID
  8
0
 62
7
  6
CONTINUOUS
 10
155.412804528
 20
31.2713369632
 11
155.7018665869
 21
31.3681282026
 12
155.412804528
 22
31.1422827828
 13
155.412804528
 23
31.1422827828
  0
SOLID
  8
0
 62
7
  6
CONTINUOUS
 10
155.412804528
 20
31.1422827828
 11
155.7018665869
 21
31.3681282026
 12
155.412804528
 22
30.9487004259
 13
155.412804528
 23
30.9487004259
  0
SOLID
  8
0
 62
7
  6
CONTINUOUS
 10
155.7018665869
 20
31.3681282026
 11
155.7018665869
 21
30.8519086025
 12
155.412804528
 22
30.9487004259
 13
155.412804528
 23
30.9487004259
  0
SOLID
  8
0
 62
7
  6
CONTINUOUS
 10
157.6096790869
 20
31.5939736268
 11
157.840929528
 21
31.6262383465
 12
158.0721793074
 22
31.6262383465
 13
158.0721793074
 23
31.6262383465
  0
SOLID
  8
0
 62
7
  6
CONTINUOUS
 10
158.0721793074
 20
31.6262383465
 11
158.2456168074
 21
31.5939736268
 12
157.6096790869
 22
31.5939736268
 13
157.6096790869
 23
31.5939736268
  0
SOLID
  8
0
 62
7
  6
CONTINUOUS
 10
157.4362415869
 20
31.5294472848
 11
157.6096790869
 21
31.5939736268
 12
158.2456168074
 22
31.5939736268
 13
158.2456168074
 23
31.5939736268
  0
SOLID
  8
0
 62
7
  6
CONTINUOUS
 10
158.2456168074
 20
31.5939736268
 11
158.4190543074
 21
31.5294472848
 12
157.4362415869
 22
31.5294472848
 13
157.4362415869
 23
31.5294472848
  0
SOLID
  8
0
 62
7
  6
CONTINUOUS
 10
158.4190543074
 20
31.5294472848
 11
157.840929528
 21
31.4971825369
 12
157.4362415869
 22
31.5294472848
 13
157.4362415869
 23
31.5294472848
  0
SOLID
  8
0
 62
7
  6
CONTINUOUS
 10
157.320617028
 20
31.4649199103
 11
157.4362415869
 21
31.5294472848
 12
157.840929528
 22
31.4971825369
 13
157.840929528
 23
31.4971825369
  0
SOLID
  8
0
 62
7
  6
CONTINUOUS
 10
157.840929528
 20
31.4971825369
 11
157.6096790869
 21
31.4649199103
 12
157.320617028
 22
31.4649199103
 13
157.320617028
 23
31.4649199103
  0
SOLID
  8
0
 62
7
  6
CONTINUOUS
 10
157.840929528
 20
31.4971825369
 11
158.4190543074
 21
31.5294472848
 12
158.0721793074
 22
31.4649199103
 13
158.0721793074
 23
31.4649199103
  0
SOLID
  8
0
 62
7
  6
CONTINUOUS
 10
158.4190543074
 20
31.5294472848
 11
158.534679528
 21
31.4649199103
 12
158.0721793074
 22
31.4649199103
 13
158.0721793074
 23
31.4649199103
  0
SOLID
  8
0
 62
7
  6
CONTINUOUS
 10
158.187804528
 20
31.4326554468
 11
158.0721793074
 21
31.4649199103
 12
158.534679528
 22
31.4649199103
 13
158.534679528
 23
31.4649199103
  0
SOLID
  8
0
 62
7
  6
CONTINUOUS
 10
158.187804528
 20
31.4326554468
 11
158.534679528
 21
31.4649199103
 12
158.3034290869
 22
31.3681288486
 13
158.3034290869
 23
31.3681288486
  0
SOLID
  8
0
 62
7
  6
CONTINUOUS
 10
158.534679528
 20
31.4649199103
 11
158.5924918074
 21
31.3681288486
 12
158.3034290869
 22
31.3681288486
 13
158.3034290869
 23
31.3681288486
  0
SOLID
  8
0
 62
7
  6
CONTINUOUS
 10
158.361242028
 20
31.2068093799
 11
158.3034290869
 21
31.3681288486
 12
158.5924918074
 22
31.3681288486
 13
158.5924918074
 23
31.3681288486
  0
SOLID
  8
0
 62
7
  6
CONTINUOUS
 10
158.5924918074
 20
31.3681288486
 11
158.6503040869
 21
31.2068093799
 12
158.361242028
 22
31.2068093799
 13
158.361242028
 23
31.2068093799
  0
SOLID
  8
0
 62
7
  6
CONTINUOUS
 10
157.6096790869
 20
31.4649199103
 11
157.4362415869
 21
31.4003926599
 12
157.320617028
 22
31.4649199103
 13
157.320617028
 23
31.4649199103
  0
SOLID
  8
0
 62
7
  6
CONTINUOUS
 10
157.4362415869
 20
31.4003926599
 11
157.320617028
 21
31.3358640533
 12
157.320617028
 22
31.4649199103
 13
157.320617028
 23
31.4649199103
  0
SOLID
  8
0
 62
7
  6
CONTINUOUS
 10
157.320617028
 20
31.3358640533
 11
157.0315543074
 21
30.5938003547
 12
157.320617028
 22
31.4649199103
 13
157.320617028
 23
31.4649199103
  0
SOLID
  8
0
 62
7
  6
CONTINUOUS
 10
157.320617028
 20
31.4649199103
 11
157.0315543074
 21
30.5938003547
 12
157.320617028
 22
31.6262383465
 13
157.320617028
 23
31.6262383465
  0
SOLID
  8
0
 62
7
  6
CONTINUOUS
 10
157.0315543074
 20
30.5938003547
 11
157.0315543074
 21
31.6262383465
 12
157.320617028
 22
31.6262383465
 13
157.320617028
 23
31.6262383465
  0
SOLID
  8
0
 62
7
  6
CONTINUOUS
 10
157.320617028
 20
31.3358640533
 11
157.320617028
 21
30.5938003547
 12
157.0315543074
 22
30.5938003547
 13
157.0315543074
 23
30.5938003547
  0
SOLID
  8
0
 62
7
  6
CONTINUOUS
 10
158.361242028
 20
30.5938003547
 11
158.361242028
 21
31.2068093799
 12
158.6503040869
 22
31.2068093799
 13
158.6503040869
 23
31.2068093799
  0
SOLID
  8
0
 62
7
  6
CONTINUOUS
 10
158.6503040869
 20
31.2068093799
 11
158.6503040869
 21
30.5938003547
 12
158.361242028
 22
30.5938003547
 13
158.361242028
 23
30.5938003547
  0
SOLID
  8
0
 62
7
  6
CONTINUOUS
 10
159.4596793074
 20
31.5939739474
 11
159.8065543074
 21
31.6262381969
 12
160.1534293074
 22
31.6262381969
 13
160.1534293074
 23
31.6262381969
  0
SOLID
  8
0
 62
7
  6
CONTINUOUS
 10
160.1534293074
 20
31.6262381969
 11
160.5003043074
 21
31.5939739474
 12
159.4596793074
 22
31.5939739474
 13
159.4596793074
 23
31.5939739474
  0
SOLID
  8
0
 62
7
  6
CONTINUOUS
 10
159.228429528
 20
31.5294468402
 11
159.4596793074
 21
31.5939739474
 12
160.5003043074
 22
31.5939739474
 13
160.5003043074
 23
31.5939739474
  0
SOLID
  8
0
 62
7
  6
CONTINUOUS
 10
159.228429528
 20
31.5294468402
 11
160.5003043074
 21
31.5939739304
 12
160.6737418074
 22
31.5617111435
 13
160.6737418074
 23
31.5617111435
  0
SOLID
  8
0
 62
7
  6
CONTINUOUS
 10
159.228429528
 20
31.5294468402
 11
160.6737418074
 21
31.5617111435
 12
159.8065543074
 22
31.4971825592
 13
159.8065543074
 23
31.4971825592
  0
SOLID
  8
0
 62
7
  6
CONTINUOUS
 10
159.8065543074
 20
31.4971825592
 11
160.6737418074
 21
31.5617111435
 12
160.1534293074
 22
31.4971825592
 13
160.1534293074
 23
31.4971825592
  0
SOLID
  8
0
 62
7
  6
CONTINUOUS
 10
160.6737418074
 20
31.5617111435
 11
160.8471793074
 21
31.4971825592
 12
160.1534293074
 22
31.4971825592
 13
160.1534293074
 23
31.4971825592
  0
SOLID
  8
0
 62
7
  6
CONTINUOUS
 10
160.5003043074
 20
31.4649197501
 11
160.1534293074
 21
31.4971825592
 12
160.8471793074
 22
31.4971825592
 13
160.8471793074
 23
31.4971825592
  0
SOLID
  8
0
 62
7
  6
CONTINUOUS
 10
159.1128043074
 20
31.4326555427
 11
159.228429528
 21
31.5294468402
 12
159.8065543074
 22
31.4971825592
 13
159.8065543074
 23
31.4971825592
  0
SOLID
  8
0
 62
7
  6
CONTINUOUS
 10
160.5003043074
 20
31.4649197501
 11
160.8471793074
 21
31.4971825592
 12
160.615929528
 22
31.4326555427
 13
160.615929528
 23
31.4326555427
  0
SOLID
  8
0
 62
7
  6
CONTINUOUS
 10
160.615929528
 20
31.4326555427
 11
160.8471793074
 21
31.4971825592
 12
160.6737418074
 22
31.3681283005
 13
160.6737418074
 23
31.3681283005
  0
SOLID
  8
0
 62
7
  6
CONTINUOUS
 10
160.8471793074
 20
31.4971825592
 11
160.9628038663
 21
31.3681283005
 12
160.6737418074
 22
31.3681283005
 13
160.6737418074
 23
31.3681283005
  0
SOLID
  8
0
 62
7
  6
CONTINUOUS
 10
150.2674918074
 20
31.4649197501
 11
149.7471793074
 21
31.4326554237
 12
150.498741835
 22
31.4971824493
 13
150.498741835
 23
31.4971824493
  0
SOLID
  8
0
 62
7
  6
CONTINUOUS
 10
149.7471793074
 20
31.4326554237
 11
149.8628043005
 21
31.4971824493
 12
150.498741835
 22
31.4971824493
 13
150.498741835
 23
31.4971824493
  0
SOLID
  8
0
 62
7
  6
CONTINUOUS
 10
150.2674918074
 20
31.4649197501
 11
150.1518667936
 21
31.4326554237
 12
149.7471793074
 22
31.4326554237
 13
149.7471793074
 23
31.4326554237
  0
SOLID
  8
0
 62
7
  6
CONTINUOUS
 10
149.6315543091
 20
31.3036012664
 11
149.7471793074
 21
31.4326554237
 12
150.1518667936
 22
31.4326554237
 13
150.1518667936
 23
31.4326554237
  0
SOLID
  8
0
 62
7
  6
CONTINUOUS
 10
153.9674919177
 20
31.4326554237
 11
154.6612419177
 21
31.4971825369
 12
154.4299918074
 22
31.4649197501
 13
154.4299918074
 23
31.4649197501
  0
SOLID
  8
0
 62
7
  6
CONTINUOUS
 10
154.4299918074
 20
31.4649197501
 11
154.3143669177
 21
31.4326554237
 12
153.9674919177
 22
31.4326554237
 13
153.9674919177
 23
31.4326554237
  0
SOLID
  8
0
 62
7
  6
CONTINUOUS
 10
153.9674919177
 20
31.3681283335
 11
153.9674919177
 21
31.4326554237
 12
154.3143669177
 22
31.4326554237
 13
154.3143669177
 23
31.4326554237
  0
SOLID
  8
0
 62
7
  6
CONTINUOUS
 10
154.3143669177
 20
31.4326554237
 11
154.2565543074
 21
31.3681283335
 12
153.9674919177
 22
31.3681283335
 13
153.9674919177
 23
31.3681283335
  0
SOLID
  8
0
 62
7
  6
CONTINUOUS
 10
159.1128043074
 20
31.4326555528
 11
159.8065543074
 21
31.4971825369
 12
159.575304528
 22
31.4649197501
 13
159.575304528
 23
31.4649197501
  0
SOLID
  8
0
 62
7
  6
CONTINUOUS
 10
159.575304528
 20
31.4649197501
 11
159.4596793074
 21
31.4326555528
 12
159.1128043074
 22
31.4326555528
 13
159.1128043074
 23
31.4326555528
  0
SOLID
  8
0
 62
7
  6
CONTINUOUS
 10
159.1128043074
 20
31.3681284626
 11
159.1128043074
 21
31.4326555528
 12
159.4596793074
 22
31.4326555528
 13
159.4596793074
 23
31.4326555528
  0
SOLID
  8
0
 62
7
  6
CONTINUOUS
 10
159.4596793074
 20
31.4326555528
 11
159.401867028
 21
31.3681284626
 12
159.1128043074
 22
31.3681284626
 13
159.1128043074
 23
31.3681284626
  0
SOLID
  8
0
 62
7
  6
CONTINUOUS
 10
159.228429528
 20
31.2390741763
 11
159.1128043074
 21
31.3681284626
 12
159.401867028
 22
31.3681284626
 13
159.401867028
 23
31.3681284626
  0
SOLID
  8
0
 62
7
  6
CONTINUOUS
 10
149.6315543091
 20
31.3036012664
 11
150.1518667936
 21
31.4326554468
 12
149.9784292936
 22
31.3358640533
 13
149.9784292936
 23
31.3358640533
  0
SOLID
  8
0
 62
7
  6
CONTINUOUS
 10
149.9784292936
 20
31.3358640533
 11
149.9206168074
 21
31.2713369632
 12
149.6315543091
 22
31.3036012664
 13
149.6315543091
 23
31.3036012664
  0
SOLID
  8
0
 62
7
  6
CONTINUOUS
 10
149.5737418074
 20
31.1100184796
 11
149.6315543091
 21
31.3036012664
 12
149.9206168074
 22
31.2713369632
 13
149.9206168074
 23
31.2713369632
  0
SOLID
  8
0
 62
7
  6
CONTINUOUS
 10
154.4299918074
 20
31.2390741763
 11
154.7768668074
 21
31.271336924
 12
155.412804528
 22
31.271336924
 13
155.412804528
 23
31.271336924
  0
SOLID
  8
0
 62
7
  6
CONTINUOUS
 10
154.4299918074
 20
31.2390741763
 11
155.412804528
 21
31.271336924
 12
154.1987416972
 22
31.1745462761
 13
154.1987416972
 23
31.1745462761
  0
SOLID
  8
0
 62
7
  6
CONTINUOUS
 10
154.1987416972
 20
31.1745462761
 11
155.412804528
 21
31.271336924
 12
154.7768668074
 22
31.1422827436
 13
154.7768668074
 23
31.1422827436
  0
SOLID
  8
0
 62
7
  6
CONTINUOUS
 10
155.412804528
 20
31.271336924
 11
155.412804528
 21
31.1422827436
 12
154.7768668074
 22
31.1422827436
 13
154.7768668074
 23
31.1422827436
  0
SOLID
  8
0
 62
7
  6
CONTINUOUS
 10
159.228429528
 20
31.2390745501
 11
159.401867028
 21
31.3681283566
 12
159.4596793074
 22
31.3036012664
 13
159.4596793074
 23
31.3036012664
  0
SOLID
  8
0
 62
7
  6
CONTINUOUS
 10
159.4596793074
 20
31.3036012664
 11
159.6331168074
 21
31.2390745501
 12
159.228429528
 22
31.2390745501
 13
159.228429528
 23
31.2390745501
  0
SOLID
  8
0
 62
7
  6
CONTINUOUS
 10
159.4596793074
 20
31.1422827828
 11
159.228429528
 21
31.2390745501
 12
159.6331168074
 22
31.2390745501
 13
159.6331168074
 23
31.2390745501
  0
SOLID
  8
0
 62
7
  6
CONTINUOUS
 10
159.6331168074
 20
31.2390745501
 11
160.615929528
 21
31.0777556927
 12
159.4596793074
 22
31.1422827828
 13
159.4596793074
 23
31.1422827828
  0
SOLID
  8
0
 62
7
  6
CONTINUOUS
 10
160.442492028
 20
30.9809646623
 11
159.4596793074
 21
31.1422827828
 12
160.615929528
 22
31.0777556927
 13
160.615929528
 23
31.0777556927
  0
SOLID
  8
0
 62
7
  6
CONTINUOUS
 10
160.615929528
 20
31.0777556927
 11
160.8471793074
 21
30.9809646623
 12
160.442492028
 22
30.9809646623
 13
160.442492028
 23
30.9809646623
  0
SOLID
  8
0
 62
7
  6
CONTINUOUS
 10
160.615929528
 20
30.9164372091
 11
160.442492028
 21
30.9809646623
 12
160.8471793074
 22
30.9809646623
 13
160.8471793074
 23
30.9809646623
  0
SOLID
  8
0
 62
7
  6
CONTINUOUS
 10
160.615929528
 20
30.9164372091
 11
160.8471793074
 21
30.9809646623
 12
160.6737418074
 22
30.8519089441
 13
160.6737418074
 23
30.8519089441
  0
SOLID
  8
0
 62
7
  6
CONTINUOUS
 10
160.8471793074
 20
30.9809646623
 11
160.9628038663
 21
30.8519089441
 12
160.6737418074
 22
30.8519089441
 13
160.6737418074
 23
30.8519089441
  0
SOLID
  8
0
 62
7
  6
CONTINUOUS
 10
160.615929528
 20
30.7873818593
 11
160.6737418074
 21
30.8519089441
 12
160.9628038663
 22
30.8519089441
 13
160.9628038663
 23
30.8519089441
  0
SOLID
  8
0
 62
7
  6
CONTINUOUS
 10
160.9628038663
 20
30.8519089441
 11
160.9628038663
 21
30.7873818593
 12
160.615929528
 22
30.7873818593
 13
160.615929528
 23
30.7873818593
  0
SOLID
  8
0
 62
7
  6
CONTINUOUS
 10
160.5003043074
 20
30.7551187255
 11
160.615929528
 21
30.7873818593
 12
160.9628038663
 22
30.7873818593
 13
160.9628038663
 23
30.7873818593
  0
SOLID
  8
0
 62
7
  6
CONTINUOUS
 10
160.5003043074
 20
30.7551187255
 11
160.9628038663
 21
30.7873818593
 12
160.269054528
 22
30.7228547745
 13
160.269054528
 23
30.7228547745
  0
SOLID
  8
0
 62
7
  6
CONTINUOUS
 10
160.9628038663
 20
30.7873818593
 11
160.8471793074
 21
30.6905916353
 12
160.269054528
 22
30.7228547745
 13
160.269054528
 23
30.7228547745
  0
SOLID
  8
0
 62
7
  6
CONTINUOUS
 10
160.8471793074
 20
30.6905916353
 11
159.401867028
 21
30.658327332
 12
160.269054528
 22
30.7228547745
 13
160.269054528
 23
30.7228547745
  0
SOLID
  8
0
 62
7
  6
CONTINUOUS
 10
160.269054528
 20
30.7228547745
 11
159.401867028
 21
30.658327332
 12
159.922179528
 22
30.7228547745
 13
159.922179528
 23
30.7228547745
  0
SOLID
  8
0
 62
7
  6
CONTINUOUS
 10
159.401867028
 20
30.658327332
 11
159.228429528
 21
30.7228547745
 12
159.922179528
 22
30.7228547745
 13
159.922179528
 23
30.7228547745
  0
SOLID
  8
0
 62
7
  6
CONTINUOUS
 10
159.401867028
 20
30.658327332
 11
160.8471793074
 21
30.6905916353
 12
159.575304528
 22
30.6260629858
 13
159.575304528
 23
30.6260629858
  0
SOLID
  8
0
 62
7
  6
CONTINUOUS
 10
160.8471793074
 20
30.6905916353
 11
160.615929528
 21
30.6260629858
 12
159.575304528
 22
30.6260629858
 13
159.575304528
 23
30.6260629858
  0
SOLID
  8
0
 62
7
  6
CONTINUOUS
 10
159.922179528
 20
30.5938006049
 11
159.575304528
 21
30.6260629858
 12
160.615929528
 22
30.6260629858
 13
160.615929528
 23
30.6260629858
  0
SOLID
  8
0
 62
7
  6
CONTINUOUS
 10
160.615929528
 20
30.6260629858
 11
160.269054528
 21
30.5938006049
 12
159.922179528
 22
30.5938006049
 13
159.922179528
 23
30.5938006049
  0
SOLID
  8
0
 62
7
  6
CONTINUOUS
 10
149.5737418074
 20
31.1100184796
 11
149.9206168074
 21
31.2713369632
 12
149.8628043005
 22
31.1422827828
 13
149.8628043005
 23
31.1422827828
  0
SOLID
  8
0
 62
7
  6
CONTINUOUS
 10
149.8628043005
 20
31.1422827828
 11
149.8628043005
 21
31.0454914852
 12
149.5737418074
 22
31.1100184796
 13
149.5737418074
 23
31.1100184796
  0
SOLID
  8
0
 62
7
  6
CONTINUOUS
 10
149.6315543091
 20
30.9164372091
 11
149.5737418074
 21
31.1100184796
 12
149.8628043005
 22
31.0454914852
 13
149.8628043005
 23
31.0454914852
  0
SOLID
  8
0
 62
7
  6
CONTINUOUS
 10
149.8628043005
 20
31.0454914852
 11
149.9784292936
 21
30.8841729058
 12
149.6315543091
 22
30.9164372091
 13
149.6315543091
 23
30.9164372091
  0
SOLID
  8
0
 62
7
  6
CONTINUOUS
 10
149.7471793074
 20
30.7873813202
 11
149.6315543091
 21
30.9164372091
 12
149.9784292936
 22
30.8841729058
 13
149.9784292936
 23
30.8841729058
  0
SOLID
  8
0
 62
7
  6
CONTINUOUS
 10
149.9784292936
 20
30.8841729058
 11
150.1518667936
 21
30.7873813202
 12
149.7471793074
 22
30.7873813202
 13
149.7471793074
 23
30.7873813202
  0
SOLID
  8
0
 62
7
  6
CONTINUOUS
 10
149.8628043005
 20
30.7228547004
 11
149.7471793074
 21
30.7873813202
 12
150.1518667936
 22
30.7873813202
 13
150.1518667936
 23
30.7873813202
  0
SOLID
  8
0
 62
7
  6
CONTINUOUS
 10
150.1518667936
 20
30.7873813202
 11
150.498741835
 21
30.7228547004
 12
149.8628043005
 22
30.7228547004
 13
149.8628043005
 23
30.7228547004
  0
SOLID
  8
0
 62
7
  6
CONTINUOUS
 10
150.0362418212
 20
30.658327332
 11
149.8628043005
 21
30.7228547004
 12
150.498741835
 22
30.7228547004
 13
150.498741835
 23
30.7228547004
  0
SOLID
  8
0
 62
7
  6
CONTINUOUS
 10
154.0831168074
 20
31.1100184386
 11
154.1987416972
 21
31.1745462761
 12
154.7768668074
 22
31.1422827828
 13
154.7768668074
 23
31.1422827828
  0
SOLID
  8
0
 62
7
  6
CONTINUOUS
 10
154.7768668074
 20
31.1422827828
 11
154.5456166972
 21
31.1100184386
 12
154.0831168074
 22
31.1100184386
 13
154.0831168074
 23
31.1100184386
  0
SOLID
  8
0
 62
7
  6
CONTINUOUS
 10
153.9674919177
 20
30.9809642992
 11
154.0831168074
 21
31.1100184386
 12
154.5456166972
 22
31.1100184386
 13
154.5456166972
 23
31.1100184386
  0
SOLID
  8
0
 62
7
  6
CONTINUOUS
 10
154.3143669177
 20
31.0132277988
 11
153.9674919177
 21
30.9809642992
 12
154.4299918074
 22
31.0777556927
 13
154.4299918074
 23
31.0777556927
  0
SOLID
  8
0
 62
7
  6
CONTINUOUS
 10
153.9674919177
 20
30.9809642992
 11
154.5456166972
 21
31.1100184796
 12
154.4299918074
 22
31.0777556927
 13
154.4299918074
 23
31.0777556927
  0
SOLID
  8
0
 62
7
  6
CONTINUOUS
 10
154.3143669177
 20
31.0132277988
 11
154.2565543074
 21
30.9164372091
 12
153.9674919177
 22
30.9809642992
 13
153.9674919177
 23
30.9809642992
  0
SOLID
  8
0
 62
7
  6
CONTINUOUS
 10
153.9674919177
 20
30.8841729058
 11
153.9674919177
 21
30.9809642992
 12
154.2565543074
 22
30.9164372091
 13
154.2565543074
 23
30.9164372091
  0
SOLID
  8
0
 62
7
  6
CONTINUOUS
 10
154.2565543074
 20
30.9164372091
 11
154.2565543074
 21
30.8519086025
 12
153.9674919177
 22
30.8841729058
 13
153.9674919177
 23
30.8841729058
  0
SOLID
  8
0
 62
7
  6
CONTINUOUS
 10
154.0253041972
 20
30.7551187255
 11
153.9674919177
 21
30.8841729058
 12
154.2565543074
 22
30.8519086025
 13
154.2565543074
 23
30.8519086025
  0
SOLID
  8
0
 62
7
  6
CONTINUOUS
 10
155.412804528
 20
30.9487004259
 11
155.7018665869
 21
30.8519086025
 12
155.3549915869
 22
30.8841729058
 13
155.3549915869
 23
30.8841729058
  0
SOLID
  8
0
 62
7
  6
CONTINUOUS
 10
155.1815540869
 20
30.7873815123
 11
155.3549915869
 21
30.8841729058
 12
155.7018665869
 22
30.8519086025
 13
155.7018665869
 23
30.8519086025
  0
SOLID
  8
0
 62
7
  6
CONTINUOUS
 10
155.1815540869
 20
30.7873815123
 11
155.7018665869
 21
30.8519086025
 12
155.412804528
 22
30.7551187255
 13
155.412804528
 23
30.7551187255
  0
SOLID
  8
0
 62
7
  6
CONTINUOUS
 10
155.7018665869
 20
30.8519086025
 11
155.759679528
 21
30.6905916353
 12
155.412804528
 22
30.7551187255
 13
155.412804528
 23
30.7551187255
  0
SOLID
  8
0
 62
7
  6
CONTINUOUS
 10
155.4706168074
 20
30.658327332
 11
155.412804528
 21
30.7551187255
 12
155.759679528
 22
30.6905916353
 13
155.759679528
 23
30.6905916353
  0
SOLID
  8
0
 62
7
  6
CONTINUOUS
 10
155.4706168074
 20
30.658327332
 11
155.759679528
 21
30.6905916353
 12
155.5284290869
 22
30.5938002079
 13
155.5284290869
 23
30.5938002079
  0
SOLID
  8
0
 62
7
  6
CONTINUOUS
 10
155.759679528
 20
30.6905916353
 11
155.8174918074
 21
30.5938002079
 12
155.5284290869
 22
30.5938002079
 13
155.5284290869
 23
30.5938002079
  0
SOLID
  8
0
 62
7
  6
CONTINUOUS
 10
151.0768668626
 20
30.8196456577
 11
151.1346793074
 21
30.9164373395
 12
151.4237418626
 22
30.9164373395
 13
151.4237418626
 23
30.9164373395
  0
SOLID
  8
0
 62
7
  6
CONTINUOUS
 10
151.4237418626
 20
30.9164373395
 11
151.3659292523
 21
30.7873815123
 12
151.0768668626
 22
30.8196456577
 13
151.0768668626
 23
30.8196456577
  0
SOLID
  8
0
 62
7
  6
CONTINUOUS
 10
150.9034292799
 20
30.7551187255
 11
151.0768668626
 21
30.8196456577
 12
151.3659292523
 22
30.7873815123
 13
151.3659292523
 23
30.7873815123
  0
SOLID
  8
0
 62
7
  6
CONTINUOUS
 10
150.9034292799
 20
30.7551187255
 11
151.3659292523
 21
30.7873815123
 12
150.498741835
 22
30.7228544222
 13
150.498741835
 23
30.7228544222
  0
SOLID
  8
0
 62
7
  6
CONTINUOUS
 10
151.3659292523
 20
30.7873815123
 11
151.1924917523
 21
30.6905916353
 12
150.498741835
 22
30.7228544222
 13
150.498741835
 23
30.7228544222
  0
SOLID
  8
0
 62
7
  6
CONTINUOUS
 10
150.0362418212
 20
30.658327332
 11
150.498741835
 21
30.7228544222
 12
151.1924917523
 22
30.6905916353
 13
151.1924917523
 23
30.6905916353
  0
SOLID
  8
0
 62
7
  6
CONTINUOUS
 10
150.0362418212
 20
30.658327332
 11
151.1924917523
 21
30.6905916353
 12
150.2096793212
 22
30.6260631011
 13
150.2096793212
 23
30.6260631011
  0
SOLID
  8
0
 62
7
  6
CONTINUOUS
 10
151.1924917523
 20
30.6905916353
 11
150.9612418074
 21
30.6260631011
 12
150.2096793212
 22
30.6260631011
 13
150.2096793212
 23
30.6260631011
  0
SOLID
  8
0
 62
7
  6
CONTINUOUS
 10
150.5565542799
 20
30.5938002419
 11
150.2096793212
 21
30.6260631011
 12
150.9612418074
 22
30.6260631011
 13
150.9612418074
 23
30.6260631011
  0
SOLID
  8
0
 62
7
  6
CONTINUOUS
 10
154.0253041972
 20
30.7551187255
 11
154.2565543074
 21
30.8519086025
 12
154.3143669177
 22
30.7873815123
 13
154.3143669177
 23
30.7873815123
  0
SOLID
  8
0
 62
7
  6
CONTINUOUS
 10
154.3143669177
 20
30.7873815123
 11
154.5456166972
 21
30.7228544222
 12
154.0253041972
 22
30.7551187255
 13
154.0253041972
 23
30.7551187255
  0
SOLID
  8
0
 62
7
  6
CONTINUOUS
 10
154.1987416972
 20
30.658327332
 11
154.0253041972
 21
30.7551187255
 12
154.5456166972
 22
30.7228544222
 13
154.5456166972
 23
30.7228544222
  0
SOLID
  8
0
 62
7
  6
CONTINUOUS
 10
154.8924916972
 20
30.7228544637
 11
155.1815540869
 21
30.7873815123
 12
155.412804528
 22
30.7551187255
 13
155.412804528
 23
30.7551187255
  0
SOLID
  8
0
 62
7
  6
CONTINUOUS
 10
155.412804528
 20
30.7551187255
 11
155.3549915869
 21
30.6905916353
 12
154.8924916972
 22
30.7228544637
 13
154.8924916972
 23
30.7228544637
  0
SOLID
  8
0
 62
7
  6
CONTINUOUS
 10
155.3549915869
 20
30.6905916353
 11
154.1987416972
 21
30.658327332
 12
154.8924916972
 22
30.7228544637
 13
154.8924916972
 23
30.7228544637
  0
SOLID
  8
0
 62
7
  6
CONTINUOUS
 10
154.1987416972
 20
30.658327332
 11
154.5456166972
 21
30.7228544637
 12
154.8924916972
 22
30.7228544637
 13
154.8924916972
 23
30.7228544637
  0
SOLID
  8
0
 62
7
  6
CONTINUOUS
 10
154.1987416972
 20
30.658327332
 11
155.3549915869
 21
30.6905916353
 12
154.3143669177
 22
30.6260630541
 13
154.3143669177
 23
30.6260630541
  0
SOLID
  8
0
 62
7
  6
CONTINUOUS
 10
155.3549915869
 20
30.6905916353
 11
155.1815540869
 21
30.6260630541
 12
154.3143669177
 22
30.6260630541
 13
154.3143669177
 23
30.6260630541
  0
SOLID
  8
0
 62
7
  6
CONTINUOUS
 10
154.5456166972
 20
30.5938002188
 11
154.3143669177
 21
30.6260630541
 12
155.1815540869
 22
30.6260630541
 13
155.1815540869
 23
30.6260630541
  0
SOLID
  8
0
 62
7
  6
CONTINUOUS
 10
155.1815540869
 20
30.6260630541
 11
154.8924916972
 21
30.5938002188
 12
154.5456166972
 22
30.5938002188
 13
154.5456166972
 23
30.5938002188
  0
SOLID
  8
0
 62
7
  6
CONTINUOUS
 10
159.575304528
 20
30.7551187255
 11
159.228429528
 21
30.7228544637
 12
159.4596793074
 22
30.7873815123
 13
159.4596793074
 23
30.7873815123
  0
SOLID
  8
0
 62
7
  6
CONTINUOUS
 10
159.4596793074
 20
30.7873815123
 11
159.228429528
 21
30.7228544637
 12
159.401867028
 22
30.851908644
 13
159.401867028
 23
30.851908644
  0
SOLID
  8
0
 62
7
  6
CONTINUOUS
 10
159.228429528
 20
30.7228544637
 11
159.1128043074
 21
30.851908644
 12
159.401867028
 22
30.851908644
 13
159.401867028
 23
30.851908644
  0
SOLID
  8
0
 62
7
  6
CONTINUOUS
 10
159.575304528
 20
30.7551187255
 11
159.922179528
 21
30.7228544637
 12
159.228429528
 22
30.7228544637
 13
159.228429528
 23
30.7228544637
  0
SOLID
  8
0
 62
7
  6
CONTINUOUS
 10
156.279992028
 20
30.5938002419
 11
156.279992028
 21
31.6262382337
 12
156.5690540869
 22
30.5938002419
 13
156.5690540869
 23
31.6262382337
  0
ENDBLK
  8
0
  6
BYBLOCK
 62
0
  0
BLOCK
  8
0
 62
2
  6
CONTINUOUS
  2
AMMEAAL_LOGO_BL0
 70
64
 10
32.1213064866
 20
19.8534310916
  0
TEXT
  8
0
 62
7
  6
CONTINUOUS
 10
18.3860103289
 20
19.2268451992
  7
TEXTSTYLE_3
 40
2.7338706658
  1
Ammeraal Beltech
 41
1.0
 51
15.0
 72
0
  0
TEXT
  8
0
 62
7
  6
CONTINUOUS
 10
29.1868111546
 20
16.9533085264
  7
TEXTSTYLE_4
 40
1.0935482663
  1
Innovation & Service in Belting
 41
1.0
 72
0
  0
LINE
  8
0
 62
7
  6
CONTINUOUS
 10
12.3614696776
 20
19.9934385078
 11
13.1396216709
 21
23.6543558055
  0
LINE
  8
0
 62
7
  6
CONTINUOUS
 10
23.2347899607
 20
27.3177497171
 11
13.6274394139
 21
24.1961322958
  0
LINE
  8
0
 62
7
  6
CONTINUOUS
 10
12.5867530099
 20
19.3000877048
 11
20.093828271
 21
12.5406867788
  0
LINE
  8
0
 62
7
  6
CONTINUOUS
 10
12.8492874206
 20
20.5352149982
 11
23.6575567857
 21
24.0470345971
  0
LINE
  8
0
 62
7
  6
CONTINUOUS
 10
23.6533516486
 20
13.6972460334
 11
15.2078919798
 21
21.3015720751
  0
LINE
  8
0
 62
7
  6
CONTINUOUS
 10
24.1731743684
 20
26.4728246013
 11
23.1966148312
 21
21.8784731989
  0
LINE
  8
0
 62
7
  6
CONTINUOUS
 10
22.4968128835
 20
18.5861638851
 11
21.810364672
 21
15.3566789607
  0
LINE
  8
0
 62
7
  6
CONTINUOUS
 10
24.8542704669
 20
14.087448211
 11
25.8105020025
 21
18.5861638851
  0
LINE
  8
0
 62
7
  6
CONTINUOUS
 10
26.5103039502
 20
21.8784731989
 11
26.9545457526
 21
23.9684665583
  0
LINE
  8
0
 62
7
  6
CONTINUOUS
 10
20.8069293463
 20
12.3891124661
 11
24.3664527239
 21
13.5456717207
  0
LINE
  8
0
 62
7
  6
CONTINUOUS
 10
23.9478910361
 20
27.1661754044
 11
26.7292624203
 21
24.6618173613
  0
ARC
  8
0
 62
7
  6
CONTINUOUS
 10
13.8527227462
 20
23.5027814928
 40
0.7290321776
 50
108.0
 51
168.0
  0
ARC
  8
0
 62
7
  6
CONTINUOUS
 10
23.4600732931
 20
26.624398914
 40
0.7290321776
 50
348.0
 51
108.0
  0
ARC
  8
0
 62
7
  6
CONTINUOUS
 10
26.2414446773
 20
24.120040871
 40
0.7290321776
 50
348.0
 51
48.0
  0
ARC
  8
0
 62
7
  6
CONTINUOUS
 10
20.581646014
 20
13.0824632691
 40
0.7290321776
 50
228.0
 51
288.0
  0
ARC
  8
0
 62
7
  6
CONTINUOUS
 10
13.0745707529
 20
19.8418641951
 40
0.7290321776
 50
108.0
 51
228.0
  0
ARC
  8
0
 62
7
  6
CONTINUOUS
 10
24.1411693916
 20
14.2390225237
 40
0.7290321776
 50
228.0
 51
348.0
  0
ENDBLK
  8
0
  6
BYBLOCK
 62
0
  0
ENDSEC
  0
SECTION
  2
ENTITIES
  0
TEXT
  8
0
 62
5
  6
CONTINUOUS
 10
96.0
 20
25.636
  7
TEXTSTYLE_2
 40
2.8
  1
Scale :
 41
0.6
 51
0.000019
 72
0
  0
TEXT
  8
0
 62
5
  6
CONTINUOUS
 10
116.0
 20
25.636
  7
TEXTSTYLE_2
 40
2.8
  1
Belt type:
 41
0.6
 51
0.000019
 72
0
  0
INSERT
  8
0
 62
2
  6
CONTINUOUS
  2
AMMEAAL_LOGO_BL0
 10
32.1213064866
 20
19.8534310916
  0
INSERT
  8
0
 62
2
  6
CONTINUOUS
  2
UNI_LOGO2_BL1
 10
173.5956734183
 20
35.5937998301
  0
LINE
  8
0
 62
2
  6
CONTINUOUS
 10
10.0
 20
30.0
 11
200.0
 21
30.0
  0
LINE
  8
0
 62
2
  6
CONTINUOUS
 10
10.0
 20
30.0
 11
10.0
 21
10.0
  0
LINE
  8
0
 62
2
  6
CONTINUOUS
 10
10.0
 20
10.0
 11
200.0
 21
10.0
  0
LINE
  8
0
 62
2
  6
CONTINUOUS
 10
95.0
 20
30.0
 11
95.0
 21
10.0
  0
LINE
  8
0
 62
2
  6
CONTINUOUS
 10
115.0
 20
30.0
 11
115.0
 21
10.0
  0
LINE
  8
0
 62
2
  6
CONTINUOUS
 10
200.0
 20
30.0
 11
200.0
 21
10.0
  0
TEXT
  8
0
 62
5
  6
CONTINUOUS
 10
13.0
 20
23.303
  7
TEXTSTYLE_5
 40
1.52
  1
                                                                     Ammeraal Beltech Modular A/S
 41
1.0
 72
0
  0
TEXT
  8
0
 62
5
  6
CONTINUOUS
 10
13.0
 20
20.595
  7
TEXTSTYLE_5
 40
1.5
  1
                                                                      Hjulmagervej 21,  7100 Vejle,  DK
 41
1.0
 72
0
  0
TEXT
  8
0
 62
5
  6
CONTINUOUS
 10
13.0
 20
17.881
  7
TEXTSTYLE_5
 40
1.495
  1
                                                                      tel: 
 41
1.0
 72
0
  0
TEXT
  8
0
 62
5
  6
CONTINUOUS
 10
57.9869465649
 20
17.881
  7
TEXTSTYLE_5
 40
1.51
  1
+45 75723100     fax: +45 75723348
 41
1.0
 72
0
  0
TEXT
  8
0
 62
5
  6
CONTINUOUS
 10
13.0
 20
15.177
  7
TEXTSTYLE_5
 40
1.5
  1
                                                                      admin@unichains.dk  www.unichains.com
 41
1.0
 72
0
  0
TEXT
  8
0
 62
5
  6
CONTINUOUS
 10
99.75
 20
13.75
  7
TEXTSTYLE_6
 40
5.0
  1
1:1
 41
0.7
 72
1
 11
105.0
 21
13.75
  0
TEXT
  8
0
 62
5
  6
CONTINUOUS
 10
118.0
 20
13.75
  7
TEXTSTYLE_7
 40
7.5
  1
uni Light EP-8,5 K400 
 41
0.4789772727
 72
0
  0
LINE
  8
0
 62
7
  6
CONTINUOUS
 10
210.0
 20
0.0
 11
0.0
 21
0.0
  0
LINE
  8
0
 62
7
  6
CONTINUOUS
 10
10.0
 20
10.0
 11
200.0
 21
10.0
  0
LINE
  8
0
 62
7
  6
CONTINUOUS
 10
10.0
 20
30.0
 11
200.0
 21
30.0
  0
LINE
  8
0
 62
7
  6
CONTINUOUS
 10
0.0
 20
0.0
 11
0.0
 21
297.0
  0
LINE
  8
0
 62
7
  6
CONTINUOUS
 10
10.0
 20
10.0
 11
10.0
 21
287.0
  0
LINE
  8
0
 62
7
  6
CONTINUOUS
 10
200.0
 20
287.0
 11
200.0
 21
10.0
  0
LINE
  8
0
 62
7
  6
CONTINUOUS
 10
210.0
 20
0.0
 11
210.0
 21
297.0
  0
LINE
  8
0
 62
7
  6
CONTINUOUS
 10
10.0
 20
287.0
 11
200.0
 21
287.0
  0
LINE
  8
0
 62
7
  6
CONTINUOUS
 10
0.0
 20
297.0
 11
210.0
 21
297.0
  0
POLYLINE
  8
0
 62
7
  6
CONTINUOUS
 66
1
 70
0
  0
VERTEX
  8
0
 62
7
  6
CONTINUOUS
 10
30.7298657738
 20
124.5665681678
  0
VERTEX
  8
0
 62
7
  6
CONTINUOUS
 10
30.7433191195
 20
124.6817738672
  0
VERTEX
  8
0
 62
7
  6
CONTINUOUS
 10
30.7809426686
 20
124.7867227625
  0
VERTEX
  8
0
 62
7
  6
CONTINUOUS
 10
30.8395775415
 20
124.8790983195
  0
VERTEX
  8
0
 62
7
  6
CONTINUOUS
 10
30.9169458829
 20
124.9565439899
  0
VERTEX
  8
0
 62
7
  6
CONTINUOUS
 10
31.0060697149
 20
125.0136870826
  0
VERTEX
  8
0
 62
7
  6
CONTINUOUS
 10
31.1111895685
 20
125.0522799736
  0
VERTEX
  8
0
 62
7
  6
CONTINUOUS
 10
31.2298657738
 20
125.0665681677
  0
SEQEND
  0
LINE
  8
0
 62
7
  6
CONTINUOUS
 10
30.5298657738
 20
94.1808724832
 11
30.5298657738
 21
122.9971239844
  0
LINE
  8
0
 62
7
  6
CONTINUOUS
 10
30.7298657738
 20
124.5665681678
 11
30.7298657738
 21
86.8408724832
  0
POLYLINE
  8
0
 62
7
  6
CONTINUOUS
 66
1
 70
0
  0
VERTEX
  8
0
 62
7
  6
CONTINUOUS
 10
33.7798662304
 20
126.0488862058
  0
VERTEX
  8
0
 62
7
  6
CONTINUOUS
 10
33.7763957836
 20
125.9222402587
  0
VERTEX
  8
0
 62
7
  6
CONTINUOUS
 10
33.763786423
 20
125.7839681586
  0
VERTEX
  8
0
 62
7
  6
CONTINUOUS
 10
33.7415622804
 20
125.6523204515
  0
VERTEX
  8
0
 62
7
  6
CONTINUOUS
 10
33.7096457899
 20
125.5293138271
  0
VERTEX
  8
0
 62
7
  6
CONTINUOUS
 10
33.6683163564
 20
125.4169101899
  0
VERTEX
  8
0
 62
7
  6
CONTINUOUS
 10
33.6182489363
 20
125.317063212
  0
VERTEX
  8
0
 62
7
  6
CONTINUOUS
 10
33.5602254281
 20
125.2312732587
  0
VERTEX
  8
0
 62
7
  6
CONTINUOUS
 10
33.4948124671
 20
125.1607994871
  0
VERTEX
  8
0
 62
7
  6
CONTINUOUS
 10
33.4231597772
 20
125.1079486322
  0
VERTEX
  8
0
 62
7
  6
CONTINUOUS
 10
33.3472971368
 20
125.0757227168
  0
VERTEX
  8
0
 62
7
  6
CONTINUOUS
 10
33.2798657738
 20
125.0665682489
  0
SEQEND
  0
POLYLINE
  8
0
 62
7
  6
CONTINUOUS
 66
1
 70
0
  0
VERTEX
  8
0
 62
7
  6
CONTINUOUS
 10
33.7798657738
 20
129.9056173546
  0
VERTEX
  8
0
 62
7
  6
CONTINUOUS
 10
33.7941654943
 20
129.9248537322
  0
VERTEX
  8
0
 62
7
  6
CONTINUOUS
 10
33.8364038963
 20
129.9427691391
  0
VERTEX
  8
0
 62
7
  6
CONTINUOUS
 10
33.9043976767
 20
129.9583993727
  0
VERTEX
  8
0
 62
7
  6
CONTINUOUS
 10
33.9469460939
 20
129.9650917116
  0
VERTEX
  8
0
 62
7
  6
CONTINUOUS
 10
34.0461540511
 20
129.9757881989
  0
VERTEX
  8
0
 62
7
  6
CONTINUOUS
 10
34.1593209876
 20
129.9824486714
  0
VERTEX
  8
0
 62
7
  6
CONTINUOUS
 10
34.2798657738
 20
129.9847129643
  0
SEQEND
  0
LINE
  8
0
 62
7
  6
CONTINUOUS
 10
33.5298657738
 20
86.8408724832
 11
33.5298657738
 21
93.2128869741
  0
LINE
  8
0
 62
7
  6
CONTINUOUS
 10
33.7798657738
 20
132.4208724832
 11
33.7798657738
 21
126.0488580456
  0
LINE
  8
0
 62
7
  6
CONTINUOUS
 10
35.9498657738
 20
100.5608724832
 11
35.9498657738
 21
105.7108724832
  0
LINE
  8
0
 62
7
  6
CONTINUOUS
 10
35.9498657738
 20
113.5508724832
 11
35.9498657738
 21
118.7008724832
  0
POLYLINE
  8
0
 62
7
  6
CONTINUOUS
 66
1
 70
0
  0
VERTEX
  8
0
 62
7
  6
CONTINUOUS
 10
33.5298655647
 20
93.212849893
  0
VERTEX
  8
0
 62
7
  6
CONTINUOUS
 10
33.5333359556
 20
93.3395085194
  0
VERTEX
  8
0
 62
7
  6
CONTINUOUS
 10
33.5459455324
 20
93.4777820515
  0
VERTEX
  8
0
 62
7
  6
CONTINUOUS
 10
33.5681696451
 20
93.6094271197
  0
VERTEX
  8
0
 62
7
  6
CONTINUOUS
 10
33.6000858389
 20
93.7324318191
  0
VERTEX
  8
0
 62
7
  6
CONTINUOUS
 10
33.6414153971
 20
93.8448353387
  0
VERTEX
  8
0
 62
7
  6
CONTINUOUS
 10
33.6914825249
 20
93.9446816372
  0
VERTEX
  8
0
 62
7
  6
CONTINUOUS
 10
33.749506511
 20
94.0304720548
  0
VERTEX
  8
0
 62
7
  6
CONTINUOUS
 10
33.8149192508
 20
94.1009457029
  0
VERTEX
  8
0
 62
7
  6
CONTINUOUS
 10
33.8865725668
 20
94.1537968593
  0
VERTEX
  8
0
 62
7
  6
CONTINUOUS
 10
33.9624381692
 20
94.1860232579
  0
VERTEX
  8
0
 62
7
  6
CONTINUOUS
 10
34.0298657738
 20
94.1951767156
  0
SEQEND
  0
LINE
  8
0
 62
7
  6
CONTINUOUS
 10
30.5298657738
 20
94.1808724832
 11
30.7298657738
 21
93.9808724832
  0
POLYLINE
  8
0
 62
7
  6
CONTINUOUS
 66
1
 70
0
  0
VERTEX
  8
0
 62
7
  6
CONTINUOUS
 10
40.1298657738
 20
89.3561276118
  0
VERTEX
  8
0
 62
7
  6
CONTINUOUS
 10
40.1441654943
 20
89.3368912342
  0
VERTEX
  8
0
 62
7
  6
CONTINUOUS
 10
40.1864038963
 20
89.3189758274
  0
VERTEX
  8
0
 62
7
  6
CONTINUOUS
 10
40.2543976767
 20
89.3033455938
  0
VERTEX
  8
0
 62
7
  6
CONTINUOUS
 10
40.2969460939
 20
89.2966532549
  0
VERTEX
  8
0
 62
7
  6
CONTINUOUS
 10
40.3961540511
 20
89.2859567676
  0
VERTEX
  8
0
 62
7
  6
CONTINUOUS
 10
40.5093209876
 20
89.279296295
  0
VERTEX
  8
0
 62
7
  6
CONTINUOUS
 10
40.6298657738
 20
89.2770320022
  0
SEQEND
  0
LINE
  8
0
 62
7
  6
CONTINUOUS
 10
37.7098657738
 20
118.7008724832
 11
37.7098657738
 21
113.5508724832
  0
LINE
  8
0
 62
7
  6
CONTINUOUS
 10
37.7098657738
 20
105.7108724832
 11
37.7098657738
 21
100.5608724832
  0
LINE
  8
0
 62
7
  6
CONTINUOUS
 10
39.8798657738
 20
125.7452428819
 11
39.8798657738
 21
132.4208724832
  0
LINE
  8
0
 62
7
  6
CONTINUOUS
 10
40.1298657738
 20
93.2128869209
 11
40.1298657738
 21
86.8408724832
  0
LINE
  8
0
 62
7
  6
CONTINUOUS
 10
42.2998657738
 20
100.5608724832
 11
42.2998657738
 21
105.7108724832
  0
LINE
  8
0
 62
7
  6
CONTINUOUS
 10
42.2998657738
 20
113.5508724832
 11
42.2998657738
 21
118.7008724832
  0
LINE
  8
0
 62
7
  6
CONTINUOUS
 10
44.0598657738
 20
118.7008724832
 11
44.0598657738
 21
113.5508724832
  0
LINE
  8
0
 62
7
  6
CONTINUOUS
 10
44.0598657738
 20
105.7108724832
 11
44.0598657738
 21
100.5608724832
  0
LINE
  8
0
 62
7
  6
CONTINUOUS
 10
46.2298657738
 20
86.8408724832
 11
46.2298657738
 21
93.5165020846
  0
LINE
  8
0
 62
7
  6
CONTINUOUS
 10
46.4798657738
 20
132.4208724832
 11
46.4798657738
 21
126.0488580456
  0
POLYLINE
  8
0
 62
7
  6
CONTINUOUS
 66
1
 70
0
  0
VERTEX
  8
0
 62
7
  6
CONTINUOUS
 10
46.4798662304
 20
126.0488862058
  0
VERTEX
  8
0
 62
7
  6
CONTINUOUS
 10
46.4763957836
 20
125.9222402587
  0
VERTEX
  8
0
 62
7
  6
CONTINUOUS
 10
46.463786423
 20
125.7839681586
  0
VERTEX
  8
0
 62
7
  6
CONTINUOUS
 10
46.4415622804
 20
125.6523204515
  0
VERTEX
  8
0
 62
7
  6
CONTINUOUS
 10
46.4096457899
 20
125.5293138271
  0
VERTEX
  8
0
 62
7
  6
CONTINUOUS
 10
46.3683163564
 20
125.4169101899
  0
VERTEX
  8
0
 62
7
  6
CONTINUOUS
 10
46.3182489363
 20
125.317063212
  0
VERTEX
  8
0
 62
7
  6
CONTINUOUS
 10
46.2602254281
 20
125.2312732587
  0
VERTEX
  8
0
 62
7
  6
CONTINUOUS
 10
46.1948124671
 20
125.1607994871
  0
VERTEX
  8
0
 62
7
  6
CONTINUOUS
 10
46.1231597772
 20
125.1079486322
  0
VERTEX
  8
0
 62
7
  6
CONTINUOUS
 10
46.0472971368
 20
125.0757227168
  0
VERTEX
  8
0
 62
7
  6
CONTINUOUS
 10
45.9798657738
 20
125.0665682489
  0
SEQEND
  0
POLYLINE
  8
0
 62
7
  6
CONTINUOUS
 66
1
 70
0
  0
VERTEX
  8
0
 62
7
  6
CONTINUOUS
 10
46.2298655643
 20
93.212849809
  0
VERTEX
  8
0
 62
7
  6
CONTINUOUS
 10
46.2333359557
 20
93.3395085429
  0
VERTEX
  8
0
 62
7
  6
CONTINUOUS
 10
46.2459455344
 20
93.4777820833
  0
VERTEX
  8
0
 62
7
  6
CONTINUOUS
 10
46.2681696466
 20
93.6094271289
  0
VERTEX
  8
0
 62
7
  6
CONTINUOUS
 10
46.3000858382
 20
93.7324318167
  0
VERTEX
  8
0
 62
7
  6
CONTINUOUS
 10
46.3414153952
 20
93.8448353334
  0
VERTEX
  8
0
 62
7
  6
CONTINUOUS
 10
46.3914825144
 20
93.944681618
  0
VERTEX
  8
0
 62
7
  6
CONTINUOUS
 10
46.4495065121
 20
94.0304720507
  0
VERTEX
  8
0
 62
7
  6
CONTINUOUS
 10
46.514919226
 20
94.1009456798
  0
VERTEX
  8
0
 62
7
  6
CONTINUOUS
 10
46.5865725532
 20
94.1537968521
  0
VERTEX
  8
0
 62
7
  6
CONTINUOUS
 10
46.662438172
 20
94.1860232587
  0
VERTEX
  8
0
 62
7
  6
CONTINUOUS
 10
46.7298657738
 20
94.195176716
  0
SEQEND
  0
LINE
  8
0
 62
7
  6
CONTINUOUS
 10
48.6498657738
 20
100.5608724832
 11
48.6498657738
 21
105.7108724832
  0
LINE
  8
0
 62
7
  6
CONTINUOUS
 10
48.6498657738
 20
113.5508724832
 11
48.6498657738
 21
118.7008724832
  0
LINE
  8
0
 62
7
  6
CONTINUOUS
 10
50.4098657738
 20
118.7008724832
 11
50.4098657738
 21
113.5508724832
  0
LINE
  8
0
 62
7
  6
CONTINUOUS
 10
50.4098657738
 20
105.7108724832
 11
50.4098657738
 21
100.5608724832
  0
POLYLINE
  8
0
 62
7
  6
CONTINUOUS
 66
1
 70
0
  0
VERTEX
  8
0
 62
7
  6
CONTINUOUS
 10
59.1798657738
 20
129.9056173546
  0
VERTEX
  8
0
 62
7
  6
CONTINUOUS
 10
59.1941654943
 20
129.9248537322
  0
VERTEX
  8
0
 62
7
  6
CONTINUOUS
 10
59.2364038963
 20
129.9427691391
  0
VERTEX
  8
0
 62
7
  6
CONTINUOUS
 10
59.3043976767
 20
129.9583993727
  0
VERTEX
  8
0
 62
7
  6
CONTINUOUS
 10
59.3469460939
 20
129.9650917116
  0
VERTEX
  8
0
 62
7
  6
CONTINUOUS
 10
59.4461540511
 20
129.9757881989
  0
VERTEX
  8
0
 62
7
  6
CONTINUOUS
 10
59.5593209876
 20
129.9824486714
  0
VERTEX
  8
0
 62
7
  6
CONTINUOUS
 10
59.6798657738
 20
129.9847129643
  0
SEQEND
  0
LINE
  8
0
 62
7
  6
CONTINUOUS
 10
52.5798657738
 20
126.0488579921
 11
52.5798657738
 21
132.4208724832
  0
LINE
  8
0
 62
7
  6
CONTINUOUS
 10
52.8298657738
 20
86.8408724832
 11
52.8298657738
 21
93.2128869209
  0
LINE
  8
0
 62
7
  6
CONTINUOUS
 10
54.9998657738
 20
100.5608724832
 11
54.9998657738
 21
105.7108724832
  0
LINE
  8
0
 62
7
  6
CONTINUOUS
 10
54.9998657738
 20
113.5508724832
 11
54.9998657738
 21
118.7008724832
  0
LINE
  8
0
 62
7
  6
CONTINUOUS
 10
56.7598657738
 20
118.7008724832
 11
56.7598657738
 21
113.5508724832
  0
LINE
  8
0
 62
7
  6
CONTINUOUS
 10
56.7598657738
 20
105.7108724832
 11
56.7598657738
 21
100.5608724832
  0
LINE
  8
0
 62
7
  6
CONTINUOUS
 10
58.9298657738
 20
86.8408724832
 11
58.9298657738
 21
93.2128869741
  0
LINE
  8
0
 62
7
  6
CONTINUOUS
 10
59.1798657738
 20
132.4208724832
 11
59.1798657738
 21
126.0488580456
  0
POLYLINE
  8
0
 62
7
  6
CONTINUOUS
 66
1
 70
0
  0
VERTEX
  8
0
 62
7
  6
CONTINUOUS
 10
59.1798662294
 20
126.048886105
  0
VERTEX
  8
0
 62
7
  6
CONTINUOUS
 10
59.1763957856
 20
125.9222402788
  0
VERTEX
  8
0
 62
7
  6
CONTINUOUS
 10
59.1637864249
 20
125.7839681819
  0
VERTEX
  8
0
 62
7
  6
CONTINUOUS
 10
59.1415622813
 20
125.6523204567
  0
VERTEX
  8
0
 62
7
  6
CONTINUOUS
 10
59.1096457886
 20
125.5293138222
  0
VERTEX
  8
0
 62
7
  6
CONTINUOUS
 10
59.068316354
 20
125.4169101848
  0
VERTEX
  8
0
 62
7
  6
CONTINUOUS
 10
59.0182489181
 20
125.317063182
  0
VERTEX
  8
0
 62
7
  6
CONTINUOUS
 10
58.9602254316
 20
125.2312732582
  0
VERTEX
  8
0
 62
7
  6
CONTINUOUS
 10
58.8948124438
 20
125.1607994653
  0
VERTEX
  8
0
 62
7
  6
CONTINUOUS
 10
58.8231597649
 20
125.1079486244
  0
VERTEX
  8
0
 62
7
  6
CONTINUOUS
 10
58.7472971405
 20
125.0757227177
  0
VERTEX
  8
0
 62
7
  6
CONTINUOUS
 10
58.6798657738
 20
125.0665682492
  0
SEQEND
  0
POLYLINE
  8
0
 62
7
  6
CONTINUOUS
 66
1
 70
0
  0
VERTEX
  8
0
 62
7
  6
CONTINUOUS
 10
58.9298655647
 20
93.212849893
  0
VERTEX
  8
0
 62
7
  6
CONTINUOUS
 10
58.9333359556
 20
93.3395085194
  0
VERTEX
  8
0
 62
7
  6
CONTINUOUS
 10
58.9459455324
 20
93.4777820515
  0
VERTEX
  8
0
 62
7
  6
CONTINUOUS
 10
58.9681696451
 20
93.6094271197
  0
VERTEX
  8
0
 62
7
  6
CONTINUOUS
 10
59.0000858389
 20
93.7324318191
  0
VERTEX
  8
0
 62
7
  6
CONTINUOUS
 10
59.0414153971
 20
93.8448353387
  0
VERTEX
  8
0
 62
7
  6
CONTINUOUS
 10
59.0914825249
 20
93.9446816372
  0
VERTEX
  8
0
 62
7
  6
CONTINUOUS
 10
59.149506511
 20
94.0304720548
  0
VERTEX
  8
0
 62
7
  6
CONTINUOUS
 10
59.2149192508
 20
94.1009457029
  0
VERTEX
  8
0
 62
7
  6
CONTINUOUS
 10
59.2865725668
 20
94.1537968593
  0
VERTEX
  8
0
 62
7
  6
CONTINUOUS
 10
59.3624381692
 20
94.1860232579
  0
VERTEX
  8
0
 62
7
  6
CONTINUOUS
 10
59.4298657738
 20
94.1951767156
  0
SEQEND
  0
LINE
  8
0
 62
7
  6
CONTINUOUS
 10
31.2298657738
 20
86.3408724832
 11
33.0298657738
 21
86.3408724832
  0
LINE
  8
0
 62
7
  6
CONTINUOUS
 10
40.6298657738
 20
86.3408724832
 11
45.7298657738
 21
86.3408724832
  0
LINE
  8
0
 62
7
  6
CONTINUOUS
 10
53.3298657738
 20
86.3408724832
 11
58.4298657738
 21
86.3408724832
  0
LINE
  8
0
 62
7
  6
CONTINUOUS
 10
66.0298657738
 20
86.3408724832
 11
71.1298657738
 21
86.3408724832
  0
LINE
  8
0
 62
7
  6
CONTINUOUS
 10
78.7298657738
 20
86.3408724832
 11
83.8298657738
 21
86.3408724832
  0
LINE
  8
0
 62
7
  6
CONTINUOUS
 10
91.4298657738
 20
86.3408724832
 11
96.5298657738
 21
86.3408724832
  0
LINE
  8
0
 62
7
  6
CONTINUOUS
 10
104.1298657738
 20
86.3408724832
 11
109.2298657738
 21
86.3408724832
  0
LINE
  8
0
 62
7
  6
CONTINUOUS
 10
116.8298657738
 20
86.3408724832
 11
121.9298657738
 21
86.3408724832
  0
LINE
  8
0
 62
7
  6
CONTINUOUS
 10
129.5298657738
 20
86.3408724832
 11
131.3298657738
 21
86.3408724832
  0
POLYLINE
  8
0
 62
7
  6
CONTINUOUS
 66
1
 70
0
  0
VERTEX
  8
0
 62
7
  6
CONTINUOUS
 10
65.5298657738
 20
89.3561276118
  0
VERTEX
  8
0
 62
7
  6
CONTINUOUS
 10
65.5441654943
 20
89.3368912342
  0
VERTEX
  8
0
 62
7
  6
CONTINUOUS
 10
65.5864038963
 20
89.3189758274
  0
VERTEX
  8
0
 62
7
  6
CONTINUOUS
 10
65.6543976767
 20
89.3033455938
  0
VERTEX
  8
0
 62
7
  6
CONTINUOUS
 10
65.6969460939
 20
89.2966532549
  0
VERTEX
  8
0
 62
7
  6
CONTINUOUS
 10
65.7961540511
 20
89.2859567676
  0
VERTEX
  8
0
 62
7
  6
CONTINUOUS
 10
65.9093209876
 20
89.279296295
  0
VERTEX
  8
0
 62
7
  6
CONTINUOUS
 10
66.0298657738
 20
89.2770320022
  0
SEQEND
  0
LINE
  8
0
 62
7
  6
CONTINUOUS
 10
61.3498657738
 20
100.5608724832
 11
61.3498657738
 21
105.7108724832
  0
LINE
  8
0
 62
7
  6
CONTINUOUS
 10
61.3498657738
 20
113.5508724832
 11
61.3498657738
 21
118.7008724832
  0
LINE
  8
0
 62
7
  6
CONTINUOUS
 10
63.1098657738
 20
118.7008724832
 11
63.1098657738
 21
113.5508724832
  0
LINE
  8
0
 62
7
  6
CONTINUOUS
 10
63.1098657738
 20
105.7108724832
 11
63.1098657738
 21
100.5608724832
  0
POLYLINE
  8
0
 62
7
  6
CONTINUOUS
 66
1
 70
0
  0
VERTEX
  8
0
 62
7
  6
CONTINUOUS
 10
121.9298657738
 20
89.2770320022
  0
VERTEX
  8
0
 62
7
  6
CONTINUOUS
 10
122.0504105601
 20
89.279296295
  0
VERTEX
  8
0
 62
7
  6
CONTINUOUS
 10
122.1635774965
 20
89.2859567676
  0
VERTEX
  8
0
 62
7
  6
CONTINUOUS
 10
122.2627854538
 20
89.2966532549
  0
VERTEX
  8
0
 62
7
  6
CONTINUOUS
 10
122.305333871
 20
89.3033455938
  0
VERTEX
  8
0
 62
7
  6
CONTINUOUS
 10
122.3733276513
 20
89.3189758274
  0
VERTEX
  8
0
 62
7
  6
CONTINUOUS
 10
122.4155660533
 20
89.3368912342
  0
VERTEX
  8
0
 62
7
  6
CONTINUOUS
 10
122.4298657738
 20
89.3561276118
  0
SEQEND
  0
POLYLINE
  8
0
 62
7
  6
CONTINUOUS
 66
1
 70
0
  0
VERTEX
  8
0
 62
7
  6
CONTINUOUS
 10
109.2298657738
 20
89.2770320022
  0
VERTEX
  8
0
 62
7
  6
CONTINUOUS
 10
109.3504105601
 20
89.279296295
  0
VERTEX
  8
0
 62
7
  6
CONTINUOUS
 10
109.4635774965
 20
89.2859567676
  0
VERTEX
  8
0
 62
7
  6
CONTINUOUS
 10
109.5627854538
 20
89.2966532549
  0
VERTEX
  8
0
 62
7
  6
CONTINUOUS
 10
109.605333871
 20
89.3033455938
  0
VERTEX
  8
0
 62
7
  6
CONTINUOUS
 10
109.6733276513
 20
89.3189758274
  0
VERTEX
  8
0
 62
7
  6
CONTINUOUS
 10
109.7155660533
 20
89.3368912342
  0
VERTEX
  8
0
 62
7
  6
CONTINUOUS
 10
109.7298657738
 20
89.3561276118
  0
SEQEND
  0
POLYLINE
  8
0
 62
7
  6
CONTINUOUS
 66
1
 70
0
  0
VERTEX
  8
0
 62
7
  6
CONTINUOUS
 10
96.5298657738
 20
89.2770320022
  0
VERTEX
  8
0
 62
7
  6
CONTINUOUS
 10
96.6504105601
 20
89.279296295
  0
VERTEX
  8
0
 62
7
  6
CONTINUOUS
 10
96.7635774965
 20
89.2859567676
  0
VERTEX
  8
0
 62
7
  6
CONTINUOUS
 10
96.8627854538
 20
89.2966532549
  0
VERTEX
  8
0
 62
7
  6
CONTINUOUS
 10
96.905333871
 20
89.3033455938
  0
VERTEX
  8
0
 62
7
  6
CONTINUOUS
 10
96.9733276513
 20
89.3189758274
  0
VERTEX
  8
0
 62
7
  6
CONTINUOUS
 10
97.0155660533
 20
89.3368912342
  0
VERTEX
  8
0
 62
7
  6
CONTINUOUS
 10
97.0298657738
 20
89.3561276118
  0
SEQEND
  0
POLYLINE
  8
0
 62
7
  6
CONTINUOUS
 66
1
 70
0
  0
VERTEX
  8
0
 62
7
  6
CONTINUOUS
 10
83.8298657738
 20
89.2770320022
  0
VERTEX
  8
0
 62
7
  6
CONTINUOUS
 10
83.9504105601
 20
89.279296295
  0
VERTEX
  8
0
 62
7
  6
CONTINUOUS
 10
84.0635774965
 20
89.2859567676
  0
VERTEX
  8
0
 62
7
  6
CONTINUOUS
 10
84.1627854538
 20
89.2966532549
  0
VERTEX
  8
0
 62
7
  6
CONTINUOUS
 10
84.205333871
 20
89.3033455938
  0
VERTEX
  8
0
 62
7
  6
CONTINUOUS
 10
84.2733276513
 20
89.3189758274
  0
VERTEX
  8
0
 62
7
  6
CONTINUOUS
 10
84.3155660533
 20
89.3368912342
  0
VERTEX
  8
0
 62
7
  6
CONTINUOUS
 10
84.3298657738
 20
89.3561276118
  0
SEQEND
  0
POLYLINE
  8
0
 62
7
  6
CONTINUOUS
 66
1
 70
0
  0
VERTEX
  8
0
 62
7
  6
CONTINUOUS
 10
71.1298657738
 20
89.2770320022
  0
VERTEX
  8
0
 62
7
  6
CONTINUOUS
 10
71.2504105601
 20
89.279296295
  0
VERTEX
  8
0
 62
7
  6
CONTINUOUS
 10
71.3635774965
 20
89.2859567676
  0
VERTEX
  8
0
 62
7
  6
CONTINUOUS
 10
71.4627854538
 20
89.2966532549
  0
VERTEX
  8
0
 62
7
  6
CONTINUOUS
 10
71.505333871
 20
89.3033455938
  0
VERTEX
  8
0
 62
7
  6
CONTINUOUS
 10
71.5733276513
 20
89.3189758274
  0
VERTEX
  8
0
 62
7
  6
CONTINUOUS
 10
71.6155660533
 20
89.3368912342
  0
VERTEX
  8
0
 62
7
  6
CONTINUOUS
 10
71.6298657738
 20
89.3561276118
  0
SEQEND
  0
POLYLINE
  8
0
 62
7
  6
CONTINUOUS
 66
1
 70
0
  0
VERTEX
  8
0
 62
7
  6
CONTINUOUS
 10
58.4298657738
 20
89.2770320022
  0
VERTEX
  8
0
 62
7
  6
CONTINUOUS
 10
58.5504105601
 20
89.279296295
  0
VERTEX
  8
0
 62
7
  6
CONTINUOUS
 10
58.6635774965
 20
89.2859567676
  0
VERTEX
  8
0
 62
7
  6
CONTINUOUS
 10
58.7627854538
 20
89.2966532549
  0
VERTEX
  8
0
 62
7
  6
CONTINUOUS
 10
58.805333871
 20
89.3033455938
  0
VERTEX
  8
0
 62
7
  6
CONTINUOUS
 10
58.8733276513
 20
89.3189758274
  0
VERTEX
  8
0
 62
7
  6
CONTINUOUS
 10
58.9155660533
 20
89.3368912342
  0
VERTEX
  8
0
 62
7
  6
CONTINUOUS
 10
58.9298657738
 20
89.3561276118
  0
SEQEND
  0
POLYLINE
  8
0
 62
7
  6
CONTINUOUS
 66
1
 70
0
  0
VERTEX
  8
0
 62
7
  6
CONTINUOUS
 10
33.0298657738
 20
89.2770320022
  0
VERTEX
  8
0
 62
7
  6
CONTINUOUS
 10
33.1504105601
 20
89.279296295
  0
VERTEX
  8
0
 62
7
  6
CONTINUOUS
 10
33.2635774965
 20
89.2859567676
  0
VERTEX
  8
0
 62
7
  6
CONTINUOUS
 10
33.3627854538
 20
89.2966532549
  0
VERTEX
  8
0
 62
7
  6
CONTINUOUS
 10
33.405333871
 20
89.3033455938
  0
VERTEX
  8
0
 62
7
  6
CONTINUOUS
 10
33.4733276513
 20
89.3189758274
  0
VERTEX
  8
0
 62
7
  6
CONTINUOUS
 10
33.5155660533
 20
89.3368912342
  0
VERTEX
  8
0
 62
7
  6
CONTINUOUS
 10
33.5298657738
 20
89.3561276118
  0
SEQEND
  0
LINE
  8
0
 62
7
  6
CONTINUOUS
 10
31.2298657738
 20
89.2770320022
 11
33.0298657738
 21
89.2770320022
  0
LINE
  8
0
 62
7
  6
CONTINUOUS
 10
40.6298657738
 20
89.2770320022
 11
45.7298657738
 21
89.2770320022
  0
LINE
  8
0
 62
7
  6
CONTINUOUS
 10
53.3298657738
 20
89.2770320022
 11
58.4298657738
 21
89.2770320022
  0
LINE
  8
0
 62
7
  6
CONTINUOUS
 10
66.0298657738
 20
89.2770320022
 11
71.1298657738
 21
89.2770320022
  0
LINE
  8
0
 62
7
  6
CONTINUOUS
 10
78.7298657738
 20
89.2770320022
 11
83.8298657738
 21
89.2770320022
  0
LINE
  8
0
 62
7
  6
CONTINUOUS
 10
91.4298657738
 20
89.2770320022
 11
96.5298657738
 21
89.2770320022
  0
LINE
  8
0
 62
7
  6
CONTINUOUS
 10
104.1298657738
 20
89.2770320022
 11
109.2298657738
 21
89.2770320022
  0
LINE
  8
0
 62
7
  6
CONTINUOUS
 10
116.8298657738
 20
89.2770320022
 11
121.9298657738
 21
89.2770320022
  0
LINE
  8
0
 62
7
  6
CONTINUOUS
 10
129.5298657738
 20
89.2770320022
 11
131.3298657738
 21
89.2770320022
  0
LINE
  8
1_AXIS
 62
2
  6
CENTER
 10
26.2651006711
 20
90.5808724832
 11
136.4859865772
 21
90.5808724832
  0
POLYLINE
  8
0
 62
7
  6
CONTINUOUS
 66
1
 70
0
  0
VERTEX
  8
0
 62
7
  6
CONTINUOUS
 10
31.2298657738
 20
89.2770320022
  0
VERTEX
  8
0
 62
7
  6
CONTINUOUS
 10
31.1093209876
 20
89.279296295
  0
VERTEX
  8
0
 62
7
  6
CONTINUOUS
 10
30.9961540511
 20
89.2859567676
  0
VERTEX
  8
0
 62
7
  6
CONTINUOUS
 10
30.8969460939
 20
89.2966532549
  0
VERTEX
  8
0
 62
7
  6
CONTINUOUS
 10
30.8543976767
 20
89.3033455938
  0
VERTEX
  8
0
 62
7
  6
CONTINUOUS
 10
30.7864038963
 20
89.3189758274
  0
VERTEX
  8
0
 62
7
  6
CONTINUOUS
 10
30.7441654943
 20
89.3368912342
  0
VERTEX
  8
0
 62
7
  6
CONTINUOUS
 10
30.7298657738
 20
89.3561276118
  0
SEQEND
  0
POLYLINE
  8
0
 62
7
  6
CONTINUOUS
 66
1
 70
0
  0
VERTEX
  8
0
 62
7
  6
CONTINUOUS
 10
53.3298657738
 20
89.2770320022
  0
VERTEX
  8
0
 62
7
  6
CONTINUOUS
 10
53.2093209876
 20
89.279296295
  0
VERTEX
  8
0
 62
7
  6
CONTINUOUS
 10
53.0961540511
 20
89.2859567676
  0
VERTEX
  8
0
 62
7
  6
CONTINUOUS
 10
52.9969460939
 20
89.2966532549
  0
VERTEX
  8
0
 62
7
  6
CONTINUOUS
 10
52.9543976767
 20
89.3033455938
  0
VERTEX
  8
0
 62
7
  6
CONTINUOUS
 10
52.8864038963
 20
89.3189758274
  0
VERTEX
  8
0
 62
7
  6
CONTINUOUS
 10
52.8441654943
 20
89.3368912342
  0
VERTEX
  8
0
 62
7
  6
CONTINUOUS
 10
52.8298657738
 20
89.3561276118
  0
SEQEND
  0
POLYLINE
  8
0
 62
7
  6
CONTINUOUS
 66
1
 70
0
  0
VERTEX
  8
0
 62
7
  6
CONTINUOUS
 10
39.6298657694
 20
94.1951767181
  0
VERTEX
  8
0
 62
7
  6
CONTINUOUS
 10
39.6966548984
 20
94.186195669
  0
VERTEX
  8
0
 62
7
  6
CONTINUOUS
 10
39.7725374563
 20
94.1541568077
  0
VERTEX
  8
0
 62
7
  6
CONTINUOUS
 10
39.844237915
 20
94.101463535
  0
VERTEX
  8
0
 62
7
  6
CONTINUOUS
 10
39.9097109656
 20
94.0311232941
  0
VERTEX
  8
0
 62
7
  6
CONTINUOUS
 10
39.9677996536
 20
93.945452442
  0
VERTEX
  8
0
 62
7
  6
CONTINUOUS
 10
40.0179370457
 20
93.8457143712
  0
VERTEX
  8
0
 62
7
  6
CONTINUOUS
 10
40.0593392367
 20
93.7334155798
  0
VERTEX
  8
0
 62
7
  6
CONTINUOUS
 10
40.0913313445
 20
93.610510891
  0
VERTEX
  8
0
 62
7
  6
CONTINUOUS
 10
40.1136334317
 20
93.4789649451
  0
VERTEX
  8
0
 62
7
  6
CONTINUOUS
 10
40.1263228539
 20
93.3407960999
  0
VERTEX
  8
0
 62
7
  6
CONTINUOUS
 10
40.1298662328
 20
93.2128591448
  0
SEQEND
  0
POLYLINE
  8
0
 62
7
  6
CONTINUOUS
 66
1
 70
0
  0
VERTEX
  8
0
 62
7
  6
CONTINUOUS
 10
52.3298657694
 20
94.1951767184
  0
VERTEX
  8
0
 62
7
  6
CONTINUOUS
 10
52.3966548955
 20
94.1861956697
  0
VERTEX
  8
0
 62
7
  6
CONTINUOUS
 10
52.4725374695
 20
94.1541567991
  0
VERTEX
  8
0
 62
7
  6
CONTINUOUS
 10
52.544237937
 20
94.1014635142
  0
VERTEX
  8
0
 62
7
  6
CONTINUOUS
 10
52.6097109564
 20
94.0311233012
  0
VERTEX
  8
0
 62
7
  6
CONTINUOUS
 10
52.6677996671
 20
93.9454524195
  0
VERTEX
  8
0
 62
7
  6
CONTINUOUS
 10
52.7179370473
 20
93.8457143679
  0
VERTEX
  8
0
 62
7
  6
CONTINUOUS
 10
52.759339238
 20
93.7334155755
  0
VERTEX
  8
0
 62
7
  6
CONTINUOUS
 10
52.7913313439
 20
93.6105108958
  0
VERTEX
  8
0
 62
7
  6
CONTINUOUS
 10
52.81363343
 20
93.4789649679
  0
VERTEX
  8
0
 62
7
  6
CONTINUOUS
 10
52.8263228516
 20
93.340796122
  0
VERTEX
  8
0
 62
7
  6
CONTINUOUS
 10
52.829866234
 20
93.2128590281
  0
SEQEND
  0
POLYLINE
  8
0
 62
7
  6
CONTINUOUS
 66
1
 70
0
  0
VERTEX
  8
0
 62
7
  6
CONTINUOUS
 10
39.8798657738
 20
129.9056173546
  0
VERTEX
  8
0
 62
7
  6
CONTINUOUS
 10
39.8655660533
 20
129.9248537322
  0
VERTEX
  8
0
 62
7
  6
CONTINUOUS
 10
39.8233276513
 20
129.9427691391
  0
VERTEX
  8
0
 62
7
  6
CONTINUOUS
 10
39.755333871
 20
129.9583993727
  0
VERTEX
  8
0
 62
7
  6
CONTINUOUS
 10
39.7127854538
 20
129.9650917116
  0
VERTEX
  8
0
 62
7
  6
CONTINUOUS
 10
39.6135774965
 20
129.9757881989
  0
VERTEX
  8
0
 62
7
  6
CONTINUOUS
 10
39.5004105601
 20
129.9824486714
  0
VERTEX
  8
0
 62
7
  6
CONTINUOUS
 10
39.3798657738
 20
129.9847129643
  0
SEQEND
  0
LINE
  8
0
 62
7
  6
CONTINUOUS
 10
65.2798657738
 20
126.0488579922
 11
65.2798657738
 21
132.4208724832
  0
LINE
  8
0
 62
7
  6
CONTINUOUS
 10
65.5298657738
 20
86.8408724832
 11
65.5298657738
 21
93.2128869209
  0
POLYLINE
  8
0
 62
7
  6
CONTINUOUS
 66
1
 70
0
  0
VERTEX
  8
0
 62
7
  6
CONTINUOUS
 10
46.2298657738
 20
89.3561276118
  0
VERTEX
  8
0
 62
7
  6
CONTINUOUS
 10
46.2155660533
 20
89.3368912342
  0
VERTEX
  8
0
 62
7
  6
CONTINUOUS
 10
46.1733276513
 20
89.3189758274
  0
VERTEX
  8
0
 62
7
  6
CONTINUOUS
 10
46.105333871
 20
89.3033455938
  0
VERTEX
  8
0
 62
7
  6
CONTINUOUS
 10
46.0627854538
 20
89.2966532549
  0
VERTEX
  8
0
 62
7
  6
CONTINUOUS
 10
45.9635774965
 20
89.2859567676
  0
VERTEX
  8
0
 62
7
  6
CONTINUOUS
 10
45.8504105601
 20
89.279296295
  0
VERTEX
  8
0
 62
7
  6
CONTINUOUS
 10
45.7298657738
 20
89.2770320022
  0
SEQEND
  0
LINE
  8
0
 62
7
  6
CONTINUOUS
 10
34.0298657738
 20
94.1951767987
 11
39.6298657694
 21
94.1951767987
  0
LINE
  8
0
 62
7
  6
CONTINUOUS
 10
46.7298657738
 20
94.1951767987
 11
52.3298657694
 21
94.1951767987
  0
LINE
  8
0
 62
7
  6
CONTINUOUS
 10
59.4298657738
 20
94.1951767987
 11
65.0298657694
 21
94.1951767987
  0
LINE
  8
0
 62
7
  6
CONTINUOUS
 10
72.1298657738
 20
94.1951767987
 11
77.7298657694
 21
94.1951767987
  0
LINE
  8
0
 62
7
  6
CONTINUOUS
 10
84.8298657738
 20
94.1951767987
 11
90.4298657694
 21
94.1951767987
  0
LINE
  8
0
 62
7
  6
CONTINUOUS
 10
97.5298657738
 20
94.1951767987
 11
103.1298657694
 21
94.1951767987
  0
LINE
  8
0
 62
7
  6
CONTINUOUS
 10
110.2298657738
 20
94.1951767987
 11
115.8298657694
 21
94.1951767987
  0
LINE
  8
0
 62
7
  6
CONTINUOUS
 10
122.9298657738
 20
94.1951767987
 11
128.5298657694
 21
94.1951767987
  0
LINE
  8
0
 62
7
  6
CONTINUOUS
 10
30.5298657738
 20
95.1168941007
 11
30.7298657738
 21
95.1168941007
  0
LINE
  8
0
 62
7
  6
CONTINUOUS
 10
131.8298657738
 20
95.1168941007
 11
132.0298657738
 21
95.1168941007
  0
POLYLINE
  8
0
 62
7
  6
CONTINUOUS
 66
1
 70
0
  0
VERTEX
  8
0
 62
7
  6
CONTINUOUS
 10
65.0298657694
 20
94.1951767181
  0
VERTEX
  8
0
 62
7
  6
CONTINUOUS
 10
65.0966548984
 20
94.186195669
  0
VERTEX
  8
0
 62
7
  6
CONTINUOUS
 10
65.1725374563
 20
94.1541568077
  0
VERTEX
  8
0
 62
7
  6
CONTINUOUS
 10
65.244237915
 20
94.101463535
  0
VERTEX
  8
0
 62
7
  6
CONTINUOUS
 10
65.3097109656
 20
94.0311232941
  0
VERTEX
  8
0
 62
7
  6
CONTINUOUS
 10
65.3677996536
 20
93.945452442
  0
VERTEX
  8
0
 62
7
  6
CONTINUOUS
 10
65.4179370457
 20
93.8457143712
  0
VERTEX
  8
0
 62
7
  6
CONTINUOUS
 10
65.4593392367
 20
93.7334155798
  0
VERTEX
  8
0
 62
7
  6
CONTINUOUS
 10
65.4913313445
 20
93.610510891
  0
VERTEX
  8
0
 62
7
  6
CONTINUOUS
 10
65.5136334317
 20
93.4789649451
  0
VERTEX
  8
0
 62
7
  6
CONTINUOUS
 10
65.5263228539
 20
93.3407960999
  0
VERTEX
  8
0
 62
7
  6
CONTINUOUS
 10
65.5298662328
 20
93.2128591448
  0
SEQEND
  0
POLYLINE
  8
0
 62
7
  6
CONTINUOUS
 66
1
 70
0
  0
VERTEX
  8
0
 62
7
  6
CONTINUOUS
 10
77.7298657694
 20
94.1951767184
  0
VERTEX
  8
0
 62
7
  6
CONTINUOUS
 10
77.7966548955
 20
94.1861956697
  0
VERTEX
  8
0
 62
7
  6
CONTINUOUS
 10
77.8725374695
 20
94.1541567991
  0
VERTEX
  8
0
 62
7
  6
CONTINUOUS
 10
77.944237937
 20
94.1014635142
  0
VERTEX
  8
0
 62
7
  6
CONTINUOUS
 10
78.0097109564
 20
94.0311233012
  0
VERTEX
  8
0
 62
7
  6
CONTINUOUS
 10
78.0677996671
 20
93.9454524195
  0
VERTEX
  8
0
 62
7
  6
CONTINUOUS
 10
78.1179370473
 20
93.8457143679
  0
VERTEX
  8
0
 62
7
  6
CONTINUOUS
 10
78.159339238
 20
93.7334155755
  0
VERTEX
  8
0
 62
7
  6
CONTINUOUS
 10
78.1913313439
 20
93.6105108958
  0
VERTEX
  8
0
 62
7
  6
CONTINUOUS
 10
78.21363343
 20
93.4789649679
  0
VERTEX
  8
0
 62
7
  6
CONTINUOUS
 10
78.2263228516
 20
93.340796122
  0
VERTEX
  8
0
 62
7
  6
CONTINUOUS
 10
78.229866234
 20
93.2128590281
  0
SEQEND
  0
POLYLINE
  8
0
 62
7
  6
CONTINUOUS
 66
1
 70
0
  0
VERTEX
  8
0
 62
7
  6
CONTINUOUS
 10
78.2298657738
 20
89.3561276118
  0
VERTEX
  8
0
 62
7
  6
CONTINUOUS
 10
78.2441654943
 20
89.3368912342
  0
VERTEX
  8
0
 62
7
  6
CONTINUOUS
 10
78.2864038963
 20
89.3189758274
  0
VERTEX
  8
0
 62
7
  6
CONTINUOUS
 10
78.3543976767
 20
89.3033455938
  0
VERTEX
  8
0
 62
7
  6
CONTINUOUS
 10
78.3969460939
 20
89.2966532549
  0
VERTEX
  8
0
 62
7
  6
CONTINUOUS
 10
78.4961540511
 20
89.2859567676
  0
VERTEX
  8
0
 62
7
  6
CONTINUOUS
 10
78.6093209876
 20
89.279296295
  0
VERTEX
  8
0
 62
7
  6
CONTINUOUS
 10
78.7298657738
 20
89.2770320022
  0
SEQEND
  0
LINE
  8
0
 62
7
  6
CONTINUOUS
 10
67.6998657738
 20
100.5608724832
 11
67.6998657738
 21
105.7108724832
  0
LINE
  8
0
 62
7
  6
CONTINUOUS
 10
67.6998657738
 20
113.5508724832
 11
67.6998657738
 21
118.7008724832
  0
LINE
  8
0
 62
7
  6
CONTINUOUS
 10
69.4598657738
 20
118.7008724832
 11
69.4598657738
 21
113.5508724832
  0
LINE
  8
0
 62
7
  6
CONTINUOUS
 10
69.4598657738
 20
105.7108724832
 11
69.4598657738
 21
100.5608724832
  0
POLYLINE
  8
0
 62
7
  6
CONTINUOUS
 66
1
 70
0
  0
VERTEX
  8
0
 62
7
  6
CONTINUOUS
 10
90.4298657694
 20
94.1951767181
  0
VERTEX
  8
0
 62
7
  6
CONTINUOUS
 10
90.4966548984
 20
94.186195669
  0
VERTEX
  8
0
 62
7
  6
CONTINUOUS
 10
90.5725374563
 20
94.1541568077
  0
VERTEX
  8
0
 62
7
  6
CONTINUOUS
 10
90.644237915
 20
94.101463535
  0
VERTEX
  8
0
 62
7
  6
CONTINUOUS
 10
90.7097109656
 20
94.0311232941
  0
VERTEX
  8
0
 62
7
  6
CONTINUOUS
 10
90.7677996536
 20
93.945452442
  0
VERTEX
  8
0
 62
7
  6
CONTINUOUS
 10
90.8179370457
 20
93.8457143712
  0
VERTEX
  8
0
 62
7
  6
CONTINUOUS
 10
90.8593392367
 20
93.7334155798
  0
VERTEX
  8
0
 62
7
  6
CONTINUOUS
 10
90.8913313445
 20
93.610510891
  0
VERTEX
  8
0
 62
7
  6
CONTINUOUS
 10
90.9136334317
 20
93.4789649451
  0
VERTEX
  8
0
 62
7
  6
CONTINUOUS
 10
90.9263228539
 20
93.3407960999
  0
VERTEX
  8
0
 62
7
  6
CONTINUOUS
 10
90.9298662328
 20
93.2128591448
  0
SEQEND
  0
POLYLINE
  8
0
 62
7
  6
CONTINUOUS
 66
1
 70
0
  0
VERTEX
  8
0
 62
7
  6
CONTINUOUS
 10
103.1298657694
 20
94.1951767184
  0
VERTEX
  8
0
 62
7
  6
CONTINUOUS
 10
103.1966548955
 20
94.1861956697
  0
VERTEX
  8
0
 62
7
  6
CONTINUOUS
 10
103.2725374695
 20
94.1541567991
  0
VERTEX
  8
0
 62
7
  6
CONTINUOUS
 10
103.344237937
 20
94.1014635142
  0
VERTEX
  8
0
 62
7
  6
CONTINUOUS
 10
103.4097109564
 20
94.0311233012
  0
VERTEX
  8
0
 62
7
  6
CONTINUOUS
 10
103.4677996671
 20
93.9454524195
  0
VERTEX
  8
0
 62
7
  6
CONTINUOUS
 10
103.5179370473
 20
93.8457143679
  0
VERTEX
  8
0
 62
7
  6
CONTINUOUS
 10
103.559339238
 20
93.7334155755
  0
VERTEX
  8
0
 62
7
  6
CONTINUOUS
 10
103.5913313439
 20
93.6105108958
  0
VERTEX
  8
0
 62
7
  6
CONTINUOUS
 10
103.61363343
 20
93.4789649679
  0
VERTEX
  8
0
 62
7
  6
CONTINUOUS
 10
103.6263228516
 20
93.340796122
  0
VERTEX
  8
0
 62
7
  6
CONTINUOUS
 10
103.629866234
 20
93.2128590281
  0
SEQEND
  0
POLYLINE
  8
0
 62
7
  6
CONTINUOUS
 66
1
 70
0
  0
VERTEX
  8
0
 62
7
  6
CONTINUOUS
 10
115.8298657694
 20
94.1951767181
  0
VERTEX
  8
0
 62
7
  6
CONTINUOUS
 10
115.8966548984
 20
94.186195669
  0
VERTEX
  8
0
 62
7
  6
CONTINUOUS
 10
115.9725374563
 20
94.1541568077
  0
VERTEX
  8
0
 62
7
  6
CONTINUOUS
 10
116.044237915
 20
94.101463535
  0
VERTEX
  8
0
 62
7
  6
CONTINUOUS
 10
116.1097109656
 20
94.0311232941
  0
VERTEX
  8
0
 62
7
  6
CONTINUOUS
 10
116.1677996536
 20
93.945452442
  0
VERTEX
  8
0
 62
7
  6
CONTINUOUS
 10
116.2179370457
 20
93.8457143712
  0
VERTEX
  8
0
 62
7
  6
CONTINUOUS
 10
116.2593392367
 20
93.7334155798
  0
VERTEX
  8
0
 62
7
  6
CONTINUOUS
 10
116.2913313445
 20
93.610510891
  0
VERTEX
  8
0
 62
7
  6
CONTINUOUS
 10
116.3136334317
 20
93.4789649451
  0
VERTEX
  8
0
 62
7
  6
CONTINUOUS
 10
116.3263228539
 20
93.3407960999
  0
VERTEX
  8
0
 62
7
  6
CONTINUOUS
 10
116.3298662328
 20
93.2128591448
  0
SEQEND
  0
LINE
  8
0
 62
7
  6
CONTINUOUS
 10
71.6298657738
 20
86.8408724832
 11
71.6298657738
 21
93.2128869743
  0
LINE
  8
0
 62
7
  6
CONTINUOUS
 10
71.8798657738
 20
132.4208724832
 11
71.8798657738
 21
126.0488580456
  0
LINE
  8
0
 62
7
  6
CONTINUOUS
 10
74.0498657738
 20
100.5608724832
 11
74.0498657738
 21
105.7108724832
  0
LINE
  8
0
 62
7
  6
CONTINUOUS
 10
74.0498657738
 20
113.5508724832
 11
74.0498657738
 21
118.7008724832
  0
POLYLINE
  8
0
 62
7
  6
CONTINUOUS
 66
1
 70
0
  0
VERTEX
  8
0
 62
7
  6
CONTINUOUS
 10
71.8798662304
 20
126.0488862058
  0
VERTEX
  8
0
 62
7
  6
CONTINUOUS
 10
71.8763957836
 20
125.9222402587
  0
VERTEX
  8
0
 62
7
  6
CONTINUOUS
 10
71.863786423
 20
125.7839681586
  0
VERTEX
  8
0
 62
7
  6
CONTINUOUS
 10
71.8415622804
 20
125.6523204515
  0
VERTEX
  8
0
 62
7
  6
CONTINUOUS
 10
71.8096457899
 20
125.5293138271
  0
VERTEX
  8
0
 62
7
  6
CONTINUOUS
 10
71.7683163564
 20
125.4169101899
  0
VERTEX
  8
0
 62
7
  6
CONTINUOUS
 10
71.7182489363
 20
125.317063212
  0
VERTEX
  8
0
 62
7
  6
CONTINUOUS
 10
71.6602254281
 20
125.2312732587
  0
VERTEX
  8
0
 62
7
  6
CONTINUOUS
 10
71.5948124671
 20
125.1607994871
  0
VERTEX
  8
0
 62
7
  6
CONTINUOUS
 10
71.5231597772
 20
125.1079486322
  0
VERTEX
  8
0
 62
7
  6
CONTINUOUS
 10
71.4472971368
 20
125.0757227168
  0
VERTEX
  8
0
 62
7
  6
CONTINUOUS
 10
71.3798657738
 20
125.0665682489
  0
SEQEND
  0
POLYLINE
  8
0
 62
7
  6
CONTINUOUS
 66
1
 70
0
  0
VERTEX
  8
0
 62
7
  6
CONTINUOUS
 10
71.6298655643
 20
93.212849809
  0
VERTEX
  8
0
 62
7
  6
CONTINUOUS
 10
71.6333359557
 20
93.3395085429
  0
VERTEX
  8
0
 62
7
  6
CONTINUOUS
 10
71.6459455344
 20
93.4777820833
  0
VERTEX
  8
0
 62
7
  6
CONTINUOUS
 10
71.6681696466
 20
93.6094271289
  0
VERTEX
  8
0
 62
7
  6
CONTINUOUS
 10
71.7000858382
 20
93.7324318167
  0
VERTEX
  8
0
 62
7
  6
CONTINUOUS
 10
71.7414153952
 20
93.8448353334
  0
VERTEX
  8
0
 62
7
  6
CONTINUOUS
 10
71.7914825144
 20
93.944681618
  0
VERTEX
  8
0
 62
7
  6
CONTINUOUS
 10
71.8495065121
 20
94.0304720507
  0
VERTEX
  8
0
 62
7
  6
CONTINUOUS
 10
71.914919226
 20
94.1009456798
  0
VERTEX
  8
0
 62
7
  6
CONTINUOUS
 10
71.9865725532
 20
94.1537968521
  0
VERTEX
  8
0
 62
7
  6
CONTINUOUS
 10
72.062438172
 20
94.1860232587
  0
VERTEX
  8
0
 62
7
  6
CONTINUOUS
 10
72.1298657738
 20
94.195176716
  0
SEQEND
  0
POLYLINE
  8
0
 62
7
  6
CONTINUOUS
 66
1
 70
0
  0
VERTEX
  8
0
 62
7
  6
CONTINUOUS
 10
84.5798657738
 20
129.9056173546
  0
VERTEX
  8
0
 62
7
  6
CONTINUOUS
 10
84.5941654943
 20
129.9248537322
  0
VERTEX
  8
0
 62
7
  6
CONTINUOUS
 10
84.6364038963
 20
129.9427691391
  0
VERTEX
  8
0
 62
7
  6
CONTINUOUS
 10
84.7043976767
 20
129.9583993727
  0
VERTEX
  8
0
 62
7
  6
CONTINUOUS
 10
84.7469460939
 20
129.9650917116
  0
VERTEX
  8
0
 62
7
  6
CONTINUOUS
 10
84.8461540511
 20
129.9757881989
  0
VERTEX
  8
0
 62
7
  6
CONTINUOUS
 10
84.9593209876
 20
129.9824486714
  0
VERTEX
  8
0
 62
7
  6
CONTINUOUS
 10
85.0798657738
 20
129.9847129643
  0
SEQEND
  0
POLYLINE
  8
0
 62
7
  6
CONTINUOUS
 66
1
 70
0
  0
VERTEX
  8
0
 62
7
  6
CONTINUOUS
 10
128.5298657694
 20
94.1951767181
  0
VERTEX
  8
0
 62
7
  6
CONTINUOUS
 10
128.5966548984
 20
94.186195669
  0
VERTEX
  8
0
 62
7
  6
CONTINUOUS
 10
128.6725374563
 20
94.1541568077
  0
VERTEX
  8
0
 62
7
  6
CONTINUOUS
 10
128.744237915
 20
94.101463535
  0
VERTEX
  8
0
 62
7
  6
CONTINUOUS
 10
128.8097109656
 20
94.0311232941
  0
VERTEX
  8
0
 62
7
  6
CONTINUOUS
 10
128.8677996536
 20
93.945452442
  0
VERTEX
  8
0
 62
7
  6
CONTINUOUS
 10
128.9179370457
 20
93.8457143712
  0
VERTEX
  8
0
 62
7
  6
CONTINUOUS
 10
128.9593392367
 20
93.7334155798
  0
VERTEX
  8
0
 62
7
  6
CONTINUOUS
 10
128.9913313445
 20
93.610510891
  0
VERTEX
  8
0
 62
7
  6
CONTINUOUS
 10
129.0136334317
 20
93.4789649451
  0
VERTEX
  8
0
 62
7
  6
CONTINUOUS
 10
129.0263228539
 20
93.3407960999
  0
VERTEX
  8
0
 62
7
  6
CONTINUOUS
 10
129.0298662328
 20
93.2128591448
  0
SEQEND
  0
LINE
  8
0
 62
7
  6
CONTINUOUS
 10
75.8098657738
 20
118.7008724832
 11
75.8098657738
 21
113.5508724832
  0
LINE
  8
0
 62
7
  6
CONTINUOUS
 10
75.8098657738
 20
105.7108724832
 11
75.8098657738
 21
100.5608724832
  0
LINE
  8
0
 62
7
  6
CONTINUOUS
 10
77.9798657738
 20
126.0488579921
 11
77.9798657738
 21
132.4208724832
  0
POLYLINE
  8
0
 62
7
  6
CONTINUOUS
 66
1
 70
0
  0
VERTEX
  8
0
 62
7
  6
CONTINUOUS
 10
90.9298657738
 20
89.3561276118
  0
VERTEX
  8
0
 62
7
  6
CONTINUOUS
 10
90.9441654943
 20
89.3368912342
  0
VERTEX
  8
0
 62
7
  6
CONTINUOUS
 10
90.9864038963
 20
89.3189758274
  0
VERTEX
  8
0
 62
7
  6
CONTINUOUS
 10
91.0543976767
 20
89.3033455938
  0
VERTEX
  8
0
 62
7
  6
CONTINUOUS
 10
91.0969460939
 20
89.2966532549
  0
VERTEX
  8
0
 62
7
  6
CONTINUOUS
 10
91.1961540511
 20
89.2859567676
  0
VERTEX
  8
0
 62
7
  6
CONTINUOUS
 10
91.3093209876
 20
89.279296295
  0
VERTEX
  8
0
 62
7
  6
CONTINUOUS
 10
91.4298657738
 20
89.2770320022
  0
SEQEND
  0
LINE
  8
0
 62
7
  6
CONTINUOUS
 10
78.2298657738
 20
86.8408724832
 11
78.2298657738
 21
93.2128869209
  0
LINE
  8
0
 62
7
  6
CONTINUOUS
 10
80.3998657738
 20
100.5608724832
 11
80.3998657738
 21
105.7108724832
  0
LINE
  8
0
 62
7
  6
CONTINUOUS
 10
80.3998657738
 20
113.5508724832
 11
80.3998657738
 21
118.7008724832
  0
LINE
  8
1_AXIS
 62
2
  6
CENTER
 10
81.2798657738
 20
137.345557047
 11
81.2798657738
 21
111.6309724832
  0
LINE
  8
1_AXIS
 62
2
  6
CONTINUOUS
 10
81.2798657738
 20
110.5108724832
 11
81.2798657738
 21
108.7508724832
  0
LINE
  8
1_AXIS
 62
2
  6
CENTER
 10
81.2798657738
 20
82.4902550336
 11
81.2798657738
 21
107.6307724832
  0
LINE
  8
1_AXIS
 62
2
  6
CENTER
 10
138.527114094
 20
109.6308724832
 11
83.2799657738
 21
109.6308724832
  0
LINE
  8
1_AXIS
 62
2
  6
CONTINUOUS
 10
82.1598657738
 20
109.6308724832
 11
80.3998657738
 21
109.6308724832
  0
LINE
  8
1_AXIS
 62
2
  6
CENTER
 10
26.7753825503
 20
109.6308724832
 11
79.2797657738
 21
109.6308724832
  0
POLYLINE
  8
0
 62
7
  6
CONTINUOUS
 66
1
 70
0
  0
VERTEX
  8
0
 62
7
  6
CONTINUOUS
 10
65.2798657738
 20
129.9056173546
  0
VERTEX
  8
0
 62
7
  6
CONTINUOUS
 10
65.2655660533
 20
129.9248537322
  0
VERTEX
  8
0
 62
7
  6
CONTINUOUS
 10
65.2233276513
 20
129.9427691391
  0
VERTEX
  8
0
 62
7
  6
CONTINUOUS
 10
65.155333871
 20
129.9583993727
  0
VERTEX
  8
0
 62
7
  6
CONTINUOUS
 10
65.1127854538
 20
129.9650917116
  0
VERTEX
  8
0
 62
7
  6
CONTINUOUS
 10
65.0135774965
 20
129.9757881989
  0
VERTEX
  8
0
 62
7
  6
CONTINUOUS
 10
64.9004105601
 20
129.9824486714
  0
VERTEX
  8
0
 62
7
  6
CONTINUOUS
 10
64.7798657738
 20
129.9847129643
  0
SEQEND
  0
LINE
  8
0
 62
7
  6
CONTINUOUS
 10
82.1598657738
 20
118.7008724832
 11
82.1598657738
 21
113.5508724832
  0
LINE
  8
0
 62
7
  6
CONTINUOUS
 10
82.1598657738
 20
105.7108724832
 11
82.1598657738
 21
100.5608724832
  0
LINE
  8
0
 62
7
  6
CONTINUOUS
 10
84.3298657738
 20
86.8408724832
 11
84.3298657738
 21
93.2128869741
  0
LINE
  8
0
 62
7
  6
CONTINUOUS
 10
84.5798657738
 20
126.0488580456
 11
84.5798657738
 21
132.4208724832
  0
POLYLINE
  8
0
 62
7
  6
CONTINUOUS
 66
1
 70
0
  0
VERTEX
  8
0
 62
7
  6
CONTINUOUS
 10
84.5798662294
 20
126.048886105
  0
VERTEX
  8
0
 62
7
  6
CONTINUOUS
 10
84.5763957856
 20
125.9222402788
  0
VERTEX
  8
0
 62
7
  6
CONTINUOUS
 10
84.5637864249
 20
125.7839681819
  0
VERTEX
  8
0
 62
7
  6
CONTINUOUS
 10
84.5415622813
 20
125.6523204567
  0
VERTEX
  8
0
 62
7
  6
CONTINUOUS
 10
84.5096457886
 20
125.5293138222
  0
VERTEX
  8
0
 62
7
  6
CONTINUOUS
 10
84.468316354
 20
125.4169101848
  0
VERTEX
  8
0
 62
7
  6
CONTINUOUS
 10
84.4182489181
 20
125.317063182
  0
VERTEX
  8
0
 62
7
  6
CONTINUOUS
 10
84.3602254316
 20
125.2312732582
  0
VERTEX
  8
0
 62
7
  6
CONTINUOUS
 10
84.2948124438
 20
125.1607994653
  0
VERTEX
  8
0
 62
7
  6
CONTINUOUS
 10
84.2231597649
 20
125.1079486244
  0
VERTEX
  8
0
 62
7
  6
CONTINUOUS
 10
84.1472971405
 20
125.0757227177
  0
VERTEX
  8
0
 62
7
  6
CONTINUOUS
 10
84.0798657738
 20
125.0665682492
  0
SEQEND
  0
POLYLINE
  8
0
 62
7
  6
CONTINUOUS
 66
1
 70
0
  0
VERTEX
  8
0
 62
7
  6
CONTINUOUS
 10
84.3298655647
 20
93.212849893
  0
VERTEX
  8
0
 62
7
  6
CONTINUOUS
 10
84.3333359556
 20
93.3395085194
  0
VERTEX
  8
0
 62
7
  6
CONTINUOUS
 10
84.3459455324
 20
93.4777820515
  0
VERTEX
  8
0
 62
7
  6
CONTINUOUS
 10
84.3681696451
 20
93.6094271197
  0
VERTEX
  8
0
 62
7
  6
CONTINUOUS
 10
84.4000858389
 20
93.7324318191
  0
VERTEX
  8
0
 62
7
  6
CONTINUOUS
 10
84.4414153971
 20
93.8448353387
  0
VERTEX
  8
0
 62
7
  6
CONTINUOUS
 10
84.4914825249
 20
93.9446816372
  0
VERTEX
  8
0
 62
7
  6
CONTINUOUS
 10
84.549506511
 20
94.0304720548
  0
VERTEX
  8
0
 62
7
  6
CONTINUOUS
 10
84.6149192508
 20
94.1009457029
  0
VERTEX
  8
0
 62
7
  6
CONTINUOUS
 10
84.6865725668
 20
94.1537968593
  0
VERTEX
  8
0
 62
7
  6
CONTINUOUS
 10
84.7624381692
 20
94.1860232579
  0
VERTEX
  8
0
 62
7
  6
CONTINUOUS
 10
84.8298657738
 20
94.1951767156
  0
SEQEND
  0
LINE
  8
0
 62
7
  6
CONTINUOUS
 10
86.7498657738
 20
100.5608724832
 11
86.7498657738
 21
105.7108724832
  0
LINE
  8
0
 62
7
  6
CONTINUOUS
 10
86.7498657738
 20
113.5508724832
 11
86.7498657738
 21
118.7008724832
  0
LINE
  8
0
 62
7
  6
CONTINUOUS
 10
88.5098657738
 20
118.7008724832
 11
88.5098657738
 21
113.5508724832
  0
LINE
  8
0
 62
7
  6
CONTINUOUS
 10
88.5098657738
 20
105.7108724832
 11
88.5098657738
 21
100.5608724832
  0
POLYLINE
  8
0
 62
7
  6
CONTINUOUS
 66
1
 70
0
  0
VERTEX
  8
0
 62
7
  6
CONTINUOUS
 10
103.6298657738
 20
89.3561276118
  0
VERTEX
  8
0
 62
7
  6
CONTINUOUS
 10
103.6441654943
 20
89.3368912342
  0
VERTEX
  8
0
 62
7
  6
CONTINUOUS
 10
103.6864038963
 20
89.3189758274
  0
VERTEX
  8
0
 62
7
  6
CONTINUOUS
 10
103.7543976767
 20
89.3033455938
  0
VERTEX
  8
0
 62
7
  6
CONTINUOUS
 10
103.7969460939
 20
89.2966532549
  0
VERTEX
  8
0
 62
7
  6
CONTINUOUS
 10
103.8961540511
 20
89.2859567676
  0
VERTEX
  8
0
 62
7
  6
CONTINUOUS
 10
104.0093209876
 20
89.279296295
  0
VERTEX
  8
0
 62
7
  6
CONTINUOUS
 10
104.1298657738
 20
89.2770320022
  0
SEQEND
  0
LINE
  8
0
 62
7
  6
CONTINUOUS
 10
90.6798657738
 20
126.0488579922
 11
90.6798657738
 21
132.4208724832
  0
LINE
  8
0
 62
7
  6
CONTINUOUS
 10
90.9298657738
 20
86.8408724832
 11
90.9298657738
 21
93.2128869209
  0
POLYLINE
  8
0
 62
7
  6
CONTINUOUS
 66
1
 70
0
  0
VERTEX
  8
0
 62
7
  6
CONTINUOUS
 10
109.9798657738
 20
129.9056173546
  0
VERTEX
  8
0
 62
7
  6
CONTINUOUS
 10
109.9941654943
 20
129.9248537322
  0
VERTEX
  8
0
 62
7
  6
CONTINUOUS
 10
110.0364038963
 20
129.9427691391
  0
VERTEX
  8
0
 62
7
  6
CONTINUOUS
 10
110.1043976767
 20
129.9583993727
  0
VERTEX
  8
0
 62
7
  6
CONTINUOUS
 10
110.1469460939
 20
129.9650917116
  0
VERTEX
  8
0
 62
7
  6
CONTINUOUS
 10
110.2461540511
 20
129.9757881989
  0
VERTEX
  8
0
 62
7
  6
CONTINUOUS
 10
110.3593209876
 20
129.9824486714
  0
VERTEX
  8
0
 62
7
  6
CONTINUOUS
 10
110.4798657738
 20
129.9847129643
  0
SEQEND
  0
POLYLINE
  8
0
 62
7
  6
CONTINUOUS
 66
1
 70
0
  0
VERTEX
  8
0
 62
7
  6
CONTINUOUS
 10
40.3798658123
 20
125.0665682511
  0
VERTEX
  8
0
 62
7
  6
CONTINUOUS
 10
40.3130806193
 20
125.0755482415
  0
VERTEX
  8
0
 62
7
  6
CONTINUOUS
 10
40.2371949845
 20
125.1075875902
  0
VERTEX
  8
0
 62
7
  6
CONTINUOUS
 10
40.1654938741
 20
125.1602811581
  0
VERTEX
  8
0
 62
7
  6
CONTINUOUS
 10
40.1000210113
 20
125.230621282
  0
VERTEX
  8
0
 62
7
  6
CONTINUOUS
 10
40.0419318329
 20
125.3162926024
  0
VERTEX
  8
0
 62
7
  6
CONTINUOUS
 10
39.9917947034
 20
125.4160300528
  0
VERTEX
  8
0
 62
7
  6
CONTINUOUS
 10
39.9503923952
 20
125.5283287052
  0
VERTEX
  8
0
 62
7
  6
CONTINUOUS
 10
39.9184005804
 20
125.6512314845
  0
VERTEX
  8
0
 62
7
  6
CONTINUOUS
 10
39.8960985335
 20
125.7827747494
  0
VERTEX
  8
0
 62
7
  6
CONTINUOUS
 10
39.8834089066
 20
125.9209450456
  0
VERTEX
  8
0
 62
7
  6
CONTINUOUS
 10
39.8798655606
 20
126.04889501
  0
SEQEND
  0
POLYLINE
  8
0
 62
7
  6
CONTINUOUS
 66
1
 70
0
  0
VERTEX
  8
0
 62
7
  6
CONTINUOUS
 10
53.0798658121
 20
125.0665682506
  0
VERTEX
  8
0
 62
7
  6
CONTINUOUS
 10
53.0130806218
 20
125.0755482409
  0
VERTEX
  8
0
 62
7
  6
CONTINUOUS
 10
52.9371949701
 20
125.1075875977
  0
VERTEX
  8
0
 62
7
  6
CONTINUOUS
 10
52.8654938475
 20
125.1602811825
  0
VERTEX
  8
0
 62
7
  6
CONTINUOUS
 10
52.8000210085
 20
125.230621292
  0
VERTEX
  8
0
 62
7
  6
CONTINUOUS
 10
52.7419318187
 20
125.3162926276
  0
VERTEX
  8
0
 62
7
  6
CONTINUOUS
 10
52.6917947001
 20
125.4160300614
  0
VERTEX
  8
0
 62
7
  6
CONTINUOUS
 10
52.650392394
 20
125.5283287097
  0
VERTEX
  8
0
 62
7
  6
CONTINUOUS
 10
52.6184005818
 20
125.6512314768
  0
VERTEX
  8
0
 62
7
  6
CONTINUOUS
 10
52.5960985356
 20
125.7827747188
  0
VERTEX
  8
0
 62
7
  6
CONTINUOUS
 10
52.5834089068
 20
125.9209450239
  0
VERTEX
  8
0
 62
7
  6
CONTINUOUS
 10
52.5798655602
 20
126.0488950852
  0
SEQEND
  0
LINE
  8
0
 62
7
  6
CONTINUOUS
 10
93.0998657738
 20
100.5608724832
 11
93.0998657738
 21
105.7108724832
  0
LINE
  8
0
 62
7
  6
CONTINUOUS
 10
93.0998657738
 20
113.5508724832
 11
93.0998657738
 21
118.7008724832
  0
LINE
  8
0
 62
7
  6
CONTINUOUS
 10
94.8598657738
 20
118.7008724832
 11
94.8598657738
 21
113.5508724832
  0
LINE
  8
0
 62
7
  6
CONTINUOUS
 10
94.8598657738
 20
105.7108724832
 11
94.8598657738
 21
100.5608724832
  0
POLYLINE
  8
0
 62
7
  6
CONTINUOUS
 66
1
 70
0
  0
VERTEX
  8
0
 62
7
  6
CONTINUOUS
 10
65.7798658123
 20
125.0665682511
  0
VERTEX
  8
0
 62
7
  6
CONTINUOUS
 10
65.7130806193
 20
125.0755482415
  0
VERTEX
  8
0
 62
7
  6
CONTINUOUS
 10
65.6371949845
 20
125.1075875902
  0
VERTEX
  8
0
 62
7
  6
CONTINUOUS
 10
65.5654938741
 20
125.1602811581
  0
VERTEX
  8
0
 62
7
  6
CONTINUOUS
 10
65.5000210113
 20
125.230621282
  0
VERTEX
  8
0
 62
7
  6
CONTINUOUS
 10
65.4419318329
 20
125.3162926024
  0
VERTEX
  8
0
 62
7
  6
CONTINUOUS
 10
65.3917947034
 20
125.4160300528
  0
VERTEX
  8
0
 62
7
  6
CONTINUOUS
 10
65.3503923952
 20
125.5283287052
  0
VERTEX
  8
0
 62
7
  6
CONTINUOUS
 10
65.3184005804
 20
125.6512314845
  0
VERTEX
  8
0
 62
7
  6
CONTINUOUS
 10
65.2960985335
 20
125.7827747494
  0
VERTEX
  8
0
 62
7
  6
CONTINUOUS
 10
65.2834089066
 20
125.9209450456
  0
VERTEX
  8
0
 62
7
  6
CONTINUOUS
 10
65.2798655606
 20
126.04889501
  0
SEQEND
  0
POLYLINE
  8
0
 62
7
  6
CONTINUOUS
 66
1
 70
0
  0
VERTEX
  8
0
 62
7
  6
CONTINUOUS
 10
78.4798658121
 20
125.0665682506
  0
VERTEX
  8
0
 62
7
  6
CONTINUOUS
 10
78.4130806218
 20
125.0755482409
  0
VERTEX
  8
0
 62
7
  6
CONTINUOUS
 10
78.3371949701
 20
125.1075875977
  0
VERTEX
  8
0
 62
7
  6
CONTINUOUS
 10
78.2654938475
 20
125.1602811825
  0
VERTEX
  8
0
 62
7
  6
CONTINUOUS
 10
78.2000210085
 20
125.230621292
  0
VERTEX
  8
0
 62
7
  6
CONTINUOUS
 10
78.1419318187
 20
125.3162926276
  0
VERTEX
  8
0
 62
7
  6
CONTINUOUS
 10
78.0917947001
 20
125.4160300614
  0
VERTEX
  8
0
 62
7
  6
CONTINUOUS
 10
78.050392394
 20
125.5283287097
  0
VERTEX
  8
0
 62
7
  6
CONTINUOUS
 10
78.0184005818
 20
125.6512314768
  0
VERTEX
  8
0
 62
7
  6
CONTINUOUS
 10
77.9960985356
 20
125.7827747188
  0
VERTEX
  8
0
 62
7
  6
CONTINUOUS
 10
77.9834089068
 20
125.9209450239
  0
VERTEX
  8
0
 62
7
  6
CONTINUOUS
 10
77.9798655602
 20
126.0488950852
  0
SEQEND
  0
LINE
  8
0
 62
7
  6
CONTINUOUS
 10
97.0298657738
 20
86.8408724832
 11
97.0298657738
 21
93.2128869743
  0
LINE
  8
0
 62
7
  6
CONTINUOUS
 10
97.2798657738
 20
126.0488580456
 11
97.2798657738
 21
132.4208724832
  0
LINE
  8
0
 62
7
  6
CONTINUOUS
 10
99.4498657738
 20
100.5608724832
 11
99.4498657738
 21
105.7108724832
  0
LINE
  8
0
 62
7
  6
CONTINUOUS
 10
99.4498657738
 20
113.5508724832
 11
99.4498657738
 21
118.7008724832
  0
POLYLINE
  8
0
 62
7
  6
CONTINUOUS
 66
1
 70
0
  0
VERTEX
  8
0
 62
7
  6
CONTINUOUS
 10
97.2798662304
 20
126.0488862058
  0
VERTEX
  8
0
 62
7
  6
CONTINUOUS
 10
97.2763957836
 20
125.9222402587
  0
VERTEX
  8
0
 62
7
  6
CONTINUOUS
 10
97.263786423
 20
125.7839681586
  0
VERTEX
  8
0
 62
7
  6
CONTINUOUS
 10
97.2415622804
 20
125.6523204515
  0
VERTEX
  8
0
 62
7
  6
CONTINUOUS
 10
97.2096457899
 20
125.5293138271
  0
VERTEX
  8
0
 62
7
  6
CONTINUOUS
 10
97.1683163564
 20
125.4169101899
  0
VERTEX
  8
0
 62
7
  6
CONTINUOUS
 10
97.1182489363
 20
125.317063212
  0
VERTEX
  8
0
 62
7
  6
CONTINUOUS
 10
97.0602254281
 20
125.2312732587
  0
VERTEX
  8
0
 62
7
  6
CONTINUOUS
 10
96.9948124671
 20
125.1607994871
  0
VERTEX
  8
0
 62
7
  6
CONTINUOUS
 10
96.9231597772
 20
125.1079486322
  0
VERTEX
  8
0
 62
7
  6
CONTINUOUS
 10
96.8472971368
 20
125.0757227168
  0
VERTEX
  8
0
 62
7
  6
CONTINUOUS
 10
96.7798657738
 20
125.0665682489
  0
SEQEND
  0
POLYLINE
  8
0
 62
7
  6
CONTINUOUS
 66
1
 70
0
  0
VERTEX
  8
0
 62
7
  6
CONTINUOUS
 10
97.0298655643
 20
93.212849809
  0
VERTEX
  8
0
 62
7
  6
CONTINUOUS
 10
97.0333359557
 20
93.3395085429
  0
VERTEX
  8
0
 62
7
  6
CONTINUOUS
 10
97.0459455344
 20
93.4777820833
  0
VERTEX
  8
0
 62
7
  6
CONTINUOUS
 10
97.0681696466
 20
93.6094271289
  0
VERTEX
  8
0
 62
7
  6
CONTINUOUS
 10
97.1000858382
 20
93.7324318167
  0
VERTEX
  8
0
 62
7
  6
CONTINUOUS
 10
97.1414153952
 20
93.8448353334
  0
VERTEX
  8
0
 62
7
  6
CONTINUOUS
 10
97.1914825144
 20
93.944681618
  0
VERTEX
  8
0
 62
7
  6
CONTINUOUS
 10
97.2495065121
 20
94.0304720507
  0
VERTEX
  8
0
 62
7
  6
CONTINUOUS
 10
97.314919226
 20
94.1009456798
  0
VERTEX
  8
0
 62
7
  6
CONTINUOUS
 10
97.3865725532
 20
94.1537968521
  0
VERTEX
  8
0
 62
7
  6
CONTINUOUS
 10
97.462438172
 20
94.1860232587
  0
VERTEX
  8
0
 62
7
  6
CONTINUOUS
 10
97.5298657738
 20
94.195176716
  0
SEQEND
  0
LINE
  8
0
 62
7
  6
CONTINUOUS
 10
131.3298657738
 20
125.0665681678
 11
129.2798658082
 21
125.0665681678
  0
LINE
  8
0
 62
7
  6
CONTINUOUS
 10
122.1798657738
 20
125.0665681678
 11
116.5798658123
 21
125.0665681678
  0
LINE
  8
0
 62
7
  6
CONTINUOUS
 10
109.4798657738
 20
125.0665681678
 11
103.8798658121
 21
125.0665681678
  0
LINE
  8
0
 62
7
  6
CONTINUOUS
 10
96.7798657738
 20
125.0665681678
 11
91.1798658123
 21
125.0665681678
  0
LINE
  8
0
 62
7
  6
CONTINUOUS
 10
84.0798657738
 20
125.0665681678
 11
78.4798658121
 21
125.0665681678
  0
LINE
  8
0
 62
7
  6
CONTINUOUS
 10
71.3798657738
 20
125.0665681678
 11
65.7798658123
 21
125.0665681678
  0
LINE
  8
0
 62
7
  6
CONTINUOUS
 10
58.6798657738
 20
125.0665681678
 11
53.0798658121
 21
125.0665681678
  0
LINE
  8
0
 62
7
  6
CONTINUOUS
 10
45.9798657738
 20
125.0665681678
 11
40.3798658123
 21
125.0665681678
  0
LINE
  8
0
 62
7
  6
CONTINUOUS
 10
33.2798657738
 20
125.0665681678
 11
31.2298657738
 21
125.0665681678
  0
LINE
  8
1_AXIS
 62
2
  6
CENTER
 10
23.7136912752
 20
128.6808724832
 11
136.2308456376
 21
128.6808724832
  0
POLYLINE
  8
0
 62
7
  6
CONTINUOUS
 66
1
 70
0
  0
VERTEX
  8
0
 62
7
  6
CONTINUOUS
 10
91.1798658123
 20
125.0665682511
  0
VERTEX
  8
0
 62
7
  6
CONTINUOUS
 10
91.1130806193
 20
125.0755482415
  0
VERTEX
  8
0
 62
7
  6
CONTINUOUS
 10
91.0371949845
 20
125.1075875902
  0
VERTEX
  8
0
 62
7
  6
CONTINUOUS
 10
90.9654938741
 20
125.1602811581
  0
VERTEX
  8
0
 62
7
  6
CONTINUOUS
 10
90.9000210113
 20
125.230621282
  0
VERTEX
  8
0
 62
7
  6
CONTINUOUS
 10
90.8419318329
 20
125.3162926024
  0
VERTEX
  8
0
 62
7
  6
CONTINUOUS
 10
90.7917947034
 20
125.4160300528
  0
VERTEX
  8
0
 62
7
  6
CONTINUOUS
 10
90.7503923952
 20
125.5283287052
  0
VERTEX
  8
0
 62
7
  6
CONTINUOUS
 10
90.7184005804
 20
125.6512314845
  0
VERTEX
  8
0
 62
7
  6
CONTINUOUS
 10
90.6960985335
 20
125.7827747494
  0
VERTEX
  8
0
 62
7
  6
CONTINUOUS
 10
90.6834089066
 20
125.9209450456
  0
VERTEX
  8
0
 62
7
  6
CONTINUOUS
 10
90.6798655606
 20
126.04889501
  0
SEQEND
  0
POLYLINE
  8
0
 62
7
  6
CONTINUOUS
 66
1
 70
0
  0
VERTEX
  8
0
 62
7
  6
CONTINUOUS
 10
103.8798658121
 20
125.0665682506
  0
VERTEX
  8
0
 62
7
  6
CONTINUOUS
 10
103.8130806218
 20
125.0755482409
  0
VERTEX
  8
0
 62
7
  6
CONTINUOUS
 10
103.7371949701
 20
125.1075875977
  0
VERTEX
  8
0
 62
7
  6
CONTINUOUS
 10
103.6654938475
 20
125.1602811825
  0
VERTEX
  8
0
 62
7
  6
CONTINUOUS
 10
103.6000210085
 20
125.230621292
  0
VERTEX
  8
0
 62
7
  6
CONTINUOUS
 10
103.5419318187
 20
125.3162926276
  0
VERTEX
  8
0
 62
7
  6
CONTINUOUS
 10
103.4917947001
 20
125.4160300614
  0
VERTEX
  8
0
 62
7
  6
CONTINUOUS
 10
103.450392394
 20
125.5283287097
  0
VERTEX
  8
0
 62
7
  6
CONTINUOUS
 10
103.4184005818
 20
125.6512314768
  0
VERTEX
  8
0
 62
7
  6
CONTINUOUS
 10
103.3960985356
 20
125.7827747188
  0
VERTEX
  8
0
 62
7
  6
CONTINUOUS
 10
103.3834089068
 20
125.9209450239
  0
VERTEX
  8
0
 62
7
  6
CONTINUOUS
 10
103.3798655602
 20
126.0488950852
  0
SEQEND
  0
POLYLINE
  8
0
 62
7
  6
CONTINUOUS
 66
1
 70
0
  0
VERTEX
  8
0
 62
7
  6
CONTINUOUS
 10
116.3298657738
 20
89.3561276118
  0
VERTEX
  8
0
 62
7
  6
CONTINUOUS
 10
116.3441654943
 20
89.3368912342
  0
VERTEX
  8
0
 62
7
  6
CONTINUOUS
 10
116.3864038963
 20
89.3189758274
  0
VERTEX
  8
0
 62
7
  6
CONTINUOUS
 10
116.4543976767
 20
89.3033455938
  0
VERTEX
  8
0
 62
7
  6
CONTINUOUS
 10
116.4969460939
 20
89.2966532549
  0
VERTEX
  8
0
 62
7
  6
CONTINUOUS
 10
116.5961540511
 20
89.2859567676
  0
VERTEX
  8
0
 62
7
  6
CONTINUOUS
 10
116.7093209876
 20
89.279296295
  0
VERTEX
  8
0
 62
7
  6
CONTINUOUS
 10
116.8298657738
 20
89.2770320022
  0
SEQEND
  0
LINE
  8
0
 62
7
  6
CONTINUOUS
 10
101.2098657738
 20
118.7008724832
 11
101.2098657738
 21
113.5508724832
  0
LINE
  8
0
 62
7
  6
CONTINUOUS
 10
101.2098657738
 20
105.7108724832
 11
101.2098657738
 21
100.5608724832
  0
LINE
  8
0
 62
7
  6
CONTINUOUS
 10
103.3798657738
 20
126.0488579921
 11
103.3798657738
 21
132.4208724832
  0
LINE
  8
0
 62
7
  6
CONTINUOUS
 10
103.6298657738
 20
93.2128869209
 11
103.6298657738
 21
86.8408724832
  0
POLYLINE
  8
0
 62
7
  6
CONTINUOUS
 66
1
 70
0
  0
VERTEX
  8
0
 62
7
  6
CONTINUOUS
 10
122.6798657738
 20
129.9056173546
  0
VERTEX
  8
0
 62
7
  6
CONTINUOUS
 10
122.6941654943
 20
129.9248537322
  0
VERTEX
  8
0
 62
7
  6
CONTINUOUS
 10
122.7364038963
 20
129.9427691391
  0
VERTEX
  8
0
 62
7
  6
CONTINUOUS
 10
122.8043976767
 20
129.9583993727
  0
VERTEX
  8
0
 62
7
  6
CONTINUOUS
 10
122.8469460939
 20
129.9650917116
  0
VERTEX
  8
0
 62
7
  6
CONTINUOUS
 10
122.9461540511
 20
129.9757881989
  0
VERTEX
  8
0
 62
7
  6
CONTINUOUS
 10
123.0593209876
 20
129.9824486714
  0
VERTEX
  8
0
 62
7
  6
CONTINUOUS
 10
123.1798657738
 20
129.9847129643
  0
SEQEND
  0
POLYLINE
  8
0
 62
7
  6
CONTINUOUS
 66
1
 70
0
  0
VERTEX
  8
0
 62
7
  6
CONTINUOUS
 10
97.7798657738
 20
129.9847129643
  0
VERTEX
  8
0
 62
7
  6
CONTINUOUS
 10
97.6593209876
 20
129.9824486714
  0
VERTEX
  8
0
 62
7
  6
CONTINUOUS
 10
97.5461540511
 20
129.9757881989
  0
VERTEX
  8
0
 62
7
  6
CONTINUOUS
 10
97.4469460939
 20
129.9650917116
  0
VERTEX
  8
0
 62
7
  6
CONTINUOUS
 10
97.4043976767
 20
129.9583993727
  0
VERTEX
  8
0
 62
7
  6
CONTINUOUS
 10
97.3364038963
 20
129.9427691391
  0
VERTEX
  8
0
 62
7
  6
CONTINUOUS
 10
97.2941654943
 20
129.9248537322
  0
VERTEX
  8
0
 62
7
  6
CONTINUOUS
 10
97.2798657738
 20
129.9056173546
  0
SEQEND
  0
POLYLINE
  8
0
 62
7
  6
CONTINUOUS
 66
1
 70
0
  0
VERTEX
  8
0
 62
7
  6
CONTINUOUS
 10
72.3798657738
 20
129.9847129643
  0
VERTEX
  8
0
 62
7
  6
CONTINUOUS
 10
72.2593209876
 20
129.9824486714
  0
VERTEX
  8
0
 62
7
  6
CONTINUOUS
 10
72.1461540511
 20
129.9757881989
  0
VERTEX
  8
0
 62
7
  6
CONTINUOUS
 10
72.0469460939
 20
129.9650917116
  0
VERTEX
  8
0
 62
7
  6
CONTINUOUS
 10
72.0043976767
 20
129.9583993727
  0
VERTEX
  8
0
 62
7
  6
CONTINUOUS
 10
71.9364038963
 20
129.9427691391
  0
VERTEX
  8
0
 62
7
  6
CONTINUOUS
 10
71.8941654943
 20
129.9248537322
  0
VERTEX
  8
0
 62
7
  6
CONTINUOUS
 10
71.8798657738
 20
129.9056173546
  0
SEQEND
  0
POLYLINE
  8
0
 62
7
  6
CONTINUOUS
 66
1
 70
0
  0
VERTEX
  8
0
 62
7
  6
CONTINUOUS
 10
46.9798657738
 20
129.9847129643
  0
VERTEX
  8
0
 62
7
  6
CONTINUOUS
 10
46.8593209876
 20
129.9824486714
  0
VERTEX
  8
0
 62
7
  6
CONTINUOUS
 10
46.7461540511
 20
129.9757881989
  0
VERTEX
  8
0
 62
7
  6
CONTINUOUS
 10
46.6469460939
 20
129.9650917116
  0
VERTEX
  8
0
 62
7
  6
CONTINUOUS
 10
46.6043976767
 20
129.9583993727
  0
VERTEX
  8
0
 62
7
  6
CONTINUOUS
 10
46.5364038963
 20
129.9427691391
  0
VERTEX
  8
0
 62
7
  6
CONTINUOUS
 10
46.4941654943
 20
129.9248537322
  0
VERTEX
  8
0
 62
7
  6
CONTINUOUS
 10
46.4798657738
 20
129.9056173546
  0
SEQEND
  0
LINE
  8
0
 62
7
  6
CONTINUOUS
 10
34.2798657738
 20
129.9847129643
 11
39.3798657738
 21
129.9847129643
  0
LINE
  8
0
 62
7
  6
CONTINUOUS
 10
46.9798657738
 20
129.9847129643
 11
52.0798657738
 21
129.9847129643
  0
LINE
  8
0
 62
7
  6
CONTINUOUS
 10
59.6798657738
 20
129.9847129643
 11
64.7798657738
 21
129.9847129643
  0
LINE
  8
0
 62
7
  6
CONTINUOUS
 10
72.3798657738
 20
129.9847129643
 11
77.4798657738
 21
129.9847129643
  0
LINE
  8
0
 62
7
  6
CONTINUOUS
 10
85.0798657738
 20
129.9847129643
 11
90.1798657738
 21
129.9847129643
  0
LINE
  8
0
 62
7
  6
CONTINUOUS
 10
97.7798657738
 20
129.9847129643
 11
102.8798657738
 21
129.9847129643
  0
LINE
  8
0
 62
7
  6
CONTINUOUS
 10
110.4798657738
 20
129.9847129643
 11
115.5798657738
 21
129.9847129643
  0
LINE
  8
0
 62
7
  6
CONTINUOUS
 10
123.1798657738
 20
129.9847129643
 11
128.2798657738
 21
129.9847129643
  0
POLYLINE
  8
0
 62
7
  6
CONTINUOUS
 66
1
 70
0
  0
VERTEX
  8
0
 62
7
  6
CONTINUOUS
 10
52.0798657738
 20
129.9847129643
  0
VERTEX
  8
0
 62
7
  6
CONTINUOUS
 10
52.2004105601
 20
129.9824486714
  0
VERTEX
  8
0
 62
7
  6
CONTINUOUS
 10
52.3135774965
 20
129.9757881989
  0
VERTEX
  8
0
 62
7
  6
CONTINUOUS
 10
52.4127854538
 20
129.9650917116
  0
VERTEX
  8
0
 62
7
  6
CONTINUOUS
 10
52.455333871
 20
129.9583993727
  0
VERTEX
  8
0
 62
7
  6
CONTINUOUS
 10
52.5233276513
 20
129.9427691391
  0
VERTEX
  8
0
 62
7
  6
CONTINUOUS
 10
52.5655660533
 20
129.9248537322
  0
VERTEX
  8
0
 62
7
  6
CONTINUOUS
 10
52.5798657738
 20
129.9056173546
  0
SEQEND
  0
POLYLINE
  8
0
 62
7
  6
CONTINUOUS
 66
1
 70
0
  0
VERTEX
  8
0
 62
7
  6
CONTINUOUS
 10
77.4798657738
 20
129.9847129643
  0
VERTEX
  8
0
 62
7
  6
CONTINUOUS
 10
77.6004105601
 20
129.9824486714
  0
VERTEX
  8
0
 62
7
  6
CONTINUOUS
 10
77.7135774965
 20
129.9757881989
  0
VERTEX
  8
0
 62
7
  6
CONTINUOUS
 10
77.8127854538
 20
129.9650917116
  0
VERTEX
  8
0
 62
7
  6
CONTINUOUS
 10
77.855333871
 20
129.9583993727
  0
VERTEX
  8
0
 62
7
  6
CONTINUOUS
 10
77.9233276513
 20
129.9427691391
  0
VERTEX
  8
0
 62
7
  6
CONTINUOUS
 10
77.9655660533
 20
129.9248537322
  0
VERTEX
  8
0
 62
7
  6
CONTINUOUS
 10
77.9798657738
 20
129.9056173546
  0
SEQEND
  0
POLYLINE
  8
0
 62
7
  6
CONTINUOUS
 66
1
 70
0
  0
VERTEX
  8
0
 62
7
  6
CONTINUOUS
 10
102.8798657738
 20
129.9847129643
  0
VERTEX
  8
0
 62
7
  6
CONTINUOUS
 10
103.0004105601
 20
129.9824486714
  0
VERTEX
  8
0
 62
7
  6
CONTINUOUS
 10
103.1135774965
 20
129.9757881989
  0
VERTEX
  8
0
 62
7
  6
CONTINUOUS
 10
103.2127854538
 20
129.9650917116
  0
VERTEX
  8
0
 62
7
  6
CONTINUOUS
 10
103.255333871
 20
129.9583993727
  0
VERTEX
  8
0
 62
7
  6
CONTINUOUS
 10
103.3233276513
 20
129.9427691391
  0
VERTEX
  8
0
 62
7
  6
CONTINUOUS
 10
103.3655660533
 20
129.9248537322
  0
VERTEX
  8
0
 62
7
  6
CONTINUOUS
 10
103.3798657738
 20
129.9056173546
  0
SEQEND
  0
POLYLINE
  8
0
 62
7
  6
CONTINUOUS
 66
1
 70
0
  0
VERTEX
  8
0
 62
7
  6
CONTINUOUS
 10
115.5798657738
 20
129.9847129643
  0
VERTEX
  8
0
 62
7
  6
CONTINUOUS
 10
115.7004105601
 20
129.9824486714
  0
VERTEX
  8
0
 62
7
  6
CONTINUOUS
 10
115.8135774965
 20
129.9757881989
  0
VERTEX
  8
0
 62
7
  6
CONTINUOUS
 10
115.9127854538
 20
129.9650917116
  0
VERTEX
  8
0
 62
7
  6
CONTINUOUS
 10
115.955333871
 20
129.9583993727
  0
VERTEX
  8
0
 62
7
  6
CONTINUOUS
 10
116.0233276513
 20
129.9427691391
  0
VERTEX
  8
0
 62
7
  6
CONTINUOUS
 10
116.0655660533
 20
129.9248537322
  0
VERTEX
  8
0
 62
7
  6
CONTINUOUS
 10
116.0798657738
 20
129.9056173546
  0
SEQEND
  0
POLYLINE
  8
0
 62
7
  6
CONTINUOUS
 66
1
 70
0
  0
VERTEX
  8
0
 62
7
  6
CONTINUOUS
 10
128.2798657738
 20
129.9847129643
  0
VERTEX
  8
0
 62
7
  6
CONTINUOUS
 10
128.4004105601
 20
129.9824486714
  0
VERTEX
  8
0
 62
7
  6
CONTINUOUS
 10
128.5135774965
 20
129.9757881989
  0
VERTEX
  8
0
 62
7
  6
CONTINUOUS
 10
128.6127854538
 20
129.9650917116
  0
VERTEX
  8
0
 62
7
  6
CONTINUOUS
 10
128.655333871
 20
129.9583993727
  0
VERTEX
  8
0
 62
7
  6
CONTINUOUS
 10
128.7233276513
 20
129.9427691391
  0
VERTEX
  8
0
 62
7
  6
CONTINUOUS
 10
128.7655660533
 20
129.9248537322
  0
VERTEX
  8
0
 62
7
  6
CONTINUOUS
 10
128.7798657738
 20
129.9056173546
  0
SEQEND
  0
POLYLINE
  8
0
 62
7
  6
CONTINUOUS
 66
1
 70
0
  0
VERTEX
  8
0
 62
7
  6
CONTINUOUS
 10
131.3298657738
 20
125.0665681678
  0
VERTEX
  8
0
 62
7
  6
CONTINUOUS
 10
131.4504137427
 20
125.0518188115
  0
VERTEX
  8
0
 62
7
  6
CONTINUOUS
 10
131.5630739689
 20
125.0088508124
  0
VERTEX
  8
0
 62
7
  6
CONTINUOUS
 10
131.6619023244
 20
124.9404019933
  0
VERTEX
  8
0
 62
7
  6
CONTINUOUS
 10
131.7040711831
 20
124.8981858869
  0
VERTEX
  8
0
 62
7
  6
CONTINUOUS
 10
131.7722924139
 20
124.7995030689
  0
VERTEX
  8
0
 62
7
  6
CONTINUOUS
 10
131.815170333
 20
124.6868988989
  0
VERTEX
  8
0
 62
7
  6
CONTINUOUS
 10
131.8298657738
 20
124.5665681678
  0
SEQEND
  0
POLYLINE
  8
0
 62
7
  6
CONTINUOUS
 66
1
 70
0
  0
VERTEX
  8
0
 62
7
  6
CONTINUOUS
 10
116.5798658123
 20
125.0665682511
  0
VERTEX
  8
0
 62
7
  6
CONTINUOUS
 10
116.5130806193
 20
125.0755482415
  0
VERTEX
  8
0
 62
7
  6
CONTINUOUS
 10
116.4371949845
 20
125.1075875902
  0
VERTEX
  8
0
 62
7
  6
CONTINUOUS
 10
116.3654938741
 20
125.1602811581
  0
VERTEX
  8
0
 62
7
  6
CONTINUOUS
 10
116.3000210113
 20
125.230621282
  0
VERTEX
  8
0
 62
7
  6
CONTINUOUS
 10
116.2419318329
 20
125.3162926024
  0
VERTEX
  8
0
 62
7
  6
CONTINUOUS
 10
116.1917947034
 20
125.4160300528
  0
VERTEX
  8
0
 62
7
  6
CONTINUOUS
 10
116.1503923952
 20
125.5283287052
  0
VERTEX
  8
0
 62
7
  6
CONTINUOUS
 10
116.1184005804
 20
125.6512314845
  0
VERTEX
  8
0
 62
7
  6
CONTINUOUS
 10
116.0960985335
 20
125.7827747494
  0
VERTEX
  8
0
 62
7
  6
CONTINUOUS
 10
116.0834089066
 20
125.9209450456
  0
VERTEX
  8
0
 62
7
  6
CONTINUOUS
 10
116.0798655606
 20
126.04889501
  0
SEQEND
  0
POLYLINE
  8
0
 62
7
  6
CONTINUOUS
 66
1
 70
0
  0
VERTEX
  8
0
 62
7
  6
CONTINUOUS
 10
129.2798658082
 20
125.0665682506
  0
VERTEX
  8
0
 62
7
  6
CONTINUOUS
 10
129.2130806203
 20
125.0755482413
  0
VERTEX
  8
0
 62
7
  6
CONTINUOUS
 10
129.1371949689
 20
125.1075875985
  0
VERTEX
  8
0
 62
7
  6
CONTINUOUS
 10
129.0654938465
 20
125.1602811834
  0
VERTEX
  8
0
 62
7
  6
CONTINUOUS
 10
129.0000210078
 20
125.2306212929
  0
VERTEX
  8
0
 62
7
  6
CONTINUOUS
 10
128.9419318182
 20
125.3162926285
  0
VERTEX
  8
0
 62
7
  6
CONTINUOUS
 10
128.8917946998
 20
125.4160300622
  0
VERTEX
  8
0
 62
7
  6
CONTINUOUS
 10
128.8503923938
 20
125.5283287104
  0
VERTEX
  8
0
 62
7
  6
CONTINUOUS
 10
128.8184005817
 20
125.6512314773
  0
VERTEX
  8
0
 62
7
  6
CONTINUOUS
 10
128.7960985355
 20
125.7827747191
  0
VERTEX
  8
0
 62
7
  6
CONTINUOUS
 10
128.7834089068
 20
125.920945024
  0
VERTEX
  8
0
 62
7
  6
CONTINUOUS
 10
128.7798655602
 20
126.0488950852
  0
SEQEND
  0
POLYLINE
  8
0
 62
7
  6
CONTINUOUS
 66
1
 70
0
  0
VERTEX
  8
0
 62
7
  6
CONTINUOUS
 10
90.6798657738
 20
129.9056173546
  0
VERTEX
  8
0
 62
7
  6
CONTINUOUS
 10
90.6655660533
 20
129.9248537322
  0
VERTEX
  8
0
 62
7
  6
CONTINUOUS
 10
90.6233276513
 20
129.9427691391
  0
VERTEX
  8
0
 62
7
  6
CONTINUOUS
 10
90.555333871
 20
129.9583993727
  0
VERTEX
  8
0
 62
7
  6
CONTINUOUS
 10
90.5127854538
 20
129.9650917116
  0
VERTEX
  8
0
 62
7
  6
CONTINUOUS
 10
90.4135774965
 20
129.9757881989
  0
VERTEX
  8
0
 62
7
  6
CONTINUOUS
 10
90.3004105601
 20
129.9824486714
  0
VERTEX
  8
0
 62
7
  6
CONTINUOUS
 10
90.1798657738
 20
129.9847129643
  0
SEQEND
  0
LINE
  8
0
 62
7
  6
CONTINUOUS
 10
105.7998657738
 20
100.5608724832
 11
105.7998657738
 21
105.7108724832
  0
LINE
  8
0
 62
7
  6
CONTINUOUS
 10
105.7998657738
 20
113.5508724832
 11
105.7998657738
 21
118.7008724832
  0
LINE
  8
0
 62
7
  6
CONTINUOUS
 10
107.5598657738
 20
118.7008724832
 11
107.5598657738
 21
113.5508724832
  0
LINE
  8
0
 62
7
  6
CONTINUOUS
 10
107.5598657738
 20
105.7108724832
 11
107.5598657738
 21
100.5608724832
  0
LINE
  8
0
 62
7
  6
CONTINUOUS
 10
34.2798657738
 20
132.9208724832
 11
39.3798657738
 21
132.9208724832
  0
LINE
  8
0
 62
7
  6
CONTINUOUS
 10
46.9798657738
 20
132.9208724832
 11
52.0798657738
 21
132.9208724832
  0
LINE
  8
0
 62
7
  6
CONTINUOUS
 10
59.6798657738
 20
132.9208724832
 11
64.7798657738
 21
132.9208724832
  0
LINE
  8
0
 62
7
  6
CONTINUOUS
 10
72.3798657738
 20
132.9208724832
 11
77.4798657738
 21
132.9208724832
  0
LINE
  8
0
 62
7
  6
CONTINUOUS
 10
85.0798657738
 20
132.9208724832
 11
90.1798657738
 21
132.9208724832
  0
LINE
  8
0
 62
7
  6
CONTINUOUS
 10
97.7798657738
 20
132.9208724832
 11
102.8798657738
 21
132.9208724832
  0
LINE
  8
0
 62
7
  6
CONTINUOUS
 10
110.4798657738
 20
132.9208724832
 11
115.5798657738
 21
132.9208724832
  0
LINE
  8
0
 62
7
  6
CONTINUOUS
 10
123.1798657738
 20
132.9208724832
 11
128.2798657738
 21
132.9208724832
  0
POLYLINE
  8
0
 62
7
  6
CONTINUOUS
 66
1
 70
0
  0
VERTEX
  8
0
 62
7
  6
CONTINUOUS
 10
129.0298657738
 20
89.3561276118
  0
VERTEX
  8
0
 62
7
  6
CONTINUOUS
 10
129.0441654943
 20
89.3368912342
  0
VERTEX
  8
0
 62
7
  6
CONTINUOUS
 10
129.0864038963
 20
89.3189758274
  0
VERTEX
  8
0
 62
7
  6
CONTINUOUS
 10
129.1543976767
 20
89.3033455938
  0
VERTEX
  8
0
 62
7
  6
CONTINUOUS
 10
129.1969460939
 20
89.2966532549
  0
VERTEX
  8
0
 62
7
  6
CONTINUOUS
 10
129.2961540511
 20
89.2859567676
  0
VERTEX
  8
0
 62
7
  6
CONTINUOUS
 10
129.4093209876
 20
89.279296295
  0
VERTEX
  8
0
 62
7
  6
CONTINUOUS
 10
129.5298657738
 20
89.2770320022
  0
SEQEND
  0
LINE
  8
0
 62
7
  6
CONTINUOUS
 10
109.7298657738
 20
86.8408724832
 11
109.7298657738
 21
93.2128869741
  0
LINE
  8
0
 62
7
  6
CONTINUOUS
 10
109.9798657738
 20
132.4208724832
 11
109.9798657738
 21
126.0488580456
  0
POLYLINE
  8
0
 62
7
  6
CONTINUOUS
 66
1
 70
0
  0
VERTEX
  8
0
 62
7
  6
CONTINUOUS
 10
109.9798662294
 20
126.048886105
  0
VERTEX
  8
0
 62
7
  6
CONTINUOUS
 10
109.9763957856
 20
125.9222402788
  0
VERTEX
  8
0
 62
7
  6
CONTINUOUS
 10
109.9637864249
 20
125.7839681819
  0
VERTEX
  8
0
 62
7
  6
CONTINUOUS
 10
109.9415622813
 20
125.6523204567
  0
VERTEX
  8
0
 62
7
  6
CONTINUOUS
 10
109.9096457886
 20
125.5293138222
  0
VERTEX
  8
0
 62
7
  6
CONTINUOUS
 10
109.868316354
 20
125.4169101848
  0
VERTEX
  8
0
 62
7
  6
CONTINUOUS
 10
109.8182489181
 20
125.317063182
  0
VERTEX
  8
0
 62
7
  6
CONTINUOUS
 10
109.7602254316
 20
125.2312732582
  0
VERTEX
  8
0
 62
7
  6
CONTINUOUS
 10
109.6948124438
 20
125.1607994653
  0
VERTEX
  8
0
 62
7
  6
CONTINUOUS
 10
109.6231597649
 20
125.1079486244
  0
VERTEX
  8
0
 62
7
  6
CONTINUOUS
 10
109.5472971405
 20
125.0757227177
  0
VERTEX
  8
0
 62
7
  6
CONTINUOUS
 10
109.4798657738
 20
125.0665682492
  0
SEQEND
  0
POLYLINE
  8
0
 62
7
  6
CONTINUOUS
 66
1
 70
0
  0
VERTEX
  8
0
 62
7
  6
CONTINUOUS
 10
109.7298655647
 20
93.212849893
  0
VERTEX
  8
0
 62
7
  6
CONTINUOUS
 10
109.7333359556
 20
93.3395085194
  0
VERTEX
  8
0
 62
7
  6
CONTINUOUS
 10
109.7459455324
 20
93.4777820515
  0
VERTEX
  8
0
 62
7
  6
CONTINUOUS
 10
109.7681696451
 20
93.6094271197
  0
VERTEX
  8
0
 62
7
  6
CONTINUOUS
 10
109.8000858389
 20
93.7324318191
  0
VERTEX
  8
0
 62
7
  6
CONTINUOUS
 10
109.8414153971
 20
93.8448353387
  0
VERTEX
  8
0
 62
7
  6
CONTINUOUS
 10
109.8914825249
 20
93.9446816372
  0
VERTEX
  8
0
 62
7
  6
CONTINUOUS
 10
109.949506511
 20
94.0304720548
  0
VERTEX
  8
0
 62
7
  6
CONTINUOUS
 10
110.0149192508
 20
94.1009457029
  0
VERTEX
  8
0
 62
7
  6
CONTINUOUS
 10
110.0865725668
 20
94.1537968593
  0
VERTEX
  8
0
 62
7
  6
CONTINUOUS
 10
110.1624381692
 20
94.1860232579
  0
VERTEX
  8
0
 62
7
  6
CONTINUOUS
 10
110.2298657738
 20
94.1951767156
  0
SEQEND
  0
LINE
  8
0
 62
7
  6
CONTINUOUS
 10
112.1498657738
 20
100.5608724832
 11
112.1498657738
 21
105.7108724832
  0
LINE
  8
0
 62
7
  6
CONTINUOUS
 10
112.1498657738
 20
113.5508724832
 11
112.1498657738
 21
118.7008724832
  0
LINE
  8
0
 62
7
  6
CONTINUOUS
 10
113.9098657738
 20
118.7008724832
 11
113.9098657738
 21
113.5508724832
  0
LINE
  8
0
 62
7
  6
CONTINUOUS
 10
113.9098657738
 20
105.7108724832
 11
113.9098657738
 21
100.5608724832
  0
LINE
  8
0
 62
7
  6
CONTINUOUS
 10
116.0798657738
 20
126.0488579922
 11
116.0798657738
 21
132.4208724832
  0
LINE
  8
0
 62
7
  6
CONTINUOUS
 10
116.3298657738
 20
86.8408724832
 11
116.3298657738
 21
93.5165020846
  0
LINE
  8
0
 62
7
  6
CONTINUOUS
 10
118.4998657738
 20
100.5608724832
 11
118.4998657738
 21
105.7108724832
  0
LINE
  8
0
 62
7
  6
CONTINUOUS
 10
118.4998657738
 20
113.5508724832
 11
118.4998657738
 21
118.7008724832
  0
LINE
  8
0
 62
7
  6
CONTINUOUS
 10
120.2598657738
 20
118.7008724832
 11
120.2598657738
 21
113.5508724832
  0
LINE
  8
0
 62
7
  6
CONTINUOUS
 10
120.2598657738
 20
105.7108724832
 11
120.2598657738
 21
100.5608724832
  0
LINE
  8
0
 62
7
  6
CONTINUOUS
 10
122.4298657738
 20
86.8408724832
 11
122.4298657738
 21
93.2128869741
  0
LINE
  8
0
 62
7
  6
CONTINUOUS
 10
122.6798657738
 20
132.4208724832
 11
122.6798657738
 21
125.7452428819
  0
POLYLINE
  8
0
 62
7
  6
CONTINUOUS
 66
1
 70
0
  0
VERTEX
  8
0
 62
7
  6
CONTINUOUS
 10
122.6798662294
 20
126.048886105
  0
VERTEX
  8
0
 62
7
  6
CONTINUOUS
 10
122.6763957856
 20
125.9222402788
  0
VERTEX
  8
0
 62
7
  6
CONTINUOUS
 10
122.6637864249
 20
125.7839681819
  0
VERTEX
  8
0
 62
7
  6
CONTINUOUS
 10
122.6415622813
 20
125.6523204567
  0
VERTEX
  8
0
 62
7
  6
CONTINUOUS
 10
122.6096457886
 20
125.5293138222
  0
VERTEX
  8
0
 62
7
  6
CONTINUOUS
 10
122.568316354
 20
125.4169101848
  0
VERTEX
  8
0
 62
7
  6
CONTINUOUS
 10
122.5182489181
 20
125.317063182
  0
VERTEX
  8
0
 62
7
  6
CONTINUOUS
 10
122.4602254316
 20
125.2312732582
  0
VERTEX
  8
0
 62
7
  6
CONTINUOUS
 10
122.3948124438
 20
125.1607994653
  0
VERTEX
  8
0
 62
7
  6
CONTINUOUS
 10
122.3231597649
 20
125.1079486244
  0
VERTEX
  8
0
 62
7
  6
CONTINUOUS
 10
122.2472971405
 20
125.0757227177
  0
VERTEX
  8
0
 62
7
  6
CONTINUOUS
 10
122.1798657738
 20
125.0665682492
  0
SEQEND
  0
LINE
  8
0
 62
7
  6
CONTINUOUS
 10
124.8498657738
 20
100.5608724832
 11
124.8498657738
 21
105.7108724832
  0
LINE
  8
0
 62
7
  6
CONTINUOUS
 10
124.8498657738
 20
113.5508724832
 11
124.8498657738
 21
118.7008724832
  0
POLYLINE
  8
0
 62
7
  6
CONTINUOUS
 66
1
 70
0
  0
VERTEX
  8
0
 62
7
  6
CONTINUOUS
 10
122.4298655647
 20
93.212849893
  0
VERTEX
  8
0
 62
7
  6
CONTINUOUS
 10
122.4333359556
 20
93.3395085194
  0
VERTEX
  8
0
 62
7
  6
CONTINUOUS
 10
122.4459455324
 20
93.4777820515
  0
VERTEX
  8
0
 62
7
  6
CONTINUOUS
 10
122.4681696451
 20
93.6094271197
  0
VERTEX
  8
0
 62
7
  6
CONTINUOUS
 10
122.5000858389
 20
93.7324318191
  0
VERTEX
  8
0
 62
7
  6
CONTINUOUS
 10
122.5414153971
 20
93.8448353387
  0
VERTEX
  8
0
 62
7
  6
CONTINUOUS
 10
122.5914825249
 20
93.9446816372
  0
VERTEX
  8
0
 62
7
  6
CONTINUOUS
 10
122.649506511
 20
94.0304720548
  0
VERTEX
  8
0
 62
7
  6
CONTINUOUS
 10
122.7149192508
 20
94.1009457029
  0
VERTEX
  8
0
 62
7
  6
CONTINUOUS
 10
122.7865725668
 20
94.1537968593
  0
VERTEX
  8
0
 62
7
  6
CONTINUOUS
 10
122.8624381692
 20
94.1860232579
  0
VERTEX
  8
0
 62
7
  6
CONTINUOUS
 10
122.9298657738
 20
94.1951767156
  0
SEQEND
  0
LINE
  8
0
 62
7
  6
CONTINUOUS
 10
126.6098657738
 20
118.7008724832
 11
126.6098657738
 21
113.5508724832
  0
LINE
  8
0
 62
7
  6
CONTINUOUS
 10
126.6098657738
 20
105.7108724832
 11
126.6098657738
 21
100.5608724832
  0
LINE
  8
0
 62
7
  6
CONTINUOUS
 10
128.7798657738
 20
126.048857995
 11
128.7798657738
 21
132.4208724832
  0
LINE
  8
0
 62
7
  6
CONTINUOUS
 10
129.0298657738
 20
93.2128869209
 11
129.0298657738
 21
86.8408724832
  0
LINE
  8
0
 62
7
  6
CONTINUOUS
 10
131.8298657738
 20
93.9808724832
 11
132.0298657738
 21
94.1808724832
  0
LINE
  8
0
 62
7
  6
CONTINUOUS
 10
131.8298657738
 20
86.8408724832
 11
131.8298657738
 21
124.5665681678
  0
LINE
  8
0
 62
7
  6
CONTINUOUS
 10
132.0298657738
 20
122.9971239844
 11
132.0298657738
 21
94.1808724832
  0
POLYLINE
  8
0
 62
7
  6
CONTINUOUS
 66
1
 70
0
  0
VERTEX
  8
0
 62
7
  6
CONTINUOUS
 10
131.8298657738
 20
89.3561276118
  0
VERTEX
  8
0
 62
7
  6
CONTINUOUS
 10
131.8155660533
 20
89.3368912342
  0
VERTEX
  8
0
 62
7
  6
CONTINUOUS
 10
131.7733276513
 20
89.3189758274
  0
VERTEX
  8
0
 62
7
  6
CONTINUOUS
 10
131.705333871
 20
89.3033455938
  0
VERTEX
  8
0
 62
7
  6
CONTINUOUS
 10
131.6627854538
 20
89.2966532549
  0
VERTEX
  8
0
 62
7
  6
CONTINUOUS
 10
131.5635774965
 20
89.2859567676
  0
VERTEX
  8
0
 62
7
  6
CONTINUOUS
 10
131.4504105601
 20
89.279296295
  0
VERTEX
  8
0
 62
7
  6
CONTINUOUS
 10
131.3298657738
 20
89.2770320022
  0
SEQEND
  0
LINE
  8
0
 62
7
  6
CONTINUOUS
 10
170.5044503382
 20
86.3408724832
 11
172.4485696761
 21
86.3408724832
  0
LINE
  8
1_AXIS
 62
2
  6
CENTER
 10
175.8765100072
 20
90.5808724832
 11
174.7265100072
 21
90.5808724832
  0
LINE
  8
1_AXIS
 62
2
  6
CONTINUOUS
 10
172.3565100072
 20
90.5808724832
 11
170.5965100072
 21
90.5808724832
  0
LINE
  8
1_AXIS
 62
2
  6
CENTER
 10
167.0765100072
 20
90.5808724832
 11
168.2265100072
 21
90.5808724832
  0
LINE
  8
0
 62
7
  6
CONTINUOUS
 10
175.6265100072
 20
89.2770320022
 11
175.4566973904
 21
89.3033455938
  0
POLYLINE
  8
0
 62
7
  6
CONTINUOUS
 66
1
 70
0
  0
VERTEX
  8
0
 62
7
  6
CONTINUOUS
 10
175.4566973904
 20
89.3033455938
  0
VERTEX
  8
0
 62
7
  6
CONTINUOUS
 10
175.2452333768
 20
89.3368912342
  0
VERTEX
  8
0
 62
7
  6
CONTINUOUS
 10
175.1265100072
 20
89.3561276118
  0
SEQEND
  0
LINE
  8
0
 62
7
  6
CONTINUOUS
 10
175.0166231072
 20
93.9808724832
 11
169.2631100072
 21
93.9808724832
  0
POLYLINE
  8
0
 62
7
  6
CONTINUOUS
 66
1
 70
0
  0
VERTEX
  8
0
 62
7
  6
CONTINUOUS
 10
169.2359068864
 20
93.9819197907
  0
VERTEX
  8
0
 62
7
  6
CONTINUOUS
 10
169.2449758149
 20
93.9813376989
  0
VERTEX
  8
0
 62
7
  6
CONTINUOUS
 10
169.25404328
 20
93.980988749
  0
VERTEX
  8
0
 62
7
  6
CONTINUOUS
 10
169.2631100072
 20
93.9808724832
  0
SEQEND
  0
POLYLINE
  8
0
 62
7
  6
CONTINUOUS
 66
1
 70
0
  0
VERTEX
  8
0
 62
7
  6
CONTINUOUS
 10
168.9934309065
 20
94.2135795234
  0
VERTEX
  8
0
 62
7
  6
CONTINUOUS
 10
169.0784219956
 20
94.195597831
  0
VERTEX
  8
0
 62
7
  6
CONTINUOUS
 10
169.168564643
 20
94.1846972257
  0
VERTEX
  8
0
 62
7
  6
CONTINUOUS
 10
169.2631100072
 20
94.1808796966
  0
SEQEND
  0
LINE
  8
0
 62
7
  6
CONTINUOUS
 10
169.2631100072
 20
94.1808724832
 11
174.8010251238
 21
94.1808724832
  0
LINE
  8
0
 62
7
  6
CONTINUOUS
 10
174.8010251238
 20
94.1808724832
 11
175.0166231072
 21
93.9808724832
  0
POLYLINE
  8
0
 62
7
  6
CONTINUOUS
 66
1
 70
0
  0
VERTEX
  8
0
 62
7
  6
CONTINUOUS
 10
168.7631100072
 20
94.3879792644
  0
VERTEX
  8
0
 62
7
  6
CONTINUOUS
 10
168.7755590597
 20
94.3420518265
  0
VERTEX
  8
0
 62
7
  6
CONTINUOUS
 10
168.8127773307
 20
94.2979885862
  0
VERTEX
  8
0
 62
7
  6
CONTINUOUS
 10
168.8400063912
 20
94.2776216002
  0
VERTEX
  8
0
 62
7
  6
CONTINUOUS
 10
168.9088571328
 20
94.241822965
  0
VERTEX
  8
0
 62
7
  6
CONTINUOUS
 10
168.9934309065
 20
94.2135795234
  0
SEQEND
  0
LINE
  8
0
 62
7
  6
CONTINUOUS
 10
167.1265100072
 20
90.5808724832
 11
167.1265100072
 21
128.6808724832
  0
POLYLINE
  8
0
 62
7
  6
CONTINUOUS
 66
1
 70
0
  0
VERTEX
  8
0
 62
7
  6
CONTINUOUS
 10
168.7631100072
 20
94.2007783453
  0
VERTEX
  8
0
 62
7
  6
CONTINUOUS
 10
168.7631359759
 20
94.1975694211
  0
VERTEX
  8
0
 62
7
  6
CONTINUOUS
 10
168.7633840043
 20
94.191861321
  0
VERTEX
  8
0
 62
7
  6
CONTINUOUS
 10
168.7639920345
 20
94.1862805678
  0
VERTEX
  8
0
 62
7
  6
CONTINUOUS
 10
168.7651305401
 20
94.1802781093
  0
VERTEX
  8
0
 62
7
  6
CONTINUOUS
 10
168.7670339087
 20
94.1735817906
  0
VERTEX
  8
0
 62
7
  6
CONTINUOUS
 10
168.7700185201
 20
94.1659918515
  0
VERTEX
  8
0
 62
7
  6
CONTINUOUS
 10
168.7745852994
 20
94.1571953755
  0
VERTEX
  8
0
 62
7
  6
CONTINUOUS
 10
168.7815380761
 20
94.1467706249
  0
VERTEX
  8
0
 62
7
  6
CONTINUOUS
 10
168.7862570251
 20
94.1408181743
  0
VERTEX
  8
0
 62
7
  6
CONTINUOUS
 10
168.7992293926
 20
94.127080567
  0
VERTEX
  8
0
 62
7
  6
CONTINUOUS
 10
168.8189277069
 20
94.1103980062
  0
VERTEX
  8
0
 62
7
  6
CONTINUOUS
 10
168.8490178477
 20
94.0900537896
  0
VERTEX
  8
0
 62
7
  6
CONTINUOUS
 10
168.8957091371
 20
94.0652041917
  0
VERTEX
  8
0
 62
7
  6
CONTINUOUS
 10
168.9686582578
 20
94.0357802788
  0
VERTEX
  8
0
 62
7
  6
CONTINUOUS
 10
169.0675270255
 20
94.0075641629
  0
VERTEX
  8
0
 62
7
  6
CONTINUOUS
 10
169.1780846422
 20
93.9878435143
  0
VERTEX
  8
0
 62
7
  6
CONTINUOUS
 10
169.2359068864
 20
93.9819197907
  0
SEQEND
  0
LINE
  8
0
 62
7
  6
CONTINUOUS
 10
168.7631100072
 20
94.2007783453
 11
168.7631100072
 21
123.4971239844
  0
LINE
  8
0
 62
7
  6
CONTINUOUS
 10
172.4485696761
 20
132.9208724832
 11
172.4177063036
 21
132.6524655209
  0
LINE
  8
0
 62
7
  6
CONTINUOUS
 10
172.4177063036
 20
132.6524655209
 11
172.3902386321
 21
132.4208724832
  0
LINE
  8
0
 62
7
  6
CONTINUOUS
 10
172.3902386321
 20
86.8408724832
 11
172.4177063036
 21
86.6092794455
  0
LINE
  8
0
 62
7
  6
CONTINUOUS
 10
172.4177063036
 20
86.6092794455
 11
172.4485696761
 21
86.3408724832
  0
LINE
  8
1_AXIS
 62
2
  6
CONTINUOUS
 10
171.4765100072
 20
129.5608724832
 11
171.4765100072
 21
127.8008724832
  0
LINE
  8
1_AXIS
 62
2
  6
CENTER
 10
171.4765100072
 20
124.2808724832
 11
171.4765100072
 21
122.5308712514
  0
LINE
  8
1_AXIS
 62
2
  6
CENTER
 10
171.4765100072
 20
94.9808724832
 11
171.4765100072
 21
93.8308724832
  0
LINE
  8
1_AXIS
 62
2
  6
CONTINUOUS
 10
171.4765100072
 20
91.4608724832
 11
171.4765100072
 21
89.7008724832
  0
LINE
  8
1_AXIS
 62
2
  6
CENTER
 10
171.4765100072
 20
86.1808724832
 11
171.4765100072
 21
87.3308724832
  0
LINE
  8
1_AXIS
 62
2
  6
CENTER
 10
171.4765100072
 20
133.0808724832
 11
171.4765100072
 21
134.8308737151
  0
LINE
  8
1_AXIS
 62
2
  6
CENTER
 10
164.6265100072
 20
109.6308724832
 11
177.626511239
 21
109.6308724832
  0
LINE
  8
0
 62
7
  6
CONTINUOUS
 10
170.5188612615
 20
86.4672764824
 11
170.5044503382
 21
86.3408724832
  0
LINE
  8
0
 62
7
  6
CONTINUOUS
 10
170.5188612615
 20
132.7944684841
 11
170.5044503382
 21
132.9208724832
  0
LINE
  8
0
 62
7
  6
CONTINUOUS
 10
173.2265100072
 20
95.1168941007
 11
173.2265100072
 21
122.9971239844
  0
LINE
  8
2_FEATURE
 62
7
  6
CONTINUOUS
 10
173.2265100072
 20
122.9971239844
 11
173.2265100072
 21
123.9971239844
  0
POLYLINE
  8
0
 62
7
  6
CONTINUOUS
 66
1
 70
0
  0
VERTEX
  8
0
 62
7
  6
CONTINUOUS
 10
170.5627813823
 20
86.8408724832
  0
VERTEX
  8
0
 62
7
  6
CONTINUOUS
 10
170.5485487896
 20
86.7217269313
  0
VERTEX
  8
0
 62
7
  6
CONTINUOUS
 10
170.5188612615
 20
86.4672764824
  0
SEQEND
  0
LINE
  8
0
 62
7
  6
CONTINUOUS
 10
170.5627813823
 20
132.4208724832
 11
170.5353137108
 21
132.6524655209
  0
LINE
  8
0
 62
7
  6
CONTINUOUS
 10
170.5353137108
 20
132.6524655209
 11
170.5188612615
 21
132.7944684841
  0
LINE
  8
0
 62
7
  6
CONTINUOUS
 10
175.6265100072
 20
129.9847129643
 11
175.6265100072
 21
89.2770320022
  0
POLYLINE
  8
0
 62
7
  6
CONTINUOUS
 66
1
 70
0
  0
VERTEX
  8
0
 62
7
  6
CONTINUOUS
 10
173.2105235777
 20
124.0284049377
  0
VERTEX
  8
0
 62
7
  6
CONTINUOUS
 10
173.168078152
 20
124.1559669846
  0
VERTEX
  8
0
 62
7
  6
CONTINUOUS
 10
173.139289362
 20
124.2316104011
  0
VERTEX
  8
0
 62
7
  6
CONTINUOUS
 10
173.1234845027
 20
124.2657752264
  0
VERTEX
  8
0
 62
7
  6
CONTINUOUS
 10
173.0892611757
 20
124.3211740656
  0
VERTEX
  8
0
 62
7
  6
CONTINUOUS
 10
173.0469113408
 20
124.3615393171
  0
VERTEX
  8
0
 62
7
  6
CONTINUOUS
 10
172.9873931008
 20
124.3880466208
  0
VERTEX
  8
0
 62
7
  6
CONTINUOUS
 10
172.9103124074
 20
124.3992367523
  0
VERTEX
  8
0
 62
7
  6
CONTINUOUS
 10
172.8649404538
 20
124.4004214679
  0
SEQEND
  0
POLYLINE
  8
0
 62
7
  6
CONTINUOUS
 66
1
 70
0
  0
VERTEX
  8
0
 62
7
  6
CONTINUOUS
 10
173.226255331
 20
123.9971239844
  0
VERTEX
  8
0
 62
7
  6
CONTINUOUS
 10
173.222404423
 20
124.0006272453
  0
VERTEX
  8
0
 62
7
  6
CONTINUOUS
 10
173.2105235777
 20
124.0284049377
  0
SEQEND
  0
LINE
  8
0
 62
7
  6
CONTINUOUS
 10
173.2265100072
 20
123.9971239844
 11
169.2631100072
 21
123.9971239844
  0
POLYLINE
  8
0
 62
7
  6
CONTINUOUS
 66
1
 70
0
  0
VERTEX
  8
0
 62
7
  6
CONTINUOUS
 10
167.1265100072
 20
124.3152158339
  0
VERTEX
  8
0
 62
7
  6
CONTINUOUS
 10
167.1410308485
 20
124.3189616671
  0
VERTEX
  8
0
 62
7
  6
CONTINUOUS
 10
167.1837552971
 20
124.3224902486
  0
VERTEX
  8
0
 62
7
  6
CONTINUOUS
 10
167.2522100238
 20
124.3255965359
  0
VERTEX
  8
0
 62
7
  6
CONTINUOUS
 10
167.2948984447
 20
124.3269336105
  0
VERTEX
  8
0
 62
7
  6
CONTINUOUS
 10
167.3940979716
 20
124.3290782792
  0
VERTEX
  8
0
 62
7
  6
CONTINUOUS
 10
167.506818682
 20
124.3304172709
  0
VERTEX
  8
0
 62
7
  6
CONTINUOUS
 10
167.6265100072
 20
124.3308724832
  0
SEQEND
  0
POLYLINE
  8
0
 62
7
  6
CONTINUOUS
 66
1
 70
0
  0
VERTEX
  8
0
 62
7
  6
CONTINUOUS
 10
168.8387729453
 20
124.3420972063
  0
VERTEX
  8
0
 62
7
  6
CONTINUOUS
 10
168.9254916708
 20
124.3610613349
  0
VERTEX
  8
0
 62
7
  6
CONTINUOUS
 10
168.9642639619
 20
124.3690818535
  0
VERTEX
  8
0
 62
7
  6
CONTINUOUS
 10
169.0089162438
 20
124.3774403583
  0
VERTEX
  8
0
 62
7
  6
CONTINUOUS
 10
169.0630257805
 20
124.3860221796
  0
VERTEX
  8
0
 62
7
  6
CONTINUOUS
 10
169.1301983775
 20
124.3940126141
  0
VERTEX
  8
0
 62
7
  6
CONTINUOUS
 10
169.2139582068
 20
124.3995411855
  0
VERTEX
  8
0
 62
7
  6
CONTINUOUS
 10
169.2631100072
 20
124.4004218431
  0
SEQEND
  0
POLYLINE
  8
0
 62
7
  6
CONTINUOUS
 66
1
 70
0
  0
VERTEX
  8
0
 62
7
  6
CONTINUOUS
 10
168.7614217488
 20
124.3308733971
  0
VERTEX
  8
0
 62
7
  6
CONTINUOUS
 10
168.7698366035
 20
124.3311302077
  0
VERTEX
  8
0
 62
7
  6
CONTINUOUS
 10
168.7886374622
 20
124.3330034475
  0
VERTEX
  8
0
 62
7
  6
CONTINUOUS
 10
168.8111952001
 20
124.3366313278
  0
VERTEX
  8
0
 62
7
  6
CONTINUOUS
 10
168.8387729453
 20
124.3420972063
  0
SEQEND
  0
LINE
  8
0
 62
7
  6
CONTINUOUS
 10
167.6265100072
 20
124.3308724832
 11
168.761393222
 21
124.330873397
  0
LINE
  8
0
 62
7
  6
CONTINUOUS
 10
169.2631100072
 20
124.4004218431
 11
172.8649404538
 21
124.4004214679
  0
LINE
  8
1_AXIS
 62
2
  6
CONTINUOUS
 10
172.3565100072
 20
128.6808724832
 11
170.5965100072
 21
128.6808724832
  0
LINE
  8
1_AXIS
 62
2
  6
CENTER
 10
167.0765100072
 20
128.6808724832
 11
165.3265087753
 21
128.6808724832
  0
LINE
  8
1_AXIS
 62
2
  6
CENTER
 10
175.8765100072
 20
128.6808724832
 11
177.626511239
 21
128.6808724832
  0
LINE
  8
0
 62
7
  6
CONTINUOUS
 10
175.1265100072
 20
129.9056173546
 11
175.3574679323
 21
129.9427691391
  0
LINE
  8
0
 62
7
  6
CONTINUOUS
 10
175.3574679323
 20
129.9427691391
 11
175.5685267836
 21
129.9757881989
  0
LINE
  8
0
 62
7
  6
CONTINUOUS
 10
175.5685267836
 20
129.9757881989
 11
175.6265100072
 21
129.9847129643
  0
LINE
  8
0
 62
7
  6
CONTINUOUS
 10
170.5044503382
 20
132.9208724832
 11
172.4485696761
 21
132.9208724832
  0
LINE
  8
0
 62
7
  6
CONTINUOUS
 10
30.5298657738
 20
214.7563985978
 11
30.5298657738
 21
220.2943137144
  0
LINE
  8
0
 62
7
  6
CONTINUOUS
 10
30.7298657738
 20
213.1197986797
 11
30.7298657738
 21
220.6197985978
  0
LINE
  8
0
 62
7
  6
CONTINUOUS
 10
33.5298657738
 20
213.1197985978
 11
33.5298657738
 21
220.6197985978
  0
POLYLINE
  8
0
 62
7
  6
CONTINUOUS
 66
1
 70
0
  0
VERTEX
  8
0
 62
7
  6
CONTINUOUS
 10
30.5651470042
 20
214.5717105862
  0
VERTEX
  8
0
 62
7
  6
CONTINUOUS
 10
30.538797506
 20
214.6618532336
  0
VERTEX
  8
0
 62
7
  6
CONTINUOUS
 10
30.5298585604
 20
214.7563985978
  0
SEQEND
  0
LINE
  8
0
 62
7
  6
CONTINUOUS
 10
35.3798657738
 20
213.1197985978
 11
35.3798657738
 21
214.896360539
  0
LINE
  8
0
 62
7
  6
CONTINUOUS
 10
30.6088275539
 20
214.4867194971
 11
30.5651470042
 21
214.5717105862
  0
LINE
  8
0
 62
7
  6
CONTINUOUS
 10
37.8798657738
 20
214.1258562329
 11
37.8798657738
 21
212.8198010608
  0
LINE
  8
0
 62
7
  6
CONTINUOUS
 10
38.2798657738
 20
213.1197985978
 11
38.2798657738
 21
214.8967607814
  0
LINE
  8
0
 62
7
  6
CONTINUOUS
 10
40.1298657738
 20
220.6197985978
 11
40.1298657738
 21
213.1197985978
  0
POLYLINE
  8
0
 62
7
  6
CONTINUOUS
 66
1
 70
0
  0
VERTEX
  8
0
 62
7
  6
CONTINUOUS
 10
37.8798655138
 20
214.1259137442
  0
VERTEX
  8
0
 62
7
  6
CONTINUOUS
 10
37.8906545767
 20
214.2122695103
  0
VERTEX
  8
0
 62
7
  6
CONTINUOUS
 10
37.905727599
 20
214.2625081146
  0
VERTEX
  8
0
 62
7
  6
CONTINUOUS
 10
37.9502335012
 20
214.3549259583
  0
SEQEND
  0
POLYLINE
  8
0
 62
7
  6
CONTINUOUS
 66
1
 70
0
  0
VERTEX
  8
0
 62
7
  6
CONTINUOUS
 10
38.1011108482
 20
214.2076117812
  0
VERTEX
  8
0
 62
7
  6
CONTINUOUS
 10
38.1991111438
 20
213.9576217148
  0
VERTEX
  8
0
 62
7
  6
CONTINUOUS
 10
38.260760576
 20
213.7052713758
  0
VERTEX
  8
0
 62
7
  6
CONTINUOUS
 10
38.2798659565
 20
213.4841264453
  0
SEQEND
  0
LINE
  8
0
 62
7
  6
CONTINUOUS
 10
39.2969835194
 20
213.757455417
 11
39.5291713693
 21
212.974485977
  0
POLYLINE
  8
0
 62
7
  6
CONTINUOUS
 66
1
 70
0
  0
VERTEX
  8
0
 62
7
  6
CONTINUOUS
 10
39.5291719356
 20
212.9744841621
  0
VERTEX
  8
0
 62
7
  6
CONTINUOUS
 10
39.5222130958
 20
213.0005136476
  0
VERTEX
  8
0
 62
7
  6
CONTINUOUS
 10
39.5085915315
 20
213.1197985978
  0
SEQEND
  0
LINE
  8
0
 62
7
  6
CONTINUOUS
 10
44.2298657738
 20
214.1258567799
 11
44.2298657738
 21
212.8198010608
  0
POLYLINE
  8
0
 62
7
  6
CONTINUOUS
 66
1
 70
0
  0
VERTEX
  8
0
 62
7
  6
CONTINUOUS
 10
44.2298654673
 20
214.1258577043
  0
VERTEX
  8
0
 62
7
  6
CONTINUOUS
 10
44.2304553381
 20
214.1452005891
  0
VERTEX
  8
0
 62
7
  6
CONTINUOUS
 10
44.2332204479
 20
214.1729479926
  0
VERTEX
  8
0
 62
7
  6
CONTINUOUS
 10
44.2381491055
 20
214.2011262347
  0
VERTEX
  8
0
 62
7
  6
CONTINUOUS
 10
44.2450907548
 20
214.2293532924
  0
VERTEX
  8
0
 62
7
  6
CONTINUOUS
 10
44.2538679229
 20
214.2572654016
  0
VERTEX
  8
0
 62
7
  6
CONTINUOUS
 10
44.2642761819
 20
214.2845230594
  0
VERTEX
  8
0
 62
7
  6
CONTINUOUS
 10
44.2761212369
 20
214.31086691
  0
VERTEX
  8
0
 62
7
  6
CONTINUOUS
 10
44.2891864415
 20
214.336028449
  0
VERTEX
  8
0
 62
7
  6
CONTINUOUS
 10
44.3032493613
 20
214.359768123
  0
VERTEX
  8
0
 62
7
  6
CONTINUOUS
 10
44.3180942511
 20
214.3818942477
  0
VERTEX
  8
0
 62
7
  6
CONTINUOUS
 10
44.3335146898
 20
214.4022533353
  0
VERTEX
  8
0
 62
7
  6
CONTINUOUS
 10
44.3493956644
 20
214.4208171237
  0
VERTEX
  8
0
 62
7
  6
CONTINUOUS
 10
44.3658392277
 20
214.4377426207
  0
VERTEX
  8
0
 62
7
  6
CONTINUOUS
 10
44.3829065643
 20
214.453021606
  0
VERTEX
  8
0
 62
7
  6
CONTINUOUS
 10
44.4005943759
 20
214.466502437
  0
VERTEX
  8
0
 62
7
  6
CONTINUOUS
 10
44.4192034808
 20
214.4781150394
  0
VERTEX
  8
0
 62
7
  6
CONTINUOUS
 10
44.4387427134
 20
214.4873594273
  0
VERTEX
  8
0
 62
7
  6
CONTINUOUS
 10
44.4588782036
 20
214.49342605
  0
VERTEX
  8
0
 62
7
  6
CONTINUOUS
 10
44.4782103106
 20
214.4955154185
  0
VERTEX
  8
0
 62
7
  6
CONTINUOUS
 10
44.4960038477
 20
214.4939741218
  0
VERTEX
  8
0
 62
7
  6
CONTINUOUS
 10
44.5123666067
 20
214.4897631834
  0
VERTEX
  8
0
 62
7
  6
CONTINUOUS
 10
44.5283523404
 20
214.4833205013
  0
VERTEX
  8
0
 62
7
  6
CONTINUOUS
 10
44.537197069
 20
214.4788430104
  0
SEQEND
  0
POLYLINE
  8
0
 62
7
  6
CONTINUOUS
 66
1
 70
0
  0
VERTEX
  8
0
 62
7
  6
CONTINUOUS
 10
37.9055285348
 20
214.2618446308
  0
VERTEX
  8
0
 62
7
  6
CONTINUOUS
 10
37.9159866041
 20
214.2885866771
  0
VERTEX
  8
0
 62
7
  6
CONTINUOUS
 10
37.9284076747
 20
214.3155277408
  0
VERTEX
  8
0
 62
7
  6
CONTINUOUS
 10
37.9420796474
 20
214.3411656654
  0
SEQEND
  0
LINE
  8
0
 62
7
  6
CONTINUOUS
 10
30.5298657738
 20
220.2943137144
 11
30.7298657738
 21
220.5099116978
  0
LINE
  8
0
 62
7
  6
CONTINUOUS
 10
38.0319805602
 20
214.3553501177
 11
38.0435043322
 21
214.3309332076
  0
LINE
  8
0
 62
7
  6
CONTINUOUS
 10
38.0435043322
 20
214.3309332076
 11
38.1011368244
 21
214.2075588862
  0
POLYLINE
  8
0
 62
7
  6
CONTINUOUS
 66
1
 70
0
  0
VERTEX
  8
0
 62
7
  6
CONTINUOUS
 10
39.2940794771
 20
213.7668556621
  0
VERTEX
  8
0
 62
7
  6
CONTINUOUS
 10
39.2935771898
 20
213.768135385
  0
VERTEX
  8
0
 62
7
  6
CONTINUOUS
 10
39.2969791083
 20
213.7574702586
  0
SEQEND
  0
LINE
  8
0
 62
7
  6
CONTINUOUS
 10
46.2298657738
 20
214.4788881043
 11
46.2298657738
 21
220.6197985978
  0
LINE
  8
2_FEATURE
 62
7
  6
CONTINUOUS
 10
46.2798653924
 20
218.6671439353
 11
46.2798653924
 21
218.6197985978
  0
LINE
  8
2_FEATURE
 62
7
  6
CONTINUOUS
 10
46.3298657738
 20
218.69894407
 11
46.3298657738
 21
218.6197985978
  0
LINE
  8
0
 62
7
  6
CONTINUOUS
 10
46.4798657738
 20
213.1198676935
 11
46.4798657738
 21
218.5440903082
  0
LINE
  8
2_FEATURE
 62
7
  6
CONTINUOUS
 10
46.5298661553
 20
218.7197985978
 11
46.5298661553
 21
218.6197985978
  0
LINE
  8
2_FEATURE
 62
7
  6
CONTINUOUS
 10
46.5548657738
 20
218.7197985978
 11
46.5548657738
 21
218.6197985978
  0
LINE
  8
2_FEATURE
 62
7
  6
CONTINUOUS
 10
46.5798653924
 20
218.7197985978
 11
46.5798653924
 21
218.6197985978
  0
LINE
  8
2_FEATURE
 62
7
  6
CONTINUOUS
 10
46.6298657738
 20
218.7197985978
 11
46.6298657738
 21
218.6197985978
  0
LINE
  8
2_FEATURE
 62
7
  6
CONTINUOUS
 10
46.7048657738
 20
218.7197985978
 11
46.7048657738
 21
218.6197985978
  0
LINE
  8
2_FEATURE
 62
7
  6
CONTINUOUS
 10
46.8298661553
 20
218.7197985978
 11
46.8298661553
 21
218.6197985978
  0
LINE
  8
2_FEATURE
 62
7
  6
CONTINUOUS
 10
46.9798661553
 20
218.7197985978
 11
46.9798661553
 21
218.6197985978
  0
LINE
  8
1_AXIS
 62
7
  6
CONTINUOUS
 10
47.1098657738
 20
218.7197985978
 11
47.1098657738
 21
218.6197985978
  0
LINE
  8
1_AXIS
 62
7
  6
CONTINUOUS
 10
47.6198657738
 20
218.7197985978
 11
47.6198657738
 21
218.6197985978
  0
LINE
  8
0
 62
7
  6
CONTINUOUS
 10
46.2200967519
 20
214.3503632456
 11
46.2298665494
 21
214.4787812813
  0
POLYLINE
  8
0
 62
7
  6
CONTINUOUS
 66
1
 70
0
  0
VERTEX
  8
0
 62
7
  6
CONTINUOUS
 10
46.2298657738
 20
218.5440903082
  0
VERTEX
  8
0
 62
7
  6
CONTINUOUS
 10
46.238917906
 20
218.600969933
  0
VERTEX
  8
0
 62
7
  6
CONTINUOUS
 10
46.2687607649
 20
218.6561107215
  0
VERTEX
  8
0
 62
7
  6
CONTINUOUS
 10
46.2914294523
 20
218.6786336271
  0
VERTEX
  8
0
 62
7
  6
CONTINUOUS
 10
46.3493804471
 20
218.709255974
  0
VERTEX
  8
0
 62
7
  6
CONTINUOUS
 10
46.4227647154
 20
218.7197985978
  0
SEQEND
  0
LINE
  8
0
 62
7
  6
CONTINUOUS
 10
37.9901669347
 20
214.4226675665
 11
37.9931400074
 21
214.4280192099
  0
LINE
  8
0
 62
7
  6
CONTINUOUS
 10
37.9856724923
 20
214.4146848808
 11
37.9901669347
 21
214.4226675665
  0
LINE
  8
0
 62
7
  6
CONTINUOUS
 10
37.9808859329
 20
214.4063076273
 11
37.9856724923
 21
214.4146848808
  0
LINE
  8
0
 62
7
  6
CONTINUOUS
 10
37.9760387778
 20
214.3979408867
 11
37.9808859329
 21
214.4063076273
  0
LINE
  8
0
 62
7
  6
CONTINUOUS
 10
37.9716694382
 20
214.3904891549
 11
37.9760387778
 21
214.3979408867
  0
LINE
  8
0
 62
7
  6
CONTINUOUS
 10
37.9664048528
 20
214.3816127439
 11
37.9716694382
 21
214.3904891549
  0
LINE
  8
0
 62
7
  6
CONTINUOUS
 10
37.9613747178
 20
214.3732254665
 11
37.9664048528
 21
214.3816127439
  0
LINE
  8
0
 62
7
  6
CONTINUOUS
 10
37.9493539955
 20
214.3530996382
 11
37.9613747178
 21
214.3732254665
  0
POLYLINE
  8
0
 62
7
  6
CONTINUOUS
 66
1
 70
0
  0
VERTEX
  8
0
 62
7
  6
CONTINUOUS
 10
37.9567564747
 20
214.3652438172
  0
VERTEX
  8
0
 62
7
  6
CONTINUOUS
 10
37.9722044397
 20
214.3875639734
  0
VERTEX
  8
0
 62
7
  6
CONTINUOUS
 10
37.9881986513
 20
214.4079688196
  0
VERTEX
  8
0
 62
7
  6
CONTINUOUS
 10
37.9963750584
 20
214.417460978
  0
VERTEX
  8
0
 62
7
  6
CONTINUOUS
 10
37.9984907099
 20
214.4196886118
  0
SEQEND
  0
POLYLINE
  8
0
 62
7
  6
CONTINUOUS
 66
1
 70
0
  0
VERTEX
  8
0
 62
7
  6
CONTINUOUS
 10
30.7298657738
 20
217.8835272227
  0
VERTEX
  8
0
 62
7
  6
CONTINUOUS
 10
30.744268886
 20
217.8977598154
  0
VERTEX
  8
0
 62
7
  6
CONTINUOUS
 10
30.7867352458
 20
217.9109948942
  0
VERTEX
  8
0
 62
7
  6
CONTINUOUS
 10
30.8549465186
 20
217.9225201197
  0
VERTEX
  8
0
 62
7
  6
CONTINUOUS
 10
30.8975616539
 20
217.9274473435
  0
VERTEX
  8
0
 62
7
  6
CONTINUOUS
 10
30.9967675621
 20
217.9353113819
  0
VERTEX
  8
0
 62
7
  6
CONTINUOUS
 10
31.1097250754
 20
217.9401992163
  0
VERTEX
  8
0
 62
7
  6
CONTINUOUS
 10
31.2298657738
 20
217.9418582667
  0
SEQEND
  0
POLYLINE
  8
0
 62
7
  6
CONTINUOUS
 66
1
 70
0
  0
VERTEX
  8
0
 62
7
  6
CONTINUOUS
 10
30.7298657738
 20
216.0560699729
  0
VERTEX
  8
0
 62
7
  6
CONTINUOUS
 10
30.744268886
 20
216.0418373802
  0
VERTEX
  8
0
 62
7
  6
CONTINUOUS
 10
30.7867352458
 20
216.0286023014
  0
VERTEX
  8
0
 62
7
  6
CONTINUOUS
 10
30.8549465186
 20
216.0170770758
  0
VERTEX
  8
0
 62
7
  6
CONTINUOUS
 10
30.8975616539
 20
216.0121498521
  0
VERTEX
  8
0
 62
7
  6
CONTINUOUS
 10
30.9967675621
 20
216.0042858137
  0
VERTEX
  8
0
 62
7
  6
CONTINUOUS
 10
31.1097250754
 20
215.9993979793
  0
VERTEX
  8
0
 62
7
  6
CONTINUOUS
 10
31.2298657738
 20
215.9977389288
  0
SEQEND
  0
POLYLINE
  8
0
 62
7
  6
CONTINUOUS
 66
1
 70
0
  0
VERTEX
  8
0
 62
7
  6
CONTINUOUS
 10
46.4798657738
 20
218.5440903082
  0
VERTEX
  8
0
 62
7
  6
CONTINUOUS
 10
46.470810929
 20
218.6009782977
  0
VERTEX
  8
0
 62
7
  6
CONTINUOUS
 10
46.4409461274
 20
218.6561407417
  0
VERTEX
  8
0
 62
7
  6
CONTINUOUS
 10
46.4182720619
 20
218.678657969
  0
VERTEX
  8
0
 62
7
  6
CONTINUOUS
 10
46.3603298314
 20
218.7092626829
  0
VERTEX
  8
0
 62
7
  6
CONTINUOUS
 10
46.3548775437
 20
218.7100457048
  0
SEQEND
  0
LINE
  8
1_AXIS
 62
7
  6
CONTINUOUS
 10
48.3098657738
 20
218.7197985978
 11
48.3098657738
 21
218.6197985978
  0
LINE
  8
1_AXIS
 62
7
  6
CONTINUOUS
 10
48.8198657738
 20
218.7197985978
 11
48.8198657738
 21
218.6197985978
  0
LINE
  8
2_FEATURE
 62
7
  6
CONTINUOUS
 10
48.8548655831
 20
218.7197985978
 11
48.8548655831
 21
218.6197985978
  0
LINE
  8
1_AXIS
 62
7
  6
CONTINUOUS
 10
48.9398657738
 20
218.7197985978
 11
48.9398657738
 21
218.6197985978
  0
LINE
  8
1_AXIS
 62
7
  6
CONTINUOUS
 10
49.4498657738
 20
218.7197985978
 11
49.4498657738
 21
218.6197985978
  0
LINE
  8
1_AXIS
 62
7
  6
CONTINUOUS
 10
50.2598657738
 20
218.7197985978
 11
50.2598657738
 21
218.6197985978
  0
LINE
  8
0
 62
7
  6
CONTINUOUS
 10
38.3062243122
 20
218.7188082526
 11
37.8072146574
 21
218.2197985978
  0
POLYLINE
  8
0
 62
7
  6
CONTINUOUS
 66
1
 70
0
  0
VERTEX
  8
0
 62
7
  6
CONTINUOUS
 10
33.5298657738
 20
217.8835272227
  0
VERTEX
  8
0
 62
7
  6
CONTINUOUS
 10
33.5154626616
 20
217.8977598154
  0
VERTEX
  8
0
 62
7
  6
CONTINUOUS
 10
33.4729963019
 20
217.9109948942
  0
VERTEX
  8
0
 62
7
  6
CONTINUOUS
 10
33.4047850291
 20
217.9225201197
  0
VERTEX
  8
0
 62
7
  6
CONTINUOUS
 10
33.3621698938
 20
217.9274473435
  0
VERTEX
  8
0
 62
7
  6
CONTINUOUS
 10
33.2629639856
 20
217.9353113819
  0
VERTEX
  8
0
 62
7
  6
CONTINUOUS
 10
33.1500064723
 20
217.9401992163
  0
VERTEX
  8
0
 62
7
  6
CONTINUOUS
 10
33.0298657738
 20
217.9418582667
  0
SEQEND
  0
LINE
  8
0
 62
7
  6
CONTINUOUS
 10
35.8526439789
 20
218.2197985978
 11
35.3536235411
 21
218.7188190356
  0
LINE
  8
1_AXIS
 62
7
  6
CONTINUOUS
 10
51.7898657738
 20
218.7197985978
 11
51.7898657738
 21
218.6197985978
  0
LINE
  8
2_FEATURE
 62
7
  6
CONTINUOUS
 10
51.8798657738
 20
218.7197985978
 11
51.8798657738
 21
218.6197985978
  0
LINE
  8
2_FEATURE
 62
7
  6
CONTINUOUS
 10
51.9548657738
 20
218.7197985978
 11
51.9548657738
 21
218.6197985978
  0
LINE
  8
2_FEATURE
 62
7
  6
CONTINUOUS
 10
52.0298657738
 20
218.7197985978
 11
52.0298657738
 21
218.6197985978
  0
LINE
  8
2_FEATURE
 62
7
  6
CONTINUOUS
 10
52.0798655831
 20
218.7197985978
 11
52.0798655831
 21
218.6197985978
  0
LINE
  8
2_FEATURE
 62
7
  6
CONTINUOUS
 10
52.2798659646
 20
218.7197985978
 11
52.2798659646
 21
218.6197985978
  0
LINE
  8
2_FEATURE
 62
7
  6
CONTINUOUS
 10
52.4798657738
 20
218.7197985978
 11
52.4798657738
 21
218.6197985978
  0
LINE
  8
0
 62
7
  6
CONTINUOUS
 10
52.5798657738
 20
213.1198676935
 11
52.5798657738
 21
218.5440903082
  0
LINE
  8
2_FEATURE
 62
7
  6
CONTINUOUS
 10
52.6048658692
 20
218.7197985978
 11
52.6048658692
 21
218.6197985978
  0
LINE
  8
2_FEATURE
 62
7
  6
CONTINUOUS
 10
52.6298657738
 20
218.7197985978
 11
52.6298657738
 21
218.6197985978
  0
LINE
  8
2_FEATURE
 62
7
  6
CONTINUOUS
 10
52.6548656785
 20
218.7197985978
 11
52.6548656785
 21
218.6197985978
  0
LINE
  8
2_FEATURE
 62
7
  6
CONTINUOUS
 10
52.6798658692
 20
218.7136289829
 11
52.6798658692
 21
218.6197985978
  0
LINE
  8
2_FEATURE
 62
7
  6
CONTINUOUS
 10
52.7548658692
 20
218.6856809148
 11
52.7548658692
 21
218.6197985978
  0
LINE
  8
0
 62
7
  6
CONTINUOUS
 10
52.8298657738
 20
213.1197998508
 11
52.8298657738
 21
220.6197985978
  0
POLYLINE
  8
0
 62
7
  6
CONTINUOUS
 66
1
 70
0
  0
VERTEX
  8
0
 62
7
  6
CONTINUOUS
 10
52.6004000389
 20
218.6222055695
  0
VERTEX
  8
0
 62
7
  6
CONTINUOUS
 10
52.5888627851
 20
218.6007996606
  0
VERTEX
  8
0
 62
7
  6
CONTINUOUS
 10
52.5798657738
 20
218.5440903082
  0
SEQEND
  0
POLYLINE
  8
0
 62
7
  6
CONTINUOUS
 66
1
 70
0
  0
VERTEX
  8
0
 62
7
  6
CONTINUOUS
 10
46.2298657738
 20
216.0560699729
  0
VERTEX
  8
0
 62
7
  6
CONTINUOUS
 10
46.2154626616
 20
216.0418373802
  0
VERTEX
  8
0
 62
7
  6
CONTINUOUS
 10
46.1729963019
 20
216.0286023014
  0
VERTEX
  8
0
 62
7
  6
CONTINUOUS
 10
46.1047850291
 20
216.0170770758
  0
VERTEX
  8
0
 62
7
  6
CONTINUOUS
 10
46.0621698938
 20
216.0121498521
  0
VERTEX
  8
0
 62
7
  6
CONTINUOUS
 10
45.9629639856
 20
216.0042858137
  0
VERTEX
  8
0
 62
7
  6
CONTINUOUS
 10
45.8500064723
 20
215.9993979793
  0
VERTEX
  8
0
 62
7
  6
CONTINUOUS
 10
45.7298657738
 20
215.9977389288
  0
SEQEND
  0
LINE
  8
0
 62
7
  6
CONTINUOUS
 10
58.9298657738
 20
213.1197985978
 11
58.9298657738
 21
220.6197985978
  0
LINE
  8
0
 62
7
  6
CONTINUOUS
 10
60.7798657738
 20
213.1197985978
 11
60.7798657738
 21
214.8967607728
  0
POLYLINE
  8
0
 62
7
  6
CONTINUOUS
 66
1
 70
0
  0
VERTEX
  8
0
 62
7
  6
CONTINUOUS
 10
59.5305596121
 20
212.9744841621
  0
VERTEX
  8
0
 62
7
  6
CONTINUOUS
 10
59.5375184519
 20
213.0005136476
  0
VERTEX
  8
0
 62
7
  6
CONTINUOUS
 10
59.5511400162
 20
213.1197985978
  0
SEQEND
  0
POLYLINE
  8
0
 62
7
  6
CONTINUOUS
 66
1
 70
0
  0
VERTEX
  8
0
 62
7
  6
CONTINUOUS
 10
52.8298657738
 20
217.8835272227
  0
VERTEX
  8
0
 62
7
  6
CONTINUOUS
 10
52.844268886
 20
217.8977598154
  0
VERTEX
  8
0
 62
7
  6
CONTINUOUS
 10
52.8867352458
 20
217.9109948942
  0
VERTEX
  8
0
 62
7
  6
CONTINUOUS
 10
52.9549465186
 20
217.9225201197
  0
VERTEX
  8
0
 62
7
  6
CONTINUOUS
 10
52.9975616539
 20
217.9274473435
  0
VERTEX
  8
0
 62
7
  6
CONTINUOUS
 10
53.0967675621
 20
217.9353113819
  0
VERTEX
  8
0
 62
7
  6
CONTINUOUS
 10
53.2097250754
 20
217.9401992163
  0
VERTEX
  8
0
 62
7
  6
CONTINUOUS
 10
53.3298657738
 20
217.9418582667
  0
SEQEND
  0
LINE
  8
0
 62
7
  6
CONTINUOUS
 10
63.6798657738
 20
213.1197985978
 11
63.6798657738
 21
214.896760781
  0
LINE
  8
0
 62
7
  6
CONTINUOUS
 10
59.5305601783
 20
212.974485977
 11
59.7627480282
 21
213.757455417
  0
LINE
  8
0
 62
7
  6
CONTINUOUS
 10
59.762752754
 20
213.7574713196
 11
59.7661091339
 21
213.7680104257
  0
POLYLINE
  8
0
 62
7
  6
CONTINUOUS
 66
1
 70
0
  0
VERTEX
  8
0
 62
7
  6
CONTINUOUS
 10
44.5371998389
 20
214.4788426712
  0
VERTEX
  8
0
 62
7
  6
CONTINUOUS
 10
44.8646160463
 20
214.3105205187
  0
VERTEX
  8
0
 62
7
  6
CONTINUOUS
 10
45.2465869406
 20
214.1339158204
  0
VERTEX
  8
0
 62
7
  6
CONTINUOUS
 10
45.6567109721
 20
213.9638055253
  0
SEQEND
  0
POLYLINE
  8
0
 62
7
  6
CONTINUOUS
 66
1
 70
0
  0
VERTEX
  8
0
 62
7
  6
CONTINUOUS
 10
64.6940794771
 20
213.7668556621
  0
VERTEX
  8
0
 62
7
  6
CONTINUOUS
 10
64.6935771898
 20
213.768135385
  0
VERTEX
  8
0
 62
7
  6
CONTINUOUS
 10
64.6969791083
 20
213.7574702586
  0
SEQEND
  0
LINE
  8
0
 62
7
  6
CONTINUOUS
 10
64.6969835194
 20
213.757455417
 11
64.9291713693
 21
212.974485977
  0
POLYLINE
  8
0
 62
7
  6
CONTINUOUS
 66
1
 70
0
  0
VERTEX
  8
0
 62
7
  6
CONTINUOUS
 10
64.9291719356
 20
212.9744841621
  0
VERTEX
  8
0
 62
7
  6
CONTINUOUS
 10
64.9222130958
 20
213.0005136476
  0
VERTEX
  8
0
 62
7
  6
CONTINUOUS
 10
64.9085915315
 20
213.1197985978
  0
SEQEND
  0
LINE
  8
0
 62
7
  6
CONTINUOUS
 10
65.5298657738
 20
213.1197985978
 11
65.5298657738
 21
220.6197985978
  0
LINE
  8
0
 62
7
  6
CONTINUOUS
 10
63.7062243122
 20
218.7188082526
 11
63.2072146574
 21
218.2197985978
  0
POLYLINE
  8
0
 62
7
  6
CONTINUOUS
 66
1
 70
0
  0
VERTEX
  8
0
 62
7
  6
CONTINUOUS
 10
37.9668494762
 20
214.4553510586
  0
VERTEX
  8
0
 62
7
  6
CONTINUOUS
 10
37.9666332841
 20
214.4554197435
  0
VERTEX
  8
0
 62
7
  6
CONTINUOUS
 10
37.9683045046
 20
214.4545536741
  0
VERTEX
  8
0
 62
7
  6
CONTINUOUS
 10
37.9726242456
 20
214.4515726972
  0
VERTEX
  8
0
 62
7
  6
CONTINUOUS
 10
37.9779016525
 20
214.4469105584
  0
VERTEX
  8
0
 62
7
  6
CONTINUOUS
 10
37.9828849904
 20
214.4416042583
  0
VERTEX
  8
0
 62
7
  6
CONTINUOUS
 10
37.9877640384
 20
214.4355870519
  0
VERTEX
  8
0
 62
7
  6
CONTINUOUS
 10
37.9921473458
 20
214.4295203718
  0
VERTEX
  8
0
 62
7
  6
CONTINUOUS
 10
37.996393124
 20
214.4230996535
  0
VERTEX
  8
0
 62
7
  6
CONTINUOUS
 10
38.0006012949
 20
214.4162564312
  0
VERTEX
  8
0
 62
7
  6
CONTINUOUS
 10
38.0047605331
 20
214.4090739075
  0
VERTEX
  8
0
 62
7
  6
CONTINUOUS
 10
38.008933467
 20
214.4015015853
  0
VERTEX
  8
0
 62
7
  6
CONTINUOUS
 10
38.0131809112
 20
214.39347237
  0
VERTEX
  8
0
 62
7
  6
CONTINUOUS
 10
38.0175276596
 20
214.3849761302
  0
VERTEX
  8
0
 62
7
  6
CONTINUOUS
 10
38.0220246247
 20
214.3759466917
  0
VERTEX
  8
0
 62
7
  6
CONTINUOUS
 10
38.0268019803
 20
214.3661479082
  0
VERTEX
  8
0
 62
7
  6
CONTINUOUS
 10
38.0319805602
 20
214.3553501177
  0
SEQEND
  0
LINE
  8
0
 62
7
  6
CONTINUOUS
 10
45.6543903012
 20
213.9647680878
 11
45.656711319
 21
213.9638052258
  0
POLYLINE
  8
0
 62
7
  6
CONTINUOUS
 66
1
 70
0
  0
VERTEX
  8
0
 62
7
  6
CONTINUOUS
 10
58.9298657738
 20
217.8835272227
  0
VERTEX
  8
0
 62
7
  6
CONTINUOUS
 10
58.9154626616
 20
217.8977598154
  0
VERTEX
  8
0
 62
7
  6
CONTINUOUS
 10
58.8729963019
 20
217.9109948942
  0
VERTEX
  8
0
 62
7
  6
CONTINUOUS
 10
58.8047850291
 20
217.9225201197
  0
VERTEX
  8
0
 62
7
  6
CONTINUOUS
 10
58.7621698938
 20
217.9274473435
  0
VERTEX
  8
0
 62
7
  6
CONTINUOUS
 10
58.6629639856
 20
217.9353113819
  0
VERTEX
  8
0
 62
7
  6
CONTINUOUS
 10
58.5500064723
 20
217.9401992163
  0
VERTEX
  8
0
 62
7
  6
CONTINUOUS
 10
58.4298657738
 20
217.9418582667
  0
SEQEND
  0
LINE
  8
0
 62
7
  6
CONTINUOUS
 10
61.2525168903
 20
218.2197985978
 11
60.7535072355
 21
218.7188082526
  0
POLYLINE
  8
0
 62
7
  6
CONTINUOUS
 66
1
 70
0
  0
VERTEX
  8
0
 62
7
  6
CONTINUOUS
 10
71.6298657738
 20
218.5440903082
  0
VERTEX
  8
0
 62
7
  6
CONTINUOUS
 10
71.638917906
 20
218.600969933
  0
VERTEX
  8
0
 62
7
  6
CONTINUOUS
 10
71.6687607649
 20
218.6561107215
  0
VERTEX
  8
0
 62
7
  6
CONTINUOUS
 10
71.6914294523
 20
218.6786336271
  0
VERTEX
  8
0
 62
7
  6
CONTINUOUS
 10
71.7493804471
 20
218.709255974
  0
VERTEX
  8
0
 62
7
  6
CONTINUOUS
 10
71.8227647154
 20
218.7197985978
  0
SEQEND
  0
POLYLINE
  8
0
 62
7
  6
CONTINUOUS
 66
1
 70
0
  0
VERTEX
  8
0
 62
7
  6
CONTINUOUS
 10
123.1620194162
 20
212.6198413671
  0
VERTEX
  8
0
 62
7
  6
CONTINUOUS
 10
123.2807436256
 20
212.6357776189
  0
VERTEX
  8
0
 62
7
  6
CONTINUOUS
 10
123.3923331519
 20
212.679491018
  0
VERTEX
  8
0
 62
7
  6
CONTINUOUS
 10
123.4904162652
 20
212.7483820627
  0
VERTEX
  8
0
 62
7
  6
CONTINUOUS
 10
123.5326130227
 20
212.7910593473
  0
VERTEX
  8
0
 62
7
  6
CONTINUOUS
 10
123.6003440677
 20
212.8897791103
  0
VERTEX
  8
0
 62
7
  6
CONTINUOUS
 10
123.6428489112
 20
213.0014837095
  0
VERTEX
  8
0
 62
7
  6
CONTINUOUS
 10
123.6578016139
 20
213.1197985978
  0
SEQEND
  0
POLYLINE
  8
0
 62
7
  6
CONTINUOUS
 66
1
 70
0
  0
VERTEX
  8
0
 62
7
  6
CONTINUOUS
 10
39.3977121315
 20
212.6198413671
  0
VERTEX
  8
0
 62
7
  6
CONTINUOUS
 10
39.2789879221
 20
212.6357776189
  0
VERTEX
  8
0
 62
7
  6
CONTINUOUS
 10
39.1673983958
 20
212.679491018
  0
VERTEX
  8
0
 62
7
  6
CONTINUOUS
 10
39.0693152824
 20
212.7483820627
  0
VERTEX
  8
0
 62
7
  6
CONTINUOUS
 10
39.027118525
 20
212.7910593473
  0
VERTEX
  8
0
 62
7
  6
CONTINUOUS
 10
38.9593874799
 20
212.8897791103
  0
VERTEX
  8
0
 62
7
  6
CONTINUOUS
 10
38.9168826364
 20
213.0014837095
  0
VERTEX
  8
0
 62
7
  6
CONTINUOUS
 10
38.9019299338
 20
213.1197985978
  0
SEQEND
  0
POLYLINE
  8
0
 62
7
  6
CONTINUOUS
 66
1
 70
0
  0
VERTEX
  8
0
 62
7
  6
CONTINUOUS
 10
45.6567164094
 20
213.9638034959
  0
VERTEX
  8
0
 62
7
  6
CONTINUOUS
 10
45.7448337015
 20
213.939586373
  0
VERTEX
  8
0
 62
7
  6
CONTINUOUS
 10
45.8435162222
 20
213.9364098995
  0
VERTEX
  8
0
 62
7
  6
CONTINUOUS
 10
45.9369327596
 20
213.9577512199
  0
VERTEX
  8
0
 62
7
  6
CONTINUOUS
 10
46.0229912101
 20
214.002743187
  0
VERTEX
  8
0
 62
7
  6
CONTINUOUS
 10
46.0626003956
 20
214.0342567211
  0
VERTEX
  8
0
 62
7
  6
CONTINUOUS
 10
46.1331434399
 20
214.1164827469
  0
VERTEX
  8
0
 62
7
  6
CONTINUOUS
 10
46.1874087105
 20
214.2236834452
  0
VERTEX
  8
0
 62
7
  6
CONTINUOUS
 10
46.2202143105
 20
214.3508188344
  0
SEQEND
  0
LINE
  8
0
 62
7
  6
CONTINUOUS
 10
71.6298657738
 20
213.1197998508
 11
71.6298657738
 21
220.6197985978
  0
LINE
  8
0
 62
7
  6
CONTINUOUS
 10
71.8798657738
 20
213.1198676935
 11
71.8798657738
 21
218.5440903082
  0
LINE
  8
2_FEATURE
 62
7
  6
CONTINUOUS
 10
72.3048657321
 20
218.7197985978
 11
72.3048657321
 21
218.6197985978
  0
LINE
  8
2_FEATURE
 62
7
  6
CONTINUOUS
 10
72.6548657738
 20
218.7197985978
 11
72.6548657738
 21
218.6197985978
  0
LINE
  8
2_FEATURE
 62
7
  6
CONTINUOUS
 10
72.6798657738
 20
218.7197985978
 11
72.6798657738
 21
218.6197985978
  0
LINE
  8
2_FEATURE
 62
7
  6
CONTINUOUS
 10
72.7298655831
 20
218.7197985978
 11
72.7298655831
 21
218.6197985978
  0
LINE
  8
2_FEATURE
 62
7
  6
CONTINUOUS
 10
72.8048655831
 20
218.7197985978
 11
72.8048655831
 21
218.6197985978
  0
LINE
  8
2_FEATURE
 62
7
  6
CONTINUOUS
 10
72.9298659646
 20
218.7197985978
 11
72.9298659646
 21
218.6197985978
  0
LINE
  8
2_FEATURE
 62
7
  6
CONTINUOUS
 10
73.0048658155
 20
218.7197985978
 11
73.0048658155
 21
218.6197985978
  0
LINE
  8
2_FEATURE
 62
7
  6
CONTINUOUS
 10
74.0548656904
 20
218.7197985978
 11
74.0548656904
 21
218.6197985978
  0
LINE
  8
2_FEATURE
 62
7
  6
CONTINUOUS
 10
74.3173656904
 20
218.7197985978
 11
74.3173656904
 21
218.6197985978
  0
LINE
  8
2_FEATURE
 62
7
  6
CONTINUOUS
 10
74.7548657738
 20
218.7197985978
 11
74.7548657738
 21
218.6197985978
  0
LINE
  8
2_FEATURE
 62
7
  6
CONTINUOUS
 10
74.8298655831
 20
218.7197985978
 11
74.8298655831
 21
218.6197985978
  0
LINE
  8
2_FEATURE
 62
7
  6
CONTINUOUS
 10
74.9048655831
 20
218.7197985978
 11
74.9048655831
 21
218.6197985978
  0
POLYLINE
  8
0
 62
7
  6
CONTINUOUS
 66
1
 70
0
  0
VERTEX
  8
0
 62
7
  6
CONTINUOUS
 10
110.4620194162
 20
212.6198413671
  0
VERTEX
  8
0
 62
7
  6
CONTINUOUS
 10
110.5807436256
 20
212.6357776189
  0
VERTEX
  8
0
 62
7
  6
CONTINUOUS
 10
110.6923331519
 20
212.679491018
  0
VERTEX
  8
0
 62
7
  6
CONTINUOUS
 10
110.7904162652
 20
212.7483820627
  0
VERTEX
  8
0
 62
7
  6
CONTINUOUS
 10
110.8326130227
 20
212.7910593473
  0
VERTEX
  8
0
 62
7
  6
CONTINUOUS
 10
110.9003440677
 20
212.8897791103
  0
VERTEX
  8
0
 62
7
  6
CONTINUOUS
 10
110.9428489112
 20
213.0014837095
  0
VERTEX
  8
0
 62
7
  6
CONTINUOUS
 10
110.9578016139
 20
213.1197985978
  0
SEQEND
  0
POLYLINE
  8
0
 62
7
  6
CONTINUOUS
 66
1
 70
0
  0
VERTEX
  8
0
 62
7
  6
CONTINUOUS
 10
122.5554299218
 20
212.6197985978
  0
VERTEX
  8
0
 62
7
  6
CONTINUOUS
 10
122.6751290305
 20
212.6344203997
  0
VERTEX
  8
0
 62
7
  6
CONTINUOUS
 10
122.7875147472
 20
212.677367315
  0
VERTEX
  8
0
 62
7
  6
CONTINUOUS
 10
122.8860612065
 20
212.7460408666
  0
VERTEX
  8
0
 62
7
  6
CONTINUOUS
 10
122.9283253374
 20
212.7887997598
  0
VERTEX
  8
0
 62
7
  6
CONTINUOUS
 10
122.9958077772
 20
212.8880042762
  0
VERTEX
  8
0
 62
7
  6
CONTINUOUS
 10
123.0305596121
 20
212.9744841621
  0
SEQEND
  0
POLYLINE
  8
0
 62
7
  6
CONTINUOUS
 66
1
 70
0
  0
VERTEX
  8
0
 62
7
  6
CONTINUOUS
 10
109.8554299218
 20
212.6197985978
  0
VERTEX
  8
0
 62
7
  6
CONTINUOUS
 10
109.9751290305
 20
212.6344203997
  0
VERTEX
  8
0
 62
7
  6
CONTINUOUS
 10
110.0875147472
 20
212.677367315
  0
VERTEX
  8
0
 62
7
  6
CONTINUOUS
 10
110.1860612065
 20
212.7460408666
  0
VERTEX
  8
0
 62
7
  6
CONTINUOUS
 10
110.2283253374
 20
212.7887997598
  0
VERTEX
  8
0
 62
7
  6
CONTINUOUS
 10
110.2958077772
 20
212.8880042762
  0
VERTEX
  8
0
 62
7
  6
CONTINUOUS
 10
110.3305596121
 20
212.9744841621
  0
SEQEND
  0
POLYLINE
  8
0
 62
7
  6
CONTINUOUS
 66
1
 70
0
  0
VERTEX
  8
0
 62
7
  6
CONTINUOUS
 10
40.0043016259
 20
212.6197985978
  0
VERTEX
  8
0
 62
7
  6
CONTINUOUS
 10
39.8846025171
 20
212.6344203997
  0
VERTEX
  8
0
 62
7
  6
CONTINUOUS
 10
39.7722168005
 20
212.677367315
  0
VERTEX
  8
0
 62
7
  6
CONTINUOUS
 10
39.6736703411
 20
212.7460408666
  0
VERTEX
  8
0
 62
7
  6
CONTINUOUS
 10
39.6314062103
 20
212.7887997598
  0
VERTEX
  8
0
 62
7
  6
CONTINUOUS
 10
39.5639237705
 20
212.8880042762
  0
VERTEX
  8
0
 62
7
  6
CONTINUOUS
 10
39.5291719356
 20
212.9744841621
  0
SEQEND
  0
POLYLINE
  8
0
 62
7
  6
CONTINUOUS
 66
1
 70
0
  0
VERTEX
  8
0
 62
7
  6
CONTINUOUS
 10
64.7977121315
 20
212.6198413671
  0
VERTEX
  8
0
 62
7
  6
CONTINUOUS
 10
64.6789879221
 20
212.6357776189
  0
VERTEX
  8
0
 62
7
  6
CONTINUOUS
 10
64.5673983958
 20
212.679491018
  0
VERTEX
  8
0
 62
7
  6
CONTINUOUS
 10
64.4693152824
 20
212.7483820627
  0
VERTEX
  8
0
 62
7
  6
CONTINUOUS
 10
64.427118525
 20
212.7910593473
  0
VERTEX
  8
0
 62
7
  6
CONTINUOUS
 10
64.3593874799
 20
212.8897791103
  0
VERTEX
  8
0
 62
7
  6
CONTINUOUS
 10
64.3168826364
 20
213.0014837095
  0
VERTEX
  8
0
 62
7
  6
CONTINUOUS
 10
64.3019299338
 20
213.1197985978
  0
SEQEND
  0
LINE
  8
0
 62
7
  6
CONTINUOUS
 10
71.870810929
 20
218.6009782977
 11
71.8593169725
 21
218.622208465
  0
LINE
  8
0
 62
7
  6
CONTINUOUS
 10
71.8798657738
 20
218.5440903082
 11
71.870810929
 21
218.6009782977
  0
LINE
  8
2_FEATURE
 62
7
  6
CONTINUOUS
 10
74.9548659646
 20
218.7197985978
 11
74.9548659646
 21
218.6197985978
  0
LINE
  8
2_FEATURE
 62
7
  6
CONTINUOUS
 10
75.1048656904
 20
218.7197985978
 11
75.1048656904
 21
218.6197985978
  0
LINE
  8
2_FEATURE
 62
7
  6
CONTINUOUS
 10
75.1486157738
 20
218.7197985978
 11
75.1486157738
 21
218.6197985978
  0
LINE
  8
2_FEATURE
 62
7
  6
CONTINUOUS
 10
75.1923658573
 20
218.7197985978
 11
75.1923658573
 21
218.6197985978
  0
LINE
  8
2_FEATURE
 62
7
  6
CONTINUOUS
 10
75.2798657738
 20
218.7197985978
 11
75.2798657738
 21
218.6197985978
  0
LINE
  8
2_FEATURE
 62
7
  6
CONTINUOUS
 10
75.4111157738
 20
218.7197985978
 11
75.4111157738
 21
218.6197985978
  0
LINE
  8
2_FEATURE
 62
7
  6
CONTINUOUS
 10
75.6298659407
 20
218.7197985978
 11
75.6298659407
 21
218.6197985978
  0
LINE
  8
2_FEATURE
 62
7
  6
CONTINUOUS
 10
75.8923659407
 20
218.7197985978
 11
75.8923659407
 21
218.6197985978
  0
LINE
  8
2_FEATURE
 62
7
  6
CONTINUOUS
 10
76.1548659407
 20
218.7197985978
 11
76.1548659407
 21
218.6197985978
  0
LINE
  8
2_FEATURE
 62
7
  6
CONTINUOUS
 10
76.3736156069
 20
218.7197985978
 11
76.3736156069
 21
218.6197985978
  0
LINE
  8
2_FEATURE
 62
7
  6
CONTINUOUS
 10
76.5048656069
 20
218.7197985978
 11
76.5048656069
 21
218.6197985978
  0
LINE
  8
2_FEATURE
 62
7
  6
CONTINUOUS
 10
76.5923657738
 20
218.7197985978
 11
76.5923657738
 21
218.6197985978
  0
LINE
  8
2_FEATURE
 62
7
  6
CONTINUOUS
 10
76.6361156069
 20
218.7197985978
 11
76.6361156069
 21
218.6197985978
  0
LINE
  8
2_FEATURE
 62
7
  6
CONTINUOUS
 10
76.6798659407
 20
218.7197985978
 11
76.6798659407
 21
218.6197985978
  0
LINE
  8
2_FEATURE
 62
7
  6
CONTINUOUS
 10
76.7298657738
 20
218.7197985978
 11
76.7298657738
 21
218.6197985978
  0
LINE
  8
2_FEATURE
 62
7
  6
CONTINUOUS
 10
76.8798657738
 20
218.7197985978
 11
76.8798657738
 21
218.6197985978
  0
LINE
  8
2_FEATURE
 62
7
  6
CONTINUOUS
 10
76.9548657738
 20
218.7197985978
 11
76.9548657738
 21
218.6197985978
  0
LINE
  8
2_FEATURE
 62
7
  6
CONTINUOUS
 10
77.0298656069
 20
218.7197985978
 11
77.0298656069
 21
218.6197985978
  0
LINE
  8
2_FEATURE
 62
7
  6
CONTINUOUS
 10
77.0736159407
 20
218.7197985978
 11
77.0736159407
 21
218.6197985978
  0
LINE
  8
2_FEATURE
 62
7
  6
CONTINUOUS
 10
77.1173657738
 20
218.7197985978
 11
77.1173657738
 21
218.6197985978
  0
LINE
  8
2_FEATURE
 62
7
  6
CONTINUOUS
 10
77.2048659407
 20
218.7197985978
 11
77.2048659407
 21
218.6197985978
  0
LINE
  8
2_FEATURE
 62
7
  6
CONTINUOUS
 10
77.3361159407
 20
218.7197985978
 11
77.3361159407
 21
218.6197985978
  0
LINE
  8
2_FEATURE
 62
7
  6
CONTINUOUS
 10
77.5548656069
 20
218.7197985978
 11
77.5548656069
 21
218.6197985978
  0
LINE
  8
2_FEATURE
 62
7
  6
CONTINUOUS
 10
77.8173656069
 20
218.7197985978
 11
77.8173656069
 21
218.6197985978
  0
LINE
  8
0
 62
7
  6
CONTINUOUS
 10
77.9798657738
 20
213.1198676935
 11
77.9798657738
 21
218.5440903082
  0
LINE
  8
2_FEATURE
 62
7
  6
CONTINUOUS
 10
78.0798656069
 20
218.7136290206
 11
78.0798656069
 21
218.6197985978
  0
LINE
  8
0
 62
7
  6
CONTINUOUS
 10
78.2298657738
 20
213.1197998508
 11
78.2298657738
 21
220.6197985978
  0
POLYLINE
  8
0
 62
7
  6
CONTINUOUS
 66
1
 70
0
  0
VERTEX
  8
0
 62
7
  6
CONTINUOUS
 10
77.9991027408
 20
218.6197985978
  0
VERTEX
  8
0
 62
7
  6
CONTINUOUS
 10
77.9888627851
 20
218.6007996606
  0
VERTEX
  8
0
 62
7
  6
CONTINUOUS
 10
77.9798657738
 20
218.5440903082
  0
SEQEND
  0
POLYLINE
  8
0
 62
7
  6
CONTINUOUS
 66
1
 70
0
  0
VERTEX
  8
0
 62
7
  6
CONTINUOUS
 10
85.0620194162
 20
212.6198413671
  0
VERTEX
  8
0
 62
7
  6
CONTINUOUS
 10
85.1807436256
 20
212.6357776189
  0
VERTEX
  8
0
 62
7
  6
CONTINUOUS
 10
85.2923331519
 20
212.679491018
  0
VERTEX
  8
0
 62
7
  6
CONTINUOUS
 10
85.3904162652
 20
212.7483820627
  0
VERTEX
  8
0
 62
7
  6
CONTINUOUS
 10
85.4326130227
 20
212.7910593473
  0
VERTEX
  8
0
 62
7
  6
CONTINUOUS
 10
85.5003440677
 20
212.8897791103
  0
VERTEX
  8
0
 62
7
  6
CONTINUOUS
 10
85.5428489112
 20
213.0014837095
  0
VERTEX
  8
0
 62
7
  6
CONTINUOUS
 10
85.5578016139
 20
213.1197985978
  0
SEQEND
  0
POLYLINE
  8
0
 62
7
  6
CONTINUOUS
 66
1
 70
0
  0
VERTEX
  8
0
 62
7
  6
CONTINUOUS
 10
84.4554299218
 20
212.6197985978
  0
VERTEX
  8
0
 62
7
  6
CONTINUOUS
 10
84.5751290305
 20
212.6344203997
  0
VERTEX
  8
0
 62
7
  6
CONTINUOUS
 10
84.6875147472
 20
212.677367315
  0
VERTEX
  8
0
 62
7
  6
CONTINUOUS
 10
84.7860612065
 20
212.7460408666
  0
VERTEX
  8
0
 62
7
  6
CONTINUOUS
 10
84.8283253374
 20
212.7887997598
  0
VERTEX
  8
0
 62
7
  6
CONTINUOUS
 10
84.8958077772
 20
212.8880042762
  0
VERTEX
  8
0
 62
7
  6
CONTINUOUS
 10
84.9305596121
 20
212.9744841621
  0
SEQEND
  0
LINE
  8
0
 62
7
  6
CONTINUOUS
 10
123.1620194162
 20
212.6198413671
 11
123.1554794321
 21
212.6197985978
  0
LINE
  8
0
 62
7
  6
CONTINUOUS
 10
110.4620194162
 20
212.6198413671
 11
110.4554794321
 21
212.6197985978
  0
LINE
  8
0
 62
7
  6
CONTINUOUS
 10
85.0620194162
 20
212.6198413671
 11
85.0554794321
 21
212.6197985978
  0
LINE
  8
0
 62
7
  6
CONTINUOUS
 10
59.6620194162
 20
212.6198413671
 11
59.6554794321
 21
212.6197985978
  0
LINE
  8
0
 62
7
  6
CONTINUOUS
 10
123.7798657738
 20
212.6197985978
 11
123.1798657738
 21
212.6197985978
  0
LINE
  8
0
 62
7
  6
CONTINUOUS
 10
123.1554794321
 20
212.6197985978
 11
122.5608413265
 21
212.6197985978
  0
LINE
  8
0
 62
7
  6
CONTINUOUS
 10
116.1988902211
 20
212.6197985978
 11
115.6042521155
 21
212.6197985978
  0
LINE
  8
0
 62
7
  6
CONTINUOUS
 10
110.4554794321
 20
212.6197985978
 11
109.8608413265
 21
212.6197985978
  0
LINE
  8
0
 62
7
  6
CONTINUOUS
 10
90.7988902211
 20
212.6197985978
 11
90.2042521155
 21
212.6197985978
  0
LINE
  8
0
 62
7
  6
CONTINUOUS
 10
85.0554794321
 20
212.6197985978
 11
84.4608413265
 21
212.6197985978
  0
LINE
  8
0
 62
7
  6
CONTINUOUS
 10
65.3988902211
 20
212.6197985978
 11
64.8042521155
 21
212.6197985978
  0
LINE
  8
0
 62
7
  6
CONTINUOUS
 10
59.6554794321
 20
212.6197985978
 11
59.0608413265
 21
212.6197985978
  0
LINE
  8
0
 62
7
  6
CONTINUOUS
 10
39.9988902211
 20
212.6197985978
 11
39.4042521155
 21
212.6197985978
  0
LINE
  8
0
 62
7
  6
CONTINUOUS
 10
39.3977121315
 20
212.6197985978
 11
38.7798657738
 21
212.6197985978
  0
LINE
  8
0
 62
7
  6
CONTINUOUS
 10
31.2298657738
 20
212.6197985978
 11
37.6798657738
 21
212.6197985978
  0
LINE
  8
0
 62
7
  6
CONTINUOUS
 10
40.0043016259
 20
212.6197985978
 11
44.0298657738
 21
212.6197985978
  0
LINE
  8
0
 62
7
  6
CONTINUOUS
 10
46.9798657738
 20
212.6197985978
 11
52.0798657738
 21
212.6197985978
  0
LINE
  8
0
 62
7
  6
CONTINUOUS
 10
53.3298657738
 20
212.6197985978
 11
59.0554299218
 21
212.6197985978
  0
LINE
  8
0
 62
7
  6
CONTINUOUS
 10
59.6798657738
 20
212.6197985978
 11
64.7977121315
 21
212.6197985978
  0
LINE
  8
0
 62
7
  6
CONTINUOUS
 10
65.4043016259
 20
212.6197985978
 11
71.1298657738
 21
212.6197985978
  0
LINE
  8
0
 62
7
  6
CONTINUOUS
 10
72.3798657738
 20
212.6197985978
 11
77.4798657738
 21
212.6197985978
  0
LINE
  8
0
 62
7
  6
CONTINUOUS
 10
78.7298657738
 20
212.6197985978
 11
84.4554299218
 21
212.6197985978
  0
LINE
  8
0
 62
7
  6
CONTINUOUS
 10
85.0798657738
 20
212.6197985978
 11
90.1977121315
 21
212.6197985978
  0
LINE
  8
0
 62
7
  6
CONTINUOUS
 10
90.8043016259
 20
212.6197985978
 11
96.5298657738
 21
212.6197985978
  0
LINE
  8
0
 62
7
  6
CONTINUOUS
 10
97.7798657738
 20
212.6197985978
 11
102.8798657738
 21
212.6197985978
  0
LINE
  8
0
 62
7
  6
CONTINUOUS
 10
104.1298657738
 20
212.6197985978
 11
109.8554299218
 21
212.6197985978
  0
LINE
  8
0
 62
7
  6
CONTINUOUS
 10
110.4798657738
 20
212.6197985978
 11
115.5977121315
 21
212.6197985978
  0
LINE
  8
0
 62
7
  6
CONTINUOUS
 10
116.2043016259
 20
212.6197985978
 11
117.4298657738
 21
212.6197985978
  0
LINE
  8
0
 62
7
  6
CONTINUOUS
 10
118.5298657738
 20
212.6197985978
 11
122.5554299218
 21
212.6197985978
  0
LINE
  8
0
 62
7
  6
CONTINUOUS
 10
124.8798657738
 20
212.6197985978
 11
131.3298657738
 21
212.6197985978
  0
LINE
  8
0
 62
7
  6
CONTINUOUS
 10
39.3977121315
 20
212.6198413671
 11
39.4042521155
 21
212.6197985978
  0
LINE
  8
0
 62
7
  6
CONTINUOUS
 10
64.7977121315
 20
212.6198413671
 11
64.8042521155
 21
212.6197985978
  0
LINE
  8
0
 62
7
  6
CONTINUOUS
 10
90.1977121315
 20
212.6198413671
 11
90.2042521155
 21
212.6197985978
  0
LINE
  8
0
 62
7
  6
CONTINUOUS
 10
115.5977121315
 20
212.6198413671
 11
115.6042521155
 21
212.6197985978
  0
LINE
  8
0
 62
7
  6
CONTINUOUS
 10
45.743690941
 20
213.9397703947
 11
45.7442332827
 21
213.939751385
  0
POLYLINE
  8
0
 62
7
  6
CONTINUOUS
 66
1
 70
0
  0
VERTEX
  8
0
 62
7
  6
CONTINUOUS
 10
65.4043016259
 20
212.6197985978
  0
VERTEX
  8
0
 62
7
  6
CONTINUOUS
 10
65.2846025171
 20
212.6344203997
  0
VERTEX
  8
0
 62
7
  6
CONTINUOUS
 10
65.1722168005
 20
212.677367315
  0
VERTEX
  8
0
 62
7
  6
CONTINUOUS
 10
65.0736703411
 20
212.7460408666
  0
VERTEX
  8
0
 62
7
  6
CONTINUOUS
 10
65.0314062103
 20
212.7887997598
  0
VERTEX
  8
0
 62
7
  6
CONTINUOUS
 10
64.9639237705
 20
212.8880042762
  0
VERTEX
  8
0
 62
7
  6
CONTINUOUS
 10
64.9291719356
 20
212.9744841621
  0
SEQEND
  0
POLYLINE
  8
0
 62
7
  6
CONTINUOUS
 66
1
 70
0
  0
VERTEX
  8
0
 62
7
  6
CONTINUOUS
 10
90.8043016259
 20
212.6197985978
  0
VERTEX
  8
0
 62
7
  6
CONTINUOUS
 10
90.6846025171
 20
212.6344203997
  0
VERTEX
  8
0
 62
7
  6
CONTINUOUS
 10
90.5722168005
 20
212.677367315
  0
VERTEX
  8
0
 62
7
  6
CONTINUOUS
 10
90.4736703411
 20
212.7460408666
  0
VERTEX
  8
0
 62
7
  6
CONTINUOUS
 10
90.4314062103
 20
212.7887997598
  0
VERTEX
  8
0
 62
7
  6
CONTINUOUS
 10
90.3639237705
 20
212.8880042762
  0
VERTEX
  8
0
 62
7
  6
CONTINUOUS
 10
90.3291719356
 20
212.9744841621
  0
SEQEND
  0
POLYLINE
  8
0
 62
7
  6
CONTINUOUS
 66
1
 70
0
  0
VERTEX
  8
0
 62
7
  6
CONTINUOUS
 10
90.1977121315
 20
212.6198413671
  0
VERTEX
  8
0
 62
7
  6
CONTINUOUS
 10
90.0789879221
 20
212.6357776189
  0
VERTEX
  8
0
 62
7
  6
CONTINUOUS
 10
89.9673983958
 20
212.679491018
  0
VERTEX
  8
0
 62
7
  6
CONTINUOUS
 10
89.8693152824
 20
212.7483820627
  0
VERTEX
  8
0
 62
7
  6
CONTINUOUS
 10
89.827118525
 20
212.7910593473
  0
VERTEX
  8
0
 62
7
  6
CONTINUOUS
 10
89.7593874799
 20
212.8897791103
  0
VERTEX
  8
0
 62
7
  6
CONTINUOUS
 10
89.7168826364
 20
213.0014837095
  0
VERTEX
  8
0
 62
7
  6
CONTINUOUS
 10
89.7019299338
 20
213.1197985978
  0
SEQEND
  0
POLYLINE
  8
0
 62
7
  6
CONTINUOUS
 66
1
 70
0
  0
VERTEX
  8
0
 62
7
  6
CONTINUOUS
 10
71.6298657738
 20
217.8835272227
  0
VERTEX
  8
0
 62
7
  6
CONTINUOUS
 10
71.6154626616
 20
217.8977598154
  0
VERTEX
  8
0
 62
7
  6
CONTINUOUS
 10
71.5729963019
 20
217.9109948942
  0
VERTEX
  8
0
 62
7
  6
CONTINUOUS
 10
71.5047850291
 20
217.9225201197
  0
VERTEX
  8
0
 62
7
  6
CONTINUOUS
 10
71.4621698938
 20
217.9274473435
  0
VERTEX
  8
0
 62
7
  6
CONTINUOUS
 10
71.3629639856
 20
217.9353113819
  0
VERTEX
  8
0
 62
7
  6
CONTINUOUS
 10
71.2500064723
 20
217.9401992163
  0
VERTEX
  8
0
 62
7
  6
CONTINUOUS
 10
71.1298657738
 20
217.9418582667
  0
SEQEND
  0
LINE
  8
1_AXIS
 62
2
  6
CENTER
 10
81.2798657738
 20
210.1197985978
 11
81.2798657738
 21
223.1197998296
  0
POLYLINE
  8
0
 62
7
  6
CONTINUOUS
 66
1
 70
0
  0
VERTEX
  8
0
 62
7
  6
CONTINUOUS
 10
59.6620194162
 20
212.6198413671
  0
VERTEX
  8
0
 62
7
  6
CONTINUOUS
 10
59.7807436256
 20
212.6357776189
  0
VERTEX
  8
0
 62
7
  6
CONTINUOUS
 10
59.8923331519
 20
212.679491018
  0
VERTEX
  8
0
 62
7
  6
CONTINUOUS
 10
59.9904162652
 20
212.7483820627
  0
VERTEX
  8
0
 62
7
  6
CONTINUOUS
 10
60.0326130227
 20
212.7910593473
  0
VERTEX
  8
0
 62
7
  6
CONTINUOUS
 10
60.1003440677
 20
212.8897791103
  0
VERTEX
  8
0
 62
7
  6
CONTINUOUS
 10
60.1428489112
 20
213.0014837095
  0
VERTEX
  8
0
 62
7
  6
CONTINUOUS
 10
60.1578016139
 20
213.1197985978
  0
SEQEND
  0
POLYLINE
  8
0
 62
7
  6
CONTINUOUS
 66
1
 70
0
  0
VERTEX
  8
0
 62
7
  6
CONTINUOUS
 10
59.0554299218
 20
212.6197985978
  0
VERTEX
  8
0
 62
7
  6
CONTINUOUS
 10
59.1751290305
 20
212.6344203997
  0
VERTEX
  8
0
 62
7
  6
CONTINUOUS
 10
59.2875147472
 20
212.677367315
  0
VERTEX
  8
0
 62
7
  6
CONTINUOUS
 10
59.3860612065
 20
212.7460408666
  0
VERTEX
  8
0
 62
7
  6
CONTINUOUS
 10
59.4283253374
 20
212.7887997598
  0
VERTEX
  8
0
 62
7
  6
CONTINUOUS
 10
59.4958077772
 20
212.8880042762
  0
VERTEX
  8
0
 62
7
  6
CONTINUOUS
 10
59.5305596121
 20
212.9744841621
  0
SEQEND
  0
POLYLINE
  8
0
 62
7
  6
CONTINUOUS
 66
1
 70
0
  0
VERTEX
  8
0
 62
7
  6
CONTINUOUS
 10
121.9298657738
 20
215.9977389288
  0
VERTEX
  8
0
 62
7
  6
CONTINUOUS
 10
122.0500064723
 20
215.9993979793
  0
VERTEX
  8
0
 62
7
  6
CONTINUOUS
 10
122.1629639856
 20
216.0042858137
  0
VERTEX
  8
0
 62
7
  6
CONTINUOUS
 10
122.2621698938
 20
216.0121498521
  0
VERTEX
  8
0
 62
7
  6
CONTINUOUS
 10
122.3047850291
 20
216.0170770758
  0
VERTEX
  8
0
 62
7
  6
CONTINUOUS
 10
122.3729963019
 20
216.0286023014
  0
VERTEX
  8
0
 62
7
  6
CONTINUOUS
 10
122.4154626616
 20
216.0418373802
  0
VERTEX
  8
0
 62
7
  6
CONTINUOUS
 10
122.4298657738
 20
216.0560699729
  0
SEQEND
  0
POLYLINE
  8
0
 62
7
  6
CONTINUOUS
 66
1
 70
0
  0
VERTEX
  8
0
 62
7
  6
CONTINUOUS
 10
109.2298657738
 20
215.9977389288
  0
VERTEX
  8
0
 62
7
  6
CONTINUOUS
 10
109.3500064723
 20
215.9993979793
  0
VERTEX
  8
0
 62
7
  6
CONTINUOUS
 10
109.4629639856
 20
216.0042858137
  0
VERTEX
  8
0
 62
7
  6
CONTINUOUS
 10
109.5621698938
 20
216.0121498521
  0
VERTEX
  8
0
 62
7
  6
CONTINUOUS
 10
109.6047850291
 20
216.0170770758
  0
VERTEX
  8
0
 62
7
  6
CONTINUOUS
 10
109.6729963019
 20
216.0286023014
  0
VERTEX
  8
0
 62
7
  6
CONTINUOUS
 10
109.7154626616
 20
216.0418373802
  0
VERTEX
  8
0
 62
7
  6
CONTINUOUS
 10
109.7298657738
 20
216.0560699729
  0
SEQEND
  0
POLYLINE
  8
0
 62
7
  6
CONTINUOUS
 66
1
 70
0
  0
VERTEX
  8
0
 62
7
  6
CONTINUOUS
 10
96.5298657738
 20
215.9977389288
  0
VERTEX
  8
0
 62
7
  6
CONTINUOUS
 10
96.6500064723
 20
215.9993979793
  0
VERTEX
  8
0
 62
7
  6
CONTINUOUS
 10
96.7629639856
 20
216.0042858137
  0
VERTEX
  8
0
 62
7
  6
CONTINUOUS
 10
96.8621698938
 20
216.0121498521
  0
VERTEX
  8
0
 62
7
  6
CONTINUOUS
 10
96.9047850291
 20
216.0170770758
  0
VERTEX
  8
0
 62
7
  6
CONTINUOUS
 10
96.9729963019
 20
216.0286023014
  0
VERTEX
  8
0
 62
7
  6
CONTINUOUS
 10
97.0154626616
 20
216.0418373802
  0
VERTEX
  8
0
 62
7
  6
CONTINUOUS
 10
97.0298657738
 20
216.0560699729
  0
SEQEND
  0
POLYLINE
  8
0
 62
7
  6
CONTINUOUS
 66
1
 70
0
  0
VERTEX
  8
0
 62
7
  6
CONTINUOUS
 10
83.8298657738
 20
215.9977389288
  0
VERTEX
  8
0
 62
7
  6
CONTINUOUS
 10
83.9500064723
 20
215.9993979793
  0
VERTEX
  8
0
 62
7
  6
CONTINUOUS
 10
84.0629639856
 20
216.0042858137
  0
VERTEX
  8
0
 62
7
  6
CONTINUOUS
 10
84.1621698938
 20
216.0121498521
  0
VERTEX
  8
0
 62
7
  6
CONTINUOUS
 10
84.2047850291
 20
216.0170770758
  0
VERTEX
  8
0
 62
7
  6
CONTINUOUS
 10
84.2729963019
 20
216.0286023014
  0
VERTEX
  8
0
 62
7
  6
CONTINUOUS
 10
84.3154626616
 20
216.0418373802
  0
VERTEX
  8
0
 62
7
  6
CONTINUOUS
 10
84.3298657738
 20
216.0560699729
  0
SEQEND
  0
POLYLINE
  8
0
 62
7
  6
CONTINUOUS
 66
1
 70
0
  0
VERTEX
  8
0
 62
7
  6
CONTINUOUS
 10
71.1298657738
 20
215.9977389288
  0
VERTEX
  8
0
 62
7
  6
CONTINUOUS
 10
71.2500064723
 20
215.9993979793
  0
VERTEX
  8
0
 62
7
  6
CONTINUOUS
 10
71.3629639856
 20
216.0042858137
  0
VERTEX
  8
0
 62
7
  6
CONTINUOUS
 10
71.4621698938
 20
216.0121498521
  0
VERTEX
  8
0
 62
7
  6
CONTINUOUS
 10
71.5047850291
 20
216.0170770758
  0
VERTEX
  8
0
 62
7
  6
CONTINUOUS
 10
71.5729963019
 20
216.0286023014
  0
VERTEX
  8
0
 62
7
  6
CONTINUOUS
 10
71.6154626616
 20
216.0418373802
  0
VERTEX
  8
0
 62
7
  6
CONTINUOUS
 10
71.6298657738
 20
216.0560699729
  0
SEQEND
  0
POLYLINE
  8
0
 62
7
  6
CONTINUOUS
 66
1
 70
0
  0
VERTEX
  8
0
 62
7
  6
CONTINUOUS
 10
58.4298657738
 20
215.9977389288
  0
VERTEX
  8
0
 62
7
  6
CONTINUOUS
 10
58.5500064723
 20
215.9993979793
  0
VERTEX
  8
0
 62
7
  6
CONTINUOUS
 10
58.6629639856
 20
216.0042858137
  0
VERTEX
  8
0
 62
7
  6
CONTINUOUS
 10
58.7621698938
 20
216.0121498521
  0
VERTEX
  8
0
 62
7
  6
CONTINUOUS
 10
58.8047850291
 20
216.0170770758
  0
VERTEX
  8
0
 62
7
  6
CONTINUOUS
 10
58.8729963019
 20
216.0286023014
  0
VERTEX
  8
0
 62
7
  6
CONTINUOUS
 10
58.9154626616
 20
216.0418373802
  0
VERTEX
  8
0
 62
7
  6
CONTINUOUS
 10
58.9298657738
 20
216.0560699729
  0
SEQEND
  0
POLYLINE
  8
0
 62
7
  6
CONTINUOUS
 66
1
 70
0
  0
VERTEX
  8
0
 62
7
  6
CONTINUOUS
 10
33.0298657738
 20
215.9977389288
  0
VERTEX
  8
0
 62
7
  6
CONTINUOUS
 10
33.1500064723
 20
215.9993979793
  0
VERTEX
  8
0
 62
7
  6
CONTINUOUS
 10
33.2629639856
 20
216.0042858137
  0
VERTEX
  8
0
 62
7
  6
CONTINUOUS
 10
33.3621698938
 20
216.0121498521
  0
VERTEX
  8
0
 62
7
  6
CONTINUOUS
 10
33.4047850291
 20
216.0170770758
  0
VERTEX
  8
0
 62
7
  6
CONTINUOUS
 10
33.4729963019
 20
216.0286023014
  0
VERTEX
  8
0
 62
7
  6
CONTINUOUS
 10
33.5154626616
 20
216.0418373802
  0
VERTEX
  8
0
 62
7
  6
CONTINUOUS
 10
33.5298657738
 20
216.0560699729
  0
SEQEND
  0
POLYLINE
  8
0
 62
7
  6
CONTINUOUS
 66
1
 70
0
  0
VERTEX
  8
0
 62
7
  6
CONTINUOUS
 10
129.5298657738
 20
217.9418582667
  0
VERTEX
  8
0
 62
7
  6
CONTINUOUS
 10
129.4097250754
 20
217.9401992163
  0
VERTEX
  8
0
 62
7
  6
CONTINUOUS
 10
129.2967675621
 20
217.9353113819
  0
VERTEX
  8
0
 62
7
  6
CONTINUOUS
 10
129.1975616539
 20
217.9274473435
  0
VERTEX
  8
0
 62
7
  6
CONTINUOUS
 10
129.1549465186
 20
217.9225201197
  0
VERTEX
  8
0
 62
7
  6
CONTINUOUS
 10
129.0867352458
 20
217.9109948942
  0
VERTEX
  8
0
 62
7
  6
CONTINUOUS
 10
129.044268886
 20
217.8977598154
  0
VERTEX
  8
0
 62
7
  6
CONTINUOUS
 10
129.0298657738
 20
217.8835272227
  0
SEQEND
  0
LINE
  8
0
 62
7
  6
CONTINUOUS
 10
31.2298657738
 20
215.9977389288
 11
33.0298657738
 21
215.9977389288
  0
LINE
  8
0
 62
7
  6
CONTINUOUS
 10
40.6298657738
 20
215.9977389288
 11
45.7298657738
 21
215.9977389288
  0
LINE
  8
0
 62
7
  6
CONTINUOUS
 10
53.3298657738
 20
215.9977389288
 11
58.4298657738
 21
215.9977389288
  0
LINE
  8
0
 62
7
  6
CONTINUOUS
 10
66.0298657738
 20
215.9977389288
 11
71.1298657738
 21
215.9977389288
  0
LINE
  8
0
 62
7
  6
CONTINUOUS
 10
78.7298657738
 20
215.9977389288
 11
83.8298657738
 21
215.9977389288
  0
LINE
  8
0
 62
7
  6
CONTINUOUS
 10
91.4298657738
 20
215.9977389288
 11
96.5298657738
 21
215.9977389288
  0
LINE
  8
0
 62
7
  6
CONTINUOUS
 10
104.1298657738
 20
215.9977389288
 11
109.2298657738
 21
215.9977389288
  0
LINE
  8
0
 62
7
  6
CONTINUOUS
 10
116.8298657738
 20
215.9977389288
 11
121.9298657738
 21
215.9977389288
  0
LINE
  8
0
 62
7
  6
CONTINUOUS
 10
129.5298657738
 20
215.9977389288
 11
131.3298657738
 21
215.9977389288
  0
LINE
  8
1_AXIS
 62
2
  6
CENTER
 10
25.4996778523
 20
216.9697985978
 11
136.2308456376
 21
216.9697985978
  0
POLYLINE
  8
0
 62
7
  6
CONTINUOUS
 66
1
 70
0
  0
VERTEX
  8
0
 62
7
  6
CONTINUOUS
 10
40.6298657738
 20
215.9977389288
  0
VERTEX
  8
0
 62
7
  6
CONTINUOUS
 10
40.5097250754
 20
215.9993979793
  0
VERTEX
  8
0
 62
7
  6
CONTINUOUS
 10
40.3967675621
 20
216.0042858137
  0
VERTEX
  8
0
 62
7
  6
CONTINUOUS
 10
40.2975616539
 20
216.0121498521
  0
VERTEX
  8
0
 62
7
  6
CONTINUOUS
 10
40.2549465186
 20
216.0170770758
  0
VERTEX
  8
0
 62
7
  6
CONTINUOUS
 10
40.1867352458
 20
216.0286023014
  0
VERTEX
  8
0
 62
7
  6
CONTINUOUS
 10
40.144268886
 20
216.0418373802
  0
VERTEX
  8
0
 62
7
  6
CONTINUOUS
 10
40.1298657738
 20
216.0560699729
  0
SEQEND
  0
POLYLINE
  8
0
 62
7
  6
CONTINUOUS
 66
1
 70
0
  0
VERTEX
  8
0
 62
7
  6
CONTINUOUS
 10
53.3298657738
 20
215.9977389288
  0
VERTEX
  8
0
 62
7
  6
CONTINUOUS
 10
53.2097250754
 20
215.9993979793
  0
VERTEX
  8
0
 62
7
  6
CONTINUOUS
 10
53.0967675621
 20
216.0042858137
  0
VERTEX
  8
0
 62
7
  6
CONTINUOUS
 10
52.9975616539
 20
216.0121498521
  0
VERTEX
  8
0
 62
7
  6
CONTINUOUS
 10
52.9549465186
 20
216.0170770758
  0
VERTEX
  8
0
 62
7
  6
CONTINUOUS
 10
52.8867352458
 20
216.0286023014
  0
VERTEX
  8
0
 62
7
  6
CONTINUOUS
 10
52.844268886
 20
216.0418373802
  0
VERTEX
  8
0
 62
7
  6
CONTINUOUS
 10
52.8298657738
 20
216.0560699729
  0
SEQEND
  0
POLYLINE
  8
0
 62
7
  6
CONTINUOUS
 66
1
 70
0
  0
VERTEX
  8
0
 62
7
  6
CONTINUOUS
 10
66.0298657738
 20
215.9977389288
  0
VERTEX
  8
0
 62
7
  6
CONTINUOUS
 10
65.9097250754
 20
215.9993979793
  0
VERTEX
  8
0
 62
7
  6
CONTINUOUS
 10
65.7967675621
 20
216.0042858137
  0
VERTEX
  8
0
 62
7
  6
CONTINUOUS
 10
65.6975616539
 20
216.0121498521
  0
VERTEX
  8
0
 62
7
  6
CONTINUOUS
 10
65.6549465186
 20
216.0170770758
  0
VERTEX
  8
0
 62
7
  6
CONTINUOUS
 10
65.5867352458
 20
216.0286023014
  0
VERTEX
  8
0
 62
7
  6
CONTINUOUS
 10
65.544268886
 20
216.0418373802
  0
VERTEX
  8
0
 62
7
  6
CONTINUOUS
 10
65.5298657738
 20
216.0560699729
  0
SEQEND
  0
POLYLINE
  8
0
 62
7
  6
CONTINUOUS
 66
1
 70
0
  0
VERTEX
  8
0
 62
7
  6
CONTINUOUS
 10
91.4298657738
 20
215.9977389288
  0
VERTEX
  8
0
 62
7
  6
CONTINUOUS
 10
91.3097250754
 20
215.9993979793
  0
VERTEX
  8
0
 62
7
  6
CONTINUOUS
 10
91.1967675621
 20
216.0042858137
  0
VERTEX
  8
0
 62
7
  6
CONTINUOUS
 10
91.0975616539
 20
216.0121498521
  0
VERTEX
  8
0
 62
7
  6
CONTINUOUS
 10
91.0549465186
 20
216.0170770758
  0
VERTEX
  8
0
 62
7
  6
CONTINUOUS
 10
90.9867352458
 20
216.0286023014
  0
VERTEX
  8
0
 62
7
  6
CONTINUOUS
 10
90.944268886
 20
216.0418373802
  0
VERTEX
  8
0
 62
7
  6
CONTINUOUS
 10
90.9298657738
 20
216.0560699729
  0
SEQEND
  0
POLYLINE
  8
0
 62
7
  6
CONTINUOUS
 66
1
 70
0
  0
VERTEX
  8
0
 62
7
  6
CONTINUOUS
 10
116.8298657738
 20
215.9977389288
  0
VERTEX
  8
0
 62
7
  6
CONTINUOUS
 10
116.7097250754
 20
215.9993979793
  0
VERTEX
  8
0
 62
7
  6
CONTINUOUS
 10
116.5967675621
 20
216.0042858137
  0
VERTEX
  8
0
 62
7
  6
CONTINUOUS
 10
116.4975616539
 20
216.0121498521
  0
VERTEX
  8
0
 62
7
  6
CONTINUOUS
 10
116.4549465186
 20
216.0170770758
  0
VERTEX
  8
0
 62
7
  6
CONTINUOUS
 10
116.3867352458
 20
216.0286023014
  0
VERTEX
  8
0
 62
7
  6
CONTINUOUS
 10
116.344268886
 20
216.0418373802
  0
VERTEX
  8
0
 62
7
  6
CONTINUOUS
 10
116.3298657738
 20
216.0560699729
  0
SEQEND
  0
POLYLINE
  8
0
 62
7
  6
CONTINUOUS
 66
1
 70
0
  0
VERTEX
  8
0
 62
7
  6
CONTINUOUS
 10
129.5298657738
 20
215.9977389288
  0
VERTEX
  8
0
 62
7
  6
CONTINUOUS
 10
129.4097250754
 20
215.9993979793
  0
VERTEX
  8
0
 62
7
  6
CONTINUOUS
 10
129.2967675621
 20
216.0042858137
  0
VERTEX
  8
0
 62
7
  6
CONTINUOUS
 10
129.1975616539
 20
216.0121498521
  0
VERTEX
  8
0
 62
7
  6
CONTINUOUS
 10
129.1549465186
 20
216.0170770758
  0
VERTEX
  8
0
 62
7
  6
CONTINUOUS
 10
129.0867352458
 20
216.0286023014
  0
VERTEX
  8
0
 62
7
  6
CONTINUOUS
 10
129.044268886
 20
216.0418373802
  0
VERTEX
  8
0
 62
7
  6
CONTINUOUS
 10
129.0298657738
 20
216.0560699729
  0
SEQEND
  0
POLYLINE
  8
0
 62
7
  6
CONTINUOUS
 66
1
 70
0
  0
VERTEX
  8
0
 62
7
  6
CONTINUOUS
 10
116.2043016259
 20
212.6197985978
  0
VERTEX
  8
0
 62
7
  6
CONTINUOUS
 10
116.0846025171
 20
212.6344203997
  0
VERTEX
  8
0
 62
7
  6
CONTINUOUS
 10
115.9722168005
 20
212.677367315
  0
VERTEX
  8
0
 62
7
  6
CONTINUOUS
 10
115.8736703411
 20
212.7460408666
  0
VERTEX
  8
0
 62
7
  6
CONTINUOUS
 10
115.8314062103
 20
212.7887997598
  0
VERTEX
  8
0
 62
7
  6
CONTINUOUS
 10
115.7639237705
 20
212.8880042762
  0
VERTEX
  8
0
 62
7
  6
CONTINUOUS
 10
115.7291719356
 20
212.9744841621
  0
SEQEND
  0
POLYLINE
  8
0
 62
7
  6
CONTINUOUS
 66
1
 70
0
  0
VERTEX
  8
0
 62
7
  6
CONTINUOUS
 10
115.5977121315
 20
212.6198413671
  0
VERTEX
  8
0
 62
7
  6
CONTINUOUS
 10
115.4789879221
 20
212.6357776189
  0
VERTEX
  8
0
 62
7
  6
CONTINUOUS
 10
115.3673983958
 20
212.679491018
  0
VERTEX
  8
0
 62
7
  6
CONTINUOUS
 10
115.2693152824
 20
212.7483820627
  0
VERTEX
  8
0
 62
7
  6
CONTINUOUS
 10
115.227118525
 20
212.7910593473
  0
VERTEX
  8
0
 62
7
  6
CONTINUOUS
 10
115.1593874799
 20
212.8897791103
  0
VERTEX
  8
0
 62
7
  6
CONTINUOUS
 10
115.1168826364
 20
213.0014837095
  0
VERTEX
  8
0
 62
7
  6
CONTINUOUS
 10
115.1019299338
 20
213.1197985978
  0
SEQEND
  0
POLYLINE
  8
0
 62
7
  6
CONTINUOUS
 66
1
 70
0
  0
VERTEX
  8
0
 62
7
  6
CONTINUOUS
 10
52.6369668322
 20
218.7197985978
  0
VERTEX
  8
0
 62
7
  6
CONTINUOUS
 10
52.7104167841
 20
218.7092352391
  0
VERTEX
  8
0
 62
7
  6
CONTINUOUS
 10
52.7685597817
 20
218.6784242783
  0
VERTEX
  8
0
 62
7
  6
CONTINUOUS
 10
52.7911938856
 20
218.6558383891
  0
VERTEX
  8
0
 62
7
  6
CONTINUOUS
 10
52.8208645961
 20
218.6008125511
  0
VERTEX
  8
0
 62
7
  6
CONTINUOUS
 10
52.8298657738
 20
218.5440903082
  0
SEQEND
  0
POLYLINE
  8
0
 62
7
  6
CONTINUOUS
 66
1
 70
0
  0
VERTEX
  8
0
 62
7
  6
CONTINUOUS
 10
78.2298657738
 20
216.0560699729
  0
VERTEX
  8
0
 62
7
  6
CONTINUOUS
 10
78.244268886
 20
216.0418373802
  0
VERTEX
  8
0
 62
7
  6
CONTINUOUS
 10
78.2867352458
 20
216.0286023014
  0
VERTEX
  8
0
 62
7
  6
CONTINUOUS
 10
78.3549465186
 20
216.0170770758
  0
VERTEX
  8
0
 62
7
  6
CONTINUOUS
 10
78.3975616539
 20
216.0121498521
  0
VERTEX
  8
0
 62
7
  6
CONTINUOUS
 10
78.4967675621
 20
216.0042858137
  0
VERTEX
  8
0
 62
7
  6
CONTINUOUS
 10
78.6097250754
 20
215.9993979793
  0
VERTEX
  8
0
 62
7
  6
CONTINUOUS
 10
78.7298657738
 20
215.9977389288
  0
SEQEND
  0
LINE
  8
0
 62
7
  6
CONTINUOUS
 10
84.3298657738
 20
213.1197985978
 11
84.3298657738
 21
220.6197985978
  0
POLYLINE
  8
0
 62
7
  6
CONTINUOUS
 66
1
 70
0
  0
VERTEX
  8
0
 62
7
  6
CONTINUOUS
 10
104.1298657738
 20
217.9418582667
  0
VERTEX
  8
0
 62
7
  6
CONTINUOUS
 10
104.0097250754
 20
217.9401992163
  0
VERTEX
  8
0
 62
7
  6
CONTINUOUS
 10
103.8967675621
 20
217.9353113819
  0
VERTEX
  8
0
 62
7
  6
CONTINUOUS
 10
103.7975616539
 20
217.9274473435
  0
VERTEX
  8
0
 62
7
  6
CONTINUOUS
 10
103.7549465186
 20
217.9225201197
  0
VERTEX
  8
0
 62
7
  6
CONTINUOUS
 10
103.6867352458
 20
217.9109948942
  0
VERTEX
  8
0
 62
7
  6
CONTINUOUS
 10
103.644268886
 20
217.8977598154
  0
VERTEX
  8
0
 62
7
  6
CONTINUOUS
 10
103.6298657738
 20
217.8835272227
  0
SEQEND
  0
POLYLINE
  8
0
 62
7
  6
CONTINUOUS
 66
1
 70
0
  0
VERTEX
  8
0
 62
7
  6
CONTINUOUS
 10
91.4298657738
 20
217.9418582667
  0
VERTEX
  8
0
 62
7
  6
CONTINUOUS
 10
91.3097250754
 20
217.9401992163
  0
VERTEX
  8
0
 62
7
  6
CONTINUOUS
 10
91.1967675621
 20
217.9353113819
  0
VERTEX
  8
0
 62
7
  6
CONTINUOUS
 10
91.0975616539
 20
217.9274473435
  0
VERTEX
  8
0
 62
7
  6
CONTINUOUS
 10
91.0549465186
 20
217.9225201197
  0
VERTEX
  8
0
 62
7
  6
CONTINUOUS
 10
90.9867352458
 20
217.9109948942
  0
VERTEX
  8
0
 62
7
  6
CONTINUOUS
 10
90.944268886
 20
217.8977598154
  0
VERTEX
  8
0
 62
7
  6
CONTINUOUS
 10
90.9298657738
 20
217.8835272227
  0
SEQEND
  0
POLYLINE
  8
0
 62
7
  6
CONTINUOUS
 66
1
 70
0
  0
VERTEX
  8
0
 62
7
  6
CONTINUOUS
 10
78.7298657738
 20
217.9418582667
  0
VERTEX
  8
0
 62
7
  6
CONTINUOUS
 10
78.6097250754
 20
217.9401992163
  0
VERTEX
  8
0
 62
7
  6
CONTINUOUS
 10
78.4967675621
 20
217.9353113819
  0
VERTEX
  8
0
 62
7
  6
CONTINUOUS
 10
78.3975616539
 20
217.9274473435
  0
VERTEX
  8
0
 62
7
  6
CONTINUOUS
 10
78.3549465186
 20
217.9225201197
  0
VERTEX
  8
0
 62
7
  6
CONTINUOUS
 10
78.2867352458
 20
217.9109948942
  0
VERTEX
  8
0
 62
7
  6
CONTINUOUS
 10
78.244268886
 20
217.8977598154
  0
VERTEX
  8
0
 62
7
  6
CONTINUOUS
 10
78.2298657738
 20
217.8835272227
  0
SEQEND
  0
POLYLINE
  8
0
 62
7
  6
CONTINUOUS
 66
1
 70
0
  0
VERTEX
  8
0
 62
7
  6
CONTINUOUS
 10
66.0298657738
 20
217.9418582667
  0
VERTEX
  8
0
 62
7
  6
CONTINUOUS
 10
65.9097250754
 20
217.9401992163
  0
VERTEX
  8
0
 62
7
  6
CONTINUOUS
 10
65.7967675621
 20
217.9353113819
  0
VERTEX
  8
0
 62
7
  6
CONTINUOUS
 10
65.6975616539
 20
217.9274473435
  0
VERTEX
  8
0
 62
7
  6
CONTINUOUS
 10
65.6549465186
 20
217.9225201197
  0
VERTEX
  8
0
 62
7
  6
CONTINUOUS
 10
65.5867352458
 20
217.9109948942
  0
VERTEX
  8
0
 62
7
  6
CONTINUOUS
 10
65.544268886
 20
217.8977598154
  0
VERTEX
  8
0
 62
7
  6
CONTINUOUS
 10
65.5298657738
 20
217.8835272227
  0
SEQEND
  0
POLYLINE
  8
0
 62
7
  6
CONTINUOUS
 66
1
 70
0
  0
VERTEX
  8
0
 62
7
  6
CONTINUOUS
 10
40.6298657738
 20
217.9418582667
  0
VERTEX
  8
0
 62
7
  6
CONTINUOUS
 10
40.5097250754
 20
217.9401992163
  0
VERTEX
  8
0
 62
7
  6
CONTINUOUS
 10
40.3967675621
 20
217.9353113819
  0
VERTEX
  8
0
 62
7
  6
CONTINUOUS
 10
40.2975616539
 20
217.9274473435
  0
VERTEX
  8
0
 62
7
  6
CONTINUOUS
 10
40.2549465186
 20
217.9225201197
  0
VERTEX
  8
0
 62
7
  6
CONTINUOUS
 10
40.1867352458
 20
217.9109948942
  0
VERTEX
  8
0
 62
7
  6
CONTINUOUS
 10
40.144268886
 20
217.8977598154
  0
VERTEX
  8
0
 62
7
  6
CONTINUOUS
 10
40.1298657738
 20
217.8835272227
  0
SEQEND
  0
LINE
  8
0
 62
7
  6
CONTINUOUS
 10
31.2298657738
 20
217.9418582667
 11
33.0298657738
 21
217.9418582667
  0
LINE
  8
0
 62
7
  6
CONTINUOUS
 10
40.6298657738
 20
217.9418582667
 11
45.7298657738
 21
217.9418582667
  0
LINE
  8
0
 62
7
  6
CONTINUOUS
 10
53.3298657738
 20
217.9418582667
 11
58.4298657738
 21
217.9418582667
  0
LINE
  8
0
 62
7
  6
CONTINUOUS
 10
66.0298657738
 20
217.9418582667
 11
71.1298657738
 21
217.9418582667
  0
LINE
  8
0
 62
7
  6
CONTINUOUS
 10
78.7298657738
 20
217.9418582667
 11
83.8298657738
 21
217.9418582667
  0
LINE
  8
0
 62
7
  6
CONTINUOUS
 10
91.4298657738
 20
217.9418582667
 11
96.5298657738
 21
217.9418582667
  0
LINE
  8
0
 62
7
  6
CONTINUOUS
 10
104.1298657738
 20
217.9418582667
 11
109.2298657738
 21
217.9418582667
  0
LINE
  8
0
 62
7
  6
CONTINUOUS
 10
116.8298657738
 20
217.9418582667
 11
121.9298657738
 21
217.9418582667
  0
LINE
  8
0
 62
7
  6
CONTINUOUS
 10
129.5298657738
 20
217.9418582667
 11
131.3298657738
 21
217.9418582667
  0
LINE
  8
2_FEATURE
 62
7
  6
CONTINUOUS
 10
103.4548656904
 20
218.6197985978
 11
103.2361157738
 21
218.6197985978
  0
LINE
  8
2_FEATURE
 62
7
  6
CONTINUOUS
 10
102.0173658573
 20
218.6197985978
 11
97.2423661076
 21
218.6197985978
  0
LINE
  8
2_FEATURE
 62
7
  6
CONTINUOUS
 10
78.2106270511
 20
218.6197985978
 11
75.1048656904
 21
218.6197985978
  0
LINE
  8
2_FEATURE
 62
7
  6
CONTINUOUS
 10
74.9548659646
 20
218.6197985978
 11
71.6491082062
 21
218.6197985978
  0
LINE
  8
2_FEATURE
 62
7
  6
CONTINUOUS
 10
52.8106270511
 20
218.6197985978
 11
52.4798657738
 21
218.6197985978
  0
LINE
  8
2_FEATURE
 62
7
  6
CONTINUOUS
 10
52.2798659646
 20
218.6197985978
 11
51.7898657738
 21
218.6197985978
  0
LINE
  8
2_FEATURE
 62
7
  6
CONTINUOUS
 10
48.8548655831
 20
218.6197985978
 11
48.8198657738
 21
218.6197985978
  0
LINE
  8
1_AXIS
 62
7
  6
CONTINUOUS
 10
51.7898657738
 20
218.6197985978
 11
48.9398657738
 21
218.6197985978
  0
LINE
  8
1_AXIS
 62
7
  6
CONTINUOUS
 10
48.8198657738
 20
218.6197985978
 11
47.1098657738
 21
218.6197985978
  0
LINE
  8
2_FEATURE
 62
7
  6
CONTINUOUS
 10
46.3298657738
 20
218.6197985978
 11
46.2491082062
 21
218.6197985978
  0
LINE
  8
2_FEATURE
 62
7
  6
CONTINUOUS
 10
47.1098657738
 20
218.6197985978
 11
46.5298661553
 21
218.6197985978
  0
LINE
  8
2_FEATURE
 62
7
  6
CONTINUOUS
 10
33.5298657738
 20
218.7197985978
 11
40.1298657738
 21
218.7197985978
  0
LINE
  8
0
 62
7
  6
CONTINUOUS
 10
46.4227647154
 20
218.7197985978
 11
46.7298657738
 21
218.7197985978
  0
LINE
  8
2_FEATURE
 62
7
  6
CONTINUOUS
 10
46.7298657738
 20
218.7197985978
 11
52.3298657738
 21
218.7197985978
  0
LINE
  8
0
 62
7
  6
CONTINUOUS
 10
52.3298657738
 20
218.7197985978
 11
52.6369668322
 21
218.7197985978
  0
LINE
  8
2_FEATURE
 62
7
  6
CONTINUOUS
 10
58.9298657738
 20
218.7197985978
 11
65.5298657738
 21
218.7197985978
  0
LINE
  8
0
 62
7
  6
CONTINUOUS
 10
71.8227647154
 20
218.7197985978
 11
72.1298657738
 21
218.7197985978
  0
LINE
  8
2_FEATURE
 62
7
  6
CONTINUOUS
 10
72.1298657738
 20
218.7197985978
 11
77.7298657738
 21
218.7197985978
  0
LINE
  8
0
 62
7
  6
CONTINUOUS
 10
77.7298657738
 20
218.7197985978
 11
78.0369668322
 21
218.7197985978
  0
LINE
  8
2_FEATURE
 62
7
  6
CONTINUOUS
 10
84.3298657738
 20
218.7197985978
 11
90.9298657738
 21
218.7197985978
  0
LINE
  8
0
 62
7
  6
CONTINUOUS
 10
97.2227647154
 20
218.7197985978
 11
97.5298657738
 21
218.7197985978
  0
LINE
  8
2_FEATURE
 62
7
  6
CONTINUOUS
 10
97.5298657738
 20
218.7197985978
 11
103.1298657738
 21
218.7197985978
  0
LINE
  8
0
 62
7
  6
CONTINUOUS
 10
103.1298657738
 20
218.7197985978
 11
103.4369668322
 21
218.7197985978
  0
LINE
  8
2_FEATURE
 62
7
  6
CONTINUOUS
 10
109.7298657738
 20
218.7197985978
 11
116.3298657738
 21
218.7197985978
  0
LINE
  8
2_FEATURE
 62
7
  6
CONTINUOUS
 10
122.4298657738
 20
218.7197985978
 11
129.0298657738
 21
218.7197985978
  0
POLYLINE
  8
0
 62
7
  6
CONTINUOUS
 66
1
 70
0
  0
VERTEX
  8
0
 62
7
  6
CONTINUOUS
 10
45.7298657738
 20
217.9418582667
  0
VERTEX
  8
0
 62
7
  6
CONTINUOUS
 10
45.8500064723
 20
217.9401992163
  0
VERTEX
  8
0
 62
7
  6
CONTINUOUS
 10
45.9629639856
 20
217.9353113819
  0
VERTEX
  8
0
 62
7
  6
CONTINUOUS
 10
46.0621698938
 20
217.9274473435
  0
VERTEX
  8
0
 62
7
  6
CONTINUOUS
 10
46.1047850291
 20
217.9225201197
  0
VERTEX
  8
0
 62
7
  6
CONTINUOUS
 10
46.1729963019
 20
217.9109948942
  0
VERTEX
  8
0
 62
7
  6
CONTINUOUS
 10
46.2154626616
 20
217.8977598154
  0
VERTEX
  8
0
 62
7
  6
CONTINUOUS
 10
46.2298657738
 20
217.8835272227
  0
SEQEND
  0
POLYLINE
  8
0
 62
7
  6
CONTINUOUS
 66
1
 70
0
  0
VERTEX
  8
0
 62
7
  6
CONTINUOUS
 10
78.0369668322
 20
218.7197985978
  0
VERTEX
  8
0
 62
7
  6
CONTINUOUS
 10
78.1104167841
 20
218.7092352391
  0
VERTEX
  8
0
 62
7
  6
CONTINUOUS
 10
78.1685597817
 20
218.6784242783
  0
VERTEX
  8
0
 62
7
  6
CONTINUOUS
 10
78.1911938856
 20
218.6558383891
  0
VERTEX
  8
0
 62
7
  6
CONTINUOUS
 10
78.2208645961
 20
218.6008125511
  0
VERTEX
  8
0
 62
7
  6
CONTINUOUS
 10
78.2298657738
 20
218.5440903082
  0
SEQEND
  0
POLYLINE
  8
0
 62
7
  6
CONTINUOUS
 66
1
 70
0
  0
VERTEX
  8
0
 62
7
  6
CONTINUOUS
 10
84.3298657738
 20
217.8835272227
  0
VERTEX
  8
0
 62
7
  6
CONTINUOUS
 10
84.3154626616
 20
217.8977598154
  0
VERTEX
  8
0
 62
7
  6
CONTINUOUS
 10
84.2729963019
 20
217.9109948942
  0
VERTEX
  8
0
 62
7
  6
CONTINUOUS
 10
84.2047850291
 20
217.9225201197
  0
VERTEX
  8
0
 62
7
  6
CONTINUOUS
 10
84.1621698938
 20
217.9274473435
  0
VERTEX
  8
0
 62
7
  6
CONTINUOUS
 10
84.0629639856
 20
217.9353113819
  0
VERTEX
  8
0
 62
7
  6
CONTINUOUS
 10
83.9500064723
 20
217.9401992163
  0
VERTEX
  8
0
 62
7
  6
CONTINUOUS
 10
83.8298657738
 20
217.9418582667
  0
SEQEND
  0
LINE
  8
0
 62
7
  6
CONTINUOUS
 10
86.1798657738
 20
213.1197985978
 11
86.1798657738
 21
214.8967607728
  0
POLYLINE
  8
0
 62
7
  6
CONTINUOUS
 66
1
 70
0
  0
VERTEX
  8
0
 62
7
  6
CONTINUOUS
 10
84.9305596121
 20
212.9744841621
  0
VERTEX
  8
0
 62
7
  6
CONTINUOUS
 10
84.9375184519
 20
213.0005136476
  0
VERTEX
  8
0
 62
7
  6
CONTINUOUS
 10
84.9511400162
 20
213.1197985978
  0
SEQEND
  0
LINE
  8
0
 62
7
  6
CONTINUOUS
 10
84.9305601783
 20
212.974485977
 11
85.1627480282
 21
213.757455417
  0
LINE
  8
0
 62
7
  6
CONTINUOUS
 10
85.162752754
 20
213.7574713196
 11
85.1661091339
 21
213.7680104257
  0
LINE
  8
0
 62
7
  6
CONTINUOUS
 10
89.1062243122
 20
218.7188082526
 11
88.6072146574
 21
218.2197985978
  0
LINE
  8
0
 62
7
  6
CONTINUOUS
 10
31.2298657738
 20
221.1197985978
 11
131.3298657738
 21
221.1197985978
  0
POLYLINE
  8
0
 62
7
  6
CONTINUOUS
 66
1
 70
0
  0
VERTEX
  8
0
 62
7
  6
CONTINUOUS
 10
103.4369668322
 20
218.7197985978
  0
VERTEX
  8
0
 62
7
  6
CONTINUOUS
 10
103.5104167841
 20
218.7092352391
  0
VERTEX
  8
0
 62
7
  6
CONTINUOUS
 10
103.5685597817
 20
218.6784242783
  0
VERTEX
  8
0
 62
7
  6
CONTINUOUS
 10
103.5911938856
 20
218.6558383891
  0
VERTEX
  8
0
 62
7
  6
CONTINUOUS
 10
103.6208645961
 20
218.6008125511
  0
VERTEX
  8
0
 62
7
  6
CONTINUOUS
 10
103.6298657738
 20
218.5440903082
  0
SEQEND
  0
LINE
  8
0
 62
7
  6
CONTINUOUS
 10
86.6525168903
 20
218.2197985978
 11
86.1535072355
 21
218.7188082526
  0
POLYLINE
  8
0
 62
7
  6
CONTINUOUS
 66
1
 70
0
  0
VERTEX
  8
0
 62
7
  6
CONTINUOUS
 10
90.0940794771
 20
213.7668556621
  0
VERTEX
  8
0
 62
7
  6
CONTINUOUS
 10
90.0935771898
 20
213.768135385
  0
VERTEX
  8
0
 62
7
  6
CONTINUOUS
 10
90.0969791083
 20
213.7574702586
  0
SEQEND
  0
LINE
  8
0
 62
7
  6
CONTINUOUS
 10
89.0798657738
 20
213.1197985978
 11
89.0798657738
 21
214.896760781
  0
LINE
  8
0
 62
7
  6
CONTINUOUS
 10
90.9298657738
 20
213.1197985978
 11
90.9298657738
 21
220.6197985978
  0
LINE
  8
0
 62
7
  6
CONTINUOUS
 10
90.0969835194
 20
213.757455417
 11
90.3291713693
 21
212.974485977
  0
POLYLINE
  8
0
 62
7
  6
CONTINUOUS
 66
1
 70
0
  0
VERTEX
  8
0
 62
7
  6
CONTINUOUS
 10
90.3291719356
 20
212.9744841621
  0
VERTEX
  8
0
 62
7
  6
CONTINUOUS
 10
90.3222130958
 20
213.0005136476
  0
VERTEX
  8
0
 62
7
  6
CONTINUOUS
 10
90.3085915315
 20
213.1197985978
  0
SEQEND
  0
POLYLINE
  8
0
 62
7
  6
CONTINUOUS
 66
1
 70
0
  0
VERTEX
  8
0
 62
7
  6
CONTINUOUS
 10
97.0298657738
 20
217.8835272227
  0
VERTEX
  8
0
 62
7
  6
CONTINUOUS
 10
97.0154626616
 20
217.8977598154
  0
VERTEX
  8
0
 62
7
  6
CONTINUOUS
 10
96.9729963019
 20
217.9109948942
  0
VERTEX
  8
0
 62
7
  6
CONTINUOUS
 10
96.9047850291
 20
217.9225201197
  0
VERTEX
  8
0
 62
7
  6
CONTINUOUS
 10
96.8621698938
 20
217.9274473435
  0
VERTEX
  8
0
 62
7
  6
CONTINUOUS
 10
96.7629639856
 20
217.9353113819
  0
VERTEX
  8
0
 62
7
  6
CONTINUOUS
 10
96.6500064723
 20
217.9401992163
  0
VERTEX
  8
0
 62
7
  6
CONTINUOUS
 10
96.5298657738
 20
217.9418582667
  0
SEQEND
  0
LINE
  8
0
 62
7
  6
CONTINUOUS
 10
97.0298657738
 20
213.1197998508
 11
97.0298657738
 21
220.6197985978
  0
LINE
  8
2_FEATURE
 62
7
  6
CONTINUOUS
 10
97.2423661076
 20
218.7197985978
 11
97.2423661076
 21
218.6197985978
  0
LINE
  8
0
 62
7
  6
CONTINUOUS
 10
97.2798657738
 20
218.6197985978
 11
97.2798657738
 21
213.1198676935
  0
LINE
  8
2_FEATURE
 62
7
  6
CONTINUOUS
 10
97.28611544
 20
218.7197985978
 11
97.28611544
 21
218.6197985978
  0
LINE
  8
2_FEATURE
 62
7
  6
CONTINUOUS
 10
97.41736544
 20
218.7197985978
 11
97.41736544
 21
218.6197985978
  0
LINE
  8
2_FEATURE
 62
7
  6
CONTINUOUS
 10
97.5923657738
 20
218.7197985978
 11
97.5923657738
 21
218.6197985978
  0
LINE
  8
2_FEATURE
 62
7
  6
CONTINUOUS
 10
97.81111544
 20
218.7197985978
 11
97.81111544
 21
218.6197985978
  0
LINE
  8
2_FEATURE
 62
7
  6
CONTINUOUS
 10
98.4298657738
 20
218.7197985978
 11
98.4298657738
 21
218.6197985978
  0
POLYLINE
  8
0
 62
7
  6
CONTINUOUS
 66
1
 70
0
  0
VERTEX
  8
0
 62
7
  6
CONTINUOUS
 10
97.0298657738
 20
218.5440903082
  0
VERTEX
  8
0
 62
7
  6
CONTINUOUS
 10
97.038917906
 20
218.600969933
  0
VERTEX
  8
0
 62
7
  6
CONTINUOUS
 10
97.0687607649
 20
218.6561107215
  0
VERTEX
  8
0
 62
7
  6
CONTINUOUS
 10
97.0914294523
 20
218.6786336271
  0
VERTEX
  8
0
 62
7
  6
CONTINUOUS
 10
97.1493804471
 20
218.709255974
  0
VERTEX
  8
0
 62
7
  6
CONTINUOUS
 10
97.2227647154
 20
218.7197985978
  0
SEQEND
  0
POLYLINE
  8
0
 62
7
  6
CONTINUOUS
 66
1
 70
0
  0
VERTEX
  8
0
 62
7
  6
CONTINUOUS
 10
116.903020009
 20
213.9638052997
  0
VERTEX
  8
0
 62
7
  6
CONTINUOUS
 10
117.314305596
 20
214.1344243005
  0
VERTEX
  8
0
 62
7
  6
CONTINUOUS
 10
117.6962594552
 20
214.3110794309
  0
VERTEX
  8
0
 62
7
  6
CONTINUOUS
 10
118.0225318584
 20
214.4788427585
  0
SEQEND
  0
POLYLINE
  8
0
 62
7
  6
CONTINUOUS
 66
1
 70
0
  0
VERTEX
  8
0
 62
7
  6
CONTINUOUS
 10
103.6298657738
 20
216.0560699729
  0
VERTEX
  8
0
 62
7
  6
CONTINUOUS
 10
103.644268886
 20
216.0418373802
  0
VERTEX
  8
0
 62
7
  6
CONTINUOUS
 10
103.6867352458
 20
216.0286023014
  0
VERTEX
  8
0
 62
7
  6
CONTINUOUS
 10
103.7549465186
 20
216.0170770758
  0
VERTEX
  8
0
 62
7
  6
CONTINUOUS
 10
103.7975616539
 20
216.0121498521
  0
VERTEX
  8
0
 62
7
  6
CONTINUOUS
 10
103.8967675621
 20
216.0042858137
  0
VERTEX
  8
0
 62
7
  6
CONTINUOUS
 10
104.0097250754
 20
215.9993979793
  0
VERTEX
  8
0
 62
7
  6
CONTINUOUS
 10
104.1298657738
 20
215.9977389288
  0
SEQEND
  0
LINE
  8
2_FEATURE
 62
7
  6
CONTINUOUS
 10
99.4798657738
 20
218.7197985978
 11
99.4798657738
 21
218.6197985978
  0
LINE
  8
2_FEATURE
 62
7
  6
CONTINUOUS
 10
99.6986158155
 20
218.7197985978
 11
99.6986158155
 21
218.6197985978
  0
LINE
  8
2_FEATURE
 62
7
  6
CONTINUOUS
 10
99.8736157738
 20
218.7197985978
 11
99.8736157738
 21
218.6197985978
  0
LINE
  8
2_FEATURE
 62
7
  6
CONTINUOUS
 10
100.0048657738
 20
218.7197985978
 11
100.0048657738
 21
218.6197985978
  0
LINE
  8
2_FEATURE
 62
7
  6
CONTINUOUS
 10
100.0486157321
 20
218.7197985978
 11
100.0486157321
 21
218.6197985978
  0
LINE
  8
2_FEATURE
 62
7
  6
CONTINUOUS
 10
100.3986157738
 20
218.7197985978
 11
100.3986157738
 21
218.6197985978
  0
LINE
  8
2_FEATURE
 62
7
  6
CONTINUOUS
 10
101.4486157738
 20
218.7197985978
 11
101.4486157738
 21
218.6197985978
  0
LINE
  8
2_FEATURE
 62
7
  6
CONTINUOUS
 10
101.6673656904
 20
218.7197985978
 11
101.6673656904
 21
218.6197985978
  0
LINE
  8
2_FEATURE
 62
7
  6
CONTINUOUS
 10
101.8423657738
 20
218.7197985978
 11
101.8423657738
 21
218.6197985978
  0
LINE
  8
2_FEATURE
 62
7
  6
CONTINUOUS
 10
101.9736157738
 20
218.7197985978
 11
101.9736157738
 21
218.6197985978
  0
LINE
  8
2_FEATURE
 62
7
  6
CONTINUOUS
 10
102.0173658573
 20
218.7197985978
 11
102.0173658573
 21
218.6197985978
  0
POLYLINE
  8
0
 62
7
  6
CONTINUOUS
 66
1
 70
0
  0
VERTEX
  8
0
 62
7
  6
CONTINUOUS
 10
118.0225343947
 20
214.4788429666
  0
VERTEX
  8
0
 62
7
  6
CONTINUOUS
 10
118.0323517773
 20
214.4837739065
  0
VERTEX
  8
0
 62
7
  6
CONTINUOUS
 10
118.0481700357
 20
214.4900287673
  0
VERTEX
  8
0
 62
7
  6
CONTINUOUS
 10
118.0637317117
 20
214.4939748362
  0
VERTEX
  8
0
 62
7
  6
CONTINUOUS
 10
118.0805178742
 20
214.4955171593
  0
VERTEX
  8
0
 62
7
  6
CONTINUOUS
 10
118.0984433209
 20
214.4938950578
  0
VERTEX
  8
0
 62
7
  6
CONTINUOUS
 10
118.1162813536
 20
214.4891080818
  0
VERTEX
  8
0
 62
7
  6
CONTINUOUS
 10
118.1333953418
 20
214.4818514854
  0
VERTEX
  8
0
 62
7
  6
CONTINUOUS
 10
118.1498325552
 20
214.4726431423
  0
VERTEX
  8
0
 62
7
  6
CONTINUOUS
 10
118.1655263828
 20
214.4619070958
  0
VERTEX
  8
0
 62
7
  6
CONTINUOUS
 10
118.1805755923
 20
214.4498568047
  0
VERTEX
  8
0
 62
7
  6
CONTINUOUS
 10
118.1952078653
 20
214.4364698156
  0
VERTEX
  8
0
 62
7
  6
CONTINUOUS
 10
118.2093823169
 20
214.4218602299
  0
VERTEX
  8
0
 62
7
  6
CONTINUOUS
 10
118.2231350554
 20
214.4060371166
  0
VERTEX
  8
0
 62
7
  6
CONTINUOUS
 10
118.2365432027
 20
214.3888940472
  0
VERTEX
  8
0
 62
7
  6
CONTINUOUS
 10
118.2495763296
 20
214.3703985374
  0
VERTEX
  8
0
 62
7
  6
CONTINUOUS
 10
118.2621017167
 20
214.3506414412
  0
VERTEX
  8
0
 62
7
  6
CONTINUOUS
 10
118.2739874371
 20
214.3297254853
  0
VERTEX
  8
0
 62
7
  6
CONTINUOUS
 10
118.2850865131
 20
214.3077922079
  0
VERTEX
  8
0
 62
7
  6
CONTINUOUS
 10
118.2952576919
 20
214.284997815
  0
VERTEX
  8
0
 62
7
  6
CONTINUOUS
 10
118.3043595136
 20
214.2615201567
  0
VERTEX
  8
0
 62
7
  6
CONTINUOUS
 10
118.312269341
 20
214.2375167461
  0
VERTEX
  8
0
 62
7
  6
CONTINUOUS
 10
118.3188515249
 20
214.2132092649
  0
VERTEX
  8
0
 62
7
  6
CONTINUOUS
 10
118.3239891835
 20
214.1888089797
  0
VERTEX
  8
0
 62
7
  6
CONTINUOUS
 10
118.3275708281
 20
214.1645834065
  0
VERTEX
  8
0
 62
7
  6
CONTINUOUS
 10
118.3295134221
 20
214.1407596358
  0
VERTEX
  8
0
 62
7
  6
CONTINUOUS
 10
118.3298660808
 20
214.1258569468
  0
SEQEND
  0
POLYLINE
  8
0
 62
7
  6
CONTINUOUS
 66
1
 70
0
  0
VERTEX
  8
0
 62
7
  6
CONTINUOUS
 10
109.7298657738
 20
217.8835272227
  0
VERTEX
  8
0
 62
7
  6
CONTINUOUS
 10
109.7154626616
 20
217.8977598154
  0
VERTEX
  8
0
 62
7
  6
CONTINUOUS
 10
109.6729963019
 20
217.9109948942
  0
VERTEX
  8
0
 62
7
  6
CONTINUOUS
 10
109.6047850291
 20
217.9225201197
  0
VERTEX
  8
0
 62
7
  6
CONTINUOUS
 10
109.5621698938
 20
217.9274473435
  0
VERTEX
  8
0
 62
7
  6
CONTINUOUS
 10
109.4629639856
 20
217.9353113819
  0
VERTEX
  8
0
 62
7
  6
CONTINUOUS
 10
109.3500064723
 20
217.9401992163
  0
VERTEX
  8
0
 62
7
  6
CONTINUOUS
 10
109.2298657738
 20
217.9418582667
  0
SEQEND
  0
LINE
  8
2_FEATURE
 62
7
  6
CONTINUOUS
 10
103.2361157738
 20
218.7197985978
 11
103.2361157738
 21
218.6197985978
  0
LINE
  8
0
 62
7
  6
CONTINUOUS
 10
103.3798657738
 20
213.1198676935
 11
103.3798657738
 21
218.6197985978
  0
LINE
  8
2_FEATURE
 62
7
  6
CONTINUOUS
 10
103.4548656904
 20
218.7197985978
 11
103.4548656904
 21
218.6197985978
  0
LINE
  8
0
 62
7
  6
CONTINUOUS
 10
103.6298657738
 20
213.1197998508
 11
103.6298657738
 21
220.6197985978
  0
LINE
  8
0
 62
7
  6
CONTINUOUS
 10
114.5062243122
 20
218.7188082526
 11
114.0072146574
 21
218.2197985978
  0
POLYLINE
  8
0
 62
7
  6
CONTINUOUS
 66
1
 70
0
  0
VERTEX
  8
0
 62
7
  6
CONTINUOUS
 10
116.3298657738
 20
217.8835272227
  0
VERTEX
  8
0
 62
7
  6
CONTINUOUS
 10
116.344268886
 20
217.8977598154
  0
VERTEX
  8
0
 62
7
  6
CONTINUOUS
 10
116.3867352458
 20
217.9109948942
  0
VERTEX
  8
0
 62
7
  6
CONTINUOUS
 10
116.4549465186
 20
217.9225201197
  0
VERTEX
  8
0
 62
7
  6
CONTINUOUS
 10
116.4975616539
 20
217.9274473435
  0
VERTEX
  8
0
 62
7
  6
CONTINUOUS
 10
116.5967675621
 20
217.9353113819
  0
VERTEX
  8
0
 62
7
  6
CONTINUOUS
 10
116.7097250754
 20
217.9401992163
  0
VERTEX
  8
0
 62
7
  6
CONTINUOUS
 10
116.8298657738
 20
217.9418582667
  0
SEQEND
  0
LINE
  8
0
 62
7
  6
CONTINUOUS
 10
112.0525168903
 20
218.2197985978
 11
111.5535072355
 21
218.7188082526
  0
LINE
  8
0
 62
7
  6
CONTINUOUS
 10
109.7298657738
 20
213.1197985978
 11
109.7298657738
 21
220.6197985978
  0
LINE
  8
0
 62
7
  6
CONTINUOUS
 10
111.5798657738
 20
213.1197985978
 11
111.5798657738
 21
214.8967607926
  0
POLYLINE
  8
0
 62
7
  6
CONTINUOUS
 66
1
 70
0
  0
VERTEX
  8
0
 62
7
  6
CONTINUOUS
 10
110.3305596121
 20
212.9744841621
  0
VERTEX
  8
0
 62
7
  6
CONTINUOUS
 10
110.3375184519
 20
213.0005136476
  0
VERTEX
  8
0
 62
7
  6
CONTINUOUS
 10
110.3511400162
 20
213.1197985978
  0
SEQEND
  0
LINE
  8
0
 62
7
  6
CONTINUOUS
 10
110.3305601783
 20
212.974485977
 11
110.5627480282
 21
213.757455417
  0
LINE
  8
0
 62
7
  6
CONTINUOUS
 10
110.562752754
 20
213.7574713196
 11
110.5661091339
 21
213.7680104257
  0
POLYLINE
  8
0
 62
7
  6
CONTINUOUS
 66
1
 70
0
  0
VERTEX
  8
0
 62
7
  6
CONTINUOUS
 10
122.4298657738
 20
217.8835272227
  0
VERTEX
  8
0
 62
7
  6
CONTINUOUS
 10
122.4154626616
 20
217.8977598154
  0
VERTEX
  8
0
 62
7
  6
CONTINUOUS
 10
122.3729963019
 20
217.9109948942
  0
VERTEX
  8
0
 62
7
  6
CONTINUOUS
 10
122.3047850291
 20
217.9225201197
  0
VERTEX
  8
0
 62
7
  6
CONTINUOUS
 10
122.2621698938
 20
217.9274473435
  0
VERTEX
  8
0
 62
7
  6
CONTINUOUS
 10
122.1629639856
 20
217.9353113819
  0
VERTEX
  8
0
 62
7
  6
CONTINUOUS
 10
122.0500064723
 20
217.9401992163
  0
VERTEX
  8
0
 62
7
  6
CONTINUOUS
 10
121.9298657738
 20
217.9418582667
  0
SEQEND
  0
POLYLINE
  8
0
 62
7
  6
CONTINUOUS
 66
1
 70
0
  0
VERTEX
  8
0
 62
7
  6
CONTINUOUS
 10
124.5592894588
 20
214.4219346501
  0
VERTEX
  8
0
 62
7
  6
CONTINUOUS
 10
124.5726244824
 20
214.4066553086
  0
VERTEX
  8
0
 62
7
  6
CONTINUOUS
 10
124.5860658333
 20
214.3895356716
  0
VERTEX
  8
0
 62
7
  6
CONTINUOUS
 10
124.5991279431
 20
214.3710678021
  0
SEQEND
  0
POLYLINE
  8
0
 62
7
  6
CONTINUOUS
 66
1
 70
0
  0
VERTEX
  8
0
 62
7
  6
CONTINUOUS
 10
115.4940794771
 20
213.7668556621
  0
VERTEX
  8
0
 62
7
  6
CONTINUOUS
 10
115.4935771898
 20
213.768135385
  0
VERTEX
  8
0
 62
7
  6
CONTINUOUS
 10
115.4969791083
 20
213.7574702586
  0
SEQEND
  0
LINE
  8
0
 62
7
  6
CONTINUOUS
 10
114.4798657738
 20
213.1197985978
 11
114.4798657738
 21
214.896760781
  0
LINE
  8
0
 62
7
  6
CONTINUOUS
 10
127.2061080066
 20
218.7188190356
 11
126.7070875688
 21
218.2197985978
  0
LINE
  8
0
 62
7
  6
CONTINUOUS
 10
124.7525168903
 20
218.2197985978
 11
124.2535072355
 21
218.7188082526
  0
LINE
  8
0
 62
7
  6
CONTINUOUS
 10
118.2594980471
 20
214.3549259578
 11
118.3038630868
 21
214.2628006628
  0
LINE
  8
0
 62
7
  6
CONTINUOUS
 10
115.4969835194
 20
213.757455417
 11
115.7291713693
 21
212.974485977
  0
POLYLINE
  8
0
 62
7
  6
CONTINUOUS
 66
1
 70
0
  0
VERTEX
  8
0
 62
7
  6
CONTINUOUS
 10
115.7291719356
 20
212.9744841621
  0
VERTEX
  8
0
 62
7
  6
CONTINUOUS
 10
115.7222130958
 20
213.0005136476
  0
VERTEX
  8
0
 62
7
  6
CONTINUOUS
 10
115.7085915315
 20
213.1197985978
  0
SEQEND
  0
POLYLINE
  8
0
 62
7
  6
CONTINUOUS
 66
1
 70
0
  0
VERTEX
  8
0
 62
7
  6
CONTINUOUS
 10
116.3298653798
 20
214.4787254905
  0
VERTEX
  8
0
 62
7
  6
CONTINUOUS
 10
116.33965092
 20
214.349972521
  0
VERTEX
  8
0
 62
7
  6
CONTINUOUS
 10
116.3725654012
 20
214.2230336121
  0
VERTEX
  8
0
 62
7
  6
CONTINUOUS
 10
116.4269074332
 20
214.116003904
  0
VERTEX
  8
0
 62
7
  6
CONTINUOUS
 10
116.4974834159
 20
214.0339394947
  0
VERTEX
  8
0
 62
7
  6
CONTINUOUS
 10
116.5370916874
 20
214.0024984881
  0
VERTEX
  8
0
 62
7
  6
CONTINUOUS
 10
116.6231588927
 20
213.9576185652
  0
VERTEX
  8
0
 62
7
  6
CONTINUOUS
 10
116.7168019096
 20
213.9363538572
  0
VERTEX
  8
0
 62
7
  6
CONTINUOUS
 10
116.8159056011
 20
213.9397482572
  0
VERTEX
  8
0
 62
7
  6
CONTINUOUS
 10
116.9030147597
 20
213.9638031373
  0
SEQEND
  0
LINE
  8
0
 62
7
  6
CONTINUOUS
 10
116.3298657738
 20
213.1197985978
 11
116.3298657738
 21
220.6197985978
  0
LINE
  8
0
 62
7
  6
CONTINUOUS
 10
117.9298657738
 20
213.1197985978
 11
117.9298657738
 21
213.4841962072
  0
LINE
  8
0
 62
7
  6
CONTINUOUS
 10
118.3298657738
 20
214.125855629
 11
118.3298657738
 21
212.8197985978
  0
POLYLINE
  8
0
 62
7
  6
CONTINUOUS
 66
1
 70
0
  0
VERTEX
  8
0
 62
7
  6
CONTINUOUS
 10
117.9298653864
 20
213.4841573564
  0
VERTEX
  8
0
 62
7
  6
CONTINUOUS
 10
117.9489701446
 20
213.7052680201
  0
VERTEX
  8
0
 62
7
  6
CONTINUOUS
 10
118.0106198795
 20
213.9576207272
  0
VERTEX
  8
0
 62
7
  6
CONTINUOUS
 10
118.1086206787
 20
214.2076118139
  0
SEQEND
  0
POLYLINE
  8
0
 62
7
  6
CONTINUOUS
 66
1
 70
0
  0
VERTEX
  8
0
 62
7
  6
CONTINUOUS
 10
118.1589697939
 20
214.3178400289
  0
VERTEX
  8
0
 62
7
  6
CONTINUOUS
 10
118.1758818338
 20
214.3566002604
  0
VERTEX
  8
0
 62
7
  6
CONTINUOUS
 10
118.1811798601
 20
214.368468461
  0
VERTEX
  8
0
 62
7
  6
CONTINUOUS
 10
118.186504216
 20
214.3799767295
  0
VERTEX
  8
0
 62
7
  6
CONTINUOUS
 10
118.1918827833
 20
214.3910498085
  0
VERTEX
  8
0
 62
7
  6
CONTINUOUS
 10
118.1972867607
 20
214.4015447159
  0
VERTEX
  8
0
 62
7
  6
CONTINUOUS
 10
118.2027416464
 20
214.4114318122
  0
VERTEX
  8
0
 62
7
  6
CONTINUOUS
 10
118.2083537806
 20
214.4207953863
  0
VERTEX
  8
0
 62
7
  6
CONTINUOUS
 10
118.2091927311
 20
214.4220556357
  0
SEQEND
  0
POLYLINE
  8
0
 62
7
  6
CONTINUOUS
 66
1
 70
0
  0
VERTEX
  8
0
 62
7
  6
CONTINUOUS
 10
118.146457099
 20
214.2896939368
  0
VERTEX
  8
0
 62
7
  6
CONTINUOUS
 10
118.1527978179
 20
214.3038581198
  0
VERTEX
  8
0
 62
7
  6
CONTINUOUS
 10
118.1589697939
 20
214.3178400289
  0
SEQEND
  0
LINE
  8
0
 62
7
  6
CONTINUOUS
 10
118.1328249928
 20
214.2597840659
 11
118.146457099
 21
214.2896939368
  0
LINE
  8
0
 62
7
  6
CONTINUOUS
 10
118.1086198789
 20
214.2076129887
 11
118.1328249928
 21
214.2597840659
  0
POLYLINE
  8
0
 62
7
  6
CONTINUOUS
 66
1
 70
0
  0
VERTEX
  8
0
 62
7
  6
CONTINUOUS
 10
131.8298657738
 20
216.0560699729
  0
VERTEX
  8
0
 62
7
  6
CONTINUOUS
 10
131.8154626616
 20
216.0418373802
  0
VERTEX
  8
0
 62
7
  6
CONTINUOUS
 10
131.7729963019
 20
216.0286023014
  0
VERTEX
  8
0
 62
7
  6
CONTINUOUS
 10
131.7047850291
 20
216.0170770758
  0
VERTEX
  8
0
 62
7
  6
CONTINUOUS
 10
131.6621698938
 20
216.0121498521
  0
VERTEX
  8
0
 62
7
  6
CONTINUOUS
 10
131.5629639856
 20
216.0042858137
  0
VERTEX
  8
0
 62
7
  6
CONTINUOUS
 10
131.4500064723
 20
215.9993979793
  0
VERTEX
  8
0
 62
7
  6
CONTINUOUS
 10
131.3298657738
 20
215.9977389288
  0
SEQEND
  0
POLYLINE
  8
0
 62
7
  6
CONTINUOUS
 66
1
 70
0
  0
VERTEX
  8
0
 62
7
  6
CONTINUOUS
 10
131.8298657738
 20
217.8835272227
  0
VERTEX
  8
0
 62
7
  6
CONTINUOUS
 10
131.8154626616
 20
217.8977598154
  0
VERTEX
  8
0
 62
7
  6
CONTINUOUS
 10
131.7729963019
 20
217.9109948942
  0
VERTEX
  8
0
 62
7
  6
CONTINUOUS
 10
131.7047850291
 20
217.9225201197
  0
VERTEX
  8
0
 62
7
  6
CONTINUOUS
 10
131.6621698938
 20
217.9274473435
  0
VERTEX
  8
0
 62
7
  6
CONTINUOUS
 10
131.5629639856
 20
217.9353113819
  0
VERTEX
  8
0
 62
7
  6
CONTINUOUS
 10
131.4500064723
 20
217.9401992163
  0
VERTEX
  8
0
 62
7
  6
CONTINUOUS
 10
131.3298657738
 20
217.9418582667
  0
SEQEND
  0
LINE
  8
0
 62
7
  6
CONTINUOUS
 10
124.5991279431
 20
214.3710678021
 11
124.6098017751
 21
214.354293687
  0
POLYLINE
  8
0
 62
7
  6
CONTINUOUS
 66
1
 70
0
  0
VERTEX
  8
0
 62
7
  6
CONTINUOUS
 10
124.5647659884
 20
214.4300325251
  0
VERTEX
  8
0
 62
7
  6
CONTINUOUS
 10
124.5689174476
 20
214.4227657953
  0
VERTEX
  8
0
 62
7
  6
CONTINUOUS
 10
124.5858494401
 20
214.3939491366
  0
VERTEX
  8
0
 62
7
  6
CONTINUOUS
 10
124.6002645144
 20
214.3700254681
  0
VERTEX
  8
0
 62
7
  6
CONTINUOUS
 10
124.6094760667
 20
214.3549646168
  0
SEQEND
  0
LINE
  8
0
 62
7
  6
CONTINUOUS
 10
122.4298657738
 20
213.1197985978
 11
122.4298657738
 21
220.6197985978
  0
LINE
  8
0
 62
7
  6
CONTINUOUS
 10
123.0305601783
 20
212.974485977
 11
123.2627480282
 21
213.757455417
  0
LINE
  8
0
 62
7
  6
CONTINUOUS
 10
123.262752754
 20
213.7574713196
 11
123.2661091339
 21
213.7680104257
  0
POLYLINE
  8
0
 62
7
  6
CONTINUOUS
 66
1
 70
0
  0
VERTEX
  8
0
 62
7
  6
CONTINUOUS
 10
124.5231844641
 20
214.350112581
  0
VERTEX
  8
0
 62
7
  6
CONTINUOUS
 10
124.5274622553
 20
214.3597701107
  0
VERTEX
  8
0
 62
7
  6
CONTINUOUS
 10
124.5315445684
 20
214.3688202432
  0
VERTEX
  8
0
 62
7
  6
CONTINUOUS
 10
124.5355342439
 20
214.3774429966
  0
VERTEX
  8
0
 62
7
  6
CONTINUOUS
 10
124.5394855643
 20
214.3857146326
  0
VERTEX
  8
0
 62
7
  6
CONTINUOUS
 10
124.5434146193
 20
214.3936381925
  0
VERTEX
  8
0
 62
7
  6
CONTINUOUS
 10
124.5473431638
 20
214.4012273014
  0
VERTEX
  8
0
 62
7
  6
CONTINUOUS
 10
124.5513109977
 20
214.4085225622
  0
VERTEX
  8
0
 62
7
  6
CONTINUOUS
 10
124.5553608368
 20
214.4155542442
  0
VERTEX
  8
0
 62
7
  6
CONTINUOUS
 10
124.5594869759
 20
214.422255434
  0
VERTEX
  8
0
 62
7
  6
CONTINUOUS
 10
124.5637592953
 20
214.4286640816
  0
VERTEX
  8
0
 62
7
  6
CONTINUOUS
 10
124.5683402968
 20
214.434891244
  0
VERTEX
  8
0
 62
7
  6
CONTINUOUS
 10
124.5733077617
 20
214.4408886845
  0
VERTEX
  8
0
 62
7
  6
CONTINUOUS
 10
124.5783777702
 20
214.4462190474
  0
VERTEX
  8
0
 62
7
  6
CONTINUOUS
 10
124.5837845984
 20
214.4510090472
  0
VERTEX
  8
0
 62
7
  6
CONTINUOUS
 10
124.5883525888
 20
214.4542464505
  0
VERTEX
  8
0
 62
7
  6
CONTINUOUS
 10
124.5900246755
 20
214.4551764032
  0
SEQEND
  0
POLYLINE
  8
0
 62
7
  6
CONTINUOUS
 66
1
 70
0
  0
VERTEX
  8
0
 62
7
  6
CONTINUOUS
 10
124.5028042147
 20
214.3037146136
  0
VERTEX
  8
0
 62
7
  6
CONTINUOUS
 10
124.5084253029
 20
214.3164061401
  0
VERTEX
  8
0
 62
7
  6
CONTINUOUS
 10
124.5231844641
 20
214.350112581
  0
SEQEND
  0
LINE
  8
0
 62
7
  6
CONTINUOUS
 10
124.4909709471
 20
214.2774916102
 11
124.5028042147
 21
214.3037146136
  0
LINE
  8
0
 62
7
  6
CONTINUOUS
 10
124.4779770877
 20
214.2492414613
 11
124.4909709471
 21
214.2774916102
  0
LINE
  8
0
 62
7
  6
CONTINUOUS
 10
124.4564436115
 20
214.2029354168
 11
124.4779770877
 21
214.2492414613
  0
LINE
  8
0
 62
7
  6
CONTINUOUS
 10
131.8298657738
 20
220.5099116978
 11
132.0298657738
 21
220.2943137144
  0
POLYLINE
  8
0
 62
7
  6
CONTINUOUS
 66
1
 70
0
  0
VERTEX
  8
0
 62
7
  6
CONTINUOUS
 10
124.6094975893
 20
214.3549267012
  0
VERTEX
  8
0
 62
7
  6
CONTINUOUS
 10
124.6542910005
 20
214.2617110802
  0
VERTEX
  8
0
 62
7
  6
CONTINUOUS
 10
124.6692609759
 20
214.211495453
  0
VERTEX
  8
0
 62
7
  6
CONTINUOUS
 10
124.6798660352
 20
214.1259169245
  0
SEQEND
  0
POLYLINE
  8
0
 62
7
  6
CONTINUOUS
 66
1
 70
0
  0
VERTEX
  8
0
 62
7
  6
CONTINUOUS
 10
124.6542371643
 20
214.261823114
  0
VERTEX
  8
0
 62
7
  6
CONTINUOUS
 10
124.6620337738
 20
214.2382984215
  0
VERTEX
  8
0
 62
7
  6
CONTINUOUS
 10
124.6686631874
 20
214.2139876652
  0
VERTEX
  8
0
 62
7
  6
CONTINUOUS
 10
124.6690235013
 20
214.2122920434
  0
SEQEND
  0
LINE
  8
0
 62
7
  6
CONTINUOUS
 10
124.2798657738
 20
213.1197985978
 11
124.2798657738
 21
214.8967607735
  0
LINE
  8
0
 62
7
  6
CONTINUOUS
 10
124.6798657718
 20
214.1259166781
 11
124.6798657738
 21
212.8197985978
  0
POLYLINE
  8
0
 62
7
  6
CONTINUOUS
 66
1
 70
0
  0
VERTEX
  8
0
 62
7
  6
CONTINUOUS
 10
124.2798653908
 20
213.4841567998
  0
VERTEX
  8
0
 62
7
  6
CONTINUOUS
 10
124.2991704619
 20
213.7064760447
  0
VERTEX
  8
0
 62
7
  6
CONTINUOUS
 10
124.3609983402
 20
213.9588034235
  0
VERTEX
  8
0
 62
7
  6
CONTINUOUS
 10
124.4586207702
 20
214.2076118196
  0
SEQEND
  0
POLYLINE
  8
0
 62
7
  6
CONTINUOUS
 66
1
 70
0
  0
VERTEX
  8
0
 62
7
  6
CONTINUOUS
 10
123.0305596121
 20
212.9744841621
  0
VERTEX
  8
0
 62
7
  6
CONTINUOUS
 10
123.0375184519
 20
213.0005136476
  0
VERTEX
  8
0
 62
7
  6
CONTINUOUS
 10
123.0511400162
 20
213.1197985978
  0
SEQEND
  0
LINE
  8
0
 62
7
  6
CONTINUOUS
 10
127.1798657738
 20
213.1197985978
 11
127.1798657738
 21
214.8963605474
  0
LINE
  8
0
 62
7
  6
CONTINUOUS
 10
129.0298657738
 20
220.6197985978
 11
129.0298657738
 21
213.1197985978
  0
LINE
  8
0
 62
7
  6
CONTINUOUS
 10
131.8298657738
 20
220.6197985978
 11
131.8298657738
 21
213.1197986797
  0
LINE
  8
0
 62
7
  6
CONTINUOUS
 10
132.0298657738
 20
220.2943137144
 11
132.0298657738
 21
214.7563985978
  0
LINE
  8
0
 62
7
  6
CONTINUOUS
 10
132.0298729832
 20
214.7563985978
 11
132.0209524656
 21
214.6619492497
  0
POLYLINE
  8
0
 62
7
  6
CONTINUOUS
 66
1
 70
0
  0
VERTEX
  8
0
 62
7
  6
CONTINUOUS
 10
132.0209524656
 20
214.6619492497
  0
VERTEX
  8
0
 62
7
  6
CONTINUOUS
 10
131.9945851223
 20
214.5717120396
  0
VERTEX
  8
0
 62
7
  6
CONTINUOUS
 10
131.9509039938
 20
214.4867194971
  0
SEQEND
  0
ARC
  8
0
 62
7
  6
CONTINUOUS
 10
36.8298657738
 20
105.7108724832
 40
0.88
 50
0.0
 51
180.0
  0
ARC
  8
0
 62
7
  6
CONTINUOUS
 10
36.8298657738
 20
100.5608724832
 40
0.88
 50
180.0
 51
360.0
  0
ARC
  8
0
 62
7
  6
CONTINUOUS
 10
43.1798657738
 20
105.7108724832
 40
0.88
 50
0.0
 51
180.0
  0
ARC
  8
0
 62
7
  6
CONTINUOUS
 10
43.1798657738
 20
100.5608724832
 40
0.88
 50
180.0
 51
360.0
  0
ARC
  8
0
 62
7
  6
CONTINUOUS
 10
49.5298657738
 20
105.7108724832
 40
0.88
 50
0.0
 51
180.0
  0
ARC
  8
0
 62
7
  6
CONTINUOUS
 10
49.5298657738
 20
100.5608724832
 40
0.88
 50
180.0
 51
360.0
  0
ARC
  8
0
 62
7
  6
CONTINUOUS
 10
55.8798657738
 20
105.7108724832
 40
0.88
 50
0.0
 51
180.0
  0
ARC
  8
0
 62
7
  6
CONTINUOUS
 10
55.8798657738
 20
100.5608724832
 40
0.88
 50
180.0
 51
360.0
  0
ARC
  8
0
 62
7
  6
CONTINUOUS
 10
62.2298657738
 20
105.7108724832
 40
0.88
 50
0.0
 51
180.0
  0
ARC
  8
0
 62
7
  6
CONTINUOUS
 10
62.2298657738
 20
100.5608724832
 40
0.88
 50
180.0
 51
360.0
  0
ARC
  8
0
 62
7
  6
CONTINUOUS
 10
68.5798657738
 20
105.7108724832
 40
0.88
 50
0.0
 51
180.0
  0
ARC
  8
0
 62
7
  6
CONTINUOUS
 10
68.5798657738
 20
100.5608724832
 40
0.88
 50
180.0
 51
360.0
  0
ARC
  8
0
 62
7
  6
CONTINUOUS
 10
74.9298657738
 20
105.7108724832
 40
0.88
 50
0.0
 51
180.0
  0
ARC
  8
0
 62
7
  6
CONTINUOUS
 10
74.9298657738
 20
100.5608724832
 40
0.88
 50
180.0
 51
360.0
  0
ARC
  8
0
 62
7
  6
CONTINUOUS
 10
31.2298657738
 20
86.8408724832
 40
0.5
 50
180.0
 51
270.0
  0
ARC
  8
0
 62
7
  6
CONTINUOUS
 10
40.6298657738
 20
86.8408724832
 40
0.5
 50
180.0
 51
270.0
  0
ARC
  8
0
 62
7
  6
CONTINUOUS
 10
33.0298657738
 20
86.8408724832
 40
0.5
 50
270.0
 51
360.0
  0
ARC
  8
0
 62
7
  6
CONTINUOUS
 10
45.7298657738
 20
86.8408724832
 40
0.5
 50
270.0
 51
360.0
  0
ARC
  8
0
 62
7
  6
CONTINUOUS
 10
53.3298657738
 20
86.8408724832
 40
0.5
 50
180.0
 51
270.0
  0
ARC
  8
0
 62
7
  6
CONTINUOUS
 10
66.0298657738
 20
86.8408724832
 40
0.5
 50
180.0
 51
270.0
  0
ARC
  8
0
 62
7
  6
CONTINUOUS
 10
58.4298657738
 20
86.8408724832
 40
0.5
 50
270.0
 51
360.0
  0
ARC
  8
0
 62
7
  6
CONTINUOUS
 10
78.7298657738
 20
86.8408724832
 40
0.5
 50
180.0
 51
270.0
  0
ARC
  8
0
 62
7
  6
CONTINUOUS
 10
71.1298657738
 20
86.8408724832
 40
0.5
 50
270.0
 51
360.0
  0
ARC
  8
2_FEATURE
 62
7
  6
CONTINUOUS
 10
31.5298657738
 20
122.9971239844
 40
1.0
 50
144.1408399887
 51
180.0
  0
ARC
  8
0
 62
7
  6
CONTINUOUS
 10
36.8298657738
 20
118.7008724832
 40
0.88
 50
0.0
 51
180.0
  0
ARC
  8
0
 62
7
  6
CONTINUOUS
 10
36.8298657738
 20
113.5508724832
 40
0.88
 50
180.0
 51
360.0
  0
ARC
  8
0
 62
7
  6
CONTINUOUS
 10
43.1798657738
 20
118.7008724832
 40
0.88
 50
0.0
 51
180.0
  0
ARC
  8
0
 62
7
  6
CONTINUOUS
 10
43.1798657738
 20
113.5508724832
 40
0.88
 50
180.0
 51
360.0
  0
ARC
  8
0
 62
7
  6
CONTINUOUS
 10
49.5298657738
 20
118.7008724832
 40
0.88
 50
0.0
 51
180.0
  0
ARC
  8
0
 62
7
  6
CONTINUOUS
 10
49.5298657738
 20
113.5508724832
 40
0.88
 50
180.0
 51
360.0
  0
ARC
  8
0
 62
7
  6
CONTINUOUS
 10
55.8798657738
 20
118.7008724832
 40
0.88
 50
0.0
 51
180.0
  0
ARC
  8
0
 62
7
  6
CONTINUOUS
 10
55.8798657738
 20
113.5508724832
 40
0.88
 50
180.0
 51
360.0
  0
ARC
  8
0
 62
7
  6
CONTINUOUS
 10
62.2298657738
 20
118.7008724832
 40
0.88
 50
0.0
 51
180.0
  0
ARC
  8
0
 62
7
  6
CONTINUOUS
 10
62.2298657738
 20
113.5508724832
 40
0.88
 50
180.0
 51
360.0
  0
ARC
  8
0
 62
7
  6
CONTINUOUS
 10
68.5798657738
 20
118.7008724832
 40
0.88
 50
0.0
 51
180.0
  0
ARC
  8
0
 62
7
  6
CONTINUOUS
 10
68.5798657738
 20
113.5508724832
 40
0.88
 50
180.0
 51
360.0
  0
ARC
  8
0
 62
7
  6
CONTINUOUS
 10
74.9298657738
 20
118.7008724832
 40
0.88
 50
0.0
 51
180.0
  0
ARC
  8
0
 62
7
  6
CONTINUOUS
 10
74.9298657738
 20
113.5508724832
 40
0.88
 50
180.0
 51
360.0
  0
ARC
  8
0
 62
7
  6
CONTINUOUS
 10
46.9798657738
 20
132.4208724832
 40
0.5
 50
90.0
 51
180.0
  0
ARC
  8
0
 62
7
  6
CONTINUOUS
 10
72.3798657738
 20
132.4208724832
 40
0.5
 50
90.0
 51
180.0
  0
ARC
  8
0
 62
7
  6
CONTINUOUS
 10
34.2798657738
 20
132.4208724832
 40
0.5
 50
90.0
 51
180.0
  0
ARC
  8
0
 62
7
  6
CONTINUOUS
 10
39.3798657738
 20
132.4208724832
 40
0.5
 50
0.0
 51
90.0
  0
ARC
  8
0
 62
7
  6
CONTINUOUS
 10
59.6798657738
 20
132.4208724832
 40
0.5
 50
90.0
 51
180.0
  0
ARC
  8
0
 62
7
  6
CONTINUOUS
 10
52.0798657738
 20
132.4208724832
 40
0.5
 50
0.0
 51
90.0
  0
ARC
  8
0
 62
7
  6
CONTINUOUS
 10
64.7798657738
 20
132.4208724832
 40
0.5
 50
0.0
 51
90.0
  0
ARC
  8
0
 62
7
  6
CONTINUOUS
 10
77.4798657738
 20
132.4208724832
 40
0.5
 50
0.0
 51
90.0
  0
ARC
  8
0
 62
7
  6
CONTINUOUS
 10
81.2798657738
 20
105.7108724832
 40
0.88
 50
0.0
 51
180.0
  0
ARC
  8
0
 62
7
  6
CONTINUOUS
 10
81.2798657738
 20
100.5608724832
 40
0.88
 50
180.0
 51
360.0
  0
ARC
  8
0
 62
7
  6
CONTINUOUS
 10
87.6298657738
 20
105.7108724832
 40
0.88
 50
0.0
 51
180.0
  0
ARC
  8
0
 62
7
  6
CONTINUOUS
 10
87.6298657738
 20
100.5608724832
 40
0.88
 50
180.0
 51
360.0
  0
ARC
  8
0
 62
7
  6
CONTINUOUS
 10
93.9798657738
 20
105.7108724832
 40
0.88
 50
0.0
 51
180.0
  0
ARC
  8
0
 62
7
  6
CONTINUOUS
 10
93.9798657738
 20
100.5608724832
 40
0.88
 50
180.0
 51
360.0
  0
ARC
  8
0
 62
7
  6
CONTINUOUS
 10
100.3298657738
 20
105.7108724832
 40
0.88
 50
0.0
 51
180.0
  0
ARC
  8
0
 62
7
  6
CONTINUOUS
 10
100.3298657738
 20
100.5608724832
 40
0.88
 50
180.0
 51
360.0
  0
ARC
  8
0
 62
7
  6
CONTINUOUS
 10
106.6798657738
 20
105.7108724832
 40
0.88
 50
0.0
 51
180.0
  0
ARC
  8
0
 62
7
  6
CONTINUOUS
 10
106.6798657738
 20
100.5608724832
 40
0.88
 50
180.0
 51
360.0
  0
ARC
  8
0
 62
7
  6
CONTINUOUS
 10
113.0298657738
 20
105.7108724832
 40
0.88
 50
0.0
 51
180.0
  0
ARC
  8
0
 62
7
  6
CONTINUOUS
 10
113.0298657738
 20
100.5608724832
 40
0.88
 50
180.0
 51
360.0
  0
ARC
  8
0
 62
7
  6
CONTINUOUS
 10
119.3798657738
 20
105.7108724832
 40
0.88
 50
0.0
 51
180.0
  0
ARC
  8
0
 62
7
  6
CONTINUOUS
 10
119.3798657738
 20
100.5608724832
 40
0.88
 50
180.0
 51
360.0
  0
ARC
  8
0
 62
7
  6
CONTINUOUS
 10
125.7298657738
 20
105.7108724832
 40
0.88
 50
0.0
 51
180.0
  0
ARC
  8
0
 62
7
  6
CONTINUOUS
 10
125.7298657738
 20
100.5608724832
 40
0.88
 50
180.0
 51
360.0
  0
ARC
  8
0
 62
7
  6
CONTINUOUS
 10
121.9298657738
 20
86.8408724832
 40
0.5
 50
270.0
 51
360.0
  0
ARC
  8
0
 62
7
  6
CONTINUOUS
 10
131.3298657738
 20
86.8408724832
 40
0.5
 50
270.0
 51
360.0
  0
ARC
  8
0
 62
7
  6
CONTINUOUS
 10
91.4298657738
 20
86.8408724832
 40
0.5
 50
180.0
 51
270.0
  0
ARC
  8
0
 62
7
  6
CONTINUOUS
 10
83.8298657738
 20
86.8408724832
 40
0.5
 50
270.0
 51
360.0
  0
ARC
  8
0
 62
7
  6
CONTINUOUS
 10
104.1298657738
 20
86.8408724832
 40
0.5
 50
180.0
 51
270.0
  0
ARC
  8
0
 62
7
  6
CONTINUOUS
 10
96.5298657738
 20
86.8408724832
 40
0.5
 50
270.0
 51
360.0
  0
ARC
  8
0
 62
7
  6
CONTINUOUS
 10
116.8298657738
 20
86.8408724832
 40
0.5
 50
180.0
 51
270.0
  0
ARC
  8
0
 62
7
  6
CONTINUOUS
 10
109.2298657738
 20
86.8408724832
 40
0.5
 50
270.0
 51
360.0
  0
ARC
  8
0
 62
7
  6
CONTINUOUS
 10
129.5298657738
 20
86.8408724832
 40
0.5
 50
180.0
 51
270.0
  0
ARC
  8
2_FEATURE
 62
7
  6
CONTINUOUS
 10
131.0298657738
 20
122.9971239844
 40
1.0
 50
0.0
 51
35.8591600113
  0
ARC
  8
0
 62
7
  6
CONTINUOUS
 10
81.2798657738
 20
118.7008724832
 40
0.88
 50
0.0
 51
180.0
  0
ARC
  8
0
 62
7
  6
CONTINUOUS
 10
81.2798657738
 20
113.5508724832
 40
0.88
 50
180.0
 51
360.0
  0
ARC
  8
0
 62
7
  6
CONTINUOUS
 10
87.6298657738
 20
118.7008724832
 40
0.88
 50
0.0
 51
180.0
  0
ARC
  8
0
 62
7
  6
CONTINUOUS
 10
87.6298657738
 20
113.5508724832
 40
0.88
 50
180.0
 51
360.0
  0
ARC
  8
0
 62
7
  6
CONTINUOUS
 10
93.9798657738
 20
118.7008724832
 40
0.88
 50
0.0
 51
180.0
  0
ARC
  8
0
 62
7
  6
CONTINUOUS
 10
93.9798657738
 20
113.5508724832
 40
0.88
 50
180.0
 51
360.0
  0
ARC
  8
0
 62
7
  6
CONTINUOUS
 10
100.3298657738
 20
118.7008724832
 40
0.88
 50
0.0
 51
180.0
  0
ARC
  8
0
 62
7
  6
CONTINUOUS
 10
100.3298657738
 20
113.5508724832
 40
0.88
 50
180.0
 51
360.0
  0
ARC
  8
0
 62
7
  6
CONTINUOUS
 10
106.6798657738
 20
118.7008724832
 40
0.88
 50
0.0
 51
180.0
  0
ARC
  8
0
 62
7
  6
CONTINUOUS
 10
106.6798657738
 20
113.5508724832
 40
0.88
 50
180.0
 51
360.0
  0
ARC
  8
0
 62
7
  6
CONTINUOUS
 10
113.0298657738
 20
118.7008724832
 40
0.88
 50
0.0
 51
180.0
  0
ARC
  8
0
 62
7
  6
CONTINUOUS
 10
113.0298657738
 20
113.5508724832
 40
0.88
 50
180.0
 51
360.0
  0
ARC
  8
0
 62
7
  6
CONTINUOUS
 10
119.3798657738
 20
118.7008724832
 40
0.88
 50
0.0
 51
180.0
  0
ARC
  8
0
 62
7
  6
CONTINUOUS
 10
119.3798657738
 20
113.5508724832
 40
0.88
 50
180.0
 51
360.0
  0
ARC
  8
0
 62
7
  6
CONTINUOUS
 10
125.7298657738
 20
118.7008724832
 40
0.88
 50
0.0
 51
180.0
  0
ARC
  8
0
 62
7
  6
CONTINUOUS
 10
125.7298657738
 20
113.5508724832
 40
0.88
 50
180.0
 51
360.0
  0
ARC
  8
0
 62
7
  6
CONTINUOUS
 10
128.2798657738
 20
132.4208724832
 40
0.5
 50
0.0
 51
90.0
  0
ARC
  8
0
 62
7
  6
CONTINUOUS
 10
85.0798657738
 20
132.4208724832
 40
0.5
 50
90.0
 51
180.0
  0
ARC
  8
0
 62
7
  6
CONTINUOUS
 10
123.1798657738
 20
132.4208724832
 40
0.5
 50
90.0
 51
180.0
  0
ARC
  8
0
 62
7
  6
CONTINUOUS
 10
115.5798657738
 20
132.4208724832
 40
0.5
 50
0.0
 51
90.0
  0
ARC
  8
0
 62
7
  6
CONTINUOUS
 10
110.4798657738
 20
132.4208724832
 40
0.5
 50
90.0
 51
180.0
  0
ARC
  8
0
 62
7
  6
CONTINUOUS
 10
102.8798657738
 20
132.4208724832
 40
0.5
 50
0.0
 51
90.0
  0
ARC
  8
0
 62
7
  6
CONTINUOUS
 10
90.1798657738
 20
132.4208724832
 40
0.5
 50
0.0
 51
90.0
  0
ARC
  8
0
 62
7
  6
CONTINUOUS
 10
97.7798657738
 20
132.4208724832
 40
0.5
 50
90.0
 51
180.0
  0
ARC
  8
0
 62
7
  6
CONTINUOUS
 10
168.2631100072
 20
94.2135795234
 40
0.5
 50
311.4951540653
 51
358.6903416646
  0
ARC
  8
0
 62
7
  6
CONTINUOUS
 10
171.4765100072
 20
90.3808724832
 40
5.0489999763
 50
48.818215835
 51
69.7203027258
  0
ARC
  8
0
 62
7
  6
CONTINUOUS
 10
171.4765100072
 20
90.5808724832
 40
4.35
 50
282.9124542829
 51
342.5584061437
  0
ARC
  8
0
 62
7
  6
CONTINUOUS
 10
171.4765100072
 20
90.5808724832
 40
4.35
 50
131.4951540653
 51
257.0875457171
  0
CIRCLE
  8
2_FEATURE
 62
7
  6
CONTINUOUS
 10
171.4765100072
 20
90.5808724832
 40
2.5
  0
ARC
  8
0
 62
7
  6
CONTINUOUS
 10
169.2631100072
 20
123.4971239844
 40
0.5
 50
90.0
 51
180.0
  0
ARC
  8
2_FEATURE
 62
7
  6
CONTINUOUS
 10
171.4765100072
 20
128.6808724832
 40
5.0
 50
290.4873151147
 51
311.5777957855
  0
ARC
  8
0
 62
7
  6
CONTINUOUS
 10
171.4765100072
 20
128.6808724832
 40
5.0
 50
290.4873151147
 51
311.5777957855
  0
ARC
  8
0
 62
7
  6
CONTINUOUS
 10
171.4765100072
 20
128.6808724832
 40
4.35
 50
17.4415938563
 51
77.0875457171
  0
ARC
  8
0
 62
7
  6
CONTINUOUS
 10
171.4765100072
 20
128.6808724832
 40
4.35
 50
102.9124542829
 51
180.469896621
  0
CIRCLE
  8
2_FEATURE
 62
7
  6
CONTINUOUS
 10
171.4765100072
 20
128.6808724832
 40
2.5
  0
ARC
  8
0
 62
7
  6
CONTINUOUS
 10
175.1265100072
 20
124.5665688728
 40
0.4999997237
 50
0.0
 51
131.5778493998
  0
ARC
  8
0
 62
7
  6
CONTINUOUS
 10
31.2298657738
 20
213.1197985978
 40
0.5
 50
180.0
 51
270.0
  0
ARC
  8
0
 62
7
  6
CONTINUOUS
 10
46.9798657738
 20
213.1197985978
 40
0.5
 50
180.0
 51
270.0
  0
ARC
  8
0
 62
7
  6
CONTINUOUS
 10
53.3298657738
 20
213.1197985978
 40
0.5
 50
180.0
 51
270.0
  0
ARC
  8
0
 62
7
  6
CONTINUOUS
 10
52.0798657738
 20
213.1197985978
 40
0.5
 50
270.0
 51
360.0
  0
ARC
  8
0
 62
7
  6
CONTINUOUS
 10
38.7798657738
 20
213.1197985978
 40
0.5
 50
180.0
 51
270.0
  0
ARC
  8
0
 62
7
  6
CONTINUOUS
 10
40.6298657738
 20
213.1197985978
 40
0.5
 50
180.0
 51
270.0
  0
ARC
  8
0
 62
7
  6
CONTINUOUS
 10
33.0298657738
 20
213.1197985978
 40
0.5
 50
270.0
 51
360.0
  0
ARC
  8
0
 62
7
  6
CONTINUOUS
 10
34.8798657738
 20
213.1197985978
 40
0.5
 50
270.0
 51
360.0
  0
ARC
  8
0
 62
7
  6
CONTINUOUS
 10
37.6798657738
 20
212.8197985978
 40
0.2
 50
270.0
 51
360.0
  0
ARC
  8
0
 62
7
  6
CONTINUOUS
 10
44.0298657738
 20
212.8197985978
 40
0.2
 50
270.0
 51
360.0
  0
ARC
  8
0
 62
7
  6
CONTINUOUS
 10
31.0298657738
 20
214.7563985978
 40
0.5
 50
212.6399595159
 51
230.7851013361
  0
ARC
  8
0
 62
7
  6
CONTINUOUS
 10
72.3798657738
 20
213.1197985978
 40
0.5
 50
180.0
 51
270.0
  0
ARC
  8
0
 62
7
  6
CONTINUOUS
 10
78.7298657738
 20
213.1197985978
 40
0.5
 50
180.0
 51
270.0
  0
ARC
  8
0
 62
7
  6
CONTINUOUS
 10
71.1298657738
 20
213.1197985978
 40
0.5
 50
270.0
 51
360.0
  0
ARC
  8
0
 62
7
  6
CONTINUOUS
 10
77.4798657738
 20
213.1197985978
 40
0.5
 50
270.0
 51
360.0
  0
ARC
  8
0
 62
7
  6
CONTINUOUS
 10
64.1798657738
 20
213.1197985978
 40
0.5
 50
180.0
 51
270.0
  0
ARC
  8
0
 62
7
  6
CONTINUOUS
 10
66.0298657738
 20
213.1197985978
 40
0.5
 50
180.0
 51
270.0
  0
ARC
  8
0
 62
7
  6
CONTINUOUS
 10
58.4298657738
 20
213.1197985978
 40
0.5
 50
270.0
 51
360.0
  0
ARC
  8
0
 62
7
  6
CONTINUOUS
 10
60.2798657738
 20
213.1197985978
 40
0.5
 50
270.0
 51
360.0
  0
ARC
  8
0
 62
7
  6
CONTINUOUS
 10
40.6298657738
 20
220.6197985978
 40
0.5
 50
90.0
 51
180.0
  0
ARC
  8
0
 62
7
  6
CONTINUOUS
 10
31.2298657738
 20
220.6197985978
 40
0.5
 50
90.0
 51
180.0
  0
ARC
  8
0
 62
7
  6
CONTINUOUS
 10
33.0298657738
 20
220.6197985978
 40
0.5
 50
0.0
 51
90.0
  0
ARC
  8
0
 62
7
  6
CONTINUOUS
 10
45.7298657738
 20
220.6197985978
 40
0.5
 50
0.0
 51
90.0
  0
ARC
  8
0
 62
7
  6
CONTINUOUS
 10
53.3298657738
 20
220.6197985978
 40
0.5
 50
90.0
 51
180.0
  0
ARC
  8
0
 62
7
  6
CONTINUOUS
 10
66.0298657738
 20
220.6197985978
 40
0.5
 50
90.0
 51
180.0
  0
ARC
  8
0
 62
7
  6
CONTINUOUS
 10
58.4298657738
 20
220.6197985978
 40
0.5
 50
0.0
 51
90.0
  0
ARC
  8
0
 62
7
  6
CONTINUOUS
 10
78.7298657738
 20
220.6197985978
 40
0.5
 50
90.0
 51
180.0
  0
ARC
  8
0
 62
7
  6
CONTINUOUS
 10
71.1298657738
 20
220.6197985978
 40
0.5
 50
0.0
 51
90.0
  0
ARC
  8
0
 62
7
  6
CONTINUOUS
 10
102.8798657738
 20
213.1197985978
 40
0.5
 50
270.0
 51
360.0
  0
ARC
  8
0
 62
7
  6
CONTINUOUS
 10
97.7798657738
 20
213.1197985978
 40
0.5
 50
180.0
 51
270.0
  0
ARC
  8
0
 62
7
  6
CONTINUOUS
 10
104.1298657738
 20
213.1197985978
 40
0.5
 50
180.0
 51
270.0
  0
ARC
  8
0
 62
7
  6
CONTINUOUS
 10
96.5298657738
 20
213.1197985978
 40
0.5
 50
270.0
 51
360.0
  0
ARC
  8
0
 62
7
  6
CONTINUOUS
 10
85.6798657738
 20
213.1197985978
 40
0.5
 50
270.0
 51
360.0
  0
ARC
  8
0
 62
7
  6
CONTINUOUS
 10
83.8298657738
 20
213.1197985978
 40
0.5
 50
270.0
 51
360.0
  0
ARC
  8
0
 62
7
  6
CONTINUOUS
 10
91.4298657738
 20
213.1197985978
 40
0.5
 50
180.0
 51
270.0
  0
ARC
  8
0
 62
7
  6
CONTINUOUS
 10
89.5798657738
 20
213.1197985978
 40
0.5
 50
180.0
 51
270.0
  0
ARC
  8
0
 62
7
  6
CONTINUOUS
 10
131.3298657738
 20
213.1197985978
 40
0.5
 50
270.0
 51
360.0
  0
ARC
  8
0
 62
7
  6
CONTINUOUS
 10
123.7798657738
 20
213.1197985978
 40
0.5
 50
270.0
 51
360.0
  0
ARC
  8
0
 62
7
  6
CONTINUOUS
 10
121.9298657738
 20
213.1197985978
 40
0.5
 50
270.0
 51
360.0
  0
ARC
  8
0
 62
7
  6
CONTINUOUS
 10
129.5298657738
 20
213.1197985978
 40
0.5
 50
180.0
 51
270.0
  0
ARC
  8
0
 62
7
  6
CONTINUOUS
 10
127.6798657738
 20
213.1197985978
 40
0.5
 50
180.0
 51
270.0
  0
ARC
  8
0
 62
7
  6
CONTINUOUS
 10
111.0798657738
 20
213.1197985978
 40
0.5
 50
270.0
 51
360.0
  0
ARC
  8
0
 62
7
  6
CONTINUOUS
 10
109.2298657738
 20
213.1197985978
 40
0.5
 50
270.0
 51
360.0
  0
ARC
  8
0
 62
7
  6
CONTINUOUS
 10
116.8298657738
 20
213.1197985978
 40
0.5
 50
179.9993266383
 51
270.0
  0
ARC
  8
0
 62
7
  6
CONTINUOUS
 10
114.9798657738
 20
213.1197985978
 40
0.5
 50
180.0
 51
270.0
  0
ARC
  8
0
 62
7
  6
CONTINUOUS
 10
117.4298657738
 20
213.1197985978
 40
0.5
 50
270.0
 51
360.0
  0
ARC
  8
0
 62
7
  6
CONTINUOUS
 10
118.5298657738
 20
212.8197985978
 40
0.2
 50
180.0
 51
270.0
  0
ARC
  8
0
 62
7
  6
CONTINUOUS
 10
124.8798657738
 20
212.8197985978
 40
0.2
 50
180.0
 51
270.0
  0
ARC
  8
0
 62
7
  6
CONTINUOUS
 10
131.5298657738
 20
214.7563985978
 40
0.5
 50
309.2151435207
 51
327.3600404841
  0
ARC
  8
0
 62
7
  6
CONTINUOUS
 10
104.1298657738
 20
220.6197985978
 40
0.5
 50
90.0
 51
180.0
  0
ARC
  8
0
 62
7
  6
CONTINUOUS
 10
129.5298657738
 20
220.6197985978
 40
0.5
 50
90.0
 51
180.0
  0
ARC
  8
0
 62
7
  6
CONTINUOUS
 10
131.3298657738
 20
220.6197985978
 40
0.5
 50
0.0
 51
90.0
  0
ARC
  8
0
 62
7
  6
CONTINUOUS
 10
121.9298657738
 20
220.6197985978
 40
0.5
 50
0.0
 51
90.0
  0
ARC
  8
0
 62
7
  6
CONTINUOUS
 10
109.2298657738
 20
220.6197985978
 40
0.5
 50
0.0
 51
90.0
  0
ARC
  8
0
 62
7
  6
CONTINUOUS
 10
116.8298657738
 20
220.6197985978
 40
0.5
 50
90.0
 51
180.0
  0
ARC
  8
0
 62
7
  6
CONTINUOUS
 10
96.5298657738
 20
220.6197985978
 40
0.5
 50
0.0
 51
90.0
  0
ARC
  8
0
 62
7
  6
CONTINUOUS
 10
83.8298657738
 20
220.6197985978
 40
0.5
 50
0.0
 51
90.0
  0
ARC
  8
0
 62
7
  6
CONTINUOUS
 10
91.4298657738
 20
220.6197985978
 40
0.5
 50
90.0
 51
180.0
  0
ENDSEC
  0
EOF
