  0
SECTION
  2
HEADER
  9
$EXTMAX
 10
210.0
 20
297.0
 30
0.0
  9
$EXTMIN
 10
0.0
 20
0.0
 30
0.0
  9
$LIMMIN
 10
0.0
 20
0.0
  9
$LIMMAX
 10
210.0
 20
297.0
  9
$VIEWCTR
 10
105.0
 20
148.5
  9
$VIEWSIZE
 40
297.0
  9
$CLAYER
  8
0
  9
$LTSCALE
 40
19.36
  9
$CELTYPE
  6
BYLAYER
  9
$DIMSCALE
 40
1.0
  9
$DIMASZ
 40
3.5
  9
$DIMEXO
 40
1.0
  9
$DIMDLI
 40
13.376
  9
$DIMEXE
 40
2.0
  9
$DIMCEN
 40
3.168
  9
$DIMLFAC
 40
1.0
  9
$DIMBLK
  1
_FILLED
  9
$DIMALT
 70
0
  9
$DIMALTF
 40
0.0393700787
  9
$DIMTXT
 40
3.5
  9
$AUNITS
 70
0
  9
$PDMODE
 70
3
  9
$PDSIZE
 40
0.3125
  9
$TILEMODE
 70
1
  0
ENDSEC
  0
SECTION
  2
TABLES
  0
TABLE
  2
LTYPE
 70
6
  0
LTYPE
  2
BYBLOCK
 70
0
  3

 72
65
 73
0
 40
0.0
  0
LTYPE
  2
BYLAYER
 70
0
  3

 72
65
 73
0
 40
0.0
  0
LTYPE
  2
CONTINUOUS
 70
64
  3
Solid line
 72
65
 73
0
 40
0.0
  0
LTYPE
  2
CENTER
 70
64
  3
____ _ ____ _ ____ _ ____ _ ____ _ ____ _ ____
 72
65
 73
4
 40
0.6
 49
0.375
 49
-0.075
 49
0.075
 49
-0.075
  0
LTYPE
  2
HIDDEN
 70
64
  3
- - - - - - - - - - - - - - - - - - - -
 72
65
 73
2
 40
0.2
 49
0.1
 49
-0.1
  0
LTYPE
  2
PHANTOM
 70
64
  3
_____ _ _ _____ _ _ _____ _ _ _____
 72
65
 73
6
 40
0.8
 49
0.45
 49
-0.05
 49
0.1
 49
-0.05
 49
0.1
 49
-0.05
  0
LTYPE
  2
DOT
 70
64
  3
. . . . . . . . . . . . . . . . . . . .
 72
65
 73
2
 40
0.2
 49
0.1
 49
-0.1
  0
LTYPE
  2
DASHED
 70
64
  3
- - - - - - - - - - - - - - - - - - - -
 72
65
 73
2
 40
0.2
 49
0.1
 49
-0.1
  0
ENDTAB
  0
TABLE
  2
LAYER
 70
36
  0
LAYER
  2
0
 70
0
 62
7
  6
CONTINUOUS
  0
LAYER
  2
DEFAULT_1
 70
0
 62
7
  6
CENTER
  0
LAYER
  2
DEFAULT_2
 70
0
 62
8
  6
HIDDEN
  0
LAYER
  2
DEFAULT_3
 70
0
 62
7
  6
PHANTOM
  0
LAYER
  2
1_AXIS
 70
0
 62
7
  6
CONTINUOUS
  0
LAYER
  2
1_DATUMPLANE
 70
0
 62
7
  6
CONTINUOUS
  0
LAYER
  2
1_DATUM_PLANES
 70
0
 62
7
  6
CONTINUOUS
  0
LAYER
  2
2_FEATURE
 70
0
 62
7
  6
CONTINUOUS
  0
LAYER
  2
4_QUILT
 70
0
 62
7
  6
CONTINUOUS
  0
LAYER
  2
6_DIM
 70
0
 62
7
  6
CONTINUOUS
  0
LAYER
  2
CSYS
 70
0
 62
7
  6
CONTINUOUS
  0
LAYER
  2
CURVE
 70
0
 62
7
  6
CONTINUOUS
  0
LAYER
  2
NOTES
 70
0
 62
7
  6
CONTINUOUS
  0
ENDTAB
  0
TABLE
  2
STYLE
 70
1
  0
STYLE
  2
STANDARD
 70
0
 40
0.0
 41
0.8
 50
0.0
 71
0
 42
0.2
  3
txt
  4

  0
STYLE
  2
TEXTSTYLE_1
 70
0
 40
0.0
 41
0.8
 50
0.0
 71
0
 42
0.2
  3
gdt
  4

  0
STYLE
  2
TEXTSTYLE_2
 70
0
 40
0.0
 41
0.6
 50
0.0
 71
0
 42
0.2
  3
txt
  4

  0
STYLE
  2
TEXTSTYLE_3
 70
0
 40
0.0
 41
1.0
 50
0.0
 71
0
 42
0.2
  3
ftb_____.ttf
  4

  0
STYLE
  2
TEXTSTYLE_4
 70
0
 40
0.0
 41
1.0
 50
0.0
 71
0
 42
0.2
  3
fti_____.ttf
  4

  0
STYLE
  2
TEXTSTYLE_5
 70
0
 40
0.0
 41
1.0
 50
0.0
 71
0
 42
0.2
  3
frutiger light.ttf
  4

  0
STYLE
  2
TEXTSTYLE_6
 70
0
 40
0.0
 41
0.7
 50
0.0
 71
0
 42
0.2
  3
txt
  4

  0
STYLE
  2
TEXTSTYLE_7
 70
0
 40
0.0
 41
0.6
 50
0.0
 71
0
 42
0.2
  3
txt
  4

  0
ENDTAB
  0
ENDSEC
  0
SECTION
  2
BLOCKS
  0
BLOCK
  8
0
 62
2
  6
CONTINUOUS
  2
UNI_LOGO2_BL1
 70
64
 10
173.5956734183
 20
35.5937998301
  0
TEXT
  8
0
 62
7
  6
CONTINUOUS
 10
164.6539584268
 20
30.6865562072
  7
TEXTSTYLE_4
 40
1.0655737705
  1
The brand for plastic modular belts and chains
 41
1.0
 72
0
  0
LINE
  8
0
 62
7
  6
CONTINUOUS
 10
149.5737418074
 20
36.1675703219
 11
149.5737418074
 21
34.0364227809
  0
LINE
  8
0
 62
7
  6
CONTINUOUS
 10
149.8628043005
 20
31.0454914852
 11
149.8628043005
 21
31.1422825445
  0
LINE
  8
0
 62
7
  6
CONTINUOUS
 10
149.5737418074
 20
31.1100188581
 11
149.6315543091
 21
30.9164367395
  0
LINE
  8
0
 62
7
  6
CONTINUOUS
 10
150.9671844304
 20
33.9544555678
 11
150.9671844304
 21
36.1675703219
  0
LINE
  8
0
 62
7
  6
CONTINUOUS
 10
151.8862417523
 20
32.1101932727
 11
151.8862417523
 21
30.5937998301
  0
LINE
  8
0
 62
7
  6
CONTINUOUS
 10
152.1753043074
 20
30.5937998301
 11
152.1753043074
 21
31.3358647082
  0
LINE
  8
0
 62
7
  6
CONTINUOUS
 10
152.1753043074
 20
31.4649194539
 11
152.1753043074
 21
32.1101932727
  0
LINE
  8
0
 62
7
  6
CONTINUOUS
 10
149.6315543091
 20
31.3036010218
 11
149.5737418074
 21
31.1100188581
  0
LINE
  8
0
 62
7
  6
CONTINUOUS
 10
149.9784292936
 20
30.8841730531
 11
149.8628043005
 21
31.0454914852
  0
LINE
  8
0
 62
7
  6
CONTINUOUS
 10
151.0768668626
 20
31.400392081
 11
151.1346793074
 21
31.3036010218
  0
LINE
  8
0
 62
7
  6
CONTINUOUS
 10
151.4237418626
 20
31.3036010218
 11
151.3659292523
 21
31.4326557675
  0
LINE
  8
0
 62
7
  6
CONTINUOUS
 10
152.852430332
 20
36.1675703219
 11
152.852430332
 21
34.3642916334
  0
LINE
  8
0
 62
7
  6
CONTINUOUS
 10
152.852430332
 20
33.0528162235
 11
152.852430332
 21
32.3970785186
  0
LINE
  8
0
 62
7
  6
CONTINUOUS
 10
153.2159293074
 20
31.2390736489
 11
153.2159293074
 21
30.5937998301
  0
LINE
  8
0
 62
7
  6
CONTINUOUS
 10
153.5049916972
 20
30.5937998301
 11
153.5049916972
 21
31.2390736489
  0
LINE
  8
0
 62
7
  6
CONTINUOUS
 10
149.8628043005
 20
31.1422825445
 11
149.9206168074
 21
31.2713373354
  0
LINE
  8
0
 62
7
  6
CONTINUOUS
 10
149.6315543091
 20
30.9164367395
 11
149.7471793074
 21
30.7873819712
  0
LINE
  8
0
 62
7
  6
CONTINUOUS
 10
153.1581166972
 20
31.3681283946
 11
153.2159293074
 21
31.2390736489
  0
LINE
  8
0
 62
7
  6
CONTINUOUS
 10
153.9674919177
 20
30.8841730531
 11
154.0253041972
 21
30.7551182848
  0
LINE
  8
0
 62
7
  6
CONTINUOUS
 10
153.5049916972
 20
31.2390736489
 11
153.4471794177
 21
31.400392081
  0
LINE
  8
0
 62
7
  6
CONTINUOUS
 10
153.9674919177
 20
31.4326557675
 11
153.9674919177
 21
31.3681283946
  0
LINE
  8
0
 62
7
  6
CONTINUOUS
 10
153.9674919177
 20
30.9809641124
 11
153.9674919177
 21
30.8841730531
  0
LINE
  8
0
 62
7
  6
CONTINUOUS
 10
154.245872955
 20
32.3970785186
 11
154.245872955
 21
36.1675703219
  0
LINE
  8
0
 62
7
  6
CONTINUOUS
 10
154.2565543074
 20
30.8519093441
 11
154.2565543074
 21
30.9164367395
  0
LINE
  8
0
 62
7
  6
CONTINUOUS
 10
154.5737418074
 20
36.1675703219
 11
154.5737418074
 21
32.3970785186
  0
LINE
  8
0
 62
7
  6
CONTINUOUS
 10
151.3659292523
 20
30.7873819712
 11
151.4237418626
 21
30.9164367395
  0
LINE
  8
0
 62
7
  6
CONTINUOUS
 10
155.759679528
 20
30.6905909007
 11
155.7018665869
 21
30.8519093441
  0
LINE
  8
0
 62
7
  6
CONTINUOUS
 10
155.412804528
 20
31.3681283946
 11
155.412804528
 21
31.2713373354
  0
LINE
  8
0
 62
7
  6
CONTINUOUS
 10
155.412804528
 20
31.1422825445
 11
155.412804528
 21
30.9487004259
  0
LINE
  8
0
 62
7
  6
CONTINUOUS
 10
155.7018665869
 20
30.8519093441
 11
155.7018665869
 21
31.3681283946
  0
LINE
  8
0
 62
7
  6
CONTINUOUS
 10
155.9671844304
 20
32.3970785186
 11
155.9671844304
 21
34.2003572071
  0
LINE
  8
0
 62
7
  6
CONTINUOUS
 10
155.9671844304
 20
35.511832617
 11
155.9671844304
 21
36.1675703219
  0
LINE
  8
0
 62
7
  6
CONTINUOUS
 10
156.279992028
 20
32.1101932727
 11
156.279992028
 21
31.9488748406
  0
LINE
  8
0
 62
7
  6
CONTINUOUS
 10
156.279992028
 20
31.626237886
 11
156.279992028
 21
30.5937998301
  0
LINE
  8
0
 62
7
  6
CONTINUOUS
 10
156.5690540869
 20
30.5937998301
 11
156.5690540869
 21
31.626237886
  0
LINE
  8
0
 62
7
  6
CONTINUOUS
 10
156.5690540869
 20
31.9488748406
 11
156.5690540869
 21
32.1101932727
  0
LINE
  8
0
 62
7
  6
CONTINUOUS
 10
151.1346793074
 20
30.9164367395
 11
151.0768668626
 21
30.8196456577
  0
LINE
  8
0
 62
7
  6
CONTINUOUS
 10
153.4471794177
 20
31.400392081
 11
153.3893668074
 21
31.4649194539
  0
LINE
  8
0
 62
7
  6
CONTINUOUS
 10
154.3143669177
 20
30.7873819712
 11
154.2565543074
 21
30.8519093441
  0
LINE
  8
0
 62
7
  6
CONTINUOUS
 10
155.4706168074
 20
30.6583272086
 11
155.5284290869
 21
30.5937998301
  0
LINE
  8
0
 62
7
  6
CONTINUOUS
 10
155.412804528
 20
30.7551182848
 11
155.4706168074
 21
30.6583272086
  0
LINE
  8
0
 62
7
  6
CONTINUOUS
 10
155.8174918074
 20
30.5937998301
 11
155.759679528
 21
30.6905909007
  0
LINE
  8
0
 62
7
  6
CONTINUOUS
 10
155.7018665869
 20
31.3681283946
 11
155.6440543074
 21
31.4649194539
  0
LINE
  8
0
 62
7
  6
CONTINUOUS
 10
157.0315543074
 20
31.626237886
 11
157.0315543074
 21
30.5937998301
  0
LINE
  8
0
 62
7
  6
CONTINUOUS
 10
157.320617028
 20
30.5937998301
 11
157.320617028
 21
31.3358647082
  0
LINE
  8
0
 62
7
  6
CONTINUOUS
 10
157.320617028
 20
31.4649194539
 11
157.320617028
 21
31.626237886
  0
LINE
  8
0
 62
7
  6
CONTINUOUS
 10
157.852430332
 20
34.6101932727
 11
157.852430332
 21
32.3970785186
  0
LINE
  8
0
 62
7
  6
CONTINUOUS
 10
149.7471793074
 20
31.4326557675
 11
149.6315543091
 21
31.3036010218
  0
LINE
  8
0
 62
7
  6
CONTINUOUS
 10
149.9206168074
 20
31.2713373354
 11
149.9784292936
 21
31.3358647082
  0
LINE
  8
0
 62
7
  6
CONTINUOUS
 10
149.7471793074
 20
30.7873819712
 11
149.8628043005
 21
30.7228545871
  0
LINE
  8
0
 62
7
  6
CONTINUOUS
 10
150.1518667936
 20
30.7873819712
 11
149.9784292936
 21
30.8841730531
  0
LINE
  8
0
 62
7
  6
CONTINUOUS
 10
155.3549915869
 20
31.4326557675
 11
155.412804528
 21
31.3681283946
  0
LINE
  8
0
 62
7
  6
CONTINUOUS
 10
158.3034290869
 20
31.3681283946
 11
158.361242028
 21
31.2068099625
  0
LINE
  8
0
 62
7
  6
CONTINUOUS
 10
158.6503040869
 20
31.2068099625
 11
158.5924918074
 21
31.3681283946
  0
LINE
  8
0
 62
7
  6
CONTINUOUS
 10
158.361242028
 20
31.2068099625
 11
158.361242028
 21
30.5937998301
  0
LINE
  8
0
 62
7
  6
CONTINUOUS
 10
158.6503040869
 20
30.5937998301
 11
158.6503040869
 21
31.2068099625
  0
LINE
  8
0
 62
7
  6
CONTINUOUS
 10
159.1128043074
 20
31.4326557675
 11
159.1128043074
 21
31.3681283946
  0
LINE
  8
0
 62
7
  6
CONTINUOUS
 10
159.245872955
 20
32.3970785186
 11
159.245872955
 21
34.5282260596
  0
LINE
  8
0
 62
7
  6
CONTINUOUS
 10
159.5737418074
 20
36.1675703219
 11
159.5737418074
 21
32.3970785186
  0
LINE
  8
0
 62
7
  6
CONTINUOUS
 10
154.2565543074
 20
30.9164367395
 11
154.3143669177
 21
31.0132277988
  0
LINE
  8
0
 62
7
  6
CONTINUOUS
 10
149.8628043005
 20
30.7228545871
 11
150.0362418212
 21
30.6583272086
  0
LINE
  8
0
 62
7
  6
CONTINUOUS
 10
151.3659292523
 20
31.4326557675
 11
151.1924917523
 21
31.5294468267
  0
LINE
  8
0
 62
7
  6
CONTINUOUS
 10
154.0253041972
 20
30.7551182848
 11
154.1987416972
 21
30.6583272086
  0
LINE
  8
0
 62
7
  6
CONTINUOUS
 10
153.0424918074
 20
31.4326557675
 11
153.1581166972
 21
31.3681283946
  0
LINE
  8
0
 62
7
  6
CONTINUOUS
 10
153.3893668074
 20
31.4649194539
 11
153.2737419177
 21
31.5294468267
  0
LINE
  8
0
 62
7
  6
CONTINUOUS
 10
159.1128043074
 20
30.8519093441
 11
159.228429528
 21
30.7228545871
  0
LINE
  8
0
 62
7
  6
CONTINUOUS
 10
159.4596793074
 20
30.7873819712
 11
159.401867028
 21
30.8519093441
  0
LINE
  8
0
 62
7
  6
CONTINUOUS
 10
159.1128043074
 20
31.3681283946
 11
159.228429528
 21
31.2390736489
  0
LINE
  8
0
 62
7
  6
CONTINUOUS
 10
158.5924918074
 20
31.3681283946
 11
158.534679528
 21
31.4649194539
  0
LINE
  8
0
 62
7
  6
CONTINUOUS
 10
160.9628038663
 20
30.7873819712
 11
160.9628038663
 21
30.8519093441
  0
LINE
  8
0
 62
7
  6
CONTINUOUS
 10
160.9671844304
 20
32.3970785186
 11
160.9671844304
 21
36.1675703219
  0
LINE
  8
0
 62
7
  6
CONTINUOUS
 10
154.0253041972
 20
31.4971831403
 11
153.9674919177
 21
31.4326557675
  0
LINE
  8
0
 62
7
  6
CONTINUOUS
 10
150.9034292799
 20
31.4649194539
 11
151.0768668626
 21
31.400392081
  0
LINE
  8
0
 62
7
  6
CONTINUOUS
 10
155.6440543074
 20
31.4649194539
 11
155.5284290869
 21
31.5294468267
  0
LINE
  8
0
 62
7
  6
CONTINUOUS
 10
159.4596793074
 20
31.3036010218
 11
159.401867028
 21
31.3681283946
  0
LINE
  8
0
 62
7
  6
CONTINUOUS
 10
160.615929528
 20
30.9164367395
 11
160.6737418074
 21
30.8519093441
  0
LINE
  8
0
 62
7
  6
CONTINUOUS
 10
160.9628038663
 20
30.8519093441
 11
160.8471793074
 21
30.9809641124
  0
LINE
  8
0
 62
7
  6
CONTINUOUS
 10
160.615929528
 20
31.4326557675
 11
160.6737418074
 21
31.3681283946
  0
LINE
  8
0
 62
7
  6
CONTINUOUS
 10
160.9628038663
 20
31.3681283946
 11
160.8471793074
 21
31.4971831403
  0
LINE
  8
0
 62
7
  6
CONTINUOUS
 10
154.2565543074
 20
31.3681283946
 11
154.3143669177
 21
31.4326557675
  0
LINE
  8
0
 62
7
  6
CONTINUOUS
 10
154.0831168074
 20
31.1100188581
 11
153.9674919177
 21
30.9809641124
  0
LINE
  8
0
 62
7
  6
CONTINUOUS
 10
155.412804528
 20
30.9487004259
 11
155.3549915869
 21
30.8841730531
  0
LINE
  8
0
 62
7
  6
CONTINUOUS
 10
155.3549915869
 20
30.6905909007
 11
155.412804528
 21
30.7551182848
  0
LINE
  8
0
 62
7
  6
CONTINUOUS
 10
154.1987416972
 20
30.6583272086
 11
154.3143669177
 21
30.6260635193
  0
LINE
  8
0
 62
7
  6
CONTINUOUS
 10
151.1924917523
 20
31.5294468267
 11
150.9612418074
 21
31.5939741996
  0
LINE
  8
0
 62
7
  6
CONTINUOUS
 10
154.5456166972
 20
30.7228545871
 11
154.3143669177
 21
30.7873819712
  0
LINE
  8
0
 62
7
  6
CONTINUOUS
 10
153.2737419177
 20
31.5294468267
 11
153.1003044177
 21
31.5939741996
  0
LINE
  8
0
 62
7
  6
CONTINUOUS
 10
155.5284290869
 20
31.5294468267
 11
155.3549915869
 21
31.5939741996
  0
LINE
  8
0
 62
7
  6
CONTINUOUS
 10
158.187804528
 20
31.4326557675
 11
158.3034290869
 21
31.3681283946
  0
LINE
  8
0
 62
7
  6
CONTINUOUS
 10
158.534679528
 20
31.4649194539
 11
158.4190543074
 21
31.5294468267
  0
LINE
  8
0
 62
7
  6
CONTINUOUS
 10
150.0362418212
 20
30.6583272086
 11
150.2096793212
 21
30.6260635193
  0
LINE
  8
0
 62
7
  6
CONTINUOUS
 10
150.498741835
 20
30.7228545871
 11
150.1518667936
 21
30.7873819712
  0
LINE
  8
0
 62
7
  6
CONTINUOUS
 10
152.9268669177
 20
31.4649194539
 11
153.0424918074
 21
31.4326557675
  0
LINE
  8
0
 62
7
  6
CONTINUOUS
 10
155.239367028
 20
31.4649194539
 11
155.3549915869
 21
31.4326557675
  0
LINE
  8
0
 62
7
  6
CONTINUOUS
 10
159.575304528
 20
30.7551182848
 11
159.4596793074
 21
30.7873819712
  0
LINE
  8
0
 62
7
  6
CONTINUOUS
 10
158.0721793074
 20
31.4649194539
 11
158.187804528
 21
31.4326557675
  0
LINE
  8
0
 62
7
  6
CONTINUOUS
 10
159.228429528
 20
30.7228545871
 11
159.401867028
 21
30.6583272086
  0
LINE
  8
0
 62
7
  6
CONTINUOUS
 10
158.4190543074
 20
31.5294468267
 11
158.2456168074
 21
31.5939741996
  0
LINE
  8
0
 62
7
  6
CONTINUOUS
 10
159.6331168074
 20
31.2390736489
 11
159.4596793074
 21
31.3036010218
  0
LINE
  8
0
 62
7
  6
CONTINUOUS
 10
160.442492028
 20
30.9809641124
 11
160.615929528
 21
30.9164367395
  0
LINE
  8
0
 62
7
  6
CONTINUOUS
 10
160.8471793074
 20
31.4971831403
 11
160.6737418074
 21
31.5617105132
  0
LINE
  8
0
 62
7
  6
CONTINUOUS
 10
159.228429528
 20
31.2390736489
 11
159.4596793074
 21
31.1422825445
  0
LINE
  8
0
 62
7
  6
CONTINUOUS
 10
160.8471793074
 20
30.9809641124
 11
160.615929528
 21
31.0777551716
  0
LINE
  8
0
 62
7
  6
CONTINUOUS
 10
159.401867028
 20
31.3681283946
 11
159.4596793074
 21
31.4326557675
  0
LINE
  8
0
 62
7
  6
CONTINUOUS
 10
149.8628043005
 20
31.4971831403
 11
149.7471793074
 21
31.4326557675
  0
LINE
  8
0
 62
7
  6
CONTINUOUS
 10
149.9784292936
 20
31.3358647082
 11
150.1518667936
 21
31.4326557675
  0
LINE
  8
0
 62
7
  6
CONTINUOUS
 10
152.2909293626
 20
31.5294468267
 11
152.1753043074
 21
31.4649194539
  0
LINE
  8
0
 62
7
  6
CONTINUOUS
 10
152.1753043074
 20
31.3358647082
 11
152.2909293626
 21
31.400392081
  0
LINE
  8
0
 62
7
  6
CONTINUOUS
 10
151.1924917523
 20
30.6905909007
 11
151.3659292523
 21
30.7873819712
  0
LINE
  8
0
 62
7
  6
CONTINUOUS
 10
150.2096793212
 20
30.6260635193
 11
150.5565542799
 21
30.5937998301
  0
LINE
  8
0
 62
7
  6
CONTINUOUS
 10
154.3143669177
 20
30.6260635193
 11
154.5456166972
 21
30.5937998301
  0
LINE
  8
0
 62
7
  6
CONTINUOUS
 10
152.6956168074
 20
31.4971831403
 11
152.9268669177
 21
31.4649194539
  0
LINE
  8
0
 62
7
  6
CONTINUOUS
 10
155.0081169177
 20
31.4971831403
 11
155.239367028
 21
31.4649194539
  0
LINE
  8
0
 62
7
  6
CONTINUOUS
 10
159.4596793074
 20
31.1422825445
 11
160.442492028
 21
30.9809641124
  0
LINE
  8
0
 62
7
  6
CONTINUOUS
 10
160.615929528
 20
31.0777551716
 11
159.6331168074
 21
31.2390736489
  0
LINE
  8
0
 62
7
  6
CONTINUOUS
 10
153.1003044177
 20
31.5939741996
 11
152.9268669177
 21
31.626237886
  0
LINE
  8
0
 62
7
  6
CONTINUOUS
 10
159.401867028
 20
30.6583272086
 11
159.575304528
 21
30.6260635193
  0
LINE
  8
0
 62
7
  6
CONTINUOUS
 10
158.2456168074
 20
31.5939741996
 11
158.0721793074
 21
31.626237886
  0
LINE
  8
0
 62
7
  6
CONTINUOUS
 10
160.5003043074
 20
31.4649194539
 11
160.615929528
 21
31.4326557675
  0
LINE
  8
0
 62
7
  6
CONTINUOUS
 10
160.6737418074
 20
30.8519093441
 11
160.615929528
 21
30.7873819712
  0
LINE
  8
0
 62
7
  6
CONTINUOUS
 10
159.228429528
 20
31.5294468267
 11
159.1128043074
 21
31.4326557675
  0
LINE
  8
0
 62
7
  6
CONTINUOUS
 10
154.1409294177
 20
31.5617105132
 11
154.0253041972
 21
31.4971831403
  0
LINE
  8
0
 62
7
  6
CONTINUOUS
 10
154.1987416972
 20
31.1745462761
 11
154.0831168074
 21
31.1100188581
  0
LINE
  8
0
 62
7
  6
CONTINUOUS
 10
154.3143669177
 20
31.0132277988
 11
154.4299918074
 21
31.0777551716
  0
LINE
  8
0
 62
7
  6
CONTINUOUS
 10
151.8862417523
 20
30.5937998301
 11
152.1753043074
 21
30.5937998301
  0
LINE
  8
0
 62
7
  6
CONTINUOUS
 10
153.2159293074
 20
30.5937998301
 11
153.5049916972
 21
30.5937998301
  0
LINE
  8
0
 62
7
  6
CONTINUOUS
 10
154.5456166972
 20
30.5937998301
 11
154.8924916972
 21
30.5937998301
  0
LINE
  8
0
 62
7
  6
CONTINUOUS
 10
155.5284290869
 20
30.5937998301
 11
155.8174918074
 21
30.5937998301
  0
LINE
  8
0
 62
7
  6
CONTINUOUS
 10
156.279992028
 20
30.5937998301
 11
156.5690540869
 21
30.5937998301
  0
LINE
  8
0
 62
7
  6
CONTINUOUS
 10
157.0315543074
 20
30.5937998301
 11
157.320617028
 21
30.5937998301
  0
LINE
  8
0
 62
7
  6
CONTINUOUS
 10
158.361242028
 20
30.5937998301
 11
158.6503040869
 21
30.5937998301
  0
LINE
  8
0
 62
7
  6
CONTINUOUS
 10
159.922179528
 20
30.5937998301
 11
160.269054528
 21
30.5937998301
  0
LINE
  8
0
 62
7
  6
CONTINUOUS
 10
160.269054528
 20
30.7228545871
 11
159.922179528
 21
30.7228545871
  0
LINE
  8
0
 62
7
  6
CONTINUOUS
 10
154.8924916972
 20
30.7228545871
 11
154.5456166972
 21
30.7228545871
  0
LINE
  8
0
 62
7
  6
CONTINUOUS
 10
159.401867028
 20
30.8519093441
 11
159.1128043074
 21
30.8519093441
  0
LINE
  8
0
 62
7
  6
CONTINUOUS
 10
151.4237418626
 20
30.9164367395
 11
151.1346793074
 21
30.9164367395
  0
LINE
  8
0
 62
7
  6
CONTINUOUS
 10
150.498741835
 20
31.4971831403
 11
150.9034292799
 21
31.4649194539
  0
LINE
  8
0
 62
7
  6
CONTINUOUS
 10
150.9612418074
 20
31.5939741996
 11
150.5565542799
 21
31.626237886
  0
LINE
  8
0
 62
7
  6
CONTINUOUS
 10
159.575304528
 20
30.6260635193
 11
159.922179528
 21
30.5937998301
  0
LINE
  8
0
 62
7
  6
CONTINUOUS
 10
159.922179528
 20
30.7228545871
 11
159.575304528
 21
30.7551182848
  0
LINE
  8
0
 62
7
  6
CONTINUOUS
 10
155.3549915869
 20
31.5939741996
 11
155.0081169177
 21
31.626237886
  0
LINE
  8
0
 62
7
  6
CONTINUOUS
 10
160.1534293074
 20
31.4971831403
 11
160.5003043074
 21
31.4649194539
  0
LINE
  8
0
 62
7
  6
CONTINUOUS
 10
160.5003043074
 20
31.5939741996
 11
160.1534293074
 21
31.626237886
  0
LINE
  8
0
 62
7
  6
CONTINUOUS
 10
157.840929528
 20
31.4971831403
 11
158.0721793074
 21
31.4649194539
  0
LINE
  8
0
 62
7
  6
CONTINUOUS
 10
160.6737418074
 20
31.5617105132
 11
160.5003043074
 21
31.5939741996
  0
LINE
  8
0
 62
7
  6
CONTINUOUS
 10
160.8471793074
 20
30.6905909007
 11
160.9628038663
 21
30.7873819712
  0
LINE
  8
0
 62
7
  6
CONTINUOUS
 10
155.3549915869
 20
30.8841730531
 11
155.1815540869
 21
30.7873819712
  0
LINE
  8
0
 62
7
  6
CONTINUOUS
 10
157.4362415869
 20
31.5294468267
 11
157.320617028
 21
31.4649194539
  0
LINE
  8
0
 62
7
  6
CONTINUOUS
 10
157.320617028
 20
31.3358647082
 11
157.4362415869
 21
31.400392081
  0
LINE
  8
0
 62
7
  6
CONTINUOUS
 10
150.0362418212
 20
31.5617105132
 11
149.8628043005
 21
31.4971831403
  0
LINE
  8
0
 62
7
  6
CONTINUOUS
 10
152.4643666972
 20
31.5939741996
 11
152.2909293626
 21
31.5294468267
  0
LINE
  8
0
 62
7
  6
CONTINUOUS
 10
152.2909293626
 20
31.400392081
 11
152.4643666972
 21
31.4649194539
  0
LINE
  8
0
 62
7
  6
CONTINUOUS
 10
151.0768668626
 20
30.8196456577
 11
150.9034292799
 21
30.7551182848
  0
LINE
  8
0
 62
7
  6
CONTINUOUS
 10
160.5003043074
 20
30.7551182848
 11
160.269054528
 21
30.7228545871
  0
LINE
  8
0
 62
7
  6
CONTINUOUS
 10
154.8924916972
 20
30.5937998301
 11
155.1815540869
 21
30.6260635193
  0
LINE
  8
0
 62
7
  6
CONTINUOUS
 10
160.269054528
 20
30.5937998301
 11
160.615929528
 21
30.6260635193
  0
LINE
  8
0
 62
7
  6
CONTINUOUS
 10
150.5565542799
 20
30.5937998301
 11
150.9612418074
 21
30.6260635193
  0
LINE
  8
0
 62
7
  6
CONTINUOUS
 10
150.9034292799
 20
30.7551182848
 11
150.498741835
 21
30.7228545871
  0
LINE
  8
0
 62
7
  6
CONTINUOUS
 10
154.7768668074
 20
31.1422825445
 11
155.412804528
 21
31.1422825445
  0
LINE
  8
0
 62
7
  6
CONTINUOUS
 10
155.412804528
 20
31.2713373354
 11
154.7768668074
 21
31.2713373354
  0
LINE
  8
0
 62
7
  6
CONTINUOUS
 10
151.1346793074
 20
31.3036010218
 11
151.4237418626
 21
31.3036010218
  0
LINE
  8
0
 62
7
  6
CONTINUOUS
 10
153.9674919177
 20
31.3681283946
 11
154.2565543074
 21
31.3681283946
  0
LINE
  8
0
 62
7
  6
CONTINUOUS
 10
160.6737418074
 20
31.3681283946
 11
160.9628038663
 21
31.3681283946
  0
LINE
  8
0
 62
7
  6
CONTINUOUS
 10
154.6612419177
 20
31.4971831403
 11
155.0081169177
 21
31.4971831403
  0
LINE
  8
0
 62
7
  6
CONTINUOUS
 10
159.8065543074
 20
31.4971831403
 11
160.1534293074
 21
31.4971831403
  0
LINE
  8
0
 62
7
  6
CONTINUOUS
 10
160.1534293074
 20
31.626237886
 11
159.8065543074
 21
31.626237886
  0
LINE
  8
0
 62
7
  6
CONTINUOUS
 10
158.0721793074
 20
31.626237886
 11
157.840929528
 21
31.626237886
  0
LINE
  8
0
 62
7
  6
CONTINUOUS
 10
157.320617028
 20
31.626237886
 11
157.0315543074
 21
31.626237886
  0
LINE
  8
0
 62
7
  6
CONTINUOUS
 10
156.5690540869
 20
31.626237886
 11
156.279992028
 21
31.626237886
  0
LINE
  8
0
 62
7
  6
CONTINUOUS
 10
155.0081169177
 20
31.626237886
 11
154.6612419177
 21
31.626237886
  0
LINE
  8
0
 62
7
  6
CONTINUOUS
 10
152.9268669177
 20
31.626237886
 11
152.6956168074
 21
31.626237886
  0
LINE
  8
0
 62
7
  6
CONTINUOUS
 10
156.279992028
 20
31.9488748406
 11
156.5690540869
 21
31.9488748406
  0
LINE
  8
0
 62
7
  6
CONTINUOUS
 10
156.5690540869
 20
32.1101932727
 11
156.279992028
 21
32.1101932727
  0
LINE
  8
0
 62
7
  6
CONTINUOUS
 10
152.1753043074
 20
32.1101932727
 11
151.8862417523
 21
32.1101932727
  0
LINE
  8
0
 62
7
  6
CONTINUOUS
 10
151.2130860697
 20
32.3970785186
 11
151.6256574183
 21
32.3970785186
  0
LINE
  8
0
 62
7
  6
CONTINUOUS
 10
152.852430332
 20
32.3970785186
 11
154.245872955
 21
32.3970785186
  0
LINE
  8
0
 62
7
  6
CONTINUOUS
 10
154.5737418074
 20
32.3970785186
 11
155.9671844304
 21
32.3970785186
  0
LINE
  8
0
 62
7
  6
CONTINUOUS
 10
157.852430332
 20
32.3970785186
 11
159.245872955
 21
32.3970785186
  0
LINE
  8
0
 62
7
  6
CONTINUOUS
 10
159.5737418074
 20
32.3970785186
 11
160.9671844304
 21
32.3970785186
  0
LINE
  8
0
 62
7
  6
CONTINUOUS
 10
157.6096790869
 20
31.5939741996
 11
157.4362415869
 21
31.5294468267
  0
LINE
  8
0
 62
7
  6
CONTINUOUS
 10
155.1815540869
 20
30.6260635193
 11
155.3549915869
 21
30.6905909007
  0
LINE
  8
0
 62
7
  6
CONTINUOUS
 10
160.615929528
 20
30.6260635193
 11
160.8471793074
 21
30.6905909007
  0
LINE
  8
0
 62
7
  6
CONTINUOUS
 10
160.615929528
 20
30.7873819712
 11
160.5003043074
 21
30.7551182848
  0
LINE
  8
0
 62
7
  6
CONTINUOUS
 10
159.575304528
 20
31.4649194539
 11
159.8065543074
 21
31.4971831403
  0
LINE
  8
0
 62
7
  6
CONTINUOUS
 10
157.6096790869
 20
31.4649194539
 11
157.840929528
 21
31.4971831403
  0
LINE
  8
0
 62
7
  6
CONTINUOUS
 10
154.5456166972
 20
31.1100188581
 11
154.7768668074
 21
31.1422825445
  0
LINE
  8
0
 62
7
  6
CONTINUOUS
 10
157.840929528
 20
31.626237886
 11
157.6096790869
 21
31.5939741996
  0
LINE
  8
0
 62
7
  6
CONTINUOUS
 10
154.4299918074
 20
31.4649194539
 11
154.6612419177
 21
31.4971831403
  0
LINE
  8
0
 62
7
  6
CONTINUOUS
 10
159.8065543074
 20
31.626237886
 11
159.4596793074
 21
31.5939741996
  0
LINE
  8
0
 62
7
  6
CONTINUOUS
 10
154.7768668074
 20
31.2713373354
 11
154.4299918074
 21
31.2390736489
  0
LINE
  8
0
 62
7
  6
CONTINUOUS
 10
150.5565542799
 20
31.626237886
 11
150.2096793212
 21
31.5939741996
  0
LINE
  8
0
 62
7
  6
CONTINUOUS
 10
154.6612419177
 20
31.626237886
 11
154.2565543074
 21
31.5939741996
  0
LINE
  8
0
 62
7
  6
CONTINUOUS
 10
152.0327582009
 20
33.5446195022
 11
151.3770204959
 21
33.5446195022
  0
LINE
  8
0
 62
7
  6
CONTINUOUS
 10
157.4362415869
 20
31.400392081
 11
157.6096790869
 21
31.4649194539
  0
LINE
  8
0
 62
7
  6
CONTINUOUS
 10
159.4596793074
 20
31.4326557675
 11
159.575304528
 21
31.4649194539
  0
LINE
  8
0
 62
7
  6
CONTINUOUS
 10
159.4596793074
 20
31.5939741996
 11
159.228429528
 21
31.5294468267
  0
LINE
  8
0
 62
7
  6
CONTINUOUS
 10
155.1815540869
 20
30.7873819712
 11
154.8924916972
 21
30.7228545871
  0
LINE
  8
0
 62
7
  6
CONTINUOUS
 10
152.4643666972
 20
31.4649194539
 11
152.6956168074
 21
31.4971831403
  0
LINE
  8
0
 62
7
  6
CONTINUOUS
 10
152.6956168074
 20
31.626237886
 11
152.4643666972
 21
31.5939741996
  0
LINE
  8
0
 62
7
  6
CONTINUOUS
 10
150.2674918074
 20
31.4649194539
 11
150.498741835
 21
31.4971831403
  0
LINE
  8
0
 62
7
  6
CONTINUOUS
 10
156.7868565615
 20
35.0200293383
 11
157.4425942664
 21
35.0200293383
  0
LINE
  8
0
 62
7
  6
CONTINUOUS
 10
154.4299918074
 20
31.0777551716
 11
154.5456166972
 21
31.1100188581
  0
LINE
  8
0
 62
7
  6
CONTINUOUS
 10
154.4299918074
 20
31.2390736489
 11
154.1987416972
 21
31.1745462761
  0
LINE
  8
0
 62
7
  6
CONTINUOUS
 10
154.3143669177
 20
31.4326557675
 11
154.4299918074
 21
31.4649194539
  0
LINE
  8
0
 62
7
  6
CONTINUOUS
 10
150.9612418074
 20
30.6260635193
 11
151.1924917523
 21
30.6905909007
  0
LINE
  8
0
 62
7
  6
CONTINUOUS
 10
154.2565543074
 20
31.5939741996
 11
154.1409294177
 21
31.5617105132
  0
LINE
  8
0
 62
7
  6
CONTINUOUS
 10
150.2096793212
 20
31.5939741996
 11
150.0362418212
 21
31.5617105132
  0
LINE
  8
0
 62
7
  6
CONTINUOUS
 10
160.9671844304
 20
36.1675703219
 11
159.5737418074
 21
36.1675703219
  0
LINE
  8
0
 62
7
  6
CONTINUOUS
 10
157.6065286927
 20
36.1675703219
 11
157.1939573441
 21
36.1675703219
  0
LINE
  8
0
 62
7
  6
CONTINUOUS
 10
155.9671844304
 20
36.1675703219
 11
154.5737418074
 21
36.1675703219
  0
LINE
  8
0
 62
7
  6
CONTINUOUS
 10
154.245872955
 20
36.1675703219
 11
152.852430332
 21
36.1675703219
  0
LINE
  8
0
 62
7
  6
CONTINUOUS
 10
150.9671844304
 20
36.1675703219
 11
149.5737418074
 21
36.1675703219
  0
LINE
  8
0
 62
7
  6
CONTINUOUS
 10
150.1518667936
 20
31.4326557675
 11
150.2674918074
 21
31.4649194539
  0
CIRCLE
  8
0
 62
7
  6
CONTINUOUS
 10
160.2704631189
 20
38.5036358957
 40
2.0901639344
  0
ARC
  8
0
 62
7
  6
CONTINUOUS
 10
151.2130860697
 20
34.0364227809
 40
1.6393442623
 50
180.0
 51
270.0
  0
ARC
  8
0
 62
7
  6
CONTINUOUS
 10
157.6065286927
 20
34.5282260596
 40
1.6393442623
 50
0.0
 51
90.0
  0
ARC
  8
0
 62
7
  6
CONTINUOUS
 10
151.6256574183
 20
33.8724883547
 40
1.4754098361
 50
270.0
 51
326.2510114041
  0
ARC
  8
0
 62
7
  6
CONTINUOUS
 10
157.1939573441
 20
34.6921604858
 40
1.4754098361
 50
90.0
 51
146.2510114041
  0
ARC
  8
0
 62
7
  6
CONTINUOUS
 10
152.0327582009
 20
34.3642916334
 40
0.8196721311
 50
270.0
 51
360.0
  0
ARC
  8
0
 62
7
  6
CONTINUOUS
 10
156.7868565615
 20
34.2003572071
 40
0.8196721311
 50
90.0
 51
180.0
  0
ARC
  8
0
 62
7
  6
CONTINUOUS
 10
151.3770204959
 20
33.9544555678
 40
0.4098360656
 50
180.0
 51
270.0
  0
ARC
  8
0
 62
7
  6
CONTINUOUS
 10
157.4425942664
 20
34.6101932727
 40
0.4098360656
 50
0.0
 51
90.0
  0
SOLID
  8
0
 62
7
  6
CONTINUOUS
 10
156.279992028
 20
31.9488752009
 11
156.279992028
 21
32.1101936845
 12
156.5690540869
 22
31.9488752009
 13
156.5690540869
 23
32.1101936845
  0
SOLID
  8
0
 62
7
  6
CONTINUOUS
 10
150.5565542799
 20
31.6262382337
 11
150.9612418074
 21
31.5939740028
 12
150.2096793212
 22
31.5939740028
 13
150.2096793212
 23
31.5939740028
  0
SOLID
  8
0
 62
7
  6
CONTINUOUS
 10
150.0362418212
 20
31.5617111435
 11
150.2096793212
 21
31.5939740028
 12
150.9612418074
 22
31.5939740028
 13
150.9612418074
 23
31.5939740028
  0
SOLID
  8
0
 62
7
  6
CONTINUOUS
 10
150.9612418074
 20
31.5939740028
 11
151.1924917523
 21
31.5294468402
 12
150.0362418212
 22
31.5617111435
 13
150.0362418212
 23
31.5617111435
  0
SOLID
  8
0
 62
7
  6
CONTINUOUS
 10
149.8628043005
 20
31.49718259
 11
150.0362418212
 21
31.5617111435
 12
151.1924917523
 22
31.5294468402
 13
151.1924917523
 23
31.5294468402
  0
SOLID
  8
0
 62
7
  6
CONTINUOUS
 10
149.8628043005
 20
31.49718259
 11
151.1924917523
 21
31.5294468402
 12
150.498741835
 22
31.49718259
 13
150.498741835
 23
31.49718259
  0
SOLID
  8
0
 62
7
  6
CONTINUOUS
 10
150.498741835
 20
31.49718259
 11
151.1924917523
 21
31.5294468402
 12
150.9034292799
 22
31.4649197501
 13
150.9034292799
 23
31.4649197501
  0
SOLID
  8
0
 62
7
  6
CONTINUOUS
 10
151.1924917523
 20
31.5294468402
 11
151.3659292523
 21
31.4326554468
 12
150.9034292799
 22
31.4649197501
 13
150.9034292799
 23
31.4649197501
  0
SOLID
  8
0
 62
7
  6
CONTINUOUS
 10
151.0768668626
 20
31.4003926599
 11
150.9034292799
 21
31.4649197501
 12
151.3659292523
 22
31.4326554468
 13
151.3659292523
 23
31.4326554468
  0
SOLID
  8
0
 62
7
  6
CONTINUOUS
 10
151.0768668626
 20
31.4003926599
 11
151.3659292523
 21
31.4326554468
 12
151.1346793074
 22
31.3036013776
 13
151.1346793074
 23
31.3036013776
  0
SOLID
  8
0
 62
7
  6
CONTINUOUS
 10
151.3659292523
 20
31.4326554468
 11
151.4237418626
 21
31.3036013776
 12
151.1346793074
 22
31.3036013776
 13
151.1346793074
 23
31.3036013776
  0
SOLID
  8
0
 62
7
  6
CONTINUOUS
 10
152.4643666972
 20
31.5939739754
 11
152.6956168074
 21
31.6262382787
 12
152.9268669177
 22
31.6262382787
 13
152.9268669177
 23
31.6262382787
  0
SOLID
  8
0
 62
7
  6
CONTINUOUS
 10
152.9268669177
 20
31.6262382787
 11
153.1003044177
 21
31.5939739754
 12
152.4643666972
 22
31.5939739754
 13
152.4643666972
 23
31.5939739754
  0
SOLID
  8
0
 62
7
  6
CONTINUOUS
 10
152.2909293626
 20
31.5294468852
 11
152.4643666972
 21
31.5939739754
 12
153.1003044177
 22
31.5939739754
 13
153.1003044177
 23
31.5939739754
  0
SOLID
  8
0
 62
7
  6
CONTINUOUS
 10
153.1003044177
 20
31.5939739754
 11
153.2737419177
 21
31.5294468852
 12
152.2909293626
 22
31.5294468852
 13
152.2909293626
 23
31.5294468852
  0
SOLID
  8
0
 62
7
  6
CONTINUOUS
 10
153.2737419177
 20
31.5294468852
 11
152.6956168074
 21
31.4971825369
 12
152.2909293626
 22
31.5294468852
 13
152.2909293626
 23
31.5294468852
  0
SOLID
  8
0
 62
7
  6
CONTINUOUS
 10
152.1753043074
 20
31.4649197951
 11
152.2909293626
 21
31.5294468852
 12
152.6956168074
 22
31.4971825369
 13
152.6956168074
 23
31.4971825369
  0
SOLID
  8
0
 62
7
  6
CONTINUOUS
 10
152.6956168074
 20
31.4971825369
 11
152.4643666972
 21
31.4649197951
 12
152.1753043074
 22
31.4649197951
 13
152.1753043074
 23
31.4649197951
  0
SOLID
  8
0
 62
7
  6
CONTINUOUS
 10
152.6956168074
 20
31.4971825369
 11
153.2737419177
 21
31.5294468852
 12
152.9268669177
 22
31.4649197951
 13
152.9268669177
 23
31.4649197951
  0
SOLID
  8
0
 62
7
  6
CONTINUOUS
 10
153.2737419177
 20
31.5294468852
 11
153.3893668074
 21
31.4649197951
 12
152.9268669177
 22
31.4649197951
 13
152.9268669177
 23
31.4649197951
  0
SOLID
  8
0
 62
7
  6
CONTINUOUS
 10
153.0424918074
 20
31.4326554468
 11
152.9268669177
 21
31.4649197951
 12
153.3893668074
 22
31.4649197951
 13
153.3893668074
 23
31.4649197951
  0
SOLID
  8
0
 62
7
  6
CONTINUOUS
 10
153.3893668074
 20
31.4649197951
 11
153.4471794177
 21
31.4003927049
 12
153.0424918074
 22
31.4326554468
 13
153.0424918074
 23
31.4326554468
  0
SOLID
  8
0
 62
7
  6
CONTINUOUS
 10
153.1581166972
 20
31.3681283566
 11
153.0424918074
 21
31.4326554468
 12
153.4471794177
 22
31.4003927049
 13
153.4471794177
 23
31.4003927049
  0
SOLID
  8
0
 62
7
  6
CONTINUOUS
 10
153.1581166972
 20
31.3681283566
 11
153.4471794177
 21
31.4003927049
 12
153.2159293074
 22
31.2390742213
 13
153.2159293074
 23
31.2390742213
  0
SOLID
  8
0
 62
7
  6
CONTINUOUS
 10
153.4471794177
 20
31.4003927049
 11
153.5049916972
 21
31.2390742213
 12
153.2159293074
 22
31.2390742213
 13
153.2159293074
 23
31.2390742213
  0
SOLID
  8
0
 62
7
  6
CONTINUOUS
 10
152.4643666972
 20
31.4649197951
 11
152.2909293626
 21
31.4003927049
 12
152.1753043074
 22
31.4649197951
 13
152.1753043074
 23
31.4649197951
  0
SOLID
  8
0
 62
7
  6
CONTINUOUS
 10
152.2909293626
 20
31.4003927049
 11
152.1753043074
 21
31.3358640533
 12
152.1753043074
 22
31.4649197951
 13
152.1753043074
 23
31.4649197951
  0
SOLID
  8
0
 62
7
  6
CONTINUOUS
 10
152.1753043074
 20
31.3358640533
 11
151.8862417523
 21
30.5938002869
 12
152.1753043074
 22
31.4649197951
 13
152.1753043074
 23
31.4649197951
  0
SOLID
  8
0
 62
7
  6
CONTINUOUS
 10
152.1753043074
 20
31.4649197951
 11
151.8862417523
 21
30.5938002869
 12
152.1753043074
 22
32.1101937295
 13
152.1753043074
 23
32.1101937295
  0
SOLID
  8
0
 62
7
  6
CONTINUOUS
 10
151.8862417523
 20
30.5938002869
 11
151.8862417523
 21
32.1101937295
 12
152.1753043074
 22
32.1101937295
 13
152.1753043074
 23
32.1101937295
  0
SOLID
  8
0
 62
7
  6
CONTINUOUS
 10
152.1753043074
 20
31.3358640533
 11
152.1753043074
 21
30.5938002869
 12
151.8862417523
 22
30.5938002869
 13
151.8862417523
 23
30.5938002869
  0
SOLID
  8
0
 62
7
  6
CONTINUOUS
 10
153.2159293074
 20
30.5938002869
 11
153.2159293074
 21
31.2390742213
 12
153.5049916972
 22
31.2390742213
 13
153.5049916972
 23
31.2390742213
  0
SOLID
  8
0
 62
7
  6
CONTINUOUS
 10
153.5049916972
 20
31.2390742213
 11
153.5049916972
 21
30.5938002869
 12
153.2159293074
 22
30.5938002869
 13
153.2159293074
 23
30.5938002869
  0
SOLID
  8
0
 62
7
  6
CONTINUOUS
 10
154.2565543074
 20
31.5939738288
 11
154.6612419177
 21
31.6262385959
 12
155.0081169177
 22
31.6262385959
 13
155.0081169177
 23
31.6262385959
  0
SOLID
  8
0
 62
7
  6
CONTINUOUS
 10
155.0081169177
 20
31.6262385959
 11
155.3549915869
 21
31.5939738288
 12
154.2565543074
 22
31.5939738288
 13
154.2565543074
 23
31.5939738288
  0
SOLID
  8
0
 62
7
  6
CONTINUOUS
 10
154.1409294177
 20
31.5617111435
 11
154.2565543074
 21
31.5939738288
 12
155.3549915869
 22
31.5939738288
 13
155.3549915869
 23
31.5939738288
  0
SOLID
  8
0
 62
7
  6
CONTINUOUS
 10
155.3549915869
 20
31.5939738288
 11
155.5284290869
 21
31.5294468402
 12
154.1409294177
 22
31.5617111435
 13
154.1409294177
 23
31.5617111435
  0
SOLID
  8
0
 62
7
  6
CONTINUOUS
 10
154.0253041972
 20
31.4971826249
 11
154.1409294177
 21
31.5617111435
 12
155.5284290869
 22
31.5294468402
 13
155.5284290869
 23
31.5294468402
  0
SOLID
  8
0
 62
7
  6
CONTINUOUS
 10
154.0253041972
 20
31.4971826249
 11
155.5284290869
 21
31.5294468402
 12
154.6612419177
 22
31.4971826249
 13
154.6612419177
 23
31.4971826249
  0
SOLID
  8
0
 62
7
  6
CONTINUOUS
 10
154.6612419177
 20
31.4971826249
 11
155.5284290869
 21
31.5294468402
 12
155.0081169177
 22
31.4971826249
 13
155.0081169177
 23
31.4971826249
  0
SOLID
  8
0
 62
7
  6
CONTINUOUS
 10
155.0081169177
 20
31.4971826249
 11
155.5284290869
 21
31.5294468402
 12
155.239367028
 22
31.4649194065
 13
155.239367028
 23
31.4649194065
  0
SOLID
  8
0
 62
7
  6
CONTINUOUS
 10
155.5284290869
 20
31.5294468402
 11
155.6440543074
 21
31.4649194065
 12
155.239367028
 22
31.4649194065
 13
155.239367028
 23
31.4649194065
  0
SOLID
  8
0
 62
7
  6
CONTINUOUS
 10
153.9674919177
 20
31.4326554138
 11
154.0253041972
 21
31.4971826249
 12
154.6612419177
 22
31.4971826249
 13
154.6612419177
 23
31.4971826249
  0
SOLID
  8
0
 62
7
  6
CONTINUOUS
 10
155.3549915869
 20
31.4326554138
 11
155.239367028
 21
31.4649194065
 12
155.6440543074
 22
31.4649194065
 13
155.6440543074
 23
31.4649194065
  0
SOLID
  8
0
 62
7
  6
CONTINUOUS
 10
155.3549915869
 20
31.4326554138
 11
155.6440543074
 21
31.4649194065
 12
155.412804528
 22
31.3681282026
 13
155.412804528
 23
31.3681282026
  0
SOLID
  8
0
 62
7
  6
CONTINUOUS
 10
155.6440543074
 20
31.4649194065
 11
155.7018665869
 21
31.3681282026
 12
155.412804528
 22
31.3681282026
 13
155.412804528
 23
31.3681282026
  0
SOLID
  8
0
 62
7
  6
CONTINUOUS
 10
155.412804528
 20
31.2713369632
 11
155.412804528
 21
31.3681282026
 12
155.7018665869
 22
31.3681282026
 13
155.7018665869
 23
31.3681282026
  0
SOLID
  8
0
 62
7
  6
CONTINUOUS
 10
155.412804528
 20
31.2713369632
 11
155.7018665869
 21
31.3681282026
 12
155.412804528
 22
31.1422827828
 13
155.412804528
 23
31.1422827828
  0
SOLID
  8
0
 62
7
  6
CONTINUOUS
 10
155.412804528
 20
31.1422827828
 11
155.7018665869
 21
31.3681282026
 12
155.412804528
 22
30.9487004259
 13
155.412804528
 23
30.9487004259
  0
SOLID
  8
0
 62
7
  6
CONTINUOUS
 10
155.7018665869
 20
31.3681282026
 11
155.7018665869
 21
30.8519086025
 12
155.412804528
 22
30.9487004259
 13
155.412804528
 23
30.9487004259
  0
SOLID
  8
0
 62
7
  6
CONTINUOUS
 10
157.6096790869
 20
31.5939736268
 11
157.840929528
 21
31.6262383465
 12
158.0721793074
 22
31.6262383465
 13
158.0721793074
 23
31.6262383465
  0
SOLID
  8
0
 62
7
  6
CONTINUOUS
 10
158.0721793074
 20
31.6262383465
 11
158.2456168074
 21
31.5939736268
 12
157.6096790869
 22
31.5939736268
 13
157.6096790869
 23
31.5939736268
  0
SOLID
  8
0
 62
7
  6
CONTINUOUS
 10
157.4362415869
 20
31.5294472848
 11
157.6096790869
 21
31.5939736268
 12
158.2456168074
 22
31.5939736268
 13
158.2456168074
 23
31.5939736268
  0
SOLID
  8
0
 62
7
  6
CONTINUOUS
 10
158.2456168074
 20
31.5939736268
 11
158.4190543074
 21
31.5294472848
 12
157.4362415869
 22
31.5294472848
 13
157.4362415869
 23
31.5294472848
  0
SOLID
  8
0
 62
7
  6
CONTINUOUS
 10
158.4190543074
 20
31.5294472848
 11
157.840929528
 21
31.4971825369
 12
157.4362415869
 22
31.5294472848
 13
157.4362415869
 23
31.5294472848
  0
SOLID
  8
0
 62
7
  6
CONTINUOUS
 10
157.320617028
 20
31.4649199103
 11
157.4362415869
 21
31.5294472848
 12
157.840929528
 22
31.4971825369
 13
157.840929528
 23
31.4971825369
  0
SOLID
  8
0
 62
7
  6
CONTINUOUS
 10
157.840929528
 20
31.4971825369
 11
157.6096790869
 21
31.4649199103
 12
157.320617028
 22
31.4649199103
 13
157.320617028
 23
31.4649199103
  0
SOLID
  8
0
 62
7
  6
CONTINUOUS
 10
157.840929528
 20
31.4971825369
 11
158.4190543074
 21
31.5294472848
 12
158.0721793074
 22
31.4649199103
 13
158.0721793074
 23
31.4649199103
  0
SOLID
  8
0
 62
7
  6
CONTINUOUS
 10
158.4190543074
 20
31.5294472848
 11
158.534679528
 21
31.4649199103
 12
158.0721793074
 22
31.4649199103
 13
158.0721793074
 23
31.4649199103
  0
SOLID
  8
0
 62
7
  6
CONTINUOUS
 10
158.187804528
 20
31.4326554468
 11
158.0721793074
 21
31.4649199103
 12
158.534679528
 22
31.4649199103
 13
158.534679528
 23
31.4649199103
  0
SOLID
  8
0
 62
7
  6
CONTINUOUS
 10
158.187804528
 20
31.4326554468
 11
158.534679528
 21
31.4649199103
 12
158.3034290869
 22
31.3681288486
 13
158.3034290869
 23
31.3681288486
  0
SOLID
  8
0
 62
7
  6
CONTINUOUS
 10
158.534679528
 20
31.4649199103
 11
158.5924918074
 21
31.3681288486
 12
158.3034290869
 22
31.3681288486
 13
158.3034290869
 23
31.3681288486
  0
SOLID
  8
0
 62
7
  6
CONTINUOUS
 10
158.361242028
 20
31.2068093799
 11
158.3034290869
 21
31.3681288486
 12
158.5924918074
 22
31.3681288486
 13
158.5924918074
 23
31.3681288486
  0
SOLID
  8
0
 62
7
  6
CONTINUOUS
 10
158.5924918074
 20
31.3681288486
 11
158.6503040869
 21
31.2068093799
 12
158.361242028
 22
31.2068093799
 13
158.361242028
 23
31.2068093799
  0
SOLID
  8
0
 62
7
  6
CONTINUOUS
 10
157.6096790869
 20
31.4649199103
 11
157.4362415869
 21
31.4003926599
 12
157.320617028
 22
31.4649199103
 13
157.320617028
 23
31.4649199103
  0
SOLID
  8
0
 62
7
  6
CONTINUOUS
 10
157.4362415869
 20
31.4003926599
 11
157.320617028
 21
31.3358640533
 12
157.320617028
 22
31.4649199103
 13
157.320617028
 23
31.4649199103
  0
SOLID
  8
0
 62
7
  6
CONTINUOUS
 10
157.320617028
 20
31.3358640533
 11
157.0315543074
 21
30.5938003547
 12
157.320617028
 22
31.4649199103
 13
157.320617028
 23
31.4649199103
  0
SOLID
  8
0
 62
7
  6
CONTINUOUS
 10
157.320617028
 20
31.4649199103
 11
157.0315543074
 21
30.5938003547
 12
157.320617028
 22
31.6262383465
 13
157.320617028
 23
31.6262383465
  0
SOLID
  8
0
 62
7
  6
CONTINUOUS
 10
157.0315543074
 20
30.5938003547
 11
157.0315543074
 21
31.6262383465
 12
157.320617028
 22
31.6262383465
 13
157.320617028
 23
31.6262383465
  0
SOLID
  8
0
 62
7
  6
CONTINUOUS
 10
157.320617028
 20
31.3358640533
 11
157.320617028
 21
30.5938003547
 12
157.0315543074
 22
30.5938003547
 13
157.0315543074
 23
30.5938003547
  0
SOLID
  8
0
 62
7
  6
CONTINUOUS
 10
158.361242028
 20
30.5938003547
 11
158.361242028
 21
31.2068093799
 12
158.6503040869
 22
31.2068093799
 13
158.6503040869
 23
31.2068093799
  0
SOLID
  8
0
 62
7
  6
CONTINUOUS
 10
158.6503040869
 20
31.2068093799
 11
158.6503040869
 21
30.5938003547
 12
158.361242028
 22
30.5938003547
 13
158.361242028
 23
30.5938003547
  0
SOLID
  8
0
 62
7
  6
CONTINUOUS
 10
159.4596793074
 20
31.5939739474
 11
159.8065543074
 21
31.6262381969
 12
160.1534293074
 22
31.6262381969
 13
160.1534293074
 23
31.6262381969
  0
SOLID
  8
0
 62
7
  6
CONTINUOUS
 10
160.1534293074
 20
31.6262381969
 11
160.5003043074
 21
31.5939739474
 12
159.4596793074
 22
31.5939739474
 13
159.4596793074
 23
31.5939739474
  0
SOLID
  8
0
 62
7
  6
CONTINUOUS
 10
159.228429528
 20
31.5294468402
 11
159.4596793074
 21
31.5939739474
 12
160.5003043074
 22
31.5939739474
 13
160.5003043074
 23
31.5939739474
  0
SOLID
  8
0
 62
7
  6
CONTINUOUS
 10
159.228429528
 20
31.5294468402
 11
160.5003043074
 21
31.5939739304
 12
160.6737418074
 22
31.5617111435
 13
160.6737418074
 23
31.5617111435
  0
SOLID
  8
0
 62
7
  6
CONTINUOUS
 10
159.228429528
 20
31.5294468402
 11
160.6737418074
 21
31.5617111435
 12
159.8065543074
 22
31.4971825592
 13
159.8065543074
 23
31.4971825592
  0
SOLID
  8
0
 62
7
  6
CONTINUOUS
 10
159.8065543074
 20
31.4971825592
 11
160.6737418074
 21
31.5617111435
 12
160.1534293074
 22
31.4971825592
 13
160.1534293074
 23
31.4971825592
  0
SOLID
  8
0
 62
7
  6
CONTINUOUS
 10
160.6737418074
 20
31.5617111435
 11
160.8471793074
 21
31.4971825592
 12
160.1534293074
 22
31.4971825592
 13
160.1534293074
 23
31.4971825592
  0
SOLID
  8
0
 62
7
  6
CONTINUOUS
 10
160.5003043074
 20
31.4649197501
 11
160.1534293074
 21
31.4971825592
 12
160.8471793074
 22
31.4971825592
 13
160.8471793074
 23
31.4971825592
  0
SOLID
  8
0
 62
7
  6
CONTINUOUS
 10
159.1128043074
 20
31.4326555427
 11
159.228429528
 21
31.5294468402
 12
159.8065543074
 22
31.4971825592
 13
159.8065543074
 23
31.4971825592
  0
SOLID
  8
0
 62
7
  6
CONTINUOUS
 10
160.5003043074
 20
31.4649197501
 11
160.8471793074
 21
31.4971825592
 12
160.615929528
 22
31.4326555427
 13
160.615929528
 23
31.4326555427
  0
SOLID
  8
0
 62
7
  6
CONTINUOUS
 10
160.615929528
 20
31.4326555427
 11
160.8471793074
 21
31.4971825592
 12
160.6737418074
 22
31.3681283005
 13
160.6737418074
 23
31.3681283005
  0
SOLID
  8
0
 62
7
  6
CONTINUOUS
 10
160.8471793074
 20
31.4971825592
 11
160.9628038663
 21
31.3681283005
 12
160.6737418074
 22
31.3681283005
 13
160.6737418074
 23
31.3681283005
  0
SOLID
  8
0
 62
7
  6
CONTINUOUS
 10
150.2674918074
 20
31.4649197501
 11
149.7471793074
 21
31.4326554237
 12
150.498741835
 22
31.4971824493
 13
150.498741835
 23
31.4971824493
  0
SOLID
  8
0
 62
7
  6
CONTINUOUS
 10
149.7471793074
 20
31.4326554237
 11
149.8628043005
 21
31.4971824493
 12
150.498741835
 22
31.4971824493
 13
150.498741835
 23
31.4971824493
  0
SOLID
  8
0
 62
7
  6
CONTINUOUS
 10
150.2674918074
 20
31.4649197501
 11
150.1518667936
 21
31.4326554237
 12
149.7471793074
 22
31.4326554237
 13
149.7471793074
 23
31.4326554237
  0
SOLID
  8
0
 62
7
  6
CONTINUOUS
 10
149.6315543091
 20
31.3036012664
 11
149.7471793074
 21
31.4326554237
 12
150.1518667936
 22
31.4326554237
 13
150.1518667936
 23
31.4326554237
  0
SOLID
  8
0
 62
7
  6
CONTINUOUS
 10
153.9674919177
 20
31.4326554237
 11
154.6612419177
 21
31.4971825369
 12
154.4299918074
 22
31.4649197501
 13
154.4299918074
 23
31.4649197501
  0
SOLID
  8
0
 62
7
  6
CONTINUOUS
 10
154.4299918074
 20
31.4649197501
 11
154.3143669177
 21
31.4326554237
 12
153.9674919177
 22
31.4326554237
 13
153.9674919177
 23
31.4326554237
  0
SOLID
  8
0
 62
7
  6
CONTINUOUS
 10
153.9674919177
 20
31.3681283335
 11
153.9674919177
 21
31.4326554237
 12
154.3143669177
 22
31.4326554237
 13
154.3143669177
 23
31.4326554237
  0
SOLID
  8
0
 62
7
  6
CONTINUOUS
 10
154.3143669177
 20
31.4326554237
 11
154.2565543074
 21
31.3681283335
 12
153.9674919177
 22
31.3681283335
 13
153.9674919177
 23
31.3681283335
  0
SOLID
  8
0
 62
7
  6
CONTINUOUS
 10
159.1128043074
 20
31.4326555528
 11
159.8065543074
 21
31.4971825369
 12
159.575304528
 22
31.4649197501
 13
159.575304528
 23
31.4649197501
  0
SOLID
  8
0
 62
7
  6
CONTINUOUS
 10
159.575304528
 20
31.4649197501
 11
159.4596793074
 21
31.4326555528
 12
159.1128043074
 22
31.4326555528
 13
159.1128043074
 23
31.4326555528
  0
SOLID
  8
0
 62
7
  6
CONTINUOUS
 10
159.1128043074
 20
31.3681284626
 11
159.1128043074
 21
31.4326555528
 12
159.4596793074
 22
31.4326555528
 13
159.4596793074
 23
31.4326555528
  0
SOLID
  8
0
 62
7
  6
CONTINUOUS
 10
159.4596793074
 20
31.4326555528
 11
159.401867028
 21
31.3681284626
 12
159.1128043074
 22
31.3681284626
 13
159.1128043074
 23
31.3681284626
  0
SOLID
  8
0
 62
7
  6
CONTINUOUS
 10
159.228429528
 20
31.2390741763
 11
159.1128043074
 21
31.3681284626
 12
159.401867028
 22
31.3681284626
 13
159.401867028
 23
31.3681284626
  0
SOLID
  8
0
 62
7
  6
CONTINUOUS
 10
149.6315543091
 20
31.3036012664
 11
150.1518667936
 21
31.4326554468
 12
149.9784292936
 22
31.3358640533
 13
149.9784292936
 23
31.3358640533
  0
SOLID
  8
0
 62
7
  6
CONTINUOUS
 10
149.9784292936
 20
31.3358640533
 11
149.9206168074
 21
31.2713369632
 12
149.6315543091
 22
31.3036012664
 13
149.6315543091
 23
31.3036012664
  0
SOLID
  8
0
 62
7
  6
CONTINUOUS
 10
149.5737418074
 20
31.1100184796
 11
149.6315543091
 21
31.3036012664
 12
149.9206168074
 22
31.2713369632
 13
149.9206168074
 23
31.2713369632
  0
SOLID
  8
0
 62
7
  6
CONTINUOUS
 10
154.4299918074
 20
31.2390741763
 11
154.7768668074
 21
31.271336924
 12
155.412804528
 22
31.271336924
 13
155.412804528
 23
31.271336924
  0
SOLID
  8
0
 62
7
  6
CONTINUOUS
 10
154.4299918074
 20
31.2390741763
 11
155.412804528
 21
31.271336924
 12
154.1987416972
 22
31.1745462761
 13
154.1987416972
 23
31.1745462761
  0
SOLID
  8
0
 62
7
  6
CONTINUOUS
 10
154.1987416972
 20
31.1745462761
 11
155.412804528
 21
31.271336924
 12
154.7768668074
 22
31.1422827436
 13
154.7768668074
 23
31.1422827436
  0
SOLID
  8
0
 62
7
  6
CONTINUOUS
 10
155.412804528
 20
31.271336924
 11
155.412804528
 21
31.1422827436
 12
154.7768668074
 22
31.1422827436
 13
154.7768668074
 23
31.1422827436
  0
SOLID
  8
0
 62
7
  6
CONTINUOUS
 10
159.228429528
 20
31.2390745501
 11
159.401867028
 21
31.3681283566
 12
159.4596793074
 22
31.3036012664
 13
159.4596793074
 23
31.3036012664
  0
SOLID
  8
0
 62
7
  6
CONTINUOUS
 10
159.4596793074
 20
31.3036012664
 11
159.6331168074
 21
31.2390745501
 12
159.228429528
 22
31.2390745501
 13
159.228429528
 23
31.2390745501
  0
SOLID
  8
0
 62
7
  6
CONTINUOUS
 10
159.4596793074
 20
31.1422827828
 11
159.228429528
 21
31.2390745501
 12
159.6331168074
 22
31.2390745501
 13
159.6331168074
 23
31.2390745501
  0
SOLID
  8
0
 62
7
  6
CONTINUOUS
 10
159.6331168074
 20
31.2390745501
 11
160.615929528
 21
31.0777556927
 12
159.4596793074
 22
31.1422827828
 13
159.4596793074
 23
31.1422827828
  0
SOLID
  8
0
 62
7
  6
CONTINUOUS
 10
160.442492028
 20
30.9809646623
 11
159.4596793074
 21
31.1422827828
 12
160.615929528
 22
31.0777556927
 13
160.615929528
 23
31.0777556927
  0
SOLID
  8
0
 62
7
  6
CONTINUOUS
 10
160.615929528
 20
31.0777556927
 11
160.8471793074
 21
30.9809646623
 12
160.442492028
 22
30.9809646623
 13
160.442492028
 23
30.9809646623
  0
SOLID
  8
0
 62
7
  6
CONTINUOUS
 10
160.615929528
 20
30.9164372091
 11
160.442492028
 21
30.9809646623
 12
160.8471793074
 22
30.9809646623
 13
160.8471793074
 23
30.9809646623
  0
SOLID
  8
0
 62
7
  6
CONTINUOUS
 10
160.615929528
 20
30.9164372091
 11
160.8471793074
 21
30.9809646623
 12
160.6737418074
 22
30.8519089441
 13
160.6737418074
 23
30.8519089441
  0
SOLID
  8
0
 62
7
  6
CONTINUOUS
 10
160.8471793074
 20
30.9809646623
 11
160.9628038663
 21
30.8519089441
 12
160.6737418074
 22
30.8519089441
 13
160.6737418074
 23
30.8519089441
  0
SOLID
  8
0
 62
7
  6
CONTINUOUS
 10
160.615929528
 20
30.7873818593
 11
160.6737418074
 21
30.8519089441
 12
160.9628038663
 22
30.8519089441
 13
160.9628038663
 23
30.8519089441
  0
SOLID
  8
0
 62
7
  6
CONTINUOUS
 10
160.9628038663
 20
30.8519089441
 11
160.9628038663
 21
30.7873818593
 12
160.615929528
 22
30.7873818593
 13
160.615929528
 23
30.7873818593
  0
SOLID
  8
0
 62
7
  6
CONTINUOUS
 10
160.5003043074
 20
30.7551187255
 11
160.615929528
 21
30.7873818593
 12
160.9628038663
 22
30.7873818593
 13
160.9628038663
 23
30.7873818593
  0
SOLID
  8
0
 62
7
  6
CONTINUOUS
 10
160.5003043074
 20
30.7551187255
 11
160.9628038663
 21
30.7873818593
 12
160.269054528
 22
30.7228547745
 13
160.269054528
 23
30.7228547745
  0
SOLID
  8
0
 62
7
  6
CONTINUOUS
 10
160.9628038663
 20
30.7873818593
 11
160.8471793074
 21
30.6905916353
 12
160.269054528
 22
30.7228547745
 13
160.269054528
 23
30.7228547745
  0
SOLID
  8
0
 62
7
  6
CONTINUOUS
 10
160.8471793074
 20
30.6905916353
 11
159.401867028
 21
30.658327332
 12
160.269054528
 22
30.7228547745
 13
160.269054528
 23
30.7228547745
  0
SOLID
  8
0
 62
7
  6
CONTINUOUS
 10
160.269054528
 20
30.7228547745
 11
159.401867028
 21
30.658327332
 12
159.922179528
 22
30.7228547745
 13
159.922179528
 23
30.7228547745
  0
SOLID
  8
0
 62
7
  6
CONTINUOUS
 10
159.401867028
 20
30.658327332
 11
159.228429528
 21
30.7228547745
 12
159.922179528
 22
30.7228547745
 13
159.922179528
 23
30.7228547745
  0
SOLID
  8
0
 62
7
  6
CONTINUOUS
 10
159.401867028
 20
30.658327332
 11
160.8471793074
 21
30.6905916353
 12
159.575304528
 22
30.6260629858
 13
159.575304528
 23
30.6260629858
  0
SOLID
  8
0
 62
7
  6
CONTINUOUS
 10
160.8471793074
 20
30.6905916353
 11
160.615929528
 21
30.6260629858
 12
159.575304528
 22
30.6260629858
 13
159.575304528
 23
30.6260629858
  0
SOLID
  8
0
 62
7
  6
CONTINUOUS
 10
159.922179528
 20
30.5938006049
 11
159.575304528
 21
30.6260629858
 12
160.615929528
 22
30.6260629858
 13
160.615929528
 23
30.6260629858
  0
SOLID
  8
0
 62
7
  6
CONTINUOUS
 10
160.615929528
 20
30.6260629858
 11
160.269054528
 21
30.5938006049
 12
159.922179528
 22
30.5938006049
 13
159.922179528
 23
30.5938006049
  0
SOLID
  8
0
 62
7
  6
CONTINUOUS
 10
149.5737418074
 20
31.1100184796
 11
149.9206168074
 21
31.2713369632
 12
149.8628043005
 22
31.1422827828
 13
149.8628043005
 23
31.1422827828
  0
SOLID
  8
0
 62
7
  6
CONTINUOUS
 10
149.8628043005
 20
31.1422827828
 11
149.8628043005
 21
31.0454914852
 12
149.5737418074
 22
31.1100184796
 13
149.5737418074
 23
31.1100184796
  0
SOLID
  8
0
 62
7
  6
CONTINUOUS
 10
149.6315543091
 20
30.9164372091
 11
149.5737418074
 21
31.1100184796
 12
149.8628043005
 22
31.0454914852
 13
149.8628043005
 23
31.0454914852
  0
SOLID
  8
0
 62
7
  6
CONTINUOUS
 10
149.8628043005
 20
31.0454914852
 11
149.9784292936
 21
30.8841729058
 12
149.6315543091
 22
30.9164372091
 13
149.6315543091
 23
30.9164372091
  0
SOLID
  8
0
 62
7
  6
CONTINUOUS
 10
149.7471793074
 20
30.7873813202
 11
149.6315543091
 21
30.9164372091
 12
149.9784292936
 22
30.8841729058
 13
149.9784292936
 23
30.8841729058
  0
SOLID
  8
0
 62
7
  6
CONTINUOUS
 10
149.9784292936
 20
30.8841729058
 11
150.1518667936
 21
30.7873813202
 12
149.7471793074
 22
30.7873813202
 13
149.7471793074
 23
30.7873813202
  0
SOLID
  8
0
 62
7
  6
CONTINUOUS
 10
149.8628043005
 20
30.7228547004
 11
149.7471793074
 21
30.7873813202
 12
150.1518667936
 22
30.7873813202
 13
150.1518667936
 23
30.7873813202
  0
SOLID
  8
0
 62
7
  6
CONTINUOUS
 10
150.1518667936
 20
30.7873813202
 11
150.498741835
 21
30.7228547004
 12
149.8628043005
 22
30.7228547004
 13
149.8628043005
 23
30.7228547004
  0
SOLID
  8
0
 62
7
  6
CONTINUOUS
 10
150.0362418212
 20
30.658327332
 11
149.8628043005
 21
30.7228547004
 12
150.498741835
 22
30.7228547004
 13
150.498741835
 23
30.7228547004
  0
SOLID
  8
0
 62
7
  6
CONTINUOUS
 10
154.0831168074
 20
31.1100184386
 11
154.1987416972
 21
31.1745462761
 12
154.7768668074
 22
31.1422827828
 13
154.7768668074
 23
31.1422827828
  0
SOLID
  8
0
 62
7
  6
CONTINUOUS
 10
154.7768668074
 20
31.1422827828
 11
154.5456166972
 21
31.1100184386
 12
154.0831168074
 22
31.1100184386
 13
154.0831168074
 23
31.1100184386
  0
SOLID
  8
0
 62
7
  6
CONTINUOUS
 10
153.9674919177
 20
30.9809642992
 11
154.0831168074
 21
31.1100184386
 12
154.5456166972
 22
31.1100184386
 13
154.5456166972
 23
31.1100184386
  0
SOLID
  8
0
 62
7
  6
CONTINUOUS
 10
154.3143669177
 20
31.0132277988
 11
153.9674919177
 21
30.9809642992
 12
154.4299918074
 22
31.0777556927
 13
154.4299918074
 23
31.0777556927
  0
SOLID
  8
0
 62
7
  6
CONTINUOUS
 10
153.9674919177
 20
30.9809642992
 11
154.5456166972
 21
31.1100184796
 12
154.4299918074
 22
31.0777556927
 13
154.4299918074
 23
31.0777556927
  0
SOLID
  8
0
 62
7
  6
CONTINUOUS
 10
154.3143669177
 20
31.0132277988
 11
154.2565543074
 21
30.9164372091
 12
153.9674919177
 22
30.9809642992
 13
153.9674919177
 23
30.9809642992
  0
SOLID
  8
0
 62
7
  6
CONTINUOUS
 10
153.9674919177
 20
30.8841729058
 11
153.9674919177
 21
30.9809642992
 12
154.2565543074
 22
30.9164372091
 13
154.2565543074
 23
30.9164372091
  0
SOLID
  8
0
 62
7
  6
CONTINUOUS
 10
154.2565543074
 20
30.9164372091
 11
154.2565543074
 21
30.8519086025
 12
153.9674919177
 22
30.8841729058
 13
153.9674919177
 23
30.8841729058
  0
SOLID
  8
0
 62
7
  6
CONTINUOUS
 10
154.0253041972
 20
30.7551187255
 11
153.9674919177
 21
30.8841729058
 12
154.2565543074
 22
30.8519086025
 13
154.2565543074
 23
30.8519086025
  0
SOLID
  8
0
 62
7
  6
CONTINUOUS
 10
155.412804528
 20
30.9487004259
 11
155.7018665869
 21
30.8519086025
 12
155.3549915869
 22
30.8841729058
 13
155.3549915869
 23
30.8841729058
  0
SOLID
  8
0
 62
7
  6
CONTINUOUS
 10
155.1815540869
 20
30.7873815123
 11
155.3549915869
 21
30.8841729058
 12
155.7018665869
 22
30.8519086025
 13
155.7018665869
 23
30.8519086025
  0
SOLID
  8
0
 62
7
  6
CONTINUOUS
 10
155.1815540869
 20
30.7873815123
 11
155.7018665869
 21
30.8519086025
 12
155.412804528
 22
30.7551187255
 13
155.412804528
 23
30.7551187255
  0
SOLID
  8
0
 62
7
  6
CONTINUOUS
 10
155.7018665869
 20
30.8519086025
 11
155.759679528
 21
30.6905916353
 12
155.412804528
 22
30.7551187255
 13
155.412804528
 23
30.7551187255
  0
SOLID
  8
0
 62
7
  6
CONTINUOUS
 10
155.4706168074
 20
30.658327332
 11
155.412804528
 21
30.7551187255
 12
155.759679528
 22
30.6905916353
 13
155.759679528
 23
30.6905916353
  0
SOLID
  8
0
 62
7
  6
CONTINUOUS
 10
155.4706168074
 20
30.658327332
 11
155.759679528
 21
30.6905916353
 12
155.5284290869
 22
30.5938002079
 13
155.5284290869
 23
30.5938002079
  0
SOLID
  8
0
 62
7
  6
CONTINUOUS
 10
155.759679528
 20
30.6905916353
 11
155.8174918074
 21
30.5938002079
 12
155.5284290869
 22
30.5938002079
 13
155.5284290869
 23
30.5938002079
  0
SOLID
  8
0
 62
7
  6
CONTINUOUS
 10
151.0768668626
 20
30.8196456577
 11
151.1346793074
 21
30.9164373395
 12
151.4237418626
 22
30.9164373395
 13
151.4237418626
 23
30.9164373395
  0
SOLID
  8
0
 62
7
  6
CONTINUOUS
 10
151.4237418626
 20
30.9164373395
 11
151.3659292523
 21
30.7873815123
 12
151.0768668626
 22
30.8196456577
 13
151.0768668626
 23
30.8196456577
  0
SOLID
  8
0
 62
7
  6
CONTINUOUS
 10
150.9034292799
 20
30.7551187255
 11
151.0768668626
 21
30.8196456577
 12
151.3659292523
 22
30.7873815123
 13
151.3659292523
 23
30.7873815123
  0
SOLID
  8
0
 62
7
  6
CONTINUOUS
 10
150.9034292799
 20
30.7551187255
 11
151.3659292523
 21
30.7873815123
 12
150.498741835
 22
30.7228544222
 13
150.498741835
 23
30.7228544222
  0
SOLID
  8
0
 62
7
  6
CONTINUOUS
 10
151.3659292523
 20
30.7873815123
 11
151.1924917523
 21
30.6905916353
 12
150.498741835
 22
30.7228544222
 13
150.498741835
 23
30.7228544222
  0
SOLID
  8
0
 62
7
  6
CONTINUOUS
 10
150.0362418212
 20
30.658327332
 11
150.498741835
 21
30.7228544222
 12
151.1924917523
 22
30.6905916353
 13
151.1924917523
 23
30.6905916353
  0
SOLID
  8
0
 62
7
  6
CONTINUOUS
 10
150.0362418212
 20
30.658327332
 11
151.1924917523
 21
30.6905916353
 12
150.2096793212
 22
30.6260631011
 13
150.2096793212
 23
30.6260631011
  0
SOLID
  8
0
 62
7
  6
CONTINUOUS
 10
151.1924917523
 20
30.6905916353
 11
150.9612418074
 21
30.6260631011
 12
150.2096793212
 22
30.6260631011
 13
150.2096793212
 23
30.6260631011
  0
SOLID
  8
0
 62
7
  6
CONTINUOUS
 10
150.5565542799
 20
30.5938002419
 11
150.2096793212
 21
30.6260631011
 12
150.9612418074
 22
30.6260631011
 13
150.9612418074
 23
30.6260631011
  0
SOLID
  8
0
 62
7
  6
CONTINUOUS
 10
154.0253041972
 20
30.7551187255
 11
154.2565543074
 21
30.8519086025
 12
154.3143669177
 22
30.7873815123
 13
154.3143669177
 23
30.7873815123
  0
SOLID
  8
0
 62
7
  6
CONTINUOUS
 10
154.3143669177
 20
30.7873815123
 11
154.5456166972
 21
30.7228544222
 12
154.0253041972
 22
30.7551187255
 13
154.0253041972
 23
30.7551187255
  0
SOLID
  8
0
 62
7
  6
CONTINUOUS
 10
154.1987416972
 20
30.658327332
 11
154.0253041972
 21
30.7551187255
 12
154.5456166972
 22
30.7228544222
 13
154.5456166972
 23
30.7228544222
  0
SOLID
  8
0
 62
7
  6
CONTINUOUS
 10
154.8924916972
 20
30.7228544637
 11
155.1815540869
 21
30.7873815123
 12
155.412804528
 22
30.7551187255
 13
155.412804528
 23
30.7551187255
  0
SOLID
  8
0
 62
7
  6
CONTINUOUS
 10
155.412804528
 20
30.7551187255
 11
155.3549915869
 21
30.6905916353
 12
154.8924916972
 22
30.7228544637
 13
154.8924916972
 23
30.7228544637
  0
SOLID
  8
0
 62
7
  6
CONTINUOUS
 10
155.3549915869
 20
30.6905916353
 11
154.1987416972
 21
30.658327332
 12
154.8924916972
 22
30.7228544637
 13
154.8924916972
 23
30.7228544637
  0
SOLID
  8
0
 62
7
  6
CONTINUOUS
 10
154.1987416972
 20
30.658327332
 11
154.5456166972
 21
30.7228544637
 12
154.8924916972
 22
30.7228544637
 13
154.8924916972
 23
30.7228544637
  0
SOLID
  8
0
 62
7
  6
CONTINUOUS
 10
154.1987416972
 20
30.658327332
 11
155.3549915869
 21
30.6905916353
 12
154.3143669177
 22
30.6260630541
 13
154.3143669177
 23
30.6260630541
  0
SOLID
  8
0
 62
7
  6
CONTINUOUS
 10
155.3549915869
 20
30.6905916353
 11
155.1815540869
 21
30.6260630541
 12
154.3143669177
 22
30.6260630541
 13
154.3143669177
 23
30.6260630541
  0
SOLID
  8
0
 62
7
  6
CONTINUOUS
 10
154.5456166972
 20
30.5938002188
 11
154.3143669177
 21
30.6260630541
 12
155.1815540869
 22
30.6260630541
 13
155.1815540869
 23
30.6260630541
  0
SOLID
  8
0
 62
7
  6
CONTINUOUS
 10
155.1815540869
 20
30.6260630541
 11
154.8924916972
 21
30.5938002188
 12
154.5456166972
 22
30.5938002188
 13
154.5456166972
 23
30.5938002188
  0
SOLID
  8
0
 62
7
  6
CONTINUOUS
 10
159.575304528
 20
30.7551187255
 11
159.228429528
 21
30.7228544637
 12
159.4596793074
 22
30.7873815123
 13
159.4596793074
 23
30.7873815123
  0
SOLID
  8
0
 62
7
  6
CONTINUOUS
 10
159.4596793074
 20
30.7873815123
 11
159.228429528
 21
30.7228544637
 12
159.401867028
 22
30.851908644
 13
159.401867028
 23
30.851908644
  0
SOLID
  8
0
 62
7
  6
CONTINUOUS
 10
159.228429528
 20
30.7228544637
 11
159.1128043074
 21
30.851908644
 12
159.401867028
 22
30.851908644
 13
159.401867028
 23
30.851908644
  0
SOLID
  8
0
 62
7
  6
CONTINUOUS
 10
159.575304528
 20
30.7551187255
 11
159.922179528
 21
30.7228544637
 12
159.228429528
 22
30.7228544637
 13
159.228429528
 23
30.7228544637
  0
SOLID
  8
0
 62
7
  6
CONTINUOUS
 10
156.279992028
 20
30.5938002419
 11
156.279992028
 21
31.6262382337
 12
156.5690540869
 22
30.5938002419
 13
156.5690540869
 23
31.6262382337
  0
ENDBLK
  8
0
  6
BYBLOCK
 62
0
  0
BLOCK
  8
0
 62
2
  6
CONTINUOUS
  2
AMMEAAL_LOGO_BL0
 70
64
 10
32.1213064866
 20
19.8534310916
  0
TEXT
  8
0
 62
7
  6
CONTINUOUS
 10
18.3860103289
 20
19.2268451992
  7
TEXTSTYLE_3
 40
2.7338706658
  1
Ammeraal Beltech
 41
1.0
 51
15.0
 72
0
  0
TEXT
  8
0
 62
7
  6
CONTINUOUS
 10
29.1868111546
 20
16.9533085264
  7
TEXTSTYLE_4
 40
1.0935482663
  1
Innovation & Service in Belting
 41
1.0
 72
0
  0
LINE
  8
0
 62
7
  6
CONTINUOUS
 10
12.3614696776
 20
19.9934385078
 11
13.1396216709
 21
23.6543558055
  0
LINE
  8
0
 62
7
  6
CONTINUOUS
 10
23.2347899607
 20
27.3177497171
 11
13.6274394139
 21
24.1961322958
  0
LINE
  8
0
 62
7
  6
CONTINUOUS
 10
12.5867530099
 20
19.3000877048
 11
20.093828271
 21
12.5406867788
  0
LINE
  8
0
 62
7
  6
CONTINUOUS
 10
12.8492874206
 20
20.5352149982
 11
23.6575567857
 21
24.0470345971
  0
LINE
  8
0
 62
7
  6
CONTINUOUS
 10
23.6533516486
 20
13.6972460334
 11
15.2078919798
 21
21.3015720751
  0
LINE
  8
0
 62
7
  6
CONTINUOUS
 10
24.1731743684
 20
26.4728246013
 11
23.1966148312
 21
21.8784731989
  0
LINE
  8
0
 62
7
  6
CONTINUOUS
 10
22.4968128835
 20
18.5861638851
 11
21.810364672
 21
15.3566789607
  0
LINE
  8
0
 62
7
  6
CONTINUOUS
 10
24.8542704669
 20
14.087448211
 11
25.8105020025
 21
18.5861638851
  0
LINE
  8
0
 62
7
  6
CONTINUOUS
 10
26.5103039502
 20
21.8784731989
 11
26.9545457526
 21
23.9684665583
  0
LINE
  8
0
 62
7
  6
CONTINUOUS
 10
20.8069293463
 20
12.3891124661
 11
24.3664527239
 21
13.5456717207
  0
LINE
  8
0
 62
7
  6
CONTINUOUS
 10
23.9478910361
 20
27.1661754044
 11
26.7292624203
 21
24.6618173613
  0
ARC
  8
0
 62
7
  6
CONTINUOUS
 10
13.8527227462
 20
23.5027814928
 40
0.7290321776
 50
108.0
 51
168.0
  0
ARC
  8
0
 62
7
  6
CONTINUOUS
 10
23.4600732931
 20
26.624398914
 40
0.7290321776
 50
348.0
 51
108.0
  0
ARC
  8
0
 62
7
  6
CONTINUOUS
 10
26.2414446773
 20
24.120040871
 40
0.7290321776
 50
348.0
 51
48.0
  0
ARC
  8
0
 62
7
  6
CONTINUOUS
 10
20.581646014
 20
13.0824632691
 40
0.7290321776
 50
228.0
 51
288.0
  0
ARC
  8
0
 62
7
  6
CONTINUOUS
 10
13.0745707529
 20
19.8418641951
 40
0.7290321776
 50
108.0
 51
228.0
  0
ARC
  8
0
 62
7
  6
CONTINUOUS
 10
24.1411693916
 20
14.2390225237
 40
0.7290321776
 50
228.0
 51
348.0
  0
ENDBLK
  8
0
  6
BYBLOCK
 62
0
  0
ENDSEC
  0
SECTION
  2
ENTITIES
  0
TEXT
  8
0
 62
5
  6
CONTINUOUS
 10
96.0
 20
25.636
  7
TEXTSTYLE_2
 40
2.8
  1
Scale :
 41
0.6
 51
0.000019
 72
0
  0
TEXT
  8
0
 62
5
  6
CONTINUOUS
 10
116.0
 20
25.636
  7
TEXTSTYLE_2
 40
2.8
  1
Belt type:
 41
0.6
 51
0.000019
 72
0
  0
INSERT
  8
0
 62
2
  6
CONTINUOUS
  2
AMMEAAL_LOGO_BL0
 10
32.1213064866
 20
19.8534310916
  0
INSERT
  8
0
 62
2
  6
CONTINUOUS
  2
UNI_LOGO2_BL1
 10
173.5956734183
 20
35.5937998301
  0
LINE
  8
0
 62
2
  6
CONTINUOUS
 10
10.0
 20
30.0
 11
200.0
 21
30.0
  0
LINE
  8
0
 62
2
  6
CONTINUOUS
 10
10.0
 20
30.0
 11
10.0
 21
10.0
  0
LINE
  8
0
 62
2
  6
CONTINUOUS
 10
10.0
 20
10.0
 11
200.0
 21
10.0
  0
LINE
  8
0
 62
2
  6
CONTINUOUS
 10
95.0
 20
30.0
 11
95.0
 21
10.0
  0
LINE
  8
0
 62
2
  6
CONTINUOUS
 10
115.0
 20
30.0
 11
115.0
 21
10.0
  0
LINE
  8
0
 62
2
  6
CONTINUOUS
 10
200.0
 20
30.0
 11
200.0
 21
10.0
  0
TEXT
  8
0
 62
5
  6
CONTINUOUS
 10
13.0
 20
23.303
  7
TEXTSTYLE_5
 40
1.52
  1
                                                                     Ammeraal Beltech Modular A/S
 41
1.0
 72
0
  0
TEXT
  8
0
 62
5
  6
CONTINUOUS
 10
13.0
 20
20.595
  7
TEXTSTYLE_5
 40
1.5
  1
                                                                      Hjulmagervej 21,  7100 Vejle,  DK
 41
1.0
 72
0
  0
TEXT
  8
0
 62
5
  6
CONTINUOUS
 10
13.0
 20
17.881
  7
TEXTSTYLE_5
 40
1.495
  1
                                                                      tel: 
 41
1.0
 72
0
  0
TEXT
  8
0
 62
5
  6
CONTINUOUS
 10
57.9869465649
 20
17.881
  7
TEXTSTYLE_5
 40
1.51
  1
+45 75723100     fax: +45 75723348
 41
1.0
 72
0
  0
TEXT
  8
0
 62
5
  6
CONTINUOUS
 10
13.0
 20
15.177
  7
TEXTSTYLE_5
 40
1.5
  1
                                                                      admin@unichains.dk  www.unichains.com
 41
1.0
 72
0
  0
TEXT
  8
0
 62
5
  6
CONTINUOUS
 10
99.75
 20
13.75
  7
TEXTSTYLE_6
 40
5.0
  1
1:1
 41
0.7
 72
1
 11
105.0
 21
13.75
  0
TEXT
  8
0
 62
5
  6
CONTINUOUS
 10
118.0
 20
13.75
  7
TEXTSTYLE_7
 40
7.5
  1
uni Light EP-46 K400
 41
0.4875
 72
0
  0
LINE
  8
0
 62
7
  6
CONTINUOUS
 10
210.0
 20
0.0
 11
0.0
 21
0.0
  0
LINE
  8
0
 62
7
  6
CONTINUOUS
 10
10.0
 20
10.0
 11
200.0
 21
10.0
  0
LINE
  8
0
 62
7
  6
CONTINUOUS
 10
10.0
 20
30.0
 11
200.0
 21
30.0
  0
LINE
  8
0
 62
7
  6
CONTINUOUS
 10
0.0
 20
0.0
 11
0.0
 21
297.0
  0
LINE
  8
0
 62
7
  6
CONTINUOUS
 10
10.0
 20
10.0
 11
10.0
 21
287.0
  0
LINE
  8
0
 62
7
  6
CONTINUOUS
 10
200.0
 20
287.0
 11
200.0
 21
10.0
  0
LINE
  8
0
 62
7
  6
CONTINUOUS
 10
210.0
 20
0.0
 11
210.0
 21
297.0
  0
LINE
  8
0
 62
7
  6
CONTINUOUS
 10
10.0
 20
287.0
 11
200.0
 21
287.0
  0
LINE
  8
0
 62
7
  6
CONTINUOUS
 10
0.0
 20
297.0
 11
210.0
 21
297.0
  0
POLYLINE
  8
0
 62
7
  6
CONTINUOUS
 66
1
 70
0
  0
VERTEX
  8
0
 62
7
  6
CONTINUOUS
 10
33.6601370406
 20
147.3504796611
  0
VERTEX
  8
0
 62
7
  6
CONTINUOUS
 10
33.6735903863
 20
147.4656853604
  0
VERTEX
  8
0
 62
7
  6
CONTINUOUS
 10
33.7112139354
 20
147.5706342558
  0
VERTEX
  8
0
 62
7
  6
CONTINUOUS
 10
33.7698488083
 20
147.6630098128
  0
VERTEX
  8
0
 62
7
  6
CONTINUOUS
 10
33.8472171497
 20
147.7404554832
  0
VERTEX
  8
0
 62
7
  6
CONTINUOUS
 10
33.9363409817
 20
147.7975985759
  0
VERTEX
  8
0
 62
7
  6
CONTINUOUS
 10
34.0414608352
 20
147.8361914669
  0
VERTEX
  8
0
 62
7
  6
CONTINUOUS
 10
34.1601370406
 20
147.850479661
  0
SEQEND
  0
LINE
  8
0
 62
7
  6
CONTINUOUS
 10
33.4601370406
 20
116.9647839765
 11
33.4601370406
 21
145.7810354777
  0
LINE
  8
0
 62
7
  6
CONTINUOUS
 10
33.6601370406
 20
147.3504796611
 11
33.6601370406
 21
109.6247839765
  0
POLYLINE
  8
0
 62
7
  6
CONTINUOUS
 66
1
 70
0
  0
VERTEX
  8
0
 62
7
  6
CONTINUOUS
 10
36.7101374972
 20
148.8327976991
  0
VERTEX
  8
0
 62
7
  6
CONTINUOUS
 10
36.7066670504
 20
148.7061517519
  0
VERTEX
  8
0
 62
7
  6
CONTINUOUS
 10
36.6940576898
 20
148.5678796519
  0
VERTEX
  8
0
 62
7
  6
CONTINUOUS
 10
36.6718335472
 20
148.4362319448
  0
VERTEX
  8
0
 62
7
  6
CONTINUOUS
 10
36.6399170567
 20
148.3132253204
  0
VERTEX
  8
0
 62
7
  6
CONTINUOUS
 10
36.5985876232
 20
148.2008216832
  0
VERTEX
  8
0
 62
7
  6
CONTINUOUS
 10
36.5485202031
 20
148.1009747053
  0
VERTEX
  8
0
 62
7
  6
CONTINUOUS
 10
36.4904966948
 20
148.015184752
  0
VERTEX
  8
0
 62
7
  6
CONTINUOUS
 10
36.4250837339
 20
147.9447109804
  0
VERTEX
  8
0
 62
7
  6
CONTINUOUS
 10
36.353431044
 20
147.8918601255
  0
VERTEX
  8
0
 62
7
  6
CONTINUOUS
 10
36.2775684036
 20
147.8596342101
  0
VERTEX
  8
0
 62
7
  6
CONTINUOUS
 10
36.2101370406
 20
147.8504797421
  0
SEQEND
  0
POLYLINE
  8
0
 62
7
  6
CONTINUOUS
 66
1
 70
0
  0
VERTEX
  8
0
 62
7
  6
CONTINUOUS
 10
36.7101370406
 20
152.6895288479
  0
VERTEX
  8
0
 62
7
  6
CONTINUOUS
 10
36.7244367611
 20
152.7087652255
  0
VERTEX
  8
0
 62
7
  6
CONTINUOUS
 10
36.7666751631
 20
152.7266806324
  0
VERTEX
  8
0
 62
7
  6
CONTINUOUS
 10
36.8346689434
 20
152.742310866
  0
VERTEX
  8
0
 62
7
  6
CONTINUOUS
 10
36.8772173607
 20
152.7490032049
  0
VERTEX
  8
0
 62
7
  6
CONTINUOUS
 10
36.9764253179
 20
152.7596996921
  0
VERTEX
  8
0
 62
7
  6
CONTINUOUS
 10
37.0895922543
 20
152.7663601647
  0
VERTEX
  8
0
 62
7
  6
CONTINUOUS
 10
37.2101370406
 20
152.7686244576
  0
SEQEND
  0
LINE
  8
0
 62
7
  6
CONTINUOUS
 10
36.4601370406
 20
109.6247839765
 11
36.4601370406
 21
115.9967984674
  0
LINE
  8
0
 62
7
  6
CONTINUOUS
 10
36.7101370406
 20
155.2047839765
 11
36.7101370406
 21
148.8327695389
  0
POLYLINE
  8
0
 62
7
  6
CONTINUOUS
 66
1
 70
0
  0
VERTEX
  8
0
 62
7
  6
CONTINUOUS
 10
36.4601368314
 20
115.9967613863
  0
VERTEX
  8
0
 62
7
  6
CONTINUOUS
 10
36.4636072224
 20
116.1234200127
  0
VERTEX
  8
0
 62
7
  6
CONTINUOUS
 10
36.4762167992
 20
116.2616935448
  0
VERTEX
  8
0
 62
7
  6
CONTINUOUS
 10
36.4984409119
 20
116.393338613
  0
VERTEX
  8
0
 62
7
  6
CONTINUOUS
 10
36.5303571057
 20
116.5163433124
  0
VERTEX
  8
0
 62
7
  6
CONTINUOUS
 10
36.5716866638
 20
116.628746832
  0
VERTEX
  8
0
 62
7
  6
CONTINUOUS
 10
36.6217537917
 20
116.7285931305
  0
VERTEX
  8
0
 62
7
  6
CONTINUOUS
 10
36.6797777778
 20
116.8143835481
  0
VERTEX
  8
0
 62
7
  6
CONTINUOUS
 10
36.7451905176
 20
116.8848571962
  0
VERTEX
  8
0
 62
7
  6
CONTINUOUS
 10
36.8168438336
 20
116.9377083526
  0
VERTEX
  8
0
 62
7
  6
CONTINUOUS
 10
36.892709436
 20
116.9699347512
  0
VERTEX
  8
0
 62
7
  6
CONTINUOUS
 10
36.9601370406
 20
116.9790882089
  0
SEQEND
  0
LINE
  8
0
 62
7
  6
CONTINUOUS
 10
36.7680170104
 20
122.4647839765
 11
38.0155094878
 21
142.3647839765
  0
LINE
  8
0
 62
7
  6
CONTINUOUS
 10
33.4601370406
 20
116.9647839765
 11
33.6601370406
 21
116.7647839765
  0
POLYLINE
  8
0
 62
7
  6
CONTINUOUS
 66
1
 70
0
  0
VERTEX
  8
0
 62
7
  6
CONTINUOUS
 10
43.0601370406
 20
112.1400391051
  0
VERTEX
  8
0
 62
7
  6
CONTINUOUS
 10
43.0744367611
 20
112.1208027275
  0
VERTEX
  8
0
 62
7
  6
CONTINUOUS
 10
43.1166751631
 20
112.1028873207
  0
VERTEX
  8
0
 62
7
  6
CONTINUOUS
 10
43.1846689434
 20
112.0872570871
  0
VERTEX
  8
0
 62
7
  6
CONTINUOUS
 10
43.2272173607
 20
112.0805647481
  0
VERTEX
  8
0
 62
7
  6
CONTINUOUS
 10
43.3264253179
 20
112.0698682609
  0
VERTEX
  8
0
 62
7
  6
CONTINUOUS
 10
43.4395922543
 20
112.0632077883
  0
VERTEX
  8
0
 62
7
  6
CONTINUOUS
 10
43.5601370406
 20
112.0609434955
  0
SEQEND
  0
LINE
  8
0
 62
7
  6
CONTINUOUS
 10
41.5063692357
 20
142.3647839765
 11
42.7607294514
 21
122.4647839765
  0
LINE
  8
0
 62
7
  6
CONTINUOUS
 10
42.8101370406
 20
148.5291543752
 11
42.8101370406
 21
155.2047839765
  0
LINE
  8
0
 62
7
  6
CONTINUOUS
 10
43.0601370406
 20
115.9967984142
 11
43.0601370406
 21
109.6247839765
  0
LINE
  8
0
 62
7
  6
CONTINUOUS
 10
44.3639048455
 20
122.4647839765
 11
43.1095446298
 21
142.3647839765
  0
LINE
  8
0
 62
7
  6
CONTINUOUS
 10
49.1601370406
 20
109.6247839765
 11
49.1601370406
 21
116.3004135779
  0
LINE
  8
0
 62
7
  6
CONTINUOUS
 10
49.4101370406
 20
155.2047839765
 11
49.4101370406
 21
148.8327695389
  0
POLYLINE
  8
0
 62
7
  6
CONTINUOUS
 66
1
 70
0
  0
VERTEX
  8
0
 62
7
  6
CONTINUOUS
 10
49.4101374972
 20
148.8327976991
  0
VERTEX
  8
0
 62
7
  6
CONTINUOUS
 10
49.4066670504
 20
148.7061517519
  0
VERTEX
  8
0
 62
7
  6
CONTINUOUS
 10
49.3940576898
 20
148.5678796519
  0
VERTEX
  8
0
 62
7
  6
CONTINUOUS
 10
49.3718335472
 20
148.4362319448
  0
VERTEX
  8
0
 62
7
  6
CONTINUOUS
 10
49.3399170567
 20
148.3132253204
  0
VERTEX
  8
0
 62
7
  6
CONTINUOUS
 10
49.2985876232
 20
148.2008216832
  0
VERTEX
  8
0
 62
7
  6
CONTINUOUS
 10
49.2485202031
 20
148.1009747053
  0
VERTEX
  8
0
 62
7
  6
CONTINUOUS
 10
49.1904966948
 20
148.015184752
  0
VERTEX
  8
0
 62
7
  6
CONTINUOUS
 10
49.1250837339
 20
147.9447109804
  0
VERTEX
  8
0
 62
7
  6
CONTINUOUS
 10
49.053431044
 20
147.8918601255
  0
VERTEX
  8
0
 62
7
  6
CONTINUOUS
 10
48.9775684036
 20
147.8596342101
  0
VERTEX
  8
0
 62
7
  6
CONTINUOUS
 10
48.9101370406
 20
147.8504797421
  0
SEQEND
  0
POLYLINE
  8
0
 62
7
  6
CONTINUOUS
 66
1
 70
0
  0
VERTEX
  8
0
 62
7
  6
CONTINUOUS
 10
49.1601368311
 20
115.9967613023
  0
VERTEX
  8
0
 62
7
  6
CONTINUOUS
 10
49.1636072224
 20
116.1234200362
  0
VERTEX
  8
0
 62
7
  6
CONTINUOUS
 10
49.1762168012
 20
116.2616935766
  0
VERTEX
  8
0
 62
7
  6
CONTINUOUS
 10
49.1984409134
 20
116.3933386222
  0
VERTEX
  8
0
 62
7
  6
CONTINUOUS
 10
49.230357105
 20
116.51634331
  0
VERTEX
  8
0
 62
7
  6
CONTINUOUS
 10
49.2716866619
 20
116.6287468267
  0
VERTEX
  8
0
 62
7
  6
CONTINUOUS
 10
49.3217537812
 20
116.7285931113
  0
VERTEX
  8
0
 62
7
  6
CONTINUOUS
 10
49.3797777789
 20
116.814383544
  0
VERTEX
  8
0
 62
7
  6
CONTINUOUS
 10
49.4451904927
 20
116.884857173
  0
VERTEX
  8
0
 62
7
  6
CONTINUOUS
 10
49.51684382
 20
116.9377083454
  0
VERTEX
  8
0
 62
7
  6
CONTINUOUS
 10
49.5927094387
 20
116.969934752
  0
VERTEX
  8
0
 62
7
  6
CONTINUOUS
 10
49.6601370406
 20
116.9790882093
  0
SEQEND
  0
LINE
  8
0
 62
7
  6
CONTINUOUS
 10
49.1107294514
 20
142.3647839765
 11
47.8563692357
 21
122.4647839765
  0
LINE
  8
0
 62
7
  6
CONTINUOUS
 10
49.4595446298
 20
122.4647839765
 11
50.7139048455
 21
142.3647839765
  0
LINE
  8
0
 62
7
  6
CONTINUOUS
 10
54.2063692357
 20
142.3647839765
 11
55.4607294514
 21
122.4647839765
  0
POLYLINE
  8
0
 62
7
  6
CONTINUOUS
 66
1
 70
0
  0
VERTEX
  8
0
 62
7
  6
CONTINUOUS
 10
62.1101370406
 20
152.6895288479
  0
VERTEX
  8
0
 62
7
  6
CONTINUOUS
 10
62.1244367611
 20
152.7087652255
  0
VERTEX
  8
0
 62
7
  6
CONTINUOUS
 10
62.1666751631
 20
152.7266806324
  0
VERTEX
  8
0
 62
7
  6
CONTINUOUS
 10
62.2346689434
 20
152.742310866
  0
VERTEX
  8
0
 62
7
  6
CONTINUOUS
 10
62.2772173607
 20
152.7490032049
  0
VERTEX
  8
0
 62
7
  6
CONTINUOUS
 10
62.3764253179
 20
152.7596996921
  0
VERTEX
  8
0
 62
7
  6
CONTINUOUS
 10
62.4895922543
 20
152.7663601647
  0
VERTEX
  8
0
 62
7
  6
CONTINUOUS
 10
62.6101370406
 20
152.7686244576
  0
SEQEND
  0
LINE
  8
0
 62
7
  6
CONTINUOUS
 10
57.0639048455
 20
122.4647839765
 11
55.8095446298
 21
142.3647839765
  0
LINE
  8
0
 62
7
  6
CONTINUOUS
 10
55.5101370406
 20
148.8327694854
 11
55.5101370406
 21
155.2047839765
  0
LINE
  8
0
 62
7
  6
CONTINUOUS
 10
55.7601370406
 20
109.6247839765
 11
55.7601370406
 21
115.9967984142
  0
LINE
  8
0
 62
7
  6
CONTINUOUS
 10
61.8601370406
 20
109.6247839765
 11
61.8601370406
 21
115.9967984674
  0
LINE
  8
0
 62
7
  6
CONTINUOUS
 10
62.1101370406
 20
155.2047839765
 11
62.1101370406
 21
148.8327695389
  0
POLYLINE
  8
0
 62
7
  6
CONTINUOUS
 66
1
 70
0
  0
VERTEX
  8
0
 62
7
  6
CONTINUOUS
 10
62.1101374962
 20
148.8327975983
  0
VERTEX
  8
0
 62
7
  6
CONTINUOUS
 10
62.1066670524
 20
148.706151772
  0
VERTEX
  8
0
 62
7
  6
CONTINUOUS
 10
62.0940576917
 20
148.5678796752
  0
VERTEX
  8
0
 62
7
  6
CONTINUOUS
 10
62.0718335481
 20
148.43623195
  0
VERTEX
  8
0
 62
7
  6
CONTINUOUS
 10
62.0399170554
 20
148.3132253155
  0
VERTEX
  8
0
 62
7
  6
CONTINUOUS
 10
61.9985876208
 20
148.200821678
  0
VERTEX
  8
0
 62
7
  6
CONTINUOUS
 10
61.9485201848
 20
148.1009746752
  0
VERTEX
  8
0
 62
7
  6
CONTINUOUS
 10
61.8904966984
 20
148.0151847515
  0
VERTEX
  8
0
 62
7
  6
CONTINUOUS
 10
61.8250837106
 20
147.9447109586
  0
VERTEX
  8
0
 62
7
  6
CONTINUOUS
 10
61.7534310316
 20
147.8918601177
  0
VERTEX
  8
0
 62
7
  6
CONTINUOUS
 10
61.6775684073
 20
147.859634211
  0
VERTEX
  8
0
 62
7
  6
CONTINUOUS
 10
61.6101370406
 20
147.8504797425
  0
SEQEND
  0
POLYLINE
  8
0
 62
7
  6
CONTINUOUS
 66
1
 70
0
  0
VERTEX
  8
0
 62
7
  6
CONTINUOUS
 10
61.8601368314
 20
115.9967613863
  0
VERTEX
  8
0
 62
7
  6
CONTINUOUS
 10
61.8636072224
 20
116.1234200127
  0
VERTEX
  8
0
 62
7
  6
CONTINUOUS
 10
61.8762167992
 20
116.2616935448
  0
VERTEX
  8
0
 62
7
  6
CONTINUOUS
 10
61.8984409119
 20
116.393338613
  0
VERTEX
  8
0
 62
7
  6
CONTINUOUS
 10
61.9303571057
 20
116.5163433124
  0
VERTEX
  8
0
 62
7
  6
CONTINUOUS
 10
61.9716866638
 20
116.628746832
  0
VERTEX
  8
0
 62
7
  6
CONTINUOUS
 10
62.0217537917
 20
116.7285931305
  0
VERTEX
  8
0
 62
7
  6
CONTINUOUS
 10
62.0797777778
 20
116.8143835481
  0
VERTEX
  8
0
 62
7
  6
CONTINUOUS
 10
62.1451905176
 20
116.8848571962
  0
VERTEX
  8
0
 62
7
  6
CONTINUOUS
 10
62.2168438336
 20
116.9377083526
  0
VERTEX
  8
0
 62
7
  6
CONTINUOUS
 10
62.292709436
 20
116.9699347512
  0
VERTEX
  8
0
 62
7
  6
CONTINUOUS
 10
62.3601370406
 20
116.9790882089
  0
SEQEND
  0
LINE
  8
0
 62
7
  6
CONTINUOUS
 10
61.8107294514
 20
142.3647839765
 11
60.5563692357
 21
122.4647839765
  0
LINE
  8
0
 62
7
  6
CONTINUOUS
 10
34.1601370406
 20
109.1247839765
 11
35.9601370406
 21
109.1247839765
  0
LINE
  8
0
 62
7
  6
CONTINUOUS
 10
43.5601370406
 20
109.1247839765
 11
48.6601370406
 21
109.1247839765
  0
LINE
  8
0
 62
7
  6
CONTINUOUS
 10
56.2601370406
 20
109.1247839765
 11
61.3601370406
 21
109.1247839765
  0
LINE
  8
0
 62
7
  6
CONTINUOUS
 10
68.9601370406
 20
109.1247839765
 11
74.0601370406
 21
109.1247839765
  0
LINE
  8
0
 62
7
  6
CONTINUOUS
 10
81.6601370406
 20
109.1247839765
 11
86.7601370406
 21
109.1247839765
  0
LINE
  8
0
 62
7
  6
CONTINUOUS
 10
94.3601370406
 20
109.1247839765
 11
99.4601370406
 21
109.1247839765
  0
LINE
  8
0
 62
7
  6
CONTINUOUS
 10
107.0601370406
 20
109.1247839765
 11
112.1601370406
 21
109.1247839765
  0
LINE
  8
0
 62
7
  6
CONTINUOUS
 10
119.7601370406
 20
109.1247839765
 11
124.8601370406
 21
109.1247839765
  0
LINE
  8
0
 62
7
  6
CONTINUOUS
 10
132.4601370406
 20
109.1247839765
 11
134.2601370406
 21
109.1247839765
  0
POLYLINE
  8
0
 62
7
  6
CONTINUOUS
 66
1
 70
0
  0
VERTEX
  8
0
 62
7
  6
CONTINUOUS
 10
68.4601370406
 20
112.1400391051
  0
VERTEX
  8
0
 62
7
  6
CONTINUOUS
 10
68.4744367611
 20
112.1208027275
  0
VERTEX
  8
0
 62
7
  6
CONTINUOUS
 10
68.5166751631
 20
112.1028873207
  0
VERTEX
  8
0
 62
7
  6
CONTINUOUS
 10
68.5846689434
 20
112.0872570871
  0
VERTEX
  8
0
 62
7
  6
CONTINUOUS
 10
68.6272173607
 20
112.0805647481
  0
VERTEX
  8
0
 62
7
  6
CONTINUOUS
 10
68.7264253179
 20
112.0698682609
  0
VERTEX
  8
0
 62
7
  6
CONTINUOUS
 10
68.8395922543
 20
112.0632077883
  0
VERTEX
  8
0
 62
7
  6
CONTINUOUS
 10
68.9601370406
 20
112.0609434955
  0
SEQEND
  0
LINE
  8
0
 62
7
  6
CONTINUOUS
 10
62.1595446298
 20
122.4647839765
 11
63.4139048455
 21
142.3647839765
  0
POLYLINE
  8
0
 62
7
  6
CONTINUOUS
 66
1
 70
0
  0
VERTEX
  8
0
 62
7
  6
CONTINUOUS
 10
124.8601370406
 20
112.0609434955
  0
VERTEX
  8
0
 62
7
  6
CONTINUOUS
 10
124.9806818269
 20
112.0632077883
  0
VERTEX
  8
0
 62
7
  6
CONTINUOUS
 10
125.0938487633
 20
112.0698682609
  0
VERTEX
  8
0
 62
7
  6
CONTINUOUS
 10
125.1930567205
 20
112.0805647481
  0
VERTEX
  8
0
 62
7
  6
CONTINUOUS
 10
125.2356051378
 20
112.0872570871
  0
VERTEX
  8
0
 62
7
  6
CONTINUOUS
 10
125.3035989181
 20
112.1028873207
  0
VERTEX
  8
0
 62
7
  6
CONTINUOUS
 10
125.3458373201
 20
112.1208027275
  0
VERTEX
  8
0
 62
7
  6
CONTINUOUS
 10
125.3601370406
 20
112.1400391051
  0
SEQEND
  0
POLYLINE
  8
0
 62
7
  6
CONTINUOUS
 66
1
 70
0
  0
VERTEX
  8
0
 62
7
  6
CONTINUOUS
 10
112.1601370406
 20
112.0609434955
  0
VERTEX
  8
0
 62
7
  6
CONTINUOUS
 10
112.2806818269
 20
112.0632077883
  0
VERTEX
  8
0
 62
7
  6
CONTINUOUS
 10
112.3938487633
 20
112.0698682609
  0
VERTEX
  8
0
 62
7
  6
CONTINUOUS
 10
112.4930567205
 20
112.0805647481
  0
VERTEX
  8
0
 62
7
  6
CONTINUOUS
 10
112.5356051378
 20
112.0872570871
  0
VERTEX
  8
0
 62
7
  6
CONTINUOUS
 10
112.6035989181
 20
112.1028873207
  0
VERTEX
  8
0
 62
7
  6
CONTINUOUS
 10
112.6458373201
 20
112.1208027275
  0
VERTEX
  8
0
 62
7
  6
CONTINUOUS
 10
112.6601370406
 20
112.1400391051
  0
SEQEND
  0
POLYLINE
  8
0
 62
7
  6
CONTINUOUS
 66
1
 70
0
  0
VERTEX
  8
0
 62
7
  6
CONTINUOUS
 10
99.4601370406
 20
112.0609434955
  0
VERTEX
  8
0
 62
7
  6
CONTINUOUS
 10
99.5806818269
 20
112.0632077883
  0
VERTEX
  8
0
 62
7
  6
CONTINUOUS
 10
99.6938487633
 20
112.0698682609
  0
VERTEX
  8
0
 62
7
  6
CONTINUOUS
 10
99.7930567205
 20
112.0805647481
  0
VERTEX
  8
0
 62
7
  6
CONTINUOUS
 10
99.8356051378
 20
112.0872570871
  0
VERTEX
  8
0
 62
7
  6
CONTINUOUS
 10
99.9035989181
 20
112.1028873207
  0
VERTEX
  8
0
 62
7
  6
CONTINUOUS
 10
99.9458373201
 20
112.1208027275
  0
VERTEX
  8
0
 62
7
  6
CONTINUOUS
 10
99.9601370406
 20
112.1400391051
  0
SEQEND
  0
POLYLINE
  8
0
 62
7
  6
CONTINUOUS
 66
1
 70
0
  0
VERTEX
  8
0
 62
7
  6
CONTINUOUS
 10
86.7601370406
 20
112.0609434955
  0
VERTEX
  8
0
 62
7
  6
CONTINUOUS
 10
86.8806818269
 20
112.0632077883
  0
VERTEX
  8
0
 62
7
  6
CONTINUOUS
 10
86.9938487633
 20
112.0698682609
  0
VERTEX
  8
0
 62
7
  6
CONTINUOUS
 10
87.0930567205
 20
112.0805647481
  0
VERTEX
  8
0
 62
7
  6
CONTINUOUS
 10
87.1356051378
 20
112.0872570871
  0
VERTEX
  8
0
 62
7
  6
CONTINUOUS
 10
87.2035989181
 20
112.1028873207
  0
VERTEX
  8
0
 62
7
  6
CONTINUOUS
 10
87.2458373201
 20
112.1208027275
  0
VERTEX
  8
0
 62
7
  6
CONTINUOUS
 10
87.2601370406
 20
112.1400391051
  0
SEQEND
  0
POLYLINE
  8
0
 62
7
  6
CONTINUOUS
 66
1
 70
0
  0
VERTEX
  8
0
 62
7
  6
CONTINUOUS
 10
74.0601370406
 20
112.0609434955
  0
VERTEX
  8
0
 62
7
  6
CONTINUOUS
 10
74.1806818269
 20
112.0632077883
  0
VERTEX
  8
0
 62
7
  6
CONTINUOUS
 10
74.2938487633
 20
112.0698682609
  0
VERTEX
  8
0
 62
7
  6
CONTINUOUS
 10
74.3930567205
 20
112.0805647481
  0
VERTEX
  8
0
 62
7
  6
CONTINUOUS
 10
74.4356051378
 20
112.0872570871
  0
VERTEX
  8
0
 62
7
  6
CONTINUOUS
 10
74.5035989181
 20
112.1028873207
  0
VERTEX
  8
0
 62
7
  6
CONTINUOUS
 10
74.5458373201
 20
112.1208027275
  0
VERTEX
  8
0
 62
7
  6
CONTINUOUS
 10
74.5601370406
 20
112.1400391051
  0
SEQEND
  0
POLYLINE
  8
0
 62
7
  6
CONTINUOUS
 66
1
 70
0
  0
VERTEX
  8
0
 62
7
  6
CONTINUOUS
 10
61.3601370406
 20
112.0609434955
  0
VERTEX
  8
0
 62
7
  6
CONTINUOUS
 10
61.4806818269
 20
112.0632077883
  0
VERTEX
  8
0
 62
7
  6
CONTINUOUS
 10
61.5938487633
 20
112.0698682609
  0
VERTEX
  8
0
 62
7
  6
CONTINUOUS
 10
61.6930567205
 20
112.0805647481
  0
VERTEX
  8
0
 62
7
  6
CONTINUOUS
 10
61.7356051378
 20
112.0872570871
  0
VERTEX
  8
0
 62
7
  6
CONTINUOUS
 10
61.8035989181
 20
112.1028873207
  0
VERTEX
  8
0
 62
7
  6
CONTINUOUS
 10
61.8458373201
 20
112.1208027275
  0
VERTEX
  8
0
 62
7
  6
CONTINUOUS
 10
61.8601370406
 20
112.1400391051
  0
SEQEND
  0
POLYLINE
  8
0
 62
7
  6
CONTINUOUS
 66
1
 70
0
  0
VERTEX
  8
0
 62
7
  6
CONTINUOUS
 10
35.9601370406
 20
112.0609434955
  0
VERTEX
  8
0
 62
7
  6
CONTINUOUS
 10
36.0806818269
 20
112.0632077883
  0
VERTEX
  8
0
 62
7
  6
CONTINUOUS
 10
36.1938487633
 20
112.0698682609
  0
VERTEX
  8
0
 62
7
  6
CONTINUOUS
 10
36.2930567205
 20
112.0805647481
  0
VERTEX
  8
0
 62
7
  6
CONTINUOUS
 10
36.3356051378
 20
112.0872570871
  0
VERTEX
  8
0
 62
7
  6
CONTINUOUS
 10
36.4035989181
 20
112.1028873207
  0
VERTEX
  8
0
 62
7
  6
CONTINUOUS
 10
36.4458373201
 20
112.1208027275
  0
VERTEX
  8
0
 62
7
  6
CONTINUOUS
 10
36.4601370406
 20
112.1400391051
  0
SEQEND
  0
LINE
  8
0
 62
7
  6
CONTINUOUS
 10
34.1601370406
 20
112.0609434955
 11
35.9601370406
 21
112.0609434955
  0
LINE
  8
0
 62
7
  6
CONTINUOUS
 10
43.5601370406
 20
112.0609434955
 11
48.6601370406
 21
112.0609434955
  0
LINE
  8
0
 62
7
  6
CONTINUOUS
 10
56.2601370406
 20
112.0609434955
 11
61.3601370406
 21
112.0609434955
  0
LINE
  8
0
 62
7
  6
CONTINUOUS
 10
68.9601370406
 20
112.0609434955
 11
74.0601370406
 21
112.0609434955
  0
LINE
  8
0
 62
7
  6
CONTINUOUS
 10
81.6601370406
 20
112.0609434955
 11
86.7601370406
 21
112.0609434955
  0
LINE
  8
0
 62
7
  6
CONTINUOUS
 10
94.3601370406
 20
112.0609434955
 11
99.4601370406
 21
112.0609434955
  0
LINE
  8
0
 62
7
  6
CONTINUOUS
 10
107.0601370406
 20
112.0609434955
 11
112.1601370406
 21
112.0609434955
  0
LINE
  8
0
 62
7
  6
CONTINUOUS
 10
119.7601370406
 20
112.0609434955
 11
124.8601370406
 21
112.0609434955
  0
LINE
  8
0
 62
7
  6
CONTINUOUS
 10
132.4601370406
 20
112.0609434955
 11
134.2601370406
 21
112.0609434955
  0
LINE
  8
1_AXIS
 62
2
  6
CENTER
 10
30.9969728394
 20
113.3647839765
 11
138.4113084099
 21
113.3647839765
  0
POLYLINE
  8
0
 62
7
  6
CONTINUOUS
 66
1
 70
0
  0
VERTEX
  8
0
 62
7
  6
CONTINUOUS
 10
34.1601370406
 20
112.0609434955
  0
VERTEX
  8
0
 62
7
  6
CONTINUOUS
 10
34.0395922543
 20
112.0632077883
  0
VERTEX
  8
0
 62
7
  6
CONTINUOUS
 10
33.9264253179
 20
112.0698682609
  0
VERTEX
  8
0
 62
7
  6
CONTINUOUS
 10
33.8272173607
 20
112.0805647481
  0
VERTEX
  8
0
 62
7
  6
CONTINUOUS
 10
33.7846689434
 20
112.0872570871
  0
VERTEX
  8
0
 62
7
  6
CONTINUOUS
 10
33.7166751631
 20
112.1028873207
  0
VERTEX
  8
0
 62
7
  6
CONTINUOUS
 10
33.6744367611
 20
112.1208027275
  0
VERTEX
  8
0
 62
7
  6
CONTINUOUS
 10
33.6601370406
 20
112.1400391051
  0
SEQEND
  0
POLYLINE
  8
0
 62
7
  6
CONTINUOUS
 66
1
 70
0
  0
VERTEX
  8
0
 62
7
  6
CONTINUOUS
 10
56.2601370406
 20
112.0609434955
  0
VERTEX
  8
0
 62
7
  6
CONTINUOUS
 10
56.1395922543
 20
112.0632077883
  0
VERTEX
  8
0
 62
7
  6
CONTINUOUS
 10
56.0264253179
 20
112.0698682609
  0
VERTEX
  8
0
 62
7
  6
CONTINUOUS
 10
55.9272173607
 20
112.0805647481
  0
VERTEX
  8
0
 62
7
  6
CONTINUOUS
 10
55.8846689434
 20
112.0872570871
  0
VERTEX
  8
0
 62
7
  6
CONTINUOUS
 10
55.8166751631
 20
112.1028873207
  0
VERTEX
  8
0
 62
7
  6
CONTINUOUS
 10
55.7744367611
 20
112.1208027275
  0
VERTEX
  8
0
 62
7
  6
CONTINUOUS
 10
55.7601370406
 20
112.1400391051
  0
SEQEND
  0
POLYLINE
  8
0
 62
7
  6
CONTINUOUS
 66
1
 70
0
  0
VERTEX
  8
0
 62
7
  6
CONTINUOUS
 10
42.5601370362
 20
116.9790882114
  0
VERTEX
  8
0
 62
7
  6
CONTINUOUS
 10
42.6269261652
 20
116.9701071622
  0
VERTEX
  8
0
 62
7
  6
CONTINUOUS
 10
42.702808723
 20
116.938068301
  0
VERTEX
  8
0
 62
7
  6
CONTINUOUS
 10
42.7745091818
 20
116.8853750283
  0
VERTEX
  8
0
 62
7
  6
CONTINUOUS
 10
42.8399822323
 20
116.8150347874
  0
VERTEX
  8
0
 62
7
  6
CONTINUOUS
 10
42.8980709203
 20
116.7293639353
  0
VERTEX
  8
0
 62
7
  6
CONTINUOUS
 10
42.9482083125
 20
116.6296258645
  0
VERTEX
  8
0
 62
7
  6
CONTINUOUS
 10
42.9896105035
 20
116.5173270731
  0
VERTEX
  8
0
 62
7
  6
CONTINUOUS
 10
43.0216026113
 20
116.3944223843
  0
VERTEX
  8
0
 62
7
  6
CONTINUOUS
 10
43.0439046985
 20
116.2628764384
  0
VERTEX
  8
0
 62
7
  6
CONTINUOUS
 10
43.0565941207
 20
116.1247075932
  0
VERTEX
  8
0
 62
7
  6
CONTINUOUS
 10
43.0601374996
 20
115.996770638
  0
SEQEND
  0
POLYLINE
  8
0
 62
7
  6
CONTINUOUS
 66
1
 70
0
  0
VERTEX
  8
0
 62
7
  6
CONTINUOUS
 10
55.2601370362
 20
116.9790882117
  0
VERTEX
  8
0
 62
7
  6
CONTINUOUS
 10
55.3269261623
 20
116.970107163
  0
VERTEX
  8
0
 62
7
  6
CONTINUOUS
 10
55.4028087363
 20
116.9380682924
  0
VERTEX
  8
0
 62
7
  6
CONTINUOUS
 10
55.4745092038
 20
116.8853750075
  0
VERTEX
  8
0
 62
7
  6
CONTINUOUS
 10
55.5399822232
 20
116.8150347945
  0
VERTEX
  8
0
 62
7
  6
CONTINUOUS
 10
55.5980709339
 20
116.7293639127
  0
VERTEX
  8
0
 62
7
  6
CONTINUOUS
 10
55.6482083141
 20
116.6296258612
  0
VERTEX
  8
0
 62
7
  6
CONTINUOUS
 10
55.6896105048
 20
116.5173270688
  0
VERTEX
  8
0
 62
7
  6
CONTINUOUS
 10
55.7216026107
 20
116.3944223891
  0
VERTEX
  8
0
 62
7
  6
CONTINUOUS
 10
55.7439046968
 20
116.2628764612
  0
VERTEX
  8
0
 62
7
  6
CONTINUOUS
 10
55.7565941183
 20
116.1247076153
  0
VERTEX
  8
0
 62
7
  6
CONTINUOUS
 10
55.7601375008
 20
115.9967705214
  0
SEQEND
  0
POLYLINE
  8
0
 62
7
  6
CONTINUOUS
 66
1
 70
0
  0
VERTEX
  8
0
 62
7
  6
CONTINUOUS
 10
42.8101370406
 20
152.6895288479
  0
VERTEX
  8
0
 62
7
  6
CONTINUOUS
 10
42.7958373201
 20
152.7087652255
  0
VERTEX
  8
0
 62
7
  6
CONTINUOUS
 10
42.7535989181
 20
152.7266806324
  0
VERTEX
  8
0
 62
7
  6
CONTINUOUS
 10
42.6856051378
 20
152.742310866
  0
VERTEX
  8
0
 62
7
  6
CONTINUOUS
 10
42.6430567205
 20
152.7490032049
  0
VERTEX
  8
0
 62
7
  6
CONTINUOUS
 10
42.5438487633
 20
152.7596996921
  0
VERTEX
  8
0
 62
7
  6
CONTINUOUS
 10
42.4306818269
 20
152.7663601647
  0
VERTEX
  8
0
 62
7
  6
CONTINUOUS
 10
42.3101370406
 20
152.7686244576
  0
SEQEND
  0
LINE
  8
0
 62
7
  6
CONTINUOUS
 10
66.9063692357
 20
142.3647839765
 11
68.1607294514
 21
122.4647839765
  0
LINE
  8
0
 62
7
  6
CONTINUOUS
 10
69.7639048455
 20
122.4647839765
 11
68.5095446298
 21
142.3647839765
  0
LINE
  8
0
 62
7
  6
CONTINUOUS
 10
68.2101370406
 20
148.8327694855
 11
68.2101370406
 21
155.2047839765
  0
LINE
  8
0
 62
7
  6
CONTINUOUS
 10
68.4601370406
 20
109.6247839765
 11
68.4601370406
 21
115.9967984142
  0
POLYLINE
  8
0
 62
7
  6
CONTINUOUS
 66
1
 70
0
  0
VERTEX
  8
0
 62
7
  6
CONTINUOUS
 10
49.1601370406
 20
112.1400391051
  0
VERTEX
  8
0
 62
7
  6
CONTINUOUS
 10
49.1458373201
 20
112.1208027275
  0
VERTEX
  8
0
 62
7
  6
CONTINUOUS
 10
49.1035989181
 20
112.1028873207
  0
VERTEX
  8
0
 62
7
  6
CONTINUOUS
 10
49.0356051378
 20
112.0872570871
  0
VERTEX
  8
0
 62
7
  6
CONTINUOUS
 10
48.9930567205
 20
112.0805647481
  0
VERTEX
  8
0
 62
7
  6
CONTINUOUS
 10
48.8938487633
 20
112.0698682609
  0
VERTEX
  8
0
 62
7
  6
CONTINUOUS
 10
48.7806818269
 20
112.0632077883
  0
VERTEX
  8
0
 62
7
  6
CONTINUOUS
 10
48.6601370406
 20
112.0609434955
  0
SEQEND
  0
LINE
  8
0
 62
7
  6
CONTINUOUS
 10
36.9601370406
 20
116.9790882919
 11
42.5601370362
 21
116.9790882919
  0
LINE
  8
0
 62
7
  6
CONTINUOUS
 10
49.6601370406
 20
116.9790882919
 11
55.2601370362
 21
116.9790882919
  0
LINE
  8
0
 62
7
  6
CONTINUOUS
 10
62.3601370406
 20
116.9790882919
 11
67.9601370362
 21
116.9790882919
  0
LINE
  8
0
 62
7
  6
CONTINUOUS
 10
75.0601370406
 20
116.9790882919
 11
80.6601370362
 21
116.9790882919
  0
LINE
  8
0
 62
7
  6
CONTINUOUS
 10
87.7601370406
 20
116.9790882919
 11
93.3601370362
 21
116.9790882919
  0
LINE
  8
0
 62
7
  6
CONTINUOUS
 10
100.4601370406
 20
116.9790882919
 11
106.0601370362
 21
116.9790882919
  0
LINE
  8
0
 62
7
  6
CONTINUOUS
 10
113.1601370406
 20
116.9790882919
 11
118.7601370362
 21
116.9790882919
  0
LINE
  8
0
 62
7
  6
CONTINUOUS
 10
125.8601370406
 20
116.9790882919
 11
131.4601370362
 21
116.9790882919
  0
LINE
  8
0
 62
7
  6
CONTINUOUS
 10
33.4601370406
 20
117.9008055939
 11
33.6601370406
 21
117.9008055939
  0
LINE
  8
0
 62
7
  6
CONTINUOUS
 10
134.7601370406
 20
117.9008055939
 11
134.9601370406
 21
117.9008055939
  0
POLYLINE
  8
0
 62
7
  6
CONTINUOUS
 66
1
 70
0
  0
VERTEX
  8
0
 62
7
  6
CONTINUOUS
 10
67.9601370362
 20
116.9790882114
  0
VERTEX
  8
0
 62
7
  6
CONTINUOUS
 10
68.0269261652
 20
116.9701071622
  0
VERTEX
  8
0
 62
7
  6
CONTINUOUS
 10
68.102808723
 20
116.938068301
  0
VERTEX
  8
0
 62
7
  6
CONTINUOUS
 10
68.1745091818
 20
116.8853750283
  0
VERTEX
  8
0
 62
7
  6
CONTINUOUS
 10
68.2399822323
 20
116.8150347874
  0
VERTEX
  8
0
 62
7
  6
CONTINUOUS
 10
68.2980709203
 20
116.7293639353
  0
VERTEX
  8
0
 62
7
  6
CONTINUOUS
 10
68.3482083125
 20
116.6296258645
  0
VERTEX
  8
0
 62
7
  6
CONTINUOUS
 10
68.3896105035
 20
116.5173270731
  0
VERTEX
  8
0
 62
7
  6
CONTINUOUS
 10
68.4216026113
 20
116.3944223843
  0
VERTEX
  8
0
 62
7
  6
CONTINUOUS
 10
68.4439046985
 20
116.2628764384
  0
VERTEX
  8
0
 62
7
  6
CONTINUOUS
 10
68.4565941207
 20
116.1247075932
  0
VERTEX
  8
0
 62
7
  6
CONTINUOUS
 10
68.4601374996
 20
115.996770638
  0
SEQEND
  0
POLYLINE
  8
0
 62
7
  6
CONTINUOUS
 66
1
 70
0
  0
VERTEX
  8
0
 62
7
  6
CONTINUOUS
 10
80.6601370362
 20
116.9790882117
  0
VERTEX
  8
0
 62
7
  6
CONTINUOUS
 10
80.7269261623
 20
116.970107163
  0
VERTEX
  8
0
 62
7
  6
CONTINUOUS
 10
80.8028087363
 20
116.9380682924
  0
VERTEX
  8
0
 62
7
  6
CONTINUOUS
 10
80.8745092038
 20
116.8853750075
  0
VERTEX
  8
0
 62
7
  6
CONTINUOUS
 10
80.9399822232
 20
116.8150347945
  0
VERTEX
  8
0
 62
7
  6
CONTINUOUS
 10
80.9980709339
 20
116.7293639127
  0
VERTEX
  8
0
 62
7
  6
CONTINUOUS
 10
81.0482083141
 20
116.6296258612
  0
VERTEX
  8
0
 62
7
  6
CONTINUOUS
 10
81.0896105048
 20
116.5173270688
  0
VERTEX
  8
0
 62
7
  6
CONTINUOUS
 10
81.1216026107
 20
116.3944223891
  0
VERTEX
  8
0
 62
7
  6
CONTINUOUS
 10
81.1439046968
 20
116.2628764612
  0
VERTEX
  8
0
 62
7
  6
CONTINUOUS
 10
81.1565941183
 20
116.1247076153
  0
VERTEX
  8
0
 62
7
  6
CONTINUOUS
 10
81.1601375008
 20
115.9967705214
  0
SEQEND
  0
POLYLINE
  8
0
 62
7
  6
CONTINUOUS
 66
1
 70
0
  0
VERTEX
  8
0
 62
7
  6
CONTINUOUS
 10
81.1601370406
 20
112.1400391051
  0
VERTEX
  8
0
 62
7
  6
CONTINUOUS
 10
81.1744367611
 20
112.1208027275
  0
VERTEX
  8
0
 62
7
  6
CONTINUOUS
 10
81.2166751631
 20
112.1028873207
  0
VERTEX
  8
0
 62
7
  6
CONTINUOUS
 10
81.2846689434
 20
112.0872570871
  0
VERTEX
  8
0
 62
7
  6
CONTINUOUS
 10
81.3272173607
 20
112.0805647481
  0
VERTEX
  8
0
 62
7
  6
CONTINUOUS
 10
81.4264253179
 20
112.0698682609
  0
VERTEX
  8
0
 62
7
  6
CONTINUOUS
 10
81.5395922543
 20
112.0632077883
  0
VERTEX
  8
0
 62
7
  6
CONTINUOUS
 10
81.6601370406
 20
112.0609434955
  0
SEQEND
  0
POLYLINE
  8
0
 62
7
  6
CONTINUOUS
 66
1
 70
0
  0
VERTEX
  8
0
 62
7
  6
CONTINUOUS
 10
93.3601370362
 20
116.9790882114
  0
VERTEX
  8
0
 62
7
  6
CONTINUOUS
 10
93.4269261652
 20
116.9701071622
  0
VERTEX
  8
0
 62
7
  6
CONTINUOUS
 10
93.502808723
 20
116.938068301
  0
VERTEX
  8
0
 62
7
  6
CONTINUOUS
 10
93.5745091818
 20
116.8853750283
  0
VERTEX
  8
0
 62
7
  6
CONTINUOUS
 10
93.6399822323
 20
116.8150347874
  0
VERTEX
  8
0
 62
7
  6
CONTINUOUS
 10
93.6980709203
 20
116.7293639353
  0
VERTEX
  8
0
 62
7
  6
CONTINUOUS
 10
93.7482083125
 20
116.6296258645
  0
VERTEX
  8
0
 62
7
  6
CONTINUOUS
 10
93.7896105035
 20
116.5173270731
  0
VERTEX
  8
0
 62
7
  6
CONTINUOUS
 10
93.8216026113
 20
116.3944223843
  0
VERTEX
  8
0
 62
7
  6
CONTINUOUS
 10
93.8439046985
 20
116.2628764384
  0
VERTEX
  8
0
 62
7
  6
CONTINUOUS
 10
93.8565941207
 20
116.1247075932
  0
VERTEX
  8
0
 62
7
  6
CONTINUOUS
 10
93.8601374996
 20
115.996770638
  0
SEQEND
  0
POLYLINE
  8
0
 62
7
  6
CONTINUOUS
 66
1
 70
0
  0
VERTEX
  8
0
 62
7
  6
CONTINUOUS
 10
106.0601370362
 20
116.9790882117
  0
VERTEX
  8
0
 62
7
  6
CONTINUOUS
 10
106.1269261623
 20
116.970107163
  0
VERTEX
  8
0
 62
7
  6
CONTINUOUS
 10
106.2028087363
 20
116.9380682924
  0
VERTEX
  8
0
 62
7
  6
CONTINUOUS
 10
106.2745092038
 20
116.8853750075
  0
VERTEX
  8
0
 62
7
  6
CONTINUOUS
 10
106.3399822232
 20
116.8150347945
  0
VERTEX
  8
0
 62
7
  6
CONTINUOUS
 10
106.3980709339
 20
116.7293639127
  0
VERTEX
  8
0
 62
7
  6
CONTINUOUS
 10
106.4482083141
 20
116.6296258612
  0
VERTEX
  8
0
 62
7
  6
CONTINUOUS
 10
106.4896105048
 20
116.5173270688
  0
VERTEX
  8
0
 62
7
  6
CONTINUOUS
 10
106.5216026107
 20
116.3944223891
  0
VERTEX
  8
0
 62
7
  6
CONTINUOUS
 10
106.5439046968
 20
116.2628764612
  0
VERTEX
  8
0
 62
7
  6
CONTINUOUS
 10
106.5565941183
 20
116.1247076153
  0
VERTEX
  8
0
 62
7
  6
CONTINUOUS
 10
106.5601375008
 20
115.9967705214
  0
SEQEND
  0
POLYLINE
  8
0
 62
7
  6
CONTINUOUS
 66
1
 70
0
  0
VERTEX
  8
0
 62
7
  6
CONTINUOUS
 10
118.7601370362
 20
116.9790882114
  0
VERTEX
  8
0
 62
7
  6
CONTINUOUS
 10
118.8269261652
 20
116.9701071622
  0
VERTEX
  8
0
 62
7
  6
CONTINUOUS
 10
118.902808723
 20
116.938068301
  0
VERTEX
  8
0
 62
7
  6
CONTINUOUS
 10
118.9745091818
 20
116.8853750283
  0
VERTEX
  8
0
 62
7
  6
CONTINUOUS
 10
119.0399822323
 20
116.8150347874
  0
VERTEX
  8
0
 62
7
  6
CONTINUOUS
 10
119.0980709203
 20
116.7293639353
  0
VERTEX
  8
0
 62
7
  6
CONTINUOUS
 10
119.1482083125
 20
116.6296258645
  0
VERTEX
  8
0
 62
7
  6
CONTINUOUS
 10
119.1896105035
 20
116.5173270731
  0
VERTEX
  8
0
 62
7
  6
CONTINUOUS
 10
119.2216026113
 20
116.3944223843
  0
VERTEX
  8
0
 62
7
  6
CONTINUOUS
 10
119.2439046985
 20
116.2628764384
  0
VERTEX
  8
0
 62
7
  6
CONTINUOUS
 10
119.2565941207
 20
116.1247075932
  0
VERTEX
  8
0
 62
7
  6
CONTINUOUS
 10
119.2601374996
 20
115.996770638
  0
SEQEND
  0
LINE
  8
0
 62
7
  6
CONTINUOUS
 10
74.5601370406
 20
109.6247839765
 11
74.5601370406
 21
115.9967984676
  0
LINE
  8
0
 62
7
  6
CONTINUOUS
 10
74.8101370406
 20
155.2047839765
 11
74.8101370406
 21
148.8327695389
  0
POLYLINE
  8
0
 62
7
  6
CONTINUOUS
 66
1
 70
0
  0
VERTEX
  8
0
 62
7
  6
CONTINUOUS
 10
74.8101374972
 20
148.8327976991
  0
VERTEX
  8
0
 62
7
  6
CONTINUOUS
 10
74.8066670504
 20
148.7061517519
  0
VERTEX
  8
0
 62
7
  6
CONTINUOUS
 10
74.7940576898
 20
148.5678796519
  0
VERTEX
  8
0
 62
7
  6
CONTINUOUS
 10
74.7718335472
 20
148.4362319448
  0
VERTEX
  8
0
 62
7
  6
CONTINUOUS
 10
74.7399170567
 20
148.3132253204
  0
VERTEX
  8
0
 62
7
  6
CONTINUOUS
 10
74.6985876232
 20
148.2008216832
  0
VERTEX
  8
0
 62
7
  6
CONTINUOUS
 10
74.6485202031
 20
148.1009747053
  0
VERTEX
  8
0
 62
7
  6
CONTINUOUS
 10
74.5904966948
 20
148.015184752
  0
VERTEX
  8
0
 62
7
  6
CONTINUOUS
 10
74.5250837339
 20
147.9447109804
  0
VERTEX
  8
0
 62
7
  6
CONTINUOUS
 10
74.453431044
 20
147.8918601255
  0
VERTEX
  8
0
 62
7
  6
CONTINUOUS
 10
74.3775684036
 20
147.8596342101
  0
VERTEX
  8
0
 62
7
  6
CONTINUOUS
 10
74.3101370406
 20
147.8504797421
  0
SEQEND
  0
POLYLINE
  8
0
 62
7
  6
CONTINUOUS
 66
1
 70
0
  0
VERTEX
  8
0
 62
7
  6
CONTINUOUS
 10
74.5601368311
 20
115.9967613023
  0
VERTEX
  8
0
 62
7
  6
CONTINUOUS
 10
74.5636072224
 20
116.1234200362
  0
VERTEX
  8
0
 62
7
  6
CONTINUOUS
 10
74.5762168012
 20
116.2616935766
  0
VERTEX
  8
0
 62
7
  6
CONTINUOUS
 10
74.5984409134
 20
116.3933386222
  0
VERTEX
  8
0
 62
7
  6
CONTINUOUS
 10
74.630357105
 20
116.51634331
  0
VERTEX
  8
0
 62
7
  6
CONTINUOUS
 10
74.6716866619
 20
116.6287468267
  0
VERTEX
  8
0
 62
7
  6
CONTINUOUS
 10
74.7217537812
 20
116.7285931113
  0
VERTEX
  8
0
 62
7
  6
CONTINUOUS
 10
74.7797777789
 20
116.814383544
  0
VERTEX
  8
0
 62
7
  6
CONTINUOUS
 10
74.8451904927
 20
116.884857173
  0
VERTEX
  8
0
 62
7
  6
CONTINUOUS
 10
74.91684382
 20
116.9377083454
  0
VERTEX
  8
0
 62
7
  6
CONTINUOUS
 10
74.9927094387
 20
116.969934752
  0
VERTEX
  8
0
 62
7
  6
CONTINUOUS
 10
75.0601370406
 20
116.9790882093
  0
SEQEND
  0
LINE
  8
0
 62
7
  6
CONTINUOUS
 10
74.5107294514
 20
142.3647839765
 11
73.2563692357
 21
122.4647839765
  0
LINE
  8
0
 62
7
  6
CONTINUOUS
 10
74.8595446298
 20
122.4647839765
 11
76.1139048455
 21
142.3647839765
  0
POLYLINE
  8
0
 62
7
  6
CONTINUOUS
 66
1
 70
0
  0
VERTEX
  8
0
 62
7
  6
CONTINUOUS
 10
87.5101370406
 20
152.6895288479
  0
VERTEX
  8
0
 62
7
  6
CONTINUOUS
 10
87.5244367611
 20
152.7087652255
  0
VERTEX
  8
0
 62
7
  6
CONTINUOUS
 10
87.5666751631
 20
152.7266806324
  0
VERTEX
  8
0
 62
7
  6
CONTINUOUS
 10
87.6346689434
 20
152.742310866
  0
VERTEX
  8
0
 62
7
  6
CONTINUOUS
 10
87.6772173607
 20
152.7490032049
  0
VERTEX
  8
0
 62
7
  6
CONTINUOUS
 10
87.7764253179
 20
152.7596996921
  0
VERTEX
  8
0
 62
7
  6
CONTINUOUS
 10
87.8895922543
 20
152.7663601647
  0
VERTEX
  8
0
 62
7
  6
CONTINUOUS
 10
88.0101370406
 20
152.7686244576
  0
SEQEND
  0
LINE
  8
0
 62
7
  6
CONTINUOUS
 10
131.9528459619
 20
122.4647839765
 11
125.3589492434
 21
122.4647839765
  0
LINE
  8
0
 62
7
  6
CONTINUOUS
 10
124.3569646221
 20
122.4647839765
 11
120.2633094591
 21
122.4647839765
  0
LINE
  8
0
 62
7
  6
CONTINUOUS
 10
119.2613248378
 20
122.4647839765
 11
112.6589492434
 21
122.4647839765
  0
LINE
  8
0
 62
7
  6
CONTINUOUS
 10
111.6569646221
 20
122.4647839765
 11
107.5633094591
 21
122.4647839765
  0
LINE
  8
0
 62
7
  6
CONTINUOUS
 10
106.5613248378
 20
122.4647839765
 11
99.9589492434
 21
122.4647839765
  0
LINE
  8
0
 62
7
  6
CONTINUOUS
 10
98.9569646221
 20
122.4647839765
 11
94.8633094591
 21
122.4647839765
  0
LINE
  8
0
 62
7
  6
CONTINUOUS
 10
93.8613248378
 20
122.4647839765
 11
87.2589492434
 21
122.4647839765
  0
LINE
  8
0
 62
7
  6
CONTINUOUS
 10
86.2569646221
 20
122.4647839765
 11
82.1633094591
 21
122.4647839765
  0
LINE
  8
0
 62
7
  6
CONTINUOUS
 10
81.1613248378
 20
122.4647839765
 11
74.5589492434
 21
122.4647839765
  0
LINE
  8
0
 62
7
  6
CONTINUOUS
 10
73.5569646221
 20
122.4647839765
 11
69.4633094591
 21
122.4647839765
  0
LINE
  8
0
 62
7
  6
CONTINUOUS
 10
68.4613248378
 20
122.4647839765
 11
61.8589492434
 21
122.4647839765
  0
LINE
  8
0
 62
7
  6
CONTINUOUS
 10
60.8569646221
 20
122.4647839765
 11
56.7633094591
 21
122.4647839765
  0
LINE
  8
0
 62
7
  6
CONTINUOUS
 10
55.7613248378
 20
122.4647839765
 11
49.1589492434
 21
122.4647839765
  0
LINE
  8
0
 62
7
  6
CONTINUOUS
 10
48.1569646221
 20
122.4647839765
 11
44.0633094591
 21
122.4647839765
  0
LINE
  8
0
 62
7
  6
CONTINUOUS
 10
43.0613248378
 20
122.4647839765
 11
36.4674281193
 21
122.4647839765
  0
POLYLINE
  8
0
 62
7
  6
CONTINUOUS
 66
1
 70
0
  0
VERTEX
  8
0
 62
7
  6
CONTINUOUS
 10
131.4601370362
 20
116.9790882114
  0
VERTEX
  8
0
 62
7
  6
CONTINUOUS
 10
131.5269261652
 20
116.9701071622
  0
VERTEX
  8
0
 62
7
  6
CONTINUOUS
 10
131.602808723
 20
116.938068301
  0
VERTEX
  8
0
 62
7
  6
CONTINUOUS
 10
131.6745091818
 20
116.8853750283
  0
VERTEX
  8
0
 62
7
  6
CONTINUOUS
 10
131.7399822323
 20
116.8150347874
  0
VERTEX
  8
0
 62
7
  6
CONTINUOUS
 10
131.7980709203
 20
116.7293639353
  0
VERTEX
  8
0
 62
7
  6
CONTINUOUS
 10
131.8482083125
 20
116.6296258645
  0
VERTEX
  8
0
 62
7
  6
CONTINUOUS
 10
131.8896105035
 20
116.5173270731
  0
VERTEX
  8
0
 62
7
  6
CONTINUOUS
 10
131.9216026113
 20
116.3944223843
  0
VERTEX
  8
0
 62
7
  6
CONTINUOUS
 10
131.9439046985
 20
116.2628764384
  0
VERTEX
  8
0
 62
7
  6
CONTINUOUS
 10
131.9565941207
 20
116.1247075932
  0
VERTEX
  8
0
 62
7
  6
CONTINUOUS
 10
131.9601374996
 20
115.996770638
  0
SEQEND
  0
LINE
  8
0
 62
7
  6
CONTINUOUS
 10
79.6063692357
 20
142.3647839765
 11
80.8607294514
 21
122.4647839765
  0
LINE
  8
0
 62
7
  6
CONTINUOUS
 10
80.9101370406
 20
148.8327694854
 11
80.9101370406
 21
155.2047839765
  0
POLYLINE
  8
0
 62
7
  6
CONTINUOUS
 66
1
 70
0
  0
VERTEX
  8
0
 62
7
  6
CONTINUOUS
 10
93.8601370406
 20
112.1400391051
  0
VERTEX
  8
0
 62
7
  6
CONTINUOUS
 10
93.8744367611
 20
112.1208027275
  0
VERTEX
  8
0
 62
7
  6
CONTINUOUS
 10
93.9166751631
 20
112.1028873207
  0
VERTEX
  8
0
 62
7
  6
CONTINUOUS
 10
93.9846689434
 20
112.0872570871
  0
VERTEX
  8
0
 62
7
  6
CONTINUOUS
 10
94.0272173607
 20
112.0805647481
  0
VERTEX
  8
0
 62
7
  6
CONTINUOUS
 10
94.1264253179
 20
112.0698682609
  0
VERTEX
  8
0
 62
7
  6
CONTINUOUS
 10
94.2395922543
 20
112.0632077883
  0
VERTEX
  8
0
 62
7
  6
CONTINUOUS
 10
94.3601370406
 20
112.0609434955
  0
SEQEND
  0
LINE
  8
0
 62
7
  6
CONTINUOUS
 10
82.4639048455
 20
122.4647839765
 11
81.2095446298
 21
142.3647839765
  0
LINE
  8
0
 62
7
  6
CONTINUOUS
 10
81.1601370406
 20
109.6247839765
 11
81.1601370406
 21
115.9967984142
  0
LINE
  8
1_AXIS
 62
2
  6
CENTER
 10
84.2101370406
 20
157.1460337752
 11
84.2101370406
 21
134.4148839765
  0
LINE
  8
1_AXIS
 62
2
  6
CONTINUOUS
 10
84.2101370406
 20
133.2947839765
 11
84.2101370406
 21
131.5347839765
  0
LINE
  8
1_AXIS
 62
2
  6
CENTER
 10
84.2101370406
 20
108.4141143121
 11
84.2101370406
 21
130.4146839765
  0
LINE
  8
1_AXIS
 62
2
  6
CENTER
 10
144.0544410654
 20
132.4147839765
 11
86.2102370406
 21
132.4147839765
  0
LINE
  8
1_AXIS
 62
2
  6
CONTINUOUS
 10
85.0901370406
 20
132.4147839765
 11
83.3301370406
 21
132.4147839765
  0
LINE
  8
1_AXIS
 62
2
  6
CENTER
 10
25.9241860319
 20
132.4147839765
 11
82.2100370406
 21
132.4147839765
  0
POLYLINE
  8
0
 62
7
  6
CONTINUOUS
 66
1
 70
0
  0
VERTEX
  8
0
 62
7
  6
CONTINUOUS
 10
68.2101370406
 20
152.6895288479
  0
VERTEX
  8
0
 62
7
  6
CONTINUOUS
 10
68.1958373201
 20
152.7087652255
  0
VERTEX
  8
0
 62
7
  6
CONTINUOUS
 10
68.1535989181
 20
152.7266806324
  0
VERTEX
  8
0
 62
7
  6
CONTINUOUS
 10
68.0856051378
 20
152.742310866
  0
VERTEX
  8
0
 62
7
  6
CONTINUOUS
 10
68.0430567205
 20
152.7490032049
  0
VERTEX
  8
0
 62
7
  6
CONTINUOUS
 10
67.9438487633
 20
152.7596996921
  0
VERTEX
  8
0
 62
7
  6
CONTINUOUS
 10
67.8306818269
 20
152.7663601647
  0
VERTEX
  8
0
 62
7
  6
CONTINUOUS
 10
67.7101370406
 20
152.7686244576
  0
SEQEND
  0
LINE
  8
0
 62
7
  6
CONTINUOUS
 10
87.2601370406
 20
109.6247839765
 11
87.2601370406
 21
115.9967984674
  0
LINE
  8
0
 62
7
  6
CONTINUOUS
 10
87.5101370406
 20
148.8327695389
 11
87.5101370406
 21
155.2047839765
  0
POLYLINE
  8
0
 62
7
  6
CONTINUOUS
 66
1
 70
0
  0
VERTEX
  8
0
 62
7
  6
CONTINUOUS
 10
87.5101374962
 20
148.8327975983
  0
VERTEX
  8
0
 62
7
  6
CONTINUOUS
 10
87.5066670524
 20
148.706151772
  0
VERTEX
  8
0
 62
7
  6
CONTINUOUS
 10
87.4940576917
 20
148.5678796752
  0
VERTEX
  8
0
 62
7
  6
CONTINUOUS
 10
87.4718335481
 20
148.43623195
  0
VERTEX
  8
0
 62
7
  6
CONTINUOUS
 10
87.4399170554
 20
148.3132253155
  0
VERTEX
  8
0
 62
7
  6
CONTINUOUS
 10
87.3985876208
 20
148.200821678
  0
VERTEX
  8
0
 62
7
  6
CONTINUOUS
 10
87.3485201848
 20
148.1009746752
  0
VERTEX
  8
0
 62
7
  6
CONTINUOUS
 10
87.2904966984
 20
148.0151847515
  0
VERTEX
  8
0
 62
7
  6
CONTINUOUS
 10
87.2250837106
 20
147.9447109586
  0
VERTEX
  8
0
 62
7
  6
CONTINUOUS
 10
87.1534310316
 20
147.8918601177
  0
VERTEX
  8
0
 62
7
  6
CONTINUOUS
 10
87.0775684073
 20
147.859634211
  0
VERTEX
  8
0
 62
7
  6
CONTINUOUS
 10
87.0101370406
 20
147.8504797425
  0
SEQEND
  0
POLYLINE
  8
0
 62
7
  6
CONTINUOUS
 66
1
 70
0
  0
VERTEX
  8
0
 62
7
  6
CONTINUOUS
 10
87.2601368314
 20
115.9967613863
  0
VERTEX
  8
0
 62
7
  6
CONTINUOUS
 10
87.2636072224
 20
116.1234200127
  0
VERTEX
  8
0
 62
7
  6
CONTINUOUS
 10
87.2762167992
 20
116.2616935448
  0
VERTEX
  8
0
 62
7
  6
CONTINUOUS
 10
87.2984409119
 20
116.393338613
  0
VERTEX
  8
0
 62
7
  6
CONTINUOUS
 10
87.3303571057
 20
116.5163433124
  0
VERTEX
  8
0
 62
7
  6
CONTINUOUS
 10
87.3716866638
 20
116.628746832
  0
VERTEX
  8
0
 62
7
  6
CONTINUOUS
 10
87.4217537917
 20
116.7285931305
  0
VERTEX
  8
0
 62
7
  6
CONTINUOUS
 10
87.4797777778
 20
116.8143835481
  0
VERTEX
  8
0
 62
7
  6
CONTINUOUS
 10
87.5451905176
 20
116.8848571962
  0
VERTEX
  8
0
 62
7
  6
CONTINUOUS
 10
87.6168438336
 20
116.9377083526
  0
VERTEX
  8
0
 62
7
  6
CONTINUOUS
 10
87.692709436
 20
116.9699347512
  0
VERTEX
  8
0
 62
7
  6
CONTINUOUS
 10
87.7601370406
 20
116.9790882089
  0
SEQEND
  0
LINE
  8
0
 62
7
  6
CONTINUOUS
 10
87.2107294514
 20
142.3647839765
 11
85.9563692357
 21
122.4647839765
  0
LINE
  8
0
 62
7
  6
CONTINUOUS
 10
87.5595446298
 20
122.4647839765
 11
88.8139048455
 21
142.3647839765
  0
POLYLINE
  8
0
 62
7
  6
CONTINUOUS
 66
1
 70
0
  0
VERTEX
  8
0
 62
7
  6
CONTINUOUS
 10
106.5601370406
 20
112.1400391051
  0
VERTEX
  8
0
 62
7
  6
CONTINUOUS
 10
106.5744367611
 20
112.1208027275
  0
VERTEX
  8
0
 62
7
  6
CONTINUOUS
 10
106.6166751631
 20
112.1028873207
  0
VERTEX
  8
0
 62
7
  6
CONTINUOUS
 10
106.6846689434
 20
112.0872570871
  0
VERTEX
  8
0
 62
7
  6
CONTINUOUS
 10
106.7272173607
 20
112.0805647481
  0
VERTEX
  8
0
 62
7
  6
CONTINUOUS
 10
106.8264253179
 20
112.0698682609
  0
VERTEX
  8
0
 62
7
  6
CONTINUOUS
 10
106.9395922543
 20
112.0632077883
  0
VERTEX
  8
0
 62
7
  6
CONTINUOUS
 10
107.0601370406
 20
112.0609434955
  0
SEQEND
  0
LINE
  8
0
 62
7
  6
CONTINUOUS
 10
92.3063692357
 20
142.3647839765
 11
93.5607294514
 21
122.4647839765
  0
LINE
  8
0
 62
7
  6
CONTINUOUS
 10
95.1639048455
 20
122.4647839765
 11
93.9095446298
 21
142.3647839765
  0
LINE
  8
0
 62
7
  6
CONTINUOUS
 10
93.6101370406
 20
148.8327694855
 11
93.6101370406
 21
155.2047839765
  0
LINE
  8
0
 62
7
  6
CONTINUOUS
 10
93.8601370406
 20
109.6247839765
 11
93.8601370406
 21
115.9967984142
  0
POLYLINE
  8
0
 62
7
  6
CONTINUOUS
 66
1
 70
0
  0
VERTEX
  8
0
 62
7
  6
CONTINUOUS
 10
112.9101370406
 20
152.6895288479
  0
VERTEX
  8
0
 62
7
  6
CONTINUOUS
 10
112.9244367611
 20
152.7087652255
  0
VERTEX
  8
0
 62
7
  6
CONTINUOUS
 10
112.9666751631
 20
152.7266806324
  0
VERTEX
  8
0
 62
7
  6
CONTINUOUS
 10
113.0346689434
 20
152.742310866
  0
VERTEX
  8
0
 62
7
  6
CONTINUOUS
 10
113.0772173607
 20
152.7490032049
  0
VERTEX
  8
0
 62
7
  6
CONTINUOUS
 10
113.1764253179
 20
152.7596996921
  0
VERTEX
  8
0
 62
7
  6
CONTINUOUS
 10
113.2895922543
 20
152.7663601647
  0
VERTEX
  8
0
 62
7
  6
CONTINUOUS
 10
113.4101370406
 20
152.7686244576
  0
SEQEND
  0
LINE
  8
0
 62
7
  6
CONTINUOUS
 10
37.7149205968
 20
142.3647839765
 11
41.8069646221
 21
142.3647839765
  0
LINE
  8
0
 62
7
  6
CONTINUOUS
 10
42.8089492434
 20
142.3647839765
 11
49.4113248378
 21
142.3647839765
  0
LINE
  8
0
 62
7
  6
CONTINUOUS
 10
50.4133094591
 20
142.3647839765
 11
54.5069646221
 21
142.3647839765
  0
LINE
  8
0
 62
7
  6
CONTINUOUS
 10
55.5089492434
 20
142.3647839765
 11
62.1113248378
 21
142.3647839765
  0
LINE
  8
0
 62
7
  6
CONTINUOUS
 10
63.1133094591
 20
142.3647839765
 11
67.2069646221
 21
142.3647839765
  0
LINE
  8
0
 62
7
  6
CONTINUOUS
 10
68.2089492434
 20
142.3647839765
 11
74.8113248378
 21
142.3647839765
  0
LINE
  8
0
 62
7
  6
CONTINUOUS
 10
75.8133094591
 20
142.3647839765
 11
79.9069646221
 21
142.3647839765
  0
LINE
  8
0
 62
7
  6
CONTINUOUS
 10
80.9089492434
 20
142.3647839765
 11
87.5113248378
 21
142.3647839765
  0
LINE
  8
0
 62
7
  6
CONTINUOUS
 10
88.5133094591
 20
142.3647839765
 11
92.6069646221
 21
142.3647839765
  0
LINE
  8
0
 62
7
  6
CONTINUOUS
 10
93.6089492434
 20
142.3647839765
 11
100.2113248378
 21
142.3647839765
  0
LINE
  8
0
 62
7
  6
CONTINUOUS
 10
101.2133094591
 20
142.3647839765
 11
105.3069646221
 21
142.3647839765
  0
LINE
  8
0
 62
7
  6
CONTINUOUS
 10
106.3089492434
 20
142.3647839765
 11
112.9113248378
 21
142.3647839765
  0
LINE
  8
0
 62
7
  6
CONTINUOUS
 10
113.9133094591
 20
142.3647839765
 11
118.0069646221
 21
142.3647839765
  0
LINE
  8
0
 62
7
  6
CONTINUOUS
 10
119.0089492434
 20
142.3647839765
 11
125.6113248378
 21
142.3647839765
  0
LINE
  8
0
 62
7
  6
CONTINUOUS
 10
126.6133094591
 20
142.3647839765
 11
130.7053534844
 21
142.3647839765
  0
POLYLINE
  8
0
 62
7
  6
CONTINUOUS
 66
1
 70
0
  0
VERTEX
  8
0
 62
7
  6
CONTINUOUS
 10
43.3101370791
 20
147.8504797444
  0
VERTEX
  8
0
 62
7
  6
CONTINUOUS
 10
43.2433518861
 20
147.8594597348
  0
VERTEX
  8
0
 62
7
  6
CONTINUOUS
 10
43.1674662513
 20
147.8914990835
  0
VERTEX
  8
0
 62
7
  6
CONTINUOUS
 10
43.0957651409
 20
147.9441926514
  0
VERTEX
  8
0
 62
7
  6
CONTINUOUS
 10
43.0302922781
 20
148.0145327753
  0
VERTEX
  8
0
 62
7
  6
CONTINUOUS
 10
42.9722030997
 20
148.1002040957
  0
VERTEX
  8
0
 62
7
  6
CONTINUOUS
 10
42.9220659702
 20
148.1999415461
  0
VERTEX
  8
0
 62
7
  6
CONTINUOUS
 10
42.880663662
 20
148.3122401985
  0
VERTEX
  8
0
 62
7
  6
CONTINUOUS
 10
42.8486718471
 20
148.4351429778
  0
VERTEX
  8
0
 62
7
  6
CONTINUOUS
 10
42.8263698003
 20
148.5666862427
  0
VERTEX
  8
0
 62
7
  6
CONTINUOUS
 10
42.8136801734
 20
148.7048565389
  0
VERTEX
  8
0
 62
7
  6
CONTINUOUS
 10
42.8101368273
 20
148.8328065033
  0
SEQEND
  0
POLYLINE
  8
0
 62
7
  6
CONTINUOUS
 66
1
 70
0
  0
VERTEX
  8
0
 62
7
  6
CONTINUOUS
 10
56.0101370789
 20
147.8504797439
  0
VERTEX
  8
0
 62
7
  6
CONTINUOUS
 10
55.9433518885
 20
147.8594597342
  0
VERTEX
  8
0
 62
7
  6
CONTINUOUS
 10
55.8674662369
 20
147.891499091
  0
VERTEX
  8
0
 62
7
  6
CONTINUOUS
 10
55.7957651143
 20
147.9441926758
  0
VERTEX
  8
0
 62
7
  6
CONTINUOUS
 10
55.7302922753
 20
148.0145327853
  0
VERTEX
  8
0
 62
7
  6
CONTINUOUS
 10
55.6722030854
 20
148.1002041209
  0
VERTEX
  8
0
 62
7
  6
CONTINUOUS
 10
55.6220659669
 20
148.1999415547
  0
VERTEX
  8
0
 62
7
  6
CONTINUOUS
 10
55.5806636608
 20
148.312240203
  0
VERTEX
  8
0
 62
7
  6
CONTINUOUS
 10
55.5486718485
 20
148.4351429701
  0
VERTEX
  8
0
 62
7
  6
CONTINUOUS
 10
55.5263698023
 20
148.5666862121
  0
VERTEX
  8
0
 62
7
  6
CONTINUOUS
 10
55.5136801736
 20
148.7048565171
  0
VERTEX
  8
0
 62
7
  6
CONTINUOUS
 10
55.510136827
 20
148.8328065785
  0
SEQEND
  0
LINE
  8
0
 62
7
  6
CONTINUOUS
 10
99.9107294514
 20
142.3647839765
 11
98.6563692357
 21
122.4647839765
  0
POLYLINE
  8
0
 62
7
  6
CONTINUOUS
 66
1
 70
0
  0
VERTEX
  8
0
 62
7
  6
CONTINUOUS
 10
68.7101370791
 20
147.8504797444
  0
VERTEX
  8
0
 62
7
  6
CONTINUOUS
 10
68.6433518861
 20
147.8594597348
  0
VERTEX
  8
0
 62
7
  6
CONTINUOUS
 10
68.5674662513
 20
147.8914990835
  0
VERTEX
  8
0
 62
7
  6
CONTINUOUS
 10
68.4957651409
 20
147.9441926514
  0
VERTEX
  8
0
 62
7
  6
CONTINUOUS
 10
68.4302922781
 20
148.0145327753
  0
VERTEX
  8
0
 62
7
  6
CONTINUOUS
 10
68.3722030997
 20
148.1002040957
  0
VERTEX
  8
0
 62
7
  6
CONTINUOUS
 10
68.3220659702
 20
148.1999415461
  0
VERTEX
  8
0
 62
7
  6
CONTINUOUS
 10
68.280663662
 20
148.3122401985
  0
VERTEX
  8
0
 62
7
  6
CONTINUOUS
 10
68.2486718471
 20
148.4351429778
  0
VERTEX
  8
0
 62
7
  6
CONTINUOUS
 10
68.2263698003
 20
148.5666862427
  0
VERTEX
  8
0
 62
7
  6
CONTINUOUS
 10
68.2136801734
 20
148.7048565389
  0
VERTEX
  8
0
 62
7
  6
CONTINUOUS
 10
68.2101368273
 20
148.8328065033
  0
SEQEND
  0
POLYLINE
  8
0
 62
7
  6
CONTINUOUS
 66
1
 70
0
  0
VERTEX
  8
0
 62
7
  6
CONTINUOUS
 10
81.4101370789
 20
147.8504797439
  0
VERTEX
  8
0
 62
7
  6
CONTINUOUS
 10
81.3433518885
 20
147.8594597342
  0
VERTEX
  8
0
 62
7
  6
CONTINUOUS
 10
81.2674662369
 20
147.891499091
  0
VERTEX
  8
0
 62
7
  6
CONTINUOUS
 10
81.1957651143
 20
147.9441926758
  0
VERTEX
  8
0
 62
7
  6
CONTINUOUS
 10
81.1302922753
 20
148.0145327853
  0
VERTEX
  8
0
 62
7
  6
CONTINUOUS
 10
81.0722030854
 20
148.1002041209
  0
VERTEX
  8
0
 62
7
  6
CONTINUOUS
 10
81.0220659669
 20
148.1999415547
  0
VERTEX
  8
0
 62
7
  6
CONTINUOUS
 10
80.9806636608
 20
148.312240203
  0
VERTEX
  8
0
 62
7
  6
CONTINUOUS
 10
80.9486718485
 20
148.4351429701
  0
VERTEX
  8
0
 62
7
  6
CONTINUOUS
 10
80.9263698023
 20
148.5666862121
  0
VERTEX
  8
0
 62
7
  6
CONTINUOUS
 10
80.9136801736
 20
148.7048565171
  0
VERTEX
  8
0
 62
7
  6
CONTINUOUS
 10
80.910136827
 20
148.8328065785
  0
SEQEND
  0
LINE
  8
0
 62
7
  6
CONTINUOUS
 10
99.9601370406
 20
109.6247839765
 11
99.9601370406
 21
115.9967984676
  0
LINE
  8
0
 62
7
  6
CONTINUOUS
 10
100.2101370406
 20
148.8327695389
 11
100.2101370406
 21
155.2047839765
  0
POLYLINE
  8
0
 62
7
  6
CONTINUOUS
 66
1
 70
0
  0
VERTEX
  8
0
 62
7
  6
CONTINUOUS
 10
100.2101374972
 20
148.8327976991
  0
VERTEX
  8
0
 62
7
  6
CONTINUOUS
 10
100.2066670504
 20
148.7061517519
  0
VERTEX
  8
0
 62
7
  6
CONTINUOUS
 10
100.1940576898
 20
148.5678796519
  0
VERTEX
  8
0
 62
7
  6
CONTINUOUS
 10
100.1718335472
 20
148.4362319448
  0
VERTEX
  8
0
 62
7
  6
CONTINUOUS
 10
100.1399170567
 20
148.3132253204
  0
VERTEX
  8
0
 62
7
  6
CONTINUOUS
 10
100.0985876232
 20
148.2008216832
  0
VERTEX
  8
0
 62
7
  6
CONTINUOUS
 10
100.0485202031
 20
148.1009747053
  0
VERTEX
  8
0
 62
7
  6
CONTINUOUS
 10
99.9904966948
 20
148.015184752
  0
VERTEX
  8
0
 62
7
  6
CONTINUOUS
 10
99.9250837339
 20
147.9447109804
  0
VERTEX
  8
0
 62
7
  6
CONTINUOUS
 10
99.853431044
 20
147.8918601255
  0
VERTEX
  8
0
 62
7
  6
CONTINUOUS
 10
99.7775684036
 20
147.8596342101
  0
VERTEX
  8
0
 62
7
  6
CONTINUOUS
 10
99.7101370406
 20
147.8504797421
  0
SEQEND
  0
POLYLINE
  8
0
 62
7
  6
CONTINUOUS
 66
1
 70
0
  0
VERTEX
  8
0
 62
7
  6
CONTINUOUS
 10
99.9601368311
 20
115.9967613023
  0
VERTEX
  8
0
 62
7
  6
CONTINUOUS
 10
99.9636072224
 20
116.1234200362
  0
VERTEX
  8
0
 62
7
  6
CONTINUOUS
 10
99.9762168012
 20
116.2616935766
  0
VERTEX
  8
0
 62
7
  6
CONTINUOUS
 10
99.9984409134
 20
116.3933386222
  0
VERTEX
  8
0
 62
7
  6
CONTINUOUS
 10
100.030357105
 20
116.51634331
  0
VERTEX
  8
0
 62
7
  6
CONTINUOUS
 10
100.0716866619
 20
116.6287468267
  0
VERTEX
  8
0
 62
7
  6
CONTINUOUS
 10
100.1217537812
 20
116.7285931113
  0
VERTEX
  8
0
 62
7
  6
CONTINUOUS
 10
100.1797777789
 20
116.814383544
  0
VERTEX
  8
0
 62
7
  6
CONTINUOUS
 10
100.2451904927
 20
116.884857173
  0
VERTEX
  8
0
 62
7
  6
CONTINUOUS
 10
100.31684382
 20
116.9377083454
  0
VERTEX
  8
0
 62
7
  6
CONTINUOUS
 10
100.3927094387
 20
116.969934752
  0
VERTEX
  8
0
 62
7
  6
CONTINUOUS
 10
100.4601370406
 20
116.9790882093
  0
SEQEND
  0
LINE
  8
0
 62
7
  6
CONTINUOUS
 10
100.2595446298
 20
122.4647839765
 11
101.5139048455
 21
142.3647839765
  0
LINE
  8
0
 62
7
  6
CONTINUOUS
 10
134.2601370406
 20
147.8504796611
 11
132.210137075
 21
147.8504796611
  0
LINE
  8
0
 62
7
  6
CONTINUOUS
 10
125.1101370406
 20
147.8504796611
 11
119.5101370791
 21
147.8504796611
  0
LINE
  8
0
 62
7
  6
CONTINUOUS
 10
112.4101370406
 20
147.8504796611
 11
106.8101370789
 21
147.8504796611
  0
LINE
  8
0
 62
7
  6
CONTINUOUS
 10
99.7101370406
 20
147.8504796611
 11
94.1101370791
 21
147.8504796611
  0
LINE
  8
0
 62
7
  6
CONTINUOUS
 10
87.0101370406
 20
147.8504796611
 11
81.4101370789
 21
147.8504796611
  0
LINE
  8
0
 62
7
  6
CONTINUOUS
 10
74.3101370406
 20
147.8504796611
 11
68.7101370791
 21
147.8504796611
  0
LINE
  8
0
 62
7
  6
CONTINUOUS
 10
61.6101370406
 20
147.8504796611
 11
56.0101370789
 21
147.8504796611
  0
LINE
  8
0
 62
7
  6
CONTINUOUS
 10
48.9101370406
 20
147.8504796611
 11
43.3101370791
 21
147.8504796611
  0
LINE
  8
0
 62
7
  6
CONTINUOUS
 10
36.2101370406
 20
147.8504796611
 11
34.1601370406
 21
147.8504796611
  0
LINE
  8
1_AXIS
 62
2
  6
CENTER
 10
28.4455634434
 20
151.4647839765
 11
138.4113084099
 21
151.4647839765
  0
POLYLINE
  8
0
 62
7
  6
CONTINUOUS
 66
1
 70
0
  0
VERTEX
  8
0
 62
7
  6
CONTINUOUS
 10
94.1101370791
 20
147.8504797444
  0
VERTEX
  8
0
 62
7
  6
CONTINUOUS
 10
94.0433518861
 20
147.8594597348
  0
VERTEX
  8
0
 62
7
  6
CONTINUOUS
 10
93.9674662513
 20
147.8914990835
  0
VERTEX
  8
0
 62
7
  6
CONTINUOUS
 10
93.8957651409
 20
147.9441926514
  0
VERTEX
  8
0
 62
7
  6
CONTINUOUS
 10
93.8302922781
 20
148.0145327753
  0
VERTEX
  8
0
 62
7
  6
CONTINUOUS
 10
93.7722030997
 20
148.1002040957
  0
VERTEX
  8
0
 62
7
  6
CONTINUOUS
 10
93.7220659702
 20
148.1999415461
  0
VERTEX
  8
0
 62
7
  6
CONTINUOUS
 10
93.680663662
 20
148.3122401985
  0
VERTEX
  8
0
 62
7
  6
CONTINUOUS
 10
93.6486718471
 20
148.4351429778
  0
VERTEX
  8
0
 62
7
  6
CONTINUOUS
 10
93.6263698003
 20
148.5666862427
  0
VERTEX
  8
0
 62
7
  6
CONTINUOUS
 10
93.6136801734
 20
148.7048565389
  0
VERTEX
  8
0
 62
7
  6
CONTINUOUS
 10
93.6101368273
 20
148.8328065033
  0
SEQEND
  0
POLYLINE
  8
0
 62
7
  6
CONTINUOUS
 66
1
 70
0
  0
VERTEX
  8
0
 62
7
  6
CONTINUOUS
 10
106.8101370789
 20
147.8504797439
  0
VERTEX
  8
0
 62
7
  6
CONTINUOUS
 10
106.7433518885
 20
147.8594597342
  0
VERTEX
  8
0
 62
7
  6
CONTINUOUS
 10
106.6674662369
 20
147.891499091
  0
VERTEX
  8
0
 62
7
  6
CONTINUOUS
 10
106.5957651143
 20
147.9441926758
  0
VERTEX
  8
0
 62
7
  6
CONTINUOUS
 10
106.5302922753
 20
148.0145327853
  0
VERTEX
  8
0
 62
7
  6
CONTINUOUS
 10
106.4722030854
 20
148.1002041209
  0
VERTEX
  8
0
 62
7
  6
CONTINUOUS
 10
106.4220659669
 20
148.1999415547
  0
VERTEX
  8
0
 62
7
  6
CONTINUOUS
 10
106.3806636608
 20
148.312240203
  0
VERTEX
  8
0
 62
7
  6
CONTINUOUS
 10
106.3486718485
 20
148.4351429701
  0
VERTEX
  8
0
 62
7
  6
CONTINUOUS
 10
106.3263698023
 20
148.5666862121
  0
VERTEX
  8
0
 62
7
  6
CONTINUOUS
 10
106.3136801736
 20
148.7048565171
  0
VERTEX
  8
0
 62
7
  6
CONTINUOUS
 10
106.310136827
 20
148.8328065785
  0
SEQEND
  0
POLYLINE
  8
0
 62
7
  6
CONTINUOUS
 66
1
 70
0
  0
VERTEX
  8
0
 62
7
  6
CONTINUOUS
 10
119.2601370406
 20
112.1400391051
  0
VERTEX
  8
0
 62
7
  6
CONTINUOUS
 10
119.2744367611
 20
112.1208027275
  0
VERTEX
  8
0
 62
7
  6
CONTINUOUS
 10
119.3166751631
 20
112.1028873207
  0
VERTEX
  8
0
 62
7
  6
CONTINUOUS
 10
119.3846689434
 20
112.0872570871
  0
VERTEX
  8
0
 62
7
  6
CONTINUOUS
 10
119.4272173607
 20
112.0805647481
  0
VERTEX
  8
0
 62
7
  6
CONTINUOUS
 10
119.5264253179
 20
112.0698682609
  0
VERTEX
  8
0
 62
7
  6
CONTINUOUS
 10
119.6395922543
 20
112.0632077883
  0
VERTEX
  8
0
 62
7
  6
CONTINUOUS
 10
119.7601370406
 20
112.0609434955
  0
SEQEND
  0
LINE
  8
0
 62
7
  6
CONTINUOUS
 10
105.0063692357
 20
142.3647839765
 11
106.2607294514
 21
122.4647839765
  0
LINE
  8
0
 62
7
  6
CONTINUOUS
 10
106.3101370406
 20
148.8327694854
 11
106.3101370406
 21
155.2047839765
  0
LINE
  8
0
 62
7
  6
CONTINUOUS
 10
106.5601370406
 20
115.9967984142
 11
106.5601370406
 21
109.6247839765
  0
POLYLINE
  8
0
 62
7
  6
CONTINUOUS
 66
1
 70
0
  0
VERTEX
  8
0
 62
7
  6
CONTINUOUS
 10
125.6101370406
 20
152.6895288479
  0
VERTEX
  8
0
 62
7
  6
CONTINUOUS
 10
125.6244367611
 20
152.7087652255
  0
VERTEX
  8
0
 62
7
  6
CONTINUOUS
 10
125.6666751631
 20
152.7266806324
  0
VERTEX
  8
0
 62
7
  6
CONTINUOUS
 10
125.7346689434
 20
152.742310866
  0
VERTEX
  8
0
 62
7
  6
CONTINUOUS
 10
125.7772173607
 20
152.7490032049
  0
VERTEX
  8
0
 62
7
  6
CONTINUOUS
 10
125.8764253179
 20
152.7596996921
  0
VERTEX
  8
0
 62
7
  6
CONTINUOUS
 10
125.9895922543
 20
152.7663601647
  0
VERTEX
  8
0
 62
7
  6
CONTINUOUS
 10
126.1101370406
 20
152.7686244576
  0
SEQEND
  0
POLYLINE
  8
0
 62
7
  6
CONTINUOUS
 66
1
 70
0
  0
VERTEX
  8
0
 62
7
  6
CONTINUOUS
 10
100.7101370406
 20
152.7686244576
  0
VERTEX
  8
0
 62
7
  6
CONTINUOUS
 10
100.5895922543
 20
152.7663601647
  0
VERTEX
  8
0
 62
7
  6
CONTINUOUS
 10
100.4764253179
 20
152.7596996921
  0
VERTEX
  8
0
 62
7
  6
CONTINUOUS
 10
100.3772173607
 20
152.7490032049
  0
VERTEX
  8
0
 62
7
  6
CONTINUOUS
 10
100.3346689434
 20
152.742310866
  0
VERTEX
  8
0
 62
7
  6
CONTINUOUS
 10
100.2666751631
 20
152.7266806324
  0
VERTEX
  8
0
 62
7
  6
CONTINUOUS
 10
100.2244367611
 20
152.7087652255
  0
VERTEX
  8
0
 62
7
  6
CONTINUOUS
 10
100.2101370406
 20
152.6895288479
  0
SEQEND
  0
POLYLINE
  8
0
 62
7
  6
CONTINUOUS
 66
1
 70
0
  0
VERTEX
  8
0
 62
7
  6
CONTINUOUS
 10
75.3101370406
 20
152.7686244576
  0
VERTEX
  8
0
 62
7
  6
CONTINUOUS
 10
75.1895922543
 20
152.7663601647
  0
VERTEX
  8
0
 62
7
  6
CONTINUOUS
 10
75.0764253179
 20
152.7596996921
  0
VERTEX
  8
0
 62
7
  6
CONTINUOUS
 10
74.9772173607
 20
152.7490032049
  0
VERTEX
  8
0
 62
7
  6
CONTINUOUS
 10
74.9346689434
 20
152.742310866
  0
VERTEX
  8
0
 62
7
  6
CONTINUOUS
 10
74.8666751631
 20
152.7266806324
  0
VERTEX
  8
0
 62
7
  6
CONTINUOUS
 10
74.8244367611
 20
152.7087652255
  0
VERTEX
  8
0
 62
7
  6
CONTINUOUS
 10
74.8101370406
 20
152.6895288479
  0
SEQEND
  0
POLYLINE
  8
0
 62
7
  6
CONTINUOUS
 66
1
 70
0
  0
VERTEX
  8
0
 62
7
  6
CONTINUOUS
 10
49.9101370406
 20
152.7686244576
  0
VERTEX
  8
0
 62
7
  6
CONTINUOUS
 10
49.7895922543
 20
152.7663601647
  0
VERTEX
  8
0
 62
7
  6
CONTINUOUS
 10
49.6764253179
 20
152.7596996921
  0
VERTEX
  8
0
 62
7
  6
CONTINUOUS
 10
49.5772173607
 20
152.7490032049
  0
VERTEX
  8
0
 62
7
  6
CONTINUOUS
 10
49.5346689434
 20
152.742310866
  0
VERTEX
  8
0
 62
7
  6
CONTINUOUS
 10
49.4666751631
 20
152.7266806324
  0
VERTEX
  8
0
 62
7
  6
CONTINUOUS
 10
49.4244367611
 20
152.7087652255
  0
VERTEX
  8
0
 62
7
  6
CONTINUOUS
 10
49.4101370406
 20
152.6895288479
  0
SEQEND
  0
LINE
  8
0
 62
7
  6
CONTINUOUS
 10
37.2101370406
 20
152.7686244576
 11
42.3101370406
 21
152.7686244576
  0
LINE
  8
0
 62
7
  6
CONTINUOUS
 10
49.9101370406
 20
152.7686244576
 11
55.0101370406
 21
152.7686244576
  0
LINE
  8
0
 62
7
  6
CONTINUOUS
 10
62.6101370406
 20
152.7686244576
 11
67.7101370406
 21
152.7686244576
  0
LINE
  8
0
 62
7
  6
CONTINUOUS
 10
75.3101370406
 20
152.7686244576
 11
80.4101370406
 21
152.7686244576
  0
LINE
  8
0
 62
7
  6
CONTINUOUS
 10
88.0101370406
 20
152.7686244576
 11
93.1101370406
 21
152.7686244576
  0
LINE
  8
0
 62
7
  6
CONTINUOUS
 10
100.7101370406
 20
152.7686244576
 11
105.8101370406
 21
152.7686244576
  0
LINE
  8
0
 62
7
  6
CONTINUOUS
 10
113.4101370406
 20
152.7686244576
 11
118.5101370406
 21
152.7686244576
  0
LINE
  8
0
 62
7
  6
CONTINUOUS
 10
126.1101370406
 20
152.7686244576
 11
131.2101370406
 21
152.7686244576
  0
POLYLINE
  8
0
 62
7
  6
CONTINUOUS
 66
1
 70
0
  0
VERTEX
  8
0
 62
7
  6
CONTINUOUS
 10
55.0101370406
 20
152.7686244576
  0
VERTEX
  8
0
 62
7
  6
CONTINUOUS
 10
55.1306818269
 20
152.7663601647
  0
VERTEX
  8
0
 62
7
  6
CONTINUOUS
 10
55.2438487633
 20
152.7596996921
  0
VERTEX
  8
0
 62
7
  6
CONTINUOUS
 10
55.3430567205
 20
152.7490032049
  0
VERTEX
  8
0
 62
7
  6
CONTINUOUS
 10
55.3856051378
 20
152.742310866
  0
VERTEX
  8
0
 62
7
  6
CONTINUOUS
 10
55.4535989181
 20
152.7266806324
  0
VERTEX
  8
0
 62
7
  6
CONTINUOUS
 10
55.4958373201
 20
152.7087652255
  0
VERTEX
  8
0
 62
7
  6
CONTINUOUS
 10
55.5101370406
 20
152.6895288479
  0
SEQEND
  0
POLYLINE
  8
0
 62
7
  6
CONTINUOUS
 66
1
 70
0
  0
VERTEX
  8
0
 62
7
  6
CONTINUOUS
 10
80.4101370406
 20
152.7686244576
  0
VERTEX
  8
0
 62
7
  6
CONTINUOUS
 10
80.5306818269
 20
152.7663601647
  0
VERTEX
  8
0
 62
7
  6
CONTINUOUS
 10
80.6438487633
 20
152.7596996921
  0
VERTEX
  8
0
 62
7
  6
CONTINUOUS
 10
80.7430567205
 20
152.7490032049
  0
VERTEX
  8
0
 62
7
  6
CONTINUOUS
 10
80.7856051378
 20
152.742310866
  0
VERTEX
  8
0
 62
7
  6
CONTINUOUS
 10
80.8535989181
 20
152.7266806324
  0
VERTEX
  8
0
 62
7
  6
CONTINUOUS
 10
80.8958373201
 20
152.7087652255
  0
VERTEX
  8
0
 62
7
  6
CONTINUOUS
 10
80.9101370406
 20
152.6895288479
  0
SEQEND
  0
POLYLINE
  8
0
 62
7
  6
CONTINUOUS
 66
1
 70
0
  0
VERTEX
  8
0
 62
7
  6
CONTINUOUS
 10
105.8101370406
 20
152.7686244576
  0
VERTEX
  8
0
 62
7
  6
CONTINUOUS
 10
105.9306818269
 20
152.7663601647
  0
VERTEX
  8
0
 62
7
  6
CONTINUOUS
 10
106.0438487633
 20
152.7596996921
  0
VERTEX
  8
0
 62
7
  6
CONTINUOUS
 10
106.1430567205
 20
152.7490032049
  0
VERTEX
  8
0
 62
7
  6
CONTINUOUS
 10
106.1856051378
 20
152.742310866
  0
VERTEX
  8
0
 62
7
  6
CONTINUOUS
 10
106.2535989181
 20
152.7266806324
  0
VERTEX
  8
0
 62
7
  6
CONTINUOUS
 10
106.2958373201
 20
152.7087652255
  0
VERTEX
  8
0
 62
7
  6
CONTINUOUS
 10
106.3101370406
 20
152.6895288479
  0
SEQEND
  0
POLYLINE
  8
0
 62
7
  6
CONTINUOUS
 66
1
 70
0
  0
VERTEX
  8
0
 62
7
  6
CONTINUOUS
 10
118.5101370406
 20
152.7686244576
  0
VERTEX
  8
0
 62
7
  6
CONTINUOUS
 10
118.6306818269
 20
152.7663601647
  0
VERTEX
  8
0
 62
7
  6
CONTINUOUS
 10
118.7438487633
 20
152.7596996921
  0
VERTEX
  8
0
 62
7
  6
CONTINUOUS
 10
118.8430567205
 20
152.7490032049
  0
VERTEX
  8
0
 62
7
  6
CONTINUOUS
 10
118.8856051378
 20
152.742310866
  0
VERTEX
  8
0
 62
7
  6
CONTINUOUS
 10
118.9535989181
 20
152.7266806324
  0
VERTEX
  8
0
 62
7
  6
CONTINUOUS
 10
118.9958373201
 20
152.7087652255
  0
VERTEX
  8
0
 62
7
  6
CONTINUOUS
 10
119.0101370406
 20
152.6895288479
  0
SEQEND
  0
POLYLINE
  8
0
 62
7
  6
CONTINUOUS
 66
1
 70
0
  0
VERTEX
  8
0
 62
7
  6
CONTINUOUS
 10
131.2101370406
 20
152.7686244576
  0
VERTEX
  8
0
 62
7
  6
CONTINUOUS
 10
131.3306818269
 20
152.7663601647
  0
VERTEX
  8
0
 62
7
  6
CONTINUOUS
 10
131.4438487633
 20
152.7596996921
  0
VERTEX
  8
0
 62
7
  6
CONTINUOUS
 10
131.5430567205
 20
152.7490032049
  0
VERTEX
  8
0
 62
7
  6
CONTINUOUS
 10
131.5856051378
 20
152.742310866
  0
VERTEX
  8
0
 62
7
  6
CONTINUOUS
 10
131.6535989181
 20
152.7266806324
  0
VERTEX
  8
0
 62
7
  6
CONTINUOUS
 10
131.6958373201
 20
152.7087652255
  0
VERTEX
  8
0
 62
7
  6
CONTINUOUS
 10
131.7101370406
 20
152.6895288479
  0
SEQEND
  0
POLYLINE
  8
0
 62
7
  6
CONTINUOUS
 66
1
 70
0
  0
VERTEX
  8
0
 62
7
  6
CONTINUOUS
 10
134.2601370406
 20
147.8504796611
  0
VERTEX
  8
0
 62
7
  6
CONTINUOUS
 10
134.3806850095
 20
147.8357303048
  0
VERTEX
  8
0
 62
7
  6
CONTINUOUS
 10
134.4933452357
 20
147.7927623057
  0
VERTEX
  8
0
 62
7
  6
CONTINUOUS
 10
134.5921735912
 20
147.7243134866
  0
VERTEX
  8
0
 62
7
  6
CONTINUOUS
 10
134.6343424499
 20
147.6820973802
  0
VERTEX
  8
0
 62
7
  6
CONTINUOUS
 10
134.7025636807
 20
147.5834145622
  0
VERTEX
  8
0
 62
7
  6
CONTINUOUS
 10
134.7454415998
 20
147.4708103921
  0
VERTEX
  8
0
 62
7
  6
CONTINUOUS
 10
134.7601370406
 20
147.3504796611
  0
SEQEND
  0
POLYLINE
  8
0
 62
7
  6
CONTINUOUS
 66
1
 70
0
  0
VERTEX
  8
0
 62
7
  6
CONTINUOUS
 10
119.5101370791
 20
147.8504797444
  0
VERTEX
  8
0
 62
7
  6
CONTINUOUS
 10
119.4433518861
 20
147.8594597348
  0
VERTEX
  8
0
 62
7
  6
CONTINUOUS
 10
119.3674662513
 20
147.8914990835
  0
VERTEX
  8
0
 62
7
  6
CONTINUOUS
 10
119.2957651409
 20
147.9441926514
  0
VERTEX
  8
0
 62
7
  6
CONTINUOUS
 10
119.2302922781
 20
148.0145327753
  0
VERTEX
  8
0
 62
7
  6
CONTINUOUS
 10
119.1722030997
 20
148.1002040957
  0
VERTEX
  8
0
 62
7
  6
CONTINUOUS
 10
119.1220659702
 20
148.1999415461
  0
VERTEX
  8
0
 62
7
  6
CONTINUOUS
 10
119.080663662
 20
148.3122401985
  0
VERTEX
  8
0
 62
7
  6
CONTINUOUS
 10
119.0486718471
 20
148.4351429778
  0
VERTEX
  8
0
 62
7
  6
CONTINUOUS
 10
119.0263698003
 20
148.5666862427
  0
VERTEX
  8
0
 62
7
  6
CONTINUOUS
 10
119.0136801734
 20
148.7048565389
  0
VERTEX
  8
0
 62
7
  6
CONTINUOUS
 10
119.0101368273
 20
148.8328065033
  0
SEQEND
  0
POLYLINE
  8
0
 62
7
  6
CONTINUOUS
 66
1
 70
0
  0
VERTEX
  8
0
 62
7
  6
CONTINUOUS
 10
132.210137075
 20
147.8504797439
  0
VERTEX
  8
0
 62
7
  6
CONTINUOUS
 10
132.143351887
 20
147.8594597346
  0
VERTEX
  8
0
 62
7
  6
CONTINUOUS
 10
132.0674662357
 20
147.8914990918
  0
VERTEX
  8
0
 62
7
  6
CONTINUOUS
 10
131.9957651133
 20
147.9441926766
  0
VERTEX
  8
0
 62
7
  6
CONTINUOUS
 10
131.9302922746
 20
148.0145327862
  0
VERTEX
  8
0
 62
7
  6
CONTINUOUS
 10
131.8722030849
 20
148.1002041218
  0
VERTEX
  8
0
 62
7
  6
CONTINUOUS
 10
131.8220659666
 20
148.1999415555
  0
VERTEX
  8
0
 62
7
  6
CONTINUOUS
 10
131.7806636606
 20
148.3122402037
  0
VERTEX
  8
0
 62
7
  6
CONTINUOUS
 10
131.7486718484
 20
148.4351429706
  0
VERTEX
  8
0
 62
7
  6
CONTINUOUS
 10
131.7263698023
 20
148.5666862124
  0
VERTEX
  8
0
 62
7
  6
CONTINUOUS
 10
131.7136801736
 20
148.7048565173
  0
VERTEX
  8
0
 62
7
  6
CONTINUOUS
 10
131.710136827
 20
148.8328065785
  0
SEQEND
  0
POLYLINE
  8
0
 62
7
  6
CONTINUOUS
 66
1
 70
0
  0
VERTEX
  8
0
 62
7
  6
CONTINUOUS
 10
93.6101370406
 20
152.6895288479
  0
VERTEX
  8
0
 62
7
  6
CONTINUOUS
 10
93.5958373201
 20
152.7087652255
  0
VERTEX
  8
0
 62
7
  6
CONTINUOUS
 10
93.5535989181
 20
152.7266806324
  0
VERTEX
  8
0
 62
7
  6
CONTINUOUS
 10
93.4856051378
 20
152.742310866
  0
VERTEX
  8
0
 62
7
  6
CONTINUOUS
 10
93.4430567205
 20
152.7490032049
  0
VERTEX
  8
0
 62
7
  6
CONTINUOUS
 10
93.3438487633
 20
152.7596996921
  0
VERTEX
  8
0
 62
7
  6
CONTINUOUS
 10
93.2306818269
 20
152.7663601647
  0
VERTEX
  8
0
 62
7
  6
CONTINUOUS
 10
93.1101370406
 20
152.7686244576
  0
SEQEND
  0
LINE
  8
0
 62
7
  6
CONTINUOUS
 10
107.8639048455
 20
122.4647839765
 11
106.6095446298
 21
142.3647839765
  0
LINE
  8
0
 62
7
  6
CONTINUOUS
 10
37.2101370406
 20
155.7047839765
 11
42.3101370406
 21
155.7047839765
  0
LINE
  8
0
 62
7
  6
CONTINUOUS
 10
49.9101370406
 20
155.7047839765
 11
55.0101370406
 21
155.7047839765
  0
LINE
  8
0
 62
7
  6
CONTINUOUS
 10
62.6101370406
 20
155.7047839765
 11
67.7101370406
 21
155.7047839765
  0
LINE
  8
0
 62
7
  6
CONTINUOUS
 10
75.3101370406
 20
155.7047839765
 11
80.4101370406
 21
155.7047839765
  0
LINE
  8
0
 62
7
  6
CONTINUOUS
 10
88.0101370406
 20
155.7047839765
 11
93.1101370406
 21
155.7047839765
  0
LINE
  8
0
 62
7
  6
CONTINUOUS
 10
100.7101370406
 20
155.7047839765
 11
105.8101370406
 21
155.7047839765
  0
LINE
  8
0
 62
7
  6
CONTINUOUS
 10
113.4101370406
 20
155.7047839765
 11
118.5101370406
 21
155.7047839765
  0
LINE
  8
0
 62
7
  6
CONTINUOUS
 10
126.1101370406
 20
155.7047839765
 11
131.2101370406
 21
155.7047839765
  0
POLYLINE
  8
0
 62
7
  6
CONTINUOUS
 66
1
 70
0
  0
VERTEX
  8
0
 62
7
  6
CONTINUOUS
 10
131.9601370406
 20
112.1400391051
  0
VERTEX
  8
0
 62
7
  6
CONTINUOUS
 10
131.9744367611
 20
112.1208027275
  0
VERTEX
  8
0
 62
7
  6
CONTINUOUS
 10
132.0166751631
 20
112.1028873207
  0
VERTEX
  8
0
 62
7
  6
CONTINUOUS
 10
132.0846689434
 20
112.0872570871
  0
VERTEX
  8
0
 62
7
  6
CONTINUOUS
 10
132.1272173607
 20
112.0805647481
  0
VERTEX
  8
0
 62
7
  6
CONTINUOUS
 10
132.2264253179
 20
112.0698682609
  0
VERTEX
  8
0
 62
7
  6
CONTINUOUS
 10
132.3395922543
 20
112.0632077883
  0
VERTEX
  8
0
 62
7
  6
CONTINUOUS
 10
132.4601370406
 20
112.0609434955
  0
SEQEND
  0
LINE
  8
0
 62
7
  6
CONTINUOUS
 10
112.6601370406
 20
109.6247839765
 11
112.6601370406
 21
115.9967984674
  0
LINE
  8
0
 62
7
  6
CONTINUOUS
 10
112.9101370406
 20
155.2047839765
 11
112.9101370406
 21
148.8327695389
  0
POLYLINE
  8
0
 62
7
  6
CONTINUOUS
 66
1
 70
0
  0
VERTEX
  8
0
 62
7
  6
CONTINUOUS
 10
112.9101374962
 20
148.8327975983
  0
VERTEX
  8
0
 62
7
  6
CONTINUOUS
 10
112.9066670524
 20
148.706151772
  0
VERTEX
  8
0
 62
7
  6
CONTINUOUS
 10
112.8940576917
 20
148.5678796752
  0
VERTEX
  8
0
 62
7
  6
CONTINUOUS
 10
112.8718335481
 20
148.43623195
  0
VERTEX
  8
0
 62
7
  6
CONTINUOUS
 10
112.8399170554
 20
148.3132253155
  0
VERTEX
  8
0
 62
7
  6
CONTINUOUS
 10
112.7985876208
 20
148.200821678
  0
VERTEX
  8
0
 62
7
  6
CONTINUOUS
 10
112.7485201848
 20
148.1009746752
  0
VERTEX
  8
0
 62
7
  6
CONTINUOUS
 10
112.6904966984
 20
148.0151847515
  0
VERTEX
  8
0
 62
7
  6
CONTINUOUS
 10
112.6250837106
 20
147.9447109586
  0
VERTEX
  8
0
 62
7
  6
CONTINUOUS
 10
112.5534310316
 20
147.8918601177
  0
VERTEX
  8
0
 62
7
  6
CONTINUOUS
 10
112.4775684073
 20
147.859634211
  0
VERTEX
  8
0
 62
7
  6
CONTINUOUS
 10
112.4101370406
 20
147.8504797425
  0
SEQEND
  0
POLYLINE
  8
0
 62
7
  6
CONTINUOUS
 66
1
 70
0
  0
VERTEX
  8
0
 62
7
  6
CONTINUOUS
 10
112.6601368314
 20
115.9967613863
  0
VERTEX
  8
0
 62
7
  6
CONTINUOUS
 10
112.6636072224
 20
116.1234200127
  0
VERTEX
  8
0
 62
7
  6
CONTINUOUS
 10
112.6762167992
 20
116.2616935448
  0
VERTEX
  8
0
 62
7
  6
CONTINUOUS
 10
112.6984409119
 20
116.393338613
  0
VERTEX
  8
0
 62
7
  6
CONTINUOUS
 10
112.7303571057
 20
116.5163433124
  0
VERTEX
  8
0
 62
7
  6
CONTINUOUS
 10
112.7716866638
 20
116.628746832
  0
VERTEX
  8
0
 62
7
  6
CONTINUOUS
 10
112.8217537917
 20
116.7285931305
  0
VERTEX
  8
0
 62
7
  6
CONTINUOUS
 10
112.8797777778
 20
116.8143835481
  0
VERTEX
  8
0
 62
7
  6
CONTINUOUS
 10
112.9451905176
 20
116.8848571962
  0
VERTEX
  8
0
 62
7
  6
CONTINUOUS
 10
113.0168438336
 20
116.9377083526
  0
VERTEX
  8
0
 62
7
  6
CONTINUOUS
 10
113.092709436
 20
116.9699347512
  0
VERTEX
  8
0
 62
7
  6
CONTINUOUS
 10
113.1601370406
 20
116.9790882089
  0
SEQEND
  0
LINE
  8
0
 62
7
  6
CONTINUOUS
 10
112.6107294514
 20
142.3647839765
 11
111.3563692357
 21
122.4647839765
  0
LINE
  8
0
 62
7
  6
CONTINUOUS
 10
112.9595446298
 20
122.4647839765
 11
114.2139048455
 21
142.3647839765
  0
LINE
  8
0
 62
7
  6
CONTINUOUS
 10
117.7063692357
 20
142.3647839765
 11
118.9607294514
 21
122.4647839765
  0
LINE
  8
0
 62
7
  6
CONTINUOUS
 10
120.5639048455
 20
122.4647839765
 11
119.3095446298
 21
142.3647839765
  0
LINE
  8
0
 62
7
  6
CONTINUOUS
 10
119.0101370406
 20
148.8327694855
 11
119.0101370406
 21
155.2047839765
  0
LINE
  8
0
 62
7
  6
CONTINUOUS
 10
119.2601370406
 20
109.6247839765
 11
119.2601370406
 21
116.3004135779
  0
LINE
  8
0
 62
7
  6
CONTINUOUS
 10
125.3601370406
 20
109.6247839765
 11
125.3601370406
 21
115.9967984674
  0
LINE
  8
0
 62
7
  6
CONTINUOUS
 10
125.6101370406
 20
155.2047839765
 11
125.6101370406
 21
148.5291543752
  0
POLYLINE
  8
0
 62
7
  6
CONTINUOUS
 66
1
 70
0
  0
VERTEX
  8
0
 62
7
  6
CONTINUOUS
 10
125.6101374962
 20
148.8327975983
  0
VERTEX
  8
0
 62
7
  6
CONTINUOUS
 10
125.6066670524
 20
148.706151772
  0
VERTEX
  8
0
 62
7
  6
CONTINUOUS
 10
125.5940576917
 20
148.5678796752
  0
VERTEX
  8
0
 62
7
  6
CONTINUOUS
 10
125.5718335481
 20
148.43623195
  0
VERTEX
  8
0
 62
7
  6
CONTINUOUS
 10
125.5399170554
 20
148.3132253155
  0
VERTEX
  8
0
 62
7
  6
CONTINUOUS
 10
125.4985876208
 20
148.200821678
  0
VERTEX
  8
0
 62
7
  6
CONTINUOUS
 10
125.4485201848
 20
148.1009746752
  0
VERTEX
  8
0
 62
7
  6
CONTINUOUS
 10
125.3904966984
 20
148.0151847515
  0
VERTEX
  8
0
 62
7
  6
CONTINUOUS
 10
125.3250837106
 20
147.9447109586
  0
VERTEX
  8
0
 62
7
  6
CONTINUOUS
 10
125.2534310316
 20
147.8918601177
  0
VERTEX
  8
0
 62
7
  6
CONTINUOUS
 10
125.1775684073
 20
147.859634211
  0
VERTEX
  8
0
 62
7
  6
CONTINUOUS
 10
125.1101370406
 20
147.8504797425
  0
SEQEND
  0
LINE
  8
0
 62
7
  6
CONTINUOUS
 10
125.3107294514
 20
142.3647839765
 11
124.0563692357
 21
122.4647839765
  0
POLYLINE
  8
0
 62
7
  6
CONTINUOUS
 66
1
 70
0
  0
VERTEX
  8
0
 62
7
  6
CONTINUOUS
 10
125.3601368314
 20
115.9967613863
  0
VERTEX
  8
0
 62
7
  6
CONTINUOUS
 10
125.3636072224
 20
116.1234200127
  0
VERTEX
  8
0
 62
7
  6
CONTINUOUS
 10
125.3762167992
 20
116.2616935448
  0
VERTEX
  8
0
 62
7
  6
CONTINUOUS
 10
125.3984409119
 20
116.393338613
  0
VERTEX
  8
0
 62
7
  6
CONTINUOUS
 10
125.4303571057
 20
116.5163433124
  0
VERTEX
  8
0
 62
7
  6
CONTINUOUS
 10
125.4716866638
 20
116.628746832
  0
VERTEX
  8
0
 62
7
  6
CONTINUOUS
 10
125.5217537917
 20
116.7285931305
  0
VERTEX
  8
0
 62
7
  6
CONTINUOUS
 10
125.5797777778
 20
116.8143835481
  0
VERTEX
  8
0
 62
7
  6
CONTINUOUS
 10
125.6451905176
 20
116.8848571962
  0
VERTEX
  8
0
 62
7
  6
CONTINUOUS
 10
125.7168438336
 20
116.9377083526
  0
VERTEX
  8
0
 62
7
  6
CONTINUOUS
 10
125.792709436
 20
116.9699347512
  0
VERTEX
  8
0
 62
7
  6
CONTINUOUS
 10
125.8601370406
 20
116.9790882089
  0
SEQEND
  0
LINE
  8
0
 62
7
  6
CONTINUOUS
 10
125.6595446298
 20
122.4647839765
 11
126.9139048455
 21
142.3647839765
  0
LINE
  8
0
 62
7
  6
CONTINUOUS
 10
130.4047645934
 20
142.3647839765
 11
131.6522570708
 21
122.4647839765
  0
LINE
  8
0
 62
7
  6
CONTINUOUS
 10
131.7101370406
 20
148.8327694883
 11
131.7101370406
 21
155.2047839765
  0
LINE
  8
0
 62
7
  6
CONTINUOUS
 10
131.9601370406
 20
115.9967984142
 11
131.9601370406
 21
109.6247839765
  0
LINE
  8
0
 62
7
  6
CONTINUOUS
 10
134.7601370406
 20
116.7647839765
 11
134.9601370406
 21
116.9647839765
  0
LINE
  8
0
 62
7
  6
CONTINUOUS
 10
134.7601370406
 20
109.6247839765
 11
134.7601370406
 21
147.3504796611
  0
LINE
  8
0
 62
7
  6
CONTINUOUS
 10
134.9601370406
 20
145.7810354777
 11
134.9601370406
 21
116.9647839765
  0
POLYLINE
  8
0
 62
7
  6
CONTINUOUS
 66
1
 70
0
  0
VERTEX
  8
0
 62
7
  6
CONTINUOUS
 10
134.7601370406
 20
112.1400391051
  0
VERTEX
  8
0
 62
7
  6
CONTINUOUS
 10
134.7458373201
 20
112.1208027275
  0
VERTEX
  8
0
 62
7
  6
CONTINUOUS
 10
134.7035989181
 20
112.1028873207
  0
VERTEX
  8
0
 62
7
  6
CONTINUOUS
 10
134.6356051378
 20
112.0872570871
  0
VERTEX
  8
0
 62
7
  6
CONTINUOUS
 10
134.5930567205
 20
112.0805647481
  0
VERTEX
  8
0
 62
7
  6
CONTINUOUS
 10
134.4938487633
 20
112.0698682609
  0
VERTEX
  8
0
 62
7
  6
CONTINUOUS
 10
134.3806818269
 20
112.0632077883
  0
VERTEX
  8
0
 62
7
  6
CONTINUOUS
 10
134.2601370406
 20
112.0609434955
  0
SEQEND
  0
LINE
  8
0
 62
7
  6
CONTINUOUS
 10
157.7126578466
 20
109.1247839765
 11
159.6567771845
 21
109.1247839765
  0
LINE
  8
1_AXIS
 62
2
  6
CONTINUOUS
 10
159.5647175156
 20
113.3647839765
 11
157.8047175156
 21
113.3647839765
  0
LINE
  8
1_AXIS
 62
2
  6
CENTER
 10
154.2847175156
 20
113.3647839765
 11
152.5347162837
 21
113.3647839765
  0
LINE
  8
1_AXIS
 62
2
  6
CENTER
 10
163.0847175156
 20
113.3647839765
 11
164.8347187474
 21
113.3647839765
  0
LINE
  8
0
 62
7
  6
CONTINUOUS
 10
162.8347175156
 20
112.0609434955
 11
162.6649048987
 21
112.0872570871
  0
POLYLINE
  8
0
 62
7
  6
CONTINUOUS
 66
1
 70
0
  0
VERTEX
  8
0
 62
7
  6
CONTINUOUS
 10
162.6649048987
 20
112.0872570871
  0
VERTEX
  8
0
 62
7
  6
CONTINUOUS
 10
162.4534408852
 20
112.1208027275
  0
VERTEX
  8
0
 62
7
  6
CONTINUOUS
 10
162.3347175156
 20
112.1400391051
  0
SEQEND
  0
LINE
  8
0
 62
7
  6
CONTINUOUS
 10
162.2248306156
 20
116.7647839765
 11
156.4713175156
 21
116.7647839765
  0
POLYLINE
  8
0
 62
7
  6
CONTINUOUS
 66
1
 70
0
  0
VERTEX
  8
0
 62
7
  6
CONTINUOUS
 10
156.4441143948
 20
116.765831284
  0
VERTEX
  8
0
 62
7
  6
CONTINUOUS
 10
156.4531833233
 20
116.7652491922
  0
VERTEX
  8
0
 62
7
  6
CONTINUOUS
 10
156.4622507884
 20
116.7649002423
  0
VERTEX
  8
0
 62
7
  6
CONTINUOUS
 10
156.4713175156
 20
116.7647839765
  0
SEQEND
  0
POLYLINE
  8
0
 62
7
  6
CONTINUOUS
 66
1
 70
0
  0
VERTEX
  8
0
 62
7
  6
CONTINUOUS
 10
156.2016384149
 20
116.9974910167
  0
VERTEX
  8
0
 62
7
  6
CONTINUOUS
 10
156.286629504
 20
116.9795093243
  0
VERTEX
  8
0
 62
7
  6
CONTINUOUS
 10
156.3767721514
 20
116.968608719
  0
VERTEX
  8
0
 62
7
  6
CONTINUOUS
 10
156.4713175156
 20
116.9647911899
  0
SEQEND
  0
LINE
  8
0
 62
7
  6
CONTINUOUS
 10
156.4713175156
 20
116.9647839765
 11
162.0092326322
 21
116.9647839765
  0
LINE
  8
0
 62
7
  6
CONTINUOUS
 10
162.0092326322
 20
116.9647839765
 11
162.2248306156
 21
116.7647839765
  0
POLYLINE
  8
0
 62
7
  6
CONTINUOUS
 66
1
 70
0
  0
VERTEX
  8
0
 62
7
  6
CONTINUOUS
 10
155.9713175156
 20
117.1718907577
  0
VERTEX
  8
0
 62
7
  6
CONTINUOUS
 10
155.9837665681
 20
117.1259633198
  0
VERTEX
  8
0
 62
7
  6
CONTINUOUS
 10
156.0209848391
 20
117.0819000795
  0
VERTEX
  8
0
 62
7
  6
CONTINUOUS
 10
156.0482138996
 20
117.0615330935
  0
VERTEX
  8
0
 62
7
  6
CONTINUOUS
 10
156.1170646412
 20
117.0257344583
  0
VERTEX
  8
0
 62
7
  6
CONTINUOUS
 10
156.2016384149
 20
116.9974910167
  0
SEQEND
  0
LINE
  8
0
 62
7
  6
CONTINUOUS
 10
154.3347175156
 20
113.3647839765
 11
154.3347175156
 21
151.4647839765
  0
POLYLINE
  8
0
 62
7
  6
CONTINUOUS
 66
1
 70
0
  0
VERTEX
  8
0
 62
7
  6
CONTINUOUS
 10
155.9713175156
 20
116.9846898386
  0
VERTEX
  8
0
 62
7
  6
CONTINUOUS
 10
155.9713434843
 20
116.9814809144
  0
VERTEX
  8
0
 62
7
  6
CONTINUOUS
 10
155.9715915127
 20
116.9757728143
  0
VERTEX
  8
0
 62
7
  6
CONTINUOUS
 10
155.9721995428
 20
116.9701920611
  0
VERTEX
  8
0
 62
7
  6
CONTINUOUS
 10
155.9733380485
 20
116.9641896025
  0
VERTEX
  8
0
 62
7
  6
CONTINUOUS
 10
155.975241417
 20
116.9574932839
  0
VERTEX
  8
0
 62
7
  6
CONTINUOUS
 10
155.9782260285
 20
116.9499033448
  0
VERTEX
  8
0
 62
7
  6
CONTINUOUS
 10
155.9827928078
 20
116.9411068688
  0
VERTEX
  8
0
 62
7
  6
CONTINUOUS
 10
155.9897455845
 20
116.9306821182
  0
VERTEX
  8
0
 62
7
  6
CONTINUOUS
 10
155.9944645335
 20
116.9247296676
  0
VERTEX
  8
0
 62
7
  6
CONTINUOUS
 10
156.007436901
 20
116.9109920603
  0
VERTEX
  8
0
 62
7
  6
CONTINUOUS
 10
156.0271352153
 20
116.8943094995
  0
VERTEX
  8
0
 62
7
  6
CONTINUOUS
 10
156.0572253561
 20
116.8739652829
  0
VERTEX
  8
0
 62
7
  6
CONTINUOUS
 10
156.1039166455
 20
116.849115685
  0
VERTEX
  8
0
 62
7
  6
CONTINUOUS
 10
156.1768657662
 20
116.8196917721
  0
VERTEX
  8
0
 62
7
  6
CONTINUOUS
 10
156.2757345339
 20
116.7914756562
  0
VERTEX
  8
0
 62
7
  6
CONTINUOUS
 10
156.3862921506
 20
116.7717550076
  0
VERTEX
  8
0
 62
7
  6
CONTINUOUS
 10
156.4441143948
 20
116.765831284
  0
SEQEND
  0
LINE
  8
0
 62
7
  6
CONTINUOUS
 10
155.9713175156
 20
116.9846898386
 11
155.9713175156
 21
146.2810354777
  0
LINE
  8
0
 62
7
  6
CONTINUOUS
 10
159.6567771845
 20
155.7047839765
 11
159.6259138119
 21
155.4363770142
  0
LINE
  8
0
 62
7
  6
CONTINUOUS
 10
159.6259138119
 20
155.4363770142
 11
159.5984461405
 21
155.2047839765
  0
LINE
  8
0
 62
7
  6
CONTINUOUS
 10
159.5984461405
 20
109.6247839765
 11
159.6259138119
 21
109.3931909388
  0
LINE
  8
0
 62
7
  6
CONTINUOUS
 10
159.6259138119
 20
109.3931909388
 11
159.6567771845
 21
109.1247839765
  0
LINE
  8
1_AXIS
 62
2
  6
CENTER
 10
158.6847175156
 20
155.8647839765
 11
158.6847175156
 21
154.7147839765
  0
LINE
  8
1_AXIS
 62
2
  6
CONTINUOUS
 10
158.6847175156
 20
152.3447839765
 11
158.6847175156
 21
150.5847839765
  0
LINE
  8
1_AXIS
 62
2
  6
CONTINUOUS
 10
158.6847175156
 20
114.2447839765
 11
158.6847175156
 21
112.4847839765
  0
LINE
  8
1_AXIS
 62
2
  6
CENTER
 10
158.6847175156
 20
108.9647839765
 11
158.6847175156
 21
107.2147827447
  0
LINE
  8
1_AXIS
 62
2
  6
CENTER
 10
158.6847175156
 20
117.7647839765
 11
158.6847175156
 21
119.5147852084
  0
LINE
  8
1_AXIS
 62
2
  6
CENTER
 10
158.6847175156
 20
147.0647839765
 11
158.6847175156
 21
148.2147839765
  0
LINE
  8
1_AXIS
 62
2
  6
CENTER
 10
151.8347175156
 20
132.4147839765
 11
164.8347187474
 21
132.4147839765
  0
LINE
  8
0
 62
7
  6
CONTINUOUS
 10
157.7270687698
 20
109.2511879757
 11
157.7126578466
 21
109.1247839765
  0
LINE
  8
0
 62
7
  6
CONTINUOUS
 10
157.7270687698
 20
155.5783799774
 11
157.7126578466
 21
155.7047839765
  0
LINE
  8
0
 62
7
  6
CONTINUOUS
 10
160.4347175156
 20
117.9008055939
 11
160.4347175156
 21
145.7810354777
  0
LINE
  8
2_FEATURE
 62
7
  6
CONTINUOUS
 10
160.4347175156
 20
145.7810354777
 11
160.4347175156
 21
146.7810354777
  0
POLYLINE
  8
0
 62
7
  6
CONTINUOUS
 66
1
 70
0
  0
VERTEX
  8
0
 62
7
  6
CONTINUOUS
 10
157.7709888907
 20
109.6247839765
  0
VERTEX
  8
0
 62
7
  6
CONTINUOUS
 10
157.7567562979
 20
109.5056384245
  0
VERTEX
  8
0
 62
7
  6
CONTINUOUS
 10
157.7270687698
 20
109.2511879757
  0
SEQEND
  0
LINE
  8
0
 62
7
  6
CONTINUOUS
 10
157.7709888907
 20
155.2047839765
 11
157.7435212192
 21
155.4363770142
  0
LINE
  8
0
 62
7
  6
CONTINUOUS
 10
157.7435212192
 20
155.4363770142
 11
157.7270687698
 21
155.5783799774
  0
LINE
  8
0
 62
7
  6
CONTINUOUS
 10
162.8347175156
 20
152.7686244576
 11
162.8347175156
 21
112.0609434955
  0
POLYLINE
  8
0
 62
7
  6
CONTINUOUS
 66
1
 70
0
  0
VERTEX
  8
0
 62
7
  6
CONTINUOUS
 10
160.4187310861
 20
146.812316431
  0
VERTEX
  8
0
 62
7
  6
CONTINUOUS
 10
160.3762856604
 20
146.9398784779
  0
VERTEX
  8
0
 62
7
  6
CONTINUOUS
 10
160.3474968703
 20
147.0155218944
  0
VERTEX
  8
0
 62
7
  6
CONTINUOUS
 10
160.3316920111
 20
147.0496867197
  0
VERTEX
  8
0
 62
7
  6
CONTINUOUS
 10
160.2974686841
 20
147.1050855589
  0
VERTEX
  8
0
 62
7
  6
CONTINUOUS
 10
160.2551188492
 20
147.1454508104
  0
VERTEX
  8
0
 62
7
  6
CONTINUOUS
 10
160.1956006092
 20
147.1719581141
  0
VERTEX
  8
0
 62
7
  6
CONTINUOUS
 10
160.1185199158
 20
147.1831482456
  0
VERTEX
  8
0
 62
7
  6
CONTINUOUS
 10
160.0731479622
 20
147.1843329612
  0
SEQEND
  0
POLYLINE
  8
0
 62
7
  6
CONTINUOUS
 66
1
 70
0
  0
VERTEX
  8
0
 62
7
  6
CONTINUOUS
 10
160.4344628394
 20
146.7810354777
  0
VERTEX
  8
0
 62
7
  6
CONTINUOUS
 10
160.4306119314
 20
146.7845387386
  0
VERTEX
  8
0
 62
7
  6
CONTINUOUS
 10
160.4187310861
 20
146.812316431
  0
SEQEND
  0
LINE
  8
0
 62
7
  6
CONTINUOUS
 10
160.4347175156
 20
146.7810354777
 11
156.4713175156
 21
146.7810354777
  0
POLYLINE
  8
0
 62
7
  6
CONTINUOUS
 66
1
 70
0
  0
VERTEX
  8
0
 62
7
  6
CONTINUOUS
 10
154.3347175156
 20
147.0991273272
  0
VERTEX
  8
0
 62
7
  6
CONTINUOUS
 10
154.3492383569
 20
147.1028731604
  0
VERTEX
  8
0
 62
7
  6
CONTINUOUS
 10
154.3919628055
 20
147.1064017419
  0
VERTEX
  8
0
 62
7
  6
CONTINUOUS
 10
154.4604175322
 20
147.1095080292
  0
VERTEX
  8
0
 62
7
  6
CONTINUOUS
 10
154.5031059531
 20
147.1108451038
  0
VERTEX
  8
0
 62
7
  6
CONTINUOUS
 10
154.6023054799
 20
147.1129897724
  0
VERTEX
  8
0
 62
7
  6
CONTINUOUS
 10
154.7150261904
 20
147.1143287642
  0
VERTEX
  8
0
 62
7
  6
CONTINUOUS
 10
154.8347175156
 20
147.1147839765
  0
SEQEND
  0
POLYLINE
  8
0
 62
7
  6
CONTINUOUS
 66
1
 70
0
  0
VERTEX
  8
0
 62
7
  6
CONTINUOUS
 10
156.0469804537
 20
147.1260086996
  0
VERTEX
  8
0
 62
7
  6
CONTINUOUS
 10
156.1336991792
 20
147.1449728282
  0
VERTEX
  8
0
 62
7
  6
CONTINUOUS
 10
156.1724714703
 20
147.1529933468
  0
VERTEX
  8
0
 62
7
  6
CONTINUOUS
 10
156.2171237522
 20
147.1613518516
  0
VERTEX
  8
0
 62
7
  6
CONTINUOUS
 10
156.2712332889
 20
147.1699336729
  0
VERTEX
  8
0
 62
7
  6
CONTINUOUS
 10
156.3384058859
 20
147.1779241074
  0
VERTEX
  8
0
 62
7
  6
CONTINUOUS
 10
156.4221657152
 20
147.1834526788
  0
VERTEX
  8
0
 62
7
  6
CONTINUOUS
 10
156.4713175156
 20
147.1843333364
  0
SEQEND
  0
POLYLINE
  8
0
 62
7
  6
CONTINUOUS
 66
1
 70
0
  0
VERTEX
  8
0
 62
7
  6
CONTINUOUS
 10
155.9696292571
 20
147.1147848904
  0
VERTEX
  8
0
 62
7
  6
CONTINUOUS
 10
155.9780441119
 20
147.1150417009
  0
VERTEX
  8
0
 62
7
  6
CONTINUOUS
 10
155.9968449706
 20
147.1169149408
  0
VERTEX
  8
0
 62
7
  6
CONTINUOUS
 10
156.0194027085
 20
147.1205428211
  0
VERTEX
  8
0
 62
7
  6
CONTINUOUS
 10
156.0469804537
 20
147.1260086996
  0
SEQEND
  0
LINE
  8
0
 62
7
  6
CONTINUOUS
 10
154.8347175156
 20
147.1147839765
 11
155.9696007304
 21
147.1147848903
  0
LINE
  8
0
 62
7
  6
CONTINUOUS
 10
156.4713175156
 20
147.1843333364
 11
160.0731479622
 21
147.1843329612
  0
LINE
  8
1_AXIS
 62
2
  6
CENTER
 10
163.0847175156
 20
151.4647839765
 11
161.9347175156
 21
151.4647839765
  0
LINE
  8
1_AXIS
 62
2
  6
CONTINUOUS
 10
159.5647175156
 20
151.4647839765
 11
157.8047175156
 21
151.4647839765
  0
LINE
  8
1_AXIS
 62
2
  6
CENTER
 10
154.2847175156
 20
151.4647839765
 11
155.4347175156
 21
151.4647839765
  0
LINE
  8
0
 62
7
  6
CONTINUOUS
 10
162.3347175156
 20
152.6895288479
 11
162.5656754407
 21
152.7266806324
  0
LINE
  8
0
 62
7
  6
CONTINUOUS
 10
162.5656754407
 20
152.7266806324
 11
162.776734292
 21
152.7596996921
  0
LINE
  8
0
 62
7
  6
CONTINUOUS
 10
162.776734292
 20
152.7596996921
 11
162.8347175156
 21
152.7686244576
  0
LINE
  8
0
 62
7
  6
CONTINUOUS
 10
157.7126578466
 20
155.7047839765
 11
159.6567771845
 21
155.7047839765
  0
LINE
  8
0
 62
7
  6
CONTINUOUS
 10
33.4601370406
 20
228.3462664669
 11
33.4601370406
 21
233.8841815836
  0
LINE
  8
0
 62
7
  6
CONTINUOUS
 10
33.6601370406
 20
226.7096665489
 11
33.6601370406
 21
234.2096664669
  0
LINE
  8
0
 62
7
  6
CONTINUOUS
 10
36.4601370406
 20
226.7096664669
 11
36.4601370406
 21
234.2096664669
  0
POLYLINE
  8
0
 62
7
  6
CONTINUOUS
 66
1
 70
0
  0
VERTEX
  8
0
 62
7
  6
CONTINUOUS
 10
33.495418271
 20
228.1615784553
  0
VERTEX
  8
0
 62
7
  6
CONTINUOUS
 10
33.4690687728
 20
228.2517211027
  0
VERTEX
  8
0
 62
7
  6
CONTINUOUS
 10
33.4601298272
 20
228.3462664669
  0
SEQEND
  0
LINE
  8
0
 62
7
  6
CONTINUOUS
 10
38.3101370406
 20
226.7096664669
 11
38.3101370406
 21
228.4862284081
  0
LINE
  8
0
 62
7
  6
CONTINUOUS
 10
33.5390988207
 20
228.0765873662
 11
33.495418271
 21
228.1615784553
  0
LINE
  8
0
 62
7
  6
CONTINUOUS
 10
40.8101370406
 20
227.715724102
 11
40.8101370406
 21
226.4096689299
  0
LINE
  8
0
 62
7
  6
CONTINUOUS
 10
41.2101370406
 20
226.7096664669
 11
41.2101370406
 21
228.4866286505
  0
LINE
  8
0
 62
7
  6
CONTINUOUS
 10
43.0601370406
 20
234.2096664669
 11
43.0601370406
 21
226.7096664669
  0
POLYLINE
  8
0
 62
7
  6
CONTINUOUS
 66
1
 70
0
  0
VERTEX
  8
0
 62
7
  6
CONTINUOUS
 10
40.8101367806
 20
227.7157816134
  0
VERTEX
  8
0
 62
7
  6
CONTINUOUS
 10
40.8209258435
 20
227.8021373795
  0
VERTEX
  8
0
 62
7
  6
CONTINUOUS
 10
40.8359988658
 20
227.8523759837
  0
VERTEX
  8
0
 62
7
  6
CONTINUOUS
 10
40.880504768
 20
227.9447938274
  0
SEQEND
  0
POLYLINE
  8
0
 62
7
  6
CONTINUOUS
 66
1
 70
0
  0
VERTEX
  8
0
 62
7
  6
CONTINUOUS
 10
41.031382115
 20
227.7974796504
  0
VERTEX
  8
0
 62
7
  6
CONTINUOUS
 10
41.1293824105
 20
227.5474895839
  0
VERTEX
  8
0
 62
7
  6
CONTINUOUS
 10
41.1910318428
 20
227.295139245
  0
VERTEX
  8
0
 62
7
  6
CONTINUOUS
 10
41.2101372233
 20
227.0739943144
  0
SEQEND
  0
LINE
  8
0
 62
7
  6
CONTINUOUS
 10
42.2272547862
 20
227.3473232861
 11
42.4594426361
 21
226.5643538462
  0
POLYLINE
  8
0
 62
7
  6
CONTINUOUS
 66
1
 70
0
  0
VERTEX
  8
0
 62
7
  6
CONTINUOUS
 10
42.4594432023
 20
226.5643520312
  0
VERTEX
  8
0
 62
7
  6
CONTINUOUS
 10
42.4524843626
 20
226.5903815167
  0
VERTEX
  8
0
 62
7
  6
CONTINUOUS
 10
42.4388627982
 20
226.7096664669
  0
SEQEND
  0
LINE
  8
0
 62
7
  6
CONTINUOUS
 10
47.1601370406
 20
227.7157246491
 11
47.1601370406
 21
226.4096689299
  0
POLYLINE
  8
0
 62
7
  6
CONTINUOUS
 66
1
 70
0
  0
VERTEX
  8
0
 62
7
  6
CONTINUOUS
 10
47.1601367341
 20
227.7157255734
  0
VERTEX
  8
0
 62
7
  6
CONTINUOUS
 10
47.1607266049
 20
227.7350684582
  0
VERTEX
  8
0
 62
7
  6
CONTINUOUS
 10
47.1634917146
 20
227.7628158618
  0
VERTEX
  8
0
 62
7
  6
CONTINUOUS
 10
47.1684203722
 20
227.7909941038
  0
VERTEX
  8
0
 62
7
  6
CONTINUOUS
 10
47.1753620216
 20
227.8192211615
  0
VERTEX
  8
0
 62
7
  6
CONTINUOUS
 10
47.1841391897
 20
227.8471332708
  0
VERTEX
  8
0
 62
7
  6
CONTINUOUS
 10
47.1945474487
 20
227.8743909285
  0
VERTEX
  8
0
 62
7
  6
CONTINUOUS
 10
47.2063925037
 20
227.9007347791
  0
VERTEX
  8
0
 62
7
  6
CONTINUOUS
 10
47.2194577083
 20
227.9258963181
  0
VERTEX
  8
0
 62
7
  6
CONTINUOUS
 10
47.2335206281
 20
227.9496359921
  0
VERTEX
  8
0
 62
7
  6
CONTINUOUS
 10
47.2483655178
 20
227.9717621168
  0
VERTEX
  8
0
 62
7
  6
CONTINUOUS
 10
47.2637859566
 20
227.9921212045
  0
VERTEX
  8
0
 62
7
  6
CONTINUOUS
 10
47.2796669312
 20
228.0106849928
  0
VERTEX
  8
0
 62
7
  6
CONTINUOUS
 10
47.2961104945
 20
228.0276104898
  0
VERTEX
  8
0
 62
7
  6
CONTINUOUS
 10
47.3131778311
 20
228.0428894751
  0
VERTEX
  8
0
 62
7
  6
CONTINUOUS
 10
47.3308656426
 20
228.0563703061
  0
VERTEX
  8
0
 62
7
  6
CONTINUOUS
 10
47.3494747475
 20
228.0679829085
  0
VERTEX
  8
0
 62
7
  6
CONTINUOUS
 10
47.3690139802
 20
228.0772272964
  0
VERTEX
  8
0
 62
7
  6
CONTINUOUS
 10
47.3891494704
 20
228.0832939191
  0
VERTEX
  8
0
 62
7
  6
CONTINUOUS
 10
47.4084815774
 20
228.0853832876
  0
VERTEX
  8
0
 62
7
  6
CONTINUOUS
 10
47.4262751144
 20
228.0838419909
  0
VERTEX
  8
0
 62
7
  6
CONTINUOUS
 10
47.4426378735
 20
228.0796310525
  0
VERTEX
  8
0
 62
7
  6
CONTINUOUS
 10
47.4586236071
 20
228.0731883704
  0
VERTEX
  8
0
 62
7
  6
CONTINUOUS
 10
47.4674683358
 20
228.0687108795
  0
SEQEND
  0
POLYLINE
  8
0
 62
7
  6
CONTINUOUS
 66
1
 70
0
  0
VERTEX
  8
0
 62
7
  6
CONTINUOUS
 10
40.8357998016
 20
227.8517124999
  0
VERTEX
  8
0
 62
7
  6
CONTINUOUS
 10
40.8462578709
 20
227.8784545462
  0
VERTEX
  8
0
 62
7
  6
CONTINUOUS
 10
40.8586789414
 20
227.9053956099
  0
VERTEX
  8
0
 62
7
  6
CONTINUOUS
 10
40.8723509142
 20
227.9310335346
  0
SEQEND
  0
LINE
  8
0
 62
7
  6
CONTINUOUS
 10
33.4601370406
 20
233.8841815836
 11
33.6601370406
 21
234.0997795669
  0
LINE
  8
0
 62
7
  6
CONTINUOUS
 10
40.9622518269
 20
227.9452179868
 11
40.973775599
 21
227.9208010767
  0
LINE
  8
0
 62
7
  6
CONTINUOUS
 10
40.973775599
 20
227.9208010767
 11
41.0314080912
 21
227.7974267554
  0
POLYLINE
  8
0
 62
7
  6
CONTINUOUS
 66
1
 70
0
  0
VERTEX
  8
0
 62
7
  6
CONTINUOUS
 10
42.2243507439
 20
227.3567235313
  0
VERTEX
  8
0
 62
7
  6
CONTINUOUS
 10
42.2238484566
 20
227.3580032541
  0
VERTEX
  8
0
 62
7
  6
CONTINUOUS
 10
42.227250375
 20
227.3473381277
  0
SEQEND
  0
LINE
  8
0
 62
7
  6
CONTINUOUS
 10
49.1601370406
 20
228.0687559734
 11
49.1601370406
 21
234.2096664669
  0
LINE
  8
2_FEATURE
 62
7
  6
CONTINUOUS
 10
49.2101366591
 20
232.2570118044
 11
49.2101366591
 21
232.2096664669
  0
LINE
  8
2_FEATURE
 62
7
  6
CONTINUOUS
 10
49.2601370406
 20
232.2888119391
 11
49.2601370406
 21
232.2096664669
  0
LINE
  8
0
 62
7
  6
CONTINUOUS
 10
49.4101370406
 20
226.7097355626
 11
49.4101370406
 21
232.1339581774
  0
LINE
  8
2_FEATURE
 62
7
  6
CONTINUOUS
 10
49.4601374221
 20
232.3096664669
 11
49.4601374221
 21
232.2096664669
  0
LINE
  8
2_FEATURE
 62
7
  6
CONTINUOUS
 10
49.4851370406
 20
232.3096664669
 11
49.4851370406
 21
232.2096664669
  0
LINE
  8
2_FEATURE
 62
7
  6
CONTINUOUS
 10
49.5101366591
 20
232.3096664669
 11
49.5101366591
 21
232.2096664669
  0
LINE
  8
2_FEATURE
 62
7
  6
CONTINUOUS
 10
49.5601370406
 20
232.3096664669
 11
49.5601370406
 21
232.2096664669
  0
LINE
  8
2_FEATURE
 62
7
  6
CONTINUOUS
 10
49.6351370406
 20
232.3096664669
 11
49.6351370406
 21
232.2096664669
  0
LINE
  8
2_FEATURE
 62
7
  6
CONTINUOUS
 10
49.7601374221
 20
232.3096664669
 11
49.7601374221
 21
232.2096664669
  0
LINE
  8
2_FEATURE
 62
7
  6
CONTINUOUS
 10
49.9101374221
 20
232.3096664669
 11
49.9101374221
 21
232.2096664669
  0
LINE
  8
1_AXIS
 62
7
  6
CONTINUOUS
 10
50.0401370406
 20
232.3096664669
 11
50.0401370406
 21
232.2096664669
  0
LINE
  8
1_AXIS
 62
7
  6
CONTINUOUS
 10
50.5501370406
 20
232.3096664669
 11
50.5501370406
 21
232.2096664669
  0
LINE
  8
0
 62
7
  6
CONTINUOUS
 10
49.1503680186
 20
227.9402311147
 11
49.1601378162
 21
228.0686491504
  0
POLYLINE
  8
0
 62
7
  6
CONTINUOUS
 66
1
 70
0
  0
VERTEX
  8
0
 62
7
  6
CONTINUOUS
 10
49.1601370406
 20
232.1339581774
  0
VERTEX
  8
0
 62
7
  6
CONTINUOUS
 10
49.1691891728
 20
232.1908378021
  0
VERTEX
  8
0
 62
7
  6
CONTINUOUS
 10
49.1990320317
 20
232.2459785906
  0
VERTEX
  8
0
 62
7
  6
CONTINUOUS
 10
49.2217007191
 20
232.2685014962
  0
VERTEX
  8
0
 62
7
  6
CONTINUOUS
 10
49.2796517139
 20
232.2991238431
  0
VERTEX
  8
0
 62
7
  6
CONTINUOUS
 10
49.3530359822
 20
232.3096664669
  0
SEQEND
  0
LINE
  8
0
 62
7
  6
CONTINUOUS
 10
40.9204382015
 20
228.0125354356
 11
40.9234112742
 21
228.017887079
  0
LINE
  8
0
 62
7
  6
CONTINUOUS
 10
40.915943759
 20
228.0045527499
 11
40.9204382015
 21
228.0125354356
  0
LINE
  8
0
 62
7
  6
CONTINUOUS
 10
40.9111571997
 20
227.9961754965
 11
40.915943759
 21
228.0045527499
  0
LINE
  8
0
 62
7
  6
CONTINUOUS
 10
40.9063100446
 20
227.9878087559
 11
40.9111571997
 21
227.9961754965
  0
LINE
  8
0
 62
7
  6
CONTINUOUS
 10
40.901940705
 20
227.980357024
 11
40.9063100446
 21
227.9878087559
  0
LINE
  8
0
 62
7
  6
CONTINUOUS
 10
40.8966761196
 20
227.971480613
 11
40.901940705
 21
227.980357024
  0
LINE
  8
0
 62
7
  6
CONTINUOUS
 10
40.8916459846
 20
227.9630933357
 11
40.8966761196
 21
227.971480613
  0
LINE
  8
0
 62
7
  6
CONTINUOUS
 10
40.8796252623
 20
227.9429675073
 11
40.8916459846
 21
227.9630933357
  0
POLYLINE
  8
0
 62
7
  6
CONTINUOUS
 66
1
 70
0
  0
VERTEX
  8
0
 62
7
  6
CONTINUOUS
 10
40.8870277415
 20
227.9551116863
  0
VERTEX
  8
0
 62
7
  6
CONTINUOUS
 10
40.9024757065
 20
227.9774318425
  0
VERTEX
  8
0
 62
7
  6
CONTINUOUS
 10
40.9184699181
 20
227.9978366887
  0
VERTEX
  8
0
 62
7
  6
CONTINUOUS
 10
40.9266463252
 20
228.0073288472
  0
VERTEX
  8
0
 62
7
  6
CONTINUOUS
 10
40.9287619767
 20
228.0095564809
  0
SEQEND
  0
POLYLINE
  8
0
 62
7
  6
CONTINUOUS
 66
1
 70
0
  0
VERTEX
  8
0
 62
7
  6
CONTINUOUS
 10
33.6601370406
 20
231.4733950918
  0
VERTEX
  8
0
 62
7
  6
CONTINUOUS
 10
33.6745401528
 20
231.4876276845
  0
VERTEX
  8
0
 62
7
  6
CONTINUOUS
 10
33.7170065126
 20
231.5008627633
  0
VERTEX
  8
0
 62
7
  6
CONTINUOUS
 10
33.7852177854
 20
231.5123879889
  0
VERTEX
  8
0
 62
7
  6
CONTINUOUS
 10
33.8278329206
 20
231.5173152126
  0
VERTEX
  8
0
 62
7
  6
CONTINUOUS
 10
33.9270388289
 20
231.525179251
  0
VERTEX
  8
0
 62
7
  6
CONTINUOUS
 10
34.0399963421
 20
231.5300670854
  0
VERTEX
  8
0
 62
7
  6
CONTINUOUS
 10
34.1601370406
 20
231.5317261359
  0
SEQEND
  0
POLYLINE
  8
0
 62
7
  6
CONTINUOUS
 66
1
 70
0
  0
VERTEX
  8
0
 62
7
  6
CONTINUOUS
 10
33.6601370406
 20
229.645937842
  0
VERTEX
  8
0
 62
7
  6
CONTINUOUS
 10
33.6745401528
 20
229.6317052493
  0
VERTEX
  8
0
 62
7
  6
CONTINUOUS
 10
33.7170065126
 20
229.6184701705
  0
VERTEX
  8
0
 62
7
  6
CONTINUOUS
 10
33.7852177854
 20
229.606944945
  0
VERTEX
  8
0
 62
7
  6
CONTINUOUS
 10
33.8278329206
 20
229.6020177212
  0
VERTEX
  8
0
 62
7
  6
CONTINUOUS
 10
33.9270388289
 20
229.5941536828
  0
VERTEX
  8
0
 62
7
  6
CONTINUOUS
 10
34.0399963421
 20
229.5892658484
  0
VERTEX
  8
0
 62
7
  6
CONTINUOUS
 10
34.1601370406
 20
229.587606798
  0
SEQEND
  0
POLYLINE
  8
0
 62
7
  6
CONTINUOUS
 66
1
 70
0
  0
VERTEX
  8
0
 62
7
  6
CONTINUOUS
 10
49.4101370406
 20
232.1339581774
  0
VERTEX
  8
0
 62
7
  6
CONTINUOUS
 10
49.4010821958
 20
232.1908461668
  0
VERTEX
  8
0
 62
7
  6
CONTINUOUS
 10
49.3712173942
 20
232.2460086108
  0
VERTEX
  8
0
 62
7
  6
CONTINUOUS
 10
49.3485433287
 20
232.2685258382
  0
VERTEX
  8
0
 62
7
  6
CONTINUOUS
 10
49.2906010982
 20
232.299130552
  0
VERTEX
  8
0
 62
7
  6
CONTINUOUS
 10
49.2851488105
 20
232.299913574
  0
SEQEND
  0
LINE
  8
1_AXIS
 62
7
  6
CONTINUOUS
 10
51.2401370406
 20
232.3096664669
 11
51.2401370406
 21
232.2096664669
  0
LINE
  8
1_AXIS
 62
7
  6
CONTINUOUS
 10
51.7501370406
 20
232.3096664669
 11
51.7501370406
 21
232.2096664669
  0
LINE
  8
2_FEATURE
 62
7
  6
CONTINUOUS
 10
51.7851368499
 20
232.3096664669
 11
51.7851368499
 21
232.2096664669
  0
LINE
  8
1_AXIS
 62
7
  6
CONTINUOUS
 10
51.8701370406
 20
232.3096664669
 11
51.8701370406
 21
232.2096664669
  0
LINE
  8
1_AXIS
 62
7
  6
CONTINUOUS
 10
52.3801370406
 20
232.3096664669
 11
52.3801370406
 21
232.2096664669
  0
LINE
  8
1_AXIS
 62
7
  6
CONTINUOUS
 10
53.1901370406
 20
232.3096664669
 11
53.1901370406
 21
232.2096664669
  0
LINE
  8
0
 62
7
  6
CONTINUOUS
 10
41.236495579
 20
232.3086761217
 11
40.7374859242
 21
231.8096664669
  0
POLYLINE
  8
0
 62
7
  6
CONTINUOUS
 66
1
 70
0
  0
VERTEX
  8
0
 62
7
  6
CONTINUOUS
 10
36.4601370406
 20
231.4733950918
  0
VERTEX
  8
0
 62
7
  6
CONTINUOUS
 10
36.4457339284
 20
231.4876276845
  0
VERTEX
  8
0
 62
7
  6
CONTINUOUS
 10
36.4032675686
 20
231.5008627633
  0
VERTEX
  8
0
 62
7
  6
CONTINUOUS
 10
36.3350562958
 20
231.5123879889
  0
VERTEX
  8
0
 62
7
  6
CONTINUOUS
 10
36.2924411606
 20
231.5173152126
  0
VERTEX
  8
0
 62
7
  6
CONTINUOUS
 10
36.1932352523
 20
231.525179251
  0
VERTEX
  8
0
 62
7
  6
CONTINUOUS
 10
36.0802777391
 20
231.5300670854
  0
VERTEX
  8
0
 62
7
  6
CONTINUOUS
 10
35.9601370406
 20
231.5317261359
  0
SEQEND
  0
LINE
  8
0
 62
7
  6
CONTINUOUS
 10
38.7829152457
 20
231.8096664669
 11
38.2838948078
 21
232.3086869047
  0
LINE
  8
1_AXIS
 62
7
  6
CONTINUOUS
 10
54.7201370406
 20
232.3096664669
 11
54.7201370406
 21
232.2096664669
  0
LINE
  8
2_FEATURE
 62
7
  6
CONTINUOUS
 10
54.8101370406
 20
232.3096664669
 11
54.8101370406
 21
232.2096664669
  0
LINE
  8
2_FEATURE
 62
7
  6
CONTINUOUS
 10
54.8851370406
 20
232.3096664669
 11
54.8851370406
 21
232.2096664669
  0
LINE
  8
2_FEATURE
 62
7
  6
CONTINUOUS
 10
54.9601370406
 20
232.3096664669
 11
54.9601370406
 21
232.2096664669
  0
LINE
  8
2_FEATURE
 62
7
  6
CONTINUOUS
 10
55.0101368499
 20
232.3096664669
 11
55.0101368499
 21
232.2096664669
  0
LINE
  8
2_FEATURE
 62
7
  6
CONTINUOUS
 10
55.2101372313
 20
232.3096664669
 11
55.2101372313
 21
232.2096664669
  0
LINE
  8
2_FEATURE
 62
7
  6
CONTINUOUS
 10
55.4101370406
 20
232.3096664669
 11
55.4101370406
 21
232.2096664669
  0
LINE
  8
0
 62
7
  6
CONTINUOUS
 10
55.5101370406
 20
226.7097355626
 11
55.5101370406
 21
232.1339581774
  0
LINE
  8
2_FEATURE
 62
7
  6
CONTINUOUS
 10
55.535137136
 20
232.3096664669
 11
55.535137136
 21
232.2096664669
  0
LINE
  8
2_FEATURE
 62
7
  6
CONTINUOUS
 10
55.5601370406
 20
232.3096664669
 11
55.5601370406
 21
232.2096664669
  0
LINE
  8
2_FEATURE
 62
7
  6
CONTINUOUS
 10
55.5851369452
 20
232.3096664669
 11
55.5851369452
 21
232.2096664669
  0
LINE
  8
2_FEATURE
 62
7
  6
CONTINUOUS
 10
55.610137136
 20
232.3034968521
 11
55.610137136
 21
232.2096664669
  0
LINE
  8
2_FEATURE
 62
7
  6
CONTINUOUS
 10
55.685137136
 20
232.2755487839
 11
55.685137136
 21
232.2096664669
  0
LINE
  8
0
 62
7
  6
CONTINUOUS
 10
55.7601370406
 20
226.7096677199
 11
55.7601370406
 21
234.2096664669
  0
POLYLINE
  8
0
 62
7
  6
CONTINUOUS
 66
1
 70
0
  0
VERTEX
  8
0
 62
7
  6
CONTINUOUS
 10
55.5306713057
 20
232.2120734387
  0
VERTEX
  8
0
 62
7
  6
CONTINUOUS
 10
55.5191340518
 20
232.1906675297
  0
VERTEX
  8
0
 62
7
  6
CONTINUOUS
 10
55.5101370406
 20
232.1339581774
  0
SEQEND
  0
POLYLINE
  8
0
 62
7
  6
CONTINUOUS
 66
1
 70
0
  0
VERTEX
  8
0
 62
7
  6
CONTINUOUS
 10
49.1601370406
 20
229.645937842
  0
VERTEX
  8
0
 62
7
  6
CONTINUOUS
 10
49.1457339284
 20
229.6317052493
  0
VERTEX
  8
0
 62
7
  6
CONTINUOUS
 10
49.1032675686
 20
229.6184701705
  0
VERTEX
  8
0
 62
7
  6
CONTINUOUS
 10
49.0350562958
 20
229.606944945
  0
VERTEX
  8
0
 62
7
  6
CONTINUOUS
 10
48.9924411606
 20
229.6020177212
  0
VERTEX
  8
0
 62
7
  6
CONTINUOUS
 10
48.8932352523
 20
229.5941536828
  0
VERTEX
  8
0
 62
7
  6
CONTINUOUS
 10
48.7802777391
 20
229.5892658484
  0
VERTEX
  8
0
 62
7
  6
CONTINUOUS
 10
48.6601370406
 20
229.587606798
  0
SEQEND
  0
LINE
  8
0
 62
7
  6
CONTINUOUS
 10
61.8601370406
 20
226.7096664669
 11
61.8601370406
 21
234.2096664669
  0
LINE
  8
0
 62
7
  6
CONTINUOUS
 10
63.7101370406
 20
226.7096664669
 11
63.7101370406
 21
228.4866286419
  0
POLYLINE
  8
0
 62
7
  6
CONTINUOUS
 66
1
 70
0
  0
VERTEX
  8
0
 62
7
  6
CONTINUOUS
 10
62.4608308789
 20
226.5643520312
  0
VERTEX
  8
0
 62
7
  6
CONTINUOUS
 10
62.4677897186
 20
226.5903815167
  0
VERTEX
  8
0
 62
7
  6
CONTINUOUS
 10
62.481411283
 20
226.7096664669
  0
SEQEND
  0
POLYLINE
  8
0
 62
7
  6
CONTINUOUS
 66
1
 70
0
  0
VERTEX
  8
0
 62
7
  6
CONTINUOUS
 10
55.7601370406
 20
231.4733950918
  0
VERTEX
  8
0
 62
7
  6
CONTINUOUS
 10
55.7745401528
 20
231.4876276845
  0
VERTEX
  8
0
 62
7
  6
CONTINUOUS
 10
55.8170065126
 20
231.5008627633
  0
VERTEX
  8
0
 62
7
  6
CONTINUOUS
 10
55.8852177854
 20
231.5123879889
  0
VERTEX
  8
0
 62
7
  6
CONTINUOUS
 10
55.9278329206
 20
231.5173152126
  0
VERTEX
  8
0
 62
7
  6
CONTINUOUS
 10
56.0270388289
 20
231.525179251
  0
VERTEX
  8
0
 62
7
  6
CONTINUOUS
 10
56.1399963421
 20
231.5300670854
  0
VERTEX
  8
0
 62
7
  6
CONTINUOUS
 10
56.2601370406
 20
231.5317261359
  0
SEQEND
  0
LINE
  8
0
 62
7
  6
CONTINUOUS
 10
66.6101370406
 20
226.7096664669
 11
66.6101370406
 21
228.4866286501
  0
LINE
  8
0
 62
7
  6
CONTINUOUS
 10
62.4608314451
 20
226.5643538462
 11
62.693019295
 21
227.3473232861
  0
LINE
  8
0
 62
7
  6
CONTINUOUS
 10
62.6930240207
 20
227.3473391887
 11
62.6963804007
 21
227.3578782948
  0
POLYLINE
  8
0
 62
7
  6
CONTINUOUS
 66
1
 70
0
  0
VERTEX
  8
0
 62
7
  6
CONTINUOUS
 10
47.4674711057
 20
228.0687105403
  0
VERTEX
  8
0
 62
7
  6
CONTINUOUS
 10
47.7948873131
 20
227.9003883878
  0
VERTEX
  8
0
 62
7
  6
CONTINUOUS
 10
48.1768582074
 20
227.7237836896
  0
VERTEX
  8
0
 62
7
  6
CONTINUOUS
 10
48.5869822389
 20
227.5536733945
  0
SEQEND
  0
POLYLINE
  8
0
 62
7
  6
CONTINUOUS
 66
1
 70
0
  0
VERTEX
  8
0
 62
7
  6
CONTINUOUS
 10
67.6243507439
 20
227.3567235313
  0
VERTEX
  8
0
 62
7
  6
CONTINUOUS
 10
67.6238484566
 20
227.3580032541
  0
VERTEX
  8
0
 62
7
  6
CONTINUOUS
 10
67.627250375
 20
227.3473381277
  0
SEQEND
  0
LINE
  8
0
 62
7
  6
CONTINUOUS
 10
67.6272547862
 20
227.3473232861
 11
67.8594426361
 21
226.5643538462
  0
POLYLINE
  8
0
 62
7
  6
CONTINUOUS
 66
1
 70
0
  0
VERTEX
  8
0
 62
7
  6
CONTINUOUS
 10
67.8594432023
 20
226.5643520312
  0
VERTEX
  8
0
 62
7
  6
CONTINUOUS
 10
67.8524843626
 20
226.5903815167
  0
VERTEX
  8
0
 62
7
  6
CONTINUOUS
 10
67.8388627982
 20
226.7096664669
  0
SEQEND
  0
LINE
  8
0
 62
7
  6
CONTINUOUS
 10
68.4601370406
 20
226.7096664669
 11
68.4601370406
 21
234.2096664669
  0
LINE
  8
0
 62
7
  6
CONTINUOUS
 10
66.636495579
 20
232.3086761217
 11
66.1374859242
 21
231.8096664669
  0
POLYLINE
  8
0
 62
7
  6
CONTINUOUS
 66
1
 70
0
  0
VERTEX
  8
0
 62
7
  6
CONTINUOUS
 10
40.897120743
 20
228.0452189278
  0
VERTEX
  8
0
 62
7
  6
CONTINUOUS
 10
40.8969045509
 20
228.0452876126
  0
VERTEX
  8
0
 62
7
  6
CONTINUOUS
 10
40.8985757714
 20
228.0444215432
  0
VERTEX
  8
0
 62
7
  6
CONTINUOUS
 10
40.9028955124
 20
228.0414405663
  0
VERTEX
  8
0
 62
7
  6
CONTINUOUS
 10
40.9081729192
 20
228.0367784275
  0
VERTEX
  8
0
 62
7
  6
CONTINUOUS
 10
40.9131562572
 20
228.0314721274
  0
VERTEX
  8
0
 62
7
  6
CONTINUOUS
 10
40.9180353052
 20
228.025454921
  0
VERTEX
  8
0
 62
7
  6
CONTINUOUS
 10
40.9224186126
 20
228.0193882409
  0
VERTEX
  8
0
 62
7
  6
CONTINUOUS
 10
40.9266643907
 20
228.0129675227
  0
VERTEX
  8
0
 62
7
  6
CONTINUOUS
 10
40.9308725616
 20
228.0061243004
  0
VERTEX
  8
0
 62
7
  6
CONTINUOUS
 10
40.9350317999
 20
227.9989417766
  0
VERTEX
  8
0
 62
7
  6
CONTINUOUS
 10
40.9392047338
 20
227.9913694545
  0
VERTEX
  8
0
 62
7
  6
CONTINUOUS
 10
40.943452178
 20
227.9833402391
  0
VERTEX
  8
0
 62
7
  6
CONTINUOUS
 10
40.9477989264
 20
227.9748439994
  0
VERTEX
  8
0
 62
7
  6
CONTINUOUS
 10
40.9522958915
 20
227.9658145609
  0
VERTEX
  8
0
 62
7
  6
CONTINUOUS
 10
40.9570732471
 20
227.9560157773
  0
VERTEX
  8
0
 62
7
  6
CONTINUOUS
 10
40.9622518269
 20
227.9452179868
  0
SEQEND
  0
LINE
  8
0
 62
7
  6
CONTINUOUS
 10
48.584661568
 20
227.554635957
 11
48.5869825857
 21
227.5536730949
  0
POLYLINE
  8
0
 62
7
  6
CONTINUOUS
 66
1
 70
0
  0
VERTEX
  8
0
 62
7
  6
CONTINUOUS
 10
61.8601370406
 20
231.4733950918
  0
VERTEX
  8
0
 62
7
  6
CONTINUOUS
 10
61.8457339284
 20
231.4876276845
  0
VERTEX
  8
0
 62
7
  6
CONTINUOUS
 10
61.8032675686
 20
231.5008627633
  0
VERTEX
  8
0
 62
7
  6
CONTINUOUS
 10
61.7350562958
 20
231.5123879889
  0
VERTEX
  8
0
 62
7
  6
CONTINUOUS
 10
61.6924411606
 20
231.5173152126
  0
VERTEX
  8
0
 62
7
  6
CONTINUOUS
 10
61.5932352523
 20
231.525179251
  0
VERTEX
  8
0
 62
7
  6
CONTINUOUS
 10
61.4802777391
 20
231.5300670854
  0
VERTEX
  8
0
 62
7
  6
CONTINUOUS
 10
61.3601370406
 20
231.5317261359
  0
SEQEND
  0
LINE
  8
0
 62
7
  6
CONTINUOUS
 10
64.182788157
 20
231.8096664669
 11
63.6837785022
 21
232.3086761217
  0
POLYLINE
  8
0
 62
7
  6
CONTINUOUS
 66
1
 70
0
  0
VERTEX
  8
0
 62
7
  6
CONTINUOUS
 10
74.5601370406
 20
232.1339581774
  0
VERTEX
  8
0
 62
7
  6
CONTINUOUS
 10
74.5691891728
 20
232.1908378021
  0
VERTEX
  8
0
 62
7
  6
CONTINUOUS
 10
74.5990320317
 20
232.2459785906
  0
VERTEX
  8
0
 62
7
  6
CONTINUOUS
 10
74.6217007191
 20
232.2685014962
  0
VERTEX
  8
0
 62
7
  6
CONTINUOUS
 10
74.6796517139
 20
232.2991238431
  0
VERTEX
  8
0
 62
7
  6
CONTINUOUS
 10
74.7530359822
 20
232.3096664669
  0
SEQEND
  0
POLYLINE
  8
0
 62
7
  6
CONTINUOUS
 66
1
 70
0
  0
VERTEX
  8
0
 62
7
  6
CONTINUOUS
 10
126.0922906829
 20
226.2097092363
  0
VERTEX
  8
0
 62
7
  6
CONTINUOUS
 10
126.2110148923
 20
226.225645488
  0
VERTEX
  8
0
 62
7
  6
CONTINUOUS
 10
126.3226044187
 20
226.2693588872
  0
VERTEX
  8
0
 62
7
  6
CONTINUOUS
 10
126.420687532
 20
226.3382499318
  0
VERTEX
  8
0
 62
7
  6
CONTINUOUS
 10
126.4628842895
 20
226.3809272165
  0
VERTEX
  8
0
 62
7
  6
CONTINUOUS
 10
126.5306153345
 20
226.4796469795
  0
VERTEX
  8
0
 62
7
  6
CONTINUOUS
 10
126.573120178
 20
226.5913515787
  0
VERTEX
  8
0
 62
7
  6
CONTINUOUS
 10
126.5880728806
 20
226.7096664669
  0
SEQEND
  0
POLYLINE
  8
0
 62
7
  6
CONTINUOUS
 66
1
 70
0
  0
VERTEX
  8
0
 62
7
  6
CONTINUOUS
 10
42.3279833983
 20
226.2097092363
  0
VERTEX
  8
0
 62
7
  6
CONTINUOUS
 10
42.2092591889
 20
226.225645488
  0
VERTEX
  8
0
 62
7
  6
CONTINUOUS
 10
42.0976696625
 20
226.2693588872
  0
VERTEX
  8
0
 62
7
  6
CONTINUOUS
 10
41.9995865492
 20
226.3382499318
  0
VERTEX
  8
0
 62
7
  6
CONTINUOUS
 10
41.9573897917
 20
226.3809272165
  0
VERTEX
  8
0
 62
7
  6
CONTINUOUS
 10
41.8896587467
 20
226.4796469795
  0
VERTEX
  8
0
 62
7
  6
CONTINUOUS
 10
41.8471539032
 20
226.5913515787
  0
VERTEX
  8
0
 62
7
  6
CONTINUOUS
 10
41.8322012006
 20
226.7096664669
  0
SEQEND
  0
POLYLINE
  8
0
 62
7
  6
CONTINUOUS
 66
1
 70
0
  0
VERTEX
  8
0
 62
7
  6
CONTINUOUS
 10
48.5869876762
 20
227.5536713651
  0
VERTEX
  8
0
 62
7
  6
CONTINUOUS
 10
48.6751049683
 20
227.5294542421
  0
VERTEX
  8
0
 62
7
  6
CONTINUOUS
 10
48.773787489
 20
227.5262777686
  0
VERTEX
  8
0
 62
7
  6
CONTINUOUS
 10
48.8672040264
 20
227.547619089
  0
VERTEX
  8
0
 62
7
  6
CONTINUOUS
 10
48.9532624769
 20
227.5926110561
  0
VERTEX
  8
0
 62
7
  6
CONTINUOUS
 10
48.9928716624
 20
227.6241245902
  0
VERTEX
  8
0
 62
7
  6
CONTINUOUS
 10
49.0634147067
 20
227.706350616
  0
VERTEX
  8
0
 62
7
  6
CONTINUOUS
 10
49.1176799773
 20
227.8135513144
  0
VERTEX
  8
0
 62
7
  6
CONTINUOUS
 10
49.1504855773
 20
227.9406867035
  0
SEQEND
  0
LINE
  8
0
 62
7
  6
CONTINUOUS
 10
74.5601370406
 20
226.7096677199
 11
74.5601370406
 21
234.2096664669
  0
LINE
  8
0
 62
7
  6
CONTINUOUS
 10
74.8101370406
 20
226.7097355626
 11
74.8101370406
 21
232.1339581774
  0
LINE
  8
2_FEATURE
 62
7
  6
CONTINUOUS
 10
75.2351369989
 20
232.3096664669
 11
75.2351369989
 21
232.2096664669
  0
LINE
  8
2_FEATURE
 62
7
  6
CONTINUOUS
 10
75.5851370406
 20
232.3096664669
 11
75.5851370406
 21
232.2096664669
  0
LINE
  8
2_FEATURE
 62
7
  6
CONTINUOUS
 10
75.6101370406
 20
232.3096664669
 11
75.6101370406
 21
232.2096664669
  0
LINE
  8
2_FEATURE
 62
7
  6
CONTINUOUS
 10
75.6601368499
 20
232.3096664669
 11
75.6601368499
 21
232.2096664669
  0
LINE
  8
2_FEATURE
 62
7
  6
CONTINUOUS
 10
75.7351368499
 20
232.3096664669
 11
75.7351368499
 21
232.2096664669
  0
LINE
  8
2_FEATURE
 62
7
  6
CONTINUOUS
 10
75.8601372313
 20
232.3096664669
 11
75.8601372313
 21
232.2096664669
  0
LINE
  8
2_FEATURE
 62
7
  6
CONTINUOUS
 10
75.9351370823
 20
232.3096664669
 11
75.9351370823
 21
232.2096664669
  0
LINE
  8
2_FEATURE
 62
7
  6
CONTINUOUS
 10
76.9851369572
 20
232.3096664669
 11
76.9851369572
 21
232.2096664669
  0
LINE
  8
2_FEATURE
 62
7
  6
CONTINUOUS
 10
77.2476369572
 20
232.3096664669
 11
77.2476369572
 21
232.2096664669
  0
LINE
  8
2_FEATURE
 62
7
  6
CONTINUOUS
 10
77.6851370406
 20
232.3096664669
 11
77.6851370406
 21
232.2096664669
  0
LINE
  8
2_FEATURE
 62
7
  6
CONTINUOUS
 10
77.7601368499
 20
232.3096664669
 11
77.7601368499
 21
232.2096664669
  0
LINE
  8
2_FEATURE
 62
7
  6
CONTINUOUS
 10
77.8351368499
 20
232.3096664669
 11
77.8351368499
 21
232.2096664669
  0
POLYLINE
  8
0
 62
7
  6
CONTINUOUS
 66
1
 70
0
  0
VERTEX
  8
0
 62
7
  6
CONTINUOUS
 10
113.3922906829
 20
226.2097092363
  0
VERTEX
  8
0
 62
7
  6
CONTINUOUS
 10
113.5110148923
 20
226.225645488
  0
VERTEX
  8
0
 62
7
  6
CONTINUOUS
 10
113.6226044187
 20
226.2693588872
  0
VERTEX
  8
0
 62
7
  6
CONTINUOUS
 10
113.720687532
 20
226.3382499318
  0
VERTEX
  8
0
 62
7
  6
CONTINUOUS
 10
113.7628842895
 20
226.3809272165
  0
VERTEX
  8
0
 62
7
  6
CONTINUOUS
 10
113.8306153345
 20
226.4796469795
  0
VERTEX
  8
0
 62
7
  6
CONTINUOUS
 10
113.873120178
 20
226.5913515787
  0
VERTEX
  8
0
 62
7
  6
CONTINUOUS
 10
113.8880728806
 20
226.7096664669
  0
SEQEND
  0
POLYLINE
  8
0
 62
7
  6
CONTINUOUS
 66
1
 70
0
  0
VERTEX
  8
0
 62
7
  6
CONTINUOUS
 10
125.4857011886
 20
226.2096664669
  0
VERTEX
  8
0
 62
7
  6
CONTINUOUS
 10
125.6054002973
 20
226.2242882688
  0
VERTEX
  8
0
 62
7
  6
CONTINUOUS
 10
125.7177860139
 20
226.2672351841
  0
VERTEX
  8
0
 62
7
  6
CONTINUOUS
 10
125.8163324733
 20
226.3359087357
  0
VERTEX
  8
0
 62
7
  6
CONTINUOUS
 10
125.8585966042
 20
226.3786676289
  0
VERTEX
  8
0
 62
7
  6
CONTINUOUS
 10
125.9260790439
 20
226.4778721453
  0
VERTEX
  8
0
 62
7
  6
CONTINUOUS
 10
125.9608308789
 20
226.5643520312
  0
SEQEND
  0
POLYLINE
  8
0
 62
7
  6
CONTINUOUS
 66
1
 70
0
  0
VERTEX
  8
0
 62
7
  6
CONTINUOUS
 10
112.7857011886
 20
226.2096664669
  0
VERTEX
  8
0
 62
7
  6
CONTINUOUS
 10
112.9054002973
 20
226.2242882688
  0
VERTEX
  8
0
 62
7
  6
CONTINUOUS
 10
113.0177860139
 20
226.2672351841
  0
VERTEX
  8
0
 62
7
  6
CONTINUOUS
 10
113.1163324733
 20
226.3359087357
  0
VERTEX
  8
0
 62
7
  6
CONTINUOUS
 10
113.1585966042
 20
226.3786676289
  0
VERTEX
  8
0
 62
7
  6
CONTINUOUS
 10
113.2260790439
 20
226.4778721453
  0
VERTEX
  8
0
 62
7
  6
CONTINUOUS
 10
113.2608308789
 20
226.5643520312
  0
SEQEND
  0
POLYLINE
  8
0
 62
7
  6
CONTINUOUS
 66
1
 70
0
  0
VERTEX
  8
0
 62
7
  6
CONTINUOUS
 10
42.9345728926
 20
226.2096664669
  0
VERTEX
  8
0
 62
7
  6
CONTINUOUS
 10
42.8148737839
 20
226.2242882688
  0
VERTEX
  8
0
 62
7
  6
CONTINUOUS
 10
42.7024880673
 20
226.2672351841
  0
VERTEX
  8
0
 62
7
  6
CONTINUOUS
 10
42.6039416079
 20
226.3359087357
  0
VERTEX
  8
0
 62
7
  6
CONTINUOUS
 10
42.561677477
 20
226.3786676289
  0
VERTEX
  8
0
 62
7
  6
CONTINUOUS
 10
42.4941950373
 20
226.4778721453
  0
VERTEX
  8
0
 62
7
  6
CONTINUOUS
 10
42.4594432023
 20
226.5643520312
  0
SEQEND
  0
POLYLINE
  8
0
 62
7
  6
CONTINUOUS
 66
1
 70
0
  0
VERTEX
  8
0
 62
7
  6
CONTINUOUS
 10
67.7279833983
 20
226.2097092363
  0
VERTEX
  8
0
 62
7
  6
CONTINUOUS
 10
67.6092591889
 20
226.225645488
  0
VERTEX
  8
0
 62
7
  6
CONTINUOUS
 10
67.4976696625
 20
226.2693588872
  0
VERTEX
  8
0
 62
7
  6
CONTINUOUS
 10
67.3995865492
 20
226.3382499318
  0
VERTEX
  8
0
 62
7
  6
CONTINUOUS
 10
67.3573897917
 20
226.3809272165
  0
VERTEX
  8
0
 62
7
  6
CONTINUOUS
 10
67.2896587467
 20
226.4796469795
  0
VERTEX
  8
0
 62
7
  6
CONTINUOUS
 10
67.2471539032
 20
226.5913515787
  0
VERTEX
  8
0
 62
7
  6
CONTINUOUS
 10
67.2322012006
 20
226.7096664669
  0
SEQEND
  0
LINE
  8
0
 62
7
  6
CONTINUOUS
 10
74.8010821958
 20
232.1908461668
 11
74.7895882393
 21
232.2120763341
  0
LINE
  8
0
 62
7
  6
CONTINUOUS
 10
74.8101370406
 20
232.1339581774
 11
74.8010821958
 21
232.1908461668
  0
LINE
  8
2_FEATURE
 62
7
  6
CONTINUOUS
 10
77.8851372313
 20
232.3096664669
 11
77.8851372313
 21
232.2096664669
  0
LINE
  8
2_FEATURE
 62
7
  6
CONTINUOUS
 10
78.0351369572
 20
232.3096664669
 11
78.0351369572
 21
232.2096664669
  0
LINE
  8
2_FEATURE
 62
7
  6
CONTINUOUS
 10
78.0788870406
 20
232.3096664669
 11
78.0788870406
 21
232.2096664669
  0
LINE
  8
2_FEATURE
 62
7
  6
CONTINUOUS
 10
78.122637124
 20
232.3096664669
 11
78.122637124
 21
232.2096664669
  0
LINE
  8
2_FEATURE
 62
7
  6
CONTINUOUS
 10
78.2101370406
 20
232.3096664669
 11
78.2101370406
 21
232.2096664669
  0
LINE
  8
2_FEATURE
 62
7
  6
CONTINUOUS
 10
78.3413870406
 20
232.3096664669
 11
78.3413870406
 21
232.2096664669
  0
LINE
  8
2_FEATURE
 62
7
  6
CONTINUOUS
 10
78.5601372075
 20
232.3096664669
 11
78.5601372075
 21
232.2096664669
  0
LINE
  8
2_FEATURE
 62
7
  6
CONTINUOUS
 10
78.8226372075
 20
232.3096664669
 11
78.8226372075
 21
232.2096664669
  0
LINE
  8
2_FEATURE
 62
7
  6
CONTINUOUS
 10
79.0851372075
 20
232.3096664669
 11
79.0851372075
 21
232.2096664669
  0
LINE
  8
2_FEATURE
 62
7
  6
CONTINUOUS
 10
79.3038868737
 20
232.3096664669
 11
79.3038868737
 21
232.2096664669
  0
LINE
  8
2_FEATURE
 62
7
  6
CONTINUOUS
 10
79.4351368737
 20
232.3096664669
 11
79.4351368737
 21
232.2096664669
  0
LINE
  8
2_FEATURE
 62
7
  6
CONTINUOUS
 10
79.5226370406
 20
232.3096664669
 11
79.5226370406
 21
232.2096664669
  0
LINE
  8
2_FEATURE
 62
7
  6
CONTINUOUS
 10
79.5663868737
 20
232.3096664669
 11
79.5663868737
 21
232.2096664669
  0
LINE
  8
2_FEATURE
 62
7
  6
CONTINUOUS
 10
79.6101372075
 20
232.3096664669
 11
79.6101372075
 21
232.2096664669
  0
LINE
  8
2_FEATURE
 62
7
  6
CONTINUOUS
 10
79.6601370406
 20
232.3096664669
 11
79.6601370406
 21
232.2096664669
  0
LINE
  8
2_FEATURE
 62
7
  6
CONTINUOUS
 10
79.8101370406
 20
232.3096664669
 11
79.8101370406
 21
232.2096664669
  0
LINE
  8
2_FEATURE
 62
7
  6
CONTINUOUS
 10
79.8851370406
 20
232.3096664669
 11
79.8851370406
 21
232.2096664669
  0
LINE
  8
2_FEATURE
 62
7
  6
CONTINUOUS
 10
79.9601368737
 20
232.3096664669
 11
79.9601368737
 21
232.2096664669
  0
LINE
  8
2_FEATURE
 62
7
  6
CONTINUOUS
 10
80.0038872075
 20
232.3096664669
 11
80.0038872075
 21
232.2096664669
  0
LINE
  8
2_FEATURE
 62
7
  6
CONTINUOUS
 10
80.0476370406
 20
232.3096664669
 11
80.0476370406
 21
232.2096664669
  0
LINE
  8
2_FEATURE
 62
7
  6
CONTINUOUS
 10
80.1351372075
 20
232.3096664669
 11
80.1351372075
 21
232.2096664669
  0
LINE
  8
2_FEATURE
 62
7
  6
CONTINUOUS
 10
80.2663872075
 20
232.3096664669
 11
80.2663872075
 21
232.2096664669
  0
LINE
  8
2_FEATURE
 62
7
  6
CONTINUOUS
 10
80.4851368737
 20
232.3096664669
 11
80.4851368737
 21
232.2096664669
  0
LINE
  8
2_FEATURE
 62
7
  6
CONTINUOUS
 10
80.7476368737
 20
232.3096664669
 11
80.7476368737
 21
232.2096664669
  0
LINE
  8
0
 62
7
  6
CONTINUOUS
 10
80.9101370406
 20
226.7097355626
 11
80.9101370406
 21
232.1339581774
  0
LINE
  8
2_FEATURE
 62
7
  6
CONTINUOUS
 10
81.0101368737
 20
232.3034968898
 11
81.0101368737
 21
232.2096664669
  0
LINE
  8
0
 62
7
  6
CONTINUOUS
 10
81.1601370406
 20
226.7096677199
 11
81.1601370406
 21
234.2096664669
  0
POLYLINE
  8
0
 62
7
  6
CONTINUOUS
 66
1
 70
0
  0
VERTEX
  8
0
 62
7
  6
CONTINUOUS
 10
80.9293740076
 20
232.2096664669
  0
VERTEX
  8
0
 62
7
  6
CONTINUOUS
 10
80.9191340518
 20
232.1906675297
  0
VERTEX
  8
0
 62
7
  6
CONTINUOUS
 10
80.9101370406
 20
232.1339581774
  0
SEQEND
  0
POLYLINE
  8
0
 62
7
  6
CONTINUOUS
 66
1
 70
0
  0
VERTEX
  8
0
 62
7
  6
CONTINUOUS
 10
87.9922906829
 20
226.2097092363
  0
VERTEX
  8
0
 62
7
  6
CONTINUOUS
 10
88.1110148923
 20
226.225645488
  0
VERTEX
  8
0
 62
7
  6
CONTINUOUS
 10
88.2226044187
 20
226.2693588872
  0
VERTEX
  8
0
 62
7
  6
CONTINUOUS
 10
88.320687532
 20
226.3382499318
  0
VERTEX
  8
0
 62
7
  6
CONTINUOUS
 10
88.3628842895
 20
226.3809272165
  0
VERTEX
  8
0
 62
7
  6
CONTINUOUS
 10
88.4306153345
 20
226.4796469795
  0
VERTEX
  8
0
 62
7
  6
CONTINUOUS
 10
88.473120178
 20
226.5913515787
  0
VERTEX
  8
0
 62
7
  6
CONTINUOUS
 10
88.4880728806
 20
226.7096664669
  0
SEQEND
  0
POLYLINE
  8
0
 62
7
  6
CONTINUOUS
 66
1
 70
0
  0
VERTEX
  8
0
 62
7
  6
CONTINUOUS
 10
87.3857011886
 20
226.2096664669
  0
VERTEX
  8
0
 62
7
  6
CONTINUOUS
 10
87.5054002973
 20
226.2242882688
  0
VERTEX
  8
0
 62
7
  6
CONTINUOUS
 10
87.6177860139
 20
226.2672351841
  0
VERTEX
  8
0
 62
7
  6
CONTINUOUS
 10
87.7163324733
 20
226.3359087357
  0
VERTEX
  8
0
 62
7
  6
CONTINUOUS
 10
87.7585966042
 20
226.3786676289
  0
VERTEX
  8
0
 62
7
  6
CONTINUOUS
 10
87.8260790439
 20
226.4778721453
  0
VERTEX
  8
0
 62
7
  6
CONTINUOUS
 10
87.8608308789
 20
226.5643520312
  0
SEQEND
  0
LINE
  8
0
 62
7
  6
CONTINUOUS
 10
126.0922906829
 20
226.2097092363
 11
126.0857506989
 21
226.2096664669
  0
LINE
  8
0
 62
7
  6
CONTINUOUS
 10
113.3922906829
 20
226.2097092363
 11
113.3857506989
 21
226.2096664669
  0
LINE
  8
0
 62
7
  6
CONTINUOUS
 10
87.9922906829
 20
226.2097092363
 11
87.9857506989
 21
226.2096664669
  0
LINE
  8
0
 62
7
  6
CONTINUOUS
 10
62.5922906829
 20
226.2097092363
 11
62.5857506989
 21
226.2096664669
  0
LINE
  8
0
 62
7
  6
CONTINUOUS
 10
126.7101370406
 20
226.2096664669
 11
126.1101370406
 21
226.2096664669
  0
LINE
  8
0
 62
7
  6
CONTINUOUS
 10
126.0857506989
 20
226.2096664669
 11
125.4911125933
 21
226.2096664669
  0
LINE
  8
0
 62
7
  6
CONTINUOUS
 10
119.1291614879
 20
226.2096664669
 11
118.5345233823
 21
226.2096664669
  0
LINE
  8
0
 62
7
  6
CONTINUOUS
 10
113.3857506989
 20
226.2096664669
 11
112.7911125933
 21
226.2096664669
  0
LINE
  8
0
 62
7
  6
CONTINUOUS
 10
93.7291614879
 20
226.2096664669
 11
93.1345233823
 21
226.2096664669
  0
LINE
  8
0
 62
7
  6
CONTINUOUS
 10
87.9857506989
 20
226.2096664669
 11
87.3911125933
 21
226.2096664669
  0
LINE
  8
0
 62
7
  6
CONTINUOUS
 10
68.3291614879
 20
226.2096664669
 11
67.7345233823
 21
226.2096664669
  0
LINE
  8
0
 62
7
  6
CONTINUOUS
 10
62.5857506989
 20
226.2096664669
 11
61.9911125933
 21
226.2096664669
  0
LINE
  8
0
 62
7
  6
CONTINUOUS
 10
42.9291614879
 20
226.2096664669
 11
42.3345233823
 21
226.2096664669
  0
LINE
  8
0
 62
7
  6
CONTINUOUS
 10
42.3279833983
 20
226.2096664669
 11
41.7101370406
 21
226.2096664669
  0
LINE
  8
0
 62
7
  6
CONTINUOUS
 10
34.1601370406
 20
226.2096664669
 11
40.6101370406
 21
226.2096664669
  0
LINE
  8
0
 62
7
  6
CONTINUOUS
 10
42.9345728926
 20
226.2096664669
 11
46.9601370406
 21
226.2096664669
  0
LINE
  8
0
 62
7
  6
CONTINUOUS
 10
49.9101370406
 20
226.2096664669
 11
55.0101370406
 21
226.2096664669
  0
LINE
  8
0
 62
7
  6
CONTINUOUS
 10
56.2601370406
 20
226.2096664669
 11
61.9857011886
 21
226.2096664669
  0
LINE
  8
0
 62
7
  6
CONTINUOUS
 10
62.6101370406
 20
226.2096664669
 11
67.7279833983
 21
226.2096664669
  0
LINE
  8
0
 62
7
  6
CONTINUOUS
 10
68.3345728926
 20
226.2096664669
 11
74.0601370406
 21
226.2096664669
  0
LINE
  8
0
 62
7
  6
CONTINUOUS
 10
75.3101370406
 20
226.2096664669
 11
80.4101370406
 21
226.2096664669
  0
LINE
  8
0
 62
7
  6
CONTINUOUS
 10
81.6601370406
 20
226.2096664669
 11
87.3857011886
 21
226.2096664669
  0
LINE
  8
0
 62
7
  6
CONTINUOUS
 10
88.0101370406
 20
226.2096664669
 11
93.1279833983
 21
226.2096664669
  0
LINE
  8
0
 62
7
  6
CONTINUOUS
 10
93.7345728926
 20
226.2096664669
 11
99.4601370406
 21
226.2096664669
  0
LINE
  8
0
 62
7
  6
CONTINUOUS
 10
100.7101370406
 20
226.2096664669
 11
105.8101370406
 21
226.2096664669
  0
LINE
  8
0
 62
7
  6
CONTINUOUS
 10
107.0601370406
 20
226.2096664669
 11
112.7857011886
 21
226.2096664669
  0
LINE
  8
0
 62
7
  6
CONTINUOUS
 10
113.4101370406
 20
226.2096664669
 11
118.5279833983
 21
226.2096664669
  0
LINE
  8
0
 62
7
  6
CONTINUOUS
 10
119.1345728926
 20
226.2096664669
 11
120.3601370406
 21
226.2096664669
  0
LINE
  8
0
 62
7
  6
CONTINUOUS
 10
121.4601370406
 20
226.2096664669
 11
125.4857011886
 21
226.2096664669
  0
LINE
  8
0
 62
7
  6
CONTINUOUS
 10
127.8101370406
 20
226.2096664669
 11
134.2601370406
 21
226.2096664669
  0
LINE
  8
0
 62
7
  6
CONTINUOUS
 10
42.3279833983
 20
226.2097092363
 11
42.3345233823
 21
226.2096664669
  0
LINE
  8
0
 62
7
  6
CONTINUOUS
 10
67.7279833983
 20
226.2097092363
 11
67.7345233823
 21
226.2096664669
  0
LINE
  8
0
 62
7
  6
CONTINUOUS
 10
93.1279833983
 20
226.2097092363
 11
93.1345233823
 21
226.2096664669
  0
LINE
  8
0
 62
7
  6
CONTINUOUS
 10
118.5279833983
 20
226.2097092363
 11
118.5345233823
 21
226.2096664669
  0
LINE
  8
0
 62
7
  6
CONTINUOUS
 10
48.6739622078
 20
227.5296382638
 11
48.6745045495
 21
227.5296192541
  0
POLYLINE
  8
0
 62
7
  6
CONTINUOUS
 66
1
 70
0
  0
VERTEX
  8
0
 62
7
  6
CONTINUOUS
 10
68.3345728926
 20
226.2096664669
  0
VERTEX
  8
0
 62
7
  6
CONTINUOUS
 10
68.2148737839
 20
226.2242882688
  0
VERTEX
  8
0
 62
7
  6
CONTINUOUS
 10
68.1024880673
 20
226.2672351841
  0
VERTEX
  8
0
 62
7
  6
CONTINUOUS
 10
68.0039416079
 20
226.3359087357
  0
VERTEX
  8
0
 62
7
  6
CONTINUOUS
 10
67.961677477
 20
226.3786676289
  0
VERTEX
  8
0
 62
7
  6
CONTINUOUS
 10
67.8941950373
 20
226.4778721453
  0
VERTEX
  8
0
 62
7
  6
CONTINUOUS
 10
67.8594432023
 20
226.5643520312
  0
SEQEND
  0
POLYLINE
  8
0
 62
7
  6
CONTINUOUS
 66
1
 70
0
  0
VERTEX
  8
0
 62
7
  6
CONTINUOUS
 10
93.7345728926
 20
226.2096664669
  0
VERTEX
  8
0
 62
7
  6
CONTINUOUS
 10
93.6148737839
 20
226.2242882688
  0
VERTEX
  8
0
 62
7
  6
CONTINUOUS
 10
93.5024880673
 20
226.2672351841
  0
VERTEX
  8
0
 62
7
  6
CONTINUOUS
 10
93.4039416079
 20
226.3359087357
  0
VERTEX
  8
0
 62
7
  6
CONTINUOUS
 10
93.361677477
 20
226.3786676289
  0
VERTEX
  8
0
 62
7
  6
CONTINUOUS
 10
93.2941950373
 20
226.4778721453
  0
VERTEX
  8
0
 62
7
  6
CONTINUOUS
 10
93.2594432023
 20
226.5643520312
  0
SEQEND
  0
POLYLINE
  8
0
 62
7
  6
CONTINUOUS
 66
1
 70
0
  0
VERTEX
  8
0
 62
7
  6
CONTINUOUS
 10
93.1279833983
 20
226.2097092363
  0
VERTEX
  8
0
 62
7
  6
CONTINUOUS
 10
93.0092591889
 20
226.225645488
  0
VERTEX
  8
0
 62
7
  6
CONTINUOUS
 10
92.8976696625
 20
226.2693588872
  0
VERTEX
  8
0
 62
7
  6
CONTINUOUS
 10
92.7995865492
 20
226.3382499318
  0
VERTEX
  8
0
 62
7
  6
CONTINUOUS
 10
92.7573897917
 20
226.3809272165
  0
VERTEX
  8
0
 62
7
  6
CONTINUOUS
 10
92.6896587467
 20
226.4796469795
  0
VERTEX
  8
0
 62
7
  6
CONTINUOUS
 10
92.6471539032
 20
226.5913515787
  0
VERTEX
  8
0
 62
7
  6
CONTINUOUS
 10
92.6322012006
 20
226.7096664669
  0
SEQEND
  0
POLYLINE
  8
0
 62
7
  6
CONTINUOUS
 66
1
 70
0
  0
VERTEX
  8
0
 62
7
  6
CONTINUOUS
 10
74.5601370406
 20
231.4733950918
  0
VERTEX
  8
0
 62
7
  6
CONTINUOUS
 10
74.5457339284
 20
231.4876276845
  0
VERTEX
  8
0
 62
7
  6
CONTINUOUS
 10
74.5032675686
 20
231.5008627633
  0
VERTEX
  8
0
 62
7
  6
CONTINUOUS
 10
74.4350562958
 20
231.5123879889
  0
VERTEX
  8
0
 62
7
  6
CONTINUOUS
 10
74.3924411606
 20
231.5173152126
  0
VERTEX
  8
0
 62
7
  6
CONTINUOUS
 10
74.2932352523
 20
231.525179251
  0
VERTEX
  8
0
 62
7
  6
CONTINUOUS
 10
74.1802777391
 20
231.5300670854
  0
VERTEX
  8
0
 62
7
  6
CONTINUOUS
 10
74.0601370406
 20
231.5317261359
  0
SEQEND
  0
LINE
  8
1_AXIS
 62
2
  6
CENTER
 10
84.2101370406
 20
223.7096664669
 11
84.2101370406
 21
236.7096676988
  0
POLYLINE
  8
0
 62
7
  6
CONTINUOUS
 66
1
 70
0
  0
VERTEX
  8
0
 62
7
  6
CONTINUOUS
 10
62.5922906829
 20
226.2097092363
  0
VERTEX
  8
0
 62
7
  6
CONTINUOUS
 10
62.7110148923
 20
226.225645488
  0
VERTEX
  8
0
 62
7
  6
CONTINUOUS
 10
62.8226044187
 20
226.2693588872
  0
VERTEX
  8
0
 62
7
  6
CONTINUOUS
 10
62.920687532
 20
226.3382499318
  0
VERTEX
  8
0
 62
7
  6
CONTINUOUS
 10
62.9628842895
 20
226.3809272165
  0
VERTEX
  8
0
 62
7
  6
CONTINUOUS
 10
63.0306153345
 20
226.4796469795
  0
VERTEX
  8
0
 62
7
  6
CONTINUOUS
 10
63.073120178
 20
226.5913515787
  0
VERTEX
  8
0
 62
7
  6
CONTINUOUS
 10
63.0880728806
 20
226.7096664669
  0
SEQEND
  0
POLYLINE
  8
0
 62
7
  6
CONTINUOUS
 66
1
 70
0
  0
VERTEX
  8
0
 62
7
  6
CONTINUOUS
 10
61.9857011886
 20
226.2096664669
  0
VERTEX
  8
0
 62
7
  6
CONTINUOUS
 10
62.1054002973
 20
226.2242882688
  0
VERTEX
  8
0
 62
7
  6
CONTINUOUS
 10
62.2177860139
 20
226.2672351841
  0
VERTEX
  8
0
 62
7
  6
CONTINUOUS
 10
62.3163324733
 20
226.3359087357
  0
VERTEX
  8
0
 62
7
  6
CONTINUOUS
 10
62.3585966042
 20
226.3786676289
  0
VERTEX
  8
0
 62
7
  6
CONTINUOUS
 10
62.4260790439
 20
226.4778721453
  0
VERTEX
  8
0
 62
7
  6
CONTINUOUS
 10
62.4608308789
 20
226.5643520312
  0
SEQEND
  0
POLYLINE
  8
0
 62
7
  6
CONTINUOUS
 66
1
 70
0
  0
VERTEX
  8
0
 62
7
  6
CONTINUOUS
 10
124.8601370406
 20
229.587606798
  0
VERTEX
  8
0
 62
7
  6
CONTINUOUS
 10
124.9802777391
 20
229.5892658484
  0
VERTEX
  8
0
 62
7
  6
CONTINUOUS
 10
125.0932352523
 20
229.5941536828
  0
VERTEX
  8
0
 62
7
  6
CONTINUOUS
 10
125.1924411606
 20
229.6020177212
  0
VERTEX
  8
0
 62
7
  6
CONTINUOUS
 10
125.2350562958
 20
229.606944945
  0
VERTEX
  8
0
 62
7
  6
CONTINUOUS
 10
125.3032675686
 20
229.6184701705
  0
VERTEX
  8
0
 62
7
  6
CONTINUOUS
 10
125.3457339284
 20
229.6317052493
  0
VERTEX
  8
0
 62
7
  6
CONTINUOUS
 10
125.3601370406
 20
229.645937842
  0
SEQEND
  0
POLYLINE
  8
0
 62
7
  6
CONTINUOUS
 66
1
 70
0
  0
VERTEX
  8
0
 62
7
  6
CONTINUOUS
 10
112.1601370406
 20
229.587606798
  0
VERTEX
  8
0
 62
7
  6
CONTINUOUS
 10
112.2802777391
 20
229.5892658484
  0
VERTEX
  8
0
 62
7
  6
CONTINUOUS
 10
112.3932352523
 20
229.5941536828
  0
VERTEX
  8
0
 62
7
  6
CONTINUOUS
 10
112.4924411606
 20
229.6020177212
  0
VERTEX
  8
0
 62
7
  6
CONTINUOUS
 10
112.5350562958
 20
229.606944945
  0
VERTEX
  8
0
 62
7
  6
CONTINUOUS
 10
112.6032675686
 20
229.6184701705
  0
VERTEX
  8
0
 62
7
  6
CONTINUOUS
 10
112.6457339284
 20
229.6317052493
  0
VERTEX
  8
0
 62
7
  6
CONTINUOUS
 10
112.6601370406
 20
229.645937842
  0
SEQEND
  0
POLYLINE
  8
0
 62
7
  6
CONTINUOUS
 66
1
 70
0
  0
VERTEX
  8
0
 62
7
  6
CONTINUOUS
 10
99.4601370406
 20
229.587606798
  0
VERTEX
  8
0
 62
7
  6
CONTINUOUS
 10
99.5802777391
 20
229.5892658484
  0
VERTEX
  8
0
 62
7
  6
CONTINUOUS
 10
99.6932352523
 20
229.5941536828
  0
VERTEX
  8
0
 62
7
  6
CONTINUOUS
 10
99.7924411606
 20
229.6020177212
  0
VERTEX
  8
0
 62
7
  6
CONTINUOUS
 10
99.8350562958
 20
229.606944945
  0
VERTEX
  8
0
 62
7
  6
CONTINUOUS
 10
99.9032675686
 20
229.6184701705
  0
VERTEX
  8
0
 62
7
  6
CONTINUOUS
 10
99.9457339284
 20
229.6317052493
  0
VERTEX
  8
0
 62
7
  6
CONTINUOUS
 10
99.9601370406
 20
229.645937842
  0
SEQEND
  0
POLYLINE
  8
0
 62
7
  6
CONTINUOUS
 66
1
 70
0
  0
VERTEX
  8
0
 62
7
  6
CONTINUOUS
 10
86.7601370406
 20
229.587606798
  0
VERTEX
  8
0
 62
7
  6
CONTINUOUS
 10
86.8802777391
 20
229.5892658484
  0
VERTEX
  8
0
 62
7
  6
CONTINUOUS
 10
86.9932352523
 20
229.5941536828
  0
VERTEX
  8
0
 62
7
  6
CONTINUOUS
 10
87.0924411606
 20
229.6020177212
  0
VERTEX
  8
0
 62
7
  6
CONTINUOUS
 10
87.1350562958
 20
229.606944945
  0
VERTEX
  8
0
 62
7
  6
CONTINUOUS
 10
87.2032675686
 20
229.6184701705
  0
VERTEX
  8
0
 62
7
  6
CONTINUOUS
 10
87.2457339284
 20
229.6317052493
  0
VERTEX
  8
0
 62
7
  6
CONTINUOUS
 10
87.2601370406
 20
229.645937842
  0
SEQEND
  0
POLYLINE
  8
0
 62
7
  6
CONTINUOUS
 66
1
 70
0
  0
VERTEX
  8
0
 62
7
  6
CONTINUOUS
 10
74.0601370406
 20
229.587606798
  0
VERTEX
  8
0
 62
7
  6
CONTINUOUS
 10
74.1802777391
 20
229.5892658484
  0
VERTEX
  8
0
 62
7
  6
CONTINUOUS
 10
74.2932352523
 20
229.5941536828
  0
VERTEX
  8
0
 62
7
  6
CONTINUOUS
 10
74.3924411606
 20
229.6020177212
  0
VERTEX
  8
0
 62
7
  6
CONTINUOUS
 10
74.4350562958
 20
229.606944945
  0
VERTEX
  8
0
 62
7
  6
CONTINUOUS
 10
74.5032675686
 20
229.6184701705
  0
VERTEX
  8
0
 62
7
  6
CONTINUOUS
 10
74.5457339284
 20
229.6317052493
  0
VERTEX
  8
0
 62
7
  6
CONTINUOUS
 10
74.5601370406
 20
229.645937842
  0
SEQEND
  0
POLYLINE
  8
0
 62
7
  6
CONTINUOUS
 66
1
 70
0
  0
VERTEX
  8
0
 62
7
  6
CONTINUOUS
 10
61.3601370406
 20
229.587606798
  0
VERTEX
  8
0
 62
7
  6
CONTINUOUS
 10
61.4802777391
 20
229.5892658484
  0
VERTEX
  8
0
 62
7
  6
CONTINUOUS
 10
61.5932352523
 20
229.5941536828
  0
VERTEX
  8
0
 62
7
  6
CONTINUOUS
 10
61.6924411606
 20
229.6020177212
  0
VERTEX
  8
0
 62
7
  6
CONTINUOUS
 10
61.7350562958
 20
229.606944945
  0
VERTEX
  8
0
 62
7
  6
CONTINUOUS
 10
61.8032675686
 20
229.6184701705
  0
VERTEX
  8
0
 62
7
  6
CONTINUOUS
 10
61.8457339284
 20
229.6317052493
  0
VERTEX
  8
0
 62
7
  6
CONTINUOUS
 10
61.8601370406
 20
229.645937842
  0
SEQEND
  0
POLYLINE
  8
0
 62
7
  6
CONTINUOUS
 66
1
 70
0
  0
VERTEX
  8
0
 62
7
  6
CONTINUOUS
 10
35.9601370406
 20
229.587606798
  0
VERTEX
  8
0
 62
7
  6
CONTINUOUS
 10
36.0802777391
 20
229.5892658484
  0
VERTEX
  8
0
 62
7
  6
CONTINUOUS
 10
36.1932352523
 20
229.5941536828
  0
VERTEX
  8
0
 62
7
  6
CONTINUOUS
 10
36.2924411606
 20
229.6020177212
  0
VERTEX
  8
0
 62
7
  6
CONTINUOUS
 10
36.3350562958
 20
229.606944945
  0
VERTEX
  8
0
 62
7
  6
CONTINUOUS
 10
36.4032675686
 20
229.6184701705
  0
VERTEX
  8
0
 62
7
  6
CONTINUOUS
 10
36.4457339284
 20
229.6317052493
  0
VERTEX
  8
0
 62
7
  6
CONTINUOUS
 10
36.4601370406
 20
229.645937842
  0
SEQEND
  0
POLYLINE
  8
0
 62
7
  6
CONTINUOUS
 66
1
 70
0
  0
VERTEX
  8
0
 62
7
  6
CONTINUOUS
 10
132.4601370406
 20
231.5317261359
  0
VERTEX
  8
0
 62
7
  6
CONTINUOUS
 10
132.3399963421
 20
231.5300670854
  0
VERTEX
  8
0
 62
7
  6
CONTINUOUS
 10
132.2270388289
 20
231.525179251
  0
VERTEX
  8
0
 62
7
  6
CONTINUOUS
 10
132.1278329206
 20
231.5173152126
  0
VERTEX
  8
0
 62
7
  6
CONTINUOUS
 10
132.0852177854
 20
231.5123879889
  0
VERTEX
  8
0
 62
7
  6
CONTINUOUS
 10
132.0170065126
 20
231.5008627633
  0
VERTEX
  8
0
 62
7
  6
CONTINUOUS
 10
131.9745401528
 20
231.4876276845
  0
VERTEX
  8
0
 62
7
  6
CONTINUOUS
 10
131.9601370406
 20
231.4733950918
  0
SEQEND
  0
LINE
  8
0
 62
7
  6
CONTINUOUS
 10
34.1601370406
 20
229.587606798
 11
35.9601370406
 21
229.587606798
  0
LINE
  8
0
 62
7
  6
CONTINUOUS
 10
43.5601370406
 20
229.587606798
 11
48.6601370406
 21
229.587606798
  0
LINE
  8
0
 62
7
  6
CONTINUOUS
 10
56.2601370406
 20
229.587606798
 11
61.3601370406
 21
229.587606798
  0
LINE
  8
0
 62
7
  6
CONTINUOUS
 10
68.9601370406
 20
229.587606798
 11
74.0601370406
 21
229.587606798
  0
LINE
  8
0
 62
7
  6
CONTINUOUS
 10
81.6601370406
 20
229.587606798
 11
86.7601370406
 21
229.587606798
  0
LINE
  8
0
 62
7
  6
CONTINUOUS
 10
94.3601370406
 20
229.587606798
 11
99.4601370406
 21
229.587606798
  0
LINE
  8
0
 62
7
  6
CONTINUOUS
 10
107.0601370406
 20
229.587606798
 11
112.1601370406
 21
229.587606798
  0
LINE
  8
0
 62
7
  6
CONTINUOUS
 10
119.7601370406
 20
229.587606798
 11
124.8601370406
 21
229.587606798
  0
LINE
  8
0
 62
7
  6
CONTINUOUS
 10
132.4601370406
 20
229.587606798
 11
134.2601370406
 21
229.587606798
  0
LINE
  8
1_AXIS
 62
2
  6
CENTER
 10
24.6184493495
 20
230.5596664669
 11
143.2589862622
 21
230.5596664669
  0
POLYLINE
  8
0
 62
7
  6
CONTINUOUS
 66
1
 70
0
  0
VERTEX
  8
0
 62
7
  6
CONTINUOUS
 10
43.5601370406
 20
229.587606798
  0
VERTEX
  8
0
 62
7
  6
CONTINUOUS
 10
43.4399963421
 20
229.5892658484
  0
VERTEX
  8
0
 62
7
  6
CONTINUOUS
 10
43.3270388289
 20
229.5941536828
  0
VERTEX
  8
0
 62
7
  6
CONTINUOUS
 10
43.2278329206
 20
229.6020177212
  0
VERTEX
  8
0
 62
7
  6
CONTINUOUS
 10
43.1852177854
 20
229.606944945
  0
VERTEX
  8
0
 62
7
  6
CONTINUOUS
 10
43.1170065126
 20
229.6184701705
  0
VERTEX
  8
0
 62
7
  6
CONTINUOUS
 10
43.0745401528
 20
229.6317052493
  0
VERTEX
  8
0
 62
7
  6
CONTINUOUS
 10
43.0601370406
 20
229.645937842
  0
SEQEND
  0
POLYLINE
  8
0
 62
7
  6
CONTINUOUS
 66
1
 70
0
  0
VERTEX
  8
0
 62
7
  6
CONTINUOUS
 10
56.2601370406
 20
229.587606798
  0
VERTEX
  8
0
 62
7
  6
CONTINUOUS
 10
56.1399963421
 20
229.5892658484
  0
VERTEX
  8
0
 62
7
  6
CONTINUOUS
 10
56.0270388289
 20
229.5941536828
  0
VERTEX
  8
0
 62
7
  6
CONTINUOUS
 10
55.9278329206
 20
229.6020177212
  0
VERTEX
  8
0
 62
7
  6
CONTINUOUS
 10
55.8852177854
 20
229.606944945
  0
VERTEX
  8
0
 62
7
  6
CONTINUOUS
 10
55.8170065126
 20
229.6184701705
  0
VERTEX
  8
0
 62
7
  6
CONTINUOUS
 10
55.7745401528
 20
229.6317052493
  0
VERTEX
  8
0
 62
7
  6
CONTINUOUS
 10
55.7601370406
 20
229.645937842
  0
SEQEND
  0
POLYLINE
  8
0
 62
7
  6
CONTINUOUS
 66
1
 70
0
  0
VERTEX
  8
0
 62
7
  6
CONTINUOUS
 10
68.9601370406
 20
229.587606798
  0
VERTEX
  8
0
 62
7
  6
CONTINUOUS
 10
68.8399963421
 20
229.5892658484
  0
VERTEX
  8
0
 62
7
  6
CONTINUOUS
 10
68.7270388289
 20
229.5941536828
  0
VERTEX
  8
0
 62
7
  6
CONTINUOUS
 10
68.6278329206
 20
229.6020177212
  0
VERTEX
  8
0
 62
7
  6
CONTINUOUS
 10
68.5852177854
 20
229.606944945
  0
VERTEX
  8
0
 62
7
  6
CONTINUOUS
 10
68.5170065126
 20
229.6184701705
  0
VERTEX
  8
0
 62
7
  6
CONTINUOUS
 10
68.4745401528
 20
229.6317052493
  0
VERTEX
  8
0
 62
7
  6
CONTINUOUS
 10
68.4601370406
 20
229.645937842
  0
SEQEND
  0
POLYLINE
  8
0
 62
7
  6
CONTINUOUS
 66
1
 70
0
  0
VERTEX
  8
0
 62
7
  6
CONTINUOUS
 10
94.3601370406
 20
229.587606798
  0
VERTEX
  8
0
 62
7
  6
CONTINUOUS
 10
94.2399963421
 20
229.5892658484
  0
VERTEX
  8
0
 62
7
  6
CONTINUOUS
 10
94.1270388289
 20
229.5941536828
  0
VERTEX
  8
0
 62
7
  6
CONTINUOUS
 10
94.0278329206
 20
229.6020177212
  0
VERTEX
  8
0
 62
7
  6
CONTINUOUS
 10
93.9852177854
 20
229.606944945
  0
VERTEX
  8
0
 62
7
  6
CONTINUOUS
 10
93.9170065126
 20
229.6184701705
  0
VERTEX
  8
0
 62
7
  6
CONTINUOUS
 10
93.8745401528
 20
229.6317052493
  0
VERTEX
  8
0
 62
7
  6
CONTINUOUS
 10
93.8601370406
 20
229.645937842
  0
SEQEND
  0
POLYLINE
  8
0
 62
7
  6
CONTINUOUS
 66
1
 70
0
  0
VERTEX
  8
0
 62
7
  6
CONTINUOUS
 10
119.7601370406
 20
229.587606798
  0
VERTEX
  8
0
 62
7
  6
CONTINUOUS
 10
119.6399963421
 20
229.5892658484
  0
VERTEX
  8
0
 62
7
  6
CONTINUOUS
 10
119.5270388289
 20
229.5941536828
  0
VERTEX
  8
0
 62
7
  6
CONTINUOUS
 10
119.4278329206
 20
229.6020177212
  0
VERTEX
  8
0
 62
7
  6
CONTINUOUS
 10
119.3852177854
 20
229.606944945
  0
VERTEX
  8
0
 62
7
  6
CONTINUOUS
 10
119.3170065126
 20
229.6184701705
  0
VERTEX
  8
0
 62
7
  6
CONTINUOUS
 10
119.2745401528
 20
229.6317052493
  0
VERTEX
  8
0
 62
7
  6
CONTINUOUS
 10
119.2601370406
 20
229.645937842
  0
SEQEND
  0
POLYLINE
  8
0
 62
7
  6
CONTINUOUS
 66
1
 70
0
  0
VERTEX
  8
0
 62
7
  6
CONTINUOUS
 10
132.4601370406
 20
229.587606798
  0
VERTEX
  8
0
 62
7
  6
CONTINUOUS
 10
132.3399963421
 20
229.5892658484
  0
VERTEX
  8
0
 62
7
  6
CONTINUOUS
 10
132.2270388289
 20
229.5941536828
  0
VERTEX
  8
0
 62
7
  6
CONTINUOUS
 10
132.1278329206
 20
229.6020177212
  0
VERTEX
  8
0
 62
7
  6
CONTINUOUS
 10
132.0852177854
 20
229.606944945
  0
VERTEX
  8
0
 62
7
  6
CONTINUOUS
 10
132.0170065126
 20
229.6184701705
  0
VERTEX
  8
0
 62
7
  6
CONTINUOUS
 10
131.9745401528
 20
229.6317052493
  0
VERTEX
  8
0
 62
7
  6
CONTINUOUS
 10
131.9601370406
 20
229.645937842
  0
SEQEND
  0
POLYLINE
  8
0
 62
7
  6
CONTINUOUS
 66
1
 70
0
  0
VERTEX
  8
0
 62
7
  6
CONTINUOUS
 10
119.1345728926
 20
226.2096664669
  0
VERTEX
  8
0
 62
7
  6
CONTINUOUS
 10
119.0148737839
 20
226.2242882688
  0
VERTEX
  8
0
 62
7
  6
CONTINUOUS
 10
118.9024880673
 20
226.2672351841
  0
VERTEX
  8
0
 62
7
  6
CONTINUOUS
 10
118.8039416079
 20
226.3359087357
  0
VERTEX
  8
0
 62
7
  6
CONTINUOUS
 10
118.761677477
 20
226.3786676289
  0
VERTEX
  8
0
 62
7
  6
CONTINUOUS
 10
118.6941950373
 20
226.4778721453
  0
VERTEX
  8
0
 62
7
  6
CONTINUOUS
 10
118.6594432023
 20
226.5643520312
  0
SEQEND
  0
POLYLINE
  8
0
 62
7
  6
CONTINUOUS
 66
1
 70
0
  0
VERTEX
  8
0
 62
7
  6
CONTINUOUS
 10
118.5279833983
 20
226.2097092363
  0
VERTEX
  8
0
 62
7
  6
CONTINUOUS
 10
118.4092591889
 20
226.225645488
  0
VERTEX
  8
0
 62
7
  6
CONTINUOUS
 10
118.2976696625
 20
226.2693588872
  0
VERTEX
  8
0
 62
7
  6
CONTINUOUS
 10
118.1995865492
 20
226.3382499318
  0
VERTEX
  8
0
 62
7
  6
CONTINUOUS
 10
118.1573897917
 20
226.3809272165
  0
VERTEX
  8
0
 62
7
  6
CONTINUOUS
 10
118.0896587467
 20
226.4796469795
  0
VERTEX
  8
0
 62
7
  6
CONTINUOUS
 10
118.0471539032
 20
226.5913515787
  0
VERTEX
  8
0
 62
7
  6
CONTINUOUS
 10
118.0322012006
 20
226.7096664669
  0
SEQEND
  0
POLYLINE
  8
0
 62
7
  6
CONTINUOUS
 66
1
 70
0
  0
VERTEX
  8
0
 62
7
  6
CONTINUOUS
 10
55.567238099
 20
232.3096664669
  0
VERTEX
  8
0
 62
7
  6
CONTINUOUS
 10
55.6406880509
 20
232.2991031082
  0
VERTEX
  8
0
 62
7
  6
CONTINUOUS
 10
55.6988310484
 20
232.2682921474
  0
VERTEX
  8
0
 62
7
  6
CONTINUOUS
 10
55.7214651523
 20
232.2457062582
  0
VERTEX
  8
0
 62
7
  6
CONTINUOUS
 10
55.7511358629
 20
232.1906804202
  0
VERTEX
  8
0
 62
7
  6
CONTINUOUS
 10
55.7601370406
 20
232.1339581774
  0
SEQEND
  0
POLYLINE
  8
0
 62
7
  6
CONTINUOUS
 66
1
 70
0
  0
VERTEX
  8
0
 62
7
  6
CONTINUOUS
 10
81.1601370406
 20
229.645937842
  0
VERTEX
  8
0
 62
7
  6
CONTINUOUS
 10
81.1745401528
 20
229.6317052493
  0
VERTEX
  8
0
 62
7
  6
CONTINUOUS
 10
81.2170065126
 20
229.6184701705
  0
VERTEX
  8
0
 62
7
  6
CONTINUOUS
 10
81.2852177854
 20
229.606944945
  0
VERTEX
  8
0
 62
7
  6
CONTINUOUS
 10
81.3278329206
 20
229.6020177212
  0
VERTEX
  8
0
 62
7
  6
CONTINUOUS
 10
81.4270388289
 20
229.5941536828
  0
VERTEX
  8
0
 62
7
  6
CONTINUOUS
 10
81.5399963421
 20
229.5892658484
  0
VERTEX
  8
0
 62
7
  6
CONTINUOUS
 10
81.6601370406
 20
229.587606798
  0
SEQEND
  0
LINE
  8
0
 62
7
  6
CONTINUOUS
 10
87.2601370406
 20
226.7096664669
 11
87.2601370406
 21
234.2096664669
  0
POLYLINE
  8
0
 62
7
  6
CONTINUOUS
 66
1
 70
0
  0
VERTEX
  8
0
 62
7
  6
CONTINUOUS
 10
107.0601370406
 20
231.5317261359
  0
VERTEX
  8
0
 62
7
  6
CONTINUOUS
 10
106.9399963421
 20
231.5300670854
  0
VERTEX
  8
0
 62
7
  6
CONTINUOUS
 10
106.8270388289
 20
231.525179251
  0
VERTEX
  8
0
 62
7
  6
CONTINUOUS
 10
106.7278329206
 20
231.5173152126
  0
VERTEX
  8
0
 62
7
  6
CONTINUOUS
 10
106.6852177854
 20
231.5123879889
  0
VERTEX
  8
0
 62
7
  6
CONTINUOUS
 10
106.6170065126
 20
231.5008627633
  0
VERTEX
  8
0
 62
7
  6
CONTINUOUS
 10
106.5745401528
 20
231.4876276845
  0
VERTEX
  8
0
 62
7
  6
CONTINUOUS
 10
106.5601370406
 20
231.4733950918
  0
SEQEND
  0
POLYLINE
  8
0
 62
7
  6
CONTINUOUS
 66
1
 70
0
  0
VERTEX
  8
0
 62
7
  6
CONTINUOUS
 10
94.3601370406
 20
231.5317261359
  0
VERTEX
  8
0
 62
7
  6
CONTINUOUS
 10
94.2399963421
 20
231.5300670854
  0
VERTEX
  8
0
 62
7
  6
CONTINUOUS
 10
94.1270388289
 20
231.525179251
  0
VERTEX
  8
0
 62
7
  6
CONTINUOUS
 10
94.0278329206
 20
231.5173152126
  0
VERTEX
  8
0
 62
7
  6
CONTINUOUS
 10
93.9852177854
 20
231.5123879889
  0
VERTEX
  8
0
 62
7
  6
CONTINUOUS
 10
93.9170065126
 20
231.5008627633
  0
VERTEX
  8
0
 62
7
  6
CONTINUOUS
 10
93.8745401528
 20
231.4876276845
  0
VERTEX
  8
0
 62
7
  6
CONTINUOUS
 10
93.8601370406
 20
231.4733950918
  0
SEQEND
  0
POLYLINE
  8
0
 62
7
  6
CONTINUOUS
 66
1
 70
0
  0
VERTEX
  8
0
 62
7
  6
CONTINUOUS
 10
81.6601370406
 20
231.5317261359
  0
VERTEX
  8
0
 62
7
  6
CONTINUOUS
 10
81.5399963421
 20
231.5300670854
  0
VERTEX
  8
0
 62
7
  6
CONTINUOUS
 10
81.4270388289
 20
231.525179251
  0
VERTEX
  8
0
 62
7
  6
CONTINUOUS
 10
81.3278329206
 20
231.5173152126
  0
VERTEX
  8
0
 62
7
  6
CONTINUOUS
 10
81.2852177854
 20
231.5123879889
  0
VERTEX
  8
0
 62
7
  6
CONTINUOUS
 10
81.2170065126
 20
231.5008627633
  0
VERTEX
  8
0
 62
7
  6
CONTINUOUS
 10
81.1745401528
 20
231.4876276845
  0
VERTEX
  8
0
 62
7
  6
CONTINUOUS
 10
81.1601370406
 20
231.4733950918
  0
SEQEND
  0
POLYLINE
  8
0
 62
7
  6
CONTINUOUS
 66
1
 70
0
  0
VERTEX
  8
0
 62
7
  6
CONTINUOUS
 10
68.9601370406
 20
231.5317261359
  0
VERTEX
  8
0
 62
7
  6
CONTINUOUS
 10
68.8399963421
 20
231.5300670854
  0
VERTEX
  8
0
 62
7
  6
CONTINUOUS
 10
68.7270388289
 20
231.525179251
  0
VERTEX
  8
0
 62
7
  6
CONTINUOUS
 10
68.6278329206
 20
231.5173152126
  0
VERTEX
  8
0
 62
7
  6
CONTINUOUS
 10
68.5852177854
 20
231.5123879889
  0
VERTEX
  8
0
 62
7
  6
CONTINUOUS
 10
68.5170065126
 20
231.5008627633
  0
VERTEX
  8
0
 62
7
  6
CONTINUOUS
 10
68.4745401528
 20
231.4876276845
  0
VERTEX
  8
0
 62
7
  6
CONTINUOUS
 10
68.4601370406
 20
231.4733950918
  0
SEQEND
  0
POLYLINE
  8
0
 62
7
  6
CONTINUOUS
 66
1
 70
0
  0
VERTEX
  8
0
 62
7
  6
CONTINUOUS
 10
43.5601370406
 20
231.5317261359
  0
VERTEX
  8
0
 62
7
  6
CONTINUOUS
 10
43.4399963421
 20
231.5300670854
  0
VERTEX
  8
0
 62
7
  6
CONTINUOUS
 10
43.3270388289
 20
231.525179251
  0
VERTEX
  8
0
 62
7
  6
CONTINUOUS
 10
43.2278329206
 20
231.5173152126
  0
VERTEX
  8
0
 62
7
  6
CONTINUOUS
 10
43.1852177854
 20
231.5123879889
  0
VERTEX
  8
0
 62
7
  6
CONTINUOUS
 10
43.1170065126
 20
231.5008627633
  0
VERTEX
  8
0
 62
7
  6
CONTINUOUS
 10
43.0745401528
 20
231.4876276845
  0
VERTEX
  8
0
 62
7
  6
CONTINUOUS
 10
43.0601370406
 20
231.4733950918
  0
SEQEND
  0
LINE
  8
0
 62
7
  6
CONTINUOUS
 10
34.1601370406
 20
231.5317261359
 11
35.9601370406
 21
231.5317261359
  0
LINE
  8
0
 62
7
  6
CONTINUOUS
 10
43.5601370406
 20
231.5317261359
 11
48.6601370406
 21
231.5317261359
  0
LINE
  8
0
 62
7
  6
CONTINUOUS
 10
56.2601370406
 20
231.5317261359
 11
61.3601370406
 21
231.5317261359
  0
LINE
  8
0
 62
7
  6
CONTINUOUS
 10
68.9601370406
 20
231.5317261359
 11
74.0601370406
 21
231.5317261359
  0
LINE
  8
0
 62
7
  6
CONTINUOUS
 10
81.6601370406
 20
231.5317261359
 11
86.7601370406
 21
231.5317261359
  0
LINE
  8
0
 62
7
  6
CONTINUOUS
 10
94.3601370406
 20
231.5317261359
 11
99.4601370406
 21
231.5317261359
  0
LINE
  8
0
 62
7
  6
CONTINUOUS
 10
107.0601370406
 20
231.5317261359
 11
112.1601370406
 21
231.5317261359
  0
LINE
  8
0
 62
7
  6
CONTINUOUS
 10
119.7601370406
 20
231.5317261359
 11
124.8601370406
 21
231.5317261359
  0
LINE
  8
0
 62
7
  6
CONTINUOUS
 10
132.4601370406
 20
231.5317261359
 11
134.2601370406
 21
231.5317261359
  0
LINE
  8
2_FEATURE
 62
7
  6
CONTINUOUS
 10
106.3851369572
 20
232.2096664669
 11
106.1663870406
 21
232.2096664669
  0
LINE
  8
2_FEATURE
 62
7
  6
CONTINUOUS
 10
104.947637124
 20
232.2096664669
 11
100.1726373744
 21
232.2096664669
  0
LINE
  8
2_FEATURE
 62
7
  6
CONTINUOUS
 10
81.1408983178
 20
232.2096664669
 11
78.0351369572
 21
232.2096664669
  0
LINE
  8
2_FEATURE
 62
7
  6
CONTINUOUS
 10
77.8851372313
 20
232.2096664669
 11
74.579379473
 21
232.2096664669
  0
LINE
  8
2_FEATURE
 62
7
  6
CONTINUOUS
 10
55.7408983178
 20
232.2096664669
 11
55.4101370406
 21
232.2096664669
  0
LINE
  8
2_FEATURE
 62
7
  6
CONTINUOUS
 10
55.2101372313
 20
232.2096664669
 11
54.7201370406
 21
232.2096664669
  0
LINE
  8
1_AXIS
 62
7
  6
CONTINUOUS
 10
54.7201370406
 20
232.2096664669
 11
51.8701370406
 21
232.2096664669
  0
LINE
  8
2_FEATURE
 62
7
  6
CONTINUOUS
 10
51.7851368499
 20
232.2096664669
 11
51.7501370406
 21
232.2096664669
  0
LINE
  8
1_AXIS
 62
7
  6
CONTINUOUS
 10
51.7501370406
 20
232.2096664669
 11
50.0401370406
 21
232.2096664669
  0
LINE
  8
2_FEATURE
 62
7
  6
CONTINUOUS
 10
50.0401370406
 20
232.2096664669
 11
49.4601374221
 21
232.2096664669
  0
LINE
  8
2_FEATURE
 62
7
  6
CONTINUOUS
 10
49.2601370406
 20
232.2096664669
 11
49.179379473
 21
232.2096664669
  0
LINE
  8
2_FEATURE
 62
7
  6
CONTINUOUS
 10
36.4601370406
 20
232.3096664669
 11
43.0601370406
 21
232.3096664669
  0
LINE
  8
0
 62
7
  6
CONTINUOUS
 10
49.3530359822
 20
232.3096664669
 11
49.6601370406
 21
232.3096664669
  0
LINE
  8
2_FEATURE
 62
7
  6
CONTINUOUS
 10
49.6601370406
 20
232.3096664669
 11
55.2601370406
 21
232.3096664669
  0
LINE
  8
0
 62
7
  6
CONTINUOUS
 10
55.2601370406
 20
232.3096664669
 11
55.567238099
 21
232.3096664669
  0
LINE
  8
2_FEATURE
 62
7
  6
CONTINUOUS
 10
61.8601370406
 20
232.3096664669
 11
68.4601370406
 21
232.3096664669
  0
LINE
  8
0
 62
7
  6
CONTINUOUS
 10
74.7530359822
 20
232.3096664669
 11
75.0601370406
 21
232.3096664669
  0
LINE
  8
2_FEATURE
 62
7
  6
CONTINUOUS
 10
75.0601370406
 20
232.3096664669
 11
80.6601370406
 21
232.3096664669
  0
LINE
  8
0
 62
7
  6
CONTINUOUS
 10
80.6601370406
 20
232.3096664669
 11
80.967238099
 21
232.3096664669
  0
LINE
  8
2_FEATURE
 62
7
  6
CONTINUOUS
 10
87.2601370406
 20
232.3096664669
 11
93.8601370406
 21
232.3096664669
  0
LINE
  8
0
 62
7
  6
CONTINUOUS
 10
100.1530359822
 20
232.3096664669
 11
100.4601370406
 21
232.3096664669
  0
LINE
  8
2_FEATURE
 62
7
  6
CONTINUOUS
 10
100.4601370406
 20
232.3096664669
 11
106.0601370406
 21
232.3096664669
  0
LINE
  8
0
 62
7
  6
CONTINUOUS
 10
106.0601370406
 20
232.3096664669
 11
106.367238099
 21
232.3096664669
  0
LINE
  8
2_FEATURE
 62
7
  6
CONTINUOUS
 10
112.6601370406
 20
232.3096664669
 11
119.2601370406
 21
232.3096664669
  0
LINE
  8
2_FEATURE
 62
7
  6
CONTINUOUS
 10
125.3601370406
 20
232.3096664669
 11
131.9601370406
 21
232.3096664669
  0
POLYLINE
  8
0
 62
7
  6
CONTINUOUS
 66
1
 70
0
  0
VERTEX
  8
0
 62
7
  6
CONTINUOUS
 10
48.6601370406
 20
231.5317261359
  0
VERTEX
  8
0
 62
7
  6
CONTINUOUS
 10
48.7802777391
 20
231.5300670854
  0
VERTEX
  8
0
 62
7
  6
CONTINUOUS
 10
48.8932352523
 20
231.525179251
  0
VERTEX
  8
0
 62
7
  6
CONTINUOUS
 10
48.9924411606
 20
231.5173152126
  0
VERTEX
  8
0
 62
7
  6
CONTINUOUS
 10
49.0350562958
 20
231.5123879889
  0
VERTEX
  8
0
 62
7
  6
CONTINUOUS
 10
49.1032675686
 20
231.5008627633
  0
VERTEX
  8
0
 62
7
  6
CONTINUOUS
 10
49.1457339284
 20
231.4876276845
  0
VERTEX
  8
0
 62
7
  6
CONTINUOUS
 10
49.1601370406
 20
231.4733950918
  0
SEQEND
  0
POLYLINE
  8
0
 62
7
  6
CONTINUOUS
 66
1
 70
0
  0
VERTEX
  8
0
 62
7
  6
CONTINUOUS
 10
80.967238099
 20
232.3096664669
  0
VERTEX
  8
0
 62
7
  6
CONTINUOUS
 10
81.0406880509
 20
232.2991031082
  0
VERTEX
  8
0
 62
7
  6
CONTINUOUS
 10
81.0988310484
 20
232.2682921474
  0
VERTEX
  8
0
 62
7
  6
CONTINUOUS
 10
81.1214651523
 20
232.2457062582
  0
VERTEX
  8
0
 62
7
  6
CONTINUOUS
 10
81.1511358629
 20
232.1906804202
  0
VERTEX
  8
0
 62
7
  6
CONTINUOUS
 10
81.1601370406
 20
232.1339581774
  0
SEQEND
  0
POLYLINE
  8
0
 62
7
  6
CONTINUOUS
 66
1
 70
0
  0
VERTEX
  8
0
 62
7
  6
CONTINUOUS
 10
87.2601370406
 20
231.4733950918
  0
VERTEX
  8
0
 62
7
  6
CONTINUOUS
 10
87.2457339284
 20
231.4876276845
  0
VERTEX
  8
0
 62
7
  6
CONTINUOUS
 10
87.2032675686
 20
231.5008627633
  0
VERTEX
  8
0
 62
7
  6
CONTINUOUS
 10
87.1350562958
 20
231.5123879889
  0
VERTEX
  8
0
 62
7
  6
CONTINUOUS
 10
87.0924411606
 20
231.5173152126
  0
VERTEX
  8
0
 62
7
  6
CONTINUOUS
 10
86.9932352523
 20
231.525179251
  0
VERTEX
  8
0
 62
7
  6
CONTINUOUS
 10
86.8802777391
 20
231.5300670854
  0
VERTEX
  8
0
 62
7
  6
CONTINUOUS
 10
86.7601370406
 20
231.5317261359
  0
SEQEND
  0
LINE
  8
0
 62
7
  6
CONTINUOUS
 10
89.1101370406
 20
226.7096664669
 11
89.1101370406
 21
228.4866286419
  0
POLYLINE
  8
0
 62
7
  6
CONTINUOUS
 66
1
 70
0
  0
VERTEX
  8
0
 62
7
  6
CONTINUOUS
 10
87.8608308789
 20
226.5643520312
  0
VERTEX
  8
0
 62
7
  6
CONTINUOUS
 10
87.8677897186
 20
226.5903815167
  0
VERTEX
  8
0
 62
7
  6
CONTINUOUS
 10
87.881411283
 20
226.7096664669
  0
SEQEND
  0
LINE
  8
0
 62
7
  6
CONTINUOUS
 10
87.8608314451
 20
226.5643538462
 11
88.093019295
 21
227.3473232861
  0
LINE
  8
0
 62
7
  6
CONTINUOUS
 10
88.0930240207
 20
227.3473391887
 11
88.0963804007
 21
227.3578782948
  0
LINE
  8
0
 62
7
  6
CONTINUOUS
 10
92.036495579
 20
232.3086761217
 11
91.5374859242
 21
231.8096664669
  0
LINE
  8
0
 62
7
  6
CONTINUOUS
 10
34.1601370406
 20
234.7096664669
 11
134.2601370406
 21
234.7096664669
  0
POLYLINE
  8
0
 62
7
  6
CONTINUOUS
 66
1
 70
0
  0
VERTEX
  8
0
 62
7
  6
CONTINUOUS
 10
106.367238099
 20
232.3096664669
  0
VERTEX
  8
0
 62
7
  6
CONTINUOUS
 10
106.4406880509
 20
232.2991031082
  0
VERTEX
  8
0
 62
7
  6
CONTINUOUS
 10
106.4988310484
 20
232.2682921474
  0
VERTEX
  8
0
 62
7
  6
CONTINUOUS
 10
106.5214651523
 20
232.2457062582
  0
VERTEX
  8
0
 62
7
  6
CONTINUOUS
 10
106.5511358629
 20
232.1906804202
  0
VERTEX
  8
0
 62
7
  6
CONTINUOUS
 10
106.5601370406
 20
232.1339581774
  0
SEQEND
  0
LINE
  8
0
 62
7
  6
CONTINUOUS
 10
89.582788157
 20
231.8096664669
 11
89.0837785022
 21
232.3086761217
  0
POLYLINE
  8
0
 62
7
  6
CONTINUOUS
 66
1
 70
0
  0
VERTEX
  8
0
 62
7
  6
CONTINUOUS
 10
93.0243507439
 20
227.3567235313
  0
VERTEX
  8
0
 62
7
  6
CONTINUOUS
 10
93.0238484566
 20
227.3580032541
  0
VERTEX
  8
0
 62
7
  6
CONTINUOUS
 10
93.027250375
 20
227.3473381277
  0
SEQEND
  0
LINE
  8
0
 62
7
  6
CONTINUOUS
 10
92.0101370406
 20
226.7096664669
 11
92.0101370406
 21
228.4866286501
  0
LINE
  8
0
 62
7
  6
CONTINUOUS
 10
93.8601370406
 20
226.7096664669
 11
93.8601370406
 21
234.2096664669
  0
LINE
  8
0
 62
7
  6
CONTINUOUS
 10
93.0272547862
 20
227.3473232861
 11
93.2594426361
 21
226.5643538462
  0
POLYLINE
  8
0
 62
7
  6
CONTINUOUS
 66
1
 70
0
  0
VERTEX
  8
0
 62
7
  6
CONTINUOUS
 10
93.2594432023
 20
226.5643520312
  0
VERTEX
  8
0
 62
7
  6
CONTINUOUS
 10
93.2524843626
 20
226.5903815167
  0
VERTEX
  8
0
 62
7
  6
CONTINUOUS
 10
93.2388627982
 20
226.7096664669
  0
SEQEND
  0
POLYLINE
  8
0
 62
7
  6
CONTINUOUS
 66
1
 70
0
  0
VERTEX
  8
0
 62
7
  6
CONTINUOUS
 10
99.9601370406
 20
231.4733950918
  0
VERTEX
  8
0
 62
7
  6
CONTINUOUS
 10
99.9457339284
 20
231.4876276845
  0
VERTEX
  8
0
 62
7
  6
CONTINUOUS
 10
99.9032675686
 20
231.5008627633
  0
VERTEX
  8
0
 62
7
  6
CONTINUOUS
 10
99.8350562958
 20
231.5123879889
  0
VERTEX
  8
0
 62
7
  6
CONTINUOUS
 10
99.7924411606
 20
231.5173152126
  0
VERTEX
  8
0
 62
7
  6
CONTINUOUS
 10
99.6932352523
 20
231.525179251
  0
VERTEX
  8
0
 62
7
  6
CONTINUOUS
 10
99.5802777391
 20
231.5300670854
  0
VERTEX
  8
0
 62
7
  6
CONTINUOUS
 10
99.4601370406
 20
231.5317261359
  0
SEQEND
  0
LINE
  8
0
 62
7
  6
CONTINUOUS
 10
99.9601370406
 20
226.7096677199
 11
99.9601370406
 21
234.2096664669
  0
LINE
  8
2_FEATURE
 62
7
  6
CONTINUOUS
 10
100.1726373744
 20
232.3096664669
 11
100.1726373744
 21
232.2096664669
  0
LINE
  8
0
 62
7
  6
CONTINUOUS
 10
100.2101370406
 20
232.2096664669
 11
100.2101370406
 21
226.7097355626
  0
LINE
  8
2_FEATURE
 62
7
  6
CONTINUOUS
 10
100.2163867068
 20
232.3096664669
 11
100.2163867068
 21
232.2096664669
  0
LINE
  8
2_FEATURE
 62
7
  6
CONTINUOUS
 10
100.3476367068
 20
232.3096664669
 11
100.3476367068
 21
232.2096664669
  0
LINE
  8
2_FEATURE
 62
7
  6
CONTINUOUS
 10
100.5226370406
 20
232.3096664669
 11
100.5226370406
 21
232.2096664669
  0
LINE
  8
2_FEATURE
 62
7
  6
CONTINUOUS
 10
100.7413867068
 20
232.3096664669
 11
100.7413867068
 21
232.2096664669
  0
LINE
  8
2_FEATURE
 62
7
  6
CONTINUOUS
 10
101.3601370406
 20
232.3096664669
 11
101.3601370406
 21
232.2096664669
  0
POLYLINE
  8
0
 62
7
  6
CONTINUOUS
 66
1
 70
0
  0
VERTEX
  8
0
 62
7
  6
CONTINUOUS
 10
99.9601370406
 20
232.1339581774
  0
VERTEX
  8
0
 62
7
  6
CONTINUOUS
 10
99.9691891728
 20
232.1908378021
  0
VERTEX
  8
0
 62
7
  6
CONTINUOUS
 10
99.9990320317
 20
232.2459785906
  0
VERTEX
  8
0
 62
7
  6
CONTINUOUS
 10
100.0217007191
 20
232.2685014962
  0
VERTEX
  8
0
 62
7
  6
CONTINUOUS
 10
100.0796517139
 20
232.2991238431
  0
VERTEX
  8
0
 62
7
  6
CONTINUOUS
 10
100.1530359822
 20
232.3096664669
  0
SEQEND
  0
POLYLINE
  8
0
 62
7
  6
CONTINUOUS
 66
1
 70
0
  0
VERTEX
  8
0
 62
7
  6
CONTINUOUS
 10
119.8332912758
 20
227.5536731688
  0
VERTEX
  8
0
 62
7
  6
CONTINUOUS
 10
120.2445768628
 20
227.7242921696
  0
VERTEX
  8
0
 62
7
  6
CONTINUOUS
 10
120.626530722
 20
227.9009473001
  0
VERTEX
  8
0
 62
7
  6
CONTINUOUS
 10
120.9528031252
 20
228.0687106276
  0
SEQEND
  0
POLYLINE
  8
0
 62
7
  6
CONTINUOUS
 66
1
 70
0
  0
VERTEX
  8
0
 62
7
  6
CONTINUOUS
 10
106.5601370406
 20
229.645937842
  0
VERTEX
  8
0
 62
7
  6
CONTINUOUS
 10
106.5745401528
 20
229.6317052493
  0
VERTEX
  8
0
 62
7
  6
CONTINUOUS
 10
106.6170065126
 20
229.6184701705
  0
VERTEX
  8
0
 62
7
  6
CONTINUOUS
 10
106.6852177854
 20
229.606944945
  0
VERTEX
  8
0
 62
7
  6
CONTINUOUS
 10
106.7278329206
 20
229.6020177212
  0
VERTEX
  8
0
 62
7
  6
CONTINUOUS
 10
106.8270388289
 20
229.5941536828
  0
VERTEX
  8
0
 62
7
  6
CONTINUOUS
 10
106.9399963421
 20
229.5892658484
  0
VERTEX
  8
0
 62
7
  6
CONTINUOUS
 10
107.0601370406
 20
229.587606798
  0
SEQEND
  0
LINE
  8
2_FEATURE
 62
7
  6
CONTINUOUS
 10
102.4101370406
 20
232.3096664669
 11
102.4101370406
 21
232.2096664669
  0
LINE
  8
2_FEATURE
 62
7
  6
CONTINUOUS
 10
102.6288870823
 20
232.3096664669
 11
102.6288870823
 21
232.2096664669
  0
LINE
  8
2_FEATURE
 62
7
  6
CONTINUOUS
 10
102.8038870406
 20
232.3096664669
 11
102.8038870406
 21
232.2096664669
  0
LINE
  8
2_FEATURE
 62
7
  6
CONTINUOUS
 10
102.9351370406
 20
232.3096664669
 11
102.9351370406
 21
232.2096664669
  0
LINE
  8
2_FEATURE
 62
7
  6
CONTINUOUS
 10
102.9788869989
 20
232.3096664669
 11
102.9788869989
 21
232.2096664669
  0
LINE
  8
2_FEATURE
 62
7
  6
CONTINUOUS
 10
103.3288870406
 20
232.3096664669
 11
103.3288870406
 21
232.2096664669
  0
LINE
  8
2_FEATURE
 62
7
  6
CONTINUOUS
 10
104.3788870406
 20
232.3096664669
 11
104.3788870406
 21
232.2096664669
  0
LINE
  8
2_FEATURE
 62
7
  6
CONTINUOUS
 10
104.5976369572
 20
232.3096664669
 11
104.5976369572
 21
232.2096664669
  0
LINE
  8
2_FEATURE
 62
7
  6
CONTINUOUS
 10
104.7726370406
 20
232.3096664669
 11
104.7726370406
 21
232.2096664669
  0
LINE
  8
2_FEATURE
 62
7
  6
CONTINUOUS
 10
104.9038870406
 20
232.3096664669
 11
104.9038870406
 21
232.2096664669
  0
LINE
  8
2_FEATURE
 62
7
  6
CONTINUOUS
 10
104.947637124
 20
232.3096664669
 11
104.947637124
 21
232.2096664669
  0
POLYLINE
  8
0
 62
7
  6
CONTINUOUS
 66
1
 70
0
  0
VERTEX
  8
0
 62
7
  6
CONTINUOUS
 10
120.9528056615
 20
228.0687108358
  0
VERTEX
  8
0
 62
7
  6
CONTINUOUS
 10
120.962623044
 20
228.0736417756
  0
VERTEX
  8
0
 62
7
  6
CONTINUOUS
 10
120.9784413025
 20
228.0798966365
  0
VERTEX
  8
0
 62
7
  6
CONTINUOUS
 10
120.9940029785
 20
228.0838427054
  0
VERTEX
  8
0
 62
7
  6
CONTINUOUS
 10
121.010789141
 20
228.0853850284
  0
VERTEX
  8
0
 62
7
  6
CONTINUOUS
 10
121.0287145876
 20
228.083762927
  0
VERTEX
  8
0
 62
7
  6
CONTINUOUS
 10
121.0465526204
 20
228.078975951
  0
VERTEX
  8
0
 62
7
  6
CONTINUOUS
 10
121.0636666086
 20
228.0717193545
  0
VERTEX
  8
0
 62
7
  6
CONTINUOUS
 10
121.0801038219
 20
228.0625110114
  0
VERTEX
  8
0
 62
7
  6
CONTINUOUS
 10
121.0957976495
 20
228.051774965
  0
VERTEX
  8
0
 62
7
  6
CONTINUOUS
 10
121.1108468591
 20
228.0397246738
  0
VERTEX
  8
0
 62
7
  6
CONTINUOUS
 10
121.1254791321
 20
228.0263376848
  0
VERTEX
  8
0
 62
7
  6
CONTINUOUS
 10
121.1396535837
 20
228.011728099
  0
VERTEX
  8
0
 62
7
  6
CONTINUOUS
 10
121.1534063222
 20
227.9959049857
  0
VERTEX
  8
0
 62
7
  6
CONTINUOUS
 10
121.1668144695
 20
227.9787619163
  0
VERTEX
  8
0
 62
7
  6
CONTINUOUS
 10
121.1798475964
 20
227.9602664065
  0
VERTEX
  8
0
 62
7
  6
CONTINUOUS
 10
121.1923729834
 20
227.9405093103
  0
VERTEX
  8
0
 62
7
  6
CONTINUOUS
 10
121.2042587039
 20
227.9195933544
  0
VERTEX
  8
0
 62
7
  6
CONTINUOUS
 10
121.2153577798
 20
227.8976600771
  0
VERTEX
  8
0
 62
7
  6
CONTINUOUS
 10
121.2255289587
 20
227.8748656841
  0
VERTEX
  8
0
 62
7
  6
CONTINUOUS
 10
121.2346307804
 20
227.8513880258
  0
VERTEX
  8
0
 62
7
  6
CONTINUOUS
 10
121.2425406078
 20
227.8273846153
  0
VERTEX
  8
0
 62
7
  6
CONTINUOUS
 10
121.2491227916
 20
227.8030771341
  0
VERTEX
  8
0
 62
7
  6
CONTINUOUS
 10
121.2542604503
 20
227.7786768489
  0
VERTEX
  8
0
 62
7
  6
CONTINUOUS
 10
121.2578420949
 20
227.7544512756
  0
VERTEX
  8
0
 62
7
  6
CONTINUOUS
 10
121.2597846889
 20
227.7306275049
  0
VERTEX
  8
0
 62
7
  6
CONTINUOUS
 10
121.2601373475
 20
227.7157248159
  0
SEQEND
  0
POLYLINE
  8
0
 62
7
  6
CONTINUOUS
 66
1
 70
0
  0
VERTEX
  8
0
 62
7
  6
CONTINUOUS
 10
112.6601370406
 20
231.4733950918
  0
VERTEX
  8
0
 62
7
  6
CONTINUOUS
 10
112.6457339284
 20
231.4876276845
  0
VERTEX
  8
0
 62
7
  6
CONTINUOUS
 10
112.6032675686
 20
231.5008627633
  0
VERTEX
  8
0
 62
7
  6
CONTINUOUS
 10
112.5350562958
 20
231.5123879889
  0
VERTEX
  8
0
 62
7
  6
CONTINUOUS
 10
112.4924411606
 20
231.5173152126
  0
VERTEX
  8
0
 62
7
  6
CONTINUOUS
 10
112.3932352523
 20
231.525179251
  0
VERTEX
  8
0
 62
7
  6
CONTINUOUS
 10
112.2802777391
 20
231.5300670854
  0
VERTEX
  8
0
 62
7
  6
CONTINUOUS
 10
112.1601370406
 20
231.5317261359
  0
SEQEND
  0
LINE
  8
2_FEATURE
 62
7
  6
CONTINUOUS
 10
106.1663870406
 20
232.3096664669
 11
106.1663870406
 21
232.2096664669
  0
LINE
  8
0
 62
7
  6
CONTINUOUS
 10
106.3101370406
 20
226.7097355626
 11
106.3101370406
 21
232.2096664669
  0
LINE
  8
2_FEATURE
 62
7
  6
CONTINUOUS
 10
106.3851369572
 20
232.3096664669
 11
106.3851369572
 21
232.2096664669
  0
LINE
  8
0
 62
7
  6
CONTINUOUS
 10
106.5601370406
 20
226.7096677199
 11
106.5601370406
 21
234.2096664669
  0
LINE
  8
0
 62
7
  6
CONTINUOUS
 10
117.436495579
 20
232.3086761217
 11
116.9374859242
 21
231.8096664669
  0
POLYLINE
  8
0
 62
7
  6
CONTINUOUS
 66
1
 70
0
  0
VERTEX
  8
0
 62
7
  6
CONTINUOUS
 10
119.2601370406
 20
231.4733950918
  0
VERTEX
  8
0
 62
7
  6
CONTINUOUS
 10
119.2745401528
 20
231.4876276845
  0
VERTEX
  8
0
 62
7
  6
CONTINUOUS
 10
119.3170065126
 20
231.5008627633
  0
VERTEX
  8
0
 62
7
  6
CONTINUOUS
 10
119.3852177854
 20
231.5123879889
  0
VERTEX
  8
0
 62
7
  6
CONTINUOUS
 10
119.4278329206
 20
231.5173152126
  0
VERTEX
  8
0
 62
7
  6
CONTINUOUS
 10
119.5270388289
 20
231.525179251
  0
VERTEX
  8
0
 62
7
  6
CONTINUOUS
 10
119.6399963421
 20
231.5300670854
  0
VERTEX
  8
0
 62
7
  6
CONTINUOUS
 10
119.7601370406
 20
231.5317261359
  0
SEQEND
  0
LINE
  8
0
 62
7
  6
CONTINUOUS
 10
114.982788157
 20
231.8096664669
 11
114.4837785022
 21
232.3086761217
  0
LINE
  8
0
 62
7
  6
CONTINUOUS
 10
112.6601370406
 20
226.7096664669
 11
112.6601370406
 21
234.2096664669
  0
LINE
  8
0
 62
7
  6
CONTINUOUS
 10
114.5101370406
 20
226.7096664669
 11
114.5101370406
 21
228.4866286617
  0
POLYLINE
  8
0
 62
7
  6
CONTINUOUS
 66
1
 70
0
  0
VERTEX
  8
0
 62
7
  6
CONTINUOUS
 10
113.2608308789
 20
226.5643520312
  0
VERTEX
  8
0
 62
7
  6
CONTINUOUS
 10
113.2677897186
 20
226.5903815167
  0
VERTEX
  8
0
 62
7
  6
CONTINUOUS
 10
113.281411283
 20
226.7096664669
  0
SEQEND
  0
LINE
  8
0
 62
7
  6
CONTINUOUS
 10
113.2608314451
 20
226.5643538462
 11
113.493019295
 21
227.3473232861
  0
LINE
  8
0
 62
7
  6
CONTINUOUS
 10
113.4930240207
 20
227.3473391887
 11
113.4963804007
 21
227.3578782948
  0
POLYLINE
  8
0
 62
7
  6
CONTINUOUS
 66
1
 70
0
  0
VERTEX
  8
0
 62
7
  6
CONTINUOUS
 10
125.3601370406
 20
231.4733950918
  0
VERTEX
  8
0
 62
7
  6
CONTINUOUS
 10
125.3457339284
 20
231.4876276845
  0
VERTEX
  8
0
 62
7
  6
CONTINUOUS
 10
125.3032675686
 20
231.5008627633
  0
VERTEX
  8
0
 62
7
  6
CONTINUOUS
 10
125.2350562958
 20
231.5123879889
  0
VERTEX
  8
0
 62
7
  6
CONTINUOUS
 10
125.1924411606
 20
231.5173152126
  0
VERTEX
  8
0
 62
7
  6
CONTINUOUS
 10
125.0932352523
 20
231.525179251
  0
VERTEX
  8
0
 62
7
  6
CONTINUOUS
 10
124.9802777391
 20
231.5300670854
  0
VERTEX
  8
0
 62
7
  6
CONTINUOUS
 10
124.8601370406
 20
231.5317261359
  0
SEQEND
  0
POLYLINE
  8
0
 62
7
  6
CONTINUOUS
 66
1
 70
0
  0
VERTEX
  8
0
 62
7
  6
CONTINUOUS
 10
127.4895607256
 20
228.0118025192
  0
VERTEX
  8
0
 62
7
  6
CONTINUOUS
 10
127.5028957492
 20
227.9965231777
  0
VERTEX
  8
0
 62
7
  6
CONTINUOUS
 10
127.5163371
 20
227.9794035408
  0
VERTEX
  8
0
 62
7
  6
CONTINUOUS
 10
127.5293992099
 20
227.9609356712
  0
SEQEND
  0
POLYLINE
  8
0
 62
7
  6
CONTINUOUS
 66
1
 70
0
  0
VERTEX
  8
0
 62
7
  6
CONTINUOUS
 10
118.4243507439
 20
227.3567235313
  0
VERTEX
  8
0
 62
7
  6
CONTINUOUS
 10
118.4238484566
 20
227.3580032541
  0
VERTEX
  8
0
 62
7
  6
CONTINUOUS
 10
118.427250375
 20
227.3473381277
  0
SEQEND
  0
LINE
  8
0
 62
7
  6
CONTINUOUS
 10
117.4101370406
 20
226.7096664669
 11
117.4101370406
 21
228.4866286501
  0
LINE
  8
0
 62
7
  6
CONTINUOUS
 10
130.1363792734
 20
232.3086869047
 11
129.6373588355
 21
231.8096664669
  0
LINE
  8
0
 62
7
  6
CONTINUOUS
 10
127.682788157
 20
231.8096664669
 11
127.1837785022
 21
232.3086761217
  0
LINE
  8
0
 62
7
  6
CONTINUOUS
 10
121.1897693139
 20
227.944793827
 11
121.2341343536
 21
227.852668532
  0
LINE
  8
0
 62
7
  6
CONTINUOUS
 10
118.4272547862
 20
227.3473232861
 11
118.6594426361
 21
226.5643538462
  0
POLYLINE
  8
0
 62
7
  6
CONTINUOUS
 66
1
 70
0
  0
VERTEX
  8
0
 62
7
  6
CONTINUOUS
 10
118.6594432023
 20
226.5643520312
  0
VERTEX
  8
0
 62
7
  6
CONTINUOUS
 10
118.6524843626
 20
226.5903815167
  0
VERTEX
  8
0
 62
7
  6
CONTINUOUS
 10
118.6388627982
 20
226.7096664669
  0
SEQEND
  0
POLYLINE
  8
0
 62
7
  6
CONTINUOUS
 66
1
 70
0
  0
VERTEX
  8
0
 62
7
  6
CONTINUOUS
 10
119.2601366466
 20
228.0685933596
  0
VERTEX
  8
0
 62
7
  6
CONTINUOUS
 10
119.2699221868
 20
227.9398403902
  0
VERTEX
  8
0
 62
7
  6
CONTINUOUS
 10
119.302836668
 20
227.8129014812
  0
VERTEX
  8
0
 62
7
  6
CONTINUOUS
 10
119.3571787
 20
227.7058717731
  0
VERTEX
  8
0
 62
7
  6
CONTINUOUS
 10
119.4277546827
 20
227.6238073639
  0
VERTEX
  8
0
 62
7
  6
CONTINUOUS
 10
119.4673629542
 20
227.5923663572
  0
VERTEX
  8
0
 62
7
  6
CONTINUOUS
 10
119.5534301595
 20
227.5474864344
  0
VERTEX
  8
0
 62
7
  6
CONTINUOUS
 10
119.6470731764
 20
227.5262217263
  0
VERTEX
  8
0
 62
7
  6
CONTINUOUS
 10
119.7461768679
 20
227.5296161264
  0
VERTEX
  8
0
 62
7
  6
CONTINUOUS
 10
119.8332860265
 20
227.5536710064
  0
SEQEND
  0
LINE
  8
0
 62
7
  6
CONTINUOUS
 10
119.2601370406
 20
226.7096664669
 11
119.2601370406
 21
234.2096664669
  0
LINE
  8
0
 62
7
  6
CONTINUOUS
 10
120.8601370406
 20
226.7096664669
 11
120.8601370406
 21
227.0740640763
  0
LINE
  8
0
 62
7
  6
CONTINUOUS
 10
121.2601370406
 20
227.7157234981
 11
121.2601370406
 21
226.4096664669
  0
POLYLINE
  8
0
 62
7
  6
CONTINUOUS
 66
1
 70
0
  0
VERTEX
  8
0
 62
7
  6
CONTINUOUS
 10
120.8601366532
 20
227.0740252256
  0
VERTEX
  8
0
 62
7
  6
CONTINUOUS
 10
120.8792414113
 20
227.2951358892
  0
VERTEX
  8
0
 62
7
  6
CONTINUOUS
 10
120.9408911463
 20
227.5474885963
  0
VERTEX
  8
0
 62
7
  6
CONTINUOUS
 10
121.0388919455
 20
227.7974796831
  0
SEQEND
  0
POLYLINE
  8
0
 62
7
  6
CONTINUOUS
 66
1
 70
0
  0
VERTEX
  8
0
 62
7
  6
CONTINUOUS
 10
121.0892410607
 20
227.9077078981
  0
VERTEX
  8
0
 62
7
  6
CONTINUOUS
 10
121.1061531005
 20
227.9464681295
  0
VERTEX
  8
0
 62
7
  6
CONTINUOUS
 10
121.1114511269
 20
227.9583363302
  0
VERTEX
  8
0
 62
7
  6
CONTINUOUS
 10
121.1167754827
 20
227.9698445986
  0
VERTEX
  8
0
 62
7
  6
CONTINUOUS
 10
121.1221540501
 20
227.9809176776
  0
VERTEX
  8
0
 62
7
  6
CONTINUOUS
 10
121.1275580275
 20
227.991412585
  0
VERTEX
  8
0
 62
7
  6
CONTINUOUS
 10
121.1330129132
 20
228.0012996813
  0
VERTEX
  8
0
 62
7
  6
CONTINUOUS
 10
121.1386250474
 20
228.0106632555
  0
VERTEX
  8
0
 62
7
  6
CONTINUOUS
 10
121.1394639979
 20
228.0119235048
  0
SEQEND
  0
POLYLINE
  8
0
 62
7
  6
CONTINUOUS
 66
1
 70
0
  0
VERTEX
  8
0
 62
7
  6
CONTINUOUS
 10
121.0767283658
 20
227.8795618059
  0
VERTEX
  8
0
 62
7
  6
CONTINUOUS
 10
121.0830690847
 20
227.893725989
  0
VERTEX
  8
0
 62
7
  6
CONTINUOUS
 10
121.0892410607
 20
227.9077078981
  0
SEQEND
  0
LINE
  8
0
 62
7
  6
CONTINUOUS
 10
121.0630962596
 20
227.849651935
 11
121.0767283658
 21
227.8795618059
  0
LINE
  8
0
 62
7
  6
CONTINUOUS
 10
121.0388911457
 20
227.7974808579
 11
121.0630962596
 21
227.849651935
  0
POLYLINE
  8
0
 62
7
  6
CONTINUOUS
 66
1
 70
0
  0
VERTEX
  8
0
 62
7
  6
CONTINUOUS
 10
134.7601370406
 20
229.645937842
  0
VERTEX
  8
0
 62
7
  6
CONTINUOUS
 10
134.7457339284
 20
229.6317052493
  0
VERTEX
  8
0
 62
7
  6
CONTINUOUS
 10
134.7032675686
 20
229.6184701705
  0
VERTEX
  8
0
 62
7
  6
CONTINUOUS
 10
134.6350562958
 20
229.606944945
  0
VERTEX
  8
0
 62
7
  6
CONTINUOUS
 10
134.5924411606
 20
229.6020177212
  0
VERTEX
  8
0
 62
7
  6
CONTINUOUS
 10
134.4932352523
 20
229.5941536828
  0
VERTEX
  8
0
 62
7
  6
CONTINUOUS
 10
134.3802777391
 20
229.5892658484
  0
VERTEX
  8
0
 62
7
  6
CONTINUOUS
 10
134.2601370406
 20
229.587606798
  0
SEQEND
  0
POLYLINE
  8
0
 62
7
  6
CONTINUOUS
 66
1
 70
0
  0
VERTEX
  8
0
 62
7
  6
CONTINUOUS
 10
134.7601370406
 20
231.4733950918
  0
VERTEX
  8
0
 62
7
  6
CONTINUOUS
 10
134.7457339284
 20
231.4876276845
  0
VERTEX
  8
0
 62
7
  6
CONTINUOUS
 10
134.7032675686
 20
231.5008627633
  0
VERTEX
  8
0
 62
7
  6
CONTINUOUS
 10
134.6350562958
 20
231.5123879889
  0
VERTEX
  8
0
 62
7
  6
CONTINUOUS
 10
134.5924411606
 20
231.5173152126
  0
VERTEX
  8
0
 62
7
  6
CONTINUOUS
 10
134.4932352523
 20
231.525179251
  0
VERTEX
  8
0
 62
7
  6
CONTINUOUS
 10
134.3802777391
 20
231.5300670854
  0
VERTEX
  8
0
 62
7
  6
CONTINUOUS
 10
134.2601370406
 20
231.5317261359
  0
SEQEND
  0
LINE
  8
0
 62
7
  6
CONTINUOUS
 10
127.5293992099
 20
227.9609356712
 11
127.5400730419
 21
227.9441615561
  0
POLYLINE
  8
0
 62
7
  6
CONTINUOUS
 66
1
 70
0
  0
VERTEX
  8
0
 62
7
  6
CONTINUOUS
 10
127.4950372552
 20
228.0199003943
  0
VERTEX
  8
0
 62
7
  6
CONTINUOUS
 10
127.4991887143
 20
228.0126336644
  0
VERTEX
  8
0
 62
7
  6
CONTINUOUS
 10
127.5161207069
 20
227.9838170057
  0
VERTEX
  8
0
 62
7
  6
CONTINUOUS
 10
127.5305357812
 20
227.9598933373
  0
VERTEX
  8
0
 62
7
  6
CONTINUOUS
 10
127.5397473335
 20
227.9448324859
  0
SEQEND
  0
LINE
  8
0
 62
7
  6
CONTINUOUS
 10
125.3601370406
 20
226.7096664669
 11
125.3601370406
 21
234.2096664669
  0
LINE
  8
0
 62
7
  6
CONTINUOUS
 10
125.9608314451
 20
226.5643538462
 11
126.193019295
 21
227.3473232861
  0
LINE
  8
0
 62
7
  6
CONTINUOUS
 10
126.1930240207
 20
227.3473391887
 11
126.1963804007
 21
227.3578782948
  0
POLYLINE
  8
0
 62
7
  6
CONTINUOUS
 66
1
 70
0
  0
VERTEX
  8
0
 62
7
  6
CONTINUOUS
 10
127.4534557309
 20
227.9399804501
  0
VERTEX
  8
0
 62
7
  6
CONTINUOUS
 10
127.457733522
 20
227.9496379798
  0
VERTEX
  8
0
 62
7
  6
CONTINUOUS
 10
127.4618158352
 20
227.9586881123
  0
VERTEX
  8
0
 62
7
  6
CONTINUOUS
 10
127.4658055107
 20
227.9673108657
  0
VERTEX
  8
0
 62
7
  6
CONTINUOUS
 10
127.4697568311
 20
227.9755825018
  0
VERTEX
  8
0
 62
7
  6
CONTINUOUS
 10
127.4736858861
 20
227.9835060616
  0
VERTEX
  8
0
 62
7
  6
CONTINUOUS
 10
127.4776144306
 20
227.9910951705
  0
VERTEX
  8
0
 62
7
  6
CONTINUOUS
 10
127.4815822644
 20
227.9983904313
  0
VERTEX
  8
0
 62
7
  6
CONTINUOUS
 10
127.4856321036
 20
228.0054221133
  0
VERTEX
  8
0
 62
7
  6
CONTINUOUS
 10
127.4897582426
 20
228.0121233032
  0
VERTEX
  8
0
 62
7
  6
CONTINUOUS
 10
127.494030562
 20
228.0185319507
  0
VERTEX
  8
0
 62
7
  6
CONTINUOUS
 10
127.4986115635
 20
228.0247591132
  0
VERTEX
  8
0
 62
7
  6
CONTINUOUS
 10
127.5035790284
 20
228.0307565536
  0
VERTEX
  8
0
 62
7
  6
CONTINUOUS
 10
127.508649037
 20
228.0360869166
  0
VERTEX
  8
0
 62
7
  6
CONTINUOUS
 10
127.5140558652
 20
228.0408769163
  0
VERTEX
  8
0
 62
7
  6
CONTINUOUS
 10
127.5186238556
 20
228.0441143196
  0
VERTEX
  8
0
 62
7
  6
CONTINUOUS
 10
127.5202959423
 20
228.0450442723
  0
SEQEND
  0
POLYLINE
  8
0
 62
7
  6
CONTINUOUS
 66
1
 70
0
  0
VERTEX
  8
0
 62
7
  6
CONTINUOUS
 10
127.4330754815
 20
227.8935824827
  0
VERTEX
  8
0
 62
7
  6
CONTINUOUS
 10
127.4386965697
 20
227.9062740092
  0
VERTEX
  8
0
 62
7
  6
CONTINUOUS
 10
127.4534557309
 20
227.9399804501
  0
SEQEND
  0
LINE
  8
0
 62
7
  6
CONTINUOUS
 10
127.4212422139
 20
227.8673594793
 11
127.4330754815
 21
227.8935824827
  0
LINE
  8
0
 62
7
  6
CONTINUOUS
 10
127.4082483545
 20
227.8391093304
 11
127.4212422139
 21
227.8673594793
  0
LINE
  8
0
 62
7
  6
CONTINUOUS
 10
127.3867148782
 20
227.792803286
 11
127.4082483545
 21
227.8391093304
  0
LINE
  8
0
 62
7
  6
CONTINUOUS
 10
134.7601370406
 20
234.0997795669
 11
134.9601370406
 21
233.8841815836
  0
POLYLINE
  8
0
 62
7
  6
CONTINUOUS
 66
1
 70
0
  0
VERTEX
  8
0
 62
7
  6
CONTINUOUS
 10
127.5397688561
 20
227.9447945703
  0
VERTEX
  8
0
 62
7
  6
CONTINUOUS
 10
127.5845622673
 20
227.8515789494
  0
VERTEX
  8
0
 62
7
  6
CONTINUOUS
 10
127.5995322427
 20
227.8013633221
  0
VERTEX
  8
0
 62
7
  6
CONTINUOUS
 10
127.610137302
 20
227.7157847936
  0
SEQEND
  0
POLYLINE
  8
0
 62
7
  6
CONTINUOUS
 66
1
 70
0
  0
VERTEX
  8
0
 62
7
  6
CONTINUOUS
 10
127.5845084311
 20
227.8516909831
  0
VERTEX
  8
0
 62
7
  6
CONTINUOUS
 10
127.5923050405
 20
227.8281662907
  0
VERTEX
  8
0
 62
7
  6
CONTINUOUS
 10
127.5989344542
 20
227.8038555343
  0
VERTEX
  8
0
 62
7
  6
CONTINUOUS
 10
127.5992947681
 20
227.8021599125
  0
SEQEND
  0
LINE
  8
0
 62
7
  6
CONTINUOUS
 10
127.2101370406
 20
226.7096664669
 11
127.2101370406
 21
228.4866286427
  0
LINE
  8
0
 62
7
  6
CONTINUOUS
 10
127.6101370386
 20
227.7157845472
 11
127.6101370406
 21
226.4096664669
  0
POLYLINE
  8
0
 62
7
  6
CONTINUOUS
 66
1
 70
0
  0
VERTEX
  8
0
 62
7
  6
CONTINUOUS
 10
127.2101366576
 20
227.0740246689
  0
VERTEX
  8
0
 62
7
  6
CONTINUOUS
 10
127.2294417287
 20
227.2963439138
  0
VERTEX
  8
0
 62
7
  6
CONTINUOUS
 10
127.291269607
 20
227.5486712926
  0
VERTEX
  8
0
 62
7
  6
CONTINUOUS
 10
127.388892037
 20
227.7974796888
  0
SEQEND
  0
POLYLINE
  8
0
 62
7
  6
CONTINUOUS
 66
1
 70
0
  0
VERTEX
  8
0
 62
7
  6
CONTINUOUS
 10
125.9608308789
 20
226.5643520312
  0
VERTEX
  8
0
 62
7
  6
CONTINUOUS
 10
125.9677897186
 20
226.5903815167
  0
VERTEX
  8
0
 62
7
  6
CONTINUOUS
 10
125.981411283
 20
226.7096664669
  0
SEQEND
  0
LINE
  8
0
 62
7
  6
CONTINUOUS
 10
130.1101370406
 20
226.7096664669
 11
130.1101370406
 21
228.4862284166
  0
LINE
  8
0
 62
7
  6
CONTINUOUS
 10
131.9601370406
 20
234.2096664669
 11
131.9601370406
 21
226.7096664669
  0
LINE
  8
0
 62
7
  6
CONTINUOUS
 10
134.7601370406
 20
234.2096664669
 11
134.7601370406
 21
226.7096665489
  0
LINE
  8
0
 62
7
  6
CONTINUOUS
 10
134.9601370406
 20
233.8841815836
 11
134.9601370406
 21
228.3462664669
  0
LINE
  8
0
 62
7
  6
CONTINUOUS
 10
134.96014425
 20
228.3462664669
 11
134.9512237323
 21
228.2518171188
  0
POLYLINE
  8
0
 62
7
  6
CONTINUOUS
 66
1
 70
0
  0
VERTEX
  8
0
 62
7
  6
CONTINUOUS
 10
134.9512237323
 20
228.2518171188
  0
VERTEX
  8
0
 62
7
  6
CONTINUOUS
 10
134.9248563891
 20
228.1615799087
  0
VERTEX
  8
0
 62
7
  6
CONTINUOUS
 10
134.8811752605
 20
228.0765873662
  0
SEQEND
  0
ARC
  8
2_FEATURE
 62
7
  6
CONTINUOUS
 10
34.4601370406
 20
145.7810354777
 40
1.0
 50
144.1408399887
 51
180.0
  0
ARC
  8
2_FEATURE
 62
7
  6
CONTINUOUS
 10
133.9601370406
 20
145.7810354777
 40
1.0
 50
0.0
 51
35.8591600113
  0
ARC
  8
0
 62
7
  6
CONTINUOUS
 10
131.2101370406
 20
155.2047839765
 40
0.5
 50
0.0
 51
90.0
  0
ARC
  8
0
 62
7
  6
CONTINUOUS
 10
34.1601370406
 20
109.6247839765
 40
0.5
 50
180.0
 51
270.0
  0
ARC
  8
0
 62
7
  6
CONTINUOUS
 10
49.9101370406
 20
155.2047839765
 40
0.5
 50
90.0
 51
180.0
  0
ARC
  8
0
 62
7
  6
CONTINUOUS
 10
75.3101370406
 20
155.2047839765
 40
0.5
 50
90.0
 51
180.0
  0
ARC
  8
0
 62
7
  6
CONTINUOUS
 10
124.8601370406
 20
109.6247839765
 40
0.5
 50
270.0
 51
360.0
  0
ARC
  8
0
 62
7
  6
CONTINUOUS
 10
134.2601370406
 20
109.6247839765
 40
0.5
 50
270.0
 51
360.0
  0
ARC
  8
0
 62
7
  6
CONTINUOUS
 10
37.2101370406
 20
155.2047839765
 40
0.5
 50
90.0
 51
180.0
  0
ARC
  8
0
 62
7
  6
CONTINUOUS
 10
43.5601370406
 20
109.6247839765
 40
0.5
 50
180.0
 51
270.0
  0
ARC
  8
0
 62
7
  6
CONTINUOUS
 10
35.9601370406
 20
109.6247839765
 40
0.5
 50
270.0
 51
360.0
  0
ARC
  8
0
 62
7
  6
CONTINUOUS
 10
42.3101370406
 20
155.2047839765
 40
0.5
 50
0.0
 51
90.0
  0
ARC
  8
0
 62
7
  6
CONTINUOUS
 10
48.6601370406
 20
109.6247839765
 40
0.5
 50
270.0
 51
360.0
  0
ARC
  8
0
 62
7
  6
CONTINUOUS
 10
56.2601370406
 20
109.6247839765
 40
0.5
 50
180.0
 51
270.0
  0
ARC
  8
0
 62
7
  6
CONTINUOUS
 10
68.9601370406
 20
109.6247839765
 40
0.5
 50
180.0
 51
270.0
  0
ARC
  8
0
 62
7
  6
CONTINUOUS
 10
61.3601370406
 20
109.6247839765
 40
0.5
 50
270.0
 51
360.0
  0
ARC
  8
0
 62
7
  6
CONTINUOUS
 10
62.6101370406
 20
155.2047839765
 40
0.5
 50
90.0
 51
180.0
  0
ARC
  8
0
 62
7
  6
CONTINUOUS
 10
55.0101370406
 20
155.2047839765
 40
0.5
 50
0.0
 51
90.0
  0
ARC
  8
0
 62
7
  6
CONTINUOUS
 10
67.7101370406
 20
155.2047839765
 40
0.5
 50
0.0
 51
90.0
  0
ARC
  8
0
 62
7
  6
CONTINUOUS
 10
81.6601370406
 20
109.6247839765
 40
0.5
 50
180.0
 51
270.0
  0
ARC
  8
0
 62
7
  6
CONTINUOUS
 10
74.0601370406
 20
109.6247839765
 40
0.5
 50
270.0
 51
360.0
  0
ARC
  8
0
 62
7
  6
CONTINUOUS
 10
88.0101370406
 20
155.2047839765
 40
0.5
 50
90.0
 51
180.0
  0
ARC
  8
0
 62
7
  6
CONTINUOUS
 10
80.4101370406
 20
155.2047839765
 40
0.5
 50
0.0
 51
90.0
  0
ARC
  8
0
 62
7
  6
CONTINUOUS
 10
94.3601370406
 20
109.6247839765
 40
0.5
 50
180.0
 51
270.0
  0
ARC
  8
0
 62
7
  6
CONTINUOUS
 10
86.7601370406
 20
109.6247839765
 40
0.5
 50
270.0
 51
360.0
  0
ARC
  8
0
 62
7
  6
CONTINUOUS
 10
126.1101370406
 20
155.2047839765
 40
0.5
 50
90.0
 51
180.0
  0
ARC
  8
0
 62
7
  6
CONTINUOUS
 10
118.5101370406
 20
155.2047839765
 40
0.5
 50
0.0
 51
90.0
  0
ARC
  8
0
 62
7
  6
CONTINUOUS
 10
113.4101370406
 20
155.2047839765
 40
0.5
 50
90.0
 51
180.0
  0
ARC
  8
0
 62
7
  6
CONTINUOUS
 10
105.8101370406
 20
155.2047839765
 40
0.5
 50
0.0
 51
90.0
  0
ARC
  8
0
 62
7
  6
CONTINUOUS
 10
93.1101370406
 20
155.2047839765
 40
0.5
 50
0.0
 51
90.0
  0
ARC
  8
0
 62
7
  6
CONTINUOUS
 10
100.7101370406
 20
155.2047839765
 40
0.5
 50
90.0
 51
180.0
  0
ARC
  8
0
 62
7
  6
CONTINUOUS
 10
107.0601370406
 20
109.6247839765
 40
0.5
 50
180.0
 51
270.0
  0
ARC
  8
0
 62
7
  6
CONTINUOUS
 10
99.4601370406
 20
109.6247839765
 40
0.5
 50
270.0
 51
360.0
  0
ARC
  8
0
 62
7
  6
CONTINUOUS
 10
119.7601370406
 20
109.6247839765
 40
0.5
 50
180.0
 51
270.0
  0
ARC
  8
0
 62
7
  6
CONTINUOUS
 10
112.1601370406
 20
109.6247839765
 40
0.5
 50
270.0
 51
360.0
  0
ARC
  8
0
 62
7
  6
CONTINUOUS
 10
132.4601370406
 20
109.6247839765
 40
0.5
 50
180.0
 51
270.0
  0
ARC
  8
0
 62
7
  6
CONTINUOUS
 10
155.4713175156
 20
116.9974910167
 40
0.5
 50
311.4951540653
 51
358.6903416646
  0
ARC
  8
0
 62
7
  6
CONTINUOUS
 10
158.6847175156
 20
113.1647839765
 40
5.0489999763
 50
48.818215835
 51
69.7203027258
  0
ARC
  8
0
 62
7
  6
CONTINUOUS
 10
158.6847175156
 20
113.3647839765
 40
4.35
 50
131.4951540653
 51
257.0875457171
  0
ARC
  8
0
 62
7
  6
CONTINUOUS
 10
158.6847175156
 20
113.3647839765
 40
4.35
 50
282.9124542829
 51
342.5584061437
  0
CIRCLE
  8
2_FEATURE
 62
7
  6
CONTINUOUS
 10
158.6847175156
 20
113.3647839765
 40
2.5
  0
ARC
  8
0
 62
7
  6
CONTINUOUS
 10
156.4713175156
 20
146.2810354777
 40
0.5
 50
90.0
 51
180.0
  0
ARC
  8
2_FEATURE
 62
7
  6
CONTINUOUS
 10
158.6847175156
 20
151.4647839765
 40
5.0
 50
290.4873151147
 51
311.5777957855
  0
ARC
  8
0
 62
7
  6
CONTINUOUS
 10
158.6847175156
 20
151.4647839765
 40
5.0
 50
290.4873151147
 51
311.5777957855
  0
ARC
  8
0
 62
7
  6
CONTINUOUS
 10
158.6847175156
 20
151.4647839765
 40
4.35
 50
17.4415938563
 51
77.0875457171
  0
ARC
  8
0
 62
7
  6
CONTINUOUS
 10
158.6847175156
 20
151.4647839765
 40
4.35
 50
102.9124542829
 51
180.0
  0
CIRCLE
  8
2_FEATURE
 62
7
  6
CONTINUOUS
 10
158.6847175156
 20
151.4647839765
 40
2.5
  0
ARC
  8
0
 62
7
  6
CONTINUOUS
 10
162.3347175156
 20
147.3504803661
 40
0.4999997237
 50
0.0
 51
131.5778493998
  0
ARC
  8
0
 62
7
  6
CONTINUOUS
 10
34.1601370406
 20
226.7096664669
 40
0.5
 50
180.0
 51
270.0
  0
ARC
  8
0
 62
7
  6
CONTINUOUS
 10
49.9101370406
 20
226.7096664669
 40
0.5
 50
180.0
 51
270.0
  0
ARC
  8
0
 62
7
  6
CONTINUOUS
 10
56.2601370406
 20
226.7096664669
 40
0.5
 50
180.0
 51
270.0
  0
ARC
  8
0
 62
7
  6
CONTINUOUS
 10
55.0101370406
 20
226.7096664669
 40
0.5
 50
270.0
 51
360.0
  0
ARC
  8
0
 62
7
  6
CONTINUOUS
 10
41.7101370406
 20
226.7096664669
 40
0.5
 50
180.0
 51
270.0
  0
ARC
  8
0
 62
7
  6
CONTINUOUS
 10
43.5601370406
 20
226.7096664669
 40
0.5
 50
180.0
 51
270.0
  0
ARC
  8
0
 62
7
  6
CONTINUOUS
 10
35.9601370406
 20
226.7096664669
 40
0.5
 50
270.0
 51
360.0
  0
ARC
  8
0
 62
7
  6
CONTINUOUS
 10
37.8101370406
 20
226.7096664669
 40
0.5
 50
270.0
 51
360.0
  0
ARC
  8
0
 62
7
  6
CONTINUOUS
 10
40.6101370406
 20
226.4096664669
 40
0.2
 50
270.0
 51
360.0
  0
ARC
  8
0
 62
7
  6
CONTINUOUS
 10
46.9601370406
 20
226.4096664669
 40
0.2
 50
270.0
 51
360.0
  0
ARC
  8
0
 62
7
  6
CONTINUOUS
 10
33.9601370406
 20
228.3462664669
 40
0.5
 50
212.6399595159
 51
230.7851013361
  0
ARC
  8
0
 62
7
  6
CONTINUOUS
 10
75.3101370406
 20
226.7096664669
 40
0.5
 50
180.0
 51
270.0
  0
ARC
  8
0
 62
7
  6
CONTINUOUS
 10
81.6601370406
 20
226.7096664669
 40
0.5
 50
180.0
 51
270.0
  0
ARC
  8
0
 62
7
  6
CONTINUOUS
 10
74.0601370406
 20
226.7096664669
 40
0.5
 50
270.0
 51
360.0
  0
ARC
  8
0
 62
7
  6
CONTINUOUS
 10
80.4101370406
 20
226.7096664669
 40
0.5
 50
270.0
 51
360.0
  0
ARC
  8
0
 62
7
  6
CONTINUOUS
 10
67.1101370406
 20
226.7096664669
 40
0.5
 50
180.0
 51
270.0
  0
ARC
  8
0
 62
7
  6
CONTINUOUS
 10
68.9601370406
 20
226.7096664669
 40
0.5
 50
180.0
 51
270.0
  0
ARC
  8
0
 62
7
  6
CONTINUOUS
 10
61.3601370406
 20
226.7096664669
 40
0.5
 50
270.0
 51
360.0
  0
ARC
  8
0
 62
7
  6
CONTINUOUS
 10
63.2101370406
 20
226.7096664669
 40
0.5
 50
270.0
 51
360.0
  0
ARC
  8
0
 62
7
  6
CONTINUOUS
 10
43.5601370406
 20
234.2096664669
 40
0.5
 50
90.0
 51
180.0
  0
ARC
  8
0
 62
7
  6
CONTINUOUS
 10
34.1601370406
 20
234.2096664669
 40
0.5
 50
90.0
 51
180.0
  0
ARC
  8
0
 62
7
  6
CONTINUOUS
 10
35.9601370406
 20
234.2096664669
 40
0.5
 50
0.0
 51
90.0
  0
ARC
  8
0
 62
7
  6
CONTINUOUS
 10
48.6601370406
 20
234.2096664669
 40
0.5
 50
0.0
 51
90.0
  0
ARC
  8
0
 62
7
  6
CONTINUOUS
 10
56.2601370406
 20
234.2096664669
 40
0.5
 50
90.0
 51
180.0
  0
ARC
  8
0
 62
7
  6
CONTINUOUS
 10
68.9601370406
 20
234.2096664669
 40
0.5
 50
90.0
 51
180.0
  0
ARC
  8
0
 62
7
  6
CONTINUOUS
 10
61.3601370406
 20
234.2096664669
 40
0.5
 50
0.0
 51
90.0
  0
ARC
  8
0
 62
7
  6
CONTINUOUS
 10
81.6601370406
 20
234.2096664669
 40
0.5
 50
90.0
 51
180.0
  0
ARC
  8
0
 62
7
  6
CONTINUOUS
 10
74.0601370406
 20
234.2096664669
 40
0.5
 50
0.0
 51
90.0
  0
ARC
  8
0
 62
7
  6
CONTINUOUS
 10
105.8101370406
 20
226.7096664669
 40
0.5
 50
270.0
 51
360.0
  0
ARC
  8
0
 62
7
  6
CONTINUOUS
 10
100.7101370406
 20
226.7096664669
 40
0.5
 50
180.0
 51
270.0
  0
ARC
  8
0
 62
7
  6
CONTINUOUS
 10
107.0601370406
 20
226.7096664669
 40
0.5
 50
180.0
 51
270.0
  0
ARC
  8
0
 62
7
  6
CONTINUOUS
 10
99.4601370406
 20
226.7096664669
 40
0.5
 50
270.0
 51
360.0
  0
ARC
  8
0
 62
7
  6
CONTINUOUS
 10
88.6101370406
 20
226.7096664669
 40
0.5
 50
270.0
 51
360.0
  0
ARC
  8
0
 62
7
  6
CONTINUOUS
 10
86.7601370406
 20
226.7096664669
 40
0.5
 50
270.0
 51
360.0
  0
ARC
  8
0
 62
7
  6
CONTINUOUS
 10
94.3601370406
 20
226.7096664669
 40
0.5
 50
180.0
 51
270.0
  0
ARC
  8
0
 62
7
  6
CONTINUOUS
 10
92.5101370406
 20
226.7096664669
 40
0.5
 50
180.0
 51
270.0
  0
ARC
  8
0
 62
7
  6
CONTINUOUS
 10
134.2601370406
 20
226.7096664669
 40
0.5
 50
270.0
 51
360.0
  0
ARC
  8
0
 62
7
  6
CONTINUOUS
 10
126.7101370406
 20
226.7096664669
 40
0.5
 50
270.0
 51
360.0
  0
ARC
  8
0
 62
7
  6
CONTINUOUS
 10
124.8601370406
 20
226.7096664669
 40
0.5
 50
270.0
 51
360.0
  0
ARC
  8
0
 62
7
  6
CONTINUOUS
 10
132.4601370406
 20
226.7096664669
 40
0.5
 50
180.0
 51
270.0
  0
ARC
  8
0
 62
7
  6
CONTINUOUS
 10
130.6101370406
 20
226.7096664669
 40
0.5
 50
180.0
 51
270.0
  0
ARC
  8
0
 62
7
  6
CONTINUOUS
 10
114.0101370406
 20
226.7096664669
 40
0.5
 50
270.0
 51
360.0
  0
ARC
  8
0
 62
7
  6
CONTINUOUS
 10
112.1601370406
 20
226.7096664669
 40
0.5
 50
270.0
 51
360.0
  0
ARC
  8
0
 62
7
  6
CONTINUOUS
 10
119.7601370406
 20
226.7096664669
 40
0.5
 50
179.9993266383
 51
270.0
  0
ARC
  8
0
 62
7
  6
CONTINUOUS
 10
117.9101370406
 20
226.7096664669
 40
0.5
 50
180.0
 51
270.0
  0
ARC
  8
0
 62
7
  6
CONTINUOUS
 10
120.3601370406
 20
226.7096664669
 40
0.5
 50
270.0
 51
360.0
  0
ARC
  8
0
 62
7
  6
CONTINUOUS
 10
121.4601370406
 20
226.4096664669
 40
0.2
 50
180.0
 51
270.0
  0
ARC
  8
0
 62
7
  6
CONTINUOUS
 10
127.8101370406
 20
226.4096664669
 40
0.2
 50
180.0
 51
270.0
  0
ARC
  8
0
 62
7
  6
CONTINUOUS
 10
134.4601370406
 20
228.3462664669
 40
0.5
 50
309.2151435207
 51
327.3600404841
  0
ARC
  8
0
 62
7
  6
CONTINUOUS
 10
107.0601370406
 20
234.2096664669
 40
0.5
 50
90.0
 51
180.0
  0
ARC
  8
0
 62
7
  6
CONTINUOUS
 10
132.4601370406
 20
234.2096664669
 40
0.5
 50
90.0
 51
180.0
  0
ARC
  8
0
 62
7
  6
CONTINUOUS
 10
134.2601370406
 20
234.2096664669
 40
0.5
 50
0.0
 51
90.0
  0
ARC
  8
0
 62
7
  6
CONTINUOUS
 10
124.8601370406
 20
234.2096664669
 40
0.5
 50
0.0
 51
90.0
  0
ARC
  8
0
 62
7
  6
CONTINUOUS
 10
112.1601370406
 20
234.2096664669
 40
0.5
 50
0.0
 51
90.0
  0
ARC
  8
0
 62
7
  6
CONTINUOUS
 10
119.7601370406
 20
234.2096664669
 40
0.5
 50
90.0
 51
180.0
  0
ARC
  8
0
 62
7
  6
CONTINUOUS
 10
99.4601370406
 20
234.2096664669
 40
0.5
 50
0.0
 51
90.0
  0
ARC
  8
0
 62
7
  6
CONTINUOUS
 10
86.7601370406
 20
234.2096664669
 40
0.5
 50
0.0
 51
90.0
  0
ARC
  8
0
 62
7
  6
CONTINUOUS
 10
94.3601370406
 20
234.2096664669
 40
0.5
 50
90.0
 51
180.0
  0
ENDSEC
  0
EOF
