  0
SECTION
  2
HEADER
  9
$EXTMAX
 10
210.0
 20
297.0
 30
0.0
  9
$EXTMIN
 10
0.0
 20
0.0
 30
0.0
  9
$LIMMIN
 10
0.0
 20
0.0
  9
$LIMMAX
 10
210.0
 20
297.0
  9
$VIEWCTR
 10
105.0
 20
148.5
  9
$VIEWSIZE
 40
297.0
  9
$CLAYER
  8
0
  9
$LTSCALE
 40
19.36
  9
$CELTYPE
  6
BYLAYER
  9
$DIMSCALE
 40
1.0
  9
$DIMASZ
 40
3.5
  9
$DIMEXO
 40
1.0
  9
$DIMDLI
 40
13.376
  9
$DIMEXE
 40
2.0
  9
$DIMCEN
 40
3.168
  9
$DIMLFAC
 40
1.0
  9
$DIMBLK
  1
_FILLED
  9
$DIMALT
 70
0
  9
$DIMALTF
 40
0.0393700787
  9
$DIMTXT
 40
3.5
  9
$AUNITS
 70
0
  9
$PDMODE
 70
3
  9
$PDSIZE
 40
0.3125
  9
$TILEMODE
 70
1
  0
ENDSEC
  0
SECTION
  2
TABLES
  0
TABLE
  2
LTYPE
 70
6
  0
LTYPE
  2
BYBLOCK
 70
0
  3

 72
65
 73
0
 40
0.0
  0
LTYPE
  2
BYLAYER
 70
0
  3

 72
65
 73
0
 40
0.0
  0
LTYPE
  2
CONTINUOUS
 70
64
  3
Solid line
 72
65
 73
0
 40
0.0
  0
LTYPE
  2
CENTER
 70
64
  3
____ _ ____ _ ____ _ ____ _ ____ _ ____ _ ____
 72
65
 73
4
 40
0.6
 49
0.375
 49
-0.075
 49
0.075
 49
-0.075
  0
LTYPE
  2
HIDDEN
 70
64
  3
- - - - - - - - - - - - - - - - - - - -
 72
65
 73
2
 40
0.2
 49
0.1
 49
-0.1
  0
LTYPE
  2
PHANTOM
 70
64
  3
_____ _ _ _____ _ _ _____ _ _ _____
 72
65
 73
6
 40
0.8
 49
0.45
 49
-0.05
 49
0.1
 49
-0.05
 49
0.1
 49
-0.05
  0
LTYPE
  2
DOT
 70
64
  3
. . . . . . . . . . . . . . . . . . . .
 72
65
 73
2
 40
0.2
 49
0.1
 49
-0.1
  0
LTYPE
  2
DASHED
 70
64
  3
- - - - - - - - - - - - - - - - - - - -
 72
65
 73
2
 40
0.2
 49
0.1
 49
-0.1
  0
ENDTAB
  0
TABLE
  2
LAYER
 70
36
  0
LAYER
  2
0
 70
0
 62
7
  6
CONTINUOUS
  0
LAYER
  2
DEFAULT_1
 70
0
 62
7
  6
CENTER
  0
LAYER
  2
DEFAULT_2
 70
0
 62
8
  6
HIDDEN
  0
LAYER
  2
DEFAULT_3
 70
0
 62
7
  6
PHANTOM
  0
LAYER
  2
1_AXIS
 70
0
 62
7
  6
CONTINUOUS
  0
LAYER
  2
1_DATUMPLANE
 70
0
 62
7
  6
CONTINUOUS
  0
LAYER
  2
1_DATUM_PLANES
 70
0
 62
7
  6
CONTINUOUS
  0
LAYER
  2
2_FEATURE
 70
0
 62
7
  6
CONTINUOUS
  0
LAYER
  2
4_QUILT
 70
0
 62
7
  6
CONTINUOUS
  0
LAYER
  2
6_DIM
 70
0
 62
7
  6
CONTINUOUS
  0
LAYER
  2
CSYS
 70
0
 62
7
  6
CONTINUOUS
  0
LAYER
  2
CURVE
 70
0
 62
7
  6
CONTINUOUS
  0
LAYER
  2
NOTES
 70
0
 62
7
  6
CONTINUOUS
  0
ENDTAB
  0
TABLE
  2
STYLE
 70
1
  0
STYLE
  2
STANDARD
 70
0
 40
0.0
 41
0.8
 50
0.0
 71
0
 42
0.2
  3
txt
  4

  0
STYLE
  2
TEXTSTYLE_1
 70
0
 40
0.0
 41
0.8
 50
0.0
 71
0
 42
0.2
  3
gdt
  4

  0
STYLE
  2
TEXTSTYLE_2
 70
0
 40
0.0
 41
0.6
 50
0.0
 71
0
 42
0.2
  3
txt
  4

  0
STYLE
  2
TEXTSTYLE_3
 70
0
 40
0.0
 41
1.0
 50
0.0
 71
0
 42
0.2
  3
ftb_____.ttf
  4

  0
STYLE
  2
TEXTSTYLE_4
 70
0
 40
0.0
 41
1.0
 50
0.0
 71
0
 42
0.2
  3
fti_____.ttf
  4

  0
STYLE
  2
TEXTSTYLE_5
 70
0
 40
0.0
 41
1.0
 50
0.0
 71
0
 42
0.2
  3
frutiger light.ttf
  4

  0
STYLE
  2
TEXTSTYLE_6
 70
0
 40
0.0
 41
0.7
 50
0.0
 71
0
 42
0.2
  3
txt
  4

  0
STYLE
  2
TEXTSTYLE_7
 70
0
 40
0.0
 41
0.6
 50
0.0
 71
0
 42
0.2
  3
txt
  4

  0
ENDTAB
  0
ENDSEC
  0
SECTION
  2
BLOCKS
  0
BLOCK
  8
0
 62
2
  6
CONTINUOUS
  2
UNI_LOGO2_BL1
 70
64
 10
173.5956734183
 20
35.5937998301
  0
TEXT
  8
0
 62
7
  6
CONTINUOUS
 10
164.6539584268
 20
30.6865562072
  7
TEXTSTYLE_4
 40
1.0655737705
  1
The brand for plastic modular belts and chains
 41
1.0
 72
0
  0
LINE
  8
0
 62
7
  6
CONTINUOUS
 10
149.5737418074
 20
36.1675703219
 11
149.5737418074
 21
34.0364227809
  0
LINE
  8
0
 62
7
  6
CONTINUOUS
 10
149.8628043005
 20
31.0454914852
 11
149.8628043005
 21
31.1422825445
  0
LINE
  8
0
 62
7
  6
CONTINUOUS
 10
149.5737418074
 20
31.1100188581
 11
149.6315543091
 21
30.9164367395
  0
LINE
  8
0
 62
7
  6
CONTINUOUS
 10
150.9671844304
 20
33.9544555678
 11
150.9671844304
 21
36.1675703219
  0
LINE
  8
0
 62
7
  6
CONTINUOUS
 10
151.8862417523
 20
32.1101932727
 11
151.8862417523
 21
30.5937998301
  0
LINE
  8
0
 62
7
  6
CONTINUOUS
 10
152.1753043074
 20
30.5937998301
 11
152.1753043074
 21
31.3358647082
  0
LINE
  8
0
 62
7
  6
CONTINUOUS
 10
152.1753043074
 20
31.4649194539
 11
152.1753043074
 21
32.1101932727
  0
LINE
  8
0
 62
7
  6
CONTINUOUS
 10
149.6315543091
 20
31.3036010218
 11
149.5737418074
 21
31.1100188581
  0
LINE
  8
0
 62
7
  6
CONTINUOUS
 10
149.9784292936
 20
30.8841730531
 11
149.8628043005
 21
31.0454914852
  0
LINE
  8
0
 62
7
  6
CONTINUOUS
 10
151.0768668626
 20
31.400392081
 11
151.1346793074
 21
31.3036010218
  0
LINE
  8
0
 62
7
  6
CONTINUOUS
 10
151.4237418626
 20
31.3036010218
 11
151.3659292523
 21
31.4326557675
  0
LINE
  8
0
 62
7
  6
CONTINUOUS
 10
152.852430332
 20
36.1675703219
 11
152.852430332
 21
34.3642916334
  0
LINE
  8
0
 62
7
  6
CONTINUOUS
 10
152.852430332
 20
33.0528162235
 11
152.852430332
 21
32.3970785186
  0
LINE
  8
0
 62
7
  6
CONTINUOUS
 10
153.2159293074
 20
31.2390736489
 11
153.2159293074
 21
30.5937998301
  0
LINE
  8
0
 62
7
  6
CONTINUOUS
 10
153.5049916972
 20
30.5937998301
 11
153.5049916972
 21
31.2390736489
  0
LINE
  8
0
 62
7
  6
CONTINUOUS
 10
149.8628043005
 20
31.1422825445
 11
149.9206168074
 21
31.2713373354
  0
LINE
  8
0
 62
7
  6
CONTINUOUS
 10
149.6315543091
 20
30.9164367395
 11
149.7471793074
 21
30.7873819712
  0
LINE
  8
0
 62
7
  6
CONTINUOUS
 10
153.1581166972
 20
31.3681283946
 11
153.2159293074
 21
31.2390736489
  0
LINE
  8
0
 62
7
  6
CONTINUOUS
 10
153.9674919177
 20
30.8841730531
 11
154.0253041972
 21
30.7551182848
  0
LINE
  8
0
 62
7
  6
CONTINUOUS
 10
153.5049916972
 20
31.2390736489
 11
153.4471794177
 21
31.400392081
  0
LINE
  8
0
 62
7
  6
CONTINUOUS
 10
153.9674919177
 20
31.4326557675
 11
153.9674919177
 21
31.3681283946
  0
LINE
  8
0
 62
7
  6
CONTINUOUS
 10
153.9674919177
 20
30.9809641124
 11
153.9674919177
 21
30.8841730531
  0
LINE
  8
0
 62
7
  6
CONTINUOUS
 10
154.245872955
 20
32.3970785186
 11
154.245872955
 21
36.1675703219
  0
LINE
  8
0
 62
7
  6
CONTINUOUS
 10
154.2565543074
 20
30.8519093441
 11
154.2565543074
 21
30.9164367395
  0
LINE
  8
0
 62
7
  6
CONTINUOUS
 10
154.5737418074
 20
36.1675703219
 11
154.5737418074
 21
32.3970785186
  0
LINE
  8
0
 62
7
  6
CONTINUOUS
 10
151.3659292523
 20
30.7873819712
 11
151.4237418626
 21
30.9164367395
  0
LINE
  8
0
 62
7
  6
CONTINUOUS
 10
155.759679528
 20
30.6905909007
 11
155.7018665869
 21
30.8519093441
  0
LINE
  8
0
 62
7
  6
CONTINUOUS
 10
155.412804528
 20
31.3681283946
 11
155.412804528
 21
31.2713373354
  0
LINE
  8
0
 62
7
  6
CONTINUOUS
 10
155.412804528
 20
31.1422825445
 11
155.412804528
 21
30.9487004259
  0
LINE
  8
0
 62
7
  6
CONTINUOUS
 10
155.7018665869
 20
30.8519093441
 11
155.7018665869
 21
31.3681283946
  0
LINE
  8
0
 62
7
  6
CONTINUOUS
 10
155.9671844304
 20
32.3970785186
 11
155.9671844304
 21
34.2003572071
  0
LINE
  8
0
 62
7
  6
CONTINUOUS
 10
155.9671844304
 20
35.511832617
 11
155.9671844304
 21
36.1675703219
  0
LINE
  8
0
 62
7
  6
CONTINUOUS
 10
156.279992028
 20
32.1101932727
 11
156.279992028
 21
31.9488748406
  0
LINE
  8
0
 62
7
  6
CONTINUOUS
 10
156.279992028
 20
31.626237886
 11
156.279992028
 21
30.5937998301
  0
LINE
  8
0
 62
7
  6
CONTINUOUS
 10
156.5690540869
 20
30.5937998301
 11
156.5690540869
 21
31.626237886
  0
LINE
  8
0
 62
7
  6
CONTINUOUS
 10
156.5690540869
 20
31.9488748406
 11
156.5690540869
 21
32.1101932727
  0
LINE
  8
0
 62
7
  6
CONTINUOUS
 10
151.1346793074
 20
30.9164367395
 11
151.0768668626
 21
30.8196456577
  0
LINE
  8
0
 62
7
  6
CONTINUOUS
 10
153.4471794177
 20
31.400392081
 11
153.3893668074
 21
31.4649194539
  0
LINE
  8
0
 62
7
  6
CONTINUOUS
 10
154.3143669177
 20
30.7873819712
 11
154.2565543074
 21
30.8519093441
  0
LINE
  8
0
 62
7
  6
CONTINUOUS
 10
155.4706168074
 20
30.6583272086
 11
155.5284290869
 21
30.5937998301
  0
LINE
  8
0
 62
7
  6
CONTINUOUS
 10
155.412804528
 20
30.7551182848
 11
155.4706168074
 21
30.6583272086
  0
LINE
  8
0
 62
7
  6
CONTINUOUS
 10
155.8174918074
 20
30.5937998301
 11
155.759679528
 21
30.6905909007
  0
LINE
  8
0
 62
7
  6
CONTINUOUS
 10
155.7018665869
 20
31.3681283946
 11
155.6440543074
 21
31.4649194539
  0
LINE
  8
0
 62
7
  6
CONTINUOUS
 10
157.0315543074
 20
31.626237886
 11
157.0315543074
 21
30.5937998301
  0
LINE
  8
0
 62
7
  6
CONTINUOUS
 10
157.320617028
 20
30.5937998301
 11
157.320617028
 21
31.3358647082
  0
LINE
  8
0
 62
7
  6
CONTINUOUS
 10
157.320617028
 20
31.4649194539
 11
157.320617028
 21
31.626237886
  0
LINE
  8
0
 62
7
  6
CONTINUOUS
 10
157.852430332
 20
34.6101932727
 11
157.852430332
 21
32.3970785186
  0
LINE
  8
0
 62
7
  6
CONTINUOUS
 10
149.7471793074
 20
31.4326557675
 11
149.6315543091
 21
31.3036010218
  0
LINE
  8
0
 62
7
  6
CONTINUOUS
 10
149.9206168074
 20
31.2713373354
 11
149.9784292936
 21
31.3358647082
  0
LINE
  8
0
 62
7
  6
CONTINUOUS
 10
149.7471793074
 20
30.7873819712
 11
149.8628043005
 21
30.7228545871
  0
LINE
  8
0
 62
7
  6
CONTINUOUS
 10
150.1518667936
 20
30.7873819712
 11
149.9784292936
 21
30.8841730531
  0
LINE
  8
0
 62
7
  6
CONTINUOUS
 10
155.3549915869
 20
31.4326557675
 11
155.412804528
 21
31.3681283946
  0
LINE
  8
0
 62
7
  6
CONTINUOUS
 10
158.3034290869
 20
31.3681283946
 11
158.361242028
 21
31.2068099625
  0
LINE
  8
0
 62
7
  6
CONTINUOUS
 10
158.6503040869
 20
31.2068099625
 11
158.5924918074
 21
31.3681283946
  0
LINE
  8
0
 62
7
  6
CONTINUOUS
 10
158.361242028
 20
31.2068099625
 11
158.361242028
 21
30.5937998301
  0
LINE
  8
0
 62
7
  6
CONTINUOUS
 10
158.6503040869
 20
30.5937998301
 11
158.6503040869
 21
31.2068099625
  0
LINE
  8
0
 62
7
  6
CONTINUOUS
 10
159.1128043074
 20
31.4326557675
 11
159.1128043074
 21
31.3681283946
  0
LINE
  8
0
 62
7
  6
CONTINUOUS
 10
159.245872955
 20
32.3970785186
 11
159.245872955
 21
34.5282260596
  0
LINE
  8
0
 62
7
  6
CONTINUOUS
 10
159.5737418074
 20
36.1675703219
 11
159.5737418074
 21
32.3970785186
  0
LINE
  8
0
 62
7
  6
CONTINUOUS
 10
154.2565543074
 20
30.9164367395
 11
154.3143669177
 21
31.0132277988
  0
LINE
  8
0
 62
7
  6
CONTINUOUS
 10
149.8628043005
 20
30.7228545871
 11
150.0362418212
 21
30.6583272086
  0
LINE
  8
0
 62
7
  6
CONTINUOUS
 10
151.3659292523
 20
31.4326557675
 11
151.1924917523
 21
31.5294468267
  0
LINE
  8
0
 62
7
  6
CONTINUOUS
 10
154.0253041972
 20
30.7551182848
 11
154.1987416972
 21
30.6583272086
  0
LINE
  8
0
 62
7
  6
CONTINUOUS
 10
153.0424918074
 20
31.4326557675
 11
153.1581166972
 21
31.3681283946
  0
LINE
  8
0
 62
7
  6
CONTINUOUS
 10
153.3893668074
 20
31.4649194539
 11
153.2737419177
 21
31.5294468267
  0
LINE
  8
0
 62
7
  6
CONTINUOUS
 10
159.1128043074
 20
30.8519093441
 11
159.228429528
 21
30.7228545871
  0
LINE
  8
0
 62
7
  6
CONTINUOUS
 10
159.4596793074
 20
30.7873819712
 11
159.401867028
 21
30.8519093441
  0
LINE
  8
0
 62
7
  6
CONTINUOUS
 10
159.1128043074
 20
31.3681283946
 11
159.228429528
 21
31.2390736489
  0
LINE
  8
0
 62
7
  6
CONTINUOUS
 10
158.5924918074
 20
31.3681283946
 11
158.534679528
 21
31.4649194539
  0
LINE
  8
0
 62
7
  6
CONTINUOUS
 10
160.9628038663
 20
30.7873819712
 11
160.9628038663
 21
30.8519093441
  0
LINE
  8
0
 62
7
  6
CONTINUOUS
 10
160.9671844304
 20
32.3970785186
 11
160.9671844304
 21
36.1675703219
  0
LINE
  8
0
 62
7
  6
CONTINUOUS
 10
154.0253041972
 20
31.4971831403
 11
153.9674919177
 21
31.4326557675
  0
LINE
  8
0
 62
7
  6
CONTINUOUS
 10
150.9034292799
 20
31.4649194539
 11
151.0768668626
 21
31.400392081
  0
LINE
  8
0
 62
7
  6
CONTINUOUS
 10
155.6440543074
 20
31.4649194539
 11
155.5284290869
 21
31.5294468267
  0
LINE
  8
0
 62
7
  6
CONTINUOUS
 10
159.4596793074
 20
31.3036010218
 11
159.401867028
 21
31.3681283946
  0
LINE
  8
0
 62
7
  6
CONTINUOUS
 10
160.615929528
 20
30.9164367395
 11
160.6737418074
 21
30.8519093441
  0
LINE
  8
0
 62
7
  6
CONTINUOUS
 10
160.9628038663
 20
30.8519093441
 11
160.8471793074
 21
30.9809641124
  0
LINE
  8
0
 62
7
  6
CONTINUOUS
 10
160.615929528
 20
31.4326557675
 11
160.6737418074
 21
31.3681283946
  0
LINE
  8
0
 62
7
  6
CONTINUOUS
 10
160.9628038663
 20
31.3681283946
 11
160.8471793074
 21
31.4971831403
  0
LINE
  8
0
 62
7
  6
CONTINUOUS
 10
154.2565543074
 20
31.3681283946
 11
154.3143669177
 21
31.4326557675
  0
LINE
  8
0
 62
7
  6
CONTINUOUS
 10
154.0831168074
 20
31.1100188581
 11
153.9674919177
 21
30.9809641124
  0
LINE
  8
0
 62
7
  6
CONTINUOUS
 10
155.412804528
 20
30.9487004259
 11
155.3549915869
 21
30.8841730531
  0
LINE
  8
0
 62
7
  6
CONTINUOUS
 10
155.3549915869
 20
30.6905909007
 11
155.412804528
 21
30.7551182848
  0
LINE
  8
0
 62
7
  6
CONTINUOUS
 10
154.1987416972
 20
30.6583272086
 11
154.3143669177
 21
30.6260635193
  0
LINE
  8
0
 62
7
  6
CONTINUOUS
 10
151.1924917523
 20
31.5294468267
 11
150.9612418074
 21
31.5939741996
  0
LINE
  8
0
 62
7
  6
CONTINUOUS
 10
154.5456166972
 20
30.7228545871
 11
154.3143669177
 21
30.7873819712
  0
LINE
  8
0
 62
7
  6
CONTINUOUS
 10
153.2737419177
 20
31.5294468267
 11
153.1003044177
 21
31.5939741996
  0
LINE
  8
0
 62
7
  6
CONTINUOUS
 10
155.5284290869
 20
31.5294468267
 11
155.3549915869
 21
31.5939741996
  0
LINE
  8
0
 62
7
  6
CONTINUOUS
 10
158.187804528
 20
31.4326557675
 11
158.3034290869
 21
31.3681283946
  0
LINE
  8
0
 62
7
  6
CONTINUOUS
 10
158.534679528
 20
31.4649194539
 11
158.4190543074
 21
31.5294468267
  0
LINE
  8
0
 62
7
  6
CONTINUOUS
 10
150.0362418212
 20
30.6583272086
 11
150.2096793212
 21
30.6260635193
  0
LINE
  8
0
 62
7
  6
CONTINUOUS
 10
150.498741835
 20
30.7228545871
 11
150.1518667936
 21
30.7873819712
  0
LINE
  8
0
 62
7
  6
CONTINUOUS
 10
152.9268669177
 20
31.4649194539
 11
153.0424918074
 21
31.4326557675
  0
LINE
  8
0
 62
7
  6
CONTINUOUS
 10
155.239367028
 20
31.4649194539
 11
155.3549915869
 21
31.4326557675
  0
LINE
  8
0
 62
7
  6
CONTINUOUS
 10
159.575304528
 20
30.7551182848
 11
159.4596793074
 21
30.7873819712
  0
LINE
  8
0
 62
7
  6
CONTINUOUS
 10
158.0721793074
 20
31.4649194539
 11
158.187804528
 21
31.4326557675
  0
LINE
  8
0
 62
7
  6
CONTINUOUS
 10
159.228429528
 20
30.7228545871
 11
159.401867028
 21
30.6583272086
  0
LINE
  8
0
 62
7
  6
CONTINUOUS
 10
158.4190543074
 20
31.5294468267
 11
158.2456168074
 21
31.5939741996
  0
LINE
  8
0
 62
7
  6
CONTINUOUS
 10
159.6331168074
 20
31.2390736489
 11
159.4596793074
 21
31.3036010218
  0
LINE
  8
0
 62
7
  6
CONTINUOUS
 10
160.442492028
 20
30.9809641124
 11
160.615929528
 21
30.9164367395
  0
LINE
  8
0
 62
7
  6
CONTINUOUS
 10
160.8471793074
 20
31.4971831403
 11
160.6737418074
 21
31.5617105132
  0
LINE
  8
0
 62
7
  6
CONTINUOUS
 10
159.228429528
 20
31.2390736489
 11
159.4596793074
 21
31.1422825445
  0
LINE
  8
0
 62
7
  6
CONTINUOUS
 10
160.8471793074
 20
30.9809641124
 11
160.615929528
 21
31.0777551716
  0
LINE
  8
0
 62
7
  6
CONTINUOUS
 10
159.401867028
 20
31.3681283946
 11
159.4596793074
 21
31.4326557675
  0
LINE
  8
0
 62
7
  6
CONTINUOUS
 10
149.8628043005
 20
31.4971831403
 11
149.7471793074
 21
31.4326557675
  0
LINE
  8
0
 62
7
  6
CONTINUOUS
 10
149.9784292936
 20
31.3358647082
 11
150.1518667936
 21
31.4326557675
  0
LINE
  8
0
 62
7
  6
CONTINUOUS
 10
152.2909293626
 20
31.5294468267
 11
152.1753043074
 21
31.4649194539
  0
LINE
  8
0
 62
7
  6
CONTINUOUS
 10
152.1753043074
 20
31.3358647082
 11
152.2909293626
 21
31.400392081
  0
LINE
  8
0
 62
7
  6
CONTINUOUS
 10
151.1924917523
 20
30.6905909007
 11
151.3659292523
 21
30.7873819712
  0
LINE
  8
0
 62
7
  6
CONTINUOUS
 10
150.2096793212
 20
30.6260635193
 11
150.5565542799
 21
30.5937998301
  0
LINE
  8
0
 62
7
  6
CONTINUOUS
 10
154.3143669177
 20
30.6260635193
 11
154.5456166972
 21
30.5937998301
  0
LINE
  8
0
 62
7
  6
CONTINUOUS
 10
152.6956168074
 20
31.4971831403
 11
152.9268669177
 21
31.4649194539
  0
LINE
  8
0
 62
7
  6
CONTINUOUS
 10
155.0081169177
 20
31.4971831403
 11
155.239367028
 21
31.4649194539
  0
LINE
  8
0
 62
7
  6
CONTINUOUS
 10
159.4596793074
 20
31.1422825445
 11
160.442492028
 21
30.9809641124
  0
LINE
  8
0
 62
7
  6
CONTINUOUS
 10
160.615929528
 20
31.0777551716
 11
159.6331168074
 21
31.2390736489
  0
LINE
  8
0
 62
7
  6
CONTINUOUS
 10
153.1003044177
 20
31.5939741996
 11
152.9268669177
 21
31.626237886
  0
LINE
  8
0
 62
7
  6
CONTINUOUS
 10
159.401867028
 20
30.6583272086
 11
159.575304528
 21
30.6260635193
  0
LINE
  8
0
 62
7
  6
CONTINUOUS
 10
158.2456168074
 20
31.5939741996
 11
158.0721793074
 21
31.626237886
  0
LINE
  8
0
 62
7
  6
CONTINUOUS
 10
160.5003043074
 20
31.4649194539
 11
160.615929528
 21
31.4326557675
  0
LINE
  8
0
 62
7
  6
CONTINUOUS
 10
160.6737418074
 20
30.8519093441
 11
160.615929528
 21
30.7873819712
  0
LINE
  8
0
 62
7
  6
CONTINUOUS
 10
159.228429528
 20
31.5294468267
 11
159.1128043074
 21
31.4326557675
  0
LINE
  8
0
 62
7
  6
CONTINUOUS
 10
154.1409294177
 20
31.5617105132
 11
154.0253041972
 21
31.4971831403
  0
LINE
  8
0
 62
7
  6
CONTINUOUS
 10
154.1987416972
 20
31.1745462761
 11
154.0831168074
 21
31.1100188581
  0
LINE
  8
0
 62
7
  6
CONTINUOUS
 10
154.3143669177
 20
31.0132277988
 11
154.4299918074
 21
31.0777551716
  0
LINE
  8
0
 62
7
  6
CONTINUOUS
 10
151.8862417523
 20
30.5937998301
 11
152.1753043074
 21
30.5937998301
  0
LINE
  8
0
 62
7
  6
CONTINUOUS
 10
153.2159293074
 20
30.5937998301
 11
153.5049916972
 21
30.5937998301
  0
LINE
  8
0
 62
7
  6
CONTINUOUS
 10
154.5456166972
 20
30.5937998301
 11
154.8924916972
 21
30.5937998301
  0
LINE
  8
0
 62
7
  6
CONTINUOUS
 10
155.5284290869
 20
30.5937998301
 11
155.8174918074
 21
30.5937998301
  0
LINE
  8
0
 62
7
  6
CONTINUOUS
 10
156.279992028
 20
30.5937998301
 11
156.5690540869
 21
30.5937998301
  0
LINE
  8
0
 62
7
  6
CONTINUOUS
 10
157.0315543074
 20
30.5937998301
 11
157.320617028
 21
30.5937998301
  0
LINE
  8
0
 62
7
  6
CONTINUOUS
 10
158.361242028
 20
30.5937998301
 11
158.6503040869
 21
30.5937998301
  0
LINE
  8
0
 62
7
  6
CONTINUOUS
 10
159.922179528
 20
30.5937998301
 11
160.269054528
 21
30.5937998301
  0
LINE
  8
0
 62
7
  6
CONTINUOUS
 10
160.269054528
 20
30.7228545871
 11
159.922179528
 21
30.7228545871
  0
LINE
  8
0
 62
7
  6
CONTINUOUS
 10
154.8924916972
 20
30.7228545871
 11
154.5456166972
 21
30.7228545871
  0
LINE
  8
0
 62
7
  6
CONTINUOUS
 10
159.401867028
 20
30.8519093441
 11
159.1128043074
 21
30.8519093441
  0
LINE
  8
0
 62
7
  6
CONTINUOUS
 10
151.4237418626
 20
30.9164367395
 11
151.1346793074
 21
30.9164367395
  0
LINE
  8
0
 62
7
  6
CONTINUOUS
 10
150.498741835
 20
31.4971831403
 11
150.9034292799
 21
31.4649194539
  0
LINE
  8
0
 62
7
  6
CONTINUOUS
 10
150.9612418074
 20
31.5939741996
 11
150.5565542799
 21
31.626237886
  0
LINE
  8
0
 62
7
  6
CONTINUOUS
 10
159.575304528
 20
30.6260635193
 11
159.922179528
 21
30.5937998301
  0
LINE
  8
0
 62
7
  6
CONTINUOUS
 10
159.922179528
 20
30.7228545871
 11
159.575304528
 21
30.7551182848
  0
LINE
  8
0
 62
7
  6
CONTINUOUS
 10
155.3549915869
 20
31.5939741996
 11
155.0081169177
 21
31.626237886
  0
LINE
  8
0
 62
7
  6
CONTINUOUS
 10
160.1534293074
 20
31.4971831403
 11
160.5003043074
 21
31.4649194539
  0
LINE
  8
0
 62
7
  6
CONTINUOUS
 10
160.5003043074
 20
31.5939741996
 11
160.1534293074
 21
31.626237886
  0
LINE
  8
0
 62
7
  6
CONTINUOUS
 10
157.840929528
 20
31.4971831403
 11
158.0721793074
 21
31.4649194539
  0
LINE
  8
0
 62
7
  6
CONTINUOUS
 10
160.6737418074
 20
31.5617105132
 11
160.5003043074
 21
31.5939741996
  0
LINE
  8
0
 62
7
  6
CONTINUOUS
 10
160.8471793074
 20
30.6905909007
 11
160.9628038663
 21
30.7873819712
  0
LINE
  8
0
 62
7
  6
CONTINUOUS
 10
155.3549915869
 20
30.8841730531
 11
155.1815540869
 21
30.7873819712
  0
LINE
  8
0
 62
7
  6
CONTINUOUS
 10
157.4362415869
 20
31.5294468267
 11
157.320617028
 21
31.4649194539
  0
LINE
  8
0
 62
7
  6
CONTINUOUS
 10
157.320617028
 20
31.3358647082
 11
157.4362415869
 21
31.400392081
  0
LINE
  8
0
 62
7
  6
CONTINUOUS
 10
150.0362418212
 20
31.5617105132
 11
149.8628043005
 21
31.4971831403
  0
LINE
  8
0
 62
7
  6
CONTINUOUS
 10
152.4643666972
 20
31.5939741996
 11
152.2909293626
 21
31.5294468267
  0
LINE
  8
0
 62
7
  6
CONTINUOUS
 10
152.2909293626
 20
31.400392081
 11
152.4643666972
 21
31.4649194539
  0
LINE
  8
0
 62
7
  6
CONTINUOUS
 10
151.0768668626
 20
30.8196456577
 11
150.9034292799
 21
30.7551182848
  0
LINE
  8
0
 62
7
  6
CONTINUOUS
 10
160.5003043074
 20
30.7551182848
 11
160.269054528
 21
30.7228545871
  0
LINE
  8
0
 62
7
  6
CONTINUOUS
 10
154.8924916972
 20
30.5937998301
 11
155.1815540869
 21
30.6260635193
  0
LINE
  8
0
 62
7
  6
CONTINUOUS
 10
160.269054528
 20
30.5937998301
 11
160.615929528
 21
30.6260635193
  0
LINE
  8
0
 62
7
  6
CONTINUOUS
 10
150.5565542799
 20
30.5937998301
 11
150.9612418074
 21
30.6260635193
  0
LINE
  8
0
 62
7
  6
CONTINUOUS
 10
150.9034292799
 20
30.7551182848
 11
150.498741835
 21
30.7228545871
  0
LINE
  8
0
 62
7
  6
CONTINUOUS
 10
154.7768668074
 20
31.1422825445
 11
155.412804528
 21
31.1422825445
  0
LINE
  8
0
 62
7
  6
CONTINUOUS
 10
155.412804528
 20
31.2713373354
 11
154.7768668074
 21
31.2713373354
  0
LINE
  8
0
 62
7
  6
CONTINUOUS
 10
151.1346793074
 20
31.3036010218
 11
151.4237418626
 21
31.3036010218
  0
LINE
  8
0
 62
7
  6
CONTINUOUS
 10
153.9674919177
 20
31.3681283946
 11
154.2565543074
 21
31.3681283946
  0
LINE
  8
0
 62
7
  6
CONTINUOUS
 10
160.6737418074
 20
31.3681283946
 11
160.9628038663
 21
31.3681283946
  0
LINE
  8
0
 62
7
  6
CONTINUOUS
 10
154.6612419177
 20
31.4971831403
 11
155.0081169177
 21
31.4971831403
  0
LINE
  8
0
 62
7
  6
CONTINUOUS
 10
159.8065543074
 20
31.4971831403
 11
160.1534293074
 21
31.4971831403
  0
LINE
  8
0
 62
7
  6
CONTINUOUS
 10
160.1534293074
 20
31.626237886
 11
159.8065543074
 21
31.626237886
  0
LINE
  8
0
 62
7
  6
CONTINUOUS
 10
158.0721793074
 20
31.626237886
 11
157.840929528
 21
31.626237886
  0
LINE
  8
0
 62
7
  6
CONTINUOUS
 10
157.320617028
 20
31.626237886
 11
157.0315543074
 21
31.626237886
  0
LINE
  8
0
 62
7
  6
CONTINUOUS
 10
156.5690540869
 20
31.626237886
 11
156.279992028
 21
31.626237886
  0
LINE
  8
0
 62
7
  6
CONTINUOUS
 10
155.0081169177
 20
31.626237886
 11
154.6612419177
 21
31.626237886
  0
LINE
  8
0
 62
7
  6
CONTINUOUS
 10
152.9268669177
 20
31.626237886
 11
152.6956168074
 21
31.626237886
  0
LINE
  8
0
 62
7
  6
CONTINUOUS
 10
156.279992028
 20
31.9488748406
 11
156.5690540869
 21
31.9488748406
  0
LINE
  8
0
 62
7
  6
CONTINUOUS
 10
156.5690540869
 20
32.1101932727
 11
156.279992028
 21
32.1101932727
  0
LINE
  8
0
 62
7
  6
CONTINUOUS
 10
152.1753043074
 20
32.1101932727
 11
151.8862417523
 21
32.1101932727
  0
LINE
  8
0
 62
7
  6
CONTINUOUS
 10
151.2130860697
 20
32.3970785186
 11
151.6256574183
 21
32.3970785186
  0
LINE
  8
0
 62
7
  6
CONTINUOUS
 10
152.852430332
 20
32.3970785186
 11
154.245872955
 21
32.3970785186
  0
LINE
  8
0
 62
7
  6
CONTINUOUS
 10
154.5737418074
 20
32.3970785186
 11
155.9671844304
 21
32.3970785186
  0
LINE
  8
0
 62
7
  6
CONTINUOUS
 10
157.852430332
 20
32.3970785186
 11
159.245872955
 21
32.3970785186
  0
LINE
  8
0
 62
7
  6
CONTINUOUS
 10
159.5737418074
 20
32.3970785186
 11
160.9671844304
 21
32.3970785186
  0
LINE
  8
0
 62
7
  6
CONTINUOUS
 10
157.6096790869
 20
31.5939741996
 11
157.4362415869
 21
31.5294468267
  0
LINE
  8
0
 62
7
  6
CONTINUOUS
 10
155.1815540869
 20
30.6260635193
 11
155.3549915869
 21
30.6905909007
  0
LINE
  8
0
 62
7
  6
CONTINUOUS
 10
160.615929528
 20
30.6260635193
 11
160.8471793074
 21
30.6905909007
  0
LINE
  8
0
 62
7
  6
CONTINUOUS
 10
160.615929528
 20
30.7873819712
 11
160.5003043074
 21
30.7551182848
  0
LINE
  8
0
 62
7
  6
CONTINUOUS
 10
159.575304528
 20
31.4649194539
 11
159.8065543074
 21
31.4971831403
  0
LINE
  8
0
 62
7
  6
CONTINUOUS
 10
157.6096790869
 20
31.4649194539
 11
157.840929528
 21
31.4971831403
  0
LINE
  8
0
 62
7
  6
CONTINUOUS
 10
154.5456166972
 20
31.1100188581
 11
154.7768668074
 21
31.1422825445
  0
LINE
  8
0
 62
7
  6
CONTINUOUS
 10
157.840929528
 20
31.626237886
 11
157.6096790869
 21
31.5939741996
  0
LINE
  8
0
 62
7
  6
CONTINUOUS
 10
154.4299918074
 20
31.4649194539
 11
154.6612419177
 21
31.4971831403
  0
LINE
  8
0
 62
7
  6
CONTINUOUS
 10
159.8065543074
 20
31.626237886
 11
159.4596793074
 21
31.5939741996
  0
LINE
  8
0
 62
7
  6
CONTINUOUS
 10
154.7768668074
 20
31.2713373354
 11
154.4299918074
 21
31.2390736489
  0
LINE
  8
0
 62
7
  6
CONTINUOUS
 10
150.5565542799
 20
31.626237886
 11
150.2096793212
 21
31.5939741996
  0
LINE
  8
0
 62
7
  6
CONTINUOUS
 10
154.6612419177
 20
31.626237886
 11
154.2565543074
 21
31.5939741996
  0
LINE
  8
0
 62
7
  6
CONTINUOUS
 10
152.0327582009
 20
33.5446195022
 11
151.3770204959
 21
33.5446195022
  0
LINE
  8
0
 62
7
  6
CONTINUOUS
 10
157.4362415869
 20
31.400392081
 11
157.6096790869
 21
31.4649194539
  0
LINE
  8
0
 62
7
  6
CONTINUOUS
 10
159.4596793074
 20
31.4326557675
 11
159.575304528
 21
31.4649194539
  0
LINE
  8
0
 62
7
  6
CONTINUOUS
 10
159.4596793074
 20
31.5939741996
 11
159.228429528
 21
31.5294468267
  0
LINE
  8
0
 62
7
  6
CONTINUOUS
 10
155.1815540869
 20
30.7873819712
 11
154.8924916972
 21
30.7228545871
  0
LINE
  8
0
 62
7
  6
CONTINUOUS
 10
152.4643666972
 20
31.4649194539
 11
152.6956168074
 21
31.4971831403
  0
LINE
  8
0
 62
7
  6
CONTINUOUS
 10
152.6956168074
 20
31.626237886
 11
152.4643666972
 21
31.5939741996
  0
LINE
  8
0
 62
7
  6
CONTINUOUS
 10
150.2674918074
 20
31.4649194539
 11
150.498741835
 21
31.4971831403
  0
LINE
  8
0
 62
7
  6
CONTINUOUS
 10
156.7868565615
 20
35.0200293383
 11
157.4425942664
 21
35.0200293383
  0
LINE
  8
0
 62
7
  6
CONTINUOUS
 10
154.4299918074
 20
31.0777551716
 11
154.5456166972
 21
31.1100188581
  0
LINE
  8
0
 62
7
  6
CONTINUOUS
 10
154.4299918074
 20
31.2390736489
 11
154.1987416972
 21
31.1745462761
  0
LINE
  8
0
 62
7
  6
CONTINUOUS
 10
154.3143669177
 20
31.4326557675
 11
154.4299918074
 21
31.4649194539
  0
LINE
  8
0
 62
7
  6
CONTINUOUS
 10
150.9612418074
 20
30.6260635193
 11
151.1924917523
 21
30.6905909007
  0
LINE
  8
0
 62
7
  6
CONTINUOUS
 10
154.2565543074
 20
31.5939741996
 11
154.1409294177
 21
31.5617105132
  0
LINE
  8
0
 62
7
  6
CONTINUOUS
 10
150.2096793212
 20
31.5939741996
 11
150.0362418212
 21
31.5617105132
  0
LINE
  8
0
 62
7
  6
CONTINUOUS
 10
160.9671844304
 20
36.1675703219
 11
159.5737418074
 21
36.1675703219
  0
LINE
  8
0
 62
7
  6
CONTINUOUS
 10
157.6065286927
 20
36.1675703219
 11
157.1939573441
 21
36.1675703219
  0
LINE
  8
0
 62
7
  6
CONTINUOUS
 10
155.9671844304
 20
36.1675703219
 11
154.5737418074
 21
36.1675703219
  0
LINE
  8
0
 62
7
  6
CONTINUOUS
 10
154.245872955
 20
36.1675703219
 11
152.852430332
 21
36.1675703219
  0
LINE
  8
0
 62
7
  6
CONTINUOUS
 10
150.9671844304
 20
36.1675703219
 11
149.5737418074
 21
36.1675703219
  0
LINE
  8
0
 62
7
  6
CONTINUOUS
 10
150.1518667936
 20
31.4326557675
 11
150.2674918074
 21
31.4649194539
  0
CIRCLE
  8
0
 62
7
  6
CONTINUOUS
 10
160.2704631189
 20
38.5036358957
 40
2.0901639344
  0
ARC
  8
0
 62
7
  6
CONTINUOUS
 10
151.2130860697
 20
34.0364227809
 40
1.6393442623
 50
180.0
 51
270.0
  0
ARC
  8
0
 62
7
  6
CONTINUOUS
 10
157.6065286927
 20
34.5282260596
 40
1.6393442623
 50
0.0
 51
90.0
  0
ARC
  8
0
 62
7
  6
CONTINUOUS
 10
151.6256574183
 20
33.8724883547
 40
1.4754098361
 50
270.0
 51
326.2510114041
  0
ARC
  8
0
 62
7
  6
CONTINUOUS
 10
157.1939573441
 20
34.6921604858
 40
1.4754098361
 50
90.0
 51
146.2510114041
  0
ARC
  8
0
 62
7
  6
CONTINUOUS
 10
152.0327582009
 20
34.3642916334
 40
0.8196721311
 50
270.0
 51
360.0
  0
ARC
  8
0
 62
7
  6
CONTINUOUS
 10
156.7868565615
 20
34.2003572071
 40
0.8196721311
 50
90.0
 51
180.0
  0
ARC
  8
0
 62
7
  6
CONTINUOUS
 10
151.3770204959
 20
33.9544555678
 40
0.4098360656
 50
180.0
 51
270.0
  0
ARC
  8
0
 62
7
  6
CONTINUOUS
 10
157.4425942664
 20
34.6101932727
 40
0.4098360656
 50
0.0
 51
90.0
  0
SOLID
  8
0
 62
7
  6
CONTINUOUS
 10
156.279992028
 20
31.9488752009
 11
156.279992028
 21
32.1101936845
 12
156.5690540869
 22
31.9488752009
 13
156.5690540869
 23
32.1101936845
  0
SOLID
  8
0
 62
7
  6
CONTINUOUS
 10
150.5565542799
 20
31.6262382337
 11
150.9612418074
 21
31.5939740028
 12
150.2096793212
 22
31.5939740028
 13
150.2096793212
 23
31.5939740028
  0
SOLID
  8
0
 62
7
  6
CONTINUOUS
 10
150.0362418212
 20
31.5617111435
 11
150.2096793212
 21
31.5939740028
 12
150.9612418074
 22
31.5939740028
 13
150.9612418074
 23
31.5939740028
  0
SOLID
  8
0
 62
7
  6
CONTINUOUS
 10
150.9612418074
 20
31.5939740028
 11
151.1924917523
 21
31.5294468402
 12
150.0362418212
 22
31.5617111435
 13
150.0362418212
 23
31.5617111435
  0
SOLID
  8
0
 62
7
  6
CONTINUOUS
 10
149.8628043005
 20
31.49718259
 11
150.0362418212
 21
31.5617111435
 12
151.1924917523
 22
31.5294468402
 13
151.1924917523
 23
31.5294468402
  0
SOLID
  8
0
 62
7
  6
CONTINUOUS
 10
149.8628043005
 20
31.49718259
 11
151.1924917523
 21
31.5294468402
 12
150.498741835
 22
31.49718259
 13
150.498741835
 23
31.49718259
  0
SOLID
  8
0
 62
7
  6
CONTINUOUS
 10
150.498741835
 20
31.49718259
 11
151.1924917523
 21
31.5294468402
 12
150.9034292799
 22
31.4649197501
 13
150.9034292799
 23
31.4649197501
  0
SOLID
  8
0
 62
7
  6
CONTINUOUS
 10
151.1924917523
 20
31.5294468402
 11
151.3659292523
 21
31.4326554468
 12
150.9034292799
 22
31.4649197501
 13
150.9034292799
 23
31.4649197501
  0
SOLID
  8
0
 62
7
  6
CONTINUOUS
 10
151.0768668626
 20
31.4003926599
 11
150.9034292799
 21
31.4649197501
 12
151.3659292523
 22
31.4326554468
 13
151.3659292523
 23
31.4326554468
  0
SOLID
  8
0
 62
7
  6
CONTINUOUS
 10
151.0768668626
 20
31.4003926599
 11
151.3659292523
 21
31.4326554468
 12
151.1346793074
 22
31.3036013776
 13
151.1346793074
 23
31.3036013776
  0
SOLID
  8
0
 62
7
  6
CONTINUOUS
 10
151.3659292523
 20
31.4326554468
 11
151.4237418626
 21
31.3036013776
 12
151.1346793074
 22
31.3036013776
 13
151.1346793074
 23
31.3036013776
  0
SOLID
  8
0
 62
7
  6
CONTINUOUS
 10
152.4643666972
 20
31.5939739754
 11
152.6956168074
 21
31.6262382787
 12
152.9268669177
 22
31.6262382787
 13
152.9268669177
 23
31.6262382787
  0
SOLID
  8
0
 62
7
  6
CONTINUOUS
 10
152.9268669177
 20
31.6262382787
 11
153.1003044177
 21
31.5939739754
 12
152.4643666972
 22
31.5939739754
 13
152.4643666972
 23
31.5939739754
  0
SOLID
  8
0
 62
7
  6
CONTINUOUS
 10
152.2909293626
 20
31.5294468852
 11
152.4643666972
 21
31.5939739754
 12
153.1003044177
 22
31.5939739754
 13
153.1003044177
 23
31.5939739754
  0
SOLID
  8
0
 62
7
  6
CONTINUOUS
 10
153.1003044177
 20
31.5939739754
 11
153.2737419177
 21
31.5294468852
 12
152.2909293626
 22
31.5294468852
 13
152.2909293626
 23
31.5294468852
  0
SOLID
  8
0
 62
7
  6
CONTINUOUS
 10
153.2737419177
 20
31.5294468852
 11
152.6956168074
 21
31.4971825369
 12
152.2909293626
 22
31.5294468852
 13
152.2909293626
 23
31.5294468852
  0
SOLID
  8
0
 62
7
  6
CONTINUOUS
 10
152.1753043074
 20
31.4649197951
 11
152.2909293626
 21
31.5294468852
 12
152.6956168074
 22
31.4971825369
 13
152.6956168074
 23
31.4971825369
  0
SOLID
  8
0
 62
7
  6
CONTINUOUS
 10
152.6956168074
 20
31.4971825369
 11
152.4643666972
 21
31.4649197951
 12
152.1753043074
 22
31.4649197951
 13
152.1753043074
 23
31.4649197951
  0
SOLID
  8
0
 62
7
  6
CONTINUOUS
 10
152.6956168074
 20
31.4971825369
 11
153.2737419177
 21
31.5294468852
 12
152.9268669177
 22
31.4649197951
 13
152.9268669177
 23
31.4649197951
  0
SOLID
  8
0
 62
7
  6
CONTINUOUS
 10
153.2737419177
 20
31.5294468852
 11
153.3893668074
 21
31.4649197951
 12
152.9268669177
 22
31.4649197951
 13
152.9268669177
 23
31.4649197951
  0
SOLID
  8
0
 62
7
  6
CONTINUOUS
 10
153.0424918074
 20
31.4326554468
 11
152.9268669177
 21
31.4649197951
 12
153.3893668074
 22
31.4649197951
 13
153.3893668074
 23
31.4649197951
  0
SOLID
  8
0
 62
7
  6
CONTINUOUS
 10
153.3893668074
 20
31.4649197951
 11
153.4471794177
 21
31.4003927049
 12
153.0424918074
 22
31.4326554468
 13
153.0424918074
 23
31.4326554468
  0
SOLID
  8
0
 62
7
  6
CONTINUOUS
 10
153.1581166972
 20
31.3681283566
 11
153.0424918074
 21
31.4326554468
 12
153.4471794177
 22
31.4003927049
 13
153.4471794177
 23
31.4003927049
  0
SOLID
  8
0
 62
7
  6
CONTINUOUS
 10
153.1581166972
 20
31.3681283566
 11
153.4471794177
 21
31.4003927049
 12
153.2159293074
 22
31.2390742213
 13
153.2159293074
 23
31.2390742213
  0
SOLID
  8
0
 62
7
  6
CONTINUOUS
 10
153.4471794177
 20
31.4003927049
 11
153.5049916972
 21
31.2390742213
 12
153.2159293074
 22
31.2390742213
 13
153.2159293074
 23
31.2390742213
  0
SOLID
  8
0
 62
7
  6
CONTINUOUS
 10
152.4643666972
 20
31.4649197951
 11
152.2909293626
 21
31.4003927049
 12
152.1753043074
 22
31.4649197951
 13
152.1753043074
 23
31.4649197951
  0
SOLID
  8
0
 62
7
  6
CONTINUOUS
 10
152.2909293626
 20
31.4003927049
 11
152.1753043074
 21
31.3358640533
 12
152.1753043074
 22
31.4649197951
 13
152.1753043074
 23
31.4649197951
  0
SOLID
  8
0
 62
7
  6
CONTINUOUS
 10
152.1753043074
 20
31.3358640533
 11
151.8862417523
 21
30.5938002869
 12
152.1753043074
 22
31.4649197951
 13
152.1753043074
 23
31.4649197951
  0
SOLID
  8
0
 62
7
  6
CONTINUOUS
 10
152.1753043074
 20
31.4649197951
 11
151.8862417523
 21
30.5938002869
 12
152.1753043074
 22
32.1101937295
 13
152.1753043074
 23
32.1101937295
  0
SOLID
  8
0
 62
7
  6
CONTINUOUS
 10
151.8862417523
 20
30.5938002869
 11
151.8862417523
 21
32.1101937295
 12
152.1753043074
 22
32.1101937295
 13
152.1753043074
 23
32.1101937295
  0
SOLID
  8
0
 62
7
  6
CONTINUOUS
 10
152.1753043074
 20
31.3358640533
 11
152.1753043074
 21
30.5938002869
 12
151.8862417523
 22
30.5938002869
 13
151.8862417523
 23
30.5938002869
  0
SOLID
  8
0
 62
7
  6
CONTINUOUS
 10
153.2159293074
 20
30.5938002869
 11
153.2159293074
 21
31.2390742213
 12
153.5049916972
 22
31.2390742213
 13
153.5049916972
 23
31.2390742213
  0
SOLID
  8
0
 62
7
  6
CONTINUOUS
 10
153.5049916972
 20
31.2390742213
 11
153.5049916972
 21
30.5938002869
 12
153.2159293074
 22
30.5938002869
 13
153.2159293074
 23
30.5938002869
  0
SOLID
  8
0
 62
7
  6
CONTINUOUS
 10
154.2565543074
 20
31.5939738288
 11
154.6612419177
 21
31.6262385959
 12
155.0081169177
 22
31.6262385959
 13
155.0081169177
 23
31.6262385959
  0
SOLID
  8
0
 62
7
  6
CONTINUOUS
 10
155.0081169177
 20
31.6262385959
 11
155.3549915869
 21
31.5939738288
 12
154.2565543074
 22
31.5939738288
 13
154.2565543074
 23
31.5939738288
  0
SOLID
  8
0
 62
7
  6
CONTINUOUS
 10
154.1409294177
 20
31.5617111435
 11
154.2565543074
 21
31.5939738288
 12
155.3549915869
 22
31.5939738288
 13
155.3549915869
 23
31.5939738288
  0
SOLID
  8
0
 62
7
  6
CONTINUOUS
 10
155.3549915869
 20
31.5939738288
 11
155.5284290869
 21
31.5294468402
 12
154.1409294177
 22
31.5617111435
 13
154.1409294177
 23
31.5617111435
  0
SOLID
  8
0
 62
7
  6
CONTINUOUS
 10
154.0253041972
 20
31.4971826249
 11
154.1409294177
 21
31.5617111435
 12
155.5284290869
 22
31.5294468402
 13
155.5284290869
 23
31.5294468402
  0
SOLID
  8
0
 62
7
  6
CONTINUOUS
 10
154.0253041972
 20
31.4971826249
 11
155.5284290869
 21
31.5294468402
 12
154.6612419177
 22
31.4971826249
 13
154.6612419177
 23
31.4971826249
  0
SOLID
  8
0
 62
7
  6
CONTINUOUS
 10
154.6612419177
 20
31.4971826249
 11
155.5284290869
 21
31.5294468402
 12
155.0081169177
 22
31.4971826249
 13
155.0081169177
 23
31.4971826249
  0
SOLID
  8
0
 62
7
  6
CONTINUOUS
 10
155.0081169177
 20
31.4971826249
 11
155.5284290869
 21
31.5294468402
 12
155.239367028
 22
31.4649194065
 13
155.239367028
 23
31.4649194065
  0
SOLID
  8
0
 62
7
  6
CONTINUOUS
 10
155.5284290869
 20
31.5294468402
 11
155.6440543074
 21
31.4649194065
 12
155.239367028
 22
31.4649194065
 13
155.239367028
 23
31.4649194065
  0
SOLID
  8
0
 62
7
  6
CONTINUOUS
 10
153.9674919177
 20
31.4326554138
 11
154.0253041972
 21
31.4971826249
 12
154.6612419177
 22
31.4971826249
 13
154.6612419177
 23
31.4971826249
  0
SOLID
  8
0
 62
7
  6
CONTINUOUS
 10
155.3549915869
 20
31.4326554138
 11
155.239367028
 21
31.4649194065
 12
155.6440543074
 22
31.4649194065
 13
155.6440543074
 23
31.4649194065
  0
SOLID
  8
0
 62
7
  6
CONTINUOUS
 10
155.3549915869
 20
31.4326554138
 11
155.6440543074
 21
31.4649194065
 12
155.412804528
 22
31.3681282026
 13
155.412804528
 23
31.3681282026
  0
SOLID
  8
0
 62
7
  6
CONTINUOUS
 10
155.6440543074
 20
31.4649194065
 11
155.7018665869
 21
31.3681282026
 12
155.412804528
 22
31.3681282026
 13
155.412804528
 23
31.3681282026
  0
SOLID
  8
0
 62
7
  6
CONTINUOUS
 10
155.412804528
 20
31.2713369632
 11
155.412804528
 21
31.3681282026
 12
155.7018665869
 22
31.3681282026
 13
155.7018665869
 23
31.3681282026
  0
SOLID
  8
0
 62
7
  6
CONTINUOUS
 10
155.412804528
 20
31.2713369632
 11
155.7018665869
 21
31.3681282026
 12
155.412804528
 22
31.1422827828
 13
155.412804528
 23
31.1422827828
  0
SOLID
  8
0
 62
7
  6
CONTINUOUS
 10
155.412804528
 20
31.1422827828
 11
155.7018665869
 21
31.3681282026
 12
155.412804528
 22
30.9487004259
 13
155.412804528
 23
30.9487004259
  0
SOLID
  8
0
 62
7
  6
CONTINUOUS
 10
155.7018665869
 20
31.3681282026
 11
155.7018665869
 21
30.8519086025
 12
155.412804528
 22
30.9487004259
 13
155.412804528
 23
30.9487004259
  0
SOLID
  8
0
 62
7
  6
CONTINUOUS
 10
157.6096790869
 20
31.5939736268
 11
157.840929528
 21
31.6262383465
 12
158.0721793074
 22
31.6262383465
 13
158.0721793074
 23
31.6262383465
  0
SOLID
  8
0
 62
7
  6
CONTINUOUS
 10
158.0721793074
 20
31.6262383465
 11
158.2456168074
 21
31.5939736268
 12
157.6096790869
 22
31.5939736268
 13
157.6096790869
 23
31.5939736268
  0
SOLID
  8
0
 62
7
  6
CONTINUOUS
 10
157.4362415869
 20
31.5294472848
 11
157.6096790869
 21
31.5939736268
 12
158.2456168074
 22
31.5939736268
 13
158.2456168074
 23
31.5939736268
  0
SOLID
  8
0
 62
7
  6
CONTINUOUS
 10
158.2456168074
 20
31.5939736268
 11
158.4190543074
 21
31.5294472848
 12
157.4362415869
 22
31.5294472848
 13
157.4362415869
 23
31.5294472848
  0
SOLID
  8
0
 62
7
  6
CONTINUOUS
 10
158.4190543074
 20
31.5294472848
 11
157.840929528
 21
31.4971825369
 12
157.4362415869
 22
31.5294472848
 13
157.4362415869
 23
31.5294472848
  0
SOLID
  8
0
 62
7
  6
CONTINUOUS
 10
157.320617028
 20
31.4649199103
 11
157.4362415869
 21
31.5294472848
 12
157.840929528
 22
31.4971825369
 13
157.840929528
 23
31.4971825369
  0
SOLID
  8
0
 62
7
  6
CONTINUOUS
 10
157.840929528
 20
31.4971825369
 11
157.6096790869
 21
31.4649199103
 12
157.320617028
 22
31.4649199103
 13
157.320617028
 23
31.4649199103
  0
SOLID
  8
0
 62
7
  6
CONTINUOUS
 10
157.840929528
 20
31.4971825369
 11
158.4190543074
 21
31.5294472848
 12
158.0721793074
 22
31.4649199103
 13
158.0721793074
 23
31.4649199103
  0
SOLID
  8
0
 62
7
  6
CONTINUOUS
 10
158.4190543074
 20
31.5294472848
 11
158.534679528
 21
31.4649199103
 12
158.0721793074
 22
31.4649199103
 13
158.0721793074
 23
31.4649199103
  0
SOLID
  8
0
 62
7
  6
CONTINUOUS
 10
158.187804528
 20
31.4326554468
 11
158.0721793074
 21
31.4649199103
 12
158.534679528
 22
31.4649199103
 13
158.534679528
 23
31.4649199103
  0
SOLID
  8
0
 62
7
  6
CONTINUOUS
 10
158.187804528
 20
31.4326554468
 11
158.534679528
 21
31.4649199103
 12
158.3034290869
 22
31.3681288486
 13
158.3034290869
 23
31.3681288486
  0
SOLID
  8
0
 62
7
  6
CONTINUOUS
 10
158.534679528
 20
31.4649199103
 11
158.5924918074
 21
31.3681288486
 12
158.3034290869
 22
31.3681288486
 13
158.3034290869
 23
31.3681288486
  0
SOLID
  8
0
 62
7
  6
CONTINUOUS
 10
158.361242028
 20
31.2068093799
 11
158.3034290869
 21
31.3681288486
 12
158.5924918074
 22
31.3681288486
 13
158.5924918074
 23
31.3681288486
  0
SOLID
  8
0
 62
7
  6
CONTINUOUS
 10
158.5924918074
 20
31.3681288486
 11
158.6503040869
 21
31.2068093799
 12
158.361242028
 22
31.2068093799
 13
158.361242028
 23
31.2068093799
  0
SOLID
  8
0
 62
7
  6
CONTINUOUS
 10
157.6096790869
 20
31.4649199103
 11
157.4362415869
 21
31.4003926599
 12
157.320617028
 22
31.4649199103
 13
157.320617028
 23
31.4649199103
  0
SOLID
  8
0
 62
7
  6
CONTINUOUS
 10
157.4362415869
 20
31.4003926599
 11
157.320617028
 21
31.3358640533
 12
157.320617028
 22
31.4649199103
 13
157.320617028
 23
31.4649199103
  0
SOLID
  8
0
 62
7
  6
CONTINUOUS
 10
157.320617028
 20
31.3358640533
 11
157.0315543074
 21
30.5938003547
 12
157.320617028
 22
31.4649199103
 13
157.320617028
 23
31.4649199103
  0
SOLID
  8
0
 62
7
  6
CONTINUOUS
 10
157.320617028
 20
31.4649199103
 11
157.0315543074
 21
30.5938003547
 12
157.320617028
 22
31.6262383465
 13
157.320617028
 23
31.6262383465
  0
SOLID
  8
0
 62
7
  6
CONTINUOUS
 10
157.0315543074
 20
30.5938003547
 11
157.0315543074
 21
31.6262383465
 12
157.320617028
 22
31.6262383465
 13
157.320617028
 23
31.6262383465
  0
SOLID
  8
0
 62
7
  6
CONTINUOUS
 10
157.320617028
 20
31.3358640533
 11
157.320617028
 21
30.5938003547
 12
157.0315543074
 22
30.5938003547
 13
157.0315543074
 23
30.5938003547
  0
SOLID
  8
0
 62
7
  6
CONTINUOUS
 10
158.361242028
 20
30.5938003547
 11
158.361242028
 21
31.2068093799
 12
158.6503040869
 22
31.2068093799
 13
158.6503040869
 23
31.2068093799
  0
SOLID
  8
0
 62
7
  6
CONTINUOUS
 10
158.6503040869
 20
31.2068093799
 11
158.6503040869
 21
30.5938003547
 12
158.361242028
 22
30.5938003547
 13
158.361242028
 23
30.5938003547
  0
SOLID
  8
0
 62
7
  6
CONTINUOUS
 10
159.4596793074
 20
31.5939739474
 11
159.8065543074
 21
31.6262381969
 12
160.1534293074
 22
31.6262381969
 13
160.1534293074
 23
31.6262381969
  0
SOLID
  8
0
 62
7
  6
CONTINUOUS
 10
160.1534293074
 20
31.6262381969
 11
160.5003043074
 21
31.5939739474
 12
159.4596793074
 22
31.5939739474
 13
159.4596793074
 23
31.5939739474
  0
SOLID
  8
0
 62
7
  6
CONTINUOUS
 10
159.228429528
 20
31.5294468402
 11
159.4596793074
 21
31.5939739474
 12
160.5003043074
 22
31.5939739474
 13
160.5003043074
 23
31.5939739474
  0
SOLID
  8
0
 62
7
  6
CONTINUOUS
 10
159.228429528
 20
31.5294468402
 11
160.5003043074
 21
31.5939739304
 12
160.6737418074
 22
31.5617111435
 13
160.6737418074
 23
31.5617111435
  0
SOLID
  8
0
 62
7
  6
CONTINUOUS
 10
159.228429528
 20
31.5294468402
 11
160.6737418074
 21
31.5617111435
 12
159.8065543074
 22
31.4971825592
 13
159.8065543074
 23
31.4971825592
  0
SOLID
  8
0
 62
7
  6
CONTINUOUS
 10
159.8065543074
 20
31.4971825592
 11
160.6737418074
 21
31.5617111435
 12
160.1534293074
 22
31.4971825592
 13
160.1534293074
 23
31.4971825592
  0
SOLID
  8
0
 62
7
  6
CONTINUOUS
 10
160.6737418074
 20
31.5617111435
 11
160.8471793074
 21
31.4971825592
 12
160.1534293074
 22
31.4971825592
 13
160.1534293074
 23
31.4971825592
  0
SOLID
  8
0
 62
7
  6
CONTINUOUS
 10
160.5003043074
 20
31.4649197501
 11
160.1534293074
 21
31.4971825592
 12
160.8471793074
 22
31.4971825592
 13
160.8471793074
 23
31.4971825592
  0
SOLID
  8
0
 62
7
  6
CONTINUOUS
 10
159.1128043074
 20
31.4326555427
 11
159.228429528
 21
31.5294468402
 12
159.8065543074
 22
31.4971825592
 13
159.8065543074
 23
31.4971825592
  0
SOLID
  8
0
 62
7
  6
CONTINUOUS
 10
160.5003043074
 20
31.4649197501
 11
160.8471793074
 21
31.4971825592
 12
160.615929528
 22
31.4326555427
 13
160.615929528
 23
31.4326555427
  0
SOLID
  8
0
 62
7
  6
CONTINUOUS
 10
160.615929528
 20
31.4326555427
 11
160.8471793074
 21
31.4971825592
 12
160.6737418074
 22
31.3681283005
 13
160.6737418074
 23
31.3681283005
  0
SOLID
  8
0
 62
7
  6
CONTINUOUS
 10
160.8471793074
 20
31.4971825592
 11
160.9628038663
 21
31.3681283005
 12
160.6737418074
 22
31.3681283005
 13
160.6737418074
 23
31.3681283005
  0
SOLID
  8
0
 62
7
  6
CONTINUOUS
 10
150.2674918074
 20
31.4649197501
 11
149.7471793074
 21
31.4326554237
 12
150.498741835
 22
31.4971824493
 13
150.498741835
 23
31.4971824493
  0
SOLID
  8
0
 62
7
  6
CONTINUOUS
 10
149.7471793074
 20
31.4326554237
 11
149.8628043005
 21
31.4971824493
 12
150.498741835
 22
31.4971824493
 13
150.498741835
 23
31.4971824493
  0
SOLID
  8
0
 62
7
  6
CONTINUOUS
 10
150.2674918074
 20
31.4649197501
 11
150.1518667936
 21
31.4326554237
 12
149.7471793074
 22
31.4326554237
 13
149.7471793074
 23
31.4326554237
  0
SOLID
  8
0
 62
7
  6
CONTINUOUS
 10
149.6315543091
 20
31.3036012664
 11
149.7471793074
 21
31.4326554237
 12
150.1518667936
 22
31.4326554237
 13
150.1518667936
 23
31.4326554237
  0
SOLID
  8
0
 62
7
  6
CONTINUOUS
 10
153.9674919177
 20
31.4326554237
 11
154.6612419177
 21
31.4971825369
 12
154.4299918074
 22
31.4649197501
 13
154.4299918074
 23
31.4649197501
  0
SOLID
  8
0
 62
7
  6
CONTINUOUS
 10
154.4299918074
 20
31.4649197501
 11
154.3143669177
 21
31.4326554237
 12
153.9674919177
 22
31.4326554237
 13
153.9674919177
 23
31.4326554237
  0
SOLID
  8
0
 62
7
  6
CONTINUOUS
 10
153.9674919177
 20
31.3681283335
 11
153.9674919177
 21
31.4326554237
 12
154.3143669177
 22
31.4326554237
 13
154.3143669177
 23
31.4326554237
  0
SOLID
  8
0
 62
7
  6
CONTINUOUS
 10
154.3143669177
 20
31.4326554237
 11
154.2565543074
 21
31.3681283335
 12
153.9674919177
 22
31.3681283335
 13
153.9674919177
 23
31.3681283335
  0
SOLID
  8
0
 62
7
  6
CONTINUOUS
 10
159.1128043074
 20
31.4326555528
 11
159.8065543074
 21
31.4971825369
 12
159.575304528
 22
31.4649197501
 13
159.575304528
 23
31.4649197501
  0
SOLID
  8
0
 62
7
  6
CONTINUOUS
 10
159.575304528
 20
31.4649197501
 11
159.4596793074
 21
31.4326555528
 12
159.1128043074
 22
31.4326555528
 13
159.1128043074
 23
31.4326555528
  0
SOLID
  8
0
 62
7
  6
CONTINUOUS
 10
159.1128043074
 20
31.3681284626
 11
159.1128043074
 21
31.4326555528
 12
159.4596793074
 22
31.4326555528
 13
159.4596793074
 23
31.4326555528
  0
SOLID
  8
0
 62
7
  6
CONTINUOUS
 10
159.4596793074
 20
31.4326555528
 11
159.401867028
 21
31.3681284626
 12
159.1128043074
 22
31.3681284626
 13
159.1128043074
 23
31.3681284626
  0
SOLID
  8
0
 62
7
  6
CONTINUOUS
 10
159.228429528
 20
31.2390741763
 11
159.1128043074
 21
31.3681284626
 12
159.401867028
 22
31.3681284626
 13
159.401867028
 23
31.3681284626
  0
SOLID
  8
0
 62
7
  6
CONTINUOUS
 10
149.6315543091
 20
31.3036012664
 11
150.1518667936
 21
31.4326554468
 12
149.9784292936
 22
31.3358640533
 13
149.9784292936
 23
31.3358640533
  0
SOLID
  8
0
 62
7
  6
CONTINUOUS
 10
149.9784292936
 20
31.3358640533
 11
149.9206168074
 21
31.2713369632
 12
149.6315543091
 22
31.3036012664
 13
149.6315543091
 23
31.3036012664
  0
SOLID
  8
0
 62
7
  6
CONTINUOUS
 10
149.5737418074
 20
31.1100184796
 11
149.6315543091
 21
31.3036012664
 12
149.9206168074
 22
31.2713369632
 13
149.9206168074
 23
31.2713369632
  0
SOLID
  8
0
 62
7
  6
CONTINUOUS
 10
154.4299918074
 20
31.2390741763
 11
154.7768668074
 21
31.271336924
 12
155.412804528
 22
31.271336924
 13
155.412804528
 23
31.271336924
  0
SOLID
  8
0
 62
7
  6
CONTINUOUS
 10
154.4299918074
 20
31.2390741763
 11
155.412804528
 21
31.271336924
 12
154.1987416972
 22
31.1745462761
 13
154.1987416972
 23
31.1745462761
  0
SOLID
  8
0
 62
7
  6
CONTINUOUS
 10
154.1987416972
 20
31.1745462761
 11
155.412804528
 21
31.271336924
 12
154.7768668074
 22
31.1422827436
 13
154.7768668074
 23
31.1422827436
  0
SOLID
  8
0
 62
7
  6
CONTINUOUS
 10
155.412804528
 20
31.271336924
 11
155.412804528
 21
31.1422827436
 12
154.7768668074
 22
31.1422827436
 13
154.7768668074
 23
31.1422827436
  0
SOLID
  8
0
 62
7
  6
CONTINUOUS
 10
159.228429528
 20
31.2390745501
 11
159.401867028
 21
31.3681283566
 12
159.4596793074
 22
31.3036012664
 13
159.4596793074
 23
31.3036012664
  0
SOLID
  8
0
 62
7
  6
CONTINUOUS
 10
159.4596793074
 20
31.3036012664
 11
159.6331168074
 21
31.2390745501
 12
159.228429528
 22
31.2390745501
 13
159.228429528
 23
31.2390745501
  0
SOLID
  8
0
 62
7
  6
CONTINUOUS
 10
159.4596793074
 20
31.1422827828
 11
159.228429528
 21
31.2390745501
 12
159.6331168074
 22
31.2390745501
 13
159.6331168074
 23
31.2390745501
  0
SOLID
  8
0
 62
7
  6
CONTINUOUS
 10
159.6331168074
 20
31.2390745501
 11
160.615929528
 21
31.0777556927
 12
159.4596793074
 22
31.1422827828
 13
159.4596793074
 23
31.1422827828
  0
SOLID
  8
0
 62
7
  6
CONTINUOUS
 10
160.442492028
 20
30.9809646623
 11
159.4596793074
 21
31.1422827828
 12
160.615929528
 22
31.0777556927
 13
160.615929528
 23
31.0777556927
  0
SOLID
  8
0
 62
7
  6
CONTINUOUS
 10
160.615929528
 20
31.0777556927
 11
160.8471793074
 21
30.9809646623
 12
160.442492028
 22
30.9809646623
 13
160.442492028
 23
30.9809646623
  0
SOLID
  8
0
 62
7
  6
CONTINUOUS
 10
160.615929528
 20
30.9164372091
 11
160.442492028
 21
30.9809646623
 12
160.8471793074
 22
30.9809646623
 13
160.8471793074
 23
30.9809646623
  0
SOLID
  8
0
 62
7
  6
CONTINUOUS
 10
160.615929528
 20
30.9164372091
 11
160.8471793074
 21
30.9809646623
 12
160.6737418074
 22
30.8519089441
 13
160.6737418074
 23
30.8519089441
  0
SOLID
  8
0
 62
7
  6
CONTINUOUS
 10
160.8471793074
 20
30.9809646623
 11
160.9628038663
 21
30.8519089441
 12
160.6737418074
 22
30.8519089441
 13
160.6737418074
 23
30.8519089441
  0
SOLID
  8
0
 62
7
  6
CONTINUOUS
 10
160.615929528
 20
30.7873818593
 11
160.6737418074
 21
30.8519089441
 12
160.9628038663
 22
30.8519089441
 13
160.9628038663
 23
30.8519089441
  0
SOLID
  8
0
 62
7
  6
CONTINUOUS
 10
160.9628038663
 20
30.8519089441
 11
160.9628038663
 21
30.7873818593
 12
160.615929528
 22
30.7873818593
 13
160.615929528
 23
30.7873818593
  0
SOLID
  8
0
 62
7
  6
CONTINUOUS
 10
160.5003043074
 20
30.7551187255
 11
160.615929528
 21
30.7873818593
 12
160.9628038663
 22
30.7873818593
 13
160.9628038663
 23
30.7873818593
  0
SOLID
  8
0
 62
7
  6
CONTINUOUS
 10
160.5003043074
 20
30.7551187255
 11
160.9628038663
 21
30.7873818593
 12
160.269054528
 22
30.7228547745
 13
160.269054528
 23
30.7228547745
  0
SOLID
  8
0
 62
7
  6
CONTINUOUS
 10
160.9628038663
 20
30.7873818593
 11
160.8471793074
 21
30.6905916353
 12
160.269054528
 22
30.7228547745
 13
160.269054528
 23
30.7228547745
  0
SOLID
  8
0
 62
7
  6
CONTINUOUS
 10
160.8471793074
 20
30.6905916353
 11
159.401867028
 21
30.658327332
 12
160.269054528
 22
30.7228547745
 13
160.269054528
 23
30.7228547745
  0
SOLID
  8
0
 62
7
  6
CONTINUOUS
 10
160.269054528
 20
30.7228547745
 11
159.401867028
 21
30.658327332
 12
159.922179528
 22
30.7228547745
 13
159.922179528
 23
30.7228547745
  0
SOLID
  8
0
 62
7
  6
CONTINUOUS
 10
159.401867028
 20
30.658327332
 11
159.228429528
 21
30.7228547745
 12
159.922179528
 22
30.7228547745
 13
159.922179528
 23
30.7228547745
  0
SOLID
  8
0
 62
7
  6
CONTINUOUS
 10
159.401867028
 20
30.658327332
 11
160.8471793074
 21
30.6905916353
 12
159.575304528
 22
30.6260629858
 13
159.575304528
 23
30.6260629858
  0
SOLID
  8
0
 62
7
  6
CONTINUOUS
 10
160.8471793074
 20
30.6905916353
 11
160.615929528
 21
30.6260629858
 12
159.575304528
 22
30.6260629858
 13
159.575304528
 23
30.6260629858
  0
SOLID
  8
0
 62
7
  6
CONTINUOUS
 10
159.922179528
 20
30.5938006049
 11
159.575304528
 21
30.6260629858
 12
160.615929528
 22
30.6260629858
 13
160.615929528
 23
30.6260629858
  0
SOLID
  8
0
 62
7
  6
CONTINUOUS
 10
160.615929528
 20
30.6260629858
 11
160.269054528
 21
30.5938006049
 12
159.922179528
 22
30.5938006049
 13
159.922179528
 23
30.5938006049
  0
SOLID
  8
0
 62
7
  6
CONTINUOUS
 10
149.5737418074
 20
31.1100184796
 11
149.9206168074
 21
31.2713369632
 12
149.8628043005
 22
31.1422827828
 13
149.8628043005
 23
31.1422827828
  0
SOLID
  8
0
 62
7
  6
CONTINUOUS
 10
149.8628043005
 20
31.1422827828
 11
149.8628043005
 21
31.0454914852
 12
149.5737418074
 22
31.1100184796
 13
149.5737418074
 23
31.1100184796
  0
SOLID
  8
0
 62
7
  6
CONTINUOUS
 10
149.6315543091
 20
30.9164372091
 11
149.5737418074
 21
31.1100184796
 12
149.8628043005
 22
31.0454914852
 13
149.8628043005
 23
31.0454914852
  0
SOLID
  8
0
 62
7
  6
CONTINUOUS
 10
149.8628043005
 20
31.0454914852
 11
149.9784292936
 21
30.8841729058
 12
149.6315543091
 22
30.9164372091
 13
149.6315543091
 23
30.9164372091
  0
SOLID
  8
0
 62
7
  6
CONTINUOUS
 10
149.7471793074
 20
30.7873813202
 11
149.6315543091
 21
30.9164372091
 12
149.9784292936
 22
30.8841729058
 13
149.9784292936
 23
30.8841729058
  0
SOLID
  8
0
 62
7
  6
CONTINUOUS
 10
149.9784292936
 20
30.8841729058
 11
150.1518667936
 21
30.7873813202
 12
149.7471793074
 22
30.7873813202
 13
149.7471793074
 23
30.7873813202
  0
SOLID
  8
0
 62
7
  6
CONTINUOUS
 10
149.8628043005
 20
30.7228547004
 11
149.7471793074
 21
30.7873813202
 12
150.1518667936
 22
30.7873813202
 13
150.1518667936
 23
30.7873813202
  0
SOLID
  8
0
 62
7
  6
CONTINUOUS
 10
150.1518667936
 20
30.7873813202
 11
150.498741835
 21
30.7228547004
 12
149.8628043005
 22
30.7228547004
 13
149.8628043005
 23
30.7228547004
  0
SOLID
  8
0
 62
7
  6
CONTINUOUS
 10
150.0362418212
 20
30.658327332
 11
149.8628043005
 21
30.7228547004
 12
150.498741835
 22
30.7228547004
 13
150.498741835
 23
30.7228547004
  0
SOLID
  8
0
 62
7
  6
CONTINUOUS
 10
154.0831168074
 20
31.1100184386
 11
154.1987416972
 21
31.1745462761
 12
154.7768668074
 22
31.1422827828
 13
154.7768668074
 23
31.1422827828
  0
SOLID
  8
0
 62
7
  6
CONTINUOUS
 10
154.7768668074
 20
31.1422827828
 11
154.5456166972
 21
31.1100184386
 12
154.0831168074
 22
31.1100184386
 13
154.0831168074
 23
31.1100184386
  0
SOLID
  8
0
 62
7
  6
CONTINUOUS
 10
153.9674919177
 20
30.9809642992
 11
154.0831168074
 21
31.1100184386
 12
154.5456166972
 22
31.1100184386
 13
154.5456166972
 23
31.1100184386
  0
SOLID
  8
0
 62
7
  6
CONTINUOUS
 10
154.3143669177
 20
31.0132277988
 11
153.9674919177
 21
30.9809642992
 12
154.4299918074
 22
31.0777556927
 13
154.4299918074
 23
31.0777556927
  0
SOLID
  8
0
 62
7
  6
CONTINUOUS
 10
153.9674919177
 20
30.9809642992
 11
154.5456166972
 21
31.1100184796
 12
154.4299918074
 22
31.0777556927
 13
154.4299918074
 23
31.0777556927
  0
SOLID
  8
0
 62
7
  6
CONTINUOUS
 10
154.3143669177
 20
31.0132277988
 11
154.2565543074
 21
30.9164372091
 12
153.9674919177
 22
30.9809642992
 13
153.9674919177
 23
30.9809642992
  0
SOLID
  8
0
 62
7
  6
CONTINUOUS
 10
153.9674919177
 20
30.8841729058
 11
153.9674919177
 21
30.9809642992
 12
154.2565543074
 22
30.9164372091
 13
154.2565543074
 23
30.9164372091
  0
SOLID
  8
0
 62
7
  6
CONTINUOUS
 10
154.2565543074
 20
30.9164372091
 11
154.2565543074
 21
30.8519086025
 12
153.9674919177
 22
30.8841729058
 13
153.9674919177
 23
30.8841729058
  0
SOLID
  8
0
 62
7
  6
CONTINUOUS
 10
154.0253041972
 20
30.7551187255
 11
153.9674919177
 21
30.8841729058
 12
154.2565543074
 22
30.8519086025
 13
154.2565543074
 23
30.8519086025
  0
SOLID
  8
0
 62
7
  6
CONTINUOUS
 10
155.412804528
 20
30.9487004259
 11
155.7018665869
 21
30.8519086025
 12
155.3549915869
 22
30.8841729058
 13
155.3549915869
 23
30.8841729058
  0
SOLID
  8
0
 62
7
  6
CONTINUOUS
 10
155.1815540869
 20
30.7873815123
 11
155.3549915869
 21
30.8841729058
 12
155.7018665869
 22
30.8519086025
 13
155.7018665869
 23
30.8519086025
  0
SOLID
  8
0
 62
7
  6
CONTINUOUS
 10
155.1815540869
 20
30.7873815123
 11
155.7018665869
 21
30.8519086025
 12
155.412804528
 22
30.7551187255
 13
155.412804528
 23
30.7551187255
  0
SOLID
  8
0
 62
7
  6
CONTINUOUS
 10
155.7018665869
 20
30.8519086025
 11
155.759679528
 21
30.6905916353
 12
155.412804528
 22
30.7551187255
 13
155.412804528
 23
30.7551187255
  0
SOLID
  8
0
 62
7
  6
CONTINUOUS
 10
155.4706168074
 20
30.658327332
 11
155.412804528
 21
30.7551187255
 12
155.759679528
 22
30.6905916353
 13
155.759679528
 23
30.6905916353
  0
SOLID
  8
0
 62
7
  6
CONTINUOUS
 10
155.4706168074
 20
30.658327332
 11
155.759679528
 21
30.6905916353
 12
155.5284290869
 22
30.5938002079
 13
155.5284290869
 23
30.5938002079
  0
SOLID
  8
0
 62
7
  6
CONTINUOUS
 10
155.759679528
 20
30.6905916353
 11
155.8174918074
 21
30.5938002079
 12
155.5284290869
 22
30.5938002079
 13
155.5284290869
 23
30.5938002079
  0
SOLID
  8
0
 62
7
  6
CONTINUOUS
 10
151.0768668626
 20
30.8196456577
 11
151.1346793074
 21
30.9164373395
 12
151.4237418626
 22
30.9164373395
 13
151.4237418626
 23
30.9164373395
  0
SOLID
  8
0
 62
7
  6
CONTINUOUS
 10
151.4237418626
 20
30.9164373395
 11
151.3659292523
 21
30.7873815123
 12
151.0768668626
 22
30.8196456577
 13
151.0768668626
 23
30.8196456577
  0
SOLID
  8
0
 62
7
  6
CONTINUOUS
 10
150.9034292799
 20
30.7551187255
 11
151.0768668626
 21
30.8196456577
 12
151.3659292523
 22
30.7873815123
 13
151.3659292523
 23
30.7873815123
  0
SOLID
  8
0
 62
7
  6
CONTINUOUS
 10
150.9034292799
 20
30.7551187255
 11
151.3659292523
 21
30.7873815123
 12
150.498741835
 22
30.7228544222
 13
150.498741835
 23
30.7228544222
  0
SOLID
  8
0
 62
7
  6
CONTINUOUS
 10
151.3659292523
 20
30.7873815123
 11
151.1924917523
 21
30.6905916353
 12
150.498741835
 22
30.7228544222
 13
150.498741835
 23
30.7228544222
  0
SOLID
  8
0
 62
7
  6
CONTINUOUS
 10
150.0362418212
 20
30.658327332
 11
150.498741835
 21
30.7228544222
 12
151.1924917523
 22
30.6905916353
 13
151.1924917523
 23
30.6905916353
  0
SOLID
  8
0
 62
7
  6
CONTINUOUS
 10
150.0362418212
 20
30.658327332
 11
151.1924917523
 21
30.6905916353
 12
150.2096793212
 22
30.6260631011
 13
150.2096793212
 23
30.6260631011
  0
SOLID
  8
0
 62
7
  6
CONTINUOUS
 10
151.1924917523
 20
30.6905916353
 11
150.9612418074
 21
30.6260631011
 12
150.2096793212
 22
30.6260631011
 13
150.2096793212
 23
30.6260631011
  0
SOLID
  8
0
 62
7
  6
CONTINUOUS
 10
150.5565542799
 20
30.5938002419
 11
150.2096793212
 21
30.6260631011
 12
150.9612418074
 22
30.6260631011
 13
150.9612418074
 23
30.6260631011
  0
SOLID
  8
0
 62
7
  6
CONTINUOUS
 10
154.0253041972
 20
30.7551187255
 11
154.2565543074
 21
30.8519086025
 12
154.3143669177
 22
30.7873815123
 13
154.3143669177
 23
30.7873815123
  0
SOLID
  8
0
 62
7
  6
CONTINUOUS
 10
154.3143669177
 20
30.7873815123
 11
154.5456166972
 21
30.7228544222
 12
154.0253041972
 22
30.7551187255
 13
154.0253041972
 23
30.7551187255
  0
SOLID
  8
0
 62
7
  6
CONTINUOUS
 10
154.1987416972
 20
30.658327332
 11
154.0253041972
 21
30.7551187255
 12
154.5456166972
 22
30.7228544222
 13
154.5456166972
 23
30.7228544222
  0
SOLID
  8
0
 62
7
  6
CONTINUOUS
 10
154.8924916972
 20
30.7228544637
 11
155.1815540869
 21
30.7873815123
 12
155.412804528
 22
30.7551187255
 13
155.412804528
 23
30.7551187255
  0
SOLID
  8
0
 62
7
  6
CONTINUOUS
 10
155.412804528
 20
30.7551187255
 11
155.3549915869
 21
30.6905916353
 12
154.8924916972
 22
30.7228544637
 13
154.8924916972
 23
30.7228544637
  0
SOLID
  8
0
 62
7
  6
CONTINUOUS
 10
155.3549915869
 20
30.6905916353
 11
154.1987416972
 21
30.658327332
 12
154.8924916972
 22
30.7228544637
 13
154.8924916972
 23
30.7228544637
  0
SOLID
  8
0
 62
7
  6
CONTINUOUS
 10
154.1987416972
 20
30.658327332
 11
154.5456166972
 21
30.7228544637
 12
154.8924916972
 22
30.7228544637
 13
154.8924916972
 23
30.7228544637
  0
SOLID
  8
0
 62
7
  6
CONTINUOUS
 10
154.1987416972
 20
30.658327332
 11
155.3549915869
 21
30.6905916353
 12
154.3143669177
 22
30.6260630541
 13
154.3143669177
 23
30.6260630541
  0
SOLID
  8
0
 62
7
  6
CONTINUOUS
 10
155.3549915869
 20
30.6905916353
 11
155.1815540869
 21
30.6260630541
 12
154.3143669177
 22
30.6260630541
 13
154.3143669177
 23
30.6260630541
  0
SOLID
  8
0
 62
7
  6
CONTINUOUS
 10
154.5456166972
 20
30.5938002188
 11
154.3143669177
 21
30.6260630541
 12
155.1815540869
 22
30.6260630541
 13
155.1815540869
 23
30.6260630541
  0
SOLID
  8
0
 62
7
  6
CONTINUOUS
 10
155.1815540869
 20
30.6260630541
 11
154.8924916972
 21
30.5938002188
 12
154.5456166972
 22
30.5938002188
 13
154.5456166972
 23
30.5938002188
  0
SOLID
  8
0
 62
7
  6
CONTINUOUS
 10
159.575304528
 20
30.7551187255
 11
159.228429528
 21
30.7228544637
 12
159.4596793074
 22
30.7873815123
 13
159.4596793074
 23
30.7873815123
  0
SOLID
  8
0
 62
7
  6
CONTINUOUS
 10
159.4596793074
 20
30.7873815123
 11
159.228429528
 21
30.7228544637
 12
159.401867028
 22
30.851908644
 13
159.401867028
 23
30.851908644
  0
SOLID
  8
0
 62
7
  6
CONTINUOUS
 10
159.228429528
 20
30.7228544637
 11
159.1128043074
 21
30.851908644
 12
159.401867028
 22
30.851908644
 13
159.401867028
 23
30.851908644
  0
SOLID
  8
0
 62
7
  6
CONTINUOUS
 10
159.575304528
 20
30.7551187255
 11
159.922179528
 21
30.7228544637
 12
159.228429528
 22
30.7228544637
 13
159.228429528
 23
30.7228544637
  0
SOLID
  8
0
 62
7
  6
CONTINUOUS
 10
156.279992028
 20
30.5938002419
 11
156.279992028
 21
31.6262382337
 12
156.5690540869
 22
30.5938002419
 13
156.5690540869
 23
31.6262382337
  0
ENDBLK
  8
0
  6
BYBLOCK
 62
0
  0
BLOCK
  8
0
 62
2
  6
CONTINUOUS
  2
AMMEAAL_LOGO_BL0
 70
64
 10
32.1213064866
 20
19.8534310916
  0
TEXT
  8
0
 62
7
  6
CONTINUOUS
 10
18.3860103289
 20
19.2268451992
  7
TEXTSTYLE_3
 40
2.7338706658
  1
Ammeraal Beltech
 41
1.0
 51
15.0
 72
0
  0
TEXT
  8
0
 62
7
  6
CONTINUOUS
 10
29.1868111546
 20
16.9533085264
  7
TEXTSTYLE_4
 40
1.0935482663
  1
Innovation & Service in Belting
 41
1.0
 72
0
  0
LINE
  8
0
 62
7
  6
CONTINUOUS
 10
12.3614696776
 20
19.9934385078
 11
13.1396216709
 21
23.6543558055
  0
LINE
  8
0
 62
7
  6
CONTINUOUS
 10
23.2347899607
 20
27.3177497171
 11
13.6274394139
 21
24.1961322958
  0
LINE
  8
0
 62
7
  6
CONTINUOUS
 10
12.5867530099
 20
19.3000877048
 11
20.093828271
 21
12.5406867788
  0
LINE
  8
0
 62
7
  6
CONTINUOUS
 10
12.8492874206
 20
20.5352149982
 11
23.6575567857
 21
24.0470345971
  0
LINE
  8
0
 62
7
  6
CONTINUOUS
 10
23.6533516486
 20
13.6972460334
 11
15.2078919798
 21
21.3015720751
  0
LINE
  8
0
 62
7
  6
CONTINUOUS
 10
24.1731743684
 20
26.4728246013
 11
23.1966148312
 21
21.8784731989
  0
LINE
  8
0
 62
7
  6
CONTINUOUS
 10
22.4968128835
 20
18.5861638851
 11
21.810364672
 21
15.3566789607
  0
LINE
  8
0
 62
7
  6
CONTINUOUS
 10
24.8542704669
 20
14.087448211
 11
25.8105020025
 21
18.5861638851
  0
LINE
  8
0
 62
7
  6
CONTINUOUS
 10
26.5103039502
 20
21.8784731989
 11
26.9545457526
 21
23.9684665583
  0
LINE
  8
0
 62
7
  6
CONTINUOUS
 10
20.8069293463
 20
12.3891124661
 11
24.3664527239
 21
13.5456717207
  0
LINE
  8
0
 62
7
  6
CONTINUOUS
 10
23.9478910361
 20
27.1661754044
 11
26.7292624203
 21
24.6618173613
  0
ARC
  8
0
 62
7
  6
CONTINUOUS
 10
13.8527227462
 20
23.5027814928
 40
0.7290321776
 50
108.0
 51
168.0
  0
ARC
  8
0
 62
7
  6
CONTINUOUS
 10
23.4600732931
 20
26.624398914
 40
0.7290321776
 50
348.0
 51
108.0
  0
ARC
  8
0
 62
7
  6
CONTINUOUS
 10
26.2414446773
 20
24.120040871
 40
0.7290321776
 50
348.0
 51
48.0
  0
ARC
  8
0
 62
7
  6
CONTINUOUS
 10
20.581646014
 20
13.0824632691
 40
0.7290321776
 50
228.0
 51
288.0
  0
ARC
  8
0
 62
7
  6
CONTINUOUS
 10
13.0745707529
 20
19.8418641951
 40
0.7290321776
 50
108.0
 51
228.0
  0
ARC
  8
0
 62
7
  6
CONTINUOUS
 10
24.1411693916
 20
14.2390225237
 40
0.7290321776
 50
228.0
 51
348.0
  0
ENDBLK
  8
0
  6
BYBLOCK
 62
0
  0
ENDSEC
  0
SECTION
  2
ENTITIES
  0
TEXT
  8
0
 62
5
  6
CONTINUOUS
 10
96.0
 20
25.636
  7
TEXTSTYLE_2
 40
2.8
  1
Scale :
 41
0.6
 51
0.000019
 72
0
  0
TEXT
  8
0
 62
5
  6
CONTINUOUS
 10
116.0
 20
25.636
  7
TEXTSTYLE_2
 40
2.8
  1
Belt type:
 41
0.6
 51
0.000019
 72
0
  0
INSERT
  8
0
 62
2
  6
CONTINUOUS
  2
AMMEAAL_LOGO_BL0
 10
32.1213064866
 20
19.8534310916
  0
INSERT
  8
0
 62
2
  6
CONTINUOUS
  2
UNI_LOGO2_BL1
 10
173.5956734183
 20
35.5937998301
  0
LINE
  8
0
 62
2
  6
CONTINUOUS
 10
10.0
 20
30.0
 11
200.0
 21
30.0
  0
LINE
  8
0
 62
2
  6
CONTINUOUS
 10
10.0
 20
30.0
 11
10.0
 21
10.0
  0
LINE
  8
0
 62
2
  6
CONTINUOUS
 10
10.0
 20
10.0
 11
200.0
 21
10.0
  0
LINE
  8
0
 62
2
  6
CONTINUOUS
 10
95.0
 20
30.0
 11
95.0
 21
10.0
  0
LINE
  8
0
 62
2
  6
CONTINUOUS
 10
115.0
 20
30.0
 11
115.0
 21
10.0
  0
LINE
  8
0
 62
2
  6
CONTINUOUS
 10
200.0
 20
30.0
 11
200.0
 21
10.0
  0
TEXT
  8
0
 62
5
  6
CONTINUOUS
 10
13.0
 20
23.303
  7
TEXTSTYLE_5
 40
1.52
  1
                                                                     Ammeraal Beltech Modular A/S
 41
1.0
 72
0
  0
TEXT
  8
0
 62
5
  6
CONTINUOUS
 10
13.0
 20
20.595
  7
TEXTSTYLE_5
 40
1.5
  1
                                                                      Hjulmagervej 21,  7100 Vejle,  DK
 41
1.0
 72
0
  0
TEXT
  8
0
 62
5
  6
CONTINUOUS
 10
13.0
 20
17.881
  7
TEXTSTYLE_5
 40
1.495
  1
                                                                      tel: 
 41
1.0
 72
0
  0
TEXT
  8
0
 62
5
  6
CONTINUOUS
 10
57.9869465649
 20
17.881
  7
TEXTSTYLE_5
 40
1.51
  1
+45 75723100     fax: +45 75723348
 41
1.0
 72
0
  0
TEXT
  8
0
 62
5
  6
CONTINUOUS
 10
13.0
 20
15.177
  7
TEXTSTYLE_5
 40
1.5
  1
                                                                      admin@unichains.dk  www.unichains.com
 41
1.0
 72
0
  0
TEXT
  8
0
 62
5
  6
CONTINUOUS
 10
99.75
 20
13.75
  7
TEXTSTYLE_6
 40
5.0
  1
1:1
 41
0.7
 72
1
 11
105.0
 21
13.75
  0
TEXT
  8
0
 62
5
  6
CONTINUOUS
 10
118.0
 20
13.75
  7
TEXTSTYLE_7
 40
7.5
  1
uni Light EP-33 K400
 41
0.485
 72
0
  0
LINE
  8
0
 62
7
  6
CONTINUOUS
 10
210.0
 20
0.0
 11
0.0
 21
0.0
  0
LINE
  8
0
 62
7
  6
CONTINUOUS
 10
10.0
 20
10.0
 11
200.0
 21
10.0
  0
LINE
  8
0
 62
7
  6
CONTINUOUS
 10
10.0
 20
30.0
 11
200.0
 21
30.0
  0
LINE
  8
0
 62
7
  6
CONTINUOUS
 10
0.0
 20
0.0
 11
0.0
 21
297.0
  0
LINE
  8
0
 62
7
  6
CONTINUOUS
 10
10.0
 20
10.0
 11
10.0
 21
287.0
  0
LINE
  8
0
 62
7
  6
CONTINUOUS
 10
200.0
 20
287.0
 11
200.0
 21
10.0
  0
LINE
  8
0
 62
7
  6
CONTINUOUS
 10
210.0
 20
0.0
 11
210.0
 21
297.0
  0
LINE
  8
0
 62
7
  6
CONTINUOUS
 10
10.0
 20
287.0
 11
200.0
 21
287.0
  0
LINE
  8
0
 62
7
  6
CONTINUOUS
 10
0.0
 20
297.0
 11
210.0
 21
297.0
  0
POLYLINE
  8
0
 62
7
  6
CONTINUOUS
 66
1
 70
0
  0
VERTEX
  8
0
 62
7
  6
CONTINUOUS
 10
35.7417507403
 20
112.479146557
  0
VERTEX
  8
0
 62
7
  6
CONTINUOUS
 10
35.7552040859
 20
112.5943522564
  0
VERTEX
  8
0
 62
7
  6
CONTINUOUS
 10
35.792827635
 20
112.6993011518
  0
VERTEX
  8
0
 62
7
  6
CONTINUOUS
 10
35.851462508
 20
112.7916767088
  0
VERTEX
  8
0
 62
7
  6
CONTINUOUS
 10
35.9288308493
 20
112.8691223792
  0
VERTEX
  8
0
 62
7
  6
CONTINUOUS
 10
36.0179546813
 20
112.9262654719
  0
VERTEX
  8
0
 62
7
  6
CONTINUOUS
 10
36.1230745349
 20
112.9648583628
  0
VERTEX
  8
0
 62
7
  6
CONTINUOUS
 10
36.2417507403
 20
112.979146557
  0
SEQEND
  0
LINE
  8
0
 62
7
  6
CONTINUOUS
 10
35.5417507403
 20
82.0934508725
 11
35.5417507403
 21
110.9097023737
  0
LINE
  8
0
 62
7
  6
CONTINUOUS
 10
35.7417507403
 20
112.479146557
 11
35.7417507403
 21
74.7534508725
  0
POLYLINE
  8
0
 62
7
  6
CONTINUOUS
 66
1
 70
0
  0
VERTEX
  8
0
 62
7
  6
CONTINUOUS
 10
38.7917511969
 20
113.9614645951
  0
VERTEX
  8
0
 62
7
  6
CONTINUOUS
 10
38.7882807501
 20
113.8348186479
  0
VERTEX
  8
0
 62
7
  6
CONTINUOUS
 10
38.7756713895
 20
113.6965465479
  0
VERTEX
  8
0
 62
7
  6
CONTINUOUS
 10
38.7534472469
 20
113.5648988408
  0
VERTEX
  8
0
 62
7
  6
CONTINUOUS
 10
38.7215307563
 20
113.4418922163
  0
VERTEX
  8
0
 62
7
  6
CONTINUOUS
 10
38.6802013228
 20
113.3294885792
  0
VERTEX
  8
0
 62
7
  6
CONTINUOUS
 10
38.6301339027
 20
113.2296416013
  0
VERTEX
  8
0
 62
7
  6
CONTINUOUS
 10
38.5721103945
 20
113.143851648
  0
VERTEX
  8
0
 62
7
  6
CONTINUOUS
 10
38.5066974336
 20
113.0733778764
  0
VERTEX
  8
0
 62
7
  6
CONTINUOUS
 10
38.4350447436
 20
113.0205270215
  0
VERTEX
  8
0
 62
7
  6
CONTINUOUS
 10
38.3591821032
 20
112.988301106
  0
VERTEX
  8
0
 62
7
  6
CONTINUOUS
 10
38.2917507403
 20
112.9791466381
  0
SEQEND
  0
POLYLINE
  8
0
 62
7
  6
CONTINUOUS
 66
1
 70
0
  0
VERTEX
  8
0
 62
7
  6
CONTINUOUS
 10
38.7917507403
 20
117.8181957439
  0
VERTEX
  8
0
 62
7
  6
CONTINUOUS
 10
38.8060504608
 20
117.8374321215
  0
VERTEX
  8
0
 62
7
  6
CONTINUOUS
 10
38.8482888628
 20
117.8553475283
  0
VERTEX
  8
0
 62
7
  6
CONTINUOUS
 10
38.9162826431
 20
117.8709777619
  0
VERTEX
  8
0
 62
7
  6
CONTINUOUS
 10
38.9588310603
 20
117.8776701009
  0
VERTEX
  8
0
 62
7
  6
CONTINUOUS
 10
39.0580390176
 20
117.8883665881
  0
VERTEX
  8
0
 62
7
  6
CONTINUOUS
 10
39.171205954
 20
117.8950270607
  0
VERTEX
  8
0
 62
7
  6
CONTINUOUS
 10
39.2917507403
 20
117.8972913535
  0
SEQEND
  0
LINE
  8
0
 62
7
  6
CONTINUOUS
 10
38.5417507403
 20
74.7534508725
 11
38.5417507403
 21
81.1254653634
  0
LINE
  8
0
 62
7
  6
CONTINUOUS
 10
38.7917507403
 20
120.3334508725
 11
38.7917507403
 21
113.9614364348
  0
LINE
  8
0
 62
7
  6
CONTINUOUS
 10
40.1267507403
 20
93.6292582305
 11
40.1267507403
 21
107.4434508725
  0
POLYLINE
  8
0
 62
7
  6
CONTINUOUS
 66
1
 70
0
  0
VERTEX
  8
0
 62
7
  6
CONTINUOUS
 10
38.5417505311
 20
81.1254282823
  0
VERTEX
  8
0
 62
7
  6
CONTINUOUS
 10
38.545220922
 20
81.2520869086
  0
VERTEX
  8
0
 62
7
  6
CONTINUOUS
 10
38.5578304989
 20
81.3903604408
  0
VERTEX
  8
0
 62
7
  6
CONTINUOUS
 10
38.5800546115
 20
81.5220055089
  0
VERTEX
  8
0
 62
7
  6
CONTINUOUS
 10
38.6119708053
 20
81.6450102083
  0
VERTEX
  8
0
 62
7
  6
CONTINUOUS
 10
38.6533003635
 20
81.7574137279
  0
VERTEX
  8
0
 62
7
  6
CONTINUOUS
 10
38.7033674913
 20
81.8572600265
  0
VERTEX
  8
0
 62
7
  6
CONTINUOUS
 10
38.7613914774
 20
81.943050444
  0
VERTEX
  8
0
 62
7
  6
CONTINUOUS
 10
38.8268042172
 20
82.0135240922
  0
VERTEX
  8
0
 62
7
  6
CONTINUOUS
 10
38.8984575332
 20
82.0663752485
  0
VERTEX
  8
0
 62
7
  6
CONTINUOUS
 10
38.9743231356
 20
82.0986016472
  0
VERTEX
  8
0
 62
7
  6
CONTINUOUS
 10
39.0417507403
 20
82.1077551049
  0
SEQEND
  0
LINE
  8
0
 62
7
  6
CONTINUOUS
 10
39.1379677259
 20
92.1930029499
 11
38.8512476784
 21
87.6192447516
  0
LINE
  8
0
 62
7
  6
CONTINUOUS
 10
38.8450964947
 20
87.6465926058
 11
39.1253689992
 21
92.0982542186
  0
LINE
  8
0
 62
7
  6
CONTINUOUS
 10
35.5417507403
 20
82.0934508725
 11
35.7417507403
 21
81.8934508725
  0
POLYLINE
  8
0
 62
7
  6
CONTINUOUS
 66
1
 70
0
  0
VERTEX
  8
0
 62
7
  6
CONTINUOUS
 10
45.1417507403
 20
77.2687060011
  0
VERTEX
  8
0
 62
7
  6
CONTINUOUS
 10
45.1560504608
 20
77.2494696235
  0
VERTEX
  8
0
 62
7
  6
CONTINUOUS
 10
45.1982888628
 20
77.2315542166
  0
VERTEX
  8
0
 62
7
  6
CONTINUOUS
 10
45.2662826431
 20
77.215923983
  0
VERTEX
  8
0
 62
7
  6
CONTINUOUS
 10
45.3088310603
 20
77.2092316441
  0
VERTEX
  8
0
 62
7
  6
CONTINUOUS
 10
45.4080390176
 20
77.1985351569
  0
VERTEX
  8
0
 62
7
  6
CONTINUOUS
 10
45.521205954
 20
77.1918746843
  0
VERTEX
  8
0
 62
7
  6
CONTINUOUS
 10
45.6417507403
 20
77.1896103914
  0
SEQEND
  0
LINE
  8
0
 62
7
  6
CONTINUOUS
 10
44.5381324813
 20
92.0982542186
 11
44.8184049858
 21
87.6465926058
  0
LINE
  8
0
 62
7
  6
CONTINUOUS
 10
43.5367507403
 20
107.4434508725
 11
43.5367507403
 21
93.6292582305
  0
LINE
  8
0
 62
7
  6
CONTINUOUS
 10
44.8917507403
 20
113.6578212711
 11
44.8917507403
 21
120.3334508725
  0
LINE
  8
0
 62
7
  6
CONTINUOUS
 10
45.1417507403
 20
81.1254653101
 11
45.1417507403
 21
74.7534508725
  0
LINE
  8
0
 62
7
  6
CONTINUOUS
 10
45.4853689992
 20
102.9886475263
 11
45.2050964947
 21
107.4403091392
  0
LINE
  8
0
 62
7
  6
CONTINUOUS
 10
46.4867507403
 20
87.6434508725
 11
46.4867507403
 21
101.4576435144
  0
LINE
  8
0
 62
7
  6
CONTINUOUS
 10
49.8967507403
 20
101.4576435144
 11
49.8967507403
 21
87.6434508725
  0
LINE
  8
0
 62
7
  6
CONTINUOUS
 10
51.2417507403
 20
74.7534508725
 11
51.2417507403
 21
81.4290804738
  0
LINE
  8
0
 62
7
  6
CONTINUOUS
 10
51.4917507403
 20
120.3334508725
 11
51.4917507403
 21
113.9614364348
  0
LINE
  8
0
 62
7
  6
CONTINUOUS
 10
52.8267507403
 20
93.6292582305
 11
52.8267507403
 21
107.4434508725
  0
POLYLINE
  8
0
 62
7
  6
CONTINUOUS
 66
1
 70
0
  0
VERTEX
  8
0
 62
7
  6
CONTINUOUS
 10
51.4917511969
 20
113.9614645951
  0
VERTEX
  8
0
 62
7
  6
CONTINUOUS
 10
51.4882807501
 20
113.8348186479
  0
VERTEX
  8
0
 62
7
  6
CONTINUOUS
 10
51.4756713895
 20
113.6965465479
  0
VERTEX
  8
0
 62
7
  6
CONTINUOUS
 10
51.4534472469
 20
113.5648988408
  0
VERTEX
  8
0
 62
7
  6
CONTINUOUS
 10
51.4215307563
 20
113.4418922163
  0
VERTEX
  8
0
 62
7
  6
CONTINUOUS
 10
51.3802013228
 20
113.3294885792
  0
VERTEX
  8
0
 62
7
  6
CONTINUOUS
 10
51.3301339027
 20
113.2296416013
  0
VERTEX
  8
0
 62
7
  6
CONTINUOUS
 10
51.2721103945
 20
113.143851648
  0
VERTEX
  8
0
 62
7
  6
CONTINUOUS
 10
51.2066974336
 20
113.0733778764
  0
VERTEX
  8
0
 62
7
  6
CONTINUOUS
 10
51.1350447436
 20
113.0205270215
  0
VERTEX
  8
0
 62
7
  6
CONTINUOUS
 10
51.0591821032
 20
112.988301106
  0
VERTEX
  8
0
 62
7
  6
CONTINUOUS
 10
50.9917507403
 20
112.9791466381
  0
SEQEND
  0
POLYLINE
  8
0
 62
7
  6
CONTINUOUS
 66
1
 70
0
  0
VERTEX
  8
0
 62
7
  6
CONTINUOUS
 10
51.2417505308
 20
81.1254281983
  0
VERTEX
  8
0
 62
7
  6
CONTINUOUS
 10
51.2452209221
 20
81.2520869321
  0
VERTEX
  8
0
 62
7
  6
CONTINUOUS
 10
51.2578305009
 20
81.3903604725
  0
VERTEX
  8
0
 62
7
  6
CONTINUOUS
 10
51.2800546131
 20
81.5220055182
  0
VERTEX
  8
0
 62
7
  6
CONTINUOUS
 10
51.3119708046
 20
81.645010206
  0
VERTEX
  8
0
 62
7
  6
CONTINUOUS
 10
51.3533003616
 20
81.7574137227
  0
VERTEX
  8
0
 62
7
  6
CONTINUOUS
 10
51.4033674808
 20
81.8572600073
  0
VERTEX
  8
0
 62
7
  6
CONTINUOUS
 10
51.4613914786
 20
81.94305044
  0
VERTEX
  8
0
 62
7
  6
CONTINUOUS
 10
51.5268041924
 20
82.013524069
  0
VERTEX
  8
0
 62
7
  6
CONTINUOUS
 10
51.5984575196
 20
82.0663752414
  0
VERTEX
  8
0
 62
7
  6
CONTINUOUS
 10
51.6743231384
 20
82.0986016479
  0
VERTEX
  8
0
 62
7
  6
CONTINUOUS
 10
51.7417507403
 20
82.1077551053
  0
SEQEND
  0
LINE
  8
0
 62
7
  6
CONTINUOUS
 10
51.1784049858
 20
107.4403091392
 11
50.8981324813
 21
102.9886475263
  0
LINE
  8
0
 62
7
  6
CONTINUOUS
 10
51.5450964947
 20
87.6465926058
 11
51.8253689992
 21
92.0982542186
  0
LINE
  8
0
 62
7
  6
CONTINUOUS
 10
43.7388470612
 20
93.1413545515
 11
44.3373996349
 21
92.5428019779
  0
LINE
  8
0
 62
7
  6
CONTINUOUS
 10
57.2381324813
 20
92.0982542186
 11
57.5184049858
 21
87.6465926058
  0
LINE
  8
0
 62
7
  6
CONTINUOUS
 10
56.2367507403
 20
107.4434508725
 11
56.2367507403
 21
93.6292582305
  0
POLYLINE
  8
0
 62
7
  6
CONTINUOUS
 66
1
 70
0
  0
VERTEX
  8
0
 62
7
  6
CONTINUOUS
 10
64.1917507403
 20
117.8181957439
  0
VERTEX
  8
0
 62
7
  6
CONTINUOUS
 10
64.2060504608
 20
117.8374321215
  0
VERTEX
  8
0
 62
7
  6
CONTINUOUS
 10
64.2482888628
 20
117.8553475283
  0
VERTEX
  8
0
 62
7
  6
CONTINUOUS
 10
64.3162826431
 20
117.8709777619
  0
VERTEX
  8
0
 62
7
  6
CONTINUOUS
 10
64.3588310603
 20
117.8776701009
  0
VERTEX
  8
0
 62
7
  6
CONTINUOUS
 10
64.4580390176
 20
117.8883665881
  0
VERTEX
  8
0
 62
7
  6
CONTINUOUS
 10
64.571205954
 20
117.8950270607
  0
VERTEX
  8
0
 62
7
  6
CONTINUOUS
 10
64.6917507403
 20
117.8972913535
  0
SEQEND
  0
LINE
  8
0
 62
7
  6
CONTINUOUS
 10
39.3261018457
 20
92.5428019779
 11
39.9246544193
 21
93.1413545515
  0
LINE
  8
0
 62
7
  6
CONTINUOUS
 10
58.1853689992
 20
102.9886475263
 11
57.9050964947
 21
107.4403091392
  0
LINE
  8
0
 62
7
  6
CONTINUOUS
 10
57.5917507403
 20
113.9614363813
 11
57.5917507403
 21
120.3334508725
  0
LINE
  8
0
 62
7
  6
CONTINUOUS
 10
57.8417507403
 20
74.7534508725
 11
57.8417507403
 21
81.1254653101
  0
LINE
  8
0
 62
7
  6
CONTINUOUS
 10
59.1867507403
 20
87.6434508725
 11
59.1867507403
 21
101.4576435144
  0
LINE
  8
0
 62
7
  6
CONTINUOUS
 10
50.6973996349
 20
102.5440997671
 11
50.0988470612
 21
101.9455471935
  0
LINE
  8
0
 62
7
  6
CONTINUOUS
 10
62.5967507403
 20
101.4576435144
 11
62.5967507403
 21
87.6434508725
  0
LINE
  8
0
 62
7
  6
CONTINUOUS
 10
63.9417507403
 20
74.7534508725
 11
63.9417507403
 21
81.1254653634
  0
LINE
  8
0
 62
7
  6
CONTINUOUS
 10
64.1917507403
 20
120.3334508725
 11
64.1917507403
 21
113.9614364348
  0
POLYLINE
  8
0
 62
7
  6
CONTINUOUS
 66
1
 70
0
  0
VERTEX
  8
0
 62
7
  6
CONTINUOUS
 10
64.1917511959
 20
113.9614644942
  0
VERTEX
  8
0
 62
7
  6
CONTINUOUS
 10
64.188280752
 20
113.834818668
  0
VERTEX
  8
0
 62
7
  6
CONTINUOUS
 10
64.1756713914
 20
113.6965465712
  0
VERTEX
  8
0
 62
7
  6
CONTINUOUS
 10
64.1534472478
 20
113.5648988459
  0
VERTEX
  8
0
 62
7
  6
CONTINUOUS
 10
64.1215307551
 20
113.4418922114
  0
VERTEX
  8
0
 62
7
  6
CONTINUOUS
 10
64.0802013205
 20
113.329488574
  0
VERTEX
  8
0
 62
7
  6
CONTINUOUS
 10
64.0301338845
 20
113.2296415712
  0
VERTEX
  8
0
 62
7
  6
CONTINUOUS
 10
63.972110398
 20
113.1438516475
  0
VERTEX
  8
0
 62
7
  6
CONTINUOUS
 10
63.9066974102
 20
113.0733778545
  0
VERTEX
  8
0
 62
7
  6
CONTINUOUS
 10
63.8350447313
 20
113.0205270136
  0
VERTEX
  8
0
 62
7
  6
CONTINUOUS
 10
63.759182107
 20
112.9883011069
  0
VERTEX
  8
0
 62
7
  6
CONTINUOUS
 10
63.6917507403
 20
112.9791466385
  0
SEQEND
  0
POLYLINE
  8
0
 62
7
  6
CONTINUOUS
 66
1
 70
0
  0
VERTEX
  8
0
 62
7
  6
CONTINUOUS
 10
63.9417505311
 20
81.1254282823
  0
VERTEX
  8
0
 62
7
  6
CONTINUOUS
 10
63.945220922
 20
81.2520869086
  0
VERTEX
  8
0
 62
7
  6
CONTINUOUS
 10
63.9578304989
 20
81.3903604408
  0
VERTEX
  8
0
 62
7
  6
CONTINUOUS
 10
63.9800546115
 20
81.5220055089
  0
VERTEX
  8
0
 62
7
  6
CONTINUOUS
 10
64.0119708053
 20
81.6450102083
  0
VERTEX
  8
0
 62
7
  6
CONTINUOUS
 10
64.0533003635
 20
81.7574137279
  0
VERTEX
  8
0
 62
7
  6
CONTINUOUS
 10
64.1033674913
 20
81.8572600265
  0
VERTEX
  8
0
 62
7
  6
CONTINUOUS
 10
64.1613914774
 20
81.943050444
  0
VERTEX
  8
0
 62
7
  6
CONTINUOUS
 10
64.2268042172
 20
82.0135240922
  0
VERTEX
  8
0
 62
7
  6
CONTINUOUS
 10
64.2984575332
 20
82.0663752485
  0
VERTEX
  8
0
 62
7
  6
CONTINUOUS
 10
64.3743231356
 20
82.0986016472
  0
VERTEX
  8
0
 62
7
  6
CONTINUOUS
 10
64.4417507403
 20
82.1077551049
  0
SEQEND
  0
LINE
  8
0
 62
7
  6
CONTINUOUS
 10
63.8784049858
 20
107.4403091392
 11
63.5981324813
 21
102.9886475263
  0
LINE
  8
0
 62
7
  6
CONTINUOUS
 10
36.2417507403
 20
74.2534508725
 11
38.0417507403
 21
74.2534508725
  0
LINE
  8
0
 62
7
  6
CONTINUOUS
 10
45.6417507403
 20
74.2534508725
 11
50.7417507403
 21
74.2534508725
  0
LINE
  8
0
 62
7
  6
CONTINUOUS
 10
58.3417507403
 20
74.2534508725
 11
63.4417507403
 21
74.2534508725
  0
LINE
  8
0
 62
7
  6
CONTINUOUS
 10
71.0417507403
 20
74.2534508725
 11
76.1417507403
 21
74.2534508725
  0
LINE
  8
0
 62
7
  6
CONTINUOUS
 10
83.7417507403
 20
74.2534508725
 11
88.8417507403
 21
74.2534508725
  0
LINE
  8
0
 62
7
  6
CONTINUOUS
 10
96.4417507403
 20
74.2534508725
 11
101.5417507403
 21
74.2534508725
  0
LINE
  8
0
 62
7
  6
CONTINUOUS
 10
109.1417507403
 20
74.2534508725
 11
114.2417507403
 21
74.2534508725
  0
LINE
  8
0
 62
7
  6
CONTINUOUS
 10
121.8417507403
 20
74.2534508725
 11
126.9417507403
 21
74.2534508725
  0
LINE
  8
0
 62
7
  6
CONTINUOUS
 10
134.5417507403
 20
74.2534508725
 11
136.3417507403
 21
74.2534508725
  0
LINE
  8
0
 62
7
  6
CONTINUOUS
 10
46.2846544193
 20
101.9455471935
 11
45.6861018457
 21
102.5440997671
  0
LINE
  8
0
 62
7
  6
CONTINUOUS
 10
56.4388470612
 20
93.1413545515
 11
57.0373996349
 21
92.5428019779
  0
POLYLINE
  8
0
 62
7
  6
CONTINUOUS
 66
1
 70
0
  0
VERTEX
  8
0
 62
7
  6
CONTINUOUS
 10
70.5417507403
 20
77.2687060011
  0
VERTEX
  8
0
 62
7
  6
CONTINUOUS
 10
70.5560504608
 20
77.2494696235
  0
VERTEX
  8
0
 62
7
  6
CONTINUOUS
 10
70.5982888628
 20
77.2315542166
  0
VERTEX
  8
0
 62
7
  6
CONTINUOUS
 10
70.6662826431
 20
77.215923983
  0
VERTEX
  8
0
 62
7
  6
CONTINUOUS
 10
70.7088310603
 20
77.2092316441
  0
VERTEX
  8
0
 62
7
  6
CONTINUOUS
 10
70.8080390176
 20
77.1985351569
  0
VERTEX
  8
0
 62
7
  6
CONTINUOUS
 10
70.921205954
 20
77.1918746843
  0
VERTEX
  8
0
 62
7
  6
CONTINUOUS
 10
71.0417507403
 20
77.1896103914
  0
SEQEND
  0
LINE
  8
0
 62
7
  6
CONTINUOUS
 10
65.5267507403
 20
93.6292582305
 11
65.5267507403
 21
107.4434508725
  0
LINE
  8
0
 62
7
  6
CONTINUOUS
 10
64.2450964947
 20
87.6465926058
 11
64.5253689992
 21
92.0982542186
  0
LINE
  8
0
 62
7
  6
CONTINUOUS
 10
64.2445103506
 20
87.6466295523
 11
64.525111418
 21
92.0982704548
  0
LINE
  8
0
 62
7
  6
CONTINUOUS
 10
52.0261018457
 20
92.5428019779
 11
52.6246544193
 21
93.1413545515
  0
LINE
  8
0
 62
7
  6
CONTINUOUS
 10
63.3973996349
 20
102.5440997671
 11
62.7988470612
 21
101.9455471935
  0
POLYLINE
  8
0
 62
7
  6
CONTINUOUS
 66
1
 70
0
  0
VERTEX
  8
0
 62
7
  6
CONTINUOUS
 10
126.9417507403
 20
77.1896103914
  0
VERTEX
  8
0
 62
7
  6
CONTINUOUS
 10
127.0622955265
 20
77.1918746843
  0
VERTEX
  8
0
 62
7
  6
CONTINUOUS
 10
127.175462463
 20
77.1985351569
  0
VERTEX
  8
0
 62
7
  6
CONTINUOUS
 10
127.2746704202
 20
77.2092316441
  0
VERTEX
  8
0
 62
7
  6
CONTINUOUS
 10
127.3172188374
 20
77.215923983
  0
VERTEX
  8
0
 62
7
  6
CONTINUOUS
 10
127.3852126178
 20
77.2315542166
  0
VERTEX
  8
0
 62
7
  6
CONTINUOUS
 10
127.4274510198
 20
77.2494696235
  0
VERTEX
  8
0
 62
7
  6
CONTINUOUS
 10
127.4417507403
 20
77.2687060011
  0
SEQEND
  0
POLYLINE
  8
0
 62
7
  6
CONTINUOUS
 66
1
 70
0
  0
VERTEX
  8
0
 62
7
  6
CONTINUOUS
 10
114.2417507403
 20
77.1896103914
  0
VERTEX
  8
0
 62
7
  6
CONTINUOUS
 10
114.3622955265
 20
77.1918746843
  0
VERTEX
  8
0
 62
7
  6
CONTINUOUS
 10
114.475462463
 20
77.1985351569
  0
VERTEX
  8
0
 62
7
  6
CONTINUOUS
 10
114.5746704202
 20
77.2092316441
  0
VERTEX
  8
0
 62
7
  6
CONTINUOUS
 10
114.6172188374
 20
77.215923983
  0
VERTEX
  8
0
 62
7
  6
CONTINUOUS
 10
114.6852126178
 20
77.2315542166
  0
VERTEX
  8
0
 62
7
  6
CONTINUOUS
 10
114.7274510198
 20
77.2494696235
  0
VERTEX
  8
0
 62
7
  6
CONTINUOUS
 10
114.7417507403
 20
77.2687060011
  0
SEQEND
  0
POLYLINE
  8
0
 62
7
  6
CONTINUOUS
 66
1
 70
0
  0
VERTEX
  8
0
 62
7
  6
CONTINUOUS
 10
101.5417507403
 20
77.1896103914
  0
VERTEX
  8
0
 62
7
  6
CONTINUOUS
 10
101.6622955265
 20
77.1918746843
  0
VERTEX
  8
0
 62
7
  6
CONTINUOUS
 10
101.775462463
 20
77.1985351569
  0
VERTEX
  8
0
 62
7
  6
CONTINUOUS
 10
101.8746704202
 20
77.2092316441
  0
VERTEX
  8
0
 62
7
  6
CONTINUOUS
 10
101.9172188374
 20
77.215923983
  0
VERTEX
  8
0
 62
7
  6
CONTINUOUS
 10
101.9852126178
 20
77.2315542166
  0
VERTEX
  8
0
 62
7
  6
CONTINUOUS
 10
102.0274510198
 20
77.2494696235
  0
VERTEX
  8
0
 62
7
  6
CONTINUOUS
 10
102.0417507403
 20
77.2687060011
  0
SEQEND
  0
POLYLINE
  8
0
 62
7
  6
CONTINUOUS
 66
1
 70
0
  0
VERTEX
  8
0
 62
7
  6
CONTINUOUS
 10
88.8417507403
 20
77.1896103914
  0
VERTEX
  8
0
 62
7
  6
CONTINUOUS
 10
88.9622955265
 20
77.1918746843
  0
VERTEX
  8
0
 62
7
  6
CONTINUOUS
 10
89.075462463
 20
77.1985351569
  0
VERTEX
  8
0
 62
7
  6
CONTINUOUS
 10
89.1746704202
 20
77.2092316441
  0
VERTEX
  8
0
 62
7
  6
CONTINUOUS
 10
89.2172188374
 20
77.215923983
  0
VERTEX
  8
0
 62
7
  6
CONTINUOUS
 10
89.2852126178
 20
77.2315542166
  0
VERTEX
  8
0
 62
7
  6
CONTINUOUS
 10
89.3274510198
 20
77.2494696235
  0
VERTEX
  8
0
 62
7
  6
CONTINUOUS
 10
89.3417507403
 20
77.2687060011
  0
SEQEND
  0
POLYLINE
  8
0
 62
7
  6
CONTINUOUS
 66
1
 70
0
  0
VERTEX
  8
0
 62
7
  6
CONTINUOUS
 10
76.1417507403
 20
77.1896103914
  0
VERTEX
  8
0
 62
7
  6
CONTINUOUS
 10
76.2622955265
 20
77.1918746843
  0
VERTEX
  8
0
 62
7
  6
CONTINUOUS
 10
76.375462463
 20
77.1985351569
  0
VERTEX
  8
0
 62
7
  6
CONTINUOUS
 10
76.4746704202
 20
77.2092316441
  0
VERTEX
  8
0
 62
7
  6
CONTINUOUS
 10
76.5172188374
 20
77.215923983
  0
VERTEX
  8
0
 62
7
  6
CONTINUOUS
 10
76.5852126178
 20
77.2315542166
  0
VERTEX
  8
0
 62
7
  6
CONTINUOUS
 10
76.6274510198
 20
77.2494696235
  0
VERTEX
  8
0
 62
7
  6
CONTINUOUS
 10
76.6417507403
 20
77.2687060011
  0
SEQEND
  0
POLYLINE
  8
0
 62
7
  6
CONTINUOUS
 66
1
 70
0
  0
VERTEX
  8
0
 62
7
  6
CONTINUOUS
 10
63.4417507403
 20
77.1896103914
  0
VERTEX
  8
0
 62
7
  6
CONTINUOUS
 10
63.5622955265
 20
77.1918746843
  0
VERTEX
  8
0
 62
7
  6
CONTINUOUS
 10
63.675462463
 20
77.1985351569
  0
VERTEX
  8
0
 62
7
  6
CONTINUOUS
 10
63.7746704202
 20
77.2092316441
  0
VERTEX
  8
0
 62
7
  6
CONTINUOUS
 10
63.8172188374
 20
77.215923983
  0
VERTEX
  8
0
 62
7
  6
CONTINUOUS
 10
63.8852126178
 20
77.2315542166
  0
VERTEX
  8
0
 62
7
  6
CONTINUOUS
 10
63.9274510198
 20
77.2494696235
  0
VERTEX
  8
0
 62
7
  6
CONTINUOUS
 10
63.9417507403
 20
77.2687060011
  0
SEQEND
  0
POLYLINE
  8
0
 62
7
  6
CONTINUOUS
 66
1
 70
0
  0
VERTEX
  8
0
 62
7
  6
CONTINUOUS
 10
38.0417507403
 20
77.1896103914
  0
VERTEX
  8
0
 62
7
  6
CONTINUOUS
 10
38.1622955265
 20
77.1918746843
  0
VERTEX
  8
0
 62
7
  6
CONTINUOUS
 10
38.275462463
 20
77.1985351569
  0
VERTEX
  8
0
 62
7
  6
CONTINUOUS
 10
38.3746704202
 20
77.2092316441
  0
VERTEX
  8
0
 62
7
  6
CONTINUOUS
 10
38.4172188374
 20
77.215923983
  0
VERTEX
  8
0
 62
7
  6
CONTINUOUS
 10
38.4852126178
 20
77.2315542166
  0
VERTEX
  8
0
 62
7
  6
CONTINUOUS
 10
38.5274510198
 20
77.2494696235
  0
VERTEX
  8
0
 62
7
  6
CONTINUOUS
 10
38.5417507403
 20
77.2687060011
  0
SEQEND
  0
LINE
  8
0
 62
7
  6
CONTINUOUS
 10
36.2417507403
 20
77.1896103914
 11
38.0417507403
 21
77.1896103914
  0
LINE
  8
0
 62
7
  6
CONTINUOUS
 10
45.6417507403
 20
77.1896103914
 11
50.7417507403
 21
77.1896103914
  0
LINE
  8
0
 62
7
  6
CONTINUOUS
 10
58.3417507403
 20
77.1896103914
 11
63.4417507403
 21
77.1896103914
  0
LINE
  8
0
 62
7
  6
CONTINUOUS
 10
71.0417507403
 20
77.1896103914
 11
76.1417507403
 21
77.1896103914
  0
LINE
  8
0
 62
7
  6
CONTINUOUS
 10
83.7417507403
 20
77.1896103914
 11
88.8417507403
 21
77.1896103914
  0
LINE
  8
0
 62
7
  6
CONTINUOUS
 10
96.4417507403
 20
77.1896103914
 11
101.5417507403
 21
77.1896103914
  0
LINE
  8
0
 62
7
  6
CONTINUOUS
 10
109.1417507403
 20
77.1896103914
 11
114.2417507403
 21
77.1896103914
  0
LINE
  8
0
 62
7
  6
CONTINUOUS
 10
121.8417507403
 20
77.1896103914
 11
126.9417507403
 21
77.1896103914
  0
LINE
  8
0
 62
7
  6
CONTINUOUS
 10
134.5417507403
 20
77.1896103914
 11
136.3417507403
 21
77.1896103914
  0
LINE
  8
1_AXIS
 62
2
  6
CENTER
 10
30.4271711891
 20
78.4934508725
 11
140.8113472965
 21
78.4934508725
  0
POLYLINE
  8
0
 62
7
  6
CONTINUOUS
 66
1
 70
0
  0
VERTEX
  8
0
 62
7
  6
CONTINUOUS
 10
36.2417507403
 20
77.1896103914
  0
VERTEX
  8
0
 62
7
  6
CONTINUOUS
 10
36.121205954
 20
77.1918746843
  0
VERTEX
  8
0
 62
7
  6
CONTINUOUS
 10
36.0080390176
 20
77.1985351569
  0
VERTEX
  8
0
 62
7
  6
CONTINUOUS
 10
35.9088310603
 20
77.2092316441
  0
VERTEX
  8
0
 62
7
  6
CONTINUOUS
 10
35.8662826431
 20
77.215923983
  0
VERTEX
  8
0
 62
7
  6
CONTINUOUS
 10
35.7982888628
 20
77.2315542166
  0
VERTEX
  8
0
 62
7
  6
CONTINUOUS
 10
35.7560504608
 20
77.2494696235
  0
VERTEX
  8
0
 62
7
  6
CONTINUOUS
 10
35.7417507403
 20
77.2687060011
  0
SEQEND
  0
POLYLINE
  8
0
 62
7
  6
CONTINUOUS
 66
1
 70
0
  0
VERTEX
  8
0
 62
7
  6
CONTINUOUS
 10
58.3417507403
 20
77.1896103914
  0
VERTEX
  8
0
 62
7
  6
CONTINUOUS
 10
58.221205954
 20
77.1918746843
  0
VERTEX
  8
0
 62
7
  6
CONTINUOUS
 10
58.1080390176
 20
77.1985351569
  0
VERTEX
  8
0
 62
7
  6
CONTINUOUS
 10
58.0088310603
 20
77.2092316441
  0
VERTEX
  8
0
 62
7
  6
CONTINUOUS
 10
57.9662826431
 20
77.215923983
  0
VERTEX
  8
0
 62
7
  6
CONTINUOUS
 10
57.8982888628
 20
77.2315542166
  0
VERTEX
  8
0
 62
7
  6
CONTINUOUS
 10
57.8560504608
 20
77.2494696235
  0
VERTEX
  8
0
 62
7
  6
CONTINUOUS
 10
57.8417507403
 20
77.2687060011
  0
SEQEND
  0
POLYLINE
  8
0
 62
7
  6
CONTINUOUS
 66
1
 70
0
  0
VERTEX
  8
0
 62
7
  6
CONTINUOUS
 10
44.6417507358
 20
82.1077551073
  0
VERTEX
  8
0
 62
7
  6
CONTINUOUS
 10
44.7085398649
 20
82.0987740582
  0
VERTEX
  8
0
 62
7
  6
CONTINUOUS
 10
44.7844224227
 20
82.066735197
  0
VERTEX
  8
0
 62
7
  6
CONTINUOUS
 10
44.8561228815
 20
82.0140419242
  0
VERTEX
  8
0
 62
7
  6
CONTINUOUS
 10
44.921595932
 20
81.9437016834
  0
VERTEX
  8
0
 62
7
  6
CONTINUOUS
 10
44.97968462
 20
81.8580308312
  0
VERTEX
  8
0
 62
7
  6
CONTINUOUS
 10
45.0298220121
 20
81.7582927605
  0
VERTEX
  8
0
 62
7
  6
CONTINUOUS
 10
45.0712242032
 20
81.6459939691
  0
VERTEX
  8
0
 62
7
  6
CONTINUOUS
 10
45.103216311
 20
81.5230892802
  0
VERTEX
  8
0
 62
7
  6
CONTINUOUS
 10
45.1255183981
 20
81.3915433344
  0
VERTEX
  8
0
 62
7
  6
CONTINUOUS
 10
45.1382078203
 20
81.2533744892
  0
VERTEX
  8
0
 62
7
  6
CONTINUOUS
 10
45.1417511992
 20
81.125437534
  0
SEQEND
  0
POLYLINE
  8
0
 62
7
  6
CONTINUOUS
 66
1
 70
0
  0
VERTEX
  8
0
 62
7
  6
CONTINUOUS
 10
57.3417507358
 20
82.1077551077
  0
VERTEX
  8
0
 62
7
  6
CONTINUOUS
 10
57.4085398619
 20
82.0987740589
  0
VERTEX
  8
0
 62
7
  6
CONTINUOUS
 10
57.484422436
 20
82.0667351884
  0
VERTEX
  8
0
 62
7
  6
CONTINUOUS
 10
57.5561229034
 20
82.0140419035
  0
VERTEX
  8
0
 62
7
  6
CONTINUOUS
 10
57.6215959229
 20
81.9437016905
  0
VERTEX
  8
0
 62
7
  6
CONTINUOUS
 10
57.6796846335
 20
81.8580308087
  0
VERTEX
  8
0
 62
7
  6
CONTINUOUS
 10
57.7298220137
 20
81.7582927572
  0
VERTEX
  8
0
 62
7
  6
CONTINUOUS
 10
57.7712242045
 20
81.6459939647
  0
VERTEX
  8
0
 62
7
  6
CONTINUOUS
 10
57.8032163104
 20
81.5230892851
  0
VERTEX
  8
0
 62
7
  6
CONTINUOUS
 10
57.8255183964
 20
81.3915433571
  0
VERTEX
  8
0
 62
7
  6
CONTINUOUS
 10
57.838207818
 20
81.2533745113
  0
VERTEX
  8
0
 62
7
  6
CONTINUOUS
 10
57.8417512004
 20
81.1254374174
  0
SEQEND
  0
POLYLINE
  8
0
 62
7
  6
CONTINUOUS
 66
1
 70
0
  0
VERTEX
  8
0
 62
7
  6
CONTINUOUS
 10
44.8917507403
 20
117.8181957439
  0
VERTEX
  8
0
 62
7
  6
CONTINUOUS
 10
44.8774510198
 20
117.8374321215
  0
VERTEX
  8
0
 62
7
  6
CONTINUOUS
 10
44.8352126178
 20
117.8553475283
  0
VERTEX
  8
0
 62
7
  6
CONTINUOUS
 10
44.7672188374
 20
117.8709777619
  0
VERTEX
  8
0
 62
7
  6
CONTINUOUS
 10
44.7246704202
 20
117.8776701009
  0
VERTEX
  8
0
 62
7
  6
CONTINUOUS
 10
44.625462463
 20
117.8883665881
  0
VERTEX
  8
0
 62
7
  6
CONTINUOUS
 10
44.5122955265
 20
117.8950270607
  0
VERTEX
  8
0
 62
7
  6
CONTINUOUS
 10
44.3917507403
 20
117.8972913535
  0
SEQEND
  0
LINE
  8
0
 62
7
  6
CONTINUOUS
 10
69.9381324813
 20
92.0982542186
 11
70.2184049858
 21
87.6465926058
  0
LINE
  8
0
 62
7
  6
CONTINUOUS
 10
70.8853689992
 20
102.9886475263
 11
70.6050964947
 21
107.4403091392
  0
LINE
  8
0
 62
7
  6
CONTINUOUS
 10
68.9367507403
 20
107.4434508725
 11
68.9367507403
 21
93.6292582305
  0
LINE
  8
0
 62
7
  6
CONTINUOUS
 10
70.2917507403
 20
113.9614363815
 11
70.2917507403
 21
120.3334508725
  0
LINE
  8
0
 62
7
  6
CONTINUOUS
 10
70.5417507403
 20
74.7534508725
 11
70.5417507403
 21
81.1254653101
  0
LINE
  8
0
 62
7
  6
CONTINUOUS
 10
71.8867507403
 20
87.6434508725
 11
71.8867507403
 21
101.4576435144
  0
POLYLINE
  8
0
 62
7
  6
CONTINUOUS
 66
1
 70
0
  0
VERTEX
  8
0
 62
7
  6
CONTINUOUS
 10
51.2417507403
 20
77.2687060011
  0
VERTEX
  8
0
 62
7
  6
CONTINUOUS
 10
51.2274510198
 20
77.2494696235
  0
VERTEX
  8
0
 62
7
  6
CONTINUOUS
 10
51.1852126178
 20
77.2315542166
  0
VERTEX
  8
0
 62
7
  6
CONTINUOUS
 10
51.1172188374
 20
77.215923983
  0
VERTEX
  8
0
 62
7
  6
CONTINUOUS
 10
51.0746704202
 20
77.2092316441
  0
VERTEX
  8
0
 62
7
  6
CONTINUOUS
 10
50.975462463
 20
77.1985351569
  0
VERTEX
  8
0
 62
7
  6
CONTINUOUS
 10
50.8622955265
 20
77.1918746843
  0
VERTEX
  8
0
 62
7
  6
CONTINUOUS
 10
50.7417507403
 20
77.1896103914
  0
SEQEND
  0
LINE
  8
0
 62
7
  6
CONTINUOUS
 10
39.0417507403
 20
82.1077551879
 11
44.6417507358
 21
82.1077551879
  0
LINE
  8
0
 62
7
  6
CONTINUOUS
 10
51.7417507403
 20
82.1077551879
 11
57.3417507358
 21
82.1077551879
  0
LINE
  8
0
 62
7
  6
CONTINUOUS
 10
64.4417507403
 20
82.1077551879
 11
70.0417507358
 21
82.1077551879
  0
LINE
  8
0
 62
7
  6
CONTINUOUS
 10
77.1417507403
 20
82.1077551879
 11
82.7417507358
 21
82.1077551879
  0
LINE
  8
0
 62
7
  6
CONTINUOUS
 10
89.8417507403
 20
82.1077551879
 11
95.4417507358
 21
82.1077551879
  0
LINE
  8
0
 62
7
  6
CONTINUOUS
 10
102.5417507403
 20
82.1077551879
 11
108.1417507358
 21
82.1077551879
  0
LINE
  8
0
 62
7
  6
CONTINUOUS
 10
115.2417507403
 20
82.1077551879
 11
120.8417507358
 21
82.1077551879
  0
LINE
  8
0
 62
7
  6
CONTINUOUS
 10
127.9417507403
 20
82.1077551879
 11
133.5417507358
 21
82.1077551879
  0
LINE
  8
0
 62
7
  6
CONTINUOUS
 10
35.5417507403
 20
83.0294724899
 11
35.7417507403
 21
83.0294724899
  0
LINE
  8
0
 62
7
  6
CONTINUOUS
 10
136.8417507403
 20
83.0294724899
 11
137.0417507403
 21
83.0294724899
  0
POLYLINE
  8
0
 62
7
  6
CONTINUOUS
 66
1
 70
0
  0
VERTEX
  8
0
 62
7
  6
CONTINUOUS
 10
70.0417507358
 20
82.1077551073
  0
VERTEX
  8
0
 62
7
  6
CONTINUOUS
 10
70.1085398649
 20
82.0987740582
  0
VERTEX
  8
0
 62
7
  6
CONTINUOUS
 10
70.1844224227
 20
82.066735197
  0
VERTEX
  8
0
 62
7
  6
CONTINUOUS
 10
70.2561228815
 20
82.0140419242
  0
VERTEX
  8
0
 62
7
  6
CONTINUOUS
 10
70.321595932
 20
81.9437016834
  0
VERTEX
  8
0
 62
7
  6
CONTINUOUS
 10
70.37968462
 20
81.8580308312
  0
VERTEX
  8
0
 62
7
  6
CONTINUOUS
 10
70.4298220121
 20
81.7582927605
  0
VERTEX
  8
0
 62
7
  6
CONTINUOUS
 10
70.4712242032
 20
81.6459939691
  0
VERTEX
  8
0
 62
7
  6
CONTINUOUS
 10
70.503216311
 20
81.5230892802
  0
VERTEX
  8
0
 62
7
  6
CONTINUOUS
 10
70.5255183981
 20
81.3915433344
  0
VERTEX
  8
0
 62
7
  6
CONTINUOUS
 10
70.5382078203
 20
81.2533744892
  0
VERTEX
  8
0
 62
7
  6
CONTINUOUS
 10
70.5417511992
 20
81.125437534
  0
SEQEND
  0
POLYLINE
  8
0
 62
7
  6
CONTINUOUS
 66
1
 70
0
  0
VERTEX
  8
0
 62
7
  6
CONTINUOUS
 10
82.7417507358
 20
82.1077551077
  0
VERTEX
  8
0
 62
7
  6
CONTINUOUS
 10
82.8085398619
 20
82.0987740589
  0
VERTEX
  8
0
 62
7
  6
CONTINUOUS
 10
82.884422436
 20
82.0667351884
  0
VERTEX
  8
0
 62
7
  6
CONTINUOUS
 10
82.9561229034
 20
82.0140419035
  0
VERTEX
  8
0
 62
7
  6
CONTINUOUS
 10
83.0215959229
 20
81.9437016905
  0
VERTEX
  8
0
 62
7
  6
CONTINUOUS
 10
83.0796846335
 20
81.8580308087
  0
VERTEX
  8
0
 62
7
  6
CONTINUOUS
 10
83.1298220137
 20
81.7582927572
  0
VERTEX
  8
0
 62
7
  6
CONTINUOUS
 10
83.1712242045
 20
81.6459939647
  0
VERTEX
  8
0
 62
7
  6
CONTINUOUS
 10
83.2032163104
 20
81.5230892851
  0
VERTEX
  8
0
 62
7
  6
CONTINUOUS
 10
83.2255183964
 20
81.3915433571
  0
VERTEX
  8
0
 62
7
  6
CONTINUOUS
 10
83.238207818
 20
81.2533745113
  0
VERTEX
  8
0
 62
7
  6
CONTINUOUS
 10
83.2417512004
 20
81.1254374174
  0
SEQEND
  0
LINE
  8
0
 62
7
  6
CONTINUOUS
 10
58.9846544193
 20
101.9455471935
 11
58.3861018457
 21
102.5440997671
  0
LINE
  8
0
 62
7
  6
CONTINUOUS
 10
69.1388470612
 20
93.1413545515
 11
69.7373996349
 21
92.5428019779
  0
POLYLINE
  8
0
 62
7
  6
CONTINUOUS
 66
1
 70
0
  0
VERTEX
  8
0
 62
7
  6
CONTINUOUS
 10
83.2417507403
 20
77.2687060011
  0
VERTEX
  8
0
 62
7
  6
CONTINUOUS
 10
83.2560504608
 20
77.2494696235
  0
VERTEX
  8
0
 62
7
  6
CONTINUOUS
 10
83.2982888628
 20
77.2315542166
  0
VERTEX
  8
0
 62
7
  6
CONTINUOUS
 10
83.3662826431
 20
77.215923983
  0
VERTEX
  8
0
 62
7
  6
CONTINUOUS
 10
83.4088310603
 20
77.2092316441
  0
VERTEX
  8
0
 62
7
  6
CONTINUOUS
 10
83.5080390176
 20
77.1985351569
  0
VERTEX
  8
0
 62
7
  6
CONTINUOUS
 10
83.621205954
 20
77.1918746843
  0
VERTEX
  8
0
 62
7
  6
CONTINUOUS
 10
83.7417507403
 20
77.1896103914
  0
SEQEND
  0
LINE
  8
0
 62
7
  6
CONTINUOUS
 10
75.2967507403
 20
101.4576435144
 11
75.2967507403
 21
87.6434508725
  0
LINE
  8
0
 62
7
  6
CONTINUOUS
 10
64.7261018457
 20
92.5428019779
 11
65.3246544193
 21
93.1413545515
  0
LINE
  8
0
 62
7
  6
CONTINUOUS
 10
76.0973996349
 20
102.5440997671
 11
75.4988470612
 21
101.9455471935
  0
POLYLINE
  8
0
 62
7
  6
CONTINUOUS
 66
1
 70
0
  0
VERTEX
  8
0
 62
7
  6
CONTINUOUS
 10
95.4417507358
 20
82.1077551073
  0
VERTEX
  8
0
 62
7
  6
CONTINUOUS
 10
95.5085398649
 20
82.0987740582
  0
VERTEX
  8
0
 62
7
  6
CONTINUOUS
 10
95.5844224227
 20
82.066735197
  0
VERTEX
  8
0
 62
7
  6
CONTINUOUS
 10
95.6561228815
 20
82.0140419242
  0
VERTEX
  8
0
 62
7
  6
CONTINUOUS
 10
95.721595932
 20
81.9437016834
  0
VERTEX
  8
0
 62
7
  6
CONTINUOUS
 10
95.77968462
 20
81.8580308312
  0
VERTEX
  8
0
 62
7
  6
CONTINUOUS
 10
95.8298220121
 20
81.7582927605
  0
VERTEX
  8
0
 62
7
  6
CONTINUOUS
 10
95.8712242032
 20
81.6459939691
  0
VERTEX
  8
0
 62
7
  6
CONTINUOUS
 10
95.903216311
 20
81.5230892802
  0
VERTEX
  8
0
 62
7
  6
CONTINUOUS
 10
95.9255183981
 20
81.3915433344
  0
VERTEX
  8
0
 62
7
  6
CONTINUOUS
 10
95.9382078203
 20
81.2533744892
  0
VERTEX
  8
0
 62
7
  6
CONTINUOUS
 10
95.9417511992
 20
81.125437534
  0
SEQEND
  0
POLYLINE
  8
0
 62
7
  6
CONTINUOUS
 66
1
 70
0
  0
VERTEX
  8
0
 62
7
  6
CONTINUOUS
 10
108.1417507358
 20
82.1077551077
  0
VERTEX
  8
0
 62
7
  6
CONTINUOUS
 10
108.2085398619
 20
82.0987740589
  0
VERTEX
  8
0
 62
7
  6
CONTINUOUS
 10
108.284422436
 20
82.0667351884
  0
VERTEX
  8
0
 62
7
  6
CONTINUOUS
 10
108.3561229034
 20
82.0140419035
  0
VERTEX
  8
0
 62
7
  6
CONTINUOUS
 10
108.4215959229
 20
81.9437016905
  0
VERTEX
  8
0
 62
7
  6
CONTINUOUS
 10
108.4796846335
 20
81.8580308087
  0
VERTEX
  8
0
 62
7
  6
CONTINUOUS
 10
108.5298220137
 20
81.7582927572
  0
VERTEX
  8
0
 62
7
  6
CONTINUOUS
 10
108.5712242045
 20
81.6459939647
  0
VERTEX
  8
0
 62
7
  6
CONTINUOUS
 10
108.6032163104
 20
81.5230892851
  0
VERTEX
  8
0
 62
7
  6
CONTINUOUS
 10
108.6255183964
 20
81.3915433571
  0
VERTEX
  8
0
 62
7
  6
CONTINUOUS
 10
108.638207818
 20
81.2533745113
  0
VERTEX
  8
0
 62
7
  6
CONTINUOUS
 10
108.6417512004
 20
81.1254374174
  0
SEQEND
  0
POLYLINE
  8
0
 62
7
  6
CONTINUOUS
 66
1
 70
0
  0
VERTEX
  8
0
 62
7
  6
CONTINUOUS
 10
120.8417507358
 20
82.1077551073
  0
VERTEX
  8
0
 62
7
  6
CONTINUOUS
 10
120.9085398649
 20
82.0987740582
  0
VERTEX
  8
0
 62
7
  6
CONTINUOUS
 10
120.9844224227
 20
82.066735197
  0
VERTEX
  8
0
 62
7
  6
CONTINUOUS
 10
121.0561228815
 20
82.0140419242
  0
VERTEX
  8
0
 62
7
  6
CONTINUOUS
 10
121.121595932
 20
81.9437016834
  0
VERTEX
  8
0
 62
7
  6
CONTINUOUS
 10
121.17968462
 20
81.8580308312
  0
VERTEX
  8
0
 62
7
  6
CONTINUOUS
 10
121.2298220121
 20
81.7582927605
  0
VERTEX
  8
0
 62
7
  6
CONTINUOUS
 10
121.2712242032
 20
81.6459939691
  0
VERTEX
  8
0
 62
7
  6
CONTINUOUS
 10
121.303216311
 20
81.5230892802
  0
VERTEX
  8
0
 62
7
  6
CONTINUOUS
 10
121.3255183981
 20
81.3915433344
  0
VERTEX
  8
0
 62
7
  6
CONTINUOUS
 10
121.3382078203
 20
81.2533744892
  0
VERTEX
  8
0
 62
7
  6
CONTINUOUS
 10
121.3417511992
 20
81.125437534
  0
SEQEND
  0
LINE
  8
0
 62
7
  6
CONTINUOUS
 10
76.6417507403
 20
74.7534508725
 11
76.6417507403
 21
81.1254653635
  0
LINE
  8
0
 62
7
  6
CONTINUOUS
 10
76.8917507403
 20
120.3334508725
 11
76.8917507403
 21
113.9614364348
  0
LINE
  8
0
 62
7
  6
CONTINUOUS
 10
78.2267507403
 20
93.6292582305
 11
78.2267507403
 21
107.4434508725
  0
POLYLINE
  8
0
 62
7
  6
CONTINUOUS
 66
1
 70
0
  0
VERTEX
  8
0
 62
7
  6
CONTINUOUS
 10
76.8917511969
 20
113.9614645951
  0
VERTEX
  8
0
 62
7
  6
CONTINUOUS
 10
76.8882807501
 20
113.8348186479
  0
VERTEX
  8
0
 62
7
  6
CONTINUOUS
 10
76.8756713895
 20
113.6965465479
  0
VERTEX
  8
0
 62
7
  6
CONTINUOUS
 10
76.8534472469
 20
113.5648988408
  0
VERTEX
  8
0
 62
7
  6
CONTINUOUS
 10
76.8215307563
 20
113.4418922163
  0
VERTEX
  8
0
 62
7
  6
CONTINUOUS
 10
76.7802013228
 20
113.3294885792
  0
VERTEX
  8
0
 62
7
  6
CONTINUOUS
 10
76.7301339027
 20
113.2296416013
  0
VERTEX
  8
0
 62
7
  6
CONTINUOUS
 10
76.6721103945
 20
113.143851648
  0
VERTEX
  8
0
 62
7
  6
CONTINUOUS
 10
76.6066974336
 20
113.0733778764
  0
VERTEX
  8
0
 62
7
  6
CONTINUOUS
 10
76.5350447436
 20
113.0205270215
  0
VERTEX
  8
0
 62
7
  6
CONTINUOUS
 10
76.4591821032
 20
112.988301106
  0
VERTEX
  8
0
 62
7
  6
CONTINUOUS
 10
76.3917507403
 20
112.9791466381
  0
SEQEND
  0
POLYLINE
  8
0
 62
7
  6
CONTINUOUS
 66
1
 70
0
  0
VERTEX
  8
0
 62
7
  6
CONTINUOUS
 10
76.6417505308
 20
81.1254281983
  0
VERTEX
  8
0
 62
7
  6
CONTINUOUS
 10
76.6452209221
 20
81.2520869321
  0
VERTEX
  8
0
 62
7
  6
CONTINUOUS
 10
76.6578305009
 20
81.3903604725
  0
VERTEX
  8
0
 62
7
  6
CONTINUOUS
 10
76.6800546131
 20
81.5220055182
  0
VERTEX
  8
0
 62
7
  6
CONTINUOUS
 10
76.7119708046
 20
81.645010206
  0
VERTEX
  8
0
 62
7
  6
CONTINUOUS
 10
76.7533003616
 20
81.7574137227
  0
VERTEX
  8
0
 62
7
  6
CONTINUOUS
 10
76.8033674808
 20
81.8572600073
  0
VERTEX
  8
0
 62
7
  6
CONTINUOUS
 10
76.8613914786
 20
81.94305044
  0
VERTEX
  8
0
 62
7
  6
CONTINUOUS
 10
76.9268041924
 20
82.013524069
  0
VERTEX
  8
0
 62
7
  6
CONTINUOUS
 10
76.9984575196
 20
82.0663752414
  0
VERTEX
  8
0
 62
7
  6
CONTINUOUS
 10
77.0743231384
 20
82.0986016479
  0
VERTEX
  8
0
 62
7
  6
CONTINUOUS
 10
77.1417507403
 20
82.1077551053
  0
SEQEND
  0
LINE
  8
0
 62
7
  6
CONTINUOUS
 10
76.5784049858
 20
107.4403091392
 11
76.2981324813
 21
102.9886475263
  0
LINE
  8
0
 62
7
  6
CONTINUOUS
 10
76.9450964947
 20
87.6465926058
 11
77.2253689992
 21
92.0982542186
  0
POLYLINE
  8
0
 62
7
  6
CONTINUOUS
 66
1
 70
0
  0
VERTEX
  8
0
 62
7
  6
CONTINUOUS
 10
89.5917507403
 20
117.8181957439
  0
VERTEX
  8
0
 62
7
  6
CONTINUOUS
 10
89.6060504608
 20
117.8374321215
  0
VERTEX
  8
0
 62
7
  6
CONTINUOUS
 10
89.6482888628
 20
117.8553475283
  0
VERTEX
  8
0
 62
7
  6
CONTINUOUS
 10
89.7162826431
 20
117.8709777619
  0
VERTEX
  8
0
 62
7
  6
CONTINUOUS
 10
89.7588310603
 20
117.8776701009
  0
VERTEX
  8
0
 62
7
  6
CONTINUOUS
 10
89.8580390176
 20
117.8883665881
  0
VERTEX
  8
0
 62
7
  6
CONTINUOUS
 10
89.971205954
 20
117.8950270607
  0
VERTEX
  8
0
 62
7
  6
CONTINUOUS
 10
90.0917507403
 20
117.8972913535
  0
SEQEND
  0
LINE
  8
0
 62
7
  6
CONTINUOUS
 10
133.6685037883
 20
87.5934508725
 11
127.7949976922
 21
87.5934508725
  0
LINE
  8
0
 62
7
  6
CONTINUOUS
 10
126.0467507403
 20
87.5934508725
 11
122.7367507403
 21
87.5934508725
  0
LINE
  8
0
 62
7
  6
CONTINUOUS
 10
120.9685037883
 20
87.5934508725
 11
115.0949976922
 21
87.5934508725
  0
LINE
  8
0
 62
7
  6
CONTINUOUS
 10
113.3467507403
 20
87.5934508725
 11
110.0367507403
 21
87.5934508725
  0
LINE
  8
0
 62
7
  6
CONTINUOUS
 10
108.2685037883
 20
87.5934508725
 11
102.3949976922
 21
87.5934508725
  0
LINE
  8
0
 62
7
  6
CONTINUOUS
 10
100.6467507403
 20
87.5934508725
 11
97.3367507403
 21
87.5934508725
  0
LINE
  8
0
 62
7
  6
CONTINUOUS
 10
95.5685037883
 20
87.5934508725
 11
89.6949976922
 21
87.5934508725
  0
LINE
  8
0
 62
7
  6
CONTINUOUS
 10
87.9467507403
 20
87.5934508725
 11
84.6367507403
 21
87.5934508725
  0
LINE
  8
0
 62
7
  6
CONTINUOUS
 10
82.8685037883
 20
87.5934508725
 11
76.9949976922
 21
87.5934508725
  0
LINE
  8
0
 62
7
  6
CONTINUOUS
 10
75.2467507403
 20
87.5934508725
 11
71.9367507403
 21
87.5934508725
  0
LINE
  8
0
 62
7
  6
CONTINUOUS
 10
70.1685037883
 20
87.5934508725
 11
64.2949976922
 21
87.5934508725
  0
LINE
  8
0
 62
7
  6
CONTINUOUS
 10
62.5467507403
 20
87.5934508725
 11
59.2367507403
 21
87.5934508725
  0
LINE
  8
0
 62
7
  6
CONTINUOUS
 10
57.4685037883
 20
87.5934508725
 11
51.5949976922
 21
87.5934508725
  0
LINE
  8
0
 62
7
  6
CONTINUOUS
 10
49.8467507403
 20
87.5934508725
 11
46.5367507403
 21
87.5934508725
  0
LINE
  8
0
 62
7
  6
CONTINUOUS
 10
44.7685037883
 20
87.5934508725
 11
38.8949976922
 21
87.5934508725
  0
POLYLINE
  8
0
 62
7
  6
CONTINUOUS
 66
1
 70
0
  0
VERTEX
  8
0
 62
7
  6
CONTINUOUS
 10
133.5417507358
 20
82.1077551073
  0
VERTEX
  8
0
 62
7
  6
CONTINUOUS
 10
133.6085398649
 20
82.0987740582
  0
VERTEX
  8
0
 62
7
  6
CONTINUOUS
 10
133.6844224227
 20
82.066735197
  0
VERTEX
  8
0
 62
7
  6
CONTINUOUS
 10
133.7561228815
 20
82.0140419242
  0
VERTEX
  8
0
 62
7
  6
CONTINUOUS
 10
133.821595932
 20
81.9437016834
  0
VERTEX
  8
0
 62
7
  6
CONTINUOUS
 10
133.87968462
 20
81.8580308312
  0
VERTEX
  8
0
 62
7
  6
CONTINUOUS
 10
133.9298220121
 20
81.7582927605
  0
VERTEX
  8
0
 62
7
  6
CONTINUOUS
 10
133.9712242032
 20
81.6459939691
  0
VERTEX
  8
0
 62
7
  6
CONTINUOUS
 10
134.003216311
 20
81.5230892802
  0
VERTEX
  8
0
 62
7
  6
CONTINUOUS
 10
134.0255183981
 20
81.3915433344
  0
VERTEX
  8
0
 62
7
  6
CONTINUOUS
 10
134.0382078203
 20
81.2533744892
  0
VERTEX
  8
0
 62
7
  6
CONTINUOUS
 10
134.0417511992
 20
81.125437534
  0
SEQEND
  0
LINE
  8
0
 62
7
  6
CONTINUOUS
 10
71.6846544193
 20
101.9455471935
 11
71.0861018457
 21
102.5440997671
  0
LINE
  8
0
 62
7
  6
CONTINUOUS
 10
82.6381324813
 20
92.0982542186
 11
82.9184049858
 21
87.6465926058
  0
LINE
  8
0
 62
7
  6
CONTINUOUS
 10
81.6367507403
 20
107.4434508725
 11
81.6367507403
 21
93.6292582305
  0
LINE
  8
0
 62
7
  6
CONTINUOUS
 10
82.9917507403
 20
113.9614363813
 11
82.9917507403
 21
120.3334508725
  0
LINE
  8
0
 62
7
  6
CONTINUOUS
 10
81.8388470612
 20
93.1413545515
 11
82.4373996349
 21
92.5428019779
  0
POLYLINE
  8
0
 62
7
  6
CONTINUOUS
 66
1
 70
0
  0
VERTEX
  8
0
 62
7
  6
CONTINUOUS
 10
95.9417507403
 20
77.2687060011
  0
VERTEX
  8
0
 62
7
  6
CONTINUOUS
 10
95.9560504608
 20
77.2494696235
  0
VERTEX
  8
0
 62
7
  6
CONTINUOUS
 10
95.9982888628
 20
77.2315542166
  0
VERTEX
  8
0
 62
7
  6
CONTINUOUS
 10
96.0662826431
 20
77.215923983
  0
VERTEX
  8
0
 62
7
  6
CONTINUOUS
 10
96.1088310603
 20
77.2092316441
  0
VERTEX
  8
0
 62
7
  6
CONTINUOUS
 10
96.2080390176
 20
77.1985351569
  0
VERTEX
  8
0
 62
7
  6
CONTINUOUS
 10
96.321205954
 20
77.1918746843
  0
VERTEX
  8
0
 62
7
  6
CONTINUOUS
 10
96.4417507403
 20
77.1896103914
  0
SEQEND
  0
LINE
  8
0
 62
7
  6
CONTINUOUS
 10
83.5853689992
 20
102.9886475263
 11
83.3050964947
 21
107.4403091392
  0
LINE
  8
0
 62
7
  6
CONTINUOUS
 10
83.2417507403
 20
74.7534508725
 11
83.2417507403
 21
81.1254653101
  0
LINE
  8
0
 62
7
  6
CONTINUOUS
 10
84.5867507403
 20
87.6434508725
 11
84.5867507403
 21
101.4576435144
  0
LINE
  8
1_AXIS
 62
2
  6
CENTER
 10
86.2917507403
 20
124.4815900671
 11
86.2917507403
 21
99.5435508725
  0
LINE
  8
1_AXIS
 62
2
  6
CONTINUOUS
 10
86.2917507403
 20
98.4234508725
 11
86.2917507403
 21
96.6634508725
  0
LINE
  8
1_AXIS
 62
2
  6
CENTER
 10
86.2917507403
 20
70.2692432215
 11
86.2917507403
 21
95.5433508725
  0
LINE
  8
0
 62
7
  6
CONTINUOUS
 10
77.4261018457
 20
92.5428019779
 11
78.0246544193
 21
93.1413545515
  0
LINE
  8
0
 62
7
  6
CONTINUOUS
 10
88.7973996349
 20
102.5440997671
 11
88.1988470612
 21
101.9455471935
  0
LINE
  8
1_AXIS
 62
2
  6
CENTER
 10
143.2516731544
 20
97.5434508725
 11
88.2918507403
 21
97.5434508725
  0
LINE
  8
1_AXIS
 62
2
  6
CONTINUOUS
 10
87.1717507403
 20
97.5434508725
 11
85.4117507403
 21
97.5434508725
  0
LINE
  8
1_AXIS
 62
2
  6
CENTER
 10
31.2345950336
 20
97.5434508725
 11
84.2916507403
 21
97.5434508725
  0
POLYLINE
  8
0
 62
7
  6
CONTINUOUS
 66
1
 70
0
  0
VERTEX
  8
0
 62
7
  6
CONTINUOUS
 10
70.2917507403
 20
117.8181957439
  0
VERTEX
  8
0
 62
7
  6
CONTINUOUS
 10
70.2774510198
 20
117.8374321215
  0
VERTEX
  8
0
 62
7
  6
CONTINUOUS
 10
70.2352126178
 20
117.8553475283
  0
VERTEX
  8
0
 62
7
  6
CONTINUOUS
 10
70.1672188374
 20
117.8709777619
  0
VERTEX
  8
0
 62
7
  6
CONTINUOUS
 10
70.1246704202
 20
117.8776701009
  0
VERTEX
  8
0
 62
7
  6
CONTINUOUS
 10
70.025462463
 20
117.8883665881
  0
VERTEX
  8
0
 62
7
  6
CONTINUOUS
 10
69.9122955265
 20
117.8950270607
  0
VERTEX
  8
0
 62
7
  6
CONTINUOUS
 10
69.7917507403
 20
117.8972913535
  0
SEQEND
  0
LINE
  8
0
 62
7
  6
CONTINUOUS
 10
87.9967507403
 20
101.4576435144
 11
87.9967507403
 21
87.6434508725
  0
LINE
  8
0
 62
7
  6
CONTINUOUS
 10
89.3417507403
 20
74.7534508725
 11
89.3417507403
 21
81.1254653634
  0
LINE
  8
0
 62
7
  6
CONTINUOUS
 10
89.5917507403
 20
113.9614364348
 11
89.5917507403
 21
120.3334508725
  0
POLYLINE
  8
0
 62
7
  6
CONTINUOUS
 66
1
 70
0
  0
VERTEX
  8
0
 62
7
  6
CONTINUOUS
 10
89.5917511959
 20
113.9614644942
  0
VERTEX
  8
0
 62
7
  6
CONTINUOUS
 10
89.588280752
 20
113.834818668
  0
VERTEX
  8
0
 62
7
  6
CONTINUOUS
 10
89.5756713914
 20
113.6965465712
  0
VERTEX
  8
0
 62
7
  6
CONTINUOUS
 10
89.5534472478
 20
113.5648988459
  0
VERTEX
  8
0
 62
7
  6
CONTINUOUS
 10
89.5215307551
 20
113.4418922114
  0
VERTEX
  8
0
 62
7
  6
CONTINUOUS
 10
89.4802013205
 20
113.329488574
  0
VERTEX
  8
0
 62
7
  6
CONTINUOUS
 10
89.4301338845
 20
113.2296415712
  0
VERTEX
  8
0
 62
7
  6
CONTINUOUS
 10
89.372110398
 20
113.1438516475
  0
VERTEX
  8
0
 62
7
  6
CONTINUOUS
 10
89.3066974102
 20
113.0733778545
  0
VERTEX
  8
0
 62
7
  6
CONTINUOUS
 10
89.2350447313
 20
113.0205270136
  0
VERTEX
  8
0
 62
7
  6
CONTINUOUS
 10
89.159182107
 20
112.9883011069
  0
VERTEX
  8
0
 62
7
  6
CONTINUOUS
 10
89.0917507403
 20
112.9791466385
  0
SEQEND
  0
POLYLINE
  8
0
 62
7
  6
CONTINUOUS
 66
1
 70
0
  0
VERTEX
  8
0
 62
7
  6
CONTINUOUS
 10
89.3417505311
 20
81.1254282823
  0
VERTEX
  8
0
 62
7
  6
CONTINUOUS
 10
89.345220922
 20
81.2520869086
  0
VERTEX
  8
0
 62
7
  6
CONTINUOUS
 10
89.3578304989
 20
81.3903604408
  0
VERTEX
  8
0
 62
7
  6
CONTINUOUS
 10
89.3800546115
 20
81.5220055089
  0
VERTEX
  8
0
 62
7
  6
CONTINUOUS
 10
89.4119708053
 20
81.6450102083
  0
VERTEX
  8
0
 62
7
  6
CONTINUOUS
 10
89.4533003635
 20
81.7574137279
  0
VERTEX
  8
0
 62
7
  6
CONTINUOUS
 10
89.5033674913
 20
81.8572600265
  0
VERTEX
  8
0
 62
7
  6
CONTINUOUS
 10
89.5613914774
 20
81.943050444
  0
VERTEX
  8
0
 62
7
  6
CONTINUOUS
 10
89.6268042172
 20
82.0135240922
  0
VERTEX
  8
0
 62
7
  6
CONTINUOUS
 10
89.6984575332
 20
82.0663752485
  0
VERTEX
  8
0
 62
7
  6
CONTINUOUS
 10
89.7743231356
 20
82.0986016472
  0
VERTEX
  8
0
 62
7
  6
CONTINUOUS
 10
89.8417507403
 20
82.1077551049
  0
SEQEND
  0
LINE
  8
0
 62
7
  6
CONTINUOUS
 10
89.2784049858
 20
107.4403091392
 11
88.9981324813
 21
102.9886475263
  0
LINE
  8
0
 62
7
  6
CONTINUOUS
 10
89.6445103506
 20
87.6466295523
 11
89.925111418
 21
92.0982704548
  0
LINE
  8
0
 62
7
  6
CONTINUOUS
 10
84.3846544193
 20
101.9455471935
 11
83.7861018457
 21
102.5440997671
  0
LINE
  8
0
 62
7
  6
CONTINUOUS
 10
94.5388470612
 20
93.1413545515
 11
95.1373996349
 21
92.5428019779
  0
LINE
  8
0
 62
7
  6
CONTINUOUS
 10
90.9267507403
 20
93.6292582305
 11
90.9267507403
 21
107.4434508725
  0
LINE
  8
0
 62
7
  6
CONTINUOUS
 10
90.1261018457
 20
92.5428019779
 11
90.7246544193
 21
93.1413545515
  0
LINE
  8
0
 62
7
  6
CONTINUOUS
 10
101.4973996349
 20
102.5440997671
 11
100.8988470612
 21
101.9455471935
  0
POLYLINE
  8
0
 62
7
  6
CONTINUOUS
 66
1
 70
0
  0
VERTEX
  8
0
 62
7
  6
CONTINUOUS
 10
108.6417507403
 20
77.2687060011
  0
VERTEX
  8
0
 62
7
  6
CONTINUOUS
 10
108.6560504608
 20
77.2494696235
  0
VERTEX
  8
0
 62
7
  6
CONTINUOUS
 10
108.6982888628
 20
77.2315542166
  0
VERTEX
  8
0
 62
7
  6
CONTINUOUS
 10
108.7662826431
 20
77.215923983
  0
VERTEX
  8
0
 62
7
  6
CONTINUOUS
 10
108.8088310603
 20
77.2092316441
  0
VERTEX
  8
0
 62
7
  6
CONTINUOUS
 10
108.9080390176
 20
77.1985351569
  0
VERTEX
  8
0
 62
7
  6
CONTINUOUS
 10
109.021205954
 20
77.1918746843
  0
VERTEX
  8
0
 62
7
  6
CONTINUOUS
 10
109.1417507403
 20
77.1896103914
  0
SEQEND
  0
LINE
  8
0
 62
7
  6
CONTINUOUS
 10
95.3381324813
 20
92.0982542186
 11
95.6184049858
 21
87.6465926058
  0
LINE
  8
0
 62
7
  6
CONTINUOUS
 10
96.2853689992
 20
102.9886475263
 11
96.0050964947
 21
107.4403091392
  0
LINE
  8
0
 62
7
  6
CONTINUOUS
 10
94.3367507403
 20
107.4434508725
 11
94.3367507403
 21
93.6292582305
  0
LINE
  8
0
 62
7
  6
CONTINUOUS
 10
95.6917507403
 20
113.9614363815
 11
95.6917507403
 21
120.3334508725
  0
LINE
  8
0
 62
7
  6
CONTINUOUS
 10
95.9417507403
 20
74.7534508725
 11
95.9417507403
 21
81.1254653101
  0
LINE
  8
0
 62
7
  6
CONTINUOUS
 10
97.2867507403
 20
87.6434508725
 11
97.2867507403
 21
101.4576435144
  0
POLYLINE
  8
0
 62
7
  6
CONTINUOUS
 66
1
 70
0
  0
VERTEX
  8
0
 62
7
  6
CONTINUOUS
 10
114.9917507403
 20
117.8181957439
  0
VERTEX
  8
0
 62
7
  6
CONTINUOUS
 10
115.0060504608
 20
117.8374321215
  0
VERTEX
  8
0
 62
7
  6
CONTINUOUS
 10
115.0482888628
 20
117.8553475283
  0
VERTEX
  8
0
 62
7
  6
CONTINUOUS
 10
115.1162826431
 20
117.8709777619
  0
VERTEX
  8
0
 62
7
  6
CONTINUOUS
 10
115.1588310603
 20
117.8776701009
  0
VERTEX
  8
0
 62
7
  6
CONTINUOUS
 10
115.2580390176
 20
117.8883665881
  0
VERTEX
  8
0
 62
7
  6
CONTINUOUS
 10
115.371205954
 20
117.8950270607
  0
VERTEX
  8
0
 62
7
  6
CONTINUOUS
 10
115.4917507403
 20
117.8972913535
  0
SEQEND
  0
LINE
  8
0
 62
7
  6
CONTINUOUS
 10
40.1767507403
 20
107.4934508725
 11
43.4867507403
 21
107.4934508725
  0
LINE
  8
0
 62
7
  6
CONTINUOUS
 10
45.2549976922
 20
107.4934508725
 11
51.1285037883
 21
107.4934508725
  0
LINE
  8
0
 62
7
  6
CONTINUOUS
 10
52.8767507403
 20
107.4934508725
 11
56.1867507403
 21
107.4934508725
  0
LINE
  8
0
 62
7
  6
CONTINUOUS
 10
57.9549976922
 20
107.4934508725
 11
63.8285037883
 21
107.4934508725
  0
LINE
  8
0
 62
7
  6
CONTINUOUS
 10
65.5767507403
 20
107.4934508725
 11
68.8867507403
 21
107.4934508725
  0
LINE
  8
0
 62
7
  6
CONTINUOUS
 10
70.6549976922
 20
107.4934508725
 11
76.5285037883
 21
107.4934508725
  0
LINE
  8
0
 62
7
  6
CONTINUOUS
 10
78.2767507403
 20
107.4934508725
 11
81.5867507403
 21
107.4934508725
  0
LINE
  8
0
 62
7
  6
CONTINUOUS
 10
83.3549976922
 20
107.4934508725
 11
89.2285037883
 21
107.4934508725
  0
LINE
  8
0
 62
7
  6
CONTINUOUS
 10
90.9767507403
 20
107.4934508725
 11
94.2867507403
 21
107.4934508725
  0
LINE
  8
0
 62
7
  6
CONTINUOUS
 10
96.0549976922
 20
107.4934508725
 11
101.9285037883
 21
107.4934508725
  0
LINE
  8
0
 62
7
  6
CONTINUOUS
 10
103.6767507403
 20
107.4934508725
 11
106.9867507403
 21
107.4934508725
  0
LINE
  8
0
 62
7
  6
CONTINUOUS
 10
108.7549976922
 20
107.4934508725
 11
114.6285037883
 21
107.4934508725
  0
LINE
  8
0
 62
7
  6
CONTINUOUS
 10
116.3767507403
 20
107.4934508725
 11
119.6867507403
 21
107.4934508725
  0
LINE
  8
0
 62
7
  6
CONTINUOUS
 10
121.4549976922
 20
107.4934508725
 11
127.3285037883
 21
107.4934508725
  0
LINE
  8
0
 62
7
  6
CONTINUOUS
 10
129.0767507403
 20
107.4934508725
 11
132.3867507403
 21
107.4934508725
  0
POLYLINE
  8
0
 62
7
  6
CONTINUOUS
 66
1
 70
0
  0
VERTEX
  8
0
 62
7
  6
CONTINUOUS
 10
45.3917507787
 20
112.9791466403
  0
VERTEX
  8
0
 62
7
  6
CONTINUOUS
 10
45.3249655858
 20
112.9881266307
  0
VERTEX
  8
0
 62
7
  6
CONTINUOUS
 10
45.249079951
 20
113.0201659795
  0
VERTEX
  8
0
 62
7
  6
CONTINUOUS
 10
45.1773788406
 20
113.0728595473
  0
VERTEX
  8
0
 62
7
  6
CONTINUOUS
 10
45.1119059778
 20
113.1431996713
  0
VERTEX
  8
0
 62
7
  6
CONTINUOUS
 10
45.0538167993
 20
113.2288709917
  0
VERTEX
  8
0
 62
7
  6
CONTINUOUS
 10
45.0036796698
 20
113.3286084421
  0
VERTEX
  8
0
 62
7
  6
CONTINUOUS
 10
44.9622773616
 20
113.4409070944
  0
VERTEX
  8
0
 62
7
  6
CONTINUOUS
 10
44.9302855468
 20
113.5638098738
  0
VERTEX
  8
0
 62
7
  6
CONTINUOUS
 10
44.9079835
 20
113.6953531387
  0
VERTEX
  8
0
 62
7
  6
CONTINUOUS
 10
44.8952938731
 20
113.8335234348
  0
VERTEX
  8
0
 62
7
  6
CONTINUOUS
 10
44.891750527
 20
113.9614733993
  0
SEQEND
  0
POLYLINE
  8
0
 62
7
  6
CONTINUOUS
 66
1
 70
0
  0
VERTEX
  8
0
 62
7
  6
CONTINUOUS
 10
58.0917507785
 20
112.9791466399
  0
VERTEX
  8
0
 62
7
  6
CONTINUOUS
 10
58.0249655882
 20
112.9881266301
  0
VERTEX
  8
0
 62
7
  6
CONTINUOUS
 10
57.9490799366
 20
113.020165987
  0
VERTEX
  8
0
 62
7
  6
CONTINUOUS
 10
57.8773788139
 20
113.0728595717
  0
VERTEX
  8
0
 62
7
  6
CONTINUOUS
 10
57.811905975
 20
113.1431996813
  0
VERTEX
  8
0
 62
7
  6
CONTINUOUS
 10
57.7538167851
 20
113.2288710168
  0
VERTEX
  8
0
 62
7
  6
CONTINUOUS
 10
57.7036796666
 20
113.3286084506
  0
VERTEX
  8
0
 62
7
  6
CONTINUOUS
 10
57.6622773605
 20
113.440907099
  0
VERTEX
  8
0
 62
7
  6
CONTINUOUS
 10
57.6302855482
 20
113.5638098661
  0
VERTEX
  8
0
 62
7
  6
CONTINUOUS
 10
57.607983502
 20
113.6953531081
  0
VERTEX
  8
0
 62
7
  6
CONTINUOUS
 10
57.5952938733
 20
113.8335234131
  0
VERTEX
  8
0
 62
7
  6
CONTINUOUS
 10
57.5917505267
 20
113.9614734744
  0
SEQEND
  0
LINE
  8
0
 62
7
  6
CONTINUOUS
 10
97.0846544193
 20
101.9455471935
 11
96.4861018457
 21
102.5440997671
  0
LINE
  8
0
 62
7
  6
CONTINUOUS
 10
100.6967507403
 20
101.4576435144
 11
100.6967507403
 21
87.6434508725
  0
LINE
  8
0
 62
7
  6
CONTINUOUS
 10
101.9784049858
 20
107.4403091392
 11
101.6981324813
 21
102.9886475263
  0
LINE
  8
0
 62
7
  6
CONTINUOUS
 10
102.8261018457
 20
92.5428019779
 11
103.4246544193
 21
93.1413545515
  0
POLYLINE
  8
0
 62
7
  6
CONTINUOUS
 66
1
 70
0
  0
VERTEX
  8
0
 62
7
  6
CONTINUOUS
 10
70.7917507787
 20
112.9791466403
  0
VERTEX
  8
0
 62
7
  6
CONTINUOUS
 10
70.7249655858
 20
112.9881266307
  0
VERTEX
  8
0
 62
7
  6
CONTINUOUS
 10
70.649079951
 20
113.0201659795
  0
VERTEX
  8
0
 62
7
  6
CONTINUOUS
 10
70.5773788406
 20
113.0728595473
  0
VERTEX
  8
0
 62
7
  6
CONTINUOUS
 10
70.5119059778
 20
113.1431996713
  0
VERTEX
  8
0
 62
7
  6
CONTINUOUS
 10
70.4538167993
 20
113.2288709917
  0
VERTEX
  8
0
 62
7
  6
CONTINUOUS
 10
70.4036796698
 20
113.3286084421
  0
VERTEX
  8
0
 62
7
  6
CONTINUOUS
 10
70.3622773616
 20
113.4409070944
  0
VERTEX
  8
0
 62
7
  6
CONTINUOUS
 10
70.3302855468
 20
113.5638098738
  0
VERTEX
  8
0
 62
7
  6
CONTINUOUS
 10
70.3079835
 20
113.6953531387
  0
VERTEX
  8
0
 62
7
  6
CONTINUOUS
 10
70.2952938731
 20
113.8335234348
  0
VERTEX
  8
0
 62
7
  6
CONTINUOUS
 10
70.291750527
 20
113.9614733993
  0
SEQEND
  0
POLYLINE
  8
0
 62
7
  6
CONTINUOUS
 66
1
 70
0
  0
VERTEX
  8
0
 62
7
  6
CONTINUOUS
 10
83.4917507785
 20
112.9791466399
  0
VERTEX
  8
0
 62
7
  6
CONTINUOUS
 10
83.4249655882
 20
112.9881266301
  0
VERTEX
  8
0
 62
7
  6
CONTINUOUS
 10
83.3490799366
 20
113.020165987
  0
VERTEX
  8
0
 62
7
  6
CONTINUOUS
 10
83.2773788139
 20
113.0728595717
  0
VERTEX
  8
0
 62
7
  6
CONTINUOUS
 10
83.211905975
 20
113.1431996813
  0
VERTEX
  8
0
 62
7
  6
CONTINUOUS
 10
83.1538167851
 20
113.2288710168
  0
VERTEX
  8
0
 62
7
  6
CONTINUOUS
 10
83.1036796666
 20
113.3286084506
  0
VERTEX
  8
0
 62
7
  6
CONTINUOUS
 10
83.0622773605
 20
113.440907099
  0
VERTEX
  8
0
 62
7
  6
CONTINUOUS
 10
83.0302855482
 20
113.5638098661
  0
VERTEX
  8
0
 62
7
  6
CONTINUOUS
 10
83.007983502
 20
113.6953531081
  0
VERTEX
  8
0
 62
7
  6
CONTINUOUS
 10
82.9952938733
 20
113.8335234131
  0
VERTEX
  8
0
 62
7
  6
CONTINUOUS
 10
82.9917505267
 20
113.9614734744
  0
SEQEND
  0
LINE
  8
0
 62
7
  6
CONTINUOUS
 10
107.2388470612
 20
93.1413545515
 11
107.8373996349
 21
92.5428019779
  0
LINE
  8
0
 62
7
  6
CONTINUOUS
 10
102.0417507403
 20
74.7534508725
 11
102.0417507403
 21
81.1254653635
  0
LINE
  8
0
 62
7
  6
CONTINUOUS
 10
102.2917507403
 20
113.9614364348
 11
102.2917507403
 21
120.3334508725
  0
LINE
  8
0
 62
7
  6
CONTINUOUS
 10
103.6267507403
 20
93.6292582305
 11
103.6267507403
 21
107.4434508725
  0
POLYLINE
  8
0
 62
7
  6
CONTINUOUS
 66
1
 70
0
  0
VERTEX
  8
0
 62
7
  6
CONTINUOUS
 10
102.2917511969
 20
113.9614645951
  0
VERTEX
  8
0
 62
7
  6
CONTINUOUS
 10
102.2882807501
 20
113.8348186479
  0
VERTEX
  8
0
 62
7
  6
CONTINUOUS
 10
102.2756713895
 20
113.6965465479
  0
VERTEX
  8
0
 62
7
  6
CONTINUOUS
 10
102.2534472469
 20
113.5648988408
  0
VERTEX
  8
0
 62
7
  6
CONTINUOUS
 10
102.2215307563
 20
113.4418922163
  0
VERTEX
  8
0
 62
7
  6
CONTINUOUS
 10
102.1802013228
 20
113.3294885792
  0
VERTEX
  8
0
 62
7
  6
CONTINUOUS
 10
102.1301339027
 20
113.2296416013
  0
VERTEX
  8
0
 62
7
  6
CONTINUOUS
 10
102.0721103945
 20
113.143851648
  0
VERTEX
  8
0
 62
7
  6
CONTINUOUS
 10
102.0066974336
 20
113.0733778764
  0
VERTEX
  8
0
 62
7
  6
CONTINUOUS
 10
101.9350447436
 20
113.0205270215
  0
VERTEX
  8
0
 62
7
  6
CONTINUOUS
 10
101.8591821032
 20
112.988301106
  0
VERTEX
  8
0
 62
7
  6
CONTINUOUS
 10
101.7917507403
 20
112.9791466381
  0
SEQEND
  0
POLYLINE
  8
0
 62
7
  6
CONTINUOUS
 66
1
 70
0
  0
VERTEX
  8
0
 62
7
  6
CONTINUOUS
 10
102.0417505308
 20
81.1254281983
  0
VERTEX
  8
0
 62
7
  6
CONTINUOUS
 10
102.0452209221
 20
81.2520869321
  0
VERTEX
  8
0
 62
7
  6
CONTINUOUS
 10
102.0578305009
 20
81.3903604725
  0
VERTEX
  8
0
 62
7
  6
CONTINUOUS
 10
102.0800546131
 20
81.5220055182
  0
VERTEX
  8
0
 62
7
  6
CONTINUOUS
 10
102.1119708046
 20
81.645010206
  0
VERTEX
  8
0
 62
7
  6
CONTINUOUS
 10
102.1533003616
 20
81.7574137227
  0
VERTEX
  8
0
 62
7
  6
CONTINUOUS
 10
102.2033674808
 20
81.8572600073
  0
VERTEX
  8
0
 62
7
  6
CONTINUOUS
 10
102.2613914786
 20
81.94305044
  0
VERTEX
  8
0
 62
7
  6
CONTINUOUS
 10
102.3268041924
 20
82.013524069
  0
VERTEX
  8
0
 62
7
  6
CONTINUOUS
 10
102.3984575196
 20
82.0663752414
  0
VERTEX
  8
0
 62
7
  6
CONTINUOUS
 10
102.4743231384
 20
82.0986016479
  0
VERTEX
  8
0
 62
7
  6
CONTINUOUS
 10
102.5417507403
 20
82.1077551053
  0
SEQEND
  0
LINE
  8
0
 62
7
  6
CONTINUOUS
 10
102.3450964947
 20
87.6465926058
 11
102.6253689992
 21
92.0982542186
  0
LINE
  8
0
 62
7
  6
CONTINUOUS
 10
114.1973996349
 20
102.5440997671
 11
113.5988470612
 21
101.9455471935
  0
LINE
  8
0
 62
7
  6
CONTINUOUS
 10
136.3417507403
 20
112.979146557
 11
134.2917507746
 21
112.979146557
  0
LINE
  8
0
 62
7
  6
CONTINUOUS
 10
127.1917507403
 20
112.979146557
 11
121.5917507787
 21
112.979146557
  0
LINE
  8
0
 62
7
  6
CONTINUOUS
 10
114.4917507403
 20
112.979146557
 11
108.8917507785
 21
112.979146557
  0
LINE
  8
0
 62
7
  6
CONTINUOUS
 10
101.7917507403
 20
112.979146557
 11
96.1917507787
 21
112.979146557
  0
LINE
  8
0
 62
7
  6
CONTINUOUS
 10
89.0917507403
 20
112.979146557
 11
83.4917507785
 21
112.979146557
  0
LINE
  8
0
 62
7
  6
CONTINUOUS
 10
76.3917507403
 20
112.979146557
 11
70.7917507787
 21
112.979146557
  0
LINE
  8
0
 62
7
  6
CONTINUOUS
 10
63.6917507403
 20
112.979146557
 11
58.0917507785
 21
112.979146557
  0
LINE
  8
0
 62
7
  6
CONTINUOUS
 10
50.9917507403
 20
112.979146557
 11
45.3917507787
 21
112.979146557
  0
LINE
  8
0
 62
7
  6
CONTINUOUS
 10
38.2917507403
 20
112.979146557
 11
36.2417507403
 21
112.979146557
  0
LINE
  8
1_AXIS
 62
2
  6
CENTER
 10
28.3043985717
 20
116.5934508725
 11
137.708833471
 21
116.5934508725
  0
POLYLINE
  8
0
 62
7
  6
CONTINUOUS
 66
1
 70
0
  0
VERTEX
  8
0
 62
7
  6
CONTINUOUS
 10
96.1917507787
 20
112.9791466403
  0
VERTEX
  8
0
 62
7
  6
CONTINUOUS
 10
96.1249655858
 20
112.9881266307
  0
VERTEX
  8
0
 62
7
  6
CONTINUOUS
 10
96.049079951
 20
113.0201659795
  0
VERTEX
  8
0
 62
7
  6
CONTINUOUS
 10
95.9773788406
 20
113.0728595473
  0
VERTEX
  8
0
 62
7
  6
CONTINUOUS
 10
95.9119059778
 20
113.1431996713
  0
VERTEX
  8
0
 62
7
  6
CONTINUOUS
 10
95.8538167993
 20
113.2288709917
  0
VERTEX
  8
0
 62
7
  6
CONTINUOUS
 10
95.8036796698
 20
113.3286084421
  0
VERTEX
  8
0
 62
7
  6
CONTINUOUS
 10
95.7622773616
 20
113.4409070944
  0
VERTEX
  8
0
 62
7
  6
CONTINUOUS
 10
95.7302855468
 20
113.5638098738
  0
VERTEX
  8
0
 62
7
  6
CONTINUOUS
 10
95.7079835
 20
113.6953531387
  0
VERTEX
  8
0
 62
7
  6
CONTINUOUS
 10
95.6952938731
 20
113.8335234348
  0
VERTEX
  8
0
 62
7
  6
CONTINUOUS
 10
95.691750527
 20
113.9614733993
  0
SEQEND
  0
POLYLINE
  8
0
 62
7
  6
CONTINUOUS
 66
1
 70
0
  0
VERTEX
  8
0
 62
7
  6
CONTINUOUS
 10
108.8917507785
 20
112.9791466399
  0
VERTEX
  8
0
 62
7
  6
CONTINUOUS
 10
108.8249655882
 20
112.9881266301
  0
VERTEX
  8
0
 62
7
  6
CONTINUOUS
 10
108.7490799366
 20
113.020165987
  0
VERTEX
  8
0
 62
7
  6
CONTINUOUS
 10
108.6773788139
 20
113.0728595717
  0
VERTEX
  8
0
 62
7
  6
CONTINUOUS
 10
108.611905975
 20
113.1431996813
  0
VERTEX
  8
0
 62
7
  6
CONTINUOUS
 10
108.5538167851
 20
113.2288710168
  0
VERTEX
  8
0
 62
7
  6
CONTINUOUS
 10
108.5036796666
 20
113.3286084506
  0
VERTEX
  8
0
 62
7
  6
CONTINUOUS
 10
108.4622773605
 20
113.440907099
  0
VERTEX
  8
0
 62
7
  6
CONTINUOUS
 10
108.4302855482
 20
113.5638098661
  0
VERTEX
  8
0
 62
7
  6
CONTINUOUS
 10
108.407983502
 20
113.6953531081
  0
VERTEX
  8
0
 62
7
  6
CONTINUOUS
 10
108.3952938733
 20
113.8335234131
  0
VERTEX
  8
0
 62
7
  6
CONTINUOUS
 10
108.3917505267
 20
113.9614734744
  0
SEQEND
  0
POLYLINE
  8
0
 62
7
  6
CONTINUOUS
 66
1
 70
0
  0
VERTEX
  8
0
 62
7
  6
CONTINUOUS
 10
121.3417507403
 20
77.2687060011
  0
VERTEX
  8
0
 62
7
  6
CONTINUOUS
 10
121.3560504608
 20
77.2494696235
  0
VERTEX
  8
0
 62
7
  6
CONTINUOUS
 10
121.3982888628
 20
77.2315542166
  0
VERTEX
  8
0
 62
7
  6
CONTINUOUS
 10
121.4662826431
 20
77.215923983
  0
VERTEX
  8
0
 62
7
  6
CONTINUOUS
 10
121.5088310603
 20
77.2092316441
  0
VERTEX
  8
0
 62
7
  6
CONTINUOUS
 10
121.6080390176
 20
77.1985351569
  0
VERTEX
  8
0
 62
7
  6
CONTINUOUS
 10
121.721205954
 20
77.1918746843
  0
VERTEX
  8
0
 62
7
  6
CONTINUOUS
 10
121.8417507403
 20
77.1896103914
  0
SEQEND
  0
LINE
  8
0
 62
7
  6
CONTINUOUS
 10
108.0381324813
 20
92.0982542186
 11
108.3184049858
 21
87.6465926058
  0
LINE
  8
0
 62
7
  6
CONTINUOUS
 10
107.0367507403
 20
107.4434508725
 11
107.0367507403
 21
93.6292582305
  0
LINE
  8
0
 62
7
  6
CONTINUOUS
 10
108.3917507403
 20
113.9614363813
 11
108.3917507403
 21
120.3334508725
  0
LINE
  8
0
 62
7
  6
CONTINUOUS
 10
108.6417507403
 20
81.1254653101
 11
108.6417507403
 21
74.7534508725
  0
POLYLINE
  8
0
 62
7
  6
CONTINUOUS
 66
1
 70
0
  0
VERTEX
  8
0
 62
7
  6
CONTINUOUS
 10
127.6917507403
 20
117.8181957439
  0
VERTEX
  8
0
 62
7
  6
CONTINUOUS
 10
127.7060504608
 20
117.8374321215
  0
VERTEX
  8
0
 62
7
  6
CONTINUOUS
 10
127.7482888628
 20
117.8553475283
  0
VERTEX
  8
0
 62
7
  6
CONTINUOUS
 10
127.8162826431
 20
117.8709777619
  0
VERTEX
  8
0
 62
7
  6
CONTINUOUS
 10
127.8588310603
 20
117.8776701009
  0
VERTEX
  8
0
 62
7
  6
CONTINUOUS
 10
127.9580390176
 20
117.8883665881
  0
VERTEX
  8
0
 62
7
  6
CONTINUOUS
 10
128.071205954
 20
117.8950270607
  0
VERTEX
  8
0
 62
7
  6
CONTINUOUS
 10
128.1917507403
 20
117.8972913535
  0
SEQEND
  0
POLYLINE
  8
0
 62
7
  6
CONTINUOUS
 66
1
 70
0
  0
VERTEX
  8
0
 62
7
  6
CONTINUOUS
 10
102.7917507403
 20
117.8972913535
  0
VERTEX
  8
0
 62
7
  6
CONTINUOUS
 10
102.671205954
 20
117.8950270607
  0
VERTEX
  8
0
 62
7
  6
CONTINUOUS
 10
102.5580390176
 20
117.8883665881
  0
VERTEX
  8
0
 62
7
  6
CONTINUOUS
 10
102.4588310603
 20
117.8776701009
  0
VERTEX
  8
0
 62
7
  6
CONTINUOUS
 10
102.4162826431
 20
117.8709777619
  0
VERTEX
  8
0
 62
7
  6
CONTINUOUS
 10
102.3482888628
 20
117.8553475283
  0
VERTEX
  8
0
 62
7
  6
CONTINUOUS
 10
102.3060504608
 20
117.8374321215
  0
VERTEX
  8
0
 62
7
  6
CONTINUOUS
 10
102.2917507403
 20
117.8181957439
  0
SEQEND
  0
POLYLINE
  8
0
 62
7
  6
CONTINUOUS
 66
1
 70
0
  0
VERTEX
  8
0
 62
7
  6
CONTINUOUS
 10
77.3917507403
 20
117.8972913535
  0
VERTEX
  8
0
 62
7
  6
CONTINUOUS
 10
77.271205954
 20
117.8950270607
  0
VERTEX
  8
0
 62
7
  6
CONTINUOUS
 10
77.1580390176
 20
117.8883665881
  0
VERTEX
  8
0
 62
7
  6
CONTINUOUS
 10
77.0588310603
 20
117.8776701009
  0
VERTEX
  8
0
 62
7
  6
CONTINUOUS
 10
77.0162826431
 20
117.8709777619
  0
VERTEX
  8
0
 62
7
  6
CONTINUOUS
 10
76.9482888628
 20
117.8553475283
  0
VERTEX
  8
0
 62
7
  6
CONTINUOUS
 10
76.9060504608
 20
117.8374321215
  0
VERTEX
  8
0
 62
7
  6
CONTINUOUS
 10
76.8917507403
 20
117.8181957439
  0
SEQEND
  0
POLYLINE
  8
0
 62
7
  6
CONTINUOUS
 66
1
 70
0
  0
VERTEX
  8
0
 62
7
  6
CONTINUOUS
 10
51.9917507403
 20
117.8972913535
  0
VERTEX
  8
0
 62
7
  6
CONTINUOUS
 10
51.871205954
 20
117.8950270607
  0
VERTEX
  8
0
 62
7
  6
CONTINUOUS
 10
51.7580390176
 20
117.8883665881
  0
VERTEX
  8
0
 62
7
  6
CONTINUOUS
 10
51.6588310603
 20
117.8776701009
  0
VERTEX
  8
0
 62
7
  6
CONTINUOUS
 10
51.6162826431
 20
117.8709777619
  0
VERTEX
  8
0
 62
7
  6
CONTINUOUS
 10
51.5482888628
 20
117.8553475283
  0
VERTEX
  8
0
 62
7
  6
CONTINUOUS
 10
51.5060504608
 20
117.8374321215
  0
VERTEX
  8
0
 62
7
  6
CONTINUOUS
 10
51.4917507403
 20
117.8181957439
  0
SEQEND
  0
LINE
  8
0
 62
7
  6
CONTINUOUS
 10
39.2917507403
 20
117.8972913535
 11
44.3917507403
 21
117.8972913535
  0
LINE
  8
0
 62
7
  6
CONTINUOUS
 10
51.9917507403
 20
117.8972913535
 11
57.0917507403
 21
117.8972913535
  0
LINE
  8
0
 62
7
  6
CONTINUOUS
 10
64.6917507403
 20
117.8972913535
 11
69.7917507403
 21
117.8972913535
  0
LINE
  8
0
 62
7
  6
CONTINUOUS
 10
77.3917507403
 20
117.8972913535
 11
82.4917507403
 21
117.8972913535
  0
LINE
  8
0
 62
7
  6
CONTINUOUS
 10
90.0917507403
 20
117.8972913535
 11
95.1917507403
 21
117.8972913535
  0
LINE
  8
0
 62
7
  6
CONTINUOUS
 10
102.7917507403
 20
117.8972913535
 11
107.8917507403
 21
117.8972913535
  0
LINE
  8
0
 62
7
  6
CONTINUOUS
 10
115.4917507403
 20
117.8972913535
 11
120.5917507403
 21
117.8972913535
  0
LINE
  8
0
 62
7
  6
CONTINUOUS
 10
128.1917507403
 20
117.8972913535
 11
133.2917507403
 21
117.8972913535
  0
POLYLINE
  8
0
 62
7
  6
CONTINUOUS
 66
1
 70
0
  0
VERTEX
  8
0
 62
7
  6
CONTINUOUS
 10
57.0917507403
 20
117.8972913535
  0
VERTEX
  8
0
 62
7
  6
CONTINUOUS
 10
57.2122955265
 20
117.8950270607
  0
VERTEX
  8
0
 62
7
  6
CONTINUOUS
 10
57.325462463
 20
117.8883665881
  0
VERTEX
  8
0
 62
7
  6
CONTINUOUS
 10
57.4246704202
 20
117.8776701009
  0
VERTEX
  8
0
 62
7
  6
CONTINUOUS
 10
57.4672188374
 20
117.8709777619
  0
VERTEX
  8
0
 62
7
  6
CONTINUOUS
 10
57.5352126178
 20
117.8553475283
  0
VERTEX
  8
0
 62
7
  6
CONTINUOUS
 10
57.5774510198
 20
117.8374321215
  0
VERTEX
  8
0
 62
7
  6
CONTINUOUS
 10
57.5917507403
 20
117.8181957439
  0
SEQEND
  0
POLYLINE
  8
0
 62
7
  6
CONTINUOUS
 66
1
 70
0
  0
VERTEX
  8
0
 62
7
  6
CONTINUOUS
 10
82.4917507403
 20
117.8972913535
  0
VERTEX
  8
0
 62
7
  6
CONTINUOUS
 10
82.6122955265
 20
117.8950270607
  0
VERTEX
  8
0
 62
7
  6
CONTINUOUS
 10
82.725462463
 20
117.8883665881
  0
VERTEX
  8
0
 62
7
  6
CONTINUOUS
 10
82.8246704202
 20
117.8776701009
  0
VERTEX
  8
0
 62
7
  6
CONTINUOUS
 10
82.8672188374
 20
117.8709777619
  0
VERTEX
  8
0
 62
7
  6
CONTINUOUS
 10
82.9352126178
 20
117.8553475283
  0
VERTEX
  8
0
 62
7
  6
CONTINUOUS
 10
82.9774510198
 20
117.8374321215
  0
VERTEX
  8
0
 62
7
  6
CONTINUOUS
 10
82.9917507403
 20
117.8181957439
  0
SEQEND
  0
POLYLINE
  8
0
 62
7
  6
CONTINUOUS
 66
1
 70
0
  0
VERTEX
  8
0
 62
7
  6
CONTINUOUS
 10
107.8917507403
 20
117.8972913535
  0
VERTEX
  8
0
 62
7
  6
CONTINUOUS
 10
108.0122955265
 20
117.8950270607
  0
VERTEX
  8
0
 62
7
  6
CONTINUOUS
 10
108.125462463
 20
117.8883665881
  0
VERTEX
  8
0
 62
7
  6
CONTINUOUS
 10
108.2246704202
 20
117.8776701009
  0
VERTEX
  8
0
 62
7
  6
CONTINUOUS
 10
108.2672188374
 20
117.8709777619
  0
VERTEX
  8
0
 62
7
  6
CONTINUOUS
 10
108.3352126178
 20
117.8553475283
  0
VERTEX
  8
0
 62
7
  6
CONTINUOUS
 10
108.3774510198
 20
117.8374321215
  0
VERTEX
  8
0
 62
7
  6
CONTINUOUS
 10
108.3917507403
 20
117.8181957439
  0
SEQEND
  0
POLYLINE
  8
0
 62
7
  6
CONTINUOUS
 66
1
 70
0
  0
VERTEX
  8
0
 62
7
  6
CONTINUOUS
 10
120.5917507403
 20
117.8972913535
  0
VERTEX
  8
0
 62
7
  6
CONTINUOUS
 10
120.7122955265
 20
117.8950270607
  0
VERTEX
  8
0
 62
7
  6
CONTINUOUS
 10
120.825462463
 20
117.8883665881
  0
VERTEX
  8
0
 62
7
  6
CONTINUOUS
 10
120.9246704202
 20
117.8776701009
  0
VERTEX
  8
0
 62
7
  6
CONTINUOUS
 10
120.9672188374
 20
117.8709777619
  0
VERTEX
  8
0
 62
7
  6
CONTINUOUS
 10
121.0352126178
 20
117.8553475283
  0
VERTEX
  8
0
 62
7
  6
CONTINUOUS
 10
121.0774510198
 20
117.8374321215
  0
VERTEX
  8
0
 62
7
  6
CONTINUOUS
 10
121.0917507403
 20
117.8181957439
  0
SEQEND
  0
POLYLINE
  8
0
 62
7
  6
CONTINUOUS
 66
1
 70
0
  0
VERTEX
  8
0
 62
7
  6
CONTINUOUS
 10
133.2917507403
 20
117.8972913535
  0
VERTEX
  8
0
 62
7
  6
CONTINUOUS
 10
133.4122955265
 20
117.8950270607
  0
VERTEX
  8
0
 62
7
  6
CONTINUOUS
 10
133.525462463
 20
117.8883665881
  0
VERTEX
  8
0
 62
7
  6
CONTINUOUS
 10
133.6246704202
 20
117.8776701009
  0
VERTEX
  8
0
 62
7
  6
CONTINUOUS
 10
133.6672188374
 20
117.8709777619
  0
VERTEX
  8
0
 62
7
  6
CONTINUOUS
 10
133.7352126178
 20
117.8553475283
  0
VERTEX
  8
0
 62
7
  6
CONTINUOUS
 10
133.7774510198
 20
117.8374321215
  0
VERTEX
  8
0
 62
7
  6
CONTINUOUS
 10
133.7917507403
 20
117.8181957439
  0
SEQEND
  0
POLYLINE
  8
0
 62
7
  6
CONTINUOUS
 66
1
 70
0
  0
VERTEX
  8
0
 62
7
  6
CONTINUOUS
 10
136.3417507403
 20
112.979146557
  0
VERTEX
  8
0
 62
7
  6
CONTINUOUS
 10
136.4622987092
 20
112.9643972007
  0
VERTEX
  8
0
 62
7
  6
CONTINUOUS
 10
136.5749589353
 20
112.9214292017
  0
VERTEX
  8
0
 62
7
  6
CONTINUOUS
 10
136.6737872908
 20
112.8529803826
  0
VERTEX
  8
0
 62
7
  6
CONTINUOUS
 10
136.7159561496
 20
112.8107642762
  0
VERTEX
  8
0
 62
7
  6
CONTINUOUS
 10
136.7841773803
 20
112.7120814581
  0
VERTEX
  8
0
 62
7
  6
CONTINUOUS
 10
136.8270552994
 20
112.5994772881
  0
VERTEX
  8
0
 62
7
  6
CONTINUOUS
 10
136.8417507403
 20
112.479146557
  0
SEQEND
  0
POLYLINE
  8
0
 62
7
  6
CONTINUOUS
 66
1
 70
0
  0
VERTEX
  8
0
 62
7
  6
CONTINUOUS
 10
121.5917507787
 20
112.9791466403
  0
VERTEX
  8
0
 62
7
  6
CONTINUOUS
 10
121.5249655858
 20
112.9881266307
  0
VERTEX
  8
0
 62
7
  6
CONTINUOUS
 10
121.449079951
 20
113.0201659795
  0
VERTEX
  8
0
 62
7
  6
CONTINUOUS
 10
121.3773788406
 20
113.0728595473
  0
VERTEX
  8
0
 62
7
  6
CONTINUOUS
 10
121.3119059778
 20
113.1431996713
  0
VERTEX
  8
0
 62
7
  6
CONTINUOUS
 10
121.2538167993
 20
113.2288709917
  0
VERTEX
  8
0
 62
7
  6
CONTINUOUS
 10
121.2036796698
 20
113.3286084421
  0
VERTEX
  8
0
 62
7
  6
CONTINUOUS
 10
121.1622773616
 20
113.4409070944
  0
VERTEX
  8
0
 62
7
  6
CONTINUOUS
 10
121.1302855468
 20
113.5638098738
  0
VERTEX
  8
0
 62
7
  6
CONTINUOUS
 10
121.1079835
 20
113.6953531387
  0
VERTEX
  8
0
 62
7
  6
CONTINUOUS
 10
121.0952938731
 20
113.8335234348
  0
VERTEX
  8
0
 62
7
  6
CONTINUOUS
 10
121.091750527
 20
113.9614733993
  0
SEQEND
  0
POLYLINE
  8
0
 62
7
  6
CONTINUOUS
 66
1
 70
0
  0
VERTEX
  8
0
 62
7
  6
CONTINUOUS
 10
134.2917507746
 20
112.9791466399
  0
VERTEX
  8
0
 62
7
  6
CONTINUOUS
 10
134.2249655867
 20
112.9881266305
  0
VERTEX
  8
0
 62
7
  6
CONTINUOUS
 10
134.1490799353
 20
113.0201659877
  0
VERTEX
  8
0
 62
7
  6
CONTINUOUS
 10
134.077378813
 20
113.0728595726
  0
VERTEX
  8
0
 62
7
  6
CONTINUOUS
 10
134.0119059742
 20
113.1431996822
  0
VERTEX
  8
0
 62
7
  6
CONTINUOUS
 10
133.9538167846
 20
113.2288710177
  0
VERTEX
  8
0
 62
7
  6
CONTINUOUS
 10
133.9036796662
 20
113.3286084514
  0
VERTEX
  8
0
 62
7
  6
CONTINUOUS
 10
133.8622773603
 20
113.4409070996
  0
VERTEX
  8
0
 62
7
  6
CONTINUOUS
 10
133.8302855481
 20
113.5638098666
  0
VERTEX
  8
0
 62
7
  6
CONTINUOUS
 10
133.807983502
 20
113.6953531084
  0
VERTEX
  8
0
 62
7
  6
CONTINUOUS
 10
133.7952938733
 20
113.8335234133
  0
VERTEX
  8
0
 62
7
  6
CONTINUOUS
 10
133.7917505267
 20
113.9614734744
  0
SEQEND
  0
LINE
  8
0
 62
7
  6
CONTINUOUS
 10
109.7846544193
 20
101.9455471935
 11
109.1861018457
 21
102.5440997671
  0
LINE
  8
0
 62
7
  6
CONTINUOUS
 10
119.9388470612
 20
93.1413545515
 11
120.5373996349
 21
92.5428019779
  0
POLYLINE
  8
0
 62
7
  6
CONTINUOUS
 66
1
 70
0
  0
VERTEX
  8
0
 62
7
  6
CONTINUOUS
 10
95.6917507403
 20
117.8181957439
  0
VERTEX
  8
0
 62
7
  6
CONTINUOUS
 10
95.6774510198
 20
117.8374321215
  0
VERTEX
  8
0
 62
7
  6
CONTINUOUS
 10
95.6352126178
 20
117.8553475283
  0
VERTEX
  8
0
 62
7
  6
CONTINUOUS
 10
95.5672188374
 20
117.8709777619
  0
VERTEX
  8
0
 62
7
  6
CONTINUOUS
 10
95.5246704202
 20
117.8776701009
  0
VERTEX
  8
0
 62
7
  6
CONTINUOUS
 10
95.425462463
 20
117.8883665881
  0
VERTEX
  8
0
 62
7
  6
CONTINUOUS
 10
95.3122955265
 20
117.8950270607
  0
VERTEX
  8
0
 62
7
  6
CONTINUOUS
 10
95.1917507403
 20
117.8972913535
  0
SEQEND
  0
LINE
  8
0
 62
7
  6
CONTINUOUS
 10
108.9853689992
 20
102.9886475263
 11
108.7050964947
 21
107.4403091392
  0
LINE
  8
0
 62
7
  6
CONTINUOUS
 10
109.9867507403
 20
87.6434508725
 11
109.9867507403
 21
101.4576435144
  0
LINE
  8
0
 62
7
  6
CONTINUOUS
 10
115.5261018457
 20
92.5428019779
 11
116.1246544193
 21
93.1413545515
  0
LINE
  8
0
 62
7
  6
CONTINUOUS
 10
126.8973996349
 20
102.5440997671
 11
126.2988470612
 21
101.9455471935
  0
LINE
  8
0
 62
7
  6
CONTINUOUS
 10
39.2917507403
 20
120.8334508725
 11
44.3917507403
 21
120.8334508725
  0
LINE
  8
0
 62
7
  6
CONTINUOUS
 10
51.9917507403
 20
120.8334508725
 11
57.0917507403
 21
120.8334508725
  0
LINE
  8
0
 62
7
  6
CONTINUOUS
 10
64.6917507403
 20
120.8334508725
 11
69.7917507403
 21
120.8334508725
  0
LINE
  8
0
 62
7
  6
CONTINUOUS
 10
77.3917507403
 20
120.8334508725
 11
82.4917507403
 21
120.8334508725
  0
LINE
  8
0
 62
7
  6
CONTINUOUS
 10
90.0917507403
 20
120.8334508725
 11
95.1917507403
 21
120.8334508725
  0
LINE
  8
0
 62
7
  6
CONTINUOUS
 10
102.7917507403
 20
120.8334508725
 11
107.8917507403
 21
120.8334508725
  0
LINE
  8
0
 62
7
  6
CONTINUOUS
 10
115.4917507403
 20
120.8334508725
 11
120.5917507403
 21
120.8334508725
  0
LINE
  8
0
 62
7
  6
CONTINUOUS
 10
128.1917507403
 20
120.8334508725
 11
133.2917507403
 21
120.8334508725
  0
POLYLINE
  8
0
 62
7
  6
CONTINUOUS
 66
1
 70
0
  0
VERTEX
  8
0
 62
7
  6
CONTINUOUS
 10
134.0417507403
 20
77.2687060011
  0
VERTEX
  8
0
 62
7
  6
CONTINUOUS
 10
134.0560504608
 20
77.2494696235
  0
VERTEX
  8
0
 62
7
  6
CONTINUOUS
 10
134.0982888628
 20
77.2315542166
  0
VERTEX
  8
0
 62
7
  6
CONTINUOUS
 10
134.1662826431
 20
77.215923983
  0
VERTEX
  8
0
 62
7
  6
CONTINUOUS
 10
134.2088310603
 20
77.2092316441
  0
VERTEX
  8
0
 62
7
  6
CONTINUOUS
 10
134.3080390176
 20
77.1985351569
  0
VERTEX
  8
0
 62
7
  6
CONTINUOUS
 10
134.421205954
 20
77.1918746843
  0
VERTEX
  8
0
 62
7
  6
CONTINUOUS
 10
134.5417507403
 20
77.1896103914
  0
SEQEND
  0
LINE
  8
0
 62
7
  6
CONTINUOUS
 10
113.3967507403
 20
101.4576435144
 11
113.3967507403
 21
87.6434508725
  0
LINE
  8
0
 62
7
  6
CONTINUOUS
 10
114.7417507403
 20
74.7534508725
 11
114.7417507403
 21
81.1254653634
  0
LINE
  8
0
 62
7
  6
CONTINUOUS
 10
114.9917507403
 20
120.3334508725
 11
114.9917507403
 21
113.9614364348
  0
LINE
  8
0
 62
7
  6
CONTINUOUS
 10
116.3267507403
 20
93.6292582305
 11
116.3267507403
 21
107.4434508725
  0
POLYLINE
  8
0
 62
7
  6
CONTINUOUS
 66
1
 70
0
  0
VERTEX
  8
0
 62
7
  6
CONTINUOUS
 10
114.9917511959
 20
113.9614644942
  0
VERTEX
  8
0
 62
7
  6
CONTINUOUS
 10
114.988280752
 20
113.834818668
  0
VERTEX
  8
0
 62
7
  6
CONTINUOUS
 10
114.9756713914
 20
113.6965465712
  0
VERTEX
  8
0
 62
7
  6
CONTINUOUS
 10
114.9534472478
 20
113.5648988459
  0
VERTEX
  8
0
 62
7
  6
CONTINUOUS
 10
114.9215307551
 20
113.4418922114
  0
VERTEX
  8
0
 62
7
  6
CONTINUOUS
 10
114.8802013205
 20
113.329488574
  0
VERTEX
  8
0
 62
7
  6
CONTINUOUS
 10
114.8301338845
 20
113.2296415712
  0
VERTEX
  8
0
 62
7
  6
CONTINUOUS
 10
114.772110398
 20
113.1438516475
  0
VERTEX
  8
0
 62
7
  6
CONTINUOUS
 10
114.7066974102
 20
113.0733778545
  0
VERTEX
  8
0
 62
7
  6
CONTINUOUS
 10
114.6350447313
 20
113.0205270136
  0
VERTEX
  8
0
 62
7
  6
CONTINUOUS
 10
114.559182107
 20
112.9883011069
  0
VERTEX
  8
0
 62
7
  6
CONTINUOUS
 10
114.4917507403
 20
112.9791466385
  0
SEQEND
  0
POLYLINE
  8
0
 62
7
  6
CONTINUOUS
 66
1
 70
0
  0
VERTEX
  8
0
 62
7
  6
CONTINUOUS
 10
114.7417505311
 20
81.1254282823
  0
VERTEX
  8
0
 62
7
  6
CONTINUOUS
 10
114.745220922
 20
81.2520869086
  0
VERTEX
  8
0
 62
7
  6
CONTINUOUS
 10
114.7578304989
 20
81.3903604408
  0
VERTEX
  8
0
 62
7
  6
CONTINUOUS
 10
114.7800546115
 20
81.5220055089
  0
VERTEX
  8
0
 62
7
  6
CONTINUOUS
 10
114.8119708053
 20
81.6450102083
  0
VERTEX
  8
0
 62
7
  6
CONTINUOUS
 10
114.8533003635
 20
81.7574137279
  0
VERTEX
  8
0
 62
7
  6
CONTINUOUS
 10
114.9033674913
 20
81.8572600265
  0
VERTEX
  8
0
 62
7
  6
CONTINUOUS
 10
114.9613914774
 20
81.943050444
  0
VERTEX
  8
0
 62
7
  6
CONTINUOUS
 10
115.0268042172
 20
82.0135240922
  0
VERTEX
  8
0
 62
7
  6
CONTINUOUS
 10
115.0984575332
 20
82.0663752485
  0
VERTEX
  8
0
 62
7
  6
CONTINUOUS
 10
115.1743231356
 20
82.0986016472
  0
VERTEX
  8
0
 62
7
  6
CONTINUOUS
 10
115.2417507403
 20
82.1077551049
  0
SEQEND
  0
LINE
  8
0
 62
7
  6
CONTINUOUS
 10
114.6784049858
 20
107.4403091392
 11
114.3981324813
 21
102.9886475263
  0
LINE
  8
0
 62
7
  6
CONTINUOUS
 10
115.0450964947
 20
87.6465926058
 11
115.3253689992
 21
92.0982542186
  0
LINE
  8
0
 62
7
  6
CONTINUOUS
 10
115.0445103506
 20
87.6466295523
 11
115.325111418
 21
92.0982704548
  0
LINE
  8
0
 62
7
  6
CONTINUOUS
 10
122.4846544193
 20
101.9455471935
 11
121.8861018457
 21
102.5440997671
  0
LINE
  8
0
 62
7
  6
CONTINUOUS
 10
132.6388470612
 20
93.1413545515
 11
133.2373996349
 21
92.5428019779
  0
LINE
  8
0
 62
7
  6
CONTINUOUS
 10
119.7367507403
 20
107.4434508725
 11
119.7367507403
 21
93.6292582305
  0
LINE
  8
0
 62
7
  6
CONTINUOUS
 10
128.2261018457
 20
92.5428019779
 11
128.8246544193
 21
93.1413545515
  0
LINE
  8
0
 62
7
  6
CONTINUOUS
 10
120.7381324813
 20
92.0982542186
 11
121.0184049858
 21
87.6465926058
  0
LINE
  8
0
 62
7
  6
CONTINUOUS
 10
121.6853689992
 20
102.9886475263
 11
121.4050964947
 21
107.4403091392
  0
LINE
  8
0
 62
7
  6
CONTINUOUS
 10
121.0917507403
 20
113.9614363815
 11
121.0917507403
 21
120.3334508725
  0
LINE
  8
0
 62
7
  6
CONTINUOUS
 10
121.3417507403
 20
74.7534508725
 11
121.3417507403
 21
81.4290804738
  0
LINE
  8
0
 62
7
  6
CONTINUOUS
 10
122.6867507403
 20
87.6434508725
 11
122.6867507403
 21
101.4576435144
  0
LINE
  8
0
 62
7
  6
CONTINUOUS
 10
126.0967507403
 20
101.4576435144
 11
126.0967507403
 21
87.6434508725
  0
LINE
  8
0
 62
7
  6
CONTINUOUS
 10
127.4417507403
 20
74.7534508725
 11
127.4417507403
 21
81.1254653634
  0
LINE
  8
0
 62
7
  6
CONTINUOUS
 10
127.6917507403
 20
120.3334508725
 11
127.6917507403
 21
113.6578212711
  0
POLYLINE
  8
0
 62
7
  6
CONTINUOUS
 66
1
 70
0
  0
VERTEX
  8
0
 62
7
  6
CONTINUOUS
 10
127.6917511959
 20
113.9614644942
  0
VERTEX
  8
0
 62
7
  6
CONTINUOUS
 10
127.688280752
 20
113.834818668
  0
VERTEX
  8
0
 62
7
  6
CONTINUOUS
 10
127.6756713914
 20
113.6965465712
  0
VERTEX
  8
0
 62
7
  6
CONTINUOUS
 10
127.6534472478
 20
113.5648988459
  0
VERTEX
  8
0
 62
7
  6
CONTINUOUS
 10
127.6215307551
 20
113.4418922114
  0
VERTEX
  8
0
 62
7
  6
CONTINUOUS
 10
127.5802013205
 20
113.329488574
  0
VERTEX
  8
0
 62
7
  6
CONTINUOUS
 10
127.5301338845
 20
113.2296415712
  0
VERTEX
  8
0
 62
7
  6
CONTINUOUS
 10
127.472110398
 20
113.1438516475
  0
VERTEX
  8
0
 62
7
  6
CONTINUOUS
 10
127.4066974102
 20
113.0733778545
  0
VERTEX
  8
0
 62
7
  6
CONTINUOUS
 10
127.3350447313
 20
113.0205270136
  0
VERTEX
  8
0
 62
7
  6
CONTINUOUS
 10
127.259182107
 20
112.9883011069
  0
VERTEX
  8
0
 62
7
  6
CONTINUOUS
 10
127.1917507403
 20
112.9791466385
  0
SEQEND
  0
LINE
  8
0
 62
7
  6
CONTINUOUS
 10
127.3784049858
 20
107.4403091392
 11
127.0981324813
 21
102.9886475263
  0
LINE
  8
0
 62
7
  6
CONTINUOUS
 10
129.0267507403
 20
93.6292582305
 11
129.0267507403
 21
107.4434508725
  0
POLYLINE
  8
0
 62
7
  6
CONTINUOUS
 66
1
 70
0
  0
VERTEX
  8
0
 62
7
  6
CONTINUOUS
 10
127.4417505311
 20
81.1254282823
  0
VERTEX
  8
0
 62
7
  6
CONTINUOUS
 10
127.445220922
 20
81.2520869086
  0
VERTEX
  8
0
 62
7
  6
CONTINUOUS
 10
127.4578304989
 20
81.3903604408
  0
VERTEX
  8
0
 62
7
  6
CONTINUOUS
 10
127.4800546115
 20
81.5220055089
  0
VERTEX
  8
0
 62
7
  6
CONTINUOUS
 10
127.5119708053
 20
81.6450102083
  0
VERTEX
  8
0
 62
7
  6
CONTINUOUS
 10
127.5533003635
 20
81.7574137279
  0
VERTEX
  8
0
 62
7
  6
CONTINUOUS
 10
127.6033674913
 20
81.8572600265
  0
VERTEX
  8
0
 62
7
  6
CONTINUOUS
 10
127.6613914774
 20
81.943050444
  0
VERTEX
  8
0
 62
7
  6
CONTINUOUS
 10
127.7268042172
 20
82.0135240922
  0
VERTEX
  8
0
 62
7
  6
CONTINUOUS
 10
127.7984575332
 20
82.0663752485
  0
VERTEX
  8
0
 62
7
  6
CONTINUOUS
 10
127.8743231356
 20
82.0986016472
  0
VERTEX
  8
0
 62
7
  6
CONTINUOUS
 10
127.9417507403
 20
82.1077551049
  0
SEQEND
  0
LINE
  8
0
 62
7
  6
CONTINUOUS
 10
127.7450964947
 20
87.6465926058
 11
128.0253689992
 21
92.0982542186
  0
LINE
  8
0
 62
7
  6
CONTINUOUS
 10
127.7445103506
 20
87.6466295523
 11
128.025111418
 21
92.0982704548
  0
LINE
  8
0
 62
7
  6
CONTINUOUS
 10
133.4381324813
 20
92.0982542186
 11
133.7184049858
 21
87.6465926058
  0
LINE
  8
0
 62
7
  6
CONTINUOUS
 10
132.4367507403
 20
107.4434508725
 11
132.4367507403
 21
93.6292582305
  0
LINE
  8
0
 62
7
  6
CONTINUOUS
 10
133.7917507403
 20
113.9614363843
 11
133.7917507403
 21
120.3334508725
  0
LINE
  8
0
 62
7
  6
CONTINUOUS
 10
134.0417507403
 20
81.1254653101
 11
134.0417507403
 21
74.7534508725
  0
LINE
  8
0
 62
7
  6
CONTINUOUS
 10
136.8417507403
 20
81.8934508725
 11
137.0417507403
 21
82.0934508725
  0
LINE
  8
0
 62
7
  6
CONTINUOUS
 10
136.8417507403
 20
74.7534508725
 11
136.8417507403
 21
112.479146557
  0
LINE
  8
0
 62
7
  6
CONTINUOUS
 10
137.0417507403
 20
110.9097023737
 11
137.0417507403
 21
82.0934508725
  0
POLYLINE
  8
0
 62
7
  6
CONTINUOUS
 66
1
 70
0
  0
VERTEX
  8
0
 62
7
  6
CONTINUOUS
 10
136.8417507403
 20
77.2687060011
  0
VERTEX
  8
0
 62
7
  6
CONTINUOUS
 10
136.8274510198
 20
77.2494696235
  0
VERTEX
  8
0
 62
7
  6
CONTINUOUS
 10
136.7852126178
 20
77.2315542166
  0
VERTEX
  8
0
 62
7
  6
CONTINUOUS
 10
136.7172188374
 20
77.215923983
  0
VERTEX
  8
0
 62
7
  6
CONTINUOUS
 10
136.6746704202
 20
77.2092316441
  0
VERTEX
  8
0
 62
7
  6
CONTINUOUS
 10
136.575462463
 20
77.1985351569
  0
VERTEX
  8
0
 62
7
  6
CONTINUOUS
 10
136.4622955265
 20
77.1918746843
  0
VERTEX
  8
0
 62
7
  6
CONTINUOUS
 10
136.3417507403
 20
77.1896103914
  0
SEQEND
  0
LINE
  8
0
 62
7
  6
CONTINUOUS
 10
173.2489695329
 20
74.2534508725
 11
175.1930888708
 21
74.2534508725
  0
LINE
  8
1_AXIS
 62
2
  6
CONTINUOUS
 10
175.1010292018
 20
78.4934508725
 11
173.3410292018
 21
78.4934508725
  0
LINE
  8
1_AXIS
 62
2
  6
CENTER
 10
169.8210292018
 20
78.4934508725
 11
168.07102797
 21
78.4934508725
  0
LINE
  8
1_AXIS
 62
2
  6
CENTER
 10
178.6210292018
 20
78.4934508725
 11
180.3710304337
 21
78.4934508725
  0
LINE
  8
0
 62
7
  6
CONTINUOUS
 10
178.3710292018
 20
77.1896103914
 11
178.201216585
 21
77.215923983
  0
POLYLINE
  8
0
 62
7
  6
CONTINUOUS
 66
1
 70
0
  0
VERTEX
  8
0
 62
7
  6
CONTINUOUS
 10
178.201216585
 20
77.215923983
  0
VERTEX
  8
0
 62
7
  6
CONTINUOUS
 10
177.9897525714
 20
77.2494696235
  0
VERTEX
  8
0
 62
7
  6
CONTINUOUS
 10
177.8710292018
 20
77.2687060011
  0
SEQEND
  0
LINE
  8
0
 62
7
  6
CONTINUOUS
 10
177.7611423018
 20
81.8934508725
 11
172.0076292018
 21
81.8934508725
  0
POLYLINE
  8
0
 62
7
  6
CONTINUOUS
 66
1
 70
0
  0
VERTEX
  8
0
 62
7
  6
CONTINUOUS
 10
171.980426081
 20
81.8944981799
  0
VERTEX
  8
0
 62
7
  6
CONTINUOUS
 10
171.9894950095
 20
81.8939160881
  0
VERTEX
  8
0
 62
7
  6
CONTINUOUS
 10
171.9985624747
 20
81.8935671382
  0
VERTEX
  8
0
 62
7
  6
CONTINUOUS
 10
172.0076292018
 20
81.8934508725
  0
SEQEND
  0
POLYLINE
  8
0
 62
7
  6
CONTINUOUS
 66
1
 70
0
  0
VERTEX
  8
0
 62
7
  6
CONTINUOUS
 10
171.7379501011
 20
82.1261579127
  0
VERTEX
  8
0
 62
7
  6
CONTINUOUS
 10
171.8229411902
 20
82.1081762203
  0
VERTEX
  8
0
 62
7
  6
CONTINUOUS
 10
171.9130838376
 20
82.0972756149
  0
VERTEX
  8
0
 62
7
  6
CONTINUOUS
 10
172.0076292018
 20
82.0934580859
  0
SEQEND
  0
LINE
  8
0
 62
7
  6
CONTINUOUS
 10
172.0076292018
 20
82.0934508725
 11
177.5455443185
 21
82.0934508725
  0
LINE
  8
0
 62
7
  6
CONTINUOUS
 10
177.5455443185
 20
82.0934508725
 11
177.7611423018
 21
81.8934508725
  0
POLYLINE
  8
0
 62
7
  6
CONTINUOUS
 66
1
 70
0
  0
VERTEX
  8
0
 62
7
  6
CONTINUOUS
 10
171.5076292018
 20
82.3005576537
  0
VERTEX
  8
0
 62
7
  6
CONTINUOUS
 10
171.5200782543
 20
82.2546302158
  0
VERTEX
  8
0
 62
7
  6
CONTINUOUS
 10
171.5572965254
 20
82.2105669755
  0
VERTEX
  8
0
 62
7
  6
CONTINUOUS
 10
171.5845255859
 20
82.1901999894
  0
VERTEX
  8
0
 62
7
  6
CONTINUOUS
 10
171.6533763274
 20
82.1544013543
  0
VERTEX
  8
0
 62
7
  6
CONTINUOUS
 10
171.7379501011
 20
82.1261579127
  0
SEQEND
  0
LINE
  8
0
 62
7
  6
CONTINUOUS
 10
169.8710292018
 20
78.4934508725
 11
169.8710292018
 21
116.5934508725
  0
POLYLINE
  8
0
 62
7
  6
CONTINUOUS
 66
1
 70
0
  0
VERTEX
  8
0
 62
7
  6
CONTINUOUS
 10
171.5076292018
 20
82.1133567346
  0
VERTEX
  8
0
 62
7
  6
CONTINUOUS
 10
171.5076551706
 20
82.1101478103
  0
VERTEX
  8
0
 62
7
  6
CONTINUOUS
 10
171.507903199
 20
82.1044397103
  0
VERTEX
  8
0
 62
7
  6
CONTINUOUS
 10
171.5085112291
 20
82.0988589571
  0
VERTEX
  8
0
 62
7
  6
CONTINUOUS
 10
171.5096497347
 20
82.0928564985
  0
VERTEX
  8
0
 62
7
  6
CONTINUOUS
 10
171.5115531033
 20
82.0861601798
  0
VERTEX
  8
0
 62
7
  6
CONTINUOUS
 10
171.5145377147
 20
82.0785702408
  0
VERTEX
  8
0
 62
7
  6
CONTINUOUS
 10
171.5191044941
 20
82.0697737647
  0
VERTEX
  8
0
 62
7
  6
CONTINUOUS
 10
171.5260572708
 20
82.0593490141
  0
VERTEX
  8
0
 62
7
  6
CONTINUOUS
 10
171.5307762197
 20
82.0533965635
  0
VERTEX
  8
0
 62
7
  6
CONTINUOUS
 10
171.5437485872
 20
82.0396589563
  0
VERTEX
  8
0
 62
7
  6
CONTINUOUS
 10
171.5634469015
 20
82.0229763955
  0
VERTEX
  8
0
 62
7
  6
CONTINUOUS
 10
171.5935370423
 20
82.0026321789
  0
VERTEX
  8
0
 62
7
  6
CONTINUOUS
 10
171.6402283317
 20
81.977782581
  0
VERTEX
  8
0
 62
7
  6
CONTINUOUS
 10
171.7131774524
 20
81.9483586681
  0
VERTEX
  8
0
 62
7
  6
CONTINUOUS
 10
171.8120462201
 20
81.9201425521
  0
VERTEX
  8
0
 62
7
  6
CONTINUOUS
 10
171.9226038369
 20
81.9004219036
  0
VERTEX
  8
0
 62
7
  6
CONTINUOUS
 10
171.980426081
 20
81.8944981799
  0
SEQEND
  0
LINE
  8
0
 62
7
  6
CONTINUOUS
 10
171.5076292018
 20
82.1133567346
 11
171.5076292018
 21
111.4097023737
  0
LINE
  8
0
 62
7
  6
CONTINUOUS
 10
175.1930888708
 20
120.8334508725
 11
175.1622254982
 21
120.5650439102
  0
LINE
  8
0
 62
7
  6
CONTINUOUS
 10
175.1622254982
 20
120.5650439102
 11
175.1347578267
 21
120.3334508725
  0
LINE
  8
0
 62
7
  6
CONTINUOUS
 10
175.1347578267
 20
74.7534508725
 11
175.1622254982
 21
74.5218578348
  0
LINE
  8
0
 62
7
  6
CONTINUOUS
 10
175.1622254982
 20
74.5218578348
 11
175.1930888708
 21
74.2534508725
  0
LINE
  8
1_AXIS
 62
2
  6
CONTINUOUS
 10
174.2210292018
 20
117.4734508725
 11
174.2210292018
 21
115.7134508725
  0
LINE
  8
1_AXIS
 62
2
  6
CENTER
 10
174.2210292018
 20
112.1934508725
 11
174.2210292018
 21
110.4434496406
  0
LINE
  8
1_AXIS
 62
2
  6
CONTINUOUS
 10
174.2210292018
 20
79.3734508725
 11
174.2210292018
 21
77.6134508725
  0
LINE
  8
1_AXIS
 62
2
  6
CENTER
 10
174.2210292018
 20
74.0934508725
 11
174.2210292018
 21
72.3434496406
  0
LINE
  8
1_AXIS
 62
2
  6
CENTER
 10
174.2210292018
 20
82.8934508725
 11
174.2210292018
 21
84.6434521043
  0
LINE
  8
1_AXIS
 62
2
  6
CENTER
 10
174.2210292018
 20
120.9934508725
 11
174.2210292018
 21
122.7434521043
  0
LINE
  8
1_AXIS
 62
2
  6
CENTER
 10
167.3710292018
 20
97.5434508725
 11
180.3710304337
 21
97.5434508725
  0
LINE
  8
0
 62
7
  6
CONTINUOUS
 10
173.2633804561
 20
74.3798548716
 11
173.2489695329
 21
74.2534508725
  0
LINE
  8
0
 62
7
  6
CONTINUOUS
 10
173.2633804561
 20
120.7070468733
 11
173.2489695329
 21
120.8334508725
  0
LINE
  8
0
 62
7
  6
CONTINUOUS
 10
175.9710292018
 20
83.0294724899
 11
175.9710292018
 21
110.9097023737
  0
LINE
  8
2_FEATURE
 62
7
  6
CONTINUOUS
 10
175.9710292018
 20
110.9097023737
 11
175.9710292018
 21
111.9097023737
  0
POLYLINE
  8
0
 62
7
  6
CONTINUOUS
 66
1
 70
0
  0
VERTEX
  8
0
 62
7
  6
CONTINUOUS
 10
173.3073005769
 20
74.7534508725
  0
VERTEX
  8
0
 62
7
  6
CONTINUOUS
 10
173.2930679842
 20
74.6343053205
  0
VERTEX
  8
0
 62
7
  6
CONTINUOUS
 10
173.2633804561
 20
74.3798548716
  0
SEQEND
  0
LINE
  8
0
 62
7
  6
CONTINUOUS
 10
173.3073005769
 20
120.3334508725
 11
173.2798329054
 21
120.5650439102
  0
LINE
  8
0
 62
7
  6
CONTINUOUS
 10
173.2798329054
 20
120.5650439102
 11
173.2633804561
 21
120.7070468733
  0
LINE
  8
0
 62
7
  6
CONTINUOUS
 10
178.3710292018
 20
117.8972913535
 11
178.3710292018
 21
77.1896103914
  0
POLYLINE
  8
0
 62
7
  6
CONTINUOUS
 66
1
 70
0
  0
VERTEX
  8
0
 62
7
  6
CONTINUOUS
 10
175.9550427723
 20
111.9409833269
  0
VERTEX
  8
0
 62
7
  6
CONTINUOUS
 10
175.9125973466
 20
112.0685453739
  0
VERTEX
  8
0
 62
7
  6
CONTINUOUS
 10
175.8838085566
 20
112.1441887904
  0
VERTEX
  8
0
 62
7
  6
CONTINUOUS
 10
175.8680036973
 20
112.1783536157
  0
VERTEX
  8
0
 62
7
  6
CONTINUOUS
 10
175.8337803703
 20
112.2337524549
  0
VERTEX
  8
0
 62
7
  6
CONTINUOUS
 10
175.7914305355
 20
112.2741177063
  0
VERTEX
  8
0
 62
7
  6
CONTINUOUS
 10
175.7319122954
 20
112.3006250101
  0
VERTEX
  8
0
 62
7
  6
CONTINUOUS
 10
175.6548316021
 20
112.3118151416
  0
VERTEX
  8
0
 62
7
  6
CONTINUOUS
 10
175.6094596484
 20
112.3129998571
  0
SEQEND
  0
POLYLINE
  8
0
 62
7
  6
CONTINUOUS
 66
1
 70
0
  0
VERTEX
  8
0
 62
7
  6
CONTINUOUS
 10
175.9707745256
 20
111.9097023737
  0
VERTEX
  8
0
 62
7
  6
CONTINUOUS
 10
175.9669236176
 20
111.9132056346
  0
VERTEX
  8
0
 62
7
  6
CONTINUOUS
 10
175.9550427723
 20
111.9409833269
  0
SEQEND
  0
LINE
  8
0
 62
7
  6
CONTINUOUS
 10
175.9710292018
 20
111.9097023737
 11
172.0076292018
 21
111.9097023737
  0
POLYLINE
  8
0
 62
7
  6
CONTINUOUS
 66
1
 70
0
  0
VERTEX
  8
0
 62
7
  6
CONTINUOUS
 10
169.8710292018
 20
112.2277942232
  0
VERTEX
  8
0
 62
7
  6
CONTINUOUS
 10
169.8855500432
 20
112.2315400564
  0
VERTEX
  8
0
 62
7
  6
CONTINUOUS
 10
169.9282744917
 20
112.2350686379
  0
VERTEX
  8
0
 62
7
  6
CONTINUOUS
 10
169.9967292185
 20
112.2381749251
  0
VERTEX
  8
0
 62
7
  6
CONTINUOUS
 10
170.0394176393
 20
112.2395119997
  0
VERTEX
  8
0
 62
7
  6
CONTINUOUS
 10
170.1386171662
 20
112.2416566684
  0
VERTEX
  8
0
 62
7
  6
CONTINUOUS
 10
170.2513378767
 20
112.2429956602
  0
VERTEX
  8
0
 62
7
  6
CONTINUOUS
 10
170.3710292018
 20
112.2434508725
  0
SEQEND
  0
POLYLINE
  8
0
 62
7
  6
CONTINUOUS
 66
1
 70
0
  0
VERTEX
  8
0
 62
7
  6
CONTINUOUS
 10
171.5832921399
 20
112.2546755956
  0
VERTEX
  8
0
 62
7
  6
CONTINUOUS
 10
171.6700108654
 20
112.2736397242
  0
VERTEX
  8
0
 62
7
  6
CONTINUOUS
 10
171.7087831566
 20
112.2816602427
  0
VERTEX
  8
0
 62
7
  6
CONTINUOUS
 10
171.7534354384
 20
112.2900187476
  0
VERTEX
  8
0
 62
7
  6
CONTINUOUS
 10
171.8075449752
 20
112.2986005689
  0
VERTEX
  8
0
 62
7
  6
CONTINUOUS
 10
171.8747175721
 20
112.3065910034
  0
VERTEX
  8
0
 62
7
  6
CONTINUOUS
 10
171.9584774014
 20
112.3121195748
  0
VERTEX
  8
0
 62
7
  6
CONTINUOUS
 10
172.0076292018
 20
112.3130002324
  0
SEQEND
  0
POLYLINE
  8
0
 62
7
  6
CONTINUOUS
 66
1
 70
0
  0
VERTEX
  8
0
 62
7
  6
CONTINUOUS
 10
171.5059409434
 20
112.2434517863
  0
VERTEX
  8
0
 62
7
  6
CONTINUOUS
 10
171.5143557981
 20
112.2437085969
  0
VERTEX
  8
0
 62
7
  6
CONTINUOUS
 10
171.5331566569
 20
112.2455818368
  0
VERTEX
  8
0
 62
7
  6
CONTINUOUS
 10
171.5557143947
 20
112.249209717
  0
VERTEX
  8
0
 62
7
  6
CONTINUOUS
 10
171.5832921399
 20
112.2546755956
  0
SEQEND
  0
LINE
  8
0
 62
7
  6
CONTINUOUS
 10
170.3710292018
 20
112.2434508725
 11
171.5059124166
 21
112.2434517863
  0
LINE
  8
0
 62
7
  6
CONTINUOUS
 10
172.0076292018
 20
112.3130002324
 11
175.6094596484
 21
112.3129998571
  0
LINE
  8
1_AXIS
 62
2
  6
CONTINUOUS
 10
175.1010292018
 20
116.5934508725
 11
173.3410292018
 21
116.5934508725
  0
LINE
  8
1_AXIS
 62
2
  6
CENTER
 10
169.8210292018
 20
116.5934508725
 11
168.07102797
 21
116.5934508725
  0
LINE
  8
1_AXIS
 62
2
  6
CENTER
 10
178.6210292018
 20
116.5934508725
 11
180.3710304337
 21
116.5934508725
  0
LINE
  8
0
 62
7
  6
CONTINUOUS
 10
177.8710292018
 20
117.8181957439
 11
178.101987127
 21
117.8553475283
  0
LINE
  8
0
 62
7
  6
CONTINUOUS
 10
178.101987127
 20
117.8553475283
 11
178.3130459783
 21
117.8883665881
  0
LINE
  8
0
 62
7
  6
CONTINUOUS
 10
178.3130459783
 20
117.8883665881
 11
178.3710292018
 21
117.8972913535
  0
LINE
  8
0
 62
7
  6
CONTINUOUS
 10
173.2489695329
 20
120.8334508725
 11
175.1930888708
 21
120.8334508725
  0
LINE
  8
0
 62
7
  6
CONTINUOUS
 10
35.5417507403
 20
194.4715776582
 11
35.5417507403
 21
200.0094927748
  0
LINE
  8
0
 62
7
  6
CONTINUOUS
 10
35.7417507403
 20
192.8349777401
 11
35.7417507403
 21
200.3349776582
  0
LINE
  8
0
 62
7
  6
CONTINUOUS
 10
38.5417507403
 20
192.8349776582
 11
38.5417507403
 21
200.3349776582
  0
LINE
  8
0
 62
7
  6
CONTINUOUS
 10
38.8512476784
 20
196.6849776582
 11
38.8512476784
 21
198.4349776582
  0
LINE
  8
0
 62
7
  6
CONTINUOUS
 10
39.1379677259
 20
196.6849776582
 11
39.1379677259
 21
198.4349776582
  0
POLYLINE
  8
0
 62
7
  6
CONTINUOUS
 66
1
 70
0
  0
VERTEX
  8
0
 62
7
  6
CONTINUOUS
 10
35.5770319707
 20
194.2868896466
  0
VERTEX
  8
0
 62
7
  6
CONTINUOUS
 10
35.5506824724
 20
194.377032294
  0
VERTEX
  8
0
 62
7
  6
CONTINUOUS
 10
35.5417435269
 20
194.4715776582
  0
SEQEND
  0
LINE
  8
0
 62
7
  6
CONTINUOUS
 10
40.3917507403
 20
192.8349776582
 11
40.3917507403
 21
194.6115395994
  0
LINE
  8
0
 62
7
  6
CONTINUOUS
 10
35.6207125203
 20
194.2018985575
 11
35.5770319707
 21
194.2868896466
  0
LINE
  8
0
 62
7
  6
CONTINUOUS
 10
42.8917507403
 20
193.8410352933
 11
42.8917507403
 21
192.5349801212
  0
LINE
  8
0
 62
7
  6
CONTINUOUS
 10
43.2917507403
 20
192.8349776582
 11
43.2917507403
 21
194.6119398418
  0
LINE
  8
0
 62
7
  6
CONTINUOUS
 10
45.1417507403
 20
200.3349776582
 11
45.1417507403
 21
192.8349776582
  0
POLYLINE
  8
0
 62
7
  6
CONTINUOUS
 66
1
 70
0
  0
VERTEX
  8
0
 62
7
  6
CONTINUOUS
 10
42.8917504803
 20
193.8410928046
  0
VERTEX
  8
0
 62
7
  6
CONTINUOUS
 10
42.9025395432
 20
193.9274485707
  0
VERTEX
  8
0
 62
7
  6
CONTINUOUS
 10
42.9176125654
 20
193.977687175
  0
VERTEX
  8
0
 62
7
  6
CONTINUOUS
 10
42.9621184676
 20
194.0701050187
  0
SEQEND
  0
POLYLINE
  8
0
 62
7
  6
CONTINUOUS
 66
1
 70
0
  0
VERTEX
  8
0
 62
7
  6
CONTINUOUS
 10
43.1129958146
 20
193.9227908417
  0
VERTEX
  8
0
 62
7
  6
CONTINUOUS
 10
43.2109961102
 20
193.6728007752
  0
VERTEX
  8
0
 62
7
  6
CONTINUOUS
 10
43.2726455424
 20
193.4204504362
  0
VERTEX
  8
0
 62
7
  6
CONTINUOUS
 10
43.291750923
 20
193.1993055057
  0
SEQEND
  0
LINE
  8
0
 62
7
  6
CONTINUOUS
 10
44.3088684859
 20
193.4726344774
 11
44.5410563358
 21
192.6896650374
  0
POLYLINE
  8
0
 62
7
  6
CONTINUOUS
 66
1
 70
0
  0
VERTEX
  8
0
 62
7
  6
CONTINUOUS
 10
44.541056902
 20
192.6896632225
  0
VERTEX
  8
0
 62
7
  6
CONTINUOUS
 10
44.5340980622
 20
192.715692708
  0
VERTEX
  8
0
 62
7
  6
CONTINUOUS
 10
44.5204764979
 20
192.8349776582
  0
SEQEND
  0
LINE
  8
0
 62
7
  6
CONTINUOUS
 10
49.2417507403
 20
193.8410358403
 11
49.2417507403
 21
192.5349801212
  0
POLYLINE
  8
0
 62
7
  6
CONTINUOUS
 66
1
 70
0
  0
VERTEX
  8
0
 62
7
  6
CONTINUOUS
 10
49.2417504338
 20
193.8410367647
  0
VERTEX
  8
0
 62
7
  6
CONTINUOUS
 10
49.2423403046
 20
193.8603796495
  0
VERTEX
  8
0
 62
7
  6
CONTINUOUS
 10
49.2451054143
 20
193.888127053
  0
VERTEX
  8
0
 62
7
  6
CONTINUOUS
 10
49.2500340719
 20
193.9163052951
  0
VERTEX
  8
0
 62
7
  6
CONTINUOUS
 10
49.2569757213
 20
193.9445323528
  0
VERTEX
  8
0
 62
7
  6
CONTINUOUS
 10
49.2657528894
 20
193.972444462
  0
VERTEX
  8
0
 62
7
  6
CONTINUOUS
 10
49.2761611484
 20
193.9997021198
  0
VERTEX
  8
0
 62
7
  6
CONTINUOUS
 10
49.2880062033
 20
194.0260459704
  0
VERTEX
  8
0
 62
7
  6
CONTINUOUS
 10
49.3010714079
 20
194.0512075094
  0
VERTEX
  8
0
 62
7
  6
CONTINUOUS
 10
49.3151343278
 20
194.0749471834
  0
VERTEX
  8
0
 62
7
  6
CONTINUOUS
 10
49.3299792175
 20
194.0970733081
  0
VERTEX
  8
0
 62
7
  6
CONTINUOUS
 10
49.3453996563
 20
194.1174323957
  0
VERTEX
  8
0
 62
7
  6
CONTINUOUS
 10
49.3612806309
 20
194.1359961841
  0
VERTEX
  8
0
 62
7
  6
CONTINUOUS
 10
49.3777241941
 20
194.1529216811
  0
VERTEX
  8
0
 62
7
  6
CONTINUOUS
 10
49.3947915308
 20
194.1682006664
  0
VERTEX
  8
0
 62
7
  6
CONTINUOUS
 10
49.4124793423
 20
194.1816814974
  0
VERTEX
  8
0
 62
7
  6
CONTINUOUS
 10
49.4310884472
 20
194.1932940998
  0
VERTEX
  8
0
 62
7
  6
CONTINUOUS
 10
49.4506276799
 20
194.2025384877
  0
VERTEX
  8
0
 62
7
  6
CONTINUOUS
 10
49.4707631701
 20
194.2086051104
  0
VERTEX
  8
0
 62
7
  6
CONTINUOUS
 10
49.4900952771
 20
194.2106944789
  0
VERTEX
  8
0
 62
7
  6
CONTINUOUS
 10
49.5078888141
 20
194.2091531822
  0
VERTEX
  8
0
 62
7
  6
CONTINUOUS
 10
49.5242515731
 20
194.2049422438
  0
VERTEX
  8
0
 62
7
  6
CONTINUOUS
 10
49.5402373068
 20
194.1984995617
  0
VERTEX
  8
0
 62
7
  6
CONTINUOUS
 10
49.5490820355
 20
194.1940220708
  0
SEQEND
  0
POLYLINE
  8
0
 62
7
  6
CONTINUOUS
 66
1
 70
0
  0
VERTEX
  8
0
 62
7
  6
CONTINUOUS
 10
42.9174135013
 20
193.9770236912
  0
VERTEX
  8
0
 62
7
  6
CONTINUOUS
 10
42.9278715705
 20
194.0037657375
  0
VERTEX
  8
0
 62
7
  6
CONTINUOUS
 10
42.9402926411
 20
194.0307068012
  0
VERTEX
  8
0
 62
7
  6
CONTINUOUS
 10
42.9539646138
 20
194.0563447258
  0
SEQEND
  0
LINE
  8
0
 62
7
  6
CONTINUOUS
 10
35.5417507403
 20
200.0094927748
 11
35.7417507403
 21
200.2250907582
  0
LINE
  8
0
 62
7
  6
CONTINUOUS
 10
43.0438655267
 20
194.070529178
 11
43.0553892987
 21
194.0461122679
  0
LINE
  8
0
 62
7
  6
CONTINUOUS
 10
43.0553892987
 20
194.0461122679
 11
43.1130217909
 21
193.9227379466
  0
POLYLINE
  8
0
 62
7
  6
CONTINUOUS
 66
1
 70
0
  0
VERTEX
  8
0
 62
7
  6
CONTINUOUS
 10
44.3059644436
 20
193.4820347225
  0
VERTEX
  8
0
 62
7
  6
CONTINUOUS
 10
44.3054621562
 20
193.4833144454
  0
VERTEX
  8
0
 62
7
  6
CONTINUOUS
 10
44.3088640747
 20
193.472649319
  0
SEQEND
  0
LINE
  8
0
 62
7
  6
CONTINUOUS
 10
51.2417507403
 20
194.1940671647
 11
51.2417507403
 21
200.3349776582
  0
LINE
  8
2_FEATURE
 62
7
  6
CONTINUOUS
 10
51.2917503588
 20
198.3823229957
 11
51.2917503588
 21
198.3349776582
  0
LINE
  8
2_FEATURE
 62
7
  6
CONTINUOUS
 10
51.3417507403
 20
198.4141231304
 11
51.3417507403
 21
198.3349776582
  0
LINE
  8
0
 62
7
  6
CONTINUOUS
 10
51.4917507403
 20
192.8350467539
 11
51.4917507403
 21
198.2592693686
  0
LINE
  8
2_FEATURE
 62
7
  6
CONTINUOUS
 10
51.5417511217
 20
198.4349776582
 11
51.5417511217
 21
198.3349776582
  0
LINE
  8
2_FEATURE
 62
7
  6
CONTINUOUS
 10
51.5667507403
 20
198.4349776582
 11
51.5667507403
 21
198.3349776582
  0
LINE
  8
2_FEATURE
 62
7
  6
CONTINUOUS
 10
51.5917503588
 20
198.4349776582
 11
51.5917503588
 21
198.3349776582
  0
LINE
  8
2_FEATURE
 62
7
  6
CONTINUOUS
 10
51.6417507403
 20
198.4349776582
 11
51.6417507403
 21
198.3349776582
  0
LINE
  8
2_FEATURE
 62
7
  6
CONTINUOUS
 10
51.7167507403
 20
198.4349776582
 11
51.7167507403
 21
198.3349776582
  0
LINE
  8
2_FEATURE
 62
7
  6
CONTINUOUS
 10
51.8417511217
 20
198.4349776582
 11
51.8417511217
 21
198.3349776582
  0
LINE
  8
2_FEATURE
 62
7
  6
CONTINUOUS
 10
51.9917511217
 20
198.4349776582
 11
51.9917511217
 21
198.3349776582
  0
LINE
  8
1_AXIS
 62
7
  6
CONTINUOUS
 10
52.1217507403
 20
198.4349776582
 11
52.1217507403
 21
198.3349776582
  0
LINE
  8
1_AXIS
 62
7
  6
CONTINUOUS
 10
52.6317507403
 20
198.4349776582
 11
52.6317507403
 21
198.3349776582
  0
LINE
  8
0
 62
7
  6
CONTINUOUS
 10
51.2319817183
 20
194.065542306
 11
51.2417515158
 21
194.1939603417
  0
POLYLINE
  8
0
 62
7
  6
CONTINUOUS
 66
1
 70
0
  0
VERTEX
  8
0
 62
7
  6
CONTINUOUS
 10
51.2417507403
 20
198.2592693686
  0
VERTEX
  8
0
 62
7
  6
CONTINUOUS
 10
51.2508028724
 20
198.3161489934
  0
VERTEX
  8
0
 62
7
  6
CONTINUOUS
 10
51.2806457314
 20
198.3712897819
  0
VERTEX
  8
0
 62
7
  6
CONTINUOUS
 10
51.3033144188
 20
198.3938126875
  0
VERTEX
  8
0
 62
7
  6
CONTINUOUS
 10
51.3612654136
 20
198.4244350344
  0
VERTEX
  8
0
 62
7
  6
CONTINUOUS
 10
51.4346496819
 20
198.4349776582
  0
SEQEND
  0
LINE
  8
0
 62
7
  6
CONTINUOUS
 10
43.0020519011
 20
194.1378466268
 11
43.0050249738
 21
194.1431982703
  0
LINE
  8
0
 62
7
  6
CONTINUOUS
 10
42.9975574587
 20
194.1298639412
 11
43.0020519011
 21
194.1378466268
  0
LINE
  8
0
 62
7
  6
CONTINUOUS
 10
42.9927708993
 20
194.1214866877
 11
42.9975574587
 21
194.1298639412
  0
LINE
  8
0
 62
7
  6
CONTINUOUS
 10
42.9879237442
 20
194.1131199471
 11
42.9927708993
 21
194.1214866877
  0
LINE
  8
0
 62
7
  6
CONTINUOUS
 10
42.9835544046
 20
194.1056682153
 11
42.9879237442
 21
194.1131199471
  0
LINE
  8
0
 62
7
  6
CONTINUOUS
 10
42.9782898192
 20
194.0967918043
 11
42.9835544046
 21
194.1056682153
  0
LINE
  8
0
 62
7
  6
CONTINUOUS
 10
42.9732596842
 20
194.0884045269
 11
42.9782898192
 21
194.0967918043
  0
LINE
  8
0
 62
7
  6
CONTINUOUS
 10
42.9612389619
 20
194.0682786986
 11
42.9732596842
 21
194.0884045269
  0
POLYLINE
  8
0
 62
7
  6
CONTINUOUS
 66
1
 70
0
  0
VERTEX
  8
0
 62
7
  6
CONTINUOUS
 10
42.9686414411
 20
194.0804228776
  0
VERTEX
  8
0
 62
7
  6
CONTINUOUS
 10
42.9840894061
 20
194.1027430338
  0
VERTEX
  8
0
 62
7
  6
CONTINUOUS
 10
43.0000836178
 20
194.12314788
  0
VERTEX
  8
0
 62
7
  6
CONTINUOUS
 10
43.0082600249
 20
194.1326400384
  0
VERTEX
  8
0
 62
7
  6
CONTINUOUS
 10
43.0103756763
 20
194.1348676722
  0
SEQEND
  0
POLYLINE
  8
0
 62
7
  6
CONTINUOUS
 66
1
 70
0
  0
VERTEX
  8
0
 62
7
  6
CONTINUOUS
 10
35.7417507403
 20
197.5987062831
  0
VERTEX
  8
0
 62
7
  6
CONTINUOUS
 10
35.7561538525
 20
197.6129388758
  0
VERTEX
  8
0
 62
7
  6
CONTINUOUS
 10
35.7986202122
 20
197.6261739546
  0
VERTEX
  8
0
 62
7
  6
CONTINUOUS
 10
35.866831485
 20
197.6376991802
  0
VERTEX
  8
0
 62
7
  6
CONTINUOUS
 10
35.9094466203
 20
197.6426264039
  0
VERTEX
  8
0
 62
7
  6
CONTINUOUS
 10
36.0086525285
 20
197.6504904423
  0
VERTEX
  8
0
 62
7
  6
CONTINUOUS
 10
36.1216100418
 20
197.6553782767
  0
VERTEX
  8
0
 62
7
  6
CONTINUOUS
 10
36.2417507403
 20
197.6570373271
  0
SEQEND
  0
POLYLINE
  8
0
 62
7
  6
CONTINUOUS
 66
1
 70
0
  0
VERTEX
  8
0
 62
7
  6
CONTINUOUS
 10
35.7417507403
 20
195.7712490333
  0
VERTEX
  8
0
 62
7
  6
CONTINUOUS
 10
35.7561538525
 20
195.7570164406
  0
VERTEX
  8
0
 62
7
  6
CONTINUOUS
 10
35.7986202122
 20
195.7437813618
  0
VERTEX
  8
0
 62
7
  6
CONTINUOUS
 10
35.866831485
 20
195.7322561362
  0
VERTEX
  8
0
 62
7
  6
CONTINUOUS
 10
35.9094466203
 20
195.7273289125
  0
VERTEX
  8
0
 62
7
  6
CONTINUOUS
 10
36.0086525285
 20
195.7194648741
  0
VERTEX
  8
0
 62
7
  6
CONTINUOUS
 10
36.1216100418
 20
195.7145770397
  0
VERTEX
  8
0
 62
7
  6
CONTINUOUS
 10
36.2417507403
 20
195.7129179892
  0
SEQEND
  0
POLYLINE
  8
0
 62
7
  6
CONTINUOUS
 66
1
 70
0
  0
VERTEX
  8
0
 62
7
  6
CONTINUOUS
 10
51.4917507403
 20
198.2592693686
  0
VERTEX
  8
0
 62
7
  6
CONTINUOUS
 10
51.4826958955
 20
198.3161573581
  0
VERTEX
  8
0
 62
7
  6
CONTINUOUS
 10
51.4528310939
 20
198.3713198021
  0
VERTEX
  8
0
 62
7
  6
CONTINUOUS
 10
51.4301570284
 20
198.3938370295
  0
VERTEX
  8
0
 62
7
  6
CONTINUOUS
 10
51.3722147979
 20
198.4244417433
  0
VERTEX
  8
0
 62
7
  6
CONTINUOUS
 10
51.3667625101
 20
198.4252247652
  0
SEQEND
  0
LINE
  8
1_AXIS
 62
7
  6
CONTINUOUS
 10
53.3217507403
 20
198.4349776582
 11
53.3217507403
 21
198.3349776582
  0
LINE
  8
1_AXIS
 62
7
  6
CONTINUOUS
 10
53.8317507403
 20
198.4349776582
 11
53.8317507403
 21
198.3349776582
  0
LINE
  8
2_FEATURE
 62
7
  6
CONTINUOUS
 10
53.8667505495
 20
198.4349776582
 11
53.8667505495
 21
198.3349776582
  0
LINE
  8
1_AXIS
 62
7
  6
CONTINUOUS
 10
53.9517507403
 20
198.4349776582
 11
53.9517507403
 21
198.3349776582
  0
LINE
  8
1_AXIS
 62
7
  6
CONTINUOUS
 10
54.4617507403
 20
198.4349776582
 11
54.4617507403
 21
198.3349776582
  0
LINE
  8
1_AXIS
 62
7
  6
CONTINUOUS
 10
55.2717507403
 20
198.4349776582
 11
55.2717507403
 21
198.3349776582
  0
LINE
  8
0
 62
7
  6
CONTINUOUS
 10
43.3181092786
 20
198.433987313
 11
42.8190996238
 21
197.9349776582
  0
POLYLINE
  8
0
 62
7
  6
CONTINUOUS
 66
1
 70
0
  0
VERTEX
  8
0
 62
7
  6
CONTINUOUS
 10
38.5417507403
 20
197.5987062831
  0
VERTEX
  8
0
 62
7
  6
CONTINUOUS
 10
38.5273476281
 20
197.6129388758
  0
VERTEX
  8
0
 62
7
  6
CONTINUOUS
 10
38.4848812683
 20
197.6261739546
  0
VERTEX
  8
0
 62
7
  6
CONTINUOUS
 10
38.4166699955
 20
197.6376991802
  0
VERTEX
  8
0
 62
7
  6
CONTINUOUS
 10
38.3740548602
 20
197.6426264039
  0
VERTEX
  8
0
 62
7
  6
CONTINUOUS
 10
38.274848952
 20
197.6504904423
  0
VERTEX
  8
0
 62
7
  6
CONTINUOUS
 10
38.1618914387
 20
197.6553782767
  0
VERTEX
  8
0
 62
7
  6
CONTINUOUS
 10
38.0417507403
 20
197.6570373271
  0
SEQEND
  0
LINE
  8
0
 62
7
  6
CONTINUOUS
 10
40.8645289453
 20
197.9349776582
 11
40.3655085075
 21
198.433998096
  0
LINE
  8
1_AXIS
 62
7
  6
CONTINUOUS
 10
56.8017507403
 20
198.4349776582
 11
56.8017507403
 21
198.3349776582
  0
LINE
  8
2_FEATURE
 62
7
  6
CONTINUOUS
 10
56.8917507403
 20
198.4349776582
 11
56.8917507403
 21
198.3349776582
  0
LINE
  8
2_FEATURE
 62
7
  6
CONTINUOUS
 10
56.9667507403
 20
198.4349776582
 11
56.9667507403
 21
198.3349776582
  0
LINE
  8
2_FEATURE
 62
7
  6
CONTINUOUS
 10
57.0417507403
 20
198.4349776582
 11
57.0417507403
 21
198.3349776582
  0
LINE
  8
2_FEATURE
 62
7
  6
CONTINUOUS
 10
57.0917505495
 20
198.4349776582
 11
57.0917505495
 21
198.3349776582
  0
LINE
  8
2_FEATURE
 62
7
  6
CONTINUOUS
 10
57.291750931
 20
198.4349776582
 11
57.291750931
 21
198.3349776582
  0
LINE
  8
2_FEATURE
 62
7
  6
CONTINUOUS
 10
57.4917507403
 20
198.4349776582
 11
57.4917507403
 21
198.3349776582
  0
LINE
  8
0
 62
7
  6
CONTINUOUS
 10
57.5917507403
 20
192.8350467539
 11
57.5917507403
 21
198.2592693686
  0
LINE
  8
2_FEATURE
 62
7
  6
CONTINUOUS
 10
57.6167508356
 20
198.4349776582
 11
57.6167508356
 21
198.3349776582
  0
LINE
  8
2_FEATURE
 62
7
  6
CONTINUOUS
 10
57.6417507403
 20
198.4349776582
 11
57.6417507403
 21
198.3349776582
  0
LINE
  8
2_FEATURE
 62
7
  6
CONTINUOUS
 10
57.6667506449
 20
198.4349776582
 11
57.6667506449
 21
198.3349776582
  0
LINE
  8
2_FEATURE
 62
7
  6
CONTINUOUS
 10
57.6917508356
 20
198.4288080433
 11
57.6917508356
 21
198.3349776582
  0
LINE
  8
2_FEATURE
 62
7
  6
CONTINUOUS
 10
57.7667508356
 20
198.4008599752
 11
57.7667508356
 21
198.3349776582
  0
LINE
  8
0
 62
7
  6
CONTINUOUS
 10
57.8417507403
 20
192.8349789112
 11
57.8417507403
 21
200.3349776582
  0
POLYLINE
  8
0
 62
7
  6
CONTINUOUS
 66
1
 70
0
  0
VERTEX
  8
0
 62
7
  6
CONTINUOUS
 10
57.6122850053
 20
198.3373846299
  0
VERTEX
  8
0
 62
7
  6
CONTINUOUS
 10
57.6007477515
 20
198.315978721
  0
VERTEX
  8
0
 62
7
  6
CONTINUOUS
 10
57.5917507403
 20
198.2592693686
  0
SEQEND
  0
POLYLINE
  8
0
 62
7
  6
CONTINUOUS
 66
1
 70
0
  0
VERTEX
  8
0
 62
7
  6
CONTINUOUS
 10
51.2417507403
 20
195.7712490333
  0
VERTEX
  8
0
 62
7
  6
CONTINUOUS
 10
51.2273476281
 20
195.7570164406
  0
VERTEX
  8
0
 62
7
  6
CONTINUOUS
 10
51.1848812683
 20
195.7437813618
  0
VERTEX
  8
0
 62
7
  6
CONTINUOUS
 10
51.1166699955
 20
195.7322561362
  0
VERTEX
  8
0
 62
7
  6
CONTINUOUS
 10
51.0740548602
 20
195.7273289125
  0
VERTEX
  8
0
 62
7
  6
CONTINUOUS
 10
50.974848952
 20
195.7194648741
  0
VERTEX
  8
0
 62
7
  6
CONTINUOUS
 10
50.8618914387
 20
195.7145770397
  0
VERTEX
  8
0
 62
7
  6
CONTINUOUS
 10
50.7417507403
 20
195.7129179892
  0
SEQEND
  0
LINE
  8
0
 62
7
  6
CONTINUOUS
 10
63.9417507403
 20
192.8349776582
 11
63.9417507403
 21
200.3349776582
  0
LINE
  8
0
 62
7
  6
CONTINUOUS
 10
65.7917507403
 20
192.8349776582
 11
65.7917507403
 21
194.6119398332
  0
POLYLINE
  8
0
 62
7
  6
CONTINUOUS
 66
1
 70
0
  0
VERTEX
  8
0
 62
7
  6
CONTINUOUS
 10
64.5424445785
 20
192.6896632225
  0
VERTEX
  8
0
 62
7
  6
CONTINUOUS
 10
64.5494034183
 20
192.715692708
  0
VERTEX
  8
0
 62
7
  6
CONTINUOUS
 10
64.5630249826
 20
192.8349776582
  0
SEQEND
  0
POLYLINE
  8
0
 62
7
  6
CONTINUOUS
 66
1
 70
0
  0
VERTEX
  8
0
 62
7
  6
CONTINUOUS
 10
57.8417507403
 20
197.5987062831
  0
VERTEX
  8
0
 62
7
  6
CONTINUOUS
 10
57.8561538525
 20
197.6129388758
  0
VERTEX
  8
0
 62
7
  6
CONTINUOUS
 10
57.8986202122
 20
197.6261739546
  0
VERTEX
  8
0
 62
7
  6
CONTINUOUS
 10
57.966831485
 20
197.6376991802
  0
VERTEX
  8
0
 62
7
  6
CONTINUOUS
 10
58.0094466203
 20
197.6426264039
  0
VERTEX
  8
0
 62
7
  6
CONTINUOUS
 10
58.1086525285
 20
197.6504904423
  0
VERTEX
  8
0
 62
7
  6
CONTINUOUS
 10
58.2216100418
 20
197.6553782767
  0
VERTEX
  8
0
 62
7
  6
CONTINUOUS
 10
58.3417507403
 20
197.6570373271
  0
SEQEND
  0
LINE
  8
0
 62
7
  6
CONTINUOUS
 10
68.6917507403
 20
192.8349776582
 11
68.6917507403
 21
194.6119398414
  0
LINE
  8
0
 62
7
  6
CONTINUOUS
 10
64.5424451448
 20
192.6896650374
 11
64.7746329947
 21
193.4726344774
  0
LINE
  8
0
 62
7
  6
CONTINUOUS
 10
64.7746377204
 20
193.47265038
 11
64.7779941004
 21
193.4831894861
  0
POLYLINE
  8
0
 62
7
  6
CONTINUOUS
 66
1
 70
0
  0
VERTEX
  8
0
 62
7
  6
CONTINUOUS
 10
49.5490848054
 20
194.1940217316
  0
VERTEX
  8
0
 62
7
  6
CONTINUOUS
 10
49.8765010127
 20
194.0256995791
  0
VERTEX
  8
0
 62
7
  6
CONTINUOUS
 10
50.2584719071
 20
193.8490948808
  0
VERTEX
  8
0
 62
7
  6
CONTINUOUS
 10
50.6685959385
 20
193.6789845857
  0
SEQEND
  0
POLYLINE
  8
0
 62
7
  6
CONTINUOUS
 66
1
 70
0
  0
VERTEX
  8
0
 62
7
  6
CONTINUOUS
 10
69.7059644436
 20
193.4820347225
  0
VERTEX
  8
0
 62
7
  6
CONTINUOUS
 10
69.7054621562
 20
193.4833144454
  0
VERTEX
  8
0
 62
7
  6
CONTINUOUS
 10
69.7088640747
 20
193.472649319
  0
SEQEND
  0
LINE
  8
0
 62
7
  6
CONTINUOUS
 10
69.7088684859
 20
193.4726344774
 11
69.9410563358
 21
192.6896650374
  0
POLYLINE
  8
0
 62
7
  6
CONTINUOUS
 66
1
 70
0
  0
VERTEX
  8
0
 62
7
  6
CONTINUOUS
 10
69.941056902
 20
192.6896632225
  0
VERTEX
  8
0
 62
7
  6
CONTINUOUS
 10
69.9340980622
 20
192.715692708
  0
VERTEX
  8
0
 62
7
  6
CONTINUOUS
 10
69.9204764979
 20
192.8349776582
  0
SEQEND
  0
LINE
  8
0
 62
7
  6
CONTINUOUS
 10
70.5417507403
 20
192.8349776582
 11
70.5417507403
 21
200.3349776582
  0
LINE
  8
0
 62
7
  6
CONTINUOUS
 10
68.7181092786
 20
198.433987313
 11
68.2190996238
 21
197.9349776582
  0
POLYLINE
  8
0
 62
7
  6
CONTINUOUS
 66
1
 70
0
  0
VERTEX
  8
0
 62
7
  6
CONTINUOUS
 10
42.9787344427
 20
194.170530119
  0
VERTEX
  8
0
 62
7
  6
CONTINUOUS
 10
42.9785182506
 20
194.1705988039
  0
VERTEX
  8
0
 62
7
  6
CONTINUOUS
 10
42.9801894711
 20
194.1697327345
  0
VERTEX
  8
0
 62
7
  6
CONTINUOUS
 10
42.9845092121
 20
194.1667517576
  0
VERTEX
  8
0
 62
7
  6
CONTINUOUS
 10
42.989786619
 20
194.1620896187
  0
VERTEX
  8
0
 62
7
  6
CONTINUOUS
 10
42.9947699569
 20
194.1567833186
  0
VERTEX
  8
0
 62
7
  6
CONTINUOUS
 10
42.9996490049
 20
194.1507661122
  0
VERTEX
  8
0
 62
7
  6
CONTINUOUS
 10
43.0040323123
 20
194.1446994321
  0
VERTEX
  8
0
 62
7
  6
CONTINUOUS
 10
43.0082780905
 20
194.1382787139
  0
VERTEX
  8
0
 62
7
  6
CONTINUOUS
 10
43.0124862614
 20
194.1314354916
  0
VERTEX
  8
0
 62
7
  6
CONTINUOUS
 10
43.0166454996
 20
194.1242529678
  0
VERTEX
  8
0
 62
7
  6
CONTINUOUS
 10
43.0208184335
 20
194.1166806457
  0
VERTEX
  8
0
 62
7
  6
CONTINUOUS
 10
43.0250658777
 20
194.1086514303
  0
VERTEX
  8
0
 62
7
  6
CONTINUOUS
 10
43.0294126261
 20
194.1001551905
  0
VERTEX
  8
0
 62
7
  6
CONTINUOUS
 10
43.0339095912
 20
194.0911257521
  0
VERTEX
  8
0
 62
7
  6
CONTINUOUS
 10
43.0386869468
 20
194.0813269685
  0
VERTEX
  8
0
 62
7
  6
CONTINUOUS
 10
43.0438655267
 20
194.070529178
  0
SEQEND
  0
LINE
  8
0
 62
7
  6
CONTINUOUS
 10
50.6662752676
 20
193.6799471482
 11
50.6685962854
 21
193.6789842862
  0
POLYLINE
  8
0
 62
7
  6
CONTINUOUS
 66
1
 70
0
  0
VERTEX
  8
0
 62
7
  6
CONTINUOUS
 10
63.9417507403
 20
197.5987062831
  0
VERTEX
  8
0
 62
7
  6
CONTINUOUS
 10
63.9273476281
 20
197.6129388758
  0
VERTEX
  8
0
 62
7
  6
CONTINUOUS
 10
63.8848812683
 20
197.6261739546
  0
VERTEX
  8
0
 62
7
  6
CONTINUOUS
 10
63.8166699955
 20
197.6376991802
  0
VERTEX
  8
0
 62
7
  6
CONTINUOUS
 10
63.7740548602
 20
197.6426264039
  0
VERTEX
  8
0
 62
7
  6
CONTINUOUS
 10
63.674848952
 20
197.6504904423
  0
VERTEX
  8
0
 62
7
  6
CONTINUOUS
 10
63.5618914387
 20
197.6553782767
  0
VERTEX
  8
0
 62
7
  6
CONTINUOUS
 10
63.4417507403
 20
197.6570373271
  0
SEQEND
  0
LINE
  8
0
 62
7
  6
CONTINUOUS
 10
66.2644018567
 20
197.9349776582
 11
65.7653922019
 21
198.433987313
  0
POLYLINE
  8
0
 62
7
  6
CONTINUOUS
 66
1
 70
0
  0
VERTEX
  8
0
 62
7
  6
CONTINUOUS
 10
76.6417507403
 20
198.2592693686
  0
VERTEX
  8
0
 62
7
  6
CONTINUOUS
 10
76.6508028724
 20
198.3161489934
  0
VERTEX
  8
0
 62
7
  6
CONTINUOUS
 10
76.6806457314
 20
198.3712897819
  0
VERTEX
  8
0
 62
7
  6
CONTINUOUS
 10
76.7033144188
 20
198.3938126875
  0
VERTEX
  8
0
 62
7
  6
CONTINUOUS
 10
76.7612654136
 20
198.4244350344
  0
VERTEX
  8
0
 62
7
  6
CONTINUOUS
 10
76.8346496819
 20
198.4349776582
  0
SEQEND
  0
POLYLINE
  8
0
 62
7
  6
CONTINUOUS
 66
1
 70
0
  0
VERTEX
  8
0
 62
7
  6
CONTINUOUS
 10
128.1739043826
 20
192.3350204275
  0
VERTEX
  8
0
 62
7
  6
CONTINUOUS
 10
128.292628592
 20
192.3509566793
  0
VERTEX
  8
0
 62
7
  6
CONTINUOUS
 10
128.4042181183
 20
192.3946700784
  0
VERTEX
  8
0
 62
7
  6
CONTINUOUS
 10
128.5023012317
 20
192.4635611231
  0
VERTEX
  8
0
 62
7
  6
CONTINUOUS
 10
128.5444979891
 20
192.5062384077
  0
VERTEX
  8
0
 62
7
  6
CONTINUOUS
 10
128.6122290342
 20
192.6049581707
  0
VERTEX
  8
0
 62
7
  6
CONTINUOUS
 10
128.6547338776
 20
192.7166627699
  0
VERTEX
  8
0
 62
7
  6
CONTINUOUS
 10
128.6696865803
 20
192.8349776582
  0
SEQEND
  0
POLYLINE
  8
0
 62
7
  6
CONTINUOUS
 66
1
 70
0
  0
VERTEX
  8
0
 62
7
  6
CONTINUOUS
 10
44.4095970979
 20
192.3350204275
  0
VERTEX
  8
0
 62
7
  6
CONTINUOUS
 10
44.2908728885
 20
192.3509566793
  0
VERTEX
  8
0
 62
7
  6
CONTINUOUS
 10
44.1792833622
 20
192.3946700784
  0
VERTEX
  8
0
 62
7
  6
CONTINUOUS
 10
44.0812002489
 20
192.4635611231
  0
VERTEX
  8
0
 62
7
  6
CONTINUOUS
 10
44.0390034914
 20
192.5062384077
  0
VERTEX
  8
0
 62
7
  6
CONTINUOUS
 10
43.9712724464
 20
192.6049581707
  0
VERTEX
  8
0
 62
7
  6
CONTINUOUS
 10
43.9287676029
 20
192.7166627699
  0
VERTEX
  8
0
 62
7
  6
CONTINUOUS
 10
43.9138149002
 20
192.8349776582
  0
SEQEND
  0
POLYLINE
  8
0
 62
7
  6
CONTINUOUS
 66
1
 70
0
  0
VERTEX
  8
0
 62
7
  6
CONTINUOUS
 10
50.6686013759
 20
193.6789825563
  0
VERTEX
  8
0
 62
7
  6
CONTINUOUS
 10
50.7567186679
 20
193.6547654334
  0
VERTEX
  8
0
 62
7
  6
CONTINUOUS
 10
50.8554011886
 20
193.6515889599
  0
VERTEX
  8
0
 62
7
  6
CONTINUOUS
 10
50.948817726
 20
193.6729302803
  0
VERTEX
  8
0
 62
7
  6
CONTINUOUS
 10
51.0348761766
 20
193.7179222474
  0
VERTEX
  8
0
 62
7
  6
CONTINUOUS
 10
51.0744853621
 20
193.7494357815
  0
VERTEX
  8
0
 62
7
  6
CONTINUOUS
 10
51.1450284064
 20
193.8316618073
  0
VERTEX
  8
0
 62
7
  6
CONTINUOUS
 10
51.1992936769
 20
193.9388625057
  0
VERTEX
  8
0
 62
7
  6
CONTINUOUS
 10
51.2320992769
 20
194.0659978948
  0
SEQEND
  0
LINE
  8
0
 62
7
  6
CONTINUOUS
 10
76.6417507403
 20
192.8349789112
 11
76.6417507403
 21
200.3349776582
  0
LINE
  8
0
 62
7
  6
CONTINUOUS
 10
76.8917507403
 20
192.8350467539
 11
76.8917507403
 21
198.2592693686
  0
LINE
  8
2_FEATURE
 62
7
  6
CONTINUOUS
 10
77.3167506985
 20
198.4349776582
 11
77.3167506985
 21
198.3349776582
  0
LINE
  8
2_FEATURE
 62
7
  6
CONTINUOUS
 10
77.6667507403
 20
198.4349776582
 11
77.6667507403
 21
198.3349776582
  0
LINE
  8
2_FEATURE
 62
7
  6
CONTINUOUS
 10
77.6917507403
 20
198.4349776582
 11
77.6917507403
 21
198.3349776582
  0
LINE
  8
2_FEATURE
 62
7
  6
CONTINUOUS
 10
77.7417505495
 20
198.4349776582
 11
77.7417505495
 21
198.3349776582
  0
LINE
  8
2_FEATURE
 62
7
  6
CONTINUOUS
 10
77.8167505495
 20
198.4349776582
 11
77.8167505495
 21
198.3349776582
  0
LINE
  8
2_FEATURE
 62
7
  6
CONTINUOUS
 10
77.941750931
 20
198.4349776582
 11
77.941750931
 21
198.3349776582
  0
LINE
  8
2_FEATURE
 62
7
  6
CONTINUOUS
 10
78.016750782
 20
198.4349776582
 11
78.016750782
 21
198.3349776582
  0
LINE
  8
2_FEATURE
 62
7
  6
CONTINUOUS
 10
79.0667506568
 20
198.4349776582
 11
79.0667506568
 21
198.3349776582
  0
LINE
  8
2_FEATURE
 62
7
  6
CONTINUOUS
 10
79.3292506568
 20
198.4349776582
 11
79.3292506568
 21
198.3349776582
  0
LINE
  8
2_FEATURE
 62
7
  6
CONTINUOUS
 10
79.7667507403
 20
198.4349776582
 11
79.7667507403
 21
198.3349776582
  0
LINE
  8
2_FEATURE
 62
7
  6
CONTINUOUS
 10
79.8417505495
 20
198.4349776582
 11
79.8417505495
 21
198.3349776582
  0
LINE
  8
2_FEATURE
 62
7
  6
CONTINUOUS
 10
79.9167505495
 20
198.4349776582
 11
79.9167505495
 21
198.3349776582
  0
POLYLINE
  8
0
 62
7
  6
CONTINUOUS
 66
1
 70
0
  0
VERTEX
  8
0
 62
7
  6
CONTINUOUS
 10
115.4739043826
 20
192.3350204275
  0
VERTEX
  8
0
 62
7
  6
CONTINUOUS
 10
115.592628592
 20
192.3509566793
  0
VERTEX
  8
0
 62
7
  6
CONTINUOUS
 10
115.7042181183
 20
192.3946700784
  0
VERTEX
  8
0
 62
7
  6
CONTINUOUS
 10
115.8023012317
 20
192.4635611231
  0
VERTEX
  8
0
 62
7
  6
CONTINUOUS
 10
115.8444979891
 20
192.5062384077
  0
VERTEX
  8
0
 62
7
  6
CONTINUOUS
 10
115.9122290342
 20
192.6049581707
  0
VERTEX
  8
0
 62
7
  6
CONTINUOUS
 10
115.9547338776
 20
192.7166627699
  0
VERTEX
  8
0
 62
7
  6
CONTINUOUS
 10
115.9696865803
 20
192.8349776582
  0
SEQEND
  0
POLYLINE
  8
0
 62
7
  6
CONTINUOUS
 66
1
 70
0
  0
VERTEX
  8
0
 62
7
  6
CONTINUOUS
 10
127.5673148882
 20
192.3349776582
  0
VERTEX
  8
0
 62
7
  6
CONTINUOUS
 10
127.687013997
 20
192.3495994601
  0
VERTEX
  8
0
 62
7
  6
CONTINUOUS
 10
127.7993997136
 20
192.3925463754
  0
VERTEX
  8
0
 62
7
  6
CONTINUOUS
 10
127.897946173
 20
192.461219927
  0
VERTEX
  8
0
 62
7
  6
CONTINUOUS
 10
127.9402103038
 20
192.5039788202
  0
VERTEX
  8
0
 62
7
  6
CONTINUOUS
 10
128.0076927436
 20
192.6031833366
  0
VERTEX
  8
0
 62
7
  6
CONTINUOUS
 10
128.0424445785
 20
192.6896632225
  0
SEQEND
  0
POLYLINE
  8
0
 62
7
  6
CONTINUOUS
 66
1
 70
0
  0
VERTEX
  8
0
 62
7
  6
CONTINUOUS
 10
114.8673148882
 20
192.3349776582
  0
VERTEX
  8
0
 62
7
  6
CONTINUOUS
 10
114.987013997
 20
192.3495994601
  0
VERTEX
  8
0
 62
7
  6
CONTINUOUS
 10
115.0993997136
 20
192.3925463754
  0
VERTEX
  8
0
 62
7
  6
CONTINUOUS
 10
115.197946173
 20
192.461219927
  0
VERTEX
  8
0
 62
7
  6
CONTINUOUS
 10
115.2402103038
 20
192.5039788202
  0
VERTEX
  8
0
 62
7
  6
CONTINUOUS
 10
115.3076927436
 20
192.6031833366
  0
VERTEX
  8
0
 62
7
  6
CONTINUOUS
 10
115.3424445785
 20
192.6896632225
  0
SEQEND
  0
POLYLINE
  8
0
 62
7
  6
CONTINUOUS
 66
1
 70
0
  0
VERTEX
  8
0
 62
7
  6
CONTINUOUS
 10
45.0161865923
 20
192.3349776582
  0
VERTEX
  8
0
 62
7
  6
CONTINUOUS
 10
44.8964874835
 20
192.3495994601
  0
VERTEX
  8
0
 62
7
  6
CONTINUOUS
 10
44.7841017669
 20
192.3925463754
  0
VERTEX
  8
0
 62
7
  6
CONTINUOUS
 10
44.6855553076
 20
192.461219927
  0
VERTEX
  8
0
 62
7
  6
CONTINUOUS
 10
44.6432911767
 20
192.5039788202
  0
VERTEX
  8
0
 62
7
  6
CONTINUOUS
 10
44.5758087369
 20
192.6031833366
  0
VERTEX
  8
0
 62
7
  6
CONTINUOUS
 10
44.541056902
 20
192.6896632225
  0
SEQEND
  0
POLYLINE
  8
0
 62
7
  6
CONTINUOUS
 66
1
 70
0
  0
VERTEX
  8
0
 62
7
  6
CONTINUOUS
 10
69.8095970979
 20
192.3350204275
  0
VERTEX
  8
0
 62
7
  6
CONTINUOUS
 10
69.6908728885
 20
192.3509566793
  0
VERTEX
  8
0
 62
7
  6
CONTINUOUS
 10
69.5792833622
 20
192.3946700784
  0
VERTEX
  8
0
 62
7
  6
CONTINUOUS
 10
69.4812002489
 20
192.4635611231
  0
VERTEX
  8
0
 62
7
  6
CONTINUOUS
 10
69.4390034914
 20
192.5062384077
  0
VERTEX
  8
0
 62
7
  6
CONTINUOUS
 10
69.3712724464
 20
192.6049581707
  0
VERTEX
  8
0
 62
7
  6
CONTINUOUS
 10
69.3287676029
 20
192.7166627699
  0
VERTEX
  8
0
 62
7
  6
CONTINUOUS
 10
69.3138149002
 20
192.8349776582
  0
SEQEND
  0
LINE
  8
0
 62
7
  6
CONTINUOUS
 10
76.8826958955
 20
198.3161573581
 11
76.8712019389
 21
198.3373875254
  0
LINE
  8
0
 62
7
  6
CONTINUOUS
 10
76.8917507403
 20
198.2592693686
 11
76.8826958955
 21
198.3161573581
  0
LINE
  8
2_FEATURE
 62
7
  6
CONTINUOUS
 10
79.966750931
 20
198.4349776582
 11
79.966750931
 21
198.3349776582
  0
LINE
  8
2_FEATURE
 62
7
  6
CONTINUOUS
 10
80.1167506568
 20
198.4349776582
 11
80.1167506568
 21
198.3349776582
  0
LINE
  8
2_FEATURE
 62
7
  6
CONTINUOUS
 10
80.1605007403
 20
198.4349776582
 11
80.1605007403
 21
198.3349776582
  0
LINE
  8
2_FEATURE
 62
7
  6
CONTINUOUS
 10
80.2042508237
 20
198.4349776582
 11
80.2042508237
 21
198.3349776582
  0
LINE
  8
2_FEATURE
 62
7
  6
CONTINUOUS
 10
80.2917507403
 20
198.4349776582
 11
80.2917507403
 21
198.3349776582
  0
LINE
  8
2_FEATURE
 62
7
  6
CONTINUOUS
 10
80.4230007403
 20
198.4349776582
 11
80.4230007403
 21
198.3349776582
  0
LINE
  8
2_FEATURE
 62
7
  6
CONTINUOUS
 10
80.6417509072
 20
198.4349776582
 11
80.6417509072
 21
198.3349776582
  0
LINE
  8
2_FEATURE
 62
7
  6
CONTINUOUS
 10
80.9042509072
 20
198.4349776582
 11
80.9042509072
 21
198.3349776582
  0
LINE
  8
2_FEATURE
 62
7
  6
CONTINUOUS
 10
81.1667509072
 20
198.4349776582
 11
81.1667509072
 21
198.3349776582
  0
LINE
  8
2_FEATURE
 62
7
  6
CONTINUOUS
 10
81.3855005734
 20
198.4349776582
 11
81.3855005734
 21
198.3349776582
  0
LINE
  8
2_FEATURE
 62
7
  6
CONTINUOUS
 10
81.5167505734
 20
198.4349776582
 11
81.5167505734
 21
198.3349776582
  0
LINE
  8
2_FEATURE
 62
7
  6
CONTINUOUS
 10
81.6042507403
 20
198.4349776582
 11
81.6042507403
 21
198.3349776582
  0
LINE
  8
2_FEATURE
 62
7
  6
CONTINUOUS
 10
81.6480005734
 20
198.4349776582
 11
81.6480005734
 21
198.3349776582
  0
LINE
  8
2_FEATURE
 62
7
  6
CONTINUOUS
 10
81.6917509072
 20
198.4349776582
 11
81.6917509072
 21
198.3349776582
  0
LINE
  8
2_FEATURE
 62
7
  6
CONTINUOUS
 10
81.7417507403
 20
198.4349776582
 11
81.7417507403
 21
198.3349776582
  0
LINE
  8
2_FEATURE
 62
7
  6
CONTINUOUS
 10
81.8917507403
 20
198.4349776582
 11
81.8917507403
 21
198.3349776582
  0
LINE
  8
2_FEATURE
 62
7
  6
CONTINUOUS
 10
81.9667507403
 20
198.4349776582
 11
81.9667507403
 21
198.3349776582
  0
LINE
  8
2_FEATURE
 62
7
  6
CONTINUOUS
 10
82.0417505734
 20
198.4349776582
 11
82.0417505734
 21
198.3349776582
  0
LINE
  8
2_FEATURE
 62
7
  6
CONTINUOUS
 10
82.0855009072
 20
198.4349776582
 11
82.0855009072
 21
198.3349776582
  0
LINE
  8
2_FEATURE
 62
7
  6
CONTINUOUS
 10
82.1292507403
 20
198.4349776582
 11
82.1292507403
 21
198.3349776582
  0
LINE
  8
2_FEATURE
 62
7
  6
CONTINUOUS
 10
82.2167509072
 20
198.4349776582
 11
82.2167509072
 21
198.3349776582
  0
LINE
  8
2_FEATURE
 62
7
  6
CONTINUOUS
 10
82.3480009072
 20
198.4349776582
 11
82.3480009072
 21
198.3349776582
  0
LINE
  8
2_FEATURE
 62
7
  6
CONTINUOUS
 10
82.5667505734
 20
198.4349776582
 11
82.5667505734
 21
198.3349776582
  0
LINE
  8
2_FEATURE
 62
7
  6
CONTINUOUS
 10
82.8292505734
 20
198.4349776582
 11
82.8292505734
 21
198.3349776582
  0
LINE
  8
0
 62
7
  6
CONTINUOUS
 10
82.9917507403
 20
192.8350467539
 11
82.9917507403
 21
198.2592693686
  0
LINE
  8
2_FEATURE
 62
7
  6
CONTINUOUS
 10
83.0917505734
 20
198.428808081
 11
83.0917505734
 21
198.3349776582
  0
LINE
  8
0
 62
7
  6
CONTINUOUS
 10
83.2417507403
 20
192.8349789112
 11
83.2417507403
 21
200.3349776582
  0
POLYLINE
  8
0
 62
7
  6
CONTINUOUS
 66
1
 70
0
  0
VERTEX
  8
0
 62
7
  6
CONTINUOUS
 10
83.0109877073
 20
198.3349776582
  0
VERTEX
  8
0
 62
7
  6
CONTINUOUS
 10
83.0007477515
 20
198.315978721
  0
VERTEX
  8
0
 62
7
  6
CONTINUOUS
 10
82.9917507403
 20
198.2592693686
  0
SEQEND
  0
POLYLINE
  8
0
 62
7
  6
CONTINUOUS
 66
1
 70
0
  0
VERTEX
  8
0
 62
7
  6
CONTINUOUS
 10
90.0739043826
 20
192.3350204275
  0
VERTEX
  8
0
 62
7
  6
CONTINUOUS
 10
90.192628592
 20
192.3509566793
  0
VERTEX
  8
0
 62
7
  6
CONTINUOUS
 10
90.3042181183
 20
192.3946700784
  0
VERTEX
  8
0
 62
7
  6
CONTINUOUS
 10
90.4023012317
 20
192.4635611231
  0
VERTEX
  8
0
 62
7
  6
CONTINUOUS
 10
90.4444979891
 20
192.5062384077
  0
VERTEX
  8
0
 62
7
  6
CONTINUOUS
 10
90.5122290342
 20
192.6049581707
  0
VERTEX
  8
0
 62
7
  6
CONTINUOUS
 10
90.5547338776
 20
192.7166627699
  0
VERTEX
  8
0
 62
7
  6
CONTINUOUS
 10
90.5696865803
 20
192.8349776582
  0
SEQEND
  0
POLYLINE
  8
0
 62
7
  6
CONTINUOUS
 66
1
 70
0
  0
VERTEX
  8
0
 62
7
  6
CONTINUOUS
 10
89.4673148882
 20
192.3349776582
  0
VERTEX
  8
0
 62
7
  6
CONTINUOUS
 10
89.587013997
 20
192.3495994601
  0
VERTEX
  8
0
 62
7
  6
CONTINUOUS
 10
89.6993997136
 20
192.3925463754
  0
VERTEX
  8
0
 62
7
  6
CONTINUOUS
 10
89.797946173
 20
192.461219927
  0
VERTEX
  8
0
 62
7
  6
CONTINUOUS
 10
89.8402103038
 20
192.5039788202
  0
VERTEX
  8
0
 62
7
  6
CONTINUOUS
 10
89.9076927436
 20
192.6031833366
  0
VERTEX
  8
0
 62
7
  6
CONTINUOUS
 10
89.9424445785
 20
192.6896632225
  0
SEQEND
  0
LINE
  8
0
 62
7
  6
CONTINUOUS
 10
128.1739043826
 20
192.3350204275
 11
128.1673643986
 21
192.3349776582
  0
LINE
  8
0
 62
7
  6
CONTINUOUS
 10
115.4739043826
 20
192.3350204275
 11
115.4673643986
 21
192.3349776582
  0
LINE
  8
0
 62
7
  6
CONTINUOUS
 10
90.0739043826
 20
192.3350204275
 11
90.0673643986
 21
192.3349776582
  0
LINE
  8
0
 62
7
  6
CONTINUOUS
 10
64.6739043826
 20
192.3350204275
 11
64.6673643986
 21
192.3349776582
  0
LINE
  8
0
 62
7
  6
CONTINUOUS
 10
128.7917507403
 20
192.3349776582
 11
128.1917507403
 21
192.3349776582
  0
LINE
  8
0
 62
7
  6
CONTINUOUS
 10
128.1673643986
 20
192.3349776582
 11
127.572726293
 21
192.3349776582
  0
LINE
  8
0
 62
7
  6
CONTINUOUS
 10
121.2107751876
 20
192.3349776582
 11
120.6161370819
 21
192.3349776582
  0
LINE
  8
0
 62
7
  6
CONTINUOUS
 10
115.4673643986
 20
192.3349776582
 11
114.872726293
 21
192.3349776582
  0
LINE
  8
0
 62
7
  6
CONTINUOUS
 10
95.8107751876
 20
192.3349776582
 11
95.2161370819
 21
192.3349776582
  0
LINE
  8
0
 62
7
  6
CONTINUOUS
 10
90.0673643986
 20
192.3349776582
 11
89.472726293
 21
192.3349776582
  0
LINE
  8
0
 62
7
  6
CONTINUOUS
 10
70.4107751876
 20
192.3349776582
 11
69.8161370819
 21
192.3349776582
  0
LINE
  8
0
 62
7
  6
CONTINUOUS
 10
64.6673643986
 20
192.3349776582
 11
64.072726293
 21
192.3349776582
  0
LINE
  8
0
 62
7
  6
CONTINUOUS
 10
45.0107751876
 20
192.3349776582
 11
44.4161370819
 21
192.3349776582
  0
LINE
  8
0
 62
7
  6
CONTINUOUS
 10
44.4095970979
 20
192.3349776582
 11
43.7917507403
 21
192.3349776582
  0
LINE
  8
0
 62
7
  6
CONTINUOUS
 10
36.2417507403
 20
192.3349776582
 11
42.6917507403
 21
192.3349776582
  0
LINE
  8
0
 62
7
  6
CONTINUOUS
 10
45.0161865923
 20
192.3349776582
 11
49.0417507403
 21
192.3349776582
  0
LINE
  8
0
 62
7
  6
CONTINUOUS
 10
51.9917507403
 20
192.3349776582
 11
57.0917507403
 21
192.3349776582
  0
LINE
  8
0
 62
7
  6
CONTINUOUS
 10
58.3417507403
 20
192.3349776582
 11
64.0673148882
 21
192.3349776582
  0
LINE
  8
0
 62
7
  6
CONTINUOUS
 10
64.6917507403
 20
192.3349776582
 11
69.8095970979
 21
192.3349776582
  0
LINE
  8
0
 62
7
  6
CONTINUOUS
 10
70.4161865923
 20
192.3349776582
 11
76.1417507403
 21
192.3349776582
  0
LINE
  8
0
 62
7
  6
CONTINUOUS
 10
77.3917507403
 20
192.3349776582
 11
82.4917507403
 21
192.3349776582
  0
LINE
  8
0
 62
7
  6
CONTINUOUS
 10
83.7417507403
 20
192.3349776582
 11
89.4673148882
 21
192.3349776582
  0
LINE
  8
0
 62
7
  6
CONTINUOUS
 10
90.0917507403
 20
192.3349776582
 11
95.2095970979
 21
192.3349776582
  0
LINE
  8
0
 62
7
  6
CONTINUOUS
 10
95.8161865923
 20
192.3349776582
 11
101.5417507403
 21
192.3349776582
  0
LINE
  8
0
 62
7
  6
CONTINUOUS
 10
102.7917507403
 20
192.3349776582
 11
107.8917507403
 21
192.3349776582
  0
LINE
  8
0
 62
7
  6
CONTINUOUS
 10
109.1417507403
 20
192.3349776582
 11
114.8673148882
 21
192.3349776582
  0
LINE
  8
0
 62
7
  6
CONTINUOUS
 10
115.4917507403
 20
192.3349776582
 11
120.6095970979
 21
192.3349776582
  0
LINE
  8
0
 62
7
  6
CONTINUOUS
 10
121.2161865923
 20
192.3349776582
 11
122.4417507403
 21
192.3349776582
  0
LINE
  8
0
 62
7
  6
CONTINUOUS
 10
123.5417507403
 20
192.3349776582
 11
127.5673148882
 21
192.3349776582
  0
LINE
  8
0
 62
7
  6
CONTINUOUS
 10
129.8917507403
 20
192.3349776582
 11
136.3417507403
 21
192.3349776582
  0
LINE
  8
0
 62
7
  6
CONTINUOUS
 10
44.4095970979
 20
192.3350204275
 11
44.4161370819
 21
192.3349776582
  0
LINE
  8
0
 62
7
  6
CONTINUOUS
 10
69.8095970979
 20
192.3350204275
 11
69.8161370819
 21
192.3349776582
  0
LINE
  8
0
 62
7
  6
CONTINUOUS
 10
95.2095970979
 20
192.3350204275
 11
95.2161370819
 21
192.3349776582
  0
LINE
  8
0
 62
7
  6
CONTINUOUS
 10
120.6095970979
 20
192.3350204275
 11
120.6161370819
 21
192.3349776582
  0
LINE
  8
0
 62
7
  6
CONTINUOUS
 10
50.7555759074
 20
193.6549494551
 11
50.7561182491
 21
193.6549304454
  0
POLYLINE
  8
0
 62
7
  6
CONTINUOUS
 66
1
 70
0
  0
VERTEX
  8
0
 62
7
  6
CONTINUOUS
 10
70.4161865923
 20
192.3349776582
  0
VERTEX
  8
0
 62
7
  6
CONTINUOUS
 10
70.2964874835
 20
192.3495994601
  0
VERTEX
  8
0
 62
7
  6
CONTINUOUS
 10
70.1841017669
 20
192.3925463754
  0
VERTEX
  8
0
 62
7
  6
CONTINUOUS
 10
70.0855553076
 20
192.461219927
  0
VERTEX
  8
0
 62
7
  6
CONTINUOUS
 10
70.0432911767
 20
192.5039788202
  0
VERTEX
  8
0
 62
7
  6
CONTINUOUS
 10
69.9758087369
 20
192.6031833366
  0
VERTEX
  8
0
 62
7
  6
CONTINUOUS
 10
69.941056902
 20
192.6896632225
  0
SEQEND
  0
POLYLINE
  8
0
 62
7
  6
CONTINUOUS
 66
1
 70
0
  0
VERTEX
  8
0
 62
7
  6
CONTINUOUS
 10
95.8161865923
 20
192.3349776582
  0
VERTEX
  8
0
 62
7
  6
CONTINUOUS
 10
95.6964874835
 20
192.3495994601
  0
VERTEX
  8
0
 62
7
  6
CONTINUOUS
 10
95.5841017669
 20
192.3925463754
  0
VERTEX
  8
0
 62
7
  6
CONTINUOUS
 10
95.4855553076
 20
192.461219927
  0
VERTEX
  8
0
 62
7
  6
CONTINUOUS
 10
95.4432911767
 20
192.5039788202
  0
VERTEX
  8
0
 62
7
  6
CONTINUOUS
 10
95.3758087369
 20
192.6031833366
  0
VERTEX
  8
0
 62
7
  6
CONTINUOUS
 10
95.341056902
 20
192.6896632225
  0
SEQEND
  0
POLYLINE
  8
0
 62
7
  6
CONTINUOUS
 66
1
 70
0
  0
VERTEX
  8
0
 62
7
  6
CONTINUOUS
 10
95.2095970979
 20
192.3350204275
  0
VERTEX
  8
0
 62
7
  6
CONTINUOUS
 10
95.0908728885
 20
192.3509566793
  0
VERTEX
  8
0
 62
7
  6
CONTINUOUS
 10
94.9792833622
 20
192.3946700784
  0
VERTEX
  8
0
 62
7
  6
CONTINUOUS
 10
94.8812002489
 20
192.4635611231
  0
VERTEX
  8
0
 62
7
  6
CONTINUOUS
 10
94.8390034914
 20
192.5062384077
  0
VERTEX
  8
0
 62
7
  6
CONTINUOUS
 10
94.7712724464
 20
192.6049581707
  0
VERTEX
  8
0
 62
7
  6
CONTINUOUS
 10
94.7287676029
 20
192.7166627699
  0
VERTEX
  8
0
 62
7
  6
CONTINUOUS
 10
94.7138149002
 20
192.8349776582
  0
SEQEND
  0
POLYLINE
  8
0
 62
7
  6
CONTINUOUS
 66
1
 70
0
  0
VERTEX
  8
0
 62
7
  6
CONTINUOUS
 10
76.6417507403
 20
197.5987062831
  0
VERTEX
  8
0
 62
7
  6
CONTINUOUS
 10
76.6273476281
 20
197.6129388758
  0
VERTEX
  8
0
 62
7
  6
CONTINUOUS
 10
76.5848812683
 20
197.6261739546
  0
VERTEX
  8
0
 62
7
  6
CONTINUOUS
 10
76.5166699955
 20
197.6376991802
  0
VERTEX
  8
0
 62
7
  6
CONTINUOUS
 10
76.4740548602
 20
197.6426264039
  0
VERTEX
  8
0
 62
7
  6
CONTINUOUS
 10
76.374848952
 20
197.6504904423
  0
VERTEX
  8
0
 62
7
  6
CONTINUOUS
 10
76.2618914387
 20
197.6553782767
  0
VERTEX
  8
0
 62
7
  6
CONTINUOUS
 10
76.1417507403
 20
197.6570373271
  0
SEQEND
  0
LINE
  8
1_AXIS
 62
2
  6
CENTER
 10
86.2917507403
 20
189.8349776582
 11
86.2917507403
 21
202.83497889
  0
POLYLINE
  8
0
 62
7
  6
CONTINUOUS
 66
1
 70
0
  0
VERTEX
  8
0
 62
7
  6
CONTINUOUS
 10
64.6739043826
 20
192.3350204275
  0
VERTEX
  8
0
 62
7
  6
CONTINUOUS
 10
64.792628592
 20
192.3509566793
  0
VERTEX
  8
0
 62
7
  6
CONTINUOUS
 10
64.9042181183
 20
192.3946700784
  0
VERTEX
  8
0
 62
7
  6
CONTINUOUS
 10
65.0023012317
 20
192.4635611231
  0
VERTEX
  8
0
 62
7
  6
CONTINUOUS
 10
65.0444979891
 20
192.5062384077
  0
VERTEX
  8
0
 62
7
  6
CONTINUOUS
 10
65.1122290342
 20
192.6049581707
  0
VERTEX
  8
0
 62
7
  6
CONTINUOUS
 10
65.1547338776
 20
192.7166627699
  0
VERTEX
  8
0
 62
7
  6
CONTINUOUS
 10
65.1696865803
 20
192.8349776582
  0
SEQEND
  0
POLYLINE
  8
0
 62
7
  6
CONTINUOUS
 66
1
 70
0
  0
VERTEX
  8
0
 62
7
  6
CONTINUOUS
 10
64.0673148882
 20
192.3349776582
  0
VERTEX
  8
0
 62
7
  6
CONTINUOUS
 10
64.187013997
 20
192.3495994601
  0
VERTEX
  8
0
 62
7
  6
CONTINUOUS
 10
64.2993997136
 20
192.3925463754
  0
VERTEX
  8
0
 62
7
  6
CONTINUOUS
 10
64.397946173
 20
192.461219927
  0
VERTEX
  8
0
 62
7
  6
CONTINUOUS
 10
64.4402103038
 20
192.5039788202
  0
VERTEX
  8
0
 62
7
  6
CONTINUOUS
 10
64.5076927436
 20
192.6031833366
  0
VERTEX
  8
0
 62
7
  6
CONTINUOUS
 10
64.5424445785
 20
192.6896632225
  0
SEQEND
  0
POLYLINE
  8
0
 62
7
  6
CONTINUOUS
 66
1
 70
0
  0
VERTEX
  8
0
 62
7
  6
CONTINUOUS
 10
126.9417507403
 20
195.7129179892
  0
VERTEX
  8
0
 62
7
  6
CONTINUOUS
 10
127.0618914387
 20
195.7145770397
  0
VERTEX
  8
0
 62
7
  6
CONTINUOUS
 10
127.174848952
 20
195.7194648741
  0
VERTEX
  8
0
 62
7
  6
CONTINUOUS
 10
127.2740548602
 20
195.7273289125
  0
VERTEX
  8
0
 62
7
  6
CONTINUOUS
 10
127.3166699955
 20
195.7322561362
  0
VERTEX
  8
0
 62
7
  6
CONTINUOUS
 10
127.3848812683
 20
195.7437813618
  0
VERTEX
  8
0
 62
7
  6
CONTINUOUS
 10
127.4273476281
 20
195.7570164406
  0
VERTEX
  8
0
 62
7
  6
CONTINUOUS
 10
127.4417507403
 20
195.7712490333
  0
SEQEND
  0
POLYLINE
  8
0
 62
7
  6
CONTINUOUS
 66
1
 70
0
  0
VERTEX
  8
0
 62
7
  6
CONTINUOUS
 10
114.2417507403
 20
195.7129179892
  0
VERTEX
  8
0
 62
7
  6
CONTINUOUS
 10
114.3618914387
 20
195.7145770397
  0
VERTEX
  8
0
 62
7
  6
CONTINUOUS
 10
114.474848952
 20
195.7194648741
  0
VERTEX
  8
0
 62
7
  6
CONTINUOUS
 10
114.5740548602
 20
195.7273289125
  0
VERTEX
  8
0
 62
7
  6
CONTINUOUS
 10
114.6166699955
 20
195.7322561362
  0
VERTEX
  8
0
 62
7
  6
CONTINUOUS
 10
114.6848812683
 20
195.7437813618
  0
VERTEX
  8
0
 62
7
  6
CONTINUOUS
 10
114.7273476281
 20
195.7570164406
  0
VERTEX
  8
0
 62
7
  6
CONTINUOUS
 10
114.7417507403
 20
195.7712490333
  0
SEQEND
  0
POLYLINE
  8
0
 62
7
  6
CONTINUOUS
 66
1
 70
0
  0
VERTEX
  8
0
 62
7
  6
CONTINUOUS
 10
101.5417507403
 20
195.7129179892
  0
VERTEX
  8
0
 62
7
  6
CONTINUOUS
 10
101.6618914387
 20
195.7145770397
  0
VERTEX
  8
0
 62
7
  6
CONTINUOUS
 10
101.774848952
 20
195.7194648741
  0
VERTEX
  8
0
 62
7
  6
CONTINUOUS
 10
101.8740548602
 20
195.7273289125
  0
VERTEX
  8
0
 62
7
  6
CONTINUOUS
 10
101.9166699955
 20
195.7322561362
  0
VERTEX
  8
0
 62
7
  6
CONTINUOUS
 10
101.9848812683
 20
195.7437813618
  0
VERTEX
  8
0
 62
7
  6
CONTINUOUS
 10
102.0273476281
 20
195.7570164406
  0
VERTEX
  8
0
 62
7
  6
CONTINUOUS
 10
102.0417507403
 20
195.7712490333
  0
SEQEND
  0
POLYLINE
  8
0
 62
7
  6
CONTINUOUS
 66
1
 70
0
  0
VERTEX
  8
0
 62
7
  6
CONTINUOUS
 10
88.8417507403
 20
195.7129179892
  0
VERTEX
  8
0
 62
7
  6
CONTINUOUS
 10
88.9618914387
 20
195.7145770397
  0
VERTEX
  8
0
 62
7
  6
CONTINUOUS
 10
89.074848952
 20
195.7194648741
  0
VERTEX
  8
0
 62
7
  6
CONTINUOUS
 10
89.1740548602
 20
195.7273289125
  0
VERTEX
  8
0
 62
7
  6
CONTINUOUS
 10
89.2166699955
 20
195.7322561362
  0
VERTEX
  8
0
 62
7
  6
CONTINUOUS
 10
89.2848812683
 20
195.7437813618
  0
VERTEX
  8
0
 62
7
  6
CONTINUOUS
 10
89.3273476281
 20
195.7570164406
  0
VERTEX
  8
0
 62
7
  6
CONTINUOUS
 10
89.3417507403
 20
195.7712490333
  0
SEQEND
  0
POLYLINE
  8
0
 62
7
  6
CONTINUOUS
 66
1
 70
0
  0
VERTEX
  8
0
 62
7
  6
CONTINUOUS
 10
76.1417507403
 20
195.7129179892
  0
VERTEX
  8
0
 62
7
  6
CONTINUOUS
 10
76.2618914387
 20
195.7145770397
  0
VERTEX
  8
0
 62
7
  6
CONTINUOUS
 10
76.374848952
 20
195.7194648741
  0
VERTEX
  8
0
 62
7
  6
CONTINUOUS
 10
76.4740548602
 20
195.7273289125
  0
VERTEX
  8
0
 62
7
  6
CONTINUOUS
 10
76.5166699955
 20
195.7322561362
  0
VERTEX
  8
0
 62
7
  6
CONTINUOUS
 10
76.5848812683
 20
195.7437813618
  0
VERTEX
  8
0
 62
7
  6
CONTINUOUS
 10
76.6273476281
 20
195.7570164406
  0
VERTEX
  8
0
 62
7
  6
CONTINUOUS
 10
76.6417507403
 20
195.7712490333
  0
SEQEND
  0
POLYLINE
  8
0
 62
7
  6
CONTINUOUS
 66
1
 70
0
  0
VERTEX
  8
0
 62
7
  6
CONTINUOUS
 10
63.4417507403
 20
195.7129179892
  0
VERTEX
  8
0
 62
7
  6
CONTINUOUS
 10
63.5618914387
 20
195.7145770397
  0
VERTEX
  8
0
 62
7
  6
CONTINUOUS
 10
63.674848952
 20
195.7194648741
  0
VERTEX
  8
0
 62
7
  6
CONTINUOUS
 10
63.7740548602
 20
195.7273289125
  0
VERTEX
  8
0
 62
7
  6
CONTINUOUS
 10
63.8166699955
 20
195.7322561362
  0
VERTEX
  8
0
 62
7
  6
CONTINUOUS
 10
63.8848812683
 20
195.7437813618
  0
VERTEX
  8
0
 62
7
  6
CONTINUOUS
 10
63.9273476281
 20
195.7570164406
  0
VERTEX
  8
0
 62
7
  6
CONTINUOUS
 10
63.9417507403
 20
195.7712490333
  0
SEQEND
  0
POLYLINE
  8
0
 62
7
  6
CONTINUOUS
 66
1
 70
0
  0
VERTEX
  8
0
 62
7
  6
CONTINUOUS
 10
38.0417507403
 20
195.7129179892
  0
VERTEX
  8
0
 62
7
  6
CONTINUOUS
 10
38.1618914387
 20
195.7145770397
  0
VERTEX
  8
0
 62
7
  6
CONTINUOUS
 10
38.274848952
 20
195.7194648741
  0
VERTEX
  8
0
 62
7
  6
CONTINUOUS
 10
38.3740548602
 20
195.7273289125
  0
VERTEX
  8
0
 62
7
  6
CONTINUOUS
 10
38.4166699955
 20
195.7322561362
  0
VERTEX
  8
0
 62
7
  6
CONTINUOUS
 10
38.4848812683
 20
195.7437813618
  0
VERTEX
  8
0
 62
7
  6
CONTINUOUS
 10
38.5273476281
 20
195.7570164406
  0
VERTEX
  8
0
 62
7
  6
CONTINUOUS
 10
38.5417507403
 20
195.7712490333
  0
SEQEND
  0
POLYLINE
  8
0
 62
7
  6
CONTINUOUS
 66
1
 70
0
  0
VERTEX
  8
0
 62
7
  6
CONTINUOUS
 10
134.5417507403
 20
197.6570373271
  0
VERTEX
  8
0
 62
7
  6
CONTINUOUS
 10
134.4216100418
 20
197.6553782767
  0
VERTEX
  8
0
 62
7
  6
CONTINUOUS
 10
134.3086525285
 20
197.6504904423
  0
VERTEX
  8
0
 62
7
  6
CONTINUOUS
 10
134.2094466203
 20
197.6426264039
  0
VERTEX
  8
0
 62
7
  6
CONTINUOUS
 10
134.166831485
 20
197.6376991802
  0
VERTEX
  8
0
 62
7
  6
CONTINUOUS
 10
134.0986202122
 20
197.6261739546
  0
VERTEX
  8
0
 62
7
  6
CONTINUOUS
 10
134.0561538525
 20
197.6129388758
  0
VERTEX
  8
0
 62
7
  6
CONTINUOUS
 10
134.0417507403
 20
197.5987062831
  0
SEQEND
  0
LINE
  8
0
 62
7
  6
CONTINUOUS
 10
36.2417507403
 20
195.7129179892
 11
38.0417507403
 21
195.7129179892
  0
LINE
  8
0
 62
7
  6
CONTINUOUS
 10
45.6417507403
 20
195.7129179892
 11
50.7417507403
 21
195.7129179892
  0
LINE
  8
0
 62
7
  6
CONTINUOUS
 10
58.3417507403
 20
195.7129179892
 11
63.4417507403
 21
195.7129179892
  0
LINE
  8
0
 62
7
  6
CONTINUOUS
 10
71.0417507403
 20
195.7129179892
 11
76.1417507403
 21
195.7129179892
  0
LINE
  8
0
 62
7
  6
CONTINUOUS
 10
83.7417507403
 20
195.7129179892
 11
88.8417507403
 21
195.7129179892
  0
LINE
  8
0
 62
7
  6
CONTINUOUS
 10
96.4417507403
 20
195.7129179892
 11
101.5417507403
 21
195.7129179892
  0
LINE
  8
0
 62
7
  6
CONTINUOUS
 10
109.1417507403
 20
195.7129179892
 11
114.2417507403
 21
195.7129179892
  0
LINE
  8
0
 62
7
  6
CONTINUOUS
 10
121.8417507403
 20
195.7129179892
 11
126.9417507403
 21
195.7129179892
  0
LINE
  8
0
 62
7
  6
CONTINUOUS
 10
134.5417507403
 20
195.7129179892
 11
136.3417507403
 21
195.7129179892
  0
LINE
  8
0
 62
7
  6
CONTINUOUS
 10
39.1379677259
 20
196.6849776582
 11
38.8512476784
 21
196.6849776582
  0
LINE
  8
1_AXIS
 62
2
  6
CENTER
 10
27.6206208536
 20
196.6849776582
 11
140.2908597797
 21
196.6849776582
  0
POLYLINE
  8
0
 62
7
  6
CONTINUOUS
 66
1
 70
0
  0
VERTEX
  8
0
 62
7
  6
CONTINUOUS
 10
45.6417507403
 20
195.7129179892
  0
VERTEX
  8
0
 62
7
  6
CONTINUOUS
 10
45.5216100418
 20
195.7145770397
  0
VERTEX
  8
0
 62
7
  6
CONTINUOUS
 10
45.4086525285
 20
195.7194648741
  0
VERTEX
  8
0
 62
7
  6
CONTINUOUS
 10
45.3094466203
 20
195.7273289125
  0
VERTEX
  8
0
 62
7
  6
CONTINUOUS
 10
45.266831485
 20
195.7322561362
  0
VERTEX
  8
0
 62
7
  6
CONTINUOUS
 10
45.1986202122
 20
195.7437813618
  0
VERTEX
  8
0
 62
7
  6
CONTINUOUS
 10
45.1561538525
 20
195.7570164406
  0
VERTEX
  8
0
 62
7
  6
CONTINUOUS
 10
45.1417507403
 20
195.7712490333
  0
SEQEND
  0
POLYLINE
  8
0
 62
7
  6
CONTINUOUS
 66
1
 70
0
  0
VERTEX
  8
0
 62
7
  6
CONTINUOUS
 10
58.3417507403
 20
195.7129179892
  0
VERTEX
  8
0
 62
7
  6
CONTINUOUS
 10
58.2216100418
 20
195.7145770397
  0
VERTEX
  8
0
 62
7
  6
CONTINUOUS
 10
58.1086525285
 20
195.7194648741
  0
VERTEX
  8
0
 62
7
  6
CONTINUOUS
 10
58.0094466203
 20
195.7273289125
  0
VERTEX
  8
0
 62
7
  6
CONTINUOUS
 10
57.966831485
 20
195.7322561362
  0
VERTEX
  8
0
 62
7
  6
CONTINUOUS
 10
57.8986202122
 20
195.7437813618
  0
VERTEX
  8
0
 62
7
  6
CONTINUOUS
 10
57.8561538525
 20
195.7570164406
  0
VERTEX
  8
0
 62
7
  6
CONTINUOUS
 10
57.8417507403
 20
195.7712490333
  0
SEQEND
  0
POLYLINE
  8
0
 62
7
  6
CONTINUOUS
 66
1
 70
0
  0
VERTEX
  8
0
 62
7
  6
CONTINUOUS
 10
71.0417507403
 20
195.7129179892
  0
VERTEX
  8
0
 62
7
  6
CONTINUOUS
 10
70.9216100418
 20
195.7145770397
  0
VERTEX
  8
0
 62
7
  6
CONTINUOUS
 10
70.8086525285
 20
195.7194648741
  0
VERTEX
  8
0
 62
7
  6
CONTINUOUS
 10
70.7094466203
 20
195.7273289125
  0
VERTEX
  8
0
 62
7
  6
CONTINUOUS
 10
70.666831485
 20
195.7322561362
  0
VERTEX
  8
0
 62
7
  6
CONTINUOUS
 10
70.5986202122
 20
195.7437813618
  0
VERTEX
  8
0
 62
7
  6
CONTINUOUS
 10
70.5561538525
 20
195.7570164406
  0
VERTEX
  8
0
 62
7
  6
CONTINUOUS
 10
70.5417507403
 20
195.7712490333
  0
SEQEND
  0
POLYLINE
  8
0
 62
7
  6
CONTINUOUS
 66
1
 70
0
  0
VERTEX
  8
0
 62
7
  6
CONTINUOUS
 10
96.4417507403
 20
195.7129179892
  0
VERTEX
  8
0
 62
7
  6
CONTINUOUS
 10
96.3216100418
 20
195.7145770397
  0
VERTEX
  8
0
 62
7
  6
CONTINUOUS
 10
96.2086525285
 20
195.7194648741
  0
VERTEX
  8
0
 62
7
  6
CONTINUOUS
 10
96.1094466203
 20
195.7273289125
  0
VERTEX
  8
0
 62
7
  6
CONTINUOUS
 10
96.066831485
 20
195.7322561362
  0
VERTEX
  8
0
 62
7
  6
CONTINUOUS
 10
95.9986202122
 20
195.7437813618
  0
VERTEX
  8
0
 62
7
  6
CONTINUOUS
 10
95.9561538525
 20
195.7570164406
  0
VERTEX
  8
0
 62
7
  6
CONTINUOUS
 10
95.9417507403
 20
195.7712490333
  0
SEQEND
  0
POLYLINE
  8
0
 62
7
  6
CONTINUOUS
 66
1
 70
0
  0
VERTEX
  8
0
 62
7
  6
CONTINUOUS
 10
121.8417507403
 20
195.7129179892
  0
VERTEX
  8
0
 62
7
  6
CONTINUOUS
 10
121.7216100418
 20
195.7145770397
  0
VERTEX
  8
0
 62
7
  6
CONTINUOUS
 10
121.6086525285
 20
195.7194648741
  0
VERTEX
  8
0
 62
7
  6
CONTINUOUS
 10
121.5094466203
 20
195.7273289125
  0
VERTEX
  8
0
 62
7
  6
CONTINUOUS
 10
121.466831485
 20
195.7322561362
  0
VERTEX
  8
0
 62
7
  6
CONTINUOUS
 10
121.3986202122
 20
195.7437813618
  0
VERTEX
  8
0
 62
7
  6
CONTINUOUS
 10
121.3561538525
 20
195.7570164406
  0
VERTEX
  8
0
 62
7
  6
CONTINUOUS
 10
121.3417507403
 20
195.7712490333
  0
SEQEND
  0
POLYLINE
  8
0
 62
7
  6
CONTINUOUS
 66
1
 70
0
  0
VERTEX
  8
0
 62
7
  6
CONTINUOUS
 10
134.5417507403
 20
195.7129179892
  0
VERTEX
  8
0
 62
7
  6
CONTINUOUS
 10
134.4216100418
 20
195.7145770397
  0
VERTEX
  8
0
 62
7
  6
CONTINUOUS
 10
134.3086525285
 20
195.7194648741
  0
VERTEX
  8
0
 62
7
  6
CONTINUOUS
 10
134.2094466203
 20
195.7273289125
  0
VERTEX
  8
0
 62
7
  6
CONTINUOUS
 10
134.166831485
 20
195.7322561362
  0
VERTEX
  8
0
 62
7
  6
CONTINUOUS
 10
134.0986202122
 20
195.7437813618
  0
VERTEX
  8
0
 62
7
  6
CONTINUOUS
 10
134.0561538525
 20
195.7570164406
  0
VERTEX
  8
0
 62
7
  6
CONTINUOUS
 10
134.0417507403
 20
195.7712490333
  0
SEQEND
  0
POLYLINE
  8
0
 62
7
  6
CONTINUOUS
 66
1
 70
0
  0
VERTEX
  8
0
 62
7
  6
CONTINUOUS
 10
121.2161865923
 20
192.3349776582
  0
VERTEX
  8
0
 62
7
  6
CONTINUOUS
 10
121.0964874835
 20
192.3495994601
  0
VERTEX
  8
0
 62
7
  6
CONTINUOUS
 10
120.9841017669
 20
192.3925463754
  0
VERTEX
  8
0
 62
7
  6
CONTINUOUS
 10
120.8855553076
 20
192.461219927
  0
VERTEX
  8
0
 62
7
  6
CONTINUOUS
 10
120.8432911767
 20
192.5039788202
  0
VERTEX
  8
0
 62
7
  6
CONTINUOUS
 10
120.7758087369
 20
192.6031833366
  0
VERTEX
  8
0
 62
7
  6
CONTINUOUS
 10
120.741056902
 20
192.6896632225
  0
SEQEND
  0
POLYLINE
  8
0
 62
7
  6
CONTINUOUS
 66
1
 70
0
  0
VERTEX
  8
0
 62
7
  6
CONTINUOUS
 10
120.6095970979
 20
192.3350204275
  0
VERTEX
  8
0
 62
7
  6
CONTINUOUS
 10
120.4908728885
 20
192.3509566793
  0
VERTEX
  8
0
 62
7
  6
CONTINUOUS
 10
120.3792833622
 20
192.3946700784
  0
VERTEX
  8
0
 62
7
  6
CONTINUOUS
 10
120.2812002489
 20
192.4635611231
  0
VERTEX
  8
0
 62
7
  6
CONTINUOUS
 10
120.2390034914
 20
192.5062384077
  0
VERTEX
  8
0
 62
7
  6
CONTINUOUS
 10
120.1712724464
 20
192.6049581707
  0
VERTEX
  8
0
 62
7
  6
CONTINUOUS
 10
120.1287676029
 20
192.7166627699
  0
VERTEX
  8
0
 62
7
  6
CONTINUOUS
 10
120.1138149002
 20
192.8349776582
  0
SEQEND
  0
POLYLINE
  8
0
 62
7
  6
CONTINUOUS
 66
1
 70
0
  0
VERTEX
  8
0
 62
7
  6
CONTINUOUS
 10
57.6488517987
 20
198.4349776582
  0
VERTEX
  8
0
 62
7
  6
CONTINUOUS
 10
57.7223017506
 20
198.4244142995
  0
VERTEX
  8
0
 62
7
  6
CONTINUOUS
 10
57.7804447481
 20
198.3936033387
  0
VERTEX
  8
0
 62
7
  6
CONTINUOUS
 10
57.803078852
 20
198.3710174495
  0
VERTEX
  8
0
 62
7
  6
CONTINUOUS
 10
57.8327495626
 20
198.3159916115
  0
VERTEX
  8
0
 62
7
  6
CONTINUOUS
 10
57.8417507403
 20
198.2592693686
  0
SEQEND
  0
POLYLINE
  8
0
 62
7
  6
CONTINUOUS
 66
1
 70
0
  0
VERTEX
  8
0
 62
7
  6
CONTINUOUS
 10
83.2417507403
 20
195.7712490333
  0
VERTEX
  8
0
 62
7
  6
CONTINUOUS
 10
83.2561538525
 20
195.7570164406
  0
VERTEX
  8
0
 62
7
  6
CONTINUOUS
 10
83.2986202122
 20
195.7437813618
  0
VERTEX
  8
0
 62
7
  6
CONTINUOUS
 10
83.366831485
 20
195.7322561362
  0
VERTEX
  8
0
 62
7
  6
CONTINUOUS
 10
83.4094466203
 20
195.7273289125
  0
VERTEX
  8
0
 62
7
  6
CONTINUOUS
 10
83.5086525285
 20
195.7194648741
  0
VERTEX
  8
0
 62
7
  6
CONTINUOUS
 10
83.6216100418
 20
195.7145770397
  0
VERTEX
  8
0
 62
7
  6
CONTINUOUS
 10
83.7417507403
 20
195.7129179892
  0
SEQEND
  0
LINE
  8
0
 62
7
  6
CONTINUOUS
 10
89.3417507403
 20
192.8349776582
 11
89.3417507403
 21
200.3349776582
  0
POLYLINE
  8
0
 62
7
  6
CONTINUOUS
 66
1
 70
0
  0
VERTEX
  8
0
 62
7
  6
CONTINUOUS
 10
109.1417507403
 20
197.6570373271
  0
VERTEX
  8
0
 62
7
  6
CONTINUOUS
 10
109.0216100418
 20
197.6553782767
  0
VERTEX
  8
0
 62
7
  6
CONTINUOUS
 10
108.9086525285
 20
197.6504904423
  0
VERTEX
  8
0
 62
7
  6
CONTINUOUS
 10
108.8094466203
 20
197.6426264039
  0
VERTEX
  8
0
 62
7
  6
CONTINUOUS
 10
108.766831485
 20
197.6376991802
  0
VERTEX
  8
0
 62
7
  6
CONTINUOUS
 10
108.6986202122
 20
197.6261739546
  0
VERTEX
  8
0
 62
7
  6
CONTINUOUS
 10
108.6561538525
 20
197.6129388758
  0
VERTEX
  8
0
 62
7
  6
CONTINUOUS
 10
108.6417507403
 20
197.5987062831
  0
SEQEND
  0
POLYLINE
  8
0
 62
7
  6
CONTINUOUS
 66
1
 70
0
  0
VERTEX
  8
0
 62
7
  6
CONTINUOUS
 10
96.4417507403
 20
197.6570373271
  0
VERTEX
  8
0
 62
7
  6
CONTINUOUS
 10
96.3216100418
 20
197.6553782767
  0
VERTEX
  8
0
 62
7
  6
CONTINUOUS
 10
96.2086525285
 20
197.6504904423
  0
VERTEX
  8
0
 62
7
  6
CONTINUOUS
 10
96.1094466203
 20
197.6426264039
  0
VERTEX
  8
0
 62
7
  6
CONTINUOUS
 10
96.066831485
 20
197.6376991802
  0
VERTEX
  8
0
 62
7
  6
CONTINUOUS
 10
95.9986202122
 20
197.6261739546
  0
VERTEX
  8
0
 62
7
  6
CONTINUOUS
 10
95.9561538525
 20
197.6129388758
  0
VERTEX
  8
0
 62
7
  6
CONTINUOUS
 10
95.9417507403
 20
197.5987062831
  0
SEQEND
  0
POLYLINE
  8
0
 62
7
  6
CONTINUOUS
 66
1
 70
0
  0
VERTEX
  8
0
 62
7
  6
CONTINUOUS
 10
83.7417507403
 20
197.6570373271
  0
VERTEX
  8
0
 62
7
  6
CONTINUOUS
 10
83.6216100418
 20
197.6553782767
  0
VERTEX
  8
0
 62
7
  6
CONTINUOUS
 10
83.5086525285
 20
197.6504904423
  0
VERTEX
  8
0
 62
7
  6
CONTINUOUS
 10
83.4094466203
 20
197.6426264039
  0
VERTEX
  8
0
 62
7
  6
CONTINUOUS
 10
83.366831485
 20
197.6376991802
  0
VERTEX
  8
0
 62
7
  6
CONTINUOUS
 10
83.2986202122
 20
197.6261739546
  0
VERTEX
  8
0
 62
7
  6
CONTINUOUS
 10
83.2561538525
 20
197.6129388758
  0
VERTEX
  8
0
 62
7
  6
CONTINUOUS
 10
83.2417507403
 20
197.5987062831
  0
SEQEND
  0
POLYLINE
  8
0
 62
7
  6
CONTINUOUS
 66
1
 70
0
  0
VERTEX
  8
0
 62
7
  6
CONTINUOUS
 10
71.0417507403
 20
197.6570373271
  0
VERTEX
  8
0
 62
7
  6
CONTINUOUS
 10
70.9216100418
 20
197.6553782767
  0
VERTEX
  8
0
 62
7
  6
CONTINUOUS
 10
70.8086525285
 20
197.6504904423
  0
VERTEX
  8
0
 62
7
  6
CONTINUOUS
 10
70.7094466203
 20
197.6426264039
  0
VERTEX
  8
0
 62
7
  6
CONTINUOUS
 10
70.666831485
 20
197.6376991802
  0
VERTEX
  8
0
 62
7
  6
CONTINUOUS
 10
70.5986202122
 20
197.6261739546
  0
VERTEX
  8
0
 62
7
  6
CONTINUOUS
 10
70.5561538525
 20
197.6129388758
  0
VERTEX
  8
0
 62
7
  6
CONTINUOUS
 10
70.5417507403
 20
197.5987062831
  0
SEQEND
  0
POLYLINE
  8
0
 62
7
  6
CONTINUOUS
 66
1
 70
0
  0
VERTEX
  8
0
 62
7
  6
CONTINUOUS
 10
45.6417507403
 20
197.6570373271
  0
VERTEX
  8
0
 62
7
  6
CONTINUOUS
 10
45.5216100418
 20
197.6553782767
  0
VERTEX
  8
0
 62
7
  6
CONTINUOUS
 10
45.4086525285
 20
197.6504904423
  0
VERTEX
  8
0
 62
7
  6
CONTINUOUS
 10
45.3094466203
 20
197.6426264039
  0
VERTEX
  8
0
 62
7
  6
CONTINUOUS
 10
45.266831485
 20
197.6376991802
  0
VERTEX
  8
0
 62
7
  6
CONTINUOUS
 10
45.1986202122
 20
197.6261739546
  0
VERTEX
  8
0
 62
7
  6
CONTINUOUS
 10
45.1561538525
 20
197.6129388758
  0
VERTEX
  8
0
 62
7
  6
CONTINUOUS
 10
45.1417507403
 20
197.5987062831
  0
SEQEND
  0
LINE
  8
0
 62
7
  6
CONTINUOUS
 10
36.2417507403
 20
197.6570373271
 11
38.0417507403
 21
197.6570373271
  0
LINE
  8
0
 62
7
  6
CONTINUOUS
 10
45.6417507403
 20
197.6570373271
 11
50.7417507403
 21
197.6570373271
  0
LINE
  8
0
 62
7
  6
CONTINUOUS
 10
58.3417507403
 20
197.6570373271
 11
63.4417507403
 21
197.6570373271
  0
LINE
  8
0
 62
7
  6
CONTINUOUS
 10
71.0417507403
 20
197.6570373271
 11
76.1417507403
 21
197.6570373271
  0
LINE
  8
0
 62
7
  6
CONTINUOUS
 10
83.7417507403
 20
197.6570373271
 11
88.8417507403
 21
197.6570373271
  0
LINE
  8
0
 62
7
  6
CONTINUOUS
 10
96.4417507403
 20
197.6570373271
 11
101.5417507403
 21
197.6570373271
  0
LINE
  8
0
 62
7
  6
CONTINUOUS
 10
109.1417507403
 20
197.6570373271
 11
114.2417507403
 21
197.6570373271
  0
LINE
  8
0
 62
7
  6
CONTINUOUS
 10
121.8417507403
 20
197.6570373271
 11
126.9417507403
 21
197.6570373271
  0
LINE
  8
0
 62
7
  6
CONTINUOUS
 10
134.5417507403
 20
197.6570373271
 11
136.3417507403
 21
197.6570373271
  0
LINE
  8
2_FEATURE
 62
7
  6
CONTINUOUS
 10
108.4667506568
 20
198.3349776582
 11
108.2480007403
 21
198.3349776582
  0
LINE
  8
2_FEATURE
 62
7
  6
CONTINUOUS
 10
107.0292508237
 20
198.3349776582
 11
102.2542510741
 21
198.3349776582
  0
LINE
  8
2_FEATURE
 62
7
  6
CONTINUOUS
 10
83.2225120175
 20
198.3349776582
 11
80.1167506568
 21
198.3349776582
  0
LINE
  8
2_FEATURE
 62
7
  6
CONTINUOUS
 10
79.966750931
 20
198.3349776582
 11
76.6609931726
 21
198.3349776582
  0
LINE
  8
2_FEATURE
 62
7
  6
CONTINUOUS
 10
57.8225120175
 20
198.3349776582
 11
57.4917507403
 21
198.3349776582
  0
LINE
  8
2_FEATURE
 62
7
  6
CONTINUOUS
 10
57.291750931
 20
198.3349776582
 11
56.8017507403
 21
198.3349776582
  0
LINE
  8
2_FEATURE
 62
7
  6
CONTINUOUS
 10
53.8667505495
 20
198.3349776582
 11
53.8317507403
 21
198.3349776582
  0
LINE
  8
1_AXIS
 62
7
  6
CONTINUOUS
 10
56.8017507403
 20
198.3349776582
 11
53.9517507403
 21
198.3349776582
  0
LINE
  8
1_AXIS
 62
7
  6
CONTINUOUS
 10
53.8317507403
 20
198.3349776582
 11
52.1217507403
 21
198.3349776582
  0
LINE
  8
2_FEATURE
 62
7
  6
CONTINUOUS
 10
52.1217507403
 20
198.3349776582
 11
51.5417511217
 21
198.3349776582
  0
LINE
  8
2_FEATURE
 62
7
  6
CONTINUOUS
 10
51.3417507403
 20
198.3349776582
 11
51.2609931726
 21
198.3349776582
  0
LINE
  8
2_FEATURE
 62
7
  6
CONTINUOUS
 10
38.5417507403
 20
198.4349776582
 11
45.1417507403
 21
198.4349776582
  0
LINE
  8
0
 62
7
  6
CONTINUOUS
 10
51.4346496819
 20
198.4349776582
 11
51.7417507403
 21
198.4349776582
  0
LINE
  8
2_FEATURE
 62
7
  6
CONTINUOUS
 10
51.7417507403
 20
198.4349776582
 11
57.3417507403
 21
198.4349776582
  0
LINE
  8
0
 62
7
  6
CONTINUOUS
 10
57.3417507403
 20
198.4349776582
 11
57.6488517987
 21
198.4349776582
  0
LINE
  8
2_FEATURE
 62
7
  6
CONTINUOUS
 10
63.9417507403
 20
198.4349776582
 11
70.5417507403
 21
198.4349776582
  0
LINE
  8
0
 62
7
  6
CONTINUOUS
 10
76.8346496819
 20
198.4349776582
 11
77.1417507403
 21
198.4349776582
  0
LINE
  8
2_FEATURE
 62
7
  6
CONTINUOUS
 10
77.1417507403
 20
198.4349776582
 11
82.7417507403
 21
198.4349776582
  0
LINE
  8
0
 62
7
  6
CONTINUOUS
 10
82.7417507403
 20
198.4349776582
 11
83.0488517987
 21
198.4349776582
  0
LINE
  8
2_FEATURE
 62
7
  6
CONTINUOUS
 10
89.3417507403
 20
198.4349776582
 11
95.9417507403
 21
198.4349776582
  0
LINE
  8
0
 62
7
  6
CONTINUOUS
 10
102.2346496819
 20
198.4349776582
 11
102.5417507403
 21
198.4349776582
  0
LINE
  8
2_FEATURE
 62
7
  6
CONTINUOUS
 10
102.5417507403
 20
198.4349776582
 11
108.1417507403
 21
198.4349776582
  0
LINE
  8
0
 62
7
  6
CONTINUOUS
 10
108.1417507403
 20
198.4349776582
 11
108.4488517987
 21
198.4349776582
  0
LINE
  8
2_FEATURE
 62
7
  6
CONTINUOUS
 10
114.7417507403
 20
198.4349776582
 11
121.3417507403
 21
198.4349776582
  0
LINE
  8
2_FEATURE
 62
7
  6
CONTINUOUS
 10
127.4417507403
 20
198.4349776582
 11
134.0417507403
 21
198.4349776582
  0
POLYLINE
  8
0
 62
7
  6
CONTINUOUS
 66
1
 70
0
  0
VERTEX
  8
0
 62
7
  6
CONTINUOUS
 10
50.7417507403
 20
197.6570373271
  0
VERTEX
  8
0
 62
7
  6
CONTINUOUS
 10
50.8618914387
 20
197.6553782767
  0
VERTEX
  8
0
 62
7
  6
CONTINUOUS
 10
50.974848952
 20
197.6504904423
  0
VERTEX
  8
0
 62
7
  6
CONTINUOUS
 10
51.0740548602
 20
197.6426264039
  0
VERTEX
  8
0
 62
7
  6
CONTINUOUS
 10
51.1166699955
 20
197.6376991802
  0
VERTEX
  8
0
 62
7
  6
CONTINUOUS
 10
51.1848812683
 20
197.6261739546
  0
VERTEX
  8
0
 62
7
  6
CONTINUOUS
 10
51.2273476281
 20
197.6129388758
  0
VERTEX
  8
0
 62
7
  6
CONTINUOUS
 10
51.2417507403
 20
197.5987062831
  0
SEQEND
  0
POLYLINE
  8
0
 62
7
  6
CONTINUOUS
 66
1
 70
0
  0
VERTEX
  8
0
 62
7
  6
CONTINUOUS
 10
83.0488517987
 20
198.4349776582
  0
VERTEX
  8
0
 62
7
  6
CONTINUOUS
 10
83.1223017506
 20
198.4244142995
  0
VERTEX
  8
0
 62
7
  6
CONTINUOUS
 10
83.1804447481
 20
198.3936033387
  0
VERTEX
  8
0
 62
7
  6
CONTINUOUS
 10
83.203078852
 20
198.3710174495
  0
VERTEX
  8
0
 62
7
  6
CONTINUOUS
 10
83.2327495626
 20
198.3159916115
  0
VERTEX
  8
0
 62
7
  6
CONTINUOUS
 10
83.2417507403
 20
198.2592693686
  0
SEQEND
  0
POLYLINE
  8
0
 62
7
  6
CONTINUOUS
 66
1
 70
0
  0
VERTEX
  8
0
 62
7
  6
CONTINUOUS
 10
89.3417507403
 20
197.5987062831
  0
VERTEX
  8
0
 62
7
  6
CONTINUOUS
 10
89.3273476281
 20
197.6129388758
  0
VERTEX
  8
0
 62
7
  6
CONTINUOUS
 10
89.2848812683
 20
197.6261739546
  0
VERTEX
  8
0
 62
7
  6
CONTINUOUS
 10
89.2166699955
 20
197.6376991802
  0
VERTEX
  8
0
 62
7
  6
CONTINUOUS
 10
89.1740548602
 20
197.6426264039
  0
VERTEX
  8
0
 62
7
  6
CONTINUOUS
 10
89.074848952
 20
197.6504904423
  0
VERTEX
  8
0
 62
7
  6
CONTINUOUS
 10
88.9618914387
 20
197.6553782767
  0
VERTEX
  8
0
 62
7
  6
CONTINUOUS
 10
88.8417507403
 20
197.6570373271
  0
SEQEND
  0
LINE
  8
0
 62
7
  6
CONTINUOUS
 10
91.1917507403
 20
192.8349776582
 11
91.1917507403
 21
194.6119398332
  0
POLYLINE
  8
0
 62
7
  6
CONTINUOUS
 66
1
 70
0
  0
VERTEX
  8
0
 62
7
  6
CONTINUOUS
 10
89.9424445785
 20
192.6896632225
  0
VERTEX
  8
0
 62
7
  6
CONTINUOUS
 10
89.9494034183
 20
192.715692708
  0
VERTEX
  8
0
 62
7
  6
CONTINUOUS
 10
89.9630249826
 20
192.8349776582
  0
SEQEND
  0
LINE
  8
0
 62
7
  6
CONTINUOUS
 10
89.9424451448
 20
192.6896650374
 11
90.1746329947
 21
193.4726344774
  0
LINE
  8
0
 62
7
  6
CONTINUOUS
 10
90.1746377204
 20
193.47265038
 11
90.1779941004
 21
193.4831894861
  0
LINE
  8
0
 62
7
  6
CONTINUOUS
 10
94.1181092786
 20
198.433987313
 11
93.6190996238
 21
197.9349776582
  0
LINE
  8
0
 62
7
  6
CONTINUOUS
 10
36.2417507403
 20
200.8349776582
 11
136.3417507403
 21
200.8349776582
  0
POLYLINE
  8
0
 62
7
  6
CONTINUOUS
 66
1
 70
0
  0
VERTEX
  8
0
 62
7
  6
CONTINUOUS
 10
108.4488517987
 20
198.4349776582
  0
VERTEX
  8
0
 62
7
  6
CONTINUOUS
 10
108.5223017506
 20
198.4244142995
  0
VERTEX
  8
0
 62
7
  6
CONTINUOUS
 10
108.5804447481
 20
198.3936033387
  0
VERTEX
  8
0
 62
7
  6
CONTINUOUS
 10
108.603078852
 20
198.3710174495
  0
VERTEX
  8
0
 62
7
  6
CONTINUOUS
 10
108.6327495626
 20
198.3159916115
  0
VERTEX
  8
0
 62
7
  6
CONTINUOUS
 10
108.6417507403
 20
198.2592693686
  0
SEQEND
  0
LINE
  8
0
 62
7
  6
CONTINUOUS
 10
91.6644018567
 20
197.9349776582
 11
91.1653922019
 21
198.433987313
  0
POLYLINE
  8
0
 62
7
  6
CONTINUOUS
 66
1
 70
0
  0
VERTEX
  8
0
 62
7
  6
CONTINUOUS
 10
95.1059644436
 20
193.4820347225
  0
VERTEX
  8
0
 62
7
  6
CONTINUOUS
 10
95.1054621562
 20
193.4833144454
  0
VERTEX
  8
0
 62
7
  6
CONTINUOUS
 10
95.1088640747
 20
193.472649319
  0
SEQEND
  0
LINE
  8
0
 62
7
  6
CONTINUOUS
 10
94.0917507403
 20
192.8349776582
 11
94.0917507403
 21
194.6119398414
  0
LINE
  8
0
 62
7
  6
CONTINUOUS
 10
95.9417507403
 20
192.8349776582
 11
95.9417507403
 21
200.3349776582
  0
LINE
  8
0
 62
7
  6
CONTINUOUS
 10
95.1088684859
 20
193.4726344774
 11
95.3410563358
 21
192.6896650374
  0
POLYLINE
  8
0
 62
7
  6
CONTINUOUS
 66
1
 70
0
  0
VERTEX
  8
0
 62
7
  6
CONTINUOUS
 10
95.341056902
 20
192.6896632225
  0
VERTEX
  8
0
 62
7
  6
CONTINUOUS
 10
95.3340980622
 20
192.715692708
  0
VERTEX
  8
0
 62
7
  6
CONTINUOUS
 10
95.3204764979
 20
192.8349776582
  0
SEQEND
  0
POLYLINE
  8
0
 62
7
  6
CONTINUOUS
 66
1
 70
0
  0
VERTEX
  8
0
 62
7
  6
CONTINUOUS
 10
102.0417507403
 20
197.5987062831
  0
VERTEX
  8
0
 62
7
  6
CONTINUOUS
 10
102.0273476281
 20
197.6129388758
  0
VERTEX
  8
0
 62
7
  6
CONTINUOUS
 10
101.9848812683
 20
197.6261739546
  0
VERTEX
  8
0
 62
7
  6
CONTINUOUS
 10
101.9166699955
 20
197.6376991802
  0
VERTEX
  8
0
 62
7
  6
CONTINUOUS
 10
101.8740548602
 20
197.6426264039
  0
VERTEX
  8
0
 62
7
  6
CONTINUOUS
 10
101.774848952
 20
197.6504904423
  0
VERTEX
  8
0
 62
7
  6
CONTINUOUS
 10
101.6618914387
 20
197.6553782767
  0
VERTEX
  8
0
 62
7
  6
CONTINUOUS
 10
101.5417507403
 20
197.6570373271
  0
SEQEND
  0
LINE
  8
0
 62
7
  6
CONTINUOUS
 10
102.0417507403
 20
192.8349789112
 11
102.0417507403
 21
200.3349776582
  0
LINE
  8
2_FEATURE
 62
7
  6
CONTINUOUS
 10
102.2542510741
 20
198.4349776582
 11
102.2542510741
 21
198.3349776582
  0
LINE
  8
0
 62
7
  6
CONTINUOUS
 10
102.2917507403
 20
198.3349776582
 11
102.2917507403
 21
192.8350467539
  0
LINE
  8
2_FEATURE
 62
7
  6
CONTINUOUS
 10
102.2980004065
 20
198.4349776582
 11
102.2980004065
 21
198.3349776582
  0
LINE
  8
2_FEATURE
 62
7
  6
CONTINUOUS
 10
102.4292504065
 20
198.4349776582
 11
102.4292504065
 21
198.3349776582
  0
LINE
  8
2_FEATURE
 62
7
  6
CONTINUOUS
 10
102.6042507403
 20
198.4349776582
 11
102.6042507403
 21
198.3349776582
  0
LINE
  8
2_FEATURE
 62
7
  6
CONTINUOUS
 10
102.8230004065
 20
198.4349776582
 11
102.8230004065
 21
198.3349776582
  0
LINE
  8
2_FEATURE
 62
7
  6
CONTINUOUS
 10
103.4417507403
 20
198.4349776582
 11
103.4417507403
 21
198.3349776582
  0
POLYLINE
  8
0
 62
7
  6
CONTINUOUS
 66
1
 70
0
  0
VERTEX
  8
0
 62
7
  6
CONTINUOUS
 10
102.0417507403
 20
198.2592693686
  0
VERTEX
  8
0
 62
7
  6
CONTINUOUS
 10
102.0508028724
 20
198.3161489934
  0
VERTEX
  8
0
 62
7
  6
CONTINUOUS
 10
102.0806457314
 20
198.3712897819
  0
VERTEX
  8
0
 62
7
  6
CONTINUOUS
 10
102.1033144188
 20
198.3938126875
  0
VERTEX
  8
0
 62
7
  6
CONTINUOUS
 10
102.1612654136
 20
198.4244350344
  0
VERTEX
  8
0
 62
7
  6
CONTINUOUS
 10
102.2346496819
 20
198.4349776582
  0
SEQEND
  0
POLYLINE
  8
0
 62
7
  6
CONTINUOUS
 66
1
 70
0
  0
VERTEX
  8
0
 62
7
  6
CONTINUOUS
 10
121.9149049754
 20
193.6789843601
  0
VERTEX
  8
0
 62
7
  6
CONTINUOUS
 10
122.3261905624
 20
193.8496033609
  0
VERTEX
  8
0
 62
7
  6
CONTINUOUS
 10
122.7081444217
 20
194.0262584914
  0
VERTEX
  8
0
 62
7
  6
CONTINUOUS
 10
123.0344168248
 20
194.1940218189
  0
SEQEND
  0
POLYLINE
  8
0
 62
7
  6
CONTINUOUS
 66
1
 70
0
  0
VERTEX
  8
0
 62
7
  6
CONTINUOUS
 10
108.6417507403
 20
195.7712490333
  0
VERTEX
  8
0
 62
7
  6
CONTINUOUS
 10
108.6561538525
 20
195.7570164406
  0
VERTEX
  8
0
 62
7
  6
CONTINUOUS
 10
108.6986202122
 20
195.7437813618
  0
VERTEX
  8
0
 62
7
  6
CONTINUOUS
 10
108.766831485
 20
195.7322561362
  0
VERTEX
  8
0
 62
7
  6
CONTINUOUS
 10
108.8094466203
 20
195.7273289125
  0
VERTEX
  8
0
 62
7
  6
CONTINUOUS
 10
108.9086525285
 20
195.7194648741
  0
VERTEX
  8
0
 62
7
  6
CONTINUOUS
 10
109.0216100418
 20
195.7145770397
  0
VERTEX
  8
0
 62
7
  6
CONTINUOUS
 10
109.1417507403
 20
195.7129179892
  0
SEQEND
  0
LINE
  8
2_FEATURE
 62
7
  6
CONTINUOUS
 10
104.4917507403
 20
198.4349776582
 11
104.4917507403
 21
198.3349776582
  0
LINE
  8
2_FEATURE
 62
7
  6
CONTINUOUS
 10
104.710500782
 20
198.4349776582
 11
104.710500782
 21
198.3349776582
  0
LINE
  8
2_FEATURE
 62
7
  6
CONTINUOUS
 10
104.8855007403
 20
198.4349776582
 11
104.8855007403
 21
198.3349776582
  0
LINE
  8
2_FEATURE
 62
7
  6
CONTINUOUS
 10
105.0167507403
 20
198.4349776582
 11
105.0167507403
 21
198.3349776582
  0
LINE
  8
2_FEATURE
 62
7
  6
CONTINUOUS
 10
105.0605006985
 20
198.4349776582
 11
105.0605006985
 21
198.3349776582
  0
LINE
  8
2_FEATURE
 62
7
  6
CONTINUOUS
 10
105.4105007403
 20
198.4349776582
 11
105.4105007403
 21
198.3349776582
  0
LINE
  8
2_FEATURE
 62
7
  6
CONTINUOUS
 10
106.4605007403
 20
198.4349776582
 11
106.4605007403
 21
198.3349776582
  0
LINE
  8
2_FEATURE
 62
7
  6
CONTINUOUS
 10
106.6792506568
 20
198.4349776582
 11
106.6792506568
 21
198.3349776582
  0
LINE
  8
2_FEATURE
 62
7
  6
CONTINUOUS
 10
106.8542507403
 20
198.4349776582
 11
106.8542507403
 21
198.3349776582
  0
LINE
  8
2_FEATURE
 62
7
  6
CONTINUOUS
 10
106.9855007403
 20
198.4349776582
 11
106.9855007403
 21
198.3349776582
  0
LINE
  8
2_FEATURE
 62
7
  6
CONTINUOUS
 10
107.0292508237
 20
198.4349776582
 11
107.0292508237
 21
198.3349776582
  0
POLYLINE
  8
0
 62
7
  6
CONTINUOUS
 66
1
 70
0
  0
VERTEX
  8
0
 62
7
  6
CONTINUOUS
 10
123.0344193612
 20
194.194022027
  0
VERTEX
  8
0
 62
7
  6
CONTINUOUS
 10
123.0442367437
 20
194.1989529669
  0
VERTEX
  8
0
 62
7
  6
CONTINUOUS
 10
123.0600550022
 20
194.2052078277
  0
VERTEX
  8
0
 62
7
  6
CONTINUOUS
 10
123.0756166781
 20
194.2091538966
  0
VERTEX
  8
0
 62
7
  6
CONTINUOUS
 10
123.0924028406
 20
194.2106962197
  0
VERTEX
  8
0
 62
7
  6
CONTINUOUS
 10
123.1103282873
 20
194.2090741182
  0
VERTEX
  8
0
 62
7
  6
CONTINUOUS
 10
123.1281663201
 20
194.2042871422
  0
VERTEX
  8
0
 62
7
  6
CONTINUOUS
 10
123.1452803082
 20
194.1970305458
  0
VERTEX
  8
0
 62
7
  6
CONTINUOUS
 10
123.1617175216
 20
194.1878222027
  0
VERTEX
  8
0
 62
7
  6
CONTINUOUS
 10
123.1774113492
 20
194.1770861562
  0
VERTEX
  8
0
 62
7
  6
CONTINUOUS
 10
123.1924605588
 20
194.1650358651
  0
VERTEX
  8
0
 62
7
  6
CONTINUOUS
 10
123.2070928318
 20
194.151648876
  0
VERTEX
  8
0
 62
7
  6
CONTINUOUS
 10
123.2212672834
 20
194.1370392903
  0
VERTEX
  8
0
 62
7
  6
CONTINUOUS
 10
123.2350200218
 20
194.121216177
  0
VERTEX
  8
0
 62
7
  6
CONTINUOUS
 10
123.2484281692
 20
194.1040731076
  0
VERTEX
  8
0
 62
7
  6
CONTINUOUS
 10
123.261461296
 20
194.0855775978
  0
VERTEX
  8
0
 62
7
  6
CONTINUOUS
 10
123.2739866831
 20
194.0658205016
  0
VERTEX
  8
0
 62
7
  6
CONTINUOUS
 10
123.2858724036
 20
194.0449045457
  0
VERTEX
  8
0
 62
7
  6
CONTINUOUS
 10
123.2969714795
 20
194.0229712683
  0
VERTEX
  8
0
 62
7
  6
CONTINUOUS
 10
123.3071426584
 20
194.0001768754
  0
VERTEX
  8
0
 62
7
  6
CONTINUOUS
 10
123.31624448
 20
193.9766992171
  0
VERTEX
  8
0
 62
7
  6
CONTINUOUS
 10
123.3241543075
 20
193.9526958065
  0
VERTEX
  8
0
 62
7
  6
CONTINUOUS
 10
123.3307364913
 20
193.9283883253
  0
VERTEX
  8
0
 62
7
  6
CONTINUOUS
 10
123.33587415
 20
193.9039880402
  0
VERTEX
  8
0
 62
7
  6
CONTINUOUS
 10
123.3394557946
 20
193.8797624669
  0
VERTEX
  8
0
 62
7
  6
CONTINUOUS
 10
123.3413983886
 20
193.8559386962
  0
VERTEX
  8
0
 62
7
  6
CONTINUOUS
 10
123.3417510472
 20
193.8410360072
  0
SEQEND
  0
POLYLINE
  8
0
 62
7
  6
CONTINUOUS
 66
1
 70
0
  0
VERTEX
  8
0
 62
7
  6
CONTINUOUS
 10
114.7417507403
 20
197.5987062831
  0
VERTEX
  8
0
 62
7
  6
CONTINUOUS
 10
114.7273476281
 20
197.6129388758
  0
VERTEX
  8
0
 62
7
  6
CONTINUOUS
 10
114.6848812683
 20
197.6261739546
  0
VERTEX
  8
0
 62
7
  6
CONTINUOUS
 10
114.6166699955
 20
197.6376991802
  0
VERTEX
  8
0
 62
7
  6
CONTINUOUS
 10
114.5740548602
 20
197.6426264039
  0
VERTEX
  8
0
 62
7
  6
CONTINUOUS
 10
114.474848952
 20
197.6504904423
  0
VERTEX
  8
0
 62
7
  6
CONTINUOUS
 10
114.3618914387
 20
197.6553782767
  0
VERTEX
  8
0
 62
7
  6
CONTINUOUS
 10
114.2417507403
 20
197.6570373271
  0
SEQEND
  0
LINE
  8
2_FEATURE
 62
7
  6
CONTINUOUS
 10
108.2480007403
 20
198.4349776582
 11
108.2480007403
 21
198.3349776582
  0
LINE
  8
0
 62
7
  6
CONTINUOUS
 10
108.3917507403
 20
192.8350467539
 11
108.3917507403
 21
198.3349776582
  0
LINE
  8
2_FEATURE
 62
7
  6
CONTINUOUS
 10
108.4667506568
 20
198.4349776582
 11
108.4667506568
 21
198.3349776582
  0
LINE
  8
0
 62
7
  6
CONTINUOUS
 10
108.6417507403
 20
192.8349789112
 11
108.6417507403
 21
200.3349776582
  0
LINE
  8
0
 62
7
  6
CONTINUOUS
 10
119.5181092786
 20
198.433987313
 11
119.0190996238
 21
197.9349776582
  0
POLYLINE
  8
0
 62
7
  6
CONTINUOUS
 66
1
 70
0
  0
VERTEX
  8
0
 62
7
  6
CONTINUOUS
 10
121.3417507403
 20
197.5987062831
  0
VERTEX
  8
0
 62
7
  6
CONTINUOUS
 10
121.3561538525
 20
197.6129388758
  0
VERTEX
  8
0
 62
7
  6
CONTINUOUS
 10
121.3986202122
 20
197.6261739546
  0
VERTEX
  8
0
 62
7
  6
CONTINUOUS
 10
121.466831485
 20
197.6376991802
  0
VERTEX
  8
0
 62
7
  6
CONTINUOUS
 10
121.5094466203
 20
197.6426264039
  0
VERTEX
  8
0
 62
7
  6
CONTINUOUS
 10
121.6086525285
 20
197.6504904423
  0
VERTEX
  8
0
 62
7
  6
CONTINUOUS
 10
121.7216100418
 20
197.6553782767
  0
VERTEX
  8
0
 62
7
  6
CONTINUOUS
 10
121.8417507403
 20
197.6570373271
  0
SEQEND
  0
LINE
  8
0
 62
7
  6
CONTINUOUS
 10
117.0644018567
 20
197.9349776582
 11
116.5653922019
 21
198.433987313
  0
LINE
  8
0
 62
7
  6
CONTINUOUS
 10
114.7417507403
 20
192.8349776582
 11
114.7417507403
 21
200.3349776582
  0
LINE
  8
0
 62
7
  6
CONTINUOUS
 10
116.5917507403
 20
192.8349776582
 11
116.5917507403
 21
194.611939853
  0
POLYLINE
  8
0
 62
7
  6
CONTINUOUS
 66
1
 70
0
  0
VERTEX
  8
0
 62
7
  6
CONTINUOUS
 10
115.3424445785
 20
192.6896632225
  0
VERTEX
  8
0
 62
7
  6
CONTINUOUS
 10
115.3494034183
 20
192.715692708
  0
VERTEX
  8
0
 62
7
  6
CONTINUOUS
 10
115.3630249826
 20
192.8349776582
  0
SEQEND
  0
LINE
  8
0
 62
7
  6
CONTINUOUS
 10
115.3424451448
 20
192.6896650374
 11
115.5746329947
 21
193.4726344774
  0
LINE
  8
0
 62
7
  6
CONTINUOUS
 10
115.5746377204
 20
193.47265038
 11
115.5779941004
 21
193.4831894861
  0
POLYLINE
  8
0
 62
7
  6
CONTINUOUS
 66
1
 70
0
  0
VERTEX
  8
0
 62
7
  6
CONTINUOUS
 10
127.4417507403
 20
197.5987062831
  0
VERTEX
  8
0
 62
7
  6
CONTINUOUS
 10
127.4273476281
 20
197.6129388758
  0
VERTEX
  8
0
 62
7
  6
CONTINUOUS
 10
127.3848812683
 20
197.6261739546
  0
VERTEX
  8
0
 62
7
  6
CONTINUOUS
 10
127.3166699955
 20
197.6376991802
  0
VERTEX
  8
0
 62
7
  6
CONTINUOUS
 10
127.2740548602
 20
197.6426264039
  0
VERTEX
  8
0
 62
7
  6
CONTINUOUS
 10
127.174848952
 20
197.6504904423
  0
VERTEX
  8
0
 62
7
  6
CONTINUOUS
 10
127.0618914387
 20
197.6553782767
  0
VERTEX
  8
0
 62
7
  6
CONTINUOUS
 10
126.9417507403
 20
197.6570373271
  0
SEQEND
  0
POLYLINE
  8
0
 62
7
  6
CONTINUOUS
 66
1
 70
0
  0
VERTEX
  8
0
 62
7
  6
CONTINUOUS
 10
129.5711744253
 20
194.1371137105
  0
VERTEX
  8
0
 62
7
  6
CONTINUOUS
 10
129.5845094489
 20
194.121834369
  0
VERTEX
  8
0
 62
7
  6
CONTINUOUS
 10
129.5979507997
 20
194.104714732
  0
VERTEX
  8
0
 62
7
  6
CONTINUOUS
 10
129.6110129096
 20
194.0862468625
  0
SEQEND
  0
POLYLINE
  8
0
 62
7
  6
CONTINUOUS
 66
1
 70
0
  0
VERTEX
  8
0
 62
7
  6
CONTINUOUS
 10
120.5059644436
 20
193.4820347225
  0
VERTEX
  8
0
 62
7
  6
CONTINUOUS
 10
120.5054621562
 20
193.4833144454
  0
VERTEX
  8
0
 62
7
  6
CONTINUOUS
 10
120.5088640747
 20
193.472649319
  0
SEQEND
  0
LINE
  8
0
 62
7
  6
CONTINUOUS
 10
119.4917507403
 20
192.8349776582
 11
119.4917507403
 21
194.6119398414
  0
LINE
  8
0
 62
7
  6
CONTINUOUS
 10
132.217992973
 20
198.433998096
 11
131.7189725352
 21
197.9349776582
  0
LINE
  8
0
 62
7
  6
CONTINUOUS
 10
129.7644018567
 20
197.9349776582
 11
129.2653922019
 21
198.433987313
  0
LINE
  8
0
 62
7
  6
CONTINUOUS
 10
123.2713830135
 20
194.0701050182
 11
123.3157480532
 21
193.9779797233
  0
LINE
  8
0
 62
7
  6
CONTINUOUS
 10
120.5088684859
 20
193.4726344774
 11
120.7410563358
 21
192.6896650374
  0
POLYLINE
  8
0
 62
7
  6
CONTINUOUS
 66
1
 70
0
  0
VERTEX
  8
0
 62
7
  6
CONTINUOUS
 10
120.741056902
 20
192.6896632225
  0
VERTEX
  8
0
 62
7
  6
CONTINUOUS
 10
120.7340980622
 20
192.715692708
  0
VERTEX
  8
0
 62
7
  6
CONTINUOUS
 10
120.7204764979
 20
192.8349776582
  0
SEQEND
  0
POLYLINE
  8
0
 62
7
  6
CONTINUOUS
 66
1
 70
0
  0
VERTEX
  8
0
 62
7
  6
CONTINUOUS
 10
121.3417503462
 20
194.1939045509
  0
VERTEX
  8
0
 62
7
  6
CONTINUOUS
 10
121.3515358864
 20
194.0651515814
  0
VERTEX
  8
0
 62
7
  6
CONTINUOUS
 10
121.3844503677
 20
193.9382126725
  0
VERTEX
  8
0
 62
7
  6
CONTINUOUS
 10
121.4387923997
 20
193.8311829644
  0
VERTEX
  8
0
 62
7
  6
CONTINUOUS
 10
121.5093683824
 20
193.7491185551
  0
VERTEX
  8
0
 62
7
  6
CONTINUOUS
 10
121.5489766538
 20
193.7176775485
  0
VERTEX
  8
0
 62
7
  6
CONTINUOUS
 10
121.6350438592
 20
193.6727976256
  0
VERTEX
  8
0
 62
7
  6
CONTINUOUS
 10
121.728686876
 20
193.6515329176
  0
VERTEX
  8
0
 62
7
  6
CONTINUOUS
 10
121.8277905676
 20
193.6549273176
  0
VERTEX
  8
0
 62
7
  6
CONTINUOUS
 10
121.9148997261
 20
193.6789821977
  0
SEQEND
  0
LINE
  8
0
 62
7
  6
CONTINUOUS
 10
121.3417507403
 20
192.8349776582
 11
121.3417507403
 21
200.3349776582
  0
LINE
  8
0
 62
7
  6
CONTINUOUS
 10
122.9417507403
 20
192.8349776582
 11
122.9417507403
 21
193.1993752676
  0
LINE
  8
0
 62
7
  6
CONTINUOUS
 10
123.3417507403
 20
193.8410346894
 11
123.3417507403
 21
192.5349776582
  0
POLYLINE
  8
0
 62
7
  6
CONTINUOUS
 66
1
 70
0
  0
VERTEX
  8
0
 62
7
  6
CONTINUOUS
 10
122.9417503528
 20
193.1993364168
  0
VERTEX
  8
0
 62
7
  6
CONTINUOUS
 10
122.960855111
 20
193.4204470805
  0
VERTEX
  8
0
 62
7
  6
CONTINUOUS
 10
123.0225048459
 20
193.6727997876
  0
VERTEX
  8
0
 62
7
  6
CONTINUOUS
 10
123.1205056452
 20
193.9227908743
  0
SEQEND
  0
POLYLINE
  8
0
 62
7
  6
CONTINUOUS
 66
1
 70
0
  0
VERTEX
  8
0
 62
7
  6
CONTINUOUS
 10
123.1708547604
 20
194.0330190893
  0
VERTEX
  8
0
 62
7
  6
CONTINUOUS
 10
123.1877668002
 20
194.0717793207
  0
VERTEX
  8
0
 62
7
  6
CONTINUOUS
 10
123.1930648265
 20
194.0836475214
  0
VERTEX
  8
0
 62
7
  6
CONTINUOUS
 10
123.1983891824
 20
194.0951557899
  0
VERTEX
  8
0
 62
7
  6
CONTINUOUS
 10
123.2037677497
 20
194.1062288688
  0
VERTEX
  8
0
 62
7
  6
CONTINUOUS
 10
123.2091717271
 20
194.1167237762
  0
VERTEX
  8
0
 62
7
  6
CONTINUOUS
 10
123.2146266128
 20
194.1266108725
  0
VERTEX
  8
0
 62
7
  6
CONTINUOUS
 10
123.220238747
 20
194.1359744467
  0
VERTEX
  8
0
 62
7
  6
CONTINUOUS
 10
123.2210776976
 20
194.1372346961
  0
SEQEND
  0
POLYLINE
  8
0
 62
7
  6
CONTINUOUS
 66
1
 70
0
  0
VERTEX
  8
0
 62
7
  6
CONTINUOUS
 10
123.1583420654
 20
194.0048729972
  0
VERTEX
  8
0
 62
7
  6
CONTINUOUS
 10
123.1646827843
 20
194.0190371802
  0
VERTEX
  8
0
 62
7
  6
CONTINUOUS
 10
123.1708547604
 20
194.0330190893
  0
SEQEND
  0
LINE
  8
0
 62
7
  6
CONTINUOUS
 10
123.1447099592
 20
193.9749631263
 11
123.1583420654
 21
194.0048729972
  0
LINE
  8
0
 62
7
  6
CONTINUOUS
 10
123.1205048454
 20
193.9227920491
 11
123.1447099592
 21
193.9749631263
  0
POLYLINE
  8
0
 62
7
  6
CONTINUOUS
 66
1
 70
0
  0
VERTEX
  8
0
 62
7
  6
CONTINUOUS
 10
136.8417507403
 20
195.7712490333
  0
VERTEX
  8
0
 62
7
  6
CONTINUOUS
 10
136.8273476281
 20
195.7570164406
  0
VERTEX
  8
0
 62
7
  6
CONTINUOUS
 10
136.7848812683
 20
195.7437813618
  0
VERTEX
  8
0
 62
7
  6
CONTINUOUS
 10
136.7166699955
 20
195.7322561362
  0
VERTEX
  8
0
 62
7
  6
CONTINUOUS
 10
136.6740548602
 20
195.7273289125
  0
VERTEX
  8
0
 62
7
  6
CONTINUOUS
 10
136.574848952
 20
195.7194648741
  0
VERTEX
  8
0
 62
7
  6
CONTINUOUS
 10
136.4618914387
 20
195.7145770397
  0
VERTEX
  8
0
 62
7
  6
CONTINUOUS
 10
136.3417507403
 20
195.7129179892
  0
SEQEND
  0
POLYLINE
  8
0
 62
7
  6
CONTINUOUS
 66
1
 70
0
  0
VERTEX
  8
0
 62
7
  6
CONTINUOUS
 10
136.8417507403
 20
197.5987062831
  0
VERTEX
  8
0
 62
7
  6
CONTINUOUS
 10
136.8273476281
 20
197.6129388758
  0
VERTEX
  8
0
 62
7
  6
CONTINUOUS
 10
136.7848812683
 20
197.6261739546
  0
VERTEX
  8
0
 62
7
  6
CONTINUOUS
 10
136.7166699955
 20
197.6376991802
  0
VERTEX
  8
0
 62
7
  6
CONTINUOUS
 10
136.6740548602
 20
197.6426264039
  0
VERTEX
  8
0
 62
7
  6
CONTINUOUS
 10
136.574848952
 20
197.6504904423
  0
VERTEX
  8
0
 62
7
  6
CONTINUOUS
 10
136.4618914387
 20
197.6553782767
  0
VERTEX
  8
0
 62
7
  6
CONTINUOUS
 10
136.3417507403
 20
197.6570373271
  0
SEQEND
  0
LINE
  8
0
 62
7
  6
CONTINUOUS
 10
129.6110129096
 20
194.0862468625
 11
129.6216867416
 21
194.0694727474
  0
POLYLINE
  8
0
 62
7
  6
CONTINUOUS
 66
1
 70
0
  0
VERTEX
  8
0
 62
7
  6
CONTINUOUS
 10
129.5766509549
 20
194.1452115855
  0
VERTEX
  8
0
 62
7
  6
CONTINUOUS
 10
129.580802414
 20
194.1379448557
  0
VERTEX
  8
0
 62
7
  6
CONTINUOUS
 10
129.5977344065
 20
194.109128197
  0
VERTEX
  8
0
 62
7
  6
CONTINUOUS
 10
129.6121494809
 20
194.0852045285
  0
VERTEX
  8
0
 62
7
  6
CONTINUOUS
 10
129.6213610331
 20
194.0701436772
  0
SEQEND
  0
LINE
  8
0
 62
7
  6
CONTINUOUS
 10
127.4417507403
 20
192.8349776582
 11
127.4417507403
 21
200.3349776582
  0
LINE
  8
0
 62
7
  6
CONTINUOUS
 10
128.0424451448
 20
192.6896650374
 11
128.2746329947
 21
193.4726344774
  0
LINE
  8
0
 62
7
  6
CONTINUOUS
 10
128.2746377204
 20
193.47265038
 11
128.2779941004
 21
193.4831894861
  0
POLYLINE
  8
0
 62
7
  6
CONTINUOUS
 66
1
 70
0
  0
VERTEX
  8
0
 62
7
  6
CONTINUOUS
 10
129.5350694306
 20
194.0652916414
  0
VERTEX
  8
0
 62
7
  6
CONTINUOUS
 10
129.5393472217
 20
194.0749491711
  0
VERTEX
  8
0
 62
7
  6
CONTINUOUS
 10
129.5434295348
 20
194.0839993036
  0
VERTEX
  8
0
 62
7
  6
CONTINUOUS
 10
129.5474192104
 20
194.092622057
  0
VERTEX
  8
0
 62
7
  6
CONTINUOUS
 10
129.5513705308
 20
194.100893693
  0
VERTEX
  8
0
 62
7
  6
CONTINUOUS
 10
129.5552995858
 20
194.1088172529
  0
VERTEX
  8
0
 62
7
  6
CONTINUOUS
 10
129.5592281302
 20
194.1164063618
  0
VERTEX
  8
0
 62
7
  6
CONTINUOUS
 10
129.5631959641
 20
194.1237016226
  0
VERTEX
  8
0
 62
7
  6
CONTINUOUS
 10
129.5672458032
 20
194.1307333046
  0
VERTEX
  8
0
 62
7
  6
CONTINUOUS
 10
129.5713719423
 20
194.1374344944
  0
VERTEX
  8
0
 62
7
  6
CONTINUOUS
 10
129.5756442617
 20
194.143843142
  0
VERTEX
  8
0
 62
7
  6
CONTINUOUS
 10
129.5802252632
 20
194.1500703045
  0
VERTEX
  8
0
 62
7
  6
CONTINUOUS
 10
129.5851927281
 20
194.1560677449
  0
VERTEX
  8
0
 62
7
  6
CONTINUOUS
 10
129.5902627366
 20
194.1613981078
  0
VERTEX
  8
0
 62
7
  6
CONTINUOUS
 10
129.5956695649
 20
194.1661881076
  0
VERTEX
  8
0
 62
7
  6
CONTINUOUS
 10
129.6002375552
 20
194.1694255109
  0
VERTEX
  8
0
 62
7
  6
CONTINUOUS
 10
129.6019096419
 20
194.1703554636
  0
SEQEND
  0
POLYLINE
  8
0
 62
7
  6
CONTINUOUS
 66
1
 70
0
  0
VERTEX
  8
0
 62
7
  6
CONTINUOUS
 10
129.5146891811
 20
194.018893674
  0
VERTEX
  8
0
 62
7
  6
CONTINUOUS
 10
129.5203102693
 20
194.0315852005
  0
VERTEX
  8
0
 62
7
  6
CONTINUOUS
 10
129.5350694306
 20
194.0652916414
  0
SEQEND
  0
LINE
  8
0
 62
7
  6
CONTINUOUS
 10
129.5028559136
 20
193.9926706706
 11
129.5146891811
 21
194.018893674
  0
LINE
  8
0
 62
7
  6
CONTINUOUS
 10
129.4898620541
 20
193.9644205217
 11
129.5028559136
 21
193.9926706706
  0
LINE
  8
0
 62
7
  6
CONTINUOUS
 10
129.4683285779
 20
193.9181144772
 11
129.4898620541
 21
193.9644205217
  0
LINE
  8
0
 62
7
  6
CONTINUOUS
 10
136.8417507403
 20
200.2250907582
 11
137.0417507403
 21
200.0094927748
  0
POLYLINE
  8
0
 62
7
  6
CONTINUOUS
 66
1
 70
0
  0
VERTEX
  8
0
 62
7
  6
CONTINUOUS
 10
129.6213825558
 20
194.0701057616
  0
VERTEX
  8
0
 62
7
  6
CONTINUOUS
 10
129.666175967
 20
193.9768901406
  0
VERTEX
  8
0
 62
7
  6
CONTINUOUS
 10
129.6811459424
 20
193.9266745134
  0
VERTEX
  8
0
 62
7
  6
CONTINUOUS
 10
129.6917510016
 20
193.8410959849
  0
SEQEND
  0
POLYLINE
  8
0
 62
7
  6
CONTINUOUS
 66
1
 70
0
  0
VERTEX
  8
0
 62
7
  6
CONTINUOUS
 10
129.6661221308
 20
193.9770021744
  0
VERTEX
  8
0
 62
7
  6
CONTINUOUS
 10
129.6739187402
 20
193.9534774819
  0
VERTEX
  8
0
 62
7
  6
CONTINUOUS
 10
129.6805481538
 20
193.9291667256
  0
VERTEX
  8
0
 62
7
  6
CONTINUOUS
 10
129.6809084677
 20
193.9274711038
  0
SEQEND
  0
LINE
  8
0
 62
7
  6
CONTINUOUS
 10
129.2917507403
 20
192.8349776582
 11
129.2917507403
 21
194.6119398339
  0
LINE
  8
0
 62
7
  6
CONTINUOUS
 10
129.6917507383
 20
193.8410957385
 11
129.6917507403
 21
192.5349776582
  0
POLYLINE
  8
0
 62
7
  6
CONTINUOUS
 66
1
 70
0
  0
VERTEX
  8
0
 62
7
  6
CONTINUOUS
 10
129.2917503572
 20
193.1993358602
  0
VERTEX
  8
0
 62
7
  6
CONTINUOUS
 10
129.3110554284
 20
193.4216551051
  0
VERTEX
  8
0
 62
7
  6
CONTINUOUS
 10
129.3728833067
 20
193.6739824839
  0
VERTEX
  8
0
 62
7
  6
CONTINUOUS
 10
129.4705057366
 20
193.92279088
  0
SEQEND
  0
POLYLINE
  8
0
 62
7
  6
CONTINUOUS
 66
1
 70
0
  0
VERTEX
  8
0
 62
7
  6
CONTINUOUS
 10
128.0424445785
 20
192.6896632225
  0
VERTEX
  8
0
 62
7
  6
CONTINUOUS
 10
128.0494034183
 20
192.715692708
  0
VERTEX
  8
0
 62
7
  6
CONTINUOUS
 10
128.0630249826
 20
192.8349776582
  0
SEQEND
  0
LINE
  8
0
 62
7
  6
CONTINUOUS
 10
132.1917507403
 20
192.8349776582
 11
132.1917507403
 21
194.6115396078
  0
LINE
  8
0
 62
7
  6
CONTINUOUS
 10
134.0417507403
 20
200.3349776582
 11
134.0417507403
 21
192.8349776582
  0
LINE
  8
0
 62
7
  6
CONTINUOUS
 10
136.8417507403
 20
200.3349776582
 11
136.8417507403
 21
192.8349777401
  0
LINE
  8
0
 62
7
  6
CONTINUOUS
 10
137.0417507403
 20
200.0094927748
 11
137.0417507403
 21
194.4715776582
  0
LINE
  8
0
 62
7
  6
CONTINUOUS
 10
137.0417579496
 20
194.4715776582
 11
137.032837432
 21
194.3771283101
  0
POLYLINE
  8
0
 62
7
  6
CONTINUOUS
 66
1
 70
0
  0
VERTEX
  8
0
 62
7
  6
CONTINUOUS
 10
137.032837432
 20
194.3771283101
  0
VERTEX
  8
0
 62
7
  6
CONTINUOUS
 10
137.0064700888
 20
194.2868911
  0
VERTEX
  8
0
 62
7
  6
CONTINUOUS
 10
136.9627889602
 20
194.2018985575
  0
SEQEND
  0
ARC
  8
0
 62
7
  6
CONTINUOUS
 10
36.2417507403
 20
74.7534508725
 40
0.5
 50
180.0
 51
270.0
  0
ARC
  8
0
 62
7
  6
CONTINUOUS
 10
45.6417507403
 20
74.7534508725
 40
0.5
 50
180.0
 51
270.0
  0
ARC
  8
0
 62
7
  6
CONTINUOUS
 10
38.0417507403
 20
74.7534508725
 40
0.5
 50
270.0
 51
360.0
  0
ARC
  8
0
 62
7
  6
CONTINUOUS
 10
50.7417507403
 20
74.7534508725
 40
0.5
 50
270.0
 51
360.0
  0
ARC
  8
0
 62
7
  6
CONTINUOUS
 10
58.3417507403
 20
74.7534508725
 40
0.5
 50
180.0
 51
270.0
  0
ARC
  8
0
 62
7
  6
CONTINUOUS
 10
39.8140055247
 20
92.0548982989
 40
0.69
 50
135.0
 51
176.3974655709
  0
ARC
  8
0
 62
7
  6
CONTINUOUS
 10
39.4367507403
 20
93.6292582305
 40
0.69
 50
315.0
 51
360.0
  0
ARC
  8
0
 62
7
  6
CONTINUOUS
 10
44.2267507403
 20
93.6292582305
 40
0.69
 50
180.0
 51
225.0
  0
ARC
  8
0
 62
7
  6
CONTINUOUS
 10
43.8494959558
 20
92.0548982989
 40
0.69
 50
3.6025344291
 51
45.0
  0
ARC
  8
0
 62
7
  6
CONTINUOUS
 10
52.5140055247
 20
92.0548982989
 40
0.69
 50
135.0
 51
176.3974655709
  0
ARC
  8
0
 62
7
  6
CONTINUOUS
 10
52.1367507403
 20
93.6292582305
 40
0.69
 50
315.0
 51
360.0
  0
ARC
  8
0
 62
7
  6
CONTINUOUS
 10
56.9267507403
 20
93.6292582305
 40
0.69
 50
180.0
 51
225.0
  0
ARC
  8
0
 62
7
  6
CONTINUOUS
 10
56.5494959558
 20
92.0548982989
 40
0.69
 50
3.6025344291
 51
45.0
  0
ARC
  8
0
 62
7
  6
CONTINUOUS
 10
49.8467507403
 20
87.6434508725
 40
0.05
 50
270.0
 51
360.0
  0
ARC
  8
0
 62
7
  6
CONTINUOUS
 10
46.5367507403
 20
87.6434508725
 40
0.05
 50
180.0
 51
270.0
  0
ARC
  8
0
 62
7
  6
CONTINUOUS
 10
59.2367507403
 20
87.6434508725
 40
0.05
 50
180.0
 51
270.0
  0
ARC
  8
0
 62
7
  6
CONTINUOUS
 10
38.8949976922
 20
87.6434508725
 40
0.05
 50
176.3974655709
 51
270.0
  0
ARC
  8
0
 62
7
  6
CONTINUOUS
 10
44.7685037883
 20
87.6434508725
 40
0.05
 50
270.0
 51
3.6025344291
  0
ARC
  8
0
 62
7
  6
CONTINUOUS
 10
51.5949976922
 20
87.6434508725
 40
0.05
 50
176.3974655709
 51
270.0
  0
ARC
  8
0
 62
7
  6
CONTINUOUS
 10
57.4685037883
 20
87.6434508725
 40
0.05
 50
270.0
 51
3.6025344291
  0
ARC
  8
0
 62
7
  6
CONTINUOUS
 10
71.0417507403
 20
74.7534508725
 40
0.5
 50
180.0
 51
270.0
  0
ARC
  8
0
 62
7
  6
CONTINUOUS
 10
63.4417507403
 20
74.7534508725
 40
0.5
 50
270.0
 51
360.0
  0
ARC
  8
0
 62
7
  6
CONTINUOUS
 10
83.7417507403
 20
74.7534508725
 40
0.5
 50
180.0
 51
270.0
  0
ARC
  8
0
 62
7
  6
CONTINUOUS
 10
76.1417507403
 20
74.7534508725
 40
0.5
 50
270.0
 51
360.0
  0
ARC
  8
0
 62
7
  6
CONTINUOUS
 10
65.2140055247
 20
92.0548982989
 40
0.69
 50
135.0
 51
176.3974655709
  0
ARC
  8
0
 62
7
  6
CONTINUOUS
 10
64.8367507403
 20
93.6292582305
 40
0.69
 50
315.0
 51
360.0
  0
ARC
  8
0
 62
7
  6
CONTINUOUS
 10
69.6267507403
 20
93.6292582305
 40
0.69
 50
180.0
 51
225.0
  0
ARC
  8
0
 62
7
  6
CONTINUOUS
 10
69.2494959558
 20
92.0548982989
 40
0.69
 50
3.6025344291
 51
45.0
  0
ARC
  8
0
 62
7
  6
CONTINUOUS
 10
77.9140055247
 20
92.0548982989
 40
0.69
 50
135.0
 51
176.3974655709
  0
ARC
  8
0
 62
7
  6
CONTINUOUS
 10
77.5367507403
 20
93.6292582305
 40
0.69
 50
315.0
 51
360.0
  0
ARC
  8
0
 62
7
  6
CONTINUOUS
 10
82.3267507403
 20
93.6292582305
 40
0.69
 50
180.0
 51
225.0
  0
ARC
  8
0
 62
7
  6
CONTINUOUS
 10
81.9494959558
 20
92.0548982989
 40
0.69
 50
3.6025344291
 51
45.0
  0
ARC
  8
0
 62
7
  6
CONTINUOUS
 10
62.5467507403
 20
87.6434508725
 40
0.05
 50
270.0
 51
360.0
  0
ARC
  8
0
 62
7
  6
CONTINUOUS
 10
75.2467507403
 20
87.6434508725
 40
0.05
 50
270.0
 51
360.0
  0
ARC
  8
0
 62
7
  6
CONTINUOUS
 10
71.9367507403
 20
87.6434508725
 40
0.05
 50
180.0
 51
270.0
  0
ARC
  8
0
 62
7
  6
CONTINUOUS
 10
84.6367507403
 20
87.6434508725
 40
0.05
 50
180.0
 51
270.0
  0
ARC
  8
0
 62
7
  6
CONTINUOUS
 10
64.2949976922
 20
87.6434508725
 40
0.05
 50
176.3974655709
 51
270.0
  0
ARC
  8
0
 62
7
  6
CONTINUOUS
 10
70.1685037883
 20
87.6434508725
 40
0.05
 50
270.0
 51
3.6025344291
  0
ARC
  8
0
 62
7
  6
CONTINUOUS
 10
76.9949976922
 20
87.6434508725
 40
0.05
 50
176.3974655709
 51
270.0
  0
ARC
  8
0
 62
7
  6
CONTINUOUS
 10
82.8685037883
 20
87.6434508725
 40
0.05
 50
270.0
 51
3.6025344291
  0
ARC
  8
0
 62
7
  6
CONTINUOUS
 10
50.2094959558
 20
103.0320034461
 40
0.69
 50
315.0
 51
356.3974655709
  0
ARC
  8
0
 62
7
  6
CONTINUOUS
 10
50.5867507403
 20
101.4576435144
 40
0.69
 50
135.0
 51
180.0
  0
ARC
  8
0
 62
7
  6
CONTINUOUS
 10
45.7967507403
 20
101.4576435144
 40
0.69
 50
0.0
 51
45.0
  0
ARC
  8
0
 62
7
  6
CONTINUOUS
 10
46.1740055247
 20
103.0320034461
 40
0.69
 50
183.6025344291
 51
225.0
  0
ARC
  8
0
 62
7
  6
CONTINUOUS
 10
58.4967507403
 20
101.4576435144
 40
0.69
 50
0.0
 51
45.0
  0
ARC
  8
0
 62
7
  6
CONTINUOUS
 10
58.8740055247
 20
103.0320034461
 40
0.69
 50
183.6025344291
 51
225.0
  0
ARC
  8
0
 62
7
  6
CONTINUOUS
 10
51.1285037883
 20
107.4434508725
 40
0.05
 50
356.3974655709
 51
90.0
  0
ARC
  8
0
 62
7
  6
CONTINUOUS
 10
45.2549976922
 20
107.4434508725
 40
0.05
 50
90.0
 51
183.6025344291
  0
ARC
  8
0
 62
7
  6
CONTINUOUS
 10
57.9549976922
 20
107.4434508725
 40
0.05
 50
90.0
 51
183.6025344291
  0
ARC
  8
0
 62
7
  6
CONTINUOUS
 10
40.1767507403
 20
107.4434508725
 40
0.05
 50
90.0
 51
180.0
  0
ARC
  8
0
 62
7
  6
CONTINUOUS
 10
43.4867507403
 20
107.4434508725
 40
0.05
 50
0.0
 51
90.0
  0
ARC
  8
0
 62
7
  6
CONTINUOUS
 10
52.8767507403
 20
107.4434508725
 40
0.05
 50
90.0
 51
180.0
  0
ARC
  8
0
 62
7
  6
CONTINUOUS
 10
56.1867507403
 20
107.4434508725
 40
0.05
 50
0.0
 51
90.0
  0
ARC
  8
2_FEATURE
 62
7
  6
CONTINUOUS
 10
36.5417507403
 20
110.9097023737
 40
1.0
 50
144.1408399887
 51
180.0
  0
ARC
  8
0
 62
7
  6
CONTINUOUS
 10
51.9917507403
 20
120.3334508725
 40
0.5
 50
90.0
 51
180.0
  0
ARC
  8
0
 62
7
  6
CONTINUOUS
 10
39.2917507403
 20
120.3334508725
 40
0.5
 50
90.0
 51
180.0
  0
ARC
  8
0
 62
7
  6
CONTINUOUS
 10
44.3917507403
 20
120.3334508725
 40
0.5
 50
0.0
 51
90.0
  0
ARC
  8
0
 62
7
  6
CONTINUOUS
 10
57.0917507403
 20
120.3334508725
 40
0.5
 50
0.0
 51
90.0
  0
ARC
  8
0
 62
7
  6
CONTINUOUS
 10
62.9094959558
 20
103.0320034461
 40
0.69
 50
315.0
 51
356.3974655709
  0
ARC
  8
0
 62
7
  6
CONTINUOUS
 10
63.2867507403
 20
101.4576435144
 40
0.69
 50
135.0
 51
180.0
  0
ARC
  8
0
 62
7
  6
CONTINUOUS
 10
75.6094959558
 20
103.0320034461
 40
0.69
 50
315.0
 51
356.3974655709
  0
ARC
  8
0
 62
7
  6
CONTINUOUS
 10
75.9867507403
 20
101.4576435144
 40
0.69
 50
135.0
 51
180.0
  0
ARC
  8
0
 62
7
  6
CONTINUOUS
 10
71.1967507403
 20
101.4576435144
 40
0.69
 50
0.0
 51
45.0
  0
ARC
  8
0
 62
7
  6
CONTINUOUS
 10
71.5740055247
 20
103.0320034461
 40
0.69
 50
183.6025344291
 51
225.0
  0
ARC
  8
0
 62
7
  6
CONTINUOUS
 10
83.8967507403
 20
101.4576435144
 40
0.69
 50
0.0
 51
45.0
  0
ARC
  8
0
 62
7
  6
CONTINUOUS
 10
84.2740055247
 20
103.0320034461
 40
0.69
 50
183.6025344291
 51
225.0
  0
ARC
  8
0
 62
7
  6
CONTINUOUS
 10
63.8285037883
 20
107.4434508725
 40
0.05
 50
356.3974655709
 51
90.0
  0
ARC
  8
0
 62
7
  6
CONTINUOUS
 10
76.5285037883
 20
107.4434508725
 40
0.05
 50
356.3974655709
 51
90.0
  0
ARC
  8
0
 62
7
  6
CONTINUOUS
 10
70.6549976922
 20
107.4434508725
 40
0.05
 50
90.0
 51
183.6025344291
  0
ARC
  8
0
 62
7
  6
CONTINUOUS
 10
83.3549976922
 20
107.4434508725
 40
0.05
 50
90.0
 51
183.6025344291
  0
ARC
  8
0
 62
7
  6
CONTINUOUS
 10
65.5767507403
 20
107.4434508725
 40
0.05
 50
90.0
 51
180.0
  0
ARC
  8
0
 62
7
  6
CONTINUOUS
 10
68.8867507403
 20
107.4434508725
 40
0.05
 50
0.0
 51
90.0
  0
ARC
  8
0
 62
7
  6
CONTINUOUS
 10
78.2767507403
 20
107.4434508725
 40
0.05
 50
90.0
 51
180.0
  0
ARC
  8
0
 62
7
  6
CONTINUOUS
 10
81.5867507403
 20
107.4434508725
 40
0.05
 50
0.0
 51
90.0
  0
ARC
  8
0
 62
7
  6
CONTINUOUS
 10
77.3917507403
 20
120.3334508725
 40
0.5
 50
90.0
 51
180.0
  0
ARC
  8
0
 62
7
  6
CONTINUOUS
 10
64.6917507403
 20
120.3334508725
 40
0.5
 50
90.0
 51
180.0
  0
ARC
  8
0
 62
7
  6
CONTINUOUS
 10
69.7917507403
 20
120.3334508725
 40
0.5
 50
0.0
 51
90.0
  0
ARC
  8
0
 62
7
  6
CONTINUOUS
 10
82.4917507403
 20
120.3334508725
 40
0.5
 50
0.0
 51
90.0
  0
ARC
  8
0
 62
7
  6
CONTINUOUS
 10
96.4417507403
 20
74.7534508725
 40
0.5
 50
180.0
 51
270.0
  0
ARC
  8
0
 62
7
  6
CONTINUOUS
 10
88.8417507403
 20
74.7534508725
 40
0.5
 50
270.0
 51
360.0
  0
ARC
  8
0
 62
7
  6
CONTINUOUS
 10
109.1417507403
 20
74.7534508725
 40
0.5
 50
180.0
 51
270.0
  0
ARC
  8
0
 62
7
  6
CONTINUOUS
 10
101.5417507403
 20
74.7534508725
 40
0.5
 50
270.0
 51
360.0
  0
ARC
  8
0
 62
7
  6
CONTINUOUS
 10
90.6140055247
 20
92.0548982989
 40
0.69
 50
135.0
 51
176.3974655709
  0
ARC
  8
0
 62
7
  6
CONTINUOUS
 10
90.2367507403
 20
93.6292582305
 40
0.69
 50
315.0
 51
360.0
  0
ARC
  8
0
 62
7
  6
CONTINUOUS
 10
95.0267507403
 20
93.6292582305
 40
0.69
 50
180.0
 51
225.0
  0
ARC
  8
0
 62
7
  6
CONTINUOUS
 10
94.6494959558
 20
92.0548982989
 40
0.69
 50
3.6025344291
 51
45.0
  0
ARC
  8
0
 62
7
  6
CONTINUOUS
 10
103.3140055247
 20
92.0548982989
 40
0.69
 50
135.0
 51
176.3974655709
  0
ARC
  8
0
 62
7
  6
CONTINUOUS
 10
102.9367507403
 20
93.6292582305
 40
0.69
 50
315.0
 51
360.0
  0
ARC
  8
0
 62
7
  6
CONTINUOUS
 10
107.7267507403
 20
93.6292582305
 40
0.69
 50
180.0
 51
225.0
  0
ARC
  8
0
 62
7
  6
CONTINUOUS
 10
107.3494959558
 20
92.0548982989
 40
0.69
 50
3.6025344291
 51
45.0
  0
ARC
  8
0
 62
7
  6
CONTINUOUS
 10
87.9467507403
 20
87.6434508725
 40
0.05
 50
270.0
 51
360.0
  0
ARC
  8
0
 62
7
  6
CONTINUOUS
 10
100.6467507403
 20
87.6434508725
 40
0.05
 50
270.0
 51
360.0
  0
ARC
  8
0
 62
7
  6
CONTINUOUS
 10
97.3367507403
 20
87.6434508725
 40
0.05
 50
180.0
 51
270.0
  0
ARC
  8
0
 62
7
  6
CONTINUOUS
 10
110.0367507403
 20
87.6434508725
 40
0.05
 50
180.0
 51
270.0
  0
ARC
  8
0
 62
7
  6
CONTINUOUS
 10
89.6949976922
 20
87.6434508725
 40
0.05
 50
176.3974655709
 51
270.0
  0
ARC
  8
0
 62
7
  6
CONTINUOUS
 10
95.5685037883
 20
87.6434508725
 40
0.05
 50
270.0
 51
3.6025344291
  0
ARC
  8
0
 62
7
  6
CONTINUOUS
 10
102.3949976922
 20
87.6434508725
 40
0.05
 50
176.3974655709
 51
270.0
  0
ARC
  8
0
 62
7
  6
CONTINUOUS
 10
108.2685037883
 20
87.6434508725
 40
0.05
 50
270.0
 51
3.6025344291
  0
ARC
  8
0
 62
7
  6
CONTINUOUS
 10
126.9417507403
 20
74.7534508725
 40
0.5
 50
270.0
 51
360.0
  0
ARC
  8
0
 62
7
  6
CONTINUOUS
 10
136.3417507403
 20
74.7534508725
 40
0.5
 50
270.0
 51
360.0
  0
ARC
  8
0
 62
7
  6
CONTINUOUS
 10
121.8417507403
 20
74.7534508725
 40
0.5
 50
180.0
 51
270.0
  0
ARC
  8
0
 62
7
  6
CONTINUOUS
 10
114.2417507403
 20
74.7534508725
 40
0.5
 50
270.0
 51
360.0
  0
ARC
  8
0
 62
7
  6
CONTINUOUS
 10
134.5417507403
 20
74.7534508725
 40
0.5
 50
180.0
 51
270.0
  0
ARC
  8
0
 62
7
  6
CONTINUOUS
 10
116.0140055247
 20
92.0548982989
 40
0.69
 50
135.0
 51
176.3974655709
  0
ARC
  8
0
 62
7
  6
CONTINUOUS
 10
115.6367507403
 20
93.6292582305
 40
0.69
 50
315.0
 51
360.0
  0
ARC
  8
0
 62
7
  6
CONTINUOUS
 10
120.4267507403
 20
93.6292582305
 40
0.69
 50
180.0
 51
225.0
  0
ARC
  8
0
 62
7
  6
CONTINUOUS
 10
120.0494959558
 20
92.0548982989
 40
0.69
 50
3.6025344291
 51
45.0
  0
ARC
  8
0
 62
7
  6
CONTINUOUS
 10
128.7140055247
 20
92.0548982989
 40
0.69
 50
135.0
 51
176.3974655709
  0
ARC
  8
0
 62
7
  6
CONTINUOUS
 10
128.3367507403
 20
93.6292582305
 40
0.69
 50
315.0
 51
360.0
  0
ARC
  8
0
 62
7
  6
CONTINUOUS
 10
133.1267507403
 20
93.6292582305
 40
0.69
 50
180.0
 51
225.0
  0
ARC
  8
0
 62
7
  6
CONTINUOUS
 10
132.7494959558
 20
92.0548982989
 40
0.69
 50
3.6025344291
 51
45.0
  0
ARC
  8
0
 62
7
  6
CONTINUOUS
 10
113.3467507403
 20
87.6434508725
 40
0.05
 50
270.0
 51
360.0
  0
ARC
  8
0
 62
7
  6
CONTINUOUS
 10
126.0467507403
 20
87.6434508725
 40
0.05
 50
270.0
 51
360.0
  0
ARC
  8
0
 62
7
  6
CONTINUOUS
 10
122.7367507403
 20
87.6434508725
 40
0.05
 50
180.0
 51
270.0
  0
ARC
  8
0
 62
7
  6
CONTINUOUS
 10
115.0949976922
 20
87.6434508725
 40
0.05
 50
176.3974655709
 51
270.0
  0
ARC
  8
0
 62
7
  6
CONTINUOUS
 10
120.9685037883
 20
87.6434508725
 40
0.05
 50
270.0
 51
3.6025344291
  0
ARC
  8
0
 62
7
  6
CONTINUOUS
 10
127.7949976922
 20
87.6434508725
 40
0.05
 50
176.3974655709
 51
270.0
  0
ARC
  8
0
 62
7
  6
CONTINUOUS
 10
133.6685037883
 20
87.6434508725
 40
0.05
 50
270.0
 51
3.6025344291
  0
ARC
  8
0
 62
7
  6
CONTINUOUS
 10
88.3094959558
 20
103.0320034461
 40
0.69
 50
315.0
 51
356.3974655709
  0
ARC
  8
0
 62
7
  6
CONTINUOUS
 10
88.6867507403
 20
101.4576435144
 40
0.69
 50
135.0
 51
180.0
  0
ARC
  8
0
 62
7
  6
CONTINUOUS
 10
101.0094959558
 20
103.0320034461
 40
0.69
 50
315.0
 51
356.3974655709
  0
ARC
  8
0
 62
7
  6
CONTINUOUS
 10
101.3867507403
 20
101.4576435144
 40
0.69
 50
135.0
 51
180.0
  0
ARC
  8
0
 62
7
  6
CONTINUOUS
 10
96.5967507403
 20
101.4576435144
 40
0.69
 50
0.0
 51
45.0
  0
ARC
  8
0
 62
7
  6
CONTINUOUS
 10
96.9740055247
 20
103.0320034461
 40
0.69
 50
183.6025344291
 51
225.0
  0
ARC
  8
0
 62
7
  6
CONTINUOUS
 10
109.2967507403
 20
101.4576435144
 40
0.69
 50
0.0
 51
45.0
  0
ARC
  8
0
 62
7
  6
CONTINUOUS
 10
109.6740055247
 20
103.0320034461
 40
0.69
 50
183.6025344291
 51
225.0
  0
ARC
  8
0
 62
7
  6
CONTINUOUS
 10
89.2285037883
 20
107.4434508725
 40
0.05
 50
356.3974655709
 51
90.0
  0
ARC
  8
0
 62
7
  6
CONTINUOUS
 10
101.9285037883
 20
107.4434508725
 40
0.05
 50
356.3974655709
 51
90.0
  0
ARC
  8
0
 62
7
  6
CONTINUOUS
 10
96.0549976922
 20
107.4434508725
 40
0.05
 50
90.0
 51
183.6025344291
  0
ARC
  8
0
 62
7
  6
CONTINUOUS
 10
108.7549976922
 20
107.4434508725
 40
0.05
 50
90.0
 51
183.6025344291
  0
ARC
  8
0
 62
7
  6
CONTINUOUS
 10
90.9767507403
 20
107.4434508725
 40
0.05
 50
90.0
 51
180.0
  0
ARC
  8
0
 62
7
  6
CONTINUOUS
 10
94.2867507403
 20
107.4434508725
 40
0.05
 50
0.0
 51
90.0
  0
ARC
  8
0
 62
7
  6
CONTINUOUS
 10
103.6767507403
 20
107.4434508725
 40
0.05
 50
90.0
 51
180.0
  0
ARC
  8
0
 62
7
  6
CONTINUOUS
 10
106.9867507403
 20
107.4434508725
 40
0.05
 50
0.0
 51
90.0
  0
ARC
  8
0
 62
7
  6
CONTINUOUS
 10
90.0917507403
 20
120.3334508725
 40
0.5
 50
90.0
 51
180.0
  0
ARC
  8
0
 62
7
  6
CONTINUOUS
 10
107.8917507403
 20
120.3334508725
 40
0.5
 50
0.0
 51
90.0
  0
ARC
  8
0
 62
7
  6
CONTINUOUS
 10
95.1917507403
 20
120.3334508725
 40
0.5
 50
0.0
 51
90.0
  0
ARC
  8
0
 62
7
  6
CONTINUOUS
 10
102.7917507403
 20
120.3334508725
 40
0.5
 50
90.0
 51
180.0
  0
ARC
  8
0
 62
7
  6
CONTINUOUS
 10
113.7094959558
 20
103.0320034461
 40
0.69
 50
315.0
 51
356.3974655709
  0
ARC
  8
0
 62
7
  6
CONTINUOUS
 10
114.0867507403
 20
101.4576435144
 40
0.69
 50
135.0
 51
180.0
  0
ARC
  8
0
 62
7
  6
CONTINUOUS
 10
126.4094959558
 20
103.0320034461
 40
0.69
 50
315.0
 51
356.3974655709
  0
ARC
  8
0
 62
7
  6
CONTINUOUS
 10
126.7867507403
 20
101.4576435144
 40
0.69
 50
135.0
 51
180.0
  0
ARC
  8
0
 62
7
  6
CONTINUOUS
 10
121.9967507403
 20
101.4576435144
 40
0.69
 50
0.0
 51
45.0
  0
ARC
  8
0
 62
7
  6
CONTINUOUS
 10
122.3740055247
 20
103.0320034461
 40
0.69
 50
183.6025344291
 51
225.0
  0
ARC
  8
0
 62
7
  6
CONTINUOUS
 10
114.6285037883
 20
107.4434508725
 40
0.05
 50
356.3974655709
 51
90.0
  0
ARC
  8
0
 62
7
  6
CONTINUOUS
 10
127.3285037883
 20
107.4434508725
 40
0.05
 50
356.3974655709
 51
90.0
  0
ARC
  8
0
 62
7
  6
CONTINUOUS
 10
121.4549976922
 20
107.4434508725
 40
0.05
 50
90.0
 51
183.6025344291
  0
ARC
  8
0
 62
7
  6
CONTINUOUS
 10
116.3767507403
 20
107.4434508725
 40
0.05
 50
90.0
 51
180.0
  0
ARC
  8
0
 62
7
  6
CONTINUOUS
 10
119.6867507403
 20
107.4434508725
 40
0.05
 50
0.0
 51
90.0
  0
ARC
  8
0
 62
7
  6
CONTINUOUS
 10
129.0767507403
 20
107.4434508725
 40
0.05
 50
90.0
 51
180.0
  0
ARC
  8
0
 62
7
  6
CONTINUOUS
 10
132.3867507403
 20
107.4434508725
 40
0.05
 50
0.0
 51
90.0
  0
ARC
  8
2_FEATURE
 62
7
  6
CONTINUOUS
 10
136.0417507403
 20
110.9097023737
 40
1.0
 50
0.0
 51
35.8591600113
  0
ARC
  8
0
 62
7
  6
CONTINUOUS
 10
133.2917507403
 20
120.3334508725
 40
0.5
 50
0.0
 51
90.0
  0
ARC
  8
0
 62
7
  6
CONTINUOUS
 10
128.1917507403
 20
120.3334508725
 40
0.5
 50
90.0
 51
180.0
  0
ARC
  8
0
 62
7
  6
CONTINUOUS
 10
120.5917507403
 20
120.3334508725
 40
0.5
 50
0.0
 51
90.0
  0
ARC
  8
0
 62
7
  6
CONTINUOUS
 10
115.4917507403
 20
120.3334508725
 40
0.5
 50
90.0
 51
180.0
  0
ARC
  8
0
 62
7
  6
CONTINUOUS
 10
171.0076292018
 20
82.1261579127
 40
0.5
 50
311.4951540653
 51
358.6903416646
  0
ARC
  8
0
 62
7
  6
CONTINUOUS
 10
174.2210292018
 20
78.2934508725
 40
5.0489999763
 50
48.818215835
 51
69.7203027258
  0
ARC
  8
0
 62
7
  6
CONTINUOUS
 10
174.2210292018
 20
78.4934508725
 40
4.35
 50
282.9124542829
 51
342.5584061437
  0
ARC
  8
0
 62
7
  6
CONTINUOUS
 10
174.2210292018
 20
78.4934508725
 40
4.35
 50
131.4951540653
 51
257.0875457171
  0
CIRCLE
  8
2_FEATURE
 62
7
  6
CONTINUOUS
 10
174.2210292018
 20
78.4934508725
 40
2.5
  0
ARC
  8
0
 62
7
  6
CONTINUOUS
 10
172.0076292018
 20
111.4097023737
 40
0.5
 50
90.0
 51
180.0
  0
ARC
  8
2_FEATURE
 62
7
  6
CONTINUOUS
 10
174.2210292018
 20
116.5934508725
 40
5.0
 50
290.4873151147
 51
311.5777957855
  0
ARC
  8
0
 62
7
  6
CONTINUOUS
 10
174.2210292018
 20
116.5934508725
 40
5.0
 50
290.4873151147
 51
311.5777957855
  0
ARC
  8
0
 62
7
  6
CONTINUOUS
 10
174.2210292018
 20
116.5934508725
 40
4.35
 50
17.4415938563
 51
77.0875457171
  0
ARC
  8
0
 62
7
  6
CONTINUOUS
 10
174.2210292018
 20
116.5934508725
 40
4.35
 50
102.9124542829
 51
180.469896621
  0
CIRCLE
  8
2_FEATURE
 62
7
  6
CONTINUOUS
 10
174.2210292018
 20
116.5934508725
 40
2.5
  0
ARC
  8
0
 62
7
  6
CONTINUOUS
 10
177.8710292018
 20
112.4791472579
 40
0.4999997253
 50
0.0
 51
131.5778490799
  0
ARC
  8
0
 62
7
  6
CONTINUOUS
 10
36.2417507403
 20
192.8349776582
 40
0.5
 50
180.0
 51
270.0
  0
ARC
  8
0
 62
7
  6
CONTINUOUS
 10
36.0417507403
 20
194.4715776582
 40
0.5
 50
212.6399595159
 51
230.7851013361
  0
ARC
  8
0
 62
7
  6
CONTINUOUS
 10
51.9917507403
 20
192.8349776582
 40
0.5
 50
180.0
 51
270.0
  0
ARC
  8
0
 62
7
  6
CONTINUOUS
 10
58.3417507403
 20
192.8349776582
 40
0.5
 50
180.0
 51
270.0
  0
ARC
  8
0
 62
7
  6
CONTINUOUS
 10
57.0917507403
 20
192.8349776582
 40
0.5
 50
270.0
 51
360.0
  0
ARC
  8
0
 62
7
  6
CONTINUOUS
 10
77.3917507403
 20
192.8349776582
 40
0.5
 50
180.0
 51
270.0
  0
ARC
  8
0
 62
7
  6
CONTINUOUS
 10
83.7417507403
 20
192.8349776582
 40
0.5
 50
180.0
 51
270.0
  0
ARC
  8
0
 62
7
  6
CONTINUOUS
 10
76.1417507403
 20
192.8349776582
 40
0.5
 50
270.0
 51
360.0
  0
ARC
  8
0
 62
7
  6
CONTINUOUS
 10
82.4917507403
 20
192.8349776582
 40
0.5
 50
270.0
 51
360.0
  0
ARC
  8
0
 62
7
  6
CONTINUOUS
 10
43.7917507403
 20
192.8349776582
 40
0.5
 50
180.0
 51
270.0
  0
ARC
  8
0
 62
7
  6
CONTINUOUS
 10
45.6417507403
 20
192.8349776582
 40
0.5
 50
180.0
 51
270.0
  0
ARC
  8
0
 62
7
  6
CONTINUOUS
 10
38.0417507403
 20
192.8349776582
 40
0.5
 50
270.0
 51
360.0
  0
ARC
  8
0
 62
7
  6
CONTINUOUS
 10
39.8917507403
 20
192.8349776582
 40
0.5
 50
270.0
 51
360.0
  0
ARC
  8
0
 62
7
  6
CONTINUOUS
 10
65.2917507403
 20
192.8349776582
 40
0.5
 50
270.0
 51
360.0
  0
ARC
  8
0
 62
7
  6
CONTINUOUS
 10
63.4417507403
 20
192.8349776582
 40
0.5
 50
270.0
 51
360.0
  0
ARC
  8
0
 62
7
  6
CONTINUOUS
 10
71.0417507403
 20
192.8349776582
 40
0.5
 50
180.0
 51
270.0
  0
ARC
  8
0
 62
7
  6
CONTINUOUS
 10
69.1917507403
 20
192.8349776582
 40
0.5
 50
180.0
 51
270.0
  0
ARC
  8
0
 62
7
  6
CONTINUOUS
 10
42.6917507403
 20
192.5349776582
 40
0.2
 50
270.0
 51
360.0
  0
ARC
  8
0
 62
7
  6
CONTINUOUS
 10
49.0417507403
 20
192.5349776582
 40
0.2
 50
270.0
 51
360.0
  0
ARC
  8
0
 62
7
  6
CONTINUOUS
 10
45.6417507403
 20
200.3349776582
 40
0.5
 50
90.0
 51
180.0
  0
ARC
  8
0
 62
7
  6
CONTINUOUS
 10
76.1417507403
 20
200.3349776582
 40
0.5
 50
0.0
 51
90.0
  0
ARC
  8
0
 62
7
  6
CONTINUOUS
 10
83.7417507403
 20
200.3349776582
 40
0.5
 50
90.0
 51
180.0
  0
ARC
  8
0
 62
7
  6
CONTINUOUS
 10
36.2417507403
 20
200.3349776582
 40
0.5
 50
90.0
 51
180.0
  0
ARC
  8
0
 62
7
  6
CONTINUOUS
 10
38.0417507403
 20
200.3349776582
 40
0.5
 50
0.0
 51
90.0
  0
ARC
  8
0
 62
7
  6
CONTINUOUS
 10
63.4417507403
 20
200.3349776582
 40
0.5
 50
0.0
 51
90.0
  0
ARC
  8
0
 62
7
  6
CONTINUOUS
 10
71.0417507403
 20
200.3349776582
 40
0.5
 50
90.0
 51
180.0
  0
ARC
  8
0
 62
7
  6
CONTINUOUS
 10
50.7417507403
 20
200.3349776582
 40
0.5
 50
0.0
 51
90.0
  0
ARC
  8
0
 62
7
  6
CONTINUOUS
 10
58.3417507403
 20
200.3349776582
 40
0.5
 50
90.0
 51
180.0
  0
ARC
  8
0
 62
7
  6
CONTINUOUS
 10
107.8917507403
 20
192.8349776582
 40
0.5
 50
270.0
 51
360.0
  0
ARC
  8
0
 62
7
  6
CONTINUOUS
 10
102.7917507403
 20
192.8349776582
 40
0.5
 50
180.0
 51
270.0
  0
ARC
  8
0
 62
7
  6
CONTINUOUS
 10
109.1417507403
 20
192.8349776582
 40
0.5
 50
180.0
 51
270.0
  0
ARC
  8
0
 62
7
  6
CONTINUOUS
 10
101.5417507403
 20
192.8349776582
 40
0.5
 50
270.0
 51
360.0
  0
ARC
  8
0
 62
7
  6
CONTINUOUS
 10
90.6917507403
 20
192.8349776582
 40
0.5
 50
270.0
 51
360.0
  0
ARC
  8
0
 62
7
  6
CONTINUOUS
 10
88.8417507403
 20
192.8349776582
 40
0.5
 50
270.0
 51
360.0
  0
ARC
  8
0
 62
7
  6
CONTINUOUS
 10
96.4417507403
 20
192.8349776582
 40
0.5
 50
180.0
 51
270.0
  0
ARC
  8
0
 62
7
  6
CONTINUOUS
 10
94.5917507403
 20
192.8349776582
 40
0.5
 50
180.0
 51
270.0
  0
ARC
  8
0
 62
7
  6
CONTINUOUS
 10
136.3417507403
 20
192.8349776582
 40
0.5
 50
270.0
 51
360.0
  0
ARC
  8
0
 62
7
  6
CONTINUOUS
 10
128.7917507403
 20
192.8349776582
 40
0.5
 50
270.0
 51
360.0
  0
ARC
  8
0
 62
7
  6
CONTINUOUS
 10
126.9417507403
 20
192.8349776582
 40
0.5
 50
270.0
 51
360.0
  0
ARC
  8
0
 62
7
  6
CONTINUOUS
 10
134.5417507403
 20
192.8349776582
 40
0.5
 50
180.0
 51
270.0
  0
ARC
  8
0
 62
7
  6
CONTINUOUS
 10
132.6917507403
 20
192.8349776582
 40
0.5
 50
180.0
 51
270.0
  0
ARC
  8
0
 62
7
  6
CONTINUOUS
 10
116.0917507403
 20
192.8349776582
 40
0.5
 50
270.0
 51
360.0
  0
ARC
  8
0
 62
7
  6
CONTINUOUS
 10
114.2417507403
 20
192.8349776582
 40
0.5
 50
270.0
 51
360.0
  0
ARC
  8
0
 62
7
  6
CONTINUOUS
 10
121.8417507403
 20
192.8349776582
 40
0.5
 50
179.9993266383
 51
270.0
  0
ARC
  8
0
 62
7
  6
CONTINUOUS
 10
119.9917507403
 20
192.8349776582
 40
0.5
 50
180.0
 51
270.0
  0
ARC
  8
0
 62
7
  6
CONTINUOUS
 10
122.4417507403
 20
192.8349776582
 40
0.5
 50
270.0
 51
360.0
  0
ARC
  8
0
 62
7
  6
CONTINUOUS
 10
123.5417507403
 20
192.5349776582
 40
0.2
 50
180.0
 51
270.0
  0
ARC
  8
0
 62
7
  6
CONTINUOUS
 10
129.8917507403
 20
192.5349776582
 40
0.2
 50
180.0
 51
270.0
  0
ARC
  8
0
 62
7
  6
CONTINUOUS
 10
136.5417507403
 20
194.4715776582
 40
0.5
 50
309.2151435207
 51
327.3600404841
  0
ARC
  8
0
 62
7
  6
CONTINUOUS
 10
109.1417507403
 20
200.3349776582
 40
0.5
 50
90.0
 51
180.0
  0
ARC
  8
0
 62
7
  6
CONTINUOUS
 10
134.5417507403
 20
200.3349776582
 40
0.5
 50
90.0
 51
180.0
  0
ARC
  8
0
 62
7
  6
CONTINUOUS
 10
126.9417507403
 20
200.3349776582
 40
0.5
 50
0.0
 51
90.0
  0
ARC
  8
0
 62
7
  6
CONTINUOUS
 10
114.2417507403
 20
200.3349776582
 40
0.5
 50
0.0
 51
90.0
  0
ARC
  8
0
 62
7
  6
CONTINUOUS
 10
121.8417507403
 20
200.3349776582
 40
0.5
 50
90.0
 51
180.0
  0
ARC
  8
0
 62
7
  6
CONTINUOUS
 10
101.5417507403
 20
200.3349776582
 40
0.5
 50
0.0
 51
90.0
  0
ARC
  8
0
 62
7
  6
CONTINUOUS
 10
88.8417507403
 20
200.3349776582
 40
0.5
 50
0.0
 51
90.0
  0
ARC
  8
0
 62
7
  6
CONTINUOUS
 10
96.4417507403
 20
200.3349776582
 40
0.5
 50
90.0
 51
180.0
  0
ARC
  8
0
 62
7
  6
CONTINUOUS
 10
136.3417507403
 20
200.3349776582
 40
0.5
 50
0.0
 51
90.0
  0
ENDSEC
  0
EOF
