  0
SECTION
  2
HEADER
  9
$EXTMAX
 10
210.0
 20
297.0
 30
0.0
  9
$EXTMIN
 10
0.0
 20
0.0
 30
0.0
  9
$LIMMIN
 10
0.0
 20
0.0
  9
$LIMMAX
 10
210.0
 20
297.0
  9
$VIEWCTR
 10
105.0
 20
148.5
  9
$VIEWSIZE
 40
297.0
  9
$CLAYER
  8
0
  9
$LTSCALE
 40
19.36
  9
$CELTYPE
  6
BYLAYER
  9
$DIMSCALE
 40
1.0
  9
$DIMASZ
 40
3.5
  9
$DIMEXO
 40
1.0
  9
$DIMDLI
 40
13.376
  9
$DIMEXE
 40
2.0
  9
$DIMCEN
 40
3.168
  9
$DIMLFAC
 40
1.0
  9
$DIMBLK
  1
_FILLED
  9
$DIMALT
 70
0
  9
$DIMALTF
 40
0.0393700787
  9
$DIMTXT
 40
3.5
  9
$AUNITS
 70
0
  9
$PDMODE
 70
3
  9
$PDSIZE
 40
0.3125
  9
$TILEMODE
 70
1
  0
ENDSEC
  0
SECTION
  2
TABLES
  0
TABLE
  2
LTYPE
 70
6
  0
LTYPE
  2
BYBLOCK
 70
0
  3

 72
65
 73
0
 40
0.0
  0
LTYPE
  2
BYLAYER
 70
0
  3

 72
65
 73
0
 40
0.0
  0
LTYPE
  2
CONTINUOUS
 70
64
  3
Solid line
 72
65
 73
0
 40
0.0
  0
LTYPE
  2
CENTER
 70
64
  3
____ _ ____ _ ____ _ ____ _ ____ _ ____ _ ____
 72
65
 73
4
 40
0.6
 49
0.375
 49
-0.075
 49
0.075
 49
-0.075
  0
LTYPE
  2
HIDDEN
 70
64
  3
- - - - - - - - - - - - - - - - - - - -
 72
65
 73
2
 40
0.2
 49
0.1
 49
-0.1
  0
LTYPE
  2
PHANTOM
 70
64
  3
_____ _ _ _____ _ _ _____ _ _ _____
 72
65
 73
6
 40
0.8
 49
0.45
 49
-0.05
 49
0.1
 49
-0.05
 49
0.1
 49
-0.05
  0
LTYPE
  2
DOT
 70
64
  3
. . . . . . . . . . . . . . . . . . . .
 72
65
 73
2
 40
0.2
 49
0.1
 49
-0.1
  0
LTYPE
  2
DASHED
 70
64
  3
- - - - - - - - - - - - - - - - - - - -
 72
65
 73
2
 40
0.2
 49
0.1
 49
-0.1
  0
ENDTAB
  0
TABLE
  2
LAYER
 70
36
  0
LAYER
  2
0
 70
0
 62
7
  6
CONTINUOUS
  0
LAYER
  2
DEFAULT_1
 70
0
 62
7
  6
CENTER
  0
LAYER
  2
DEFAULT_2
 70
0
 62
8
  6
HIDDEN
  0
LAYER
  2
DEFAULT_3
 70
0
 62
7
  6
PHANTOM
  0
LAYER
  2
1_AXIS
 70
0
 62
7
  6
CONTINUOUS
  0
LAYER
  2
1_DATUMPLANE
 70
0
 62
7
  6
CONTINUOUS
  0
LAYER
  2
1_DATUM_PLANES
 70
0
 62
7
  6
CONTINUOUS
  0
LAYER
  2
2_FEATURE
 70
0
 62
7
  6
CONTINUOUS
  0
LAYER
  2
6_DIM
 70
0
 62
7
  6
CONTINUOUS
  0
LAYER
  2
CSYS
 70
0
 62
7
  6
CONTINUOUS
  0
LAYER
  2
CU
 70
0
 62
7
  6
CONTINUOUS
  0
LAYER
  2
QUILT
 70
0
 62
7
  6
CONTINUOUS
  0
ENDTAB
  0
TABLE
  2
STYLE
 70
1
  0
STYLE
  2
STANDARD
 70
0
 40
0.0
 41
0.8
 50
0.0
 71
0
 42
0.2
  3
txt
  4

  0
STYLE
  2
TEXTSTYLE_1
 70
0
 40
0.0
 41
0.8
 50
0.0
 71
0
 42
0.2
  3
gdt
  4

  0
STYLE
  2
TEXTSTYLE_2
 70
0
 40
0.0
 41
0.6
 50
0.0
 71
0
 42
0.2
  3
txt
  4

  0
STYLE
  2
TEXTSTYLE_3
 70
0
 40
0.0
 41
1.0
 50
0.0
 71
0
 42
0.2
  3
ftb_____.ttf
  4

  0
STYLE
  2
TEXTSTYLE_4
 70
0
 40
0.0
 41
1.0
 50
0.0
 71
0
 42
0.2
  3
fti_____.ttf
  4

  0
STYLE
  2
TEXTSTYLE_5
 70
0
 40
0.0
 41
1.0
 50
0.0
 71
0
 42
0.2
  3
frutiger light.ttf
  4

  0
STYLE
  2
TEXTSTYLE_6
 70
0
 40
0.0
 41
0.7
 50
0.0
 71
0
 42
0.2
  3
txt
  4

  0
STYLE
  2
TEXTSTYLE_7
 70
0
 40
0.0
 41
0.4
 50
0.0
 71
0
 42
0.2
  3
txt
  4

  0
ENDTAB
  0
ENDSEC
  0
SECTION
  2
BLOCKS
  0
BLOCK
  8
0
 62
2
  6
CONTINUOUS
  2
UNI_LOGO2_BL1
 70
64
 10
173.5956734183
 20
35.5937998301
  0
TEXT
  8
0
 62
7
  6
CONTINUOUS
 10
164.6539584268
 20
30.6865562072
  7
TEXTSTYLE_4
 40
1.0655737705
  1
The brand for plastic modular belts and chains
 41
1.0
 72
0
  0
LINE
  8
0
 62
7
  6
CONTINUOUS
 10
149.5737418074
 20
36.1675703219
 11
149.5737418074
 21
34.0364227809
  0
LINE
  8
0
 62
7
  6
CONTINUOUS
 10
149.8628043005
 20
31.0454914852
 11
149.8628043005
 21
31.1422825445
  0
LINE
  8
0
 62
7
  6
CONTINUOUS
 10
149.5737418074
 20
31.1100188581
 11
149.6315543091
 21
30.9164367395
  0
LINE
  8
0
 62
7
  6
CONTINUOUS
 10
150.9671844304
 20
33.9544555678
 11
150.9671844304
 21
36.1675703219
  0
LINE
  8
0
 62
7
  6
CONTINUOUS
 10
151.8862417523
 20
32.1101932727
 11
151.8862417523
 21
30.5937998301
  0
LINE
  8
0
 62
7
  6
CONTINUOUS
 10
152.1753043074
 20
30.5937998301
 11
152.1753043074
 21
31.3358647082
  0
LINE
  8
0
 62
7
  6
CONTINUOUS
 10
152.1753043074
 20
31.4649194539
 11
152.1753043074
 21
32.1101932727
  0
LINE
  8
0
 62
7
  6
CONTINUOUS
 10
149.6315543091
 20
31.3036010218
 11
149.5737418074
 21
31.1100188581
  0
LINE
  8
0
 62
7
  6
CONTINUOUS
 10
149.9784292936
 20
30.8841730531
 11
149.8628043005
 21
31.0454914852
  0
LINE
  8
0
 62
7
  6
CONTINUOUS
 10
151.0768668626
 20
31.400392081
 11
151.1346793074
 21
31.3036010218
  0
LINE
  8
0
 62
7
  6
CONTINUOUS
 10
151.4237418626
 20
31.3036010218
 11
151.3659292523
 21
31.4326557675
  0
LINE
  8
0
 62
7
  6
CONTINUOUS
 10
152.852430332
 20
36.1675703219
 11
152.852430332
 21
34.3642916334
  0
LINE
  8
0
 62
7
  6
CONTINUOUS
 10
152.852430332
 20
33.0528162235
 11
152.852430332
 21
32.3970785186
  0
LINE
  8
0
 62
7
  6
CONTINUOUS
 10
153.2159293074
 20
31.2390736489
 11
153.2159293074
 21
30.5937998301
  0
LINE
  8
0
 62
7
  6
CONTINUOUS
 10
153.5049916972
 20
30.5937998301
 11
153.5049916972
 21
31.2390736489
  0
LINE
  8
0
 62
7
  6
CONTINUOUS
 10
149.8628043005
 20
31.1422825445
 11
149.9206168074
 21
31.2713373354
  0
LINE
  8
0
 62
7
  6
CONTINUOUS
 10
149.6315543091
 20
30.9164367395
 11
149.7471793074
 21
30.7873819712
  0
LINE
  8
0
 62
7
  6
CONTINUOUS
 10
153.1581166972
 20
31.3681283946
 11
153.2159293074
 21
31.2390736489
  0
LINE
  8
0
 62
7
  6
CONTINUOUS
 10
153.9674919177
 20
30.8841730531
 11
154.0253041972
 21
30.7551182848
  0
LINE
  8
0
 62
7
  6
CONTINUOUS
 10
153.5049916972
 20
31.2390736489
 11
153.4471794177
 21
31.400392081
  0
LINE
  8
0
 62
7
  6
CONTINUOUS
 10
153.9674919177
 20
31.4326557675
 11
153.9674919177
 21
31.3681283946
  0
LINE
  8
0
 62
7
  6
CONTINUOUS
 10
153.9674919177
 20
30.9809641124
 11
153.9674919177
 21
30.8841730531
  0
LINE
  8
0
 62
7
  6
CONTINUOUS
 10
154.245872955
 20
32.3970785186
 11
154.245872955
 21
36.1675703219
  0
LINE
  8
0
 62
7
  6
CONTINUOUS
 10
154.2565543074
 20
30.8519093441
 11
154.2565543074
 21
30.9164367395
  0
LINE
  8
0
 62
7
  6
CONTINUOUS
 10
154.5737418074
 20
36.1675703219
 11
154.5737418074
 21
32.3970785186
  0
LINE
  8
0
 62
7
  6
CONTINUOUS
 10
151.3659292523
 20
30.7873819712
 11
151.4237418626
 21
30.9164367395
  0
LINE
  8
0
 62
7
  6
CONTINUOUS
 10
155.759679528
 20
30.6905909007
 11
155.7018665869
 21
30.8519093441
  0
LINE
  8
0
 62
7
  6
CONTINUOUS
 10
155.412804528
 20
31.3681283946
 11
155.412804528
 21
31.2713373354
  0
LINE
  8
0
 62
7
  6
CONTINUOUS
 10
155.412804528
 20
31.1422825445
 11
155.412804528
 21
30.9487004259
  0
LINE
  8
0
 62
7
  6
CONTINUOUS
 10
155.7018665869
 20
30.8519093441
 11
155.7018665869
 21
31.3681283946
  0
LINE
  8
0
 62
7
  6
CONTINUOUS
 10
155.9671844304
 20
32.3970785186
 11
155.9671844304
 21
34.2003572071
  0
LINE
  8
0
 62
7
  6
CONTINUOUS
 10
155.9671844304
 20
35.511832617
 11
155.9671844304
 21
36.1675703219
  0
LINE
  8
0
 62
7
  6
CONTINUOUS
 10
156.279992028
 20
32.1101932727
 11
156.279992028
 21
31.9488748406
  0
LINE
  8
0
 62
7
  6
CONTINUOUS
 10
156.279992028
 20
31.626237886
 11
156.279992028
 21
30.5937998301
  0
LINE
  8
0
 62
7
  6
CONTINUOUS
 10
156.5690540869
 20
30.5937998301
 11
156.5690540869
 21
31.626237886
  0
LINE
  8
0
 62
7
  6
CONTINUOUS
 10
156.5690540869
 20
31.9488748406
 11
156.5690540869
 21
32.1101932727
  0
LINE
  8
0
 62
7
  6
CONTINUOUS
 10
151.1346793074
 20
30.9164367395
 11
151.0768668626
 21
30.8196456577
  0
LINE
  8
0
 62
7
  6
CONTINUOUS
 10
153.4471794177
 20
31.400392081
 11
153.3893668074
 21
31.4649194539
  0
LINE
  8
0
 62
7
  6
CONTINUOUS
 10
154.3143669177
 20
30.7873819712
 11
154.2565543074
 21
30.8519093441
  0
LINE
  8
0
 62
7
  6
CONTINUOUS
 10
155.4706168074
 20
30.6583272086
 11
155.5284290869
 21
30.5937998301
  0
LINE
  8
0
 62
7
  6
CONTINUOUS
 10
155.412804528
 20
30.7551182848
 11
155.4706168074
 21
30.6583272086
  0
LINE
  8
0
 62
7
  6
CONTINUOUS
 10
155.8174918074
 20
30.5937998301
 11
155.759679528
 21
30.6905909007
  0
LINE
  8
0
 62
7
  6
CONTINUOUS
 10
155.7018665869
 20
31.3681283946
 11
155.6440543074
 21
31.4649194539
  0
LINE
  8
0
 62
7
  6
CONTINUOUS
 10
157.0315543074
 20
31.626237886
 11
157.0315543074
 21
30.5937998301
  0
LINE
  8
0
 62
7
  6
CONTINUOUS
 10
157.320617028
 20
30.5937998301
 11
157.320617028
 21
31.3358647082
  0
LINE
  8
0
 62
7
  6
CONTINUOUS
 10
157.320617028
 20
31.4649194539
 11
157.320617028
 21
31.626237886
  0
LINE
  8
0
 62
7
  6
CONTINUOUS
 10
157.852430332
 20
34.6101932727
 11
157.852430332
 21
32.3970785186
  0
LINE
  8
0
 62
7
  6
CONTINUOUS
 10
149.7471793074
 20
31.4326557675
 11
149.6315543091
 21
31.3036010218
  0
LINE
  8
0
 62
7
  6
CONTINUOUS
 10
149.9206168074
 20
31.2713373354
 11
149.9784292936
 21
31.3358647082
  0
LINE
  8
0
 62
7
  6
CONTINUOUS
 10
149.7471793074
 20
30.7873819712
 11
149.8628043005
 21
30.7228545871
  0
LINE
  8
0
 62
7
  6
CONTINUOUS
 10
150.1518667936
 20
30.7873819712
 11
149.9784292936
 21
30.8841730531
  0
LINE
  8
0
 62
7
  6
CONTINUOUS
 10
155.3549915869
 20
31.4326557675
 11
155.412804528
 21
31.3681283946
  0
LINE
  8
0
 62
7
  6
CONTINUOUS
 10
158.3034290869
 20
31.3681283946
 11
158.361242028
 21
31.2068099625
  0
LINE
  8
0
 62
7
  6
CONTINUOUS
 10
158.6503040869
 20
31.2068099625
 11
158.5924918074
 21
31.3681283946
  0
LINE
  8
0
 62
7
  6
CONTINUOUS
 10
158.361242028
 20
31.2068099625
 11
158.361242028
 21
30.5937998301
  0
LINE
  8
0
 62
7
  6
CONTINUOUS
 10
158.6503040869
 20
30.5937998301
 11
158.6503040869
 21
31.2068099625
  0
LINE
  8
0
 62
7
  6
CONTINUOUS
 10
159.1128043074
 20
31.4326557675
 11
159.1128043074
 21
31.3681283946
  0
LINE
  8
0
 62
7
  6
CONTINUOUS
 10
159.245872955
 20
32.3970785186
 11
159.245872955
 21
34.5282260596
  0
LINE
  8
0
 62
7
  6
CONTINUOUS
 10
159.5737418074
 20
36.1675703219
 11
159.5737418074
 21
32.3970785186
  0
LINE
  8
0
 62
7
  6
CONTINUOUS
 10
154.2565543074
 20
30.9164367395
 11
154.3143669177
 21
31.0132277988
  0
LINE
  8
0
 62
7
  6
CONTINUOUS
 10
149.8628043005
 20
30.7228545871
 11
150.0362418212
 21
30.6583272086
  0
LINE
  8
0
 62
7
  6
CONTINUOUS
 10
151.3659292523
 20
31.4326557675
 11
151.1924917523
 21
31.5294468267
  0
LINE
  8
0
 62
7
  6
CONTINUOUS
 10
154.0253041972
 20
30.7551182848
 11
154.1987416972
 21
30.6583272086
  0
LINE
  8
0
 62
7
  6
CONTINUOUS
 10
153.0424918074
 20
31.4326557675
 11
153.1581166972
 21
31.3681283946
  0
LINE
  8
0
 62
7
  6
CONTINUOUS
 10
153.3893668074
 20
31.4649194539
 11
153.2737419177
 21
31.5294468267
  0
LINE
  8
0
 62
7
  6
CONTINUOUS
 10
159.1128043074
 20
30.8519093441
 11
159.228429528
 21
30.7228545871
  0
LINE
  8
0
 62
7
  6
CONTINUOUS
 10
159.4596793074
 20
30.7873819712
 11
159.401867028
 21
30.8519093441
  0
LINE
  8
0
 62
7
  6
CONTINUOUS
 10
159.1128043074
 20
31.3681283946
 11
159.228429528
 21
31.2390736489
  0
LINE
  8
0
 62
7
  6
CONTINUOUS
 10
158.5924918074
 20
31.3681283946
 11
158.534679528
 21
31.4649194539
  0
LINE
  8
0
 62
7
  6
CONTINUOUS
 10
160.9628038663
 20
30.7873819712
 11
160.9628038663
 21
30.8519093441
  0
LINE
  8
0
 62
7
  6
CONTINUOUS
 10
160.9671844304
 20
32.3970785186
 11
160.9671844304
 21
36.1675703219
  0
LINE
  8
0
 62
7
  6
CONTINUOUS
 10
154.0253041972
 20
31.4971831403
 11
153.9674919177
 21
31.4326557675
  0
LINE
  8
0
 62
7
  6
CONTINUOUS
 10
150.9034292799
 20
31.4649194539
 11
151.0768668626
 21
31.400392081
  0
LINE
  8
0
 62
7
  6
CONTINUOUS
 10
155.6440543074
 20
31.4649194539
 11
155.5284290869
 21
31.5294468267
  0
LINE
  8
0
 62
7
  6
CONTINUOUS
 10
159.4596793074
 20
31.3036010218
 11
159.401867028
 21
31.3681283946
  0
LINE
  8
0
 62
7
  6
CONTINUOUS
 10
160.615929528
 20
30.9164367395
 11
160.6737418074
 21
30.8519093441
  0
LINE
  8
0
 62
7
  6
CONTINUOUS
 10
160.9628038663
 20
30.8519093441
 11
160.8471793074
 21
30.9809641124
  0
LINE
  8
0
 62
7
  6
CONTINUOUS
 10
160.615929528
 20
31.4326557675
 11
160.6737418074
 21
31.3681283946
  0
LINE
  8
0
 62
7
  6
CONTINUOUS
 10
160.9628038663
 20
31.3681283946
 11
160.8471793074
 21
31.4971831403
  0
LINE
  8
0
 62
7
  6
CONTINUOUS
 10
154.2565543074
 20
31.3681283946
 11
154.3143669177
 21
31.4326557675
  0
LINE
  8
0
 62
7
  6
CONTINUOUS
 10
154.0831168074
 20
31.1100188581
 11
153.9674919177
 21
30.9809641124
  0
LINE
  8
0
 62
7
  6
CONTINUOUS
 10
155.412804528
 20
30.9487004259
 11
155.3549915869
 21
30.8841730531
  0
LINE
  8
0
 62
7
  6
CONTINUOUS
 10
155.3549915869
 20
30.6905909007
 11
155.412804528
 21
30.7551182848
  0
LINE
  8
0
 62
7
  6
CONTINUOUS
 10
154.1987416972
 20
30.6583272086
 11
154.3143669177
 21
30.6260635193
  0
LINE
  8
0
 62
7
  6
CONTINUOUS
 10
151.1924917523
 20
31.5294468267
 11
150.9612418074
 21
31.5939741996
  0
LINE
  8
0
 62
7
  6
CONTINUOUS
 10
154.5456166972
 20
30.7228545871
 11
154.3143669177
 21
30.7873819712
  0
LINE
  8
0
 62
7
  6
CONTINUOUS
 10
153.2737419177
 20
31.5294468267
 11
153.1003044177
 21
31.5939741996
  0
LINE
  8
0
 62
7
  6
CONTINUOUS
 10
155.5284290869
 20
31.5294468267
 11
155.3549915869
 21
31.5939741996
  0
LINE
  8
0
 62
7
  6
CONTINUOUS
 10
158.187804528
 20
31.4326557675
 11
158.3034290869
 21
31.3681283946
  0
LINE
  8
0
 62
7
  6
CONTINUOUS
 10
158.534679528
 20
31.4649194539
 11
158.4190543074
 21
31.5294468267
  0
LINE
  8
0
 62
7
  6
CONTINUOUS
 10
150.0362418212
 20
30.6583272086
 11
150.2096793212
 21
30.6260635193
  0
LINE
  8
0
 62
7
  6
CONTINUOUS
 10
150.498741835
 20
30.7228545871
 11
150.1518667936
 21
30.7873819712
  0
LINE
  8
0
 62
7
  6
CONTINUOUS
 10
152.9268669177
 20
31.4649194539
 11
153.0424918074
 21
31.4326557675
  0
LINE
  8
0
 62
7
  6
CONTINUOUS
 10
155.239367028
 20
31.4649194539
 11
155.3549915869
 21
31.4326557675
  0
LINE
  8
0
 62
7
  6
CONTINUOUS
 10
159.575304528
 20
30.7551182848
 11
159.4596793074
 21
30.7873819712
  0
LINE
  8
0
 62
7
  6
CONTINUOUS
 10
158.0721793074
 20
31.4649194539
 11
158.187804528
 21
31.4326557675
  0
LINE
  8
0
 62
7
  6
CONTINUOUS
 10
159.228429528
 20
30.7228545871
 11
159.401867028
 21
30.6583272086
  0
LINE
  8
0
 62
7
  6
CONTINUOUS
 10
158.4190543074
 20
31.5294468267
 11
158.2456168074
 21
31.5939741996
  0
LINE
  8
0
 62
7
  6
CONTINUOUS
 10
159.6331168074
 20
31.2390736489
 11
159.4596793074
 21
31.3036010218
  0
LINE
  8
0
 62
7
  6
CONTINUOUS
 10
160.442492028
 20
30.9809641124
 11
160.615929528
 21
30.9164367395
  0
LINE
  8
0
 62
7
  6
CONTINUOUS
 10
160.8471793074
 20
31.4971831403
 11
160.6737418074
 21
31.5617105132
  0
LINE
  8
0
 62
7
  6
CONTINUOUS
 10
159.228429528
 20
31.2390736489
 11
159.4596793074
 21
31.1422825445
  0
LINE
  8
0
 62
7
  6
CONTINUOUS
 10
160.8471793074
 20
30.9809641124
 11
160.615929528
 21
31.0777551716
  0
LINE
  8
0
 62
7
  6
CONTINUOUS
 10
159.401867028
 20
31.3681283946
 11
159.4596793074
 21
31.4326557675
  0
LINE
  8
0
 62
7
  6
CONTINUOUS
 10
149.8628043005
 20
31.4971831403
 11
149.7471793074
 21
31.4326557675
  0
LINE
  8
0
 62
7
  6
CONTINUOUS
 10
149.9784292936
 20
31.3358647082
 11
150.1518667936
 21
31.4326557675
  0
LINE
  8
0
 62
7
  6
CONTINUOUS
 10
152.2909293626
 20
31.5294468267
 11
152.1753043074
 21
31.4649194539
  0
LINE
  8
0
 62
7
  6
CONTINUOUS
 10
152.1753043074
 20
31.3358647082
 11
152.2909293626
 21
31.400392081
  0
LINE
  8
0
 62
7
  6
CONTINUOUS
 10
151.1924917523
 20
30.6905909007
 11
151.3659292523
 21
30.7873819712
  0
LINE
  8
0
 62
7
  6
CONTINUOUS
 10
150.2096793212
 20
30.6260635193
 11
150.5565542799
 21
30.5937998301
  0
LINE
  8
0
 62
7
  6
CONTINUOUS
 10
154.3143669177
 20
30.6260635193
 11
154.5456166972
 21
30.5937998301
  0
LINE
  8
0
 62
7
  6
CONTINUOUS
 10
152.6956168074
 20
31.4971831403
 11
152.9268669177
 21
31.4649194539
  0
LINE
  8
0
 62
7
  6
CONTINUOUS
 10
155.0081169177
 20
31.4971831403
 11
155.239367028
 21
31.4649194539
  0
LINE
  8
0
 62
7
  6
CONTINUOUS
 10
159.4596793074
 20
31.1422825445
 11
160.442492028
 21
30.9809641124
  0
LINE
  8
0
 62
7
  6
CONTINUOUS
 10
160.615929528
 20
31.0777551716
 11
159.6331168074
 21
31.2390736489
  0
LINE
  8
0
 62
7
  6
CONTINUOUS
 10
153.1003044177
 20
31.5939741996
 11
152.9268669177
 21
31.626237886
  0
LINE
  8
0
 62
7
  6
CONTINUOUS
 10
159.401867028
 20
30.6583272086
 11
159.575304528
 21
30.6260635193
  0
LINE
  8
0
 62
7
  6
CONTINUOUS
 10
158.2456168074
 20
31.5939741996
 11
158.0721793074
 21
31.626237886
  0
LINE
  8
0
 62
7
  6
CONTINUOUS
 10
160.5003043074
 20
31.4649194539
 11
160.615929528
 21
31.4326557675
  0
LINE
  8
0
 62
7
  6
CONTINUOUS
 10
160.6737418074
 20
30.8519093441
 11
160.615929528
 21
30.7873819712
  0
LINE
  8
0
 62
7
  6
CONTINUOUS
 10
159.228429528
 20
31.5294468267
 11
159.1128043074
 21
31.4326557675
  0
LINE
  8
0
 62
7
  6
CONTINUOUS
 10
154.1409294177
 20
31.5617105132
 11
154.0253041972
 21
31.4971831403
  0
LINE
  8
0
 62
7
  6
CONTINUOUS
 10
154.1987416972
 20
31.1745462761
 11
154.0831168074
 21
31.1100188581
  0
LINE
  8
0
 62
7
  6
CONTINUOUS
 10
154.3143669177
 20
31.0132277988
 11
154.4299918074
 21
31.0777551716
  0
LINE
  8
0
 62
7
  6
CONTINUOUS
 10
151.8862417523
 20
30.5937998301
 11
152.1753043074
 21
30.5937998301
  0
LINE
  8
0
 62
7
  6
CONTINUOUS
 10
153.2159293074
 20
30.5937998301
 11
153.5049916972
 21
30.5937998301
  0
LINE
  8
0
 62
7
  6
CONTINUOUS
 10
154.5456166972
 20
30.5937998301
 11
154.8924916972
 21
30.5937998301
  0
LINE
  8
0
 62
7
  6
CONTINUOUS
 10
155.5284290869
 20
30.5937998301
 11
155.8174918074
 21
30.5937998301
  0
LINE
  8
0
 62
7
  6
CONTINUOUS
 10
156.279992028
 20
30.5937998301
 11
156.5690540869
 21
30.5937998301
  0
LINE
  8
0
 62
7
  6
CONTINUOUS
 10
157.0315543074
 20
30.5937998301
 11
157.320617028
 21
30.5937998301
  0
LINE
  8
0
 62
7
  6
CONTINUOUS
 10
158.361242028
 20
30.5937998301
 11
158.6503040869
 21
30.5937998301
  0
LINE
  8
0
 62
7
  6
CONTINUOUS
 10
159.922179528
 20
30.5937998301
 11
160.269054528
 21
30.5937998301
  0
LINE
  8
0
 62
7
  6
CONTINUOUS
 10
160.269054528
 20
30.7228545871
 11
159.922179528
 21
30.7228545871
  0
LINE
  8
0
 62
7
  6
CONTINUOUS
 10
154.8924916972
 20
30.7228545871
 11
154.5456166972
 21
30.7228545871
  0
LINE
  8
0
 62
7
  6
CONTINUOUS
 10
159.401867028
 20
30.8519093441
 11
159.1128043074
 21
30.8519093441
  0
LINE
  8
0
 62
7
  6
CONTINUOUS
 10
151.4237418626
 20
30.9164367395
 11
151.1346793074
 21
30.9164367395
  0
LINE
  8
0
 62
7
  6
CONTINUOUS
 10
150.498741835
 20
31.4971831403
 11
150.9034292799
 21
31.4649194539
  0
LINE
  8
0
 62
7
  6
CONTINUOUS
 10
150.9612418074
 20
31.5939741996
 11
150.5565542799
 21
31.626237886
  0
LINE
  8
0
 62
7
  6
CONTINUOUS
 10
159.575304528
 20
30.6260635193
 11
159.922179528
 21
30.5937998301
  0
LINE
  8
0
 62
7
  6
CONTINUOUS
 10
159.922179528
 20
30.7228545871
 11
159.575304528
 21
30.7551182848
  0
LINE
  8
0
 62
7
  6
CONTINUOUS
 10
155.3549915869
 20
31.5939741996
 11
155.0081169177
 21
31.626237886
  0
LINE
  8
0
 62
7
  6
CONTINUOUS
 10
160.1534293074
 20
31.4971831403
 11
160.5003043074
 21
31.4649194539
  0
LINE
  8
0
 62
7
  6
CONTINUOUS
 10
160.5003043074
 20
31.5939741996
 11
160.1534293074
 21
31.626237886
  0
LINE
  8
0
 62
7
  6
CONTINUOUS
 10
157.840929528
 20
31.4971831403
 11
158.0721793074
 21
31.4649194539
  0
LINE
  8
0
 62
7
  6
CONTINUOUS
 10
160.6737418074
 20
31.5617105132
 11
160.5003043074
 21
31.5939741996
  0
LINE
  8
0
 62
7
  6
CONTINUOUS
 10
160.8471793074
 20
30.6905909007
 11
160.9628038663
 21
30.7873819712
  0
LINE
  8
0
 62
7
  6
CONTINUOUS
 10
155.3549915869
 20
30.8841730531
 11
155.1815540869
 21
30.7873819712
  0
LINE
  8
0
 62
7
  6
CONTINUOUS
 10
157.4362415869
 20
31.5294468267
 11
157.320617028
 21
31.4649194539
  0
LINE
  8
0
 62
7
  6
CONTINUOUS
 10
157.320617028
 20
31.3358647082
 11
157.4362415869
 21
31.400392081
  0
LINE
  8
0
 62
7
  6
CONTINUOUS
 10
150.0362418212
 20
31.5617105132
 11
149.8628043005
 21
31.4971831403
  0
LINE
  8
0
 62
7
  6
CONTINUOUS
 10
152.4643666972
 20
31.5939741996
 11
152.2909293626
 21
31.5294468267
  0
LINE
  8
0
 62
7
  6
CONTINUOUS
 10
152.2909293626
 20
31.400392081
 11
152.4643666972
 21
31.4649194539
  0
LINE
  8
0
 62
7
  6
CONTINUOUS
 10
151.0768668626
 20
30.8196456577
 11
150.9034292799
 21
30.7551182848
  0
LINE
  8
0
 62
7
  6
CONTINUOUS
 10
160.5003043074
 20
30.7551182848
 11
160.269054528
 21
30.7228545871
  0
LINE
  8
0
 62
7
  6
CONTINUOUS
 10
154.8924916972
 20
30.5937998301
 11
155.1815540869
 21
30.6260635193
  0
LINE
  8
0
 62
7
  6
CONTINUOUS
 10
160.269054528
 20
30.5937998301
 11
160.615929528
 21
30.6260635193
  0
LINE
  8
0
 62
7
  6
CONTINUOUS
 10
150.5565542799
 20
30.5937998301
 11
150.9612418074
 21
30.6260635193
  0
LINE
  8
0
 62
7
  6
CONTINUOUS
 10
150.9034292799
 20
30.7551182848
 11
150.498741835
 21
30.7228545871
  0
LINE
  8
0
 62
7
  6
CONTINUOUS
 10
154.7768668074
 20
31.1422825445
 11
155.412804528
 21
31.1422825445
  0
LINE
  8
0
 62
7
  6
CONTINUOUS
 10
155.412804528
 20
31.2713373354
 11
154.7768668074
 21
31.2713373354
  0
LINE
  8
0
 62
7
  6
CONTINUOUS
 10
151.1346793074
 20
31.3036010218
 11
151.4237418626
 21
31.3036010218
  0
LINE
  8
0
 62
7
  6
CONTINUOUS
 10
153.9674919177
 20
31.3681283946
 11
154.2565543074
 21
31.3681283946
  0
LINE
  8
0
 62
7
  6
CONTINUOUS
 10
160.6737418074
 20
31.3681283946
 11
160.9628038663
 21
31.3681283946
  0
LINE
  8
0
 62
7
  6
CONTINUOUS
 10
154.6612419177
 20
31.4971831403
 11
155.0081169177
 21
31.4971831403
  0
LINE
  8
0
 62
7
  6
CONTINUOUS
 10
159.8065543074
 20
31.4971831403
 11
160.1534293074
 21
31.4971831403
  0
LINE
  8
0
 62
7
  6
CONTINUOUS
 10
160.1534293074
 20
31.626237886
 11
159.8065543074
 21
31.626237886
  0
LINE
  8
0
 62
7
  6
CONTINUOUS
 10
158.0721793074
 20
31.626237886
 11
157.840929528
 21
31.626237886
  0
LINE
  8
0
 62
7
  6
CONTINUOUS
 10
157.320617028
 20
31.626237886
 11
157.0315543074
 21
31.626237886
  0
LINE
  8
0
 62
7
  6
CONTINUOUS
 10
156.5690540869
 20
31.626237886
 11
156.279992028
 21
31.626237886
  0
LINE
  8
0
 62
7
  6
CONTINUOUS
 10
155.0081169177
 20
31.626237886
 11
154.6612419177
 21
31.626237886
  0
LINE
  8
0
 62
7
  6
CONTINUOUS
 10
152.9268669177
 20
31.626237886
 11
152.6956168074
 21
31.626237886
  0
LINE
  8
0
 62
7
  6
CONTINUOUS
 10
156.279992028
 20
31.9488748406
 11
156.5690540869
 21
31.9488748406
  0
LINE
  8
0
 62
7
  6
CONTINUOUS
 10
156.5690540869
 20
32.1101932727
 11
156.279992028
 21
32.1101932727
  0
LINE
  8
0
 62
7
  6
CONTINUOUS
 10
152.1753043074
 20
32.1101932727
 11
151.8862417523
 21
32.1101932727
  0
LINE
  8
0
 62
7
  6
CONTINUOUS
 10
151.2130860697
 20
32.3970785186
 11
151.6256574183
 21
32.3970785186
  0
LINE
  8
0
 62
7
  6
CONTINUOUS
 10
152.852430332
 20
32.3970785186
 11
154.245872955
 21
32.3970785186
  0
LINE
  8
0
 62
7
  6
CONTINUOUS
 10
154.5737418074
 20
32.3970785186
 11
155.9671844304
 21
32.3970785186
  0
LINE
  8
0
 62
7
  6
CONTINUOUS
 10
157.852430332
 20
32.3970785186
 11
159.245872955
 21
32.3970785186
  0
LINE
  8
0
 62
7
  6
CONTINUOUS
 10
159.5737418074
 20
32.3970785186
 11
160.9671844304
 21
32.3970785186
  0
LINE
  8
0
 62
7
  6
CONTINUOUS
 10
157.6096790869
 20
31.5939741996
 11
157.4362415869
 21
31.5294468267
  0
LINE
  8
0
 62
7
  6
CONTINUOUS
 10
155.1815540869
 20
30.6260635193
 11
155.3549915869
 21
30.6905909007
  0
LINE
  8
0
 62
7
  6
CONTINUOUS
 10
160.615929528
 20
30.6260635193
 11
160.8471793074
 21
30.6905909007
  0
LINE
  8
0
 62
7
  6
CONTINUOUS
 10
160.615929528
 20
30.7873819712
 11
160.5003043074
 21
30.7551182848
  0
LINE
  8
0
 62
7
  6
CONTINUOUS
 10
159.575304528
 20
31.4649194539
 11
159.8065543074
 21
31.4971831403
  0
LINE
  8
0
 62
7
  6
CONTINUOUS
 10
157.6096790869
 20
31.4649194539
 11
157.840929528
 21
31.4971831403
  0
LINE
  8
0
 62
7
  6
CONTINUOUS
 10
154.5456166972
 20
31.1100188581
 11
154.7768668074
 21
31.1422825445
  0
LINE
  8
0
 62
7
  6
CONTINUOUS
 10
157.840929528
 20
31.626237886
 11
157.6096790869
 21
31.5939741996
  0
LINE
  8
0
 62
7
  6
CONTINUOUS
 10
154.4299918074
 20
31.4649194539
 11
154.6612419177
 21
31.4971831403
  0
LINE
  8
0
 62
7
  6
CONTINUOUS
 10
159.8065543074
 20
31.626237886
 11
159.4596793074
 21
31.5939741996
  0
LINE
  8
0
 62
7
  6
CONTINUOUS
 10
154.7768668074
 20
31.2713373354
 11
154.4299918074
 21
31.2390736489
  0
LINE
  8
0
 62
7
  6
CONTINUOUS
 10
150.5565542799
 20
31.626237886
 11
150.2096793212
 21
31.5939741996
  0
LINE
  8
0
 62
7
  6
CONTINUOUS
 10
154.6612419177
 20
31.626237886
 11
154.2565543074
 21
31.5939741996
  0
LINE
  8
0
 62
7
  6
CONTINUOUS
 10
152.0327582009
 20
33.5446195022
 11
151.3770204959
 21
33.5446195022
  0
LINE
  8
0
 62
7
  6
CONTINUOUS
 10
157.4362415869
 20
31.400392081
 11
157.6096790869
 21
31.4649194539
  0
LINE
  8
0
 62
7
  6
CONTINUOUS
 10
159.4596793074
 20
31.4326557675
 11
159.575304528
 21
31.4649194539
  0
LINE
  8
0
 62
7
  6
CONTINUOUS
 10
159.4596793074
 20
31.5939741996
 11
159.228429528
 21
31.5294468267
  0
LINE
  8
0
 62
7
  6
CONTINUOUS
 10
155.1815540869
 20
30.7873819712
 11
154.8924916972
 21
30.7228545871
  0
LINE
  8
0
 62
7
  6
CONTINUOUS
 10
152.4643666972
 20
31.4649194539
 11
152.6956168074
 21
31.4971831403
  0
LINE
  8
0
 62
7
  6
CONTINUOUS
 10
152.6956168074
 20
31.626237886
 11
152.4643666972
 21
31.5939741996
  0
LINE
  8
0
 62
7
  6
CONTINUOUS
 10
150.2674918074
 20
31.4649194539
 11
150.498741835
 21
31.4971831403
  0
LINE
  8
0
 62
7
  6
CONTINUOUS
 10
156.7868565615
 20
35.0200293383
 11
157.4425942664
 21
35.0200293383
  0
LINE
  8
0
 62
7
  6
CONTINUOUS
 10
154.4299918074
 20
31.0777551716
 11
154.5456166972
 21
31.1100188581
  0
LINE
  8
0
 62
7
  6
CONTINUOUS
 10
154.4299918074
 20
31.2390736489
 11
154.1987416972
 21
31.1745462761
  0
LINE
  8
0
 62
7
  6
CONTINUOUS
 10
154.3143669177
 20
31.4326557675
 11
154.4299918074
 21
31.4649194539
  0
LINE
  8
0
 62
7
  6
CONTINUOUS
 10
150.9612418074
 20
30.6260635193
 11
151.1924917523
 21
30.6905909007
  0
LINE
  8
0
 62
7
  6
CONTINUOUS
 10
154.2565543074
 20
31.5939741996
 11
154.1409294177
 21
31.5617105132
  0
LINE
  8
0
 62
7
  6
CONTINUOUS
 10
150.2096793212
 20
31.5939741996
 11
150.0362418212
 21
31.5617105132
  0
LINE
  8
0
 62
7
  6
CONTINUOUS
 10
160.9671844304
 20
36.1675703219
 11
159.5737418074
 21
36.1675703219
  0
LINE
  8
0
 62
7
  6
CONTINUOUS
 10
157.6065286927
 20
36.1675703219
 11
157.1939573441
 21
36.1675703219
  0
LINE
  8
0
 62
7
  6
CONTINUOUS
 10
155.9671844304
 20
36.1675703219
 11
154.5737418074
 21
36.1675703219
  0
LINE
  8
0
 62
7
  6
CONTINUOUS
 10
154.245872955
 20
36.1675703219
 11
152.852430332
 21
36.1675703219
  0
LINE
  8
0
 62
7
  6
CONTINUOUS
 10
150.9671844304
 20
36.1675703219
 11
149.5737418074
 21
36.1675703219
  0
LINE
  8
0
 62
7
  6
CONTINUOUS
 10
150.1518667936
 20
31.4326557675
 11
150.2674918074
 21
31.4649194539
  0
CIRCLE
  8
0
 62
7
  6
CONTINUOUS
 10
160.2704631189
 20
38.5036358957
 40
2.0901639344
  0
ARC
  8
0
 62
7
  6
CONTINUOUS
 10
151.2130860697
 20
34.0364227809
 40
1.6393442623
 50
180.0
 51
270.0
  0
ARC
  8
0
 62
7
  6
CONTINUOUS
 10
157.6065286927
 20
34.5282260596
 40
1.6393442623
 50
0.0
 51
90.0
  0
ARC
  8
0
 62
7
  6
CONTINUOUS
 10
151.6256574183
 20
33.8724883547
 40
1.4754098361
 50
270.0
 51
326.2510114041
  0
ARC
  8
0
 62
7
  6
CONTINUOUS
 10
157.1939573441
 20
34.6921604858
 40
1.4754098361
 50
90.0
 51
146.2510114041
  0
ARC
  8
0
 62
7
  6
CONTINUOUS
 10
152.0327582009
 20
34.3642916334
 40
0.8196721311
 50
270.0
 51
360.0
  0
ARC
  8
0
 62
7
  6
CONTINUOUS
 10
156.7868565615
 20
34.2003572071
 40
0.8196721311
 50
90.0
 51
180.0
  0
ARC
  8
0
 62
7
  6
CONTINUOUS
 10
151.3770204959
 20
33.9544555678
 40
0.4098360656
 50
180.0
 51
270.0
  0
ARC
  8
0
 62
7
  6
CONTINUOUS
 10
157.4425942664
 20
34.6101932727
 40
0.4098360656
 50
0.0
 51
90.0
  0
SOLID
  8
0
 62
7
  6
CONTINUOUS
 10
156.279992028
 20
31.9488752009
 11
156.279992028
 21
32.1101936845
 12
156.5690540869
 22
31.9488752009
 13
156.5690540869
 23
32.1101936845
  0
SOLID
  8
0
 62
7
  6
CONTINUOUS
 10
150.5565542799
 20
31.6262382337
 11
150.9612418074
 21
31.5939740028
 12
150.2096793212
 22
31.5939740028
 13
150.2096793212
 23
31.5939740028
  0
SOLID
  8
0
 62
7
  6
CONTINUOUS
 10
150.0362418212
 20
31.5617111435
 11
150.2096793212
 21
31.5939740028
 12
150.9612418074
 22
31.5939740028
 13
150.9612418074
 23
31.5939740028
  0
SOLID
  8
0
 62
7
  6
CONTINUOUS
 10
150.9612418074
 20
31.5939740028
 11
151.1924917523
 21
31.5294468402
 12
150.0362418212
 22
31.5617111435
 13
150.0362418212
 23
31.5617111435
  0
SOLID
  8
0
 62
7
  6
CONTINUOUS
 10
149.8628043005
 20
31.49718259
 11
150.0362418212
 21
31.5617111435
 12
151.1924917523
 22
31.5294468402
 13
151.1924917523
 23
31.5294468402
  0
SOLID
  8
0
 62
7
  6
CONTINUOUS
 10
149.8628043005
 20
31.49718259
 11
151.1924917523
 21
31.5294468402
 12
150.498741835
 22
31.49718259
 13
150.498741835
 23
31.49718259
  0
SOLID
  8
0
 62
7
  6
CONTINUOUS
 10
150.498741835
 20
31.49718259
 11
151.1924917523
 21
31.5294468402
 12
150.9034292799
 22
31.4649197501
 13
150.9034292799
 23
31.4649197501
  0
SOLID
  8
0
 62
7
  6
CONTINUOUS
 10
151.1924917523
 20
31.5294468402
 11
151.3659292523
 21
31.4326554468
 12
150.9034292799
 22
31.4649197501
 13
150.9034292799
 23
31.4649197501
  0
SOLID
  8
0
 62
7
  6
CONTINUOUS
 10
151.0768668626
 20
31.4003926599
 11
150.9034292799
 21
31.4649197501
 12
151.3659292523
 22
31.4326554468
 13
151.3659292523
 23
31.4326554468
  0
SOLID
  8
0
 62
7
  6
CONTINUOUS
 10
151.0768668626
 20
31.4003926599
 11
151.3659292523
 21
31.4326554468
 12
151.1346793074
 22
31.3036013776
 13
151.1346793074
 23
31.3036013776
  0
SOLID
  8
0
 62
7
  6
CONTINUOUS
 10
151.3659292523
 20
31.4326554468
 11
151.4237418626
 21
31.3036013776
 12
151.1346793074
 22
31.3036013776
 13
151.1346793074
 23
31.3036013776
  0
SOLID
  8
0
 62
7
  6
CONTINUOUS
 10
152.4643666972
 20
31.5939739754
 11
152.6956168074
 21
31.6262382787
 12
152.9268669177
 22
31.6262382787
 13
152.9268669177
 23
31.6262382787
  0
SOLID
  8
0
 62
7
  6
CONTINUOUS
 10
152.9268669177
 20
31.6262382787
 11
153.1003044177
 21
31.5939739754
 12
152.4643666972
 22
31.5939739754
 13
152.4643666972
 23
31.5939739754
  0
SOLID
  8
0
 62
7
  6
CONTINUOUS
 10
152.2909293626
 20
31.5294468852
 11
152.4643666972
 21
31.5939739754
 12
153.1003044177
 22
31.5939739754
 13
153.1003044177
 23
31.5939739754
  0
SOLID
  8
0
 62
7
  6
CONTINUOUS
 10
153.1003044177
 20
31.5939739754
 11
153.2737419177
 21
31.5294468852
 12
152.2909293626
 22
31.5294468852
 13
152.2909293626
 23
31.5294468852
  0
SOLID
  8
0
 62
7
  6
CONTINUOUS
 10
153.2737419177
 20
31.5294468852
 11
152.6956168074
 21
31.4971825369
 12
152.2909293626
 22
31.5294468852
 13
152.2909293626
 23
31.5294468852
  0
SOLID
  8
0
 62
7
  6
CONTINUOUS
 10
152.1753043074
 20
31.4649197951
 11
152.2909293626
 21
31.5294468852
 12
152.6956168074
 22
31.4971825369
 13
152.6956168074
 23
31.4971825369
  0
SOLID
  8
0
 62
7
  6
CONTINUOUS
 10
152.6956168074
 20
31.4971825369
 11
152.4643666972
 21
31.4649197951
 12
152.1753043074
 22
31.4649197951
 13
152.1753043074
 23
31.4649197951
  0
SOLID
  8
0
 62
7
  6
CONTINUOUS
 10
152.6956168074
 20
31.4971825369
 11
153.2737419177
 21
31.5294468852
 12
152.9268669177
 22
31.4649197951
 13
152.9268669177
 23
31.4649197951
  0
SOLID
  8
0
 62
7
  6
CONTINUOUS
 10
153.2737419177
 20
31.5294468852
 11
153.3893668074
 21
31.4649197951
 12
152.9268669177
 22
31.4649197951
 13
152.9268669177
 23
31.4649197951
  0
SOLID
  8
0
 62
7
  6
CONTINUOUS
 10
153.0424918074
 20
31.4326554468
 11
152.9268669177
 21
31.4649197951
 12
153.3893668074
 22
31.4649197951
 13
153.3893668074
 23
31.4649197951
  0
SOLID
  8
0
 62
7
  6
CONTINUOUS
 10
153.3893668074
 20
31.4649197951
 11
153.4471794177
 21
31.4003927049
 12
153.0424918074
 22
31.4326554468
 13
153.0424918074
 23
31.4326554468
  0
SOLID
  8
0
 62
7
  6
CONTINUOUS
 10
153.1581166972
 20
31.3681283566
 11
153.0424918074
 21
31.4326554468
 12
153.4471794177
 22
31.4003927049
 13
153.4471794177
 23
31.4003927049
  0
SOLID
  8
0
 62
7
  6
CONTINUOUS
 10
153.1581166972
 20
31.3681283566
 11
153.4471794177
 21
31.4003927049
 12
153.2159293074
 22
31.2390742213
 13
153.2159293074
 23
31.2390742213
  0
SOLID
  8
0
 62
7
  6
CONTINUOUS
 10
153.4471794177
 20
31.4003927049
 11
153.5049916972
 21
31.2390742213
 12
153.2159293074
 22
31.2390742213
 13
153.2159293074
 23
31.2390742213
  0
SOLID
  8
0
 62
7
  6
CONTINUOUS
 10
152.4643666972
 20
31.4649197951
 11
152.2909293626
 21
31.4003927049
 12
152.1753043074
 22
31.4649197951
 13
152.1753043074
 23
31.4649197951
  0
SOLID
  8
0
 62
7
  6
CONTINUOUS
 10
152.2909293626
 20
31.4003927049
 11
152.1753043074
 21
31.3358640533
 12
152.1753043074
 22
31.4649197951
 13
152.1753043074
 23
31.4649197951
  0
SOLID
  8
0
 62
7
  6
CONTINUOUS
 10
152.1753043074
 20
31.3358640533
 11
151.8862417523
 21
30.5938002869
 12
152.1753043074
 22
31.4649197951
 13
152.1753043074
 23
31.4649197951
  0
SOLID
  8
0
 62
7
  6
CONTINUOUS
 10
152.1753043074
 20
31.4649197951
 11
151.8862417523
 21
30.5938002869
 12
152.1753043074
 22
32.1101937295
 13
152.1753043074
 23
32.1101937295
  0
SOLID
  8
0
 62
7
  6
CONTINUOUS
 10
151.8862417523
 20
30.5938002869
 11
151.8862417523
 21
32.1101937295
 12
152.1753043074
 22
32.1101937295
 13
152.1753043074
 23
32.1101937295
  0
SOLID
  8
0
 62
7
  6
CONTINUOUS
 10
152.1753043074
 20
31.3358640533
 11
152.1753043074
 21
30.5938002869
 12
151.8862417523
 22
30.5938002869
 13
151.8862417523
 23
30.5938002869
  0
SOLID
  8
0
 62
7
  6
CONTINUOUS
 10
153.2159293074
 20
30.5938002869
 11
153.2159293074
 21
31.2390742213
 12
153.5049916972
 22
31.2390742213
 13
153.5049916972
 23
31.2390742213
  0
SOLID
  8
0
 62
7
  6
CONTINUOUS
 10
153.5049916972
 20
31.2390742213
 11
153.5049916972
 21
30.5938002869
 12
153.2159293074
 22
30.5938002869
 13
153.2159293074
 23
30.5938002869
  0
SOLID
  8
0
 62
7
  6
CONTINUOUS
 10
154.2565543074
 20
31.5939738288
 11
154.6612419177
 21
31.6262385959
 12
155.0081169177
 22
31.6262385959
 13
155.0081169177
 23
31.6262385959
  0
SOLID
  8
0
 62
7
  6
CONTINUOUS
 10
155.0081169177
 20
31.6262385959
 11
155.3549915869
 21
31.5939738288
 12
154.2565543074
 22
31.5939738288
 13
154.2565543074
 23
31.5939738288
  0
SOLID
  8
0
 62
7
  6
CONTINUOUS
 10
154.1409294177
 20
31.5617111435
 11
154.2565543074
 21
31.5939738288
 12
155.3549915869
 22
31.5939738288
 13
155.3549915869
 23
31.5939738288
  0
SOLID
  8
0
 62
7
  6
CONTINUOUS
 10
155.3549915869
 20
31.5939738288
 11
155.5284290869
 21
31.5294468402
 12
154.1409294177
 22
31.5617111435
 13
154.1409294177
 23
31.5617111435
  0
SOLID
  8
0
 62
7
  6
CONTINUOUS
 10
154.0253041972
 20
31.4971826249
 11
154.1409294177
 21
31.5617111435
 12
155.5284290869
 22
31.5294468402
 13
155.5284290869
 23
31.5294468402
  0
SOLID
  8
0
 62
7
  6
CONTINUOUS
 10
154.0253041972
 20
31.4971826249
 11
155.5284290869
 21
31.5294468402
 12
154.6612419177
 22
31.4971826249
 13
154.6612419177
 23
31.4971826249
  0
SOLID
  8
0
 62
7
  6
CONTINUOUS
 10
154.6612419177
 20
31.4971826249
 11
155.5284290869
 21
31.5294468402
 12
155.0081169177
 22
31.4971826249
 13
155.0081169177
 23
31.4971826249
  0
SOLID
  8
0
 62
7
  6
CONTINUOUS
 10
155.0081169177
 20
31.4971826249
 11
155.5284290869
 21
31.5294468402
 12
155.239367028
 22
31.4649194065
 13
155.239367028
 23
31.4649194065
  0
SOLID
  8
0
 62
7
  6
CONTINUOUS
 10
155.5284290869
 20
31.5294468402
 11
155.6440543074
 21
31.4649194065
 12
155.239367028
 22
31.4649194065
 13
155.239367028
 23
31.4649194065
  0
SOLID
  8
0
 62
7
  6
CONTINUOUS
 10
153.9674919177
 20
31.4326554138
 11
154.0253041972
 21
31.4971826249
 12
154.6612419177
 22
31.4971826249
 13
154.6612419177
 23
31.4971826249
  0
SOLID
  8
0
 62
7
  6
CONTINUOUS
 10
155.3549915869
 20
31.4326554138
 11
155.239367028
 21
31.4649194065
 12
155.6440543074
 22
31.4649194065
 13
155.6440543074
 23
31.4649194065
  0
SOLID
  8
0
 62
7
  6
CONTINUOUS
 10
155.3549915869
 20
31.4326554138
 11
155.6440543074
 21
31.4649194065
 12
155.412804528
 22
31.3681282026
 13
155.412804528
 23
31.3681282026
  0
SOLID
  8
0
 62
7
  6
CONTINUOUS
 10
155.6440543074
 20
31.4649194065
 11
155.7018665869
 21
31.3681282026
 12
155.412804528
 22
31.3681282026
 13
155.412804528
 23
31.3681282026
  0
SOLID
  8
0
 62
7
  6
CONTINUOUS
 10
155.412804528
 20
31.2713369632
 11
155.412804528
 21
31.3681282026
 12
155.7018665869
 22
31.3681282026
 13
155.7018665869
 23
31.3681282026
  0
SOLID
  8
0
 62
7
  6
CONTINUOUS
 10
155.412804528
 20
31.2713369632
 11
155.7018665869
 21
31.3681282026
 12
155.412804528
 22
31.1422827828
 13
155.412804528
 23
31.1422827828
  0
SOLID
  8
0
 62
7
  6
CONTINUOUS
 10
155.412804528
 20
31.1422827828
 11
155.7018665869
 21
31.3681282026
 12
155.412804528
 22
30.9487004259
 13
155.412804528
 23
30.9487004259
  0
SOLID
  8
0
 62
7
  6
CONTINUOUS
 10
155.7018665869
 20
31.3681282026
 11
155.7018665869
 21
30.8519086025
 12
155.412804528
 22
30.9487004259
 13
155.412804528
 23
30.9487004259
  0
SOLID
  8
0
 62
7
  6
CONTINUOUS
 10
157.6096790869
 20
31.5939736268
 11
157.840929528
 21
31.6262383465
 12
158.0721793074
 22
31.6262383465
 13
158.0721793074
 23
31.6262383465
  0
SOLID
  8
0
 62
7
  6
CONTINUOUS
 10
158.0721793074
 20
31.6262383465
 11
158.2456168074
 21
31.5939736268
 12
157.6096790869
 22
31.5939736268
 13
157.6096790869
 23
31.5939736268
  0
SOLID
  8
0
 62
7
  6
CONTINUOUS
 10
157.4362415869
 20
31.5294472848
 11
157.6096790869
 21
31.5939736268
 12
158.2456168074
 22
31.5939736268
 13
158.2456168074
 23
31.5939736268
  0
SOLID
  8
0
 62
7
  6
CONTINUOUS
 10
158.2456168074
 20
31.5939736268
 11
158.4190543074
 21
31.5294472848
 12
157.4362415869
 22
31.5294472848
 13
157.4362415869
 23
31.5294472848
  0
SOLID
  8
0
 62
7
  6
CONTINUOUS
 10
158.4190543074
 20
31.5294472848
 11
157.840929528
 21
31.4971825369
 12
157.4362415869
 22
31.5294472848
 13
157.4362415869
 23
31.5294472848
  0
SOLID
  8
0
 62
7
  6
CONTINUOUS
 10
157.320617028
 20
31.4649199103
 11
157.4362415869
 21
31.5294472848
 12
157.840929528
 22
31.4971825369
 13
157.840929528
 23
31.4971825369
  0
SOLID
  8
0
 62
7
  6
CONTINUOUS
 10
157.840929528
 20
31.4971825369
 11
157.6096790869
 21
31.4649199103
 12
157.320617028
 22
31.4649199103
 13
157.320617028
 23
31.4649199103
  0
SOLID
  8
0
 62
7
  6
CONTINUOUS
 10
157.840929528
 20
31.4971825369
 11
158.4190543074
 21
31.5294472848
 12
158.0721793074
 22
31.4649199103
 13
158.0721793074
 23
31.4649199103
  0
SOLID
  8
0
 62
7
  6
CONTINUOUS
 10
158.4190543074
 20
31.5294472848
 11
158.534679528
 21
31.4649199103
 12
158.0721793074
 22
31.4649199103
 13
158.0721793074
 23
31.4649199103
  0
SOLID
  8
0
 62
7
  6
CONTINUOUS
 10
158.187804528
 20
31.4326554468
 11
158.0721793074
 21
31.4649199103
 12
158.534679528
 22
31.4649199103
 13
158.534679528
 23
31.4649199103
  0
SOLID
  8
0
 62
7
  6
CONTINUOUS
 10
158.187804528
 20
31.4326554468
 11
158.534679528
 21
31.4649199103
 12
158.3034290869
 22
31.3681288486
 13
158.3034290869
 23
31.3681288486
  0
SOLID
  8
0
 62
7
  6
CONTINUOUS
 10
158.534679528
 20
31.4649199103
 11
158.5924918074
 21
31.3681288486
 12
158.3034290869
 22
31.3681288486
 13
158.3034290869
 23
31.3681288486
  0
SOLID
  8
0
 62
7
  6
CONTINUOUS
 10
158.361242028
 20
31.2068093799
 11
158.3034290869
 21
31.3681288486
 12
158.5924918074
 22
31.3681288486
 13
158.5924918074
 23
31.3681288486
  0
SOLID
  8
0
 62
7
  6
CONTINUOUS
 10
158.5924918074
 20
31.3681288486
 11
158.6503040869
 21
31.2068093799
 12
158.361242028
 22
31.2068093799
 13
158.361242028
 23
31.2068093799
  0
SOLID
  8
0
 62
7
  6
CONTINUOUS
 10
157.6096790869
 20
31.4649199103
 11
157.4362415869
 21
31.4003926599
 12
157.320617028
 22
31.4649199103
 13
157.320617028
 23
31.4649199103
  0
SOLID
  8
0
 62
7
  6
CONTINUOUS
 10
157.4362415869
 20
31.4003926599
 11
157.320617028
 21
31.3358640533
 12
157.320617028
 22
31.4649199103
 13
157.320617028
 23
31.4649199103
  0
SOLID
  8
0
 62
7
  6
CONTINUOUS
 10
157.320617028
 20
31.3358640533
 11
157.0315543074
 21
30.5938003547
 12
157.320617028
 22
31.4649199103
 13
157.320617028
 23
31.4649199103
  0
SOLID
  8
0
 62
7
  6
CONTINUOUS
 10
157.320617028
 20
31.4649199103
 11
157.0315543074
 21
30.5938003547
 12
157.320617028
 22
31.6262383465
 13
157.320617028
 23
31.6262383465
  0
SOLID
  8
0
 62
7
  6
CONTINUOUS
 10
157.0315543074
 20
30.5938003547
 11
157.0315543074
 21
31.6262383465
 12
157.320617028
 22
31.6262383465
 13
157.320617028
 23
31.6262383465
  0
SOLID
  8
0
 62
7
  6
CONTINUOUS
 10
157.320617028
 20
31.3358640533
 11
157.320617028
 21
30.5938003547
 12
157.0315543074
 22
30.5938003547
 13
157.0315543074
 23
30.5938003547
  0
SOLID
  8
0
 62
7
  6
CONTINUOUS
 10
158.361242028
 20
30.5938003547
 11
158.361242028
 21
31.2068093799
 12
158.6503040869
 22
31.2068093799
 13
158.6503040869
 23
31.2068093799
  0
SOLID
  8
0
 62
7
  6
CONTINUOUS
 10
158.6503040869
 20
31.2068093799
 11
158.6503040869
 21
30.5938003547
 12
158.361242028
 22
30.5938003547
 13
158.361242028
 23
30.5938003547
  0
SOLID
  8
0
 62
7
  6
CONTINUOUS
 10
159.4596793074
 20
31.5939739474
 11
159.8065543074
 21
31.6262381969
 12
160.1534293074
 22
31.6262381969
 13
160.1534293074
 23
31.6262381969
  0
SOLID
  8
0
 62
7
  6
CONTINUOUS
 10
160.1534293074
 20
31.6262381969
 11
160.5003043074
 21
31.5939739474
 12
159.4596793074
 22
31.5939739474
 13
159.4596793074
 23
31.5939739474
  0
SOLID
  8
0
 62
7
  6
CONTINUOUS
 10
159.228429528
 20
31.5294468402
 11
159.4596793074
 21
31.5939739474
 12
160.5003043074
 22
31.5939739474
 13
160.5003043074
 23
31.5939739474
  0
SOLID
  8
0
 62
7
  6
CONTINUOUS
 10
159.228429528
 20
31.5294468402
 11
160.5003043074
 21
31.5939739304
 12
160.6737418074
 22
31.5617111435
 13
160.6737418074
 23
31.5617111435
  0
SOLID
  8
0
 62
7
  6
CONTINUOUS
 10
159.228429528
 20
31.5294468402
 11
160.6737418074
 21
31.5617111435
 12
159.8065543074
 22
31.4971825592
 13
159.8065543074
 23
31.4971825592
  0
SOLID
  8
0
 62
7
  6
CONTINUOUS
 10
159.8065543074
 20
31.4971825592
 11
160.6737418074
 21
31.5617111435
 12
160.1534293074
 22
31.4971825592
 13
160.1534293074
 23
31.4971825592
  0
SOLID
  8
0
 62
7
  6
CONTINUOUS
 10
160.6737418074
 20
31.5617111435
 11
160.8471793074
 21
31.4971825592
 12
160.1534293074
 22
31.4971825592
 13
160.1534293074
 23
31.4971825592
  0
SOLID
  8
0
 62
7
  6
CONTINUOUS
 10
160.5003043074
 20
31.4649197501
 11
160.1534293074
 21
31.4971825592
 12
160.8471793074
 22
31.4971825592
 13
160.8471793074
 23
31.4971825592
  0
SOLID
  8
0
 62
7
  6
CONTINUOUS
 10
159.1128043074
 20
31.4326555427
 11
159.228429528
 21
31.5294468402
 12
159.8065543074
 22
31.4971825592
 13
159.8065543074
 23
31.4971825592
  0
SOLID
  8
0
 62
7
  6
CONTINUOUS
 10
160.5003043074
 20
31.4649197501
 11
160.8471793074
 21
31.4971825592
 12
160.615929528
 22
31.4326555427
 13
160.615929528
 23
31.4326555427
  0
SOLID
  8
0
 62
7
  6
CONTINUOUS
 10
160.615929528
 20
31.4326555427
 11
160.8471793074
 21
31.4971825592
 12
160.6737418074
 22
31.3681283005
 13
160.6737418074
 23
31.3681283005
  0
SOLID
  8
0
 62
7
  6
CONTINUOUS
 10
160.8471793074
 20
31.4971825592
 11
160.9628038663
 21
31.3681283005
 12
160.6737418074
 22
31.3681283005
 13
160.6737418074
 23
31.3681283005
  0
SOLID
  8
0
 62
7
  6
CONTINUOUS
 10
150.2674918074
 20
31.4649197501
 11
149.7471793074
 21
31.4326554237
 12
150.498741835
 22
31.4971824493
 13
150.498741835
 23
31.4971824493
  0
SOLID
  8
0
 62
7
  6
CONTINUOUS
 10
149.7471793074
 20
31.4326554237
 11
149.8628043005
 21
31.4971824493
 12
150.498741835
 22
31.4971824493
 13
150.498741835
 23
31.4971824493
  0
SOLID
  8
0
 62
7
  6
CONTINUOUS
 10
150.2674918074
 20
31.4649197501
 11
150.1518667936
 21
31.4326554237
 12
149.7471793074
 22
31.4326554237
 13
149.7471793074
 23
31.4326554237
  0
SOLID
  8
0
 62
7
  6
CONTINUOUS
 10
149.6315543091
 20
31.3036012664
 11
149.7471793074
 21
31.4326554237
 12
150.1518667936
 22
31.4326554237
 13
150.1518667936
 23
31.4326554237
  0
SOLID
  8
0
 62
7
  6
CONTINUOUS
 10
153.9674919177
 20
31.4326554237
 11
154.6612419177
 21
31.4971825369
 12
154.4299918074
 22
31.4649197501
 13
154.4299918074
 23
31.4649197501
  0
SOLID
  8
0
 62
7
  6
CONTINUOUS
 10
154.4299918074
 20
31.4649197501
 11
154.3143669177
 21
31.4326554237
 12
153.9674919177
 22
31.4326554237
 13
153.9674919177
 23
31.4326554237
  0
SOLID
  8
0
 62
7
  6
CONTINUOUS
 10
153.9674919177
 20
31.3681283335
 11
153.9674919177
 21
31.4326554237
 12
154.3143669177
 22
31.4326554237
 13
154.3143669177
 23
31.4326554237
  0
SOLID
  8
0
 62
7
  6
CONTINUOUS
 10
154.3143669177
 20
31.4326554237
 11
154.2565543074
 21
31.3681283335
 12
153.9674919177
 22
31.3681283335
 13
153.9674919177
 23
31.3681283335
  0
SOLID
  8
0
 62
7
  6
CONTINUOUS
 10
159.1128043074
 20
31.4326555528
 11
159.8065543074
 21
31.4971825369
 12
159.575304528
 22
31.4649197501
 13
159.575304528
 23
31.4649197501
  0
SOLID
  8
0
 62
7
  6
CONTINUOUS
 10
159.575304528
 20
31.4649197501
 11
159.4596793074
 21
31.4326555528
 12
159.1128043074
 22
31.4326555528
 13
159.1128043074
 23
31.4326555528
  0
SOLID
  8
0
 62
7
  6
CONTINUOUS
 10
159.1128043074
 20
31.3681284626
 11
159.1128043074
 21
31.4326555528
 12
159.4596793074
 22
31.4326555528
 13
159.4596793074
 23
31.4326555528
  0
SOLID
  8
0
 62
7
  6
CONTINUOUS
 10
159.4596793074
 20
31.4326555528
 11
159.401867028
 21
31.3681284626
 12
159.1128043074
 22
31.3681284626
 13
159.1128043074
 23
31.3681284626
  0
SOLID
  8
0
 62
7
  6
CONTINUOUS
 10
159.228429528
 20
31.2390741763
 11
159.1128043074
 21
31.3681284626
 12
159.401867028
 22
31.3681284626
 13
159.401867028
 23
31.3681284626
  0
SOLID
  8
0
 62
7
  6
CONTINUOUS
 10
149.6315543091
 20
31.3036012664
 11
150.1518667936
 21
31.4326554468
 12
149.9784292936
 22
31.3358640533
 13
149.9784292936
 23
31.3358640533
  0
SOLID
  8
0
 62
7
  6
CONTINUOUS
 10
149.9784292936
 20
31.3358640533
 11
149.9206168074
 21
31.2713369632
 12
149.6315543091
 22
31.3036012664
 13
149.6315543091
 23
31.3036012664
  0
SOLID
  8
0
 62
7
  6
CONTINUOUS
 10
149.5737418074
 20
31.1100184796
 11
149.6315543091
 21
31.3036012664
 12
149.9206168074
 22
31.2713369632
 13
149.9206168074
 23
31.2713369632
  0
SOLID
  8
0
 62
7
  6
CONTINUOUS
 10
154.4299918074
 20
31.2390741763
 11
154.7768668074
 21
31.271336924
 12
155.412804528
 22
31.271336924
 13
155.412804528
 23
31.271336924
  0
SOLID
  8
0
 62
7
  6
CONTINUOUS
 10
154.4299918074
 20
31.2390741763
 11
155.412804528
 21
31.271336924
 12
154.1987416972
 22
31.1745462761
 13
154.1987416972
 23
31.1745462761
  0
SOLID
  8
0
 62
7
  6
CONTINUOUS
 10
154.1987416972
 20
31.1745462761
 11
155.412804528
 21
31.271336924
 12
154.7768668074
 22
31.1422827436
 13
154.7768668074
 23
31.1422827436
  0
SOLID
  8
0
 62
7
  6
CONTINUOUS
 10
155.412804528
 20
31.271336924
 11
155.412804528
 21
31.1422827436
 12
154.7768668074
 22
31.1422827436
 13
154.7768668074
 23
31.1422827436
  0
SOLID
  8
0
 62
7
  6
CONTINUOUS
 10
159.228429528
 20
31.2390745501
 11
159.401867028
 21
31.3681283566
 12
159.4596793074
 22
31.3036012664
 13
159.4596793074
 23
31.3036012664
  0
SOLID
  8
0
 62
7
  6
CONTINUOUS
 10
159.4596793074
 20
31.3036012664
 11
159.6331168074
 21
31.2390745501
 12
159.228429528
 22
31.2390745501
 13
159.228429528
 23
31.2390745501
  0
SOLID
  8
0
 62
7
  6
CONTINUOUS
 10
159.4596793074
 20
31.1422827828
 11
159.228429528
 21
31.2390745501
 12
159.6331168074
 22
31.2390745501
 13
159.6331168074
 23
31.2390745501
  0
SOLID
  8
0
 62
7
  6
CONTINUOUS
 10
159.6331168074
 20
31.2390745501
 11
160.615929528
 21
31.0777556927
 12
159.4596793074
 22
31.1422827828
 13
159.4596793074
 23
31.1422827828
  0
SOLID
  8
0
 62
7
  6
CONTINUOUS
 10
160.442492028
 20
30.9809646623
 11
159.4596793074
 21
31.1422827828
 12
160.615929528
 22
31.0777556927
 13
160.615929528
 23
31.0777556927
  0
SOLID
  8
0
 62
7
  6
CONTINUOUS
 10
160.615929528
 20
31.0777556927
 11
160.8471793074
 21
30.9809646623
 12
160.442492028
 22
30.9809646623
 13
160.442492028
 23
30.9809646623
  0
SOLID
  8
0
 62
7
  6
CONTINUOUS
 10
160.615929528
 20
30.9164372091
 11
160.442492028
 21
30.9809646623
 12
160.8471793074
 22
30.9809646623
 13
160.8471793074
 23
30.9809646623
  0
SOLID
  8
0
 62
7
  6
CONTINUOUS
 10
160.615929528
 20
30.9164372091
 11
160.8471793074
 21
30.9809646623
 12
160.6737418074
 22
30.8519089441
 13
160.6737418074
 23
30.8519089441
  0
SOLID
  8
0
 62
7
  6
CONTINUOUS
 10
160.8471793074
 20
30.9809646623
 11
160.9628038663
 21
30.8519089441
 12
160.6737418074
 22
30.8519089441
 13
160.6737418074
 23
30.8519089441
  0
SOLID
  8
0
 62
7
  6
CONTINUOUS
 10
160.615929528
 20
30.7873818593
 11
160.6737418074
 21
30.8519089441
 12
160.9628038663
 22
30.8519089441
 13
160.9628038663
 23
30.8519089441
  0
SOLID
  8
0
 62
7
  6
CONTINUOUS
 10
160.9628038663
 20
30.8519089441
 11
160.9628038663
 21
30.7873818593
 12
160.615929528
 22
30.7873818593
 13
160.615929528
 23
30.7873818593
  0
SOLID
  8
0
 62
7
  6
CONTINUOUS
 10
160.5003043074
 20
30.7551187255
 11
160.615929528
 21
30.7873818593
 12
160.9628038663
 22
30.7873818593
 13
160.9628038663
 23
30.7873818593
  0
SOLID
  8
0
 62
7
  6
CONTINUOUS
 10
160.5003043074
 20
30.7551187255
 11
160.9628038663
 21
30.7873818593
 12
160.269054528
 22
30.7228547745
 13
160.269054528
 23
30.7228547745
  0
SOLID
  8
0
 62
7
  6
CONTINUOUS
 10
160.9628038663
 20
30.7873818593
 11
160.8471793074
 21
30.6905916353
 12
160.269054528
 22
30.7228547745
 13
160.269054528
 23
30.7228547745
  0
SOLID
  8
0
 62
7
  6
CONTINUOUS
 10
160.8471793074
 20
30.6905916353
 11
159.401867028
 21
30.658327332
 12
160.269054528
 22
30.7228547745
 13
160.269054528
 23
30.7228547745
  0
SOLID
  8
0
 62
7
  6
CONTINUOUS
 10
160.269054528
 20
30.7228547745
 11
159.401867028
 21
30.658327332
 12
159.922179528
 22
30.7228547745
 13
159.922179528
 23
30.7228547745
  0
SOLID
  8
0
 62
7
  6
CONTINUOUS
 10
159.401867028
 20
30.658327332
 11
159.228429528
 21
30.7228547745
 12
159.922179528
 22
30.7228547745
 13
159.922179528
 23
30.7228547745
  0
SOLID
  8
0
 62
7
  6
CONTINUOUS
 10
159.401867028
 20
30.658327332
 11
160.8471793074
 21
30.6905916353
 12
159.575304528
 22
30.6260629858
 13
159.575304528
 23
30.6260629858
  0
SOLID
  8
0
 62
7
  6
CONTINUOUS
 10
160.8471793074
 20
30.6905916353
 11
160.615929528
 21
30.6260629858
 12
159.575304528
 22
30.6260629858
 13
159.575304528
 23
30.6260629858
  0
SOLID
  8
0
 62
7
  6
CONTINUOUS
 10
159.922179528
 20
30.5938006049
 11
159.575304528
 21
30.6260629858
 12
160.615929528
 22
30.6260629858
 13
160.615929528
 23
30.6260629858
  0
SOLID
  8
0
 62
7
  6
CONTINUOUS
 10
160.615929528
 20
30.6260629858
 11
160.269054528
 21
30.5938006049
 12
159.922179528
 22
30.5938006049
 13
159.922179528
 23
30.5938006049
  0
SOLID
  8
0
 62
7
  6
CONTINUOUS
 10
149.5737418074
 20
31.1100184796
 11
149.9206168074
 21
31.2713369632
 12
149.8628043005
 22
31.1422827828
 13
149.8628043005
 23
31.1422827828
  0
SOLID
  8
0
 62
7
  6
CONTINUOUS
 10
149.8628043005
 20
31.1422827828
 11
149.8628043005
 21
31.0454914852
 12
149.5737418074
 22
31.1100184796
 13
149.5737418074
 23
31.1100184796
  0
SOLID
  8
0
 62
7
  6
CONTINUOUS
 10
149.6315543091
 20
30.9164372091
 11
149.5737418074
 21
31.1100184796
 12
149.8628043005
 22
31.0454914852
 13
149.8628043005
 23
31.0454914852
  0
SOLID
  8
0
 62
7
  6
CONTINUOUS
 10
149.8628043005
 20
31.0454914852
 11
149.9784292936
 21
30.8841729058
 12
149.6315543091
 22
30.9164372091
 13
149.6315543091
 23
30.9164372091
  0
SOLID
  8
0
 62
7
  6
CONTINUOUS
 10
149.7471793074
 20
30.7873813202
 11
149.6315543091
 21
30.9164372091
 12
149.9784292936
 22
30.8841729058
 13
149.9784292936
 23
30.8841729058
  0
SOLID
  8
0
 62
7
  6
CONTINUOUS
 10
149.9784292936
 20
30.8841729058
 11
150.1518667936
 21
30.7873813202
 12
149.7471793074
 22
30.7873813202
 13
149.7471793074
 23
30.7873813202
  0
SOLID
  8
0
 62
7
  6
CONTINUOUS
 10
149.8628043005
 20
30.7228547004
 11
149.7471793074
 21
30.7873813202
 12
150.1518667936
 22
30.7873813202
 13
150.1518667936
 23
30.7873813202
  0
SOLID
  8
0
 62
7
  6
CONTINUOUS
 10
150.1518667936
 20
30.7873813202
 11
150.498741835
 21
30.7228547004
 12
149.8628043005
 22
30.7228547004
 13
149.8628043005
 23
30.7228547004
  0
SOLID
  8
0
 62
7
  6
CONTINUOUS
 10
150.0362418212
 20
30.658327332
 11
149.8628043005
 21
30.7228547004
 12
150.498741835
 22
30.7228547004
 13
150.498741835
 23
30.7228547004
  0
SOLID
  8
0
 62
7
  6
CONTINUOUS
 10
154.0831168074
 20
31.1100184386
 11
154.1987416972
 21
31.1745462761
 12
154.7768668074
 22
31.1422827828
 13
154.7768668074
 23
31.1422827828
  0
SOLID
  8
0
 62
7
  6
CONTINUOUS
 10
154.7768668074
 20
31.1422827828
 11
154.5456166972
 21
31.1100184386
 12
154.0831168074
 22
31.1100184386
 13
154.0831168074
 23
31.1100184386
  0
SOLID
  8
0
 62
7
  6
CONTINUOUS
 10
153.9674919177
 20
30.9809642992
 11
154.0831168074
 21
31.1100184386
 12
154.5456166972
 22
31.1100184386
 13
154.5456166972
 23
31.1100184386
  0
SOLID
  8
0
 62
7
  6
CONTINUOUS
 10
154.3143669177
 20
31.0132277988
 11
153.9674919177
 21
30.9809642992
 12
154.4299918074
 22
31.0777556927
 13
154.4299918074
 23
31.0777556927
  0
SOLID
  8
0
 62
7
  6
CONTINUOUS
 10
153.9674919177
 20
30.9809642992
 11
154.5456166972
 21
31.1100184796
 12
154.4299918074
 22
31.0777556927
 13
154.4299918074
 23
31.0777556927
  0
SOLID
  8
0
 62
7
  6
CONTINUOUS
 10
154.3143669177
 20
31.0132277988
 11
154.2565543074
 21
30.9164372091
 12
153.9674919177
 22
30.9809642992
 13
153.9674919177
 23
30.9809642992
  0
SOLID
  8
0
 62
7
  6
CONTINUOUS
 10
153.9674919177
 20
30.8841729058
 11
153.9674919177
 21
30.9809642992
 12
154.2565543074
 22
30.9164372091
 13
154.2565543074
 23
30.9164372091
  0
SOLID
  8
0
 62
7
  6
CONTINUOUS
 10
154.2565543074
 20
30.9164372091
 11
154.2565543074
 21
30.8519086025
 12
153.9674919177
 22
30.8841729058
 13
153.9674919177
 23
30.8841729058
  0
SOLID
  8
0
 62
7
  6
CONTINUOUS
 10
154.0253041972
 20
30.7551187255
 11
153.9674919177
 21
30.8841729058
 12
154.2565543074
 22
30.8519086025
 13
154.2565543074
 23
30.8519086025
  0
SOLID
  8
0
 62
7
  6
CONTINUOUS
 10
155.412804528
 20
30.9487004259
 11
155.7018665869
 21
30.8519086025
 12
155.3549915869
 22
30.8841729058
 13
155.3549915869
 23
30.8841729058
  0
SOLID
  8
0
 62
7
  6
CONTINUOUS
 10
155.1815540869
 20
30.7873815123
 11
155.3549915869
 21
30.8841729058
 12
155.7018665869
 22
30.8519086025
 13
155.7018665869
 23
30.8519086025
  0
SOLID
  8
0
 62
7
  6
CONTINUOUS
 10
155.1815540869
 20
30.7873815123
 11
155.7018665869
 21
30.8519086025
 12
155.412804528
 22
30.7551187255
 13
155.412804528
 23
30.7551187255
  0
SOLID
  8
0
 62
7
  6
CONTINUOUS
 10
155.7018665869
 20
30.8519086025
 11
155.759679528
 21
30.6905916353
 12
155.412804528
 22
30.7551187255
 13
155.412804528
 23
30.7551187255
  0
SOLID
  8
0
 62
7
  6
CONTINUOUS
 10
155.4706168074
 20
30.658327332
 11
155.412804528
 21
30.7551187255
 12
155.759679528
 22
30.6905916353
 13
155.759679528
 23
30.6905916353
  0
SOLID
  8
0
 62
7
  6
CONTINUOUS
 10
155.4706168074
 20
30.658327332
 11
155.759679528
 21
30.6905916353
 12
155.5284290869
 22
30.5938002079
 13
155.5284290869
 23
30.5938002079
  0
SOLID
  8
0
 62
7
  6
CONTINUOUS
 10
155.759679528
 20
30.6905916353
 11
155.8174918074
 21
30.5938002079
 12
155.5284290869
 22
30.5938002079
 13
155.5284290869
 23
30.5938002079
  0
SOLID
  8
0
 62
7
  6
CONTINUOUS
 10
151.0768668626
 20
30.8196456577
 11
151.1346793074
 21
30.9164373395
 12
151.4237418626
 22
30.9164373395
 13
151.4237418626
 23
30.9164373395
  0
SOLID
  8
0
 62
7
  6
CONTINUOUS
 10
151.4237418626
 20
30.9164373395
 11
151.3659292523
 21
30.7873815123
 12
151.0768668626
 22
30.8196456577
 13
151.0768668626
 23
30.8196456577
  0
SOLID
  8
0
 62
7
  6
CONTINUOUS
 10
150.9034292799
 20
30.7551187255
 11
151.0768668626
 21
30.8196456577
 12
151.3659292523
 22
30.7873815123
 13
151.3659292523
 23
30.7873815123
  0
SOLID
  8
0
 62
7
  6
CONTINUOUS
 10
150.9034292799
 20
30.7551187255
 11
151.3659292523
 21
30.7873815123
 12
150.498741835
 22
30.7228544222
 13
150.498741835
 23
30.7228544222
  0
SOLID
  8
0
 62
7
  6
CONTINUOUS
 10
151.3659292523
 20
30.7873815123
 11
151.1924917523
 21
30.6905916353
 12
150.498741835
 22
30.7228544222
 13
150.498741835
 23
30.7228544222
  0
SOLID
  8
0
 62
7
  6
CONTINUOUS
 10
150.0362418212
 20
30.658327332
 11
150.498741835
 21
30.7228544222
 12
151.1924917523
 22
30.6905916353
 13
151.1924917523
 23
30.6905916353
  0
SOLID
  8
0
 62
7
  6
CONTINUOUS
 10
150.0362418212
 20
30.658327332
 11
151.1924917523
 21
30.6905916353
 12
150.2096793212
 22
30.6260631011
 13
150.2096793212
 23
30.6260631011
  0
SOLID
  8
0
 62
7
  6
CONTINUOUS
 10
151.1924917523
 20
30.6905916353
 11
150.9612418074
 21
30.6260631011
 12
150.2096793212
 22
30.6260631011
 13
150.2096793212
 23
30.6260631011
  0
SOLID
  8
0
 62
7
  6
CONTINUOUS
 10
150.5565542799
 20
30.5938002419
 11
150.2096793212
 21
30.6260631011
 12
150.9612418074
 22
30.6260631011
 13
150.9612418074
 23
30.6260631011
  0
SOLID
  8
0
 62
7
  6
CONTINUOUS
 10
154.0253041972
 20
30.7551187255
 11
154.2565543074
 21
30.8519086025
 12
154.3143669177
 22
30.7873815123
 13
154.3143669177
 23
30.7873815123
  0
SOLID
  8
0
 62
7
  6
CONTINUOUS
 10
154.3143669177
 20
30.7873815123
 11
154.5456166972
 21
30.7228544222
 12
154.0253041972
 22
30.7551187255
 13
154.0253041972
 23
30.7551187255
  0
SOLID
  8
0
 62
7
  6
CONTINUOUS
 10
154.1987416972
 20
30.658327332
 11
154.0253041972
 21
30.7551187255
 12
154.5456166972
 22
30.7228544222
 13
154.5456166972
 23
30.7228544222
  0
SOLID
  8
0
 62
7
  6
CONTINUOUS
 10
154.8924916972
 20
30.7228544637
 11
155.1815540869
 21
30.7873815123
 12
155.412804528
 22
30.7551187255
 13
155.412804528
 23
30.7551187255
  0
SOLID
  8
0
 62
7
  6
CONTINUOUS
 10
155.412804528
 20
30.7551187255
 11
155.3549915869
 21
30.6905916353
 12
154.8924916972
 22
30.7228544637
 13
154.8924916972
 23
30.7228544637
  0
SOLID
  8
0
 62
7
  6
CONTINUOUS
 10
155.3549915869
 20
30.6905916353
 11
154.1987416972
 21
30.658327332
 12
154.8924916972
 22
30.7228544637
 13
154.8924916972
 23
30.7228544637
  0
SOLID
  8
0
 62
7
  6
CONTINUOUS
 10
154.1987416972
 20
30.658327332
 11
154.5456166972
 21
30.7228544637
 12
154.8924916972
 22
30.7228544637
 13
154.8924916972
 23
30.7228544637
  0
SOLID
  8
0
 62
7
  6
CONTINUOUS
 10
154.1987416972
 20
30.658327332
 11
155.3549915869
 21
30.6905916353
 12
154.3143669177
 22
30.6260630541
 13
154.3143669177
 23
30.6260630541
  0
SOLID
  8
0
 62
7
  6
CONTINUOUS
 10
155.3549915869
 20
30.6905916353
 11
155.1815540869
 21
30.6260630541
 12
154.3143669177
 22
30.6260630541
 13
154.3143669177
 23
30.6260630541
  0
SOLID
  8
0
 62
7
  6
CONTINUOUS
 10
154.5456166972
 20
30.5938002188
 11
154.3143669177
 21
30.6260630541
 12
155.1815540869
 22
30.6260630541
 13
155.1815540869
 23
30.6260630541
  0
SOLID
  8
0
 62
7
  6
CONTINUOUS
 10
155.1815540869
 20
30.6260630541
 11
154.8924916972
 21
30.5938002188
 12
154.5456166972
 22
30.5938002188
 13
154.5456166972
 23
30.5938002188
  0
SOLID
  8
0
 62
7
  6
CONTINUOUS
 10
159.575304528
 20
30.7551187255
 11
159.228429528
 21
30.7228544637
 12
159.4596793074
 22
30.7873815123
 13
159.4596793074
 23
30.7873815123
  0
SOLID
  8
0
 62
7
  6
CONTINUOUS
 10
159.4596793074
 20
30.7873815123
 11
159.228429528
 21
30.7228544637
 12
159.401867028
 22
30.851908644
 13
159.401867028
 23
30.851908644
  0
SOLID
  8
0
 62
7
  6
CONTINUOUS
 10
159.228429528
 20
30.7228544637
 11
159.1128043074
 21
30.851908644
 12
159.401867028
 22
30.851908644
 13
159.401867028
 23
30.851908644
  0
SOLID
  8
0
 62
7
  6
CONTINUOUS
 10
159.575304528
 20
30.7551187255
 11
159.922179528
 21
30.7228544637
 12
159.228429528
 22
30.7228544637
 13
159.228429528
 23
30.7228544637
  0
SOLID
  8
0
 62
7
  6
CONTINUOUS
 10
156.279992028
 20
30.5938002419
 11
156.279992028
 21
31.6262382337
 12
156.5690540869
 22
30.5938002419
 13
156.5690540869
 23
31.6262382337
  0
ENDBLK
  8
0
  6
BYBLOCK
 62
0
  0
BLOCK
  8
0
 62
2
  6
CONTINUOUS
  2
AMMEAAL_LOGO_BL0
 70
64
 10
32.1213064866
 20
19.8534310916
  0
TEXT
  8
0
 62
7
  6
CONTINUOUS
 10
18.3860103289
 20
19.2268451992
  7
TEXTSTYLE_3
 40
2.7338706658
  1
Ammeraal Beltech
 41
1.0
 51
15.0
 72
0
  0
TEXT
  8
0
 62
7
  6
CONTINUOUS
 10
29.1868111546
 20
16.9533085264
  7
TEXTSTYLE_4
 40
1.0935482663
  1
Innovation & Service in Belting
 41
1.0
 72
0
  0
LINE
  8
0
 62
7
  6
CONTINUOUS
 10
12.3614696776
 20
19.9934385078
 11
13.1396216709
 21
23.6543558055
  0
LINE
  8
0
 62
7
  6
CONTINUOUS
 10
23.2347899607
 20
27.3177497171
 11
13.6274394139
 21
24.1961322958
  0
LINE
  8
0
 62
7
  6
CONTINUOUS
 10
12.5867530099
 20
19.3000877048
 11
20.093828271
 21
12.5406867788
  0
LINE
  8
0
 62
7
  6
CONTINUOUS
 10
12.8492874206
 20
20.5352149982
 11
23.6575567857
 21
24.0470345971
  0
LINE
  8
0
 62
7
  6
CONTINUOUS
 10
23.6533516486
 20
13.6972460334
 11
15.2078919798
 21
21.3015720751
  0
LINE
  8
0
 62
7
  6
CONTINUOUS
 10
24.1731743684
 20
26.4728246013
 11
23.1966148312
 21
21.8784731989
  0
LINE
  8
0
 62
7
  6
CONTINUOUS
 10
22.4968128835
 20
18.5861638851
 11
21.810364672
 21
15.3566789607
  0
LINE
  8
0
 62
7
  6
CONTINUOUS
 10
24.8542704669
 20
14.087448211
 11
25.8105020025
 21
18.5861638851
  0
LINE
  8
0
 62
7
  6
CONTINUOUS
 10
26.5103039502
 20
21.8784731989
 11
26.9545457526
 21
23.9684665583
  0
LINE
  8
0
 62
7
  6
CONTINUOUS
 10
20.8069293463
 20
12.3891124661
 11
24.3664527239
 21
13.5456717207
  0
LINE
  8
0
 62
7
  6
CONTINUOUS
 10
23.9478910361
 20
27.1661754044
 11
26.7292624203
 21
24.6618173613
  0
ARC
  8
0
 62
7
  6
CONTINUOUS
 10
13.8527227462
 20
23.5027814928
 40
0.7290321776
 50
108.0
 51
168.0
  0
ARC
  8
0
 62
7
  6
CONTINUOUS
 10
23.4600732931
 20
26.624398914
 40
0.7290321776
 50
348.0
 51
108.0
  0
ARC
  8
0
 62
7
  6
CONTINUOUS
 10
26.2414446773
 20
24.120040871
 40
0.7290321776
 50
348.0
 51
48.0
  0
ARC
  8
0
 62
7
  6
CONTINUOUS
 10
20.581646014
 20
13.0824632691
 40
0.7290321776
 50
228.0
 51
288.0
  0
ARC
  8
0
 62
7
  6
CONTINUOUS
 10
13.0745707529
 20
19.8418641951
 40
0.7290321776
 50
108.0
 51
228.0
  0
ARC
  8
0
 62
7
  6
CONTINUOUS
 10
24.1411693916
 20
14.2390225237
 40
0.7290321776
 50
228.0
 51
348.0
  0
ENDBLK
  8
0
  6
BYBLOCK
 62
0
  0
ENDSEC
  0
SECTION
  2
ENTITIES
  0
TEXT
  8
0
 62
5
  6
CONTINUOUS
 10
96.0
 20
25.636
  7
TEXTSTYLE_2
 40
2.8
  1
Scale :
 41
0.6
 51
0.000019
 72
0
  0
TEXT
  8
0
 62
5
  6
CONTINUOUS
 10
116.0
 20
25.636
  7
TEXTSTYLE_2
 40
2.8
  1
Belt type:
 41
0.6
 51
0.000019
 72
0
  0
INSERT
  8
0
 62
2
  6
CONTINUOUS
  2
AMMEAAL_LOGO_BL0
 10
32.1213064866
 20
19.8534310916
  0
INSERT
  8
0
 62
2
  6
CONTINUOUS
  2
UNI_LOGO2_BL1
 10
173.5956734183
 20
35.5937998301
  0
LINE
  8
0
 62
2
  6
CONTINUOUS
 10
10.0
 20
30.0
 11
200.0
 21
30.0
  0
LINE
  8
0
 62
2
  6
CONTINUOUS
 10
10.0
 20
30.0
 11
10.0
 21
10.0
  0
LINE
  8
0
 62
2
  6
CONTINUOUS
 10
10.0
 20
10.0
 11
200.0
 21
10.0
  0
LINE
  8
0
 62
2
  6
CONTINUOUS
 10
95.0
 20
30.0
 11
95.0
 21
10.0
  0
LINE
  8
0
 62
2
  6
CONTINUOUS
 10
115.0
 20
30.0
 11
115.0
 21
10.0
  0
LINE
  8
0
 62
2
  6
CONTINUOUS
 10
200.0
 20
30.0
 11
200.0
 21
10.0
  0
TEXT
  8
0
 62
5
  6
CONTINUOUS
 10
13.0
 20
23.303
  7
TEXTSTYLE_5
 40
1.52
  1
                                                                     Ammeraal Beltech Modular A/S
 41
1.0
 72
0
  0
TEXT
  8
0
 62
5
  6
CONTINUOUS
 10
13.0
 20
20.595
  7
TEXTSTYLE_5
 40
1.5
  1
                                                                      Hjulmagervej 21,  7100 Vejle,  DK
 41
1.0
 72
0
  0
TEXT
  8
0
 62
5
  6
CONTINUOUS
 10
13.0
 20
17.881
  7
TEXTSTYLE_5
 40
1.495
  1
                                                                      tel: 
 41
1.0
 72
0
  0
TEXT
  8
0
 62
5
  6
CONTINUOUS
 10
57.9869465649
 20
17.881
  7
TEXTSTYLE_5
 40
1.51
  1
+45 75723100     fax: +45 75723348
 41
1.0
 72
0
  0
TEXT
  8
0
 62
5
  6
CONTINUOUS
 10
13.0
 20
15.177
  7
TEXTSTYLE_5
 40
1.5
  1
                                                                      admin@unichains.dk  www.unichains.com
 41
1.0
 72
0
  0
TEXT
  8
0
 62
5
  6
CONTINUOUS
 10
99.75
 20
13.75
  7
TEXTSTYLE_6
 40
5.0
  1
1:1
 41
0.7
 72
1
 11
105.0
 21
13.75
  0
TEXT
  8
0
 62
5
  6
CONTINUOUS
 10
118.0
 20
13.75
  7
TEXTSTYLE_7
 40
7.5
  1
uni Light EP-22 fine-meshed K250
 41
0.3140625
 72
0
  0
LINE
  8
0
 62
7
  6
CONTINUOUS
 10
210.0
 20
0.0
 11
0.0
 21
0.0
  0
LINE
  8
0
 62
7
  6
CONTINUOUS
 10
10.0
 20
10.0
 11
200.0
 21
10.0
  0
LINE
  8
0
 62
7
  6
CONTINUOUS
 10
10.0
 20
30.0
 11
200.0
 21
30.0
  0
LINE
  8
0
 62
7
  6
CONTINUOUS
 10
0.0
 20
0.0
 11
0.0
 21
297.0
  0
LINE
  8
0
 62
7
  6
CONTINUOUS
 10
10.0
 20
10.0
 11
10.0
 21
287.0
  0
LINE
  8
0
 62
7
  6
CONTINUOUS
 10
200.0
 20
287.0
 11
200.0
 21
10.0
  0
LINE
  8
0
 62
7
  6
CONTINUOUS
 10
210.0
 20
0.0
 11
210.0
 21
297.0
  0
LINE
  8
0
 62
7
  6
CONTINUOUS
 10
10.0
 20
287.0
 11
200.0
 21
287.0
  0
LINE
  8
0
 62
7
  6
CONTINUOUS
 10
0.0
 20
297.0
 11
210.0
 21
297.0
  0
POLYLINE
  8
0
 62
7
  6
CONTINUOUS
 66
1
 70
0
  0
VERTEX
  8
0
 62
7
  6
CONTINUOUS
 10
57.1073814655
 20
150.2922556473
  0
VERTEX
  8
0
 62
7
  6
CONTINUOUS
 10
57.1241535886
 20
150.313049468
  0
VERTEX
  8
0
 62
7
  6
CONTINUOUS
 10
57.1735452571
 20
150.3321954304
  0
VERTEX
  8
0
 62
7
  6
CONTINUOUS
 10
57.2525316342
 20
150.3484873062
  0
VERTEX
  8
0
 62
7
  6
CONTINUOUS
 10
57.3559988861
 20
150.3609111811
  0
VERTEX
  8
0
 62
7
  6
CONTINUOUS
 10
57.4770291973
 20
150.3686962843
  0
VERTEX
  8
0
 62
7
  6
CONTINUOUS
 10
57.6073814655
 20
150.3713512569
  0
SEQEND
  0
LINE
  8
0
 62
7
  6
CONTINUOUS
 10
53.8573814655
 20
114.5675107759
 11
53.8573814655
 21
143.3837622771
  0
LINE
  8
0
 62
7
  6
CONTINUOUS
 10
54.0573814655
 20
144.9532064604
 11
54.0573814655
 21
107.2275107759
  0
POLYLINE
  8
0
 62
7
  6
CONTINUOUS
 66
1
 70
0
  0
VERTEX
  8
0
 62
7
  6
CONTINUOUS
 10
54.0573814655
 20
144.9532064604
  0
VERTEX
  8
0
 62
7
  6
CONTINUOUS
 10
54.0732324173
 20
145.0781052159
  0
VERTEX
  8
0
 62
7
  6
CONTINUOUS
 10
54.1195730668
 20
145.1947096819
  0
VERTEX
  8
0
 62
7
  6
CONTINUOUS
 10
54.1951854641
 20
145.2979006097
  0
VERTEX
  8
0
 62
7
  6
CONTINUOUS
 10
54.2977317402
 20
145.3805026342
  0
VERTEX
  8
0
 62
7
  6
CONTINUOUS
 10
54.4220491593
 20
145.4345433143
  0
VERTEX
  8
0
 62
7
  6
CONTINUOUS
 10
54.5573814655
 20
145.4532064602
  0
SEQEND
  0
LINE
  8
0
 62
7
  6
CONTINUOUS
 10
53.8573814655
 20
114.5675107759
 11
54.0573814655
 21
114.3675107759
  0
LINE
  8
0
 62
7
  6
CONTINUOUS
 10
55.4573814655
 20
142.5075107759
 11
55.4573814655
 21
141.5275107759
  0
LINE
  8
0
 62
7
  6
CONTINUOUS
 10
55.4573814655
 20
140.1075107759
 11
55.4573814655
 21
139.1275107759
  0
LINE
  8
0
 62
7
  6
CONTINUOUS
 10
55.4573814655
 20
137.7075107759
 11
55.4573814655
 21
136.7275107759
  0
LINE
  8
0
 62
7
  6
CONTINUOUS
 10
55.4573814655
 20
135.3075107759
 11
55.4573814655
 21
134.3275107759
  0
LINE
  8
0
 62
7
  6
CONTINUOUS
 10
55.4573814655
 20
132.9075107759
 11
55.4573814655
 21
131.9275107759
  0
LINE
  8
0
 62
7
  6
CONTINUOUS
 10
55.4573814655
 20
130.5075107759
 11
55.4573814655
 21
129.5275107759
  0
LINE
  8
0
 62
7
  6
CONTINUOUS
 10
55.4573814655
 20
128.1075107759
 11
55.4573814655
 21
127.1275107759
  0
LINE
  8
0
 62
7
  6
CONTINUOUS
 10
55.4573814655
 20
125.7075107759
 11
55.4573814655
 21
124.7275107759
  0
LINE
  8
0
 62
7
  6
CONTINUOUS
 10
55.4573814655
 20
123.3075107759
 11
55.4573814655
 21
122.3275107759
  0
LINE
  8
0
 62
7
  6
CONTINUOUS
 10
55.4573814655
 20
120.9075107759
 11
55.4573814655
 21
119.9275107759
  0
LINE
  8
0
 62
7
  6
CONTINUOUS
 10
56.8573814655
 20
107.2275107759
 11
56.8573814655
 21
113.5995376136
  0
POLYLINE
  8
0
 62
7
  6
CONTINUOUS
 66
1
 70
0
  0
VERTEX
  8
0
 62
7
  6
CONTINUOUS
 10
57.1073819377
 20
146.43552649
  0
VERTEX
  8
0
 62
7
  6
CONTINUOUS
 10
57.1030732821
 20
146.2948017032
  0
VERTEX
  8
0
 62
7
  6
CONTINUOUS
 10
57.087635871
 20
146.1436950948
  0
VERTEX
  8
0
 62
7
  6
CONTINUOUS
 10
57.0605125478
 20
146.0010488205
  0
VERTEX
  8
0
 62
7
  6
CONTINUOUS
 10
57.0217393896
 20
145.8696325503
  0
VERTEX
  8
0
 62
7
  6
CONTINUOUS
 10
56.9718162747
 20
145.7519030204
  0
VERTEX
  8
0
 62
7
  6
CONTINUOUS
 10
56.9118911763
 20
145.6505041959
  0
VERTEX
  8
0
 62
7
  6
CONTINUOUS
 10
56.8426592828
 20
145.5668370168
  0
VERTEX
  8
0
 62
7
  6
CONTINUOUS
 10
56.7654195921
 20
145.5036063951
  0
VERTEX
  8
0
 62
7
  6
CONTINUOUS
 10
56.6824470321
 20
145.4645493408
  0
VERTEX
  8
0
 62
7
  6
CONTINUOUS
 10
56.6073814655
 20
145.4532065275
  0
SEQEND
  0
LINE
  8
0
 62
7
  6
CONTINUOUS
 10
55.4727745746
 20
119.9275107759
 11
55.5415049029
 21
120.9075107759
  0
LINE
  8
0
 62
7
  6
CONTINUOUS
 10
55.641093746
 20
122.3275107759
 11
55.7098240743
 21
123.3075107759
  0
LINE
  8
0
 62
7
  6
CONTINUOUS
 10
55.8094129174
 20
124.7275107759
 11
55.8781432458
 21
125.7075107759
  0
LINE
  8
0
 62
7
  6
CONTINUOUS
 10
55.9777320889
 20
127.1275107759
 11
56.0464624172
 21
128.1075107759
  0
LINE
  8
0
 62
7
  6
CONTINUOUS
 10
56.1460512603
 20
129.5275107759
 11
56.2147815886
 21
130.5075107759
  0
LINE
  8
0
 62
7
  6
CONTINUOUS
 10
56.3143704317
 20
131.9275107759
 11
56.3831007601
 21
132.9075107759
  0
LINE
  8
0
 62
7
  6
CONTINUOUS
 10
56.4826896032
 20
134.3275107759
 11
56.5514199315
 21
135.3075107759
  0
LINE
  8
0
 62
7
  6
CONTINUOUS
 10
56.6510087746
 20
136.7275107759
 11
56.719739103
 21
137.7075107759
  0
LINE
  8
0
 62
7
  6
CONTINUOUS
 10
56.8193279461
 20
139.1275107759
 11
56.8880582744
 21
140.1075107759
  0
LINE
  8
0
 62
7
  6
CONTINUOUS
 10
56.9876471175
 20
141.5275107759
 11
57.0563774458
 21
142.5075107759
  0
POLYLINE
  8
0
 62
7
  6
CONTINUOUS
 66
1
 70
0
  0
VERTEX
  8
0
 62
7
  6
CONTINUOUS
 10
63.4573814655
 20
109.7427659045
  0
VERTEX
  8
0
 62
7
  6
CONTINUOUS
 10
63.4741535886
 20
109.7219720838
  0
VERTEX
  8
0
 62
7
  6
CONTINUOUS
 10
63.5235452571
 20
109.7028261213
  0
VERTEX
  8
0
 62
7
  6
CONTINUOUS
 10
63.6025316342
 20
109.6865342455
  0
VERTEX
  8
0
 62
7
  6
CONTINUOUS
 10
63.7059988861
 20
109.6741103706
  0
VERTEX
  8
0
 62
7
  6
CONTINUOUS
 10
63.8270291973
 20
109.6663252674
  0
VERTEX
  8
0
 62
7
  6
CONTINUOUS
 10
63.9573814655
 20
109.6636702948
  0
SEQEND
  0
LINE
  8
0
 62
7
  6
CONTINUOUS
 10
57.1073814655
 20
152.8075107759
 11
57.1073814655
 21
146.4354873022
  0
POLYLINE
  8
0
 62
7
  6
CONTINUOUS
 66
1
 70
0
  0
VERTEX
  8
0
 62
7
  6
CONTINUOUS
 10
56.8573812436
 20
113.5994846391
  0
VERTEX
  8
0
 62
7
  6
CONTINUOUS
 10
56.8616900372
 20
113.7402239123
  0
VERTEX
  8
0
 62
7
  6
CONTINUOUS
 10
56.8771275928
 20
113.8913308225
  0
VERTEX
  8
0
 62
7
  6
CONTINUOUS
 10
56.9042506569
 20
114.0339736008
  0
VERTEX
  8
0
 62
7
  6
CONTINUOUS
 10
56.9430233533
 20
114.1653882318
  0
VERTEX
  8
0
 62
7
  6
CONTINUOUS
 10
56.9929466557
 20
114.2831185312
  0
VERTEX
  8
0
 62
7
  6
CONTINUOUS
 10
57.0528717668
 20
114.3845173641
  0
VERTEX
  8
0
 62
7
  6
CONTINUOUS
 10
57.1221036863
 20
114.4681845366
  0
VERTEX
  8
0
 62
7
  6
CONTINUOUS
 10
57.199343951
 20
114.531415517
  0
VERTEX
  8
0
 62
7
  6
CONTINUOUS
 10
57.2823193282
 20
114.570473247
  0
VERTEX
  8
0
 62
7
  6
CONTINUOUS
 10
57.3573814655
 20
114.5818150329
  0
SEQEND
  0
LINE
  8
0
 62
7
  6
CONTINUOUS
 10
58.6603075279
 20
142.5075107759
 11
58.5915771996
 21
141.5275107759
  0
LINE
  8
0
 62
7
  6
CONTINUOUS
 10
58.4919883565
 20
140.1075107759
 11
58.4232580281
 21
139.1275107759
  0
LINE
  8
0
 62
7
  6
CONTINUOUS
 10
58.323669185
 20
137.7075107759
 11
58.2549388567
 21
136.7275107759
  0
LINE
  8
0
 62
7
  6
CONTINUOUS
 10
58.1553500136
 20
135.3075107759
 11
58.0866196853
 21
134.3275107759
  0
LINE
  8
0
 62
7
  6
CONTINUOUS
 10
57.9870308422
 20
132.9075107759
 11
57.9183005138
 21
131.9275107759
  0
LINE
  8
0
 62
7
  6
CONTINUOUS
 10
57.8187116707
 20
130.5075107759
 11
57.7499813424
 21
129.5275107759
  0
LINE
  8
0
 62
7
  6
CONTINUOUS
 10
57.6503924993
 20
128.1075107759
 11
57.581662171
 21
127.1275107759
  0
LINE
  8
0
 62
7
  6
CONTINUOUS
 10
57.4820733279
 20
125.7075107759
 11
57.4133429995
 21
124.7275107759
  0
LINE
  8
0
 62
7
  6
CONTINUOUS
 10
57.3137541564
 20
123.3075107759
 11
57.2450238281
 21
122.3275107759
  0
LINE
  8
0
 62
7
  6
CONTINUOUS
 10
57.145434985
 20
120.9075107759
 11
57.0767046566
 21
119.9275107759
  0
LINE
  8
0
 62
7
  6
CONTINUOUS
 10
56.9771158135
 20
118.5075107759
 11
56.9083854852
 21
117.5275107759
  0
POLYLINE
  8
0
 62
7
  6
CONTINUOUS
 66
1
 70
0
  0
VERTEX
  8
0
 62
7
  6
CONTINUOUS
 10
69.8073814655
 20
150.2922556473
  0
VERTEX
  8
0
 62
7
  6
CONTINUOUS
 10
69.8241535886
 20
150.313049468
  0
VERTEX
  8
0
 62
7
  6
CONTINUOUS
 10
69.8735452571
 20
150.3321954304
  0
VERTEX
  8
0
 62
7
  6
CONTINUOUS
 10
69.9525316342
 20
150.3484873062
  0
VERTEX
  8
0
 62
7
  6
CONTINUOUS
 10
70.0559988861
 20
150.3609111811
  0
VERTEX
  8
0
 62
7
  6
CONTINUOUS
 10
70.1770291973
 20
150.3686962843
  0
VERTEX
  8
0
 62
7
  6
CONTINUOUS
 10
70.3073814655
 20
150.3713512569
  0
SEQEND
  0
LINE
  8
0
 62
7
  6
CONTINUOUS
 10
54.5573814655
 20
106.7275107759
 11
56.3573814655
 21
106.7275107759
  0
LINE
  8
0
 62
7
  6
CONTINUOUS
 10
63.9573814655
 20
106.7275107759
 11
69.0573814655
 21
106.7275107759
  0
LINE
  8
0
 62
7
  6
CONTINUOUS
 10
76.6573814655
 20
106.7275107759
 11
81.7573814655
 21
106.7275107759
  0
LINE
  8
0
 62
7
  6
CONTINUOUS
 10
89.3573814655
 20
106.7275107759
 11
94.4573814655
 21
106.7275107759
  0
LINE
  8
0
 62
7
  6
CONTINUOUS
 10
102.0573814655
 20
106.7275107759
 11
107.1573814655
 21
106.7275107759
  0
LINE
  8
0
 62
7
  6
CONTINUOUS
 10
114.7573814655
 20
106.7275107759
 11
116.5573814655
 21
106.7275107759
  0
LINE
  8
0
 62
7
  6
CONTINUOUS
 10
63.4063774458
 20
117.5275107759
 11
63.3376471175
 21
118.5075107759
  0
LINE
  8
0
 62
7
  6
CONTINUOUS
 10
63.2380582744
 20
119.9275107759
 11
63.1693279461
 21
120.9075107759
  0
LINE
  8
0
 62
7
  6
CONTINUOUS
 10
63.069739103
 20
122.3275107759
 11
63.0010087746
 21
123.3075107759
  0
LINE
  8
0
 62
7
  6
CONTINUOUS
 10
62.9014199315
 20
124.7275107759
 11
62.8326896032
 21
125.7075107759
  0
LINE
  8
0
 62
7
  6
CONTINUOUS
 10
62.7331007601
 20
127.1275107759
 11
62.6643704317
 21
128.1075107759
  0
LINE
  8
0
 62
7
  6
CONTINUOUS
 10
62.5647815886
 20
129.5275107759
 11
62.4960512603
 21
130.5075107759
  0
LINE
  8
0
 62
7
  6
CONTINUOUS
 10
62.3964624172
 20
131.9275107759
 11
62.3277320889
 21
132.9075107759
  0
LINE
  8
0
 62
7
  6
CONTINUOUS
 10
62.2281432458
 20
134.3275107759
 11
62.1594129174
 21
135.3075107759
  0
LINE
  8
0
 62
7
  6
CONTINUOUS
 10
62.0598240743
 20
136.7275107759
 11
61.991093746
 21
137.7075107759
  0
LINE
  8
0
 62
7
  6
CONTINUOUS
 10
61.8915049029
 20
139.1275107759
 11
61.8227745746
 21
140.1075107759
  0
LINE
  8
0
 62
7
  6
CONTINUOUS
 10
61.7231857315
 20
141.5275107759
 11
61.6544554031
 21
142.5075107759
  0
LINE
  8
0
 62
7
  6
CONTINUOUS
 10
63.2583854852
 20
142.5075107759
 11
63.3271158135
 21
141.5275107759
  0
LINE
  8
0
 62
7
  6
CONTINUOUS
 10
63.4267046566
 20
140.1075107759
 11
63.495434985
 21
139.1275107759
  0
LINE
  8
0
 62
7
  6
CONTINUOUS
 10
63.5950238281
 20
137.7075107759
 11
63.6637541564
 21
136.7275107759
  0
LINE
  8
0
 62
7
  6
CONTINUOUS
 10
63.7633429995
 20
135.3075107759
 11
63.8320733279
 21
134.3275107759
  0
LINE
  8
0
 62
7
  6
CONTINUOUS
 10
63.931662171
 20
132.9075107759
 11
64.0003924993
 21
131.9275107759
  0
LINE
  8
0
 62
7
  6
CONTINUOUS
 10
64.0999813424
 20
130.5075107759
 11
64.1687116707
 21
129.5275107759
  0
LINE
  8
0
 62
7
  6
CONTINUOUS
 10
64.2683005138
 20
128.1075107759
 11
64.3370308422
 21
127.1275107759
  0
LINE
  8
0
 62
7
  6
CONTINUOUS
 10
64.4366196853
 20
125.7075107759
 11
64.5053500136
 21
124.7275107759
  0
LINE
  8
0
 62
7
  6
CONTINUOUS
 10
64.6049388567
 20
123.3075107759
 11
64.673669185
 21
122.3275107759
  0
LINE
  8
0
 62
7
  6
CONTINUOUS
 10
64.7732580281
 20
120.9075107759
 11
64.8419883565
 21
119.9275107759
  0
LINE
  8
0
 62
7
  6
CONTINUOUS
 10
64.9415771996
 20
118.5075107759
 11
65.0103075279
 21
117.5275107759
  0
LINE
  8
0
 62
7
  6
CONTINUOUS
 10
63.2073814655
 20
146.1318811745
 11
63.2073814655
 21
153.3075107759
  0
LINE
  8
0
 62
7
  6
CONTINUOUS
 10
63.4573814655
 20
107.2275107759
 11
63.4573814655
 21
113.599534723
  0
POLYLINE
  8
0
 62
7
  6
CONTINUOUS
 66
1
 70
0
  0
VERTEX
  8
0
 62
7
  6
CONTINUOUS
 10
116.5573814655
 20
109.6636702948
  0
VERTEX
  8
0
 62
7
  6
CONTINUOUS
 10
116.6877337338
 20
109.6663252674
  0
VERTEX
  8
0
 62
7
  6
CONTINUOUS
 10
116.8087640449
 20
109.6741103706
  0
VERTEX
  8
0
 62
7
  6
CONTINUOUS
 10
116.9122312969
 20
109.6865342455
  0
VERTEX
  8
0
 62
7
  6
CONTINUOUS
 10
116.9912176739
 20
109.7028261213
  0
VERTEX
  8
0
 62
7
  6
CONTINUOUS
 10
117.0406093424
 20
109.7219720838
  0
VERTEX
  8
0
 62
7
  6
CONTINUOUS
 10
117.0573814655
 20
109.7427659045
  0
SEQEND
  0
POLYLINE
  8
0
 62
7
  6
CONTINUOUS
 66
1
 70
0
  0
VERTEX
  8
0
 62
7
  6
CONTINUOUS
 10
54.5573814655
 20
109.6636702948
  0
VERTEX
  8
0
 62
7
  6
CONTINUOUS
 10
54.4270291973
 20
109.6663252674
  0
VERTEX
  8
0
 62
7
  6
CONTINUOUS
 10
54.3059988861
 20
109.6741103706
  0
VERTEX
  8
0
 62
7
  6
CONTINUOUS
 10
54.2025316342
 20
109.6865342455
  0
VERTEX
  8
0
 62
7
  6
CONTINUOUS
 10
54.1235452571
 20
109.7028261213
  0
VERTEX
  8
0
 62
7
  6
CONTINUOUS
 10
54.0741535886
 20
109.7219720838
  0
VERTEX
  8
0
 62
7
  6
CONTINUOUS
 10
54.0573814655
 20
109.7427659045
  0
SEQEND
  0
LINE
  8
0
 62
7
  6
CONTINUOUS
 10
69.2761314655
 20
142.4004894983
 11
69.2386311794
 21
142.2409150269
  0
LINE
  8
0
 62
7
  6
CONTINUOUS
 10
69.1261311794
 20
142.2728299167
 11
69.1823811794
 21
142.4004894983
  0
LINE
  8
0
 62
7
  6
CONTINUOUS
 10
69.2386311794
 20
142.2409150269
 11
69.1823811794
 21
142.1451703463
  0
LINE
  8
0
 62
7
  6
CONTINUOUS
 10
71.8448813225
 20
142.2409150269
 11
71.8823816086
 21
142.3047448289
  0
LINE
  8
0
 62
7
  6
CONTINUOUS
 10
71.9386316086
 20
142.1770852473
 11
71.8823816086
 21
142.1132554565
  0
LINE
  8
0
 62
7
  6
CONTINUOUS
 10
69.1823811794
 20
142.1451703463
 11
69.1220426482
 21
142.0835476424
  0
LINE
  8
0
 62
7
  6
CONTINUOUS
 10
69.1023999361
 20
142.2526330392
 11
69.1261311794
 21
142.2728299167
  0
LINE
  8
0
 62
7
  6
CONTINUOUS
 10
69.1568814916
 20
140.1075107759
 11
69.0886317516
 21
140.0494256685
  0
LINE
  8
0
 62
7
  6
CONTINUOUS
 10
71.8073814655
 20
142.2090001371
 11
71.8448813225
 21
142.2409150269
  0
LINE
  8
0
 62
7
  6
CONTINUOUS
 10
71.8823816086
 20
142.1132554565
 11
71.8073814655
 21
142.0494256685
  0
LINE
  8
0
 62
7
  6
CONTINUOUS
 10
54.5573814655
 20
109.6636702948
 11
56.3573814655
 21
109.6636702948
  0
LINE
  8
0
 62
7
  6
CONTINUOUS
 10
63.9573814655
 20
109.6636702948
 11
69.0573814655
 21
109.6636702948
  0
LINE
  8
0
 62
7
  6
CONTINUOUS
 10
76.6573814655
 20
109.6636702948
 11
81.7573814655
 21
109.6636702948
  0
LINE
  8
0
 62
7
  6
CONTINUOUS
 10
89.3573814655
 20
109.6636702948
 11
94.4573814655
 21
109.6636702948
  0
LINE
  8
0
 62
7
  6
CONTINUOUS
 10
102.0573814655
 20
109.6636702948
 11
107.1573814655
 21
109.6636702948
  0
LINE
  8
0
 62
7
  6
CONTINUOUS
 10
114.7573814655
 20
109.6636702948
 11
116.5573814655
 21
109.6636702948
  0
LINE
  8
1_AXIS
 62
2
  6
CENTER
 10
48.2550604027
 20
110.9675107759
 11
123.0113557047
 21
110.9675107759
  0
POLYLINE
  8
0
 62
7
  6
CONTINUOUS
 66
1
 70
0
  0
VERTEX
  8
0
 62
7
  6
CONTINUOUS
 10
62.9573814613
 20
114.5818150256
  0
VERTEX
  8
0
 62
7
  6
CONTINUOUS
 10
63.0318048385
 20
114.5706653166
  0
VERTEX
  8
0
 62
7
  6
CONTINUOUS
 10
63.1148051836
 20
114.5318095148
  0
VERTEX
  8
0
 62
7
  6
CONTINUOUS
 10
63.1921020906
 20
114.4687445216
  0
VERTEX
  8
0
 62
7
  6
CONTINUOUS
 10
63.2614022303
 20
114.3852180238
  0
VERTEX
  8
0
 62
7
  6
CONTINUOUS
 10
63.3214015783
 20
114.2839443452
  0
VERTEX
  8
0
 62
7
  6
CONTINUOUS
 10
63.3714034865
 20
114.1663316824
  0
VERTEX
  8
0
 62
7
  6
CONTINUOUS
 10
63.4102586719
 20
114.0350286006
  0
VERTEX
  8
0
 62
7
  6
CONTINUOUS
 10
63.4374671179
 20
113.8924942627
  0
VERTEX
  8
0
 62
7
  6
CONTINUOUS
 10
63.4529922176
 20
113.7415011362
  0
VERTEX
  8
0
 62
7
  6
CONTINUOUS
 10
63.4573819572
 20
113.5994937884
  0
SEQEND
  0
POLYLINE
  8
0
 62
7
  6
CONTINUOUS
 66
1
 70
0
  0
VERTEX
  8
0
 62
7
  6
CONTINUOUS
 10
76.1573814655
 20
109.7427659045
  0
VERTEX
  8
0
 62
7
  6
CONTINUOUS
 10
76.1741535886
 20
109.7219720838
  0
VERTEX
  8
0
 62
7
  6
CONTINUOUS
 10
76.2235452571
 20
109.7028261213
  0
VERTEX
  8
0
 62
7
  6
CONTINUOUS
 10
76.3025316342
 20
109.6865342455
  0
VERTEX
  8
0
 62
7
  6
CONTINUOUS
 10
76.4059988861
 20
109.6741103706
  0
VERTEX
  8
0
 62
7
  6
CONTINUOUS
 10
76.5270291973
 20
109.6663252674
  0
VERTEX
  8
0
 62
7
  6
CONTINUOUS
 10
76.6573814655
 20
109.6636702948
  0
SEQEND
  0
LINE
  8
0
 62
7
  6
CONTINUOUS
 10
68.0761317516
 20
140.1075107759
 11
68.0761317516
 21
140.0175107759
  0
LINE
  8
0
 62
7
  6
CONTINUOUS
 10
68.2261311794
 20
140.0175107759
 11
68.2261311794
 21
140.1075107759
  0
LINE
  8
0
 62
7
  6
CONTINUOUS
 10
68.3386311794
 20
140.1075107759
 11
68.3386311794
 21
140.0175107759
  0
LINE
  8
0
 62
7
  6
CONTINUOUS
 10
69.1823811794
 20
142.4004894983
 11
69.1823811794
 21
142.4962341678
  0
LINE
  8
0
 62
7
  6
CONTINUOUS
 10
69.2761314655
 20
142.4962341678
 11
69.2761314655
 21
142.4004894983
  0
LINE
  8
0
 62
7
  6
CONTINUOUS
 10
69.4261317516
 20
140.0175107759
 11
69.4261317516
 21
140.1075107759
  0
LINE
  8
0
 62
7
  6
CONTINUOUS
 10
69.4261317516
 20
142.0175107759
 11
69.4261317516
 21
142.1770852473
  0
LINE
  8
0
 62
7
  6
CONTINUOUS
 10
69.5198811794
 20
142.1770852473
 11
69.5198811794
 21
142.0175107759
  0
LINE
  8
0
 62
7
  6
CONTINUOUS
 10
69.5573814655
 20
107.2275107759
 11
69.5573814655
 21
113.9031403772
  0
LINE
  8
0
 62
7
  6
CONTINUOUS
 10
69.8073814655
 20
146.4354873022
 11
69.8073814655
 21
152.8075107759
  0
POLYLINE
  8
0
 62
7
  6
CONTINUOUS
 66
1
 70
0
  0
VERTEX
  8
0
 62
7
  6
CONTINUOUS
 10
69.8073819377
 20
146.43552649
  0
VERTEX
  8
0
 62
7
  6
CONTINUOUS
 10
69.8030732821
 20
146.2948017032
  0
VERTEX
  8
0
 62
7
  6
CONTINUOUS
 10
69.787635871
 20
146.1436950948
  0
VERTEX
  8
0
 62
7
  6
CONTINUOUS
 10
69.7605125478
 20
146.0010488205
  0
VERTEX
  8
0
 62
7
  6
CONTINUOUS
 10
69.7217393896
 20
145.8696325503
  0
VERTEX
  8
0
 62
7
  6
CONTINUOUS
 10
69.6718162747
 20
145.7519030204
  0
VERTEX
  8
0
 62
7
  6
CONTINUOUS
 10
69.6118911763
 20
145.6505041959
  0
VERTEX
  8
0
 62
7
  6
CONTINUOUS
 10
69.5426592828
 20
145.5668370168
  0
VERTEX
  8
0
 62
7
  6
CONTINUOUS
 10
69.4654195921
 20
145.5036063951
  0
VERTEX
  8
0
 62
7
  6
CONTINUOUS
 10
69.3824470321
 20
145.4645493408
  0
VERTEX
  8
0
 62
7
  6
CONTINUOUS
 10
69.3073814655
 20
145.4532065275
  0
SEQEND
  0
POLYLINE
  8
0
 62
7
  6
CONTINUOUS
 66
1
 70
0
  0
VERTEX
  8
0
 62
7
  6
CONTINUOUS
 10
69.5573812457
 20
113.5994852291
  0
VERTEX
  8
0
 62
7
  6
CONTINUOUS
 10
69.5616900278
 20
113.7402237018
  0
VERTEX
  8
0
 62
7
  6
CONTINUOUS
 10
69.5771275829
 20
113.8913306921
  0
VERTEX
  8
0
 62
7
  6
CONTINUOUS
 10
69.6042506582
 20
114.0339735941
  0
VERTEX
  8
0
 62
7
  6
CONTINUOUS
 10
69.6430233649
 20
114.1653882761
  0
VERTEX
  8
0
 62
7
  6
CONTINUOUS
 10
69.692946679
 20
114.2831185766
  0
VERTEX
  8
0
 62
7
  6
CONTINUOUS
 10
69.7528717249
 20
114.3845173049
  0
VERTEX
  8
0
 62
7
  6
CONTINUOUS
 10
69.8221037439
 20
114.4681845872
  0
VERTEX
  8
0
 62
7
  6
CONTINUOUS
 10
69.8993440056
 20
114.531415554
  0
VERTEX
  8
0
 62
7
  6
CONTINUOUS
 10
69.9823193886
 20
114.5704732654
  0
VERTEX
  8
0
 62
7
  6
CONTINUOUS
 10
70.0573814655
 20
114.5818150316
  0
SEQEND
  0
LINE
  8
0
 62
7
  6
CONTINUOUS
 10
68.0935097563
 20
117.5275107759
 11
68.1552822563
 21
118.5075107759
  0
LINE
  8
0
 62
7
  6
CONTINUOUS
 10
68.2447893482
 20
119.9275107759
 11
68.3065618482
 21
120.9075107759
  0
LINE
  8
0
 62
7
  6
CONTINUOUS
 10
68.39606894
 20
122.3275107759
 11
68.45784144
 21
123.3075107759
  0
LINE
  8
0
 62
7
  6
CONTINUOUS
 10
68.5473485318
 20
124.7275107759
 11
68.6091210318
 21
125.7075107759
  0
LINE
  8
0
 62
7
  6
CONTINUOUS
 10
68.6986281237
 20
127.1275107759
 11
68.7604006237
 21
128.1075107759
  0
LINE
  8
0
 62
7
  6
CONTINUOUS
 10
68.8499077155
 20
129.5275107759
 11
68.9116802155
 21
130.5075107759
  0
LINE
  8
0
 62
7
  6
CONTINUOUS
 10
69.0011873074
 20
131.9275107759
 11
69.0629598074
 21
132.9075107759
  0
LINE
  8
0
 62
7
  6
CONTINUOUS
 10
69.1524668992
 20
134.3275107759
 11
69.2142393992
 21
135.3075107759
  0
LINE
  8
0
 62
7
  6
CONTINUOUS
 10
69.303746491
 20
136.7275107759
 11
69.365518991
 21
137.7075107759
  0
LINE
  8
0
 62
7
  6
CONTINUOUS
 10
69.4550260829
 20
139.1275107759
 11
69.5167985829
 21
140.1075107759
  0
LINE
  8
0
 62
7
  6
CONTINUOUS
 10
69.6063056747
 20
141.5275107759
 11
69.6680781747
 21
142.5075107759
  0
LINE
  8
0
 62
7
  6
CONTINUOUS
 10
71.3198811794
 20
142.4962341678
 11
71.3215374814
 21
142.5075107759
  0
LINE
  8
0
 62
7
  6
CONTINUOUS
 10
71.9948816086
 20
142.3685746085
 11
71.9761314655
 21
142.2728299167
  0
LINE
  8
0
 62
7
  6
CONTINUOUS
 10
71.4169439557
 20
142.5075107759
 11
71.4136314655
 21
142.4962341678
  0
LINE
  8
0
 62
7
  6
CONTINUOUS
 10
71.8823816086
 20
142.3047448289
 11
71.9011313225
 21
142.3685746085
  0
LINE
  8
0
 62
7
  6
CONTINUOUS
 10
72.9136313225
 20
142.2728299167
 11
72.9511316086
 21
142.4004894983
  0
LINE
  8
0
 62
7
  6
CONTINUOUS
 10
73.0636316086
 20
142.4004894983
 11
73.0261313225
 21
142.2728299167
  0
LINE
  8
0
 62
7
  6
CONTINUOUS
 10
71.9761314655
 20
142.2728299167
 11
71.9386316086
 21
142.1770852473
  0
LINE
  8
0
 62
7
  6
CONTINUOUS
 10
73.0261313225
 20
142.2728299167
 11
72.9698813225
 21
142.1451703463
  0
LINE
  8
0
 62
7
  6
CONTINUOUS
 10
72.8573813225
 20
142.2090001371
 11
72.9136313225
 21
142.2728299167
  0
LINE
  8
0
 62
7
  6
CONTINUOUS
 10
72.9698813225
 20
142.1451703463
 11
72.8761314655
 21
142.0494256685
  0
LINE
  8
0
 62
7
  6
CONTINUOUS
 10
71.8267565246
 20
140.1075107759
 11
71.7698816086
 21
140.0494256685
  0
LINE
  8
0
 62
7
  6
CONTINUOUS
 10
72.9330063815
 20
140.1075107759
 11
72.8761314655
 21
140.0494256685
  0
LINE
  8
0
 62
7
  6
CONTINUOUS
 10
71.8073814655
 20
142.0494256685
 11
71.7323813225
 21
142.0175107759
  0
LINE
  8
0
 62
7
  6
CONTINUOUS
 10
72.7823816086
 20
142.1770852473
 11
72.8573813225
 21
142.2090001371
  0
LINE
  8
0
 62
7
  6
CONTINUOUS
 10
69.0886317516
 20
140.0494256685
 11
69.0136311794
 21
140.0175107759
  0
LINE
  8
0
 62
7
  6
CONTINUOUS
 10
71.7136316086
 20
142.1770852473
 11
71.8073814655
 21
142.2090001371
  0
LINE
  8
0
 62
7
  6
CONTINUOUS
 10
72.8761314655
 20
142.0494256685
 11
72.7823816086
 21
142.0175107759
  0
LINE
  8
0
 62
7
  6
CONTINUOUS
 10
57.3573814655
 20
114.5818150913
 11
62.9573814613
 21
114.5818150913
  0
LINE
  8
0
 62
7
  6
CONTINUOUS
 10
70.0573814655
 20
114.5818150913
 11
75.6573814614
 21
114.5818150913
  0
LINE
  8
0
 62
7
  6
CONTINUOUS
 10
82.7573814655
 20
114.5818150913
 11
88.3573814613
 21
114.5818150913
  0
LINE
  8
0
 62
7
  6
CONTINUOUS
 10
95.4573814655
 20
114.5818150913
 11
101.0573814614
 21
114.5818150913
  0
LINE
  8
0
 62
7
  6
CONTINUOUS
 10
108.1573814655
 20
114.5818150913
 11
113.7573814613
 21
114.5818150913
  0
POLYLINE
  8
0
 62
7
  6
CONTINUOUS
 66
1
 70
0
  0
VERTEX
  8
0
 62
7
  6
CONTINUOUS
 10
75.6573814614
 20
114.5818150238
  0
VERTEX
  8
0
 62
7
  6
CONTINUOUS
 10
75.7318048362
 20
114.5706653169
  0
VERTEX
  8
0
 62
7
  6
CONTINUOUS
 10
75.8148051484
 20
114.5318095411
  0
VERTEX
  8
0
 62
7
  6
CONTINUOUS
 10
75.8921020077
 20
114.4687446049
  0
VERTEX
  8
0
 62
7
  6
CONTINUOUS
 10
75.9614023189
 20
114.3852179207
  0
VERTEX
  8
0
 62
7
  6
CONTINUOUS
 10
76.0214015105
 20
114.2839444734
  0
VERTEX
  8
0
 62
7
  6
CONTINUOUS
 10
76.0714034152
 20
114.1663318996
  0
VERTEX
  8
0
 62
7
  6
CONTINUOUS
 10
76.1102586463
 20
114.0350287572
  0
VERTEX
  8
0
 62
7
  6
CONTINUOUS
 10
76.1374671193
 20
113.8924943009
  0
VERTEX
  8
0
 62
7
  6
CONTINUOUS
 10
76.1529922444
 20
113.7415010134
  0
VERTEX
  8
0
 62
7
  6
CONTINUOUS
 10
76.1573819433
 20
113.5994951366
  0
SEQEND
  0
LINE
  8
0
 62
7
  6
CONTINUOUS
 10
70.3873814655
 20
118.2375107759
 11
70.3873814655
 21
118.5075107759
  0
LINE
  8
0
 62
7
  6
CONTINUOUS
 10
70.8973814655
 20
118.5075107759
 11
70.8973814655
 21
118.4955057507
  0
LINE
  8
0
 62
7
  6
CONTINUOUS
 10
71.3198811794
 20
142.3685746085
 11
71.3198811794
 21
142.4962341678
  0
LINE
  8
0
 62
7
  6
CONTINUOUS
 10
71.4136314655
 20
142.4962341678
 11
71.4136314655
 21
142.3685746085
  0
LINE
  8
0
 62
7
  6
CONTINUOUS
 10
72.1448814655
 20
140.0175107759
 11
72.1448814655
 21
140.1075107759
  0
LINE
  8
0
 62
7
  6
CONTINUOUS
 10
72.1448814655
 20
142.0175107759
 11
72.1448814655
 21
142.1770852473
  0
LINE
  8
0
 62
7
  6
CONTINUOUS
 10
72.2386313225
 20
142.1770852473
 11
72.2386313225
 21
142.0175107759
  0
LINE
  8
0
 62
7
  6
CONTINUOUS
 10
72.2386313225
 20
140.1075107759
 11
72.2386313225
 21
140.0175107759
  0
LINE
  8
0
 62
7
  6
CONTINUOUS
 10
72.3886316086
 20
142.4324043881
 11
72.3886316086
 21
142.5075107759
  0
LINE
  8
0
 62
7
  6
CONTINUOUS
 10
72.4823814655
 20
142.5075107759
 11
72.4823814655
 21
142.4643192779
  0
LINE
  8
0
 62
7
  6
CONTINUOUS
 10
71.2712531747
 20
142.5075107759
 11
71.2094806747
 21
141.5275107759
  0
LINE
  8
0
 62
7
  6
CONTINUOUS
 10
71.1199735829
 20
140.1075107759
 11
71.0582010829
 21
139.1275107759
  0
LINE
  8
0
 62
7
  6
CONTINUOUS
 10
70.968693991
 20
137.7075107759
 11
70.906921491
 21
136.7275107759
  0
LINE
  8
0
 62
7
  6
CONTINUOUS
 10
70.8174143992
 20
135.3075107759
 11
70.7556418992
 21
134.3275107759
  0
LINE
  8
0
 62
7
  6
CONTINUOUS
 10
70.6661348074
 20
132.9075107759
 11
70.6043623074
 21
131.9275107759
  0
LINE
  8
0
 62
7
  6
CONTINUOUS
 10
70.5148552155
 20
130.5075107759
 11
70.4530827155
 21
129.5275107759
  0
LINE
  8
0
 62
7
  6
CONTINUOUS
 10
70.3635756237
 20
128.1075107759
 11
70.3018031237
 21
127.1275107759
  0
LINE
  8
0
 62
7
  6
CONTINUOUS
 10
70.2122960318
 20
125.7075107759
 11
70.1505235318
 21
124.7275107759
  0
LINE
  8
0
 62
7
  6
CONTINUOUS
 10
70.06101644
 20
123.3075107759
 11
69.99924394
 21
122.3275107759
  0
LINE
  8
0
 62
7
  6
CONTINUOUS
 10
69.9097368482
 20
120.9075107759
 11
69.8479643482
 21
119.9275107759
  0
LINE
  8
0
 62
7
  6
CONTINUOUS
 10
69.7584572563
 20
118.5075107759
 11
69.6966847563
 21
117.5275107759
  0
POLYLINE
  8
0
 62
7
  6
CONTINUOUS
 66
1
 70
0
  0
VERTEX
  8
0
 62
7
  6
CONTINUOUS
 10
82.5073814655
 20
150.2922556473
  0
VERTEX
  8
0
 62
7
  6
CONTINUOUS
 10
82.5241535886
 20
150.313049468
  0
VERTEX
  8
0
 62
7
  6
CONTINUOUS
 10
82.5735452571
 20
150.3321954304
  0
VERTEX
  8
0
 62
7
  6
CONTINUOUS
 10
82.6525316342
 20
150.3484873062
  0
VERTEX
  8
0
 62
7
  6
CONTINUOUS
 10
82.7559988861
 20
150.3609111811
  0
VERTEX
  8
0
 62
7
  6
CONTINUOUS
 10
82.8770291973
 20
150.3686962843
  0
VERTEX
  8
0
 62
7
  6
CONTINUOUS
 10
83.0073814655
 20
150.3713512569
  0
SEQEND
  0
LINE
  8
0
 62
7
  6
CONTINUOUS
 10
74.586693968
 20
140.1075107759
 11
74.5636314655
 21
140.0813405611
  0
LINE
  8
0
 62
7
  6
CONTINUOUS
 10
77.3767564466
 20
140.1075107759
 11
77.3198814655
 21
140.0494256685
  0
LINE
  8
0
 62
7
  6
CONTINUOUS
 10
74.5636314655
 20
140.0813405611
 11
74.5073814655
 21
140.0494256685
  0
LINE
  8
0
 62
7
  6
CONTINUOUS
 10
74.3948814655
 20
142.1451703463
 11
74.4648478712
 21
142.168988739
  0
LINE
  8
0
 62
7
  6
CONTINUOUS
 10
72.8761314655
 20
140.0494256685
 11
72.7823816086
 21
140.0175107759
  0
LINE
  8
0
 62
7
  6
CONTINUOUS
 10
53.8573814655
 20
115.5035323933
 11
54.0573814655
 21
115.5035323933
  0
LINE
  8
0
 62
7
  6
CONTINUOUS
 10
117.0573814655
 20
115.5035323933
 11
117.2573814655
 21
115.5035323933
  0
POLYLINE
  8
0
 62
7
  6
CONTINUOUS
 66
1
 70
0
  0
VERTEX
  8
0
 62
7
  6
CONTINUOUS
 10
88.3573814613
 20
114.5818150256
  0
VERTEX
  8
0
 62
7
  6
CONTINUOUS
 10
88.4318048385
 20
114.5706653166
  0
VERTEX
  8
0
 62
7
  6
CONTINUOUS
 10
88.5148051836
 20
114.5318095148
  0
VERTEX
  8
0
 62
7
  6
CONTINUOUS
 10
88.5921020906
 20
114.4687445216
  0
VERTEX
  8
0
 62
7
  6
CONTINUOUS
 10
88.6614022303
 20
114.3852180238
  0
VERTEX
  8
0
 62
7
  6
CONTINUOUS
 10
88.7214015783
 20
114.2839443452
  0
VERTEX
  8
0
 62
7
  6
CONTINUOUS
 10
88.7714034865
 20
114.1663316824
  0
VERTEX
  8
0
 62
7
  6
CONTINUOUS
 10
88.8102586719
 20
114.0350286006
  0
VERTEX
  8
0
 62
7
  6
CONTINUOUS
 10
88.8374671179
 20
113.8924942627
  0
VERTEX
  8
0
 62
7
  6
CONTINUOUS
 10
88.8529922176
 20
113.7415011362
  0
VERTEX
  8
0
 62
7
  6
CONTINUOUS
 10
88.8573819572
 20
113.5994937884
  0
SEQEND
  0
POLYLINE
  8
0
 62
7
  6
CONTINUOUS
 66
1
 70
0
  0
VERTEX
  8
0
 62
7
  6
CONTINUOUS
 10
101.0573814614
 20
114.5818150238
  0
VERTEX
  8
0
 62
7
  6
CONTINUOUS
 10
101.1318048362
 20
114.5706653169
  0
VERTEX
  8
0
 62
7
  6
CONTINUOUS
 10
101.2148051484
 20
114.5318095411
  0
VERTEX
  8
0
 62
7
  6
CONTINUOUS
 10
101.2921020077
 20
114.4687446049
  0
VERTEX
  8
0
 62
7
  6
CONTINUOUS
 10
101.3614023189
 20
114.3852179207
  0
VERTEX
  8
0
 62
7
  6
CONTINUOUS
 10
101.4214015105
 20
114.2839444734
  0
VERTEX
  8
0
 62
7
  6
CONTINUOUS
 10
101.4714034152
 20
114.1663318996
  0
VERTEX
  8
0
 62
7
  6
CONTINUOUS
 10
101.5102586463
 20
114.0350287572
  0
VERTEX
  8
0
 62
7
  6
CONTINUOUS
 10
101.5374671193
 20
113.8924943009
  0
VERTEX
  8
0
 62
7
  6
CONTINUOUS
 10
101.5529922444
 20
113.7415010134
  0
VERTEX
  8
0
 62
7
  6
CONTINUOUS
 10
101.5573819433
 20
113.5994951366
  0
SEQEND
  0
LINE
  8
0
 62
7
  6
CONTINUOUS
 10
69.2734814428
 20
142.5075107759
 11
69.2761314655
 21
142.4962341678
  0
LINE
  8
0
 62
7
  6
CONTINUOUS
 10
76.0180781747
 20
117.5275107759
 11
75.9563056747
 21
118.5075107759
  0
LINE
  8
0
 62
7
  6
CONTINUOUS
 10
75.8667985829
 20
119.9275107759
 11
75.8050260829
 21
120.9075107759
  0
LINE
  8
0
 62
7
  6
CONTINUOUS
 10
75.715518991
 20
122.3275107759
 11
75.653746491
 21
123.3075107759
  0
LINE
  8
0
 62
7
  6
CONTINUOUS
 10
75.5642393992
 20
124.7275107759
 11
75.5024668992
 21
125.7075107759
  0
LINE
  8
0
 62
7
  6
CONTINUOUS
 10
75.4129598074
 20
127.1275107759
 11
75.3511873074
 21
128.1075107759
  0
LINE
  8
0
 62
7
  6
CONTINUOUS
 10
75.2616802155
 20
129.5275107759
 11
75.1999077155
 21
130.5075107759
  0
LINE
  8
0
 62
7
  6
CONTINUOUS
 10
75.1104006237
 20
131.9275107759
 11
75.0486281237
 21
132.9075107759
  0
LINE
  8
0
 62
7
  6
CONTINUOUS
 10
74.9591210318
 20
134.3275107759
 11
74.8973485318
 21
135.3075107759
  0
LINE
  8
0
 62
7
  6
CONTINUOUS
 10
74.80784144
 20
136.7275107759
 11
74.74606894
 21
137.7075107759
  0
LINE
  8
0
 62
7
  6
CONTINUOUS
 10
74.6565618482
 20
139.1275107759
 11
74.5947893482
 21
140.1075107759
  0
LINE
  8
0
 62
7
  6
CONTINUOUS
 10
74.5052822563
 20
141.5275107759
 11
74.4435097563
 21
142.5075107759
  0
LINE
  8
0
 62
7
  6
CONTINUOUS
 10
74.1136314655
 20
140.0175107759
 11
74.1136314655
 21
140.1075107759
  0
LINE
  8
0
 62
7
  6
CONTINUOUS
 10
74.1136314655
 20
142.0175107759
 11
74.1136314655
 21
142.1770852473
  0
LINE
  8
0
 62
7
  6
CONTINUOUS
 10
74.2073813225
 20
142.1770852473
 11
74.2073813225
 21
142.0175107759
  0
LINE
  8
0
 62
7
  6
CONTINUOUS
 10
74.2073813225
 20
140.1075107759
 11
74.2073813225
 21
140.0175107759
  0
LINE
  8
0
 62
7
  6
CONTINUOUS
 10
74.3948814655
 20
140.0175107759
 11
74.3948814655
 21
140.1075107759
  0
LINE
  8
0
 62
7
  6
CONTINUOUS
 10
74.3948814655
 20
142.0175107759
 11
74.3948814655
 21
142.1451703463
  0
LINE
  8
0
 62
7
  6
CONTINUOUS
 10
77.3198814655
 20
140.0494256685
 11
77.2261315013
 21
140.0175107759
  0
LINE
  8
0
 62
7
  6
CONTINUOUS
 10
56.9083854852
 20
117.5275107759
 11
58.2303264324
 21
117.5275107759
  0
LINE
  8
0
 62
7
  6
CONTINUOUS
 10
62.0644364986
 20
117.5275107759
 11
63.4063774458
 21
117.5275107759
  0
LINE
  8
0
 62
7
  6
CONTINUOUS
 10
65.0103075279
 20
117.5275107759
 11
68.0935097563
 21
117.5275107759
  0
LINE
  8
0
 62
7
  6
CONTINUOUS
 10
69.6966847563
 20
117.5275107759
 11
70.9403264324
 21
117.5275107759
  0
LINE
  8
0
 62
7
  6
CONTINUOUS
 10
74.7744364986
 20
117.5275107759
 11
76.0180781747
 21
117.5275107759
  0
LINE
  8
0
 62
7
  6
CONTINUOUS
 10
77.6212531747
 20
117.5275107759
 11
80.7044554031
 21
117.5275107759
  0
LINE
  8
0
 62
7
  6
CONTINUOUS
 10
82.3083854852
 20
117.5275107759
 11
83.6403264324
 21
117.5275107759
  0
LINE
  8
0
 62
7
  6
CONTINUOUS
 10
87.4744364986
 20
117.5275107759
 11
88.8063774458
 21
117.5275107759
  0
LINE
  8
0
 62
7
  6
CONTINUOUS
 10
90.4103075279
 20
117.5275107759
 11
93.4935097563
 21
117.5275107759
  0
LINE
  8
0
 62
7
  6
CONTINUOUS
 10
95.0966847563
 20
117.5275107759
 11
96.3403264324
 21
117.5275107759
  0
LINE
  8
0
 62
7
  6
CONTINUOUS
 10
100.1744364986
 20
117.5275107759
 11
101.4180781747
 21
117.5275107759
  0
LINE
  8
0
 62
7
  6
CONTINUOUS
 10
103.0212531747
 20
117.5275107759
 11
106.1044554031
 21
117.5275107759
  0
LINE
  8
0
 62
7
  6
CONTINUOUS
 10
107.7083854852
 20
117.5275107759
 11
109.0503264324
 21
117.5275107759
  0
LINE
  8
0
 62
7
  6
CONTINUOUS
 10
112.8844364986
 20
117.5275107759
 11
114.2063774458
 21
117.5275107759
  0
LINE
  8
0
 62
7
  6
CONTINUOUS
 10
104.619881549
 20
117.8568725091
 11
103.7886314655
 21
117.8568725091
  0
LINE
  8
0
 62
7
  6
CONTINUOUS
 10
70.8622874828
 20
118.2375107759
 11
70.3873814655
 21
118.2375107759
  0
LINE
  8
0
 62
7
  6
CONTINUOUS
 10
95.907381549
 20
118.3036809664
 11
96.2136313821
 21
118.3036809664
  0
LINE
  8
0
 62
7
  6
CONTINUOUS
 10
103.7886314655
 20
118.3036809664
 11
104.5761314655
 21
118.3036809664
  0
LINE
  8
0
 62
7
  6
CONTINUOUS
 10
56.9771158135
 20
118.5075107759
 11
58.1898575193
 21
118.5075107759
  0
LINE
  8
0
 62
7
  6
CONTINUOUS
 10
62.1049054117
 20
118.5075107759
 11
63.3376471175
 21
118.5075107759
  0
LINE
  8
0
 62
7
  6
CONTINUOUS
 10
64.9415771996
 20
118.5075107759
 11
68.1552822563
 21
118.5075107759
  0
LINE
  8
0
 62
7
  6
CONTINUOUS
 10
69.7584572563
 20
118.5075107759
 11
70.8998575193
 21
118.5075107759
  0
LINE
  8
0
 62
7
  6
CONTINUOUS
 10
74.8149054117
 20
118.5075107759
 11
75.9563056747
 21
118.5075107759
  0
LINE
  8
0
 62
7
  6
CONTINUOUS
 10
77.5594806747
 20
118.5075107759
 11
80.7731857315
 21
118.5075107759
  0
LINE
  8
0
 62
7
  6
CONTINUOUS
 10
82.3771158135
 20
118.5075107759
 11
83.5998575193
 21
118.5075107759
  0
LINE
  8
0
 62
7
  6
CONTINUOUS
 10
87.5149054117
 20
118.5075107759
 11
88.7376471175
 21
118.5075107759
  0
LINE
  8
0
 62
7
  6
CONTINUOUS
 10
90.3415771996
 20
118.5075107759
 11
93.5552822563
 21
118.5075107759
  0
LINE
  8
0
 62
7
  6
CONTINUOUS
 10
95.1584572563
 20
118.5075107759
 11
96.2998575193
 21
118.5075107759
  0
LINE
  8
0
 62
7
  6
CONTINUOUS
 10
100.2149054117
 20
118.5075107759
 11
101.3563056747
 21
118.5075107759
  0
LINE
  8
0
 62
7
  6
CONTINUOUS
 10
102.9594806747
 20
118.5075107759
 11
106.1731857315
 21
118.5075107759
  0
LINE
  8
0
 62
7
  6
CONTINUOUS
 10
107.7771158135
 20
118.5075107759
 11
109.0098575193
 21
118.5075107759
  0
LINE
  8
0
 62
7
  6
CONTINUOUS
 10
112.9249054117
 20
118.5075107759
 11
114.1376471175
 21
118.5075107759
  0
POLYLINE
  8
0
 62
7
  6
CONTINUOUS
 66
1
 70
0
  0
VERTEX
  8
0
 62
7
  6
CONTINUOUS
 10
113.7573814613
 20
114.5818150256
  0
VERTEX
  8
0
 62
7
  6
CONTINUOUS
 10
113.8318048385
 20
114.5706653166
  0
VERTEX
  8
0
 62
7
  6
CONTINUOUS
 10
113.9148051836
 20
114.5318095148
  0
VERTEX
  8
0
 62
7
  6
CONTINUOUS
 10
113.9921020906
 20
114.4687445216
  0
VERTEX
  8
0
 62
7
  6
CONTINUOUS
 10
114.0614022303
 20
114.3852180238
  0
VERTEX
  8
0
 62
7
  6
CONTINUOUS
 10
114.1214015783
 20
114.2839443452
  0
VERTEX
  8
0
 62
7
  6
CONTINUOUS
 10
114.1714034865
 20
114.1663316824
  0
VERTEX
  8
0
 62
7
  6
CONTINUOUS
 10
114.2102586719
 20
114.0350286006
  0
VERTEX
  8
0
 62
7
  6
CONTINUOUS
 10
114.2374671179
 20
113.8924942627
  0
VERTEX
  8
0
 62
7
  6
CONTINUOUS
 10
114.2529922176
 20
113.7415011362
  0
VERTEX
  8
0
 62
7
  6
CONTINUOUS
 10
114.2573819572
 20
113.5994937884
  0
SEQEND
  0
POLYLINE
  8
0
 62
7
  6
CONTINUOUS
 66
1
 70
0
  0
VERTEX
  8
0
 62
7
  6
CONTINUOUS
 10
88.8573814655
 20
109.7427659045
  0
VERTEX
  8
0
 62
7
  6
CONTINUOUS
 10
88.8741535886
 20
109.7219720838
  0
VERTEX
  8
0
 62
7
  6
CONTINUOUS
 10
88.9235452571
 20
109.7028261213
  0
VERTEX
  8
0
 62
7
  6
CONTINUOUS
 10
89.0025316342
 20
109.6865342455
  0
VERTEX
  8
0
 62
7
  6
CONTINUOUS
 10
89.1059988861
 20
109.6741103706
  0
VERTEX
  8
0
 62
7
  6
CONTINUOUS
 10
89.2270291973
 20
109.6663252674
  0
VERTEX
  8
0
 62
7
  6
CONTINUOUS
 10
89.3573814655
 20
109.6636702948
  0
SEQEND
  0
LINE
  8
0
 62
7
  6
CONTINUOUS
 10
71.3386317516
 20
142.2728299167
 11
71.3198811794
 21
142.3685746085
  0
LINE
  8
0
 62
7
  6
CONTINUOUS
 10
72.4823814655
 20
142.4643192779
 11
72.5011316086
 21
142.3685746085
  0
LINE
  8
0
 62
7
  6
CONTINUOUS
 10
76.0466847563
 20
142.5075107759
 11
76.1084572563
 21
141.5275107759
  0
LINE
  8
0
 62
7
  6
CONTINUOUS
 10
76.1979643482
 20
140.1075107759
 11
76.2597368482
 21
139.1275107759
  0
LINE
  8
0
 62
7
  6
CONTINUOUS
 10
76.34924394
 20
137.7075107759
 11
76.41101644
 21
136.7275107759
  0
LINE
  8
0
 62
7
  6
CONTINUOUS
 10
76.5005235318
 20
135.3075107759
 11
76.5622960318
 21
134.3275107759
  0
LINE
  8
0
 62
7
  6
CONTINUOUS
 10
76.6518031237
 20
132.9075107759
 11
76.7135756237
 21
131.9275107759
  0
LINE
  8
0
 62
7
  6
CONTINUOUS
 10
76.8030827155
 20
130.5075107759
 11
76.8648552155
 21
129.5275107759
  0
LINE
  8
0
 62
7
  6
CONTINUOUS
 10
76.9543623074
 20
128.1075107759
 11
77.0161348074
 21
127.1275107759
  0
LINE
  8
0
 62
7
  6
CONTINUOUS
 10
77.1056418992
 20
125.7075107759
 11
77.1674143992
 21
124.7275107759
  0
LINE
  8
0
 62
7
  6
CONTINUOUS
 10
77.256921491
 20
123.3075107759
 11
77.318693991
 21
122.3275107759
  0
LINE
  8
0
 62
7
  6
CONTINUOUS
 10
77.4082010829
 20
120.9075107759
 11
77.4699735829
 21
119.9275107759
  0
LINE
  8
0
 62
7
  6
CONTINUOUS
 10
77.5594806747
 20
118.5075107759
 11
77.6212531747
 21
117.5275107759
  0
LINE
  8
0
 62
7
  6
CONTINUOUS
 10
75.9073814655
 20
146.4354841584
 11
75.9073814655
 21
152.8075107759
  0
LINE
  8
0
 62
7
  6
CONTINUOUS
 10
76.1573814655
 20
107.2275107759
 11
76.1573814655
 21
113.599534279
  0
LINE
  8
0
 62
7
  6
CONTINUOUS
 10
76.288631537
 20
140.0175107759
 11
76.288631537
 21
140.1075107759
  0
LINE
  8
0
 62
7
  6
CONTINUOUS
 10
76.288631537
 20
142.0175107759
 11
76.288631537
 21
142.5075107759
  0
LINE
  8
0
 62
7
  6
CONTINUOUS
 10
76.401131537
 20
142.5075107759
 11
76.401131537
 21
142.0175107759
  0
LINE
  8
0
 62
7
  6
CONTINUOUS
 10
76.401131537
 20
140.1075107759
 11
76.401131537
 21
140.0175107759
  0
LINE
  8
0
 62
7
  6
CONTINUOUS
 10
76.551131394
 20
140.0175107759
 11
76.551131394
 21
140.1075107759
  0
LINE
  8
0
 62
7
  6
CONTINUOUS
 10
76.551131394
 20
142.0175107759
 11
76.551131394
 21
142.1770852473
  0
LINE
  8
0
 62
7
  6
CONTINUOUS
 10
76.6448814655
 20
140.1075107759
 11
76.6448814655
 21
140.0175107759
  0
LINE
  8
0
 62
7
  6
CONTINUOUS
 10
77.6386314298
 20
140.0175107759
 11
77.6386314298
 21
140.1075107759
  0
LINE
  8
0
 62
7
  6
CONTINUOUS
 10
77.7323814476
 20
140.1075107759
 11
77.7323814476
 21
140.0175107759
  0
POLYLINE
  8
0
 62
7
  6
CONTINUOUS
 66
1
 70
0
  0
VERTEX
  8
0
 62
7
  6
CONTINUOUS
 10
56.8573814655
 20
109.7427659045
  0
VERTEX
  8
0
 62
7
  6
CONTINUOUS
 10
56.8406093424
 20
109.7219720838
  0
VERTEX
  8
0
 62
7
  6
CONTINUOUS
 10
56.7912176739
 20
109.7028261213
  0
VERTEX
  8
0
 62
7
  6
CONTINUOUS
 10
56.7122312969
 20
109.6865342455
  0
VERTEX
  8
0
 62
7
  6
CONTINUOUS
 10
56.6087640449
 20
109.6741103706
  0
VERTEX
  8
0
 62
7
  6
CONTINUOUS
 10
56.4877337338
 20
109.6663252674
  0
VERTEX
  8
0
 62
7
  6
CONTINUOUS
 10
56.3573814655
 20
109.6636702948
  0
SEQEND
  0
LINE
  8
0
 62
7
  6
CONTINUOUS
 10
55.4573814655
 20
119.9275107759
 11
55.4727745746
 21
119.9275107759
  0
LINE
  8
0
 62
7
  6
CONTINUOUS
 10
57.0767046566
 20
119.9275107759
 11
59.340473788
 21
119.9275107759
  0
LINE
  8
0
 62
7
  6
CONTINUOUS
 10
60.954289143
 20
119.9275107759
 11
63.2380582744
 21
119.9275107759
  0
LINE
  8
0
 62
7
  6
CONTINUOUS
 10
64.8419883565
 20
119.9275107759
 11
68.2447893482
 21
119.9275107759
  0
LINE
  8
0
 62
7
  6
CONTINUOUS
 10
69.8479643482
 20
119.9275107759
 11
72.050473788
 21
119.9275107759
  0
LINE
  8
0
 62
7
  6
CONTINUOUS
 10
73.664289143
 20
119.9275107759
 11
75.8667985829
 21
119.9275107759
  0
LINE
  8
0
 62
7
  6
CONTINUOUS
 10
77.4699735829
 20
119.9275107759
 11
80.8727745746
 21
119.9275107759
  0
LINE
  8
0
 62
7
  6
CONTINUOUS
 10
82.4767046566
 20
119.9275107759
 11
84.750473788
 21
119.9275107759
  0
LINE
  8
0
 62
7
  6
CONTINUOUS
 10
86.364289143
 20
119.9275107759
 11
88.6380582744
 21
119.9275107759
  0
LINE
  8
0
 62
7
  6
CONTINUOUS
 10
90.2419883565
 20
119.9275107759
 11
93.6447893482
 21
119.9275107759
  0
LINE
  8
0
 62
7
  6
CONTINUOUS
 10
95.2479643482
 20
119.9275107759
 11
97.450473788
 21
119.9275107759
  0
LINE
  8
0
 62
7
  6
CONTINUOUS
 10
99.064289143
 20
119.9275107759
 11
101.2667985829
 21
119.9275107759
  0
LINE
  8
0
 62
7
  6
CONTINUOUS
 10
102.8699735829
 20
119.9275107759
 11
106.2727745746
 21
119.9275107759
  0
LINE
  8
0
 62
7
  6
CONTINUOUS
 10
107.8767046566
 20
119.9275107759
 11
110.160473788
 21
119.9275107759
  0
LINE
  8
0
 62
7
  6
CONTINUOUS
 10
111.774289143
 20
119.9275107759
 11
114.0380582744
 21
119.9275107759
  0
LINE
  8
0
 62
7
  6
CONTINUOUS
 10
115.6419883565
 20
119.9275107759
 11
115.6573814655
 21
119.9275107759
  0
LINE
  8
0
 62
7
  6
CONTINUOUS
 10
55.4573814655
 20
120.9075107759
 11
55.5415049029
 21
120.9075107759
  0
LINE
  8
0
 62
7
  6
CONTINUOUS
 10
57.145434985
 20
120.9075107759
 11
63.1693279461
 21
120.9075107759
  0
LINE
  8
0
 62
7
  6
CONTINUOUS
 10
64.7732580281
 20
120.9075107759
 11
68.3065618482
 21
120.9075107759
  0
LINE
  8
0
 62
7
  6
CONTINUOUS
 10
69.9097368482
 20
120.9075107759
 11
75.8050260829
 21
120.9075107759
  0
LINE
  8
0
 62
7
  6
CONTINUOUS
 10
77.4082010829
 20
120.9075107759
 11
80.9415049029
 21
120.9075107759
  0
LINE
  8
0
 62
7
  6
CONTINUOUS
 10
82.545434985
 20
120.9075107759
 11
88.5693279461
 21
120.9075107759
  0
LINE
  8
0
 62
7
  6
CONTINUOUS
 10
90.1732580281
 20
120.9075107759
 11
93.7065618482
 21
120.9075107759
  0
LINE
  8
0
 62
7
  6
CONTINUOUS
 10
95.3097368482
 20
120.9075107759
 11
101.2050260829
 21
120.9075107759
  0
LINE
  8
0
 62
7
  6
CONTINUOUS
 10
102.8082010829
 20
120.9075107759
 11
106.3415049029
 21
120.9075107759
  0
LINE
  8
0
 62
7
  6
CONTINUOUS
 10
107.945434985
 20
120.9075107759
 11
113.9693279461
 21
120.9075107759
  0
LINE
  8
0
 62
7
  6
CONTINUOUS
 10
115.5732580281
 20
120.9075107759
 11
115.6573814655
 21
120.9075107759
  0
LINE
  8
0
 62
7
  6
CONTINUOUS
 10
55.4573814655
 20
122.3275107759
 11
55.641093746
 21
122.3275107759
  0
LINE
  8
0
 62
7
  6
CONTINUOUS
 10
57.2450238281
 20
122.3275107759
 11
63.069739103
 21
122.3275107759
  0
LINE
  8
0
 62
7
  6
CONTINUOUS
 10
64.673669185
 20
122.3275107759
 11
68.39606894
 21
122.3275107759
  0
LINE
  8
0
 62
7
  6
CONTINUOUS
 10
69.99924394
 20
122.3275107759
 11
75.715518991
 21
122.3275107759
  0
LINE
  8
0
 62
7
  6
CONTINUOUS
 10
77.318693991
 20
122.3275107759
 11
81.041093746
 21
122.3275107759
  0
LINE
  8
0
 62
7
  6
CONTINUOUS
 10
82.6450238281
 20
122.3275107759
 11
88.469739103
 21
122.3275107759
  0
LINE
  8
0
 62
7
  6
CONTINUOUS
 10
90.073669185
 20
122.3275107759
 11
93.79606894
 21
122.3275107759
  0
LINE
  8
0
 62
7
  6
CONTINUOUS
 10
95.39924394
 20
122.3275107759
 11
101.115518991
 21
122.3275107759
  0
LINE
  8
0
 62
7
  6
CONTINUOUS
 10
102.718693991
 20
122.3275107759
 11
106.441093746
 21
122.3275107759
  0
LINE
  8
0
 62
7
  6
CONTINUOUS
 10
108.0450238281
 20
122.3275107759
 11
113.869739103
 21
122.3275107759
  0
LINE
  8
0
 62
7
  6
CONTINUOUS
 10
115.473669185
 20
122.3275107759
 11
115.6573814655
 21
122.3275107759
  0
LINE
  8
0
 62
7
  6
CONTINUOUS
 10
69.1823811794
 20
142.4962341678
 11
69.1774124251
 21
142.5075107759
  0
LINE
  8
0
 62
7
  6
CONTINUOUS
 10
71.3761316086
 20
142.1770852473
 11
71.3386317516
 21
142.2728299167
  0
LINE
  8
0
 62
7
  6
CONTINUOUS
 10
72.5011316086
 20
142.3685746085
 11
72.5386314655
 21
142.2728299167
  0
LINE
  8
0
 62
7
  6
CONTINUOUS
 10
71.4136314655
 20
142.3685746085
 11
71.4323816086
 21
142.3047448289
  0
LINE
  8
0
 62
7
  6
CONTINUOUS
 10
72.4261314655
 20
142.2728299167
 11
72.3886316086
 21
142.4324043881
  0
POLYLINE
  8
0
 62
7
  6
CONTINUOUS
 66
1
 70
0
  0
VERTEX
  8
0
 62
7
  6
CONTINUOUS
 10
95.2073814655
 20
150.2922556473
  0
VERTEX
  8
0
 62
7
  6
CONTINUOUS
 10
95.2241535886
 20
150.313049468
  0
VERTEX
  8
0
 62
7
  6
CONTINUOUS
 10
95.2735452571
 20
150.3321954304
  0
VERTEX
  8
0
 62
7
  6
CONTINUOUS
 10
95.3525316342
 20
150.3484873062
  0
VERTEX
  8
0
 62
7
  6
CONTINUOUS
 10
95.4559988861
 20
150.3609111811
  0
VERTEX
  8
0
 62
7
  6
CONTINUOUS
 10
95.5770291973
 20
150.3686962843
  0
VERTEX
  8
0
 62
7
  6
CONTINUOUS
 10
95.7073814655
 20
150.3713512569
  0
SEQEND
  0
LINE
  8
0
 62
7
  6
CONTINUOUS
 10
55.4573814655
 20
123.3075107759
 11
55.7098240743
 21
123.3075107759
  0
LINE
  8
0
 62
7
  6
CONTINUOUS
 10
57.3137541564
 20
123.3075107759
 11
63.0010087746
 21
123.3075107759
  0
LINE
  8
0
 62
7
  6
CONTINUOUS
 10
64.6049388567
 20
123.3075107759
 11
68.45784144
 21
123.3075107759
  0
LINE
  8
0
 62
7
  6
CONTINUOUS
 10
70.06101644
 20
123.3075107759
 11
75.653746491
 21
123.3075107759
  0
LINE
  8
0
 62
7
  6
CONTINUOUS
 10
77.256921491
 20
123.3075107759
 11
81.1098240743
 21
123.3075107759
  0
LINE
  8
0
 62
7
  6
CONTINUOUS
 10
82.7137541564
 20
123.3075107759
 11
88.4010087746
 21
123.3075107759
  0
LINE
  8
0
 62
7
  6
CONTINUOUS
 10
90.0049388567
 20
123.3075107759
 11
93.85784144
 21
123.3075107759
  0
LINE
  8
0
 62
7
  6
CONTINUOUS
 10
95.46101644
 20
123.3075107759
 11
101.053746491
 21
123.3075107759
  0
LINE
  8
0
 62
7
  6
CONTINUOUS
 10
102.656921491
 20
123.3075107759
 11
106.5098240743
 21
123.3075107759
  0
LINE
  8
0
 62
7
  6
CONTINUOUS
 10
108.1137541564
 20
123.3075107759
 11
113.8010087746
 21
123.3075107759
  0
LINE
  8
0
 62
7
  6
CONTINUOUS
 10
115.4049388567
 20
123.3075107759
 11
115.6573814655
 21
123.3075107759
  0
LINE
  8
0
 62
7
  6
CONTINUOUS
 10
55.4573814655
 20
124.7275107759
 11
55.8094129174
 21
124.7275107759
  0
LINE
  8
0
 62
7
  6
CONTINUOUS
 10
57.4133429995
 20
124.7275107759
 11
62.9014199315
 21
124.7275107759
  0
LINE
  8
0
 62
7
  6
CONTINUOUS
 10
64.5053500136
 20
124.7275107759
 11
68.5473485318
 21
124.7275107759
  0
LINE
  8
0
 62
7
  6
CONTINUOUS
 10
70.1505235318
 20
124.7275107759
 11
75.5642393992
 21
124.7275107759
  0
LINE
  8
0
 62
7
  6
CONTINUOUS
 10
77.1674143992
 20
124.7275107759
 11
81.2094129174
 21
124.7275107759
  0
LINE
  8
0
 62
7
  6
CONTINUOUS
 10
82.8133429995
 20
124.7275107759
 11
88.3014199315
 21
124.7275107759
  0
LINE
  8
0
 62
7
  6
CONTINUOUS
 10
89.9053500136
 20
124.7275107759
 11
93.9473485318
 21
124.7275107759
  0
LINE
  8
0
 62
7
  6
CONTINUOUS
 10
95.5505235318
 20
124.7275107759
 11
100.9642393992
 21
124.7275107759
  0
LINE
  8
0
 62
7
  6
CONTINUOUS
 10
102.5674143992
 20
124.7275107759
 11
106.6094129174
 21
124.7275107759
  0
LINE
  8
0
 62
7
  6
CONTINUOUS
 10
108.2133429995
 20
124.7275107759
 11
113.7014199315
 21
124.7275107759
  0
LINE
  8
0
 62
7
  6
CONTINUOUS
 10
115.3053500136
 20
124.7275107759
 11
115.6573814655
 21
124.7275107759
  0
LINE
  8
0
 62
7
  6
CONTINUOUS
 10
104.5761314655
 20
118.3036809664
 11
104.7948813821
 21
118.2292128902
  0
LINE
  8
0
 62
7
  6
CONTINUOUS
 10
71.4323816086
 20
142.3047448289
 11
71.4698814655
 21
142.2409150269
  0
LINE
  8
0
 62
7
  6
CONTINUOUS
 10
72.4823814655
 20
142.1451703463
 11
72.4261314655
 21
142.2728299167
  0
LINE
  8
0
 62
7
  6
CONTINUOUS
 10
82.2573814655
 20
107.2275107759
 11
82.2573814655
 21
113.5995376136
  0
LINE
  8
0
 62
7
  6
CONTINUOUS
 10
82.5073814655
 20
146.4354867925
 11
82.5073814655
 21
152.8075107759
  0
POLYLINE
  8
0
 62
7
  6
CONTINUOUS
 66
1
 70
0
  0
VERTEX
  8
0
 62
7
  6
CONTINUOUS
 10
82.5073819527
 20
146.4355280378
  0
VERTEX
  8
0
 62
7
  6
CONTINUOUS
 10
82.5030732541
 20
146.2948015907
  0
VERTEX
  8
0
 62
7
  6
CONTINUOUS
 10
82.4876358705
 20
146.143695143
  0
VERTEX
  8
0
 62
7
  6
CONTINUOUS
 10
82.4605125821
 20
146.0010490243
  0
VERTEX
  8
0
 62
7
  6
CONTINUOUS
 10
82.421739487
 20
145.8696328456
  0
VERTEX
  8
0
 62
7
  6
CONTINUOUS
 10
82.3718163683
 20
145.7519031991
  0
VERTEX
  8
0
 62
7
  6
CONTINUOUS
 10
82.31189116
 20
145.6505041981
  0
VERTEX
  8
0
 62
7
  6
CONTINUOUS
 10
82.2426593871
 20
145.5668371243
  0
VERTEX
  8
0
 62
7
  6
CONTINUOUS
 10
82.1654196349
 20
145.503606428
  0
VERTEX
  8
0
 62
7
  6
CONTINUOUS
 10
82.0824470247
 20
145.4645493379
  0
VERTEX
  8
0
 62
7
  6
CONTINUOUS
 10
82.0073814655
 20
145.4532065255
  0
SEQEND
  0
POLYLINE
  8
0
 62
7
  6
CONTINUOUS
 66
1
 70
0
  0
VERTEX
  8
0
 62
7
  6
CONTINUOUS
 10
82.2573812436
 20
113.5994846391
  0
VERTEX
  8
0
 62
7
  6
CONTINUOUS
 10
82.2616900372
 20
113.7402239123
  0
VERTEX
  8
0
 62
7
  6
CONTINUOUS
 10
82.2771275928
 20
113.8913308225
  0
VERTEX
  8
0
 62
7
  6
CONTINUOUS
 10
82.3042506569
 20
114.0339736008
  0
VERTEX
  8
0
 62
7
  6
CONTINUOUS
 10
82.3430233533
 20
114.1653882318
  0
VERTEX
  8
0
 62
7
  6
CONTINUOUS
 10
82.3929466557
 20
114.2831185312
  0
VERTEX
  8
0
 62
7
  6
CONTINUOUS
 10
82.4528717668
 20
114.3845173641
  0
VERTEX
  8
0
 62
7
  6
CONTINUOUS
 10
82.5221036863
 20
114.4681845366
  0
VERTEX
  8
0
 62
7
  6
CONTINUOUS
 10
82.599343951
 20
114.531415517
  0
VERTEX
  8
0
 62
7
  6
CONTINUOUS
 10
82.6823193282
 20
114.570473247
  0
VERTEX
  8
0
 62
7
  6
CONTINUOUS
 10
82.7573814655
 20
114.5818150329
  0
SEQEND
  0
LINE
  8
0
 62
7
  6
CONTINUOUS
 10
80.7044554031
 20
117.5275107759
 11
80.7731857315
 21
118.5075107759
  0
LINE
  8
0
 62
7
  6
CONTINUOUS
 10
80.8727745746
 20
119.9275107759
 11
80.9415049029
 21
120.9075107759
  0
LINE
  8
0
 62
7
  6
CONTINUOUS
 10
81.041093746
 20
122.3275107759
 11
81.1098240743
 21
123.3075107759
  0
LINE
  8
0
 62
7
  6
CONTINUOUS
 10
81.2094129174
 20
124.7275107759
 11
81.2781432458
 21
125.7075107759
  0
LINE
  8
0
 62
7
  6
CONTINUOUS
 10
81.3777320889
 20
127.1275107759
 11
81.4464624172
 21
128.1075107759
  0
LINE
  8
0
 62
7
  6
CONTINUOUS
 10
81.5460512603
 20
129.5275107759
 11
81.6147815886
 21
130.5075107759
  0
LINE
  8
0
 62
7
  6
CONTINUOUS
 10
81.7143704317
 20
131.9275107759
 11
81.7831007601
 21
132.9075107759
  0
LINE
  8
0
 62
7
  6
CONTINUOUS
 10
81.8826896032
 20
134.3275107759
 11
81.9514199315
 21
135.3075107759
  0
LINE
  8
0
 62
7
  6
CONTINUOUS
 10
82.0510087746
 20
136.7275107759
 11
82.119739103
 21
137.7075107759
  0
LINE
  8
0
 62
7
  6
CONTINUOUS
 10
82.2193279461
 20
139.1275107759
 11
82.2880582744
 21
140.1075107759
  0
LINE
  8
0
 62
7
  6
CONTINUOUS
 10
82.3876471175
 20
141.5275107759
 11
82.4563774458
 21
142.5075107759
  0
LINE
  8
0
 62
7
  6
CONTINUOUS
 10
84.0603075279
 20
142.5075107759
 11
83.9915771996
 21
141.5275107759
  0
LINE
  8
0
 62
7
  6
CONTINUOUS
 10
83.8919883565
 20
140.1075107759
 11
83.8232580281
 21
139.1275107759
  0
LINE
  8
0
 62
7
  6
CONTINUOUS
 10
83.723669185
 20
137.7075107759
 11
83.6549388567
 21
136.7275107759
  0
LINE
  8
0
 62
7
  6
CONTINUOUS
 10
83.5553500136
 20
135.3075107759
 11
83.4866196853
 21
134.3275107759
  0
LINE
  8
0
 62
7
  6
CONTINUOUS
 10
83.3870308422
 20
132.9075107759
 11
83.3183005138
 21
131.9275107759
  0
LINE
  8
0
 62
7
  6
CONTINUOUS
 10
83.2187116707
 20
130.5075107759
 11
83.1499813424
 21
129.5275107759
  0
LINE
  8
0
 62
7
  6
CONTINUOUS
 10
83.0503924993
 20
128.1075107759
 11
82.981662171
 21
127.1275107759
  0
LINE
  8
0
 62
7
  6
CONTINUOUS
 10
82.8820733279
 20
125.7075107759
 11
82.8133429995
 21
124.7275107759
  0
LINE
  8
0
 62
7
  6
CONTINUOUS
 10
82.7137541564
 20
123.3075107759
 11
82.6450238281
 21
122.3275107759
  0
LINE
  8
0
 62
7
  6
CONTINUOUS
 10
82.545434985
 20
120.9075107759
 11
82.4767046566
 21
119.9275107759
  0
LINE
  8
0
 62
7
  6
CONTINUOUS
 10
82.3771158135
 20
118.5075107759
 11
82.3083854852
 21
117.5275107759
  0
LINE
  8
0
 62
7
  6
CONTINUOUS
 10
101.713631549
 20
142.3260213476
 11
101.844881549
 21
142.4004894238
  0
LINE
  8
0
 62
7
  6
CONTINUOUS
 10
101.9933035844
 20
142.0913074083
 11
101.844881549
 21
142.0281490427
  0
LINE
  8
0
 62
7
  6
CONTINUOUS
 10
55.4573814655
 20
125.7075107759
 11
55.8781432458
 21
125.7075107759
  0
LINE
  8
0
 62
7
  6
CONTINUOUS
 10
57.4820733279
 20
125.7075107759
 11
62.8326896032
 21
125.7075107759
  0
LINE
  8
0
 62
7
  6
CONTINUOUS
 10
64.4366196853
 20
125.7075107759
 11
68.6091210318
 21
125.7075107759
  0
LINE
  8
0
 62
7
  6
CONTINUOUS
 10
70.2122960318
 20
125.7075107759
 11
75.5024668992
 21
125.7075107759
  0
LINE
  8
0
 62
7
  6
CONTINUOUS
 10
77.1056418992
 20
125.7075107759
 11
81.2781432458
 21
125.7075107759
  0
LINE
  8
0
 62
7
  6
CONTINUOUS
 10
82.8820733279
 20
125.7075107759
 11
88.2326896032
 21
125.7075107759
  0
LINE
  8
0
 62
7
  6
CONTINUOUS
 10
89.8366196853
 20
125.7075107759
 11
94.0091210318
 21
125.7075107759
  0
LINE
  8
0
 62
7
  6
CONTINUOUS
 10
95.6122960318
 20
125.7075107759
 11
100.9024668992
 21
125.7075107759
  0
LINE
  8
0
 62
7
  6
CONTINUOUS
 10
102.5056418992
 20
125.7075107759
 11
106.6781432458
 21
125.7075107759
  0
LINE
  8
0
 62
7
  6
CONTINUOUS
 10
108.2820733279
 20
125.7075107759
 11
113.6326896032
 21
125.7075107759
  0
LINE
  8
0
 62
7
  6
CONTINUOUS
 10
115.2366196853
 20
125.7075107759
 11
115.6573814655
 21
125.7075107759
  0
LINE
  8
0
 62
7
  6
CONTINUOUS
 10
55.4573814655
 20
127.1275107759
 11
55.9777320889
 21
127.1275107759
  0
LINE
  8
0
 62
7
  6
CONTINUOUS
 10
57.581662171
 20
127.1275107759
 11
62.7331007601
 21
127.1275107759
  0
LINE
  8
0
 62
7
  6
CONTINUOUS
 10
64.3370308422
 20
127.1275107759
 11
68.6986281237
 21
127.1275107759
  0
LINE
  8
0
 62
7
  6
CONTINUOUS
 10
70.3018031237
 20
127.1275107759
 11
75.4129598074
 21
127.1275107759
  0
LINE
  8
0
 62
7
  6
CONTINUOUS
 10
77.0161348074
 20
127.1275107759
 11
81.3777320889
 21
127.1275107759
  0
LINE
  8
0
 62
7
  6
CONTINUOUS
 10
82.981662171
 20
127.1275107759
 11
88.1331007601
 21
127.1275107759
  0
LINE
  8
0
 62
7
  6
CONTINUOUS
 10
89.7370308422
 20
127.1275107759
 11
94.0986281237
 21
127.1275107759
  0
LINE
  8
0
 62
7
  6
CONTINUOUS
 10
95.7018031237
 20
127.1275107759
 11
100.8129598074
 21
127.1275107759
  0
LINE
  8
0
 62
7
  6
CONTINUOUS
 10
102.4161348074
 20
127.1275107759
 11
106.7777320889
 21
127.1275107759
  0
LINE
  8
0
 62
7
  6
CONTINUOUS
 10
108.381662171
 20
127.1275107759
 11
113.5331007601
 21
127.1275107759
  0
LINE
  8
0
 62
7
  6
CONTINUOUS
 10
115.1370308422
 20
127.1275107759
 11
115.6573814655
 21
127.1275107759
  0
LINE
  8
0
 62
7
  6
CONTINUOUS
 10
68.7886311794
 20
140.0494256685
 11
68.7203814394
 21
140.1075107759
  0
LINE
  8
0
 62
7
  6
CONTINUOUS
 10
71.5448816086
 20
140.0494256685
 11
71.4880064322
 21
140.1075107759
  0
LINE
  8
0
 62
7
  6
CONTINUOUS
 10
71.4323816086
 20
142.1132554565
 11
71.3761316086
 21
142.1770852473
  0
LINE
  8
1_AXIS
 62
2
  6
CENTER
 10
85.5573814655
 20
154.9981208054
 11
85.5573814655
 21
132.0176107759
  0
LINE
  8
1_AXIS
 62
2
  6
CONTINUOUS
 10
85.5573814655
 20
130.8975107759
 11
85.5573814655
 21
129.1375107759
  0
LINE
  8
1_AXIS
 62
2
  6
CENTER
 10
85.5573814655
 20
102.6942281879
 11
85.5573814655
 21
128.0174107759
  0
POLYLINE
  8
0
 62
7
  6
CONTINUOUS
 66
1
 70
0
  0
VERTEX
  8
0
 62
7
  6
CONTINUOUS
 10
69.5573814655
 20
109.7427659045
  0
VERTEX
  8
0
 62
7
  6
CONTINUOUS
 10
69.5406093424
 20
109.7219720838
  0
VERTEX
  8
0
 62
7
  6
CONTINUOUS
 10
69.4912176739
 20
109.7028261213
  0
VERTEX
  8
0
 62
7
  6
CONTINUOUS
 10
69.4122312969
 20
109.6865342455
  0
VERTEX
  8
0
 62
7
  6
CONTINUOUS
 10
69.3087640449
 20
109.6741103706
  0
VERTEX
  8
0
 62
7
  6
CONTINUOUS
 10
69.1877337338
 20
109.6663252674
  0
VERTEX
  8
0
 62
7
  6
CONTINUOUS
 10
69.0573814655
 20
109.6636702948
  0
SEQEND
  0
LINE
  8
0
 62
7
  6
CONTINUOUS
 10
55.4573814655
 20
128.1075107759
 11
56.0464624172
 21
128.1075107759
  0
LINE
  8
0
 62
7
  6
CONTINUOUS
 10
57.6503924993
 20
128.1075107759
 11
62.6643704317
 21
128.1075107759
  0
LINE
  8
0
 62
7
  6
CONTINUOUS
 10
64.2683005138
 20
128.1075107759
 11
68.7604006237
 21
128.1075107759
  0
LINE
  8
0
 62
7
  6
CONTINUOUS
 10
70.3635756237
 20
128.1075107759
 11
75.3511873074
 21
128.1075107759
  0
LINE
  8
0
 62
7
  6
CONTINUOUS
 10
76.9543623074
 20
128.1075107759
 11
81.4464624172
 21
128.1075107759
  0
LINE
  8
0
 62
7
  6
CONTINUOUS
 10
83.0503924993
 20
128.1075107759
 11
88.0643704317
 21
128.1075107759
  0
LINE
  8
0
 62
7
  6
CONTINUOUS
 10
89.6683005138
 20
128.1075107759
 11
94.1604006237
 21
128.1075107759
  0
LINE
  8
0
 62
7
  6
CONTINUOUS
 10
95.7635756237
 20
128.1075107759
 11
100.7511873074
 21
128.1075107759
  0
LINE
  8
0
 62
7
  6
CONTINUOUS
 10
102.3543623074
 20
128.1075107759
 11
106.8464624172
 21
128.1075107759
  0
LINE
  8
0
 62
7
  6
CONTINUOUS
 10
108.4503924993
 20
128.1075107759
 11
113.4643704317
 21
128.1075107759
  0
LINE
  8
0
 62
7
  6
CONTINUOUS
 10
115.0683005138
 20
128.1075107759
 11
115.6573814655
 21
128.1075107759
  0
LINE
  8
0
 62
7
  6
CONTINUOUS
 10
55.4573814655
 20
129.5275107759
 11
56.1460512603
 21
129.5275107759
  0
LINE
  8
0
 62
7
  6
CONTINUOUS
 10
57.7499813424
 20
129.5275107759
 11
62.5647815886
 21
129.5275107759
  0
LINE
  8
0
 62
7
  6
CONTINUOUS
 10
64.1687116707
 20
129.5275107759
 11
68.8499077155
 21
129.5275107759
  0
LINE
  8
0
 62
7
  6
CONTINUOUS
 10
70.4530827155
 20
129.5275107759
 11
75.2616802155
 21
129.5275107759
  0
LINE
  8
0
 62
7
  6
CONTINUOUS
 10
76.8648552155
 20
129.5275107759
 11
81.5460512603
 21
129.5275107759
  0
LINE
  8
0
 62
7
  6
CONTINUOUS
 10
83.1499813424
 20
129.5275107759
 11
87.9647815886
 21
129.5275107759
  0
LINE
  8
0
 62
7
  6
CONTINUOUS
 10
89.5687116707
 20
129.5275107759
 11
94.2499077155
 21
129.5275107759
  0
LINE
  8
0
 62
7
  6
CONTINUOUS
 10
95.8530827155
 20
129.5275107759
 11
100.6616802155
 21
129.5275107759
  0
LINE
  8
0
 62
7
  6
CONTINUOUS
 10
102.2648552155
 20
129.5275107759
 11
106.9460512603
 21
129.5275107759
  0
LINE
  8
0
 62
7
  6
CONTINUOUS
 10
108.5499813424
 20
129.5275107759
 11
113.3647815886
 21
129.5275107759
  0
LINE
  8
0
 62
7
  6
CONTINUOUS
 10
114.9687116707
 20
129.5275107759
 11
115.6573814655
 21
129.5275107759
  0
LINE
  8
1_AXIS
 62
2
  6
CENTER
 10
121.7356510067
 20
130.0175107759
 11
87.5574814655
 21
130.0175107759
  0
LINE
  8
1_AXIS
 62
2
  6
CONTINUOUS
 10
86.4373814655
 20
130.0175107759
 11
84.6773814655
 21
130.0175107759
  0
LINE
  8
1_AXIS
 62
2
  6
CENTER
 10
48.2550604027
 20
130.0175107759
 11
83.5572814655
 21
130.0175107759
  0
LINE
  8
0
 62
7
  6
CONTINUOUS
 10
104.751131549
 20
117.7824044328
 11
104.619881549
 21
117.8568725091
  0
LINE
  8
0
 62
7
  6
CONTINUOUS
 10
71.5073813225
 20
142.0494256685
 11
71.4323816086
 21
142.1132554565
  0
LINE
  8
0
 62
7
  6
CONTINUOUS
 10
71.4698814655
 20
142.2409150269
 11
71.5073813225
 21
142.2090001371
  0
LINE
  8
0
 62
7
  6
CONTINUOUS
 10
72.5761313225
 20
140.0494256685
 11
72.5192564065
 21
140.1075107759
  0
LINE
  8
0
 62
7
  6
CONTINUOUS
 10
96.2844343786
 20
117.7696696678
 11
96.1261314655
 21
117.9313405853
  0
LINE
  8
0
 62
7
  6
CONTINUOUS
 10
72.5761313225
 20
142.0494256685
 11
72.4823814655
 21
142.1451703463
  0
LINE
  8
0
 62
7
  6
CONTINUOUS
 10
72.5386314655
 20
142.2728299167
 11
72.5948814655
 21
142.2090001371
  0
POLYLINE
  8
0
 62
7
  6
CONTINUOUS
 66
1
 70
0
  0
VERTEX
  8
0
 62
7
  6
CONTINUOUS
 10
101.5573814655
 20
109.7427659045
  0
VERTEX
  8
0
 62
7
  6
CONTINUOUS
 10
101.5741535886
 20
109.7219720838
  0
VERTEX
  8
0
 62
7
  6
CONTINUOUS
 10
101.6235452571
 20
109.7028261213
  0
VERTEX
  8
0
 62
7
  6
CONTINUOUS
 10
101.7025316342
 20
109.6865342455
  0
VERTEX
  8
0
 62
7
  6
CONTINUOUS
 10
101.8059988861
 20
109.6741103706
  0
VERTEX
  8
0
 62
7
  6
CONTINUOUS
 10
101.9270291973
 20
109.6663252674
  0
VERTEX
  8
0
 62
7
  6
CONTINUOUS
 10
102.0573814655
 20
109.6636702948
  0
SEQEND
  0
LINE
  8
0
 62
7
  6
CONTINUOUS
 10
92.4188814864
 20
118.5075107759
 11
92.6261314864
 21
118.154744814
  0
LINE
  8
0
 62
7
  6
CONTINUOUS
 10
92.3198814655
 20
118.0802767377
 11
92.6305118885
 21
117.5275107759
  0
LINE
  8
0
 62
7
  6
CONTINUOUS
 10
88.8063774458
 20
117.5275107759
 11
88.7376471175
 21
118.5075107759
  0
LINE
  8
0
 62
7
  6
CONTINUOUS
 10
88.6380582744
 20
119.9275107759
 11
88.5693279461
 21
120.9075107759
  0
LINE
  8
0
 62
7
  6
CONTINUOUS
 10
88.469739103
 20
122.3275107759
 11
88.4010087746
 21
123.3075107759
  0
LINE
  8
0
 62
7
  6
CONTINUOUS
 10
88.3014199315
 20
124.7275107759
 11
88.2326896032
 21
125.7075107759
  0
LINE
  8
0
 62
7
  6
CONTINUOUS
 10
88.1331007601
 20
127.1275107759
 11
88.0643704317
 21
128.1075107759
  0
LINE
  8
0
 62
7
  6
CONTINUOUS
 10
87.9647815886
 20
129.5275107759
 11
87.8960512603
 21
130.5075107759
  0
LINE
  8
0
 62
7
  6
CONTINUOUS
 10
87.7964624172
 20
131.9275107759
 11
87.7277320889
 21
132.9075107759
  0
LINE
  8
0
 62
7
  6
CONTINUOUS
 10
87.6281432458
 20
134.3275107759
 11
87.5594129174
 21
135.3075107759
  0
LINE
  8
0
 62
7
  6
CONTINUOUS
 10
87.4598240743
 20
136.7275107759
 11
87.391093746
 21
137.7075107759
  0
LINE
  8
0
 62
7
  6
CONTINUOUS
 10
87.2915049029
 20
139.1275107759
 11
87.2227745746
 21
140.1075107759
  0
LINE
  8
0
 62
7
  6
CONTINUOUS
 10
87.1231857315
 20
141.5275107759
 11
87.0544554031
 21
142.5075107759
  0
LINE
  8
0
 62
7
  6
CONTINUOUS
 10
101.844881549
 20
142.0281490427
 11
101.7573813821
 21
141.9536809664
  0
LINE
  8
0
 62
7
  6
CONTINUOUS
 10
55.4573814655
 20
130.5075107759
 11
56.2147815886
 21
130.5075107759
  0
LINE
  8
0
 62
7
  6
CONTINUOUS
 10
57.8187116707
 20
130.5075107759
 11
62.4960512603
 21
130.5075107759
  0
LINE
  8
0
 62
7
  6
CONTINUOUS
 10
64.0999813424
 20
130.5075107759
 11
68.9116802155
 21
130.5075107759
  0
LINE
  8
0
 62
7
  6
CONTINUOUS
 10
70.5148552155
 20
130.5075107759
 11
75.1999077155
 21
130.5075107759
  0
LINE
  8
0
 62
7
  6
CONTINUOUS
 10
76.8030827155
 20
130.5075107759
 11
81.6147815886
 21
130.5075107759
  0
LINE
  8
0
 62
7
  6
CONTINUOUS
 10
83.2187116707
 20
130.5075107759
 11
87.8960512603
 21
130.5075107759
  0
LINE
  8
0
 62
7
  6
CONTINUOUS
 10
89.4999813424
 20
130.5075107759
 11
94.3116802155
 21
130.5075107759
  0
LINE
  8
0
 62
7
  6
CONTINUOUS
 10
95.9148552155
 20
130.5075107759
 11
100.5999077155
 21
130.5075107759
  0
LINE
  8
0
 62
7
  6
CONTINUOUS
 10
102.2030827155
 20
130.5075107759
 11
107.0147815886
 21
130.5075107759
  0
LINE
  8
0
 62
7
  6
CONTINUOUS
 10
108.6187116707
 20
130.5075107759
 11
113.2960512603
 21
130.5075107759
  0
LINE
  8
0
 62
7
  6
CONTINUOUS
 10
114.8999813424
 20
130.5075107759
 11
115.6573814655
 21
130.5075107759
  0
LINE
  8
0
 62
7
  6
CONTINUOUS
 10
55.4573814655
 20
131.9275107759
 11
56.3143704317
 21
131.9275107759
  0
LINE
  8
0
 62
7
  6
CONTINUOUS
 10
57.9183005138
 20
131.9275107759
 11
62.3964624172
 21
131.9275107759
  0
LINE
  8
0
 62
7
  6
CONTINUOUS
 10
64.0003924993
 20
131.9275107759
 11
69.0011873074
 21
131.9275107759
  0
LINE
  8
0
 62
7
  6
CONTINUOUS
 10
70.6043623074
 20
131.9275107759
 11
75.1104006237
 21
131.9275107759
  0
LINE
  8
0
 62
7
  6
CONTINUOUS
 10
76.7135756237
 20
131.9275107759
 11
81.7143704317
 21
131.9275107759
  0
LINE
  8
0
 62
7
  6
CONTINUOUS
 10
83.3183005138
 20
131.9275107759
 11
87.7964624172
 21
131.9275107759
  0
LINE
  8
0
 62
7
  6
CONTINUOUS
 10
89.4003924993
 20
131.9275107759
 11
94.4011873074
 21
131.9275107759
  0
LINE
  8
0
 62
7
  6
CONTINUOUS
 10
96.0043623074
 20
131.9275107759
 11
100.5104006237
 21
131.9275107759
  0
LINE
  8
0
 62
7
  6
CONTINUOUS
 10
102.1135756237
 20
131.9275107759
 11
107.1143704317
 21
131.9275107759
  0
LINE
  8
0
 62
7
  6
CONTINUOUS
 10
108.7183005138
 20
131.9275107759
 11
113.1964624172
 21
131.9275107759
  0
LINE
  8
0
 62
7
  6
CONTINUOUS
 10
114.8003924993
 20
131.9275107759
 11
115.6573814655
 21
131.9275107759
  0
LINE
  8
0
 62
7
  6
CONTINUOUS
 10
55.4573814655
 20
132.9075107759
 11
56.3831007601
 21
132.9075107759
  0
LINE
  8
0
 62
7
  6
CONTINUOUS
 10
57.9870308422
 20
132.9075107759
 11
62.3277320889
 21
132.9075107759
  0
LINE
  8
0
 62
7
  6
CONTINUOUS
 10
63.931662171
 20
132.9075107759
 11
69.0629598074
 21
132.9075107759
  0
LINE
  8
0
 62
7
  6
CONTINUOUS
 10
70.6661348074
 20
132.9075107759
 11
75.0486281237
 21
132.9075107759
  0
LINE
  8
0
 62
7
  6
CONTINUOUS
 10
76.6518031237
 20
132.9075107759
 11
81.7831007601
 21
132.9075107759
  0
LINE
  8
0
 62
7
  6
CONTINUOUS
 10
83.3870308422
 20
132.9075107759
 11
87.7277320889
 21
132.9075107759
  0
LINE
  8
0
 62
7
  6
CONTINUOUS
 10
89.331662171
 20
132.9075107759
 11
94.4629598074
 21
132.9075107759
  0
LINE
  8
0
 62
7
  6
CONTINUOUS
 10
96.0661348074
 20
132.9075107759
 11
100.4486281237
 21
132.9075107759
  0
LINE
  8
0
 62
7
  6
CONTINUOUS
 10
102.0518031237
 20
132.9075107759
 11
107.1831007601
 21
132.9075107759
  0
LINE
  8
0
 62
7
  6
CONTINUOUS
 10
108.7870308422
 20
132.9075107759
 11
113.1277320889
 21
132.9075107759
  0
LINE
  8
0
 62
7
  6
CONTINUOUS
 10
114.731662171
 20
132.9075107759
 11
115.6573814655
 21
132.9075107759
  0
LINE
  8
0
 62
7
  6
CONTINUOUS
 10
68.8636317516
 20
140.0175107759
 11
68.7886311794
 21
140.0494256685
  0
LINE
  8
0
 62
7
  6
CONTINUOUS
 10
76.9823814655
 20
140.0494256685
 11
76.9141314326
 21
140.1075107759
  0
LINE
  8
0
 62
7
  6
CONTINUOUS
 10
96.2136313821
 20
118.3036809664
 11
96.2625519008
 21
118.2412292776
  0
LINE
  8
0
 62
7
  6
CONTINUOUS
 10
95.1440759166
 20
118.2793556437
 11
95.4261313821
 21
117.8568725091
  0
LINE
  8
0
 62
7
  6
CONTINUOUS
 10
95.2073814655
 20
117.6334682804
 11
95.1124568995
 21
117.7777305386
  0
LINE
  8
0
 62
7
  6
CONTINUOUS
 10
92.8448814655
 20
117.7824044328
 11
92.9867499048
 21
117.5275107759
  0
LINE
  8
0
 62
7
  6
CONTINUOUS
 10
88.6583854852
 20
142.5075107759
 11
88.7271158135
 21
141.5275107759
  0
LINE
  8
0
 62
7
  6
CONTINUOUS
 10
88.8267046566
 20
140.1075107759
 11
88.895434985
 21
139.1275107759
  0
LINE
  8
0
 62
7
  6
CONTINUOUS
 10
88.9950238281
 20
137.7075107759
 11
89.0637541564
 21
136.7275107759
  0
LINE
  8
0
 62
7
  6
CONTINUOUS
 10
89.1633429995
 20
135.3075107759
 11
89.2320733279
 21
134.3275107759
  0
LINE
  8
0
 62
7
  6
CONTINUOUS
 10
89.331662171
 20
132.9075107759
 11
89.4003924993
 21
131.9275107759
  0
LINE
  8
0
 62
7
  6
CONTINUOUS
 10
89.4999813424
 20
130.5075107759
 11
89.5687116707
 21
129.5275107759
  0
LINE
  8
0
 62
7
  6
CONTINUOUS
 10
89.6683005138
 20
128.1075107759
 11
89.7370308422
 21
127.1275107759
  0
LINE
  8
0
 62
7
  6
CONTINUOUS
 10
89.8366196853
 20
125.7075107759
 11
89.9053500136
 21
124.7275107759
  0
LINE
  8
0
 62
7
  6
CONTINUOUS
 10
90.0049388567
 20
123.3075107759
 11
90.073669185
 21
122.3275107759
  0
LINE
  8
0
 62
7
  6
CONTINUOUS
 10
90.1732580281
 20
120.9075107759
 11
90.2419883565
 21
119.9275107759
  0
LINE
  8
0
 62
7
  6
CONTINUOUS
 10
90.3415771996
 20
118.5075107759
 11
90.4103075279
 21
117.5275107759
  0
LINE
  8
0
 62
7
  6
CONTINUOUS
 10
88.6073814655
 20
146.4354839066
 11
88.6073814655
 21
152.8075107759
  0
LINE
  8
0
 62
7
  6
CONTINUOUS
 10
88.8573814655
 20
107.2275107759
 11
88.8573814655
 21
113.599534723
  0
POLYLINE
  8
0
 62
7
  6
CONTINUOUS
 66
1
 70
0
  0
VERTEX
  8
0
 62
7
  6
CONTINUOUS
 10
107.9073814655
 20
150.2922556473
  0
VERTEX
  8
0
 62
7
  6
CONTINUOUS
 10
107.9241535886
 20
150.313049468
  0
VERTEX
  8
0
 62
7
  6
CONTINUOUS
 10
107.9735452571
 20
150.3321954304
  0
VERTEX
  8
0
 62
7
  6
CONTINUOUS
 10
108.0525316342
 20
150.3484873062
  0
VERTEX
  8
0
 62
7
  6
CONTINUOUS
 10
108.1559988861
 20
150.3609111811
  0
VERTEX
  8
0
 62
7
  6
CONTINUOUS
 10
108.2770291973
 20
150.3686962843
  0
VERTEX
  8
0
 62
7
  6
CONTINUOUS
 10
108.4073814655
 20
150.3713512569
  0
SEQEND
  0
LINE
  8
0
 62
7
  6
CONTINUOUS
 10
101.582381549
 20
142.1770851951
 11
101.713631549
 21
142.3260213476
  0
LINE
  8
0
 62
7
  6
CONTINUOUS
 10
55.4573814655
 20
134.3275107759
 11
56.4826896032
 21
134.3275107759
  0
LINE
  8
0
 62
7
  6
CONTINUOUS
 10
58.0866196853
 20
134.3275107759
 11
62.2281432458
 21
134.3275107759
  0
LINE
  8
0
 62
7
  6
CONTINUOUS
 10
63.8320733279
 20
134.3275107759
 11
69.1524668992
 21
134.3275107759
  0
LINE
  8
0
 62
7
  6
CONTINUOUS
 10
70.7556418992
 20
134.3275107759
 11
74.9591210318
 21
134.3275107759
  0
LINE
  8
0
 62
7
  6
CONTINUOUS
 10
76.5622960318
 20
134.3275107759
 11
81.8826896032
 21
134.3275107759
  0
LINE
  8
0
 62
7
  6
CONTINUOUS
 10
83.4866196853
 20
134.3275107759
 11
87.6281432458
 21
134.3275107759
  0
LINE
  8
0
 62
7
  6
CONTINUOUS
 10
89.2320733279
 20
134.3275107759
 11
94.5524668992
 21
134.3275107759
  0
LINE
  8
0
 62
7
  6
CONTINUOUS
 10
96.1556418992
 20
134.3275107759
 11
100.3591210318
 21
134.3275107759
  0
LINE
  8
0
 62
7
  6
CONTINUOUS
 10
101.9622960318
 20
134.3275107759
 11
107.2826896032
 21
134.3275107759
  0
LINE
  8
0
 62
7
  6
CONTINUOUS
 10
108.8866196853
 20
134.3275107759
 11
113.0281432458
 21
134.3275107759
  0
LINE
  8
0
 62
7
  6
CONTINUOUS
 10
114.6320733279
 20
134.3275107759
 11
115.6573814655
 21
134.3275107759
  0
LINE
  8
0
 62
7
  6
CONTINUOUS
 10
55.4573814655
 20
135.3075107759
 11
56.5514199315
 21
135.3075107759
  0
LINE
  8
0
 62
7
  6
CONTINUOUS
 10
58.1553500136
 20
135.3075107759
 11
62.1594129174
 21
135.3075107759
  0
LINE
  8
0
 62
7
  6
CONTINUOUS
 10
63.7633429995
 20
135.3075107759
 11
69.2142393992
 21
135.3075107759
  0
LINE
  8
0
 62
7
  6
CONTINUOUS
 10
70.8174143992
 20
135.3075107759
 11
74.8973485318
 21
135.3075107759
  0
LINE
  8
0
 62
7
  6
CONTINUOUS
 10
76.5005235318
 20
135.3075107759
 11
81.9514199315
 21
135.3075107759
  0
LINE
  8
0
 62
7
  6
CONTINUOUS
 10
83.5553500136
 20
135.3075107759
 11
87.5594129174
 21
135.3075107759
  0
LINE
  8
0
 62
7
  6
CONTINUOUS
 10
89.1633429995
 20
135.3075107759
 11
94.6142393992
 21
135.3075107759
  0
LINE
  8
0
 62
7
  6
CONTINUOUS
 10
96.2174143992
 20
135.3075107759
 11
100.2973485318
 21
135.3075107759
  0
LINE
  8
0
 62
7
  6
CONTINUOUS
 10
101.9005235318
 20
135.3075107759
 11
107.3514199315
 21
135.3075107759
  0
LINE
  8
0
 62
7
  6
CONTINUOUS
 10
108.9553500136
 20
135.3075107759
 11
112.9594129174
 21
135.3075107759
  0
LINE
  8
0
 62
7
  6
CONTINUOUS
 10
114.5633429995
 20
135.3075107759
 11
115.6573814655
 21
135.3075107759
  0
LINE
  8
0
 62
7
  6
CONTINUOUS
 10
72.6698816086
 20
140.0175107759
 11
72.5761313225
 21
140.0494256685
  0
LINE
  8
0
 62
7
  6
CONTINUOUS
 10
71.5823814655
 20
142.0175107759
 11
71.5073813225
 21
142.0494256685
  0
POLYLINE
  8
0
 62
7
  6
CONTINUOUS
 66
1
 70
0
  0
VERTEX
  8
0
 62
7
  6
CONTINUOUS
 10
75.9073814655
 20
150.2922556473
  0
VERTEX
  8
0
 62
7
  6
CONTINUOUS
 10
75.8906093424
 20
150.313049468
  0
VERTEX
  8
0
 62
7
  6
CONTINUOUS
 10
75.8412176739
 20
150.3321954304
  0
VERTEX
  8
0
 62
7
  6
CONTINUOUS
 10
75.7622312969
 20
150.3484873062
  0
VERTEX
  8
0
 62
7
  6
CONTINUOUS
 10
75.6587640449
 20
150.3609111811
  0
VERTEX
  8
0
 62
7
  6
CONTINUOUS
 10
75.5377337338
 20
150.3686962843
  0
VERTEX
  8
0
 62
7
  6
CONTINUOUS
 10
75.4073814655
 20
150.3713512569
  0
SEQEND
  0
LINE
  8
0
 62
7
  6
CONTINUOUS
 10
95.4261313821
 20
117.8568725091
 11
95.513631549
 21
117.6334682804
  0
LINE
  8
0
 62
7
  6
CONTINUOUS
 10
92.0573814655
 20
118.5075107759
 11
92.0573814655
 21
117.5275107759
  0
LINE
  8
0
 62
7
  6
CONTINUOUS
 10
92.3198814655
 20
118.0802767377
 11
92.3198814655
 21
117.5275107759
  0
LINE
  8
0
 62
7
  6
CONTINUOUS
 10
101.4948813821
 20
142.0281490427
 11
101.582381549
 21
142.1770851951
  0
LINE
  8
0
 62
7
  6
CONTINUOUS
 10
101.7573813821
 20
141.9536809664
 11
101.6698814655
 21
141.804744814
  0
LINE
  8
0
 62
7
  6
CONTINUOUS
 10
55.4573814655
 20
136.7275107759
 11
56.6510087746
 21
136.7275107759
  0
LINE
  8
0
 62
7
  6
CONTINUOUS
 10
58.2549388567
 20
136.7275107759
 11
62.0598240743
 21
136.7275107759
  0
LINE
  8
0
 62
7
  6
CONTINUOUS
 10
63.6637541564
 20
136.7275107759
 11
69.303746491
 21
136.7275107759
  0
LINE
  8
0
 62
7
  6
CONTINUOUS
 10
70.906921491
 20
136.7275107759
 11
74.80784144
 21
136.7275107759
  0
LINE
  8
0
 62
7
  6
CONTINUOUS
 10
76.41101644
 20
136.7275107759
 11
82.0510087746
 21
136.7275107759
  0
LINE
  8
0
 62
7
  6
CONTINUOUS
 10
83.6549388567
 20
136.7275107759
 11
87.4598240743
 21
136.7275107759
  0
LINE
  8
0
 62
7
  6
CONTINUOUS
 10
89.0637541564
 20
136.7275107759
 11
94.703746491
 21
136.7275107759
  0
LINE
  8
0
 62
7
  6
CONTINUOUS
 10
96.306921491
 20
136.7275107759
 11
100.20784144
 21
136.7275107759
  0
LINE
  8
0
 62
7
  6
CONTINUOUS
 10
101.81101644
 20
136.7275107759
 11
107.4510087746
 21
136.7275107759
  0
LINE
  8
0
 62
7
  6
CONTINUOUS
 10
109.0549388567
 20
136.7275107759
 11
112.8598240743
 21
136.7275107759
  0
LINE
  8
0
 62
7
  6
CONTINUOUS
 10
114.4637541564
 20
136.7275107759
 11
115.6573814655
 21
136.7275107759
  0
LINE
  8
0
 62
7
  6
CONTINUOUS
 10
55.4573814655
 20
137.7075107759
 11
56.719739103
 21
137.7075107759
  0
LINE
  8
0
 62
7
  6
CONTINUOUS
 10
58.323669185
 20
137.7075107759
 11
61.991093746
 21
137.7075107759
  0
LINE
  8
0
 62
7
  6
CONTINUOUS
 10
63.5950238281
 20
137.7075107759
 11
69.365518991
 21
137.7075107759
  0
LINE
  8
0
 62
7
  6
CONTINUOUS
 10
70.968693991
 20
137.7075107759
 11
74.74606894
 21
137.7075107759
  0
LINE
  8
0
 62
7
  6
CONTINUOUS
 10
76.34924394
 20
137.7075107759
 11
82.119739103
 21
137.7075107759
  0
LINE
  8
0
 62
7
  6
CONTINUOUS
 10
83.723669185
 20
137.7075107759
 11
87.391093746
 21
137.7075107759
  0
LINE
  8
0
 62
7
  6
CONTINUOUS
 10
88.9950238281
 20
137.7075107759
 11
94.765518991
 21
137.7075107759
  0
LINE
  8
0
 62
7
  6
CONTINUOUS
 10
96.368693991
 20
137.7075107759
 11
100.14606894
 21
137.7075107759
  0
LINE
  8
0
 62
7
  6
CONTINUOUS
 10
101.74924394
 20
137.7075107759
 11
107.519739103
 21
137.7075107759
  0
LINE
  8
0
 62
7
  6
CONTINUOUS
 10
109.123669185
 20
137.7075107759
 11
112.791093746
 21
137.7075107759
  0
LINE
  8
0
 62
7
  6
CONTINUOUS
 10
114.3950238281
 20
137.7075107759
 11
115.6573814655
 21
137.7075107759
  0
LINE
  8
0
 62
7
  6
CONTINUOUS
 10
71.6573816086
 20
140.0175107759
 11
71.5448816086
 21
140.0494256685
  0
LINE
  8
0
 62
7
  6
CONTINUOUS
 10
77.0761314298
 20
140.0175107759
 11
76.9823814655
 21
140.0494256685
  0
LINE
  8
0
 62
7
  6
CONTINUOUS
 10
71.5073813225
 20
142.2090001371
 11
71.6011316086
 21
142.1770852473
  0
LINE
  8
0
 62
7
  6
CONTINUOUS
 10
72.6698816086
 20
142.0175107759
 11
72.5761313225
 21
142.0494256685
  0
LINE
  8
0
 62
7
  6
CONTINUOUS
 10
72.5948814655
 20
142.2090001371
 11
72.6698816086
 21
142.1770852473
  0
LINE
  8
0
 62
7
  6
CONTINUOUS
 10
102.9902270944
 20
118.019729137
 11
103.0011314655
 21
118.0058086615
  0
LINE
  8
0
 62
7
  6
CONTINUOUS
 10
104.7948813821
 20
118.2292128902
 11
104.9698814655
 21
118.0058086615
  0
LINE
  8
0
 62
7
  6
CONTINUOUS
 10
95.2385064565
 20
117.5275107759
 11
95.2073814655
 21
117.6334682804
  0
LINE
  8
0
 62
7
  6
CONTINUOUS
 10
95.513631549
 20
117.6334682804
 11
95.5291939999
 21
117.5275107759
  0
LINE
  8
0
 62
7
  6
CONTINUOUS
 10
94.9573814655
 20
107.2275107759
 11
94.9573814655
 21
113.5995374178
  0
LINE
  8
0
 62
7
  6
CONTINUOUS
 10
95.2073814655
 20
146.4354873022
 11
95.2073814655
 21
152.8075107759
  0
LINE
  8
0
 62
7
  6
CONTINUOUS
 10
95.907381549
 20
118.3036809664
 11
95.907381549
 21
117.5275107759
  0
LINE
  8
0
 62
7
  6
CONTINUOUS
 10
96.1261314655
 20
117.9313405853
 11
96.1261314655
 21
117.5275107759
  0
POLYLINE
  8
0
 62
7
  6
CONTINUOUS
 66
1
 70
0
  0
VERTEX
  8
0
 62
7
  6
CONTINUOUS
 10
95.2073819377
 20
146.43552649
  0
VERTEX
  8
0
 62
7
  6
CONTINUOUS
 10
95.2030732821
 20
146.2948017032
  0
VERTEX
  8
0
 62
7
  6
CONTINUOUS
 10
95.187635871
 20
146.1436950948
  0
VERTEX
  8
0
 62
7
  6
CONTINUOUS
 10
95.1605125478
 20
146.0010488205
  0
VERTEX
  8
0
 62
7
  6
CONTINUOUS
 10
95.1217393896
 20
145.8696325503
  0
VERTEX
  8
0
 62
7
  6
CONTINUOUS
 10
95.0718162747
 20
145.7519030204
  0
VERTEX
  8
0
 62
7
  6
CONTINUOUS
 10
95.0118911763
 20
145.6505041959
  0
VERTEX
  8
0
 62
7
  6
CONTINUOUS
 10
94.9426592828
 20
145.5668370168
  0
VERTEX
  8
0
 62
7
  6
CONTINUOUS
 10
94.8654195921
 20
145.5036063951
  0
VERTEX
  8
0
 62
7
  6
CONTINUOUS
 10
94.7824470321
 20
145.4645493408
  0
VERTEX
  8
0
 62
7
  6
CONTINUOUS
 10
94.7073814655
 20
145.4532065275
  0
SEQEND
  0
POLYLINE
  8
0
 62
7
  6
CONTINUOUS
 66
1
 70
0
  0
VERTEX
  8
0
 62
7
  6
CONTINUOUS
 10
94.9573812457
 20
113.5994852291
  0
VERTEX
  8
0
 62
7
  6
CONTINUOUS
 10
94.9616900278
 20
113.7402237018
  0
VERTEX
  8
0
 62
7
  6
CONTINUOUS
 10
94.9771275829
 20
113.8913306921
  0
VERTEX
  8
0
 62
7
  6
CONTINUOUS
 10
95.0042506582
 20
114.0339735941
  0
VERTEX
  8
0
 62
7
  6
CONTINUOUS
 10
95.0430233649
 20
114.1653882761
  0
VERTEX
  8
0
 62
7
  6
CONTINUOUS
 10
95.092946679
 20
114.2831185766
  0
VERTEX
  8
0
 62
7
  6
CONTINUOUS
 10
95.1528717249
 20
114.3845173049
  0
VERTEX
  8
0
 62
7
  6
CONTINUOUS
 10
95.2221037439
 20
114.4681845872
  0
VERTEX
  8
0
 62
7
  6
CONTINUOUS
 10
95.2993440056
 20
114.531415554
  0
VERTEX
  8
0
 62
7
  6
CONTINUOUS
 10
95.3823193886
 20
114.5704732654
  0
VERTEX
  8
0
 62
7
  6
CONTINUOUS
 10
95.4573814655
 20
114.5818150316
  0
SEQEND
  0
LINE
  8
0
 62
7
  6
CONTINUOUS
 10
93.4935097563
 20
117.5275107759
 11
93.5552822563
 21
118.5075107759
  0
LINE
  8
0
 62
7
  6
CONTINUOUS
 10
93.6447893482
 20
119.9275107759
 11
93.7065618482
 21
120.9075107759
  0
LINE
  8
0
 62
7
  6
CONTINUOUS
 10
93.79606894
 20
122.3275107759
 11
93.85784144
 21
123.3075107759
  0
LINE
  8
0
 62
7
  6
CONTINUOUS
 10
93.9473485318
 20
124.7275107759
 11
94.0091210318
 21
125.7075107759
  0
LINE
  8
0
 62
7
  6
CONTINUOUS
 10
94.0986281237
 20
127.1275107759
 11
94.1604006237
 21
128.1075107759
  0
LINE
  8
0
 62
7
  6
CONTINUOUS
 10
94.2499077155
 20
129.5275107759
 11
94.3116802155
 21
130.5075107759
  0
LINE
  8
0
 62
7
  6
CONTINUOUS
 10
94.4011873074
 20
131.9275107759
 11
94.4629598074
 21
132.9075107759
  0
LINE
  8
0
 62
7
  6
CONTINUOUS
 10
94.5524668992
 20
134.3275107759
 11
94.6142393992
 21
135.3075107759
  0
LINE
  8
0
 62
7
  6
CONTINUOUS
 10
94.703746491
 20
136.7275107759
 11
94.765518991
 21
137.7075107759
  0
LINE
  8
0
 62
7
  6
CONTINUOUS
 10
94.8550260829
 20
139.1275107759
 11
94.9167985829
 21
140.1075107759
  0
LINE
  8
0
 62
7
  6
CONTINUOUS
 10
95.0063056747
 20
141.5275107759
 11
95.0680781747
 21
142.5075107759
  0
LINE
  8
0
 62
7
  6
CONTINUOUS
 10
96.6712531747
 20
142.5075107759
 11
96.6094806747
 21
141.5275107759
  0
LINE
  8
0
 62
7
  6
CONTINUOUS
 10
96.5199735829
 20
140.1075107759
 11
96.4582010829
 21
139.1275107759
  0
LINE
  8
0
 62
7
  6
CONTINUOUS
 10
96.368693991
 20
137.7075107759
 11
96.306921491
 21
136.7275107759
  0
LINE
  8
0
 62
7
  6
CONTINUOUS
 10
96.2174143992
 20
135.3075107759
 11
96.1556418992
 21
134.3275107759
  0
LINE
  8
0
 62
7
  6
CONTINUOUS
 10
96.0661348074
 20
132.9075107759
 11
96.0043623074
 21
131.9275107759
  0
LINE
  8
0
 62
7
  6
CONTINUOUS
 10
95.9148552155
 20
130.5075107759
 11
95.8530827155
 21
129.5275107759
  0
LINE
  8
0
 62
7
  6
CONTINUOUS
 10
95.7635756237
 20
128.1075107759
 11
95.7018031237
 21
127.1275107759
  0
LINE
  8
0
 62
7
  6
CONTINUOUS
 10
95.6122960318
 20
125.7075107759
 11
95.5505235318
 21
124.7275107759
  0
LINE
  8
0
 62
7
  6
CONTINUOUS
 10
95.46101644
 20
123.3075107759
 11
95.39924394
 21
122.3275107759
  0
LINE
  8
0
 62
7
  6
CONTINUOUS
 10
95.3097368482
 20
120.9075107759
 11
95.2479643482
 21
119.9275107759
  0
LINE
  8
0
 62
7
  6
CONTINUOUS
 10
95.1584572563
 20
118.5075107759
 11
95.0966847563
 21
117.5275107759
  0
POLYLINE
  8
0
 62
7
  6
CONTINUOUS
 66
1
 70
0
  0
VERTEX
  8
0
 62
7
  6
CONTINUOUS
 10
82.2573814655
 20
109.7427659045
  0
VERTEX
  8
0
 62
7
  6
CONTINUOUS
 10
82.2406093424
 20
109.7219720838
  0
VERTEX
  8
0
 62
7
  6
CONTINUOUS
 10
82.1912176739
 20
109.7028261213
  0
VERTEX
  8
0
 62
7
  6
CONTINUOUS
 10
82.1122312969
 20
109.6865342455
  0
VERTEX
  8
0
 62
7
  6
CONTINUOUS
 10
82.0087640449
 20
109.6741103706
  0
VERTEX
  8
0
 62
7
  6
CONTINUOUS
 10
81.8877337338
 20
109.6663252674
  0
VERTEX
  8
0
 62
7
  6
CONTINUOUS
 10
81.7573814655
 20
109.6636702948
  0
SEQEND
  0
LINE
  8
0
 62
7
  6
CONTINUOUS
 10
55.4573814655
 20
139.1275107759
 11
56.8193279461
 21
139.1275107759
  0
LINE
  8
0
 62
7
  6
CONTINUOUS
 10
58.4232580281
 20
139.1275107759
 11
61.8915049029
 21
139.1275107759
  0
LINE
  8
0
 62
7
  6
CONTINUOUS
 10
63.495434985
 20
139.1275107759
 11
69.4550260829
 21
139.1275107759
  0
LINE
  8
0
 62
7
  6
CONTINUOUS
 10
71.0582010829
 20
139.1275107759
 11
74.6565618482
 21
139.1275107759
  0
LINE
  8
0
 62
7
  6
CONTINUOUS
 10
76.2597368482
 20
139.1275107759
 11
82.2193279461
 21
139.1275107759
  0
LINE
  8
0
 62
7
  6
CONTINUOUS
 10
83.8232580281
 20
139.1275107759
 11
87.2915049029
 21
139.1275107759
  0
LINE
  8
0
 62
7
  6
CONTINUOUS
 10
88.895434985
 20
139.1275107759
 11
94.8550260829
 21
139.1275107759
  0
LINE
  8
0
 62
7
  6
CONTINUOUS
 10
96.4582010829
 20
139.1275107759
 11
100.0565618482
 21
139.1275107759
  0
LINE
  8
0
 62
7
  6
CONTINUOUS
 10
101.6597368482
 20
139.1275107759
 11
107.6193279461
 21
139.1275107759
  0
LINE
  8
0
 62
7
  6
CONTINUOUS
 10
109.2232580281
 20
139.1275107759
 11
112.6915049029
 21
139.1275107759
  0
LINE
  8
0
 62
7
  6
CONTINUOUS
 10
114.295434985
 20
139.1275107759
 11
115.6573814655
 21
139.1275107759
  0
LINE
  8
0
 62
7
  6
CONTINUOUS
 10
102.6323814238
 20
140.0175107759
 11
102.4136313821
 21
140.0175107759
  0
LINE
  8
0
 62
7
  6
CONTINUOUS
 10
101.6261313821
 20
140.0175107759
 11
101.6036373329
 21
140.0175107759
  0
LINE
  8
0
 62
7
  6
CONTINUOUS
 10
99.5261316324
 20
140.0175107759
 11
97.9511316324
 21
140.0175107759
  0
LINE
  8
0
 62
7
  6
CONTINUOUS
 10
97.6011314655
 20
140.0175107759
 11
97.3386314655
 21
140.0175107759
  0
LINE
  8
0
 62
7
  6
CONTINUOUS
 10
77.7323814476
 20
140.0175107759
 11
77.6386314298
 21
140.0175107759
  0
LINE
  8
0
 62
7
  6
CONTINUOUS
 10
77.2261315013
 20
140.0175107759
 11
77.0761314298
 21
140.0175107759
  0
LINE
  8
0
 62
7
  6
CONTINUOUS
 10
76.6448814655
 20
140.0175107759
 11
76.551131394
 21
140.0175107759
  0
LINE
  8
0
 62
7
  6
CONTINUOUS
 10
76.401131537
 20
140.0175107759
 11
76.288631537
 21
140.0175107759
  0
LINE
  8
0
 62
7
  6
CONTINUOUS
 10
74.2073813225
 20
140.0175107759
 11
74.1136314655
 21
140.0175107759
  0
LINE
  8
0
 62
7
  6
CONTINUOUS
 10
72.7823816086
 20
140.0175107759
 11
72.6698816086
 21
140.0175107759
  0
LINE
  8
0
 62
7
  6
CONTINUOUS
 10
72.2386313225
 20
140.0175107759
 11
72.1448814655
 21
140.0175107759
  0
LINE
  8
0
 62
7
  6
CONTINUOUS
 10
69.5111255982
 20
140.0175107759
 11
69.4261317516
 21
140.0175107759
  0
LINE
  8
0
 62
7
  6
CONTINUOUS
 10
69.0136311794
 20
140.0175107759
 11
68.8636317516
 21
140.0175107759
  0
LINE
  8
0
 62
7
  6
CONTINUOUS
 10
68.3386311794
 20
140.0175107759
 11
68.2261311794
 21
140.0175107759
  0
LINE
  8
0
 62
7
  6
CONTINUOUS
 10
68.0761317516
 20
140.0175107759
 11
67.6873814655
 21
140.0175107759
  0
LINE
  8
0
 62
7
  6
CONTINUOUS
 10
55.4573814655
 20
140.1075107759
 11
56.8880582744
 21
140.1075107759
  0
LINE
  8
0
 62
7
  6
CONTINUOUS
 10
58.4919883565
 20
140.1075107759
 11
61.8227745746
 21
140.1075107759
  0
LINE
  8
0
 62
7
  6
CONTINUOUS
 10
63.4267046566
 20
140.1075107759
 11
66.320473788
 21
140.1075107759
  0
LINE
  8
0
 62
7
  6
CONTINUOUS
 10
67.934289143
 20
140.1075107759
 11
69.5167985829
 21
140.1075107759
  0
LINE
  8
0
 62
7
  6
CONTINUOUS
 10
71.1199735829
 20
140.1075107759
 11
74.5947893482
 21
140.1075107759
  0
LINE
  8
0
 62
7
  6
CONTINUOUS
 10
76.1979643482
 20
140.1075107759
 11
77.780473788
 21
140.1075107759
  0
LINE
  8
0
 62
7
  6
CONTINUOUS
 10
79.394289143
 20
140.1075107759
 11
82.2880582744
 21
140.1075107759
  0
LINE
  8
0
 62
7
  6
CONTINUOUS
 10
83.8919883565
 20
140.1075107759
 11
87.2227745746
 21
140.1075107759
  0
LINE
  8
0
 62
7
  6
CONTINUOUS
 10
88.8267046566
 20
140.1075107759
 11
91.720473788
 21
140.1075107759
  0
LINE
  8
0
 62
7
  6
CONTINUOUS
 10
93.334289143
 20
140.1075107759
 11
94.9167985829
 21
140.1075107759
  0
LINE
  8
0
 62
7
  6
CONTINUOUS
 10
96.5199735829
 20
140.1075107759
 11
99.9947893482
 21
140.1075107759
  0
LINE
  8
0
 62
7
  6
CONTINUOUS
 10
101.5979643482
 20
140.1075107759
 11
103.180473788
 21
140.1075107759
  0
LINE
  8
0
 62
7
  6
CONTINUOUS
 10
104.794289143
 20
140.1075107759
 11
107.6880582744
 21
140.1075107759
  0
LINE
  8
0
 62
7
  6
CONTINUOUS
 10
109.2919883565
 20
140.1075107759
 11
112.6227745746
 21
140.1075107759
  0
LINE
  8
0
 62
7
  6
CONTINUOUS
 10
114.2267046566
 20
140.1075107759
 11
115.6573814655
 21
140.1075107759
  0
POLYLINE
  8
0
 62
7
  6
CONTINUOUS
 66
1
 70
0
  0
VERTEX
  8
0
 62
7
  6
CONTINUOUS
 10
114.2573814655
 20
109.7427659045
  0
VERTEX
  8
0
 62
7
  6
CONTINUOUS
 10
114.2741535886
 20
109.7219720838
  0
VERTEX
  8
0
 62
7
  6
CONTINUOUS
 10
114.3235452571
 20
109.7028261213
  0
VERTEX
  8
0
 62
7
  6
CONTINUOUS
 10
114.4025316342
 20
109.6865342455
  0
VERTEX
  8
0
 62
7
  6
CONTINUOUS
 10
114.5059988861
 20
109.6741103706
  0
VERTEX
  8
0
 62
7
  6
CONTINUOUS
 10
114.6270291973
 20
109.6663252674
  0
VERTEX
  8
0
 62
7
  6
CONTINUOUS
 10
114.7573814655
 20
109.6636702948
  0
SEQEND
  0
LINE
  8
0
 62
7
  6
CONTINUOUS
 10
104.8386314655
 20
117.6334682804
 11
104.751131549
 21
117.7824044328
  0
LINE
  8
0
 62
7
  6
CONTINUOUS
 10
97.3386314655
 20
140.0175107759
 11
97.3386314655
 21
140.1075107759
  0
LINE
  8
0
 62
7
  6
CONTINUOUS
 10
97.3386314655
 20
141.5275107759
 11
97.3386314655
 21
141.5813405853
  0
LINE
  8
0
 62
7
  6
CONTINUOUS
 10
97.3386314655
 20
142.0281490427
 11
97.3386314655
 21
142.5075107759
  0
LINE
  8
0
 62
7
  6
CONTINUOUS
 10
97.6011314655
 20
142.5075107759
 11
97.6011314655
 21
141.5275107759
  0
LINE
  8
0
 62
7
  6
CONTINUOUS
 10
97.6011314655
 20
140.1075107759
 11
97.6011314655
 21
140.0175107759
  0
LINE
  8
0
 62
7
  6
CONTINUOUS
 10
97.9511316324
 20
140.0175107759
 11
97.9511316324
 21
140.1075107759
  0
LINE
  8
0
 62
7
  6
CONTINUOUS
 10
98.1261314655
 20
141.6558086615
 11
98.1261314655
 21
142.1026171189
  0
LINE
  8
0
 62
7
  6
CONTINUOUS
 10
101.4812787561
 20
141.9586885684
 11
101.4948813821
 21
142.0281490427
  0
LINE
  8
0
 62
7
  6
CONTINUOUS
 10
93.1187385985
 20
118.5075107759
 11
92.8448814655
 21
117.7824044328
  0
LINE
  8
0
 62
7
  6
CONTINUOUS
 10
92.6261314864
 20
118.154744814
 11
92.7612945183
 21
118.5075107759
  0
LINE
  8
0
 62
7
  6
CONTINUOUS
 10
74.5073814655
 20
140.0494256685
 11
74.3948814655
 21
140.0175107759
  0
LINE
  8
0
 62
7
  6
CONTINUOUS
 10
71.7698816086
 20
140.0494256685
 11
71.6573816086
 21
140.0175107759
  0
LINE
  8
0
 62
7
  6
CONTINUOUS
 10
55.4573814655
 20
141.5275107759
 11
56.9876471175
 21
141.5275107759
  0
LINE
  8
0
 62
7
  6
CONTINUOUS
 10
58.5915771996
 20
141.5275107759
 11
61.7231857315
 21
141.5275107759
  0
LINE
  8
0
 62
7
  6
CONTINUOUS
 10
63.3271158135
 20
141.5275107759
 11
65.1698575193
 21
141.5275107759
  0
LINE
  8
0
 62
7
  6
CONTINUOUS
 10
69.0849054117
 20
141.5275107759
 11
69.6063056747
 21
141.5275107759
  0
LINE
  8
0
 62
7
  6
CONTINUOUS
 10
71.2094806747
 20
141.5275107759
 11
74.5052822563
 21
141.5275107759
  0
LINE
  8
0
 62
7
  6
CONTINUOUS
 10
76.1084572563
 20
141.5275107759
 11
76.6298575193
 21
141.5275107759
  0
LINE
  8
0
 62
7
  6
CONTINUOUS
 10
80.5449054117
 20
141.5275107759
 11
82.3876471175
 21
141.5275107759
  0
LINE
  8
0
 62
7
  6
CONTINUOUS
 10
83.9915771996
 20
141.5275107759
 11
87.1231857315
 21
141.5275107759
  0
LINE
  8
0
 62
7
  6
CONTINUOUS
 10
88.7271158135
 20
141.5275107759
 11
90.5698575193
 21
141.5275107759
  0
LINE
  8
0
 62
7
  6
CONTINUOUS
 10
94.4849054117
 20
141.5275107759
 11
95.0063056747
 21
141.5275107759
  0
LINE
  8
0
 62
7
  6
CONTINUOUS
 10
96.6094806747
 20
141.5275107759
 11
99.9052822563
 21
141.5275107759
  0
LINE
  8
0
 62
7
  6
CONTINUOUS
 10
101.5084572563
 20
141.5275107759
 11
102.0298575193
 21
141.5275107759
  0
LINE
  8
0
 62
7
  6
CONTINUOUS
 10
105.9449054117
 20
141.5275107759
 11
107.7876471175
 21
141.5275107759
  0
LINE
  8
0
 62
7
  6
CONTINUOUS
 10
109.3915771996
 20
141.5275107759
 11
112.5231857315
 21
141.5275107759
  0
LINE
  8
0
 62
7
  6
CONTINUOUS
 10
114.1271158135
 20
141.5275107759
 11
115.6573814655
 21
141.5275107759
  0
LINE
  8
0
 62
7
  6
CONTINUOUS
 10
97.3386314655
 20
141.5813405853
 11
96.6128737379
 21
141.5813405853
  0
LINE
  8
0
 62
7
  6
CONTINUOUS
 10
99.2636316324
 20
141.6558086615
 11
98.1261314655
 21
141.6558086615
  0
LINE
  8
0
 62
7
  6
CONTINUOUS
 10
99.8761312986
 20
141.6558086615
 11
99.8971952348
 21
141.6558086615
  0
LINE
  8
0
 62
7
  6
CONTINUOUS
 10
76.588982106
 20
142.0175107759
 11
76.551131394
 21
142.0175107759
  0
LINE
  8
0
 62
7
  6
CONTINUOUS
 10
76.401131537
 20
142.0175107759
 11
76.288631537
 21
142.0175107759
  0
LINE
  8
0
 62
7
  6
CONTINUOUS
 10
74.2073813225
 20
142.0175107759
 11
74.1136314655
 21
142.0175107759
  0
LINE
  8
0
 62
7
  6
CONTINUOUS
 10
72.7823816086
 20
142.0175107759
 11
72.6698816086
 21
142.0175107759
  0
LINE
  8
0
 62
7
  6
CONTINUOUS
 10
72.2386313225
 20
142.0175107759
 11
72.1448814655
 21
142.0175107759
  0
LINE
  8
0
 62
7
  6
CONTINUOUS
 10
71.7323813225
 20
142.0175107759
 11
71.5823814655
 21
142.0175107759
  0
LINE
  8
0
 62
7
  6
CONTINUOUS
 10
69.5198811794
 20
142.0175107759
 11
69.4261317516
 21
142.0175107759
  0
LINE
  8
0
 62
7
  6
CONTINUOUS
 10
96.6410374883
 20
142.0281490427
 11
97.3386314655
 21
142.0281490427
  0
LINE
  8
0
 62
7
  6
CONTINUOUS
 10
98.1261314655
 20
142.1026171189
 11
99.2636316324
 21
142.1026171189
  0
LINE
  8
0
 62
7
  6
CONTINUOUS
 10
69.4261317516
 20
142.1770852473
 11
69.5198811794
 21
142.1770852473
  0
LINE
  8
0
 62
7
  6
CONTINUOUS
 10
71.6011316086
 20
142.1770852473
 11
71.7136316086
 21
142.1770852473
  0
LINE
  8
0
 62
7
  6
CONTINUOUS
 10
72.1448814655
 20
142.1770852473
 11
72.2386313225
 21
142.1770852473
  0
LINE
  8
0
 62
7
  6
CONTINUOUS
 10
72.6698816086
 20
142.1770852473
 11
72.7823816086
 21
142.1770852473
  0
LINE
  8
0
 62
7
  6
CONTINUOUS
 10
74.1136314655
 20
142.1770852473
 11
74.2073813225
 21
142.1770852473
  0
LINE
  8
0
 62
7
  6
CONTINUOUS
 10
76.551131394
 20
142.1770852473
 11
76.6017822933
 21
142.1770852473
  0
LINE
  8
0
 62
7
  6
CONTINUOUS
 10
71.9011313225
 20
142.3685746085
 11
71.9948816086
 21
142.3685746085
  0
LINE
  8
0
 62
7
  6
CONTINUOUS
 10
72.9511316086
 20
142.4004894983
 11
73.0636316086
 21
142.4004894983
  0
LINE
  8
0
 62
7
  6
CONTINUOUS
 10
101.844881549
 20
142.4004894238
 11
102.0198813821
 21
142.4004894238
  0
LINE
  8
0
 62
7
  6
CONTINUOUS
 10
55.4573814655
 20
142.5075107759
 11
57.0563774458
 21
142.5075107759
  0
LINE
  8
0
 62
7
  6
CONTINUOUS
 10
58.6603075279
 20
142.5075107759
 11
61.6544554031
 21
142.5075107759
  0
LINE
  8
0
 62
7
  6
CONTINUOUS
 10
63.2583854852
 20
142.5075107759
 11
65.2103264324
 21
142.5075107759
  0
LINE
  8
0
 62
7
  6
CONTINUOUS
 10
69.0444364986
 20
142.5075107759
 11
69.6680781747
 21
142.5075107759
  0
LINE
  8
0
 62
7
  6
CONTINUOUS
 10
71.2712531747
 20
142.5075107759
 11
74.4435097563
 21
142.5075107759
  0
LINE
  8
0
 62
7
  6
CONTINUOUS
 10
76.0466847563
 20
142.5075107759
 11
76.6703264324
 21
142.5075107759
  0
LINE
  8
0
 62
7
  6
CONTINUOUS
 10
80.5044364986
 20
142.5075107759
 11
82.4563774458
 21
142.5075107759
  0
LINE
  8
0
 62
7
  6
CONTINUOUS
 10
84.0603075279
 20
142.5075107759
 11
87.0544554031
 21
142.5075107759
  0
LINE
  8
0
 62
7
  6
CONTINUOUS
 10
88.6583854852
 20
142.5075107759
 11
90.6103264324
 21
142.5075107759
  0
LINE
  8
0
 62
7
  6
CONTINUOUS
 10
94.4444364986
 20
142.5075107759
 11
95.0680781747
 21
142.5075107759
  0
LINE
  8
0
 62
7
  6
CONTINUOUS
 10
96.6712531747
 20
142.5075107759
 11
99.8435097563
 21
142.5075107759
  0
LINE
  8
0
 62
7
  6
CONTINUOUS
 10
101.4466847563
 20
142.5075107759
 11
102.0703264324
 21
142.5075107759
  0
LINE
  8
0
 62
7
  6
CONTINUOUS
 10
105.9044364986
 20
142.5075107759
 11
107.8563774458
 21
142.5075107759
  0
LINE
  8
0
 62
7
  6
CONTINUOUS
 10
109.4603075279
 20
142.5075107759
 11
112.4544554031
 21
142.5075107759
  0
LINE
  8
0
 62
7
  6
CONTINUOUS
 10
114.0583854852
 20
142.5075107759
 11
115.6573814655
 21
142.5075107759
  0
POLYLINE
  8
0
 62
7
  6
CONTINUOUS
 66
1
 70
0
  0
VERTEX
  8
0
 62
7
  6
CONTINUOUS
 10
63.7073814926
 20
145.4532065193
  0
VERTEX
  8
0
 62
7
  6
CONTINUOUS
 10
63.6329616831
 20
145.4643551586
  0
VERTEX
  8
0
 62
7
  6
CONTINUOUS
 10
63.5499584777
 20
145.5032116005
  0
VERTEX
  8
0
 62
7
  6
CONTINUOUS
 10
63.4726610304
 20
145.5662768803
  0
VERTEX
  8
0
 62
7
  6
CONTINUOUS
 10
63.4033607203
 20
145.64980349
  0
VERTEX
  8
0
 62
7
  6
CONTINUOUS
 10
63.3433614561
 20
145.7510770058
  0
VERTEX
  8
0
 62
7
  6
CONTINUOUS
 10
63.293359343
 20
145.8686903715
  0
VERTEX
  8
0
 62
7
  6
CONTINUOUS
 10
63.2545045682
 20
145.9999919178
  0
VERTEX
  8
0
 62
7
  6
CONTINUOUS
 10
63.2272963632
 20
146.1425228733
  0
VERTEX
  8
0
 62
7
  6
CONTINUOUS
 10
63.2117710935
 20
146.29351646
  0
VERTEX
  8
0
 62
7
  6
CONTINUOUS
 10
63.2073812387
 20
146.4355368339
  0
SEQEND
  0
LINE
  8
0
 62
7
  6
CONTINUOUS
 10
103.0011314655
 20
118.0058086615
 11
103.1323814655
 21
117.7079363566
  0
LINE
  8
0
 62
7
  6
CONTINUOUS
 10
104.9698814655
 20
118.0058086615
 11
105.1011314655
 21
117.7079363566
  0
LINE
  8
0
 62
7
  6
CONTINUOUS
 10
101.4180781747
 20
117.5275107759
 11
101.3563056747
 21
118.5075107759
  0
LINE
  8
0
 62
7
  6
CONTINUOUS
 10
101.2667985829
 20
119.9275107759
 11
101.2050260829
 21
120.9075107759
  0
LINE
  8
0
 62
7
  6
CONTINUOUS
 10
101.115518991
 20
122.3275107759
 11
101.053746491
 21
123.3075107759
  0
LINE
  8
0
 62
7
  6
CONTINUOUS
 10
100.9642393992
 20
124.7275107759
 11
100.9024668992
 21
125.7075107759
  0
LINE
  8
0
 62
7
  6
CONTINUOUS
 10
100.8129598074
 20
127.1275107759
 11
100.7511873074
 21
128.1075107759
  0
LINE
  8
0
 62
7
  6
CONTINUOUS
 10
100.6616802155
 20
129.5275107759
 11
100.5999077155
 21
130.5075107759
  0
LINE
  8
0
 62
7
  6
CONTINUOUS
 10
100.5104006237
 20
131.9275107759
 11
100.4486281237
 21
132.9075107759
  0
LINE
  8
0
 62
7
  6
CONTINUOUS
 10
100.3591210318
 20
134.3275107759
 11
100.2973485318
 21
135.3075107759
  0
LINE
  8
0
 62
7
  6
CONTINUOUS
 10
100.20784144
 20
136.7275107759
 11
100.14606894
 21
137.7075107759
  0
LINE
  8
0
 62
7
  6
CONTINUOUS
 10
100.0565618482
 20
139.1275107759
 11
99.9947893482
 21
140.1075107759
  0
LINE
  8
0
 62
7
  6
CONTINUOUS
 10
99.9052822563
 20
141.5275107759
 11
99.8435097563
 21
142.5075107759
  0
LINE
  8
0
 62
7
  6
CONTINUOUS
 10
99.2636316324
 20
141.5275107759
 11
99.2636316324
 21
141.6558086615
  0
LINE
  8
0
 62
7
  6
CONTINUOUS
 10
99.2636316324
 20
142.1026171189
 11
99.2636316324
 21
142.5075107759
  0
LINE
  8
0
 62
7
  6
CONTINUOUS
 10
99.5261316324
 20
142.5075107759
 11
99.5261316324
 21
141.5275107759
  0
LINE
  8
0
 62
7
  6
CONTINUOUS
 10
99.5261316324
 20
140.1075107759
 11
99.5261316324
 21
140.0175107759
  0
LINE
  8
0
 62
7
  6
CONTINUOUS
 10
99.8761312986
 20
141.5275107759
 11
99.8761312986
 21
141.6558086615
  0
LINE
  8
0
 62
7
  6
CONTINUOUS
 10
101.3073814655
 20
146.4354841584
 11
101.3073814655
 21
152.8075107759
  0
LINE
  8
0
 62
7
  6
CONTINUOUS
 10
101.5573814655
 20
107.2275107759
 11
101.5573814655
 21
113.9031403772
  0
LINE
  8
0
 62
7
  6
CONTINUOUS
 10
101.6261313821
 20
140.1075107759
 11
101.6261313821
 21
140.0175107759
  0
LINE
  8
0
 62
7
  6
CONTINUOUS
 10
101.6698814655
 20
141.804744814
 11
101.6373064
 21
141.5275107759
  0
LINE
  8
0
 62
7
  6
CONTINUOUS
 10
74.472999126
 20
142.0396718136
 11
74.3948814655
 21
142.0175107759
  0
LINE
  8
0
 62
7
  6
CONTINUOUS
 10
107.4073814655
 20
145.4532064604
 11
101.807381493
 21
145.4532064604
  0
LINE
  8
0
 62
7
  6
CONTINUOUS
 10
94.7073814655
 20
145.4532064604
 11
89.1073814925
 21
145.4532064604
  0
LINE
  8
0
 62
7
  6
CONTINUOUS
 10
82.0073814655
 20
145.4532064604
 11
76.407381493
 21
145.4532064604
  0
LINE
  8
0
 62
7
  6
CONTINUOUS
 10
69.3073814655
 20
145.4532064604
 11
63.7073814925
 21
145.4532064604
  0
LINE
  8
0
 62
7
  6
CONTINUOUS
 10
56.6073814655
 20
145.4532064604
 11
54.5573814655
 21
145.4532064604
  0
LINE
  8
0
 62
7
  6
CONTINUOUS
 10
114.5073814655
 20
145.4532064604
 11
116.5573814655
 21
145.4532064604
  0
POLYLINE
  8
0
 62
7
  6
CONTINUOUS
 66
1
 70
0
  0
VERTEX
  8
0
 62
7
  6
CONTINUOUS
 10
76.4073814931
 20
145.4532065211
  0
VERTEX
  8
0
 62
7
  6
CONTINUOUS
 10
76.3329617437
 20
145.46435514
  0
VERTEX
  8
0
 62
7
  6
CONTINUOUS
 10
76.249958541
 20
145.503211558
  0
VERTEX
  8
0
 62
7
  6
CONTINUOUS
 10
76.1726611102
 20
145.5662768107
  0
VERTEX
  8
0
 62
7
  6
CONTINUOUS
 10
76.1033607399
 20
145.6498034612
  0
VERTEX
  8
0
 62
7
  6
CONTINUOUS
 10
76.0433615022
 20
145.7510769135
  0
VERTEX
  8
0
 62
7
  6
CONTINUOUS
 10
75.9933593771
 20
145.868690259
  0
VERTEX
  8
0
 62
7
  6
CONTINUOUS
 10
75.9545045763
 20
145.999991898
  0
VERTEX
  8
0
 62
7
  6
CONTINUOUS
 10
75.9272963512
 20
146.1425230433
  0
VERTEX
  8
0
 62
7
  6
CONTINUOUS
 10
75.9117710809
 20
146.2935167135
  0
VERTEX
  8
0
 62
7
  6
CONTINUOUS
 10
75.9073812421
 20
146.4355360739
  0
SEQEND
  0
POLYLINE
  8
0
 62
7
  6
CONTINUOUS
 66
1
 70
0
  0
VERTEX
  8
0
 62
7
  6
CONTINUOUS
 10
89.1073814926
 20
145.4532065193
  0
VERTEX
  8
0
 62
7
  6
CONTINUOUS
 10
89.0329616831
 20
145.4643551586
  0
VERTEX
  8
0
 62
7
  6
CONTINUOUS
 10
88.9499584777
 20
145.5032116005
  0
VERTEX
  8
0
 62
7
  6
CONTINUOUS
 10
88.8726610304
 20
145.5662768803
  0
VERTEX
  8
0
 62
7
  6
CONTINUOUS
 10
88.8033607203
 20
145.64980349
  0
VERTEX
  8
0
 62
7
  6
CONTINUOUS
 10
88.7433614561
 20
145.7510770058
  0
VERTEX
  8
0
 62
7
  6
CONTINUOUS
 10
88.693359343
 20
145.8686903715
  0
VERTEX
  8
0
 62
7
  6
CONTINUOUS
 10
88.6545045682
 20
145.9999919178
  0
VERTEX
  8
0
 62
7
  6
CONTINUOUS
 10
88.6272963632
 20
146.1425228733
  0
VERTEX
  8
0
 62
7
  6
CONTINUOUS
 10
88.6117710935
 20
146.29351646
  0
VERTEX
  8
0
 62
7
  6
CONTINUOUS
 10
88.6073812387
 20
146.4355368339
  0
SEQEND
  0
POLYLINE
  8
0
 62
7
  6
CONTINUOUS
 66
1
 70
0
  0
VERTEX
  8
0
 62
7
  6
CONTINUOUS
 10
88.6073814655
 20
150.2922556473
  0
VERTEX
  8
0
 62
7
  6
CONTINUOUS
 10
88.5906093424
 20
150.313049468
  0
VERTEX
  8
0
 62
7
  6
CONTINUOUS
 10
88.5412176739
 20
150.3321954304
  0
VERTEX
  8
0
 62
7
  6
CONTINUOUS
 10
88.4622312969
 20
150.3484873062
  0
VERTEX
  8
0
 62
7
  6
CONTINUOUS
 10
88.3587640449
 20
150.3609111811
  0
VERTEX
  8
0
 62
7
  6
CONTINUOUS
 10
88.2377337338
 20
150.3686962843
  0
VERTEX
  8
0
 62
7
  6
CONTINUOUS
 10
88.1073814655
 20
150.3713512569
  0
SEQEND
  0
LINE
  8
0
 62
7
  6
CONTINUOUS
 10
103.1323814655
 20
117.7079363566
 11
103.1677147789
 21
117.5275107759
  0
LINE
  8
0
 62
7
  6
CONTINUOUS
 10
101.4466847563
 20
142.5075107759
 11
101.5084572563
 21
141.5275107759
  0
LINE
  8
0
 62
7
  6
CONTINUOUS
 10
101.5979643482
 20
140.1075107759
 11
101.6597368482
 21
139.1275107759
  0
LINE
  8
0
 62
7
  6
CONTINUOUS
 10
101.74924394
 20
137.7075107759
 11
101.81101644
 21
136.7275107759
  0
LINE
  8
0
 62
7
  6
CONTINUOUS
 10
101.9005235318
 20
135.3075107759
 11
101.9622960318
 21
134.3275107759
  0
LINE
  8
0
 62
7
  6
CONTINUOUS
 10
102.0518031237
 20
132.9075107759
 11
102.1135756237
 21
131.9275107759
  0
LINE
  8
0
 62
7
  6
CONTINUOUS
 10
102.2030827155
 20
130.5075107759
 11
102.2648552155
 21
129.5275107759
  0
LINE
  8
0
 62
7
  6
CONTINUOUS
 10
102.3543623074
 20
128.1075107759
 11
102.4161348074
 21
127.1275107759
  0
LINE
  8
0
 62
7
  6
CONTINUOUS
 10
102.5056418992
 20
125.7075107759
 11
102.5674143992
 21
124.7275107759
  0
LINE
  8
0
 62
7
  6
CONTINUOUS
 10
102.656921491
 20
123.3075107759
 11
102.718693991
 21
122.3275107759
  0
LINE
  8
0
 62
7
  6
CONTINUOUS
 10
102.8082010829
 20
120.9075107759
 11
102.8699735829
 21
119.9275107759
  0
LINE
  8
0
 62
7
  6
CONTINUOUS
 10
102.9594806747
 20
118.5075107759
 11
103.0212531747
 21
117.5275107759
  0
LINE
  8
0
 62
7
  6
CONTINUOUS
 10
102.4136313821
 20
140.0175107759
 11
102.4136313821
 21
140.1075107759
  0
LINE
  8
0
 62
7
  6
CONTINUOUS
 10
102.6323814238
 20
140.1075107759
 11
102.6323814238
 21
140.0175107759
  0
LINE
  8
0
 62
7
  6
CONTINUOUS
 10
103.5261314655
 20
118.5075107759
 11
103.5261314655
 21
117.5275107759
  0
LINE
  8
0
 62
7
  6
CONTINUOUS
 10
103.7886314655
 20
118.5075107759
 11
103.7886314655
 21
118.3036809664
  0
LINE
  8
0
 62
7
  6
CONTINUOUS
 10
103.7886314655
 20
117.8568725091
 11
103.7886314655
 21
117.5275107759
  0
POLYLINE
  8
0
 62
7
  6
CONTINUOUS
 66
1
 70
0
  0
VERTEX
  8
0
 62
7
  6
CONTINUOUS
 10
101.8073814931
 20
145.4532065211
  0
VERTEX
  8
0
 62
7
  6
CONTINUOUS
 10
101.7329617437
 20
145.46435514
  0
VERTEX
  8
0
 62
7
  6
CONTINUOUS
 10
101.649958541
 20
145.503211558
  0
VERTEX
  8
0
 62
7
  6
CONTINUOUS
 10
101.5726611102
 20
145.5662768107
  0
VERTEX
  8
0
 62
7
  6
CONTINUOUS
 10
101.5033607399
 20
145.6498034612
  0
VERTEX
  8
0
 62
7
  6
CONTINUOUS
 10
101.4433615022
 20
145.7510769135
  0
VERTEX
  8
0
 62
7
  6
CONTINUOUS
 10
101.3933593771
 20
145.868690259
  0
VERTEX
  8
0
 62
7
  6
CONTINUOUS
 10
101.3545045763
 20
145.999991898
  0
VERTEX
  8
0
 62
7
  6
CONTINUOUS
 10
101.3272963512
 20
146.1425230433
  0
VERTEX
  8
0
 62
7
  6
CONTINUOUS
 10
101.3117710809
 20
146.2935167135
  0
VERTEX
  8
0
 62
7
  6
CONTINUOUS
 10
101.3073812421
 20
146.4355360739
  0
SEQEND
  0
LINE
  8
0
 62
7
  6
CONTINUOUS
 10
102.0198813821
 20
142.4004894238
 11
102.039717381
 21
142.3920485782
  0
LINE
  8
0
 62
7
  6
CONTINUOUS
 10
104.8593815189
 20
117.5275107759
 11
104.8386314655
 21
117.6334682804
  0
LINE
  8
0
 62
7
  6
CONTINUOUS
 10
105.1011314655
 20
117.7079363566
 11
105.13646488
 21
117.5275107759
  0
POLYLINE
  8
0
 62
7
  6
CONTINUOUS
 66
1
 70
0
  0
VERTEX
  8
0
 62
7
  6
CONTINUOUS
 10
94.9573814655
 20
109.7427659045
  0
VERTEX
  8
0
 62
7
  6
CONTINUOUS
 10
94.9406093424
 20
109.7219720838
  0
VERTEX
  8
0
 62
7
  6
CONTINUOUS
 10
94.8912176739
 20
109.7028261213
  0
VERTEX
  8
0
 62
7
  6
CONTINUOUS
 10
94.8122312969
 20
109.6865342455
  0
VERTEX
  8
0
 62
7
  6
CONTINUOUS
 10
94.7087640449
 20
109.6741103706
  0
VERTEX
  8
0
 62
7
  6
CONTINUOUS
 10
94.5877337338
 20
109.6663252674
  0
VERTEX
  8
0
 62
7
  6
CONTINUOUS
 10
94.4573814655
 20
109.6636702948
  0
SEQEND
  0
LINE
  8
1_AXIS
 62
2
  6
CENTER
 10
47.4896375839
 20
149.0675107759
 11
122.5010738255
 21
149.0675107759
  0
LINE
  8
0
 62
7
  6
CONTINUOUS
 10
57.6073814655
 20
150.3713512569
 11
62.7073814655
 21
150.3713512569
  0
LINE
  8
0
 62
7
  6
CONTINUOUS
 10
70.3073814655
 20
150.3713512569
 11
75.4073814655
 21
150.3713512569
  0
LINE
  8
0
 62
7
  6
CONTINUOUS
 10
83.0073814655
 20
150.3713512569
 11
88.1073814655
 21
150.3713512569
  0
LINE
  8
0
 62
7
  6
CONTINUOUS
 10
95.7073814655
 20
150.3713512569
 11
100.8073814655
 21
150.3713512569
  0
LINE
  8
0
 62
7
  6
CONTINUOUS
 10
108.4073814655
 20
150.3713512569
 11
113.5073814655
 21
150.3713512569
  0
POLYLINE
  8
0
 62
7
  6
CONTINUOUS
 66
1
 70
0
  0
VERTEX
  8
0
 62
7
  6
CONTINUOUS
 10
116.5573814655
 20
145.4532064596
  0
VERTEX
  8
0
 62
7
  6
CONTINUOUS
 10
116.6654222224
 20
145.441394124
  0
VERTEX
  8
0
 62
7
  6
CONTINUOUS
 10
116.7857654758
 20
145.3979993829
  0
VERTEX
  8
0
 62
7
  6
CONTINUOUS
 10
116.8939636909
 20
145.3229528675
  0
VERTEX
  8
0
 62
7
  6
CONTINUOUS
 10
116.9809109995
 20
145.218955842
  0
VERTEX
  8
0
 62
7
  6
CONTINUOUS
 10
117.0377357088
 20
145.0919861454
  0
VERTEX
  8
0
 62
7
  6
CONTINUOUS
 10
117.0573814655
 20
144.9532064604
  0
SEQEND
  0
POLYLINE
  8
0
 62
7
  6
CONTINUOUS
 66
1
 70
0
  0
VERTEX
  8
0
 62
7
  6
CONTINUOUS
 10
114.5073814655
 20
145.4532065283
  0
VERTEX
  8
0
 62
7
  6
CONTINUOUS
 10
114.4323169414
 20
145.4645490231
  0
VERTEX
  8
0
 62
7
  6
CONTINUOUS
 10
114.3493436375
 20
145.503606221
  0
VERTEX
  8
0
 62
7
  6
CONTINUOUS
 10
114.2721037733
 20
145.5668369251
  0
VERTEX
  8
0
 62
7
  6
CONTINUOUS
 10
114.2028718843
 20
145.6505040282
  0
VERTEX
  8
0
 62
7
  6
CONTINUOUS
 10
114.1429467368
 20
145.7519028499
  0
VERTEX
  8
0
 62
7
  6
CONTINUOUS
 10
114.0930234656
 20
145.869632908
  0
VERTEX
  8
0
 62
7
  6
CONTINUOUS
 10
114.0542506091
 20
146.0010481777
  0
VERTEX
  8
0
 62
7
  6
CONTINUOUS
 10
114.0271274752
 20
146.1436920535
  0
VERTEX
  8
0
 62
7
  6
CONTINUOUS
 10
114.0116899725
 20
146.2947988127
  0
VERTEX
  8
0
 62
7
  6
CONTINUOUS
 10
114.0073812023
 20
146.4355356158
  0
SEQEND
  0
LINE
  8
0
 62
7
  6
CONTINUOUS
 10
107.6573814655
 20
107.2275107759
 11
107.6573814655
 21
113.5995376136
  0
LINE
  8
0
 62
7
  6
CONTINUOUS
 10
107.9073814655
 20
146.1318811745
 11
107.9073814655
 21
152.8075107759
  0
POLYLINE
  8
0
 62
7
  6
CONTINUOUS
 66
1
 70
0
  0
VERTEX
  8
0
 62
7
  6
CONTINUOUS
 10
107.9073819527
 20
146.4355280378
  0
VERTEX
  8
0
 62
7
  6
CONTINUOUS
 10
107.9030732541
 20
146.2948015907
  0
VERTEX
  8
0
 62
7
  6
CONTINUOUS
 10
107.8876358705
 20
146.143695143
  0
VERTEX
  8
0
 62
7
  6
CONTINUOUS
 10
107.8605125821
 20
146.0010490243
  0
VERTEX
  8
0
 62
7
  6
CONTINUOUS
 10
107.821739487
 20
145.8696328456
  0
VERTEX
  8
0
 62
7
  6
CONTINUOUS
 10
107.7718163683
 20
145.7519031991
  0
VERTEX
  8
0
 62
7
  6
CONTINUOUS
 10
107.71189116
 20
145.6505041981
  0
VERTEX
  8
0
 62
7
  6
CONTINUOUS
 10
107.6426593871
 20
145.5668371243
  0
VERTEX
  8
0
 62
7
  6
CONTINUOUS
 10
107.5654196349
 20
145.503606428
  0
VERTEX
  8
0
 62
7
  6
CONTINUOUS
 10
107.4824470247
 20
145.4645493379
  0
VERTEX
  8
0
 62
7
  6
CONTINUOUS
 10
107.4073814655
 20
145.4532065255
  0
SEQEND
  0
POLYLINE
  8
0
 62
7
  6
CONTINUOUS
 66
1
 70
0
  0
VERTEX
  8
0
 62
7
  6
CONTINUOUS
 10
107.6573812436
 20
113.5994846391
  0
VERTEX
  8
0
 62
7
  6
CONTINUOUS
 10
107.6616900372
 20
113.7402239123
  0
VERTEX
  8
0
 62
7
  6
CONTINUOUS
 10
107.6771275928
 20
113.8913308225
  0
VERTEX
  8
0
 62
7
  6
CONTINUOUS
 10
107.7042506569
 20
114.0339736008
  0
VERTEX
  8
0
 62
7
  6
CONTINUOUS
 10
107.7430233533
 20
114.1653882318
  0
VERTEX
  8
0
 62
7
  6
CONTINUOUS
 10
107.7929466557
 20
114.2831185312
  0
VERTEX
  8
0
 62
7
  6
CONTINUOUS
 10
107.8528717668
 20
114.3845173641
  0
VERTEX
  8
0
 62
7
  6
CONTINUOUS
 10
107.9221036863
 20
114.4681845366
  0
VERTEX
  8
0
 62
7
  6
CONTINUOUS
 10
107.999343951
 20
114.531415517
  0
VERTEX
  8
0
 62
7
  6
CONTINUOUS
 10
108.0823193282
 20
114.570473247
  0
VERTEX
  8
0
 62
7
  6
CONTINUOUS
 10
108.1573814655
 20
114.5818150329
  0
SEQEND
  0
LINE
  8
0
 62
7
  6
CONTINUOUS
 10
106.1044554031
 20
117.5275107759
 11
106.1731857315
 21
118.5075107759
  0
LINE
  8
0
 62
7
  6
CONTINUOUS
 10
106.2727745746
 20
119.9275107759
 11
106.3415049029
 21
120.9075107759
  0
LINE
  8
0
 62
7
  6
CONTINUOUS
 10
106.441093746
 20
122.3275107759
 11
106.5098240743
 21
123.3075107759
  0
LINE
  8
0
 62
7
  6
CONTINUOUS
 10
106.6094129174
 20
124.7275107759
 11
106.6781432458
 21
125.7075107759
  0
LINE
  8
0
 62
7
  6
CONTINUOUS
 10
106.7777320889
 20
127.1275107759
 11
106.8464624172
 21
128.1075107759
  0
LINE
  8
0
 62
7
  6
CONTINUOUS
 10
106.9460512603
 20
129.5275107759
 11
107.0147815886
 21
130.5075107759
  0
LINE
  8
0
 62
7
  6
CONTINUOUS
 10
107.1143704317
 20
131.9275107759
 11
107.1831007601
 21
132.9075107759
  0
LINE
  8
0
 62
7
  6
CONTINUOUS
 10
107.2826896032
 20
134.3275107759
 11
107.3514199315
 21
135.3075107759
  0
LINE
  8
0
 62
7
  6
CONTINUOUS
 10
107.4510087746
 20
136.7275107759
 11
107.519739103
 21
137.7075107759
  0
LINE
  8
0
 62
7
  6
CONTINUOUS
 10
107.6193279461
 20
139.1275107759
 11
107.6880582744
 21
140.1075107759
  0
LINE
  8
0
 62
7
  6
CONTINUOUS
 10
107.7876471175
 20
141.5275107759
 11
107.8563774458
 21
142.5075107759
  0
LINE
  8
0
 62
7
  6
CONTINUOUS
 10
109.4603075279
 20
142.5075107759
 11
109.3915771996
 21
141.5275107759
  0
LINE
  8
0
 62
7
  6
CONTINUOUS
 10
109.2919883565
 20
140.1075107759
 11
109.2232580281
 21
139.1275107759
  0
LINE
  8
0
 62
7
  6
CONTINUOUS
 10
109.123669185
 20
137.7075107759
 11
109.0549388567
 21
136.7275107759
  0
LINE
  8
0
 62
7
  6
CONTINUOUS
 10
108.9553500136
 20
135.3075107759
 11
108.8866196853
 21
134.3275107759
  0
LINE
  8
0
 62
7
  6
CONTINUOUS
 10
108.7870308422
 20
132.9075107759
 11
108.7183005138
 21
131.9275107759
  0
LINE
  8
0
 62
7
  6
CONTINUOUS
 10
108.6187116707
 20
130.5075107759
 11
108.5499813424
 21
129.5275107759
  0
LINE
  8
0
 62
7
  6
CONTINUOUS
 10
108.4503924993
 20
128.1075107759
 11
108.381662171
 21
127.1275107759
  0
LINE
  8
0
 62
7
  6
CONTINUOUS
 10
108.2820733279
 20
125.7075107759
 11
108.2133429995
 21
124.7275107759
  0
LINE
  8
0
 62
7
  6
CONTINUOUS
 10
108.1137541564
 20
123.3075107759
 11
108.0450238281
 21
122.3275107759
  0
LINE
  8
0
 62
7
  6
CONTINUOUS
 10
107.945434985
 20
120.9075107759
 11
107.8767046566
 21
119.9275107759
  0
LINE
  8
0
 62
7
  6
CONTINUOUS
 10
107.7771158135
 20
118.5075107759
 11
107.7083854852
 21
117.5275107759
  0
POLYLINE
  8
0
 62
7
  6
CONTINUOUS
 66
1
 70
0
  0
VERTEX
  8
0
 62
7
  6
CONTINUOUS
 10
62.7073814655
 20
150.3713512569
  0
VERTEX
  8
0
 62
7
  6
CONTINUOUS
 10
62.7350481669
 20
150.3737869674
  0
VERTEX
  8
0
 62
7
  6
CONTINUOUS
 10
62.794532074
 20
150.3954671143
  0
VERTEX
  8
0
 62
7
  6
CONTINUOUS
 10
62.8553463415
 20
150.4406015152
  0
VERTEX
  8
0
 62
7
  6
CONTINUOUS
 10
62.9160147189
 20
150.5085054408
  0
VERTEX
  8
0
 62
7
  6
CONTINUOUS
 10
62.9743546481
 20
150.5956248767
  0
VERTEX
  8
0
 62
7
  6
CONTINUOUS
 10
63.002820944
 20
150.6463108487
  0
VERTEX
  8
0
 62
7
  6
CONTINUOUS
 10
63.0596952755
 20
150.7657945998
  0
VERTEX
  8
0
 62
7
  6
CONTINUOUS
 10
63.1156416762
 20
150.9139860623
  0
VERTEX
  8
0
 62
7
  6
CONTINUOUS
 10
63.166286964
 20
151.0951892564
  0
VERTEX
  8
0
 62
7
  6
CONTINUOUS
 10
63.2015973113
 20
151.3126534904
  0
VERTEX
  8
0
 62
7
  6
CONTINUOUS
 10
63.2073814655
 20
151.4339426891
  0
SEQEND
  0
LINE
  8
0
 62
7
  6
CONTINUOUS
 10
57.6073814655
 20
153.3075107759
 11
63.2073814655
 21
153.3075107759
  0
LINE
  8
0
 62
7
  6
CONTINUOUS
 10
70.3073814655
 20
153.3075107759
 11
75.4073814655
 21
153.3075107759
  0
LINE
  8
0
 62
7
  6
CONTINUOUS
 10
83.0073814655
 20
153.3075107759
 11
88.1073814655
 21
153.3075107759
  0
LINE
  8
0
 62
7
  6
CONTINUOUS
 10
95.7073814655
 20
153.3075107759
 11
100.8073814655
 21
153.3075107759
  0
LINE
  8
0
 62
7
  6
CONTINUOUS
 10
108.4073814655
 20
153.3075107759
 11
113.5073814655
 21
153.3075107759
  0
POLYLINE
  8
0
 62
7
  6
CONTINUOUS
 66
1
 70
0
  0
VERTEX
  8
0
 62
7
  6
CONTINUOUS
 10
101.3073814655
 20
150.2922556473
  0
VERTEX
  8
0
 62
7
  6
CONTINUOUS
 10
101.2906093424
 20
150.313049468
  0
VERTEX
  8
0
 62
7
  6
CONTINUOUS
 10
101.2412176739
 20
150.3321954304
  0
VERTEX
  8
0
 62
7
  6
CONTINUOUS
 10
101.1622312969
 20
150.3484873062
  0
VERTEX
  8
0
 62
7
  6
CONTINUOUS
 10
101.0587640449
 20
150.3609111811
  0
VERTEX
  8
0
 62
7
  6
CONTINUOUS
 10
100.9377337338
 20
150.3686962843
  0
VERTEX
  8
0
 62
7
  6
CONTINUOUS
 10
100.8073814655
 20
150.3713512569
  0
SEQEND
  0
LINE
  8
0
 62
7
  6
CONTINUOUS
 10
114.2063774458
 20
117.5275107759
 11
114.1376471175
 21
118.5075107759
  0
LINE
  8
0
 62
7
  6
CONTINUOUS
 10
114.0380582744
 20
119.9275107759
 11
113.9693279461
 21
120.9075107759
  0
LINE
  8
0
 62
7
  6
CONTINUOUS
 10
113.869739103
 20
122.3275107759
 11
113.8010087746
 21
123.3075107759
  0
LINE
  8
0
 62
7
  6
CONTINUOUS
 10
113.7014199315
 20
124.7275107759
 11
113.6326896032
 21
125.7075107759
  0
LINE
  8
0
 62
7
  6
CONTINUOUS
 10
113.5331007601
 20
127.1275107759
 11
113.4643704317
 21
128.1075107759
  0
LINE
  8
0
 62
7
  6
CONTINUOUS
 10
113.3647815886
 20
129.5275107759
 11
113.2960512603
 21
130.5075107759
  0
LINE
  8
0
 62
7
  6
CONTINUOUS
 10
113.1964624172
 20
131.9275107759
 11
113.1277320889
 21
132.9075107759
  0
LINE
  8
0
 62
7
  6
CONTINUOUS
 10
113.0281432458
 20
134.3275107759
 11
112.9594129174
 21
135.3075107759
  0
LINE
  8
0
 62
7
  6
CONTINUOUS
 10
112.8598240743
 20
136.7275107759
 11
112.791093746
 21
137.7075107759
  0
LINE
  8
0
 62
7
  6
CONTINUOUS
 10
112.6915049029
 20
139.1275107759
 11
112.6227745746
 21
140.1075107759
  0
LINE
  8
0
 62
7
  6
CONTINUOUS
 10
112.5231857315
 20
141.5275107759
 11
112.4544554031
 21
142.5075107759
  0
LINE
  8
0
 62
7
  6
CONTINUOUS
 10
114.0073814655
 20
152.8075107759
 11
114.0073814655
 21
146.4354963382
  0
LINE
  8
0
 62
7
  6
CONTINUOUS
 10
114.2573814655
 20
107.2275107759
 11
114.2573814655
 21
113.599534723
  0
LINE
  8
0
 62
7
  6
CONTINUOUS
 10
114.0583854852
 20
142.5075107759
 11
114.1271158135
 21
141.5275107759
  0
LINE
  8
0
 62
7
  6
CONTINUOUS
 10
114.2267046566
 20
140.1075107759
 11
114.295434985
 21
139.1275107759
  0
LINE
  8
0
 62
7
  6
CONTINUOUS
 10
114.3950238281
 20
137.7075107759
 11
114.4637541564
 21
136.7275107759
  0
LINE
  8
0
 62
7
  6
CONTINUOUS
 10
114.5633429995
 20
135.3075107759
 11
114.6320733279
 21
134.3275107759
  0
LINE
  8
0
 62
7
  6
CONTINUOUS
 10
114.731662171
 20
132.9075107759
 11
114.8003924993
 21
131.9275107759
  0
LINE
  8
0
 62
7
  6
CONTINUOUS
 10
114.8999813424
 20
130.5075107759
 11
114.9687116707
 21
129.5275107759
  0
LINE
  8
0
 62
7
  6
CONTINUOUS
 10
115.0683005138
 20
128.1075107759
 11
115.1370308422
 21
127.1275107759
  0
LINE
  8
0
 62
7
  6
CONTINUOUS
 10
115.2366196853
 20
125.7075107759
 11
115.3053500136
 21
124.7275107759
  0
LINE
  8
0
 62
7
  6
CONTINUOUS
 10
115.4049388567
 20
123.3075107759
 11
115.473669185
 21
122.3275107759
  0
LINE
  8
0
 62
7
  6
CONTINUOUS
 10
115.5732580281
 20
120.9075107759
 11
115.6419883565
 21
119.9275107759
  0
LINE
  8
0
 62
7
  6
CONTINUOUS
 10
115.6573814655
 20
119.9275107759
 11
115.6573814655
 21
120.9075107759
  0
LINE
  8
0
 62
7
  6
CONTINUOUS
 10
115.6573814655
 20
122.3275107759
 11
115.6573814655
 21
123.3075107759
  0
LINE
  8
0
 62
7
  6
CONTINUOUS
 10
115.6573814655
 20
124.7275107759
 11
115.6573814655
 21
125.7075107759
  0
LINE
  8
0
 62
7
  6
CONTINUOUS
 10
115.6573814655
 20
127.1275107759
 11
115.6573814655
 21
128.1075107759
  0
LINE
  8
0
 62
7
  6
CONTINUOUS
 10
115.6573814655
 20
129.5275107759
 11
115.6573814655
 21
130.5075107759
  0
LINE
  8
0
 62
7
  6
CONTINUOUS
 10
115.6573814655
 20
131.9275107759
 11
115.6573814655
 21
132.9075107759
  0
LINE
  8
0
 62
7
  6
CONTINUOUS
 10
115.6573814655
 20
134.3275107759
 11
115.6573814655
 21
135.3075107759
  0
LINE
  8
0
 62
7
  6
CONTINUOUS
 10
115.6573814655
 20
136.7275107759
 11
115.6573814655
 21
137.7075107759
  0
LINE
  8
0
 62
7
  6
CONTINUOUS
 10
115.6573814655
 20
139.1275107759
 11
115.6573814655
 21
140.1075107759
  0
LINE
  8
0
 62
7
  6
CONTINUOUS
 10
115.6573814655
 20
141.5275107759
 11
115.6573814655
 21
142.5075107759
  0
LINE
  8
0
 62
7
  6
CONTINUOUS
 10
117.0573814655
 20
107.2275107759
 11
117.0573814655
 21
144.9532064604
  0
LINE
  8
0
 62
7
  6
CONTINUOUS
 10
117.2573814655
 20
143.3837622771
 11
117.2573814655
 21
114.5675107759
  0
POLYLINE
  8
0
 62
7
  6
CONTINUOUS
 66
1
 70
0
  0
VERTEX
  8
0
 62
7
  6
CONTINUOUS
 10
107.6573814655
 20
109.7427659045
  0
VERTEX
  8
0
 62
7
  6
CONTINUOUS
 10
107.6406093424
 20
109.7219720838
  0
VERTEX
  8
0
 62
7
  6
CONTINUOUS
 10
107.5912176739
 20
109.7028261213
  0
VERTEX
  8
0
 62
7
  6
CONTINUOUS
 10
107.5122312969
 20
109.6865342455
  0
VERTEX
  8
0
 62
7
  6
CONTINUOUS
 10
107.4087640449
 20
109.6741103706
  0
VERTEX
  8
0
 62
7
  6
CONTINUOUS
 10
107.2877337338
 20
109.6663252674
  0
VERTEX
  8
0
 62
7
  6
CONTINUOUS
 10
107.1573814655
 20
109.6636702948
  0
SEQEND
  0
LINE
  8
0
 62
7
  6
CONTINUOUS
 10
117.0573814655
 20
114.3675107759
 11
117.2573814655
 21
114.5675107759
  0
POLYLINE
  8
0
 62
7
  6
CONTINUOUS
 66
1
 70
0
  0
VERTEX
  8
0
 62
7
  6
CONTINUOUS
 10
114.0073814655
 20
150.2922556473
  0
VERTEX
  8
0
 62
7
  6
CONTINUOUS
 10
113.9906093424
 20
150.313049468
  0
VERTEX
  8
0
 62
7
  6
CONTINUOUS
 10
113.9412176739
 20
150.3321954304
  0
VERTEX
  8
0
 62
7
  6
CONTINUOUS
 10
113.8622312969
 20
150.3484873062
  0
VERTEX
  8
0
 62
7
  6
CONTINUOUS
 10
113.7587640449
 20
150.3609111811
  0
VERTEX
  8
0
 62
7
  6
CONTINUOUS
 10
113.6377337338
 20
150.3686962843
  0
VERTEX
  8
0
 62
7
  6
CONTINUOUS
 10
113.5073814655
 20
150.3713512569
  0
SEQEND
  0
LINE
  8
0
 62
7
  6
CONTINUOUS
 10
155.6379979902
 20
106.7275107759
 11
157.5821173281
 21
106.7275107759
  0
LINE
  8
1_AXIS
 62
2
  6
CONTINUOUS
 10
157.4900576592
 20
110.9675107759
 11
155.7300576592
 21
110.9675107759
  0
LINE
  8
1_AXIS
 62
2
  6
CENTER
 10
152.2100576592
 20
110.9675107759
 11
150.4600552954
 21
110.9675107759
  0
LINE
  8
1_AXIS
 62
2
  6
CENTER
 10
161.0100576592
 20
110.9675107759
 11
162.7600600229
 21
110.9675107759
  0
LINE
  8
0
 62
7
  6
CONTINUOUS
 10
160.7600576592
 20
109.6636702948
 11
160.6123098376
 21
109.6865342455
  0
POLYLINE
  8
0
 62
7
  6
CONTINUOUS
 66
1
 70
0
  0
VERTEX
  8
0
 62
7
  6
CONTINUOUS
 10
160.6123098376
 20
109.6865342455
  0
VERTEX
  8
0
 62
7
  6
CONTINUOUS
 10
160.388474243
 20
109.7219720838
  0
VERTEX
  8
0
 62
7
  6
CONTINUOUS
 10
160.2600576592
 20
109.7427659045
  0
SEQEND
  0
LINE
  8
0
 62
7
  6
CONTINUOUS
 10
160.1501707592
 20
114.3675107759
 11
153.8600576592
 21
114.3675107759
  0
LINE
  8
0
 62
7
  6
CONTINUOUS
 10
153.8600576592
 20
114.5675107759
 11
159.9345727758
 21
114.5675107759
  0
LINE
  8
0
 62
7
  6
CONTINUOUS
 10
159.9345727758
 20
114.5675107759
 11
160.1501707592
 21
114.3675107759
  0
LINE
  8
0
 62
7
  6
CONTINUOUS
 10
152.2600576592
 20
149.0675107759
 11
152.2600576592
 21
110.9675107759
  0
LINE
  8
0
 62
7
  6
CONTINUOUS
 10
153.8600576592
 20
114.3675107759
 11
153.8600576592
 21
144.3837622771
  0
LINE
  8
0
 62
7
  6
CONTINUOUS
 10
157.5533113768
 20
153.0567270294
 11
157.5821173281
 21
153.3075107759
  0
LINE
  8
0
 62
7
  6
CONTINUOUS
 10
157.5237862841
 20
152.8075107759
 11
157.5533113768
 21
153.0567270294
  0
LINE
  8
0
 62
7
  6
CONTINUOUS
 10
157.5533113768
 20
106.9782945223
 11
157.5237862841
 21
107.2275107759
  0
LINE
  8
0
 62
7
  6
CONTINUOUS
 10
157.5821173281
 20
106.7275107759
 11
157.5533113768
 21
106.9782945223
  0
LINE
  8
1_AXIS
 62
2
  6
CENTER
 10
156.6100576592
 20
153.4675107759
 11
156.6100576592
 21
152.3175107759
  0
LINE
  8
1_AXIS
 62
2
  6
CONTINUOUS
 10
156.6100576592
 20
149.9475107759
 11
156.6100576592
 21
148.1875107759
  0
LINE
  8
1_AXIS
 62
2
  6
CONTINUOUS
 10
156.6100576592
 20
111.8475107759
 11
156.6100576592
 21
110.0875107759
  0
LINE
  8
1_AXIS
 62
2
  6
CENTER
 10
156.6100576592
 20
106.5675107759
 11
156.6100576592
 21
104.8175084121
  0
LINE
  8
1_AXIS
 62
2
  6
CENTER
 10
156.6100576592
 20
115.3675107759
 11
156.6100576592
 21
117.1175131396
  0
LINE
  8
1_AXIS
 62
2
  6
CENTER
 10
156.6100576592
 20
144.6675107759
 11
156.6100576592
 21
145.8175107759
  0
LINE
  8
1_AXIS
 62
2
  6
CENTER
 10
149.7600570819
 20
130.0175107759
 11
162.7600600229
 21
130.0175107759
  0
LINE
  8
0
 62
7
  6
CONTINUOUS
 10
155.6379979902
 20
106.7275107759
 11
155.6547957158
 21
106.8746681372
  0
LINE
  8
0
 62
7
  6
CONTINUOUS
 10
155.6547957158
 20
153.1603534145
 11
155.6379979902
 21
153.3075107759
  0
LINE
  8
0
 62
7
  6
CONTINUOUS
 10
158.3600576592
 20
115.5035323933
 11
158.3600576592
 21
144.3837622771
  0
POLYLINE
  8
0
 62
7
  6
CONTINUOUS
 66
1
 70
0
  0
VERTEX
  8
0
 62
7
  6
CONTINUOUS
 10
155.6547957158
 20
106.8746681372
  0
VERTEX
  8
0
 62
7
  6
CONTINUOUS
 10
155.6809449913
 20
107.0986455506
  0
VERTEX
  8
0
 62
7
  6
CONTINUOUS
 10
155.6963290343
 20
107.2275107759
  0
SEQEND
  0
POLYLINE
  8
0
 62
7
  6
CONTINUOUS
 66
1
 70
0
  0
VERTEX
  8
0
 62
7
  6
CONTINUOUS
 10
155.6963290343
 20
152.8075107759
  0
VERTEX
  8
0
 62
7
  6
CONTINUOUS
 10
155.6668039416
 20
153.0567270294
  0
VERTEX
  8
0
 62
7
  6
CONTINUOUS
 10
155.6547957158
 20
153.1603534145
  0
SEQEND
  0
LINE
  8
0
 62
7
  6
CONTINUOUS
 10
160.7600576592
 20
150.3713512569
 11
160.7600576592
 21
109.6636702948
  0
LINE
  8
0
 62
7
  6
CONTINUOUS
 10
158.3139205624
 20
144.6356997482
 11
158.2672385482
 21
144.8837622771
  0
LINE
  8
0
 62
7
  6
CONTINUOUS
 10
158.3600576592
 20
144.3837622771
 11
158.3139205624
 21
144.6356997482
  0
LINE
  8
0
 62
7
  6
CONTINUOUS
 10
152.7600576592
 20
144.3837622771
 11
158.3600576592
 21
144.3837622771
  0
LINE
  8
1_AXIS
 62
2
  6
CENTER
 10
161.0100576592
 20
149.0675107759
 11
159.8600576592
 21
149.0675107759
  0
LINE
  8
1_AXIS
 62
2
  6
CONTINUOUS
 10
157.4900576592
 20
149.0675107759
 11
155.7300576592
 21
149.0675107759
  0
LINE
  8
1_AXIS
 62
2
  6
CENTER
 10
152.2100576592
 20
149.0675107759
 11
153.3600576592
 21
149.0675107759
  0
LINE
  8
0
 62
7
  6
CONTINUOUS
 10
160.2600576592
 20
150.2922556473
 11
160.5086258476
 21
150.3321954304
  0
POLYLINE
  8
0
 62
7
  6
CONTINUOUS
 66
1
 70
0
  0
VERTEX
  8
0
 62
7
  6
CONTINUOUS
 10
160.5086258476
 20
150.3321954304
  0
VERTEX
  8
0
 62
7
  6
CONTINUOUS
 10
160.7427669777
 20
150.3686962843
  0
VERTEX
  8
0
 62
7
  6
CONTINUOUS
 10
160.7600576592
 20
150.3713512569
  0
SEQEND
  0
LINE
  8
0
 62
7
  6
CONTINUOUS
 10
155.6379979902
 20
153.3075107759
 11
157.5821173281
 21
153.3075107759
  0
LINE
  8
0
 62
7
  6
CONTINUOUS
 10
53.8573814655
 20
192.656304157
 11
53.8573814655
 21
198.7308192737
  0
LINE
  8
0
 62
7
  6
CONTINUOUS
 10
54.0573814655
 20
191.556304157
 11
54.0573814655
 21
199.056304157
  0
LINE
  8
0
 62
7
  6
CONTINUOUS
 10
56.8573814655
 20
191.556307132
 11
56.8573814655
 21
199.056304157
  0
POLYLINE
  8
0
 62
7
  6
CONTINUOUS
 66
1
 70
0
  0
VERTEX
  8
0
 62
7
  6
CONTINUOUS
 10
56.8573814655
 20
196.9805958675
  0
VERTEX
  8
0
 62
7
  6
CONTINUOUS
 10
56.8654236765
 20
197.0342600352
  0
VERTEX
  8
0
 62
7
  6
CONTINUOUS
 10
56.8933777178
 20
197.0889787749
  0
VERTEX
  8
0
 62
7
  6
CONTINUOUS
 10
56.9158114787
 20
197.1125317286
  0
VERTEX
  8
0
 62
7
  6
CONTINUOUS
 10
56.9749300809
 20
197.1451301224
  0
VERTEX
  8
0
 62
7
  6
CONTINUOUS
 10
57.0502804071
 20
197.156304157
  0
SEQEND
  0
LINE
  8
0
 62
7
  6
CONTINUOUS
 10
58.7073814655
 20
191.556304157
 11
58.7073814655
 21
197.156304157
  0
LINE
  8
0
 62
7
  6
CONTINUOUS
 10
53.8573814655
 20
198.7308192737
 11
54.0573814655
 21
198.946417257
  0
LINE
  8
0
 62
7
  6
CONTINUOUS
 10
61.2073814655
 20
192.560848031
 11
61.2073814655
 21
191.2563076921
  0
POLYLINE
  8
0
 62
7
  6
CONTINUOUS
 66
1
 70
0
  0
VERTEX
  8
0
 62
7
  6
CONTINUOUS
 10
61.2073810282
 20
192.5608475312
  0
VERTEX
  8
0
 62
7
  6
CONTINUOUS
 10
61.2081452431
 20
192.582916733
  0
VERTEX
  8
0
 62
7
  6
CONTINUOUS
 10
61.2115469757
 20
192.6135228399
  0
VERTEX
  8
0
 62
7
  6
CONTINUOUS
 10
61.2175280041
 20
192.6445474366
  0
VERTEX
  8
0
 62
7
  6
CONTINUOUS
 10
61.2258829453
 20
192.6755131472
  0
VERTEX
  8
0
 62
7
  6
CONTINUOUS
 10
61.2363599008
 20
192.7059292752
  0
VERTEX
  8
0
 62
7
  6
CONTINUOUS
 10
61.2486904039
 20
192.7353963004
  0
VERTEX
  8
0
 62
7
  6
CONTINUOUS
 10
61.2626066868
 20
192.7635723613
  0
VERTEX
  8
0
 62
7
  6
CONTINUOUS
 10
61.2778124542
 20
192.7901208535
  0
VERTEX
  8
0
 62
7
  6
CONTINUOUS
 10
61.2940177918
 20
192.8147672053
  0
VERTEX
  8
0
 62
7
  6
CONTINUOUS
 10
61.3109504703
 20
192.8373077632
  0
VERTEX
  8
0
 62
7
  6
CONTINUOUS
 10
61.3284522948
 20
192.8576909794
  0
VERTEX
  8
0
 62
7
  6
CONTINUOUS
 10
61.3466282692
 20
192.8760865191
  0
VERTEX
  8
0
 62
7
  6
CONTINUOUS
 10
61.3655510081
 20
192.8924706741
  0
VERTEX
  8
0
 62
7
  6
CONTINUOUS
 10
61.3853337617
 20
192.9066940713
  0
VERTEX
  8
0
 62
7
  6
CONTINUOUS
 10
61.4062619384
 20
192.9184831977
  0
VERTEX
  8
0
 62
7
  6
CONTINUOUS
 10
61.4281957491
 20
192.927003795
  0
VERTEX
  8
0
 62
7
  6
CONTINUOUS
 10
61.4499989605
 20
192.9310836609
  0
VERTEX
  8
0
 62
7
  6
CONTINUOUS
 10
61.470050233
 20
192.9305290829
  0
VERTEX
  8
0
 62
7
  6
CONTINUOUS
 10
61.4882519823
 20
192.9264985773
  0
VERTEX
  8
0
 62
7
  6
CONTINUOUS
 10
61.5056859137
 20
192.9198037028
  0
SEQEND
  0
LINE
  8
0
 62
7
  6
CONTINUOUS
 10
63.2073814655
 20
192.2123493239
 11
63.2073814655
 21
196.9805958675
  0
LINE
  8
0
 62
7
  6
CONTINUOUS
 10
63.4573814655
 20
191.556307122
 11
63.4573814655
 21
199.056304157
  0
POLYLINE
  8
0
 62
7
  6
CONTINUOUS
 66
1
 70
0
  0
VERTEX
  8
0
 62
7
  6
CONTINUOUS
 10
62.9723590466
 20
192.4248539505
  0
VERTEX
  8
0
 62
7
  6
CONTINUOUS
 10
62.9727521158
 20
192.4242966137
  0
VERTEX
  8
0
 62
7
  6
CONTINUOUS
 10
62.9916897842
 20
192.3983589238
  0
VERTEX
  8
0
 62
7
  6
CONTINUOUS
 10
63.0115437594
 20
192.3721418309
  0
VERTEX
  8
0
 62
7
  6
CONTINUOUS
 10
63.0320545021
 20
192.3460922523
  0
VERTEX
  8
0
 62
7
  6
CONTINUOUS
 10
63.0530187395
 20
192.3205713325
  0
VERTEX
  8
0
 62
7
  6
CONTINUOUS
 10
63.0742614965
 20
192.2959092397
  0
VERTEX
  8
0
 62
7
  6
CONTINUOUS
 10
63.095622003
 20
192.2724415851
  0
VERTEX
  8
0
 62
7
  6
CONTINUOUS
 10
63.1169192406
 20
192.2505726229
  0
VERTEX
  8
0
 62
7
  6
CONTINUOUS
 10
63.1379031158
 20
192.2308595267
  0
VERTEX
  8
0
 62
7
  6
CONTINUOUS
 10
63.1581647138
 20
192.2141488785
  0
VERTEX
  8
0
 62
7
  6
CONTINUOUS
 10
63.1769207502
 20
192.2018198259
  0
VERTEX
  8
0
 62
7
  6
CONTINUOUS
 10
63.1865656941
 20
192.1974820619
  0
SEQEND
  0
LINE
  8
0
 62
7
  6
CONTINUOUS
 10
67.5573814655
 20
192.5608468395
 11
67.5573814655
 21
191.2563076921
  0
LINE
  8
0
 62
7
  6
CONTINUOUS
 10
67.9542064655
 20
191.921828444
 11
67.9542064655
 21
191.556304157
  0
POLYLINE
  8
0
 62
7
  6
CONTINUOUS
 66
1
 70
0
  0
VERTEX
  8
0
 62
7
  6
CONTINUOUS
 10
67.5573810981
 20
192.5608471984
  0
VERTEX
  8
0
 62
7
  6
CONTINUOUS
 10
67.558145284
 20
192.5829150544
  0
VERTEX
  8
0
 62
7
  6
CONTINUOUS
 10
67.5615458642
 20
192.6135171296
  0
VERTEX
  8
0
 62
7
  6
CONTINUOUS
 10
67.5675265848
 20
192.6445412335
  0
SEQEND
  0
LINE
  8
0
 62
7
  6
CONTINUOUS
 10
67.5573810283
 20
192.5608996981
 11
67.5675797327
 21
192.6447382285
  0
POLYLINE
  8
0
 62
7
  6
CONTINUOUS
 66
1
 70
0
  0
VERTEX
  8
0
 62
7
  6
CONTINUOUS
 10
56.8573814655
 20
194.4925755321
  0
VERTEX
  8
0
 62
7
  6
CONTINUOUS
 10
56.8404898941
 20
194.4771914892
  0
VERTEX
  8
0
 62
7
  6
CONTINUOUS
 10
56.7908457189
 20
194.4630504394
  0
VERTEX
  8
0
 62
7
  6
CONTINUOUS
 10
56.7116441821
 20
194.4510422136
  0
VERTEX
  8
0
 62
7
  6
CONTINUOUS
 10
56.6081360745
 20
194.4419044717
  0
VERTEX
  8
0
 62
7
  6
CONTINUOUS
 10
56.4873043167
 20
194.43618998
  0
VERTEX
  8
0
 62
7
  6
CONTINUOUS
 10
56.3573814655
 20
194.4342444881
  0
SEQEND
  0
POLYLINE
  8
0
 62
7
  6
CONTINUOUS
 66
1
 70
0
  0
VERTEX
  8
0
 62
7
  6
CONTINUOUS
 10
56.8573814655
 20
196.3200327819
  0
VERTEX
  8
0
 62
7
  6
CONTINUOUS
 10
56.8404898941
 20
196.3354168249
  0
VERTEX
  8
0
 62
7
  6
CONTINUOUS
 10
56.7908457189
 20
196.3495578746
  0
VERTEX
  8
0
 62
7
  6
CONTINUOUS
 10
56.7116441821
 20
196.3615661004
  0
VERTEX
  8
0
 62
7
  6
CONTINUOUS
 10
56.6081360745
 20
196.3707038424
  0
VERTEX
  8
0
 62
7
  6
CONTINUOUS
 10
56.4873043167
 20
196.376418334
  0
VERTEX
  8
0
 62
7
  6
CONTINUOUS
 10
56.3573814655
 20
196.378363826
  0
SEQEND
  0
LINE
  8
0
 62
7
  6
CONTINUOUS
 10
59.2073814655
 20
196.656304157
 11
58.7073814655
 21
197.156304157
  0
LINE
  8
0
 62
7
  6
CONTINUOUS
 10
67.7103315334
 20
192.7855716542
 11
67.7211077131
 21
192.7627526762
  0
LINE
  8
0
 62
7
  6
CONTINUOUS
 10
67.7211077131
 20
192.7627526762
 11
67.7666348703
 21
192.6647502879
  0
LINE
  8
0
 62
7
  6
CONTINUOUS
 10
67.7666348703
 20
192.6647502879
 11
67.7795747683
 21
192.6366907534
  0
POLYLINE
  8
0
 62
7
  6
CONTINUOUS
 66
1
 70
0
  0
VERTEX
  8
0
 62
7
  6
CONTINUOUS
 10
67.7795738272
 20
192.636690011
  0
VERTEX
  8
0
 62
7
  6
CONTINUOUS
 10
67.8749792032
 20
192.3906666951
  0
VERTEX
  8
0
 62
7
  6
CONTINUOUS
 10
67.9353871985
 20
192.1412520724
  0
VERTEX
  8
0
 62
7
  6
CONTINUOUS
 10
67.9542067483
 20
191.9218151194
  0
SEQEND
  0
LINE
  8
0
 62
7
  6
CONTINUOUS
 10
69.5573814655
 20
191.556304157
 11
69.5573814655
 21
199.056304157
  0
LINE
  8
0
 62
7
  6
CONTINUOUS
 10
70.3873814655
 20
197.156304157
 11
70.3873814655
 21
197.056304157
  0
LINE
  8
0
 62
7
  6
CONTINUOUS
 10
70.8973814655
 20
197.156304157
 11
70.8973814655
 21
197.056304157
  0
POLYLINE
  8
0
 62
7
  6
CONTINUOUS
 66
1
 70
0
  0
VERTEX
  8
0
 62
7
  6
CONTINUOUS
 10
70.1786555762
 20
191.556304157
  0
VERTEX
  8
0
 62
7
  6
CONTINUOUS
 10
70.162609494
 20
191.4272912493
  0
VERTEX
  8
0
 62
7
  6
CONTINUOUS
 10
70.1580752143
 20
191.41098977
  0
SEQEND
  0
POLYLINE
  8
0
 62
7
  6
CONTINUOUS
 66
1
 70
0
  0
VERTEX
  8
0
 62
7
  6
CONTINUOUS
 10
67.5675797327
 20
192.6447382285
  0
VERTEX
  8
0
 62
7
  6
CONTINUOUS
 10
67.5758806401
 20
192.6755059402
  0
VERTEX
  8
0
 62
7
  6
CONTINUOUS
 10
67.5863563532
 20
192.7059199974
  0
VERTEX
  8
0
 62
7
  6
CONTINUOUS
 10
67.5986858463
 20
192.7353862712
  0
VERTEX
  8
0
 62
7
  6
CONTINUOUS
 10
67.6126006227
 20
192.76356097
  0
VERTEX
  8
0
 62
7
  6
CONTINUOUS
 10
67.6278050087
 20
192.7901087073
  0
VERTEX
  8
0
 62
7
  6
CONTINUOUS
 10
67.6440089856
 20
192.8147547221
  0
VERTEX
  8
0
 62
7
  6
CONTINUOUS
 10
67.6609399597
 20
192.8372946568
  0
VERTEX
  8
0
 62
7
  6
CONTINUOUS
 10
67.6784406162
 20
192.8576783318
  0
VERTEX
  8
0
 62
7
  6
CONTINUOUS
 10
67.6966151513
 20
192.8760741376
  0
VERTEX
  8
0
 62
7
  6
CONTINUOUS
 10
67.7155357588
 20
192.8924584754
  0
VERTEX
  8
0
 62
7
  6
CONTINUOUS
 10
67.7353157817
 20
192.9066824912
  0
VERTEX
  8
0
 62
7
  6
CONTINUOUS
 10
67.7562420865
 20
192.9184736463
  0
VERTEX
  8
0
 62
7
  6
CONTINUOUS
 10
67.7781743921
 20
192.9269975287
  0
VERTEX
  8
0
 62
7
  6
CONTINUOUS
 10
67.7999770054
 20
192.9310819861
  0
VERTEX
  8
0
 62
7
  6
CONTINUOUS
 10
67.8200329971
 20
192.9305313691
  0
VERTEX
  8
0
 62
7
  6
CONTINUOUS
 10
67.8382429007
 20
192.9265013791
  0
VERTEX
  8
0
 62
7
  6
CONTINUOUS
 10
67.8556832037
 20
192.9198049486
  0
VERTEX
  8
0
 62
7
  6
CONTINUOUS
 10
67.866087715
 20
192.9146035781
  0
SEQEND
  0
LINE
  8
0
 62
7
  6
CONTINUOUS
 10
67.5677138401
 20
192.6452353042
 11
67.5820719625
 21
192.6942544568
  0
LINE
  8
0
 62
7
  6
CONTINUOUS
 10
67.5820719625
 20
192.6942544568
 11
67.6249038709
 21
192.7850431529
  0
POLYLINE
  8
0
 62
7
  6
CONTINUOUS
 66
1
 70
0
  0
VERTEX
  8
0
 62
7
  6
CONTINUOUS
 10
63.4573814655
 20
196.3200327819
  0
VERTEX
  8
0
 62
7
  6
CONTINUOUS
 10
63.474273037
 20
196.3354168249
  0
VERTEX
  8
0
 62
7
  6
CONTINUOUS
 10
63.5239172121
 20
196.3495578746
  0
VERTEX
  8
0
 62
7
  6
CONTINUOUS
 10
63.603118749
 20
196.3615661004
  0
VERTEX
  8
0
 62
7
  6
CONTINUOUS
 10
63.7066268566
 20
196.3707038424
  0
VERTEX
  8
0
 62
7
  6
CONTINUOUS
 10
63.8274586143
 20
196.376418334
  0
VERTEX
  8
0
 62
7
  6
CONTINUOUS
 10
63.9573814655
 20
196.378363826
  0
SEQEND
  0
POLYLINE
  8
0
 62
7
  6
CONTINUOUS
 66
1
 70
0
  0
VERTEX
  8
0
 62
7
  6
CONTINUOUS
 10
63.4573814655
 20
194.4925755321
  0
VERTEX
  8
0
 62
7
  6
CONTINUOUS
 10
63.474273037
 20
194.4771914892
  0
VERTEX
  8
0
 62
7
  6
CONTINUOUS
 10
63.5239172121
 20
194.4630504394
  0
VERTEX
  8
0
 62
7
  6
CONTINUOUS
 10
63.603118749
 20
194.4510422136
  0
VERTEX
  8
0
 62
7
  6
CONTINUOUS
 10
63.7066268566
 20
194.4419044717
  0
VERTEX
  8
0
 62
7
  6
CONTINUOUS
 10
63.8274586143
 20
194.43618998
  0
VERTEX
  8
0
 62
7
  6
CONTINUOUS
 10
63.9573814655
 20
194.4342444881
  0
SEQEND
  0
POLYLINE
  8
0
 62
7
  6
CONTINUOUS
 66
1
 70
0
  0
VERTEX
  8
0
 62
7
  6
CONTINUOUS
 10
67.6747894603
 20
192.8534256927
  0
VERTEX
  8
0
 62
7
  6
CONTINUOUS
 10
67.6775370551
 20
192.8489820427
  0
VERTEX
  8
0
 62
7
  6
CONTINUOUS
 10
67.6820391293
 20
192.8412376083
  0
VERTEX
  8
0
 62
7
  6
CONTINUOUS
 10
67.6865653916
 20
192.8330447577
  0
VERTEX
  8
0
 62
7
  6
CONTINUOUS
 10
67.6911484058
 20
192.8243950653
  0
VERTEX
  8
0
 62
7
  6
CONTINUOUS
 10
67.6957837223
 20
192.8153452884
  0
VERTEX
  8
0
 62
7
  6
CONTINUOUS
 10
67.7004817788
 20
192.8059216342
  0
VERTEX
  8
0
 62
7
  6
CONTINUOUS
 10
67.7053124321
 20
192.796024325
  0
VERTEX
  8
0
 62
7
  6
CONTINUOUS
 10
67.7103315334
 20
192.7855716542
  0
SEQEND
  0
LINE
  8
0
 62
7
  6
CONTINUOUS
 10
71.4105564655
 20
193.2299049861
 11
71.4105564655
 21
191.556304157
  0
LINE
  8
0
 62
7
  6
CONTINUOUS
 10
71.5873814655
 20
197.156304157
 11
71.5873814655
 21
197.056304157
  0
LINE
  8
0
 62
7
  6
CONTINUOUS
 10
72.0973814655
 20
197.156304157
 11
72.0973814655
 21
197.056304157
  0
LINE
  8
0
 62
7
  6
CONTINUOUS
 10
72.1448814655
 20
197.156304157
 11
72.1448814655
 21
197.056304157
  0
LINE
  8
0
 62
7
  6
CONTINUOUS
 10
72.2173814655
 20
197.156304157
 11
72.2173814655
 21
197.056304157
  0
LINE
  8
0
 62
7
  6
CONTINUOUS
 10
72.7273814655
 20
197.156304157
 11
72.7273814655
 21
197.056304157
  0
POLYLINE
  8
0
 62
7
  6
CONTINUOUS
 66
1
 70
0
  0
VERTEX
  8
0
 62
7
  6
CONTINUOUS
 10
70.7853170448
 20
191.556304157
  0
VERTEX
  8
0
 62
7
  6
CONTINUOUS
 10
70.7678526344
 20
191.4283369582
  0
VERTEX
  8
0
 62
7
  6
CONTINUOUS
 10
70.7182380031
 20
191.3087657582
  0
VERTEX
  8
0
 62
7
  6
CONTINUOUS
 10
70.6396674642
 20
191.2056004507
  0
VERTEX
  8
0
 62
7
  6
CONTINUOUS
 10
70.5372959842
 20
191.1258222778
  0
VERTEX
  8
0
 62
7
  6
CONTINUOUS
 10
70.4179224663
 20
191.0748906825
  0
SEQEND
  0
LINE
  8
0
 62
7
  6
CONTINUOUS
 10
70.1580756815
 20
191.4109913454
 11
70.3902635468
 21
192.193961004
  0
POLYLINE
  8
0
 62
7
  6
CONTINUOUS
 66
1
 70
0
  0
VERTEX
  8
0
 62
7
  6
CONTINUOUS
 10
70.3902698464
 20
192.1939821933
  0
VERTEX
  8
0
 62
7
  6
CONTINUOUS
 10
70.3924190883
 20
192.2009427731
  0
VERTEX
  8
0
 62
7
  6
CONTINUOUS
 10
70.3935946761
 20
192.2044321385
  0
SEQEND
  0
POLYLINE
  8
0
 62
7
  6
CONTINUOUS
 66
1
 70
0
  0
VERTEX
  8
0
 62
7
  6
CONTINUOUS
 10
70.1580752143
 20
191.41098977
  0
VERTEX
  8
0
 62
7
  6
CONTINUOUS
 10
70.1137805518
 20
191.3068840812
  0
VERTEX
  8
0
 62
7
  6
CONTINUOUS
 10
70.0353612612
 20
191.2032852454
  0
VERTEX
  8
0
 62
7
  6
CONTINUOUS
 10
69.9325818092
 20
191.1236250426
  0
VERTEX
  8
0
 62
7
  6
CONTINUOUS
 10
69.8123834584
 20
191.0734482519
  0
VERTEX
  8
0
 62
7
  6
CONTINUOUS
 10
69.6829454807
 20
191.056304157
  0
SEQEND
  0
LINE
  8
0
 62
7
  6
CONTINUOUS
 10
61.5056859137
 20
192.9198037028
 11
61.9439191286
 21
192.6999491064
  0
POLYLINE
  8
0
 62
7
  6
CONTINUOUS
 66
1
 70
0
  0
VERTEX
  8
0
 62
7
  6
CONTINUOUS
 10
61.5160911391
 20
192.9146035161
  0
VERTEX
  8
0
 62
7
  6
CONTINUOUS
 10
61.843110215
 20
192.7465481109
  0
VERTEX
  8
0
 62
7
  6
CONTINUOUS
 10
62.2246227626
 20
192.5701936171
  0
VERTEX
  8
0
 62
7
  6
CONTINUOUS
 10
62.6342266621
 20
192.4003110881
  0
SEQEND
  0
LINE
  8
0
 62
7
  6
CONTINUOUS
 10
69.3703104102
 20
191.1715785327
 11
69.3717117431
 21
191.1704924162
  0
LINE
  8
1_AXIS
 62
7
  6
CONTINUOUS
 10
73.5373814655
 20
197.156304157
 11
73.5373814655
 21
197.056304157
  0
LINE
  8
0
 62
7
  6
CONTINUOUS
 10
73.5373814655
 20
197.156304157
 11
73.5373814655
 21
197.056304157
  0
LINE
  8
0
 62
7
  6
CONTINUOUS
 10
74.3042064655
 20
193.2299049787
 11
74.3042064655
 21
191.556304157
  0
LINE
  8
1_AXIS
 62
7
  6
CONTINUOUS
 10
75.0673814655
 20
197.156304157
 11
75.0673814655
 21
197.056304157
  0
LINE
  8
0
 62
7
  6
CONTINUOUS
 10
75.0673814655
 20
197.156304157
 11
75.0673814655
 21
197.056304157
  0
LINE
  8
0
 62
7
  6
CONTINUOUS
 10
62.634777124
 20
192.4017747897
 11
63.1865653681
 21
192.1974772253
  0
POLYLINE
  8
0
 62
7
  6
CONTINUOUS
 66
1
 70
0
  0
VERTEX
  8
0
 62
7
  6
CONTINUOUS
 10
75.5566879389
 20
191.4109893996
  0
VERTEX
  8
0
 62
7
  6
CONTINUOUS
 10
75.6009823792
 20
191.3068840812
  0
VERTEX
  8
0
 62
7
  6
CONTINUOUS
 10
75.6794016698
 20
191.2032852454
  0
VERTEX
  8
0
 62
7
  6
CONTINUOUS
 10
75.7821811218
 20
191.1236250426
  0
VERTEX
  8
0
 62
7
  6
CONTINUOUS
 10
75.9023794726
 20
191.0734482519
  0
VERTEX
  8
0
 62
7
  6
CONTINUOUS
 10
76.0318174504
 20
191.056304157
  0
SEQEND
  0
LINE
  8
0
 62
7
  6
CONTINUOUS
 10
75.3215125471
 20
192.2035672972
 11
75.324493494
 21
192.1939808126
  0
LINE
  8
0
 62
7
  6
CONTINUOUS
 10
75.3244993842
 20
192.193961004
 11
75.5566872496
 21
191.4109913454
  0
POLYLINE
  8
0
 62
7
  6
CONTINUOUS
 66
1
 70
0
  0
VERTEX
  8
0
 62
7
  6
CONTINUOUS
 10
74.9294458862
 20
191.556304157
  0
VERTEX
  8
0
 62
7
  6
CONTINUOUS
 10
74.9469102966
 20
191.4283369582
  0
VERTEX
  8
0
 62
7
  6
CONTINUOUS
 10
74.9965249279
 20
191.3087657582
  0
VERTEX
  8
0
 62
7
  6
CONTINUOUS
 10
75.0750954668
 20
191.2056004507
  0
VERTEX
  8
0
 62
7
  6
CONTINUOUS
 10
75.1774669469
 20
191.1258222778
  0
VERTEX
  8
0
 62
7
  6
CONTINUOUS
 10
75.2968404648
 20
191.0748906825
  0
SEQEND
  0
POLYLINE
  8
0
 62
7
  6
CONTINUOUS
 66
1
 70
0
  0
VERTEX
  8
0
 62
7
  6
CONTINUOUS
 10
75.5361073549
 20
191.556304157
  0
VERTEX
  8
0
 62
7
  6
CONTINUOUS
 10
75.552153437
 20
191.4272912493
  0
VERTEX
  8
0
 62
7
  6
CONTINUOUS
 10
75.5566879389
 20
191.4109893996
  0
SEQEND
  0
LINE
  8
0
 62
7
  6
CONTINUOUS
 10
76.1573814655
 20
191.556304157
 11
76.1573814655
 21
199.056304157
  0
LINE
  8
0
 62
7
  6
CONTINUOUS
 10
74.2347307369
 20
197.056304157
 11
73.8347307369
 21
196.656304157
  0
POLYLINE
  8
0
 62
7
  6
CONTINUOUS
 66
1
 70
0
  0
VERTEX
  8
0
 62
7
  6
CONTINUOUS
 10
69.5573814655
 20
194.4925755321
  0
VERTEX
  8
0
 62
7
  6
CONTINUOUS
 10
69.5404898941
 20
194.4771914892
  0
VERTEX
  8
0
 62
7
  6
CONTINUOUS
 10
69.4908457189
 20
194.4630504394
  0
VERTEX
  8
0
 62
7
  6
CONTINUOUS
 10
69.4116441821
 20
194.4510422136
  0
VERTEX
  8
0
 62
7
  6
CONTINUOUS
 10
69.3081360745
 20
194.4419044717
  0
VERTEX
  8
0
 62
7
  6
CONTINUOUS
 10
69.1873043167
 20
194.43618998
  0
VERTEX
  8
0
 62
7
  6
CONTINUOUS
 10
69.0573814655
 20
194.4342444881
  0
SEQEND
  0
POLYLINE
  8
0
 62
7
  6
CONTINUOUS
 66
1
 70
0
  0
VERTEX
  8
0
 62
7
  6
CONTINUOUS
 10
63.1865656941
 20
192.1974820619
  0
VERTEX
  8
0
 62
7
  6
CONTINUOUS
 10
63.1927344152
 20
192.1959582545
  0
VERTEX
  8
0
 62
7
  6
CONTINUOUS
 10
63.2035264526
 20
192.1989634279
  0
VERTEX
  8
0
 62
7
  6
CONTINUOUS
 10
63.2073814655
 20
192.2123493239
  0
SEQEND
  0
POLYLINE
  8
0
 62
7
  6
CONTINUOUS
 66
1
 70
0
  0
VERTEX
  8
0
 62
7
  6
CONTINUOUS
 10
62.6342341479
 20
192.4003082632
  0
VERTEX
  8
0
 62
7
  6
CONTINUOUS
 10
62.6785306032
 20
192.3855687144
  0
VERTEX
  8
0
 62
7
  6
CONTINUOUS
 10
62.7916985723
 20
192.3712165801
  0
VERTEX
  8
0
 62
7
  6
CONTINUOUS
 10
62.8989426883
 20
192.3889282948
  0
VERTEX
  8
0
 62
7
  6
CONTINUOUS
 10
62.9974161623
 20
192.4371154319
  0
VERTEX
  8
0
 62
7
  6
CONTINUOUS
 10
63.0423717143
 20
192.4728153111
  0
VERTEX
  8
0
 62
7
  6
CONTINUOUS
 10
63.1208575642
 20
192.5689646171
  0
VERTEX
  8
0
 62
7
  6
CONTINUOUS
 10
63.1771022828
 20
192.6963218081
  0
VERTEX
  8
0
 62
7
  6
CONTINUOUS
 10
63.2047290822
 20
192.8469633307
  0
VERTEX
  8
0
 62
7
  6
CONTINUOUS
 10
63.2073824298
 20
192.9152365464
  0
SEQEND
  0
POLYLINE
  8
0
 62
7
  6
CONTINUOUS
 66
1
 70
0
  0
VERTEX
  8
0
 62
7
  6
CONTINUOUS
 10
67.8660911453
 20
192.9146035139
  0
VERTEX
  8
0
 62
7
  6
CONTINUOUS
 10
68.1931105576
 20
192.746548046
  0
VERTEX
  8
0
 62
7
  6
CONTINUOUS
 10
68.5746229632
 20
192.5701937892
  0
VERTEX
  8
0
 62
7
  6
CONTINUOUS
 10
68.9842266183
 20
192.400311005
  0
SEQEND
  0
POLYLINE
  8
0
 62
7
  6
CONTINUOUS
 66
1
 70
0
  0
VERTEX
  8
0
 62
7
  6
CONTINUOUS
 10
69.5573814655
 20
196.3200327819
  0
VERTEX
  8
0
 62
7
  6
CONTINUOUS
 10
69.5404898941
 20
196.3354168249
  0
VERTEX
  8
0
 62
7
  6
CONTINUOUS
 10
69.4908457189
 20
196.3495578746
  0
VERTEX
  8
0
 62
7
  6
CONTINUOUS
 10
69.4116441821
 20
196.3615661004
  0
VERTEX
  8
0
 62
7
  6
CONTINUOUS
 10
69.3081360745
 20
196.3707038424
  0
VERTEX
  8
0
 62
7
  6
CONTINUOUS
 10
69.1873043167
 20
196.376418334
  0
VERTEX
  8
0
 62
7
  6
CONTINUOUS
 10
69.0573814655
 20
196.378363826
  0
SEQEND
  0
LINE
  8
0
 62
7
  6
CONTINUOUS
 10
71.8800321941
 20
196.656304157
 11
71.4905806491
 21
197.0457557021
  0
POLYLINE
  8
0
 62
7
  6
CONTINUOUS
 66
1
 70
0
  0
VERTEX
  8
0
 62
7
  6
CONTINUOUS
 10
76.1573814655
 20
196.3200327819
  0
VERTEX
  8
0
 62
7
  6
CONTINUOUS
 10
76.174273037
 20
196.3354168249
  0
VERTEX
  8
0
 62
7
  6
CONTINUOUS
 10
76.2239172121
 20
196.3495578746
  0
VERTEX
  8
0
 62
7
  6
CONTINUOUS
 10
76.303118749
 20
196.3615661004
  0
VERTEX
  8
0
 62
7
  6
CONTINUOUS
 10
76.4066268566
 20
196.3707038424
  0
VERTEX
  8
0
 62
7
  6
CONTINUOUS
 10
76.5274586143
 20
196.376418334
  0
VERTEX
  8
0
 62
7
  6
CONTINUOUS
 10
76.6573814655
 20
196.378363826
  0
SEQEND
  0
POLYLINE
  8
0
 62
7
  6
CONTINUOUS
 66
1
 70
0
  0
VERTEX
  8
0
 62
7
  6
CONTINUOUS
 10
68.984234188
 20
192.4003082822
  0
VERTEX
  8
0
 62
7
  6
CONTINUOUS
 10
69.0285191627
 20
192.3855717815
  0
VERTEX
  8
0
 62
7
  6
CONTINUOUS
 10
69.1417299362
 20
192.3712174785
  0
VERTEX
  8
0
 62
7
  6
CONTINUOUS
 10
69.2490203618
 20
192.3889528875
  0
VERTEX
  8
0
 62
7
  6
CONTINUOUS
 10
69.3474886411
 20
192.4371648958
  0
VERTEX
  8
0
 62
7
  6
CONTINUOUS
 10
69.3924302603
 20
192.4728691594
  0
VERTEX
  8
0
 62
7
  6
CONTINUOUS
 10
69.4708887508
 20
192.5690155939
  0
VERTEX
  8
0
 62
7
  6
CONTINUOUS
 10
69.5271142285
 20
192.6963611492
  0
VERTEX
  8
0
 62
7
  6
CONTINUOUS
 10
69.5547303882
 20
192.8469797813
  0
VERTEX
  8
0
 62
7
  6
CONTINUOUS
 10
69.5573824229
 20
192.9152379372
  0
SEQEND
  0
POLYLINE
  8
0
 62
7
  6
CONTINUOUS
 66
1
 70
0
  0
VERTEX
  8
0
 62
7
  6
CONTINUOUS
 10
76.1573814655
 20
194.4925755321
  0
VERTEX
  8
0
 62
7
  6
CONTINUOUS
 10
76.174273037
 20
194.4771914892
  0
VERTEX
  8
0
 62
7
  6
CONTINUOUS
 10
76.2239172121
 20
194.4630504394
  0
VERTEX
  8
0
 62
7
  6
CONTINUOUS
 10
76.303118749
 20
194.4510422136
  0
VERTEX
  8
0
 62
7
  6
CONTINUOUS
 10
76.4066268566
 20
194.4419044717
  0
VERTEX
  8
0
 62
7
  6
CONTINUOUS
 10
76.5274586143
 20
194.43618998
  0
VERTEX
  8
0
 62
7
  6
CONTINUOUS
 10
76.6573814655
 20
194.4342444881
  0
SEQEND
  0
LINE
  8
0
 62
7
  6
CONTINUOUS
 10
95.8179224663
 20
191.0748906825
 11
95.689534846
 21
191.0563469264
  0
LINE
  8
0
 62
7
  6
CONTINUOUS
 10
108.4370537854
 20
192.3858429579
 11
108.4373863057
 21
192.3858860486
  0
LINE
  8
0
 62
7
  6
CONTINUOUS
 10
95.6829948634
 20
191.056304157
 11
95.689534846
 21
191.0563469264
  0
LINE
  8
0
 62
7
  6
CONTINUOUS
 10
70.2829948634
 20
191.056304157
 11
70.289534846
 21
191.0563469264
  0
LINE
  8
0
 62
7
  6
CONTINUOUS
 10
102.055400776
 20
191.056304157
 11
101.4318174504
 21
191.056304157
  0
LINE
  8
0
 62
7
  6
CONTINUOUS
 10
95.0829454807
 20
191.056304157
 11
94.4593621551
 21
191.056304157
  0
LINE
  8
0
 62
7
  6
CONTINUOUS
 10
69.6829454807
 20
191.056304157
 11
69.0593621551
 21
191.056304157
  0
LINE
  8
0
 62
7
  6
CONTINUOUS
 10
63.9573814655
 20
191.056304157
 11
67.3573814655
 21
191.056304157
  0
LINE
  8
0
 62
7
  6
CONTINUOUS
 10
68.4542064655
 20
191.056304157
 11
69.0573814655
 21
191.056304157
  0
LINE
  8
0
 62
7
  6
CONTINUOUS
 10
69.6883571497
 20
191.056304157
 11
70.2829948634
 21
191.056304157
  0
LINE
  8
0
 62
7
  6
CONTINUOUS
 10
70.289534846
 20
191.056304157
 11
75.425228085
 21
191.056304157
  0
LINE
  8
0
 62
7
  6
CONTINUOUS
 10
75.4317680676
 20
191.056304157
 11
76.0264057814
 21
191.056304157
  0
LINE
  8
0
 62
7
  6
CONTINUOUS
 10
76.0318174504
 20
191.056304157
 11
76.655400776
 21
191.056304157
  0
LINE
  8
0
 62
7
  6
CONTINUOUS
 10
76.6573814655
 20
191.056304157
 11
81.7573814655
 21
191.056304157
  0
LINE
  8
0
 62
7
  6
CONTINUOUS
 10
83.0073814655
 20
191.056304157
 11
88.1073814655
 21
191.056304157
  0
LINE
  8
0
 62
7
  6
CONTINUOUS
 10
89.3573814655
 20
191.056304157
 11
94.4573814655
 21
191.056304157
  0
LINE
  8
0
 62
7
  6
CONTINUOUS
 10
95.0883571497
 20
191.056304157
 11
95.6829948634
 21
191.056304157
  0
LINE
  8
0
 62
7
  6
CONTINUOUS
 10
95.689534846
 20
191.056304157
 11
100.825228085
 21
191.056304157
  0
LINE
  8
0
 62
7
  6
CONTINUOUS
 10
100.8317680676
 20
191.056304157
 11
101.4264057814
 21
191.056304157
  0
LINE
  8
0
 62
7
  6
CONTINUOUS
 10
102.0573814655
 20
191.056304157
 11
102.6605564655
 21
191.056304157
  0
LINE
  8
0
 62
7
  6
CONTINUOUS
 10
103.7573814655
 20
191.056304157
 11
107.1573814655
 21
191.056304157
  0
LINE
  8
0
 62
7
  6
CONTINUOUS
 10
110.1073814655
 20
191.056304157
 11
116.5573814655
 21
191.056304157
  0
LINE
  8
0
 62
7
  6
CONTINUOUS
 10
54.5573814655
 20
191.056304157
 11
61.0073814655
 21
191.056304157
  0
LINE
  8
0
 62
7
  6
CONTINUOUS
 10
75.425228085
 20
191.0563469264
 11
75.4317680676
 21
191.056304157
  0
LINE
  8
0
 62
7
  6
CONTINUOUS
 10
100.825228085
 20
191.0563469264
 11
100.8317680676
 21
191.056304157
  0
LINE
  8
0
 62
7
  6
CONTINUOUS
 10
75.2968404648
 20
191.0748906825
 11
75.425228085
 21
191.0563469264
  0
LINE
  8
0
 62
7
  6
CONTINUOUS
 10
82.2573814655
 20
191.556307132
 11
82.2573814655
 21
199.056304157
  0
LINE
  8
0
 62
7
  6
CONTINUOUS
 10
82.5073814655
 20
191.5563071324
 11
82.5073814655
 21
196.9805958675
  0
POLYLINE
  8
0
 62
7
  6
CONTINUOUS
 66
1
 70
0
  0
VERTEX
  8
0
 62
7
  6
CONTINUOUS
 10
82.2573814655
 20
196.9805958675
  0
VERTEX
  8
0
 62
7
  6
CONTINUOUS
 10
82.2654236765
 20
197.0342600352
  0
VERTEX
  8
0
 62
7
  6
CONTINUOUS
 10
82.2933777178
 20
197.0889787749
  0
VERTEX
  8
0
 62
7
  6
CONTINUOUS
 10
82.3158114787
 20
197.1125317286
  0
VERTEX
  8
0
 62
7
  6
CONTINUOUS
 10
82.3749300809
 20
197.1451301224
  0
VERTEX
  8
0
 62
7
  6
CONTINUOUS
 10
82.4502804071
 20
197.156304157
  0
SEQEND
  0
LINE
  8
0
 62
7
  6
CONTINUOUS
 10
70.4179224663
 20
191.0748906825
 11
70.289534846
 21
191.0563469264
  0
LINE
  8
0
 62
7
  6
CONTINUOUS
 10
117.2573814655
 20
192.656304157
 11
117.0573814655
 21
192.656304157
  0
LINE
  8
0
 62
7
  6
CONTINUOUS
 10
54.0573814655
 20
192.656304157
 11
53.8573814655
 21
192.656304157
  0
LINE
  8
0
 62
7
  6
CONTINUOUS
 10
100.6968404648
 20
191.0748906825
 11
100.825228085
 21
191.0563469264
  0
POLYLINE
  8
0
 62
7
  6
CONTINUOUS
 66
1
 70
0
  0
VERTEX
  8
0
 62
7
  6
CONTINUOUS
 10
82.5073814655
 20
196.9805958675
  0
VERTEX
  8
0
 62
7
  6
CONTINUOUS
 10
82.4993372648
 20
197.0342665803
  0
VERTEX
  8
0
 62
7
  6
CONTINUOUS
 10
82.4713809305
 20
197.0889843127
  0
VERTEX
  8
0
 62
7
  6
CONTINUOUS
 10
82.4489502862
 20
197.1125327244
  0
VERTEX
  8
0
 62
7
  6
CONTINUOUS
 10
82.3898274678
 20
197.1451318815
  0
VERTEX
  8
0
 62
7
  6
CONTINUOUS
 10
82.3823843856
 20
197.1462355543
  0
SEQEND
  0
LINE
  8
1_AXIS
 62
2
  6
CENTER
 10
85.5573814655
 20
188.5563035798
 11
85.5573814655
 21
201.5563065208
  0
POLYLINE
  8
0
 62
7
  6
CONTINUOUS
 66
1
 70
0
  0
VERTEX
  8
0
 62
7
  6
CONTINUOUS
 10
82.2573814655
 20
194.4925755321
  0
VERTEX
  8
0
 62
7
  6
CONTINUOUS
 10
82.2404898941
 20
194.4771914892
  0
VERTEX
  8
0
 62
7
  6
CONTINUOUS
 10
82.1908457189
 20
194.4630504394
  0
VERTEX
  8
0
 62
7
  6
CONTINUOUS
 10
82.1116441821
 20
194.4510422136
  0
VERTEX
  8
0
 62
7
  6
CONTINUOUS
 10
82.0081360745
 20
194.4419044717
  0
VERTEX
  8
0
 62
7
  6
CONTINUOUS
 10
81.8873043167
 20
194.43618998
  0
VERTEX
  8
0
 62
7
  6
CONTINUOUS
 10
81.7573814655
 20
194.4342444881
  0
SEQEND
  0
POLYLINE
  8
0
 62
7
  6
CONTINUOUS
 66
1
 70
0
  0
VERTEX
  8
0
 62
7
  6
CONTINUOUS
 10
116.5573814655
 20
194.4342444881
  0
VERTEX
  8
0
 62
7
  6
CONTINUOUS
 10
116.6873043167
 20
194.43618998
  0
VERTEX
  8
0
 62
7
  6
CONTINUOUS
 10
116.8081360745
 20
194.4419044717
  0
VERTEX
  8
0
 62
7
  6
CONTINUOUS
 10
116.9116441821
 20
194.4510422136
  0
VERTEX
  8
0
 62
7
  6
CONTINUOUS
 10
116.9908457189
 20
194.4630504394
  0
VERTEX
  8
0
 62
7
  6
CONTINUOUS
 10
117.0404898941
 20
194.4771914892
  0
VERTEX
  8
0
 62
7
  6
CONTINUOUS
 10
117.0573814655
 20
194.4925755321
  0
SEQEND
  0
LINE
  8
0
 62
7
  6
CONTINUOUS
 10
54.5573814655
 20
194.4342444881
 11
56.3573814655
 21
194.4342444881
  0
LINE
  8
0
 62
7
  6
CONTINUOUS
 10
63.9573814655
 20
194.4342444881
 11
69.0573814655
 21
194.4342444881
  0
LINE
  8
0
 62
7
  6
CONTINUOUS
 10
76.6573814655
 20
194.4342444881
 11
81.7573814655
 21
194.4342444881
  0
LINE
  8
0
 62
7
  6
CONTINUOUS
 10
89.3573814655
 20
194.4342444881
 11
94.4573814655
 21
194.4342444881
  0
LINE
  8
0
 62
7
  6
CONTINUOUS
 10
102.0573814655
 20
194.4342444881
 11
107.1573814655
 21
194.4342444881
  0
LINE
  8
0
 62
7
  6
CONTINUOUS
 10
114.7573814655
 20
194.4342444881
 11
116.5573814655
 21
194.4342444881
  0
LINE
  8
1_AXIS
 62
2
  6
CENTER
 10
52.0821744966
 20
195.406304157
 11
124.7973422819
 21
195.406304157
  0
POLYLINE
  8
0
 62
7
  6
CONTINUOUS
 66
1
 70
0
  0
VERTEX
  8
0
 62
7
  6
CONTINUOUS
 10
54.5573814655
 20
194.4342444881
  0
VERTEX
  8
0
 62
7
  6
CONTINUOUS
 10
54.4274586143
 20
194.43618998
  0
VERTEX
  8
0
 62
7
  6
CONTINUOUS
 10
54.3066268566
 20
194.4419044717
  0
VERTEX
  8
0
 62
7
  6
CONTINUOUS
 10
54.203118749
 20
194.4510422136
  0
VERTEX
  8
0
 62
7
  6
CONTINUOUS
 10
54.1239172121
 20
194.4630504394
  0
VERTEX
  8
0
 62
7
  6
CONTINUOUS
 10
54.074273037
 20
194.4771914892
  0
VERTEX
  8
0
 62
7
  6
CONTINUOUS
 10
54.0573814655
 20
194.4925755321
  0
SEQEND
  0
POLYLINE
  8
0
 62
7
  6
CONTINUOUS
 66
1
 70
0
  0
VERTEX
  8
0
 62
7
  6
CONTINUOUS
 10
63.2644825239
 20
197.156304157
  0
VERTEX
  8
0
 62
7
  6
CONTINUOUS
 10
63.3396719001
 20
197.1451826548
  0
VERTEX
  8
0
 62
7
  6
CONTINUOUS
 10
63.3987020982
 20
197.1127442236
  0
VERTEX
  8
0
 62
7
  6
CONTINUOUS
 10
63.4211660057
 20
197.0892615825
  0
VERTEX
  8
0
 62
7
  6
CONTINUOUS
 10
63.449249404
 20
197.034554721
  0
VERTEX
  8
0
 62
7
  6
CONTINUOUS
 10
63.4573814655
 20
196.9805958675
  0
SEQEND
  0
POLYLINE
  8
0
 62
7
  6
CONTINUOUS
 66
1
 70
0
  0
VERTEX
  8
0
 62
7
  6
CONTINUOUS
 10
82.2573814655
 20
196.3200327819
  0
VERTEX
  8
0
 62
7
  6
CONTINUOUS
 10
82.2404898941
 20
196.3354168249
  0
VERTEX
  8
0
 62
7
  6
CONTINUOUS
 10
82.1908457189
 20
196.3495578746
  0
VERTEX
  8
0
 62
7
  6
CONTINUOUS
 10
82.1116441821
 20
196.3615661004
  0
VERTEX
  8
0
 62
7
  6
CONTINUOUS
 10
82.0081360745
 20
196.3707038424
  0
VERTEX
  8
0
 62
7
  6
CONTINUOUS
 10
81.8873043167
 20
196.376418334
  0
VERTEX
  8
0
 62
7
  6
CONTINUOUS
 10
81.7573814655
 20
196.378363826
  0
SEQEND
  0
POLYLINE
  8
0
 62
7
  6
CONTINUOUS
 66
1
 70
0
  0
VERTEX
  8
0
 62
7
  6
CONTINUOUS
 10
88.8573814655
 20
196.3200327819
  0
VERTEX
  8
0
 62
7
  6
CONTINUOUS
 10
88.874273037
 20
196.3354168249
  0
VERTEX
  8
0
 62
7
  6
CONTINUOUS
 10
88.9239172121
 20
196.3495578746
  0
VERTEX
  8
0
 62
7
  6
CONTINUOUS
 10
89.003118749
 20
196.3615661004
  0
VERTEX
  8
0
 62
7
  6
CONTINUOUS
 10
89.1066268566
 20
196.3707038424
  0
VERTEX
  8
0
 62
7
  6
CONTINUOUS
 10
89.2274586143
 20
196.376418334
  0
VERTEX
  8
0
 62
7
  6
CONTINUOUS
 10
89.3573814655
 20
196.378363826
  0
SEQEND
  0
POLYLINE
  8
0
 62
7
  6
CONTINUOUS
 66
1
 70
0
  0
VERTEX
  8
0
 62
7
  6
CONTINUOUS
 10
88.7323788367
 20
197.1462613952
  0
VERTEX
  8
0
 62
7
  6
CONTINUOUS
 10
88.7250958687
 20
197.1451842315
  0
VERTEX
  8
0
 62
7
  6
CONTINUOUS
 10
88.6660741962
 20
197.1127555866
  0
VERTEX
  8
0
 62
7
  6
CONTINUOUS
 10
88.643607172
 20
197.0892747702
  0
VERTEX
  8
0
 62
7
  6
CONTINUOUS
 10
88.6155171365
 20
197.0345665222
  0
VERTEX
  8
0
 62
7
  6
CONTINUOUS
 10
88.6073814655
 20
196.9805958675
  0
SEQEND
  0
POLYLINE
  8
0
 62
7
  6
CONTINUOUS
 66
1
 70
0
  0
VERTEX
  8
0
 62
7
  6
CONTINUOUS
 10
54.5573814655
 20
196.378363826
  0
VERTEX
  8
0
 62
7
  6
CONTINUOUS
 10
54.4274586143
 20
196.376418334
  0
VERTEX
  8
0
 62
7
  6
CONTINUOUS
 10
54.3066268566
 20
196.3707038424
  0
VERTEX
  8
0
 62
7
  6
CONTINUOUS
 10
54.203118749
 20
196.3615661004
  0
VERTEX
  8
0
 62
7
  6
CONTINUOUS
 10
54.1239172121
 20
196.3495578746
  0
VERTEX
  8
0
 62
7
  6
CONTINUOUS
 10
54.074273037
 20
196.3354168249
  0
VERTEX
  8
0
 62
7
  6
CONTINUOUS
 10
54.0573814655
 20
196.3200327819
  0
SEQEND
  0
LINE
  8
0
 62
7
  6
CONTINUOUS
 10
54.5573814655
 20
196.378363826
 11
56.3573814655
 21
196.378363826
  0
LINE
  8
0
 62
7
  6
CONTINUOUS
 10
63.9573814655
 20
196.378363826
 11
69.0573814655
 21
196.378363826
  0
LINE
  8
0
 62
7
  6
CONTINUOUS
 10
76.6573814655
 20
196.378363826
 11
81.7573814655
 21
196.378363826
  0
LINE
  8
0
 62
7
  6
CONTINUOUS
 10
89.3573814655
 20
196.378363826
 11
94.4573814655
 21
196.378363826
  0
LINE
  8
0
 62
7
  6
CONTINUOUS
 10
102.0573814655
 20
196.378363826
 11
107.1573814655
 21
196.378363826
  0
LINE
  8
0
 62
7
  6
CONTINUOUS
 10
114.7573814655
 20
196.378363826
 11
116.5573814655
 21
196.378363826
  0
LINE
  8
2_FEATURE
 62
7
  6
CONTINUOUS
 10
99.9206650334
 20
197.056304157
 11
99.8761312986
 21
197.056304157
  0
LINE
  8
2_FEATURE
 62
7
  6
CONTINUOUS
 10
99.5261316324
 20
197.056304157
 11
97.8323814655
 21
197.056304157
  0
LINE
  8
2_FEATURE
 62
7
  6
CONTINUOUS
 10
97.6011314655
 20
197.056304157
 11
95.907381549
 21
197.056304157
  0
LINE
  8
2_FEATURE
 62
7
  6
CONTINUOUS
 10
95.5573813821
 20
197.056304157
 11
95.0257954991
 21
197.056304157
  0
LINE
  8
2_FEATURE
 62
7
  6
CONTINUOUS
 10
72.2173814655
 20
197.056304157
 11
72.1448814655
 21
197.056304157
  0
LINE
  8
1_AXIS
 62
7
  6
CONTINUOUS
 10
75.0673814655
 20
197.056304157
 11
72.2173814655
 21
197.056304157
  0
LINE
  8
1_AXIS
 62
7
  6
CONTINUOUS
 10
72.0973814655
 20
197.056304157
 11
70.3873814655
 21
197.056304157
  0
LINE
  8
0
 62
7
  6
CONTINUOUS
 10
57.0502804071
 20
197.156304157
 11
63.2644825239
 21
197.156304157
  0
LINE
  8
0
 62
7
  6
CONTINUOUS
 10
69.5573814655
 20
197.156304157
 11
76.1573814655
 21
197.156304157
  0
LINE
  8
0
 62
7
  6
CONTINUOUS
 10
82.4502804071
 20
197.156304157
 11
88.6644825239
 21
197.156304157
  0
LINE
  8
0
 62
7
  6
CONTINUOUS
 10
94.9573814655
 20
197.156304157
 11
101.5573814655
 21
197.156304157
  0
LINE
  8
0
 62
7
  6
CONTINUOUS
 10
107.8502804071
 20
197.156304157
 11
114.0644825239
 21
197.156304157
  0
POLYLINE
  8
0
 62
7
  6
CONTINUOUS
 66
1
 70
0
  0
VERTEX
  8
0
 62
7
  6
CONTINUOUS
 10
116.5573814655
 20
196.378363826
  0
VERTEX
  8
0
 62
7
  6
CONTINUOUS
 10
116.6873043167
 20
196.376418334
  0
VERTEX
  8
0
 62
7
  6
CONTINUOUS
 10
116.8081360745
 20
196.3707038424
  0
VERTEX
  8
0
 62
7
  6
CONTINUOUS
 10
116.9116441821
 20
196.3615661004
  0
VERTEX
  8
0
 62
7
  6
CONTINUOUS
 10
116.9908457189
 20
196.3495578746
  0
VERTEX
  8
0
 62
7
  6
CONTINUOUS
 10
117.0404898941
 20
196.3354168249
  0
VERTEX
  8
0
 62
7
  6
CONTINUOUS
 10
117.0573814655
 20
196.3200327819
  0
SEQEND
  0
POLYLINE
  8
0
 62
7
  6
CONTINUOUS
 66
1
 70
0
  0
VERTEX
  8
0
 62
7
  6
CONTINUOUS
 10
88.6644825239
 20
197.156304157
  0
VERTEX
  8
0
 62
7
  6
CONTINUOUS
 10
88.7396719001
 20
197.1451826548
  0
VERTEX
  8
0
 62
7
  6
CONTINUOUS
 10
88.7987020982
 20
197.1127442236
  0
VERTEX
  8
0
 62
7
  6
CONTINUOUS
 10
88.8211660057
 20
197.0892615825
  0
VERTEX
  8
0
 62
7
  6
CONTINUOUS
 10
88.849249404
 20
197.034554721
  0
VERTEX
  8
0
 62
7
  6
CONTINUOUS
 10
88.8573814655
 20
196.9805958675
  0
SEQEND
  0
POLYLINE
  8
0
 62
7
  6
CONTINUOUS
 66
1
 70
0
  0
VERTEX
  8
0
 62
7
  6
CONTINUOUS
 10
88.8573814655
 20
194.4925755321
  0
VERTEX
  8
0
 62
7
  6
CONTINUOUS
 10
88.874273037
 20
194.4771914892
  0
VERTEX
  8
0
 62
7
  6
CONTINUOUS
 10
88.9239172121
 20
194.4630504394
  0
VERTEX
  8
0
 62
7
  6
CONTINUOUS
 10
89.003118749
 20
194.4510422136
  0
VERTEX
  8
0
 62
7
  6
CONTINUOUS
 10
89.1066268566
 20
194.4419044717
  0
VERTEX
  8
0
 62
7
  6
CONTINUOUS
 10
89.2274586143
 20
194.43618998
  0
VERTEX
  8
0
 62
7
  6
CONTINUOUS
 10
89.3573814655
 20
194.4342444881
  0
SEQEND
  0
LINE
  8
0
 62
7
  6
CONTINUOUS
 10
88.6073814655
 20
196.9805958675
 11
88.6073814655
 21
191.5563071225
  0
LINE
  8
0
 62
7
  6
CONTINUOUS
 10
88.8573814655
 20
191.556307122
 11
88.8573814655
 21
199.056304157
  0
LINE
  8
0
 62
7
  6
CONTINUOUS
 10
54.5573814655
 20
199.556304157
 11
116.5573814655
 21
199.556304157
  0
POLYLINE
  8
0
 62
7
  6
CONTINUOUS
 66
1
 70
0
  0
VERTEX
  8
0
 62
7
  6
CONTINUOUS
 10
63.3323788367
 20
197.1462613952
  0
VERTEX
  8
0
 62
7
  6
CONTINUOUS
 10
63.3250958687
 20
197.1451842315
  0
VERTEX
  8
0
 62
7
  6
CONTINUOUS
 10
63.2660741962
 20
197.1127555866
  0
VERTEX
  8
0
 62
7
  6
CONTINUOUS
 10
63.243607172
 20
197.0892747702
  0
VERTEX
  8
0
 62
7
  6
CONTINUOUS
 10
63.2155171365
 20
197.0345665222
  0
VERTEX
  8
0
 62
7
  6
CONTINUOUS
 10
63.2073814655
 20
196.9805958675
  0
SEQEND
  0
POLYLINE
  8
0
 62
7
  6
CONTINUOUS
 66
1
 70
0
  0
VERTEX
  8
0
 62
7
  6
CONTINUOUS
 10
114.0644825239
 20
197.156304157
  0
VERTEX
  8
0
 62
7
  6
CONTINUOUS
 10
114.1396719001
 20
197.1451826548
  0
VERTEX
  8
0
 62
7
  6
CONTINUOUS
 10
114.1987020982
 20
197.1127442236
  0
VERTEX
  8
0
 62
7
  6
CONTINUOUS
 10
114.2211660057
 20
197.0892615825
  0
VERTEX
  8
0
 62
7
  6
CONTINUOUS
 10
114.249249404
 20
197.034554721
  0
VERTEX
  8
0
 62
7
  6
CONTINUOUS
 10
114.2573814655
 20
196.9805958675
  0
SEQEND
  0
LINE
  8
0
 62
7
  6
CONTINUOUS
 10
99.7337403921
 20
197.1553138122
 11
99.2347307369
 21
196.656304157
  0
POLYLINE
  8
0
 62
7
  6
CONTINUOUS
 66
1
 70
0
  0
VERTEX
  8
0
 62
7
  6
CONTINUOUS
 10
94.9573814655
 20
194.4925755321
  0
VERTEX
  8
0
 62
7
  6
CONTINUOUS
 10
94.9404898941
 20
194.4771914892
  0
VERTEX
  8
0
 62
7
  6
CONTINUOUS
 10
94.8908457189
 20
194.4630504394
  0
VERTEX
  8
0
 62
7
  6
CONTINUOUS
 10
94.8116441821
 20
194.4510422136
  0
VERTEX
  8
0
 62
7
  6
CONTINUOUS
 10
94.7081360745
 20
194.4419044717
  0
VERTEX
  8
0
 62
7
  6
CONTINUOUS
 10
94.5873043167
 20
194.43618998
  0
VERTEX
  8
0
 62
7
  6
CONTINUOUS
 10
94.4573814655
 20
194.4342444881
  0
SEQEND
  0
POLYLINE
  8
0
 62
7
  6
CONTINUOUS
 66
1
 70
0
  0
VERTEX
  8
0
 62
7
  6
CONTINUOUS
 10
94.9573814655
 20
196.3200327819
  0
VERTEX
  8
0
 62
7
  6
CONTINUOUS
 10
94.9404898941
 20
196.3354168249
  0
VERTEX
  8
0
 62
7
  6
CONTINUOUS
 10
94.8908457189
 20
196.3495578746
  0
VERTEX
  8
0
 62
7
  6
CONTINUOUS
 10
94.8116441821
 20
196.3615661004
  0
VERTEX
  8
0
 62
7
  6
CONTINUOUS
 10
94.7081360745
 20
196.3707038424
  0
VERTEX
  8
0
 62
7
  6
CONTINUOUS
 10
94.5873043167
 20
196.376418334
  0
VERTEX
  8
0
 62
7
  6
CONTINUOUS
 10
94.4573814655
 20
196.378363826
  0
SEQEND
  0
LINE
  8
0
 62
7
  6
CONTINUOUS
 10
94.9573814655
 20
191.556304157
 11
94.9573814655
 21
199.056304157
  0
LINE
  8
2_FEATURE
 62
7
  6
CONTINUOUS
 10
95.0257954991
 20
197.156304157
 11
95.0257954991
 21
197.056304157
  0
LINE
  8
2_FEATURE
 62
7
  6
CONTINUOUS
 10
95.1636313821
 20
197.156304157
 11
95.1636313821
 21
197.056304157
  0
LINE
  8
2_FEATURE
 62
7
  6
CONTINUOUS
 10
95.3386314655
 20
197.156304157
 11
95.3386314655
 21
197.056304157
  0
LINE
  8
0
 62
7
  6
CONTINUOUS
 10
95.513631549
 20
197.156304157
 11
95.513631549
 21
197.056304157
  0
LINE
  8
0
 62
7
  6
CONTINUOUS
 10
95.5573813821
 20
197.156304157
 11
95.5573813821
 21
197.056304157
  0
LINE
  8
2_FEATURE
 62
7
  6
CONTINUOUS
 10
95.907381549
 20
197.156304157
 11
95.907381549
 21
197.056304157
  0
POLYLINE
  8
0
 62
7
  6
CONTINUOUS
 66
1
 70
0
  0
VERTEX
  8
0
 62
7
  6
CONTINUOUS
 10
95.5786555762
 20
191.556304157
  0
VERTEX
  8
0
 62
7
  6
CONTINUOUS
 10
95.562609494
 20
191.4272912493
  0
VERTEX
  8
0
 62
7
  6
CONTINUOUS
 10
95.5580752143
 20
191.41098977
  0
SEQEND
  0
LINE
  8
0
 62
7
  6
CONTINUOUS
 10
95.5580756815
 20
191.4109913454
 11
95.7902635468
 21
192.193961004
  0
POLYLINE
  8
0
 62
7
  6
CONTINUOUS
 66
1
 70
0
  0
VERTEX
  8
0
 62
7
  6
CONTINUOUS
 10
95.7902698464
 20
192.1939821933
  0
VERTEX
  8
0
 62
7
  6
CONTINUOUS
 10
95.7924190883
 20
192.2009427731
  0
VERTEX
  8
0
 62
7
  6
CONTINUOUS
 10
95.7935946761
 20
192.2044321385
  0
SEQEND
  0
POLYLINE
  8
0
 62
7
  6
CONTINUOUS
 66
1
 70
0
  0
VERTEX
  8
0
 62
7
  6
CONTINUOUS
 10
95.5580752143
 20
191.41098977
  0
VERTEX
  8
0
 62
7
  6
CONTINUOUS
 10
95.5137805518
 20
191.3068840812
  0
VERTEX
  8
0
 62
7
  6
CONTINUOUS
 10
95.4353612612
 20
191.2032852454
  0
VERTEX
  8
0
 62
7
  6
CONTINUOUS
 10
95.3325818092
 20
191.1236250426
  0
VERTEX
  8
0
 62
7
  6
CONTINUOUS
 10
95.2123834584
 20
191.0734482519
  0
VERTEX
  8
0
 62
7
  6
CONTINUOUS
 10
95.0829454807
 20
191.056304157
  0
SEQEND
  0
POLYLINE
  8
0
 62
7
  6
CONTINUOUS
 66
1
 70
0
  0
VERTEX
  8
0
 62
7
  6
CONTINUOUS
 10
101.5573814655
 20
196.3200327819
  0
VERTEX
  8
0
 62
7
  6
CONTINUOUS
 10
101.574273037
 20
196.3354168249
  0
VERTEX
  8
0
 62
7
  6
CONTINUOUS
 10
101.6239172121
 20
196.3495578746
  0
VERTEX
  8
0
 62
7
  6
CONTINUOUS
 10
101.703118749
 20
196.3615661004
  0
VERTEX
  8
0
 62
7
  6
CONTINUOUS
 10
101.8066268566
 20
196.3707038424
  0
VERTEX
  8
0
 62
7
  6
CONTINUOUS
 10
101.9274586143
 20
196.376418334
  0
VERTEX
  8
0
 62
7
  6
CONTINUOUS
 10
102.0573814655
 20
196.378363826
  0
SEQEND
  0
POLYLINE
  8
0
 62
7
  6
CONTINUOUS
 66
1
 70
0
  0
VERTEX
  8
0
 62
7
  6
CONTINUOUS
 10
103.2486750305
 20
192.9146034802
  0
VERTEX
  8
0
 62
7
  6
CONTINUOUS
 10
103.2599153055
 20
192.9201843749
  0
VERTEX
  8
0
 62
7
  6
CONTINUOUS
 10
103.2770292247
 20
192.9266567404
  0
VERTEX
  8
0
 62
7
  6
CONTINUOUS
 10
103.2941241965
 20
192.9304498716
  0
VERTEX
  8
0
 62
7
  6
CONTINUOUS
 10
103.312821512
 20
192.931214858
  0
VERTEX
  8
0
 62
7
  6
CONTINUOUS
 10
103.3324067217
 20
192.928138607
  0
VERTEX
  8
0
 62
7
  6
CONTINUOUS
 10
103.3514826951
 20
192.9216541306
  0
VERTEX
  8
0
 62
7
  6
CONTINUOUS
 10
103.3697232178
 20
192.9125836975
  0
VERTEX
  8
0
 62
7
  6
CONTINUOUS
 10
103.387095544
 20
192.9015308337
  0
VERTEX
  8
0
 62
7
  6
CONTINUOUS
 10
103.4036671156
 20
192.8888604674
  0
VERTEX
  8
0
 62
7
  6
CONTINUOUS
 10
103.4196913966
 20
192.8746154572
  0
VERTEX
  8
0
 62
7
  6
CONTINUOUS
 10
103.4351668725
 20
192.8589292017
  0
VERTEX
  8
0
 62
7
  6
CONTINUOUS
 10
103.4501565745
 20
192.8417963537
  0
VERTEX
  8
0
 62
7
  6
CONTINUOUS
 10
103.4647250089
 20
192.8231260242
  0
VERTEX
  8
0
 62
7
  6
CONTINUOUS
 10
103.4788445732
 20
192.8028641947
  0
VERTEX
  8
0
 62
7
  6
CONTINUOUS
 10
103.4923379631
 20
192.7811400682
  0
VERTEX
  8
0
 62
7
  6
CONTINUOUS
 10
103.5050382387
 20
192.7580841306
  0
VERTEX
  8
0
 62
7
  6
CONTINUOUS
 10
103.5167559653
 20
192.7338912419
  0
VERTEX
  8
0
 62
7
  6
CONTINUOUS
 10
103.5273092286
 20
192.7087696836
  0
VERTEX
  8
0
 62
7
  6
CONTINUOUS
 10
103.5365332099
 20
192.6829286481
  0
VERTEX
  8
0
 62
7
  6
CONTINUOUS
 10
103.5442562103
 20
192.6566185603
  0
VERTEX
  8
0
 62
7
  6
CONTINUOUS
 10
103.550323464
 20
192.6301091054
  0
VERTEX
  8
0
 62
7
  6
CONTINUOUS
 10
103.5545839161
 20
192.6037352847
  0
VERTEX
  8
0
 62
7
  6
CONTINUOUS
 10
103.556928131
 20
192.5777816145
  0
VERTEX
  8
0
 62
7
  6
CONTINUOUS
 10
103.5573818392
 20
192.5608461852
  0
SEQEND
  0
POLYLINE
  8
0
 62
7
  6
CONTINUOUS
 66
1
 70
0
  0
VERTEX
  8
0
 62
7
  6
CONTINUOUS
 10
102.1305355955
 20
192.4003107281
  0
VERTEX
  8
0
 62
7
  6
CONTINUOUS
 10
102.5413008895
 20
192.5707021577
  0
VERTEX
  8
0
 62
7
  6
CONTINUOUS
 10
102.9227963533
 20
192.7471068093
  0
VERTEX
  8
0
 62
7
  6
CONTINUOUS
 10
103.248671979
 20
192.914603625
  0
SEQEND
  0
POLYLINE
  8
0
 62
7
  6
CONTINUOUS
 66
1
 70
0
  0
VERTEX
  8
0
 62
7
  6
CONTINUOUS
 10
101.5573814655
 20
194.4925755321
  0
VERTEX
  8
0
 62
7
  6
CONTINUOUS
 10
101.574273037
 20
194.4771914892
  0
VERTEX
  8
0
 62
7
  6
CONTINUOUS
 10
101.6239172121
 20
194.4630504394
  0
VERTEX
  8
0
 62
7
  6
CONTINUOUS
 10
101.703118749
 20
194.4510422136
  0
VERTEX
  8
0
 62
7
  6
CONTINUOUS
 10
101.8066268566
 20
194.4419044717
  0
VERTEX
  8
0
 62
7
  6
CONTINUOUS
 10
101.9274586143
 20
194.43618998
  0
VERTEX
  8
0
 62
7
  6
CONTINUOUS
 10
102.0573814655
 20
194.4342444881
  0
SEQEND
  0
LINE
  8
0
 62
7
  6
CONTINUOUS
 10
97.2800321941
 20
196.656304157
 11
96.8800321941
 21
197.056304157
  0
LINE
  8
0
 62
7
  6
CONTINUOUS
 10
96.8105564655
 20
191.556304157
 11
96.8105564655
 21
193.2299049824
  0
LINE
  8
2_FEATURE
 62
7
  6
CONTINUOUS
 10
97.3948816324
 20
197.156304157
 11
97.3948816324
 21
197.056304157
  0
LINE
  8
0
 62
7
  6
CONTINUOUS
 10
97.4823812986
 20
197.156304157
 11
97.4823812986
 21
197.056304157
  0
LINE
  8
0
 62
7
  6
CONTINUOUS
 10
97.6011314655
 20
197.156304157
 11
97.6011314655
 21
197.056304157
  0
LINE
  8
0
 62
7
  6
CONTINUOUS
 10
97.8323814655
 20
197.156304157
 11
97.8323814655
 21
197.056304157
  0
LINE
  8
0
 62
7
  6
CONTINUOUS
 10
97.8761312986
 20
197.156304157
 11
97.8761312986
 21
197.056304157
  0
LINE
  8
0
 62
7
  6
CONTINUOUS
 10
97.9198816324
 20
197.156304157
 11
97.9198816324
 21
197.056304157
  0
LINE
  8
0
 62
7
  6
CONTINUOUS
 10
98.0073812986
 20
197.156304157
 11
98.0073812986
 21
197.056304157
  0
LINE
  8
2_FEATURE
 62
7
  6
CONTINUOUS
 10
98.1386312986
 20
197.156304157
 11
98.1386312986
 21
197.056304157
  0
LINE
  8
2_FEATURE
 62
7
  6
CONTINUOUS
 10
98.3573814655
 20
197.156304157
 11
98.3573814655
 21
197.056304157
  0
LINE
  8
2_FEATURE
 62
7
  6
CONTINUOUS
 10
98.6198814655
 20
197.156304157
 11
98.6198814655
 21
197.056304157
  0
POLYLINE
  8
0
 62
7
  6
CONTINUOUS
 66
1
 70
0
  0
VERTEX
  8
0
 62
7
  6
CONTINUOUS
 10
96.1853170448
 20
191.556304157
  0
VERTEX
  8
0
 62
7
  6
CONTINUOUS
 10
96.1678526344
 20
191.4283369582
  0
VERTEX
  8
0
 62
7
  6
CONTINUOUS
 10
96.1182380031
 20
191.3087657582
  0
VERTEX
  8
0
 62
7
  6
CONTINUOUS
 10
96.0396674642
 20
191.2056004507
  0
VERTEX
  8
0
 62
7
  6
CONTINUOUS
 10
95.9372959842
 20
191.1258222778
  0
VERTEX
  8
0
 62
7
  6
CONTINUOUS
 10
95.8179224663
 20
191.0748906825
  0
SEQEND
  0
POLYLINE
  8
0
 62
7
  6
CONTINUOUS
 66
1
 70
0
  0
VERTEX
  8
0
 62
7
  6
CONTINUOUS
 10
109.5986749172
 20
192.9146032091
  0
VERTEX
  8
0
 62
7
  6
CONTINUOUS
 10
109.609319717
 20
192.9199146903
  0
VERTEX
  8
0
 62
7
  6
CONTINUOUS
 10
109.6264360268
 20
192.9264756029
  0
VERTEX
  8
0
 62
7
  6
CONTINUOUS
 10
109.6434290002
 20
192.9303519648
  0
VERTEX
  8
0
 62
7
  6
CONTINUOUS
 10
109.6620106117
 20
192.9312576603
  0
VERTEX
  8
0
 62
7
  6
CONTINUOUS
 10
109.6815821901
 20
192.9283442725
  0
VERTEX
  8
0
 62
7
  6
CONTINUOUS
 10
109.7006978991
 20
192.9219832036
  0
VERTEX
  8
0
 62
7
  6
CONTINUOUS
 10
109.7189821033
 20
192.913003763
  0
VERTEX
  8
0
 62
7
  6
CONTINUOUS
 10
109.7363988889
 20
192.902019048
  0
VERTEX
  8
0
 62
7
  6
CONTINUOUS
 10
109.753012856
 20
192.8893999118
  0
VERTEX
  8
0
 62
7
  6
CONTINUOUS
 10
109.7690580694
 20
192.8752159176
  0
VERTEX
  8
0
 62
7
  6
CONTINUOUS
 10
109.7845649042
 20
192.8595768263
  0
VERTEX
  8
0
 62
7
  6
CONTINUOUS
 10
109.7995849695
 20
192.8424863914
  0
VERTEX
  8
0
 62
7
  6
CONTINUOUS
 10
109.8141973148
 20
192.823840117
  0
VERTEX
  8
0
 62
7
  6
CONTINUOUS
 10
109.8283705174
 20
192.8035827062
  0
VERTEX
  8
0
 62
7
  6
CONTINUOUS
 10
109.841920982
 20
192.781850863
  0
VERTEX
  8
0
 62
7
  6
CONTINUOUS
 10
109.8546737817
 20
192.7587873999
  0
VERTEX
  8
0
 62
7
  6
CONTINUOUS
 10
109.866442498
 20
192.7345829446
  0
VERTEX
  8
0
 62
7
  6
CONTINUOUS
 10
109.8770411876
 20
192.7094586975
  0
VERTEX
  8
0
 62
7
  6
CONTINUOUS
 10
109.8863106624
 20
192.683609687
  0
VERTEX
  8
0
 62
7
  6
CONTINUOUS
 10
109.8940781874
 20
192.6572982779
  0
VERTEX
  8
0
 62
7
  6
CONTINUOUS
 10
109.9001899029
 20
192.630785917
  0
VERTEX
  8
0
 62
7
  6
CONTINUOUS
 10
109.904498153
 20
192.6044099755
  0
VERTEX
  8
0
 62
7
  6
CONTINUOUS
 10
109.9068915661
 20
192.5784579363
  0
VERTEX
  8
0
 62
7
  6
CONTINUOUS
 10
109.9073819931
 20
192.5608460125
  0
SEQEND
  0
POLYLINE
  8
0
 62
7
  6
CONTINUOUS
 66
1
 70
0
  0
VERTEX
  8
0
 62
7
  6
CONTINUOUS
 10
108.8901401661
 20
192.5701936125
  0
VERTEX
  8
0
 62
7
  6
CONTINUOUS
 10
109.2716527562
 20
192.7465480895
  0
VERTEX
  8
0
 62
7
  6
CONTINUOUS
 10
109.5986717306
 20
192.9146034516
  0
SEQEND
  0
LINE
  8
0
 62
7
  6
CONTINUOUS
 10
108.4805357934
 20
192.4003108148
 11
108.8907103618
 21
192.5704571859
  0
POLYLINE
  8
0
 62
7
  6
CONTINUOUS
 66
1
 70
0
  0
VERTEX
  8
0
 62
7
  6
CONTINUOUS
 10
100.9566879389
 20
191.4109893996
  0
VERTEX
  8
0
 62
7
  6
CONTINUOUS
 10
101.0009823792
 20
191.3068840812
  0
VERTEX
  8
0
 62
7
  6
CONTINUOUS
 10
101.0794016698
 20
191.2032852454
  0
VERTEX
  8
0
 62
7
  6
CONTINUOUS
 10
101.1821811218
 20
191.1236250426
  0
VERTEX
  8
0
 62
7
  6
CONTINUOUS
 10
101.3023794726
 20
191.0734482519
  0
VERTEX
  8
0
 62
7
  6
CONTINUOUS
 10
101.4318174504
 20
191.056304157
  0
SEQEND
  0
LINE
  8
2_FEATURE
 62
7
  6
CONTINUOUS
 10
98.8823814655
 20
197.156304157
 11
98.8823814655
 21
197.056304157
  0
LINE
  8
2_FEATURE
 62
7
  6
CONTINUOUS
 10
99.1011316324
 20
197.156304157
 11
99.1011316324
 21
197.056304157
  0
LINE
  8
0
 62
7
  6
CONTINUOUS
 10
99.2323816324
 20
197.156304157
 11
99.2323816324
 21
197.056304157
  0
LINE
  8
0
 62
7
  6
CONTINUOUS
 10
99.3198812986
 20
197.156304157
 11
99.3198812986
 21
197.056304157
  0
LINE
  8
0
 62
7
  6
CONTINUOUS
 10
99.3636316324
 20
197.156304157
 11
99.3636316324
 21
197.056304157
  0
LINE
  8
0
 62
7
  6
CONTINUOUS
 10
99.4073814655
 20
197.156304157
 11
99.4073814655
 21
197.056304157
  0
LINE
  8
0
 62
7
  6
CONTINUOUS
 10
99.5261316324
 20
197.156304157
 11
99.5261316324
 21
197.056304157
  0
LINE
  8
0
 62
7
  6
CONTINUOUS
 10
99.7042064655
 20
191.556304157
 11
99.7042064655
 21
193.2299049786
  0
LINE
  8
0
 62
7
  6
CONTINUOUS
 10
99.8761312986
 20
197.156304157
 11
99.8761312986
 21
197.056304157
  0
LINE
  8
0
 62
7
  6
CONTINUOUS
 10
99.9206650334
 20
197.156304157
 11
99.9206650334
 21
197.056304157
  0
LINE
  8
0
 62
7
  6
CONTINUOUS
 10
101.7444525208
 20
191.1715785327
 11
101.743051188
 21
191.1704924162
  0
LINE
  8
0
 62
7
  6
CONTINUOUS
 10
103.4896910243
 20
192.7854015942
 11
103.5324103172
 21
192.6950472932
  0
LINE
  8
0
 62
7
  6
CONTINUOUS
 10
100.7215125471
 20
192.2035672972
 11
100.724493494
 21
192.1939808126
  0
LINE
  8
0
 62
7
  6
CONTINUOUS
 10
100.7244993842
 20
192.193961004
 11
100.9566872496
 21
191.4109913454
  0
POLYLINE
  8
0
 62
7
  6
CONTINUOUS
 66
1
 70
0
  0
VERTEX
  8
0
 62
7
  6
CONTINUOUS
 10
100.3294458862
 20
191.556304157
  0
VERTEX
  8
0
 62
7
  6
CONTINUOUS
 10
100.3469102966
 20
191.4283369582
  0
VERTEX
  8
0
 62
7
  6
CONTINUOUS
 10
100.3965249279
 20
191.3087657582
  0
VERTEX
  8
0
 62
7
  6
CONTINUOUS
 10
100.4750954668
 20
191.2056004507
  0
VERTEX
  8
0
 62
7
  6
CONTINUOUS
 10
100.5774669469
 20
191.1258222778
  0
VERTEX
  8
0
 62
7
  6
CONTINUOUS
 10
100.6968404648
 20
191.0748906825
  0
SEQEND
  0
POLYLINE
  8
0
 62
7
  6
CONTINUOUS
 66
1
 70
0
  0
VERTEX
  8
0
 62
7
  6
CONTINUOUS
 10
100.9361073549
 20
191.556304157
  0
VERTEX
  8
0
 62
7
  6
CONTINUOUS
 10
100.952153437
 20
191.4272912493
  0
VERTEX
  8
0
 62
7
  6
CONTINUOUS
 10
100.9566879389
 20
191.4109893996
  0
SEQEND
  0
POLYLINE
  8
0
 62
7
  6
CONTINUOUS
 66
1
 70
0
  0
VERTEX
  8
0
 62
7
  6
CONTINUOUS
 10
101.5573810002
 20
192.9151886154
  0
VERTEX
  8
0
 62
7
  6
CONTINUOUS
 10
101.5601157208
 20
192.8459440062
  0
VERTEX
  8
0
 62
7
  6
CONTINUOUS
 10
101.5879367941
 20
192.6954132364
  0
VERTEX
  8
0
 62
7
  6
CONTINUOUS
 10
101.644376568
 20
192.5681952403
  0
VERTEX
  8
0
 62
7
  6
CONTINUOUS
 10
101.7230421656
 20
192.4722188645
  0
VERTEX
  8
0
 62
7
  6
CONTINUOUS
 10
101.7680660984
 20
192.4366263492
  0
VERTEX
  8
0
 62
7
  6
CONTINUOUS
 10
101.8666496324
 20
192.3886649379
  0
VERTEX
  8
0
 62
7
  6
CONTINUOUS
 10
101.9740072995
 20
192.3711987376
  0
VERTEX
  8
0
 62
7
  6
CONTINUOUS
 10
102.0873302322
 20
192.3858708074
  0
VERTEX
  8
0
 62
7
  6
CONTINUOUS
 10
102.1305280474
 20
192.4003077527
  0
SEQEND
  0
LINE
  8
0
 62
7
  6
CONTINUOUS
 10
101.5573814655
 20
191.556304157
 11
101.5573814655
 21
199.056304157
  0
LINE
  8
0
 62
7
  6
CONTINUOUS
 10
103.3348785172
 20
192.6360169585
 11
103.3994124295
 21
192.7759223042
  0
POLYLINE
  8
0
 62
7
  6
CONTINUOUS
 66
1
 70
0
  0
VERTEX
  8
0
 62
7
  6
CONTINUOUS
 10
103.3994124295
 20
192.7759223042
  0
VERTEX
  8
0
 62
7
  6
CONTINUOUS
 10
103.4092363231
 20
192.7968516779
  0
VERTEX
  8
0
 62
7
  6
CONTINUOUS
 10
103.413865147
 20
192.8065026291
  0
VERTEX
  8
0
 62
7
  6
CONTINUOUS
 10
103.4183801987
 20
192.8157196054
  0
VERTEX
  8
0
 62
7
  6
CONTINUOUS
 10
103.4228175038
 20
192.8245337032
  0
VERTEX
  8
0
 62
7
  6
CONTINUOUS
 10
103.4271750375
 20
192.8328973938
  0
VERTEX
  8
0
 62
7
  6
CONTINUOUS
 10
103.4314749894
 20
192.8408099394
  0
VERTEX
  8
0
 62
7
  6
CONTINUOUS
 10
103.4357652786
 20
192.8483118354
  0
VERTEX
  8
0
 62
7
  6
CONTINUOUS
 10
103.4393288867
 20
192.8541721254
  0
SEQEND
  0
POLYLINE
  8
0
 62
7
  6
CONTINUOUS
 66
1
 70
0
  0
VERTEX
  8
0
 62
7
  6
CONTINUOUS
 10
107.6573814655
 20
194.4925755321
  0
VERTEX
  8
0
 62
7
  6
CONTINUOUS
 10
107.6404898941
 20
194.4771914892
  0
VERTEX
  8
0
 62
7
  6
CONTINUOUS
 10
107.5908457189
 20
194.4630504394
  0
VERTEX
  8
0
 62
7
  6
CONTINUOUS
 10
107.5116441821
 20
194.4510422136
  0
VERTEX
  8
0
 62
7
  6
CONTINUOUS
 10
107.4081360745
 20
194.4419044717
  0
VERTEX
  8
0
 62
7
  6
CONTINUOUS
 10
107.2873043167
 20
194.43618998
  0
VERTEX
  8
0
 62
7
  6
CONTINUOUS
 10
107.1573814655
 20
194.4342444881
  0
SEQEND
  0
POLYLINE
  8
0
 62
7
  6
CONTINUOUS
 66
1
 70
0
  0
VERTEX
  8
0
 62
7
  6
CONTINUOUS
 10
107.6573814655
 20
196.3200327819
  0
VERTEX
  8
0
 62
7
  6
CONTINUOUS
 10
107.6404898941
 20
196.3354168249
  0
VERTEX
  8
0
 62
7
  6
CONTINUOUS
 10
107.5908457189
 20
196.3495578746
  0
VERTEX
  8
0
 62
7
  6
CONTINUOUS
 10
107.5116441821
 20
196.3615661004
  0
VERTEX
  8
0
 62
7
  6
CONTINUOUS
 10
107.4081360745
 20
196.3707038424
  0
VERTEX
  8
0
 62
7
  6
CONTINUOUS
 10
107.2873043167
 20
196.376418334
  0
VERTEX
  8
0
 62
7
  6
CONTINUOUS
 10
107.1573814655
 20
196.378363826
  0
SEQEND
  0
LINE
  8
0
 62
7
  6
CONTINUOUS
 10
103.5324103172
 20
192.6950472932
 11
103.5460496203
 21
192.6487826719
  0
LINE
  8
0
 62
7
  6
CONTINUOUS
 10
103.1605564655
 20
191.556304157
 11
103.1605564655
 21
191.9218200627
  0
LINE
  8
0
 62
7
  6
CONTINUOUS
 10
103.5573814655
 20
191.2563076921
 11
103.5573814655
 21
192.5608442216
  0
POLYLINE
  8
0
 62
7
  6
CONTINUOUS
 66
1
 70
0
  0
VERTEX
  8
0
 62
7
  6
CONTINUOUS
 10
103.1605560867
 20
191.9217821742
  0
VERTEX
  8
0
 62
7
  6
CONTINUOUS
 10
103.1791758775
 20
192.1400326107
  0
VERTEX
  8
0
 62
7
  6
CONTINUOUS
 10
103.2394122325
 20
192.38948684
  0
VERTEX
  8
0
 62
7
  6
CONTINUOUS
 10
103.3351891672
 20
192.6366898917
  0
SEQEND
  0
LINE
  8
0
 62
7
  6
CONTINUOUS
 10
112.4073814655
 20
197.156304157
 11
111.9073814655
 21
196.656304157
  0
POLYLINE
  8
0
 62
7
  6
CONTINUOUS
 66
1
 70
0
  0
VERTEX
  8
0
 62
7
  6
CONTINUOUS
 10
114.2573814655
 20
196.3200327819
  0
VERTEX
  8
0
 62
7
  6
CONTINUOUS
 10
114.274273037
 20
196.3354168249
  0
VERTEX
  8
0
 62
7
  6
CONTINUOUS
 10
114.3239172121
 20
196.3495578746
  0
VERTEX
  8
0
 62
7
  6
CONTINUOUS
 10
114.403118749
 20
196.3615661004
  0
VERTEX
  8
0
 62
7
  6
CONTINUOUS
 10
114.5066268566
 20
196.3707038424
  0
VERTEX
  8
0
 62
7
  6
CONTINUOUS
 10
114.6274586143
 20
196.376418334
  0
VERTEX
  8
0
 62
7
  6
CONTINUOUS
 10
114.7573814655
 20
196.378363826
  0
SEQEND
  0
POLYLINE
  8
0
 62
7
  6
CONTINUOUS
 66
1
 70
0
  0
VERTEX
  8
0
 62
7
  6
CONTINUOUS
 10
114.2573814655
 20
194.4925755321
  0
VERTEX
  8
0
 62
7
  6
CONTINUOUS
 10
114.274273037
 20
194.4771914892
  0
VERTEX
  8
0
 62
7
  6
CONTINUOUS
 10
114.3239172121
 20
194.4630504394
  0
VERTEX
  8
0
 62
7
  6
CONTINUOUS
 10
114.403118749
 20
194.4510422136
  0
VERTEX
  8
0
 62
7
  6
CONTINUOUS
 10
114.5066268566
 20
194.4419044717
  0
VERTEX
  8
0
 62
7
  6
CONTINUOUS
 10
114.6274586143
 20
194.43618998
  0
VERTEX
  8
0
 62
7
  6
CONTINUOUS
 10
114.7573814655
 20
194.4342444881
  0
SEQEND
  0
POLYLINE
  8
0
 62
7
  6
CONTINUOUS
 66
1
 70
0
  0
VERTEX
  8
0
 62
7
  6
CONTINUOUS
 10
107.6573814655
 20
196.9805958675
  0
VERTEX
  8
0
 62
7
  6
CONTINUOUS
 10
107.6654236765
 20
197.0342600352
  0
VERTEX
  8
0
 62
7
  6
CONTINUOUS
 10
107.6933777178
 20
197.0889787749
  0
VERTEX
  8
0
 62
7
  6
CONTINUOUS
 10
107.7158114787
 20
197.1125317286
  0
VERTEX
  8
0
 62
7
  6
CONTINUOUS
 10
107.7749300809
 20
197.1451301224
  0
VERTEX
  8
0
 62
7
  6
CONTINUOUS
 10
107.8502804071
 20
197.156304157
  0
SEQEND
  0
POLYLINE
  8
0
 62
7
  6
CONTINUOUS
 66
1
 70
0
  0
VERTEX
  8
0
 62
7
  6
CONTINUOUS
 10
107.9100324344
 20
192.8469880306
  0
VERTEX
  8
0
 62
7
  6
CONTINUOUS
 10
107.9376374127
 20
192.6964002908
  0
VERTEX
  8
0
 62
7
  6
CONTINUOUS
 10
107.9938386929
 20
192.5690739225
  0
VERTEX
  8
0
 62
7
  6
CONTINUOUS
 10
108.0722808195
 20
192.4729160728
  0
VERTEX
  8
0
 62
7
  6
CONTINUOUS
 10
108.1172112922
 20
192.4372081764
  0
VERTEX
  8
0
 62
7
  6
CONTINUOUS
 10
108.215618702
 20
192.3889930899
  0
VERTEX
  8
0
 62
7
  6
CONTINUOUS
 10
108.3229228106
 20
192.3712189025
  0
VERTEX
  8
0
 62
7
  6
CONTINUOUS
 10
108.4362181177
 20
192.3855649094
  0
VERTEX
  8
0
 62
7
  6
CONTINUOUS
 10
108.4805289257
 20
192.4003082771
  0
SEQEND
  0
LINE
  8
0
 62
7
  6
CONTINUOUS
 10
107.9073809148
 20
192.9151929312
 11
107.9100868142
 21
192.8466913835
  0
LINE
  8
0
 62
7
  6
CONTINUOUS
 10
107.6573814655
 20
191.556307132
 11
107.6573814655
 21
199.056304157
  0
LINE
  8
0
 62
7
  6
CONTINUOUS
 10
107.9073814949
 20
192.9152020218
 11
107.9073814655
 21
196.9805958675
  0
POLYLINE
  8
0
 62
7
  6
CONTINUOUS
 66
1
 70
0
  0
VERTEX
  8
0
 62
7
  6
CONTINUOUS
 10
107.9073814655
 20
196.9805958675
  0
VERTEX
  8
0
 62
7
  6
CONTINUOUS
 10
107.8993372648
 20
197.0342665803
  0
VERTEX
  8
0
 62
7
  6
CONTINUOUS
 10
107.8713809305
 20
197.0889843127
  0
VERTEX
  8
0
 62
7
  6
CONTINUOUS
 10
107.8489502862
 20
197.1125327244
  0
VERTEX
  8
0
 62
7
  6
CONTINUOUS
 10
107.7898274678
 20
197.1451318815
  0
VERTEX
  8
0
 62
7
  6
CONTINUOUS
 10
107.7823843856
 20
197.1462355543
  0
SEQEND
  0
LINE
  8
0
 62
7
  6
CONTINUOUS
 10
109.9073814655
 20
192.5608436589
 11
109.9073814655
 21
191.2563076921
  0
LINE
  8
0
 62
7
  6
CONTINUOUS
 10
117.0573814655
 20
198.946417257
 11
117.2573814655
 21
198.7308192737
  0
LINE
  8
0
 62
7
  6
CONTINUOUS
 10
112.4073814655
 20
191.556304157
 11
112.4073814655
 21
197.156304157
  0
LINE
  8
0
 62
7
  6
CONTINUOUS
 10
114.2573814655
 20
191.556307122
 11
114.2573814655
 21
199.056304157
  0
LINE
  8
0
 62
7
  6
CONTINUOUS
 10
117.0573814655
 20
191.556304157
 11
117.0573814655
 21
199.056304157
  0
LINE
  8
0
 62
7
  6
CONTINUOUS
 10
117.2573814655
 20
198.7308192737
 11
117.2573814655
 21
192.656304157
  0
ARC
  8
0
 62
7
  6
CONTINUOUS
 10
60.1473814655
 20
118.0975107759
 40
2.0
 50
66.2057270495
 51
113.7942729505
  0
ARC
  8
0
 62
7
  6
CONTINUOUS
 10
72.8573814655
 20
118.0975107759
 40
2.0
 50
66.2057270495
 51
113.7942729505
  0
ARC
  8
0
 62
7
  6
CONTINUOUS
 10
72.8573814655
 20
118.0975107759
 40
2.0
 50
168.1705009513
 51
196.5588485865
  0
ARC
  8
0
 62
7
  6
CONTINUOUS
 10
72.8573814655
 20
118.0975107759
 40
2.0
 50
343.4411514135
 51
11.8294990487
  0
ARC
  8
0
 62
7
  6
CONTINUOUS
 10
60.1473814655
 20
118.0975107759
 40
2.0
 50
168.1705009513
 51
196.5588485865
  0
ARC
  8
0
 62
7
  6
CONTINUOUS
 10
60.1473814655
 20
118.0975107759
 40
2.0
 50
343.4411514135
 51
11.8294990487
  0
ARC
  8
0
 62
7
  6
CONTINUOUS
 10
74.3023814655
 20
117.3975107759
 40
0.765
 50
11.3145834544
 51
44.2389011909
  0
ARC
  8
0
 62
7
  6
CONTINUOUS
 10
54.5573814655
 20
107.2275107759
 40
0.5
 50
180.0
 51
270.0
  0
ARC
  8
0
 62
7
  6
CONTINUOUS
 10
63.9573814655
 20
107.2275107759
 40
0.5
 50
180.0
 51
270.0
  0
ARC
  8
0
 62
7
  6
CONTINUOUS
 10
56.3573814655
 20
107.2275107759
 40
0.5
 50
270.0
 51
360.0
  0
ARC
  8
0
 62
7
  6
CONTINUOUS
 10
76.6573814655
 20
107.2275107759
 40
0.5
 50
180.0
 51
270.0
  0
ARC
  8
0
 62
7
  6
CONTINUOUS
 10
69.0573814655
 20
107.2275107759
 40
0.5
 50
270.0
 51
360.0
  0
ARC
  8
0
 62
7
  6
CONTINUOUS
 10
81.7573814655
 20
107.2275107759
 40
0.5
 50
270.0
 51
360.0
  0
ARC
  8
0
 62
7
  6
CONTINUOUS
 10
67.1273814655
 20
141.9375107759
 40
2.0
 50
246.2057270495
 51
293.7942729505
  0
ARC
  8
0
 62
7
  6
CONTINUOUS
 10
78.5873814655
 20
141.9375107759
 40
2.0
 50
246.2057270495
 51
293.7942729505
  0
ARC
  8
0
 62
7
  6
CONTINUOUS
 10
67.1273814655
 20
141.9375107759
 40
2.0
 50
348.1705009513
 51
16.5588485865
  0
ARC
  8
0
 62
7
  6
CONTINUOUS
 10
67.1273814655
 20
141.9375107759
 40
2.0
 50
163.4411514135
 51
191.8294990487
  0
ARC
  8
0
 62
7
  6
CONTINUOUS
 10
78.5873814655
 20
141.9375107759
 40
2.0
 50
348.1705009513
 51
16.5588485865
  0
ARC
  8
0
 62
7
  6
CONTINUOUS
 10
78.5873814655
 20
141.9375107759
 40
2.0
 50
163.4411514135
 51
191.8294990487
  0
ARC
  8
0
 62
7
  6
CONTINUOUS
 10
54.8573814655
 20
143.3837622771
 40
1.0
 50
144.1408088018
 51
180.0
  0
ARC
  8
0
 62
7
  6
CONTINUOUS
 10
57.6073814655
 20
152.8075107759
 40
0.5
 50
90.0
 51
180.0
  0
ARC
  8
0
 62
7
  6
CONTINUOUS
 10
70.3073814655
 20
152.8075107759
 40
0.5
 50
90.0
 51
180.0
  0
ARC
  8
0
 62
7
  6
CONTINUOUS
 10
83.0073814655
 20
152.8075107759
 40
0.5
 50
90.0
 51
180.0
  0
ARC
  8
0
 62
7
  6
CONTINUOUS
 10
75.4073814655
 20
152.8075107759
 40
0.5
 50
0.0
 51
90.0
  0
ARC
  8
0
 62
7
  6
CONTINUOUS
 10
85.5573814655
 20
118.0975107759
 40
2.0
 50
66.2057270495
 51
113.7942729505
  0
ARC
  8
0
 62
7
  6
CONTINUOUS
 10
98.2573814655
 20
118.0975107759
 40
2.0
 50
66.2057270495
 51
113.7942729505
  0
ARC
  8
0
 62
7
  6
CONTINUOUS
 10
110.9673814655
 20
118.0975107759
 40
2.0
 50
66.2057270495
 51
113.7942729505
  0
ARC
  8
0
 62
7
  6
CONTINUOUS
 10
98.2573814655
 20
118.0975107759
 40
2.0
 50
168.1705009513
 51
196.5588485865
  0
ARC
  8
0
 62
7
  6
CONTINUOUS
 10
98.2573814655
 20
118.0975107759
 40
2.0
 50
343.4411514135
 51
11.8294990487
  0
ARC
  8
0
 62
7
  6
CONTINUOUS
 10
85.5573814655
 20
118.0975107759
 40
2.0
 50
168.1705009513
 51
196.5588485865
  0
ARC
  8
0
 62
7
  6
CONTINUOUS
 10
85.5573814655
 20
118.0975107759
 40
2.0
 50
343.4411514135
 51
11.8294990487
  0
ARC
  8
0
 62
7
  6
CONTINUOUS
 10
110.9673814655
 20
118.0975107759
 40
2.0
 50
168.1705009513
 51
196.5588485865
  0
ARC
  8
0
 62
7
  6
CONTINUOUS
 10
110.9673814655
 20
118.0975107759
 40
2.0
 50
343.4411514135
 51
11.8294990487
  0
ARC
  8
0
 62
7
  6
CONTINUOUS
 10
116.5573814655
 20
107.2275107759
 40
0.5
 50
270.0
 51
360.0
  0
ARC
  8
0
 62
7
  6
CONTINUOUS
 10
89.3573814655
 20
107.2275107759
 40
0.5
 50
180.0
 51
270.0
  0
ARC
  8
0
 62
7
  6
CONTINUOUS
 10
102.0573814655
 20
107.2275107759
 40
0.5
 50
180.0
 51
270.0
  0
ARC
  8
0
 62
7
  6
CONTINUOUS
 10
94.4573814655
 20
107.2275107759
 40
0.5
 50
270.0
 51
360.0
  0
ARC
  8
0
 62
7
  6
CONTINUOUS
 10
114.7573814655
 20
107.2275107759
 40
0.5
 50
180.0
 51
270.0
  0
ARC
  8
0
 62
7
  6
CONTINUOUS
 10
107.1573814655
 20
107.2275107759
 40
0.5
 50
270.0
 51
360.0
  0
ARC
  8
0
 62
7
  6
CONTINUOUS
 10
92.5273814655
 20
141.9375107759
 40
2.0
 50
246.2057270495
 51
293.7942729505
  0
ARC
  8
0
 62
7
  6
CONTINUOUS
 10
103.9873814655
 20
141.9375107759
 40
2.0
 50
246.2057270495
 51
293.7942729505
  0
ARC
  8
0
 62
7
  6
CONTINUOUS
 10
103.9873814655
 20
141.9375107759
 40
2.0
 50
348.1705009513
 51
16.5588485865
  0
ARC
  8
0
 62
7
  6
CONTINUOUS
 10
103.9873814655
 20
141.9375107759
 40
2.0
 50
163.4411514135
 51
191.8294990487
  0
ARC
  8
0
 62
7
  6
CONTINUOUS
 10
92.5273814655
 20
141.9375107759
 40
2.0
 50
348.1705009513
 51
16.5588485865
  0
ARC
  8
0
 62
7
  6
CONTINUOUS
 10
92.5273814655
 20
141.9375107759
 40
2.0
 50
163.4411514135
 51
191.8294990487
  0
ARC
  8
0
 62
7
  6
CONTINUOUS
 10
116.2573814655
 20
143.3837622771
 40
1.0
 50
0.0
 51
35.8591911982
  0
ARC
  8
0
 62
7
  6
CONTINUOUS
 10
113.5073814655
 20
152.8075107759
 40
0.5
 50
0.0
 51
90.0
  0
ARC
  8
0
 62
7
  6
CONTINUOUS
 10
100.8073814655
 20
152.8075107759
 40
0.5
 50
0.0
 51
90.0
  0
ARC
  8
0
 62
7
  6
CONTINUOUS
 10
95.7073814655
 20
152.8075107759
 40
0.5
 50
90.0
 51
180.0
  0
ARC
  8
0
 62
7
  6
CONTINUOUS
 10
88.1073814655
 20
152.8075107759
 40
0.5
 50
0.0
 51
90.0
  0
ARC
  8
0
 62
7
  6
CONTINUOUS
 10
108.4073814655
 20
152.8075107759
 40
0.5
 50
90.0
 51
180.0
  0
ARC
  8
0
 62
7
  6
CONTINUOUS
 10
152.7600576592
 20
143.9037622771
 40
0.5
 50
180.0
 51
181.1459919984
  0
ARC
  8
0
 62
7
  6
CONTINUOUS
 10
152.7600576592
 20
143.8837622771
 40
0.5
 50
90.0
 51
180.0
  0
ARC
  8
0
 62
7
  6
CONTINUOUS
 10
156.6100576592
 20
110.7675107759
 40
5.0489999763
 50
48.818215835
 51
69.7203027258
  0
ARC
  8
0
 62
7
  6
CONTINUOUS
 10
156.6100576592
 20
110.9675107759
 40
4.35
 50
180.0
 51
257.0875457171
  0
ARC
  8
0
 62
7
  6
CONTINUOUS
 10
156.6100576592
 20
110.9675107759
 40
4.35
 50
282.9124542829
 51
342.5584061437
  0
CIRCLE
  8
2_FEATURE
 62
7
  6
CONTINUOUS
 10
156.6100576592
 20
110.9675107759
 40
2.5
  0
ARC
  8
0
 62
7
  6
CONTINUOUS
 10
156.6100576592
 20
149.0675107759
 40
5.0
 50
290.4873151147
 51
311.5777957855
  0
ARC
  8
0
 62
7
  6
CONTINUOUS
 10
156.6100576592
 20
149.0675107759
 40
4.35
 50
102.9124542829
 51
180.0
  0
ARC
  8
0
 62
7
  6
CONTINUOUS
 10
156.6100576592
 20
149.0675107759
 40
4.35
 50
17.4415938563
 51
77.0875457171
  0
CIRCLE
  8
2_FEATURE
 62
7
  6
CONTINUOUS
 10
156.6100576592
 20
149.0675107759
 40
2.5
  0
ARC
  8
0
 62
7
  6
CONTINUOUS
 10
160.2600576592
 20
144.9532064604
 40
0.5
 50
0.0
 51
131.5777957862
  0
ARC
  8
0
 62
7
  6
CONTINUOUS
 10
61.0073814655
 20
191.256304157
 40
0.2
 50
270.0
 51
360.0
  0
ARC
  8
0
 62
7
  6
CONTINUOUS
 10
67.3573814655
 20
191.256304157
 40
0.2
 50
270.0
 51
360.0
  0
ARC
  8
0
 62
7
  6
CONTINUOUS
 10
56.3573814655
 20
191.556304157
 40
0.5
 50
270.0
 51
360.0
  0
ARC
  8
0
 62
7
  6
CONTINUOUS
 10
63.9573814655
 20
191.556304157
 40
0.5
 50
180.0
 51
270.0
  0
ARC
  8
0
 62
7
  6
CONTINUOUS
 10
54.5573814655
 20
191.556304157
 40
0.5
 50
180.0
 51
270.0
  0
ARC
  8
0
 62
7
  6
CONTINUOUS
 10
68.4542064655
 20
191.556304157
 40
0.5
 50
180.0
 51
270.0
  0
ARC
  8
0
 62
7
  6
CONTINUOUS
 10
58.2073814655
 20
191.556304157
 40
0.5
 50
270.0
 51
360.0
  0
ARC
  8
0
 62
7
  6
CONTINUOUS
 10
81.7573814655
 20
191.556304157
 40
0.5
 50
270.0
 51
360.0
  0
ARC
  8
0
 62
7
  6
CONTINUOUS
 10
76.6573814655
 20
191.556304157
 40
0.5
 50
180.0
 51
270.0
  0
ARC
  8
0
 62
7
  6
CONTINUOUS
 10
83.0073814655
 20
191.556304157
 40
0.5
 50
180.0
 51
270.0
  0
ARC
  8
0
 62
7
  6
CONTINUOUS
 10
70.9105564655
 20
191.556304157
 40
0.5
 50
270.0
 51
360.0
  0
ARC
  8
0
 62
7
  6
CONTINUOUS
 10
69.0573814655
 20
191.556304157
 40
0.5
 50
270.0
 51
360.0
  0
ARC
  8
0
 62
7
  6
CONTINUOUS
 10
74.8042064655
 20
191.556304157
 40
0.5
 50
180.0
 51
270.0
  0
ARC
  8
0
 62
7
  6
CONTINUOUS
 10
54.5573814655
 20
199.056304157
 40
0.5
 50
90.0
 51
180.0
  0
ARC
  8
0
 62
7
  6
CONTINUOUS
 10
63.9573814655
 20
199.056304157
 40
0.5
 50
90.0
 51
180.0
  0
ARC
  8
0
 62
7
  6
CONTINUOUS
 10
56.3573814655
 20
199.056304157
 40
0.5
 50
0.0
 51
90.0
  0
ARC
  8
0
 62
7
  6
CONTINUOUS
 10
76.6573814655
 20
199.056304157
 40
0.5
 50
90.0
 51
180.0
  0
ARC
  8
0
 62
7
  6
CONTINUOUS
 10
69.0573814655
 20
199.056304157
 40
0.5
 50
0.0
 51
90.0
  0
ARC
  8
0
 62
7
  6
CONTINUOUS
 10
81.7573814655
 20
199.056304157
 40
0.5
 50
0.0
 51
90.0
  0
ARC
  8
0
 62
7
  6
CONTINUOUS
 10
89.3573814655
 20
191.556304157
 40
0.5
 50
180.0
 51
270.0
  0
ARC
  8
0
 62
7
  6
CONTINUOUS
 10
88.1073814655
 20
191.556304157
 40
0.5
 50
270.0
 51
360.0
  0
ARC
  8
0
 62
7
  6
CONTINUOUS
 10
100.2042064655
 20
191.556304157
 40
0.5
 50
180.0
 51
270.0
  0
ARC
  8
0
 62
7
  6
CONTINUOUS
 10
102.0573814655
 20
191.556304157
 40
0.5
 50
180.0
 51
270.0
  0
ARC
  8
0
 62
7
  6
CONTINUOUS
 10
94.4573814655
 20
191.556304157
 40
0.5
 50
270.0
 51
360.0
  0
ARC
  8
0
 62
7
  6
CONTINUOUS
 10
96.3105564655
 20
191.556304157
 40
0.5
 50
270.0
 51
360.0
  0
ARC
  8
0
 62
7
  6
CONTINUOUS
 10
110.1073814655
 20
191.256304157
 40
0.2
 50
180.0
 51
270.0
  0
ARC
  8
0
 62
7
  6
CONTINUOUS
 10
103.7573814655
 20
191.256304157
 40
0.2
 50
180.0
 51
270.0
  0
ARC
  8
0
 62
7
  6
CONTINUOUS
 10
107.1573814655
 20
191.556304157
 40
0.5
 50
270.0
 51
360.0
  0
ARC
  8
0
 62
7
  6
CONTINUOUS
 10
114.7573814655
 20
191.556304157
 40
0.5
 50
180.0
 51
270.0
  0
ARC
  8
0
 62
7
  6
CONTINUOUS
 10
102.6605564655
 20
191.556304157
 40
0.5
 50
270.0
 51
360.0
  0
ARC
  8
0
 62
7
  6
CONTINUOUS
 10
112.9073814655
 20
191.556304157
 40
0.5
 50
180.0
 51
270.0
  0
ARC
  8
0
 62
7
  6
CONTINUOUS
 10
116.5573814655
 20
191.556304157
 40
0.5
 50
270.0
 51
360.0
  0
ARC
  8
0
 62
7
  6
CONTINUOUS
 10
116.5573814655
 20
199.056304157
 40
0.5
 50
0.0
 51
90.0
  0
ARC
  8
0
 62
7
  6
CONTINUOUS
 10
89.3573814655
 20
199.056304157
 40
0.5
 50
90.0
 51
180.0
  0
ARC
  8
0
 62
7
  6
CONTINUOUS
 10
102.0573814655
 20
199.056304157
 40
0.5
 50
90.0
 51
180.0
  0
ARC
  8
0
 62
7
  6
CONTINUOUS
 10
94.4573814655
 20
199.056304157
 40
0.5
 50
0.0
 51
90.0
  0
ARC
  8
0
 62
7
  6
CONTINUOUS
 10
114.7573814655
 20
199.056304157
 40
0.5
 50
90.0
 51
180.0
  0
ARC
  8
0
 62
7
  6
CONTINUOUS
 10
107.1573814655
 20
199.056304157
 40
0.5
 50
0.0
 51
90.0
  0
ENDSEC
  0
EOF
