  0
SECTION
  2
HEADER
  9
$EXTMAX
 10
210.0
 20
297.0
 30
0.0
  9
$EXTMIN
 10
0.0
 20
0.0
 30
0.0
  9
$LIMMIN
 10
0.0
 20
0.0
  9
$LIMMAX
 10
210.0
 20
297.0
  9
$VIEWCTR
 10
105.0
 20
148.5
  9
$VIEWSIZE
 40
297.0
  9
$CLAYER
  8
0
  9
$LTSCALE
 40
19.36
  9
$CELTYPE
  6
BYLAYER
  9
$DIMSCALE
 40
1.0
  9
$DIMASZ
 40
3.5
  9
$DIMEXO
 40
1.0
  9
$DIMDLI
 40
13.376
  9
$DIMEXE
 40
2.0
  9
$DIMCEN
 40
3.168
  9
$DIMLFAC
 40
1.0
  9
$DIMBLK
  1
_FILLED
  9
$DIMALT
 70
0
  9
$DIMALTF
 40
0.0393700787
  9
$DIMTXT
 40
3.5
  9
$AUNITS
 70
0
  9
$PDMODE
 70
3
  9
$PDSIZE
 40
0.3125
  9
$TILEMODE
 70
1
  0
ENDSEC
  0
SECTION
  2
TABLES
  0
TABLE
  2
LTYPE
 70
6
  0
LTYPE
  2
BYBLOCK
 70
0
  3

 72
65
 73
0
 40
0.0
  0
LTYPE
  2
BYLAYER
 70
0
  3

 72
65
 73
0
 40
0.0
  0
LTYPE
  2
CONTINUOUS
 70
64
  3
Solid line
 72
65
 73
0
 40
0.0
  0
LTYPE
  2
CENTER
 70
64
  3
____ _ ____ _ ____ _ ____ _ ____ _ ____ _ ____
 72
65
 73
4
 40
0.6
 49
0.375
 49
-0.075
 49
0.075
 49
-0.075
  0
LTYPE
  2
HIDDEN
 70
64
  3
- - - - - - - - - - - - - - - - - - - -
 72
65
 73
2
 40
0.2
 49
0.1
 49
-0.1
  0
LTYPE
  2
PHANTOM
 70
64
  3
_____ _ _ _____ _ _ _____ _ _ _____
 72
65
 73
6
 40
0.8
 49
0.45
 49
-0.05
 49
0.1
 49
-0.05
 49
0.1
 49
-0.05
  0
LTYPE
  2
DOT
 70
64
  3
. . . . . . . . . . . . . . . . . . . .
 72
65
 73
2
 40
0.2
 49
0.1
 49
-0.1
  0
LTYPE
  2
DASHED
 70
64
  3
- - - - - - - - - - - - - - - - - - - -
 72
65
 73
2
 40
0.2
 49
0.1
 49
-0.1
  0
ENDTAB
  0
TABLE
  2
LAYER
 70
36
  0
LAYER
  2
0
 70
0
 62
7
  6
CONTINUOUS
  0
LAYER
  2
DEFAULT_1
 70
0
 62
7
  6
CENTER
  0
LAYER
  2
DEFAULT_2
 70
0
 62
8
  6
HIDDEN
  0
LAYER
  2
DEFAULT_3
 70
0
 62
7
  6
PHANTOM
  0
LAYER
  2
1_AXIS
 70
0
 62
7
  6
CONTINUOUS
  0
LAYER
  2
1_DATUMPLANE
 70
0
 62
7
  6
CONTINUOUS
  0
LAYER
  2
1_DATUM_PLANES
 70
0
 62
7
  6
CONTINUOUS
  0
LAYER
  2
2_FEATURE
 70
0
 62
7
  6
CONTINUOUS
  0
LAYER
  2
4_QUILT
 70
0
 62
7
  6
CONTINUOUS
  0
LAYER
  2
6_DIM
 70
0
 62
7
  6
CONTINUOUS
  0
LAYER
  2
CSYS
 70
0
 62
7
  6
CONTINUOUS
  0
LAYER
  2
CURVE
 70
0
 62
7
  6
CONTINUOUS
  0
LAYER
  2
NOTES
 70
0
 62
7
  6
CONTINUOUS
  0
ENDTAB
  0
TABLE
  2
STYLE
 70
1
  0
STYLE
  2
STANDARD
 70
0
 40
0.0
 41
0.8
 50
0.0
 71
0
 42
0.2
  3
txt
  4

  0
STYLE
  2
TEXTSTYLE_1
 70
0
 40
0.0
 41
0.8
 50
0.0
 71
0
 42
0.2
  3
gdt
  4

  0
STYLE
  2
TEXTSTYLE_2
 70
0
 40
0.0
 41
0.6
 50
0.0
 71
0
 42
0.2
  3
txt
  4

  0
STYLE
  2
TEXTSTYLE_3
 70
0
 40
0.0
 41
1.0
 50
0.0
 71
0
 42
0.2
  3
ftb_____.ttf
  4

  0
STYLE
  2
TEXTSTYLE_4
 70
0
 40
0.0
 41
1.0
 50
0.0
 71
0
 42
0.2
  3
fti_____.ttf
  4

  0
STYLE
  2
TEXTSTYLE_5
 70
0
 40
0.0
 41
1.0
 50
0.0
 71
0
 42
0.2
  3
frutiger light.ttf
  4

  0
STYLE
  2
TEXTSTYLE_6
 70
0
 40
0.0
 41
0.7
 50
0.0
 71
0
 42
0.2
  3
txt
  4

  0
STYLE
  2
TEXTSTYLE_7
 70
0
 40
0.0
 41
0.6
 50
0.0
 71
0
 42
0.2
  3
txt
  4

  0
ENDTAB
  0
ENDSEC
  0
SECTION
  2
BLOCKS
  0
BLOCK
  8
0
 62
2
  6
CONTINUOUS
  2
UNI_LOGO2_BL1
 70
64
 10
173.5956734183
 20
35.5937998301
  0
TEXT
  8
0
 62
7
  6
CONTINUOUS
 10
164.6539584268
 20
30.6865562072
  7
TEXTSTYLE_4
 40
1.0655737705
  1
The brand for plastic modular belts and chains
 41
1.0
 72
0
  0
LINE
  8
0
 62
7
  6
CONTINUOUS
 10
149.5737418074
 20
36.1675703219
 11
149.5737418074
 21
34.0364227809
  0
LINE
  8
0
 62
7
  6
CONTINUOUS
 10
149.8628043005
 20
31.0454914852
 11
149.8628043005
 21
31.1422825445
  0
LINE
  8
0
 62
7
  6
CONTINUOUS
 10
149.5737418074
 20
31.1100188581
 11
149.6315543091
 21
30.9164367395
  0
LINE
  8
0
 62
7
  6
CONTINUOUS
 10
150.9671844304
 20
33.9544555678
 11
150.9671844304
 21
36.1675703219
  0
LINE
  8
0
 62
7
  6
CONTINUOUS
 10
151.8862417523
 20
32.1101932727
 11
151.8862417523
 21
30.5937998301
  0
LINE
  8
0
 62
7
  6
CONTINUOUS
 10
152.1753043074
 20
30.5937998301
 11
152.1753043074
 21
31.3358647082
  0
LINE
  8
0
 62
7
  6
CONTINUOUS
 10
152.1753043074
 20
31.4649194539
 11
152.1753043074
 21
32.1101932727
  0
LINE
  8
0
 62
7
  6
CONTINUOUS
 10
149.6315543091
 20
31.3036010218
 11
149.5737418074
 21
31.1100188581
  0
LINE
  8
0
 62
7
  6
CONTINUOUS
 10
149.9784292936
 20
30.8841730531
 11
149.8628043005
 21
31.0454914852
  0
LINE
  8
0
 62
7
  6
CONTINUOUS
 10
151.0768668626
 20
31.400392081
 11
151.1346793074
 21
31.3036010218
  0
LINE
  8
0
 62
7
  6
CONTINUOUS
 10
151.4237418626
 20
31.3036010218
 11
151.3659292523
 21
31.4326557675
  0
LINE
  8
0
 62
7
  6
CONTINUOUS
 10
152.852430332
 20
36.1675703219
 11
152.852430332
 21
34.3642916334
  0
LINE
  8
0
 62
7
  6
CONTINUOUS
 10
152.852430332
 20
33.0528162235
 11
152.852430332
 21
32.3970785186
  0
LINE
  8
0
 62
7
  6
CONTINUOUS
 10
153.2159293074
 20
31.2390736489
 11
153.2159293074
 21
30.5937998301
  0
LINE
  8
0
 62
7
  6
CONTINUOUS
 10
153.5049916972
 20
30.5937998301
 11
153.5049916972
 21
31.2390736489
  0
LINE
  8
0
 62
7
  6
CONTINUOUS
 10
149.8628043005
 20
31.1422825445
 11
149.9206168074
 21
31.2713373354
  0
LINE
  8
0
 62
7
  6
CONTINUOUS
 10
149.6315543091
 20
30.9164367395
 11
149.7471793074
 21
30.7873819712
  0
LINE
  8
0
 62
7
  6
CONTINUOUS
 10
153.1581166972
 20
31.3681283946
 11
153.2159293074
 21
31.2390736489
  0
LINE
  8
0
 62
7
  6
CONTINUOUS
 10
153.9674919177
 20
30.8841730531
 11
154.0253041972
 21
30.7551182848
  0
LINE
  8
0
 62
7
  6
CONTINUOUS
 10
153.5049916972
 20
31.2390736489
 11
153.4471794177
 21
31.400392081
  0
LINE
  8
0
 62
7
  6
CONTINUOUS
 10
153.9674919177
 20
31.4326557675
 11
153.9674919177
 21
31.3681283946
  0
LINE
  8
0
 62
7
  6
CONTINUOUS
 10
153.9674919177
 20
30.9809641124
 11
153.9674919177
 21
30.8841730531
  0
LINE
  8
0
 62
7
  6
CONTINUOUS
 10
154.245872955
 20
32.3970785186
 11
154.245872955
 21
36.1675703219
  0
LINE
  8
0
 62
7
  6
CONTINUOUS
 10
154.2565543074
 20
30.8519093441
 11
154.2565543074
 21
30.9164367395
  0
LINE
  8
0
 62
7
  6
CONTINUOUS
 10
154.5737418074
 20
36.1675703219
 11
154.5737418074
 21
32.3970785186
  0
LINE
  8
0
 62
7
  6
CONTINUOUS
 10
151.3659292523
 20
30.7873819712
 11
151.4237418626
 21
30.9164367395
  0
LINE
  8
0
 62
7
  6
CONTINUOUS
 10
155.759679528
 20
30.6905909007
 11
155.7018665869
 21
30.8519093441
  0
LINE
  8
0
 62
7
  6
CONTINUOUS
 10
155.412804528
 20
31.3681283946
 11
155.412804528
 21
31.2713373354
  0
LINE
  8
0
 62
7
  6
CONTINUOUS
 10
155.412804528
 20
31.1422825445
 11
155.412804528
 21
30.9487004259
  0
LINE
  8
0
 62
7
  6
CONTINUOUS
 10
155.7018665869
 20
30.8519093441
 11
155.7018665869
 21
31.3681283946
  0
LINE
  8
0
 62
7
  6
CONTINUOUS
 10
155.9671844304
 20
32.3970785186
 11
155.9671844304
 21
34.2003572071
  0
LINE
  8
0
 62
7
  6
CONTINUOUS
 10
155.9671844304
 20
35.511832617
 11
155.9671844304
 21
36.1675703219
  0
LINE
  8
0
 62
7
  6
CONTINUOUS
 10
156.279992028
 20
32.1101932727
 11
156.279992028
 21
31.9488748406
  0
LINE
  8
0
 62
7
  6
CONTINUOUS
 10
156.279992028
 20
31.626237886
 11
156.279992028
 21
30.5937998301
  0
LINE
  8
0
 62
7
  6
CONTINUOUS
 10
156.5690540869
 20
30.5937998301
 11
156.5690540869
 21
31.626237886
  0
LINE
  8
0
 62
7
  6
CONTINUOUS
 10
156.5690540869
 20
31.9488748406
 11
156.5690540869
 21
32.1101932727
  0
LINE
  8
0
 62
7
  6
CONTINUOUS
 10
151.1346793074
 20
30.9164367395
 11
151.0768668626
 21
30.8196456577
  0
LINE
  8
0
 62
7
  6
CONTINUOUS
 10
153.4471794177
 20
31.400392081
 11
153.3893668074
 21
31.4649194539
  0
LINE
  8
0
 62
7
  6
CONTINUOUS
 10
154.3143669177
 20
30.7873819712
 11
154.2565543074
 21
30.8519093441
  0
LINE
  8
0
 62
7
  6
CONTINUOUS
 10
155.4706168074
 20
30.6583272086
 11
155.5284290869
 21
30.5937998301
  0
LINE
  8
0
 62
7
  6
CONTINUOUS
 10
155.412804528
 20
30.7551182848
 11
155.4706168074
 21
30.6583272086
  0
LINE
  8
0
 62
7
  6
CONTINUOUS
 10
155.8174918074
 20
30.5937998301
 11
155.759679528
 21
30.6905909007
  0
LINE
  8
0
 62
7
  6
CONTINUOUS
 10
155.7018665869
 20
31.3681283946
 11
155.6440543074
 21
31.4649194539
  0
LINE
  8
0
 62
7
  6
CONTINUOUS
 10
157.0315543074
 20
31.626237886
 11
157.0315543074
 21
30.5937998301
  0
LINE
  8
0
 62
7
  6
CONTINUOUS
 10
157.320617028
 20
30.5937998301
 11
157.320617028
 21
31.3358647082
  0
LINE
  8
0
 62
7
  6
CONTINUOUS
 10
157.320617028
 20
31.4649194539
 11
157.320617028
 21
31.626237886
  0
LINE
  8
0
 62
7
  6
CONTINUOUS
 10
157.852430332
 20
34.6101932727
 11
157.852430332
 21
32.3970785186
  0
LINE
  8
0
 62
7
  6
CONTINUOUS
 10
149.7471793074
 20
31.4326557675
 11
149.6315543091
 21
31.3036010218
  0
LINE
  8
0
 62
7
  6
CONTINUOUS
 10
149.9206168074
 20
31.2713373354
 11
149.9784292936
 21
31.3358647082
  0
LINE
  8
0
 62
7
  6
CONTINUOUS
 10
149.7471793074
 20
30.7873819712
 11
149.8628043005
 21
30.7228545871
  0
LINE
  8
0
 62
7
  6
CONTINUOUS
 10
150.1518667936
 20
30.7873819712
 11
149.9784292936
 21
30.8841730531
  0
LINE
  8
0
 62
7
  6
CONTINUOUS
 10
155.3549915869
 20
31.4326557675
 11
155.412804528
 21
31.3681283946
  0
LINE
  8
0
 62
7
  6
CONTINUOUS
 10
158.3034290869
 20
31.3681283946
 11
158.361242028
 21
31.2068099625
  0
LINE
  8
0
 62
7
  6
CONTINUOUS
 10
158.6503040869
 20
31.2068099625
 11
158.5924918074
 21
31.3681283946
  0
LINE
  8
0
 62
7
  6
CONTINUOUS
 10
158.361242028
 20
31.2068099625
 11
158.361242028
 21
30.5937998301
  0
LINE
  8
0
 62
7
  6
CONTINUOUS
 10
158.6503040869
 20
30.5937998301
 11
158.6503040869
 21
31.2068099625
  0
LINE
  8
0
 62
7
  6
CONTINUOUS
 10
159.1128043074
 20
31.4326557675
 11
159.1128043074
 21
31.3681283946
  0
LINE
  8
0
 62
7
  6
CONTINUOUS
 10
159.245872955
 20
32.3970785186
 11
159.245872955
 21
34.5282260596
  0
LINE
  8
0
 62
7
  6
CONTINUOUS
 10
159.5737418074
 20
36.1675703219
 11
159.5737418074
 21
32.3970785186
  0
LINE
  8
0
 62
7
  6
CONTINUOUS
 10
154.2565543074
 20
30.9164367395
 11
154.3143669177
 21
31.0132277988
  0
LINE
  8
0
 62
7
  6
CONTINUOUS
 10
149.8628043005
 20
30.7228545871
 11
150.0362418212
 21
30.6583272086
  0
LINE
  8
0
 62
7
  6
CONTINUOUS
 10
151.3659292523
 20
31.4326557675
 11
151.1924917523
 21
31.5294468267
  0
LINE
  8
0
 62
7
  6
CONTINUOUS
 10
154.0253041972
 20
30.7551182848
 11
154.1987416972
 21
30.6583272086
  0
LINE
  8
0
 62
7
  6
CONTINUOUS
 10
153.0424918074
 20
31.4326557675
 11
153.1581166972
 21
31.3681283946
  0
LINE
  8
0
 62
7
  6
CONTINUOUS
 10
153.3893668074
 20
31.4649194539
 11
153.2737419177
 21
31.5294468267
  0
LINE
  8
0
 62
7
  6
CONTINUOUS
 10
159.1128043074
 20
30.8519093441
 11
159.228429528
 21
30.7228545871
  0
LINE
  8
0
 62
7
  6
CONTINUOUS
 10
159.4596793074
 20
30.7873819712
 11
159.401867028
 21
30.8519093441
  0
LINE
  8
0
 62
7
  6
CONTINUOUS
 10
159.1128043074
 20
31.3681283946
 11
159.228429528
 21
31.2390736489
  0
LINE
  8
0
 62
7
  6
CONTINUOUS
 10
158.5924918074
 20
31.3681283946
 11
158.534679528
 21
31.4649194539
  0
LINE
  8
0
 62
7
  6
CONTINUOUS
 10
160.9628038663
 20
30.7873819712
 11
160.9628038663
 21
30.8519093441
  0
LINE
  8
0
 62
7
  6
CONTINUOUS
 10
160.9671844304
 20
32.3970785186
 11
160.9671844304
 21
36.1675703219
  0
LINE
  8
0
 62
7
  6
CONTINUOUS
 10
154.0253041972
 20
31.4971831403
 11
153.9674919177
 21
31.4326557675
  0
LINE
  8
0
 62
7
  6
CONTINUOUS
 10
150.9034292799
 20
31.4649194539
 11
151.0768668626
 21
31.400392081
  0
LINE
  8
0
 62
7
  6
CONTINUOUS
 10
155.6440543074
 20
31.4649194539
 11
155.5284290869
 21
31.5294468267
  0
LINE
  8
0
 62
7
  6
CONTINUOUS
 10
159.4596793074
 20
31.3036010218
 11
159.401867028
 21
31.3681283946
  0
LINE
  8
0
 62
7
  6
CONTINUOUS
 10
160.615929528
 20
30.9164367395
 11
160.6737418074
 21
30.8519093441
  0
LINE
  8
0
 62
7
  6
CONTINUOUS
 10
160.9628038663
 20
30.8519093441
 11
160.8471793074
 21
30.9809641124
  0
LINE
  8
0
 62
7
  6
CONTINUOUS
 10
160.615929528
 20
31.4326557675
 11
160.6737418074
 21
31.3681283946
  0
LINE
  8
0
 62
7
  6
CONTINUOUS
 10
160.9628038663
 20
31.3681283946
 11
160.8471793074
 21
31.4971831403
  0
LINE
  8
0
 62
7
  6
CONTINUOUS
 10
154.2565543074
 20
31.3681283946
 11
154.3143669177
 21
31.4326557675
  0
LINE
  8
0
 62
7
  6
CONTINUOUS
 10
154.0831168074
 20
31.1100188581
 11
153.9674919177
 21
30.9809641124
  0
LINE
  8
0
 62
7
  6
CONTINUOUS
 10
155.412804528
 20
30.9487004259
 11
155.3549915869
 21
30.8841730531
  0
LINE
  8
0
 62
7
  6
CONTINUOUS
 10
155.3549915869
 20
30.6905909007
 11
155.412804528
 21
30.7551182848
  0
LINE
  8
0
 62
7
  6
CONTINUOUS
 10
154.1987416972
 20
30.6583272086
 11
154.3143669177
 21
30.6260635193
  0
LINE
  8
0
 62
7
  6
CONTINUOUS
 10
151.1924917523
 20
31.5294468267
 11
150.9612418074
 21
31.5939741996
  0
LINE
  8
0
 62
7
  6
CONTINUOUS
 10
154.5456166972
 20
30.7228545871
 11
154.3143669177
 21
30.7873819712
  0
LINE
  8
0
 62
7
  6
CONTINUOUS
 10
153.2737419177
 20
31.5294468267
 11
153.1003044177
 21
31.5939741996
  0
LINE
  8
0
 62
7
  6
CONTINUOUS
 10
155.5284290869
 20
31.5294468267
 11
155.3549915869
 21
31.5939741996
  0
LINE
  8
0
 62
7
  6
CONTINUOUS
 10
158.187804528
 20
31.4326557675
 11
158.3034290869
 21
31.3681283946
  0
LINE
  8
0
 62
7
  6
CONTINUOUS
 10
158.534679528
 20
31.4649194539
 11
158.4190543074
 21
31.5294468267
  0
LINE
  8
0
 62
7
  6
CONTINUOUS
 10
150.0362418212
 20
30.6583272086
 11
150.2096793212
 21
30.6260635193
  0
LINE
  8
0
 62
7
  6
CONTINUOUS
 10
150.498741835
 20
30.7228545871
 11
150.1518667936
 21
30.7873819712
  0
LINE
  8
0
 62
7
  6
CONTINUOUS
 10
152.9268669177
 20
31.4649194539
 11
153.0424918074
 21
31.4326557675
  0
LINE
  8
0
 62
7
  6
CONTINUOUS
 10
155.239367028
 20
31.4649194539
 11
155.3549915869
 21
31.4326557675
  0
LINE
  8
0
 62
7
  6
CONTINUOUS
 10
159.575304528
 20
30.7551182848
 11
159.4596793074
 21
30.7873819712
  0
LINE
  8
0
 62
7
  6
CONTINUOUS
 10
158.0721793074
 20
31.4649194539
 11
158.187804528
 21
31.4326557675
  0
LINE
  8
0
 62
7
  6
CONTINUOUS
 10
159.228429528
 20
30.7228545871
 11
159.401867028
 21
30.6583272086
  0
LINE
  8
0
 62
7
  6
CONTINUOUS
 10
158.4190543074
 20
31.5294468267
 11
158.2456168074
 21
31.5939741996
  0
LINE
  8
0
 62
7
  6
CONTINUOUS
 10
159.6331168074
 20
31.2390736489
 11
159.4596793074
 21
31.3036010218
  0
LINE
  8
0
 62
7
  6
CONTINUOUS
 10
160.442492028
 20
30.9809641124
 11
160.615929528
 21
30.9164367395
  0
LINE
  8
0
 62
7
  6
CONTINUOUS
 10
160.8471793074
 20
31.4971831403
 11
160.6737418074
 21
31.5617105132
  0
LINE
  8
0
 62
7
  6
CONTINUOUS
 10
159.228429528
 20
31.2390736489
 11
159.4596793074
 21
31.1422825445
  0
LINE
  8
0
 62
7
  6
CONTINUOUS
 10
160.8471793074
 20
30.9809641124
 11
160.615929528
 21
31.0777551716
  0
LINE
  8
0
 62
7
  6
CONTINUOUS
 10
159.401867028
 20
31.3681283946
 11
159.4596793074
 21
31.4326557675
  0
LINE
  8
0
 62
7
  6
CONTINUOUS
 10
149.8628043005
 20
31.4971831403
 11
149.7471793074
 21
31.4326557675
  0
LINE
  8
0
 62
7
  6
CONTINUOUS
 10
149.9784292936
 20
31.3358647082
 11
150.1518667936
 21
31.4326557675
  0
LINE
  8
0
 62
7
  6
CONTINUOUS
 10
152.2909293626
 20
31.5294468267
 11
152.1753043074
 21
31.4649194539
  0
LINE
  8
0
 62
7
  6
CONTINUOUS
 10
152.1753043074
 20
31.3358647082
 11
152.2909293626
 21
31.400392081
  0
LINE
  8
0
 62
7
  6
CONTINUOUS
 10
151.1924917523
 20
30.6905909007
 11
151.3659292523
 21
30.7873819712
  0
LINE
  8
0
 62
7
  6
CONTINUOUS
 10
150.2096793212
 20
30.6260635193
 11
150.5565542799
 21
30.5937998301
  0
LINE
  8
0
 62
7
  6
CONTINUOUS
 10
154.3143669177
 20
30.6260635193
 11
154.5456166972
 21
30.5937998301
  0
LINE
  8
0
 62
7
  6
CONTINUOUS
 10
152.6956168074
 20
31.4971831403
 11
152.9268669177
 21
31.4649194539
  0
LINE
  8
0
 62
7
  6
CONTINUOUS
 10
155.0081169177
 20
31.4971831403
 11
155.239367028
 21
31.4649194539
  0
LINE
  8
0
 62
7
  6
CONTINUOUS
 10
159.4596793074
 20
31.1422825445
 11
160.442492028
 21
30.9809641124
  0
LINE
  8
0
 62
7
  6
CONTINUOUS
 10
160.615929528
 20
31.0777551716
 11
159.6331168074
 21
31.2390736489
  0
LINE
  8
0
 62
7
  6
CONTINUOUS
 10
153.1003044177
 20
31.5939741996
 11
152.9268669177
 21
31.626237886
  0
LINE
  8
0
 62
7
  6
CONTINUOUS
 10
159.401867028
 20
30.6583272086
 11
159.575304528
 21
30.6260635193
  0
LINE
  8
0
 62
7
  6
CONTINUOUS
 10
158.2456168074
 20
31.5939741996
 11
158.0721793074
 21
31.626237886
  0
LINE
  8
0
 62
7
  6
CONTINUOUS
 10
160.5003043074
 20
31.4649194539
 11
160.615929528
 21
31.4326557675
  0
LINE
  8
0
 62
7
  6
CONTINUOUS
 10
160.6737418074
 20
30.8519093441
 11
160.615929528
 21
30.7873819712
  0
LINE
  8
0
 62
7
  6
CONTINUOUS
 10
159.228429528
 20
31.5294468267
 11
159.1128043074
 21
31.4326557675
  0
LINE
  8
0
 62
7
  6
CONTINUOUS
 10
154.1409294177
 20
31.5617105132
 11
154.0253041972
 21
31.4971831403
  0
LINE
  8
0
 62
7
  6
CONTINUOUS
 10
154.1987416972
 20
31.1745462761
 11
154.0831168074
 21
31.1100188581
  0
LINE
  8
0
 62
7
  6
CONTINUOUS
 10
154.3143669177
 20
31.0132277988
 11
154.4299918074
 21
31.0777551716
  0
LINE
  8
0
 62
7
  6
CONTINUOUS
 10
151.8862417523
 20
30.5937998301
 11
152.1753043074
 21
30.5937998301
  0
LINE
  8
0
 62
7
  6
CONTINUOUS
 10
153.2159293074
 20
30.5937998301
 11
153.5049916972
 21
30.5937998301
  0
LINE
  8
0
 62
7
  6
CONTINUOUS
 10
154.5456166972
 20
30.5937998301
 11
154.8924916972
 21
30.5937998301
  0
LINE
  8
0
 62
7
  6
CONTINUOUS
 10
155.5284290869
 20
30.5937998301
 11
155.8174918074
 21
30.5937998301
  0
LINE
  8
0
 62
7
  6
CONTINUOUS
 10
156.279992028
 20
30.5937998301
 11
156.5690540869
 21
30.5937998301
  0
LINE
  8
0
 62
7
  6
CONTINUOUS
 10
157.0315543074
 20
30.5937998301
 11
157.320617028
 21
30.5937998301
  0
LINE
  8
0
 62
7
  6
CONTINUOUS
 10
158.361242028
 20
30.5937998301
 11
158.6503040869
 21
30.5937998301
  0
LINE
  8
0
 62
7
  6
CONTINUOUS
 10
159.922179528
 20
30.5937998301
 11
160.269054528
 21
30.5937998301
  0
LINE
  8
0
 62
7
  6
CONTINUOUS
 10
160.269054528
 20
30.7228545871
 11
159.922179528
 21
30.7228545871
  0
LINE
  8
0
 62
7
  6
CONTINUOUS
 10
154.8924916972
 20
30.7228545871
 11
154.5456166972
 21
30.7228545871
  0
LINE
  8
0
 62
7
  6
CONTINUOUS
 10
159.401867028
 20
30.8519093441
 11
159.1128043074
 21
30.8519093441
  0
LINE
  8
0
 62
7
  6
CONTINUOUS
 10
151.4237418626
 20
30.9164367395
 11
151.1346793074
 21
30.9164367395
  0
LINE
  8
0
 62
7
  6
CONTINUOUS
 10
150.498741835
 20
31.4971831403
 11
150.9034292799
 21
31.4649194539
  0
LINE
  8
0
 62
7
  6
CONTINUOUS
 10
150.9612418074
 20
31.5939741996
 11
150.5565542799
 21
31.626237886
  0
LINE
  8
0
 62
7
  6
CONTINUOUS
 10
159.575304528
 20
30.6260635193
 11
159.922179528
 21
30.5937998301
  0
LINE
  8
0
 62
7
  6
CONTINUOUS
 10
159.922179528
 20
30.7228545871
 11
159.575304528
 21
30.7551182848
  0
LINE
  8
0
 62
7
  6
CONTINUOUS
 10
155.3549915869
 20
31.5939741996
 11
155.0081169177
 21
31.626237886
  0
LINE
  8
0
 62
7
  6
CONTINUOUS
 10
160.1534293074
 20
31.4971831403
 11
160.5003043074
 21
31.4649194539
  0
LINE
  8
0
 62
7
  6
CONTINUOUS
 10
160.5003043074
 20
31.5939741996
 11
160.1534293074
 21
31.626237886
  0
LINE
  8
0
 62
7
  6
CONTINUOUS
 10
157.840929528
 20
31.4971831403
 11
158.0721793074
 21
31.4649194539
  0
LINE
  8
0
 62
7
  6
CONTINUOUS
 10
160.6737418074
 20
31.5617105132
 11
160.5003043074
 21
31.5939741996
  0
LINE
  8
0
 62
7
  6
CONTINUOUS
 10
160.8471793074
 20
30.6905909007
 11
160.9628038663
 21
30.7873819712
  0
LINE
  8
0
 62
7
  6
CONTINUOUS
 10
155.3549915869
 20
30.8841730531
 11
155.1815540869
 21
30.7873819712
  0
LINE
  8
0
 62
7
  6
CONTINUOUS
 10
157.4362415869
 20
31.5294468267
 11
157.320617028
 21
31.4649194539
  0
LINE
  8
0
 62
7
  6
CONTINUOUS
 10
157.320617028
 20
31.3358647082
 11
157.4362415869
 21
31.400392081
  0
LINE
  8
0
 62
7
  6
CONTINUOUS
 10
150.0362418212
 20
31.5617105132
 11
149.8628043005
 21
31.4971831403
  0
LINE
  8
0
 62
7
  6
CONTINUOUS
 10
152.4643666972
 20
31.5939741996
 11
152.2909293626
 21
31.5294468267
  0
LINE
  8
0
 62
7
  6
CONTINUOUS
 10
152.2909293626
 20
31.400392081
 11
152.4643666972
 21
31.4649194539
  0
LINE
  8
0
 62
7
  6
CONTINUOUS
 10
151.0768668626
 20
30.8196456577
 11
150.9034292799
 21
30.7551182848
  0
LINE
  8
0
 62
7
  6
CONTINUOUS
 10
160.5003043074
 20
30.7551182848
 11
160.269054528
 21
30.7228545871
  0
LINE
  8
0
 62
7
  6
CONTINUOUS
 10
154.8924916972
 20
30.5937998301
 11
155.1815540869
 21
30.6260635193
  0
LINE
  8
0
 62
7
  6
CONTINUOUS
 10
160.269054528
 20
30.5937998301
 11
160.615929528
 21
30.6260635193
  0
LINE
  8
0
 62
7
  6
CONTINUOUS
 10
150.5565542799
 20
30.5937998301
 11
150.9612418074
 21
30.6260635193
  0
LINE
  8
0
 62
7
  6
CONTINUOUS
 10
150.9034292799
 20
30.7551182848
 11
150.498741835
 21
30.7228545871
  0
LINE
  8
0
 62
7
  6
CONTINUOUS
 10
154.7768668074
 20
31.1422825445
 11
155.412804528
 21
31.1422825445
  0
LINE
  8
0
 62
7
  6
CONTINUOUS
 10
155.412804528
 20
31.2713373354
 11
154.7768668074
 21
31.2713373354
  0
LINE
  8
0
 62
7
  6
CONTINUOUS
 10
151.1346793074
 20
31.3036010218
 11
151.4237418626
 21
31.3036010218
  0
LINE
  8
0
 62
7
  6
CONTINUOUS
 10
153.9674919177
 20
31.3681283946
 11
154.2565543074
 21
31.3681283946
  0
LINE
  8
0
 62
7
  6
CONTINUOUS
 10
160.6737418074
 20
31.3681283946
 11
160.9628038663
 21
31.3681283946
  0
LINE
  8
0
 62
7
  6
CONTINUOUS
 10
154.6612419177
 20
31.4971831403
 11
155.0081169177
 21
31.4971831403
  0
LINE
  8
0
 62
7
  6
CONTINUOUS
 10
159.8065543074
 20
31.4971831403
 11
160.1534293074
 21
31.4971831403
  0
LINE
  8
0
 62
7
  6
CONTINUOUS
 10
160.1534293074
 20
31.626237886
 11
159.8065543074
 21
31.626237886
  0
LINE
  8
0
 62
7
  6
CONTINUOUS
 10
158.0721793074
 20
31.626237886
 11
157.840929528
 21
31.626237886
  0
LINE
  8
0
 62
7
  6
CONTINUOUS
 10
157.320617028
 20
31.626237886
 11
157.0315543074
 21
31.626237886
  0
LINE
  8
0
 62
7
  6
CONTINUOUS
 10
156.5690540869
 20
31.626237886
 11
156.279992028
 21
31.626237886
  0
LINE
  8
0
 62
7
  6
CONTINUOUS
 10
155.0081169177
 20
31.626237886
 11
154.6612419177
 21
31.626237886
  0
LINE
  8
0
 62
7
  6
CONTINUOUS
 10
152.9268669177
 20
31.626237886
 11
152.6956168074
 21
31.626237886
  0
LINE
  8
0
 62
7
  6
CONTINUOUS
 10
156.279992028
 20
31.9488748406
 11
156.5690540869
 21
31.9488748406
  0
LINE
  8
0
 62
7
  6
CONTINUOUS
 10
156.5690540869
 20
32.1101932727
 11
156.279992028
 21
32.1101932727
  0
LINE
  8
0
 62
7
  6
CONTINUOUS
 10
152.1753043074
 20
32.1101932727
 11
151.8862417523
 21
32.1101932727
  0
LINE
  8
0
 62
7
  6
CONTINUOUS
 10
151.2130860697
 20
32.3970785186
 11
151.6256574183
 21
32.3970785186
  0
LINE
  8
0
 62
7
  6
CONTINUOUS
 10
152.852430332
 20
32.3970785186
 11
154.245872955
 21
32.3970785186
  0
LINE
  8
0
 62
7
  6
CONTINUOUS
 10
154.5737418074
 20
32.3970785186
 11
155.9671844304
 21
32.3970785186
  0
LINE
  8
0
 62
7
  6
CONTINUOUS
 10
157.852430332
 20
32.3970785186
 11
159.245872955
 21
32.3970785186
  0
LINE
  8
0
 62
7
  6
CONTINUOUS
 10
159.5737418074
 20
32.3970785186
 11
160.9671844304
 21
32.3970785186
  0
LINE
  8
0
 62
7
  6
CONTINUOUS
 10
157.6096790869
 20
31.5939741996
 11
157.4362415869
 21
31.5294468267
  0
LINE
  8
0
 62
7
  6
CONTINUOUS
 10
155.1815540869
 20
30.6260635193
 11
155.3549915869
 21
30.6905909007
  0
LINE
  8
0
 62
7
  6
CONTINUOUS
 10
160.615929528
 20
30.6260635193
 11
160.8471793074
 21
30.6905909007
  0
LINE
  8
0
 62
7
  6
CONTINUOUS
 10
160.615929528
 20
30.7873819712
 11
160.5003043074
 21
30.7551182848
  0
LINE
  8
0
 62
7
  6
CONTINUOUS
 10
159.575304528
 20
31.4649194539
 11
159.8065543074
 21
31.4971831403
  0
LINE
  8
0
 62
7
  6
CONTINUOUS
 10
157.6096790869
 20
31.4649194539
 11
157.840929528
 21
31.4971831403
  0
LINE
  8
0
 62
7
  6
CONTINUOUS
 10
154.5456166972
 20
31.1100188581
 11
154.7768668074
 21
31.1422825445
  0
LINE
  8
0
 62
7
  6
CONTINUOUS
 10
157.840929528
 20
31.626237886
 11
157.6096790869
 21
31.5939741996
  0
LINE
  8
0
 62
7
  6
CONTINUOUS
 10
154.4299918074
 20
31.4649194539
 11
154.6612419177
 21
31.4971831403
  0
LINE
  8
0
 62
7
  6
CONTINUOUS
 10
159.8065543074
 20
31.626237886
 11
159.4596793074
 21
31.5939741996
  0
LINE
  8
0
 62
7
  6
CONTINUOUS
 10
154.7768668074
 20
31.2713373354
 11
154.4299918074
 21
31.2390736489
  0
LINE
  8
0
 62
7
  6
CONTINUOUS
 10
150.5565542799
 20
31.626237886
 11
150.2096793212
 21
31.5939741996
  0
LINE
  8
0
 62
7
  6
CONTINUOUS
 10
154.6612419177
 20
31.626237886
 11
154.2565543074
 21
31.5939741996
  0
LINE
  8
0
 62
7
  6
CONTINUOUS
 10
152.0327582009
 20
33.5446195022
 11
151.3770204959
 21
33.5446195022
  0
LINE
  8
0
 62
7
  6
CONTINUOUS
 10
157.4362415869
 20
31.400392081
 11
157.6096790869
 21
31.4649194539
  0
LINE
  8
0
 62
7
  6
CONTINUOUS
 10
159.4596793074
 20
31.4326557675
 11
159.575304528
 21
31.4649194539
  0
LINE
  8
0
 62
7
  6
CONTINUOUS
 10
159.4596793074
 20
31.5939741996
 11
159.228429528
 21
31.5294468267
  0
LINE
  8
0
 62
7
  6
CONTINUOUS
 10
155.1815540869
 20
30.7873819712
 11
154.8924916972
 21
30.7228545871
  0
LINE
  8
0
 62
7
  6
CONTINUOUS
 10
152.4643666972
 20
31.4649194539
 11
152.6956168074
 21
31.4971831403
  0
LINE
  8
0
 62
7
  6
CONTINUOUS
 10
152.6956168074
 20
31.626237886
 11
152.4643666972
 21
31.5939741996
  0
LINE
  8
0
 62
7
  6
CONTINUOUS
 10
150.2674918074
 20
31.4649194539
 11
150.498741835
 21
31.4971831403
  0
LINE
  8
0
 62
7
  6
CONTINUOUS
 10
156.7868565615
 20
35.0200293383
 11
157.4425942664
 21
35.0200293383
  0
LINE
  8
0
 62
7
  6
CONTINUOUS
 10
154.4299918074
 20
31.0777551716
 11
154.5456166972
 21
31.1100188581
  0
LINE
  8
0
 62
7
  6
CONTINUOUS
 10
154.4299918074
 20
31.2390736489
 11
154.1987416972
 21
31.1745462761
  0
LINE
  8
0
 62
7
  6
CONTINUOUS
 10
154.3143669177
 20
31.4326557675
 11
154.4299918074
 21
31.4649194539
  0
LINE
  8
0
 62
7
  6
CONTINUOUS
 10
150.9612418074
 20
30.6260635193
 11
151.1924917523
 21
30.6905909007
  0
LINE
  8
0
 62
7
  6
CONTINUOUS
 10
154.2565543074
 20
31.5939741996
 11
154.1409294177
 21
31.5617105132
  0
LINE
  8
0
 62
7
  6
CONTINUOUS
 10
150.2096793212
 20
31.5939741996
 11
150.0362418212
 21
31.5617105132
  0
LINE
  8
0
 62
7
  6
CONTINUOUS
 10
160.9671844304
 20
36.1675703219
 11
159.5737418074
 21
36.1675703219
  0
LINE
  8
0
 62
7
  6
CONTINUOUS
 10
157.6065286927
 20
36.1675703219
 11
157.1939573441
 21
36.1675703219
  0
LINE
  8
0
 62
7
  6
CONTINUOUS
 10
155.9671844304
 20
36.1675703219
 11
154.5737418074
 21
36.1675703219
  0
LINE
  8
0
 62
7
  6
CONTINUOUS
 10
154.245872955
 20
36.1675703219
 11
152.852430332
 21
36.1675703219
  0
LINE
  8
0
 62
7
  6
CONTINUOUS
 10
150.9671844304
 20
36.1675703219
 11
149.5737418074
 21
36.1675703219
  0
LINE
  8
0
 62
7
  6
CONTINUOUS
 10
150.1518667936
 20
31.4326557675
 11
150.2674918074
 21
31.4649194539
  0
CIRCLE
  8
0
 62
7
  6
CONTINUOUS
 10
160.2704631189
 20
38.5036358957
 40
2.0901639344
  0
ARC
  8
0
 62
7
  6
CONTINUOUS
 10
151.2130860697
 20
34.0364227809
 40
1.6393442623
 50
180.0
 51
270.0
  0
ARC
  8
0
 62
7
  6
CONTINUOUS
 10
157.6065286927
 20
34.5282260596
 40
1.6393442623
 50
0.0
 51
90.0
  0
ARC
  8
0
 62
7
  6
CONTINUOUS
 10
151.6256574183
 20
33.8724883547
 40
1.4754098361
 50
270.0
 51
326.2510114041
  0
ARC
  8
0
 62
7
  6
CONTINUOUS
 10
157.1939573441
 20
34.6921604858
 40
1.4754098361
 50
90.0
 51
146.2510114041
  0
ARC
  8
0
 62
7
  6
CONTINUOUS
 10
152.0327582009
 20
34.3642916334
 40
0.8196721311
 50
270.0
 51
360.0
  0
ARC
  8
0
 62
7
  6
CONTINUOUS
 10
156.7868565615
 20
34.2003572071
 40
0.8196721311
 50
90.0
 51
180.0
  0
ARC
  8
0
 62
7
  6
CONTINUOUS
 10
151.3770204959
 20
33.9544555678
 40
0.4098360656
 50
180.0
 51
270.0
  0
ARC
  8
0
 62
7
  6
CONTINUOUS
 10
157.4425942664
 20
34.6101932727
 40
0.4098360656
 50
0.0
 51
90.0
  0
SOLID
  8
0
 62
7
  6
CONTINUOUS
 10
156.279992028
 20
31.9488752009
 11
156.279992028
 21
32.1101936845
 12
156.5690540869
 22
31.9488752009
 13
156.5690540869
 23
32.1101936845
  0
SOLID
  8
0
 62
7
  6
CONTINUOUS
 10
150.5565542799
 20
31.6262382337
 11
150.9612418074
 21
31.5939740028
 12
150.2096793212
 22
31.5939740028
 13
150.2096793212
 23
31.5939740028
  0
SOLID
  8
0
 62
7
  6
CONTINUOUS
 10
150.0362418212
 20
31.5617111435
 11
150.2096793212
 21
31.5939740028
 12
150.9612418074
 22
31.5939740028
 13
150.9612418074
 23
31.5939740028
  0
SOLID
  8
0
 62
7
  6
CONTINUOUS
 10
150.9612418074
 20
31.5939740028
 11
151.1924917523
 21
31.5294468402
 12
150.0362418212
 22
31.5617111435
 13
150.0362418212
 23
31.5617111435
  0
SOLID
  8
0
 62
7
  6
CONTINUOUS
 10
149.8628043005
 20
31.49718259
 11
150.0362418212
 21
31.5617111435
 12
151.1924917523
 22
31.5294468402
 13
151.1924917523
 23
31.5294468402
  0
SOLID
  8
0
 62
7
  6
CONTINUOUS
 10
149.8628043005
 20
31.49718259
 11
151.1924917523
 21
31.5294468402
 12
150.498741835
 22
31.49718259
 13
150.498741835
 23
31.49718259
  0
SOLID
  8
0
 62
7
  6
CONTINUOUS
 10
150.498741835
 20
31.49718259
 11
151.1924917523
 21
31.5294468402
 12
150.9034292799
 22
31.4649197501
 13
150.9034292799
 23
31.4649197501
  0
SOLID
  8
0
 62
7
  6
CONTINUOUS
 10
151.1924917523
 20
31.5294468402
 11
151.3659292523
 21
31.4326554468
 12
150.9034292799
 22
31.4649197501
 13
150.9034292799
 23
31.4649197501
  0
SOLID
  8
0
 62
7
  6
CONTINUOUS
 10
151.0768668626
 20
31.4003926599
 11
150.9034292799
 21
31.4649197501
 12
151.3659292523
 22
31.4326554468
 13
151.3659292523
 23
31.4326554468
  0
SOLID
  8
0
 62
7
  6
CONTINUOUS
 10
151.0768668626
 20
31.4003926599
 11
151.3659292523
 21
31.4326554468
 12
151.1346793074
 22
31.3036013776
 13
151.1346793074
 23
31.3036013776
  0
SOLID
  8
0
 62
7
  6
CONTINUOUS
 10
151.3659292523
 20
31.4326554468
 11
151.4237418626
 21
31.3036013776
 12
151.1346793074
 22
31.3036013776
 13
151.1346793074
 23
31.3036013776
  0
SOLID
  8
0
 62
7
  6
CONTINUOUS
 10
152.4643666972
 20
31.5939739754
 11
152.6956168074
 21
31.6262382787
 12
152.9268669177
 22
31.6262382787
 13
152.9268669177
 23
31.6262382787
  0
SOLID
  8
0
 62
7
  6
CONTINUOUS
 10
152.9268669177
 20
31.6262382787
 11
153.1003044177
 21
31.5939739754
 12
152.4643666972
 22
31.5939739754
 13
152.4643666972
 23
31.5939739754
  0
SOLID
  8
0
 62
7
  6
CONTINUOUS
 10
152.2909293626
 20
31.5294468852
 11
152.4643666972
 21
31.5939739754
 12
153.1003044177
 22
31.5939739754
 13
153.1003044177
 23
31.5939739754
  0
SOLID
  8
0
 62
7
  6
CONTINUOUS
 10
153.1003044177
 20
31.5939739754
 11
153.2737419177
 21
31.5294468852
 12
152.2909293626
 22
31.5294468852
 13
152.2909293626
 23
31.5294468852
  0
SOLID
  8
0
 62
7
  6
CONTINUOUS
 10
153.2737419177
 20
31.5294468852
 11
152.6956168074
 21
31.4971825369
 12
152.2909293626
 22
31.5294468852
 13
152.2909293626
 23
31.5294468852
  0
SOLID
  8
0
 62
7
  6
CONTINUOUS
 10
152.1753043074
 20
31.4649197951
 11
152.2909293626
 21
31.5294468852
 12
152.6956168074
 22
31.4971825369
 13
152.6956168074
 23
31.4971825369
  0
SOLID
  8
0
 62
7
  6
CONTINUOUS
 10
152.6956168074
 20
31.4971825369
 11
152.4643666972
 21
31.4649197951
 12
152.1753043074
 22
31.4649197951
 13
152.1753043074
 23
31.4649197951
  0
SOLID
  8
0
 62
7
  6
CONTINUOUS
 10
152.6956168074
 20
31.4971825369
 11
153.2737419177
 21
31.5294468852
 12
152.9268669177
 22
31.4649197951
 13
152.9268669177
 23
31.4649197951
  0
SOLID
  8
0
 62
7
  6
CONTINUOUS
 10
153.2737419177
 20
31.5294468852
 11
153.3893668074
 21
31.4649197951
 12
152.9268669177
 22
31.4649197951
 13
152.9268669177
 23
31.4649197951
  0
SOLID
  8
0
 62
7
  6
CONTINUOUS
 10
153.0424918074
 20
31.4326554468
 11
152.9268669177
 21
31.4649197951
 12
153.3893668074
 22
31.4649197951
 13
153.3893668074
 23
31.4649197951
  0
SOLID
  8
0
 62
7
  6
CONTINUOUS
 10
153.3893668074
 20
31.4649197951
 11
153.4471794177
 21
31.4003927049
 12
153.0424918074
 22
31.4326554468
 13
153.0424918074
 23
31.4326554468
  0
SOLID
  8
0
 62
7
  6
CONTINUOUS
 10
153.1581166972
 20
31.3681283566
 11
153.0424918074
 21
31.4326554468
 12
153.4471794177
 22
31.4003927049
 13
153.4471794177
 23
31.4003927049
  0
SOLID
  8
0
 62
7
  6
CONTINUOUS
 10
153.1581166972
 20
31.3681283566
 11
153.4471794177
 21
31.4003927049
 12
153.2159293074
 22
31.2390742213
 13
153.2159293074
 23
31.2390742213
  0
SOLID
  8
0
 62
7
  6
CONTINUOUS
 10
153.4471794177
 20
31.4003927049
 11
153.5049916972
 21
31.2390742213
 12
153.2159293074
 22
31.2390742213
 13
153.2159293074
 23
31.2390742213
  0
SOLID
  8
0
 62
7
  6
CONTINUOUS
 10
152.4643666972
 20
31.4649197951
 11
152.2909293626
 21
31.4003927049
 12
152.1753043074
 22
31.4649197951
 13
152.1753043074
 23
31.4649197951
  0
SOLID
  8
0
 62
7
  6
CONTINUOUS
 10
152.2909293626
 20
31.4003927049
 11
152.1753043074
 21
31.3358640533
 12
152.1753043074
 22
31.4649197951
 13
152.1753043074
 23
31.4649197951
  0
SOLID
  8
0
 62
7
  6
CONTINUOUS
 10
152.1753043074
 20
31.3358640533
 11
151.8862417523
 21
30.5938002869
 12
152.1753043074
 22
31.4649197951
 13
152.1753043074
 23
31.4649197951
  0
SOLID
  8
0
 62
7
  6
CONTINUOUS
 10
152.1753043074
 20
31.4649197951
 11
151.8862417523
 21
30.5938002869
 12
152.1753043074
 22
32.1101937295
 13
152.1753043074
 23
32.1101937295
  0
SOLID
  8
0
 62
7
  6
CONTINUOUS
 10
151.8862417523
 20
30.5938002869
 11
151.8862417523
 21
32.1101937295
 12
152.1753043074
 22
32.1101937295
 13
152.1753043074
 23
32.1101937295
  0
SOLID
  8
0
 62
7
  6
CONTINUOUS
 10
152.1753043074
 20
31.3358640533
 11
152.1753043074
 21
30.5938002869
 12
151.8862417523
 22
30.5938002869
 13
151.8862417523
 23
30.5938002869
  0
SOLID
  8
0
 62
7
  6
CONTINUOUS
 10
153.2159293074
 20
30.5938002869
 11
153.2159293074
 21
31.2390742213
 12
153.5049916972
 22
31.2390742213
 13
153.5049916972
 23
31.2390742213
  0
SOLID
  8
0
 62
7
  6
CONTINUOUS
 10
153.5049916972
 20
31.2390742213
 11
153.5049916972
 21
30.5938002869
 12
153.2159293074
 22
30.5938002869
 13
153.2159293074
 23
30.5938002869
  0
SOLID
  8
0
 62
7
  6
CONTINUOUS
 10
154.2565543074
 20
31.5939738288
 11
154.6612419177
 21
31.6262385959
 12
155.0081169177
 22
31.6262385959
 13
155.0081169177
 23
31.6262385959
  0
SOLID
  8
0
 62
7
  6
CONTINUOUS
 10
155.0081169177
 20
31.6262385959
 11
155.3549915869
 21
31.5939738288
 12
154.2565543074
 22
31.5939738288
 13
154.2565543074
 23
31.5939738288
  0
SOLID
  8
0
 62
7
  6
CONTINUOUS
 10
154.1409294177
 20
31.5617111435
 11
154.2565543074
 21
31.5939738288
 12
155.3549915869
 22
31.5939738288
 13
155.3549915869
 23
31.5939738288
  0
SOLID
  8
0
 62
7
  6
CONTINUOUS
 10
155.3549915869
 20
31.5939738288
 11
155.5284290869
 21
31.5294468402
 12
154.1409294177
 22
31.5617111435
 13
154.1409294177
 23
31.5617111435
  0
SOLID
  8
0
 62
7
  6
CONTINUOUS
 10
154.0253041972
 20
31.4971826249
 11
154.1409294177
 21
31.5617111435
 12
155.5284290869
 22
31.5294468402
 13
155.5284290869
 23
31.5294468402
  0
SOLID
  8
0
 62
7
  6
CONTINUOUS
 10
154.0253041972
 20
31.4971826249
 11
155.5284290869
 21
31.5294468402
 12
154.6612419177
 22
31.4971826249
 13
154.6612419177
 23
31.4971826249
  0
SOLID
  8
0
 62
7
  6
CONTINUOUS
 10
154.6612419177
 20
31.4971826249
 11
155.5284290869
 21
31.5294468402
 12
155.0081169177
 22
31.4971826249
 13
155.0081169177
 23
31.4971826249
  0
SOLID
  8
0
 62
7
  6
CONTINUOUS
 10
155.0081169177
 20
31.4971826249
 11
155.5284290869
 21
31.5294468402
 12
155.239367028
 22
31.4649194065
 13
155.239367028
 23
31.4649194065
  0
SOLID
  8
0
 62
7
  6
CONTINUOUS
 10
155.5284290869
 20
31.5294468402
 11
155.6440543074
 21
31.4649194065
 12
155.239367028
 22
31.4649194065
 13
155.239367028
 23
31.4649194065
  0
SOLID
  8
0
 62
7
  6
CONTINUOUS
 10
153.9674919177
 20
31.4326554138
 11
154.0253041972
 21
31.4971826249
 12
154.6612419177
 22
31.4971826249
 13
154.6612419177
 23
31.4971826249
  0
SOLID
  8
0
 62
7
  6
CONTINUOUS
 10
155.3549915869
 20
31.4326554138
 11
155.239367028
 21
31.4649194065
 12
155.6440543074
 22
31.4649194065
 13
155.6440543074
 23
31.4649194065
  0
SOLID
  8
0
 62
7
  6
CONTINUOUS
 10
155.3549915869
 20
31.4326554138
 11
155.6440543074
 21
31.4649194065
 12
155.412804528
 22
31.3681282026
 13
155.412804528
 23
31.3681282026
  0
SOLID
  8
0
 62
7
  6
CONTINUOUS
 10
155.6440543074
 20
31.4649194065
 11
155.7018665869
 21
31.3681282026
 12
155.412804528
 22
31.3681282026
 13
155.412804528
 23
31.3681282026
  0
SOLID
  8
0
 62
7
  6
CONTINUOUS
 10
155.412804528
 20
31.2713369632
 11
155.412804528
 21
31.3681282026
 12
155.7018665869
 22
31.3681282026
 13
155.7018665869
 23
31.3681282026
  0
SOLID
  8
0
 62
7
  6
CONTINUOUS
 10
155.412804528
 20
31.2713369632
 11
155.7018665869
 21
31.3681282026
 12
155.412804528
 22
31.1422827828
 13
155.412804528
 23
31.1422827828
  0
SOLID
  8
0
 62
7
  6
CONTINUOUS
 10
155.412804528
 20
31.1422827828
 11
155.7018665869
 21
31.3681282026
 12
155.412804528
 22
30.9487004259
 13
155.412804528
 23
30.9487004259
  0
SOLID
  8
0
 62
7
  6
CONTINUOUS
 10
155.7018665869
 20
31.3681282026
 11
155.7018665869
 21
30.8519086025
 12
155.412804528
 22
30.9487004259
 13
155.412804528
 23
30.9487004259
  0
SOLID
  8
0
 62
7
  6
CONTINUOUS
 10
157.6096790869
 20
31.5939736268
 11
157.840929528
 21
31.6262383465
 12
158.0721793074
 22
31.6262383465
 13
158.0721793074
 23
31.6262383465
  0
SOLID
  8
0
 62
7
  6
CONTINUOUS
 10
158.0721793074
 20
31.6262383465
 11
158.2456168074
 21
31.5939736268
 12
157.6096790869
 22
31.5939736268
 13
157.6096790869
 23
31.5939736268
  0
SOLID
  8
0
 62
7
  6
CONTINUOUS
 10
157.4362415869
 20
31.5294472848
 11
157.6096790869
 21
31.5939736268
 12
158.2456168074
 22
31.5939736268
 13
158.2456168074
 23
31.5939736268
  0
SOLID
  8
0
 62
7
  6
CONTINUOUS
 10
158.2456168074
 20
31.5939736268
 11
158.4190543074
 21
31.5294472848
 12
157.4362415869
 22
31.5294472848
 13
157.4362415869
 23
31.5294472848
  0
SOLID
  8
0
 62
7
  6
CONTINUOUS
 10
158.4190543074
 20
31.5294472848
 11
157.840929528
 21
31.4971825369
 12
157.4362415869
 22
31.5294472848
 13
157.4362415869
 23
31.5294472848
  0
SOLID
  8
0
 62
7
  6
CONTINUOUS
 10
157.320617028
 20
31.4649199103
 11
157.4362415869
 21
31.5294472848
 12
157.840929528
 22
31.4971825369
 13
157.840929528
 23
31.4971825369
  0
SOLID
  8
0
 62
7
  6
CONTINUOUS
 10
157.840929528
 20
31.4971825369
 11
157.6096790869
 21
31.4649199103
 12
157.320617028
 22
31.4649199103
 13
157.320617028
 23
31.4649199103
  0
SOLID
  8
0
 62
7
  6
CONTINUOUS
 10
157.840929528
 20
31.4971825369
 11
158.4190543074
 21
31.5294472848
 12
158.0721793074
 22
31.4649199103
 13
158.0721793074
 23
31.4649199103
  0
SOLID
  8
0
 62
7
  6
CONTINUOUS
 10
158.4190543074
 20
31.5294472848
 11
158.534679528
 21
31.4649199103
 12
158.0721793074
 22
31.4649199103
 13
158.0721793074
 23
31.4649199103
  0
SOLID
  8
0
 62
7
  6
CONTINUOUS
 10
158.187804528
 20
31.4326554468
 11
158.0721793074
 21
31.4649199103
 12
158.534679528
 22
31.4649199103
 13
158.534679528
 23
31.4649199103
  0
SOLID
  8
0
 62
7
  6
CONTINUOUS
 10
158.187804528
 20
31.4326554468
 11
158.534679528
 21
31.4649199103
 12
158.3034290869
 22
31.3681288486
 13
158.3034290869
 23
31.3681288486
  0
SOLID
  8
0
 62
7
  6
CONTINUOUS
 10
158.534679528
 20
31.4649199103
 11
158.5924918074
 21
31.3681288486
 12
158.3034290869
 22
31.3681288486
 13
158.3034290869
 23
31.3681288486
  0
SOLID
  8
0
 62
7
  6
CONTINUOUS
 10
158.361242028
 20
31.2068093799
 11
158.3034290869
 21
31.3681288486
 12
158.5924918074
 22
31.3681288486
 13
158.5924918074
 23
31.3681288486
  0
SOLID
  8
0
 62
7
  6
CONTINUOUS
 10
158.5924918074
 20
31.3681288486
 11
158.6503040869
 21
31.2068093799
 12
158.361242028
 22
31.2068093799
 13
158.361242028
 23
31.2068093799
  0
SOLID
  8
0
 62
7
  6
CONTINUOUS
 10
157.6096790869
 20
31.4649199103
 11
157.4362415869
 21
31.4003926599
 12
157.320617028
 22
31.4649199103
 13
157.320617028
 23
31.4649199103
  0
SOLID
  8
0
 62
7
  6
CONTINUOUS
 10
157.4362415869
 20
31.4003926599
 11
157.320617028
 21
31.3358640533
 12
157.320617028
 22
31.4649199103
 13
157.320617028
 23
31.4649199103
  0
SOLID
  8
0
 62
7
  6
CONTINUOUS
 10
157.320617028
 20
31.3358640533
 11
157.0315543074
 21
30.5938003547
 12
157.320617028
 22
31.4649199103
 13
157.320617028
 23
31.4649199103
  0
SOLID
  8
0
 62
7
  6
CONTINUOUS
 10
157.320617028
 20
31.4649199103
 11
157.0315543074
 21
30.5938003547
 12
157.320617028
 22
31.6262383465
 13
157.320617028
 23
31.6262383465
  0
SOLID
  8
0
 62
7
  6
CONTINUOUS
 10
157.0315543074
 20
30.5938003547
 11
157.0315543074
 21
31.6262383465
 12
157.320617028
 22
31.6262383465
 13
157.320617028
 23
31.6262383465
  0
SOLID
  8
0
 62
7
  6
CONTINUOUS
 10
157.320617028
 20
31.3358640533
 11
157.320617028
 21
30.5938003547
 12
157.0315543074
 22
30.5938003547
 13
157.0315543074
 23
30.5938003547
  0
SOLID
  8
0
 62
7
  6
CONTINUOUS
 10
158.361242028
 20
30.5938003547
 11
158.361242028
 21
31.2068093799
 12
158.6503040869
 22
31.2068093799
 13
158.6503040869
 23
31.2068093799
  0
SOLID
  8
0
 62
7
  6
CONTINUOUS
 10
158.6503040869
 20
31.2068093799
 11
158.6503040869
 21
30.5938003547
 12
158.361242028
 22
30.5938003547
 13
158.361242028
 23
30.5938003547
  0
SOLID
  8
0
 62
7
  6
CONTINUOUS
 10
159.4596793074
 20
31.5939739474
 11
159.8065543074
 21
31.6262381969
 12
160.1534293074
 22
31.6262381969
 13
160.1534293074
 23
31.6262381969
  0
SOLID
  8
0
 62
7
  6
CONTINUOUS
 10
160.1534293074
 20
31.6262381969
 11
160.5003043074
 21
31.5939739474
 12
159.4596793074
 22
31.5939739474
 13
159.4596793074
 23
31.5939739474
  0
SOLID
  8
0
 62
7
  6
CONTINUOUS
 10
159.228429528
 20
31.5294468402
 11
159.4596793074
 21
31.5939739474
 12
160.5003043074
 22
31.5939739474
 13
160.5003043074
 23
31.5939739474
  0
SOLID
  8
0
 62
7
  6
CONTINUOUS
 10
159.228429528
 20
31.5294468402
 11
160.5003043074
 21
31.5939739304
 12
160.6737418074
 22
31.5617111435
 13
160.6737418074
 23
31.5617111435
  0
SOLID
  8
0
 62
7
  6
CONTINUOUS
 10
159.228429528
 20
31.5294468402
 11
160.6737418074
 21
31.5617111435
 12
159.8065543074
 22
31.4971825592
 13
159.8065543074
 23
31.4971825592
  0
SOLID
  8
0
 62
7
  6
CONTINUOUS
 10
159.8065543074
 20
31.4971825592
 11
160.6737418074
 21
31.5617111435
 12
160.1534293074
 22
31.4971825592
 13
160.1534293074
 23
31.4971825592
  0
SOLID
  8
0
 62
7
  6
CONTINUOUS
 10
160.6737418074
 20
31.5617111435
 11
160.8471793074
 21
31.4971825592
 12
160.1534293074
 22
31.4971825592
 13
160.1534293074
 23
31.4971825592
  0
SOLID
  8
0
 62
7
  6
CONTINUOUS
 10
160.5003043074
 20
31.4649197501
 11
160.1534293074
 21
31.4971825592
 12
160.8471793074
 22
31.4971825592
 13
160.8471793074
 23
31.4971825592
  0
SOLID
  8
0
 62
7
  6
CONTINUOUS
 10
159.1128043074
 20
31.4326555427
 11
159.228429528
 21
31.5294468402
 12
159.8065543074
 22
31.4971825592
 13
159.8065543074
 23
31.4971825592
  0
SOLID
  8
0
 62
7
  6
CONTINUOUS
 10
160.5003043074
 20
31.4649197501
 11
160.8471793074
 21
31.4971825592
 12
160.615929528
 22
31.4326555427
 13
160.615929528
 23
31.4326555427
  0
SOLID
  8
0
 62
7
  6
CONTINUOUS
 10
160.615929528
 20
31.4326555427
 11
160.8471793074
 21
31.4971825592
 12
160.6737418074
 22
31.3681283005
 13
160.6737418074
 23
31.3681283005
  0
SOLID
  8
0
 62
7
  6
CONTINUOUS
 10
160.8471793074
 20
31.4971825592
 11
160.9628038663
 21
31.3681283005
 12
160.6737418074
 22
31.3681283005
 13
160.6737418074
 23
31.3681283005
  0
SOLID
  8
0
 62
7
  6
CONTINUOUS
 10
150.2674918074
 20
31.4649197501
 11
149.7471793074
 21
31.4326554237
 12
150.498741835
 22
31.4971824493
 13
150.498741835
 23
31.4971824493
  0
SOLID
  8
0
 62
7
  6
CONTINUOUS
 10
149.7471793074
 20
31.4326554237
 11
149.8628043005
 21
31.4971824493
 12
150.498741835
 22
31.4971824493
 13
150.498741835
 23
31.4971824493
  0
SOLID
  8
0
 62
7
  6
CONTINUOUS
 10
150.2674918074
 20
31.4649197501
 11
150.1518667936
 21
31.4326554237
 12
149.7471793074
 22
31.4326554237
 13
149.7471793074
 23
31.4326554237
  0
SOLID
  8
0
 62
7
  6
CONTINUOUS
 10
149.6315543091
 20
31.3036012664
 11
149.7471793074
 21
31.4326554237
 12
150.1518667936
 22
31.4326554237
 13
150.1518667936
 23
31.4326554237
  0
SOLID
  8
0
 62
7
  6
CONTINUOUS
 10
153.9674919177
 20
31.4326554237
 11
154.6612419177
 21
31.4971825369
 12
154.4299918074
 22
31.4649197501
 13
154.4299918074
 23
31.4649197501
  0
SOLID
  8
0
 62
7
  6
CONTINUOUS
 10
154.4299918074
 20
31.4649197501
 11
154.3143669177
 21
31.4326554237
 12
153.9674919177
 22
31.4326554237
 13
153.9674919177
 23
31.4326554237
  0
SOLID
  8
0
 62
7
  6
CONTINUOUS
 10
153.9674919177
 20
31.3681283335
 11
153.9674919177
 21
31.4326554237
 12
154.3143669177
 22
31.4326554237
 13
154.3143669177
 23
31.4326554237
  0
SOLID
  8
0
 62
7
  6
CONTINUOUS
 10
154.3143669177
 20
31.4326554237
 11
154.2565543074
 21
31.3681283335
 12
153.9674919177
 22
31.3681283335
 13
153.9674919177
 23
31.3681283335
  0
SOLID
  8
0
 62
7
  6
CONTINUOUS
 10
159.1128043074
 20
31.4326555528
 11
159.8065543074
 21
31.4971825369
 12
159.575304528
 22
31.4649197501
 13
159.575304528
 23
31.4649197501
  0
SOLID
  8
0
 62
7
  6
CONTINUOUS
 10
159.575304528
 20
31.4649197501
 11
159.4596793074
 21
31.4326555528
 12
159.1128043074
 22
31.4326555528
 13
159.1128043074
 23
31.4326555528
  0
SOLID
  8
0
 62
7
  6
CONTINUOUS
 10
159.1128043074
 20
31.3681284626
 11
159.1128043074
 21
31.4326555528
 12
159.4596793074
 22
31.4326555528
 13
159.4596793074
 23
31.4326555528
  0
SOLID
  8
0
 62
7
  6
CONTINUOUS
 10
159.4596793074
 20
31.4326555528
 11
159.401867028
 21
31.3681284626
 12
159.1128043074
 22
31.3681284626
 13
159.1128043074
 23
31.3681284626
  0
SOLID
  8
0
 62
7
  6
CONTINUOUS
 10
159.228429528
 20
31.2390741763
 11
159.1128043074
 21
31.3681284626
 12
159.401867028
 22
31.3681284626
 13
159.401867028
 23
31.3681284626
  0
SOLID
  8
0
 62
7
  6
CONTINUOUS
 10
149.6315543091
 20
31.3036012664
 11
150.1518667936
 21
31.4326554468
 12
149.9784292936
 22
31.3358640533
 13
149.9784292936
 23
31.3358640533
  0
SOLID
  8
0
 62
7
  6
CONTINUOUS
 10
149.9784292936
 20
31.3358640533
 11
149.9206168074
 21
31.2713369632
 12
149.6315543091
 22
31.3036012664
 13
149.6315543091
 23
31.3036012664
  0
SOLID
  8
0
 62
7
  6
CONTINUOUS
 10
149.5737418074
 20
31.1100184796
 11
149.6315543091
 21
31.3036012664
 12
149.9206168074
 22
31.2713369632
 13
149.9206168074
 23
31.2713369632
  0
SOLID
  8
0
 62
7
  6
CONTINUOUS
 10
154.4299918074
 20
31.2390741763
 11
154.7768668074
 21
31.271336924
 12
155.412804528
 22
31.271336924
 13
155.412804528
 23
31.271336924
  0
SOLID
  8
0
 62
7
  6
CONTINUOUS
 10
154.4299918074
 20
31.2390741763
 11
155.412804528
 21
31.271336924
 12
154.1987416972
 22
31.1745462761
 13
154.1987416972
 23
31.1745462761
  0
SOLID
  8
0
 62
7
  6
CONTINUOUS
 10
154.1987416972
 20
31.1745462761
 11
155.412804528
 21
31.271336924
 12
154.7768668074
 22
31.1422827436
 13
154.7768668074
 23
31.1422827436
  0
SOLID
  8
0
 62
7
  6
CONTINUOUS
 10
155.412804528
 20
31.271336924
 11
155.412804528
 21
31.1422827436
 12
154.7768668074
 22
31.1422827436
 13
154.7768668074
 23
31.1422827436
  0
SOLID
  8
0
 62
7
  6
CONTINUOUS
 10
159.228429528
 20
31.2390745501
 11
159.401867028
 21
31.3681283566
 12
159.4596793074
 22
31.3036012664
 13
159.4596793074
 23
31.3036012664
  0
SOLID
  8
0
 62
7
  6
CONTINUOUS
 10
159.4596793074
 20
31.3036012664
 11
159.6331168074
 21
31.2390745501
 12
159.228429528
 22
31.2390745501
 13
159.228429528
 23
31.2390745501
  0
SOLID
  8
0
 62
7
  6
CONTINUOUS
 10
159.4596793074
 20
31.1422827828
 11
159.228429528
 21
31.2390745501
 12
159.6331168074
 22
31.2390745501
 13
159.6331168074
 23
31.2390745501
  0
SOLID
  8
0
 62
7
  6
CONTINUOUS
 10
159.6331168074
 20
31.2390745501
 11
160.615929528
 21
31.0777556927
 12
159.4596793074
 22
31.1422827828
 13
159.4596793074
 23
31.1422827828
  0
SOLID
  8
0
 62
7
  6
CONTINUOUS
 10
160.442492028
 20
30.9809646623
 11
159.4596793074
 21
31.1422827828
 12
160.615929528
 22
31.0777556927
 13
160.615929528
 23
31.0777556927
  0
SOLID
  8
0
 62
7
  6
CONTINUOUS
 10
160.615929528
 20
31.0777556927
 11
160.8471793074
 21
30.9809646623
 12
160.442492028
 22
30.9809646623
 13
160.442492028
 23
30.9809646623
  0
SOLID
  8
0
 62
7
  6
CONTINUOUS
 10
160.615929528
 20
30.9164372091
 11
160.442492028
 21
30.9809646623
 12
160.8471793074
 22
30.9809646623
 13
160.8471793074
 23
30.9809646623
  0
SOLID
  8
0
 62
7
  6
CONTINUOUS
 10
160.615929528
 20
30.9164372091
 11
160.8471793074
 21
30.9809646623
 12
160.6737418074
 22
30.8519089441
 13
160.6737418074
 23
30.8519089441
  0
SOLID
  8
0
 62
7
  6
CONTINUOUS
 10
160.8471793074
 20
30.9809646623
 11
160.9628038663
 21
30.8519089441
 12
160.6737418074
 22
30.8519089441
 13
160.6737418074
 23
30.8519089441
  0
SOLID
  8
0
 62
7
  6
CONTINUOUS
 10
160.615929528
 20
30.7873818593
 11
160.6737418074
 21
30.8519089441
 12
160.9628038663
 22
30.8519089441
 13
160.9628038663
 23
30.8519089441
  0
SOLID
  8
0
 62
7
  6
CONTINUOUS
 10
160.9628038663
 20
30.8519089441
 11
160.9628038663
 21
30.7873818593
 12
160.615929528
 22
30.7873818593
 13
160.615929528
 23
30.7873818593
  0
SOLID
  8
0
 62
7
  6
CONTINUOUS
 10
160.5003043074
 20
30.7551187255
 11
160.615929528
 21
30.7873818593
 12
160.9628038663
 22
30.7873818593
 13
160.9628038663
 23
30.7873818593
  0
SOLID
  8
0
 62
7
  6
CONTINUOUS
 10
160.5003043074
 20
30.7551187255
 11
160.9628038663
 21
30.7873818593
 12
160.269054528
 22
30.7228547745
 13
160.269054528
 23
30.7228547745
  0
SOLID
  8
0
 62
7
  6
CONTINUOUS
 10
160.9628038663
 20
30.7873818593
 11
160.8471793074
 21
30.6905916353
 12
160.269054528
 22
30.7228547745
 13
160.269054528
 23
30.7228547745
  0
SOLID
  8
0
 62
7
  6
CONTINUOUS
 10
160.8471793074
 20
30.6905916353
 11
159.401867028
 21
30.658327332
 12
160.269054528
 22
30.7228547745
 13
160.269054528
 23
30.7228547745
  0
SOLID
  8
0
 62
7
  6
CONTINUOUS
 10
160.269054528
 20
30.7228547745
 11
159.401867028
 21
30.658327332
 12
159.922179528
 22
30.7228547745
 13
159.922179528
 23
30.7228547745
  0
SOLID
  8
0
 62
7
  6
CONTINUOUS
 10
159.401867028
 20
30.658327332
 11
159.228429528
 21
30.7228547745
 12
159.922179528
 22
30.7228547745
 13
159.922179528
 23
30.7228547745
  0
SOLID
  8
0
 62
7
  6
CONTINUOUS
 10
159.401867028
 20
30.658327332
 11
160.8471793074
 21
30.6905916353
 12
159.575304528
 22
30.6260629858
 13
159.575304528
 23
30.6260629858
  0
SOLID
  8
0
 62
7
  6
CONTINUOUS
 10
160.8471793074
 20
30.6905916353
 11
160.615929528
 21
30.6260629858
 12
159.575304528
 22
30.6260629858
 13
159.575304528
 23
30.6260629858
  0
SOLID
  8
0
 62
7
  6
CONTINUOUS
 10
159.922179528
 20
30.5938006049
 11
159.575304528
 21
30.6260629858
 12
160.615929528
 22
30.6260629858
 13
160.615929528
 23
30.6260629858
  0
SOLID
  8
0
 62
7
  6
CONTINUOUS
 10
160.615929528
 20
30.6260629858
 11
160.269054528
 21
30.5938006049
 12
159.922179528
 22
30.5938006049
 13
159.922179528
 23
30.5938006049
  0
SOLID
  8
0
 62
7
  6
CONTINUOUS
 10
149.5737418074
 20
31.1100184796
 11
149.9206168074
 21
31.2713369632
 12
149.8628043005
 22
31.1422827828
 13
149.8628043005
 23
31.1422827828
  0
SOLID
  8
0
 62
7
  6
CONTINUOUS
 10
149.8628043005
 20
31.1422827828
 11
149.8628043005
 21
31.0454914852
 12
149.5737418074
 22
31.1100184796
 13
149.5737418074
 23
31.1100184796
  0
SOLID
  8
0
 62
7
  6
CONTINUOUS
 10
149.6315543091
 20
30.9164372091
 11
149.5737418074
 21
31.1100184796
 12
149.8628043005
 22
31.0454914852
 13
149.8628043005
 23
31.0454914852
  0
SOLID
  8
0
 62
7
  6
CONTINUOUS
 10
149.8628043005
 20
31.0454914852
 11
149.9784292936
 21
30.8841729058
 12
149.6315543091
 22
30.9164372091
 13
149.6315543091
 23
30.9164372091
  0
SOLID
  8
0
 62
7
  6
CONTINUOUS
 10
149.7471793074
 20
30.7873813202
 11
149.6315543091
 21
30.9164372091
 12
149.9784292936
 22
30.8841729058
 13
149.9784292936
 23
30.8841729058
  0
SOLID
  8
0
 62
7
  6
CONTINUOUS
 10
149.9784292936
 20
30.8841729058
 11
150.1518667936
 21
30.7873813202
 12
149.7471793074
 22
30.7873813202
 13
149.7471793074
 23
30.7873813202
  0
SOLID
  8
0
 62
7
  6
CONTINUOUS
 10
149.8628043005
 20
30.7228547004
 11
149.7471793074
 21
30.7873813202
 12
150.1518667936
 22
30.7873813202
 13
150.1518667936
 23
30.7873813202
  0
SOLID
  8
0
 62
7
  6
CONTINUOUS
 10
150.1518667936
 20
30.7873813202
 11
150.498741835
 21
30.7228547004
 12
149.8628043005
 22
30.7228547004
 13
149.8628043005
 23
30.7228547004
  0
SOLID
  8
0
 62
7
  6
CONTINUOUS
 10
150.0362418212
 20
30.658327332
 11
149.8628043005
 21
30.7228547004
 12
150.498741835
 22
30.7228547004
 13
150.498741835
 23
30.7228547004
  0
SOLID
  8
0
 62
7
  6
CONTINUOUS
 10
154.0831168074
 20
31.1100184386
 11
154.1987416972
 21
31.1745462761
 12
154.7768668074
 22
31.1422827828
 13
154.7768668074
 23
31.1422827828
  0
SOLID
  8
0
 62
7
  6
CONTINUOUS
 10
154.7768668074
 20
31.1422827828
 11
154.5456166972
 21
31.1100184386
 12
154.0831168074
 22
31.1100184386
 13
154.0831168074
 23
31.1100184386
  0
SOLID
  8
0
 62
7
  6
CONTINUOUS
 10
153.9674919177
 20
30.9809642992
 11
154.0831168074
 21
31.1100184386
 12
154.5456166972
 22
31.1100184386
 13
154.5456166972
 23
31.1100184386
  0
SOLID
  8
0
 62
7
  6
CONTINUOUS
 10
154.3143669177
 20
31.0132277988
 11
153.9674919177
 21
30.9809642992
 12
154.4299918074
 22
31.0777556927
 13
154.4299918074
 23
31.0777556927
  0
SOLID
  8
0
 62
7
  6
CONTINUOUS
 10
153.9674919177
 20
30.9809642992
 11
154.5456166972
 21
31.1100184796
 12
154.4299918074
 22
31.0777556927
 13
154.4299918074
 23
31.0777556927
  0
SOLID
  8
0
 62
7
  6
CONTINUOUS
 10
154.3143669177
 20
31.0132277988
 11
154.2565543074
 21
30.9164372091
 12
153.9674919177
 22
30.9809642992
 13
153.9674919177
 23
30.9809642992
  0
SOLID
  8
0
 62
7
  6
CONTINUOUS
 10
153.9674919177
 20
30.8841729058
 11
153.9674919177
 21
30.9809642992
 12
154.2565543074
 22
30.9164372091
 13
154.2565543074
 23
30.9164372091
  0
SOLID
  8
0
 62
7
  6
CONTINUOUS
 10
154.2565543074
 20
30.9164372091
 11
154.2565543074
 21
30.8519086025
 12
153.9674919177
 22
30.8841729058
 13
153.9674919177
 23
30.8841729058
  0
SOLID
  8
0
 62
7
  6
CONTINUOUS
 10
154.0253041972
 20
30.7551187255
 11
153.9674919177
 21
30.8841729058
 12
154.2565543074
 22
30.8519086025
 13
154.2565543074
 23
30.8519086025
  0
SOLID
  8
0
 62
7
  6
CONTINUOUS
 10
155.412804528
 20
30.9487004259
 11
155.7018665869
 21
30.8519086025
 12
155.3549915869
 22
30.8841729058
 13
155.3549915869
 23
30.8841729058
  0
SOLID
  8
0
 62
7
  6
CONTINUOUS
 10
155.1815540869
 20
30.7873815123
 11
155.3549915869
 21
30.8841729058
 12
155.7018665869
 22
30.8519086025
 13
155.7018665869
 23
30.8519086025
  0
SOLID
  8
0
 62
7
  6
CONTINUOUS
 10
155.1815540869
 20
30.7873815123
 11
155.7018665869
 21
30.8519086025
 12
155.412804528
 22
30.7551187255
 13
155.412804528
 23
30.7551187255
  0
SOLID
  8
0
 62
7
  6
CONTINUOUS
 10
155.7018665869
 20
30.8519086025
 11
155.759679528
 21
30.6905916353
 12
155.412804528
 22
30.7551187255
 13
155.412804528
 23
30.7551187255
  0
SOLID
  8
0
 62
7
  6
CONTINUOUS
 10
155.4706168074
 20
30.658327332
 11
155.412804528
 21
30.7551187255
 12
155.759679528
 22
30.6905916353
 13
155.759679528
 23
30.6905916353
  0
SOLID
  8
0
 62
7
  6
CONTINUOUS
 10
155.4706168074
 20
30.658327332
 11
155.759679528
 21
30.6905916353
 12
155.5284290869
 22
30.5938002079
 13
155.5284290869
 23
30.5938002079
  0
SOLID
  8
0
 62
7
  6
CONTINUOUS
 10
155.759679528
 20
30.6905916353
 11
155.8174918074
 21
30.5938002079
 12
155.5284290869
 22
30.5938002079
 13
155.5284290869
 23
30.5938002079
  0
SOLID
  8
0
 62
7
  6
CONTINUOUS
 10
151.0768668626
 20
30.8196456577
 11
151.1346793074
 21
30.9164373395
 12
151.4237418626
 22
30.9164373395
 13
151.4237418626
 23
30.9164373395
  0
SOLID
  8
0
 62
7
  6
CONTINUOUS
 10
151.4237418626
 20
30.9164373395
 11
151.3659292523
 21
30.7873815123
 12
151.0768668626
 22
30.8196456577
 13
151.0768668626
 23
30.8196456577
  0
SOLID
  8
0
 62
7
  6
CONTINUOUS
 10
150.9034292799
 20
30.7551187255
 11
151.0768668626
 21
30.8196456577
 12
151.3659292523
 22
30.7873815123
 13
151.3659292523
 23
30.7873815123
  0
SOLID
  8
0
 62
7
  6
CONTINUOUS
 10
150.9034292799
 20
30.7551187255
 11
151.3659292523
 21
30.7873815123
 12
150.498741835
 22
30.7228544222
 13
150.498741835
 23
30.7228544222
  0
SOLID
  8
0
 62
7
  6
CONTINUOUS
 10
151.3659292523
 20
30.7873815123
 11
151.1924917523
 21
30.6905916353
 12
150.498741835
 22
30.7228544222
 13
150.498741835
 23
30.7228544222
  0
SOLID
  8
0
 62
7
  6
CONTINUOUS
 10
150.0362418212
 20
30.658327332
 11
150.498741835
 21
30.7228544222
 12
151.1924917523
 22
30.6905916353
 13
151.1924917523
 23
30.6905916353
  0
SOLID
  8
0
 62
7
  6
CONTINUOUS
 10
150.0362418212
 20
30.658327332
 11
151.1924917523
 21
30.6905916353
 12
150.2096793212
 22
30.6260631011
 13
150.2096793212
 23
30.6260631011
  0
SOLID
  8
0
 62
7
  6
CONTINUOUS
 10
151.1924917523
 20
30.6905916353
 11
150.9612418074
 21
30.6260631011
 12
150.2096793212
 22
30.6260631011
 13
150.2096793212
 23
30.6260631011
  0
SOLID
  8
0
 62
7
  6
CONTINUOUS
 10
150.5565542799
 20
30.5938002419
 11
150.2096793212
 21
30.6260631011
 12
150.9612418074
 22
30.6260631011
 13
150.9612418074
 23
30.6260631011
  0
SOLID
  8
0
 62
7
  6
CONTINUOUS
 10
154.0253041972
 20
30.7551187255
 11
154.2565543074
 21
30.8519086025
 12
154.3143669177
 22
30.7873815123
 13
154.3143669177
 23
30.7873815123
  0
SOLID
  8
0
 62
7
  6
CONTINUOUS
 10
154.3143669177
 20
30.7873815123
 11
154.5456166972
 21
30.7228544222
 12
154.0253041972
 22
30.7551187255
 13
154.0253041972
 23
30.7551187255
  0
SOLID
  8
0
 62
7
  6
CONTINUOUS
 10
154.1987416972
 20
30.658327332
 11
154.0253041972
 21
30.7551187255
 12
154.5456166972
 22
30.7228544222
 13
154.5456166972
 23
30.7228544222
  0
SOLID
  8
0
 62
7
  6
CONTINUOUS
 10
154.8924916972
 20
30.7228544637
 11
155.1815540869
 21
30.7873815123
 12
155.412804528
 22
30.7551187255
 13
155.412804528
 23
30.7551187255
  0
SOLID
  8
0
 62
7
  6
CONTINUOUS
 10
155.412804528
 20
30.7551187255
 11
155.3549915869
 21
30.6905916353
 12
154.8924916972
 22
30.7228544637
 13
154.8924916972
 23
30.7228544637
  0
SOLID
  8
0
 62
7
  6
CONTINUOUS
 10
155.3549915869
 20
30.6905916353
 11
154.1987416972
 21
30.658327332
 12
154.8924916972
 22
30.7228544637
 13
154.8924916972
 23
30.7228544637
  0
SOLID
  8
0
 62
7
  6
CONTINUOUS
 10
154.1987416972
 20
30.658327332
 11
154.5456166972
 21
30.7228544637
 12
154.8924916972
 22
30.7228544637
 13
154.8924916972
 23
30.7228544637
  0
SOLID
  8
0
 62
7
  6
CONTINUOUS
 10
154.1987416972
 20
30.658327332
 11
155.3549915869
 21
30.6905916353
 12
154.3143669177
 22
30.6260630541
 13
154.3143669177
 23
30.6260630541
  0
SOLID
  8
0
 62
7
  6
CONTINUOUS
 10
155.3549915869
 20
30.6905916353
 11
155.1815540869
 21
30.6260630541
 12
154.3143669177
 22
30.6260630541
 13
154.3143669177
 23
30.6260630541
  0
SOLID
  8
0
 62
7
  6
CONTINUOUS
 10
154.5456166972
 20
30.5938002188
 11
154.3143669177
 21
30.6260630541
 12
155.1815540869
 22
30.6260630541
 13
155.1815540869
 23
30.6260630541
  0
SOLID
  8
0
 62
7
  6
CONTINUOUS
 10
155.1815540869
 20
30.6260630541
 11
154.8924916972
 21
30.5938002188
 12
154.5456166972
 22
30.5938002188
 13
154.5456166972
 23
30.5938002188
  0
SOLID
  8
0
 62
7
  6
CONTINUOUS
 10
159.575304528
 20
30.7551187255
 11
159.228429528
 21
30.7228544637
 12
159.4596793074
 22
30.7873815123
 13
159.4596793074
 23
30.7873815123
  0
SOLID
  8
0
 62
7
  6
CONTINUOUS
 10
159.4596793074
 20
30.7873815123
 11
159.228429528
 21
30.7228544637
 12
159.401867028
 22
30.851908644
 13
159.401867028
 23
30.851908644
  0
SOLID
  8
0
 62
7
  6
CONTINUOUS
 10
159.228429528
 20
30.7228544637
 11
159.1128043074
 21
30.851908644
 12
159.401867028
 22
30.851908644
 13
159.401867028
 23
30.851908644
  0
SOLID
  8
0
 62
7
  6
CONTINUOUS
 10
159.575304528
 20
30.7551187255
 11
159.922179528
 21
30.7228544637
 12
159.228429528
 22
30.7228544637
 13
159.228429528
 23
30.7228544637
  0
SOLID
  8
0
 62
7
  6
CONTINUOUS
 10
156.279992028
 20
30.5938002419
 11
156.279992028
 21
31.6262382337
 12
156.5690540869
 22
30.5938002419
 13
156.5690540869
 23
31.6262382337
  0
ENDBLK
  8
0
  6
BYBLOCK
 62
0
  0
BLOCK
  8
0
 62
2
  6
CONTINUOUS
  2
AMMEAAL_LOGO_BL0
 70
64
 10
32.1213064866
 20
19.8534310916
  0
TEXT
  8
0
 62
7
  6
CONTINUOUS
 10
18.3860103289
 20
19.2268451992
  7
TEXTSTYLE_3
 40
2.7338706658
  1
Ammeraal Beltech
 41
1.0
 51
15.0
 72
0
  0
TEXT
  8
0
 62
7
  6
CONTINUOUS
 10
29.1868111546
 20
16.9533085264
  7
TEXTSTYLE_4
 40
1.0935482663
  1
Innovation & Service in Belting
 41
1.0
 72
0
  0
LINE
  8
0
 62
7
  6
CONTINUOUS
 10
12.3614696776
 20
19.9934385078
 11
13.1396216709
 21
23.6543558055
  0
LINE
  8
0
 62
7
  6
CONTINUOUS
 10
23.2347899607
 20
27.3177497171
 11
13.6274394139
 21
24.1961322958
  0
LINE
  8
0
 62
7
  6
CONTINUOUS
 10
12.5867530099
 20
19.3000877048
 11
20.093828271
 21
12.5406867788
  0
LINE
  8
0
 62
7
  6
CONTINUOUS
 10
12.8492874206
 20
20.5352149982
 11
23.6575567857
 21
24.0470345971
  0
LINE
  8
0
 62
7
  6
CONTINUOUS
 10
23.6533516486
 20
13.6972460334
 11
15.2078919798
 21
21.3015720751
  0
LINE
  8
0
 62
7
  6
CONTINUOUS
 10
24.1731743684
 20
26.4728246013
 11
23.1966148312
 21
21.8784731989
  0
LINE
  8
0
 62
7
  6
CONTINUOUS
 10
22.4968128835
 20
18.5861638851
 11
21.810364672
 21
15.3566789607
  0
LINE
  8
0
 62
7
  6
CONTINUOUS
 10
24.8542704669
 20
14.087448211
 11
25.8105020025
 21
18.5861638851
  0
LINE
  8
0
 62
7
  6
CONTINUOUS
 10
26.5103039502
 20
21.8784731989
 11
26.9545457526
 21
23.9684665583
  0
LINE
  8
0
 62
7
  6
CONTINUOUS
 10
20.8069293463
 20
12.3891124661
 11
24.3664527239
 21
13.5456717207
  0
LINE
  8
0
 62
7
  6
CONTINUOUS
 10
23.9478910361
 20
27.1661754044
 11
26.7292624203
 21
24.6618173613
  0
ARC
  8
0
 62
7
  6
CONTINUOUS
 10
13.8527227462
 20
23.5027814928
 40
0.7290321776
 50
108.0
 51
168.0
  0
ARC
  8
0
 62
7
  6
CONTINUOUS
 10
23.4600732931
 20
26.624398914
 40
0.7290321776
 50
348.0
 51
108.0
  0
ARC
  8
0
 62
7
  6
CONTINUOUS
 10
26.2414446773
 20
24.120040871
 40
0.7290321776
 50
348.0
 51
48.0
  0
ARC
  8
0
 62
7
  6
CONTINUOUS
 10
20.581646014
 20
13.0824632691
 40
0.7290321776
 50
228.0
 51
288.0
  0
ARC
  8
0
 62
7
  6
CONTINUOUS
 10
13.0745707529
 20
19.8418641951
 40
0.7290321776
 50
108.0
 51
228.0
  0
ARC
  8
0
 62
7
  6
CONTINUOUS
 10
24.1411693916
 20
14.2390225237
 40
0.7290321776
 50
228.0
 51
348.0
  0
ENDBLK
  8
0
  6
BYBLOCK
 62
0
  0
ENDSEC
  0
SECTION
  2
ENTITIES
  0
TEXT
  8
0
 62
5
  6
CONTINUOUS
 10
96.0
 20
25.636
  7
TEXTSTYLE_2
 40
2.8
  1
Scale :
 41
0.6
 51
0.000019
 72
0
  0
TEXT
  8
0
 62
5
  6
CONTINUOUS
 10
116.0
 20
25.636
  7
TEXTSTYLE_2
 40
2.8
  1
Belt type:
 41
0.6
 51
0.000019
 72
0
  0
INSERT
  8
0
 62
2
  6
CONTINUOUS
  2
AMMEAAL_LOGO_BL0
 10
32.1213064866
 20
19.8534310916
  0
INSERT
  8
0
 62
2
  6
CONTINUOUS
  2
UNI_LOGO2_BL1
 10
173.5956734183
 20
35.5937998301
  0
LINE
  8
0
 62
2
  6
CONTINUOUS
 10
10.0
 20
30.0
 11
200.0
 21
30.0
  0
LINE
  8
0
 62
2
  6
CONTINUOUS
 10
10.0
 20
30.0
 11
10.0
 21
10.0
  0
LINE
  8
0
 62
2
  6
CONTINUOUS
 10
10.0
 20
10.0
 11
200.0
 21
10.0
  0
LINE
  8
0
 62
2
  6
CONTINUOUS
 10
95.0
 20
30.0
 11
95.0
 21
10.0
  0
LINE
  8
0
 62
2
  6
CONTINUOUS
 10
115.0
 20
30.0
 11
115.0
 21
10.0
  0
LINE
  8
0
 62
2
  6
CONTINUOUS
 10
200.0
 20
30.0
 11
200.0
 21
10.0
  0
TEXT
  8
0
 62
5
  6
CONTINUOUS
 10
13.0
 20
23.303
  7
TEXTSTYLE_5
 40
1.52
  1
                                                                     Ammeraal Beltech Modular A/S
 41
1.0
 72
0
  0
TEXT
  8
0
 62
5
  6
CONTINUOUS
 10
13.0
 20
20.595
  7
TEXTSTYLE_5
 40
1.5
  1
                                                                      Hjulmagervej 21,  7100 Vejle,  DK
 41
1.0
 72
0
  0
TEXT
  8
0
 62
5
  6
CONTINUOUS
 10
13.0
 20
17.881
  7
TEXTSTYLE_5
 40
1.495
  1
                                                                      tel: 
 41
1.0
 72
0
  0
TEXT
  8
0
 62
5
  6
CONTINUOUS
 10
57.9869465649
 20
17.881
  7
TEXTSTYLE_5
 40
1.51
  1
+45 75723100     fax: +45 75723348
 41
1.0
 72
0
  0
TEXT
  8
0
 62
5
  6
CONTINUOUS
 10
13.0
 20
15.177
  7
TEXTSTYLE_5
 40
1.5
  1
                                                                      admin@unichains.dk  www.unichains.com
 41
1.0
 72
0
  0
TEXT
  8
0
 62
5
  6
CONTINUOUS
 10
99.75
 20
13.75
  7
TEXTSTYLE_6
 40
5.0
  1
1:1
 41
0.7
 72
1
 11
105.0
 21
13.75
  0
TEXT
  8
0
 62
5
  6
CONTINUOUS
 10
118.0
 20
13.75
  7
TEXTSTYLE_7
 40
7.5
  1
uni Light EP-18 K400 
 41
0.4761904762
 72
0
  0
LINE
  8
0
 62
7
  6
CONTINUOUS
 10
210.0
 20
0.0
 11
0.0
 21
0.0
  0
LINE
  8
0
 62
7
  6
CONTINUOUS
 10
10.0
 20
10.0
 11
200.0
 21
10.0
  0
LINE
  8
0
 62
7
  6
CONTINUOUS
 10
10.0
 20
30.0
 11
200.0
 21
30.0
  0
LINE
  8
0
 62
7
  6
CONTINUOUS
 10
0.0
 20
0.0
 11
0.0
 21
297.0
  0
LINE
  8
0
 62
7
  6
CONTINUOUS
 10
10.0
 20
10.0
 11
10.0
 21
287.0
  0
LINE
  8
0
 62
7
  6
CONTINUOUS
 10
200.0
 20
287.0
 11
200.0
 21
10.0
  0
LINE
  8
0
 62
7
  6
CONTINUOUS
 10
210.0
 20
0.0
 11
210.0
 21
297.0
  0
LINE
  8
0
 62
7
  6
CONTINUOUS
 10
10.0
 20
287.0
 11
200.0
 21
287.0
  0
LINE
  8
0
 62
7
  6
CONTINUOUS
 10
0.0
 20
297.0
 11
210.0
 21
297.0
  0
POLYLINE
  8
0
 62
7
  6
CONTINUOUS
 66
1
 70
0
  0
VERTEX
  8
0
 62
7
  6
CONTINUOUS
 10
23.941397429
 20
144.9908158285
  0
VERTEX
  8
0
 62
7
  6
CONTINUOUS
 10
23.9548507747
 20
145.1060215279
  0
VERTEX
  8
0
 62
7
  6
CONTINUOUS
 10
23.9924743238
 20
145.2109704232
  0
VERTEX
  8
0
 62
7
  6
CONTINUOUS
 10
24.0511091968
 20
145.3033459802
  0
VERTEX
  8
0
 62
7
  6
CONTINUOUS
 10
24.1284775381
 20
145.3807916506
  0
VERTEX
  8
0
 62
7
  6
CONTINUOUS
 10
24.2176013701
 20
145.4379347433
  0
VERTEX
  8
0
 62
7
  6
CONTINUOUS
 10
24.3227212237
 20
145.4765276343
  0
VERTEX
  8
0
 62
7
  6
CONTINUOUS
 10
24.441397429
 20
145.4908158284
  0
SEQEND
  0
LINE
  8
0
 62
7
  6
CONTINUOUS
 10
23.741397429
 20
114.6051201439
 11
23.741397429
 21
143.4213716451
  0
LINE
  8
0
 62
7
  6
CONTINUOUS
 10
23.941397429
 20
144.9908158285
 11
23.941397429
 21
107.2651201439
  0
POLYLINE
  8
0
 62
7
  6
CONTINUOUS
 66
1
 70
0
  0
VERTEX
  8
0
 62
7
  6
CONTINUOUS
 10
26.9913978856
 20
146.4731338665
  0
VERTEX
  8
0
 62
7
  6
CONTINUOUS
 10
26.9879274388
 20
146.3464879194
  0
VERTEX
  8
0
 62
7
  6
CONTINUOUS
 10
26.9753180783
 20
146.2082158193
  0
VERTEX
  8
0
 62
7
  6
CONTINUOUS
 10
26.9530939357
 20
146.0765681122
  0
VERTEX
  8
0
 62
7
  6
CONTINUOUS
 10
26.9211774451
 20
145.9535614878
  0
VERTEX
  8
0
 62
7
  6
CONTINUOUS
 10
26.8798480116
 20
145.8411578507
  0
VERTEX
  8
0
 62
7
  6
CONTINUOUS
 10
26.8297805915
 20
145.7413108727
  0
VERTEX
  8
0
 62
7
  6
CONTINUOUS
 10
26.7717570833
 20
145.6555209194
  0
VERTEX
  8
0
 62
7
  6
CONTINUOUS
 10
26.7063441223
 20
145.5850471478
  0
VERTEX
  8
0
 62
7
  6
CONTINUOUS
 10
26.6346914324
 20
145.5321962929
  0
VERTEX
  8
0
 62
7
  6
CONTINUOUS
 10
26.558828792
 20
145.4999703775
  0
VERTEX
  8
0
 62
7
  6
CONTINUOUS
 10
26.491397429
 20
145.4908159096
  0
SEQEND
  0
POLYLINE
  8
0
 62
7
  6
CONTINUOUS
 66
1
 70
0
  0
VERTEX
  8
0
 62
7
  6
CONTINUOUS
 10
26.991397429
 20
150.3298650153
  0
VERTEX
  8
0
 62
7
  6
CONTINUOUS
 10
27.0056971495
 20
150.3491013929
  0
VERTEX
  8
0
 62
7
  6
CONTINUOUS
 10
27.0479355515
 20
150.3670167998
  0
VERTEX
  8
0
 62
7
  6
CONTINUOUS
 10
27.1159293319
 20
150.3826470334
  0
VERTEX
  8
0
 62
7
  6
CONTINUOUS
 10
27.1584777491
 20
150.3893393723
  0
VERTEX
  8
0
 62
7
  6
CONTINUOUS
 10
27.2576857063
 20
150.4000358596
  0
VERTEX
  8
0
 62
7
  6
CONTINUOUS
 10
27.3708526428
 20
150.4066963321
  0
VERTEX
  8
0
 62
7
  6
CONTINUOUS
 10
27.491397429
 20
150.408960625
  0
SEQEND
  0
LINE
  8
0
 62
7
  6
CONTINUOUS
 10
26.741397429
 20
107.2651201439
 11
26.741397429
 21
113.6371346349
  0
LINE
  8
0
 62
7
  6
CONTINUOUS
 10
26.991397429
 20
152.8451201439
 11
26.991397429
 21
146.4731057063
  0
LINE
  8
0
 62
7
  6
CONTINUOUS
 10
28.791397429
 20
121.3551201439
 11
28.791397429
 21
138.7551201439
  0
POLYLINE
  8
0
 62
7
  6
CONTINUOUS
 66
1
 70
0
  0
VERTEX
  8
0
 62
7
  6
CONTINUOUS
 10
26.7413972199
 20
113.6370975537
  0
VERTEX
  8
0
 62
7
  6
CONTINUOUS
 10
26.7448676108
 20
113.7637561801
  0
VERTEX
  8
0
 62
7
  6
CONTINUOUS
 10
26.7574771877
 20
113.9020297123
  0
VERTEX
  8
0
 62
7
  6
CONTINUOUS
 10
26.7797013003
 20
114.0336747804
  0
VERTEX
  8
0
 62
7
  6
CONTINUOUS
 10
26.8116174941
 20
114.1566794798
  0
VERTEX
  8
0
 62
7
  6
CONTINUOUS
 10
26.8529470523
 20
114.2690829994
  0
VERTEX
  8
0
 62
7
  6
CONTINUOUS
 10
26.9030141801
 20
114.3689292979
  0
VERTEX
  8
0
 62
7
  6
CONTINUOUS
 10
26.9610381662
 20
114.4547197155
  0
VERTEX
  8
0
 62
7
  6
CONTINUOUS
 10
27.026450906
 20
114.5251933636
  0
VERTEX
  8
0
 62
7
  6
CONTINUOUS
 10
27.098104222
 20
114.57804452
  0
VERTEX
  8
0
 62
7
  6
CONTINUOUS
 10
27.1739698244
 20
114.6102709187
  0
VERTEX
  8
0
 62
7
  6
CONTINUOUS
 10
27.241397429
 20
114.6194243763
  0
SEQEND
  0
LINE
  8
0
 62
7
  6
CONTINUOUS
 10
23.741397429
 20
114.6051201439
 11
23.941397429
 21
114.4051201439
  0
POLYLINE
  8
0
 62
7
  6
CONTINUOUS
 66
1
 70
0
  0
VERTEX
  8
0
 62
7
  6
CONTINUOUS
 10
33.341397429
 20
109.7803752725
  0
VERTEX
  8
0
 62
7
  6
CONTINUOUS
 10
33.3556971495
 20
109.7611388949
  0
VERTEX
  8
0
 62
7
  6
CONTINUOUS
 10
33.3979355515
 20
109.7432234881
  0
VERTEX
  8
0
 62
7
  6
CONTINUOUS
 10
33.4659293319
 20
109.7275932545
  0
VERTEX
  8
0
 62
7
  6
CONTINUOUS
 10
33.5084777491
 20
109.7209009156
  0
VERTEX
  8
0
 62
7
  6
CONTINUOUS
 10
33.6076857063
 20
109.7102044283
  0
VERTEX
  8
0
 62
7
  6
CONTINUOUS
 10
33.7208526428
 20
109.7035439557
  0
VERTEX
  8
0
 62
7
  6
CONTINUOUS
 10
33.841397429
 20
109.7012796629
  0
SEQEND
  0
LINE
  8
0
 62
7
  6
CONTINUOUS
 10
31.291397429
 20
138.7551201439
 11
31.291397429
 21
121.3551201439
  0
LINE
  8
0
 62
7
  6
CONTINUOUS
 10
33.091397429
 20
146.1694905426
 11
33.091397429
 21
152.8451201439
  0
LINE
  8
0
 62
7
  6
CONTINUOUS
 10
33.341397429
 20
113.6371345816
 11
33.341397429
 21
107.2651201439
  0
LINE
  8
0
 62
7
  6
CONTINUOUS
 10
35.141397429
 20
121.3551201439
 11
35.141397429
 21
138.7551201439
  0
LINE
  8
0
 62
7
  6
CONTINUOUS
 10
37.641397429
 20
138.7551201439
 11
37.641397429
 21
121.3551201439
  0
LINE
  8
0
 62
7
  6
CONTINUOUS
 10
39.441397429
 20
107.2651201439
 11
39.441397429
 21
113.9407497453
  0
LINE
  8
0
 62
7
  6
CONTINUOUS
 10
39.691397429
 20
152.8451201439
 11
39.691397429
 21
146.4731057063
  0
POLYLINE
  8
0
 62
7
  6
CONTINUOUS
 66
1
 70
0
  0
VERTEX
  8
0
 62
7
  6
CONTINUOUS
 10
39.6913978856
 20
146.4731338665
  0
VERTEX
  8
0
 62
7
  6
CONTINUOUS
 10
39.6879274388
 20
146.3464879194
  0
VERTEX
  8
0
 62
7
  6
CONTINUOUS
 10
39.6753180783
 20
146.2082158193
  0
VERTEX
  8
0
 62
7
  6
CONTINUOUS
 10
39.6530939357
 20
146.0765681122
  0
VERTEX
  8
0
 62
7
  6
CONTINUOUS
 10
39.6211774451
 20
145.9535614878
  0
VERTEX
  8
0
 62
7
  6
CONTINUOUS
 10
39.5798480116
 20
145.8411578507
  0
VERTEX
  8
0
 62
7
  6
CONTINUOUS
 10
39.5297805915
 20
145.7413108727
  0
VERTEX
  8
0
 62
7
  6
CONTINUOUS
 10
39.4717570833
 20
145.6555209194
  0
VERTEX
  8
0
 62
7
  6
CONTINUOUS
 10
39.4063441223
 20
145.5850471478
  0
VERTEX
  8
0
 62
7
  6
CONTINUOUS
 10
39.3346914324
 20
145.5321962929
  0
VERTEX
  8
0
 62
7
  6
CONTINUOUS
 10
39.258828792
 20
145.4999703775
  0
VERTEX
  8
0
 62
7
  6
CONTINUOUS
 10
39.191397429
 20
145.4908159096
  0
SEQEND
  0
POLYLINE
  8
0
 62
7
  6
CONTINUOUS
 66
1
 70
0
  0
VERTEX
  8
0
 62
7
  6
CONTINUOUS
 10
39.4413972195
 20
113.6370974698
  0
VERTEX
  8
0
 62
7
  6
CONTINUOUS
 10
39.4448676109
 20
113.7637562036
  0
VERTEX
  8
0
 62
7
  6
CONTINUOUS
 10
39.4574771896
 20
113.902029744
  0
VERTEX
  8
0
 62
7
  6
CONTINUOUS
 10
39.4797013018
 20
114.0336747896
  0
VERTEX
  8
0
 62
7
  6
CONTINUOUS
 10
39.5116174934
 20
114.1566794774
  0
VERTEX
  8
0
 62
7
  6
CONTINUOUS
 10
39.5529470504
 20
114.2690829941
  0
VERTEX
  8
0
 62
7
  6
CONTINUOUS
 10
39.6030141696
 20
114.3689292787
  0
VERTEX
  8
0
 62
7
  6
CONTINUOUS
 10
39.6610381673
 20
114.4547197114
  0
VERTEX
  8
0
 62
7
  6
CONTINUOUS
 10
39.7264508812
 20
114.5251933405
  0
VERTEX
  8
0
 62
7
  6
CONTINUOUS
 10
39.7981042084
 20
114.5780445128
  0
VERTEX
  8
0
 62
7
  6
CONTINUOUS
 10
39.8739698272
 20
114.6102709194
  0
VERTEX
  8
0
 62
7
  6
CONTINUOUS
 10
39.941397429
 20
114.6194243767
  0
SEQEND
  0
LINE
  8
0
 62
7
  6
CONTINUOUS
 10
41.491397429
 20
121.3551201439
 11
41.491397429
 21
138.7551201439
  0
LINE
  8
0
 62
7
  6
CONTINUOUS
 10
43.991397429
 20
138.7551201439
 11
43.991397429
 21
121.3551201439
  0
POLYLINE
  8
0
 62
7
  6
CONTINUOUS
 66
1
 70
0
  0
VERTEX
  8
0
 62
7
  6
CONTINUOUS
 10
52.391397429
 20
150.3298650153
  0
VERTEX
  8
0
 62
7
  6
CONTINUOUS
 10
52.4056971495
 20
150.3491013929
  0
VERTEX
  8
0
 62
7
  6
CONTINUOUS
 10
52.4479355515
 20
150.3670167998
  0
VERTEX
  8
0
 62
7
  6
CONTINUOUS
 10
52.5159293319
 20
150.3826470334
  0
VERTEX
  8
0
 62
7
  6
CONTINUOUS
 10
52.5584777491
 20
150.3893393723
  0
VERTEX
  8
0
 62
7
  6
CONTINUOUS
 10
52.6576857063
 20
150.4000358596
  0
VERTEX
  8
0
 62
7
  6
CONTINUOUS
 10
52.7708526428
 20
150.4066963321
  0
VERTEX
  8
0
 62
7
  6
CONTINUOUS
 10
52.891397429
 20
150.408960625
  0
SEQEND
  0
LINE
  8
0
 62
7
  6
CONTINUOUS
 10
45.791397429
 20
146.4731056528
 11
45.791397429
 21
152.8451201439
  0
LINE
  8
0
 62
7
  6
CONTINUOUS
 10
46.041397429
 20
107.2651201439
 11
46.041397429
 21
113.6371345816
  0
LINE
  8
0
 62
7
  6
CONTINUOUS
 10
47.841397429
 20
121.3551201439
 11
47.841397429
 21
138.7551201439
  0
LINE
  8
0
 62
7
  6
CONTINUOUS
 10
50.341397429
 20
138.7551201439
 11
50.341397429
 21
121.3551201439
  0
LINE
  8
0
 62
7
  6
CONTINUOUS
 10
52.141397429
 20
107.2651201439
 11
52.141397429
 21
113.6371346349
  0
LINE
  8
0
 62
7
  6
CONTINUOUS
 10
52.391397429
 20
152.8451201439
 11
52.391397429
 21
146.4731057063
  0
POLYLINE
  8
0
 62
7
  6
CONTINUOUS
 66
1
 70
0
  0
VERTEX
  8
0
 62
7
  6
CONTINUOUS
 10
52.3913978846
 20
146.4731337657
  0
VERTEX
  8
0
 62
7
  6
CONTINUOUS
 10
52.3879274408
 20
146.3464879395
  0
VERTEX
  8
0
 62
7
  6
CONTINUOUS
 10
52.3753180801
 20
146.2082158427
  0
VERTEX
  8
0
 62
7
  6
CONTINUOUS
 10
52.3530939365
 20
146.0765681174
  0
VERTEX
  8
0
 62
7
  6
CONTINUOUS
 10
52.3211774438
 20
145.9535614829
  0
VERTEX
  8
0
 62
7
  6
CONTINUOUS
 10
52.2798480093
 20
145.8411578455
  0
VERTEX
  8
0
 62
7
  6
CONTINUOUS
 10
52.2297805733
 20
145.7413108427
  0
VERTEX
  8
0
 62
7
  6
CONTINUOUS
 10
52.1717570868
 20
145.655520919
  0
VERTEX
  8
0
 62
7
  6
CONTINUOUS
 10
52.106344099
 20
145.585047126
  0
VERTEX
  8
0
 62
7
  6
CONTINUOUS
 10
52.0346914201
 20
145.5321962851
  0
VERTEX
  8
0
 62
7
  6
CONTINUOUS
 10
51.9588287958
 20
145.4999703784
  0
VERTEX
  8
0
 62
7
  6
CONTINUOUS
 10
51.891397429
 20
145.49081591
  0
SEQEND
  0
POLYLINE
  8
0
 62
7
  6
CONTINUOUS
 66
1
 70
0
  0
VERTEX
  8
0
 62
7
  6
CONTINUOUS
 10
52.1413972199
 20
113.6370975537
  0
VERTEX
  8
0
 62
7
  6
CONTINUOUS
 10
52.1448676108
 20
113.7637561801
  0
VERTEX
  8
0
 62
7
  6
CONTINUOUS
 10
52.1574771877
 20
113.9020297123
  0
VERTEX
  8
0
 62
7
  6
CONTINUOUS
 10
52.1797013003
 20
114.0336747804
  0
VERTEX
  8
0
 62
7
  6
CONTINUOUS
 10
52.2116174941
 20
114.1566794798
  0
VERTEX
  8
0
 62
7
  6
CONTINUOUS
 10
52.2529470523
 20
114.2690829994
  0
VERTEX
  8
0
 62
7
  6
CONTINUOUS
 10
52.3030141801
 20
114.3689292979
  0
VERTEX
  8
0
 62
7
  6
CONTINUOUS
 10
52.3610381662
 20
114.4547197155
  0
VERTEX
  8
0
 62
7
  6
CONTINUOUS
 10
52.426450906
 20
114.5251933636
  0
VERTEX
  8
0
 62
7
  6
CONTINUOUS
 10
52.498104222
 20
114.57804452
  0
VERTEX
  8
0
 62
7
  6
CONTINUOUS
 10
52.5739698244
 20
114.6102709187
  0
VERTEX
  8
0
 62
7
  6
CONTINUOUS
 10
52.641397429
 20
114.6194243763
  0
SEQEND
  0
LINE
  8
0
 62
7
  6
CONTINUOUS
 10
24.441397429
 20
106.7651201439
 11
26.241397429
 21
106.7651201439
  0
LINE
  8
0
 62
7
  6
CONTINUOUS
 10
33.841397429
 20
106.7651201439
 11
38.941397429
 21
106.7651201439
  0
LINE
  8
0
 62
7
  6
CONTINUOUS
 10
46.541397429
 20
106.7651201439
 11
51.641397429
 21
106.7651201439
  0
LINE
  8
0
 62
7
  6
CONTINUOUS
 10
59.241397429
 20
106.7651201439
 11
64.341397429
 21
106.7651201439
  0
LINE
  8
0
 62
7
  6
CONTINUOUS
 10
71.941397429
 20
106.7651201439
 11
77.041397429
 21
106.7651201439
  0
LINE
  8
0
 62
7
  6
CONTINUOUS
 10
84.641397429
 20
106.7651201439
 11
89.741397429
 21
106.7651201439
  0
LINE
  8
0
 62
7
  6
CONTINUOUS
 10
97.341397429
 20
106.7651201439
 11
102.441397429
 21
106.7651201439
  0
LINE
  8
0
 62
7
  6
CONTINUOUS
 10
110.041397429
 20
106.7651201439
 11
115.141397429
 21
106.7651201439
  0
LINE
  8
0
 62
7
  6
CONTINUOUS
 10
122.741397429
 20
106.7651201439
 11
124.541397429
 21
106.7651201439
  0
POLYLINE
  8
0
 62
7
  6
CONTINUOUS
 66
1
 70
0
  0
VERTEX
  8
0
 62
7
  6
CONTINUOUS
 10
58.741397429
 20
109.7803752725
  0
VERTEX
  8
0
 62
7
  6
CONTINUOUS
 10
58.7556971495
 20
109.7611388949
  0
VERTEX
  8
0
 62
7
  6
CONTINUOUS
 10
58.7979355515
 20
109.7432234881
  0
VERTEX
  8
0
 62
7
  6
CONTINUOUS
 10
58.8659293319
 20
109.7275932545
  0
VERTEX
  8
0
 62
7
  6
CONTINUOUS
 10
58.9084777491
 20
109.7209009156
  0
VERTEX
  8
0
 62
7
  6
CONTINUOUS
 10
59.0076857063
 20
109.7102044283
  0
VERTEX
  8
0
 62
7
  6
CONTINUOUS
 10
59.1208526428
 20
109.7035439557
  0
VERTEX
  8
0
 62
7
  6
CONTINUOUS
 10
59.241397429
 20
109.7012796629
  0
SEQEND
  0
LINE
  8
0
 62
7
  6
CONTINUOUS
 10
54.191397429
 20
121.3551201439
 11
54.191397429
 21
138.7551201439
  0
POLYLINE
  8
0
 62
7
  6
CONTINUOUS
 66
1
 70
0
  0
VERTEX
  8
0
 62
7
  6
CONTINUOUS
 10
115.141397429
 20
109.7012796629
  0
VERTEX
  8
0
 62
7
  6
CONTINUOUS
 10
115.2619422153
 20
109.7035439557
  0
VERTEX
  8
0
 62
7
  6
CONTINUOUS
 10
115.3751091517
 20
109.7102044283
  0
VERTEX
  8
0
 62
7
  6
CONTINUOUS
 10
115.474317109
 20
109.7209009156
  0
VERTEX
  8
0
 62
7
  6
CONTINUOUS
 10
115.5168655262
 20
109.7275932545
  0
VERTEX
  8
0
 62
7
  6
CONTINUOUS
 10
115.5848593065
 20
109.7432234881
  0
VERTEX
  8
0
 62
7
  6
CONTINUOUS
 10
115.6270977085
 20
109.7611388949
  0
VERTEX
  8
0
 62
7
  6
CONTINUOUS
 10
115.641397429
 20
109.7803752725
  0
SEQEND
  0
POLYLINE
  8
0
 62
7
  6
CONTINUOUS
 66
1
 70
0
  0
VERTEX
  8
0
 62
7
  6
CONTINUOUS
 10
102.441397429
 20
109.7012796629
  0
VERTEX
  8
0
 62
7
  6
CONTINUOUS
 10
102.5619422153
 20
109.7035439557
  0
VERTEX
  8
0
 62
7
  6
CONTINUOUS
 10
102.6751091517
 20
109.7102044283
  0
VERTEX
  8
0
 62
7
  6
CONTINUOUS
 10
102.774317109
 20
109.7209009156
  0
VERTEX
  8
0
 62
7
  6
CONTINUOUS
 10
102.8168655262
 20
109.7275932545
  0
VERTEX
  8
0
 62
7
  6
CONTINUOUS
 10
102.8848593065
 20
109.7432234881
  0
VERTEX
  8
0
 62
7
  6
CONTINUOUS
 10
102.9270977085
 20
109.7611388949
  0
VERTEX
  8
0
 62
7
  6
CONTINUOUS
 10
102.941397429
 20
109.7803752725
  0
SEQEND
  0
POLYLINE
  8
0
 62
7
  6
CONTINUOUS
 66
1
 70
0
  0
VERTEX
  8
0
 62
7
  6
CONTINUOUS
 10
89.741397429
 20
109.7012796629
  0
VERTEX
  8
0
 62
7
  6
CONTINUOUS
 10
89.8619422153
 20
109.7035439557
  0
VERTEX
  8
0
 62
7
  6
CONTINUOUS
 10
89.9751091517
 20
109.7102044283
  0
VERTEX
  8
0
 62
7
  6
CONTINUOUS
 10
90.074317109
 20
109.7209009156
  0
VERTEX
  8
0
 62
7
  6
CONTINUOUS
 10
90.1168655262
 20
109.7275932545
  0
VERTEX
  8
0
 62
7
  6
CONTINUOUS
 10
90.1848593065
 20
109.7432234881
  0
VERTEX
  8
0
 62
7
  6
CONTINUOUS
 10
90.2270977085
 20
109.7611388949
  0
VERTEX
  8
0
 62
7
  6
CONTINUOUS
 10
90.241397429
 20
109.7803752725
  0
SEQEND
  0
POLYLINE
  8
0
 62
7
  6
CONTINUOUS
 66
1
 70
0
  0
VERTEX
  8
0
 62
7
  6
CONTINUOUS
 10
77.041397429
 20
109.7012796629
  0
VERTEX
  8
0
 62
7
  6
CONTINUOUS
 10
77.1619422153
 20
109.7035439557
  0
VERTEX
  8
0
 62
7
  6
CONTINUOUS
 10
77.2751091517
 20
109.7102044283
  0
VERTEX
  8
0
 62
7
  6
CONTINUOUS
 10
77.374317109
 20
109.7209009156
  0
VERTEX
  8
0
 62
7
  6
CONTINUOUS
 10
77.4168655262
 20
109.7275932545
  0
VERTEX
  8
0
 62
7
  6
CONTINUOUS
 10
77.4848593065
 20
109.7432234881
  0
VERTEX
  8
0
 62
7
  6
CONTINUOUS
 10
77.5270977085
 20
109.7611388949
  0
VERTEX
  8
0
 62
7
  6
CONTINUOUS
 10
77.541397429
 20
109.7803752725
  0
SEQEND
  0
POLYLINE
  8
0
 62
7
  6
CONTINUOUS
 66
1
 70
0
  0
VERTEX
  8
0
 62
7
  6
CONTINUOUS
 10
64.341397429
 20
109.7012796629
  0
VERTEX
  8
0
 62
7
  6
CONTINUOUS
 10
64.4619422153
 20
109.7035439557
  0
VERTEX
  8
0
 62
7
  6
CONTINUOUS
 10
64.5751091517
 20
109.7102044283
  0
VERTEX
  8
0
 62
7
  6
CONTINUOUS
 10
64.674317109
 20
109.7209009156
  0
VERTEX
  8
0
 62
7
  6
CONTINUOUS
 10
64.7168655262
 20
109.7275932545
  0
VERTEX
  8
0
 62
7
  6
CONTINUOUS
 10
64.7848593065
 20
109.7432234881
  0
VERTEX
  8
0
 62
7
  6
CONTINUOUS
 10
64.8270977085
 20
109.7611388949
  0
VERTEX
  8
0
 62
7
  6
CONTINUOUS
 10
64.841397429
 20
109.7803752725
  0
SEQEND
  0
POLYLINE
  8
0
 62
7
  6
CONTINUOUS
 66
1
 70
0
  0
VERTEX
  8
0
 62
7
  6
CONTINUOUS
 10
51.641397429
 20
109.7012796629
  0
VERTEX
  8
0
 62
7
  6
CONTINUOUS
 10
51.7619422153
 20
109.7035439557
  0
VERTEX
  8
0
 62
7
  6
CONTINUOUS
 10
51.8751091517
 20
109.7102044283
  0
VERTEX
  8
0
 62
7
  6
CONTINUOUS
 10
51.974317109
 20
109.7209009156
  0
VERTEX
  8
0
 62
7
  6
CONTINUOUS
 10
52.0168655262
 20
109.7275932545
  0
VERTEX
  8
0
 62
7
  6
CONTINUOUS
 10
52.0848593065
 20
109.7432234881
  0
VERTEX
  8
0
 62
7
  6
CONTINUOUS
 10
52.1270977085
 20
109.7611388949
  0
VERTEX
  8
0
 62
7
  6
CONTINUOUS
 10
52.141397429
 20
109.7803752725
  0
SEQEND
  0
POLYLINE
  8
0
 62
7
  6
CONTINUOUS
 66
1
 70
0
  0
VERTEX
  8
0
 62
7
  6
CONTINUOUS
 10
26.241397429
 20
109.7012796629
  0
VERTEX
  8
0
 62
7
  6
CONTINUOUS
 10
26.3619422153
 20
109.7035439557
  0
VERTEX
  8
0
 62
7
  6
CONTINUOUS
 10
26.4751091517
 20
109.7102044283
  0
VERTEX
  8
0
 62
7
  6
CONTINUOUS
 10
26.574317109
 20
109.7209009156
  0
VERTEX
  8
0
 62
7
  6
CONTINUOUS
 10
26.6168655262
 20
109.7275932545
  0
VERTEX
  8
0
 62
7
  6
CONTINUOUS
 10
26.6848593065
 20
109.7432234881
  0
VERTEX
  8
0
 62
7
  6
CONTINUOUS
 10
26.7270977085
 20
109.7611388949
  0
VERTEX
  8
0
 62
7
  6
CONTINUOUS
 10
26.741397429
 20
109.7803752725
  0
SEQEND
  0
LINE
  8
0
 62
7
  6
CONTINUOUS
 10
24.441397429
 20
109.7012796629
 11
26.241397429
 21
109.7012796629
  0
LINE
  8
0
 62
7
  6
CONTINUOUS
 10
33.841397429
 20
109.7012796629
 11
38.941397429
 21
109.7012796629
  0
LINE
  8
0
 62
7
  6
CONTINUOUS
 10
46.541397429
 20
109.7012796629
 11
51.641397429
 21
109.7012796629
  0
LINE
  8
0
 62
7
  6
CONTINUOUS
 10
59.241397429
 20
109.7012796629
 11
64.341397429
 21
109.7012796629
  0
LINE
  8
0
 62
7
  6
CONTINUOUS
 10
71.941397429
 20
109.7012796629
 11
77.041397429
 21
109.7012796629
  0
LINE
  8
0
 62
7
  6
CONTINUOUS
 10
84.641397429
 20
109.7012796629
 11
89.741397429
 21
109.7012796629
  0
LINE
  8
0
 62
7
  6
CONTINUOUS
 10
97.341397429
 20
109.7012796629
 11
102.441397429
 21
109.7012796629
  0
LINE
  8
0
 62
7
  6
CONTINUOUS
 10
110.041397429
 20
109.7012796629
 11
115.141397429
 21
109.7012796629
  0
LINE
  8
0
 62
7
  6
CONTINUOUS
 10
122.741397429
 20
109.7012796629
 11
124.541397429
 21
109.7012796629
  0
LINE
  8
1_AXIS
 62
2
  6
CENTER
 10
22.1047067908
 20
111.0051201439
 11
131.1009161868
 21
111.0051201439
  0
POLYLINE
  8
0
 62
7
  6
CONTINUOUS
 66
1
 70
0
  0
VERTEX
  8
0
 62
7
  6
CONTINUOUS
 10
24.441397429
 20
109.7012796629
  0
VERTEX
  8
0
 62
7
  6
CONTINUOUS
 10
24.3208526428
 20
109.7035439557
  0
VERTEX
  8
0
 62
7
  6
CONTINUOUS
 10
24.2076857063
 20
109.7102044283
  0
VERTEX
  8
0
 62
7
  6
CONTINUOUS
 10
24.1084777491
 20
109.7209009156
  0
VERTEX
  8
0
 62
7
  6
CONTINUOUS
 10
24.0659293319
 20
109.7275932545
  0
VERTEX
  8
0
 62
7
  6
CONTINUOUS
 10
23.9979355515
 20
109.7432234881
  0
VERTEX
  8
0
 62
7
  6
CONTINUOUS
 10
23.9556971495
 20
109.7611388949
  0
VERTEX
  8
0
 62
7
  6
CONTINUOUS
 10
23.941397429
 20
109.7803752725
  0
SEQEND
  0
POLYLINE
  8
0
 62
7
  6
CONTINUOUS
 66
1
 70
0
  0
VERTEX
  8
0
 62
7
  6
CONTINUOUS
 10
46.541397429
 20
109.7012796629
  0
VERTEX
  8
0
 62
7
  6
CONTINUOUS
 10
46.4208526428
 20
109.7035439557
  0
VERTEX
  8
0
 62
7
  6
CONTINUOUS
 10
46.3076857063
 20
109.7102044283
  0
VERTEX
  8
0
 62
7
  6
CONTINUOUS
 10
46.2084777491
 20
109.7209009156
  0
VERTEX
  8
0
 62
7
  6
CONTINUOUS
 10
46.1659293319
 20
109.7275932545
  0
VERTEX
  8
0
 62
7
  6
CONTINUOUS
 10
46.0979355515
 20
109.7432234881
  0
VERTEX
  8
0
 62
7
  6
CONTINUOUS
 10
46.0556971495
 20
109.7611388949
  0
VERTEX
  8
0
 62
7
  6
CONTINUOUS
 10
46.041397429
 20
109.7803752725
  0
SEQEND
  0
POLYLINE
  8
0
 62
7
  6
CONTINUOUS
 66
1
 70
0
  0
VERTEX
  8
0
 62
7
  6
CONTINUOUS
 10
32.8413974246
 20
114.6194243788
  0
VERTEX
  8
0
 62
7
  6
CONTINUOUS
 10
32.9081865536
 20
114.6104433297
  0
VERTEX
  8
0
 62
7
  6
CONTINUOUS
 10
32.9840691115
 20
114.5784044684
  0
VERTEX
  8
0
 62
7
  6
CONTINUOUS
 10
33.0557695702
 20
114.5257111957
  0
VERTEX
  8
0
 62
7
  6
CONTINUOUS
 10
33.1212426208
 20
114.4553709548
  0
VERTEX
  8
0
 62
7
  6
CONTINUOUS
 10
33.1793313088
 20
114.3697001027
  0
VERTEX
  8
0
 62
7
  6
CONTINUOUS
 10
33.2294687009
 20
114.2699620319
  0
VERTEX
  8
0
 62
7
  6
CONTINUOUS
 10
33.2708708919
 20
114.1576632405
  0
VERTEX
  8
0
 62
7
  6
CONTINUOUS
 10
33.3028629997
 20
114.0347585517
  0
VERTEX
  8
0
 62
7
  6
CONTINUOUS
 10
33.3251650869
 20
113.9032126058
  0
VERTEX
  8
0
 62
7
  6
CONTINUOUS
 10
33.3378545091
 20
113.7650437606
  0
VERTEX
  8
0
 62
7
  6
CONTINUOUS
 10
33.341397888
 20
113.6371068055
  0
SEQEND
  0
POLYLINE
  8
0
 62
7
  6
CONTINUOUS
 66
1
 70
0
  0
VERTEX
  8
0
 62
7
  6
CONTINUOUS
 10
45.5413974246
 20
114.6194243791
  0
VERTEX
  8
0
 62
7
  6
CONTINUOUS
 10
45.6081865507
 20
114.6104433304
  0
VERTEX
  8
0
 62
7
  6
CONTINUOUS
 10
45.6840691247
 20
114.5784044599
  0
VERTEX
  8
0
 62
7
  6
CONTINUOUS
 10
45.7557695922
 20
114.5257111749
  0
VERTEX
  8
0
 62
7
  6
CONTINUOUS
 10
45.8212426117
 20
114.4553709619
  0
VERTEX
  8
0
 62
7
  6
CONTINUOUS
 10
45.8793313223
 20
114.3697000802
  0
VERTEX
  8
0
 62
7
  6
CONTINUOUS
 10
45.9294687025
 20
114.2699620286
  0
VERTEX
  8
0
 62
7
  6
CONTINUOUS
 10
45.9708708932
 20
114.1576632362
  0
VERTEX
  8
0
 62
7
  6
CONTINUOUS
 10
46.0028629991
 20
114.0347585565
  0
VERTEX
  8
0
 62
7
  6
CONTINUOUS
 10
46.0251650852
 20
113.9032126286
  0
VERTEX
  8
0
 62
7
  6
CONTINUOUS
 10
46.0378545068
 20
113.7650437827
  0
VERTEX
  8
0
 62
7
  6
CONTINUOUS
 10
46.0413978892
 20
113.6371066888
  0
SEQEND
  0
POLYLINE
  8
0
 62
7
  6
CONTINUOUS
 66
1
 70
0
  0
VERTEX
  8
0
 62
7
  6
CONTINUOUS
 10
33.091397429
 20
150.3298650153
  0
VERTEX
  8
0
 62
7
  6
CONTINUOUS
 10
33.0770977085
 20
150.3491013929
  0
VERTEX
  8
0
 62
7
  6
CONTINUOUS
 10
33.0348593065
 20
150.3670167998
  0
VERTEX
  8
0
 62
7
  6
CONTINUOUS
 10
32.9668655262
 20
150.3826470334
  0
VERTEX
  8
0
 62
7
  6
CONTINUOUS
 10
32.924317109
 20
150.3893393723
  0
VERTEX
  8
0
 62
7
  6
CONTINUOUS
 10
32.8251091517
 20
150.4000358596
  0
VERTEX
  8
0
 62
7
  6
CONTINUOUS
 10
32.7119422153
 20
150.4066963321
  0
VERTEX
  8
0
 62
7
  6
CONTINUOUS
 10
32.591397429
 20
150.408960625
  0
SEQEND
  0
LINE
  8
0
 62
7
  6
CONTINUOUS
 10
56.691397429
 20
138.7551201439
 11
56.691397429
 21
121.3551201439
  0
LINE
  8
0
 62
7
  6
CONTINUOUS
 10
58.491397429
 20
146.4731056529
 11
58.491397429
 21
152.8451201439
  0
LINE
  8
0
 62
7
  6
CONTINUOUS
 10
58.741397429
 20
107.2651201439
 11
58.741397429
 21
113.6371345816
  0
POLYLINE
  8
0
 62
7
  6
CONTINUOUS
 66
1
 70
0
  0
VERTEX
  8
0
 62
7
  6
CONTINUOUS
 10
39.441397429
 20
109.7803752725
  0
VERTEX
  8
0
 62
7
  6
CONTINUOUS
 10
39.4270977085
 20
109.7611388949
  0
VERTEX
  8
0
 62
7
  6
CONTINUOUS
 10
39.3848593065
 20
109.7432234881
  0
VERTEX
  8
0
 62
7
  6
CONTINUOUS
 10
39.3168655262
 20
109.7275932545
  0
VERTEX
  8
0
 62
7
  6
CONTINUOUS
 10
39.274317109
 20
109.7209009156
  0
VERTEX
  8
0
 62
7
  6
CONTINUOUS
 10
39.1751091517
 20
109.7102044283
  0
VERTEX
  8
0
 62
7
  6
CONTINUOUS
 10
39.0619422153
 20
109.7035439557
  0
VERTEX
  8
0
 62
7
  6
CONTINUOUS
 10
38.941397429
 20
109.7012796629
  0
SEQEND
  0
LINE
  8
0
 62
7
  6
CONTINUOUS
 10
27.241397429
 20
114.6194244594
 11
32.8413974246
 21
114.6194244594
  0
LINE
  8
0
 62
7
  6
CONTINUOUS
 10
39.941397429
 20
114.6194244594
 11
45.5413974246
 21
114.6194244594
  0
LINE
  8
0
 62
7
  6
CONTINUOUS
 10
52.641397429
 20
114.6194244594
 11
58.2413974246
 21
114.6194244594
  0
LINE
  8
0
 62
7
  6
CONTINUOUS
 10
65.341397429
 20
114.6194244594
 11
70.9413974246
 21
114.6194244594
  0
LINE
  8
0
 62
7
  6
CONTINUOUS
 10
78.041397429
 20
114.6194244594
 11
83.6413974246
 21
114.6194244594
  0
LINE
  8
0
 62
7
  6
CONTINUOUS
 10
90.741397429
 20
114.6194244594
 11
96.3413974246
 21
114.6194244594
  0
LINE
  8
0
 62
7
  6
CONTINUOUS
 10
103.441397429
 20
114.6194244594
 11
109.0413974246
 21
114.6194244594
  0
LINE
  8
0
 62
7
  6
CONTINUOUS
 10
116.141397429
 20
114.6194244594
 11
121.7413974246
 21
114.6194244594
  0
LINE
  8
0
 62
7
  6
CONTINUOUS
 10
23.741397429
 20
115.5411417614
 11
23.941397429
 21
115.5411417614
  0
LINE
  8
0
 62
7
  6
CONTINUOUS
 10
125.041397429
 20
115.5411417614
 11
125.241397429
 21
115.5411417614
  0
POLYLINE
  8
0
 62
7
  6
CONTINUOUS
 66
1
 70
0
  0
VERTEX
  8
0
 62
7
  6
CONTINUOUS
 10
58.2413974246
 20
114.6194243788
  0
VERTEX
  8
0
 62
7
  6
CONTINUOUS
 10
58.3081865536
 20
114.6104433297
  0
VERTEX
  8
0
 62
7
  6
CONTINUOUS
 10
58.3840691115
 20
114.5784044684
  0
VERTEX
  8
0
 62
7
  6
CONTINUOUS
 10
58.4557695702
 20
114.5257111957
  0
VERTEX
  8
0
 62
7
  6
CONTINUOUS
 10
58.5212426208
 20
114.4553709548
  0
VERTEX
  8
0
 62
7
  6
CONTINUOUS
 10
58.5793313088
 20
114.3697001027
  0
VERTEX
  8
0
 62
7
  6
CONTINUOUS
 10
58.6294687009
 20
114.2699620319
  0
VERTEX
  8
0
 62
7
  6
CONTINUOUS
 10
58.6708708919
 20
114.1576632405
  0
VERTEX
  8
0
 62
7
  6
CONTINUOUS
 10
58.7028629997
 20
114.0347585517
  0
VERTEX
  8
0
 62
7
  6
CONTINUOUS
 10
58.7251650869
 20
113.9032126058
  0
VERTEX
  8
0
 62
7
  6
CONTINUOUS
 10
58.7378545091
 20
113.7650437606
  0
VERTEX
  8
0
 62
7
  6
CONTINUOUS
 10
58.741397888
 20
113.6371068055
  0
SEQEND
  0
POLYLINE
  8
0
 62
7
  6
CONTINUOUS
 66
1
 70
0
  0
VERTEX
  8
0
 62
7
  6
CONTINUOUS
 10
70.9413974246
 20
114.6194243791
  0
VERTEX
  8
0
 62
7
  6
CONTINUOUS
 10
71.0081865507
 20
114.6104433304
  0
VERTEX
  8
0
 62
7
  6
CONTINUOUS
 10
71.0840691247
 20
114.5784044599
  0
VERTEX
  8
0
 62
7
  6
CONTINUOUS
 10
71.1557695922
 20
114.5257111749
  0
VERTEX
  8
0
 62
7
  6
CONTINUOUS
 10
71.2212426117
 20
114.4553709619
  0
VERTEX
  8
0
 62
7
  6
CONTINUOUS
 10
71.2793313223
 20
114.3697000802
  0
VERTEX
  8
0
 62
7
  6
CONTINUOUS
 10
71.3294687025
 20
114.2699620286
  0
VERTEX
  8
0
 62
7
  6
CONTINUOUS
 10
71.3708708932
 20
114.1576632362
  0
VERTEX
  8
0
 62
7
  6
CONTINUOUS
 10
71.4028629991
 20
114.0347585565
  0
VERTEX
  8
0
 62
7
  6
CONTINUOUS
 10
71.4251650852
 20
113.9032126286
  0
VERTEX
  8
0
 62
7
  6
CONTINUOUS
 10
71.4378545068
 20
113.7650437827
  0
VERTEX
  8
0
 62
7
  6
CONTINUOUS
 10
71.4413978892
 20
113.6371066888
  0
SEQEND
  0
POLYLINE
  8
0
 62
7
  6
CONTINUOUS
 66
1
 70
0
  0
VERTEX
  8
0
 62
7
  6
CONTINUOUS
 10
71.441397429
 20
109.7803752725
  0
VERTEX
  8
0
 62
7
  6
CONTINUOUS
 10
71.4556971495
 20
109.7611388949
  0
VERTEX
  8
0
 62
7
  6
CONTINUOUS
 10
71.4979355515
 20
109.7432234881
  0
VERTEX
  8
0
 62
7
  6
CONTINUOUS
 10
71.5659293319
 20
109.7275932545
  0
VERTEX
  8
0
 62
7
  6
CONTINUOUS
 10
71.6084777491
 20
109.7209009156
  0
VERTEX
  8
0
 62
7
  6
CONTINUOUS
 10
71.7076857063
 20
109.7102044283
  0
VERTEX
  8
0
 62
7
  6
CONTINUOUS
 10
71.8208526428
 20
109.7035439557
  0
VERTEX
  8
0
 62
7
  6
CONTINUOUS
 10
71.941397429
 20
109.7012796629
  0
SEQEND
  0
LINE
  8
0
 62
7
  6
CONTINUOUS
 10
60.541397429
 20
121.3551201439
 11
60.541397429
 21
138.7551201439
  0
LINE
  8
0
 62
7
  6
CONTINUOUS
 10
63.041397429
 20
138.7551201439
 11
63.041397429
 21
121.3551201439
  0
POLYLINE
  8
0
 62
7
  6
CONTINUOUS
 66
1
 70
0
  0
VERTEX
  8
0
 62
7
  6
CONTINUOUS
 10
83.6413974246
 20
114.6194243788
  0
VERTEX
  8
0
 62
7
  6
CONTINUOUS
 10
83.7081865536
 20
114.6104433297
  0
VERTEX
  8
0
 62
7
  6
CONTINUOUS
 10
83.7840691115
 20
114.5784044684
  0
VERTEX
  8
0
 62
7
  6
CONTINUOUS
 10
83.8557695702
 20
114.5257111957
  0
VERTEX
  8
0
 62
7
  6
CONTINUOUS
 10
83.9212426208
 20
114.4553709548
  0
VERTEX
  8
0
 62
7
  6
CONTINUOUS
 10
83.9793313088
 20
114.3697001027
  0
VERTEX
  8
0
 62
7
  6
CONTINUOUS
 10
84.0294687009
 20
114.2699620319
  0
VERTEX
  8
0
 62
7
  6
CONTINUOUS
 10
84.0708708919
 20
114.1576632405
  0
VERTEX
  8
0
 62
7
  6
CONTINUOUS
 10
84.1028629997
 20
114.0347585517
  0
VERTEX
  8
0
 62
7
  6
CONTINUOUS
 10
84.1251650869
 20
113.9032126058
  0
VERTEX
  8
0
 62
7
  6
CONTINUOUS
 10
84.1378545091
 20
113.7650437606
  0
VERTEX
  8
0
 62
7
  6
CONTINUOUS
 10
84.141397888
 20
113.6371068055
  0
SEQEND
  0
POLYLINE
  8
0
 62
7
  6
CONTINUOUS
 66
1
 70
0
  0
VERTEX
  8
0
 62
7
  6
CONTINUOUS
 10
96.3413974246
 20
114.6194243791
  0
VERTEX
  8
0
 62
7
  6
CONTINUOUS
 10
96.4081865507
 20
114.6104433304
  0
VERTEX
  8
0
 62
7
  6
CONTINUOUS
 10
96.4840691247
 20
114.5784044599
  0
VERTEX
  8
0
 62
7
  6
CONTINUOUS
 10
96.5557695922
 20
114.5257111749
  0
VERTEX
  8
0
 62
7
  6
CONTINUOUS
 10
96.6212426117
 20
114.4553709619
  0
VERTEX
  8
0
 62
7
  6
CONTINUOUS
 10
96.6793313223
 20
114.3697000802
  0
VERTEX
  8
0
 62
7
  6
CONTINUOUS
 10
96.7294687025
 20
114.2699620286
  0
VERTEX
  8
0
 62
7
  6
CONTINUOUS
 10
96.7708708932
 20
114.1576632362
  0
VERTEX
  8
0
 62
7
  6
CONTINUOUS
 10
96.8028629991
 20
114.0347585565
  0
VERTEX
  8
0
 62
7
  6
CONTINUOUS
 10
96.8251650852
 20
113.9032126286
  0
VERTEX
  8
0
 62
7
  6
CONTINUOUS
 10
96.8378545068
 20
113.7650437827
  0
VERTEX
  8
0
 62
7
  6
CONTINUOUS
 10
96.8413978892
 20
113.6371066888
  0
SEQEND
  0
POLYLINE
  8
0
 62
7
  6
CONTINUOUS
 66
1
 70
0
  0
VERTEX
  8
0
 62
7
  6
CONTINUOUS
 10
109.0413974246
 20
114.6194243788
  0
VERTEX
  8
0
 62
7
  6
CONTINUOUS
 10
109.1081865536
 20
114.6104433297
  0
VERTEX
  8
0
 62
7
  6
CONTINUOUS
 10
109.1840691115
 20
114.5784044684
  0
VERTEX
  8
0
 62
7
  6
CONTINUOUS
 10
109.2557695702
 20
114.5257111957
  0
VERTEX
  8
0
 62
7
  6
CONTINUOUS
 10
109.3212426208
 20
114.4553709548
  0
VERTEX
  8
0
 62
7
  6
CONTINUOUS
 10
109.3793313088
 20
114.3697001027
  0
VERTEX
  8
0
 62
7
  6
CONTINUOUS
 10
109.4294687009
 20
114.2699620319
  0
VERTEX
  8
0
 62
7
  6
CONTINUOUS
 10
109.4708708919
 20
114.1576632405
  0
VERTEX
  8
0
 62
7
  6
CONTINUOUS
 10
109.5028629997
 20
114.0347585517
  0
VERTEX
  8
0
 62
7
  6
CONTINUOUS
 10
109.5251650869
 20
113.9032126058
  0
VERTEX
  8
0
 62
7
  6
CONTINUOUS
 10
109.5378545091
 20
113.7650437606
  0
VERTEX
  8
0
 62
7
  6
CONTINUOUS
 10
109.541397888
 20
113.6371068055
  0
SEQEND
  0
LINE
  8
0
 62
7
  6
CONTINUOUS
 10
64.841397429
 20
107.2651201439
 11
64.841397429
 21
113.637134635
  0
LINE
  8
0
 62
7
  6
CONTINUOUS
 10
65.091397429
 20
152.8451201439
 11
65.091397429
 21
146.4731057063
  0
LINE
  8
0
 62
7
  6
CONTINUOUS
 10
66.891397429
 20
121.3551201439
 11
66.891397429
 21
138.7551201439
  0
POLYLINE
  8
0
 62
7
  6
CONTINUOUS
 66
1
 70
0
  0
VERTEX
  8
0
 62
7
  6
CONTINUOUS
 10
65.0913978856
 20
146.4731338665
  0
VERTEX
  8
0
 62
7
  6
CONTINUOUS
 10
65.0879274388
 20
146.3464879194
  0
VERTEX
  8
0
 62
7
  6
CONTINUOUS
 10
65.0753180783
 20
146.2082158193
  0
VERTEX
  8
0
 62
7
  6
CONTINUOUS
 10
65.0530939357
 20
146.0765681122
  0
VERTEX
  8
0
 62
7
  6
CONTINUOUS
 10
65.0211774451
 20
145.9535614878
  0
VERTEX
  8
0
 62
7
  6
CONTINUOUS
 10
64.9798480116
 20
145.8411578507
  0
VERTEX
  8
0
 62
7
  6
CONTINUOUS
 10
64.9297805915
 20
145.7413108727
  0
VERTEX
  8
0
 62
7
  6
CONTINUOUS
 10
64.8717570833
 20
145.6555209194
  0
VERTEX
  8
0
 62
7
  6
CONTINUOUS
 10
64.8063441223
 20
145.5850471478
  0
VERTEX
  8
0
 62
7
  6
CONTINUOUS
 10
64.7346914324
 20
145.5321962929
  0
VERTEX
  8
0
 62
7
  6
CONTINUOUS
 10
64.658828792
 20
145.4999703775
  0
VERTEX
  8
0
 62
7
  6
CONTINUOUS
 10
64.591397429
 20
145.4908159096
  0
SEQEND
  0
POLYLINE
  8
0
 62
7
  6
CONTINUOUS
 66
1
 70
0
  0
VERTEX
  8
0
 62
7
  6
CONTINUOUS
 10
64.8413972195
 20
113.6370974698
  0
VERTEX
  8
0
 62
7
  6
CONTINUOUS
 10
64.8448676109
 20
113.7637562036
  0
VERTEX
  8
0
 62
7
  6
CONTINUOUS
 10
64.8574771896
 20
113.902029744
  0
VERTEX
  8
0
 62
7
  6
CONTINUOUS
 10
64.8797013018
 20
114.0336747896
  0
VERTEX
  8
0
 62
7
  6
CONTINUOUS
 10
64.9116174934
 20
114.1566794774
  0
VERTEX
  8
0
 62
7
  6
CONTINUOUS
 10
64.9529470504
 20
114.2690829941
  0
VERTEX
  8
0
 62
7
  6
CONTINUOUS
 10
65.0030141696
 20
114.3689292787
  0
VERTEX
  8
0
 62
7
  6
CONTINUOUS
 10
65.0610381673
 20
114.4547197114
  0
VERTEX
  8
0
 62
7
  6
CONTINUOUS
 10
65.1264508812
 20
114.5251933405
  0
VERTEX
  8
0
 62
7
  6
CONTINUOUS
 10
65.1981042084
 20
114.5780445128
  0
VERTEX
  8
0
 62
7
  6
CONTINUOUS
 10
65.2739698272
 20
114.6102709194
  0
VERTEX
  8
0
 62
7
  6
CONTINUOUS
 10
65.341397429
 20
114.6194243767
  0
SEQEND
  0
POLYLINE
  8
0
 62
7
  6
CONTINUOUS
 66
1
 70
0
  0
VERTEX
  8
0
 62
7
  6
CONTINUOUS
 10
77.791397429
 20
150.3298650153
  0
VERTEX
  8
0
 62
7
  6
CONTINUOUS
 10
77.8056971495
 20
150.3491013929
  0
VERTEX
  8
0
 62
7
  6
CONTINUOUS
 10
77.8479355515
 20
150.3670167998
  0
VERTEX
  8
0
 62
7
  6
CONTINUOUS
 10
77.9159293319
 20
150.3826470334
  0
VERTEX
  8
0
 62
7
  6
CONTINUOUS
 10
77.9584777491
 20
150.3893393723
  0
VERTEX
  8
0
 62
7
  6
CONTINUOUS
 10
78.0576857063
 20
150.4000358596
  0
VERTEX
  8
0
 62
7
  6
CONTINUOUS
 10
78.1708526428
 20
150.4066963321
  0
VERTEX
  8
0
 62
7
  6
CONTINUOUS
 10
78.291397429
 20
150.408960625
  0
SEQEND
  0
POLYLINE
  8
0
 62
7
  6
CONTINUOUS
 66
1
 70
0
  0
VERTEX
  8
0
 62
7
  6
CONTINUOUS
 10
121.7413974246
 20
114.6194243788
  0
VERTEX
  8
0
 62
7
  6
CONTINUOUS
 10
121.8081865536
 20
114.6104433297
  0
VERTEX
  8
0
 62
7
  6
CONTINUOUS
 10
121.8840691115
 20
114.5784044684
  0
VERTEX
  8
0
 62
7
  6
CONTINUOUS
 10
121.9557695702
 20
114.5257111957
  0
VERTEX
  8
0
 62
7
  6
CONTINUOUS
 10
122.0212426208
 20
114.4553709548
  0
VERTEX
  8
0
 62
7
  6
CONTINUOUS
 10
122.0793313088
 20
114.3697001027
  0
VERTEX
  8
0
 62
7
  6
CONTINUOUS
 10
122.1294687009
 20
114.2699620319
  0
VERTEX
  8
0
 62
7
  6
CONTINUOUS
 10
122.1708708919
 20
114.1576632405
  0
VERTEX
  8
0
 62
7
  6
CONTINUOUS
 10
122.2028629997
 20
114.0347585517
  0
VERTEX
  8
0
 62
7
  6
CONTINUOUS
 10
122.2251650869
 20
113.9032126058
  0
VERTEX
  8
0
 62
7
  6
CONTINUOUS
 10
122.2378545091
 20
113.7650437606
  0
VERTEX
  8
0
 62
7
  6
CONTINUOUS
 10
122.241397888
 20
113.6371068055
  0
SEQEND
  0
LINE
  8
0
 62
7
  6
CONTINUOUS
 10
69.391397429
 20
138.7551201439
 11
69.391397429
 21
121.3551201439
  0
LINE
  8
0
 62
7
  6
CONTINUOUS
 10
71.191397429
 20
146.4731056528
 11
71.191397429
 21
152.8451201439
  0
POLYLINE
  8
0
 62
7
  6
CONTINUOUS
 66
1
 70
0
  0
VERTEX
  8
0
 62
7
  6
CONTINUOUS
 10
84.141397429
 20
109.7803752725
  0
VERTEX
  8
0
 62
7
  6
CONTINUOUS
 10
84.1556971495
 20
109.7611388949
  0
VERTEX
  8
0
 62
7
  6
CONTINUOUS
 10
84.1979355515
 20
109.7432234881
  0
VERTEX
  8
0
 62
7
  6
CONTINUOUS
 10
84.2659293319
 20
109.7275932545
  0
VERTEX
  8
0
 62
7
  6
CONTINUOUS
 10
84.3084777491
 20
109.7209009156
  0
VERTEX
  8
0
 62
7
  6
CONTINUOUS
 10
84.4076857063
 20
109.7102044283
  0
VERTEX
  8
0
 62
7
  6
CONTINUOUS
 10
84.5208526428
 20
109.7035439557
  0
VERTEX
  8
0
 62
7
  6
CONTINUOUS
 10
84.641397429
 20
109.7012796629
  0
SEQEND
  0
LINE
  8
0
 62
7
  6
CONTINUOUS
 10
71.441397429
 20
107.2651201439
 11
71.441397429
 21
113.6371345816
  0
LINE
  8
0
 62
7
  6
CONTINUOUS
 10
73.241397429
 20
121.3551201439
 11
73.241397429
 21
138.7551201439
  0
LINE
  8
1_AXIS
 62
2
  6
CENTER
 10
74.491397429
 20
157.3482369278
 11
74.491397429
 21
132.0552201439
  0
LINE
  8
1_AXIS
 62
2
  6
CONTINUOUS
 10
74.491397429
 20
130.9351201439
 11
74.491397429
 21
129.1751201439
  0
LINE
  8
1_AXIS
 62
2
  6
CENTER
 10
74.491397429
 20
103.4624704849
 11
74.491397429
 21
128.0550201439
  0
LINE
  8
1_AXIS
 62
2
  6
CENTER
 10
129.05978867
 20
130.0551201439
 11
76.491497429
 21
130.0551201439
  0
LINE
  8
1_AXIS
 62
2
  6
CONTINUOUS
 10
75.371397429
 20
130.0551201439
 11
73.611397429
 21
130.0551201439
  0
LINE
  8
1_AXIS
 62
2
  6
CENTER
 10
21.2882557841
 20
130.0551201439
 11
72.491297429
 21
130.0551201439
  0
POLYLINE
  8
0
 62
7
  6
CONTINUOUS
 66
1
 70
0
  0
VERTEX
  8
0
 62
7
  6
CONTINUOUS
 10
58.491397429
 20
150.3298650153
  0
VERTEX
  8
0
 62
7
  6
CONTINUOUS
 10
58.4770977085
 20
150.3491013929
  0
VERTEX
  8
0
 62
7
  6
CONTINUOUS
 10
58.4348593065
 20
150.3670167998
  0
VERTEX
  8
0
 62
7
  6
CONTINUOUS
 10
58.3668655262
 20
150.3826470334
  0
VERTEX
  8
0
 62
7
  6
CONTINUOUS
 10
58.324317109
 20
150.3893393723
  0
VERTEX
  8
0
 62
7
  6
CONTINUOUS
 10
58.2251091517
 20
150.4000358596
  0
VERTEX
  8
0
 62
7
  6
CONTINUOUS
 10
58.1119422153
 20
150.4066963321
  0
VERTEX
  8
0
 62
7
  6
CONTINUOUS
 10
57.991397429
 20
150.408960625
  0
SEQEND
  0
LINE
  8
0
 62
7
  6
CONTINUOUS
 10
75.741397429
 20
138.7551201439
 11
75.741397429
 21
121.3551201439
  0
LINE
  8
0
 62
7
  6
CONTINUOUS
 10
77.541397429
 20
107.2651201439
 11
77.541397429
 21
113.6371346349
  0
LINE
  8
0
 62
7
  6
CONTINUOUS
 10
77.791397429
 20
146.4731057063
 11
77.791397429
 21
152.8451201439
  0
POLYLINE
  8
0
 62
7
  6
CONTINUOUS
 66
1
 70
0
  0
VERTEX
  8
0
 62
7
  6
CONTINUOUS
 10
77.7913978846
 20
146.4731337657
  0
VERTEX
  8
0
 62
7
  6
CONTINUOUS
 10
77.7879274408
 20
146.3464879395
  0
VERTEX
  8
0
 62
7
  6
CONTINUOUS
 10
77.7753180801
 20
146.2082158427
  0
VERTEX
  8
0
 62
7
  6
CONTINUOUS
 10
77.7530939365
 20
146.0765681174
  0
VERTEX
  8
0
 62
7
  6
CONTINUOUS
 10
77.7211774438
 20
145.9535614829
  0
VERTEX
  8
0
 62
7
  6
CONTINUOUS
 10
77.6798480093
 20
145.8411578455
  0
VERTEX
  8
0
 62
7
  6
CONTINUOUS
 10
77.6297805733
 20
145.7413108427
  0
VERTEX
  8
0
 62
7
  6
CONTINUOUS
 10
77.5717570868
 20
145.655520919
  0
VERTEX
  8
0
 62
7
  6
CONTINUOUS
 10
77.506344099
 20
145.585047126
  0
VERTEX
  8
0
 62
7
  6
CONTINUOUS
 10
77.4346914201
 20
145.5321962851
  0
VERTEX
  8
0
 62
7
  6
CONTINUOUS
 10
77.3588287958
 20
145.4999703784
  0
VERTEX
  8
0
 62
7
  6
CONTINUOUS
 10
77.291397429
 20
145.49081591
  0
SEQEND
  0
POLYLINE
  8
0
 62
7
  6
CONTINUOUS
 66
1
 70
0
  0
VERTEX
  8
0
 62
7
  6
CONTINUOUS
 10
77.5413972199
 20
113.6370975537
  0
VERTEX
  8
0
 62
7
  6
CONTINUOUS
 10
77.5448676108
 20
113.7637561801
  0
VERTEX
  8
0
 62
7
  6
CONTINUOUS
 10
77.5574771877
 20
113.9020297123
  0
VERTEX
  8
0
 62
7
  6
CONTINUOUS
 10
77.5797013003
 20
114.0336747804
  0
VERTEX
  8
0
 62
7
  6
CONTINUOUS
 10
77.6116174941
 20
114.1566794798
  0
VERTEX
  8
0
 62
7
  6
CONTINUOUS
 10
77.6529470523
 20
114.2690829994
  0
VERTEX
  8
0
 62
7
  6
CONTINUOUS
 10
77.7030141801
 20
114.3689292979
  0
VERTEX
  8
0
 62
7
  6
CONTINUOUS
 10
77.7610381662
 20
114.4547197155
  0
VERTEX
  8
0
 62
7
  6
CONTINUOUS
 10
77.826450906
 20
114.5251933636
  0
VERTEX
  8
0
 62
7
  6
CONTINUOUS
 10
77.898104222
 20
114.57804452
  0
VERTEX
  8
0
 62
7
  6
CONTINUOUS
 10
77.9739698244
 20
114.6102709187
  0
VERTEX
  8
0
 62
7
  6
CONTINUOUS
 10
78.041397429
 20
114.6194243763
  0
SEQEND
  0
LINE
  8
0
 62
7
  6
CONTINUOUS
 10
79.591397429
 20
121.3551201439
 11
79.591397429
 21
138.7551201439
  0
LINE
  8
0
 62
7
  6
CONTINUOUS
 10
82.091397429
 20
138.7551201439
 11
82.091397429
 21
121.3551201439
  0
POLYLINE
  8
0
 62
7
  6
CONTINUOUS
 66
1
 70
0
  0
VERTEX
  8
0
 62
7
  6
CONTINUOUS
 10
96.841397429
 20
109.7803752725
  0
VERTEX
  8
0
 62
7
  6
CONTINUOUS
 10
96.8556971495
 20
109.7611388949
  0
VERTEX
  8
0
 62
7
  6
CONTINUOUS
 10
96.8979355515
 20
109.7432234881
  0
VERTEX
  8
0
 62
7
  6
CONTINUOUS
 10
96.9659293319
 20
109.7275932545
  0
VERTEX
  8
0
 62
7
  6
CONTINUOUS
 10
97.0084777491
 20
109.7209009156
  0
VERTEX
  8
0
 62
7
  6
CONTINUOUS
 10
97.1076857063
 20
109.7102044283
  0
VERTEX
  8
0
 62
7
  6
CONTINUOUS
 10
97.2208526428
 20
109.7035439557
  0
VERTEX
  8
0
 62
7
  6
CONTINUOUS
 10
97.341397429
 20
109.7012796629
  0
SEQEND
  0
LINE
  8
0
 62
7
  6
CONTINUOUS
 10
83.891397429
 20
146.4731056529
 11
83.891397429
 21
152.8451201439
  0
LINE
  8
0
 62
7
  6
CONTINUOUS
 10
84.141397429
 20
107.2651201439
 11
84.141397429
 21
113.6371345816
  0
LINE
  8
0
 62
7
  6
CONTINUOUS
 10
85.941397429
 20
121.3551201439
 11
85.941397429
 21
138.7551201439
  0
POLYLINE
  8
0
 62
7
  6
CONTINUOUS
 66
1
 70
0
  0
VERTEX
  8
0
 62
7
  6
CONTINUOUS
 10
103.191397429
 20
150.3298650153
  0
VERTEX
  8
0
 62
7
  6
CONTINUOUS
 10
103.2056971495
 20
150.3491013929
  0
VERTEX
  8
0
 62
7
  6
CONTINUOUS
 10
103.2479355515
 20
150.3670167998
  0
VERTEX
  8
0
 62
7
  6
CONTINUOUS
 10
103.3159293319
 20
150.3826470334
  0
VERTEX
  8
0
 62
7
  6
CONTINUOUS
 10
103.3584777491
 20
150.3893393723
  0
VERTEX
  8
0
 62
7
  6
CONTINUOUS
 10
103.4576857063
 20
150.4000358596
  0
VERTEX
  8
0
 62
7
  6
CONTINUOUS
 10
103.5708526428
 20
150.4066963321
  0
VERTEX
  8
0
 62
7
  6
CONTINUOUS
 10
103.691397429
 20
150.408960625
  0
SEQEND
  0
POLYLINE
  8
0
 62
7
  6
CONTINUOUS
 66
1
 70
0
  0
VERTEX
  8
0
 62
7
  6
CONTINUOUS
 10
33.5913974675
 20
145.4908159118
  0
VERTEX
  8
0
 62
7
  6
CONTINUOUS
 10
33.5246122746
 20
145.4997959022
  0
VERTEX
  8
0
 62
7
  6
CONTINUOUS
 10
33.4487266397
 20
145.5318352509
  0
VERTEX
  8
0
 62
7
  6
CONTINUOUS
 10
33.3770255293
 20
145.5845288188
  0
VERTEX
  8
0
 62
7
  6
CONTINUOUS
 10
33.3115526665
 20
145.6548689427
  0
VERTEX
  8
0
 62
7
  6
CONTINUOUS
 10
33.2534634881
 20
145.7405402631
  0
VERTEX
  8
0
 62
7
  6
CONTINUOUS
 10
33.2033263586
 20
145.8402777136
  0
VERTEX
  8
0
 62
7
  6
CONTINUOUS
 10
33.1619240504
 20
145.9525763659
  0
VERTEX
  8
0
 62
7
  6
CONTINUOUS
 10
33.1299322356
 20
146.0754791452
  0
VERTEX
  8
0
 62
7
  6
CONTINUOUS
 10
33.1076301888
 20
146.2070224101
  0
VERTEX
  8
0
 62
7
  6
CONTINUOUS
 10
33.0949405618
 20
146.3451927063
  0
VERTEX
  8
0
 62
7
  6
CONTINUOUS
 10
33.0913972158
 20
146.4731426707
  0
SEQEND
  0
POLYLINE
  8
0
 62
7
  6
CONTINUOUS
 66
1
 70
0
  0
VERTEX
  8
0
 62
7
  6
CONTINUOUS
 10
46.2913974673
 20
145.4908159113
  0
VERTEX
  8
0
 62
7
  6
CONTINUOUS
 10
46.224612277
 20
145.4997959016
  0
VERTEX
  8
0
 62
7
  6
CONTINUOUS
 10
46.1487266254
 20
145.5318352584
  0
VERTEX
  8
0
 62
7
  6
CONTINUOUS
 10
46.0770255027
 20
145.5845288432
  0
VERTEX
  8
0
 62
7
  6
CONTINUOUS
 10
46.0115526637
 20
145.6548689527
  0
VERTEX
  8
0
 62
7
  6
CONTINUOUS
 10
45.9534634739
 20
145.7405402883
  0
VERTEX
  8
0
 62
7
  6
CONTINUOUS
 10
45.9033263553
 20
145.8402777221
  0
VERTEX
  8
0
 62
7
  6
CONTINUOUS
 10
45.8619240492
 20
145.9525763704
  0
VERTEX
  8
0
 62
7
  6
CONTINUOUS
 10
45.829932237
 20
146.0754791376
  0
VERTEX
  8
0
 62
7
  6
CONTINUOUS
 10
45.8076301908
 20
146.2070223795
  0
VERTEX
  8
0
 62
7
  6
CONTINUOUS
 10
45.794940562
 20
146.3451926846
  0
VERTEX
  8
0
 62
7
  6
CONTINUOUS
 10
45.7913972154
 20
146.4731427459
  0
SEQEND
  0
LINE
  8
0
 62
7
  6
CONTINUOUS
 10
88.441397429
 20
138.7551201439
 11
88.441397429
 21
121.3551201439
  0
POLYLINE
  8
0
 62
7
  6
CONTINUOUS
 66
1
 70
0
  0
VERTEX
  8
0
 62
7
  6
CONTINUOUS
 10
58.9913974675
 20
145.4908159118
  0
VERTEX
  8
0
 62
7
  6
CONTINUOUS
 10
58.9246122746
 20
145.4997959022
  0
VERTEX
  8
0
 62
7
  6
CONTINUOUS
 10
58.8487266397
 20
145.5318352509
  0
VERTEX
  8
0
 62
7
  6
CONTINUOUS
 10
58.7770255293
 20
145.5845288188
  0
VERTEX
  8
0
 62
7
  6
CONTINUOUS
 10
58.7115526665
 20
145.6548689427
  0
VERTEX
  8
0
 62
7
  6
CONTINUOUS
 10
58.6534634881
 20
145.7405402631
  0
VERTEX
  8
0
 62
7
  6
CONTINUOUS
 10
58.6033263586
 20
145.8402777136
  0
VERTEX
  8
0
 62
7
  6
CONTINUOUS
 10
58.5619240504
 20
145.9525763659
  0
VERTEX
  8
0
 62
7
  6
CONTINUOUS
 10
58.5299322356
 20
146.0754791452
  0
VERTEX
  8
0
 62
7
  6
CONTINUOUS
 10
58.5076301888
 20
146.2070224101
  0
VERTEX
  8
0
 62
7
  6
CONTINUOUS
 10
58.4949405618
 20
146.3451927063
  0
VERTEX
  8
0
 62
7
  6
CONTINUOUS
 10
58.4913972158
 20
146.4731426707
  0
SEQEND
  0
POLYLINE
  8
0
 62
7
  6
CONTINUOUS
 66
1
 70
0
  0
VERTEX
  8
0
 62
7
  6
CONTINUOUS
 10
71.6913974673
 20
145.4908159113
  0
VERTEX
  8
0
 62
7
  6
CONTINUOUS
 10
71.624612277
 20
145.4997959016
  0
VERTEX
  8
0
 62
7
  6
CONTINUOUS
 10
71.5487266254
 20
145.5318352584
  0
VERTEX
  8
0
 62
7
  6
CONTINUOUS
 10
71.4770255027
 20
145.5845288432
  0
VERTEX
  8
0
 62
7
  6
CONTINUOUS
 10
71.4115526637
 20
145.6548689527
  0
VERTEX
  8
0
 62
7
  6
CONTINUOUS
 10
71.3534634739
 20
145.7405402883
  0
VERTEX
  8
0
 62
7
  6
CONTINUOUS
 10
71.3033263553
 20
145.8402777221
  0
VERTEX
  8
0
 62
7
  6
CONTINUOUS
 10
71.2619240492
 20
145.9525763704
  0
VERTEX
  8
0
 62
7
  6
CONTINUOUS
 10
71.229932237
 20
146.0754791376
  0
VERTEX
  8
0
 62
7
  6
CONTINUOUS
 10
71.2076301908
 20
146.2070223795
  0
VERTEX
  8
0
 62
7
  6
CONTINUOUS
 10
71.194940562
 20
146.3451926846
  0
VERTEX
  8
0
 62
7
  6
CONTINUOUS
 10
71.1913972154
 20
146.4731427459
  0
SEQEND
  0
LINE
  8
0
 62
7
  6
CONTINUOUS
 10
90.241397429
 20
107.2651201439
 11
90.241397429
 21
113.637134635
  0
LINE
  8
0
 62
7
  6
CONTINUOUS
 10
90.491397429
 20
146.4731057063
 11
90.491397429
 21
152.8451201439
  0
LINE
  8
0
 62
7
  6
CONTINUOUS
 10
92.291397429
 20
121.3551201439
 11
92.291397429
 21
138.7551201439
  0
POLYLINE
  8
0
 62
7
  6
CONTINUOUS
 66
1
 70
0
  0
VERTEX
  8
0
 62
7
  6
CONTINUOUS
 10
90.4913978856
 20
146.4731338665
  0
VERTEX
  8
0
 62
7
  6
CONTINUOUS
 10
90.4879274388
 20
146.3464879194
  0
VERTEX
  8
0
 62
7
  6
CONTINUOUS
 10
90.4753180783
 20
146.2082158193
  0
VERTEX
  8
0
 62
7
  6
CONTINUOUS
 10
90.4530939357
 20
146.0765681122
  0
VERTEX
  8
0
 62
7
  6
CONTINUOUS
 10
90.4211774451
 20
145.9535614878
  0
VERTEX
  8
0
 62
7
  6
CONTINUOUS
 10
90.3798480116
 20
145.8411578507
  0
VERTEX
  8
0
 62
7
  6
CONTINUOUS
 10
90.3297805915
 20
145.7413108727
  0
VERTEX
  8
0
 62
7
  6
CONTINUOUS
 10
90.2717570833
 20
145.6555209194
  0
VERTEX
  8
0
 62
7
  6
CONTINUOUS
 10
90.2063441223
 20
145.5850471478
  0
VERTEX
  8
0
 62
7
  6
CONTINUOUS
 10
90.1346914324
 20
145.5321962929
  0
VERTEX
  8
0
 62
7
  6
CONTINUOUS
 10
90.058828792
 20
145.4999703775
  0
VERTEX
  8
0
 62
7
  6
CONTINUOUS
 10
89.991397429
 20
145.4908159096
  0
SEQEND
  0
POLYLINE
  8
0
 62
7
  6
CONTINUOUS
 66
1
 70
0
  0
VERTEX
  8
0
 62
7
  6
CONTINUOUS
 10
90.2413972195
 20
113.6370974698
  0
VERTEX
  8
0
 62
7
  6
CONTINUOUS
 10
90.2448676109
 20
113.7637562036
  0
VERTEX
  8
0
 62
7
  6
CONTINUOUS
 10
90.2574771896
 20
113.902029744
  0
VERTEX
  8
0
 62
7
  6
CONTINUOUS
 10
90.2797013018
 20
114.0336747896
  0
VERTEX
  8
0
 62
7
  6
CONTINUOUS
 10
90.3116174934
 20
114.1566794774
  0
VERTEX
  8
0
 62
7
  6
CONTINUOUS
 10
90.3529470504
 20
114.2690829941
  0
VERTEX
  8
0
 62
7
  6
CONTINUOUS
 10
90.4030141696
 20
114.3689292787
  0
VERTEX
  8
0
 62
7
  6
CONTINUOUS
 10
90.4610381673
 20
114.4547197114
  0
VERTEX
  8
0
 62
7
  6
CONTINUOUS
 10
90.5264508812
 20
114.5251933405
  0
VERTEX
  8
0
 62
7
  6
CONTINUOUS
 10
90.5981042084
 20
114.5780445128
  0
VERTEX
  8
0
 62
7
  6
CONTINUOUS
 10
90.6739698272
 20
114.6102709194
  0
VERTEX
  8
0
 62
7
  6
CONTINUOUS
 10
90.741397429
 20
114.6194243767
  0
SEQEND
  0
LINE
  8
0
 62
7
  6
CONTINUOUS
 10
124.541397429
 20
145.4908158285
 11
122.4913974634
 21
145.4908158285
  0
LINE
  8
0
 62
7
  6
CONTINUOUS
 10
115.391397429
 20
145.4908158285
 11
109.7913974675
 21
145.4908158285
  0
LINE
  8
0
 62
7
  6
CONTINUOUS
 10
102.691397429
 20
145.4908158285
 11
97.0913974673
 21
145.4908158285
  0
LINE
  8
0
 62
7
  6
CONTINUOUS
 10
89.991397429
 20
145.4908158285
 11
84.3913974675
 21
145.4908158285
  0
LINE
  8
0
 62
7
  6
CONTINUOUS
 10
77.291397429
 20
145.4908158285
 11
71.6913974673
 21
145.4908158285
  0
LINE
  8
0
 62
7
  6
CONTINUOUS
 10
64.591397429
 20
145.4908158285
 11
58.9913974675
 21
145.4908158285
  0
LINE
  8
0
 62
7
  6
CONTINUOUS
 10
51.891397429
 20
145.4908158285
 11
46.2913974673
 21
145.4908158285
  0
LINE
  8
0
 62
7
  6
CONTINUOUS
 10
39.191397429
 20
145.4908158285
 11
33.5913974675
 21
145.4908158285
  0
LINE
  8
0
 62
7
  6
CONTINUOUS
 10
26.491397429
 20
145.4908158285
 11
24.441397429
 21
145.4908158285
  0
LINE
  8
1_AXIS
 62
2
  6
CENTER
 10
23.3293833008
 20
149.1051201439
 11
127.8351121599
 21
149.1051201439
  0
POLYLINE
  8
0
 62
7
  6
CONTINUOUS
 66
1
 70
0
  0
VERTEX
  8
0
 62
7
  6
CONTINUOUS
 10
84.3913974675
 20
145.4908159118
  0
VERTEX
  8
0
 62
7
  6
CONTINUOUS
 10
84.3246122746
 20
145.4997959022
  0
VERTEX
  8
0
 62
7
  6
CONTINUOUS
 10
84.2487266397
 20
145.5318352509
  0
VERTEX
  8
0
 62
7
  6
CONTINUOUS
 10
84.1770255293
 20
145.5845288188
  0
VERTEX
  8
0
 62
7
  6
CONTINUOUS
 10
84.1115526665
 20
145.6548689427
  0
VERTEX
  8
0
 62
7
  6
CONTINUOUS
 10
84.0534634881
 20
145.7405402631
  0
VERTEX
  8
0
 62
7
  6
CONTINUOUS
 10
84.0033263586
 20
145.8402777136
  0
VERTEX
  8
0
 62
7
  6
CONTINUOUS
 10
83.9619240504
 20
145.9525763659
  0
VERTEX
  8
0
 62
7
  6
CONTINUOUS
 10
83.9299322356
 20
146.0754791452
  0
VERTEX
  8
0
 62
7
  6
CONTINUOUS
 10
83.9076301888
 20
146.2070224101
  0
VERTEX
  8
0
 62
7
  6
CONTINUOUS
 10
83.8949405618
 20
146.3451927063
  0
VERTEX
  8
0
 62
7
  6
CONTINUOUS
 10
83.8913972158
 20
146.4731426707
  0
SEQEND
  0
POLYLINE
  8
0
 62
7
  6
CONTINUOUS
 66
1
 70
0
  0
VERTEX
  8
0
 62
7
  6
CONTINUOUS
 10
97.0913974673
 20
145.4908159113
  0
VERTEX
  8
0
 62
7
  6
CONTINUOUS
 10
97.024612277
 20
145.4997959016
  0
VERTEX
  8
0
 62
7
  6
CONTINUOUS
 10
96.9487266254
 20
145.5318352584
  0
VERTEX
  8
0
 62
7
  6
CONTINUOUS
 10
96.8770255027
 20
145.5845288432
  0
VERTEX
  8
0
 62
7
  6
CONTINUOUS
 10
96.8115526637
 20
145.6548689527
  0
VERTEX
  8
0
 62
7
  6
CONTINUOUS
 10
96.7534634739
 20
145.7405402883
  0
VERTEX
  8
0
 62
7
  6
CONTINUOUS
 10
96.7033263553
 20
145.8402777221
  0
VERTEX
  8
0
 62
7
  6
CONTINUOUS
 10
96.6619240492
 20
145.9525763704
  0
VERTEX
  8
0
 62
7
  6
CONTINUOUS
 10
96.629932237
 20
146.0754791376
  0
VERTEX
  8
0
 62
7
  6
CONTINUOUS
 10
96.6076301908
 20
146.2070223795
  0
VERTEX
  8
0
 62
7
  6
CONTINUOUS
 10
96.594940562
 20
146.3451926846
  0
VERTEX
  8
0
 62
7
  6
CONTINUOUS
 10
96.5913972154
 20
146.4731427459
  0
SEQEND
  0
POLYLINE
  8
0
 62
7
  6
CONTINUOUS
 66
1
 70
0
  0
VERTEX
  8
0
 62
7
  6
CONTINUOUS
 10
109.541397429
 20
109.7803752725
  0
VERTEX
  8
0
 62
7
  6
CONTINUOUS
 10
109.5556971495
 20
109.7611388949
  0
VERTEX
  8
0
 62
7
  6
CONTINUOUS
 10
109.5979355515
 20
109.7432234881
  0
VERTEX
  8
0
 62
7
  6
CONTINUOUS
 10
109.6659293319
 20
109.7275932545
  0
VERTEX
  8
0
 62
7
  6
CONTINUOUS
 10
109.7084777491
 20
109.7209009156
  0
VERTEX
  8
0
 62
7
  6
CONTINUOUS
 10
109.8076857063
 20
109.7102044283
  0
VERTEX
  8
0
 62
7
  6
CONTINUOUS
 10
109.9208526428
 20
109.7035439557
  0
VERTEX
  8
0
 62
7
  6
CONTINUOUS
 10
110.041397429
 20
109.7012796629
  0
SEQEND
  0
LINE
  8
0
 62
7
  6
CONTINUOUS
 10
94.791397429
 20
138.7551201439
 11
94.791397429
 21
121.3551201439
  0
LINE
  8
0
 62
7
  6
CONTINUOUS
 10
96.591397429
 20
146.4731056528
 11
96.591397429
 21
152.8451201439
  0
LINE
  8
0
 62
7
  6
CONTINUOUS
 10
96.841397429
 20
113.6371345816
 11
96.841397429
 21
107.2651201439
  0
POLYLINE
  8
0
 62
7
  6
CONTINUOUS
 66
1
 70
0
  0
VERTEX
  8
0
 62
7
  6
CONTINUOUS
 10
115.891397429
 20
150.3298650153
  0
VERTEX
  8
0
 62
7
  6
CONTINUOUS
 10
115.9056971495
 20
150.3491013929
  0
VERTEX
  8
0
 62
7
  6
CONTINUOUS
 10
115.9479355515
 20
150.3670167998
  0
VERTEX
  8
0
 62
7
  6
CONTINUOUS
 10
116.0159293319
 20
150.3826470334
  0
VERTEX
  8
0
 62
7
  6
CONTINUOUS
 10
116.0584777491
 20
150.3893393723
  0
VERTEX
  8
0
 62
7
  6
CONTINUOUS
 10
116.1576857063
 20
150.4000358596
  0
VERTEX
  8
0
 62
7
  6
CONTINUOUS
 10
116.2708526428
 20
150.4066963321
  0
VERTEX
  8
0
 62
7
  6
CONTINUOUS
 10
116.391397429
 20
150.408960625
  0
SEQEND
  0
POLYLINE
  8
0
 62
7
  6
CONTINUOUS
 66
1
 70
0
  0
VERTEX
  8
0
 62
7
  6
CONTINUOUS
 10
90.991397429
 20
150.408960625
  0
VERTEX
  8
0
 62
7
  6
CONTINUOUS
 10
90.8708526428
 20
150.4066963321
  0
VERTEX
  8
0
 62
7
  6
CONTINUOUS
 10
90.7576857063
 20
150.4000358596
  0
VERTEX
  8
0
 62
7
  6
CONTINUOUS
 10
90.6584777491
 20
150.3893393723
  0
VERTEX
  8
0
 62
7
  6
CONTINUOUS
 10
90.6159293319
 20
150.3826470334
  0
VERTEX
  8
0
 62
7
  6
CONTINUOUS
 10
90.5479355515
 20
150.3670167998
  0
VERTEX
  8
0
 62
7
  6
CONTINUOUS
 10
90.5056971495
 20
150.3491013929
  0
VERTEX
  8
0
 62
7
  6
CONTINUOUS
 10
90.491397429
 20
150.3298650153
  0
SEQEND
  0
POLYLINE
  8
0
 62
7
  6
CONTINUOUS
 66
1
 70
0
  0
VERTEX
  8
0
 62
7
  6
CONTINUOUS
 10
65.591397429
 20
150.408960625
  0
VERTEX
  8
0
 62
7
  6
CONTINUOUS
 10
65.4708526428
 20
150.4066963321
  0
VERTEX
  8
0
 62
7
  6
CONTINUOUS
 10
65.3576857063
 20
150.4000358596
  0
VERTEX
  8
0
 62
7
  6
CONTINUOUS
 10
65.2584777491
 20
150.3893393723
  0
VERTEX
  8
0
 62
7
  6
CONTINUOUS
 10
65.2159293319
 20
150.3826470334
  0
VERTEX
  8
0
 62
7
  6
CONTINUOUS
 10
65.1479355515
 20
150.3670167998
  0
VERTEX
  8
0
 62
7
  6
CONTINUOUS
 10
65.1056971495
 20
150.3491013929
  0
VERTEX
  8
0
 62
7
  6
CONTINUOUS
 10
65.091397429
 20
150.3298650153
  0
SEQEND
  0
POLYLINE
  8
0
 62
7
  6
CONTINUOUS
 66
1
 70
0
  0
VERTEX
  8
0
 62
7
  6
CONTINUOUS
 10
40.191397429
 20
150.408960625
  0
VERTEX
  8
0
 62
7
  6
CONTINUOUS
 10
40.0708526428
 20
150.4066963321
  0
VERTEX
  8
0
 62
7
  6
CONTINUOUS
 10
39.9576857063
 20
150.4000358596
  0
VERTEX
  8
0
 62
7
  6
CONTINUOUS
 10
39.8584777491
 20
150.3893393723
  0
VERTEX
  8
0
 62
7
  6
CONTINUOUS
 10
39.8159293319
 20
150.3826470334
  0
VERTEX
  8
0
 62
7
  6
CONTINUOUS
 10
39.7479355515
 20
150.3670167998
  0
VERTEX
  8
0
 62
7
  6
CONTINUOUS
 10
39.7056971495
 20
150.3491013929
  0
VERTEX
  8
0
 62
7
  6
CONTINUOUS
 10
39.691397429
 20
150.3298650153
  0
SEQEND
  0
LINE
  8
0
 62
7
  6
CONTINUOUS
 10
27.491397429
 20
150.408960625
 11
32.591397429
 21
150.408960625
  0
LINE
  8
0
 62
7
  6
CONTINUOUS
 10
40.191397429
 20
150.408960625
 11
45.291397429
 21
150.408960625
  0
LINE
  8
0
 62
7
  6
CONTINUOUS
 10
52.891397429
 20
150.408960625
 11
57.991397429
 21
150.408960625
  0
LINE
  8
0
 62
7
  6
CONTINUOUS
 10
65.591397429
 20
150.408960625
 11
70.691397429
 21
150.408960625
  0
LINE
  8
0
 62
7
  6
CONTINUOUS
 10
78.291397429
 20
150.408960625
 11
83.391397429
 21
150.408960625
  0
LINE
  8
0
 62
7
  6
CONTINUOUS
 10
90.991397429
 20
150.408960625
 11
96.091397429
 21
150.408960625
  0
LINE
  8
0
 62
7
  6
CONTINUOUS
 10
103.691397429
 20
150.408960625
 11
108.791397429
 21
150.408960625
  0
LINE
  8
0
 62
7
  6
CONTINUOUS
 10
116.391397429
 20
150.408960625
 11
121.491397429
 21
150.408960625
  0
POLYLINE
  8
0
 62
7
  6
CONTINUOUS
 66
1
 70
0
  0
VERTEX
  8
0
 62
7
  6
CONTINUOUS
 10
45.291397429
 20
150.408960625
  0
VERTEX
  8
0
 62
7
  6
CONTINUOUS
 10
45.4119422153
 20
150.4066963321
  0
VERTEX
  8
0
 62
7
  6
CONTINUOUS
 10
45.5251091517
 20
150.4000358596
  0
VERTEX
  8
0
 62
7
  6
CONTINUOUS
 10
45.624317109
 20
150.3893393723
  0
VERTEX
  8
0
 62
7
  6
CONTINUOUS
 10
45.6668655262
 20
150.3826470334
  0
VERTEX
  8
0
 62
7
  6
CONTINUOUS
 10
45.7348593065
 20
150.3670167998
  0
VERTEX
  8
0
 62
7
  6
CONTINUOUS
 10
45.7770977085
 20
150.3491013929
  0
VERTEX
  8
0
 62
7
  6
CONTINUOUS
 10
45.791397429
 20
150.3298650153
  0
SEQEND
  0
POLYLINE
  8
0
 62
7
  6
CONTINUOUS
 66
1
 70
0
  0
VERTEX
  8
0
 62
7
  6
CONTINUOUS
 10
70.691397429
 20
150.408960625
  0
VERTEX
  8
0
 62
7
  6
CONTINUOUS
 10
70.8119422153
 20
150.4066963321
  0
VERTEX
  8
0
 62
7
  6
CONTINUOUS
 10
70.9251091517
 20
150.4000358596
  0
VERTEX
  8
0
 62
7
  6
CONTINUOUS
 10
71.024317109
 20
150.3893393723
  0
VERTEX
  8
0
 62
7
  6
CONTINUOUS
 10
71.0668655262
 20
150.3826470334
  0
VERTEX
  8
0
 62
7
  6
CONTINUOUS
 10
71.1348593065
 20
150.3670167998
  0
VERTEX
  8
0
 62
7
  6
CONTINUOUS
 10
71.1770977085
 20
150.3491013929
  0
VERTEX
  8
0
 62
7
  6
CONTINUOUS
 10
71.191397429
 20
150.3298650153
  0
SEQEND
  0
POLYLINE
  8
0
 62
7
  6
CONTINUOUS
 66
1
 70
0
  0
VERTEX
  8
0
 62
7
  6
CONTINUOUS
 10
96.091397429
 20
150.408960625
  0
VERTEX
  8
0
 62
7
  6
CONTINUOUS
 10
96.2119422153
 20
150.4066963321
  0
VERTEX
  8
0
 62
7
  6
CONTINUOUS
 10
96.3251091517
 20
150.4000358596
  0
VERTEX
  8
0
 62
7
  6
CONTINUOUS
 10
96.424317109
 20
150.3893393723
  0
VERTEX
  8
0
 62
7
  6
CONTINUOUS
 10
96.4668655262
 20
150.3826470334
  0
VERTEX
  8
0
 62
7
  6
CONTINUOUS
 10
96.5348593065
 20
150.3670167998
  0
VERTEX
  8
0
 62
7
  6
CONTINUOUS
 10
96.5770977085
 20
150.3491013929
  0
VERTEX
  8
0
 62
7
  6
CONTINUOUS
 10
96.591397429
 20
150.3298650153
  0
SEQEND
  0
POLYLINE
  8
0
 62
7
  6
CONTINUOUS
 66
1
 70
0
  0
VERTEX
  8
0
 62
7
  6
CONTINUOUS
 10
108.791397429
 20
150.408960625
  0
VERTEX
  8
0
 62
7
  6
CONTINUOUS
 10
108.9119422153
 20
150.4066963321
  0
VERTEX
  8
0
 62
7
  6
CONTINUOUS
 10
109.0251091517
 20
150.4000358596
  0
VERTEX
  8
0
 62
7
  6
CONTINUOUS
 10
109.124317109
 20
150.3893393723
  0
VERTEX
  8
0
 62
7
  6
CONTINUOUS
 10
109.1668655262
 20
150.3826470334
  0
VERTEX
  8
0
 62
7
  6
CONTINUOUS
 10
109.2348593065
 20
150.3670167998
  0
VERTEX
  8
0
 62
7
  6
CONTINUOUS
 10
109.2770977085
 20
150.3491013929
  0
VERTEX
  8
0
 62
7
  6
CONTINUOUS
 10
109.291397429
 20
150.3298650153
  0
SEQEND
  0
POLYLINE
  8
0
 62
7
  6
CONTINUOUS
 66
1
 70
0
  0
VERTEX
  8
0
 62
7
  6
CONTINUOUS
 10
121.491397429
 20
150.408960625
  0
VERTEX
  8
0
 62
7
  6
CONTINUOUS
 10
121.6119422153
 20
150.4066963321
  0
VERTEX
  8
0
 62
7
  6
CONTINUOUS
 10
121.7251091517
 20
150.4000358596
  0
VERTEX
  8
0
 62
7
  6
CONTINUOUS
 10
121.824317109
 20
150.3893393723
  0
VERTEX
  8
0
 62
7
  6
CONTINUOUS
 10
121.8668655262
 20
150.3826470334
  0
VERTEX
  8
0
 62
7
  6
CONTINUOUS
 10
121.9348593065
 20
150.3670167998
  0
VERTEX
  8
0
 62
7
  6
CONTINUOUS
 10
121.9770977085
 20
150.3491013929
  0
VERTEX
  8
0
 62
7
  6
CONTINUOUS
 10
121.991397429
 20
150.3298650153
  0
SEQEND
  0
POLYLINE
  8
0
 62
7
  6
CONTINUOUS
 66
1
 70
0
  0
VERTEX
  8
0
 62
7
  6
CONTINUOUS
 10
124.541397429
 20
145.4908158285
  0
VERTEX
  8
0
 62
7
  6
CONTINUOUS
 10
124.6619453979
 20
145.4760664722
  0
VERTEX
  8
0
 62
7
  6
CONTINUOUS
 10
124.7746056241
 20
145.4330984731
  0
VERTEX
  8
0
 62
7
  6
CONTINUOUS
 10
124.8734339796
 20
145.364649654
  0
VERTEX
  8
0
 62
7
  6
CONTINUOUS
 10
124.9156028383
 20
145.3224335476
  0
VERTEX
  8
0
 62
7
  6
CONTINUOUS
 10
124.9838240691
 20
145.2237507296
  0
VERTEX
  8
0
 62
7
  6
CONTINUOUS
 10
125.0267019882
 20
145.1111465596
  0
VERTEX
  8
0
 62
7
  6
CONTINUOUS
 10
125.041397429
 20
144.9908158285
  0
SEQEND
  0
POLYLINE
  8
0
 62
7
  6
CONTINUOUS
 66
1
 70
0
  0
VERTEX
  8
0
 62
7
  6
CONTINUOUS
 10
109.7913974675
 20
145.4908159118
  0
VERTEX
  8
0
 62
7
  6
CONTINUOUS
 10
109.7246122746
 20
145.4997959022
  0
VERTEX
  8
0
 62
7
  6
CONTINUOUS
 10
109.6487266397
 20
145.5318352509
  0
VERTEX
  8
0
 62
7
  6
CONTINUOUS
 10
109.5770255293
 20
145.5845288188
  0
VERTEX
  8
0
 62
7
  6
CONTINUOUS
 10
109.5115526665
 20
145.6548689427
  0
VERTEX
  8
0
 62
7
  6
CONTINUOUS
 10
109.4534634881
 20
145.7405402631
  0
VERTEX
  8
0
 62
7
  6
CONTINUOUS
 10
109.4033263586
 20
145.8402777136
  0
VERTEX
  8
0
 62
7
  6
CONTINUOUS
 10
109.3619240504
 20
145.9525763659
  0
VERTEX
  8
0
 62
7
  6
CONTINUOUS
 10
109.3299322356
 20
146.0754791452
  0
VERTEX
  8
0
 62
7
  6
CONTINUOUS
 10
109.3076301888
 20
146.2070224101
  0
VERTEX
  8
0
 62
7
  6
CONTINUOUS
 10
109.2949405618
 20
146.3451927063
  0
VERTEX
  8
0
 62
7
  6
CONTINUOUS
 10
109.2913972158
 20
146.4731426707
  0
SEQEND
  0
POLYLINE
  8
0
 62
7
  6
CONTINUOUS
 66
1
 70
0
  0
VERTEX
  8
0
 62
7
  6
CONTINUOUS
 10
122.4913974634
 20
145.4908159113
  0
VERTEX
  8
0
 62
7
  6
CONTINUOUS
 10
122.4246122755
 20
145.499795902
  0
VERTEX
  8
0
 62
7
  6
CONTINUOUS
 10
122.3487266241
 20
145.5318352592
  0
VERTEX
  8
0
 62
7
  6
CONTINUOUS
 10
122.2770255017
 20
145.5845288441
  0
VERTEX
  8
0
 62
7
  6
CONTINUOUS
 10
122.211552663
 20
145.6548689536
  0
VERTEX
  8
0
 62
7
  6
CONTINUOUS
 10
122.1534634734
 20
145.7405402892
  0
VERTEX
  8
0
 62
7
  6
CONTINUOUS
 10
122.103326355
 20
145.8402777229
  0
VERTEX
  8
0
 62
7
  6
CONTINUOUS
 10
122.061924049
 20
145.9525763711
  0
VERTEX
  8
0
 62
7
  6
CONTINUOUS
 10
122.0299322369
 20
146.0754791381
  0
VERTEX
  8
0
 62
7
  6
CONTINUOUS
 10
122.0076301907
 20
146.2070223799
  0
VERTEX
  8
0
 62
7
  6
CONTINUOUS
 10
121.994940562
 20
146.3451926847
  0
VERTEX
  8
0
 62
7
  6
CONTINUOUS
 10
121.9913972154
 20
146.4731427459
  0
SEQEND
  0
POLYLINE
  8
0
 62
7
  6
CONTINUOUS
 66
1
 70
0
  0
VERTEX
  8
0
 62
7
  6
CONTINUOUS
 10
83.891397429
 20
150.3298650153
  0
VERTEX
  8
0
 62
7
  6
CONTINUOUS
 10
83.8770977085
 20
150.3491013929
  0
VERTEX
  8
0
 62
7
  6
CONTINUOUS
 10
83.8348593065
 20
150.3670167998
  0
VERTEX
  8
0
 62
7
  6
CONTINUOUS
 10
83.7668655262
 20
150.3826470334
  0
VERTEX
  8
0
 62
7
  6
CONTINUOUS
 10
83.724317109
 20
150.3893393723
  0
VERTEX
  8
0
 62
7
  6
CONTINUOUS
 10
83.6251091517
 20
150.4000358596
  0
VERTEX
  8
0
 62
7
  6
CONTINUOUS
 10
83.5119422153
 20
150.4066963321
  0
VERTEX
  8
0
 62
7
  6
CONTINUOUS
 10
83.391397429
 20
150.408960625
  0
SEQEND
  0
LINE
  8
0
 62
7
  6
CONTINUOUS
 10
98.641397429
 20
121.3551201439
 11
98.641397429
 21
138.7551201439
  0
LINE
  8
0
 62
7
  6
CONTINUOUS
 10
27.491397429
 20
153.3451201439
 11
32.591397429
 21
153.3451201439
  0
LINE
  8
0
 62
7
  6
CONTINUOUS
 10
40.191397429
 20
153.3451201439
 11
45.291397429
 21
153.3451201439
  0
LINE
  8
0
 62
7
  6
CONTINUOUS
 10
52.891397429
 20
153.3451201439
 11
57.991397429
 21
153.3451201439
  0
LINE
  8
0
 62
7
  6
CONTINUOUS
 10
65.591397429
 20
153.3451201439
 11
70.691397429
 21
153.3451201439
  0
LINE
  8
0
 62
7
  6
CONTINUOUS
 10
78.291397429
 20
153.3451201439
 11
83.391397429
 21
153.3451201439
  0
LINE
  8
0
 62
7
  6
CONTINUOUS
 10
90.991397429
 20
153.3451201439
 11
96.091397429
 21
153.3451201439
  0
LINE
  8
0
 62
7
  6
CONTINUOUS
 10
103.691397429
 20
153.3451201439
 11
108.791397429
 21
153.3451201439
  0
LINE
  8
0
 62
7
  6
CONTINUOUS
 10
116.391397429
 20
153.3451201439
 11
121.491397429
 21
153.3451201439
  0
POLYLINE
  8
0
 62
7
  6
CONTINUOUS
 66
1
 70
0
  0
VERTEX
  8
0
 62
7
  6
CONTINUOUS
 10
122.241397429
 20
109.7803752725
  0
VERTEX
  8
0
 62
7
  6
CONTINUOUS
 10
122.2556971495
 20
109.7611388949
  0
VERTEX
  8
0
 62
7
  6
CONTINUOUS
 10
122.2979355515
 20
109.7432234881
  0
VERTEX
  8
0
 62
7
  6
CONTINUOUS
 10
122.3659293319
 20
109.7275932545
  0
VERTEX
  8
0
 62
7
  6
CONTINUOUS
 10
122.4084777491
 20
109.7209009156
  0
VERTEX
  8
0
 62
7
  6
CONTINUOUS
 10
122.5076857063
 20
109.7102044283
  0
VERTEX
  8
0
 62
7
  6
CONTINUOUS
 10
122.6208526428
 20
109.7035439557
  0
VERTEX
  8
0
 62
7
  6
CONTINUOUS
 10
122.741397429
 20
109.7012796629
  0
SEQEND
  0
LINE
  8
0
 62
7
  6
CONTINUOUS
 10
101.141397429
 20
138.7551201439
 11
101.141397429
 21
121.3551201439
  0
LINE
  8
0
 62
7
  6
CONTINUOUS
 10
102.941397429
 20
107.2651201439
 11
102.941397429
 21
113.6371346349
  0
LINE
  8
0
 62
7
  6
CONTINUOUS
 10
103.191397429
 20
152.8451201439
 11
103.191397429
 21
146.4731057063
  0
POLYLINE
  8
0
 62
7
  6
CONTINUOUS
 66
1
 70
0
  0
VERTEX
  8
0
 62
7
  6
CONTINUOUS
 10
103.1913978846
 20
146.4731337657
  0
VERTEX
  8
0
 62
7
  6
CONTINUOUS
 10
103.1879274408
 20
146.3464879395
  0
VERTEX
  8
0
 62
7
  6
CONTINUOUS
 10
103.1753180801
 20
146.2082158427
  0
VERTEX
  8
0
 62
7
  6
CONTINUOUS
 10
103.1530939365
 20
146.0765681174
  0
VERTEX
  8
0
 62
7
  6
CONTINUOUS
 10
103.1211774438
 20
145.9535614829
  0
VERTEX
  8
0
 62
7
  6
CONTINUOUS
 10
103.0798480093
 20
145.8411578455
  0
VERTEX
  8
0
 62
7
  6
CONTINUOUS
 10
103.0297805733
 20
145.7413108427
  0
VERTEX
  8
0
 62
7
  6
CONTINUOUS
 10
102.9717570868
 20
145.655520919
  0
VERTEX
  8
0
 62
7
  6
CONTINUOUS
 10
102.906344099
 20
145.585047126
  0
VERTEX
  8
0
 62
7
  6
CONTINUOUS
 10
102.8346914201
 20
145.5321962851
  0
VERTEX
  8
0
 62
7
  6
CONTINUOUS
 10
102.7588287958
 20
145.4999703784
  0
VERTEX
  8
0
 62
7
  6
CONTINUOUS
 10
102.691397429
 20
145.49081591
  0
SEQEND
  0
POLYLINE
  8
0
 62
7
  6
CONTINUOUS
 66
1
 70
0
  0
VERTEX
  8
0
 62
7
  6
CONTINUOUS
 10
102.9413972199
 20
113.6370975537
  0
VERTEX
  8
0
 62
7
  6
CONTINUOUS
 10
102.9448676108
 20
113.7637561801
  0
VERTEX
  8
0
 62
7
  6
CONTINUOUS
 10
102.9574771877
 20
113.9020297123
  0
VERTEX
  8
0
 62
7
  6
CONTINUOUS
 10
102.9797013003
 20
114.0336747804
  0
VERTEX
  8
0
 62
7
  6
CONTINUOUS
 10
103.0116174941
 20
114.1566794798
  0
VERTEX
  8
0
 62
7
  6
CONTINUOUS
 10
103.0529470523
 20
114.2690829994
  0
VERTEX
  8
0
 62
7
  6
CONTINUOUS
 10
103.1030141801
 20
114.3689292979
  0
VERTEX
  8
0
 62
7
  6
CONTINUOUS
 10
103.1610381662
 20
114.4547197155
  0
VERTEX
  8
0
 62
7
  6
CONTINUOUS
 10
103.226450906
 20
114.5251933636
  0
VERTEX
  8
0
 62
7
  6
CONTINUOUS
 10
103.298104222
 20
114.57804452
  0
VERTEX
  8
0
 62
7
  6
CONTINUOUS
 10
103.3739698244
 20
114.6102709187
  0
VERTEX
  8
0
 62
7
  6
CONTINUOUS
 10
103.441397429
 20
114.6194243763
  0
SEQEND
  0
LINE
  8
0
 62
7
  6
CONTINUOUS
 10
104.991397429
 20
121.3551201439
 11
104.991397429
 21
138.7551201439
  0
LINE
  8
0
 62
7
  6
CONTINUOUS
 10
107.491397429
 20
138.7551201439
 11
107.491397429
 21
121.3551201439
  0
LINE
  8
0
 62
7
  6
CONTINUOUS
 10
109.291397429
 20
146.4731056529
 11
109.291397429
 21
152.8451201439
  0
LINE
  8
0
 62
7
  6
CONTINUOUS
 10
109.541397429
 20
107.2651201439
 11
109.541397429
 21
113.9407497453
  0
LINE
  8
0
 62
7
  6
CONTINUOUS
 10
111.341397429
 20
121.3551201439
 11
111.341397429
 21
138.7551201439
  0
LINE
  8
0
 62
7
  6
CONTINUOUS
 10
113.841397429
 20
138.7551201439
 11
113.841397429
 21
121.3551201439
  0
LINE
  8
0
 62
7
  6
CONTINUOUS
 10
115.641397429
 20
107.2651201439
 11
115.641397429
 21
113.6371346349
  0
LINE
  8
0
 62
7
  6
CONTINUOUS
 10
115.891397429
 20
152.8451201439
 11
115.891397429
 21
146.1694905426
  0
POLYLINE
  8
0
 62
7
  6
CONTINUOUS
 66
1
 70
0
  0
VERTEX
  8
0
 62
7
  6
CONTINUOUS
 10
115.8913978846
 20
146.4731337657
  0
VERTEX
  8
0
 62
7
  6
CONTINUOUS
 10
115.8879274408
 20
146.3464879395
  0
VERTEX
  8
0
 62
7
  6
CONTINUOUS
 10
115.8753180801
 20
146.2082158427
  0
VERTEX
  8
0
 62
7
  6
CONTINUOUS
 10
115.8530939365
 20
146.0765681174
  0
VERTEX
  8
0
 62
7
  6
CONTINUOUS
 10
115.8211774438
 20
145.9535614829
  0
VERTEX
  8
0
 62
7
  6
CONTINUOUS
 10
115.7798480093
 20
145.8411578455
  0
VERTEX
  8
0
 62
7
  6
CONTINUOUS
 10
115.7297805733
 20
145.7413108427
  0
VERTEX
  8
0
 62
7
  6
CONTINUOUS
 10
115.6717570868
 20
145.655520919
  0
VERTEX
  8
0
 62
7
  6
CONTINUOUS
 10
115.606344099
 20
145.585047126
  0
VERTEX
  8
0
 62
7
  6
CONTINUOUS
 10
115.5346914201
 20
145.5321962851
  0
VERTEX
  8
0
 62
7
  6
CONTINUOUS
 10
115.4588287958
 20
145.4999703784
  0
VERTEX
  8
0
 62
7
  6
CONTINUOUS
 10
115.391397429
 20
145.49081591
  0
SEQEND
  0
LINE
  8
0
 62
7
  6
CONTINUOUS
 10
117.691397429
 20
121.3551201439
 11
117.691397429
 21
138.7551201439
  0
POLYLINE
  8
0
 62
7
  6
CONTINUOUS
 66
1
 70
0
  0
VERTEX
  8
0
 62
7
  6
CONTINUOUS
 10
115.6413972199
 20
113.6370975537
  0
VERTEX
  8
0
 62
7
  6
CONTINUOUS
 10
115.6448676108
 20
113.7637561801
  0
VERTEX
  8
0
 62
7
  6
CONTINUOUS
 10
115.6574771877
 20
113.9020297123
  0
VERTEX
  8
0
 62
7
  6
CONTINUOUS
 10
115.6797013003
 20
114.0336747804
  0
VERTEX
  8
0
 62
7
  6
CONTINUOUS
 10
115.7116174941
 20
114.1566794798
  0
VERTEX
  8
0
 62
7
  6
CONTINUOUS
 10
115.7529470523
 20
114.2690829994
  0
VERTEX
  8
0
 62
7
  6
CONTINUOUS
 10
115.8030141801
 20
114.3689292979
  0
VERTEX
  8
0
 62
7
  6
CONTINUOUS
 10
115.8610381662
 20
114.4547197155
  0
VERTEX
  8
0
 62
7
  6
CONTINUOUS
 10
115.926450906
 20
114.5251933636
  0
VERTEX
  8
0
 62
7
  6
CONTINUOUS
 10
115.998104222
 20
114.57804452
  0
VERTEX
  8
0
 62
7
  6
CONTINUOUS
 10
116.0739698244
 20
114.6102709187
  0
VERTEX
  8
0
 62
7
  6
CONTINUOUS
 10
116.141397429
 20
114.6194243763
  0
SEQEND
  0
LINE
  8
0
 62
7
  6
CONTINUOUS
 10
120.191397429
 20
138.7551201439
 11
120.191397429
 21
121.3551201439
  0
LINE
  8
0
 62
7
  6
CONTINUOUS
 10
121.991397429
 20
146.4731056557
 11
121.991397429
 21
152.8451201439
  0
LINE
  8
0
 62
7
  6
CONTINUOUS
 10
122.241397429
 20
113.6371345816
 11
122.241397429
 21
107.2651201439
  0
LINE
  8
0
 62
7
  6
CONTINUOUS
 10
125.041397429
 20
114.4051201439
 11
125.241397429
 21
114.6051201439
  0
LINE
  8
0
 62
7
  6
CONTINUOUS
 10
125.041397429
 20
107.2651201439
 11
125.041397429
 21
144.9908158285
  0
LINE
  8
0
 62
7
  6
CONTINUOUS
 10
125.241397429
 20
143.4213716451
 11
125.241397429
 21
114.6051201439
  0
POLYLINE
  8
0
 62
7
  6
CONTINUOUS
 66
1
 70
0
  0
VERTEX
  8
0
 62
7
  6
CONTINUOUS
 10
125.041397429
 20
109.7803752725
  0
VERTEX
  8
0
 62
7
  6
CONTINUOUS
 10
125.0270977085
 20
109.7611388949
  0
VERTEX
  8
0
 62
7
  6
CONTINUOUS
 10
124.9848593065
 20
109.7432234881
  0
VERTEX
  8
0
 62
7
  6
CONTINUOUS
 10
124.9168655262
 20
109.7275932545
  0
VERTEX
  8
0
 62
7
  6
CONTINUOUS
 10
124.874317109
 20
109.7209009156
  0
VERTEX
  8
0
 62
7
  6
CONTINUOUS
 10
124.7751091517
 20
109.7102044283
  0
VERTEX
  8
0
 62
7
  6
CONTINUOUS
 10
124.6619422153
 20
109.7035439557
  0
VERTEX
  8
0
 62
7
  6
CONTINUOUS
 10
124.541397429
 20
109.7012796629
  0
SEQEND
  0
LINE
  8
0
 62
7
  6
CONTINUOUS
 10
162.96662827
 20
106.7651201439
 11
164.9107476079
 21
106.7651201439
  0
LINE
  8
1_AXIS
 62
2
  6
CONTINUOUS
 10
164.8186879389
 20
111.0051201439
 11
163.0586879389
 21
111.0051201439
  0
LINE
  8
1_AXIS
 62
2
  6
CENTER
 10
159.5386879389
 20
111.0051201439
 11
157.788686707
 21
111.0051201439
  0
LINE
  8
1_AXIS
 62
2
  6
CENTER
 10
168.3386879389
 20
111.0051201439
 11
170.0886891708
 21
111.0051201439
  0
LINE
  8
0
 62
7
  6
CONTINUOUS
 10
168.0886879389
 20
109.7012796629
 11
167.9188753221
 21
109.7275932545
  0
POLYLINE
  8
0
 62
7
  6
CONTINUOUS
 66
1
 70
0
  0
VERTEX
  8
0
 62
7
  6
CONTINUOUS
 10
167.9188753221
 20
109.7275932545
  0
VERTEX
  8
0
 62
7
  6
CONTINUOUS
 10
167.7074113085
 20
109.7611388949
  0
VERTEX
  8
0
 62
7
  6
CONTINUOUS
 10
167.5886879389
 20
109.7803752725
  0
SEQEND
  0
LINE
  8
0
 62
7
  6
CONTINUOUS
 10
167.4788010389
 20
114.4051201439
 11
161.7252879389
 21
114.4051201439
  0
POLYLINE
  8
0
 62
7
  6
CONTINUOUS
 66
1
 70
0
  0
VERTEX
  8
0
 62
7
  6
CONTINUOUS
 10
161.6980848181
 20
114.4061674514
  0
VERTEX
  8
0
 62
7
  6
CONTINUOUS
 10
161.7071537466
 20
114.4055853596
  0
VERTEX
  8
0
 62
7
  6
CONTINUOUS
 10
161.7162212118
 20
114.4052364097
  0
VERTEX
  8
0
 62
7
  6
CONTINUOUS
 10
161.7252879389
 20
114.4051201439
  0
SEQEND
  0
POLYLINE
  8
0
 62
7
  6
CONTINUOUS
 66
1
 70
0
  0
VERTEX
  8
0
 62
7
  6
CONTINUOUS
 10
161.4556088382
 20
114.6378271841
  0
VERTEX
  8
0
 62
7
  6
CONTINUOUS
 10
161.5405999273
 20
114.6198454918
  0
VERTEX
  8
0
 62
7
  6
CONTINUOUS
 10
161.6307425747
 20
114.6089448864
  0
VERTEX
  8
0
 62
7
  6
CONTINUOUS
 10
161.7252879389
 20
114.6051273573
  0
SEQEND
  0
LINE
  8
0
 62
7
  6
CONTINUOUS
 10
161.7252879389
 20
114.6051201439
 11
167.2632030555
 21
114.6051201439
  0
LINE
  8
0
 62
7
  6
CONTINUOUS
 10
167.2632030555
 20
114.6051201439
 11
167.4788010389
 21
114.4051201439
  0
POLYLINE
  8
0
 62
7
  6
CONTINUOUS
 66
1
 70
0
  0
VERTEX
  8
0
 62
7
  6
CONTINUOUS
 10
161.2252879389
 20
114.8122269251
  0
VERTEX
  8
0
 62
7
  6
CONTINUOUS
 10
161.2377369914
 20
114.7662994872
  0
VERTEX
  8
0
 62
7
  6
CONTINUOUS
 10
161.2749552625
 20
114.7222362469
  0
VERTEX
  8
0
 62
7
  6
CONTINUOUS
 10
161.302184323
 20
114.7018692609
  0
VERTEX
  8
0
 62
7
  6
CONTINUOUS
 10
161.3710350645
 20
114.6660706258
  0
VERTEX
  8
0
 62
7
  6
CONTINUOUS
 10
161.4556088382
 20
114.6378271841
  0
SEQEND
  0
LINE
  8
0
 62
7
  6
CONTINUOUS
 10
159.5886879389
 20
111.0051201439
 11
159.5886879389
 21
149.1051201439
  0
POLYLINE
  8
0
 62
7
  6
CONTINUOUS
 66
1
 70
0
  0
VERTEX
  8
0
 62
7
  6
CONTINUOUS
 10
161.2252879389
 20
114.625026006
  0
VERTEX
  8
0
 62
7
  6
CONTINUOUS
 10
161.2253139077
 20
114.6218170818
  0
VERTEX
  8
0
 62
7
  6
CONTINUOUS
 10
161.2255619361
 20
114.6161089817
  0
VERTEX
  8
0
 62
7
  6
CONTINUOUS
 10
161.2261699662
 20
114.6105282285
  0
VERTEX
  8
0
 62
7
  6
CONTINUOUS
 10
161.2273084718
 20
114.60452577
  0
VERTEX
  8
0
 62
7
  6
CONTINUOUS
 10
161.2292118404
 20
114.5978294513
  0
VERTEX
  8
0
 62
7
  6
CONTINUOUS
 10
161.2321964518
 20
114.5902395122
  0
VERTEX
  8
0
 62
7
  6
CONTINUOUS
 10
161.2367632312
 20
114.5814430362
  0
VERTEX
  8
0
 62
7
  6
CONTINUOUS
 10
161.2437160079
 20
114.5710182856
  0
VERTEX
  8
0
 62
7
  6
CONTINUOUS
 10
161.2484349568
 20
114.565065835
  0
VERTEX
  8
0
 62
7
  6
CONTINUOUS
 10
161.2614073243
 20
114.5513282278
  0
VERTEX
  8
0
 62
7
  6
CONTINUOUS
 10
161.2811056386
 20
114.5346456669
  0
VERTEX
  8
0
 62
7
  6
CONTINUOUS
 10
161.3111957794
 20
114.5143014504
  0
VERTEX
  8
0
 62
7
  6
CONTINUOUS
 10
161.3578870688
 20
114.4894518525
  0
VERTEX
  8
0
 62
7
  6
CONTINUOUS
 10
161.4308361895
 20
114.4600279395
  0
VERTEX
  8
0
 62
7
  6
CONTINUOUS
 10
161.5297049572
 20
114.4318118236
  0
VERTEX
  8
0
 62
7
  6
CONTINUOUS
 10
161.640262574
 20
114.4120911751
  0
VERTEX
  8
0
 62
7
  6
CONTINUOUS
 10
161.6980848181
 20
114.4061674514
  0
SEQEND
  0
LINE
  8
0
 62
7
  6
CONTINUOUS
 10
161.2252879389
 20
114.625026006
 11
161.2252879389
 21
143.9213716451
  0
LINE
  8
0
 62
7
  6
CONTINUOUS
 10
164.9107476079
 20
153.3451201439
 11
164.8798842353
 21
153.0767131816
  0
LINE
  8
0
 62
7
  6
CONTINUOUS
 10
164.8798842353
 20
153.0767131816
 11
164.8524165638
 21
152.8451201439
  0
LINE
  8
0
 62
7
  6
CONTINUOUS
 10
164.8524165638
 20
107.2651201439
 11
164.8798842353
 21
107.0335271062
  0
LINE
  8
0
 62
7
  6
CONTINUOUS
 10
164.8798842353
 20
107.0335271062
 11
164.9107476079
 21
106.7651201439
  0
LINE
  8
1_AXIS
 62
2
  6
CONTINUOUS
 10
163.9386879389
 20
149.9851201439
 11
163.9386879389
 21
148.2251201439
  0
LINE
  8
1_AXIS
 62
2
  6
CENTER
 10
163.9386879389
 20
144.7051201439
 11
163.9386879389
 21
142.9551189121
  0
LINE
  8
1_AXIS
 62
2
  6
CONTINUOUS
 10
163.9386879389
 20
111.8851201439
 11
163.9386879389
 21
110.1251201439
  0
LINE
  8
1_AXIS
 62
2
  6
CENTER
 10
163.9386879389
 20
106.6051201439
 11
163.9386879389
 21
104.8551189121
  0
LINE
  8
1_AXIS
 62
2
  6
CENTER
 10
163.9386879389
 20
115.4051201439
 11
163.9386879389
 21
117.1551213758
  0
LINE
  8
1_AXIS
 62
2
  6
CENTER
 10
163.9386879389
 20
153.5051201439
 11
163.9386879389
 21
155.2551213758
  0
LINE
  8
1_AXIS
 62
2
  6
CENTER
 10
157.0886879389
 20
130.0551201439
 11
170.0886891708
 21
130.0551201439
  0
LINE
  8
0
 62
7
  6
CONTINUOUS
 10
162.9810391932
 20
106.8915241431
 11
162.96662827
 21
106.7651201439
  0
LINE
  8
0
 62
7
  6
CONTINUOUS
 10
162.9810391932
 20
153.2187161448
 11
162.96662827
 21
153.3451201439
  0
LINE
  8
0
 62
7
  6
CONTINUOUS
 10
165.6886879389
 20
115.5411417614
 11
165.6886879389
 21
143.4213716451
  0
LINE
  8
2_FEATURE
 62
7
  6
CONTINUOUS
 10
165.6886879389
 20
143.4213716451
 11
165.6886879389
 21
144.4213716451
  0
POLYLINE
  8
0
 62
7
  6
CONTINUOUS
 66
1
 70
0
  0
VERTEX
  8
0
 62
7
  6
CONTINUOUS
 10
163.024959314
 20
107.2651201439
  0
VERTEX
  8
0
 62
7
  6
CONTINUOUS
 10
163.0107267213
 20
107.145974592
  0
VERTEX
  8
0
 62
7
  6
CONTINUOUS
 10
162.9810391932
 20
106.8915241431
  0
SEQEND
  0
LINE
  8
0
 62
7
  6
CONTINUOUS
 10
163.024959314
 20
152.8451201439
 11
162.9974916425
 21
153.0767131816
  0
LINE
  8
0
 62
7
  6
CONTINUOUS
 10
162.9974916425
 20
153.0767131816
 11
162.9810391932
 21
153.2187161448
  0
LINE
  8
0
 62
7
  6
CONTINUOUS
 10
168.0886879389
 20
150.408960625
 11
168.0886879389
 21
109.7012796629
  0
POLYLINE
  8
0
 62
7
  6
CONTINUOUS
 66
1
 70
0
  0
VERTEX
  8
0
 62
7
  6
CONTINUOUS
 10
165.6727015094
 20
144.4526525984
  0
VERTEX
  8
0
 62
7
  6
CONTINUOUS
 10
165.6302560837
 20
144.5802146453
  0
VERTEX
  8
0
 62
7
  6
CONTINUOUS
 10
165.6014672937
 20
144.6558580618
  0
VERTEX
  8
0
 62
7
  6
CONTINUOUS
 10
165.5856624344
 20
144.6900228871
  0
VERTEX
  8
0
 62
7
  6
CONTINUOUS
 10
165.5514391074
 20
144.7454217263
  0
VERTEX
  8
0
 62
7
  6
CONTINUOUS
 10
165.5090892725
 20
144.7857869778
  0
VERTEX
  8
0
 62
7
  6
CONTINUOUS
 10
165.4495710325
 20
144.8122942815
  0
VERTEX
  8
0
 62
7
  6
CONTINUOUS
 10
165.3724903392
 20
144.823484413
  0
VERTEX
  8
0
 62
7
  6
CONTINUOUS
 10
165.3271183855
 20
144.8246691286
  0
SEQEND
  0
POLYLINE
  8
0
 62
7
  6
CONTINUOUS
 66
1
 70
0
  0
VERTEX
  8
0
 62
7
  6
CONTINUOUS
 10
165.6884332627
 20
144.4213716451
  0
VERTEX
  8
0
 62
7
  6
CONTINUOUS
 10
165.6845823547
 20
144.424874906
  0
VERTEX
  8
0
 62
7
  6
CONTINUOUS
 10
165.6727015094
 20
144.4526525984
  0
SEQEND
  0
LINE
  8
0
 62
7
  6
CONTINUOUS
 10
165.6886879389
 20
144.4213716451
 11
161.7252879389
 21
144.4213716451
  0
POLYLINE
  8
0
 62
7
  6
CONTINUOUS
 66
1
 70
0
  0
VERTEX
  8
0
 62
7
  6
CONTINUOUS
 10
159.5886879389
 20
144.7394634947
  0
VERTEX
  8
0
 62
7
  6
CONTINUOUS
 10
159.6032087803
 20
144.7432093278
  0
VERTEX
  8
0
 62
7
  6
CONTINUOUS
 10
159.6459332288
 20
144.7467379093
  0
VERTEX
  8
0
 62
7
  6
CONTINUOUS
 10
159.7143879556
 20
144.7498441966
  0
VERTEX
  8
0
 62
7
  6
CONTINUOUS
 10
159.7570763764
 20
144.7511812712
  0
VERTEX
  8
0
 62
7
  6
CONTINUOUS
 10
159.8562759033
 20
144.7533259399
  0
VERTEX
  8
0
 62
7
  6
CONTINUOUS
 10
159.9689966137
 20
144.7546649316
  0
VERTEX
  8
0
 62
7
  6
CONTINUOUS
 10
160.0886879389
 20
144.7551201439
  0
SEQEND
  0
POLYLINE
  8
0
 62
7
  6
CONTINUOUS
 66
1
 70
0
  0
VERTEX
  8
0
 62
7
  6
CONTINUOUS
 10
161.300950877
 20
144.766344867
  0
VERTEX
  8
0
 62
7
  6
CONTINUOUS
 10
161.3876696025
 20
144.7853089956
  0
VERTEX
  8
0
 62
7
  6
CONTINUOUS
 10
161.4264418937
 20
144.7933295142
  0
VERTEX
  8
0
 62
7
  6
CONTINUOUS
 10
161.4710941755
 20
144.801688019
  0
VERTEX
  8
0
 62
7
  6
CONTINUOUS
 10
161.5252037123
 20
144.8102698404
  0
VERTEX
  8
0
 62
7
  6
CONTINUOUS
 10
161.5923763092
 20
144.8182602748
  0
VERTEX
  8
0
 62
7
  6
CONTINUOUS
 10
161.6761361385
 20
144.8237888462
  0
VERTEX
  8
0
 62
7
  6
CONTINUOUS
 10
161.7252879389
 20
144.8246695038
  0
SEQEND
  0
POLYLINE
  8
0
 62
7
  6
CONTINUOUS
 66
1
 70
0
  0
VERTEX
  8
0
 62
7
  6
CONTINUOUS
 10
161.2235996805
 20
144.7551210578
  0
VERTEX
  8
0
 62
7
  6
CONTINUOUS
 10
161.2320145352
 20
144.7553778684
  0
VERTEX
  8
0
 62
7
  6
CONTINUOUS
 10
161.250815394
 20
144.7572511082
  0
VERTEX
  8
0
 62
7
  6
CONTINUOUS
 10
161.2733731318
 20
144.7608789885
  0
VERTEX
  8
0
 62
7
  6
CONTINUOUS
 10
161.300950877
 20
144.766344867
  0
SEQEND
  0
LINE
  8
0
 62
7
  6
CONTINUOUS
 10
160.0886879389
 20
144.7551201439
 11
161.2235711537
 21
144.7551210578
  0
LINE
  8
0
 62
7
  6
CONTINUOUS
 10
161.7252879389
 20
144.8246695038
 11
165.3271183855
 21
144.8246691286
  0
LINE
  8
1_AXIS
 62
2
  6
CONTINUOUS
 10
164.8186879389
 20
149.1051201439
 11
163.0586879389
 21
149.1051201439
  0
LINE
  8
1_AXIS
 62
2
  6
CENTER
 10
159.5386879389
 20
149.1051201439
 11
157.788686707
 21
149.1051201439
  0
LINE
  8
1_AXIS
 62
2
  6
CENTER
 10
168.3386879389
 20
149.1051201439
 11
170.0886891708
 21
149.1051201439
  0
LINE
  8
0
 62
7
  6
CONTINUOUS
 10
167.5886879389
 20
150.3298650153
 11
167.8196458641
 21
150.3670167998
  0
LINE
  8
0
 62
7
  6
CONTINUOUS
 10
167.8196458641
 20
150.3670167998
 11
168.0307047154
 21
150.4000358596
  0
LINE
  8
0
 62
7
  6
CONTINUOUS
 10
168.0307047154
 20
150.4000358596
 11
168.0886879389
 21
150.408960625
  0
LINE
  8
0
 62
7
  6
CONTINUOUS
 10
162.96662827
 20
153.3451201439
 11
164.9107476079
 21
153.3451201439
  0
LINE
  8
0
 62
7
  6
CONTINUOUS
 10
23.741397429
 20
232.0003670692
 11
23.741397429
 21
237.5382821859
  0
LINE
  8
0
 62
7
  6
CONTINUOUS
 10
23.941397429
 20
230.3637671512
 11
23.941397429
 21
237.8637670692
  0
LINE
  8
0
 62
7
  6
CONTINUOUS
 10
26.741397429
 20
230.3637670692
 11
26.741397429
 21
237.8637670692
  0
POLYLINE
  8
0
 62
7
  6
CONTINUOUS
 66
1
 70
0
  0
VERTEX
  8
0
 62
7
  6
CONTINUOUS
 10
23.7766786594
 20
231.8156790576
  0
VERTEX
  8
0
 62
7
  6
CONTINUOUS
 10
23.7503291612
 20
231.9058217051
  0
VERTEX
  8
0
 62
7
  6
CONTINUOUS
 10
23.7413902156
 20
232.0003670692
  0
SEQEND
  0
LINE
  8
0
 62
7
  6
CONTINUOUS
 10
28.591397429
 20
230.3637670692
 11
28.591397429
 21
232.1403290105
  0
LINE
  8
0
 62
7
  6
CONTINUOUS
 10
23.8203592091
 20
231.7306879685
 11
23.7766786594
 21
231.8156790576
  0
LINE
  8
0
 62
7
  6
CONTINUOUS
 10
31.091397429
 20
231.3698247043
 11
31.091397429
 21
230.0637695322
  0
LINE
  8
0
 62
7
  6
CONTINUOUS
 10
31.491397429
 20
230.3637670692
 11
31.491397429
 21
232.1407292529
  0
LINE
  8
0
 62
7
  6
CONTINUOUS
 10
33.341397429
 20
237.8637670692
 11
33.341397429
 21
230.3637670692
  0
POLYLINE
  8
0
 62
7
  6
CONTINUOUS
 66
1
 70
0
  0
VERTEX
  8
0
 62
7
  6
CONTINUOUS
 10
31.0913971691
 20
231.3698822157
  0
VERTEX
  8
0
 62
7
  6
CONTINUOUS
 10
31.1021862319
 20
231.4562379818
  0
VERTEX
  8
0
 62
7
  6
CONTINUOUS
 10
31.1172592542
 20
231.506476586
  0
VERTEX
  8
0
 62
7
  6
CONTINUOUS
 10
31.1617651564
 20
231.5988944297
  0
SEQEND
  0
POLYLINE
  8
0
 62
7
  6
CONTINUOUS
 66
1
 70
0
  0
VERTEX
  8
0
 62
7
  6
CONTINUOUS
 10
31.3126425034
 20
231.4515802527
  0
VERTEX
  8
0
 62
7
  6
CONTINUOUS
 10
31.410642799
 20
231.2015901862
  0
VERTEX
  8
0
 62
7
  6
CONTINUOUS
 10
31.4722922312
 20
230.9492398473
  0
VERTEX
  8
0
 62
7
  6
CONTINUOUS
 10
31.4913976117
 20
230.7280949167
  0
SEQEND
  0
LINE
  8
0
 62
7
  6
CONTINUOUS
 10
32.5085151746
 20
231.0014238884
 11
32.7407030245
 21
230.2184544485
  0
POLYLINE
  8
0
 62
7
  6
CONTINUOUS
 66
1
 70
0
  0
VERTEX
  8
0
 62
7
  6
CONTINUOUS
 10
32.7407035908
 20
230.2184526335
  0
VERTEX
  8
0
 62
7
  6
CONTINUOUS
 10
32.733744751
 20
230.244482119
  0
VERTEX
  8
0
 62
7
  6
CONTINUOUS
 10
32.7201231867
 20
230.3637670692
  0
SEQEND
  0
LINE
  8
0
 62
7
  6
CONTINUOUS
 10
37.441397429
 20
231.3698252514
 11
37.441397429
 21
230.0637695322
  0
POLYLINE
  8
0
 62
7
  6
CONTINUOUS
 66
1
 70
0
  0
VERTEX
  8
0
 62
7
  6
CONTINUOUS
 10
37.4413971225
 20
231.3698261757
  0
VERTEX
  8
0
 62
7
  6
CONTINUOUS
 10
37.4419869934
 20
231.3891690605
  0
VERTEX
  8
0
 62
7
  6
CONTINUOUS
 10
37.4447521031
 20
231.4169164641
  0
VERTEX
  8
0
 62
7
  6
CONTINUOUS
 10
37.4496807607
 20
231.4450947061
  0
VERTEX
  8
0
 62
7
  6
CONTINUOUS
 10
37.4566224101
 20
231.4733217638
  0
VERTEX
  8
0
 62
7
  6
CONTINUOUS
 10
37.4653995781
 20
231.5012338731
  0
VERTEX
  8
0
 62
7
  6
CONTINUOUS
 10
37.4758078371
 20
231.5284915308
  0
VERTEX
  8
0
 62
7
  6
CONTINUOUS
 10
37.4876528921
 20
231.5548353814
  0
VERTEX
  8
0
 62
7
  6
CONTINUOUS
 10
37.5007180967
 20
231.5799969204
  0
VERTEX
  8
0
 62
7
  6
CONTINUOUS
 10
37.5147810165
 20
231.6037365944
  0
VERTEX
  8
0
 62
7
  6
CONTINUOUS
 10
37.5296259063
 20
231.6258627191
  0
VERTEX
  8
0
 62
7
  6
CONTINUOUS
 10
37.545046345
 20
231.6462218068
  0
VERTEX
  8
0
 62
7
  6
CONTINUOUS
 10
37.5609273196
 20
231.6647855952
  0
VERTEX
  8
0
 62
7
  6
CONTINUOUS
 10
37.5773708829
 20
231.6817110922
  0
VERTEX
  8
0
 62
7
  6
CONTINUOUS
 10
37.5944382196
 20
231.6969900775
  0
VERTEX
  8
0
 62
7
  6
CONTINUOUS
 10
37.6121260311
 20
231.7104709084
  0
VERTEX
  8
0
 62
7
  6
CONTINUOUS
 10
37.630735136
 20
231.7220835108
  0
VERTEX
  8
0
 62
7
  6
CONTINUOUS
 10
37.6502743687
 20
231.7313278988
  0
VERTEX
  8
0
 62
7
  6
CONTINUOUS
 10
37.6704098588
 20
231.7373945215
  0
VERTEX
  8
0
 62
7
  6
CONTINUOUS
 10
37.6897419658
 20
231.7394838899
  0
VERTEX
  8
0
 62
7
  6
CONTINUOUS
 10
37.7075355029
 20
231.7379425932
  0
VERTEX
  8
0
 62
7
  6
CONTINUOUS
 10
37.7238982619
 20
231.7337316548
  0
VERTEX
  8
0
 62
7
  6
CONTINUOUS
 10
37.7398839956
 20
231.7272889728
  0
VERTEX
  8
0
 62
7
  6
CONTINUOUS
 10
37.7487287243
 20
231.7228114819
  0
SEQEND
  0
POLYLINE
  8
0
 62
7
  6
CONTINUOUS
 66
1
 70
0
  0
VERTEX
  8
0
 62
7
  6
CONTINUOUS
 10
31.11706019
 20
231.5058131022
  0
VERTEX
  8
0
 62
7
  6
CONTINUOUS
 10
31.1275182593
 20
231.5325551485
  0
VERTEX
  8
0
 62
7
  6
CONTINUOUS
 10
31.1399393299
 20
231.5594962123
  0
VERTEX
  8
0
 62
7
  6
CONTINUOUS
 10
31.1536113026
 20
231.5851341369
  0
SEQEND
  0
LINE
  8
0
 62
7
  6
CONTINUOUS
 10
23.741397429
 20
237.5382821859
 11
23.941397429
 21
237.7538801692
  0
LINE
  8
0
 62
7
  6
CONTINUOUS
 10
31.2435122154
 20
231.5993185891
 11
31.2550359874
 21
231.5749016791
  0
LINE
  8
0
 62
7
  6
CONTINUOUS
 10
31.2550359874
 20
231.5749016791
 11
31.3126684796
 21
231.4515273577
  0
POLYLINE
  8
0
 62
7
  6
CONTINUOUS
 66
1
 70
0
  0
VERTEX
  8
0
 62
7
  6
CONTINUOUS
 10
32.5056111324
 20
231.0108241336
  0
VERTEX
  8
0
 62
7
  6
CONTINUOUS
 10
32.505108845
 20
231.0121038564
  0
VERTEX
  8
0
 62
7
  6
CONTINUOUS
 10
32.5085107635
 20
231.0014387301
  0
SEQEND
  0
LINE
  8
0
 62
7
  6
CONTINUOUS
 10
39.441397429
 20
231.7228565757
 11
39.441397429
 21
237.8637670692
  0
LINE
  8
2_FEATURE
 62
7
  6
CONTINUOUS
 10
39.4913970476
 20
235.9111124068
 11
39.4913970476
 21
235.8637670692
  0
LINE
  8
2_FEATURE
 62
7
  6
CONTINUOUS
 10
39.541397429
 20
235.9429125414
 11
39.541397429
 21
235.8637670692
  0
LINE
  8
0
 62
7
  6
CONTINUOUS
 10
39.691397429
 20
230.363836165
 11
39.691397429
 21
235.7880587797
  0
LINE
  8
2_FEATURE
 62
7
  6
CONTINUOUS
 10
39.7413978105
 20
235.9637670692
 11
39.7413978105
 21
235.8637670692
  0
LINE
  8
2_FEATURE
 62
7
  6
CONTINUOUS
 10
39.766397429
 20
235.9637670692
 11
39.766397429
 21
235.8637670692
  0
LINE
  8
2_FEATURE
 62
7
  6
CONTINUOUS
 10
39.7913970476
 20
235.9637670692
 11
39.7913970476
 21
235.8637670692
  0
LINE
  8
2_FEATURE
 62
7
  6
CONTINUOUS
 10
39.841397429
 20
235.9637670692
 11
39.841397429
 21
235.8637670692
  0
LINE
  8
2_FEATURE
 62
7
  6
CONTINUOUS
 10
39.916397429
 20
235.9637670692
 11
39.916397429
 21
235.8637670692
  0
LINE
  8
2_FEATURE
 62
7
  6
CONTINUOUS
 10
40.0413978105
 20
235.9637670692
 11
40.0413978105
 21
235.8637670692
  0
LINE
  8
2_FEATURE
 62
7
  6
CONTINUOUS
 10
40.1913978105
 20
235.9637670692
 11
40.1913978105
 21
235.8637670692
  0
LINE
  8
1_AXIS
 62
7
  6
CONTINUOUS
 10
40.321397429
 20
235.9637670692
 11
40.321397429
 21
235.8637670692
  0
LINE
  8
1_AXIS
 62
7
  6
CONTINUOUS
 10
40.831397429
 20
235.9637670692
 11
40.831397429
 21
235.8637670692
  0
LINE
  8
0
 62
7
  6
CONTINUOUS
 10
39.4316284071
 20
231.594331717
 11
39.4413982046
 21
231.7227497527
  0
POLYLINE
  8
0
 62
7
  6
CONTINUOUS
 66
1
 70
0
  0
VERTEX
  8
0
 62
7
  6
CONTINUOUS
 10
39.441397429
 20
235.7880587797
  0
VERTEX
  8
0
 62
7
  6
CONTINUOUS
 10
39.4504495612
 20
235.8449384044
  0
VERTEX
  8
0
 62
7
  6
CONTINUOUS
 10
39.4802924202
 20
235.9000791929
  0
VERTEX
  8
0
 62
7
  6
CONTINUOUS
 10
39.5029611075
 20
235.9226020986
  0
VERTEX
  8
0
 62
7
  6
CONTINUOUS
 10
39.5609121023
 20
235.9532244454
  0
VERTEX
  8
0
 62
7
  6
CONTINUOUS
 10
39.6342963706
 20
235.9637670692
  0
SEQEND
  0
LINE
  8
0
 62
7
  6
CONTINUOUS
 10
31.2016985899
 20
231.6666360379
 11
31.2046716626
 21
231.6719876813
  0
LINE
  8
0
 62
7
  6
CONTINUOUS
 10
31.1972041475
 20
231.6586533523
 11
31.2016985899
 21
231.6666360379
  0
LINE
  8
0
 62
7
  6
CONTINUOUS
 10
31.1924175881
 20
231.6502760988
 11
31.1972041475
 21
231.6586533523
  0
LINE
  8
0
 62
7
  6
CONTINUOUS
 10
31.187570433
 20
231.6419093582
 11
31.1924175881
 21
231.6502760988
  0
LINE
  8
0
 62
7
  6
CONTINUOUS
 10
31.1832010934
 20
231.6344576263
 11
31.187570433
 21
231.6419093582
  0
LINE
  8
0
 62
7
  6
CONTINUOUS
 10
31.177936508
 20
231.6255812153
 11
31.1832010934
 21
231.6344576263
  0
LINE
  8
0
 62
7
  6
CONTINUOUS
 10
31.172906373
 20
231.617193938
 11
31.177936508
 21
231.6255812153
  0
LINE
  8
0
 62
7
  6
CONTINUOUS
 10
31.1608856507
 20
231.5970681097
 11
31.172906373
 21
231.617193938
  0
POLYLINE
  8
0
 62
7
  6
CONTINUOUS
 66
1
 70
0
  0
VERTEX
  8
0
 62
7
  6
CONTINUOUS
 10
31.1682881299
 20
231.6092122887
  0
VERTEX
  8
0
 62
7
  6
CONTINUOUS
 10
31.1837360949
 20
231.6315324448
  0
VERTEX
  8
0
 62
7
  6
CONTINUOUS
 10
31.1997303065
 20
231.651937291
  0
VERTEX
  8
0
 62
7
  6
CONTINUOUS
 10
31.2079067137
 20
231.6614294495
  0
VERTEX
  8
0
 62
7
  6
CONTINUOUS
 10
31.2100223651
 20
231.6636570832
  0
SEQEND
  0
POLYLINE
  8
0
 62
7
  6
CONTINUOUS
 66
1
 70
0
  0
VERTEX
  8
0
 62
7
  6
CONTINUOUS
 10
23.941397429
 20
235.1274956942
  0
VERTEX
  8
0
 62
7
  6
CONTINUOUS
 10
23.9558005412
 20
235.1417282869
  0
VERTEX
  8
0
 62
7
  6
CONTINUOUS
 10
23.998266901
 20
235.1549633656
  0
VERTEX
  8
0
 62
7
  6
CONTINUOUS
 10
24.0664781738
 20
235.1664885912
  0
VERTEX
  8
0
 62
7
  6
CONTINUOUS
 10
24.1090933091
 20
235.171415815
  0
VERTEX
  8
0
 62
7
  6
CONTINUOUS
 10
24.2082992173
 20
235.1792798534
  0
VERTEX
  8
0
 62
7
  6
CONTINUOUS
 10
24.3212567306
 20
235.1841676877
  0
VERTEX
  8
0
 62
7
  6
CONTINUOUS
 10
24.441397429
 20
235.1858267382
  0
SEQEND
  0
POLYLINE
  8
0
 62
7
  6
CONTINUOUS
 66
1
 70
0
  0
VERTEX
  8
0
 62
7
  6
CONTINUOUS
 10
23.941397429
 20
233.3000384443
  0
VERTEX
  8
0
 62
7
  6
CONTINUOUS
 10
23.9558005412
 20
233.2858058516
  0
VERTEX
  8
0
 62
7
  6
CONTINUOUS
 10
23.998266901
 20
233.2725707729
  0
VERTEX
  8
0
 62
7
  6
CONTINUOUS
 10
24.0664781738
 20
233.2610455473
  0
VERTEX
  8
0
 62
7
  6
CONTINUOUS
 10
24.1090933091
 20
233.2561183235
  0
VERTEX
  8
0
 62
7
  6
CONTINUOUS
 10
24.2082992173
 20
233.2482542851
  0
VERTEX
  8
0
 62
7
  6
CONTINUOUS
 10
24.3212567306
 20
233.2433664507
  0
VERTEX
  8
0
 62
7
  6
CONTINUOUS
 10
24.441397429
 20
233.2417074003
  0
SEQEND
  0
POLYLINE
  8
0
 62
7
  6
CONTINUOUS
 66
1
 70
0
  0
VERTEX
  8
0
 62
7
  6
CONTINUOUS
 10
39.691397429
 20
235.7880587797
  0
VERTEX
  8
0
 62
7
  6
CONTINUOUS
 10
39.6823425843
 20
235.8449467691
  0
VERTEX
  8
0
 62
7
  6
CONTINUOUS
 10
39.6524777826
 20
235.9001092132
  0
VERTEX
  8
0
 62
7
  6
CONTINUOUS
 10
39.6298037171
 20
235.9226264405
  0
VERTEX
  8
0
 62
7
  6
CONTINUOUS
 10
39.5718614866
 20
235.9532311543
  0
VERTEX
  8
0
 62
7
  6
CONTINUOUS
 10
39.5664091989
 20
235.9540141763
  0
SEQEND
  0
LINE
  8
1_AXIS
 62
7
  6
CONTINUOUS
 10
41.521397429
 20
235.9637670692
 11
41.521397429
 21
235.8637670692
  0
LINE
  8
1_AXIS
 62
7
  6
CONTINUOUS
 10
42.031397429
 20
235.9637670692
 11
42.031397429
 21
235.8637670692
  0
LINE
  8
2_FEATURE
 62
7
  6
CONTINUOUS
 10
42.0663972383
 20
235.9637670692
 11
42.0663972383
 21
235.8637670692
  0
LINE
  8
1_AXIS
 62
7
  6
CONTINUOUS
 10
42.151397429
 20
235.9637670692
 11
42.151397429
 21
235.8637670692
  0
LINE
  8
1_AXIS
 62
7
  6
CONTINUOUS
 10
42.661397429
 20
235.9637670692
 11
42.661397429
 21
235.8637670692
  0
LINE
  8
1_AXIS
 62
7
  6
CONTINUOUS
 10
43.471397429
 20
235.9637670692
 11
43.471397429
 21
235.8637670692
  0
LINE
  8
0
 62
7
  6
CONTINUOUS
 10
31.5177559674
 20
235.962776724
 11
31.0187463126
 21
235.4637670692
  0
POLYLINE
  8
0
 62
7
  6
CONTINUOUS
 66
1
 70
0
  0
VERTEX
  8
0
 62
7
  6
CONTINUOUS
 10
26.741397429
 20
235.1274956942
  0
VERTEX
  8
0
 62
7
  6
CONTINUOUS
 10
26.7269943168
 20
235.1417282869
  0
VERTEX
  8
0
 62
7
  6
CONTINUOUS
 10
26.6845279571
 20
235.1549633656
  0
VERTEX
  8
0
 62
7
  6
CONTINUOUS
 10
26.6163166843
 20
235.1664885912
  0
VERTEX
  8
0
 62
7
  6
CONTINUOUS
 10
26.573701549
 20
235.171415815
  0
VERTEX
  8
0
 62
7
  6
CONTINUOUS
 10
26.4744956408
 20
235.1792798534
  0
VERTEX
  8
0
 62
7
  6
CONTINUOUS
 10
26.3615381275
 20
235.1841676877
  0
VERTEX
  8
0
 62
7
  6
CONTINUOUS
 10
26.241397429
 20
235.1858267382
  0
SEQEND
  0
LINE
  8
0
 62
7
  6
CONTINUOUS
 10
29.0641756341
 20
235.4637670692
 11
28.5651551963
 21
235.9627875071
  0
LINE
  8
1_AXIS
 62
7
  6
CONTINUOUS
 10
45.001397429
 20
235.9637670692
 11
45.001397429
 21
235.8637670692
  0
LINE
  8
2_FEATURE
 62
7
  6
CONTINUOUS
 10
45.091397429
 20
235.9637670692
 11
45.091397429
 21
235.8637670692
  0
LINE
  8
2_FEATURE
 62
7
  6
CONTINUOUS
 10
45.166397429
 20
235.9637670692
 11
45.166397429
 21
235.8637670692
  0
LINE
  8
2_FEATURE
 62
7
  6
CONTINUOUS
 10
45.241397429
 20
235.9637670692
 11
45.241397429
 21
235.8637670692
  0
LINE
  8
2_FEATURE
 62
7
  6
CONTINUOUS
 10
45.2913972383
 20
235.9637670692
 11
45.2913972383
 21
235.8637670692
  0
LINE
  8
2_FEATURE
 62
7
  6
CONTINUOUS
 10
45.4913976198
 20
235.9637670692
 11
45.4913976198
 21
235.8637670692
  0
LINE
  8
2_FEATURE
 62
7
  6
CONTINUOUS
 10
45.691397429
 20
235.9637670692
 11
45.691397429
 21
235.8637670692
  0
LINE
  8
0
 62
7
  6
CONTINUOUS
 10
45.791397429
 20
230.363836165
 11
45.791397429
 21
235.7880587797
  0
LINE
  8
2_FEATURE
 62
7
  6
CONTINUOUS
 10
45.8163975244
 20
235.9637670692
 11
45.8163975244
 21
235.8637670692
  0
LINE
  8
2_FEATURE
 62
7
  6
CONTINUOUS
 10
45.841397429
 20
235.9637670692
 11
45.841397429
 21
235.8637670692
  0
LINE
  8
2_FEATURE
 62
7
  6
CONTINUOUS
 10
45.8663973337
 20
235.9637670692
 11
45.8663973337
 21
235.8637670692
  0
LINE
  8
2_FEATURE
 62
7
  6
CONTINUOUS
 10
45.8913975244
 20
235.9575974544
 11
45.8913975244
 21
235.8637670692
  0
LINE
  8
2_FEATURE
 62
7
  6
CONTINUOUS
 10
45.9663975244
 20
235.9296493863
 11
45.9663975244
 21
235.8637670692
  0
LINE
  8
0
 62
7
  6
CONTINUOUS
 10
46.041397429
 20
230.3637683223
 11
46.041397429
 21
237.8637670692
  0
POLYLINE
  8
0
 62
7
  6
CONTINUOUS
 66
1
 70
0
  0
VERTEX
  8
0
 62
7
  6
CONTINUOUS
 10
45.8119316941
 20
235.866174041
  0
VERTEX
  8
0
 62
7
  6
CONTINUOUS
 10
45.8003944403
 20
235.844768132
  0
VERTEX
  8
0
 62
7
  6
CONTINUOUS
 10
45.791397429
 20
235.7880587797
  0
SEQEND
  0
POLYLINE
  8
0
 62
7
  6
CONTINUOUS
 66
1
 70
0
  0
VERTEX
  8
0
 62
7
  6
CONTINUOUS
 10
39.441397429
 20
233.3000384443
  0
VERTEX
  8
0
 62
7
  6
CONTINUOUS
 10
39.4269943168
 20
233.2858058516
  0
VERTEX
  8
0
 62
7
  6
CONTINUOUS
 10
39.3845279571
 20
233.2725707729
  0
VERTEX
  8
0
 62
7
  6
CONTINUOUS
 10
39.3163166843
 20
233.2610455473
  0
VERTEX
  8
0
 62
7
  6
CONTINUOUS
 10
39.273701549
 20
233.2561183235
  0
VERTEX
  8
0
 62
7
  6
CONTINUOUS
 10
39.1744956408
 20
233.2482542851
  0
VERTEX
  8
0
 62
7
  6
CONTINUOUS
 10
39.0615381275
 20
233.2433664507
  0
VERTEX
  8
0
 62
7
  6
CONTINUOUS
 10
38.941397429
 20
233.2417074003
  0
SEQEND
  0
LINE
  8
0
 62
7
  6
CONTINUOUS
 10
52.141397429
 20
230.3637670692
 11
52.141397429
 21
237.8637670692
  0
LINE
  8
0
 62
7
  6
CONTINUOUS
 10
53.991397429
 20
230.3637670692
 11
53.991397429
 21
232.1407292443
  0
POLYLINE
  8
0
 62
7
  6
CONTINUOUS
 66
1
 70
0
  0
VERTEX
  8
0
 62
7
  6
CONTINUOUS
 10
52.7420912673
 20
230.2184526335
  0
VERTEX
  8
0
 62
7
  6
CONTINUOUS
 10
52.7490501071
 20
230.244482119
  0
VERTEX
  8
0
 62
7
  6
CONTINUOUS
 10
52.7626716714
 20
230.3637670692
  0
SEQEND
  0
POLYLINE
  8
0
 62
7
  6
CONTINUOUS
 66
1
 70
0
  0
VERTEX
  8
0
 62
7
  6
CONTINUOUS
 10
46.041397429
 20
235.1274956942
  0
VERTEX
  8
0
 62
7
  6
CONTINUOUS
 10
46.0558005412
 20
235.1417282869
  0
VERTEX
  8
0
 62
7
  6
CONTINUOUS
 10
46.098266901
 20
235.1549633656
  0
VERTEX
  8
0
 62
7
  6
CONTINUOUS
 10
46.1664781738
 20
235.1664885912
  0
VERTEX
  8
0
 62
7
  6
CONTINUOUS
 10
46.2090933091
 20
235.171415815
  0
VERTEX
  8
0
 62
7
  6
CONTINUOUS
 10
46.3082992173
 20
235.1792798534
  0
VERTEX
  8
0
 62
7
  6
CONTINUOUS
 10
46.4212567306
 20
235.1841676877
  0
VERTEX
  8
0
 62
7
  6
CONTINUOUS
 10
46.541397429
 20
235.1858267382
  0
SEQEND
  0
LINE
  8
0
 62
7
  6
CONTINUOUS
 10
56.891397429
 20
230.3637670692
 11
56.891397429
 21
232.1407292524
  0
LINE
  8
0
 62
7
  6
CONTINUOUS
 10
52.7420918335
 20
230.2184544485
 11
52.9742796834
 21
231.0014238884
  0
LINE
  8
0
 62
7
  6
CONTINUOUS
 10
52.9742844092
 20
231.001439791
 11
52.9776407892
 21
231.0119788971
  0
POLYLINE
  8
0
 62
7
  6
CONTINUOUS
 66
1
 70
0
  0
VERTEX
  8
0
 62
7
  6
CONTINUOUS
 10
37.7487314942
 20
231.7228111426
  0
VERTEX
  8
0
 62
7
  6
CONTINUOUS
 10
38.0761477015
 20
231.5544889901
  0
VERTEX
  8
0
 62
7
  6
CONTINUOUS
 10
38.4581185958
 20
231.3778842919
  0
VERTEX
  8
0
 62
7
  6
CONTINUOUS
 10
38.8682426273
 20
231.2077739968
  0
SEQEND
  0
POLYLINE
  8
0
 62
7
  6
CONTINUOUS
 66
1
 70
0
  0
VERTEX
  8
0
 62
7
  6
CONTINUOUS
 10
57.9056111324
 20
231.0108241336
  0
VERTEX
  8
0
 62
7
  6
CONTINUOUS
 10
57.905108845
 20
231.0121038564
  0
VERTEX
  8
0
 62
7
  6
CONTINUOUS
 10
57.9085107635
 20
231.0014387301
  0
SEQEND
  0
LINE
  8
0
 62
7
  6
CONTINUOUS
 10
57.9085151746
 20
231.0014238884
 11
58.1407030245
 21
230.2184544485
  0
POLYLINE
  8
0
 62
7
  6
CONTINUOUS
 66
1
 70
0
  0
VERTEX
  8
0
 62
7
  6
CONTINUOUS
 10
58.1407035908
 20
230.2184526335
  0
VERTEX
  8
0
 62
7
  6
CONTINUOUS
 10
58.133744751
 20
230.244482119
  0
VERTEX
  8
0
 62
7
  6
CONTINUOUS
 10
58.1201231867
 20
230.3637670692
  0
SEQEND
  0
LINE
  8
0
 62
7
  6
CONTINUOUS
 10
58.741397429
 20
230.3637670692
 11
58.741397429
 21
237.8637670692
  0
LINE
  8
0
 62
7
  6
CONTINUOUS
 10
56.9177559674
 20
235.962776724
 11
56.4187463126
 21
235.4637670692
  0
POLYLINE
  8
0
 62
7
  6
CONTINUOUS
 66
1
 70
0
  0
VERTEX
  8
0
 62
7
  6
CONTINUOUS
 10
31.1783811314
 20
231.6993195301
  0
VERTEX
  8
0
 62
7
  6
CONTINUOUS
 10
31.1781649393
 20
231.6993882149
  0
VERTEX
  8
0
 62
7
  6
CONTINUOUS
 10
31.1798361598
 20
231.6985221456
  0
VERTEX
  8
0
 62
7
  6
CONTINUOUS
 10
31.1841559008
 20
231.6955411687
  0
VERTEX
  8
0
 62
7
  6
CONTINUOUS
 10
31.1894333077
 20
231.6908790298
  0
VERTEX
  8
0
 62
7
  6
CONTINUOUS
 10
31.1944166456
 20
231.6855727297
  0
VERTEX
  8
0
 62
7
  6
CONTINUOUS
 10
31.1992956936
 20
231.6795555234
  0
VERTEX
  8
0
 62
7
  6
CONTINUOUS
 10
31.2036790011
 20
231.6734888432
  0
VERTEX
  8
0
 62
7
  6
CONTINUOUS
 10
31.2079247792
 20
231.667068125
  0
VERTEX
  8
0
 62
7
  6
CONTINUOUS
 10
31.2121329501
 20
231.6602249027
  0
VERTEX
  8
0
 62
7
  6
CONTINUOUS
 10
31.2162921883
 20
231.6530423789
  0
VERTEX
  8
0
 62
7
  6
CONTINUOUS
 10
31.2204651222
 20
231.6454700568
  0
VERTEX
  8
0
 62
7
  6
CONTINUOUS
 10
31.2247125664
 20
231.6374408415
  0
VERTEX
  8
0
 62
7
  6
CONTINUOUS
 10
31.2290593148
 20
231.6289446017
  0
VERTEX
  8
0
 62
7
  6
CONTINUOUS
 10
31.2335562799
 20
231.6199151632
  0
VERTEX
  8
0
 62
7
  6
CONTINUOUS
 10
31.2383336355
 20
231.6101163796
  0
VERTEX
  8
0
 62
7
  6
CONTINUOUS
 10
31.2435122154
 20
231.5993185891
  0
SEQEND
  0
LINE
  8
0
 62
7
  6
CONTINUOUS
 10
38.8659219564
 20
231.2087365593
 11
38.8682429742
 21
231.2077736972
  0
POLYLINE
  8
0
 62
7
  6
CONTINUOUS
 66
1
 70
0
  0
VERTEX
  8
0
 62
7
  6
CONTINUOUS
 10
52.141397429
 20
235.1274956942
  0
VERTEX
  8
0
 62
7
  6
CONTINUOUS
 10
52.1269943168
 20
235.1417282869
  0
VERTEX
  8
0
 62
7
  6
CONTINUOUS
 10
52.0845279571
 20
235.1549633656
  0
VERTEX
  8
0
 62
7
  6
CONTINUOUS
 10
52.0163166843
 20
235.1664885912
  0
VERTEX
  8
0
 62
7
  6
CONTINUOUS
 10
51.973701549
 20
235.171415815
  0
VERTEX
  8
0
 62
7
  6
CONTINUOUS
 10
51.8744956408
 20
235.1792798534
  0
VERTEX
  8
0
 62
7
  6
CONTINUOUS
 10
51.7615381275
 20
235.1841676877
  0
VERTEX
  8
0
 62
7
  6
CONTINUOUS
 10
51.641397429
 20
235.1858267382
  0
SEQEND
  0
LINE
  8
0
 62
7
  6
CONTINUOUS
 10
54.4640485455
 20
235.4637670692
 11
53.9650388907
 21
235.962776724
  0
POLYLINE
  8
0
 62
7
  6
CONTINUOUS
 66
1
 70
0
  0
VERTEX
  8
0
 62
7
  6
CONTINUOUS
 10
64.841397429
 20
235.7880587797
  0
VERTEX
  8
0
 62
7
  6
CONTINUOUS
 10
64.8504495612
 20
235.8449384044
  0
VERTEX
  8
0
 62
7
  6
CONTINUOUS
 10
64.8802924202
 20
235.9000791929
  0
VERTEX
  8
0
 62
7
  6
CONTINUOUS
 10
64.9029611075
 20
235.9226020986
  0
VERTEX
  8
0
 62
7
  6
CONTINUOUS
 10
64.9609121023
 20
235.9532244454
  0
VERTEX
  8
0
 62
7
  6
CONTINUOUS
 10
65.0342963706
 20
235.9637670692
  0
SEQEND
  0
POLYLINE
  8
0
 62
7
  6
CONTINUOUS
 66
1
 70
0
  0
VERTEX
  8
0
 62
7
  6
CONTINUOUS
 10
116.3735510714
 20
229.8638098386
  0
VERTEX
  8
0
 62
7
  6
CONTINUOUS
 10
116.4922752808
 20
229.8797460903
  0
VERTEX
  8
0
 62
7
  6
CONTINUOUS
 10
116.6038648071
 20
229.9234594895
  0
VERTEX
  8
0
 62
7
  6
CONTINUOUS
 10
116.7019479204
 20
229.9923505341
  0
VERTEX
  8
0
 62
7
  6
CONTINUOUS
 10
116.7441446779
 20
230.0350278188
  0
VERTEX
  8
0
 62
7
  6
CONTINUOUS
 10
116.8118757229
 20
230.1337475818
  0
VERTEX
  8
0
 62
7
  6
CONTINUOUS
 10
116.8543805664
 20
230.245452181
  0
VERTEX
  8
0
 62
7
  6
CONTINUOUS
 10
116.8693332691
 20
230.3637670692
  0
SEQEND
  0
POLYLINE
  8
0
 62
7
  6
CONTINUOUS
 66
1
 70
0
  0
VERTEX
  8
0
 62
7
  6
CONTINUOUS
 10
32.6092437867
 20
229.8638098386
  0
VERTEX
  8
0
 62
7
  6
CONTINUOUS
 10
32.4905195773
 20
229.8797460903
  0
VERTEX
  8
0
 62
7
  6
CONTINUOUS
 10
32.378930051
 20
229.9234594895
  0
VERTEX
  8
0
 62
7
  6
CONTINUOUS
 10
32.2808469376
 20
229.9923505341
  0
VERTEX
  8
0
 62
7
  6
CONTINUOUS
 10
32.2386501802
 20
230.0350278188
  0
VERTEX
  8
0
 62
7
  6
CONTINUOUS
 10
32.1709191351
 20
230.1337475818
  0
VERTEX
  8
0
 62
7
  6
CONTINUOUS
 10
32.1284142917
 20
230.245452181
  0
VERTEX
  8
0
 62
7
  6
CONTINUOUS
 10
32.113461589
 20
230.3637670692
  0
SEQEND
  0
POLYLINE
  8
0
 62
7
  6
CONTINUOUS
 66
1
 70
0
  0
VERTEX
  8
0
 62
7
  6
CONTINUOUS
 10
38.8682480646
 20
231.2077719674
  0
VERTEX
  8
0
 62
7
  6
CONTINUOUS
 10
38.9563653567
 20
231.1835548444
  0
VERTEX
  8
0
 62
7
  6
CONTINUOUS
 10
39.0550478774
 20
231.1803783709
  0
VERTEX
  8
0
 62
7
  6
CONTINUOUS
 10
39.1484644148
 20
231.2017196913
  0
VERTEX
  8
0
 62
7
  6
CONTINUOUS
 10
39.2345228653
 20
231.2467116584
  0
VERTEX
  8
0
 62
7
  6
CONTINUOUS
 10
39.2741320509
 20
231.2782251926
  0
VERTEX
  8
0
 62
7
  6
CONTINUOUS
 10
39.3446750951
 20
231.3604512183
  0
VERTEX
  8
0
 62
7
  6
CONTINUOUS
 10
39.3989403657
 20
231.4676519167
  0
VERTEX
  8
0
 62
7
  6
CONTINUOUS
 10
39.4317459657
 20
231.5947873058
  0
SEQEND
  0
LINE
  8
0
 62
7
  6
CONTINUOUS
 10
64.841397429
 20
230.3637683223
 11
64.841397429
 21
237.8637670692
  0
LINE
  8
0
 62
7
  6
CONTINUOUS
 10
65.091397429
 20
230.363836165
 11
65.091397429
 21
235.7880587797
  0
LINE
  8
2_FEATURE
 62
7
  6
CONTINUOUS
 10
65.5163973873
 20
235.9637670692
 11
65.5163973873
 21
235.8637670692
  0
LINE
  8
2_FEATURE
 62
7
  6
CONTINUOUS
 10
65.866397429
 20
235.9637670692
 11
65.866397429
 21
235.8637670692
  0
LINE
  8
2_FEATURE
 62
7
  6
CONTINUOUS
 10
65.891397429
 20
235.9637670692
 11
65.891397429
 21
235.8637670692
  0
LINE
  8
2_FEATURE
 62
7
  6
CONTINUOUS
 10
65.9413972383
 20
235.9637670692
 11
65.9413972383
 21
235.8637670692
  0
LINE
  8
2_FEATURE
 62
7
  6
CONTINUOUS
 10
66.0163972383
 20
235.9637670692
 11
66.0163972383
 21
235.8637670692
  0
LINE
  8
2_FEATURE
 62
7
  6
CONTINUOUS
 10
66.1413976198
 20
235.9637670692
 11
66.1413976198
 21
235.8637670692
  0
LINE
  8
2_FEATURE
 62
7
  6
CONTINUOUS
 10
66.2163974708
 20
235.9637670692
 11
66.2163974708
 21
235.8637670692
  0
LINE
  8
2_FEATURE
 62
7
  6
CONTINUOUS
 10
67.2663973456
 20
235.9637670692
 11
67.2663973456
 21
235.8637670692
  0
LINE
  8
2_FEATURE
 62
7
  6
CONTINUOUS
 10
67.5288973456
 20
235.9637670692
 11
67.5288973456
 21
235.8637670692
  0
LINE
  8
2_FEATURE
 62
7
  6
CONTINUOUS
 10
67.966397429
 20
235.9637670692
 11
67.966397429
 21
235.8637670692
  0
LINE
  8
2_FEATURE
 62
7
  6
CONTINUOUS
 10
68.0413972383
 20
235.9637670692
 11
68.0413972383
 21
235.8637670692
  0
LINE
  8
2_FEATURE
 62
7
  6
CONTINUOUS
 10
68.1163972383
 20
235.9637670692
 11
68.1163972383
 21
235.8637670692
  0
POLYLINE
  8
0
 62
7
  6
CONTINUOUS
 66
1
 70
0
  0
VERTEX
  8
0
 62
7
  6
CONTINUOUS
 10
103.6735510714
 20
229.8638098386
  0
VERTEX
  8
0
 62
7
  6
CONTINUOUS
 10
103.7922752808
 20
229.8797460903
  0
VERTEX
  8
0
 62
7
  6
CONTINUOUS
 10
103.9038648071
 20
229.9234594895
  0
VERTEX
  8
0
 62
7
  6
CONTINUOUS
 10
104.0019479204
 20
229.9923505341
  0
VERTEX
  8
0
 62
7
  6
CONTINUOUS
 10
104.0441446779
 20
230.0350278188
  0
VERTEX
  8
0
 62
7
  6
CONTINUOUS
 10
104.1118757229
 20
230.1337475818
  0
VERTEX
  8
0
 62
7
  6
CONTINUOUS
 10
104.1543805664
 20
230.245452181
  0
VERTEX
  8
0
 62
7
  6
CONTINUOUS
 10
104.1693332691
 20
230.3637670692
  0
SEQEND
  0
POLYLINE
  8
0
 62
7
  6
CONTINUOUS
 66
1
 70
0
  0
VERTEX
  8
0
 62
7
  6
CONTINUOUS
 10
115.766961577
 20
229.8637670692
  0
VERTEX
  8
0
 62
7
  6
CONTINUOUS
 10
115.8866606858
 20
229.8783888711
  0
VERTEX
  8
0
 62
7
  6
CONTINUOUS
 10
115.9990464024
 20
229.9213357865
  0
VERTEX
  8
0
 62
7
  6
CONTINUOUS
 10
116.0975928617
 20
229.990009338
  0
VERTEX
  8
0
 62
7
  6
CONTINUOUS
 10
116.1398569926
 20
230.0327682312
  0
VERTEX
  8
0
 62
7
  6
CONTINUOUS
 10
116.2073394324
 20
230.1319727476
  0
VERTEX
  8
0
 62
7
  6
CONTINUOUS
 10
116.2420912673
 20
230.2184526335
  0
SEQEND
  0
POLYLINE
  8
0
 62
7
  6
CONTINUOUS
 66
1
 70
0
  0
VERTEX
  8
0
 62
7
  6
CONTINUOUS
 10
103.066961577
 20
229.8637670692
  0
VERTEX
  8
0
 62
7
  6
CONTINUOUS
 10
103.1866606858
 20
229.8783888711
  0
VERTEX
  8
0
 62
7
  6
CONTINUOUS
 10
103.2990464024
 20
229.9213357865
  0
VERTEX
  8
0
 62
7
  6
CONTINUOUS
 10
103.3975928617
 20
229.990009338
  0
VERTEX
  8
0
 62
7
  6
CONTINUOUS
 10
103.4398569926
 20
230.0327682312
  0
VERTEX
  8
0
 62
7
  6
CONTINUOUS
 10
103.5073394324
 20
230.1319727476
  0
VERTEX
  8
0
 62
7
  6
CONTINUOUS
 10
103.5420912673
 20
230.2184526335
  0
SEQEND
  0
POLYLINE
  8
0
 62
7
  6
CONTINUOUS
 66
1
 70
0
  0
VERTEX
  8
0
 62
7
  6
CONTINUOUS
 10
33.2158332811
 20
229.8637670692
  0
VERTEX
  8
0
 62
7
  6
CONTINUOUS
 10
33.0961341723
 20
229.8783888711
  0
VERTEX
  8
0
 62
7
  6
CONTINUOUS
 10
32.9837484557
 20
229.9213357865
  0
VERTEX
  8
0
 62
7
  6
CONTINUOUS
 10
32.8852019963
 20
229.990009338
  0
VERTEX
  8
0
 62
7
  6
CONTINUOUS
 10
32.8429378655
 20
230.0327682312
  0
VERTEX
  8
0
 62
7
  6
CONTINUOUS
 10
32.7754554257
 20
230.1319727476
  0
VERTEX
  8
0
 62
7
  6
CONTINUOUS
 10
32.7407035908
 20
230.2184526335
  0
SEQEND
  0
POLYLINE
  8
0
 62
7
  6
CONTINUOUS
 66
1
 70
0
  0
VERTEX
  8
0
 62
7
  6
CONTINUOUS
 10
58.0092437867
 20
229.8638098386
  0
VERTEX
  8
0
 62
7
  6
CONTINUOUS
 10
57.8905195773
 20
229.8797460903
  0
VERTEX
  8
0
 62
7
  6
CONTINUOUS
 10
57.778930051
 20
229.9234594895
  0
VERTEX
  8
0
 62
7
  6
CONTINUOUS
 10
57.6808469376
 20
229.9923505341
  0
VERTEX
  8
0
 62
7
  6
CONTINUOUS
 10
57.6386501802
 20
230.0350278188
  0
VERTEX
  8
0
 62
7
  6
CONTINUOUS
 10
57.5709191351
 20
230.1337475818
  0
VERTEX
  8
0
 62
7
  6
CONTINUOUS
 10
57.5284142917
 20
230.245452181
  0
VERTEX
  8
0
 62
7
  6
CONTINUOUS
 10
57.513461589
 20
230.3637670692
  0
SEQEND
  0
LINE
  8
0
 62
7
  6
CONTINUOUS
 10
65.0823425843
 20
235.8449467691
 11
65.0708486277
 21
235.8661769365
  0
LINE
  8
0
 62
7
  6
CONTINUOUS
 10
65.091397429
 20
235.7880587797
 11
65.0823425843
 21
235.8449467691
  0
LINE
  8
2_FEATURE
 62
7
  6
CONTINUOUS
 10
68.1663976198
 20
235.9637670692
 11
68.1663976198
 21
235.8637670692
  0
LINE
  8
2_FEATURE
 62
7
  6
CONTINUOUS
 10
68.3163973456
 20
235.9637670692
 11
68.3163973456
 21
235.8637670692
  0
LINE
  8
2_FEATURE
 62
7
  6
CONTINUOUS
 10
68.360147429
 20
235.9637670692
 11
68.360147429
 21
235.8637670692
  0
LINE
  8
2_FEATURE
 62
7
  6
CONTINUOUS
 10
68.4038975125
 20
235.9637670692
 11
68.4038975125
 21
235.8637670692
  0
LINE
  8
2_FEATURE
 62
7
  6
CONTINUOUS
 10
68.491397429
 20
235.9637670692
 11
68.491397429
 21
235.8637670692
  0
LINE
  8
2_FEATURE
 62
7
  6
CONTINUOUS
 10
68.622647429
 20
235.9637670692
 11
68.622647429
 21
235.8637670692
  0
LINE
  8
2_FEATURE
 62
7
  6
CONTINUOUS
 10
68.8413975959
 20
235.9637670692
 11
68.8413975959
 21
235.8637670692
  0
LINE
  8
2_FEATURE
 62
7
  6
CONTINUOUS
 10
69.1038975959
 20
235.9637670692
 11
69.1038975959
 21
235.8637670692
  0
LINE
  8
2_FEATURE
 62
7
  6
CONTINUOUS
 10
69.3663975959
 20
235.9637670692
 11
69.3663975959
 21
235.8637670692
  0
LINE
  8
2_FEATURE
 62
7
  6
CONTINUOUS
 10
69.5851472621
 20
235.9637670692
 11
69.5851472621
 21
235.8637670692
  0
LINE
  8
2_FEATURE
 62
7
  6
CONTINUOUS
 10
69.7163972621
 20
235.9637670692
 11
69.7163972621
 21
235.8637670692
  0
LINE
  8
2_FEATURE
 62
7
  6
CONTINUOUS
 10
69.803897429
 20
235.9637670692
 11
69.803897429
 21
235.8637670692
  0
LINE
  8
2_FEATURE
 62
7
  6
CONTINUOUS
 10
69.8476472621
 20
235.9637670692
 11
69.8476472621
 21
235.8637670692
  0
LINE
  8
2_FEATURE
 62
7
  6
CONTINUOUS
 10
69.8913975959
 20
235.9637670692
 11
69.8913975959
 21
235.8637670692
  0
LINE
  8
2_FEATURE
 62
7
  6
CONTINUOUS
 10
69.941397429
 20
235.9637670692
 11
69.941397429
 21
235.8637670692
  0
LINE
  8
2_FEATURE
 62
7
  6
CONTINUOUS
 10
70.091397429
 20
235.9637670692
 11
70.091397429
 21
235.8637670692
  0
LINE
  8
2_FEATURE
 62
7
  6
CONTINUOUS
 10
70.166397429
 20
235.9637670692
 11
70.166397429
 21
235.8637670692
  0
LINE
  8
2_FEATURE
 62
7
  6
CONTINUOUS
 10
70.2413972621
 20
235.9637670692
 11
70.2413972621
 21
235.8637670692
  0
LINE
  8
2_FEATURE
 62
7
  6
CONTINUOUS
 10
70.2851475959
 20
235.9637670692
 11
70.2851475959
 21
235.8637670692
  0
LINE
  8
2_FEATURE
 62
7
  6
CONTINUOUS
 10
70.328897429
 20
235.9637670692
 11
70.328897429
 21
235.8637670692
  0
LINE
  8
2_FEATURE
 62
7
  6
CONTINUOUS
 10
70.4163975959
 20
235.9637670692
 11
70.4163975959
 21
235.8637670692
  0
LINE
  8
2_FEATURE
 62
7
  6
CONTINUOUS
 10
70.5476475959
 20
235.9637670692
 11
70.5476475959
 21
235.8637670692
  0
LINE
  8
2_FEATURE
 62
7
  6
CONTINUOUS
 10
70.7663972621
 20
235.9637670692
 11
70.7663972621
 21
235.8637670692
  0
LINE
  8
2_FEATURE
 62
7
  6
CONTINUOUS
 10
71.0288972621
 20
235.9637670692
 11
71.0288972621
 21
235.8637670692
  0
LINE
  8
0
 62
7
  6
CONTINUOUS
 10
71.191397429
 20
230.363836165
 11
71.191397429
 21
235.7880587797
  0
LINE
  8
2_FEATURE
 62
7
  6
CONTINUOUS
 10
71.2913972621
 20
235.9575974921
 11
71.2913972621
 21
235.8637670692
  0
LINE
  8
0
 62
7
  6
CONTINUOUS
 10
71.441397429
 20
230.3637683223
 11
71.441397429
 21
237.8637670692
  0
POLYLINE
  8
0
 62
7
  6
CONTINUOUS
 66
1
 70
0
  0
VERTEX
  8
0
 62
7
  6
CONTINUOUS
 10
71.210634396
 20
235.8637670692
  0
VERTEX
  8
0
 62
7
  6
CONTINUOUS
 10
71.2003944403
 20
235.844768132
  0
VERTEX
  8
0
 62
7
  6
CONTINUOUS
 10
71.191397429
 20
235.7880587797
  0
SEQEND
  0
POLYLINE
  8
0
 62
7
  6
CONTINUOUS
 66
1
 70
0
  0
VERTEX
  8
0
 62
7
  6
CONTINUOUS
 10
78.2735510714
 20
229.8638098386
  0
VERTEX
  8
0
 62
7
  6
CONTINUOUS
 10
78.3922752808
 20
229.8797460903
  0
VERTEX
  8
0
 62
7
  6
CONTINUOUS
 10
78.5038648071
 20
229.9234594895
  0
VERTEX
  8
0
 62
7
  6
CONTINUOUS
 10
78.6019479204
 20
229.9923505341
  0
VERTEX
  8
0
 62
7
  6
CONTINUOUS
 10
78.6441446779
 20
230.0350278188
  0
VERTEX
  8
0
 62
7
  6
CONTINUOUS
 10
78.7118757229
 20
230.1337475818
  0
VERTEX
  8
0
 62
7
  6
CONTINUOUS
 10
78.7543805664
 20
230.245452181
  0
VERTEX
  8
0
 62
7
  6
CONTINUOUS
 10
78.7693332691
 20
230.3637670692
  0
SEQEND
  0
POLYLINE
  8
0
 62
7
  6
CONTINUOUS
 66
1
 70
0
  0
VERTEX
  8
0
 62
7
  6
CONTINUOUS
 10
77.666961577
 20
229.8637670692
  0
VERTEX
  8
0
 62
7
  6
CONTINUOUS
 10
77.7866606858
 20
229.8783888711
  0
VERTEX
  8
0
 62
7
  6
CONTINUOUS
 10
77.8990464024
 20
229.9213357865
  0
VERTEX
  8
0
 62
7
  6
CONTINUOUS
 10
77.9975928617
 20
229.990009338
  0
VERTEX
  8
0
 62
7
  6
CONTINUOUS
 10
78.0398569926
 20
230.0327682312
  0
VERTEX
  8
0
 62
7
  6
CONTINUOUS
 10
78.1073394324
 20
230.1319727476
  0
VERTEX
  8
0
 62
7
  6
CONTINUOUS
 10
78.1420912673
 20
230.2184526335
  0
SEQEND
  0
LINE
  8
0
 62
7
  6
CONTINUOUS
 10
116.3735510714
 20
229.8638098386
 11
116.3670110874
 21
229.8637670692
  0
LINE
  8
0
 62
7
  6
CONTINUOUS
 10
103.6735510714
 20
229.8638098386
 11
103.6670110874
 21
229.8637670692
  0
LINE
  8
0
 62
7
  6
CONTINUOUS
 10
78.2735510714
 20
229.8638098386
 11
78.2670110874
 21
229.8637670692
  0
LINE
  8
0
 62
7
  6
CONTINUOUS
 10
52.8735510714
 20
229.8638098386
 11
52.8670110874
 21
229.8637670692
  0
LINE
  8
0
 62
7
  6
CONTINUOUS
 10
116.991397429
 20
229.8637670692
 11
116.391397429
 21
229.8637670692
  0
LINE
  8
0
 62
7
  6
CONTINUOUS
 10
116.3670110874
 20
229.8637670692
 11
115.7723729817
 21
229.8637670692
  0
LINE
  8
0
 62
7
  6
CONTINUOUS
 10
109.4104218763
 20
229.8637670692
 11
108.8157837707
 21
229.8637670692
  0
LINE
  8
0
 62
7
  6
CONTINUOUS
 10
103.6670110874
 20
229.8637670692
 11
103.0723729817
 21
229.8637670692
  0
LINE
  8
0
 62
7
  6
CONTINUOUS
 10
84.0104218763
 20
229.8637670692
 11
83.4157837707
 21
229.8637670692
  0
LINE
  8
0
 62
7
  6
CONTINUOUS
 10
78.2670110874
 20
229.8637670692
 11
77.6723729817
 21
229.8637670692
  0
LINE
  8
0
 62
7
  6
CONTINUOUS
 10
58.6104218763
 20
229.8637670692
 11
58.0157837707
 21
229.8637670692
  0
LINE
  8
0
 62
7
  6
CONTINUOUS
 10
52.8670110874
 20
229.8637670692
 11
52.2723729817
 21
229.8637670692
  0
LINE
  8
0
 62
7
  6
CONTINUOUS
 10
33.2104218763
 20
229.8637670692
 11
32.6157837707
 21
229.8637670692
  0
LINE
  8
0
 62
7
  6
CONTINUOUS
 10
32.6092437867
 20
229.8637670692
 11
31.991397429
 21
229.8637670692
  0
LINE
  8
0
 62
7
  6
CONTINUOUS
 10
24.441397429
 20
229.8637670692
 11
30.891397429
 21
229.8637670692
  0
LINE
  8
0
 62
7
  6
CONTINUOUS
 10
33.2158332811
 20
229.8637670692
 11
37.241397429
 21
229.8637670692
  0
LINE
  8
0
 62
7
  6
CONTINUOUS
 10
40.191397429
 20
229.8637670692
 11
45.291397429
 21
229.8637670692
  0
LINE
  8
0
 62
7
  6
CONTINUOUS
 10
46.541397429
 20
229.8637670692
 11
52.266961577
 21
229.8637670692
  0
LINE
  8
0
 62
7
  6
CONTINUOUS
 10
52.891397429
 20
229.8637670692
 11
58.0092437867
 21
229.8637670692
  0
LINE
  8
0
 62
7
  6
CONTINUOUS
 10
58.6158332811
 20
229.8637670692
 11
64.341397429
 21
229.8637670692
  0
LINE
  8
0
 62
7
  6
CONTINUOUS
 10
65.591397429
 20
229.8637670692
 11
70.691397429
 21
229.8637670692
  0
LINE
  8
0
 62
7
  6
CONTINUOUS
 10
71.941397429
 20
229.8637670692
 11
77.666961577
 21
229.8637670692
  0
LINE
  8
0
 62
7
  6
CONTINUOUS
 10
78.291397429
 20
229.8637670692
 11
83.4092437867
 21
229.8637670692
  0
LINE
  8
0
 62
7
  6
CONTINUOUS
 10
84.0158332811
 20
229.8637670692
 11
89.741397429
 21
229.8637670692
  0
LINE
  8
0
 62
7
  6
CONTINUOUS
 10
90.991397429
 20
229.8637670692
 11
96.091397429
 21
229.8637670692
  0
LINE
  8
0
 62
7
  6
CONTINUOUS
 10
97.341397429
 20
229.8637670692
 11
103.066961577
 21
229.8637670692
  0
LINE
  8
0
 62
7
  6
CONTINUOUS
 10
103.691397429
 20
229.8637670692
 11
108.8092437867
 21
229.8637670692
  0
LINE
  8
0
 62
7
  6
CONTINUOUS
 10
109.4158332811
 20
229.8637670692
 11
110.641397429
 21
229.8637670692
  0
LINE
  8
0
 62
7
  6
CONTINUOUS
 10
111.741397429
 20
229.8637670692
 11
115.766961577
 21
229.8637670692
  0
LINE
  8
0
 62
7
  6
CONTINUOUS
 10
118.091397429
 20
229.8637670692
 11
124.541397429
 21
229.8637670692
  0
LINE
  8
0
 62
7
  6
CONTINUOUS
 10
32.6092437867
 20
229.8638098386
 11
32.6157837707
 21
229.8637670692
  0
LINE
  8
0
 62
7
  6
CONTINUOUS
 10
58.0092437867
 20
229.8638098386
 11
58.0157837707
 21
229.8637670692
  0
LINE
  8
0
 62
7
  6
CONTINUOUS
 10
83.4092437867
 20
229.8638098386
 11
83.4157837707
 21
229.8637670692
  0
LINE
  8
0
 62
7
  6
CONTINUOUS
 10
108.8092437867
 20
229.8638098386
 11
108.8157837707
 21
229.8637670692
  0
LINE
  8
0
 62
7
  6
CONTINUOUS
 10
38.9552225962
 20
231.1837388661
 11
38.9557649379
 21
231.1837198565
  0
POLYLINE
  8
0
 62
7
  6
CONTINUOUS
 66
1
 70
0
  0
VERTEX
  8
0
 62
7
  6
CONTINUOUS
 10
58.6158332811
 20
229.8637670692
  0
VERTEX
  8
0
 62
7
  6
CONTINUOUS
 10
58.4961341723
 20
229.8783888711
  0
VERTEX
  8
0
 62
7
  6
CONTINUOUS
 10
58.3837484557
 20
229.9213357865
  0
VERTEX
  8
0
 62
7
  6
CONTINUOUS
 10
58.2852019963
 20
229.990009338
  0
VERTEX
  8
0
 62
7
  6
CONTINUOUS
 10
58.2429378655
 20
230.0327682312
  0
VERTEX
  8
0
 62
7
  6
CONTINUOUS
 10
58.1754554257
 20
230.1319727476
  0
VERTEX
  8
0
 62
7
  6
CONTINUOUS
 10
58.1407035908
 20
230.2184526335
  0
SEQEND
  0
POLYLINE
  8
0
 62
7
  6
CONTINUOUS
 66
1
 70
0
  0
VERTEX
  8
0
 62
7
  6
CONTINUOUS
 10
84.0158332811
 20
229.8637670692
  0
VERTEX
  8
0
 62
7
  6
CONTINUOUS
 10
83.8961341723
 20
229.8783888711
  0
VERTEX
  8
0
 62
7
  6
CONTINUOUS
 10
83.7837484557
 20
229.9213357865
  0
VERTEX
  8
0
 62
7
  6
CONTINUOUS
 10
83.6852019963
 20
229.990009338
  0
VERTEX
  8
0
 62
7
  6
CONTINUOUS
 10
83.6429378655
 20
230.0327682312
  0
VERTEX
  8
0
 62
7
  6
CONTINUOUS
 10
83.5754554257
 20
230.1319727476
  0
VERTEX
  8
0
 62
7
  6
CONTINUOUS
 10
83.5407035908
 20
230.2184526335
  0
SEQEND
  0
POLYLINE
  8
0
 62
7
  6
CONTINUOUS
 66
1
 70
0
  0
VERTEX
  8
0
 62
7
  6
CONTINUOUS
 10
83.4092437867
 20
229.8638098386
  0
VERTEX
  8
0
 62
7
  6
CONTINUOUS
 10
83.2905195773
 20
229.8797460903
  0
VERTEX
  8
0
 62
7
  6
CONTINUOUS
 10
83.178930051
 20
229.9234594895
  0
VERTEX
  8
0
 62
7
  6
CONTINUOUS
 10
83.0808469376
 20
229.9923505341
  0
VERTEX
  8
0
 62
7
  6
CONTINUOUS
 10
83.0386501802
 20
230.0350278188
  0
VERTEX
  8
0
 62
7
  6
CONTINUOUS
 10
82.9709191351
 20
230.1337475818
  0
VERTEX
  8
0
 62
7
  6
CONTINUOUS
 10
82.9284142917
 20
230.245452181
  0
VERTEX
  8
0
 62
7
  6
CONTINUOUS
 10
82.913461589
 20
230.3637670692
  0
SEQEND
  0
POLYLINE
  8
0
 62
7
  6
CONTINUOUS
 66
1
 70
0
  0
VERTEX
  8
0
 62
7
  6
CONTINUOUS
 10
64.841397429
 20
235.1274956942
  0
VERTEX
  8
0
 62
7
  6
CONTINUOUS
 10
64.8269943168
 20
235.1417282869
  0
VERTEX
  8
0
 62
7
  6
CONTINUOUS
 10
64.7845279571
 20
235.1549633656
  0
VERTEX
  8
0
 62
7
  6
CONTINUOUS
 10
64.7163166843
 20
235.1664885912
  0
VERTEX
  8
0
 62
7
  6
CONTINUOUS
 10
64.673701549
 20
235.171415815
  0
VERTEX
  8
0
 62
7
  6
CONTINUOUS
 10
64.5744956408
 20
235.1792798534
  0
VERTEX
  8
0
 62
7
  6
CONTINUOUS
 10
64.4615381275
 20
235.1841676877
  0
VERTEX
  8
0
 62
7
  6
CONTINUOUS
 10
64.341397429
 20
235.1858267382
  0
SEQEND
  0
LINE
  8
1_AXIS
 62
2
  6
CENTER
 10
74.491397429
 20
227.3637670692
 11
74.491397429
 21
240.3637683011
  0
POLYLINE
  8
0
 62
7
  6
CONTINUOUS
 66
1
 70
0
  0
VERTEX
  8
0
 62
7
  6
CONTINUOUS
 10
52.8735510714
 20
229.8638098386
  0
VERTEX
  8
0
 62
7
  6
CONTINUOUS
 10
52.9922752808
 20
229.8797460903
  0
VERTEX
  8
0
 62
7
  6
CONTINUOUS
 10
53.1038648071
 20
229.9234594895
  0
VERTEX
  8
0
 62
7
  6
CONTINUOUS
 10
53.2019479204
 20
229.9923505341
  0
VERTEX
  8
0
 62
7
  6
CONTINUOUS
 10
53.2441446779
 20
230.0350278188
  0
VERTEX
  8
0
 62
7
  6
CONTINUOUS
 10
53.3118757229
 20
230.1337475818
  0
VERTEX
  8
0
 62
7
  6
CONTINUOUS
 10
53.3543805664
 20
230.245452181
  0
VERTEX
  8
0
 62
7
  6
CONTINUOUS
 10
53.3693332691
 20
230.3637670692
  0
SEQEND
  0
POLYLINE
  8
0
 62
7
  6
CONTINUOUS
 66
1
 70
0
  0
VERTEX
  8
0
 62
7
  6
CONTINUOUS
 10
52.266961577
 20
229.8637670692
  0
VERTEX
  8
0
 62
7
  6
CONTINUOUS
 10
52.3866606858
 20
229.8783888711
  0
VERTEX
  8
0
 62
7
  6
CONTINUOUS
 10
52.4990464024
 20
229.9213357865
  0
VERTEX
  8
0
 62
7
  6
CONTINUOUS
 10
52.5975928617
 20
229.990009338
  0
VERTEX
  8
0
 62
7
  6
CONTINUOUS
 10
52.6398569926
 20
230.0327682312
  0
VERTEX
  8
0
 62
7
  6
CONTINUOUS
 10
52.7073394324
 20
230.1319727476
  0
VERTEX
  8
0
 62
7
  6
CONTINUOUS
 10
52.7420912673
 20
230.2184526335
  0
SEQEND
  0
POLYLINE
  8
0
 62
7
  6
CONTINUOUS
 66
1
 70
0
  0
VERTEX
  8
0
 62
7
  6
CONTINUOUS
 10
115.141397429
 20
233.2417074003
  0
VERTEX
  8
0
 62
7
  6
CONTINUOUS
 10
115.2615381275
 20
233.2433664507
  0
VERTEX
  8
0
 62
7
  6
CONTINUOUS
 10
115.3744956408
 20
233.2482542851
  0
VERTEX
  8
0
 62
7
  6
CONTINUOUS
 10
115.473701549
 20
233.2561183235
  0
VERTEX
  8
0
 62
7
  6
CONTINUOUS
 10
115.5163166843
 20
233.2610455473
  0
VERTEX
  8
0
 62
7
  6
CONTINUOUS
 10
115.5845279571
 20
233.2725707729
  0
VERTEX
  8
0
 62
7
  6
CONTINUOUS
 10
115.6269943168
 20
233.2858058516
  0
VERTEX
  8
0
 62
7
  6
CONTINUOUS
 10
115.641397429
 20
233.3000384443
  0
SEQEND
  0
POLYLINE
  8
0
 62
7
  6
CONTINUOUS
 66
1
 70
0
  0
VERTEX
  8
0
 62
7
  6
CONTINUOUS
 10
102.441397429
 20
233.2417074003
  0
VERTEX
  8
0
 62
7
  6
CONTINUOUS
 10
102.5615381275
 20
233.2433664507
  0
VERTEX
  8
0
 62
7
  6
CONTINUOUS
 10
102.6744956408
 20
233.2482542851
  0
VERTEX
  8
0
 62
7
  6
CONTINUOUS
 10
102.773701549
 20
233.2561183235
  0
VERTEX
  8
0
 62
7
  6
CONTINUOUS
 10
102.8163166843
 20
233.2610455473
  0
VERTEX
  8
0
 62
7
  6
CONTINUOUS
 10
102.8845279571
 20
233.2725707729
  0
VERTEX
  8
0
 62
7
  6
CONTINUOUS
 10
102.9269943168
 20
233.2858058516
  0
VERTEX
  8
0
 62
7
  6
CONTINUOUS
 10
102.941397429
 20
233.3000384443
  0
SEQEND
  0
POLYLINE
  8
0
 62
7
  6
CONTINUOUS
 66
1
 70
0
  0
VERTEX
  8
0
 62
7
  6
CONTINUOUS
 10
89.741397429
 20
233.2417074003
  0
VERTEX
  8
0
 62
7
  6
CONTINUOUS
 10
89.8615381275
 20
233.2433664507
  0
VERTEX
  8
0
 62
7
  6
CONTINUOUS
 10
89.9744956408
 20
233.2482542851
  0
VERTEX
  8
0
 62
7
  6
CONTINUOUS
 10
90.073701549
 20
233.2561183235
  0
VERTEX
  8
0
 62
7
  6
CONTINUOUS
 10
90.1163166843
 20
233.2610455473
  0
VERTEX
  8
0
 62
7
  6
CONTINUOUS
 10
90.1845279571
 20
233.2725707729
  0
VERTEX
  8
0
 62
7
  6
CONTINUOUS
 10
90.2269943168
 20
233.2858058516
  0
VERTEX
  8
0
 62
7
  6
CONTINUOUS
 10
90.241397429
 20
233.3000384443
  0
SEQEND
  0
POLYLINE
  8
0
 62
7
  6
CONTINUOUS
 66
1
 70
0
  0
VERTEX
  8
0
 62
7
  6
CONTINUOUS
 10
77.041397429
 20
233.2417074003
  0
VERTEX
  8
0
 62
7
  6
CONTINUOUS
 10
77.1615381275
 20
233.2433664507
  0
VERTEX
  8
0
 62
7
  6
CONTINUOUS
 10
77.2744956408
 20
233.2482542851
  0
VERTEX
  8
0
 62
7
  6
CONTINUOUS
 10
77.373701549
 20
233.2561183235
  0
VERTEX
  8
0
 62
7
  6
CONTINUOUS
 10
77.4163166843
 20
233.2610455473
  0
VERTEX
  8
0
 62
7
  6
CONTINUOUS
 10
77.4845279571
 20
233.2725707729
  0
VERTEX
  8
0
 62
7
  6
CONTINUOUS
 10
77.5269943168
 20
233.2858058516
  0
VERTEX
  8
0
 62
7
  6
CONTINUOUS
 10
77.541397429
 20
233.3000384443
  0
SEQEND
  0
POLYLINE
  8
0
 62
7
  6
CONTINUOUS
 66
1
 70
0
  0
VERTEX
  8
0
 62
7
  6
CONTINUOUS
 10
64.341397429
 20
233.2417074003
  0
VERTEX
  8
0
 62
7
  6
CONTINUOUS
 10
64.4615381275
 20
233.2433664507
  0
VERTEX
  8
0
 62
7
  6
CONTINUOUS
 10
64.5744956408
 20
233.2482542851
  0
VERTEX
  8
0
 62
7
  6
CONTINUOUS
 10
64.673701549
 20
233.2561183235
  0
VERTEX
  8
0
 62
7
  6
CONTINUOUS
 10
64.7163166843
 20
233.2610455473
  0
VERTEX
  8
0
 62
7
  6
CONTINUOUS
 10
64.7845279571
 20
233.2725707729
  0
VERTEX
  8
0
 62
7
  6
CONTINUOUS
 10
64.8269943168
 20
233.2858058516
  0
VERTEX
  8
0
 62
7
  6
CONTINUOUS
 10
64.841397429
 20
233.3000384443
  0
SEQEND
  0
POLYLINE
  8
0
 62
7
  6
CONTINUOUS
 66
1
 70
0
  0
VERTEX
  8
0
 62
7
  6
CONTINUOUS
 10
51.641397429
 20
233.2417074003
  0
VERTEX
  8
0
 62
7
  6
CONTINUOUS
 10
51.7615381275
 20
233.2433664507
  0
VERTEX
  8
0
 62
7
  6
CONTINUOUS
 10
51.8744956408
 20
233.2482542851
  0
VERTEX
  8
0
 62
7
  6
CONTINUOUS
 10
51.973701549
 20
233.2561183235
  0
VERTEX
  8
0
 62
7
  6
CONTINUOUS
 10
52.0163166843
 20
233.2610455473
  0
VERTEX
  8
0
 62
7
  6
CONTINUOUS
 10
52.0845279571
 20
233.2725707729
  0
VERTEX
  8
0
 62
7
  6
CONTINUOUS
 10
52.1269943168
 20
233.2858058516
  0
VERTEX
  8
0
 62
7
  6
CONTINUOUS
 10
52.141397429
 20
233.3000384443
  0
SEQEND
  0
POLYLINE
  8
0
 62
7
  6
CONTINUOUS
 66
1
 70
0
  0
VERTEX
  8
0
 62
7
  6
CONTINUOUS
 10
26.241397429
 20
233.2417074003
  0
VERTEX
  8
0
 62
7
  6
CONTINUOUS
 10
26.3615381275
 20
233.2433664507
  0
VERTEX
  8
0
 62
7
  6
CONTINUOUS
 10
26.4744956408
 20
233.2482542851
  0
VERTEX
  8
0
 62
7
  6
CONTINUOUS
 10
26.573701549
 20
233.2561183235
  0
VERTEX
  8
0
 62
7
  6
CONTINUOUS
 10
26.6163166843
 20
233.2610455473
  0
VERTEX
  8
0
 62
7
  6
CONTINUOUS
 10
26.6845279571
 20
233.2725707729
  0
VERTEX
  8
0
 62
7
  6
CONTINUOUS
 10
26.7269943168
 20
233.2858058516
  0
VERTEX
  8
0
 62
7
  6
CONTINUOUS
 10
26.741397429
 20
233.3000384443
  0
SEQEND
  0
POLYLINE
  8
0
 62
7
  6
CONTINUOUS
 66
1
 70
0
  0
VERTEX
  8
0
 62
7
  6
CONTINUOUS
 10
122.741397429
 20
235.1858267382
  0
VERTEX
  8
0
 62
7
  6
CONTINUOUS
 10
122.6212567306
 20
235.1841676877
  0
VERTEX
  8
0
 62
7
  6
CONTINUOUS
 10
122.5082992173
 20
235.1792798534
  0
VERTEX
  8
0
 62
7
  6
CONTINUOUS
 10
122.4090933091
 20
235.171415815
  0
VERTEX
  8
0
 62
7
  6
CONTINUOUS
 10
122.3664781738
 20
235.1664885912
  0
VERTEX
  8
0
 62
7
  6
CONTINUOUS
 10
122.298266901
 20
235.1549633656
  0
VERTEX
  8
0
 62
7
  6
CONTINUOUS
 10
122.2558005412
 20
235.1417282869
  0
VERTEX
  8
0
 62
7
  6
CONTINUOUS
 10
122.241397429
 20
235.1274956942
  0
SEQEND
  0
LINE
  8
0
 62
7
  6
CONTINUOUS
 10
24.441397429
 20
233.2417074003
 11
26.241397429
 21
233.2417074003
  0
LINE
  8
0
 62
7
  6
CONTINUOUS
 10
33.841397429
 20
233.2417074003
 11
38.941397429
 21
233.2417074003
  0
LINE
  8
0
 62
7
  6
CONTINUOUS
 10
46.541397429
 20
233.2417074003
 11
51.641397429
 21
233.2417074003
  0
LINE
  8
0
 62
7
  6
CONTINUOUS
 10
59.241397429
 20
233.2417074003
 11
64.341397429
 21
233.2417074003
  0
LINE
  8
0
 62
7
  6
CONTINUOUS
 10
71.941397429
 20
233.2417074003
 11
77.041397429
 21
233.2417074003
  0
LINE
  8
0
 62
7
  6
CONTINUOUS
 10
84.641397429
 20
233.2417074003
 11
89.741397429
 21
233.2417074003
  0
LINE
  8
0
 62
7
  6
CONTINUOUS
 10
97.341397429
 20
233.2417074003
 11
102.441397429
 21
233.2417074003
  0
LINE
  8
0
 62
7
  6
CONTINUOUS
 10
110.041397429
 20
233.2417074003
 11
115.141397429
 21
233.2417074003
  0
LINE
  8
0
 62
7
  6
CONTINUOUS
 10
122.741397429
 20
233.2417074003
 11
124.541397429
 21
233.2417074003
  0
LINE
  8
1_AXIS
 62
2
  6
CENTER
 10
22.2929395704
 20
234.2137670692
 11
126.9293005905
 21
234.2137670692
  0
POLYLINE
  8
0
 62
7
  6
CONTINUOUS
 66
1
 70
0
  0
VERTEX
  8
0
 62
7
  6
CONTINUOUS
 10
33.841397429
 20
233.2417074003
  0
VERTEX
  8
0
 62
7
  6
CONTINUOUS
 10
33.7212567306
 20
233.2433664507
  0
VERTEX
  8
0
 62
7
  6
CONTINUOUS
 10
33.6082992173
 20
233.2482542851
  0
VERTEX
  8
0
 62
7
  6
CONTINUOUS
 10
33.5090933091
 20
233.2561183235
  0
VERTEX
  8
0
 62
7
  6
CONTINUOUS
 10
33.4664781738
 20
233.2610455473
  0
VERTEX
  8
0
 62
7
  6
CONTINUOUS
 10
33.398266901
 20
233.2725707729
  0
VERTEX
  8
0
 62
7
  6
CONTINUOUS
 10
33.3558005412
 20
233.2858058516
  0
VERTEX
  8
0
 62
7
  6
CONTINUOUS
 10
33.341397429
 20
233.3000384443
  0
SEQEND
  0
POLYLINE
  8
0
 62
7
  6
CONTINUOUS
 66
1
 70
0
  0
VERTEX
  8
0
 62
7
  6
CONTINUOUS
 10
46.541397429
 20
233.2417074003
  0
VERTEX
  8
0
 62
7
  6
CONTINUOUS
 10
46.4212567306
 20
233.2433664507
  0
VERTEX
  8
0
 62
7
  6
CONTINUOUS
 10
46.3082992173
 20
233.2482542851
  0
VERTEX
  8
0
 62
7
  6
CONTINUOUS
 10
46.2090933091
 20
233.2561183235
  0
VERTEX
  8
0
 62
7
  6
CONTINUOUS
 10
46.1664781738
 20
233.2610455473
  0
VERTEX
  8
0
 62
7
  6
CONTINUOUS
 10
46.098266901
 20
233.2725707729
  0
VERTEX
  8
0
 62
7
  6
CONTINUOUS
 10
46.0558005412
 20
233.2858058516
  0
VERTEX
  8
0
 62
7
  6
CONTINUOUS
 10
46.041397429
 20
233.3000384443
  0
SEQEND
  0
POLYLINE
  8
0
 62
7
  6
CONTINUOUS
 66
1
 70
0
  0
VERTEX
  8
0
 62
7
  6
CONTINUOUS
 10
59.241397429
 20
233.2417074003
  0
VERTEX
  8
0
 62
7
  6
CONTINUOUS
 10
59.1212567306
 20
233.2433664507
  0
VERTEX
  8
0
 62
7
  6
CONTINUOUS
 10
59.0082992173
 20
233.2482542851
  0
VERTEX
  8
0
 62
7
  6
CONTINUOUS
 10
58.9090933091
 20
233.2561183235
  0
VERTEX
  8
0
 62
7
  6
CONTINUOUS
 10
58.8664781738
 20
233.2610455473
  0
VERTEX
  8
0
 62
7
  6
CONTINUOUS
 10
58.798266901
 20
233.2725707729
  0
VERTEX
  8
0
 62
7
  6
CONTINUOUS
 10
58.7558005412
 20
233.2858058516
  0
VERTEX
  8
0
 62
7
  6
CONTINUOUS
 10
58.741397429
 20
233.3000384443
  0
SEQEND
  0
POLYLINE
  8
0
 62
7
  6
CONTINUOUS
 66
1
 70
0
  0
VERTEX
  8
0
 62
7
  6
CONTINUOUS
 10
84.641397429
 20
233.2417074003
  0
VERTEX
  8
0
 62
7
  6
CONTINUOUS
 10
84.5212567306
 20
233.2433664507
  0
VERTEX
  8
0
 62
7
  6
CONTINUOUS
 10
84.4082992173
 20
233.2482542851
  0
VERTEX
  8
0
 62
7
  6
CONTINUOUS
 10
84.3090933091
 20
233.2561183235
  0
VERTEX
  8
0
 62
7
  6
CONTINUOUS
 10
84.2664781738
 20
233.2610455473
  0
VERTEX
  8
0
 62
7
  6
CONTINUOUS
 10
84.198266901
 20
233.2725707729
  0
VERTEX
  8
0
 62
7
  6
CONTINUOUS
 10
84.1558005412
 20
233.2858058516
  0
VERTEX
  8
0
 62
7
  6
CONTINUOUS
 10
84.141397429
 20
233.3000384443
  0
SEQEND
  0
POLYLINE
  8
0
 62
7
  6
CONTINUOUS
 66
1
 70
0
  0
VERTEX
  8
0
 62
7
  6
CONTINUOUS
 10
110.041397429
 20
233.2417074003
  0
VERTEX
  8
0
 62
7
  6
CONTINUOUS
 10
109.9212567306
 20
233.2433664507
  0
VERTEX
  8
0
 62
7
  6
CONTINUOUS
 10
109.8082992173
 20
233.2482542851
  0
VERTEX
  8
0
 62
7
  6
CONTINUOUS
 10
109.7090933091
 20
233.2561183235
  0
VERTEX
  8
0
 62
7
  6
CONTINUOUS
 10
109.6664781738
 20
233.2610455473
  0
VERTEX
  8
0
 62
7
  6
CONTINUOUS
 10
109.598266901
 20
233.2725707729
  0
VERTEX
  8
0
 62
7
  6
CONTINUOUS
 10
109.5558005412
 20
233.2858058516
  0
VERTEX
  8
0
 62
7
  6
CONTINUOUS
 10
109.541397429
 20
233.3000384443
  0
SEQEND
  0
POLYLINE
  8
0
 62
7
  6
CONTINUOUS
 66
1
 70
0
  0
VERTEX
  8
0
 62
7
  6
CONTINUOUS
 10
122.741397429
 20
233.2417074003
  0
VERTEX
  8
0
 62
7
  6
CONTINUOUS
 10
122.6212567306
 20
233.2433664507
  0
VERTEX
  8
0
 62
7
  6
CONTINUOUS
 10
122.5082992173
 20
233.2482542851
  0
VERTEX
  8
0
 62
7
  6
CONTINUOUS
 10
122.4090933091
 20
233.2561183235
  0
VERTEX
  8
0
 62
7
  6
CONTINUOUS
 10
122.3664781738
 20
233.2610455473
  0
VERTEX
  8
0
 62
7
  6
CONTINUOUS
 10
122.298266901
 20
233.2725707729
  0
VERTEX
  8
0
 62
7
  6
CONTINUOUS
 10
122.2558005412
 20
233.2858058516
  0
VERTEX
  8
0
 62
7
  6
CONTINUOUS
 10
122.241397429
 20
233.3000384443
  0
SEQEND
  0
POLYLINE
  8
0
 62
7
  6
CONTINUOUS
 66
1
 70
0
  0
VERTEX
  8
0
 62
7
  6
CONTINUOUS
 10
109.4158332811
 20
229.8637670692
  0
VERTEX
  8
0
 62
7
  6
CONTINUOUS
 10
109.2961341723
 20
229.8783888711
  0
VERTEX
  8
0
 62
7
  6
CONTINUOUS
 10
109.1837484557
 20
229.9213357865
  0
VERTEX
  8
0
 62
7
  6
CONTINUOUS
 10
109.0852019963
 20
229.990009338
  0
VERTEX
  8
0
 62
7
  6
CONTINUOUS
 10
109.0429378655
 20
230.0327682312
  0
VERTEX
  8
0
 62
7
  6
CONTINUOUS
 10
108.9754554257
 20
230.1319727476
  0
VERTEX
  8
0
 62
7
  6
CONTINUOUS
 10
108.9407035908
 20
230.2184526335
  0
SEQEND
  0
POLYLINE
  8
0
 62
7
  6
CONTINUOUS
 66
1
 70
0
  0
VERTEX
  8
0
 62
7
  6
CONTINUOUS
 10
108.8092437867
 20
229.8638098386
  0
VERTEX
  8
0
 62
7
  6
CONTINUOUS
 10
108.6905195773
 20
229.8797460903
  0
VERTEX
  8
0
 62
7
  6
CONTINUOUS
 10
108.578930051
 20
229.9234594895
  0
VERTEX
  8
0
 62
7
  6
CONTINUOUS
 10
108.4808469376
 20
229.9923505341
  0
VERTEX
  8
0
 62
7
  6
CONTINUOUS
 10
108.4386501802
 20
230.0350278188
  0
VERTEX
  8
0
 62
7
  6
CONTINUOUS
 10
108.3709191351
 20
230.1337475818
  0
VERTEX
  8
0
 62
7
  6
CONTINUOUS
 10
108.3284142917
 20
230.245452181
  0
VERTEX
  8
0
 62
7
  6
CONTINUOUS
 10
108.313461589
 20
230.3637670692
  0
SEQEND
  0
POLYLINE
  8
0
 62
7
  6
CONTINUOUS
 66
1
 70
0
  0
VERTEX
  8
0
 62
7
  6
CONTINUOUS
 10
45.8484984874
 20
235.9637670692
  0
VERTEX
  8
0
 62
7
  6
CONTINUOUS
 10
45.9219484393
 20
235.9532037105
  0
VERTEX
  8
0
 62
7
  6
CONTINUOUS
 10
45.9800914369
 20
235.9223927497
  0
VERTEX
  8
0
 62
7
  6
CONTINUOUS
 10
46.0027255408
 20
235.8998068605
  0
VERTEX
  8
0
 62
7
  6
CONTINUOUS
 10
46.0323962513
 20
235.8447810226
  0
VERTEX
  8
0
 62
7
  6
CONTINUOUS
 10
46.041397429
 20
235.7880587797
  0
SEQEND
  0
POLYLINE
  8
0
 62
7
  6
CONTINUOUS
 66
1
 70
0
  0
VERTEX
  8
0
 62
7
  6
CONTINUOUS
 10
71.441397429
 20
233.3000384443
  0
VERTEX
  8
0
 62
7
  6
CONTINUOUS
 10
71.4558005412
 20
233.2858058516
  0
VERTEX
  8
0
 62
7
  6
CONTINUOUS
 10
71.498266901
 20
233.2725707729
  0
VERTEX
  8
0
 62
7
  6
CONTINUOUS
 10
71.5664781738
 20
233.2610455473
  0
VERTEX
  8
0
 62
7
  6
CONTINUOUS
 10
71.6090933091
 20
233.2561183235
  0
VERTEX
  8
0
 62
7
  6
CONTINUOUS
 10
71.7082992173
 20
233.2482542851
  0
VERTEX
  8
0
 62
7
  6
CONTINUOUS
 10
71.8212567306
 20
233.2433664507
  0
VERTEX
  8
0
 62
7
  6
CONTINUOUS
 10
71.941397429
 20
233.2417074003
  0
SEQEND
  0
LINE
  8
0
 62
7
  6
CONTINUOUS
 10
77.541397429
 20
230.3637670692
 11
77.541397429
 21
237.8637670692
  0
POLYLINE
  8
0
 62
7
  6
CONTINUOUS
 66
1
 70
0
  0
VERTEX
  8
0
 62
7
  6
CONTINUOUS
 10
97.341397429
 20
235.1858267382
  0
VERTEX
  8
0
 62
7
  6
CONTINUOUS
 10
97.2212567306
 20
235.1841676877
  0
VERTEX
  8
0
 62
7
  6
CONTINUOUS
 10
97.1082992173
 20
235.1792798534
  0
VERTEX
  8
0
 62
7
  6
CONTINUOUS
 10
97.0090933091
 20
235.171415815
  0
VERTEX
  8
0
 62
7
  6
CONTINUOUS
 10
96.9664781738
 20
235.1664885912
  0
VERTEX
  8
0
 62
7
  6
CONTINUOUS
 10
96.898266901
 20
235.1549633656
  0
VERTEX
  8
0
 62
7
  6
CONTINUOUS
 10
96.8558005412
 20
235.1417282869
  0
VERTEX
  8
0
 62
7
  6
CONTINUOUS
 10
96.841397429
 20
235.1274956942
  0
SEQEND
  0
POLYLINE
  8
0
 62
7
  6
CONTINUOUS
 66
1
 70
0
  0
VERTEX
  8
0
 62
7
  6
CONTINUOUS
 10
84.641397429
 20
235.1858267382
  0
VERTEX
  8
0
 62
7
  6
CONTINUOUS
 10
84.5212567306
 20
235.1841676877
  0
VERTEX
  8
0
 62
7
  6
CONTINUOUS
 10
84.4082992173
 20
235.1792798534
  0
VERTEX
  8
0
 62
7
  6
CONTINUOUS
 10
84.3090933091
 20
235.171415815
  0
VERTEX
  8
0
 62
7
  6
CONTINUOUS
 10
84.2664781738
 20
235.1664885912
  0
VERTEX
  8
0
 62
7
  6
CONTINUOUS
 10
84.198266901
 20
235.1549633656
  0
VERTEX
  8
0
 62
7
  6
CONTINUOUS
 10
84.1558005412
 20
235.1417282869
  0
VERTEX
  8
0
 62
7
  6
CONTINUOUS
 10
84.141397429
 20
235.1274956942
  0
SEQEND
  0
POLYLINE
  8
0
 62
7
  6
CONTINUOUS
 66
1
 70
0
  0
VERTEX
  8
0
 62
7
  6
CONTINUOUS
 10
71.941397429
 20
235.1858267382
  0
VERTEX
  8
0
 62
7
  6
CONTINUOUS
 10
71.8212567306
 20
235.1841676877
  0
VERTEX
  8
0
 62
7
  6
CONTINUOUS
 10
71.7082992173
 20
235.1792798534
  0
VERTEX
  8
0
 62
7
  6
CONTINUOUS
 10
71.6090933091
 20
235.171415815
  0
VERTEX
  8
0
 62
7
  6
CONTINUOUS
 10
71.5664781738
 20
235.1664885912
  0
VERTEX
  8
0
 62
7
  6
CONTINUOUS
 10
71.498266901
 20
235.1549633656
  0
VERTEX
  8
0
 62
7
  6
CONTINUOUS
 10
71.4558005412
 20
235.1417282869
  0
VERTEX
  8
0
 62
7
  6
CONTINUOUS
 10
71.441397429
 20
235.1274956942
  0
SEQEND
  0
POLYLINE
  8
0
 62
7
  6
CONTINUOUS
 66
1
 70
0
  0
VERTEX
  8
0
 62
7
  6
CONTINUOUS
 10
59.241397429
 20
235.1858267382
  0
VERTEX
  8
0
 62
7
  6
CONTINUOUS
 10
59.1212567306
 20
235.1841676877
  0
VERTEX
  8
0
 62
7
  6
CONTINUOUS
 10
59.0082992173
 20
235.1792798534
  0
VERTEX
  8
0
 62
7
  6
CONTINUOUS
 10
58.9090933091
 20
235.171415815
  0
VERTEX
  8
0
 62
7
  6
CONTINUOUS
 10
58.8664781738
 20
235.1664885912
  0
VERTEX
  8
0
 62
7
  6
CONTINUOUS
 10
58.798266901
 20
235.1549633656
  0
VERTEX
  8
0
 62
7
  6
CONTINUOUS
 10
58.7558005412
 20
235.1417282869
  0
VERTEX
  8
0
 62
7
  6
CONTINUOUS
 10
58.741397429
 20
235.1274956942
  0
SEQEND
  0
POLYLINE
  8
0
 62
7
  6
CONTINUOUS
 66
1
 70
0
  0
VERTEX
  8
0
 62
7
  6
CONTINUOUS
 10
33.841397429
 20
235.1858267382
  0
VERTEX
  8
0
 62
7
  6
CONTINUOUS
 10
33.7212567306
 20
235.1841676877
  0
VERTEX
  8
0
 62
7
  6
CONTINUOUS
 10
33.6082992173
 20
235.1792798534
  0
VERTEX
  8
0
 62
7
  6
CONTINUOUS
 10
33.5090933091
 20
235.171415815
  0
VERTEX
  8
0
 62
7
  6
CONTINUOUS
 10
33.4664781738
 20
235.1664885912
  0
VERTEX
  8
0
 62
7
  6
CONTINUOUS
 10
33.398266901
 20
235.1549633656
  0
VERTEX
  8
0
 62
7
  6
CONTINUOUS
 10
33.3558005412
 20
235.1417282869
  0
VERTEX
  8
0
 62
7
  6
CONTINUOUS
 10
33.341397429
 20
235.1274956942
  0
SEQEND
  0
LINE
  8
0
 62
7
  6
CONTINUOUS
 10
24.441397429
 20
235.1858267382
 11
26.241397429
 21
235.1858267382
  0
LINE
  8
0
 62
7
  6
CONTINUOUS
 10
33.841397429
 20
235.1858267382
 11
38.941397429
 21
235.1858267382
  0
LINE
  8
0
 62
7
  6
CONTINUOUS
 10
46.541397429
 20
235.1858267382
 11
51.641397429
 21
235.1858267382
  0
LINE
  8
0
 62
7
  6
CONTINUOUS
 10
59.241397429
 20
235.1858267382
 11
64.341397429
 21
235.1858267382
  0
LINE
  8
0
 62
7
  6
CONTINUOUS
 10
71.941397429
 20
235.1858267382
 11
77.041397429
 21
235.1858267382
  0
LINE
  8
0
 62
7
  6
CONTINUOUS
 10
84.641397429
 20
235.1858267382
 11
89.741397429
 21
235.1858267382
  0
LINE
  8
0
 62
7
  6
CONTINUOUS
 10
97.341397429
 20
235.1858267382
 11
102.441397429
 21
235.1858267382
  0
LINE
  8
0
 62
7
  6
CONTINUOUS
 10
110.041397429
 20
235.1858267382
 11
115.141397429
 21
235.1858267382
  0
LINE
  8
0
 62
7
  6
CONTINUOUS
 10
122.741397429
 20
235.1858267382
 11
124.541397429
 21
235.1858267382
  0
LINE
  8
2_FEATURE
 62
7
  6
CONTINUOUS
 10
96.6663973456
 20
235.8637670692
 11
96.447647429
 21
235.8637670692
  0
LINE
  8
2_FEATURE
 62
7
  6
CONTINUOUS
 10
95.2288975125
 20
235.8637670692
 11
90.4538977628
 21
235.8637670692
  0
LINE
  8
2_FEATURE
 62
7
  6
CONTINUOUS
 10
71.4221587063
 20
235.8637670692
 11
68.3163973456
 21
235.8637670692
  0
LINE
  8
2_FEATURE
 62
7
  6
CONTINUOUS
 10
68.1663976198
 20
235.8637670692
 11
64.8606398614
 21
235.8637670692
  0
LINE
  8
2_FEATURE
 62
7
  6
CONTINUOUS
 10
46.0221587063
 20
235.8637670692
 11
45.691397429
 21
235.8637670692
  0
LINE
  8
2_FEATURE
 62
7
  6
CONTINUOUS
 10
45.4913976198
 20
235.8637670692
 11
45.001397429
 21
235.8637670692
  0
LINE
  8
2_FEATURE
 62
7
  6
CONTINUOUS
 10
42.0663972383
 20
235.8637670692
 11
42.031397429
 21
235.8637670692
  0
LINE
  8
1_AXIS
 62
7
  6
CONTINUOUS
 10
45.001397429
 20
235.8637670692
 11
42.151397429
 21
235.8637670692
  0
LINE
  8
1_AXIS
 62
7
  6
CONTINUOUS
 10
42.031397429
 20
235.8637670692
 11
40.321397429
 21
235.8637670692
  0
LINE
  8
2_FEATURE
 62
7
  6
CONTINUOUS
 10
40.321397429
 20
235.8637670692
 11
39.7413978105
 21
235.8637670692
  0
LINE
  8
2_FEATURE
 62
7
  6
CONTINUOUS
 10
39.541397429
 20
235.8637670692
 11
39.4606398614
 21
235.8637670692
  0
LINE
  8
2_FEATURE
 62
7
  6
CONTINUOUS
 10
26.741397429
 20
235.9637670692
 11
33.341397429
 21
235.9637670692
  0
LINE
  8
0
 62
7
  6
CONTINUOUS
 10
39.6342963706
 20
235.9637670692
 11
39.941397429
 21
235.9637670692
  0
LINE
  8
2_FEATURE
 62
7
  6
CONTINUOUS
 10
39.941397429
 20
235.9637670692
 11
45.541397429
 21
235.9637670692
  0
LINE
  8
0
 62
7
  6
CONTINUOUS
 10
45.541397429
 20
235.9637670692
 11
45.8484984874
 21
235.9637670692
  0
LINE
  8
2_FEATURE
 62
7
  6
CONTINUOUS
 10
52.141397429
 20
235.9637670692
 11
58.741397429
 21
235.9637670692
  0
LINE
  8
0
 62
7
  6
CONTINUOUS
 10
65.0342963706
 20
235.9637670692
 11
65.341397429
 21
235.9637670692
  0
LINE
  8
2_FEATURE
 62
7
  6
CONTINUOUS
 10
65.341397429
 20
235.9637670692
 11
70.941397429
 21
235.9637670692
  0
LINE
  8
0
 62
7
  6
CONTINUOUS
 10
70.941397429
 20
235.9637670692
 11
71.2484984874
 21
235.9637670692
  0
LINE
  8
2_FEATURE
 62
7
  6
CONTINUOUS
 10
77.541397429
 20
235.9637670692
 11
84.141397429
 21
235.9637670692
  0
LINE
  8
0
 62
7
  6
CONTINUOUS
 10
90.4342963706
 20
235.9637670692
 11
90.741397429
 21
235.9637670692
  0
LINE
  8
2_FEATURE
 62
7
  6
CONTINUOUS
 10
90.741397429
 20
235.9637670692
 11
96.341397429
 21
235.9637670692
  0
LINE
  8
0
 62
7
  6
CONTINUOUS
 10
96.341397429
 20
235.9637670692
 11
96.6484984874
 21
235.9637670692
  0
LINE
  8
2_FEATURE
 62
7
  6
CONTINUOUS
 10
102.941397429
 20
235.9637670692
 11
109.541397429
 21
235.9637670692
  0
LINE
  8
2_FEATURE
 62
7
  6
CONTINUOUS
 10
115.641397429
 20
235.9637670692
 11
122.241397429
 21
235.9637670692
  0
POLYLINE
  8
0
 62
7
  6
CONTINUOUS
 66
1
 70
0
  0
VERTEX
  8
0
 62
7
  6
CONTINUOUS
 10
38.941397429
 20
235.1858267382
  0
VERTEX
  8
0
 62
7
  6
CONTINUOUS
 10
39.0615381275
 20
235.1841676877
  0
VERTEX
  8
0
 62
7
  6
CONTINUOUS
 10
39.1744956408
 20
235.1792798534
  0
VERTEX
  8
0
 62
7
  6
CONTINUOUS
 10
39.273701549
 20
235.171415815
  0
VERTEX
  8
0
 62
7
  6
CONTINUOUS
 10
39.3163166843
 20
235.1664885912
  0
VERTEX
  8
0
 62
7
  6
CONTINUOUS
 10
39.3845279571
 20
235.1549633656
  0
VERTEX
  8
0
 62
7
  6
CONTINUOUS
 10
39.4269943168
 20
235.1417282869
  0
VERTEX
  8
0
 62
7
  6
CONTINUOUS
 10
39.441397429
 20
235.1274956942
  0
SEQEND
  0
POLYLINE
  8
0
 62
7
  6
CONTINUOUS
 66
1
 70
0
  0
VERTEX
  8
0
 62
7
  6
CONTINUOUS
 10
71.2484984874
 20
235.9637670692
  0
VERTEX
  8
0
 62
7
  6
CONTINUOUS
 10
71.3219484393
 20
235.9532037105
  0
VERTEX
  8
0
 62
7
  6
CONTINUOUS
 10
71.3800914369
 20
235.9223927497
  0
VERTEX
  8
0
 62
7
  6
CONTINUOUS
 10
71.4027255408
 20
235.8998068605
  0
VERTEX
  8
0
 62
7
  6
CONTINUOUS
 10
71.4323962513
 20
235.8447810226
  0
VERTEX
  8
0
 62
7
  6
CONTINUOUS
 10
71.441397429
 20
235.7880587797
  0
SEQEND
  0
POLYLINE
  8
0
 62
7
  6
CONTINUOUS
 66
1
 70
0
  0
VERTEX
  8
0
 62
7
  6
CONTINUOUS
 10
77.541397429
 20
235.1274956942
  0
VERTEX
  8
0
 62
7
  6
CONTINUOUS
 10
77.5269943168
 20
235.1417282869
  0
VERTEX
  8
0
 62
7
  6
CONTINUOUS
 10
77.4845279571
 20
235.1549633656
  0
VERTEX
  8
0
 62
7
  6
CONTINUOUS
 10
77.4163166843
 20
235.1664885912
  0
VERTEX
  8
0
 62
7
  6
CONTINUOUS
 10
77.373701549
 20
235.171415815
  0
VERTEX
  8
0
 62
7
  6
CONTINUOUS
 10
77.2744956408
 20
235.1792798534
  0
VERTEX
  8
0
 62
7
  6
CONTINUOUS
 10
77.1615381275
 20
235.1841676877
  0
VERTEX
  8
0
 62
7
  6
CONTINUOUS
 10
77.041397429
 20
235.1858267382
  0
SEQEND
  0
LINE
  8
0
 62
7
  6
CONTINUOUS
 10
79.391397429
 20
230.3637670692
 11
79.391397429
 21
232.1407292443
  0
POLYLINE
  8
0
 62
7
  6
CONTINUOUS
 66
1
 70
0
  0
VERTEX
  8
0
 62
7
  6
CONTINUOUS
 10
78.1420912673
 20
230.2184526335
  0
VERTEX
  8
0
 62
7
  6
CONTINUOUS
 10
78.1490501071
 20
230.244482119
  0
VERTEX
  8
0
 62
7
  6
CONTINUOUS
 10
78.1626716714
 20
230.3637670692
  0
SEQEND
  0
LINE
  8
0
 62
7
  6
CONTINUOUS
 10
78.1420918335
 20
230.2184544485
 11
78.3742796834
 21
231.0014238884
  0
LINE
  8
0
 62
7
  6
CONTINUOUS
 10
78.3742844092
 20
231.001439791
 11
78.3776407892
 21
231.0119788971
  0
LINE
  8
0
 62
7
  6
CONTINUOUS
 10
82.3177559674
 20
235.962776724
 11
81.8187463126
 21
235.4637670692
  0
LINE
  8
0
 62
7
  6
CONTINUOUS
 10
24.441397429
 20
238.3637670692
 11
124.541397429
 21
238.3637670692
  0
POLYLINE
  8
0
 62
7
  6
CONTINUOUS
 66
1
 70
0
  0
VERTEX
  8
0
 62
7
  6
CONTINUOUS
 10
96.6484984874
 20
235.9637670692
  0
VERTEX
  8
0
 62
7
  6
CONTINUOUS
 10
96.7219484393
 20
235.9532037105
  0
VERTEX
  8
0
 62
7
  6
CONTINUOUS
 10
96.7800914369
 20
235.9223927497
  0
VERTEX
  8
0
 62
7
  6
CONTINUOUS
 10
96.8027255408
 20
235.8998068605
  0
VERTEX
  8
0
 62
7
  6
CONTINUOUS
 10
96.8323962513
 20
235.8447810226
  0
VERTEX
  8
0
 62
7
  6
CONTINUOUS
 10
96.841397429
 20
235.7880587797
  0
SEQEND
  0
LINE
  8
0
 62
7
  6
CONTINUOUS
 10
79.8640485455
 20
235.4637670692
 11
79.3650388907
 21
235.962776724
  0
POLYLINE
  8
0
 62
7
  6
CONTINUOUS
 66
1
 70
0
  0
VERTEX
  8
0
 62
7
  6
CONTINUOUS
 10
83.3056111324
 20
231.0108241336
  0
VERTEX
  8
0
 62
7
  6
CONTINUOUS
 10
83.305108845
 20
231.0121038564
  0
VERTEX
  8
0
 62
7
  6
CONTINUOUS
 10
83.3085107635
 20
231.0014387301
  0
SEQEND
  0
LINE
  8
0
 62
7
  6
CONTINUOUS
 10
82.291397429
 20
230.3637670692
 11
82.291397429
 21
232.1407292524
  0
LINE
  8
0
 62
7
  6
CONTINUOUS
 10
84.141397429
 20
230.3637670692
 11
84.141397429
 21
237.8637670692
  0
LINE
  8
0
 62
7
  6
CONTINUOUS
 10
83.3085151746
 20
231.0014238884
 11
83.5407030245
 21
230.2184544485
  0
POLYLINE
  8
0
 62
7
  6
CONTINUOUS
 66
1
 70
0
  0
VERTEX
  8
0
 62
7
  6
CONTINUOUS
 10
83.5407035908
 20
230.2184526335
  0
VERTEX
  8
0
 62
7
  6
CONTINUOUS
 10
83.533744751
 20
230.244482119
  0
VERTEX
  8
0
 62
7
  6
CONTINUOUS
 10
83.5201231867
 20
230.3637670692
  0
SEQEND
  0
POLYLINE
  8
0
 62
7
  6
CONTINUOUS
 66
1
 70
0
  0
VERTEX
  8
0
 62
7
  6
CONTINUOUS
 10
90.241397429
 20
235.1274956942
  0
VERTEX
  8
0
 62
7
  6
CONTINUOUS
 10
90.2269943168
 20
235.1417282869
  0
VERTEX
  8
0
 62
7
  6
CONTINUOUS
 10
90.1845279571
 20
235.1549633656
  0
VERTEX
  8
0
 62
7
  6
CONTINUOUS
 10
90.1163166843
 20
235.1664885912
  0
VERTEX
  8
0
 62
7
  6
CONTINUOUS
 10
90.073701549
 20
235.171415815
  0
VERTEX
  8
0
 62
7
  6
CONTINUOUS
 10
89.9744956408
 20
235.1792798534
  0
VERTEX
  8
0
 62
7
  6
CONTINUOUS
 10
89.8615381275
 20
235.1841676877
  0
VERTEX
  8
0
 62
7
  6
CONTINUOUS
 10
89.741397429
 20
235.1858267382
  0
SEQEND
  0
LINE
  8
0
 62
7
  6
CONTINUOUS
 10
90.241397429
 20
230.3637683223
 11
90.241397429
 21
237.8637670692
  0
LINE
  8
2_FEATURE
 62
7
  6
CONTINUOUS
 10
90.4538977628
 20
235.9637670692
 11
90.4538977628
 21
235.8637670692
  0
LINE
  8
0
 62
7
  6
CONTINUOUS
 10
90.491397429
 20
235.8637670692
 11
90.491397429
 21
230.363836165
  0
LINE
  8
2_FEATURE
 62
7
  6
CONTINUOUS
 10
90.4976470952
 20
235.9637670692
 11
90.4976470952
 21
235.8637670692
  0
LINE
  8
2_FEATURE
 62
7
  6
CONTINUOUS
 10
90.6288970952
 20
235.9637670692
 11
90.6288970952
 21
235.8637670692
  0
LINE
  8
2_FEATURE
 62
7
  6
CONTINUOUS
 10
90.803897429
 20
235.9637670692
 11
90.803897429
 21
235.8637670692
  0
LINE
  8
2_FEATURE
 62
7
  6
CONTINUOUS
 10
91.0226470952
 20
235.9637670692
 11
91.0226470952
 21
235.8637670692
  0
LINE
  8
2_FEATURE
 62
7
  6
CONTINUOUS
 10
91.641397429
 20
235.9637670692
 11
91.641397429
 21
235.8637670692
  0
POLYLINE
  8
0
 62
7
  6
CONTINUOUS
 66
1
 70
0
  0
VERTEX
  8
0
 62
7
  6
CONTINUOUS
 10
90.241397429
 20
235.7880587797
  0
VERTEX
  8
0
 62
7
  6
CONTINUOUS
 10
90.2504495612
 20
235.8449384044
  0
VERTEX
  8
0
 62
7
  6
CONTINUOUS
 10
90.2802924202
 20
235.9000791929
  0
VERTEX
  8
0
 62
7
  6
CONTINUOUS
 10
90.3029611075
 20
235.9226020986
  0
VERTEX
  8
0
 62
7
  6
CONTINUOUS
 10
90.3609121023
 20
235.9532244454
  0
VERTEX
  8
0
 62
7
  6
CONTINUOUS
 10
90.4342963706
 20
235.9637670692
  0
SEQEND
  0
POLYLINE
  8
0
 62
7
  6
CONTINUOUS
 66
1
 70
0
  0
VERTEX
  8
0
 62
7
  6
CONTINUOUS
 10
110.1145516642
 20
231.2077737711
  0
VERTEX
  8
0
 62
7
  6
CONTINUOUS
 10
110.5258372512
 20
231.3783927719
  0
VERTEX
  8
0
 62
7
  6
CONTINUOUS
 10
110.9077911104
 20
231.5550479024
  0
VERTEX
  8
0
 62
7
  6
CONTINUOUS
 10
111.2340635136
 20
231.7228112299
  0
SEQEND
  0
POLYLINE
  8
0
 62
7
  6
CONTINUOUS
 66
1
 70
0
  0
VERTEX
  8
0
 62
7
  6
CONTINUOUS
 10
96.841397429
 20
233.3000384443
  0
VERTEX
  8
0
 62
7
  6
CONTINUOUS
 10
96.8558005412
 20
233.2858058516
  0
VERTEX
  8
0
 62
7
  6
CONTINUOUS
 10
96.898266901
 20
233.2725707729
  0
VERTEX
  8
0
 62
7
  6
CONTINUOUS
 10
96.9664781738
 20
233.2610455473
  0
VERTEX
  8
0
 62
7
  6
CONTINUOUS
 10
97.0090933091
 20
233.2561183235
  0
VERTEX
  8
0
 62
7
  6
CONTINUOUS
 10
97.1082992173
 20
233.2482542851
  0
VERTEX
  8
0
 62
7
  6
CONTINUOUS
 10
97.2212567306
 20
233.2433664507
  0
VERTEX
  8
0
 62
7
  6
CONTINUOUS
 10
97.341397429
 20
233.2417074003
  0
SEQEND
  0
LINE
  8
2_FEATURE
 62
7
  6
CONTINUOUS
 10
92.691397429
 20
235.9637670692
 11
92.691397429
 21
235.8637670692
  0
LINE
  8
2_FEATURE
 62
7
  6
CONTINUOUS
 10
92.9101474708
 20
235.9637670692
 11
92.9101474708
 21
235.8637670692
  0
LINE
  8
2_FEATURE
 62
7
  6
CONTINUOUS
 10
93.085147429
 20
235.9637670692
 11
93.085147429
 21
235.8637670692
  0
LINE
  8
2_FEATURE
 62
7
  6
CONTINUOUS
 10
93.216397429
 20
235.9637670692
 11
93.216397429
 21
235.8637670692
  0
LINE
  8
2_FEATURE
 62
7
  6
CONTINUOUS
 10
93.2601473873
 20
235.9637670692
 11
93.2601473873
 21
235.8637670692
  0
LINE
  8
2_FEATURE
 62
7
  6
CONTINUOUS
 10
93.610147429
 20
235.9637670692
 11
93.610147429
 21
235.8637670692
  0
LINE
  8
2_FEATURE
 62
7
  6
CONTINUOUS
 10
94.660147429
 20
235.9637670692
 11
94.660147429
 21
235.8637670692
  0
LINE
  8
2_FEATURE
 62
7
  6
CONTINUOUS
 10
94.8788973456
 20
235.9637670692
 11
94.8788973456
 21
235.8637670692
  0
LINE
  8
2_FEATURE
 62
7
  6
CONTINUOUS
 10
95.053897429
 20
235.9637670692
 11
95.053897429
 21
235.8637670692
  0
LINE
  8
2_FEATURE
 62
7
  6
CONTINUOUS
 10
95.185147429
 20
235.9637670692
 11
95.185147429
 21
235.8637670692
  0
LINE
  8
2_FEATURE
 62
7
  6
CONTINUOUS
 10
95.2288975125
 20
235.9637670692
 11
95.2288975125
 21
235.8637670692
  0
POLYLINE
  8
0
 62
7
  6
CONTINUOUS
 66
1
 70
0
  0
VERTEX
  8
0
 62
7
  6
CONTINUOUS
 10
111.2340660499
 20
231.7228114381
  0
VERTEX
  8
0
 62
7
  6
CONTINUOUS
 10
111.2438834325
 20
231.7277423779
  0
VERTEX
  8
0
 62
7
  6
CONTINUOUS
 10
111.2597016909
 20
231.7339972388
  0
VERTEX
  8
0
 62
7
  6
CONTINUOUS
 10
111.2752633669
 20
231.7379433077
  0
VERTEX
  8
0
 62
7
  6
CONTINUOUS
 10
111.2920495294
 20
231.7394856307
  0
VERTEX
  8
0
 62
7
  6
CONTINUOUS
 10
111.3099749761
 20
231.7378635293
  0
VERTEX
  8
0
 62
7
  6
CONTINUOUS
 10
111.3278130089
 20
231.7330765533
  0
VERTEX
  8
0
 62
7
  6
CONTINUOUS
 10
111.344926997
 20
231.7258199568
  0
VERTEX
  8
0
 62
7
  6
CONTINUOUS
 10
111.3613642104
 20
231.7166116138
  0
VERTEX
  8
0
 62
7
  6
CONTINUOUS
 10
111.377058038
 20
231.7058755673
  0
VERTEX
  8
0
 62
7
  6
CONTINUOUS
 10
111.3921072476
 20
231.6938252762
  0
VERTEX
  8
0
 62
7
  6
CONTINUOUS
 10
111.4067395205
 20
231.6804382871
  0
VERTEX
  8
0
 62
7
  6
CONTINUOUS
 10
111.4209139721
 20
231.6658287013
  0
VERTEX
  8
0
 62
7
  6
CONTINUOUS
 10
111.4346667106
 20
231.650005588
  0
VERTEX
  8
0
 62
7
  6
CONTINUOUS
 10
111.4480748579
 20
231.6328625187
  0
VERTEX
  8
0
 62
7
  6
CONTINUOUS
 10
111.4611079848
 20
231.6143670089
  0
VERTEX
  8
0
 62
7
  6
CONTINUOUS
 10
111.4736333719
 20
231.5946099126
  0
VERTEX
  8
0
 62
7
  6
CONTINUOUS
 10
111.4855190924
 20
231.5736939567
  0
VERTEX
  8
0
 62
7
  6
CONTINUOUS
 10
111.4966181683
 20
231.5517606794
  0
VERTEX
  8
0
 62
7
  6
CONTINUOUS
 10
111.5067893471
 20
231.5289662864
  0
VERTEX
  8
0
 62
7
  6
CONTINUOUS
 10
111.5158911688
 20
231.5054886281
  0
VERTEX
  8
0
 62
7
  6
CONTINUOUS
 10
111.5238009963
 20
231.4814852176
  0
VERTEX
  8
0
 62
7
  6
CONTINUOUS
 10
111.5303831801
 20
231.4571777364
  0
VERTEX
  8
0
 62
7
  6
CONTINUOUS
 10
111.5355208387
 20
231.4327774512
  0
VERTEX
  8
0
 62
7
  6
CONTINUOUS
 10
111.5391024833
 20
231.4085518779
  0
VERTEX
  8
0
 62
7
  6
CONTINUOUS
 10
111.5410450773
 20
231.3847281072
  0
VERTEX
  8
0
 62
7
  6
CONTINUOUS
 10
111.541397736
 20
231.3698254183
  0
SEQEND
  0
POLYLINE
  8
0
 62
7
  6
CONTINUOUS
 66
1
 70
0
  0
VERTEX
  8
0
 62
7
  6
CONTINUOUS
 10
102.941397429
 20
235.1274956942
  0
VERTEX
  8
0
 62
7
  6
CONTINUOUS
 10
102.9269943168
 20
235.1417282869
  0
VERTEX
  8
0
 62
7
  6
CONTINUOUS
 10
102.8845279571
 20
235.1549633656
  0
VERTEX
  8
0
 62
7
  6
CONTINUOUS
 10
102.8163166843
 20
235.1664885912
  0
VERTEX
  8
0
 62
7
  6
CONTINUOUS
 10
102.773701549
 20
235.171415815
  0
VERTEX
  8
0
 62
7
  6
CONTINUOUS
 10
102.6744956408
 20
235.1792798534
  0
VERTEX
  8
0
 62
7
  6
CONTINUOUS
 10
102.5615381275
 20
235.1841676877
  0
VERTEX
  8
0
 62
7
  6
CONTINUOUS
 10
102.441397429
 20
235.1858267382
  0
SEQEND
  0
LINE
  8
2_FEATURE
 62
7
  6
CONTINUOUS
 10
96.447647429
 20
235.9637670692
 11
96.447647429
 21
235.8637670692
  0
LINE
  8
0
 62
7
  6
CONTINUOUS
 10
96.591397429
 20
230.363836165
 11
96.591397429
 21
235.8637670692
  0
LINE
  8
2_FEATURE
 62
7
  6
CONTINUOUS
 10
96.6663973456
 20
235.9637670692
 11
96.6663973456
 21
235.8637670692
  0
LINE
  8
0
 62
7
  6
CONTINUOUS
 10
96.841397429
 20
230.3637683223
 11
96.841397429
 21
237.8637670692
  0
LINE
  8
0
 62
7
  6
CONTINUOUS
 10
107.7177559674
 20
235.962776724
 11
107.2187463126
 21
235.4637670692
  0
POLYLINE
  8
0
 62
7
  6
CONTINUOUS
 66
1
 70
0
  0
VERTEX
  8
0
 62
7
  6
CONTINUOUS
 10
109.541397429
 20
235.1274956942
  0
VERTEX
  8
0
 62
7
  6
CONTINUOUS
 10
109.5558005412
 20
235.1417282869
  0
VERTEX
  8
0
 62
7
  6
CONTINUOUS
 10
109.598266901
 20
235.1549633656
  0
VERTEX
  8
0
 62
7
  6
CONTINUOUS
 10
109.6664781738
 20
235.1664885912
  0
VERTEX
  8
0
 62
7
  6
CONTINUOUS
 10
109.7090933091
 20
235.171415815
  0
VERTEX
  8
0
 62
7
  6
CONTINUOUS
 10
109.8082992173
 20
235.1792798534
  0
VERTEX
  8
0
 62
7
  6
CONTINUOUS
 10
109.9212567306
 20
235.1841676877
  0
VERTEX
  8
0
 62
7
  6
CONTINUOUS
 10
110.041397429
 20
235.1858267382
  0
SEQEND
  0
LINE
  8
0
 62
7
  6
CONTINUOUS
 10
105.2640485455
 20
235.4637670692
 11
104.7650388907
 21
235.962776724
  0
LINE
  8
0
 62
7
  6
CONTINUOUS
 10
102.941397429
 20
230.3637670692
 11
102.941397429
 21
237.8637670692
  0
LINE
  8
0
 62
7
  6
CONTINUOUS
 10
104.791397429
 20
230.3637670692
 11
104.791397429
 21
232.140729264
  0
POLYLINE
  8
0
 62
7
  6
CONTINUOUS
 66
1
 70
0
  0
VERTEX
  8
0
 62
7
  6
CONTINUOUS
 10
103.5420912673
 20
230.2184526335
  0
VERTEX
  8
0
 62
7
  6
CONTINUOUS
 10
103.5490501071
 20
230.244482119
  0
VERTEX
  8
0
 62
7
  6
CONTINUOUS
 10
103.5626716714
 20
230.3637670692
  0
SEQEND
  0
LINE
  8
0
 62
7
  6
CONTINUOUS
 10
103.5420918335
 20
230.2184544485
 11
103.7742796834
 21
231.0014238884
  0
LINE
  8
0
 62
7
  6
CONTINUOUS
 10
103.7742844092
 20
231.001439791
 11
103.7776407892
 21
231.0119788971
  0
POLYLINE
  8
0
 62
7
  6
CONTINUOUS
 66
1
 70
0
  0
VERTEX
  8
0
 62
7
  6
CONTINUOUS
 10
115.641397429
 20
235.1274956942
  0
VERTEX
  8
0
 62
7
  6
CONTINUOUS
 10
115.6269943168
 20
235.1417282869
  0
VERTEX
  8
0
 62
7
  6
CONTINUOUS
 10
115.5845279571
 20
235.1549633656
  0
VERTEX
  8
0
 62
7
  6
CONTINUOUS
 10
115.5163166843
 20
235.1664885912
  0
VERTEX
  8
0
 62
7
  6
CONTINUOUS
 10
115.473701549
 20
235.171415815
  0
VERTEX
  8
0
 62
7
  6
CONTINUOUS
 10
115.3744956408
 20
235.1792798534
  0
VERTEX
  8
0
 62
7
  6
CONTINUOUS
 10
115.2615381275
 20
235.1841676877
  0
VERTEX
  8
0
 62
7
  6
CONTINUOUS
 10
115.141397429
 20
235.1858267382
  0
SEQEND
  0
POLYLINE
  8
0
 62
7
  6
CONTINUOUS
 66
1
 70
0
  0
VERTEX
  8
0
 62
7
  6
CONTINUOUS
 10
117.7708211141
 20
231.6659031216
  0
VERTEX
  8
0
 62
7
  6
CONTINUOUS
 10
117.7841561376
 20
231.6506237801
  0
VERTEX
  8
0
 62
7
  6
CONTINUOUS
 10
117.7975974885
 20
231.6335041431
  0
VERTEX
  8
0
 62
7
  6
CONTINUOUS
 10
117.8106595983
 20
231.6150362735
  0
SEQEND
  0
POLYLINE
  8
0
 62
7
  6
CONTINUOUS
 66
1
 70
0
  0
VERTEX
  8
0
 62
7
  6
CONTINUOUS
 10
108.7056111324
 20
231.0108241336
  0
VERTEX
  8
0
 62
7
  6
CONTINUOUS
 10
108.705108845
 20
231.0121038564
  0
VERTEX
  8
0
 62
7
  6
CONTINUOUS
 10
108.7085107635
 20
231.0014387301
  0
SEQEND
  0
LINE
  8
0
 62
7
  6
CONTINUOUS
 10
107.691397429
 20
230.3637670692
 11
107.691397429
 21
232.1407292524
  0
LINE
  8
0
 62
7
  6
CONTINUOUS
 10
120.4176396618
 20
235.9627875071
 11
119.918619224
 21
235.4637670692
  0
LINE
  8
0
 62
7
  6
CONTINUOUS
 10
117.9640485455
 20
235.4637670692
 11
117.4650388907
 21
235.962776724
  0
LINE
  8
0
 62
7
  6
CONTINUOUS
 10
111.4710297023
 20
231.5988944293
 11
111.515394742
 21
231.5067691343
  0
LINE
  8
0
 62
7
  6
CONTINUOUS
 10
108.7085151746
 20
231.0014238884
 11
108.9407030245
 21
230.2184544485
  0
POLYLINE
  8
0
 62
7
  6
CONTINUOUS
 66
1
 70
0
  0
VERTEX
  8
0
 62
7
  6
CONTINUOUS
 10
108.9407035908
 20
230.2184526335
  0
VERTEX
  8
0
 62
7
  6
CONTINUOUS
 10
108.933744751
 20
230.244482119
  0
VERTEX
  8
0
 62
7
  6
CONTINUOUS
 10
108.9201231867
 20
230.3637670692
  0
SEQEND
  0
POLYLINE
  8
0
 62
7
  6
CONTINUOUS
 66
1
 70
0
  0
VERTEX
  8
0
 62
7
  6
CONTINUOUS
 10
109.541397035
 20
231.7226939619
  0
VERTEX
  8
0
 62
7
  6
CONTINUOUS
 10
109.5511825752
 20
231.5939409925
  0
VERTEX
  8
0
 62
7
  6
CONTINUOUS
 10
109.5840970564
 20
231.4670020836
  0
VERTEX
  8
0
 62
7
  6
CONTINUOUS
 10
109.6384390884
 20
231.3599723754
  0
VERTEX
  8
0
 62
7
  6
CONTINUOUS
 10
109.7090150712
 20
231.2779079662
  0
VERTEX
  8
0
 62
7
  6
CONTINUOUS
 10
109.7486233426
 20
231.2464669595
  0
VERTEX
  8
0
 62
7
  6
CONTINUOUS
 10
109.8346905479
 20
231.2015870367
  0
VERTEX
  8
0
 62
7
  6
CONTINUOUS
 10
109.9283335648
 20
231.1803223287
  0
VERTEX
  8
0
 62
7
  6
CONTINUOUS
 10
110.0274372563
 20
231.1837167287
  0
VERTEX
  8
0
 62
7
  6
CONTINUOUS
 10
110.1145464149
 20
231.2077716087
  0
SEQEND
  0
LINE
  8
0
 62
7
  6
CONTINUOUS
 10
109.541397429
 20
230.3637670692
 11
109.541397429
 21
237.8637670692
  0
LINE
  8
0
 62
7
  6
CONTINUOUS
 10
111.141397429
 20
230.3637670692
 11
111.141397429
 21
230.7281646786
  0
LINE
  8
0
 62
7
  6
CONTINUOUS
 10
111.541397429
 20
231.3698241004
 11
111.541397429
 21
230.0637670692
  0
POLYLINE
  8
0
 62
7
  6
CONTINUOUS
 66
1
 70
0
  0
VERTEX
  8
0
 62
7
  6
CONTINUOUS
 10
111.1413970416
 20
230.7281258279
  0
VERTEX
  8
0
 62
7
  6
CONTINUOUS
 10
111.1605017998
 20
230.9492364915
  0
VERTEX
  8
0
 62
7
  6
CONTINUOUS
 10
111.2221515347
 20
231.2015891986
  0
VERTEX
  8
0
 62
7
  6
CONTINUOUS
 10
111.3201523339
 20
231.4515802854
  0
SEQEND
  0
POLYLINE
  8
0
 62
7
  6
CONTINUOUS
 66
1
 70
0
  0
VERTEX
  8
0
 62
7
  6
CONTINUOUS
 10
111.3705014491
 20
231.5618085004
  0
VERTEX
  8
0
 62
7
  6
CONTINUOUS
 10
111.387413489
 20
231.6005687318
  0
VERTEX
  8
0
 62
7
  6
CONTINUOUS
 10
111.3927115153
 20
231.6124369325
  0
VERTEX
  8
0
 62
7
  6
CONTINUOUS
 10
111.3980358712
 20
231.6239452009
  0
VERTEX
  8
0
 62
7
  6
CONTINUOUS
 10
111.4034144385
 20
231.6350182799
  0
VERTEX
  8
0
 62
7
  6
CONTINUOUS
 10
111.4088184159
 20
231.6455131873
  0
VERTEX
  8
0
 62
7
  6
CONTINUOUS
 10
111.4142733016
 20
231.6554002836
  0
VERTEX
  8
0
 62
7
  6
CONTINUOUS
 10
111.4198854358
 20
231.6647638578
  0
VERTEX
  8
0
 62
7
  6
CONTINUOUS
 10
111.4207243864
 20
231.6660241071
  0
SEQEND
  0
POLYLINE
  8
0
 62
7
  6
CONTINUOUS
 66
1
 70
0
  0
VERTEX
  8
0
 62
7
  6
CONTINUOUS
 10
111.3579887542
 20
231.5336624083
  0
VERTEX
  8
0
 62
7
  6
CONTINUOUS
 10
111.3643294731
 20
231.5478265913
  0
VERTEX
  8
0
 62
7
  6
CONTINUOUS
 10
111.3705014491
 20
231.5618085004
  0
SEQEND
  0
LINE
  8
0
 62
7
  6
CONTINUOUS
 10
111.344356648
 20
231.5037525373
 11
111.3579887542
 21
231.5336624083
  0
LINE
  8
0
 62
7
  6
CONTINUOUS
 10
111.3201515341
 20
231.4515814602
 11
111.344356648
 21
231.5037525373
  0
POLYLINE
  8
0
 62
7
  6
CONTINUOUS
 66
1
 70
0
  0
VERTEX
  8
0
 62
7
  6
CONTINUOUS
 10
125.041397429
 20
233.3000384443
  0
VERTEX
  8
0
 62
7
  6
CONTINUOUS
 10
125.0269943168
 20
233.2858058516
  0
VERTEX
  8
0
 62
7
  6
CONTINUOUS
 10
124.9845279571
 20
233.2725707729
  0
VERTEX
  8
0
 62
7
  6
CONTINUOUS
 10
124.9163166843
 20
233.2610455473
  0
VERTEX
  8
0
 62
7
  6
CONTINUOUS
 10
124.873701549
 20
233.2561183235
  0
VERTEX
  8
0
 62
7
  6
CONTINUOUS
 10
124.7744956408
 20
233.2482542851
  0
VERTEX
  8
0
 62
7
  6
CONTINUOUS
 10
124.6615381275
 20
233.2433664507
  0
VERTEX
  8
0
 62
7
  6
CONTINUOUS
 10
124.541397429
 20
233.2417074003
  0
SEQEND
  0
POLYLINE
  8
0
 62
7
  6
CONTINUOUS
 66
1
 70
0
  0
VERTEX
  8
0
 62
7
  6
CONTINUOUS
 10
125.041397429
 20
235.1274956942
  0
VERTEX
  8
0
 62
7
  6
CONTINUOUS
 10
125.0269943168
 20
235.1417282869
  0
VERTEX
  8
0
 62
7
  6
CONTINUOUS
 10
124.9845279571
 20
235.1549633656
  0
VERTEX
  8
0
 62
7
  6
CONTINUOUS
 10
124.9163166843
 20
235.1664885912
  0
VERTEX
  8
0
 62
7
  6
CONTINUOUS
 10
124.873701549
 20
235.171415815
  0
VERTEX
  8
0
 62
7
  6
CONTINUOUS
 10
124.7744956408
 20
235.1792798534
  0
VERTEX
  8
0
 62
7
  6
CONTINUOUS
 10
124.6615381275
 20
235.1841676877
  0
VERTEX
  8
0
 62
7
  6
CONTINUOUS
 10
124.541397429
 20
235.1858267382
  0
SEQEND
  0
LINE
  8
0
 62
7
  6
CONTINUOUS
 10
117.8106595983
 20
231.6150362735
 11
117.8213334303
 21
231.5982621584
  0
POLYLINE
  8
0
 62
7
  6
CONTINUOUS
 66
1
 70
0
  0
VERTEX
  8
0
 62
7
  6
CONTINUOUS
 10
117.7762976436
 20
231.6740009966
  0
VERTEX
  8
0
 62
7
  6
CONTINUOUS
 10
117.7804491028
 20
231.6667342668
  0
VERTEX
  8
0
 62
7
  6
CONTINUOUS
 10
117.7973810953
 20
231.6379176081
  0
VERTEX
  8
0
 62
7
  6
CONTINUOUS
 10
117.8117961696
 20
231.6139939396
  0
VERTEX
  8
0
 62
7
  6
CONTINUOUS
 10
117.8210077219
 20
231.5989330882
  0
SEQEND
  0
LINE
  8
0
 62
7
  6
CONTINUOUS
 10
115.641397429
 20
230.3637670692
 11
115.641397429
 21
237.8637670692
  0
LINE
  8
0
 62
7
  6
CONTINUOUS
 10
116.2420918335
 20
230.2184544485
 11
116.4742796834
 21
231.0014238884
  0
LINE
  8
0
 62
7
  6
CONTINUOUS
 10
116.4742844092
 20
231.001439791
 11
116.4776407892
 21
231.0119788971
  0
POLYLINE
  8
0
 62
7
  6
CONTINUOUS
 66
1
 70
0
  0
VERTEX
  8
0
 62
7
  6
CONTINUOUS
 10
117.7347161193
 20
231.5940810524
  0
VERTEX
  8
0
 62
7
  6
CONTINUOUS
 10
117.7389939105
 20
231.6037385822
  0
VERTEX
  8
0
 62
7
  6
CONTINUOUS
 10
117.7430762236
 20
231.6127887146
  0
VERTEX
  8
0
 62
7
  6
CONTINUOUS
 10
117.7470658992
 20
231.621411468
  0
VERTEX
  8
0
 62
7
  6
CONTINUOUS
 10
117.7510172195
 20
231.6296831041
  0
VERTEX
  8
0
 62
7
  6
CONTINUOUS
 10
117.7549462745
 20
231.637606664
  0
VERTEX
  8
0
 62
7
  6
CONTINUOUS
 10
117.758874819
 20
231.6451957728
  0
VERTEX
  8
0
 62
7
  6
CONTINUOUS
 10
117.7628426529
 20
231.6524910336
  0
VERTEX
  8
0
 62
7
  6
CONTINUOUS
 10
117.766892492
 20
231.6595227156
  0
VERTEX
  8
0
 62
7
  6
CONTINUOUS
 10
117.7710186311
 20
231.6662239055
  0
VERTEX
  8
0
 62
7
  6
CONTINUOUS
 10
117.7752909505
 20
231.6726325531
  0
VERTEX
  8
0
 62
7
  6
CONTINUOUS
 10
117.779871952
 20
231.6788597155
  0
VERTEX
  8
0
 62
7
  6
CONTINUOUS
 10
117.7848394169
 20
231.6848571559
  0
VERTEX
  8
0
 62
7
  6
CONTINUOUS
 10
117.7899094254
 20
231.6901875189
  0
VERTEX
  8
0
 62
7
  6
CONTINUOUS
 10
117.7953162537
 20
231.6949775186
  0
VERTEX
  8
0
 62
7
  6
CONTINUOUS
 10
117.799884244
 20
231.6982149219
  0
VERTEX
  8
0
 62
7
  6
CONTINUOUS
 10
117.8015563307
 20
231.6991448746
  0
SEQEND
  0
POLYLINE
  8
0
 62
7
  6
CONTINUOUS
 66
1
 70
0
  0
VERTEX
  8
0
 62
7
  6
CONTINUOUS
 10
117.7143358699
 20
231.5476830851
  0
VERTEX
  8
0
 62
7
  6
CONTINUOUS
 10
117.7199569581
 20
231.5603746115
  0
VERTEX
  8
0
 62
7
  6
CONTINUOUS
 10
117.7347161193
 20
231.5940810524
  0
SEQEND
  0
LINE
  8
0
 62
7
  6
CONTINUOUS
 10
117.7025026024
 20
231.5214600816
 11
117.7143358699
 21
231.5476830851
  0
LINE
  8
0
 62
7
  6
CONTINUOUS
 10
117.6895087429
 20
231.4932099328
 11
117.7025026024
 21
231.5214600816
  0
LINE
  8
0
 62
7
  6
CONTINUOUS
 10
117.6679752667
 20
231.4469038883
 11
117.6895087429
 21
231.4932099328
  0
LINE
  8
0
 62
7
  6
CONTINUOUS
 10
125.041397429
 20
237.7538801692
 11
125.241397429
 21
237.5382821859
  0
POLYLINE
  8
0
 62
7
  6
CONTINUOUS
 66
1
 70
0
  0
VERTEX
  8
0
 62
7
  6
CONTINUOUS
 10
117.8210292446
 20
231.5988951726
  0
VERTEX
  8
0
 62
7
  6
CONTINUOUS
 10
117.8658226557
 20
231.5056795517
  0
VERTEX
  8
0
 62
7
  6
CONTINUOUS
 10
117.8807926312
 20
231.4554639244
  0
VERTEX
  8
0
 62
7
  6
CONTINUOUS
 10
117.8913976904
 20
231.3698853959
  0
SEQEND
  0
POLYLINE
  8
0
 62
7
  6
CONTINUOUS
 66
1
 70
0
  0
VERTEX
  8
0
 62
7
  6
CONTINUOUS
 10
117.8657688195
 20
231.5057915855
  0
VERTEX
  8
0
 62
7
  6
CONTINUOUS
 10
117.873565429
 20
231.482266893
  0
VERTEX
  8
0
 62
7
  6
CONTINUOUS
 10
117.8801948426
 20
231.4579561367
  0
VERTEX
  8
0
 62
7
  6
CONTINUOUS
 10
117.8805551565
 20
231.4562605149
  0
SEQEND
  0
LINE
  8
0
 62
7
  6
CONTINUOUS
 10
117.491397429
 20
230.3637670692
 11
117.491397429
 21
232.140729245
  0
LINE
  8
0
 62
7
  6
CONTINUOUS
 10
117.891397427
 20
231.3698851495
 11
117.891397429
 21
230.0637670692
  0
POLYLINE
  8
0
 62
7
  6
CONTINUOUS
 66
1
 70
0
  0
VERTEX
  8
0
 62
7
  6
CONTINUOUS
 10
117.491397046
 20
230.7281252712
  0
VERTEX
  8
0
 62
7
  6
CONTINUOUS
 10
117.5107021171
 20
230.9504445161
  0
VERTEX
  8
0
 62
7
  6
CONTINUOUS
 10
117.5725299955
 20
231.2027718949
  0
VERTEX
  8
0
 62
7
  6
CONTINUOUS
 10
117.6701524254
 20
231.4515802911
  0
SEQEND
  0
POLYLINE
  8
0
 62
7
  6
CONTINUOUS
 66
1
 70
0
  0
VERTEX
  8
0
 62
7
  6
CONTINUOUS
 10
116.2420912673
 20
230.2184526335
  0
VERTEX
  8
0
 62
7
  6
CONTINUOUS
 10
116.2490501071
 20
230.244482119
  0
VERTEX
  8
0
 62
7
  6
CONTINUOUS
 10
116.2626716714
 20
230.3637670692
  0
SEQEND
  0
LINE
  8
0
 62
7
  6
CONTINUOUS
 10
120.391397429
 20
230.3637670692
 11
120.391397429
 21
232.1403290189
  0
LINE
  8
0
 62
7
  6
CONTINUOUS
 10
122.241397429
 20
237.8637670692
 11
122.241397429
 21
230.3637670692
  0
LINE
  8
0
 62
7
  6
CONTINUOUS
 10
125.041397429
 20
237.8637670692
 11
125.041397429
 21
230.3637671512
  0
LINE
  8
0
 62
7
  6
CONTINUOUS
 10
125.241397429
 20
237.5382821859
 11
125.241397429
 21
232.0003670692
  0
LINE
  8
0
 62
7
  6
CONTINUOUS
 10
125.2414046384
 20
232.0003670692
 11
125.2324841208
 21
231.9059177211
  0
POLYLINE
  8
0
 62
7
  6
CONTINUOUS
 66
1
 70
0
  0
VERTEX
  8
0
 62
7
  6
CONTINUOUS
 10
125.2324841208
 20
231.9059177211
  0
VERTEX
  8
0
 62
7
  6
CONTINUOUS
 10
125.2061167776
 20
231.815680511
  0
VERTEX
  8
0
 62
7
  6
CONTINUOUS
 10
125.162435649
 20
231.7306879685
  0
SEQEND
  0
ARC
  8
0
 62
7
  6
CONTINUOUS
 10
30.041397429
 20
121.3551201439
 40
1.25
 50
180.0
 51
360.0
  0
ARC
  8
0
 62
7
  6
CONTINUOUS
 10
36.391397429
 20
121.3551201439
 40
1.25
 50
180.0
 51
360.0
  0
ARC
  8
0
 62
7
  6
CONTINUOUS
 10
42.741397429
 20
121.3551201439
 40
1.25
 50
180.0
 51
360.0
  0
ARC
  8
0
 62
7
  6
CONTINUOUS
 10
49.091397429
 20
121.3551201439
 40
1.25
 50
180.0
 51
360.0
  0
ARC
  8
0
 62
7
  6
CONTINUOUS
 10
55.441397429
 20
121.3551201439
 40
1.25
 50
180.0
 51
360.0
  0
ARC
  8
0
 62
7
  6
CONTINUOUS
 10
61.791397429
 20
121.3551201439
 40
1.25
 50
180.0
 51
360.0
  0
ARC
  8
0
 62
7
  6
CONTINUOUS
 10
68.141397429
 20
121.3551201439
 40
1.25
 50
180.0
 51
360.0
  0
ARC
  8
0
 62
7
  6
CONTINUOUS
 10
24.441397429
 20
107.2651201439
 40
0.5
 50
180.0
 51
270.0
  0
ARC
  8
0
 62
7
  6
CONTINUOUS
 10
33.841397429
 20
107.2651201439
 40
0.5
 50
180.0
 51
270.0
  0
ARC
  8
0
 62
7
  6
CONTINUOUS
 10
26.241397429
 20
107.2651201439
 40
0.5
 50
270.0
 51
360.0
  0
ARC
  8
0
 62
7
  6
CONTINUOUS
 10
38.941397429
 20
107.2651201439
 40
0.5
 50
270.0
 51
360.0
  0
ARC
  8
0
 62
7
  6
CONTINUOUS
 10
46.541397429
 20
107.2651201439
 40
0.5
 50
180.0
 51
270.0
  0
ARC
  8
0
 62
7
  6
CONTINUOUS
 10
59.241397429
 20
107.2651201439
 40
0.5
 50
180.0
 51
270.0
  0
ARC
  8
0
 62
7
  6
CONTINUOUS
 10
51.641397429
 20
107.2651201439
 40
0.5
 50
270.0
 51
360.0
  0
ARC
  8
0
 62
7
  6
CONTINUOUS
 10
71.941397429
 20
107.2651201439
 40
0.5
 50
180.0
 51
270.0
  0
ARC
  8
0
 62
7
  6
CONTINUOUS
 10
64.341397429
 20
107.2651201439
 40
0.5
 50
270.0
 51
360.0
  0
ARC
  8
0
 62
7
  6
CONTINUOUS
 10
30.041397429
 20
138.7551201439
 40
1.25
 50
0.0
 51
180.0
  0
ARC
  8
0
 62
7
  6
CONTINUOUS
 10
36.391397429
 20
138.7551201439
 40
1.25
 50
0.0
 51
180.0
  0
ARC
  8
0
 62
7
  6
CONTINUOUS
 10
42.741397429
 20
138.7551201439
 40
1.25
 50
0.0
 51
180.0
  0
ARC
  8
0
 62
7
  6
CONTINUOUS
 10
49.091397429
 20
138.7551201439
 40
1.25
 50
0.0
 51
180.0
  0
ARC
  8
0
 62
7
  6
CONTINUOUS
 10
55.441397429
 20
138.7551201439
 40
1.25
 50
0.0
 51
180.0
  0
ARC
  8
0
 62
7
  6
CONTINUOUS
 10
61.791397429
 20
138.7551201439
 40
1.25
 50
0.0
 51
180.0
  0
ARC
  8
0
 62
7
  6
CONTINUOUS
 10
68.141397429
 20
138.7551201439
 40
1.25
 50
0.0
 51
180.0
  0
ARC
  8
2_FEATURE
 62
7
  6
CONTINUOUS
 10
24.741397429
 20
143.4213716451
 40
1.0
 50
144.1408399887
 51
180.0
  0
ARC
  8
0
 62
7
  6
CONTINUOUS
 10
40.191397429
 20
152.8451201439
 40
0.5
 50
90.0
 51
180.0
  0
ARC
  8
0
 62
7
  6
CONTINUOUS
 10
65.591397429
 20
152.8451201439
 40
0.5
 50
90.0
 51
180.0
  0
ARC
  8
0
 62
7
  6
CONTINUOUS
 10
27.491397429
 20
152.8451201439
 40
0.5
 50
90.0
 51
180.0
  0
ARC
  8
0
 62
7
  6
CONTINUOUS
 10
32.591397429
 20
152.8451201439
 40
0.5
 50
0.0
 51
90.0
  0
ARC
  8
0
 62
7
  6
CONTINUOUS
 10
52.891397429
 20
152.8451201439
 40
0.5
 50
90.0
 51
180.0
  0
ARC
  8
0
 62
7
  6
CONTINUOUS
 10
45.291397429
 20
152.8451201439
 40
0.5
 50
0.0
 51
90.0
  0
ARC
  8
0
 62
7
  6
CONTINUOUS
 10
57.991397429
 20
152.8451201439
 40
0.5
 50
0.0
 51
90.0
  0
ARC
  8
0
 62
7
  6
CONTINUOUS
 10
70.691397429
 20
152.8451201439
 40
0.5
 50
0.0
 51
90.0
  0
ARC
  8
0
 62
7
  6
CONTINUOUS
 10
74.491397429
 20
121.3551201439
 40
1.25
 50
180.0
 51
360.0
  0
ARC
  8
0
 62
7
  6
CONTINUOUS
 10
80.841397429
 20
121.3551201439
 40
1.25
 50
180.0
 51
360.0
  0
ARC
  8
0
 62
7
  6
CONTINUOUS
 10
87.191397429
 20
121.3551201439
 40
1.25
 50
180.0
 51
360.0
  0
ARC
  8
0
 62
7
  6
CONTINUOUS
 10
93.541397429
 20
121.3551201439
 40
1.25
 50
180.0
 51
360.0
  0
ARC
  8
0
 62
7
  6
CONTINUOUS
 10
99.891397429
 20
121.3551201439
 40
1.25
 50
180.0
 51
360.0
  0
ARC
  8
0
 62
7
  6
CONTINUOUS
 10
106.241397429
 20
121.3551201439
 40
1.25
 50
180.0
 51
360.0
  0
ARC
  8
0
 62
7
  6
CONTINUOUS
 10
112.591397429
 20
121.3551201439
 40
1.25
 50
180.0
 51
360.0
  0
ARC
  8
0
 62
7
  6
CONTINUOUS
 10
118.941397429
 20
121.3551201439
 40
1.25
 50
180.0
 51
360.0
  0
ARC
  8
0
 62
7
  6
CONTINUOUS
 10
115.141397429
 20
107.2651201439
 40
0.5
 50
270.0
 51
360.0
  0
ARC
  8
0
 62
7
  6
CONTINUOUS
 10
124.541397429
 20
107.2651201439
 40
0.5
 50
270.0
 51
360.0
  0
ARC
  8
0
 62
7
  6
CONTINUOUS
 10
84.641397429
 20
107.2651201439
 40
0.5
 50
180.0
 51
270.0
  0
ARC
  8
0
 62
7
  6
CONTINUOUS
 10
77.041397429
 20
107.2651201439
 40
0.5
 50
270.0
 51
360.0
  0
ARC
  8
0
 62
7
  6
CONTINUOUS
 10
97.341397429
 20
107.2651201439
 40
0.5
 50
180.0
 51
270.0
  0
ARC
  8
0
 62
7
  6
CONTINUOUS
 10
89.741397429
 20
107.2651201439
 40
0.5
 50
270.0
 51
360.0
  0
ARC
  8
0
 62
7
  6
CONTINUOUS
 10
110.041397429
 20
107.2651201439
 40
0.5
 50
180.0
 51
270.0
  0
ARC
  8
0
 62
7
  6
CONTINUOUS
 10
102.441397429
 20
107.2651201439
 40
0.5
 50
270.0
 51
360.0
  0
ARC
  8
0
 62
7
  6
CONTINUOUS
 10
122.741397429
 20
107.2651201439
 40
0.5
 50
180.0
 51
270.0
  0
ARC
  8
0
 62
7
  6
CONTINUOUS
 10
74.491397429
 20
138.7551201439
 40
1.25
 50
0.0
 51
180.0
  0
ARC
  8
0
 62
7
  6
CONTINUOUS
 10
80.841397429
 20
138.7551201439
 40
1.25
 50
0.0
 51
180.0
  0
ARC
  8
0
 62
7
  6
CONTINUOUS
 10
87.191397429
 20
138.7551201439
 40
1.25
 50
0.0
 51
180.0
  0
ARC
  8
0
 62
7
  6
CONTINUOUS
 10
93.541397429
 20
138.7551201439
 40
1.25
 50
0.0
 51
180.0
  0
ARC
  8
0
 62
7
  6
CONTINUOUS
 10
99.891397429
 20
138.7551201439
 40
1.25
 50
0.0
 51
180.0
  0
ARC
  8
0
 62
7
  6
CONTINUOUS
 10
106.241397429
 20
138.7551201439
 40
1.25
 50
0.0
 51
180.0
  0
ARC
  8
0
 62
7
  6
CONTINUOUS
 10
112.591397429
 20
138.7551201439
 40
1.25
 50
0.0
 51
180.0
  0
ARC
  8
0
 62
7
  6
CONTINUOUS
 10
118.941397429
 20
138.7551201439
 40
1.25
 50
0.0
 51
180.0
  0
ARC
  8
2_FEATURE
 62
7
  6
CONTINUOUS
 10
124.241397429
 20
143.4213716451
 40
1.0
 50
0.0
 51
35.8591600113
  0
ARC
  8
0
 62
7
  6
CONTINUOUS
 10
121.491397429
 20
152.8451201439
 40
0.5
 50
0.0
 51
90.0
  0
ARC
  8
0
 62
7
  6
CONTINUOUS
 10
78.291397429
 20
152.8451201439
 40
0.5
 50
90.0
 51
180.0
  0
ARC
  8
0
 62
7
  6
CONTINUOUS
 10
116.391397429
 20
152.8451201439
 40
0.5
 50
90.0
 51
180.0
  0
ARC
  8
0
 62
7
  6
CONTINUOUS
 10
108.791397429
 20
152.8451201439
 40
0.5
 50
0.0
 51
90.0
  0
ARC
  8
0
 62
7
  6
CONTINUOUS
 10
103.691397429
 20
152.8451201439
 40
0.5
 50
90.0
 51
180.0
  0
ARC
  8
0
 62
7
  6
CONTINUOUS
 10
96.091397429
 20
152.8451201439
 40
0.5
 50
0.0
 51
90.0
  0
ARC
  8
0
 62
7
  6
CONTINUOUS
 10
83.391397429
 20
152.8451201439
 40
0.5
 50
0.0
 51
90.0
  0
ARC
  8
0
 62
7
  6
CONTINUOUS
 10
90.991397429
 20
152.8451201439
 40
0.5
 50
90.0
 51
180.0
  0
ARC
  8
0
 62
7
  6
CONTINUOUS
 10
160.7252879389
 20
114.6378271841
 40
0.5
 50
311.4951540653
 51
358.6903416646
  0
ARC
  8
0
 62
7
  6
CONTINUOUS
 10
163.9386879389
 20
110.8051201439
 40
5.0489999763
 50
48.818215835
 51
69.7203027258
  0
ARC
  8
0
 62
7
  6
CONTINUOUS
 10
163.9386879389
 20
111.0051201439
 40
4.35
 50
131.4951540653
 51
257.0875457171
  0
ARC
  8
0
 62
7
  6
CONTINUOUS
 10
163.9386879389
 20
111.0051201439
 40
4.35
 50
282.9124542829
 51
342.5584061437
  0
CIRCLE
  8
2_FEATURE
 62
7
  6
CONTINUOUS
 10
163.9386879389
 20
111.0051201439
 40
2.5
  0
ARC
  8
0
 62
7
  6
CONTINUOUS
 10
161.7252879389
 20
143.9213716451
 40
0.5
 50
90.0
 51
180.0
  0
ARC
  8
2_FEATURE
 62
7
  6
CONTINUOUS
 10
163.9386879389
 20
149.1051201439
 40
5.0
 50
290.4873151147
 51
311.5777957855
  0
ARC
  8
0
 62
7
  6
CONTINUOUS
 10
163.9386879389
 20
149.1051201439
 40
5.0
 50
290.4873151147
 51
311.5777957855
  0
ARC
  8
0
 62
7
  6
CONTINUOUS
 10
163.9386879389
 20
149.1051201439
 40
4.35
 50
17.4415938563
 51
77.0875457171
  0
ARC
  8
0
 62
7
  6
CONTINUOUS
 10
163.9386879389
 20
149.1051201439
 40
4.35
 50
102.9124542829
 51
180.0010348775
  0
CIRCLE
  8
2_FEATURE
 62
7
  6
CONTINUOUS
 10
163.9386879389
 20
149.1051201439
 40
2.5
  0
ARC
  8
0
 62
7
  6
CONTINUOUS
 10
167.5886879389
 20
144.9908165335
 40
0.4999997237
 50
0.0
 51
131.5778493998
  0
ARC
  8
0
 62
7
  6
CONTINUOUS
 10
24.441397429
 20
230.3637670692
 40
0.5
 50
180.0
 51
270.0
  0
ARC
  8
0
 62
7
  6
CONTINUOUS
 10
40.191397429
 20
230.3637670692
 40
0.5
 50
180.0
 51
270.0
  0
ARC
  8
0
 62
7
  6
CONTINUOUS
 10
46.541397429
 20
230.3637670692
 40
0.5
 50
180.0
 51
270.0
  0
ARC
  8
0
 62
7
  6
CONTINUOUS
 10
45.291397429
 20
230.3637670692
 40
0.5
 50
270.0
 51
360.0
  0
ARC
  8
0
 62
7
  6
CONTINUOUS
 10
31.991397429
 20
230.3637670692
 40
0.5
 50
180.0
 51
270.0
  0
ARC
  8
0
 62
7
  6
CONTINUOUS
 10
33.841397429
 20
230.3637670692
 40
0.5
 50
180.0
 51
270.0
  0
ARC
  8
0
 62
7
  6
CONTINUOUS
 10
26.241397429
 20
230.3637670692
 40
0.5
 50
270.0
 51
360.0
  0
ARC
  8
0
 62
7
  6
CONTINUOUS
 10
28.091397429
 20
230.3637670692
 40
0.5
 50
270.0
 51
360.0
  0
ARC
  8
0
 62
7
  6
CONTINUOUS
 10
30.891397429
 20
230.0637670692
 40
0.2
 50
270.0
 51
360.0
  0
ARC
  8
0
 62
7
  6
CONTINUOUS
 10
37.241397429
 20
230.0637670692
 40
0.2
 50
270.0
 51
360.0
  0
ARC
  8
0
 62
7
  6
CONTINUOUS
 10
24.241397429
 20
232.0003670692
 40
0.5
 50
212.6399595159
 51
230.7851013361
  0
ARC
  8
0
 62
7
  6
CONTINUOUS
 10
65.591397429
 20
230.3637670692
 40
0.5
 50
180.0
 51
270.0
  0
ARC
  8
0
 62
7
  6
CONTINUOUS
 10
71.941397429
 20
230.3637670692
 40
0.5
 50
180.0
 51
270.0
  0
ARC
  8
0
 62
7
  6
CONTINUOUS
 10
64.341397429
 20
230.3637670692
 40
0.5
 50
270.0
 51
360.0
  0
ARC
  8
0
 62
7
  6
CONTINUOUS
 10
70.691397429
 20
230.3637670692
 40
0.5
 50
270.0
 51
360.0
  0
ARC
  8
0
 62
7
  6
CONTINUOUS
 10
57.391397429
 20
230.3637670692
 40
0.5
 50
180.0
 51
270.0
  0
ARC
  8
0
 62
7
  6
CONTINUOUS
 10
59.241397429
 20
230.3637670692
 40
0.5
 50
180.0
 51
270.0
  0
ARC
  8
0
 62
7
  6
CONTINUOUS
 10
51.641397429
 20
230.3637670692
 40
0.5
 50
270.0
 51
360.0
  0
ARC
  8
0
 62
7
  6
CONTINUOUS
 10
53.491397429
 20
230.3637670692
 40
0.5
 50
270.0
 51
360.0
  0
ARC
  8
0
 62
7
  6
CONTINUOUS
 10
33.841397429
 20
237.8637670692
 40
0.5
 50
90.0
 51
180.0
  0
ARC
  8
0
 62
7
  6
CONTINUOUS
 10
24.441397429
 20
237.8637670692
 40
0.5
 50
90.0
 51
180.0
  0
ARC
  8
0
 62
7
  6
CONTINUOUS
 10
26.241397429
 20
237.8637670692
 40
0.5
 50
0.0
 51
90.0
  0
ARC
  8
0
 62
7
  6
CONTINUOUS
 10
38.941397429
 20
237.8637670692
 40
0.5
 50
0.0
 51
90.0
  0
ARC
  8
0
 62
7
  6
CONTINUOUS
 10
46.541397429
 20
237.8637670692
 40
0.5
 50
90.0
 51
180.0
  0
ARC
  8
0
 62
7
  6
CONTINUOUS
 10
59.241397429
 20
237.8637670692
 40
0.5
 50
90.0
 51
180.0
  0
ARC
  8
0
 62
7
  6
CONTINUOUS
 10
51.641397429
 20
237.8637670692
 40
0.5
 50
0.0
 51
90.0
  0
ARC
  8
0
 62
7
  6
CONTINUOUS
 10
71.941397429
 20
237.8637670692
 40
0.5
 50
90.0
 51
180.0
  0
ARC
  8
0
 62
7
  6
CONTINUOUS
 10
64.341397429
 20
237.8637670692
 40
0.5
 50
0.0
 51
90.0
  0
ARC
  8
0
 62
7
  6
CONTINUOUS
 10
124.541397429
 20
230.3637670692
 40
0.5
 50
270.0
 51
360.0
  0
ARC
  8
0
 62
7
  6
CONTINUOUS
 10
96.091397429
 20
230.3637670692
 40
0.5
 50
270.0
 51
360.0
  0
ARC
  8
0
 62
7
  6
CONTINUOUS
 10
90.991397429
 20
230.3637670692
 40
0.5
 50
180.0
 51
270.0
  0
ARC
  8
0
 62
7
  6
CONTINUOUS
 10
97.341397429
 20
230.3637670692
 40
0.5
 50
180.0
 51
270.0
  0
ARC
  8
0
 62
7
  6
CONTINUOUS
 10
89.741397429
 20
230.3637670692
 40
0.5
 50
270.0
 51
360.0
  0
ARC
  8
0
 62
7
  6
CONTINUOUS
 10
124.741397429
 20
232.0003670692
 40
0.5
 50
309.2151435207
 51
327.3600404841
  0
ARC
  8
0
 62
7
  6
CONTINUOUS
 10
116.991397429
 20
230.3637670692
 40
0.5
 50
270.0
 51
360.0
  0
ARC
  8
0
 62
7
  6
CONTINUOUS
 10
115.141397429
 20
230.3637670692
 40
0.5
 50
270.0
 51
360.0
  0
ARC
  8
0
 62
7
  6
CONTINUOUS
 10
122.741397429
 20
230.3637670692
 40
0.5
 50
180.0
 51
270.0
  0
ARC
  8
0
 62
7
  6
CONTINUOUS
 10
120.891397429
 20
230.3637670692
 40
0.5
 50
180.0
 51
270.0
  0
ARC
  8
0
 62
7
  6
CONTINUOUS
 10
104.291397429
 20
230.3637670692
 40
0.5
 50
270.0
 51
360.0
  0
ARC
  8
0
 62
7
  6
CONTINUOUS
 10
102.441397429
 20
230.3637670692
 40
0.5
 50
270.0
 51
360.0
  0
ARC
  8
0
 62
7
  6
CONTINUOUS
 10
110.041397429
 20
230.3637670692
 40
0.5
 50
179.9993266383
 51
270.0
  0
ARC
  8
0
 62
7
  6
CONTINUOUS
 10
108.191397429
 20
230.3637670692
 40
0.5
 50
180.0
 51
270.0
  0
ARC
  8
0
 62
7
  6
CONTINUOUS
 10
110.641397429
 20
230.3637670692
 40
0.5
 50
270.0
 51
360.0
  0
ARC
  8
0
 62
7
  6
CONTINUOUS
 10
78.891397429
 20
230.3637670692
 40
0.5
 50
270.0
 51
360.0
  0
ARC
  8
0
 62
7
  6
CONTINUOUS
 10
77.041397429
 20
230.3637670692
 40
0.5
 50
270.0
 51
360.0
  0
ARC
  8
0
 62
7
  6
CONTINUOUS
 10
84.641397429
 20
230.3637670692
 40
0.5
 50
180.0
 51
270.0
  0
ARC
  8
0
 62
7
  6
CONTINUOUS
 10
82.791397429
 20
230.3637670692
 40
0.5
 50
180.0
 51
270.0
  0
ARC
  8
0
 62
7
  6
CONTINUOUS
 10
111.741397429
 20
230.0637670692
 40
0.2
 50
180.0
 51
270.0
  0
ARC
  8
0
 62
7
  6
CONTINUOUS
 10
118.091397429
 20
230.0637670692
 40
0.2
 50
180.0
 51
270.0
  0
ARC
  8
0
 62
7
  6
CONTINUOUS
 10
97.341397429
 20
237.8637670692
 40
0.5
 50
90.0
 51
180.0
  0
ARC
  8
0
 62
7
  6
CONTINUOUS
 10
122.741397429
 20
237.8637670692
 40
0.5
 50
90.0
 51
180.0
  0
ARC
  8
0
 62
7
  6
CONTINUOUS
 10
124.541397429
 20
237.8637670692
 40
0.5
 50
0.0
 51
90.0
  0
ARC
  8
0
 62
7
  6
CONTINUOUS
 10
115.141397429
 20
237.8637670692
 40
0.5
 50
0.0
 51
90.0
  0
ARC
  8
0
 62
7
  6
CONTINUOUS
 10
102.441397429
 20
237.8637670692
 40
0.5
 50
0.0
 51
90.0
  0
ARC
  8
0
 62
7
  6
CONTINUOUS
 10
110.041397429
 20
237.8637670692
 40
0.5
 50
90.0
 51
180.0
  0
ARC
  8
0
 62
7
  6
CONTINUOUS
 10
89.741397429
 20
237.8637670692
 40
0.5
 50
0.0
 51
90.0
  0
ARC
  8
0
 62
7
  6
CONTINUOUS
 10
77.041397429
 20
237.8637670692
 40
0.5
 50
0.0
 51
90.0
  0
ARC
  8
0
 62
7
  6
CONTINUOUS
 10
84.641397429
 20
237.8637670692
 40
0.5
 50
90.0
 51
180.0
  0
ENDSEC
  0
EOF
