  0
SECTION
  2
HEADER
  9
$EXTMAX
 10
210.0
 20
297.0
 30
0.0
  9
$EXTMIN
 10
0.0
 20
0.0
 30
0.0
  9
$LIMMIN
 10
0.0
 20
0.0
  9
$LIMMAX
 10
210.0
 20
297.0
  9
$VIEWCTR
 10
105.0
 20
148.5
  9
$VIEWSIZE
 40
297.0
  9
$CLAYER
  8
0
  9
$LTSCALE
 40
19.36
  9
$CELTYPE
  6
BYLAYER
  9
$DIMSCALE
 40
1.0
  9
$DIMASZ
 40
3.5
  9
$DIMEXO
 40
1.0
  9
$DIMDLI
 40
13.376
  9
$DIMEXE
 40
2.0
  9
$DIMCEN
 40
3.168
  9
$DIMLFAC
 40
1.0
  9
$DIMBLK
  1
_FILLED
  9
$DIMALT
 70
0
  9
$DIMALTF
 40
0.0393700787
  9
$DIMTXT
 40
3.5
  9
$AUNITS
 70
0
  9
$PDMODE
 70
3
  9
$PDSIZE
 40
0.3125
  9
$TILEMODE
 70
1
  0
ENDSEC
  0
SECTION
  2
TABLES
  0
TABLE
  2
LTYPE
 70
6
  0
LTYPE
  2
BYBLOCK
 70
0
  3

 72
65
 73
0
 40
0.0
  0
LTYPE
  2
BYLAYER
 70
0
  3

 72
65
 73
0
 40
0.0
  0
LTYPE
  2
CONTINUOUS
 70
64
  3
Solid line
 72
65
 73
0
 40
0.0
  0
LTYPE
  2
CENTER
 70
64
  3
____ _ ____ _ ____ _ ____ _ ____ _ ____ _ ____
 72
65
 73
4
 40
0.6
 49
0.375
 49
-0.075
 49
0.075
 49
-0.075
  0
LTYPE
  2
HIDDEN
 70
64
  3
- - - - - - - - - - - - - - - - - - - -
 72
65
 73
2
 40
0.2
 49
0.1
 49
-0.1
  0
LTYPE
  2
PHANTOM
 70
64
  3
_____ _ _ _____ _ _ _____ _ _ _____
 72
65
 73
6
 40
0.8
 49
0.45
 49
-0.05
 49
0.1
 49
-0.05
 49
0.1
 49
-0.05
  0
LTYPE
  2
DOT
 70
64
  3
. . . . . . . . . . . . . . . . . . . .
 72
65
 73
2
 40
0.2
 49
0.1
 49
-0.1
  0
LTYPE
  2
DASHED
 70
64
  3
- - - - - - - - - - - - - - - - - - - -
 72
65
 73
2
 40
0.2
 49
0.1
 49
-0.1
  0
ENDTAB
  0
TABLE
  2
LAYER
 70
36
  0
LAYER
  2
0
 70
0
 62
7
  6
CONTINUOUS
  0
LAYER
  2
DEFAULT_1
 70
0
 62
7
  6
CENTER
  0
LAYER
  2
DEFAULT_2
 70
0
 62
8
  6
HIDDEN
  0
LAYER
  2
DEFAULT_3
 70
0
 62
7
  6
PHANTOM
  0
LAYER
  2
1_AXIS
 70
0
 62
7
  6
CONTINUOUS
  0
LAYER
  2
1_DATUMPLANE
 70
0
 62
7
  6
CONTINUOUS
  0
LAYER
  2
1_DATUM_PLANES
 70
0
 62
7
  6
CONTINUOUS
  0
LAYER
  2
2_FEATURE
 70
0
 62
7
  6
CONTINUOUS
  0
LAYER
  2
4_QUILT
 70
0
 62
7
  6
CONTINUOUS
  0
LAYER
  2
6_DIM
 70
0
 62
7
  6
CONTINUOUS
  0
LAYER
  2
CSYS
 70
0
 62
7
  6
CONTINUOUS
  0
LAYER
  2
CURVE
 70
0
 62
7
  6
CONTINUOUS
  0
ENDTAB
  0
TABLE
  2
STYLE
 70
1
  0
STYLE
  2
STANDARD
 70
0
 40
0.0
 41
0.8
 50
0.0
 71
0
 42
0.2
  3
txt
  4

  0
STYLE
  2
TEXTSTYLE_1
 70
0
 40
0.0
 41
0.8
 50
0.0
 71
0
 42
0.2
  3
gdt
  4

  0
STYLE
  2
TEXTSTYLE_2
 70
0
 40
0.0
 41
0.6
 50
0.0
 71
0
 42
0.2
  3
txt
  4

  0
STYLE
  2
TEXTSTYLE_3
 70
0
 40
0.0
 41
1.0
 50
0.0
 71
0
 42
0.2
  3
ftb_____.ttf
  4

  0
STYLE
  2
TEXTSTYLE_4
 70
0
 40
0.0
 41
1.0
 50
0.0
 71
0
 42
0.2
  3
fti_____.ttf
  4

  0
STYLE
  2
TEXTSTYLE_5
 70
0
 40
0.0
 41
1.0
 50
0.0
 71
0
 42
0.2
  3
frutiger light.ttf
  4

  0
STYLE
  2
TEXTSTYLE_6
 70
0
 40
0.0
 41
0.7
 50
0.0
 71
0
 42
0.2
  3
txt
  4

  0
STYLE
  2
TEXTSTYLE_7
 70
0
 40
0.0
 41
0.65
 50
0.0
 71
0
 42
0.2
  3
txt
  4

  0
ENDTAB
  0
ENDSEC
  0
SECTION
  2
BLOCKS
  0
BLOCK
  8
0
 62
2
  6
CONTINUOUS
  2
UNI_LOGO2_BL1
 70
64
 10
173.5956734183
 20
35.5937998301
  0
TEXT
  8
0
 62
7
  6
CONTINUOUS
 10
164.6539584268
 20
30.6865562072
  7
TEXTSTYLE_4
 40
1.0655737705
  1
The brand for plastic modular belts and chains
 41
1.0
 72
0
  0
LINE
  8
0
 62
7
  6
CONTINUOUS
 10
149.5737418074
 20
36.1675703219
 11
149.5737418074
 21
34.0364227809
  0
LINE
  8
0
 62
7
  6
CONTINUOUS
 10
149.8628043005
 20
31.0454914852
 11
149.8628043005
 21
31.1422825445
  0
LINE
  8
0
 62
7
  6
CONTINUOUS
 10
149.5737418074
 20
31.1100188581
 11
149.6315543091
 21
30.9164367395
  0
LINE
  8
0
 62
7
  6
CONTINUOUS
 10
150.9671844304
 20
33.9544555678
 11
150.9671844304
 21
36.1675703219
  0
LINE
  8
0
 62
7
  6
CONTINUOUS
 10
151.8862417523
 20
32.1101932727
 11
151.8862417523
 21
30.5937998301
  0
LINE
  8
0
 62
7
  6
CONTINUOUS
 10
152.1753043074
 20
30.5937998301
 11
152.1753043074
 21
31.3358647082
  0
LINE
  8
0
 62
7
  6
CONTINUOUS
 10
152.1753043074
 20
31.4649194539
 11
152.1753043074
 21
32.1101932727
  0
LINE
  8
0
 62
7
  6
CONTINUOUS
 10
149.6315543091
 20
31.3036010218
 11
149.5737418074
 21
31.1100188581
  0
LINE
  8
0
 62
7
  6
CONTINUOUS
 10
149.9784292936
 20
30.8841730531
 11
149.8628043005
 21
31.0454914852
  0
LINE
  8
0
 62
7
  6
CONTINUOUS
 10
151.0768668626
 20
31.400392081
 11
151.1346793074
 21
31.3036010218
  0
LINE
  8
0
 62
7
  6
CONTINUOUS
 10
151.4237418626
 20
31.3036010218
 11
151.3659292523
 21
31.4326557675
  0
LINE
  8
0
 62
7
  6
CONTINUOUS
 10
152.852430332
 20
36.1675703219
 11
152.852430332
 21
34.3642916334
  0
LINE
  8
0
 62
7
  6
CONTINUOUS
 10
152.852430332
 20
33.0528162235
 11
152.852430332
 21
32.3970785186
  0
LINE
  8
0
 62
7
  6
CONTINUOUS
 10
153.2159293074
 20
31.2390736489
 11
153.2159293074
 21
30.5937998301
  0
LINE
  8
0
 62
7
  6
CONTINUOUS
 10
153.5049916972
 20
30.5937998301
 11
153.5049916972
 21
31.2390736489
  0
LINE
  8
0
 62
7
  6
CONTINUOUS
 10
149.8628043005
 20
31.1422825445
 11
149.9206168074
 21
31.2713373354
  0
LINE
  8
0
 62
7
  6
CONTINUOUS
 10
149.6315543091
 20
30.9164367395
 11
149.7471793074
 21
30.7873819712
  0
LINE
  8
0
 62
7
  6
CONTINUOUS
 10
153.1581166972
 20
31.3681283946
 11
153.2159293074
 21
31.2390736489
  0
LINE
  8
0
 62
7
  6
CONTINUOUS
 10
153.9674919177
 20
30.8841730531
 11
154.0253041972
 21
30.7551182848
  0
LINE
  8
0
 62
7
  6
CONTINUOUS
 10
153.5049916972
 20
31.2390736489
 11
153.4471794177
 21
31.400392081
  0
LINE
  8
0
 62
7
  6
CONTINUOUS
 10
153.9674919177
 20
31.4326557675
 11
153.9674919177
 21
31.3681283946
  0
LINE
  8
0
 62
7
  6
CONTINUOUS
 10
153.9674919177
 20
30.9809641124
 11
153.9674919177
 21
30.8841730531
  0
LINE
  8
0
 62
7
  6
CONTINUOUS
 10
154.245872955
 20
32.3970785186
 11
154.245872955
 21
36.1675703219
  0
LINE
  8
0
 62
7
  6
CONTINUOUS
 10
154.2565543074
 20
30.8519093441
 11
154.2565543074
 21
30.9164367395
  0
LINE
  8
0
 62
7
  6
CONTINUOUS
 10
154.5737418074
 20
36.1675703219
 11
154.5737418074
 21
32.3970785186
  0
LINE
  8
0
 62
7
  6
CONTINUOUS
 10
151.3659292523
 20
30.7873819712
 11
151.4237418626
 21
30.9164367395
  0
LINE
  8
0
 62
7
  6
CONTINUOUS
 10
155.759679528
 20
30.6905909007
 11
155.7018665869
 21
30.8519093441
  0
LINE
  8
0
 62
7
  6
CONTINUOUS
 10
155.412804528
 20
31.3681283946
 11
155.412804528
 21
31.2713373354
  0
LINE
  8
0
 62
7
  6
CONTINUOUS
 10
155.412804528
 20
31.1422825445
 11
155.412804528
 21
30.9487004259
  0
LINE
  8
0
 62
7
  6
CONTINUOUS
 10
155.7018665869
 20
30.8519093441
 11
155.7018665869
 21
31.3681283946
  0
LINE
  8
0
 62
7
  6
CONTINUOUS
 10
155.9671844304
 20
32.3970785186
 11
155.9671844304
 21
34.2003572071
  0
LINE
  8
0
 62
7
  6
CONTINUOUS
 10
155.9671844304
 20
35.511832617
 11
155.9671844304
 21
36.1675703219
  0
LINE
  8
0
 62
7
  6
CONTINUOUS
 10
156.279992028
 20
32.1101932727
 11
156.279992028
 21
31.9488748406
  0
LINE
  8
0
 62
7
  6
CONTINUOUS
 10
156.279992028
 20
31.626237886
 11
156.279992028
 21
30.5937998301
  0
LINE
  8
0
 62
7
  6
CONTINUOUS
 10
156.5690540869
 20
30.5937998301
 11
156.5690540869
 21
31.626237886
  0
LINE
  8
0
 62
7
  6
CONTINUOUS
 10
156.5690540869
 20
31.9488748406
 11
156.5690540869
 21
32.1101932727
  0
LINE
  8
0
 62
7
  6
CONTINUOUS
 10
151.1346793074
 20
30.9164367395
 11
151.0768668626
 21
30.8196456577
  0
LINE
  8
0
 62
7
  6
CONTINUOUS
 10
153.4471794177
 20
31.400392081
 11
153.3893668074
 21
31.4649194539
  0
LINE
  8
0
 62
7
  6
CONTINUOUS
 10
154.3143669177
 20
30.7873819712
 11
154.2565543074
 21
30.8519093441
  0
LINE
  8
0
 62
7
  6
CONTINUOUS
 10
155.4706168074
 20
30.6583272086
 11
155.5284290869
 21
30.5937998301
  0
LINE
  8
0
 62
7
  6
CONTINUOUS
 10
155.412804528
 20
30.7551182848
 11
155.4706168074
 21
30.6583272086
  0
LINE
  8
0
 62
7
  6
CONTINUOUS
 10
155.8174918074
 20
30.5937998301
 11
155.759679528
 21
30.6905909007
  0
LINE
  8
0
 62
7
  6
CONTINUOUS
 10
155.7018665869
 20
31.3681283946
 11
155.6440543074
 21
31.4649194539
  0
LINE
  8
0
 62
7
  6
CONTINUOUS
 10
157.0315543074
 20
31.626237886
 11
157.0315543074
 21
30.5937998301
  0
LINE
  8
0
 62
7
  6
CONTINUOUS
 10
157.320617028
 20
30.5937998301
 11
157.320617028
 21
31.3358647082
  0
LINE
  8
0
 62
7
  6
CONTINUOUS
 10
157.320617028
 20
31.4649194539
 11
157.320617028
 21
31.626237886
  0
LINE
  8
0
 62
7
  6
CONTINUOUS
 10
157.852430332
 20
34.6101932727
 11
157.852430332
 21
32.3970785186
  0
LINE
  8
0
 62
7
  6
CONTINUOUS
 10
149.7471793074
 20
31.4326557675
 11
149.6315543091
 21
31.3036010218
  0
LINE
  8
0
 62
7
  6
CONTINUOUS
 10
149.9206168074
 20
31.2713373354
 11
149.9784292936
 21
31.3358647082
  0
LINE
  8
0
 62
7
  6
CONTINUOUS
 10
149.7471793074
 20
30.7873819712
 11
149.8628043005
 21
30.7228545871
  0
LINE
  8
0
 62
7
  6
CONTINUOUS
 10
150.1518667936
 20
30.7873819712
 11
149.9784292936
 21
30.8841730531
  0
LINE
  8
0
 62
7
  6
CONTINUOUS
 10
155.3549915869
 20
31.4326557675
 11
155.412804528
 21
31.3681283946
  0
LINE
  8
0
 62
7
  6
CONTINUOUS
 10
158.3034290869
 20
31.3681283946
 11
158.361242028
 21
31.2068099625
  0
LINE
  8
0
 62
7
  6
CONTINUOUS
 10
158.6503040869
 20
31.2068099625
 11
158.5924918074
 21
31.3681283946
  0
LINE
  8
0
 62
7
  6
CONTINUOUS
 10
158.361242028
 20
31.2068099625
 11
158.361242028
 21
30.5937998301
  0
LINE
  8
0
 62
7
  6
CONTINUOUS
 10
158.6503040869
 20
30.5937998301
 11
158.6503040869
 21
31.2068099625
  0
LINE
  8
0
 62
7
  6
CONTINUOUS
 10
159.1128043074
 20
31.4326557675
 11
159.1128043074
 21
31.3681283946
  0
LINE
  8
0
 62
7
  6
CONTINUOUS
 10
159.245872955
 20
32.3970785186
 11
159.245872955
 21
34.5282260596
  0
LINE
  8
0
 62
7
  6
CONTINUOUS
 10
159.5737418074
 20
36.1675703219
 11
159.5737418074
 21
32.3970785186
  0
LINE
  8
0
 62
7
  6
CONTINUOUS
 10
154.2565543074
 20
30.9164367395
 11
154.3143669177
 21
31.0132277988
  0
LINE
  8
0
 62
7
  6
CONTINUOUS
 10
149.8628043005
 20
30.7228545871
 11
150.0362418212
 21
30.6583272086
  0
LINE
  8
0
 62
7
  6
CONTINUOUS
 10
151.3659292523
 20
31.4326557675
 11
151.1924917523
 21
31.5294468267
  0
LINE
  8
0
 62
7
  6
CONTINUOUS
 10
154.0253041972
 20
30.7551182848
 11
154.1987416972
 21
30.6583272086
  0
LINE
  8
0
 62
7
  6
CONTINUOUS
 10
153.0424918074
 20
31.4326557675
 11
153.1581166972
 21
31.3681283946
  0
LINE
  8
0
 62
7
  6
CONTINUOUS
 10
153.3893668074
 20
31.4649194539
 11
153.2737419177
 21
31.5294468267
  0
LINE
  8
0
 62
7
  6
CONTINUOUS
 10
159.1128043074
 20
30.8519093441
 11
159.228429528
 21
30.7228545871
  0
LINE
  8
0
 62
7
  6
CONTINUOUS
 10
159.4596793074
 20
30.7873819712
 11
159.401867028
 21
30.8519093441
  0
LINE
  8
0
 62
7
  6
CONTINUOUS
 10
159.1128043074
 20
31.3681283946
 11
159.228429528
 21
31.2390736489
  0
LINE
  8
0
 62
7
  6
CONTINUOUS
 10
158.5924918074
 20
31.3681283946
 11
158.534679528
 21
31.4649194539
  0
LINE
  8
0
 62
7
  6
CONTINUOUS
 10
160.9628038663
 20
30.7873819712
 11
160.9628038663
 21
30.8519093441
  0
LINE
  8
0
 62
7
  6
CONTINUOUS
 10
160.9671844304
 20
32.3970785186
 11
160.9671844304
 21
36.1675703219
  0
LINE
  8
0
 62
7
  6
CONTINUOUS
 10
154.0253041972
 20
31.4971831403
 11
153.9674919177
 21
31.4326557675
  0
LINE
  8
0
 62
7
  6
CONTINUOUS
 10
150.9034292799
 20
31.4649194539
 11
151.0768668626
 21
31.400392081
  0
LINE
  8
0
 62
7
  6
CONTINUOUS
 10
155.6440543074
 20
31.4649194539
 11
155.5284290869
 21
31.5294468267
  0
LINE
  8
0
 62
7
  6
CONTINUOUS
 10
159.4596793074
 20
31.3036010218
 11
159.401867028
 21
31.3681283946
  0
LINE
  8
0
 62
7
  6
CONTINUOUS
 10
160.615929528
 20
30.9164367395
 11
160.6737418074
 21
30.8519093441
  0
LINE
  8
0
 62
7
  6
CONTINUOUS
 10
160.9628038663
 20
30.8519093441
 11
160.8471793074
 21
30.9809641124
  0
LINE
  8
0
 62
7
  6
CONTINUOUS
 10
160.615929528
 20
31.4326557675
 11
160.6737418074
 21
31.3681283946
  0
LINE
  8
0
 62
7
  6
CONTINUOUS
 10
160.9628038663
 20
31.3681283946
 11
160.8471793074
 21
31.4971831403
  0
LINE
  8
0
 62
7
  6
CONTINUOUS
 10
154.2565543074
 20
31.3681283946
 11
154.3143669177
 21
31.4326557675
  0
LINE
  8
0
 62
7
  6
CONTINUOUS
 10
154.0831168074
 20
31.1100188581
 11
153.9674919177
 21
30.9809641124
  0
LINE
  8
0
 62
7
  6
CONTINUOUS
 10
155.412804528
 20
30.9487004259
 11
155.3549915869
 21
30.8841730531
  0
LINE
  8
0
 62
7
  6
CONTINUOUS
 10
155.3549915869
 20
30.6905909007
 11
155.412804528
 21
30.7551182848
  0
LINE
  8
0
 62
7
  6
CONTINUOUS
 10
154.1987416972
 20
30.6583272086
 11
154.3143669177
 21
30.6260635193
  0
LINE
  8
0
 62
7
  6
CONTINUOUS
 10
151.1924917523
 20
31.5294468267
 11
150.9612418074
 21
31.5939741996
  0
LINE
  8
0
 62
7
  6
CONTINUOUS
 10
154.5456166972
 20
30.7228545871
 11
154.3143669177
 21
30.7873819712
  0
LINE
  8
0
 62
7
  6
CONTINUOUS
 10
153.2737419177
 20
31.5294468267
 11
153.1003044177
 21
31.5939741996
  0
LINE
  8
0
 62
7
  6
CONTINUOUS
 10
155.5284290869
 20
31.5294468267
 11
155.3549915869
 21
31.5939741996
  0
LINE
  8
0
 62
7
  6
CONTINUOUS
 10
158.187804528
 20
31.4326557675
 11
158.3034290869
 21
31.3681283946
  0
LINE
  8
0
 62
7
  6
CONTINUOUS
 10
158.534679528
 20
31.4649194539
 11
158.4190543074
 21
31.5294468267
  0
LINE
  8
0
 62
7
  6
CONTINUOUS
 10
150.0362418212
 20
30.6583272086
 11
150.2096793212
 21
30.6260635193
  0
LINE
  8
0
 62
7
  6
CONTINUOUS
 10
150.498741835
 20
30.7228545871
 11
150.1518667936
 21
30.7873819712
  0
LINE
  8
0
 62
7
  6
CONTINUOUS
 10
152.9268669177
 20
31.4649194539
 11
153.0424918074
 21
31.4326557675
  0
LINE
  8
0
 62
7
  6
CONTINUOUS
 10
155.239367028
 20
31.4649194539
 11
155.3549915869
 21
31.4326557675
  0
LINE
  8
0
 62
7
  6
CONTINUOUS
 10
159.575304528
 20
30.7551182848
 11
159.4596793074
 21
30.7873819712
  0
LINE
  8
0
 62
7
  6
CONTINUOUS
 10
158.0721793074
 20
31.4649194539
 11
158.187804528
 21
31.4326557675
  0
LINE
  8
0
 62
7
  6
CONTINUOUS
 10
159.228429528
 20
30.7228545871
 11
159.401867028
 21
30.6583272086
  0
LINE
  8
0
 62
7
  6
CONTINUOUS
 10
158.4190543074
 20
31.5294468267
 11
158.2456168074
 21
31.5939741996
  0
LINE
  8
0
 62
7
  6
CONTINUOUS
 10
159.6331168074
 20
31.2390736489
 11
159.4596793074
 21
31.3036010218
  0
LINE
  8
0
 62
7
  6
CONTINUOUS
 10
160.442492028
 20
30.9809641124
 11
160.615929528
 21
30.9164367395
  0
LINE
  8
0
 62
7
  6
CONTINUOUS
 10
160.8471793074
 20
31.4971831403
 11
160.6737418074
 21
31.5617105132
  0
LINE
  8
0
 62
7
  6
CONTINUOUS
 10
159.228429528
 20
31.2390736489
 11
159.4596793074
 21
31.1422825445
  0
LINE
  8
0
 62
7
  6
CONTINUOUS
 10
160.8471793074
 20
30.9809641124
 11
160.615929528
 21
31.0777551716
  0
LINE
  8
0
 62
7
  6
CONTINUOUS
 10
159.401867028
 20
31.3681283946
 11
159.4596793074
 21
31.4326557675
  0
LINE
  8
0
 62
7
  6
CONTINUOUS
 10
149.8628043005
 20
31.4971831403
 11
149.7471793074
 21
31.4326557675
  0
LINE
  8
0
 62
7
  6
CONTINUOUS
 10
149.9784292936
 20
31.3358647082
 11
150.1518667936
 21
31.4326557675
  0
LINE
  8
0
 62
7
  6
CONTINUOUS
 10
152.2909293626
 20
31.5294468267
 11
152.1753043074
 21
31.4649194539
  0
LINE
  8
0
 62
7
  6
CONTINUOUS
 10
152.1753043074
 20
31.3358647082
 11
152.2909293626
 21
31.400392081
  0
LINE
  8
0
 62
7
  6
CONTINUOUS
 10
151.1924917523
 20
30.6905909007
 11
151.3659292523
 21
30.7873819712
  0
LINE
  8
0
 62
7
  6
CONTINUOUS
 10
150.2096793212
 20
30.6260635193
 11
150.5565542799
 21
30.5937998301
  0
LINE
  8
0
 62
7
  6
CONTINUOUS
 10
154.3143669177
 20
30.6260635193
 11
154.5456166972
 21
30.5937998301
  0
LINE
  8
0
 62
7
  6
CONTINUOUS
 10
152.6956168074
 20
31.4971831403
 11
152.9268669177
 21
31.4649194539
  0
LINE
  8
0
 62
7
  6
CONTINUOUS
 10
155.0081169177
 20
31.4971831403
 11
155.239367028
 21
31.4649194539
  0
LINE
  8
0
 62
7
  6
CONTINUOUS
 10
159.4596793074
 20
31.1422825445
 11
160.442492028
 21
30.9809641124
  0
LINE
  8
0
 62
7
  6
CONTINUOUS
 10
160.615929528
 20
31.0777551716
 11
159.6331168074
 21
31.2390736489
  0
LINE
  8
0
 62
7
  6
CONTINUOUS
 10
153.1003044177
 20
31.5939741996
 11
152.9268669177
 21
31.626237886
  0
LINE
  8
0
 62
7
  6
CONTINUOUS
 10
159.401867028
 20
30.6583272086
 11
159.575304528
 21
30.6260635193
  0
LINE
  8
0
 62
7
  6
CONTINUOUS
 10
158.2456168074
 20
31.5939741996
 11
158.0721793074
 21
31.626237886
  0
LINE
  8
0
 62
7
  6
CONTINUOUS
 10
160.5003043074
 20
31.4649194539
 11
160.615929528
 21
31.4326557675
  0
LINE
  8
0
 62
7
  6
CONTINUOUS
 10
160.6737418074
 20
30.8519093441
 11
160.615929528
 21
30.7873819712
  0
LINE
  8
0
 62
7
  6
CONTINUOUS
 10
159.228429528
 20
31.5294468267
 11
159.1128043074
 21
31.4326557675
  0
LINE
  8
0
 62
7
  6
CONTINUOUS
 10
154.1409294177
 20
31.5617105132
 11
154.0253041972
 21
31.4971831403
  0
LINE
  8
0
 62
7
  6
CONTINUOUS
 10
154.1987416972
 20
31.1745462761
 11
154.0831168074
 21
31.1100188581
  0
LINE
  8
0
 62
7
  6
CONTINUOUS
 10
154.3143669177
 20
31.0132277988
 11
154.4299918074
 21
31.0777551716
  0
LINE
  8
0
 62
7
  6
CONTINUOUS
 10
151.8862417523
 20
30.5937998301
 11
152.1753043074
 21
30.5937998301
  0
LINE
  8
0
 62
7
  6
CONTINUOUS
 10
153.2159293074
 20
30.5937998301
 11
153.5049916972
 21
30.5937998301
  0
LINE
  8
0
 62
7
  6
CONTINUOUS
 10
154.5456166972
 20
30.5937998301
 11
154.8924916972
 21
30.5937998301
  0
LINE
  8
0
 62
7
  6
CONTINUOUS
 10
155.5284290869
 20
30.5937998301
 11
155.8174918074
 21
30.5937998301
  0
LINE
  8
0
 62
7
  6
CONTINUOUS
 10
156.279992028
 20
30.5937998301
 11
156.5690540869
 21
30.5937998301
  0
LINE
  8
0
 62
7
  6
CONTINUOUS
 10
157.0315543074
 20
30.5937998301
 11
157.320617028
 21
30.5937998301
  0
LINE
  8
0
 62
7
  6
CONTINUOUS
 10
158.361242028
 20
30.5937998301
 11
158.6503040869
 21
30.5937998301
  0
LINE
  8
0
 62
7
  6
CONTINUOUS
 10
159.922179528
 20
30.5937998301
 11
160.269054528
 21
30.5937998301
  0
LINE
  8
0
 62
7
  6
CONTINUOUS
 10
160.269054528
 20
30.7228545871
 11
159.922179528
 21
30.7228545871
  0
LINE
  8
0
 62
7
  6
CONTINUOUS
 10
154.8924916972
 20
30.7228545871
 11
154.5456166972
 21
30.7228545871
  0
LINE
  8
0
 62
7
  6
CONTINUOUS
 10
159.401867028
 20
30.8519093441
 11
159.1128043074
 21
30.8519093441
  0
LINE
  8
0
 62
7
  6
CONTINUOUS
 10
151.4237418626
 20
30.9164367395
 11
151.1346793074
 21
30.9164367395
  0
LINE
  8
0
 62
7
  6
CONTINUOUS
 10
150.498741835
 20
31.4971831403
 11
150.9034292799
 21
31.4649194539
  0
LINE
  8
0
 62
7
  6
CONTINUOUS
 10
150.9612418074
 20
31.5939741996
 11
150.5565542799
 21
31.626237886
  0
LINE
  8
0
 62
7
  6
CONTINUOUS
 10
159.575304528
 20
30.6260635193
 11
159.922179528
 21
30.5937998301
  0
LINE
  8
0
 62
7
  6
CONTINUOUS
 10
159.922179528
 20
30.7228545871
 11
159.575304528
 21
30.7551182848
  0
LINE
  8
0
 62
7
  6
CONTINUOUS
 10
155.3549915869
 20
31.5939741996
 11
155.0081169177
 21
31.626237886
  0
LINE
  8
0
 62
7
  6
CONTINUOUS
 10
160.1534293074
 20
31.4971831403
 11
160.5003043074
 21
31.4649194539
  0
LINE
  8
0
 62
7
  6
CONTINUOUS
 10
160.5003043074
 20
31.5939741996
 11
160.1534293074
 21
31.626237886
  0
LINE
  8
0
 62
7
  6
CONTINUOUS
 10
157.840929528
 20
31.4971831403
 11
158.0721793074
 21
31.4649194539
  0
LINE
  8
0
 62
7
  6
CONTINUOUS
 10
160.6737418074
 20
31.5617105132
 11
160.5003043074
 21
31.5939741996
  0
LINE
  8
0
 62
7
  6
CONTINUOUS
 10
160.8471793074
 20
30.6905909007
 11
160.9628038663
 21
30.7873819712
  0
LINE
  8
0
 62
7
  6
CONTINUOUS
 10
155.3549915869
 20
30.8841730531
 11
155.1815540869
 21
30.7873819712
  0
LINE
  8
0
 62
7
  6
CONTINUOUS
 10
157.4362415869
 20
31.5294468267
 11
157.320617028
 21
31.4649194539
  0
LINE
  8
0
 62
7
  6
CONTINUOUS
 10
157.320617028
 20
31.3358647082
 11
157.4362415869
 21
31.400392081
  0
LINE
  8
0
 62
7
  6
CONTINUOUS
 10
150.0362418212
 20
31.5617105132
 11
149.8628043005
 21
31.4971831403
  0
LINE
  8
0
 62
7
  6
CONTINUOUS
 10
152.4643666972
 20
31.5939741996
 11
152.2909293626
 21
31.5294468267
  0
LINE
  8
0
 62
7
  6
CONTINUOUS
 10
152.2909293626
 20
31.400392081
 11
152.4643666972
 21
31.4649194539
  0
LINE
  8
0
 62
7
  6
CONTINUOUS
 10
151.0768668626
 20
30.8196456577
 11
150.9034292799
 21
30.7551182848
  0
LINE
  8
0
 62
7
  6
CONTINUOUS
 10
160.5003043074
 20
30.7551182848
 11
160.269054528
 21
30.7228545871
  0
LINE
  8
0
 62
7
  6
CONTINUOUS
 10
154.8924916972
 20
30.5937998301
 11
155.1815540869
 21
30.6260635193
  0
LINE
  8
0
 62
7
  6
CONTINUOUS
 10
160.269054528
 20
30.5937998301
 11
160.615929528
 21
30.6260635193
  0
LINE
  8
0
 62
7
  6
CONTINUOUS
 10
150.5565542799
 20
30.5937998301
 11
150.9612418074
 21
30.6260635193
  0
LINE
  8
0
 62
7
  6
CONTINUOUS
 10
150.9034292799
 20
30.7551182848
 11
150.498741835
 21
30.7228545871
  0
LINE
  8
0
 62
7
  6
CONTINUOUS
 10
154.7768668074
 20
31.1422825445
 11
155.412804528
 21
31.1422825445
  0
LINE
  8
0
 62
7
  6
CONTINUOUS
 10
155.412804528
 20
31.2713373354
 11
154.7768668074
 21
31.2713373354
  0
LINE
  8
0
 62
7
  6
CONTINUOUS
 10
151.1346793074
 20
31.3036010218
 11
151.4237418626
 21
31.3036010218
  0
LINE
  8
0
 62
7
  6
CONTINUOUS
 10
153.9674919177
 20
31.3681283946
 11
154.2565543074
 21
31.3681283946
  0
LINE
  8
0
 62
7
  6
CONTINUOUS
 10
160.6737418074
 20
31.3681283946
 11
160.9628038663
 21
31.3681283946
  0
LINE
  8
0
 62
7
  6
CONTINUOUS
 10
154.6612419177
 20
31.4971831403
 11
155.0081169177
 21
31.4971831403
  0
LINE
  8
0
 62
7
  6
CONTINUOUS
 10
159.8065543074
 20
31.4971831403
 11
160.1534293074
 21
31.4971831403
  0
LINE
  8
0
 62
7
  6
CONTINUOUS
 10
160.1534293074
 20
31.626237886
 11
159.8065543074
 21
31.626237886
  0
LINE
  8
0
 62
7
  6
CONTINUOUS
 10
158.0721793074
 20
31.626237886
 11
157.840929528
 21
31.626237886
  0
LINE
  8
0
 62
7
  6
CONTINUOUS
 10
157.320617028
 20
31.626237886
 11
157.0315543074
 21
31.626237886
  0
LINE
  8
0
 62
7
  6
CONTINUOUS
 10
156.5690540869
 20
31.626237886
 11
156.279992028
 21
31.626237886
  0
LINE
  8
0
 62
7
  6
CONTINUOUS
 10
155.0081169177
 20
31.626237886
 11
154.6612419177
 21
31.626237886
  0
LINE
  8
0
 62
7
  6
CONTINUOUS
 10
152.9268669177
 20
31.626237886
 11
152.6956168074
 21
31.626237886
  0
LINE
  8
0
 62
7
  6
CONTINUOUS
 10
156.279992028
 20
31.9488748406
 11
156.5690540869
 21
31.9488748406
  0
LINE
  8
0
 62
7
  6
CONTINUOUS
 10
156.5690540869
 20
32.1101932727
 11
156.279992028
 21
32.1101932727
  0
LINE
  8
0
 62
7
  6
CONTINUOUS
 10
152.1753043074
 20
32.1101932727
 11
151.8862417523
 21
32.1101932727
  0
LINE
  8
0
 62
7
  6
CONTINUOUS
 10
151.2130860697
 20
32.3970785186
 11
151.6256574183
 21
32.3970785186
  0
LINE
  8
0
 62
7
  6
CONTINUOUS
 10
152.852430332
 20
32.3970785186
 11
154.245872955
 21
32.3970785186
  0
LINE
  8
0
 62
7
  6
CONTINUOUS
 10
154.5737418074
 20
32.3970785186
 11
155.9671844304
 21
32.3970785186
  0
LINE
  8
0
 62
7
  6
CONTINUOUS
 10
157.852430332
 20
32.3970785186
 11
159.245872955
 21
32.3970785186
  0
LINE
  8
0
 62
7
  6
CONTINUOUS
 10
159.5737418074
 20
32.3970785186
 11
160.9671844304
 21
32.3970785186
  0
LINE
  8
0
 62
7
  6
CONTINUOUS
 10
157.6096790869
 20
31.5939741996
 11
157.4362415869
 21
31.5294468267
  0
LINE
  8
0
 62
7
  6
CONTINUOUS
 10
155.1815540869
 20
30.6260635193
 11
155.3549915869
 21
30.6905909007
  0
LINE
  8
0
 62
7
  6
CONTINUOUS
 10
160.615929528
 20
30.6260635193
 11
160.8471793074
 21
30.6905909007
  0
LINE
  8
0
 62
7
  6
CONTINUOUS
 10
160.615929528
 20
30.7873819712
 11
160.5003043074
 21
30.7551182848
  0
LINE
  8
0
 62
7
  6
CONTINUOUS
 10
159.575304528
 20
31.4649194539
 11
159.8065543074
 21
31.4971831403
  0
LINE
  8
0
 62
7
  6
CONTINUOUS
 10
157.6096790869
 20
31.4649194539
 11
157.840929528
 21
31.4971831403
  0
LINE
  8
0
 62
7
  6
CONTINUOUS
 10
154.5456166972
 20
31.1100188581
 11
154.7768668074
 21
31.1422825445
  0
LINE
  8
0
 62
7
  6
CONTINUOUS
 10
157.840929528
 20
31.626237886
 11
157.6096790869
 21
31.5939741996
  0
LINE
  8
0
 62
7
  6
CONTINUOUS
 10
154.4299918074
 20
31.4649194539
 11
154.6612419177
 21
31.4971831403
  0
LINE
  8
0
 62
7
  6
CONTINUOUS
 10
159.8065543074
 20
31.626237886
 11
159.4596793074
 21
31.5939741996
  0
LINE
  8
0
 62
7
  6
CONTINUOUS
 10
154.7768668074
 20
31.2713373354
 11
154.4299918074
 21
31.2390736489
  0
LINE
  8
0
 62
7
  6
CONTINUOUS
 10
150.5565542799
 20
31.626237886
 11
150.2096793212
 21
31.5939741996
  0
LINE
  8
0
 62
7
  6
CONTINUOUS
 10
154.6612419177
 20
31.626237886
 11
154.2565543074
 21
31.5939741996
  0
LINE
  8
0
 62
7
  6
CONTINUOUS
 10
152.0327582009
 20
33.5446195022
 11
151.3770204959
 21
33.5446195022
  0
LINE
  8
0
 62
7
  6
CONTINUOUS
 10
157.4362415869
 20
31.400392081
 11
157.6096790869
 21
31.4649194539
  0
LINE
  8
0
 62
7
  6
CONTINUOUS
 10
159.4596793074
 20
31.4326557675
 11
159.575304528
 21
31.4649194539
  0
LINE
  8
0
 62
7
  6
CONTINUOUS
 10
159.4596793074
 20
31.5939741996
 11
159.228429528
 21
31.5294468267
  0
LINE
  8
0
 62
7
  6
CONTINUOUS
 10
155.1815540869
 20
30.7873819712
 11
154.8924916972
 21
30.7228545871
  0
LINE
  8
0
 62
7
  6
CONTINUOUS
 10
152.4643666972
 20
31.4649194539
 11
152.6956168074
 21
31.4971831403
  0
LINE
  8
0
 62
7
  6
CONTINUOUS
 10
152.6956168074
 20
31.626237886
 11
152.4643666972
 21
31.5939741996
  0
LINE
  8
0
 62
7
  6
CONTINUOUS
 10
150.2674918074
 20
31.4649194539
 11
150.498741835
 21
31.4971831403
  0
LINE
  8
0
 62
7
  6
CONTINUOUS
 10
156.7868565615
 20
35.0200293383
 11
157.4425942664
 21
35.0200293383
  0
LINE
  8
0
 62
7
  6
CONTINUOUS
 10
154.4299918074
 20
31.0777551716
 11
154.5456166972
 21
31.1100188581
  0
LINE
  8
0
 62
7
  6
CONTINUOUS
 10
154.4299918074
 20
31.2390736489
 11
154.1987416972
 21
31.1745462761
  0
LINE
  8
0
 62
7
  6
CONTINUOUS
 10
154.3143669177
 20
31.4326557675
 11
154.4299918074
 21
31.4649194539
  0
LINE
  8
0
 62
7
  6
CONTINUOUS
 10
150.9612418074
 20
30.6260635193
 11
151.1924917523
 21
30.6905909007
  0
LINE
  8
0
 62
7
  6
CONTINUOUS
 10
154.2565543074
 20
31.5939741996
 11
154.1409294177
 21
31.5617105132
  0
LINE
  8
0
 62
7
  6
CONTINUOUS
 10
150.2096793212
 20
31.5939741996
 11
150.0362418212
 21
31.5617105132
  0
LINE
  8
0
 62
7
  6
CONTINUOUS
 10
160.9671844304
 20
36.1675703219
 11
159.5737418074
 21
36.1675703219
  0
LINE
  8
0
 62
7
  6
CONTINUOUS
 10
157.6065286927
 20
36.1675703219
 11
157.1939573441
 21
36.1675703219
  0
LINE
  8
0
 62
7
  6
CONTINUOUS
 10
155.9671844304
 20
36.1675703219
 11
154.5737418074
 21
36.1675703219
  0
LINE
  8
0
 62
7
  6
CONTINUOUS
 10
154.245872955
 20
36.1675703219
 11
152.852430332
 21
36.1675703219
  0
LINE
  8
0
 62
7
  6
CONTINUOUS
 10
150.9671844304
 20
36.1675703219
 11
149.5737418074
 21
36.1675703219
  0
LINE
  8
0
 62
7
  6
CONTINUOUS
 10
150.1518667936
 20
31.4326557675
 11
150.2674918074
 21
31.4649194539
  0
CIRCLE
  8
0
 62
7
  6
CONTINUOUS
 10
160.2704631189
 20
38.5036358957
 40
2.0901639344
  0
ARC
  8
0
 62
7
  6
CONTINUOUS
 10
151.2130860697
 20
34.0364227809
 40
1.6393442623
 50
180.0
 51
270.0
  0
ARC
  8
0
 62
7
  6
CONTINUOUS
 10
157.6065286927
 20
34.5282260596
 40
1.6393442623
 50
0.0
 51
90.0
  0
ARC
  8
0
 62
7
  6
CONTINUOUS
 10
151.6256574183
 20
33.8724883547
 40
1.4754098361
 50
270.0
 51
326.2510114041
  0
ARC
  8
0
 62
7
  6
CONTINUOUS
 10
157.1939573441
 20
34.6921604858
 40
1.4754098361
 50
90.0
 51
146.2510114041
  0
ARC
  8
0
 62
7
  6
CONTINUOUS
 10
152.0327582009
 20
34.3642916334
 40
0.8196721311
 50
270.0
 51
360.0
  0
ARC
  8
0
 62
7
  6
CONTINUOUS
 10
156.7868565615
 20
34.2003572071
 40
0.8196721311
 50
90.0
 51
180.0
  0
ARC
  8
0
 62
7
  6
CONTINUOUS
 10
151.3770204959
 20
33.9544555678
 40
0.4098360656
 50
180.0
 51
270.0
  0
ARC
  8
0
 62
7
  6
CONTINUOUS
 10
157.4425942664
 20
34.6101932727
 40
0.4098360656
 50
0.0
 51
90.0
  0
SOLID
  8
0
 62
7
  6
CONTINUOUS
 10
156.279992028
 20
31.9488752009
 11
156.279992028
 21
32.1101936845
 12
156.5690540869
 22
31.9488752009
 13
156.5690540869
 23
32.1101936845
  0
SOLID
  8
0
 62
7
  6
CONTINUOUS
 10
150.5565542799
 20
31.6262382337
 11
150.9612418074
 21
31.5939740028
 12
150.2096793212
 22
31.5939740028
 13
150.2096793212
 23
31.5939740028
  0
SOLID
  8
0
 62
7
  6
CONTINUOUS
 10
150.0362418212
 20
31.5617111435
 11
150.2096793212
 21
31.5939740028
 12
150.9612418074
 22
31.5939740028
 13
150.9612418074
 23
31.5939740028
  0
SOLID
  8
0
 62
7
  6
CONTINUOUS
 10
150.9612418074
 20
31.5939740028
 11
151.1924917523
 21
31.5294468402
 12
150.0362418212
 22
31.5617111435
 13
150.0362418212
 23
31.5617111435
  0
SOLID
  8
0
 62
7
  6
CONTINUOUS
 10
149.8628043005
 20
31.49718259
 11
150.0362418212
 21
31.5617111435
 12
151.1924917523
 22
31.5294468402
 13
151.1924917523
 23
31.5294468402
  0
SOLID
  8
0
 62
7
  6
CONTINUOUS
 10
149.8628043005
 20
31.49718259
 11
151.1924917523
 21
31.5294468402
 12
150.498741835
 22
31.49718259
 13
150.498741835
 23
31.49718259
  0
SOLID
  8
0
 62
7
  6
CONTINUOUS
 10
150.498741835
 20
31.49718259
 11
151.1924917523
 21
31.5294468402
 12
150.9034292799
 22
31.4649197501
 13
150.9034292799
 23
31.4649197501
  0
SOLID
  8
0
 62
7
  6
CONTINUOUS
 10
151.1924917523
 20
31.5294468402
 11
151.3659292523
 21
31.4326554468
 12
150.9034292799
 22
31.4649197501
 13
150.9034292799
 23
31.4649197501
  0
SOLID
  8
0
 62
7
  6
CONTINUOUS
 10
151.0768668626
 20
31.4003926599
 11
150.9034292799
 21
31.4649197501
 12
151.3659292523
 22
31.4326554468
 13
151.3659292523
 23
31.4326554468
  0
SOLID
  8
0
 62
7
  6
CONTINUOUS
 10
151.0768668626
 20
31.4003926599
 11
151.3659292523
 21
31.4326554468
 12
151.1346793074
 22
31.3036013776
 13
151.1346793074
 23
31.3036013776
  0
SOLID
  8
0
 62
7
  6
CONTINUOUS
 10
151.3659292523
 20
31.4326554468
 11
151.4237418626
 21
31.3036013776
 12
151.1346793074
 22
31.3036013776
 13
151.1346793074
 23
31.3036013776
  0
SOLID
  8
0
 62
7
  6
CONTINUOUS
 10
152.4643666972
 20
31.5939739754
 11
152.6956168074
 21
31.6262382787
 12
152.9268669177
 22
31.6262382787
 13
152.9268669177
 23
31.6262382787
  0
SOLID
  8
0
 62
7
  6
CONTINUOUS
 10
152.9268669177
 20
31.6262382787
 11
153.1003044177
 21
31.5939739754
 12
152.4643666972
 22
31.5939739754
 13
152.4643666972
 23
31.5939739754
  0
SOLID
  8
0
 62
7
  6
CONTINUOUS
 10
152.2909293626
 20
31.5294468852
 11
152.4643666972
 21
31.5939739754
 12
153.1003044177
 22
31.5939739754
 13
153.1003044177
 23
31.5939739754
  0
SOLID
  8
0
 62
7
  6
CONTINUOUS
 10
153.1003044177
 20
31.5939739754
 11
153.2737419177
 21
31.5294468852
 12
152.2909293626
 22
31.5294468852
 13
152.2909293626
 23
31.5294468852
  0
SOLID
  8
0
 62
7
  6
CONTINUOUS
 10
153.2737419177
 20
31.5294468852
 11
152.6956168074
 21
31.4971825369
 12
152.2909293626
 22
31.5294468852
 13
152.2909293626
 23
31.5294468852
  0
SOLID
  8
0
 62
7
  6
CONTINUOUS
 10
152.1753043074
 20
31.4649197951
 11
152.2909293626
 21
31.5294468852
 12
152.6956168074
 22
31.4971825369
 13
152.6956168074
 23
31.4971825369
  0
SOLID
  8
0
 62
7
  6
CONTINUOUS
 10
152.6956168074
 20
31.4971825369
 11
152.4643666972
 21
31.4649197951
 12
152.1753043074
 22
31.4649197951
 13
152.1753043074
 23
31.4649197951
  0
SOLID
  8
0
 62
7
  6
CONTINUOUS
 10
152.6956168074
 20
31.4971825369
 11
153.2737419177
 21
31.5294468852
 12
152.9268669177
 22
31.4649197951
 13
152.9268669177
 23
31.4649197951
  0
SOLID
  8
0
 62
7
  6
CONTINUOUS
 10
153.2737419177
 20
31.5294468852
 11
153.3893668074
 21
31.4649197951
 12
152.9268669177
 22
31.4649197951
 13
152.9268669177
 23
31.4649197951
  0
SOLID
  8
0
 62
7
  6
CONTINUOUS
 10
153.0424918074
 20
31.4326554468
 11
152.9268669177
 21
31.4649197951
 12
153.3893668074
 22
31.4649197951
 13
153.3893668074
 23
31.4649197951
  0
SOLID
  8
0
 62
7
  6
CONTINUOUS
 10
153.3893668074
 20
31.4649197951
 11
153.4471794177
 21
31.4003927049
 12
153.0424918074
 22
31.4326554468
 13
153.0424918074
 23
31.4326554468
  0
SOLID
  8
0
 62
7
  6
CONTINUOUS
 10
153.1581166972
 20
31.3681283566
 11
153.0424918074
 21
31.4326554468
 12
153.4471794177
 22
31.4003927049
 13
153.4471794177
 23
31.4003927049
  0
SOLID
  8
0
 62
7
  6
CONTINUOUS
 10
153.1581166972
 20
31.3681283566
 11
153.4471794177
 21
31.4003927049
 12
153.2159293074
 22
31.2390742213
 13
153.2159293074
 23
31.2390742213
  0
SOLID
  8
0
 62
7
  6
CONTINUOUS
 10
153.4471794177
 20
31.4003927049
 11
153.5049916972
 21
31.2390742213
 12
153.2159293074
 22
31.2390742213
 13
153.2159293074
 23
31.2390742213
  0
SOLID
  8
0
 62
7
  6
CONTINUOUS
 10
152.4643666972
 20
31.4649197951
 11
152.2909293626
 21
31.4003927049
 12
152.1753043074
 22
31.4649197951
 13
152.1753043074
 23
31.4649197951
  0
SOLID
  8
0
 62
7
  6
CONTINUOUS
 10
152.2909293626
 20
31.4003927049
 11
152.1753043074
 21
31.3358640533
 12
152.1753043074
 22
31.4649197951
 13
152.1753043074
 23
31.4649197951
  0
SOLID
  8
0
 62
7
  6
CONTINUOUS
 10
152.1753043074
 20
31.3358640533
 11
151.8862417523
 21
30.5938002869
 12
152.1753043074
 22
31.4649197951
 13
152.1753043074
 23
31.4649197951
  0
SOLID
  8
0
 62
7
  6
CONTINUOUS
 10
152.1753043074
 20
31.4649197951
 11
151.8862417523
 21
30.5938002869
 12
152.1753043074
 22
32.1101937295
 13
152.1753043074
 23
32.1101937295
  0
SOLID
  8
0
 62
7
  6
CONTINUOUS
 10
151.8862417523
 20
30.5938002869
 11
151.8862417523
 21
32.1101937295
 12
152.1753043074
 22
32.1101937295
 13
152.1753043074
 23
32.1101937295
  0
SOLID
  8
0
 62
7
  6
CONTINUOUS
 10
152.1753043074
 20
31.3358640533
 11
152.1753043074
 21
30.5938002869
 12
151.8862417523
 22
30.5938002869
 13
151.8862417523
 23
30.5938002869
  0
SOLID
  8
0
 62
7
  6
CONTINUOUS
 10
153.2159293074
 20
30.5938002869
 11
153.2159293074
 21
31.2390742213
 12
153.5049916972
 22
31.2390742213
 13
153.5049916972
 23
31.2390742213
  0
SOLID
  8
0
 62
7
  6
CONTINUOUS
 10
153.5049916972
 20
31.2390742213
 11
153.5049916972
 21
30.5938002869
 12
153.2159293074
 22
30.5938002869
 13
153.2159293074
 23
30.5938002869
  0
SOLID
  8
0
 62
7
  6
CONTINUOUS
 10
154.2565543074
 20
31.5939738288
 11
154.6612419177
 21
31.6262385959
 12
155.0081169177
 22
31.6262385959
 13
155.0081169177
 23
31.6262385959
  0
SOLID
  8
0
 62
7
  6
CONTINUOUS
 10
155.0081169177
 20
31.6262385959
 11
155.3549915869
 21
31.5939738288
 12
154.2565543074
 22
31.5939738288
 13
154.2565543074
 23
31.5939738288
  0
SOLID
  8
0
 62
7
  6
CONTINUOUS
 10
154.1409294177
 20
31.5617111435
 11
154.2565543074
 21
31.5939738288
 12
155.3549915869
 22
31.5939738288
 13
155.3549915869
 23
31.5939738288
  0
SOLID
  8
0
 62
7
  6
CONTINUOUS
 10
155.3549915869
 20
31.5939738288
 11
155.5284290869
 21
31.5294468402
 12
154.1409294177
 22
31.5617111435
 13
154.1409294177
 23
31.5617111435
  0
SOLID
  8
0
 62
7
  6
CONTINUOUS
 10
154.0253041972
 20
31.4971826249
 11
154.1409294177
 21
31.5617111435
 12
155.5284290869
 22
31.5294468402
 13
155.5284290869
 23
31.5294468402
  0
SOLID
  8
0
 62
7
  6
CONTINUOUS
 10
154.0253041972
 20
31.4971826249
 11
155.5284290869
 21
31.5294468402
 12
154.6612419177
 22
31.4971826249
 13
154.6612419177
 23
31.4971826249
  0
SOLID
  8
0
 62
7
  6
CONTINUOUS
 10
154.6612419177
 20
31.4971826249
 11
155.5284290869
 21
31.5294468402
 12
155.0081169177
 22
31.4971826249
 13
155.0081169177
 23
31.4971826249
  0
SOLID
  8
0
 62
7
  6
CONTINUOUS
 10
155.0081169177
 20
31.4971826249
 11
155.5284290869
 21
31.5294468402
 12
155.239367028
 22
31.4649194065
 13
155.239367028
 23
31.4649194065
  0
SOLID
  8
0
 62
7
  6
CONTINUOUS
 10
155.5284290869
 20
31.5294468402
 11
155.6440543074
 21
31.4649194065
 12
155.239367028
 22
31.4649194065
 13
155.239367028
 23
31.4649194065
  0
SOLID
  8
0
 62
7
  6
CONTINUOUS
 10
153.9674919177
 20
31.4326554138
 11
154.0253041972
 21
31.4971826249
 12
154.6612419177
 22
31.4971826249
 13
154.6612419177
 23
31.4971826249
  0
SOLID
  8
0
 62
7
  6
CONTINUOUS
 10
155.3549915869
 20
31.4326554138
 11
155.239367028
 21
31.4649194065
 12
155.6440543074
 22
31.4649194065
 13
155.6440543074
 23
31.4649194065
  0
SOLID
  8
0
 62
7
  6
CONTINUOUS
 10
155.3549915869
 20
31.4326554138
 11
155.6440543074
 21
31.4649194065
 12
155.412804528
 22
31.3681282026
 13
155.412804528
 23
31.3681282026
  0
SOLID
  8
0
 62
7
  6
CONTINUOUS
 10
155.6440543074
 20
31.4649194065
 11
155.7018665869
 21
31.3681282026
 12
155.412804528
 22
31.3681282026
 13
155.412804528
 23
31.3681282026
  0
SOLID
  8
0
 62
7
  6
CONTINUOUS
 10
155.412804528
 20
31.2713369632
 11
155.412804528
 21
31.3681282026
 12
155.7018665869
 22
31.3681282026
 13
155.7018665869
 23
31.3681282026
  0
SOLID
  8
0
 62
7
  6
CONTINUOUS
 10
155.412804528
 20
31.2713369632
 11
155.7018665869
 21
31.3681282026
 12
155.412804528
 22
31.1422827828
 13
155.412804528
 23
31.1422827828
  0
SOLID
  8
0
 62
7
  6
CONTINUOUS
 10
155.412804528
 20
31.1422827828
 11
155.7018665869
 21
31.3681282026
 12
155.412804528
 22
30.9487004259
 13
155.412804528
 23
30.9487004259
  0
SOLID
  8
0
 62
7
  6
CONTINUOUS
 10
155.7018665869
 20
31.3681282026
 11
155.7018665869
 21
30.8519086025
 12
155.412804528
 22
30.9487004259
 13
155.412804528
 23
30.9487004259
  0
SOLID
  8
0
 62
7
  6
CONTINUOUS
 10
157.6096790869
 20
31.5939736268
 11
157.840929528
 21
31.6262383465
 12
158.0721793074
 22
31.6262383465
 13
158.0721793074
 23
31.6262383465
  0
SOLID
  8
0
 62
7
  6
CONTINUOUS
 10
158.0721793074
 20
31.6262383465
 11
158.2456168074
 21
31.5939736268
 12
157.6096790869
 22
31.5939736268
 13
157.6096790869
 23
31.5939736268
  0
SOLID
  8
0
 62
7
  6
CONTINUOUS
 10
157.4362415869
 20
31.5294472848
 11
157.6096790869
 21
31.5939736268
 12
158.2456168074
 22
31.5939736268
 13
158.2456168074
 23
31.5939736268
  0
SOLID
  8
0
 62
7
  6
CONTINUOUS
 10
158.2456168074
 20
31.5939736268
 11
158.4190543074
 21
31.5294472848
 12
157.4362415869
 22
31.5294472848
 13
157.4362415869
 23
31.5294472848
  0
SOLID
  8
0
 62
7
  6
CONTINUOUS
 10
158.4190543074
 20
31.5294472848
 11
157.840929528
 21
31.4971825369
 12
157.4362415869
 22
31.5294472848
 13
157.4362415869
 23
31.5294472848
  0
SOLID
  8
0
 62
7
  6
CONTINUOUS
 10
157.320617028
 20
31.4649199103
 11
157.4362415869
 21
31.5294472848
 12
157.840929528
 22
31.4971825369
 13
157.840929528
 23
31.4971825369
  0
SOLID
  8
0
 62
7
  6
CONTINUOUS
 10
157.840929528
 20
31.4971825369
 11
157.6096790869
 21
31.4649199103
 12
157.320617028
 22
31.4649199103
 13
157.320617028
 23
31.4649199103
  0
SOLID
  8
0
 62
7
  6
CONTINUOUS
 10
157.840929528
 20
31.4971825369
 11
158.4190543074
 21
31.5294472848
 12
158.0721793074
 22
31.4649199103
 13
158.0721793074
 23
31.4649199103
  0
SOLID
  8
0
 62
7
  6
CONTINUOUS
 10
158.4190543074
 20
31.5294472848
 11
158.534679528
 21
31.4649199103
 12
158.0721793074
 22
31.4649199103
 13
158.0721793074
 23
31.4649199103
  0
SOLID
  8
0
 62
7
  6
CONTINUOUS
 10
158.187804528
 20
31.4326554468
 11
158.0721793074
 21
31.4649199103
 12
158.534679528
 22
31.4649199103
 13
158.534679528
 23
31.4649199103
  0
SOLID
  8
0
 62
7
  6
CONTINUOUS
 10
158.187804528
 20
31.4326554468
 11
158.534679528
 21
31.4649199103
 12
158.3034290869
 22
31.3681288486
 13
158.3034290869
 23
31.3681288486
  0
SOLID
  8
0
 62
7
  6
CONTINUOUS
 10
158.534679528
 20
31.4649199103
 11
158.5924918074
 21
31.3681288486
 12
158.3034290869
 22
31.3681288486
 13
158.3034290869
 23
31.3681288486
  0
SOLID
  8
0
 62
7
  6
CONTINUOUS
 10
158.361242028
 20
31.2068093799
 11
158.3034290869
 21
31.3681288486
 12
158.5924918074
 22
31.3681288486
 13
158.5924918074
 23
31.3681288486
  0
SOLID
  8
0
 62
7
  6
CONTINUOUS
 10
158.5924918074
 20
31.3681288486
 11
158.6503040869
 21
31.2068093799
 12
158.361242028
 22
31.2068093799
 13
158.361242028
 23
31.2068093799
  0
SOLID
  8
0
 62
7
  6
CONTINUOUS
 10
157.6096790869
 20
31.4649199103
 11
157.4362415869
 21
31.4003926599
 12
157.320617028
 22
31.4649199103
 13
157.320617028
 23
31.4649199103
  0
SOLID
  8
0
 62
7
  6
CONTINUOUS
 10
157.4362415869
 20
31.4003926599
 11
157.320617028
 21
31.3358640533
 12
157.320617028
 22
31.4649199103
 13
157.320617028
 23
31.4649199103
  0
SOLID
  8
0
 62
7
  6
CONTINUOUS
 10
157.320617028
 20
31.3358640533
 11
157.0315543074
 21
30.5938003547
 12
157.320617028
 22
31.4649199103
 13
157.320617028
 23
31.4649199103
  0
SOLID
  8
0
 62
7
  6
CONTINUOUS
 10
157.320617028
 20
31.4649199103
 11
157.0315543074
 21
30.5938003547
 12
157.320617028
 22
31.6262383465
 13
157.320617028
 23
31.6262383465
  0
SOLID
  8
0
 62
7
  6
CONTINUOUS
 10
157.0315543074
 20
30.5938003547
 11
157.0315543074
 21
31.6262383465
 12
157.320617028
 22
31.6262383465
 13
157.320617028
 23
31.6262383465
  0
SOLID
  8
0
 62
7
  6
CONTINUOUS
 10
157.320617028
 20
31.3358640533
 11
157.320617028
 21
30.5938003547
 12
157.0315543074
 22
30.5938003547
 13
157.0315543074
 23
30.5938003547
  0
SOLID
  8
0
 62
7
  6
CONTINUOUS
 10
158.361242028
 20
30.5938003547
 11
158.361242028
 21
31.2068093799
 12
158.6503040869
 22
31.2068093799
 13
158.6503040869
 23
31.2068093799
  0
SOLID
  8
0
 62
7
  6
CONTINUOUS
 10
158.6503040869
 20
31.2068093799
 11
158.6503040869
 21
30.5938003547
 12
158.361242028
 22
30.5938003547
 13
158.361242028
 23
30.5938003547
  0
SOLID
  8
0
 62
7
  6
CONTINUOUS
 10
159.4596793074
 20
31.5939739474
 11
159.8065543074
 21
31.6262381969
 12
160.1534293074
 22
31.6262381969
 13
160.1534293074
 23
31.6262381969
  0
SOLID
  8
0
 62
7
  6
CONTINUOUS
 10
160.1534293074
 20
31.6262381969
 11
160.5003043074
 21
31.5939739474
 12
159.4596793074
 22
31.5939739474
 13
159.4596793074
 23
31.5939739474
  0
SOLID
  8
0
 62
7
  6
CONTINUOUS
 10
159.228429528
 20
31.5294468402
 11
159.4596793074
 21
31.5939739474
 12
160.5003043074
 22
31.5939739474
 13
160.5003043074
 23
31.5939739474
  0
SOLID
  8
0
 62
7
  6
CONTINUOUS
 10
159.228429528
 20
31.5294468402
 11
160.5003043074
 21
31.5939739304
 12
160.6737418074
 22
31.5617111435
 13
160.6737418074
 23
31.5617111435
  0
SOLID
  8
0
 62
7
  6
CONTINUOUS
 10
159.228429528
 20
31.5294468402
 11
160.6737418074
 21
31.5617111435
 12
159.8065543074
 22
31.4971825592
 13
159.8065543074
 23
31.4971825592
  0
SOLID
  8
0
 62
7
  6
CONTINUOUS
 10
159.8065543074
 20
31.4971825592
 11
160.6737418074
 21
31.5617111435
 12
160.1534293074
 22
31.4971825592
 13
160.1534293074
 23
31.4971825592
  0
SOLID
  8
0
 62
7
  6
CONTINUOUS
 10
160.6737418074
 20
31.5617111435
 11
160.8471793074
 21
31.4971825592
 12
160.1534293074
 22
31.4971825592
 13
160.1534293074
 23
31.4971825592
  0
SOLID
  8
0
 62
7
  6
CONTINUOUS
 10
160.5003043074
 20
31.4649197501
 11
160.1534293074
 21
31.4971825592
 12
160.8471793074
 22
31.4971825592
 13
160.8471793074
 23
31.4971825592
  0
SOLID
  8
0
 62
7
  6
CONTINUOUS
 10
159.1128043074
 20
31.4326555427
 11
159.228429528
 21
31.5294468402
 12
159.8065543074
 22
31.4971825592
 13
159.8065543074
 23
31.4971825592
  0
SOLID
  8
0
 62
7
  6
CONTINUOUS
 10
160.5003043074
 20
31.4649197501
 11
160.8471793074
 21
31.4971825592
 12
160.615929528
 22
31.4326555427
 13
160.615929528
 23
31.4326555427
  0
SOLID
  8
0
 62
7
  6
CONTINUOUS
 10
160.615929528
 20
31.4326555427
 11
160.8471793074
 21
31.4971825592
 12
160.6737418074
 22
31.3681283005
 13
160.6737418074
 23
31.3681283005
  0
SOLID
  8
0
 62
7
  6
CONTINUOUS
 10
160.8471793074
 20
31.4971825592
 11
160.9628038663
 21
31.3681283005
 12
160.6737418074
 22
31.3681283005
 13
160.6737418074
 23
31.3681283005
  0
SOLID
  8
0
 62
7
  6
CONTINUOUS
 10
150.2674918074
 20
31.4649197501
 11
149.7471793074
 21
31.4326554237
 12
150.498741835
 22
31.4971824493
 13
150.498741835
 23
31.4971824493
  0
SOLID
  8
0
 62
7
  6
CONTINUOUS
 10
149.7471793074
 20
31.4326554237
 11
149.8628043005
 21
31.4971824493
 12
150.498741835
 22
31.4971824493
 13
150.498741835
 23
31.4971824493
  0
SOLID
  8
0
 62
7
  6
CONTINUOUS
 10
150.2674918074
 20
31.4649197501
 11
150.1518667936
 21
31.4326554237
 12
149.7471793074
 22
31.4326554237
 13
149.7471793074
 23
31.4326554237
  0
SOLID
  8
0
 62
7
  6
CONTINUOUS
 10
149.6315543091
 20
31.3036012664
 11
149.7471793074
 21
31.4326554237
 12
150.1518667936
 22
31.4326554237
 13
150.1518667936
 23
31.4326554237
  0
SOLID
  8
0
 62
7
  6
CONTINUOUS
 10
153.9674919177
 20
31.4326554237
 11
154.6612419177
 21
31.4971825369
 12
154.4299918074
 22
31.4649197501
 13
154.4299918074
 23
31.4649197501
  0
SOLID
  8
0
 62
7
  6
CONTINUOUS
 10
154.4299918074
 20
31.4649197501
 11
154.3143669177
 21
31.4326554237
 12
153.9674919177
 22
31.4326554237
 13
153.9674919177
 23
31.4326554237
  0
SOLID
  8
0
 62
7
  6
CONTINUOUS
 10
153.9674919177
 20
31.3681283335
 11
153.9674919177
 21
31.4326554237
 12
154.3143669177
 22
31.4326554237
 13
154.3143669177
 23
31.4326554237
  0
SOLID
  8
0
 62
7
  6
CONTINUOUS
 10
154.3143669177
 20
31.4326554237
 11
154.2565543074
 21
31.3681283335
 12
153.9674919177
 22
31.3681283335
 13
153.9674919177
 23
31.3681283335
  0
SOLID
  8
0
 62
7
  6
CONTINUOUS
 10
159.1128043074
 20
31.4326555528
 11
159.8065543074
 21
31.4971825369
 12
159.575304528
 22
31.4649197501
 13
159.575304528
 23
31.4649197501
  0
SOLID
  8
0
 62
7
  6
CONTINUOUS
 10
159.575304528
 20
31.4649197501
 11
159.4596793074
 21
31.4326555528
 12
159.1128043074
 22
31.4326555528
 13
159.1128043074
 23
31.4326555528
  0
SOLID
  8
0
 62
7
  6
CONTINUOUS
 10
159.1128043074
 20
31.3681284626
 11
159.1128043074
 21
31.4326555528
 12
159.4596793074
 22
31.4326555528
 13
159.4596793074
 23
31.4326555528
  0
SOLID
  8
0
 62
7
  6
CONTINUOUS
 10
159.4596793074
 20
31.4326555528
 11
159.401867028
 21
31.3681284626
 12
159.1128043074
 22
31.3681284626
 13
159.1128043074
 23
31.3681284626
  0
SOLID
  8
0
 62
7
  6
CONTINUOUS
 10
159.228429528
 20
31.2390741763
 11
159.1128043074
 21
31.3681284626
 12
159.401867028
 22
31.3681284626
 13
159.401867028
 23
31.3681284626
  0
SOLID
  8
0
 62
7
  6
CONTINUOUS
 10
149.6315543091
 20
31.3036012664
 11
150.1518667936
 21
31.4326554468
 12
149.9784292936
 22
31.3358640533
 13
149.9784292936
 23
31.3358640533
  0
SOLID
  8
0
 62
7
  6
CONTINUOUS
 10
149.9784292936
 20
31.3358640533
 11
149.9206168074
 21
31.2713369632
 12
149.6315543091
 22
31.3036012664
 13
149.6315543091
 23
31.3036012664
  0
SOLID
  8
0
 62
7
  6
CONTINUOUS
 10
149.5737418074
 20
31.1100184796
 11
149.6315543091
 21
31.3036012664
 12
149.9206168074
 22
31.2713369632
 13
149.9206168074
 23
31.2713369632
  0
SOLID
  8
0
 62
7
  6
CONTINUOUS
 10
154.4299918074
 20
31.2390741763
 11
154.7768668074
 21
31.271336924
 12
155.412804528
 22
31.271336924
 13
155.412804528
 23
31.271336924
  0
SOLID
  8
0
 62
7
  6
CONTINUOUS
 10
154.4299918074
 20
31.2390741763
 11
155.412804528
 21
31.271336924
 12
154.1987416972
 22
31.1745462761
 13
154.1987416972
 23
31.1745462761
  0
SOLID
  8
0
 62
7
  6
CONTINUOUS
 10
154.1987416972
 20
31.1745462761
 11
155.412804528
 21
31.271336924
 12
154.7768668074
 22
31.1422827436
 13
154.7768668074
 23
31.1422827436
  0
SOLID
  8
0
 62
7
  6
CONTINUOUS
 10
155.412804528
 20
31.271336924
 11
155.412804528
 21
31.1422827436
 12
154.7768668074
 22
31.1422827436
 13
154.7768668074
 23
31.1422827436
  0
SOLID
  8
0
 62
7
  6
CONTINUOUS
 10
159.228429528
 20
31.2390745501
 11
159.401867028
 21
31.3681283566
 12
159.4596793074
 22
31.3036012664
 13
159.4596793074
 23
31.3036012664
  0
SOLID
  8
0
 62
7
  6
CONTINUOUS
 10
159.4596793074
 20
31.3036012664
 11
159.6331168074
 21
31.2390745501
 12
159.228429528
 22
31.2390745501
 13
159.228429528
 23
31.2390745501
  0
SOLID
  8
0
 62
7
  6
CONTINUOUS
 10
159.4596793074
 20
31.1422827828
 11
159.228429528
 21
31.2390745501
 12
159.6331168074
 22
31.2390745501
 13
159.6331168074
 23
31.2390745501
  0
SOLID
  8
0
 62
7
  6
CONTINUOUS
 10
159.6331168074
 20
31.2390745501
 11
160.615929528
 21
31.0777556927
 12
159.4596793074
 22
31.1422827828
 13
159.4596793074
 23
31.1422827828
  0
SOLID
  8
0
 62
7
  6
CONTINUOUS
 10
160.442492028
 20
30.9809646623
 11
159.4596793074
 21
31.1422827828
 12
160.615929528
 22
31.0777556927
 13
160.615929528
 23
31.0777556927
  0
SOLID
  8
0
 62
7
  6
CONTINUOUS
 10
160.615929528
 20
31.0777556927
 11
160.8471793074
 21
30.9809646623
 12
160.442492028
 22
30.9809646623
 13
160.442492028
 23
30.9809646623
  0
SOLID
  8
0
 62
7
  6
CONTINUOUS
 10
160.615929528
 20
30.9164372091
 11
160.442492028
 21
30.9809646623
 12
160.8471793074
 22
30.9809646623
 13
160.8471793074
 23
30.9809646623
  0
SOLID
  8
0
 62
7
  6
CONTINUOUS
 10
160.615929528
 20
30.9164372091
 11
160.8471793074
 21
30.9809646623
 12
160.6737418074
 22
30.8519089441
 13
160.6737418074
 23
30.8519089441
  0
SOLID
  8
0
 62
7
  6
CONTINUOUS
 10
160.8471793074
 20
30.9809646623
 11
160.9628038663
 21
30.8519089441
 12
160.6737418074
 22
30.8519089441
 13
160.6737418074
 23
30.8519089441
  0
SOLID
  8
0
 62
7
  6
CONTINUOUS
 10
160.615929528
 20
30.7873818593
 11
160.6737418074
 21
30.8519089441
 12
160.9628038663
 22
30.8519089441
 13
160.9628038663
 23
30.8519089441
  0
SOLID
  8
0
 62
7
  6
CONTINUOUS
 10
160.9628038663
 20
30.8519089441
 11
160.9628038663
 21
30.7873818593
 12
160.615929528
 22
30.7873818593
 13
160.615929528
 23
30.7873818593
  0
SOLID
  8
0
 62
7
  6
CONTINUOUS
 10
160.5003043074
 20
30.7551187255
 11
160.615929528
 21
30.7873818593
 12
160.9628038663
 22
30.7873818593
 13
160.9628038663
 23
30.7873818593
  0
SOLID
  8
0
 62
7
  6
CONTINUOUS
 10
160.5003043074
 20
30.7551187255
 11
160.9628038663
 21
30.7873818593
 12
160.269054528
 22
30.7228547745
 13
160.269054528
 23
30.7228547745
  0
SOLID
  8
0
 62
7
  6
CONTINUOUS
 10
160.9628038663
 20
30.7873818593
 11
160.8471793074
 21
30.6905916353
 12
160.269054528
 22
30.7228547745
 13
160.269054528
 23
30.7228547745
  0
SOLID
  8
0
 62
7
  6
CONTINUOUS
 10
160.8471793074
 20
30.6905916353
 11
159.401867028
 21
30.658327332
 12
160.269054528
 22
30.7228547745
 13
160.269054528
 23
30.7228547745
  0
SOLID
  8
0
 62
7
  6
CONTINUOUS
 10
160.269054528
 20
30.7228547745
 11
159.401867028
 21
30.658327332
 12
159.922179528
 22
30.7228547745
 13
159.922179528
 23
30.7228547745
  0
SOLID
  8
0
 62
7
  6
CONTINUOUS
 10
159.401867028
 20
30.658327332
 11
159.228429528
 21
30.7228547745
 12
159.922179528
 22
30.7228547745
 13
159.922179528
 23
30.7228547745
  0
SOLID
  8
0
 62
7
  6
CONTINUOUS
 10
159.401867028
 20
30.658327332
 11
160.8471793074
 21
30.6905916353
 12
159.575304528
 22
30.6260629858
 13
159.575304528
 23
30.6260629858
  0
SOLID
  8
0
 62
7
  6
CONTINUOUS
 10
160.8471793074
 20
30.6905916353
 11
160.615929528
 21
30.6260629858
 12
159.575304528
 22
30.6260629858
 13
159.575304528
 23
30.6260629858
  0
SOLID
  8
0
 62
7
  6
CONTINUOUS
 10
159.922179528
 20
30.5938006049
 11
159.575304528
 21
30.6260629858
 12
160.615929528
 22
30.6260629858
 13
160.615929528
 23
30.6260629858
  0
SOLID
  8
0
 62
7
  6
CONTINUOUS
 10
160.615929528
 20
30.6260629858
 11
160.269054528
 21
30.5938006049
 12
159.922179528
 22
30.5938006049
 13
159.922179528
 23
30.5938006049
  0
SOLID
  8
0
 62
7
  6
CONTINUOUS
 10
149.5737418074
 20
31.1100184796
 11
149.9206168074
 21
31.2713369632
 12
149.8628043005
 22
31.1422827828
 13
149.8628043005
 23
31.1422827828
  0
SOLID
  8
0
 62
7
  6
CONTINUOUS
 10
149.8628043005
 20
31.1422827828
 11
149.8628043005
 21
31.0454914852
 12
149.5737418074
 22
31.1100184796
 13
149.5737418074
 23
31.1100184796
  0
SOLID
  8
0
 62
7
  6
CONTINUOUS
 10
149.6315543091
 20
30.9164372091
 11
149.5737418074
 21
31.1100184796
 12
149.8628043005
 22
31.0454914852
 13
149.8628043005
 23
31.0454914852
  0
SOLID
  8
0
 62
7
  6
CONTINUOUS
 10
149.8628043005
 20
31.0454914852
 11
149.9784292936
 21
30.8841729058
 12
149.6315543091
 22
30.9164372091
 13
149.6315543091
 23
30.9164372091
  0
SOLID
  8
0
 62
7
  6
CONTINUOUS
 10
149.7471793074
 20
30.7873813202
 11
149.6315543091
 21
30.9164372091
 12
149.9784292936
 22
30.8841729058
 13
149.9784292936
 23
30.8841729058
  0
SOLID
  8
0
 62
7
  6
CONTINUOUS
 10
149.9784292936
 20
30.8841729058
 11
150.1518667936
 21
30.7873813202
 12
149.7471793074
 22
30.7873813202
 13
149.7471793074
 23
30.7873813202
  0
SOLID
  8
0
 62
7
  6
CONTINUOUS
 10
149.8628043005
 20
30.7228547004
 11
149.7471793074
 21
30.7873813202
 12
150.1518667936
 22
30.7873813202
 13
150.1518667936
 23
30.7873813202
  0
SOLID
  8
0
 62
7
  6
CONTINUOUS
 10
150.1518667936
 20
30.7873813202
 11
150.498741835
 21
30.7228547004
 12
149.8628043005
 22
30.7228547004
 13
149.8628043005
 23
30.7228547004
  0
SOLID
  8
0
 62
7
  6
CONTINUOUS
 10
150.0362418212
 20
30.658327332
 11
149.8628043005
 21
30.7228547004
 12
150.498741835
 22
30.7228547004
 13
150.498741835
 23
30.7228547004
  0
SOLID
  8
0
 62
7
  6
CONTINUOUS
 10
154.0831168074
 20
31.1100184386
 11
154.1987416972
 21
31.1745462761
 12
154.7768668074
 22
31.1422827828
 13
154.7768668074
 23
31.1422827828
  0
SOLID
  8
0
 62
7
  6
CONTINUOUS
 10
154.7768668074
 20
31.1422827828
 11
154.5456166972
 21
31.1100184386
 12
154.0831168074
 22
31.1100184386
 13
154.0831168074
 23
31.1100184386
  0
SOLID
  8
0
 62
7
  6
CONTINUOUS
 10
153.9674919177
 20
30.9809642992
 11
154.0831168074
 21
31.1100184386
 12
154.5456166972
 22
31.1100184386
 13
154.5456166972
 23
31.1100184386
  0
SOLID
  8
0
 62
7
  6
CONTINUOUS
 10
154.3143669177
 20
31.0132277988
 11
153.9674919177
 21
30.9809642992
 12
154.4299918074
 22
31.0777556927
 13
154.4299918074
 23
31.0777556927
  0
SOLID
  8
0
 62
7
  6
CONTINUOUS
 10
153.9674919177
 20
30.9809642992
 11
154.5456166972
 21
31.1100184796
 12
154.4299918074
 22
31.0777556927
 13
154.4299918074
 23
31.0777556927
  0
SOLID
  8
0
 62
7
  6
CONTINUOUS
 10
154.3143669177
 20
31.0132277988
 11
154.2565543074
 21
30.9164372091
 12
153.9674919177
 22
30.9809642992
 13
153.9674919177
 23
30.9809642992
  0
SOLID
  8
0
 62
7
  6
CONTINUOUS
 10
153.9674919177
 20
30.8841729058
 11
153.9674919177
 21
30.9809642992
 12
154.2565543074
 22
30.9164372091
 13
154.2565543074
 23
30.9164372091
  0
SOLID
  8
0
 62
7
  6
CONTINUOUS
 10
154.2565543074
 20
30.9164372091
 11
154.2565543074
 21
30.8519086025
 12
153.9674919177
 22
30.8841729058
 13
153.9674919177
 23
30.8841729058
  0
SOLID
  8
0
 62
7
  6
CONTINUOUS
 10
154.0253041972
 20
30.7551187255
 11
153.9674919177
 21
30.8841729058
 12
154.2565543074
 22
30.8519086025
 13
154.2565543074
 23
30.8519086025
  0
SOLID
  8
0
 62
7
  6
CONTINUOUS
 10
155.412804528
 20
30.9487004259
 11
155.7018665869
 21
30.8519086025
 12
155.3549915869
 22
30.8841729058
 13
155.3549915869
 23
30.8841729058
  0
SOLID
  8
0
 62
7
  6
CONTINUOUS
 10
155.1815540869
 20
30.7873815123
 11
155.3549915869
 21
30.8841729058
 12
155.7018665869
 22
30.8519086025
 13
155.7018665869
 23
30.8519086025
  0
SOLID
  8
0
 62
7
  6
CONTINUOUS
 10
155.1815540869
 20
30.7873815123
 11
155.7018665869
 21
30.8519086025
 12
155.412804528
 22
30.7551187255
 13
155.412804528
 23
30.7551187255
  0
SOLID
  8
0
 62
7
  6
CONTINUOUS
 10
155.7018665869
 20
30.8519086025
 11
155.759679528
 21
30.6905916353
 12
155.412804528
 22
30.7551187255
 13
155.412804528
 23
30.7551187255
  0
SOLID
  8
0
 62
7
  6
CONTINUOUS
 10
155.4706168074
 20
30.658327332
 11
155.412804528
 21
30.7551187255
 12
155.759679528
 22
30.6905916353
 13
155.759679528
 23
30.6905916353
  0
SOLID
  8
0
 62
7
  6
CONTINUOUS
 10
155.4706168074
 20
30.658327332
 11
155.759679528
 21
30.6905916353
 12
155.5284290869
 22
30.5938002079
 13
155.5284290869
 23
30.5938002079
  0
SOLID
  8
0
 62
7
  6
CONTINUOUS
 10
155.759679528
 20
30.6905916353
 11
155.8174918074
 21
30.5938002079
 12
155.5284290869
 22
30.5938002079
 13
155.5284290869
 23
30.5938002079
  0
SOLID
  8
0
 62
7
  6
CONTINUOUS
 10
151.0768668626
 20
30.8196456577
 11
151.1346793074
 21
30.9164373395
 12
151.4237418626
 22
30.9164373395
 13
151.4237418626
 23
30.9164373395
  0
SOLID
  8
0
 62
7
  6
CONTINUOUS
 10
151.4237418626
 20
30.9164373395
 11
151.3659292523
 21
30.7873815123
 12
151.0768668626
 22
30.8196456577
 13
151.0768668626
 23
30.8196456577
  0
SOLID
  8
0
 62
7
  6
CONTINUOUS
 10
150.9034292799
 20
30.7551187255
 11
151.0768668626
 21
30.8196456577
 12
151.3659292523
 22
30.7873815123
 13
151.3659292523
 23
30.7873815123
  0
SOLID
  8
0
 62
7
  6
CONTINUOUS
 10
150.9034292799
 20
30.7551187255
 11
151.3659292523
 21
30.7873815123
 12
150.498741835
 22
30.7228544222
 13
150.498741835
 23
30.7228544222
  0
SOLID
  8
0
 62
7
  6
CONTINUOUS
 10
151.3659292523
 20
30.7873815123
 11
151.1924917523
 21
30.6905916353
 12
150.498741835
 22
30.7228544222
 13
150.498741835
 23
30.7228544222
  0
SOLID
  8
0
 62
7
  6
CONTINUOUS
 10
150.0362418212
 20
30.658327332
 11
150.498741835
 21
30.7228544222
 12
151.1924917523
 22
30.6905916353
 13
151.1924917523
 23
30.6905916353
  0
SOLID
  8
0
 62
7
  6
CONTINUOUS
 10
150.0362418212
 20
30.658327332
 11
151.1924917523
 21
30.6905916353
 12
150.2096793212
 22
30.6260631011
 13
150.2096793212
 23
30.6260631011
  0
SOLID
  8
0
 62
7
  6
CONTINUOUS
 10
151.1924917523
 20
30.6905916353
 11
150.9612418074
 21
30.6260631011
 12
150.2096793212
 22
30.6260631011
 13
150.2096793212
 23
30.6260631011
  0
SOLID
  8
0
 62
7
  6
CONTINUOUS
 10
150.5565542799
 20
30.5938002419
 11
150.2096793212
 21
30.6260631011
 12
150.9612418074
 22
30.6260631011
 13
150.9612418074
 23
30.6260631011
  0
SOLID
  8
0
 62
7
  6
CONTINUOUS
 10
154.0253041972
 20
30.7551187255
 11
154.2565543074
 21
30.8519086025
 12
154.3143669177
 22
30.7873815123
 13
154.3143669177
 23
30.7873815123
  0
SOLID
  8
0
 62
7
  6
CONTINUOUS
 10
154.3143669177
 20
30.7873815123
 11
154.5456166972
 21
30.7228544222
 12
154.0253041972
 22
30.7551187255
 13
154.0253041972
 23
30.7551187255
  0
SOLID
  8
0
 62
7
  6
CONTINUOUS
 10
154.1987416972
 20
30.658327332
 11
154.0253041972
 21
30.7551187255
 12
154.5456166972
 22
30.7228544222
 13
154.5456166972
 23
30.7228544222
  0
SOLID
  8
0
 62
7
  6
CONTINUOUS
 10
154.8924916972
 20
30.7228544637
 11
155.1815540869
 21
30.7873815123
 12
155.412804528
 22
30.7551187255
 13
155.412804528
 23
30.7551187255
  0
SOLID
  8
0
 62
7
  6
CONTINUOUS
 10
155.412804528
 20
30.7551187255
 11
155.3549915869
 21
30.6905916353
 12
154.8924916972
 22
30.7228544637
 13
154.8924916972
 23
30.7228544637
  0
SOLID
  8
0
 62
7
  6
CONTINUOUS
 10
155.3549915869
 20
30.6905916353
 11
154.1987416972
 21
30.658327332
 12
154.8924916972
 22
30.7228544637
 13
154.8924916972
 23
30.7228544637
  0
SOLID
  8
0
 62
7
  6
CONTINUOUS
 10
154.1987416972
 20
30.658327332
 11
154.5456166972
 21
30.7228544637
 12
154.8924916972
 22
30.7228544637
 13
154.8924916972
 23
30.7228544637
  0
SOLID
  8
0
 62
7
  6
CONTINUOUS
 10
154.1987416972
 20
30.658327332
 11
155.3549915869
 21
30.6905916353
 12
154.3143669177
 22
30.6260630541
 13
154.3143669177
 23
30.6260630541
  0
SOLID
  8
0
 62
7
  6
CONTINUOUS
 10
155.3549915869
 20
30.6905916353
 11
155.1815540869
 21
30.6260630541
 12
154.3143669177
 22
30.6260630541
 13
154.3143669177
 23
30.6260630541
  0
SOLID
  8
0
 62
7
  6
CONTINUOUS
 10
154.5456166972
 20
30.5938002188
 11
154.3143669177
 21
30.6260630541
 12
155.1815540869
 22
30.6260630541
 13
155.1815540869
 23
30.6260630541
  0
SOLID
  8
0
 62
7
  6
CONTINUOUS
 10
155.1815540869
 20
30.6260630541
 11
154.8924916972
 21
30.5938002188
 12
154.5456166972
 22
30.5938002188
 13
154.5456166972
 23
30.5938002188
  0
SOLID
  8
0
 62
7
  6
CONTINUOUS
 10
159.575304528
 20
30.7551187255
 11
159.228429528
 21
30.7228544637
 12
159.4596793074
 22
30.7873815123
 13
159.4596793074
 23
30.7873815123
  0
SOLID
  8
0
 62
7
  6
CONTINUOUS
 10
159.4596793074
 20
30.7873815123
 11
159.228429528
 21
30.7228544637
 12
159.401867028
 22
30.851908644
 13
159.401867028
 23
30.851908644
  0
SOLID
  8
0
 62
7
  6
CONTINUOUS
 10
159.228429528
 20
30.7228544637
 11
159.1128043074
 21
30.851908644
 12
159.401867028
 22
30.851908644
 13
159.401867028
 23
30.851908644
  0
SOLID
  8
0
 62
7
  6
CONTINUOUS
 10
159.575304528
 20
30.7551187255
 11
159.922179528
 21
30.7228544637
 12
159.228429528
 22
30.7228544637
 13
159.228429528
 23
30.7228544637
  0
SOLID
  8
0
 62
7
  6
CONTINUOUS
 10
156.279992028
 20
30.5938002419
 11
156.279992028
 21
31.6262382337
 12
156.5690540869
 22
30.5938002419
 13
156.5690540869
 23
31.6262382337
  0
ENDBLK
  8
0
  6
BYBLOCK
 62
0
  0
BLOCK
  8
0
 62
2
  6
CONTINUOUS
  2
AMMEAAL_LOGO_BL0
 70
64
 10
32.1213064866
 20
19.8534310916
  0
TEXT
  8
0
 62
7
  6
CONTINUOUS
 10
18.3860103289
 20
19.2268451992
  7
TEXTSTYLE_3
 40
2.7338706658
  1
Ammeraal Beltech
 41
1.0
 51
15.0
 72
0
  0
TEXT
  8
0
 62
7
  6
CONTINUOUS
 10
29.1868111546
 20
16.9533085264
  7
TEXTSTYLE_4
 40
1.0935482663
  1
Innovation & Service in Belting
 41
1.0
 72
0
  0
LINE
  8
0
 62
7
  6
CONTINUOUS
 10
12.3614696776
 20
19.9934385078
 11
13.1396216709
 21
23.6543558055
  0
LINE
  8
0
 62
7
  6
CONTINUOUS
 10
23.2347899607
 20
27.3177497171
 11
13.6274394139
 21
24.1961322958
  0
LINE
  8
0
 62
7
  6
CONTINUOUS
 10
12.5867530099
 20
19.3000877048
 11
20.093828271
 21
12.5406867788
  0
LINE
  8
0
 62
7
  6
CONTINUOUS
 10
12.8492874206
 20
20.5352149982
 11
23.6575567857
 21
24.0470345971
  0
LINE
  8
0
 62
7
  6
CONTINUOUS
 10
23.6533516486
 20
13.6972460334
 11
15.2078919798
 21
21.3015720751
  0
LINE
  8
0
 62
7
  6
CONTINUOUS
 10
24.1731743684
 20
26.4728246013
 11
23.1966148312
 21
21.8784731989
  0
LINE
  8
0
 62
7
  6
CONTINUOUS
 10
22.4968128835
 20
18.5861638851
 11
21.810364672
 21
15.3566789607
  0
LINE
  8
0
 62
7
  6
CONTINUOUS
 10
24.8542704669
 20
14.087448211
 11
25.8105020025
 21
18.5861638851
  0
LINE
  8
0
 62
7
  6
CONTINUOUS
 10
26.5103039502
 20
21.8784731989
 11
26.9545457526
 21
23.9684665583
  0
LINE
  8
0
 62
7
  6
CONTINUOUS
 10
20.8069293463
 20
12.3891124661
 11
24.3664527239
 21
13.5456717207
  0
LINE
  8
0
 62
7
  6
CONTINUOUS
 10
23.9478910361
 20
27.1661754044
 11
26.7292624203
 21
24.6618173613
  0
ARC
  8
0
 62
7
  6
CONTINUOUS
 10
13.8527227462
 20
23.5027814928
 40
0.7290321776
 50
108.0
 51
168.0
  0
ARC
  8
0
 62
7
  6
CONTINUOUS
 10
23.4600732931
 20
26.624398914
 40
0.7290321776
 50
348.0
 51
108.0
  0
ARC
  8
0
 62
7
  6
CONTINUOUS
 10
26.2414446773
 20
24.120040871
 40
0.7290321776
 50
348.0
 51
48.0
  0
ARC
  8
0
 62
7
  6
CONTINUOUS
 10
20.581646014
 20
13.0824632691
 40
0.7290321776
 50
228.0
 51
288.0
  0
ARC
  8
0
 62
7
  6
CONTINUOUS
 10
13.0745707529
 20
19.8418641951
 40
0.7290321776
 50
108.0
 51
228.0
  0
ARC
  8
0
 62
7
  6
CONTINUOUS
 10
24.1411693916
 20
14.2390225237
 40
0.7290321776
 50
228.0
 51
348.0
  0
ENDBLK
  8
0
  6
BYBLOCK
 62
0
  0
ENDSEC
  0
SECTION
  2
ENTITIES
  0
TEXT
  8
0
 62
5
  6
CONTINUOUS
 10
96.0
 20
25.636
  7
TEXTSTYLE_2
 40
2.8
  1
Scale :
 41
0.6
 51
0.000019
 72
0
  0
TEXT
  8
0
 62
5
  6
CONTINUOUS
 10
116.0
 20
25.636
  7
TEXTSTYLE_2
 40
2.8
  1
Belt type:
 41
0.6
 51
0.000019
 72
0
  0
INSERT
  8
0
 62
2
  6
CONTINUOUS
  2
AMMEAAL_LOGO_BL0
 10
32.1213064866
 20
19.8534310916
  0
INSERT
  8
0
 62
2
  6
CONTINUOUS
  2
UNI_LOGO2_BL1
 10
173.5956734183
 20
35.5937998301
  0
LINE
  8
0
 62
2
  6
CONTINUOUS
 10
10.0
 20
30.0
 11
200.0
 21
30.0
  0
LINE
  8
0
 62
2
  6
CONTINUOUS
 10
10.0
 20
30.0
 11
10.0
 21
10.0
  0
LINE
  8
0
 62
2
  6
CONTINUOUS
 10
10.0
 20
10.0
 11
200.0
 21
10.0
  0
LINE
  8
0
 62
2
  6
CONTINUOUS
 10
95.0
 20
30.0
 11
95.0
 21
10.0
  0
LINE
  8
0
 62
2
  6
CONTINUOUS
 10
115.0
 20
30.0
 11
115.0
 21
10.0
  0
LINE
  8
0
 62
2
  6
CONTINUOUS
 10
200.0
 20
30.0
 11
200.0
 21
10.0
  0
TEXT
  8
0
 62
5
  6
CONTINUOUS
 10
13.0
 20
23.303
  7
TEXTSTYLE_5
 40
1.52
  1
                                                                     Ammeraal Beltech Modular A/S
 41
1.0
 72
0
  0
TEXT
  8
0
 62
5
  6
CONTINUOUS
 10
13.0
 20
20.595
  7
TEXTSTYLE_5
 40
1.5
  1
                                                                      Hjulmagervej 21,  7100 Vejle,  DK
 41
1.0
 72
0
  0
TEXT
  8
0
 62
5
  6
CONTINUOUS
 10
13.0
 20
17.881
  7
TEXTSTYLE_5
 40
1.495
  1
                                                                      tel: 
 41
1.0
 72
0
  0
TEXT
  8
0
 62
5
  6
CONTINUOUS
 10
57.9869465649
 20
17.881
  7
TEXTSTYLE_5
 40
1.51
  1
+45 75723100     fax: +45 75723348
 41
1.0
 72
0
  0
TEXT
  8
0
 62
5
  6
CONTINUOUS
 10
13.0
 20
15.177
  7
TEXTSTYLE_5
 40
1.5
  1
                                                                      admin@unichains.dk  www.unichains.com
 41
1.0
 72
0
  0
TEXT
  8
0
 62
5
  6
CONTINUOUS
 10
99.75
 20
13.75
  7
TEXTSTYLE_6
 40
5.0
  1
1:1
 41
0.7
 72
1
 11
105.0
 21
13.75
  0
TEXT
  8
0
 62
5
  6
CONTINUOUS
 10
118.0
 20
13.75
  7
TEXTSTYLE_7
 40
7.5
  1
uni Light EP-00-K400
 41
0.5078125
 72
0
  0
LINE
  8
0
 62
7
  6
CONTINUOUS
 10
210.0
 20
0.0
 11
0.0
 21
0.0
  0
LINE
  8
0
 62
7
  6
CONTINUOUS
 10
10.0
 20
10.0
 11
200.0
 21
10.0
  0
LINE
  8
0
 62
7
  6
CONTINUOUS
 10
10.0
 20
30.0
 11
200.0
 21
30.0
  0
LINE
  8
0
 62
7
  6
CONTINUOUS
 10
0.0
 20
0.0
 11
0.0
 21
297.0
  0
LINE
  8
0
 62
7
  6
CONTINUOUS
 10
10.0
 20
10.0
 11
10.0
 21
287.0
  0
LINE
  8
0
 62
7
  6
CONTINUOUS
 10
200.0
 20
287.0
 11
200.0
 21
10.0
  0
LINE
  8
0
 62
7
  6
CONTINUOUS
 10
210.0
 20
0.0
 11
210.0
 21
297.0
  0
LINE
  8
0
 62
7
  6
CONTINUOUS
 10
10.0
 20
287.0
 11
200.0
 21
287.0
  0
LINE
  8
0
 62
7
  6
CONTINUOUS
 10
0.0
 20
297.0
 11
210.0
 21
297.0
  0
POLYLINE
  8
0
 62
7
  6
CONTINUOUS
 66
1
 70
0
  0
VERTEX
  8
0
 62
7
  6
CONTINUOUS
 10
27.6008075101
 20
149.3961105877
  0
VERTEX
  8
0
 62
7
  6
CONTINUOUS
 10
27.6142608557
 20
149.5113162871
  0
VERTEX
  8
0
 62
7
  6
CONTINUOUS
 10
27.6518844048
 20
149.6162651824
  0
VERTEX
  8
0
 62
7
  6
CONTINUOUS
 10
27.7105192778
 20
149.7086407395
  0
VERTEX
  8
0
 62
7
  6
CONTINUOUS
 10
27.7878876191
 20
149.7860864099
  0
VERTEX
  8
0
 62
7
  6
CONTINUOUS
 10
27.8770114511
 20
149.8432295026
  0
VERTEX
  8
0
 62
7
  6
CONTINUOUS
 10
27.9821313047
 20
149.8818223935
  0
VERTEX
  8
0
 62
7
  6
CONTINUOUS
 10
28.1008075101
 20
149.8961105877
  0
SEQEND
  0
LINE
  8
0
 62
7
  6
CONTINUOUS
 10
27.4008075101
 20
119.0104149031
 11
27.4008075101
 21
147.8266664043
  0
LINE
  8
0
 62
7
  6
CONTINUOUS
 10
27.6008075101
 20
149.3961105877
 11
27.6008075101
 21
111.6704149031
  0
POLYLINE
  8
0
 62
7
  6
CONTINUOUS
 66
1
 70
0
  0
VERTEX
  8
0
 62
7
  6
CONTINUOUS
 10
30.6508079666
 20
150.8784286257
  0
VERTEX
  8
0
 62
7
  6
CONTINUOUS
 10
30.6473375199
 20
150.7517826786
  0
VERTEX
  8
0
 62
7
  6
CONTINUOUS
 10
30.6347281593
 20
150.6135105786
  0
VERTEX
  8
0
 62
7
  6
CONTINUOUS
 10
30.6125040167
 20
150.4818628714
  0
VERTEX
  8
0
 62
7
  6
CONTINUOUS
 10
30.5805875261
 20
150.358856247
  0
VERTEX
  8
0
 62
7
  6
CONTINUOUS
 10
30.5392580926
 20
150.2464526099
  0
VERTEX
  8
0
 62
7
  6
CONTINUOUS
 10
30.4891906725
 20
150.1466056319
  0
VERTEX
  8
0
 62
7
  6
CONTINUOUS
 10
30.4311671643
 20
150.0608156786
  0
VERTEX
  8
0
 62
7
  6
CONTINUOUS
 10
30.3657542034
 20
149.990341907
  0
VERTEX
  8
0
 62
7
  6
CONTINUOUS
 10
30.2941015134
 20
149.9374910522
  0
VERTEX
  8
0
 62
7
  6
CONTINUOUS
 10
30.218238873
 20
149.9052651367
  0
VERTEX
  8
0
 62
7
  6
CONTINUOUS
 10
30.1508075101
 20
149.8961106688
  0
SEQEND
  0
POLYLINE
  8
0
 62
7
  6
CONTINUOUS
 66
1
 70
0
  0
VERTEX
  8
0
 62
7
  6
CONTINUOUS
 10
30.6508075101
 20
154.7351597745
  0
VERTEX
  8
0
 62
7
  6
CONTINUOUS
 10
30.6651072306
 20
154.7543961521
  0
VERTEX
  8
0
 62
7
  6
CONTINUOUS
 10
30.7073456325
 20
154.772311559
  0
VERTEX
  8
0
 62
7
  6
CONTINUOUS
 10
30.7753394129
 20
154.7879417926
  0
VERTEX
  8
0
 62
7
  6
CONTINUOUS
 10
30.8178878301
 20
154.7946341315
  0
VERTEX
  8
0
 62
7
  6
CONTINUOUS
 10
30.9170957874
 20
154.8053306188
  0
VERTEX
  8
0
 62
7
  6
CONTINUOUS
 10
31.0302627238
 20
154.8119910914
  0
VERTEX
  8
0
 62
7
  6
CONTINUOUS
 10
31.1508075101
 20
154.8142553842
  0
SEQEND
  0
LINE
  8
0
 62
7
  6
CONTINUOUS
 10
30.4008075101
 20
111.6704149031
 11
30.4008075101
 21
118.0424293941
  0
LINE
  8
0
 62
7
  6
CONTINUOUS
 10
30.6508075101
 20
157.2504149031
 11
30.6508075101
 21
150.8784004655
  0
POLYLINE
  8
0
 62
7
  6
CONTINUOUS
 66
1
 70
0
  0
VERTEX
  8
0
 62
7
  6
CONTINUOUS
 10
30.4008073009
 20
118.042392313
  0
VERTEX
  8
0
 62
7
  6
CONTINUOUS
 10
30.4042776918
 20
118.1690509393
  0
VERTEX
  8
0
 62
7
  6
CONTINUOUS
 10
30.4168872687
 20
118.3073244715
  0
VERTEX
  8
0
 62
7
  6
CONTINUOUS
 10
30.4391113813
 20
118.4389695396
  0
VERTEX
  8
0
 62
7
  6
CONTINUOUS
 10
30.4710275751
 20
118.561974239
  0
VERTEX
  8
0
 62
7
  6
CONTINUOUS
 10
30.5123571333
 20
118.6743777586
  0
VERTEX
  8
0
 62
7
  6
CONTINUOUS
 10
30.5624242611
 20
118.7742240571
  0
VERTEX
  8
0
 62
7
  6
CONTINUOUS
 10
30.6204482472
 20
118.8600144747
  0
VERTEX
  8
0
 62
7
  6
CONTINUOUS
 10
30.685860987
 20
118.9304881228
  0
VERTEX
  8
0
 62
7
  6
CONTINUOUS
 10
30.757514303
 20
118.9833392792
  0
VERTEX
  8
0
 62
7
  6
CONTINUOUS
 10
30.8333799054
 20
119.0155656779
  0
VERTEX
  8
0
 62
7
  6
CONTINUOUS
 10
30.9008075101
 20
119.0247191356
  0
SEQEND
  0
LINE
  8
0
 62
7
  6
CONTINUOUS
 10
27.4008075101
 20
119.0104149031
 11
27.6008075101
 21
118.8104149031
  0
POLYLINE
  8
0
 62
7
  6
CONTINUOUS
 66
1
 70
0
  0
VERTEX
  8
0
 62
7
  6
CONTINUOUS
 10
37.0008075101
 20
114.1856700318
  0
VERTEX
  8
0
 62
7
  6
CONTINUOUS
 10
37.0151072306
 20
114.1664336542
  0
VERTEX
  8
0
 62
7
  6
CONTINUOUS
 10
37.0573456325
 20
114.1485182473
  0
VERTEX
  8
0
 62
7
  6
CONTINUOUS
 10
37.1253394129
 20
114.1328880137
  0
VERTEX
  8
0
 62
7
  6
CONTINUOUS
 10
37.1678878301
 20
114.1261956748
  0
VERTEX
  8
0
 62
7
  6
CONTINUOUS
 10
37.2670957874
 20
114.1154991875
  0
VERTEX
  8
0
 62
7
  6
CONTINUOUS
 10
37.3802627238
 20
114.1088387149
  0
VERTEX
  8
0
 62
7
  6
CONTINUOUS
 10
37.5008075101
 20
114.1065744221
  0
SEQEND
  0
LINE
  8
0
 62
7
  6
CONTINUOUS
 10
36.7508075101
 20
150.5747853018
 11
36.7508075101
 21
157.2504149031
  0
LINE
  8
0
 62
7
  6
CONTINUOUS
 10
37.0008075101
 20
118.0424293408
 11
37.0008075101
 21
111.6704149031
  0
LINE
  8
0
 62
7
  6
CONTINUOUS
 10
43.1008075101
 20
111.6704149031
 11
43.1008075101
 21
118.3460445045
  0
LINE
  8
0
 62
7
  6
CONTINUOUS
 10
43.3508075101
 20
157.2504149031
 11
43.3508075101
 21
150.8784004655
  0
POLYLINE
  8
0
 62
7
  6
CONTINUOUS
 66
1
 70
0
  0
VERTEX
  8
0
 62
7
  6
CONTINUOUS
 10
43.3508079666
 20
150.8784286257
  0
VERTEX
  8
0
 62
7
  6
CONTINUOUS
 10
43.3473375199
 20
150.7517826786
  0
VERTEX
  8
0
 62
7
  6
CONTINUOUS
 10
43.3347281593
 20
150.6135105786
  0
VERTEX
  8
0
 62
7
  6
CONTINUOUS
 10
43.3125040167
 20
150.4818628714
  0
VERTEX
  8
0
 62
7
  6
CONTINUOUS
 10
43.2805875261
 20
150.358856247
  0
VERTEX
  8
0
 62
7
  6
CONTINUOUS
 10
43.2392580926
 20
150.2464526099
  0
VERTEX
  8
0
 62
7
  6
CONTINUOUS
 10
43.1891906725
 20
150.1466056319
  0
VERTEX
  8
0
 62
7
  6
CONTINUOUS
 10
43.1311671643
 20
150.0608156786
  0
VERTEX
  8
0
 62
7
  6
CONTINUOUS
 10
43.0657542034
 20
149.990341907
  0
VERTEX
  8
0
 62
7
  6
CONTINUOUS
 10
42.9941015134
 20
149.9374910522
  0
VERTEX
  8
0
 62
7
  6
CONTINUOUS
 10
42.918238873
 20
149.9052651367
  0
VERTEX
  8
0
 62
7
  6
CONTINUOUS
 10
42.8508075101
 20
149.8961106688
  0
SEQEND
  0
POLYLINE
  8
0
 62
7
  6
CONTINUOUS
 66
1
 70
0
  0
VERTEX
  8
0
 62
7
  6
CONTINUOUS
 10
43.1008073006
 20
118.042392229
  0
VERTEX
  8
0
 62
7
  6
CONTINUOUS
 10
43.1042776919
 20
118.1690509628
  0
VERTEX
  8
0
 62
7
  6
CONTINUOUS
 10
43.1168872707
 20
118.3073245032
  0
VERTEX
  8
0
 62
7
  6
CONTINUOUS
 10
43.1391113829
 20
118.4389695489
  0
VERTEX
  8
0
 62
7
  6
CONTINUOUS
 10
43.1710275744
 20
118.5619742367
  0
VERTEX
  8
0
 62
7
  6
CONTINUOUS
 10
43.2123571314
 20
118.6743777534
  0
VERTEX
  8
0
 62
7
  6
CONTINUOUS
 10
43.2624242506
 20
118.774224038
  0
VERTEX
  8
0
 62
7
  6
CONTINUOUS
 10
43.3204482484
 20
118.8600144707
  0
VERTEX
  8
0
 62
7
  6
CONTINUOUS
 10
43.3858609622
 20
118.9304880997
  0
VERTEX
  8
0
 62
7
  6
CONTINUOUS
 10
43.4575142894
 20
118.983339272
  0
VERTEX
  8
0
 62
7
  6
CONTINUOUS
 10
43.5333799082
 20
119.0155656786
  0
VERTEX
  8
0
 62
7
  6
CONTINUOUS
 10
43.6008075101
 20
119.024719136
  0
SEQEND
  0
POLYLINE
  8
0
 62
7
  6
CONTINUOUS
 66
1
 70
0
  0
VERTEX
  8
0
 62
7
  6
CONTINUOUS
 10
56.0508075101
 20
154.7351597745
  0
VERTEX
  8
0
 62
7
  6
CONTINUOUS
 10
56.0651072306
 20
154.7543961521
  0
VERTEX
  8
0
 62
7
  6
CONTINUOUS
 10
56.1073456325
 20
154.772311559
  0
VERTEX
  8
0
 62
7
  6
CONTINUOUS
 10
56.1753394129
 20
154.7879417926
  0
VERTEX
  8
0
 62
7
  6
CONTINUOUS
 10
56.2178878301
 20
154.7946341315
  0
VERTEX
  8
0
 62
7
  6
CONTINUOUS
 10
56.3170957874
 20
154.8053306188
  0
VERTEX
  8
0
 62
7
  6
CONTINUOUS
 10
56.4302627238
 20
154.8119910914
  0
VERTEX
  8
0
 62
7
  6
CONTINUOUS
 10
56.5508075101
 20
154.8142553842
  0
SEQEND
  0
LINE
  8
0
 62
7
  6
CONTINUOUS
 10
49.4508075101
 20
150.878400412
 11
49.4508075101
 21
157.2504149031
  0
LINE
  8
0
 62
7
  6
CONTINUOUS
 10
49.7008075101
 20
111.6704149031
 11
49.7008075101
 21
118.0424293408
  0
LINE
  8
0
 62
7
  6
CONTINUOUS
 10
55.8008075101
 20
111.6704149031
 11
55.8008075101
 21
118.0424293941
  0
LINE
  8
0
 62
7
  6
CONTINUOUS
 10
56.0508075101
 20
157.2504149031
 11
56.0508075101
 21
150.8784004655
  0
POLYLINE
  8
0
 62
7
  6
CONTINUOUS
 66
1
 70
0
  0
VERTEX
  8
0
 62
7
  6
CONTINUOUS
 10
56.0508079657
 20
150.8784285249
  0
VERTEX
  8
0
 62
7
  6
CONTINUOUS
 10
56.0473375218
 20
150.7517826987
  0
VERTEX
  8
0
 62
7
  6
CONTINUOUS
 10
56.0347281612
 20
150.6135106019
  0
VERTEX
  8
0
 62
7
  6
CONTINUOUS
 10
56.0125040176
 20
150.4818628766
  0
VERTEX
  8
0
 62
7
  6
CONTINUOUS
 10
55.9805875249
 20
150.3588562421
  0
VERTEX
  8
0
 62
7
  6
CONTINUOUS
 10
55.9392580903
 20
150.2464526047
  0
VERTEX
  8
0
 62
7
  6
CONTINUOUS
 10
55.8891906543
 20
150.1466056019
  0
VERTEX
  8
0
 62
7
  6
CONTINUOUS
 10
55.8311671678
 20
150.0608156782
  0
VERTEX
  8
0
 62
7
  6
CONTINUOUS
 10
55.76575418
 20
149.9903418852
  0
VERTEX
  8
0
 62
7
  6
CONTINUOUS
 10
55.6941015011
 20
149.9374910443
  0
VERTEX
  8
0
 62
7
  6
CONTINUOUS
 10
55.6182388768
 20
149.9052651376
  0
VERTEX
  8
0
 62
7
  6
CONTINUOUS
 10
55.5508075101
 20
149.8961106692
  0
SEQEND
  0
POLYLINE
  8
0
 62
7
  6
CONTINUOUS
 66
1
 70
0
  0
VERTEX
  8
0
 62
7
  6
CONTINUOUS
 10
55.8008073009
 20
118.042392313
  0
VERTEX
  8
0
 62
7
  6
CONTINUOUS
 10
55.8042776918
 20
118.1690509393
  0
VERTEX
  8
0
 62
7
  6
CONTINUOUS
 10
55.8168872687
 20
118.3073244715
  0
VERTEX
  8
0
 62
7
  6
CONTINUOUS
 10
55.8391113813
 20
118.4389695396
  0
VERTEX
  8
0
 62
7
  6
CONTINUOUS
 10
55.8710275751
 20
118.561974239
  0
VERTEX
  8
0
 62
7
  6
CONTINUOUS
 10
55.9123571333
 20
118.6743777586
  0
VERTEX
  8
0
 62
7
  6
CONTINUOUS
 10
55.9624242611
 20
118.7742240571
  0
VERTEX
  8
0
 62
7
  6
CONTINUOUS
 10
56.0204482472
 20
118.8600144747
  0
VERTEX
  8
0
 62
7
  6
CONTINUOUS
 10
56.085860987
 20
118.9304881228
  0
VERTEX
  8
0
 62
7
  6
CONTINUOUS
 10
56.157514303
 20
118.9833392792
  0
VERTEX
  8
0
 62
7
  6
CONTINUOUS
 10
56.2333799054
 20
119.0155656779
  0
VERTEX
  8
0
 62
7
  6
CONTINUOUS
 10
56.3008075101
 20
119.0247191356
  0
SEQEND
  0
LINE
  8
0
 62
7
  6
CONTINUOUS
 10
28.1008075101
 20
111.1704149031
 11
29.9008075101
 21
111.1704149031
  0
LINE
  8
0
 62
7
  6
CONTINUOUS
 10
37.5008075101
 20
111.1704149031
 11
42.6008075101
 21
111.1704149031
  0
LINE
  8
0
 62
7
  6
CONTINUOUS
 10
50.2008075101
 20
111.1704149031
 11
55.3008075101
 21
111.1704149031
  0
LINE
  8
0
 62
7
  6
CONTINUOUS
 10
62.9008075101
 20
111.1704149031
 11
68.0008075101
 21
111.1704149031
  0
LINE
  8
0
 62
7
  6
CONTINUOUS
 10
75.6008075101
 20
111.1704149031
 11
80.7008075101
 21
111.1704149031
  0
LINE
  8
0
 62
7
  6
CONTINUOUS
 10
88.3008075101
 20
111.1704149031
 11
93.4008075101
 21
111.1704149031
  0
LINE
  8
0
 62
7
  6
CONTINUOUS
 10
101.0008075101
 20
111.1704149031
 11
106.1008075101
 21
111.1704149031
  0
LINE
  8
0
 62
7
  6
CONTINUOUS
 10
113.7008075101
 20
111.1704149031
 11
118.8008075101
 21
111.1704149031
  0
LINE
  8
0
 62
7
  6
CONTINUOUS
 10
126.4008075101
 20
111.1704149031
 11
128.2008075101
 21
111.1704149031
  0
POLYLINE
  8
0
 62
7
  6
CONTINUOUS
 66
1
 70
0
  0
VERTEX
  8
0
 62
7
  6
CONTINUOUS
 10
62.4008075101
 20
114.1856700318
  0
VERTEX
  8
0
 62
7
  6
CONTINUOUS
 10
62.4151072306
 20
114.1664336542
  0
VERTEX
  8
0
 62
7
  6
CONTINUOUS
 10
62.4573456325
 20
114.1485182473
  0
VERTEX
  8
0
 62
7
  6
CONTINUOUS
 10
62.5253394129
 20
114.1328880137
  0
VERTEX
  8
0
 62
7
  6
CONTINUOUS
 10
62.5678878301
 20
114.1261956748
  0
VERTEX
  8
0
 62
7
  6
CONTINUOUS
 10
62.6670957874
 20
114.1154991875
  0
VERTEX
  8
0
 62
7
  6
CONTINUOUS
 10
62.7802627238
 20
114.1088387149
  0
VERTEX
  8
0
 62
7
  6
CONTINUOUS
 10
62.9008075101
 20
114.1065744221
  0
SEQEND
  0
POLYLINE
  8
0
 62
7
  6
CONTINUOUS
 66
1
 70
0
  0
VERTEX
  8
0
 62
7
  6
CONTINUOUS
 10
118.8008075101
 20
114.1065744221
  0
VERTEX
  8
0
 62
7
  6
CONTINUOUS
 10
118.9213522963
 20
114.1088387149
  0
VERTEX
  8
0
 62
7
  6
CONTINUOUS
 10
119.0345192328
 20
114.1154991875
  0
VERTEX
  8
0
 62
7
  6
CONTINUOUS
 10
119.13372719
 20
114.1261956748
  0
VERTEX
  8
0
 62
7
  6
CONTINUOUS
 10
119.1762756072
 20
114.1328880137
  0
VERTEX
  8
0
 62
7
  6
CONTINUOUS
 10
119.2442693876
 20
114.1485182473
  0
VERTEX
  8
0
 62
7
  6
CONTINUOUS
 10
119.2865077896
 20
114.1664336542
  0
VERTEX
  8
0
 62
7
  6
CONTINUOUS
 10
119.3008075101
 20
114.1856700318
  0
SEQEND
  0
POLYLINE
  8
0
 62
7
  6
CONTINUOUS
 66
1
 70
0
  0
VERTEX
  8
0
 62
7
  6
CONTINUOUS
 10
106.1008075101
 20
114.1065744221
  0
VERTEX
  8
0
 62
7
  6
CONTINUOUS
 10
106.2213522963
 20
114.1088387149
  0
VERTEX
  8
0
 62
7
  6
CONTINUOUS
 10
106.3345192328
 20
114.1154991875
  0
VERTEX
  8
0
 62
7
  6
CONTINUOUS
 10
106.43372719
 20
114.1261956748
  0
VERTEX
  8
0
 62
7
  6
CONTINUOUS
 10
106.4762756072
 20
114.1328880137
  0
VERTEX
  8
0
 62
7
  6
CONTINUOUS
 10
106.5442693876
 20
114.1485182473
  0
VERTEX
  8
0
 62
7
  6
CONTINUOUS
 10
106.5865077896
 20
114.1664336542
  0
VERTEX
  8
0
 62
7
  6
CONTINUOUS
 10
106.6008075101
 20
114.1856700318
  0
SEQEND
  0
POLYLINE
  8
0
 62
7
  6
CONTINUOUS
 66
1
 70
0
  0
VERTEX
  8
0
 62
7
  6
CONTINUOUS
 10
93.4008075101
 20
114.1065744221
  0
VERTEX
  8
0
 62
7
  6
CONTINUOUS
 10
93.5213522963
 20
114.1088387149
  0
VERTEX
  8
0
 62
7
  6
CONTINUOUS
 10
93.6345192328
 20
114.1154991875
  0
VERTEX
  8
0
 62
7
  6
CONTINUOUS
 10
93.73372719
 20
114.1261956748
  0
VERTEX
  8
0
 62
7
  6
CONTINUOUS
 10
93.7762756072
 20
114.1328880137
  0
VERTEX
  8
0
 62
7
  6
CONTINUOUS
 10
93.8442693876
 20
114.1485182473
  0
VERTEX
  8
0
 62
7
  6
CONTINUOUS
 10
93.8865077896
 20
114.1664336542
  0
VERTEX
  8
0
 62
7
  6
CONTINUOUS
 10
93.9008075101
 20
114.1856700318
  0
SEQEND
  0
POLYLINE
  8
0
 62
7
  6
CONTINUOUS
 66
1
 70
0
  0
VERTEX
  8
0
 62
7
  6
CONTINUOUS
 10
80.7008075101
 20
114.1065744221
  0
VERTEX
  8
0
 62
7
  6
CONTINUOUS
 10
80.8213522963
 20
114.1088387149
  0
VERTEX
  8
0
 62
7
  6
CONTINUOUS
 10
80.9345192328
 20
114.1154991875
  0
VERTEX
  8
0
 62
7
  6
CONTINUOUS
 10
81.03372719
 20
114.1261956748
  0
VERTEX
  8
0
 62
7
  6
CONTINUOUS
 10
81.0762756072
 20
114.1328880137
  0
VERTEX
  8
0
 62
7
  6
CONTINUOUS
 10
81.1442693876
 20
114.1485182473
  0
VERTEX
  8
0
 62
7
  6
CONTINUOUS
 10
81.1865077896
 20
114.1664336542
  0
VERTEX
  8
0
 62
7
  6
CONTINUOUS
 10
81.2008075101
 20
114.1856700318
  0
SEQEND
  0
POLYLINE
  8
0
 62
7
  6
CONTINUOUS
 66
1
 70
0
  0
VERTEX
  8
0
 62
7
  6
CONTINUOUS
 10
68.0008075101
 20
114.1065744221
  0
VERTEX
  8
0
 62
7
  6
CONTINUOUS
 10
68.1213522963
 20
114.1088387149
  0
VERTEX
  8
0
 62
7
  6
CONTINUOUS
 10
68.2345192328
 20
114.1154991875
  0
VERTEX
  8
0
 62
7
  6
CONTINUOUS
 10
68.33372719
 20
114.1261956748
  0
VERTEX
  8
0
 62
7
  6
CONTINUOUS
 10
68.3762756072
 20
114.1328880137
  0
VERTEX
  8
0
 62
7
  6
CONTINUOUS
 10
68.4442693876
 20
114.1485182473
  0
VERTEX
  8
0
 62
7
  6
CONTINUOUS
 10
68.4865077896
 20
114.1664336542
  0
VERTEX
  8
0
 62
7
  6
CONTINUOUS
 10
68.5008075101
 20
114.1856700318
  0
SEQEND
  0
POLYLINE
  8
0
 62
7
  6
CONTINUOUS
 66
1
 70
0
  0
VERTEX
  8
0
 62
7
  6
CONTINUOUS
 10
55.3008075101
 20
114.1065744221
  0
VERTEX
  8
0
 62
7
  6
CONTINUOUS
 10
55.4213522963
 20
114.1088387149
  0
VERTEX
  8
0
 62
7
  6
CONTINUOUS
 10
55.5345192328
 20
114.1154991875
  0
VERTEX
  8
0
 62
7
  6
CONTINUOUS
 10
55.63372719
 20
114.1261956748
  0
VERTEX
  8
0
 62
7
  6
CONTINUOUS
 10
55.6762756072
 20
114.1328880137
  0
VERTEX
  8
0
 62
7
  6
CONTINUOUS
 10
55.7442693876
 20
114.1485182473
  0
VERTEX
  8
0
 62
7
  6
CONTINUOUS
 10
55.7865077896
 20
114.1664336542
  0
VERTEX
  8
0
 62
7
  6
CONTINUOUS
 10
55.8008075101
 20
114.1856700318
  0
SEQEND
  0
POLYLINE
  8
0
 62
7
  6
CONTINUOUS
 66
1
 70
0
  0
VERTEX
  8
0
 62
7
  6
CONTINUOUS
 10
29.9008075101
 20
114.1065744221
  0
VERTEX
  8
0
 62
7
  6
CONTINUOUS
 10
30.0213522963
 20
114.1088387149
  0
VERTEX
  8
0
 62
7
  6
CONTINUOUS
 10
30.1345192328
 20
114.1154991875
  0
VERTEX
  8
0
 62
7
  6
CONTINUOUS
 10
30.23372719
 20
114.1261956748
  0
VERTEX
  8
0
 62
7
  6
CONTINUOUS
 10
30.2762756072
 20
114.1328880137
  0
VERTEX
  8
0
 62
7
  6
CONTINUOUS
 10
30.3442693876
 20
114.1485182473
  0
VERTEX
  8
0
 62
7
  6
CONTINUOUS
 10
30.3865077896
 20
114.1664336542
  0
VERTEX
  8
0
 62
7
  6
CONTINUOUS
 10
30.4008075101
 20
114.1856700318
  0
SEQEND
  0
LINE
  8
0
 62
7
  6
CONTINUOUS
 10
28.1008075101
 20
114.1065744221
 11
29.9008075101
 21
114.1065744221
  0
LINE
  8
0
 62
7
  6
CONTINUOUS
 10
37.5008075101
 20
114.1065744221
 11
42.6008075101
 21
114.1065744221
  0
LINE
  8
0
 62
7
  6
CONTINUOUS
 10
50.2008075101
 20
114.1065744221
 11
55.3008075101
 21
114.1065744221
  0
LINE
  8
0
 62
7
  6
CONTINUOUS
 10
62.9008075101
 20
114.1065744221
 11
68.0008075101
 21
114.1065744221
  0
LINE
  8
0
 62
7
  6
CONTINUOUS
 10
75.6008075101
 20
114.1065744221
 11
80.7008075101
 21
114.1065744221
  0
LINE
  8
0
 62
7
  6
CONTINUOUS
 10
88.3008075101
 20
114.1065744221
 11
93.4008075101
 21
114.1065744221
  0
LINE
  8
0
 62
7
  6
CONTINUOUS
 10
101.0008075101
 20
114.1065744221
 11
106.1008075101
 21
114.1065744221
  0
LINE
  8
0
 62
7
  6
CONTINUOUS
 10
113.7008075101
 20
114.1065744221
 11
118.8008075101
 21
114.1065744221
  0
LINE
  8
0
 62
7
  6
CONTINUOUS
 10
126.4008075101
 20
114.1065744221
 11
128.2008075101
 21
114.1065744221
  0
LINE
  8
1_AXIS
 62
2
  6
CENTER
 10
20.5972915663
 20
115.4104149031
 11
133.067653012
 21
115.4104149031
  0
POLYLINE
  8
0
 62
7
  6
CONTINUOUS
 66
1
 70
0
  0
VERTEX
  8
0
 62
7
  6
CONTINUOUS
 10
28.1008075101
 20
114.1065744221
  0
VERTEX
  8
0
 62
7
  6
CONTINUOUS
 10
27.9802627238
 20
114.1088387149
  0
VERTEX
  8
0
 62
7
  6
CONTINUOUS
 10
27.8670957874
 20
114.1154991875
  0
VERTEX
  8
0
 62
7
  6
CONTINUOUS
 10
27.7678878301
 20
114.1261956748
  0
VERTEX
  8
0
 62
7
  6
CONTINUOUS
 10
27.7253394129
 20
114.1328880137
  0
VERTEX
  8
0
 62
7
  6
CONTINUOUS
 10
27.6573456325
 20
114.1485182473
  0
VERTEX
  8
0
 62
7
  6
CONTINUOUS
 10
27.6151072306
 20
114.1664336542
  0
VERTEX
  8
0
 62
7
  6
CONTINUOUS
 10
27.6008075101
 20
114.1856700318
  0
SEQEND
  0
POLYLINE
  8
0
 62
7
  6
CONTINUOUS
 66
1
 70
0
  0
VERTEX
  8
0
 62
7
  6
CONTINUOUS
 10
50.2008075101
 20
114.1065744221
  0
VERTEX
  8
0
 62
7
  6
CONTINUOUS
 10
50.0802627238
 20
114.1088387149
  0
VERTEX
  8
0
 62
7
  6
CONTINUOUS
 10
49.9670957874
 20
114.1154991875
  0
VERTEX
  8
0
 62
7
  6
CONTINUOUS
 10
49.8678878301
 20
114.1261956748
  0
VERTEX
  8
0
 62
7
  6
CONTINUOUS
 10
49.8253394129
 20
114.1328880137
  0
VERTEX
  8
0
 62
7
  6
CONTINUOUS
 10
49.7573456325
 20
114.1485182473
  0
VERTEX
  8
0
 62
7
  6
CONTINUOUS
 10
49.7151072306
 20
114.1664336542
  0
VERTEX
  8
0
 62
7
  6
CONTINUOUS
 10
49.7008075101
 20
114.1856700318
  0
SEQEND
  0
POLYLINE
  8
0
 62
7
  6
CONTINUOUS
 66
1
 70
0
  0
VERTEX
  8
0
 62
7
  6
CONTINUOUS
 10
36.5008075056
 20
119.024719138
  0
VERTEX
  8
0
 62
7
  6
CONTINUOUS
 10
36.5675966347
 20
119.0157380889
  0
VERTEX
  8
0
 62
7
  6
CONTINUOUS
 10
36.6434791925
 20
118.9836992276
  0
VERTEX
  8
0
 62
7
  6
CONTINUOUS
 10
36.7151796512
 20
118.9310059549
  0
VERTEX
  8
0
 62
7
  6
CONTINUOUS
 10
36.7806527018
 20
118.8606657141
  0
VERTEX
  8
0
 62
7
  6
CONTINUOUS
 10
36.8387413898
 20
118.7749948619
  0
VERTEX
  8
0
 62
7
  6
CONTINUOUS
 10
36.8888787819
 20
118.6752567911
  0
VERTEX
  8
0
 62
7
  6
CONTINUOUS
 10
36.930280973
 20
118.5629579997
  0
VERTEX
  8
0
 62
7
  6
CONTINUOUS
 10
36.9622730808
 20
118.4400533109
  0
VERTEX
  8
0
 62
7
  6
CONTINUOUS
 10
36.9845751679
 20
118.308507365
  0
VERTEX
  8
0
 62
7
  6
CONTINUOUS
 10
36.9972645901
 20
118.1703385198
  0
VERTEX
  8
0
 62
7
  6
CONTINUOUS
 10
37.000807969
 20
118.0424015647
  0
SEQEND
  0
POLYLINE
  8
0
 62
7
  6
CONTINUOUS
 66
1
 70
0
  0
VERTEX
  8
0
 62
7
  6
CONTINUOUS
 10
49.2008075056
 20
119.0247191383
  0
VERTEX
  8
0
 62
7
  6
CONTINUOUS
 10
49.2675966317
 20
119.0157380896
  0
VERTEX
  8
0
 62
7
  6
CONTINUOUS
 10
49.3434792058
 20
118.9836992191
  0
VERTEX
  8
0
 62
7
  6
CONTINUOUS
 10
49.4151796732
 20
118.9310059341
  0
VERTEX
  8
0
 62
7
  6
CONTINUOUS
 10
49.4806526927
 20
118.8606657211
  0
VERTEX
  8
0
 62
7
  6
CONTINUOUS
 10
49.5387414033
 20
118.7749948394
  0
VERTEX
  8
0
 62
7
  6
CONTINUOUS
 10
49.5888787835
 20
118.6752567879
  0
VERTEX
  8
0
 62
7
  6
CONTINUOUS
 10
49.6302809743
 20
118.5629579954
  0
VERTEX
  8
0
 62
7
  6
CONTINUOUS
 10
49.6622730802
 20
118.4400533157
  0
VERTEX
  8
0
 62
7
  6
CONTINUOUS
 10
49.6845751662
 20
118.3085073878
  0
VERTEX
  8
0
 62
7
  6
CONTINUOUS
 10
49.6972645878
 20
118.170338542
  0
VERTEX
  8
0
 62
7
  6
CONTINUOUS
 10
49.7008079702
 20
118.042401448
  0
SEQEND
  0
POLYLINE
  8
0
 62
7
  6
CONTINUOUS
 66
1
 70
0
  0
VERTEX
  8
0
 62
7
  6
CONTINUOUS
 10
36.7508075101
 20
154.7351597745
  0
VERTEX
  8
0
 62
7
  6
CONTINUOUS
 10
36.7365077896
 20
154.7543961521
  0
VERTEX
  8
0
 62
7
  6
CONTINUOUS
 10
36.6942693876
 20
154.772311559
  0
VERTEX
  8
0
 62
7
  6
CONTINUOUS
 10
36.6262756072
 20
154.7879417926
  0
VERTEX
  8
0
 62
7
  6
CONTINUOUS
 10
36.58372719
 20
154.7946341315
  0
VERTEX
  8
0
 62
7
  6
CONTINUOUS
 10
36.4845192328
 20
154.8053306188
  0
VERTEX
  8
0
 62
7
  6
CONTINUOUS
 10
36.3713522963
 20
154.8119910914
  0
VERTEX
  8
0
 62
7
  6
CONTINUOUS
 10
36.2508075101
 20
154.8142553842
  0
SEQEND
  0
LINE
  8
0
 62
7
  6
CONTINUOUS
 10
62.1508075101
 20
150.8784004121
 11
62.1508075101
 21
157.2504149031
  0
LINE
  8
0
 62
7
  6
CONTINUOUS
 10
62.4008075101
 20
111.6704149031
 11
62.4008075101
 21
118.0424293408
  0
POLYLINE
  8
0
 62
7
  6
CONTINUOUS
 66
1
 70
0
  0
VERTEX
  8
0
 62
7
  6
CONTINUOUS
 10
43.1008075101
 20
114.1856700318
  0
VERTEX
  8
0
 62
7
  6
CONTINUOUS
 10
43.0865077896
 20
114.1664336542
  0
VERTEX
  8
0
 62
7
  6
CONTINUOUS
 10
43.0442693876
 20
114.1485182473
  0
VERTEX
  8
0
 62
7
  6
CONTINUOUS
 10
42.9762756072
 20
114.1328880137
  0
VERTEX
  8
0
 62
7
  6
CONTINUOUS
 10
42.93372719
 20
114.1261956748
  0
VERTEX
  8
0
 62
7
  6
CONTINUOUS
 10
42.8345192328
 20
114.1154991875
  0
VERTEX
  8
0
 62
7
  6
CONTINUOUS
 10
42.7213522963
 20
114.1088387149
  0
VERTEX
  8
0
 62
7
  6
CONTINUOUS
 10
42.6008075101
 20
114.1065744221
  0
SEQEND
  0
LINE
  8
0
 62
7
  6
CONTINUOUS
 10
30.9008075101
 20
119.0247192186
 11
36.5008075056
 21
119.0247192186
  0
LINE
  8
0
 62
7
  6
CONTINUOUS
 10
43.6008075101
 20
119.0247192186
 11
49.2008075056
 21
119.0247192186
  0
LINE
  8
0
 62
7
  6
CONTINUOUS
 10
56.3008075101
 20
119.0247192186
 11
61.9008075056
 21
119.0247192186
  0
LINE
  8
0
 62
7
  6
CONTINUOUS
 10
69.0008075101
 20
119.0247192186
 11
74.6008075056
 21
119.0247192186
  0
LINE
  8
0
 62
7
  6
CONTINUOUS
 10
81.7008075101
 20
119.0247192186
 11
87.3008075056
 21
119.0247192186
  0
LINE
  8
0
 62
7
  6
CONTINUOUS
 10
94.4008075101
 20
119.0247192186
 11
100.0008075056
 21
119.0247192186
  0
LINE
  8
0
 62
7
  6
CONTINUOUS
 10
107.1008075101
 20
119.0247192186
 11
112.7008075056
 21
119.0247192186
  0
LINE
  8
0
 62
7
  6
CONTINUOUS
 10
119.8008075101
 20
119.0247192186
 11
125.4008075056
 21
119.0247192186
  0
LINE
  8
0
 62
7
  6
CONTINUOUS
 10
27.4008075101
 20
119.9464365206
 11
27.6008075101
 21
119.9464365206
  0
LINE
  8
0
 62
7
  6
CONTINUOUS
 10
128.7008075101
 20
119.9464365206
 11
128.9008075101
 21
119.9464365206
  0
POLYLINE
  8
0
 62
7
  6
CONTINUOUS
 66
1
 70
0
  0
VERTEX
  8
0
 62
7
  6
CONTINUOUS
 10
61.9008075056
 20
119.024719138
  0
VERTEX
  8
0
 62
7
  6
CONTINUOUS
 10
61.9675966347
 20
119.0157380889
  0
VERTEX
  8
0
 62
7
  6
CONTINUOUS
 10
62.0434791925
 20
118.9836992276
  0
VERTEX
  8
0
 62
7
  6
CONTINUOUS
 10
62.1151796512
 20
118.9310059549
  0
VERTEX
  8
0
 62
7
  6
CONTINUOUS
 10
62.1806527018
 20
118.8606657141
  0
VERTEX
  8
0
 62
7
  6
CONTINUOUS
 10
62.2387413898
 20
118.7749948619
  0
VERTEX
  8
0
 62
7
  6
CONTINUOUS
 10
62.2888787819
 20
118.6752567911
  0
VERTEX
  8
0
 62
7
  6
CONTINUOUS
 10
62.330280973
 20
118.5629579997
  0
VERTEX
  8
0
 62
7
  6
CONTINUOUS
 10
62.3622730808
 20
118.4400533109
  0
VERTEX
  8
0
 62
7
  6
CONTINUOUS
 10
62.3845751679
 20
118.308507365
  0
VERTEX
  8
0
 62
7
  6
CONTINUOUS
 10
62.3972645901
 20
118.1703385198
  0
VERTEX
  8
0
 62
7
  6
CONTINUOUS
 10
62.400807969
 20
118.0424015647
  0
SEQEND
  0
POLYLINE
  8
0
 62
7
  6
CONTINUOUS
 66
1
 70
0
  0
VERTEX
  8
0
 62
7
  6
CONTINUOUS
 10
74.6008075056
 20
119.0247191383
  0
VERTEX
  8
0
 62
7
  6
CONTINUOUS
 10
74.6675966317
 20
119.0157380896
  0
VERTEX
  8
0
 62
7
  6
CONTINUOUS
 10
74.7434792058
 20
118.9836992191
  0
VERTEX
  8
0
 62
7
  6
CONTINUOUS
 10
74.8151796732
 20
118.9310059341
  0
VERTEX
  8
0
 62
7
  6
CONTINUOUS
 10
74.8806526927
 20
118.8606657211
  0
VERTEX
  8
0
 62
7
  6
CONTINUOUS
 10
74.9387414033
 20
118.7749948394
  0
VERTEX
  8
0
 62
7
  6
CONTINUOUS
 10
74.9888787835
 20
118.6752567879
  0
VERTEX
  8
0
 62
7
  6
CONTINUOUS
 10
75.0302809743
 20
118.5629579954
  0
VERTEX
  8
0
 62
7
  6
CONTINUOUS
 10
75.0622730802
 20
118.4400533157
  0
VERTEX
  8
0
 62
7
  6
CONTINUOUS
 10
75.0845751662
 20
118.3085073878
  0
VERTEX
  8
0
 62
7
  6
CONTINUOUS
 10
75.0972645878
 20
118.170338542
  0
VERTEX
  8
0
 62
7
  6
CONTINUOUS
 10
75.1008079702
 20
118.042401448
  0
SEQEND
  0
POLYLINE
  8
0
 62
7
  6
CONTINUOUS
 66
1
 70
0
  0
VERTEX
  8
0
 62
7
  6
CONTINUOUS
 10
75.1008075101
 20
114.1856700318
  0
VERTEX
  8
0
 62
7
  6
CONTINUOUS
 10
75.1151072306
 20
114.1664336542
  0
VERTEX
  8
0
 62
7
  6
CONTINUOUS
 10
75.1573456325
 20
114.1485182473
  0
VERTEX
  8
0
 62
7
  6
CONTINUOUS
 10
75.2253394129
 20
114.1328880137
  0
VERTEX
  8
0
 62
7
  6
CONTINUOUS
 10
75.2678878301
 20
114.1261956748
  0
VERTEX
  8
0
 62
7
  6
CONTINUOUS
 10
75.3670957874
 20
114.1154991875
  0
VERTEX
  8
0
 62
7
  6
CONTINUOUS
 10
75.4802627238
 20
114.1088387149
  0
VERTEX
  8
0
 62
7
  6
CONTINUOUS
 10
75.6008075101
 20
114.1065744221
  0
SEQEND
  0
POLYLINE
  8
0
 62
7
  6
CONTINUOUS
 66
1
 70
0
  0
VERTEX
  8
0
 62
7
  6
CONTINUOUS
 10
87.3008075056
 20
119.024719138
  0
VERTEX
  8
0
 62
7
  6
CONTINUOUS
 10
87.3675966347
 20
119.0157380889
  0
VERTEX
  8
0
 62
7
  6
CONTINUOUS
 10
87.4434791925
 20
118.9836992276
  0
VERTEX
  8
0
 62
7
  6
CONTINUOUS
 10
87.5151796512
 20
118.9310059549
  0
VERTEX
  8
0
 62
7
  6
CONTINUOUS
 10
87.5806527018
 20
118.8606657141
  0
VERTEX
  8
0
 62
7
  6
CONTINUOUS
 10
87.6387413898
 20
118.7749948619
  0
VERTEX
  8
0
 62
7
  6
CONTINUOUS
 10
87.6888787819
 20
118.6752567911
  0
VERTEX
  8
0
 62
7
  6
CONTINUOUS
 10
87.730280973
 20
118.5629579997
  0
VERTEX
  8
0
 62
7
  6
CONTINUOUS
 10
87.7622730808
 20
118.4400533109
  0
VERTEX
  8
0
 62
7
  6
CONTINUOUS
 10
87.7845751679
 20
118.308507365
  0
VERTEX
  8
0
 62
7
  6
CONTINUOUS
 10
87.7972645901
 20
118.1703385198
  0
VERTEX
  8
0
 62
7
  6
CONTINUOUS
 10
87.800807969
 20
118.0424015647
  0
SEQEND
  0
POLYLINE
  8
0
 62
7
  6
CONTINUOUS
 66
1
 70
0
  0
VERTEX
  8
0
 62
7
  6
CONTINUOUS
 10
100.0008075056
 20
119.0247191383
  0
VERTEX
  8
0
 62
7
  6
CONTINUOUS
 10
100.0675966317
 20
119.0157380896
  0
VERTEX
  8
0
 62
7
  6
CONTINUOUS
 10
100.1434792058
 20
118.9836992191
  0
VERTEX
  8
0
 62
7
  6
CONTINUOUS
 10
100.2151796732
 20
118.9310059341
  0
VERTEX
  8
0
 62
7
  6
CONTINUOUS
 10
100.2806526927
 20
118.8606657211
  0
VERTEX
  8
0
 62
7
  6
CONTINUOUS
 10
100.3387414033
 20
118.7749948394
  0
VERTEX
  8
0
 62
7
  6
CONTINUOUS
 10
100.3888787835
 20
118.6752567879
  0
VERTEX
  8
0
 62
7
  6
CONTINUOUS
 10
100.4302809743
 20
118.5629579954
  0
VERTEX
  8
0
 62
7
  6
CONTINUOUS
 10
100.4622730802
 20
118.4400533157
  0
VERTEX
  8
0
 62
7
  6
CONTINUOUS
 10
100.4845751662
 20
118.3085073878
  0
VERTEX
  8
0
 62
7
  6
CONTINUOUS
 10
100.4972645878
 20
118.170338542
  0
VERTEX
  8
0
 62
7
  6
CONTINUOUS
 10
100.5008079702
 20
118.042401448
  0
SEQEND
  0
POLYLINE
  8
0
 62
7
  6
CONTINUOUS
 66
1
 70
0
  0
VERTEX
  8
0
 62
7
  6
CONTINUOUS
 10
112.7008075056
 20
119.024719138
  0
VERTEX
  8
0
 62
7
  6
CONTINUOUS
 10
112.7675966347
 20
119.0157380889
  0
VERTEX
  8
0
 62
7
  6
CONTINUOUS
 10
112.8434791925
 20
118.9836992276
  0
VERTEX
  8
0
 62
7
  6
CONTINUOUS
 10
112.9151796512
 20
118.9310059549
  0
VERTEX
  8
0
 62
7
  6
CONTINUOUS
 10
112.9806527018
 20
118.8606657141
  0
VERTEX
  8
0
 62
7
  6
CONTINUOUS
 10
113.0387413898
 20
118.7749948619
  0
VERTEX
  8
0
 62
7
  6
CONTINUOUS
 10
113.0888787819
 20
118.6752567911
  0
VERTEX
  8
0
 62
7
  6
CONTINUOUS
 10
113.130280973
 20
118.5629579997
  0
VERTEX
  8
0
 62
7
  6
CONTINUOUS
 10
113.1622730808
 20
118.4400533109
  0
VERTEX
  8
0
 62
7
  6
CONTINUOUS
 10
113.1845751679
 20
118.308507365
  0
VERTEX
  8
0
 62
7
  6
CONTINUOUS
 10
113.1972645901
 20
118.1703385198
  0
VERTEX
  8
0
 62
7
  6
CONTINUOUS
 10
113.200807969
 20
118.0424015647
  0
SEQEND
  0
LINE
  8
0
 62
7
  6
CONTINUOUS
 10
68.5008075101
 20
111.6704149031
 11
68.5008075101
 21
118.0424293942
  0
LINE
  8
0
 62
7
  6
CONTINUOUS
 10
68.7508075101
 20
157.2504149031
 11
68.7508075101
 21
150.8784004655
  0
POLYLINE
  8
0
 62
7
  6
CONTINUOUS
 66
1
 70
0
  0
VERTEX
  8
0
 62
7
  6
CONTINUOUS
 10
68.7508079666
 20
150.8784286257
  0
VERTEX
  8
0
 62
7
  6
CONTINUOUS
 10
68.7473375199
 20
150.7517826786
  0
VERTEX
  8
0
 62
7
  6
CONTINUOUS
 10
68.7347281593
 20
150.6135105786
  0
VERTEX
  8
0
 62
7
  6
CONTINUOUS
 10
68.7125040167
 20
150.4818628714
  0
VERTEX
  8
0
 62
7
  6
CONTINUOUS
 10
68.6805875261
 20
150.358856247
  0
VERTEX
  8
0
 62
7
  6
CONTINUOUS
 10
68.6392580926
 20
150.2464526099
  0
VERTEX
  8
0
 62
7
  6
CONTINUOUS
 10
68.5891906725
 20
150.1466056319
  0
VERTEX
  8
0
 62
7
  6
CONTINUOUS
 10
68.5311671643
 20
150.0608156786
  0
VERTEX
  8
0
 62
7
  6
CONTINUOUS
 10
68.4657542034
 20
149.990341907
  0
VERTEX
  8
0
 62
7
  6
CONTINUOUS
 10
68.3941015134
 20
149.9374910522
  0
VERTEX
  8
0
 62
7
  6
CONTINUOUS
 10
68.318238873
 20
149.9052651367
  0
VERTEX
  8
0
 62
7
  6
CONTINUOUS
 10
68.2508075101
 20
149.8961106688
  0
SEQEND
  0
POLYLINE
  8
0
 62
7
  6
CONTINUOUS
 66
1
 70
0
  0
VERTEX
  8
0
 62
7
  6
CONTINUOUS
 10
68.5008073006
 20
118.042392229
  0
VERTEX
  8
0
 62
7
  6
CONTINUOUS
 10
68.5042776919
 20
118.1690509628
  0
VERTEX
  8
0
 62
7
  6
CONTINUOUS
 10
68.5168872707
 20
118.3073245032
  0
VERTEX
  8
0
 62
7
  6
CONTINUOUS
 10
68.5391113829
 20
118.4389695489
  0
VERTEX
  8
0
 62
7
  6
CONTINUOUS
 10
68.5710275744
 20
118.5619742367
  0
VERTEX
  8
0
 62
7
  6
CONTINUOUS
 10
68.6123571314
 20
118.6743777534
  0
VERTEX
  8
0
 62
7
  6
CONTINUOUS
 10
68.6624242506
 20
118.774224038
  0
VERTEX
  8
0
 62
7
  6
CONTINUOUS
 10
68.7204482484
 20
118.8600144707
  0
VERTEX
  8
0
 62
7
  6
CONTINUOUS
 10
68.7858609622
 20
118.9304880997
  0
VERTEX
  8
0
 62
7
  6
CONTINUOUS
 10
68.8575142894
 20
118.983339272
  0
VERTEX
  8
0
 62
7
  6
CONTINUOUS
 10
68.9333799082
 20
119.0155656786
  0
VERTEX
  8
0
 62
7
  6
CONTINUOUS
 10
69.0008075101
 20
119.024719136
  0
SEQEND
  0
POLYLINE
  8
0
 62
7
  6
CONTINUOUS
 66
1
 70
0
  0
VERTEX
  8
0
 62
7
  6
CONTINUOUS
 10
81.4508075101
 20
154.7351597745
  0
VERTEX
  8
0
 62
7
  6
CONTINUOUS
 10
81.4651072306
 20
154.7543961521
  0
VERTEX
  8
0
 62
7
  6
CONTINUOUS
 10
81.5073456325
 20
154.772311559
  0
VERTEX
  8
0
 62
7
  6
CONTINUOUS
 10
81.5753394129
 20
154.7879417926
  0
VERTEX
  8
0
 62
7
  6
CONTINUOUS
 10
81.6178878301
 20
154.7946341315
  0
VERTEX
  8
0
 62
7
  6
CONTINUOUS
 10
81.7170957874
 20
154.8053306188
  0
VERTEX
  8
0
 62
7
  6
CONTINUOUS
 10
81.8302627238
 20
154.8119910914
  0
VERTEX
  8
0
 62
7
  6
CONTINUOUS
 10
81.9508075101
 20
154.8142553842
  0
SEQEND
  0
POLYLINE
  8
0
 62
7
  6
CONTINUOUS
 66
1
 70
0
  0
VERTEX
  8
0
 62
7
  6
CONTINUOUS
 10
125.4008075056
 20
119.024719138
  0
VERTEX
  8
0
 62
7
  6
CONTINUOUS
 10
125.4675966347
 20
119.0157380889
  0
VERTEX
  8
0
 62
7
  6
CONTINUOUS
 10
125.5434791925
 20
118.9836992276
  0
VERTEX
  8
0
 62
7
  6
CONTINUOUS
 10
125.6151796512
 20
118.9310059549
  0
VERTEX
  8
0
 62
7
  6
CONTINUOUS
 10
125.6806527018
 20
118.8606657141
  0
VERTEX
  8
0
 62
7
  6
CONTINUOUS
 10
125.7387413898
 20
118.7749948619
  0
VERTEX
  8
0
 62
7
  6
CONTINUOUS
 10
125.7888787819
 20
118.6752567911
  0
VERTEX
  8
0
 62
7
  6
CONTINUOUS
 10
125.830280973
 20
118.5629579997
  0
VERTEX
  8
0
 62
7
  6
CONTINUOUS
 10
125.8622730808
 20
118.4400533109
  0
VERTEX
  8
0
 62
7
  6
CONTINUOUS
 10
125.8845751679
 20
118.308507365
  0
VERTEX
  8
0
 62
7
  6
CONTINUOUS
 10
125.8972645901
 20
118.1703385198
  0
VERTEX
  8
0
 62
7
  6
CONTINUOUS
 10
125.900807969
 20
118.0424015647
  0
SEQEND
  0
LINE
  8
0
 62
7
  6
CONTINUOUS
 10
74.8508075101
 20
150.878400412
 11
74.8508075101
 21
157.2504149031
  0
POLYLINE
  8
0
 62
7
  6
CONTINUOUS
 66
1
 70
0
  0
VERTEX
  8
0
 62
7
  6
CONTINUOUS
 10
87.8008075101
 20
114.1856700318
  0
VERTEX
  8
0
 62
7
  6
CONTINUOUS
 10
87.8151072306
 20
114.1664336542
  0
VERTEX
  8
0
 62
7
  6
CONTINUOUS
 10
87.8573456325
 20
114.1485182473
  0
VERTEX
  8
0
 62
7
  6
CONTINUOUS
 10
87.9253394129
 20
114.1328880137
  0
VERTEX
  8
0
 62
7
  6
CONTINUOUS
 10
87.9678878301
 20
114.1261956748
  0
VERTEX
  8
0
 62
7
  6
CONTINUOUS
 10
88.0670957874
 20
114.1154991875
  0
VERTEX
  8
0
 62
7
  6
CONTINUOUS
 10
88.1802627238
 20
114.1088387149
  0
VERTEX
  8
0
 62
7
  6
CONTINUOUS
 10
88.3008075101
 20
114.1065744221
  0
SEQEND
  0
LINE
  8
0
 62
7
  6
CONTINUOUS
 10
75.1008075101
 20
111.6704149031
 11
75.1008075101
 21
118.0424293408
  0
LINE
  8
1_AXIS
 62
2
  6
CENTER
 10
78.1508075101
 20
159.4324626506
 11
78.1508075101
 21
136.4605149031
  0
LINE
  8
1_AXIS
 62
2
  6
CONTINUOUS
 10
78.1508075101
 20
135.3404149031
 11
78.1508075101
 21
133.5804149031
  0
LINE
  8
1_AXIS
 62
2
  6
CENTER
 10
78.1508075101
 20
105.9963180723
 11
78.1508075101
 21
132.4603149031
  0
LINE
  8
1_AXIS
 62
2
  6
CENTER
 10
134.5944
 20
134.4604149031
 11
80.1509075101
 21
134.4604149031
  0
LINE
  8
1_AXIS
 62
2
  6
CONTINUOUS
 10
79.0308075101
 20
134.4604149031
 11
77.2708075101
 21
134.4604149031
  0
LINE
  8
1_AXIS
 62
2
  6
CENTER
 10
21.8695807229
 20
134.4604149031
 11
76.1507075101
 21
134.4604149031
  0
POLYLINE
  8
0
 62
7
  6
CONTINUOUS
 66
1
 70
0
  0
VERTEX
  8
0
 62
7
  6
CONTINUOUS
 10
62.1508075101
 20
154.7351597745
  0
VERTEX
  8
0
 62
7
  6
CONTINUOUS
 10
62.1365077896
 20
154.7543961521
  0
VERTEX
  8
0
 62
7
  6
CONTINUOUS
 10
62.0942693876
 20
154.772311559
  0
VERTEX
  8
0
 62
7
  6
CONTINUOUS
 10
62.0262756072
 20
154.7879417926
  0
VERTEX
  8
0
 62
7
  6
CONTINUOUS
 10
61.98372719
 20
154.7946341315
  0
VERTEX
  8
0
 62
7
  6
CONTINUOUS
 10
61.8845192328
 20
154.8053306188
  0
VERTEX
  8
0
 62
7
  6
CONTINUOUS
 10
61.7713522963
 20
154.8119910914
  0
VERTEX
  8
0
 62
7
  6
CONTINUOUS
 10
61.6508075101
 20
154.8142553842
  0
SEQEND
  0
LINE
  8
0
 62
7
  6
CONTINUOUS
 10
81.2008075101
 20
111.6704149031
 11
81.2008075101
 21
118.0424293941
  0
LINE
  8
0
 62
7
  6
CONTINUOUS
 10
81.4508075101
 20
150.8784004655
 11
81.4508075101
 21
157.2504149031
  0
POLYLINE
  8
0
 62
7
  6
CONTINUOUS
 66
1
 70
0
  0
VERTEX
  8
0
 62
7
  6
CONTINUOUS
 10
81.4508079657
 20
150.8784285249
  0
VERTEX
  8
0
 62
7
  6
CONTINUOUS
 10
81.4473375218
 20
150.7517826987
  0
VERTEX
  8
0
 62
7
  6
CONTINUOUS
 10
81.4347281612
 20
150.6135106019
  0
VERTEX
  8
0
 62
7
  6
CONTINUOUS
 10
81.4125040176
 20
150.4818628766
  0
VERTEX
  8
0
 62
7
  6
CONTINUOUS
 10
81.3805875249
 20
150.3588562421
  0
VERTEX
  8
0
 62
7
  6
CONTINUOUS
 10
81.3392580903
 20
150.2464526047
  0
VERTEX
  8
0
 62
7
  6
CONTINUOUS
 10
81.2891906543
 20
150.1466056019
  0
VERTEX
  8
0
 62
7
  6
CONTINUOUS
 10
81.2311671678
 20
150.0608156782
  0
VERTEX
  8
0
 62
7
  6
CONTINUOUS
 10
81.16575418
 20
149.9903418852
  0
VERTEX
  8
0
 62
7
  6
CONTINUOUS
 10
81.0941015011
 20
149.9374910443
  0
VERTEX
  8
0
 62
7
  6
CONTINUOUS
 10
81.0182388768
 20
149.9052651376
  0
VERTEX
  8
0
 62
7
  6
CONTINUOUS
 10
80.9508075101
 20
149.8961106692
  0
SEQEND
  0
POLYLINE
  8
0
 62
7
  6
CONTINUOUS
 66
1
 70
0
  0
VERTEX
  8
0
 62
7
  6
CONTINUOUS
 10
81.2008073009
 20
118.042392313
  0
VERTEX
  8
0
 62
7
  6
CONTINUOUS
 10
81.2042776918
 20
118.1690509393
  0
VERTEX
  8
0
 62
7
  6
CONTINUOUS
 10
81.2168872687
 20
118.3073244715
  0
VERTEX
  8
0
 62
7
  6
CONTINUOUS
 10
81.2391113813
 20
118.4389695396
  0
VERTEX
  8
0
 62
7
  6
CONTINUOUS
 10
81.2710275751
 20
118.561974239
  0
VERTEX
  8
0
 62
7
  6
CONTINUOUS
 10
81.3123571333
 20
118.6743777586
  0
VERTEX
  8
0
 62
7
  6
CONTINUOUS
 10
81.3624242611
 20
118.7742240571
  0
VERTEX
  8
0
 62
7
  6
CONTINUOUS
 10
81.4204482472
 20
118.8600144747
  0
VERTEX
  8
0
 62
7
  6
CONTINUOUS
 10
81.485860987
 20
118.9304881228
  0
VERTEX
  8
0
 62
7
  6
CONTINUOUS
 10
81.557514303
 20
118.9833392792
  0
VERTEX
  8
0
 62
7
  6
CONTINUOUS
 10
81.6333799054
 20
119.0155656779
  0
VERTEX
  8
0
 62
7
  6
CONTINUOUS
 10
81.7008075101
 20
119.0247191356
  0
SEQEND
  0
POLYLINE
  8
0
 62
7
  6
CONTINUOUS
 66
1
 70
0
  0
VERTEX
  8
0
 62
7
  6
CONTINUOUS
 10
100.5008075101
 20
114.1856700318
  0
VERTEX
  8
0
 62
7
  6
CONTINUOUS
 10
100.5151072306
 20
114.1664336542
  0
VERTEX
  8
0
 62
7
  6
CONTINUOUS
 10
100.5573456325
 20
114.1485182473
  0
VERTEX
  8
0
 62
7
  6
CONTINUOUS
 10
100.6253394129
 20
114.1328880137
  0
VERTEX
  8
0
 62
7
  6
CONTINUOUS
 10
100.6678878301
 20
114.1261956748
  0
VERTEX
  8
0
 62
7
  6
CONTINUOUS
 10
100.7670957874
 20
114.1154991875
  0
VERTEX
  8
0
 62
7
  6
CONTINUOUS
 10
100.8802627238
 20
114.1088387149
  0
VERTEX
  8
0
 62
7
  6
CONTINUOUS
 10
101.0008075101
 20
114.1065744221
  0
SEQEND
  0
LINE
  8
0
 62
7
  6
CONTINUOUS
 10
87.5508075101
 20
150.8784004121
 11
87.5508075101
 21
157.2504149031
  0
LINE
  8
0
 62
7
  6
CONTINUOUS
 10
87.8008075101
 20
111.6704149031
 11
87.8008075101
 21
118.0424293408
  0
POLYLINE
  8
0
 62
7
  6
CONTINUOUS
 66
1
 70
0
  0
VERTEX
  8
0
 62
7
  6
CONTINUOUS
 10
106.8508075101
 20
154.7351597745
  0
VERTEX
  8
0
 62
7
  6
CONTINUOUS
 10
106.8651072306
 20
154.7543961521
  0
VERTEX
  8
0
 62
7
  6
CONTINUOUS
 10
106.9073456325
 20
154.772311559
  0
VERTEX
  8
0
 62
7
  6
CONTINUOUS
 10
106.9753394129
 20
154.7879417926
  0
VERTEX
  8
0
 62
7
  6
CONTINUOUS
 10
107.0178878301
 20
154.7946341315
  0
VERTEX
  8
0
 62
7
  6
CONTINUOUS
 10
107.1170957874
 20
154.8053306188
  0
VERTEX
  8
0
 62
7
  6
CONTINUOUS
 10
107.2302627238
 20
154.8119910914
  0
VERTEX
  8
0
 62
7
  6
CONTINUOUS
 10
107.3508075101
 20
154.8142553842
  0
SEQEND
  0
POLYLINE
  8
0
 62
7
  6
CONTINUOUS
 66
1
 70
0
  0
VERTEX
  8
0
 62
7
  6
CONTINUOUS
 10
37.2508075485
 20
149.896110671
  0
VERTEX
  8
0
 62
7
  6
CONTINUOUS
 10
37.1840223556
 20
149.9050906614
  0
VERTEX
  8
0
 62
7
  6
CONTINUOUS
 10
37.1081367208
 20
149.9371300101
  0
VERTEX
  8
0
 62
7
  6
CONTINUOUS
 10
37.0364356104
 20
149.989823578
  0
VERTEX
  8
0
 62
7
  6
CONTINUOUS
 10
36.9709627476
 20
150.0601637019
  0
VERTEX
  8
0
 62
7
  6
CONTINUOUS
 10
36.9128735691
 20
150.1458350224
  0
VERTEX
  8
0
 62
7
  6
CONTINUOUS
 10
36.8627364396
 20
150.2455724728
  0
VERTEX
  8
0
 62
7
  6
CONTINUOUS
 10
36.8213341314
 20
150.3578711251
  0
VERTEX
  8
0
 62
7
  6
CONTINUOUS
 10
36.7893423166
 20
150.4807739044
  0
VERTEX
  8
0
 62
7
  6
CONTINUOUS
 10
36.7670402698
 20
150.6123171693
  0
VERTEX
  8
0
 62
7
  6
CONTINUOUS
 10
36.7543506429
 20
150.7504874655
  0
VERTEX
  8
0
 62
7
  6
CONTINUOUS
 10
36.7508072968
 20
150.87843743
  0
SEQEND
  0
POLYLINE
  8
0
 62
7
  6
CONTINUOUS
 66
1
 70
0
  0
VERTEX
  8
0
 62
7
  6
CONTINUOUS
 10
49.9508075483
 20
149.8961106706
  0
VERTEX
  8
0
 62
7
  6
CONTINUOUS
 10
49.884022358
 20
149.9050906608
  0
VERTEX
  8
0
 62
7
  6
CONTINUOUS
 10
49.8081367064
 20
149.9371300177
  0
VERTEX
  8
0
 62
7
  6
CONTINUOUS
 10
49.7364355837
 20
149.9898236024
  0
VERTEX
  8
0
 62
7
  6
CONTINUOUS
 10
49.6709627448
 20
150.0601637119
  0
VERTEX
  8
0
 62
7
  6
CONTINUOUS
 10
49.6128735549
 20
150.1458350475
  0
VERTEX
  8
0
 62
7
  6
CONTINUOUS
 10
49.5627364364
 20
150.2455724813
  0
VERTEX
  8
0
 62
7
  6
CONTINUOUS
 10
49.5213341303
 20
150.3578711296
  0
VERTEX
  8
0
 62
7
  6
CONTINUOUS
 10
49.489342318
 20
150.4807738968
  0
VERTEX
  8
0
 62
7
  6
CONTINUOUS
 10
49.4670402718
 20
150.6123171387
  0
VERTEX
  8
0
 62
7
  6
CONTINUOUS
 10
49.4543506431
 20
150.7504874438
  0
VERTEX
  8
0
 62
7
  6
CONTINUOUS
 10
49.4508072965
 20
150.8784375051
  0
SEQEND
  0
POLYLINE
  8
0
 62
7
  6
CONTINUOUS
 66
1
 70
0
  0
VERTEX
  8
0
 62
7
  6
CONTINUOUS
 10
62.6508075485
 20
149.896110671
  0
VERTEX
  8
0
 62
7
  6
CONTINUOUS
 10
62.5840223556
 20
149.9050906614
  0
VERTEX
  8
0
 62
7
  6
CONTINUOUS
 10
62.5081367208
 20
149.9371300101
  0
VERTEX
  8
0
 62
7
  6
CONTINUOUS
 10
62.4364356104
 20
149.989823578
  0
VERTEX
  8
0
 62
7
  6
CONTINUOUS
 10
62.3709627476
 20
150.0601637019
  0
VERTEX
  8
0
 62
7
  6
CONTINUOUS
 10
62.3128735691
 20
150.1458350224
  0
VERTEX
  8
0
 62
7
  6
CONTINUOUS
 10
62.2627364396
 20
150.2455724728
  0
VERTEX
  8
0
 62
7
  6
CONTINUOUS
 10
62.2213341314
 20
150.3578711251
  0
VERTEX
  8
0
 62
7
  6
CONTINUOUS
 10
62.1893423166
 20
150.4807739044
  0
VERTEX
  8
0
 62
7
  6
CONTINUOUS
 10
62.1670402698
 20
150.6123171693
  0
VERTEX
  8
0
 62
7
  6
CONTINUOUS
 10
62.1543506429
 20
150.7504874655
  0
VERTEX
  8
0
 62
7
  6
CONTINUOUS
 10
62.1508072968
 20
150.87843743
  0
SEQEND
  0
POLYLINE
  8
0
 62
7
  6
CONTINUOUS
 66
1
 70
0
  0
VERTEX
  8
0
 62
7
  6
CONTINUOUS
 10
75.3508075483
 20
149.8961106706
  0
VERTEX
  8
0
 62
7
  6
CONTINUOUS
 10
75.284022358
 20
149.9050906608
  0
VERTEX
  8
0
 62
7
  6
CONTINUOUS
 10
75.2081367064
 20
149.9371300177
  0
VERTEX
  8
0
 62
7
  6
CONTINUOUS
 10
75.1364355837
 20
149.9898236024
  0
VERTEX
  8
0
 62
7
  6
CONTINUOUS
 10
75.0709627448
 20
150.0601637119
  0
VERTEX
  8
0
 62
7
  6
CONTINUOUS
 10
75.0128735549
 20
150.1458350475
  0
VERTEX
  8
0
 62
7
  6
CONTINUOUS
 10
74.9627364364
 20
150.2455724813
  0
VERTEX
  8
0
 62
7
  6
CONTINUOUS
 10
74.9213341303
 20
150.3578711296
  0
VERTEX
  8
0
 62
7
  6
CONTINUOUS
 10
74.889342318
 20
150.4807738968
  0
VERTEX
  8
0
 62
7
  6
CONTINUOUS
 10
74.8670402718
 20
150.6123171387
  0
VERTEX
  8
0
 62
7
  6
CONTINUOUS
 10
74.8543506431
 20
150.7504874438
  0
VERTEX
  8
0
 62
7
  6
CONTINUOUS
 10
74.8508072965
 20
150.8784375051
  0
SEQEND
  0
LINE
  8
0
 62
7
  6
CONTINUOUS
 10
93.9008075101
 20
111.6704149031
 11
93.9008075101
 21
118.0424293942
  0
LINE
  8
0
 62
7
  6
CONTINUOUS
 10
94.1508075101
 20
150.8784004655
 11
94.1508075101
 21
157.2504149031
  0
POLYLINE
  8
0
 62
7
  6
CONTINUOUS
 66
1
 70
0
  0
VERTEX
  8
0
 62
7
  6
CONTINUOUS
 10
94.1508079666
 20
150.8784286257
  0
VERTEX
  8
0
 62
7
  6
CONTINUOUS
 10
94.1473375199
 20
150.7517826786
  0
VERTEX
  8
0
 62
7
  6
CONTINUOUS
 10
94.1347281593
 20
150.6135105786
  0
VERTEX
  8
0
 62
7
  6
CONTINUOUS
 10
94.1125040167
 20
150.4818628714
  0
VERTEX
  8
0
 62
7
  6
CONTINUOUS
 10
94.0805875261
 20
150.358856247
  0
VERTEX
  8
0
 62
7
  6
CONTINUOUS
 10
94.0392580926
 20
150.2464526099
  0
VERTEX
  8
0
 62
7
  6
CONTINUOUS
 10
93.9891906725
 20
150.1466056319
  0
VERTEX
  8
0
 62
7
  6
CONTINUOUS
 10
93.9311671643
 20
150.0608156786
  0
VERTEX
  8
0
 62
7
  6
CONTINUOUS
 10
93.8657542034
 20
149.990341907
  0
VERTEX
  8
0
 62
7
  6
CONTINUOUS
 10
93.7941015134
 20
149.9374910522
  0
VERTEX
  8
0
 62
7
  6
CONTINUOUS
 10
93.718238873
 20
149.9052651367
  0
VERTEX
  8
0
 62
7
  6
CONTINUOUS
 10
93.6508075101
 20
149.8961106688
  0
SEQEND
  0
POLYLINE
  8
0
 62
7
  6
CONTINUOUS
 66
1
 70
0
  0
VERTEX
  8
0
 62
7
  6
CONTINUOUS
 10
93.9008073006
 20
118.042392229
  0
VERTEX
  8
0
 62
7
  6
CONTINUOUS
 10
93.9042776919
 20
118.1690509628
  0
VERTEX
  8
0
 62
7
  6
CONTINUOUS
 10
93.9168872707
 20
118.3073245032
  0
VERTEX
  8
0
 62
7
  6
CONTINUOUS
 10
93.9391113829
 20
118.4389695489
  0
VERTEX
  8
0
 62
7
  6
CONTINUOUS
 10
93.9710275744
 20
118.5619742367
  0
VERTEX
  8
0
 62
7
  6
CONTINUOUS
 10
94.0123571314
 20
118.6743777534
  0
VERTEX
  8
0
 62
7
  6
CONTINUOUS
 10
94.0624242506
 20
118.774224038
  0
VERTEX
  8
0
 62
7
  6
CONTINUOUS
 10
94.1204482484
 20
118.8600144707
  0
VERTEX
  8
0
 62
7
  6
CONTINUOUS
 10
94.1858609622
 20
118.9304880997
  0
VERTEX
  8
0
 62
7
  6
CONTINUOUS
 10
94.2575142894
 20
118.983339272
  0
VERTEX
  8
0
 62
7
  6
CONTINUOUS
 10
94.3333799082
 20
119.0155656786
  0
VERTEX
  8
0
 62
7
  6
CONTINUOUS
 10
94.4008075101
 20
119.024719136
  0
SEQEND
  0
LINE
  8
0
 62
7
  6
CONTINUOUS
 10
128.2008075101
 20
149.8961105877
 11
126.1508075444
 21
149.8961105877
  0
LINE
  8
0
 62
7
  6
CONTINUOUS
 10
119.0508075101
 20
149.8961105877
 11
113.4508075485
 21
149.8961105877
  0
LINE
  8
0
 62
7
  6
CONTINUOUS
 10
106.3508075101
 20
149.8961105877
 11
100.7508075483
 21
149.8961105877
  0
LINE
  8
0
 62
7
  6
CONTINUOUS
 10
93.6508075101
 20
149.8961105877
 11
88.0508075485
 21
149.8961105877
  0
LINE
  8
0
 62
7
  6
CONTINUOUS
 10
80.9508075101
 20
149.8961105877
 11
75.3508075483
 21
149.8961105877
  0
LINE
  8
0
 62
7
  6
CONTINUOUS
 10
68.2508075101
 20
149.8961105877
 11
62.6508075485
 21
149.8961105877
  0
LINE
  8
0
 62
7
  6
CONTINUOUS
 10
55.5508075101
 20
149.8961105877
 11
49.9508075483
 21
149.8961105877
  0
LINE
  8
0
 62
7
  6
CONTINUOUS
 10
42.8508075101
 20
149.8961105877
 11
37.2508075485
 21
149.8961105877
  0
LINE
  8
0
 62
7
  6
CONTINUOUS
 10
30.1508075101
 20
149.8961105877
 11
28.1008075101
 21
149.8961105877
  0
LINE
  8
1_AXIS
 62
2
  6
CENTER
 10
22.3784963855
 20
153.5104149031
 11
137.1389783133
 21
153.5104149031
  0
POLYLINE
  8
0
 62
7
  6
CONTINUOUS
 66
1
 70
0
  0
VERTEX
  8
0
 62
7
  6
CONTINUOUS
 10
88.0508075485
 20
149.896110671
  0
VERTEX
  8
0
 62
7
  6
CONTINUOUS
 10
87.9840223556
 20
149.9050906614
  0
VERTEX
  8
0
 62
7
  6
CONTINUOUS
 10
87.9081367208
 20
149.9371300101
  0
VERTEX
  8
0
 62
7
  6
CONTINUOUS
 10
87.8364356104
 20
149.989823578
  0
VERTEX
  8
0
 62
7
  6
CONTINUOUS
 10
87.7709627476
 20
150.0601637019
  0
VERTEX
  8
0
 62
7
  6
CONTINUOUS
 10
87.7128735691
 20
150.1458350224
  0
VERTEX
  8
0
 62
7
  6
CONTINUOUS
 10
87.6627364396
 20
150.2455724728
  0
VERTEX
  8
0
 62
7
  6
CONTINUOUS
 10
87.6213341314
 20
150.3578711251
  0
VERTEX
  8
0
 62
7
  6
CONTINUOUS
 10
87.5893423166
 20
150.4807739044
  0
VERTEX
  8
0
 62
7
  6
CONTINUOUS
 10
87.5670402698
 20
150.6123171693
  0
VERTEX
  8
0
 62
7
  6
CONTINUOUS
 10
87.5543506429
 20
150.7504874655
  0
VERTEX
  8
0
 62
7
  6
CONTINUOUS
 10
87.5508072968
 20
150.87843743
  0
SEQEND
  0
POLYLINE
  8
0
 62
7
  6
CONTINUOUS
 66
1
 70
0
  0
VERTEX
  8
0
 62
7
  6
CONTINUOUS
 10
100.7508075483
 20
149.8961106706
  0
VERTEX
  8
0
 62
7
  6
CONTINUOUS
 10
100.684022358
 20
149.9050906608
  0
VERTEX
  8
0
 62
7
  6
CONTINUOUS
 10
100.6081367064
 20
149.9371300177
  0
VERTEX
  8
0
 62
7
  6
CONTINUOUS
 10
100.5364355837
 20
149.9898236024
  0
VERTEX
  8
0
 62
7
  6
CONTINUOUS
 10
100.4709627448
 20
150.0601637119
  0
VERTEX
  8
0
 62
7
  6
CONTINUOUS
 10
100.4128735549
 20
150.1458350475
  0
VERTEX
  8
0
 62
7
  6
CONTINUOUS
 10
100.3627364364
 20
150.2455724813
  0
VERTEX
  8
0
 62
7
  6
CONTINUOUS
 10
100.3213341303
 20
150.3578711296
  0
VERTEX
  8
0
 62
7
  6
CONTINUOUS
 10
100.289342318
 20
150.4807738968
  0
VERTEX
  8
0
 62
7
  6
CONTINUOUS
 10
100.2670402718
 20
150.6123171387
  0
VERTEX
  8
0
 62
7
  6
CONTINUOUS
 10
100.2543506431
 20
150.7504874438
  0
VERTEX
  8
0
 62
7
  6
CONTINUOUS
 10
100.2508072965
 20
150.8784375051
  0
SEQEND
  0
POLYLINE
  8
0
 62
7
  6
CONTINUOUS
 66
1
 70
0
  0
VERTEX
  8
0
 62
7
  6
CONTINUOUS
 10
113.2008075101
 20
114.1856700318
  0
VERTEX
  8
0
 62
7
  6
CONTINUOUS
 10
113.2151072306
 20
114.1664336542
  0
VERTEX
  8
0
 62
7
  6
CONTINUOUS
 10
113.2573456325
 20
114.1485182473
  0
VERTEX
  8
0
 62
7
  6
CONTINUOUS
 10
113.3253394129
 20
114.1328880137
  0
VERTEX
  8
0
 62
7
  6
CONTINUOUS
 10
113.3678878301
 20
114.1261956748
  0
VERTEX
  8
0
 62
7
  6
CONTINUOUS
 10
113.4670957874
 20
114.1154991875
  0
VERTEX
  8
0
 62
7
  6
CONTINUOUS
 10
113.5802627238
 20
114.1088387149
  0
VERTEX
  8
0
 62
7
  6
CONTINUOUS
 10
113.7008075101
 20
114.1065744221
  0
SEQEND
  0
LINE
  8
0
 62
7
  6
CONTINUOUS
 10
100.2508075101
 20
150.878400412
 11
100.2508075101
 21
157.2504149031
  0
LINE
  8
0
 62
7
  6
CONTINUOUS
 10
100.5008075101
 20
118.0424293408
 11
100.5008075101
 21
111.6704149031
  0
POLYLINE
  8
0
 62
7
  6
CONTINUOUS
 66
1
 70
0
  0
VERTEX
  8
0
 62
7
  6
CONTINUOUS
 10
119.5508075101
 20
154.7351597745
  0
VERTEX
  8
0
 62
7
  6
CONTINUOUS
 10
119.5651072306
 20
154.7543961521
  0
VERTEX
  8
0
 62
7
  6
CONTINUOUS
 10
119.6073456325
 20
154.772311559
  0
VERTEX
  8
0
 62
7
  6
CONTINUOUS
 10
119.6753394129
 20
154.7879417926
  0
VERTEX
  8
0
 62
7
  6
CONTINUOUS
 10
119.7178878301
 20
154.7946341315
  0
VERTEX
  8
0
 62
7
  6
CONTINUOUS
 10
119.8170957874
 20
154.8053306188
  0
VERTEX
  8
0
 62
7
  6
CONTINUOUS
 10
119.9302627238
 20
154.8119910914
  0
VERTEX
  8
0
 62
7
  6
CONTINUOUS
 10
120.0508075101
 20
154.8142553842
  0
SEQEND
  0
POLYLINE
  8
0
 62
7
  6
CONTINUOUS
 66
1
 70
0
  0
VERTEX
  8
0
 62
7
  6
CONTINUOUS
 10
94.6508075101
 20
154.8142553842
  0
VERTEX
  8
0
 62
7
  6
CONTINUOUS
 10
94.5302627238
 20
154.8119910914
  0
VERTEX
  8
0
 62
7
  6
CONTINUOUS
 10
94.4170957874
 20
154.8053306188
  0
VERTEX
  8
0
 62
7
  6
CONTINUOUS
 10
94.3178878301
 20
154.7946341315
  0
VERTEX
  8
0
 62
7
  6
CONTINUOUS
 10
94.2753394129
 20
154.7879417926
  0
VERTEX
  8
0
 62
7
  6
CONTINUOUS
 10
94.2073456325
 20
154.772311559
  0
VERTEX
  8
0
 62
7
  6
CONTINUOUS
 10
94.1651072306
 20
154.7543961521
  0
VERTEX
  8
0
 62
7
  6
CONTINUOUS
 10
94.1508075101
 20
154.7351597745
  0
SEQEND
  0
POLYLINE
  8
0
 62
7
  6
CONTINUOUS
 66
1
 70
0
  0
VERTEX
  8
0
 62
7
  6
CONTINUOUS
 10
69.2508075101
 20
154.8142553842
  0
VERTEX
  8
0
 62
7
  6
CONTINUOUS
 10
69.1302627238
 20
154.8119910914
  0
VERTEX
  8
0
 62
7
  6
CONTINUOUS
 10
69.0170957874
 20
154.8053306188
  0
VERTEX
  8
0
 62
7
  6
CONTINUOUS
 10
68.9178878301
 20
154.7946341315
  0
VERTEX
  8
0
 62
7
  6
CONTINUOUS
 10
68.8753394129
 20
154.7879417926
  0
VERTEX
  8
0
 62
7
  6
CONTINUOUS
 10
68.8073456325
 20
154.772311559
  0
VERTEX
  8
0
 62
7
  6
CONTINUOUS
 10
68.7651072306
 20
154.7543961521
  0
VERTEX
  8
0
 62
7
  6
CONTINUOUS
 10
68.7508075101
 20
154.7351597745
  0
SEQEND
  0
POLYLINE
  8
0
 62
7
  6
CONTINUOUS
 66
1
 70
0
  0
VERTEX
  8
0
 62
7
  6
CONTINUOUS
 10
43.8508075101
 20
154.8142553842
  0
VERTEX
  8
0
 62
7
  6
CONTINUOUS
 10
43.7302627238
 20
154.8119910914
  0
VERTEX
  8
0
 62
7
  6
CONTINUOUS
 10
43.6170957874
 20
154.8053306188
  0
VERTEX
  8
0
 62
7
  6
CONTINUOUS
 10
43.5178878301
 20
154.7946341315
  0
VERTEX
  8
0
 62
7
  6
CONTINUOUS
 10
43.4753394129
 20
154.7879417926
  0
VERTEX
  8
0
 62
7
  6
CONTINUOUS
 10
43.4073456325
 20
154.772311559
  0
VERTEX
  8
0
 62
7
  6
CONTINUOUS
 10
43.3651072306
 20
154.7543961521
  0
VERTEX
  8
0
 62
7
  6
CONTINUOUS
 10
43.3508075101
 20
154.7351597745
  0
SEQEND
  0
LINE
  8
0
 62
7
  6
CONTINUOUS
 10
31.1508075101
 20
154.8142553842
 11
36.2508075101
 21
154.8142553842
  0
LINE
  8
0
 62
7
  6
CONTINUOUS
 10
43.8508075101
 20
154.8142553842
 11
48.9508075101
 21
154.8142553842
  0
LINE
  8
0
 62
7
  6
CONTINUOUS
 10
56.5508075101
 20
154.8142553842
 11
61.6508075101
 21
154.8142553842
  0
LINE
  8
0
 62
7
  6
CONTINUOUS
 10
69.2508075101
 20
154.8142553842
 11
74.3508075101
 21
154.8142553842
  0
LINE
  8
0
 62
7
  6
CONTINUOUS
 10
81.9508075101
 20
154.8142553842
 11
87.0508075101
 21
154.8142553842
  0
LINE
  8
0
 62
7
  6
CONTINUOUS
 10
94.6508075101
 20
154.8142553842
 11
99.7508075101
 21
154.8142553842
  0
LINE
  8
0
 62
7
  6
CONTINUOUS
 10
107.3508075101
 20
154.8142553842
 11
112.4508075101
 21
154.8142553842
  0
LINE
  8
0
 62
7
  6
CONTINUOUS
 10
120.0508075101
 20
154.8142553842
 11
125.1508075101
 21
154.8142553842
  0
POLYLINE
  8
0
 62
7
  6
CONTINUOUS
 66
1
 70
0
  0
VERTEX
  8
0
 62
7
  6
CONTINUOUS
 10
48.9508075101
 20
154.8142553842
  0
VERTEX
  8
0
 62
7
  6
CONTINUOUS
 10
49.0713522963
 20
154.8119910914
  0
VERTEX
  8
0
 62
7
  6
CONTINUOUS
 10
49.1845192328
 20
154.8053306188
  0
VERTEX
  8
0
 62
7
  6
CONTINUOUS
 10
49.28372719
 20
154.7946341315
  0
VERTEX
  8
0
 62
7
  6
CONTINUOUS
 10
49.3262756072
 20
154.7879417926
  0
VERTEX
  8
0
 62
7
  6
CONTINUOUS
 10
49.3942693876
 20
154.772311559
  0
VERTEX
  8
0
 62
7
  6
CONTINUOUS
 10
49.4365077896
 20
154.7543961521
  0
VERTEX
  8
0
 62
7
  6
CONTINUOUS
 10
49.4508075101
 20
154.7351597745
  0
SEQEND
  0
POLYLINE
  8
0
 62
7
  6
CONTINUOUS
 66
1
 70
0
  0
VERTEX
  8
0
 62
7
  6
CONTINUOUS
 10
74.3508075101
 20
154.8142553842
  0
VERTEX
  8
0
 62
7
  6
CONTINUOUS
 10
74.4713522963
 20
154.8119910914
  0
VERTEX
  8
0
 62
7
  6
CONTINUOUS
 10
74.5845192328
 20
154.8053306188
  0
VERTEX
  8
0
 62
7
  6
CONTINUOUS
 10
74.68372719
 20
154.7946341315
  0
VERTEX
  8
0
 62
7
  6
CONTINUOUS
 10
74.7262756072
 20
154.7879417926
  0
VERTEX
  8
0
 62
7
  6
CONTINUOUS
 10
74.7942693876
 20
154.772311559
  0
VERTEX
  8
0
 62
7
  6
CONTINUOUS
 10
74.8365077896
 20
154.7543961521
  0
VERTEX
  8
0
 62
7
  6
CONTINUOUS
 10
74.8508075101
 20
154.7351597745
  0
SEQEND
  0
POLYLINE
  8
0
 62
7
  6
CONTINUOUS
 66
1
 70
0
  0
VERTEX
  8
0
 62
7
  6
CONTINUOUS
 10
99.7508075101
 20
154.8142553842
  0
VERTEX
  8
0
 62
7
  6
CONTINUOUS
 10
99.8713522963
 20
154.8119910914
  0
VERTEX
  8
0
 62
7
  6
CONTINUOUS
 10
99.9845192328
 20
154.8053306188
  0
VERTEX
  8
0
 62
7
  6
CONTINUOUS
 10
100.08372719
 20
154.7946341315
  0
VERTEX
  8
0
 62
7
  6
CONTINUOUS
 10
100.1262756072
 20
154.7879417926
  0
VERTEX
  8
0
 62
7
  6
CONTINUOUS
 10
100.1942693876
 20
154.772311559
  0
VERTEX
  8
0
 62
7
  6
CONTINUOUS
 10
100.2365077896
 20
154.7543961521
  0
VERTEX
  8
0
 62
7
  6
CONTINUOUS
 10
100.2508075101
 20
154.7351597745
  0
SEQEND
  0
POLYLINE
  8
0
 62
7
  6
CONTINUOUS
 66
1
 70
0
  0
VERTEX
  8
0
 62
7
  6
CONTINUOUS
 10
112.4508075101
 20
154.8142553842
  0
VERTEX
  8
0
 62
7
  6
CONTINUOUS
 10
112.5713522963
 20
154.8119910914
  0
VERTEX
  8
0
 62
7
  6
CONTINUOUS
 10
112.6845192328
 20
154.8053306188
  0
VERTEX
  8
0
 62
7
  6
CONTINUOUS
 10
112.78372719
 20
154.7946341315
  0
VERTEX
  8
0
 62
7
  6
CONTINUOUS
 10
112.8262756072
 20
154.7879417926
  0
VERTEX
  8
0
 62
7
  6
CONTINUOUS
 10
112.8942693876
 20
154.772311559
  0
VERTEX
  8
0
 62
7
  6
CONTINUOUS
 10
112.9365077896
 20
154.7543961521
  0
VERTEX
  8
0
 62
7
  6
CONTINUOUS
 10
112.9508075101
 20
154.7351597745
  0
SEQEND
  0
POLYLINE
  8
0
 62
7
  6
CONTINUOUS
 66
1
 70
0
  0
VERTEX
  8
0
 62
7
  6
CONTINUOUS
 10
125.1508075101
 20
154.8142553842
  0
VERTEX
  8
0
 62
7
  6
CONTINUOUS
 10
125.2713522963
 20
154.8119910914
  0
VERTEX
  8
0
 62
7
  6
CONTINUOUS
 10
125.3845192328
 20
154.8053306188
  0
VERTEX
  8
0
 62
7
  6
CONTINUOUS
 10
125.48372719
 20
154.7946341315
  0
VERTEX
  8
0
 62
7
  6
CONTINUOUS
 10
125.5262756072
 20
154.7879417926
  0
VERTEX
  8
0
 62
7
  6
CONTINUOUS
 10
125.5942693876
 20
154.772311559
  0
VERTEX
  8
0
 62
7
  6
CONTINUOUS
 10
125.6365077896
 20
154.7543961521
  0
VERTEX
  8
0
 62
7
  6
CONTINUOUS
 10
125.6508075101
 20
154.7351597745
  0
SEQEND
  0
POLYLINE
  8
0
 62
7
  6
CONTINUOUS
 66
1
 70
0
  0
VERTEX
  8
0
 62
7
  6
CONTINUOUS
 10
128.2008075101
 20
149.8961105877
  0
VERTEX
  8
0
 62
7
  6
CONTINUOUS
 10
128.321355479
 20
149.8813612314
  0
VERTEX
  8
0
 62
7
  6
CONTINUOUS
 10
128.4340157051
 20
149.8383932324
  0
VERTEX
  8
0
 62
7
  6
CONTINUOUS
 10
128.5328440606
 20
149.7699444132
  0
VERTEX
  8
0
 62
7
  6
CONTINUOUS
 10
128.5750129194
 20
149.7277283069
  0
VERTEX
  8
0
 62
7
  6
CONTINUOUS
 10
128.6432341501
 20
149.6290454888
  0
VERTEX
  8
0
 62
7
  6
CONTINUOUS
 10
128.6861120692
 20
149.5164413188
  0
VERTEX
  8
0
 62
7
  6
CONTINUOUS
 10
128.7008075101
 20
149.3961105877
  0
SEQEND
  0
POLYLINE
  8
0
 62
7
  6
CONTINUOUS
 66
1
 70
0
  0
VERTEX
  8
0
 62
7
  6
CONTINUOUS
 10
113.4508075485
 20
149.896110671
  0
VERTEX
  8
0
 62
7
  6
CONTINUOUS
 10
113.3840223556
 20
149.9050906614
  0
VERTEX
  8
0
 62
7
  6
CONTINUOUS
 10
113.3081367208
 20
149.9371300101
  0
VERTEX
  8
0
 62
7
  6
CONTINUOUS
 10
113.2364356104
 20
149.989823578
  0
VERTEX
  8
0
 62
7
  6
CONTINUOUS
 10
113.1709627476
 20
150.0601637019
  0
VERTEX
  8
0
 62
7
  6
CONTINUOUS
 10
113.1128735691
 20
150.1458350224
  0
VERTEX
  8
0
 62
7
  6
CONTINUOUS
 10
113.0627364396
 20
150.2455724728
  0
VERTEX
  8
0
 62
7
  6
CONTINUOUS
 10
113.0213341314
 20
150.3578711251
  0
VERTEX
  8
0
 62
7
  6
CONTINUOUS
 10
112.9893423166
 20
150.4807739044
  0
VERTEX
  8
0
 62
7
  6
CONTINUOUS
 10
112.9670402698
 20
150.6123171693
  0
VERTEX
  8
0
 62
7
  6
CONTINUOUS
 10
112.9543506429
 20
150.7504874655
  0
VERTEX
  8
0
 62
7
  6
CONTINUOUS
 10
112.9508072968
 20
150.87843743
  0
SEQEND
  0
POLYLINE
  8
0
 62
7
  6
CONTINUOUS
 66
1
 70
0
  0
VERTEX
  8
0
 62
7
  6
CONTINUOUS
 10
126.1508075444
 20
149.8961106706
  0
VERTEX
  8
0
 62
7
  6
CONTINUOUS
 10
126.0840223565
 20
149.9050906612
  0
VERTEX
  8
0
 62
7
  6
CONTINUOUS
 10
126.0081367051
 20
149.9371300184
  0
VERTEX
  8
0
 62
7
  6
CONTINUOUS
 10
125.9364355827
 20
149.9898236033
  0
VERTEX
  8
0
 62
7
  6
CONTINUOUS
 10
125.870962744
 20
150.0601637128
  0
VERTEX
  8
0
 62
7
  6
CONTINUOUS
 10
125.8128735544
 20
150.1458350484
  0
VERTEX
  8
0
 62
7
  6
CONTINUOUS
 10
125.762736436
 20
150.2455724821
  0
VERTEX
  8
0
 62
7
  6
CONTINUOUS
 10
125.7213341301
 20
150.3578711303
  0
VERTEX
  8
0
 62
7
  6
CONTINUOUS
 10
125.6893423179
 20
150.4807738973
  0
VERTEX
  8
0
 62
7
  6
CONTINUOUS
 10
125.6670402717
 20
150.6123171391
  0
VERTEX
  8
0
 62
7
  6
CONTINUOUS
 10
125.6543506431
 20
150.7504874439
  0
VERTEX
  8
0
 62
7
  6
CONTINUOUS
 10
125.6508072965
 20
150.8784375051
  0
SEQEND
  0
POLYLINE
  8
0
 62
7
  6
CONTINUOUS
 66
1
 70
0
  0
VERTEX
  8
0
 62
7
  6
CONTINUOUS
 10
87.5508075101
 20
154.7351597745
  0
VERTEX
  8
0
 62
7
  6
CONTINUOUS
 10
87.5365077896
 20
154.7543961521
  0
VERTEX
  8
0
 62
7
  6
CONTINUOUS
 10
87.4942693876
 20
154.772311559
  0
VERTEX
  8
0
 62
7
  6
CONTINUOUS
 10
87.4262756072
 20
154.7879417926
  0
VERTEX
  8
0
 62
7
  6
CONTINUOUS
 10
87.38372719
 20
154.7946341315
  0
VERTEX
  8
0
 62
7
  6
CONTINUOUS
 10
87.2845192328
 20
154.8053306188
  0
VERTEX
  8
0
 62
7
  6
CONTINUOUS
 10
87.1713522963
 20
154.8119910914
  0
VERTEX
  8
0
 62
7
  6
CONTINUOUS
 10
87.0508075101
 20
154.8142553842
  0
SEQEND
  0
LINE
  8
0
 62
7
  6
CONTINUOUS
 10
31.1508075101
 20
157.7504149031
 11
36.2508075101
 21
157.7504149031
  0
LINE
  8
0
 62
7
  6
CONTINUOUS
 10
43.8508075101
 20
157.7504149031
 11
48.9508075101
 21
157.7504149031
  0
LINE
  8
0
 62
7
  6
CONTINUOUS
 10
56.5508075101
 20
157.7504149031
 11
61.6508075101
 21
157.7504149031
  0
LINE
  8
0
 62
7
  6
CONTINUOUS
 10
69.2508075101
 20
157.7504149031
 11
74.3508075101
 21
157.7504149031
  0
LINE
  8
0
 62
7
  6
CONTINUOUS
 10
81.9508075101
 20
157.7504149031
 11
87.0508075101
 21
157.7504149031
  0
LINE
  8
0
 62
7
  6
CONTINUOUS
 10
94.6508075101
 20
157.7504149031
 11
99.7508075101
 21
157.7504149031
  0
LINE
  8
0
 62
7
  6
CONTINUOUS
 10
107.3508075101
 20
157.7504149031
 11
112.4508075101
 21
157.7504149031
  0
LINE
  8
0
 62
7
  6
CONTINUOUS
 10
120.0508075101
 20
157.7504149031
 11
125.1508075101
 21
157.7504149031
  0
POLYLINE
  8
0
 62
7
  6
CONTINUOUS
 66
1
 70
0
  0
VERTEX
  8
0
 62
7
  6
CONTINUOUS
 10
125.9008075101
 20
114.1856700318
  0
VERTEX
  8
0
 62
7
  6
CONTINUOUS
 10
125.9151072306
 20
114.1664336542
  0
VERTEX
  8
0
 62
7
  6
CONTINUOUS
 10
125.9573456325
 20
114.1485182473
  0
VERTEX
  8
0
 62
7
  6
CONTINUOUS
 10
126.0253394129
 20
114.1328880137
  0
VERTEX
  8
0
 62
7
  6
CONTINUOUS
 10
126.0678878301
 20
114.1261956748
  0
VERTEX
  8
0
 62
7
  6
CONTINUOUS
 10
126.1670957874
 20
114.1154991875
  0
VERTEX
  8
0
 62
7
  6
CONTINUOUS
 10
126.2802627238
 20
114.1088387149
  0
VERTEX
  8
0
 62
7
  6
CONTINUOUS
 10
126.4008075101
 20
114.1065744221
  0
SEQEND
  0
LINE
  8
0
 62
7
  6
CONTINUOUS
 10
106.6008075101
 20
111.6704149031
 11
106.6008075101
 21
118.0424293941
  0
LINE
  8
0
 62
7
  6
CONTINUOUS
 10
106.8508075101
 20
157.2504149031
 11
106.8508075101
 21
150.8784004655
  0
POLYLINE
  8
0
 62
7
  6
CONTINUOUS
 66
1
 70
0
  0
VERTEX
  8
0
 62
7
  6
CONTINUOUS
 10
106.8508079657
 20
150.8784285249
  0
VERTEX
  8
0
 62
7
  6
CONTINUOUS
 10
106.8473375218
 20
150.7517826987
  0
VERTEX
  8
0
 62
7
  6
CONTINUOUS
 10
106.8347281612
 20
150.6135106019
  0
VERTEX
  8
0
 62
7
  6
CONTINUOUS
 10
106.8125040176
 20
150.4818628766
  0
VERTEX
  8
0
 62
7
  6
CONTINUOUS
 10
106.7805875249
 20
150.3588562421
  0
VERTEX
  8
0
 62
7
  6
CONTINUOUS
 10
106.7392580903
 20
150.2464526047
  0
VERTEX
  8
0
 62
7
  6
CONTINUOUS
 10
106.6891906543
 20
150.1466056019
  0
VERTEX
  8
0
 62
7
  6
CONTINUOUS
 10
106.6311671678
 20
150.0608156782
  0
VERTEX
  8
0
 62
7
  6
CONTINUOUS
 10
106.56575418
 20
149.9903418852
  0
VERTEX
  8
0
 62
7
  6
CONTINUOUS
 10
106.4941015011
 20
149.9374910443
  0
VERTEX
  8
0
 62
7
  6
CONTINUOUS
 10
106.4182388768
 20
149.9052651376
  0
VERTEX
  8
0
 62
7
  6
CONTINUOUS
 10
106.3508075101
 20
149.8961106692
  0
SEQEND
  0
POLYLINE
  8
0
 62
7
  6
CONTINUOUS
 66
1
 70
0
  0
VERTEX
  8
0
 62
7
  6
CONTINUOUS
 10
106.6008073009
 20
118.042392313
  0
VERTEX
  8
0
 62
7
  6
CONTINUOUS
 10
106.6042776918
 20
118.1690509393
  0
VERTEX
  8
0
 62
7
  6
CONTINUOUS
 10
106.6168872687
 20
118.3073244715
  0
VERTEX
  8
0
 62
7
  6
CONTINUOUS
 10
106.6391113813
 20
118.4389695396
  0
VERTEX
  8
0
 62
7
  6
CONTINUOUS
 10
106.6710275751
 20
118.561974239
  0
VERTEX
  8
0
 62
7
  6
CONTINUOUS
 10
106.7123571333
 20
118.6743777586
  0
VERTEX
  8
0
 62
7
  6
CONTINUOUS
 10
106.7624242611
 20
118.7742240571
  0
VERTEX
  8
0
 62
7
  6
CONTINUOUS
 10
106.8204482472
 20
118.8600144747
  0
VERTEX
  8
0
 62
7
  6
CONTINUOUS
 10
106.885860987
 20
118.9304881228
  0
VERTEX
  8
0
 62
7
  6
CONTINUOUS
 10
106.957514303
 20
118.9833392792
  0
VERTEX
  8
0
 62
7
  6
CONTINUOUS
 10
107.0333799054
 20
119.0155656779
  0
VERTEX
  8
0
 62
7
  6
CONTINUOUS
 10
107.1008075101
 20
119.0247191356
  0
SEQEND
  0
LINE
  8
0
 62
7
  6
CONTINUOUS
 10
112.9508075101
 20
150.8784004121
 11
112.9508075101
 21
157.2504149031
  0
LINE
  8
0
 62
7
  6
CONTINUOUS
 10
113.2008075101
 20
111.6704149031
 11
113.2008075101
 21
118.3460445045
  0
LINE
  8
0
 62
7
  6
CONTINUOUS
 10
119.3008075101
 20
111.6704149031
 11
119.3008075101
 21
118.0424293941
  0
LINE
  8
0
 62
7
  6
CONTINUOUS
 10
119.5508075101
 20
157.2504149031
 11
119.5508075101
 21
150.5747853018
  0
POLYLINE
  8
0
 62
7
  6
CONTINUOUS
 66
1
 70
0
  0
VERTEX
  8
0
 62
7
  6
CONTINUOUS
 10
119.5508079657
 20
150.8784285249
  0
VERTEX
  8
0
 62
7
  6
CONTINUOUS
 10
119.5473375218
 20
150.7517826987
  0
VERTEX
  8
0
 62
7
  6
CONTINUOUS
 10
119.5347281612
 20
150.6135106019
  0
VERTEX
  8
0
 62
7
  6
CONTINUOUS
 10
119.5125040176
 20
150.4818628766
  0
VERTEX
  8
0
 62
7
  6
CONTINUOUS
 10
119.4805875249
 20
150.3588562421
  0
VERTEX
  8
0
 62
7
  6
CONTINUOUS
 10
119.4392580903
 20
150.2464526047
  0
VERTEX
  8
0
 62
7
  6
CONTINUOUS
 10
119.3891906543
 20
150.1466056019
  0
VERTEX
  8
0
 62
7
  6
CONTINUOUS
 10
119.3311671678
 20
150.0608156782
  0
VERTEX
  8
0
 62
7
  6
CONTINUOUS
 10
119.26575418
 20
149.9903418852
  0
VERTEX
  8
0
 62
7
  6
CONTINUOUS
 10
119.1941015011
 20
149.9374910443
  0
VERTEX
  8
0
 62
7
  6
CONTINUOUS
 10
119.1182388768
 20
149.9052651376
  0
VERTEX
  8
0
 62
7
  6
CONTINUOUS
 10
119.0508075101
 20
149.8961106692
  0
SEQEND
  0
POLYLINE
  8
0
 62
7
  6
CONTINUOUS
 66
1
 70
0
  0
VERTEX
  8
0
 62
7
  6
CONTINUOUS
 10
119.3008073009
 20
118.042392313
  0
VERTEX
  8
0
 62
7
  6
CONTINUOUS
 10
119.3042776918
 20
118.1690509393
  0
VERTEX
  8
0
 62
7
  6
CONTINUOUS
 10
119.3168872687
 20
118.3073244715
  0
VERTEX
  8
0
 62
7
  6
CONTINUOUS
 10
119.3391113813
 20
118.4389695396
  0
VERTEX
  8
0
 62
7
  6
CONTINUOUS
 10
119.3710275751
 20
118.561974239
  0
VERTEX
  8
0
 62
7
  6
CONTINUOUS
 10
119.4123571333
 20
118.6743777586
  0
VERTEX
  8
0
 62
7
  6
CONTINUOUS
 10
119.4624242611
 20
118.7742240571
  0
VERTEX
  8
0
 62
7
  6
CONTINUOUS
 10
119.5204482472
 20
118.8600144747
  0
VERTEX
  8
0
 62
7
  6
CONTINUOUS
 10
119.585860987
 20
118.9304881228
  0
VERTEX
  8
0
 62
7
  6
CONTINUOUS
 10
119.657514303
 20
118.9833392792
  0
VERTEX
  8
0
 62
7
  6
CONTINUOUS
 10
119.7333799054
 20
119.0155656779
  0
VERTEX
  8
0
 62
7
  6
CONTINUOUS
 10
119.8008075101
 20
119.0247191356
  0
SEQEND
  0
LINE
  8
0
 62
7
  6
CONTINUOUS
 10
125.6508075101
 20
150.8784004149
 11
125.6508075101
 21
157.2504149031
  0
LINE
  8
0
 62
7
  6
CONTINUOUS
 10
125.9008075101
 20
118.0424293408
 11
125.9008075101
 21
111.6704149031
  0
LINE
  8
0
 62
7
  6
CONTINUOUS
 10
128.7008075101
 20
118.8104149031
 11
128.9008075101
 21
119.0104149031
  0
LINE
  8
0
 62
7
  6
CONTINUOUS
 10
128.7008075101
 20
111.6704149031
 11
128.7008075101
 21
149.3961105877
  0
LINE
  8
0
 62
7
  6
CONTINUOUS
 10
128.9008075101
 20
147.8266664043
 11
128.9008075101
 21
119.0104149031
  0
POLYLINE
  8
0
 62
7
  6
CONTINUOUS
 66
1
 70
0
  0
VERTEX
  8
0
 62
7
  6
CONTINUOUS
 10
128.7008075101
 20
114.1856700318
  0
VERTEX
  8
0
 62
7
  6
CONTINUOUS
 10
128.6865077896
 20
114.1664336542
  0
VERTEX
  8
0
 62
7
  6
CONTINUOUS
 10
128.6442693876
 20
114.1485182473
  0
VERTEX
  8
0
 62
7
  6
CONTINUOUS
 10
128.5762756072
 20
114.1328880137
  0
VERTEX
  8
0
 62
7
  6
CONTINUOUS
 10
128.53372719
 20
114.1261956748
  0
VERTEX
  8
0
 62
7
  6
CONTINUOUS
 10
128.4345192328
 20
114.1154991875
  0
VERTEX
  8
0
 62
7
  6
CONTINUOUS
 10
128.3213522963
 20
114.1088387149
  0
VERTEX
  8
0
 62
7
  6
CONTINUOUS
 10
128.2008075101
 20
114.1065744221
  0
SEQEND
  0
LINE
  8
0
 62
7
  6
CONTINUOUS
 10
27.4008075101
 20
213.3756220306
 11
27.4008075101
 21
218.9135371472
  0
LINE
  8
0
 62
7
  6
CONTINUOUS
 10
27.6008075101
 20
211.7390221125
 11
27.6008075101
 21
219.2390220306
  0
LINE
  8
0
 62
7
  6
CONTINUOUS
 10
30.4008075101
 20
211.7390220306
 11
30.4008075101
 21
219.2390220306
  0
POLYLINE
  8
0
 62
7
  6
CONTINUOUS
 66
1
 70
0
  0
VERTEX
  8
0
 62
7
  6
CONTINUOUS
 10
27.4360887405
 20
213.190934019
  0
VERTEX
  8
0
 62
7
  6
CONTINUOUS
 10
27.4097392422
 20
213.2810766664
  0
VERTEX
  8
0
 62
7
  6
CONTINUOUS
 10
27.4008002967
 20
213.3756220306
  0
SEQEND
  0
LINE
  8
0
 62
7
  6
CONTINUOUS
 10
32.2508075101
 20
211.7390220306
 11
32.2508075101
 21
213.5155839718
  0
LINE
  8
0
 62
7
  6
CONTINUOUS
 10
27.4797692901
 20
213.1059429299
 11
27.4360887405
 21
213.190934019
  0
LINE
  8
0
 62
7
  6
CONTINUOUS
 10
34.7508075101
 20
212.7450796657
 11
34.7508075101
 21
211.4390244936
  0
LINE
  8
0
 62
7
  6
CONTINUOUS
 10
35.1508075101
 20
211.7390220306
 11
35.1508075101
 21
213.5159842142
  0
LINE
  8
0
 62
7
  6
CONTINUOUS
 10
37.0008075101
 20
219.2390220306
 11
37.0008075101
 21
211.7390220306
  0
POLYLINE
  8
0
 62
7
  6
CONTINUOUS
 66
1
 70
0
  0
VERTEX
  8
0
 62
7
  6
CONTINUOUS
 10
34.7508072501
 20
212.745137177
  0
VERTEX
  8
0
 62
7
  6
CONTINUOUS
 10
34.761596313
 20
212.8314929431
  0
VERTEX
  8
0
 62
7
  6
CONTINUOUS
 10
34.7766693352
 20
212.8817315474
  0
VERTEX
  8
0
 62
7
  6
CONTINUOUS
 10
34.8211752374
 20
212.9741493911
  0
SEQEND
  0
POLYLINE
  8
0
 62
7
  6
CONTINUOUS
 66
1
 70
0
  0
VERTEX
  8
0
 62
7
  6
CONTINUOUS
 10
34.9720525844
 20
212.826835214
  0
VERTEX
  8
0
 62
7
  6
CONTINUOUS
 10
35.07005288
 20
212.5768451476
  0
VERTEX
  8
0
 62
7
  6
CONTINUOUS
 10
35.1317023122
 20
212.3244948086
  0
VERTEX
  8
0
 62
7
  6
CONTINUOUS
 10
35.1508076928
 20
212.1033498781
  0
SEQEND
  0
LINE
  8
0
 62
7
  6
CONTINUOUS
 10
36.1679252557
 20
212.3766788498
 11
36.4001131056
 21
211.5937094098
  0
POLYLINE
  8
0
 62
7
  6
CONTINUOUS
 66
1
 70
0
  0
VERTEX
  8
0
 62
7
  6
CONTINUOUS
 10
36.4001136718
 20
211.5937075949
  0
VERTEX
  8
0
 62
7
  6
CONTINUOUS
 10
36.393154832
 20
211.6197370804
  0
VERTEX
  8
0
 62
7
  6
CONTINUOUS
 10
36.3795332677
 20
211.7390220306
  0
SEQEND
  0
LINE
  8
0
 62
7
  6
CONTINUOUS
 10
41.1008075101
 20
212.7450802127
 11
41.1008075101
 21
211.4390244936
  0
POLYLINE
  8
0
 62
7
  6
CONTINUOUS
 66
1
 70
0
  0
VERTEX
  8
0
 62
7
  6
CONTINUOUS
 10
41.1008072036
 20
212.7450811371
  0
VERTEX
  8
0
 62
7
  6
CONTINUOUS
 10
41.1013970744
 20
212.7644240219
  0
VERTEX
  8
0
 62
7
  6
CONTINUOUS
 10
41.1041621841
 20
212.7921714254
  0
VERTEX
  8
0
 62
7
  6
CONTINUOUS
 10
41.1090908417
 20
212.8203496675
  0
VERTEX
  8
0
 62
7
  6
CONTINUOUS
 10
41.1160324911
 20
212.8485767252
  0
VERTEX
  8
0
 62
7
  6
CONTINUOUS
 10
41.1248096591
 20
212.8764888344
  0
VERTEX
  8
0
 62
7
  6
CONTINUOUS
 10
41.1352179182
 20
212.9037464922
  0
VERTEX
  8
0
 62
7
  6
CONTINUOUS
 10
41.1470629731
 20
212.9300903428
  0
VERTEX
  8
0
 62
7
  6
CONTINUOUS
 10
41.1601281777
 20
212.9552518818
  0
VERTEX
  8
0
 62
7
  6
CONTINUOUS
 10
41.1741910975
 20
212.9789915558
  0
VERTEX
  8
0
 62
7
  6
CONTINUOUS
 10
41.1890359873
 20
213.0011176805
  0
VERTEX
  8
0
 62
7
  6
CONTINUOUS
 10
41.2044564261
 20
213.0214767681
  0
VERTEX
  8
0
 62
7
  6
CONTINUOUS
 10
41.2203374007
 20
213.0400405565
  0
VERTEX
  8
0
 62
7
  6
CONTINUOUS
 10
41.2367809639
 20
213.0569660535
  0
VERTEX
  8
0
 62
7
  6
CONTINUOUS
 10
41.2538483006
 20
213.0722450388
  0
VERTEX
  8
0
 62
7
  6
CONTINUOUS
 10
41.2715361121
 20
213.0857258698
  0
VERTEX
  8
0
 62
7
  6
CONTINUOUS
 10
41.290145217
 20
213.0973384722
  0
VERTEX
  8
0
 62
7
  6
CONTINUOUS
 10
41.3096844497
 20
213.1065828601
  0
VERTEX
  8
0
 62
7
  6
CONTINUOUS
 10
41.3298199398
 20
213.1126494828
  0
VERTEX
  8
0
 62
7
  6
CONTINUOUS
 10
41.3491520468
 20
213.1147388513
  0
VERTEX
  8
0
 62
7
  6
CONTINUOUS
 10
41.3669455839
 20
213.1131975546
  0
VERTEX
  8
0
 62
7
  6
CONTINUOUS
 10
41.3833083429
 20
213.1089866162
  0
VERTEX
  8
0
 62
7
  6
CONTINUOUS
 10
41.3992940766
 20
213.1025439341
  0
VERTEX
  8
0
 62
7
  6
CONTINUOUS
 10
41.4081388053
 20
213.0980664432
  0
SEQEND
  0
POLYLINE
  8
0
 62
7
  6
CONTINUOUS
 66
1
 70
0
  0
VERTEX
  8
0
 62
7
  6
CONTINUOUS
 10
34.776470271
 20
212.8810680636
  0
VERTEX
  8
0
 62
7
  6
CONTINUOUS
 10
34.7869283403
 20
212.9078101099
  0
VERTEX
  8
0
 62
7
  6
CONTINUOUS
 10
34.7993494109
 20
212.9347511736
  0
VERTEX
  8
0
 62
7
  6
CONTINUOUS
 10
34.8130213836
 20
212.9603890982
  0
SEQEND
  0
LINE
  8
0
 62
7
  6
CONTINUOUS
 10
27.4008075101
 20
218.9135371472
 11
27.6008075101
 21
219.1291351306
  0
LINE
  8
0
 62
7
  6
CONTINUOUS
 10
34.9029222965
 20
212.9745735504
 11
34.9144460685
 21
212.9501566403
  0
LINE
  8
0
 62
7
  6
CONTINUOUS
 10
34.9144460685
 20
212.9501566403
 11
34.9720785607
 21
212.826782319
  0
POLYLINE
  8
0
 62
7
  6
CONTINUOUS
 66
1
 70
0
  0
VERTEX
  8
0
 62
7
  6
CONTINUOUS
 10
36.1650212134
 20
212.3860790949
  0
VERTEX
  8
0
 62
7
  6
CONTINUOUS
 10
36.164518926
 20
212.3873588178
  0
VERTEX
  8
0
 62
7
  6
CONTINUOUS
 10
36.1679208445
 20
212.3766936914
  0
SEQEND
  0
LINE
  8
0
 62
7
  6
CONTINUOUS
 10
43.1008075101
 20
213.0981115371
 11
43.1008075101
 21
219.2390220306
  0
LINE
  8
2_FEATURE
 62
7
  6
CONTINUOUS
 10
43.1508071286
 20
217.2863673681
 11
43.1508071286
 21
217.2390220306
  0
LINE
  8
2_FEATURE
 62
7
  6
CONTINUOUS
 10
43.2008075101
 20
217.3181675028
 11
43.2008075101
 21
217.2390220306
  0
LINE
  8
0
 62
7
  6
CONTINUOUS
 10
43.3508075101
 20
211.7390911263
 11
43.3508075101
 21
217.163313741
  0
LINE
  8
2_FEATURE
 62
7
  6
CONTINUOUS
 10
43.4008078915
 20
217.3390220306
 11
43.4008078915
 21
217.2390220306
  0
LINE
  8
2_FEATURE
 62
7
  6
CONTINUOUS
 10
43.4258075101
 20
217.3390220306
 11
43.4258075101
 21
217.2390220306
  0
LINE
  8
2_FEATURE
 62
7
  6
CONTINUOUS
 10
43.4508071286
 20
217.3390220306
 11
43.4508071286
 21
217.2390220306
  0
LINE
  8
2_FEATURE
 62
7
  6
CONTINUOUS
 10
43.5008075101
 20
217.3390220306
 11
43.5008075101
 21
217.2390220306
  0
LINE
  8
2_FEATURE
 62
7
  6
CONTINUOUS
 10
43.5758075101
 20
217.3390220306
 11
43.5758075101
 21
217.2390220306
  0
LINE
  8
2_FEATURE
 62
7
  6
CONTINUOUS
 10
43.7008078915
 20
217.3390220306
 11
43.7008078915
 21
217.2390220306
  0
LINE
  8
2_FEATURE
 62
7
  6
CONTINUOUS
 10
43.8508078915
 20
217.3390220306
 11
43.8508078915
 21
217.2390220306
  0
LINE
  8
1_AXIS
 62
7
  6
CONTINUOUS
 10
43.9808075101
 20
217.3390220306
 11
43.9808075101
 21
217.2390220306
  0
LINE
  8
1_AXIS
 62
7
  6
CONTINUOUS
 10
44.4908075101
 20
217.3390220306
 11
44.4908075101
 21
217.2390220306
  0
LINE
  8
0
 62
7
  6
CONTINUOUS
 10
43.0909961496
 20
212.9690301647
 11
43.1008082856
 21
213.0980047141
  0
POLYLINE
  8
0
 62
7
  6
CONTINUOUS
 66
1
 70
0
  0
VERTEX
  8
0
 62
7
  6
CONTINUOUS
 10
43.1008075101
 20
217.163313741
  0
VERTEX
  8
0
 62
7
  6
CONTINUOUS
 10
43.1098596422
 20
217.2201933658
  0
VERTEX
  8
0
 62
7
  6
CONTINUOUS
 10
43.1397025012
 20
217.2753341543
  0
VERTEX
  8
0
 62
7
  6
CONTINUOUS
 10
43.1623711885
 20
217.2978570599
  0
VERTEX
  8
0
 62
7
  6
CONTINUOUS
 10
43.2203221834
 20
217.3284794068
  0
VERTEX
  8
0
 62
7
  6
CONTINUOUS
 10
43.2937064516
 20
217.3390220306
  0
SEQEND
  0
LINE
  8
0
 62
7
  6
CONTINUOUS
 10
34.8611086709
 20
213.0418909992
 11
34.8640817436
 21
213.0472426427
  0
LINE
  8
0
 62
7
  6
CONTINUOUS
 10
34.8566142285
 20
213.0339083135
 11
34.8611086709
 21
213.0418909992
  0
LINE
  8
0
 62
7
  6
CONTINUOUS
 10
34.8518276691
 20
213.0255310601
 11
34.8566142285
 21
213.0339083135
  0
LINE
  8
0
 62
7
  6
CONTINUOUS
 10
34.846980514
 20
213.0171643195
 11
34.8518276691
 21
213.0255310601
  0
LINE
  8
0
 62
7
  6
CONTINUOUS
 10
34.8426111744
 20
213.0097125877
 11
34.846980514
 21
213.0171643195
  0
LINE
  8
0
 62
7
  6
CONTINUOUS
 10
34.837346589
 20
213.0008361767
 11
34.8426111744
 21
213.0097125877
  0
LINE
  8
0
 62
7
  6
CONTINUOUS
 10
34.832316454
 20
212.9924488993
 11
34.837346589
 21
213.0008361767
  0
LINE
  8
0
 62
7
  6
CONTINUOUS
 10
34.8202957317
 20
212.972323071
 11
34.832316454
 21
212.9924488993
  0
POLYLINE
  8
0
 62
7
  6
CONTINUOUS
 66
1
 70
0
  0
VERTEX
  8
0
 62
7
  6
CONTINUOUS
 10
34.8276982109
 20
212.98446725
  0
VERTEX
  8
0
 62
7
  6
CONTINUOUS
 10
34.8431461759
 20
213.0067874062
  0
VERTEX
  8
0
 62
7
  6
CONTINUOUS
 10
34.8591403876
 20
213.0271922524
  0
VERTEX
  8
0
 62
7
  6
CONTINUOUS
 10
34.8673167947
 20
213.0366844108
  0
VERTEX
  8
0
 62
7
  6
CONTINUOUS
 10
34.8694324461
 20
213.0389120446
  0
SEQEND
  0
POLYLINE
  8
0
 62
7
  6
CONTINUOUS
 66
1
 70
0
  0
VERTEX
  8
0
 62
7
  6
CONTINUOUS
 10
27.6008075101
 20
216.5027506555
  0
VERTEX
  8
0
 62
7
  6
CONTINUOUS
 10
27.6152106223
 20
216.5169832482
  0
VERTEX
  8
0
 62
7
  6
CONTINUOUS
 10
27.657676982
 20
216.530218327
  0
VERTEX
  8
0
 62
7
  6
CONTINUOUS
 10
27.7258882548
 20
216.5417435525
  0
VERTEX
  8
0
 62
7
  6
CONTINUOUS
 10
27.7685033901
 20
216.5466707763
  0
VERTEX
  8
0
 62
7
  6
CONTINUOUS
 10
27.8677092983
 20
216.5545348147
  0
VERTEX
  8
0
 62
7
  6
CONTINUOUS
 10
27.9806668116
 20
216.5594226491
  0
VERTEX
  8
0
 62
7
  6
CONTINUOUS
 10
28.1008075101
 20
216.5610816995
  0
SEQEND
  0
POLYLINE
  8
0
 62
7
  6
CONTINUOUS
 66
1
 70
0
  0
VERTEX
  8
0
 62
7
  6
CONTINUOUS
 10
27.6008075101
 20
214.6752934057
  0
VERTEX
  8
0
 62
7
  6
CONTINUOUS
 10
27.6152106223
 20
214.661060813
  0
VERTEX
  8
0
 62
7
  6
CONTINUOUS
 10
27.657676982
 20
214.6478257342
  0
VERTEX
  8
0
 62
7
  6
CONTINUOUS
 10
27.7258882548
 20
214.6363005086
  0
VERTEX
  8
0
 62
7
  6
CONTINUOUS
 10
27.7685033901
 20
214.6313732849
  0
VERTEX
  8
0
 62
7
  6
CONTINUOUS
 10
27.8677092983
 20
214.6235092465
  0
VERTEX
  8
0
 62
7
  6
CONTINUOUS
 10
27.9806668116
 20
214.6186214121
  0
VERTEX
  8
0
 62
7
  6
CONTINUOUS
 10
28.1008075101
 20
214.6169623616
  0
SEQEND
  0
POLYLINE
  8
0
 62
7
  6
CONTINUOUS
 66
1
 70
0
  0
VERTEX
  8
0
 62
7
  6
CONTINUOUS
 10
43.3508075101
 20
217.163313741
  0
VERTEX
  8
0
 62
7
  6
CONTINUOUS
 10
43.3417526653
 20
217.2202017305
  0
VERTEX
  8
0
 62
7
  6
CONTINUOUS
 10
43.3118878637
 20
217.2753641745
  0
VERTEX
  8
0
 62
7
  6
CONTINUOUS
 10
43.2892137982
 20
217.2978814018
  0
VERTEX
  8
0
 62
7
  6
CONTINUOUS
 10
43.2312715677
 20
217.3284861157
  0
VERTEX
  8
0
 62
7
  6
CONTINUOUS
 10
43.2258192799
 20
217.3292691376
  0
SEQEND
  0
LINE
  8
1_AXIS
 62
7
  6
CONTINUOUS
 10
45.1808075101
 20
217.3390220306
 11
45.1808075101
 21
217.2390220306
  0
LINE
  8
1_AXIS
 62
7
  6
CONTINUOUS
 10
45.6908075101
 20
217.3390220306
 11
45.6908075101
 21
217.2390220306
  0
LINE
  8
2_FEATURE
 62
7
  6
CONTINUOUS
 10
45.7258073193
 20
217.3390220306
 11
45.7258073193
 21
217.2390220306
  0
LINE
  8
1_AXIS
 62
7
  6
CONTINUOUS
 10
45.8108075101
 20
217.3390220306
 11
45.8108075101
 21
217.2390220306
  0
LINE
  8
1_AXIS
 62
7
  6
CONTINUOUS
 10
46.3208075101
 20
217.3390220306
 11
46.3208075101
 21
217.2390220306
  0
LINE
  8
1_AXIS
 62
7
  6
CONTINUOUS
 10
47.1308075101
 20
217.3390220306
 11
47.1308075101
 21
217.2390220306
  0
LINE
  8
0
 62
7
  6
CONTINUOUS
 10
43.0040851762
 20
212.7357061797
 11
43.0583504467
 21
212.842906878
  0
LINE
  8
0
 62
7
  6
CONTINUOUS
 10
35.1771660484
 20
217.3380316854
 11
34.6781563936
 21
216.8390220306
  0
POLYLINE
  8
0
 62
7
  6
CONTINUOUS
 66
1
 70
0
  0
VERTEX
  8
0
 62
7
  6
CONTINUOUS
 10
30.4008075101
 20
216.5027506555
  0
VERTEX
  8
0
 62
7
  6
CONTINUOUS
 10
30.3864043979
 20
216.5169832482
  0
VERTEX
  8
0
 62
7
  6
CONTINUOUS
 10
30.3439380381
 20
216.530218327
  0
VERTEX
  8
0
 62
7
  6
CONTINUOUS
 10
30.2757267653
 20
216.5417435525
  0
VERTEX
  8
0
 62
7
  6
CONTINUOUS
 10
30.23311163
 20
216.5466707763
  0
VERTEX
  8
0
 62
7
  6
CONTINUOUS
 10
30.1339057218
 20
216.5545348147
  0
VERTEX
  8
0
 62
7
  6
CONTINUOUS
 10
30.0209482085
 20
216.5594226491
  0
VERTEX
  8
0
 62
7
  6
CONTINUOUS
 10
29.9008075101
 20
216.5610816995
  0
SEQEND
  0
LINE
  8
0
 62
7
  6
CONTINUOUS
 10
32.7235857151
 20
216.8390220306
 11
32.2245652773
 21
217.3380424684
  0
LINE
  8
1_AXIS
 62
7
  6
CONTINUOUS
 10
48.6608075101
 20
217.3390220306
 11
48.6608075101
 21
217.2390220306
  0
LINE
  8
2_FEATURE
 62
7
  6
CONTINUOUS
 10
48.7508075101
 20
217.3390220306
 11
48.7508075101
 21
217.2390220306
  0
LINE
  8
2_FEATURE
 62
7
  6
CONTINUOUS
 10
48.8258075101
 20
217.3390220306
 11
48.8258075101
 21
217.2390220306
  0
LINE
  8
2_FEATURE
 62
7
  6
CONTINUOUS
 10
48.9008075101
 20
217.3390220306
 11
48.9008075101
 21
217.2390220306
  0
LINE
  8
2_FEATURE
 62
7
  6
CONTINUOUS
 10
48.9508073193
 20
217.3390220306
 11
48.9508073193
 21
217.2390220306
  0
LINE
  8
2_FEATURE
 62
7
  6
CONTINUOUS
 10
49.1508077008
 20
217.3390220306
 11
49.1508077008
 21
217.2390220306
  0
LINE
  8
2_FEATURE
 62
7
  6
CONTINUOUS
 10
49.3508075101
 20
217.3390220306
 11
49.3508075101
 21
217.2390220306
  0
LINE
  8
0
 62
7
  6
CONTINUOUS
 10
49.4508075101
 20
211.7390911263
 11
49.4508075101
 21
217.163313741
  0
LINE
  8
2_FEATURE
 62
7
  6
CONTINUOUS
 10
49.4758076054
 20
217.3390220306
 11
49.4758076054
 21
217.2390220306
  0
LINE
  8
2_FEATURE
 62
7
  6
CONTINUOUS
 10
49.5008075101
 20
217.3390220306
 11
49.5008075101
 21
217.2390220306
  0
LINE
  8
2_FEATURE
 62
7
  6
CONTINUOUS
 10
49.5258074147
 20
217.3390220306
 11
49.5258074147
 21
217.2390220306
  0
LINE
  8
2_FEATURE
 62
7
  6
CONTINUOUS
 10
49.5508076054
 20
217.3328524157
 11
49.5508076054
 21
217.2390220306
  0
LINE
  8
2_FEATURE
 62
7
  6
CONTINUOUS
 10
49.6258076054
 20
217.3049043476
 11
49.6258076054
 21
217.2390220306
  0
LINE
  8
0
 62
7
  6
CONTINUOUS
 10
49.7008075101
 20
211.7390232836
 11
49.7008075101
 21
219.2390220306
  0
POLYLINE
  8
0
 62
7
  6
CONTINUOUS
 66
1
 70
0
  0
VERTEX
  8
0
 62
7
  6
CONTINUOUS
 10
43.0035335176
 20
212.7348806396
  0
VERTEX
  8
0
 62
7
  6
CONTINUOUS
 10
43.0579989572
 20
212.841967362
  0
VERTEX
  8
0
 62
7
  6
CONTINUOUS
 10
43.0911560467
 20
212.9700422672
  0
SEQEND
  0
POLYLINE
  8
0
 62
7
  6
CONTINUOUS
 66
1
 70
0
  0
VERTEX
  8
0
 62
7
  6
CONTINUOUS
 10
49.4713417751
 20
217.2414290023
  0
VERTEX
  8
0
 62
7
  6
CONTINUOUS
 10
49.4598045213
 20
217.2200230934
  0
VERTEX
  8
0
 62
7
  6
CONTINUOUS
 10
49.4508075101
 20
217.163313741
  0
SEQEND
  0
LINE
  8
0
 62
7
  6
CONTINUOUS
 10
42.932807577
 20
212.652817954
 11
43.0040851762
 21
212.7357061797
  0
POLYLINE
  8
0
 62
7
  6
CONTINUOUS
 66
1
 70
0
  0
VERTEX
  8
0
 62
7
  6
CONTINUOUS
 10
43.1008075101
 20
214.6752934057
  0
VERTEX
  8
0
 62
7
  6
CONTINUOUS
 10
43.0864043979
 20
214.661060813
  0
VERTEX
  8
0
 62
7
  6
CONTINUOUS
 10
43.0439380381
 20
214.6478257342
  0
VERTEX
  8
0
 62
7
  6
CONTINUOUS
 10
42.9757267653
 20
214.6363005086
  0
VERTEX
  8
0
 62
7
  6
CONTINUOUS
 10
42.93311163
 20
214.6313732849
  0
VERTEX
  8
0
 62
7
  6
CONTINUOUS
 10
42.8339057218
 20
214.6235092465
  0
VERTEX
  8
0
 62
7
  6
CONTINUOUS
 10
42.7209482085
 20
214.6186214121
  0
VERTEX
  8
0
 62
7
  6
CONTINUOUS
 10
42.6008075101
 20
214.6169623616
  0
SEQEND
  0
LINE
  8
0
 62
7
  6
CONTINUOUS
 10
55.8008075101
 20
211.7390220306
 11
55.8008075101
 21
219.2390220306
  0
LINE
  8
0
 62
7
  6
CONTINUOUS
 10
57.6508075101
 20
211.7390220306
 11
57.6508075101
 21
213.5159842056
  0
POLYLINE
  8
0
 62
7
  6
CONTINUOUS
 66
1
 70
0
  0
VERTEX
  8
0
 62
7
  6
CONTINUOUS
 10
56.4015013483
 20
211.5937075949
  0
VERTEX
  8
0
 62
7
  6
CONTINUOUS
 10
56.4084601881
 20
211.6197370804
  0
VERTEX
  8
0
 62
7
  6
CONTINUOUS
 10
56.4220817524
 20
211.7390220306
  0
SEQEND
  0
POLYLINE
  8
0
 62
7
  6
CONTINUOUS
 66
1
 70
0
  0
VERTEX
  8
0
 62
7
  6
CONTINUOUS
 10
49.7008075101
 20
216.5027506555
  0
VERTEX
  8
0
 62
7
  6
CONTINUOUS
 10
49.7152106223
 20
216.5169832482
  0
VERTEX
  8
0
 62
7
  6
CONTINUOUS
 10
49.757676982
 20
216.530218327
  0
VERTEX
  8
0
 62
7
  6
CONTINUOUS
 10
49.8258882548
 20
216.5417435525
  0
VERTEX
  8
0
 62
7
  6
CONTINUOUS
 10
49.8685033901
 20
216.5466707763
  0
VERTEX
  8
0
 62
7
  6
CONTINUOUS
 10
49.9677092983
 20
216.5545348147
  0
VERTEX
  8
0
 62
7
  6
CONTINUOUS
 10
50.0806668116
 20
216.5594226491
  0
VERTEX
  8
0
 62
7
  6
CONTINUOUS
 10
50.2008075101
 20
216.5610816995
  0
SEQEND
  0
LINE
  8
0
 62
7
  6
CONTINUOUS
 10
60.5508075101
 20
211.7390220306
 11
60.5508075101
 21
213.5159842138
  0
LINE
  8
0
 62
7
  6
CONTINUOUS
 10
56.4015019146
 20
211.5937094098
 11
56.6336897644
 21
212.3766788498
  0
LINE
  8
0
 62
7
  6
CONTINUOUS
 10
56.6336944902
 20
212.3766947524
 11
56.6370508702
 21
212.3872338585
  0
LINE
  8
0
 62
7
  6
CONTINUOUS
 10
42.8931221771
 20
212.6214033648
 11
42.9335421319
 21
212.6534801539
  0
POLYLINE
  8
0
 62
7
  6
CONTINUOUS
 66
1
 70
0
  0
VERTEX
  8
0
 62
7
  6
CONTINUOUS
 10
41.4081415752
 20
213.098066104
  0
VERTEX
  8
0
 62
7
  6
CONTINUOUS
 10
41.7355577825
 20
212.9297439515
  0
VERTEX
  8
0
 62
7
  6
CONTINUOUS
 10
42.1175286769
 20
212.7531392532
  0
VERTEX
  8
0
 62
7
  6
CONTINUOUS
 10
42.5276527083
 20
212.5830289581
  0
SEQEND
  0
POLYLINE
  8
0
 62
7
  6
CONTINUOUS
 66
1
 70
0
  0
VERTEX
  8
0
 62
7
  6
CONTINUOUS
 10
61.5650212134
 20
212.3860790949
  0
VERTEX
  8
0
 62
7
  6
CONTINUOUS
 10
61.564518926
 20
212.3873588178
  0
VERTEX
  8
0
 62
7
  6
CONTINUOUS
 10
61.5679208445
 20
212.3766936914
  0
SEQEND
  0
LINE
  8
0
 62
7
  6
CONTINUOUS
 10
61.5679252557
 20
212.3766788498
 11
61.8001131056
 21
211.5937094098
  0
POLYLINE
  8
0
 62
7
  6
CONTINUOUS
 66
1
 70
0
  0
VERTEX
  8
0
 62
7
  6
CONTINUOUS
 10
61.8001136718
 20
211.5937075949
  0
VERTEX
  8
0
 62
7
  6
CONTINUOUS
 10
61.793154832
 20
211.6197370804
  0
VERTEX
  8
0
 62
7
  6
CONTINUOUS
 10
61.7795332677
 20
211.7390220306
  0
SEQEND
  0
LINE
  8
0
 62
7
  6
CONTINUOUS
 10
62.4008075101
 20
211.7390220306
 11
62.4008075101
 21
219.2390220306
  0
LINE
  8
0
 62
7
  6
CONTINUOUS
 10
60.5771660484
 20
217.3380316854
 11
60.0781563936
 21
216.8390220306
  0
LINE
  8
0
 62
7
  6
CONTINUOUS
 10
42.8069278358
 20
212.5766273259
 11
42.8939329464
 21
212.6219666198
  0
POLYLINE
  8
0
 62
7
  6
CONTINUOUS
 66
1
 70
0
  0
VERTEX
  8
0
 62
7
  6
CONTINUOUS
 10
34.8377912125
 20
213.0745744914
  0
VERTEX
  8
0
 62
7
  6
CONTINUOUS
 10
34.8375750204
 20
213.0746431763
  0
VERTEX
  8
0
 62
7
  6
CONTINUOUS
 10
34.8392462409
 20
213.0737771069
  0
VERTEX
  8
0
 62
7
  6
CONTINUOUS
 10
34.8435659819
 20
213.0707961299
  0
VERTEX
  8
0
 62
7
  6
CONTINUOUS
 10
34.8488433888
 20
213.0661339911
  0
VERTEX
  8
0
 62
7
  6
CONTINUOUS
 10
34.8538267267
 20
213.060827691
  0
VERTEX
  8
0
 62
7
  6
CONTINUOUS
 10
34.8587057747
 20
213.0548104846
  0
VERTEX
  8
0
 62
7
  6
CONTINUOUS
 10
34.8630890821
 20
213.0487438045
  0
VERTEX
  8
0
 62
7
  6
CONTINUOUS
 10
34.8673348603
 20
213.0423230862
  0
VERTEX
  8
0
 62
7
  6
CONTINUOUS
 10
34.8715430312
 20
213.0354798639
  0
VERTEX
  8
0
 62
7
  6
CONTINUOUS
 10
34.8757022694
 20
213.0282973402
  0
VERTEX
  8
0
 62
7
  6
CONTINUOUS
 10
34.8798752033
 20
213.0207250181
  0
VERTEX
  8
0
 62
7
  6
CONTINUOUS
 10
34.8841226475
 20
213.0126958027
  0
VERTEX
  8
0
 62
7
  6
CONTINUOUS
 10
34.8884693959
 20
213.0041995629
  0
VERTEX
  8
0
 62
7
  6
CONTINUOUS
 10
34.892966361
 20
212.9951701244
  0
VERTEX
  8
0
 62
7
  6
CONTINUOUS
 10
34.8977437166
 20
212.9853713409
  0
VERTEX
  8
0
 62
7
  6
CONTINUOUS
 10
34.9029222965
 20
212.9745735504
  0
SEQEND
  0
LINE
  8
0
 62
7
  6
CONTINUOUS
 10
42.5253320374
 20
212.5839915206
 11
42.5276530552
 21
212.5830286586
  0
POLYLINE
  8
0
 62
7
  6
CONTINUOUS
 66
1
 70
0
  0
VERTEX
  8
0
 62
7
  6
CONTINUOUS
 10
55.8008075101
 20
216.5027506555
  0
VERTEX
  8
0
 62
7
  6
CONTINUOUS
 10
55.7864043979
 20
216.5169832482
  0
VERTEX
  8
0
 62
7
  6
CONTINUOUS
 10
55.7439380381
 20
216.530218327
  0
VERTEX
  8
0
 62
7
  6
CONTINUOUS
 10
55.6757267653
 20
216.5417435525
  0
VERTEX
  8
0
 62
7
  6
CONTINUOUS
 10
55.63311163
 20
216.5466707763
  0
VERTEX
  8
0
 62
7
  6
CONTINUOUS
 10
55.5339057218
 20
216.5545348147
  0
VERTEX
  8
0
 62
7
  6
CONTINUOUS
 10
55.4209482085
 20
216.5594226491
  0
VERTEX
  8
0
 62
7
  6
CONTINUOUS
 10
55.3008075101
 20
216.5610816995
  0
SEQEND
  0
LINE
  8
0
 62
7
  6
CONTINUOUS
 10
58.1234586265
 20
216.8390220306
 11
57.6244489717
 21
217.3380316854
  0
POLYLINE
  8
0
 62
7
  6
CONTINUOUS
 66
1
 70
0
  0
VERTEX
  8
0
 62
7
  6
CONTINUOUS
 10
68.5008075101
 20
217.163313741
  0
VERTEX
  8
0
 62
7
  6
CONTINUOUS
 10
68.5098596422
 20
217.2201933658
  0
VERTEX
  8
0
 62
7
  6
CONTINUOUS
 10
68.5397025012
 20
217.2753341543
  0
VERTEX
  8
0
 62
7
  6
CONTINUOUS
 10
68.5623711885
 20
217.2978570599
  0
VERTEX
  8
0
 62
7
  6
CONTINUOUS
 10
68.6203221834
 20
217.3284794068
  0
VERTEX
  8
0
 62
7
  6
CONTINUOUS
 10
68.6937064516
 20
217.3390220306
  0
SEQEND
  0
POLYLINE
  8
0
 62
7
  6
CONTINUOUS
 66
1
 70
0
  0
VERTEX
  8
0
 62
7
  6
CONTINUOUS
 10
120.0329611524
 20
211.2390647999
  0
VERTEX
  8
0
 62
7
  6
CONTINUOUS
 10
120.1516853618
 20
211.2550010517
  0
VERTEX
  8
0
 62
7
  6
CONTINUOUS
 10
120.2632748881
 20
211.2987144508
  0
VERTEX
  8
0
 62
7
  6
CONTINUOUS
 10
120.3613580015
 20
211.3676054955
  0
VERTEX
  8
0
 62
7
  6
CONTINUOUS
 10
120.4035547589
 20
211.4102827801
  0
VERTEX
  8
0
 62
7
  6
CONTINUOUS
 10
120.471285804
 20
211.5090025431
  0
VERTEX
  8
0
 62
7
  6
CONTINUOUS
 10
120.5137906474
 20
211.6207071423
  0
VERTEX
  8
0
 62
7
  6
CONTINUOUS
 10
120.5287433501
 20
211.7390220306
  0
SEQEND
  0
POLYLINE
  8
0
 62
7
  6
CONTINUOUS
 66
1
 70
0
  0
VERTEX
  8
0
 62
7
  6
CONTINUOUS
 10
36.2686538677
 20
211.2390647999
  0
VERTEX
  8
0
 62
7
  6
CONTINUOUS
 10
36.1499296583
 20
211.2550010517
  0
VERTEX
  8
0
 62
7
  6
CONTINUOUS
 10
36.038340132
 20
211.2987144508
  0
VERTEX
  8
0
 62
7
  6
CONTINUOUS
 10
35.9402570187
 20
211.3676054955
  0
VERTEX
  8
0
 62
7
  6
CONTINUOUS
 10
35.8980602612
 20
211.4102827801
  0
VERTEX
  8
0
 62
7
  6
CONTINUOUS
 10
35.8303292162
 20
211.5090025431
  0
VERTEX
  8
0
 62
7
  6
CONTINUOUS
 10
35.7878243727
 20
211.6207071423
  0
VERTEX
  8
0
 62
7
  6
CONTINUOUS
 10
35.77287167
 20
211.7390220306
  0
SEQEND
  0
LINE
  8
0
 62
7
  6
CONTINUOUS
 10
42.5276581457
 20
212.5830269287
 11
42.6157754377
 21
212.5588098058
  0
LINE
  8
0
 62
7
  6
CONTINUOUS
 10
68.5008075101
 20
211.7390232836
 11
68.5008075101
 21
219.2390220306
  0
LINE
  8
0
 62
7
  6
CONTINUOUS
 10
68.7508075101
 20
211.7390911263
 11
68.7508075101
 21
217.163313741
  0
LINE
  8
2_FEATURE
 62
7
  6
CONTINUOUS
 10
69.1758074683
 20
217.3390220306
 11
69.1758074683
 21
217.2390220306
  0
LINE
  8
2_FEATURE
 62
7
  6
CONTINUOUS
 10
69.5258075101
 20
217.3390220306
 11
69.5258075101
 21
217.2390220306
  0
LINE
  8
2_FEATURE
 62
7
  6
CONTINUOUS
 10
69.5508075101
 20
217.3390220306
 11
69.5508075101
 21
217.2390220306
  0
LINE
  8
2_FEATURE
 62
7
  6
CONTINUOUS
 10
69.6008073193
 20
217.3390220306
 11
69.6008073193
 21
217.2390220306
  0
LINE
  8
2_FEATURE
 62
7
  6
CONTINUOUS
 10
69.6758073193
 20
217.3390220306
 11
69.6758073193
 21
217.2390220306
  0
LINE
  8
2_FEATURE
 62
7
  6
CONTINUOUS
 10
69.8008077008
 20
217.3390220306
 11
69.8008077008
 21
217.2390220306
  0
LINE
  8
2_FEATURE
 62
7
  6
CONTINUOUS
 10
69.8758075518
 20
217.3390220306
 11
69.8758075518
 21
217.2390220306
  0
LINE
  8
2_FEATURE
 62
7
  6
CONTINUOUS
 10
70.9258074266
 20
217.3390220306
 11
70.9258074266
 21
217.2390220306
  0
LINE
  8
2_FEATURE
 62
7
  6
CONTINUOUS
 10
71.1883074266
 20
217.3390220306
 11
71.1883074266
 21
217.2390220306
  0
LINE
  8
2_FEATURE
 62
7
  6
CONTINUOUS
 10
71.6258075101
 20
217.3390220306
 11
71.6258075101
 21
217.2390220306
  0
LINE
  8
2_FEATURE
 62
7
  6
CONTINUOUS
 10
71.7008073193
 20
217.3390220306
 11
71.7008073193
 21
217.2390220306
  0
LINE
  8
2_FEATURE
 62
7
  6
CONTINUOUS
 10
71.7758073193
 20
217.3390220306
 11
71.7758073193
 21
217.2390220306
  0
POLYLINE
  8
0
 62
7
  6
CONTINUOUS
 66
1
 70
0
  0
VERTEX
  8
0
 62
7
  6
CONTINUOUS
 10
107.3329611524
 20
211.2390647999
  0
VERTEX
  8
0
 62
7
  6
CONTINUOUS
 10
107.4516853618
 20
211.2550010517
  0
VERTEX
  8
0
 62
7
  6
CONTINUOUS
 10
107.5632748881
 20
211.2987144508
  0
VERTEX
  8
0
 62
7
  6
CONTINUOUS
 10
107.6613580015
 20
211.3676054955
  0
VERTEX
  8
0
 62
7
  6
CONTINUOUS
 10
107.7035547589
 20
211.4102827801
  0
VERTEX
  8
0
 62
7
  6
CONTINUOUS
 10
107.771285804
 20
211.5090025431
  0
VERTEX
  8
0
 62
7
  6
CONTINUOUS
 10
107.8137906474
 20
211.6207071423
  0
VERTEX
  8
0
 62
7
  6
CONTINUOUS
 10
107.8287433501
 20
211.7390220306
  0
SEQEND
  0
POLYLINE
  8
0
 62
7
  6
CONTINUOUS
 66
1
 70
0
  0
VERTEX
  8
0
 62
7
  6
CONTINUOUS
 10
119.426371658
 20
211.2390220306
  0
VERTEX
  8
0
 62
7
  6
CONTINUOUS
 10
119.5460707668
 20
211.2536438325
  0
VERTEX
  8
0
 62
7
  6
CONTINUOUS
 10
119.6584564834
 20
211.2965907478
  0
VERTEX
  8
0
 62
7
  6
CONTINUOUS
 10
119.7570029428
 20
211.3652642994
  0
VERTEX
  8
0
 62
7
  6
CONTINUOUS
 10
119.7992670736
 20
211.4080231926
  0
VERTEX
  8
0
 62
7
  6
CONTINUOUS
 10
119.8667495134
 20
211.507227709
  0
VERTEX
  8
0
 62
7
  6
CONTINUOUS
 10
119.9015013483
 20
211.5937075949
  0
SEQEND
  0
POLYLINE
  8
0
 62
7
  6
CONTINUOUS
 66
1
 70
0
  0
VERTEX
  8
0
 62
7
  6
CONTINUOUS
 10
106.726371658
 20
211.2390220306
  0
VERTEX
  8
0
 62
7
  6
CONTINUOUS
 10
106.8460707668
 20
211.2536438325
  0
VERTEX
  8
0
 62
7
  6
CONTINUOUS
 10
106.9584564834
 20
211.2965907478
  0
VERTEX
  8
0
 62
7
  6
CONTINUOUS
 10
107.0570029428
 20
211.3652642994
  0
VERTEX
  8
0
 62
7
  6
CONTINUOUS
 10
107.0992670736
 20
211.4080231926
  0
VERTEX
  8
0
 62
7
  6
CONTINUOUS
 10
107.1667495134
 20
211.507227709
  0
VERTEX
  8
0
 62
7
  6
CONTINUOUS
 10
107.2015013483
 20
211.5937075949
  0
SEQEND
  0
POLYLINE
  8
0
 62
7
  6
CONTINUOUS
 66
1
 70
0
  0
VERTEX
  8
0
 62
7
  6
CONTINUOUS
 10
36.8752433621
 20
211.2390220306
  0
VERTEX
  8
0
 62
7
  6
CONTINUOUS
 10
36.7555442533
 20
211.2536438325
  0
VERTEX
  8
0
 62
7
  6
CONTINUOUS
 10
36.6431585367
 20
211.2965907478
  0
VERTEX
  8
0
 62
7
  6
CONTINUOUS
 10
36.5446120774
 20
211.3652642994
  0
VERTEX
  8
0
 62
7
  6
CONTINUOUS
 10
36.5023479465
 20
211.4080231926
  0
VERTEX
  8
0
 62
7
  6
CONTINUOUS
 10
36.4348655067
 20
211.507227709
  0
VERTEX
  8
0
 62
7
  6
CONTINUOUS
 10
36.4001136718
 20
211.5937075949
  0
SEQEND
  0
POLYLINE
  8
0
 62
7
  6
CONTINUOUS
 66
1
 70
0
  0
VERTEX
  8
0
 62
7
  6
CONTINUOUS
 10
61.6686538677
 20
211.2390647999
  0
VERTEX
  8
0
 62
7
  6
CONTINUOUS
 10
61.5499296583
 20
211.2550010517
  0
VERTEX
  8
0
 62
7
  6
CONTINUOUS
 10
61.438340132
 20
211.2987144508
  0
VERTEX
  8
0
 62
7
  6
CONTINUOUS
 10
61.3402570187
 20
211.3676054955
  0
VERTEX
  8
0
 62
7
  6
CONTINUOUS
 10
61.2980602612
 20
211.4102827801
  0
VERTEX
  8
0
 62
7
  6
CONTINUOUS
 10
61.2303292162
 20
211.5090025431
  0
VERTEX
  8
0
 62
7
  6
CONTINUOUS
 10
61.1878243727
 20
211.6207071423
  0
VERTEX
  8
0
 62
7
  6
CONTINUOUS
 10
61.17287167
 20
211.7390220306
  0
SEQEND
  0
LINE
  8
0
 62
7
  6
CONTINUOUS
 10
68.7417526653
 20
217.2202017305
 11
68.7302587087
 21
217.2414318978
  0
LINE
  8
0
 62
7
  6
CONTINUOUS
 10
68.7508075101
 20
217.163313741
 11
68.7417526653
 21
217.2202017305
  0
LINE
  8
2_FEATURE
 62
7
  6
CONTINUOUS
 10
71.8258077008
 20
217.3390220306
 11
71.8258077008
 21
217.2390220306
  0
LINE
  8
2_FEATURE
 62
7
  6
CONTINUOUS
 10
71.9758074266
 20
217.3390220306
 11
71.9758074266
 21
217.2390220306
  0
LINE
  8
2_FEATURE
 62
7
  6
CONTINUOUS
 10
72.0195575101
 20
217.3390220306
 11
72.0195575101
 21
217.2390220306
  0
LINE
  8
2_FEATURE
 62
7
  6
CONTINUOUS
 10
72.0633075935
 20
217.3390220306
 11
72.0633075935
 21
217.2390220306
  0
LINE
  8
2_FEATURE
 62
7
  6
CONTINUOUS
 10
72.1508075101
 20
217.3390220306
 11
72.1508075101
 21
217.2390220306
  0
LINE
  8
2_FEATURE
 62
7
  6
CONTINUOUS
 10
72.2820575101
 20
217.3390220306
 11
72.2820575101
 21
217.2390220306
  0
LINE
  8
2_FEATURE
 62
7
  6
CONTINUOUS
 10
72.500807677
 20
217.3390220306
 11
72.500807677
 21
217.2390220306
  0
LINE
  8
2_FEATURE
 62
7
  6
CONTINUOUS
 10
72.763307677
 20
217.3390220306
 11
72.763307677
 21
217.2390220306
  0
LINE
  8
2_FEATURE
 62
7
  6
CONTINUOUS
 10
73.025807677
 20
217.3390220306
 11
73.025807677
 21
217.2390220306
  0
LINE
  8
2_FEATURE
 62
7
  6
CONTINUOUS
 10
73.2445573432
 20
217.3390220306
 11
73.2445573432
 21
217.2390220306
  0
LINE
  8
2_FEATURE
 62
7
  6
CONTINUOUS
 10
73.3758073432
 20
217.3390220306
 11
73.3758073432
 21
217.2390220306
  0
LINE
  8
2_FEATURE
 62
7
  6
CONTINUOUS
 10
73.4633075101
 20
217.3390220306
 11
73.4633075101
 21
217.2390220306
  0
LINE
  8
2_FEATURE
 62
7
  6
CONTINUOUS
 10
73.5070573432
 20
217.3390220306
 11
73.5070573432
 21
217.2390220306
  0
LINE
  8
2_FEATURE
 62
7
  6
CONTINUOUS
 10
73.550807677
 20
217.3390220306
 11
73.550807677
 21
217.2390220306
  0
LINE
  8
2_FEATURE
 62
7
  6
CONTINUOUS
 10
73.6008075101
 20
217.3390220306
 11
73.6008075101
 21
217.2390220306
  0
LINE
  8
2_FEATURE
 62
7
  6
CONTINUOUS
 10
73.7508075101
 20
217.3390220306
 11
73.7508075101
 21
217.2390220306
  0
LINE
  8
2_FEATURE
 62
7
  6
CONTINUOUS
 10
73.8258075101
 20
217.3390220306
 11
73.8258075101
 21
217.2390220306
  0
LINE
  8
2_FEATURE
 62
7
  6
CONTINUOUS
 10
73.9008073432
 20
217.3390220306
 11
73.9008073432
 21
217.2390220306
  0
LINE
  8
2_FEATURE
 62
7
  6
CONTINUOUS
 10
73.944557677
 20
217.3390220306
 11
73.944557677
 21
217.2390220306
  0
LINE
  8
2_FEATURE
 62
7
  6
CONTINUOUS
 10
73.9883075101
 20
217.3390220306
 11
73.9883075101
 21
217.2390220306
  0
LINE
  8
2_FEATURE
 62
7
  6
CONTINUOUS
 10
74.075807677
 20
217.3390220306
 11
74.075807677
 21
217.2390220306
  0
LINE
  8
2_FEATURE
 62
7
  6
CONTINUOUS
 10
74.207057677
 20
217.3390220306
 11
74.207057677
 21
217.2390220306
  0
LINE
  8
2_FEATURE
 62
7
  6
CONTINUOUS
 10
74.4258073432
 20
217.3390220306
 11
74.4258073432
 21
217.2390220306
  0
LINE
  8
2_FEATURE
 62
7
  6
CONTINUOUS
 10
74.6883073432
 20
217.3390220306
 11
74.6883073432
 21
217.2390220306
  0
LINE
  8
0
 62
7
  6
CONTINUOUS
 10
74.8508075101
 20
211.7390911263
 11
74.8508075101
 21
217.163313741
  0
LINE
  8
2_FEATURE
 62
7
  6
CONTINUOUS
 10
74.9508073432
 20
217.3328524534
 11
74.9508073432
 21
217.2390220306
  0
LINE
  8
0
 62
7
  6
CONTINUOUS
 10
75.1008075101
 20
211.7390232836
 11
75.1008075101
 21
219.2390220306
  0
POLYLINE
  8
0
 62
7
  6
CONTINUOUS
 66
1
 70
0
  0
VERTEX
  8
0
 62
7
  6
CONTINUOUS
 10
74.8700444771
 20
217.2390220306
  0
VERTEX
  8
0
 62
7
  6
CONTINUOUS
 10
74.8598045213
 20
217.2200230934
  0
VERTEX
  8
0
 62
7
  6
CONTINUOUS
 10
74.8508075101
 20
217.163313741
  0
SEQEND
  0
POLYLINE
  8
0
 62
7
  6
CONTINUOUS
 66
1
 70
0
  0
VERTEX
  8
0
 62
7
  6
CONTINUOUS
 10
81.9329611524
 20
211.2390647999
  0
VERTEX
  8
0
 62
7
  6
CONTINUOUS
 10
82.0516853618
 20
211.2550010517
  0
VERTEX
  8
0
 62
7
  6
CONTINUOUS
 10
82.1632748881
 20
211.2987144508
  0
VERTEX
  8
0
 62
7
  6
CONTINUOUS
 10
82.2613580015
 20
211.3676054955
  0
VERTEX
  8
0
 62
7
  6
CONTINUOUS
 10
82.3035547589
 20
211.4102827801
  0
VERTEX
  8
0
 62
7
  6
CONTINUOUS
 10
82.371285804
 20
211.5090025431
  0
VERTEX
  8
0
 62
7
  6
CONTINUOUS
 10
82.4137906474
 20
211.6207071423
  0
VERTEX
  8
0
 62
7
  6
CONTINUOUS
 10
82.4287433501
 20
211.7390220306
  0
SEQEND
  0
POLYLINE
  8
0
 62
7
  6
CONTINUOUS
 66
1
 70
0
  0
VERTEX
  8
0
 62
7
  6
CONTINUOUS
 10
81.326371658
 20
211.2390220306
  0
VERTEX
  8
0
 62
7
  6
CONTINUOUS
 10
81.4460707668
 20
211.2536438325
  0
VERTEX
  8
0
 62
7
  6
CONTINUOUS
 10
81.5584564834
 20
211.2965907478
  0
VERTEX
  8
0
 62
7
  6
CONTINUOUS
 10
81.6570029428
 20
211.3652642994
  0
VERTEX
  8
0
 62
7
  6
CONTINUOUS
 10
81.6992670736
 20
211.4080231926
  0
VERTEX
  8
0
 62
7
  6
CONTINUOUS
 10
81.7667495134
 20
211.507227709
  0
VERTEX
  8
0
 62
7
  6
CONTINUOUS
 10
81.8015013483
 20
211.5937075949
  0
SEQEND
  0
LINE
  8
0
 62
7
  6
CONTINUOUS
 10
120.0329611524
 20
211.2390647999
 11
120.0264211684
 21
211.2390220306
  0
LINE
  8
0
 62
7
  6
CONTINUOUS
 10
107.3329611524
 20
211.2390647999
 11
107.3264211684
 21
211.2390220306
  0
LINE
  8
0
 62
7
  6
CONTINUOUS
 10
81.9329611524
 20
211.2390647999
 11
81.9264211684
 21
211.2390220306
  0
LINE
  8
0
 62
7
  6
CONTINUOUS
 10
56.5329611524
 20
211.2390647999
 11
56.5264211684
 21
211.2390220306
  0
LINE
  8
0
 62
7
  6
CONTINUOUS
 10
120.6508075101
 20
211.2390220306
 11
120.0329611524
 21
211.2390220306
  0
LINE
  8
0
 62
7
  6
CONTINUOUS
 10
120.0264211684
 20
211.2390220306
 11
119.4317830628
 21
211.2390220306
  0
LINE
  8
0
 62
7
  6
CONTINUOUS
 10
113.0698319574
 20
211.2390220306
 11
112.4751938517
 21
211.2390220306
  0
LINE
  8
0
 62
7
  6
CONTINUOUS
 10
107.3264211684
 20
211.2390220306
 11
106.7317830628
 21
211.2390220306
  0
LINE
  8
0
 62
7
  6
CONTINUOUS
 10
87.6698319574
 20
211.2390220306
 11
87.0751938517
 21
211.2390220306
  0
LINE
  8
0
 62
7
  6
CONTINUOUS
 10
81.9264211684
 20
211.2390220306
 11
81.3317830628
 21
211.2390220306
  0
LINE
  8
0
 62
7
  6
CONTINUOUS
 10
62.2698319574
 20
211.2390220306
 11
61.6751938517
 21
211.2390220306
  0
LINE
  8
0
 62
7
  6
CONTINUOUS
 10
56.5264211684
 20
211.2390220306
 11
55.9317830628
 21
211.2390220306
  0
LINE
  8
0
 62
7
  6
CONTINUOUS
 10
36.8698319574
 20
211.2390220306
 11
36.2751938517
 21
211.2390220306
  0
LINE
  8
0
 62
7
  6
CONTINUOUS
 10
36.2686538677
 20
211.2390220306
 11
35.6508075101
 21
211.2390220306
  0
LINE
  8
0
 62
7
  6
CONTINUOUS
 10
28.1008075101
 20
211.2390220306
 11
34.5508075101
 21
211.2390220306
  0
LINE
  8
0
 62
7
  6
CONTINUOUS
 10
36.8752433621
 20
211.2390220306
 11
40.9008075101
 21
211.2390220306
  0
LINE
  8
0
 62
7
  6
CONTINUOUS
 10
43.8508075101
 20
211.2390220306
 11
48.9508075101
 21
211.2390220306
  0
LINE
  8
0
 62
7
  6
CONTINUOUS
 10
50.2008075101
 20
211.2390220306
 11
55.926371658
 21
211.2390220306
  0
LINE
  8
0
 62
7
  6
CONTINUOUS
 10
56.5329611524
 20
211.2390220306
 11
61.6686538677
 21
211.2390220306
  0
LINE
  8
0
 62
7
  6
CONTINUOUS
 10
62.2752433621
 20
211.2390220306
 11
68.0008075101
 21
211.2390220306
  0
LINE
  8
0
 62
7
  6
CONTINUOUS
 10
69.2508075101
 20
211.2390220306
 11
74.3508075101
 21
211.2390220306
  0
LINE
  8
0
 62
7
  6
CONTINUOUS
 10
75.6008075101
 20
211.2390220306
 11
81.326371658
 21
211.2390220306
  0
LINE
  8
0
 62
7
  6
CONTINUOUS
 10
81.9329611524
 20
211.2390220306
 11
87.0686538677
 21
211.2390220306
  0
LINE
  8
0
 62
7
  6
CONTINUOUS
 10
87.6752433621
 20
211.2390220306
 11
93.4008075101
 21
211.2390220306
  0
LINE
  8
0
 62
7
  6
CONTINUOUS
 10
94.6508075101
 20
211.2390220306
 11
99.7508075101
 21
211.2390220306
  0
LINE
  8
0
 62
7
  6
CONTINUOUS
 10
101.0008075101
 20
211.2390220306
 11
106.726371658
 21
211.2390220306
  0
LINE
  8
0
 62
7
  6
CONTINUOUS
 10
107.3329611524
 20
211.2390220306
 11
112.4686538677
 21
211.2390220306
  0
LINE
  8
0
 62
7
  6
CONTINUOUS
 10
113.0752433621
 20
211.2390220306
 11
114.3008075101
 21
211.2390220306
  0
LINE
  8
0
 62
7
  6
CONTINUOUS
 10
115.4008075101
 20
211.2390220306
 11
119.426371658
 21
211.2390220306
  0
LINE
  8
0
 62
7
  6
CONTINUOUS
 10
121.7508075101
 20
211.2390220306
 11
128.2008075101
 21
211.2390220306
  0
LINE
  8
0
 62
7
  6
CONTINUOUS
 10
36.2686538677
 20
211.2390647999
 11
36.2751938517
 21
211.2390220306
  0
LINE
  8
0
 62
7
  6
CONTINUOUS
 10
61.6686538677
 20
211.2390647999
 11
61.6751938517
 21
211.2390220306
  0
LINE
  8
0
 62
7
  6
CONTINUOUS
 10
87.0686538677
 20
211.2390647999
 11
87.0751938517
 21
211.2390220306
  0
LINE
  8
0
 62
7
  6
CONTINUOUS
 10
112.4686538677
 20
211.2390647999
 11
112.4751938517
 21
211.2390220306
  0
LINE
  8
0
 62
7
  6
CONTINUOUS
 10
42.6146326772
 20
212.5589938275
 11
42.7144579584
 21
212.5556333323
  0
POLYLINE
  8
0
 62
7
  6
CONTINUOUS
 66
1
 70
0
  0
VERTEX
  8
0
 62
7
  6
CONTINUOUS
 10
62.2752433621
 20
211.2390220306
  0
VERTEX
  8
0
 62
7
  6
CONTINUOUS
 10
62.1555442533
 20
211.2536438325
  0
VERTEX
  8
0
 62
7
  6
CONTINUOUS
 10
62.0431585367
 20
211.2965907478
  0
VERTEX
  8
0
 62
7
  6
CONTINUOUS
 10
61.9446120774
 20
211.3652642994
  0
VERTEX
  8
0
 62
7
  6
CONTINUOUS
 10
61.9023479465
 20
211.4080231926
  0
VERTEX
  8
0
 62
7
  6
CONTINUOUS
 10
61.8348655067
 20
211.507227709
  0
VERTEX
  8
0
 62
7
  6
CONTINUOUS
 10
61.8001136718
 20
211.5937075949
  0
SEQEND
  0
POLYLINE
  8
0
 62
7
  6
CONTINUOUS
 66
1
 70
0
  0
VERTEX
  8
0
 62
7
  6
CONTINUOUS
 10
87.6752433621
 20
211.2390220306
  0
VERTEX
  8
0
 62
7
  6
CONTINUOUS
 10
87.5555442533
 20
211.2536438325
  0
VERTEX
  8
0
 62
7
  6
CONTINUOUS
 10
87.4431585367
 20
211.2965907478
  0
VERTEX
  8
0
 62
7
  6
CONTINUOUS
 10
87.3446120774
 20
211.3652642994
  0
VERTEX
  8
0
 62
7
  6
CONTINUOUS
 10
87.3023479465
 20
211.4080231926
  0
VERTEX
  8
0
 62
7
  6
CONTINUOUS
 10
87.2348655067
 20
211.507227709
  0
VERTEX
  8
0
 62
7
  6
CONTINUOUS
 10
87.2001136718
 20
211.5937075949
  0
SEQEND
  0
POLYLINE
  8
0
 62
7
  6
CONTINUOUS
 66
1
 70
0
  0
VERTEX
  8
0
 62
7
  6
CONTINUOUS
 10
87.0686538677
 20
211.2390647999
  0
VERTEX
  8
0
 62
7
  6
CONTINUOUS
 10
86.9499296583
 20
211.2550010517
  0
VERTEX
  8
0
 62
7
  6
CONTINUOUS
 10
86.838340132
 20
211.2987144508
  0
VERTEX
  8
0
 62
7
  6
CONTINUOUS
 10
86.7402570187
 20
211.3676054955
  0
VERTEX
  8
0
 62
7
  6
CONTINUOUS
 10
86.6980602612
 20
211.4102827801
  0
VERTEX
  8
0
 62
7
  6
CONTINUOUS
 10
86.6303292162
 20
211.5090025431
  0
VERTEX
  8
0
 62
7
  6
CONTINUOUS
 10
86.5878243727
 20
211.6207071423
  0
VERTEX
  8
0
 62
7
  6
CONTINUOUS
 10
86.57287167
 20
211.7390220306
  0
SEQEND
  0
POLYLINE
  8
0
 62
7
  6
CONTINUOUS
 66
1
 70
0
  0
VERTEX
  8
0
 62
7
  6
CONTINUOUS
 10
68.5008075101
 20
216.5027506555
  0
VERTEX
  8
0
 62
7
  6
CONTINUOUS
 10
68.4864043979
 20
216.5169832482
  0
VERTEX
  8
0
 62
7
  6
CONTINUOUS
 10
68.4439380381
 20
216.530218327
  0
VERTEX
  8
0
 62
7
  6
CONTINUOUS
 10
68.3757267653
 20
216.5417435525
  0
VERTEX
  8
0
 62
7
  6
CONTINUOUS
 10
68.33311163
 20
216.5466707763
  0
VERTEX
  8
0
 62
7
  6
CONTINUOUS
 10
68.2339057218
 20
216.5545348147
  0
VERTEX
  8
0
 62
7
  6
CONTINUOUS
 10
68.1209482085
 20
216.5594226491
  0
VERTEX
  8
0
 62
7
  6
CONTINUOUS
 10
68.0008075101
 20
216.5610816995
  0
SEQEND
  0
LINE
  8
1_AXIS
 62
2
  6
CENTER
 10
78.1508075101
 20
208.7390220306
 11
78.1508075101
 21
221.7390232624
  0
POLYLINE
  8
0
 62
7
  6
CONTINUOUS
 66
1
 70
0
  0
VERTEX
  8
0
 62
7
  6
CONTINUOUS
 10
56.5329611524
 20
211.2390647999
  0
VERTEX
  8
0
 62
7
  6
CONTINUOUS
 10
56.6516853618
 20
211.2550010517
  0
VERTEX
  8
0
 62
7
  6
CONTINUOUS
 10
56.7632748881
 20
211.2987144508
  0
VERTEX
  8
0
 62
7
  6
CONTINUOUS
 10
56.8613580015
 20
211.3676054955
  0
VERTEX
  8
0
 62
7
  6
CONTINUOUS
 10
56.9035547589
 20
211.4102827801
  0
VERTEX
  8
0
 62
7
  6
CONTINUOUS
 10
56.971285804
 20
211.5090025431
  0
VERTEX
  8
0
 62
7
  6
CONTINUOUS
 10
57.0137906474
 20
211.6207071423
  0
VERTEX
  8
0
 62
7
  6
CONTINUOUS
 10
57.0287433501
 20
211.7390220306
  0
SEQEND
  0
POLYLINE
  8
0
 62
7
  6
CONTINUOUS
 66
1
 70
0
  0
VERTEX
  8
0
 62
7
  6
CONTINUOUS
 10
55.926371658
 20
211.2390220306
  0
VERTEX
  8
0
 62
7
  6
CONTINUOUS
 10
56.0460707668
 20
211.2536438325
  0
VERTEX
  8
0
 62
7
  6
CONTINUOUS
 10
56.1584564834
 20
211.2965907478
  0
VERTEX
  8
0
 62
7
  6
CONTINUOUS
 10
56.2570029428
 20
211.3652642994
  0
VERTEX
  8
0
 62
7
  6
CONTINUOUS
 10
56.2992670736
 20
211.4080231926
  0
VERTEX
  8
0
 62
7
  6
CONTINUOUS
 10
56.3667495134
 20
211.507227709
  0
VERTEX
  8
0
 62
7
  6
CONTINUOUS
 10
56.4015013483
 20
211.5937075949
  0
SEQEND
  0
POLYLINE
  8
0
 62
7
  6
CONTINUOUS
 66
1
 70
0
  0
VERTEX
  8
0
 62
7
  6
CONTINUOUS
 10
118.8008075101
 20
214.6169623616
  0
VERTEX
  8
0
 62
7
  6
CONTINUOUS
 10
118.9209482085
 20
214.6186214121
  0
VERTEX
  8
0
 62
7
  6
CONTINUOUS
 10
119.0339057218
 20
214.6235092465
  0
VERTEX
  8
0
 62
7
  6
CONTINUOUS
 10
119.13311163
 20
214.6313732849
  0
VERTEX
  8
0
 62
7
  6
CONTINUOUS
 10
119.1757267653
 20
214.6363005086
  0
VERTEX
  8
0
 62
7
  6
CONTINUOUS
 10
119.2439380381
 20
214.6478257342
  0
VERTEX
  8
0
 62
7
  6
CONTINUOUS
 10
119.2864043979
 20
214.661060813
  0
VERTEX
  8
0
 62
7
  6
CONTINUOUS
 10
119.3008075101
 20
214.6752934057
  0
SEQEND
  0
POLYLINE
  8
0
 62
7
  6
CONTINUOUS
 66
1
 70
0
  0
VERTEX
  8
0
 62
7
  6
CONTINUOUS
 10
106.1008075101
 20
214.6169623616
  0
VERTEX
  8
0
 62
7
  6
CONTINUOUS
 10
106.2209482085
 20
214.6186214121
  0
VERTEX
  8
0
 62
7
  6
CONTINUOUS
 10
106.3339057218
 20
214.6235092465
  0
VERTEX
  8
0
 62
7
  6
CONTINUOUS
 10
106.43311163
 20
214.6313732849
  0
VERTEX
  8
0
 62
7
  6
CONTINUOUS
 10
106.4757267653
 20
214.6363005086
  0
VERTEX
  8
0
 62
7
  6
CONTINUOUS
 10
106.5439380381
 20
214.6478257342
  0
VERTEX
  8
0
 62
7
  6
CONTINUOUS
 10
106.5864043979
 20
214.661060813
  0
VERTEX
  8
0
 62
7
  6
CONTINUOUS
 10
106.6008075101
 20
214.6752934057
  0
SEQEND
  0
POLYLINE
  8
0
 62
7
  6
CONTINUOUS
 66
1
 70
0
  0
VERTEX
  8
0
 62
7
  6
CONTINUOUS
 10
93.4008075101
 20
214.6169623616
  0
VERTEX
  8
0
 62
7
  6
CONTINUOUS
 10
93.5209482085
 20
214.6186214121
  0
VERTEX
  8
0
 62
7
  6
CONTINUOUS
 10
93.6339057218
 20
214.6235092465
  0
VERTEX
  8
0
 62
7
  6
CONTINUOUS
 10
93.73311163
 20
214.6313732849
  0
VERTEX
  8
0
 62
7
  6
CONTINUOUS
 10
93.7757267653
 20
214.6363005086
  0
VERTEX
  8
0
 62
7
  6
CONTINUOUS
 10
93.8439380381
 20
214.6478257342
  0
VERTEX
  8
0
 62
7
  6
CONTINUOUS
 10
93.8864043979
 20
214.661060813
  0
VERTEX
  8
0
 62
7
  6
CONTINUOUS
 10
93.9008075101
 20
214.6752934057
  0
SEQEND
  0
POLYLINE
  8
0
 62
7
  6
CONTINUOUS
 66
1
 70
0
  0
VERTEX
  8
0
 62
7
  6
CONTINUOUS
 10
80.7008075101
 20
214.6169623616
  0
VERTEX
  8
0
 62
7
  6
CONTINUOUS
 10
80.8209482085
 20
214.6186214121
  0
VERTEX
  8
0
 62
7
  6
CONTINUOUS
 10
80.9339057218
 20
214.6235092465
  0
VERTEX
  8
0
 62
7
  6
CONTINUOUS
 10
81.03311163
 20
214.6313732849
  0
VERTEX
  8
0
 62
7
  6
CONTINUOUS
 10
81.0757267653
 20
214.6363005086
  0
VERTEX
  8
0
 62
7
  6
CONTINUOUS
 10
81.1439380381
 20
214.6478257342
  0
VERTEX
  8
0
 62
7
  6
CONTINUOUS
 10
81.1864043979
 20
214.661060813
  0
VERTEX
  8
0
 62
7
  6
CONTINUOUS
 10
81.2008075101
 20
214.6752934057
  0
SEQEND
  0
POLYLINE
  8
0
 62
7
  6
CONTINUOUS
 66
1
 70
0
  0
VERTEX
  8
0
 62
7
  6
CONTINUOUS
 10
68.0008075101
 20
214.6169623616
  0
VERTEX
  8
0
 62
7
  6
CONTINUOUS
 10
68.1209482085
 20
214.6186214121
  0
VERTEX
  8
0
 62
7
  6
CONTINUOUS
 10
68.2339057218
 20
214.6235092465
  0
VERTEX
  8
0
 62
7
  6
CONTINUOUS
 10
68.33311163
 20
214.6313732849
  0
VERTEX
  8
0
 62
7
  6
CONTINUOUS
 10
68.3757267653
 20
214.6363005086
  0
VERTEX
  8
0
 62
7
  6
CONTINUOUS
 10
68.4439380381
 20
214.6478257342
  0
VERTEX
  8
0
 62
7
  6
CONTINUOUS
 10
68.4864043979
 20
214.661060813
  0
VERTEX
  8
0
 62
7
  6
CONTINUOUS
 10
68.5008075101
 20
214.6752934057
  0
SEQEND
  0
POLYLINE
  8
0
 62
7
  6
CONTINUOUS
 66
1
 70
0
  0
VERTEX
  8
0
 62
7
  6
CONTINUOUS
 10
55.3008075101
 20
214.6169623616
  0
VERTEX
  8
0
 62
7
  6
CONTINUOUS
 10
55.4209482085
 20
214.6186214121
  0
VERTEX
  8
0
 62
7
  6
CONTINUOUS
 10
55.5339057218
 20
214.6235092465
  0
VERTEX
  8
0
 62
7
  6
CONTINUOUS
 10
55.63311163
 20
214.6313732849
  0
VERTEX
  8
0
 62
7
  6
CONTINUOUS
 10
55.6757267653
 20
214.6363005086
  0
VERTEX
  8
0
 62
7
  6
CONTINUOUS
 10
55.7439380381
 20
214.6478257342
  0
VERTEX
  8
0
 62
7
  6
CONTINUOUS
 10
55.7864043979
 20
214.661060813
  0
VERTEX
  8
0
 62
7
  6
CONTINUOUS
 10
55.8008075101
 20
214.6752934057
  0
SEQEND
  0
POLYLINE
  8
0
 62
7
  6
CONTINUOUS
 66
1
 70
0
  0
VERTEX
  8
0
 62
7
  6
CONTINUOUS
 10
29.9008075101
 20
214.6169623616
  0
VERTEX
  8
0
 62
7
  6
CONTINUOUS
 10
30.0209482085
 20
214.6186214121
  0
VERTEX
  8
0
 62
7
  6
CONTINUOUS
 10
30.1339057218
 20
214.6235092465
  0
VERTEX
  8
0
 62
7
  6
CONTINUOUS
 10
30.23311163
 20
214.6313732849
  0
VERTEX
  8
0
 62
7
  6
CONTINUOUS
 10
30.2757267653
 20
214.6363005086
  0
VERTEX
  8
0
 62
7
  6
CONTINUOUS
 10
30.3439380381
 20
214.6478257342
  0
VERTEX
  8
0
 62
7
  6
CONTINUOUS
 10
30.3864043979
 20
214.661060813
  0
VERTEX
  8
0
 62
7
  6
CONTINUOUS
 10
30.4008075101
 20
214.6752934057
  0
SEQEND
  0
POLYLINE
  8
0
 62
7
  6
CONTINUOUS
 66
1
 70
0
  0
VERTEX
  8
0
 62
7
  6
CONTINUOUS
 10
126.4008075101
 20
216.5610816995
  0
VERTEX
  8
0
 62
7
  6
CONTINUOUS
 10
126.2806668116
 20
216.5594226491
  0
VERTEX
  8
0
 62
7
  6
CONTINUOUS
 10
126.1677092983
 20
216.5545348147
  0
VERTEX
  8
0
 62
7
  6
CONTINUOUS
 10
126.0685033901
 20
216.5466707763
  0
VERTEX
  8
0
 62
7
  6
CONTINUOUS
 10
126.0258882548
 20
216.5417435525
  0
VERTEX
  8
0
 62
7
  6
CONTINUOUS
 10
125.957676982
 20
216.530218327
  0
VERTEX
  8
0
 62
7
  6
CONTINUOUS
 10
125.9152106223
 20
216.5169832482
  0
VERTEX
  8
0
 62
7
  6
CONTINUOUS
 10
125.9008075101
 20
216.5027506555
  0
SEQEND
  0
LINE
  8
0
 62
7
  6
CONTINUOUS
 10
28.1008075101
 20
214.6169623616
 11
29.9008075101
 21
214.6169623616
  0
LINE
  8
0
 62
7
  6
CONTINUOUS
 10
37.5008075101
 20
214.6169623616
 11
42.6008075101
 21
214.6169623616
  0
LINE
  8
0
 62
7
  6
CONTINUOUS
 10
50.2008075101
 20
214.6169623616
 11
55.3008075101
 21
214.6169623616
  0
LINE
  8
0
 62
7
  6
CONTINUOUS
 10
62.9008075101
 20
214.6169623616
 11
68.0008075101
 21
214.6169623616
  0
LINE
  8
0
 62
7
  6
CONTINUOUS
 10
75.6008075101
 20
214.6169623616
 11
80.7008075101
 21
214.6169623616
  0
LINE
  8
0
 62
7
  6
CONTINUOUS
 10
88.3008075101
 20
214.6169623616
 11
93.4008075101
 21
214.6169623616
  0
LINE
  8
0
 62
7
  6
CONTINUOUS
 10
101.0008075101
 20
214.6169623616
 11
106.1008075101
 21
214.6169623616
  0
LINE
  8
0
 62
7
  6
CONTINUOUS
 10
113.7008075101
 20
214.6169623616
 11
118.8008075101
 21
214.6169623616
  0
LINE
  8
0
 62
7
  6
CONTINUOUS
 10
126.4008075101
 20
214.6169623616
 11
128.2008075101
 21
214.6169623616
  0
LINE
  8
1_AXIS
 62
2
  6
CENTER
 10
24.3734457831
 20
215.5890220306
 11
133.4849638554
 21
215.5890220306
  0
POLYLINE
  8
0
 62
7
  6
CONTINUOUS
 66
1
 70
0
  0
VERTEX
  8
0
 62
7
  6
CONTINUOUS
 10
37.5008075101
 20
214.6169623616
  0
VERTEX
  8
0
 62
7
  6
CONTINUOUS
 10
37.3806668116
 20
214.6186214121
  0
VERTEX
  8
0
 62
7
  6
CONTINUOUS
 10
37.2677092983
 20
214.6235092465
  0
VERTEX
  8
0
 62
7
  6
CONTINUOUS
 10
37.1685033901
 20
214.6313732849
  0
VERTEX
  8
0
 62
7
  6
CONTINUOUS
 10
37.1258882548
 20
214.6363005086
  0
VERTEX
  8
0
 62
7
  6
CONTINUOUS
 10
37.057676982
 20
214.6478257342
  0
VERTEX
  8
0
 62
7
  6
CONTINUOUS
 10
37.0152106223
 20
214.661060813
  0
VERTEX
  8
0
 62
7
  6
CONTINUOUS
 10
37.0008075101
 20
214.6752934057
  0
SEQEND
  0
POLYLINE
  8
0
 62
7
  6
CONTINUOUS
 66
1
 70
0
  0
VERTEX
  8
0
 62
7
  6
CONTINUOUS
 10
50.2008075101
 20
214.6169623616
  0
VERTEX
  8
0
 62
7
  6
CONTINUOUS
 10
50.0806668116
 20
214.6186214121
  0
VERTEX
  8
0
 62
7
  6
CONTINUOUS
 10
49.9677092983
 20
214.6235092465
  0
VERTEX
  8
0
 62
7
  6
CONTINUOUS
 10
49.8685033901
 20
214.6313732849
  0
VERTEX
  8
0
 62
7
  6
CONTINUOUS
 10
49.8258882548
 20
214.6363005086
  0
VERTEX
  8
0
 62
7
  6
CONTINUOUS
 10
49.757676982
 20
214.6478257342
  0
VERTEX
  8
0
 62
7
  6
CONTINUOUS
 10
49.7152106223
 20
214.661060813
  0
VERTEX
  8
0
 62
7
  6
CONTINUOUS
 10
49.7008075101
 20
214.6752934057
  0
SEQEND
  0
POLYLINE
  8
0
 62
7
  6
CONTINUOUS
 66
1
 70
0
  0
VERTEX
  8
0
 62
7
  6
CONTINUOUS
 10
62.9008075101
 20
214.6169623616
  0
VERTEX
  8
0
 62
7
  6
CONTINUOUS
 10
62.7806668116
 20
214.6186214121
  0
VERTEX
  8
0
 62
7
  6
CONTINUOUS
 10
62.6677092983
 20
214.6235092465
  0
VERTEX
  8
0
 62
7
  6
CONTINUOUS
 10
62.5685033901
 20
214.6313732849
  0
VERTEX
  8
0
 62
7
  6
CONTINUOUS
 10
62.5258882548
 20
214.6363005086
  0
VERTEX
  8
0
 62
7
  6
CONTINUOUS
 10
62.457676982
 20
214.6478257342
  0
VERTEX
  8
0
 62
7
  6
CONTINUOUS
 10
62.4152106223
 20
214.661060813
  0
VERTEX
  8
0
 62
7
  6
CONTINUOUS
 10
62.4008075101
 20
214.6752934057
  0
SEQEND
  0
POLYLINE
  8
0
 62
7
  6
CONTINUOUS
 66
1
 70
0
  0
VERTEX
  8
0
 62
7
  6
CONTINUOUS
 10
88.3008075101
 20
214.6169623616
  0
VERTEX
  8
0
 62
7
  6
CONTINUOUS
 10
88.1806668116
 20
214.6186214121
  0
VERTEX
  8
0
 62
7
  6
CONTINUOUS
 10
88.0677092983
 20
214.6235092465
  0
VERTEX
  8
0
 62
7
  6
CONTINUOUS
 10
87.9685033901
 20
214.6313732849
  0
VERTEX
  8
0
 62
7
  6
CONTINUOUS
 10
87.9258882548
 20
214.6363005086
  0
VERTEX
  8
0
 62
7
  6
CONTINUOUS
 10
87.857676982
 20
214.6478257342
  0
VERTEX
  8
0
 62
7
  6
CONTINUOUS
 10
87.8152106223
 20
214.661060813
  0
VERTEX
  8
0
 62
7
  6
CONTINUOUS
 10
87.8008075101
 20
214.6752934057
  0
SEQEND
  0
POLYLINE
  8
0
 62
7
  6
CONTINUOUS
 66
1
 70
0
  0
VERTEX
  8
0
 62
7
  6
CONTINUOUS
 10
113.7008075101
 20
214.6169623616
  0
VERTEX
  8
0
 62
7
  6
CONTINUOUS
 10
113.5806668116
 20
214.6186214121
  0
VERTEX
  8
0
 62
7
  6
CONTINUOUS
 10
113.4677092983
 20
214.6235092465
  0
VERTEX
  8
0
 62
7
  6
CONTINUOUS
 10
113.3685033901
 20
214.6313732849
  0
VERTEX
  8
0
 62
7
  6
CONTINUOUS
 10
113.3258882548
 20
214.6363005086
  0
VERTEX
  8
0
 62
7
  6
CONTINUOUS
 10
113.257676982
 20
214.6478257342
  0
VERTEX
  8
0
 62
7
  6
CONTINUOUS
 10
113.2152106223
 20
214.661060813
  0
VERTEX
  8
0
 62
7
  6
CONTINUOUS
 10
113.2008075101
 20
214.6752934057
  0
SEQEND
  0
POLYLINE
  8
0
 62
7
  6
CONTINUOUS
 66
1
 70
0
  0
VERTEX
  8
0
 62
7
  6
CONTINUOUS
 10
126.4008075101
 20
214.6169623616
  0
VERTEX
  8
0
 62
7
  6
CONTINUOUS
 10
126.2806668116
 20
214.6186214121
  0
VERTEX
  8
0
 62
7
  6
CONTINUOUS
 10
126.1677092983
 20
214.6235092465
  0
VERTEX
  8
0
 62
7
  6
CONTINUOUS
 10
126.0685033901
 20
214.6313732849
  0
VERTEX
  8
0
 62
7
  6
CONTINUOUS
 10
126.0258882548
 20
214.6363005086
  0
VERTEX
  8
0
 62
7
  6
CONTINUOUS
 10
125.957676982
 20
214.6478257342
  0
VERTEX
  8
0
 62
7
  6
CONTINUOUS
 10
125.9152106223
 20
214.661060813
  0
VERTEX
  8
0
 62
7
  6
CONTINUOUS
 10
125.9008075101
 20
214.6752934057
  0
SEQEND
  0
POLYLINE
  8
0
 62
7
  6
CONTINUOUS
 66
1
 70
0
  0
VERTEX
  8
0
 62
7
  6
CONTINUOUS
 10
113.0752433621
 20
211.2390220306
  0
VERTEX
  8
0
 62
7
  6
CONTINUOUS
 10
112.9555442533
 20
211.2536438325
  0
VERTEX
  8
0
 62
7
  6
CONTINUOUS
 10
112.8431585367
 20
211.2965907478
  0
VERTEX
  8
0
 62
7
  6
CONTINUOUS
 10
112.7446120774
 20
211.3652642994
  0
VERTEX
  8
0
 62
7
  6
CONTINUOUS
 10
112.7023479465
 20
211.4080231926
  0
VERTEX
  8
0
 62
7
  6
CONTINUOUS
 10
112.6348655067
 20
211.507227709
  0
VERTEX
  8
0
 62
7
  6
CONTINUOUS
 10
112.6001136718
 20
211.5937075949
  0
SEQEND
  0
POLYLINE
  8
0
 62
7
  6
CONTINUOUS
 66
1
 70
0
  0
VERTEX
  8
0
 62
7
  6
CONTINUOUS
 10
112.4686538677
 20
211.2390647999
  0
VERTEX
  8
0
 62
7
  6
CONTINUOUS
 10
112.3499296583
 20
211.2550010517
  0
VERTEX
  8
0
 62
7
  6
CONTINUOUS
 10
112.238340132
 20
211.2987144508
  0
VERTEX
  8
0
 62
7
  6
CONTINUOUS
 10
112.1402570187
 20
211.3676054955
  0
VERTEX
  8
0
 62
7
  6
CONTINUOUS
 10
112.0980602612
 20
211.4102827801
  0
VERTEX
  8
0
 62
7
  6
CONTINUOUS
 10
112.0303292162
 20
211.5090025431
  0
VERTEX
  8
0
 62
7
  6
CONTINUOUS
 10
111.9878243727
 20
211.6207071423
  0
VERTEX
  8
0
 62
7
  6
CONTINUOUS
 10
111.97287167
 20
211.7390220306
  0
SEQEND
  0
POLYLINE
  8
0
 62
7
  6
CONTINUOUS
 66
1
 70
0
  0
VERTEX
  8
0
 62
7
  6
CONTINUOUS
 10
49.5079085685
 20
217.3390220306
  0
VERTEX
  8
0
 62
7
  6
CONTINUOUS
 10
49.5813585204
 20
217.3284586719
  0
VERTEX
  8
0
 62
7
  6
CONTINUOUS
 10
49.6395015179
 20
217.2976477111
  0
VERTEX
  8
0
 62
7
  6
CONTINUOUS
 10
49.6621356218
 20
217.2750618219
  0
VERTEX
  8
0
 62
7
  6
CONTINUOUS
 10
49.6918063324
 20
217.2200359839
  0
VERTEX
  8
0
 62
7
  6
CONTINUOUS
 10
49.7008075101
 20
217.163313741
  0
SEQEND
  0
POLYLINE
  8
0
 62
7
  6
CONTINUOUS
 66
1
 70
0
  0
VERTEX
  8
0
 62
7
  6
CONTINUOUS
 10
75.1008075101
 20
214.6752934057
  0
VERTEX
  8
0
 62
7
  6
CONTINUOUS
 10
75.1152106223
 20
214.661060813
  0
VERTEX
  8
0
 62
7
  6
CONTINUOUS
 10
75.157676982
 20
214.6478257342
  0
VERTEX
  8
0
 62
7
  6
CONTINUOUS
 10
75.2258882548
 20
214.6363005086
  0
VERTEX
  8
0
 62
7
  6
CONTINUOUS
 10
75.2685033901
 20
214.6313732849
  0
VERTEX
  8
0
 62
7
  6
CONTINUOUS
 10
75.3677092983
 20
214.6235092465
  0
VERTEX
  8
0
 62
7
  6
CONTINUOUS
 10
75.4806668116
 20
214.6186214121
  0
VERTEX
  8
0
 62
7
  6
CONTINUOUS
 10
75.6008075101
 20
214.6169623616
  0
SEQEND
  0
LINE
  8
0
 62
7
  6
CONTINUOUS
 10
81.2008075101
 20
211.7390220306
 11
81.2008075101
 21
219.2390220306
  0
POLYLINE
  8
0
 62
7
  6
CONTINUOUS
 66
1
 70
0
  0
VERTEX
  8
0
 62
7
  6
CONTINUOUS
 10
101.0008075101
 20
216.5610816995
  0
VERTEX
  8
0
 62
7
  6
CONTINUOUS
 10
100.8806668116
 20
216.5594226491
  0
VERTEX
  8
0
 62
7
  6
CONTINUOUS
 10
100.7677092983
 20
216.5545348147
  0
VERTEX
  8
0
 62
7
  6
CONTINUOUS
 10
100.6685033901
 20
216.5466707763
  0
VERTEX
  8
0
 62
7
  6
CONTINUOUS
 10
100.6258882548
 20
216.5417435525
  0
VERTEX
  8
0
 62
7
  6
CONTINUOUS
 10
100.557676982
 20
216.530218327
  0
VERTEX
  8
0
 62
7
  6
CONTINUOUS
 10
100.5152106223
 20
216.5169832482
  0
VERTEX
  8
0
 62
7
  6
CONTINUOUS
 10
100.5008075101
 20
216.5027506555
  0
SEQEND
  0
POLYLINE
  8
0
 62
7
  6
CONTINUOUS
 66
1
 70
0
  0
VERTEX
  8
0
 62
7
  6
CONTINUOUS
 10
88.3008075101
 20
216.5610816995
  0
VERTEX
  8
0
 62
7
  6
CONTINUOUS
 10
88.1806668116
 20
216.5594226491
  0
VERTEX
  8
0
 62
7
  6
CONTINUOUS
 10
88.0677092983
 20
216.5545348147
  0
VERTEX
  8
0
 62
7
  6
CONTINUOUS
 10
87.9685033901
 20
216.5466707763
  0
VERTEX
  8
0
 62
7
  6
CONTINUOUS
 10
87.9258882548
 20
216.5417435525
  0
VERTEX
  8
0
 62
7
  6
CONTINUOUS
 10
87.857676982
 20
216.530218327
  0
VERTEX
  8
0
 62
7
  6
CONTINUOUS
 10
87.8152106223
 20
216.5169832482
  0
VERTEX
  8
0
 62
7
  6
CONTINUOUS
 10
87.8008075101
 20
216.5027506555
  0
SEQEND
  0
POLYLINE
  8
0
 62
7
  6
CONTINUOUS
 66
1
 70
0
  0
VERTEX
  8
0
 62
7
  6
CONTINUOUS
 10
75.6008075101
 20
216.5610816995
  0
VERTEX
  8
0
 62
7
  6
CONTINUOUS
 10
75.4806668116
 20
216.5594226491
  0
VERTEX
  8
0
 62
7
  6
CONTINUOUS
 10
75.3677092983
 20
216.5545348147
  0
VERTEX
  8
0
 62
7
  6
CONTINUOUS
 10
75.2685033901
 20
216.5466707763
  0
VERTEX
  8
0
 62
7
  6
CONTINUOUS
 10
75.2258882548
 20
216.5417435525
  0
VERTEX
  8
0
 62
7
  6
CONTINUOUS
 10
75.157676982
 20
216.530218327
  0
VERTEX
  8
0
 62
7
  6
CONTINUOUS
 10
75.1152106223
 20
216.5169832482
  0
VERTEX
  8
0
 62
7
  6
CONTINUOUS
 10
75.1008075101
 20
216.5027506555
  0
SEQEND
  0
POLYLINE
  8
0
 62
7
  6
CONTINUOUS
 66
1
 70
0
  0
VERTEX
  8
0
 62
7
  6
CONTINUOUS
 10
62.9008075101
 20
216.5610816995
  0
VERTEX
  8
0
 62
7
  6
CONTINUOUS
 10
62.7806668116
 20
216.5594226491
  0
VERTEX
  8
0
 62
7
  6
CONTINUOUS
 10
62.6677092983
 20
216.5545348147
  0
VERTEX
  8
0
 62
7
  6
CONTINUOUS
 10
62.5685033901
 20
216.5466707763
  0
VERTEX
  8
0
 62
7
  6
CONTINUOUS
 10
62.5258882548
 20
216.5417435525
  0
VERTEX
  8
0
 62
7
  6
CONTINUOUS
 10
62.457676982
 20
216.530218327
  0
VERTEX
  8
0
 62
7
  6
CONTINUOUS
 10
62.4152106223
 20
216.5169832482
  0
VERTEX
  8
0
 62
7
  6
CONTINUOUS
 10
62.4008075101
 20
216.5027506555
  0
SEQEND
  0
POLYLINE
  8
0
 62
7
  6
CONTINUOUS
 66
1
 70
0
  0
VERTEX
  8
0
 62
7
  6
CONTINUOUS
 10
37.5008075101
 20
216.5610816995
  0
VERTEX
  8
0
 62
7
  6
CONTINUOUS
 10
37.3806668116
 20
216.5594226491
  0
VERTEX
  8
0
 62
7
  6
CONTINUOUS
 10
37.2677092983
 20
216.5545348147
  0
VERTEX
  8
0
 62
7
  6
CONTINUOUS
 10
37.1685033901
 20
216.5466707763
  0
VERTEX
  8
0
 62
7
  6
CONTINUOUS
 10
37.1258882548
 20
216.5417435525
  0
VERTEX
  8
0
 62
7
  6
CONTINUOUS
 10
37.057676982
 20
216.530218327
  0
VERTEX
  8
0
 62
7
  6
CONTINUOUS
 10
37.0152106223
 20
216.5169832482
  0
VERTEX
  8
0
 62
7
  6
CONTINUOUS
 10
37.0008075101
 20
216.5027506555
  0
SEQEND
  0
LINE
  8
0
 62
7
  6
CONTINUOUS
 10
28.1008075101
 20
216.5610816995
 11
29.9008075101
 21
216.5610816995
  0
LINE
  8
0
 62
7
  6
CONTINUOUS
 10
37.5008075101
 20
216.5610816995
 11
42.6008075101
 21
216.5610816995
  0
LINE
  8
0
 62
7
  6
CONTINUOUS
 10
50.2008075101
 20
216.5610816995
 11
55.3008075101
 21
216.5610816995
  0
LINE
  8
0
 62
7
  6
CONTINUOUS
 10
62.9008075101
 20
216.5610816995
 11
68.0008075101
 21
216.5610816995
  0
LINE
  8
0
 62
7
  6
CONTINUOUS
 10
75.6008075101
 20
216.5610816995
 11
80.7008075101
 21
216.5610816995
  0
LINE
  8
0
 62
7
  6
CONTINUOUS
 10
88.3008075101
 20
216.5610816995
 11
93.4008075101
 21
216.5610816995
  0
LINE
  8
0
 62
7
  6
CONTINUOUS
 10
101.0008075101
 20
216.5610816995
 11
106.1008075101
 21
216.5610816995
  0
LINE
  8
0
 62
7
  6
CONTINUOUS
 10
113.7008075101
 20
216.5610816995
 11
118.8008075101
 21
216.5610816995
  0
LINE
  8
0
 62
7
  6
CONTINUOUS
 10
126.4008075101
 20
216.5610816995
 11
128.2008075101
 21
216.5610816995
  0
LINE
  8
2_FEATURE
 62
7
  6
CONTINUOUS
 10
100.3258074266
 20
217.2390220306
 11
100.1070575101
 21
217.2390220306
  0
LINE
  8
2_FEATURE
 62
7
  6
CONTINUOUS
 10
98.8883075935
 20
217.2390220306
 11
94.1133078438
 21
217.2390220306
  0
LINE
  8
2_FEATURE
 62
7
  6
CONTINUOUS
 10
75.0815687873
 20
217.2390220306
 11
71.9758074266
 21
217.2390220306
  0
LINE
  8
2_FEATURE
 62
7
  6
CONTINUOUS
 10
71.8258077008
 20
217.2390220306
 11
68.5200499424
 21
217.2390220306
  0
LINE
  8
2_FEATURE
 62
7
  6
CONTINUOUS
 10
49.6815687873
 20
217.2390220306
 11
49.3508075101
 21
217.2390220306
  0
LINE
  8
2_FEATURE
 62
7
  6
CONTINUOUS
 10
49.1508077008
 20
217.2390220306
 11
48.6608075101
 21
217.2390220306
  0
LINE
  8
2_FEATURE
 62
7
  6
CONTINUOUS
 10
45.7258073193
 20
217.2390220306
 11
45.6908075101
 21
217.2390220306
  0
LINE
  8
1_AXIS
 62
7
  6
CONTINUOUS
 10
48.6608075101
 20
217.2390220306
 11
45.8108075101
 21
217.2390220306
  0
LINE
  8
1_AXIS
 62
7
  6
CONTINUOUS
 10
45.6908075101
 20
217.2390220306
 11
43.9808075101
 21
217.2390220306
  0
LINE
  8
2_FEATURE
 62
7
  6
CONTINUOUS
 10
43.9808075101
 20
217.2390220306
 11
43.4008078915
 21
217.2390220306
  0
LINE
  8
2_FEATURE
 62
7
  6
CONTINUOUS
 10
43.2008075101
 20
217.2390220306
 11
43.1200499424
 21
217.2390220306
  0
LINE
  8
2_FEATURE
 62
7
  6
CONTINUOUS
 10
30.4008075101
 20
217.3390220306
 11
37.0008075101
 21
217.3390220306
  0
LINE
  8
0
 62
7
  6
CONTINUOUS
 10
43.2937064516
 20
217.3390220306
 11
43.6008075101
 21
217.3390220306
  0
LINE
  8
2_FEATURE
 62
7
  6
CONTINUOUS
 10
43.6008075101
 20
217.3390220306
 11
49.2008075101
 21
217.3390220306
  0
LINE
  8
0
 62
7
  6
CONTINUOUS
 10
49.2008075101
 20
217.3390220306
 11
49.5079085685
 21
217.3390220306
  0
LINE
  8
2_FEATURE
 62
7
  6
CONTINUOUS
 10
55.8008075101
 20
217.3390220306
 11
62.4008075101
 21
217.3390220306
  0
LINE
  8
0
 62
7
  6
CONTINUOUS
 10
68.6937064516
 20
217.3390220306
 11
69.0008075101
 21
217.3390220306
  0
LINE
  8
2_FEATURE
 62
7
  6
CONTINUOUS
 10
69.0008075101
 20
217.3390220306
 11
74.6008075101
 21
217.3390220306
  0
LINE
  8
0
 62
7
  6
CONTINUOUS
 10
74.6008075101
 20
217.3390220306
 11
74.9079085685
 21
217.3390220306
  0
LINE
  8
2_FEATURE
 62
7
  6
CONTINUOUS
 10
81.2008075101
 20
217.3390220306
 11
87.8008075101
 21
217.3390220306
  0
LINE
  8
0
 62
7
  6
CONTINUOUS
 10
94.0937064516
 20
217.3390220306
 11
94.4008075101
 21
217.3390220306
  0
LINE
  8
2_FEATURE
 62
7
  6
CONTINUOUS
 10
94.4008075101
 20
217.3390220306
 11
100.0008075101
 21
217.3390220306
  0
LINE
  8
0
 62
7
  6
CONTINUOUS
 10
100.0008075101
 20
217.3390220306
 11
100.3079085685
 21
217.3390220306
  0
LINE
  8
2_FEATURE
 62
7
  6
CONTINUOUS
 10
106.6008075101
 20
217.3390220306
 11
113.2008075101
 21
217.3390220306
  0
LINE
  8
2_FEATURE
 62
7
  6
CONTINUOUS
 10
119.3008075101
 20
217.3390220306
 11
125.9008075101
 21
217.3390220306
  0
POLYLINE
  8
0
 62
7
  6
CONTINUOUS
 66
1
 70
0
  0
VERTEX
  8
0
 62
7
  6
CONTINUOUS
 10
42.6008075101
 20
216.5610816995
  0
VERTEX
  8
0
 62
7
  6
CONTINUOUS
 10
42.7209482085
 20
216.5594226491
  0
VERTEX
  8
0
 62
7
  6
CONTINUOUS
 10
42.8339057218
 20
216.5545348147
  0
VERTEX
  8
0
 62
7
  6
CONTINUOUS
 10
42.93311163
 20
216.5466707763
  0
VERTEX
  8
0
 62
7
  6
CONTINUOUS
 10
42.9757267653
 20
216.5417435525
  0
VERTEX
  8
0
 62
7
  6
CONTINUOUS
 10
43.0439380381
 20
216.530218327
  0
VERTEX
  8
0
 62
7
  6
CONTINUOUS
 10
43.0864043979
 20
216.5169832482
  0
VERTEX
  8
0
 62
7
  6
CONTINUOUS
 10
43.1008075101
 20
216.5027506555
  0
SEQEND
  0
POLYLINE
  8
0
 62
7
  6
CONTINUOUS
 66
1
 70
0
  0
VERTEX
  8
0
 62
7
  6
CONTINUOUS
 10
74.9079085685
 20
217.3390220306
  0
VERTEX
  8
0
 62
7
  6
CONTINUOUS
 10
74.9813585204
 20
217.3284586719
  0
VERTEX
  8
0
 62
7
  6
CONTINUOUS
 10
75.0395015179
 20
217.2976477111
  0
VERTEX
  8
0
 62
7
  6
CONTINUOUS
 10
75.0621356218
 20
217.2750618219
  0
VERTEX
  8
0
 62
7
  6
CONTINUOUS
 10
75.0918063324
 20
217.2200359839
  0
VERTEX
  8
0
 62
7
  6
CONTINUOUS
 10
75.1008075101
 20
217.163313741
  0
SEQEND
  0
POLYLINE
  8
0
 62
7
  6
CONTINUOUS
 66
1
 70
0
  0
VERTEX
  8
0
 62
7
  6
CONTINUOUS
 10
81.2008075101
 20
216.5027506555
  0
VERTEX
  8
0
 62
7
  6
CONTINUOUS
 10
81.1864043979
 20
216.5169832482
  0
VERTEX
  8
0
 62
7
  6
CONTINUOUS
 10
81.1439380381
 20
216.530218327
  0
VERTEX
  8
0
 62
7
  6
CONTINUOUS
 10
81.0757267653
 20
216.5417435525
  0
VERTEX
  8
0
 62
7
  6
CONTINUOUS
 10
81.03311163
 20
216.5466707763
  0
VERTEX
  8
0
 62
7
  6
CONTINUOUS
 10
80.9339057218
 20
216.5545348147
  0
VERTEX
  8
0
 62
7
  6
CONTINUOUS
 10
80.8209482085
 20
216.5594226491
  0
VERTEX
  8
0
 62
7
  6
CONTINUOUS
 10
80.7008075101
 20
216.5610816995
  0
SEQEND
  0
LINE
  8
0
 62
7
  6
CONTINUOUS
 10
83.0508075101
 20
211.7390220306
 11
83.0508075101
 21
213.5159842056
  0
POLYLINE
  8
0
 62
7
  6
CONTINUOUS
 66
1
 70
0
  0
VERTEX
  8
0
 62
7
  6
CONTINUOUS
 10
81.8015013483
 20
211.5937075949
  0
VERTEX
  8
0
 62
7
  6
CONTINUOUS
 10
81.8084601881
 20
211.6197370804
  0
VERTEX
  8
0
 62
7
  6
CONTINUOUS
 10
81.8220817524
 20
211.7390220306
  0
SEQEND
  0
LINE
  8
0
 62
7
  6
CONTINUOUS
 10
81.8015019146
 20
211.5937094098
 11
82.0336897644
 21
212.3766788498
  0
LINE
  8
0
 62
7
  6
CONTINUOUS
 10
82.0336944902
 20
212.3766947524
 11
82.0370508702
 21
212.3872338585
  0
LINE
  8
0
 62
7
  6
CONTINUOUS
 10
85.9771660484
 20
217.3380316854
 11
85.4781563936
 21
216.8390220306
  0
LINE
  8
0
 62
7
  6
CONTINUOUS
 10
42.7133973022
 20
212.5555320226
 11
42.8078744958
 21
212.5769746527
  0
LINE
  8
0
 62
7
  6
CONTINUOUS
 10
28.1008075101
 20
219.7390220306
 11
128.2008075101
 21
219.7390220306
  0
POLYLINE
  8
0
 62
7
  6
CONTINUOUS
 66
1
 70
0
  0
VERTEX
  8
0
 62
7
  6
CONTINUOUS
 10
100.3079085685
 20
217.3390220306
  0
VERTEX
  8
0
 62
7
  6
CONTINUOUS
 10
100.3813585204
 20
217.3284586719
  0
VERTEX
  8
0
 62
7
  6
CONTINUOUS
 10
100.4395015179
 20
217.2976477111
  0
VERTEX
  8
0
 62
7
  6
CONTINUOUS
 10
100.4621356218
 20
217.2750618219
  0
VERTEX
  8
0
 62
7
  6
CONTINUOUS
 10
100.4918063324
 20
217.2200359839
  0
VERTEX
  8
0
 62
7
  6
CONTINUOUS
 10
100.5008075101
 20
217.163313741
  0
SEQEND
  0
LINE
  8
0
 62
7
  6
CONTINUOUS
 10
83.5234586265
 20
216.8390220306
 11
83.0244489717
 21
217.3380316854
  0
POLYLINE
  8
0
 62
7
  6
CONTINUOUS
 66
1
 70
0
  0
VERTEX
  8
0
 62
7
  6
CONTINUOUS
 10
86.9650212134
 20
212.3860790949
  0
VERTEX
  8
0
 62
7
  6
CONTINUOUS
 10
86.964518926
 20
212.3873588178
  0
VERTEX
  8
0
 62
7
  6
CONTINUOUS
 10
86.9679208445
 20
212.3766936914
  0
SEQEND
  0
LINE
  8
0
 62
7
  6
CONTINUOUS
 10
85.9508075101
 20
211.7390220306
 11
85.9508075101
 21
213.5159842138
  0
LINE
  8
0
 62
7
  6
CONTINUOUS
 10
87.8008075101
 20
211.7390220306
 11
87.8008075101
 21
219.2390220306
  0
LINE
  8
0
 62
7
  6
CONTINUOUS
 10
86.9679252557
 20
212.3766788498
 11
87.2001131056
 21
211.5937094098
  0
POLYLINE
  8
0
 62
7
  6
CONTINUOUS
 66
1
 70
0
  0
VERTEX
  8
0
 62
7
  6
CONTINUOUS
 10
87.2001136718
 20
211.5937075949
  0
VERTEX
  8
0
 62
7
  6
CONTINUOUS
 10
87.193154832
 20
211.6197370804
  0
VERTEX
  8
0
 62
7
  6
CONTINUOUS
 10
87.1795332677
 20
211.7390220306
  0
SEQEND
  0
POLYLINE
  8
0
 62
7
  6
CONTINUOUS
 66
1
 70
0
  0
VERTEX
  8
0
 62
7
  6
CONTINUOUS
 10
93.9008075101
 20
216.5027506555
  0
VERTEX
  8
0
 62
7
  6
CONTINUOUS
 10
93.8864043979
 20
216.5169832482
  0
VERTEX
  8
0
 62
7
  6
CONTINUOUS
 10
93.8439380381
 20
216.530218327
  0
VERTEX
  8
0
 62
7
  6
CONTINUOUS
 10
93.7757267653
 20
216.5417435525
  0
VERTEX
  8
0
 62
7
  6
CONTINUOUS
 10
93.73311163
 20
216.5466707763
  0
VERTEX
  8
0
 62
7
  6
CONTINUOUS
 10
93.6339057218
 20
216.5545348147
  0
VERTEX
  8
0
 62
7
  6
CONTINUOUS
 10
93.5209482085
 20
216.5594226491
  0
VERTEX
  8
0
 62
7
  6
CONTINUOUS
 10
93.4008075101
 20
216.5610816995
  0
SEQEND
  0
LINE
  8
0
 62
7
  6
CONTINUOUS
 10
93.9008075101
 20
211.7390232836
 11
93.9008075101
 21
219.2390220306
  0
LINE
  8
2_FEATURE
 62
7
  6
CONTINUOUS
 10
94.1133078438
 20
217.3390220306
 11
94.1133078438
 21
217.2390220306
  0
LINE
  8
0
 62
7
  6
CONTINUOUS
 10
94.1508075101
 20
217.2390220306
 11
94.1508075101
 21
211.7390911263
  0
LINE
  8
2_FEATURE
 62
7
  6
CONTINUOUS
 10
94.1570571763
 20
217.3390220306
 11
94.1570571763
 21
217.2390220306
  0
LINE
  8
2_FEATURE
 62
7
  6
CONTINUOUS
 10
94.2883071763
 20
217.3390220306
 11
94.2883071763
 21
217.2390220306
  0
LINE
  8
2_FEATURE
 62
7
  6
CONTINUOUS
 10
94.4633075101
 20
217.3390220306
 11
94.4633075101
 21
217.2390220306
  0
LINE
  8
2_FEATURE
 62
7
  6
CONTINUOUS
 10
94.6820571763
 20
217.3390220306
 11
94.6820571763
 21
217.2390220306
  0
LINE
  8
2_FEATURE
 62
7
  6
CONTINUOUS
 10
95.3008075101
 20
217.3390220306
 11
95.3008075101
 21
217.2390220306
  0
POLYLINE
  8
0
 62
7
  6
CONTINUOUS
 66
1
 70
0
  0
VERTEX
  8
0
 62
7
  6
CONTINUOUS
 10
93.9008075101
 20
217.163313741
  0
VERTEX
  8
0
 62
7
  6
CONTINUOUS
 10
93.9098596422
 20
217.2201933658
  0
VERTEX
  8
0
 62
7
  6
CONTINUOUS
 10
93.9397025012
 20
217.2753341543
  0
VERTEX
  8
0
 62
7
  6
CONTINUOUS
 10
93.9623711885
 20
217.2978570599
  0
VERTEX
  8
0
 62
7
  6
CONTINUOUS
 10
94.0203221834
 20
217.3284794068
  0
VERTEX
  8
0
 62
7
  6
CONTINUOUS
 10
94.0937064516
 20
217.3390220306
  0
SEQEND
  0
POLYLINE
  8
0
 62
7
  6
CONTINUOUS
 66
1
 70
0
  0
VERTEX
  8
0
 62
7
  6
CONTINUOUS
 10
113.7739617452
 20
212.5830287325
  0
VERTEX
  8
0
 62
7
  6
CONTINUOUS
 10
114.1852473322
 20
212.7536477333
  0
VERTEX
  8
0
 62
7
  6
CONTINUOUS
 10
114.5672011915
 20
212.9303028637
  0
VERTEX
  8
0
 62
7
  6
CONTINUOUS
 10
114.8934735946
 20
213.0980661913
  0
SEQEND
  0
POLYLINE
  8
0
 62
7
  6
CONTINUOUS
 66
1
 70
0
  0
VERTEX
  8
0
 62
7
  6
CONTINUOUS
 10
100.5008075101
 20
214.6752934057
  0
VERTEX
  8
0
 62
7
  6
CONTINUOUS
 10
100.5152106223
 20
214.661060813
  0
VERTEX
  8
0
 62
7
  6
CONTINUOUS
 10
100.557676982
 20
214.6478257342
  0
VERTEX
  8
0
 62
7
  6
CONTINUOUS
 10
100.6258882548
 20
214.6363005086
  0
VERTEX
  8
0
 62
7
  6
CONTINUOUS
 10
100.6685033901
 20
214.6313732849
  0
VERTEX
  8
0
 62
7
  6
CONTINUOUS
 10
100.7677092983
 20
214.6235092465
  0
VERTEX
  8
0
 62
7
  6
CONTINUOUS
 10
100.8806668116
 20
214.6186214121
  0
VERTEX
  8
0
 62
7
  6
CONTINUOUS
 10
101.0008075101
 20
214.6169623616
  0
SEQEND
  0
LINE
  8
2_FEATURE
 62
7
  6
CONTINUOUS
 10
96.3508075101
 20
217.3390220306
 11
96.3508075101
 21
217.2390220306
  0
LINE
  8
2_FEATURE
 62
7
  6
CONTINUOUS
 10
96.5695575518
 20
217.3390220306
 11
96.5695575518
 21
217.2390220306
  0
LINE
  8
2_FEATURE
 62
7
  6
CONTINUOUS
 10
96.7445575101
 20
217.3390220306
 11
96.7445575101
 21
217.2390220306
  0
LINE
  8
2_FEATURE
 62
7
  6
CONTINUOUS
 10
96.8758075101
 20
217.3390220306
 11
96.8758075101
 21
217.2390220306
  0
LINE
  8
2_FEATURE
 62
7
  6
CONTINUOUS
 10
96.9195574683
 20
217.3390220306
 11
96.9195574683
 21
217.2390220306
  0
LINE
  8
2_FEATURE
 62
7
  6
CONTINUOUS
 10
97.2695575101
 20
217.3390220306
 11
97.2695575101
 21
217.2390220306
  0
LINE
  8
2_FEATURE
 62
7
  6
CONTINUOUS
 10
98.3195575101
 20
217.3390220306
 11
98.3195575101
 21
217.2390220306
  0
LINE
  8
2_FEATURE
 62
7
  6
CONTINUOUS
 10
98.5383074266
 20
217.3390220306
 11
98.5383074266
 21
217.2390220306
  0
LINE
  8
2_FEATURE
 62
7
  6
CONTINUOUS
 10
98.7133075101
 20
217.3390220306
 11
98.7133075101
 21
217.2390220306
  0
LINE
  8
2_FEATURE
 62
7
  6
CONTINUOUS
 10
98.8445575101
 20
217.3390220306
 11
98.8445575101
 21
217.2390220306
  0
LINE
  8
2_FEATURE
 62
7
  6
CONTINUOUS
 10
98.8883075935
 20
217.3390220306
 11
98.8883075935
 21
217.2390220306
  0
POLYLINE
  8
0
 62
7
  6
CONTINUOUS
 66
1
 70
0
  0
VERTEX
  8
0
 62
7
  6
CONTINUOUS
 10
114.8934761309
 20
213.0980663994
  0
VERTEX
  8
0
 62
7
  6
CONTINUOUS
 10
114.9032935135
 20
213.1029973393
  0
VERTEX
  8
0
 62
7
  6
CONTINUOUS
 10
114.919111772
 20
213.1092522001
  0
VERTEX
  8
0
 62
7
  6
CONTINUOUS
 10
114.9346734479
 20
213.113198269
  0
VERTEX
  8
0
 62
7
  6
CONTINUOUS
 10
114.9514596104
 20
213.1147405921
  0
VERTEX
  8
0
 62
7
  6
CONTINUOUS
 10
114.9693850571
 20
213.1131184906
  0
VERTEX
  8
0
 62
7
  6
CONTINUOUS
 10
114.9872230899
 20
213.1083315146
  0
VERTEX
  8
0
 62
7
  6
CONTINUOUS
 10
115.004337078
 20
213.1010749182
  0
VERTEX
  8
0
 62
7
  6
CONTINUOUS
 10
115.0207742914
 20
213.0918665751
  0
VERTEX
  8
0
 62
7
  6
CONTINUOUS
 10
115.036468119
 20
213.0811305286
  0
VERTEX
  8
0
 62
7
  6
CONTINUOUS
 10
115.0515173286
 20
213.0690802375
  0
VERTEX
  8
0
 62
7
  6
CONTINUOUS
 10
115.0661496016
 20
213.0556932484
  0
VERTEX
  8
0
 62
7
  6
CONTINUOUS
 10
115.0803240532
 20
213.0410836627
  0
VERTEX
  8
0
 62
7
  6
CONTINUOUS
 10
115.0940767916
 20
213.0252605494
  0
VERTEX
  8
0
 62
7
  6
CONTINUOUS
 10
115.107484939
 20
213.00811748
  0
VERTEX
  8
0
 62
7
  6
CONTINUOUS
 10
115.1205180658
 20
212.9896219702
  0
VERTEX
  8
0
 62
7
  6
CONTINUOUS
 10
115.1330434529
 20
212.969864874
  0
VERTEX
  8
0
 62
7
  6
CONTINUOUS
 10
115.1449291734
 20
212.9489489181
  0
VERTEX
  8
0
 62
7
  6
CONTINUOUS
 10
115.1560282493
 20
212.9270156407
  0
VERTEX
  8
0
 62
7
  6
CONTINUOUS
 10
115.1661994282
 20
212.9042212478
  0
VERTEX
  8
0
 62
7
  6
CONTINUOUS
 10
115.1753012498
 20
212.8807435895
  0
VERTEX
  8
0
 62
7
  6
CONTINUOUS
 10
115.1832110773
 20
212.8567401789
  0
VERTEX
  8
0
 62
7
  6
CONTINUOUS
 10
115.1897932611
 20
212.8324326977
  0
VERTEX
  8
0
 62
7
  6
CONTINUOUS
 10
115.1949309198
 20
212.8080324125
  0
VERTEX
  8
0
 62
7
  6
CONTINUOUS
 10
115.1985125644
 20
212.7838068393
  0
VERTEX
  8
0
 62
7
  6
CONTINUOUS
 10
115.2004551583
 20
212.7599830686
  0
VERTEX
  8
0
 62
7
  6
CONTINUOUS
 10
115.200807817
 20
212.7450803796
  0
SEQEND
  0
POLYLINE
  8
0
 62
7
  6
CONTINUOUS
 66
1
 70
0
  0
VERTEX
  8
0
 62
7
  6
CONTINUOUS
 10
106.6008075101
 20
216.5027506555
  0
VERTEX
  8
0
 62
7
  6
CONTINUOUS
 10
106.5864043979
 20
216.5169832482
  0
VERTEX
  8
0
 62
7
  6
CONTINUOUS
 10
106.5439380381
 20
216.530218327
  0
VERTEX
  8
0
 62
7
  6
CONTINUOUS
 10
106.4757267653
 20
216.5417435525
  0
VERTEX
  8
0
 62
7
  6
CONTINUOUS
 10
106.43311163
 20
216.5466707763
  0
VERTEX
  8
0
 62
7
  6
CONTINUOUS
 10
106.3339057218
 20
216.5545348147
  0
VERTEX
  8
0
 62
7
  6
CONTINUOUS
 10
106.2209482085
 20
216.5594226491
  0
VERTEX
  8
0
 62
7
  6
CONTINUOUS
 10
106.1008075101
 20
216.5610816995
  0
SEQEND
  0
LINE
  8
2_FEATURE
 62
7
  6
CONTINUOUS
 10
100.1070575101
 20
217.3390220306
 11
100.1070575101
 21
217.2390220306
  0
LINE
  8
0
 62
7
  6
CONTINUOUS
 10
100.2508075101
 20
211.7390911263
 11
100.2508075101
 21
217.2390220306
  0
LINE
  8
2_FEATURE
 62
7
  6
CONTINUOUS
 10
100.3258074266
 20
217.3390220306
 11
100.3258074266
 21
217.2390220306
  0
LINE
  8
0
 62
7
  6
CONTINUOUS
 10
100.5008075101
 20
211.7390232836
 11
100.5008075101
 21
219.2390220306
  0
LINE
  8
0
 62
7
  6
CONTINUOUS
 10
111.3771660484
 20
217.3380316854
 11
110.8781563936
 21
216.8390220306
  0
POLYLINE
  8
0
 62
7
  6
CONTINUOUS
 66
1
 70
0
  0
VERTEX
  8
0
 62
7
  6
CONTINUOUS
 10
113.2008075101
 20
216.5027506555
  0
VERTEX
  8
0
 62
7
  6
CONTINUOUS
 10
113.2152106223
 20
216.5169832482
  0
VERTEX
  8
0
 62
7
  6
CONTINUOUS
 10
113.257676982
 20
216.530218327
  0
VERTEX
  8
0
 62
7
  6
CONTINUOUS
 10
113.3258882548
 20
216.5417435525
  0
VERTEX
  8
0
 62
7
  6
CONTINUOUS
 10
113.3685033901
 20
216.5466707763
  0
VERTEX
  8
0
 62
7
  6
CONTINUOUS
 10
113.4677092983
 20
216.5545348147
  0
VERTEX
  8
0
 62
7
  6
CONTINUOUS
 10
113.5806668116
 20
216.5594226491
  0
VERTEX
  8
0
 62
7
  6
CONTINUOUS
 10
113.7008075101
 20
216.5610816995
  0
SEQEND
  0
LINE
  8
0
 62
7
  6
CONTINUOUS
 10
108.9234586265
 20
216.8390220306
 11
108.4244489717
 21
217.3380316854
  0
LINE
  8
0
 62
7
  6
CONTINUOUS
 10
106.6008075101
 20
211.7390220306
 11
106.6008075101
 21
219.2390220306
  0
LINE
  8
0
 62
7
  6
CONTINUOUS
 10
108.4508075101
 20
211.7390220306
 11
108.4508075101
 21
213.5159842254
  0
POLYLINE
  8
0
 62
7
  6
CONTINUOUS
 66
1
 70
0
  0
VERTEX
  8
0
 62
7
  6
CONTINUOUS
 10
107.2015013483
 20
211.5937075949
  0
VERTEX
  8
0
 62
7
  6
CONTINUOUS
 10
107.2084601881
 20
211.6197370804
  0
VERTEX
  8
0
 62
7
  6
CONTINUOUS
 10
107.2220817524
 20
211.7390220306
  0
SEQEND
  0
LINE
  8
0
 62
7
  6
CONTINUOUS
 10
107.2015019146
 20
211.5937094098
 11
107.4336897644
 21
212.3766788498
  0
LINE
  8
0
 62
7
  6
CONTINUOUS
 10
107.4336944902
 20
212.3766947524
 11
107.4370508702
 21
212.3872338585
  0
POLYLINE
  8
0
 62
7
  6
CONTINUOUS
 66
1
 70
0
  0
VERTEX
  8
0
 62
7
  6
CONTINUOUS
 10
119.3008075101
 20
216.5027506555
  0
VERTEX
  8
0
 62
7
  6
CONTINUOUS
 10
119.2864043979
 20
216.5169832482
  0
VERTEX
  8
0
 62
7
  6
CONTINUOUS
 10
119.2439380381
 20
216.530218327
  0
VERTEX
  8
0
 62
7
  6
CONTINUOUS
 10
119.1757267653
 20
216.5417435525
  0
VERTEX
  8
0
 62
7
  6
CONTINUOUS
 10
119.13311163
 20
216.5466707763
  0
VERTEX
  8
0
 62
7
  6
CONTINUOUS
 10
119.0339057218
 20
216.5545348147
  0
VERTEX
  8
0
 62
7
  6
CONTINUOUS
 10
118.9209482085
 20
216.5594226491
  0
VERTEX
  8
0
 62
7
  6
CONTINUOUS
 10
118.8008075101
 20
216.5610816995
  0
SEQEND
  0
POLYLINE
  8
0
 62
7
  6
CONTINUOUS
 66
1
 70
0
  0
VERTEX
  8
0
 62
7
  6
CONTINUOUS
 10
121.4302311951
 20
213.0411580829
  0
VERTEX
  8
0
 62
7
  6
CONTINUOUS
 10
121.4435662187
 20
213.0258787414
  0
VERTEX
  8
0
 62
7
  6
CONTINUOUS
 10
121.4570075695
 20
213.0087591044
  0
VERTEX
  8
0
 62
7
  6
CONTINUOUS
 10
121.4700696794
 20
212.9902912349
  0
SEQEND
  0
POLYLINE
  8
0
 62
7
  6
CONTINUOUS
 66
1
 70
0
  0
VERTEX
  8
0
 62
7
  6
CONTINUOUS
 10
112.3650212134
 20
212.3860790949
  0
VERTEX
  8
0
 62
7
  6
CONTINUOUS
 10
112.364518926
 20
212.3873588178
  0
VERTEX
  8
0
 62
7
  6
CONTINUOUS
 10
112.3679208445
 20
212.3766936914
  0
SEQEND
  0
LINE
  8
0
 62
7
  6
CONTINUOUS
 10
111.3508075101
 20
211.7390220306
 11
111.3508075101
 21
213.5159842138
  0
LINE
  8
0
 62
7
  6
CONTINUOUS
 10
124.0770497428
 20
217.3380424684
 11
123.578029305
 21
216.8390220306
  0
LINE
  8
0
 62
7
  6
CONTINUOUS
 10
121.6234586265
 20
216.8390220306
 11
121.1244489717
 21
217.3380316854
  0
LINE
  8
0
 62
7
  6
CONTINUOUS
 10
115.1304397833
 20
212.9741493906
 11
115.174804823
 21
212.8820240956
  0
LINE
  8
0
 62
7
  6
CONTINUOUS
 10
112.3679252557
 20
212.3766788498
 11
112.6001131056
 21
211.5937094098
  0
POLYLINE
  8
0
 62
7
  6
CONTINUOUS
 66
1
 70
0
  0
VERTEX
  8
0
 62
7
  6
CONTINUOUS
 10
112.6001136718
 20
211.5937075949
  0
VERTEX
  8
0
 62
7
  6
CONTINUOUS
 10
112.593154832
 20
211.6197370804
  0
VERTEX
  8
0
 62
7
  6
CONTINUOUS
 10
112.5795332677
 20
211.7390220306
  0
SEQEND
  0
POLYLINE
  8
0
 62
7
  6
CONTINUOUS
 66
1
 70
0
  0
VERTEX
  8
0
 62
7
  6
CONTINUOUS
 10
113.200807116
 20
213.0979489233
  0
VERTEX
  8
0
 62
7
  6
CONTINUOUS
 10
113.2105926562
 20
212.9691959538
  0
VERTEX
  8
0
 62
7
  6
CONTINUOUS
 10
113.2435071375
 20
212.8422570449
  0
VERTEX
  8
0
 62
7
  6
CONTINUOUS
 10
113.2978491694
 20
212.7352273368
  0
VERTEX
  8
0
 62
7
  6
CONTINUOUS
 10
113.3684251522
 20
212.6531629275
  0
VERTEX
  8
0
 62
7
  6
CONTINUOUS
 10
113.4080334236
 20
212.6217219209
  0
VERTEX
  8
0
 62
7
  6
CONTINUOUS
 10
113.494100629
 20
212.576841998
  0
VERTEX
  8
0
 62
7
  6
CONTINUOUS
 10
113.5877436458
 20
212.55557729
  0
VERTEX
  8
0
 62
7
  6
CONTINUOUS
 10
113.6868473373
 20
212.55897169
  0
VERTEX
  8
0
 62
7
  6
CONTINUOUS
 10
113.7739564959
 20
212.5830265701
  0
SEQEND
  0
LINE
  8
0
 62
7
  6
CONTINUOUS
 10
113.2008075101
 20
211.7390220306
 11
113.2008075101
 21
219.2390220306
  0
LINE
  8
0
 62
7
  6
CONTINUOUS
 10
114.8008075101
 20
211.7390220306
 11
114.8008075101
 21
212.10341964
  0
LINE
  8
0
 62
7
  6
CONTINUOUS
 10
115.2008075101
 20
212.7450790618
 11
115.2008075101
 21
211.4390220306
  0
POLYLINE
  8
0
 62
7
  6
CONTINUOUS
 66
1
 70
0
  0
VERTEX
  8
0
 62
7
  6
CONTINUOUS
 10
114.8008071226
 20
212.1033807892
  0
VERTEX
  8
0
 62
7
  6
CONTINUOUS
 10
114.8199118808
 20
212.3244914529
  0
VERTEX
  8
0
 62
7
  6
CONTINUOUS
 10
114.8815616157
 20
212.57684416
  0
VERTEX
  8
0
 62
7
  6
CONTINUOUS
 10
114.9795624149
 20
212.8268352467
  0
SEQEND
  0
POLYLINE
  8
0
 62
7
  6
CONTINUOUS
 66
1
 70
0
  0
VERTEX
  8
0
 62
7
  6
CONTINUOUS
 10
115.0299115302
 20
212.9370634617
  0
VERTEX
  8
0
 62
7
  6
CONTINUOUS
 10
115.04682357
 20
212.9758236931
  0
VERTEX
  8
0
 62
7
  6
CONTINUOUS
 10
115.0521215963
 20
212.9876918938
  0
VERTEX
  8
0
 62
7
  6
CONTINUOUS
 10
115.0574459522
 20
212.9992001623
  0
VERTEX
  8
0
 62
7
  6
CONTINUOUS
 10
115.0628245195
 20
213.0102732412
  0
VERTEX
  8
0
 62
7
  6
CONTINUOUS
 10
115.0682284969
 20
213.0207681486
  0
VERTEX
  8
0
 62
7
  6
CONTINUOUS
 10
115.0736833826
 20
213.0306552449
  0
VERTEX
  8
0
 62
7
  6
CONTINUOUS
 10
115.0792955168
 20
213.0400188191
  0
VERTEX
  8
0
 62
7
  6
CONTINUOUS
 10
115.0801344674
 20
213.0412790685
  0
SEQEND
  0
POLYLINE
  8
0
 62
7
  6
CONTINUOUS
 66
1
 70
0
  0
VERTEX
  8
0
 62
7
  6
CONTINUOUS
 10
115.0173988352
 20
212.9089173696
  0
VERTEX
  8
0
 62
7
  6
CONTINUOUS
 10
115.0237395541
 20
212.9230815526
  0
VERTEX
  8
0
 62
7
  6
CONTINUOUS
 10
115.0299115302
 20
212.9370634617
  0
SEQEND
  0
LINE
  8
0
 62
7
  6
CONTINUOUS
 10
115.003766729
 20
212.8790074987
 11
115.0173988352
 21
212.9089173696
  0
LINE
  8
0
 62
7
  6
CONTINUOUS
 10
114.9795616152
 20
212.8268364215
 11
115.003766729
 21
212.8790074987
  0
POLYLINE
  8
0
 62
7
  6
CONTINUOUS
 66
1
 70
0
  0
VERTEX
  8
0
 62
7
  6
CONTINUOUS
 10
128.7008075101
 20
214.6752934057
  0
VERTEX
  8
0
 62
7
  6
CONTINUOUS
 10
128.6864043979
 20
214.661060813
  0
VERTEX
  8
0
 62
7
  6
CONTINUOUS
 10
128.6439380381
 20
214.6478257342
  0
VERTEX
  8
0
 62
7
  6
CONTINUOUS
 10
128.5757267653
 20
214.6363005086
  0
VERTEX
  8
0
 62
7
  6
CONTINUOUS
 10
128.53311163
 20
214.6313732849
  0
VERTEX
  8
0
 62
7
  6
CONTINUOUS
 10
128.4339057218
 20
214.6235092465
  0
VERTEX
  8
0
 62
7
  6
CONTINUOUS
 10
128.3209482085
 20
214.6186214121
  0
VERTEX
  8
0
 62
7
  6
CONTINUOUS
 10
128.2008075101
 20
214.6169623616
  0
SEQEND
  0
POLYLINE
  8
0
 62
7
  6
CONTINUOUS
 66
1
 70
0
  0
VERTEX
  8
0
 62
7
  6
CONTINUOUS
 10
128.7008075101
 20
216.5027506555
  0
VERTEX
  8
0
 62
7
  6
CONTINUOUS
 10
128.6864043979
 20
216.5169832482
  0
VERTEX
  8
0
 62
7
  6
CONTINUOUS
 10
128.6439380381
 20
216.530218327
  0
VERTEX
  8
0
 62
7
  6
CONTINUOUS
 10
128.5757267653
 20
216.5417435525
  0
VERTEX
  8
0
 62
7
  6
CONTINUOUS
 10
128.53311163
 20
216.5466707763
  0
VERTEX
  8
0
 62
7
  6
CONTINUOUS
 10
128.4339057218
 20
216.5545348147
  0
VERTEX
  8
0
 62
7
  6
CONTINUOUS
 10
128.3209482085
 20
216.5594226491
  0
VERTEX
  8
0
 62
7
  6
CONTINUOUS
 10
128.2008075101
 20
216.5610816995
  0
SEQEND
  0
LINE
  8
0
 62
7
  6
CONTINUOUS
 10
121.4700696794
 20
212.9902912349
 11
121.4807435114
 21
212.9735171198
  0
POLYLINE
  8
0
 62
7
  6
CONTINUOUS
 66
1
 70
0
  0
VERTEX
  8
0
 62
7
  6
CONTINUOUS
 10
121.4357077247
 20
213.0492559579
  0
VERTEX
  8
0
 62
7
  6
CONTINUOUS
 10
121.4398591838
 20
213.0419892281
  0
VERTEX
  8
0
 62
7
  6
CONTINUOUS
 10
121.4567911763
 20
213.0131725694
  0
VERTEX
  8
0
 62
7
  6
CONTINUOUS
 10
121.4712062507
 20
212.9892489009
  0
VERTEX
  8
0
 62
7
  6
CONTINUOUS
 10
121.4804178029
 20
212.9741880496
  0
SEQEND
  0
LINE
  8
0
 62
7
  6
CONTINUOUS
 10
119.3008075101
 20
211.7390220306
 11
119.3008075101
 21
219.2390220306
  0
LINE
  8
0
 62
7
  6
CONTINUOUS
 10
119.9015019146
 20
211.5937094098
 11
120.1336897644
 21
212.3766788498
  0
LINE
  8
0
 62
7
  6
CONTINUOUS
 10
120.1336944902
 20
212.3766947524
 11
120.1370508702
 21
212.3872338585
  0
POLYLINE
  8
0
 62
7
  6
CONTINUOUS
 66
1
 70
0
  0
VERTEX
  8
0
 62
7
  6
CONTINUOUS
 10
121.3941262004
 20
212.9693360138
  0
VERTEX
  8
0
 62
7
  6
CONTINUOUS
 10
121.3984039915
 20
212.9789935435
  0
VERTEX
  8
0
 62
7
  6
CONTINUOUS
 10
121.4024863046
 20
212.988043676
  0
VERTEX
  8
0
 62
7
  6
CONTINUOUS
 10
121.4064759802
 20
212.9966664294
  0
VERTEX
  8
0
 62
7
  6
CONTINUOUS
 10
121.4104273005
 20
213.0049380654
  0
VERTEX
  8
0
 62
7
  6
CONTINUOUS
 10
121.4143563556
 20
213.0128616253
  0
VERTEX
  8
0
 62
7
  6
CONTINUOUS
 10
121.4182849
 20
213.0204507342
  0
VERTEX
  8
0
 62
7
  6
CONTINUOUS
 10
121.4222527339
 20
213.027745995
  0
VERTEX
  8
0
 62
7
  6
CONTINUOUS
 10
121.426302573
 20
213.034777677
  0
VERTEX
  8
0
 62
7
  6
CONTINUOUS
 10
121.4304287121
 20
213.0414788668
  0
VERTEX
  8
0
 62
7
  6
CONTINUOUS
 10
121.4347010315
 20
213.0478875144
  0
VERTEX
  8
0
 62
7
  6
CONTINUOUS
 10
121.439282033
 20
213.0541146768
  0
VERTEX
  8
0
 62
7
  6
CONTINUOUS
 10
121.4442494979
 20
213.0601121173
  0
VERTEX
  8
0
 62
7
  6
CONTINUOUS
 10
121.4493195064
 20
213.0654424802
  0
VERTEX
  8
0
 62
7
  6
CONTINUOUS
 10
121.4547263347
 20
213.07023248
  0
VERTEX
  8
0
 62
7
  6
CONTINUOUS
 10
121.459294325
 20
213.0734698833
  0
VERTEX
  8
0
 62
7
  6
CONTINUOUS
 10
121.4609664117
 20
213.074399836
  0
SEQEND
  0
POLYLINE
  8
0
 62
7
  6
CONTINUOUS
 66
1
 70
0
  0
VERTEX
  8
0
 62
7
  6
CONTINUOUS
 10
121.3737459509
 20
212.9229380464
  0
VERTEX
  8
0
 62
7
  6
CONTINUOUS
 10
121.3793670391
 20
212.9356295729
  0
VERTEX
  8
0
 62
7
  6
CONTINUOUS
 10
121.3941262004
 20
212.9693360138
  0
SEQEND
  0
LINE
  8
0
 62
7
  6
CONTINUOUS
 10
121.3619126834
 20
212.896715043
 11
121.3737459509
 21
212.9229380464
  0
LINE
  8
0
 62
7
  6
CONTINUOUS
 10
121.3489188239
 20
212.8684648941
 11
121.3619126834
 21
212.896715043
  0
LINE
  8
0
 62
7
  6
CONTINUOUS
 10
121.3273853477
 20
212.8221588496
 11
121.3489188239
 21
212.8684648941
  0
LINE
  8
0
 62
7
  6
CONTINUOUS
 10
128.7008075101
 20
219.1291351306
 11
128.9008075101
 21
218.9135371472
  0
POLYLINE
  8
0
 62
7
  6
CONTINUOUS
 66
1
 70
0
  0
VERTEX
  8
0
 62
7
  6
CONTINUOUS
 10
121.4804393256
 20
212.974150134
  0
VERTEX
  8
0
 62
7
  6
CONTINUOUS
 10
121.5252327368
 20
212.880934513
  0
VERTEX
  8
0
 62
7
  6
CONTINUOUS
 10
121.5402027122
 20
212.8307188858
  0
VERTEX
  8
0
 62
7
  6
CONTINUOUS
 10
121.5508077714
 20
212.7451403573
  0
SEQEND
  0
POLYLINE
  8
0
 62
7
  6
CONTINUOUS
 66
1
 70
0
  0
VERTEX
  8
0
 62
7
  6
CONTINUOUS
 10
121.5251789006
 20
212.8810465468
  0
VERTEX
  8
0
 62
7
  6
CONTINUOUS
 10
121.53297551
 20
212.8575218543
  0
VERTEX
  8
0
 62
7
  6
CONTINUOUS
 10
121.5396049236
 20
212.833211098
  0
VERTEX
  8
0
 62
7
  6
CONTINUOUS
 10
121.5399652375
 20
212.8315154762
  0
SEQEND
  0
LINE
  8
0
 62
7
  6
CONTINUOUS
 10
121.1508075101
 20
211.7390220306
 11
121.1508075101
 21
213.5159842063
  0
LINE
  8
0
 62
7
  6
CONTINUOUS
 10
121.550807508
 20
212.7451401109
 11
121.5508075101
 21
211.4390220306
  0
POLYLINE
  8
0
 62
7
  6
CONTINUOUS
 66
1
 70
0
  0
VERTEX
  8
0
 62
7
  6
CONTINUOUS
 10
121.150807127
 20
212.1033802326
  0
VERTEX
  8
0
 62
7
  6
CONTINUOUS
 10
121.1701121982
 20
212.3256994775
  0
VERTEX
  8
0
 62
7
  6
CONTINUOUS
 10
121.2319400765
 20
212.5780268563
  0
VERTEX
  8
0
 62
7
  6
CONTINUOUS
 10
121.3295625064
 20
212.8268352524
  0
SEQEND
  0
POLYLINE
  8
0
 62
7
  6
CONTINUOUS
 66
1
 70
0
  0
VERTEX
  8
0
 62
7
  6
CONTINUOUS
 10
119.9015013483
 20
211.5937075949
  0
VERTEX
  8
0
 62
7
  6
CONTINUOUS
 10
119.9084601881
 20
211.6197370804
  0
VERTEX
  8
0
 62
7
  6
CONTINUOUS
 10
119.9220817524
 20
211.7390220306
  0
SEQEND
  0
LINE
  8
0
 62
7
  6
CONTINUOUS
 10
124.0508075101
 20
211.7390220306
 11
124.0508075101
 21
213.5155839802
  0
LINE
  8
0
 62
7
  6
CONTINUOUS
 10
125.9008075101
 20
219.2390220306
 11
125.9008075101
 21
211.7390220306
  0
LINE
  8
0
 62
7
  6
CONTINUOUS
 10
128.7008075101
 20
219.2390220306
 11
128.7008075101
 21
211.7390221125
  0
LINE
  8
0
 62
7
  6
CONTINUOUS
 10
128.9008075101
 20
218.9135371472
 11
128.9008075101
 21
213.3756220306
  0
LINE
  8
0
 62
7
  6
CONTINUOUS
 10
128.9008147194
 20
213.3756220306
 11
128.8918942018
 21
213.2811726825
  0
POLYLINE
  8
0
 62
7
  6
CONTINUOUS
 66
1
 70
0
  0
VERTEX
  8
0
 62
7
  6
CONTINUOUS
 10
128.8918942018
 20
213.2811726825
  0
VERTEX
  8
0
 62
7
  6
CONTINUOUS
 10
128.8655268586
 20
213.1909354724
  0
VERTEX
  8
0
 62
7
  6
CONTINUOUS
 10
128.82184573
 20
213.1059429299
  0
SEQEND
  0
LINE
  8
0
 62
7
  6
CONTINUOUS
 10
168.2365744306
 20
111.1704149031
 11
170.1806937685
 21
111.1704149031
  0
LINE
  8
1_AXIS
 62
2
  6
CONTINUOUS
 10
170.0886340996
 20
115.4104149031
 11
168.3286340996
 21
115.4104149031
  0
LINE
  8
1_AXIS
 62
2
  6
CENTER
 10
164.8086340996
 20
115.4104149031
 11
163.0586328677
 21
115.4104149031
  0
LINE
  8
1_AXIS
 62
2
  6
CENTER
 10
173.6086340996
 20
115.4104149031
 11
175.3586353314
 21
115.4104149031
  0
LINE
  8
0
 62
7
  6
CONTINUOUS
 10
173.3586340996
 20
114.1065744221
 11
173.1888214827
 21
114.1328880137
  0
POLYLINE
  8
0
 62
7
  6
CONTINUOUS
 66
1
 70
0
  0
VERTEX
  8
0
 62
7
  6
CONTINUOUS
 10
173.1888214827
 20
114.1328880137
  0
VERTEX
  8
0
 62
7
  6
CONTINUOUS
 10
172.9773574692
 20
114.1664336542
  0
VERTEX
  8
0
 62
7
  6
CONTINUOUS
 10
172.8586340996
 20
114.1856700318
  0
SEQEND
  0
LINE
  8
0
 62
7
  6
CONTINUOUS
 10
172.7487471996
 20
118.8104149031
 11
166.9952340996
 21
118.8104149031
  0
POLYLINE
  8
0
 62
7
  6
CONTINUOUS
 66
1
 70
0
  0
VERTEX
  8
0
 62
7
  6
CONTINUOUS
 10
166.9680309788
 20
118.8114622106
  0
VERTEX
  8
0
 62
7
  6
CONTINUOUS
 10
166.9770999072
 20
118.8108801188
  0
VERTEX
  8
0
 62
7
  6
CONTINUOUS
 10
166.9861673724
 20
118.8105311689
  0
VERTEX
  8
0
 62
7
  6
CONTINUOUS
 10
166.9952340996
 20
118.8104149031
  0
SEQEND
  0
POLYLINE
  8
0
 62
7
  6
CONTINUOUS
 66
1
 70
0
  0
VERTEX
  8
0
 62
7
  6
CONTINUOUS
 10
166.7255549989
 20
119.0431219434
  0
VERTEX
  8
0
 62
7
  6
CONTINUOUS
 10
166.810546088
 20
119.025140251
  0
VERTEX
  8
0
 62
7
  6
CONTINUOUS
 10
166.9006887354
 20
119.0142396456
  0
VERTEX
  8
0
 62
7
  6
CONTINUOUS
 10
166.9952340996
 20
119.0104221165
  0
SEQEND
  0
LINE
  8
0
 62
7
  6
CONTINUOUS
 10
166.9952340996
 20
119.0104149031
 11
172.5331492162
 21
119.0104149031
  0
LINE
  8
0
 62
7
  6
CONTINUOUS
 10
172.5331492162
 20
119.0104149031
 11
172.7487471996
 21
118.8104149031
  0
POLYLINE
  8
0
 62
7
  6
CONTINUOUS
 66
1
 70
0
  0
VERTEX
  8
0
 62
7
  6
CONTINUOUS
 10
166.4952340996
 20
119.2175216843
  0
VERTEX
  8
0
 62
7
  6
CONTINUOUS
 10
166.507683152
 20
119.1715942464
  0
VERTEX
  8
0
 62
7
  6
CONTINUOUS
 10
166.5449014231
 20
119.1275310062
  0
VERTEX
  8
0
 62
7
  6
CONTINUOUS
 10
166.5721304836
 20
119.1071640201
  0
VERTEX
  8
0
 62
7
  6
CONTINUOUS
 10
166.6409812251
 20
119.071365385
  0
VERTEX
  8
0
 62
7
  6
CONTINUOUS
 10
166.7255549989
 20
119.0431219434
  0
SEQEND
  0
LINE
  8
0
 62
7
  6
CONTINUOUS
 10
164.8586340996
 20
115.4104149031
 11
164.8586340996
 21
153.5104149031
  0
POLYLINE
  8
0
 62
7
  6
CONTINUOUS
 66
1
 70
0
  0
VERTEX
  8
0
 62
7
  6
CONTINUOUS
 10
166.4952340996
 20
119.0303207652
  0
VERTEX
  8
0
 62
7
  6
CONTINUOUS
 10
166.4952600683
 20
119.027111841
  0
VERTEX
  8
0
 62
7
  6
CONTINUOUS
 10
166.4955080967
 20
119.0214037409
  0
VERTEX
  8
0
 62
7
  6
CONTINUOUS
 10
166.4961161268
 20
119.0158229877
  0
VERTEX
  8
0
 62
7
  6
CONTINUOUS
 10
166.4972546325
 20
119.0098205292
  0
VERTEX
  8
0
 62
7
  6
CONTINUOUS
 10
166.499158001
 20
119.0031242105
  0
VERTEX
  8
0
 62
7
  6
CONTINUOUS
 10
166.5021426125
 20
118.9955342715
  0
VERTEX
  8
0
 62
7
  6
CONTINUOUS
 10
166.5067093918
 20
118.9867377954
  0
VERTEX
  8
0
 62
7
  6
CONTINUOUS
 10
166.5136621685
 20
118.9763130448
  0
VERTEX
  8
0
 62
7
  6
CONTINUOUS
 10
166.5183811174
 20
118.9703605942
  0
VERTEX
  8
0
 62
7
  6
CONTINUOUS
 10
166.5313534849
 20
118.956622987
  0
VERTEX
  8
0
 62
7
  6
CONTINUOUS
 10
166.5510517993
 20
118.9399404261
  0
VERTEX
  8
0
 62
7
  6
CONTINUOUS
 10
166.5811419401
 20
118.9195962096
  0
VERTEX
  8
0
 62
7
  6
CONTINUOUS
 10
166.6278332295
 20
118.8947466117
  0
VERTEX
  8
0
 62
7
  6
CONTINUOUS
 10
166.7007823501
 20
118.8653226987
  0
VERTEX
  8
0
 62
7
  6
CONTINUOUS
 10
166.7996511178
 20
118.8371065828
  0
VERTEX
  8
0
 62
7
  6
CONTINUOUS
 10
166.9102087346
 20
118.8173859343
  0
VERTEX
  8
0
 62
7
  6
CONTINUOUS
 10
166.9680309788
 20
118.8114622106
  0
SEQEND
  0
LINE
  8
0
 62
7
  6
CONTINUOUS
 10
166.4952340996
 20
119.0303207652
 11
166.4952340996
 21
148.3266664043
  0
LINE
  8
0
 62
7
  6
CONTINUOUS
 10
170.1806937685
 20
157.7504149031
 11
170.1498303959
 21
157.4820079408
  0
LINE
  8
0
 62
7
  6
CONTINUOUS
 10
170.1498303959
 20
157.4820079408
 11
170.1223627245
 21
157.2504149031
  0
LINE
  8
0
 62
7
  6
CONTINUOUS
 10
170.1223627245
 20
111.6704149031
 11
170.1498303959
 21
111.4388218654
  0
LINE
  8
0
 62
7
  6
CONTINUOUS
 10
170.1498303959
 20
111.4388218654
 11
170.1806937685
 21
111.1704149031
  0
LINE
  8
1_AXIS
 62
2
  6
CENTER
 10
169.2086340996
 20
157.9104149031
 11
169.2086340996
 21
156.7604149031
  0
LINE
  8
1_AXIS
 62
2
  6
CONTINUOUS
 10
169.2086340996
 20
154.3904149031
 11
169.2086340996
 21
152.6304149031
  0
LINE
  8
1_AXIS
 62
2
  6
CONTINUOUS
 10
169.2086340996
 20
116.2904149031
 11
169.2086340996
 21
114.5304149031
  0
LINE
  8
1_AXIS
 62
2
  6
CENTER
 10
169.2086340996
 20
111.0104149031
 11
169.2086340996
 21
109.2604136713
  0
LINE
  8
1_AXIS
 62
2
  6
CENTER
 10
169.2086340996
 20
119.8104149031
 11
169.2086340996
 21
121.560416135
  0
LINE
  8
1_AXIS
 62
2
  6
CENTER
 10
169.2086340996
 20
149.1104149031
 11
169.2086340996
 21
150.2604149031
  0
LINE
  8
1_AXIS
 62
2
  6
CENTER
 10
162.3586340996
 20
134.4604149031
 11
175.3586353314
 21
134.4604149031
  0
LINE
  8
0
 62
7
  6
CONTINUOUS
 10
168.2509853538
 20
111.2968189023
 11
168.2365744306
 21
111.1704149031
  0
LINE
  8
0
 62
7
  6
CONTINUOUS
 10
168.2509853538
 20
157.624010904
 11
168.2365744306
 21
157.7504149031
  0
LINE
  8
0
 62
7
  6
CONTINUOUS
 10
170.9586340996
 20
119.9464365206
 11
170.9586340996
 21
147.8266664043
  0
LINE
  8
2_FEATURE
 62
7
  6
CONTINUOUS
 10
170.9586340996
 20
147.8266664043
 11
170.9586340996
 21
148.8266664043
  0
POLYLINE
  8
0
 62
7
  6
CONTINUOUS
 66
1
 70
0
  0
VERTEX
  8
0
 62
7
  6
CONTINUOUS
 10
168.2949054746
 20
111.6704149031
  0
VERTEX
  8
0
 62
7
  6
CONTINUOUS
 10
168.2806728819
 20
111.5512693512
  0
VERTEX
  8
0
 62
7
  6
CONTINUOUS
 10
168.2509853538
 20
111.2968189023
  0
SEQEND
  0
LINE
  8
0
 62
7
  6
CONTINUOUS
 10
168.2949054746
 20
157.2504149031
 11
168.2674378032
 21
157.4820079408
  0
LINE
  8
0
 62
7
  6
CONTINUOUS
 10
168.2674378032
 20
157.4820079408
 11
168.2509853538
 21
157.624010904
  0
LINE
  8
0
 62
7
  6
CONTINUOUS
 10
173.3586340996
 20
154.8142553842
 11
173.3586340996
 21
114.1065744221
  0
POLYLINE
  8
0
 62
7
  6
CONTINUOUS
 66
1
 70
0
  0
VERTEX
  8
0
 62
7
  6
CONTINUOUS
 10
170.94264767
 20
148.8579473576
  0
VERTEX
  8
0
 62
7
  6
CONTINUOUS
 10
170.9002022444
 20
148.9855094046
  0
VERTEX
  8
0
 62
7
  6
CONTINUOUS
 10
170.8714134543
 20
149.061152821
  0
VERTEX
  8
0
 62
7
  6
CONTINUOUS
 10
170.855608595
 20
149.0953176463
  0
VERTEX
  8
0
 62
7
  6
CONTINUOUS
 10
170.8213852681
 20
149.1507164855
  0
VERTEX
  8
0
 62
7
  6
CONTINUOUS
 10
170.7790354332
 20
149.191081737
  0
VERTEX
  8
0
 62
7
  6
CONTINUOUS
 10
170.7195171931
 20
149.2175890407
  0
VERTEX
  8
0
 62
7
  6
CONTINUOUS
 10
170.6424364998
 20
149.2287791722
  0
VERTEX
  8
0
 62
7
  6
CONTINUOUS
 10
170.5970645462
 20
149.2299638878
  0
SEQEND
  0
POLYLINE
  8
0
 62
7
  6
CONTINUOUS
 66
1
 70
0
  0
VERTEX
  8
0
 62
7
  6
CONTINUOUS
 10
170.9583794233
 20
148.8266664043
  0
VERTEX
  8
0
 62
7
  6
CONTINUOUS
 10
170.9545285153
 20
148.8301696652
  0
VERTEX
  8
0
 62
7
  6
CONTINUOUS
 10
170.94264767
 20
148.8579473576
  0
SEQEND
  0
LINE
  8
0
 62
7
  6
CONTINUOUS
 10
170.9586340996
 20
148.8266664043
 11
166.9952340996
 21
148.8266664043
  0
POLYLINE
  8
0
 62
7
  6
CONTINUOUS
 66
1
 70
0
  0
VERTEX
  8
0
 62
7
  6
CONTINUOUS
 10
164.8586340996
 20
149.1447582539
  0
VERTEX
  8
0
 62
7
  6
CONTINUOUS
 10
164.8731549409
 20
149.148504087
  0
VERTEX
  8
0
 62
7
  6
CONTINUOUS
 10
164.9158793894
 20
149.1520326685
  0
VERTEX
  8
0
 62
7
  6
CONTINUOUS
 10
164.9843341162
 20
149.1551389558
  0
VERTEX
  8
0
 62
7
  6
CONTINUOUS
 10
165.0270225371
 20
149.1564760304
  0
VERTEX
  8
0
 62
7
  6
CONTINUOUS
 10
165.1262220639
 20
149.1586206991
  0
VERTEX
  8
0
 62
7
  6
CONTINUOUS
 10
165.2389427744
 20
149.1599596908
  0
VERTEX
  8
0
 62
7
  6
CONTINUOUS
 10
165.3586340996
 20
149.1604149031
  0
SEQEND
  0
POLYLINE
  8
0
 62
7
  6
CONTINUOUS
 66
1
 70
0
  0
VERTEX
  8
0
 62
7
  6
CONTINUOUS
 10
166.5708970377
 20
149.1716396262
  0
VERTEX
  8
0
 62
7
  6
CONTINUOUS
 10
166.6576157632
 20
149.1906037549
  0
VERTEX
  8
0
 62
7
  6
CONTINUOUS
 10
166.6963880543
 20
149.1986242734
  0
VERTEX
  8
0
 62
7
  6
CONTINUOUS
 10
166.7410403362
 20
149.2069827782
  0
VERTEX
  8
0
 62
7
  6
CONTINUOUS
 10
166.7951498729
 20
149.2155645996
  0
VERTEX
  8
0
 62
7
  6
CONTINUOUS
 10
166.8623224698
 20
149.223555034
  0
VERTEX
  8
0
 62
7
  6
CONTINUOUS
 10
166.9460822991
 20
149.2290836054
  0
VERTEX
  8
0
 62
7
  6
CONTINUOUS
 10
166.9952340996
 20
149.2299642631
  0
SEQEND
  0
POLYLINE
  8
0
 62
7
  6
CONTINUOUS
 66
1
 70
0
  0
VERTEX
  8
0
 62
7
  6
CONTINUOUS
 10
166.4935458411
 20
149.160415817
  0
VERTEX
  8
0
 62
7
  6
CONTINUOUS
 10
166.5019606959
 20
149.1606726276
  0
VERTEX
  8
0
 62
7
  6
CONTINUOUS
 10
166.5207615546
 20
149.1625458674
  0
VERTEX
  8
0
 62
7
  6
CONTINUOUS
 10
166.5433192925
 20
149.1661737477
  0
VERTEX
  8
0
 62
7
  6
CONTINUOUS
 10
166.5708970377
 20
149.1716396262
  0
SEQEND
  0
LINE
  8
0
 62
7
  6
CONTINUOUS
 10
165.3586340996
 20
149.1604149031
 11
166.4935173144
 21
149.160415817
  0
LINE
  8
0
 62
7
  6
CONTINUOUS
 10
166.9952340996
 20
149.2299642631
 11
170.5970645462
 21
149.2299638878
  0
LINE
  8
1_AXIS
 62
2
  6
CENTER
 10
173.6086340996
 20
153.5104149031
 11
172.4586340996
 21
153.5104149031
  0
LINE
  8
1_AXIS
 62
2
  6
CONTINUOUS
 10
170.0886340996
 20
153.5104149031
 11
168.3286340996
 21
153.5104149031
  0
LINE
  8
1_AXIS
 62
2
  6
CENTER
 10
164.8086340996
 20
153.5104149031
 11
165.9586340996
 21
153.5104149031
  0
LINE
  8
0
 62
7
  6
CONTINUOUS
 10
172.8586340996
 20
154.7351597745
 11
173.0895920247
 21
154.772311559
  0
LINE
  8
0
 62
7
  6
CONTINUOUS
 10
173.0895920247
 20
154.772311559
 11
173.300650876
 21
154.8053306188
  0
LINE
  8
0
 62
7
  6
CONTINUOUS
 10
173.300650876
 20
154.8053306188
 11
173.3586340996
 21
154.8142553842
  0
LINE
  8
0
 62
7
  6
CONTINUOUS
 10
168.2365744306
 20
157.7504149031
 11
170.1806937685
 21
157.7504149031
  0
ARC
  8
2_FEATURE
 62
7
  6
CONTINUOUS
 10
28.4008075101
 20
147.8266664043
 40
1.0
 50
144.1408399887
 51
180.0
  0
ARC
  8
2_FEATURE
 62
7
  6
CONTINUOUS
 10
127.9008075101
 20
147.8266664043
 40
1.0
 50
0.0
 51
35.8591600113
  0
ARC
  8
0
 62
7
  6
CONTINUOUS
 10
125.1508075101
 20
157.2504149031
 40
0.5
 50
0.0
 51
90.0
  0
ARC
  8
0
 62
7
  6
CONTINUOUS
 10
28.1008075101
 20
111.6704149031
 40
0.5
 50
180.0
 51
270.0
  0
ARC
  8
0
 62
7
  6
CONTINUOUS
 10
43.8508075101
 20
157.2504149031
 40
0.5
 50
90.0
 51
180.0
  0
ARC
  8
0
 62
7
  6
CONTINUOUS
 10
69.2508075101
 20
157.2504149031
 40
0.5
 50
90.0
 51
180.0
  0
ARC
  8
0
 62
7
  6
CONTINUOUS
 10
118.8008075101
 20
111.6704149031
 40
0.5
 50
270.0
 51
360.0
  0
ARC
  8
0
 62
7
  6
CONTINUOUS
 10
128.2008075101
 20
111.6704149031
 40
0.5
 50
270.0
 51
360.0
  0
ARC
  8
0
 62
7
  6
CONTINUOUS
 10
31.1508075101
 20
157.2504149031
 40
0.5
 50
90.0
 51
180.0
  0
ARC
  8
0
 62
7
  6
CONTINUOUS
 10
37.5008075101
 20
111.6704149031
 40
0.5
 50
180.0
 51
270.0
  0
ARC
  8
0
 62
7
  6
CONTINUOUS
 10
29.9008075101
 20
111.6704149031
 40
0.5
 50
270.0
 51
360.0
  0
ARC
  8
0
 62
7
  6
CONTINUOUS
 10
36.2508075101
 20
157.2504149031
 40
0.5
 50
0.0
 51
90.0
  0
ARC
  8
0
 62
7
  6
CONTINUOUS
 10
42.6008075101
 20
111.6704149031
 40
0.5
 50
270.0
 51
360.0
  0
ARC
  8
0
 62
7
  6
CONTINUOUS
 10
50.2008075101
 20
111.6704149031
 40
0.5
 50
180.0
 51
270.0
  0
ARC
  8
0
 62
7
  6
CONTINUOUS
 10
62.9008075101
 20
111.6704149031
 40
0.5
 50
180.0
 51
270.0
  0
ARC
  8
0
 62
7
  6
CONTINUOUS
 10
55.3008075101
 20
111.6704149031
 40
0.5
 50
270.0
 51
360.0
  0
ARC
  8
0
 62
7
  6
CONTINUOUS
 10
56.5508075101
 20
157.2504149031
 40
0.5
 50
90.0
 51
180.0
  0
ARC
  8
0
 62
7
  6
CONTINUOUS
 10
48.9508075101
 20
157.2504149031
 40
0.5
 50
0.0
 51
90.0
  0
ARC
  8
0
 62
7
  6
CONTINUOUS
 10
61.6508075101
 20
157.2504149031
 40
0.5
 50
0.0
 51
90.0
  0
ARC
  8
0
 62
7
  6
CONTINUOUS
 10
75.6008075101
 20
111.6704149031
 40
0.5
 50
180.0
 51
270.0
  0
ARC
  8
0
 62
7
  6
CONTINUOUS
 10
68.0008075101
 20
111.6704149031
 40
0.5
 50
270.0
 51
360.0
  0
ARC
  8
0
 62
7
  6
CONTINUOUS
 10
81.9508075101
 20
157.2504149031
 40
0.5
 50
90.0
 51
180.0
  0
ARC
  8
0
 62
7
  6
CONTINUOUS
 10
74.3508075101
 20
157.2504149031
 40
0.5
 50
0.0
 51
90.0
  0
ARC
  8
0
 62
7
  6
CONTINUOUS
 10
88.3008075101
 20
111.6704149031
 40
0.5
 50
180.0
 51
270.0
  0
ARC
  8
0
 62
7
  6
CONTINUOUS
 10
80.7008075101
 20
111.6704149031
 40
0.5
 50
270.0
 51
360.0
  0
ARC
  8
0
 62
7
  6
CONTINUOUS
 10
120.0508075101
 20
157.2504149031
 40
0.5
 50
90.0
 51
180.0
  0
ARC
  8
0
 62
7
  6
CONTINUOUS
 10
112.4508075101
 20
157.2504149031
 40
0.5
 50
0.0
 51
90.0
  0
ARC
  8
0
 62
7
  6
CONTINUOUS
 10
107.3508075101
 20
157.2504149031
 40
0.5
 50
90.0
 51
180.0
  0
ARC
  8
0
 62
7
  6
CONTINUOUS
 10
99.7508075101
 20
157.2504149031
 40
0.5
 50
0.0
 51
90.0
  0
ARC
  8
0
 62
7
  6
CONTINUOUS
 10
87.0508075101
 20
157.2504149031
 40
0.5
 50
0.0
 51
90.0
  0
ARC
  8
0
 62
7
  6
CONTINUOUS
 10
94.6508075101
 20
157.2504149031
 40
0.5
 50
90.0
 51
180.0
  0
ARC
  8
0
 62
7
  6
CONTINUOUS
 10
101.0008075101
 20
111.6704149031
 40
0.5
 50
180.0
 51
270.0
  0
ARC
  8
0
 62
7
  6
CONTINUOUS
 10
93.4008075101
 20
111.6704149031
 40
0.5
 50
270.0
 51
360.0
  0
ARC
  8
0
 62
7
  6
CONTINUOUS
 10
113.7008075101
 20
111.6704149031
 40
0.5
 50
180.0
 51
270.0
  0
ARC
  8
0
 62
7
  6
CONTINUOUS
 10
106.1008075101
 20
111.6704149031
 40
0.5
 50
270.0
 51
360.0
  0
ARC
  8
0
 62
7
  6
CONTINUOUS
 10
126.4008075101
 20
111.6704149031
 40
0.5
 50
180.0
 51
270.0
  0
ARC
  8
0
 62
7
  6
CONTINUOUS
 10
28.1008075101
 20
211.7390220306
 40
0.5
 50
180.0
 51
270.0
  0
ARC
  8
0
 62
7
  6
CONTINUOUS
 10
43.8508075101
 20
211.7390220306
 40
0.5
 50
180.0
 51
270.0
  0
ARC
  8
0
 62
7
  6
CONTINUOUS
 10
50.2008075101
 20
211.7390220306
 40
0.5
 50
180.0
 51
270.0
  0
ARC
  8
0
 62
7
  6
CONTINUOUS
 10
48.9508075101
 20
211.7390220306
 40
0.5
 50
270.0
 51
360.0
  0
ARC
  8
0
 62
7
  6
CONTINUOUS
 10
35.6508075101
 20
211.7390220306
 40
0.5
 50
180.0
 51
270.0
  0
ARC
  8
0
 62
7
  6
CONTINUOUS
 10
37.5008075101
 20
211.7390220306
 40
0.5
 50
180.0
 51
270.0
  0
ARC
  8
0
 62
7
  6
CONTINUOUS
 10
29.9008075101
 20
211.7390220306
 40
0.5
 50
270.0
 51
360.0
  0
ARC
  8
0
 62
7
  6
CONTINUOUS
 10
31.7508075101
 20
211.7390220306
 40
0.5
 50
270.0
 51
360.0
  0
ARC
  8
0
 62
7
  6
CONTINUOUS
 10
34.5508075101
 20
211.4390220306
 40
0.2
 50
270.0
 51
360.0
  0
ARC
  8
0
 62
7
  6
CONTINUOUS
 10
40.9008075101
 20
211.4390220306
 40
0.2
 50
270.0
 51
360.0
  0
ARC
  8
0
 62
7
  6
CONTINUOUS
 10
27.9008075101
 20
213.3756220306
 40
0.5
 50
212.6399595159
 51
230.7851013361
  0
ARC
  8
0
 62
7
  6
CONTINUOUS
 10
69.2508075101
 20
211.7390220306
 40
0.5
 50
180.0
 51
270.0
  0
ARC
  8
0
 62
7
  6
CONTINUOUS
 10
75.6008075101
 20
211.7390220306
 40
0.5
 50
180.0
 51
270.0
  0
ARC
  8
0
 62
7
  6
CONTINUOUS
 10
68.0008075101
 20
211.7390220306
 40
0.5
 50
270.0
 51
360.0
  0
ARC
  8
0
 62
7
  6
CONTINUOUS
 10
74.3508075101
 20
211.7390220306
 40
0.5
 50
270.0
 51
360.0
  0
ARC
  8
0
 62
7
  6
CONTINUOUS
 10
61.0508075101
 20
211.7390220306
 40
0.5
 50
180.0
 51
270.0
  0
ARC
  8
0
 62
7
  6
CONTINUOUS
 10
62.9008075101
 20
211.7390220306
 40
0.5
 50
180.0
 51
270.0
  0
ARC
  8
0
 62
7
  6
CONTINUOUS
 10
55.3008075101
 20
211.7390220306
 40
0.5
 50
270.0
 51
360.0
  0
ARC
  8
0
 62
7
  6
CONTINUOUS
 10
57.1508075101
 20
211.7390220306
 40
0.5
 50
270.0
 51
360.0
  0
ARC
  8
0
 62
7
  6
CONTINUOUS
 10
37.5008075101
 20
219.2390220306
 40
0.5
 50
90.0
 51
180.0
  0
ARC
  8
0
 62
7
  6
CONTINUOUS
 10
28.1008075101
 20
219.2390220306
 40
0.5
 50
90.0
 51
180.0
  0
ARC
  8
0
 62
7
  6
CONTINUOUS
 10
29.9008075101
 20
219.2390220306
 40
0.5
 50
0.0
 51
90.0
  0
ARC
  8
0
 62
7
  6
CONTINUOUS
 10
42.6008075101
 20
219.2390220306
 40
0.5
 50
0.0
 51
90.0
  0
ARC
  8
0
 62
7
  6
CONTINUOUS
 10
50.2008075101
 20
219.2390220306
 40
0.5
 50
90.0
 51
180.0
  0
ARC
  8
0
 62
7
  6
CONTINUOUS
 10
62.9008075101
 20
219.2390220306
 40
0.5
 50
90.0
 51
180.0
  0
ARC
  8
0
 62
7
  6
CONTINUOUS
 10
55.3008075101
 20
219.2390220306
 40
0.5
 50
0.0
 51
90.0
  0
ARC
  8
0
 62
7
  6
CONTINUOUS
 10
75.6008075101
 20
219.2390220306
 40
0.5
 50
90.0
 51
180.0
  0
ARC
  8
0
 62
7
  6
CONTINUOUS
 10
68.0008075101
 20
219.2390220306
 40
0.5
 50
0.0
 51
90.0
  0
ARC
  8
0
 62
7
  6
CONTINUOUS
 10
99.7508075101
 20
211.7390220306
 40
0.5
 50
270.0
 51
360.0
  0
ARC
  8
0
 62
7
  6
CONTINUOUS
 10
94.6508075101
 20
211.7390220306
 40
0.5
 50
180.0
 51
270.0
  0
ARC
  8
0
 62
7
  6
CONTINUOUS
 10
101.0008075101
 20
211.7390220306
 40
0.5
 50
180.0
 51
270.0
  0
ARC
  8
0
 62
7
  6
CONTINUOUS
 10
93.4008075101
 20
211.7390220306
 40
0.5
 50
270.0
 51
360.0
  0
ARC
  8
0
 62
7
  6
CONTINUOUS
 10
82.5508075101
 20
211.7390220306
 40
0.5
 50
270.0
 51
360.0
  0
ARC
  8
0
 62
7
  6
CONTINUOUS
 10
80.7008075101
 20
211.7390220306
 40
0.5
 50
270.0
 51
360.0
  0
ARC
  8
0
 62
7
  6
CONTINUOUS
 10
88.3008075101
 20
211.7390220306
 40
0.5
 50
180.0
 51
270.0
  0
ARC
  8
0
 62
7
  6
CONTINUOUS
 10
86.4508075101
 20
211.7390220306
 40
0.5
 50
180.0
 51
270.0
  0
ARC
  8
0
 62
7
  6
CONTINUOUS
 10
128.2008075101
 20
211.7390220306
 40
0.5
 50
270.0
 51
360.0
  0
ARC
  8
0
 62
7
  6
CONTINUOUS
 10
120.6508075101
 20
211.7390220306
 40
0.5
 50
270.0
 51
360.0
  0
ARC
  8
0
 62
7
  6
CONTINUOUS
 10
118.8008075101
 20
211.7390220306
 40
0.5
 50
270.0
 51
360.0
  0
ARC
  8
0
 62
7
  6
CONTINUOUS
 10
126.4008075101
 20
211.7390220306
 40
0.5
 50
180.0
 51
270.0
  0
ARC
  8
0
 62
7
  6
CONTINUOUS
 10
124.5508075101
 20
211.7390220306
 40
0.5
 50
180.0
 51
270.0
  0
ARC
  8
0
 62
7
  6
CONTINUOUS
 10
107.9508075101
 20
211.7390220306
 40
0.5
 50
270.0
 51
360.0
  0
ARC
  8
0
 62
7
  6
CONTINUOUS
 10
106.1008075101
 20
211.7390220306
 40
0.5
 50
270.0
 51
360.0
  0
ARC
  8
0
 62
7
  6
CONTINUOUS
 10
113.7008075101
 20
211.7390220306
 40
0.5
 50
179.9993266383
 51
270.0
  0
ARC
  8
0
 62
7
  6
CONTINUOUS
 10
111.8508075101
 20
211.7390220306
 40
0.5
 50
180.0
 51
270.0
  0
ARC
  8
0
 62
7
  6
CONTINUOUS
 10
114.3008075101
 20
211.7390220306
 40
0.5
 50
270.0
 51
360.0
  0
ARC
  8
0
 62
7
  6
CONTINUOUS
 10
115.4008075101
 20
211.4390220306
 40
0.2
 50
180.0
 51
270.0
  0
ARC
  8
0
 62
7
  6
CONTINUOUS
 10
121.7508075101
 20
211.4390220306
 40
0.2
 50
180.0
 51
270.0
  0
ARC
  8
0
 62
7
  6
CONTINUOUS
 10
128.4008075101
 20
213.3756220306
 40
0.5
 50
309.2151435207
 51
327.3600404841
  0
ARC
  8
0
 62
7
  6
CONTINUOUS
 10
101.0008075101
 20
219.2390220306
 40
0.5
 50
90.0
 51
180.0
  0
ARC
  8
0
 62
7
  6
CONTINUOUS
 10
126.4008075101
 20
219.2390220306
 40
0.5
 50
90.0
 51
180.0
  0
ARC
  8
0
 62
7
  6
CONTINUOUS
 10
128.2008075101
 20
219.2390220306
 40
0.5
 50
0.0
 51
90.0
  0
ARC
  8
0
 62
7
  6
CONTINUOUS
 10
118.8008075101
 20
219.2390220306
 40
0.5
 50
0.0
 51
90.0
  0
ARC
  8
0
 62
7
  6
CONTINUOUS
 10
106.1008075101
 20
219.2390220306
 40
0.5
 50
0.0
 51
90.0
  0
ARC
  8
0
 62
7
  6
CONTINUOUS
 10
113.7008075101
 20
219.2390220306
 40
0.5
 50
90.0
 51
180.0
  0
ARC
  8
0
 62
7
  6
CONTINUOUS
 10
93.4008075101
 20
219.2390220306
 40
0.5
 50
0.0
 51
90.0
  0
ARC
  8
0
 62
7
  6
CONTINUOUS
 10
80.7008075101
 20
219.2390220306
 40
0.5
 50
0.0
 51
90.0
  0
ARC
  8
0
 62
7
  6
CONTINUOUS
 10
88.3008075101
 20
219.2390220306
 40
0.5
 50
90.0
 51
180.0
  0
ARC
  8
0
 62
7
  6
CONTINUOUS
 10
165.9952340996
 20
119.0431219434
 40
0.5
 50
311.4951540653
 51
358.6903416646
  0
ARC
  8
0
 62
7
  6
CONTINUOUS
 10
169.2086340996
 20
115.2104149031
 40
5.0489999763
 50
48.818215835
 51
69.7203027258
  0
ARC
  8
0
 62
7
  6
CONTINUOUS
 10
169.2086340996
 20
115.4104149031
 40
4.35
 50
282.9124542829
 51
342.5584061437
  0
ARC
  8
0
 62
7
  6
CONTINUOUS
 10
169.2086340996
 20
115.4104149031
 40
4.35
 50
131.4951540653
 51
257.0875457171
  0
CIRCLE
  8
2_FEATURE
 62
7
  6
CONTINUOUS
 10
169.2086340996
 20
115.4104149031
 40
2.5
  0
ARC
  8
0
 62
7
  6
CONTINUOUS
 10
166.9952340996
 20
148.3266664043
 40
0.5
 50
90.0
 51
180.0
  0
ARC
  8
2_FEATURE
 62
7
  6
CONTINUOUS
 10
169.2086340996
 20
153.5104149031
 40
5.0
 50
290.4873151147
 51
311.5777957855
  0
ARC
  8
0
 62
7
  6
CONTINUOUS
 10
169.2086340996
 20
153.5104149031
 40
5.0
 50
290.4873151147
 51
311.5777957855
  0
ARC
  8
0
 62
7
  6
CONTINUOUS
 10
169.2086340996
 20
153.5104149031
 40
4.35
 50
102.9124542829
 51
180.469896621
  0
ARC
  8
0
 62
7
  6
CONTINUOUS
 10
169.2086340996
 20
153.5104149031
 40
4.35
 50
17.4415938563
 51
77.0875457171
  0
CIRCLE
  8
2_FEATURE
 62
7
  6
CONTINUOUS
 10
169.2086340996
 20
153.5104149031
 40
2.5
  0
ARC
  8
0
 62
7
  6
CONTINUOUS
 10
172.8586340996
 20
149.3961112927
 40
0.4999997237
 50
0.0
 51
131.5778493998
  0
ENDSEC
  0
EOF
