  0
SECTION
  2
HEADER
  9
$EXTMAX
 10
210.0
 20
297.0
 30
0.0
  9
$EXTMIN
 10
0.0
 20
0.0
 30
0.0
  9
$LIMMIN
 10
0.0
 20
0.0
  9
$LIMMAX
 10
210.0
 20
297.0
  9
$VIEWCTR
 10
105.0
 20
148.5
  9
$VIEWSIZE
 40
297.0
  9
$CLAYER
  8
0
  9
$LTSCALE
 40
19.36
  9
$CELTYPE
  6
BYLAYER
  9
$DIMSCALE
 40
1.0
  9
$DIMASZ
 40
3.5
  9
$DIMEXO
 40
1.0
  9
$DIMDLI
 40
13.376
  9
$DIMEXE
 40
2.0
  9
$DIMCEN
 40
3.168
  9
$DIMLFAC
 40
1.0
  9
$DIMBLK
  1
_FILLED
  9
$DIMALT
 70
0
  9
$DIMALTF
 40
0.0393700787
  9
$DIMTXT
 40
3.5
  9
$AUNITS
 70
0
  9
$PDMODE
 70
3
  9
$PDSIZE
 40
0.3125
  9
$TILEMODE
 70
1
  0
ENDSEC
  0
SECTION
  2
TABLES
  0
TABLE
  2
LTYPE
 70
6
  0
LTYPE
  2
BYBLOCK
 70
0
  3

 72
65
 73
0
 40
0.0
  0
LTYPE
  2
BYLAYER
 70
0
  3

 72
65
 73
0
 40
0.0
  0
LTYPE
  2
CONTINUOUS
 70
64
  3
Solid line
 72
65
 73
0
 40
0.0
  0
LTYPE
  2
CENTER
 70
64
  3
____ _ ____ _ ____ _ ____ _ ____ _ ____ _ ____
 72
65
 73
4
 40
0.6
 49
0.375
 49
-0.075
 49
0.075
 49
-0.075
  0
LTYPE
  2
HIDDEN
 70
64
  3
- - - - - - - - - - - - - - - - - - - -
 72
65
 73
2
 40
0.2
 49
0.1
 49
-0.1
  0
LTYPE
  2
PHANTOM
 70
64
  3
_____ _ _ _____ _ _ _____ _ _ _____
 72
65
 73
6
 40
0.8
 49
0.45
 49
-0.05
 49
0.1
 49
-0.05
 49
0.1
 49
-0.05
  0
LTYPE
  2
DOT
 70
64
  3
. . . . . . . . . . . . . . . . . . . .
 72
65
 73
2
 40
0.2
 49
0.1
 49
-0.1
  0
LTYPE
  2
DASHED
 70
64
  3
- - - - - - - - - - - - - - - - - - - -
 72
65
 73
2
 40
0.2
 49
0.1
 49
-0.1
  0
ENDTAB
  0
TABLE
  2
LAYER
 70
36
  0
LAYER
  2
0
 70
0
 62
7
  6
CONTINUOUS
  0
LAYER
  2
DEFAULT_1
 70
0
 62
7
  6
CENTER
  0
LAYER
  2
DEFAULT_2
 70
0
 62
8
  6
HIDDEN
  0
LAYER
  2
DEFAULT_3
 70
0
 62
7
  6
PHANTOM
  0
LAYER
  2
1_AXIS
 70
0
 62
7
  6
CONTINUOUS
  0
LAYER
  2
1_DATUMPLANE
 70
0
 62
7
  6
CONTINUOUS
  0
LAYER
  2
1_DATUM_PLANES
 70
0
 62
7
  6
CONTINUOUS
  0
LAYER
  2
2_FEATURE
 70
0
 62
7
  6
CONTINUOUS
  0
LAYER
  2
4_QUILT
 70
0
 62
7
  6
CONTINUOUS
  0
LAYER
  2
6_DIM
 70
0
 62
7
  6
CONTINUOUS
  0
LAYER
  2
BLANK_CURVE
 70
0
 62
7
  6
CONTINUOUS
  0
LAYER
  2
CSYS
 70
0
 62
7
  6
CONTINUOUS
  0
ENDTAB
  0
TABLE
  2
STYLE
 70
1
  0
STYLE
  2
STANDARD
 70
0
 40
0.0
 41
0.8
 50
0.0
 71
0
 42
0.2
  3
txt
  4

  0
STYLE
  2
TEXTSTYLE_1
 70
0
 40
0.0
 41
0.8
 50
0.0
 71
0
 42
0.2
  3
gdt
  4

  0
STYLE
  2
TEXTSTYLE_2
 70
0
 40
0.0
 41
0.6
 50
0.0
 71
0
 42
0.2
  3
txt
  4

  0
STYLE
  2
TEXTSTYLE_3
 70
0
 40
0.0
 41
1.0
 50
0.0
 71
0
 42
0.2
  3
ftb_____.ttf
  4

  0
STYLE
  2
TEXTSTYLE_4
 70
0
 40
0.0
 41
1.0
 50
0.0
 71
0
 42
0.2
  3
fti_____.ttf
  4

  0
STYLE
  2
TEXTSTYLE_5
 70
0
 40
0.0
 41
1.0
 50
0.0
 71
0
 42
0.2
  3
frutiger light.ttf
  4

  0
STYLE
  2
TEXTSTYLE_6
 70
0
 40
0.0
 41
0.7
 50
0.0
 71
0
 42
0.2
  3
txt
  4

  0
STYLE
  2
TEXTSTYLE_7
 70
0
 40
0.0
 41
0.7
 50
0.0
 71
0
 42
0.2
  3
txt
  4

  0
ENDTAB
  0
ENDSEC
  0
SECTION
  2
BLOCKS
  0
BLOCK
  8
0
 62
2
  6
CONTINUOUS
  2
UNI_LOGO2_BL1
 70
64
 10
173.5956734183
 20
35.5937998301
  0
TEXT
  8
0
 62
7
  6
CONTINUOUS
 10
164.6539584268
 20
30.6865562072
  7
TEXTSTYLE_4
 40
1.0655737705
  1
The brand for plastic modular belts and chains
 41
1.0
 72
0
  0
LINE
  8
0
 62
7
  6
CONTINUOUS
 10
149.5737418074
 20
36.1675703219
 11
149.5737418074
 21
34.0364227809
  0
LINE
  8
0
 62
7
  6
CONTINUOUS
 10
149.8628043005
 20
31.0454914852
 11
149.8628043005
 21
31.1422825445
  0
LINE
  8
0
 62
7
  6
CONTINUOUS
 10
149.5737418074
 20
31.1100188581
 11
149.6315543091
 21
30.9164367395
  0
LINE
  8
0
 62
7
  6
CONTINUOUS
 10
150.9671844304
 20
33.9544555678
 11
150.9671844304
 21
36.1675703219
  0
LINE
  8
0
 62
7
  6
CONTINUOUS
 10
151.8862417523
 20
32.1101932727
 11
151.8862417523
 21
30.5937998301
  0
LINE
  8
0
 62
7
  6
CONTINUOUS
 10
152.1753043074
 20
30.5937998301
 11
152.1753043074
 21
31.3358647082
  0
LINE
  8
0
 62
7
  6
CONTINUOUS
 10
152.1753043074
 20
31.4649194539
 11
152.1753043074
 21
32.1101932727
  0
LINE
  8
0
 62
7
  6
CONTINUOUS
 10
149.6315543091
 20
31.3036010218
 11
149.5737418074
 21
31.1100188581
  0
LINE
  8
0
 62
7
  6
CONTINUOUS
 10
149.9784292936
 20
30.8841730531
 11
149.8628043005
 21
31.0454914852
  0
LINE
  8
0
 62
7
  6
CONTINUOUS
 10
151.0768668626
 20
31.400392081
 11
151.1346793074
 21
31.3036010218
  0
LINE
  8
0
 62
7
  6
CONTINUOUS
 10
151.4237418626
 20
31.3036010218
 11
151.3659292523
 21
31.4326557675
  0
LINE
  8
0
 62
7
  6
CONTINUOUS
 10
152.852430332
 20
36.1675703219
 11
152.852430332
 21
34.3642916334
  0
LINE
  8
0
 62
7
  6
CONTINUOUS
 10
152.852430332
 20
33.0528162235
 11
152.852430332
 21
32.3970785186
  0
LINE
  8
0
 62
7
  6
CONTINUOUS
 10
153.2159293074
 20
31.2390736489
 11
153.2159293074
 21
30.5937998301
  0
LINE
  8
0
 62
7
  6
CONTINUOUS
 10
153.5049916972
 20
30.5937998301
 11
153.5049916972
 21
31.2390736489
  0
LINE
  8
0
 62
7
  6
CONTINUOUS
 10
149.8628043005
 20
31.1422825445
 11
149.9206168074
 21
31.2713373354
  0
LINE
  8
0
 62
7
  6
CONTINUOUS
 10
149.6315543091
 20
30.9164367395
 11
149.7471793074
 21
30.7873819712
  0
LINE
  8
0
 62
7
  6
CONTINUOUS
 10
153.1581166972
 20
31.3681283946
 11
153.2159293074
 21
31.2390736489
  0
LINE
  8
0
 62
7
  6
CONTINUOUS
 10
153.9674919177
 20
30.8841730531
 11
154.0253041972
 21
30.7551182848
  0
LINE
  8
0
 62
7
  6
CONTINUOUS
 10
153.5049916972
 20
31.2390736489
 11
153.4471794177
 21
31.400392081
  0
LINE
  8
0
 62
7
  6
CONTINUOUS
 10
153.9674919177
 20
31.4326557675
 11
153.9674919177
 21
31.3681283946
  0
LINE
  8
0
 62
7
  6
CONTINUOUS
 10
153.9674919177
 20
30.9809641124
 11
153.9674919177
 21
30.8841730531
  0
LINE
  8
0
 62
7
  6
CONTINUOUS
 10
154.245872955
 20
32.3970785186
 11
154.245872955
 21
36.1675703219
  0
LINE
  8
0
 62
7
  6
CONTINUOUS
 10
154.2565543074
 20
30.8519093441
 11
154.2565543074
 21
30.9164367395
  0
LINE
  8
0
 62
7
  6
CONTINUOUS
 10
154.5737418074
 20
36.1675703219
 11
154.5737418074
 21
32.3970785186
  0
LINE
  8
0
 62
7
  6
CONTINUOUS
 10
151.3659292523
 20
30.7873819712
 11
151.4237418626
 21
30.9164367395
  0
LINE
  8
0
 62
7
  6
CONTINUOUS
 10
155.759679528
 20
30.6905909007
 11
155.7018665869
 21
30.8519093441
  0
LINE
  8
0
 62
7
  6
CONTINUOUS
 10
155.412804528
 20
31.3681283946
 11
155.412804528
 21
31.2713373354
  0
LINE
  8
0
 62
7
  6
CONTINUOUS
 10
155.412804528
 20
31.1422825445
 11
155.412804528
 21
30.9487004259
  0
LINE
  8
0
 62
7
  6
CONTINUOUS
 10
155.7018665869
 20
30.8519093441
 11
155.7018665869
 21
31.3681283946
  0
LINE
  8
0
 62
7
  6
CONTINUOUS
 10
155.9671844304
 20
32.3970785186
 11
155.9671844304
 21
34.2003572071
  0
LINE
  8
0
 62
7
  6
CONTINUOUS
 10
155.9671844304
 20
35.511832617
 11
155.9671844304
 21
36.1675703219
  0
LINE
  8
0
 62
7
  6
CONTINUOUS
 10
156.279992028
 20
32.1101932727
 11
156.279992028
 21
31.9488748406
  0
LINE
  8
0
 62
7
  6
CONTINUOUS
 10
156.279992028
 20
31.626237886
 11
156.279992028
 21
30.5937998301
  0
LINE
  8
0
 62
7
  6
CONTINUOUS
 10
156.5690540869
 20
30.5937998301
 11
156.5690540869
 21
31.626237886
  0
LINE
  8
0
 62
7
  6
CONTINUOUS
 10
156.5690540869
 20
31.9488748406
 11
156.5690540869
 21
32.1101932727
  0
LINE
  8
0
 62
7
  6
CONTINUOUS
 10
151.1346793074
 20
30.9164367395
 11
151.0768668626
 21
30.8196456577
  0
LINE
  8
0
 62
7
  6
CONTINUOUS
 10
153.4471794177
 20
31.400392081
 11
153.3893668074
 21
31.4649194539
  0
LINE
  8
0
 62
7
  6
CONTINUOUS
 10
154.3143669177
 20
30.7873819712
 11
154.2565543074
 21
30.8519093441
  0
LINE
  8
0
 62
7
  6
CONTINUOUS
 10
155.4706168074
 20
30.6583272086
 11
155.5284290869
 21
30.5937998301
  0
LINE
  8
0
 62
7
  6
CONTINUOUS
 10
155.412804528
 20
30.7551182848
 11
155.4706168074
 21
30.6583272086
  0
LINE
  8
0
 62
7
  6
CONTINUOUS
 10
155.8174918074
 20
30.5937998301
 11
155.759679528
 21
30.6905909007
  0
LINE
  8
0
 62
7
  6
CONTINUOUS
 10
155.7018665869
 20
31.3681283946
 11
155.6440543074
 21
31.4649194539
  0
LINE
  8
0
 62
7
  6
CONTINUOUS
 10
157.0315543074
 20
31.626237886
 11
157.0315543074
 21
30.5937998301
  0
LINE
  8
0
 62
7
  6
CONTINUOUS
 10
157.320617028
 20
30.5937998301
 11
157.320617028
 21
31.3358647082
  0
LINE
  8
0
 62
7
  6
CONTINUOUS
 10
157.320617028
 20
31.4649194539
 11
157.320617028
 21
31.626237886
  0
LINE
  8
0
 62
7
  6
CONTINUOUS
 10
157.852430332
 20
34.6101932727
 11
157.852430332
 21
32.3970785186
  0
LINE
  8
0
 62
7
  6
CONTINUOUS
 10
149.7471793074
 20
31.4326557675
 11
149.6315543091
 21
31.3036010218
  0
LINE
  8
0
 62
7
  6
CONTINUOUS
 10
149.9206168074
 20
31.2713373354
 11
149.9784292936
 21
31.3358647082
  0
LINE
  8
0
 62
7
  6
CONTINUOUS
 10
149.7471793074
 20
30.7873819712
 11
149.8628043005
 21
30.7228545871
  0
LINE
  8
0
 62
7
  6
CONTINUOUS
 10
150.1518667936
 20
30.7873819712
 11
149.9784292936
 21
30.8841730531
  0
LINE
  8
0
 62
7
  6
CONTINUOUS
 10
155.3549915869
 20
31.4326557675
 11
155.412804528
 21
31.3681283946
  0
LINE
  8
0
 62
7
  6
CONTINUOUS
 10
158.3034290869
 20
31.3681283946
 11
158.361242028
 21
31.2068099625
  0
LINE
  8
0
 62
7
  6
CONTINUOUS
 10
158.6503040869
 20
31.2068099625
 11
158.5924918074
 21
31.3681283946
  0
LINE
  8
0
 62
7
  6
CONTINUOUS
 10
158.361242028
 20
31.2068099625
 11
158.361242028
 21
30.5937998301
  0
LINE
  8
0
 62
7
  6
CONTINUOUS
 10
158.6503040869
 20
30.5937998301
 11
158.6503040869
 21
31.2068099625
  0
LINE
  8
0
 62
7
  6
CONTINUOUS
 10
159.1128043074
 20
31.4326557675
 11
159.1128043074
 21
31.3681283946
  0
LINE
  8
0
 62
7
  6
CONTINUOUS
 10
159.245872955
 20
32.3970785186
 11
159.245872955
 21
34.5282260596
  0
LINE
  8
0
 62
7
  6
CONTINUOUS
 10
159.5737418074
 20
36.1675703219
 11
159.5737418074
 21
32.3970785186
  0
LINE
  8
0
 62
7
  6
CONTINUOUS
 10
154.2565543074
 20
30.9164367395
 11
154.3143669177
 21
31.0132277988
  0
LINE
  8
0
 62
7
  6
CONTINUOUS
 10
149.8628043005
 20
30.7228545871
 11
150.0362418212
 21
30.6583272086
  0
LINE
  8
0
 62
7
  6
CONTINUOUS
 10
151.3659292523
 20
31.4326557675
 11
151.1924917523
 21
31.5294468267
  0
LINE
  8
0
 62
7
  6
CONTINUOUS
 10
154.0253041972
 20
30.7551182848
 11
154.1987416972
 21
30.6583272086
  0
LINE
  8
0
 62
7
  6
CONTINUOUS
 10
153.0424918074
 20
31.4326557675
 11
153.1581166972
 21
31.3681283946
  0
LINE
  8
0
 62
7
  6
CONTINUOUS
 10
153.3893668074
 20
31.4649194539
 11
153.2737419177
 21
31.5294468267
  0
LINE
  8
0
 62
7
  6
CONTINUOUS
 10
159.1128043074
 20
30.8519093441
 11
159.228429528
 21
30.7228545871
  0
LINE
  8
0
 62
7
  6
CONTINUOUS
 10
159.4596793074
 20
30.7873819712
 11
159.401867028
 21
30.8519093441
  0
LINE
  8
0
 62
7
  6
CONTINUOUS
 10
159.1128043074
 20
31.3681283946
 11
159.228429528
 21
31.2390736489
  0
LINE
  8
0
 62
7
  6
CONTINUOUS
 10
158.5924918074
 20
31.3681283946
 11
158.534679528
 21
31.4649194539
  0
LINE
  8
0
 62
7
  6
CONTINUOUS
 10
160.9628038663
 20
30.7873819712
 11
160.9628038663
 21
30.8519093441
  0
LINE
  8
0
 62
7
  6
CONTINUOUS
 10
160.9671844304
 20
32.3970785186
 11
160.9671844304
 21
36.1675703219
  0
LINE
  8
0
 62
7
  6
CONTINUOUS
 10
154.0253041972
 20
31.4971831403
 11
153.9674919177
 21
31.4326557675
  0
LINE
  8
0
 62
7
  6
CONTINUOUS
 10
150.9034292799
 20
31.4649194539
 11
151.0768668626
 21
31.400392081
  0
LINE
  8
0
 62
7
  6
CONTINUOUS
 10
155.6440543074
 20
31.4649194539
 11
155.5284290869
 21
31.5294468267
  0
LINE
  8
0
 62
7
  6
CONTINUOUS
 10
159.4596793074
 20
31.3036010218
 11
159.401867028
 21
31.3681283946
  0
LINE
  8
0
 62
7
  6
CONTINUOUS
 10
160.615929528
 20
30.9164367395
 11
160.6737418074
 21
30.8519093441
  0
LINE
  8
0
 62
7
  6
CONTINUOUS
 10
160.9628038663
 20
30.8519093441
 11
160.8471793074
 21
30.9809641124
  0
LINE
  8
0
 62
7
  6
CONTINUOUS
 10
160.615929528
 20
31.4326557675
 11
160.6737418074
 21
31.3681283946
  0
LINE
  8
0
 62
7
  6
CONTINUOUS
 10
160.9628038663
 20
31.3681283946
 11
160.8471793074
 21
31.4971831403
  0
LINE
  8
0
 62
7
  6
CONTINUOUS
 10
154.2565543074
 20
31.3681283946
 11
154.3143669177
 21
31.4326557675
  0
LINE
  8
0
 62
7
  6
CONTINUOUS
 10
154.0831168074
 20
31.1100188581
 11
153.9674919177
 21
30.9809641124
  0
LINE
  8
0
 62
7
  6
CONTINUOUS
 10
155.412804528
 20
30.9487004259
 11
155.3549915869
 21
30.8841730531
  0
LINE
  8
0
 62
7
  6
CONTINUOUS
 10
155.3549915869
 20
30.6905909007
 11
155.412804528
 21
30.7551182848
  0
LINE
  8
0
 62
7
  6
CONTINUOUS
 10
154.1987416972
 20
30.6583272086
 11
154.3143669177
 21
30.6260635193
  0
LINE
  8
0
 62
7
  6
CONTINUOUS
 10
151.1924917523
 20
31.5294468267
 11
150.9612418074
 21
31.5939741996
  0
LINE
  8
0
 62
7
  6
CONTINUOUS
 10
154.5456166972
 20
30.7228545871
 11
154.3143669177
 21
30.7873819712
  0
LINE
  8
0
 62
7
  6
CONTINUOUS
 10
153.2737419177
 20
31.5294468267
 11
153.1003044177
 21
31.5939741996
  0
LINE
  8
0
 62
7
  6
CONTINUOUS
 10
155.5284290869
 20
31.5294468267
 11
155.3549915869
 21
31.5939741996
  0
LINE
  8
0
 62
7
  6
CONTINUOUS
 10
158.187804528
 20
31.4326557675
 11
158.3034290869
 21
31.3681283946
  0
LINE
  8
0
 62
7
  6
CONTINUOUS
 10
158.534679528
 20
31.4649194539
 11
158.4190543074
 21
31.5294468267
  0
LINE
  8
0
 62
7
  6
CONTINUOUS
 10
150.0362418212
 20
30.6583272086
 11
150.2096793212
 21
30.6260635193
  0
LINE
  8
0
 62
7
  6
CONTINUOUS
 10
150.498741835
 20
30.7228545871
 11
150.1518667936
 21
30.7873819712
  0
LINE
  8
0
 62
7
  6
CONTINUOUS
 10
152.9268669177
 20
31.4649194539
 11
153.0424918074
 21
31.4326557675
  0
LINE
  8
0
 62
7
  6
CONTINUOUS
 10
155.239367028
 20
31.4649194539
 11
155.3549915869
 21
31.4326557675
  0
LINE
  8
0
 62
7
  6
CONTINUOUS
 10
159.575304528
 20
30.7551182848
 11
159.4596793074
 21
30.7873819712
  0
LINE
  8
0
 62
7
  6
CONTINUOUS
 10
158.0721793074
 20
31.4649194539
 11
158.187804528
 21
31.4326557675
  0
LINE
  8
0
 62
7
  6
CONTINUOUS
 10
159.228429528
 20
30.7228545871
 11
159.401867028
 21
30.6583272086
  0
LINE
  8
0
 62
7
  6
CONTINUOUS
 10
158.4190543074
 20
31.5294468267
 11
158.2456168074
 21
31.5939741996
  0
LINE
  8
0
 62
7
  6
CONTINUOUS
 10
159.6331168074
 20
31.2390736489
 11
159.4596793074
 21
31.3036010218
  0
LINE
  8
0
 62
7
  6
CONTINUOUS
 10
160.442492028
 20
30.9809641124
 11
160.615929528
 21
30.9164367395
  0
LINE
  8
0
 62
7
  6
CONTINUOUS
 10
160.8471793074
 20
31.4971831403
 11
160.6737418074
 21
31.5617105132
  0
LINE
  8
0
 62
7
  6
CONTINUOUS
 10
159.228429528
 20
31.2390736489
 11
159.4596793074
 21
31.1422825445
  0
LINE
  8
0
 62
7
  6
CONTINUOUS
 10
160.8471793074
 20
30.9809641124
 11
160.615929528
 21
31.0777551716
  0
LINE
  8
0
 62
7
  6
CONTINUOUS
 10
159.401867028
 20
31.3681283946
 11
159.4596793074
 21
31.4326557675
  0
LINE
  8
0
 62
7
  6
CONTINUOUS
 10
149.8628043005
 20
31.4971831403
 11
149.7471793074
 21
31.4326557675
  0
LINE
  8
0
 62
7
  6
CONTINUOUS
 10
149.9784292936
 20
31.3358647082
 11
150.1518667936
 21
31.4326557675
  0
LINE
  8
0
 62
7
  6
CONTINUOUS
 10
152.2909293626
 20
31.5294468267
 11
152.1753043074
 21
31.4649194539
  0
LINE
  8
0
 62
7
  6
CONTINUOUS
 10
152.1753043074
 20
31.3358647082
 11
152.2909293626
 21
31.400392081
  0
LINE
  8
0
 62
7
  6
CONTINUOUS
 10
151.1924917523
 20
30.6905909007
 11
151.3659292523
 21
30.7873819712
  0
LINE
  8
0
 62
7
  6
CONTINUOUS
 10
150.2096793212
 20
30.6260635193
 11
150.5565542799
 21
30.5937998301
  0
LINE
  8
0
 62
7
  6
CONTINUOUS
 10
154.3143669177
 20
30.6260635193
 11
154.5456166972
 21
30.5937998301
  0
LINE
  8
0
 62
7
  6
CONTINUOUS
 10
152.6956168074
 20
31.4971831403
 11
152.9268669177
 21
31.4649194539
  0
LINE
  8
0
 62
7
  6
CONTINUOUS
 10
155.0081169177
 20
31.4971831403
 11
155.239367028
 21
31.4649194539
  0
LINE
  8
0
 62
7
  6
CONTINUOUS
 10
159.4596793074
 20
31.1422825445
 11
160.442492028
 21
30.9809641124
  0
LINE
  8
0
 62
7
  6
CONTINUOUS
 10
160.615929528
 20
31.0777551716
 11
159.6331168074
 21
31.2390736489
  0
LINE
  8
0
 62
7
  6
CONTINUOUS
 10
153.1003044177
 20
31.5939741996
 11
152.9268669177
 21
31.626237886
  0
LINE
  8
0
 62
7
  6
CONTINUOUS
 10
159.401867028
 20
30.6583272086
 11
159.575304528
 21
30.6260635193
  0
LINE
  8
0
 62
7
  6
CONTINUOUS
 10
158.2456168074
 20
31.5939741996
 11
158.0721793074
 21
31.626237886
  0
LINE
  8
0
 62
7
  6
CONTINUOUS
 10
160.5003043074
 20
31.4649194539
 11
160.615929528
 21
31.4326557675
  0
LINE
  8
0
 62
7
  6
CONTINUOUS
 10
160.6737418074
 20
30.8519093441
 11
160.615929528
 21
30.7873819712
  0
LINE
  8
0
 62
7
  6
CONTINUOUS
 10
159.228429528
 20
31.5294468267
 11
159.1128043074
 21
31.4326557675
  0
LINE
  8
0
 62
7
  6
CONTINUOUS
 10
154.1409294177
 20
31.5617105132
 11
154.0253041972
 21
31.4971831403
  0
LINE
  8
0
 62
7
  6
CONTINUOUS
 10
154.1987416972
 20
31.1745462761
 11
154.0831168074
 21
31.1100188581
  0
LINE
  8
0
 62
7
  6
CONTINUOUS
 10
154.3143669177
 20
31.0132277988
 11
154.4299918074
 21
31.0777551716
  0
LINE
  8
0
 62
7
  6
CONTINUOUS
 10
151.8862417523
 20
30.5937998301
 11
152.1753043074
 21
30.5937998301
  0
LINE
  8
0
 62
7
  6
CONTINUOUS
 10
153.2159293074
 20
30.5937998301
 11
153.5049916972
 21
30.5937998301
  0
LINE
  8
0
 62
7
  6
CONTINUOUS
 10
154.5456166972
 20
30.5937998301
 11
154.8924916972
 21
30.5937998301
  0
LINE
  8
0
 62
7
  6
CONTINUOUS
 10
155.5284290869
 20
30.5937998301
 11
155.8174918074
 21
30.5937998301
  0
LINE
  8
0
 62
7
  6
CONTINUOUS
 10
156.279992028
 20
30.5937998301
 11
156.5690540869
 21
30.5937998301
  0
LINE
  8
0
 62
7
  6
CONTINUOUS
 10
157.0315543074
 20
30.5937998301
 11
157.320617028
 21
30.5937998301
  0
LINE
  8
0
 62
7
  6
CONTINUOUS
 10
158.361242028
 20
30.5937998301
 11
158.6503040869
 21
30.5937998301
  0
LINE
  8
0
 62
7
  6
CONTINUOUS
 10
159.922179528
 20
30.5937998301
 11
160.269054528
 21
30.5937998301
  0
LINE
  8
0
 62
7
  6
CONTINUOUS
 10
160.269054528
 20
30.7228545871
 11
159.922179528
 21
30.7228545871
  0
LINE
  8
0
 62
7
  6
CONTINUOUS
 10
154.8924916972
 20
30.7228545871
 11
154.5456166972
 21
30.7228545871
  0
LINE
  8
0
 62
7
  6
CONTINUOUS
 10
159.401867028
 20
30.8519093441
 11
159.1128043074
 21
30.8519093441
  0
LINE
  8
0
 62
7
  6
CONTINUOUS
 10
151.4237418626
 20
30.9164367395
 11
151.1346793074
 21
30.9164367395
  0
LINE
  8
0
 62
7
  6
CONTINUOUS
 10
150.498741835
 20
31.4971831403
 11
150.9034292799
 21
31.4649194539
  0
LINE
  8
0
 62
7
  6
CONTINUOUS
 10
150.9612418074
 20
31.5939741996
 11
150.5565542799
 21
31.626237886
  0
LINE
  8
0
 62
7
  6
CONTINUOUS
 10
159.575304528
 20
30.6260635193
 11
159.922179528
 21
30.5937998301
  0
LINE
  8
0
 62
7
  6
CONTINUOUS
 10
159.922179528
 20
30.7228545871
 11
159.575304528
 21
30.7551182848
  0
LINE
  8
0
 62
7
  6
CONTINUOUS
 10
155.3549915869
 20
31.5939741996
 11
155.0081169177
 21
31.626237886
  0
LINE
  8
0
 62
7
  6
CONTINUOUS
 10
160.1534293074
 20
31.4971831403
 11
160.5003043074
 21
31.4649194539
  0
LINE
  8
0
 62
7
  6
CONTINUOUS
 10
160.5003043074
 20
31.5939741996
 11
160.1534293074
 21
31.626237886
  0
LINE
  8
0
 62
7
  6
CONTINUOUS
 10
157.840929528
 20
31.4971831403
 11
158.0721793074
 21
31.4649194539
  0
LINE
  8
0
 62
7
  6
CONTINUOUS
 10
160.6737418074
 20
31.5617105132
 11
160.5003043074
 21
31.5939741996
  0
LINE
  8
0
 62
7
  6
CONTINUOUS
 10
160.8471793074
 20
30.6905909007
 11
160.9628038663
 21
30.7873819712
  0
LINE
  8
0
 62
7
  6
CONTINUOUS
 10
155.3549915869
 20
30.8841730531
 11
155.1815540869
 21
30.7873819712
  0
LINE
  8
0
 62
7
  6
CONTINUOUS
 10
157.4362415869
 20
31.5294468267
 11
157.320617028
 21
31.4649194539
  0
LINE
  8
0
 62
7
  6
CONTINUOUS
 10
157.320617028
 20
31.3358647082
 11
157.4362415869
 21
31.400392081
  0
LINE
  8
0
 62
7
  6
CONTINUOUS
 10
150.0362418212
 20
31.5617105132
 11
149.8628043005
 21
31.4971831403
  0
LINE
  8
0
 62
7
  6
CONTINUOUS
 10
152.4643666972
 20
31.5939741996
 11
152.2909293626
 21
31.5294468267
  0
LINE
  8
0
 62
7
  6
CONTINUOUS
 10
152.2909293626
 20
31.400392081
 11
152.4643666972
 21
31.4649194539
  0
LINE
  8
0
 62
7
  6
CONTINUOUS
 10
151.0768668626
 20
30.8196456577
 11
150.9034292799
 21
30.7551182848
  0
LINE
  8
0
 62
7
  6
CONTINUOUS
 10
160.5003043074
 20
30.7551182848
 11
160.269054528
 21
30.7228545871
  0
LINE
  8
0
 62
7
  6
CONTINUOUS
 10
154.8924916972
 20
30.5937998301
 11
155.1815540869
 21
30.6260635193
  0
LINE
  8
0
 62
7
  6
CONTINUOUS
 10
160.269054528
 20
30.5937998301
 11
160.615929528
 21
30.6260635193
  0
LINE
  8
0
 62
7
  6
CONTINUOUS
 10
150.5565542799
 20
30.5937998301
 11
150.9612418074
 21
30.6260635193
  0
LINE
  8
0
 62
7
  6
CONTINUOUS
 10
150.9034292799
 20
30.7551182848
 11
150.498741835
 21
30.7228545871
  0
LINE
  8
0
 62
7
  6
CONTINUOUS
 10
154.7768668074
 20
31.1422825445
 11
155.412804528
 21
31.1422825445
  0
LINE
  8
0
 62
7
  6
CONTINUOUS
 10
155.412804528
 20
31.2713373354
 11
154.7768668074
 21
31.2713373354
  0
LINE
  8
0
 62
7
  6
CONTINUOUS
 10
151.1346793074
 20
31.3036010218
 11
151.4237418626
 21
31.3036010218
  0
LINE
  8
0
 62
7
  6
CONTINUOUS
 10
153.9674919177
 20
31.3681283946
 11
154.2565543074
 21
31.3681283946
  0
LINE
  8
0
 62
7
  6
CONTINUOUS
 10
160.6737418074
 20
31.3681283946
 11
160.9628038663
 21
31.3681283946
  0
LINE
  8
0
 62
7
  6
CONTINUOUS
 10
154.6612419177
 20
31.4971831403
 11
155.0081169177
 21
31.4971831403
  0
LINE
  8
0
 62
7
  6
CONTINUOUS
 10
159.8065543074
 20
31.4971831403
 11
160.1534293074
 21
31.4971831403
  0
LINE
  8
0
 62
7
  6
CONTINUOUS
 10
160.1534293074
 20
31.626237886
 11
159.8065543074
 21
31.626237886
  0
LINE
  8
0
 62
7
  6
CONTINUOUS
 10
158.0721793074
 20
31.626237886
 11
157.840929528
 21
31.626237886
  0
LINE
  8
0
 62
7
  6
CONTINUOUS
 10
157.320617028
 20
31.626237886
 11
157.0315543074
 21
31.626237886
  0
LINE
  8
0
 62
7
  6
CONTINUOUS
 10
156.5690540869
 20
31.626237886
 11
156.279992028
 21
31.626237886
  0
LINE
  8
0
 62
7
  6
CONTINUOUS
 10
155.0081169177
 20
31.626237886
 11
154.6612419177
 21
31.626237886
  0
LINE
  8
0
 62
7
  6
CONTINUOUS
 10
152.9268669177
 20
31.626237886
 11
152.6956168074
 21
31.626237886
  0
LINE
  8
0
 62
7
  6
CONTINUOUS
 10
156.279992028
 20
31.9488748406
 11
156.5690540869
 21
31.9488748406
  0
LINE
  8
0
 62
7
  6
CONTINUOUS
 10
156.5690540869
 20
32.1101932727
 11
156.279992028
 21
32.1101932727
  0
LINE
  8
0
 62
7
  6
CONTINUOUS
 10
152.1753043074
 20
32.1101932727
 11
151.8862417523
 21
32.1101932727
  0
LINE
  8
0
 62
7
  6
CONTINUOUS
 10
151.2130860697
 20
32.3970785186
 11
151.6256574183
 21
32.3970785186
  0
LINE
  8
0
 62
7
  6
CONTINUOUS
 10
152.852430332
 20
32.3970785186
 11
154.245872955
 21
32.3970785186
  0
LINE
  8
0
 62
7
  6
CONTINUOUS
 10
154.5737418074
 20
32.3970785186
 11
155.9671844304
 21
32.3970785186
  0
LINE
  8
0
 62
7
  6
CONTINUOUS
 10
157.852430332
 20
32.3970785186
 11
159.245872955
 21
32.3970785186
  0
LINE
  8
0
 62
7
  6
CONTINUOUS
 10
159.5737418074
 20
32.3970785186
 11
160.9671844304
 21
32.3970785186
  0
LINE
  8
0
 62
7
  6
CONTINUOUS
 10
157.6096790869
 20
31.5939741996
 11
157.4362415869
 21
31.5294468267
  0
LINE
  8
0
 62
7
  6
CONTINUOUS
 10
155.1815540869
 20
30.6260635193
 11
155.3549915869
 21
30.6905909007
  0
LINE
  8
0
 62
7
  6
CONTINUOUS
 10
160.615929528
 20
30.6260635193
 11
160.8471793074
 21
30.6905909007
  0
LINE
  8
0
 62
7
  6
CONTINUOUS
 10
160.615929528
 20
30.7873819712
 11
160.5003043074
 21
30.7551182848
  0
LINE
  8
0
 62
7
  6
CONTINUOUS
 10
159.575304528
 20
31.4649194539
 11
159.8065543074
 21
31.4971831403
  0
LINE
  8
0
 62
7
  6
CONTINUOUS
 10
157.6096790869
 20
31.4649194539
 11
157.840929528
 21
31.4971831403
  0
LINE
  8
0
 62
7
  6
CONTINUOUS
 10
154.5456166972
 20
31.1100188581
 11
154.7768668074
 21
31.1422825445
  0
LINE
  8
0
 62
7
  6
CONTINUOUS
 10
157.840929528
 20
31.626237886
 11
157.6096790869
 21
31.5939741996
  0
LINE
  8
0
 62
7
  6
CONTINUOUS
 10
154.4299918074
 20
31.4649194539
 11
154.6612419177
 21
31.4971831403
  0
LINE
  8
0
 62
7
  6
CONTINUOUS
 10
159.8065543074
 20
31.626237886
 11
159.4596793074
 21
31.5939741996
  0
LINE
  8
0
 62
7
  6
CONTINUOUS
 10
154.7768668074
 20
31.2713373354
 11
154.4299918074
 21
31.2390736489
  0
LINE
  8
0
 62
7
  6
CONTINUOUS
 10
150.5565542799
 20
31.626237886
 11
150.2096793212
 21
31.5939741996
  0
LINE
  8
0
 62
7
  6
CONTINUOUS
 10
154.6612419177
 20
31.626237886
 11
154.2565543074
 21
31.5939741996
  0
LINE
  8
0
 62
7
  6
CONTINUOUS
 10
152.0327582009
 20
33.5446195022
 11
151.3770204959
 21
33.5446195022
  0
LINE
  8
0
 62
7
  6
CONTINUOUS
 10
157.4362415869
 20
31.400392081
 11
157.6096790869
 21
31.4649194539
  0
LINE
  8
0
 62
7
  6
CONTINUOUS
 10
159.4596793074
 20
31.4326557675
 11
159.575304528
 21
31.4649194539
  0
LINE
  8
0
 62
7
  6
CONTINUOUS
 10
159.4596793074
 20
31.5939741996
 11
159.228429528
 21
31.5294468267
  0
LINE
  8
0
 62
7
  6
CONTINUOUS
 10
155.1815540869
 20
30.7873819712
 11
154.8924916972
 21
30.7228545871
  0
LINE
  8
0
 62
7
  6
CONTINUOUS
 10
152.4643666972
 20
31.4649194539
 11
152.6956168074
 21
31.4971831403
  0
LINE
  8
0
 62
7
  6
CONTINUOUS
 10
152.6956168074
 20
31.626237886
 11
152.4643666972
 21
31.5939741996
  0
LINE
  8
0
 62
7
  6
CONTINUOUS
 10
150.2674918074
 20
31.4649194539
 11
150.498741835
 21
31.4971831403
  0
LINE
  8
0
 62
7
  6
CONTINUOUS
 10
156.7868565615
 20
35.0200293383
 11
157.4425942664
 21
35.0200293383
  0
LINE
  8
0
 62
7
  6
CONTINUOUS
 10
154.4299918074
 20
31.0777551716
 11
154.5456166972
 21
31.1100188581
  0
LINE
  8
0
 62
7
  6
CONTINUOUS
 10
154.4299918074
 20
31.2390736489
 11
154.1987416972
 21
31.1745462761
  0
LINE
  8
0
 62
7
  6
CONTINUOUS
 10
154.3143669177
 20
31.4326557675
 11
154.4299918074
 21
31.4649194539
  0
LINE
  8
0
 62
7
  6
CONTINUOUS
 10
150.9612418074
 20
30.6260635193
 11
151.1924917523
 21
30.6905909007
  0
LINE
  8
0
 62
7
  6
CONTINUOUS
 10
154.2565543074
 20
31.5939741996
 11
154.1409294177
 21
31.5617105132
  0
LINE
  8
0
 62
7
  6
CONTINUOUS
 10
150.2096793212
 20
31.5939741996
 11
150.0362418212
 21
31.5617105132
  0
LINE
  8
0
 62
7
  6
CONTINUOUS
 10
160.9671844304
 20
36.1675703219
 11
159.5737418074
 21
36.1675703219
  0
LINE
  8
0
 62
7
  6
CONTINUOUS
 10
157.6065286927
 20
36.1675703219
 11
157.1939573441
 21
36.1675703219
  0
LINE
  8
0
 62
7
  6
CONTINUOUS
 10
155.9671844304
 20
36.1675703219
 11
154.5737418074
 21
36.1675703219
  0
LINE
  8
0
 62
7
  6
CONTINUOUS
 10
154.245872955
 20
36.1675703219
 11
152.852430332
 21
36.1675703219
  0
LINE
  8
0
 62
7
  6
CONTINUOUS
 10
150.9671844304
 20
36.1675703219
 11
149.5737418074
 21
36.1675703219
  0
LINE
  8
0
 62
7
  6
CONTINUOUS
 10
150.1518667936
 20
31.4326557675
 11
150.2674918074
 21
31.4649194539
  0
CIRCLE
  8
0
 62
7
  6
CONTINUOUS
 10
160.2704631189
 20
38.5036358957
 40
2.0901639344
  0
ARC
  8
0
 62
7
  6
CONTINUOUS
 10
151.2130860697
 20
34.0364227809
 40
1.6393442623
 50
180.0
 51
270.0
  0
ARC
  8
0
 62
7
  6
CONTINUOUS
 10
157.6065286927
 20
34.5282260596
 40
1.6393442623
 50
0.0
 51
90.0
  0
ARC
  8
0
 62
7
  6
CONTINUOUS
 10
151.6256574183
 20
33.8724883547
 40
1.4754098361
 50
270.0
 51
326.2510114041
  0
ARC
  8
0
 62
7
  6
CONTINUOUS
 10
157.1939573441
 20
34.6921604858
 40
1.4754098361
 50
90.0
 51
146.2510114041
  0
ARC
  8
0
 62
7
  6
CONTINUOUS
 10
152.0327582009
 20
34.3642916334
 40
0.8196721311
 50
270.0
 51
360.0
  0
ARC
  8
0
 62
7
  6
CONTINUOUS
 10
156.7868565615
 20
34.2003572071
 40
0.8196721311
 50
90.0
 51
180.0
  0
ARC
  8
0
 62
7
  6
CONTINUOUS
 10
151.3770204959
 20
33.9544555678
 40
0.4098360656
 50
180.0
 51
270.0
  0
ARC
  8
0
 62
7
  6
CONTINUOUS
 10
157.4425942664
 20
34.6101932727
 40
0.4098360656
 50
0.0
 51
90.0
  0
SOLID
  8
0
 62
7
  6
CONTINUOUS
 10
156.279992028
 20
31.9488752009
 11
156.279992028
 21
32.1101936845
 12
156.5690540869
 22
31.9488752009
 13
156.5690540869
 23
32.1101936845
  0
SOLID
  8
0
 62
7
  6
CONTINUOUS
 10
150.5565542799
 20
31.6262382337
 11
150.9612418074
 21
31.5939740028
 12
150.2096793212
 22
31.5939740028
 13
150.2096793212
 23
31.5939740028
  0
SOLID
  8
0
 62
7
  6
CONTINUOUS
 10
150.0362418212
 20
31.5617111435
 11
150.2096793212
 21
31.5939740028
 12
150.9612418074
 22
31.5939740028
 13
150.9612418074
 23
31.5939740028
  0
SOLID
  8
0
 62
7
  6
CONTINUOUS
 10
150.9612418074
 20
31.5939740028
 11
151.1924917523
 21
31.5294468402
 12
150.0362418212
 22
31.5617111435
 13
150.0362418212
 23
31.5617111435
  0
SOLID
  8
0
 62
7
  6
CONTINUOUS
 10
149.8628043005
 20
31.49718259
 11
150.0362418212
 21
31.5617111435
 12
151.1924917523
 22
31.5294468402
 13
151.1924917523
 23
31.5294468402
  0
SOLID
  8
0
 62
7
  6
CONTINUOUS
 10
149.8628043005
 20
31.49718259
 11
151.1924917523
 21
31.5294468402
 12
150.498741835
 22
31.49718259
 13
150.498741835
 23
31.49718259
  0
SOLID
  8
0
 62
7
  6
CONTINUOUS
 10
150.498741835
 20
31.49718259
 11
151.1924917523
 21
31.5294468402
 12
150.9034292799
 22
31.4649197501
 13
150.9034292799
 23
31.4649197501
  0
SOLID
  8
0
 62
7
  6
CONTINUOUS
 10
151.1924917523
 20
31.5294468402
 11
151.3659292523
 21
31.4326554468
 12
150.9034292799
 22
31.4649197501
 13
150.9034292799
 23
31.4649197501
  0
SOLID
  8
0
 62
7
  6
CONTINUOUS
 10
151.0768668626
 20
31.4003926599
 11
150.9034292799
 21
31.4649197501
 12
151.3659292523
 22
31.4326554468
 13
151.3659292523
 23
31.4326554468
  0
SOLID
  8
0
 62
7
  6
CONTINUOUS
 10
151.0768668626
 20
31.4003926599
 11
151.3659292523
 21
31.4326554468
 12
151.1346793074
 22
31.3036013776
 13
151.1346793074
 23
31.3036013776
  0
SOLID
  8
0
 62
7
  6
CONTINUOUS
 10
151.3659292523
 20
31.4326554468
 11
151.4237418626
 21
31.3036013776
 12
151.1346793074
 22
31.3036013776
 13
151.1346793074
 23
31.3036013776
  0
SOLID
  8
0
 62
7
  6
CONTINUOUS
 10
152.4643666972
 20
31.5939739754
 11
152.6956168074
 21
31.6262382787
 12
152.9268669177
 22
31.6262382787
 13
152.9268669177
 23
31.6262382787
  0
SOLID
  8
0
 62
7
  6
CONTINUOUS
 10
152.9268669177
 20
31.6262382787
 11
153.1003044177
 21
31.5939739754
 12
152.4643666972
 22
31.5939739754
 13
152.4643666972
 23
31.5939739754
  0
SOLID
  8
0
 62
7
  6
CONTINUOUS
 10
152.2909293626
 20
31.5294468852
 11
152.4643666972
 21
31.5939739754
 12
153.1003044177
 22
31.5939739754
 13
153.1003044177
 23
31.5939739754
  0
SOLID
  8
0
 62
7
  6
CONTINUOUS
 10
153.1003044177
 20
31.5939739754
 11
153.2737419177
 21
31.5294468852
 12
152.2909293626
 22
31.5294468852
 13
152.2909293626
 23
31.5294468852
  0
SOLID
  8
0
 62
7
  6
CONTINUOUS
 10
153.2737419177
 20
31.5294468852
 11
152.6956168074
 21
31.4971825369
 12
152.2909293626
 22
31.5294468852
 13
152.2909293626
 23
31.5294468852
  0
SOLID
  8
0
 62
7
  6
CONTINUOUS
 10
152.1753043074
 20
31.4649197951
 11
152.2909293626
 21
31.5294468852
 12
152.6956168074
 22
31.4971825369
 13
152.6956168074
 23
31.4971825369
  0
SOLID
  8
0
 62
7
  6
CONTINUOUS
 10
152.6956168074
 20
31.4971825369
 11
152.4643666972
 21
31.4649197951
 12
152.1753043074
 22
31.4649197951
 13
152.1753043074
 23
31.4649197951
  0
SOLID
  8
0
 62
7
  6
CONTINUOUS
 10
152.6956168074
 20
31.4971825369
 11
153.2737419177
 21
31.5294468852
 12
152.9268669177
 22
31.4649197951
 13
152.9268669177
 23
31.4649197951
  0
SOLID
  8
0
 62
7
  6
CONTINUOUS
 10
153.2737419177
 20
31.5294468852
 11
153.3893668074
 21
31.4649197951
 12
152.9268669177
 22
31.4649197951
 13
152.9268669177
 23
31.4649197951
  0
SOLID
  8
0
 62
7
  6
CONTINUOUS
 10
153.0424918074
 20
31.4326554468
 11
152.9268669177
 21
31.4649197951
 12
153.3893668074
 22
31.4649197951
 13
153.3893668074
 23
31.4649197951
  0
SOLID
  8
0
 62
7
  6
CONTINUOUS
 10
153.3893668074
 20
31.4649197951
 11
153.4471794177
 21
31.4003927049
 12
153.0424918074
 22
31.4326554468
 13
153.0424918074
 23
31.4326554468
  0
SOLID
  8
0
 62
7
  6
CONTINUOUS
 10
153.1581166972
 20
31.3681283566
 11
153.0424918074
 21
31.4326554468
 12
153.4471794177
 22
31.4003927049
 13
153.4471794177
 23
31.4003927049
  0
SOLID
  8
0
 62
7
  6
CONTINUOUS
 10
153.1581166972
 20
31.3681283566
 11
153.4471794177
 21
31.4003927049
 12
153.2159293074
 22
31.2390742213
 13
153.2159293074
 23
31.2390742213
  0
SOLID
  8
0
 62
7
  6
CONTINUOUS
 10
153.4471794177
 20
31.4003927049
 11
153.5049916972
 21
31.2390742213
 12
153.2159293074
 22
31.2390742213
 13
153.2159293074
 23
31.2390742213
  0
SOLID
  8
0
 62
7
  6
CONTINUOUS
 10
152.4643666972
 20
31.4649197951
 11
152.2909293626
 21
31.4003927049
 12
152.1753043074
 22
31.4649197951
 13
152.1753043074
 23
31.4649197951
  0
SOLID
  8
0
 62
7
  6
CONTINUOUS
 10
152.2909293626
 20
31.4003927049
 11
152.1753043074
 21
31.3358640533
 12
152.1753043074
 22
31.4649197951
 13
152.1753043074
 23
31.4649197951
  0
SOLID
  8
0
 62
7
  6
CONTINUOUS
 10
152.1753043074
 20
31.3358640533
 11
151.8862417523
 21
30.5938002869
 12
152.1753043074
 22
31.4649197951
 13
152.1753043074
 23
31.4649197951
  0
SOLID
  8
0
 62
7
  6
CONTINUOUS
 10
152.1753043074
 20
31.4649197951
 11
151.8862417523
 21
30.5938002869
 12
152.1753043074
 22
32.1101937295
 13
152.1753043074
 23
32.1101937295
  0
SOLID
  8
0
 62
7
  6
CONTINUOUS
 10
151.8862417523
 20
30.5938002869
 11
151.8862417523
 21
32.1101937295
 12
152.1753043074
 22
32.1101937295
 13
152.1753043074
 23
32.1101937295
  0
SOLID
  8
0
 62
7
  6
CONTINUOUS
 10
152.1753043074
 20
31.3358640533
 11
152.1753043074
 21
30.5938002869
 12
151.8862417523
 22
30.5938002869
 13
151.8862417523
 23
30.5938002869
  0
SOLID
  8
0
 62
7
  6
CONTINUOUS
 10
153.2159293074
 20
30.5938002869
 11
153.2159293074
 21
31.2390742213
 12
153.5049916972
 22
31.2390742213
 13
153.5049916972
 23
31.2390742213
  0
SOLID
  8
0
 62
7
  6
CONTINUOUS
 10
153.5049916972
 20
31.2390742213
 11
153.5049916972
 21
30.5938002869
 12
153.2159293074
 22
30.5938002869
 13
153.2159293074
 23
30.5938002869
  0
SOLID
  8
0
 62
7
  6
CONTINUOUS
 10
154.2565543074
 20
31.5939738288
 11
154.6612419177
 21
31.6262385959
 12
155.0081169177
 22
31.6262385959
 13
155.0081169177
 23
31.6262385959
  0
SOLID
  8
0
 62
7
  6
CONTINUOUS
 10
155.0081169177
 20
31.6262385959
 11
155.3549915869
 21
31.5939738288
 12
154.2565543074
 22
31.5939738288
 13
154.2565543074
 23
31.5939738288
  0
SOLID
  8
0
 62
7
  6
CONTINUOUS
 10
154.1409294177
 20
31.5617111435
 11
154.2565543074
 21
31.5939738288
 12
155.3549915869
 22
31.5939738288
 13
155.3549915869
 23
31.5939738288
  0
SOLID
  8
0
 62
7
  6
CONTINUOUS
 10
155.3549915869
 20
31.5939738288
 11
155.5284290869
 21
31.5294468402
 12
154.1409294177
 22
31.5617111435
 13
154.1409294177
 23
31.5617111435
  0
SOLID
  8
0
 62
7
  6
CONTINUOUS
 10
154.0253041972
 20
31.4971826249
 11
154.1409294177
 21
31.5617111435
 12
155.5284290869
 22
31.5294468402
 13
155.5284290869
 23
31.5294468402
  0
SOLID
  8
0
 62
7
  6
CONTINUOUS
 10
154.0253041972
 20
31.4971826249
 11
155.5284290869
 21
31.5294468402
 12
154.6612419177
 22
31.4971826249
 13
154.6612419177
 23
31.4971826249
  0
SOLID
  8
0
 62
7
  6
CONTINUOUS
 10
154.6612419177
 20
31.4971826249
 11
155.5284290869
 21
31.5294468402
 12
155.0081169177
 22
31.4971826249
 13
155.0081169177
 23
31.4971826249
  0
SOLID
  8
0
 62
7
  6
CONTINUOUS
 10
155.0081169177
 20
31.4971826249
 11
155.5284290869
 21
31.5294468402
 12
155.239367028
 22
31.4649194065
 13
155.239367028
 23
31.4649194065
  0
SOLID
  8
0
 62
7
  6
CONTINUOUS
 10
155.5284290869
 20
31.5294468402
 11
155.6440543074
 21
31.4649194065
 12
155.239367028
 22
31.4649194065
 13
155.239367028
 23
31.4649194065
  0
SOLID
  8
0
 62
7
  6
CONTINUOUS
 10
153.9674919177
 20
31.4326554138
 11
154.0253041972
 21
31.4971826249
 12
154.6612419177
 22
31.4971826249
 13
154.6612419177
 23
31.4971826249
  0
SOLID
  8
0
 62
7
  6
CONTINUOUS
 10
155.3549915869
 20
31.4326554138
 11
155.239367028
 21
31.4649194065
 12
155.6440543074
 22
31.4649194065
 13
155.6440543074
 23
31.4649194065
  0
SOLID
  8
0
 62
7
  6
CONTINUOUS
 10
155.3549915869
 20
31.4326554138
 11
155.6440543074
 21
31.4649194065
 12
155.412804528
 22
31.3681282026
 13
155.412804528
 23
31.3681282026
  0
SOLID
  8
0
 62
7
  6
CONTINUOUS
 10
155.6440543074
 20
31.4649194065
 11
155.7018665869
 21
31.3681282026
 12
155.412804528
 22
31.3681282026
 13
155.412804528
 23
31.3681282026
  0
SOLID
  8
0
 62
7
  6
CONTINUOUS
 10
155.412804528
 20
31.2713369632
 11
155.412804528
 21
31.3681282026
 12
155.7018665869
 22
31.3681282026
 13
155.7018665869
 23
31.3681282026
  0
SOLID
  8
0
 62
7
  6
CONTINUOUS
 10
155.412804528
 20
31.2713369632
 11
155.7018665869
 21
31.3681282026
 12
155.412804528
 22
31.1422827828
 13
155.412804528
 23
31.1422827828
  0
SOLID
  8
0
 62
7
  6
CONTINUOUS
 10
155.412804528
 20
31.1422827828
 11
155.7018665869
 21
31.3681282026
 12
155.412804528
 22
30.9487004259
 13
155.412804528
 23
30.9487004259
  0
SOLID
  8
0
 62
7
  6
CONTINUOUS
 10
155.7018665869
 20
31.3681282026
 11
155.7018665869
 21
30.8519086025
 12
155.412804528
 22
30.9487004259
 13
155.412804528
 23
30.9487004259
  0
SOLID
  8
0
 62
7
  6
CONTINUOUS
 10
157.6096790869
 20
31.5939736268
 11
157.840929528
 21
31.6262383465
 12
158.0721793074
 22
31.6262383465
 13
158.0721793074
 23
31.6262383465
  0
SOLID
  8
0
 62
7
  6
CONTINUOUS
 10
158.0721793074
 20
31.6262383465
 11
158.2456168074
 21
31.5939736268
 12
157.6096790869
 22
31.5939736268
 13
157.6096790869
 23
31.5939736268
  0
SOLID
  8
0
 62
7
  6
CONTINUOUS
 10
157.4362415869
 20
31.5294472848
 11
157.6096790869
 21
31.5939736268
 12
158.2456168074
 22
31.5939736268
 13
158.2456168074
 23
31.5939736268
  0
SOLID
  8
0
 62
7
  6
CONTINUOUS
 10
158.2456168074
 20
31.5939736268
 11
158.4190543074
 21
31.5294472848
 12
157.4362415869
 22
31.5294472848
 13
157.4362415869
 23
31.5294472848
  0
SOLID
  8
0
 62
7
  6
CONTINUOUS
 10
158.4190543074
 20
31.5294472848
 11
157.840929528
 21
31.4971825369
 12
157.4362415869
 22
31.5294472848
 13
157.4362415869
 23
31.5294472848
  0
SOLID
  8
0
 62
7
  6
CONTINUOUS
 10
157.320617028
 20
31.4649199103
 11
157.4362415869
 21
31.5294472848
 12
157.840929528
 22
31.4971825369
 13
157.840929528
 23
31.4971825369
  0
SOLID
  8
0
 62
7
  6
CONTINUOUS
 10
157.840929528
 20
31.4971825369
 11
157.6096790869
 21
31.4649199103
 12
157.320617028
 22
31.4649199103
 13
157.320617028
 23
31.4649199103
  0
SOLID
  8
0
 62
7
  6
CONTINUOUS
 10
157.840929528
 20
31.4971825369
 11
158.4190543074
 21
31.5294472848
 12
158.0721793074
 22
31.4649199103
 13
158.0721793074
 23
31.4649199103
  0
SOLID
  8
0
 62
7
  6
CONTINUOUS
 10
158.4190543074
 20
31.5294472848
 11
158.534679528
 21
31.4649199103
 12
158.0721793074
 22
31.4649199103
 13
158.0721793074
 23
31.4649199103
  0
SOLID
  8
0
 62
7
  6
CONTINUOUS
 10
158.187804528
 20
31.4326554468
 11
158.0721793074
 21
31.4649199103
 12
158.534679528
 22
31.4649199103
 13
158.534679528
 23
31.4649199103
  0
SOLID
  8
0
 62
7
  6
CONTINUOUS
 10
158.187804528
 20
31.4326554468
 11
158.534679528
 21
31.4649199103
 12
158.3034290869
 22
31.3681288486
 13
158.3034290869
 23
31.3681288486
  0
SOLID
  8
0
 62
7
  6
CONTINUOUS
 10
158.534679528
 20
31.4649199103
 11
158.5924918074
 21
31.3681288486
 12
158.3034290869
 22
31.3681288486
 13
158.3034290869
 23
31.3681288486
  0
SOLID
  8
0
 62
7
  6
CONTINUOUS
 10
158.361242028
 20
31.2068093799
 11
158.3034290869
 21
31.3681288486
 12
158.5924918074
 22
31.3681288486
 13
158.5924918074
 23
31.3681288486
  0
SOLID
  8
0
 62
7
  6
CONTINUOUS
 10
158.5924918074
 20
31.3681288486
 11
158.6503040869
 21
31.2068093799
 12
158.361242028
 22
31.2068093799
 13
158.361242028
 23
31.2068093799
  0
SOLID
  8
0
 62
7
  6
CONTINUOUS
 10
157.6096790869
 20
31.4649199103
 11
157.4362415869
 21
31.4003926599
 12
157.320617028
 22
31.4649199103
 13
157.320617028
 23
31.4649199103
  0
SOLID
  8
0
 62
7
  6
CONTINUOUS
 10
157.4362415869
 20
31.4003926599
 11
157.320617028
 21
31.3358640533
 12
157.320617028
 22
31.4649199103
 13
157.320617028
 23
31.4649199103
  0
SOLID
  8
0
 62
7
  6
CONTINUOUS
 10
157.320617028
 20
31.3358640533
 11
157.0315543074
 21
30.5938003547
 12
157.320617028
 22
31.4649199103
 13
157.320617028
 23
31.4649199103
  0
SOLID
  8
0
 62
7
  6
CONTINUOUS
 10
157.320617028
 20
31.4649199103
 11
157.0315543074
 21
30.5938003547
 12
157.320617028
 22
31.6262383465
 13
157.320617028
 23
31.6262383465
  0
SOLID
  8
0
 62
7
  6
CONTINUOUS
 10
157.0315543074
 20
30.5938003547
 11
157.0315543074
 21
31.6262383465
 12
157.320617028
 22
31.6262383465
 13
157.320617028
 23
31.6262383465
  0
SOLID
  8
0
 62
7
  6
CONTINUOUS
 10
157.320617028
 20
31.3358640533
 11
157.320617028
 21
30.5938003547
 12
157.0315543074
 22
30.5938003547
 13
157.0315543074
 23
30.5938003547
  0
SOLID
  8
0
 62
7
  6
CONTINUOUS
 10
158.361242028
 20
30.5938003547
 11
158.361242028
 21
31.2068093799
 12
158.6503040869
 22
31.2068093799
 13
158.6503040869
 23
31.2068093799
  0
SOLID
  8
0
 62
7
  6
CONTINUOUS
 10
158.6503040869
 20
31.2068093799
 11
158.6503040869
 21
30.5938003547
 12
158.361242028
 22
30.5938003547
 13
158.361242028
 23
30.5938003547
  0
SOLID
  8
0
 62
7
  6
CONTINUOUS
 10
159.4596793074
 20
31.5939739474
 11
159.8065543074
 21
31.6262381969
 12
160.1534293074
 22
31.6262381969
 13
160.1534293074
 23
31.6262381969
  0
SOLID
  8
0
 62
7
  6
CONTINUOUS
 10
160.1534293074
 20
31.6262381969
 11
160.5003043074
 21
31.5939739474
 12
159.4596793074
 22
31.5939739474
 13
159.4596793074
 23
31.5939739474
  0
SOLID
  8
0
 62
7
  6
CONTINUOUS
 10
159.228429528
 20
31.5294468402
 11
159.4596793074
 21
31.5939739474
 12
160.5003043074
 22
31.5939739474
 13
160.5003043074
 23
31.5939739474
  0
SOLID
  8
0
 62
7
  6
CONTINUOUS
 10
159.228429528
 20
31.5294468402
 11
160.5003043074
 21
31.5939739304
 12
160.6737418074
 22
31.5617111435
 13
160.6737418074
 23
31.5617111435
  0
SOLID
  8
0
 62
7
  6
CONTINUOUS
 10
159.228429528
 20
31.5294468402
 11
160.6737418074
 21
31.5617111435
 12
159.8065543074
 22
31.4971825592
 13
159.8065543074
 23
31.4971825592
  0
SOLID
  8
0
 62
7
  6
CONTINUOUS
 10
159.8065543074
 20
31.4971825592
 11
160.6737418074
 21
31.5617111435
 12
160.1534293074
 22
31.4971825592
 13
160.1534293074
 23
31.4971825592
  0
SOLID
  8
0
 62
7
  6
CONTINUOUS
 10
160.6737418074
 20
31.5617111435
 11
160.8471793074
 21
31.4971825592
 12
160.1534293074
 22
31.4971825592
 13
160.1534293074
 23
31.4971825592
  0
SOLID
  8
0
 62
7
  6
CONTINUOUS
 10
160.5003043074
 20
31.4649197501
 11
160.1534293074
 21
31.4971825592
 12
160.8471793074
 22
31.4971825592
 13
160.8471793074
 23
31.4971825592
  0
SOLID
  8
0
 62
7
  6
CONTINUOUS
 10
159.1128043074
 20
31.4326555427
 11
159.228429528
 21
31.5294468402
 12
159.8065543074
 22
31.4971825592
 13
159.8065543074
 23
31.4971825592
  0
SOLID
  8
0
 62
7
  6
CONTINUOUS
 10
160.5003043074
 20
31.4649197501
 11
160.8471793074
 21
31.4971825592
 12
160.615929528
 22
31.4326555427
 13
160.615929528
 23
31.4326555427
  0
SOLID
  8
0
 62
7
  6
CONTINUOUS
 10
160.615929528
 20
31.4326555427
 11
160.8471793074
 21
31.4971825592
 12
160.6737418074
 22
31.3681283005
 13
160.6737418074
 23
31.3681283005
  0
SOLID
  8
0
 62
7
  6
CONTINUOUS
 10
160.8471793074
 20
31.4971825592
 11
160.9628038663
 21
31.3681283005
 12
160.6737418074
 22
31.3681283005
 13
160.6737418074
 23
31.3681283005
  0
SOLID
  8
0
 62
7
  6
CONTINUOUS
 10
150.2674918074
 20
31.4649197501
 11
149.7471793074
 21
31.4326554237
 12
150.498741835
 22
31.4971824493
 13
150.498741835
 23
31.4971824493
  0
SOLID
  8
0
 62
7
  6
CONTINUOUS
 10
149.7471793074
 20
31.4326554237
 11
149.8628043005
 21
31.4971824493
 12
150.498741835
 22
31.4971824493
 13
150.498741835
 23
31.4971824493
  0
SOLID
  8
0
 62
7
  6
CONTINUOUS
 10
150.2674918074
 20
31.4649197501
 11
150.1518667936
 21
31.4326554237
 12
149.7471793074
 22
31.4326554237
 13
149.7471793074
 23
31.4326554237
  0
SOLID
  8
0
 62
7
  6
CONTINUOUS
 10
149.6315543091
 20
31.3036012664
 11
149.7471793074
 21
31.4326554237
 12
150.1518667936
 22
31.4326554237
 13
150.1518667936
 23
31.4326554237
  0
SOLID
  8
0
 62
7
  6
CONTINUOUS
 10
153.9674919177
 20
31.4326554237
 11
154.6612419177
 21
31.4971825369
 12
154.4299918074
 22
31.4649197501
 13
154.4299918074
 23
31.4649197501
  0
SOLID
  8
0
 62
7
  6
CONTINUOUS
 10
154.4299918074
 20
31.4649197501
 11
154.3143669177
 21
31.4326554237
 12
153.9674919177
 22
31.4326554237
 13
153.9674919177
 23
31.4326554237
  0
SOLID
  8
0
 62
7
  6
CONTINUOUS
 10
153.9674919177
 20
31.3681283335
 11
153.9674919177
 21
31.4326554237
 12
154.3143669177
 22
31.4326554237
 13
154.3143669177
 23
31.4326554237
  0
SOLID
  8
0
 62
7
  6
CONTINUOUS
 10
154.3143669177
 20
31.4326554237
 11
154.2565543074
 21
31.3681283335
 12
153.9674919177
 22
31.3681283335
 13
153.9674919177
 23
31.3681283335
  0
SOLID
  8
0
 62
7
  6
CONTINUOUS
 10
159.1128043074
 20
31.4326555528
 11
159.8065543074
 21
31.4971825369
 12
159.575304528
 22
31.4649197501
 13
159.575304528
 23
31.4649197501
  0
SOLID
  8
0
 62
7
  6
CONTINUOUS
 10
159.575304528
 20
31.4649197501
 11
159.4596793074
 21
31.4326555528
 12
159.1128043074
 22
31.4326555528
 13
159.1128043074
 23
31.4326555528
  0
SOLID
  8
0
 62
7
  6
CONTINUOUS
 10
159.1128043074
 20
31.3681284626
 11
159.1128043074
 21
31.4326555528
 12
159.4596793074
 22
31.4326555528
 13
159.4596793074
 23
31.4326555528
  0
SOLID
  8
0
 62
7
  6
CONTINUOUS
 10
159.4596793074
 20
31.4326555528
 11
159.401867028
 21
31.3681284626
 12
159.1128043074
 22
31.3681284626
 13
159.1128043074
 23
31.3681284626
  0
SOLID
  8
0
 62
7
  6
CONTINUOUS
 10
159.228429528
 20
31.2390741763
 11
159.1128043074
 21
31.3681284626
 12
159.401867028
 22
31.3681284626
 13
159.401867028
 23
31.3681284626
  0
SOLID
  8
0
 62
7
  6
CONTINUOUS
 10
149.6315543091
 20
31.3036012664
 11
150.1518667936
 21
31.4326554468
 12
149.9784292936
 22
31.3358640533
 13
149.9784292936
 23
31.3358640533
  0
SOLID
  8
0
 62
7
  6
CONTINUOUS
 10
149.9784292936
 20
31.3358640533
 11
149.9206168074
 21
31.2713369632
 12
149.6315543091
 22
31.3036012664
 13
149.6315543091
 23
31.3036012664
  0
SOLID
  8
0
 62
7
  6
CONTINUOUS
 10
149.5737418074
 20
31.1100184796
 11
149.6315543091
 21
31.3036012664
 12
149.9206168074
 22
31.2713369632
 13
149.9206168074
 23
31.2713369632
  0
SOLID
  8
0
 62
7
  6
CONTINUOUS
 10
154.4299918074
 20
31.2390741763
 11
154.7768668074
 21
31.271336924
 12
155.412804528
 22
31.271336924
 13
155.412804528
 23
31.271336924
  0
SOLID
  8
0
 62
7
  6
CONTINUOUS
 10
154.4299918074
 20
31.2390741763
 11
155.412804528
 21
31.271336924
 12
154.1987416972
 22
31.1745462761
 13
154.1987416972
 23
31.1745462761
  0
SOLID
  8
0
 62
7
  6
CONTINUOUS
 10
154.1987416972
 20
31.1745462761
 11
155.412804528
 21
31.271336924
 12
154.7768668074
 22
31.1422827436
 13
154.7768668074
 23
31.1422827436
  0
SOLID
  8
0
 62
7
  6
CONTINUOUS
 10
155.412804528
 20
31.271336924
 11
155.412804528
 21
31.1422827436
 12
154.7768668074
 22
31.1422827436
 13
154.7768668074
 23
31.1422827436
  0
SOLID
  8
0
 62
7
  6
CONTINUOUS
 10
159.228429528
 20
31.2390745501
 11
159.401867028
 21
31.3681283566
 12
159.4596793074
 22
31.3036012664
 13
159.4596793074
 23
31.3036012664
  0
SOLID
  8
0
 62
7
  6
CONTINUOUS
 10
159.4596793074
 20
31.3036012664
 11
159.6331168074
 21
31.2390745501
 12
159.228429528
 22
31.2390745501
 13
159.228429528
 23
31.2390745501
  0
SOLID
  8
0
 62
7
  6
CONTINUOUS
 10
159.4596793074
 20
31.1422827828
 11
159.228429528
 21
31.2390745501
 12
159.6331168074
 22
31.2390745501
 13
159.6331168074
 23
31.2390745501
  0
SOLID
  8
0
 62
7
  6
CONTINUOUS
 10
159.6331168074
 20
31.2390745501
 11
160.615929528
 21
31.0777556927
 12
159.4596793074
 22
31.1422827828
 13
159.4596793074
 23
31.1422827828
  0
SOLID
  8
0
 62
7
  6
CONTINUOUS
 10
160.442492028
 20
30.9809646623
 11
159.4596793074
 21
31.1422827828
 12
160.615929528
 22
31.0777556927
 13
160.615929528
 23
31.0777556927
  0
SOLID
  8
0
 62
7
  6
CONTINUOUS
 10
160.615929528
 20
31.0777556927
 11
160.8471793074
 21
30.9809646623
 12
160.442492028
 22
30.9809646623
 13
160.442492028
 23
30.9809646623
  0
SOLID
  8
0
 62
7
  6
CONTINUOUS
 10
160.615929528
 20
30.9164372091
 11
160.442492028
 21
30.9809646623
 12
160.8471793074
 22
30.9809646623
 13
160.8471793074
 23
30.9809646623
  0
SOLID
  8
0
 62
7
  6
CONTINUOUS
 10
160.615929528
 20
30.9164372091
 11
160.8471793074
 21
30.9809646623
 12
160.6737418074
 22
30.8519089441
 13
160.6737418074
 23
30.8519089441
  0
SOLID
  8
0
 62
7
  6
CONTINUOUS
 10
160.8471793074
 20
30.9809646623
 11
160.9628038663
 21
30.8519089441
 12
160.6737418074
 22
30.8519089441
 13
160.6737418074
 23
30.8519089441
  0
SOLID
  8
0
 62
7
  6
CONTINUOUS
 10
160.615929528
 20
30.7873818593
 11
160.6737418074
 21
30.8519089441
 12
160.9628038663
 22
30.8519089441
 13
160.9628038663
 23
30.8519089441
  0
SOLID
  8
0
 62
7
  6
CONTINUOUS
 10
160.9628038663
 20
30.8519089441
 11
160.9628038663
 21
30.7873818593
 12
160.615929528
 22
30.7873818593
 13
160.615929528
 23
30.7873818593
  0
SOLID
  8
0
 62
7
  6
CONTINUOUS
 10
160.5003043074
 20
30.7551187255
 11
160.615929528
 21
30.7873818593
 12
160.9628038663
 22
30.7873818593
 13
160.9628038663
 23
30.7873818593
  0
SOLID
  8
0
 62
7
  6
CONTINUOUS
 10
160.5003043074
 20
30.7551187255
 11
160.9628038663
 21
30.7873818593
 12
160.269054528
 22
30.7228547745
 13
160.269054528
 23
30.7228547745
  0
SOLID
  8
0
 62
7
  6
CONTINUOUS
 10
160.9628038663
 20
30.7873818593
 11
160.8471793074
 21
30.6905916353
 12
160.269054528
 22
30.7228547745
 13
160.269054528
 23
30.7228547745
  0
SOLID
  8
0
 62
7
  6
CONTINUOUS
 10
160.8471793074
 20
30.6905916353
 11
159.401867028
 21
30.658327332
 12
160.269054528
 22
30.7228547745
 13
160.269054528
 23
30.7228547745
  0
SOLID
  8
0
 62
7
  6
CONTINUOUS
 10
160.269054528
 20
30.7228547745
 11
159.401867028
 21
30.658327332
 12
159.922179528
 22
30.7228547745
 13
159.922179528
 23
30.7228547745
  0
SOLID
  8
0
 62
7
  6
CONTINUOUS
 10
159.401867028
 20
30.658327332
 11
159.228429528
 21
30.7228547745
 12
159.922179528
 22
30.7228547745
 13
159.922179528
 23
30.7228547745
  0
SOLID
  8
0
 62
7
  6
CONTINUOUS
 10
159.401867028
 20
30.658327332
 11
160.8471793074
 21
30.6905916353
 12
159.575304528
 22
30.6260629858
 13
159.575304528
 23
30.6260629858
  0
SOLID
  8
0
 62
7
  6
CONTINUOUS
 10
160.8471793074
 20
30.6905916353
 11
160.615929528
 21
30.6260629858
 12
159.575304528
 22
30.6260629858
 13
159.575304528
 23
30.6260629858
  0
SOLID
  8
0
 62
7
  6
CONTINUOUS
 10
159.922179528
 20
30.5938006049
 11
159.575304528
 21
30.6260629858
 12
160.615929528
 22
30.6260629858
 13
160.615929528
 23
30.6260629858
  0
SOLID
  8
0
 62
7
  6
CONTINUOUS
 10
160.615929528
 20
30.6260629858
 11
160.269054528
 21
30.5938006049
 12
159.922179528
 22
30.5938006049
 13
159.922179528
 23
30.5938006049
  0
SOLID
  8
0
 62
7
  6
CONTINUOUS
 10
149.5737418074
 20
31.1100184796
 11
149.9206168074
 21
31.2713369632
 12
149.8628043005
 22
31.1422827828
 13
149.8628043005
 23
31.1422827828
  0
SOLID
  8
0
 62
7
  6
CONTINUOUS
 10
149.8628043005
 20
31.1422827828
 11
149.8628043005
 21
31.0454914852
 12
149.5737418074
 22
31.1100184796
 13
149.5737418074
 23
31.1100184796
  0
SOLID
  8
0
 62
7
  6
CONTINUOUS
 10
149.6315543091
 20
30.9164372091
 11
149.5737418074
 21
31.1100184796
 12
149.8628043005
 22
31.0454914852
 13
149.8628043005
 23
31.0454914852
  0
SOLID
  8
0
 62
7
  6
CONTINUOUS
 10
149.8628043005
 20
31.0454914852
 11
149.9784292936
 21
30.8841729058
 12
149.6315543091
 22
30.9164372091
 13
149.6315543091
 23
30.9164372091
  0
SOLID
  8
0
 62
7
  6
CONTINUOUS
 10
149.7471793074
 20
30.7873813202
 11
149.6315543091
 21
30.9164372091
 12
149.9784292936
 22
30.8841729058
 13
149.9784292936
 23
30.8841729058
  0
SOLID
  8
0
 62
7
  6
CONTINUOUS
 10
149.9784292936
 20
30.8841729058
 11
150.1518667936
 21
30.7873813202
 12
149.7471793074
 22
30.7873813202
 13
149.7471793074
 23
30.7873813202
  0
SOLID
  8
0
 62
7
  6
CONTINUOUS
 10
149.8628043005
 20
30.7228547004
 11
149.7471793074
 21
30.7873813202
 12
150.1518667936
 22
30.7873813202
 13
150.1518667936
 23
30.7873813202
  0
SOLID
  8
0
 62
7
  6
CONTINUOUS
 10
150.1518667936
 20
30.7873813202
 11
150.498741835
 21
30.7228547004
 12
149.8628043005
 22
30.7228547004
 13
149.8628043005
 23
30.7228547004
  0
SOLID
  8
0
 62
7
  6
CONTINUOUS
 10
150.0362418212
 20
30.658327332
 11
149.8628043005
 21
30.7228547004
 12
150.498741835
 22
30.7228547004
 13
150.498741835
 23
30.7228547004
  0
SOLID
  8
0
 62
7
  6
CONTINUOUS
 10
154.0831168074
 20
31.1100184386
 11
154.1987416972
 21
31.1745462761
 12
154.7768668074
 22
31.1422827828
 13
154.7768668074
 23
31.1422827828
  0
SOLID
  8
0
 62
7
  6
CONTINUOUS
 10
154.7768668074
 20
31.1422827828
 11
154.5456166972
 21
31.1100184386
 12
154.0831168074
 22
31.1100184386
 13
154.0831168074
 23
31.1100184386
  0
SOLID
  8
0
 62
7
  6
CONTINUOUS
 10
153.9674919177
 20
30.9809642992
 11
154.0831168074
 21
31.1100184386
 12
154.5456166972
 22
31.1100184386
 13
154.5456166972
 23
31.1100184386
  0
SOLID
  8
0
 62
7
  6
CONTINUOUS
 10
154.3143669177
 20
31.0132277988
 11
153.9674919177
 21
30.9809642992
 12
154.4299918074
 22
31.0777556927
 13
154.4299918074
 23
31.0777556927
  0
SOLID
  8
0
 62
7
  6
CONTINUOUS
 10
153.9674919177
 20
30.9809642992
 11
154.5456166972
 21
31.1100184796
 12
154.4299918074
 22
31.0777556927
 13
154.4299918074
 23
31.0777556927
  0
SOLID
  8
0
 62
7
  6
CONTINUOUS
 10
154.3143669177
 20
31.0132277988
 11
154.2565543074
 21
30.9164372091
 12
153.9674919177
 22
30.9809642992
 13
153.9674919177
 23
30.9809642992
  0
SOLID
  8
0
 62
7
  6
CONTINUOUS
 10
153.9674919177
 20
30.8841729058
 11
153.9674919177
 21
30.9809642992
 12
154.2565543074
 22
30.9164372091
 13
154.2565543074
 23
30.9164372091
  0
SOLID
  8
0
 62
7
  6
CONTINUOUS
 10
154.2565543074
 20
30.9164372091
 11
154.2565543074
 21
30.8519086025
 12
153.9674919177
 22
30.8841729058
 13
153.9674919177
 23
30.8841729058
  0
SOLID
  8
0
 62
7
  6
CONTINUOUS
 10
154.0253041972
 20
30.7551187255
 11
153.9674919177
 21
30.8841729058
 12
154.2565543074
 22
30.8519086025
 13
154.2565543074
 23
30.8519086025
  0
SOLID
  8
0
 62
7
  6
CONTINUOUS
 10
155.412804528
 20
30.9487004259
 11
155.7018665869
 21
30.8519086025
 12
155.3549915869
 22
30.8841729058
 13
155.3549915869
 23
30.8841729058
  0
SOLID
  8
0
 62
7
  6
CONTINUOUS
 10
155.1815540869
 20
30.7873815123
 11
155.3549915869
 21
30.8841729058
 12
155.7018665869
 22
30.8519086025
 13
155.7018665869
 23
30.8519086025
  0
SOLID
  8
0
 62
7
  6
CONTINUOUS
 10
155.1815540869
 20
30.7873815123
 11
155.7018665869
 21
30.8519086025
 12
155.412804528
 22
30.7551187255
 13
155.412804528
 23
30.7551187255
  0
SOLID
  8
0
 62
7
  6
CONTINUOUS
 10
155.7018665869
 20
30.8519086025
 11
155.759679528
 21
30.6905916353
 12
155.412804528
 22
30.7551187255
 13
155.412804528
 23
30.7551187255
  0
SOLID
  8
0
 62
7
  6
CONTINUOUS
 10
155.4706168074
 20
30.658327332
 11
155.412804528
 21
30.7551187255
 12
155.759679528
 22
30.6905916353
 13
155.759679528
 23
30.6905916353
  0
SOLID
  8
0
 62
7
  6
CONTINUOUS
 10
155.4706168074
 20
30.658327332
 11
155.759679528
 21
30.6905916353
 12
155.5284290869
 22
30.5938002079
 13
155.5284290869
 23
30.5938002079
  0
SOLID
  8
0
 62
7
  6
CONTINUOUS
 10
155.759679528
 20
30.6905916353
 11
155.8174918074
 21
30.5938002079
 12
155.5284290869
 22
30.5938002079
 13
155.5284290869
 23
30.5938002079
  0
SOLID
  8
0
 62
7
  6
CONTINUOUS
 10
151.0768668626
 20
30.8196456577
 11
151.1346793074
 21
30.9164373395
 12
151.4237418626
 22
30.9164373395
 13
151.4237418626
 23
30.9164373395
  0
SOLID
  8
0
 62
7
  6
CONTINUOUS
 10
151.4237418626
 20
30.9164373395
 11
151.3659292523
 21
30.7873815123
 12
151.0768668626
 22
30.8196456577
 13
151.0768668626
 23
30.8196456577
  0
SOLID
  8
0
 62
7
  6
CONTINUOUS
 10
150.9034292799
 20
30.7551187255
 11
151.0768668626
 21
30.8196456577
 12
151.3659292523
 22
30.7873815123
 13
151.3659292523
 23
30.7873815123
  0
SOLID
  8
0
 62
7
  6
CONTINUOUS
 10
150.9034292799
 20
30.7551187255
 11
151.3659292523
 21
30.7873815123
 12
150.498741835
 22
30.7228544222
 13
150.498741835
 23
30.7228544222
  0
SOLID
  8
0
 62
7
  6
CONTINUOUS
 10
151.3659292523
 20
30.7873815123
 11
151.1924917523
 21
30.6905916353
 12
150.498741835
 22
30.7228544222
 13
150.498741835
 23
30.7228544222
  0
SOLID
  8
0
 62
7
  6
CONTINUOUS
 10
150.0362418212
 20
30.658327332
 11
150.498741835
 21
30.7228544222
 12
151.1924917523
 22
30.6905916353
 13
151.1924917523
 23
30.6905916353
  0
SOLID
  8
0
 62
7
  6
CONTINUOUS
 10
150.0362418212
 20
30.658327332
 11
151.1924917523
 21
30.6905916353
 12
150.2096793212
 22
30.6260631011
 13
150.2096793212
 23
30.6260631011
  0
SOLID
  8
0
 62
7
  6
CONTINUOUS
 10
151.1924917523
 20
30.6905916353
 11
150.9612418074
 21
30.6260631011
 12
150.2096793212
 22
30.6260631011
 13
150.2096793212
 23
30.6260631011
  0
SOLID
  8
0
 62
7
  6
CONTINUOUS
 10
150.5565542799
 20
30.5938002419
 11
150.2096793212
 21
30.6260631011
 12
150.9612418074
 22
30.6260631011
 13
150.9612418074
 23
30.6260631011
  0
SOLID
  8
0
 62
7
  6
CONTINUOUS
 10
154.0253041972
 20
30.7551187255
 11
154.2565543074
 21
30.8519086025
 12
154.3143669177
 22
30.7873815123
 13
154.3143669177
 23
30.7873815123
  0
SOLID
  8
0
 62
7
  6
CONTINUOUS
 10
154.3143669177
 20
30.7873815123
 11
154.5456166972
 21
30.7228544222
 12
154.0253041972
 22
30.7551187255
 13
154.0253041972
 23
30.7551187255
  0
SOLID
  8
0
 62
7
  6
CONTINUOUS
 10
154.1987416972
 20
30.658327332
 11
154.0253041972
 21
30.7551187255
 12
154.5456166972
 22
30.7228544222
 13
154.5456166972
 23
30.7228544222
  0
SOLID
  8
0
 62
7
  6
CONTINUOUS
 10
154.8924916972
 20
30.7228544637
 11
155.1815540869
 21
30.7873815123
 12
155.412804528
 22
30.7551187255
 13
155.412804528
 23
30.7551187255
  0
SOLID
  8
0
 62
7
  6
CONTINUOUS
 10
155.412804528
 20
30.7551187255
 11
155.3549915869
 21
30.6905916353
 12
154.8924916972
 22
30.7228544637
 13
154.8924916972
 23
30.7228544637
  0
SOLID
  8
0
 62
7
  6
CONTINUOUS
 10
155.3549915869
 20
30.6905916353
 11
154.1987416972
 21
30.658327332
 12
154.8924916972
 22
30.7228544637
 13
154.8924916972
 23
30.7228544637
  0
SOLID
  8
0
 62
7
  6
CONTINUOUS
 10
154.1987416972
 20
30.658327332
 11
154.5456166972
 21
30.7228544637
 12
154.8924916972
 22
30.7228544637
 13
154.8924916972
 23
30.7228544637
  0
SOLID
  8
0
 62
7
  6
CONTINUOUS
 10
154.1987416972
 20
30.658327332
 11
155.3549915869
 21
30.6905916353
 12
154.3143669177
 22
30.6260630541
 13
154.3143669177
 23
30.6260630541
  0
SOLID
  8
0
 62
7
  6
CONTINUOUS
 10
155.3549915869
 20
30.6905916353
 11
155.1815540869
 21
30.6260630541
 12
154.3143669177
 22
30.6260630541
 13
154.3143669177
 23
30.6260630541
  0
SOLID
  8
0
 62
7
  6
CONTINUOUS
 10
154.5456166972
 20
30.5938002188
 11
154.3143669177
 21
30.6260630541
 12
155.1815540869
 22
30.6260630541
 13
155.1815540869
 23
30.6260630541
  0
SOLID
  8
0
 62
7
  6
CONTINUOUS
 10
155.1815540869
 20
30.6260630541
 11
154.8924916972
 21
30.5938002188
 12
154.5456166972
 22
30.5938002188
 13
154.5456166972
 23
30.5938002188
  0
SOLID
  8
0
 62
7
  6
CONTINUOUS
 10
159.575304528
 20
30.7551187255
 11
159.228429528
 21
30.7228544637
 12
159.4596793074
 22
30.7873815123
 13
159.4596793074
 23
30.7873815123
  0
SOLID
  8
0
 62
7
  6
CONTINUOUS
 10
159.4596793074
 20
30.7873815123
 11
159.228429528
 21
30.7228544637
 12
159.401867028
 22
30.851908644
 13
159.401867028
 23
30.851908644
  0
SOLID
  8
0
 62
7
  6
CONTINUOUS
 10
159.228429528
 20
30.7228544637
 11
159.1128043074
 21
30.851908644
 12
159.401867028
 22
30.851908644
 13
159.401867028
 23
30.851908644
  0
SOLID
  8
0
 62
7
  6
CONTINUOUS
 10
159.575304528
 20
30.7551187255
 11
159.922179528
 21
30.7228544637
 12
159.228429528
 22
30.7228544637
 13
159.228429528
 23
30.7228544637
  0
SOLID
  8
0
 62
7
  6
CONTINUOUS
 10
156.279992028
 20
30.5938002419
 11
156.279992028
 21
31.6262382337
 12
156.5690540869
 22
30.5938002419
 13
156.5690540869
 23
31.6262382337
  0
ENDBLK
  8
0
  6
BYBLOCK
 62
0
  0
BLOCK
  8
0
 62
2
  6
CONTINUOUS
  2
AMMEAAL_LOGO_BL0
 70
64
 10
32.1213064866
 20
19.8534310916
  0
TEXT
  8
0
 62
7
  6
CONTINUOUS
 10
18.3860103289
 20
19.2268451992
  7
TEXTSTYLE_3
 40
2.7338706658
  1
Ammeraal Beltech
 41
1.0
 51
15.0
 72
0
  0
TEXT
  8
0
 62
7
  6
CONTINUOUS
 10
29.1868111546
 20
16.9533085264
  7
TEXTSTYLE_4
 40
1.0935482663
  1
Innovation & Service in Belting
 41
1.0
 72
0
  0
LINE
  8
0
 62
7
  6
CONTINUOUS
 10
12.3614696776
 20
19.9934385078
 11
13.1396216709
 21
23.6543558055
  0
LINE
  8
0
 62
7
  6
CONTINUOUS
 10
23.2347899607
 20
27.3177497171
 11
13.6274394139
 21
24.1961322958
  0
LINE
  8
0
 62
7
  6
CONTINUOUS
 10
12.5867530099
 20
19.3000877048
 11
20.093828271
 21
12.5406867788
  0
LINE
  8
0
 62
7
  6
CONTINUOUS
 10
12.8492874206
 20
20.5352149982
 11
23.6575567857
 21
24.0470345971
  0
LINE
  8
0
 62
7
  6
CONTINUOUS
 10
23.6533516486
 20
13.6972460334
 11
15.2078919798
 21
21.3015720751
  0
LINE
  8
0
 62
7
  6
CONTINUOUS
 10
24.1731743684
 20
26.4728246013
 11
23.1966148312
 21
21.8784731989
  0
LINE
  8
0
 62
7
  6
CONTINUOUS
 10
22.4968128835
 20
18.5861638851
 11
21.810364672
 21
15.3566789607
  0
LINE
  8
0
 62
7
  6
CONTINUOUS
 10
24.8542704669
 20
14.087448211
 11
25.8105020025
 21
18.5861638851
  0
LINE
  8
0
 62
7
  6
CONTINUOUS
 10
26.5103039502
 20
21.8784731989
 11
26.9545457526
 21
23.9684665583
  0
LINE
  8
0
 62
7
  6
CONTINUOUS
 10
20.8069293463
 20
12.3891124661
 11
24.3664527239
 21
13.5456717207
  0
LINE
  8
0
 62
7
  6
CONTINUOUS
 10
23.9478910361
 20
27.1661754044
 11
26.7292624203
 21
24.6618173613
  0
ARC
  8
0
 62
7
  6
CONTINUOUS
 10
13.8527227462
 20
23.5027814928
 40
0.7290321776
 50
108.0
 51
168.0
  0
ARC
  8
0
 62
7
  6
CONTINUOUS
 10
23.4600732931
 20
26.624398914
 40
0.7290321776
 50
348.0
 51
108.0
  0
ARC
  8
0
 62
7
  6
CONTINUOUS
 10
26.2414446773
 20
24.120040871
 40
0.7290321776
 50
348.0
 51
48.0
  0
ARC
  8
0
 62
7
  6
CONTINUOUS
 10
20.581646014
 20
13.0824632691
 40
0.7290321776
 50
228.0
 51
288.0
  0
ARC
  8
0
 62
7
  6
CONTINUOUS
 10
13.0745707529
 20
19.8418641951
 40
0.7290321776
 50
108.0
 51
228.0
  0
ARC
  8
0
 62
7
  6
CONTINUOUS
 10
24.1411693916
 20
14.2390225237
 40
0.7290321776
 50
228.0
 51
348.0
  0
ENDBLK
  8
0
  6
BYBLOCK
 62
0
  0
ENDSEC
  0
SECTION
  2
ENTITIES
  0
TEXT
  8
0
 62
5
  6
CONTINUOUS
 10
96.0
 20
25.636
  7
TEXTSTYLE_2
 40
2.8
  1
Scale :
 41
0.6
 51
0.000019
 72
0
  0
TEXT
  8
0
 62
5
  6
CONTINUOUS
 10
116.0
 20
25.636
  7
TEXTSTYLE_2
 40
2.8
  1
Belt type:
 41
0.6
 51
0.000019
 72
0
  0
INSERT
  8
0
 62
2
  6
CONTINUOUS
  2
AMMEAAL_LOGO_BL0
 10
32.1213064866
 20
19.8534310916
  0
INSERT
  8
0
 62
2
  6
CONTINUOUS
  2
UNI_LOGO2_BL1
 10
173.5956734183
 20
35.5937998301
  0
LINE
  8
0
 62
2
  6
CONTINUOUS
 10
10.0
 20
30.0
 11
200.0
 21
30.0
  0
LINE
  8
0
 62
2
  6
CONTINUOUS
 10
10.0
 20
30.0
 11
10.0
 21
10.0
  0
LINE
  8
0
 62
2
  6
CONTINUOUS
 10
10.0
 20
10.0
 11
200.0
 21
10.0
  0
LINE
  8
0
 62
2
  6
CONTINUOUS
 10
95.0
 20
30.0
 11
95.0
 21
10.0
  0
LINE
  8
0
 62
2
  6
CONTINUOUS
 10
115.0
 20
30.0
 11
115.0
 21
10.0
  0
LINE
  8
0
 62
2
  6
CONTINUOUS
 10
200.0
 20
30.0
 11
200.0
 21
10.0
  0
TEXT
  8
0
 62
5
  6
CONTINUOUS
 10
13.0
 20
23.303
  7
TEXTSTYLE_5
 40
1.52
  1
                                                                     Ammeraal Beltech Modular A/S
 41
1.0
 72
0
  0
TEXT
  8
0
 62
5
  6
CONTINUOUS
 10
13.0
 20
20.595
  7
TEXTSTYLE_5
 40
1.5
  1
                                                                      Hjulmagervej 21,  7100 Vejle,  DK
 41
1.0
 72
0
  0
TEXT
  8
0
 62
5
  6
CONTINUOUS
 10
13.0
 20
17.881
  7
TEXTSTYLE_5
 40
1.495
  1
                                                                      tel: 
 41
1.0
 72
0
  0
TEXT
  8
0
 62
5
  6
CONTINUOUS
 10
57.9869465649
 20
17.881
  7
TEXTSTYLE_5
 40
1.51
  1
+45 75723100     fax: +45 75723348
 41
1.0
 72
0
  0
TEXT
  8
0
 62
5
  6
CONTINUOUS
 10
13.0
 20
15.177
  7
TEXTSTYLE_5
 40
1.5
  1
                                                                      admin@unichains.dk  www.unichains.com
 41
1.0
 72
0
  0
TEXT
  8
0
 62
5
  6
CONTINUOUS
 10
99.75
 20
13.75
  7
TEXTSTYLE_6
 40
5.0
  1
1:1
 41
0.7
 72
1
 11
105.0
 21
13.75
  0
TEXT
  8
0
 62
5
  6
CONTINUOUS
 10
118.0
 20
13.75
  7
TEXTSTYLE_7
 40
7.5
  1
uni Light EP-00-K325
 41
0.5439583333
 72
0
  0
LINE
  8
0
 62
7
  6
CONTINUOUS
 10
210.0
 20
0.0
 11
0.0
 21
0.0
  0
LINE
  8
0
 62
7
  6
CONTINUOUS
 10
10.0
 20
10.0
 11
200.0
 21
10.0
  0
LINE
  8
0
 62
7
  6
CONTINUOUS
 10
10.0
 20
30.0
 11
200.0
 21
30.0
  0
LINE
  8
0
 62
7
  6
CONTINUOUS
 10
0.0
 20
0.0
 11
0.0
 21
297.0
  0
LINE
  8
0
 62
7
  6
CONTINUOUS
 10
10.0
 20
10.0
 11
10.0
 21
287.0
  0
LINE
  8
0
 62
7
  6
CONTINUOUS
 10
200.0
 20
287.0
 11
200.0
 21
10.0
  0
LINE
  8
0
 62
7
  6
CONTINUOUS
 10
210.0
 20
0.0
 11
210.0
 21
297.0
  0
LINE
  8
0
 62
7
  6
CONTINUOUS
 10
10.0
 20
287.0
 11
200.0
 21
287.0
  0
LINE
  8
0
 62
7
  6
CONTINUOUS
 10
0.0
 20
297.0
 11
210.0
 21
297.0
  0
LINE
  8
2_FEATURE
 62
7
  6
CONTINUOUS
 10
40.2447364539
 20
193.851828609
 11
40.2447364539
 21
199.3897437257
  0
LINE
  8
0
 62
7
  6
CONTINUOUS
 10
42.8916357277
 20
193.0754705287
 11
42.8947364113
 21
193.0324496493
  0
LINE
  8
2_FEATURE
 62
7
  6
CONTINUOUS
 10
40.4447364539
 20
192.2152306128
 11
40.4447364539
 21
199.715228609
  0
LINE
  8
0
 62
7
  6
CONTINUOUS
 10
42.2947364539
 20
193.2219592312
 11
42.2947364539
 21
191.915228609
  0
LINE
  8
0
 62
7
  6
CONTINUOUS
 10
42.8947364539
 20
193.059005122
 11
42.8947364539
 21
192.215228609
  0
POLYLINE
  8
0
 62
7
  6
CONTINUOUS
 66
1
 70
0
  0
VERTEX
  8
0
 62
7
  6
CONTINUOUS
 10
42.2947361117
 20
193.2219593895
  0
VERTEX
  8
0
 62
7
  6
CONTINUOUS
 10
42.2954104015
 20
193.2427159029
  0
VERTEX
  8
0
 62
7
  6
CONTINUOUS
 10
42.2984848915
 20
193.2719540106
  0
VERTEX
  8
0
 62
7
  6
CONTINUOUS
 10
42.3039256892
 20
193.3016181046
  0
VERTEX
  8
0
 62
7
  6
CONTINUOUS
 10
42.3115565211
 20
193.3312830516
  0
VERTEX
  8
0
 62
7
  6
CONTINUOUS
 10
42.321165098
 20
193.3605231864
  0
VERTEX
  8
0
 62
7
  6
CONTINUOUS
 10
42.3325165599
 20
193.3889708916
  0
VERTEX
  8
0
 62
7
  6
CONTINUOUS
 10
42.3453827971
 20
193.4163273904
  0
VERTEX
  8
0
 62
7
  6
CONTINUOUS
 10
42.3595117603
 20
193.442294806
  0
VERTEX
  8
0
 62
7
  6
CONTINUOUS
 10
42.3746449209
 20
193.4666074765
  0
VERTEX
  8
0
 62
7
  6
CONTINUOUS
 10
42.3905427688
 20
193.4890720674
  0
VERTEX
  8
0
 62
7
  6
CONTINUOUS
 10
42.4069821448
 20
193.5095391887
  0
VERTEX
  8
0
 62
7
  6
CONTINUOUS
 10
42.4239664243
 20
193.5281148216
  0
VERTEX
  8
0
 62
7
  6
CONTINUOUS
 10
42.4416387492
 20
193.5449293596
  0
VERTEX
  8
0
 62
7
  6
CONTINUOUS
 10
42.4599617876
 20
193.5598110721
  0
VERTEX
  8
0
 62
7
  6
CONTINUOUS
 10
42.4791861565
 20
193.5726919157
  0
VERTEX
  8
0
 62
7
  6
CONTINUOUS
 10
42.4994660522
 20
193.5831720865
  0
VERTEX
  8
0
 62
7
  6
CONTINUOUS
 10
42.5205482853
 20
193.5904006137
  0
VERTEX
  8
0
 62
7
  6
CONTINUOUS
 10
42.5411112486
 20
193.5933702206
  0
VERTEX
  8
0
 62
7
  6
CONTINUOUS
 10
42.5599253816
 20
193.5922269997
  0
VERTEX
  8
0
 62
7
  6
CONTINUOUS
 10
42.5770855771
 20
193.5880740794
  0
VERTEX
  8
0
 62
7
  6
CONTINUOUS
 10
42.5937134017
 20
193.5815041531
  0
VERTEX
  8
0
 62
7
  6
CONTINUOUS
 10
42.6033011781
 20
193.5766707783
  0
SEQEND
  0
LINE
  8
0
 62
7
  6
CONTINUOUS
 10
42.2981941614
 20
193.2691891953
 11
42.2990555057
 21
193.2750650898
  0
POLYLINE
  8
2_FEATURE
 62
7
  6
CONTINUOUS
 66
1
 70
0
  0
VERTEX
  8
2_FEATURE
 62
7
  6
CONTINUOUS
 10
44.3656178928
 20
197.315228609
  0
VERTEX
  8
2_FEATURE
 62
7
  6
CONTINUOUS
 10
44.3624069914
 20
197.4860167367
  0
VERTEX
  8
2_FEATURE
 62
7
  6
CONTINUOUS
 10
44.3588089426
 20
197.6528811778
  0
VERTEX
  8
2_FEATURE
 62
7
  6
CONTINUOUS
 10
44.3548438561
 20
197.815228609
  0
SEQEND
  0
LINE
  8
0
 62
7
  6
CONTINUOUS
 10
44.2947364539
 20
191.715228609
 11
44.2947364539
 21
195.1515003834
  0
LINE
  8
2_FEATURE
 62
7
  6
CONTINUOUS
 10
44.2947364539
 20
195.1515003834
 11
44.2947364539
 21
199.715228609
  0
POLYLINE
  8
2_FEATURE
 62
7
  6
CONTINUOUS
 66
1
 70
0
  0
VERTEX
  8
2_FEATURE
 62
7
  6
CONTINUOUS
 10
44.3656178928
 20
197.315228609
  0
VERTEX
  8
2_FEATURE
 62
7
  6
CONTINUOUS
 10
44.3700802605
 20
197.3869903946
  0
VERTEX
  8
2_FEATURE
 62
7
  6
CONTINUOUS
 10
44.3883520425
 20
197.4655097259
  0
VERTEX
  8
2_FEATURE
 62
7
  6
CONTINUOUS
 10
44.4281396827
 20
197.5555298083
  0
VERTEX
  8
2_FEATURE
 62
7
  6
CONTINUOUS
 10
44.4939586766
 20
197.6463714229
  0
VERTEX
  8
2_FEATURE
 62
7
  6
CONTINUOUS
 10
44.5859937949
 20
197.7264066285
  0
VERTEX
  8
2_FEATURE
 62
7
  6
CONTINUOUS
 10
44.6885942286
 20
197.7805247177
  0
VERTEX
  8
2_FEATURE
 62
7
  6
CONTINUOUS
 10
44.7947364539
 20
197.8092403663
  0
SEQEND
  0
POLYLINE
  8
0
 62
7
  6
CONTINUOUS
 66
1
 70
0
  0
VERTEX
  8
0
 62
7
  6
CONTINUOUS
 10
42.3000625197
 20
193.2819236646
  0
VERTEX
  8
0
 62
7
  6
CONTINUOUS
 10
42.3031460826
 20
193.2963275971
  0
VERTEX
  8
0
 62
7
  6
CONTINUOUS
 10
42.3066722883
 20
193.3064237844
  0
SEQEND
  0
POLYLINE
  8
2_FEATURE
 62
7
  6
CONTINUOUS
 66
1
 70
0
  0
VERTEX
  8
2_FEATURE
 62
7
  6
CONTINUOUS
 10
40.4447364539
 20
196.9789572339
  0
VERTEX
  8
2_FEATURE
 62
7
  6
CONTINUOUS
 10
40.4474494835
 20
196.9851979184
  0
VERTEX
  8
2_FEATURE
 62
7
  6
CONTINUOUS
 10
40.4690075629
 20
196.9972992724
  0
VERTEX
  8
2_FEATURE
 62
7
  6
CONTINUOUS
 10
40.5112722303
 20
197.0084823327
  0
VERTEX
  8
2_FEATURE
 62
7
  6
CONTINUOUS
 10
40.5724934606
 20
197.0182974363
  0
VERTEX
  8
2_FEATURE
 62
7
  6
CONTINUOUS
 10
40.6094320691
 20
197.0225682737
  0
VERTEX
  8
2_FEATURE
 62
7
  6
CONTINUOUS
 10
40.6939818888
 20
197.0296282973
  0
VERTEX
  8
2_FEATURE
 62
7
  6
CONTINUOUS
 10
40.7896430375
 20
197.0344934427
  0
VERTEX
  8
2_FEATURE
 62
7
  6
CONTINUOUS
 10
40.8922379452
 20
197.0369754789
  0
VERTEX
  8
2_FEATURE
 62
7
  6
CONTINUOUS
 10
40.9447364539
 20
197.037288278
  0
SEQEND
  0
POLYLINE
  8
2_FEATURE
 62
7
  6
CONTINUOUS
 66
1
 70
0
  0
VERTEX
  8
2_FEATURE
 62
7
  6
CONTINUOUS
 10
40.323698234
 20
193.5821495083
  0
VERTEX
  8
2_FEATURE
 62
7
  6
CONTINUOUS
 10
40.2733982718
 20
193.6847170868
  0
VERTEX
  8
2_FEATURE
 62
7
  6
CONTINUOUS
 10
40.2575525834
 20
193.738929264
  0
VERTEX
  8
2_FEATURE
 62
7
  6
CONTINUOUS
 10
40.2447277579
 20
193.851828609
  0
SEQEND
  0
POLYLINE
  8
2_FEATURE
 62
7
  6
CONTINUOUS
 66
1
 70
0
  0
VERTEX
  8
2_FEATURE
 62
7
  6
CONTINUOUS
 10
40.4447364539
 20
195.1514999841
  0
VERTEX
  8
2_FEATURE
 62
7
  6
CONTINUOUS
 10
40.4474494835
 20
195.1452592997
  0
VERTEX
  8
2_FEATURE
 62
7
  6
CONTINUOUS
 10
40.4690075629
 20
195.1331579457
  0
VERTEX
  8
2_FEATURE
 62
7
  6
CONTINUOUS
 10
40.5112722303
 20
195.1219748854
  0
VERTEX
  8
2_FEATURE
 62
7
  6
CONTINUOUS
 10
40.5724934606
 20
195.1121597817
  0
VERTEX
  8
2_FEATURE
 62
7
  6
CONTINUOUS
 10
40.6094320691
 20
195.1078889443
  0
VERTEX
  8
2_FEATURE
 62
7
  6
CONTINUOUS
 10
40.6939818888
 20
195.1008289208
  0
VERTEX
  8
2_FEATURE
 62
7
  6
CONTINUOUS
 10
40.7896430375
 20
195.0959637753
  0
VERTEX
  8
2_FEATURE
 62
7
  6
CONTINUOUS
 10
40.8922379452
 20
195.0934817392
  0
VERTEX
  8
2_FEATURE
 62
7
  6
CONTINUOUS
 10
40.9447364539
 20
195.0931689401
  0
SEQEND
  0
LINE
  8
2_FEATURE
 62
7
  6
CONTINUOUS
 10
46.0447364539
 20
192.215228609
 11
46.0447364539
 21
194.0795651809
  0
POLYLINE
  8
2_FEATURE
 62
7
  6
CONTINUOUS
 66
1
 70
0
  0
VERTEX
  8
2_FEATURE
 62
7
  6
CONTINUOUS
 10
44.2947364539
 20
195.1514999841
  0
VERTEX
  8
2_FEATURE
 62
7
  6
CONTINUOUS
 10
44.2920234244
 20
195.1452592997
  0
VERTEX
  8
2_FEATURE
 62
7
  6
CONTINUOUS
 10
44.270465345
 20
195.1331579457
  0
VERTEX
  8
2_FEATURE
 62
7
  6
CONTINUOUS
 10
44.2282006776
 20
195.1219748854
  0
VERTEX
  8
2_FEATURE
 62
7
  6
CONTINUOUS
 10
44.1669794472
 20
195.1121597817
  0
VERTEX
  8
2_FEATURE
 62
7
  6
CONTINUOUS
 10
44.1300408387
 20
195.1078889443
  0
VERTEX
  8
2_FEATURE
 62
7
  6
CONTINUOUS
 10
44.0454910191
 20
195.1008289208
  0
VERTEX
  8
2_FEATURE
 62
7
  6
CONTINUOUS
 10
43.9498298704
 20
195.0959637753
  0
VERTEX
  8
2_FEATURE
 62
7
  6
CONTINUOUS
 10
43.8472349627
 20
195.0934817392
  0
VERTEX
  8
2_FEATURE
 62
7
  6
CONTINUOUS
 10
43.7947364539
 20
195.0931689401
  0
SEQEND
  0
LINE
  8
2_FEATURE
 62
7
  6
CONTINUOUS
 10
50.9447364539
 20
192.215228609
 11
50.9447364539
 21
194.0851962801
  0
LINE
  8
0
 62
7
  6
CONTINUOUS
 10
40.2447364539
 20
199.3897437257
 11
40.4447364539
 21
199.605341709
  0
LINE
  8
2_FEATURE
 62
7
  6
CONTINUOUS
 10
52.6947364539
 20
199.715228609
 11
52.6947364539
 21
192.215228609
  0
POLYLINE
  8
0
 62
7
  6
CONTINUOUS
 66
1
 70
0
  0
VERTEX
  8
0
 62
7
  6
CONTINUOUS
 10
44.0263324253
 20
191.915228609
  0
VERTEX
  8
0
 62
7
  6
CONTINUOUS
 10
44.0427940851
 20
191.8979816461
  0
VERTEX
  8
0
 62
7
  6
CONTINUOUS
 10
44.0778642463
 20
191.8629231124
  0
VERTEX
  8
0
 62
7
  6
CONTINUOUS
 10
44.1148850179
 20
191.828239129
  0
VERTEX
  8
0
 62
7
  6
CONTINUOUS
 10
44.1527778932
 20
191.7952273152
  0
VERTEX
  8
0
 62
7
  6
CONTINUOUS
 10
44.1716987877
 20
191.7797710877
  0
VERTEX
  8
0
 62
7
  6
CONTINUOUS
 10
44.2086649796
 20
191.7519500563
  0
VERTEX
  8
0
 62
7
  6
CONTINUOUS
 10
44.2429574201
 20
191.730020726
  0
VERTEX
  8
0
 62
7
  6
CONTINUOUS
 10
44.2717268096
 20
191.7170575071
  0
VERTEX
  8
0
 62
7
  6
CONTINUOUS
 10
44.2826749781
 20
191.715228609
  0
SEQEND
  0
LINE
  8
2_FEATURE
 62
7
  6
CONTINUOUS
 10
51.902984914
 20
192.8702518225
 11
51.905955157
 21
192.8600234539
  0
LINE
  8
2_FEATURE
 62
7
  6
CONTINUOUS
 10
51.9059601298
 20
192.8600057572
 11
52.1246912211
 21
192.0801939531
  0
POLYLINE
  8
2_FEATURE
 62
7
  6
CONTINUOUS
 66
1
 70
0
  0
VERTEX
  8
2_FEATURE
 62
7
  6
CONTINUOUS
 10
52.1255336601
 20
192.0771903678
  0
VERTEX
  8
2_FEATURE
 62
7
  6
CONTINUOUS
 10
52.1093881133
 20
192.1631438323
  0
VERTEX
  8
2_FEATURE
 62
7
  6
CONTINUOUS
 10
52.1069979501
 20
192.215228609
  0
SEQEND
  0
POLYLINE
  8
2_FEATURE
 62
7
  6
CONTINUOUS
 66
1
 70
0
  0
VERTEX
  8
2_FEATURE
 62
7
  6
CONTINUOUS
 10
52.6947364539
 20
196.9789572339
  0
VERTEX
  8
2_FEATURE
 62
7
  6
CONTINUOUS
 10
52.6974494835
 20
196.9851979184
  0
VERTEX
  8
2_FEATURE
 62
7
  6
CONTINUOUS
 10
52.7190075629
 20
196.9972992724
  0
VERTEX
  8
2_FEATURE
 62
7
  6
CONTINUOUS
 10
52.7612722303
 20
197.0084823327
  0
VERTEX
  8
2_FEATURE
 62
7
  6
CONTINUOUS
 10
52.8224934606
 20
197.0182974363
  0
VERTEX
  8
2_FEATURE
 62
7
  6
CONTINUOUS
 10
52.8594320691
 20
197.0225682737
  0
VERTEX
  8
2_FEATURE
 62
7
  6
CONTINUOUS
 10
52.9439818888
 20
197.0296282973
  0
VERTEX
  8
2_FEATURE
 62
7
  6
CONTINUOUS
 10
53.0396430375
 20
197.0344934427
  0
VERTEX
  8
2_FEATURE
 62
7
  6
CONTINUOUS
 10
53.1422379452
 20
197.0369754789
  0
VERTEX
  8
2_FEATURE
 62
7
  6
CONTINUOUS
 10
53.1947364539
 20
197.037288278
  0
SEQEND
  0
LINE
  8
2_FEATURE
 62
7
  6
CONTINUOUS
 10
60.7947364539
 20
192.2152291292
 11
60.7947364539
 21
199.715228609
  0
LINE
  8
2_FEATURE
 62
7
  6
CONTINUOUS
 10
60.9447364539
 20
192.2152306698
 11
60.9447364539
 21
197.6395203195
  0
LINE
  8
2_FEATURE
 62
7
  6
CONTINUOUS
 10
60.9509861678
 20
197.8099434485
 11
60.9509861678
 21
197.715228609
  0
LINE
  8
2_FEATURE
 62
7
  6
CONTINUOUS
 10
61.02598674
 20
197.815228609
 11
61.02598674
 21
197.715228609
  0
LINE
  8
2_FEATURE
 62
7
  6
CONTINUOUS
 10
61.1009864539
 20
197.815228609
 11
61.1009864539
 21
197.715228609
  0
LINE
  8
2_FEATURE
 62
7
  6
CONTINUOUS
 10
61.1572364539
 20
197.815228609
 11
61.1572364539
 21
197.715228609
  0
LINE
  8
2_FEATURE
 62
7
  6
CONTINUOUS
 10
61.19473674
 20
197.815228609
 11
61.19473674
 21
197.715228609
  0
LINE
  8
2_FEATURE
 62
7
  6
CONTINUOUS
 10
61.2134864539
 20
197.815228609
 11
61.2134864539
 21
197.715228609
  0
LINE
  8
2_FEATURE
 62
7
  6
CONTINUOUS
 10
61.36348674
 20
197.815228609
 11
61.36348674
 21
197.715228609
  0
LINE
  8
2_FEATURE
 62
7
  6
CONTINUOUS
 10
61.4572361678
 20
197.815228609
 11
61.4572361678
 21
197.715228609
  0
LINE
  8
2_FEATURE
 62
7
  6
CONTINUOUS
 10
61.6072364539
 20
197.815228609
 11
61.6072364539
 21
197.715228609
  0
LINE
  8
2_FEATURE
 62
7
  6
CONTINUOUS
 10
61.6259861678
 20
197.815228609
 11
61.6259861678
 21
197.715228609
  0
LINE
  8
2_FEATURE
 62
7
  6
CONTINUOUS
 10
61.64473674
 20
197.815228609
 11
61.64473674
 21
197.715228609
  0
LINE
  8
2_FEATURE
 62
7
  6
CONTINUOUS
 10
61.6822361678
 20
197.815228609
 11
61.6822361678
 21
197.715228609
  0
LINE
  8
2_FEATURE
 62
7
  6
CONTINUOUS
 10
61.7384861678
 20
197.815228609
 11
61.7384861678
 21
197.715228609
  0
LINE
  8
2_FEATURE
 62
7
  6
CONTINUOUS
 10
61.8322364539
 20
197.815228609
 11
61.8322364539
 21
197.715228609
  0
LINE
  8
2_FEATURE
 62
7
  6
CONTINUOUS
 10
61.9447364539
 20
197.815228609
 11
61.9447364539
 21
197.715228609
  0
LINE
  8
2_FEATURE
 62
7
  6
CONTINUOUS
 10
62.0572364539
 20
197.815228609
 11
62.0572364539
 21
197.715228609
  0
LINE
  8
2_FEATURE
 62
7
  6
CONTINUOUS
 10
62.15098674
 20
197.815228609
 11
62.15098674
 21
197.715228609
  0
LINE
  8
2_FEATURE
 62
7
  6
CONTINUOUS
 10
62.20723674
 20
197.815228609
 11
62.20723674
 21
197.715228609
  0
LINE
  8
2_FEATURE
 62
7
  6
CONTINUOUS
 10
62.2447361678
 20
197.815228609
 11
62.2447361678
 21
197.715228609
  0
LINE
  8
2_FEATURE
 62
7
  6
CONTINUOUS
 10
62.26348674
 20
197.815228609
 11
62.26348674
 21
197.715228609
  0
LINE
  8
2_FEATURE
 62
7
  6
CONTINUOUS
 10
62.2822364539
 20
197.815228609
 11
62.2822364539
 21
197.715228609
  0
LINE
  8
1_AXIS
 62
7
  6
CONTINUOUS
 10
62.3247364539
 20
197.815228609
 11
62.3247364539
 21
197.715228609
  0
POLYLINE
  8
2_FEATURE
 62
7
  6
CONTINUOUS
 66
1
 70
0
  0
VERTEX
  8
2_FEATURE
 62
7
  6
CONTINUOUS
 10
60.7947364539
 20
197.6395203195
  0
VERTEX
  8
2_FEATURE
 62
7
  6
CONTINUOUS
 10
60.803697746
 20
197.6961190265
  0
VERTEX
  8
2_FEATURE
 62
7
  6
CONTINUOUS
 10
60.8333218107
 20
197.7511624429
  0
VERTEX
  8
2_FEATURE
 62
7
  6
CONTINUOUS
 10
60.8559539258
 20
197.7737821688
  0
VERTEX
  8
2_FEATURE
 62
7
  6
CONTINUOUS
 10
60.9140180798
 20
197.8046123054
  0
VERTEX
  8
2_FEATURE
 62
7
  6
CONTINUOUS
 10
60.9876353955
 20
197.815228609
  0
SEQEND
  0
POLYLINE
  8
0
 62
7
  6
CONTINUOUS
 66
1
 70
0
  0
VERTEX
  8
0
 62
7
  6
CONTINUOUS
 10
42.6033044814
 20
193.5766702492
  0
VERTEX
  8
0
 62
7
  6
CONTINUOUS
 10
42.9303081258
 20
193.408309582
  0
VERTEX
  8
0
 62
7
  6
CONTINUOUS
 10
43.3118360954
 20
193.2316522294
  0
VERTEX
  8
0
 62
7
  6
CONTINUOUS
 10
43.7214880169
 20
193.0614970098
  0
SEQEND
  0
LINE
  8
2_FEATURE
 62
7
  6
CONTINUOUS
 10
60.9447364539
 20
197.6395203195
 11
60.9357776817
 21
197.6961112121
  0
LINE
  8
1_AXIS
 62
7
  6
CONTINUOUS
 10
62.8347364539
 20
197.815228609
 11
62.8347364539
 21
197.715228609
  0
LINE
  8
1_AXIS
 62
7
  6
CONTINUOUS
 10
63.5247364539
 20
197.815228609
 11
63.5247364539
 21
197.715228609
  0
LINE
  8
1_AXIS
 62
7
  6
CONTINUOUS
 10
64.0347364539
 20
197.815228609
 11
64.0347364539
 21
197.715228609
  0
LINE
  8
2_FEATURE
 62
7
  6
CONTINUOUS
 10
64.0822364539
 20
197.815228609
 11
64.0822364539
 21
197.715228609
  0
LINE
  8
1_AXIS
 62
7
  6
CONTINUOUS
 10
64.1547364539
 20
197.815228609
 11
64.1547364539
 21
197.715228609
  0
LINE
  8
1_AXIS
 62
7
  6
CONTINUOUS
 10
64.6647364539
 20
197.815228609
 11
64.6647364539
 21
197.715228609
  0
LINE
  8
0
 62
7
  6
CONTINUOUS
 10
42.305987
 20
193.3044616755
 11
42.3062892621
 21
193.304643846
  0
LINE
  8
2_FEATURE
 62
7
  6
CONTINUOUS
 10
60.9357776817
 20
197.6961112121
 11
60.9227846275
 21
197.720236196
  0
LINE
  8
1_AXIS
 62
7
  6
CONTINUOUS
 10
65.4747364539
 20
197.815228609
 11
65.4747364539
 21
197.715228609
  0
LINE
  8
1_AXIS
 62
7
  6
CONTINUOUS
 10
67.0047364539
 20
197.815228609
 11
67.0047364539
 21
197.715228609
  0
LINE
  8
2_FEATURE
 62
7
  6
CONTINUOUS
 10
67.0072364539
 20
197.815228609
 11
67.0072364539
 21
197.715228609
  0
LINE
  8
2_FEATURE
 62
7
  6
CONTINUOUS
 10
67.0259863824
 20
197.815228609
 11
67.0259863824
 21
197.715228609
  0
LINE
  8
2_FEATURE
 62
7
  6
CONTINUOUS
 10
67.0447365255
 20
197.815228609
 11
67.0447365255
 21
197.715228609
  0
LINE
  8
2_FEATURE
 62
7
  6
CONTINUOUS
 10
67.1009865255
 20
197.815228609
 11
67.1009865255
 21
197.715228609
  0
LINE
  8
2_FEATURE
 62
7
  6
CONTINUOUS
 10
67.1947363824
 20
197.815228609
 11
67.1947363824
 21
197.715228609
  0
LINE
  8
2_FEATURE
 62
7
  6
CONTINUOUS
 10
67.3072363824
 20
197.815228609
 11
67.3072363824
 21
197.715228609
  0
LINE
  8
2_FEATURE
 62
7
  6
CONTINUOUS
 10
67.3822365255
 20
197.815228609
 11
67.3822365255
 21
197.715228609
  0
LINE
  8
2_FEATURE
 62
7
  6
CONTINUOUS
 10
67.4197363824
 20
197.815228609
 11
67.4197363824
 21
197.715228609
  0
LINE
  8
2_FEATURE
 62
7
  6
CONTINUOUS
 10
67.4759863824
 20
197.815228609
 11
67.4759863824
 21
197.715228609
  0
LINE
  8
2_FEATURE
 62
7
  6
CONTINUOUS
 10
67.4947365255
 20
197.815228609
 11
67.4947365255
 21
197.715228609
  0
LINE
  8
2_FEATURE
 62
7
  6
CONTINUOUS
 10
67.6447363824
 20
197.815228609
 11
67.6447363824
 21
197.715228609
  0
LINE
  8
2_FEATURE
 62
7
  6
CONTINUOUS
 10
67.6634865255
 20
197.815228609
 11
67.6634865255
 21
197.715228609
  0
LINE
  8
2_FEATURE
 62
7
  6
CONTINUOUS
 10
67.7197365255
 20
197.815228609
 11
67.7197365255
 21
197.715228609
  0
LINE
  8
2_FEATURE
 62
7
  6
CONTINUOUS
 10
67.7947364539
 20
197.815228609
 11
67.7947364539
 21
197.715228609
  0
LINE
  8
2_FEATURE
 62
7
  6
CONTINUOUS
 10
67.8884865255
 20
197.815228609
 11
67.8884865255
 21
197.715228609
  0
LINE
  8
2_FEATURE
 62
7
  6
CONTINUOUS
 10
68.2259865255
 20
197.815228609
 11
68.2259865255
 21
197.715228609
  0
LINE
  8
2_FEATURE
 62
7
  6
CONTINUOUS
 10
68.3384865255
 20
197.815228609
 11
68.3384865255
 21
197.715228609
  0
LINE
  8
2_FEATURE
 62
7
  6
CONTINUOUS
 10
68.4884863824
 20
197.815228609
 11
68.4884863824
 21
197.715228609
  0
LINE
  8
2_FEATURE
 62
7
  6
CONTINUOUS
 10
68.5822364539
 20
197.815228609
 11
68.5822364539
 21
197.715228609
  0
LINE
  8
2_FEATURE
 62
7
  6
CONTINUOUS
 10
68.7322364182
 20
197.815228609
 11
68.7322364182
 21
197.715228609
  0
LINE
  8
2_FEATURE
 62
7
  6
CONTINUOUS
 10
68.7697364897
 20
197.815228609
 11
68.7697364897
 21
197.715228609
  0
LINE
  8
2_FEATURE
 62
7
  6
CONTINUOUS
 10
68.8447364182
 20
197.815228609
 11
68.8447364182
 21
197.715228609
  0
LINE
  8
2_FEATURE
 62
7
  6
CONTINUOUS
 10
68.9197364539
 20
197.815228609
 11
68.9197364539
 21
197.715228609
  0
LINE
  8
2_FEATURE
 62
7
  6
CONTINUOUS
 10
69.0134864182
 20
197.8135537618
 11
69.0134864182
 21
197.715228609
  0
LINE
  8
2_FEATURE
 62
7
  6
CONTINUOUS
 10
69.0447364539
 20
197.6395203195
 11
69.0447364539
 21
192.2152306697
  0
LINE
  8
2_FEATURE
 62
7
  6
CONTINUOUS
 10
69.1634864897
 20
197.737495789
 11
69.1634864897
 21
197.715228609
  0
LINE
  8
2_FEATURE
 62
7
  6
CONTINUOUS
 10
69.1947364539
 20
199.715228609
 11
69.1947364539
 21
192.2152291292
  0
POLYLINE
  8
2_FEATURE
 62
7
  6
CONTINUOUS
 66
1
 70
0
  0
VERTEX
  8
2_FEATURE
 62
7
  6
CONTINUOUS
 10
69.1947364539
 20
196.9789572339
  0
VERTEX
  8
2_FEATURE
 62
7
  6
CONTINUOUS
 10
69.1974494835
 20
196.9851979184
  0
VERTEX
  8
2_FEATURE
 62
7
  6
CONTINUOUS
 10
69.2190075629
 20
196.9972992724
  0
VERTEX
  8
2_FEATURE
 62
7
  6
CONTINUOUS
 10
69.2612722303
 20
197.0084823327
  0
VERTEX
  8
2_FEATURE
 62
7
  6
CONTINUOUS
 10
69.3224934606
 20
197.0182974363
  0
VERTEX
  8
2_FEATURE
 62
7
  6
CONTINUOUS
 10
69.3594320691
 20
197.0225682737
  0
VERTEX
  8
2_FEATURE
 62
7
  6
CONTINUOUS
 10
69.4439818888
 20
197.0296282973
  0
VERTEX
  8
2_FEATURE
 62
7
  6
CONTINUOUS
 10
69.5396430375
 20
197.0344934427
  0
VERTEX
  8
2_FEATURE
 62
7
  6
CONTINUOUS
 10
69.6422379452
 20
197.0369754789
  0
VERTEX
  8
2_FEATURE
 62
7
  6
CONTINUOUS
 10
69.6947364539
 20
197.037288278
  0
SEQEND
  0
POLYLINE
  8
2_FEATURE
 62
7
  6
CONTINUOUS
 66
1
 70
0
  0
VERTEX
  8
2_FEATURE
 62
7
  6
CONTINUOUS
 10
69.0639822561
 20
197.715228609
  0
VERTEX
  8
2_FEATURE
 62
7
  6
CONTINUOUS
 10
69.0537017753
 20
197.6961315201
  0
VERTEX
  8
2_FEATURE
 62
7
  6
CONTINUOUS
 10
69.0447364539
 20
197.6395203195
  0
SEQEND
  0
POLYLINE
  8
0
 62
7
  6
CONTINUOUS
 66
1
 70
0
  0
VERTEX
  8
0
 62
7
  6
CONTINUOUS
 10
42.3062892621
 20
193.304643846
  0
VERTEX
  8
0
 62
7
  6
CONTINUOUS
 10
42.3226600014
 20
193.3113058993
  0
VERTEX
  8
0
 62
7
  6
CONTINUOUS
 10
42.3571593978
 20
193.3198803738
  0
VERTEX
  8
0
 62
7
  6
CONTINUOUS
 10
42.4073188904
 20
193.327062867
  0
VERTEX
  8
0
 62
7
  6
CONTINUOUS
 10
42.4692626067
 20
193.3316354484
  0
VERTEX
  8
0
 62
7
  6
CONTINUOUS
 10
42.5403211289
 20
193.3333519883
  0
VERTEX
  8
0
 62
7
  6
CONTINUOUS
 10
42.6059603583
 20
193.3322395839
  0
SEQEND
  0
POLYLINE
  8
0
 62
7
  6
CONTINUOUS
 66
1
 70
0
  0
VERTEX
  8
0
 62
7
  6
CONTINUOUS
 10
43.7214950688
 20
193.0614951656
  0
VERTEX
  8
0
 62
7
  6
CONTINUOUS
 10
43.8159148685
 20
193.0362770128
  0
VERTEX
  8
0
 62
7
  6
CONTINUOUS
 10
43.9203659516
 20
193.0353819813
  0
VERTEX
  8
0
 62
7
  6
CONTINUOUS
 10
44.0185632468
 20
193.0620057414
  0
VERTEX
  8
0
 62
7
  6
CONTINUOUS
 10
44.1080067798
 20
193.1153705872
  0
VERTEX
  8
0
 62
7
  6
CONTINUOUS
 10
44.1858408986
 20
193.1967402465
  0
VERTEX
  8
0
 62
7
  6
CONTINUOUS
 10
44.2466174417
 20
193.3068073698
  0
VERTEX
  8
0
 62
7
  6
CONTINUOUS
 10
44.2837170685
 20
193.4402010006
  0
VERTEX
  8
0
 62
7
  6
CONTINUOUS
 10
44.2947372322
 20
193.5766350311
  0
SEQEND
  0
POLYLINE
  8
2_FEATURE
 62
7
  6
CONTINUOUS
 66
1
 70
0
  0
VERTEX
  8
2_FEATURE
 62
7
  6
CONTINUOUS
 10
110.9602310724
 20
191.7152668883
  0
VERTEX
  8
2_FEATURE
 62
7
  6
CONTINUOUS
 10
111.0121586338
 20
191.7186257212
  0
VERTEX
  8
2_FEATURE
 62
7
  6
CONTINUOUS
 10
111.1135907514
 20
191.7414035895
  0
VERTEX
  8
2_FEATURE
 62
7
  6
CONTINUOUS
 10
111.2081689629
 20
191.7846274685
  0
VERTEX
  8
2_FEATURE
 62
7
  6
CONTINUOUS
 10
111.2918328422
 20
191.8463722489
  0
VERTEX
  8
2_FEATURE
 62
7
  6
CONTINUOUS
 10
111.328432646
 20
191.8833688145
  0
VERTEX
  8
2_FEATURE
 62
7
  6
CONTINUOUS
 10
111.389227569
 20
191.9675887567
  0
VERTEX
  8
2_FEATURE
 62
7
  6
CONTINUOUS
 10
111.4314308075
 20
192.0623421489
  0
VERTEX
  8
2_FEATURE
 62
7
  6
CONTINUOUS
 10
111.4532950713
 20
192.1635506145
  0
VERTEX
  8
2_FEATURE
 62
7
  6
CONTINUOUS
 10
111.4562908088
 20
192.215228609
  0
SEQEND
  0
POLYLINE
  8
2_FEATURE
 62
7
  6
CONTINUOUS
 66
1
 70
0
  0
VERTEX
  8
2_FEATURE
 62
7
  6
CONTINUOUS
 10
110.3864834489
 20
191.715228609
  0
VERTEX
  8
2_FEATURE
 62
7
  6
CONTINUOUS
 10
110.4388213373
 20
191.7179870191
  0
VERTEX
  8
2_FEATURE
 62
7
  6
CONTINUOUS
 10
110.5410166035
 20
191.7398478011
  0
VERTEX
  8
2_FEATURE
 62
7
  6
CONTINUOUS
 10
110.6361959839
 20
191.7825495983
  0
VERTEX
  8
2_FEATURE
 62
7
  6
CONTINUOUS
 10
110.7202076668
 20
191.8441594197
  0
VERTEX
  8
2_FEATURE
 62
7
  6
CONTINUOUS
 10
110.7568628556
 20
191.8812228581
  0
VERTEX
  8
2_FEATURE
 62
7
  6
CONTINUOUS
 10
110.8174976907
 20
191.965808711
  0
VERTEX
  8
2_FEATURE
 62
7
  6
CONTINUOUS
 10
110.859155101
 20
192.0611725823
  0
VERTEX
  8
2_FEATURE
 62
7
  6
CONTINUOUS
 10
110.8639392478
 20
192.0771903678
  0
SEQEND
  0
POLYLINE
  8
2_FEATURE
 62
7
  6
CONTINUOUS
 66
1
 70
0
  0
VERTEX
  8
2_FEATURE
 62
7
  6
CONTINUOUS
 10
52.6029894589
 20
191.715228609
  0
VERTEX
  8
2_FEATURE
 62
7
  6
CONTINUOUS
 10
52.5506515706
 20
191.7179870191
  0
VERTEX
  8
2_FEATURE
 62
7
  6
CONTINUOUS
 10
52.4484563043
 20
191.7398478011
  0
VERTEX
  8
2_FEATURE
 62
7
  6
CONTINUOUS
 10
52.353276924
 20
191.7825495983
  0
VERTEX
  8
2_FEATURE
 62
7
  6
CONTINUOUS
 10
52.2692652411
 20
191.8441594197
  0
VERTEX
  8
2_FEATURE
 62
7
  6
CONTINUOUS
 10
52.2326100523
 20
191.8812228581
  0
VERTEX
  8
2_FEATURE
 62
7
  6
CONTINUOUS
 10
52.1719752172
 20
191.965808711
  0
VERTEX
  8
2_FEATURE
 62
7
  6
CONTINUOUS
 10
52.1303178069
 20
192.0611725823
  0
VERTEX
  8
2_FEATURE
 62
7
  6
CONTINUOUS
 10
52.1255336601
 20
192.0771903678
  0
SEQEND
  0
POLYLINE
  8
2_FEATURE
 62
7
  6
CONTINUOUS
 66
1
 70
0
  0
VERTEX
  8
2_FEATURE
 62
7
  6
CONTINUOUS
 10
52.0292418355
 20
191.7152668883
  0
VERTEX
  8
2_FEATURE
 62
7
  6
CONTINUOUS
 10
51.9773142741
 20
191.7186257212
  0
VERTEX
  8
2_FEATURE
 62
7
  6
CONTINUOUS
 10
51.8758821565
 20
191.7414035895
  0
VERTEX
  8
2_FEATURE
 62
7
  6
CONTINUOUS
 10
51.781303945
 20
191.7846274685
  0
VERTEX
  8
2_FEATURE
 62
7
  6
CONTINUOUS
 10
51.6976400657
 20
191.8463722489
  0
VERTEX
  8
2_FEATURE
 62
7
  6
CONTINUOUS
 10
51.6610402619
 20
191.8833688145
  0
VERTEX
  8
2_FEATURE
 62
7
  6
CONTINUOUS
 10
51.6002453389
 20
191.9675887567
  0
VERTEX
  8
2_FEATURE
 62
7
  6
CONTINUOUS
 10
51.5580421004
 20
192.0623421489
  0
VERTEX
  8
2_FEATURE
 62
7
  6
CONTINUOUS
 10
51.5361778366
 20
192.1635506145
  0
VERTEX
  8
2_FEATURE
 62
7
  6
CONTINUOUS
 10
51.5331820991
 20
192.215228609
  0
SEQEND
  0
POLYLINE
  8
0
 62
7
  6
CONTINUOUS
 66
1
 70
0
  0
VERTEX
  8
0
 62
7
  6
CONTINUOUS
 10
42.6059649926
 20
193.3322394295
  0
VERTEX
  8
0
 62
7
  6
CONTINUOUS
 10
42.6330323502
 20
193.3299953039
  0
VERTEX
  8
0
 62
7
  6
CONTINUOUS
 10
42.7161456313
 20
193.3067848485
  0
VERTEX
  8
0
 62
7
  6
CONTINUOUS
 10
42.7892135943
 20
193.2608760646
  0
VERTEX
  8
0
 62
7
  6
CONTINUOUS
 10
42.8200445333
 20
193.2305310772
  0
VERTEX
  8
0
 62
7
  6
CONTINUOUS
 10
42.8671082942
 20
193.1582016214
  0
VERTEX
  8
0
 62
7
  6
CONTINUOUS
 10
42.8916357277
 20
193.0754705287
  0
SEQEND
  0
LINE
  8
2_FEATURE
 62
7
  6
CONTINUOUS
 10
77.2947364539
 20
192.215228609
 11
77.2947364539
 21
199.715228609
  0
LINE
  8
2_FEATURE
 62
7
  6
CONTINUOUS
 10
79.0447364539
 20
192.215228609
 11
79.0447364539
 21
194.0851962801
  0
POLYLINE
  8
2_FEATURE
 62
7
  6
CONTINUOUS
 66
1
 70
0
  0
VERTEX
  8
2_FEATURE
 62
7
  6
CONTINUOUS
 10
77.8639392478
 20
192.0771903678
  0
VERTEX
  8
2_FEATURE
 62
7
  6
CONTINUOUS
 10
77.8800847945
 20
192.1631438323
  0
VERTEX
  8
2_FEATURE
 62
7
  6
CONTINUOUS
 10
77.8824749577
 20
192.215228609
  0
SEQEND
  0
LINE
  8
2_FEATURE
 62
7
  6
CONTINUOUS
 10
77.8647816868
 20
192.0801939531
 11
78.0835127781
 21
192.8600057572
  0
POLYLINE
  8
2_FEATURE
 62
7
  6
CONTINUOUS
 66
1
 70
0
  0
VERTEX
  8
2_FEATURE
 62
7
  6
CONTINUOUS
 10
78.0835181112
 20
192.8600247388
  0
VERTEX
  8
2_FEATURE
 62
7
  6
CONTINUOUS
 10
78.0859381972
 20
192.8682653276
  0
VERTEX
  8
2_FEATURE
 62
7
  6
CONTINUOUS
 10
78.0871043715
 20
192.8718678407
  0
SEQEND
  0
POLYLINE
  8
2_FEATURE
 62
7
  6
CONTINUOUS
 66
1
 70
0
  0
VERTEX
  8
2_FEATURE
 62
7
  6
CONTINUOUS
 10
77.2947364539
 20
195.1514999841
  0
VERTEX
  8
2_FEATURE
 62
7
  6
CONTINUOUS
 10
77.2920234244
 20
195.1452592997
  0
VERTEX
  8
2_FEATURE
 62
7
  6
CONTINUOUS
 10
77.270465345
 20
195.1331579457
  0
VERTEX
  8
2_FEATURE
 62
7
  6
CONTINUOUS
 10
77.2282006776
 20
195.1219748854
  0
VERTEX
  8
2_FEATURE
 62
7
  6
CONTINUOUS
 10
77.1669794472
 20
195.1121597817
  0
VERTEX
  8
2_FEATURE
 62
7
  6
CONTINUOUS
 10
77.1300408387
 20
195.1078889443
  0
VERTEX
  8
2_FEATURE
 62
7
  6
CONTINUOUS
 10
77.0454910191
 20
195.1008289208
  0
VERTEX
  8
2_FEATURE
 62
7
  6
CONTINUOUS
 10
76.9498298704
 20
195.0959637753
  0
VERTEX
  8
2_FEATURE
 62
7
  6
CONTINUOUS
 10
76.8472349627
 20
195.0934817392
  0
VERTEX
  8
2_FEATURE
 62
7
  6
CONTINUOUS
 10
76.7947364539
 20
195.0931689401
  0
SEQEND
  0
POLYLINE
  8
2_FEATURE
 62
7
  6
CONTINUOUS
 66
1
 70
0
  0
VERTEX
  8
2_FEATURE
 62
7
  6
CONTINUOUS
 10
110.7947364539
 20
197.8147974939
  0
VERTEX
  8
2_FEATURE
 62
7
  6
CONTINUOUS
 10
110.6871082683
 20
197.7986172189
  0
VERTEX
  8
2_FEATURE
 62
7
  6
CONTINUOUS
 10
110.5815144656
 20
197.7582428687
  0
VERTEX
  8
2_FEATURE
 62
7
  6
CONTINUOUS
 10
110.4856164664
 20
197.6950720605
  0
VERTEX
  8
2_FEATURE
 62
7
  6
CONTINUOUS
 10
110.4209694132
 20
197.6316327691
  0
VERTEX
  8
2_FEATURE
 62
7
  6
CONTINUOUS
 10
110.3792675117
 20
197.5761677183
  0
VERTEX
  8
2_FEATURE
 62
7
  6
CONTINUOUS
 10
110.3516796811
 20
197.5288557168
  0
VERTEX
  8
2_FEATURE
 62
7
  6
CONTINUOUS
 10
110.3331124934
 20
197.4888474824
  0
VERTEX
  8
2_FEATURE
 62
7
  6
CONTINUOUS
 10
110.3204771081
 20
197.4551291758
  0
VERTEX
  8
2_FEATURE
 62
7
  6
CONTINUOUS
 10
110.3157423974
 20
197.4403278863
  0
VERTEX
  8
2_FEATURE
 62
7
  6
CONTINUOUS
 10
110.3085679473
 20
197.4143432857
  0
VERTEX
  8
2_FEATURE
 62
7
  6
CONTINUOUS
 10
110.3036444265
 20
197.3926851228
  0
VERTEX
  8
2_FEATURE
 62
7
  6
CONTINUOUS
 10
110.300244809
 20
197.3748075791
  0
VERTEX
  8
2_FEATURE
 62
7
  6
CONTINUOUS
 10
110.297902727
 20
197.3608339852
  0
VERTEX
  8
2_FEATURE
 62
7
  6
CONTINUOUS
 10
110.2963529238
 20
197.3523729133
  0
VERTEX
  8
2_FEATURE
 62
7
  6
CONTINUOUS
 10
110.2954253588
 20
197.3512788223
  0
VERTEX
  8
2_FEATURE
 62
7
  6
CONTINUOUS
 10
110.2949224337
 20
197.3560033362
  0
VERTEX
  8
2_FEATURE
 62
7
  6
CONTINUOUS
 10
110.2947364539
 20
197.3650524708
  0
SEQEND
  0
POLYLINE
  8
2_FEATURE
 62
7
  6
CONTINUOUS
 66
1
 70
0
  0
VERTEX
  8
2_FEATURE
 62
7
  6
CONTINUOUS
 10
77.9602310724
 20
191.7152668883
  0
VERTEX
  8
2_FEATURE
 62
7
  6
CONTINUOUS
 10
78.0121586338
 20
191.7186257212
  0
VERTEX
  8
2_FEATURE
 62
7
  6
CONTINUOUS
 10
78.1135907514
 20
191.7414035895
  0
VERTEX
  8
2_FEATURE
 62
7
  6
CONTINUOUS
 10
78.2081689629
 20
191.7846274685
  0
VERTEX
  8
2_FEATURE
 62
7
  6
CONTINUOUS
 10
78.2918328422
 20
191.8463722489
  0
VERTEX
  8
2_FEATURE
 62
7
  6
CONTINUOUS
 10
78.328432646
 20
191.8833688145
  0
VERTEX
  8
2_FEATURE
 62
7
  6
CONTINUOUS
 10
78.389227569
 20
191.9675887567
  0
VERTEX
  8
2_FEATURE
 62
7
  6
CONTINUOUS
 10
78.4314308075
 20
192.0623421489
  0
VERTEX
  8
2_FEATURE
 62
7
  6
CONTINUOUS
 10
78.4532950713
 20
192.1635506145
  0
VERTEX
  8
2_FEATURE
 62
7
  6
CONTINUOUS
 10
78.4562908088
 20
192.215228609
  0
SEQEND
  0
POLYLINE
  8
2_FEATURE
 62
7
  6
CONTINUOUS
 66
1
 70
0
  0
VERTEX
  8
2_FEATURE
 62
7
  6
CONTINUOUS
 10
77.3864834489
 20
191.715228609
  0
VERTEX
  8
2_FEATURE
 62
7
  6
CONTINUOUS
 10
77.4388213373
 20
191.7179870191
  0
VERTEX
  8
2_FEATURE
 62
7
  6
CONTINUOUS
 10
77.5410166035
 20
191.7398478011
  0
VERTEX
  8
2_FEATURE
 62
7
  6
CONTINUOUS
 10
77.6361959839
 20
191.7825495983
  0
VERTEX
  8
2_FEATURE
 62
7
  6
CONTINUOUS
 10
77.7202076668
 20
191.8441594197
  0
VERTEX
  8
2_FEATURE
 62
7
  6
CONTINUOUS
 10
77.7568628556
 20
191.8812228581
  0
VERTEX
  8
2_FEATURE
 62
7
  6
CONTINUOUS
 10
77.8174976907
 20
191.965808711
  0
VERTEX
  8
2_FEATURE
 62
7
  6
CONTINUOUS
 10
77.859155101
 20
192.0611725823
  0
VERTEX
  8
2_FEATURE
 62
7
  6
CONTINUOUS
 10
77.8639392478
 20
192.0771903678
  0
SEQEND
  0
POLYLINE
  8
0
 62
7
  6
CONTINUOUS
 66
1
 70
0
  0
VERTEX
  8
0
 62
7
  6
CONTINUOUS
 10
120.3835093695
 20
193.3322394576
  0
VERTEX
  8
0
 62
7
  6
CONTINUOUS
 10
120.4014959088
 20
193.3328073887
  0
VERTEX
  8
0
 62
7
  6
CONTINUOUS
 10
120.4707106756
 20
193.3331612512
  0
VERTEX
  8
0
 62
7
  6
CONTINUOUS
 10
120.5342821503
 20
193.3308930113
  0
VERTEX
  8
0
 62
7
  6
CONTINUOUS
 10
120.5905888025
 20
193.3261310641
  0
VERTEX
  8
0
 62
7
  6
CONTINUOUS
 10
120.6364263397
 20
193.3190709279
  0
VERTEX
  8
0
 62
7
  6
CONTINUOUS
 10
120.6541033807
 20
193.315013431
  0
VERTEX
  8
0
 62
7
  6
CONTINUOUS
 10
120.6775436353
 20
193.307321996
  0
SEQEND
  0
LINE
  8
2_FEATURE
 62
7
  6
CONTINUOUS
 10
110.9602310724
 20
191.7152668883
 11
110.9540439154
 21
191.715228609
  0
LINE
  8
2_FEATURE
 62
7
  6
CONTINUOUS
 10
77.9602310724
 20
191.7152668883
 11
77.9540439154
 21
191.715228609
  0
LINE
  8
0
 62
7
  6
CONTINUOUS
 10
119.5947364539
 20
191.715228609
 11
118.6947364539
 21
191.715228609
  0
LINE
  8
2_FEATURE
 62
7
  6
CONTINUOUS
 10
118.6947364539
 20
191.715228609
 11
116.4447364539
 21
191.715228609
  0
LINE
  8
2_FEATURE
 62
7
  6
CONTINUOUS
 10
112.5447364539
 20
191.715228609
 11
110.9602310724
 21
191.715228609
  0
LINE
  8
2_FEATURE
 62
7
  6
CONTINUOUS
 10
85.0292418355
 20
191.715228609
 11
83.4447364539
 21
191.715228609
  0
LINE
  8
2_FEATURE
 62
7
  6
CONTINUOUS
 10
52.0292418355
 20
191.715228609
 11
50.4447364539
 21
191.715228609
  0
LINE
  8
2_FEATURE
 62
7
  6
CONTINUOUS
 10
46.5447364539
 20
191.715228609
 11
44.2947364539
 21
191.715228609
  0
LINE
  8
0
 62
7
  6
CONTINUOUS
 10
44.2947364539
 20
191.715228609
 11
43.3947364539
 21
191.715228609
  0
LINE
  8
0
 62
7
  6
CONTINUOUS
 10
40.9447364539
 20
191.715228609
 11
42.0947364539
 21
191.715228609
  0
LINE
  8
0
 62
7
  6
CONTINUOUS
 10
46.5447364539
 20
191.715228609
 11
50.4447364539
 21
191.715228609
  0
LINE
  8
2_FEATURE
 62
7
  6
CONTINUOUS
 10
52.0354289925
 20
191.715228609
 11
54.7947364539
 21
191.715228609
  0
LINE
  8
0
 62
7
  6
CONTINUOUS
 10
54.7947364539
 20
191.715228609
 11
60.2947364539
 21
191.715228609
  0
LINE
  8
0
 62
7
  6
CONTINUOUS
 10
61.4447364539
 20
191.715228609
 11
68.5447364539
 21
191.715228609
  0
LINE
  8
0
 62
7
  6
CONTINUOUS
 10
69.6947364539
 20
191.715228609
 11
75.1947364539
 21
191.715228609
  0
LINE
  8
2_FEATURE
 62
7
  6
CONTINUOUS
 10
75.1947364539
 20
191.715228609
 11
77.9540439154
 21
191.715228609
  0
LINE
  8
2_FEATURE
 62
7
  6
CONTINUOUS
 10
77.9602310724
 20
191.715228609
 11
79.5447364539
 21
191.715228609
  0
LINE
  8
0
 62
7
  6
CONTINUOUS
 10
78.5447364539
 20
191.715228609
 11
83.4447364539
 21
191.715228609
  0
LINE
  8
2_FEATURE
 62
7
  6
CONTINUOUS
 10
85.0354289925
 20
191.715228609
 11
87.7947364539
 21
191.715228609
  0
LINE
  8
0
 62
7
  6
CONTINUOUS
 10
87.7947364539
 20
191.715228609
 11
93.2947364539
 21
191.715228609
  0
LINE
  8
0
 62
7
  6
CONTINUOUS
 10
94.4447364539
 20
191.715228609
 11
101.5447364539
 21
191.715228609
  0
LINE
  8
0
 62
7
  6
CONTINUOUS
 10
102.6947364539
 20
191.715228609
 11
108.1947364539
 21
191.715228609
  0
LINE
  8
2_FEATURE
 62
7
  6
CONTINUOUS
 10
108.1947364539
 20
191.715228609
 11
110.9540439154
 21
191.715228609
  0
LINE
  8
0
 62
7
  6
CONTINUOUS
 10
112.5447364539
 20
191.715228609
 11
116.4447364539
 21
191.715228609
  0
LINE
  8
0
 62
7
  6
CONTINUOUS
 10
120.8947364539
 20
191.715228609
 11
122.0447364539
 21
191.715228609
  0
LINE
  8
2_FEATURE
 62
7
  6
CONTINUOUS
 10
52.0292418355
 20
191.7152668883
 11
52.0354289925
 21
191.715228609
  0
LINE
  8
2_FEATURE
 62
7
  6
CONTINUOUS
 10
85.0292418355
 20
191.7152668883
 11
85.0354289925
 21
191.715228609
  0
POLYLINE
  8
2_FEATURE
 62
7
  6
CONTINUOUS
 66
1
 70
0
  0
VERTEX
  8
2_FEATURE
 62
7
  6
CONTINUOUS
 10
85.6029894589
 20
191.715228609
  0
VERTEX
  8
2_FEATURE
 62
7
  6
CONTINUOUS
 10
85.5506515706
 20
191.7179870191
  0
VERTEX
  8
2_FEATURE
 62
7
  6
CONTINUOUS
 10
85.4484563043
 20
191.7398478011
  0
VERTEX
  8
2_FEATURE
 62
7
  6
CONTINUOUS
 10
85.353276924
 20
191.7825495983
  0
VERTEX
  8
2_FEATURE
 62
7
  6
CONTINUOUS
 10
85.2692652411
 20
191.8441594197
  0
VERTEX
  8
2_FEATURE
 62
7
  6
CONTINUOUS
 10
85.2326100523
 20
191.8812228581
  0
VERTEX
  8
2_FEATURE
 62
7
  6
CONTINUOUS
 10
85.1719752172
 20
191.965808711
  0
VERTEX
  8
2_FEATURE
 62
7
  6
CONTINUOUS
 10
85.1303178069
 20
192.0611725823
  0
VERTEX
  8
2_FEATURE
 62
7
  6
CONTINUOUS
 10
85.1255336601
 20
192.0771903678
  0
SEQEND
  0
POLYLINE
  8
2_FEATURE
 62
7
  6
CONTINUOUS
 66
1
 70
0
  0
VERTEX
  8
2_FEATURE
 62
7
  6
CONTINUOUS
 10
85.0292418355
 20
191.7152668883
  0
VERTEX
  8
2_FEATURE
 62
7
  6
CONTINUOUS
 10
84.9773142741
 20
191.7186257212
  0
VERTEX
  8
2_FEATURE
 62
7
  6
CONTINUOUS
 10
84.8758821565
 20
191.7414035895
  0
VERTEX
  8
2_FEATURE
 62
7
  6
CONTINUOUS
 10
84.781303945
 20
191.7846274685
  0
VERTEX
  8
2_FEATURE
 62
7
  6
CONTINUOUS
 10
84.6976400657
 20
191.8463722489
  0
VERTEX
  8
2_FEATURE
 62
7
  6
CONTINUOUS
 10
84.6610402619
 20
191.8833688145
  0
VERTEX
  8
2_FEATURE
 62
7
  6
CONTINUOUS
 10
84.6002453389
 20
191.9675887567
  0
VERTEX
  8
2_FEATURE
 62
7
  6
CONTINUOUS
 10
84.5580421004
 20
192.0623421489
  0
VERTEX
  8
2_FEATURE
 62
7
  6
CONTINUOUS
 10
84.5361778366
 20
192.1635506145
  0
VERTEX
  8
2_FEATURE
 62
7
  6
CONTINUOUS
 10
84.5331820991
 20
192.215228609
  0
SEQEND
  0
POLYLINE
  8
2_FEATURE
 62
7
  6
CONTINUOUS
 66
1
 70
0
  0
VERTEX
  8
2_FEATURE
 62
7
  6
CONTINUOUS
 10
52.1947364539
 20
197.8147974939
  0
VERTEX
  8
2_FEATURE
 62
7
  6
CONTINUOUS
 10
52.3023646396
 20
197.7986172189
  0
VERTEX
  8
2_FEATURE
 62
7
  6
CONTINUOUS
 10
52.4079584423
 20
197.7582428687
  0
VERTEX
  8
2_FEATURE
 62
7
  6
CONTINUOUS
 10
52.5038564415
 20
197.6950720605
  0
VERTEX
  8
2_FEATURE
 62
7
  6
CONTINUOUS
 10
52.5685034947
 20
197.6316327691
  0
VERTEX
  8
2_FEATURE
 62
7
  6
CONTINUOUS
 10
52.6102053961
 20
197.5761677183
  0
VERTEX
  8
2_FEATURE
 62
7
  6
CONTINUOUS
 10
52.6377932268
 20
197.5288557168
  0
VERTEX
  8
2_FEATURE
 62
7
  6
CONTINUOUS
 10
52.6563604145
 20
197.4888474824
  0
VERTEX
  8
2_FEATURE
 62
7
  6
CONTINUOUS
 10
52.6689957998
 20
197.4551291758
  0
VERTEX
  8
2_FEATURE
 62
7
  6
CONTINUOUS
 10
52.6737305105
 20
197.4403278863
  0
VERTEX
  8
2_FEATURE
 62
7
  6
CONTINUOUS
 10
52.6809049606
 20
197.4143432857
  0
VERTEX
  8
2_FEATURE
 62
7
  6
CONTINUOUS
 10
52.6858284814
 20
197.3926851228
  0
VERTEX
  8
2_FEATURE
 62
7
  6
CONTINUOUS
 10
52.6892280989
 20
197.3748075791
  0
VERTEX
  8
2_FEATURE
 62
7
  6
CONTINUOUS
 10
52.6915701809
 20
197.3608339852
  0
VERTEX
  8
2_FEATURE
 62
7
  6
CONTINUOUS
 10
52.6931199841
 20
197.3523729133
  0
VERTEX
  8
2_FEATURE
 62
7
  6
CONTINUOUS
 10
52.6940475491
 20
197.3512788223
  0
VERTEX
  8
2_FEATURE
 62
7
  6
CONTINUOUS
 10
52.6945504742
 20
197.3560033362
  0
VERTEX
  8
2_FEATURE
 62
7
  6
CONTINUOUS
 10
52.6947364539
 20
197.3650524708
  0
SEQEND
  0
LINE
  8
1_AXIS
 62
2
  6
CENTER
 10
81.4947364539
 20
189.215228609
 11
81.4947364539
 21
202.2152298256
  0
POLYLINE
  8
2_FEATURE
 62
7
  6
CONTINUOUS
 66
1
 70
0
  0
VERTEX
  8
2_FEATURE
 62
7
  6
CONTINUOUS
 10
93.2947364539
 20
195.0931689401
  0
VERTEX
  8
2_FEATURE
 62
7
  6
CONTINUOUS
 10
93.3472349627
 20
195.0934817392
  0
VERTEX
  8
2_FEATURE
 62
7
  6
CONTINUOUS
 10
93.4498298704
 20
195.0959637753
  0
VERTEX
  8
2_FEATURE
 62
7
  6
CONTINUOUS
 10
93.5454910191
 20
195.1008289208
  0
VERTEX
  8
2_FEATURE
 62
7
  6
CONTINUOUS
 10
93.6300408387
 20
195.1078889443
  0
VERTEX
  8
2_FEATURE
 62
7
  6
CONTINUOUS
 10
93.6669794472
 20
195.1121597817
  0
VERTEX
  8
2_FEATURE
 62
7
  6
CONTINUOUS
 10
93.7282006776
 20
195.1219748854
  0
VERTEX
  8
2_FEATURE
 62
7
  6
CONTINUOUS
 10
93.770465345
 20
195.1331579457
  0
VERTEX
  8
2_FEATURE
 62
7
  6
CONTINUOUS
 10
93.7920234244
 20
195.1452592997
  0
VERTEX
  8
2_FEATURE
 62
7
  6
CONTINUOUS
 10
93.7947364539
 20
195.1514999841
  0
SEQEND
  0
POLYLINE
  8
2_FEATURE
 62
7
  6
CONTINUOUS
 66
1
 70
0
  0
VERTEX
  8
2_FEATURE
 62
7
  6
CONTINUOUS
 10
60.2947364539
 20
195.0931689401
  0
VERTEX
  8
2_FEATURE
 62
7
  6
CONTINUOUS
 10
60.3472349627
 20
195.0934817392
  0
VERTEX
  8
2_FEATURE
 62
7
  6
CONTINUOUS
 10
60.4498298704
 20
195.0959637753
  0
VERTEX
  8
2_FEATURE
 62
7
  6
CONTINUOUS
 10
60.5454910191
 20
195.1008289208
  0
VERTEX
  8
2_FEATURE
 62
7
  6
CONTINUOUS
 10
60.6300408387
 20
195.1078889443
  0
VERTEX
  8
2_FEATURE
 62
7
  6
CONTINUOUS
 10
60.6669794472
 20
195.1121597817
  0
VERTEX
  8
2_FEATURE
 62
7
  6
CONTINUOUS
 10
60.7282006776
 20
195.1219748854
  0
VERTEX
  8
2_FEATURE
 62
7
  6
CONTINUOUS
 10
60.770465345
 20
195.1331579457
  0
VERTEX
  8
2_FEATURE
 62
7
  6
CONTINUOUS
 10
60.7920234244
 20
195.1452592997
  0
VERTEX
  8
2_FEATURE
 62
7
  6
CONTINUOUS
 10
60.7947364539
 20
195.1514999841
  0
SEQEND
  0
LINE
  8
2_FEATURE
 62
7
  6
CONTINUOUS
 10
40.9447364539
 20
195.0931689401
 11
43.7947364539
 21
195.0931689401
  0
LINE
  8
2_FEATURE
 62
7
  6
CONTINUOUS
 10
53.1947364539
 20
195.0931689401
 11
60.2947364539
 21
195.0931689401
  0
LINE
  8
2_FEATURE
 62
7
  6
CONTINUOUS
 10
69.6947364539
 20
195.0931689401
 11
76.7947364539
 21
195.0931689401
  0
LINE
  8
2_FEATURE
 62
7
  6
CONTINUOUS
 10
86.1947364539
 20
195.0931689401
 11
93.2947364539
 21
195.0931689401
  0
LINE
  8
2_FEATURE
 62
7
  6
CONTINUOUS
 10
102.6947364539
 20
195.0931689401
 11
109.7947364539
 21
195.0931689401
  0
LINE
  8
2_FEATURE
 62
7
  6
CONTINUOUS
 10
119.1947364539
 20
195.0931689401
 11
122.0447364539
 21
195.0931689401
  0
LINE
  8
1_AXIS
 62
2
  6
CENTER
 10
34.1859759036
 20
196.065228609
 11
129.8621204819
 21
196.065228609
  0
POLYLINE
  8
2_FEATURE
 62
7
  6
CONTINUOUS
 66
1
 70
0
  0
VERTEX
  8
2_FEATURE
 62
7
  6
CONTINUOUS
 10
53.1947364539
 20
195.0931689401
  0
VERTEX
  8
2_FEATURE
 62
7
  6
CONTINUOUS
 10
53.1422379452
 20
195.0934817392
  0
VERTEX
  8
2_FEATURE
 62
7
  6
CONTINUOUS
 10
53.0396430375
 20
195.0959637753
  0
VERTEX
  8
2_FEATURE
 62
7
  6
CONTINUOUS
 10
52.9439818888
 20
195.1008289208
  0
VERTEX
  8
2_FEATURE
 62
7
  6
CONTINUOUS
 10
52.8594320691
 20
195.1078889443
  0
VERTEX
  8
2_FEATURE
 62
7
  6
CONTINUOUS
 10
52.8224934606
 20
195.1121597817
  0
VERTEX
  8
2_FEATURE
 62
7
  6
CONTINUOUS
 10
52.7612722303
 20
195.1219748854
  0
VERTEX
  8
2_FEATURE
 62
7
  6
CONTINUOUS
 10
52.7190075629
 20
195.1331579457
  0
VERTEX
  8
2_FEATURE
 62
7
  6
CONTINUOUS
 10
52.6974494835
 20
195.1452592997
  0
VERTEX
  8
2_FEATURE
 62
7
  6
CONTINUOUS
 10
52.6947364539
 20
195.1514999841
  0
SEQEND
  0
POLYLINE
  8
2_FEATURE
 62
7
  6
CONTINUOUS
 66
1
 70
0
  0
VERTEX
  8
2_FEATURE
 62
7
  6
CONTINUOUS
 10
69.6947364539
 20
195.0931689401
  0
VERTEX
  8
2_FEATURE
 62
7
  6
CONTINUOUS
 10
69.6422379452
 20
195.0934817392
  0
VERTEX
  8
2_FEATURE
 62
7
  6
CONTINUOUS
 10
69.5396430375
 20
195.0959637753
  0
VERTEX
  8
2_FEATURE
 62
7
  6
CONTINUOUS
 10
69.4439818888
 20
195.1008289208
  0
VERTEX
  8
2_FEATURE
 62
7
  6
CONTINUOUS
 10
69.3594320691
 20
195.1078889443
  0
VERTEX
  8
2_FEATURE
 62
7
  6
CONTINUOUS
 10
69.3224934606
 20
195.1121597817
  0
VERTEX
  8
2_FEATURE
 62
7
  6
CONTINUOUS
 10
69.2612722303
 20
195.1219748854
  0
VERTEX
  8
2_FEATURE
 62
7
  6
CONTINUOUS
 10
69.2190075629
 20
195.1331579457
  0
VERTEX
  8
2_FEATURE
 62
7
  6
CONTINUOUS
 10
69.1974494835
 20
195.1452592997
  0
VERTEX
  8
2_FEATURE
 62
7
  6
CONTINUOUS
 10
69.1947364539
 20
195.1514999841
  0
SEQEND
  0
POLYLINE
  8
2_FEATURE
 62
7
  6
CONTINUOUS
 66
1
 70
0
  0
VERTEX
  8
2_FEATURE
 62
7
  6
CONTINUOUS
 10
86.1947364539
 20
195.0931689401
  0
VERTEX
  8
2_FEATURE
 62
7
  6
CONTINUOUS
 10
86.1422379452
 20
195.0934817392
  0
VERTEX
  8
2_FEATURE
 62
7
  6
CONTINUOUS
 10
86.0396430375
 20
195.0959637753
  0
VERTEX
  8
2_FEATURE
 62
7
  6
CONTINUOUS
 10
85.9439818888
 20
195.1008289208
  0
VERTEX
  8
2_FEATURE
 62
7
  6
CONTINUOUS
 10
85.8594320691
 20
195.1078889443
  0
VERTEX
  8
2_FEATURE
 62
7
  6
CONTINUOUS
 10
85.8224934606
 20
195.1121597817
  0
VERTEX
  8
2_FEATURE
 62
7
  6
CONTINUOUS
 10
85.7612722303
 20
195.1219748854
  0
VERTEX
  8
2_FEATURE
 62
7
  6
CONTINUOUS
 10
85.7190075629
 20
195.1331579457
  0
VERTEX
  8
2_FEATURE
 62
7
  6
CONTINUOUS
 10
85.6974494835
 20
195.1452592997
  0
VERTEX
  8
2_FEATURE
 62
7
  6
CONTINUOUS
 10
85.6947364539
 20
195.1514999841
  0
SEQEND
  0
POLYLINE
  8
2_FEATURE
 62
7
  6
CONTINUOUS
 66
1
 70
0
  0
VERTEX
  8
2_FEATURE
 62
7
  6
CONTINUOUS
 10
102.6947364539
 20
195.0931689401
  0
VERTEX
  8
2_FEATURE
 62
7
  6
CONTINUOUS
 10
102.6422379452
 20
195.0934817392
  0
VERTEX
  8
2_FEATURE
 62
7
  6
CONTINUOUS
 10
102.5396430375
 20
195.0959637753
  0
VERTEX
  8
2_FEATURE
 62
7
  6
CONTINUOUS
 10
102.4439818888
 20
195.1008289208
  0
VERTEX
  8
2_FEATURE
 62
7
  6
CONTINUOUS
 10
102.3594320691
 20
195.1078889443
  0
VERTEX
  8
2_FEATURE
 62
7
  6
CONTINUOUS
 10
102.3224934606
 20
195.1121597817
  0
VERTEX
  8
2_FEATURE
 62
7
  6
CONTINUOUS
 10
102.2612722303
 20
195.1219748854
  0
VERTEX
  8
2_FEATURE
 62
7
  6
CONTINUOUS
 10
102.2190075629
 20
195.1331579457
  0
VERTEX
  8
2_FEATURE
 62
7
  6
CONTINUOUS
 10
102.1974494835
 20
195.1452592997
  0
VERTEX
  8
2_FEATURE
 62
7
  6
CONTINUOUS
 10
102.1947364539
 20
195.1514999841
  0
SEQEND
  0
POLYLINE
  8
2_FEATURE
 62
7
  6
CONTINUOUS
 66
1
 70
0
  0
VERTEX
  8
2_FEATURE
 62
7
  6
CONTINUOUS
 10
119.1947364539
 20
195.0931689401
  0
VERTEX
  8
2_FEATURE
 62
7
  6
CONTINUOUS
 10
119.1422379452
 20
195.0934817392
  0
VERTEX
  8
2_FEATURE
 62
7
  6
CONTINUOUS
 10
119.0396430375
 20
195.0959637753
  0
VERTEX
  8
2_FEATURE
 62
7
  6
CONTINUOUS
 10
118.9439818888
 20
195.1008289208
  0
VERTEX
  8
2_FEATURE
 62
7
  6
CONTINUOUS
 10
118.8594320691
 20
195.1078889443
  0
VERTEX
  8
2_FEATURE
 62
7
  6
CONTINUOUS
 10
118.8224934606
 20
195.1121597817
  0
VERTEX
  8
2_FEATURE
 62
7
  6
CONTINUOUS
 10
118.7612722303
 20
195.1219748854
  0
VERTEX
  8
2_FEATURE
 62
7
  6
CONTINUOUS
 10
118.7190075629
 20
195.1331579457
  0
VERTEX
  8
2_FEATURE
 62
7
  6
CONTINUOUS
 10
118.6974494835
 20
195.1452592997
  0
VERTEX
  8
2_FEATURE
 62
7
  6
CONTINUOUS
 10
118.6947364539
 20
195.1514999841
  0
SEQEND
  0
POLYLINE
  8
2_FEATURE
 62
7
  6
CONTINUOUS
 66
1
 70
0
  0
VERTEX
  8
2_FEATURE
 62
7
  6
CONTINUOUS
 10
69.0018375124
 20
197.815228609
  0
VERTEX
  8
2_FEATURE
 62
7
  6
CONTINUOUS
 10
69.0752704383
 20
197.8046706274
  0
VERTEX
  8
2_FEATURE
 62
7
  6
CONTINUOUS
 10
69.1334063172
 20
197.7738739427
  0
VERTEX
  8
2_FEATURE
 62
7
  6
CONTINUOUS
 10
69.1560737184
 20
197.7512572016
  0
VERTEX
  8
2_FEATURE
 62
7
  6
CONTINUOUS
 10
69.1857759357
 20
197.6961166269
  0
VERTEX
  8
2_FEATURE
 62
7
  6
CONTINUOUS
 10
69.1947364539
 20
197.6395203195
  0
SEQEND
  0
LINE
  8
2_FEATURE
 62
7
  6
CONTINUOUS
 10
83.9447364539
 20
192.215228609
 11
83.9447364539
 21
194.0851962801
  0
POLYLINE
  8
2_FEATURE
 62
7
  6
CONTINUOUS
 66
1
 70
0
  0
VERTEX
  8
2_FEATURE
 62
7
  6
CONTINUOUS
 10
77.7947364539
 20
197.8147974939
  0
VERTEX
  8
2_FEATURE
 62
7
  6
CONTINUOUS
 10
77.6871082683
 20
197.7986172189
  0
VERTEX
  8
2_FEATURE
 62
7
  6
CONTINUOUS
 10
77.5815144656
 20
197.7582428687
  0
VERTEX
  8
2_FEATURE
 62
7
  6
CONTINUOUS
 10
77.4856164664
 20
197.6950720605
  0
VERTEX
  8
2_FEATURE
 62
7
  6
CONTINUOUS
 10
77.4209694132
 20
197.6316327691
  0
VERTEX
  8
2_FEATURE
 62
7
  6
CONTINUOUS
 10
77.3792675117
 20
197.5761677183
  0
VERTEX
  8
2_FEATURE
 62
7
  6
CONTINUOUS
 10
77.3516796811
 20
197.5288557168
  0
VERTEX
  8
2_FEATURE
 62
7
  6
CONTINUOUS
 10
77.3331124934
 20
197.4888474824
  0
VERTEX
  8
2_FEATURE
 62
7
  6
CONTINUOUS
 10
77.3204771081
 20
197.4551291758
  0
VERTEX
  8
2_FEATURE
 62
7
  6
CONTINUOUS
 10
77.3157423974
 20
197.4403278863
  0
VERTEX
  8
2_FEATURE
 62
7
  6
CONTINUOUS
 10
77.3085679473
 20
197.4143432857
  0
VERTEX
  8
2_FEATURE
 62
7
  6
CONTINUOUS
 10
77.3036444265
 20
197.3926851228
  0
VERTEX
  8
2_FEATURE
 62
7
  6
CONTINUOUS
 10
77.300244809
 20
197.3748075791
  0
VERTEX
  8
2_FEATURE
 62
7
  6
CONTINUOUS
 10
77.297902727
 20
197.3608339852
  0
VERTEX
  8
2_FEATURE
 62
7
  6
CONTINUOUS
 10
77.2963529238
 20
197.3523729133
  0
VERTEX
  8
2_FEATURE
 62
7
  6
CONTINUOUS
 10
77.2954253588
 20
197.3512788223
  0
VERTEX
  8
2_FEATURE
 62
7
  6
CONTINUOUS
 10
77.2949224337
 20
197.3560033362
  0
VERTEX
  8
2_FEATURE
 62
7
  6
CONTINUOUS
 10
77.2947364539
 20
197.3650524708
  0
SEQEND
  0
POLYLINE
  8
2_FEATURE
 62
7
  6
CONTINUOUS
 66
1
 70
0
  0
VERTEX
  8
2_FEATURE
 62
7
  6
CONTINUOUS
 10
110.7947364539
 20
197.8147974939
  0
VERTEX
  8
2_FEATURE
 62
7
  6
CONTINUOUS
 10
110.8016587175
 20
197.8150369292
  0
VERTEX
  8
2_FEATURE
 62
7
  6
CONTINUOUS
 10
110.808587741
 20
197.8151806707
  0
VERTEX
  8
2_FEATURE
 62
7
  6
CONTINUOUS
 10
110.8155225499
 20
197.815228609
  0
SEQEND
  0
POLYLINE
  8
2_FEATURE
 62
7
  6
CONTINUOUS
 66
1
 70
0
  0
VERTEX
  8
2_FEATURE
 62
7
  6
CONTINUOUS
 10
77.7947364539
 20
197.8147974939
  0
VERTEX
  8
2_FEATURE
 62
7
  6
CONTINUOUS
 10
77.8016587175
 20
197.8150369292
  0
VERTEX
  8
2_FEATURE
 62
7
  6
CONTINUOUS
 10
77.808587741
 20
197.8151806707
  0
VERTEX
  8
2_FEATURE
 62
7
  6
CONTINUOUS
 10
77.8155225499
 20
197.815228609
  0
SEQEND
  0
LINE
  8
2_FEATURE
 62
7
  6
CONTINUOUS
 10
40.9447364539
 20
197.037288278
 11
43.7947364539
 21
197.037288278
  0
LINE
  8
2_FEATURE
 62
7
  6
CONTINUOUS
 10
53.1947364539
 20
197.037288278
 11
60.2947364539
 21
197.037288278
  0
LINE
  8
2_FEATURE
 62
7
  6
CONTINUOUS
 10
69.6947364539
 20
197.037288278
 11
76.7947364539
 21
197.037288278
  0
LINE
  8
2_FEATURE
 62
7
  6
CONTINUOUS
 10
86.1947364539
 20
197.037288278
 11
93.2947364539
 21
197.037288278
  0
LINE
  8
2_FEATURE
 62
7
  6
CONTINUOUS
 10
102.6947364539
 20
197.037288278
 11
109.7947364539
 21
197.037288278
  0
LINE
  8
2_FEATURE
 62
7
  6
CONTINUOUS
 10
119.1947364539
 20
197.037288278
 11
122.0447364539
 21
197.037288278
  0
LINE
  8
2_FEATURE
 62
7
  6
CONTINUOUS
 10
102.1754810077
 20
197.715228609
 11
101.3447364539
 21
197.715228609
  0
LINE
  8
2_FEATURE
 62
7
  6
CONTINUOUS
 10
100.9947365374
 20
197.715228609
 11
100.7759863705
 21
197.715228609
  0
LINE
  8
2_FEATURE
 62
7
  6
CONTINUOUS
 10
100.4259864539
 20
197.715228609
 11
99.813486287
 21
197.715228609
  0
LINE
  8
2_FEATURE
 62
7
  6
CONTINUOUS
 10
99.4634866208
 20
197.715228609
 11
97.8884866208
 21
197.715228609
  0
LINE
  8
2_FEATURE
 62
7
  6
CONTINUOUS
 10
97.8447364539
 20
197.715228609
 11
94.3447365374
 21
197.715228609
  0
LINE
  8
2_FEATURE
 62
7
  6
CONTINUOUS
 10
93.9947363705
 20
197.715228609
 11
93.8139824184
 21
197.715228609
  0
LINE
  8
2_FEATURE
 62
7
  6
CONTINUOUS
 10
68.5822364539
 20
197.715228609
 11
68.4884863824
 21
197.715228609
  0
LINE
  8
2_FEATURE
 62
7
  6
CONTINUOUS
 10
69.1754810077
 20
197.715228609
 11
68.7322364182
 21
197.715228609
  0
LINE
  8
2_FEATURE
 62
7
  6
CONTINUOUS
 10
68.3384865255
 20
197.715228609
 11
67.6447363824
 21
197.715228609
  0
LINE
  8
2_FEATURE
 62
7
  6
CONTINUOUS
 10
67.4947365255
 20
197.715228609
 11
67.0047364539
 21
197.715228609
  0
LINE
  8
2_FEATURE
 62
7
  6
CONTINUOUS
 10
64.1547364539
 20
197.715228609
 11
64.0822364539
 21
197.715228609
  0
LINE
  8
1_AXIS
 62
7
  6
CONTINUOUS
 10
67.0047364539
 20
197.715228609
 11
64.1547364539
 21
197.715228609
  0
LINE
  8
1_AXIS
 62
7
  6
CONTINUOUS
 10
64.0347364539
 20
197.715228609
 11
62.3247364539
 21
197.715228609
  0
LINE
  8
2_FEATURE
 62
7
  6
CONTINUOUS
 10
61.4572361678
 20
197.715228609
 11
61.36348674
 21
197.715228609
  0
LINE
  8
2_FEATURE
 62
7
  6
CONTINUOUS
 10
62.2822364539
 20
197.715228609
 11
61.6072364539
 21
197.715228609
  0
LINE
  8
2_FEATURE
 62
7
  6
CONTINUOUS
 10
61.2134864539
 20
197.715228609
 11
60.8139824184
 21
197.715228609
  0
LINE
  8
2_FEATURE
 62
7
  6
CONTINUOUS
 10
44.2947364539
 20
197.815228609
 11
44.3548438561
 21
197.815228609
  0
LINE
  8
2_FEATURE
 62
7
  6
CONTINUOUS
 10
44.8718875638
 20
197.815228609
 11
52.173950358
 21
197.815228609
  0
LINE
  8
2_FEATURE
 62
7
  6
CONTINUOUS
 10
60.9876335649
 20
197.815228609
 11
69.0018393076
 21
197.815228609
  0
LINE
  8
2_FEATURE
 62
7
  6
CONTINUOUS
 10
77.8155225499
 20
197.815228609
 11
85.173950358
 21
197.815228609
  0
LINE
  8
2_FEATURE
 62
7
  6
CONTINUOUS
 10
93.9876335649
 20
197.815228609
 11
102.0018394396
 21
197.815228609
  0
LINE
  8
2_FEATURE
 62
7
  6
CONTINUOUS
 10
110.8155225499
 20
197.815228609
 11
118.117585344
 21
197.815228609
  0
LINE
  8
2_FEATURE
 62
7
  6
CONTINUOUS
 10
118.6346290518
 20
197.815228609
 11
118.6947364539
 21
197.815228609
  0
POLYLINE
  8
2_FEATURE
 62
7
  6
CONTINUOUS
 66
1
 70
0
  0
VERTEX
  8
2_FEATURE
 62
7
  6
CONTINUOUS
 10
43.7947364539
 20
197.037288278
  0
VERTEX
  8
2_FEATURE
 62
7
  6
CONTINUOUS
 10
43.8472349627
 20
197.0369754789
  0
VERTEX
  8
2_FEATURE
 62
7
  6
CONTINUOUS
 10
43.9498298704
 20
197.0344934427
  0
VERTEX
  8
2_FEATURE
 62
7
  6
CONTINUOUS
 10
44.0454910191
 20
197.0296282973
  0
VERTEX
  8
2_FEATURE
 62
7
  6
CONTINUOUS
 10
44.1300408387
 20
197.0225682737
  0
VERTEX
  8
2_FEATURE
 62
7
  6
CONTINUOUS
 10
44.1669794472
 20
197.0182974363
  0
VERTEX
  8
2_FEATURE
 62
7
  6
CONTINUOUS
 10
44.2282006776
 20
197.0084823327
  0
VERTEX
  8
2_FEATURE
 62
7
  6
CONTINUOUS
 10
44.270465345
 20
196.9972992724
  0
VERTEX
  8
2_FEATURE
 62
7
  6
CONTINUOUS
 10
44.2920234244
 20
196.9851979184
  0
VERTEX
  8
2_FEATURE
 62
7
  6
CONTINUOUS
 10
44.2947364539
 20
196.9789572339
  0
SEQEND
  0
POLYLINE
  8
2_FEATURE
 62
7
  6
CONTINUOUS
 66
1
 70
0
  0
VERTEX
  8
2_FEATURE
 62
7
  6
CONTINUOUS
 10
60.2947364539
 20
197.037288278
  0
VERTEX
  8
2_FEATURE
 62
7
  6
CONTINUOUS
 10
60.3472349627
 20
197.0369754789
  0
VERTEX
  8
2_FEATURE
 62
7
  6
CONTINUOUS
 10
60.4498298704
 20
197.0344934427
  0
VERTEX
  8
2_FEATURE
 62
7
  6
CONTINUOUS
 10
60.5454910191
 20
197.0296282973
  0
VERTEX
  8
2_FEATURE
 62
7
  6
CONTINUOUS
 10
60.6300408387
 20
197.0225682737
  0
VERTEX
  8
2_FEATURE
 62
7
  6
CONTINUOUS
 10
60.6669794472
 20
197.0182974363
  0
VERTEX
  8
2_FEATURE
 62
7
  6
CONTINUOUS
 10
60.7282006776
 20
197.0084823327
  0
VERTEX
  8
2_FEATURE
 62
7
  6
CONTINUOUS
 10
60.770465345
 20
196.9972992724
  0
VERTEX
  8
2_FEATURE
 62
7
  6
CONTINUOUS
 10
60.7920234244
 20
196.9851979184
  0
VERTEX
  8
2_FEATURE
 62
7
  6
CONTINUOUS
 10
60.7947364539
 20
196.9789572339
  0
SEQEND
  0
POLYLINE
  8
2_FEATURE
 62
7
  6
CONTINUOUS
 66
1
 70
0
  0
VERTEX
  8
2_FEATURE
 62
7
  6
CONTINUOUS
 10
76.7947364539
 20
197.037288278
  0
VERTEX
  8
2_FEATURE
 62
7
  6
CONTINUOUS
 10
76.8472349627
 20
197.0369754789
  0
VERTEX
  8
2_FEATURE
 62
7
  6
CONTINUOUS
 10
76.9498298704
 20
197.0344934427
  0
VERTEX
  8
2_FEATURE
 62
7
  6
CONTINUOUS
 10
77.0454910191
 20
197.0296282973
  0
VERTEX
  8
2_FEATURE
 62
7
  6
CONTINUOUS
 10
77.1300408387
 20
197.0225682737
  0
VERTEX
  8
2_FEATURE
 62
7
  6
CONTINUOUS
 10
77.1669794472
 20
197.0182974363
  0
VERTEX
  8
2_FEATURE
 62
7
  6
CONTINUOUS
 10
77.2282006776
 20
197.0084823327
  0
VERTEX
  8
2_FEATURE
 62
7
  6
CONTINUOUS
 10
77.270465345
 20
196.9972992724
  0
VERTEX
  8
2_FEATURE
 62
7
  6
CONTINUOUS
 10
77.2920234244
 20
196.9851979184
  0
VERTEX
  8
2_FEATURE
 62
7
  6
CONTINUOUS
 10
77.2947364539
 20
196.9789572339
  0
SEQEND
  0
POLYLINE
  8
2_FEATURE
 62
7
  6
CONTINUOUS
 66
1
 70
0
  0
VERTEX
  8
2_FEATURE
 62
7
  6
CONTINUOUS
 10
93.2947364539
 20
197.037288278
  0
VERTEX
  8
2_FEATURE
 62
7
  6
CONTINUOUS
 10
93.3472349627
 20
197.0369754789
  0
VERTEX
  8
2_FEATURE
 62
7
  6
CONTINUOUS
 10
93.4498298704
 20
197.0344934427
  0
VERTEX
  8
2_FEATURE
 62
7
  6
CONTINUOUS
 10
93.5454910191
 20
197.0296282973
  0
VERTEX
  8
2_FEATURE
 62
7
  6
CONTINUOUS
 10
93.6300408387
 20
197.0225682737
  0
VERTEX
  8
2_FEATURE
 62
7
  6
CONTINUOUS
 10
93.6669794472
 20
197.0182974363
  0
VERTEX
  8
2_FEATURE
 62
7
  6
CONTINUOUS
 10
93.7282006776
 20
197.0084823327
  0
VERTEX
  8
2_FEATURE
 62
7
  6
CONTINUOUS
 10
93.770465345
 20
196.9972992724
  0
VERTEX
  8
2_FEATURE
 62
7
  6
CONTINUOUS
 10
93.7920234244
 20
196.9851979184
  0
VERTEX
  8
2_FEATURE
 62
7
  6
CONTINUOUS
 10
93.7947364539
 20
196.9789572339
  0
SEQEND
  0
POLYLINE
  8
2_FEATURE
 62
7
  6
CONTINUOUS
 66
1
 70
0
  0
VERTEX
  8
2_FEATURE
 62
7
  6
CONTINUOUS
 10
109.7947364539
 20
197.037288278
  0
VERTEX
  8
2_FEATURE
 62
7
  6
CONTINUOUS
 10
109.8472349627
 20
197.0369754789
  0
VERTEX
  8
2_FEATURE
 62
7
  6
CONTINUOUS
 10
109.9498298704
 20
197.0344934427
  0
VERTEX
  8
2_FEATURE
 62
7
  6
CONTINUOUS
 10
110.0454910191
 20
197.0296282973
  0
VERTEX
  8
2_FEATURE
 62
7
  6
CONTINUOUS
 10
110.1300408387
 20
197.0225682737
  0
VERTEX
  8
2_FEATURE
 62
7
  6
CONTINUOUS
 10
110.1669794472
 20
197.0182974363
  0
VERTEX
  8
2_FEATURE
 62
7
  6
CONTINUOUS
 10
110.2282006776
 20
197.0084823327
  0
VERTEX
  8
2_FEATURE
 62
7
  6
CONTINUOUS
 10
110.270465345
 20
196.9972992724
  0
VERTEX
  8
2_FEATURE
 62
7
  6
CONTINUOUS
 10
110.2920234244
 20
196.9851979184
  0
VERTEX
  8
2_FEATURE
 62
7
  6
CONTINUOUS
 10
110.2947364539
 20
196.9789572339
  0
SEQEND
  0
POLYLINE
  8
2_FEATURE
 62
7
  6
CONTINUOUS
 66
1
 70
0
  0
VERTEX
  8
2_FEATURE
 62
7
  6
CONTINUOUS
 10
122.0447364539
 20
197.037288278
  0
VERTEX
  8
2_FEATURE
 62
7
  6
CONTINUOUS
 10
122.0972349627
 20
197.0369754789
  0
VERTEX
  8
2_FEATURE
 62
7
  6
CONTINUOUS
 10
122.1998298704
 20
197.0344934427
  0
VERTEX
  8
2_FEATURE
 62
7
  6
CONTINUOUS
 10
122.2954910191
 20
197.0296282973
  0
VERTEX
  8
2_FEATURE
 62
7
  6
CONTINUOUS
 10
122.3800408387
 20
197.0225682737
  0
VERTEX
  8
2_FEATURE
 62
7
  6
CONTINUOUS
 10
122.4169794472
 20
197.0182974363
  0
VERTEX
  8
2_FEATURE
 62
7
  6
CONTINUOUS
 10
122.4782006776
 20
197.0084823327
  0
VERTEX
  8
2_FEATURE
 62
7
  6
CONTINUOUS
 10
122.520465345
 20
196.9972992724
  0
VERTEX
  8
2_FEATURE
 62
7
  6
CONTINUOUS
 10
122.5420234244
 20
196.9851979184
  0
VERTEX
  8
2_FEATURE
 62
7
  6
CONTINUOUS
 10
122.5447364539
 20
196.9789572339
  0
SEQEND
  0
POLYLINE
  8
2_FEATURE
 62
7
  6
CONTINUOUS
 66
1
 70
0
  0
VERTEX
  8
2_FEATURE
 62
7
  6
CONTINUOUS
 10
52.1947364539
 20
197.8147974939
  0
VERTEX
  8
2_FEATURE
 62
7
  6
CONTINUOUS
 10
52.1878141904
 20
197.8150369292
  0
VERTEX
  8
2_FEATURE
 62
7
  6
CONTINUOUS
 10
52.1808851669
 20
197.8151806707
  0
VERTEX
  8
2_FEATURE
 62
7
  6
CONTINUOUS
 10
52.173950358
 20
197.815228609
  0
SEQEND
  0
POLYLINE
  8
2_FEATURE
 62
7
  6
CONTINUOUS
 66
1
 70
0
  0
VERTEX
  8
2_FEATURE
 62
7
  6
CONTINUOUS
 10
85.1947364539
 20
197.8147974939
  0
VERTEX
  8
2_FEATURE
 62
7
  6
CONTINUOUS
 10
85.1878141904
 20
197.8150369292
  0
VERTEX
  8
2_FEATURE
 62
7
  6
CONTINUOUS
 10
85.1808851669
 20
197.8151806707
  0
VERTEX
  8
2_FEATURE
 62
7
  6
CONTINUOUS
 10
85.173950358
 20
197.815228609
  0
SEQEND
  0
POLYLINE
  8
2_FEATURE
 62
7
  6
CONTINUOUS
 66
1
 70
0
  0
VERTEX
  8
2_FEATURE
 62
7
  6
CONTINUOUS
 10
85.1947364539
 20
197.8147974939
  0
VERTEX
  8
2_FEATURE
 62
7
  6
CONTINUOUS
 10
85.3023646396
 20
197.7986172189
  0
VERTEX
  8
2_FEATURE
 62
7
  6
CONTINUOUS
 10
85.4079584423
 20
197.7582428687
  0
VERTEX
  8
2_FEATURE
 62
7
  6
CONTINUOUS
 10
85.5038564415
 20
197.6950720605
  0
VERTEX
  8
2_FEATURE
 62
7
  6
CONTINUOUS
 10
85.5685034947
 20
197.6316327691
  0
VERTEX
  8
2_FEATURE
 62
7
  6
CONTINUOUS
 10
85.6102053961
 20
197.5761677183
  0
VERTEX
  8
2_FEATURE
 62
7
  6
CONTINUOUS
 10
85.6377932268
 20
197.5288557168
  0
VERTEX
  8
2_FEATURE
 62
7
  6
CONTINUOUS
 10
85.6563604145
 20
197.4888474824
  0
VERTEX
  8
2_FEATURE
 62
7
  6
CONTINUOUS
 10
85.6689957998
 20
197.4551291758
  0
VERTEX
  8
2_FEATURE
 62
7
  6
CONTINUOUS
 10
85.6737305105
 20
197.4403278863
  0
VERTEX
  8
2_FEATURE
 62
7
  6
CONTINUOUS
 10
85.6809049606
 20
197.4143432857
  0
VERTEX
  8
2_FEATURE
 62
7
  6
CONTINUOUS
 10
85.6858284814
 20
197.3926851228
  0
VERTEX
  8
2_FEATURE
 62
7
  6
CONTINUOUS
 10
85.6892280989
 20
197.3748075791
  0
VERTEX
  8
2_FEATURE
 62
7
  6
CONTINUOUS
 10
85.6915701809
 20
197.3608339852
  0
VERTEX
  8
2_FEATURE
 62
7
  6
CONTINUOUS
 10
85.6931199841
 20
197.3523729133
  0
VERTEX
  8
2_FEATURE
 62
7
  6
CONTINUOUS
 10
85.6940475491
 20
197.3512788223
  0
VERTEX
  8
2_FEATURE
 62
7
  6
CONTINUOUS
 10
85.6945504742
 20
197.3560033362
  0
VERTEX
  8
2_FEATURE
 62
7
  6
CONTINUOUS
 10
85.6947364539
 20
197.3650524708
  0
SEQEND
  0
LINE
  8
2_FEATURE
 62
7
  6
CONTINUOUS
 10
84.902984914
 20
192.8702518225
 11
84.905955157
 21
192.8600234539
  0
LINE
  8
2_FEATURE
 62
7
  6
CONTINUOUS
 10
84.9059601298
 20
192.8600057572
 11
85.1246912211
 21
192.0801939531
  0
POLYLINE
  8
2_FEATURE
 62
7
  6
CONTINUOUS
 66
1
 70
0
  0
VERTEX
  8
2_FEATURE
 62
7
  6
CONTINUOUS
 10
85.1255336601
 20
192.0771903678
  0
VERTEX
  8
2_FEATURE
 62
7
  6
CONTINUOUS
 10
85.1093881133
 20
192.1631438323
  0
VERTEX
  8
2_FEATURE
 62
7
  6
CONTINUOUS
 10
85.1069979501
 20
192.215228609
  0
SEQEND
  0
LINE
  8
2_FEATURE
 62
7
  6
CONTINUOUS
 10
85.6947364539
 20
199.715228609
 11
85.6947364539
 21
192.215228609
  0
POLYLINE
  8
2_FEATURE
 62
7
  6
CONTINUOUS
 66
1
 70
0
  0
VERTEX
  8
2_FEATURE
 62
7
  6
CONTINUOUS
 10
85.6947364539
 20
196.9789572339
  0
VERTEX
  8
2_FEATURE
 62
7
  6
CONTINUOUS
 10
85.6974494835
 20
196.9851979184
  0
VERTEX
  8
2_FEATURE
 62
7
  6
CONTINUOUS
 10
85.7190075629
 20
196.9972992724
  0
VERTEX
  8
2_FEATURE
 62
7
  6
CONTINUOUS
 10
85.7612722303
 20
197.0084823327
  0
VERTEX
  8
2_FEATURE
 62
7
  6
CONTINUOUS
 10
85.8224934606
 20
197.0182974363
  0
VERTEX
  8
2_FEATURE
 62
7
  6
CONTINUOUS
 10
85.8594320691
 20
197.0225682737
  0
VERTEX
  8
2_FEATURE
 62
7
  6
CONTINUOUS
 10
85.9439818888
 20
197.0296282973
  0
VERTEX
  8
2_FEATURE
 62
7
  6
CONTINUOUS
 10
86.0396430375
 20
197.0344934427
  0
VERTEX
  8
2_FEATURE
 62
7
  6
CONTINUOUS
 10
86.1422379452
 20
197.0369754789
  0
VERTEX
  8
2_FEATURE
 62
7
  6
CONTINUOUS
 10
86.1947364539
 20
197.037288278
  0
SEQEND
  0
LINE
  8
2_FEATURE
 62
7
  6
CONTINUOUS
 10
44.7947364539
 20
197.8092403663
 11
44.8718875638
 21
197.815228609
  0
LINE
  8
2_FEATURE
 62
7
  6
CONTINUOUS
 10
40.9447364539
 20
200.215228609
 11
122.0447364539
 21
200.215228609
  0
LINE
  8
2_FEATURE
 62
7
  6
CONTINUOUS
 10
118.117585344
 20
197.815228609
 11
118.1947364539
 21
197.8092403663
  0
POLYLINE
  8
2_FEATURE
 62
7
  6
CONTINUOUS
 66
1
 70
0
  0
VERTEX
  8
2_FEATURE
 62
7
  6
CONTINUOUS
 10
102.0018375124
 20
197.815228609
  0
VERTEX
  8
2_FEATURE
 62
7
  6
CONTINUOUS
 10
102.0752704383
 20
197.8046706274
  0
VERTEX
  8
2_FEATURE
 62
7
  6
CONTINUOUS
 10
102.1334063172
 20
197.7738739427
  0
VERTEX
  8
2_FEATURE
 62
7
  6
CONTINUOUS
 10
102.1560737184
 20
197.7512572016
  0
VERTEX
  8
2_FEATURE
 62
7
  6
CONTINUOUS
 10
102.1857759357
 20
197.6961166269
  0
VERTEX
  8
2_FEATURE
 62
7
  6
CONTINUOUS
 10
102.1947364539
 20
197.6395203195
  0
SEQEND
  0
POLYLINE
  8
2_FEATURE
 62
7
  6
CONTINUOUS
 66
1
 70
0
  0
VERTEX
  8
2_FEATURE
 62
7
  6
CONTINUOUS
 10
118.1947364539
 20
197.8092403663
  0
VERTEX
  8
2_FEATURE
 62
7
  6
CONTINUOUS
 10
118.2999593862
 20
197.7808828725
  0
VERTEX
  8
2_FEATURE
 62
7
  6
CONTINUOUS
 10
118.4017719106
 20
197.727564202
  0
VERTEX
  8
2_FEATURE
 62
7
  6
CONTINUOUS
 10
118.493546039
 20
197.6485282362
  0
VERTEX
  8
2_FEATURE
 62
7
  6
CONTINUOUS
 10
118.55968206
 20
197.5584176126
  0
VERTEX
  8
2_FEATURE
 62
7
  6
CONTINUOUS
 10
118.6000402048
 20
197.4687902413
  0
VERTEX
  8
2_FEATURE
 62
7
  6
CONTINUOUS
 10
118.6190013481
 20
197.3896816332
  0
VERTEX
  8
2_FEATURE
 62
7
  6
CONTINUOUS
 10
118.6238550151
 20
197.315228609
  0
SEQEND
  0
LINE
  8
2_FEATURE
 62
7
  6
CONTINUOUS
 10
93.7947364539
 20
192.2152291292
 11
93.7947364539
 21
199.715228609
  0
LINE
  8
2_FEATURE
 62
7
  6
CONTINUOUS
 10
93.9072364539
 20
197.8010114874
 11
93.9072364539
 21
197.715228609
  0
LINE
  8
2_FEATURE
 62
7
  6
CONTINUOUS
 10
93.9447364539
 20
192.2152306698
 11
93.9447364539
 21
197.6395203195
  0
LINE
  8
2_FEATURE
 62
7
  6
CONTINUOUS
 10
93.9509865374
 20
197.8099435018
 11
93.9509865374
 21
197.715228609
  0
LINE
  8
2_FEATURE
 62
7
  6
CONTINUOUS
 10
93.9947363705
 20
197.815228609
 11
93.9947363705
 21
197.715228609
  0
LINE
  8
2_FEATURE
 62
7
  6
CONTINUOUS
 10
94.3447365374
 20
197.815228609
 11
94.3447365374
 21
197.715228609
  0
LINE
  8
2_FEATURE
 62
7
  6
CONTINUOUS
 10
94.3884863705
 20
197.815228609
 11
94.3884863705
 21
197.715228609
  0
LINE
  8
2_FEATURE
 62
7
  6
CONTINUOUS
 10
94.4322364539
 20
197.815228609
 11
94.4322364539
 21
197.715228609
  0
LINE
  8
2_FEATURE
 62
7
  6
CONTINUOUS
 10
94.6072365374
 20
197.815228609
 11
94.6072365374
 21
197.715228609
  0
LINE
  8
2_FEATURE
 62
7
  6
CONTINUOUS
 10
94.7822366208
 20
197.815228609
 11
94.7822366208
 21
197.715228609
  0
LINE
  8
2_FEATURE
 62
7
  6
CONTINUOUS
 10
95.0884864539
 20
197.815228609
 11
95.0884864539
 21
197.715228609
  0
LINE
  8
2_FEATURE
 62
7
  6
CONTINUOUS
 10
95.263486287
 20
197.815228609
 11
95.263486287
 21
197.715228609
  0
LINE
  8
2_FEATURE
 62
7
  6
CONTINUOUS
 10
95.525986287
 20
197.815228609
 11
95.525986287
 21
197.715228609
  0
POLYLINE
  8
2_FEATURE
 62
7
  6
CONTINUOUS
 66
1
 70
0
  0
VERTEX
  8
2_FEATURE
 62
7
  6
CONTINUOUS
 10
93.7947364539
 20
197.6395203195
  0
VERTEX
  8
2_FEATURE
 62
7
  6
CONTINUOUS
 10
93.803697746
 20
197.6961190265
  0
VERTEX
  8
2_FEATURE
 62
7
  6
CONTINUOUS
 10
93.8333218107
 20
197.7511624429
  0
VERTEX
  8
2_FEATURE
 62
7
  6
CONTINUOUS
 10
93.8559539258
 20
197.7737821688
  0
VERTEX
  8
2_FEATURE
 62
7
  6
CONTINUOUS
 10
93.9140180798
 20
197.8046123054
  0
VERTEX
  8
2_FEATURE
 62
7
  6
CONTINUOUS
 10
93.9876353955
 20
197.815228609
  0
SEQEND
  0
LINE
  8
2_FEATURE
 62
7
  6
CONTINUOUS
 10
93.9357776817
 20
197.6961112121
 11
93.9254815764
 21
197.715228609
  0
LINE
  8
2_FEATURE
 62
7
  6
CONTINUOUS
 10
93.9447364539
 20
197.6395203195
 11
93.9357776817
 21
197.6961112121
  0
LINE
  8
2_FEATURE
 62
7
  6
CONTINUOUS
 10
95.7009866208
 20
197.815228609
 11
95.7009866208
 21
197.715228609
  0
LINE
  8
2_FEATURE
 62
7
  6
CONTINUOUS
 10
95.8759864539
 20
197.815228609
 11
95.8759864539
 21
197.715228609
  0
LINE
  8
2_FEATURE
 62
7
  6
CONTINUOUS
 10
95.919736287
 20
197.815228609
 11
95.919736287
 21
197.715228609
  0
LINE
  8
2_FEATURE
 62
7
  6
CONTINUOUS
 10
95.9634864539
 20
197.815228609
 11
95.9634864539
 21
197.715228609
  0
LINE
  8
2_FEATURE
 62
7
  6
CONTINUOUS
 10
96.0947364539
 20
197.815228609
 11
96.0947364539
 21
197.715228609
  0
LINE
  8
2_FEATURE
 62
7
  6
CONTINUOUS
 10
96.2697364539
 20
197.815228609
 11
96.2697364539
 21
197.715228609
  0
LINE
  8
2_FEATURE
 62
7
  6
CONTINUOUS
 10
97.757236287
 20
197.815228609
 11
97.757236287
 21
197.715228609
  0
LINE
  8
2_FEATURE
 62
7
  6
CONTINUOUS
 10
97.8447364539
 20
197.815228609
 11
97.8447364539
 21
197.715228609
  0
LINE
  8
2_FEATURE
 62
7
  6
CONTINUOUS
 10
97.8884866208
 20
197.815228609
 11
97.8884866208
 21
197.715228609
  0
LINE
  8
0
 62
7
  6
CONTINUOUS
 10
120.6775436353
 20
193.307321996
 11
120.6837845555
 21
193.3042526812
  0
LINE
  8
2_FEATURE
 62
7
  6
CONTINUOUS
 10
99.4634866208
 20
197.815228609
 11
99.4634866208
 21
197.715228609
  0
LINE
  8
2_FEATURE
 62
7
  6
CONTINUOUS
 10
99.813486287
 20
197.815228609
 11
99.813486287
 21
197.715228609
  0
LINE
  8
2_FEATURE
 62
7
  6
CONTINUOUS
 10
100.4259864539
 20
197.815228609
 11
100.4259864539
 21
197.715228609
  0
LINE
  8
2_FEATURE
 62
7
  6
CONTINUOUS
 10
100.7759863705
 20
197.815228609
 11
100.7759863705
 21
197.715228609
  0
LINE
  8
2_FEATURE
 62
7
  6
CONTINUOUS
 10
100.9947365374
 20
197.815228609
 11
100.9947365374
 21
197.715228609
  0
POLYLINE
  8
2_FEATURE
 62
7
  6
CONTINUOUS
 66
1
 70
0
  0
VERTEX
  8
2_FEATURE
 62
7
  6
CONTINUOUS
 10
102.1947364539
 20
196.9789572339
  0
VERTEX
  8
2_FEATURE
 62
7
  6
CONTINUOUS
 10
102.1974494835
 20
196.9851979184
  0
VERTEX
  8
2_FEATURE
 62
7
  6
CONTINUOUS
 10
102.2190075629
 20
196.9972992724
  0
VERTEX
  8
2_FEATURE
 62
7
  6
CONTINUOUS
 10
102.2612722303
 20
197.0084823327
  0
VERTEX
  8
2_FEATURE
 62
7
  6
CONTINUOUS
 10
102.3224934606
 20
197.0182974363
  0
VERTEX
  8
2_FEATURE
 62
7
  6
CONTINUOUS
 10
102.3594320691
 20
197.0225682737
  0
VERTEX
  8
2_FEATURE
 62
7
  6
CONTINUOUS
 10
102.4439818888
 20
197.0296282973
  0
VERTEX
  8
2_FEATURE
 62
7
  6
CONTINUOUS
 10
102.5396430375
 20
197.0344934427
  0
VERTEX
  8
2_FEATURE
 62
7
  6
CONTINUOUS
 10
102.6422379452
 20
197.0369754789
  0
VERTEX
  8
2_FEATURE
 62
7
  6
CONTINUOUS
 10
102.6947364539
 20
197.037288278
  0
SEQEND
  0
POLYLINE
  8
2_FEATURE
 62
7
  6
CONTINUOUS
 66
1
 70
0
  0
VERTEX
  8
2_FEATURE
 62
7
  6
CONTINUOUS
 10
102.0639822561
 20
197.715228609
  0
VERTEX
  8
2_FEATURE
 62
7
  6
CONTINUOUS
 10
102.0537017753
 20
197.6961315201
  0
VERTEX
  8
2_FEATURE
 62
7
  6
CONTINUOUS
 10
102.0447364539
 20
197.6395203195
  0
SEQEND
  0
POLYLINE
  8
0
 62
7
  6
CONTINUOUS
 66
1
 70
0
  0
VERTEX
  8
0
 62
7
  6
CONTINUOUS
 10
119.2679849183
 20
193.0614969572
  0
VERTEX
  8
0
 62
7
  6
CONTINUOUS
 10
119.6776368705
 20
193.2316520473
  0
VERTEX
  8
0
 62
7
  6
CONTINUOUS
 10
120.0591646045
 20
193.408309598
  0
VERTEX
  8
0
 62
7
  6
CONTINUOUS
 10
120.3861684556
 20
193.5766701682
  0
SEQEND
  0
LINE
  8
2_FEATURE
 62
7
  6
CONTINUOUS
 10
101.3447364539
 20
197.815228609
 11
101.3447364539
 21
197.715228609
  0
LINE
  8
2_FEATURE
 62
7
  6
CONTINUOUS
 10
101.5634863705
 20
197.815228609
 11
101.5634863705
 21
197.715228609
  0
LINE
  8
2_FEATURE
 62
7
  6
CONTINUOUS
 10
101.6072364539
 20
197.815228609
 11
101.6072364539
 21
197.715228609
  0
LINE
  8
2_FEATURE
 62
7
  6
CONTINUOUS
 10
101.6947363705
 20
197.815228609
 11
101.6947363705
 21
197.715228609
  0
LINE
  8
2_FEATURE
 62
7
  6
CONTINUOUS
 10
101.7822365374
 20
197.815228609
 11
101.7822365374
 21
197.715228609
  0
LINE
  8
2_FEATURE
 62
7
  6
CONTINUOUS
 10
101.9572363705
 20
197.815228609
 11
101.9572363705
 21
197.715228609
  0
LINE
  8
2_FEATURE
 62
7
  6
CONTINUOUS
 10
102.0447364539
 20
197.6395203195
 11
102.0447364539
 21
192.2152306697
  0
LINE
  8
2_FEATURE
 62
7
  6
CONTINUOUS
 10
102.1322364539
 20
197.7744936617
 11
102.1322364539
 21
197.715228609
  0
LINE
  8
2_FEATURE
 62
7
  6
CONTINUOUS
 10
102.1947364539
 20
199.715228609
 11
102.1947364539
 21
192.2152291292
  0
POLYLINE
  8
0
 62
7
  6
CONTINUOUS
 66
1
 70
0
  0
VERTEX
  8
0
 62
7
  6
CONTINUOUS
 10
120.3861715415
 20
193.5766704618
  0
VERTEX
  8
0
 62
7
  6
CONTINUOUS
 10
120.3871841618
 20
193.57721579
  0
VERTEX
  8
0
 62
7
  6
CONTINUOUS
 10
120.4040054779
 20
193.5850578544
  0
VERTEX
  8
0
 62
7
  6
CONTINUOUS
 10
120.419847133
 20
193.5902244255
  0
VERTEX
  8
0
 62
7
  6
CONTINUOUS
 10
120.4362117962
 20
193.5930559225
  0
VERTEX
  8
0
 62
7
  6
CONTINUOUS
 10
120.4540981351
 20
193.592976407
  0
VERTEX
  8
0
 62
7
  6
CONTINUOUS
 10
120.472507378
 20
193.5894554215
  0
VERTEX
  8
0
 62
7
  6
CONTINUOUS
 10
120.4903578372
 20
193.5830193482
  0
VERTEX
  8
0
 62
7
  6
CONTINUOUS
 10
120.5074892646
 20
193.5743322508
  0
VERTEX
  8
0
 62
7
  6
CONTINUOUS
 10
120.5238506653
 20
193.5638949349
  0
VERTEX
  8
0
 62
7
  6
CONTINUOUS
 10
120.5394682759
 20
193.5520388189
  0
VERTEX
  8
0
 62
7
  6
CONTINUOUS
 10
120.5545995186
 20
193.5387837978
  0
VERTEX
  8
0
 62
7
  6
CONTINUOUS
 10
120.5692677352
 20
193.5242122402
  0
VERTEX
  8
0
 62
7
  6
CONTINUOUS
 10
120.5834759489
 20
193.5083846792
  0
VERTEX
  8
0
 62
7
  6
CONTINUOUS
 10
120.5904398723
 20
193.49996644
  0
VERTEX
  8
0
 62
7
  6
CONTINUOUS
 10
120.6041150737
 20
193.4820553112
  0
VERTEX
  8
0
 62
7
  6
CONTINUOUS
 10
120.6173760234
 20
193.462730692
  0
VERTEX
  8
0
 62
7
  6
CONTINUOUS
 10
120.630068458
 20
193.4421104305
  0
VERTEX
  8
0
 62
7
  6
CONTINUOUS
 10
120.6420441193
 20
193.4203201255
  0
VERTEX
  8
0
 62
7
  6
CONTINUOUS
 10
120.6531472837
 20
193.3975183781
  0
VERTEX
  8
0
 62
7
  6
CONTINUOUS
 10
120.6632249277
 20
193.3738885934
  0
VERTEX
  8
0
 62
7
  6
CONTINUOUS
 10
120.6721383237
 20
193.349601566
  0
VERTEX
  8
0
 62
7
  6
CONTINUOUS
 10
120.6797523811
 20
193.3248526493
  0
VERTEX
  8
0
 62
7
  6
CONTINUOUS
 10
120.68592789
 20
193.2998775181
  0
VERTEX
  8
0
 62
7
  6
CONTINUOUS
 10
120.6905463494
 20
193.2749182636
  0
VERTEX
  8
0
 62
7
  6
CONTINUOUS
 10
120.6934983876
 20
193.2502567523
  0
VERTEX
  8
0
 62
7
  6
CONTINUOUS
 10
120.6947086534
 20
193.226139035
  0
VERTEX
  8
0
 62
7
  6
CONTINUOUS
 10
120.6947368351
 20
193.2219579808
  0
SEQEND
  0
POLYLINE
  8
2_FEATURE
 62
7
  6
CONTINUOUS
 66
1
 70
0
  0
VERTEX
  8
2_FEATURE
 62
7
  6
CONTINUOUS
 10
110.2947364539
 20
195.1514999841
  0
VERTEX
  8
2_FEATURE
 62
7
  6
CONTINUOUS
 10
110.2920234244
 20
195.1452592997
  0
VERTEX
  8
2_FEATURE
 62
7
  6
CONTINUOUS
 10
110.270465345
 20
195.1331579457
  0
VERTEX
  8
2_FEATURE
 62
7
  6
CONTINUOUS
 10
110.2282006776
 20
195.1219748854
  0
VERTEX
  8
2_FEATURE
 62
7
  6
CONTINUOUS
 10
110.1669794472
 20
195.1121597817
  0
VERTEX
  8
2_FEATURE
 62
7
  6
CONTINUOUS
 10
110.1300408387
 20
195.1078889443
  0
VERTEX
  8
2_FEATURE
 62
7
  6
CONTINUOUS
 10
110.0454910191
 20
195.1008289208
  0
VERTEX
  8
2_FEATURE
 62
7
  6
CONTINUOUS
 10
109.9498298704
 20
195.0959637753
  0
VERTEX
  8
2_FEATURE
 62
7
  6
CONTINUOUS
 10
109.8472349627
 20
195.0934817392
  0
VERTEX
  8
2_FEATURE
 62
7
  6
CONTINUOUS
 10
109.7947364539
 20
195.0931689401
  0
SEQEND
  0
LINE
  8
2_FEATURE
 62
7
  6
CONTINUOUS
 10
110.2947364539
 20
192.215228609
 11
110.2947364539
 21
199.715228609
  0
LINE
  8
2_FEATURE
 62
7
  6
CONTINUOUS
 10
112.0447364539
 20
192.215228609
 11
112.0447364539
 21
194.0851962801
  0
POLYLINE
  8
2_FEATURE
 62
7
  6
CONTINUOUS
 66
1
 70
0
  0
VERTEX
  8
2_FEATURE
 62
7
  6
CONTINUOUS
 10
110.8639392478
 20
192.0771903678
  0
VERTEX
  8
2_FEATURE
 62
7
  6
CONTINUOUS
 10
110.8800847945
 20
192.1631438323
  0
VERTEX
  8
2_FEATURE
 62
7
  6
CONTINUOUS
 10
110.8824749577
 20
192.215228609
  0
SEQEND
  0
LINE
  8
2_FEATURE
 62
7
  6
CONTINUOUS
 10
110.8647816868
 20
192.0801939531
 11
111.0835127781
 21
192.8600057572
  0
POLYLINE
  8
2_FEATURE
 62
7
  6
CONTINUOUS
 66
1
 70
0
  0
VERTEX
  8
2_FEATURE
 62
7
  6
CONTINUOUS
 10
111.0835181112
 20
192.8600247388
  0
VERTEX
  8
2_FEATURE
 62
7
  6
CONTINUOUS
 10
111.0859381972
 20
192.8682653276
  0
VERTEX
  8
2_FEATURE
 62
7
  6
CONTINUOUS
 10
111.0871043715
 20
192.8718678407
  0
SEQEND
  0
POLYLINE
  8
0
 62
7
  6
CONTINUOUS
 66
1
 70
0
  0
VERTEX
  8
0
 62
7
  6
CONTINUOUS
 10
118.9631404826
 20
191.915228609
  0
VERTEX
  8
0
 62
7
  6
CONTINUOUS
 10
118.9466788228
 20
191.8979816461
  0
VERTEX
  8
0
 62
7
  6
CONTINUOUS
 10
118.9116086616
 20
191.8629231124
  0
VERTEX
  8
0
 62
7
  6
CONTINUOUS
 10
118.87458789
 20
191.828239129
  0
VERTEX
  8
0
 62
7
  6
CONTINUOUS
 10
118.8366950147
 20
191.7952273152
  0
VERTEX
  8
0
 62
7
  6
CONTINUOUS
 10
118.8177741202
 20
191.7797710877
  0
VERTEX
  8
0
 62
7
  6
CONTINUOUS
 10
118.7808079283
 20
191.7519500563
  0
VERTEX
  8
0
 62
7
  6
CONTINUOUS
 10
118.7465154878
 20
191.730020726
  0
VERTEX
  8
0
 62
7
  6
CONTINUOUS
 10
118.7177460983
 20
191.7170575071
  0
VERTEX
  8
0
 62
7
  6
CONTINUOUS
 10
118.7067979298
 20
191.715228609
  0
SEQEND
  0
LINE
  8
0
 62
7
  6
CONTINUOUS
 10
122.5447364539
 20
199.605341709
 11
122.7447364539
 21
199.3897437257
  0
LINE
  8
2_FEATURE
 62
7
  6
CONTINUOUS
 10
116.9447364539
 20
192.215228609
 11
116.9447364539
 21
194.0795651809
  0
POLYLINE
  8
2_FEATURE
 62
7
  6
CONTINUOUS
 66
1
 70
0
  0
VERTEX
  8
2_FEATURE
 62
7
  6
CONTINUOUS
 10
118.6947364539
 20
196.9789572339
  0
VERTEX
  8
2_FEATURE
 62
7
  6
CONTINUOUS
 10
118.6974494835
 20
196.9851979184
  0
VERTEX
  8
2_FEATURE
 62
7
  6
CONTINUOUS
 10
118.7190075629
 20
196.9972992724
  0
VERTEX
  8
2_FEATURE
 62
7
  6
CONTINUOUS
 10
118.7612722303
 20
197.0084823327
  0
VERTEX
  8
2_FEATURE
 62
7
  6
CONTINUOUS
 10
118.8224934606
 20
197.0182974363
  0
VERTEX
  8
2_FEATURE
 62
7
  6
CONTINUOUS
 10
118.8594320691
 20
197.0225682737
  0
VERTEX
  8
2_FEATURE
 62
7
  6
CONTINUOUS
 10
118.9439818888
 20
197.0296282973
  0
VERTEX
  8
2_FEATURE
 62
7
  6
CONTINUOUS
 10
119.0396430375
 20
197.0344934427
  0
VERTEX
  8
2_FEATURE
 62
7
  6
CONTINUOUS
 10
119.1422379452
 20
197.0369754789
  0
VERTEX
  8
2_FEATURE
 62
7
  6
CONTINUOUS
 10
119.1947364539
 20
197.037288278
  0
SEQEND
  0
LINE
  8
0
 62
7
  6
CONTINUOUS
 10
120.6832885702
 20
193.3057249418
 11
120.6838602167
 21
193.3040280917
  0
POLYLINE
  8
0
 62
7
  6
CONTINUOUS
 66
1
 70
0
  0
VERTEX
  8
0
 62
7
  6
CONTINUOUS
 10
118.6947359905
 20
193.57658482
  0
VERTEX
  8
0
 62
7
  6
CONTINUOUS
 10
118.7057342078
 20
193.4403314231
  0
VERTEX
  8
0
 62
7
  6
CONTINUOUS
 10
118.7427650638
 20
193.307032028
  0
VERTEX
  8
0
 62
7
  6
CONTINUOUS
 10
118.8034382228
 20
193.1970041859
  0
VERTEX
  8
0
 62
7
  6
CONTINUOUS
 10
118.8811533703
 20
193.1156192585
  0
VERTEX
  8
0
 62
7
  6
CONTINUOUS
 10
118.9704852369
 20
193.0621866722
  0
VERTEX
  8
0
 62
7
  6
CONTINUOUS
 10
119.0687580011
 20
193.0354269569
  0
VERTEX
  8
0
 62
7
  6
CONTINUOUS
 10
119.1735064569
 20
193.036269579
  0
VERTEX
  8
0
 62
7
  6
CONTINUOUS
 10
119.2679780502
 20
193.0614952093
  0
SEQEND
  0
LINE
  8
2_FEATURE
 62
7
  6
CONTINUOUS
 10
118.6947364539
 20
199.715228609
 11
118.6947364539
 21
195.1515003834
  0
LINE
  8
0
 62
7
  6
CONTINUOUS
 10
118.6947364539
 20
191.715228609
 11
118.6947364539
 21
195.1515003834
  0
LINE
  8
0
 62
7
  6
CONTINUOUS
 10
120.0947364539
 20
193.0590050831
 11
120.0947364539
 21
192.215228609
  0
LINE
  8
0
 62
7
  6
CONTINUOUS
 10
120.6947364539
 20
193.221956777
 11
120.6947364539
 21
191.915228609
  0
LINE
  8
2_FEATURE
 62
7
  6
CONTINUOUS
 10
122.5447364539
 20
199.715228609
 11
122.5447364539
 21
192.2152306128
  0
LINE
  8
2_FEATURE
 62
7
  6
CONTINUOUS
 10
122.7447364539
 20
199.3897437257
 11
122.7447364539
 21
193.851828609
  0
POLYLINE
  8
2_FEATURE
 62
7
  6
CONTINUOUS
 66
1
 70
0
  0
VERTEX
  8
2_FEATURE
 62
7
  6
CONTINUOUS
 10
118.6238550151
 20
197.315228609
  0
VERTEX
  8
2_FEATURE
 62
7
  6
CONTINUOUS
 10
118.6270659165
 20
197.4860167367
  0
VERTEX
  8
2_FEATURE
 62
7
  6
CONTINUOUS
 10
118.6306639652
 20
197.6528811778
  0
VERTEX
  8
2_FEATURE
 62
7
  6
CONTINUOUS
 10
118.6346290518
 20
197.815228609
  0
SEQEND
  0
POLYLINE
  8
0
 62
7
  6
CONTINUOUS
 66
1
 70
0
  0
VERTEX
  8
0
 62
7
  6
CONTINUOUS
 10
120.0947364792
 20
193.032542691
  0
VERTEX
  8
0
 62
7
  6
CONTINUOUS
 10
120.097866121
 20
193.0756699717
  0
VERTEX
  8
0
 62
7
  6
CONTINUOUS
 10
120.1224405695
 20
193.1583660418
  0
VERTEX
  8
0
 62
7
  6
CONTINUOUS
 10
120.1695296741
 20
193.230646243
  0
VERTEX
  8
0
 62
7
  6
CONTINUOUS
 10
120.20036556
 20
193.2609664712
  0
VERTEX
  8
0
 62
7
  6
CONTINUOUS
 10
120.2734295362
 20
193.3068300648
  0
VERTEX
  8
0
 62
7
  6
CONTINUOUS
 10
120.3565239596
 20
193.3300060057
  0
VERTEX
  8
0
 62
7
  6
CONTINUOUS
 10
120.3835084602
 20
193.332239429
  0
SEQEND
  0
POLYLINE
  8
2_FEATURE
 62
7
  6
CONTINUOUS
 66
1
 70
0
  0
VERTEX
  8
2_FEATURE
 62
7
  6
CONTINUOUS
 10
122.7447451498
 20
193.851828609
  0
VERTEX
  8
2_FEATURE
 62
7
  6
CONTINUOUS
 10
122.7319205182
 20
193.7389301009
  0
VERTEX
  8
2_FEATURE
 62
7
  6
CONTINUOUS
 10
122.7160744083
 20
193.6847164455
  0
VERTEX
  8
2_FEATURE
 62
7
  6
CONTINUOUS
 10
122.6657746739
 20
193.5821495083
  0
SEQEND
  0
POLYLINE
  8
2_FEATURE
 62
7
  6
CONTINUOUS
 66
1
 70
0
  0
VERTEX
  8
2_FEATURE
 62
7
  6
CONTINUOUS
 10
122.5447364539
 20
195.1514999841
  0
VERTEX
  8
2_FEATURE
 62
7
  6
CONTINUOUS
 10
122.5420234244
 20
195.1452592997
  0
VERTEX
  8
2_FEATURE
 62
7
  6
CONTINUOUS
 10
122.520465345
 20
195.1331579457
  0
VERTEX
  8
2_FEATURE
 62
7
  6
CONTINUOUS
 10
122.4782006776
 20
195.1219748854
  0
VERTEX
  8
2_FEATURE
 62
7
  6
CONTINUOUS
 10
122.4169794472
 20
195.1121597817
  0
VERTEX
  8
2_FEATURE
 62
7
  6
CONTINUOUS
 10
122.3800408387
 20
195.1078889443
  0
VERTEX
  8
2_FEATURE
 62
7
  6
CONTINUOUS
 10
122.2954910191
 20
195.1008289208
  0
VERTEX
  8
2_FEATURE
 62
7
  6
CONTINUOUS
 10
122.1998298704
 20
195.0959637753
  0
VERTEX
  8
2_FEATURE
 62
7
  6
CONTINUOUS
 10
122.0972349627
 20
195.0934817392
  0
VERTEX
  8
2_FEATURE
 62
7
  6
CONTINUOUS
 10
122.0447364539
 20
195.0931689401
  0
SEQEND
  0
POLYLINE
  8
0
 62
7
  6
CONTINUOUS
 66
1
 70
0
  0
VERTEX
  8
0
 62
7
  6
CONTINUOUS
 10
120.6838602167
 20
193.3040280917
  0
VERTEX
  8
0
 62
7
  6
CONTINUOUS
 10
120.6890601618
 20
193.283912886
  0
VERTEX
  8
0
 62
7
  6
CONTINUOUS
 10
120.6894106808
 20
193.2819219681
  0
SEQEND
  0
POLYLINE
  8
0
 62
7
  6
CONTINUOUS
 66
1
 70
0
  0
VERTEX
  8
0
 62
7
  6
CONTINUOUS
 10
120.6910203678
 20
193.2709582837
  0
VERTEX
  8
0
 62
7
  6
CONTINUOUS
 10
120.6921424333
 20
193.2633100784
  0
VERTEX
  8
0
 62
7
  6
CONTINUOUS
 10
120.692681071
 20
193.2570846661
  0
SEQEND
  0
LINE
  8
0
 62
7
  6
CONTINUOUS
 10
40.2447364539
 20
116.7813230955
 11
40.2447364539
 21
145.5975745967
  0
LINE
  8
2_FEATURE
 62
7
  6
CONTINUOUS
 10
40.4447364539
 20
147.1670187801
 11
40.4447364539
 21
109.4413230955
  0
POLYLINE
  8
2_FEATURE
 62
7
  6
CONTINUOUS
 66
1
 70
0
  0
VERTEX
  8
2_FEATURE
 62
7
  6
CONTINUOUS
 10
40.4447364539
 20
147.1670187801
  0
VERTEX
  8
2_FEATURE
 62
7
  6
CONTINUOUS
 10
40.4485534142
 20
147.2286823114
  0
VERTEX
  8
2_FEATURE
 62
7
  6
CONTINUOUS
 10
40.4775173074
 20
147.3450813228
  0
VERTEX
  8
2_FEATURE
 62
7
  6
CONTINUOUS
 10
40.5310605291
 20
147.4478607805
  0
VERTEX
  8
2_FEATURE
 62
7
  6
CONTINUOUS
 10
40.604339545
 20
147.5332563319
  0
VERTEX
  8
2_FEATURE
 62
7
  6
CONTINUOUS
 10
40.6955033872
 20
147.6004733664
  0
VERTEX
  8
2_FEATURE
 62
7
  6
CONTINUOUS
 10
40.7479329725
 20
147.6266581927
  0
VERTEX
  8
2_FEATURE
 62
7
  6
CONTINUOUS
 10
40.860598536
 20
147.6598887535
  0
VERTEX
  8
2_FEATURE
 62
7
  6
CONTINUOUS
 10
40.9447364539
 20
147.66701878
  0
SEQEND
  0
POLYLINE
  8
2_FEATURE
 62
7
  6
CONTINUOUS
 66
1
 70
0
  0
VERTEX
  8
2_FEATURE
 62
7
  6
CONTINUOUS
 10
44.4447364539
 20
152.5060679669
  0
VERTEX
  8
2_FEATURE
 62
7
  6
CONTINUOUS
 10
44.4474281475
 20
152.5144997515
  0
VERTEX
  8
2_FEATURE
 62
7
  6
CONTINUOUS
 10
44.4688427796
 20
152.5308636996
  0
VERTEX
  8
2_FEATURE
 62
7
  6
CONTINUOUS
 10
44.5109003003
 20
152.5460077651
  0
VERTEX
  8
2_FEATURE
 62
7
  6
CONTINUOUS
 10
44.5719389922
 20
152.5593214865
  0
VERTEX
  8
2_FEATURE
 62
7
  6
CONTINUOUS
 10
44.6088196818
 20
152.5651223134
  0
VERTEX
  8
2_FEATURE
 62
7
  6
CONTINUOUS
 10
44.6933539576
 20
152.5747235082
  0
VERTEX
  8
2_FEATURE
 62
7
  6
CONTINUOUS
 10
44.7891542177
 20
152.5813504857
  0
VERTEX
  8
2_FEATURE
 62
7
  6
CONTINUOUS
 10
44.8920414155
 20
152.5847363806
  0
VERTEX
  8
2_FEATURE
 62
7
  6
CONTINUOUS
 10
44.9447364539
 20
152.5851635765
  0
SEQEND
  0
POLYLINE
  8
2_FEATURE
 62
7
  6
CONTINUOUS
 66
1
 70
0
  0
VERTEX
  8
2_FEATURE
 62
7
  6
CONTINUOUS
 10
44.4447369065
 20
148.6493366996
  0
VERTEX
  8
2_FEATURE
 62
7
  6
CONTINUOUS
 10
44.4408787389
 20
148.515979414
  0
VERTEX
  8
2_FEATURE
 62
7
  6
CONTINUOUS
 10
44.4269591817
 20
148.3715681776
  0
VERTEX
  8
2_FEATURE
 62
7
  6
CONTINUOUS
 10
44.4024626007
 20
148.2346161887
  0
VERTEX
  8
2_FEATURE
 62
7
  6
CONTINUOUS
 10
44.3673591214
 20
148.1074892684
  0
VERTEX
  8
2_FEATURE
 62
7
  6
CONTINUOUS
 10
44.3220157548
 20
147.9923567087
  0
VERTEX
  8
2_FEATURE
 62
7
  6
CONTINUOUS
 10
44.2957706599
 20
147.9400249962
  0
VERTEX
  8
2_FEATURE
 62
7
  6
CONTINUOUS
 10
44.2367490325
 20
147.8469489333
  0
VERTEX
  8
2_FEATURE
 62
7
  6
CONTINUOUS
 10
44.1694383033
 20
147.7702959874
  0
VERTEX
  8
2_FEATURE
 62
7
  6
CONTINUOUS
 10
44.0950733974
 20
147.7125925145
  0
VERTEX
  8
2_FEATURE
 62
7
  6
CONTINUOUS
 10
44.0158008893
 20
147.6771855472
  0
VERTEX
  8
2_FEATURE
 62
7
  6
CONTINUOUS
 10
43.9447364539
 20
147.6670188612
  0
SEQEND
  0
LINE
  8
0
 62
7
  6
CONTINUOUS
 10
40.2447364539
 20
116.7813230955
 11
40.4447364539
 21
116.5813230955
  0
LINE
  8
2_FEATURE
 62
7
  6
CONTINUOUS
 10
44.2947364539
 20
109.4413230955
 11
44.2947364539
 21
116.5417447218
  0
LINE
  8
2_FEATURE
 62
7
  6
CONTINUOUS
 10
44.4447364539
 20
155.0213230955
 11
44.4447364539
 21
148.6493086578
  0
POLYLINE
  8
2_FEATURE
 62
7
  6
CONTINUOUS
 66
1
 70
0
  0
VERTEX
  8
2_FEATURE
 62
7
  6
CONTINUOUS
 10
44.2947362461
 20
115.8133005284
  0
VERTEX
  8
2_FEATURE
 62
7
  6
CONTINUOUS
 10
44.29859447
 20
115.9466705907
  0
VERTEX
  8
2_FEATURE
 62
7
  6
CONTINUOUS
 10
44.3125142014
 20
116.0910827872
  0
VERTEX
  8
2_FEATURE
 62
7
  6
CONTINUOUS
 10
44.3370106692
 20
116.2280320083
  0
VERTEX
  8
2_FEATURE
 62
7
  6
CONTINUOUS
 10
44.37211384
 20
116.3551570353
  0
VERTEX
  8
2_FEATURE
 62
7
  6
CONTINUOUS
 10
44.4174573341
 20
116.4702897921
  0
VERTEX
  8
2_FEATURE
 62
7
  6
CONTINUOUS
 10
44.4437023103
 20
116.5226213834
  0
VERTEX
  8
2_FEATURE
 62
7
  6
CONTINUOUS
 10
44.5027240199
 20
116.6156974458
  0
VERTEX
  8
2_FEATURE
 62
7
  6
CONTINUOUS
 10
44.5700346696
 20
116.6923504251
  0
VERTEX
  8
2_FEATURE
 62
7
  6
CONTINUOUS
 10
44.644400307
 20
116.7500542756
  0
VERTEX
  8
2_FEATURE
 62
7
  6
CONTINUOUS
 10
44.7236755453
 20
116.7854616452
  0
VERTEX
  8
2_FEATURE
 62
7
  6
CONTINUOUS
 10
44.7947364539
 20
116.7956273278
  0
SEQEND
  0
LINE
  8
2_FEATURE
 62
7
  6
CONTINUOUS
 10
52.5447364539
 20
148.649308605
 11
52.5447364539
 21
155.0213230955
  0
LINE
  8
2_FEATURE
 62
7
  6
CONTINUOUS
 10
52.6947364539
 20
115.8133375331
 11
52.6947364539
 21
109.4413230955
  0
POLYLINE
  8
2_FEATURE
 62
7
  6
CONTINUOUS
 66
1
 70
0
  0
VERTEX
  8
2_FEATURE
 62
7
  6
CONTINUOUS
 10
44.2947364539
 20
111.9565782241
  0
VERTEX
  8
2_FEATURE
 62
7
  6
CONTINUOUS
 10
44.2920447604
 20
111.9481464395
  0
VERTEX
  8
2_FEATURE
 62
7
  6
CONTINUOUS
 10
44.2706301283
 20
111.9317824914
  0
VERTEX
  8
2_FEATURE
 62
7
  6
CONTINUOUS
 10
44.2285726076
 20
111.9166384259
  0
VERTEX
  8
2_FEATURE
 62
7
  6
CONTINUOUS
 10
44.1675339157
 20
111.9033247045
  0
VERTEX
  8
2_FEATURE
 62
7
  6
CONTINUOUS
 10
44.130653226
 20
111.8975238776
  0
VERTEX
  8
2_FEATURE
 62
7
  6
CONTINUOUS
 10
44.0461189503
 20
111.8879226828
  0
VERTEX
  8
2_FEATURE
 62
7
  6
CONTINUOUS
 10
43.9503186902
 20
111.8812957053
  0
VERTEX
  8
2_FEATURE
 62
7
  6
CONTINUOUS
 10
43.8474314924
 20
111.8779098104
  0
VERTEX
  8
2_FEATURE
 62
7
  6
CONTINUOUS
 10
43.7947364539
 20
111.8774826145
  0
SEQEND
  0
POLYLINE
  8
2_FEATURE
 62
7
  6
CONTINUOUS
 66
1
 70
0
  0
VERTEX
  8
2_FEATURE
 62
7
  6
CONTINUOUS
 10
60.9447364539
 20
152.5060679669
  0
VERTEX
  8
2_FEATURE
 62
7
  6
CONTINUOUS
 10
60.9474281475
 20
152.5144997515
  0
VERTEX
  8
2_FEATURE
 62
7
  6
CONTINUOUS
 10
60.9688427796
 20
152.5308636996
  0
VERTEX
  8
2_FEATURE
 62
7
  6
CONTINUOUS
 10
61.0109003003
 20
152.5460077651
  0
VERTEX
  8
2_FEATURE
 62
7
  6
CONTINUOUS
 10
61.0719389922
 20
152.5593214865
  0
VERTEX
  8
2_FEATURE
 62
7
  6
CONTINUOUS
 10
61.1088196818
 20
152.5651223134
  0
VERTEX
  8
2_FEATURE
 62
7
  6
CONTINUOUS
 10
61.1933539576
 20
152.5747235082
  0
VERTEX
  8
2_FEATURE
 62
7
  6
CONTINUOUS
 10
61.2891542177
 20
152.5813504857
  0
VERTEX
  8
2_FEATURE
 62
7
  6
CONTINUOUS
 10
61.3920414155
 20
152.5847363806
  0
VERTEX
  8
2_FEATURE
 62
7
  6
CONTINUOUS
 10
61.4447364539
 20
152.5851635765
  0
SEQEND
  0
LINE
  8
2_FEATURE
 62
7
  6
CONTINUOUS
 10
40.9447364539
 20
108.9413230955
 11
43.7947364539
 21
108.9413230955
  0
LINE
  8
2_FEATURE
 62
7
  6
CONTINUOUS
 10
53.1947364539
 20
108.9413230955
 11
60.2947364539
 21
108.9413230955
  0
LINE
  8
2_FEATURE
 62
7
  6
CONTINUOUS
 10
69.6947364539
 20
108.9413230955
 11
76.7947364539
 21
108.9413230955
  0
LINE
  8
2_FEATURE
 62
7
  6
CONTINUOUS
 10
86.1947364539
 20
108.9413230955
 11
93.2947364539
 21
108.9413230955
  0
LINE
  8
2_FEATURE
 62
7
  6
CONTINUOUS
 10
102.6947364539
 20
108.9413230955
 11
109.7947364539
 21
108.9413230955
  0
LINE
  8
2_FEATURE
 62
7
  6
CONTINUOUS
 10
119.1947364539
 20
108.9413230955
 11
122.0447364539
 21
108.9413230955
  0
LINE
  8
2_FEATURE
 62
7
  6
CONTINUOUS
 10
60.7947364539
 20
109.4413230955
 11
60.7947364539
 21
115.8133375862
  0
LINE
  8
2_FEATURE
 62
7
  6
CONTINUOUS
 10
60.9447364539
 20
155.0213230955
 11
60.9447364539
 21
148.6493086578
  0
POLYLINE
  8
2_FEATURE
 62
7
  6
CONTINUOUS
 66
1
 70
0
  0
VERTEX
  8
2_FEATURE
 62
7
  6
CONTINUOUS
 10
60.9447369065
 20
148.6493366996
  0
VERTEX
  8
2_FEATURE
 62
7
  6
CONTINUOUS
 10
60.9408787389
 20
148.515979414
  0
VERTEX
  8
2_FEATURE
 62
7
  6
CONTINUOUS
 10
60.9269591817
 20
148.3715681776
  0
VERTEX
  8
2_FEATURE
 62
7
  6
CONTINUOUS
 10
60.9024626007
 20
148.2346161887
  0
VERTEX
  8
2_FEATURE
 62
7
  6
CONTINUOUS
 10
60.8673591214
 20
148.1074892684
  0
VERTEX
  8
2_FEATURE
 62
7
  6
CONTINUOUS
 10
60.8220157548
 20
147.9923567087
  0
VERTEX
  8
2_FEATURE
 62
7
  6
CONTINUOUS
 10
60.7957706599
 20
147.9400249962
  0
VERTEX
  8
2_FEATURE
 62
7
  6
CONTINUOUS
 10
60.7367490325
 20
147.8469489333
  0
VERTEX
  8
2_FEATURE
 62
7
  6
CONTINUOUS
 10
60.6694383033
 20
147.7702959874
  0
VERTEX
  8
2_FEATURE
 62
7
  6
CONTINUOUS
 10
60.5950733974
 20
147.7125925145
  0
VERTEX
  8
2_FEATURE
 62
7
  6
CONTINUOUS
 10
60.5158008893
 20
147.6771855472
  0
VERTEX
  8
2_FEATURE
 62
7
  6
CONTINUOUS
 10
60.4447364539
 20
147.6670188612
  0
SEQEND
  0
POLYLINE
  8
2_FEATURE
 62
7
  6
CONTINUOUS
 66
1
 70
0
  0
VERTEX
  8
2_FEATURE
 62
7
  6
CONTINUOUS
 10
60.7947362453
 20
115.8133003266
  0
VERTEX
  8
2_FEATURE
 62
7
  6
CONTINUOUS
 10
60.7985944712
 20
115.9466706412
  0
VERTEX
  8
2_FEATURE
 62
7
  6
CONTINUOUS
 10
60.8125142049
 20
116.0910828452
  0
VERTEX
  8
2_FEATURE
 62
7
  6
CONTINUOUS
 10
60.8370106695
 20
116.2280320187
  0
VERTEX
  8
2_FEATURE
 62
7
  6
CONTINUOUS
 10
60.872113836
 20
116.3551570247
  0
VERTEX
  8
2_FEATURE
 62
7
  6
CONTINUOUS
 10
60.9174573283
 20
116.4702897806
  0
VERTEX
  8
2_FEATURE
 62
7
  6
CONTINUOUS
 10
60.9437022994
 20
116.5226213639
  0
VERTEX
  8
2_FEATURE
 62
7
  6
CONTINUOUS
 10
61.0027240128
 20
116.6156974335
  0
VERTEX
  8
2_FEATURE
 62
7
  6
CONTINUOUS
 10
61.0700346472
 20
116.692350404
  0
VERTEX
  8
2_FEATURE
 62
7
  6
CONTINUOUS
 10
61.1444002933
 20
116.7500542682
  0
VERTEX
  8
2_FEATURE
 62
7
  6
CONTINUOUS
 10
61.2236755488
 20
116.7854616464
  0
VERTEX
  8
2_FEATURE
 62
7
  6
CONTINUOUS
 10
61.2947364539
 20
116.7956273283
  0
SEQEND
  0
POLYLINE
  8
2_FEATURE
 62
7
  6
CONTINUOUS
 66
1
 70
0
  0
VERTEX
  8
2_FEATURE
 62
7
  6
CONTINUOUS
 10
122.0447364539
 20
111.8774826145
  0
VERTEX
  8
2_FEATURE
 62
7
  6
CONTINUOUS
 10
122.0974314924
 20
111.8779098104
  0
VERTEX
  8
2_FEATURE
 62
7
  6
CONTINUOUS
 10
122.2003186902
 20
111.8812957053
  0
VERTEX
  8
2_FEATURE
 62
7
  6
CONTINUOUS
 10
122.2961189503
 20
111.8879226828
  0
VERTEX
  8
2_FEATURE
 62
7
  6
CONTINUOUS
 10
122.380653226
 20
111.8975238776
  0
VERTEX
  8
2_FEATURE
 62
7
  6
CONTINUOUS
 10
122.4175339157
 20
111.9033247045
  0
VERTEX
  8
2_FEATURE
 62
7
  6
CONTINUOUS
 10
122.4785726076
 20
111.9166384259
  0
VERTEX
  8
2_FEATURE
 62
7
  6
CONTINUOUS
 10
122.5206301283
 20
111.9317824914
  0
VERTEX
  8
2_FEATURE
 62
7
  6
CONTINUOUS
 10
122.5420447604
 20
111.9481464395
  0
VERTEX
  8
2_FEATURE
 62
7
  6
CONTINUOUS
 10
122.5447364539
 20
111.9565782241
  0
SEQEND
  0
LINE
  8
2_FEATURE
 62
7
  6
CONTINUOUS
 10
40.9447364539
 20
111.8774826145
 11
43.7947364539
 21
111.8774826145
  0
LINE
  8
2_FEATURE
 62
7
  6
CONTINUOUS
 10
53.1947364539
 20
111.8774826145
 11
60.2947364539
 21
111.8774826145
  0
LINE
  8
2_FEATURE
 62
7
  6
CONTINUOUS
 10
69.6947364539
 20
111.8774826145
 11
76.7947364539
 21
111.8774826145
  0
LINE
  8
2_FEATURE
 62
7
  6
CONTINUOUS
 10
86.1947364539
 20
111.8774826145
 11
93.2947364539
 21
111.8774826145
  0
LINE
  8
2_FEATURE
 62
7
  6
CONTINUOUS
 10
102.6947364539
 20
111.8774826145
 11
109.7947364539
 21
111.8774826145
  0
LINE
  8
2_FEATURE
 62
7
  6
CONTINUOUS
 10
119.1947364539
 20
111.8774826145
 11
122.0447364539
 21
111.8774826145
  0
LINE
  8
1_AXIS
 62
2
  6
CENTER
 10
33.1681445783
 20
113.1813230955
 11
130.065686747
 21
113.1813230955
  0
POLYLINE
  8
2_FEATURE
 62
7
  6
CONTINUOUS
 66
1
 70
0
  0
VERTEX
  8
2_FEATURE
 62
7
  6
CONTINUOUS
 10
40.9447364539
 20
111.8774826145
  0
VERTEX
  8
2_FEATURE
 62
7
  6
CONTINUOUS
 10
40.8920414155
 20
111.8779098104
  0
VERTEX
  8
2_FEATURE
 62
7
  6
CONTINUOUS
 10
40.7891542177
 20
111.8812957053
  0
VERTEX
  8
2_FEATURE
 62
7
  6
CONTINUOUS
 10
40.6933539576
 20
111.8879226828
  0
VERTEX
  8
2_FEATURE
 62
7
  6
CONTINUOUS
 10
40.6088196818
 20
111.8975238776
  0
VERTEX
  8
2_FEATURE
 62
7
  6
CONTINUOUS
 10
40.5719389922
 20
111.9033247045
  0
VERTEX
  8
2_FEATURE
 62
7
  6
CONTINUOUS
 10
40.5109003003
 20
111.9166384259
  0
VERTEX
  8
2_FEATURE
 62
7
  6
CONTINUOUS
 10
40.4688427796
 20
111.9317824914
  0
VERTEX
  8
2_FEATURE
 62
7
  6
CONTINUOUS
 10
40.4474281475
 20
111.9481464395
  0
VERTEX
  8
2_FEATURE
 62
7
  6
CONTINUOUS
 10
40.4447364539
 20
111.9565782241
  0
SEQEND
  0
POLYLINE
  8
2_FEATURE
 62
7
  6
CONTINUOUS
 66
1
 70
0
  0
VERTEX
  8
2_FEATURE
 62
7
  6
CONTINUOUS
 10
53.1947364539
 20
111.8774826145
  0
VERTEX
  8
2_FEATURE
 62
7
  6
CONTINUOUS
 10
53.1420414155
 20
111.8779098104
  0
VERTEX
  8
2_FEATURE
 62
7
  6
CONTINUOUS
 10
53.0391542177
 20
111.8812957053
  0
VERTEX
  8
2_FEATURE
 62
7
  6
CONTINUOUS
 10
52.9433539576
 20
111.8879226828
  0
VERTEX
  8
2_FEATURE
 62
7
  6
CONTINUOUS
 10
52.8588196818
 20
111.8975238776
  0
VERTEX
  8
2_FEATURE
 62
7
  6
CONTINUOUS
 10
52.8219389922
 20
111.9033247045
  0
VERTEX
  8
2_FEATURE
 62
7
  6
CONTINUOUS
 10
52.7609003003
 20
111.9166384259
  0
VERTEX
  8
2_FEATURE
 62
7
  6
CONTINUOUS
 10
52.7188427796
 20
111.9317824914
  0
VERTEX
  8
2_FEATURE
 62
7
  6
CONTINUOUS
 10
52.6974281475
 20
111.9481464395
  0
VERTEX
  8
2_FEATURE
 62
7
  6
CONTINUOUS
 10
52.6947364539
 20
111.9565782241
  0
SEQEND
  0
POLYLINE
  8
2_FEATURE
 62
7
  6
CONTINUOUS
 66
1
 70
0
  0
VERTEX
  8
2_FEATURE
 62
7
  6
CONTINUOUS
 10
69.6947364539
 20
111.8774826145
  0
VERTEX
  8
2_FEATURE
 62
7
  6
CONTINUOUS
 10
69.6420414155
 20
111.8779098104
  0
VERTEX
  8
2_FEATURE
 62
7
  6
CONTINUOUS
 10
69.5391542177
 20
111.8812957053
  0
VERTEX
  8
2_FEATURE
 62
7
  6
CONTINUOUS
 10
69.4433539576
 20
111.8879226828
  0
VERTEX
  8
2_FEATURE
 62
7
  6
CONTINUOUS
 10
69.3588196818
 20
111.8975238776
  0
VERTEX
  8
2_FEATURE
 62
7
  6
CONTINUOUS
 10
69.3219389922
 20
111.9033247045
  0
VERTEX
  8
2_FEATURE
 62
7
  6
CONTINUOUS
 10
69.2609003003
 20
111.9166384259
  0
VERTEX
  8
2_FEATURE
 62
7
  6
CONTINUOUS
 10
69.2188427796
 20
111.9317824914
  0
VERTEX
  8
2_FEATURE
 62
7
  6
CONTINUOUS
 10
69.1974281475
 20
111.9481464395
  0
VERTEX
  8
2_FEATURE
 62
7
  6
CONTINUOUS
 10
69.1947364539
 20
111.9565782241
  0
SEQEND
  0
POLYLINE
  8
2_FEATURE
 62
7
  6
CONTINUOUS
 66
1
 70
0
  0
VERTEX
  8
2_FEATURE
 62
7
  6
CONTINUOUS
 10
86.1947364539
 20
111.8774826145
  0
VERTEX
  8
2_FEATURE
 62
7
  6
CONTINUOUS
 10
86.1420414155
 20
111.8779098104
  0
VERTEX
  8
2_FEATURE
 62
7
  6
CONTINUOUS
 10
86.0391542177
 20
111.8812957053
  0
VERTEX
  8
2_FEATURE
 62
7
  6
CONTINUOUS
 10
85.9433539576
 20
111.8879226828
  0
VERTEX
  8
2_FEATURE
 62
7
  6
CONTINUOUS
 10
85.8588196818
 20
111.8975238776
  0
VERTEX
  8
2_FEATURE
 62
7
  6
CONTINUOUS
 10
85.8219389922
 20
111.9033247045
  0
VERTEX
  8
2_FEATURE
 62
7
  6
CONTINUOUS
 10
85.7609003003
 20
111.9166384259
  0
VERTEX
  8
2_FEATURE
 62
7
  6
CONTINUOUS
 10
85.7188427796
 20
111.9317824914
  0
VERTEX
  8
2_FEATURE
 62
7
  6
CONTINUOUS
 10
85.6974281475
 20
111.9481464395
  0
VERTEX
  8
2_FEATURE
 62
7
  6
CONTINUOUS
 10
85.6947364539
 20
111.9565782241
  0
SEQEND
  0
POLYLINE
  8
2_FEATURE
 62
7
  6
CONTINUOUS
 66
1
 70
0
  0
VERTEX
  8
2_FEATURE
 62
7
  6
CONTINUOUS
 10
102.6947364539
 20
111.8774826145
  0
VERTEX
  8
2_FEATURE
 62
7
  6
CONTINUOUS
 10
102.6420414155
 20
111.8779098104
  0
VERTEX
  8
2_FEATURE
 62
7
  6
CONTINUOUS
 10
102.5391542177
 20
111.8812957053
  0
VERTEX
  8
2_FEATURE
 62
7
  6
CONTINUOUS
 10
102.4433539576
 20
111.8879226828
  0
VERTEX
  8
2_FEATURE
 62
7
  6
CONTINUOUS
 10
102.3588196818
 20
111.8975238776
  0
VERTEX
  8
2_FEATURE
 62
7
  6
CONTINUOUS
 10
102.3219389922
 20
111.9033247045
  0
VERTEX
  8
2_FEATURE
 62
7
  6
CONTINUOUS
 10
102.2609003003
 20
111.9166384259
  0
VERTEX
  8
2_FEATURE
 62
7
  6
CONTINUOUS
 10
102.2188427796
 20
111.9317824914
  0
VERTEX
  8
2_FEATURE
 62
7
  6
CONTINUOUS
 10
102.1974281475
 20
111.9481464395
  0
VERTEX
  8
2_FEATURE
 62
7
  6
CONTINUOUS
 10
102.1947364539
 20
111.9565782241
  0
SEQEND
  0
POLYLINE
  8
2_FEATURE
 62
7
  6
CONTINUOUS
 66
1
 70
0
  0
VERTEX
  8
2_FEATURE
 62
7
  6
CONTINUOUS
 10
119.1947364539
 20
111.8774826145
  0
VERTEX
  8
2_FEATURE
 62
7
  6
CONTINUOUS
 10
119.1420414155
 20
111.8779098104
  0
VERTEX
  8
2_FEATURE
 62
7
  6
CONTINUOUS
 10
119.0391542177
 20
111.8812957053
  0
VERTEX
  8
2_FEATURE
 62
7
  6
CONTINUOUS
 10
118.9433539576
 20
111.8879226828
  0
VERTEX
  8
2_FEATURE
 62
7
  6
CONTINUOUS
 10
118.8588196818
 20
111.8975238776
  0
VERTEX
  8
2_FEATURE
 62
7
  6
CONTINUOUS
 10
118.8219389922
 20
111.9033247045
  0
VERTEX
  8
2_FEATURE
 62
7
  6
CONTINUOUS
 10
118.7609003003
 20
111.9166384259
  0
VERTEX
  8
2_FEATURE
 62
7
  6
CONTINUOUS
 10
118.7188427796
 20
111.9317824914
  0
VERTEX
  8
2_FEATURE
 62
7
  6
CONTINUOUS
 10
118.6974281475
 20
111.9481464395
  0
VERTEX
  8
2_FEATURE
 62
7
  6
CONTINUOUS
 10
118.6947364539
 20
111.9565782241
  0
SEQEND
  0
POLYLINE
  8
2_FEATURE
 62
7
  6
CONTINUOUS
 66
1
 70
0
  0
VERTEX
  8
2_FEATURE
 62
7
  6
CONTINUOUS
 10
52.1947364495
 20
116.7956273303
  0
VERTEX
  8
2_FEATURE
 62
7
  6
CONTINUOUS
 10
52.2651586373
 20
116.7856434423
  0
VERTEX
  8
2_FEATURE
 62
7
  6
CONTINUOUS
 10
52.3444547315
 20
116.7504304208
  0
VERTEX
  8
2_FEATURE
 62
7
  6
CONTINUOUS
 10
52.4188718676
 20
116.692888506
  0
VERTEX
  8
2_FEATURE
 62
7
  6
CONTINUOUS
 10
52.4862466564
 20
116.6163724587
  0
VERTEX
  8
2_FEATURE
 62
7
  6
CONTINUOUS
 10
52.5453376082
 20
116.523418569
  0
VERTEX
  8
2_FEATURE
 62
7
  6
CONTINUOUS
 10
52.5716194799
 20
116.4711436581
  0
VERTEX
  8
2_FEATURE
 62
7
  6
CONTINUOUS
 10
52.6170385014
 20
116.3561216599
  0
VERTEX
  8
2_FEATURE
 62
7
  6
CONTINUOUS
 10
52.6522207089
 20
116.2291019186
  0
VERTEX
  8
2_FEATURE
 62
7
  6
CONTINUOUS
 10
52.6767986856
 20
116.092256421
  0
VERTEX
  8
2_FEATURE
 62
7
  6
CONTINUOUS
 10
52.6908019558
 20
115.9479532041
  0
VERTEX
  8
2_FEATURE
 62
7
  6
CONTINUOUS
 10
52.694736907
 20
115.8133100448
  0
SEQEND
  0
LINE
  8
2_FEATURE
 62
7
  6
CONTINUOUS
 10
44.7947364539
 20
116.7956274109
 11
52.1947364495
 21
116.7956274109
  0
LINE
  8
2_FEATURE
 62
7
  6
CONTINUOUS
 10
61.2947364539
 20
116.7956274109
 11
68.6947364495
 21
116.7956274109
  0
LINE
  8
2_FEATURE
 62
7
  6
CONTINUOUS
 10
77.7947364539
 20
116.7956274109
 11
85.1947364495
 21
116.7956274109
  0
LINE
  8
2_FEATURE
 62
7
  6
CONTINUOUS
 10
94.2947364539
 20
116.7956274109
 11
101.6947364495
 21
116.7956274109
  0
LINE
  8
2_FEATURE
 62
7
  6
CONTINUOUS
 10
110.7947364539
 20
116.7956274109
 11
118.1947364495
 21
116.7956274109
  0
POLYLINE
  8
2_FEATURE
 62
7
  6
CONTINUOUS
 66
1
 70
0
  0
VERTEX
  8
2_FEATURE
 62
7
  6
CONTINUOUS
 10
68.6947364495
 20
116.7956273306
  0
VERTEX
  8
2_FEATURE
 62
7
  6
CONTINUOUS
 10
68.7651586346
 20
116.7856434428
  0
VERTEX
  8
2_FEATURE
 62
7
  6
CONTINUOUS
 10
68.8444547439
 20
116.7504304145
  0
VERTEX
  8
2_FEATURE
 62
7
  6
CONTINUOUS
 10
68.9188718903
 20
116.6928884851
  0
VERTEX
  8
2_FEATURE
 62
7
  6
CONTINUOUS
 10
68.9862466524
 20
116.6163724563
  0
VERTEX
  8
2_FEATURE
 62
7
  6
CONTINUOUS
 10
69.0453376215
 20
116.5234185447
  0
VERTEX
  8
2_FEATURE
 62
7
  6
CONTINUOUS
 10
69.0716194883
 20
116.4711436406
  0
VERTEX
  8
2_FEATURE
 62
7
  6
CONTINUOUS
 10
69.1170385074
 20
116.35612164
  0
VERTEX
  8
2_FEATURE
 62
7
  6
CONTINUOUS
 10
69.1522207103
 20
116.2291019103
  0
VERTEX
  8
2_FEATURE
 62
7
  6
CONTINUOUS
 10
69.1767986826
 20
116.0922564441
  0
VERTEX
  8
2_FEATURE
 62
7
  6
CONTINUOUS
 10
69.1908019499
 20
115.9479532383
  0
VERTEX
  8
2_FEATURE
 62
7
  6
CONTINUOUS
 10
69.19473691
 20
115.8133097548
  0
SEQEND
  0
LINE
  8
2_FEATURE
 62
7
  6
CONTINUOUS
 10
69.0447364539
 20
148.6493086047
 11
69.0447364539
 21
155.0213230955
  0
LINE
  8
2_FEATURE
 62
7
  6
CONTINUOUS
 10
69.1947364539
 20
115.8133375331
 11
69.1947364539
 21
109.4413230955
  0
POLYLINE
  8
2_FEATURE
 62
7
  6
CONTINUOUS
 66
1
 70
0
  0
VERTEX
  8
2_FEATURE
 62
7
  6
CONTINUOUS
 10
60.7947364539
 20
111.9565782241
  0
VERTEX
  8
2_FEATURE
 62
7
  6
CONTINUOUS
 10
60.7920447604
 20
111.9481464395
  0
VERTEX
  8
2_FEATURE
 62
7
  6
CONTINUOUS
 10
60.7706301283
 20
111.9317824914
  0
VERTEX
  8
2_FEATURE
 62
7
  6
CONTINUOUS
 10
60.7285726076
 20
111.9166384259
  0
VERTEX
  8
2_FEATURE
 62
7
  6
CONTINUOUS
 10
60.6675339157
 20
111.9033247045
  0
VERTEX
  8
2_FEATURE
 62
7
  6
CONTINUOUS
 10
60.630653226
 20
111.8975238776
  0
VERTEX
  8
2_FEATURE
 62
7
  6
CONTINUOUS
 10
60.5461189503
 20
111.8879226828
  0
VERTEX
  8
2_FEATURE
 62
7
  6
CONTINUOUS
 10
60.4503186902
 20
111.8812957053
  0
VERTEX
  8
2_FEATURE
 62
7
  6
CONTINUOUS
 10
60.3474314924
 20
111.8779098104
  0
VERTEX
  8
2_FEATURE
 62
7
  6
CONTINUOUS
 10
60.2947364539
 20
111.8774826145
  0
SEQEND
  0
LINE
  8
0
 62
7
  6
CONTINUOUS
 10
40.2447364539
 20
117.7173447129
 11
40.4447364539
 21
117.7173447129
  0
LINE
  8
0
 62
7
  6
CONTINUOUS
 10
122.5447364539
 20
117.7173447129
 11
122.7447364539
 21
117.7173447129
  0
POLYLINE
  8
2_FEATURE
 62
7
  6
CONTINUOUS
 66
1
 70
0
  0
VERTEX
  8
2_FEATURE
 62
7
  6
CONTINUOUS
 10
85.1947364495
 20
116.7956273303
  0
VERTEX
  8
2_FEATURE
 62
7
  6
CONTINUOUS
 10
85.2651586373
 20
116.7856434423
  0
VERTEX
  8
2_FEATURE
 62
7
  6
CONTINUOUS
 10
85.3444547315
 20
116.7504304208
  0
VERTEX
  8
2_FEATURE
 62
7
  6
CONTINUOUS
 10
85.4188718676
 20
116.692888506
  0
VERTEX
  8
2_FEATURE
 62
7
  6
CONTINUOUS
 10
85.4862466564
 20
116.6163724587
  0
VERTEX
  8
2_FEATURE
 62
7
  6
CONTINUOUS
 10
85.5453376082
 20
116.523418569
  0
VERTEX
  8
2_FEATURE
 62
7
  6
CONTINUOUS
 10
85.5716194799
 20
116.4711436581
  0
VERTEX
  8
2_FEATURE
 62
7
  6
CONTINUOUS
 10
85.6170385014
 20
116.3561216599
  0
VERTEX
  8
2_FEATURE
 62
7
  6
CONTINUOUS
 10
85.6522207089
 20
116.2291019186
  0
VERTEX
  8
2_FEATURE
 62
7
  6
CONTINUOUS
 10
85.6767986856
 20
116.092256421
  0
VERTEX
  8
2_FEATURE
 62
7
  6
CONTINUOUS
 10
85.6908019558
 20
115.9479532041
  0
VERTEX
  8
2_FEATURE
 62
7
  6
CONTINUOUS
 10
85.694736907
 20
115.8133100448
  0
SEQEND
  0
POLYLINE
  8
2_FEATURE
 62
7
  6
CONTINUOUS
 66
1
 70
0
  0
VERTEX
  8
2_FEATURE
 62
7
  6
CONTINUOUS
 10
101.6947364495
 20
116.7956273306
  0
VERTEX
  8
2_FEATURE
 62
7
  6
CONTINUOUS
 10
101.7651586346
 20
116.7856434428
  0
VERTEX
  8
2_FEATURE
 62
7
  6
CONTINUOUS
 10
101.8444547439
 20
116.7504304145
  0
VERTEX
  8
2_FEATURE
 62
7
  6
CONTINUOUS
 10
101.9188718903
 20
116.6928884851
  0
VERTEX
  8
2_FEATURE
 62
7
  6
CONTINUOUS
 10
101.9862466524
 20
116.6163724563
  0
VERTEX
  8
2_FEATURE
 62
7
  6
CONTINUOUS
 10
102.0453376215
 20
116.5234185447
  0
VERTEX
  8
2_FEATURE
 62
7
  6
CONTINUOUS
 10
102.0716194883
 20
116.4711436406
  0
VERTEX
  8
2_FEATURE
 62
7
  6
CONTINUOUS
 10
102.1170385074
 20
116.35612164
  0
VERTEX
  8
2_FEATURE
 62
7
  6
CONTINUOUS
 10
102.1522207103
 20
116.2291019103
  0
VERTEX
  8
2_FEATURE
 62
7
  6
CONTINUOUS
 10
102.1767986826
 20
116.0922564441
  0
VERTEX
  8
2_FEATURE
 62
7
  6
CONTINUOUS
 10
102.1908019499
 20
115.9479532383
  0
VERTEX
  8
2_FEATURE
 62
7
  6
CONTINUOUS
 10
102.19473691
 20
115.8133097548
  0
SEQEND
  0
POLYLINE
  8
2_FEATURE
 62
7
  6
CONTINUOUS
 66
1
 70
0
  0
VERTEX
  8
2_FEATURE
 62
7
  6
CONTINUOUS
 10
118.1947364495
 20
116.7956273303
  0
VERTEX
  8
2_FEATURE
 62
7
  6
CONTINUOUS
 10
118.2651586373
 20
116.7856434423
  0
VERTEX
  8
2_FEATURE
 62
7
  6
CONTINUOUS
 10
118.3444547315
 20
116.7504304208
  0
VERTEX
  8
2_FEATURE
 62
7
  6
CONTINUOUS
 10
118.4188718676
 20
116.692888506
  0
VERTEX
  8
2_FEATURE
 62
7
  6
CONTINUOUS
 10
118.4862466564
 20
116.6163724587
  0
VERTEX
  8
2_FEATURE
 62
7
  6
CONTINUOUS
 10
118.5453376082
 20
116.523418569
  0
VERTEX
  8
2_FEATURE
 62
7
  6
CONTINUOUS
 10
118.5716194799
 20
116.4711436581
  0
VERTEX
  8
2_FEATURE
 62
7
  6
CONTINUOUS
 10
118.6170385014
 20
116.3561216599
  0
VERTEX
  8
2_FEATURE
 62
7
  6
CONTINUOUS
 10
118.6522207089
 20
116.2291019186
  0
VERTEX
  8
2_FEATURE
 62
7
  6
CONTINUOUS
 10
118.6767986856
 20
116.092256421
  0
VERTEX
  8
2_FEATURE
 62
7
  6
CONTINUOUS
 10
118.6908019558
 20
115.9479532041
  0
VERTEX
  8
2_FEATURE
 62
7
  6
CONTINUOUS
 10
118.694736907
 20
115.8133100448
  0
SEQEND
  0
LINE
  8
2_FEATURE
 62
7
  6
CONTINUOUS
 10
77.2947364539
 20
109.4413230955
 11
77.2947364539
 21
115.8133375859
  0
LINE
  8
2_FEATURE
 62
7
  6
CONTINUOUS
 10
77.4447364539
 20
155.0213230955
 11
77.4447364539
 21
148.6493086578
  0
POLYLINE
  8
2_FEATURE
 62
7
  6
CONTINUOUS
 66
1
 70
0
  0
VERTEX
  8
2_FEATURE
 62
7
  6
CONTINUOUS
 10
77.4447369038
 20
148.6493364195
  0
VERTEX
  8
2_FEATURE
 62
7
  6
CONTINUOUS
 10
77.4408787442
 20
148.5159794432
  0
VERTEX
  8
2_FEATURE
 62
7
  6
CONTINUOUS
 10
77.4269591846
 20
148.3715682008
  0
VERTEX
  8
2_FEATURE
 62
7
  6
CONTINUOUS
 10
77.4024625991
 20
148.2346161806
  0
VERTEX
  8
2_FEATURE
 62
7
  6
CONTINUOUS
 10
77.3673591149
 20
148.1074892475
  0
VERTEX
  8
2_FEATURE
 62
7
  6
CONTINUOUS
 10
77.3220157455
 20
147.9923566891
  0
VERTEX
  8
2_FEATURE
 62
7
  6
CONTINUOUS
 10
77.2957706447
 20
147.9400249682
  0
VERTEX
  8
2_FEATURE
 62
7
  6
CONTINUOUS
 10
77.2367490285
 20
147.8469489196
  0
VERTEX
  8
2_FEATURE
 62
7
  6
CONTINUOUS
 10
77.1694382789
 20
147.7702959654
  0
VERTEX
  8
2_FEATURE
 62
7
  6
CONTINUOUS
 10
77.0950733858
 20
147.7125925088
  0
VERTEX
  8
2_FEATURE
 62
7
  6
CONTINUOUS
 10
77.0158008924
 20
147.6771855478
  0
VERTEX
  8
2_FEATURE
 62
7
  6
CONTINUOUS
 10
76.9447364539
 20
147.6670188616
  0
SEQEND
  0
POLYLINE
  8
2_FEATURE
 62
7
  6
CONTINUOUS
 66
1
 70
0
  0
VERTEX
  8
2_FEATURE
 62
7
  6
CONTINUOUS
 10
77.2947362461
 20
115.8133005284
  0
VERTEX
  8
2_FEATURE
 62
7
  6
CONTINUOUS
 10
77.29859447
 20
115.9466705907
  0
VERTEX
  8
2_FEATURE
 62
7
  6
CONTINUOUS
 10
77.3125142014
 20
116.0910827872
  0
VERTEX
  8
2_FEATURE
 62
7
  6
CONTINUOUS
 10
77.3370106692
 20
116.2280320083
  0
VERTEX
  8
2_FEATURE
 62
7
  6
CONTINUOUS
 10
77.37211384
 20
116.3551570353
  0
VERTEX
  8
2_FEATURE
 62
7
  6
CONTINUOUS
 10
77.4174573341
 20
116.4702897921
  0
VERTEX
  8
2_FEATURE
 62
7
  6
CONTINUOUS
 10
77.4437023103
 20
116.5226213834
  0
VERTEX
  8
2_FEATURE
 62
7
  6
CONTINUOUS
 10
77.5027240199
 20
116.6156974458
  0
VERTEX
  8
2_FEATURE
 62
7
  6
CONTINUOUS
 10
77.5700346696
 20
116.6923504251
  0
VERTEX
  8
2_FEATURE
 62
7
  6
CONTINUOUS
 10
77.644400307
 20
116.7500542756
  0
VERTEX
  8
2_FEATURE
 62
7
  6
CONTINUOUS
 10
77.7236755453
 20
116.7854616452
  0
VERTEX
  8
2_FEATURE
 62
7
  6
CONTINUOUS
 10
77.7947364539
 20
116.7956273278
  0
SEQEND
  0
POLYLINE
  8
2_FEATURE
 62
7
  6
CONTINUOUS
 66
1
 70
0
  0
VERTEX
  8
2_FEATURE
 62
7
  6
CONTINUOUS
 10
69.0447364539
 20
152.5060679669
  0
VERTEX
  8
2_FEATURE
 62
7
  6
CONTINUOUS
 10
69.0420447604
 20
152.5144997515
  0
VERTEX
  8
2_FEATURE
 62
7
  6
CONTINUOUS
 10
69.0206301283
 20
152.5308636996
  0
VERTEX
  8
2_FEATURE
 62
7
  6
CONTINUOUS
 10
68.9785726076
 20
152.5460077651
  0
VERTEX
  8
2_FEATURE
 62
7
  6
CONTINUOUS
 10
68.9175339157
 20
152.5593214865
  0
VERTEX
  8
2_FEATURE
 62
7
  6
CONTINUOUS
 10
68.880653226
 20
152.5651223134
  0
VERTEX
  8
2_FEATURE
 62
7
  6
CONTINUOUS
 10
68.7961189503
 20
152.5747235082
  0
VERTEX
  8
2_FEATURE
 62
7
  6
CONTINUOUS
 10
68.7003186902
 20
152.5813504857
  0
VERTEX
  8
2_FEATURE
 62
7
  6
CONTINUOUS
 10
68.5974314924
 20
152.5847363806
  0
VERTEX
  8
2_FEATURE
 62
7
  6
CONTINUOUS
 10
68.5447364539
 20
152.5851635765
  0
SEQEND
  0
LINE
  8
1_AXIS
 62
2
  6
CENTER
 10
81.4947364539
 20
159.2269879518
 11
81.4947364539
 21
134.2314230955
  0
LINE
  8
1_AXIS
 62
2
  6
CONTINUOUS
 10
81.4947364539
 20
133.1113230955
 11
81.4947364539
 21
131.3513230955
  0
LINE
  8
1_AXIS
 62
2
  6
CENTER
 10
81.4947364539
 20
104.4676626506
 11
81.4947364539
 21
130.2312230955
  0
LINE
  8
1_AXIS
 62
2
  6
CENTER
 10
132.5084819277
 20
132.2313230955
 11
83.4948364539
 21
132.2313230955
  0
LINE
  8
1_AXIS
 62
2
  6
CONTINUOUS
 10
82.3747364539
 20
132.2313230955
 11
80.6147364539
 21
132.2313230955
  0
LINE
  8
1_AXIS
 62
2
  6
CENTER
 10
35.2038072289
 20
132.2313230955
 11
79.4946364539
 21
132.2313230955
  0
POLYLINE
  8
2_FEATURE
 62
7
  6
CONTINUOUS
 66
1
 70
0
  0
VERTEX
  8
2_FEATURE
 62
7
  6
CONTINUOUS
 10
77.2947364539
 20
111.9565782241
  0
VERTEX
  8
2_FEATURE
 62
7
  6
CONTINUOUS
 10
77.2920447604
 20
111.9481464395
  0
VERTEX
  8
2_FEATURE
 62
7
  6
CONTINUOUS
 10
77.2706301283
 20
111.9317824914
  0
VERTEX
  8
2_FEATURE
 62
7
  6
CONTINUOUS
 10
77.2285726076
 20
111.9166384259
  0
VERTEX
  8
2_FEATURE
 62
7
  6
CONTINUOUS
 10
77.1675339157
 20
111.9033247045
  0
VERTEX
  8
2_FEATURE
 62
7
  6
CONTINUOUS
 10
77.130653226
 20
111.8975238776
  0
VERTEX
  8
2_FEATURE
 62
7
  6
CONTINUOUS
 10
77.0461189503
 20
111.8879226828
  0
VERTEX
  8
2_FEATURE
 62
7
  6
CONTINUOUS
 10
76.9503186902
 20
111.8812957053
  0
VERTEX
  8
2_FEATURE
 62
7
  6
CONTINUOUS
 10
76.8474314924
 20
111.8779098104
  0
VERTEX
  8
2_FEATURE
 62
7
  6
CONTINUOUS
 10
76.7947364539
 20
111.8774826145
  0
SEQEND
  0
LINE
  8
2_FEATURE
 62
7
  6
CONTINUOUS
 10
85.5447364539
 20
148.649308605
 11
85.5447364539
 21
155.0213230955
  0
LINE
  8
2_FEATURE
 62
7
  6
CONTINUOUS
 10
85.6947364539
 20
115.8133375331
 11
85.6947364539
 21
109.4413230955
  0
POLYLINE
  8
2_FEATURE
 62
7
  6
CONTINUOUS
 66
1
 70
0
  0
VERTEX
  8
2_FEATURE
 62
7
  6
CONTINUOUS
 10
93.9447364539
 20
152.5060679669
  0
VERTEX
  8
2_FEATURE
 62
7
  6
CONTINUOUS
 10
93.9474281475
 20
152.5144997515
  0
VERTEX
  8
2_FEATURE
 62
7
  6
CONTINUOUS
 10
93.9688427796
 20
152.5308636996
  0
VERTEX
  8
2_FEATURE
 62
7
  6
CONTINUOUS
 10
94.0109003003
 20
152.5460077651
  0
VERTEX
  8
2_FEATURE
 62
7
  6
CONTINUOUS
 10
94.0719389922
 20
152.5593214865
  0
VERTEX
  8
2_FEATURE
 62
7
  6
CONTINUOUS
 10
94.1088196818
 20
152.5651223134
  0
VERTEX
  8
2_FEATURE
 62
7
  6
CONTINUOUS
 10
94.1933539576
 20
152.5747235082
  0
VERTEX
  8
2_FEATURE
 62
7
  6
CONTINUOUS
 10
94.2891542177
 20
152.5813504857
  0
VERTEX
  8
2_FEATURE
 62
7
  6
CONTINUOUS
 10
94.3920414155
 20
152.5847363806
  0
VERTEX
  8
2_FEATURE
 62
7
  6
CONTINUOUS
 10
94.4447364539
 20
152.5851635765
  0
SEQEND
  0
LINE
  8
2_FEATURE
 62
7
  6
CONTINUOUS
 10
93.7947364539
 20
109.4413230955
 11
93.7947364539
 21
115.8133375862
  0
LINE
  8
2_FEATURE
 62
7
  6
CONTINUOUS
 10
93.9447364539
 20
155.0213230955
 11
93.9447364539
 21
148.6493086578
  0
POLYLINE
  8
2_FEATURE
 62
7
  6
CONTINUOUS
 66
1
 70
0
  0
VERTEX
  8
2_FEATURE
 62
7
  6
CONTINUOUS
 10
93.9447369065
 20
148.6493366996
  0
VERTEX
  8
2_FEATURE
 62
7
  6
CONTINUOUS
 10
93.9408787389
 20
148.515979414
  0
VERTEX
  8
2_FEATURE
 62
7
  6
CONTINUOUS
 10
93.9269591817
 20
148.3715681776
  0
VERTEX
  8
2_FEATURE
 62
7
  6
CONTINUOUS
 10
93.9024626007
 20
148.2346161887
  0
VERTEX
  8
2_FEATURE
 62
7
  6
CONTINUOUS
 10
93.8673591214
 20
148.1074892684
  0
VERTEX
  8
2_FEATURE
 62
7
  6
CONTINUOUS
 10
93.8220157548
 20
147.9923567087
  0
VERTEX
  8
2_FEATURE
 62
7
  6
CONTINUOUS
 10
93.7957706599
 20
147.9400249962
  0
VERTEX
  8
2_FEATURE
 62
7
  6
CONTINUOUS
 10
93.7367490325
 20
147.8469489333
  0
VERTEX
  8
2_FEATURE
 62
7
  6
CONTINUOUS
 10
93.6694383033
 20
147.7702959874
  0
VERTEX
  8
2_FEATURE
 62
7
  6
CONTINUOUS
 10
93.5950733974
 20
147.7125925145
  0
VERTEX
  8
2_FEATURE
 62
7
  6
CONTINUOUS
 10
93.5158008893
 20
147.6771855472
  0
VERTEX
  8
2_FEATURE
 62
7
  6
CONTINUOUS
 10
93.4447364539
 20
147.6670188612
  0
SEQEND
  0
POLYLINE
  8
2_FEATURE
 62
7
  6
CONTINUOUS
 66
1
 70
0
  0
VERTEX
  8
2_FEATURE
 62
7
  6
CONTINUOUS
 10
93.7947362453
 20
115.8133003266
  0
VERTEX
  8
2_FEATURE
 62
7
  6
CONTINUOUS
 10
93.7985944712
 20
115.9466706412
  0
VERTEX
  8
2_FEATURE
 62
7
  6
CONTINUOUS
 10
93.8125142049
 20
116.0910828452
  0
VERTEX
  8
2_FEATURE
 62
7
  6
CONTINUOUS
 10
93.8370106695
 20
116.2280320187
  0
VERTEX
  8
2_FEATURE
 62
7
  6
CONTINUOUS
 10
93.872113836
 20
116.3551570247
  0
VERTEX
  8
2_FEATURE
 62
7
  6
CONTINUOUS
 10
93.9174573283
 20
116.4702897806
  0
VERTEX
  8
2_FEATURE
 62
7
  6
CONTINUOUS
 10
93.9437022994
 20
116.5226213639
  0
VERTEX
  8
2_FEATURE
 62
7
  6
CONTINUOUS
 10
94.0027240128
 20
116.6156974335
  0
VERTEX
  8
2_FEATURE
 62
7
  6
CONTINUOUS
 10
94.0700346472
 20
116.692350404
  0
VERTEX
  8
2_FEATURE
 62
7
  6
CONTINUOUS
 10
94.1444002933
 20
116.7500542682
  0
VERTEX
  8
2_FEATURE
 62
7
  6
CONTINUOUS
 10
94.2236755488
 20
116.7854616464
  0
VERTEX
  8
2_FEATURE
 62
7
  6
CONTINUOUS
 10
94.2947364539
 20
116.7956273283
  0
SEQEND
  0
POLYLINE
  8
2_FEATURE
 62
7
  6
CONTINUOUS
 66
1
 70
0
  0
VERTEX
  8
2_FEATURE
 62
7
  6
CONTINUOUS
 10
53.0447364924
 20
147.6670188635
  0
VERTEX
  8
2_FEATURE
 62
7
  6
CONTINUOUS
 10
52.9743179917
 20
147.6770017031
  0
VERTEX
  8
2_FEATURE
 62
7
  6
CONTINUOUS
 10
52.8950190695
 20
147.712215112
  0
VERTEX
  8
2_FEATURE
 62
7
  6
CONTINUOUS
 10
52.8206011502
 20
147.7697574156
  0
VERTEX
  8
2_FEATURE
 62
7
  6
CONTINUOUS
 10
52.7532264384
 20
147.8462735041
  0
VERTEX
  8
2_FEATURE
 62
7
  6
CONTINUOUS
 10
52.6941353668
 20
147.9392274216
  0
VERTEX
  8
2_FEATURE
 62
7
  6
CONTINUOUS
 10
52.6678536139
 20
147.9915022146
  0
VERTEX
  8
2_FEATURE
 62
7
  6
CONTINUOUS
 10
52.6224344602
 20
148.1065244408
  0
VERTEX
  8
2_FEATURE
 62
7
  6
CONTINUOUS
 10
52.5872525633
 20
148.2335423121
  0
VERTEX
  8
2_FEATURE
 62
7
  6
CONTINUOUS
 10
52.5626747131
 20
148.3703849975
  0
VERTEX
  8
2_FEATURE
 62
7
  6
CONTINUOUS
 10
52.5486712773
 20
148.514689154
  0
VERTEX
  8
2_FEATURE
 62
7
  6
CONTINUOUS
 10
52.5447362424
 20
148.6493455509
  0
SEQEND
  0
LINE
  8
2_FEATURE
 62
7
  6
CONTINUOUS
 10
122.0447364539
 20
147.6670187801
 11
119.0447364883
 21
147.6670187801
  0
LINE
  8
2_FEATURE
 62
7
  6
CONTINUOUS
 10
109.9447364539
 20
147.6670187801
 11
102.5447364921
 21
147.6670187801
  0
LINE
  8
2_FEATURE
 62
7
  6
CONTINUOUS
 10
93.4447364539
 20
147.6670187801
 11
86.0447364923
 21
147.6670187801
  0
LINE
  8
2_FEATURE
 62
7
  6
CONTINUOUS
 10
76.9447364539
 20
147.6670187801
 11
69.5447364921
 21
147.6670187801
  0
LINE
  8
2_FEATURE
 62
7
  6
CONTINUOUS
 10
60.4447364539
 20
147.6670187801
 11
53.0447364923
 21
147.6670187801
  0
LINE
  8
2_FEATURE
 62
7
  6
CONTINUOUS
 10
43.9447364539
 20
147.6670187801
 11
40.9447364539
 21
147.6670187801
  0
POLYLINE
  8
2_FEATURE
 62
7
  6
CONTINUOUS
 66
1
 70
0
  0
VERTEX
  8
2_FEATURE
 62
7
  6
CONTINUOUS
 10
69.5447364922
 20
147.667018863
  0
VERTEX
  8
2_FEATURE
 62
7
  6
CONTINUOUS
 10
69.4743179948
 20
147.677001702
  0
VERTEX
  8
2_FEATURE
 62
7
  6
CONTINUOUS
 10
69.3950190552
 20
147.7122151195
  0
VERTEX
  8
2_FEATURE
 62
7
  6
CONTINUOUS
 10
69.3206011261
 20
147.769757438
  0
VERTEX
  8
2_FEATURE
 62
7
  6
CONTINUOUS
 10
69.2532264256
 20
147.8462735255
  0
VERTEX
  8
2_FEATURE
 62
7
  6
CONTINUOUS
 10
69.1941353542
 20
147.9392274445
  0
VERTEX
  8
2_FEATURE
 62
7
  6
CONTINUOUS
 10
69.167853607
 20
147.9915022285
  0
VERTEX
  8
2_FEATURE
 62
7
  6
CONTINUOUS
 10
69.1224344556
 20
148.1065244534
  0
VERTEX
  8
2_FEATURE
 62
7
  6
CONTINUOUS
 10
69.0872525637
 20
148.2335423027
  0
VERTEX
  8
2_FEATURE
 62
7
  6
CONTINUOUS
 10
69.062674717
 20
148.3703849373
  0
VERTEX
  8
2_FEATURE
 62
7
  6
CONTINUOUS
 10
69.0486712791
 20
148.5146891009
  0
VERTEX
  8
2_FEATURE
 62
7
  6
CONTINUOUS
 10
69.0447362415
 20
148.6493457497
  0
SEQEND
  0
POLYLINE
  8
2_FEATURE
 62
7
  6
CONTINUOUS
 66
1
 70
0
  0
VERTEX
  8
2_FEATURE
 62
7
  6
CONTINUOUS
 10
86.0447364924
 20
147.6670188635
  0
VERTEX
  8
2_FEATURE
 62
7
  6
CONTINUOUS
 10
85.9743179917
 20
147.6770017031
  0
VERTEX
  8
2_FEATURE
 62
7
  6
CONTINUOUS
 10
85.8950190695
 20
147.712215112
  0
VERTEX
  8
2_FEATURE
 62
7
  6
CONTINUOUS
 10
85.8206011502
 20
147.7697574156
  0
VERTEX
  8
2_FEATURE
 62
7
  6
CONTINUOUS
 10
85.7532264384
 20
147.8462735041
  0
VERTEX
  8
2_FEATURE
 62
7
  6
CONTINUOUS
 10
85.6941353668
 20
147.9392274216
  0
VERTEX
  8
2_FEATURE
 62
7
  6
CONTINUOUS
 10
85.6678536139
 20
147.9915022146
  0
VERTEX
  8
2_FEATURE
 62
7
  6
CONTINUOUS
 10
85.6224344602
 20
148.1065244408
  0
VERTEX
  8
2_FEATURE
 62
7
  6
CONTINUOUS
 10
85.5872525633
 20
148.2335423121
  0
VERTEX
  8
2_FEATURE
 62
7
  6
CONTINUOUS
 10
85.5626747131
 20
148.3703849975
  0
VERTEX
  8
2_FEATURE
 62
7
  6
CONTINUOUS
 10
85.5486712773
 20
148.514689154
  0
VERTEX
  8
2_FEATURE
 62
7
  6
CONTINUOUS
 10
85.5447362424
 20
148.6493455509
  0
SEQEND
  0
POLYLINE
  8
2_FEATURE
 62
7
  6
CONTINUOUS
 66
1
 70
0
  0
VERTEX
  8
2_FEATURE
 62
7
  6
CONTINUOUS
 10
93.7947364539
 20
111.9565782241
  0
VERTEX
  8
2_FEATURE
 62
7
  6
CONTINUOUS
 10
93.7920447604
 20
111.9481464395
  0
VERTEX
  8
2_FEATURE
 62
7
  6
CONTINUOUS
 10
93.7706301283
 20
111.9317824914
  0
VERTEX
  8
2_FEATURE
 62
7
  6
CONTINUOUS
 10
93.7285726076
 20
111.9166384259
  0
VERTEX
  8
2_FEATURE
 62
7
  6
CONTINUOUS
 10
93.6675339157
 20
111.9033247045
  0
VERTEX
  8
2_FEATURE
 62
7
  6
CONTINUOUS
 10
93.630653226
 20
111.8975238776
  0
VERTEX
  8
2_FEATURE
 62
7
  6
CONTINUOUS
 10
93.5461189503
 20
111.8879226828
  0
VERTEX
  8
2_FEATURE
 62
7
  6
CONTINUOUS
 10
93.4503186902
 20
111.8812957053
  0
VERTEX
  8
2_FEATURE
 62
7
  6
CONTINUOUS
 10
93.3474314924
 20
111.8779098104
  0
VERTEX
  8
2_FEATURE
 62
7
  6
CONTINUOUS
 10
93.2947364539
 20
111.8774826145
  0
SEQEND
  0
LINE
  8
1_AXIS
 62
2
  6
CENTER
 10
37.4430361446
 20
151.2813230955
 11
127.6228915663
 21
151.2813230955
  0
POLYLINE
  8
2_FEATURE
 62
7
  6
CONTINUOUS
 66
1
 70
0
  0
VERTEX
  8
2_FEATURE
 62
7
  6
CONTINUOUS
 10
102.5447364922
 20
147.667018863
  0
VERTEX
  8
2_FEATURE
 62
7
  6
CONTINUOUS
 10
102.4743179948
 20
147.677001702
  0
VERTEX
  8
2_FEATURE
 62
7
  6
CONTINUOUS
 10
102.3950190552
 20
147.7122151195
  0
VERTEX
  8
2_FEATURE
 62
7
  6
CONTINUOUS
 10
102.3206011261
 20
147.769757438
  0
VERTEX
  8
2_FEATURE
 62
7
  6
CONTINUOUS
 10
102.2532264256
 20
147.8462735255
  0
VERTEX
  8
2_FEATURE
 62
7
  6
CONTINUOUS
 10
102.1941353542
 20
147.9392274445
  0
VERTEX
  8
2_FEATURE
 62
7
  6
CONTINUOUS
 10
102.167853607
 20
147.9915022285
  0
VERTEX
  8
2_FEATURE
 62
7
  6
CONTINUOUS
 10
102.1224344556
 20
148.1065244534
  0
VERTEX
  8
2_FEATURE
 62
7
  6
CONTINUOUS
 10
102.0872525637
 20
148.2335423027
  0
VERTEX
  8
2_FEATURE
 62
7
  6
CONTINUOUS
 10
102.062674717
 20
148.3703849373
  0
VERTEX
  8
2_FEATURE
 62
7
  6
CONTINUOUS
 10
102.0486712791
 20
148.5146891009
  0
VERTEX
  8
2_FEATURE
 62
7
  6
CONTINUOUS
 10
102.0447362415
 20
148.6493457497
  0
SEQEND
  0
LINE
  8
2_FEATURE
 62
7
  6
CONTINUOUS
 10
102.0447364539
 20
148.6493086047
 11
102.0447364539
 21
155.0213230955
  0
LINE
  8
2_FEATURE
 62
7
  6
CONTINUOUS
 10
102.1947364539
 20
115.8133375331
 11
102.1947364539
 21
109.4413230955
  0
POLYLINE
  8
2_FEATURE
 62
7
  6
CONTINUOUS
 66
1
 70
0
  0
VERTEX
  8
2_FEATURE
 62
7
  6
CONTINUOUS
 10
110.9447364539
 20
152.5851635765
  0
VERTEX
  8
2_FEATURE
 62
7
  6
CONTINUOUS
 10
110.8920414155
 20
152.5847363806
  0
VERTEX
  8
2_FEATURE
 62
7
  6
CONTINUOUS
 10
110.7891542177
 20
152.5813504857
  0
VERTEX
  8
2_FEATURE
 62
7
  6
CONTINUOUS
 10
110.6933539576
 20
152.5747235082
  0
VERTEX
  8
2_FEATURE
 62
7
  6
CONTINUOUS
 10
110.6088196818
 20
152.5651223134
  0
VERTEX
  8
2_FEATURE
 62
7
  6
CONTINUOUS
 10
110.5719389922
 20
152.5593214865
  0
VERTEX
  8
2_FEATURE
 62
7
  6
CONTINUOUS
 10
110.5109003003
 20
152.5460077651
  0
VERTEX
  8
2_FEATURE
 62
7
  6
CONTINUOUS
 10
110.4688427796
 20
152.5308636996
  0
VERTEX
  8
2_FEATURE
 62
7
  6
CONTINUOUS
 10
110.4474281475
 20
152.5144997515
  0
VERTEX
  8
2_FEATURE
 62
7
  6
CONTINUOUS
 10
110.4447364539
 20
152.5060679669
  0
SEQEND
  0
POLYLINE
  8
2_FEATURE
 62
7
  6
CONTINUOUS
 66
1
 70
0
  0
VERTEX
  8
2_FEATURE
 62
7
  6
CONTINUOUS
 10
77.9447364539
 20
152.5851635765
  0
VERTEX
  8
2_FEATURE
 62
7
  6
CONTINUOUS
 10
77.8920414155
 20
152.5847363806
  0
VERTEX
  8
2_FEATURE
 62
7
  6
CONTINUOUS
 10
77.7891542177
 20
152.5813504857
  0
VERTEX
  8
2_FEATURE
 62
7
  6
CONTINUOUS
 10
77.6933539576
 20
152.5747235082
  0
VERTEX
  8
2_FEATURE
 62
7
  6
CONTINUOUS
 10
77.6088196818
 20
152.5651223134
  0
VERTEX
  8
2_FEATURE
 62
7
  6
CONTINUOUS
 10
77.5719389922
 20
152.5593214865
  0
VERTEX
  8
2_FEATURE
 62
7
  6
CONTINUOUS
 10
77.5109003003
 20
152.5460077651
  0
VERTEX
  8
2_FEATURE
 62
7
  6
CONTINUOUS
 10
77.4688427796
 20
152.5308636996
  0
VERTEX
  8
2_FEATURE
 62
7
  6
CONTINUOUS
 10
77.4474281475
 20
152.5144997515
  0
VERTEX
  8
2_FEATURE
 62
7
  6
CONTINUOUS
 10
77.4447364539
 20
152.5060679669
  0
SEQEND
  0
LINE
  8
2_FEATURE
 62
7
  6
CONTINUOUS
 10
44.9447364539
 20
152.5851635765
 11
52.0447364539
 21
152.5851635765
  0
LINE
  8
2_FEATURE
 62
7
  6
CONTINUOUS
 10
61.4447364539
 20
152.5851635765
 11
68.5447364539
 21
152.5851635765
  0
LINE
  8
2_FEATURE
 62
7
  6
CONTINUOUS
 10
77.9447364539
 20
152.5851635765
 11
85.0447364539
 21
152.5851635765
  0
LINE
  8
2_FEATURE
 62
7
  6
CONTINUOUS
 10
94.4447364539
 20
152.5851635765
 11
101.5447364539
 21
152.5851635765
  0
LINE
  8
2_FEATURE
 62
7
  6
CONTINUOUS
 10
110.9447364539
 20
152.5851635765
 11
118.0447364539
 21
152.5851635765
  0
POLYLINE
  8
2_FEATURE
 62
7
  6
CONTINUOUS
 66
1
 70
0
  0
VERTEX
  8
2_FEATURE
 62
7
  6
CONTINUOUS
 10
52.0447364539
 20
152.5851635765
  0
VERTEX
  8
2_FEATURE
 62
7
  6
CONTINUOUS
 10
52.0974314924
 20
152.5847363806
  0
VERTEX
  8
2_FEATURE
 62
7
  6
CONTINUOUS
 10
52.2003186902
 20
152.5813504857
  0
VERTEX
  8
2_FEATURE
 62
7
  6
CONTINUOUS
 10
52.2961189503
 20
152.5747235082
  0
VERTEX
  8
2_FEATURE
 62
7
  6
CONTINUOUS
 10
52.380653226
 20
152.5651223134
  0
VERTEX
  8
2_FEATURE
 62
7
  6
CONTINUOUS
 10
52.4175339157
 20
152.5593214865
  0
VERTEX
  8
2_FEATURE
 62
7
  6
CONTINUOUS
 10
52.4785726076
 20
152.5460077651
  0
VERTEX
  8
2_FEATURE
 62
7
  6
CONTINUOUS
 10
52.5206301283
 20
152.5308636996
  0
VERTEX
  8
2_FEATURE
 62
7
  6
CONTINUOUS
 10
52.5420447604
 20
152.5144997515
  0
VERTEX
  8
2_FEATURE
 62
7
  6
CONTINUOUS
 10
52.5447364539
 20
152.5060679669
  0
SEQEND
  0
POLYLINE
  8
2_FEATURE
 62
7
  6
CONTINUOUS
 66
1
 70
0
  0
VERTEX
  8
2_FEATURE
 62
7
  6
CONTINUOUS
 10
85.0447364539
 20
152.5851635765
  0
VERTEX
  8
2_FEATURE
 62
7
  6
CONTINUOUS
 10
85.0974314924
 20
152.5847363806
  0
VERTEX
  8
2_FEATURE
 62
7
  6
CONTINUOUS
 10
85.2003186902
 20
152.5813504857
  0
VERTEX
  8
2_FEATURE
 62
7
  6
CONTINUOUS
 10
85.2961189503
 20
152.5747235082
  0
VERTEX
  8
2_FEATURE
 62
7
  6
CONTINUOUS
 10
85.380653226
 20
152.5651223134
  0
VERTEX
  8
2_FEATURE
 62
7
  6
CONTINUOUS
 10
85.4175339157
 20
152.5593214865
  0
VERTEX
  8
2_FEATURE
 62
7
  6
CONTINUOUS
 10
85.4785726076
 20
152.5460077651
  0
VERTEX
  8
2_FEATURE
 62
7
  6
CONTINUOUS
 10
85.5206301283
 20
152.5308636996
  0
VERTEX
  8
2_FEATURE
 62
7
  6
CONTINUOUS
 10
85.5420447604
 20
152.5144997515
  0
VERTEX
  8
2_FEATURE
 62
7
  6
CONTINUOUS
 10
85.5447364539
 20
152.5060679669
  0
SEQEND
  0
POLYLINE
  8
2_FEATURE
 62
7
  6
CONTINUOUS
 66
1
 70
0
  0
VERTEX
  8
2_FEATURE
 62
7
  6
CONTINUOUS
 10
122.0447364539
 20
147.6670187801
  0
VERTEX
  8
2_FEATURE
 62
7
  6
CONTINUOUS
 10
122.1652844228
 20
147.6522694237
  0
VERTEX
  8
2_FEATURE
 62
7
  6
CONTINUOUS
 10
122.277944649
 20
147.6093014247
  0
VERTEX
  8
2_FEATURE
 62
7
  6
CONTINUOUS
 10
122.3767730045
 20
147.5408526056
  0
VERTEX
  8
2_FEATURE
 62
7
  6
CONTINUOUS
 10
122.4189418632
 20
147.4986364992
  0
VERTEX
  8
2_FEATURE
 62
7
  6
CONTINUOUS
 10
122.487163094
 20
147.3999536811
  0
VERTEX
  8
2_FEATURE
 62
7
  6
CONTINUOUS
 10
122.5300410131
 20
147.2873495111
  0
VERTEX
  8
2_FEATURE
 62
7
  6
CONTINUOUS
 10
122.5447364539
 20
147.1670187801
  0
SEQEND
  0
POLYLINE
  8
2_FEATURE
 62
7
  6
CONTINUOUS
 66
1
 70
0
  0
VERTEX
  8
2_FEATURE
 62
7
  6
CONTINUOUS
 10
119.0447364883
 20
147.667018863
  0
VERTEX
  8
2_FEATURE
 62
7
  6
CONTINUOUS
 10
118.9743179933
 20
147.6770017025
  0
VERTEX
  8
2_FEATURE
 62
7
  6
CONTINUOUS
 10
118.8950190541
 20
147.7122151202
  0
VERTEX
  8
2_FEATURE
 62
7
  6
CONTINUOUS
 10
118.8206011251
 20
147.7697574389
  0
VERTEX
  8
2_FEATURE
 62
7
  6
CONTINUOUS
 10
118.7532264249
 20
147.8462735263
  0
VERTEX
  8
2_FEATURE
 62
7
  6
CONTINUOUS
 10
118.6941353538
 20
147.9392274453
  0
VERTEX
  8
2_FEATURE
 62
7
  6
CONTINUOUS
 10
118.6678536067
 20
147.9915022293
  0
VERTEX
  8
2_FEATURE
 62
7
  6
CONTINUOUS
 10
118.6224344554
 20
148.1065244541
  0
VERTEX
  8
2_FEATURE
 62
7
  6
CONTINUOUS
 10
118.5872525636
 20
148.2335423032
  0
VERTEX
  8
2_FEATURE
 62
7
  6
CONTINUOUS
 10
118.562674717
 20
148.3703849376
  0
VERTEX
  8
2_FEATURE
 62
7
  6
CONTINUOUS
 10
118.5486712791
 20
148.5146891011
  0
VERTEX
  8
2_FEATURE
 62
7
  6
CONTINUOUS
 10
118.5447362415
 20
148.6493457497
  0
SEQEND
  0
LINE
  8
2_FEATURE
 62
7
  6
CONTINUOUS
 10
44.9447364539
 20
155.5213230955
 11
52.0447364539
 21
155.5213230955
  0
LINE
  8
2_FEATURE
 62
7
  6
CONTINUOUS
 10
61.4447364539
 20
155.5213230955
 11
68.5447364539
 21
155.5213230955
  0
LINE
  8
2_FEATURE
 62
7
  6
CONTINUOUS
 10
77.9447364539
 20
155.5213230955
 11
85.0447364539
 21
155.5213230955
  0
LINE
  8
2_FEATURE
 62
7
  6
CONTINUOUS
 10
94.4447364539
 20
155.5213230955
 11
101.5447364539
 21
155.5213230955
  0
LINE
  8
2_FEATURE
 62
7
  6
CONTINUOUS
 10
110.9447364539
 20
155.5213230955
 11
118.0447364539
 21
155.5213230955
  0
LINE
  8
2_FEATURE
 62
7
  6
CONTINUOUS
 10
110.2947364539
 20
109.4413230955
 11
110.2947364539
 21
115.8133375859
  0
POLYLINE
  8
2_FEATURE
 62
7
  6
CONTINUOUS
 66
1
 70
0
  0
VERTEX
  8
2_FEATURE
 62
7
  6
CONTINUOUS
 10
110.4447369038
 20
148.6493364195
  0
VERTEX
  8
2_FEATURE
 62
7
  6
CONTINUOUS
 10
110.4408787442
 20
148.5159794432
  0
VERTEX
  8
2_FEATURE
 62
7
  6
CONTINUOUS
 10
110.4269591846
 20
148.3715682008
  0
VERTEX
  8
2_FEATURE
 62
7
  6
CONTINUOUS
 10
110.4024625991
 20
148.2346161806
  0
VERTEX
  8
2_FEATURE
 62
7
  6
CONTINUOUS
 10
110.3673591149
 20
148.1074892475
  0
VERTEX
  8
2_FEATURE
 62
7
  6
CONTINUOUS
 10
110.3220157455
 20
147.9923566891
  0
VERTEX
  8
2_FEATURE
 62
7
  6
CONTINUOUS
 10
110.2957706447
 20
147.9400249682
  0
VERTEX
  8
2_FEATURE
 62
7
  6
CONTINUOUS
 10
110.2367490285
 20
147.8469489196
  0
VERTEX
  8
2_FEATURE
 62
7
  6
CONTINUOUS
 10
110.1694382789
 20
147.7702959654
  0
VERTEX
  8
2_FEATURE
 62
7
  6
CONTINUOUS
 10
110.0950733858
 20
147.7125925088
  0
VERTEX
  8
2_FEATURE
 62
7
  6
CONTINUOUS
 10
110.0158008924
 20
147.6771855478
  0
VERTEX
  8
2_FEATURE
 62
7
  6
CONTINUOUS
 10
109.9447364539
 20
147.6670188616
  0
SEQEND
  0
POLYLINE
  8
2_FEATURE
 62
7
  6
CONTINUOUS
 66
1
 70
0
  0
VERTEX
  8
2_FEATURE
 62
7
  6
CONTINUOUS
 10
102.0447364539
 20
152.5060679669
  0
VERTEX
  8
2_FEATURE
 62
7
  6
CONTINUOUS
 10
102.0420447604
 20
152.5144997515
  0
VERTEX
  8
2_FEATURE
 62
7
  6
CONTINUOUS
 10
102.0206301283
 20
152.5308636996
  0
VERTEX
  8
2_FEATURE
 62
7
  6
CONTINUOUS
 10
101.9785726076
 20
152.5460077651
  0
VERTEX
  8
2_FEATURE
 62
7
  6
CONTINUOUS
 10
101.9175339157
 20
152.5593214865
  0
VERTEX
  8
2_FEATURE
 62
7
  6
CONTINUOUS
 10
101.880653226
 20
152.5651223134
  0
VERTEX
  8
2_FEATURE
 62
7
  6
CONTINUOUS
 10
101.7961189503
 20
152.5747235082
  0
VERTEX
  8
2_FEATURE
 62
7
  6
CONTINUOUS
 10
101.7003186902
 20
152.5813504857
  0
VERTEX
  8
2_FEATURE
 62
7
  6
CONTINUOUS
 10
101.5974314924
 20
152.5847363806
  0
VERTEX
  8
2_FEATURE
 62
7
  6
CONTINUOUS
 10
101.5447364539
 20
152.5851635765
  0
SEQEND
  0
LINE
  8
2_FEATURE
 62
7
  6
CONTINUOUS
 10
110.4447364539
 20
155.0213230955
 11
110.4447364539
 21
148.6493086578
  0
POLYLINE
  8
2_FEATURE
 62
7
  6
CONTINUOUS
 66
1
 70
0
  0
VERTEX
  8
2_FEATURE
 62
7
  6
CONTINUOUS
 10
110.2947362461
 20
115.8133005284
  0
VERTEX
  8
2_FEATURE
 62
7
  6
CONTINUOUS
 10
110.29859447
 20
115.9466705907
  0
VERTEX
  8
2_FEATURE
 62
7
  6
CONTINUOUS
 10
110.3125142014
 20
116.0910827872
  0
VERTEX
  8
2_FEATURE
 62
7
  6
CONTINUOUS
 10
110.3370106692
 20
116.2280320083
  0
VERTEX
  8
2_FEATURE
 62
7
  6
CONTINUOUS
 10
110.37211384
 20
116.3551570353
  0
VERTEX
  8
2_FEATURE
 62
7
  6
CONTINUOUS
 10
110.4174573341
 20
116.4702897921
  0
VERTEX
  8
2_FEATURE
 62
7
  6
CONTINUOUS
 10
110.4437023103
 20
116.5226213834
  0
VERTEX
  8
2_FEATURE
 62
7
  6
CONTINUOUS
 10
110.5027240199
 20
116.6156974458
  0
VERTEX
  8
2_FEATURE
 62
7
  6
CONTINUOUS
 10
110.5700346696
 20
116.6923504251
  0
VERTEX
  8
2_FEATURE
 62
7
  6
CONTINUOUS
 10
110.644400307
 20
116.7500542756
  0
VERTEX
  8
2_FEATURE
 62
7
  6
CONTINUOUS
 10
110.7236755453
 20
116.7854616452
  0
VERTEX
  8
2_FEATURE
 62
7
  6
CONTINUOUS
 10
110.7947364539
 20
116.7956273278
  0
SEQEND
  0
POLYLINE
  8
2_FEATURE
 62
7
  6
CONTINUOUS
 66
1
 70
0
  0
VERTEX
  8
2_FEATURE
 62
7
  6
CONTINUOUS
 10
110.2947364539
 20
111.9565782241
  0
VERTEX
  8
2_FEATURE
 62
7
  6
CONTINUOUS
 10
110.2920447604
 20
111.9481464395
  0
VERTEX
  8
2_FEATURE
 62
7
  6
CONTINUOUS
 10
110.2706301283
 20
111.9317824914
  0
VERTEX
  8
2_FEATURE
 62
7
  6
CONTINUOUS
 10
110.2285726076
 20
111.9166384259
  0
VERTEX
  8
2_FEATURE
 62
7
  6
CONTINUOUS
 10
110.1675339157
 20
111.9033247045
  0
VERTEX
  8
2_FEATURE
 62
7
  6
CONTINUOUS
 10
110.130653226
 20
111.8975238776
  0
VERTEX
  8
2_FEATURE
 62
7
  6
CONTINUOUS
 10
110.0461189503
 20
111.8879226828
  0
VERTEX
  8
2_FEATURE
 62
7
  6
CONTINUOUS
 10
109.9503186902
 20
111.8812957053
  0
VERTEX
  8
2_FEATURE
 62
7
  6
CONTINUOUS
 10
109.8474314924
 20
111.8779098104
  0
VERTEX
  8
2_FEATURE
 62
7
  6
CONTINUOUS
 10
109.7947364539
 20
111.8774826145
  0
SEQEND
  0
LINE
  8
2_FEATURE
 62
7
  6
CONTINUOUS
 10
118.5447364539
 20
148.6493086033
 11
118.5447364539
 21
155.0213230955
  0
LINE
  8
2_FEATURE
 62
7
  6
CONTINUOUS
 10
118.6947364539
 20
116.5417447218
 11
118.6947364539
 21
109.4413230955
  0
LINE
  8
2_FEATURE
 62
7
  6
CONTINUOUS
 10
122.5447364539
 20
109.4413230955
 11
122.5447364539
 21
147.1670187801
  0
LINE
  8
0
 62
7
  6
CONTINUOUS
 10
122.7447364539
 20
145.5975745967
 11
122.7447364539
 21
116.7813230955
  0
LINE
  8
0
 62
7
  6
CONTINUOUS
 10
122.5447364539
 20
116.5813230955
 11
122.7447364539
 21
116.7813230955
  0
POLYLINE
  8
2_FEATURE
 62
7
  6
CONTINUOUS
 66
1
 70
0
  0
VERTEX
  8
2_FEATURE
 62
7
  6
CONTINUOUS
 10
118.5447364539
 20
152.5060679669
  0
VERTEX
  8
2_FEATURE
 62
7
  6
CONTINUOUS
 10
118.5420447604
 20
152.5144997515
  0
VERTEX
  8
2_FEATURE
 62
7
  6
CONTINUOUS
 10
118.5206301283
 20
152.5308636996
  0
VERTEX
  8
2_FEATURE
 62
7
  6
CONTINUOUS
 10
118.4785726076
 20
152.5460077651
  0
VERTEX
  8
2_FEATURE
 62
7
  6
CONTINUOUS
 10
118.4175339157
 20
152.5593214865
  0
VERTEX
  8
2_FEATURE
 62
7
  6
CONTINUOUS
 10
118.380653226
 20
152.5651223134
  0
VERTEX
  8
2_FEATURE
 62
7
  6
CONTINUOUS
 10
118.2961189503
 20
152.5747235082
  0
VERTEX
  8
2_FEATURE
 62
7
  6
CONTINUOUS
 10
118.2003186902
 20
152.5813504857
  0
VERTEX
  8
2_FEATURE
 62
7
  6
CONTINUOUS
 10
118.0974314924
 20
152.5847363806
  0
VERTEX
  8
2_FEATURE
 62
7
  6
CONTINUOUS
 10
118.0447364539
 20
152.5851635765
  0
SEQEND
  0
LINE
  8
2_FEATURE
 62
7
  6
CONTINUOUS
 10
169.2526391654
 20
108.9413230955
 11
171.1967585033
 21
108.9413230955
  0
LINE
  8
1_AXIS
 62
2
  6
CONTINUOUS
 10
171.1046988343
 20
113.1813230955
 11
169.3446988343
 21
113.1813230955
  0
LINE
  8
1_AXIS
 62
2
  6
CENTER
 10
165.8246988343
 20
113.1813230955
 11
164.0746976177
 21
113.1813230955
  0
LINE
  8
1_AXIS
 62
2
  6
CENTER
 10
174.6246988343
 20
113.1813230955
 11
176.3747000509
 21
113.1813230955
  0
LINE
  8
2_FEATURE
 62
7
  6
CONTINUOUS
 10
174.3746988343
 20
111.8774826145
 11
174.207898553
 21
111.9033247045
  0
LINE
  8
2_FEATURE
 62
7
  6
CONTINUOUS
 10
174.207898553
 20
111.9033247045
 11
174.0280781377
 21
111.9317824914
  0
LINE
  8
2_FEATURE
 62
7
  6
CONTINUOUS
 10
174.0280781377
 20
111.9317824914
 11
173.8746988343
 21
111.9565782241
  0
LINE
  8
0
 62
7
  6
CONTINUOUS
 10
166.0063144008
 20
115.9190122283
 11
166.8494441939
 21
115.9190122283
  0
LINE
  8
2_FEATURE
 62
7
  6
CONTINUOUS
 10
173.7648119343
 20
116.5813230955
 11
168.0112988343
 21
116.5813230955
  0
POLYLINE
  8
0
 62
7
  6
CONTINUOUS
 66
1
 70
0
  0
VERTEX
  8
0
 62
7
  6
CONTINUOUS
 10
166.0063055424
 20
115.9190122288
  0
VERTEX
  8
0
 62
7
  6
CONTINUOUS
 10
165.9877093543
 20
115.9200297281
  0
VERTEX
  8
0
 62
7
  6
CONTINUOUS
 10
165.9546975405
 20
115.9276194611
  0
VERTEX
  8
0
 62
7
  6
CONTINUOUS
 10
165.939241313
 20
115.9344132056
  0
VERTEX
  8
0
 62
7
  6
CONTINUOUS
 10
165.9114202816
 20
115.954633729
  0
VERTEX
  8
0
 62
7
  6
CONTINUOUS
 10
165.8894909514
 20
115.9847343627
  0
VERTEX
  8
0
 62
7
  6
CONTINUOUS
 10
165.8765277324
 20
116.0258756941
  0
VERTEX
  8
0
 62
7
  6
CONTINUOUS
 10
165.8746988343
 20
116.0506081996
  0
SEQEND
  0
POLYLINE
  8
2_FEATURE
 62
7
  6
CONTINUOUS
 66
1
 70
0
  0
VERTEX
  8
2_FEATURE
 62
7
  6
CONTINUOUS
 10
167.9840957136
 20
116.582370403
  0
VERTEX
  8
2_FEATURE
 62
7
  6
CONTINUOUS
 10
167.993164642
 20
116.5817883111
  0
VERTEX
  8
2_FEATURE
 62
7
  6
CONTINUOUS
 10
168.0022321072
 20
116.5814393612
  0
VERTEX
  8
2_FEATURE
 62
7
  6
CONTINUOUS
 10
168.0112988343
 20
116.5813230955
  0
SEQEND
  0
POLYLINE
  8
2_FEATURE
 62
7
  6
CONTINUOUS
 66
1
 70
0
  0
VERTEX
  8
2_FEATURE
 62
7
  6
CONTINUOUS
 10
167.7416197336
 20
116.8140301357
  0
VERTEX
  8
2_FEATURE
 62
7
  6
CONTINUOUS
 10
167.8441873122
 20
116.793324154
  0
VERTEX
  8
2_FEATURE
 62
7
  6
CONTINUOUS
 10
167.8983994893
 20
116.7867687169
  0
VERTEX
  8
2_FEATURE
 62
7
  6
CONTINUOUS
 10
168.0112988343
 20
116.7813317915
  0
SEQEND
  0
POLYLINE
  8
2_FEATURE
 62
7
  6
CONTINUOUS
 66
1
 70
0
  0
VERTEX
  8
2_FEATURE
 62
7
  6
CONTINUOUS
 10
165.8746988343
 20
146.9169168102
  0
VERTEX
  8
2_FEATURE
 62
7
  6
CONTINUOUS
 10
165.8774364533
 20
146.9184222841
  0
VERTEX
  8
2_FEATURE
 62
7
  6
CONTINUOUS
 10
165.8991594086
 20
146.9213676068
  0
VERTEX
  8
2_FEATURE
 62
7
  6
CONTINUOUS
 10
165.9416607185
 20
146.9241186844
  0
VERTEX
  8
2_FEATURE
 62
7
  6
CONTINUOUS
 10
166.0030882507
 20
146.926555275
  0
VERTEX
  8
2_FEATURE
 62
7
  6
CONTINUOUS
 10
166.0400912265
 20
146.927621669
  0
VERTEX
  8
2_FEATURE
 62
7
  6
CONTINUOUS
 10
166.1246551688
 20
146.9293922928
  0
VERTEX
  8
2_FEATURE
 62
7
  6
CONTINUOUS
 10
166.2201561173
 20
146.9306176813
  0
VERTEX
  8
2_FEATURE
 62
7
  6
CONTINUOUS
 10
166.3224207385
 20
146.9312441344
  0
VERTEX
  8
2_FEATURE
 62
7
  6
CONTINUOUS
 10
166.3746988343
 20
146.9313230955
  0
SEQEND
  0
LINE
  8
2_FEATURE
 62
7
  6
CONTINUOUS
 10
168.0112988343
 20
116.7813230955
 11
173.549213951
 21
116.7813230955
  0
POLYLINE
  8
0
 62
7
  6
CONTINUOUS
 66
1
 70
0
  0
VERTEX
  8
0
 62
7
  6
CONTINUOUS
 10
167.8472441532
 20
146.7197853952
  0
VERTEX
  8
0
 62
7
  6
CONTINUOUS
 10
167.888630808
 20
146.7674768246
  0
VERTEX
  8
0
 62
7
  6
CONTINUOUS
 10
167.9250446215
 20
146.8063811313
  0
VERTEX
  8
0
 62
7
  6
CONTINUOUS
 10
167.9572962356
 20
146.8345967398
  0
VERTEX
  8
0
 62
7
  6
CONTINUOUS
 10
167.9859592773
 20
146.8508799592
  0
VERTEX
  8
0
 62
7
  6
CONTINUOUS
 10
168.0112988343
 20
146.8557991219
  0
SEQEND
  0
LINE
  8
0
 62
7
  6
CONTINUOUS
 10
173.549213951
 20
116.7813230955
 11
173.7648119343
 21
116.5813230955
  0
POLYLINE
  8
2_FEATURE
 62
7
  6
CONTINUOUS
 66
1
 70
0
  0
VERTEX
  8
2_FEATURE
 62
7
  6
CONTINUOUS
 10
167.5112988343
 20
116.9884298767
  0
VERTEX
  8
2_FEATURE
 62
7
  6
CONTINUOUS
 10
167.5270676113
 20
116.9368272404
  0
VERTEX
  8
2_FEATURE
 62
7
  6
CONTINUOUS
 10
167.573910288
 20
116.8880813433
  0
VERTEX
  8
2_FEATURE
 62
7
  6
CONTINUOUS
 10
167.6475254627
 20
116.8463425889
  0
VERTEX
  8
2_FEATURE
 62
7
  6
CONTINUOUS
 10
167.7416197336
 20
116.8140301357
  0
SEQEND
  0
LINE
  8
2_FEATURE
 62
7
  6
CONTINUOUS
 10
165.8746988343
 20
116.0506081996
 11
165.8746988343
 21
113.1813230955
  0
LINE
  8
0
 62
7
  6
CONTINUOUS
 10
165.8746988343
 20
116.0506081996
 11
165.8746988343
 21
126.5179582467
  0
LINE
  8
2_FEATURE
 62
7
  6
CONTINUOUS
 10
165.8746988343
 20
116.3737913923
 11
165.8746988343
 21
151.2813230955
  0
POLYLINE
  8
0
 62
7
  6
CONTINUOUS
 66
1
 70
0
  0
VERTEX
  8
0
 62
7
  6
CONTINUOUS
 10
167.5112988343
 20
146.1052186599
  0
VERTEX
  8
0
 62
7
  6
CONTINUOUS
 10
167.5232970096
 20
146.2181985341
  0
VERTEX
  8
0
 62
7
  6
CONTINUOUS
 10
167.559558109
 20
146.3308957177
  0
VERTEX
  8
0
 62
7
  6
CONTINUOUS
 10
167.6178160918
 20
146.4383025142
  0
VERTEX
  8
0
 62
7
  6
CONTINUOUS
 10
167.6841565065
 20
146.5288679312
  0
VERTEX
  8
0
 62
7
  6
CONTINUOUS
 10
167.7457238282
 20
146.6021861959
  0
VERTEX
  8
0
 62
7
  6
CONTINUOUS
 10
167.8472441532
 20
146.7197853952
  0
SEQEND
  0
POLYLINE
  8
2_FEATURE
 62
7
  6
CONTINUOUS
 66
1
 70
0
  0
VERTEX
  8
2_FEATURE
 62
7
  6
CONTINUOUS
 10
167.5112988343
 20
116.8012289576
  0
VERTEX
  8
2_FEATURE
 62
7
  6
CONTINUOUS
 10
167.5113259109
 20
116.7979589198
  0
VERTEX
  8
2_FEATURE
 62
7
  6
CONTINUOUS
 10
167.5115828895
 20
116.7921764573
  0
VERTEX
  8
2_FEATURE
 62
7
  6
CONTINUOUS
 10
167.5122104364
 20
116.7865311755
  0
VERTEX
  8
2_FEATURE
 62
7
  6
CONTINUOUS
 10
167.5133805197
 20
116.7804692812
  0
VERTEX
  8
2_FEATURE
 62
7
  6
CONTINUOUS
 10
167.5153318337
 20
116.7737092059
  0
VERTEX
  8
2_FEATURE
 62
7
  6
CONTINUOUS
 10
167.5183846527
 20
116.7660523553
  0
VERTEX
  8
2_FEATURE
 62
7
  6
CONTINUOUS
 10
167.5230099011
 20
116.7572462976
  0
VERTEX
  8
2_FEATURE
 62
7
  6
CONTINUOUS
 10
167.5299902626
 20
116.746869972
  0
VERTEX
  8
2_FEATURE
 62
7
  6
CONTINUOUS
 10
167.5347050421
 20
116.7409605499
  0
VERTEX
  8
2_FEATURE
 62
7
  6
CONTINUOUS
 10
167.5475575478
 20
116.7273986637
  0
VERTEX
  8
2_FEATURE
 62
7
  6
CONTINUOUS
 10
167.5669649369
 20
116.7109642006
  0
VERTEX
  8
2_FEATURE
 62
7
  6
CONTINUOUS
 10
167.5963614734
 20
116.6910179509
  0
VERTEX
  8
2_FEATURE
 62
7
  6
CONTINUOUS
 10
167.6411537182
 20
116.6669556466
  0
VERTEX
  8
2_FEATURE
 62
7
  6
CONTINUOUS
 10
167.7115039887
 20
116.6380975181
  0
VERTEX
  8
2_FEATURE
 62
7
  6
CONTINUOUS
 10
167.8116059633
 20
116.6089729547
  0
VERTEX
  8
2_FEATURE
 62
7
  6
CONTINUOUS
 10
167.9246818711
 20
116.588498834
  0
VERTEX
  8
2_FEATURE
 62
7
  6
CONTINUOUS
 10
167.9840957136
 20
116.582370403
  0
SEQEND
  0
LINE
  8
0
 62
7
  6
CONTINUOUS
 10
167.5112988343
 20
146.0975745967
 11
167.5112988343
 21
146.1052186558
  0
LINE
  8
2_FEATURE
 62
7
  6
CONTINUOUS
 10
167.5112988343
 20
116.8012289576
 11
167.5112988343
 21
146.0975745967
  0
LINE
  8
2_FEATURE
 62
7
  6
CONTINUOUS
 10
171.1967585033
 20
155.5213230955
 11
171.167952558
 21
155.2705394008
  0
LINE
  8
2_FEATURE
 62
7
  6
CONTINUOUS
 10
171.167952558
 20
155.2705394008
 11
171.1384274593
 21
155.0213230955
  0
LINE
  8
2_FEATURE
 62
7
  6
CONTINUOUS
 10
171.1384274593
 20
109.4413230955
 11
171.167952558
 21
109.1921067902
  0
LINE
  8
2_FEATURE
 62
7
  6
CONTINUOUS
 10
171.167952558
 20
109.1921067902
 11
171.1967585033
 21
108.9413230955
  0
LINE
  8
1_AXIS
 62
2
  6
CONTINUOUS
 10
170.2246988343
 20
152.1613230955
 11
170.2246988343
 21
150.4013230955
  0
LINE
  8
1_AXIS
 62
2
  6
CENTER
 10
170.2246988343
 20
146.8813230955
 11
170.2246988343
 21
145.1313218789
  0
LINE
  8
1_AXIS
 62
2
  6
CONTINUOUS
 10
170.2246988343
 20
114.0613230955
 11
170.2246988343
 21
112.3013230955
  0
LINE
  8
1_AXIS
 62
2
  6
CENTER
 10
170.2246988343
 20
108.7813230955
 11
170.2246988343
 21
107.0313218789
  0
LINE
  8
1_AXIS
 62
2
  6
CENTER
 10
170.2246988343
 20
117.5813230955
 11
170.2246988343
 21
119.3313243121
  0
LINE
  8
1_AXIS
 62
2
  6
CENTER
 10
170.2246988343
 20
155.6813230955
 11
170.2246988343
 21
157.4313243121
  0
LINE
  8
1_AXIS
 62
2
  6
CENTER
 10
163.3746988343
 20
132.2313230955
 11
176.3747000509
 21
132.2313230955
  0
LINE
  8
2_FEATURE
 62
7
  6
CONTINUOUS
 10
169.2673591696
 20
109.0704174882
 11
169.2526391654
 21
108.9413230955
  0
LINE
  8
2_FEATURE
 62
7
  6
CONTINUOUS
 10
169.2673591696
 20
155.3922287028
 11
169.2526391654
 21
155.5213230955
  0
LINE
  8
0
 62
7
  6
CONTINUOUS
 10
171.9746988343
 20
117.7173447129
 11
171.9746988343
 21
145.5975745967
  0
LINE
  8
2_FEATURE
 62
7
  6
CONTINUOUS
 10
171.9746988343
 20
145.5975745967
 11
171.9746988343
 21
146.5975745967
  0
LINE
  8
2_FEATURE
 62
7
  6
CONTINUOUS
 10
169.292628171
 20
109.2874334524
 11
169.2673591696
 21
109.0704174882
  0
LINE
  8
2_FEATURE
 62
7
  6
CONTINUOUS
 10
169.3109702094
 20
109.4413230955
 11
169.292628171
 21
109.2874334524
  0
LINE
  8
2_FEATURE
 62
7
  6
CONTINUOUS
 10
169.3109702094
 20
155.0213230955
 11
169.2814451107
 21
155.2705394008
  0
LINE
  8
2_FEATURE
 62
7
  6
CONTINUOUS
 10
169.2814451107
 20
155.2705394008
 11
169.2673591696
 21
155.3922287028
  0
LINE
  8
2_FEATURE
 62
7
  6
CONTINUOUS
 10
174.3746988343
 20
152.5851635765
 11
174.3746988343
 21
111.8774826145
  0
LINE
  8
0
 62
7
  6
CONTINUOUS
 10
167.2444018538
 20
116.3499710576
 11
167.3425709635
 21
116.439518752
  0
LINE
  8
2_FEATURE
 62
7
  6
CONTINUOUS
 10
171.9746988343
 20
146.5975745967
 11
168.0112988343
 21
146.5975745967
  0
POLYLINE
  8
0
 62
7
  6
CONTINUOUS
 66
1
 70
0
  0
VERTEX
  8
0
 62
7
  6
CONTINUOUS
 10
166.0746988343
 20
115.9310737042
  0
VERTEX
  8
0
 62
7
  6
CONTINUOUS
 10
166.0574518714
 20
115.9258749965
  0
VERTEX
  8
0
 62
7
  6
CONTINUOUS
 10
166.0223933377
 20
115.9197251775
  0
VERTEX
  8
0
 62
7
  6
CONTINUOUS
 10
166.0063055424
 20
115.9190122288
  0
SEQEND
  0
POLYLINE
  8
0
 62
7
  6
CONTINUOUS
 66
1
 70
0
  0
VERTEX
  8
0
 62
7
  6
CONTINUOUS
 10
168.2195767369
 20
146.9313230737
  0
VERTEX
  8
0
 62
7
  6
CONTINUOUS
 10
168.1235147456
 20
146.9205661015
  0
VERTEX
  8
0
 62
7
  6
CONTINUOUS
 10
168.055331591
 20
146.8921789151
  0
VERTEX
  8
0
 62
7
  6
CONTINUOUS
 10
168.0112988343
 20
146.8557991219
  0
SEQEND
  0
LINE
  8
0
 62
7
  6
CONTINUOUS
 10
171.3768692824
 20
146.9313230955
 11
168.2195769466
 21
146.9313230724
  0
LINE
  8
0
 62
7
  6
CONTINUOUS
 10
166.3746988343
 20
146.9313230955
 11
167.8030290149
 21
146.9313231593
  0
POLYLINE
  8
2_FEATURE
 62
7
  6
CONTINUOUS
 66
1
 70
0
  0
VERTEX
  8
2_FEATURE
 62
7
  6
CONTINUOUS
 10
171.3768706965
 20
146.9313230955
  0
VERTEX
  8
2_FEATURE
 62
7
  6
CONTINUOUS
 10
171.5244774529
 20
146.9255304886
  0
VERTEX
  8
2_FEATURE
 62
7
  6
CONTINUOUS
 10
171.638577707
 20
146.9059563477
  0
VERTEX
  8
2_FEATURE
 62
7
  6
CONTINUOUS
 10
171.7267102883
 20
146.8702335026
  0
VERTEX
  8
2_FEATURE
 62
7
  6
CONTINUOUS
 10
171.7942218664
 20
146.8198244653
  0
VERTEX
  8
2_FEATURE
 62
7
  6
CONTINUOUS
 10
171.8234620355
 20
146.7891333183
  0
VERTEX
  8
2_FEATURE
 62
7
  6
CONTINUOUS
 10
171.875973202
 20
146.7193149759
  0
VERTEX
  8
2_FEATURE
 62
7
  6
CONTINUOUS
 10
171.9176710044
 20
146.6552225774
  0
VERTEX
  8
2_FEATURE
 62
7
  6
CONTINUOUS
 10
171.9490455842
 20
146.6124598995
  0
VERTEX
  8
2_FEATURE
 62
7
  6
CONTINUOUS
 10
171.9723832152
 20
146.5975745967
  0
SEQEND
  0
POLYLINE
  8
0
 62
7
  6
CONTINUOUS
 66
1
 70
0
  0
VERTEX
  8
0
 62
7
  6
CONTINUOUS
 10
168.2195769466
 20
146.9313230724
  0
VERTEX
  8
0
 62
7
  6
CONTINUOUS
 10
168.1772392983
 20
146.9356537924
  0
VERTEX
  8
0
 62
7
  6
CONTINUOUS
 10
168.1258374763
 20
146.9441290102
  0
VERTEX
  8
0
 62
7
  6
CONTINUOUS
 10
168.0645524484
 20
146.9524057176
  0
VERTEX
  8
0
 62
7
  6
CONTINUOUS
 10
168.0122608834
 20
146.9550928285
  0
VERTEX
  8
0
 62
7
  6
CONTINUOUS
 10
167.9602324911
 20
146.9526144607
  0
VERTEX
  8
0
 62
7
  6
CONTINUOUS
 10
167.8983330167
 20
146.9443835728
  0
VERTEX
  8
0
 62
7
  6
CONTINUOUS
 10
167.8454677101
 20
146.9356706403
  0
VERTEX
  8
0
 62
7
  6
CONTINUOUS
 10
167.8030298548
 20
146.9313231594
  0
SEQEND
  0
LINE
  8
1_AXIS
 62
2
  6
CONTINUOUS
 10
171.1046988343
 20
151.2813230955
 11
169.3446988343
 21
151.2813230955
  0
LINE
  8
1_AXIS
 62
2
  6
CENTER
 10
165.8246988343
 20
151.2813230955
 11
164.0746976177
 21
151.2813230955
  0
LINE
  8
1_AXIS
 62
2
  6
CENTER
 10
174.6246988343
 20
151.2813230955
 11
176.3747000509
 21
151.2813230955
  0
LINE
  8
2_FEATURE
 62
7
  6
CONTINUOUS
 10
173.8746988343
 20
152.5060679669
 11
174.0280781377
 21
152.5308636996
  0
LINE
  8
2_FEATURE
 62
7
  6
CONTINUOUS
 10
174.0280781377
 20
152.5308636996
 11
174.245049914
 21
152.5651223134
  0
LINE
  8
2_FEATURE
 62
7
  6
CONTINUOUS
 10
174.245049914
 20
152.5651223134
 11
174.3746988343
 21
152.5851635765
  0
LINE
  8
2_FEATURE
 62
7
  6
CONTINUOUS
 10
169.2526391654
 20
155.5213230955
 11
171.1967585033
 21
155.5213230955
  0
ARC
  8
2_FEATURE
 62
7
  6
CONTINUOUS
 10
43.3947364539
 20
192.215228609
 40
0.5
 50
180.0
 51
257.0544190571
  0
ARC
  8
2_FEATURE
 62
7
  6
CONTINUOUS
 10
40.9447364539
 20
192.215228609
 40
0.5
 50
180.0
 51
270.0
  0
ARC
  8
2_FEATURE
 62
7
  6
CONTINUOUS
 10
45.5447364539
 20
192.215228609
 40
0.5
 50
270.0
 51
360.0
  0
ARC
  8
2_FEATURE
 62
7
  6
CONTINUOUS
 10
61.4447364539
 20
192.215228609
 40
0.5
 50
180.0
 51
270.0
  0
ARC
  8
2_FEATURE
 62
7
  6
CONTINUOUS
 10
53.1947364539
 20
192.215228609
 40
0.5
 50
180.0
 51
270.0
  0
ARC
  8
2_FEATURE
 62
7
  6
CONTINUOUS
 10
60.2947364539
 20
192.215228609
 40
0.5
 50
270.0
 51
360.0
  0
ARC
  8
2_FEATURE
 62
7
  6
CONTINUOUS
 10
69.6947364539
 20
192.215228609
 40
0.5
 50
180.0
 51
270.0
  0
ARC
  8
2_FEATURE
 62
7
  6
CONTINUOUS
 10
68.5447364539
 20
192.215228609
 40
0.5
 50
270.0
 51
360.0
  0
ARC
  8
0
 62
7
  6
CONTINUOUS
 10
43.3947364539
 20
192.215228609
 40
0.5
 50
180.0
 51
270.0
  0
ARC
  8
2_FEATURE
 62
7
  6
CONTINUOUS
 10
40.7447364539
 20
193.851828609
 40
0.5
 50
212.6399595159
 51
232.7558863826
  0
ARC
  8
2_FEATURE
 62
7
  6
CONTINUOUS
 10
51.4447364539
 20
192.215228609
 40
0.5
 50
180.0
 51
270.0
  0
ARC
  8
2_FEATURE
 62
7
  6
CONTINUOUS
 10
76.7947364539
 20
192.215228609
 40
0.5
 50
270.0
 51
360.0
  0
ARC
  8
2_FEATURE
 62
7
  6
CONTINUOUS
 10
78.5447364539
 20
192.215228609
 40
0.5
 50
270.0
 51
360.0
  0
ARC
  8
0
 62
7
  6
CONTINUOUS
 10
42.0947364539
 20
191.915228609
 40
0.2
 50
270.0
 51
360.0
  0
ARC
  8
2_FEATURE
 62
7
  6
CONTINUOUS
 10
76.7947364539
 20
199.715228609
 40
0.5
 50
0.0
 51
90.0
  0
ARC
  8
2_FEATURE
 62
7
  6
CONTINUOUS
 10
40.9447364539
 20
199.715228609
 40
0.5
 50
90.0
 51
180.0
  0
ARC
  8
2_FEATURE
 62
7
  6
CONTINUOUS
 10
43.7947364539
 20
199.715228609
 40
0.5
 50
0.0
 51
90.0
  0
ARC
  8
2_FEATURE
 62
7
  6
CONTINUOUS
 10
53.1947364539
 20
199.715228609
 40
0.5
 50
90.0
 51
180.0
  0
ARC
  8
2_FEATURE
 62
7
  6
CONTINUOUS
 10
60.2947364539
 20
199.715228609
 40
0.5
 50
0.0
 51
90.0
  0
ARC
  8
2_FEATURE
 62
7
  6
CONTINUOUS
 10
69.6947364539
 20
199.715228609
 40
0.5
 50
90.0
 51
180.0
  0
ARC
  8
2_FEATURE
 62
7
  6
CONTINUOUS
 10
94.4447364539
 20
192.215228609
 40
0.5
 50
180.0
 51
270.0
  0
ARC
  8
2_FEATURE
 62
7
  6
CONTINUOUS
 10
86.1947364539
 20
192.215228609
 40
0.5
 50
180.0
 51
270.0
  0
ARC
  8
2_FEATURE
 62
7
  6
CONTINUOUS
 10
93.2947364539
 20
192.215228609
 40
0.5
 50
270.0
 51
360.0
  0
ARC
  8
2_FEATURE
 62
7
  6
CONTINUOUS
 10
102.6947364539
 20
192.215228609
 40
0.5
 50
180.0
 51
270.0
  0
ARC
  8
2_FEATURE
 62
7
  6
CONTINUOUS
 10
101.5447364539
 20
192.215228609
 40
0.5
 50
270.0
 51
360.0
  0
ARC
  8
2_FEATURE
 62
7
  6
CONTINUOUS
 10
117.4447364539
 20
192.215228609
 40
0.5
 50
180.0
 51
270.0
  0
ARC
  8
2_FEATURE
 62
7
  6
CONTINUOUS
 10
122.0447364539
 20
192.215228609
 40
0.5
 50
270.0
 51
360.0
  0
ARC
  8
2_FEATURE
 62
7
  6
CONTINUOUS
 10
122.2447364539
 20
193.851828609
 40
0.5
 50
307.2439643219
 51
327.3600404841
  0
ARC
  8
0
 62
7
  6
CONTINUOUS
 10
119.5947364539
 20
192.215228609
 40
0.5
 50
270.0
 51
360.0
  0
ARC
  8
2_FEATURE
 62
7
  6
CONTINUOUS
 10
119.5947364539
 20
192.215228609
 40
0.5
 50
282.9443748448
 51
287.6255825518
  0
ARC
  8
2_FEATURE
 62
7
  6
CONTINUOUS
 10
119.5947364539
 20
192.215228609
 40
0.5
 50
295.8694514552
 51
360.0
  0
ARC
  8
2_FEATURE
 62
7
  6
CONTINUOUS
 10
109.7947364539
 20
192.215228609
 40
0.5
 50
270.0
 51
360.0
  0
ARC
  8
2_FEATURE
 62
7
  6
CONTINUOUS
 10
111.5447364539
 20
192.215228609
 40
0.5
 50
270.0
 51
360.0
  0
ARC
  8
2_FEATURE
 62
7
  6
CONTINUOUS
 10
84.4447364539
 20
192.215228609
 40
0.5
 50
180.0
 51
270.0
  0
ARC
  8
0
 62
7
  6
CONTINUOUS
 10
120.8947364539
 20
191.915228609
 40
0.2
 50
180.0
 51
270.0
  0
ARC
  8
2_FEATURE
 62
7
  6
CONTINUOUS
 10
93.2947364539
 20
199.715228609
 40
0.5
 50
0.0
 51
90.0
  0
ARC
  8
2_FEATURE
 62
7
  6
CONTINUOUS
 10
122.0447364539
 20
199.715228609
 40
0.5
 50
0.0
 51
90.0
  0
ARC
  8
2_FEATURE
 62
7
  6
CONTINUOUS
 10
119.1947364539
 20
199.715228609
 40
0.5
 50
90.0
 51
180.0
  0
ARC
  8
2_FEATURE
 62
7
  6
CONTINUOUS
 10
109.7947364539
 20
199.715228609
 40
0.5
 50
0.0
 51
90.0
  0
ARC
  8
2_FEATURE
 62
7
  6
CONTINUOUS
 10
102.6947364539
 20
199.715228609
 40
0.5
 50
90.0
 51
180.0
  0
ARC
  8
2_FEATURE
 62
7
  6
CONTINUOUS
 10
86.1947364539
 20
199.715228609
 40
0.5
 50
90.0
 51
180.0
  0
ARC
  8
2_FEATURE
 62
7
  6
CONTINUOUS
 10
41.2447364539
 20
145.5975745967
 40
1.0
 50
144.1408087924
 51
180.0
  0
ARC
  8
2_FEATURE
 62
7
  6
CONTINUOUS
 10
121.7447364539
 20
145.5975745967
 40
1.0
 50
0.0
 51
35.8591912076
  0
ARC
  8
2_FEATURE
 62
7
  6
CONTINUOUS
 10
40.9447364539
 20
109.4413230955
 40
0.5
 50
180.0
 51
270.0
  0
ARC
  8
2_FEATURE
 62
7
  6
CONTINUOUS
 10
53.1947364539
 20
109.4413230955
 40
0.5
 50
180.0
 51
270.0
  0
ARC
  8
2_FEATURE
 62
7
  6
CONTINUOUS
 10
69.6947364539
 20
109.4413230955
 40
0.5
 50
180.0
 51
270.0
  0
ARC
  8
2_FEATURE
 62
7
  6
CONTINUOUS
 10
77.9447364539
 20
155.0213230955
 40
0.5
 50
90.0
 51
180.0
  0
ARC
  8
2_FEATURE
 62
7
  6
CONTINUOUS
 10
85.0447364539
 20
155.0213230955
 40
0.5
 50
0.0
 51
90.0
  0
ARC
  8
2_FEATURE
 62
7
  6
CONTINUOUS
 10
86.1947364539
 20
109.4413230955
 40
0.5
 50
180.0
 51
270.0
  0
ARC
  8
2_FEATURE
 62
7
  6
CONTINUOUS
 10
102.6947364539
 20
109.4413230955
 40
0.5
 50
180.0
 51
270.0
  0
ARC
  8
2_FEATURE
 62
7
  6
CONTINUOUS
 10
110.9447364539
 20
155.0213230955
 40
0.5
 50
90.0
 51
180.0
  0
ARC
  8
2_FEATURE
 62
7
  6
CONTINUOUS
 10
119.1947364539
 20
109.4413230955
 40
0.5
 50
180.0
 51
270.0
  0
ARC
  8
2_FEATURE
 62
7
  6
CONTINUOUS
 10
118.0447364539
 20
155.0213230955
 40
0.5
 50
0.0
 51
90.0
  0
ARC
  8
2_FEATURE
 62
7
  6
CONTINUOUS
 10
44.9447364539
 20
155.0213230955
 40
0.5
 50
90.0
 51
180.0
  0
ARC
  8
2_FEATURE
 62
7
  6
CONTINUOUS
 10
61.4447364539
 20
155.0213230955
 40
0.5
 50
90.0
 51
180.0
  0
ARC
  8
2_FEATURE
 62
7
  6
CONTINUOUS
 10
52.0447364539
 20
155.0213230955
 40
0.5
 50
0.0
 51
90.0
  0
ARC
  8
2_FEATURE
 62
7
  6
CONTINUOUS
 10
43.7947364539
 20
109.4413230955
 40
0.5
 50
270.0
 51
360.0
  0
ARC
  8
2_FEATURE
 62
7
  6
CONTINUOUS
 10
60.2947364539
 20
109.4413230955
 40
0.5
 50
270.0
 51
360.0
  0
ARC
  8
2_FEATURE
 62
7
  6
CONTINUOUS
 10
68.5447364539
 20
155.0213230955
 40
0.5
 50
0.0
 51
90.0
  0
ARC
  8
2_FEATURE
 62
7
  6
CONTINUOUS
 10
94.4447364539
 20
155.0213230955
 40
0.5
 50
90.0
 51
180.0
  0
ARC
  8
2_FEATURE
 62
7
  6
CONTINUOUS
 10
76.7947364539
 20
109.4413230955
 40
0.5
 50
270.0
 51
360.0
  0
ARC
  8
2_FEATURE
 62
7
  6
CONTINUOUS
 10
93.2947364539
 20
109.4413230955
 40
0.5
 50
270.0
 51
360.0
  0
ARC
  8
2_FEATURE
 62
7
  6
CONTINUOUS
 10
101.5447364539
 20
155.0213230955
 40
0.5
 50
0.0
 51
90.0
  0
ARC
  8
2_FEATURE
 62
7
  6
CONTINUOUS
 10
109.7947364539
 20
109.4413230955
 40
0.5
 50
270.0
 51
360.0
  0
ARC
  8
2_FEATURE
 62
7
  6
CONTINUOUS
 10
122.0447364539
 20
109.4413230955
 40
0.5
 50
270.0
 51
360.0
  0
ARC
  8
2_FEATURE
 62
7
  6
CONTINUOUS
 10
167.0112988343
 20
116.8140301357
 40
0.5
 50
311.4951540653
 51
358.6903416646
  0
ARC
  8
0
 62
7
  6
CONTINUOUS
 10
170.2246988343
 20
112.9813230955
 40
5.0489999763
 50
48.818215835
 51
69.7203027258
  0
ARC
  8
0
 62
7
  6
CONTINUOUS
 10
170.2246988343
 20
113.1813230955
 40
4.35
 50
133.2454968985
 51
232.3091819779
  0
ARC
  8
0
 62
7
  6
CONTINUOUS
 10
170.2246988343
 20
113.1813230955
 40
4.35
 50
236.131541475
 51
238.0870841432
  0
ARC
  8
0
 62
7
  6
CONTINUOUS
 10
170.2246988343
 20
113.1813230955
 40
4.35
 50
238.1091907103
 51
239.1202658416
  0
ARC
  8
0
 62
7
  6
CONTINUOUS
 10
170.2246988343
 20
113.1813230955
 40
4.35
 50
241.1825246826
 51
241.20402327
  0
ARC
  8
0
 62
7
  6
CONTINUOUS
 10
170.2246988343
 20
113.1813230955
 40
4.35
 50
242.0310215303
 51
243.6308533788
  0
ARC
  8
0
 62
7
  6
CONTINUOUS
 10
170.2246988343
 20
113.1813230955
 40
4.35
 50
246.5440619471
 51
247.0191691048
  0
ARC
  8
0
 62
7
  6
CONTINUOUS
 10
170.2246988343
 20
113.1813230955
 40
4.35
 50
249.1497026002
 51
251.4567785725
  0
ARC
  8
2_FEATURE
 62
7
  6
CONTINUOUS
 10
170.2246988343
 20
113.1813230955
 40
4.35
 50
282.9124542829
 51
342.5584061437
  0
ARC
  8
2_FEATURE
 62
7
  6
CONTINUOUS
 10
170.2246988343
 20
113.1813230955
 40
4.35
 50
131.4951540653
 51
257.0875457171
  0
CIRCLE
  8
2_FEATURE
 62
7
  6
CONTINUOUS
 10
170.2246988343
 20
113.1813230955
 40
2.5
  0
ARC
  8
2_FEATURE
 62
7
  6
CONTINUOUS
 10
168.0112988343
 20
146.0975745967
 40
0.5
 50
90.0
 51
180.0
  0
ARC
  8
2_FEATURE
 62
7
  6
CONTINUOUS
 10
170.2246988343
 20
151.2813230955
 40
5.0
 50
290.4873151147
 51
311.5777957855
  0
ARC
  8
2_FEATURE
 62
7
  6
CONTINUOUS
 10
170.2246988343
 20
151.2813230955
 40
4.35
 50
102.9124542829
 51
180.0
  0
ARC
  8
2_FEATURE
 62
7
  6
CONTINUOUS
 10
170.2246988343
 20
151.2813230955
 40
4.35
 50
17.4415938563
 51
77.0875457171
  0
CIRCLE
  8
2_FEATURE
 62
7
  6
CONTINUOUS
 10
170.2246988343
 20
151.2813230955
 40
2.5
  0
ARC
  8
2_FEATURE
 62
7
  6
CONTINUOUS
 10
173.8746988343
 20
147.1670194814
 40
0.4999997251
 50
0.0
 51
131.5778491224
  0
ENDSEC
  0
EOF
