  0
SECTION
  2
HEADER
  9
$EXTMAX
 10
210.0
 20
297.0
 30
0.0
  9
$EXTMIN
 10
0.0
 20
0.0
 30
0.0
  9
$LIMMIN
 10
0.0
 20
0.0
  9
$LIMMAX
 10
210.0
 20
297.0
  9
$VIEWCTR
 10
105.0
 20
148.5
  9
$VIEWSIZE
 40
297.0
  9
$CLAYER
  8
0
  9
$LTSCALE
 40
19.36
  9
$CELTYPE
  6
BYLAYER
  9
$DIMSCALE
 40
1.0
  9
$DIMASZ
 40
3.5
  9
$DIMEXO
 40
1.0
  9
$DIMDLI
 40
13.376
  9
$DIMEXE
 40
2.0
  9
$DIMCEN
 40
3.168
  9
$DIMLFAC
 40
1.0
  9
$DIMBLK
  1
_FILLED
  9
$DIMALT
 70
0
  9
$DIMALTF
 40
0.0393700787
  9
$DIMTXT
 40
3.5
  9
$AUNITS
 70
0
  9
$PDMODE
 70
3
  9
$PDSIZE
 40
0.3125
  9
$TILEMODE
 70
1
  0
ENDSEC
  0
SECTION
  2
TABLES
  0
TABLE
  2
LTYPE
 70
6
  0
LTYPE
  2
BYBLOCK
 70
0
  3

 72
65
 73
0
 40
0.0
  0
LTYPE
  2
BYLAYER
 70
0
  3

 72
65
 73
0
 40
0.0
  0
LTYPE
  2
CONTINUOUS
 70
64
  3
Solid line
 72
65
 73
0
 40
0.0
  0
LTYPE
  2
CENTER
 70
64
  3
____ _ ____ _ ____ _ ____ _ ____ _ ____ _ ____
 72
65
 73
4
 40
0.6
 49
0.375
 49
-0.075
 49
0.075
 49
-0.075
  0
LTYPE
  2
HIDDEN
 70
64
  3
- - - - - - - - - - - - - - - - - - - -
 72
65
 73
2
 40
0.2
 49
0.1
 49
-0.1
  0
LTYPE
  2
PHANTOM
 70
64
  3
_____ _ _ _____ _ _ _____ _ _ _____
 72
65
 73
6
 40
0.8
 49
0.45
 49
-0.05
 49
0.1
 49
-0.05
 49
0.1
 49
-0.05
  0
LTYPE
  2
DOT
 70
64
  3
. . . . . . . . . . . . . . . . . . . .
 72
65
 73
2
 40
0.2
 49
0.1
 49
-0.1
  0
LTYPE
  2
DASHED
 70
64
  3
- - - - - - - - - - - - - - - - - - - -
 72
65
 73
2
 40
0.2
 49
0.1
 49
-0.1
  0
ENDTAB
  0
TABLE
  2
LAYER
 70
36
  0
LAYER
  2
0
 70
0
 62
7
  6
CONTINUOUS
  0
LAYER
  2
DEFAULT_1
 70
0
 62
7
  6
CENTER
  0
LAYER
  2
DEFAULT_2
 70
0
 62
8
  6
HIDDEN
  0
LAYER
  2
DEFAULT_3
 70
0
 62
7
  6
PHANTOM
  0
LAYER
  2
1_AXIS
 70
0
 62
7
  6
CONTINUOUS
  0
LAYER
  2
1_DATUMPLANE
 70
0
 62
7
  6
CONTINUOUS
  0
LAYER
  2
1_DATUM_PLANES
 70
0
 62
7
  6
CONTINUOUS
  0
LAYER
  2
2_FEATURE
 70
0
 62
7
  6
CONTINUOUS
  0
LAYER
  2
6_DIM
 70
0
 62
7
  6
CONTINUOUS
  0
LAYER
  2
CSYS
 70
0
 62
7
  6
CONTINUOUS
  0
LAYER
  2
CU
 70
0
 62
7
  6
CONTINUOUS
  0
LAYER
  2
QUILT
 70
0
 62
7
  6
CONTINUOUS
  0
ENDTAB
  0
TABLE
  2
STYLE
 70
1
  0
STYLE
  2
STANDARD
 70
0
 40
0.0
 41
0.8
 50
0.0
 71
0
 42
0.2
  3
txt
  4

  0
STYLE
  2
TEXTSTYLE_1
 70
0
 40
0.0
 41
0.8
 50
0.0
 71
0
 42
0.2
  3
gdt
  4

  0
STYLE
  2
TEXTSTYLE_2
 70
0
 40
0.0
 41
0.6
 50
0.0
 71
0
 42
0.2
  3
txt
  4

  0
STYLE
  2
TEXTSTYLE_3
 70
0
 40
0.0
 41
1.0
 50
0.0
 71
0
 42
0.2
  3
ftb_____.ttf
  4

  0
STYLE
  2
TEXTSTYLE_4
 70
0
 40
0.0
 41
1.0
 50
0.0
 71
0
 42
0.2
  3
fti_____.ttf
  4

  0
STYLE
  2
TEXTSTYLE_5
 70
0
 40
0.0
 41
1.0
 50
0.0
 71
0
 42
0.2
  3
frutiger light.ttf
  4

  0
STYLE
  2
TEXTSTYLE_6
 70
0
 40
0.0
 41
0.7
 50
0.0
 71
0
 42
0.2
  3
txt
  4

  0
STYLE
  2
TEXTSTYLE_7
 70
0
 40
0.0
 41
0.65
 50
0.0
 71
0
 42
0.2
  3
txt
  4

  0
ENDTAB
  0
ENDSEC
  0
SECTION
  2
BLOCKS
  0
BLOCK
  8
0
 62
2
  6
CONTINUOUS
  2
UNI_LOGO2_BL1
 70
64
 10
173.5956734183
 20
35.5937998301
  0
TEXT
  8
0
 62
7
  6
CONTINUOUS
 10
164.6539584268
 20
30.6865562072
  7
TEXTSTYLE_4
 40
1.0655737705
  1
The brand for plastic modular belts and chains
 41
1.0
 72
0
  0
LINE
  8
0
 62
7
  6
CONTINUOUS
 10
149.5737418074
 20
36.1675703219
 11
149.5737418074
 21
34.0364227809
  0
LINE
  8
0
 62
7
  6
CONTINUOUS
 10
149.8628043005
 20
31.0454914852
 11
149.8628043005
 21
31.1422825445
  0
LINE
  8
0
 62
7
  6
CONTINUOUS
 10
149.5737418074
 20
31.1100188581
 11
149.6315543091
 21
30.9164367395
  0
LINE
  8
0
 62
7
  6
CONTINUOUS
 10
150.9671844304
 20
33.9544555678
 11
150.9671844304
 21
36.1675703219
  0
LINE
  8
0
 62
7
  6
CONTINUOUS
 10
151.8862417523
 20
32.1101932727
 11
151.8862417523
 21
30.5937998301
  0
LINE
  8
0
 62
7
  6
CONTINUOUS
 10
152.1753043074
 20
30.5937998301
 11
152.1753043074
 21
31.3358647082
  0
LINE
  8
0
 62
7
  6
CONTINUOUS
 10
152.1753043074
 20
31.4649194539
 11
152.1753043074
 21
32.1101932727
  0
LINE
  8
0
 62
7
  6
CONTINUOUS
 10
149.6315543091
 20
31.3036010218
 11
149.5737418074
 21
31.1100188581
  0
LINE
  8
0
 62
7
  6
CONTINUOUS
 10
149.9784292936
 20
30.8841730531
 11
149.8628043005
 21
31.0454914852
  0
LINE
  8
0
 62
7
  6
CONTINUOUS
 10
151.0768668626
 20
31.400392081
 11
151.1346793074
 21
31.3036010218
  0
LINE
  8
0
 62
7
  6
CONTINUOUS
 10
151.4237418626
 20
31.3036010218
 11
151.3659292523
 21
31.4326557675
  0
LINE
  8
0
 62
7
  6
CONTINUOUS
 10
152.852430332
 20
36.1675703219
 11
152.852430332
 21
34.3642916334
  0
LINE
  8
0
 62
7
  6
CONTINUOUS
 10
152.852430332
 20
33.0528162235
 11
152.852430332
 21
32.3970785186
  0
LINE
  8
0
 62
7
  6
CONTINUOUS
 10
153.2159293074
 20
31.2390736489
 11
153.2159293074
 21
30.5937998301
  0
LINE
  8
0
 62
7
  6
CONTINUOUS
 10
153.5049916972
 20
30.5937998301
 11
153.5049916972
 21
31.2390736489
  0
LINE
  8
0
 62
7
  6
CONTINUOUS
 10
149.8628043005
 20
31.1422825445
 11
149.9206168074
 21
31.2713373354
  0
LINE
  8
0
 62
7
  6
CONTINUOUS
 10
149.6315543091
 20
30.9164367395
 11
149.7471793074
 21
30.7873819712
  0
LINE
  8
0
 62
7
  6
CONTINUOUS
 10
153.1581166972
 20
31.3681283946
 11
153.2159293074
 21
31.2390736489
  0
LINE
  8
0
 62
7
  6
CONTINUOUS
 10
153.9674919177
 20
30.8841730531
 11
154.0253041972
 21
30.7551182848
  0
LINE
  8
0
 62
7
  6
CONTINUOUS
 10
153.5049916972
 20
31.2390736489
 11
153.4471794177
 21
31.400392081
  0
LINE
  8
0
 62
7
  6
CONTINUOUS
 10
153.9674919177
 20
31.4326557675
 11
153.9674919177
 21
31.3681283946
  0
LINE
  8
0
 62
7
  6
CONTINUOUS
 10
153.9674919177
 20
30.9809641124
 11
153.9674919177
 21
30.8841730531
  0
LINE
  8
0
 62
7
  6
CONTINUOUS
 10
154.245872955
 20
32.3970785186
 11
154.245872955
 21
36.1675703219
  0
LINE
  8
0
 62
7
  6
CONTINUOUS
 10
154.2565543074
 20
30.8519093441
 11
154.2565543074
 21
30.9164367395
  0
LINE
  8
0
 62
7
  6
CONTINUOUS
 10
154.5737418074
 20
36.1675703219
 11
154.5737418074
 21
32.3970785186
  0
LINE
  8
0
 62
7
  6
CONTINUOUS
 10
151.3659292523
 20
30.7873819712
 11
151.4237418626
 21
30.9164367395
  0
LINE
  8
0
 62
7
  6
CONTINUOUS
 10
155.759679528
 20
30.6905909007
 11
155.7018665869
 21
30.8519093441
  0
LINE
  8
0
 62
7
  6
CONTINUOUS
 10
155.412804528
 20
31.3681283946
 11
155.412804528
 21
31.2713373354
  0
LINE
  8
0
 62
7
  6
CONTINUOUS
 10
155.412804528
 20
31.1422825445
 11
155.412804528
 21
30.9487004259
  0
LINE
  8
0
 62
7
  6
CONTINUOUS
 10
155.7018665869
 20
30.8519093441
 11
155.7018665869
 21
31.3681283946
  0
LINE
  8
0
 62
7
  6
CONTINUOUS
 10
155.9671844304
 20
32.3970785186
 11
155.9671844304
 21
34.2003572071
  0
LINE
  8
0
 62
7
  6
CONTINUOUS
 10
155.9671844304
 20
35.511832617
 11
155.9671844304
 21
36.1675703219
  0
LINE
  8
0
 62
7
  6
CONTINUOUS
 10
156.279992028
 20
32.1101932727
 11
156.279992028
 21
31.9488748406
  0
LINE
  8
0
 62
7
  6
CONTINUOUS
 10
156.279992028
 20
31.626237886
 11
156.279992028
 21
30.5937998301
  0
LINE
  8
0
 62
7
  6
CONTINUOUS
 10
156.5690540869
 20
30.5937998301
 11
156.5690540869
 21
31.626237886
  0
LINE
  8
0
 62
7
  6
CONTINUOUS
 10
156.5690540869
 20
31.9488748406
 11
156.5690540869
 21
32.1101932727
  0
LINE
  8
0
 62
7
  6
CONTINUOUS
 10
151.1346793074
 20
30.9164367395
 11
151.0768668626
 21
30.8196456577
  0
LINE
  8
0
 62
7
  6
CONTINUOUS
 10
153.4471794177
 20
31.400392081
 11
153.3893668074
 21
31.4649194539
  0
LINE
  8
0
 62
7
  6
CONTINUOUS
 10
154.3143669177
 20
30.7873819712
 11
154.2565543074
 21
30.8519093441
  0
LINE
  8
0
 62
7
  6
CONTINUOUS
 10
155.4706168074
 20
30.6583272086
 11
155.5284290869
 21
30.5937998301
  0
LINE
  8
0
 62
7
  6
CONTINUOUS
 10
155.412804528
 20
30.7551182848
 11
155.4706168074
 21
30.6583272086
  0
LINE
  8
0
 62
7
  6
CONTINUOUS
 10
155.8174918074
 20
30.5937998301
 11
155.759679528
 21
30.6905909007
  0
LINE
  8
0
 62
7
  6
CONTINUOUS
 10
155.7018665869
 20
31.3681283946
 11
155.6440543074
 21
31.4649194539
  0
LINE
  8
0
 62
7
  6
CONTINUOUS
 10
157.0315543074
 20
31.626237886
 11
157.0315543074
 21
30.5937998301
  0
LINE
  8
0
 62
7
  6
CONTINUOUS
 10
157.320617028
 20
30.5937998301
 11
157.320617028
 21
31.3358647082
  0
LINE
  8
0
 62
7
  6
CONTINUOUS
 10
157.320617028
 20
31.4649194539
 11
157.320617028
 21
31.626237886
  0
LINE
  8
0
 62
7
  6
CONTINUOUS
 10
157.852430332
 20
34.6101932727
 11
157.852430332
 21
32.3970785186
  0
LINE
  8
0
 62
7
  6
CONTINUOUS
 10
149.7471793074
 20
31.4326557675
 11
149.6315543091
 21
31.3036010218
  0
LINE
  8
0
 62
7
  6
CONTINUOUS
 10
149.9206168074
 20
31.2713373354
 11
149.9784292936
 21
31.3358647082
  0
LINE
  8
0
 62
7
  6
CONTINUOUS
 10
149.7471793074
 20
30.7873819712
 11
149.8628043005
 21
30.7228545871
  0
LINE
  8
0
 62
7
  6
CONTINUOUS
 10
150.1518667936
 20
30.7873819712
 11
149.9784292936
 21
30.8841730531
  0
LINE
  8
0
 62
7
  6
CONTINUOUS
 10
155.3549915869
 20
31.4326557675
 11
155.412804528
 21
31.3681283946
  0
LINE
  8
0
 62
7
  6
CONTINUOUS
 10
158.3034290869
 20
31.3681283946
 11
158.361242028
 21
31.2068099625
  0
LINE
  8
0
 62
7
  6
CONTINUOUS
 10
158.6503040869
 20
31.2068099625
 11
158.5924918074
 21
31.3681283946
  0
LINE
  8
0
 62
7
  6
CONTINUOUS
 10
158.361242028
 20
31.2068099625
 11
158.361242028
 21
30.5937998301
  0
LINE
  8
0
 62
7
  6
CONTINUOUS
 10
158.6503040869
 20
30.5937998301
 11
158.6503040869
 21
31.2068099625
  0
LINE
  8
0
 62
7
  6
CONTINUOUS
 10
159.1128043074
 20
31.4326557675
 11
159.1128043074
 21
31.3681283946
  0
LINE
  8
0
 62
7
  6
CONTINUOUS
 10
159.245872955
 20
32.3970785186
 11
159.245872955
 21
34.5282260596
  0
LINE
  8
0
 62
7
  6
CONTINUOUS
 10
159.5737418074
 20
36.1675703219
 11
159.5737418074
 21
32.3970785186
  0
LINE
  8
0
 62
7
  6
CONTINUOUS
 10
154.2565543074
 20
30.9164367395
 11
154.3143669177
 21
31.0132277988
  0
LINE
  8
0
 62
7
  6
CONTINUOUS
 10
149.8628043005
 20
30.7228545871
 11
150.0362418212
 21
30.6583272086
  0
LINE
  8
0
 62
7
  6
CONTINUOUS
 10
151.3659292523
 20
31.4326557675
 11
151.1924917523
 21
31.5294468267
  0
LINE
  8
0
 62
7
  6
CONTINUOUS
 10
154.0253041972
 20
30.7551182848
 11
154.1987416972
 21
30.6583272086
  0
LINE
  8
0
 62
7
  6
CONTINUOUS
 10
153.0424918074
 20
31.4326557675
 11
153.1581166972
 21
31.3681283946
  0
LINE
  8
0
 62
7
  6
CONTINUOUS
 10
153.3893668074
 20
31.4649194539
 11
153.2737419177
 21
31.5294468267
  0
LINE
  8
0
 62
7
  6
CONTINUOUS
 10
159.1128043074
 20
30.8519093441
 11
159.228429528
 21
30.7228545871
  0
LINE
  8
0
 62
7
  6
CONTINUOUS
 10
159.4596793074
 20
30.7873819712
 11
159.401867028
 21
30.8519093441
  0
LINE
  8
0
 62
7
  6
CONTINUOUS
 10
159.1128043074
 20
31.3681283946
 11
159.228429528
 21
31.2390736489
  0
LINE
  8
0
 62
7
  6
CONTINUOUS
 10
158.5924918074
 20
31.3681283946
 11
158.534679528
 21
31.4649194539
  0
LINE
  8
0
 62
7
  6
CONTINUOUS
 10
160.9628038663
 20
30.7873819712
 11
160.9628038663
 21
30.8519093441
  0
LINE
  8
0
 62
7
  6
CONTINUOUS
 10
160.9671844304
 20
32.3970785186
 11
160.9671844304
 21
36.1675703219
  0
LINE
  8
0
 62
7
  6
CONTINUOUS
 10
154.0253041972
 20
31.4971831403
 11
153.9674919177
 21
31.4326557675
  0
LINE
  8
0
 62
7
  6
CONTINUOUS
 10
150.9034292799
 20
31.4649194539
 11
151.0768668626
 21
31.400392081
  0
LINE
  8
0
 62
7
  6
CONTINUOUS
 10
155.6440543074
 20
31.4649194539
 11
155.5284290869
 21
31.5294468267
  0
LINE
  8
0
 62
7
  6
CONTINUOUS
 10
159.4596793074
 20
31.3036010218
 11
159.401867028
 21
31.3681283946
  0
LINE
  8
0
 62
7
  6
CONTINUOUS
 10
160.615929528
 20
30.9164367395
 11
160.6737418074
 21
30.8519093441
  0
LINE
  8
0
 62
7
  6
CONTINUOUS
 10
160.9628038663
 20
30.8519093441
 11
160.8471793074
 21
30.9809641124
  0
LINE
  8
0
 62
7
  6
CONTINUOUS
 10
160.615929528
 20
31.4326557675
 11
160.6737418074
 21
31.3681283946
  0
LINE
  8
0
 62
7
  6
CONTINUOUS
 10
160.9628038663
 20
31.3681283946
 11
160.8471793074
 21
31.4971831403
  0
LINE
  8
0
 62
7
  6
CONTINUOUS
 10
154.2565543074
 20
31.3681283946
 11
154.3143669177
 21
31.4326557675
  0
LINE
  8
0
 62
7
  6
CONTINUOUS
 10
154.0831168074
 20
31.1100188581
 11
153.9674919177
 21
30.9809641124
  0
LINE
  8
0
 62
7
  6
CONTINUOUS
 10
155.412804528
 20
30.9487004259
 11
155.3549915869
 21
30.8841730531
  0
LINE
  8
0
 62
7
  6
CONTINUOUS
 10
155.3549915869
 20
30.6905909007
 11
155.412804528
 21
30.7551182848
  0
LINE
  8
0
 62
7
  6
CONTINUOUS
 10
154.1987416972
 20
30.6583272086
 11
154.3143669177
 21
30.6260635193
  0
LINE
  8
0
 62
7
  6
CONTINUOUS
 10
151.1924917523
 20
31.5294468267
 11
150.9612418074
 21
31.5939741996
  0
LINE
  8
0
 62
7
  6
CONTINUOUS
 10
154.5456166972
 20
30.7228545871
 11
154.3143669177
 21
30.7873819712
  0
LINE
  8
0
 62
7
  6
CONTINUOUS
 10
153.2737419177
 20
31.5294468267
 11
153.1003044177
 21
31.5939741996
  0
LINE
  8
0
 62
7
  6
CONTINUOUS
 10
155.5284290869
 20
31.5294468267
 11
155.3549915869
 21
31.5939741996
  0
LINE
  8
0
 62
7
  6
CONTINUOUS
 10
158.187804528
 20
31.4326557675
 11
158.3034290869
 21
31.3681283946
  0
LINE
  8
0
 62
7
  6
CONTINUOUS
 10
158.534679528
 20
31.4649194539
 11
158.4190543074
 21
31.5294468267
  0
LINE
  8
0
 62
7
  6
CONTINUOUS
 10
150.0362418212
 20
30.6583272086
 11
150.2096793212
 21
30.6260635193
  0
LINE
  8
0
 62
7
  6
CONTINUOUS
 10
150.498741835
 20
30.7228545871
 11
150.1518667936
 21
30.7873819712
  0
LINE
  8
0
 62
7
  6
CONTINUOUS
 10
152.9268669177
 20
31.4649194539
 11
153.0424918074
 21
31.4326557675
  0
LINE
  8
0
 62
7
  6
CONTINUOUS
 10
155.239367028
 20
31.4649194539
 11
155.3549915869
 21
31.4326557675
  0
LINE
  8
0
 62
7
  6
CONTINUOUS
 10
159.575304528
 20
30.7551182848
 11
159.4596793074
 21
30.7873819712
  0
LINE
  8
0
 62
7
  6
CONTINUOUS
 10
158.0721793074
 20
31.4649194539
 11
158.187804528
 21
31.4326557675
  0
LINE
  8
0
 62
7
  6
CONTINUOUS
 10
159.228429528
 20
30.7228545871
 11
159.401867028
 21
30.6583272086
  0
LINE
  8
0
 62
7
  6
CONTINUOUS
 10
158.4190543074
 20
31.5294468267
 11
158.2456168074
 21
31.5939741996
  0
LINE
  8
0
 62
7
  6
CONTINUOUS
 10
159.6331168074
 20
31.2390736489
 11
159.4596793074
 21
31.3036010218
  0
LINE
  8
0
 62
7
  6
CONTINUOUS
 10
160.442492028
 20
30.9809641124
 11
160.615929528
 21
30.9164367395
  0
LINE
  8
0
 62
7
  6
CONTINUOUS
 10
160.8471793074
 20
31.4971831403
 11
160.6737418074
 21
31.5617105132
  0
LINE
  8
0
 62
7
  6
CONTINUOUS
 10
159.228429528
 20
31.2390736489
 11
159.4596793074
 21
31.1422825445
  0
LINE
  8
0
 62
7
  6
CONTINUOUS
 10
160.8471793074
 20
30.9809641124
 11
160.615929528
 21
31.0777551716
  0
LINE
  8
0
 62
7
  6
CONTINUOUS
 10
159.401867028
 20
31.3681283946
 11
159.4596793074
 21
31.4326557675
  0
LINE
  8
0
 62
7
  6
CONTINUOUS
 10
149.8628043005
 20
31.4971831403
 11
149.7471793074
 21
31.4326557675
  0
LINE
  8
0
 62
7
  6
CONTINUOUS
 10
149.9784292936
 20
31.3358647082
 11
150.1518667936
 21
31.4326557675
  0
LINE
  8
0
 62
7
  6
CONTINUOUS
 10
152.2909293626
 20
31.5294468267
 11
152.1753043074
 21
31.4649194539
  0
LINE
  8
0
 62
7
  6
CONTINUOUS
 10
152.1753043074
 20
31.3358647082
 11
152.2909293626
 21
31.400392081
  0
LINE
  8
0
 62
7
  6
CONTINUOUS
 10
151.1924917523
 20
30.6905909007
 11
151.3659292523
 21
30.7873819712
  0
LINE
  8
0
 62
7
  6
CONTINUOUS
 10
150.2096793212
 20
30.6260635193
 11
150.5565542799
 21
30.5937998301
  0
LINE
  8
0
 62
7
  6
CONTINUOUS
 10
154.3143669177
 20
30.6260635193
 11
154.5456166972
 21
30.5937998301
  0
LINE
  8
0
 62
7
  6
CONTINUOUS
 10
152.6956168074
 20
31.4971831403
 11
152.9268669177
 21
31.4649194539
  0
LINE
  8
0
 62
7
  6
CONTINUOUS
 10
155.0081169177
 20
31.4971831403
 11
155.239367028
 21
31.4649194539
  0
LINE
  8
0
 62
7
  6
CONTINUOUS
 10
159.4596793074
 20
31.1422825445
 11
160.442492028
 21
30.9809641124
  0
LINE
  8
0
 62
7
  6
CONTINUOUS
 10
160.615929528
 20
31.0777551716
 11
159.6331168074
 21
31.2390736489
  0
LINE
  8
0
 62
7
  6
CONTINUOUS
 10
153.1003044177
 20
31.5939741996
 11
152.9268669177
 21
31.626237886
  0
LINE
  8
0
 62
7
  6
CONTINUOUS
 10
159.401867028
 20
30.6583272086
 11
159.575304528
 21
30.6260635193
  0
LINE
  8
0
 62
7
  6
CONTINUOUS
 10
158.2456168074
 20
31.5939741996
 11
158.0721793074
 21
31.626237886
  0
LINE
  8
0
 62
7
  6
CONTINUOUS
 10
160.5003043074
 20
31.4649194539
 11
160.615929528
 21
31.4326557675
  0
LINE
  8
0
 62
7
  6
CONTINUOUS
 10
160.6737418074
 20
30.8519093441
 11
160.615929528
 21
30.7873819712
  0
LINE
  8
0
 62
7
  6
CONTINUOUS
 10
159.228429528
 20
31.5294468267
 11
159.1128043074
 21
31.4326557675
  0
LINE
  8
0
 62
7
  6
CONTINUOUS
 10
154.1409294177
 20
31.5617105132
 11
154.0253041972
 21
31.4971831403
  0
LINE
  8
0
 62
7
  6
CONTINUOUS
 10
154.1987416972
 20
31.1745462761
 11
154.0831168074
 21
31.1100188581
  0
LINE
  8
0
 62
7
  6
CONTINUOUS
 10
154.3143669177
 20
31.0132277988
 11
154.4299918074
 21
31.0777551716
  0
LINE
  8
0
 62
7
  6
CONTINUOUS
 10
151.8862417523
 20
30.5937998301
 11
152.1753043074
 21
30.5937998301
  0
LINE
  8
0
 62
7
  6
CONTINUOUS
 10
153.2159293074
 20
30.5937998301
 11
153.5049916972
 21
30.5937998301
  0
LINE
  8
0
 62
7
  6
CONTINUOUS
 10
154.5456166972
 20
30.5937998301
 11
154.8924916972
 21
30.5937998301
  0
LINE
  8
0
 62
7
  6
CONTINUOUS
 10
155.5284290869
 20
30.5937998301
 11
155.8174918074
 21
30.5937998301
  0
LINE
  8
0
 62
7
  6
CONTINUOUS
 10
156.279992028
 20
30.5937998301
 11
156.5690540869
 21
30.5937998301
  0
LINE
  8
0
 62
7
  6
CONTINUOUS
 10
157.0315543074
 20
30.5937998301
 11
157.320617028
 21
30.5937998301
  0
LINE
  8
0
 62
7
  6
CONTINUOUS
 10
158.361242028
 20
30.5937998301
 11
158.6503040869
 21
30.5937998301
  0
LINE
  8
0
 62
7
  6
CONTINUOUS
 10
159.922179528
 20
30.5937998301
 11
160.269054528
 21
30.5937998301
  0
LINE
  8
0
 62
7
  6
CONTINUOUS
 10
160.269054528
 20
30.7228545871
 11
159.922179528
 21
30.7228545871
  0
LINE
  8
0
 62
7
  6
CONTINUOUS
 10
154.8924916972
 20
30.7228545871
 11
154.5456166972
 21
30.7228545871
  0
LINE
  8
0
 62
7
  6
CONTINUOUS
 10
159.401867028
 20
30.8519093441
 11
159.1128043074
 21
30.8519093441
  0
LINE
  8
0
 62
7
  6
CONTINUOUS
 10
151.4237418626
 20
30.9164367395
 11
151.1346793074
 21
30.9164367395
  0
LINE
  8
0
 62
7
  6
CONTINUOUS
 10
150.498741835
 20
31.4971831403
 11
150.9034292799
 21
31.4649194539
  0
LINE
  8
0
 62
7
  6
CONTINUOUS
 10
150.9612418074
 20
31.5939741996
 11
150.5565542799
 21
31.626237886
  0
LINE
  8
0
 62
7
  6
CONTINUOUS
 10
159.575304528
 20
30.6260635193
 11
159.922179528
 21
30.5937998301
  0
LINE
  8
0
 62
7
  6
CONTINUOUS
 10
159.922179528
 20
30.7228545871
 11
159.575304528
 21
30.7551182848
  0
LINE
  8
0
 62
7
  6
CONTINUOUS
 10
155.3549915869
 20
31.5939741996
 11
155.0081169177
 21
31.626237886
  0
LINE
  8
0
 62
7
  6
CONTINUOUS
 10
160.1534293074
 20
31.4971831403
 11
160.5003043074
 21
31.4649194539
  0
LINE
  8
0
 62
7
  6
CONTINUOUS
 10
160.5003043074
 20
31.5939741996
 11
160.1534293074
 21
31.626237886
  0
LINE
  8
0
 62
7
  6
CONTINUOUS
 10
157.840929528
 20
31.4971831403
 11
158.0721793074
 21
31.4649194539
  0
LINE
  8
0
 62
7
  6
CONTINUOUS
 10
160.6737418074
 20
31.5617105132
 11
160.5003043074
 21
31.5939741996
  0
LINE
  8
0
 62
7
  6
CONTINUOUS
 10
160.8471793074
 20
30.6905909007
 11
160.9628038663
 21
30.7873819712
  0
LINE
  8
0
 62
7
  6
CONTINUOUS
 10
155.3549915869
 20
30.8841730531
 11
155.1815540869
 21
30.7873819712
  0
LINE
  8
0
 62
7
  6
CONTINUOUS
 10
157.4362415869
 20
31.5294468267
 11
157.320617028
 21
31.4649194539
  0
LINE
  8
0
 62
7
  6
CONTINUOUS
 10
157.320617028
 20
31.3358647082
 11
157.4362415869
 21
31.400392081
  0
LINE
  8
0
 62
7
  6
CONTINUOUS
 10
150.0362418212
 20
31.5617105132
 11
149.8628043005
 21
31.4971831403
  0
LINE
  8
0
 62
7
  6
CONTINUOUS
 10
152.4643666972
 20
31.5939741996
 11
152.2909293626
 21
31.5294468267
  0
LINE
  8
0
 62
7
  6
CONTINUOUS
 10
152.2909293626
 20
31.400392081
 11
152.4643666972
 21
31.4649194539
  0
LINE
  8
0
 62
7
  6
CONTINUOUS
 10
151.0768668626
 20
30.8196456577
 11
150.9034292799
 21
30.7551182848
  0
LINE
  8
0
 62
7
  6
CONTINUOUS
 10
160.5003043074
 20
30.7551182848
 11
160.269054528
 21
30.7228545871
  0
LINE
  8
0
 62
7
  6
CONTINUOUS
 10
154.8924916972
 20
30.5937998301
 11
155.1815540869
 21
30.6260635193
  0
LINE
  8
0
 62
7
  6
CONTINUOUS
 10
160.269054528
 20
30.5937998301
 11
160.615929528
 21
30.6260635193
  0
LINE
  8
0
 62
7
  6
CONTINUOUS
 10
150.5565542799
 20
30.5937998301
 11
150.9612418074
 21
30.6260635193
  0
LINE
  8
0
 62
7
  6
CONTINUOUS
 10
150.9034292799
 20
30.7551182848
 11
150.498741835
 21
30.7228545871
  0
LINE
  8
0
 62
7
  6
CONTINUOUS
 10
154.7768668074
 20
31.1422825445
 11
155.412804528
 21
31.1422825445
  0
LINE
  8
0
 62
7
  6
CONTINUOUS
 10
155.412804528
 20
31.2713373354
 11
154.7768668074
 21
31.2713373354
  0
LINE
  8
0
 62
7
  6
CONTINUOUS
 10
151.1346793074
 20
31.3036010218
 11
151.4237418626
 21
31.3036010218
  0
LINE
  8
0
 62
7
  6
CONTINUOUS
 10
153.9674919177
 20
31.3681283946
 11
154.2565543074
 21
31.3681283946
  0
LINE
  8
0
 62
7
  6
CONTINUOUS
 10
160.6737418074
 20
31.3681283946
 11
160.9628038663
 21
31.3681283946
  0
LINE
  8
0
 62
7
  6
CONTINUOUS
 10
154.6612419177
 20
31.4971831403
 11
155.0081169177
 21
31.4971831403
  0
LINE
  8
0
 62
7
  6
CONTINUOUS
 10
159.8065543074
 20
31.4971831403
 11
160.1534293074
 21
31.4971831403
  0
LINE
  8
0
 62
7
  6
CONTINUOUS
 10
160.1534293074
 20
31.626237886
 11
159.8065543074
 21
31.626237886
  0
LINE
  8
0
 62
7
  6
CONTINUOUS
 10
158.0721793074
 20
31.626237886
 11
157.840929528
 21
31.626237886
  0
LINE
  8
0
 62
7
  6
CONTINUOUS
 10
157.320617028
 20
31.626237886
 11
157.0315543074
 21
31.626237886
  0
LINE
  8
0
 62
7
  6
CONTINUOUS
 10
156.5690540869
 20
31.626237886
 11
156.279992028
 21
31.626237886
  0
LINE
  8
0
 62
7
  6
CONTINUOUS
 10
155.0081169177
 20
31.626237886
 11
154.6612419177
 21
31.626237886
  0
LINE
  8
0
 62
7
  6
CONTINUOUS
 10
152.9268669177
 20
31.626237886
 11
152.6956168074
 21
31.626237886
  0
LINE
  8
0
 62
7
  6
CONTINUOUS
 10
156.279992028
 20
31.9488748406
 11
156.5690540869
 21
31.9488748406
  0
LINE
  8
0
 62
7
  6
CONTINUOUS
 10
156.5690540869
 20
32.1101932727
 11
156.279992028
 21
32.1101932727
  0
LINE
  8
0
 62
7
  6
CONTINUOUS
 10
152.1753043074
 20
32.1101932727
 11
151.8862417523
 21
32.1101932727
  0
LINE
  8
0
 62
7
  6
CONTINUOUS
 10
151.2130860697
 20
32.3970785186
 11
151.6256574183
 21
32.3970785186
  0
LINE
  8
0
 62
7
  6
CONTINUOUS
 10
152.852430332
 20
32.3970785186
 11
154.245872955
 21
32.3970785186
  0
LINE
  8
0
 62
7
  6
CONTINUOUS
 10
154.5737418074
 20
32.3970785186
 11
155.9671844304
 21
32.3970785186
  0
LINE
  8
0
 62
7
  6
CONTINUOUS
 10
157.852430332
 20
32.3970785186
 11
159.245872955
 21
32.3970785186
  0
LINE
  8
0
 62
7
  6
CONTINUOUS
 10
159.5737418074
 20
32.3970785186
 11
160.9671844304
 21
32.3970785186
  0
LINE
  8
0
 62
7
  6
CONTINUOUS
 10
157.6096790869
 20
31.5939741996
 11
157.4362415869
 21
31.5294468267
  0
LINE
  8
0
 62
7
  6
CONTINUOUS
 10
155.1815540869
 20
30.6260635193
 11
155.3549915869
 21
30.6905909007
  0
LINE
  8
0
 62
7
  6
CONTINUOUS
 10
160.615929528
 20
30.6260635193
 11
160.8471793074
 21
30.6905909007
  0
LINE
  8
0
 62
7
  6
CONTINUOUS
 10
160.615929528
 20
30.7873819712
 11
160.5003043074
 21
30.7551182848
  0
LINE
  8
0
 62
7
  6
CONTINUOUS
 10
159.575304528
 20
31.4649194539
 11
159.8065543074
 21
31.4971831403
  0
LINE
  8
0
 62
7
  6
CONTINUOUS
 10
157.6096790869
 20
31.4649194539
 11
157.840929528
 21
31.4971831403
  0
LINE
  8
0
 62
7
  6
CONTINUOUS
 10
154.5456166972
 20
31.1100188581
 11
154.7768668074
 21
31.1422825445
  0
LINE
  8
0
 62
7
  6
CONTINUOUS
 10
157.840929528
 20
31.626237886
 11
157.6096790869
 21
31.5939741996
  0
LINE
  8
0
 62
7
  6
CONTINUOUS
 10
154.4299918074
 20
31.4649194539
 11
154.6612419177
 21
31.4971831403
  0
LINE
  8
0
 62
7
  6
CONTINUOUS
 10
159.8065543074
 20
31.626237886
 11
159.4596793074
 21
31.5939741996
  0
LINE
  8
0
 62
7
  6
CONTINUOUS
 10
154.7768668074
 20
31.2713373354
 11
154.4299918074
 21
31.2390736489
  0
LINE
  8
0
 62
7
  6
CONTINUOUS
 10
150.5565542799
 20
31.626237886
 11
150.2096793212
 21
31.5939741996
  0
LINE
  8
0
 62
7
  6
CONTINUOUS
 10
154.6612419177
 20
31.626237886
 11
154.2565543074
 21
31.5939741996
  0
LINE
  8
0
 62
7
  6
CONTINUOUS
 10
152.0327582009
 20
33.5446195022
 11
151.3770204959
 21
33.5446195022
  0
LINE
  8
0
 62
7
  6
CONTINUOUS
 10
157.4362415869
 20
31.400392081
 11
157.6096790869
 21
31.4649194539
  0
LINE
  8
0
 62
7
  6
CONTINUOUS
 10
159.4596793074
 20
31.4326557675
 11
159.575304528
 21
31.4649194539
  0
LINE
  8
0
 62
7
  6
CONTINUOUS
 10
159.4596793074
 20
31.5939741996
 11
159.228429528
 21
31.5294468267
  0
LINE
  8
0
 62
7
  6
CONTINUOUS
 10
155.1815540869
 20
30.7873819712
 11
154.8924916972
 21
30.7228545871
  0
LINE
  8
0
 62
7
  6
CONTINUOUS
 10
152.4643666972
 20
31.4649194539
 11
152.6956168074
 21
31.4971831403
  0
LINE
  8
0
 62
7
  6
CONTINUOUS
 10
152.6956168074
 20
31.626237886
 11
152.4643666972
 21
31.5939741996
  0
LINE
  8
0
 62
7
  6
CONTINUOUS
 10
150.2674918074
 20
31.4649194539
 11
150.498741835
 21
31.4971831403
  0
LINE
  8
0
 62
7
  6
CONTINUOUS
 10
156.7868565615
 20
35.0200293383
 11
157.4425942664
 21
35.0200293383
  0
LINE
  8
0
 62
7
  6
CONTINUOUS
 10
154.4299918074
 20
31.0777551716
 11
154.5456166972
 21
31.1100188581
  0
LINE
  8
0
 62
7
  6
CONTINUOUS
 10
154.4299918074
 20
31.2390736489
 11
154.1987416972
 21
31.1745462761
  0
LINE
  8
0
 62
7
  6
CONTINUOUS
 10
154.3143669177
 20
31.4326557675
 11
154.4299918074
 21
31.4649194539
  0
LINE
  8
0
 62
7
  6
CONTINUOUS
 10
150.9612418074
 20
30.6260635193
 11
151.1924917523
 21
30.6905909007
  0
LINE
  8
0
 62
7
  6
CONTINUOUS
 10
154.2565543074
 20
31.5939741996
 11
154.1409294177
 21
31.5617105132
  0
LINE
  8
0
 62
7
  6
CONTINUOUS
 10
150.2096793212
 20
31.5939741996
 11
150.0362418212
 21
31.5617105132
  0
LINE
  8
0
 62
7
  6
CONTINUOUS
 10
160.9671844304
 20
36.1675703219
 11
159.5737418074
 21
36.1675703219
  0
LINE
  8
0
 62
7
  6
CONTINUOUS
 10
157.6065286927
 20
36.1675703219
 11
157.1939573441
 21
36.1675703219
  0
LINE
  8
0
 62
7
  6
CONTINUOUS
 10
155.9671844304
 20
36.1675703219
 11
154.5737418074
 21
36.1675703219
  0
LINE
  8
0
 62
7
  6
CONTINUOUS
 10
154.245872955
 20
36.1675703219
 11
152.852430332
 21
36.1675703219
  0
LINE
  8
0
 62
7
  6
CONTINUOUS
 10
150.9671844304
 20
36.1675703219
 11
149.5737418074
 21
36.1675703219
  0
LINE
  8
0
 62
7
  6
CONTINUOUS
 10
150.1518667936
 20
31.4326557675
 11
150.2674918074
 21
31.4649194539
  0
CIRCLE
  8
0
 62
7
  6
CONTINUOUS
 10
160.2704631189
 20
38.5036358957
 40
2.0901639344
  0
ARC
  8
0
 62
7
  6
CONTINUOUS
 10
151.2130860697
 20
34.0364227809
 40
1.6393442623
 50
180.0
 51
270.0
  0
ARC
  8
0
 62
7
  6
CONTINUOUS
 10
157.6065286927
 20
34.5282260596
 40
1.6393442623
 50
0.0
 51
90.0
  0
ARC
  8
0
 62
7
  6
CONTINUOUS
 10
151.6256574183
 20
33.8724883547
 40
1.4754098361
 50
270.0
 51
326.2510114041
  0
ARC
  8
0
 62
7
  6
CONTINUOUS
 10
157.1939573441
 20
34.6921604858
 40
1.4754098361
 50
90.0
 51
146.2510114041
  0
ARC
  8
0
 62
7
  6
CONTINUOUS
 10
152.0327582009
 20
34.3642916334
 40
0.8196721311
 50
270.0
 51
360.0
  0
ARC
  8
0
 62
7
  6
CONTINUOUS
 10
156.7868565615
 20
34.2003572071
 40
0.8196721311
 50
90.0
 51
180.0
  0
ARC
  8
0
 62
7
  6
CONTINUOUS
 10
151.3770204959
 20
33.9544555678
 40
0.4098360656
 50
180.0
 51
270.0
  0
ARC
  8
0
 62
7
  6
CONTINUOUS
 10
157.4425942664
 20
34.6101932727
 40
0.4098360656
 50
0.0
 51
90.0
  0
SOLID
  8
0
 62
7
  6
CONTINUOUS
 10
156.279992028
 20
31.9488752009
 11
156.279992028
 21
32.1101936845
 12
156.5690540869
 22
31.9488752009
 13
156.5690540869
 23
32.1101936845
  0
SOLID
  8
0
 62
7
  6
CONTINUOUS
 10
150.5565542799
 20
31.6262382337
 11
150.9612418074
 21
31.5939740028
 12
150.2096793212
 22
31.5939740028
 13
150.2096793212
 23
31.5939740028
  0
SOLID
  8
0
 62
7
  6
CONTINUOUS
 10
150.0362418212
 20
31.5617111435
 11
150.2096793212
 21
31.5939740028
 12
150.9612418074
 22
31.5939740028
 13
150.9612418074
 23
31.5939740028
  0
SOLID
  8
0
 62
7
  6
CONTINUOUS
 10
150.9612418074
 20
31.5939740028
 11
151.1924917523
 21
31.5294468402
 12
150.0362418212
 22
31.5617111435
 13
150.0362418212
 23
31.5617111435
  0
SOLID
  8
0
 62
7
  6
CONTINUOUS
 10
149.8628043005
 20
31.49718259
 11
150.0362418212
 21
31.5617111435
 12
151.1924917523
 22
31.5294468402
 13
151.1924917523
 23
31.5294468402
  0
SOLID
  8
0
 62
7
  6
CONTINUOUS
 10
149.8628043005
 20
31.49718259
 11
151.1924917523
 21
31.5294468402
 12
150.498741835
 22
31.49718259
 13
150.498741835
 23
31.49718259
  0
SOLID
  8
0
 62
7
  6
CONTINUOUS
 10
150.498741835
 20
31.49718259
 11
151.1924917523
 21
31.5294468402
 12
150.9034292799
 22
31.4649197501
 13
150.9034292799
 23
31.4649197501
  0
SOLID
  8
0
 62
7
  6
CONTINUOUS
 10
151.1924917523
 20
31.5294468402
 11
151.3659292523
 21
31.4326554468
 12
150.9034292799
 22
31.4649197501
 13
150.9034292799
 23
31.4649197501
  0
SOLID
  8
0
 62
7
  6
CONTINUOUS
 10
151.0768668626
 20
31.4003926599
 11
150.9034292799
 21
31.4649197501
 12
151.3659292523
 22
31.4326554468
 13
151.3659292523
 23
31.4326554468
  0
SOLID
  8
0
 62
7
  6
CONTINUOUS
 10
151.0768668626
 20
31.4003926599
 11
151.3659292523
 21
31.4326554468
 12
151.1346793074
 22
31.3036013776
 13
151.1346793074
 23
31.3036013776
  0
SOLID
  8
0
 62
7
  6
CONTINUOUS
 10
151.3659292523
 20
31.4326554468
 11
151.4237418626
 21
31.3036013776
 12
151.1346793074
 22
31.3036013776
 13
151.1346793074
 23
31.3036013776
  0
SOLID
  8
0
 62
7
  6
CONTINUOUS
 10
152.4643666972
 20
31.5939739754
 11
152.6956168074
 21
31.6262382787
 12
152.9268669177
 22
31.6262382787
 13
152.9268669177
 23
31.6262382787
  0
SOLID
  8
0
 62
7
  6
CONTINUOUS
 10
152.9268669177
 20
31.6262382787
 11
153.1003044177
 21
31.5939739754
 12
152.4643666972
 22
31.5939739754
 13
152.4643666972
 23
31.5939739754
  0
SOLID
  8
0
 62
7
  6
CONTINUOUS
 10
152.2909293626
 20
31.5294468852
 11
152.4643666972
 21
31.5939739754
 12
153.1003044177
 22
31.5939739754
 13
153.1003044177
 23
31.5939739754
  0
SOLID
  8
0
 62
7
  6
CONTINUOUS
 10
153.1003044177
 20
31.5939739754
 11
153.2737419177
 21
31.5294468852
 12
152.2909293626
 22
31.5294468852
 13
152.2909293626
 23
31.5294468852
  0
SOLID
  8
0
 62
7
  6
CONTINUOUS
 10
153.2737419177
 20
31.5294468852
 11
152.6956168074
 21
31.4971825369
 12
152.2909293626
 22
31.5294468852
 13
152.2909293626
 23
31.5294468852
  0
SOLID
  8
0
 62
7
  6
CONTINUOUS
 10
152.1753043074
 20
31.4649197951
 11
152.2909293626
 21
31.5294468852
 12
152.6956168074
 22
31.4971825369
 13
152.6956168074
 23
31.4971825369
  0
SOLID
  8
0
 62
7
  6
CONTINUOUS
 10
152.6956168074
 20
31.4971825369
 11
152.4643666972
 21
31.4649197951
 12
152.1753043074
 22
31.4649197951
 13
152.1753043074
 23
31.4649197951
  0
SOLID
  8
0
 62
7
  6
CONTINUOUS
 10
152.6956168074
 20
31.4971825369
 11
153.2737419177
 21
31.5294468852
 12
152.9268669177
 22
31.4649197951
 13
152.9268669177
 23
31.4649197951
  0
SOLID
  8
0
 62
7
  6
CONTINUOUS
 10
153.2737419177
 20
31.5294468852
 11
153.3893668074
 21
31.4649197951
 12
152.9268669177
 22
31.4649197951
 13
152.9268669177
 23
31.4649197951
  0
SOLID
  8
0
 62
7
  6
CONTINUOUS
 10
153.0424918074
 20
31.4326554468
 11
152.9268669177
 21
31.4649197951
 12
153.3893668074
 22
31.4649197951
 13
153.3893668074
 23
31.4649197951
  0
SOLID
  8
0
 62
7
  6
CONTINUOUS
 10
153.3893668074
 20
31.4649197951
 11
153.4471794177
 21
31.4003927049
 12
153.0424918074
 22
31.4326554468
 13
153.0424918074
 23
31.4326554468
  0
SOLID
  8
0
 62
7
  6
CONTINUOUS
 10
153.1581166972
 20
31.3681283566
 11
153.0424918074
 21
31.4326554468
 12
153.4471794177
 22
31.4003927049
 13
153.4471794177
 23
31.4003927049
  0
SOLID
  8
0
 62
7
  6
CONTINUOUS
 10
153.1581166972
 20
31.3681283566
 11
153.4471794177
 21
31.4003927049
 12
153.2159293074
 22
31.2390742213
 13
153.2159293074
 23
31.2390742213
  0
SOLID
  8
0
 62
7
  6
CONTINUOUS
 10
153.4471794177
 20
31.4003927049
 11
153.5049916972
 21
31.2390742213
 12
153.2159293074
 22
31.2390742213
 13
153.2159293074
 23
31.2390742213
  0
SOLID
  8
0
 62
7
  6
CONTINUOUS
 10
152.4643666972
 20
31.4649197951
 11
152.2909293626
 21
31.4003927049
 12
152.1753043074
 22
31.4649197951
 13
152.1753043074
 23
31.4649197951
  0
SOLID
  8
0
 62
7
  6
CONTINUOUS
 10
152.2909293626
 20
31.4003927049
 11
152.1753043074
 21
31.3358640533
 12
152.1753043074
 22
31.4649197951
 13
152.1753043074
 23
31.4649197951
  0
SOLID
  8
0
 62
7
  6
CONTINUOUS
 10
152.1753043074
 20
31.3358640533
 11
151.8862417523
 21
30.5938002869
 12
152.1753043074
 22
31.4649197951
 13
152.1753043074
 23
31.4649197951
  0
SOLID
  8
0
 62
7
  6
CONTINUOUS
 10
152.1753043074
 20
31.4649197951
 11
151.8862417523
 21
30.5938002869
 12
152.1753043074
 22
32.1101937295
 13
152.1753043074
 23
32.1101937295
  0
SOLID
  8
0
 62
7
  6
CONTINUOUS
 10
151.8862417523
 20
30.5938002869
 11
151.8862417523
 21
32.1101937295
 12
152.1753043074
 22
32.1101937295
 13
152.1753043074
 23
32.1101937295
  0
SOLID
  8
0
 62
7
  6
CONTINUOUS
 10
152.1753043074
 20
31.3358640533
 11
152.1753043074
 21
30.5938002869
 12
151.8862417523
 22
30.5938002869
 13
151.8862417523
 23
30.5938002869
  0
SOLID
  8
0
 62
7
  6
CONTINUOUS
 10
153.2159293074
 20
30.5938002869
 11
153.2159293074
 21
31.2390742213
 12
153.5049916972
 22
31.2390742213
 13
153.5049916972
 23
31.2390742213
  0
SOLID
  8
0
 62
7
  6
CONTINUOUS
 10
153.5049916972
 20
31.2390742213
 11
153.5049916972
 21
30.5938002869
 12
153.2159293074
 22
30.5938002869
 13
153.2159293074
 23
30.5938002869
  0
SOLID
  8
0
 62
7
  6
CONTINUOUS
 10
154.2565543074
 20
31.5939738288
 11
154.6612419177
 21
31.6262385959
 12
155.0081169177
 22
31.6262385959
 13
155.0081169177
 23
31.6262385959
  0
SOLID
  8
0
 62
7
  6
CONTINUOUS
 10
155.0081169177
 20
31.6262385959
 11
155.3549915869
 21
31.5939738288
 12
154.2565543074
 22
31.5939738288
 13
154.2565543074
 23
31.5939738288
  0
SOLID
  8
0
 62
7
  6
CONTINUOUS
 10
154.1409294177
 20
31.5617111435
 11
154.2565543074
 21
31.5939738288
 12
155.3549915869
 22
31.5939738288
 13
155.3549915869
 23
31.5939738288
  0
SOLID
  8
0
 62
7
  6
CONTINUOUS
 10
155.3549915869
 20
31.5939738288
 11
155.5284290869
 21
31.5294468402
 12
154.1409294177
 22
31.5617111435
 13
154.1409294177
 23
31.5617111435
  0
SOLID
  8
0
 62
7
  6
CONTINUOUS
 10
154.0253041972
 20
31.4971826249
 11
154.1409294177
 21
31.5617111435
 12
155.5284290869
 22
31.5294468402
 13
155.5284290869
 23
31.5294468402
  0
SOLID
  8
0
 62
7
  6
CONTINUOUS
 10
154.0253041972
 20
31.4971826249
 11
155.5284290869
 21
31.5294468402
 12
154.6612419177
 22
31.4971826249
 13
154.6612419177
 23
31.4971826249
  0
SOLID
  8
0
 62
7
  6
CONTINUOUS
 10
154.6612419177
 20
31.4971826249
 11
155.5284290869
 21
31.5294468402
 12
155.0081169177
 22
31.4971826249
 13
155.0081169177
 23
31.4971826249
  0
SOLID
  8
0
 62
7
  6
CONTINUOUS
 10
155.0081169177
 20
31.4971826249
 11
155.5284290869
 21
31.5294468402
 12
155.239367028
 22
31.4649194065
 13
155.239367028
 23
31.4649194065
  0
SOLID
  8
0
 62
7
  6
CONTINUOUS
 10
155.5284290869
 20
31.5294468402
 11
155.6440543074
 21
31.4649194065
 12
155.239367028
 22
31.4649194065
 13
155.239367028
 23
31.4649194065
  0
SOLID
  8
0
 62
7
  6
CONTINUOUS
 10
153.9674919177
 20
31.4326554138
 11
154.0253041972
 21
31.4971826249
 12
154.6612419177
 22
31.4971826249
 13
154.6612419177
 23
31.4971826249
  0
SOLID
  8
0
 62
7
  6
CONTINUOUS
 10
155.3549915869
 20
31.4326554138
 11
155.239367028
 21
31.4649194065
 12
155.6440543074
 22
31.4649194065
 13
155.6440543074
 23
31.4649194065
  0
SOLID
  8
0
 62
7
  6
CONTINUOUS
 10
155.3549915869
 20
31.4326554138
 11
155.6440543074
 21
31.4649194065
 12
155.412804528
 22
31.3681282026
 13
155.412804528
 23
31.3681282026
  0
SOLID
  8
0
 62
7
  6
CONTINUOUS
 10
155.6440543074
 20
31.4649194065
 11
155.7018665869
 21
31.3681282026
 12
155.412804528
 22
31.3681282026
 13
155.412804528
 23
31.3681282026
  0
SOLID
  8
0
 62
7
  6
CONTINUOUS
 10
155.412804528
 20
31.2713369632
 11
155.412804528
 21
31.3681282026
 12
155.7018665869
 22
31.3681282026
 13
155.7018665869
 23
31.3681282026
  0
SOLID
  8
0
 62
7
  6
CONTINUOUS
 10
155.412804528
 20
31.2713369632
 11
155.7018665869
 21
31.3681282026
 12
155.412804528
 22
31.1422827828
 13
155.412804528
 23
31.1422827828
  0
SOLID
  8
0
 62
7
  6
CONTINUOUS
 10
155.412804528
 20
31.1422827828
 11
155.7018665869
 21
31.3681282026
 12
155.412804528
 22
30.9487004259
 13
155.412804528
 23
30.9487004259
  0
SOLID
  8
0
 62
7
  6
CONTINUOUS
 10
155.7018665869
 20
31.3681282026
 11
155.7018665869
 21
30.8519086025
 12
155.412804528
 22
30.9487004259
 13
155.412804528
 23
30.9487004259
  0
SOLID
  8
0
 62
7
  6
CONTINUOUS
 10
157.6096790869
 20
31.5939736268
 11
157.840929528
 21
31.6262383465
 12
158.0721793074
 22
31.6262383465
 13
158.0721793074
 23
31.6262383465
  0
SOLID
  8
0
 62
7
  6
CONTINUOUS
 10
158.0721793074
 20
31.6262383465
 11
158.2456168074
 21
31.5939736268
 12
157.6096790869
 22
31.5939736268
 13
157.6096790869
 23
31.5939736268
  0
SOLID
  8
0
 62
7
  6
CONTINUOUS
 10
157.4362415869
 20
31.5294472848
 11
157.6096790869
 21
31.5939736268
 12
158.2456168074
 22
31.5939736268
 13
158.2456168074
 23
31.5939736268
  0
SOLID
  8
0
 62
7
  6
CONTINUOUS
 10
158.2456168074
 20
31.5939736268
 11
158.4190543074
 21
31.5294472848
 12
157.4362415869
 22
31.5294472848
 13
157.4362415869
 23
31.5294472848
  0
SOLID
  8
0
 62
7
  6
CONTINUOUS
 10
158.4190543074
 20
31.5294472848
 11
157.840929528
 21
31.4971825369
 12
157.4362415869
 22
31.5294472848
 13
157.4362415869
 23
31.5294472848
  0
SOLID
  8
0
 62
7
  6
CONTINUOUS
 10
157.320617028
 20
31.4649199103
 11
157.4362415869
 21
31.5294472848
 12
157.840929528
 22
31.4971825369
 13
157.840929528
 23
31.4971825369
  0
SOLID
  8
0
 62
7
  6
CONTINUOUS
 10
157.840929528
 20
31.4971825369
 11
157.6096790869
 21
31.4649199103
 12
157.320617028
 22
31.4649199103
 13
157.320617028
 23
31.4649199103
  0
SOLID
  8
0
 62
7
  6
CONTINUOUS
 10
157.840929528
 20
31.4971825369
 11
158.4190543074
 21
31.5294472848
 12
158.0721793074
 22
31.4649199103
 13
158.0721793074
 23
31.4649199103
  0
SOLID
  8
0
 62
7
  6
CONTINUOUS
 10
158.4190543074
 20
31.5294472848
 11
158.534679528
 21
31.4649199103
 12
158.0721793074
 22
31.4649199103
 13
158.0721793074
 23
31.4649199103
  0
SOLID
  8
0
 62
7
  6
CONTINUOUS
 10
158.187804528
 20
31.4326554468
 11
158.0721793074
 21
31.4649199103
 12
158.534679528
 22
31.4649199103
 13
158.534679528
 23
31.4649199103
  0
SOLID
  8
0
 62
7
  6
CONTINUOUS
 10
158.187804528
 20
31.4326554468
 11
158.534679528
 21
31.4649199103
 12
158.3034290869
 22
31.3681288486
 13
158.3034290869
 23
31.3681288486
  0
SOLID
  8
0
 62
7
  6
CONTINUOUS
 10
158.534679528
 20
31.4649199103
 11
158.5924918074
 21
31.3681288486
 12
158.3034290869
 22
31.3681288486
 13
158.3034290869
 23
31.3681288486
  0
SOLID
  8
0
 62
7
  6
CONTINUOUS
 10
158.361242028
 20
31.2068093799
 11
158.3034290869
 21
31.3681288486
 12
158.5924918074
 22
31.3681288486
 13
158.5924918074
 23
31.3681288486
  0
SOLID
  8
0
 62
7
  6
CONTINUOUS
 10
158.5924918074
 20
31.3681288486
 11
158.6503040869
 21
31.2068093799
 12
158.361242028
 22
31.2068093799
 13
158.361242028
 23
31.2068093799
  0
SOLID
  8
0
 62
7
  6
CONTINUOUS
 10
157.6096790869
 20
31.4649199103
 11
157.4362415869
 21
31.4003926599
 12
157.320617028
 22
31.4649199103
 13
157.320617028
 23
31.4649199103
  0
SOLID
  8
0
 62
7
  6
CONTINUOUS
 10
157.4362415869
 20
31.4003926599
 11
157.320617028
 21
31.3358640533
 12
157.320617028
 22
31.4649199103
 13
157.320617028
 23
31.4649199103
  0
SOLID
  8
0
 62
7
  6
CONTINUOUS
 10
157.320617028
 20
31.3358640533
 11
157.0315543074
 21
30.5938003547
 12
157.320617028
 22
31.4649199103
 13
157.320617028
 23
31.4649199103
  0
SOLID
  8
0
 62
7
  6
CONTINUOUS
 10
157.320617028
 20
31.4649199103
 11
157.0315543074
 21
30.5938003547
 12
157.320617028
 22
31.6262383465
 13
157.320617028
 23
31.6262383465
  0
SOLID
  8
0
 62
7
  6
CONTINUOUS
 10
157.0315543074
 20
30.5938003547
 11
157.0315543074
 21
31.6262383465
 12
157.320617028
 22
31.6262383465
 13
157.320617028
 23
31.6262383465
  0
SOLID
  8
0
 62
7
  6
CONTINUOUS
 10
157.320617028
 20
31.3358640533
 11
157.320617028
 21
30.5938003547
 12
157.0315543074
 22
30.5938003547
 13
157.0315543074
 23
30.5938003547
  0
SOLID
  8
0
 62
7
  6
CONTINUOUS
 10
158.361242028
 20
30.5938003547
 11
158.361242028
 21
31.2068093799
 12
158.6503040869
 22
31.2068093799
 13
158.6503040869
 23
31.2068093799
  0
SOLID
  8
0
 62
7
  6
CONTINUOUS
 10
158.6503040869
 20
31.2068093799
 11
158.6503040869
 21
30.5938003547
 12
158.361242028
 22
30.5938003547
 13
158.361242028
 23
30.5938003547
  0
SOLID
  8
0
 62
7
  6
CONTINUOUS
 10
159.4596793074
 20
31.5939739474
 11
159.8065543074
 21
31.6262381969
 12
160.1534293074
 22
31.6262381969
 13
160.1534293074
 23
31.6262381969
  0
SOLID
  8
0
 62
7
  6
CONTINUOUS
 10
160.1534293074
 20
31.6262381969
 11
160.5003043074
 21
31.5939739474
 12
159.4596793074
 22
31.5939739474
 13
159.4596793074
 23
31.5939739474
  0
SOLID
  8
0
 62
7
  6
CONTINUOUS
 10
159.228429528
 20
31.5294468402
 11
159.4596793074
 21
31.5939739474
 12
160.5003043074
 22
31.5939739474
 13
160.5003043074
 23
31.5939739474
  0
SOLID
  8
0
 62
7
  6
CONTINUOUS
 10
159.228429528
 20
31.5294468402
 11
160.5003043074
 21
31.5939739304
 12
160.6737418074
 22
31.5617111435
 13
160.6737418074
 23
31.5617111435
  0
SOLID
  8
0
 62
7
  6
CONTINUOUS
 10
159.228429528
 20
31.5294468402
 11
160.6737418074
 21
31.5617111435
 12
159.8065543074
 22
31.4971825592
 13
159.8065543074
 23
31.4971825592
  0
SOLID
  8
0
 62
7
  6
CONTINUOUS
 10
159.8065543074
 20
31.4971825592
 11
160.6737418074
 21
31.5617111435
 12
160.1534293074
 22
31.4971825592
 13
160.1534293074
 23
31.4971825592
  0
SOLID
  8
0
 62
7
  6
CONTINUOUS
 10
160.6737418074
 20
31.5617111435
 11
160.8471793074
 21
31.4971825592
 12
160.1534293074
 22
31.4971825592
 13
160.1534293074
 23
31.4971825592
  0
SOLID
  8
0
 62
7
  6
CONTINUOUS
 10
160.5003043074
 20
31.4649197501
 11
160.1534293074
 21
31.4971825592
 12
160.8471793074
 22
31.4971825592
 13
160.8471793074
 23
31.4971825592
  0
SOLID
  8
0
 62
7
  6
CONTINUOUS
 10
159.1128043074
 20
31.4326555427
 11
159.228429528
 21
31.5294468402
 12
159.8065543074
 22
31.4971825592
 13
159.8065543074
 23
31.4971825592
  0
SOLID
  8
0
 62
7
  6
CONTINUOUS
 10
160.5003043074
 20
31.4649197501
 11
160.8471793074
 21
31.4971825592
 12
160.615929528
 22
31.4326555427
 13
160.615929528
 23
31.4326555427
  0
SOLID
  8
0
 62
7
  6
CONTINUOUS
 10
160.615929528
 20
31.4326555427
 11
160.8471793074
 21
31.4971825592
 12
160.6737418074
 22
31.3681283005
 13
160.6737418074
 23
31.3681283005
  0
SOLID
  8
0
 62
7
  6
CONTINUOUS
 10
160.8471793074
 20
31.4971825592
 11
160.9628038663
 21
31.3681283005
 12
160.6737418074
 22
31.3681283005
 13
160.6737418074
 23
31.3681283005
  0
SOLID
  8
0
 62
7
  6
CONTINUOUS
 10
150.2674918074
 20
31.4649197501
 11
149.7471793074
 21
31.4326554237
 12
150.498741835
 22
31.4971824493
 13
150.498741835
 23
31.4971824493
  0
SOLID
  8
0
 62
7
  6
CONTINUOUS
 10
149.7471793074
 20
31.4326554237
 11
149.8628043005
 21
31.4971824493
 12
150.498741835
 22
31.4971824493
 13
150.498741835
 23
31.4971824493
  0
SOLID
  8
0
 62
7
  6
CONTINUOUS
 10
150.2674918074
 20
31.4649197501
 11
150.1518667936
 21
31.4326554237
 12
149.7471793074
 22
31.4326554237
 13
149.7471793074
 23
31.4326554237
  0
SOLID
  8
0
 62
7
  6
CONTINUOUS
 10
149.6315543091
 20
31.3036012664
 11
149.7471793074
 21
31.4326554237
 12
150.1518667936
 22
31.4326554237
 13
150.1518667936
 23
31.4326554237
  0
SOLID
  8
0
 62
7
  6
CONTINUOUS
 10
153.9674919177
 20
31.4326554237
 11
154.6612419177
 21
31.4971825369
 12
154.4299918074
 22
31.4649197501
 13
154.4299918074
 23
31.4649197501
  0
SOLID
  8
0
 62
7
  6
CONTINUOUS
 10
154.4299918074
 20
31.4649197501
 11
154.3143669177
 21
31.4326554237
 12
153.9674919177
 22
31.4326554237
 13
153.9674919177
 23
31.4326554237
  0
SOLID
  8
0
 62
7
  6
CONTINUOUS
 10
153.9674919177
 20
31.3681283335
 11
153.9674919177
 21
31.4326554237
 12
154.3143669177
 22
31.4326554237
 13
154.3143669177
 23
31.4326554237
  0
SOLID
  8
0
 62
7
  6
CONTINUOUS
 10
154.3143669177
 20
31.4326554237
 11
154.2565543074
 21
31.3681283335
 12
153.9674919177
 22
31.3681283335
 13
153.9674919177
 23
31.3681283335
  0
SOLID
  8
0
 62
7
  6
CONTINUOUS
 10
159.1128043074
 20
31.4326555528
 11
159.8065543074
 21
31.4971825369
 12
159.575304528
 22
31.4649197501
 13
159.575304528
 23
31.4649197501
  0
SOLID
  8
0
 62
7
  6
CONTINUOUS
 10
159.575304528
 20
31.4649197501
 11
159.4596793074
 21
31.4326555528
 12
159.1128043074
 22
31.4326555528
 13
159.1128043074
 23
31.4326555528
  0
SOLID
  8
0
 62
7
  6
CONTINUOUS
 10
159.1128043074
 20
31.3681284626
 11
159.1128043074
 21
31.4326555528
 12
159.4596793074
 22
31.4326555528
 13
159.4596793074
 23
31.4326555528
  0
SOLID
  8
0
 62
7
  6
CONTINUOUS
 10
159.4596793074
 20
31.4326555528
 11
159.401867028
 21
31.3681284626
 12
159.1128043074
 22
31.3681284626
 13
159.1128043074
 23
31.3681284626
  0
SOLID
  8
0
 62
7
  6
CONTINUOUS
 10
159.228429528
 20
31.2390741763
 11
159.1128043074
 21
31.3681284626
 12
159.401867028
 22
31.3681284626
 13
159.401867028
 23
31.3681284626
  0
SOLID
  8
0
 62
7
  6
CONTINUOUS
 10
149.6315543091
 20
31.3036012664
 11
150.1518667936
 21
31.4326554468
 12
149.9784292936
 22
31.3358640533
 13
149.9784292936
 23
31.3358640533
  0
SOLID
  8
0
 62
7
  6
CONTINUOUS
 10
149.9784292936
 20
31.3358640533
 11
149.9206168074
 21
31.2713369632
 12
149.6315543091
 22
31.3036012664
 13
149.6315543091
 23
31.3036012664
  0
SOLID
  8
0
 62
7
  6
CONTINUOUS
 10
149.5737418074
 20
31.1100184796
 11
149.6315543091
 21
31.3036012664
 12
149.9206168074
 22
31.2713369632
 13
149.9206168074
 23
31.2713369632
  0
SOLID
  8
0
 62
7
  6
CONTINUOUS
 10
154.4299918074
 20
31.2390741763
 11
154.7768668074
 21
31.271336924
 12
155.412804528
 22
31.271336924
 13
155.412804528
 23
31.271336924
  0
SOLID
  8
0
 62
7
  6
CONTINUOUS
 10
154.4299918074
 20
31.2390741763
 11
155.412804528
 21
31.271336924
 12
154.1987416972
 22
31.1745462761
 13
154.1987416972
 23
31.1745462761
  0
SOLID
  8
0
 62
7
  6
CONTINUOUS
 10
154.1987416972
 20
31.1745462761
 11
155.412804528
 21
31.271336924
 12
154.7768668074
 22
31.1422827436
 13
154.7768668074
 23
31.1422827436
  0
SOLID
  8
0
 62
7
  6
CONTINUOUS
 10
155.412804528
 20
31.271336924
 11
155.412804528
 21
31.1422827436
 12
154.7768668074
 22
31.1422827436
 13
154.7768668074
 23
31.1422827436
  0
SOLID
  8
0
 62
7
  6
CONTINUOUS
 10
159.228429528
 20
31.2390745501
 11
159.401867028
 21
31.3681283566
 12
159.4596793074
 22
31.3036012664
 13
159.4596793074
 23
31.3036012664
  0
SOLID
  8
0
 62
7
  6
CONTINUOUS
 10
159.4596793074
 20
31.3036012664
 11
159.6331168074
 21
31.2390745501
 12
159.228429528
 22
31.2390745501
 13
159.228429528
 23
31.2390745501
  0
SOLID
  8
0
 62
7
  6
CONTINUOUS
 10
159.4596793074
 20
31.1422827828
 11
159.228429528
 21
31.2390745501
 12
159.6331168074
 22
31.2390745501
 13
159.6331168074
 23
31.2390745501
  0
SOLID
  8
0
 62
7
  6
CONTINUOUS
 10
159.6331168074
 20
31.2390745501
 11
160.615929528
 21
31.0777556927
 12
159.4596793074
 22
31.1422827828
 13
159.4596793074
 23
31.1422827828
  0
SOLID
  8
0
 62
7
  6
CONTINUOUS
 10
160.442492028
 20
30.9809646623
 11
159.4596793074
 21
31.1422827828
 12
160.615929528
 22
31.0777556927
 13
160.615929528
 23
31.0777556927
  0
SOLID
  8
0
 62
7
  6
CONTINUOUS
 10
160.615929528
 20
31.0777556927
 11
160.8471793074
 21
30.9809646623
 12
160.442492028
 22
30.9809646623
 13
160.442492028
 23
30.9809646623
  0
SOLID
  8
0
 62
7
  6
CONTINUOUS
 10
160.615929528
 20
30.9164372091
 11
160.442492028
 21
30.9809646623
 12
160.8471793074
 22
30.9809646623
 13
160.8471793074
 23
30.9809646623
  0
SOLID
  8
0
 62
7
  6
CONTINUOUS
 10
160.615929528
 20
30.9164372091
 11
160.8471793074
 21
30.9809646623
 12
160.6737418074
 22
30.8519089441
 13
160.6737418074
 23
30.8519089441
  0
SOLID
  8
0
 62
7
  6
CONTINUOUS
 10
160.8471793074
 20
30.9809646623
 11
160.9628038663
 21
30.8519089441
 12
160.6737418074
 22
30.8519089441
 13
160.6737418074
 23
30.8519089441
  0
SOLID
  8
0
 62
7
  6
CONTINUOUS
 10
160.615929528
 20
30.7873818593
 11
160.6737418074
 21
30.8519089441
 12
160.9628038663
 22
30.8519089441
 13
160.9628038663
 23
30.8519089441
  0
SOLID
  8
0
 62
7
  6
CONTINUOUS
 10
160.9628038663
 20
30.8519089441
 11
160.9628038663
 21
30.7873818593
 12
160.615929528
 22
30.7873818593
 13
160.615929528
 23
30.7873818593
  0
SOLID
  8
0
 62
7
  6
CONTINUOUS
 10
160.5003043074
 20
30.7551187255
 11
160.615929528
 21
30.7873818593
 12
160.9628038663
 22
30.7873818593
 13
160.9628038663
 23
30.7873818593
  0
SOLID
  8
0
 62
7
  6
CONTINUOUS
 10
160.5003043074
 20
30.7551187255
 11
160.9628038663
 21
30.7873818593
 12
160.269054528
 22
30.7228547745
 13
160.269054528
 23
30.7228547745
  0
SOLID
  8
0
 62
7
  6
CONTINUOUS
 10
160.9628038663
 20
30.7873818593
 11
160.8471793074
 21
30.6905916353
 12
160.269054528
 22
30.7228547745
 13
160.269054528
 23
30.7228547745
  0
SOLID
  8
0
 62
7
  6
CONTINUOUS
 10
160.8471793074
 20
30.6905916353
 11
159.401867028
 21
30.658327332
 12
160.269054528
 22
30.7228547745
 13
160.269054528
 23
30.7228547745
  0
SOLID
  8
0
 62
7
  6
CONTINUOUS
 10
160.269054528
 20
30.7228547745
 11
159.401867028
 21
30.658327332
 12
159.922179528
 22
30.7228547745
 13
159.922179528
 23
30.7228547745
  0
SOLID
  8
0
 62
7
  6
CONTINUOUS
 10
159.401867028
 20
30.658327332
 11
159.228429528
 21
30.7228547745
 12
159.922179528
 22
30.7228547745
 13
159.922179528
 23
30.7228547745
  0
SOLID
  8
0
 62
7
  6
CONTINUOUS
 10
159.401867028
 20
30.658327332
 11
160.8471793074
 21
30.6905916353
 12
159.575304528
 22
30.6260629858
 13
159.575304528
 23
30.6260629858
  0
SOLID
  8
0
 62
7
  6
CONTINUOUS
 10
160.8471793074
 20
30.6905916353
 11
160.615929528
 21
30.6260629858
 12
159.575304528
 22
30.6260629858
 13
159.575304528
 23
30.6260629858
  0
SOLID
  8
0
 62
7
  6
CONTINUOUS
 10
159.922179528
 20
30.5938006049
 11
159.575304528
 21
30.6260629858
 12
160.615929528
 22
30.6260629858
 13
160.615929528
 23
30.6260629858
  0
SOLID
  8
0
 62
7
  6
CONTINUOUS
 10
160.615929528
 20
30.6260629858
 11
160.269054528
 21
30.5938006049
 12
159.922179528
 22
30.5938006049
 13
159.922179528
 23
30.5938006049
  0
SOLID
  8
0
 62
7
  6
CONTINUOUS
 10
149.5737418074
 20
31.1100184796
 11
149.9206168074
 21
31.2713369632
 12
149.8628043005
 22
31.1422827828
 13
149.8628043005
 23
31.1422827828
  0
SOLID
  8
0
 62
7
  6
CONTINUOUS
 10
149.8628043005
 20
31.1422827828
 11
149.8628043005
 21
31.0454914852
 12
149.5737418074
 22
31.1100184796
 13
149.5737418074
 23
31.1100184796
  0
SOLID
  8
0
 62
7
  6
CONTINUOUS
 10
149.6315543091
 20
30.9164372091
 11
149.5737418074
 21
31.1100184796
 12
149.8628043005
 22
31.0454914852
 13
149.8628043005
 23
31.0454914852
  0
SOLID
  8
0
 62
7
  6
CONTINUOUS
 10
149.8628043005
 20
31.0454914852
 11
149.9784292936
 21
30.8841729058
 12
149.6315543091
 22
30.9164372091
 13
149.6315543091
 23
30.9164372091
  0
SOLID
  8
0
 62
7
  6
CONTINUOUS
 10
149.7471793074
 20
30.7873813202
 11
149.6315543091
 21
30.9164372091
 12
149.9784292936
 22
30.8841729058
 13
149.9784292936
 23
30.8841729058
  0
SOLID
  8
0
 62
7
  6
CONTINUOUS
 10
149.9784292936
 20
30.8841729058
 11
150.1518667936
 21
30.7873813202
 12
149.7471793074
 22
30.7873813202
 13
149.7471793074
 23
30.7873813202
  0
SOLID
  8
0
 62
7
  6
CONTINUOUS
 10
149.8628043005
 20
30.7228547004
 11
149.7471793074
 21
30.7873813202
 12
150.1518667936
 22
30.7873813202
 13
150.1518667936
 23
30.7873813202
  0
SOLID
  8
0
 62
7
  6
CONTINUOUS
 10
150.1518667936
 20
30.7873813202
 11
150.498741835
 21
30.7228547004
 12
149.8628043005
 22
30.7228547004
 13
149.8628043005
 23
30.7228547004
  0
SOLID
  8
0
 62
7
  6
CONTINUOUS
 10
150.0362418212
 20
30.658327332
 11
149.8628043005
 21
30.7228547004
 12
150.498741835
 22
30.7228547004
 13
150.498741835
 23
30.7228547004
  0
SOLID
  8
0
 62
7
  6
CONTINUOUS
 10
154.0831168074
 20
31.1100184386
 11
154.1987416972
 21
31.1745462761
 12
154.7768668074
 22
31.1422827828
 13
154.7768668074
 23
31.1422827828
  0
SOLID
  8
0
 62
7
  6
CONTINUOUS
 10
154.7768668074
 20
31.1422827828
 11
154.5456166972
 21
31.1100184386
 12
154.0831168074
 22
31.1100184386
 13
154.0831168074
 23
31.1100184386
  0
SOLID
  8
0
 62
7
  6
CONTINUOUS
 10
153.9674919177
 20
30.9809642992
 11
154.0831168074
 21
31.1100184386
 12
154.5456166972
 22
31.1100184386
 13
154.5456166972
 23
31.1100184386
  0
SOLID
  8
0
 62
7
  6
CONTINUOUS
 10
154.3143669177
 20
31.0132277988
 11
153.9674919177
 21
30.9809642992
 12
154.4299918074
 22
31.0777556927
 13
154.4299918074
 23
31.0777556927
  0
SOLID
  8
0
 62
7
  6
CONTINUOUS
 10
153.9674919177
 20
30.9809642992
 11
154.5456166972
 21
31.1100184796
 12
154.4299918074
 22
31.0777556927
 13
154.4299918074
 23
31.0777556927
  0
SOLID
  8
0
 62
7
  6
CONTINUOUS
 10
154.3143669177
 20
31.0132277988
 11
154.2565543074
 21
30.9164372091
 12
153.9674919177
 22
30.9809642992
 13
153.9674919177
 23
30.9809642992
  0
SOLID
  8
0
 62
7
  6
CONTINUOUS
 10
153.9674919177
 20
30.8841729058
 11
153.9674919177
 21
30.9809642992
 12
154.2565543074
 22
30.9164372091
 13
154.2565543074
 23
30.9164372091
  0
SOLID
  8
0
 62
7
  6
CONTINUOUS
 10
154.2565543074
 20
30.9164372091
 11
154.2565543074
 21
30.8519086025
 12
153.9674919177
 22
30.8841729058
 13
153.9674919177
 23
30.8841729058
  0
SOLID
  8
0
 62
7
  6
CONTINUOUS
 10
154.0253041972
 20
30.7551187255
 11
153.9674919177
 21
30.8841729058
 12
154.2565543074
 22
30.8519086025
 13
154.2565543074
 23
30.8519086025
  0
SOLID
  8
0
 62
7
  6
CONTINUOUS
 10
155.412804528
 20
30.9487004259
 11
155.7018665869
 21
30.8519086025
 12
155.3549915869
 22
30.8841729058
 13
155.3549915869
 23
30.8841729058
  0
SOLID
  8
0
 62
7
  6
CONTINUOUS
 10
155.1815540869
 20
30.7873815123
 11
155.3549915869
 21
30.8841729058
 12
155.7018665869
 22
30.8519086025
 13
155.7018665869
 23
30.8519086025
  0
SOLID
  8
0
 62
7
  6
CONTINUOUS
 10
155.1815540869
 20
30.7873815123
 11
155.7018665869
 21
30.8519086025
 12
155.412804528
 22
30.7551187255
 13
155.412804528
 23
30.7551187255
  0
SOLID
  8
0
 62
7
  6
CONTINUOUS
 10
155.7018665869
 20
30.8519086025
 11
155.759679528
 21
30.6905916353
 12
155.412804528
 22
30.7551187255
 13
155.412804528
 23
30.7551187255
  0
SOLID
  8
0
 62
7
  6
CONTINUOUS
 10
155.4706168074
 20
30.658327332
 11
155.412804528
 21
30.7551187255
 12
155.759679528
 22
30.6905916353
 13
155.759679528
 23
30.6905916353
  0
SOLID
  8
0
 62
7
  6
CONTINUOUS
 10
155.4706168074
 20
30.658327332
 11
155.759679528
 21
30.6905916353
 12
155.5284290869
 22
30.5938002079
 13
155.5284290869
 23
30.5938002079
  0
SOLID
  8
0
 62
7
  6
CONTINUOUS
 10
155.759679528
 20
30.6905916353
 11
155.8174918074
 21
30.5938002079
 12
155.5284290869
 22
30.5938002079
 13
155.5284290869
 23
30.5938002079
  0
SOLID
  8
0
 62
7
  6
CONTINUOUS
 10
151.0768668626
 20
30.8196456577
 11
151.1346793074
 21
30.9164373395
 12
151.4237418626
 22
30.9164373395
 13
151.4237418626
 23
30.9164373395
  0
SOLID
  8
0
 62
7
  6
CONTINUOUS
 10
151.4237418626
 20
30.9164373395
 11
151.3659292523
 21
30.7873815123
 12
151.0768668626
 22
30.8196456577
 13
151.0768668626
 23
30.8196456577
  0
SOLID
  8
0
 62
7
  6
CONTINUOUS
 10
150.9034292799
 20
30.7551187255
 11
151.0768668626
 21
30.8196456577
 12
151.3659292523
 22
30.7873815123
 13
151.3659292523
 23
30.7873815123
  0
SOLID
  8
0
 62
7
  6
CONTINUOUS
 10
150.9034292799
 20
30.7551187255
 11
151.3659292523
 21
30.7873815123
 12
150.498741835
 22
30.7228544222
 13
150.498741835
 23
30.7228544222
  0
SOLID
  8
0
 62
7
  6
CONTINUOUS
 10
151.3659292523
 20
30.7873815123
 11
151.1924917523
 21
30.6905916353
 12
150.498741835
 22
30.7228544222
 13
150.498741835
 23
30.7228544222
  0
SOLID
  8
0
 62
7
  6
CONTINUOUS
 10
150.0362418212
 20
30.658327332
 11
150.498741835
 21
30.7228544222
 12
151.1924917523
 22
30.6905916353
 13
151.1924917523
 23
30.6905916353
  0
SOLID
  8
0
 62
7
  6
CONTINUOUS
 10
150.0362418212
 20
30.658327332
 11
151.1924917523
 21
30.6905916353
 12
150.2096793212
 22
30.6260631011
 13
150.2096793212
 23
30.6260631011
  0
SOLID
  8
0
 62
7
  6
CONTINUOUS
 10
151.1924917523
 20
30.6905916353
 11
150.9612418074
 21
30.6260631011
 12
150.2096793212
 22
30.6260631011
 13
150.2096793212
 23
30.6260631011
  0
SOLID
  8
0
 62
7
  6
CONTINUOUS
 10
150.5565542799
 20
30.5938002419
 11
150.2096793212
 21
30.6260631011
 12
150.9612418074
 22
30.6260631011
 13
150.9612418074
 23
30.6260631011
  0
SOLID
  8
0
 62
7
  6
CONTINUOUS
 10
154.0253041972
 20
30.7551187255
 11
154.2565543074
 21
30.8519086025
 12
154.3143669177
 22
30.7873815123
 13
154.3143669177
 23
30.7873815123
  0
SOLID
  8
0
 62
7
  6
CONTINUOUS
 10
154.3143669177
 20
30.7873815123
 11
154.5456166972
 21
30.7228544222
 12
154.0253041972
 22
30.7551187255
 13
154.0253041972
 23
30.7551187255
  0
SOLID
  8
0
 62
7
  6
CONTINUOUS
 10
154.1987416972
 20
30.658327332
 11
154.0253041972
 21
30.7551187255
 12
154.5456166972
 22
30.7228544222
 13
154.5456166972
 23
30.7228544222
  0
SOLID
  8
0
 62
7
  6
CONTINUOUS
 10
154.8924916972
 20
30.7228544637
 11
155.1815540869
 21
30.7873815123
 12
155.412804528
 22
30.7551187255
 13
155.412804528
 23
30.7551187255
  0
SOLID
  8
0
 62
7
  6
CONTINUOUS
 10
155.412804528
 20
30.7551187255
 11
155.3549915869
 21
30.6905916353
 12
154.8924916972
 22
30.7228544637
 13
154.8924916972
 23
30.7228544637
  0
SOLID
  8
0
 62
7
  6
CONTINUOUS
 10
155.3549915869
 20
30.6905916353
 11
154.1987416972
 21
30.658327332
 12
154.8924916972
 22
30.7228544637
 13
154.8924916972
 23
30.7228544637
  0
SOLID
  8
0
 62
7
  6
CONTINUOUS
 10
154.1987416972
 20
30.658327332
 11
154.5456166972
 21
30.7228544637
 12
154.8924916972
 22
30.7228544637
 13
154.8924916972
 23
30.7228544637
  0
SOLID
  8
0
 62
7
  6
CONTINUOUS
 10
154.1987416972
 20
30.658327332
 11
155.3549915869
 21
30.6905916353
 12
154.3143669177
 22
30.6260630541
 13
154.3143669177
 23
30.6260630541
  0
SOLID
  8
0
 62
7
  6
CONTINUOUS
 10
155.3549915869
 20
30.6905916353
 11
155.1815540869
 21
30.6260630541
 12
154.3143669177
 22
30.6260630541
 13
154.3143669177
 23
30.6260630541
  0
SOLID
  8
0
 62
7
  6
CONTINUOUS
 10
154.5456166972
 20
30.5938002188
 11
154.3143669177
 21
30.6260630541
 12
155.1815540869
 22
30.6260630541
 13
155.1815540869
 23
30.6260630541
  0
SOLID
  8
0
 62
7
  6
CONTINUOUS
 10
155.1815540869
 20
30.6260630541
 11
154.8924916972
 21
30.5938002188
 12
154.5456166972
 22
30.5938002188
 13
154.5456166972
 23
30.5938002188
  0
SOLID
  8
0
 62
7
  6
CONTINUOUS
 10
159.575304528
 20
30.7551187255
 11
159.228429528
 21
30.7228544637
 12
159.4596793074
 22
30.7873815123
 13
159.4596793074
 23
30.7873815123
  0
SOLID
  8
0
 62
7
  6
CONTINUOUS
 10
159.4596793074
 20
30.7873815123
 11
159.228429528
 21
30.7228544637
 12
159.401867028
 22
30.851908644
 13
159.401867028
 23
30.851908644
  0
SOLID
  8
0
 62
7
  6
CONTINUOUS
 10
159.228429528
 20
30.7228544637
 11
159.1128043074
 21
30.851908644
 12
159.401867028
 22
30.851908644
 13
159.401867028
 23
30.851908644
  0
SOLID
  8
0
 62
7
  6
CONTINUOUS
 10
159.575304528
 20
30.7551187255
 11
159.922179528
 21
30.7228544637
 12
159.228429528
 22
30.7228544637
 13
159.228429528
 23
30.7228544637
  0
SOLID
  8
0
 62
7
  6
CONTINUOUS
 10
156.279992028
 20
30.5938002419
 11
156.279992028
 21
31.6262382337
 12
156.5690540869
 22
30.5938002419
 13
156.5690540869
 23
31.6262382337
  0
ENDBLK
  8
0
  6
BYBLOCK
 62
0
  0
BLOCK
  8
0
 62
2
  6
CONTINUOUS
  2
AMMEAAL_LOGO_BL0
 70
64
 10
32.1213064866
 20
19.8534310916
  0
TEXT
  8
0
 62
7
  6
CONTINUOUS
 10
18.3860103289
 20
19.2268451992
  7
TEXTSTYLE_3
 40
2.7338706658
  1
Ammeraal Beltech
 41
1.0
 51
15.0
 72
0
  0
TEXT
  8
0
 62
7
  6
CONTINUOUS
 10
29.1868111546
 20
16.9533085264
  7
TEXTSTYLE_4
 40
1.0935482663
  1
Innovation & Service in Belting
 41
1.0
 72
0
  0
LINE
  8
0
 62
7
  6
CONTINUOUS
 10
12.3614696776
 20
19.9934385078
 11
13.1396216709
 21
23.6543558055
  0
LINE
  8
0
 62
7
  6
CONTINUOUS
 10
23.2347899607
 20
27.3177497171
 11
13.6274394139
 21
24.1961322958
  0
LINE
  8
0
 62
7
  6
CONTINUOUS
 10
12.5867530099
 20
19.3000877048
 11
20.093828271
 21
12.5406867788
  0
LINE
  8
0
 62
7
  6
CONTINUOUS
 10
12.8492874206
 20
20.5352149982
 11
23.6575567857
 21
24.0470345971
  0
LINE
  8
0
 62
7
  6
CONTINUOUS
 10
23.6533516486
 20
13.6972460334
 11
15.2078919798
 21
21.3015720751
  0
LINE
  8
0
 62
7
  6
CONTINUOUS
 10
24.1731743684
 20
26.4728246013
 11
23.1966148312
 21
21.8784731989
  0
LINE
  8
0
 62
7
  6
CONTINUOUS
 10
22.4968128835
 20
18.5861638851
 11
21.810364672
 21
15.3566789607
  0
LINE
  8
0
 62
7
  6
CONTINUOUS
 10
24.8542704669
 20
14.087448211
 11
25.8105020025
 21
18.5861638851
  0
LINE
  8
0
 62
7
  6
CONTINUOUS
 10
26.5103039502
 20
21.8784731989
 11
26.9545457526
 21
23.9684665583
  0
LINE
  8
0
 62
7
  6
CONTINUOUS
 10
20.8069293463
 20
12.3891124661
 11
24.3664527239
 21
13.5456717207
  0
LINE
  8
0
 62
7
  6
CONTINUOUS
 10
23.9478910361
 20
27.1661754044
 11
26.7292624203
 21
24.6618173613
  0
ARC
  8
0
 62
7
  6
CONTINUOUS
 10
13.8527227462
 20
23.5027814928
 40
0.7290321776
 50
108.0
 51
168.0
  0
ARC
  8
0
 62
7
  6
CONTINUOUS
 10
23.4600732931
 20
26.624398914
 40
0.7290321776
 50
348.0
 51
108.0
  0
ARC
  8
0
 62
7
  6
CONTINUOUS
 10
26.2414446773
 20
24.120040871
 40
0.7290321776
 50
348.0
 51
48.0
  0
ARC
  8
0
 62
7
  6
CONTINUOUS
 10
20.581646014
 20
13.0824632691
 40
0.7290321776
 50
228.0
 51
288.0
  0
ARC
  8
0
 62
7
  6
CONTINUOUS
 10
13.0745707529
 20
19.8418641951
 40
0.7290321776
 50
108.0
 51
228.0
  0
ARC
  8
0
 62
7
  6
CONTINUOUS
 10
24.1411693916
 20
14.2390225237
 40
0.7290321776
 50
228.0
 51
348.0
  0
ENDBLK
  8
0
  6
BYBLOCK
 62
0
  0
ENDSEC
  0
SECTION
  2
ENTITIES
  0
TEXT
  8
0
 62
5
  6
CONTINUOUS
 10
96.0
 20
25.636
  7
TEXTSTYLE_2
 40
2.8
  1
Scale :
 41
0.6
 51
0.000019
 72
0
  0
TEXT
  8
0
 62
5
  6
CONTINUOUS
 10
116.0
 20
25.636
  7
TEXTSTYLE_2
 40
2.8
  1
Belt type:
 41
0.6
 51
0.000019
 72
0
  0
INSERT
  8
0
 62
2
  6
CONTINUOUS
  2
AMMEAAL_LOGO_BL0
 10
32.1213064866
 20
19.8534310916
  0
INSERT
  8
0
 62
2
  6
CONTINUOUS
  2
UNI_LOGO2_BL1
 10
173.5956734183
 20
35.5937998301
  0
LINE
  8
0
 62
2
  6
CONTINUOUS
 10
10.0
 20
30.0
 11
200.0
 21
30.0
  0
LINE
  8
0
 62
2
  6
CONTINUOUS
 10
10.0
 20
30.0
 11
10.0
 21
10.0
  0
LINE
  8
0
 62
2
  6
CONTINUOUS
 10
10.0
 20
10.0
 11
200.0
 21
10.0
  0
LINE
  8
0
 62
2
  6
CONTINUOUS
 10
95.0
 20
30.0
 11
95.0
 21
10.0
  0
LINE
  8
0
 62
2
  6
CONTINUOUS
 10
115.0
 20
30.0
 11
115.0
 21
10.0
  0
LINE
  8
0
 62
2
  6
CONTINUOUS
 10
200.0
 20
30.0
 11
200.0
 21
10.0
  0
TEXT
  8
0
 62
5
  6
CONTINUOUS
 10
13.0
 20
23.303
  7
TEXTSTYLE_5
 40
1.52
  1
                                                                     Ammeraal Beltech Modular A/S
 41
1.0
 72
0
  0
TEXT
  8
0
 62
5
  6
CONTINUOUS
 10
13.0
 20
20.595
  7
TEXTSTYLE_5
 40
1.5
  1
                                                                      Hjulmagervej 21,  7100 Vejle,  DK
 41
1.0
 72
0
  0
TEXT
  8
0
 62
5
  6
CONTINUOUS
 10
13.0
 20
17.881
  7
TEXTSTYLE_5
 40
1.495
  1
                                                                      tel: 
 41
1.0
 72
0
  0
TEXT
  8
0
 62
5
  6
CONTINUOUS
 10
57.9869465649
 20
17.881
  7
TEXTSTYLE_5
 40
1.51
  1
+45 75723100     fax: +45 75723348
 41
1.0
 72
0
  0
TEXT
  8
0
 62
5
  6
CONTINUOUS
 10
13.0
 20
15.177
  7
TEXTSTYLE_5
 40
1.5
  1
                                                                      admin@unichains.dk  www.unichains.com
 41
1.0
 72
0
  0
TEXT
  8
0
 62
5
  6
CONTINUOUS
 10
99.75
 20
13.75
  7
TEXTSTYLE_6
 40
5.0
  1
1:1
 41
0.7
 72
1
 11
105.0
 21
13.75
  0
TEXT
  8
0
 62
5
  6
CONTINUOUS
 10
118.0
 20
13.75
  7
TEXTSTYLE_7
 40
7.5
  1
uni Light EP-00 K250
 41
0.5227083333
 72
0
  0
LINE
  8
0
 62
7
  6
CONTINUOUS
 10
210.0
 20
0.0
 11
0.0
 21
0.0
  0
LINE
  8
0
 62
7
  6
CONTINUOUS
 10
10.0
 20
10.0
 11
200.0
 21
10.0
  0
LINE
  8
0
 62
7
  6
CONTINUOUS
 10
10.0
 20
30.0
 11
200.0
 21
30.0
  0
LINE
  8
0
 62
7
  6
CONTINUOUS
 10
0.0
 20
0.0
 11
0.0
 21
297.0
  0
LINE
  8
0
 62
7
  6
CONTINUOUS
 10
10.0
 20
10.0
 11
10.0
 21
287.0
  0
LINE
  8
0
 62
7
  6
CONTINUOUS
 10
200.0
 20
287.0
 11
200.0
 21
10.0
  0
LINE
  8
0
 62
7
  6
CONTINUOUS
 10
210.0
 20
0.0
 11
210.0
 21
297.0
  0
LINE
  8
0
 62
7
  6
CONTINUOUS
 10
10.0
 20
287.0
 11
200.0
 21
287.0
  0
LINE
  8
0
 62
7
  6
CONTINUOUS
 10
0.0
 20
297.0
 11
210.0
 21
297.0
  0
POLYLINE
  8
2_FEATURE
 62
7
  6
CONTINUOUS
 66
1
 70
0
  0
VERTEX
  8
2_FEATURE
 62
7
  6
CONTINUOUS
 10
50.7865301698
 20
159.4934948714
  0
VERTEX
  8
2_FEATURE
 62
7
  6
CONTINUOUS
 10
50.8033022929
 20
159.5142886921
  0
VERTEX
  8
2_FEATURE
 62
7
  6
CONTINUOUS
 10
50.8526939614
 20
159.5334346545
  0
VERTEX
  8
2_FEATURE
 62
7
  6
CONTINUOUS
 10
50.9316803384
 20
159.5497265304
  0
VERTEX
  8
2_FEATURE
 62
7
  6
CONTINUOUS
 10
51.0351475904
 20
159.5621504053
  0
VERTEX
  8
2_FEATURE
 62
7
  6
CONTINUOUS
 10
51.1561779015
 20
159.5699355084
  0
VERTEX
  8
2_FEATURE
 62
7
  6
CONTINUOUS
 10
51.2865301698
 20
159.572590481
  0
SEQEND
  0
LINE
  8
0
 62
7
  6
CONTINUOUS
 10
47.5365301698
 20
123.76875
 11
47.5365301698
 21
152.5850015012
  0
LINE
  8
2_FEATURE
 62
7
  6
CONTINUOUS
 10
47.7365301698
 20
154.1544456846
 11
47.7365301698
 21
116.42875
  0
POLYLINE
  8
2_FEATURE
 62
7
  6
CONTINUOUS
 66
1
 70
0
  0
VERTEX
  8
2_FEATURE
 62
7
  6
CONTINUOUS
 10
47.7365301698
 20
154.1544456846
  0
VERTEX
  8
2_FEATURE
 62
7
  6
CONTINUOUS
 10
47.7529913401
 20
154.2816864019
  0
VERTEX
  8
2_FEATURE
 62
7
  6
CONTINUOUS
 10
47.7987182261
 20
154.3959424794
  0
VERTEX
  8
2_FEATURE
 62
7
  6
CONTINUOUS
 10
47.8689779166
 20
154.4934225882
  0
VERTEX
  8
2_FEATURE
 62
7
  6
CONTINUOUS
 10
47.960875783
 20
154.5715963277
  0
VERTEX
  8
2_FEATURE
 62
7
  6
CONTINUOUS
 10
48.071485057
 20
154.6264203775
  0
VERTEX
  8
2_FEATURE
 62
7
  6
CONTINUOUS
 10
48.1921645481
 20
154.6524734866
  0
VERTEX
  8
2_FEATURE
 62
7
  6
CONTINUOUS
 10
48.2365301698
 20
154.6544456844
  0
SEQEND
  0
LINE
  8
0
 62
7
  6
CONTINUOUS
 10
47.5365301698
 20
123.76875
 11
47.7365301698
 21
123.56875
  0
LINE
  8
2_FEATURE
 62
7
  6
CONTINUOUS
 10
50.5365301698
 20
116.42875
 11
50.5365301698
 21
122.8007645067
  0
POLYLINE
  8
2_FEATURE
 62
7
  6
CONTINUOUS
 66
1
 70
0
  0
VERTEX
  8
2_FEATURE
 62
7
  6
CONTINUOUS
 10
50.7865306989
 20
155.6367710248
  0
VERTEX
  8
2_FEATURE
 62
7
  6
CONTINUOUS
 10
50.7822215888
 20
155.4960355578
  0
VERTEX
  8
2_FEATURE
 62
7
  6
CONTINUOUS
 10
50.7667835528
 20
155.3449272609
  0
VERTEX
  8
2_FEATURE
 62
7
  6
CONTINUOUS
 10
50.7396598097
 20
155.2022823424
  0
VERTEX
  8
2_FEATURE
 62
7
  6
CONTINUOUS
 10
50.7008867097
 20
155.0708681668
  0
VERTEX
  8
2_FEATURE
 62
7
  6
CONTINUOUS
 10
50.650963568
 20
154.9531395048
  0
VERTEX
  8
2_FEATURE
 62
7
  6
CONTINUOUS
 10
50.5910392007
 20
154.8517423947
  0
VERTEX
  8
2_FEATURE
 62
7
  6
CONTINUOUS
 10
50.5218080083
 20
154.7680765927
  0
VERTEX
  8
2_FEATURE
 62
7
  6
CONTINUOUS
 10
50.4445692903
 20
154.7048464947
  0
VERTEX
  8
2_FEATURE
 62
7
  6
CONTINUOUS
 10
50.3615973082
 20
154.6657890459
  0
VERTEX
  8
2_FEATURE
 62
7
  6
CONTINUOUS
 10
50.2865301698
 20
154.6544457862
  0
SEQEND
  0
LINE
  8
2_FEATURE
 62
7
  6
CONTINUOUS
 10
50.7865301698
 20
162.00875
 11
50.7865301698
 21
155.6367355624
  0
POLYLINE
  8
2_FEATURE
 62
7
  6
CONTINUOUS
 66
1
 70
0
  0
VERTEX
  8
2_FEATURE
 62
7
  6
CONTINUOUS
 10
50.5365299341
 20
122.8007211921
  0
VERTEX
  8
2_FEATURE
 62
7
  6
CONTINUOUS
 10
50.5408391036
 20
122.9414691811
  0
VERTEX
  8
2_FEATURE
 62
7
  6
CONTINUOUS
 10
50.5562773746
 20
123.0925784973
  0
VERTEX
  8
2_FEATURE
 62
7
  6
CONTINUOUS
 10
50.583401022
 20
123.2352202523
  0
VERTEX
  8
2_FEATURE
 62
7
  6
CONTINUOUS
 10
50.6221739626
 20
123.366632777
  0
VERTEX
  8
2_FEATURE
 62
7
  6
CONTINUOUS
 10
50.6720971563
 20
123.4843612097
  0
VERTEX
  8
2_FEATURE
 62
7
  6
CONTINUOUS
 10
50.7320214763
 20
123.5857579313
  0
VERTEX
  8
2_FEATURE
 62
7
  6
CONTINUOUS
 10
50.8012525563
 20
123.6694237593
  0
VERTEX
  8
2_FEATURE
 62
7
  6
CONTINUOUS
 10
50.8784914535
 20
123.7326538921
  0
VERTEX
  8
2_FEATURE
 62
7
  6
CONTINUOUS
 10
50.9614665697
 20
123.7717120008
  0
VERTEX
  8
2_FEATURE
 62
7
  6
CONTINUOUS
 10
51.0365301698
 20
123.7830542054
  0
SEQEND
  0
LINE
  8
2_FEATURE
 62
7
  6
CONTINUOUS
 10
48.2365301698
 20
115.92875
 11
50.0365301698
 21
115.92875
  0
LINE
  8
2_FEATURE
 62
7
  6
CONTINUOUS
 10
57.6365301698
 20
115.92875
 11
62.7365301698
 21
115.92875
  0
LINE
  8
2_FEATURE
 62
7
  6
CONTINUOUS
 10
70.3365301698
 20
115.92875
 11
75.4365301698
 21
115.92875
  0
LINE
  8
2_FEATURE
 62
7
  6
CONTINUOUS
 10
83.0365301698
 20
115.92875
 11
88.1365301698
 21
115.92875
  0
LINE
  8
2_FEATURE
 62
7
  6
CONTINUOUS
 10
95.7365301698
 20
115.92875
 11
100.8365301698
 21
115.92875
  0
LINE
  8
2_FEATURE
 62
7
  6
CONTINUOUS
 10
108.4365301698
 20
115.92875
 11
110.2365301698
 21
115.92875
  0
LINE
  8
2_FEATURE
 62
7
  6
CONTINUOUS
 10
56.8865301698
 20
155.3331203987
 11
56.8865301698
 21
162.00875
  0
LINE
  8
2_FEATURE
 62
7
  6
CONTINUOUS
 10
57.1365301698
 20
122.8007644377
 11
57.1365301698
 21
116.42875
  0
POLYLINE
  8
2_FEATURE
 62
7
  6
CONTINUOUS
 66
1
 70
0
  0
VERTEX
  8
2_FEATURE
 62
7
  6
CONTINUOUS
 10
110.2365301698
 20
118.864909519
  0
VERTEX
  8
2_FEATURE
 62
7
  6
CONTINUOUS
 10
110.3668824381
 20
118.8675644916
  0
VERTEX
  8
2_FEATURE
 62
7
  6
CONTINUOUS
 10
110.4879127492
 20
118.8753495947
  0
VERTEX
  8
2_FEATURE
 62
7
  6
CONTINUOUS
 10
110.5913800012
 20
118.8877734696
  0
VERTEX
  8
2_FEATURE
 62
7
  6
CONTINUOUS
 10
110.6703663782
 20
118.9040653455
  0
VERTEX
  8
2_FEATURE
 62
7
  6
CONTINUOUS
 10
110.7197580467
 20
118.9232113079
  0
VERTEX
  8
2_FEATURE
 62
7
  6
CONTINUOUS
 10
110.7365301698
 20
118.9440051286
  0
SEQEND
  0
POLYLINE
  8
2_FEATURE
 62
7
  6
CONTINUOUS
 66
1
 70
0
  0
VERTEX
  8
2_FEATURE
 62
7
  6
CONTINUOUS
 10
48.2365301698
 20
118.864909519
  0
VERTEX
  8
2_FEATURE
 62
7
  6
CONTINUOUS
 10
48.1061779015
 20
118.8675644916
  0
VERTEX
  8
2_FEATURE
 62
7
  6
CONTINUOUS
 10
47.9851475904
 20
118.8753495947
  0
VERTEX
  8
2_FEATURE
 62
7
  6
CONTINUOUS
 10
47.8816803384
 20
118.8877734696
  0
VERTEX
  8
2_FEATURE
 62
7
  6
CONTINUOUS
 10
47.8026939614
 20
118.9040653455
  0
VERTEX
  8
2_FEATURE
 62
7
  6
CONTINUOUS
 10
47.7533022929
 20
118.9232113079
  0
VERTEX
  8
2_FEATURE
 62
7
  6
CONTINUOUS
 10
47.7365301698
 20
118.9440051286
  0
SEQEND
  0
POLYLINE
  8
2_FEATURE
 62
7
  6
CONTINUOUS
 66
1
 70
0
  0
VERTEX
  8
2_FEATURE
 62
7
  6
CONTINUOUS
 10
57.6365301698
 20
118.864909519
  0
VERTEX
  8
2_FEATURE
 62
7
  6
CONTINUOUS
 10
57.5061779015
 20
118.8675644916
  0
VERTEX
  8
2_FEATURE
 62
7
  6
CONTINUOUS
 10
57.3851475904
 20
118.8753495947
  0
VERTEX
  8
2_FEATURE
 62
7
  6
CONTINUOUS
 10
57.2816803384
 20
118.8877734696
  0
VERTEX
  8
2_FEATURE
 62
7
  6
CONTINUOUS
 10
57.2026939614
 20
118.9040653455
  0
VERTEX
  8
2_FEATURE
 62
7
  6
CONTINUOUS
 10
57.1533022929
 20
118.9232113079
  0
VERTEX
  8
2_FEATURE
 62
7
  6
CONTINUOUS
 10
57.1365301698
 20
118.9440051286
  0
SEQEND
  0
LINE
  8
2_FEATURE
 62
7
  6
CONTINUOUS
 10
48.2365301698
 20
118.864909519
 11
50.0365301698
 21
118.864909519
  0
LINE
  8
2_FEATURE
 62
7
  6
CONTINUOUS
 10
57.6365301698
 20
118.864909519
 11
62.7365301698
 21
118.864909519
  0
LINE
  8
2_FEATURE
 62
7
  6
CONTINUOUS
 10
70.3365301698
 20
118.864909519
 11
75.4365301698
 21
118.864909519
  0
LINE
  8
2_FEATURE
 62
7
  6
CONTINUOUS
 10
83.0365301698
 20
118.864909519
 11
88.1365301698
 21
118.864909519
  0
LINE
  8
2_FEATURE
 62
7
  6
CONTINUOUS
 10
95.7365301698
 20
118.864909519
 11
100.8365301698
 21
118.864909519
  0
LINE
  8
2_FEATURE
 62
7
  6
CONTINUOUS
 10
108.4365301698
 20
118.864909519
 11
110.2365301698
 21
118.864909519
  0
LINE
  8
1_AXIS
 62
2
  6
CENTER
 10
38.7786156242
 20
120.16875
 11
120.9339981745
 21
120.16875
  0
POLYLINE
  8
2_FEATURE
 62
7
  6
CONTINUOUS
 66
1
 70
0
  0
VERTEX
  8
2_FEATURE
 62
7
  6
CONTINUOUS
 10
70.3365301698
 20
118.864909519
  0
VERTEX
  8
2_FEATURE
 62
7
  6
CONTINUOUS
 10
70.2061779015
 20
118.8675644916
  0
VERTEX
  8
2_FEATURE
 62
7
  6
CONTINUOUS
 10
70.0851475904
 20
118.8753495947
  0
VERTEX
  8
2_FEATURE
 62
7
  6
CONTINUOUS
 10
69.9816803384
 20
118.8877734696
  0
VERTEX
  8
2_FEATURE
 62
7
  6
CONTINUOUS
 10
69.9026939614
 20
118.9040653455
  0
VERTEX
  8
2_FEATURE
 62
7
  6
CONTINUOUS
 10
69.8533022929
 20
118.9232113079
  0
VERTEX
  8
2_FEATURE
 62
7
  6
CONTINUOUS
 10
69.8365301698
 20
118.9440051286
  0
SEQEND
  0
POLYLINE
  8
2_FEATURE
 62
7
  6
CONTINUOUS
 66
1
 70
0
  0
VERTEX
  8
2_FEATURE
 62
7
  6
CONTINUOUS
 10
83.0365301698
 20
118.864909519
  0
VERTEX
  8
2_FEATURE
 62
7
  6
CONTINUOUS
 10
82.9061779015
 20
118.8675644916
  0
VERTEX
  8
2_FEATURE
 62
7
  6
CONTINUOUS
 10
82.7851475904
 20
118.8753495947
  0
VERTEX
  8
2_FEATURE
 62
7
  6
CONTINUOUS
 10
82.6816803384
 20
118.8877734696
  0
VERTEX
  8
2_FEATURE
 62
7
  6
CONTINUOUS
 10
82.6026939614
 20
118.9040653455
  0
VERTEX
  8
2_FEATURE
 62
7
  6
CONTINUOUS
 10
82.5533022929
 20
118.9232113079
  0
VERTEX
  8
2_FEATURE
 62
7
  6
CONTINUOUS
 10
82.5365301698
 20
118.9440051286
  0
SEQEND
  0
POLYLINE
  8
2_FEATURE
 62
7
  6
CONTINUOUS
 66
1
 70
0
  0
VERTEX
  8
2_FEATURE
 62
7
  6
CONTINUOUS
 10
95.7365301698
 20
118.864909519
  0
VERTEX
  8
2_FEATURE
 62
7
  6
CONTINUOUS
 10
95.6061779015
 20
118.8675644916
  0
VERTEX
  8
2_FEATURE
 62
7
  6
CONTINUOUS
 10
95.4851475904
 20
118.8753495947
  0
VERTEX
  8
2_FEATURE
 62
7
  6
CONTINUOUS
 10
95.3816803384
 20
118.8877734696
  0
VERTEX
  8
2_FEATURE
 62
7
  6
CONTINUOUS
 10
95.3026939614
 20
118.9040653455
  0
VERTEX
  8
2_FEATURE
 62
7
  6
CONTINUOUS
 10
95.2533022929
 20
118.9232113079
  0
VERTEX
  8
2_FEATURE
 62
7
  6
CONTINUOUS
 10
95.2365301698
 20
118.9440051286
  0
SEQEND
  0
POLYLINE
  8
2_FEATURE
 62
7
  6
CONTINUOUS
 66
1
 70
0
  0
VERTEX
  8
2_FEATURE
 62
7
  6
CONTINUOUS
 10
108.4365301698
 20
118.864909519
  0
VERTEX
  8
2_FEATURE
 62
7
  6
CONTINUOUS
 10
108.3061779015
 20
118.8675644916
  0
VERTEX
  8
2_FEATURE
 62
7
  6
CONTINUOUS
 10
108.1851475904
 20
118.8753495947
  0
VERTEX
  8
2_FEATURE
 62
7
  6
CONTINUOUS
 10
108.0816803384
 20
118.8877734696
  0
VERTEX
  8
2_FEATURE
 62
7
  6
CONTINUOUS
 10
108.0026939614
 20
118.9040653455
  0
VERTEX
  8
2_FEATURE
 62
7
  6
CONTINUOUS
 10
107.9533022929
 20
118.9232113079
  0
VERTEX
  8
2_FEATURE
 62
7
  6
CONTINUOUS
 10
107.9365301698
 20
118.9440051286
  0
SEQEND
  0
POLYLINE
  8
2_FEATURE
 62
7
  6
CONTINUOUS
 66
1
 70
0
  0
VERTEX
  8
2_FEATURE
 62
7
  6
CONTINUOUS
 10
56.6365301672
 20
123.7830542151
  0
VERTEX
  8
2_FEATURE
 62
7
  6
CONTINUOUS
 10
56.7109552358
 20
123.7719040301
  0
VERTEX
  8
2_FEATURE
 62
7
  6
CONTINUOUS
 10
56.7939548627
 20
123.7330478768
  0
VERTEX
  8
2_FEATURE
 62
7
  6
CONTINUOUS
 10
56.8712507619
 20
123.6699834445
  0
VERTEX
  8
2_FEATURE
 62
7
  6
CONTINUOUS
 10
56.9405503462
 20
123.5864581706
  0
VERTEX
  8
2_FEATURE
 62
7
  6
CONTINUOUS
 10
57.0005488332
 20
123.4851863751
  0
VERTEX
  8
2_FEATURE
 62
7
  6
CONTINUOUS
 10
57.0505507688
 20
123.3675746341
  0
VERTEX
  8
2_FEATURE
 62
7
  6
CONTINUOUS
 10
57.0894059335
 20
123.2362735391
  0
VERTEX
  8
2_FEATURE
 62
7
  6
CONTINUOUS
 10
57.1166148155
 20
123.0937404003
  0
VERTEX
  8
2_FEATURE
 62
7
  6
CONTINUOUS
 10
57.1321405591
 20
122.9427454498
  0
VERTEX
  8
2_FEATURE
 62
7
  6
CONTINUOUS
 10
57.1365307033
 20
122.8007292552
  0
SEQEND
  0
LINE
  8
0
 62
7
  6
CONTINUOUS
 10
63.2365301698
 20
123.1043796013
 11
63.2365301698
 21
122.8007645074
  0
LINE
  8
2_FEATURE
 62
7
  6
CONTINUOUS
 10
63.2365301698
 20
116.42875
 11
63.2365301698
 21
122.8007645074
  0
LINE
  8
2_FEATURE
 62
7
  6
CONTINUOUS
 10
63.4865301698
 20
162.00875
 11
63.4865301698
 21
155.6367355624
  0
POLYLINE
  8
2_FEATURE
 62
7
  6
CONTINUOUS
 66
1
 70
0
  0
VERTEX
  8
2_FEATURE
 62
7
  6
CONTINUOUS
 10
63.486530704
 20
155.6367715718
  0
VERTEX
  8
2_FEATURE
 62
7
  6
CONTINUOUS
 10
63.4822215792
 20
155.4960355065
  0
VERTEX
  8
2_FEATURE
 62
7
  6
CONTINUOUS
 10
63.4667835492
 20
155.3449272186
  0
VERTEX
  8
2_FEATURE
 62
7
  6
CONTINUOUS
 10
63.4396598136
 20
155.2022823572
  0
VERTEX
  8
2_FEATURE
 62
7
  6
CONTINUOUS
 10
63.4008867215
 20
155.0708682023
  0
VERTEX
  8
2_FEATURE
 62
7
  6
CONTINUOUS
 10
63.3509635848
 20
154.9531395354
  0
VERTEX
  8
2_FEATURE
 62
7
  6
CONTINUOUS
 10
63.2910392139
 20
154.8517424172
  0
VERTEX
  8
2_FEATURE
 62
7
  6
CONTINUOUS
 10
63.2218080342
 20
154.7680766134
  0
VERTEX
  8
2_FEATURE
 62
7
  6
CONTINUOUS
 10
63.1445693178
 20
154.7048465121
  0
VERTEX
  8
2_FEATURE
 62
7
  6
CONTINUOUS
 10
63.0615972966
 20
154.6657890429
  0
VERTEX
  8
2_FEATURE
 62
7
  6
CONTINUOUS
 10
62.9865301698
 20
154.6544457856
  0
SEQEND
  0
POLYLINE
  8
2_FEATURE
 62
7
  6
CONTINUOUS
 66
1
 70
0
  0
VERTEX
  8
2_FEATURE
 62
7
  6
CONTINUOUS
 10
63.2365299327
 20
122.8007208299
  0
VERTEX
  8
2_FEATURE
 62
7
  6
CONTINUOUS
 10
63.2408391048
 20
122.9414692665
  0
VERTEX
  8
2_FEATURE
 62
7
  6
CONTINUOUS
 10
63.2562773782
 20
123.0925785817
  0
VERTEX
  8
2_FEATURE
 62
7
  6
CONTINUOUS
 10
63.2834010192
 20
123.235220256
  0
VERTEX
  8
2_FEATURE
 62
7
  6
CONTINUOUS
 10
63.3221739574
 20
123.3666327657
  0
VERTEX
  8
2_FEATURE
 62
7
  6
CONTINUOUS
 10
63.3720971455
 20
123.4843611905
  0
VERTEX
  8
2_FEATURE
 62
7
  6
CONTINUOUS
 10
63.4320214813
 20
123.5857579303
  0
VERTEX
  8
2_FEATURE
 62
7
  6
CONTINUOUS
 10
63.5012525383
 20
123.6694237459
  0
VERTEX
  8
2_FEATURE
 62
7
  6
CONTINUOUS
 10
63.5784914353
 20
123.732653882
  0
VERTEX
  8
2_FEATURE
 62
7
  6
CONTINUOUS
 10
63.661466573
 20
123.7717120018
  0
VERTEX
  8
2_FEATURE
 62
7
  6
CONTINUOUS
 10
63.7365301698
 20
123.783054206
  0
SEQEND
  0
LINE
  8
2_FEATURE
 62
7
  6
CONTINUOUS
 10
51.0365301698
 20
123.7830543154
 11
56.6365301672
 21
123.7830543154
  0
LINE
  8
2_FEATURE
 62
7
  6
CONTINUOUS
 10
63.7365301698
 20
123.7830543154
 11
69.3365301671
 21
123.7830543154
  0
LINE
  8
2_FEATURE
 62
7
  6
CONTINUOUS
 10
76.4365301698
 20
123.7830543154
 11
82.0365301672
 21
123.7830543154
  0
LINE
  8
2_FEATURE
 62
7
  6
CONTINUOUS
 10
89.1365301698
 20
123.7830543154
 11
94.7365301671
 21
123.7830543154
  0
LINE
  8
2_FEATURE
 62
7
  6
CONTINUOUS
 10
101.8365301698
 20
123.7830543154
 11
107.4365301672
 21
123.7830543154
  0
POLYLINE
  8
2_FEATURE
 62
7
  6
CONTINUOUS
 66
1
 70
0
  0
VERTEX
  8
2_FEATURE
 62
7
  6
CONTINUOUS
 10
69.3365301671
 20
123.7830542156
  0
VERTEX
  8
2_FEATURE
 62
7
  6
CONTINUOUS
 10
69.4109552251
 20
123.7719040329
  0
VERTEX
  8
2_FEATURE
 62
7
  6
CONTINUOUS
 10
69.493954889
 20
123.7330478599
  0
VERTEX
  8
2_FEATURE
 62
7
  6
CONTINUOUS
 10
69.5712507857
 20
123.669983425
  0
VERTEX
  8
2_FEATURE
 62
7
  6
CONTINUOUS
 10
69.6405503439
 20
123.5864581697
  0
VERTEX
  8
2_FEATURE
 62
7
  6
CONTINUOUS
 10
69.7005488485
 20
123.485186348
  0
VERTEX
  8
2_FEATURE
 62
7
  6
CONTINUOUS
 10
69.7505507795
 20
123.3675746012
  0
VERTEX
  8
2_FEATURE
 62
7
  6
CONTINUOUS
 10
69.7894059366
 20
123.2362735263
  0
VERTEX
  8
2_FEATURE
 62
7
  6
CONTINUOUS
 10
69.8166148109
 20
123.0937404461
  0
VERTEX
  8
2_FEATURE
 62
7
  6
CONTINUOUS
 10
69.8321405483
 20
122.9427455118
  0
VERTEX
  8
2_FEATURE
 62
7
  6
CONTINUOUS
 10
69.8365307088
 20
122.8007287036
  0
SEQEND
  0
LINE
  8
0
 62
7
  6
CONTINUOUS
 10
47.5365301698
 20
124.7047716174
 11
47.7365301698
 21
124.7047716174
  0
LINE
  8
0
 62
7
  6
CONTINUOUS
 10
110.7365301698
 20
124.7047716174
 11
110.9365301698
 21
124.7047716174
  0
POLYLINE
  8
2_FEATURE
 62
7
  6
CONTINUOUS
 66
1
 70
0
  0
VERTEX
  8
2_FEATURE
 62
7
  6
CONTINUOUS
 10
82.0365301672
 20
123.7830542151
  0
VERTEX
  8
2_FEATURE
 62
7
  6
CONTINUOUS
 10
82.1109552358
 20
123.7719040301
  0
VERTEX
  8
2_FEATURE
 62
7
  6
CONTINUOUS
 10
82.1939548627
 20
123.7330478768
  0
VERTEX
  8
2_FEATURE
 62
7
  6
CONTINUOUS
 10
82.2712507619
 20
123.6699834445
  0
VERTEX
  8
2_FEATURE
 62
7
  6
CONTINUOUS
 10
82.3405503462
 20
123.5864581706
  0
VERTEX
  8
2_FEATURE
 62
7
  6
CONTINUOUS
 10
82.4005488332
 20
123.4851863751
  0
VERTEX
  8
2_FEATURE
 62
7
  6
CONTINUOUS
 10
82.4505507688
 20
123.3675746341
  0
VERTEX
  8
2_FEATURE
 62
7
  6
CONTINUOUS
 10
82.4894059335
 20
123.2362735391
  0
VERTEX
  8
2_FEATURE
 62
7
  6
CONTINUOUS
 10
82.5166148155
 20
123.0937404003
  0
VERTEX
  8
2_FEATURE
 62
7
  6
CONTINUOUS
 10
82.5321405591
 20
122.9427454498
  0
VERTEX
  8
2_FEATURE
 62
7
  6
CONTINUOUS
 10
82.5365307033
 20
122.8007292552
  0
SEQEND
  0
POLYLINE
  8
2_FEATURE
 62
7
  6
CONTINUOUS
 66
1
 70
0
  0
VERTEX
  8
2_FEATURE
 62
7
  6
CONTINUOUS
 10
94.7365301671
 20
123.7830542156
  0
VERTEX
  8
2_FEATURE
 62
7
  6
CONTINUOUS
 10
94.8109552251
 20
123.7719040329
  0
VERTEX
  8
2_FEATURE
 62
7
  6
CONTINUOUS
 10
94.893954889
 20
123.7330478599
  0
VERTEX
  8
2_FEATURE
 62
7
  6
CONTINUOUS
 10
94.9712507857
 20
123.669983425
  0
VERTEX
  8
2_FEATURE
 62
7
  6
CONTINUOUS
 10
95.0405503439
 20
123.5864581697
  0
VERTEX
  8
2_FEATURE
 62
7
  6
CONTINUOUS
 10
95.1005488485
 20
123.485186348
  0
VERTEX
  8
2_FEATURE
 62
7
  6
CONTINUOUS
 10
95.1505507795
 20
123.3675746012
  0
VERTEX
  8
2_FEATURE
 62
7
  6
CONTINUOUS
 10
95.1894059366
 20
123.2362735263
  0
VERTEX
  8
2_FEATURE
 62
7
  6
CONTINUOUS
 10
95.2166148109
 20
123.0937404461
  0
VERTEX
  8
2_FEATURE
 62
7
  6
CONTINUOUS
 10
95.2321405483
 20
122.9427455118
  0
VERTEX
  8
2_FEATURE
 62
7
  6
CONTINUOUS
 10
95.2365307088
 20
122.8007287036
  0
SEQEND
  0
POLYLINE
  8
2_FEATURE
 62
7
  6
CONTINUOUS
 66
1
 70
0
  0
VERTEX
  8
2_FEATURE
 62
7
  6
CONTINUOUS
 10
107.4365301672
 20
123.7830542151
  0
VERTEX
  8
2_FEATURE
 62
7
  6
CONTINUOUS
 10
107.5109552358
 20
123.7719040301
  0
VERTEX
  8
2_FEATURE
 62
7
  6
CONTINUOUS
 10
107.5939548627
 20
123.7330478768
  0
VERTEX
  8
2_FEATURE
 62
7
  6
CONTINUOUS
 10
107.6712507619
 20
123.6699834445
  0
VERTEX
  8
2_FEATURE
 62
7
  6
CONTINUOUS
 10
107.7405503462
 20
123.5864581706
  0
VERTEX
  8
2_FEATURE
 62
7
  6
CONTINUOUS
 10
107.8005488332
 20
123.4851863751
  0
VERTEX
  8
2_FEATURE
 62
7
  6
CONTINUOUS
 10
107.8505507688
 20
123.3675746341
  0
VERTEX
  8
2_FEATURE
 62
7
  6
CONTINUOUS
 10
107.8894059335
 20
123.2362735391
  0
VERTEX
  8
2_FEATURE
 62
7
  6
CONTINUOUS
 10
107.9166148155
 20
123.0937404003
  0
VERTEX
  8
2_FEATURE
 62
7
  6
CONTINUOUS
 10
107.9321405591
 20
122.9427454498
  0
VERTEX
  8
2_FEATURE
 62
7
  6
CONTINUOUS
 10
107.9365307033
 20
122.8007292552
  0
SEQEND
  0
LINE
  8
2_FEATURE
 62
7
  6
CONTINUOUS
 10
69.5865301698
 20
155.6367354925
 11
69.5865301698
 21
162.00875
  0
LINE
  8
2_FEATURE
 62
7
  6
CONTINUOUS
 10
69.8365301698
 20
122.8007644377
 11
69.8365301698
 21
116.42875
  0
POLYLINE
  8
2_FEATURE
 62
7
  6
CONTINUOUS
 66
1
 70
0
  0
VERTEX
  8
2_FEATURE
 62
7
  6
CONTINUOUS
 10
50.5365301698
 20
118.9440051286
  0
VERTEX
  8
2_FEATURE
 62
7
  6
CONTINUOUS
 10
50.5197580467
 20
118.9232113079
  0
VERTEX
  8
2_FEATURE
 62
7
  6
CONTINUOUS
 10
50.4703663782
 20
118.9040653455
  0
VERTEX
  8
2_FEATURE
 62
7
  6
CONTINUOUS
 10
50.3913800012
 20
118.8877734696
  0
VERTEX
  8
2_FEATURE
 62
7
  6
CONTINUOUS
 10
50.2879127492
 20
118.8753495947
  0
VERTEX
  8
2_FEATURE
 62
7
  6
CONTINUOUS
 10
50.1668824381
 20
118.8675644916
  0
VERTEX
  8
2_FEATURE
 62
7
  6
CONTINUOUS
 10
50.0365301698
 20
118.864909519
  0
SEQEND
  0
LINE
  8
2_FEATURE
 62
7
  6
CONTINUOUS
 10
75.9365301698
 20
116.42875
 11
75.9365301698
 21
122.8007645067
  0
LINE
  8
2_FEATURE
 62
7
  6
CONTINUOUS
 10
76.1865301698
 20
162.00875
 11
76.1865301698
 21
155.6367355624
  0
POLYLINE
  8
2_FEATURE
 62
7
  6
CONTINUOUS
 66
1
 70
0
  0
VERTEX
  8
2_FEATURE
 62
7
  6
CONTINUOUS
 10
76.1865306989
 20
155.6367710248
  0
VERTEX
  8
2_FEATURE
 62
7
  6
CONTINUOUS
 10
76.1822215888
 20
155.4960355578
  0
VERTEX
  8
2_FEATURE
 62
7
  6
CONTINUOUS
 10
76.1667835528
 20
155.3449272609
  0
VERTEX
  8
2_FEATURE
 62
7
  6
CONTINUOUS
 10
76.1396598097
 20
155.2022823424
  0
VERTEX
  8
2_FEATURE
 62
7
  6
CONTINUOUS
 10
76.1008867097
 20
155.0708681668
  0
VERTEX
  8
2_FEATURE
 62
7
  6
CONTINUOUS
 10
76.050963568
 20
154.9531395048
  0
VERTEX
  8
2_FEATURE
 62
7
  6
CONTINUOUS
 10
75.9910392007
 20
154.8517423947
  0
VERTEX
  8
2_FEATURE
 62
7
  6
CONTINUOUS
 10
75.9218080083
 20
154.7680765927
  0
VERTEX
  8
2_FEATURE
 62
7
  6
CONTINUOUS
 10
75.8445692903
 20
154.7048464947
  0
VERTEX
  8
2_FEATURE
 62
7
  6
CONTINUOUS
 10
75.7615973082
 20
154.6657890459
  0
VERTEX
  8
2_FEATURE
 62
7
  6
CONTINUOUS
 10
75.6865301698
 20
154.6544457862
  0
SEQEND
  0
POLYLINE
  8
2_FEATURE
 62
7
  6
CONTINUOUS
 66
1
 70
0
  0
VERTEX
  8
2_FEATURE
 62
7
  6
CONTINUOUS
 10
75.9365299341
 20
122.8007211921
  0
VERTEX
  8
2_FEATURE
 62
7
  6
CONTINUOUS
 10
75.9408391036
 20
122.9414691811
  0
VERTEX
  8
2_FEATURE
 62
7
  6
CONTINUOUS
 10
75.9562773746
 20
123.0925784973
  0
VERTEX
  8
2_FEATURE
 62
7
  6
CONTINUOUS
 10
75.983401022
 20
123.2352202523
  0
VERTEX
  8
2_FEATURE
 62
7
  6
CONTINUOUS
 10
76.0221739626
 20
123.366632777
  0
VERTEX
  8
2_FEATURE
 62
7
  6
CONTINUOUS
 10
76.0720971563
 20
123.4843612097
  0
VERTEX
  8
2_FEATURE
 62
7
  6
CONTINUOUS
 10
76.1320214763
 20
123.5857579313
  0
VERTEX
  8
2_FEATURE
 62
7
  6
CONTINUOUS
 10
76.2012525563
 20
123.6694237593
  0
VERTEX
  8
2_FEATURE
 62
7
  6
CONTINUOUS
 10
76.2784914535
 20
123.7326538921
  0
VERTEX
  8
2_FEATURE
 62
7
  6
CONTINUOUS
 10
76.3614665697
 20
123.7717120008
  0
VERTEX
  8
2_FEATURE
 62
7
  6
CONTINUOUS
 10
76.4365301698
 20
123.7830542054
  0
SEQEND
  0
POLYLINE
  8
2_FEATURE
 62
7
  6
CONTINUOUS
 66
1
 70
0
  0
VERTEX
  8
2_FEATURE
 62
7
  6
CONTINUOUS
 10
56.8865301698
 20
159.4934948714
  0
VERTEX
  8
2_FEATURE
 62
7
  6
CONTINUOUS
 10
56.8697580467
 20
159.5142886921
  0
VERTEX
  8
2_FEATURE
 62
7
  6
CONTINUOUS
 10
56.8203663782
 20
159.5334346545
  0
VERTEX
  8
2_FEATURE
 62
7
  6
CONTINUOUS
 10
56.7413800012
 20
159.5497265304
  0
VERTEX
  8
2_FEATURE
 62
7
  6
CONTINUOUS
 10
56.6379127492
 20
159.5621504053
  0
VERTEX
  8
2_FEATURE
 62
7
  6
CONTINUOUS
 10
56.5168824381
 20
159.5699355084
  0
VERTEX
  8
2_FEATURE
 62
7
  6
CONTINUOUS
 10
56.3865301698
 20
159.572590481
  0
SEQEND
  0
LINE
  8
1_AXIS
 62
2
  6
CENTER
 10
79.2365301698
 20
163.7489447517
 11
79.2365301698
 21
141.21885
  0
LINE
  8
1_AXIS
 62
2
  6
CONTINUOUS
 10
79.2365301698
 20
140.09875
 11
79.2365301698
 21
138.33875
  0
LINE
  8
1_AXIS
 62
2
  6
CENTER
 10
79.2365301698
 20
113.9964615302
 11
79.2365301698
 21
137.21865
  0
POLYLINE
  8
2_FEATURE
 62
7
  6
CONTINUOUS
 66
1
 70
0
  0
VERTEX
  8
2_FEATURE
 62
7
  6
CONTINUOUS
 10
63.2365301698
 20
118.9440051286
  0
VERTEX
  8
2_FEATURE
 62
7
  6
CONTINUOUS
 10
63.2197580467
 20
118.9232113079
  0
VERTEX
  8
2_FEATURE
 62
7
  6
CONTINUOUS
 10
63.1703663782
 20
118.9040653455
  0
VERTEX
  8
2_FEATURE
 62
7
  6
CONTINUOUS
 10
63.0913800012
 20
118.8877734696
  0
VERTEX
  8
2_FEATURE
 62
7
  6
CONTINUOUS
 10
62.9879127492
 20
118.8753495947
  0
VERTEX
  8
2_FEATURE
 62
7
  6
CONTINUOUS
 10
62.8668824381
 20
118.8675644916
  0
VERTEX
  8
2_FEATURE
 62
7
  6
CONTINUOUS
 10
62.7365301698
 20
118.864909519
  0
SEQEND
  0
LINE
  8
1_AXIS
 62
2
  6
CENTER
 10
120.6788572349
 20
139.21875
 11
81.2366301698
 21
139.21875
  0
LINE
  8
1_AXIS
 62
2
  6
CONTINUOUS
 10
80.1165301698
 20
139.21875
 11
78.3565301698
 21
139.21875
  0
LINE
  8
1_AXIS
 62
2
  6
CENTER
 10
38.7786156242
 20
139.21875
 11
77.2364301698
 21
139.21875
  0
LINE
  8
2_FEATURE
 62
7
  6
CONTINUOUS
 10
82.2865301698
 20
155.6367354932
 11
82.2865301698
 21
162.00875
  0
LINE
  8
2_FEATURE
 62
7
  6
CONTINUOUS
 10
82.5365301698
 20
116.42875
 11
82.5365301698
 21
122.8007644377
  0
POLYLINE
  8
2_FEATURE
 62
7
  6
CONTINUOUS
 66
1
 70
0
  0
VERTEX
  8
2_FEATURE
 62
7
  6
CONTINUOUS
 10
69.5865301698
 20
159.4934948714
  0
VERTEX
  8
2_FEATURE
 62
7
  6
CONTINUOUS
 10
69.5697580467
 20
159.5142886921
  0
VERTEX
  8
2_FEATURE
 62
7
  6
CONTINUOUS
 10
69.5203663782
 20
159.5334346545
  0
VERTEX
  8
2_FEATURE
 62
7
  6
CONTINUOUS
 10
69.4413800012
 20
159.5497265304
  0
VERTEX
  8
2_FEATURE
 62
7
  6
CONTINUOUS
 10
69.3379127492
 20
159.5621504053
  0
VERTEX
  8
2_FEATURE
 62
7
  6
CONTINUOUS
 10
69.2168824381
 20
159.5699355084
  0
VERTEX
  8
2_FEATURE
 62
7
  6
CONTINUOUS
 10
69.0865301698
 20
159.572590481
  0
SEQEND
  0
LINE
  8
2_FEATURE
 62
7
  6
CONTINUOUS
 10
88.6365301698
 20
116.42875
 11
88.6365301698
 21
122.8007645074
  0
LINE
  8
2_FEATURE
 62
7
  6
CONTINUOUS
 10
88.8865301698
 20
162.00875
 11
88.8865301698
 21
155.6367355624
  0
POLYLINE
  8
2_FEATURE
 62
7
  6
CONTINUOUS
 66
1
 70
0
  0
VERTEX
  8
2_FEATURE
 62
7
  6
CONTINUOUS
 10
88.886530704
 20
155.6367715718
  0
VERTEX
  8
2_FEATURE
 62
7
  6
CONTINUOUS
 10
88.8822215792
 20
155.4960355065
  0
VERTEX
  8
2_FEATURE
 62
7
  6
CONTINUOUS
 10
88.8667835492
 20
155.3449272186
  0
VERTEX
  8
2_FEATURE
 62
7
  6
CONTINUOUS
 10
88.8396598136
 20
155.2022823572
  0
VERTEX
  8
2_FEATURE
 62
7
  6
CONTINUOUS
 10
88.8008867215
 20
155.0708682023
  0
VERTEX
  8
2_FEATURE
 62
7
  6
CONTINUOUS
 10
88.7509635848
 20
154.9531395354
  0
VERTEX
  8
2_FEATURE
 62
7
  6
CONTINUOUS
 10
88.6910392139
 20
154.8517424172
  0
VERTEX
  8
2_FEATURE
 62
7
  6
CONTINUOUS
 10
88.6218080342
 20
154.7680766134
  0
VERTEX
  8
2_FEATURE
 62
7
  6
CONTINUOUS
 10
88.5445693178
 20
154.7048465121
  0
VERTEX
  8
2_FEATURE
 62
7
  6
CONTINUOUS
 10
88.4615972966
 20
154.6657890429
  0
VERTEX
  8
2_FEATURE
 62
7
  6
CONTINUOUS
 10
88.3865301698
 20
154.6544457856
  0
SEQEND
  0
POLYLINE
  8
2_FEATURE
 62
7
  6
CONTINUOUS
 66
1
 70
0
  0
VERTEX
  8
2_FEATURE
 62
7
  6
CONTINUOUS
 10
88.6365299327
 20
122.8007208299
  0
VERTEX
  8
2_FEATURE
 62
7
  6
CONTINUOUS
 10
88.6408391048
 20
122.9414692665
  0
VERTEX
  8
2_FEATURE
 62
7
  6
CONTINUOUS
 10
88.6562773782
 20
123.0925785817
  0
VERTEX
  8
2_FEATURE
 62
7
  6
CONTINUOUS
 10
88.6834010192
 20
123.235220256
  0
VERTEX
  8
2_FEATURE
 62
7
  6
CONTINUOUS
 10
88.7221739574
 20
123.3666327657
  0
VERTEX
  8
2_FEATURE
 62
7
  6
CONTINUOUS
 10
88.7720971455
 20
123.4843611905
  0
VERTEX
  8
2_FEATURE
 62
7
  6
CONTINUOUS
 10
88.8320214813
 20
123.5857579303
  0
VERTEX
  8
2_FEATURE
 62
7
  6
CONTINUOUS
 10
88.9012525383
 20
123.6694237459
  0
VERTEX
  8
2_FEATURE
 62
7
  6
CONTINUOUS
 10
88.9784914353
 20
123.732653882
  0
VERTEX
  8
2_FEATURE
 62
7
  6
CONTINUOUS
 10
89.061466573
 20
123.7717120018
  0
VERTEX
  8
2_FEATURE
 62
7
  6
CONTINUOUS
 10
89.1365301698
 20
123.783054206
  0
SEQEND
  0
POLYLINE
  8
2_FEATURE
 62
7
  6
CONTINUOUS
 66
1
 70
0
  0
VERTEX
  8
2_FEATURE
 62
7
  6
CONTINUOUS
 10
75.9365301698
 20
118.9440051286
  0
VERTEX
  8
2_FEATURE
 62
7
  6
CONTINUOUS
 10
75.9197580467
 20
118.9232113079
  0
VERTEX
  8
2_FEATURE
 62
7
  6
CONTINUOUS
 10
75.8703663782
 20
118.9040653455
  0
VERTEX
  8
2_FEATURE
 62
7
  6
CONTINUOUS
 10
75.7913800012
 20
118.8877734696
  0
VERTEX
  8
2_FEATURE
 62
7
  6
CONTINUOUS
 10
75.6879127492
 20
118.8753495947
  0
VERTEX
  8
2_FEATURE
 62
7
  6
CONTINUOUS
 10
75.5668824381
 20
118.8675644916
  0
VERTEX
  8
2_FEATURE
 62
7
  6
CONTINUOUS
 10
75.4365301698
 20
118.864909519
  0
SEQEND
  0
POLYLINE
  8
2_FEATURE
 62
7
  6
CONTINUOUS
 66
1
 70
0
  0
VERTEX
  8
2_FEATURE
 62
7
  6
CONTINUOUS
 10
57.3865302171
 20
154.654445795
  0
VERTEX
  8
2_FEATURE
 62
7
  6
CONTINUOUS
 10
57.312108862
 20
154.6655948673
  0
VERTEX
  8
2_FEATURE
 62
7
  6
CONTINUOUS
 10
57.2291059294
 20
154.7044517159
  0
VERTEX
  8
2_FEATURE
 62
7
  6
CONTINUOUS
 10
57.1518098572
 20
154.7675161644
  0
VERTEX
  8
2_FEATURE
 62
7
  6
CONTINUOUS
 10
57.0825103902
 20
154.8510414189
  0
VERTEX
  8
2_FEATURE
 62
7
  6
CONTINUOUS
 10
57.022511914
 20
154.9523128702
  0
VERTEX
  8
2_FEATURE
 62
7
  6
CONTINUOUS
 10
56.9725099053
 20
155.0699244413
  0
VERTEX
  8
2_FEATURE
 62
7
  6
CONTINUOUS
 10
56.9336549061
 20
155.2012238868
  0
VERTEX
  8
2_FEATURE
 62
7
  6
CONTINUOUS
 10
56.9064461303
 20
155.3437538296
  0
VERTEX
  8
2_FEATURE
 62
7
  6
CONTINUOUS
 10
56.8909201548
 20
155.4947498352
  0
VERTEX
  8
2_FEATURE
 62
7
  6
CONTINUOUS
 10
56.8865299295
 20
155.6367786865
  0
SEQEND
  0
LINE
  8
2_FEATURE
 62
7
  6
CONTINUOUS
 10
94.9865301698
 20
155.6367354925
 11
94.9865301698
 21
162.00875
  0
LINE
  8
0
 62
7
  6
CONTINUOUS
 10
95.2365301698
 20
123.1043796013
 11
95.2365301698
 21
122.8007644377
  0
LINE
  8
2_FEATURE
 62
7
  6
CONTINUOUS
 10
95.2365301698
 20
122.8007644377
 11
95.2365301698
 21
116.42875
  0
LINE
  8
2_FEATURE
 62
7
  6
CONTINUOUS
 10
110.2365301698
 20
154.6544456846
 11
108.1865302122
 21
154.6544456846
  0
LINE
  8
2_FEATURE
 62
7
  6
CONTINUOUS
 10
101.0865301698
 20
154.6544456846
 11
95.4865302167
 21
154.6544456846
  0
LINE
  8
2_FEATURE
 62
7
  6
CONTINUOUS
 10
88.3865301698
 20
154.6544456846
 11
82.786530217
 21
154.6544456846
  0
LINE
  8
2_FEATURE
 62
7
  6
CONTINUOUS
 10
75.6865301698
 20
154.6544456846
 11
70.0865302167
 21
154.6544456846
  0
LINE
  8
2_FEATURE
 62
7
  6
CONTINUOUS
 10
62.9865301698
 20
154.6544456846
 11
57.386530217
 21
154.6544456846
  0
LINE
  8
2_FEATURE
 62
7
  6
CONTINUOUS
 10
50.2865301698
 20
154.6544456846
 11
48.2365301698
 21
154.6544456846
  0
POLYLINE
  8
2_FEATURE
 62
7
  6
CONTINUOUS
 66
1
 70
0
  0
VERTEX
  8
2_FEATURE
 62
7
  6
CONTINUOUS
 10
70.0865302169
 20
154.6544457943
  0
VERTEX
  8
2_FEATURE
 62
7
  6
CONTINUOUS
 10
70.0121088662
 20
154.6655948661
  0
VERTEX
  8
2_FEATURE
 62
7
  6
CONTINUOUS
 10
69.9291059091
 20
154.7044517269
  0
VERTEX
  8
2_FEATURE
 62
7
  6
CONTINUOUS
 10
69.8518098375
 20
154.7675161787
  0
VERTEX
  8
2_FEATURE
 62
7
  6
CONTINUOUS
 10
69.7825103858
 20
154.8510414327
  0
VERTEX
  8
2_FEATURE
 62
7
  6
CONTINUOUS
 10
69.722511902
 20
154.9523128916
  0
VERTEX
  8
2_FEATURE
 62
7
  6
CONTINUOUS
 10
69.672509899
 20
155.0699244561
  0
VERTEX
  8
2_FEATURE
 62
7
  6
CONTINUOUS
 10
69.6336549035
 20
155.2012238832
  0
VERTEX
  8
2_FEATURE
 62
7
  6
CONTINUOUS
 10
69.6064461353
 20
155.3437537374
  0
VERTEX
  8
2_FEATURE
 62
7
  6
CONTINUOUS
 10
69.5909201571
 20
155.4947497408
  0
VERTEX
  8
2_FEATURE
 62
7
  6
CONTINUOUS
 10
69.5865299279
 20
155.6367790558
  0
SEQEND
  0
POLYLINE
  8
2_FEATURE
 62
7
  6
CONTINUOUS
 66
1
 70
0
  0
VERTEX
  8
2_FEATURE
 62
7
  6
CONTINUOUS
 10
82.7865302171
 20
154.654445795
  0
VERTEX
  8
2_FEATURE
 62
7
  6
CONTINUOUS
 10
82.712108862
 20
154.6655948673
  0
VERTEX
  8
2_FEATURE
 62
7
  6
CONTINUOUS
 10
82.6291059294
 20
154.7044517159
  0
VERTEX
  8
2_FEATURE
 62
7
  6
CONTINUOUS
 10
82.5518098572
 20
154.7675161644
  0
VERTEX
  8
2_FEATURE
 62
7
  6
CONTINUOUS
 10
82.4825103902
 20
154.8510414189
  0
VERTEX
  8
2_FEATURE
 62
7
  6
CONTINUOUS
 10
82.422511914
 20
154.9523128702
  0
VERTEX
  8
2_FEATURE
 62
7
  6
CONTINUOUS
 10
82.3725099053
 20
155.0699244413
  0
VERTEX
  8
2_FEATURE
 62
7
  6
CONTINUOUS
 10
82.3336549061
 20
155.2012238868
  0
VERTEX
  8
2_FEATURE
 62
7
  6
CONTINUOUS
 10
82.3064461303
 20
155.3437538296
  0
VERTEX
  8
2_FEATURE
 62
7
  6
CONTINUOUS
 10
82.2909201548
 20
155.4947498352
  0
VERTEX
  8
2_FEATURE
 62
7
  6
CONTINUOUS
 10
82.2865299295
 20
155.6367786865
  0
SEQEND
  0
POLYLINE
  8
2_FEATURE
 62
7
  6
CONTINUOUS
 66
1
 70
0
  0
VERTEX
  8
2_FEATURE
 62
7
  6
CONTINUOUS
 10
82.2865301698
 20
159.4934948714
  0
VERTEX
  8
2_FEATURE
 62
7
  6
CONTINUOUS
 10
82.2697580467
 20
159.5142886921
  0
VERTEX
  8
2_FEATURE
 62
7
  6
CONTINUOUS
 10
82.2203663782
 20
159.5334346545
  0
VERTEX
  8
2_FEATURE
 62
7
  6
CONTINUOUS
 10
82.1413800012
 20
159.5497265304
  0
VERTEX
  8
2_FEATURE
 62
7
  6
CONTINUOUS
 10
82.0379127492
 20
159.5621504053
  0
VERTEX
  8
2_FEATURE
 62
7
  6
CONTINUOUS
 10
81.9168824381
 20
159.5699355084
  0
VERTEX
  8
2_FEATURE
 62
7
  6
CONTINUOUS
 10
81.7865301698
 20
159.572590481
  0
SEQEND
  0
POLYLINE
  8
2_FEATURE
 62
7
  6
CONTINUOUS
 66
1
 70
0
  0
VERTEX
  8
2_FEATURE
 62
7
  6
CONTINUOUS
 10
95.4865302169
 20
154.6544457943
  0
VERTEX
  8
2_FEATURE
 62
7
  6
CONTINUOUS
 10
95.4121088662
 20
154.6655948661
  0
VERTEX
  8
2_FEATURE
 62
7
  6
CONTINUOUS
 10
95.3291059091
 20
154.7044517269
  0
VERTEX
  8
2_FEATURE
 62
7
  6
CONTINUOUS
 10
95.2518098375
 20
154.7675161787
  0
VERTEX
  8
2_FEATURE
 62
7
  6
CONTINUOUS
 10
95.1825103858
 20
154.8510414327
  0
VERTEX
  8
2_FEATURE
 62
7
  6
CONTINUOUS
 10
95.122511902
 20
154.9523128916
  0
VERTEX
  8
2_FEATURE
 62
7
  6
CONTINUOUS
 10
95.072509899
 20
155.0699244561
  0
VERTEX
  8
2_FEATURE
 62
7
  6
CONTINUOUS
 10
95.0336549035
 20
155.2012238832
  0
VERTEX
  8
2_FEATURE
 62
7
  6
CONTINUOUS
 10
95.0064461353
 20
155.3437537374
  0
VERTEX
  8
2_FEATURE
 62
7
  6
CONTINUOUS
 10
94.9909201571
 20
155.4947497408
  0
VERTEX
  8
2_FEATURE
 62
7
  6
CONTINUOUS
 10
94.9865299279
 20
155.6367790558
  0
SEQEND
  0
POLYLINE
  8
2_FEATURE
 62
7
  6
CONTINUOUS
 66
1
 70
0
  0
VERTEX
  8
2_FEATURE
 62
7
  6
CONTINUOUS
 10
88.6365301698
 20
118.9440051286
  0
VERTEX
  8
2_FEATURE
 62
7
  6
CONTINUOUS
 10
88.6197580467
 20
118.9232113079
  0
VERTEX
  8
2_FEATURE
 62
7
  6
CONTINUOUS
 10
88.5703663782
 20
118.9040653455
  0
VERTEX
  8
2_FEATURE
 62
7
  6
CONTINUOUS
 10
88.4913800012
 20
118.8877734696
  0
VERTEX
  8
2_FEATURE
 62
7
  6
CONTINUOUS
 10
88.3879127492
 20
118.8753495947
  0
VERTEX
  8
2_FEATURE
 62
7
  6
CONTINUOUS
 10
88.2668824381
 20
118.8675644916
  0
VERTEX
  8
2_FEATURE
 62
7
  6
CONTINUOUS
 10
88.1365301698
 20
118.864909519
  0
SEQEND
  0
POLYLINE
  8
2_FEATURE
 62
7
  6
CONTINUOUS
 66
1
 70
0
  0
VERTEX
  8
2_FEATURE
 62
7
  6
CONTINUOUS
 10
102.0865301698
 20
159.572590481
  0
VERTEX
  8
2_FEATURE
 62
7
  6
CONTINUOUS
 10
101.9561779015
 20
159.5699355084
  0
VERTEX
  8
2_FEATURE
 62
7
  6
CONTINUOUS
 10
101.8351475904
 20
159.5621504053
  0
VERTEX
  8
2_FEATURE
 62
7
  6
CONTINUOUS
 10
101.7316803384
 20
159.5497265304
  0
VERTEX
  8
2_FEATURE
 62
7
  6
CONTINUOUS
 10
101.6526939614
 20
159.5334346545
  0
VERTEX
  8
2_FEATURE
 62
7
  6
CONTINUOUS
 10
101.6033022929
 20
159.5142886921
  0
VERTEX
  8
2_FEATURE
 62
7
  6
CONTINUOUS
 10
101.5865301698
 20
159.4934948714
  0
SEQEND
  0
POLYLINE
  8
2_FEATURE
 62
7
  6
CONTINUOUS
 66
1
 70
0
  0
VERTEX
  8
2_FEATURE
 62
7
  6
CONTINUOUS
 10
89.3865301698
 20
159.572590481
  0
VERTEX
  8
2_FEATURE
 62
7
  6
CONTINUOUS
 10
89.2561779015
 20
159.5699355084
  0
VERTEX
  8
2_FEATURE
 62
7
  6
CONTINUOUS
 10
89.1351475904
 20
159.5621504053
  0
VERTEX
  8
2_FEATURE
 62
7
  6
CONTINUOUS
 10
89.0316803384
 20
159.5497265304
  0
VERTEX
  8
2_FEATURE
 62
7
  6
CONTINUOUS
 10
88.9526939614
 20
159.5334346545
  0
VERTEX
  8
2_FEATURE
 62
7
  6
CONTINUOUS
 10
88.9033022929
 20
159.5142886921
  0
VERTEX
  8
2_FEATURE
 62
7
  6
CONTINUOUS
 10
88.8865301698
 20
159.4934948714
  0
SEQEND
  0
POLYLINE
  8
2_FEATURE
 62
7
  6
CONTINUOUS
 66
1
 70
0
  0
VERTEX
  8
2_FEATURE
 62
7
  6
CONTINUOUS
 10
76.6865301698
 20
159.572590481
  0
VERTEX
  8
2_FEATURE
 62
7
  6
CONTINUOUS
 10
76.5561779015
 20
159.5699355084
  0
VERTEX
  8
2_FEATURE
 62
7
  6
CONTINUOUS
 10
76.4351475904
 20
159.5621504053
  0
VERTEX
  8
2_FEATURE
 62
7
  6
CONTINUOUS
 10
76.3316803384
 20
159.5497265304
  0
VERTEX
  8
2_FEATURE
 62
7
  6
CONTINUOUS
 10
76.2526939614
 20
159.5334346545
  0
VERTEX
  8
2_FEATURE
 62
7
  6
CONTINUOUS
 10
76.2033022929
 20
159.5142886921
  0
VERTEX
  8
2_FEATURE
 62
7
  6
CONTINUOUS
 10
76.1865301698
 20
159.4934948714
  0
SEQEND
  0
POLYLINE
  8
2_FEATURE
 62
7
  6
CONTINUOUS
 66
1
 70
0
  0
VERTEX
  8
2_FEATURE
 62
7
  6
CONTINUOUS
 10
63.9865301698
 20
159.572590481
  0
VERTEX
  8
2_FEATURE
 62
7
  6
CONTINUOUS
 10
63.8561779015
 20
159.5699355084
  0
VERTEX
  8
2_FEATURE
 62
7
  6
CONTINUOUS
 10
63.7351475904
 20
159.5621504053
  0
VERTEX
  8
2_FEATURE
 62
7
  6
CONTINUOUS
 10
63.6316803384
 20
159.5497265304
  0
VERTEX
  8
2_FEATURE
 62
7
  6
CONTINUOUS
 10
63.5526939614
 20
159.5334346545
  0
VERTEX
  8
2_FEATURE
 62
7
  6
CONTINUOUS
 10
63.5033022929
 20
159.5142886921
  0
VERTEX
  8
2_FEATURE
 62
7
  6
CONTINUOUS
 10
63.4865301698
 20
159.4934948714
  0
SEQEND
  0
LINE
  8
1_AXIS
 62
2
  6
CENTER
 10
36.4823471678
 20
158.26875
 11
118.3825887785
 21
158.26875
  0
LINE
  8
2_FEATURE
 62
7
  6
CONTINUOUS
 10
51.2865301698
 20
159.572590481
 11
56.3865301698
 21
159.572590481
  0
LINE
  8
2_FEATURE
 62
7
  6
CONTINUOUS
 10
63.9865301698
 20
159.572590481
 11
69.0865301698
 21
159.572590481
  0
LINE
  8
2_FEATURE
 62
7
  6
CONTINUOUS
 10
76.6865301698
 20
159.572590481
 11
81.7865301698
 21
159.572590481
  0
LINE
  8
2_FEATURE
 62
7
  6
CONTINUOUS
 10
89.3865301698
 20
159.572590481
 11
94.4865301698
 21
159.572590481
  0
LINE
  8
2_FEATURE
 62
7
  6
CONTINUOUS
 10
102.0865301698
 20
159.572590481
 11
107.1865301698
 21
159.572590481
  0
POLYLINE
  8
2_FEATURE
 62
7
  6
CONTINUOUS
 66
1
 70
0
  0
VERTEX
  8
2_FEATURE
 62
7
  6
CONTINUOUS
 10
110.2365301698
 20
154.6544456846
  0
VERTEX
  8
2_FEATURE
 62
7
  6
CONTINUOUS
 10
110.3668491872
 20
154.637163981
  0
VERTEX
  8
2_FEATURE
 62
7
  6
CONTINUOUS
 10
110.487451924
 20
154.5869249017
  0
VERTEX
  8
2_FEATURE
 62
7
  6
CONTINUOUS
 10
110.590251025
 20
154.5078315312
  0
VERTEX
  8
2_FEATURE
 62
7
  6
CONTINUOUS
 10
110.6692260184
 20
154.4049936891
  0
VERTEX
  8
2_FEATURE
 62
7
  6
CONTINUOUS
 10
110.7192938207
 20
154.2845965869
  0
VERTEX
  8
2_FEATURE
 62
7
  6
CONTINUOUS
 10
110.7365301698
 20
154.1544456846
  0
SEQEND
  0
POLYLINE
  8
2_FEATURE
 62
7
  6
CONTINUOUS
 66
1
 70
0
  0
VERTEX
  8
2_FEATURE
 62
7
  6
CONTINUOUS
 10
108.1865302123
 20
154.654445795
  0
VERTEX
  8
2_FEATURE
 62
7
  6
CONTINUOUS
 10
108.1121088603
 20
154.6655948678
  0
VERTEX
  8
2_FEATURE
 62
7
  6
CONTINUOUS
 10
108.029105928
 20
154.7044517168
  0
VERTEX
  8
2_FEATURE
 62
7
  6
CONTINUOUS
 10
107.9518098562
 20
154.7675161655
  0
VERTEX
  8
2_FEATURE
 62
7
  6
CONTINUOUS
 10
107.8825103895
 20
154.8510414199
  0
VERTEX
  8
2_FEATURE
 62
7
  6
CONTINUOUS
 10
107.8225119135
 20
154.9523128712
  0
VERTEX
  8
2_FEATURE
 62
7
  6
CONTINUOUS
 10
107.772509905
 20
155.0699244421
  0
VERTEX
  8
2_FEATURE
 62
7
  6
CONTINUOUS
 10
107.733654906
 20
155.2012238874
  0
VERTEX
  8
2_FEATURE
 62
7
  6
CONTINUOUS
 10
107.7064461303
 20
155.34375383
  0
VERTEX
  8
2_FEATURE
 62
7
  6
CONTINUOUS
 10
107.6909201548
 20
155.4947498354
  0
VERTEX
  8
2_FEATURE
 62
7
  6
CONTINUOUS
 10
107.6865299295
 20
155.6367786865
  0
SEQEND
  0
LINE
  8
2_FEATURE
 62
7
  6
CONTINUOUS
 10
101.3365301698
 20
116.42875
 11
101.3365301698
 21
122.8007645067
  0
LINE
  8
2_FEATURE
 62
7
  6
CONTINUOUS
 10
101.5865301698
 20
155.3331203987
 11
101.5865301698
 21
162.00875
  0
POLYLINE
  8
2_FEATURE
 62
7
  6
CONTINUOUS
 66
1
 70
0
  0
VERTEX
  8
2_FEATURE
 62
7
  6
CONTINUOUS
 10
101.5865306989
 20
155.6367710248
  0
VERTEX
  8
2_FEATURE
 62
7
  6
CONTINUOUS
 10
101.5822215888
 20
155.4960355578
  0
VERTEX
  8
2_FEATURE
 62
7
  6
CONTINUOUS
 10
101.5667835528
 20
155.3449272609
  0
VERTEX
  8
2_FEATURE
 62
7
  6
CONTINUOUS
 10
101.5396598097
 20
155.2022823424
  0
VERTEX
  8
2_FEATURE
 62
7
  6
CONTINUOUS
 10
101.5008867097
 20
155.0708681668
  0
VERTEX
  8
2_FEATURE
 62
7
  6
CONTINUOUS
 10
101.450963568
 20
154.9531395048
  0
VERTEX
  8
2_FEATURE
 62
7
  6
CONTINUOUS
 10
101.3910392007
 20
154.8517423947
  0
VERTEX
  8
2_FEATURE
 62
7
  6
CONTINUOUS
 10
101.3218080083
 20
154.7680765927
  0
VERTEX
  8
2_FEATURE
 62
7
  6
CONTINUOUS
 10
101.2445692903
 20
154.7048464947
  0
VERTEX
  8
2_FEATURE
 62
7
  6
CONTINUOUS
 10
101.1615973082
 20
154.6657890459
  0
VERTEX
  8
2_FEATURE
 62
7
  6
CONTINUOUS
 10
101.0865301698
 20
154.6544457862
  0
SEQEND
  0
POLYLINE
  8
2_FEATURE
 62
7
  6
CONTINUOUS
 66
1
 70
0
  0
VERTEX
  8
2_FEATURE
 62
7
  6
CONTINUOUS
 10
101.3365299341
 20
122.8007211921
  0
VERTEX
  8
2_FEATURE
 62
7
  6
CONTINUOUS
 10
101.3408391036
 20
122.9414691811
  0
VERTEX
  8
2_FEATURE
 62
7
  6
CONTINUOUS
 10
101.3562773746
 20
123.0925784973
  0
VERTEX
  8
2_FEATURE
 62
7
  6
CONTINUOUS
 10
101.383401022
 20
123.2352202523
  0
VERTEX
  8
2_FEATURE
 62
7
  6
CONTINUOUS
 10
101.4221739626
 20
123.366632777
  0
VERTEX
  8
2_FEATURE
 62
7
  6
CONTINUOUS
 10
101.4720971563
 20
123.4843612097
  0
VERTEX
  8
2_FEATURE
 62
7
  6
CONTINUOUS
 10
101.5320214763
 20
123.5857579313
  0
VERTEX
  8
2_FEATURE
 62
7
  6
CONTINUOUS
 10
101.6012525563
 20
123.6694237593
  0
VERTEX
  8
2_FEATURE
 62
7
  6
CONTINUOUS
 10
101.6784914535
 20
123.7326538921
  0
VERTEX
  8
2_FEATURE
 62
7
  6
CONTINUOUS
 10
101.7614665697
 20
123.7717120008
  0
VERTEX
  8
2_FEATURE
 62
7
  6
CONTINUOUS
 10
101.8365301698
 20
123.7830542054
  0
SEQEND
  0
LINE
  8
2_FEATURE
 62
7
  6
CONTINUOUS
 10
51.2865301698
 20
162.50875
 11
56.3865301698
 21
162.50875
  0
LINE
  8
2_FEATURE
 62
7
  6
CONTINUOUS
 10
63.9865301698
 20
162.50875
 11
69.0865301698
 21
162.50875
  0
LINE
  8
2_FEATURE
 62
7
  6
CONTINUOUS
 10
76.6865301698
 20
162.50875
 11
81.7865301698
 21
162.50875
  0
LINE
  8
2_FEATURE
 62
7
  6
CONTINUOUS
 10
89.3865301698
 20
162.50875
 11
94.4865301698
 21
162.50875
  0
LINE
  8
2_FEATURE
 62
7
  6
CONTINUOUS
 10
102.0865301698
 20
162.50875
 11
107.1865301698
 21
162.50875
  0
POLYLINE
  8
2_FEATURE
 62
7
  6
CONTINUOUS
 66
1
 70
0
  0
VERTEX
  8
2_FEATURE
 62
7
  6
CONTINUOUS
 10
94.9865301698
 20
159.4934948714
  0
VERTEX
  8
2_FEATURE
 62
7
  6
CONTINUOUS
 10
94.9697580467
 20
159.5142886921
  0
VERTEX
  8
2_FEATURE
 62
7
  6
CONTINUOUS
 10
94.9203663782
 20
159.5334346545
  0
VERTEX
  8
2_FEATURE
 62
7
  6
CONTINUOUS
 10
94.8413800012
 20
159.5497265304
  0
VERTEX
  8
2_FEATURE
 62
7
  6
CONTINUOUS
 10
94.7379127492
 20
159.5621504053
  0
VERTEX
  8
2_FEATURE
 62
7
  6
CONTINUOUS
 10
94.6168824381
 20
159.5699355084
  0
VERTEX
  8
2_FEATURE
 62
7
  6
CONTINUOUS
 10
94.4865301698
 20
159.572590481
  0
SEQEND
  0
LINE
  8
2_FEATURE
 62
7
  6
CONTINUOUS
 10
107.6865301698
 20
155.6367354905
 11
107.6865301698
 21
162.00875
  0
LINE
  8
2_FEATURE
 62
7
  6
CONTINUOUS
 10
107.9365301698
 20
122.8007644377
 11
107.9365301698
 21
116.42875
  0
LINE
  8
2_FEATURE
 62
7
  6
CONTINUOUS
 10
110.7365301698
 20
116.42875
 11
110.7365301698
 21
154.1544456846
  0
LINE
  8
0
 62
7
  6
CONTINUOUS
 10
110.9365301698
 20
152.5850015012
 11
110.9365301698
 21
123.76875
  0
POLYLINE
  8
2_FEATURE
 62
7
  6
CONTINUOUS
 66
1
 70
0
  0
VERTEX
  8
2_FEATURE
 62
7
  6
CONTINUOUS
 10
101.3365301698
 20
118.9440051286
  0
VERTEX
  8
2_FEATURE
 62
7
  6
CONTINUOUS
 10
101.3197580467
 20
118.9232113079
  0
VERTEX
  8
2_FEATURE
 62
7
  6
CONTINUOUS
 10
101.2703663782
 20
118.9040653455
  0
VERTEX
  8
2_FEATURE
 62
7
  6
CONTINUOUS
 10
101.1913800012
 20
118.8877734696
  0
VERTEX
  8
2_FEATURE
 62
7
  6
CONTINUOUS
 10
101.0879127492
 20
118.8753495947
  0
VERTEX
  8
2_FEATURE
 62
7
  6
CONTINUOUS
 10
100.9668824381
 20
118.8675644916
  0
VERTEX
  8
2_FEATURE
 62
7
  6
CONTINUOUS
 10
100.8365301698
 20
118.864909519
  0
SEQEND
  0
LINE
  8
0
 62
7
  6
CONTINUOUS
 10
110.7365301698
 20
123.56875
 11
110.9365301698
 21
123.76875
  0
POLYLINE
  8
2_FEATURE
 62
7
  6
CONTINUOUS
 66
1
 70
0
  0
VERTEX
  8
2_FEATURE
 62
7
  6
CONTINUOUS
 10
107.6865301698
 20
159.4934948714
  0
VERTEX
  8
2_FEATURE
 62
7
  6
CONTINUOUS
 10
107.6697580467
 20
159.5142886921
  0
VERTEX
  8
2_FEATURE
 62
7
  6
CONTINUOUS
 10
107.6203663782
 20
159.5334346545
  0
VERTEX
  8
2_FEATURE
 62
7
  6
CONTINUOUS
 10
107.5413800012
 20
159.5497265304
  0
VERTEX
  8
2_FEATURE
 62
7
  6
CONTINUOUS
 10
107.4379127492
 20
159.5621504053
  0
VERTEX
  8
2_FEATURE
 62
7
  6
CONTINUOUS
 10
107.3168824381
 20
159.5699355084
  0
VERTEX
  8
2_FEATURE
 62
7
  6
CONTINUOUS
 10
107.1865301698
 20
159.572590481
  0
SEQEND
  0
LINE
  8
2_FEATURE
 62
7
  6
CONTINUOUS
 10
160.5755424988
 20
115.92875
 11
162.5196618367
 21
115.92875
  0
LINE
  8
1_AXIS
 62
2
  6
CENTER
 10
165.9476021678
 20
120.16875
 11
164.7976021678
 21
120.16875
  0
LINE
  8
1_AXIS
 62
2
  6
CONTINUOUS
 10
162.4276021678
 20
120.16875
 11
160.6676021678
 21
120.16875
  0
LINE
  8
1_AXIS
 62
2
  6
CENTER
 10
157.1476021678
 20
120.16875
 11
158.2976021678
 21
120.16875
  0
LINE
  8
2_FEATURE
 62
7
  6
CONTINUOUS
 10
165.6976021678
 20
118.864909519
 11
165.5498543462
 21
118.8877734696
  0
POLYLINE
  8
2_FEATURE
 62
7
  6
CONTINUOUS
 66
1
 70
0
  0
VERTEX
  8
2_FEATURE
 62
7
  6
CONTINUOUS
 10
165.5498543462
 20
118.8877734696
  0
VERTEX
  8
2_FEATURE
 62
7
  6
CONTINUOUS
 10
165.3260187516
 20
118.9232113079
  0
VERTEX
  8
2_FEATURE
 62
7
  6
CONTINUOUS
 10
165.1976021678
 20
118.9440051286
  0
SEQEND
  0
LINE
  8
2_FEATURE
 62
7
  6
CONTINUOUS
 10
165.0877152678
 20
123.56875
 11
159.3342021678
 21
123.56875
  0
POLYLINE
  8
2_FEATURE
 62
7
  6
CONTINUOUS
 66
1
 70
0
  0
VERTEX
  8
2_FEATURE
 62
7
  6
CONTINUOUS
 10
159.306999047
 20
123.5697973075
  0
VERTEX
  8
2_FEATURE
 62
7
  6
CONTINUOUS
 10
159.3160679755
 20
123.5692152157
  0
VERTEX
  8
2_FEATURE
 62
7
  6
CONTINUOUS
 10
159.3251354406
 20
123.5688662657
  0
VERTEX
  8
2_FEATURE
 62
7
  6
CONTINUOUS
 10
159.3342021678
 20
123.56875
  0
SEQEND
  0
POLYLINE
  8
2_FEATURE
 62
7
  6
CONTINUOUS
 66
1
 70
0
  0
VERTEX
  8
2_FEATURE
 62
7
  6
CONTINUOUS
 10
159.306999047
 20
123.5697973075
  0
VERTEX
  8
2_FEATURE
 62
7
  6
CONTINUOUS
 10
159.1831296095
 20
123.5861301795
  0
VERTEX
  8
2_FEATURE
 62
7
  6
CONTINUOUS
 10
159.0708273786
 20
123.6135525816
  0
VERTEX
  8
2_FEATURE
 62
7
  6
CONTINUOUS
 10
158.9873510159
 20
123.643845214
  0
VERTEX
  8
2_FEATURE
 62
7
  6
CONTINUOUS
 10
158.9337186894
 20
123.6700199336
  0
VERTEX
  8
2_FEATURE
 62
7
  6
CONTINUOUS
 10
158.8989465008
 20
123.6917366241
  0
VERTEX
  8
2_FEATURE
 62
7
  6
CONTINUOUS
 10
158.8761360281
 20
123.7096322938
  0
VERTEX
  8
2_FEATURE
 62
7
  6
CONTINUOUS
 10
158.8611083999
 20
123.7243830365
  0
VERTEX
  8
2_FEATURE
 62
7
  6
CONTINUOUS
 10
158.8511805223
 20
123.7366290863
  0
VERTEX
  8
2_FEATURE
 62
7
  6
CONTINUOUS
 10
158.8446299557
 20
123.7469017817
  0
VERTEX
  8
2_FEATURE
 62
7
  6
CONTINUOUS
 10
158.840330513
 20
123.7556513619
  0
VERTEX
  8
2_FEATURE
 62
7
  6
CONTINUOUS
 10
158.8375368903
 20
123.7632942066
  0
VERTEX
  8
2_FEATURE
 62
7
  6
CONTINUOUS
 10
158.8358046968
 20
123.7700588612
  0
VERTEX
  8
2_FEATURE
 62
7
  6
CONTINUOUS
 10
158.8348156655
 20
123.7761856849
  0
VERTEX
  8
2_FEATURE
 62
7
  6
CONTINUOUS
 10
158.8343344812
 20
123.7820980264
  0
VERTEX
  8
2_FEATURE
 62
7
  6
CONTINUOUS
 10
158.8342021678
 20
123.7886558621
  0
SEQEND
  0
POLYLINE
  8
2_FEATURE
 62
7
  6
CONTINUOUS
 66
1
 70
0
  0
VERTEX
  8
2_FEATURE
 62
7
  6
CONTINUOUS
 10
159.0645230671
 20
123.8014570402
  0
VERTEX
  8
2_FEATURE
 62
7
  6
CONTINUOUS
 10
159.1668578261
 20
123.7807851518
  0
VERTEX
  8
2_FEATURE
 62
7
  6
CONTINUOUS
 10
159.2212140303
 20
123.7742041791
  0
VERTEX
  8
2_FEATURE
 62
7
  6
CONTINUOUS
 10
159.3342021678
 20
123.7687586925
  0
SEQEND
  0
LINE
  8
2_FEATURE
 62
7
  6
CONTINUOUS
 10
159.3342021678
 20
123.76875
 11
164.8721172844
 21
123.76875
  0
LINE
  8
0
 62
7
  6
CONTINUOUS
 10
164.8721172844
 20
123.76875
 11
165.0877152678
 21
123.56875
  0
POLYLINE
  8
2_FEATURE
 62
7
  6
CONTINUOUS
 66
1
 70
0
  0
VERTEX
  8
2_FEATURE
 62
7
  6
CONTINUOUS
 10
158.8342021678
 20
123.9758567812
  0
VERTEX
  8
2_FEATURE
 62
7
  6
CONTINUOUS
 10
158.8503406577
 20
123.9236625209
  0
VERTEX
  8
2_FEATURE
 62
7
  6
CONTINUOUS
 10
158.8973903332
 20
123.8750781693
  0
VERTEX
  8
2_FEATURE
 62
7
  6
CONTINUOUS
 10
158.9709164171
 20
123.8335556043
  0
VERTEX
  8
2_FEATURE
 62
7
  6
CONTINUOUS
 10
159.0645230671
 20
123.8014570402
  0
SEQEND
  0
LINE
  8
2_FEATURE
 62
7
  6
CONTINUOUS
 10
157.1976021678
 20
120.16875
 11
157.1976021678
 21
158.26875
  0
LINE
  8
0
 62
7
  6
CONTINUOUS
 10
157.1976021678
 20
120.16875
 11
157.1976021678
 21
133.5053066009
  0
LINE
  8
2_FEATURE
 62
7
  6
CONTINUOUS
 10
158.8342021678
 20
123.7886558621
 11
158.8342021678
 21
153.0850015012
  0
LINE
  8
2_FEATURE
 62
7
  6
CONTINUOUS
 10
162.5196618367
 20
162.50875
 11
162.4908558854
 21
162.2579662536
  0
LINE
  8
2_FEATURE
 62
7
  6
CONTINUOUS
 10
162.4908558854
 20
162.2579662536
 11
162.4613307927
 21
162.00875
  0
LINE
  8
2_FEATURE
 62
7
  6
CONTINUOUS
 10
162.4613307927
 20
116.42875
 11
162.4908558854
 21
116.1795337464
  0
LINE
  8
2_FEATURE
 62
7
  6
CONTINUOUS
 10
162.4908558854
 20
116.1795337464
 11
162.5196618367
 21
115.92875
  0
LINE
  8
1_AXIS
 62
2
  6
CONTINUOUS
 10
161.5476021678
 20
159.14875
 11
161.5476021678
 21
157.38875
  0
LINE
  8
1_AXIS
 62
2
  6
CENTER
 10
161.5476021678
 20
153.86875
 11
161.5476021678
 21
152.1187484729
  0
LINE
  8
1_AXIS
 62
2
  6
CENTER
 10
161.5476021678
 20
124.56875
 11
161.5476021678
 21
123.41875
  0
LINE
  8
1_AXIS
 62
2
  6
CONTINUOUS
 10
161.5476021678
 20
121.04875
 11
161.5476021678
 21
119.28875
  0
LINE
  8
1_AXIS
 62
2
  6
CENTER
 10
161.5476021678
 20
115.76875
 11
161.5476021678
 21
116.91875
  0
LINE
  8
1_AXIS
 62
2
  6
CENTER
 10
161.5476021678
 20
162.66875
 11
161.5476021678
 21
164.4187515271
  0
LINE
  8
1_AXIS
 62
2
  6
CENTER
 10
154.6976021678
 20
139.21875
 11
167.6976036949
 21
139.21875
  0
LINE
  8
2_FEATURE
 62
7
  6
CONTINUOUS
 10
160.5923402244
 20
116.0759073613
 11
160.5755424988
 21
115.92875
  0
LINE
  8
2_FEATURE
 62
7
  6
CONTINUOUS
 10
160.5923402244
 20
162.3615926387
 11
160.5755424988
 21
162.50875
  0
LINE
  8
0
 62
7
  6
CONTINUOUS
 10
163.2976021678
 20
124.7047716174
 11
163.2976021678
 21
153.5850015012
  0
POLYLINE
  8
2_FEATURE
 62
7
  6
CONTINUOUS
 66
1
 70
0
  0
VERTEX
  8
2_FEATURE
 62
7
  6
CONTINUOUS
 10
160.6338735429
 20
116.42875
  0
VERTEX
  8
2_FEATURE
 62
7
  6
CONTINUOUS
 10
160.6184894999
 20
116.2998847748
  0
VERTEX
  8
2_FEATURE
 62
7
  6
CONTINUOUS
 10
160.5923402244
 20
116.0759073613
  0
SEQEND
  0
POLYLINE
  8
2_FEATURE
 62
7
  6
CONTINUOUS
 66
1
 70
0
  0
VERTEX
  8
2_FEATURE
 62
7
  6
CONTINUOUS
 10
160.6338735429
 20
162.00875
  0
VERTEX
  8
2_FEATURE
 62
7
  6
CONTINUOUS
 10
160.6043484502
 20
162.2579662536
  0
VERTEX
  8
2_FEATURE
 62
7
  6
CONTINUOUS
 10
160.5923402244
 20
162.3615926387
  0
SEQEND
  0
LINE
  8
2_FEATURE
 62
7
  6
CONTINUOUS
 10
165.6976021678
 20
159.572590481
 11
165.6976021678
 21
118.864909519
  0
LINE
  8
0
 62
7
  6
CONTINUOUS
 10
163.251465071
 20
153.8369389724
 11
163.2047830568
 21
154.0850015012
  0
LINE
  8
0
 62
7
  6
CONTINUOUS
 10
163.2976021678
 20
153.5850015012
 11
163.251465071
 21
153.8369389724
  0
LINE
  8
2_FEATURE
 62
7
  6
CONTINUOUS
 10
163.2976021678
 20
153.5850015012
 11
159.3342021678
 21
153.5850015012
  0
LINE
  8
1_AXIS
 62
2
  6
CONTINUOUS
 10
162.4276021678
 20
158.26875
 11
160.6676021678
 21
158.26875
  0
LINE
  8
1_AXIS
 62
2
  6
CENTER
 10
157.1476021678
 20
158.26875
 11
155.3976006407
 21
158.26875
  0
LINE
  8
1_AXIS
 62
2
  6
CENTER
 10
165.9476021678
 20
158.26875
 11
167.6976036949
 21
158.26875
  0
LINE
  8
2_FEATURE
 62
7
  6
CONTINUOUS
 10
165.1976021678
 20
159.4934948714
 11
165.4461703562
 21
159.5334346545
  0
POLYLINE
  8
2_FEATURE
 62
7
  6
CONTINUOUS
 66
1
 70
0
  0
VERTEX
  8
2_FEATURE
 62
7
  6
CONTINUOUS
 10
165.4461703562
 20
159.5334346545
  0
VERTEX
  8
2_FEATURE
 62
7
  6
CONTINUOUS
 10
165.6803114863
 20
159.5699355084
  0
VERTEX
  8
2_FEATURE
 62
7
  6
CONTINUOUS
 10
165.6976021678
 20
159.572590481
  0
SEQEND
  0
LINE
  8
2_FEATURE
 62
7
  6
CONTINUOUS
 10
160.5755424988
 20
162.50875
 11
162.5196618367
 21
162.50875
  0
LINE
  8
2_FEATURE
 62
7
  6
CONTINUOUS
 10
47.5365301698
 20
207.8148729652
 11
47.5365301698
 21
213.3527880818
  0
LINE
  8
2_FEATURE
 62
7
  6
CONTINUOUS
 10
47.7365301698
 20
206.1782747687
 11
47.7365301698
 21
213.6782729652
  0
LINE
  8
2_FEATURE
 62
7
  6
CONTINUOUS
 10
50.5365301698
 20
206.1782729652
 11
50.5365301698
 21
213.6782729652
  0
POLYLINE
  8
2_FEATURE
 62
7
  6
CONTINUOUS
 66
1
 70
0
  0
VERTEX
  8
2_FEATURE
 62
7
  6
CONTINUOUS
 10
47.6154919499
 20
207.5451938645
  0
VERTEX
  8
2_FEATURE
 62
7
  6
CONTINUOUS
 10
47.5652747454
 20
207.6475286235
  0
VERTEX
  8
2_FEATURE
 62
7
  6
CONTINUOUS
 10
47.5493668592
 20
207.7018848277
  0
VERTEX
  8
2_FEATURE
 62
7
  6
CONTINUOUS
 10
47.5365214773
 20
207.8148729652
  0
SEQEND
  0
LINE
  8
0
 62
7
  6
CONTINUOUS
 10
52.3865301698
 20
207.8519273933
 11
52.3865301698
 21
206.1782729652
  0
LINE
  8
2_FEATURE
 62
7
  6
CONTINUOUS
 10
52.3865301698
 20
207.851927397
 11
52.3865301698
 21
206.1782729652
  0
LINE
  8
0
 62
7
  6
CONTINUOUS
 10
47.5365301698
 20
213.3527880818
 11
47.7365301698
 21
213.5683860652
  0
LINE
  8
0
 62
7
  6
CONTINUOUS
 10
54.8865301698
 20
207.1828168392
 11
54.8865301698
 21
205.8782765003
  0
LINE
  8
2_FEATURE
 62
7
  6
CONTINUOUS
 10
55.2833547757
 20
207.8518737782
 11
55.2833547757
 21
206.1782729652
  0
POLYLINE
  8
0
 62
7
  6
CONTINUOUS
 66
1
 70
0
  0
VERTEX
  8
0
 62
7
  6
CONTINUOUS
 10
54.8865297327
 20
207.1828661434
  0
VERTEX
  8
0
 62
7
  6
CONTINUOUS
 10
54.8969162207
 20
207.2675433558
  0
VERTEX
  8
0
 62
7
  6
CONTINUOUS
 10
54.9115013181
 20
207.3170160999
  0
VERTEX
  8
0
 62
7
  6
CONTINUOUS
 10
54.9546745371
 20
207.4083306152
  0
SEQEND
  0
POLYLINE
  8
0
 62
7
  6
CONTINUOUS
 66
1
 70
0
  0
VERTEX
  8
0
 62
7
  6
CONTINUOUS
 10
55.1087224006
 20
207.2586580907
  0
VERTEX
  8
0
 62
7
  6
CONTINUOUS
 10
55.2044986462
 20
207.0114563571
  0
VERTEX
  8
0
 62
7
  6
CONTINUOUS
 10
55.2647346007
 20
206.7620046784
  0
VERTEX
  8
0
 62
7
  6
CONTINUOUS
 10
55.283354954
 20
206.5437205542
  0
SEQEND
  0
LINE
  8
2_FEATURE
 62
7
  6
CONTINUOUS
 10
57.1365301698
 20
213.6782729652
 11
57.1365301698
 21
206.1782729652
  0
POLYLINE
  8
0
 62
7
  6
CONTINUOUS
 66
1
 70
0
  0
VERTEX
  8
0
 62
7
  6
CONTINUOUS
 10
54.9126731267
 20
207.3194945609
  0
VERTEX
  8
0
 62
7
  6
CONTINUOUS
 10
54.9170150454
 20
207.3317968157
  0
VERTEX
  8
0
 62
7
  6
CONTINUOUS
 10
54.9299796874
 20
207.3619969574
  0
VERTEX
  8
0
 62
7
  6
CONTINUOUS
 10
54.9445811902
 20
207.3907691547
  0
SEQEND
  0
POLYLINE
  8
2_FEATURE
 62
7
  6
CONTINUOUS
 66
1
 70
0
  0
VERTEX
  8
2_FEATURE
 62
7
  6
CONTINUOUS
 10
47.7365301698
 20
210.9420015901
  0
VERTEX
  8
2_FEATURE
 62
7
  6
CONTINUOUS
 10
47.7534217413
 20
210.957385633
  0
VERTEX
  8
2_FEATURE
 62
7
  6
CONTINUOUS
 10
47.8030659164
 20
210.9715266828
  0
VERTEX
  8
2_FEATURE
 62
7
  6
CONTINUOUS
 10
47.8822674533
 20
210.9835349086
  0
VERTEX
  8
2_FEATURE
 62
7
  6
CONTINUOUS
 10
47.9857755608
 20
210.9926726506
  0
VERTEX
  8
2_FEATURE
 62
7
  6
CONTINUOUS
 10
48.1066073186
 20
210.9983871422
  0
VERTEX
  8
2_FEATURE
 62
7
  6
CONTINUOUS
 10
48.2365301698
 20
211.0003326342
  0
SEQEND
  0
POLYLINE
  8
2_FEATURE
 62
7
  6
CONTINUOUS
 66
1
 70
0
  0
VERTEX
  8
2_FEATURE
 62
7
  6
CONTINUOUS
 10
47.7365301698
 20
209.1145443403
  0
VERTEX
  8
2_FEATURE
 62
7
  6
CONTINUOUS
 10
47.7534217413
 20
209.0991602974
  0
VERTEX
  8
2_FEATURE
 62
7
  6
CONTINUOUS
 10
47.8030659164
 20
209.0850192476
  0
VERTEX
  8
2_FEATURE
 62
7
  6
CONTINUOUS
 10
47.8822674533
 20
209.0730110218
  0
VERTEX
  8
2_FEATURE
 62
7
  6
CONTINUOUS
 10
47.9857755608
 20
209.0638732798
  0
VERTEX
  8
2_FEATURE
 62
7
  6
CONTINUOUS
 10
48.1066073186
 20
209.0581587882
  0
VERTEX
  8
2_FEATURE
 62
7
  6
CONTINUOUS
 10
48.2365301698
 20
209.0562132963
  0
SEQEND
  0
LINE
  8
0
 62
7
  6
CONTINUOUS
 10
55.0409720565
 20
207.4043326269
 11
55.0521872126
 21
207.3805475401
  0
LINE
  8
0
 62
7
  6
CONTINUOUS
 10
55.0521872126
 20
207.3805475401
 11
55.0994685037
 21
207.2787421123
  0
LINE
  8
0
 62
7
  6
CONTINUOUS
 10
55.0994685037
 20
207.2787421123
 11
55.1087233451
 21
207.2586589438
  0
LINE
  8
2_FEATURE
 62
7
  6
CONTINUOUS
 10
56.3006610798
 20
206.8255360715
 11
56.3036420252
 21
206.815949593
  0
LINE
  8
2_FEATURE
 62
7
  6
CONTINUOUS
 10
56.3036479154
 20
206.8159297844
 11
56.5358358303
 21
206.0329601252
  0
POLYLINE
  8
2_FEATURE
 62
7
  6
CONTINUOUS
 66
1
 70
0
  0
VERTEX
  8
2_FEATURE
 62
7
  6
CONTINUOUS
 10
56.5358362975
 20
206.0329585498
  0
VERTEX
  8
2_FEATURE
 62
7
  6
CONTINUOUS
 10
56.5313020094
 20
206.0492600575
  0
VERTEX
  8
2_FEATURE
 62
7
  6
CONTINUOUS
 10
56.5152559274
 20
206.1782729652
  0
SEQEND
  0
POLYLINE
  8
0
 62
7
  6
CONTINUOUS
 66
1
 70
0
  0
VERTEX
  8
0
 62
7
  6
CONTINUOUS
 10
54.9595722389
 20
207.41658857
  0
VERTEX
  8
0
 62
7
  6
CONTINUOUS
 10
54.9626537914
 20
207.4219170698
  0
VERTEX
  8
0
 62
7
  6
CONTINUOUS
 10
54.9656764508
 20
207.427254076
  0
VERTEX
  8
0
 62
7
  6
CONTINUOUS
 10
54.9686263363
 20
207.4325757153
  0
VERTEX
  8
0
 62
7
  6
CONTINUOUS
 10
54.9714949471
 20
207.4378651109
  0
VERTEX
  8
0
 62
7
  6
CONTINUOUS
 10
54.9742790547
 20
207.4431129597
  0
VERTEX
  8
0
 62
7
  6
CONTINUOUS
 10
54.9769790322
 20
207.4483151946
  0
VERTEX
  8
0
 62
7
  6
CONTINUOUS
 10
54.9795976894
 20
207.4534713385
  0
VERTEX
  8
0
 62
7
  6
CONTINUOUS
 10
54.9821394708
 20
207.4585833631
  0
VERTEX
  8
0
 62
7
  6
CONTINUOUS
 10
54.9846098909
 20
207.4636548685
  0
VERTEX
  8
0
 62
7
  6
CONTINUOUS
 10
54.9870128209
 20
207.4686855928
  0
VERTEX
  8
0
 62
7
  6
CONTINUOUS
 10
54.9893191096
 20
207.4736015112
  0
VERTEX
  8
0
 62
7
  6
CONTINUOUS
 10
54.991537546
 20
207.4784009787
  0
VERTEX
  8
0
 62
7
  6
CONTINUOUS
 10
54.9936903725
 20
207.4831125789
  0
VERTEX
  8
0
 62
7
  6
CONTINUOUS
 10
54.9957115178
 20
207.4875724467
  0
SEQEND
  0
LINE
  8
0
 62
7
  6
CONTINUOUS
 10
54.9536107615
 20
207.4060806519
 11
54.9604888406
 21
207.4177438513
  0
LINE
  8
0
 62
7
  6
CONTINUOUS
 10
54.9546940292
 20
207.4083654568
 11
54.9563994158
 21
207.4112121893
  0
LINE
  8
0
 62
7
  6
CONTINUOUS
 10
61.2365301698
 20
207.1828130298
 11
61.2365301698
 21
205.8782729652
  0
POLYLINE
  8
0
 62
7
  6
CONTINUOUS
 66
1
 70
0
  0
VERTEX
  8
0
 62
7
  6
CONTINUOUS
 10
61.2365298457
 20
207.1828150824
  0
VERTEX
  8
0
 62
7
  6
CONTINUOUS
 10
61.237414043
 20
207.206585061
  0
VERTEX
  8
0
 62
7
  6
CONTINUOUS
 10
61.241243833
 20
207.2389752439
  0
VERTEX
  8
0
 62
7
  6
CONTINUOUS
 10
61.2479393182
 20
207.2718117646
  0
VERTEX
  8
0
 62
7
  6
CONTINUOUS
 10
61.2572436556
 20
207.3044818301
  0
VERTEX
  8
0
 62
7
  6
CONTINUOUS
 10
61.2688641019
 20
207.3364555056
  0
VERTEX
  8
0
 62
7
  6
CONTINUOUS
 10
61.2824798538
 20
207.367257376
  0
VERTEX
  8
0
 62
7
  6
CONTINUOUS
 10
61.2977700303
 20
207.3964980575
  0
VERTEX
  8
0
 62
7
  6
CONTINUOUS
 10
61.3143770076
 20
207.423781695
  0
VERTEX
  8
0
 62
7
  6
CONTINUOUS
 10
61.3319633192
 20
207.4488187162
  0
VERTEX
  8
0
 62
7
  6
CONTINUOUS
 10
61.3502146414
 20
207.4713926122
  0
VERTEX
  8
0
 62
7
  6
CONTINUOUS
 10
61.3691275941
 20
207.491637345
  0
VERTEX
  8
0
 62
7
  6
CONTINUOUS
 10
61.3888491998
 20
207.509667516
  0
VERTEX
  8
0
 62
7
  6
CONTINUOUS
 10
61.4094031616
 20
207.5252925057
  0
VERTEX
  8
0
 62
7
  6
CONTINUOUS
 10
61.4312463042
 20
207.5383799643
  0
VERTEX
  8
0
 62
7
  6
CONTINUOUS
 10
61.4544386212
 20
207.5480850721
  0
VERTEX
  8
0
 62
7
  6
CONTINUOUS
 10
61.4772839372
 20
207.5528897027
  0
SEQEND
  0
POLYLINE
  8
0
 62
7
  6
CONTINUOUS
 66
1
 70
0
  0
VERTEX
  8
0
 62
7
  6
CONTINUOUS
 10
61.2372370899
 20
207.2040306097
  0
VERTEX
  8
0
 62
7
  6
CONTINUOUS
 10
61.24053974
 20
207.2344623902
  0
VERTEX
  8
0
 62
7
  6
CONTINUOUS
 10
61.2464129504
 20
207.2653716248
  0
VERTEX
  8
0
 62
7
  6
CONTINUOUS
 10
61.2546493245
 20
207.2962318599
  0
VERTEX
  8
0
 62
7
  6
CONTINUOUS
 10
61.2650123463
 20
207.3265929817
  0
VERTEX
  8
0
 62
7
  6
CONTINUOUS
 10
61.2772335237
 20
207.356031293
  0
VERTEX
  8
0
 62
7
  6
CONTINUOUS
 10
61.2910518251
 20
207.3842167727
  0
VERTEX
  8
0
 62
7
  6
CONTINUOUS
 10
61.306174934
 20
207.4108053569
  0
VERTEX
  8
0
 62
7
  6
CONTINUOUS
 10
61.3223057377
 20
207.4355082014
  0
VERTEX
  8
0
 62
7
  6
CONTINUOUS
 10
61.3391484331
 20
207.4580875643
  0
VERTEX
  8
0
 62
7
  6
CONTINUOUS
 10
61.3565219022
 20
207.4784822217
  0
VERTEX
  8
0
 62
7
  6
CONTINUOUS
 10
61.3745581127
 20
207.4969062768
  0
VERTEX
  8
0
 62
7
  6
CONTINUOUS
 10
61.3933309298
 20
207.5133450626
  0
VERTEX
  8
0
 62
7
  6
CONTINUOUS
 10
61.4129322541
 20
207.5276530211
  0
VERTEX
  8
0
 62
7
  6
CONTINUOUS
 10
61.4336744686
 20
207.5396035307
  0
VERTEX
  8
0
 62
7
  6
CONTINUOUS
 10
61.4554197348
 20
207.5483928779
  0
SEQEND
  0
POLYLINE
  8
0
 62
7
  6
CONTINUOUS
 66
1
 70
0
  0
VERTEX
  8
0
 62
7
  6
CONTINUOUS
 10
54.9604888406
 20
207.4177438513
  0
VERTEX
  8
0
 62
7
  6
CONTINUOUS
 10
54.9773900732
 20
207.4426419209
  0
VERTEX
  8
0
 62
7
  6
CONTINUOUS
 10
54.994978951
 20
207.4652396974
  0
VERTEX
  8
0
 62
7
  6
CONTINUOUS
 10
55.003810012
 20
207.4754685358
  0
SEQEND
  0
LINE
  8
0
 62
7
  6
CONTINUOUS
 10
55.3128887082
 20
211.77728262
 11
54.8138790534
 21
211.2782729652
  0
POLYLINE
  8
2_FEATURE
 62
7
  6
CONTINUOUS
 66
1
 70
0
  0
VERTEX
  8
2_FEATURE
 62
7
  6
CONTINUOUS
 10
50.5365301698
 20
209.1145443403
  0
VERTEX
  8
2_FEATURE
 62
7
  6
CONTINUOUS
 10
50.5196385983
 20
209.0991602974
  0
VERTEX
  8
2_FEATURE
 62
7
  6
CONTINUOUS
 10
50.4699944232
 20
209.0850192476
  0
VERTEX
  8
2_FEATURE
 62
7
  6
CONTINUOUS
 10
50.3907928864
 20
209.0730110218
  0
VERTEX
  8
2_FEATURE
 62
7
  6
CONTINUOUS
 10
50.2872847788
 20
209.0638732798
  0
VERTEX
  8
2_FEATURE
 62
7
  6
CONTINUOUS
 10
50.166453021
 20
209.0581587882
  0
VERTEX
  8
2_FEATURE
 62
7
  6
CONTINUOUS
 10
50.0365301698
 20
209.0562132963
  0
SEQEND
  0
LINE
  8
0
 62
7
  6
CONTINUOUS
 10
52.8560565011
 20
211.2782729652
 11
52.3570434653
 21
211.777286001
  0
LINE
  8
0
 62
7
  6
CONTINUOUS
 10
63.2365301698
 20
209.1145526971
 11
63.2365301698
 21
207.5373526918
  0
LINE
  8
2_FEATURE
 62
7
  6
CONTINUOUS
 10
63.2365301698
 20
209.1145526971
 11
63.2365301698
 21
213.6782729652
  0
LINE
  8
2_FEATURE
 62
7
  6
CONTINUOUS
 10
63.3490301698
 20
211.7643150907
 11
63.3490301698
 21
211.6782729652
  0
LINE
  8
2_FEATURE
 62
7
  6
CONTINUOUS
 10
63.3677798837
 20
211.7691307269
 11
63.3677798837
 21
211.6782729652
  0
LINE
  8
2_FEATURE
 62
7
  6
CONTINUOUS
 10
63.3865304559
 20
211.7719113327
 11
63.3865304559
 21
211.6782729652
  0
LINE
  8
2_FEATURE
 62
7
  6
CONTINUOUS
 10
63.4240298837
 20
211.7782729652
 11
63.4240298837
 21
211.6782729652
  0
LINE
  8
2_FEATURE
 62
7
  6
CONTINUOUS
 10
63.4802798837
 20
211.7782729652
 11
63.4802798837
 21
211.6782729652
  0
LINE
  8
2_FEATURE
 62
7
  6
CONTINUOUS
 10
63.4865301698
 20
210.0282729652
 11
63.4865301698
 21
206.1782759198
  0
LINE
  8
0
 62
7
  6
CONTINUOUS
 10
63.4865301698
 20
210.0282729652
 11
63.4865301698
 21
211.6025646757
  0
LINE
  8
2_FEATURE
 62
7
  6
CONTINUOUS
 10
63.5740301698
 20
211.7782729652
 11
63.5740301698
 21
211.6782729652
  0
LINE
  8
2_FEATURE
 62
7
  6
CONTINUOUS
 10
63.6865301698
 20
211.7782729652
 11
63.6865301698
 21
211.6782729652
  0
LINE
  8
2_FEATURE
 62
7
  6
CONTINUOUS
 10
63.7990301698
 20
211.7782729652
 11
63.7990301698
 21
211.6782729652
  0
LINE
  8
2_FEATURE
 62
7
  6
CONTINUOUS
 10
63.8927804559
 20
211.7782729652
 11
63.8927804559
 21
211.6782729652
  0
LINE
  8
2_FEATURE
 62
7
  6
CONTINUOUS
 10
63.9490304559
 20
211.7782729652
 11
63.9490304559
 21
211.6782729652
  0
LINE
  8
2_FEATURE
 62
7
  6
CONTINUOUS
 10
63.9865298837
 20
211.7782729652
 11
63.9865298837
 21
211.6782729652
  0
LINE
  8
2_FEATURE
 62
7
  6
CONTINUOUS
 10
64.0052804559
 20
211.7782729652
 11
64.0052804559
 21
211.6782729652
  0
LINE
  8
2_FEATURE
 62
7
  6
CONTINUOUS
 10
64.0240301698
 20
211.7782729652
 11
64.0240301698
 21
211.6782729652
  0
LINE
  8
1_AXIS
 62
7
  6
CONTINUOUS
 10
64.0665301698
 20
211.7782729652
 11
64.0665301698
 21
211.6782729652
  0
LINE
  8
1_AXIS
 62
7
  6
CONTINUOUS
 10
64.5765301698
 20
211.7782729652
 11
64.5765301698
 21
211.6782729652
  0
POLYLINE
  8
0
 62
7
  6
CONTINUOUS
 66
1
 70
0
  0
VERTEX
  8
0
 62
7
  6
CONTINUOUS
 10
63.2365301698
 20
211.6025646757
  0
VERTEX
  8
0
 62
7
  6
CONTINUOUS
 10
63.2445723798
 20
211.65622884
  0
VERTEX
  8
0
 62
7
  6
CONTINUOUS
 10
63.2725264199
 20
211.7109475802
  0
VERTEX
  8
0
 62
7
  6
CONTINUOUS
 10
63.2949601824
 20
211.7345005362
  0
VERTEX
  8
0
 62
7
  6
CONTINUOUS
 10
63.3540787824
 20
211.7670989296
  0
VERTEX
  8
0
 62
7
  6
CONTINUOUS
 10
63.4294291114
 20
211.7782729652
  0
SEQEND
  0
LINE
  8
0
 62
7
  6
CONTINUOUS
 10
63.2338241293
 20
207.4686511078
 11
63.2338785134
 21
207.4689477413
  0
POLYLINE
  8
2_FEATURE
 62
7
  6
CONTINUOUS
 66
1
 70
0
  0
VERTEX
  8
2_FEATURE
 62
7
  6
CONTINUOUS
 10
57.1365301698
 20
210.9420015901
  0
VERTEX
  8
2_FEATURE
 62
7
  6
CONTINUOUS
 10
57.1534217413
 20
210.957385633
  0
VERTEX
  8
2_FEATURE
 62
7
  6
CONTINUOUS
 10
57.2030659164
 20
210.9715266828
  0
VERTEX
  8
2_FEATURE
 62
7
  6
CONTINUOUS
 10
57.2822674533
 20
210.9835349086
  0
VERTEX
  8
2_FEATURE
 62
7
  6
CONTINUOUS
 10
57.3857755608
 20
210.9926726506
  0
VERTEX
  8
2_FEATURE
 62
7
  6
CONTINUOUS
 10
57.5066073186
 20
210.9983871422
  0
VERTEX
  8
2_FEATURE
 62
7
  6
CONTINUOUS
 10
57.6365301698
 20
211.0003326342
  0
SEQEND
  0
LINE
  8
0
 62
7
  6
CONTINUOUS
 10
63.4865301698
 20
211.6025646757
 11
63.4784873957
 21
211.6562306955
  0
LINE
  8
1_AXIS
 62
7
  6
CONTINUOUS
 10
65.2665301698
 20
211.7782729652
 11
65.2665301698
 21
211.6782729652
  0
LINE
  8
1_AXIS
 62
7
  6
CONTINUOUS
 10
65.7765301698
 20
211.7782729652
 11
65.7765301698
 21
211.6782729652
  0
LINE
  8
2_FEATURE
 62
7
  6
CONTINUOUS
 10
65.8240301698
 20
211.7782729652
 11
65.8240301698
 21
211.6782729652
  0
LINE
  8
1_AXIS
 62
7
  6
CONTINUOUS
 10
65.8965301698
 20
211.7782729652
 11
65.8965301698
 21
211.6782729652
  0
LINE
  8
1_AXIS
 62
7
  6
CONTINUOUS
 10
66.4065301698
 20
211.7782729652
 11
66.4065301698
 21
211.6782729652
  0
POLYLINE
  8
0
 62
7
  6
CONTINUOUS
 66
1
 70
0
  0
VERTEX
  8
0
 62
7
  6
CONTINUOUS
 10
54.9694398685
 20
207.513060189
  0
VERTEX
  8
0
 62
7
  6
CONTINUOUS
 10
54.9717583664
 20
207.5119243304
  0
VERTEX
  8
0
 62
7
  6
CONTINUOUS
 10
54.9767711601
 20
207.5084751017
  0
VERTEX
  8
0
 62
7
  6
CONTINUOUS
 10
54.982284684
 20
207.5035919792
  0
VERTEX
  8
0
 62
7
  6
CONTINUOUS
 10
54.9877812655
 20
207.4977451952
  0
VERTEX
  8
0
 62
7
  6
CONTINUOUS
 10
54.9930786089
 20
207.4912138134
  0
VERTEX
  8
0
 62
7
  6
CONTINUOUS
 10
54.9979299071
 20
207.4845043691
  0
VERTEX
  8
0
 62
7
  6
CONTINUOUS
 10
55.0026620402
 20
207.4773402978
  0
VERTEX
  8
0
 62
7
  6
CONTINUOUS
 10
55.0072943492
 20
207.4697873417
  0
VERTEX
  8
0
 62
7
  6
CONTINUOUS
 10
55.0118910385
 20
207.461821244
  0
VERTEX
  8
0
 62
7
  6
CONTINUOUS
 10
55.0165208274
 20
207.4533849294
  0
VERTEX
  8
0
 62
7
  6
CONTINUOUS
 10
55.0212130949
 20
207.4444770023
  0
VERTEX
  8
0
 62
7
  6
CONTINUOUS
 10
55.0259592372
 20
207.4351639577
  0
VERTEX
  8
0
 62
7
  6
CONTINUOUS
 10
55.0307878606
 20
207.4254374817
  0
VERTEX
  8
0
 62
7
  6
CONTINUOUS
 10
55.0357726142
 20
207.4151895148
  0
VERTEX
  8
0
 62
7
  6
CONTINUOUS
 10
55.0409720565
 20
207.4043326269
  0
SEQEND
  0
LINE
  8
0
 62
7
  6
CONTINUOUS
 10
63.4784873957
 20
211.6562306955
 11
63.4621697166
 21
211.6881767712
  0
LINE
  8
1_AXIS
 62
7
  6
CONTINUOUS
 10
67.2165301698
 20
211.7782729652
 11
67.2165301698
 21
211.6782729652
  0
LINE
  8
1_AXIS
 62
7
  6
CONTINUOUS
 10
68.7465301698
 20
211.7782729652
 11
68.7465301698
 21
211.6782729652
  0
LINE
  8
2_FEATURE
 62
7
  6
CONTINUOUS
 10
68.7490301698
 20
211.7782729652
 11
68.7490301698
 21
211.6782729652
  0
LINE
  8
2_FEATURE
 62
7
  6
CONTINUOUS
 10
68.7677800983
 20
211.7782729652
 11
68.7677800983
 21
211.6782729652
  0
LINE
  8
2_FEATURE
 62
7
  6
CONTINUOUS
 10
68.7865302413
 20
211.7782729652
 11
68.7865302413
 21
211.6782729652
  0
LINE
  8
2_FEATURE
 62
7
  6
CONTINUOUS
 10
68.8427802413
 20
211.7782729652
 11
68.8427802413
 21
211.6782729652
  0
LINE
  8
2_FEATURE
 62
7
  6
CONTINUOUS
 10
68.9365300983
 20
211.7782729652
 11
68.9365300983
 21
211.6782729652
  0
LINE
  8
2_FEATURE
 62
7
  6
CONTINUOUS
 10
69.0490300983
 20
211.7782729652
 11
69.0490300983
 21
211.6782729652
  0
LINE
  8
2_FEATURE
 62
7
  6
CONTINUOUS
 10
69.1240302413
 20
211.7782729652
 11
69.1240302413
 21
211.6782729652
  0
LINE
  8
2_FEATURE
 62
7
  6
CONTINUOUS
 10
69.1615300983
 20
211.7782729652
 11
69.1615300983
 21
211.6782729652
  0
LINE
  8
2_FEATURE
 62
7
  6
CONTINUOUS
 10
69.2177800983
 20
211.7782729652
 11
69.2177800983
 21
211.6782729652
  0
LINE
  8
2_FEATURE
 62
7
  6
CONTINUOUS
 10
69.2365302413
 20
211.7782729652
 11
69.2365302413
 21
211.6782729652
  0
LINE
  8
2_FEATURE
 62
7
  6
CONTINUOUS
 10
69.3865300983
 20
211.7782729652
 11
69.3865300983
 21
211.6782729652
  0
LINE
  8
2_FEATURE
 62
7
  6
CONTINUOUS
 10
69.4052802413
 20
211.7782729652
 11
69.4052802413
 21
211.6782729652
  0
LINE
  8
2_FEATURE
 62
7
  6
CONTINUOUS
 10
69.4615302413
 20
211.7782729652
 11
69.4615302413
 21
211.6782729652
  0
LINE
  8
2_FEATURE
 62
7
  6
CONTINUOUS
 10
69.5365301698
 20
211.7782729652
 11
69.5365301698
 21
211.6782729652
  0
LINE
  8
0
 62
7
  6
CONTINUOUS
 10
69.5865301698
 20
211.6025646757
 11
69.5865301698
 21
210.0282729652
  0
LINE
  8
2_FEATURE
 62
7
  6
CONTINUOUS
 10
69.5865301698
 20
211.2782729652
 11
69.5865301698
 21
206.1782759199
  0
LINE
  8
2_FEATURE
 62
7
  6
CONTINUOUS
 10
69.6302802413
 20
211.7782729652
 11
69.6302802413
 21
211.6782729652
  0
LINE
  8
2_FEATURE
 62
7
  6
CONTINUOUS
 10
69.8365301698
 20
206.1782759197
 11
69.8365301698
 21
213.6782729652
  0
LINE
  8
0
 62
7
  6
CONTINUOUS
 10
69.6109287473
 20
211.6882090211
 11
69.6070168916
 21
211.6805902785
  0
POLYLINE
  8
0
 62
7
  6
CONTINUOUS
 66
1
 70
0
  0
VERTEX
  8
0
 62
7
  6
CONTINUOUS
 10
69.6058270633
 20
211.6782729652
  0
VERTEX
  8
0
 62
7
  6
CONTINUOUS
 10
69.5946658427
 20
211.6565353364
  0
VERTEX
  8
0
 62
7
  6
CONTINUOUS
 10
69.5865301698
 20
211.6025646757
  0
SEQEND
  0
POLYLINE
  8
2_FEATURE
 62
7
  6
CONTINUOUS
 66
1
 70
0
  0
VERTEX
  8
2_FEATURE
 62
7
  6
CONTINUOUS
 10
63.2365301698
 20
209.1145443403
  0
VERTEX
  8
2_FEATURE
 62
7
  6
CONTINUOUS
 10
63.2196385983
 20
209.0991602974
  0
VERTEX
  8
2_FEATURE
 62
7
  6
CONTINUOUS
 10
63.1699944232
 20
209.0850192476
  0
VERTEX
  8
2_FEATURE
 62
7
  6
CONTINUOUS
 10
63.0907928864
 20
209.0730110218
  0
VERTEX
  8
2_FEATURE
 62
7
  6
CONTINUOUS
 10
62.9872847788
 20
209.0638732798
  0
VERTEX
  8
2_FEATURE
 62
7
  6
CONTINUOUS
 10
62.866453021
 20
209.0581587882
  0
VERTEX
  8
2_FEATURE
 62
7
  6
CONTINUOUS
 10
62.7365301698
 20
209.0562132963
  0
SEQEND
  0
LINE
  8
0
 62
7
  6
CONTINUOUS
 10
62.2526105655
 20
207.1926710249
 11
62.6633758214
 21
207.0222796337
  0
LINE
  8
0
 62
7
  6
CONTINUOUS
 10
61.5338124283
 20
207.5422361018
 11
61.5452368869
 21
207.5365719261
  0
POLYLINE
  8
0
 62
7
  6
CONTINUOUS
 66
1
 70
0
  0
VERTEX
  8
0
 62
7
  6
CONTINUOUS
 10
61.5452396529
 20
207.5365724322
  0
VERTEX
  8
0
 62
7
  6
CONTINUOUS
 10
61.871115253
 20
207.3690756443
  0
VERTEX
  8
0
 62
7
  6
CONTINUOUS
 10
62.2532013652
 20
207.1924259526
  0
SEQEND
  0
POLYLINE
  8
2_FEATURE
 62
7
  6
CONTINUOUS
 66
1
 70
0
  0
VERTEX
  8
2_FEATURE
 62
7
  6
CONTINUOUS
 10
69.8365301698
 20
210.9420015901
  0
VERTEX
  8
2_FEATURE
 62
7
  6
CONTINUOUS
 10
69.8534217413
 20
210.957385633
  0
VERTEX
  8
2_FEATURE
 62
7
  6
CONTINUOUS
 10
69.9030659164
 20
210.9715266828
  0
VERTEX
  8
2_FEATURE
 62
7
  6
CONTINUOUS
 10
69.9822674533
 20
210.9835349086
  0
VERTEX
  8
2_FEATURE
 62
7
  6
CONTINUOUS
 10
70.0857755608
 20
210.9926726506
  0
VERTEX
  8
2_FEATURE
 62
7
  6
CONTINUOUS
 10
70.2066073186
 20
210.9983871422
  0
VERTEX
  8
2_FEATURE
 62
7
  6
CONTINUOUS
 10
70.3365301698
 20
211.0003326342
  0
SEQEND
  0
POLYLINE
  8
2_FEATURE
 62
7
  6
CONTINUOUS
 66
1
 70
0
  0
VERTEX
  8
2_FEATURE
 62
7
  6
CONTINUOUS
 10
102.0686838121
 20
205.6783157346
  0
VERTEX
  8
2_FEATURE
 62
7
  6
CONTINUOUS
 10
102.197071432
 20
205.696859491
  0
VERTEX
  8
2_FEATURE
 62
7
  6
CONTINUOUS
 10
102.3164449496
 20
205.7477910864
  0
VERTEX
  8
2_FEATURE
 62
7
  6
CONTINUOUS
 10
102.4188164294
 20
205.8275692594
  0
VERTEX
  8
2_FEATURE
 62
7
  6
CONTINUOUS
 10
102.497386968
 20
205.9307345668
  0
VERTEX
  8
2_FEATURE
 62
7
  6
CONTINUOUS
 10
102.5470015993
 20
206.0503057666
  0
VERTEX
  8
2_FEATURE
 62
7
  6
CONTINUOUS
 10
102.5644660098
 20
206.1782729652
  0
SEQEND
  0
POLYLINE
  8
2_FEATURE
 62
7
  6
CONTINUOUS
 66
1
 70
0
  0
VERTEX
  8
2_FEATURE
 62
7
  6
CONTINUOUS
 10
101.4620943178
 20
205.6782729652
  0
VERTEX
  8
2_FEATURE
 62
7
  6
CONTINUOUS
 10
101.5915322954
 20
205.6954170601
  0
VERTEX
  8
2_FEATURE
 62
7
  6
CONTINUOUS
 10
101.711730646
 20
205.7455938507
  0
VERTEX
  8
2_FEATURE
 62
7
  6
CONTINUOUS
 10
101.8145100978
 20
205.8252540536
  0
VERTEX
  8
2_FEATURE
 62
7
  6
CONTINUOUS
 10
101.8929293882
 20
205.9288528894
  0
VERTEX
  8
2_FEATURE
 62
7
  6
CONTINUOUS
 10
101.93722382
 20
206.0329581794
  0
SEQEND
  0
POLYLINE
  8
2_FEATURE
 62
7
  6
CONTINUOUS
 66
1
 70
0
  0
VERTEX
  8
2_FEATURE
 62
7
  6
CONTINUOUS
 10
57.0109660218
 20
205.6782729652
  0
VERTEX
  8
2_FEATURE
 62
7
  6
CONTINUOUS
 10
56.8815280442
 20
205.6954170601
  0
VERTEX
  8
2_FEATURE
 62
7
  6
CONTINUOUS
 10
56.7613296936
 20
205.7455938507
  0
VERTEX
  8
2_FEATURE
 62
7
  6
CONTINUOUS
 10
56.6585502418
 20
205.8252540536
  0
VERTEX
  8
2_FEATURE
 62
7
  6
CONTINUOUS
 10
56.5801309514
 20
205.9288528894
  0
VERTEX
  8
2_FEATURE
 62
7
  6
CONTINUOUS
 10
56.5358362975
 20
206.0329585498
  0
SEQEND
  0
POLYLINE
  8
2_FEATURE
 62
7
  6
CONTINUOUS
 66
1
 70
0
  0
VERTEX
  8
2_FEATURE
 62
7
  6
CONTINUOUS
 10
56.4043765275
 20
205.6783157346
  0
VERTEX
  8
2_FEATURE
 62
7
  6
CONTINUOUS
 10
56.2759889076
 20
205.696859491
  0
VERTEX
  8
2_FEATURE
 62
7
  6
CONTINUOUS
 10
56.15661539
 20
205.7477910864
  0
VERTEX
  8
2_FEATURE
 62
7
  6
CONTINUOUS
 10
56.0542439102
 20
205.8275692594
  0
VERTEX
  8
2_FEATURE
 62
7
  6
CONTINUOUS
 10
55.9756733716
 20
205.9307345668
  0
VERTEX
  8
2_FEATURE
 62
7
  6
CONTINUOUS
 10
55.9260587403
 20
206.0503057666
  0
VERTEX
  8
2_FEATURE
 62
7
  6
CONTINUOUS
 10
55.9085943298
 20
206.1782729652
  0
SEQEND
  0
POLYLINE
  8
0
 62
7
  6
CONTINUOUS
 66
1
 70
0
  0
VERTEX
  8
0
 62
7
  6
CONTINUOUS
 10
62.6633837318
 20
207.0222767355
  0
VERTEX
  8
0
 62
7
  6
CONTINUOUS
 10
62.7065275959
 20
207.0078542137
  0
VERTEX
  8
0
 62
7
  6
CONTINUOUS
 10
62.8198489371
 20
206.9931674515
  0
VERTEX
  8
0
 62
7
  6
CONTINUOUS
 10
62.9271915072
 20
207.0106108556
  0
VERTEX
  8
0
 62
7
  6
CONTINUOUS
 10
63.0257426558
 20
207.0585247691
  0
VERTEX
  8
0
 62
7
  6
CONTINUOUS
 10
63.0707876053
 20
207.0941133288
  0
VERTEX
  8
0
 62
7
  6
CONTINUOUS
 10
63.1494939991
 20
207.1900971073
  0
VERTEX
  8
0
 62
7
  6
CONTINUOUS
 10
63.205958425
 20
207.3173273654
  0
VERTEX
  8
0
 62
7
  6
CONTINUOUS
 10
63.2337938969
 20
207.4678858466
  0
VERTEX
  8
0
 62
7
  6
CONTINUOUS
 10
63.2365307514
 20
207.5371628543
  0
SEQEND
  0
LINE
  8
0
 62
7
  6
CONTINUOUS
 10
95.6521363672
 20
206.9931867257
 11
95.7662012349
 21
207.0078110232
  0
LINE
  8
2_FEATURE
 62
7
  6
CONTINUOUS
 10
102.0686838121
 20
205.6783157346
 11
102.0621438281
 21
205.6782729652
  0
LINE
  8
2_FEATURE
 62
7
  6
CONTINUOUS
 10
76.6686838121
 20
205.6783157346
 11
76.6621438281
 21
205.6782729652
  0
LINE
  8
2_FEATURE
 62
7
  6
CONTINUOUS
 10
102.6897055639
 20
205.6782729652
 11
102.0686838121
 21
205.6782729652
  0
LINE
  8
2_FEATURE
 62
7
  6
CONTINUOUS
 10
102.0621438281
 20
205.6782729652
 11
101.4675057225
 21
205.6782729652
  0
LINE
  8
2_FEATURE
 62
7
  6
CONTINUOUS
 10
82.4055546171
 20
205.6782729652
 11
81.8109165115
 21
205.6782729652
  0
LINE
  8
2_FEATURE
 62
7
  6
CONTINUOUS
 10
76.6621438281
 20
205.6782729652
 11
76.0675057225
 21
205.6782729652
  0
LINE
  8
2_FEATURE
 62
7
  6
CONTINUOUS
 10
57.0055546171
 20
205.6782729652
 11
56.4109165115
 21
205.6782729652
  0
LINE
  8
2_FEATURE
 62
7
  6
CONTINUOUS
 10
56.4043765275
 20
205.6782729652
 11
55.7833547757
 21
205.6782729652
  0
LINE
  8
0
 62
7
  6
CONTINUOUS
 10
48.2365301698
 20
205.6782729652
 11
50.0365301698
 21
205.6782729652
  0
LINE
  8
2_FEATURE
 62
7
  6
CONTINUOUS
 10
50.0385040983
 20
205.6782729652
 11
52.8865301698
 21
205.6782729652
  0
LINE
  8
0
 62
7
  6
CONTINUOUS
 10
51.8865301698
 20
205.6782729652
 11
54.6865301698
 21
205.6782729652
  0
LINE
  8
2_FEATURE
 62
7
  6
CONTINUOUS
 10
57.0109660218
 20
205.6782729652
 11
57.6345494794
 21
205.6782729652
  0
LINE
  8
2_FEATURE
 62
7
  6
CONTINUOUS
 10
57.6365301698
 20
205.6782729652
 11
59.2397055639
 21
205.6782729652
  0
LINE
  8
0
 62
7
  6
CONTINUOUS
 10
59.2397055639
 20
205.6782729652
 11
61.0365301698
 21
205.6782729652
  0
LINE
  8
0
 62
7
  6
CONTINUOUS
 10
63.9865301698
 20
205.6782729652
 11
69.0865301698
 21
205.6782729652
  0
LINE
  8
0
 62
7
  6
CONTINUOUS
 10
70.3365301698
 20
205.6782729652
 11
73.8333547757
 21
205.6782729652
  0
LINE
  8
2_FEATURE
 62
7
  6
CONTINUOUS
 10
73.8333547757
 20
205.6782729652
 11
75.4365301698
 21
205.6782729652
  0
LINE
  8
2_FEATURE
 62
7
  6
CONTINUOUS
 10
75.4385108602
 20
205.6782729652
 11
76.0620943178
 21
205.6782729652
  0
LINE
  8
2_FEATURE
 62
7
  6
CONTINUOUS
 10
76.6686838121
 20
205.6782729652
 11
78.2897055639
 21
205.6782729652
  0
LINE
  8
0
 62
7
  6
CONTINUOUS
 10
77.2897055639
 20
205.6782729652
 11
80.1833547757
 21
205.6782729652
  0
LINE
  8
2_FEATURE
 62
7
  6
CONTINUOUS
 10
80.1833547757
 20
205.6782729652
 11
81.8043765275
 21
205.6782729652
  0
LINE
  8
2_FEATURE
 62
7
  6
CONTINUOUS
 10
83.0365301698
 20
205.6782729652
 11
84.6397055639
 21
205.6782729652
  0
LINE
  8
2_FEATURE
 62
7
  6
CONTINUOUS
 10
82.4109660218
 20
205.6782729652
 11
83.0345494794
 21
205.6782729652
  0
LINE
  8
0
 62
7
  6
CONTINUOUS
 10
84.6397055639
 20
205.6782729652
 11
88.1365301698
 21
205.6782729652
  0
LINE
  8
0
 62
7
  6
CONTINUOUS
 10
89.3865301698
 20
205.6782729652
 11
94.4865301698
 21
205.6782729652
  0
LINE
  8
0
 62
7
  6
CONTINUOUS
 10
97.4365301698
 20
205.6782729652
 11
99.2333547757
 21
205.6782729652
  0
LINE
  8
2_FEATURE
 62
7
  6
CONTINUOUS
 10
99.2333547757
 20
205.6782729652
 11
100.8365301698
 21
205.6782729652
  0
LINE
  8
2_FEATURE
 62
7
  6
CONTINUOUS
 10
100.8385108602
 20
205.6782729652
 11
101.4620943178
 21
205.6782729652
  0
LINE
  8
0
 62
7
  6
CONTINUOUS
 10
103.7865301698
 20
205.6782729652
 11
105.5865301698
 21
205.6782729652
  0
LINE
  8
2_FEATURE
 62
7
  6
CONTINUOUS
 10
105.5865301698
 20
205.6782729652
 11
108.4345562413
 21
205.6782729652
  0
LINE
  8
0
 62
7
  6
CONTINUOUS
 10
108.4365301698
 20
205.6782729652
 11
110.2365301698
 21
205.6782729652
  0
LINE
  8
2_FEATURE
 62
7
  6
CONTINUOUS
 10
56.4043765275
 20
205.6783157346
 11
56.4109165115
 21
205.6782729652
  0
LINE
  8
2_FEATURE
 62
7
  6
CONTINUOUS
 10
81.8043765275
 20
205.6783157346
 11
81.8109165115
 21
205.6782729652
  0
POLYLINE
  8
0
 62
7
  6
CONTINUOUS
 66
1
 70
0
  0
VERTEX
  8
0
 62
7
  6
CONTINUOUS
 10
61.497767419
 20
207.5526761134
  0
VERTEX
  8
0
 62
7
  6
CONTINUOUS
 10
61.5160535789
 20
207.5488734824
  0
VERTEX
  8
0
 62
7
  6
CONTINUOUS
 10
61.5338124283
 20
207.5422361018
  0
SEQEND
  0
LINE
  8
2_FEATURE
 62
7
  6
CONTINUOUS
 10
75.9365301698
 20
206.1782729652
 11
75.9365301698
 21
213.6782729652
  0
POLYLINE
  8
2_FEATURE
 62
7
  6
CONTINUOUS
 66
1
 70
0
  0
VERTEX
  8
2_FEATURE
 62
7
  6
CONTINUOUS
 10
76.6686838121
 20
205.6783157346
  0
VERTEX
  8
2_FEATURE
 62
7
  6
CONTINUOUS
 10
76.797071432
 20
205.696859491
  0
VERTEX
  8
2_FEATURE
 62
7
  6
CONTINUOUS
 10
76.9164449496
 20
205.7477910864
  0
VERTEX
  8
2_FEATURE
 62
7
  6
CONTINUOUS
 10
77.0188164294
 20
205.8275692594
  0
VERTEX
  8
2_FEATURE
 62
7
  6
CONTINUOUS
 10
77.097386968
 20
205.9307345668
  0
VERTEX
  8
2_FEATURE
 62
7
  6
CONTINUOUS
 10
77.1470015993
 20
206.0503057666
  0
VERTEX
  8
2_FEATURE
 62
7
  6
CONTINUOUS
 10
77.1644660098
 20
206.1782729652
  0
SEQEND
  0
POLYLINE
  8
2_FEATURE
 62
7
  6
CONTINUOUS
 66
1
 70
0
  0
VERTEX
  8
2_FEATURE
 62
7
  6
CONTINUOUS
 10
76.0620943178
 20
205.6782729652
  0
VERTEX
  8
2_FEATURE
 62
7
  6
CONTINUOUS
 10
76.1915322954
 20
205.6954170601
  0
VERTEX
  8
2_FEATURE
 62
7
  6
CONTINUOUS
 10
76.311730646
 20
205.7455938507
  0
VERTEX
  8
2_FEATURE
 62
7
  6
CONTINUOUS
 10
76.4145100978
 20
205.8252540536
  0
VERTEX
  8
2_FEATURE
 62
7
  6
CONTINUOUS
 10
76.4929293882
 20
205.9288528894
  0
VERTEX
  8
2_FEATURE
 62
7
  6
CONTINUOUS
 10
76.53722382
 20
206.0329581794
  0
SEQEND
  0
LINE
  8
0
 62
7
  6
CONTINUOUS
 10
61.4772576927
 20
207.5528867835
 11
61.4976529444
 21
207.5526896155
  0
POLYLINE
  8
2_FEATURE
 62
7
  6
CONTINUOUS
 66
1
 70
0
  0
VERTEX
  8
2_FEATURE
 62
7
  6
CONTINUOUS
 10
82.4109660218
 20
205.6782729652
  0
VERTEX
  8
2_FEATURE
 62
7
  6
CONTINUOUS
 10
82.2815280442
 20
205.6954170601
  0
VERTEX
  8
2_FEATURE
 62
7
  6
CONTINUOUS
 10
82.1613296936
 20
205.7455938507
  0
VERTEX
  8
2_FEATURE
 62
7
  6
CONTINUOUS
 10
82.0585502418
 20
205.8252540536
  0
VERTEX
  8
2_FEATURE
 62
7
  6
CONTINUOUS
 10
81.9801309514
 20
205.9288528894
  0
VERTEX
  8
2_FEATURE
 62
7
  6
CONTINUOUS
 10
81.9358362975
 20
206.0329585498
  0
SEQEND
  0
POLYLINE
  8
2_FEATURE
 62
7
  6
CONTINUOUS
 66
1
 70
0
  0
VERTEX
  8
2_FEATURE
 62
7
  6
CONTINUOUS
 10
81.8043765275
 20
205.6783157346
  0
VERTEX
  8
2_FEATURE
 62
7
  6
CONTINUOUS
 10
81.6759889076
 20
205.696859491
  0
VERTEX
  8
2_FEATURE
 62
7
  6
CONTINUOUS
 10
81.55661539
 20
205.7477910864
  0
VERTEX
  8
2_FEATURE
 62
7
  6
CONTINUOUS
 10
81.4542439102
 20
205.8275692594
  0
VERTEX
  8
2_FEATURE
 62
7
  6
CONTINUOUS
 10
81.3756733716
 20
205.9307345668
  0
VERTEX
  8
2_FEATURE
 62
7
  6
CONTINUOUS
 10
81.3260587403
 20
206.0503057666
  0
VERTEX
  8
2_FEATURE
 62
7
  6
CONTINUOUS
 10
81.3085943298
 20
206.1782729652
  0
SEQEND
  0
LINE
  8
2_FEATURE
 62
7
  6
CONTINUOUS
 10
77.7897055639
 20
207.8518737811
 11
77.7897055639
 21
206.1782729652
  0
LINE
  8
1_AXIS
 62
2
  6
CENTER
 10
79.2365301698
 20
203.1782729652
 11
79.2365301698
 21
216.1782744923
  0
POLYLINE
  8
2_FEATURE
 62
7
  6
CONTINUOUS
 66
1
 70
0
  0
VERTEX
  8
2_FEATURE
 62
7
  6
CONTINUOUS
 10
76.53722382
 20
206.0329581794
  0
VERTEX
  8
2_FEATURE
 62
7
  6
CONTINUOUS
 10
76.5417583302
 20
206.0492600575
  0
VERTEX
  8
2_FEATURE
 62
7
  6
CONTINUOUS
 10
76.5578044122
 20
206.1782729652
  0
SEQEND
  0
LINE
  8
2_FEATURE
 62
7
  6
CONTINUOUS
 10
76.5372245093
 20
206.0329601252
 11
76.7694124242
 21
206.8159297844
  0
POLYLINE
  8
2_FEATURE
 62
7
  6
CONTINUOUS
 66
1
 70
0
  0
VERTEX
  8
2_FEATURE
 62
7
  6
CONTINUOUS
 10
76.7694187237
 20
206.8159509737
  0
VERTEX
  8
2_FEATURE
 62
7
  6
CONTINUOUS
 10
76.7715679655
 20
206.8229115515
  0
VERTEX
  8
2_FEATURE
 62
7
  6
CONTINUOUS
 10
76.7727435528
 20
206.8264009149
  0
SEQEND
  0
LINE
  8
0
 62
7
  6
CONTINUOUS
 10
80.7128887082
 20
211.77728262
 11
80.2138790534
 21
211.2782729652
  0
POLYLINE
  8
2_FEATURE
 62
7
  6
CONTINUOUS
 66
1
 70
0
  0
VERTEX
  8
2_FEATURE
 62
7
  6
CONTINUOUS
 10
75.9365301698
 20
209.1145443403
  0
VERTEX
  8
2_FEATURE
 62
7
  6
CONTINUOUS
 10
75.9196385983
 20
209.0991602974
  0
VERTEX
  8
2_FEATURE
 62
7
  6
CONTINUOUS
 10
75.8699944232
 20
209.0850192476
  0
VERTEX
  8
2_FEATURE
 62
7
  6
CONTINUOUS
 10
75.7907928864
 20
209.0730110218
  0
VERTEX
  8
2_FEATURE
 62
7
  6
CONTINUOUS
 10
75.6872847788
 20
209.0638732798
  0
VERTEX
  8
2_FEATURE
 62
7
  6
CONTINUOUS
 10
75.566453021
 20
209.0581587882
  0
VERTEX
  8
2_FEATURE
 62
7
  6
CONTINUOUS
 10
75.4365301698
 20
209.0562132963
  0
SEQEND
  0
POLYLINE
  8
2_FEATURE
 62
7
  6
CONTINUOUS
 66
1
 70
0
  0
VERTEX
  8
2_FEATURE
 62
7
  6
CONTINUOUS
 10
88.1365301698
 20
209.0562132963
  0
VERTEX
  8
2_FEATURE
 62
7
  6
CONTINUOUS
 10
88.266453021
 20
209.0581587882
  0
VERTEX
  8
2_FEATURE
 62
7
  6
CONTINUOUS
 10
88.3872847788
 20
209.0638732798
  0
VERTEX
  8
2_FEATURE
 62
7
  6
CONTINUOUS
 10
88.4907928864
 20
209.0730110218
  0
VERTEX
  8
2_FEATURE
 62
7
  6
CONTINUOUS
 10
88.5699944232
 20
209.0850192476
  0
VERTEX
  8
2_FEATURE
 62
7
  6
CONTINUOUS
 10
88.6196385983
 20
209.0991602974
  0
VERTEX
  8
2_FEATURE
 62
7
  6
CONTINUOUS
 10
88.6365301698
 20
209.1145443403
  0
SEQEND
  0
LINE
  8
2_FEATURE
 62
7
  6
CONTINUOUS
 10
48.2365301698
 20
209.0562132963
 11
50.0365301698
 21
209.0562132963
  0
LINE
  8
2_FEATURE
 62
7
  6
CONTINUOUS
 10
57.6365301698
 20
209.0562132963
 11
62.7365301698
 21
209.0562132963
  0
LINE
  8
2_FEATURE
 62
7
  6
CONTINUOUS
 10
70.3365301698
 20
209.0562132963
 11
75.4365301698
 21
209.0562132963
  0
LINE
  8
2_FEATURE
 62
7
  6
CONTINUOUS
 10
83.0365301698
 20
209.0562132963
 11
88.1365301698
 21
209.0562132963
  0
LINE
  8
2_FEATURE
 62
7
  6
CONTINUOUS
 10
95.7365301698
 20
209.0562132963
 11
100.8365301698
 21
209.0562132963
  0
LINE
  8
2_FEATURE
 62
7
  6
CONTINUOUS
 10
108.4365301698
 20
209.0562132963
 11
110.2365301698
 21
209.0562132963
  0
LINE
  8
1_AXIS
 62
2
  6
CENTER
 10
41.102439302
 20
210.0282729652
 11
117.7835178523
 21
210.0282729652
  0
POLYLINE
  8
2_FEATURE
 62
7
  6
CONTINUOUS
 66
1
 70
0
  0
VERTEX
  8
2_FEATURE
 62
7
  6
CONTINUOUS
 10
57.6365301698
 20
209.0562132963
  0
VERTEX
  8
2_FEATURE
 62
7
  6
CONTINUOUS
 10
57.5066073186
 20
209.0581587882
  0
VERTEX
  8
2_FEATURE
 62
7
  6
CONTINUOUS
 10
57.3857755608
 20
209.0638732798
  0
VERTEX
  8
2_FEATURE
 62
7
  6
CONTINUOUS
 10
57.2822674533
 20
209.0730110218
  0
VERTEX
  8
2_FEATURE
 62
7
  6
CONTINUOUS
 10
57.2030659164
 20
209.0850192476
  0
VERTEX
  8
2_FEATURE
 62
7
  6
CONTINUOUS
 10
57.1534217413
 20
209.0991602974
  0
VERTEX
  8
2_FEATURE
 62
7
  6
CONTINUOUS
 10
57.1365301698
 20
209.1145443403
  0
SEQEND
  0
POLYLINE
  8
2_FEATURE
 62
7
  6
CONTINUOUS
 66
1
 70
0
  0
VERTEX
  8
2_FEATURE
 62
7
  6
CONTINUOUS
 10
70.3365301698
 20
209.0562132963
  0
VERTEX
  8
2_FEATURE
 62
7
  6
CONTINUOUS
 10
70.2066073186
 20
209.0581587882
  0
VERTEX
  8
2_FEATURE
 62
7
  6
CONTINUOUS
 10
70.0857755608
 20
209.0638732798
  0
VERTEX
  8
2_FEATURE
 62
7
  6
CONTINUOUS
 10
69.9822674533
 20
209.0730110218
  0
VERTEX
  8
2_FEATURE
 62
7
  6
CONTINUOUS
 10
69.9030659164
 20
209.0850192476
  0
VERTEX
  8
2_FEATURE
 62
7
  6
CONTINUOUS
 10
69.8534217413
 20
209.0991602974
  0
VERTEX
  8
2_FEATURE
 62
7
  6
CONTINUOUS
 10
69.8365301698
 20
209.1145443403
  0
SEQEND
  0
POLYLINE
  8
2_FEATURE
 62
7
  6
CONTINUOUS
 66
1
 70
0
  0
VERTEX
  8
2_FEATURE
 62
7
  6
CONTINUOUS
 10
83.0365301698
 20
209.0562132963
  0
VERTEX
  8
2_FEATURE
 62
7
  6
CONTINUOUS
 10
82.9066073186
 20
209.0581587882
  0
VERTEX
  8
2_FEATURE
 62
7
  6
CONTINUOUS
 10
82.7857755608
 20
209.0638732798
  0
VERTEX
  8
2_FEATURE
 62
7
  6
CONTINUOUS
 10
82.6822674533
 20
209.0730110218
  0
VERTEX
  8
2_FEATURE
 62
7
  6
CONTINUOUS
 10
82.6030659164
 20
209.0850192476
  0
VERTEX
  8
2_FEATURE
 62
7
  6
CONTINUOUS
 10
82.5534217413
 20
209.0991602974
  0
VERTEX
  8
2_FEATURE
 62
7
  6
CONTINUOUS
 10
82.5365301698
 20
209.1145443403
  0
SEQEND
  0
POLYLINE
  8
2_FEATURE
 62
7
  6
CONTINUOUS
 66
1
 70
0
  0
VERTEX
  8
2_FEATURE
 62
7
  6
CONTINUOUS
 10
95.7365301698
 20
209.0562132963
  0
VERTEX
  8
2_FEATURE
 62
7
  6
CONTINUOUS
 10
95.6066073186
 20
209.0581587882
  0
VERTEX
  8
2_FEATURE
 62
7
  6
CONTINUOUS
 10
95.4857755608
 20
209.0638732798
  0
VERTEX
  8
2_FEATURE
 62
7
  6
CONTINUOUS
 10
95.3822674533
 20
209.0730110218
  0
VERTEX
  8
2_FEATURE
 62
7
  6
CONTINUOUS
 10
95.3030659164
 20
209.0850192476
  0
VERTEX
  8
2_FEATURE
 62
7
  6
CONTINUOUS
 10
95.2534217413
 20
209.0991602974
  0
VERTEX
  8
2_FEATURE
 62
7
  6
CONTINUOUS
 10
95.2365301698
 20
209.1145443403
  0
SEQEND
  0
POLYLINE
  8
2_FEATURE
 62
7
  6
CONTINUOUS
 66
1
 70
0
  0
VERTEX
  8
2_FEATURE
 62
7
  6
CONTINUOUS
 10
108.4365301698
 20
209.0562132963
  0
VERTEX
  8
2_FEATURE
 62
7
  6
CONTINUOUS
 10
108.3066073186
 20
209.0581587882
  0
VERTEX
  8
2_FEATURE
 62
7
  6
CONTINUOUS
 10
108.1857755608
 20
209.0638732798
  0
VERTEX
  8
2_FEATURE
 62
7
  6
CONTINUOUS
 10
108.0822674533
 20
209.0730110218
  0
VERTEX
  8
2_FEATURE
 62
7
  6
CONTINUOUS
 10
108.0030659164
 20
209.0850192476
  0
VERTEX
  8
2_FEATURE
 62
7
  6
CONTINUOUS
 10
107.9534217413
 20
209.0991602974
  0
VERTEX
  8
2_FEATURE
 62
7
  6
CONTINUOUS
 10
107.9365301698
 20
209.1145443403
  0
SEQEND
  0
LINE
  8
0
 62
7
  6
CONTINUOUS
 10
95.5448900813
 20
207.0109224789
 11
95.65313268
 21
206.9931684202
  0
LINE
  8
0
 62
7
  6
CONTINUOUS
 10
78.2591812862
 20
211.2782729652
 11
77.7601716314
 21
211.77728262
  0
LINE
  8
2_FEATURE
 62
7
  6
CONTINUOUS
 10
80.6833547757
 20
207.8518737782
 11
80.6833547757
 21
206.1782729652
  0
POLYLINE
  8
2_FEATURE
 62
7
  6
CONTINUOUS
 66
1
 70
0
  0
VERTEX
  8
2_FEATURE
 62
7
  6
CONTINUOUS
 10
82.5365301698
 20
210.9420015901
  0
VERTEX
  8
2_FEATURE
 62
7
  6
CONTINUOUS
 10
82.5534217413
 20
210.957385633
  0
VERTEX
  8
2_FEATURE
 62
7
  6
CONTINUOUS
 10
82.6030659164
 20
210.9715266828
  0
VERTEX
  8
2_FEATURE
 62
7
  6
CONTINUOUS
 10
82.6822674533
 20
210.9835349086
  0
VERTEX
  8
2_FEATURE
 62
7
  6
CONTINUOUS
 10
82.7857755608
 20
210.9926726506
  0
VERTEX
  8
2_FEATURE
 62
7
  6
CONTINUOUS
 10
82.9066073186
 20
210.9983871422
  0
VERTEX
  8
2_FEATURE
 62
7
  6
CONTINUOUS
 10
83.0365301698
 20
211.0003326342
  0
SEQEND
  0
LINE
  8
2_FEATURE
 62
7
  6
CONTINUOUS
 10
48.2365301698
 20
211.0003326342
 11
50.0365301698
 21
211.0003326342
  0
LINE
  8
2_FEATURE
 62
7
  6
CONTINUOUS
 10
57.6365301698
 20
211.0003326342
 11
62.7365301698
 21
211.0003326342
  0
LINE
  8
2_FEATURE
 62
7
  6
CONTINUOUS
 10
70.3365301698
 20
211.0003326342
 11
75.4365301698
 21
211.0003326342
  0
LINE
  8
2_FEATURE
 62
7
  6
CONTINUOUS
 10
83.0365301698
 20
211.0003326342
 11
88.1365301698
 21
211.0003326342
  0
LINE
  8
2_FEATURE
 62
7
  6
CONTINUOUS
 10
95.7365301698
 20
211.0003326342
 11
100.8365301698
 21
211.0003326342
  0
LINE
  8
2_FEATURE
 62
7
  6
CONTINUOUS
 10
108.4365301698
 20
211.0003326342
 11
110.2365301698
 21
211.0003326342
  0
LINE
  8
2_FEATURE
 62
7
  6
CONTINUOUS
 10
95.2172331818
 20
211.6782729652
 11
95.0865301698
 21
211.6782729652
  0
LINE
  8
2_FEATURE
 62
7
  6
CONTINUOUS
 10
94.7365302532
 20
211.6782729652
 11
94.5177800864
 21
211.6782729652
  0
LINE
  8
2_FEATURE
 62
7
  6
CONTINUOUS
 10
94.1677801698
 20
211.6782729652
 11
93.5552800029
 21
211.6782729652
  0
LINE
  8
2_FEATURE
 62
7
  6
CONTINUOUS
 10
93.2052803367
 20
211.6782729652
 11
91.5115301698
 21
211.6782729652
  0
LINE
  8
2_FEATURE
 62
7
  6
CONTINUOUS
 10
91.2802801698
 20
211.6782729652
 11
89.5865302532
 21
211.6782729652
  0
LINE
  8
2_FEATURE
 62
7
  6
CONTINUOUS
 10
89.2365300864
 20
211.6782729652
 11
88.6558320938
 21
211.6782729652
  0
LINE
  8
2_FEATURE
 62
7
  6
CONTINUOUS
 10
69.8172331818
 20
211.6782729652
 11
69.3865300983
 21
211.6782729652
  0
LINE
  8
2_FEATURE
 62
7
  6
CONTINUOUS
 10
69.2365302413
 20
211.6782729652
 11
68.7465301698
 21
211.6782729652
  0
LINE
  8
2_FEATURE
 62
7
  6
CONTINUOUS
 10
65.8965301698
 20
211.6782729652
 11
65.8240301698
 21
211.6782729652
  0
LINE
  8
1_AXIS
 62
7
  6
CONTINUOUS
 10
68.7465301698
 20
211.6782729652
 11
65.8965301698
 21
211.6782729652
  0
LINE
  8
1_AXIS
 62
7
  6
CONTINUOUS
 10
65.7765301698
 20
211.6782729652
 11
64.0665301698
 21
211.6782729652
  0
LINE
  8
2_FEATURE
 62
7
  6
CONTINUOUS
 10
64.0240301698
 20
211.6782729652
 11
63.3490301698
 21
211.6782729652
  0
LINE
  8
0
 62
7
  6
CONTINUOUS
 10
50.5365301698
 20
211.7782729652
 11
57.1365301698
 21
211.7782729652
  0
LINE
  8
0
 62
7
  6
CONTINUOUS
 10
63.4294291114
 20
211.7782729652
 11
69.6436312282
 21
211.7782729652
  0
LINE
  8
0
 62
7
  6
CONTINUOUS
 10
75.9365301698
 20
211.7782729652
 11
82.5365301698
 21
211.7782729652
  0
LINE
  8
0
 62
7
  6
CONTINUOUS
 10
88.8294291114
 20
211.7782729652
 11
95.0436312282
 21
211.7782729652
  0
LINE
  8
0
 62
7
  6
CONTINUOUS
 10
101.3365301698
 20
211.7782729652
 11
107.9365301698
 21
211.7782729652
  0
POLYLINE
  8
2_FEATURE
 62
7
  6
CONTINUOUS
 66
1
 70
0
  0
VERTEX
  8
2_FEATURE
 62
7
  6
CONTINUOUS
 10
50.0365301698
 20
211.0003326342
  0
VERTEX
  8
2_FEATURE
 62
7
  6
CONTINUOUS
 10
50.166453021
 20
210.9983871422
  0
VERTEX
  8
2_FEATURE
 62
7
  6
CONTINUOUS
 10
50.2872847788
 20
210.9926726506
  0
VERTEX
  8
2_FEATURE
 62
7
  6
CONTINUOUS
 10
50.3907928864
 20
210.9835349086
  0
VERTEX
  8
2_FEATURE
 62
7
  6
CONTINUOUS
 10
50.4699944232
 20
210.9715266828
  0
VERTEX
  8
2_FEATURE
 62
7
  6
CONTINUOUS
 10
50.5196385983
 20
210.957385633
  0
VERTEX
  8
2_FEATURE
 62
7
  6
CONTINUOUS
 10
50.5365301698
 20
210.9420015901
  0
SEQEND
  0
POLYLINE
  8
2_FEATURE
 62
7
  6
CONTINUOUS
 66
1
 70
0
  0
VERTEX
  8
2_FEATURE
 62
7
  6
CONTINUOUS
 10
62.7365301698
 20
211.0003326342
  0
VERTEX
  8
2_FEATURE
 62
7
  6
CONTINUOUS
 10
62.866453021
 20
210.9983871422
  0
VERTEX
  8
2_FEATURE
 62
7
  6
CONTINUOUS
 10
62.9872847788
 20
210.9926726506
  0
VERTEX
  8
2_FEATURE
 62
7
  6
CONTINUOUS
 10
63.0907928864
 20
210.9835349086
  0
VERTEX
  8
2_FEATURE
 62
7
  6
CONTINUOUS
 10
63.1699944232
 20
210.9715266828
  0
VERTEX
  8
2_FEATURE
 62
7
  6
CONTINUOUS
 10
63.2196385983
 20
210.957385633
  0
VERTEX
  8
2_FEATURE
 62
7
  6
CONTINUOUS
 10
63.2365301698
 20
210.9420015901
  0
SEQEND
  0
POLYLINE
  8
2_FEATURE
 62
7
  6
CONTINUOUS
 66
1
 70
0
  0
VERTEX
  8
2_FEATURE
 62
7
  6
CONTINUOUS
 10
75.4365301698
 20
211.0003326342
  0
VERTEX
  8
2_FEATURE
 62
7
  6
CONTINUOUS
 10
75.566453021
 20
210.9983871422
  0
VERTEX
  8
2_FEATURE
 62
7
  6
CONTINUOUS
 10
75.6872847788
 20
210.9926726506
  0
VERTEX
  8
2_FEATURE
 62
7
  6
CONTINUOUS
 10
75.7907928864
 20
210.9835349086
  0
VERTEX
  8
2_FEATURE
 62
7
  6
CONTINUOUS
 10
75.8699944232
 20
210.9715266828
  0
VERTEX
  8
2_FEATURE
 62
7
  6
CONTINUOUS
 10
75.9196385983
 20
210.957385633
  0
VERTEX
  8
2_FEATURE
 62
7
  6
CONTINUOUS
 10
75.9365301698
 20
210.9420015901
  0
SEQEND
  0
POLYLINE
  8
2_FEATURE
 62
7
  6
CONTINUOUS
 66
1
 70
0
  0
VERTEX
  8
2_FEATURE
 62
7
  6
CONTINUOUS
 10
88.1365301698
 20
211.0003326342
  0
VERTEX
  8
2_FEATURE
 62
7
  6
CONTINUOUS
 10
88.266453021
 20
210.9983871422
  0
VERTEX
  8
2_FEATURE
 62
7
  6
CONTINUOUS
 10
88.3872847788
 20
210.9926726506
  0
VERTEX
  8
2_FEATURE
 62
7
  6
CONTINUOUS
 10
88.4907928864
 20
210.9835349086
  0
VERTEX
  8
2_FEATURE
 62
7
  6
CONTINUOUS
 10
88.5699944232
 20
210.9715266828
  0
VERTEX
  8
2_FEATURE
 62
7
  6
CONTINUOUS
 10
88.6196385983
 20
210.957385633
  0
VERTEX
  8
2_FEATURE
 62
7
  6
CONTINUOUS
 10
88.6365301698
 20
210.9420015901
  0
SEQEND
  0
POLYLINE
  8
2_FEATURE
 62
7
  6
CONTINUOUS
 66
1
 70
0
  0
VERTEX
  8
2_FEATURE
 62
7
  6
CONTINUOUS
 10
100.8365301698
 20
211.0003326342
  0
VERTEX
  8
2_FEATURE
 62
7
  6
CONTINUOUS
 10
100.966453021
 20
210.9983871422
  0
VERTEX
  8
2_FEATURE
 62
7
  6
CONTINUOUS
 10
101.0872847788
 20
210.9926726506
  0
VERTEX
  8
2_FEATURE
 62
7
  6
CONTINUOUS
 10
101.1907928864
 20
210.9835349086
  0
VERTEX
  8
2_FEATURE
 62
7
  6
CONTINUOUS
 10
101.2699944232
 20
210.9715266828
  0
VERTEX
  8
2_FEATURE
 62
7
  6
CONTINUOUS
 10
101.3196385983
 20
210.957385633
  0
VERTEX
  8
2_FEATURE
 62
7
  6
CONTINUOUS
 10
101.3365301698
 20
210.9420015901
  0
SEQEND
  0
POLYLINE
  8
0
 62
7
  6
CONTINUOUS
 66
1
 70
0
  0
VERTEX
  8
0
 62
7
  6
CONTINUOUS
 10
69.6436312282
 20
211.7782729652
  0
VERTEX
  8
0
 62
7
  6
CONTINUOUS
 10
69.7188206164
 20
211.7671514591
  0
VERTEX
  8
0
 62
7
  6
CONTINUOUS
 10
69.7778508356
 20
211.7347130036
  0
VERTEX
  8
0
 62
7
  6
CONTINUOUS
 10
69.8003147355
 20
211.711230358
  0
VERTEX
  8
0
 62
7
  6
CONTINUOUS
 10
69.8283981173
 20
211.6565234999
  0
VERTEX
  8
0
 62
7
  6
CONTINUOUS
 10
69.8365301698
 20
211.6025646757
  0
SEQEND
  0
LINE
  8
2_FEATURE
 62
7
  6
CONTINUOUS
 10
81.7006610798
 20
206.8255360715
 11
81.7036420252
 21
206.815949593
  0
LINE
  8
2_FEATURE
 62
7
  6
CONTINUOUS
 10
81.7036479154
 20
206.8159297844
 11
81.9358358303
 21
206.0329601252
  0
POLYLINE
  8
2_FEATURE
 62
7
  6
CONTINUOUS
 66
1
 70
0
  0
VERTEX
  8
2_FEATURE
 62
7
  6
CONTINUOUS
 10
81.9358362975
 20
206.0329585498
  0
VERTEX
  8
2_FEATURE
 62
7
  6
CONTINUOUS
 10
81.9313020094
 20
206.0492600575
  0
VERTEX
  8
2_FEATURE
 62
7
  6
CONTINUOUS
 10
81.9152559274
 20
206.1782729652
  0
SEQEND
  0
LINE
  8
2_FEATURE
 62
7
  6
CONTINUOUS
 10
82.5365301698
 20
206.1782729652
 11
82.5365301698
 21
213.6782729652
  0
LINE
  8
2_FEATURE
 62
7
  6
CONTINUOUS
 10
48.2365301698
 20
214.1782729652
 11
110.2365301698
 21
214.1782729652
  0
POLYLINE
  8
0
 62
7
  6
CONTINUOUS
 66
1
 70
0
  0
VERTEX
  8
0
 62
7
  6
CONTINUOUS
 10
95.0436312282
 20
211.7782729652
  0
VERTEX
  8
0
 62
7
  6
CONTINUOUS
 10
95.1188206164
 20
211.7671514591
  0
VERTEX
  8
0
 62
7
  6
CONTINUOUS
 10
95.1778508356
 20
211.7347130036
  0
VERTEX
  8
0
 62
7
  6
CONTINUOUS
 10
95.2003147355
 20
211.711230358
  0
VERTEX
  8
0
 62
7
  6
CONTINUOUS
 10
95.2283981173
 20
211.6565234999
  0
VERTEX
  8
0
 62
7
  6
CONTINUOUS
 10
95.2365301698
 20
211.6025646757
  0
SEQEND
  0
LINE
  8
0
 62
7
  6
CONTINUOUS
 10
95.4464722504
 20
207.0591002245
 11
95.5457099799
 21
207.0106614613
  0
POLYLINE
  8
0
 62
7
  6
CONTINUOUS
 66
1
 70
0
  0
VERTEX
  8
0
 62
7
  6
CONTINUOUS
 10
95.0865301698
 20
211.7574201051
  0
VERTEX
  8
0
 62
7
  6
CONTINUOUS
 10
95.0452229073
 20
211.7347244006
  0
VERTEX
  8
0
 62
7
  6
CONTINUOUS
 10
95.0227558816
 20
211.7112435852
  0
VERTEX
  8
0
 62
7
  6
CONTINUOUS
 10
94.9946658427
 20
211.6565353364
  0
VERTEX
  8
0
 62
7
  6
CONTINUOUS
 10
94.9865301698
 20
211.6025646757
  0
SEQEND
  0
POLYLINE
  8
0
 62
7
  6
CONTINUOUS
 66
1
 70
0
  0
VERTEX
  8
0
 62
7
  6
CONTINUOUS
 10
96.9384691897
 20
207.5418836561
  0
VERTEX
  8
0
 62
7
  6
CONTINUOUS
 10
96.9555825541
 20
207.5484434327
  0
VERTEX
  8
0
 62
7
  6
CONTINUOUS
 10
96.9725754042
 20
207.5523197369
  0
VERTEX
  8
0
 62
7
  6
CONTINUOUS
 10
96.9911544462
 20
207.5532263581
  0
VERTEX
  8
0
 62
7
  6
CONTINUOUS
 10
97.0107260327
 20
207.5503149588
  0
VERTEX
  8
0
 62
7
  6
CONTINUOUS
 10
97.0298451715
 20
207.5439541187
  0
VERTEX
  8
0
 62
7
  6
CONTINUOUS
 10
97.0481360742
 20
207.534971693
  0
SEQEND
  0
LINE
  8
0
 62
7
  6
CONTINUOUS
 10
95.7653714272
 20
207.0075349177
 11
95.8096775326
 21
207.0222770788
  0
LINE
  8
0
 62
7
  6
CONTINUOUS
 10
97.0481360742
 20
207.534971693
 11
97.0662329481
 21
207.5235081912
  0
LINE
  8
0
 62
7
  6
CONTINUOUS
 10
95.4015203075
 20
207.0948016816
 11
95.4471679988
 21
207.0586265346
  0
LINE
  8
2_FEATURE
 62
7
  6
CONTINUOUS
 10
88.6365301698
 20
206.1782759198
 11
88.6365301698
 21
213.6782729652
  0
LINE
  8
2_FEATURE
 62
7
  6
CONTINUOUS
 10
88.8427800864
 20
211.7782729652
 11
88.8427800864
 21
211.6782729652
  0
LINE
  8
2_FEATURE
 62
7
  6
CONTINUOUS
 10
88.8865301698
 20
210.0282729652
 11
88.8865301698
 21
206.1782759198
  0
LINE
  8
0
 62
7
  6
CONTINUOUS
 10
88.8865301698
 20
210.0282729652
 11
88.8865301698
 21
211.6025646757
  0
LINE
  8
2_FEATURE
 62
7
  6
CONTINUOUS
 10
89.0177801698
 20
211.7782729652
 11
89.0177801698
 21
211.6782729652
  0
LINE
  8
2_FEATURE
 62
7
  6
CONTINUOUS
 10
89.1927802532
 20
211.7782729652
 11
89.1927802532
 21
211.6782729652
  0
LINE
  8
2_FEATURE
 62
7
  6
CONTINUOUS
 10
89.2365300864
 20
211.7782729652
 11
89.2365300864
 21
211.6782729652
  0
LINE
  8
2_FEATURE
 62
7
  6
CONTINUOUS
 10
89.5865302532
 20
211.7782729652
 11
89.5865302532
 21
211.6782729652
  0
POLYLINE
  8
0
 62
7
  6
CONTINUOUS
 66
1
 70
0
  0
VERTEX
  8
0
 62
7
  6
CONTINUOUS
 10
88.6365301698
 20
211.6025646757
  0
VERTEX
  8
0
 62
7
  6
CONTINUOUS
 10
88.6445709607
 20
211.6562241714
  0
VERTEX
  8
0
 62
7
  6
CONTINUOUS
 10
88.6725081725
 20
211.7109239795
  0
VERTEX
  8
0
 62
7
  6
CONTINUOUS
 10
88.6949334934
 20
211.7344777399
  0
VERTEX
  8
0
 62
7
  6
CONTINUOUS
 10
88.7540587746
 20
211.7670923887
  0
VERTEX
  8
0
 62
7
  6
CONTINUOUS
 10
88.8294291114
 20
211.7782729652
  0
SEQEND
  0
POLYLINE
  8
2_FEATURE
 62
7
  6
CONTINUOUS
 66
1
 70
0
  0
VERTEX
  8
2_FEATURE
 62
7
  6
CONTINUOUS
 10
95.2365301698
 20
210.9420015901
  0
VERTEX
  8
2_FEATURE
 62
7
  6
CONTINUOUS
 10
95.2534217413
 20
210.957385633
  0
VERTEX
  8
2_FEATURE
 62
7
  6
CONTINUOUS
 10
95.3030659164
 20
210.9715266828
  0
VERTEX
  8
2_FEATURE
 62
7
  6
CONTINUOUS
 10
95.3822674533
 20
210.9835349086
  0
VERTEX
  8
2_FEATURE
 62
7
  6
CONTINUOUS
 10
95.4857755608
 20
210.9926726506
  0
VERTEX
  8
2_FEATURE
 62
7
  6
CONTINUOUS
 10
95.6066073186
 20
210.9983871422
  0
VERTEX
  8
2_FEATURE
 62
7
  6
CONTINUOUS
 10
95.7365301698
 20
211.0003326342
  0
SEQEND
  0
POLYLINE
  8
0
 62
7
  6
CONTINUOUS
 66
1
 70
0
  0
VERTEX
  8
0
 62
7
  6
CONTINUOUS
 10
96.9278233704
 20
207.536572397
  0
VERTEX
  8
0
 62
7
  6
CONTINUOUS
 10
96.9392119654
 20
207.5422199509
  0
VERTEX
  8
0
 62
7
  6
CONTINUOUS
 10
96.9563932241
 20
207.548690635
  0
VERTEX
  8
0
 62
7
  6
CONTINUOUS
 10
96.9734667506
 20
207.5524453763
  0
VERTEX
  8
0
 62
7
  6
CONTINUOUS
 10
96.9920956278
 20
207.5531764341
  0
VERTEX
  8
0
 62
7
  6
CONTINUOUS
 10
97.0116057187
 20
207.5500945688
  0
VERTEX
  8
0
 62
7
  6
CONTINUOUS
 10
97.0306429291
 20
207.5436177957
  0
VERTEX
  8
0
 62
7
  6
CONTINUOUS
 10
97.0488675174
 20
207.5345549439
  0
SEQEND
  0
LINE
  8
0
 62
7
  6
CONTINUOUS
 10
96.4067826237
 20
207.2788317347
 11
96.6013782329
 21
207.3688134212
  0
POLYLINE
  8
0
 62
7
  6
CONTINUOUS
 66
1
 70
0
  0
VERTEX
  8
0
 62
7
  6
CONTINUOUS
 10
95.8096850172
 20
207.0222798104
  0
VERTEX
  8
0
 62
7
  6
CONTINUOUS
 10
96.2192886724
 20
207.1921626003
  0
VERTEX
  8
0
 62
7
  6
CONTINUOUS
 10
96.6008011084
 20
207.3685168366
  0
VERTEX
  8
0
 62
7
  6
CONTINUOUS
 10
96.9278205426
 20
207.5365723187
  0
SEQEND
  0
LINE
  8
0
 62
7
  6
CONTINUOUS
 10
97.0655577261
 20
207.5239806215
 11
97.0828020866
 21
207.5108405427
  0
LINE
  8
0
 62
7
  6
CONTINUOUS
 10
97.0821496328
 20
207.51137696
 11
97.0988040711
 21
207.4966181766
  0
LINE
  8
0
 62
7
  6
CONTINUOUS
 10
95.3230366428
 20
207.1909621058
 11
95.4021517609
 21
207.0942236085
  0
LINE
  8
0
 62
7
  6
CONTINUOUS
 10
88.8784873957
 20
211.6562306955
 11
88.8672284641
 21
211.6782729652
  0
LINE
  8
0
 62
7
  6
CONTINUOUS
 10
88.8865301698
 20
211.6025646757
 11
88.8784873957
 21
211.6562306955
  0
LINE
  8
2_FEATURE
 62
7
  6
CONTINUOUS
 10
91.0740303367
 20
211.7782729652
 11
91.0740303367
 21
211.6782729652
  0
LINE
  8
2_FEATURE
 62
7
  6
CONTINUOUS
 10
91.1615300029
 20
211.7782729652
 11
91.1615300029
 21
211.6782729652
  0
LINE
  8
2_FEATURE
 62
7
  6
CONTINUOUS
 10
91.2802801698
 20
211.7782729652
 11
91.2802801698
 21
211.6782729652
  0
LINE
  8
2_FEATURE
 62
7
  6
CONTINUOUS
 10
91.5115301698
 20
211.7782729652
 11
91.5115301698
 21
211.6782729652
  0
LINE
  8
2_FEATURE
 62
7
  6
CONTINUOUS
 10
91.5552800029
 20
211.7782729652
 11
91.5552800029
 21
211.6782729652
  0
LINE
  8
2_FEATURE
 62
7
  6
CONTINUOUS
 10
91.5990303367
 20
211.7782729652
 11
91.5990303367
 21
211.6782729652
  0
LINE
  8
2_FEATURE
 62
7
  6
CONTINUOUS
 10
91.6865300029
 20
211.7782729652
 11
91.6865300029
 21
211.6782729652
  0
LINE
  8
2_FEATURE
 62
7
  6
CONTINUOUS
 10
91.8177800029
 20
211.7782729652
 11
91.8177800029
 21
211.6782729652
  0
LINE
  8
2_FEATURE
 62
7
  6
CONTINUOUS
 10
92.0365301698
 20
211.7782729652
 11
92.0365301698
 21
211.6782729652
  0
LINE
  8
2_FEATURE
 62
7
  6
CONTINUOUS
 10
92.2990301698
 20
211.7782729652
 11
92.2990301698
 21
211.6782729652
  0
LINE
  8
0
 62
7
  6
CONTINUOUS
 10
97.0981963317
 20
207.4971961149
 11
97.1142652012
 21
207.4809527168
  0
LINE
  8
0
 62
7
  6
CONTINUOUS
 10
97.1137134307
 20
207.4815453722
 11
97.1292447481
 21
207.4638380477
  0
LINE
  8
0
 62
7
  6
CONTINUOUS
 10
97.1287273822
 20
207.4644630146
 11
97.1438212792
 21
207.4451660708
  0
LINE
  8
2_FEATURE
 62
7
  6
CONTINUOUS
 10
92.5615301698
 20
211.7782729652
 11
92.5615301698
 21
211.6782729652
  0
LINE
  8
2_FEATURE
 62
7
  6
CONTINUOUS
 10
92.7802803367
 20
211.7782729652
 11
92.7802803367
 21
211.6782729652
  0
LINE
  8
2_FEATURE
 62
7
  6
CONTINUOUS
 10
92.9115303367
 20
211.7782729652
 11
92.9115303367
 21
211.6782729652
  0
LINE
  8
2_FEATURE
 62
7
  6
CONTINUOUS
 10
92.9990300029
 20
211.7782729652
 11
92.9990300029
 21
211.6782729652
  0
LINE
  8
2_FEATURE
 62
7
  6
CONTINUOUS
 10
93.0427803367
 20
211.7782729652
 11
93.0427803367
 21
211.6782729652
  0
LINE
  8
2_FEATURE
 62
7
  6
CONTINUOUS
 10
93.0865301698
 20
211.7782729652
 11
93.0865301698
 21
211.6782729652
  0
LINE
  8
2_FEATURE
 62
7
  6
CONTINUOUS
 10
93.2052803367
 20
211.7782729652
 11
93.2052803367
 21
211.6782729652
  0
LINE
  8
2_FEATURE
 62
7
  6
CONTINUOUS
 10
93.5552800029
 20
211.7782729652
 11
93.5552800029
 21
211.6782729652
  0
LINE
  8
2_FEATURE
 62
7
  6
CONTINUOUS
 10
94.1677801698
 20
211.7782729652
 11
94.1677801698
 21
211.6782729652
  0
LINE
  8
0
 62
7
  6
CONTINUOUS
 10
97.1433431723
 20
207.4458128185
 11
97.1579635428
 21
207.4248780234
  0
LINE
  8
0
 62
7
  6
CONTINUOUS
 10
97.1575152125
 20
207.4255577147
 11
97.1714835436
 21
207.4031142934
  0
LINE
  8
0
 62
7
  6
CONTINUOUS
 10
97.171066549
 20
207.4038246936
 11
97.1842026677
 21
207.3800226708
  0
LINE
  8
0
 62
7
  6
CONTINUOUS
 10
97.183820022
 20
207.3807612458
 11
97.1959335666
 21
207.3557959594
  0
LINE
  8
0
 62
7
  6
CONTINUOUS
 10
95.2668049388
 20
207.3183067133
 11
95.3235012037
 21
207.1902032791
  0
LINE
  8
0
 62
7
  6
CONTINUOUS
 10
95.2365296174
 20
207.5371613034
 11
95.2392636516
 21
207.4679210483
  0
LINE
  8
2_FEATURE
 62
7
  6
CONTINUOUS
 10
94.5177800864
 20
211.7782729652
 11
94.5177800864
 21
211.6782729652
  0
LINE
  8
2_FEATURE
 62
7
  6
CONTINUOUS
 10
94.7365302532
 20
211.7782729652
 11
94.7365302532
 21
211.6782729652
  0
LINE
  8
0
 62
7
  6
CONTINUOUS
 10
94.9865301698
 20
211.6025646757
 11
94.9865301698
 21
210.0282729652
  0
LINE
  8
2_FEATURE
 62
7
  6
CONTINUOUS
 10
94.9865301698
 20
211.2782729652
 11
94.9865301698
 21
206.1782759199
  0
LINE
  8
2_FEATURE
 62
7
  6
CONTINUOUS
 10
95.0865301698
 20
211.7719276437
 11
95.0865301698
 21
211.6782729652
  0
LINE
  8
2_FEATURE
 62
7
  6
CONTINUOUS
 10
95.2365301698
 20
213.6782729652
 11
95.2365301698
 21
209.1145526971
  0
LINE
  8
0
 62
7
  6
CONTINUOUS
 10
95.2365301991
 20
207.5371711153
 11
95.2365301698
 21
209.1145526971
  0
POLYLINE
  8
2_FEATURE
 62
7
  6
CONTINUOUS
 66
1
 70
0
  0
VERTEX
  8
2_FEATURE
 62
7
  6
CONTINUOUS
 10
101.3365301698
 20
209.1145443403
  0
VERTEX
  8
2_FEATURE
 62
7
  6
CONTINUOUS
 10
101.3196385983
 20
209.0991602974
  0
VERTEX
  8
2_FEATURE
 62
7
  6
CONTINUOUS
 10
101.2699944232
 20
209.0850192476
  0
VERTEX
  8
2_FEATURE
 62
7
  6
CONTINUOUS
 10
101.1907928864
 20
209.0730110218
  0
VERTEX
  8
2_FEATURE
 62
7
  6
CONTINUOUS
 10
101.0872847788
 20
209.0638732798
  0
VERTEX
  8
2_FEATURE
 62
7
  6
CONTINUOUS
 10
100.966453021
 20
209.0581587882
  0
VERTEX
  8
2_FEATURE
 62
7
  6
CONTINUOUS
 10
100.8365301698
 20
209.0562132963
  0
SEQEND
  0
POLYLINE
  8
0
 62
7
  6
CONTINUOUS
 66
1
 70
0
  0
VERTEX
  8
0
 62
7
  6
CONTINUOUS
 10
103.4683195455
 20
207.476261405
  0
VERTEX
  8
0
 62
7
  6
CONTINUOUS
 10
103.4750005423
 20
207.4688903422
  0
VERTEX
  8
0
 62
7
  6
CONTINUOUS
 10
103.4825596774
 20
207.4597757348
  0
VERTEX
  8
0
 62
7
  6
CONTINUOUS
 10
103.4973659694
 20
207.4402945788
  0
VERTEX
  8
0
 62
7
  6
CONTINUOUS
 10
103.5116505108
 20
207.4191920505
  0
SEQEND
  0
LINE
  8
0
 62
7
  6
CONTINUOUS
 10
97.1955888573
 20
207.3565562429
 11
97.206490336
 21
207.3306557739
  0
LINE
  8
0
 62
7
  6
CONTINUOUS
 10
97.2061893553
 20
207.3314293264
 11
97.2157138816
 21
207.3047982664
  0
LINE
  8
0
 62
7
  6
CONTINUOUS
 10
97.2154579102
 20
207.3055821651
 11
97.2234314321
 21
207.2784871128
  0
LINE
  8
0
 62
7
  6
CONTINUOUS
 10
97.2232266299
 20
207.2792688313
 11
97.2294899116
 21
207.2519846925
  0
LINE
  8
0
 62
7
  6
CONTINUOUS
 10
95.2391832265
 20
207.4689304116
 11
95.267076881
 21
207.3174099493
  0
LINE
  8
0
 62
7
  6
CONTINUOUS
 10
97.2293374306
 20
207.2527590159
 11
97.2337422814
 21
207.2256298355
  0
LINE
  8
0
 62
7
  6
CONTINUOUS
 10
97.2336471373
 20
207.2263771646
 11
97.2360516263
 21
207.2000115216
  0
LINE
  8
0
 62
7
  6
CONTINUOUS
 10
97.2360399632
 20
207.2004303712
 11
97.2365304924
 21
207.1828143161
  0
LINE
  8
0
 62
7
  6
CONTINUOUS
 10
97.2365301698
 20
207.1828112967
 11
97.2365301698
 21
205.8782765003
  0
LINE
  8
0
 62
7
  6
CONTINUOUS
 10
106.1160168743
 20
211.777286001
 11
105.6170038385
 21
211.2782729652
  0
POLYLINE
  8
2_FEATURE
 62
7
  6
CONTINUOUS
 66
1
 70
0
  0
VERTEX
  8
2_FEATURE
 62
7
  6
CONTINUOUS
 10
107.9365301698
 20
210.9420015901
  0
VERTEX
  8
2_FEATURE
 62
7
  6
CONTINUOUS
 10
107.9534217413
 20
210.957385633
  0
VERTEX
  8
2_FEATURE
 62
7
  6
CONTINUOUS
 10
108.0030659164
 20
210.9715266828
  0
VERTEX
  8
2_FEATURE
 62
7
  6
CONTINUOUS
 10
108.0822674533
 20
210.9835349086
  0
VERTEX
  8
2_FEATURE
 62
7
  6
CONTINUOUS
 10
108.1857755608
 20
210.9926726506
  0
VERTEX
  8
2_FEATURE
 62
7
  6
CONTINUOUS
 10
108.3066073186
 20
210.9983871422
  0
VERTEX
  8
2_FEATURE
 62
7
  6
CONTINUOUS
 10
108.4365301698
 20
211.0003326342
  0
SEQEND
  0
LINE
  8
0
 62
7
  6
CONTINUOUS
 10
103.6591812862
 20
211.2782729652
 11
103.1601716314
 21
211.77728262
  0
LINE
  8
0
 62
7
  6
CONTINUOUS
 10
103.5116505108
 20
207.4191920505
 11
103.5182147482
 21
207.4082732905
  0
LINE
  8
0
 62
7
  6
CONTINUOUS
 10
103.5061456103
 20
207.4289031483
 11
103.5117308623
 21
207.4194539596
  0
LINE
  8
0
 62
7
  6
CONTINUOUS
 10
103.5006449101
 20
207.4383246982
 11
103.5061456103
 21
207.4289031483
  0
LINE
  8
0
 62
7
  6
CONTINUOUS
 10
103.4952680493
 20
207.44765647
 11
103.5006449101
 21
207.4383246982
  0
LINE
  8
0
 62
7
  6
CONTINUOUS
 10
103.4899962811
 20
207.4569353361
 11
103.4952680493
 21
207.44765647
  0
LINE
  8
0
 62
7
  6
CONTINUOUS
 10
103.4848594066
 20
207.4661126684
 11
103.4899962811
 21
207.4569353361
  0
LINE
  8
0
 62
7
  6
CONTINUOUS
 10
103.4799349494
 20
207.4750491715
 11
103.4848594066
 21
207.4661126684
  0
POLYLINE
  8
0
 62
7
  6
CONTINUOUS
 66
1
 70
0
  0
VERTEX
  8
0
 62
7
  6
CONTINUOUS
 10
103.4743119906
 20
207.4854351574
  0
VERTEX
  8
0
 62
7
  6
CONTINUOUS
 10
103.4753500165
 20
207.4835011159
  0
VERTEX
  8
0
 62
7
  6
CONTINUOUS
 10
103.4799349494
 20
207.4750491715
  0
SEQEND
  0
POLYLINE
  8
0
 62
7
  6
CONTINUOUS
 66
1
 70
0
  0
VERTEX
  8
0
 62
7
  6
CONTINUOUS
 10
103.5183854121
 20
207.4083312628
  0
VERTEX
  8
0
 62
7
  6
CONTINUOUS
 10
103.5618396759
 20
207.3162232546
  0
VERTEX
  8
0
 62
7
  6
CONTINUOUS
 10
103.5763237197
 20
207.266774217
  0
VERTEX
  8
0
 62
7
  6
CONTINUOUS
 10
103.5865306067
 20
207.1828685145
  0
SEQEND
  0
LINE
  8
2_FEATURE
 62
7
  6
CONTINUOUS
 10
101.3365301698
 20
206.1782729652
 11
101.3365301698
 21
213.6782729652
  0
POLYLINE
  8
2_FEATURE
 62
7
  6
CONTINUOUS
 66
1
 70
0
  0
VERTEX
  8
2_FEATURE
 62
7
  6
CONTINUOUS
 10
101.93722382
 20
206.0329581794
  0
VERTEX
  8
2_FEATURE
 62
7
  6
CONTINUOUS
 10
101.9417583302
 20
206.0492600575
  0
VERTEX
  8
2_FEATURE
 62
7
  6
CONTINUOUS
 10
101.9578044122
 20
206.1782729652
  0
SEQEND
  0
LINE
  8
2_FEATURE
 62
7
  6
CONTINUOUS
 10
101.9372245093
 20
206.0329601252
 11
102.1694124242
 21
206.8159297844
  0
POLYLINE
  8
2_FEATURE
 62
7
  6
CONTINUOUS
 66
1
 70
0
  0
VERTEX
  8
2_FEATURE
 62
7
  6
CONTINUOUS
 10
102.1694187237
 20
206.8159509737
  0
VERTEX
  8
2_FEATURE
 62
7
  6
CONTINUOUS
 10
102.1715679655
 20
206.8229115515
  0
VERTEX
  8
2_FEATURE
 62
7
  6
CONTINUOUS
 10
102.1727435528
 20
206.8264009149
  0
SEQEND
  0
POLYLINE
  8
0
 62
7
  6
CONTINUOUS
 66
1
 70
0
  0
VERTEX
  8
0
 62
7
  6
CONTINUOUS
 10
103.3643370395
 20
207.2586589709
  0
VERTEX
  8
0
 62
7
  6
CONTINUOUS
 10
103.4326064464
 20
207.4068044145
  0
VERTEX
  8
0
 62
7
  6
CONTINUOUS
 10
103.4373050233
 20
207.4168173498
  0
VERTEX
  8
0
 62
7
  6
CONTINUOUS
 10
103.4418929803
 20
207.4264545957
  0
VERTEX
  8
0
 62
7
  6
CONTINUOUS
 10
103.4463914196
 20
207.4357196842
  0
VERTEX
  8
0
 62
7
  6
CONTINUOUS
 10
103.4508361794
 20
207.4446404473
  0
VERTEX
  8
0
 62
7
  6
CONTINUOUS
 10
103.4552990482
 20
207.4533042684
  0
VERTEX
  8
0
 62
7
  6
CONTINUOUS
 10
103.4599148734
 20
207.4618881213
  0
VERTEX
  8
0
 62
7
  6
CONTINUOUS
 10
103.4645869857
 20
207.4701149375
  0
VERTEX
  8
0
 62
7
  6
CONTINUOUS
 10
103.4692620364
 20
207.4778134202
  0
VERTEX
  8
0
 62
7
  6
CONTINUOUS
 10
103.4739674034
 20
207.4849609114
  0
VERTEX
  8
0
 62
7
  6
CONTINUOUS
 10
103.4788674562
 20
207.49170472
  0
VERTEX
  8
0
 62
7
  6
CONTINUOUS
 10
103.4844001232
 20
207.4984000941
  0
VERTEX
  8
0
 62
7
  6
CONTINUOUS
 10
103.4903330978
 20
207.5044793143
  0
VERTEX
  8
0
 62
7
  6
CONTINUOUS
 10
103.4959439032
 20
207.5091248291
  0
VERTEX
  8
0
 62
7
  6
CONTINUOUS
 10
103.4994897224
 20
207.5113819736
  0
VERTEX
  8
0
 62
7
  6
CONTINUOUS
 10
103.5003901812
 20
207.5118183623
  0
SEQEND
  0
POLYLINE
  8
2_FEATURE
 62
7
  6
CONTINUOUS
 66
1
 70
0
  0
VERTEX
  8
2_FEATURE
 62
7
  6
CONTINUOUS
 10
110.7365301698
 20
209.1145443403
  0
VERTEX
  8
2_FEATURE
 62
7
  6
CONTINUOUS
 10
110.7196385983
 20
209.0991602974
  0
VERTEX
  8
2_FEATURE
 62
7
  6
CONTINUOUS
 10
110.6699944232
 20
209.0850192476
  0
VERTEX
  8
2_FEATURE
 62
7
  6
CONTINUOUS
 10
110.5907928864
 20
209.0730110218
  0
VERTEX
  8
2_FEATURE
 62
7
  6
CONTINUOUS
 10
110.4872847788
 20
209.0638732798
  0
VERTEX
  8
2_FEATURE
 62
7
  6
CONTINUOUS
 10
110.366453021
 20
209.0581587882
  0
VERTEX
  8
2_FEATURE
 62
7
  6
CONTINUOUS
 10
110.2365301698
 20
209.0562132963
  0
SEQEND
  0
POLYLINE
  8
2_FEATURE
 62
7
  6
CONTINUOUS
 66
1
 70
0
  0
VERTEX
  8
2_FEATURE
 62
7
  6
CONTINUOUS
 10
110.7365301698
 20
210.9420015901
  0
VERTEX
  8
2_FEATURE
 62
7
  6
CONTINUOUS
 10
110.7196385983
 20
210.957385633
  0
VERTEX
  8
2_FEATURE
 62
7
  6
CONTINUOUS
 10
110.6699944232
 20
210.9715266828
  0
VERTEX
  8
2_FEATURE
 62
7
  6
CONTINUOUS
 10
110.5907928864
 20
210.9835349086
  0
VERTEX
  8
2_FEATURE
 62
7
  6
CONTINUOUS
 10
110.4872847788
 20
210.9926726506
  0
VERTEX
  8
2_FEATURE
 62
7
  6
CONTINUOUS
 10
110.366453021
 20
210.9983871422
  0
VERTEX
  8
2_FEATURE
 62
7
  6
CONTINUOUS
 10
110.2365301698
 20
211.0003326342
  0
SEQEND
  0
LINE
  8
2_FEATURE
 62
7
  6
CONTINUOUS
 10
103.1897055639
 20
207.8518737811
 11
103.1897055639
 21
206.1782729652
  0
LINE
  8
0
 62
7
  6
CONTINUOUS
 10
103.1897055639
 20
207.8518737786
 11
103.1897055639
 21
206.1782729652
  0
LINE
  8
0
 62
7
  6
CONTINUOUS
 10
103.5865301698
 20
205.8782765003
 11
103.5865301683
 21
207.182866733
  0
POLYLINE
  8
0
 62
7
  6
CONTINUOUS
 66
1
 70
0
  0
VERTEX
  8
0
 62
7
  6
CONTINUOUS
 10
103.1897051893
 20
206.5437506862
  0
VERTEX
  8
0
 62
7
  6
CONTINUOUS
 10
103.2085229245
 20
206.7632100633
  0
VERTEX
  8
0
 62
7
  6
CONTINUOUS
 10
103.26893587
 20
207.0126396729
  0
VERTEX
  8
0
 62
7
  6
CONTINUOUS
 10
103.3643380006
 20
207.2586581095
  0
SEQEND
  0
LINE
  8
0
 62
7
  6
CONTINUOUS
 10
110.7365301698
 20
213.5683860652
 11
110.9365301698
 21
213.3527880818
  0
LINE
  8
0
 62
7
  6
CONTINUOUS
 10
106.0865301698
 20
207.8519273933
 11
106.0865301698
 21
206.1782729652
  0
LINE
  8
2_FEATURE
 62
7
  6
CONTINUOUS
 10
106.0865301698
 20
207.8519273909
 11
106.0865301698
 21
206.1782729652
  0
LINE
  8
2_FEATURE
 62
7
  6
CONTINUOUS
 10
107.9365301698
 20
213.6782729652
 11
107.9365301698
 21
206.1782729652
  0
LINE
  8
2_FEATURE
 62
7
  6
CONTINUOUS
 10
110.7365301698
 20
213.6782729652
 11
110.7365301698
 21
206.1782747687
  0
LINE
  8
2_FEATURE
 62
7
  6
CONTINUOUS
 10
110.9365301698
 20
213.3527880818
 11
110.9365301698
 21
207.8148729652
  0
POLYLINE
  8
2_FEATURE
 62
7
  6
CONTINUOUS
 66
1
 70
0
  0
VERTEX
  8
2_FEATURE
 62
7
  6
CONTINUOUS
 10
110.8575683897
 20
207.5451938645
  0
VERTEX
  8
2_FEATURE
 62
7
  6
CONTINUOUS
 10
110.9077547848
 20
207.6474420423
  0
VERTEX
  8
2_FEATURE
 62
7
  6
CONTINUOUS
 10
110.9236815708
 20
207.7018334273
  0
VERTEX
  8
2_FEATURE
 62
7
  6
CONTINUOUS
 10
110.9365388675
 20
207.8148729652
  0
SEQEND
  0
ARC
  8
0
 62
7
  6
CONTINUOUS
 10
109.9365301698
 20
152.5850015012
 40
1.0
 50
0.0
 51
35.8591911982
  0
ARC
  8
0
 62
7
  6
CONTINUOUS
 10
48.5365301698
 20
152.5850015012
 40
1.0
 50
144.1408088018
 51
180.0
  0
ARC
  8
2_FEATURE
 62
7
  6
CONTINUOUS
 10
102.0865301698
 20
162.00875
 40
0.5
 50
90.0
 51
180.0
  0
ARC
  8
2_FEATURE
 62
7
  6
CONTINUOUS
 10
76.6865301698
 20
162.00875
 40
0.5
 50
90.0
 51
180.0
  0
ARC
  8
2_FEATURE
 62
7
  6
CONTINUOUS
 10
63.9865301698
 20
162.00875
 40
0.5
 50
90.0
 51
180.0
  0
ARC
  8
2_FEATURE
 62
7
  6
CONTINUOUS
 10
48.2365301698
 20
116.42875
 40
0.5
 50
180.0
 51
270.0
  0
ARC
  8
2_FEATURE
 62
7
  6
CONTINUOUS
 10
89.3865301698
 20
162.00875
 40
0.5
 50
90.0
 51
180.0
  0
ARC
  8
2_FEATURE
 62
7
  6
CONTINUOUS
 10
108.4365301698
 20
116.42875
 40
0.5
 50
180.0
 51
270.0
  0
ARC
  8
2_FEATURE
 62
7
  6
CONTINUOUS
 10
57.6365301698
 20
116.42875
 40
0.5
 50
180.0
 51
270.0
  0
ARC
  8
2_FEATURE
 62
7
  6
CONTINUOUS
 10
70.3365301698
 20
116.42875
 40
0.5
 50
180.0
 51
270.0
  0
ARC
  8
2_FEATURE
 62
7
  6
CONTINUOUS
 10
95.7365301698
 20
116.42875
 40
0.5
 50
180.0
 51
270.0
  0
ARC
  8
2_FEATURE
 62
7
  6
CONTINUOUS
 10
94.4865301698
 20
162.00875
 40
0.5
 50
0.0
 51
90.0
  0
ARC
  8
2_FEATURE
 62
7
  6
CONTINUOUS
 10
69.0865301698
 20
162.00875
 40
0.5
 50
0.0
 51
90.0
  0
ARC
  8
2_FEATURE
 62
7
  6
CONTINUOUS
 10
56.3865301698
 20
162.00875
 40
0.5
 50
0.0
 51
90.0
  0
ARC
  8
2_FEATURE
 62
7
  6
CONTINUOUS
 10
110.2365301698
 20
116.42875
 40
0.5
 50
270.0
 51
360.0
  0
ARC
  8
2_FEATURE
 62
7
  6
CONTINUOUS
 10
107.1865301698
 20
162.00875
 40
0.5
 50
0.0
 51
90.0
  0
ARC
  8
2_FEATURE
 62
7
  6
CONTINUOUS
 10
51.2865301698
 20
162.00875
 40
0.5
 50
90.0
 51
180.0
  0
ARC
  8
2_FEATURE
 62
7
  6
CONTINUOUS
 10
81.7865301698
 20
162.00875
 40
0.5
 50
0.0
 51
90.0
  0
ARC
  8
2_FEATURE
 62
7
  6
CONTINUOUS
 10
100.8365301698
 20
116.42875
 40
0.5
 50
270.0
 51
360.0
  0
ARC
  8
2_FEATURE
 62
7
  6
CONTINUOUS
 10
50.0365301698
 20
116.42875
 40
0.5
 50
270.0
 51
360.0
  0
ARC
  8
2_FEATURE
 62
7
  6
CONTINUOUS
 10
62.7365301698
 20
116.42875
 40
0.5
 50
270.0
 51
360.0
  0
ARC
  8
2_FEATURE
 62
7
  6
CONTINUOUS
 10
88.1365301698
 20
116.42875
 40
0.5
 50
270.0
 51
360.0
  0
ARC
  8
2_FEATURE
 62
7
  6
CONTINUOUS
 10
75.4365301698
 20
116.42875
 40
0.5
 50
270.0
 51
360.0
  0
ARC
  8
2_FEATURE
 62
7
  6
CONTINUOUS
 10
83.0365301698
 20
116.42875
 40
0.5
 50
180.0
 51
270.0
  0
ARC
  8
2_FEATURE
 62
7
  6
CONTINUOUS
 10
158.3342021678
 20
123.8014570402
 40
0.5
 50
311.4951540653
 51
358.6903416646
  0
ARC
  8
0
 62
7
  6
CONTINUOUS
 10
161.5476021678
 20
119.96875
 40
5.0489999763
 50
48.818215835
 51
69.7203027258
  0
ARC
  8
0
 62
7
  6
CONTINUOUS
 10
161.5476021678
 20
120.16875
 40
4.35
 50
139.8401666792
 51
140.5646248244
  0
ARC
  8
0
 62
7
  6
CONTINUOUS
 10
161.5476021678
 20
120.16875
 40
4.35
 50
164.0097219483
 51
170.1946305566
  0
ARC
  8
0
 62
7
  6
CONTINUOUS
 10
161.5476021678
 20
120.16875
 40
4.35
 50
142.5434188479
 51
156.6921774312
  0
ARC
  8
0
 62
7
  6
CONTINUOUS
 10
161.5476021678
 20
120.16875
 40
4.35
 50
172.9474244797
 51
181.1009480634
  0
ARC
  8
0
 62
7
  6
CONTINUOUS
 10
161.5476021678
 20
120.16875
 40
4.35
 50
208.2321430299
 51
231.9908599943
  0
ARC
  8
0
 62
7
  6
CONTINUOUS
 10
161.5476021678
 20
120.16875
 40
4.35
 50
187.0645740225
 51
199.8904572908
  0
ARC
  8
0
 62
7
  6
CONTINUOUS
 10
161.5476021678
 20
120.16875
 40
4.35
 50
236.5226684764
 51
236.7482018567
  0
ARC
  8
2_FEATURE
 62
7
  6
CONTINUOUS
 10
161.5476021678
 20
120.16875
 40
4.35
 50
131.4951540653
 51
257.0875457171
  0
ARC
  8
2_FEATURE
 62
7
  6
CONTINUOUS
 10
161.5476021678
 20
120.16875
 40
4.35
 50
282.9124542829
 51
342.5584061437
  0
ARC
  8
0
 62
7
  6
CONTINUOUS
 10
161.5476021678
 20
120.16875
 40
4.35
 50
236.7572329793
 51
237.8437733747
  0
ARC
  8
0
 62
7
  6
CONTINUOUS
 10
161.5476021678
 20
120.16875
 40
4.35
 50
240.6593035956
 51
240.9450387953
  0
ARC
  8
0
 62
7
  6
CONTINUOUS
 10
161.5476021678
 20
120.16875
 40
4.35
 50
243.2872856156
 51
246.3646575331
  0
ARC
  8
0
 62
7
  6
CONTINUOUS
 10
161.5476021678
 20
120.16875
 40
4.35
 50
246.3967199745
 51
248.9674991936
  0
ARC
  8
0
 62
7
  6
CONTINUOUS
 10
161.5476021678
 20
120.16875
 40
4.35
 50
249.024026619
 51
251.373418728
  0
ARC
  8
0
 62
7
  6
CONTINUOUS
 10
161.5476021678
 20
120.16875
 40
4.35
 50
251.3922794002
 51
257.0875457171
  0
CIRCLE
  8
2_FEATURE
 62
7
  6
CONTINUOUS
 10
161.5476021678
 20
120.16875
 40
2.5
  0
ARC
  8
2_FEATURE
 62
7
  6
CONTINUOUS
 10
159.3342021678
 20
153.0850015012
 40
0.5
 50
90.0
 51
180.0
  0
ARC
  8
0
 62
7
  6
CONTINUOUS
 10
161.5476021678
 20
158.26875
 40
5.0
 50
290.4873151147
 51
311.5777957855
  0
ARC
  8
2_FEATURE
 62
7
  6
CONTINUOUS
 10
161.5476021678
 20
158.26875
 40
5.0
 50
290.4873151147
 51
311.5777957855
  0
ARC
  8
0
 62
7
  6
CONTINUOUS
 10
161.5476021678
 20
158.26875
 40
4.35
 50
178.8990518583
 51
180.0
  0
ARC
  8
0
 62
7
  6
CONTINUOUS
 10
161.5476021678
 20
158.26875
 40
4.35
 50
160.109543192
 51
164.5652113132
  0
ARC
  8
0
 62
7
  6
CONTINUOUS
 10
161.5476021678
 20
158.26875
 40
4.35
 50
147.845674364
 51
156.2027150028
  0
ARC
  8
0
 62
7
  6
CONTINUOUS
 10
161.5476021678
 20
158.26875
 40
4.35
 50
133.2869832826
 51
135.0814113476
  0
ARC
  8
0
 62
7
  6
CONTINUOUS
 10
161.5476021678
 20
158.26875
 40
4.35
 50
123.2418166021
 51
128.3485858268
  0
ARC
  8
0
 62
7
  6
CONTINUOUS
 10
161.5476021678
 20
158.26875
 40
4.35
 50
135.5524196757
 51
143.4252094084
  0
ARC
  8
0
 62
7
  6
CONTINUOUS
 10
161.5476021678
 20
158.26875
 40
4.35
 50
111.1116154323
 51
113.635342787
  0
ARC
  8
0
 62
7
  6
CONTINUOUS
 10
161.5476021678
 20
158.26875
 40
4.35
 50
113.7555789592
 51
113.8393261645
  0
ARC
  8
0
 62
7
  6
CONTINUOUS
 10
161.5476021678
 20
158.26875
 40
4.35
 50
119.0549666104
 51
119.340707838
  0
ARC
  8
0
 62
7
  6
CONTINUOUS
 10
161.5476021678
 20
158.26875
 40
4.35
 50
122.3050978546
 51
122.4303561408
  0
ARC
  8
2_FEATURE
 62
7
  6
CONTINUOUS
 10
161.5476021678
 20
158.26875
 40
4.35
 50
17.4415938563
 51
77.0875457171
  0
ARC
  8
2_FEATURE
 62
7
  6
CONTINUOUS
 10
161.5476021678
 20
158.26875
 40
4.35
 50
102.9124542829
 51
180.609950782
  0
CIRCLE
  8
2_FEATURE
 62
7
  6
CONTINUOUS
 10
161.5476021678
 20
158.26875
 40
2.5
  0
ARC
  8
2_FEATURE
 62
7
  6
CONTINUOUS
 10
165.1976021678
 20
154.1544466321
 40
0.4999996284
 50
0.0
 51
131.5778678434
  0
ARC
  8
2_FEATURE
 62
7
  6
CONTINUOUS
 10
69.0865301698
 20
206.1782729652
 40
0.5
 50
270.0
 51
360.0
  0
ARC
  8
2_FEATURE
 62
7
  6
CONTINUOUS
 10
63.9865301698
 20
206.1782729652
 40
0.5
 50
180.0
 51
270.0
  0
ARC
  8
2_FEATURE
 62
7
  6
CONTINUOUS
 10
48.2365301698
 20
206.1782729652
 40
0.5
 50
180.0
 51
270.0
  0
ARC
  8
2_FEATURE
 62
7
  6
CONTINUOUS
 10
57.6365301698
 20
206.1782729652
 40
0.5
 50
180.0
 51
270.0
  0
ARC
  8
2_FEATURE
 62
7
  6
CONTINUOUS
 10
70.3365301698
 20
206.1782729652
 40
0.5
 50
180.0
 51
270.0
  0
ARC
  8
2_FEATURE
 62
7
  6
CONTINUOUS
 10
77.2897055639
 20
206.1782729652
 40
0.5
 50
270.0
 51
360.0
  0
ARC
  8
2_FEATURE
 62
7
  6
CONTINUOUS
 10
48.0365301698
 20
207.8148729652
 40
0.5
 50
212.6399595159
 51
232.7644154593
  0
ARC
  8
2_FEATURE
 62
7
  6
CONTINUOUS
 10
75.4365301698
 20
206.1782729652
 40
0.5
 50
270.0
 51
360.0
  0
ARC
  8
2_FEATURE
 62
7
  6
CONTINUOUS
 10
51.8865301698
 20
206.1782729652
 40
0.5
 50
270.0
 51
360.0
  0
ARC
  8
0
 62
7
  6
CONTINUOUS
 10
55.7833547757
 20
206.1782729652
 40
0.5
 50
237.7776043177
 51
256.4971271004
  0
ARC
  8
0
 62
7
  6
CONTINUOUS
 10
55.7833547757
 20
206.1782729652
 40
0.5
 50
206.6941234106
 51
212.0251949778
  0
ARC
  8
2_FEATURE
 62
7
  6
CONTINUOUS
 10
55.7833547757
 20
206.1782729652
 40
0.5
 50
180.0
 51
270.0
  0
ARC
  8
2_FEATURE
 62
7
  6
CONTINUOUS
 10
50.0365301698
 20
206.1782729652
 40
0.5
 50
270.0
 51
360.0
  0
ARC
  8
0
 62
7
  6
CONTINUOUS
 10
54.6865301698
 20
205.8782729652
 40
0.2
 50
270.0
 51
360.0
  0
ARC
  8
0
 62
7
  6
CONTINUOUS
 10
61.0365301698
 20
205.8782729652
 40
0.2
 50
270.0
 51
360.0
  0
ARC
  8
2_FEATURE
 62
7
  6
CONTINUOUS
 10
75.4365301698
 20
213.6782729652
 40
0.5
 50
0.0
 51
90.0
  0
ARC
  8
2_FEATURE
 62
7
  6
CONTINUOUS
 10
48.2365301698
 20
213.6782729652
 40
0.5
 50
90.0
 51
180.0
  0
ARC
  8
2_FEATURE
 62
7
  6
CONTINUOUS
 10
70.3365301698
 20
213.6782729652
 40
0.5
 50
90.0
 51
180.0
  0
ARC
  8
2_FEATURE
 62
7
  6
CONTINUOUS
 10
62.7365301698
 20
213.6782729652
 40
0.5
 50
0.0
 51
90.0
  0
ARC
  8
2_FEATURE
 62
7
  6
CONTINUOUS
 10
57.6365301698
 20
213.6782729652
 40
0.5
 50
90.0
 51
180.0
  0
ARC
  8
2_FEATURE
 62
7
  6
CONTINUOUS
 10
50.0365301698
 20
213.6782729652
 40
0.5
 50
0.0
 51
90.0
  0
ARC
  8
2_FEATURE
 62
7
  6
CONTINUOUS
 10
94.4865301698
 20
206.1782729652
 40
0.5
 50
270.0
 51
360.0
  0
ARC
  8
2_FEATURE
 62
7
  6
CONTINUOUS
 10
110.2365301698
 20
206.1782729652
 40
0.5
 50
270.0
 51
360.0
  0
ARC
  8
2_FEATURE
 62
7
  6
CONTINUOUS
 10
89.3865301698
 20
206.1782729652
 40
0.5
 50
180.0
 51
270.0
  0
ARC
  8
2_FEATURE
 62
7
  6
CONTINUOUS
 10
108.4365301698
 20
206.1782729652
 40
0.5
 50
180.0
 51
270.0
  0
ARC
  8
2_FEATURE
 62
7
  6
CONTINUOUS
 10
88.1365301698
 20
206.1782729652
 40
0.5
 50
270.0
 51
360.0
  0
ARC
  8
2_FEATURE
 62
7
  6
CONTINUOUS
 10
83.0365301698
 20
206.1782729652
 40
0.5
 50
180.0
 51
270.0
  0
ARC
  8
2_FEATURE
 62
7
  6
CONTINUOUS
 10
110.4365301698
 20
207.8148729652
 40
0.5
 50
307.2346308827
 51
327.3600404841
  0
ARC
  8
2_FEATURE
 62
7
  6
CONTINUOUS
 10
81.1833547757
 20
206.1782729652
 40
0.5
 50
180.0
 51
270.0
  0
ARC
  8
2_FEATURE
 62
7
  6
CONTINUOUS
 10
102.6897055639
 20
206.1782729652
 40
0.5
 50
270.0
 51
360.0
  0
ARC
  8
0
 62
7
  6
CONTINUOUS
 10
102.6897055639
 20
206.1782729652
 40
0.5
 50
270.0
 51
346.6613784284
  0
ARC
  8
2_FEATURE
 62
7
  6
CONTINUOUS
 10
100.8365301698
 20
206.1782729652
 40
0.5
 50
270.0
 51
360.0
  0
ARC
  8
2_FEATURE
 62
7
  6
CONTINUOUS
 10
106.5865301698
 20
206.1782729652
 40
0.5
 50
180.0
 51
270.0
  0
ARC
  8
0
 62
7
  6
CONTINUOUS
 10
103.7865301698
 20
205.8782729652
 40
0.2
 50
180.0
 51
270.0
  0
ARC
  8
0
 62
7
  6
CONTINUOUS
 10
97.4365301698
 20
205.8782729652
 40
0.2
 50
180.0
 51
270.0
  0
ARC
  8
2_FEATURE
 62
7
  6
CONTINUOUS
 10
110.2365301698
 20
213.6782729652
 40
0.5
 50
0.0
 51
90.0
  0
ARC
  8
2_FEATURE
 62
7
  6
CONTINUOUS
 10
83.0365301698
 20
213.6782729652
 40
0.5
 50
90.0
 51
180.0
  0
ARC
  8
2_FEATURE
 62
7
  6
CONTINUOUS
 10
95.7365301698
 20
213.6782729652
 40
0.5
 50
90.0
 51
180.0
  0
ARC
  8
2_FEATURE
 62
7
  6
CONTINUOUS
 10
88.1365301698
 20
213.6782729652
 40
0.5
 50
0.0
 51
90.0
  0
ARC
  8
2_FEATURE
 62
7
  6
CONTINUOUS
 10
100.8365301698
 20
213.6782729652
 40
0.5
 50
0.0
 51
90.0
  0
ARC
  8
2_FEATURE
 62
7
  6
CONTINUOUS
 10
108.4365301698
 20
213.6782729652
 40
0.5
 50
90.0
 51
180.0
  0
ENDSEC
  0
EOF
