  0
SECTION
  2
HEADER
  9
$EXTMAX
 10
210.0
 20
297.0
 30
0.0
  9
$EXTMIN
 10
0.0
 20
0.0
 30
0.0
  9
$LIMMIN
 10
0.0
 20
0.0
  9
$LIMMAX
 10
210.0
 20
297.0
  9
$VIEWCTR
 10
105.0
 20
148.5
  9
$VIEWSIZE
 40
297.0
  9
$CLAYER
  8
0
  9
$LTSCALE
 40
19.36
  9
$CELTYPE
  6
BYLAYER
  9
$DIMSCALE
 40
1.0
  9
$DIMASZ
 40
3.5
  9
$DIMEXO
 40
1.0
  9
$DIMDLI
 40
13.376
  9
$DIMEXE
 40
2.0
  9
$DIMCEN
 40
3.168
  9
$DIMLFAC
 40
1.0
  9
$DIMBLK
  1
_FILLED
  9
$DIMALT
 70
0
  9
$DIMALTF
 40
0.0393700787
  9
$DIMTXT
 40
3.5
  9
$AUNITS
 70
0
  9
$PDMODE
 70
3
  9
$PDSIZE
 40
0.3125
  9
$TILEMODE
 70
1
  0
ENDSEC
  0
SECTION
  2
TABLES
  0
TABLE
  2
LTYPE
 70
6
  0
LTYPE
  2
BYBLOCK
 70
0
  3

 72
65
 73
0
 40
0.0
  0
LTYPE
  2
BYLAYER
 70
0
  3

 72
65
 73
0
 40
0.0
  0
LTYPE
  2
CONTINUOUS
 70
64
  3
Solid line
 72
65
 73
0
 40
0.0
  0
LTYPE
  2
CENTER
 70
64
  3
____ _ ____ _ ____ _ ____ _ ____ _ ____ _ ____
 72
65
 73
4
 40
0.6
 49
0.375
 49
-0.075
 49
0.075
 49
-0.075
  0
LTYPE
  2
HIDDEN
 70
64
  3
- - - - - - - - - - - - - - - - - - - -
 72
65
 73
2
 40
0.2
 49
0.1
 49
-0.1
  0
LTYPE
  2
PHANTOM
 70
64
  3
_____ _ _ _____ _ _ _____ _ _ _____
 72
65
 73
6
 40
0.8
 49
0.45
 49
-0.05
 49
0.1
 49
-0.05
 49
0.1
 49
-0.05
  0
LTYPE
  2
DOT
 70
64
  3
. . . . . . . . . . . . . . . . . . . .
 72
65
 73
2
 40
0.2
 49
0.1
 49
-0.1
  0
LTYPE
  2
DASHED
 70
64
  3
- - - - - - - - - - - - - - - - - - - -
 72
65
 73
2
 40
0.2
 49
0.1
 49
-0.1
  0
ENDTAB
  0
TABLE
  2
LAYER
 70
36
  0
LAYER
  2
0
 70
0
 62
7
  6
CONTINUOUS
  0
LAYER
  2
DEFAULT_1
 70
0
 62
7
  6
CENTER
  0
LAYER
  2
DEFAULT_2
 70
0
 62
8
  6
HIDDEN
  0
LAYER
  2
DEFAULT_3
 70
0
 62
7
  6
PHANTOM
  0
LAYER
  2
1_AXIS
 70
0
 62
7
  6
CONTINUOUS
  0
LAYER
  2
1_DATUMPLANE
 70
0
 62
7
  6
CONTINUOUS
  0
LAYER
  2
1_DATUM_PLANES
 70
0
 62
7
  6
CONTINUOUS
  0
LAYER
  2
2_FEATURE
 70
0
 62
7
  6
CONTINUOUS
  0
LAYER
  2
4_QUILT
 70
0
 62
7
  6
CONTINUOUS
  0
LAYER
  2
6_DIM
 70
0
 62
7
  6
CONTINUOUS
  0
LAYER
  2
CSYS
 70
0
 62
7
  6
CONTINUOUS
  0
LAYER
  2
CURVE
 70
0
 62
7
  6
CONTINUOUS
  0
LAYER
  2
NOTES
 70
0
 62
7
  6
CONTINUOUS
  0
ENDTAB
  0
TABLE
  2
STYLE
 70
1
  0
STYLE
  2
STANDARD
 70
0
 40
0.0
 41
0.8
 50
0.0
 71
0
 42
0.2
  3
txt
  4

  0
STYLE
  2
TEXTSTYLE_1
 70
0
 40
0.0
 41
0.8
 50
0.0
 71
0
 42
0.2
  3
gdt
  4

  0
STYLE
  2
TEXTSTYLE_2
 70
0
 40
0.0
 41
0.6
 50
0.0
 71
0
 42
0.2
  3
txt
  4

  0
STYLE
  2
TEXTSTYLE_3
 70
0
 40
0.0
 41
1.0
 50
0.0
 71
0
 42
0.2
  3
ftb_____.ttf
  4

  0
STYLE
  2
TEXTSTYLE_4
 70
0
 40
0.0
 41
1.0
 50
0.0
 71
0
 42
0.2
  3
fti_____.ttf
  4

  0
STYLE
  2
TEXTSTYLE_5
 70
0
 40
0.0
 41
1.0
 50
0.0
 71
0
 42
0.2
  3
frutiger light.ttf
  4

  0
STYLE
  2
TEXTSTYLE_6
 70
0
 40
0.0
 41
0.7
 50
0.0
 71
0
 42
0.2
  3
txt
  4

  0
STYLE
  2
TEXTSTYLE_7
 70
0
 40
0.0
 41
0.55
 50
0.0
 71
0
 42
0.2
  3
txt
  4

  0
ENDTAB
  0
ENDSEC
  0
SECTION
  2
BLOCKS
  0
BLOCK
  8
0
 62
2
  6
CONTINUOUS
  2
UNI_LOGO2_BL1
 70
64
 10
173.5956734183
 20
35.5937998301
  0
TEXT
  8
0
 62
7
  6
CONTINUOUS
 10
164.6539584268
 20
30.6865562072
  7
TEXTSTYLE_4
 40
1.0655737705
  1
The brand for plastic modular belts and chains
 41
1.0
 72
0
  0
LINE
  8
0
 62
7
  6
CONTINUOUS
 10
149.5737418074
 20
36.1675703219
 11
149.5737418074
 21
34.0364227809
  0
LINE
  8
0
 62
7
  6
CONTINUOUS
 10
149.8628043005
 20
31.0454914852
 11
149.8628043005
 21
31.1422825445
  0
LINE
  8
0
 62
7
  6
CONTINUOUS
 10
149.5737418074
 20
31.1100188581
 11
149.6315543091
 21
30.9164367395
  0
LINE
  8
0
 62
7
  6
CONTINUOUS
 10
150.9671844304
 20
33.9544555678
 11
150.9671844304
 21
36.1675703219
  0
LINE
  8
0
 62
7
  6
CONTINUOUS
 10
151.8862417523
 20
32.1101932727
 11
151.8862417523
 21
30.5937998301
  0
LINE
  8
0
 62
7
  6
CONTINUOUS
 10
152.1753043074
 20
30.5937998301
 11
152.1753043074
 21
31.3358647082
  0
LINE
  8
0
 62
7
  6
CONTINUOUS
 10
152.1753043074
 20
31.4649194539
 11
152.1753043074
 21
32.1101932727
  0
LINE
  8
0
 62
7
  6
CONTINUOUS
 10
149.6315543091
 20
31.3036010218
 11
149.5737418074
 21
31.1100188581
  0
LINE
  8
0
 62
7
  6
CONTINUOUS
 10
149.9784292936
 20
30.8841730531
 11
149.8628043005
 21
31.0454914852
  0
LINE
  8
0
 62
7
  6
CONTINUOUS
 10
151.0768668626
 20
31.400392081
 11
151.1346793074
 21
31.3036010218
  0
LINE
  8
0
 62
7
  6
CONTINUOUS
 10
151.4237418626
 20
31.3036010218
 11
151.3659292523
 21
31.4326557675
  0
LINE
  8
0
 62
7
  6
CONTINUOUS
 10
152.852430332
 20
36.1675703219
 11
152.852430332
 21
34.3642916334
  0
LINE
  8
0
 62
7
  6
CONTINUOUS
 10
152.852430332
 20
33.0528162235
 11
152.852430332
 21
32.3970785186
  0
LINE
  8
0
 62
7
  6
CONTINUOUS
 10
153.2159293074
 20
31.2390736489
 11
153.2159293074
 21
30.5937998301
  0
LINE
  8
0
 62
7
  6
CONTINUOUS
 10
153.5049916972
 20
30.5937998301
 11
153.5049916972
 21
31.2390736489
  0
LINE
  8
0
 62
7
  6
CONTINUOUS
 10
149.8628043005
 20
31.1422825445
 11
149.9206168074
 21
31.2713373354
  0
LINE
  8
0
 62
7
  6
CONTINUOUS
 10
149.6315543091
 20
30.9164367395
 11
149.7471793074
 21
30.7873819712
  0
LINE
  8
0
 62
7
  6
CONTINUOUS
 10
153.1581166972
 20
31.3681283946
 11
153.2159293074
 21
31.2390736489
  0
LINE
  8
0
 62
7
  6
CONTINUOUS
 10
153.9674919177
 20
30.8841730531
 11
154.0253041972
 21
30.7551182848
  0
LINE
  8
0
 62
7
  6
CONTINUOUS
 10
153.5049916972
 20
31.2390736489
 11
153.4471794177
 21
31.400392081
  0
LINE
  8
0
 62
7
  6
CONTINUOUS
 10
153.9674919177
 20
31.4326557675
 11
153.9674919177
 21
31.3681283946
  0
LINE
  8
0
 62
7
  6
CONTINUOUS
 10
153.9674919177
 20
30.9809641124
 11
153.9674919177
 21
30.8841730531
  0
LINE
  8
0
 62
7
  6
CONTINUOUS
 10
154.245872955
 20
32.3970785186
 11
154.245872955
 21
36.1675703219
  0
LINE
  8
0
 62
7
  6
CONTINUOUS
 10
154.2565543074
 20
30.8519093441
 11
154.2565543074
 21
30.9164367395
  0
LINE
  8
0
 62
7
  6
CONTINUOUS
 10
154.5737418074
 20
36.1675703219
 11
154.5737418074
 21
32.3970785186
  0
LINE
  8
0
 62
7
  6
CONTINUOUS
 10
151.3659292523
 20
30.7873819712
 11
151.4237418626
 21
30.9164367395
  0
LINE
  8
0
 62
7
  6
CONTINUOUS
 10
155.759679528
 20
30.6905909007
 11
155.7018665869
 21
30.8519093441
  0
LINE
  8
0
 62
7
  6
CONTINUOUS
 10
155.412804528
 20
31.3681283946
 11
155.412804528
 21
31.2713373354
  0
LINE
  8
0
 62
7
  6
CONTINUOUS
 10
155.412804528
 20
31.1422825445
 11
155.412804528
 21
30.9487004259
  0
LINE
  8
0
 62
7
  6
CONTINUOUS
 10
155.7018665869
 20
30.8519093441
 11
155.7018665869
 21
31.3681283946
  0
LINE
  8
0
 62
7
  6
CONTINUOUS
 10
155.9671844304
 20
32.3970785186
 11
155.9671844304
 21
34.2003572071
  0
LINE
  8
0
 62
7
  6
CONTINUOUS
 10
155.9671844304
 20
35.511832617
 11
155.9671844304
 21
36.1675703219
  0
LINE
  8
0
 62
7
  6
CONTINUOUS
 10
156.279992028
 20
32.1101932727
 11
156.279992028
 21
31.9488748406
  0
LINE
  8
0
 62
7
  6
CONTINUOUS
 10
156.279992028
 20
31.626237886
 11
156.279992028
 21
30.5937998301
  0
LINE
  8
0
 62
7
  6
CONTINUOUS
 10
156.5690540869
 20
30.5937998301
 11
156.5690540869
 21
31.626237886
  0
LINE
  8
0
 62
7
  6
CONTINUOUS
 10
156.5690540869
 20
31.9488748406
 11
156.5690540869
 21
32.1101932727
  0
LINE
  8
0
 62
7
  6
CONTINUOUS
 10
151.1346793074
 20
30.9164367395
 11
151.0768668626
 21
30.8196456577
  0
LINE
  8
0
 62
7
  6
CONTINUOUS
 10
153.4471794177
 20
31.400392081
 11
153.3893668074
 21
31.4649194539
  0
LINE
  8
0
 62
7
  6
CONTINUOUS
 10
154.3143669177
 20
30.7873819712
 11
154.2565543074
 21
30.8519093441
  0
LINE
  8
0
 62
7
  6
CONTINUOUS
 10
155.4706168074
 20
30.6583272086
 11
155.5284290869
 21
30.5937998301
  0
LINE
  8
0
 62
7
  6
CONTINUOUS
 10
155.412804528
 20
30.7551182848
 11
155.4706168074
 21
30.6583272086
  0
LINE
  8
0
 62
7
  6
CONTINUOUS
 10
155.8174918074
 20
30.5937998301
 11
155.759679528
 21
30.6905909007
  0
LINE
  8
0
 62
7
  6
CONTINUOUS
 10
155.7018665869
 20
31.3681283946
 11
155.6440543074
 21
31.4649194539
  0
LINE
  8
0
 62
7
  6
CONTINUOUS
 10
157.0315543074
 20
31.626237886
 11
157.0315543074
 21
30.5937998301
  0
LINE
  8
0
 62
7
  6
CONTINUOUS
 10
157.320617028
 20
30.5937998301
 11
157.320617028
 21
31.3358647082
  0
LINE
  8
0
 62
7
  6
CONTINUOUS
 10
157.320617028
 20
31.4649194539
 11
157.320617028
 21
31.626237886
  0
LINE
  8
0
 62
7
  6
CONTINUOUS
 10
157.852430332
 20
34.6101932727
 11
157.852430332
 21
32.3970785186
  0
LINE
  8
0
 62
7
  6
CONTINUOUS
 10
149.7471793074
 20
31.4326557675
 11
149.6315543091
 21
31.3036010218
  0
LINE
  8
0
 62
7
  6
CONTINUOUS
 10
149.9206168074
 20
31.2713373354
 11
149.9784292936
 21
31.3358647082
  0
LINE
  8
0
 62
7
  6
CONTINUOUS
 10
149.7471793074
 20
30.7873819712
 11
149.8628043005
 21
30.7228545871
  0
LINE
  8
0
 62
7
  6
CONTINUOUS
 10
150.1518667936
 20
30.7873819712
 11
149.9784292936
 21
30.8841730531
  0
LINE
  8
0
 62
7
  6
CONTINUOUS
 10
155.3549915869
 20
31.4326557675
 11
155.412804528
 21
31.3681283946
  0
LINE
  8
0
 62
7
  6
CONTINUOUS
 10
158.3034290869
 20
31.3681283946
 11
158.361242028
 21
31.2068099625
  0
LINE
  8
0
 62
7
  6
CONTINUOUS
 10
158.6503040869
 20
31.2068099625
 11
158.5924918074
 21
31.3681283946
  0
LINE
  8
0
 62
7
  6
CONTINUOUS
 10
158.361242028
 20
31.2068099625
 11
158.361242028
 21
30.5937998301
  0
LINE
  8
0
 62
7
  6
CONTINUOUS
 10
158.6503040869
 20
30.5937998301
 11
158.6503040869
 21
31.2068099625
  0
LINE
  8
0
 62
7
  6
CONTINUOUS
 10
159.1128043074
 20
31.4326557675
 11
159.1128043074
 21
31.3681283946
  0
LINE
  8
0
 62
7
  6
CONTINUOUS
 10
159.245872955
 20
32.3970785186
 11
159.245872955
 21
34.5282260596
  0
LINE
  8
0
 62
7
  6
CONTINUOUS
 10
159.5737418074
 20
36.1675703219
 11
159.5737418074
 21
32.3970785186
  0
LINE
  8
0
 62
7
  6
CONTINUOUS
 10
154.2565543074
 20
30.9164367395
 11
154.3143669177
 21
31.0132277988
  0
LINE
  8
0
 62
7
  6
CONTINUOUS
 10
149.8628043005
 20
30.7228545871
 11
150.0362418212
 21
30.6583272086
  0
LINE
  8
0
 62
7
  6
CONTINUOUS
 10
151.3659292523
 20
31.4326557675
 11
151.1924917523
 21
31.5294468267
  0
LINE
  8
0
 62
7
  6
CONTINUOUS
 10
154.0253041972
 20
30.7551182848
 11
154.1987416972
 21
30.6583272086
  0
LINE
  8
0
 62
7
  6
CONTINUOUS
 10
153.0424918074
 20
31.4326557675
 11
153.1581166972
 21
31.3681283946
  0
LINE
  8
0
 62
7
  6
CONTINUOUS
 10
153.3893668074
 20
31.4649194539
 11
153.2737419177
 21
31.5294468267
  0
LINE
  8
0
 62
7
  6
CONTINUOUS
 10
159.1128043074
 20
30.8519093441
 11
159.228429528
 21
30.7228545871
  0
LINE
  8
0
 62
7
  6
CONTINUOUS
 10
159.4596793074
 20
30.7873819712
 11
159.401867028
 21
30.8519093441
  0
LINE
  8
0
 62
7
  6
CONTINUOUS
 10
159.1128043074
 20
31.3681283946
 11
159.228429528
 21
31.2390736489
  0
LINE
  8
0
 62
7
  6
CONTINUOUS
 10
158.5924918074
 20
31.3681283946
 11
158.534679528
 21
31.4649194539
  0
LINE
  8
0
 62
7
  6
CONTINUOUS
 10
160.9628038663
 20
30.7873819712
 11
160.9628038663
 21
30.8519093441
  0
LINE
  8
0
 62
7
  6
CONTINUOUS
 10
160.9671844304
 20
32.3970785186
 11
160.9671844304
 21
36.1675703219
  0
LINE
  8
0
 62
7
  6
CONTINUOUS
 10
154.0253041972
 20
31.4971831403
 11
153.9674919177
 21
31.4326557675
  0
LINE
  8
0
 62
7
  6
CONTINUOUS
 10
150.9034292799
 20
31.4649194539
 11
151.0768668626
 21
31.400392081
  0
LINE
  8
0
 62
7
  6
CONTINUOUS
 10
155.6440543074
 20
31.4649194539
 11
155.5284290869
 21
31.5294468267
  0
LINE
  8
0
 62
7
  6
CONTINUOUS
 10
159.4596793074
 20
31.3036010218
 11
159.401867028
 21
31.3681283946
  0
LINE
  8
0
 62
7
  6
CONTINUOUS
 10
160.615929528
 20
30.9164367395
 11
160.6737418074
 21
30.8519093441
  0
LINE
  8
0
 62
7
  6
CONTINUOUS
 10
160.9628038663
 20
30.8519093441
 11
160.8471793074
 21
30.9809641124
  0
LINE
  8
0
 62
7
  6
CONTINUOUS
 10
160.615929528
 20
31.4326557675
 11
160.6737418074
 21
31.3681283946
  0
LINE
  8
0
 62
7
  6
CONTINUOUS
 10
160.9628038663
 20
31.3681283946
 11
160.8471793074
 21
31.4971831403
  0
LINE
  8
0
 62
7
  6
CONTINUOUS
 10
154.2565543074
 20
31.3681283946
 11
154.3143669177
 21
31.4326557675
  0
LINE
  8
0
 62
7
  6
CONTINUOUS
 10
154.0831168074
 20
31.1100188581
 11
153.9674919177
 21
30.9809641124
  0
LINE
  8
0
 62
7
  6
CONTINUOUS
 10
155.412804528
 20
30.9487004259
 11
155.3549915869
 21
30.8841730531
  0
LINE
  8
0
 62
7
  6
CONTINUOUS
 10
155.3549915869
 20
30.6905909007
 11
155.412804528
 21
30.7551182848
  0
LINE
  8
0
 62
7
  6
CONTINUOUS
 10
154.1987416972
 20
30.6583272086
 11
154.3143669177
 21
30.6260635193
  0
LINE
  8
0
 62
7
  6
CONTINUOUS
 10
151.1924917523
 20
31.5294468267
 11
150.9612418074
 21
31.5939741996
  0
LINE
  8
0
 62
7
  6
CONTINUOUS
 10
154.5456166972
 20
30.7228545871
 11
154.3143669177
 21
30.7873819712
  0
LINE
  8
0
 62
7
  6
CONTINUOUS
 10
153.2737419177
 20
31.5294468267
 11
153.1003044177
 21
31.5939741996
  0
LINE
  8
0
 62
7
  6
CONTINUOUS
 10
155.5284290869
 20
31.5294468267
 11
155.3549915869
 21
31.5939741996
  0
LINE
  8
0
 62
7
  6
CONTINUOUS
 10
158.187804528
 20
31.4326557675
 11
158.3034290869
 21
31.3681283946
  0
LINE
  8
0
 62
7
  6
CONTINUOUS
 10
158.534679528
 20
31.4649194539
 11
158.4190543074
 21
31.5294468267
  0
LINE
  8
0
 62
7
  6
CONTINUOUS
 10
150.0362418212
 20
30.6583272086
 11
150.2096793212
 21
30.6260635193
  0
LINE
  8
0
 62
7
  6
CONTINUOUS
 10
150.498741835
 20
30.7228545871
 11
150.1518667936
 21
30.7873819712
  0
LINE
  8
0
 62
7
  6
CONTINUOUS
 10
152.9268669177
 20
31.4649194539
 11
153.0424918074
 21
31.4326557675
  0
LINE
  8
0
 62
7
  6
CONTINUOUS
 10
155.239367028
 20
31.4649194539
 11
155.3549915869
 21
31.4326557675
  0
LINE
  8
0
 62
7
  6
CONTINUOUS
 10
159.575304528
 20
30.7551182848
 11
159.4596793074
 21
30.7873819712
  0
LINE
  8
0
 62
7
  6
CONTINUOUS
 10
158.0721793074
 20
31.4649194539
 11
158.187804528
 21
31.4326557675
  0
LINE
  8
0
 62
7
  6
CONTINUOUS
 10
159.228429528
 20
30.7228545871
 11
159.401867028
 21
30.6583272086
  0
LINE
  8
0
 62
7
  6
CONTINUOUS
 10
158.4190543074
 20
31.5294468267
 11
158.2456168074
 21
31.5939741996
  0
LINE
  8
0
 62
7
  6
CONTINUOUS
 10
159.6331168074
 20
31.2390736489
 11
159.4596793074
 21
31.3036010218
  0
LINE
  8
0
 62
7
  6
CONTINUOUS
 10
160.442492028
 20
30.9809641124
 11
160.615929528
 21
30.9164367395
  0
LINE
  8
0
 62
7
  6
CONTINUOUS
 10
160.8471793074
 20
31.4971831403
 11
160.6737418074
 21
31.5617105132
  0
LINE
  8
0
 62
7
  6
CONTINUOUS
 10
159.228429528
 20
31.2390736489
 11
159.4596793074
 21
31.1422825445
  0
LINE
  8
0
 62
7
  6
CONTINUOUS
 10
160.8471793074
 20
30.9809641124
 11
160.615929528
 21
31.0777551716
  0
LINE
  8
0
 62
7
  6
CONTINUOUS
 10
159.401867028
 20
31.3681283946
 11
159.4596793074
 21
31.4326557675
  0
LINE
  8
0
 62
7
  6
CONTINUOUS
 10
149.8628043005
 20
31.4971831403
 11
149.7471793074
 21
31.4326557675
  0
LINE
  8
0
 62
7
  6
CONTINUOUS
 10
149.9784292936
 20
31.3358647082
 11
150.1518667936
 21
31.4326557675
  0
LINE
  8
0
 62
7
  6
CONTINUOUS
 10
152.2909293626
 20
31.5294468267
 11
152.1753043074
 21
31.4649194539
  0
LINE
  8
0
 62
7
  6
CONTINUOUS
 10
152.1753043074
 20
31.3358647082
 11
152.2909293626
 21
31.400392081
  0
LINE
  8
0
 62
7
  6
CONTINUOUS
 10
151.1924917523
 20
30.6905909007
 11
151.3659292523
 21
30.7873819712
  0
LINE
  8
0
 62
7
  6
CONTINUOUS
 10
150.2096793212
 20
30.6260635193
 11
150.5565542799
 21
30.5937998301
  0
LINE
  8
0
 62
7
  6
CONTINUOUS
 10
154.3143669177
 20
30.6260635193
 11
154.5456166972
 21
30.5937998301
  0
LINE
  8
0
 62
7
  6
CONTINUOUS
 10
152.6956168074
 20
31.4971831403
 11
152.9268669177
 21
31.4649194539
  0
LINE
  8
0
 62
7
  6
CONTINUOUS
 10
155.0081169177
 20
31.4971831403
 11
155.239367028
 21
31.4649194539
  0
LINE
  8
0
 62
7
  6
CONTINUOUS
 10
159.4596793074
 20
31.1422825445
 11
160.442492028
 21
30.9809641124
  0
LINE
  8
0
 62
7
  6
CONTINUOUS
 10
160.615929528
 20
31.0777551716
 11
159.6331168074
 21
31.2390736489
  0
LINE
  8
0
 62
7
  6
CONTINUOUS
 10
153.1003044177
 20
31.5939741996
 11
152.9268669177
 21
31.626237886
  0
LINE
  8
0
 62
7
  6
CONTINUOUS
 10
159.401867028
 20
30.6583272086
 11
159.575304528
 21
30.6260635193
  0
LINE
  8
0
 62
7
  6
CONTINUOUS
 10
158.2456168074
 20
31.5939741996
 11
158.0721793074
 21
31.626237886
  0
LINE
  8
0
 62
7
  6
CONTINUOUS
 10
160.5003043074
 20
31.4649194539
 11
160.615929528
 21
31.4326557675
  0
LINE
  8
0
 62
7
  6
CONTINUOUS
 10
160.6737418074
 20
30.8519093441
 11
160.615929528
 21
30.7873819712
  0
LINE
  8
0
 62
7
  6
CONTINUOUS
 10
159.228429528
 20
31.5294468267
 11
159.1128043074
 21
31.4326557675
  0
LINE
  8
0
 62
7
  6
CONTINUOUS
 10
154.1409294177
 20
31.5617105132
 11
154.0253041972
 21
31.4971831403
  0
LINE
  8
0
 62
7
  6
CONTINUOUS
 10
154.1987416972
 20
31.1745462761
 11
154.0831168074
 21
31.1100188581
  0
LINE
  8
0
 62
7
  6
CONTINUOUS
 10
154.3143669177
 20
31.0132277988
 11
154.4299918074
 21
31.0777551716
  0
LINE
  8
0
 62
7
  6
CONTINUOUS
 10
151.8862417523
 20
30.5937998301
 11
152.1753043074
 21
30.5937998301
  0
LINE
  8
0
 62
7
  6
CONTINUOUS
 10
153.2159293074
 20
30.5937998301
 11
153.5049916972
 21
30.5937998301
  0
LINE
  8
0
 62
7
  6
CONTINUOUS
 10
154.5456166972
 20
30.5937998301
 11
154.8924916972
 21
30.5937998301
  0
LINE
  8
0
 62
7
  6
CONTINUOUS
 10
155.5284290869
 20
30.5937998301
 11
155.8174918074
 21
30.5937998301
  0
LINE
  8
0
 62
7
  6
CONTINUOUS
 10
156.279992028
 20
30.5937998301
 11
156.5690540869
 21
30.5937998301
  0
LINE
  8
0
 62
7
  6
CONTINUOUS
 10
157.0315543074
 20
30.5937998301
 11
157.320617028
 21
30.5937998301
  0
LINE
  8
0
 62
7
  6
CONTINUOUS
 10
158.361242028
 20
30.5937998301
 11
158.6503040869
 21
30.5937998301
  0
LINE
  8
0
 62
7
  6
CONTINUOUS
 10
159.922179528
 20
30.5937998301
 11
160.269054528
 21
30.5937998301
  0
LINE
  8
0
 62
7
  6
CONTINUOUS
 10
160.269054528
 20
30.7228545871
 11
159.922179528
 21
30.7228545871
  0
LINE
  8
0
 62
7
  6
CONTINUOUS
 10
154.8924916972
 20
30.7228545871
 11
154.5456166972
 21
30.7228545871
  0
LINE
  8
0
 62
7
  6
CONTINUOUS
 10
159.401867028
 20
30.8519093441
 11
159.1128043074
 21
30.8519093441
  0
LINE
  8
0
 62
7
  6
CONTINUOUS
 10
151.4237418626
 20
30.9164367395
 11
151.1346793074
 21
30.9164367395
  0
LINE
  8
0
 62
7
  6
CONTINUOUS
 10
150.498741835
 20
31.4971831403
 11
150.9034292799
 21
31.4649194539
  0
LINE
  8
0
 62
7
  6
CONTINUOUS
 10
150.9612418074
 20
31.5939741996
 11
150.5565542799
 21
31.626237886
  0
LINE
  8
0
 62
7
  6
CONTINUOUS
 10
159.575304528
 20
30.6260635193
 11
159.922179528
 21
30.5937998301
  0
LINE
  8
0
 62
7
  6
CONTINUOUS
 10
159.922179528
 20
30.7228545871
 11
159.575304528
 21
30.7551182848
  0
LINE
  8
0
 62
7
  6
CONTINUOUS
 10
155.3549915869
 20
31.5939741996
 11
155.0081169177
 21
31.626237886
  0
LINE
  8
0
 62
7
  6
CONTINUOUS
 10
160.1534293074
 20
31.4971831403
 11
160.5003043074
 21
31.4649194539
  0
LINE
  8
0
 62
7
  6
CONTINUOUS
 10
160.5003043074
 20
31.5939741996
 11
160.1534293074
 21
31.626237886
  0
LINE
  8
0
 62
7
  6
CONTINUOUS
 10
157.840929528
 20
31.4971831403
 11
158.0721793074
 21
31.4649194539
  0
LINE
  8
0
 62
7
  6
CONTINUOUS
 10
160.6737418074
 20
31.5617105132
 11
160.5003043074
 21
31.5939741996
  0
LINE
  8
0
 62
7
  6
CONTINUOUS
 10
160.8471793074
 20
30.6905909007
 11
160.9628038663
 21
30.7873819712
  0
LINE
  8
0
 62
7
  6
CONTINUOUS
 10
155.3549915869
 20
30.8841730531
 11
155.1815540869
 21
30.7873819712
  0
LINE
  8
0
 62
7
  6
CONTINUOUS
 10
157.4362415869
 20
31.5294468267
 11
157.320617028
 21
31.4649194539
  0
LINE
  8
0
 62
7
  6
CONTINUOUS
 10
157.320617028
 20
31.3358647082
 11
157.4362415869
 21
31.400392081
  0
LINE
  8
0
 62
7
  6
CONTINUOUS
 10
150.0362418212
 20
31.5617105132
 11
149.8628043005
 21
31.4971831403
  0
LINE
  8
0
 62
7
  6
CONTINUOUS
 10
152.4643666972
 20
31.5939741996
 11
152.2909293626
 21
31.5294468267
  0
LINE
  8
0
 62
7
  6
CONTINUOUS
 10
152.2909293626
 20
31.400392081
 11
152.4643666972
 21
31.4649194539
  0
LINE
  8
0
 62
7
  6
CONTINUOUS
 10
151.0768668626
 20
30.8196456577
 11
150.9034292799
 21
30.7551182848
  0
LINE
  8
0
 62
7
  6
CONTINUOUS
 10
160.5003043074
 20
30.7551182848
 11
160.269054528
 21
30.7228545871
  0
LINE
  8
0
 62
7
  6
CONTINUOUS
 10
154.8924916972
 20
30.5937998301
 11
155.1815540869
 21
30.6260635193
  0
LINE
  8
0
 62
7
  6
CONTINUOUS
 10
160.269054528
 20
30.5937998301
 11
160.615929528
 21
30.6260635193
  0
LINE
  8
0
 62
7
  6
CONTINUOUS
 10
150.5565542799
 20
30.5937998301
 11
150.9612418074
 21
30.6260635193
  0
LINE
  8
0
 62
7
  6
CONTINUOUS
 10
150.9034292799
 20
30.7551182848
 11
150.498741835
 21
30.7228545871
  0
LINE
  8
0
 62
7
  6
CONTINUOUS
 10
154.7768668074
 20
31.1422825445
 11
155.412804528
 21
31.1422825445
  0
LINE
  8
0
 62
7
  6
CONTINUOUS
 10
155.412804528
 20
31.2713373354
 11
154.7768668074
 21
31.2713373354
  0
LINE
  8
0
 62
7
  6
CONTINUOUS
 10
151.1346793074
 20
31.3036010218
 11
151.4237418626
 21
31.3036010218
  0
LINE
  8
0
 62
7
  6
CONTINUOUS
 10
153.9674919177
 20
31.3681283946
 11
154.2565543074
 21
31.3681283946
  0
LINE
  8
0
 62
7
  6
CONTINUOUS
 10
160.6737418074
 20
31.3681283946
 11
160.9628038663
 21
31.3681283946
  0
LINE
  8
0
 62
7
  6
CONTINUOUS
 10
154.6612419177
 20
31.4971831403
 11
155.0081169177
 21
31.4971831403
  0
LINE
  8
0
 62
7
  6
CONTINUOUS
 10
159.8065543074
 20
31.4971831403
 11
160.1534293074
 21
31.4971831403
  0
LINE
  8
0
 62
7
  6
CONTINUOUS
 10
160.1534293074
 20
31.626237886
 11
159.8065543074
 21
31.626237886
  0
LINE
  8
0
 62
7
  6
CONTINUOUS
 10
158.0721793074
 20
31.626237886
 11
157.840929528
 21
31.626237886
  0
LINE
  8
0
 62
7
  6
CONTINUOUS
 10
157.320617028
 20
31.626237886
 11
157.0315543074
 21
31.626237886
  0
LINE
  8
0
 62
7
  6
CONTINUOUS
 10
156.5690540869
 20
31.626237886
 11
156.279992028
 21
31.626237886
  0
LINE
  8
0
 62
7
  6
CONTINUOUS
 10
155.0081169177
 20
31.626237886
 11
154.6612419177
 21
31.626237886
  0
LINE
  8
0
 62
7
  6
CONTINUOUS
 10
152.9268669177
 20
31.626237886
 11
152.6956168074
 21
31.626237886
  0
LINE
  8
0
 62
7
  6
CONTINUOUS
 10
156.279992028
 20
31.9488748406
 11
156.5690540869
 21
31.9488748406
  0
LINE
  8
0
 62
7
  6
CONTINUOUS
 10
156.5690540869
 20
32.1101932727
 11
156.279992028
 21
32.1101932727
  0
LINE
  8
0
 62
7
  6
CONTINUOUS
 10
152.1753043074
 20
32.1101932727
 11
151.8862417523
 21
32.1101932727
  0
LINE
  8
0
 62
7
  6
CONTINUOUS
 10
151.2130860697
 20
32.3970785186
 11
151.6256574183
 21
32.3970785186
  0
LINE
  8
0
 62
7
  6
CONTINUOUS
 10
152.852430332
 20
32.3970785186
 11
154.245872955
 21
32.3970785186
  0
LINE
  8
0
 62
7
  6
CONTINUOUS
 10
154.5737418074
 20
32.3970785186
 11
155.9671844304
 21
32.3970785186
  0
LINE
  8
0
 62
7
  6
CONTINUOUS
 10
157.852430332
 20
32.3970785186
 11
159.245872955
 21
32.3970785186
  0
LINE
  8
0
 62
7
  6
CONTINUOUS
 10
159.5737418074
 20
32.3970785186
 11
160.9671844304
 21
32.3970785186
  0
LINE
  8
0
 62
7
  6
CONTINUOUS
 10
157.6096790869
 20
31.5939741996
 11
157.4362415869
 21
31.5294468267
  0
LINE
  8
0
 62
7
  6
CONTINUOUS
 10
155.1815540869
 20
30.6260635193
 11
155.3549915869
 21
30.6905909007
  0
LINE
  8
0
 62
7
  6
CONTINUOUS
 10
160.615929528
 20
30.6260635193
 11
160.8471793074
 21
30.6905909007
  0
LINE
  8
0
 62
7
  6
CONTINUOUS
 10
160.615929528
 20
30.7873819712
 11
160.5003043074
 21
30.7551182848
  0
LINE
  8
0
 62
7
  6
CONTINUOUS
 10
159.575304528
 20
31.4649194539
 11
159.8065543074
 21
31.4971831403
  0
LINE
  8
0
 62
7
  6
CONTINUOUS
 10
157.6096790869
 20
31.4649194539
 11
157.840929528
 21
31.4971831403
  0
LINE
  8
0
 62
7
  6
CONTINUOUS
 10
154.5456166972
 20
31.1100188581
 11
154.7768668074
 21
31.1422825445
  0
LINE
  8
0
 62
7
  6
CONTINUOUS
 10
157.840929528
 20
31.626237886
 11
157.6096790869
 21
31.5939741996
  0
LINE
  8
0
 62
7
  6
CONTINUOUS
 10
154.4299918074
 20
31.4649194539
 11
154.6612419177
 21
31.4971831403
  0
LINE
  8
0
 62
7
  6
CONTINUOUS
 10
159.8065543074
 20
31.626237886
 11
159.4596793074
 21
31.5939741996
  0
LINE
  8
0
 62
7
  6
CONTINUOUS
 10
154.7768668074
 20
31.2713373354
 11
154.4299918074
 21
31.2390736489
  0
LINE
  8
0
 62
7
  6
CONTINUOUS
 10
150.5565542799
 20
31.626237886
 11
150.2096793212
 21
31.5939741996
  0
LINE
  8
0
 62
7
  6
CONTINUOUS
 10
154.6612419177
 20
31.626237886
 11
154.2565543074
 21
31.5939741996
  0
LINE
  8
0
 62
7
  6
CONTINUOUS
 10
152.0327582009
 20
33.5446195022
 11
151.3770204959
 21
33.5446195022
  0
LINE
  8
0
 62
7
  6
CONTINUOUS
 10
157.4362415869
 20
31.400392081
 11
157.6096790869
 21
31.4649194539
  0
LINE
  8
0
 62
7
  6
CONTINUOUS
 10
159.4596793074
 20
31.4326557675
 11
159.575304528
 21
31.4649194539
  0
LINE
  8
0
 62
7
  6
CONTINUOUS
 10
159.4596793074
 20
31.5939741996
 11
159.228429528
 21
31.5294468267
  0
LINE
  8
0
 62
7
  6
CONTINUOUS
 10
155.1815540869
 20
30.7873819712
 11
154.8924916972
 21
30.7228545871
  0
LINE
  8
0
 62
7
  6
CONTINUOUS
 10
152.4643666972
 20
31.4649194539
 11
152.6956168074
 21
31.4971831403
  0
LINE
  8
0
 62
7
  6
CONTINUOUS
 10
152.6956168074
 20
31.626237886
 11
152.4643666972
 21
31.5939741996
  0
LINE
  8
0
 62
7
  6
CONTINUOUS
 10
150.2674918074
 20
31.4649194539
 11
150.498741835
 21
31.4971831403
  0
LINE
  8
0
 62
7
  6
CONTINUOUS
 10
156.7868565615
 20
35.0200293383
 11
157.4425942664
 21
35.0200293383
  0
LINE
  8
0
 62
7
  6
CONTINUOUS
 10
154.4299918074
 20
31.0777551716
 11
154.5456166972
 21
31.1100188581
  0
LINE
  8
0
 62
7
  6
CONTINUOUS
 10
154.4299918074
 20
31.2390736489
 11
154.1987416972
 21
31.1745462761
  0
LINE
  8
0
 62
7
  6
CONTINUOUS
 10
154.3143669177
 20
31.4326557675
 11
154.4299918074
 21
31.4649194539
  0
LINE
  8
0
 62
7
  6
CONTINUOUS
 10
150.9612418074
 20
30.6260635193
 11
151.1924917523
 21
30.6905909007
  0
LINE
  8
0
 62
7
  6
CONTINUOUS
 10
154.2565543074
 20
31.5939741996
 11
154.1409294177
 21
31.5617105132
  0
LINE
  8
0
 62
7
  6
CONTINUOUS
 10
150.2096793212
 20
31.5939741996
 11
150.0362418212
 21
31.5617105132
  0
LINE
  8
0
 62
7
  6
CONTINUOUS
 10
160.9671844304
 20
36.1675703219
 11
159.5737418074
 21
36.1675703219
  0
LINE
  8
0
 62
7
  6
CONTINUOUS
 10
157.6065286927
 20
36.1675703219
 11
157.1939573441
 21
36.1675703219
  0
LINE
  8
0
 62
7
  6
CONTINUOUS
 10
155.9671844304
 20
36.1675703219
 11
154.5737418074
 21
36.1675703219
  0
LINE
  8
0
 62
7
  6
CONTINUOUS
 10
154.245872955
 20
36.1675703219
 11
152.852430332
 21
36.1675703219
  0
LINE
  8
0
 62
7
  6
CONTINUOUS
 10
150.9671844304
 20
36.1675703219
 11
149.5737418074
 21
36.1675703219
  0
LINE
  8
0
 62
7
  6
CONTINUOUS
 10
150.1518667936
 20
31.4326557675
 11
150.2674918074
 21
31.4649194539
  0
CIRCLE
  8
0
 62
7
  6
CONTINUOUS
 10
160.2704631189
 20
38.5036358957
 40
2.0901639344
  0
ARC
  8
0
 62
7
  6
CONTINUOUS
 10
151.2130860697
 20
34.0364227809
 40
1.6393442623
 50
180.0
 51
270.0
  0
ARC
  8
0
 62
7
  6
CONTINUOUS
 10
157.6065286927
 20
34.5282260596
 40
1.6393442623
 50
0.0
 51
90.0
  0
ARC
  8
0
 62
7
  6
CONTINUOUS
 10
151.6256574183
 20
33.8724883547
 40
1.4754098361
 50
270.0
 51
326.2510114041
  0
ARC
  8
0
 62
7
  6
CONTINUOUS
 10
157.1939573441
 20
34.6921604858
 40
1.4754098361
 50
90.0
 51
146.2510114041
  0
ARC
  8
0
 62
7
  6
CONTINUOUS
 10
152.0327582009
 20
34.3642916334
 40
0.8196721311
 50
270.0
 51
360.0
  0
ARC
  8
0
 62
7
  6
CONTINUOUS
 10
156.7868565615
 20
34.2003572071
 40
0.8196721311
 50
90.0
 51
180.0
  0
ARC
  8
0
 62
7
  6
CONTINUOUS
 10
151.3770204959
 20
33.9544555678
 40
0.4098360656
 50
180.0
 51
270.0
  0
ARC
  8
0
 62
7
  6
CONTINUOUS
 10
157.4425942664
 20
34.6101932727
 40
0.4098360656
 50
0.0
 51
90.0
  0
SOLID
  8
0
 62
7
  6
CONTINUOUS
 10
156.279992028
 20
31.9488752009
 11
156.279992028
 21
32.1101936845
 12
156.5690540869
 22
31.9488752009
 13
156.5690540869
 23
32.1101936845
  0
SOLID
  8
0
 62
7
  6
CONTINUOUS
 10
150.5565542799
 20
31.6262382337
 11
150.9612418074
 21
31.5939740028
 12
150.2096793212
 22
31.5939740028
 13
150.2096793212
 23
31.5939740028
  0
SOLID
  8
0
 62
7
  6
CONTINUOUS
 10
150.0362418212
 20
31.5617111435
 11
150.2096793212
 21
31.5939740028
 12
150.9612418074
 22
31.5939740028
 13
150.9612418074
 23
31.5939740028
  0
SOLID
  8
0
 62
7
  6
CONTINUOUS
 10
150.9612418074
 20
31.5939740028
 11
151.1924917523
 21
31.5294468402
 12
150.0362418212
 22
31.5617111435
 13
150.0362418212
 23
31.5617111435
  0
SOLID
  8
0
 62
7
  6
CONTINUOUS
 10
149.8628043005
 20
31.49718259
 11
150.0362418212
 21
31.5617111435
 12
151.1924917523
 22
31.5294468402
 13
151.1924917523
 23
31.5294468402
  0
SOLID
  8
0
 62
7
  6
CONTINUOUS
 10
149.8628043005
 20
31.49718259
 11
151.1924917523
 21
31.5294468402
 12
150.498741835
 22
31.49718259
 13
150.498741835
 23
31.49718259
  0
SOLID
  8
0
 62
7
  6
CONTINUOUS
 10
150.498741835
 20
31.49718259
 11
151.1924917523
 21
31.5294468402
 12
150.9034292799
 22
31.4649197501
 13
150.9034292799
 23
31.4649197501
  0
SOLID
  8
0
 62
7
  6
CONTINUOUS
 10
151.1924917523
 20
31.5294468402
 11
151.3659292523
 21
31.4326554468
 12
150.9034292799
 22
31.4649197501
 13
150.9034292799
 23
31.4649197501
  0
SOLID
  8
0
 62
7
  6
CONTINUOUS
 10
151.0768668626
 20
31.4003926599
 11
150.9034292799
 21
31.4649197501
 12
151.3659292523
 22
31.4326554468
 13
151.3659292523
 23
31.4326554468
  0
SOLID
  8
0
 62
7
  6
CONTINUOUS
 10
151.0768668626
 20
31.4003926599
 11
151.3659292523
 21
31.4326554468
 12
151.1346793074
 22
31.3036013776
 13
151.1346793074
 23
31.3036013776
  0
SOLID
  8
0
 62
7
  6
CONTINUOUS
 10
151.3659292523
 20
31.4326554468
 11
151.4237418626
 21
31.3036013776
 12
151.1346793074
 22
31.3036013776
 13
151.1346793074
 23
31.3036013776
  0
SOLID
  8
0
 62
7
  6
CONTINUOUS
 10
152.4643666972
 20
31.5939739754
 11
152.6956168074
 21
31.6262382787
 12
152.9268669177
 22
31.6262382787
 13
152.9268669177
 23
31.6262382787
  0
SOLID
  8
0
 62
7
  6
CONTINUOUS
 10
152.9268669177
 20
31.6262382787
 11
153.1003044177
 21
31.5939739754
 12
152.4643666972
 22
31.5939739754
 13
152.4643666972
 23
31.5939739754
  0
SOLID
  8
0
 62
7
  6
CONTINUOUS
 10
152.2909293626
 20
31.5294468852
 11
152.4643666972
 21
31.5939739754
 12
153.1003044177
 22
31.5939739754
 13
153.1003044177
 23
31.5939739754
  0
SOLID
  8
0
 62
7
  6
CONTINUOUS
 10
153.1003044177
 20
31.5939739754
 11
153.2737419177
 21
31.5294468852
 12
152.2909293626
 22
31.5294468852
 13
152.2909293626
 23
31.5294468852
  0
SOLID
  8
0
 62
7
  6
CONTINUOUS
 10
153.2737419177
 20
31.5294468852
 11
152.6956168074
 21
31.4971825369
 12
152.2909293626
 22
31.5294468852
 13
152.2909293626
 23
31.5294468852
  0
SOLID
  8
0
 62
7
  6
CONTINUOUS
 10
152.1753043074
 20
31.4649197951
 11
152.2909293626
 21
31.5294468852
 12
152.6956168074
 22
31.4971825369
 13
152.6956168074
 23
31.4971825369
  0
SOLID
  8
0
 62
7
  6
CONTINUOUS
 10
152.6956168074
 20
31.4971825369
 11
152.4643666972
 21
31.4649197951
 12
152.1753043074
 22
31.4649197951
 13
152.1753043074
 23
31.4649197951
  0
SOLID
  8
0
 62
7
  6
CONTINUOUS
 10
152.6956168074
 20
31.4971825369
 11
153.2737419177
 21
31.5294468852
 12
152.9268669177
 22
31.4649197951
 13
152.9268669177
 23
31.4649197951
  0
SOLID
  8
0
 62
7
  6
CONTINUOUS
 10
153.2737419177
 20
31.5294468852
 11
153.3893668074
 21
31.4649197951
 12
152.9268669177
 22
31.4649197951
 13
152.9268669177
 23
31.4649197951
  0
SOLID
  8
0
 62
7
  6
CONTINUOUS
 10
153.0424918074
 20
31.4326554468
 11
152.9268669177
 21
31.4649197951
 12
153.3893668074
 22
31.4649197951
 13
153.3893668074
 23
31.4649197951
  0
SOLID
  8
0
 62
7
  6
CONTINUOUS
 10
153.3893668074
 20
31.4649197951
 11
153.4471794177
 21
31.4003927049
 12
153.0424918074
 22
31.4326554468
 13
153.0424918074
 23
31.4326554468
  0
SOLID
  8
0
 62
7
  6
CONTINUOUS
 10
153.1581166972
 20
31.3681283566
 11
153.0424918074
 21
31.4326554468
 12
153.4471794177
 22
31.4003927049
 13
153.4471794177
 23
31.4003927049
  0
SOLID
  8
0
 62
7
  6
CONTINUOUS
 10
153.1581166972
 20
31.3681283566
 11
153.4471794177
 21
31.4003927049
 12
153.2159293074
 22
31.2390742213
 13
153.2159293074
 23
31.2390742213
  0
SOLID
  8
0
 62
7
  6
CONTINUOUS
 10
153.4471794177
 20
31.4003927049
 11
153.5049916972
 21
31.2390742213
 12
153.2159293074
 22
31.2390742213
 13
153.2159293074
 23
31.2390742213
  0
SOLID
  8
0
 62
7
  6
CONTINUOUS
 10
152.4643666972
 20
31.4649197951
 11
152.2909293626
 21
31.4003927049
 12
152.1753043074
 22
31.4649197951
 13
152.1753043074
 23
31.4649197951
  0
SOLID
  8
0
 62
7
  6
CONTINUOUS
 10
152.2909293626
 20
31.4003927049
 11
152.1753043074
 21
31.3358640533
 12
152.1753043074
 22
31.4649197951
 13
152.1753043074
 23
31.4649197951
  0
SOLID
  8
0
 62
7
  6
CONTINUOUS
 10
152.1753043074
 20
31.3358640533
 11
151.8862417523
 21
30.5938002869
 12
152.1753043074
 22
31.4649197951
 13
152.1753043074
 23
31.4649197951
  0
SOLID
  8
0
 62
7
  6
CONTINUOUS
 10
152.1753043074
 20
31.4649197951
 11
151.8862417523
 21
30.5938002869
 12
152.1753043074
 22
32.1101937295
 13
152.1753043074
 23
32.1101937295
  0
SOLID
  8
0
 62
7
  6
CONTINUOUS
 10
151.8862417523
 20
30.5938002869
 11
151.8862417523
 21
32.1101937295
 12
152.1753043074
 22
32.1101937295
 13
152.1753043074
 23
32.1101937295
  0
SOLID
  8
0
 62
7
  6
CONTINUOUS
 10
152.1753043074
 20
31.3358640533
 11
152.1753043074
 21
30.5938002869
 12
151.8862417523
 22
30.5938002869
 13
151.8862417523
 23
30.5938002869
  0
SOLID
  8
0
 62
7
  6
CONTINUOUS
 10
153.2159293074
 20
30.5938002869
 11
153.2159293074
 21
31.2390742213
 12
153.5049916972
 22
31.2390742213
 13
153.5049916972
 23
31.2390742213
  0
SOLID
  8
0
 62
7
  6
CONTINUOUS
 10
153.5049916972
 20
31.2390742213
 11
153.5049916972
 21
30.5938002869
 12
153.2159293074
 22
30.5938002869
 13
153.2159293074
 23
30.5938002869
  0
SOLID
  8
0
 62
7
  6
CONTINUOUS
 10
154.2565543074
 20
31.5939738288
 11
154.6612419177
 21
31.6262385959
 12
155.0081169177
 22
31.6262385959
 13
155.0081169177
 23
31.6262385959
  0
SOLID
  8
0
 62
7
  6
CONTINUOUS
 10
155.0081169177
 20
31.6262385959
 11
155.3549915869
 21
31.5939738288
 12
154.2565543074
 22
31.5939738288
 13
154.2565543074
 23
31.5939738288
  0
SOLID
  8
0
 62
7
  6
CONTINUOUS
 10
154.1409294177
 20
31.5617111435
 11
154.2565543074
 21
31.5939738288
 12
155.3549915869
 22
31.5939738288
 13
155.3549915869
 23
31.5939738288
  0
SOLID
  8
0
 62
7
  6
CONTINUOUS
 10
155.3549915869
 20
31.5939738288
 11
155.5284290869
 21
31.5294468402
 12
154.1409294177
 22
31.5617111435
 13
154.1409294177
 23
31.5617111435
  0
SOLID
  8
0
 62
7
  6
CONTINUOUS
 10
154.0253041972
 20
31.4971826249
 11
154.1409294177
 21
31.5617111435
 12
155.5284290869
 22
31.5294468402
 13
155.5284290869
 23
31.5294468402
  0
SOLID
  8
0
 62
7
  6
CONTINUOUS
 10
154.0253041972
 20
31.4971826249
 11
155.5284290869
 21
31.5294468402
 12
154.6612419177
 22
31.4971826249
 13
154.6612419177
 23
31.4971826249
  0
SOLID
  8
0
 62
7
  6
CONTINUOUS
 10
154.6612419177
 20
31.4971826249
 11
155.5284290869
 21
31.5294468402
 12
155.0081169177
 22
31.4971826249
 13
155.0081169177
 23
31.4971826249
  0
SOLID
  8
0
 62
7
  6
CONTINUOUS
 10
155.0081169177
 20
31.4971826249
 11
155.5284290869
 21
31.5294468402
 12
155.239367028
 22
31.4649194065
 13
155.239367028
 23
31.4649194065
  0
SOLID
  8
0
 62
7
  6
CONTINUOUS
 10
155.5284290869
 20
31.5294468402
 11
155.6440543074
 21
31.4649194065
 12
155.239367028
 22
31.4649194065
 13
155.239367028
 23
31.4649194065
  0
SOLID
  8
0
 62
7
  6
CONTINUOUS
 10
153.9674919177
 20
31.4326554138
 11
154.0253041972
 21
31.4971826249
 12
154.6612419177
 22
31.4971826249
 13
154.6612419177
 23
31.4971826249
  0
SOLID
  8
0
 62
7
  6
CONTINUOUS
 10
155.3549915869
 20
31.4326554138
 11
155.239367028
 21
31.4649194065
 12
155.6440543074
 22
31.4649194065
 13
155.6440543074
 23
31.4649194065
  0
SOLID
  8
0
 62
7
  6
CONTINUOUS
 10
155.3549915869
 20
31.4326554138
 11
155.6440543074
 21
31.4649194065
 12
155.412804528
 22
31.3681282026
 13
155.412804528
 23
31.3681282026
  0
SOLID
  8
0
 62
7
  6
CONTINUOUS
 10
155.6440543074
 20
31.4649194065
 11
155.7018665869
 21
31.3681282026
 12
155.412804528
 22
31.3681282026
 13
155.412804528
 23
31.3681282026
  0
SOLID
  8
0
 62
7
  6
CONTINUOUS
 10
155.412804528
 20
31.2713369632
 11
155.412804528
 21
31.3681282026
 12
155.7018665869
 22
31.3681282026
 13
155.7018665869
 23
31.3681282026
  0
SOLID
  8
0
 62
7
  6
CONTINUOUS
 10
155.412804528
 20
31.2713369632
 11
155.7018665869
 21
31.3681282026
 12
155.412804528
 22
31.1422827828
 13
155.412804528
 23
31.1422827828
  0
SOLID
  8
0
 62
7
  6
CONTINUOUS
 10
155.412804528
 20
31.1422827828
 11
155.7018665869
 21
31.3681282026
 12
155.412804528
 22
30.9487004259
 13
155.412804528
 23
30.9487004259
  0
SOLID
  8
0
 62
7
  6
CONTINUOUS
 10
155.7018665869
 20
31.3681282026
 11
155.7018665869
 21
30.8519086025
 12
155.412804528
 22
30.9487004259
 13
155.412804528
 23
30.9487004259
  0
SOLID
  8
0
 62
7
  6
CONTINUOUS
 10
157.6096790869
 20
31.5939736268
 11
157.840929528
 21
31.6262383465
 12
158.0721793074
 22
31.6262383465
 13
158.0721793074
 23
31.6262383465
  0
SOLID
  8
0
 62
7
  6
CONTINUOUS
 10
158.0721793074
 20
31.6262383465
 11
158.2456168074
 21
31.5939736268
 12
157.6096790869
 22
31.5939736268
 13
157.6096790869
 23
31.5939736268
  0
SOLID
  8
0
 62
7
  6
CONTINUOUS
 10
157.4362415869
 20
31.5294472848
 11
157.6096790869
 21
31.5939736268
 12
158.2456168074
 22
31.5939736268
 13
158.2456168074
 23
31.5939736268
  0
SOLID
  8
0
 62
7
  6
CONTINUOUS
 10
158.2456168074
 20
31.5939736268
 11
158.4190543074
 21
31.5294472848
 12
157.4362415869
 22
31.5294472848
 13
157.4362415869
 23
31.5294472848
  0
SOLID
  8
0
 62
7
  6
CONTINUOUS
 10
158.4190543074
 20
31.5294472848
 11
157.840929528
 21
31.4971825369
 12
157.4362415869
 22
31.5294472848
 13
157.4362415869
 23
31.5294472848
  0
SOLID
  8
0
 62
7
  6
CONTINUOUS
 10
157.320617028
 20
31.4649199103
 11
157.4362415869
 21
31.5294472848
 12
157.840929528
 22
31.4971825369
 13
157.840929528
 23
31.4971825369
  0
SOLID
  8
0
 62
7
  6
CONTINUOUS
 10
157.840929528
 20
31.4971825369
 11
157.6096790869
 21
31.4649199103
 12
157.320617028
 22
31.4649199103
 13
157.320617028
 23
31.4649199103
  0
SOLID
  8
0
 62
7
  6
CONTINUOUS
 10
157.840929528
 20
31.4971825369
 11
158.4190543074
 21
31.5294472848
 12
158.0721793074
 22
31.4649199103
 13
158.0721793074
 23
31.4649199103
  0
SOLID
  8
0
 62
7
  6
CONTINUOUS
 10
158.4190543074
 20
31.5294472848
 11
158.534679528
 21
31.4649199103
 12
158.0721793074
 22
31.4649199103
 13
158.0721793074
 23
31.4649199103
  0
SOLID
  8
0
 62
7
  6
CONTINUOUS
 10
158.187804528
 20
31.4326554468
 11
158.0721793074
 21
31.4649199103
 12
158.534679528
 22
31.4649199103
 13
158.534679528
 23
31.4649199103
  0
SOLID
  8
0
 62
7
  6
CONTINUOUS
 10
158.187804528
 20
31.4326554468
 11
158.534679528
 21
31.4649199103
 12
158.3034290869
 22
31.3681288486
 13
158.3034290869
 23
31.3681288486
  0
SOLID
  8
0
 62
7
  6
CONTINUOUS
 10
158.534679528
 20
31.4649199103
 11
158.5924918074
 21
31.3681288486
 12
158.3034290869
 22
31.3681288486
 13
158.3034290869
 23
31.3681288486
  0
SOLID
  8
0
 62
7
  6
CONTINUOUS
 10
158.361242028
 20
31.2068093799
 11
158.3034290869
 21
31.3681288486
 12
158.5924918074
 22
31.3681288486
 13
158.5924918074
 23
31.3681288486
  0
SOLID
  8
0
 62
7
  6
CONTINUOUS
 10
158.5924918074
 20
31.3681288486
 11
158.6503040869
 21
31.2068093799
 12
158.361242028
 22
31.2068093799
 13
158.361242028
 23
31.2068093799
  0
SOLID
  8
0
 62
7
  6
CONTINUOUS
 10
157.6096790869
 20
31.4649199103
 11
157.4362415869
 21
31.4003926599
 12
157.320617028
 22
31.4649199103
 13
157.320617028
 23
31.4649199103
  0
SOLID
  8
0
 62
7
  6
CONTINUOUS
 10
157.4362415869
 20
31.4003926599
 11
157.320617028
 21
31.3358640533
 12
157.320617028
 22
31.4649199103
 13
157.320617028
 23
31.4649199103
  0
SOLID
  8
0
 62
7
  6
CONTINUOUS
 10
157.320617028
 20
31.3358640533
 11
157.0315543074
 21
30.5938003547
 12
157.320617028
 22
31.4649199103
 13
157.320617028
 23
31.4649199103
  0
SOLID
  8
0
 62
7
  6
CONTINUOUS
 10
157.320617028
 20
31.4649199103
 11
157.0315543074
 21
30.5938003547
 12
157.320617028
 22
31.6262383465
 13
157.320617028
 23
31.6262383465
  0
SOLID
  8
0
 62
7
  6
CONTINUOUS
 10
157.0315543074
 20
30.5938003547
 11
157.0315543074
 21
31.6262383465
 12
157.320617028
 22
31.6262383465
 13
157.320617028
 23
31.6262383465
  0
SOLID
  8
0
 62
7
  6
CONTINUOUS
 10
157.320617028
 20
31.3358640533
 11
157.320617028
 21
30.5938003547
 12
157.0315543074
 22
30.5938003547
 13
157.0315543074
 23
30.5938003547
  0
SOLID
  8
0
 62
7
  6
CONTINUOUS
 10
158.361242028
 20
30.5938003547
 11
158.361242028
 21
31.2068093799
 12
158.6503040869
 22
31.2068093799
 13
158.6503040869
 23
31.2068093799
  0
SOLID
  8
0
 62
7
  6
CONTINUOUS
 10
158.6503040869
 20
31.2068093799
 11
158.6503040869
 21
30.5938003547
 12
158.361242028
 22
30.5938003547
 13
158.361242028
 23
30.5938003547
  0
SOLID
  8
0
 62
7
  6
CONTINUOUS
 10
159.4596793074
 20
31.5939739474
 11
159.8065543074
 21
31.6262381969
 12
160.1534293074
 22
31.6262381969
 13
160.1534293074
 23
31.6262381969
  0
SOLID
  8
0
 62
7
  6
CONTINUOUS
 10
160.1534293074
 20
31.6262381969
 11
160.5003043074
 21
31.5939739474
 12
159.4596793074
 22
31.5939739474
 13
159.4596793074
 23
31.5939739474
  0
SOLID
  8
0
 62
7
  6
CONTINUOUS
 10
159.228429528
 20
31.5294468402
 11
159.4596793074
 21
31.5939739474
 12
160.5003043074
 22
31.5939739474
 13
160.5003043074
 23
31.5939739474
  0
SOLID
  8
0
 62
7
  6
CONTINUOUS
 10
159.228429528
 20
31.5294468402
 11
160.5003043074
 21
31.5939739304
 12
160.6737418074
 22
31.5617111435
 13
160.6737418074
 23
31.5617111435
  0
SOLID
  8
0
 62
7
  6
CONTINUOUS
 10
159.228429528
 20
31.5294468402
 11
160.6737418074
 21
31.5617111435
 12
159.8065543074
 22
31.4971825592
 13
159.8065543074
 23
31.4971825592
  0
SOLID
  8
0
 62
7
  6
CONTINUOUS
 10
159.8065543074
 20
31.4971825592
 11
160.6737418074
 21
31.5617111435
 12
160.1534293074
 22
31.4971825592
 13
160.1534293074
 23
31.4971825592
  0
SOLID
  8
0
 62
7
  6
CONTINUOUS
 10
160.6737418074
 20
31.5617111435
 11
160.8471793074
 21
31.4971825592
 12
160.1534293074
 22
31.4971825592
 13
160.1534293074
 23
31.4971825592
  0
SOLID
  8
0
 62
7
  6
CONTINUOUS
 10
160.5003043074
 20
31.4649197501
 11
160.1534293074
 21
31.4971825592
 12
160.8471793074
 22
31.4971825592
 13
160.8471793074
 23
31.4971825592
  0
SOLID
  8
0
 62
7
  6
CONTINUOUS
 10
159.1128043074
 20
31.4326555427
 11
159.228429528
 21
31.5294468402
 12
159.8065543074
 22
31.4971825592
 13
159.8065543074
 23
31.4971825592
  0
SOLID
  8
0
 62
7
  6
CONTINUOUS
 10
160.5003043074
 20
31.4649197501
 11
160.8471793074
 21
31.4971825592
 12
160.615929528
 22
31.4326555427
 13
160.615929528
 23
31.4326555427
  0
SOLID
  8
0
 62
7
  6
CONTINUOUS
 10
160.615929528
 20
31.4326555427
 11
160.8471793074
 21
31.4971825592
 12
160.6737418074
 22
31.3681283005
 13
160.6737418074
 23
31.3681283005
  0
SOLID
  8
0
 62
7
  6
CONTINUOUS
 10
160.8471793074
 20
31.4971825592
 11
160.9628038663
 21
31.3681283005
 12
160.6737418074
 22
31.3681283005
 13
160.6737418074
 23
31.3681283005
  0
SOLID
  8
0
 62
7
  6
CONTINUOUS
 10
150.2674918074
 20
31.4649197501
 11
149.7471793074
 21
31.4326554237
 12
150.498741835
 22
31.4971824493
 13
150.498741835
 23
31.4971824493
  0
SOLID
  8
0
 62
7
  6
CONTINUOUS
 10
149.7471793074
 20
31.4326554237
 11
149.8628043005
 21
31.4971824493
 12
150.498741835
 22
31.4971824493
 13
150.498741835
 23
31.4971824493
  0
SOLID
  8
0
 62
7
  6
CONTINUOUS
 10
150.2674918074
 20
31.4649197501
 11
150.1518667936
 21
31.4326554237
 12
149.7471793074
 22
31.4326554237
 13
149.7471793074
 23
31.4326554237
  0
SOLID
  8
0
 62
7
  6
CONTINUOUS
 10
149.6315543091
 20
31.3036012664
 11
149.7471793074
 21
31.4326554237
 12
150.1518667936
 22
31.4326554237
 13
150.1518667936
 23
31.4326554237
  0
SOLID
  8
0
 62
7
  6
CONTINUOUS
 10
153.9674919177
 20
31.4326554237
 11
154.6612419177
 21
31.4971825369
 12
154.4299918074
 22
31.4649197501
 13
154.4299918074
 23
31.4649197501
  0
SOLID
  8
0
 62
7
  6
CONTINUOUS
 10
154.4299918074
 20
31.4649197501
 11
154.3143669177
 21
31.4326554237
 12
153.9674919177
 22
31.4326554237
 13
153.9674919177
 23
31.4326554237
  0
SOLID
  8
0
 62
7
  6
CONTINUOUS
 10
153.9674919177
 20
31.3681283335
 11
153.9674919177
 21
31.4326554237
 12
154.3143669177
 22
31.4326554237
 13
154.3143669177
 23
31.4326554237
  0
SOLID
  8
0
 62
7
  6
CONTINUOUS
 10
154.3143669177
 20
31.4326554237
 11
154.2565543074
 21
31.3681283335
 12
153.9674919177
 22
31.3681283335
 13
153.9674919177
 23
31.3681283335
  0
SOLID
  8
0
 62
7
  6
CONTINUOUS
 10
159.1128043074
 20
31.4326555528
 11
159.8065543074
 21
31.4971825369
 12
159.575304528
 22
31.4649197501
 13
159.575304528
 23
31.4649197501
  0
SOLID
  8
0
 62
7
  6
CONTINUOUS
 10
159.575304528
 20
31.4649197501
 11
159.4596793074
 21
31.4326555528
 12
159.1128043074
 22
31.4326555528
 13
159.1128043074
 23
31.4326555528
  0
SOLID
  8
0
 62
7
  6
CONTINUOUS
 10
159.1128043074
 20
31.3681284626
 11
159.1128043074
 21
31.4326555528
 12
159.4596793074
 22
31.4326555528
 13
159.4596793074
 23
31.4326555528
  0
SOLID
  8
0
 62
7
  6
CONTINUOUS
 10
159.4596793074
 20
31.4326555528
 11
159.401867028
 21
31.3681284626
 12
159.1128043074
 22
31.3681284626
 13
159.1128043074
 23
31.3681284626
  0
SOLID
  8
0
 62
7
  6
CONTINUOUS
 10
159.228429528
 20
31.2390741763
 11
159.1128043074
 21
31.3681284626
 12
159.401867028
 22
31.3681284626
 13
159.401867028
 23
31.3681284626
  0
SOLID
  8
0
 62
7
  6
CONTINUOUS
 10
149.6315543091
 20
31.3036012664
 11
150.1518667936
 21
31.4326554468
 12
149.9784292936
 22
31.3358640533
 13
149.9784292936
 23
31.3358640533
  0
SOLID
  8
0
 62
7
  6
CONTINUOUS
 10
149.9784292936
 20
31.3358640533
 11
149.9206168074
 21
31.2713369632
 12
149.6315543091
 22
31.3036012664
 13
149.6315543091
 23
31.3036012664
  0
SOLID
  8
0
 62
7
  6
CONTINUOUS
 10
149.5737418074
 20
31.1100184796
 11
149.6315543091
 21
31.3036012664
 12
149.9206168074
 22
31.2713369632
 13
149.9206168074
 23
31.2713369632
  0
SOLID
  8
0
 62
7
  6
CONTINUOUS
 10
154.4299918074
 20
31.2390741763
 11
154.7768668074
 21
31.271336924
 12
155.412804528
 22
31.271336924
 13
155.412804528
 23
31.271336924
  0
SOLID
  8
0
 62
7
  6
CONTINUOUS
 10
154.4299918074
 20
31.2390741763
 11
155.412804528
 21
31.271336924
 12
154.1987416972
 22
31.1745462761
 13
154.1987416972
 23
31.1745462761
  0
SOLID
  8
0
 62
7
  6
CONTINUOUS
 10
154.1987416972
 20
31.1745462761
 11
155.412804528
 21
31.271336924
 12
154.7768668074
 22
31.1422827436
 13
154.7768668074
 23
31.1422827436
  0
SOLID
  8
0
 62
7
  6
CONTINUOUS
 10
155.412804528
 20
31.271336924
 11
155.412804528
 21
31.1422827436
 12
154.7768668074
 22
31.1422827436
 13
154.7768668074
 23
31.1422827436
  0
SOLID
  8
0
 62
7
  6
CONTINUOUS
 10
159.228429528
 20
31.2390745501
 11
159.401867028
 21
31.3681283566
 12
159.4596793074
 22
31.3036012664
 13
159.4596793074
 23
31.3036012664
  0
SOLID
  8
0
 62
7
  6
CONTINUOUS
 10
159.4596793074
 20
31.3036012664
 11
159.6331168074
 21
31.2390745501
 12
159.228429528
 22
31.2390745501
 13
159.228429528
 23
31.2390745501
  0
SOLID
  8
0
 62
7
  6
CONTINUOUS
 10
159.4596793074
 20
31.1422827828
 11
159.228429528
 21
31.2390745501
 12
159.6331168074
 22
31.2390745501
 13
159.6331168074
 23
31.2390745501
  0
SOLID
  8
0
 62
7
  6
CONTINUOUS
 10
159.6331168074
 20
31.2390745501
 11
160.615929528
 21
31.0777556927
 12
159.4596793074
 22
31.1422827828
 13
159.4596793074
 23
31.1422827828
  0
SOLID
  8
0
 62
7
  6
CONTINUOUS
 10
160.442492028
 20
30.9809646623
 11
159.4596793074
 21
31.1422827828
 12
160.615929528
 22
31.0777556927
 13
160.615929528
 23
31.0777556927
  0
SOLID
  8
0
 62
7
  6
CONTINUOUS
 10
160.615929528
 20
31.0777556927
 11
160.8471793074
 21
30.9809646623
 12
160.442492028
 22
30.9809646623
 13
160.442492028
 23
30.9809646623
  0
SOLID
  8
0
 62
7
  6
CONTINUOUS
 10
160.615929528
 20
30.9164372091
 11
160.442492028
 21
30.9809646623
 12
160.8471793074
 22
30.9809646623
 13
160.8471793074
 23
30.9809646623
  0
SOLID
  8
0
 62
7
  6
CONTINUOUS
 10
160.615929528
 20
30.9164372091
 11
160.8471793074
 21
30.9809646623
 12
160.6737418074
 22
30.8519089441
 13
160.6737418074
 23
30.8519089441
  0
SOLID
  8
0
 62
7
  6
CONTINUOUS
 10
160.8471793074
 20
30.9809646623
 11
160.9628038663
 21
30.8519089441
 12
160.6737418074
 22
30.8519089441
 13
160.6737418074
 23
30.8519089441
  0
SOLID
  8
0
 62
7
  6
CONTINUOUS
 10
160.615929528
 20
30.7873818593
 11
160.6737418074
 21
30.8519089441
 12
160.9628038663
 22
30.8519089441
 13
160.9628038663
 23
30.8519089441
  0
SOLID
  8
0
 62
7
  6
CONTINUOUS
 10
160.9628038663
 20
30.8519089441
 11
160.9628038663
 21
30.7873818593
 12
160.615929528
 22
30.7873818593
 13
160.615929528
 23
30.7873818593
  0
SOLID
  8
0
 62
7
  6
CONTINUOUS
 10
160.5003043074
 20
30.7551187255
 11
160.615929528
 21
30.7873818593
 12
160.9628038663
 22
30.7873818593
 13
160.9628038663
 23
30.7873818593
  0
SOLID
  8
0
 62
7
  6
CONTINUOUS
 10
160.5003043074
 20
30.7551187255
 11
160.9628038663
 21
30.7873818593
 12
160.269054528
 22
30.7228547745
 13
160.269054528
 23
30.7228547745
  0
SOLID
  8
0
 62
7
  6
CONTINUOUS
 10
160.9628038663
 20
30.7873818593
 11
160.8471793074
 21
30.6905916353
 12
160.269054528
 22
30.7228547745
 13
160.269054528
 23
30.7228547745
  0
SOLID
  8
0
 62
7
  6
CONTINUOUS
 10
160.8471793074
 20
30.6905916353
 11
159.401867028
 21
30.658327332
 12
160.269054528
 22
30.7228547745
 13
160.269054528
 23
30.7228547745
  0
SOLID
  8
0
 62
7
  6
CONTINUOUS
 10
160.269054528
 20
30.7228547745
 11
159.401867028
 21
30.658327332
 12
159.922179528
 22
30.7228547745
 13
159.922179528
 23
30.7228547745
  0
SOLID
  8
0
 62
7
  6
CONTINUOUS
 10
159.401867028
 20
30.658327332
 11
159.228429528
 21
30.7228547745
 12
159.922179528
 22
30.7228547745
 13
159.922179528
 23
30.7228547745
  0
SOLID
  8
0
 62
7
  6
CONTINUOUS
 10
159.401867028
 20
30.658327332
 11
160.8471793074
 21
30.6905916353
 12
159.575304528
 22
30.6260629858
 13
159.575304528
 23
30.6260629858
  0
SOLID
  8
0
 62
7
  6
CONTINUOUS
 10
160.8471793074
 20
30.6905916353
 11
160.615929528
 21
30.6260629858
 12
159.575304528
 22
30.6260629858
 13
159.575304528
 23
30.6260629858
  0
SOLID
  8
0
 62
7
  6
CONTINUOUS
 10
159.922179528
 20
30.5938006049
 11
159.575304528
 21
30.6260629858
 12
160.615929528
 22
30.6260629858
 13
160.615929528
 23
30.6260629858
  0
SOLID
  8
0
 62
7
  6
CONTINUOUS
 10
160.615929528
 20
30.6260629858
 11
160.269054528
 21
30.5938006049
 12
159.922179528
 22
30.5938006049
 13
159.922179528
 23
30.5938006049
  0
SOLID
  8
0
 62
7
  6
CONTINUOUS
 10
149.5737418074
 20
31.1100184796
 11
149.9206168074
 21
31.2713369632
 12
149.8628043005
 22
31.1422827828
 13
149.8628043005
 23
31.1422827828
  0
SOLID
  8
0
 62
7
  6
CONTINUOUS
 10
149.8628043005
 20
31.1422827828
 11
149.8628043005
 21
31.0454914852
 12
149.5737418074
 22
31.1100184796
 13
149.5737418074
 23
31.1100184796
  0
SOLID
  8
0
 62
7
  6
CONTINUOUS
 10
149.6315543091
 20
30.9164372091
 11
149.5737418074
 21
31.1100184796
 12
149.8628043005
 22
31.0454914852
 13
149.8628043005
 23
31.0454914852
  0
SOLID
  8
0
 62
7
  6
CONTINUOUS
 10
149.8628043005
 20
31.0454914852
 11
149.9784292936
 21
30.8841729058
 12
149.6315543091
 22
30.9164372091
 13
149.6315543091
 23
30.9164372091
  0
SOLID
  8
0
 62
7
  6
CONTINUOUS
 10
149.7471793074
 20
30.7873813202
 11
149.6315543091
 21
30.9164372091
 12
149.9784292936
 22
30.8841729058
 13
149.9784292936
 23
30.8841729058
  0
SOLID
  8
0
 62
7
  6
CONTINUOUS
 10
149.9784292936
 20
30.8841729058
 11
150.1518667936
 21
30.7873813202
 12
149.7471793074
 22
30.7873813202
 13
149.7471793074
 23
30.7873813202
  0
SOLID
  8
0
 62
7
  6
CONTINUOUS
 10
149.8628043005
 20
30.7228547004
 11
149.7471793074
 21
30.7873813202
 12
150.1518667936
 22
30.7873813202
 13
150.1518667936
 23
30.7873813202
  0
SOLID
  8
0
 62
7
  6
CONTINUOUS
 10
150.1518667936
 20
30.7873813202
 11
150.498741835
 21
30.7228547004
 12
149.8628043005
 22
30.7228547004
 13
149.8628043005
 23
30.7228547004
  0
SOLID
  8
0
 62
7
  6
CONTINUOUS
 10
150.0362418212
 20
30.658327332
 11
149.8628043005
 21
30.7228547004
 12
150.498741835
 22
30.7228547004
 13
150.498741835
 23
30.7228547004
  0
SOLID
  8
0
 62
7
  6
CONTINUOUS
 10
154.0831168074
 20
31.1100184386
 11
154.1987416972
 21
31.1745462761
 12
154.7768668074
 22
31.1422827828
 13
154.7768668074
 23
31.1422827828
  0
SOLID
  8
0
 62
7
  6
CONTINUOUS
 10
154.7768668074
 20
31.1422827828
 11
154.5456166972
 21
31.1100184386
 12
154.0831168074
 22
31.1100184386
 13
154.0831168074
 23
31.1100184386
  0
SOLID
  8
0
 62
7
  6
CONTINUOUS
 10
153.9674919177
 20
30.9809642992
 11
154.0831168074
 21
31.1100184386
 12
154.5456166972
 22
31.1100184386
 13
154.5456166972
 23
31.1100184386
  0
SOLID
  8
0
 62
7
  6
CONTINUOUS
 10
154.3143669177
 20
31.0132277988
 11
153.9674919177
 21
30.9809642992
 12
154.4299918074
 22
31.0777556927
 13
154.4299918074
 23
31.0777556927
  0
SOLID
  8
0
 62
7
  6
CONTINUOUS
 10
153.9674919177
 20
30.9809642992
 11
154.5456166972
 21
31.1100184796
 12
154.4299918074
 22
31.0777556927
 13
154.4299918074
 23
31.0777556927
  0
SOLID
  8
0
 62
7
  6
CONTINUOUS
 10
154.3143669177
 20
31.0132277988
 11
154.2565543074
 21
30.9164372091
 12
153.9674919177
 22
30.9809642992
 13
153.9674919177
 23
30.9809642992
  0
SOLID
  8
0
 62
7
  6
CONTINUOUS
 10
153.9674919177
 20
30.8841729058
 11
153.9674919177
 21
30.9809642992
 12
154.2565543074
 22
30.9164372091
 13
154.2565543074
 23
30.9164372091
  0
SOLID
  8
0
 62
7
  6
CONTINUOUS
 10
154.2565543074
 20
30.9164372091
 11
154.2565543074
 21
30.8519086025
 12
153.9674919177
 22
30.8841729058
 13
153.9674919177
 23
30.8841729058
  0
SOLID
  8
0
 62
7
  6
CONTINUOUS
 10
154.0253041972
 20
30.7551187255
 11
153.9674919177
 21
30.8841729058
 12
154.2565543074
 22
30.8519086025
 13
154.2565543074
 23
30.8519086025
  0
SOLID
  8
0
 62
7
  6
CONTINUOUS
 10
155.412804528
 20
30.9487004259
 11
155.7018665869
 21
30.8519086025
 12
155.3549915869
 22
30.8841729058
 13
155.3549915869
 23
30.8841729058
  0
SOLID
  8
0
 62
7
  6
CONTINUOUS
 10
155.1815540869
 20
30.7873815123
 11
155.3549915869
 21
30.8841729058
 12
155.7018665869
 22
30.8519086025
 13
155.7018665869
 23
30.8519086025
  0
SOLID
  8
0
 62
7
  6
CONTINUOUS
 10
155.1815540869
 20
30.7873815123
 11
155.7018665869
 21
30.8519086025
 12
155.412804528
 22
30.7551187255
 13
155.412804528
 23
30.7551187255
  0
SOLID
  8
0
 62
7
  6
CONTINUOUS
 10
155.7018665869
 20
30.8519086025
 11
155.759679528
 21
30.6905916353
 12
155.412804528
 22
30.7551187255
 13
155.412804528
 23
30.7551187255
  0
SOLID
  8
0
 62
7
  6
CONTINUOUS
 10
155.4706168074
 20
30.658327332
 11
155.412804528
 21
30.7551187255
 12
155.759679528
 22
30.6905916353
 13
155.759679528
 23
30.6905916353
  0
SOLID
  8
0
 62
7
  6
CONTINUOUS
 10
155.4706168074
 20
30.658327332
 11
155.759679528
 21
30.6905916353
 12
155.5284290869
 22
30.5938002079
 13
155.5284290869
 23
30.5938002079
  0
SOLID
  8
0
 62
7
  6
CONTINUOUS
 10
155.759679528
 20
30.6905916353
 11
155.8174918074
 21
30.5938002079
 12
155.5284290869
 22
30.5938002079
 13
155.5284290869
 23
30.5938002079
  0
SOLID
  8
0
 62
7
  6
CONTINUOUS
 10
151.0768668626
 20
30.8196456577
 11
151.1346793074
 21
30.9164373395
 12
151.4237418626
 22
30.9164373395
 13
151.4237418626
 23
30.9164373395
  0
SOLID
  8
0
 62
7
  6
CONTINUOUS
 10
151.4237418626
 20
30.9164373395
 11
151.3659292523
 21
30.7873815123
 12
151.0768668626
 22
30.8196456577
 13
151.0768668626
 23
30.8196456577
  0
SOLID
  8
0
 62
7
  6
CONTINUOUS
 10
150.9034292799
 20
30.7551187255
 11
151.0768668626
 21
30.8196456577
 12
151.3659292523
 22
30.7873815123
 13
151.3659292523
 23
30.7873815123
  0
SOLID
  8
0
 62
7
  6
CONTINUOUS
 10
150.9034292799
 20
30.7551187255
 11
151.3659292523
 21
30.7873815123
 12
150.498741835
 22
30.7228544222
 13
150.498741835
 23
30.7228544222
  0
SOLID
  8
0
 62
7
  6
CONTINUOUS
 10
151.3659292523
 20
30.7873815123
 11
151.1924917523
 21
30.6905916353
 12
150.498741835
 22
30.7228544222
 13
150.498741835
 23
30.7228544222
  0
SOLID
  8
0
 62
7
  6
CONTINUOUS
 10
150.0362418212
 20
30.658327332
 11
150.498741835
 21
30.7228544222
 12
151.1924917523
 22
30.6905916353
 13
151.1924917523
 23
30.6905916353
  0
SOLID
  8
0
 62
7
  6
CONTINUOUS
 10
150.0362418212
 20
30.658327332
 11
151.1924917523
 21
30.6905916353
 12
150.2096793212
 22
30.6260631011
 13
150.2096793212
 23
30.6260631011
  0
SOLID
  8
0
 62
7
  6
CONTINUOUS
 10
151.1924917523
 20
30.6905916353
 11
150.9612418074
 21
30.6260631011
 12
150.2096793212
 22
30.6260631011
 13
150.2096793212
 23
30.6260631011
  0
SOLID
  8
0
 62
7
  6
CONTINUOUS
 10
150.5565542799
 20
30.5938002419
 11
150.2096793212
 21
30.6260631011
 12
150.9612418074
 22
30.6260631011
 13
150.9612418074
 23
30.6260631011
  0
SOLID
  8
0
 62
7
  6
CONTINUOUS
 10
154.0253041972
 20
30.7551187255
 11
154.2565543074
 21
30.8519086025
 12
154.3143669177
 22
30.7873815123
 13
154.3143669177
 23
30.7873815123
  0
SOLID
  8
0
 62
7
  6
CONTINUOUS
 10
154.3143669177
 20
30.7873815123
 11
154.5456166972
 21
30.7228544222
 12
154.0253041972
 22
30.7551187255
 13
154.0253041972
 23
30.7551187255
  0
SOLID
  8
0
 62
7
  6
CONTINUOUS
 10
154.1987416972
 20
30.658327332
 11
154.0253041972
 21
30.7551187255
 12
154.5456166972
 22
30.7228544222
 13
154.5456166972
 23
30.7228544222
  0
SOLID
  8
0
 62
7
  6
CONTINUOUS
 10
154.8924916972
 20
30.7228544637
 11
155.1815540869
 21
30.7873815123
 12
155.412804528
 22
30.7551187255
 13
155.412804528
 23
30.7551187255
  0
SOLID
  8
0
 62
7
  6
CONTINUOUS
 10
155.412804528
 20
30.7551187255
 11
155.3549915869
 21
30.6905916353
 12
154.8924916972
 22
30.7228544637
 13
154.8924916972
 23
30.7228544637
  0
SOLID
  8
0
 62
7
  6
CONTINUOUS
 10
155.3549915869
 20
30.6905916353
 11
154.1987416972
 21
30.658327332
 12
154.8924916972
 22
30.7228544637
 13
154.8924916972
 23
30.7228544637
  0
SOLID
  8
0
 62
7
  6
CONTINUOUS
 10
154.1987416972
 20
30.658327332
 11
154.5456166972
 21
30.7228544637
 12
154.8924916972
 22
30.7228544637
 13
154.8924916972
 23
30.7228544637
  0
SOLID
  8
0
 62
7
  6
CONTINUOUS
 10
154.1987416972
 20
30.658327332
 11
155.3549915869
 21
30.6905916353
 12
154.3143669177
 22
30.6260630541
 13
154.3143669177
 23
30.6260630541
  0
SOLID
  8
0
 62
7
  6
CONTINUOUS
 10
155.3549915869
 20
30.6905916353
 11
155.1815540869
 21
30.6260630541
 12
154.3143669177
 22
30.6260630541
 13
154.3143669177
 23
30.6260630541
  0
SOLID
  8
0
 62
7
  6
CONTINUOUS
 10
154.5456166972
 20
30.5938002188
 11
154.3143669177
 21
30.6260630541
 12
155.1815540869
 22
30.6260630541
 13
155.1815540869
 23
30.6260630541
  0
SOLID
  8
0
 62
7
  6
CONTINUOUS
 10
155.1815540869
 20
30.6260630541
 11
154.8924916972
 21
30.5938002188
 12
154.5456166972
 22
30.5938002188
 13
154.5456166972
 23
30.5938002188
  0
SOLID
  8
0
 62
7
  6
CONTINUOUS
 10
159.575304528
 20
30.7551187255
 11
159.228429528
 21
30.7228544637
 12
159.4596793074
 22
30.7873815123
 13
159.4596793074
 23
30.7873815123
  0
SOLID
  8
0
 62
7
  6
CONTINUOUS
 10
159.4596793074
 20
30.7873815123
 11
159.228429528
 21
30.7228544637
 12
159.401867028
 22
30.851908644
 13
159.401867028
 23
30.851908644
  0
SOLID
  8
0
 62
7
  6
CONTINUOUS
 10
159.228429528
 20
30.7228544637
 11
159.1128043074
 21
30.851908644
 12
159.401867028
 22
30.851908644
 13
159.401867028
 23
30.851908644
  0
SOLID
  8
0
 62
7
  6
CONTINUOUS
 10
159.575304528
 20
30.7551187255
 11
159.922179528
 21
30.7228544637
 12
159.228429528
 22
30.7228544637
 13
159.228429528
 23
30.7228544637
  0
SOLID
  8
0
 62
7
  6
CONTINUOUS
 10
156.279992028
 20
30.5938002419
 11
156.279992028
 21
31.6262382337
 12
156.5690540869
 22
30.5938002419
 13
156.5690540869
 23
31.6262382337
  0
ENDBLK
  8
0
  6
BYBLOCK
 62
0
  0
BLOCK
  8
0
 62
2
  6
CONTINUOUS
  2
AMMEAAL_LOGO_BL0
 70
64
 10
32.1213064866
 20
19.8534310916
  0
TEXT
  8
0
 62
7
  6
CONTINUOUS
 10
18.3860103289
 20
19.2268451992
  7
TEXTSTYLE_3
 40
2.7338706658
  1
Ammeraal Beltech
 41
1.0
 51
15.0
 72
0
  0
TEXT
  8
0
 62
7
  6
CONTINUOUS
 10
29.1868111546
 20
16.9533085264
  7
TEXTSTYLE_4
 40
1.0935482663
  1
Innovation & Service in Belting
 41
1.0
 72
0
  0
LINE
  8
0
 62
7
  6
CONTINUOUS
 10
12.3614696776
 20
19.9934385078
 11
13.1396216709
 21
23.6543558055
  0
LINE
  8
0
 62
7
  6
CONTINUOUS
 10
23.2347899607
 20
27.3177497171
 11
13.6274394139
 21
24.1961322958
  0
LINE
  8
0
 62
7
  6
CONTINUOUS
 10
12.5867530099
 20
19.3000877048
 11
20.093828271
 21
12.5406867788
  0
LINE
  8
0
 62
7
  6
CONTINUOUS
 10
12.8492874206
 20
20.5352149982
 11
23.6575567857
 21
24.0470345971
  0
LINE
  8
0
 62
7
  6
CONTINUOUS
 10
23.6533516486
 20
13.6972460334
 11
15.2078919798
 21
21.3015720751
  0
LINE
  8
0
 62
7
  6
CONTINUOUS
 10
24.1731743684
 20
26.4728246013
 11
23.1966148312
 21
21.8784731989
  0
LINE
  8
0
 62
7
  6
CONTINUOUS
 10
22.4968128835
 20
18.5861638851
 11
21.810364672
 21
15.3566789607
  0
LINE
  8
0
 62
7
  6
CONTINUOUS
 10
24.8542704669
 20
14.087448211
 11
25.8105020025
 21
18.5861638851
  0
LINE
  8
0
 62
7
  6
CONTINUOUS
 10
26.5103039502
 20
21.8784731989
 11
26.9545457526
 21
23.9684665583
  0
LINE
  8
0
 62
7
  6
CONTINUOUS
 10
20.8069293463
 20
12.3891124661
 11
24.3664527239
 21
13.5456717207
  0
LINE
  8
0
 62
7
  6
CONTINUOUS
 10
23.9478910361
 20
27.1661754044
 11
26.7292624203
 21
24.6618173613
  0
ARC
  8
0
 62
7
  6
CONTINUOUS
 10
13.8527227462
 20
23.5027814928
 40
0.7290321776
 50
108.0
 51
168.0
  0
ARC
  8
0
 62
7
  6
CONTINUOUS
 10
23.4600732931
 20
26.624398914
 40
0.7290321776
 50
348.0
 51
108.0
  0
ARC
  8
0
 62
7
  6
CONTINUOUS
 10
26.2414446773
 20
24.120040871
 40
0.7290321776
 50
348.0
 51
48.0
  0
ARC
  8
0
 62
7
  6
CONTINUOUS
 10
20.581646014
 20
13.0824632691
 40
0.7290321776
 50
228.0
 51
288.0
  0
ARC
  8
0
 62
7
  6
CONTINUOUS
 10
13.0745707529
 20
19.8418641951
 40
0.7290321776
 50
108.0
 51
228.0
  0
ARC
  8
0
 62
7
  6
CONTINUOUS
 10
24.1411693916
 20
14.2390225237
 40
0.7290321776
 50
228.0
 51
348.0
  0
ENDBLK
  8
0
  6
BYBLOCK
 62
0
  0
ENDSEC
  0
SECTION
  2
ENTITIES
  0
TEXT
  8
0
 62
5
  6
CONTINUOUS
 10
96.0
 20
25.636
  7
TEXTSTYLE_2
 40
2.8
  1
Scale :
 41
0.6
 51
0.000019
 72
0
  0
TEXT
  8
0
 62
5
  6
CONTINUOUS
 10
116.0
 20
25.636
  7
TEXTSTYLE_2
 40
2.8
  1
Belt type:
 41
0.6
 51
0.000019
 72
0
  0
INSERT
  8
0
 62
2
  6
CONTINUOUS
  2
AMMEAAL_LOGO_BL0
 10
32.1213064866
 20
19.8534310916
  0
INSERT
  8
0
 62
2
  6
CONTINUOUS
  2
UNI_LOGO2_BL1
 10
173.5956734183
 20
35.5937998301
  0
LINE
  8
0
 62
2
  6
CONTINUOUS
 10
10.0
 20
30.0
 11
200.0
 21
30.0
  0
LINE
  8
0
 62
2
  6
CONTINUOUS
 10
10.0
 20
30.0
 11
10.0
 21
10.0
  0
LINE
  8
0
 62
2
  6
CONTINUOUS
 10
10.0
 20
10.0
 11
200.0
 21
10.0
  0
LINE
  8
0
 62
2
  6
CONTINUOUS
 10
95.0
 20
30.0
 11
95.0
 21
10.0
  0
LINE
  8
0
 62
2
  6
CONTINUOUS
 10
115.0
 20
30.0
 11
115.0
 21
10.0
  0
LINE
  8
0
 62
2
  6
CONTINUOUS
 10
200.0
 20
30.0
 11
200.0
 21
10.0
  0
TEXT
  8
0
 62
5
  6
CONTINUOUS
 10
13.0
 20
23.303
  7
TEXTSTYLE_5
 40
1.52
  1
                                                                     Ammeraal Beltech Modular A/S
 41
1.0
 72
0
  0
TEXT
  8
0
 62
5
  6
CONTINUOUS
 10
13.0
 20
20.595
  7
TEXTSTYLE_5
 40
1.5
  1
                                                                      Hjulmagervej 21,  7100 Vejle,  DK
 41
1.0
 72
0
  0
TEXT
  8
0
 62
5
  6
CONTINUOUS
 10
13.0
 20
17.881
  7
TEXTSTYLE_5
 40
1.495
  1
                                                                      tel: 
 41
1.0
 72
0
  0
TEXT
  8
0
 62
5
  6
CONTINUOUS
 10
57.9869465649
 20
17.881
  7
TEXTSTYLE_5
 40
1.51
  1
+45 75723100     fax: +45 75723348
 41
1.0
 72
0
  0
TEXT
  8
0
 62
5
  6
CONTINUOUS
 10
13.0
 20
15.177
  7
TEXTSTYLE_5
 40
1.5
  1
                                                                      admin@unichains.dk  www.unichains.com
 41
1.0
 72
0
  0
TEXT
  8
0
 62
5
  6
CONTINUOUS
 10
99.75
 20
13.75
  7
TEXTSTYLE_6
 40
5.0
  1
1:1
 41
0.7
 72
1
 11
105.0
 21
13.75
  0
TEXT
  8
0
 62
5
  6
CONTINUOUS
 10
118.0
 20
13.75
  7
TEXTSTYLE_7
 40
7.5
  1
uni Light EP-00-Rib K400 
 41
0.433125
 72
0
  0
LINE
  8
0
 62
7
  6
CONTINUOUS
 10
210.0
 20
0.0
 11
0.0
 21
0.0
  0
LINE
  8
0
 62
7
  6
CONTINUOUS
 10
10.0
 20
10.0
 11
200.0
 21
10.0
  0
LINE
  8
0
 62
7
  6
CONTINUOUS
 10
10.0
 20
30.0
 11
200.0
 21
30.0
  0
LINE
  8
0
 62
7
  6
CONTINUOUS
 10
0.0
 20
0.0
 11
0.0
 21
297.0
  0
LINE
  8
0
 62
7
  6
CONTINUOUS
 10
10.0
 20
10.0
 11
10.0
 21
287.0
  0
LINE
  8
0
 62
7
  6
CONTINUOUS
 10
200.0
 20
287.0
 11
200.0
 21
10.0
  0
LINE
  8
0
 62
7
  6
CONTINUOUS
 10
210.0
 20
0.0
 11
210.0
 21
297.0
  0
LINE
  8
0
 62
7
  6
CONTINUOUS
 10
10.0
 20
287.0
 11
200.0
 21
287.0
  0
LINE
  8
0
 62
7
  6
CONTINUOUS
 10
0.0
 20
297.0
 11
210.0
 21
297.0
  0
POLYLINE
  8
0
 62
7
  6
CONTINUOUS
 66
1
 70
0
  0
VERTEX
  8
0
 62
7
  6
CONTINUOUS
 10
24.1397681754
 20
123.2674896928
  0
VERTEX
  8
0
 62
7
  6
CONTINUOUS
 10
24.1532215211
 20
123.3826953922
  0
VERTEX
  8
0
 62
7
  6
CONTINUOUS
 10
24.1908450701
 20
123.4876442875
  0
VERTEX
  8
0
 62
7
  6
CONTINUOUS
 10
24.2494799431
 20
123.5800198446
  0
VERTEX
  8
0
 62
7
  6
CONTINUOUS
 10
24.3268482844
 20
123.657465515
  0
VERTEX
  8
0
 62
7
  6
CONTINUOUS
 10
24.4159721164
 20
123.7146086077
  0
VERTEX
  8
0
 62
7
  6
CONTINUOUS
 10
24.52109197
 20
123.7532014986
  0
VERTEX
  8
0
 62
7
  6
CONTINUOUS
 10
24.6397681754
 20
123.7674896928
  0
SEQEND
  0
LINE
  8
0
 62
7
  6
CONTINUOUS
 10
23.9397681754
 20
92.8817940082
 11
23.9397681754
 21
121.6980455094
  0
LINE
  8
0
 62
7
  6
CONTINUOUS
 10
24.1397681754
 20
123.2674896928
 11
24.1397681754
 21
85.5417940082
  0
LINE
  8
0
 62
7
  6
CONTINUOUS
 10
25.7547681754
 20
89.2917940082
 11
25.7547681754
 21
112.2278145523
  0
POLYLINE
  8
0
 62
7
  6
CONTINUOUS
 66
1
 70
0
  0
VERTEX
  8
0
 62
7
  6
CONTINUOUS
 10
27.189768632
 20
124.7498077308
  0
VERTEX
  8
0
 62
7
  6
CONTINUOUS
 10
27.1862981662
 20
124.6231614457
  0
VERTEX
  8
0
 62
7
  6
CONTINUOUS
 10
27.173688787
 20
124.484889391
  0
VERTEX
  8
0
 62
7
  6
CONTINUOUS
 10
27.1514646294
 20
124.3532417286
  0
VERTEX
  8
0
 62
7
  6
CONTINUOUS
 10
27.119548128
 20
124.2302351479
  0
VERTEX
  8
0
 62
7
  6
CONTINUOUS
 10
27.0782186881
 20
124.1178315529
  0
VERTEX
  8
0
 62
7
  6
CONTINUOUS
 10
27.0281512666
 20
124.0179846147
  0
VERTEX
  8
0
 62
7
  6
CONTINUOUS
 10
26.9701277622
 20
123.9321946982
  0
VERTEX
  8
0
 62
7
  6
CONTINUOUS
 10
26.9047148104
 20
123.8617209595
  0
VERTEX
  8
0
 62
7
  6
CONTINUOUS
 10
26.8330621352
 20
123.808870132
  0
VERTEX
  8
0
 62
7
  6
CONTINUOUS
 10
26.7571995152
 20
123.7766442355
  0
VERTEX
  8
0
 62
7
  6
CONTINUOUS
 10
26.6897681754
 20
123.7674897739
  0
SEQEND
  0
POLYLINE
  8
0
 62
7
  6
CONTINUOUS
 66
1
 70
0
  0
VERTEX
  8
0
 62
7
  6
CONTINUOUS
 10
25.7547681754
 20
112.2278145523
  0
VERTEX
  8
0
 62
7
  6
CONTINUOUS
 10
25.7700081973
 20
112.3677606853
  0
VERTEX
  8
0
 62
7
  6
CONTINUOUS
 10
25.8142350556
 20
112.4986676675
  0
VERTEX
  8
0
 62
7
  6
CONTINUOUS
 10
25.8842837892
 20
112.6141094932
  0
VERTEX
  8
0
 62
7
  6
CONTINUOUS
 10
25.9745259091
 20
112.7075324514
  0
VERTEX
  8
0
 62
7
  6
CONTINUOUS
 10
26.0801957698
 20
112.7762532195
  0
VERTEX
  8
0
 62
7
  6
CONTINUOUS
 10
26.1952270389
 20
112.8178725383
  0
VERTEX
  8
0
 62
7
  6
CONTINUOUS
 10
26.3147681754
 20
112.8317940082
  0
SEQEND
  0
POLYLINE
  8
0
 62
7
  6
CONTINUOUS
 66
1
 70
0
  0
VERTEX
  8
0
 62
7
  6
CONTINUOUS
 10
27.1897681754
 20
128.6065388796
  0
VERTEX
  8
0
 62
7
  6
CONTINUOUS
 10
27.2040678959
 20
128.6257752572
  0
VERTEX
  8
0
 62
7
  6
CONTINUOUS
 10
27.2463062979
 20
128.6436906641
  0
VERTEX
  8
0
 62
7
  6
CONTINUOUS
 10
27.3143000782
 20
128.6593208977
  0
VERTEX
  8
0
 62
7
  6
CONTINUOUS
 10
27.3568484954
 20
128.6660132366
  0
VERTEX
  8
0
 62
7
  6
CONTINUOUS
 10
27.4560564527
 20
128.6767097239
  0
VERTEX
  8
0
 62
7
  6
CONTINUOUS
 10
27.5692233891
 20
128.6833701965
  0
VERTEX
  8
0
 62
7
  6
CONTINUOUS
 10
27.6897681754
 20
128.6856344893
  0
SEQEND
  0
LINE
  8
0
 62
7
  6
CONTINUOUS
 10
26.8847681754
 20
112.2278145523
 11
26.8847681754
 21
89.2917940082
  0
LINE
  8
0
 62
7
  6
CONTINUOUS
 10
26.9397681754
 20
85.5417940082
 11
26.9397681754
 21
91.9138084992
  0
LINE
  8
0
 62
7
  6
CONTINUOUS
 10
27.1897681754
 20
131.1217940082
 11
27.1897681754
 21
124.7497795706
  0
LINE
  8
0
 62
7
  6
CONTINUOUS
 10
27.2447681754
 20
104.4357734641
 11
27.2447681754
 21
127.3717940082
  0
LINE
  8
0
 62
7
  6
CONTINUOUS
 10
28.3747681754
 20
127.3717940082
 11
28.3747681754
 21
104.4357734641
  0
POLYLINE
  8
0
 62
7
  6
CONTINUOUS
 66
1
 70
0
  0
VERTEX
  8
0
 62
7
  6
CONTINUOUS
 10
26.9397679662
 20
91.9137714181
  0
VERTEX
  8
0
 62
7
  6
CONTINUOUS
 10
26.9432383672
 20
92.0404302236
  0
VERTEX
  8
0
 62
7
  6
CONTINUOUS
 10
26.9558479539
 20
92.1787037317
  0
VERTEX
  8
0
 62
7
  6
CONTINUOUS
 10
26.9780720745
 20
92.3103487761
  0
VERTEX
  8
0
 62
7
  6
CONTINUOUS
 10
27.0099882741
 20
92.4333534524
  0
VERTEX
  8
0
 62
7
  6
CONTINUOUS
 10
27.0513178356
 20
92.5457569496
  0
VERTEX
  8
0
 62
7
  6
CONTINUOUS
 10
27.1013849642
 20
92.6456032271
  0
VERTEX
  8
0
 62
7
  6
CONTINUOUS
 10
27.1594089483
 20
92.7313936251
  0
VERTEX
  8
0
 62
7
  6
CONTINUOUS
 10
27.2248216833
 20
92.8018672559
  0
VERTEX
  8
0
 62
7
  6
CONTINUOUS
 10
27.2964749914
 20
92.8547183977
  0
VERTEX
  8
0
 62
7
  6
CONTINUOUS
 10
27.372340583
 20
92.8869447863
  0
VERTEX
  8
0
 62
7
  6
CONTINUOUS
 10
27.4397681754
 20
92.8960982407
  0
SEQEND
  0
POLYLINE
  8
0
 62
7
  6
CONTINUOUS
 66
1
 70
0
  0
VERTEX
  8
0
 62
7
  6
CONTINUOUS
 10
28.3747681754
 20
104.4357734641
  0
VERTEX
  8
0
 62
7
  6
CONTINUOUS
 10
28.3595281534
 20
104.2958273312
  0
VERTEX
  8
0
 62
7
  6
CONTINUOUS
 10
28.3153012952
 20
104.164920349
  0
VERTEX
  8
0
 62
7
  6
CONTINUOUS
 10
28.2452525616
 20
104.0494785233
  0
VERTEX
  8
0
 62
7
  6
CONTINUOUS
 10
28.1550104416
 20
103.9560555651
  0
VERTEX
  8
0
 62
7
  6
CONTINUOUS
 10
28.0493405809
 20
103.887334797
  0
VERTEX
  8
0
 62
7
  6
CONTINUOUS
 10
27.9343093118
 20
103.8457154782
  0
VERTEX
  8
0
 62
7
  6
CONTINUOUS
 10
27.8147681754
 20
103.8317940082
  0
SEQEND
  0
LINE
  8
0
 62
7
  6
CONTINUOUS
 10
23.9397681754
 20
92.8817940082
 11
24.1397681754
 21
92.6817940082
  0
POLYLINE
  8
0
 62
7
  6
CONTINUOUS
 66
1
 70
0
  0
VERTEX
  8
0
 62
7
  6
CONTINUOUS
 10
33.5397681754
 20
88.0570491369
  0
VERTEX
  8
0
 62
7
  6
CONTINUOUS
 10
33.5540678959
 20
88.0378127593
  0
VERTEX
  8
0
 62
7
  6
CONTINUOUS
 10
33.5963062979
 20
88.0198973524
  0
VERTEX
  8
0
 62
7
  6
CONTINUOUS
 10
33.6643000782
 20
88.0042671188
  0
VERTEX
  8
0
 62
7
  6
CONTINUOUS
 10
33.7068484954
 20
87.9975747799
  0
VERTEX
  8
0
 62
7
  6
CONTINUOUS
 10
33.8060564527
 20
87.9868782926
  0
VERTEX
  8
0
 62
7
  6
CONTINUOUS
 10
33.9192233891
 20
87.98021782
  0
VERTEX
  8
0
 62
7
  6
CONTINUOUS
 10
34.0397681754
 20
87.9779535272
  0
SEQEND
  0
LINE
  8
0
 62
7
  6
CONTINUOUS
 10
32.1047681754
 20
104.4357734641
 11
32.1047681754
 21
127.3717940082
  0
LINE
  8
0
 62
7
  6
CONTINUOUS
 10
33.2347681754
 20
127.3717940082
 11
33.2347681754
 21
104.4357734641
  0
LINE
  8
0
 62
7
  6
CONTINUOUS
 10
33.2897681754
 20
124.4461644069
 11
33.2897681754
 21
131.1217940082
  0
LINE
  8
0
 62
7
  6
CONTINUOUS
 10
33.5397681754
 20
91.9138084459
 11
33.5397681754
 21
85.5417940082
  0
LINE
  8
0
 62
7
  6
CONTINUOUS
 10
33.5947681754
 20
89.2917940082
 11
33.5947681754
 21
112.2278145523
  0
POLYLINE
  8
0
 62
7
  6
CONTINUOUS
 66
1
 70
0
  0
VERTEX
  8
0
 62
7
  6
CONTINUOUS
 10
33.5947681754
 20
112.2278145523
  0
VERTEX
  8
0
 62
7
  6
CONTINUOUS
 10
33.6100081973
 20
112.3677606853
  0
VERTEX
  8
0
 62
7
  6
CONTINUOUS
 10
33.6542350556
 20
112.4986676675
  0
VERTEX
  8
0
 62
7
  6
CONTINUOUS
 10
33.7242837892
 20
112.6141094932
  0
VERTEX
  8
0
 62
7
  6
CONTINUOUS
 10
33.8145259091
 20
112.7075324514
  0
VERTEX
  8
0
 62
7
  6
CONTINUOUS
 10
33.9201957698
 20
112.7762532195
  0
VERTEX
  8
0
 62
7
  6
CONTINUOUS
 10
34.0352270389
 20
112.8178725383
  0
VERTEX
  8
0
 62
7
  6
CONTINUOUS
 10
34.1547681754
 20
112.8317940082
  0
SEQEND
  0
POLYLINE
  8
0
 62
7
  6
CONTINUOUS
 66
1
 70
0
  0
VERTEX
  8
0
 62
7
  6
CONTINUOUS
 10
33.2347681754
 20
104.4357734641
  0
VERTEX
  8
0
 62
7
  6
CONTINUOUS
 10
33.2195281534
 20
104.2958273312
  0
VERTEX
  8
0
 62
7
  6
CONTINUOUS
 10
33.1753012952
 20
104.164920349
  0
VERTEX
  8
0
 62
7
  6
CONTINUOUS
 10
33.1052525616
 20
104.0494785233
  0
VERTEX
  8
0
 62
7
  6
CONTINUOUS
 10
33.0150104416
 20
103.9560555651
  0
VERTEX
  8
0
 62
7
  6
CONTINUOUS
 10
32.9093405809
 20
103.887334797
  0
VERTEX
  8
0
 62
7
  6
CONTINUOUS
 10
32.7943093118
 20
103.8457154782
  0
VERTEX
  8
0
 62
7
  6
CONTINUOUS
 10
32.6747681754
 20
103.8317940082
  0
SEQEND
  0
LINE
  8
0
 62
7
  6
CONTINUOUS
 10
34.7247681754
 20
112.2278145523
 11
34.7247681754
 21
89.2917940082
  0
LINE
  8
0
 62
7
  6
CONTINUOUS
 10
38.4547681754
 20
89.2917940082
 11
38.4547681754
 21
112.2278145523
  0
LINE
  8
0
 62
7
  6
CONTINUOUS
 10
39.5847681754
 20
112.2278145523
 11
39.5847681754
 21
89.2917940082
  0
LINE
  8
0
 62
7
  6
CONTINUOUS
 10
39.6397681754
 20
85.5417940082
 11
39.6397681754
 21
92.2174236096
  0
LINE
  8
0
 62
7
  6
CONTINUOUS
 10
39.8897681754
 20
131.1217940082
 11
39.8897681754
 21
124.7497795706
  0
LINE
  8
0
 62
7
  6
CONTINUOUS
 10
39.9447681754
 20
104.4357734641
 11
39.9447681754
 21
127.3717940082
  0
LINE
  8
0
 62
7
  6
CONTINUOUS
 10
41.0747681754
 20
127.3717940082
 11
41.0747681754
 21
104.4357734641
  0
POLYLINE
  8
0
 62
7
  6
CONTINUOUS
 66
1
 70
0
  0
VERTEX
  8
0
 62
7
  6
CONTINUOUS
 10
39.889768632
 20
124.7498077308
  0
VERTEX
  8
0
 62
7
  6
CONTINUOUS
 10
39.8862981662
 20
124.6231614457
  0
VERTEX
  8
0
 62
7
  6
CONTINUOUS
 10
39.873688787
 20
124.484889391
  0
VERTEX
  8
0
 62
7
  6
CONTINUOUS
 10
39.8514646294
 20
124.3532417286
  0
VERTEX
  8
0
 62
7
  6
CONTINUOUS
 10
39.819548128
 20
124.2302351479
  0
VERTEX
  8
0
 62
7
  6
CONTINUOUS
 10
39.7782186881
 20
124.1178315529
  0
VERTEX
  8
0
 62
7
  6
CONTINUOUS
 10
39.7281512666
 20
124.0179846147
  0
VERTEX
  8
0
 62
7
  6
CONTINUOUS
 10
39.6701277622
 20
123.9321946982
  0
VERTEX
  8
0
 62
7
  6
CONTINUOUS
 10
39.6047148104
 20
123.8617209595
  0
VERTEX
  8
0
 62
7
  6
CONTINUOUS
 10
39.5330621352
 20
123.808870132
  0
VERTEX
  8
0
 62
7
  6
CONTINUOUS
 10
39.4571995152
 20
123.7766442355
  0
VERTEX
  8
0
 62
7
  6
CONTINUOUS
 10
39.3897681754
 20
123.7674897739
  0
SEQEND
  0
POLYLINE
  8
0
 62
7
  6
CONTINUOUS
 66
1
 70
0
  0
VERTEX
  8
0
 62
7
  6
CONTINUOUS
 10
39.6397679659
 20
91.9137713341
  0
VERTEX
  8
0
 62
7
  6
CONTINUOUS
 10
39.6432383673
 20
92.0404302475
  0
VERTEX
  8
0
 62
7
  6
CONTINUOUS
 10
39.655847956
 20
92.1787037638
  0
VERTEX
  8
0
 62
7
  6
CONTINUOUS
 10
39.6780720761
 20
92.3103487857
  0
VERTEX
  8
0
 62
7
  6
CONTINUOUS
 10
39.7099882735
 20
92.4333534503
  0
VERTEX
  8
0
 62
7
  6
CONTINUOUS
 10
39.7513178338
 20
92.5457569446
  0
VERTEX
  8
0
 62
7
  6
CONTINUOUS
 10
39.8013849538
 20
92.6456032081
  0
VERTEX
  8
0
 62
7
  6
CONTINUOUS
 10
39.8594089495
 20
92.7313936212
  0
VERTEX
  8
0
 62
7
  6
CONTINUOUS
 10
39.9248216585
 20
92.8018672328
  0
VERTEX
  8
0
 62
7
  6
CONTINUOUS
 10
39.9964749779
 20
92.8547183906
  0
VERTEX
  8
0
 62
7
  6
CONTINUOUS
 10
40.0723405858
 20
92.886944787
  0
VERTEX
  8
0
 62
7
  6
CONTINUOUS
 10
40.1397681754
 20
92.8960982411
  0
SEQEND
  0
POLYLINE
  8
0
 62
7
  6
CONTINUOUS
 66
1
 70
0
  0
VERTEX
  8
0
 62
7
  6
CONTINUOUS
 10
38.4547681754
 20
112.2278145523
  0
VERTEX
  8
0
 62
7
  6
CONTINUOUS
 10
38.4700081973
 20
112.3677606853
  0
VERTEX
  8
0
 62
7
  6
CONTINUOUS
 10
38.5142350556
 20
112.4986676675
  0
VERTEX
  8
0
 62
7
  6
CONTINUOUS
 10
38.5842837892
 20
112.6141094932
  0
VERTEX
  8
0
 62
7
  6
CONTINUOUS
 10
38.6745259091
 20
112.7075324514
  0
VERTEX
  8
0
 62
7
  6
CONTINUOUS
 10
38.7801957698
 20
112.7762532195
  0
VERTEX
  8
0
 62
7
  6
CONTINUOUS
 10
38.8952270389
 20
112.8178725383
  0
VERTEX
  8
0
 62
7
  6
CONTINUOUS
 10
39.0147681754
 20
112.8317940082
  0
SEQEND
  0
LINE
  8
0
 62
7
  6
CONTINUOUS
 10
44.8047681754
 20
104.4357734641
 11
44.8047681754
 21
127.3717940082
  0
POLYLINE
  8
0
 62
7
  6
CONTINUOUS
 66
1
 70
0
  0
VERTEX
  8
0
 62
7
  6
CONTINUOUS
 10
41.0747681754
 20
104.4357734641
  0
VERTEX
  8
0
 62
7
  6
CONTINUOUS
 10
41.0595281534
 20
104.2958273312
  0
VERTEX
  8
0
 62
7
  6
CONTINUOUS
 10
41.0153012952
 20
104.164920349
  0
VERTEX
  8
0
 62
7
  6
CONTINUOUS
 10
40.9452525616
 20
104.0494785233
  0
VERTEX
  8
0
 62
7
  6
CONTINUOUS
 10
40.8550104416
 20
103.9560555651
  0
VERTEX
  8
0
 62
7
  6
CONTINUOUS
 10
40.7493405809
 20
103.887334797
  0
VERTEX
  8
0
 62
7
  6
CONTINUOUS
 10
40.6343093118
 20
103.8457154782
  0
VERTEX
  8
0
 62
7
  6
CONTINUOUS
 10
40.5147681754
 20
103.8317940082
  0
SEQEND
  0
POLYLINE
  8
0
 62
7
  6
CONTINUOUS
 66
1
 70
0
  0
VERTEX
  8
0
 62
7
  6
CONTINUOUS
 10
52.5897681754
 20
128.6065388796
  0
VERTEX
  8
0
 62
7
  6
CONTINUOUS
 10
52.6040678959
 20
128.6257752572
  0
VERTEX
  8
0
 62
7
  6
CONTINUOUS
 10
52.6463062979
 20
128.6436906641
  0
VERTEX
  8
0
 62
7
  6
CONTINUOUS
 10
52.7143000782
 20
128.6593208977
  0
VERTEX
  8
0
 62
7
  6
CONTINUOUS
 10
52.7568484954
 20
128.6660132366
  0
VERTEX
  8
0
 62
7
  6
CONTINUOUS
 10
52.8560564527
 20
128.6767097239
  0
VERTEX
  8
0
 62
7
  6
CONTINUOUS
 10
52.9692233891
 20
128.6833701965
  0
VERTEX
  8
0
 62
7
  6
CONTINUOUS
 10
53.0897681754
 20
128.6856344893
  0
SEQEND
  0
LINE
  8
0
 62
7
  6
CONTINUOUS
 10
45.9347681754
 20
127.3717940082
 11
45.9347681754
 21
104.4357734641
  0
LINE
  8
0
 62
7
  6
CONTINUOUS
 10
45.9897681754
 20
124.7497795171
 11
45.9897681754
 21
131.1217940082
  0
LINE
  8
0
 62
7
  6
CONTINUOUS
 10
46.2397681754
 20
85.5417940082
 11
46.2397681754
 21
91.9138084459
  0
LINE
  8
0
 62
7
  6
CONTINUOUS
 10
46.2947681754
 20
89.2917940082
 11
46.2947681754
 21
112.2278145523
  0
LINE
  8
0
 62
7
  6
CONTINUOUS
 10
47.4247681754
 20
112.2278145523
 11
47.4247681754
 21
89.2917940082
  0
POLYLINE
  8
0
 62
7
  6
CONTINUOUS
 66
1
 70
0
  0
VERTEX
  8
0
 62
7
  6
CONTINUOUS
 10
46.2947681754
 20
112.2278145523
  0
VERTEX
  8
0
 62
7
  6
CONTINUOUS
 10
46.3100081973
 20
112.3677606853
  0
VERTEX
  8
0
 62
7
  6
CONTINUOUS
 10
46.3542350556
 20
112.4986676675
  0
VERTEX
  8
0
 62
7
  6
CONTINUOUS
 10
46.4242837892
 20
112.6141094932
  0
VERTEX
  8
0
 62
7
  6
CONTINUOUS
 10
46.5145259091
 20
112.7075324514
  0
VERTEX
  8
0
 62
7
  6
CONTINUOUS
 10
46.6201957698
 20
112.7762532195
  0
VERTEX
  8
0
 62
7
  6
CONTINUOUS
 10
46.7352270389
 20
112.8178725383
  0
VERTEX
  8
0
 62
7
  6
CONTINUOUS
 10
46.8547681754
 20
112.8317940082
  0
SEQEND
  0
POLYLINE
  8
0
 62
7
  6
CONTINUOUS
 66
1
 70
0
  0
VERTEX
  8
0
 62
7
  6
CONTINUOUS
 10
45.9347681754
 20
104.4357734641
  0
VERTEX
  8
0
 62
7
  6
CONTINUOUS
 10
45.9195281534
 20
104.2958273312
  0
VERTEX
  8
0
 62
7
  6
CONTINUOUS
 10
45.8753012952
 20
104.164920349
  0
VERTEX
  8
0
 62
7
  6
CONTINUOUS
 10
45.8052525616
 20
104.0494785233
  0
VERTEX
  8
0
 62
7
  6
CONTINUOUS
 10
45.7150104416
 20
103.9560555651
  0
VERTEX
  8
0
 62
7
  6
CONTINUOUS
 10
45.6093405809
 20
103.887334797
  0
VERTEX
  8
0
 62
7
  6
CONTINUOUS
 10
45.4943093118
 20
103.8457154782
  0
VERTEX
  8
0
 62
7
  6
CONTINUOUS
 10
45.3747681754
 20
103.8317940082
  0
SEQEND
  0
LINE
  8
0
 62
7
  6
CONTINUOUS
 10
51.1547681754
 20
89.2917940082
 11
51.1547681754
 21
112.2278145523
  0
LINE
  8
0
 62
7
  6
CONTINUOUS
 10
52.2847681754
 20
112.2278145523
 11
52.2847681754
 21
89.2917940082
  0
LINE
  8
0
 62
7
  6
CONTINUOUS
 10
52.3397681754
 20
85.5417940082
 11
52.3397681754
 21
91.9138084992
  0
LINE
  8
0
 62
7
  6
CONTINUOUS
 10
52.5897681754
 20
131.1217940082
 11
52.5897681754
 21
124.7497795706
  0
LINE
  8
0
 62
7
  6
CONTINUOUS
 10
52.6447681754
 20
104.4357734641
 11
52.6447681754
 21
127.3717940082
  0
POLYLINE
  8
0
 62
7
  6
CONTINUOUS
 66
1
 70
0
  0
VERTEX
  8
0
 62
7
  6
CONTINUOUS
 10
52.589768631
 20
124.74980763
  0
VERTEX
  8
0
 62
7
  6
CONTINUOUS
 10
52.5862981682
 20
124.6231614666
  0
VERTEX
  8
0
 62
7
  6
CONTINUOUS
 10
52.573688789
 20
124.4848894151
  0
VERTEX
  8
0
 62
7
  6
CONTINUOUS
 10
52.5514646304
 20
124.3532417344
  0
VERTEX
  8
0
 62
7
  6
CONTINUOUS
 10
52.5195481268
 20
124.2302351435
  0
VERTEX
  8
0
 62
7
  6
CONTINUOUS
 10
52.478218686
 20
124.1178315481
  0
VERTEX
  8
0
 62
7
  6
CONTINUOUS
 10
52.4281512486
 20
124.017984585
  0
VERTEX
  8
0
 62
7
  6
CONTINUOUS
 10
52.3701277659
 20
123.9321946979
  0
VERTEX
  8
0
 62
7
  6
CONTINUOUS
 10
52.3047147872
 20
123.8617209378
  0
VERTEX
  8
0
 62
7
  6
CONTINUOUS
 10
52.233062123
 20
123.8088701242
  0
VERTEX
  8
0
 62
7
  6
CONTINUOUS
 10
52.157199519
 20
123.7766442364
  0
VERTEX
  8
0
 62
7
  6
CONTINUOUS
 10
52.0897681754
 20
123.7674897743
  0
SEQEND
  0
POLYLINE
  8
0
 62
7
  6
CONTINUOUS
 66
1
 70
0
  0
VERTEX
  8
0
 62
7
  6
CONTINUOUS
 10
52.3397679662
 20
91.9137714181
  0
VERTEX
  8
0
 62
7
  6
CONTINUOUS
 10
52.3432383672
 20
92.0404302236
  0
VERTEX
  8
0
 62
7
  6
CONTINUOUS
 10
52.3558479539
 20
92.1787037317
  0
VERTEX
  8
0
 62
7
  6
CONTINUOUS
 10
52.3780720745
 20
92.3103487761
  0
VERTEX
  8
0
 62
7
  6
CONTINUOUS
 10
52.4099882741
 20
92.4333534524
  0
VERTEX
  8
0
 62
7
  6
CONTINUOUS
 10
52.4513178356
 20
92.5457569496
  0
VERTEX
  8
0
 62
7
  6
CONTINUOUS
 10
52.5013849642
 20
92.6456032271
  0
VERTEX
  8
0
 62
7
  6
CONTINUOUS
 10
52.5594089483
 20
92.7313936251
  0
VERTEX
  8
0
 62
7
  6
CONTINUOUS
 10
52.6248216833
 20
92.8018672559
  0
VERTEX
  8
0
 62
7
  6
CONTINUOUS
 10
52.6964749914
 20
92.8547183977
  0
VERTEX
  8
0
 62
7
  6
CONTINUOUS
 10
52.772340583
 20
92.8869447863
  0
VERTEX
  8
0
 62
7
  6
CONTINUOUS
 10
52.8397681754
 20
92.8960982407
  0
SEQEND
  0
POLYLINE
  8
0
 62
7
  6
CONTINUOUS
 66
1
 70
0
  0
VERTEX
  8
0
 62
7
  6
CONTINUOUS
 10
51.1547681754
 20
112.2278145523
  0
VERTEX
  8
0
 62
7
  6
CONTINUOUS
 10
51.1700081973
 20
112.3677606853
  0
VERTEX
  8
0
 62
7
  6
CONTINUOUS
 10
51.2142350556
 20
112.4986676675
  0
VERTEX
  8
0
 62
7
  6
CONTINUOUS
 10
51.2842837892
 20
112.6141094932
  0
VERTEX
  8
0
 62
7
  6
CONTINUOUS
 10
51.3745259091
 20
112.7075324514
  0
VERTEX
  8
0
 62
7
  6
CONTINUOUS
 10
51.4801957698
 20
112.7762532195
  0
VERTEX
  8
0
 62
7
  6
CONTINUOUS
 10
51.5952270389
 20
112.8178725383
  0
VERTEX
  8
0
 62
7
  6
CONTINUOUS
 10
51.7147681754
 20
112.8317940082
  0
SEQEND
  0
LINE
  8
0
 62
7
  6
CONTINUOUS
 10
24.6397681754
 20
85.0417940082
 11
26.4397681754
 21
85.0417940082
  0
LINE
  8
0
 62
7
  6
CONTINUOUS
 10
34.0397681754
 20
85.0417940082
 11
39.1397681754
 21
85.0417940082
  0
LINE
  8
0
 62
7
  6
CONTINUOUS
 10
46.7397681754
 20
85.0417940082
 11
51.8397681754
 21
85.0417940082
  0
LINE
  8
0
 62
7
  6
CONTINUOUS
 10
59.4397681754
 20
85.0417940082
 11
64.5397681754
 21
85.0417940082
  0
LINE
  8
0
 62
7
  6
CONTINUOUS
 10
72.1397681754
 20
85.0417940082
 11
77.2397681754
 21
85.0417940082
  0
LINE
  8
0
 62
7
  6
CONTINUOUS
 10
84.8397681754
 20
85.0417940082
 11
89.9397681754
 21
85.0417940082
  0
LINE
  8
0
 62
7
  6
CONTINUOUS
 10
97.5397681754
 20
85.0417940082
 11
102.6397681754
 21
85.0417940082
  0
LINE
  8
0
 62
7
  6
CONTINUOUS
 10
110.2397681754
 20
85.0417940082
 11
115.3397681754
 21
85.0417940082
  0
LINE
  8
0
 62
7
  6
CONTINUOUS
 10
122.9397681754
 20
85.0417940082
 11
124.7397681754
 21
85.0417940082
  0
POLYLINE
  8
0
 62
7
  6
CONTINUOUS
 66
1
 70
0
  0
VERTEX
  8
0
 62
7
  6
CONTINUOUS
 10
58.9397681754
 20
88.0570491369
  0
VERTEX
  8
0
 62
7
  6
CONTINUOUS
 10
58.9540678959
 20
88.0378127593
  0
VERTEX
  8
0
 62
7
  6
CONTINUOUS
 10
58.9963062979
 20
88.0198973524
  0
VERTEX
  8
0
 62
7
  6
CONTINUOUS
 10
59.0643000782
 20
88.0042671188
  0
VERTEX
  8
0
 62
7
  6
CONTINUOUS
 10
59.1068484954
 20
87.9975747799
  0
VERTEX
  8
0
 62
7
  6
CONTINUOUS
 10
59.2060564527
 20
87.9868782926
  0
VERTEX
  8
0
 62
7
  6
CONTINUOUS
 10
59.3192233891
 20
87.98021782
  0
VERTEX
  8
0
 62
7
  6
CONTINUOUS
 10
59.4397681754
 20
87.9779535272
  0
SEQEND
  0
LINE
  8
0
 62
7
  6
CONTINUOUS
 10
53.7747681754
 20
127.3717940082
 11
53.7747681754
 21
104.4357734641
  0
POLYLINE
  8
0
 62
7
  6
CONTINUOUS
 66
1
 70
0
  0
VERTEX
  8
0
 62
7
  6
CONTINUOUS
 10
53.7747681754
 20
104.4357734641
  0
VERTEX
  8
0
 62
7
  6
CONTINUOUS
 10
53.7595281534
 20
104.2958273312
  0
VERTEX
  8
0
 62
7
  6
CONTINUOUS
 10
53.7153012952
 20
104.164920349
  0
VERTEX
  8
0
 62
7
  6
CONTINUOUS
 10
53.6452525616
 20
104.0494785233
  0
VERTEX
  8
0
 62
7
  6
CONTINUOUS
 10
53.5550104416
 20
103.9560555651
  0
VERTEX
  8
0
 62
7
  6
CONTINUOUS
 10
53.4493405809
 20
103.887334797
  0
VERTEX
  8
0
 62
7
  6
CONTINUOUS
 10
53.3343093118
 20
103.8457154782
  0
VERTEX
  8
0
 62
7
  6
CONTINUOUS
 10
53.2147681754
 20
103.8317940082
  0
SEQEND
  0
POLYLINE
  8
0
 62
7
  6
CONTINUOUS
 66
1
 70
0
  0
VERTEX
  8
0
 62
7
  6
CONTINUOUS
 10
115.3397681754
 20
87.9779535272
  0
VERTEX
  8
0
 62
7
  6
CONTINUOUS
 10
115.4603129616
 20
87.98021782
  0
VERTEX
  8
0
 62
7
  6
CONTINUOUS
 10
115.5734798981
 20
87.9868782926
  0
VERTEX
  8
0
 62
7
  6
CONTINUOUS
 10
115.6726878553
 20
87.9975747799
  0
VERTEX
  8
0
 62
7
  6
CONTINUOUS
 10
115.7152362725
 20
88.0042671188
  0
VERTEX
  8
0
 62
7
  6
CONTINUOUS
 10
115.7832300529
 20
88.0198973524
  0
VERTEX
  8
0
 62
7
  6
CONTINUOUS
 10
115.8254684549
 20
88.0378127593
  0
VERTEX
  8
0
 62
7
  6
CONTINUOUS
 10
115.8397681754
 20
88.0570491369
  0
SEQEND
  0
POLYLINE
  8
0
 62
7
  6
CONTINUOUS
 66
1
 70
0
  0
VERTEX
  8
0
 62
7
  6
CONTINUOUS
 10
102.6397681754
 20
87.9779535272
  0
VERTEX
  8
0
 62
7
  6
CONTINUOUS
 10
102.7603129616
 20
87.98021782
  0
VERTEX
  8
0
 62
7
  6
CONTINUOUS
 10
102.8734798981
 20
87.9868782926
  0
VERTEX
  8
0
 62
7
  6
CONTINUOUS
 10
102.9726878553
 20
87.9975747799
  0
VERTEX
  8
0
 62
7
  6
CONTINUOUS
 10
103.0152362725
 20
88.0042671188
  0
VERTEX
  8
0
 62
7
  6
CONTINUOUS
 10
103.0832300529
 20
88.0198973524
  0
VERTEX
  8
0
 62
7
  6
CONTINUOUS
 10
103.1254684549
 20
88.0378127593
  0
VERTEX
  8
0
 62
7
  6
CONTINUOUS
 10
103.1397681754
 20
88.0570491369
  0
SEQEND
  0
POLYLINE
  8
0
 62
7
  6
CONTINUOUS
 66
1
 70
0
  0
VERTEX
  8
0
 62
7
  6
CONTINUOUS
 10
89.9397681754
 20
87.9779535272
  0
VERTEX
  8
0
 62
7
  6
CONTINUOUS
 10
90.0603129616
 20
87.98021782
  0
VERTEX
  8
0
 62
7
  6
CONTINUOUS
 10
90.1734798981
 20
87.9868782926
  0
VERTEX
  8
0
 62
7
  6
CONTINUOUS
 10
90.2726878553
 20
87.9975747799
  0
VERTEX
  8
0
 62
7
  6
CONTINUOUS
 10
90.3152362725
 20
88.0042671188
  0
VERTEX
  8
0
 62
7
  6
CONTINUOUS
 10
90.3832300529
 20
88.0198973524
  0
VERTEX
  8
0
 62
7
  6
CONTINUOUS
 10
90.4254684549
 20
88.0378127593
  0
VERTEX
  8
0
 62
7
  6
CONTINUOUS
 10
90.4397681754
 20
88.0570491369
  0
SEQEND
  0
POLYLINE
  8
0
 62
7
  6
CONTINUOUS
 66
1
 70
0
  0
VERTEX
  8
0
 62
7
  6
CONTINUOUS
 10
77.2397681754
 20
87.9779535272
  0
VERTEX
  8
0
 62
7
  6
CONTINUOUS
 10
77.3603129616
 20
87.98021782
  0
VERTEX
  8
0
 62
7
  6
CONTINUOUS
 10
77.4734798981
 20
87.9868782926
  0
VERTEX
  8
0
 62
7
  6
CONTINUOUS
 10
77.5726878553
 20
87.9975747799
  0
VERTEX
  8
0
 62
7
  6
CONTINUOUS
 10
77.6152362725
 20
88.0042671188
  0
VERTEX
  8
0
 62
7
  6
CONTINUOUS
 10
77.6832300529
 20
88.0198973524
  0
VERTEX
  8
0
 62
7
  6
CONTINUOUS
 10
77.7254684549
 20
88.0378127593
  0
VERTEX
  8
0
 62
7
  6
CONTINUOUS
 10
77.7397681754
 20
88.0570491369
  0
SEQEND
  0
POLYLINE
  8
0
 62
7
  6
CONTINUOUS
 66
1
 70
0
  0
VERTEX
  8
0
 62
7
  6
CONTINUOUS
 10
64.5397681754
 20
87.9779535272
  0
VERTEX
  8
0
 62
7
  6
CONTINUOUS
 10
64.6603129616
 20
87.98021782
  0
VERTEX
  8
0
 62
7
  6
CONTINUOUS
 10
64.7734798981
 20
87.9868782926
  0
VERTEX
  8
0
 62
7
  6
CONTINUOUS
 10
64.8726878553
 20
87.9975747799
  0
VERTEX
  8
0
 62
7
  6
CONTINUOUS
 10
64.9152362725
 20
88.0042671188
  0
VERTEX
  8
0
 62
7
  6
CONTINUOUS
 10
64.9832300529
 20
88.0198973524
  0
VERTEX
  8
0
 62
7
  6
CONTINUOUS
 10
65.0254684549
 20
88.0378127593
  0
VERTEX
  8
0
 62
7
  6
CONTINUOUS
 10
65.0397681754
 20
88.0570491369
  0
SEQEND
  0
POLYLINE
  8
0
 62
7
  6
CONTINUOUS
 66
1
 70
0
  0
VERTEX
  8
0
 62
7
  6
CONTINUOUS
 10
51.8397681754
 20
87.9779535272
  0
VERTEX
  8
0
 62
7
  6
CONTINUOUS
 10
51.9603129616
 20
87.98021782
  0
VERTEX
  8
0
 62
7
  6
CONTINUOUS
 10
52.0734798981
 20
87.9868782926
  0
VERTEX
  8
0
 62
7
  6
CONTINUOUS
 10
52.1726878553
 20
87.9975747799
  0
VERTEX
  8
0
 62
7
  6
CONTINUOUS
 10
52.2152362725
 20
88.0042671188
  0
VERTEX
  8
0
 62
7
  6
CONTINUOUS
 10
52.2832300529
 20
88.0198973524
  0
VERTEX
  8
0
 62
7
  6
CONTINUOUS
 10
52.3254684549
 20
88.0378127593
  0
VERTEX
  8
0
 62
7
  6
CONTINUOUS
 10
52.3397681754
 20
88.0570491369
  0
SEQEND
  0
POLYLINE
  8
0
 62
7
  6
CONTINUOUS
 66
1
 70
0
  0
VERTEX
  8
0
 62
7
  6
CONTINUOUS
 10
26.4397681754
 20
87.9779535272
  0
VERTEX
  8
0
 62
7
  6
CONTINUOUS
 10
26.5603129616
 20
87.98021782
  0
VERTEX
  8
0
 62
7
  6
CONTINUOUS
 10
26.6734798981
 20
87.9868782926
  0
VERTEX
  8
0
 62
7
  6
CONTINUOUS
 10
26.7726878553
 20
87.9975747799
  0
VERTEX
  8
0
 62
7
  6
CONTINUOUS
 10
26.8152362725
 20
88.0042671188
  0
VERTEX
  8
0
 62
7
  6
CONTINUOUS
 10
26.8832300529
 20
88.0198973524
  0
VERTEX
  8
0
 62
7
  6
CONTINUOUS
 10
26.9254684549
 20
88.0378127593
  0
VERTEX
  8
0
 62
7
  6
CONTINUOUS
 10
26.9397681754
 20
88.0570491369
  0
SEQEND
  0
LINE
  8
0
 62
7
  6
CONTINUOUS
 10
24.6397681754
 20
87.9779535272
 11
26.4397681754
 21
87.9779535272
  0
LINE
  8
0
 62
7
  6
CONTINUOUS
 10
34.0397681754
 20
87.9779535272
 11
39.1397681754
 21
87.9779535272
  0
LINE
  8
0
 62
7
  6
CONTINUOUS
 10
46.7397681754
 20
87.9779535272
 11
51.8397681754
 21
87.9779535272
  0
LINE
  8
0
 62
7
  6
CONTINUOUS
 10
59.4397681754
 20
87.9779535272
 11
64.5397681754
 21
87.9779535272
  0
LINE
  8
0
 62
7
  6
CONTINUOUS
 10
72.1397681754
 20
87.9779535272
 11
77.2397681754
 21
87.9779535272
  0
LINE
  8
0
 62
7
  6
CONTINUOUS
 10
84.8397681754
 20
87.9779535272
 11
89.9397681754
 21
87.9779535272
  0
LINE
  8
0
 62
7
  6
CONTINUOUS
 10
97.5397681754
 20
87.9779535272
 11
102.6397681754
 21
87.9779535272
  0
LINE
  8
0
 62
7
  6
CONTINUOUS
 10
110.2397681754
 20
87.9779535272
 11
115.3397681754
 21
87.9779535272
  0
LINE
  8
0
 62
7
  6
CONTINUOUS
 10
122.9397681754
 20
87.9779535272
 11
124.7397681754
 21
87.9779535272
  0
LINE
  8
0
 62
7
  6
CONTINUOUS
 10
123.0647681754
 20
88.7317940082
 11
123.0547681754
 21
88.7317940082
  0
LINE
  8
0
 62
7
  6
CONTINUOUS
 10
115.2247681754
 20
88.7317940082
 11
115.2147681754
 21
88.7317940082
  0
LINE
  8
0
 62
7
  6
CONTINUOUS
 10
110.3647681754
 20
88.7317940082
 11
110.3547681754
 21
88.7317940082
  0
LINE
  8
0
 62
7
  6
CONTINUOUS
 10
102.5247681754
 20
88.7317940082
 11
102.5147681754
 21
88.7317940082
  0
LINE
  8
0
 62
7
  6
CONTINUOUS
 10
97.6647681754
 20
88.7317940082
 11
97.6547681754
 21
88.7317940082
  0
LINE
  8
0
 62
7
  6
CONTINUOUS
 10
89.8247681754
 20
88.7317940082
 11
89.8147681754
 21
88.7317940082
  0
LINE
  8
0
 62
7
  6
CONTINUOUS
 10
84.9647681754
 20
88.7317940082
 11
84.9547681754
 21
88.7317940082
  0
LINE
  8
0
 62
7
  6
CONTINUOUS
 10
77.1247681754
 20
88.7317940082
 11
77.1147681754
 21
88.7317940082
  0
LINE
  8
0
 62
7
  6
CONTINUOUS
 10
72.2647681754
 20
88.7317940082
 11
72.2547681754
 21
88.7317940082
  0
LINE
  8
0
 62
7
  6
CONTINUOUS
 10
64.4247681754
 20
88.7317940082
 11
64.4147681754
 21
88.7317940082
  0
LINE
  8
0
 62
7
  6
CONTINUOUS
 10
59.5647681754
 20
88.7317940082
 11
59.5547681754
 21
88.7317940082
  0
LINE
  8
0
 62
7
  6
CONTINUOUS
 10
51.7247681754
 20
88.7317940082
 11
51.7147681754
 21
88.7317940082
  0
LINE
  8
0
 62
7
  6
CONTINUOUS
 10
46.8647681754
 20
88.7317940082
 11
46.8547681754
 21
88.7317940082
  0
LINE
  8
0
 62
7
  6
CONTINUOUS
 10
39.0247681754
 20
88.7317940082
 11
39.0147681754
 21
88.7317940082
  0
LINE
  8
0
 62
7
  6
CONTINUOUS
 10
34.1647681754
 20
88.7317940082
 11
34.1547681754
 21
88.7317940082
  0
LINE
  8
0
 62
7
  6
CONTINUOUS
 10
26.3247681754
 20
88.7317940082
 11
26.3147681754
 21
88.7317940082
  0
LINE
  8
1_AXIS
 62
2
  6
CENTER
 10
20.1672475232
 20
89.2817940082
 11
130.5514236306
 21
89.2817940082
  0
POLYLINE
  8
0
 62
7
  6
CONTINUOUS
 66
1
 70
0
  0
VERTEX
  8
0
 62
7
  6
CONTINUOUS
 10
24.6397681754
 20
87.9779535272
  0
VERTEX
  8
0
 62
7
  6
CONTINUOUS
 10
24.5192233891
 20
87.98021782
  0
VERTEX
  8
0
 62
7
  6
CONTINUOUS
 10
24.4060564527
 20
87.9868782926
  0
VERTEX
  8
0
 62
7
  6
CONTINUOUS
 10
24.3068484954
 20
87.9975747799
  0
VERTEX
  8
0
 62
7
  6
CONTINUOUS
 10
24.2643000782
 20
88.0042671188
  0
VERTEX
  8
0
 62
7
  6
CONTINUOUS
 10
24.1963062979
 20
88.0198973524
  0
VERTEX
  8
0
 62
7
  6
CONTINUOUS
 10
24.1540678959
 20
88.0378127593
  0
VERTEX
  8
0
 62
7
  6
CONTINUOUS
 10
24.1397681754
 20
88.0570491369
  0
SEQEND
  0
POLYLINE
  8
0
 62
7
  6
CONTINUOUS
 66
1
 70
0
  0
VERTEX
  8
0
 62
7
  6
CONTINUOUS
 10
46.7397681754
 20
87.9779535272
  0
VERTEX
  8
0
 62
7
  6
CONTINUOUS
 10
46.6192233891
 20
87.98021782
  0
VERTEX
  8
0
 62
7
  6
CONTINUOUS
 10
46.5060564527
 20
87.9868782926
  0
VERTEX
  8
0
 62
7
  6
CONTINUOUS
 10
46.4068484954
 20
87.9975747799
  0
VERTEX
  8
0
 62
7
  6
CONTINUOUS
 10
46.3643000782
 20
88.0042671188
  0
VERTEX
  8
0
 62
7
  6
CONTINUOUS
 10
46.2963062979
 20
88.0198973524
  0
VERTEX
  8
0
 62
7
  6
CONTINUOUS
 10
46.2540678959
 20
88.0378127593
  0
VERTEX
  8
0
 62
7
  6
CONTINUOUS
 10
46.2397681754
 20
88.0570491369
  0
SEQEND
  0
POLYLINE
  8
0
 62
7
  6
CONTINUOUS
 66
1
 70
0
  0
VERTEX
  8
0
 62
7
  6
CONTINUOUS
 10
33.039768171
 20
92.8960982431
  0
VERTEX
  8
0
 62
7
  6
CONTINUOUS
 10
33.1065572713
 20
92.8871172017
  0
VERTEX
  8
0
 62
7
  6
CONTINUOUS
 10
33.1824398038
 20
92.855078364
  0
VERTEX
  8
0
 62
7
  6
CONTINUOUS
 10
33.2541402442
 20
92.8023851251
  0
VERTEX
  8
0
 62
7
  6
CONTINUOUS
 10
33.3196132834
 20
92.732044925
  0
VERTEX
  8
0
 62
7
  6
CONTINUOUS
 10
33.3777019667
 20
92.6463741184
  0
VERTEX
  8
0
 62
7
  6
CONTINUOUS
 10
33.4278393606
 20
92.546636097
  0
VERTEX
  8
0
 62
7
  6
CONTINUOUS
 10
33.4692415594
 20
92.4343373577
  0
VERTEX
  8
0
 62
7
  6
CONTINUOUS
 10
33.5012336807
 20
92.311432723
  0
VERTEX
  8
0
 62
7
  6
CONTINUOUS
 10
33.5235357864
 20
92.1798868326
  0
VERTEX
  8
0
 62
7
  6
CONTINUOUS
 10
33.5362252317
 20
92.0417180435
  0
VERTEX
  8
0
 62
7
  6
CONTINUOUS
 10
33.5397686343
 20
91.9137806698
  0
SEQEND
  0
POLYLINE
  8
0
 62
7
  6
CONTINUOUS
 66
1
 70
0
  0
VERTEX
  8
0
 62
7
  6
CONTINUOUS
 10
45.7397681709
 20
92.8960982434
  0
VERTEX
  8
0
 62
7
  6
CONTINUOUS
 10
45.8065572682
 20
92.8871172025
  0
VERTEX
  8
0
 62
7
  6
CONTINUOUS
 10
45.8824398169
 20
92.8550783555
  0
VERTEX
  8
0
 62
7
  6
CONTINUOUS
 10
45.954140266
 20
92.8023851046
  0
VERTEX
  8
0
 62
7
  6
CONTINUOUS
 10
46.019613274
 20
92.7320449325
  0
VERTEX
  8
0
 62
7
  6
CONTINUOUS
 10
46.07770198
 20
92.6463740964
  0
VERTEX
  8
0
 62
7
  6
CONTINUOUS
 10
46.1278393619
 20
92.5466360943
  0
VERTEX
  8
0
 62
7
  6
CONTINUOUS
 10
46.1692415605
 20
92.4343373541
  0
VERTEX
  8
0
 62
7
  6
CONTINUOUS
 10
46.2012336799
 20
92.3114327288
  0
VERTEX
  8
0
 62
7
  6
CONTINUOUS
 10
46.2235357846
 20
92.1798868564
  0
VERTEX
  8
0
 62
7
  6
CONTINUOUS
 10
46.2362252293
 20
92.0417180669
  0
VERTEX
  8
0
 62
7
  6
CONTINUOUS
 10
46.2397686355
 20
91.9137805532
  0
SEQEND
  0
POLYLINE
  8
0
 62
7
  6
CONTINUOUS
 66
1
 70
0
  0
VERTEX
  8
0
 62
7
  6
CONTINUOUS
 10
33.2897681754
 20
128.6065388796
  0
VERTEX
  8
0
 62
7
  6
CONTINUOUS
 10
33.2754684549
 20
128.6257752572
  0
VERTEX
  8
0
 62
7
  6
CONTINUOUS
 10
33.2332300529
 20
128.6436906641
  0
VERTEX
  8
0
 62
7
  6
CONTINUOUS
 10
33.1652362725
 20
128.6593208977
  0
VERTEX
  8
0
 62
7
  6
CONTINUOUS
 10
33.1226878553
 20
128.6660132366
  0
VERTEX
  8
0
 62
7
  6
CONTINUOUS
 10
33.0234798981
 20
128.6767097239
  0
VERTEX
  8
0
 62
7
  6
CONTINUOUS
 10
32.9103129616
 20
128.6833701965
  0
VERTEX
  8
0
 62
7
  6
CONTINUOUS
 10
32.7897681754
 20
128.6856344893
  0
SEQEND
  0
LINE
  8
0
 62
7
  6
CONTINUOUS
 10
57.5047681754
 20
104.4357734641
 11
57.5047681754
 21
127.3717940082
  0
LINE
  8
0
 62
7
  6
CONTINUOUS
 10
58.6347681754
 20
127.3717940082
 11
58.6347681754
 21
104.4357734641
  0
LINE
  8
0
 62
7
  6
CONTINUOUS
 10
58.6897681754
 20
124.7497795172
 11
58.6897681754
 21
131.1217940082
  0
LINE
  8
0
 62
7
  6
CONTINUOUS
 10
58.9397681754
 20
85.5417940082
 11
58.9397681754
 21
91.9138084459
  0
LINE
  8
0
 62
7
  6
CONTINUOUS
 10
58.9947681754
 20
89.2917940082
 11
58.9947681754
 21
112.2278145523
  0
LINE
  8
0
 62
7
  6
CONTINUOUS
 10
60.1247681754
 20
112.2278145523
 11
60.1247681754
 21
89.2917940082
  0
POLYLINE
  8
0
 62
7
  6
CONTINUOUS
 66
1
 70
0
  0
VERTEX
  8
0
 62
7
  6
CONTINUOUS
 10
58.9947681754
 20
112.2278145523
  0
VERTEX
  8
0
 62
7
  6
CONTINUOUS
 10
59.0100081973
 20
112.3677606853
  0
VERTEX
  8
0
 62
7
  6
CONTINUOUS
 10
59.0542350556
 20
112.4986676675
  0
VERTEX
  8
0
 62
7
  6
CONTINUOUS
 10
59.1242837892
 20
112.6141094932
  0
VERTEX
  8
0
 62
7
  6
CONTINUOUS
 10
59.2145259091
 20
112.7075324514
  0
VERTEX
  8
0
 62
7
  6
CONTINUOUS
 10
59.3201957698
 20
112.7762532195
  0
VERTEX
  8
0
 62
7
  6
CONTINUOUS
 10
59.4352270389
 20
112.8178725383
  0
VERTEX
  8
0
 62
7
  6
CONTINUOUS
 10
59.5547681754
 20
112.8317940082
  0
SEQEND
  0
POLYLINE
  8
0
 62
7
  6
CONTINUOUS
 66
1
 70
0
  0
VERTEX
  8
0
 62
7
  6
CONTINUOUS
 10
58.6347681754
 20
104.4357734641
  0
VERTEX
  8
0
 62
7
  6
CONTINUOUS
 10
58.6195281534
 20
104.2958273312
  0
VERTEX
  8
0
 62
7
  6
CONTINUOUS
 10
58.5753012952
 20
104.164920349
  0
VERTEX
  8
0
 62
7
  6
CONTINUOUS
 10
58.5052525616
 20
104.0494785233
  0
VERTEX
  8
0
 62
7
  6
CONTINUOUS
 10
58.4150104416
 20
103.9560555651
  0
VERTEX
  8
0
 62
7
  6
CONTINUOUS
 10
58.3093405809
 20
103.887334797
  0
VERTEX
  8
0
 62
7
  6
CONTINUOUS
 10
58.1943093118
 20
103.8457154782
  0
VERTEX
  8
0
 62
7
  6
CONTINUOUS
 10
58.0747681754
 20
103.8317940082
  0
SEQEND
  0
POLYLINE
  8
0
 62
7
  6
CONTINUOUS
 66
1
 70
0
  0
VERTEX
  8
0
 62
7
  6
CONTINUOUS
 10
39.6397681754
 20
88.0570491369
  0
VERTEX
  8
0
 62
7
  6
CONTINUOUS
 10
39.6254684549
 20
88.0378127593
  0
VERTEX
  8
0
 62
7
  6
CONTINUOUS
 10
39.5832300529
 20
88.0198973524
  0
VERTEX
  8
0
 62
7
  6
CONTINUOUS
 10
39.5152362725
 20
88.0042671188
  0
VERTEX
  8
0
 62
7
  6
CONTINUOUS
 10
39.4726878553
 20
87.9975747799
  0
VERTEX
  8
0
 62
7
  6
CONTINUOUS
 10
39.3734798981
 20
87.9868782926
  0
VERTEX
  8
0
 62
7
  6
CONTINUOUS
 10
39.2603129616
 20
87.98021782
  0
VERTEX
  8
0
 62
7
  6
CONTINUOUS
 10
39.1397681754
 20
87.9779535272
  0
SEQEND
  0
LINE
  8
0
 62
7
  6
CONTINUOUS
 10
27.4397681754
 20
92.8960983237
 11
33.039768171
 21
92.8960983237
  0
LINE
  8
0
 62
7
  6
CONTINUOUS
 10
40.1397681754
 20
92.8960983237
 11
45.7397681709
 21
92.8960983237
  0
LINE
  8
0
 62
7
  6
CONTINUOUS
 10
52.8397681754
 20
92.8960983237
 11
58.439768171
 21
92.8960983237
  0
LINE
  8
0
 62
7
  6
CONTINUOUS
 10
65.5397681754
 20
92.8960983237
 11
71.1397681709
 21
92.8960983237
  0
LINE
  8
0
 62
7
  6
CONTINUOUS
 10
78.2397681754
 20
92.8960983237
 11
83.839768171
 21
92.8960983237
  0
LINE
  8
0
 62
7
  6
CONTINUOUS
 10
90.9397681754
 20
92.8960983237
 11
96.5397681709
 21
92.8960983237
  0
LINE
  8
0
 62
7
  6
CONTINUOUS
 10
103.6397681754
 20
92.8960983237
 11
109.239768171
 21
92.8960983237
  0
LINE
  8
0
 62
7
  6
CONTINUOUS
 10
116.3397681754
 20
92.8960983237
 11
121.939768171
 21
92.8960983237
  0
LINE
  8
0
 62
7
  6
CONTINUOUS
 10
23.9397681754
 20
93.8178156257
 11
24.1397681754
 21
93.8178156257
  0
LINE
  8
0
 62
7
  6
CONTINUOUS
 10
125.2397681754
 20
93.8178156257
 11
125.4397681754
 21
93.8178156257
  0
POLYLINE
  8
0
 62
7
  6
CONTINUOUS
 66
1
 70
0
  0
VERTEX
  8
0
 62
7
  6
CONTINUOUS
 10
58.439768171
 20
92.8960982431
  0
VERTEX
  8
0
 62
7
  6
CONTINUOUS
 10
58.5065572713
 20
92.8871172017
  0
VERTEX
  8
0
 62
7
  6
CONTINUOUS
 10
58.5824398038
 20
92.855078364
  0
VERTEX
  8
0
 62
7
  6
CONTINUOUS
 10
58.6541402442
 20
92.8023851251
  0
VERTEX
  8
0
 62
7
  6
CONTINUOUS
 10
58.7196132834
 20
92.732044925
  0
VERTEX
  8
0
 62
7
  6
CONTINUOUS
 10
58.7777019667
 20
92.6463741184
  0
VERTEX
  8
0
 62
7
  6
CONTINUOUS
 10
58.8278393606
 20
92.546636097
  0
VERTEX
  8
0
 62
7
  6
CONTINUOUS
 10
58.8692415594
 20
92.4343373577
  0
VERTEX
  8
0
 62
7
  6
CONTINUOUS
 10
58.9012336807
 20
92.311432723
  0
VERTEX
  8
0
 62
7
  6
CONTINUOUS
 10
58.9235357864
 20
92.1798868326
  0
VERTEX
  8
0
 62
7
  6
CONTINUOUS
 10
58.9362252317
 20
92.0417180435
  0
VERTEX
  8
0
 62
7
  6
CONTINUOUS
 10
58.9397686343
 20
91.9137806698
  0
SEQEND
  0
POLYLINE
  8
0
 62
7
  6
CONTINUOUS
 66
1
 70
0
  0
VERTEX
  8
0
 62
7
  6
CONTINUOUS
 10
71.1397681709
 20
92.8960982434
  0
VERTEX
  8
0
 62
7
  6
CONTINUOUS
 10
71.2065572682
 20
92.8871172025
  0
VERTEX
  8
0
 62
7
  6
CONTINUOUS
 10
71.2824398169
 20
92.8550783555
  0
VERTEX
  8
0
 62
7
  6
CONTINUOUS
 10
71.354140266
 20
92.8023851046
  0
VERTEX
  8
0
 62
7
  6
CONTINUOUS
 10
71.419613274
 20
92.7320449325
  0
VERTEX
  8
0
 62
7
  6
CONTINUOUS
 10
71.47770198
 20
92.6463740964
  0
VERTEX
  8
0
 62
7
  6
CONTINUOUS
 10
71.5278393619
 20
92.5466360943
  0
VERTEX
  8
0
 62
7
  6
CONTINUOUS
 10
71.5692415605
 20
92.4343373541
  0
VERTEX
  8
0
 62
7
  6
CONTINUOUS
 10
71.6012336799
 20
92.3114327288
  0
VERTEX
  8
0
 62
7
  6
CONTINUOUS
 10
71.6235357846
 20
92.1798868564
  0
VERTEX
  8
0
 62
7
  6
CONTINUOUS
 10
71.6362252293
 20
92.0417180669
  0
VERTEX
  8
0
 62
7
  6
CONTINUOUS
 10
71.6397686355
 20
91.9137805532
  0
SEQEND
  0
POLYLINE
  8
0
 62
7
  6
CONTINUOUS
 66
1
 70
0
  0
VERTEX
  8
0
 62
7
  6
CONTINUOUS
 10
71.6397681754
 20
88.0570491369
  0
VERTEX
  8
0
 62
7
  6
CONTINUOUS
 10
71.6540678959
 20
88.0378127593
  0
VERTEX
  8
0
 62
7
  6
CONTINUOUS
 10
71.6963062979
 20
88.0198973524
  0
VERTEX
  8
0
 62
7
  6
CONTINUOUS
 10
71.7643000782
 20
88.0042671188
  0
VERTEX
  8
0
 62
7
  6
CONTINUOUS
 10
71.8068484954
 20
87.9975747799
  0
VERTEX
  8
0
 62
7
  6
CONTINUOUS
 10
71.9060564527
 20
87.9868782926
  0
VERTEX
  8
0
 62
7
  6
CONTINUOUS
 10
72.0192233891
 20
87.98021782
  0
VERTEX
  8
0
 62
7
  6
CONTINUOUS
 10
72.1397681754
 20
87.9779535272
  0
SEQEND
  0
LINE
  8
0
 62
7
  6
CONTINUOUS
 10
63.8547681754
 20
89.2917940082
 11
63.8547681754
 21
112.2278145523
  0
POLYLINE
  8
0
 62
7
  6
CONTINUOUS
 66
1
 70
0
  0
VERTEX
  8
0
 62
7
  6
CONTINUOUS
 10
63.8547681754
 20
112.2278145523
  0
VERTEX
  8
0
 62
7
  6
CONTINUOUS
 10
63.8700081973
 20
112.3677606853
  0
VERTEX
  8
0
 62
7
  6
CONTINUOUS
 10
63.9142350556
 20
112.4986676675
  0
VERTEX
  8
0
 62
7
  6
CONTINUOUS
 10
63.9842837892
 20
112.6141094932
  0
VERTEX
  8
0
 62
7
  6
CONTINUOUS
 10
64.0745259091
 20
112.7075324514
  0
VERTEX
  8
0
 62
7
  6
CONTINUOUS
 10
64.1801957698
 20
112.7762532195
  0
VERTEX
  8
0
 62
7
  6
CONTINUOUS
 10
64.2952270389
 20
112.8178725383
  0
VERTEX
  8
0
 62
7
  6
CONTINUOUS
 10
64.4147681754
 20
112.8317940082
  0
SEQEND
  0
POLYLINE
  8
0
 62
7
  6
CONTINUOUS
 66
1
 70
0
  0
VERTEX
  8
0
 62
7
  6
CONTINUOUS
 10
83.839768171
 20
92.8960982431
  0
VERTEX
  8
0
 62
7
  6
CONTINUOUS
 10
83.9065572713
 20
92.8871172017
  0
VERTEX
  8
0
 62
7
  6
CONTINUOUS
 10
83.9824398038
 20
92.855078364
  0
VERTEX
  8
0
 62
7
  6
CONTINUOUS
 10
84.0541402442
 20
92.8023851251
  0
VERTEX
  8
0
 62
7
  6
CONTINUOUS
 10
84.1196132834
 20
92.732044925
  0
VERTEX
  8
0
 62
7
  6
CONTINUOUS
 10
84.1777019667
 20
92.6463741184
  0
VERTEX
  8
0
 62
7
  6
CONTINUOUS
 10
84.2278393606
 20
92.546636097
  0
VERTEX
  8
0
 62
7
  6
CONTINUOUS
 10
84.2692415594
 20
92.4343373577
  0
VERTEX
  8
0
 62
7
  6
CONTINUOUS
 10
84.3012336807
 20
92.311432723
  0
VERTEX
  8
0
 62
7
  6
CONTINUOUS
 10
84.3235357864
 20
92.1798868326
  0
VERTEX
  8
0
 62
7
  6
CONTINUOUS
 10
84.3362252317
 20
92.0417180435
  0
VERTEX
  8
0
 62
7
  6
CONTINUOUS
 10
84.3397686343
 20
91.9137806698
  0
SEQEND
  0
POLYLINE
  8
0
 62
7
  6
CONTINUOUS
 66
1
 70
0
  0
VERTEX
  8
0
 62
7
  6
CONTINUOUS
 10
96.5397681709
 20
92.8960982434
  0
VERTEX
  8
0
 62
7
  6
CONTINUOUS
 10
96.6065572682
 20
92.8871172025
  0
VERTEX
  8
0
 62
7
  6
CONTINUOUS
 10
96.6824398169
 20
92.8550783555
  0
VERTEX
  8
0
 62
7
  6
CONTINUOUS
 10
96.754140266
 20
92.8023851046
  0
VERTEX
  8
0
 62
7
  6
CONTINUOUS
 10
96.819613274
 20
92.7320449325
  0
VERTEX
  8
0
 62
7
  6
CONTINUOUS
 10
96.87770198
 20
92.6463740964
  0
VERTEX
  8
0
 62
7
  6
CONTINUOUS
 10
96.9278393619
 20
92.5466360943
  0
VERTEX
  8
0
 62
7
  6
CONTINUOUS
 10
96.9692415605
 20
92.4343373541
  0
VERTEX
  8
0
 62
7
  6
CONTINUOUS
 10
97.0012336799
 20
92.3114327288
  0
VERTEX
  8
0
 62
7
  6
CONTINUOUS
 10
97.0235357846
 20
92.1798868564
  0
VERTEX
  8
0
 62
7
  6
CONTINUOUS
 10
97.0362252293
 20
92.0417180669
  0
VERTEX
  8
0
 62
7
  6
CONTINUOUS
 10
97.0397686355
 20
91.9137805532
  0
SEQEND
  0
POLYLINE
  8
0
 62
7
  6
CONTINUOUS
 66
1
 70
0
  0
VERTEX
  8
0
 62
7
  6
CONTINUOUS
 10
109.239768171
 20
92.8960982431
  0
VERTEX
  8
0
 62
7
  6
CONTINUOUS
 10
109.3065572713
 20
92.8871172017
  0
VERTEX
  8
0
 62
7
  6
CONTINUOUS
 10
109.3824398038
 20
92.855078364
  0
VERTEX
  8
0
 62
7
  6
CONTINUOUS
 10
109.4541402442
 20
92.8023851251
  0
VERTEX
  8
0
 62
7
  6
CONTINUOUS
 10
109.5196132834
 20
92.732044925
  0
VERTEX
  8
0
 62
7
  6
CONTINUOUS
 10
109.5777019667
 20
92.6463741184
  0
VERTEX
  8
0
 62
7
  6
CONTINUOUS
 10
109.6278393606
 20
92.546636097
  0
VERTEX
  8
0
 62
7
  6
CONTINUOUS
 10
109.6692415594
 20
92.4343373577
  0
VERTEX
  8
0
 62
7
  6
CONTINUOUS
 10
109.7012336807
 20
92.311432723
  0
VERTEX
  8
0
 62
7
  6
CONTINUOUS
 10
109.7235357864
 20
92.1798868326
  0
VERTEX
  8
0
 62
7
  6
CONTINUOUS
 10
109.7362252317
 20
92.0417180435
  0
VERTEX
  8
0
 62
7
  6
CONTINUOUS
 10
109.7397686343
 20
91.9137806698
  0
SEQEND
  0
LINE
  8
0
 62
7
  6
CONTINUOUS
 10
64.9847681754
 20
112.2278145523
 11
64.9847681754
 21
89.2917940082
  0
LINE
  8
0
 62
7
  6
CONTINUOUS
 10
65.0397681754
 20
85.5417940082
 11
65.0397681754
 21
91.9138084993
  0
LINE
  8
0
 62
7
  6
CONTINUOUS
 10
65.2897681754
 20
131.1217940082
 11
65.2897681754
 21
124.7497795706
  0
LINE
  8
0
 62
7
  6
CONTINUOUS
 10
65.3447681754
 20
104.4357734641
 11
65.3447681754
 21
127.3717940082
  0
LINE
  8
0
 62
7
  6
CONTINUOUS
 10
66.4747681754
 20
127.3717940082
 11
66.4747681754
 21
104.4357734641
  0
POLYLINE
  8
0
 62
7
  6
CONTINUOUS
 66
1
 70
0
  0
VERTEX
  8
0
 62
7
  6
CONTINUOUS
 10
65.289768632
 20
124.7498077308
  0
VERTEX
  8
0
 62
7
  6
CONTINUOUS
 10
65.2862981662
 20
124.6231614457
  0
VERTEX
  8
0
 62
7
  6
CONTINUOUS
 10
65.273688787
 20
124.484889391
  0
VERTEX
  8
0
 62
7
  6
CONTINUOUS
 10
65.2514646294
 20
124.3532417286
  0
VERTEX
  8
0
 62
7
  6
CONTINUOUS
 10
65.219548128
 20
124.2302351479
  0
VERTEX
  8
0
 62
7
  6
CONTINUOUS
 10
65.1782186881
 20
124.1178315529
  0
VERTEX
  8
0
 62
7
  6
CONTINUOUS
 10
65.1281512666
 20
124.0179846147
  0
VERTEX
  8
0
 62
7
  6
CONTINUOUS
 10
65.0701277622
 20
123.9321946982
  0
VERTEX
  8
0
 62
7
  6
CONTINUOUS
 10
65.0047148104
 20
123.8617209595
  0
VERTEX
  8
0
 62
7
  6
CONTINUOUS
 10
64.9330621352
 20
123.808870132
  0
VERTEX
  8
0
 62
7
  6
CONTINUOUS
 10
64.8571995152
 20
123.7766442355
  0
VERTEX
  8
0
 62
7
  6
CONTINUOUS
 10
64.7897681754
 20
123.7674897739
  0
SEQEND
  0
POLYLINE
  8
0
 62
7
  6
CONTINUOUS
 66
1
 70
0
  0
VERTEX
  8
0
 62
7
  6
CONTINUOUS
 10
65.0397679659
 20
91.9137713341
  0
VERTEX
  8
0
 62
7
  6
CONTINUOUS
 10
65.0432383673
 20
92.0404302475
  0
VERTEX
  8
0
 62
7
  6
CONTINUOUS
 10
65.055847956
 20
92.1787037638
  0
VERTEX
  8
0
 62
7
  6
CONTINUOUS
 10
65.0780720761
 20
92.3103487857
  0
VERTEX
  8
0
 62
7
  6
CONTINUOUS
 10
65.1099882735
 20
92.4333534503
  0
VERTEX
  8
0
 62
7
  6
CONTINUOUS
 10
65.1513178338
 20
92.5457569446
  0
VERTEX
  8
0
 62
7
  6
CONTINUOUS
 10
65.2013849538
 20
92.6456032081
  0
VERTEX
  8
0
 62
7
  6
CONTINUOUS
 10
65.2594089495
 20
92.7313936212
  0
VERTEX
  8
0
 62
7
  6
CONTINUOUS
 10
65.3248216585
 20
92.8018672328
  0
VERTEX
  8
0
 62
7
  6
CONTINUOUS
 10
65.3964749779
 20
92.8547183906
  0
VERTEX
  8
0
 62
7
  6
CONTINUOUS
 10
65.4723405858
 20
92.886944787
  0
VERTEX
  8
0
 62
7
  6
CONTINUOUS
 10
65.5397681754
 20
92.8960982411
  0
SEQEND
  0
POLYLINE
  8
0
 62
7
  6
CONTINUOUS
 66
1
 70
0
  0
VERTEX
  8
0
 62
7
  6
CONTINUOUS
 10
66.4747681754
 20
104.4357734641
  0
VERTEX
  8
0
 62
7
  6
CONTINUOUS
 10
66.4595281534
 20
104.2958273312
  0
VERTEX
  8
0
 62
7
  6
CONTINUOUS
 10
66.4153012952
 20
104.164920349
  0
VERTEX
  8
0
 62
7
  6
CONTINUOUS
 10
66.3452525616
 20
104.0494785233
  0
VERTEX
  8
0
 62
7
  6
CONTINUOUS
 10
66.2550104416
 20
103.9560555651
  0
VERTEX
  8
0
 62
7
  6
CONTINUOUS
 10
66.1493405809
 20
103.887334797
  0
VERTEX
  8
0
 62
7
  6
CONTINUOUS
 10
66.0343093118
 20
103.8457154782
  0
VERTEX
  8
0
 62
7
  6
CONTINUOUS
 10
65.9147681754
 20
103.8317940082
  0
SEQEND
  0
POLYLINE
  8
0
 62
7
  6
CONTINUOUS
 66
1
 70
0
  0
VERTEX
  8
0
 62
7
  6
CONTINUOUS
 10
77.9897681754
 20
128.6065388796
  0
VERTEX
  8
0
 62
7
  6
CONTINUOUS
 10
78.0040678959
 20
128.6257752572
  0
VERTEX
  8
0
 62
7
  6
CONTINUOUS
 10
78.0463062979
 20
128.6436906641
  0
VERTEX
  8
0
 62
7
  6
CONTINUOUS
 10
78.1143000782
 20
128.6593208977
  0
VERTEX
  8
0
 62
7
  6
CONTINUOUS
 10
78.1568484954
 20
128.6660132366
  0
VERTEX
  8
0
 62
7
  6
CONTINUOUS
 10
78.2560564527
 20
128.6767097239
  0
VERTEX
  8
0
 62
7
  6
CONTINUOUS
 10
78.3692233891
 20
128.6833701965
  0
VERTEX
  8
0
 62
7
  6
CONTINUOUS
 10
78.4897681754
 20
128.6856344893
  0
SEQEND
  0
POLYLINE
  8
0
 62
7
  6
CONTINUOUS
 66
1
 70
0
  0
VERTEX
  8
0
 62
7
  6
CONTINUOUS
 10
27.8047681754
 20
103.8317940082
  0
VERTEX
  8
0
 62
7
  6
CONTINUOUS
 10
27.6852270389
 20
103.8457154782
  0
VERTEX
  8
0
 62
7
  6
CONTINUOUS
 10
27.5701957698
 20
103.887334797
  0
VERTEX
  8
0
 62
7
  6
CONTINUOUS
 10
27.4645259091
 20
103.9560555651
  0
VERTEX
  8
0
 62
7
  6
CONTINUOUS
 10
27.3742837892
 20
104.0494785233
  0
VERTEX
  8
0
 62
7
  6
CONTINUOUS
 10
27.3042350556
 20
104.164920349
  0
VERTEX
  8
0
 62
7
  6
CONTINUOUS
 10
27.2600081973
 20
104.2958273312
  0
VERTEX
  8
0
 62
7
  6
CONTINUOUS
 10
27.2447681754
 20
104.4357734641
  0
SEQEND
  0
POLYLINE
  8
0
 62
7
  6
CONTINUOUS
 66
1
 70
0
  0
VERTEX
  8
0
 62
7
  6
CONTINUOUS
 10
32.6647681754
 20
103.8317940082
  0
VERTEX
  8
0
 62
7
  6
CONTINUOUS
 10
32.5452270389
 20
103.8457154782
  0
VERTEX
  8
0
 62
7
  6
CONTINUOUS
 10
32.4301957698
 20
103.887334797
  0
VERTEX
  8
0
 62
7
  6
CONTINUOUS
 10
32.3245259091
 20
103.9560555651
  0
VERTEX
  8
0
 62
7
  6
CONTINUOUS
 10
32.2342837892
 20
104.0494785233
  0
VERTEX
  8
0
 62
7
  6
CONTINUOUS
 10
32.1642350556
 20
104.164920349
  0
VERTEX
  8
0
 62
7
  6
CONTINUOUS
 10
32.1200081973
 20
104.2958273312
  0
VERTEX
  8
0
 62
7
  6
CONTINUOUS
 10
32.1047681754
 20
104.4357734641
  0
SEQEND
  0
POLYLINE
  8
0
 62
7
  6
CONTINUOUS
 66
1
 70
0
  0
VERTEX
  8
0
 62
7
  6
CONTINUOUS
 10
40.5047681754
 20
103.8317940082
  0
VERTEX
  8
0
 62
7
  6
CONTINUOUS
 10
40.3852270389
 20
103.8457154782
  0
VERTEX
  8
0
 62
7
  6
CONTINUOUS
 10
40.2701957698
 20
103.887334797
  0
VERTEX
  8
0
 62
7
  6
CONTINUOUS
 10
40.1645259091
 20
103.9560555651
  0
VERTEX
  8
0
 62
7
  6
CONTINUOUS
 10
40.0742837892
 20
104.0494785233
  0
VERTEX
  8
0
 62
7
  6
CONTINUOUS
 10
40.0042350556
 20
104.164920349
  0
VERTEX
  8
0
 62
7
  6
CONTINUOUS
 10
39.9600081973
 20
104.2958273312
  0
VERTEX
  8
0
 62
7
  6
CONTINUOUS
 10
39.9447681754
 20
104.4357734641
  0
SEQEND
  0
POLYLINE
  8
0
 62
7
  6
CONTINUOUS
 66
1
 70
0
  0
VERTEX
  8
0
 62
7
  6
CONTINUOUS
 10
45.3647681754
 20
103.8317940082
  0
VERTEX
  8
0
 62
7
  6
CONTINUOUS
 10
45.2452270389
 20
103.8457154782
  0
VERTEX
  8
0
 62
7
  6
CONTINUOUS
 10
45.1301957698
 20
103.887334797
  0
VERTEX
  8
0
 62
7
  6
CONTINUOUS
 10
45.0245259091
 20
103.9560555651
  0
VERTEX
  8
0
 62
7
  6
CONTINUOUS
 10
44.9342837892
 20
104.0494785233
  0
VERTEX
  8
0
 62
7
  6
CONTINUOUS
 10
44.8642350556
 20
104.164920349
  0
VERTEX
  8
0
 62
7
  6
CONTINUOUS
 10
44.8200081973
 20
104.2958273312
  0
VERTEX
  8
0
 62
7
  6
CONTINUOUS
 10
44.8047681754
 20
104.4357734641
  0
SEQEND
  0
POLYLINE
  8
0
 62
7
  6
CONTINUOUS
 66
1
 70
0
  0
VERTEX
  8
0
 62
7
  6
CONTINUOUS
 10
53.2047681754
 20
103.8317940082
  0
VERTEX
  8
0
 62
7
  6
CONTINUOUS
 10
53.0852270389
 20
103.8457154782
  0
VERTEX
  8
0
 62
7
  6
CONTINUOUS
 10
52.9701957698
 20
103.887334797
  0
VERTEX
  8
0
 62
7
  6
CONTINUOUS
 10
52.8645259091
 20
103.9560555651
  0
VERTEX
  8
0
 62
7
  6
CONTINUOUS
 10
52.7742837892
 20
104.0494785233
  0
VERTEX
  8
0
 62
7
  6
CONTINUOUS
 10
52.7042350556
 20
104.164920349
  0
VERTEX
  8
0
 62
7
  6
CONTINUOUS
 10
52.6600081973
 20
104.2958273312
  0
VERTEX
  8
0
 62
7
  6
CONTINUOUS
 10
52.6447681754
 20
104.4357734641
  0
SEQEND
  0
POLYLINE
  8
0
 62
7
  6
CONTINUOUS
 66
1
 70
0
  0
VERTEX
  8
0
 62
7
  6
CONTINUOUS
 10
121.939768171
 20
92.8960982431
  0
VERTEX
  8
0
 62
7
  6
CONTINUOUS
 10
122.0065572713
 20
92.8871172017
  0
VERTEX
  8
0
 62
7
  6
CONTINUOUS
 10
122.0824398038
 20
92.855078364
  0
VERTEX
  8
0
 62
7
  6
CONTINUOUS
 10
122.1541402442
 20
92.8023851251
  0
VERTEX
  8
0
 62
7
  6
CONTINUOUS
 10
122.2196132834
 20
92.732044925
  0
VERTEX
  8
0
 62
7
  6
CONTINUOUS
 10
122.2777019667
 20
92.6463741184
  0
VERTEX
  8
0
 62
7
  6
CONTINUOUS
 10
122.3278393606
 20
92.546636097
  0
VERTEX
  8
0
 62
7
  6
CONTINUOUS
 10
122.3692415594
 20
92.4343373577
  0
VERTEX
  8
0
 62
7
  6
CONTINUOUS
 10
122.4012336807
 20
92.311432723
  0
VERTEX
  8
0
 62
7
  6
CONTINUOUS
 10
122.4235357864
 20
92.1798868326
  0
VERTEX
  8
0
 62
7
  6
CONTINUOUS
 10
122.4362252317
 20
92.0417180435
  0
VERTEX
  8
0
 62
7
  6
CONTINUOUS
 10
122.4397686343
 20
91.9137806698
  0
SEQEND
  0
LINE
  8
0
 62
7
  6
CONTINUOUS
 10
70.2047681754
 20
104.4357734641
 11
70.2047681754
 21
127.3717940082
  0
LINE
  8
0
 62
7
  6
CONTINUOUS
 10
71.3347681754
 20
127.3717940082
 11
71.3347681754
 21
104.4357734641
  0
LINE
  8
0
 62
7
  6
CONTINUOUS
 10
71.3897681754
 20
124.7497795171
 11
71.3897681754
 21
131.1217940082
  0
POLYLINE
  8
0
 62
7
  6
CONTINUOUS
 66
1
 70
0
  0
VERTEX
  8
0
 62
7
  6
CONTINUOUS
 10
71.6947681754
 20
112.2278145523
  0
VERTEX
  8
0
 62
7
  6
CONTINUOUS
 10
71.7100081973
 20
112.3677606853
  0
VERTEX
  8
0
 62
7
  6
CONTINUOUS
 10
71.7542350556
 20
112.4986676675
  0
VERTEX
  8
0
 62
7
  6
CONTINUOUS
 10
71.8242837892
 20
112.6141094932
  0
VERTEX
  8
0
 62
7
  6
CONTINUOUS
 10
71.9145259091
 20
112.7075324514
  0
VERTEX
  8
0
 62
7
  6
CONTINUOUS
 10
72.0201957698
 20
112.7762532195
  0
VERTEX
  8
0
 62
7
  6
CONTINUOUS
 10
72.1352270389
 20
112.8178725383
  0
VERTEX
  8
0
 62
7
  6
CONTINUOUS
 10
72.2547681754
 20
112.8317940082
  0
SEQEND
  0
LINE
  8
0
 62
7
  6
CONTINUOUS
 10
121.5747681754
 20
103.8317940082
 11
121.5647681754
 21
103.8317940082
  0
LINE
  8
0
 62
7
  6
CONTINUOUS
 10
116.7147681754
 20
103.8317940082
 11
116.7047681754
 21
103.8317940082
  0
LINE
  8
0
 62
7
  6
CONTINUOUS
 10
108.8747681754
 20
103.8317940082
 11
108.8647681754
 21
103.8317940082
  0
LINE
  8
0
 62
7
  6
CONTINUOUS
 10
104.0147681754
 20
103.8317940082
 11
104.0047681754
 21
103.8317940082
  0
LINE
  8
0
 62
7
  6
CONTINUOUS
 10
96.1747681754
 20
103.8317940082
 11
96.1647681754
 21
103.8317940082
  0
LINE
  8
0
 62
7
  6
CONTINUOUS
 10
91.3147681754
 20
103.8317940082
 11
91.3047681754
 21
103.8317940082
  0
LINE
  8
0
 62
7
  6
CONTINUOUS
 10
83.4747681754
 20
103.8317940082
 11
83.4647681754
 21
103.8317940082
  0
LINE
  8
0
 62
7
  6
CONTINUOUS
 10
78.6147681754
 20
103.8317940082
 11
78.6047681754
 21
103.8317940082
  0
LINE
  8
0
 62
7
  6
CONTINUOUS
 10
70.7747681754
 20
103.8317940082
 11
70.7647681754
 21
103.8317940082
  0
LINE
  8
0
 62
7
  6
CONTINUOUS
 10
65.9147681754
 20
103.8317940082
 11
65.9047681754
 21
103.8317940082
  0
LINE
  8
0
 62
7
  6
CONTINUOUS
 10
58.0747681754
 20
103.8317940082
 11
58.0647681754
 21
103.8317940082
  0
LINE
  8
0
 62
7
  6
CONTINUOUS
 10
53.2147681754
 20
103.8317940082
 11
53.2047681754
 21
103.8317940082
  0
LINE
  8
0
 62
7
  6
CONTINUOUS
 10
45.3747681754
 20
103.8317940082
 11
45.3647681754
 21
103.8317940082
  0
LINE
  8
0
 62
7
  6
CONTINUOUS
 10
40.5147681754
 20
103.8317940082
 11
40.5047681754
 21
103.8317940082
  0
LINE
  8
0
 62
7
  6
CONTINUOUS
 10
32.6747681754
 20
103.8317940082
 11
32.6647681754
 21
103.8317940082
  0
LINE
  8
0
 62
7
  6
CONTINUOUS
 10
27.8147681754
 20
103.8317940082
 11
27.8047681754
 21
103.8317940082
  0
POLYLINE
  8
0
 62
7
  6
CONTINUOUS
 66
1
 70
0
  0
VERTEX
  8
0
 62
7
  6
CONTINUOUS
 10
58.0647681754
 20
103.8317940082
  0
VERTEX
  8
0
 62
7
  6
CONTINUOUS
 10
57.9452270389
 20
103.8457154782
  0
VERTEX
  8
0
 62
7
  6
CONTINUOUS
 10
57.8301957698
 20
103.887334797
  0
VERTEX
  8
0
 62
7
  6
CONTINUOUS
 10
57.7245259091
 20
103.9560555651
  0
VERTEX
  8
0
 62
7
  6
CONTINUOUS
 10
57.6342837892
 20
104.0494785233
  0
VERTEX
  8
0
 62
7
  6
CONTINUOUS
 10
57.5642350556
 20
104.164920349
  0
VERTEX
  8
0
 62
7
  6
CONTINUOUS
 10
57.5200081973
 20
104.2958273312
  0
VERTEX
  8
0
 62
7
  6
CONTINUOUS
 10
57.5047681754
 20
104.4357734641
  0
SEQEND
  0
POLYLINE
  8
0
 62
7
  6
CONTINUOUS
 66
1
 70
0
  0
VERTEX
  8
0
 62
7
  6
CONTINUOUS
 10
65.9047681754
 20
103.8317940082
  0
VERTEX
  8
0
 62
7
  6
CONTINUOUS
 10
65.7852270389
 20
103.8457154782
  0
VERTEX
  8
0
 62
7
  6
CONTINUOUS
 10
65.6701957698
 20
103.887334797
  0
VERTEX
  8
0
 62
7
  6
CONTINUOUS
 10
65.5645259091
 20
103.9560555651
  0
VERTEX
  8
0
 62
7
  6
CONTINUOUS
 10
65.4742837892
 20
104.0494785233
  0
VERTEX
  8
0
 62
7
  6
CONTINUOUS
 10
65.4042350556
 20
104.164920349
  0
VERTEX
  8
0
 62
7
  6
CONTINUOUS
 10
65.3600081973
 20
104.2958273312
  0
VERTEX
  8
0
 62
7
  6
CONTINUOUS
 10
65.3447681754
 20
104.4357734641
  0
SEQEND
  0
POLYLINE
  8
0
 62
7
  6
CONTINUOUS
 66
1
 70
0
  0
VERTEX
  8
0
 62
7
  6
CONTINUOUS
 10
70.7647681754
 20
103.8317940082
  0
VERTEX
  8
0
 62
7
  6
CONTINUOUS
 10
70.6452270389
 20
103.8457154782
  0
VERTEX
  8
0
 62
7
  6
CONTINUOUS
 10
70.5301957698
 20
103.887334797
  0
VERTEX
  8
0
 62
7
  6
CONTINUOUS
 10
70.4245259091
 20
103.9560555651
  0
VERTEX
  8
0
 62
7
  6
CONTINUOUS
 10
70.3342837892
 20
104.0494785233
  0
VERTEX
  8
0
 62
7
  6
CONTINUOUS
 10
70.2642350556
 20
104.164920349
  0
VERTEX
  8
0
 62
7
  6
CONTINUOUS
 10
70.2200081973
 20
104.2958273312
  0
VERTEX
  8
0
 62
7
  6
CONTINUOUS
 10
70.2047681754
 20
104.4357734641
  0
SEQEND
  0
POLYLINE
  8
0
 62
7
  6
CONTINUOUS
 66
1
 70
0
  0
VERTEX
  8
0
 62
7
  6
CONTINUOUS
 10
78.6047681754
 20
103.8317940082
  0
VERTEX
  8
0
 62
7
  6
CONTINUOUS
 10
78.4852270389
 20
103.8457154782
  0
VERTEX
  8
0
 62
7
  6
CONTINUOUS
 10
78.3701957698
 20
103.887334797
  0
VERTEX
  8
0
 62
7
  6
CONTINUOUS
 10
78.2645259091
 20
103.9560555651
  0
VERTEX
  8
0
 62
7
  6
CONTINUOUS
 10
78.1742837892
 20
104.0494785233
  0
VERTEX
  8
0
 62
7
  6
CONTINUOUS
 10
78.1042350556
 20
104.164920349
  0
VERTEX
  8
0
 62
7
  6
CONTINUOUS
 10
78.0600081973
 20
104.2958273312
  0
VERTEX
  8
0
 62
7
  6
CONTINUOUS
 10
78.0447681754
 20
104.4357734641
  0
SEQEND
  0
POLYLINE
  8
0
 62
7
  6
CONTINUOUS
 66
1
 70
0
  0
VERTEX
  8
0
 62
7
  6
CONTINUOUS
 10
83.4647681754
 20
103.8317940082
  0
VERTEX
  8
0
 62
7
  6
CONTINUOUS
 10
83.3452270389
 20
103.8457154782
  0
VERTEX
  8
0
 62
7
  6
CONTINUOUS
 10
83.2301957698
 20
103.887334797
  0
VERTEX
  8
0
 62
7
  6
CONTINUOUS
 10
83.1245259091
 20
103.9560555651
  0
VERTEX
  8
0
 62
7
  6
CONTINUOUS
 10
83.0342837892
 20
104.0494785233
  0
VERTEX
  8
0
 62
7
  6
CONTINUOUS
 10
82.9642350556
 20
104.164920349
  0
VERTEX
  8
0
 62
7
  6
CONTINUOUS
 10
82.9200081973
 20
104.2958273312
  0
VERTEX
  8
0
 62
7
  6
CONTINUOUS
 10
82.9047681754
 20
104.4357734641
  0
SEQEND
  0
POLYLINE
  8
0
 62
7
  6
CONTINUOUS
 66
1
 70
0
  0
VERTEX
  8
0
 62
7
  6
CONTINUOUS
 10
84.3397681754
 20
88.0570491369
  0
VERTEX
  8
0
 62
7
  6
CONTINUOUS
 10
84.3540678959
 20
88.0378127593
  0
VERTEX
  8
0
 62
7
  6
CONTINUOUS
 10
84.3963062979
 20
88.0198973524
  0
VERTEX
  8
0
 62
7
  6
CONTINUOUS
 10
84.4643000782
 20
88.0042671188
  0
VERTEX
  8
0
 62
7
  6
CONTINUOUS
 10
84.5068484954
 20
87.9975747799
  0
VERTEX
  8
0
 62
7
  6
CONTINUOUS
 10
84.6060564527
 20
87.9868782926
  0
VERTEX
  8
0
 62
7
  6
CONTINUOUS
 10
84.7192233891
 20
87.98021782
  0
VERTEX
  8
0
 62
7
  6
CONTINUOUS
 10
84.8397681754
 20
87.9779535272
  0
SEQEND
  0
LINE
  8
0
 62
7
  6
CONTINUOUS
 10
71.6397681754
 20
85.5417940082
 11
71.6397681754
 21
91.9138084459
  0
LINE
  8
0
 62
7
  6
CONTINUOUS
 10
71.6947681754
 20
89.2917940082
 11
71.6947681754
 21
112.2278145523
  0
LINE
  8
0
 62
7
  6
CONTINUOUS
 10
72.8247681754
 20
112.2278145523
 11
72.8247681754
 21
89.2917940082
  0
LINE
  8
1_AXIS
 62
2
  6
CENTER
 10
74.6897681754
 20
133.8344758293
 11
74.6897681754
 21
110.3318940082
  0
LINE
  8
1_AXIS
 62
2
  6
CONTINUOUS
 10
74.6897681754
 20
109.2117940082
 11
74.6897681754
 21
107.4517940082
  0
LINE
  8
1_AXIS
 62
2
  6
CENTER
 10
74.6897681754
 20
80.765160393
 11
74.6897681754
 21
106.3316940082
  0
POLYLINE
  8
0
 62
7
  6
CONTINUOUS
 66
1
 70
0
  0
VERTEX
  8
0
 62
7
  6
CONTINUOUS
 10
71.3347681754
 20
104.4357734641
  0
VERTEX
  8
0
 62
7
  6
CONTINUOUS
 10
71.3195281534
 20
104.2958273312
  0
VERTEX
  8
0
 62
7
  6
CONTINUOUS
 10
71.2753012952
 20
104.164920349
  0
VERTEX
  8
0
 62
7
  6
CONTINUOUS
 10
71.2052525616
 20
104.0494785233
  0
VERTEX
  8
0
 62
7
  6
CONTINUOUS
 10
71.1150104416
 20
103.9560555651
  0
VERTEX
  8
0
 62
7
  6
CONTINUOUS
 10
71.0093405809
 20
103.887334797
  0
VERTEX
  8
0
 62
7
  6
CONTINUOUS
 10
70.8943093118
 20
103.8457154782
  0
VERTEX
  8
0
 62
7
  6
CONTINUOUS
 10
70.7747681754
 20
103.8317940082
  0
SEQEND
  0
LINE
  8
1_AXIS
 62
2
  6
CENTER
 10
131.8577452413
 20
108.3317940082
 11
76.6898681754
 21
108.3317940082
  0
LINE
  8
1_AXIS
 62
2
  6
CONTINUOUS
 10
75.5697681754
 20
108.3317940082
 11
73.8097681754
 21
108.3317940082
  0
LINE
  8
1_AXIS
 62
2
  6
CENTER
 10
17.7178945031
 20
108.3317940082
 11
72.6896681754
 21
108.3317940082
  0
POLYLINE
  8
0
 62
7
  6
CONTINUOUS
 66
1
 70
0
  0
VERTEX
  8
0
 62
7
  6
CONTINUOUS
 10
91.3047681754
 20
103.8317940082
  0
VERTEX
  8
0
 62
7
  6
CONTINUOUS
 10
91.1852270389
 20
103.8457154782
  0
VERTEX
  8
0
 62
7
  6
CONTINUOUS
 10
91.0701957698
 20
103.887334797
  0
VERTEX
  8
0
 62
7
  6
CONTINUOUS
 10
90.9645259091
 20
103.9560555651
  0
VERTEX
  8
0
 62
7
  6
CONTINUOUS
 10
90.8742837892
 20
104.0494785233
  0
VERTEX
  8
0
 62
7
  6
CONTINUOUS
 10
90.8042350556
 20
104.164920349
  0
VERTEX
  8
0
 62
7
  6
CONTINUOUS
 10
90.7600081973
 20
104.2958273312
  0
VERTEX
  8
0
 62
7
  6
CONTINUOUS
 10
90.7447681754
 20
104.4357734641
  0
SEQEND
  0
POLYLINE
  8
0
 62
7
  6
CONTINUOUS
 66
1
 70
0
  0
VERTEX
  8
0
 62
7
  6
CONTINUOUS
 10
96.1647681754
 20
103.8317940082
  0
VERTEX
  8
0
 62
7
  6
CONTINUOUS
 10
96.0452270389
 20
103.8457154782
  0
VERTEX
  8
0
 62
7
  6
CONTINUOUS
 10
95.9301957698
 20
103.887334797
  0
VERTEX
  8
0
 62
7
  6
CONTINUOUS
 10
95.8245259091
 20
103.9560555651
  0
VERTEX
  8
0
 62
7
  6
CONTINUOUS
 10
95.7342837892
 20
104.0494785233
  0
VERTEX
  8
0
 62
7
  6
CONTINUOUS
 10
95.6642350556
 20
104.164920349
  0
VERTEX
  8
0
 62
7
  6
CONTINUOUS
 10
95.6200081973
 20
104.2958273312
  0
VERTEX
  8
0
 62
7
  6
CONTINUOUS
 10
95.6047681754
 20
104.4357734641
  0
SEQEND
  0
POLYLINE
  8
0
 62
7
  6
CONTINUOUS
 66
1
 70
0
  0
VERTEX
  8
0
 62
7
  6
CONTINUOUS
 10
26.3247681754
 20
112.8317940082
  0
VERTEX
  8
0
 62
7
  6
CONTINUOUS
 10
26.4443093118
 20
112.8178725383
  0
VERTEX
  8
0
 62
7
  6
CONTINUOUS
 10
26.5593405809
 20
112.7762532195
  0
VERTEX
  8
0
 62
7
  6
CONTINUOUS
 10
26.6650104416
 20
112.7075324514
  0
VERTEX
  8
0
 62
7
  6
CONTINUOUS
 10
26.7552525616
 20
112.6141094932
  0
VERTEX
  8
0
 62
7
  6
CONTINUOUS
 10
26.8253012952
 20
112.4986676675
  0
VERTEX
  8
0
 62
7
  6
CONTINUOUS
 10
26.8695281534
 20
112.3677606853
  0
VERTEX
  8
0
 62
7
  6
CONTINUOUS
 10
26.8847681754
 20
112.2278145523
  0
SEQEND
  0
POLYLINE
  8
0
 62
7
  6
CONTINUOUS
 66
1
 70
0
  0
VERTEX
  8
0
 62
7
  6
CONTINUOUS
 10
104.0047681754
 20
103.8317940082
  0
VERTEX
  8
0
 62
7
  6
CONTINUOUS
 10
103.8852270389
 20
103.8457154782
  0
VERTEX
  8
0
 62
7
  6
CONTINUOUS
 10
103.7701957698
 20
103.887334797
  0
VERTEX
  8
0
 62
7
  6
CONTINUOUS
 10
103.6645259091
 20
103.9560555651
  0
VERTEX
  8
0
 62
7
  6
CONTINUOUS
 10
103.5742837892
 20
104.0494785233
  0
VERTEX
  8
0
 62
7
  6
CONTINUOUS
 10
103.5042350556
 20
104.164920349
  0
VERTEX
  8
0
 62
7
  6
CONTINUOUS
 10
103.4600081973
 20
104.2958273312
  0
VERTEX
  8
0
 62
7
  6
CONTINUOUS
 10
103.4447681754
 20
104.4357734641
  0
SEQEND
  0
POLYLINE
  8
0
 62
7
  6
CONTINUOUS
 66
1
 70
0
  0
VERTEX
  8
0
 62
7
  6
CONTINUOUS
 10
108.8647681754
 20
103.8317940082
  0
VERTEX
  8
0
 62
7
  6
CONTINUOUS
 10
108.7452270389
 20
103.8457154782
  0
VERTEX
  8
0
 62
7
  6
CONTINUOUS
 10
108.6301957698
 20
103.887334797
  0
VERTEX
  8
0
 62
7
  6
CONTINUOUS
 10
108.5245259091
 20
103.9560555651
  0
VERTEX
  8
0
 62
7
  6
CONTINUOUS
 10
108.4342837892
 20
104.0494785233
  0
VERTEX
  8
0
 62
7
  6
CONTINUOUS
 10
108.3642350556
 20
104.164920349
  0
VERTEX
  8
0
 62
7
  6
CONTINUOUS
 10
108.3200081973
 20
104.2958273312
  0
VERTEX
  8
0
 62
7
  6
CONTINUOUS
 10
108.3047681754
 20
104.4357734641
  0
SEQEND
  0
POLYLINE
  8
0
 62
7
  6
CONTINUOUS
 66
1
 70
0
  0
VERTEX
  8
0
 62
7
  6
CONTINUOUS
 10
34.1647681754
 20
112.8317940082
  0
VERTEX
  8
0
 62
7
  6
CONTINUOUS
 10
34.2843093118
 20
112.8178725383
  0
VERTEX
  8
0
 62
7
  6
CONTINUOUS
 10
34.3993405809
 20
112.7762532195
  0
VERTEX
  8
0
 62
7
  6
CONTINUOUS
 10
34.5050104416
 20
112.7075324514
  0
VERTEX
  8
0
 62
7
  6
CONTINUOUS
 10
34.5952525616
 20
112.6141094932
  0
VERTEX
  8
0
 62
7
  6
CONTINUOUS
 10
34.6653012952
 20
112.4986676675
  0
VERTEX
  8
0
 62
7
  6
CONTINUOUS
 10
34.7095281534
 20
112.3677606853
  0
VERTEX
  8
0
 62
7
  6
CONTINUOUS
 10
34.7247681754
 20
112.2278145523
  0
SEQEND
  0
POLYLINE
  8
0
 62
7
  6
CONTINUOUS
 66
1
 70
0
  0
VERTEX
  8
0
 62
7
  6
CONTINUOUS
 10
39.0247681754
 20
112.8317940082
  0
VERTEX
  8
0
 62
7
  6
CONTINUOUS
 10
39.1443093118
 20
112.8178725383
  0
VERTEX
  8
0
 62
7
  6
CONTINUOUS
 10
39.2593405809
 20
112.7762532195
  0
VERTEX
  8
0
 62
7
  6
CONTINUOUS
 10
39.3650104416
 20
112.7075324514
  0
VERTEX
  8
0
 62
7
  6
CONTINUOUS
 10
39.4552525616
 20
112.6141094932
  0
VERTEX
  8
0
 62
7
  6
CONTINUOUS
 10
39.5253012952
 20
112.4986676675
  0
VERTEX
  8
0
 62
7
  6
CONTINUOUS
 10
39.5695281534
 20
112.3677606853
  0
VERTEX
  8
0
 62
7
  6
CONTINUOUS
 10
39.5847681754
 20
112.2278145523
  0
SEQEND
  0
POLYLINE
  8
0
 62
7
  6
CONTINUOUS
 66
1
 70
0
  0
VERTEX
  8
0
 62
7
  6
CONTINUOUS
 10
116.7047681754
 20
103.8317940082
  0
VERTEX
  8
0
 62
7
  6
CONTINUOUS
 10
116.5852270389
 20
103.8457154782
  0
VERTEX
  8
0
 62
7
  6
CONTINUOUS
 10
116.4701957698
 20
103.887334797
  0
VERTEX
  8
0
 62
7
  6
CONTINUOUS
 10
116.3645259091
 20
103.9560555651
  0
VERTEX
  8
0
 62
7
  6
CONTINUOUS
 10
116.2742837892
 20
104.0494785233
  0
VERTEX
  8
0
 62
7
  6
CONTINUOUS
 10
116.2042350556
 20
104.164920349
  0
VERTEX
  8
0
 62
7
  6
CONTINUOUS
 10
116.1600081973
 20
104.2958273312
  0
VERTEX
  8
0
 62
7
  6
CONTINUOUS
 10
116.1447681754
 20
104.4357734641
  0
SEQEND
  0
POLYLINE
  8
0
 62
7
  6
CONTINUOUS
 66
1
 70
0
  0
VERTEX
  8
0
 62
7
  6
CONTINUOUS
 10
58.6897681754
 20
128.6065388796
  0
VERTEX
  8
0
 62
7
  6
CONTINUOUS
 10
58.6754684549
 20
128.6257752572
  0
VERTEX
  8
0
 62
7
  6
CONTINUOUS
 10
58.6332300529
 20
128.6436906641
  0
VERTEX
  8
0
 62
7
  6
CONTINUOUS
 10
58.5652362725
 20
128.6593208977
  0
VERTEX
  8
0
 62
7
  6
CONTINUOUS
 10
58.5226878553
 20
128.6660132366
  0
VERTEX
  8
0
 62
7
  6
CONTINUOUS
 10
58.4234798981
 20
128.6767097239
  0
VERTEX
  8
0
 62
7
  6
CONTINUOUS
 10
58.3103129616
 20
128.6833701965
  0
VERTEX
  8
0
 62
7
  6
CONTINUOUS
 10
58.1897681754
 20
128.6856344893
  0
SEQEND
  0
LINE
  8
0
 62
7
  6
CONTINUOUS
 10
76.5547681754
 20
89.2917940082
 11
76.5547681754
 21
112.2278145523
  0
LINE
  8
0
 62
7
  6
CONTINUOUS
 10
77.6847681754
 20
112.2278145523
 11
77.6847681754
 21
89.2917940082
  0
LINE
  8
0
 62
7
  6
CONTINUOUS
 10
77.7397681754
 20
85.5417940082
 11
77.7397681754
 21
91.9138084992
  0
LINE
  8
0
 62
7
  6
CONTINUOUS
 10
77.9897681754
 20
124.7497795706
 11
77.9897681754
 21
131.1217940082
  0
LINE
  8
0
 62
7
  6
CONTINUOUS
 10
78.0447681754
 20
104.4357734641
 11
78.0447681754
 21
127.3717940082
  0
POLYLINE
  8
0
 62
7
  6
CONTINUOUS
 66
1
 70
0
  0
VERTEX
  8
0
 62
7
  6
CONTINUOUS
 10
77.989768631
 20
124.74980763
  0
VERTEX
  8
0
 62
7
  6
CONTINUOUS
 10
77.9862981682
 20
124.6231614666
  0
VERTEX
  8
0
 62
7
  6
CONTINUOUS
 10
77.973688789
 20
124.4848894151
  0
VERTEX
  8
0
 62
7
  6
CONTINUOUS
 10
77.9514646304
 20
124.3532417344
  0
VERTEX
  8
0
 62
7
  6
CONTINUOUS
 10
77.9195481268
 20
124.2302351435
  0
VERTEX
  8
0
 62
7
  6
CONTINUOUS
 10
77.878218686
 20
124.1178315481
  0
VERTEX
  8
0
 62
7
  6
CONTINUOUS
 10
77.8281512486
 20
124.017984585
  0
VERTEX
  8
0
 62
7
  6
CONTINUOUS
 10
77.7701277659
 20
123.9321946979
  0
VERTEX
  8
0
 62
7
  6
CONTINUOUS
 10
77.7047147872
 20
123.8617209378
  0
VERTEX
  8
0
 62
7
  6
CONTINUOUS
 10
77.633062123
 20
123.8088701242
  0
VERTEX
  8
0
 62
7
  6
CONTINUOUS
 10
77.557199519
 20
123.7766442364
  0
VERTEX
  8
0
 62
7
  6
CONTINUOUS
 10
77.4897681754
 20
123.7674897743
  0
SEQEND
  0
POLYLINE
  8
0
 62
7
  6
CONTINUOUS
 66
1
 70
0
  0
VERTEX
  8
0
 62
7
  6
CONTINUOUS
 10
77.7397679662
 20
91.9137714181
  0
VERTEX
  8
0
 62
7
  6
CONTINUOUS
 10
77.7432383672
 20
92.0404302236
  0
VERTEX
  8
0
 62
7
  6
CONTINUOUS
 10
77.7558479539
 20
92.1787037317
  0
VERTEX
  8
0
 62
7
  6
CONTINUOUS
 10
77.7780720745
 20
92.3103487761
  0
VERTEX
  8
0
 62
7
  6
CONTINUOUS
 10
77.8099882741
 20
92.4333534524
  0
VERTEX
  8
0
 62
7
  6
CONTINUOUS
 10
77.8513178356
 20
92.5457569496
  0
VERTEX
  8
0
 62
7
  6
CONTINUOUS
 10
77.9013849642
 20
92.6456032271
  0
VERTEX
  8
0
 62
7
  6
CONTINUOUS
 10
77.9594089483
 20
92.7313936251
  0
VERTEX
  8
0
 62
7
  6
CONTINUOUS
 10
78.0248216833
 20
92.8018672559
  0
VERTEX
  8
0
 62
7
  6
CONTINUOUS
 10
78.0964749914
 20
92.8547183977
  0
VERTEX
  8
0
 62
7
  6
CONTINUOUS
 10
78.172340583
 20
92.8869447863
  0
VERTEX
  8
0
 62
7
  6
CONTINUOUS
 10
78.2397681754
 20
92.8960982407
  0
SEQEND
  0
POLYLINE
  8
0
 62
7
  6
CONTINUOUS
 66
1
 70
0
  0
VERTEX
  8
0
 62
7
  6
CONTINUOUS
 10
76.5547681754
 20
112.2278145523
  0
VERTEX
  8
0
 62
7
  6
CONTINUOUS
 10
76.5700081973
 20
112.3677606853
  0
VERTEX
  8
0
 62
7
  6
CONTINUOUS
 10
76.6142350556
 20
112.4986676675
  0
VERTEX
  8
0
 62
7
  6
CONTINUOUS
 10
76.6842837892
 20
112.6141094932
  0
VERTEX
  8
0
 62
7
  6
CONTINUOUS
 10
76.7745259091
 20
112.7075324514
  0
VERTEX
  8
0
 62
7
  6
CONTINUOUS
 10
76.8801957698
 20
112.7762532195
  0
VERTEX
  8
0
 62
7
  6
CONTINUOUS
 10
76.9952270389
 20
112.8178725383
  0
VERTEX
  8
0
 62
7
  6
CONTINUOUS
 10
77.1147681754
 20
112.8317940082
  0
SEQEND
  0
POLYLINE
  8
0
 62
7
  6
CONTINUOUS
 66
1
 70
0
  0
VERTEX
  8
0
 62
7
  6
CONTINUOUS
 10
121.5647681754
 20
103.8317940082
  0
VERTEX
  8
0
 62
7
  6
CONTINUOUS
 10
121.4452270389
 20
103.8457154782
  0
VERTEX
  8
0
 62
7
  6
CONTINUOUS
 10
121.3301957698
 20
103.887334797
  0
VERTEX
  8
0
 62
7
  6
CONTINUOUS
 10
121.2245259091
 20
103.9560555651
  0
VERTEX
  8
0
 62
7
  6
CONTINUOUS
 10
121.1342837892
 20
104.0494785233
  0
VERTEX
  8
0
 62
7
  6
CONTINUOUS
 10
121.0642350556
 20
104.164920349
  0
VERTEX
  8
0
 62
7
  6
CONTINUOUS
 10
121.0200081973
 20
104.2958273312
  0
VERTEX
  8
0
 62
7
  6
CONTINUOUS
 10
121.0047681754
 20
104.4357734641
  0
SEQEND
  0
POLYLINE
  8
0
 62
7
  6
CONTINUOUS
 66
1
 70
0
  0
VERTEX
  8
0
 62
7
  6
CONTINUOUS
 10
46.8647681754
 20
112.8317940082
  0
VERTEX
  8
0
 62
7
  6
CONTINUOUS
 10
46.9843093118
 20
112.8178725383
  0
VERTEX
  8
0
 62
7
  6
CONTINUOUS
 10
47.0993405809
 20
112.7762532195
  0
VERTEX
  8
0
 62
7
  6
CONTINUOUS
 10
47.2050104416
 20
112.7075324514
  0
VERTEX
  8
0
 62
7
  6
CONTINUOUS
 10
47.2952525616
 20
112.6141094932
  0
VERTEX
  8
0
 62
7
  6
CONTINUOUS
 10
47.3653012952
 20
112.4986676675
  0
VERTEX
  8
0
 62
7
  6
CONTINUOUS
 10
47.4095281534
 20
112.3677606853
  0
VERTEX
  8
0
 62
7
  6
CONTINUOUS
 10
47.4247681754
 20
112.2278145523
  0
SEQEND
  0
POLYLINE
  8
0
 62
7
  6
CONTINUOUS
 66
1
 70
0
  0
VERTEX
  8
0
 62
7
  6
CONTINUOUS
 10
51.7247681754
 20
112.8317940082
  0
VERTEX
  8
0
 62
7
  6
CONTINUOUS
 10
51.8443093118
 20
112.8178725383
  0
VERTEX
  8
0
 62
7
  6
CONTINUOUS
 10
51.9593405809
 20
112.7762532195
  0
VERTEX
  8
0
 62
7
  6
CONTINUOUS
 10
52.0650104416
 20
112.7075324514
  0
VERTEX
  8
0
 62
7
  6
CONTINUOUS
 10
52.1552525616
 20
112.6141094932
  0
VERTEX
  8
0
 62
7
  6
CONTINUOUS
 10
52.2253012952
 20
112.4986676675
  0
VERTEX
  8
0
 62
7
  6
CONTINUOUS
 10
52.2695281534
 20
112.3677606853
  0
VERTEX
  8
0
 62
7
  6
CONTINUOUS
 10
52.2847681754
 20
112.2278145523
  0
SEQEND
  0
POLYLINE
  8
0
 62
7
  6
CONTINUOUS
 66
1
 70
0
  0
VERTEX
  8
0
 62
7
  6
CONTINUOUS
 10
59.5647681754
 20
112.8317940082
  0
VERTEX
  8
0
 62
7
  6
CONTINUOUS
 10
59.6843093118
 20
112.8178725383
  0
VERTEX
  8
0
 62
7
  6
CONTINUOUS
 10
59.7993405809
 20
112.7762532195
  0
VERTEX
  8
0
 62
7
  6
CONTINUOUS
 10
59.9050104416
 20
112.7075324514
  0
VERTEX
  8
0
 62
7
  6
CONTINUOUS
 10
59.9952525616
 20
112.6141094932
  0
VERTEX
  8
0
 62
7
  6
CONTINUOUS
 10
60.0653012952
 20
112.4986676675
  0
VERTEX
  8
0
 62
7
  6
CONTINUOUS
 10
60.1095281534
 20
112.3677606853
  0
VERTEX
  8
0
 62
7
  6
CONTINUOUS
 10
60.1247681754
 20
112.2278145523
  0
SEQEND
  0
POLYLINE
  8
0
 62
7
  6
CONTINUOUS
 66
1
 70
0
  0
VERTEX
  8
0
 62
7
  6
CONTINUOUS
 10
64.4247681754
 20
112.8317940082
  0
VERTEX
  8
0
 62
7
  6
CONTINUOUS
 10
64.5443093118
 20
112.8178725383
  0
VERTEX
  8
0
 62
7
  6
CONTINUOUS
 10
64.6593405809
 20
112.7762532195
  0
VERTEX
  8
0
 62
7
  6
CONTINUOUS
 10
64.7650104416
 20
112.7075324514
  0
VERTEX
  8
0
 62
7
  6
CONTINUOUS
 10
64.8552525616
 20
112.6141094932
  0
VERTEX
  8
0
 62
7
  6
CONTINUOUS
 10
64.9253012952
 20
112.4986676675
  0
VERTEX
  8
0
 62
7
  6
CONTINUOUS
 10
64.9695281534
 20
112.3677606853
  0
VERTEX
  8
0
 62
7
  6
CONTINUOUS
 10
64.9847681754
 20
112.2278145523
  0
SEQEND
  0
POLYLINE
  8
0
 62
7
  6
CONTINUOUS
 66
1
 70
0
  0
VERTEX
  8
0
 62
7
  6
CONTINUOUS
 10
72.2647681754
 20
112.8317940082
  0
VERTEX
  8
0
 62
7
  6
CONTINUOUS
 10
72.3843093118
 20
112.8178725383
  0
VERTEX
  8
0
 62
7
  6
CONTINUOUS
 10
72.4993405809
 20
112.7762532195
  0
VERTEX
  8
0
 62
7
  6
CONTINUOUS
 10
72.6050104416
 20
112.7075324514
  0
VERTEX
  8
0
 62
7
  6
CONTINUOUS
 10
72.6952525616
 20
112.6141094932
  0
VERTEX
  8
0
 62
7
  6
CONTINUOUS
 10
72.7653012952
 20
112.4986676675
  0
VERTEX
  8
0
 62
7
  6
CONTINUOUS
 10
72.8095281534
 20
112.3677606853
  0
VERTEX
  8
0
 62
7
  6
CONTINUOUS
 10
72.8247681754
 20
112.2278145523
  0
SEQEND
  0
LINE
  8
0
 62
7
  6
CONTINUOUS
 10
79.1747681754
 20
127.3717940082
 11
79.1747681754
 21
104.4357734641
  0
POLYLINE
  8
0
 62
7
  6
CONTINUOUS
 66
1
 70
0
  0
VERTEX
  8
0
 62
7
  6
CONTINUOUS
 10
79.1747681754
 20
104.4357734641
  0
VERTEX
  8
0
 62
7
  6
CONTINUOUS
 10
79.1595281534
 20
104.2958273312
  0
VERTEX
  8
0
 62
7
  6
CONTINUOUS
 10
79.1153012952
 20
104.164920349
  0
VERTEX
  8
0
 62
7
  6
CONTINUOUS
 10
79.0452525616
 20
104.0494785233
  0
VERTEX
  8
0
 62
7
  6
CONTINUOUS
 10
78.9550104416
 20
103.9560555651
  0
VERTEX
  8
0
 62
7
  6
CONTINUOUS
 10
78.8493405809
 20
103.887334797
  0
VERTEX
  8
0
 62
7
  6
CONTINUOUS
 10
78.7343093118
 20
103.8457154782
  0
VERTEX
  8
0
 62
7
  6
CONTINUOUS
 10
78.6147681754
 20
103.8317940082
  0
SEQEND
  0
LINE
  8
0
 62
7
  6
CONTINUOUS
 10
123.0647681754
 20
112.8317940082
 11
123.0547681754
 21
112.8317940082
  0
LINE
  8
0
 62
7
  6
CONTINUOUS
 10
115.2247681754
 20
112.8317940082
 11
115.2147681754
 21
112.8317940082
  0
LINE
  8
0
 62
7
  6
CONTINUOUS
 10
110.3647681754
 20
112.8317940082
 11
110.3547681754
 21
112.8317940082
  0
LINE
  8
0
 62
7
  6
CONTINUOUS
 10
102.5247681754
 20
112.8317940082
 11
102.5147681754
 21
112.8317940082
  0
LINE
  8
0
 62
7
  6
CONTINUOUS
 10
97.6647681754
 20
112.8317940082
 11
97.6547681754
 21
112.8317940082
  0
LINE
  8
0
 62
7
  6
CONTINUOUS
 10
89.8247681754
 20
112.8317940082
 11
89.8147681754
 21
112.8317940082
  0
LINE
  8
0
 62
7
  6
CONTINUOUS
 10
84.9647681754
 20
112.8317940082
 11
84.9547681754
 21
112.8317940082
  0
LINE
  8
0
 62
7
  6
CONTINUOUS
 10
77.1247681754
 20
112.8317940082
 11
77.1147681754
 21
112.8317940082
  0
LINE
  8
0
 62
7
  6
CONTINUOUS
 10
72.2647681754
 20
112.8317940082
 11
72.2547681754
 21
112.8317940082
  0
LINE
  8
0
 62
7
  6
CONTINUOUS
 10
64.4247681754
 20
112.8317940082
 11
64.4147681754
 21
112.8317940082
  0
LINE
  8
0
 62
7
  6
CONTINUOUS
 10
59.5647681754
 20
112.8317940082
 11
59.5547681754
 21
112.8317940082
  0
LINE
  8
0
 62
7
  6
CONTINUOUS
 10
51.7247681754
 20
112.8317940082
 11
51.7147681754
 21
112.8317940082
  0
LINE
  8
0
 62
7
  6
CONTINUOUS
 10
46.8647681754
 20
112.8317940082
 11
46.8547681754
 21
112.8317940082
  0
LINE
  8
0
 62
7
  6
CONTINUOUS
 10
39.0247681754
 20
112.8317940082
 11
39.0147681754
 21
112.8317940082
  0
LINE
  8
0
 62
7
  6
CONTINUOUS
 10
34.1647681754
 20
112.8317940082
 11
34.1547681754
 21
112.8317940082
  0
LINE
  8
0
 62
7
  6
CONTINUOUS
 10
26.3247681754
 20
112.8317940082
 11
26.3147681754
 21
112.8317940082
  0
POLYLINE
  8
0
 62
7
  6
CONTINUOUS
 66
1
 70
0
  0
VERTEX
  8
0
 62
7
  6
CONTINUOUS
 10
77.1247681754
 20
112.8317940082
  0
VERTEX
  8
0
 62
7
  6
CONTINUOUS
 10
77.2443093118
 20
112.8178725383
  0
VERTEX
  8
0
 62
7
  6
CONTINUOUS
 10
77.3593405809
 20
112.7762532195
  0
VERTEX
  8
0
 62
7
  6
CONTINUOUS
 10
77.4650104416
 20
112.7075324514
  0
VERTEX
  8
0
 62
7
  6
CONTINUOUS
 10
77.5552525616
 20
112.6141094932
  0
VERTEX
  8
0
 62
7
  6
CONTINUOUS
 10
77.6253012952
 20
112.4986676675
  0
VERTEX
  8
0
 62
7
  6
CONTINUOUS
 10
77.6695281534
 20
112.3677606853
  0
VERTEX
  8
0
 62
7
  6
CONTINUOUS
 10
77.6847681754
 20
112.2278145523
  0
SEQEND
  0
POLYLINE
  8
0
 62
7
  6
CONTINUOUS
 66
1
 70
0
  0
VERTEX
  8
0
 62
7
  6
CONTINUOUS
 10
84.9647681754
 20
112.8317940082
  0
VERTEX
  8
0
 62
7
  6
CONTINUOUS
 10
85.0843093118
 20
112.8178725383
  0
VERTEX
  8
0
 62
7
  6
CONTINUOUS
 10
85.1993405809
 20
112.7762532195
  0
VERTEX
  8
0
 62
7
  6
CONTINUOUS
 10
85.3050104416
 20
112.7075324514
  0
VERTEX
  8
0
 62
7
  6
CONTINUOUS
 10
85.3952525616
 20
112.6141094932
  0
VERTEX
  8
0
 62
7
  6
CONTINUOUS
 10
85.4653012952
 20
112.4986676675
  0
VERTEX
  8
0
 62
7
  6
CONTINUOUS
 10
85.5095281534
 20
112.3677606853
  0
VERTEX
  8
0
 62
7
  6
CONTINUOUS
 10
85.5247681754
 20
112.2278145523
  0
SEQEND
  0
POLYLINE
  8
0
 62
7
  6
CONTINUOUS
 66
1
 70
0
  0
VERTEX
  8
0
 62
7
  6
CONTINUOUS
 10
89.8247681754
 20
112.8317940082
  0
VERTEX
  8
0
 62
7
  6
CONTINUOUS
 10
89.9443093118
 20
112.8178725383
  0
VERTEX
  8
0
 62
7
  6
CONTINUOUS
 10
90.0593405809
 20
112.7762532195
  0
VERTEX
  8
0
 62
7
  6
CONTINUOUS
 10
90.1650104416
 20
112.7075324514
  0
VERTEX
  8
0
 62
7
  6
CONTINUOUS
 10
90.2552525616
 20
112.6141094932
  0
VERTEX
  8
0
 62
7
  6
CONTINUOUS
 10
90.3253012952
 20
112.4986676675
  0
VERTEX
  8
0
 62
7
  6
CONTINUOUS
 10
90.3695281534
 20
112.3677606853
  0
VERTEX
  8
0
 62
7
  6
CONTINUOUS
 10
90.3847681754
 20
112.2278145523
  0
SEQEND
  0
POLYLINE
  8
0
 62
7
  6
CONTINUOUS
 66
1
 70
0
  0
VERTEX
  8
0
 62
7
  6
CONTINUOUS
 10
97.6647681754
 20
112.8317940082
  0
VERTEX
  8
0
 62
7
  6
CONTINUOUS
 10
97.7843093118
 20
112.8178725383
  0
VERTEX
  8
0
 62
7
  6
CONTINUOUS
 10
97.8993405809
 20
112.7762532195
  0
VERTEX
  8
0
 62
7
  6
CONTINUOUS
 10
98.0050104416
 20
112.7075324514
  0
VERTEX
  8
0
 62
7
  6
CONTINUOUS
 10
98.0952525616
 20
112.6141094932
  0
VERTEX
  8
0
 62
7
  6
CONTINUOUS
 10
98.1653012952
 20
112.4986676675
  0
VERTEX
  8
0
 62
7
  6
CONTINUOUS
 10
98.2095281534
 20
112.3677606853
  0
VERTEX
  8
0
 62
7
  6
CONTINUOUS
 10
98.2247681754
 20
112.2278145523
  0
SEQEND
  0
POLYLINE
  8
0
 62
7
  6
CONTINUOUS
 66
1
 70
0
  0
VERTEX
  8
0
 62
7
  6
CONTINUOUS
 10
102.5247681754
 20
112.8317940082
  0
VERTEX
  8
0
 62
7
  6
CONTINUOUS
 10
102.6443093118
 20
112.8178725383
  0
VERTEX
  8
0
 62
7
  6
CONTINUOUS
 10
102.7593405809
 20
112.7762532195
  0
VERTEX
  8
0
 62
7
  6
CONTINUOUS
 10
102.8650104416
 20
112.7075324514
  0
VERTEX
  8
0
 62
7
  6
CONTINUOUS
 10
102.9552525616
 20
112.6141094932
  0
VERTEX
  8
0
 62
7
  6
CONTINUOUS
 10
103.0253012952
 20
112.4986676675
  0
VERTEX
  8
0
 62
7
  6
CONTINUOUS
 10
103.0695281534
 20
112.3677606853
  0
VERTEX
  8
0
 62
7
  6
CONTINUOUS
 10
103.0847681754
 20
112.2278145523
  0
SEQEND
  0
POLYLINE
  8
0
 62
7
  6
CONTINUOUS
 66
1
 70
0
  0
VERTEX
  8
0
 62
7
  6
CONTINUOUS
 10
97.0397681754
 20
88.0570491369
  0
VERTEX
  8
0
 62
7
  6
CONTINUOUS
 10
97.0540678959
 20
88.0378127593
  0
VERTEX
  8
0
 62
7
  6
CONTINUOUS
 10
97.0963062979
 20
88.0198973524
  0
VERTEX
  8
0
 62
7
  6
CONTINUOUS
 10
97.1643000782
 20
88.0042671188
  0
VERTEX
  8
0
 62
7
  6
CONTINUOUS
 10
97.2068484954
 20
87.9975747799
  0
VERTEX
  8
0
 62
7
  6
CONTINUOUS
 10
97.3060564527
 20
87.9868782926
  0
VERTEX
  8
0
 62
7
  6
CONTINUOUS
 10
97.4192233891
 20
87.98021782
  0
VERTEX
  8
0
 62
7
  6
CONTINUOUS
 10
97.5397681754
 20
87.9779535272
  0
SEQEND
  0
LINE
  8
0
 62
7
  6
CONTINUOUS
 10
82.9047681754
 20
104.4357734641
 11
82.9047681754
 21
127.3717940082
  0
LINE
  8
0
 62
7
  6
CONTINUOUS
 10
84.0347681754
 20
127.3717940082
 11
84.0347681754
 21
104.4357734641
  0
LINE
  8
0
 62
7
  6
CONTINUOUS
 10
84.0897681754
 20
124.7497795172
 11
84.0897681754
 21
131.1217940082
  0
LINE
  8
0
 62
7
  6
CONTINUOUS
 10
84.3397681754
 20
85.5417940082
 11
84.3397681754
 21
91.9138084459
  0
LINE
  8
0
 62
7
  6
CONTINUOUS
 10
84.3947681754
 20
89.2917940082
 11
84.3947681754
 21
112.2278145523
  0
LINE
  8
0
 62
7
  6
CONTINUOUS
 10
85.5247681754
 20
112.2278145523
 11
85.5247681754
 21
89.2917940082
  0
POLYLINE
  8
0
 62
7
  6
CONTINUOUS
 66
1
 70
0
  0
VERTEX
  8
0
 62
7
  6
CONTINUOUS
 10
84.3947681754
 20
112.2278145523
  0
VERTEX
  8
0
 62
7
  6
CONTINUOUS
 10
84.4100081973
 20
112.3677606853
  0
VERTEX
  8
0
 62
7
  6
CONTINUOUS
 10
84.4542350556
 20
112.4986676675
  0
VERTEX
  8
0
 62
7
  6
CONTINUOUS
 10
84.5242837892
 20
112.6141094932
  0
VERTEX
  8
0
 62
7
  6
CONTINUOUS
 10
84.6145259091
 20
112.7075324514
  0
VERTEX
  8
0
 62
7
  6
CONTINUOUS
 10
84.7201957698
 20
112.7762532195
  0
VERTEX
  8
0
 62
7
  6
CONTINUOUS
 10
84.8352270389
 20
112.8178725383
  0
VERTEX
  8
0
 62
7
  6
CONTINUOUS
 10
84.9547681754
 20
112.8317940082
  0
SEQEND
  0
POLYLINE
  8
0
 62
7
  6
CONTINUOUS
 66
1
 70
0
  0
VERTEX
  8
0
 62
7
  6
CONTINUOUS
 10
84.0347681754
 20
104.4357734641
  0
VERTEX
  8
0
 62
7
  6
CONTINUOUS
 10
84.0195281534
 20
104.2958273312
  0
VERTEX
  8
0
 62
7
  6
CONTINUOUS
 10
83.9753012952
 20
104.164920349
  0
VERTEX
  8
0
 62
7
  6
CONTINUOUS
 10
83.9052525616
 20
104.0494785233
  0
VERTEX
  8
0
 62
7
  6
CONTINUOUS
 10
83.8150104416
 20
103.9560555651
  0
VERTEX
  8
0
 62
7
  6
CONTINUOUS
 10
83.7093405809
 20
103.887334797
  0
VERTEX
  8
0
 62
7
  6
CONTINUOUS
 10
83.5943093118
 20
103.8457154782
  0
VERTEX
  8
0
 62
7
  6
CONTINUOUS
 10
83.4747681754
 20
103.8317940082
  0
SEQEND
  0
POLYLINE
  8
0
 62
7
  6
CONTINUOUS
 66
1
 70
0
  0
VERTEX
  8
0
 62
7
  6
CONTINUOUS
 10
103.3897681754
 20
128.6065388796
  0
VERTEX
  8
0
 62
7
  6
CONTINUOUS
 10
103.4040678959
 20
128.6257752572
  0
VERTEX
  8
0
 62
7
  6
CONTINUOUS
 10
103.4463062979
 20
128.6436906641
  0
VERTEX
  8
0
 62
7
  6
CONTINUOUS
 10
103.5143000782
 20
128.6593208977
  0
VERTEX
  8
0
 62
7
  6
CONTINUOUS
 10
103.5568484954
 20
128.6660132366
  0
VERTEX
  8
0
 62
7
  6
CONTINUOUS
 10
103.6560564527
 20
128.6767097239
  0
VERTEX
  8
0
 62
7
  6
CONTINUOUS
 10
103.7692233891
 20
128.6833701965
  0
VERTEX
  8
0
 62
7
  6
CONTINUOUS
 10
103.8897681754
 20
128.6856344893
  0
SEQEND
  0
POLYLINE
  8
0
 62
7
  6
CONTINUOUS
 66
1
 70
0
  0
VERTEX
  8
0
 62
7
  6
CONTINUOUS
 10
110.3647681754
 20
112.8317940082
  0
VERTEX
  8
0
 62
7
  6
CONTINUOUS
 10
110.4843093118
 20
112.8178725383
  0
VERTEX
  8
0
 62
7
  6
CONTINUOUS
 10
110.5993405809
 20
112.7762532195
  0
VERTEX
  8
0
 62
7
  6
CONTINUOUS
 10
110.7050104416
 20
112.7075324514
  0
VERTEX
  8
0
 62
7
  6
CONTINUOUS
 10
110.7952525616
 20
112.6141094932
  0
VERTEX
  8
0
 62
7
  6
CONTINUOUS
 10
110.8653012952
 20
112.4986676675
  0
VERTEX
  8
0
 62
7
  6
CONTINUOUS
 10
110.9095281534
 20
112.3677606853
  0
VERTEX
  8
0
 62
7
  6
CONTINUOUS
 10
110.9247681754
 20
112.2278145523
  0
SEQEND
  0
POLYLINE
  8
0
 62
7
  6
CONTINUOUS
 66
1
 70
0
  0
VERTEX
  8
0
 62
7
  6
CONTINUOUS
 10
115.2247681754
 20
112.8317940082
  0
VERTEX
  8
0
 62
7
  6
CONTINUOUS
 10
115.3443093118
 20
112.8178725383
  0
VERTEX
  8
0
 62
7
  6
CONTINUOUS
 10
115.4593405809
 20
112.7762532195
  0
VERTEX
  8
0
 62
7
  6
CONTINUOUS
 10
115.5650104416
 20
112.7075324514
  0
VERTEX
  8
0
 62
7
  6
CONTINUOUS
 10
115.6552525616
 20
112.6141094932
  0
VERTEX
  8
0
 62
7
  6
CONTINUOUS
 10
115.7253012952
 20
112.4986676675
  0
VERTEX
  8
0
 62
7
  6
CONTINUOUS
 10
115.7695281534
 20
112.3677606853
  0
VERTEX
  8
0
 62
7
  6
CONTINUOUS
 10
115.7847681754
 20
112.2278145523
  0
SEQEND
  0
POLYLINE
  8
0
 62
7
  6
CONTINUOUS
 66
1
 70
0
  0
VERTEX
  8
0
 62
7
  6
CONTINUOUS
 10
123.0647681754
 20
112.8317940082
  0
VERTEX
  8
0
 62
7
  6
CONTINUOUS
 10
123.1843093118
 20
112.8178725383
  0
VERTEX
  8
0
 62
7
  6
CONTINUOUS
 10
123.2993405809
 20
112.7762532195
  0
VERTEX
  8
0
 62
7
  6
CONTINUOUS
 10
123.4050104416
 20
112.7075324514
  0
VERTEX
  8
0
 62
7
  6
CONTINUOUS
 10
123.4952525616
 20
112.6141094932
  0
VERTEX
  8
0
 62
7
  6
CONTINUOUS
 10
123.5653012952
 20
112.4986676675
  0
VERTEX
  8
0
 62
7
  6
CONTINUOUS
 10
123.6095281534
 20
112.3677606853
  0
VERTEX
  8
0
 62
7
  6
CONTINUOUS
 10
123.6247681754
 20
112.2278145523
  0
SEQEND
  0
POLYLINE
  8
0
 62
7
  6
CONTINUOUS
 66
1
 70
0
  0
VERTEX
  8
0
 62
7
  6
CONTINUOUS
 10
33.7897682138
 20
123.7674897761
  0
VERTEX
  8
0
 62
7
  6
CONTINUOUS
 10
33.7229830361
 20
123.7764697624
  0
VERTEX
  8
0
 62
7
  6
CONTINUOUS
 10
33.6470974147
 20
123.8085090987
  0
VERTEX
  8
0
 62
7
  6
CONTINUOUS
 10
33.575396314
 20
123.8612026486
  0
VERTEX
  8
0
 62
7
  6
CONTINUOUS
 10
33.5099234572
 20
123.931542751
  0
VERTEX
  8
0
 62
7
  6
CONTINUOUS
 10
33.4518342812
 20
124.0172140474
  0
VERTEX
  8
0
 62
7
  6
CONTINUOUS
 10
33.4016971508
 20
124.1169514717
  0
VERTEX
  8
0
 62
7
  6
CONTINUOUS
 10
33.3602948384
 20
124.2292500965
  0
VERTEX
  8
0
 62
7
  6
CONTINUOUS
 10
33.3283030165
 20
124.3521528472
  0
VERTEX
  8
0
 62
7
  6
CONTINUOUS
 10
33.3060009598
 20
124.4836960828
  0
VERTEX
  8
0
 62
7
  6
CONTINUOUS
 10
33.2933113207
 20
124.6218663493
  0
VERTEX
  8
0
 62
7
  6
CONTINUOUS
 10
33.2897679621
 20
124.749816535
  0
SEQEND
  0
POLYLINE
  8
0
 62
7
  6
CONTINUOUS
 66
1
 70
0
  0
VERTEX
  8
0
 62
7
  6
CONTINUOUS
 10
46.4897682137
 20
123.7674897757
  0
VERTEX
  8
0
 62
7
  6
CONTINUOUS
 10
46.4229830385
 20
123.7764697618
  0
VERTEX
  8
0
 62
7
  6
CONTINUOUS
 10
46.3470974003
 20
123.8085091062
  0
VERTEX
  8
0
 62
7
  6
CONTINUOUS
 10
46.2753962874
 20
123.861202673
  0
VERTEX
  8
0
 62
7
  6
CONTINUOUS
 10
46.2099234544
 20
123.9315427609
  0
VERTEX
  8
0
 62
7
  6
CONTINUOUS
 10
46.1518342671
 20
124.0172140724
  0
VERTEX
  8
0
 62
7
  6
CONTINUOUS
 10
46.1016971476
 20
124.1169514801
  0
VERTEX
  8
0
 62
7
  6
CONTINUOUS
 10
46.0602948374
 20
124.2292501007
  0
VERTEX
  8
0
 62
7
  6
CONTINUOUS
 10
46.028303018
 20
124.3521528392
  0
VERTEX
  8
0
 62
7
  6
CONTINUOUS
 10
46.0060009619
 20
124.4836960518
  0
VERTEX
  8
0
 62
7
  6
CONTINUOUS
 10
45.993311321
 20
124.6218663271
  0
VERTEX
  8
0
 62
7
  6
CONTINUOUS
 10
45.9897679618
 20
124.7498166102
  0
SEQEND
  0
LINE
  8
0
 62
7
  6
CONTINUOUS
 10
89.2547681754
 20
89.2917940082
 11
89.2547681754
 21
112.2278145523
  0
POLYLINE
  8
0
 62
7
  6
CONTINUOUS
 66
1
 70
0
  0
VERTEX
  8
0
 62
7
  6
CONTINUOUS
 10
89.2547681754
 20
112.2278145523
  0
VERTEX
  8
0
 62
7
  6
CONTINUOUS
 10
89.2700081973
 20
112.3677606853
  0
VERTEX
  8
0
 62
7
  6
CONTINUOUS
 10
89.3142350556
 20
112.4986676675
  0
VERTEX
  8
0
 62
7
  6
CONTINUOUS
 10
89.3842837892
 20
112.6141094932
  0
VERTEX
  8
0
 62
7
  6
CONTINUOUS
 10
89.4745259091
 20
112.7075324514
  0
VERTEX
  8
0
 62
7
  6
CONTINUOUS
 10
89.5801957698
 20
112.7762532195
  0
VERTEX
  8
0
 62
7
  6
CONTINUOUS
 10
89.6952270389
 20
112.8178725383
  0
VERTEX
  8
0
 62
7
  6
CONTINUOUS
 10
89.8147681754
 20
112.8317940082
  0
SEQEND
  0
POLYLINE
  8
0
 62
7
  6
CONTINUOUS
 66
1
 70
0
  0
VERTEX
  8
0
 62
7
  6
CONTINUOUS
 10
59.1897682138
 20
123.7674897761
  0
VERTEX
  8
0
 62
7
  6
CONTINUOUS
 10
59.1229830361
 20
123.7764697624
  0
VERTEX
  8
0
 62
7
  6
CONTINUOUS
 10
59.0470974147
 20
123.8085090987
  0
VERTEX
  8
0
 62
7
  6
CONTINUOUS
 10
58.975396314
 20
123.8612026486
  0
VERTEX
  8
0
 62
7
  6
CONTINUOUS
 10
58.9099234572
 20
123.931542751
  0
VERTEX
  8
0
 62
7
  6
CONTINUOUS
 10
58.8518342812
 20
124.0172140474
  0
VERTEX
  8
0
 62
7
  6
CONTINUOUS
 10
58.8016971508
 20
124.1169514717
  0
VERTEX
  8
0
 62
7
  6
CONTINUOUS
 10
58.7602948384
 20
124.2292500965
  0
VERTEX
  8
0
 62
7
  6
CONTINUOUS
 10
58.7283030165
 20
124.3521528472
  0
VERTEX
  8
0
 62
7
  6
CONTINUOUS
 10
58.7060009598
 20
124.4836960828
  0
VERTEX
  8
0
 62
7
  6
CONTINUOUS
 10
58.6933113207
 20
124.6218663493
  0
VERTEX
  8
0
 62
7
  6
CONTINUOUS
 10
58.6897679621
 20
124.749816535
  0
SEQEND
  0
POLYLINE
  8
0
 62
7
  6
CONTINUOUS
 66
1
 70
0
  0
VERTEX
  8
0
 62
7
  6
CONTINUOUS
 10
71.8897682137
 20
123.7674897757
  0
VERTEX
  8
0
 62
7
  6
CONTINUOUS
 10
71.8229830385
 20
123.7764697618
  0
VERTEX
  8
0
 62
7
  6
CONTINUOUS
 10
71.7470974003
 20
123.8085091062
  0
VERTEX
  8
0
 62
7
  6
CONTINUOUS
 10
71.6753962874
 20
123.861202673
  0
VERTEX
  8
0
 62
7
  6
CONTINUOUS
 10
71.6099234544
 20
123.9315427609
  0
VERTEX
  8
0
 62
7
  6
CONTINUOUS
 10
71.5518342671
 20
124.0172140724
  0
VERTEX
  8
0
 62
7
  6
CONTINUOUS
 10
71.5016971476
 20
124.1169514801
  0
VERTEX
  8
0
 62
7
  6
CONTINUOUS
 10
71.4602948374
 20
124.2292501007
  0
VERTEX
  8
0
 62
7
  6
CONTINUOUS
 10
71.428303018
 20
124.3521528392
  0
VERTEX
  8
0
 62
7
  6
CONTINUOUS
 10
71.4060009619
 20
124.4836960518
  0
VERTEX
  8
0
 62
7
  6
CONTINUOUS
 10
71.393311321
 20
124.6218663271
  0
VERTEX
  8
0
 62
7
  6
CONTINUOUS
 10
71.3897679618
 20
124.7498166102
  0
SEQEND
  0
LINE
  8
0
 62
7
  6
CONTINUOUS
 10
90.3847681754
 20
112.2278145523
 11
90.3847681754
 21
89.2917940082
  0
LINE
  8
0
 62
7
  6
CONTINUOUS
 10
90.4397681754
 20
85.5417940082
 11
90.4397681754
 21
91.9138084993
  0
LINE
  8
0
 62
7
  6
CONTINUOUS
 10
90.6897681754
 20
124.7497795706
 11
90.6897681754
 21
131.1217940082
  0
LINE
  8
0
 62
7
  6
CONTINUOUS
 10
90.7447681754
 20
104.4357734641
 11
90.7447681754
 21
127.3717940082
  0
LINE
  8
0
 62
7
  6
CONTINUOUS
 10
91.8747681754
 20
127.3717940082
 11
91.8747681754
 21
104.4357734641
  0
POLYLINE
  8
0
 62
7
  6
CONTINUOUS
 66
1
 70
0
  0
VERTEX
  8
0
 62
7
  6
CONTINUOUS
 10
90.689768632
 20
124.7498077308
  0
VERTEX
  8
0
 62
7
  6
CONTINUOUS
 10
90.6862981662
 20
124.6231614457
  0
VERTEX
  8
0
 62
7
  6
CONTINUOUS
 10
90.673688787
 20
124.484889391
  0
VERTEX
  8
0
 62
7
  6
CONTINUOUS
 10
90.6514646294
 20
124.3532417286
  0
VERTEX
  8
0
 62
7
  6
CONTINUOUS
 10
90.619548128
 20
124.2302351479
  0
VERTEX
  8
0
 62
7
  6
CONTINUOUS
 10
90.5782186881
 20
124.1178315529
  0
VERTEX
  8
0
 62
7
  6
CONTINUOUS
 10
90.5281512666
 20
124.0179846147
  0
VERTEX
  8
0
 62
7
  6
CONTINUOUS
 10
90.4701277622
 20
123.9321946982
  0
VERTEX
  8
0
 62
7
  6
CONTINUOUS
 10
90.4047148104
 20
123.8617209595
  0
VERTEX
  8
0
 62
7
  6
CONTINUOUS
 10
90.3330621352
 20
123.808870132
  0
VERTEX
  8
0
 62
7
  6
CONTINUOUS
 10
90.2571995152
 20
123.7766442355
  0
VERTEX
  8
0
 62
7
  6
CONTINUOUS
 10
90.1897681754
 20
123.7674897739
  0
SEQEND
  0
POLYLINE
  8
0
 62
7
  6
CONTINUOUS
 66
1
 70
0
  0
VERTEX
  8
0
 62
7
  6
CONTINUOUS
 10
90.4397679659
 20
91.9137713341
  0
VERTEX
  8
0
 62
7
  6
CONTINUOUS
 10
90.4432383673
 20
92.0404302475
  0
VERTEX
  8
0
 62
7
  6
CONTINUOUS
 10
90.455847956
 20
92.1787037638
  0
VERTEX
  8
0
 62
7
  6
CONTINUOUS
 10
90.4780720761
 20
92.3103487857
  0
VERTEX
  8
0
 62
7
  6
CONTINUOUS
 10
90.5099882735
 20
92.4333534503
  0
VERTEX
  8
0
 62
7
  6
CONTINUOUS
 10
90.5513178338
 20
92.5457569446
  0
VERTEX
  8
0
 62
7
  6
CONTINUOUS
 10
90.6013849538
 20
92.6456032081
  0
VERTEX
  8
0
 62
7
  6
CONTINUOUS
 10
90.6594089495
 20
92.7313936212
  0
VERTEX
  8
0
 62
7
  6
CONTINUOUS
 10
90.7248216585
 20
92.8018672328
  0
VERTEX
  8
0
 62
7
  6
CONTINUOUS
 10
90.7964749779
 20
92.8547183906
  0
VERTEX
  8
0
 62
7
  6
CONTINUOUS
 10
90.8723405858
 20
92.886944787
  0
VERTEX
  8
0
 62
7
  6
CONTINUOUS
 10
90.9397681754
 20
92.8960982411
  0
SEQEND
  0
POLYLINE
  8
0
 62
7
  6
CONTINUOUS
 66
1
 70
0
  0
VERTEX
  8
0
 62
7
  6
CONTINUOUS
 10
91.8747681754
 20
104.4357734641
  0
VERTEX
  8
0
 62
7
  6
CONTINUOUS
 10
91.8595281534
 20
104.2958273312
  0
VERTEX
  8
0
 62
7
  6
CONTINUOUS
 10
91.8153012952
 20
104.164920349
  0
VERTEX
  8
0
 62
7
  6
CONTINUOUS
 10
91.7452525616
 20
104.0494785233
  0
VERTEX
  8
0
 62
7
  6
CONTINUOUS
 10
91.6550104416
 20
103.9560555651
  0
VERTEX
  8
0
 62
7
  6
CONTINUOUS
 10
91.5493405809
 20
103.887334797
  0
VERTEX
  8
0
 62
7
  6
CONTINUOUS
 10
91.4343093118
 20
103.8457154782
  0
VERTEX
  8
0
 62
7
  6
CONTINUOUS
 10
91.3147681754
 20
103.8317940082
  0
SEQEND
  0
LINE
  8
0
 62
7
  6
CONTINUOUS
 10
124.7397681754
 20
123.7674896928
 11
122.6897682097
 21
123.7674896928
  0
LINE
  8
0
 62
7
  6
CONTINUOUS
 10
115.5897681754
 20
123.7674896928
 11
109.9897682138
 21
123.7674896928
  0
LINE
  8
0
 62
7
  6
CONTINUOUS
 10
102.8897681754
 20
123.7674896928
 11
97.2897682137
 21
123.7674896928
  0
LINE
  8
0
 62
7
  6
CONTINUOUS
 10
90.1897681754
 20
123.7674896928
 11
84.5897682138
 21
123.7674896928
  0
LINE
  8
0
 62
7
  6
CONTINUOUS
 10
77.4897681754
 20
123.7674896928
 11
71.8897682137
 21
123.7674896928
  0
LINE
  8
0
 62
7
  6
CONTINUOUS
 10
64.7897681754
 20
123.7674896928
 11
59.1897682138
 21
123.7674896928
  0
LINE
  8
0
 62
7
  6
CONTINUOUS
 10
52.0897681754
 20
123.7674896928
 11
46.4897682137
 21
123.7674896928
  0
LINE
  8
0
 62
7
  6
CONTINUOUS
 10
39.3897681754
 20
123.7674896928
 11
33.7897682138
 21
123.7674896928
  0
LINE
  8
0
 62
7
  6
CONTINUOUS
 10
26.6897681754
 20
123.7674896928
 11
24.6397681754
 21
123.7674896928
  0
LINE
  8
1_AXIS
 62
2
  6
CENTER
 10
21.1469887313
 20
127.3817940082
 11
128.7552314158
 21
127.3817940082
  0
POLYLINE
  8
0
 62
7
  6
CONTINUOUS
 66
1
 70
0
  0
VERTEX
  8
0
 62
7
  6
CONTINUOUS
 10
84.5897682138
 20
123.7674897761
  0
VERTEX
  8
0
 62
7
  6
CONTINUOUS
 10
84.5229830361
 20
123.7764697624
  0
VERTEX
  8
0
 62
7
  6
CONTINUOUS
 10
84.4470974147
 20
123.8085090987
  0
VERTEX
  8
0
 62
7
  6
CONTINUOUS
 10
84.375396314
 20
123.8612026486
  0
VERTEX
  8
0
 62
7
  6
CONTINUOUS
 10
84.3099234572
 20
123.931542751
  0
VERTEX
  8
0
 62
7
  6
CONTINUOUS
 10
84.2518342812
 20
124.0172140474
  0
VERTEX
  8
0
 62
7
  6
CONTINUOUS
 10
84.2016971508
 20
124.1169514717
  0
VERTEX
  8
0
 62
7
  6
CONTINUOUS
 10
84.1602948384
 20
124.2292500965
  0
VERTEX
  8
0
 62
7
  6
CONTINUOUS
 10
84.1283030165
 20
124.3521528472
  0
VERTEX
  8
0
 62
7
  6
CONTINUOUS
 10
84.1060009598
 20
124.4836960828
  0
VERTEX
  8
0
 62
7
  6
CONTINUOUS
 10
84.0933113207
 20
124.6218663493
  0
VERTEX
  8
0
 62
7
  6
CONTINUOUS
 10
84.0897679621
 20
124.749816535
  0
SEQEND
  0
POLYLINE
  8
0
 62
7
  6
CONTINUOUS
 66
1
 70
0
  0
VERTEX
  8
0
 62
7
  6
CONTINUOUS
 10
97.2897682137
 20
123.7674897757
  0
VERTEX
  8
0
 62
7
  6
CONTINUOUS
 10
97.2229830385
 20
123.7764697618
  0
VERTEX
  8
0
 62
7
  6
CONTINUOUS
 10
97.1470974003
 20
123.8085091062
  0
VERTEX
  8
0
 62
7
  6
CONTINUOUS
 10
97.0753962874
 20
123.861202673
  0
VERTEX
  8
0
 62
7
  6
CONTINUOUS
 10
97.0099234544
 20
123.9315427609
  0
VERTEX
  8
0
 62
7
  6
CONTINUOUS
 10
96.9518342671
 20
124.0172140724
  0
VERTEX
  8
0
 62
7
  6
CONTINUOUS
 10
96.9016971476
 20
124.1169514801
  0
VERTEX
  8
0
 62
7
  6
CONTINUOUS
 10
96.8602948374
 20
124.2292501007
  0
VERTEX
  8
0
 62
7
  6
CONTINUOUS
 10
96.828303018
 20
124.3521528392
  0
VERTEX
  8
0
 62
7
  6
CONTINUOUS
 10
96.8060009619
 20
124.4836960518
  0
VERTEX
  8
0
 62
7
  6
CONTINUOUS
 10
96.793311321
 20
124.6218663271
  0
VERTEX
  8
0
 62
7
  6
CONTINUOUS
 10
96.7897679618
 20
124.7498166102
  0
SEQEND
  0
POLYLINE
  8
0
 62
7
  6
CONTINUOUS
 66
1
 70
0
  0
VERTEX
  8
0
 62
7
  6
CONTINUOUS
 10
109.7397681754
 20
88.0570491369
  0
VERTEX
  8
0
 62
7
  6
CONTINUOUS
 10
109.7540678959
 20
88.0378127593
  0
VERTEX
  8
0
 62
7
  6
CONTINUOUS
 10
109.7963062979
 20
88.0198973524
  0
VERTEX
  8
0
 62
7
  6
CONTINUOUS
 10
109.8643000782
 20
88.0042671188
  0
VERTEX
  8
0
 62
7
  6
CONTINUOUS
 10
109.9068484954
 20
87.9975747799
  0
VERTEX
  8
0
 62
7
  6
CONTINUOUS
 10
110.0060564527
 20
87.9868782926
  0
VERTEX
  8
0
 62
7
  6
CONTINUOUS
 10
110.1192233891
 20
87.98021782
  0
VERTEX
  8
0
 62
7
  6
CONTINUOUS
 10
110.2397681754
 20
87.9779535272
  0
SEQEND
  0
LINE
  8
0
 62
7
  6
CONTINUOUS
 10
95.6047681754
 20
104.4357734641
 11
95.6047681754
 21
127.3717940082
  0
LINE
  8
0
 62
7
  6
CONTINUOUS
 10
96.7347681754
 20
127.3717940082
 11
96.7347681754
 21
104.4357734641
  0
LINE
  8
0
 62
7
  6
CONTINUOUS
 10
96.7897681754
 20
124.7497795171
 11
96.7897681754
 21
131.1217940082
  0
LINE
  8
0
 62
7
  6
CONTINUOUS
 10
97.0397681754
 20
91.9138084459
 11
97.0397681754
 21
85.5417940082
  0
LINE
  8
0
 62
7
  6
CONTINUOUS
 10
97.0947681754
 20
89.2917940082
 11
97.0947681754
 21
112.2278145523
  0
POLYLINE
  8
0
 62
7
  6
CONTINUOUS
 66
1
 70
0
  0
VERTEX
  8
0
 62
7
  6
CONTINUOUS
 10
97.0947681754
 20
112.2278145523
  0
VERTEX
  8
0
 62
7
  6
CONTINUOUS
 10
97.1100081973
 20
112.3677606853
  0
VERTEX
  8
0
 62
7
  6
CONTINUOUS
 10
97.1542350556
 20
112.4986676675
  0
VERTEX
  8
0
 62
7
  6
CONTINUOUS
 10
97.2242837892
 20
112.6141094932
  0
VERTEX
  8
0
 62
7
  6
CONTINUOUS
 10
97.3145259091
 20
112.7075324514
  0
VERTEX
  8
0
 62
7
  6
CONTINUOUS
 10
97.4201957698
 20
112.7762532195
  0
VERTEX
  8
0
 62
7
  6
CONTINUOUS
 10
97.5352270389
 20
112.8178725383
  0
VERTEX
  8
0
 62
7
  6
CONTINUOUS
 10
97.6547681754
 20
112.8317940082
  0
SEQEND
  0
POLYLINE
  8
0
 62
7
  6
CONTINUOUS
 66
1
 70
0
  0
VERTEX
  8
0
 62
7
  6
CONTINUOUS
 10
96.7347681754
 20
104.4357734641
  0
VERTEX
  8
0
 62
7
  6
CONTINUOUS
 10
96.7195281534
 20
104.2958273312
  0
VERTEX
  8
0
 62
7
  6
CONTINUOUS
 10
96.6753012952
 20
104.164920349
  0
VERTEX
  8
0
 62
7
  6
CONTINUOUS
 10
96.6052525616
 20
104.0494785233
  0
VERTEX
  8
0
 62
7
  6
CONTINUOUS
 10
96.5150104416
 20
103.9560555651
  0
VERTEX
  8
0
 62
7
  6
CONTINUOUS
 10
96.4093405809
 20
103.887334797
  0
VERTEX
  8
0
 62
7
  6
CONTINUOUS
 10
96.2943093118
 20
103.8457154782
  0
VERTEX
  8
0
 62
7
  6
CONTINUOUS
 10
96.1747681754
 20
103.8317940082
  0
SEQEND
  0
POLYLINE
  8
0
 62
7
  6
CONTINUOUS
 66
1
 70
0
  0
VERTEX
  8
0
 62
7
  6
CONTINUOUS
 10
116.0897681754
 20
128.6065388796
  0
VERTEX
  8
0
 62
7
  6
CONTINUOUS
 10
116.1040678959
 20
128.6257752572
  0
VERTEX
  8
0
 62
7
  6
CONTINUOUS
 10
116.1463062979
 20
128.6436906641
  0
VERTEX
  8
0
 62
7
  6
CONTINUOUS
 10
116.2143000782
 20
128.6593208977
  0
VERTEX
  8
0
 62
7
  6
CONTINUOUS
 10
116.2568484954
 20
128.6660132366
  0
VERTEX
  8
0
 62
7
  6
CONTINUOUS
 10
116.3560564527
 20
128.6767097239
  0
VERTEX
  8
0
 62
7
  6
CONTINUOUS
 10
116.4692233891
 20
128.6833701965
  0
VERTEX
  8
0
 62
7
  6
CONTINUOUS
 10
116.5897681754
 20
128.6856344893
  0
SEQEND
  0
POLYLINE
  8
0
 62
7
  6
CONTINUOUS
 66
1
 70
0
  0
VERTEX
  8
0
 62
7
  6
CONTINUOUS
 10
91.1897681754
 20
128.6856344893
  0
VERTEX
  8
0
 62
7
  6
CONTINUOUS
 10
91.0692233891
 20
128.6833701965
  0
VERTEX
  8
0
 62
7
  6
CONTINUOUS
 10
90.9560564527
 20
128.6767097239
  0
VERTEX
  8
0
 62
7
  6
CONTINUOUS
 10
90.8568484954
 20
128.6660132366
  0
VERTEX
  8
0
 62
7
  6
CONTINUOUS
 10
90.8143000782
 20
128.6593208977
  0
VERTEX
  8
0
 62
7
  6
CONTINUOUS
 10
90.7463062979
 20
128.6436906641
  0
VERTEX
  8
0
 62
7
  6
CONTINUOUS
 10
90.7040678959
 20
128.6257752572
  0
VERTEX
  8
0
 62
7
  6
CONTINUOUS
 10
90.6897681754
 20
128.6065388796
  0
SEQEND
  0
POLYLINE
  8
0
 62
7
  6
CONTINUOUS
 66
1
 70
0
  0
VERTEX
  8
0
 62
7
  6
CONTINUOUS
 10
65.7897681754
 20
128.6856344893
  0
VERTEX
  8
0
 62
7
  6
CONTINUOUS
 10
65.6692233891
 20
128.6833701965
  0
VERTEX
  8
0
 62
7
  6
CONTINUOUS
 10
65.5560564527
 20
128.6767097239
  0
VERTEX
  8
0
 62
7
  6
CONTINUOUS
 10
65.4568484954
 20
128.6660132366
  0
VERTEX
  8
0
 62
7
  6
CONTINUOUS
 10
65.4143000782
 20
128.6593208977
  0
VERTEX
  8
0
 62
7
  6
CONTINUOUS
 10
65.3463062979
 20
128.6436906641
  0
VERTEX
  8
0
 62
7
  6
CONTINUOUS
 10
65.3040678959
 20
128.6257752572
  0
VERTEX
  8
0
 62
7
  6
CONTINUOUS
 10
65.2897681754
 20
128.6065388796
  0
SEQEND
  0
POLYLINE
  8
0
 62
7
  6
CONTINUOUS
 66
1
 70
0
  0
VERTEX
  8
0
 62
7
  6
CONTINUOUS
 10
40.3897681754
 20
128.6856344893
  0
VERTEX
  8
0
 62
7
  6
CONTINUOUS
 10
40.2692233891
 20
128.6833701965
  0
VERTEX
  8
0
 62
7
  6
CONTINUOUS
 10
40.1560564527
 20
128.6767097239
  0
VERTEX
  8
0
 62
7
  6
CONTINUOUS
 10
40.0568484954
 20
128.6660132366
  0
VERTEX
  8
0
 62
7
  6
CONTINUOUS
 10
40.0143000782
 20
128.6593208977
  0
VERTEX
  8
0
 62
7
  6
CONTINUOUS
 10
39.9463062979
 20
128.6436906641
  0
VERTEX
  8
0
 62
7
  6
CONTINUOUS
 10
39.9040678959
 20
128.6257752572
  0
VERTEX
  8
0
 62
7
  6
CONTINUOUS
 10
39.8897681754
 20
128.6065388796
  0
SEQEND
  0
LINE
  8
0
 62
7
  6
CONTINUOUS
 10
121.5747681754
 20
127.9317940082
 11
121.5647681754
 21
127.9317940082
  0
LINE
  8
0
 62
7
  6
CONTINUOUS
 10
116.7147681754
 20
127.9317940082
 11
116.7047681754
 21
127.9317940082
  0
LINE
  8
0
 62
7
  6
CONTINUOUS
 10
108.8747681754
 20
127.9317940082
 11
108.8647681754
 21
127.9317940082
  0
LINE
  8
0
 62
7
  6
CONTINUOUS
 10
104.0147681754
 20
127.9317940082
 11
104.0047681754
 21
127.9317940082
  0
LINE
  8
0
 62
7
  6
CONTINUOUS
 10
96.1747681754
 20
127.9317940082
 11
96.1647681754
 21
127.9317940082
  0
LINE
  8
0
 62
7
  6
CONTINUOUS
 10
91.3147681754
 20
127.9317940082
 11
91.3047681754
 21
127.9317940082
  0
LINE
  8
0
 62
7
  6
CONTINUOUS
 10
83.4747681754
 20
127.9317940082
 11
83.4647681754
 21
127.9317940082
  0
LINE
  8
0
 62
7
  6
CONTINUOUS
 10
78.6147681754
 20
127.9317940082
 11
78.6047681754
 21
127.9317940082
  0
LINE
  8
0
 62
7
  6
CONTINUOUS
 10
70.7747681754
 20
127.9317940082
 11
70.7647681754
 21
127.9317940082
  0
LINE
  8
0
 62
7
  6
CONTINUOUS
 10
65.9147681754
 20
127.9317940082
 11
65.9047681754
 21
127.9317940082
  0
LINE
  8
0
 62
7
  6
CONTINUOUS
 10
58.0747681754
 20
127.9317940082
 11
58.0647681754
 21
127.9317940082
  0
LINE
  8
0
 62
7
  6
CONTINUOUS
 10
53.2147681754
 20
127.9317940082
 11
53.2047681754
 21
127.9317940082
  0
LINE
  8
0
 62
7
  6
CONTINUOUS
 10
45.3747681754
 20
127.9317940082
 11
45.3647681754
 21
127.9317940082
  0
LINE
  8
0
 62
7
  6
CONTINUOUS
 10
40.5147681754
 20
127.9317940082
 11
40.5047681754
 21
127.9317940082
  0
LINE
  8
0
 62
7
  6
CONTINUOUS
 10
32.6747681754
 20
127.9317940082
 11
32.6647681754
 21
127.9317940082
  0
LINE
  8
0
 62
7
  6
CONTINUOUS
 10
27.8147681754
 20
127.9317940082
 11
27.8047681754
 21
127.9317940082
  0
LINE
  8
0
 62
7
  6
CONTINUOUS
 10
27.6897681754
 20
128.6856344893
 11
32.7897681754
 21
128.6856344893
  0
LINE
  8
0
 62
7
  6
CONTINUOUS
 10
40.3897681754
 20
128.6856344893
 11
45.4897681754
 21
128.6856344893
  0
LINE
  8
0
 62
7
  6
CONTINUOUS
 10
53.0897681754
 20
128.6856344893
 11
58.1897681754
 21
128.6856344893
  0
LINE
  8
0
 62
7
  6
CONTINUOUS
 10
65.7897681754
 20
128.6856344893
 11
70.8897681754
 21
128.6856344893
  0
LINE
  8
0
 62
7
  6
CONTINUOUS
 10
78.4897681754
 20
128.6856344893
 11
83.5897681754
 21
128.6856344893
  0
LINE
  8
0
 62
7
  6
CONTINUOUS
 10
91.1897681754
 20
128.6856344893
 11
96.2897681754
 21
128.6856344893
  0
LINE
  8
0
 62
7
  6
CONTINUOUS
 10
103.8897681754
 20
128.6856344893
 11
108.9897681754
 21
128.6856344893
  0
LINE
  8
0
 62
7
  6
CONTINUOUS
 10
116.5897681754
 20
128.6856344893
 11
121.6897681754
 21
128.6856344893
  0
POLYLINE
  8
0
 62
7
  6
CONTINUOUS
 66
1
 70
0
  0
VERTEX
  8
0
 62
7
  6
CONTINUOUS
 10
45.4897681754
 20
128.6856344893
  0
VERTEX
  8
0
 62
7
  6
CONTINUOUS
 10
45.6103129616
 20
128.6833701965
  0
VERTEX
  8
0
 62
7
  6
CONTINUOUS
 10
45.7234798981
 20
128.6767097239
  0
VERTEX
  8
0
 62
7
  6
CONTINUOUS
 10
45.8226878553
 20
128.6660132366
  0
VERTEX
  8
0
 62
7
  6
CONTINUOUS
 10
45.8652362725
 20
128.6593208977
  0
VERTEX
  8
0
 62
7
  6
CONTINUOUS
 10
45.9332300529
 20
128.6436906641
  0
VERTEX
  8
0
 62
7
  6
CONTINUOUS
 10
45.9754684549
 20
128.6257752572
  0
VERTEX
  8
0
 62
7
  6
CONTINUOUS
 10
45.9897681754
 20
128.6065388796
  0
SEQEND
  0
POLYLINE
  8
0
 62
7
  6
CONTINUOUS
 66
1
 70
0
  0
VERTEX
  8
0
 62
7
  6
CONTINUOUS
 10
70.8897681754
 20
128.6856344893
  0
VERTEX
  8
0
 62
7
  6
CONTINUOUS
 10
71.0103129616
 20
128.6833701965
  0
VERTEX
  8
0
 62
7
  6
CONTINUOUS
 10
71.1234798981
 20
128.6767097239
  0
VERTEX
  8
0
 62
7
  6
CONTINUOUS
 10
71.2226878553
 20
128.6660132366
  0
VERTEX
  8
0
 62
7
  6
CONTINUOUS
 10
71.2652362725
 20
128.6593208977
  0
VERTEX
  8
0
 62
7
  6
CONTINUOUS
 10
71.3332300529
 20
128.6436906641
  0
VERTEX
  8
0
 62
7
  6
CONTINUOUS
 10
71.3754684549
 20
128.6257752572
  0
VERTEX
  8
0
 62
7
  6
CONTINUOUS
 10
71.3897681754
 20
128.6065388796
  0
SEQEND
  0
POLYLINE
  8
0
 62
7
  6
CONTINUOUS
 66
1
 70
0
  0
VERTEX
  8
0
 62
7
  6
CONTINUOUS
 10
96.2897681754
 20
128.6856344893
  0
VERTEX
  8
0
 62
7
  6
CONTINUOUS
 10
96.4103129616
 20
128.6833701965
  0
VERTEX
  8
0
 62
7
  6
CONTINUOUS
 10
96.5234798981
 20
128.6767097239
  0
VERTEX
  8
0
 62
7
  6
CONTINUOUS
 10
96.6226878553
 20
128.6660132366
  0
VERTEX
  8
0
 62
7
  6
CONTINUOUS
 10
96.6652362725
 20
128.6593208977
  0
VERTEX
  8
0
 62
7
  6
CONTINUOUS
 10
96.7332300529
 20
128.6436906641
  0
VERTEX
  8
0
 62
7
  6
CONTINUOUS
 10
96.7754684549
 20
128.6257752572
  0
VERTEX
  8
0
 62
7
  6
CONTINUOUS
 10
96.7897681754
 20
128.6065388796
  0
SEQEND
  0
POLYLINE
  8
0
 62
7
  6
CONTINUOUS
 66
1
 70
0
  0
VERTEX
  8
0
 62
7
  6
CONTINUOUS
 10
108.9897681754
 20
128.6856344893
  0
VERTEX
  8
0
 62
7
  6
CONTINUOUS
 10
109.1103129616
 20
128.6833701965
  0
VERTEX
  8
0
 62
7
  6
CONTINUOUS
 10
109.2234798981
 20
128.6767097239
  0
VERTEX
  8
0
 62
7
  6
CONTINUOUS
 10
109.3226878553
 20
128.6660132366
  0
VERTEX
  8
0
 62
7
  6
CONTINUOUS
 10
109.3652362725
 20
128.6593208977
  0
VERTEX
  8
0
 62
7
  6
CONTINUOUS
 10
109.4332300529
 20
128.6436906641
  0
VERTEX
  8
0
 62
7
  6
CONTINUOUS
 10
109.4754684549
 20
128.6257752572
  0
VERTEX
  8
0
 62
7
  6
CONTINUOUS
 10
109.4897681754
 20
128.6065388796
  0
SEQEND
  0
POLYLINE
  8
0
 62
7
  6
CONTINUOUS
 66
1
 70
0
  0
VERTEX
  8
0
 62
7
  6
CONTINUOUS
 10
121.6897681754
 20
128.6856344893
  0
VERTEX
  8
0
 62
7
  6
CONTINUOUS
 10
121.8103129616
 20
128.6833701965
  0
VERTEX
  8
0
 62
7
  6
CONTINUOUS
 10
121.9234798981
 20
128.6767097239
  0
VERTEX
  8
0
 62
7
  6
CONTINUOUS
 10
122.0226878553
 20
128.6660132366
  0
VERTEX
  8
0
 62
7
  6
CONTINUOUS
 10
122.0652362725
 20
128.6593208977
  0
VERTEX
  8
0
 62
7
  6
CONTINUOUS
 10
122.1332300529
 20
128.6436906641
  0
VERTEX
  8
0
 62
7
  6
CONTINUOUS
 10
122.1754684549
 20
128.6257752572
  0
VERTEX
  8
0
 62
7
  6
CONTINUOUS
 10
122.1897681754
 20
128.6065388796
  0
SEQEND
  0
POLYLINE
  8
0
 62
7
  6
CONTINUOUS
 66
1
 70
0
  0
VERTEX
  8
0
 62
7
  6
CONTINUOUS
 10
124.7397681754
 20
123.7674896928
  0
VERTEX
  8
0
 62
7
  6
CONTINUOUS
 10
124.8603161443
 20
123.7527403365
  0
VERTEX
  8
0
 62
7
  6
CONTINUOUS
 10
124.9729763704
 20
123.7097723375
  0
VERTEX
  8
0
 62
7
  6
CONTINUOUS
 10
125.0718047259
 20
123.6413235183
  0
VERTEX
  8
0
 62
7
  6
CONTINUOUS
 10
125.1139735847
 20
123.599107412
  0
VERTEX
  8
0
 62
7
  6
CONTINUOUS
 10
125.1821948155
 20
123.5004245939
  0
VERTEX
  8
0
 62
7
  6
CONTINUOUS
 10
125.2250727346
 20
123.3878204239
  0
VERTEX
  8
0
 62
7
  6
CONTINUOUS
 10
125.2397681754
 20
123.2674896928
  0
SEQEND
  0
POLYLINE
  8
0
 62
7
  6
CONTINUOUS
 66
1
 70
0
  0
VERTEX
  8
0
 62
7
  6
CONTINUOUS
 10
109.9897682138
 20
123.7674897761
  0
VERTEX
  8
0
 62
7
  6
CONTINUOUS
 10
109.9229830361
 20
123.7764697624
  0
VERTEX
  8
0
 62
7
  6
CONTINUOUS
 10
109.8470974147
 20
123.8085090987
  0
VERTEX
  8
0
 62
7
  6
CONTINUOUS
 10
109.775396314
 20
123.8612026486
  0
VERTEX
  8
0
 62
7
  6
CONTINUOUS
 10
109.7099234572
 20
123.931542751
  0
VERTEX
  8
0
 62
7
  6
CONTINUOUS
 10
109.6518342812
 20
124.0172140474
  0
VERTEX
  8
0
 62
7
  6
CONTINUOUS
 10
109.6016971508
 20
124.1169514717
  0
VERTEX
  8
0
 62
7
  6
CONTINUOUS
 10
109.5602948384
 20
124.2292500965
  0
VERTEX
  8
0
 62
7
  6
CONTINUOUS
 10
109.5283030165
 20
124.3521528472
  0
VERTEX
  8
0
 62
7
  6
CONTINUOUS
 10
109.5060009598
 20
124.4836960828
  0
VERTEX
  8
0
 62
7
  6
CONTINUOUS
 10
109.4933113207
 20
124.6218663493
  0
VERTEX
  8
0
 62
7
  6
CONTINUOUS
 10
109.4897679621
 20
124.749816535
  0
SEQEND
  0
POLYLINE
  8
0
 62
7
  6
CONTINUOUS
 66
1
 70
0
  0
VERTEX
  8
0
 62
7
  6
CONTINUOUS
 10
122.6897682097
 20
123.7674897757
  0
VERTEX
  8
0
 62
7
  6
CONTINUOUS
 10
122.622983037
 20
123.7764697622
  0
VERTEX
  8
0
 62
7
  6
CONTINUOUS
 10
122.5470973991
 20
123.8085091069
  0
VERTEX
  8
0
 62
7
  6
CONTINUOUS
 10
122.4753962864
 20
123.8612026739
  0
VERTEX
  8
0
 62
7
  6
CONTINUOUS
 10
122.4099234537
 20
123.9315427618
  0
VERTEX
  8
0
 62
7
  6
CONTINUOUS
 10
122.3518342665
 20
124.0172140732
  0
VERTEX
  8
0
 62
7
  6
CONTINUOUS
 10
122.3016971473
 20
124.1169514808
  0
VERTEX
  8
0
 62
7
  6
CONTINUOUS
 10
122.2602948372
 20
124.2292501014
  0
VERTEX
  8
0
 62
7
  6
CONTINUOUS
 10
122.2283030179
 20
124.3521528397
  0
VERTEX
  8
0
 62
7
  6
CONTINUOUS
 10
122.2060009619
 20
124.4836960522
  0
VERTEX
  8
0
 62
7
  6
CONTINUOUS
 10
122.193311321
 20
124.6218663273
  0
VERTEX
  8
0
 62
7
  6
CONTINUOUS
 10
122.1897679618
 20
124.7498166102
  0
SEQEND
  0
POLYLINE
  8
0
 62
7
  6
CONTINUOUS
 66
1
 70
0
  0
VERTEX
  8
0
 62
7
  6
CONTINUOUS
 10
84.0897681754
 20
128.6065388796
  0
VERTEX
  8
0
 62
7
  6
CONTINUOUS
 10
84.0754684549
 20
128.6257752572
  0
VERTEX
  8
0
 62
7
  6
CONTINUOUS
 10
84.0332300529
 20
128.6436906641
  0
VERTEX
  8
0
 62
7
  6
CONTINUOUS
 10
83.9652362725
 20
128.6593208977
  0
VERTEX
  8
0
 62
7
  6
CONTINUOUS
 10
83.9226878553
 20
128.6660132366
  0
VERTEX
  8
0
 62
7
  6
CONTINUOUS
 10
83.8234798981
 20
128.6767097239
  0
VERTEX
  8
0
 62
7
  6
CONTINUOUS
 10
83.7103129616
 20
128.6833701965
  0
VERTEX
  8
0
 62
7
  6
CONTINUOUS
 10
83.5897681754
 20
128.6856344893
  0
SEQEND
  0
LINE
  8
0
 62
7
  6
CONTINUOUS
 10
98.2247681754
 20
112.2278145523
 11
98.2247681754
 21
89.2917940082
  0
LINE
  8
0
 62
7
  6
CONTINUOUS
 10
27.6897681754
 20
131.6217940082
 11
32.7897681754
 21
131.6217940082
  0
LINE
  8
0
 62
7
  6
CONTINUOUS
 10
40.3897681754
 20
131.6217940082
 11
45.4897681754
 21
131.6217940082
  0
LINE
  8
0
 62
7
  6
CONTINUOUS
 10
53.0897681754
 20
131.6217940082
 11
58.1897681754
 21
131.6217940082
  0
LINE
  8
0
 62
7
  6
CONTINUOUS
 10
65.7897681754
 20
131.6217940082
 11
70.8897681754
 21
131.6217940082
  0
LINE
  8
0
 62
7
  6
CONTINUOUS
 10
78.4897681754
 20
131.6217940082
 11
83.5897681754
 21
131.6217940082
  0
LINE
  8
0
 62
7
  6
CONTINUOUS
 10
91.1897681754
 20
131.6217940082
 11
96.2897681754
 21
131.6217940082
  0
LINE
  8
0
 62
7
  6
CONTINUOUS
 10
103.8897681754
 20
131.6217940082
 11
108.9897681754
 21
131.6217940082
  0
LINE
  8
0
 62
7
  6
CONTINUOUS
 10
116.5897681754
 20
131.6217940082
 11
121.6897681754
 21
131.6217940082
  0
POLYLINE
  8
0
 62
7
  6
CONTINUOUS
 66
1
 70
0
  0
VERTEX
  8
0
 62
7
  6
CONTINUOUS
 10
122.4397681754
 20
88.0570491369
  0
VERTEX
  8
0
 62
7
  6
CONTINUOUS
 10
122.4540678959
 20
88.0378127593
  0
VERTEX
  8
0
 62
7
  6
CONTINUOUS
 10
122.4963062979
 20
88.0198973524
  0
VERTEX
  8
0
 62
7
  6
CONTINUOUS
 10
122.5643000782
 20
88.0042671188
  0
VERTEX
  8
0
 62
7
  6
CONTINUOUS
 10
122.6068484954
 20
87.9975747799
  0
VERTEX
  8
0
 62
7
  6
CONTINUOUS
 10
122.7060564527
 20
87.9868782926
  0
VERTEX
  8
0
 62
7
  6
CONTINUOUS
 10
122.8192233891
 20
87.98021782
  0
VERTEX
  8
0
 62
7
  6
CONTINUOUS
 10
122.9397681754
 20
87.9779535272
  0
SEQEND
  0
LINE
  8
0
 62
7
  6
CONTINUOUS
 10
101.9547681754
 20
89.2917940082
 11
101.9547681754
 21
112.2278145523
  0
LINE
  8
0
 62
7
  6
CONTINUOUS
 10
103.0847681754
 20
112.2278145523
 11
103.0847681754
 21
89.2917940082
  0
LINE
  8
0
 62
7
  6
CONTINUOUS
 10
103.1397681754
 20
85.5417940082
 11
103.1397681754
 21
91.9138084992
  0
LINE
  8
0
 62
7
  6
CONTINUOUS
 10
103.3897681754
 20
131.1217940082
 11
103.3897681754
 21
124.7497795706
  0
LINE
  8
0
 62
7
  6
CONTINUOUS
 10
103.4447681754
 20
104.4357734641
 11
103.4447681754
 21
127.3717940082
  0
LINE
  8
0
 62
7
  6
CONTINUOUS
 10
104.5747681754
 20
127.3717940082
 11
104.5747681754
 21
104.4357734641
  0
POLYLINE
  8
0
 62
7
  6
CONTINUOUS
 66
1
 70
0
  0
VERTEX
  8
0
 62
7
  6
CONTINUOUS
 10
103.389768631
 20
124.74980763
  0
VERTEX
  8
0
 62
7
  6
CONTINUOUS
 10
103.3862981682
 20
124.6231614666
  0
VERTEX
  8
0
 62
7
  6
CONTINUOUS
 10
103.373688789
 20
124.4848894151
  0
VERTEX
  8
0
 62
7
  6
CONTINUOUS
 10
103.3514646304
 20
124.3532417344
  0
VERTEX
  8
0
 62
7
  6
CONTINUOUS
 10
103.3195481268
 20
124.2302351435
  0
VERTEX
  8
0
 62
7
  6
CONTINUOUS
 10
103.278218686
 20
124.1178315481
  0
VERTEX
  8
0
 62
7
  6
CONTINUOUS
 10
103.2281512486
 20
124.017984585
  0
VERTEX
  8
0
 62
7
  6
CONTINUOUS
 10
103.1701277659
 20
123.9321946979
  0
VERTEX
  8
0
 62
7
  6
CONTINUOUS
 10
103.1047147872
 20
123.8617209378
  0
VERTEX
  8
0
 62
7
  6
CONTINUOUS
 10
103.033062123
 20
123.8088701242
  0
VERTEX
  8
0
 62
7
  6
CONTINUOUS
 10
102.957199519
 20
123.7766442364
  0
VERTEX
  8
0
 62
7
  6
CONTINUOUS
 10
102.8897681754
 20
123.7674897743
  0
SEQEND
  0
POLYLINE
  8
0
 62
7
  6
CONTINUOUS
 66
1
 70
0
  0
VERTEX
  8
0
 62
7
  6
CONTINUOUS
 10
103.1397679662
 20
91.9137714181
  0
VERTEX
  8
0
 62
7
  6
CONTINUOUS
 10
103.1432383672
 20
92.0404302236
  0
VERTEX
  8
0
 62
7
  6
CONTINUOUS
 10
103.1558479539
 20
92.1787037317
  0
VERTEX
  8
0
 62
7
  6
CONTINUOUS
 10
103.1780720745
 20
92.3103487761
  0
VERTEX
  8
0
 62
7
  6
CONTINUOUS
 10
103.2099882741
 20
92.4333534524
  0
VERTEX
  8
0
 62
7
  6
CONTINUOUS
 10
103.2513178356
 20
92.5457569496
  0
VERTEX
  8
0
 62
7
  6
CONTINUOUS
 10
103.3013849642
 20
92.6456032271
  0
VERTEX
  8
0
 62
7
  6
CONTINUOUS
 10
103.3594089483
 20
92.7313936251
  0
VERTEX
  8
0
 62
7
  6
CONTINUOUS
 10
103.4248216833
 20
92.8018672559
  0
VERTEX
  8
0
 62
7
  6
CONTINUOUS
 10
103.4964749914
 20
92.8547183977
  0
VERTEX
  8
0
 62
7
  6
CONTINUOUS
 10
103.572340583
 20
92.8869447863
  0
VERTEX
  8
0
 62
7
  6
CONTINUOUS
 10
103.6397681754
 20
92.8960982407
  0
SEQEND
  0
POLYLINE
  8
0
 62
7
  6
CONTINUOUS
 66
1
 70
0
  0
VERTEX
  8
0
 62
7
  6
CONTINUOUS
 10
101.9547681754
 20
112.2278145523
  0
VERTEX
  8
0
 62
7
  6
CONTINUOUS
 10
101.9700081973
 20
112.3677606853
  0
VERTEX
  8
0
 62
7
  6
CONTINUOUS
 10
102.0142350556
 20
112.4986676675
  0
VERTEX
  8
0
 62
7
  6
CONTINUOUS
 10
102.0842837892
 20
112.6141094932
  0
VERTEX
  8
0
 62
7
  6
CONTINUOUS
 10
102.1745259091
 20
112.7075324514
  0
VERTEX
  8
0
 62
7
  6
CONTINUOUS
 10
102.2801957698
 20
112.7762532195
  0
VERTEX
  8
0
 62
7
  6
CONTINUOUS
 10
102.3952270389
 20
112.8178725383
  0
VERTEX
  8
0
 62
7
  6
CONTINUOUS
 10
102.5147681754
 20
112.8317940082
  0
SEQEND
  0
POLYLINE
  8
0
 62
7
  6
CONTINUOUS
 66
1
 70
0
  0
VERTEX
  8
0
 62
7
  6
CONTINUOUS
 10
104.5747681754
 20
104.4357734641
  0
VERTEX
  8
0
 62
7
  6
CONTINUOUS
 10
104.5595281534
 20
104.2958273312
  0
VERTEX
  8
0
 62
7
  6
CONTINUOUS
 10
104.5153012952
 20
104.164920349
  0
VERTEX
  8
0
 62
7
  6
CONTINUOUS
 10
104.4452525616
 20
104.0494785233
  0
VERTEX
  8
0
 62
7
  6
CONTINUOUS
 10
104.3550104416
 20
103.9560555651
  0
VERTEX
  8
0
 62
7
  6
CONTINUOUS
 10
104.2493405809
 20
103.887334797
  0
VERTEX
  8
0
 62
7
  6
CONTINUOUS
 10
104.1343093118
 20
103.8457154782
  0
VERTEX
  8
0
 62
7
  6
CONTINUOUS
 10
104.0147681754
 20
103.8317940082
  0
SEQEND
  0
LINE
  8
0
 62
7
  6
CONTINUOUS
 10
108.3047681754
 20
104.4357734641
 11
108.3047681754
 21
127.3717940082
  0
LINE
  8
0
 62
7
  6
CONTINUOUS
 10
109.4347681754
 20
127.3717940082
 11
109.4347681754
 21
104.4357734641
  0
LINE
  8
0
 62
7
  6
CONTINUOUS
 10
109.4897681754
 20
124.7497795172
 11
109.4897681754
 21
131.1217940082
  0
LINE
  8
0
 62
7
  6
CONTINUOUS
 10
109.7397681754
 20
85.5417940082
 11
109.7397681754
 21
92.2174236096
  0
LINE
  8
0
 62
7
  6
CONTINUOUS
 10
109.7947681754
 20
89.2917940082
 11
109.7947681754
 21
112.2278145523
  0
LINE
  8
0
 62
7
  6
CONTINUOUS
 10
110.9247681754
 20
112.2278145523
 11
110.9247681754
 21
89.2917940082
  0
POLYLINE
  8
0
 62
7
  6
CONTINUOUS
 66
1
 70
0
  0
VERTEX
  8
0
 62
7
  6
CONTINUOUS
 10
109.7947681754
 20
112.2278145523
  0
VERTEX
  8
0
 62
7
  6
CONTINUOUS
 10
109.8100081973
 20
112.3677606853
  0
VERTEX
  8
0
 62
7
  6
CONTINUOUS
 10
109.8542350556
 20
112.4986676675
  0
VERTEX
  8
0
 62
7
  6
CONTINUOUS
 10
109.9242837892
 20
112.6141094932
  0
VERTEX
  8
0
 62
7
  6
CONTINUOUS
 10
110.0145259091
 20
112.7075324514
  0
VERTEX
  8
0
 62
7
  6
CONTINUOUS
 10
110.1201957698
 20
112.7762532195
  0
VERTEX
  8
0
 62
7
  6
CONTINUOUS
 10
110.2352270389
 20
112.8178725383
  0
VERTEX
  8
0
 62
7
  6
CONTINUOUS
 10
110.3547681754
 20
112.8317940082
  0
SEQEND
  0
POLYLINE
  8
0
 62
7
  6
CONTINUOUS
 66
1
 70
0
  0
VERTEX
  8
0
 62
7
  6
CONTINUOUS
 10
109.4347681754
 20
104.4357734641
  0
VERTEX
  8
0
 62
7
  6
CONTINUOUS
 10
109.4195281534
 20
104.2958273312
  0
VERTEX
  8
0
 62
7
  6
CONTINUOUS
 10
109.3753012952
 20
104.164920349
  0
VERTEX
  8
0
 62
7
  6
CONTINUOUS
 10
109.3052525616
 20
104.0494785233
  0
VERTEX
  8
0
 62
7
  6
CONTINUOUS
 10
109.2150104416
 20
103.9560555651
  0
VERTEX
  8
0
 62
7
  6
CONTINUOUS
 10
109.1093405809
 20
103.887334797
  0
VERTEX
  8
0
 62
7
  6
CONTINUOUS
 10
108.9943093118
 20
103.8457154782
  0
VERTEX
  8
0
 62
7
  6
CONTINUOUS
 10
108.8747681754
 20
103.8317940082
  0
SEQEND
  0
LINE
  8
0
 62
7
  6
CONTINUOUS
 10
114.6547681754
 20
89.2917940082
 11
114.6547681754
 21
112.2278145523
  0
LINE
  8
0
 62
7
  6
CONTINUOUS
 10
115.7847681754
 20
112.2278145523
 11
115.7847681754
 21
89.2917940082
  0
LINE
  8
0
 62
7
  6
CONTINUOUS
 10
115.8397681754
 20
85.5417940082
 11
115.8397681754
 21
91.9138084992
  0
LINE
  8
0
 62
7
  6
CONTINUOUS
 10
116.0897681754
 20
131.1217940082
 11
116.0897681754
 21
124.4461644069
  0
POLYLINE
  8
0
 62
7
  6
CONTINUOUS
 66
1
 70
0
  0
VERTEX
  8
0
 62
7
  6
CONTINUOUS
 10
116.089768631
 20
124.74980763
  0
VERTEX
  8
0
 62
7
  6
CONTINUOUS
 10
116.0862981682
 20
124.6231614666
  0
VERTEX
  8
0
 62
7
  6
CONTINUOUS
 10
116.073688789
 20
124.4848894151
  0
VERTEX
  8
0
 62
7
  6
CONTINUOUS
 10
116.0514646304
 20
124.3532417344
  0
VERTEX
  8
0
 62
7
  6
CONTINUOUS
 10
116.0195481268
 20
124.2302351435
  0
VERTEX
  8
0
 62
7
  6
CONTINUOUS
 10
115.978218686
 20
124.1178315481
  0
VERTEX
  8
0
 62
7
  6
CONTINUOUS
 10
115.9281512486
 20
124.017984585
  0
VERTEX
  8
0
 62
7
  6
CONTINUOUS
 10
115.8701277659
 20
123.9321946979
  0
VERTEX
  8
0
 62
7
  6
CONTINUOUS
 10
115.8047147872
 20
123.8617209378
  0
VERTEX
  8
0
 62
7
  6
CONTINUOUS
 10
115.733062123
 20
123.8088701242
  0
VERTEX
  8
0
 62
7
  6
CONTINUOUS
 10
115.657199519
 20
123.7766442364
  0
VERTEX
  8
0
 62
7
  6
CONTINUOUS
 10
115.5897681754
 20
123.7674897743
  0
SEQEND
  0
POLYLINE
  8
0
 62
7
  6
CONTINUOUS
 66
1
 70
0
  0
VERTEX
  8
0
 62
7
  6
CONTINUOUS
 10
114.6547681754
 20
112.2278145523
  0
VERTEX
  8
0
 62
7
  6
CONTINUOUS
 10
114.6700081973
 20
112.3677606853
  0
VERTEX
  8
0
 62
7
  6
CONTINUOUS
 10
114.7142350556
 20
112.4986676675
  0
VERTEX
  8
0
 62
7
  6
CONTINUOUS
 10
114.7842837892
 20
112.6141094932
  0
VERTEX
  8
0
 62
7
  6
CONTINUOUS
 10
114.8745259091
 20
112.7075324514
  0
VERTEX
  8
0
 62
7
  6
CONTINUOUS
 10
114.9801957698
 20
112.7762532195
  0
VERTEX
  8
0
 62
7
  6
CONTINUOUS
 10
115.0952270389
 20
112.8178725383
  0
VERTEX
  8
0
 62
7
  6
CONTINUOUS
 10
115.2147681754
 20
112.8317940082
  0
SEQEND
  0
LINE
  8
0
 62
7
  6
CONTINUOUS
 10
116.1447681754
 20
104.4357734641
 11
116.1447681754
 21
127.3717940082
  0
LINE
  8
0
 62
7
  6
CONTINUOUS
 10
117.2747681754
 20
127.3717940082
 11
117.2747681754
 21
104.4357734641
  0
POLYLINE
  8
0
 62
7
  6
CONTINUOUS
 66
1
 70
0
  0
VERTEX
  8
0
 62
7
  6
CONTINUOUS
 10
115.8397679662
 20
91.9137714181
  0
VERTEX
  8
0
 62
7
  6
CONTINUOUS
 10
115.8432383672
 20
92.0404302236
  0
VERTEX
  8
0
 62
7
  6
CONTINUOUS
 10
115.8558479539
 20
92.1787037317
  0
VERTEX
  8
0
 62
7
  6
CONTINUOUS
 10
115.8780720745
 20
92.3103487761
  0
VERTEX
  8
0
 62
7
  6
CONTINUOUS
 10
115.9099882741
 20
92.4333534524
  0
VERTEX
  8
0
 62
7
  6
CONTINUOUS
 10
115.9513178356
 20
92.5457569496
  0
VERTEX
  8
0
 62
7
  6
CONTINUOUS
 10
116.0013849642
 20
92.6456032271
  0
VERTEX
  8
0
 62
7
  6
CONTINUOUS
 10
116.0594089483
 20
92.7313936251
  0
VERTEX
  8
0
 62
7
  6
CONTINUOUS
 10
116.1248216833
 20
92.8018672559
  0
VERTEX
  8
0
 62
7
  6
CONTINUOUS
 10
116.1964749914
 20
92.8547183977
  0
VERTEX
  8
0
 62
7
  6
CONTINUOUS
 10
116.272340583
 20
92.8869447863
  0
VERTEX
  8
0
 62
7
  6
CONTINUOUS
 10
116.3397681754
 20
92.8960982407
  0
SEQEND
  0
POLYLINE
  8
0
 62
7
  6
CONTINUOUS
 66
1
 70
0
  0
VERTEX
  8
0
 62
7
  6
CONTINUOUS
 10
117.2747681754
 20
104.4357734641
  0
VERTEX
  8
0
 62
7
  6
CONTINUOUS
 10
117.2595281534
 20
104.2958273312
  0
VERTEX
  8
0
 62
7
  6
CONTINUOUS
 10
117.2153012952
 20
104.164920349
  0
VERTEX
  8
0
 62
7
  6
CONTINUOUS
 10
117.1452525616
 20
104.0494785233
  0
VERTEX
  8
0
 62
7
  6
CONTINUOUS
 10
117.0550104416
 20
103.9560555651
  0
VERTEX
  8
0
 62
7
  6
CONTINUOUS
 10
116.9493405809
 20
103.887334797
  0
VERTEX
  8
0
 62
7
  6
CONTINUOUS
 10
116.8343093118
 20
103.8457154782
  0
VERTEX
  8
0
 62
7
  6
CONTINUOUS
 10
116.7147681754
 20
103.8317940082
  0
SEQEND
  0
LINE
  8
0
 62
7
  6
CONTINUOUS
 10
121.0047681754
 20
104.4357734641
 11
121.0047681754
 21
127.3717940082
  0
LINE
  8
0
 62
7
  6
CONTINUOUS
 10
122.1347681754
 20
127.3717940082
 11
122.1347681754
 21
104.4357734641
  0
LINE
  8
0
 62
7
  6
CONTINUOUS
 10
122.1897681754
 20
124.74977952
 11
122.1897681754
 21
131.1217940082
  0
LINE
  8
0
 62
7
  6
CONTINUOUS
 10
122.4397681754
 20
91.9138084459
 11
122.4397681754
 21
85.5417940082
  0
LINE
  8
0
 62
7
  6
CONTINUOUS
 10
122.4947681754
 20
89.2917940082
 11
122.4947681754
 21
112.2278145523
  0
POLYLINE
  8
0
 62
7
  6
CONTINUOUS
 66
1
 70
0
  0
VERTEX
  8
0
 62
7
  6
CONTINUOUS
 10
122.4947681754
 20
112.2278145523
  0
VERTEX
  8
0
 62
7
  6
CONTINUOUS
 10
122.5100081973
 20
112.3677606853
  0
VERTEX
  8
0
 62
7
  6
CONTINUOUS
 10
122.5542350556
 20
112.4986676675
  0
VERTEX
  8
0
 62
7
  6
CONTINUOUS
 10
122.6242837892
 20
112.6141094932
  0
VERTEX
  8
0
 62
7
  6
CONTINUOUS
 10
122.7145259091
 20
112.7075324514
  0
VERTEX
  8
0
 62
7
  6
CONTINUOUS
 10
122.8201957698
 20
112.7762532195
  0
VERTEX
  8
0
 62
7
  6
CONTINUOUS
 10
122.9352270389
 20
112.8178725383
  0
VERTEX
  8
0
 62
7
  6
CONTINUOUS
 10
123.0547681754
 20
112.8317940082
  0
SEQEND
  0
POLYLINE
  8
0
 62
7
  6
CONTINUOUS
 66
1
 70
0
  0
VERTEX
  8
0
 62
7
  6
CONTINUOUS
 10
122.1347681754
 20
104.4357734641
  0
VERTEX
  8
0
 62
7
  6
CONTINUOUS
 10
122.1195281534
 20
104.2958273312
  0
VERTEX
  8
0
 62
7
  6
CONTINUOUS
 10
122.0753012952
 20
104.164920349
  0
VERTEX
  8
0
 62
7
  6
CONTINUOUS
 10
122.0052525616
 20
104.0494785233
  0
VERTEX
  8
0
 62
7
  6
CONTINUOUS
 10
121.9150104416
 20
103.9560555651
  0
VERTEX
  8
0
 62
7
  6
CONTINUOUS
 10
121.8093405809
 20
103.887334797
  0
VERTEX
  8
0
 62
7
  6
CONTINUOUS
 10
121.6943093118
 20
103.8457154782
  0
VERTEX
  8
0
 62
7
  6
CONTINUOUS
 10
121.5747681754
 20
103.8317940082
  0
SEQEND
  0
LINE
  8
0
 62
7
  6
CONTINUOUS
 10
125.2397681754
 20
92.6817940082
 11
125.4397681754
 21
92.8817940082
  0
LINE
  8
0
 62
7
  6
CONTINUOUS
 10
123.6247681754
 20
112.2278145523
 11
123.6247681754
 21
89.2917940082
  0
LINE
  8
0
 62
7
  6
CONTINUOUS
 10
125.2397681754
 20
85.5417940082
 11
125.2397681754
 21
123.2674896928
  0
LINE
  8
0
 62
7
  6
CONTINUOUS
 10
125.4397681754
 20
121.6980455094
 11
125.4397681754
 21
92.8817940082
  0
POLYLINE
  8
0
 62
7
  6
CONTINUOUS
 66
1
 70
0
  0
VERTEX
  8
0
 62
7
  6
CONTINUOUS
 10
125.2397681754
 20
88.0570491369
  0
VERTEX
  8
0
 62
7
  6
CONTINUOUS
 10
125.2254684549
 20
88.0378127593
  0
VERTEX
  8
0
 62
7
  6
CONTINUOUS
 10
125.1832300529
 20
88.0198973524
  0
VERTEX
  8
0
 62
7
  6
CONTINUOUS
 10
125.1152362725
 20
88.0042671188
  0
VERTEX
  8
0
 62
7
  6
CONTINUOUS
 10
125.0726878553
 20
87.9975747799
  0
VERTEX
  8
0
 62
7
  6
CONTINUOUS
 10
124.9734798981
 20
87.9868782926
  0
VERTEX
  8
0
 62
7
  6
CONTINUOUS
 10
124.8603129616
 20
87.98021782
  0
VERTEX
  8
0
 62
7
  6
CONTINUOUS
 10
124.7397681754
 20
87.9779535272
  0
SEQEND
  0
LINE
  8
0
 62
7
  6
CONTINUOUS
 10
162.158061686
 20
85.0417940082
 11
164.1021810239
 21
85.0417940082
  0
LINE
  8
0
 62
7
  6
CONTINUOUS
 10
167.2801213549
 20
88.7317940082
 11
173.5301213549
 21
88.7317940082
  0
LINE
  8
0
 62
7
  6
CONTINUOUS
 10
167.2801213549
 20
87.9779535272
 11
167.1103087381
 21
88.0042671188
  0
POLYLINE
  8
0
 62
7
  6
CONTINUOUS
 66
1
 70
0
  0
VERTEX
  8
0
 62
7
  6
CONTINUOUS
 10
167.1103087381
 20
88.0042671188
  0
VERTEX
  8
0
 62
7
  6
CONTINUOUS
 10
166.8988447245
 20
88.0378127593
  0
VERTEX
  8
0
 62
7
  6
CONTINUOUS
 10
166.7801213549
 20
88.0570491369
  0
SEQEND
  0
LINE
  8
1_AXIS
 62
2
  6
CONTINUOUS
 10
164.0101213549
 20
89.2817940082
 11
162.2501213549
 21
89.2817940082
  0
LINE
  8
1_AXIS
 62
2
  6
CENTER
 10
158.7301213549
 20
89.2817940082
 11
156.8901213549
 21
89.2817940082
  0
LINE
  8
1_AXIS
 62
2
  6
CENTER
 10
167.5301213549
 20
89.2817940082
 11
169.3701213549
 21
89.2817940082
  0
POLYLINE
  8
0
 62
7
  6
CONTINUOUS
 66
1
 70
0
  0
VERTEX
  8
0
 62
7
  6
CONTINUOUS
 10
160.6470422542
 20
92.9145010485
  0
VERTEX
  8
0
 62
7
  6
CONTINUOUS
 10
160.7320333433
 20
92.8965193561
  0
VERTEX
  8
0
 62
7
  6
CONTINUOUS
 10
160.8221759907
 20
92.8856187507
  0
VERTEX
  8
0
 62
7
  6
CONTINUOUS
 10
160.9167213549
 20
92.8818012216
  0
SEQEND
  0
LINE
  8
0
 62
7
  6
CONTINUOUS
 10
166.6702344549
 20
92.6817940082
 11
160.9167213549
 21
92.6817940082
  0
LINE
  8
0
 62
7
  6
CONTINUOUS
 10
160.9167213549
 20
92.8817940082
 11
166.4546364716
 21
92.8817940082
  0
POLYLINE
  8
0
 62
7
  6
CONTINUOUS
 66
1
 70
0
  0
VERTEX
  8
0
 62
7
  6
CONTINUOUS
 10
160.8895182341
 20
92.6828413157
  0
VERTEX
  8
0
 62
7
  6
CONTINUOUS
 10
160.8985871626
 20
92.6822592239
  0
VERTEX
  8
0
 62
7
  6
CONTINUOUS
 10
160.9076546278
 20
92.681910274
  0
VERTEX
  8
0
 62
7
  6
CONTINUOUS
 10
160.9167213549
 20
92.6817940082
  0
SEQEND
  0
LINE
  8
0
 62
7
  6
CONTINUOUS
 10
166.4546364716
 20
92.8817940082
 11
166.6702344549
 21
92.6817940082
  0
POLYLINE
  8
0
 62
7
  6
CONTINUOUS
 66
1
 70
0
  0
VERTEX
  8
0
 62
7
  6
CONTINUOUS
 10
160.4167213549
 20
93.0889007894
  0
VERTEX
  8
0
 62
7
  6
CONTINUOUS
 10
160.4291704074
 20
93.0429733515
  0
VERTEX
  8
0
 62
7
  6
CONTINUOUS
 10
160.4663886785
 20
92.9989101113
  0
VERTEX
  8
0
 62
7
  6
CONTINUOUS
 10
160.493617739
 20
92.9785431252
  0
VERTEX
  8
0
 62
7
  6
CONTINUOUS
 10
160.5624684805
 20
92.9427444901
  0
VERTEX
  8
0
 62
7
  6
CONTINUOUS
 10
160.6470422542
 20
92.9145010485
  0
SEQEND
  0
POLYLINE
  8
0
 62
7
  6
CONTINUOUS
 66
1
 70
0
  0
VERTEX
  8
0
 62
7
  6
CONTINUOUS
 10
160.4167213549
 20
92.9016998703
  0
VERTEX
  8
0
 62
7
  6
CONTINUOUS
 10
160.4167473237
 20
92.8984909461
  0
VERTEX
  8
0
 62
7
  6
CONTINUOUS
 10
160.4169953521
 20
92.892782846
  0
VERTEX
  8
0
 62
7
  6
CONTINUOUS
 10
160.4176033822
 20
92.8872020928
  0
VERTEX
  8
0
 62
7
  6
CONTINUOUS
 10
160.4187418878
 20
92.8811996343
  0
VERTEX
  8
0
 62
7
  6
CONTINUOUS
 10
160.4206452564
 20
92.8745033156
  0
VERTEX
  8
0
 62
7
  6
CONTINUOUS
 10
160.4236298678
 20
92.8669133766
  0
VERTEX
  8
0
 62
7
  6
CONTINUOUS
 10
160.4281966472
 20
92.8581169005
  0
VERTEX
  8
0
 62
7
  6
CONTINUOUS
 10
160.4351494239
 20
92.8476921499
  0
VERTEX
  8
0
 62
7
  6
CONTINUOUS
 10
160.4398683728
 20
92.8417396993
  0
VERTEX
  8
0
 62
7
  6
CONTINUOUS
 10
160.4528407403
 20
92.8280020921
  0
VERTEX
  8
0
 62
7
  6
CONTINUOUS
 10
160.4725390546
 20
92.8113195312
  0
VERTEX
  8
0
 62
7
  6
CONTINUOUS
 10
160.5026291954
 20
92.7909753147
  0
VERTEX
  8
0
 62
7
  6
CONTINUOUS
 10
160.5493204848
 20
92.7661257168
  0
VERTEX
  8
0
 62
7
  6
CONTINUOUS
 10
160.6222696055
 20
92.7367018038
  0
VERTEX
  8
0
 62
7
  6
CONTINUOUS
 10
160.7211383732
 20
92.7084856879
  0
VERTEX
  8
0
 62
7
  6
CONTINUOUS
 10
160.83169599
 20
92.6887650394
  0
VERTEX
  8
0
 62
7
  6
CONTINUOUS
 10
160.8895182341
 20
92.6828413157
  0
SEQEND
  0
LINE
  8
0
 62
7
  6
CONTINUOUS
 10
158.7801213549
 20
89.2817940082
 11
158.7801213549
 21
127.3817940082
  0
LINE
  8
0
 62
7
  6
CONTINUOUS
 10
160.4167213549
 20
92.9016998703
 11
160.4167213549
 21
122.1980455094
  0
LINE
  8
0
 62
7
  6
CONTINUOUS
 10
164.1021810239
 20
131.6217940082
 11
164.0713176513
 21
131.3533870459
  0
LINE
  8
0
 62
7
  6
CONTINUOUS
 10
164.0713176513
 20
131.3533870459
 11
164.0438499798
 21
131.1217940082
  0
LINE
  8
0
 62
7
  6
CONTINUOUS
 10
164.0438499798
 20
85.5417940082
 11
164.0713176513
 21
85.3102009705
  0
LINE
  8
0
 62
7
  6
CONTINUOUS
 10
164.0713176513
 20
85.3102009705
 11
164.1021810239
 21
85.0417940082
  0
LINE
  8
1_AXIS
 62
2
  6
CONTINUOUS
 10
163.1301213549
 20
128.2617940082
 11
163.1301213549
 21
126.5017940082
  0
LINE
  8
1_AXIS
 62
2
  6
CENTER
 10
163.1301213549
 20
122.9817940082
 11
163.1301213549
 21
121.1417940082
  0
LINE
  8
1_AXIS
 62
2
  6
CONTINUOUS
 10
163.1301213549
 20
90.1617940082
 11
163.1301213549
 21
88.4017940082
  0
LINE
  8
1_AXIS
 62
2
  6
CENTER
 10
163.1301213549
 20
84.8817940082
 11
163.1301213549
 21
83.0417940082
  0
LINE
  8
1_AXIS
 62
2
  6
CENTER
 10
163.1301213549
 20
93.6817940082
 11
163.1301213549
 21
95.5217940082
  0
LINE
  8
1_AXIS
 62
2
  6
CENTER
 10
163.1301213549
 20
131.7817940082
 11
163.1301213549
 21
133.6217940082
  0
LINE
  8
0
 62
7
  6
CONTINUOUS
 10
164.8801213549
 20
93.8178156257
 11
164.8801213549
 21
121.6980455094
  0
LINE
  8
2_FEATURE
 62
7
  6
CONTINUOUS
 10
164.8801213549
 20
121.6980455094
 11
164.8801213549
 21
122.6980455094
  0
LINE
  8
0
 62
7
  6
CONTINUOUS
 10
162.1889250586
 20
85.3102009705
 11
162.158061686
 21
85.0417940082
  0
LINE
  8
0
 62
7
  6
CONTINUOUS
 10
162.21639273
 20
85.5417940082
 11
162.1889250586
 21
85.3102009705
  0
LINE
  8
0
 62
7
  6
CONTINUOUS
 10
162.21639273
 20
131.1217940082
 11
162.1889250586
 21
131.3533870459
  0
LINE
  8
0
 62
7
  6
CONTINUOUS
 10
162.1889250586
 20
131.3533870459
 11
162.158061686
 21
131.6217940082
  0
POLYLINE
  8
0
 62
7
  6
CONTINUOUS
 66
1
 70
0
  0
VERTEX
  8
0
 62
7
  6
CONTINUOUS
 10
167.0081016172
 20
127.3717940082
  0
VERTEX
  8
0
 62
7
  6
CONTINUOUS
 10
167.010469861
 20
127.4087578446
  0
VERTEX
  8
0
 62
7
  6
CONTINUOUS
 10
167.0310671517
 20
127.4896149808
  0
VERTEX
  8
0
 62
7
  6
CONTINUOUS
 10
167.0734368344
 20
127.5798221715
  0
VERTEX
  8
0
 62
7
  6
CONTINUOUS
 10
167.1316160444
 20
127.6753322709
  0
VERTEX
  8
0
 62
7
  6
CONTINUOUS
 10
167.1630011507
 20
127.7225251605
  0
VERTEX
  8
0
 62
7
  6
CONTINUOUS
 10
167.2207667604
 20
127.8079101904
  0
VERTEX
  8
0
 62
7
  6
CONTINUOUS
 10
167.2595453024
 20
127.8693595733
  0
VERTEX
  8
0
 62
7
  6
CONTINUOUS
 10
167.2778808831
 20
127.9077651058
  0
VERTEX
  8
0
 62
7
  6
CONTINUOUS
 10
167.2801213549
 20
127.9198587854
  0
SEQEND
  0
LINE
  8
1_AXIS
 62
2
  6
CENTER
 10
156.2801213549
 20
108.3317940082
 11
176.5301213549
 21
108.3317940082
  0
LINE
  8
0
 62
7
  6
CONTINUOUS
 10
167.0081016172
 20
127.3717940082
 11
167.0081016172
 21
124.749775933
  0
LINE
  8
0
 62
7
  6
CONTINUOUS
 10
167.2801213549
 20
128.6856344893
 11
167.2801213549
 21
127.9198587854
  0
LINE
  8
0
 62
7
  6
CONTINUOUS
 10
167.2801213549
 20
123.4951310095
 11
167.2801213549
 21
87.9779535272
  0
POLYLINE
  8
0
 62
7
  6
CONTINUOUS
 66
1
 70
0
  0
VERTEX
  8
0
 62
7
  6
CONTINUOUS
 10
167.0081016172
 20
124.749775933
  0
VERTEX
  8
0
 62
7
  6
CONTINUOUS
 10
167.0303814951
 20
124.5143493183
  0
VERTEX
  8
0
 62
7
  6
CONTINUOUS
 10
167.1021830517
 20
124.2396528227
  0
VERTEX
  8
0
 62
7
  6
CONTINUOUS
 10
167.1983648705
 20
123.9426323683
  0
VERTEX
  8
0
 62
7
  6
CONTINUOUS
 10
167.2610158048
 20
123.6942934442
  0
VERTEX
  8
0
 62
7
  6
CONTINUOUS
 10
167.2801213549
 20
123.4951348172
  0
SEQEND
  0
POLYLINE
  8
0
 62
7
  6
CONTINUOUS
 66
1
 70
0
  0
VERTEX
  8
0
 62
7
  6
CONTINUOUS
 10
164.8641349254
 20
122.7293264627
  0
VERTEX
  8
0
 62
7
  6
CONTINUOUS
 10
164.8216894997
 20
122.8568885097
  0
VERTEX
  8
0
 62
7
  6
CONTINUOUS
 10
164.7929007097
 20
122.9325319261
  0
VERTEX
  8
0
 62
7
  6
CONTINUOUS
 10
164.7770958504
 20
122.9666967514
  0
VERTEX
  8
0
 62
7
  6
CONTINUOUS
 10
164.7428725234
 20
123.0220955906
  0
VERTEX
  8
0
 62
7
  6
CONTINUOUS
 10
164.7005226886
 20
123.0624608421
  0
VERTEX
  8
0
 62
7
  6
CONTINUOUS
 10
164.6410044485
 20
123.0889681458
  0
VERTEX
  8
0
 62
7
  6
CONTINUOUS
 10
164.5639237552
 20
123.1001582773
  0
VERTEX
  8
0
 62
7
  6
CONTINUOUS
 10
164.5185518015
 20
123.1013429929
  0
SEQEND
  0
LINE
  8
0
 62
7
  6
CONTINUOUS
 10
173.9047279483
 20
110.1552792087
 11
167.2801213549
 21
112.8317940082
  0
LINE
  8
0
 62
7
  6
CONTINUOUS
 10
174.5301213549
 20
89.7317940082
 11
174.5301213549
 21
126.9317940082
  0
POLYLINE
  8
0
 62
7
  6
CONTINUOUS
 66
1
 70
0
  0
VERTEX
  8
0
 62
7
  6
CONTINUOUS
 10
164.8798666787
 20
122.6980455094
  0
VERTEX
  8
0
 62
7
  6
CONTINUOUS
 10
164.8760157707
 20
122.7015487703
  0
VERTEX
  8
0
 62
7
  6
CONTINUOUS
 10
164.8641349254
 20
122.7293264627
  0
SEQEND
  0
POLYLINE
  8
0
 62
7
  6
CONTINUOUS
 66
1
 70
0
  0
VERTEX
  8
0
 62
7
  6
CONTINUOUS
 10
160.4150330965
 20
123.0317949221
  0
VERTEX
  8
0
 62
7
  6
CONTINUOUS
 10
160.4234479512
 20
123.0320517327
  0
VERTEX
  8
0
 62
7
  6
CONTINUOUS
 10
160.44224881
 20
123.0339249725
  0
VERTEX
  8
0
 62
7
  6
CONTINUOUS
 10
160.4648065478
 20
123.0375528528
  0
VERTEX
  8
0
 62
7
  6
CONTINUOUS
 10
160.492384293
 20
123.0430187313
  0
SEQEND
  0
LINE
  8
0
 62
7
  6
CONTINUOUS
 10
164.8801213549
 20
122.6980455094
 11
160.9167213549
 21
122.6980455094
  0
LINE
  8
0
 62
7
  6
CONTINUOUS
 10
159.2801213549
 20
123.0317940082
 11
160.4150045697
 21
123.0317949221
  0
LINE
  8
0
 62
7
  6
CONTINUOUS
 10
160.9167213549
 20
123.1013433682
 11
164.5185518015
 21
123.1013429929
  0
POLYLINE
  8
0
 62
7
  6
CONTINUOUS
 66
1
 70
0
  0
VERTEX
  8
0
 62
7
  6
CONTINUOUS
 10
158.7801213549
 20
123.016137359
  0
VERTEX
  8
0
 62
7
  6
CONTINUOUS
 10
158.7946421963
 20
123.0198831921
  0
VERTEX
  8
0
 62
7
  6
CONTINUOUS
 10
158.8373666448
 20
123.0234117736
  0
VERTEX
  8
0
 62
7
  6
CONTINUOUS
 10
158.9058213716
 20
123.0265180609
  0
VERTEX
  8
0
 62
7
  6
CONTINUOUS
 10
158.9485097924
 20
123.0278551355
  0
VERTEX
  8
0
 62
7
  6
CONTINUOUS
 10
159.0477093193
 20
123.0299998042
  0
VERTEX
  8
0
 62
7
  6
CONTINUOUS
 10
159.1604300298
 20
123.0313387959
  0
VERTEX
  8
0
 62
7
  6
CONTINUOUS
 10
159.2801213549
 20
123.0317940082
  0
SEQEND
  0
POLYLINE
  8
0
 62
7
  6
CONTINUOUS
 66
1
 70
0
  0
VERTEX
  8
0
 62
7
  6
CONTINUOUS
 10
160.492384293
 20
123.0430187313
  0
VERTEX
  8
0
 62
7
  6
CONTINUOUS
 10
160.5791030185
 20
123.06198286
  0
VERTEX
  8
0
 62
7
  6
CONTINUOUS
 10
160.6178753097
 20
123.0700033785
  0
VERTEX
  8
0
 62
7
  6
CONTINUOUS
 10
160.6625275915
 20
123.0783618833
  0
VERTEX
  8
0
 62
7
  6
CONTINUOUS
 10
160.7166371283
 20
123.0869437047
  0
VERTEX
  8
0
 62
7
  6
CONTINUOUS
 10
160.7838097252
 20
123.0949341391
  0
VERTEX
  8
0
 62
7
  6
CONTINUOUS
 10
160.8675695545
 20
123.1004627105
  0
VERTEX
  8
0
 62
7
  6
CONTINUOUS
 10
160.9167213549
 20
123.1013433682
  0
SEQEND
  0
LINE
  8
1_AXIS
 62
2
  6
CONTINUOUS
 10
164.0101213549
 20
127.3817940082
 11
162.2501213549
 21
127.3817940082
  0
LINE
  8
1_AXIS
 62
2
  6
CENTER
 10
158.7301213549
 20
127.3817940082
 11
156.8901213549
 21
127.3817940082
  0
LINE
  8
1_AXIS
 62
2
  6
CENTER
 10
167.5301213549
 20
127.3817940082
 11
169.3701213549
 21
127.3817940082
  0
LINE
  8
0
 62
7
  6
CONTINUOUS
 10
173.5301213549
 20
127.9317940082
 11
167.2801213549
 21
127.9317940082
  0
LINE
  8
0
 62
7
  6
CONTINUOUS
 10
166.7801213549
 20
128.6065388796
 11
167.0110792801
 21
128.6436906641
  0
LINE
  8
0
 62
7
  6
CONTINUOUS
 10
167.0110792801
 20
128.6436906641
 11
167.2221381314
 21
128.6767097239
  0
LINE
  8
0
 62
7
  6
CONTINUOUS
 10
167.2221381314
 20
128.6767097239
 11
167.2801213549
 21
128.6856344893
  0
LINE
  8
0
 62
7
  6
CONTINUOUS
 10
162.158061686
 20
131.6217940082
 11
164.1021810239
 21
131.6217940082
  0
LINE
  8
0
 62
7
  6
CONTINUOUS
 10
23.9397681754
 20
214.1926398073
 11
23.9397681754
 21
219.7305549239
  0
LINE
  8
0
 62
7
  6
CONTINUOUS
 10
24.1397681754
 20
212.5560398892
 11
24.1397681754
 21
220.0560398073
  0
LINE
  8
0
 62
7
  6
CONTINUOUS
 10
25.7547681754
 20
220.5560398073
 11
25.7547681754
 21
227.2460398073
  0
LINE
  8
0
 62
7
  6
CONTINUOUS
 10
26.8847681754
 20
227.2460398073
 11
26.8847681754
 21
220.2840200696
  0
LINE
  8
0
 62
7
  6
CONTINUOUS
 10
26.9397681754
 20
212.5560398073
 11
26.9397681754
 21
220.0560398073
  0
LINE
  8
0
 62
7
  6
CONTINUOUS
 10
24.0187299554
 20
213.9229607066
 11
23.9750494058
 21
214.0079517957
  0
POLYLINE
  8
0
 62
7
  6
CONTINUOUS
 66
1
 70
0
  0
VERTEX
  8
0
 62
7
  6
CONTINUOUS
 10
23.9750494058
 20
214.0079517957
  0
VERTEX
  8
0
 62
7
  6
CONTINUOUS
 10
23.9486999075
 20
214.0980944431
  0
VERTEX
  8
0
 62
7
  6
CONTINUOUS
 10
23.939760962
 20
214.1926398073
  0
SEQEND
  0
LINE
  8
0
 62
7
  6
CONTINUOUS
 10
27.2447681754
 20
220.5560398073
 11
27.2447681754
 21
227.2460398073
  0
LINE
  8
0
 62
7
  6
CONTINUOUS
 10
28.3747681754
 20
227.2460398073
 11
28.3747681754
 21
220.5560398073
  0
LINE
  8
0
 62
7
  6
CONTINUOUS
 10
28.7897681754
 20
212.5560398073
 11
28.7897681754
 21
214.3326017485
  0
LINE
  8
0
 62
7
  6
CONTINUOUS
 10
31.2897681754
 20
213.5620974396
 11
31.2897681754
 21
212.2560422703
  0
LINE
  8
0
 62
7
  6
CONTINUOUS
 10
31.6897681754
 20
212.5560398073
 11
31.6897681754
 21
214.3330019909
  0
LINE
  8
0
 62
7
  6
CONTINUOUS
 10
32.1047681754
 20
220.5560398073
 11
32.1047681754
 21
227.2460398073
  0
LINE
  8
0
 62
7
  6
CONTINUOUS
 10
33.2347681754
 20
227.2460398073
 11
33.2347681754
 21
220.5560398073
  0
LINE
  8
0
 62
7
  6
CONTINUOUS
 10
33.5397681754
 20
220.0560398073
 11
33.5397681754
 21
212.5560398073
  0
LINE
  8
0
 62
7
  6
CONTINUOUS
 10
33.5947681754
 20
220.2840200696
 11
33.5947681754
 21
227.2460398073
  0
POLYLINE
  8
0
 62
7
  6
CONTINUOUS
 66
1
 70
0
  0
VERTEX
  8
0
 62
7
  6
CONTINUOUS
 10
31.2897679157
 20
213.5621549475
  0
VERTEX
  8
0
 62
7
  6
CONTINUOUS
 10
31.3005569222
 20
213.6485104918
  0
VERTEX
  8
0
 62
7
  6
CONTINUOUS
 10
31.3156299149
 20
213.6987490922
  0
VERTEX
  8
0
 62
7
  6
CONTINUOUS
 10
31.3601359027
 20
213.7911671673
  0
SEQEND
  0
LINE
  8
0
 62
7
  6
CONTINUOUS
 10
31.4396521821
 20
213.7962397779
 11
31.4508442696
 21
213.7726182759
  0
LINE
  8
0
 62
7
  6
CONTINUOUS
 10
31.4508442696
 20
213.7726182759
 11
31.47697286
 21
213.7167479518
  0
LINE
  8
0
 62
7
  6
CONTINUOUS
 10
31.47697286
 20
213.7167479518
 11
31.5110140351
 21
213.6438542219
  0
POLYLINE
  8
0
 62
7
  6
CONTINUOUS
 66
1
 70
0
  0
VERTEX
  8
0
 62
7
  6
CONTINUOUS
 10
32.7039818787
 20
213.2030968716
  0
VERTEX
  8
0
 62
7
  6
CONTINUOUS
 10
32.7034795913
 20
213.2043765944
  0
VERTEX
  8
0
 62
7
  6
CONTINUOUS
 10
32.7068815098
 20
213.1937114681
  0
SEQEND
  0
POLYLINE
  8
0
 62
7
  6
CONTINUOUS
 66
1
 70
0
  0
VERTEX
  8
0
 62
7
  6
CONTINUOUS
 10
31.5110132498
 20
213.6438529906
  0
VERTEX
  8
0
 62
7
  6
CONTINUOUS
 10
31.6090135453
 20
213.3938629243
  0
VERTEX
  8
0
 62
7
  6
CONTINUOUS
 10
31.6706629776
 20
213.1415125853
  0
VERTEX
  8
0
 62
7
  6
CONTINUOUS
 10
31.6897683581
 20
212.9203676548
  0
SEQEND
  0
LINE
  8
0
 62
7
  6
CONTINUOUS
 10
32.706885921
 20
213.1936966264
 11
32.9390737709
 21
212.4107271865
  0
POLYLINE
  8
0
 62
7
  6
CONTINUOUS
 66
1
 70
0
  0
VERTEX
  8
0
 62
7
  6
CONTINUOUS
 10
32.9390743371
 20
212.4107253715
  0
VERTEX
  8
0
 62
7
  6
CONTINUOUS
 10
32.9321154973
 20
212.4367548571
  0
VERTEX
  8
0
 62
7
  6
CONTINUOUS
 10
32.918493933
 20
212.5560398073
  0
SEQEND
  0
LINE
  8
0
 62
7
  6
CONTINUOUS
 10
34.7247681754
 20
227.2460398073
 11
34.7247681754
 21
220.5560398073
  0
POLYLINE
  8
0
 62
7
  6
CONTINUOUS
 66
1
 70
0
  0
VERTEX
  8
0
 62
7
  6
CONTINUOUS
 10
31.3154308732
 20
213.6980856819
  0
VERTEX
  8
0
 62
7
  6
CONTINUOUS
 10
31.3258889965
 20
213.7248278653
  0
VERTEX
  8
0
 62
7
  6
CONTINUOUS
 10
31.3383100688
 20
213.7517689372
  0
VERTEX
  8
0
 62
7
  6
CONTINUOUS
 10
31.3519820373
 20
213.7774068562
  0
SEQEND
  0
POLYLINE
  8
0
 62
7
  6
CONTINUOUS
 66
1
 70
0
  0
VERTEX
  8
0
 62
7
  6
CONTINUOUS
 10
24.1397681754
 20
215.4923111823
  0
VERTEX
  8
0
 62
7
  6
CONTINUOUS
 10
24.1541712876
 20
215.4780785896
  0
VERTEX
  8
0
 62
7
  6
CONTINUOUS
 10
24.1966376473
 20
215.4648435109
  0
VERTEX
  8
0
 62
7
  6
CONTINUOUS
 10
24.2648489201
 20
215.4533182853
  0
VERTEX
  8
0
 62
7
  6
CONTINUOUS
 10
24.3074640554
 20
215.4483910615
  0
VERTEX
  8
0
 62
7
  6
CONTINUOUS
 10
24.4066699636
 20
215.4405270231
  0
VERTEX
  8
0
 62
7
  6
CONTINUOUS
 10
24.5196274769
 20
215.4356391888
  0
VERTEX
  8
0
 62
7
  6
CONTINUOUS
 10
24.6397681754
 20
215.4339801383
  0
SEQEND
  0
LINE
  8
0
 62
7
  6
CONTINUOUS
 10
37.6397681754
 20
213.562097982
 11
37.6397681754
 21
212.2560422703
  0
LINE
  8
0
 62
7
  6
CONTINUOUS
 10
38.4547681754
 20
220.5560398073
 11
38.4547681754
 21
227.2460398073
  0
LINE
  8
0
 62
7
  6
CONTINUOUS
 10
39.5847681754
 20
227.2460398073
 11
39.5847681754
 21
220.2840200696
  0
LINE
  8
0
 62
7
  6
CONTINUOUS
 10
39.6397681754
 20
213.9151293137
 11
39.6397681754
 21
220.0560398073
  0
LINE
  8
2_FEATURE
 62
7
  6
CONTINUOUS
 10
39.6897677939
 20
218.1033851448
 11
39.6897677939
 21
218.0560398073
  0
LINE
  8
2_FEATURE
 62
7
  6
CONTINUOUS
 10
39.7397681754
 20
218.1351852795
 11
39.7397681754
 21
218.0560398073
  0
LINE
  8
0
 62
7
  6
CONTINUOUS
 10
39.8897681754
 20
212.556108903
 11
39.8897681754
 21
217.9803315177
  0
LINE
  8
2_FEATURE
 62
7
  6
CONTINUOUS
 10
39.9397685568
 20
218.1560398073
 11
39.9397685568
 21
218.0560398073
  0
LINE
  8
0
 62
7
  6
CONTINUOUS
 10
39.9447681754
 20
220.5560398073
 11
39.9447681754
 21
227.2460398073
  0
LINE
  8
2_FEATURE
 62
7
  6
CONTINUOUS
 10
39.9647681754
 20
218.1560398073
 11
39.9647681754
 21
218.0560398073
  0
LINE
  8
2_FEATURE
 62
7
  6
CONTINUOUS
 10
39.9897677939
 20
218.1560398073
 11
39.9897677939
 21
218.0560398073
  0
LINE
  8
2_FEATURE
 62
7
  6
CONTINUOUS
 10
40.0397681754
 20
218.1560398073
 11
40.0397681754
 21
218.0560398073
  0
LINE
  8
2_FEATURE
 62
7
  6
CONTINUOUS
 10
40.1147681754
 20
218.1560398073
 11
40.1147681754
 21
218.0560398073
  0
LINE
  8
2_FEATURE
 62
7
  6
CONTINUOUS
 10
40.2397685568
 20
218.1560398073
 11
40.2397685568
 21
218.0560398073
  0
LINE
  8
2_FEATURE
 62
7
  6
CONTINUOUS
 10
40.3897685568
 20
218.1560398073
 11
40.3897685568
 21
218.0560398073
  0
LINE
  8
1_AXIS
 62
7
  6
CONTINUOUS
 10
40.5197681754
 20
218.1560398073
 11
40.5197681754
 21
218.0560398073
  0
POLYLINE
  8
0
 62
7
  6
CONTINUOUS
 66
1
 70
0
  0
VERTEX
  8
0
 62
7
  6
CONTINUOUS
 10
37.6397678695
 20
213.5620989115
  0
VERTEX
  8
0
 62
7
  6
CONTINUOUS
 10
37.6403577621
 20
213.5814421605
  0
VERTEX
  8
0
 62
7
  6
CONTINUOUS
 10
37.6431229459
 20
213.609189898
  0
VERTEX
  8
0
 62
7
  6
CONTINUOUS
 10
37.6480517402
 20
213.6373685489
  0
VERTEX
  8
0
 62
7
  6
CONTINUOUS
 10
37.654993555
 20
213.6655959218
  0
VERTEX
  8
0
 62
7
  6
CONTINUOUS
 10
37.6637709394
 20
213.6935083797
  0
VERTEX
  8
0
 62
7
  6
CONTINUOUS
 10
37.6741794317
 20
213.7207663101
  0
VERTEX
  8
0
 62
7
  6
CONTINUOUS
 10
37.6860247491
 20
213.7471104143
  0
VERTEX
  8
0
 62
7
  6
CONTINUOUS
 10
37.6990902203
 20
213.77227214
  0
VERTEX
  8
0
 62
7
  6
CONTINUOUS
 10
37.7131534165
 20
213.7960119521
  0
VERTEX
  8
0
 62
7
  6
CONTINUOUS
 10
37.7279985837
 20
213.8181381658
  0
VERTEX
  8
0
 62
7
  6
CONTINUOUS
 10
37.743419267
 20
213.8384972436
  0
VERTEX
  8
0
 62
7
  6
CONTINUOUS
 10
37.7593005013
 20
213.8570610129
  0
VERTEX
  8
0
 62
7
  6
CONTINUOUS
 10
37.7757444616
 20
213.8739865509
  0
VERTEX
  8
0
 62
7
  6
CONTINUOUS
 10
37.7928120334
 20
213.8892653452
  0
VERTEX
  8
0
 62
7
  6
CONTINUOUS
 10
37.8105001352
 20
213.9027459769
  0
VERTEX
  8
0
 62
7
  6
CONTINUOUS
 10
37.8291096505
 20
213.9143583317
  0
VERTEX
  8
0
 62
7
  6
CONTINUOUS
 10
37.8486493198
 20
213.9236022808
  0
VERTEX
  8
0
 62
7
  6
CONTINUOUS
 10
37.8687851649
 20
213.9296681988
  0
VERTEX
  8
0
 62
7
  6
CONTINUOUS
 10
37.8881171104
 20
213.9317566547
  0
VERTEX
  8
0
 62
7
  6
CONTINUOUS
 10
37.905909419
 20
213.9302147638
  0
VERTEX
  8
0
 62
7
  6
CONTINUOUS
 10
37.9222706228
 20
213.9260038531
  0
VERTEX
  8
0
 62
7
  6
CONTINUOUS
 10
37.9382552193
 20
213.9195614865
  0
VERTEX
  8
0
 62
7
  6
CONTINUOUS
 10
37.9470994711
 20
213.9150842203
  0
SEQEND
  0
LINE
  8
0
 62
7
  6
CONTINUOUS
 10
39.6299991534
 20
213.786604455
 11
39.639768951
 21
213.9150224907
  0
POLYLINE
  8
0
 62
7
  6
CONTINUOUS
 66
1
 70
0
  0
VERTEX
  8
0
 62
7
  6
CONTINUOUS
 10
39.6397681754
 20
217.9803315177
  0
VERTEX
  8
0
 62
7
  6
CONTINUOUS
 10
39.6488203075
 20
218.0372111425
  0
VERTEX
  8
0
 62
7
  6
CONTINUOUS
 10
39.6786631665
 20
218.0923519309
  0
VERTEX
  8
0
 62
7
  6
CONTINUOUS
 10
39.7013318539
 20
218.1148748366
  0
VERTEX
  8
0
 62
7
  6
CONTINUOUS
 10
39.7592828487
 20
218.1454971834
  0
VERTEX
  8
0
 62
7
  6
CONTINUOUS
 10
39.832667117
 20
218.1560398073
  0
SEQEND
  0
LINE
  8
0
 62
7
  6
CONTINUOUS
 10
31.3994602349
 20
213.8578066762
 11
31.4030345098
 21
213.8642306196
  0
LINE
  8
0
 62
7
  6
CONTINUOUS
 10
31.3949005577
 20
213.8497283317
 11
31.3994602349
 21
213.8578066762
  0
LINE
  8
0
 62
7
  6
CONTINUOUS
 10
31.3900397006
 20
213.8412419038
 11
31.3949005577
 21
213.8497283317
  0
LINE
  8
0
 62
7
  6
CONTINUOUS
 10
31.3851887102
 20
213.8328878514
 11
31.3900397006
 21
213.8412419038
  0
LINE
  8
0
 62
7
  6
CONTINUOUS
 10
31.3790500664
 20
213.8224624157
 11
31.3851887102
 21
213.8328878514
  0
LINE
  8
0
 62
7
  6
CONTINUOUS
 10
31.3741160762
 20
213.8141881602
 11
31.3790500664
 21
213.8224624157
  0
LINE
  8
0
 62
7
  6
CONTINUOUS
 10
31.3684573951
 20
213.8048010309
 11
31.3741160762
 21
213.8141881602
  0
LINE
  8
0
 62
7
  6
CONTINUOUS
 10
31.3592564005
 20
213.7893408535
 11
31.3684573951
 21
213.8048010309
  0
LINE
  8
0
 62
7
  6
CONTINUOUS
 10
23.9397681754
 20
219.7305549239
 11
24.1397681754
 21
219.9461529073
  0
POLYLINE
  8
0
 62
7
  6
CONTINUOUS
 66
1
 70
0
  0
VERTEX
  8
0
 62
7
  6
CONTINUOUS
 10
26.9397681754
 20
217.3197684322
  0
VERTEX
  8
0
 62
7
  6
CONTINUOUS
 10
26.9253650632
 20
217.3340010249
  0
VERTEX
  8
0
 62
7
  6
CONTINUOUS
 10
26.8828987034
 20
217.3472361036
  0
VERTEX
  8
0
 62
7
  6
CONTINUOUS
 10
26.8146874306
 20
217.3587613292
  0
VERTEX
  8
0
 62
7
  6
CONTINUOUS
 10
26.7720722953
 20
217.363688553
  0
VERTEX
  8
0
 62
7
  6
CONTINUOUS
 10
26.6728663871
 20
217.3715525914
  0
VERTEX
  8
0
 62
7
  6
CONTINUOUS
 10
26.5599088738
 20
217.3764404257
  0
VERTEX
  8
0
 62
7
  6
CONTINUOUS
 10
26.4397681754
 20
217.3780994762
  0
SEQEND
  0
POLYLINE
  8
0
 62
7
  6
CONTINUOUS
 66
1
 70
0
  0
VERTEX
  8
0
 62
7
  6
CONTINUOUS
 10
39.8897681754
 20
217.9803315177
  0
VERTEX
  8
0
 62
7
  6
CONTINUOUS
 10
39.8807133306
 20
218.0372195072
  0
VERTEX
  8
0
 62
7
  6
CONTINUOUS
 10
39.850848529
 20
218.0923819512
  0
VERTEX
  8
0
 62
7
  6
CONTINUOUS
 10
39.8281744635
 20
218.1148991785
  0
VERTEX
  8
0
 62
7
  6
CONTINUOUS
 10
39.770232233
 20
218.1455038923
  0
VERTEX
  8
0
 62
7
  6
CONTINUOUS
 10
39.7647799452
 20
218.1462869143
  0
SEQEND
  0
LINE
  8
1_AXIS
 62
7
  6
CONTINUOUS
 10
41.0297681754
 20
218.1560398073
 11
41.0297681754
 21
218.0560398073
  0
LINE
  8
0
 62
7
  6
CONTINUOUS
 10
41.0747681754
 20
227.2460398073
 11
41.0747681754
 21
220.5560398073
  0
LINE
  8
1_AXIS
 62
7
  6
CONTINUOUS
 10
41.7197681754
 20
218.1560398073
 11
41.7197681754
 21
218.0560398073
  0
LINE
  8
1_AXIS
 62
7
  6
CONTINUOUS
 10
42.2297681754
 20
218.1560398073
 11
42.2297681754
 21
218.0560398073
  0
LINE
  8
2_FEATURE
 62
7
  6
CONTINUOUS
 10
42.2647679846
 20
218.1560398073
 11
42.2647679846
 21
218.0560398073
  0
LINE
  8
1_AXIS
 62
7
  6
CONTINUOUS
 10
42.3497681754
 20
218.1560398073
 11
42.3497681754
 21
218.0560398073
  0
LINE
  8
1_AXIS
 62
7
  6
CONTINUOUS
 10
42.8597681754
 20
218.1560398073
 11
42.8597681754
 21
218.0560398073
  0
LINE
  8
1_AXIS
 62
7
  6
CONTINUOUS
 10
43.6697681754
 20
218.1560398073
 11
43.6697681754
 21
218.0560398073
  0
LINE
  8
0
 62
7
  6
CONTINUOUS
 10
31.3601556313
 20
213.7912021753
 11
31.3635329752
 21
213.7967115978
  0
POLYLINE
  8
0
 62
7
  6
CONTINUOUS
 66
1
 70
0
  0
VERTEX
  8
0
 62
7
  6
CONTINUOUS
 10
31.3666588685
 20
213.8014850138
  0
VERTEX
  8
0
 62
7
  6
CONTINUOUS
 10
31.3821068298
 20
213.8238051695
  0
VERTEX
  8
0
 62
7
  6
CONTINUOUS
 10
31.3981010504
 20
213.8442100216
  0
VERTEX
  8
0
 62
7
  6
CONTINUOUS
 10
31.4062774557
 20
213.8537021892
  0
VERTEX
  8
0
 62
7
  6
CONTINUOUS
 10
31.4083959436
 20
213.8559328073
  0
SEQEND
  0
POLYLINE
  8
0
 62
7
  6
CONTINUOUS
 66
1
 70
0
  0
VERTEX
  8
0
 62
7
  6
CONTINUOUS
 10
24.1397681754
 20
217.3197684322
  0
VERTEX
  8
0
 62
7
  6
CONTINUOUS
 10
24.1541712876
 20
217.3340010249
  0
VERTEX
  8
0
 62
7
  6
CONTINUOUS
 10
24.1966376473
 20
217.3472361036
  0
VERTEX
  8
0
 62
7
  6
CONTINUOUS
 10
24.2648489201
 20
217.3587613292
  0
VERTEX
  8
0
 62
7
  6
CONTINUOUS
 10
24.3074640554
 20
217.363688553
  0
VERTEX
  8
0
 62
7
  6
CONTINUOUS
 10
24.4066699636
 20
217.3715525914
  0
VERTEX
  8
0
 62
7
  6
CONTINUOUS
 10
24.5196274769
 20
217.3764404257
  0
VERTEX
  8
0
 62
7
  6
CONTINUOUS
 10
24.6397681754
 20
217.3780994762
  0
SEQEND
  0
LINE
  8
0
 62
7
  6
CONTINUOUS
 10
29.2625463804
 20
217.6560398073
 11
28.7635259426
 21
218.1550602451
  0
LINE
  8
0
 62
7
  6
CONTINUOUS
 10
44.8047681754
 20
220.5560398073
 11
44.8047681754
 21
227.2460398073
  0
LINE
  8
1_AXIS
 62
7
  6
CONTINUOUS
 10
45.1997681754
 20
218.1560398073
 11
45.1997681754
 21
218.0560398073
  0
LINE
  8
2_FEATURE
 62
7
  6
CONTINUOUS
 10
45.2897681754
 20
218.1560398073
 11
45.2897681754
 21
218.0560398073
  0
LINE
  8
2_FEATURE
 62
7
  6
CONTINUOUS
 10
45.3647681754
 20
218.1560398073
 11
45.3647681754
 21
218.0560398073
  0
LINE
  8
2_FEATURE
 62
7
  6
CONTINUOUS
 10
45.4397681754
 20
218.1560398073
 11
45.4397681754
 21
218.0560398073
  0
LINE
  8
2_FEATURE
 62
7
  6
CONTINUOUS
 10
45.4897679846
 20
218.1560398073
 11
45.4897679846
 21
218.0560398073
  0
LINE
  8
2_FEATURE
 62
7
  6
CONTINUOUS
 10
45.6897683661
 20
218.1560398073
 11
45.6897683661
 21
218.0560398073
  0
LINE
  8
2_FEATURE
 62
7
  6
CONTINUOUS
 10
45.8897681754
 20
218.1560398073
 11
45.8897681754
 21
218.0560398073
  0
LINE
  8
0
 62
7
  6
CONTINUOUS
 10
45.9347681754
 20
227.2460398073
 11
45.9347681754
 21
220.5560398073
  0
LINE
  8
0
 62
7
  6
CONTINUOUS
 10
45.9897681754
 20
212.556108903
 11
45.9897681754
 21
217.9803315177
  0
LINE
  8
2_FEATURE
 62
7
  6
CONTINUOUS
 10
46.0147682707
 20
218.1560398073
 11
46.0147682707
 21
218.0560398073
  0
LINE
  8
2_FEATURE
 62
7
  6
CONTINUOUS
 10
46.0397681754
 20
218.1560398073
 11
46.0397681754
 21
218.0560398073
  0
LINE
  8
2_FEATURE
 62
7
  6
CONTINUOUS
 10
46.06476808
 20
218.1560398073
 11
46.06476808
 21
218.0560398073
  0
LINE
  8
2_FEATURE
 62
7
  6
CONTINUOUS
 10
46.0897682707
 20
218.1498701924
 11
46.0897682707
 21
218.0560398073
  0
LINE
  8
2_FEATURE
 62
7
  6
CONTINUOUS
 10
46.1647682707
 20
218.1219221243
 11
46.1647682707
 21
218.0560398073
  0
LINE
  8
0
 62
7
  6
CONTINUOUS
 10
46.2397681754
 20
212.5560410603
 11
46.2397681754
 21
220.0560398073
  0
LINE
  8
0
 62
7
  6
CONTINUOUS
 10
46.2947681754
 20
220.2840200696
 11
46.2947681754
 21
227.2460398073
  0
LINE
  8
0
 62
7
  6
CONTINUOUS
 10
47.4247681754
 20
227.2460398073
 11
47.4247681754
 21
220.5560398073
  0
LINE
  8
0
 62
7
  6
CONTINUOUS
 10
31.7161267137
 20
218.1550494621
 11
31.2171170589
 21
217.6560398073
  0
LINE
  8
0
 62
7
  6
CONTINUOUS
 10
51.1547681754
 20
220.5560398073
 11
51.1547681754
 21
227.2460398073
  0
POLYLINE
  8
0
 62
7
  6
CONTINUOUS
 66
1
 70
0
  0
VERTEX
  8
0
 62
7
  6
CONTINUOUS
 10
46.0103024404
 20
218.058446779
  0
VERTEX
  8
0
 62
7
  6
CONTINUOUS
 10
45.9987651866
 20
218.0370408701
  0
VERTEX
  8
0
 62
7
  6
CONTINUOUS
 10
45.9897681754
 20
217.9803315177
  0
SEQEND
  0
LINE
  8
0
 62
7
  6
CONTINUOUS
 10
52.2847681754
 20
227.2460398073
 11
52.2847681754
 21
220.2840200696
  0
LINE
  8
0
 62
7
  6
CONTINUOUS
 10
52.3397681754
 20
212.5560398073
 11
52.3397681754
 21
220.0560398073
  0
LINE
  8
0
 62
7
  6
CONTINUOUS
 10
52.6447681754
 20
220.5560398073
 11
52.6447681754
 21
227.2460398073
  0
LINE
  8
0
 62
7
  6
CONTINUOUS
 10
53.7747681754
 20
227.2460398073
 11
53.7747681754
 21
220.5560398073
  0
LINE
  8
0
 62
7
  6
CONTINUOUS
 10
54.1897681754
 20
212.5560398073
 11
54.1897681754
 21
214.3330019823
  0
POLYLINE
  8
0
 62
7
  6
CONTINUOUS
 66
1
 70
0
  0
VERTEX
  8
0
 62
7
  6
CONTINUOUS
 10
39.6397681754
 20
215.4923111823
  0
VERTEX
  8
0
 62
7
  6
CONTINUOUS
 10
39.6253650632
 20
215.4780785896
  0
VERTEX
  8
0
 62
7
  6
CONTINUOUS
 10
39.5828987034
 20
215.4648435109
  0
VERTEX
  8
0
 62
7
  6
CONTINUOUS
 10
39.5146874306
 20
215.4533182853
  0
VERTEX
  8
0
 62
7
  6
CONTINUOUS
 10
39.4720722953
 20
215.4483910615
  0
VERTEX
  8
0
 62
7
  6
CONTINUOUS
 10
39.3728663871
 20
215.4405270231
  0
VERTEX
  8
0
 62
7
  6
CONTINUOUS
 10
39.2599088738
 20
215.4356391888
  0
VERTEX
  8
0
 62
7
  6
CONTINUOUS
 10
39.1397681754
 20
215.4339801383
  0
SEQEND
  0
POLYLINE
  8
0
 62
7
  6
CONTINUOUS
 66
1
 70
0
  0
VERTEX
  8
0
 62
7
  6
CONTINUOUS
 10
37.9471022406
 20
213.9150838806
  0
VERTEX
  8
0
 62
7
  6
CONTINUOUS
 10
38.274518448
 20
213.7467617281
  0
VERTEX
  8
0
 62
7
  6
CONTINUOUS
 10
38.6564893422
 20
213.5701570299
  0
VERTEX
  8
0
 62
7
  6
CONTINUOUS
 10
39.0666133737
 20
213.4000467348
  0
SEQEND
  0
LINE
  8
0
 62
7
  6
CONTINUOUS
 10
57.0897681754
 20
212.5560398073
 11
57.0897681754
 21
214.3330019904
  0
LINE
  8
0
 62
7
  6
CONTINUOUS
 10
57.5047681754
 20
220.5560398073
 11
57.5047681754
 21
227.2460398073
  0
POLYLINE
  8
0
 62
7
  6
CONTINUOUS
 66
1
 70
0
  0
VERTEX
  8
0
 62
7
  6
CONTINUOUS
 10
52.9404620136
 20
212.4107253715
  0
VERTEX
  8
0
 62
7
  6
CONTINUOUS
 10
52.9474208534
 20
212.4367548571
  0
VERTEX
  8
0
 62
7
  6
CONTINUOUS
 10
52.9610424177
 20
212.5560398073
  0
SEQEND
  0
LINE
  8
0
 62
7
  6
CONTINUOUS
 10
52.9404625799
 20
212.4107271865
 11
53.1726504298
 21
213.1936966264
  0
LINE
  8
0
 62
7
  6
CONTINUOUS
 10
53.1726551555
 20
213.193712529
 11
53.1760115355
 21
213.2042516351
  0
POLYLINE
  8
0
 62
7
  6
CONTINUOUS
 66
1
 70
0
  0
VERTEX
  8
0
 62
7
  6
CONTINUOUS
 10
46.2397681754
 20
217.3197684322
  0
VERTEX
  8
0
 62
7
  6
CONTINUOUS
 10
46.2541712876
 20
217.3340010249
  0
VERTEX
  8
0
 62
7
  6
CONTINUOUS
 10
46.2966376473
 20
217.3472361036
  0
VERTEX
  8
0
 62
7
  6
CONTINUOUS
 10
46.3648489201
 20
217.3587613292
  0
VERTEX
  8
0
 62
7
  6
CONTINUOUS
 10
46.4074640554
 20
217.363688553
  0
VERTEX
  8
0
 62
7
  6
CONTINUOUS
 10
46.5066699636
 20
217.3715525914
  0
VERTEX
  8
0
 62
7
  6
CONTINUOUS
 10
46.6196274769
 20
217.3764404257
  0
VERTEX
  8
0
 62
7
  6
CONTINUOUS
 10
46.7397681754
 20
217.3780994762
  0
SEQEND
  0
POLYLINE
  8
0
 62
7
  6
CONTINUOUS
 66
1
 70
0
  0
VERTEX
  8
0
 62
7
  6
CONTINUOUS
 10
31.3766404984
 20
213.8916217191
  0
VERTEX
  8
0
 62
7
  6
CONTINUOUS
 10
31.3764691297
 20
213.8916816188
  0
VERTEX
  8
0
 62
7
  6
CONTINUOUS
 10
31.3772638716
 20
213.8913060168
  0
VERTEX
  8
0
 62
7
  6
CONTINUOUS
 10
31.3805911894
 20
213.8892454681
  0
VERTEX
  8
0
 62
7
  6
CONTINUOUS
 10
31.3858031314
 20
213.8850261825
  0
VERTEX
  8
0
 62
7
  6
CONTINUOUS
 10
31.3908125738
 20
213.8800338432
  0
VERTEX
  8
0
 62
7
  6
CONTINUOUS
 10
31.3958177185
 20
213.8741822161
  0
VERTEX
  8
0
 62
7
  6
CONTINUOUS
 10
31.40033735
 20
213.8681784309
  0
VERTEX
  8
0
 62
7
  6
CONTINUOUS
 10
31.4046051622
 20
213.8619316682
  0
VERTEX
  8
0
 62
7
  6
CONTINUOUS
 10
31.4088162518
 20
213.8552676751
  0
VERTEX
  8
0
 62
7
  6
CONTINUOUS
 10
31.4129859639
 20
213.8482287945
  0
VERTEX
  8
0
 62
7
  6
CONTINUOUS
 10
31.4171311873
 20
213.840847823
  0
VERTEX
  8
0
 62
7
  6
CONTINUOUS
 10
31.4213327751
 20
213.8330297794
  0
VERTEX
  8
0
 62
7
  6
CONTINUOUS
 10
31.4256260098
 20
213.8247466513
  0
VERTEX
  8
0
 62
7
  6
CONTINUOUS
 10
31.430035085
 20
213.815986724
  0
VERTEX
  8
0
 62
7
  6
CONTINUOUS
 10
31.4346664417
 20
213.8065673614
  0
VERTEX
  8
0
 62
7
  6
CONTINUOUS
 10
31.4396521821
 20
213.7962397779
  0
SEQEND
  0
LINE
  8
0
 62
7
  6
CONTINUOUS
 10
39.0642928631
 20
213.4010092308
 11
39.0666137205
 21
213.4000464352
  0
POLYLINE
  8
0
 62
7
  6
CONTINUOUS
 66
1
 70
0
  0
VERTEX
  8
0
 62
7
  6
CONTINUOUS
 10
52.3397681754
 20
217.3197684322
  0
VERTEX
  8
0
 62
7
  6
CONTINUOUS
 10
52.3253650632
 20
217.3340010249
  0
VERTEX
  8
0
 62
7
  6
CONTINUOUS
 10
52.2828987034
 20
217.3472361036
  0
VERTEX
  8
0
 62
7
  6
CONTINUOUS
 10
52.2146874306
 20
217.3587613292
  0
VERTEX
  8
0
 62
7
  6
CONTINUOUS
 10
52.1720722953
 20
217.363688553
  0
VERTEX
  8
0
 62
7
  6
CONTINUOUS
 10
52.0728663871
 20
217.3715525914
  0
VERTEX
  8
0
 62
7
  6
CONTINUOUS
 10
51.9599088738
 20
217.3764404257
  0
VERTEX
  8
0
 62
7
  6
CONTINUOUS
 10
51.8397681754
 20
217.3780994762
  0
SEQEND
  0
POLYLINE
  8
0
 62
7
  6
CONTINUOUS
 66
1
 70
0
  0
VERTEX
  8
0
 62
7
  6
CONTINUOUS
 10
58.1039818787
 20
213.2030968716
  0
VERTEX
  8
0
 62
7
  6
CONTINUOUS
 10
58.1034795913
 20
213.2043765944
  0
VERTEX
  8
0
 62
7
  6
CONTINUOUS
 10
58.1068815098
 20
213.1937114681
  0
SEQEND
  0
LINE
  8
0
 62
7
  6
CONTINUOUS
 10
58.106885921
 20
213.1936966264
 11
58.3390737709
 21
212.4107271865
  0
POLYLINE
  8
0
 62
7
  6
CONTINUOUS
 66
1
 70
0
  0
VERTEX
  8
0
 62
7
  6
CONTINUOUS
 10
58.3390743371
 20
212.4107253715
  0
VERTEX
  8
0
 62
7
  6
CONTINUOUS
 10
58.3321154973
 20
212.4367548571
  0
VERTEX
  8
0
 62
7
  6
CONTINUOUS
 10
58.318493933
 20
212.5560398073
  0
SEQEND
  0
LINE
  8
0
 62
7
  6
CONTINUOUS
 10
58.6347681754
 20
227.2460398073
 11
58.6347681754
 21
220.5560398073
  0
LINE
  8
0
 62
7
  6
CONTINUOUS
 10
58.9397681754
 20
212.5560398073
 11
58.9397681754
 21
220.0560398073
  0
LINE
  8
0
 62
7
  6
CONTINUOUS
 10
58.9947681754
 20
220.2840200696
 11
58.9947681754
 21
227.2460398073
  0
LINE
  8
0
 62
7
  6
CONTINUOUS
 10
60.1247681754
 20
227.2460398073
 11
60.1247681754
 21
220.5560398073
  0
POLYLINE
  8
0
 62
7
  6
CONTINUOUS
 66
1
 70
0
  0
VERTEX
  8
0
 62
7
  6
CONTINUOUS
 10
116.5719218177
 20
212.0560825766
  0
VERTEX
  8
0
 62
7
  6
CONTINUOUS
 10
116.6906460271
 20
212.0720188283
  0
VERTEX
  8
0
 62
7
  6
CONTINUOUS
 10
116.8022355534
 20
212.1157322275
  0
VERTEX
  8
0
 62
7
  6
CONTINUOUS
 10
116.9003186668
 20
212.1846232722
  0
VERTEX
  8
0
 62
7
  6
CONTINUOUS
 10
116.9425154242
 20
212.2273005568
  0
VERTEX
  8
0
 62
7
  6
CONTINUOUS
 10
117.0102464693
 20
212.3260203198
  0
VERTEX
  8
0
 62
7
  6
CONTINUOUS
 10
117.0527513128
 20
212.437724919
  0
VERTEX
  8
0
 62
7
  6
CONTINUOUS
 10
117.0677040154
 20
212.5560398073
  0
SEQEND
  0
POLYLINE
  8
0
 62
7
  6
CONTINUOUS
 66
1
 70
0
  0
VERTEX
  8
0
 62
7
  6
CONTINUOUS
 10
32.807614533
 20
212.0560825766
  0
VERTEX
  8
0
 62
7
  6
CONTINUOUS
 10
32.6888903236
 20
212.0720188283
  0
VERTEX
  8
0
 62
7
  6
CONTINUOUS
 10
32.5773007973
 20
212.1157322275
  0
VERTEX
  8
0
 62
7
  6
CONTINUOUS
 10
32.479217684
 20
212.1846232722
  0
VERTEX
  8
0
 62
7
  6
CONTINUOUS
 10
32.4370209265
 20
212.2273005568
  0
VERTEX
  8
0
 62
7
  6
CONTINUOUS
 10
32.3692898815
 20
212.3260203198
  0
VERTEX
  8
0
 62
7
  6
CONTINUOUS
 10
32.326785038
 20
212.437724919
  0
VERTEX
  8
0
 62
7
  6
CONTINUOUS
 10
32.3118323353
 20
212.5560398073
  0
SEQEND
  0
POLYLINE
  8
0
 62
7
  6
CONTINUOUS
 66
1
 70
0
  0
VERTEX
  8
0
 62
7
  6
CONTINUOUS
 10
39.066618811
 20
213.4000447054
  0
VERTEX
  8
0
 62
7
  6
CONTINUOUS
 10
39.1547361031
 20
213.3758275824
  0
VERTEX
  8
0
 62
7
  6
CONTINUOUS
 10
39.2534186238
 20
213.3726511089
  0
VERTEX
  8
0
 62
7
  6
CONTINUOUS
 10
39.3468351611
 20
213.3939924293
  0
VERTEX
  8
0
 62
7
  6
CONTINUOUS
 10
39.4328936117
 20
213.4389843965
  0
VERTEX
  8
0
 62
7
  6
CONTINUOUS
 10
39.4725027972
 20
213.4704979306
  0
VERTEX
  8
0
 62
7
  6
CONTINUOUS
 10
39.5430458415
 20
213.5527239564
  0
VERTEX
  8
0
 62
7
  6
CONTINUOUS
 10
39.5973111121
 20
213.6599246547
  0
VERTEX
  8
0
 62
7
  6
CONTINUOUS
 10
39.630116712
 20
213.7870600438
  0
SEQEND
  0
LINE
  8
0
 62
7
  6
CONTINUOUS
 10
54.6624192918
 20
217.6560398073
 11
54.163409637
 21
218.1550494621
  0
LINE
  8
0
 62
7
  6
CONTINUOUS
 10
63.8547681754
 20
220.5560398073
 11
63.8547681754
 21
227.2460398073
  0
LINE
  8
0
 62
7
  6
CONTINUOUS
 10
57.1161267137
 20
218.1550494621
 11
56.6171170589
 21
217.6560398073
  0
POLYLINE
  8
0
 62
7
  6
CONTINUOUS
 66
1
 70
0
  0
VERTEX
  8
0
 62
7
  6
CONTINUOUS
 10
103.8719218177
 20
212.0560825766
  0
VERTEX
  8
0
 62
7
  6
CONTINUOUS
 10
103.9906460271
 20
212.0720188283
  0
VERTEX
  8
0
 62
7
  6
CONTINUOUS
 10
104.1022355534
 20
212.1157322275
  0
VERTEX
  8
0
 62
7
  6
CONTINUOUS
 10
104.2003186668
 20
212.1846232722
  0
VERTEX
  8
0
 62
7
  6
CONTINUOUS
 10
104.2425154242
 20
212.2273005568
  0
VERTEX
  8
0
 62
7
  6
CONTINUOUS
 10
104.3102464693
 20
212.3260203198
  0
VERTEX
  8
0
 62
7
  6
CONTINUOUS
 10
104.3527513128
 20
212.437724919
  0
VERTEX
  8
0
 62
7
  6
CONTINUOUS
 10
104.3677040154
 20
212.5560398073
  0
SEQEND
  0
POLYLINE
  8
0
 62
7
  6
CONTINUOUS
 66
1
 70
0
  0
VERTEX
  8
0
 62
7
  6
CONTINUOUS
 10
115.9653323233
 20
212.0560398073
  0
VERTEX
  8
0
 62
7
  6
CONTINUOUS
 10
116.0850314321
 20
212.0706616091
  0
VERTEX
  8
0
 62
7
  6
CONTINUOUS
 10
116.1974171487
 20
212.1136085245
  0
VERTEX
  8
0
 62
7
  6
CONTINUOUS
 10
116.2959636081
 20
212.1822820761
  0
VERTEX
  8
0
 62
7
  6
CONTINUOUS
 10
116.3382277389
 20
212.2250409692
  0
VERTEX
  8
0
 62
7
  6
CONTINUOUS
 10
116.4057101787
 20
212.3242454856
  0
VERTEX
  8
0
 62
7
  6
CONTINUOUS
 10
116.4404620136
 20
212.4107253715
  0
SEQEND
  0
POLYLINE
  8
0
 62
7
  6
CONTINUOUS
 66
1
 70
0
  0
VERTEX
  8
0
 62
7
  6
CONTINUOUS
 10
103.2653323233
 20
212.0560398073
  0
VERTEX
  8
0
 62
7
  6
CONTINUOUS
 10
103.3850314321
 20
212.0706616091
  0
VERTEX
  8
0
 62
7
  6
CONTINUOUS
 10
103.4974171487
 20
212.1136085245
  0
VERTEX
  8
0
 62
7
  6
CONTINUOUS
 10
103.5959636081
 20
212.1822820761
  0
VERTEX
  8
0
 62
7
  6
CONTINUOUS
 10
103.6382277389
 20
212.2250409692
  0
VERTEX
  8
0
 62
7
  6
CONTINUOUS
 10
103.7057101787
 20
212.3242454856
  0
VERTEX
  8
0
 62
7
  6
CONTINUOUS
 10
103.7404620136
 20
212.4107253715
  0
SEQEND
  0
POLYLINE
  8
0
 62
7
  6
CONTINUOUS
 66
1
 70
0
  0
VERTEX
  8
0
 62
7
  6
CONTINUOUS
 10
33.4142040274
 20
212.0560398073
  0
VERTEX
  8
0
 62
7
  6
CONTINUOUS
 10
33.2945049187
 20
212.0706616091
  0
VERTEX
  8
0
 62
7
  6
CONTINUOUS
 10
33.182119202
 20
212.1136085245
  0
VERTEX
  8
0
 62
7
  6
CONTINUOUS
 10
33.0835727427
 20
212.1822820761
  0
VERTEX
  8
0
 62
7
  6
CONTINUOUS
 10
33.0413086118
 20
212.2250409692
  0
VERTEX
  8
0
 62
7
  6
CONTINUOUS
 10
32.973826172
 20
212.3242454856
  0
VERTEX
  8
0
 62
7
  6
CONTINUOUS
 10
32.9390743371
 20
212.4107253715
  0
SEQEND
  0
POLYLINE
  8
0
 62
7
  6
CONTINUOUS
 66
1
 70
0
  0
VERTEX
  8
0
 62
7
  6
CONTINUOUS
 10
58.207614533
 20
212.0560825766
  0
VERTEX
  8
0
 62
7
  6
CONTINUOUS
 10
58.0888903236
 20
212.0720188283
  0
VERTEX
  8
0
 62
7
  6
CONTINUOUS
 10
57.9773007973
 20
212.1157322275
  0
VERTEX
  8
0
 62
7
  6
CONTINUOUS
 10
57.879217684
 20
212.1846232722
  0
VERTEX
  8
0
 62
7
  6
CONTINUOUS
 10
57.8370209265
 20
212.2273005568
  0
VERTEX
  8
0
 62
7
  6
CONTINUOUS
 10
57.7692898815
 20
212.3260203198
  0
VERTEX
  8
0
 62
7
  6
CONTINUOUS
 10
57.726785038
 20
212.437724919
  0
VERTEX
  8
0
 62
7
  6
CONTINUOUS
 10
57.7118323353
 20
212.5560398073
  0
SEQEND
  0
LINE
  8
0
 62
7
  6
CONTINUOUS
 10
64.9847681754
 20
227.2460398073
 11
64.9847681754
 21
220.2840200696
  0
LINE
  8
0
 62
7
  6
CONTINUOUS
 10
65.0397681754
 20
212.5560410603
 11
65.0397681754
 21
220.0560398073
  0
LINE
  8
0
 62
7
  6
CONTINUOUS
 10
65.2897681754
 20
212.556108903
 11
65.2897681754
 21
217.9803315177
  0
LINE
  8
0
 62
7
  6
CONTINUOUS
 10
65.3447681754
 20
220.5560398073
 11
65.3447681754
 21
227.2460398073
  0
LINE
  8
2_FEATURE
 62
7
  6
CONTINUOUS
 10
65.7147681337
 20
218.1560398073
 11
65.7147681337
 21
218.0560398073
  0
LINE
  8
2_FEATURE
 62
7
  6
CONTINUOUS
 10
66.0647681754
 20
218.1560398073
 11
66.0647681754
 21
218.0560398073
  0
LINE
  8
2_FEATURE
 62
7
  6
CONTINUOUS
 10
66.0897681754
 20
218.1560398073
 11
66.0897681754
 21
218.0560398073
  0
LINE
  8
2_FEATURE
 62
7
  6
CONTINUOUS
 10
66.1397679846
 20
218.1560398073
 11
66.1397679846
 21
218.0560398073
  0
LINE
  8
2_FEATURE
 62
7
  6
CONTINUOUS
 10
66.2147679846
 20
218.1560398073
 11
66.2147679846
 21
218.0560398073
  0
LINE
  8
2_FEATURE
 62
7
  6
CONTINUOUS
 10
66.3397683661
 20
218.1560398073
 11
66.3397683661
 21
218.0560398073
  0
LINE
  8
2_FEATURE
 62
7
  6
CONTINUOUS
 10
66.4147682171
 20
218.1560398073
 11
66.4147682171
 21
218.0560398073
  0
LINE
  8
0
 62
7
  6
CONTINUOUS
 10
66.4747681754
 20
227.2460398073
 11
66.4747681754
 21
220.5560398073
  0
LINE
  8
2_FEATURE
 62
7
  6
CONTINUOUS
 10
67.4647680919
 20
218.1560398073
 11
67.4647680919
 21
218.0560398073
  0
LINE
  8
2_FEATURE
 62
7
  6
CONTINUOUS
 10
67.7272680919
 20
218.1560398073
 11
67.7272680919
 21
218.0560398073
  0
LINE
  8
2_FEATURE
 62
7
  6
CONTINUOUS
 10
68.1647681754
 20
218.1560398073
 11
68.1647681754
 21
218.0560398073
  0
LINE
  8
2_FEATURE
 62
7
  6
CONTINUOUS
 10
68.2397679846
 20
218.1560398073
 11
68.2397679846
 21
218.0560398073
  0
POLYLINE
  8
0
 62
7
  6
CONTINUOUS
 66
1
 70
0
  0
VERTEX
  8
0
 62
7
  6
CONTINUOUS
 10
65.0397681754
 20
217.9803315177
  0
VERTEX
  8
0
 62
7
  6
CONTINUOUS
 10
65.0488203075
 20
218.0372111425
  0
VERTEX
  8
0
 62
7
  6
CONTINUOUS
 10
65.0786631665
 20
218.0923519309
  0
VERTEX
  8
0
 62
7
  6
CONTINUOUS
 10
65.1013318539
 20
218.1148748366
  0
VERTEX
  8
0
 62
7
  6
CONTINUOUS
 10
65.1592828487
 20
218.1454971834
  0
VERTEX
  8
0
 62
7
  6
CONTINUOUS
 10
65.232667117
 20
218.1560398073
  0
SEQEND
  0
POLYLINE
  8
0
 62
7
  6
CONTINUOUS
 66
1
 70
0
  0
VERTEX
  8
0
 62
7
  6
CONTINUOUS
 10
78.4719218177
 20
212.0560825766
  0
VERTEX
  8
0
 62
7
  6
CONTINUOUS
 10
78.5906460271
 20
212.0720188283
  0
VERTEX
  8
0
 62
7
  6
CONTINUOUS
 10
78.7022355534
 20
212.1157322275
  0
VERTEX
  8
0
 62
7
  6
CONTINUOUS
 10
78.8003186668
 20
212.1846232722
  0
VERTEX
  8
0
 62
7
  6
CONTINUOUS
 10
78.8425154242
 20
212.2273005568
  0
VERTEX
  8
0
 62
7
  6
CONTINUOUS
 10
78.9102464693
 20
212.3260203198
  0
VERTEX
  8
0
 62
7
  6
CONTINUOUS
 10
78.9527513128
 20
212.437724919
  0
VERTEX
  8
0
 62
7
  6
CONTINUOUS
 10
78.9677040154
 20
212.5560398073
  0
SEQEND
  0
POLYLINE
  8
0
 62
7
  6
CONTINUOUS
 66
1
 70
0
  0
VERTEX
  8
0
 62
7
  6
CONTINUOUS
 10
77.8653323233
 20
212.0560398073
  0
VERTEX
  8
0
 62
7
  6
CONTINUOUS
 10
77.9850314321
 20
212.0706616091
  0
VERTEX
  8
0
 62
7
  6
CONTINUOUS
 10
78.0974171487
 20
212.1136085245
  0
VERTEX
  8
0
 62
7
  6
CONTINUOUS
 10
78.1959636081
 20
212.1822820761
  0
VERTEX
  8
0
 62
7
  6
CONTINUOUS
 10
78.2382277389
 20
212.2250409692
  0
VERTEX
  8
0
 62
7
  6
CONTINUOUS
 10
78.3057101787
 20
212.3242454856
  0
VERTEX
  8
0
 62
7
  6
CONTINUOUS
 10
78.3404620136
 20
212.4107253715
  0
SEQEND
  0
LINE
  8
0
 62
7
  6
CONTINUOUS
 10
116.5719218177
 20
212.0560825766
 11
116.5653818337
 21
212.0560398073
  0
LINE
  8
0
 62
7
  6
CONTINUOUS
 10
103.8719218177
 20
212.0560825766
 11
103.8653818337
 21
212.0560398073
  0
LINE
  8
0
 62
7
  6
CONTINUOUS
 10
78.4719218177
 20
212.0560825766
 11
78.4653818337
 21
212.0560398073
  0
LINE
  8
0
 62
7
  6
CONTINUOUS
 10
53.0719218177
 20
212.0560825766
 11
53.0653818337
 21
212.0560398073
  0
LINE
  8
0
 62
7
  6
CONTINUOUS
 10
117.1897681754
 20
212.0560398073
 11
116.5897681754
 21
212.0560398073
  0
LINE
  8
0
 62
7
  6
CONTINUOUS
 10
116.5653818337
 20
212.0560398073
 11
115.9707437281
 21
212.0560398073
  0
LINE
  8
0
 62
7
  6
CONTINUOUS
 10
109.6087926227
 20
212.0560398073
 11
109.0141545171
 21
212.0560398073
  0
LINE
  8
0
 62
7
  6
CONTINUOUS
 10
103.8653818337
 20
212.0560398073
 11
103.2707437281
 21
212.0560398073
  0
LINE
  8
0
 62
7
  6
CONTINUOUS
 10
84.2087926227
 20
212.0560398073
 11
83.6141545171
 21
212.0560398073
  0
LINE
  8
0
 62
7
  6
CONTINUOUS
 10
78.4653818337
 20
212.0560398073
 11
77.8707437281
 21
212.0560398073
  0
LINE
  8
0
 62
7
  6
CONTINUOUS
 10
58.8087926227
 20
212.0560398073
 11
58.2141545171
 21
212.0560398073
  0
LINE
  8
0
 62
7
  6
CONTINUOUS
 10
53.0653818337
 20
212.0560398073
 11
52.4707437281
 21
212.0560398073
  0
LINE
  8
0
 62
7
  6
CONTINUOUS
 10
33.4087926227
 20
212.0560398073
 11
32.8141545171
 21
212.0560398073
  0
LINE
  8
0
 62
7
  6
CONTINUOUS
 10
32.807614533
 20
212.0560398073
 11
32.1897681754
 21
212.0560398073
  0
LINE
  8
0
 62
7
  6
CONTINUOUS
 10
24.6397681754
 20
212.0560398073
 11
31.0897681754
 21
212.0560398073
  0
LINE
  8
0
 62
7
  6
CONTINUOUS
 10
33.4142040274
 20
212.0560398073
 11
37.4397681754
 21
212.0560398073
  0
LINE
  8
0
 62
7
  6
CONTINUOUS
 10
40.3897681754
 20
212.0560398073
 11
45.4897681754
 21
212.0560398073
  0
LINE
  8
0
 62
7
  6
CONTINUOUS
 10
46.7397681754
 20
212.0560398073
 11
52.4653323233
 21
212.0560398073
  0
LINE
  8
0
 62
7
  6
CONTINUOUS
 10
53.0897681754
 20
212.0560398073
 11
58.207614533
 21
212.0560398073
  0
LINE
  8
0
 62
7
  6
CONTINUOUS
 10
58.8142040274
 20
212.0560398073
 11
64.5397681754
 21
212.0560398073
  0
LINE
  8
0
 62
7
  6
CONTINUOUS
 10
65.7897681754
 20
212.0560398073
 11
70.8897681754
 21
212.0560398073
  0
LINE
  8
0
 62
7
  6
CONTINUOUS
 10
72.1397681754
 20
212.0560398073
 11
77.8653323233
 21
212.0560398073
  0
LINE
  8
0
 62
7
  6
CONTINUOUS
 10
78.4897681754
 20
212.0560398073
 11
83.607614533
 21
212.0560398073
  0
LINE
  8
0
 62
7
  6
CONTINUOUS
 10
84.2142040274
 20
212.0560398073
 11
89.9397681754
 21
212.0560398073
  0
LINE
  8
0
 62
7
  6
CONTINUOUS
 10
91.1897681754
 20
212.0560398073
 11
96.2897681754
 21
212.0560398073
  0
LINE
  8
0
 62
7
  6
CONTINUOUS
 10
97.5397681754
 20
212.0560398073
 11
103.2653323233
 21
212.0560398073
  0
LINE
  8
0
 62
7
  6
CONTINUOUS
 10
103.8897681754
 20
212.0560398073
 11
109.007614533
 21
212.0560398073
  0
LINE
  8
0
 62
7
  6
CONTINUOUS
 10
109.6142040274
 20
212.0560398073
 11
110.8397681754
 21
212.0560398073
  0
LINE
  8
0
 62
7
  6
CONTINUOUS
 10
111.9397681754
 20
212.0560398073
 11
115.9653323233
 21
212.0560398073
  0
LINE
  8
0
 62
7
  6
CONTINUOUS
 10
118.2897681754
 20
212.0560398073
 11
124.7397681754
 21
212.0560398073
  0
LINE
  8
0
 62
7
  6
CONTINUOUS
 10
32.807614533
 20
212.0560825766
 11
32.8141545171
 21
212.0560398073
  0
LINE
  8
0
 62
7
  6
CONTINUOUS
 10
58.207614533
 20
212.0560825766
 11
58.2141545171
 21
212.0560398073
  0
LINE
  8
0
 62
7
  6
CONTINUOUS
 10
83.607614533
 20
212.0560825766
 11
83.6141545171
 21
212.0560398073
  0
LINE
  8
0
 62
7
  6
CONTINUOUS
 10
109.007614533
 20
212.0560825766
 11
109.0141545171
 21
212.0560398073
  0
LINE
  8
0
 62
7
  6
CONTINUOUS
 10
39.1535933426
 20
213.3760116041
 11
39.1541356843
 21
213.3759925945
  0
POLYLINE
  8
0
 62
7
  6
CONTINUOUS
 66
1
 70
0
  0
VERTEX
  8
0
 62
7
  6
CONTINUOUS
 10
58.8142040274
 20
212.0560398073
  0
VERTEX
  8
0
 62
7
  6
CONTINUOUS
 10
58.6945049187
 20
212.0706616091
  0
VERTEX
  8
0
 62
7
  6
CONTINUOUS
 10
58.582119202
 20
212.1136085245
  0
VERTEX
  8
0
 62
7
  6
CONTINUOUS
 10
58.4835727427
 20
212.1822820761
  0
VERTEX
  8
0
 62
7
  6
CONTINUOUS
 10
58.4413086118
 20
212.2250409692
  0
VERTEX
  8
0
 62
7
  6
CONTINUOUS
 10
58.373826172
 20
212.3242454856
  0
VERTEX
  8
0
 62
7
  6
CONTINUOUS
 10
58.3390743371
 20
212.4107253715
  0
SEQEND
  0
POLYLINE
  8
0
 62
7
  6
CONTINUOUS
 66
1
 70
0
  0
VERTEX
  8
0
 62
7
  6
CONTINUOUS
 10
84.2142040274
 20
212.0560398073
  0
VERTEX
  8
0
 62
7
  6
CONTINUOUS
 10
84.0945049187
 20
212.0706616091
  0
VERTEX
  8
0
 62
7
  6
CONTINUOUS
 10
83.982119202
 20
212.1136085245
  0
VERTEX
  8
0
 62
7
  6
CONTINUOUS
 10
83.8835727427
 20
212.1822820761
  0
VERTEX
  8
0
 62
7
  6
CONTINUOUS
 10
83.8413086118
 20
212.2250409692
  0
VERTEX
  8
0
 62
7
  6
CONTINUOUS
 10
83.773826172
 20
212.3242454856
  0
VERTEX
  8
0
 62
7
  6
CONTINUOUS
 10
83.7390743371
 20
212.4107253715
  0
SEQEND
  0
POLYLINE
  8
0
 62
7
  6
CONTINUOUS
 66
1
 70
0
  0
VERTEX
  8
0
 62
7
  6
CONTINUOUS
 10
83.607614533
 20
212.0560825766
  0
VERTEX
  8
0
 62
7
  6
CONTINUOUS
 10
83.4888903236
 20
212.0720188283
  0
VERTEX
  8
0
 62
7
  6
CONTINUOUS
 10
83.3773007973
 20
212.1157322275
  0
VERTEX
  8
0
 62
7
  6
CONTINUOUS
 10
83.279217684
 20
212.1846232722
  0
VERTEX
  8
0
 62
7
  6
CONTINUOUS
 10
83.2370209265
 20
212.2273005568
  0
VERTEX
  8
0
 62
7
  6
CONTINUOUS
 10
83.1692898815
 20
212.3260203198
  0
VERTEX
  8
0
 62
7
  6
CONTINUOUS
 10
83.126785038
 20
212.437724919
  0
VERTEX
  8
0
 62
7
  6
CONTINUOUS
 10
83.1118323353
 20
212.5560398073
  0
SEQEND
  0
POLYLINE
  8
0
 62
7
  6
CONTINUOUS
 66
1
 70
0
  0
VERTEX
  8
0
 62
7
  6
CONTINUOUS
 10
65.0397681754
 20
217.3197684322
  0
VERTEX
  8
0
 62
7
  6
CONTINUOUS
 10
65.0253650632
 20
217.3340010249
  0
VERTEX
  8
0
 62
7
  6
CONTINUOUS
 10
64.9828987034
 20
217.3472361036
  0
VERTEX
  8
0
 62
7
  6
CONTINUOUS
 10
64.9146874306
 20
217.3587613292
  0
VERTEX
  8
0
 62
7
  6
CONTINUOUS
 10
64.8720722953
 20
217.363688553
  0
VERTEX
  8
0
 62
7
  6
CONTINUOUS
 10
64.7728663871
 20
217.3715525914
  0
VERTEX
  8
0
 62
7
  6
CONTINUOUS
 10
64.6599088738
 20
217.3764404257
  0
VERTEX
  8
0
 62
7
  6
CONTINUOUS
 10
64.5397681754
 20
217.3780994762
  0
SEQEND
  0
LINE
  8
0
 62
7
  6
CONTINUOUS
 10
65.2807133306
 20
218.0372195072
 11
65.269219374
 21
218.0584496745
  0
LINE
  8
0
 62
7
  6
CONTINUOUS
 10
65.2897681754
 20
217.9803315177
 11
65.2807133306
 21
218.0372195072
  0
LINE
  8
2_FEATURE
 62
7
  6
CONTINUOUS
 10
68.3147679846
 20
218.1560398073
 11
68.3147679846
 21
218.0560398073
  0
LINE
  8
2_FEATURE
 62
7
  6
CONTINUOUS
 10
68.3647683661
 20
218.1560398073
 11
68.3647683661
 21
218.0560398073
  0
LINE
  8
2_FEATURE
 62
7
  6
CONTINUOUS
 10
68.5147680919
 20
218.1560398073
 11
68.5147680919
 21
218.0560398073
  0
LINE
  8
2_FEATURE
 62
7
  6
CONTINUOUS
 10
68.5585181754
 20
218.1560398073
 11
68.5585181754
 21
218.0560398073
  0
LINE
  8
2_FEATURE
 62
7
  6
CONTINUOUS
 10
68.6022682588
 20
218.1560398073
 11
68.6022682588
 21
218.0560398073
  0
LINE
  8
2_FEATURE
 62
7
  6
CONTINUOUS
 10
68.6897681754
 20
218.1560398073
 11
68.6897681754
 21
218.0560398073
  0
LINE
  8
2_FEATURE
 62
7
  6
CONTINUOUS
 10
68.8210181754
 20
218.1560398073
 11
68.8210181754
 21
218.0560398073
  0
LINE
  8
2_FEATURE
 62
7
  6
CONTINUOUS
 10
69.0397683423
 20
218.1560398073
 11
69.0397683423
 21
218.0560398073
  0
LINE
  8
2_FEATURE
 62
7
  6
CONTINUOUS
 10
69.3022683423
 20
218.1560398073
 11
69.3022683423
 21
218.0560398073
  0
LINE
  8
2_FEATURE
 62
7
  6
CONTINUOUS
 10
69.5647683423
 20
218.1560398073
 11
69.5647683423
 21
218.0560398073
  0
LINE
  8
2_FEATURE
 62
7
  6
CONTINUOUS
 10
69.7835180085
 20
218.1560398073
 11
69.7835180085
 21
218.0560398073
  0
LINE
  8
2_FEATURE
 62
7
  6
CONTINUOUS
 10
69.9147680085
 20
218.1560398073
 11
69.9147680085
 21
218.0560398073
  0
LINE
  8
2_FEATURE
 62
7
  6
CONTINUOUS
 10
70.0022681754
 20
218.1560398073
 11
70.0022681754
 21
218.0560398073
  0
LINE
  8
2_FEATURE
 62
7
  6
CONTINUOUS
 10
70.0460180085
 20
218.1560398073
 11
70.0460180085
 21
218.0560398073
  0
LINE
  8
2_FEATURE
 62
7
  6
CONTINUOUS
 10
70.0897683423
 20
218.1560398073
 11
70.0897683423
 21
218.0560398073
  0
LINE
  8
2_FEATURE
 62
7
  6
CONTINUOUS
 10
70.1397681754
 20
218.1560398073
 11
70.1397681754
 21
218.0560398073
  0
LINE
  8
0
 62
7
  6
CONTINUOUS
 10
70.2047681754
 20
220.5560398073
 11
70.2047681754
 21
227.2460398073
  0
LINE
  8
2_FEATURE
 62
7
  6
CONTINUOUS
 10
70.2897681754
 20
218.1560398073
 11
70.2897681754
 21
218.0560398073
  0
LINE
  8
2_FEATURE
 62
7
  6
CONTINUOUS
 10
70.3647681754
 20
218.1560398073
 11
70.3647681754
 21
218.0560398073
  0
LINE
  8
2_FEATURE
 62
7
  6
CONTINUOUS
 10
70.4397680085
 20
218.1560398073
 11
70.4397680085
 21
218.0560398073
  0
LINE
  8
2_FEATURE
 62
7
  6
CONTINUOUS
 10
70.4835183423
 20
218.1560398073
 11
70.4835183423
 21
218.0560398073
  0
LINE
  8
2_FEATURE
 62
7
  6
CONTINUOUS
 10
70.5272681754
 20
218.1560398073
 11
70.5272681754
 21
218.0560398073
  0
LINE
  8
2_FEATURE
 62
7
  6
CONTINUOUS
 10
70.6147683423
 20
218.1560398073
 11
70.6147683423
 21
218.0560398073
  0
LINE
  8
2_FEATURE
 62
7
  6
CONTINUOUS
 10
70.7460183423
 20
218.1560398073
 11
70.7460183423
 21
218.0560398073
  0
LINE
  8
2_FEATURE
 62
7
  6
CONTINUOUS
 10
70.9647680085
 20
218.1560398073
 11
70.9647680085
 21
218.0560398073
  0
LINE
  8
2_FEATURE
 62
7
  6
CONTINUOUS
 10
71.2272680085
 20
218.1560398073
 11
71.2272680085
 21
218.0560398073
  0
LINE
  8
0
 62
7
  6
CONTINUOUS
 10
71.3347681754
 20
227.2460398073
 11
71.3347681754
 21
220.5560398073
  0
LINE
  8
0
 62
7
  6
CONTINUOUS
 10
71.3897681754
 20
212.556108903
 11
71.3897681754
 21
217.9803315177
  0
LINE
  8
2_FEATURE
 62
7
  6
CONTINUOUS
 10
71.4897680085
 20
218.1498702301
 11
71.4897680085
 21
218.0560398073
  0
LINE
  8
0
 62
7
  6
CONTINUOUS
 10
71.6397681754
 20
212.5560410603
 11
71.6397681754
 21
220.0560398073
  0
LINE
  8
0
 62
7
  6
CONTINUOUS
 10
71.6947681754
 20
220.2840200696
 11
71.6947681754
 21
227.2460398073
  0
POLYLINE
  8
0
 62
7
  6
CONTINUOUS
 66
1
 70
0
  0
VERTEX
  8
0
 62
7
  6
CONTINUOUS
 10
53.0719218177
 20
212.0560825766
  0
VERTEX
  8
0
 62
7
  6
CONTINUOUS
 10
53.1906460271
 20
212.0720188283
  0
VERTEX
  8
0
 62
7
  6
CONTINUOUS
 10
53.3022355534
 20
212.1157322275
  0
VERTEX
  8
0
 62
7
  6
CONTINUOUS
 10
53.4003186668
 20
212.1846232722
  0
VERTEX
  8
0
 62
7
  6
CONTINUOUS
 10
53.4425154242
 20
212.2273005568
  0
VERTEX
  8
0
 62
7
  6
CONTINUOUS
 10
53.5102464693
 20
212.3260203198
  0
VERTEX
  8
0
 62
7
  6
CONTINUOUS
 10
53.5527513128
 20
212.437724919
  0
VERTEX
  8
0
 62
7
  6
CONTINUOUS
 10
53.5677040154
 20
212.5560398073
  0
SEQEND
  0
POLYLINE
  8
0
 62
7
  6
CONTINUOUS
 66
1
 70
0
  0
VERTEX
  8
0
 62
7
  6
CONTINUOUS
 10
52.4653323233
 20
212.0560398073
  0
VERTEX
  8
0
 62
7
  6
CONTINUOUS
 10
52.5850314321
 20
212.0706616091
  0
VERTEX
  8
0
 62
7
  6
CONTINUOUS
 10
52.6974171487
 20
212.1136085245
  0
VERTEX
  8
0
 62
7
  6
CONTINUOUS
 10
52.7959636081
 20
212.1822820761
  0
VERTEX
  8
0
 62
7
  6
CONTINUOUS
 10
52.8382277389
 20
212.2250409692
  0
VERTEX
  8
0
 62
7
  6
CONTINUOUS
 10
52.9057101787
 20
212.3242454856
  0
VERTEX
  8
0
 62
7
  6
CONTINUOUS
 10
52.9404620136
 20
212.4107253715
  0
SEQEND
  0
POLYLINE
  8
0
 62
7
  6
CONTINUOUS
 66
1
 70
0
  0
VERTEX
  8
0
 62
7
  6
CONTINUOUS
 10
115.3397681754
 20
215.4339801383
  0
VERTEX
  8
0
 62
7
  6
CONTINUOUS
 10
115.4599088738
 20
215.4356391888
  0
VERTEX
  8
0
 62
7
  6
CONTINUOUS
 10
115.5728663871
 20
215.4405270231
  0
VERTEX
  8
0
 62
7
  6
CONTINUOUS
 10
115.6720722953
 20
215.4483910615
  0
VERTEX
  8
0
 62
7
  6
CONTINUOUS
 10
115.7146874306
 20
215.4533182853
  0
VERTEX
  8
0
 62
7
  6
CONTINUOUS
 10
115.7828987034
 20
215.4648435109
  0
VERTEX
  8
0
 62
7
  6
CONTINUOUS
 10
115.8253650632
 20
215.4780785896
  0
VERTEX
  8
0
 62
7
  6
CONTINUOUS
 10
115.8397681754
 20
215.4923111823
  0
SEQEND
  0
POLYLINE
  8
0
 62
7
  6
CONTINUOUS
 66
1
 70
0
  0
VERTEX
  8
0
 62
7
  6
CONTINUOUS
 10
102.6397681754
 20
215.4339801383
  0
VERTEX
  8
0
 62
7
  6
CONTINUOUS
 10
102.7599088738
 20
215.4356391888
  0
VERTEX
  8
0
 62
7
  6
CONTINUOUS
 10
102.8728663871
 20
215.4405270231
  0
VERTEX
  8
0
 62
7
  6
CONTINUOUS
 10
102.9720722953
 20
215.4483910615
  0
VERTEX
  8
0
 62
7
  6
CONTINUOUS
 10
103.0146874306
 20
215.4533182853
  0
VERTEX
  8
0
 62
7
  6
CONTINUOUS
 10
103.0828987034
 20
215.4648435109
  0
VERTEX
  8
0
 62
7
  6
CONTINUOUS
 10
103.1253650632
 20
215.4780785896
  0
VERTEX
  8
0
 62
7
  6
CONTINUOUS
 10
103.1397681754
 20
215.4923111823
  0
SEQEND
  0
POLYLINE
  8
0
 62
7
  6
CONTINUOUS
 66
1
 70
0
  0
VERTEX
  8
0
 62
7
  6
CONTINUOUS
 10
89.9397681754
 20
215.4339801383
  0
VERTEX
  8
0
 62
7
  6
CONTINUOUS
 10
90.0599088738
 20
215.4356391888
  0
VERTEX
  8
0
 62
7
  6
CONTINUOUS
 10
90.1728663871
 20
215.4405270231
  0
VERTEX
  8
0
 62
7
  6
CONTINUOUS
 10
90.2720722953
 20
215.4483910615
  0
VERTEX
  8
0
 62
7
  6
CONTINUOUS
 10
90.3146874306
 20
215.4533182853
  0
VERTEX
  8
0
 62
7
  6
CONTINUOUS
 10
90.3828987034
 20
215.4648435109
  0
VERTEX
  8
0
 62
7
  6
CONTINUOUS
 10
90.4253650632
 20
215.4780785896
  0
VERTEX
  8
0
 62
7
  6
CONTINUOUS
 10
90.4397681754
 20
215.4923111823
  0
SEQEND
  0
POLYLINE
  8
0
 62
7
  6
CONTINUOUS
 66
1
 70
0
  0
VERTEX
  8
0
 62
7
  6
CONTINUOUS
 10
77.2397681754
 20
215.4339801383
  0
VERTEX
  8
0
 62
7
  6
CONTINUOUS
 10
77.3599088738
 20
215.4356391888
  0
VERTEX
  8
0
 62
7
  6
CONTINUOUS
 10
77.4728663871
 20
215.4405270231
  0
VERTEX
  8
0
 62
7
  6
CONTINUOUS
 10
77.5720722953
 20
215.4483910615
  0
VERTEX
  8
0
 62
7
  6
CONTINUOUS
 10
77.6146874306
 20
215.4533182853
  0
VERTEX
  8
0
 62
7
  6
CONTINUOUS
 10
77.6828987034
 20
215.4648435109
  0
VERTEX
  8
0
 62
7
  6
CONTINUOUS
 10
77.7253650632
 20
215.4780785896
  0
VERTEX
  8
0
 62
7
  6
CONTINUOUS
 10
77.7397681754
 20
215.4923111823
  0
SEQEND
  0
POLYLINE
  8
0
 62
7
  6
CONTINUOUS
 66
1
 70
0
  0
VERTEX
  8
0
 62
7
  6
CONTINUOUS
 10
64.5397681754
 20
215.4339801383
  0
VERTEX
  8
0
 62
7
  6
CONTINUOUS
 10
64.6599088738
 20
215.4356391888
  0
VERTEX
  8
0
 62
7
  6
CONTINUOUS
 10
64.7728663871
 20
215.4405270231
  0
VERTEX
  8
0
 62
7
  6
CONTINUOUS
 10
64.8720722953
 20
215.4483910615
  0
VERTEX
  8
0
 62
7
  6
CONTINUOUS
 10
64.9146874306
 20
215.4533182853
  0
VERTEX
  8
0
 62
7
  6
CONTINUOUS
 10
64.9828987034
 20
215.4648435109
  0
VERTEX
  8
0
 62
7
  6
CONTINUOUS
 10
65.0253650632
 20
215.4780785896
  0
VERTEX
  8
0
 62
7
  6
CONTINUOUS
 10
65.0397681754
 20
215.4923111823
  0
SEQEND
  0
POLYLINE
  8
0
 62
7
  6
CONTINUOUS
 66
1
 70
0
  0
VERTEX
  8
0
 62
7
  6
CONTINUOUS
 10
51.8397681754
 20
215.4339801383
  0
VERTEX
  8
0
 62
7
  6
CONTINUOUS
 10
51.9599088738
 20
215.4356391888
  0
VERTEX
  8
0
 62
7
  6
CONTINUOUS
 10
52.0728663871
 20
215.4405270231
  0
VERTEX
  8
0
 62
7
  6
CONTINUOUS
 10
52.1720722953
 20
215.4483910615
  0
VERTEX
  8
0
 62
7
  6
CONTINUOUS
 10
52.2146874306
 20
215.4533182853
  0
VERTEX
  8
0
 62
7
  6
CONTINUOUS
 10
52.2828987034
 20
215.4648435109
  0
VERTEX
  8
0
 62
7
  6
CONTINUOUS
 10
52.3253650632
 20
215.4780785896
  0
VERTEX
  8
0
 62
7
  6
CONTINUOUS
 10
52.3397681754
 20
215.4923111823
  0
SEQEND
  0
POLYLINE
  8
0
 62
7
  6
CONTINUOUS
 66
1
 70
0
  0
VERTEX
  8
0
 62
7
  6
CONTINUOUS
 10
26.4397681754
 20
215.4339801383
  0
VERTEX
  8
0
 62
7
  6
CONTINUOUS
 10
26.5599088738
 20
215.4356391888
  0
VERTEX
  8
0
 62
7
  6
CONTINUOUS
 10
26.6728663871
 20
215.4405270231
  0
VERTEX
  8
0
 62
7
  6
CONTINUOUS
 10
26.7720722953
 20
215.4483910615
  0
VERTEX
  8
0
 62
7
  6
CONTINUOUS
 10
26.8146874306
 20
215.4533182853
  0
VERTEX
  8
0
 62
7
  6
CONTINUOUS
 10
26.8828987034
 20
215.4648435109
  0
VERTEX
  8
0
 62
7
  6
CONTINUOUS
 10
26.9253650632
 20
215.4780785896
  0
VERTEX
  8
0
 62
7
  6
CONTINUOUS
 10
26.9397681754
 20
215.4923111823
  0
SEQEND
  0
POLYLINE
  8
0
 62
7
  6
CONTINUOUS
 66
1
 70
0
  0
VERTEX
  8
0
 62
7
  6
CONTINUOUS
 10
122.9397681754
 20
217.3780994762
  0
VERTEX
  8
0
 62
7
  6
CONTINUOUS
 10
122.8196274769
 20
217.3764404257
  0
VERTEX
  8
0
 62
7
  6
CONTINUOUS
 10
122.7066699636
 20
217.3715525914
  0
VERTEX
  8
0
 62
7
  6
CONTINUOUS
 10
122.6074640554
 20
217.363688553
  0
VERTEX
  8
0
 62
7
  6
CONTINUOUS
 10
122.5648489201
 20
217.3587613292
  0
VERTEX
  8
0
 62
7
  6
CONTINUOUS
 10
122.4966376473
 20
217.3472361036
  0
VERTEX
  8
0
 62
7
  6
CONTINUOUS
 10
122.4541712876
 20
217.3340010249
  0
VERTEX
  8
0
 62
7
  6
CONTINUOUS
 10
122.4397681754
 20
217.3197684322
  0
SEQEND
  0
LINE
  8
0
 62
7
  6
CONTINUOUS
 10
24.6397681754
 20
215.4339801383
 11
26.4397681754
 21
215.4339801383
  0
LINE
  8
0
 62
7
  6
CONTINUOUS
 10
34.0397681754
 20
215.4339801383
 11
39.1397681754
 21
215.4339801383
  0
LINE
  8
0
 62
7
  6
CONTINUOUS
 10
46.7397681754
 20
215.4339801383
 11
51.8397681754
 21
215.4339801383
  0
LINE
  8
0
 62
7
  6
CONTINUOUS
 10
59.4397681754
 20
215.4339801383
 11
64.5397681754
 21
215.4339801383
  0
LINE
  8
0
 62
7
  6
CONTINUOUS
 10
72.1397681754
 20
215.4339801383
 11
77.2397681754
 21
215.4339801383
  0
LINE
  8
0
 62
7
  6
CONTINUOUS
 10
84.8397681754
 20
215.4339801383
 11
89.9397681754
 21
215.4339801383
  0
LINE
  8
0
 62
7
  6
CONTINUOUS
 10
97.5397681754
 20
215.4339801383
 11
102.6397681754
 21
215.4339801383
  0
LINE
  8
0
 62
7
  6
CONTINUOUS
 10
110.2397681754
 20
215.4339801383
 11
115.3397681754
 21
215.4339801383
  0
LINE
  8
0
 62
7
  6
CONTINUOUS
 10
122.9397681754
 20
215.4339801383
 11
124.7397681754
 21
215.4339801383
  0
LINE
  8
1_AXIS
 62
2
  6
CENTER
 10
21.8625314964
 20
216.4060398073
 11
128.4583749326
 21
216.4060398073
  0
POLYLINE
  8
0
 62
7
  6
CONTINUOUS
 66
1
 70
0
  0
VERTEX
  8
0
 62
7
  6
CONTINUOUS
 10
34.0397681754
 20
215.4339801383
  0
VERTEX
  8
0
 62
7
  6
CONTINUOUS
 10
33.9196274769
 20
215.4356391888
  0
VERTEX
  8
0
 62
7
  6
CONTINUOUS
 10
33.8066699636
 20
215.4405270231
  0
VERTEX
  8
0
 62
7
  6
CONTINUOUS
 10
33.7074640554
 20
215.4483910615
  0
VERTEX
  8
0
 62
7
  6
CONTINUOUS
 10
33.6648489201
 20
215.4533182853
  0
VERTEX
  8
0
 62
7
  6
CONTINUOUS
 10
33.5966376473
 20
215.4648435109
  0
VERTEX
  8
0
 62
7
  6
CONTINUOUS
 10
33.5541712876
 20
215.4780785896
  0
VERTEX
  8
0
 62
7
  6
CONTINUOUS
 10
33.5397681754
 20
215.4923111823
  0
SEQEND
  0
POLYLINE
  8
0
 62
7
  6
CONTINUOUS
 66
1
 70
0
  0
VERTEX
  8
0
 62
7
  6
CONTINUOUS
 10
46.7397681754
 20
215.4339801383
  0
VERTEX
  8
0
 62
7
  6
CONTINUOUS
 10
46.6196274769
 20
215.4356391888
  0
VERTEX
  8
0
 62
7
  6
CONTINUOUS
 10
46.5066699636
 20
215.4405270231
  0
VERTEX
  8
0
 62
7
  6
CONTINUOUS
 10
46.4074640554
 20
215.4483910615
  0
VERTEX
  8
0
 62
7
  6
CONTINUOUS
 10
46.3648489201
 20
215.4533182853
  0
VERTEX
  8
0
 62
7
  6
CONTINUOUS
 10
46.2966376473
 20
215.4648435109
  0
VERTEX
  8
0
 62
7
  6
CONTINUOUS
 10
46.2541712876
 20
215.4780785896
  0
VERTEX
  8
0
 62
7
  6
CONTINUOUS
 10
46.2397681754
 20
215.4923111823
  0
SEQEND
  0
POLYLINE
  8
0
 62
7
  6
CONTINUOUS
 66
1
 70
0
  0
VERTEX
  8
0
 62
7
  6
CONTINUOUS
 10
59.4397681754
 20
215.4339801383
  0
VERTEX
  8
0
 62
7
  6
CONTINUOUS
 10
59.3196274769
 20
215.4356391888
  0
VERTEX
  8
0
 62
7
  6
CONTINUOUS
 10
59.2066699636
 20
215.4405270231
  0
VERTEX
  8
0
 62
7
  6
CONTINUOUS
 10
59.1074640554
 20
215.4483910615
  0
VERTEX
  8
0
 62
7
  6
CONTINUOUS
 10
59.0648489201
 20
215.4533182853
  0
VERTEX
  8
0
 62
7
  6
CONTINUOUS
 10
58.9966376473
 20
215.4648435109
  0
VERTEX
  8
0
 62
7
  6
CONTINUOUS
 10
58.9541712876
 20
215.4780785896
  0
VERTEX
  8
0
 62
7
  6
CONTINUOUS
 10
58.9397681754
 20
215.4923111823
  0
SEQEND
  0
POLYLINE
  8
0
 62
7
  6
CONTINUOUS
 66
1
 70
0
  0
VERTEX
  8
0
 62
7
  6
CONTINUOUS
 10
84.8397681754
 20
215.4339801383
  0
VERTEX
  8
0
 62
7
  6
CONTINUOUS
 10
84.7196274769
 20
215.4356391888
  0
VERTEX
  8
0
 62
7
  6
CONTINUOUS
 10
84.6066699636
 20
215.4405270231
  0
VERTEX
  8
0
 62
7
  6
CONTINUOUS
 10
84.5074640554
 20
215.4483910615
  0
VERTEX
  8
0
 62
7
  6
CONTINUOUS
 10
84.4648489201
 20
215.4533182853
  0
VERTEX
  8
0
 62
7
  6
CONTINUOUS
 10
84.3966376473
 20
215.4648435109
  0
VERTEX
  8
0
 62
7
  6
CONTINUOUS
 10
84.3541712876
 20
215.4780785896
  0
VERTEX
  8
0
 62
7
  6
CONTINUOUS
 10
84.3397681754
 20
215.4923111823
  0
SEQEND
  0
POLYLINE
  8
0
 62
7
  6
CONTINUOUS
 66
1
 70
0
  0
VERTEX
  8
0
 62
7
  6
CONTINUOUS
 10
110.2397681754
 20
215.4339801383
  0
VERTEX
  8
0
 62
7
  6
CONTINUOUS
 10
110.1196274769
 20
215.4356391888
  0
VERTEX
  8
0
 62
7
  6
CONTINUOUS
 10
110.0066699636
 20
215.4405270231
  0
VERTEX
  8
0
 62
7
  6
CONTINUOUS
 10
109.9074640554
 20
215.4483910615
  0
VERTEX
  8
0
 62
7
  6
CONTINUOUS
 10
109.8648489201
 20
215.4533182853
  0
VERTEX
  8
0
 62
7
  6
CONTINUOUS
 10
109.7966376473
 20
215.4648435109
  0
VERTEX
  8
0
 62
7
  6
CONTINUOUS
 10
109.7541712876
 20
215.4780785896
  0
VERTEX
  8
0
 62
7
  6
CONTINUOUS
 10
109.7397681754
 20
215.4923111823
  0
SEQEND
  0
POLYLINE
  8
0
 62
7
  6
CONTINUOUS
 66
1
 70
0
  0
VERTEX
  8
0
 62
7
  6
CONTINUOUS
 10
122.9397681754
 20
215.4339801383
  0
VERTEX
  8
0
 62
7
  6
CONTINUOUS
 10
122.8196274769
 20
215.4356391888
  0
VERTEX
  8
0
 62
7
  6
CONTINUOUS
 10
122.7066699636
 20
215.4405270231
  0
VERTEX
  8
0
 62
7
  6
CONTINUOUS
 10
122.6074640554
 20
215.4483910615
  0
VERTEX
  8
0
 62
7
  6
CONTINUOUS
 10
122.5648489201
 20
215.4533182853
  0
VERTEX
  8
0
 62
7
  6
CONTINUOUS
 10
122.4966376473
 20
215.4648435109
  0
VERTEX
  8
0
 62
7
  6
CONTINUOUS
 10
122.4541712876
 20
215.4780785896
  0
VERTEX
  8
0
 62
7
  6
CONTINUOUS
 10
122.4397681754
 20
215.4923111823
  0
SEQEND
  0
POLYLINE
  8
0
 62
7
  6
CONTINUOUS
 66
1
 70
0
  0
VERTEX
  8
0
 62
7
  6
CONTINUOUS
 10
39.1397681754
 20
217.3780994762
  0
VERTEX
  8
0
 62
7
  6
CONTINUOUS
 10
39.2599088738
 20
217.3764404257
  0
VERTEX
  8
0
 62
7
  6
CONTINUOUS
 10
39.3728663871
 20
217.3715525914
  0
VERTEX
  8
0
 62
7
  6
CONTINUOUS
 10
39.4720722953
 20
217.363688553
  0
VERTEX
  8
0
 62
7
  6
CONTINUOUS
 10
39.5146874306
 20
217.3587613292
  0
VERTEX
  8
0
 62
7
  6
CONTINUOUS
 10
39.5828987034
 20
217.3472361036
  0
VERTEX
  8
0
 62
7
  6
CONTINUOUS
 10
39.6253650632
 20
217.3340010249
  0
VERTEX
  8
0
 62
7
  6
CONTINUOUS
 10
39.6397681754
 20
217.3197684322
  0
SEQEND
  0
POLYLINE
  8
0
 62
7
  6
CONTINUOUS
 66
1
 70
0
  0
VERTEX
  8
0
 62
7
  6
CONTINUOUS
 10
109.6142040274
 20
212.0560398073
  0
VERTEX
  8
0
 62
7
  6
CONTINUOUS
 10
109.4945049187
 20
212.0706616091
  0
VERTEX
  8
0
 62
7
  6
CONTINUOUS
 10
109.382119202
 20
212.1136085245
  0
VERTEX
  8
0
 62
7
  6
CONTINUOUS
 10
109.2835727427
 20
212.1822820761
  0
VERTEX
  8
0
 62
7
  6
CONTINUOUS
 10
109.2413086118
 20
212.2250409692
  0
VERTEX
  8
0
 62
7
  6
CONTINUOUS
 10
109.173826172
 20
212.3242454856
  0
VERTEX
  8
0
 62
7
  6
CONTINUOUS
 10
109.1390743371
 20
212.4107253715
  0
SEQEND
  0
POLYLINE
  8
0
 62
7
  6
CONTINUOUS
 66
1
 70
0
  0
VERTEX
  8
0
 62
7
  6
CONTINUOUS
 10
109.007614533
 20
212.0560825766
  0
VERTEX
  8
0
 62
7
  6
CONTINUOUS
 10
108.8888903236
 20
212.0720188283
  0
VERTEX
  8
0
 62
7
  6
CONTINUOUS
 10
108.7773007973
 20
212.1157322275
  0
VERTEX
  8
0
 62
7
  6
CONTINUOUS
 10
108.679217684
 20
212.1846232722
  0
VERTEX
  8
0
 62
7
  6
CONTINUOUS
 10
108.6370209265
 20
212.2273005568
  0
VERTEX
  8
0
 62
7
  6
CONTINUOUS
 10
108.5692898815
 20
212.3260203198
  0
VERTEX
  8
0
 62
7
  6
CONTINUOUS
 10
108.526785038
 20
212.437724919
  0
VERTEX
  8
0
 62
7
  6
CONTINUOUS
 10
108.5118323353
 20
212.5560398073
  0
SEQEND
  0
POLYLINE
  8
0
 62
7
  6
CONTINUOUS
 66
1
 70
0
  0
VERTEX
  8
0
 62
7
  6
CONTINUOUS
 10
46.0468692338
 20
218.1560398073
  0
VERTEX
  8
0
 62
7
  6
CONTINUOUS
 10
46.1203191857
 20
218.1454764486
  0
VERTEX
  8
0
 62
7
  6
CONTINUOUS
 10
46.1784621832
 20
218.1146654877
  0
VERTEX
  8
0
 62
7
  6
CONTINUOUS
 10
46.2010962871
 20
218.0920795986
  0
VERTEX
  8
0
 62
7
  6
CONTINUOUS
 10
46.2307669977
 20
218.0370537606
  0
VERTEX
  8
0
 62
7
  6
CONTINUOUS
 10
46.2397681754
 20
217.9803315177
  0
SEQEND
  0
POLYLINE
  8
0
 62
7
  6
CONTINUOUS
 66
1
 70
0
  0
VERTEX
  8
0
 62
7
  6
CONTINUOUS
 10
71.6397681754
 20
215.4923111823
  0
VERTEX
  8
0
 62
7
  6
CONTINUOUS
 10
71.6541712876
 20
215.4780785896
  0
VERTEX
  8
0
 62
7
  6
CONTINUOUS
 10
71.6966376473
 20
215.4648435109
  0
VERTEX
  8
0
 62
7
  6
CONTINUOUS
 10
71.7648489201
 20
215.4533182853
  0
VERTEX
  8
0
 62
7
  6
CONTINUOUS
 10
71.8074640554
 20
215.4483910615
  0
VERTEX
  8
0
 62
7
  6
CONTINUOUS
 10
71.9066699636
 20
215.4405270231
  0
VERTEX
  8
0
 62
7
  6
CONTINUOUS
 10
72.0196274769
 20
215.4356391888
  0
VERTEX
  8
0
 62
7
  6
CONTINUOUS
 10
72.1397681754
 20
215.4339801383
  0
SEQEND
  0
LINE
  8
0
 62
7
  6
CONTINUOUS
 10
72.8247681754
 20
227.2460398073
 11
72.8247681754
 21
220.5560398073
  0
LINE
  8
1_AXIS
 62
2
  6
CENTER
 10
74.6897681754
 20
209.5560398073
 11
74.6897681754
 21
229.8060398073
  0
POLYLINE
  8
0
 62
7
  6
CONTINUOUS
 66
1
 70
0
  0
VERTEX
  8
0
 62
7
  6
CONTINUOUS
 10
71.4090051424
 20
218.0560398073
  0
VERTEX
  8
0
 62
7
  6
CONTINUOUS
 10
71.3987651866
 20
218.0370408701
  0
VERTEX
  8
0
 62
7
  6
CONTINUOUS
 10
71.3897681754
 20
217.9803315177
  0
SEQEND
  0
POLYLINE
  8
0
 62
7
  6
CONTINUOUS
 66
1
 70
0
  0
VERTEX
  8
0
 62
7
  6
CONTINUOUS
 10
97.5397681754
 20
217.3780994762
  0
VERTEX
  8
0
 62
7
  6
CONTINUOUS
 10
97.4196274769
 20
217.3764404257
  0
VERTEX
  8
0
 62
7
  6
CONTINUOUS
 10
97.3066699636
 20
217.3715525914
  0
VERTEX
  8
0
 62
7
  6
CONTINUOUS
 10
97.2074640554
 20
217.363688553
  0
VERTEX
  8
0
 62
7
  6
CONTINUOUS
 10
97.1648489201
 20
217.3587613292
  0
VERTEX
  8
0
 62
7
  6
CONTINUOUS
 10
97.0966376473
 20
217.3472361036
  0
VERTEX
  8
0
 62
7
  6
CONTINUOUS
 10
97.0541712876
 20
217.3340010249
  0
VERTEX
  8
0
 62
7
  6
CONTINUOUS
 10
97.0397681754
 20
217.3197684322
  0
SEQEND
  0
POLYLINE
  8
0
 62
7
  6
CONTINUOUS
 66
1
 70
0
  0
VERTEX
  8
0
 62
7
  6
CONTINUOUS
 10
84.8397681754
 20
217.3780994762
  0
VERTEX
  8
0
 62
7
  6
CONTINUOUS
 10
84.7196274769
 20
217.3764404257
  0
VERTEX
  8
0
 62
7
  6
CONTINUOUS
 10
84.6066699636
 20
217.3715525914
  0
VERTEX
  8
0
 62
7
  6
CONTINUOUS
 10
84.5074640554
 20
217.363688553
  0
VERTEX
  8
0
 62
7
  6
CONTINUOUS
 10
84.4648489201
 20
217.3587613292
  0
VERTEX
  8
0
 62
7
  6
CONTINUOUS
 10
84.3966376473
 20
217.3472361036
  0
VERTEX
  8
0
 62
7
  6
CONTINUOUS
 10
84.3541712876
 20
217.3340010249
  0
VERTEX
  8
0
 62
7
  6
CONTINUOUS
 10
84.3397681754
 20
217.3197684322
  0
SEQEND
  0
POLYLINE
  8
0
 62
7
  6
CONTINUOUS
 66
1
 70
0
  0
VERTEX
  8
0
 62
7
  6
CONTINUOUS
 10
72.1397681754
 20
217.3780994762
  0
VERTEX
  8
0
 62
7
  6
CONTINUOUS
 10
72.0196274769
 20
217.3764404257
  0
VERTEX
  8
0
 62
7
  6
CONTINUOUS
 10
71.9066699636
 20
217.3715525914
  0
VERTEX
  8
0
 62
7
  6
CONTINUOUS
 10
71.8074640554
 20
217.363688553
  0
VERTEX
  8
0
 62
7
  6
CONTINUOUS
 10
71.7648489201
 20
217.3587613292
  0
VERTEX
  8
0
 62
7
  6
CONTINUOUS
 10
71.6966376473
 20
217.3472361036
  0
VERTEX
  8
0
 62
7
  6
CONTINUOUS
 10
71.6541712876
 20
217.3340010249
  0
VERTEX
  8
0
 62
7
  6
CONTINUOUS
 10
71.6397681754
 20
217.3197684322
  0
SEQEND
  0
POLYLINE
  8
0
 62
7
  6
CONTINUOUS
 66
1
 70
0
  0
VERTEX
  8
0
 62
7
  6
CONTINUOUS
 10
59.4397681754
 20
217.3780994762
  0
VERTEX
  8
0
 62
7
  6
CONTINUOUS
 10
59.3196274769
 20
217.3764404257
  0
VERTEX
  8
0
 62
7
  6
CONTINUOUS
 10
59.2066699636
 20
217.3715525914
  0
VERTEX
  8
0
 62
7
  6
CONTINUOUS
 10
59.1074640554
 20
217.363688553
  0
VERTEX
  8
0
 62
7
  6
CONTINUOUS
 10
59.0648489201
 20
217.3587613292
  0
VERTEX
  8
0
 62
7
  6
CONTINUOUS
 10
58.9966376473
 20
217.3472361036
  0
VERTEX
  8
0
 62
7
  6
CONTINUOUS
 10
58.9541712876
 20
217.3340010249
  0
VERTEX
  8
0
 62
7
  6
CONTINUOUS
 10
58.9397681754
 20
217.3197684322
  0
SEQEND
  0
POLYLINE
  8
0
 62
7
  6
CONTINUOUS
 66
1
 70
0
  0
VERTEX
  8
0
 62
7
  6
CONTINUOUS
 10
34.0397681754
 20
217.3780994762
  0
VERTEX
  8
0
 62
7
  6
CONTINUOUS
 10
33.9196274769
 20
217.3764404257
  0
VERTEX
  8
0
 62
7
  6
CONTINUOUS
 10
33.8066699636
 20
217.3715525914
  0
VERTEX
  8
0
 62
7
  6
CONTINUOUS
 10
33.7074640554
 20
217.363688553
  0
VERTEX
  8
0
 62
7
  6
CONTINUOUS
 10
33.6648489201
 20
217.3587613292
  0
VERTEX
  8
0
 62
7
  6
CONTINUOUS
 10
33.5966376473
 20
217.3472361036
  0
VERTEX
  8
0
 62
7
  6
CONTINUOUS
 10
33.5541712876
 20
217.3340010249
  0
VERTEX
  8
0
 62
7
  6
CONTINUOUS
 10
33.5397681754
 20
217.3197684322
  0
SEQEND
  0
LINE
  8
0
 62
7
  6
CONTINUOUS
 10
24.6397681754
 20
217.3780994762
 11
26.4397681754
 21
217.3780994762
  0
LINE
  8
0
 62
7
  6
CONTINUOUS
 10
34.0397681754
 20
217.3780994762
 11
39.1397681754
 21
217.3780994762
  0
LINE
  8
0
 62
7
  6
CONTINUOUS
 10
46.7397681754
 20
217.3780994762
 11
51.8397681754
 21
217.3780994762
  0
LINE
  8
0
 62
7
  6
CONTINUOUS
 10
59.4397681754
 20
217.3780994762
 11
64.5397681754
 21
217.3780994762
  0
LINE
  8
0
 62
7
  6
CONTINUOUS
 10
72.1397681754
 20
217.3780994762
 11
77.2397681754
 21
217.3780994762
  0
LINE
  8
0
 62
7
  6
CONTINUOUS
 10
84.8397681754
 20
217.3780994762
 11
89.9397681754
 21
217.3780994762
  0
LINE
  8
0
 62
7
  6
CONTINUOUS
 10
97.5397681754
 20
217.3780994762
 11
102.6397681754
 21
217.3780994762
  0
LINE
  8
0
 62
7
  6
CONTINUOUS
 10
110.2397681754
 20
217.3780994762
 11
115.3397681754
 21
217.3780994762
  0
LINE
  8
0
 62
7
  6
CONTINUOUS
 10
122.9397681754
 20
217.3780994762
 11
124.7397681754
 21
217.3780994762
  0
LINE
  8
2_FEATURE
 62
7
  6
CONTINUOUS
 10
96.8647680919
 20
218.0560398073
 11
96.6460181754
 21
218.0560398073
  0
LINE
  8
2_FEATURE
 62
7
  6
CONTINUOUS
 10
95.4272682588
 20
218.0560398073
 11
90.6522685092
 21
218.0560398073
  0
LINE
  8
2_FEATURE
 62
7
  6
CONTINUOUS
 10
71.6205294526
 20
218.0560398073
 11
68.5147680919
 21
218.0560398073
  0
LINE
  8
2_FEATURE
 62
7
  6
CONTINUOUS
 10
68.3647683661
 20
218.0560398073
 11
65.0590106077
 21
218.0560398073
  0
LINE
  8
2_FEATURE
 62
7
  6
CONTINUOUS
 10
46.2205294526
 20
218.0560398073
 11
45.8897681754
 21
218.0560398073
  0
LINE
  8
2_FEATURE
 62
7
  6
CONTINUOUS
 10
45.6897683661
 20
218.0560398073
 11
45.1997681754
 21
218.0560398073
  0
LINE
  8
1_AXIS
 62
7
  6
CONTINUOUS
 10
45.1997681754
 20
218.0560398073
 11
42.3497681754
 21
218.0560398073
  0
LINE
  8
2_FEATURE
 62
7
  6
CONTINUOUS
 10
42.2647679846
 20
218.0560398073
 11
42.2297681754
 21
218.0560398073
  0
LINE
  8
1_AXIS
 62
7
  6
CONTINUOUS
 10
42.2297681754
 20
218.0560398073
 11
40.5197681754
 21
218.0560398073
  0
LINE
  8
2_FEATURE
 62
7
  6
CONTINUOUS
 10
40.5197681754
 20
218.0560398073
 11
39.9397685568
 21
218.0560398073
  0
LINE
  8
2_FEATURE
 62
7
  6
CONTINUOUS
 10
39.7397681754
 20
218.0560398073
 11
39.6590106077
 21
218.0560398073
  0
LINE
  8
2_FEATURE
 62
7
  6
CONTINUOUS
 10
26.9397681754
 20
218.1560398073
 11
33.5397681754
 21
218.1560398073
  0
LINE
  8
0
 62
7
  6
CONTINUOUS
 10
39.832667117
 20
218.1560398073
 11
40.1397681754
 21
218.1560398073
  0
LINE
  8
2_FEATURE
 62
7
  6
CONTINUOUS
 10
40.1397681754
 20
218.1560398073
 11
45.7397681754
 21
218.1560398073
  0
LINE
  8
0
 62
7
  6
CONTINUOUS
 10
45.7397681754
 20
218.1560398073
 11
46.0468692338
 21
218.1560398073
  0
LINE
  8
2_FEATURE
 62
7
  6
CONTINUOUS
 10
52.3397681754
 20
218.1560398073
 11
58.9397681754
 21
218.1560398073
  0
LINE
  8
0
 62
7
  6
CONTINUOUS
 10
65.232667117
 20
218.1560398073
 11
65.5397681754
 21
218.1560398073
  0
LINE
  8
2_FEATURE
 62
7
  6
CONTINUOUS
 10
65.5397681754
 20
218.1560398073
 11
71.1397681754
 21
218.1560398073
  0
LINE
  8
0
 62
7
  6
CONTINUOUS
 10
71.1397681754
 20
218.1560398073
 11
71.4468692338
 21
218.1560398073
  0
LINE
  8
2_FEATURE
 62
7
  6
CONTINUOUS
 10
77.7397681754
 20
218.1560398073
 11
84.3397681754
 21
218.1560398073
  0
LINE
  8
0
 62
7
  6
CONTINUOUS
 10
90.632667117
 20
218.1560398073
 11
90.9397681754
 21
218.1560398073
  0
LINE
  8
2_FEATURE
 62
7
  6
CONTINUOUS
 10
90.9397681754
 20
218.1560398073
 11
96.5397681754
 21
218.1560398073
  0
LINE
  8
0
 62
7
  6
CONTINUOUS
 10
96.5397681754
 20
218.1560398073
 11
96.8468692338
 21
218.1560398073
  0
LINE
  8
2_FEATURE
 62
7
  6
CONTINUOUS
 10
103.1397681754
 20
218.1560398073
 11
109.7397681754
 21
218.1560398073
  0
LINE
  8
2_FEATURE
 62
7
  6
CONTINUOUS
 10
115.8397681754
 20
218.1560398073
 11
122.4397681754
 21
218.1560398073
  0
POLYLINE
  8
0
 62
7
  6
CONTINUOUS
 66
1
 70
0
  0
VERTEX
  8
0
 62
7
  6
CONTINUOUS
 10
71.4468692338
 20
218.1560398073
  0
VERTEX
  8
0
 62
7
  6
CONTINUOUS
 10
71.5203191857
 20
218.1454764486
  0
VERTEX
  8
0
 62
7
  6
CONTINUOUS
 10
71.5784621832
 20
218.1146654877
  0
VERTEX
  8
0
 62
7
  6
CONTINUOUS
 10
71.6010962871
 20
218.0920795986
  0
VERTEX
  8
0
 62
7
  6
CONTINUOUS
 10
71.6307669977
 20
218.0370537606
  0
VERTEX
  8
0
 62
7
  6
CONTINUOUS
 10
71.6397681754
 20
217.9803315177
  0
SEQEND
  0
POLYLINE
  8
0
 62
7
  6
CONTINUOUS
 66
1
 70
0
  0
VERTEX
  8
0
 62
7
  6
CONTINUOUS
 10
77.7397681754
 20
217.3197684322
  0
VERTEX
  8
0
 62
7
  6
CONTINUOUS
 10
77.7253650632
 20
217.3340010249
  0
VERTEX
  8
0
 62
7
  6
CONTINUOUS
 10
77.6828987034
 20
217.3472361036
  0
VERTEX
  8
0
 62
7
  6
CONTINUOUS
 10
77.6146874306
 20
217.3587613292
  0
VERTEX
  8
0
 62
7
  6
CONTINUOUS
 10
77.5720722953
 20
217.363688553
  0
VERTEX
  8
0
 62
7
  6
CONTINUOUS
 10
77.4728663871
 20
217.3715525914
  0
VERTEX
  8
0
 62
7
  6
CONTINUOUS
 10
77.3599088738
 20
217.3764404257
  0
VERTEX
  8
0
 62
7
  6
CONTINUOUS
 10
77.2397681754
 20
217.3780994762
  0
SEQEND
  0
LINE
  8
0
 62
7
  6
CONTINUOUS
 10
76.5547681754
 20
220.5560398073
 11
76.5547681754
 21
227.2460398073
  0
LINE
  8
0
 62
7
  6
CONTINUOUS
 10
77.6847681754
 20
227.2460398073
 11
77.6847681754
 21
220.2840200696
  0
LINE
  8
0
 62
7
  6
CONTINUOUS
 10
77.7397681754
 20
212.5560398073
 11
77.7397681754
 21
220.0560398073
  0
LINE
  8
0
 62
7
  6
CONTINUOUS
 10
78.0447681754
 20
220.5560398073
 11
78.0447681754
 21
227.2460398073
  0
LINE
  8
0
 62
7
  6
CONTINUOUS
 10
24.6397681754
 20
220.5560398073
 11
26.4397681754
 21
220.5560398073
  0
LINE
  8
0
 62
7
  6
CONTINUOUS
 10
26.8847681754
 20
220.5560398073
 11
33.5947681754
 21
220.5560398073
  0
LINE
  8
0
 62
7
  6
CONTINUOUS
 10
34.0397681754
 20
220.5560398073
 11
39.1397681754
 21
220.5560398073
  0
LINE
  8
0
 62
7
  6
CONTINUOUS
 10
39.5847681754
 20
220.5560398073
 11
46.2947681754
 21
220.5560398073
  0
LINE
  8
0
 62
7
  6
CONTINUOUS
 10
46.7397681754
 20
220.5560398073
 11
51.8397681754
 21
220.5560398073
  0
LINE
  8
0
 62
7
  6
CONTINUOUS
 10
52.2847681754
 20
220.5560398073
 11
58.9947681754
 21
220.5560398073
  0
LINE
  8
0
 62
7
  6
CONTINUOUS
 10
59.4397681754
 20
220.5560398073
 11
64.5397681754
 21
220.5560398073
  0
LINE
  8
0
 62
7
  6
CONTINUOUS
 10
64.9847681754
 20
220.5560398073
 11
71.6947681754
 21
220.5560398073
  0
LINE
  8
0
 62
7
  6
CONTINUOUS
 10
72.1397681754
 20
220.5560398073
 11
77.2397681754
 21
220.5560398073
  0
LINE
  8
0
 62
7
  6
CONTINUOUS
 10
77.6847681754
 20
220.5560398073
 11
84.3947681754
 21
220.5560398073
  0
LINE
  8
0
 62
7
  6
CONTINUOUS
 10
84.8397681754
 20
220.5560398073
 11
89.9397681754
 21
220.5560398073
  0
LINE
  8
0
 62
7
  6
CONTINUOUS
 10
90.3847681754
 20
220.5560398073
 11
97.0947681754
 21
220.5560398073
  0
LINE
  8
0
 62
7
  6
CONTINUOUS
 10
97.5397681754
 20
220.5560398073
 11
102.6397681754
 21
220.5560398073
  0
LINE
  8
0
 62
7
  6
CONTINUOUS
 10
103.0847681754
 20
220.5560398073
 11
109.7947681754
 21
220.5560398073
  0
LINE
  8
0
 62
7
  6
CONTINUOUS
 10
110.2397681754
 20
220.5560398073
 11
115.3397681754
 21
220.5560398073
  0
LINE
  8
0
 62
7
  6
CONTINUOUS
 10
115.7847681754
 20
220.5560398073
 11
122.4947681754
 21
220.5560398073
  0
LINE
  8
0
 62
7
  6
CONTINUOUS
 10
122.9397681754
 20
220.5560398073
 11
124.7397681754
 21
220.5560398073
  0
POLYLINE
  8
0
 62
7
  6
CONTINUOUS
 66
1
 70
0
  0
VERTEX
  8
0
 62
7
  6
CONTINUOUS
 10
96.8468692338
 20
218.1560398073
  0
VERTEX
  8
0
 62
7
  6
CONTINUOUS
 10
96.9203191857
 20
218.1454764486
  0
VERTEX
  8
0
 62
7
  6
CONTINUOUS
 10
96.9784621832
 20
218.1146654877
  0
VERTEX
  8
0
 62
7
  6
CONTINUOUS
 10
97.0010962871
 20
218.0920795986
  0
VERTEX
  8
0
 62
7
  6
CONTINUOUS
 10
97.0307669977
 20
218.0370537606
  0
VERTEX
  8
0
 62
7
  6
CONTINUOUS
 10
97.0397681754
 20
217.9803315177
  0
SEQEND
  0
LINE
  8
0
 62
7
  6
CONTINUOUS
 10
80.0624192918
 20
217.6560398073
 11
79.563409637
 21
218.1550494621
  0
LINE
  8
0
 62
7
  6
CONTINUOUS
 10
79.1747681754
 20
227.2460398073
 11
79.1747681754
 21
220.5560398073
  0
LINE
  8
0
 62
7
  6
CONTINUOUS
 10
79.5897681754
 20
212.5560398073
 11
79.5897681754
 21
214.3330019823
  0
POLYLINE
  8
0
 62
7
  6
CONTINUOUS
 66
1
 70
0
  0
VERTEX
  8
0
 62
7
  6
CONTINUOUS
 10
78.3404620136
 20
212.4107253715
  0
VERTEX
  8
0
 62
7
  6
CONTINUOUS
 10
78.3474208534
 20
212.4367548571
  0
VERTEX
  8
0
 62
7
  6
CONTINUOUS
 10
78.3610424177
 20
212.5560398073
  0
SEQEND
  0
LINE
  8
0
 62
7
  6
CONTINUOUS
 10
78.3404625799
 20
212.4107271865
 11
78.5726504298
 21
213.1936966264
  0
LINE
  8
0
 62
7
  6
CONTINUOUS
 10
78.5726551555
 20
213.193712529
 11
78.5760115355
 21
213.2042516351
  0
LINE
  8
0
 62
7
  6
CONTINUOUS
 10
82.5161267137
 20
218.1550494621
 11
82.0171170589
 21
217.6560398073
  0
POLYLINE
  8
0
 62
7
  6
CONTINUOUS
 66
1
 70
0
  0
VERTEX
  8
0
 62
7
  6
CONTINUOUS
 10
83.5039818787
 20
213.2030968716
  0
VERTEX
  8
0
 62
7
  6
CONTINUOUS
 10
83.5034795913
 20
213.2043765944
  0
VERTEX
  8
0
 62
7
  6
CONTINUOUS
 10
83.5068815098
 20
213.1937114681
  0
SEQEND
  0
LINE
  8
0
 62
7
  6
CONTINUOUS
 10
83.506885921
 20
213.1936966264
 11
83.7390737709
 21
212.4107271865
  0
POLYLINE
  8
0
 62
7
  6
CONTINUOUS
 66
1
 70
0
  0
VERTEX
  8
0
 62
7
  6
CONTINUOUS
 10
83.7390743371
 20
212.4107253715
  0
VERTEX
  8
0
 62
7
  6
CONTINUOUS
 10
83.7321154973
 20
212.4367548571
  0
VERTEX
  8
0
 62
7
  6
CONTINUOUS
 10
83.718493933
 20
212.5560398073
  0
SEQEND
  0
LINE
  8
0
 62
7
  6
CONTINUOUS
 10
82.4897681754
 20
212.5560398073
 11
82.4897681754
 21
214.3330019904
  0
LINE
  8
0
 62
7
  6
CONTINUOUS
 10
82.9047681754
 20
220.5560398073
 11
82.9047681754
 21
227.2460398073
  0
LINE
  8
0
 62
7
  6
CONTINUOUS
 10
84.0347681754
 20
227.2460398073
 11
84.0347681754
 21
220.5560398073
  0
LINE
  8
0
 62
7
  6
CONTINUOUS
 10
84.3397681754
 20
212.5560398073
 11
84.3397681754
 21
220.0560398073
  0
LINE
  8
0
 62
7
  6
CONTINUOUS
 10
84.3947681754
 20
220.2840200696
 11
84.3947681754
 21
227.2460398073
  0
LINE
  8
0
 62
7
  6
CONTINUOUS
 10
123.0647681754
 20
227.8060398073
 11
123.0547681754
 21
227.8060398073
  0
LINE
  8
0
 62
7
  6
CONTINUOUS
 10
121.5747681754
 20
227.8060398073
 11
121.5647681754
 21
227.8060398073
  0
LINE
  8
0
 62
7
  6
CONTINUOUS
 10
116.7147681754
 20
227.8060398073
 11
116.7047681754
 21
227.8060398073
  0
LINE
  8
0
 62
7
  6
CONTINUOUS
 10
115.2247681754
 20
227.8060398073
 11
115.2147681754
 21
227.8060398073
  0
LINE
  8
0
 62
7
  6
CONTINUOUS
 10
110.3647681754
 20
227.8060398073
 11
110.3547681754
 21
227.8060398073
  0
LINE
  8
0
 62
7
  6
CONTINUOUS
 10
108.8747681754
 20
227.8060398073
 11
108.8647681754
 21
227.8060398073
  0
LINE
  8
0
 62
7
  6
CONTINUOUS
 10
104.0147681754
 20
227.8060398073
 11
104.0047681754
 21
227.8060398073
  0
LINE
  8
0
 62
7
  6
CONTINUOUS
 10
102.5247681754
 20
227.8060398073
 11
102.5147681754
 21
227.8060398073
  0
LINE
  8
0
 62
7
  6
CONTINUOUS
 10
97.6647681754
 20
227.8060398073
 11
97.6547681754
 21
227.8060398073
  0
LINE
  8
0
 62
7
  6
CONTINUOUS
 10
96.1747681754
 20
227.8060398073
 11
96.1647681754
 21
227.8060398073
  0
LINE
  8
0
 62
7
  6
CONTINUOUS
 10
91.3147681754
 20
227.8060398073
 11
91.3047681754
 21
227.8060398073
  0
LINE
  8
0
 62
7
  6
CONTINUOUS
 10
89.8247681754
 20
227.8060398073
 11
89.8147681754
 21
227.8060398073
  0
LINE
  8
0
 62
7
  6
CONTINUOUS
 10
84.9647681754
 20
227.8060398073
 11
84.9547681754
 21
227.8060398073
  0
LINE
  8
0
 62
7
  6
CONTINUOUS
 10
83.4747681754
 20
227.8060398073
 11
83.4647681754
 21
227.8060398073
  0
LINE
  8
0
 62
7
  6
CONTINUOUS
 10
78.6147681754
 20
227.8060398073
 11
78.6047681754
 21
227.8060398073
  0
LINE
  8
0
 62
7
  6
CONTINUOUS
 10
77.1247681754
 20
227.8060398073
 11
77.1147681754
 21
227.8060398073
  0
LINE
  8
0
 62
7
  6
CONTINUOUS
 10
72.2647681754
 20
227.8060398073
 11
72.2547681754
 21
227.8060398073
  0
LINE
  8
0
 62
7
  6
CONTINUOUS
 10
70.7747681754
 20
227.8060398073
 11
70.7647681754
 21
227.8060398073
  0
LINE
  8
0
 62
7
  6
CONTINUOUS
 10
65.9147681754
 20
227.8060398073
 11
65.9047681754
 21
227.8060398073
  0
LINE
  8
0
 62
7
  6
CONTINUOUS
 10
64.4247681754
 20
227.8060398073
 11
64.4147681754
 21
227.8060398073
  0
LINE
  8
0
 62
7
  6
CONTINUOUS
 10
59.5647681754
 20
227.8060398073
 11
59.5547681754
 21
227.8060398073
  0
LINE
  8
0
 62
7
  6
CONTINUOUS
 10
58.0747681754
 20
227.8060398073
 11
58.0647681754
 21
227.8060398073
  0
LINE
  8
0
 62
7
  6
CONTINUOUS
 10
53.2147681754
 20
227.8060398073
 11
53.2047681754
 21
227.8060398073
  0
LINE
  8
0
 62
7
  6
CONTINUOUS
 10
51.7247681754
 20
227.8060398073
 11
51.7147681754
 21
227.8060398073
  0
LINE
  8
0
 62
7
  6
CONTINUOUS
 10
46.8647681754
 20
227.8060398073
 11
46.8547681754
 21
227.8060398073
  0
LINE
  8
0
 62
7
  6
CONTINUOUS
 10
45.3747681754
 20
227.8060398073
 11
45.3647681754
 21
227.8060398073
  0
LINE
  8
0
 62
7
  6
CONTINUOUS
 10
40.5147681754
 20
227.8060398073
 11
40.5047681754
 21
227.8060398073
  0
LINE
  8
0
 62
7
  6
CONTINUOUS
 10
39.0247681754
 20
227.8060398073
 11
39.0147681754
 21
227.8060398073
  0
LINE
  8
0
 62
7
  6
CONTINUOUS
 10
34.1647681754
 20
227.8060398073
 11
34.1547681754
 21
227.8060398073
  0
LINE
  8
0
 62
7
  6
CONTINUOUS
 10
32.6747681754
 20
227.8060398073
 11
32.6647681754
 21
227.8060398073
  0
LINE
  8
0
 62
7
  6
CONTINUOUS
 10
27.8147681754
 20
227.8060398073
 11
27.8047681754
 21
227.8060398073
  0
LINE
  8
0
 62
7
  6
CONTINUOUS
 10
26.3247681754
 20
227.8060398073
 11
26.3147681754
 21
227.8060398073
  0
POLYLINE
  8
0
 62
7
  6
CONTINUOUS
 66
1
 70
0
  0
VERTEX
  8
0
 62
7
  6
CONTINUOUS
 10
90.4397681754
 20
217.3197684322
  0
VERTEX
  8
0
 62
7
  6
CONTINUOUS
 10
90.4253650632
 20
217.3340010249
  0
VERTEX
  8
0
 62
7
  6
CONTINUOUS
 10
90.3828987034
 20
217.3472361036
  0
VERTEX
  8
0
 62
7
  6
CONTINUOUS
 10
90.3146874306
 20
217.3587613292
  0
VERTEX
  8
0
 62
7
  6
CONTINUOUS
 10
90.2720722953
 20
217.363688553
  0
VERTEX
  8
0
 62
7
  6
CONTINUOUS
 10
90.1728663871
 20
217.3715525914
  0
VERTEX
  8
0
 62
7
  6
CONTINUOUS
 10
90.0599088738
 20
217.3764404257
  0
VERTEX
  8
0
 62
7
  6
CONTINUOUS
 10
89.9397681754
 20
217.3780994762
  0
SEQEND
  0
LINE
  8
0
 62
7
  6
CONTINUOUS
 10
85.5247681754
 20
227.2460398073
 11
85.5247681754
 21
220.5560398073
  0
POLYLINE
  8
0
 62
7
  6
CONTINUOUS
 66
1
 70
0
  0
VERTEX
  8
0
 62
7
  6
CONTINUOUS
 10
97.0397681754
 20
215.4923111823
  0
VERTEX
  8
0
 62
7
  6
CONTINUOUS
 10
97.0541712876
 20
215.4780785896
  0
VERTEX
  8
0
 62
7
  6
CONTINUOUS
 10
97.0966376473
 20
215.4648435109
  0
VERTEX
  8
0
 62
7
  6
CONTINUOUS
 10
97.1648489201
 20
215.4533182853
  0
VERTEX
  8
0
 62
7
  6
CONTINUOUS
 10
97.2074640554
 20
215.4483910615
  0
VERTEX
  8
0
 62
7
  6
CONTINUOUS
 10
97.3066699636
 20
215.4405270231
  0
VERTEX
  8
0
 62
7
  6
CONTINUOUS
 10
97.4196274769
 20
215.4356391888
  0
VERTEX
  8
0
 62
7
  6
CONTINUOUS
 10
97.5397681754
 20
215.4339801383
  0
SEQEND
  0
LINE
  8
0
 62
7
  6
CONTINUOUS
 10
89.2547681754
 20
220.5560398073
 11
89.2547681754
 21
227.2460398073
  0
LINE
  8
0
 62
7
  6
CONTINUOUS
 10
90.3847681754
 20
227.2460398073
 11
90.3847681754
 21
220.2840200696
  0
LINE
  8
0
 62
7
  6
CONTINUOUS
 10
90.4397681754
 20
212.5560410603
 11
90.4397681754
 21
220.0560398073
  0
LINE
  8
2_FEATURE
 62
7
  6
CONTINUOUS
 10
90.6522685092
 20
218.1560398073
 11
90.6522685092
 21
218.0560398073
  0
LINE
  8
0
 62
7
  6
CONTINUOUS
 10
90.6897681754
 20
218.0560398073
 11
90.6897681754
 21
212.556108903
  0
LINE
  8
2_FEATURE
 62
7
  6
CONTINUOUS
 10
90.6960178416
 20
218.1560398073
 11
90.6960178416
 21
218.0560398073
  0
LINE
  8
0
 62
7
  6
CONTINUOUS
 10
90.7447681754
 20
220.5560398073
 11
90.7447681754
 21
227.2460398073
  0
LINE
  8
2_FEATURE
 62
7
  6
CONTINUOUS
 10
90.8272678416
 20
218.1560398073
 11
90.8272678416
 21
218.0560398073
  0
LINE
  8
2_FEATURE
 62
7
  6
CONTINUOUS
 10
91.0022681754
 20
218.1560398073
 11
91.0022681754
 21
218.0560398073
  0
LINE
  8
2_FEATURE
 62
7
  6
CONTINUOUS
 10
91.2210178416
 20
218.1560398073
 11
91.2210178416
 21
218.0560398073
  0
LINE
  8
2_FEATURE
 62
7
  6
CONTINUOUS
 10
91.8397681754
 20
218.1560398073
 11
91.8397681754
 21
218.0560398073
  0
LINE
  8
0
 62
7
  6
CONTINUOUS
 10
91.8747681754
 20
227.2460398073
 11
91.8747681754
 21
220.5560398073
  0
POLYLINE
  8
0
 62
7
  6
CONTINUOUS
 66
1
 70
0
  0
VERTEX
  8
0
 62
7
  6
CONTINUOUS
 10
90.4397681754
 20
217.9803315177
  0
VERTEX
  8
0
 62
7
  6
CONTINUOUS
 10
90.4488203075
 20
218.0372111425
  0
VERTEX
  8
0
 62
7
  6
CONTINUOUS
 10
90.4786631665
 20
218.0923519309
  0
VERTEX
  8
0
 62
7
  6
CONTINUOUS
 10
90.5013318539
 20
218.1148748366
  0
VERTEX
  8
0
 62
7
  6
CONTINUOUS
 10
90.5592828487
 20
218.1454971834
  0
VERTEX
  8
0
 62
7
  6
CONTINUOUS
 10
90.632667117
 20
218.1560398073
  0
SEQEND
  0
LINE
  8
2_FEATURE
 62
7
  6
CONTINUOUS
 10
92.8897681754
 20
218.1560398073
 11
92.8897681754
 21
218.0560398073
  0
LINE
  8
2_FEATURE
 62
7
  6
CONTINUOUS
 10
93.1085182171
 20
218.1560398073
 11
93.1085182171
 21
218.0560398073
  0
LINE
  8
2_FEATURE
 62
7
  6
CONTINUOUS
 10
93.2835181754
 20
218.1560398073
 11
93.2835181754
 21
218.0560398073
  0
LINE
  8
2_FEATURE
 62
7
  6
CONTINUOUS
 10
93.4147681754
 20
218.1560398073
 11
93.4147681754
 21
218.0560398073
  0
LINE
  8
2_FEATURE
 62
7
  6
CONTINUOUS
 10
93.4585181337
 20
218.1560398073
 11
93.4585181337
 21
218.0560398073
  0
LINE
  8
2_FEATURE
 62
7
  6
CONTINUOUS
 10
93.8085181754
 20
218.1560398073
 11
93.8085181754
 21
218.0560398073
  0
LINE
  8
2_FEATURE
 62
7
  6
CONTINUOUS
 10
94.8585181754
 20
218.1560398073
 11
94.8585181754
 21
218.0560398073
  0
LINE
  8
2_FEATURE
 62
7
  6
CONTINUOUS
 10
95.0772680919
 20
218.1560398073
 11
95.0772680919
 21
218.0560398073
  0
LINE
  8
2_FEATURE
 62
7
  6
CONTINUOUS
 10
95.2522681754
 20
218.1560398073
 11
95.2522681754
 21
218.0560398073
  0
LINE
  8
2_FEATURE
 62
7
  6
CONTINUOUS
 10
95.3835181754
 20
218.1560398073
 11
95.3835181754
 21
218.0560398073
  0
LINE
  8
2_FEATURE
 62
7
  6
CONTINUOUS
 10
95.4272682588
 20
218.1560398073
 11
95.4272682588
 21
218.0560398073
  0
LINE
  8
0
 62
7
  6
CONTINUOUS
 10
95.6047681754
 20
220.5560398073
 11
95.6047681754
 21
227.2460398073
  0
POLYLINE
  8
0
 62
7
  6
CONTINUOUS
 66
1
 70
0
  0
VERTEX
  8
0
 62
7
  6
CONTINUOUS
 10
110.3129224105
 20
213.4000465091
  0
VERTEX
  8
0
 62
7
  6
CONTINUOUS
 10
110.7242079976
 20
213.57066551
  0
VERTEX
  8
0
 62
7
  6
CONTINUOUS
 10
111.1061618566
 20
213.7473206404
  0
VERTEX
  8
0
 62
7
  6
CONTINUOUS
 10
111.43243426
 20
213.915083968
  0
SEQEND
  0
POLYLINE
  8
0
 62
7
  6
CONTINUOUS
 66
1
 70
0
  0
VERTEX
  8
0
 62
7
  6
CONTINUOUS
 10
103.1397681754
 20
217.3197684322
  0
VERTEX
  8
0
 62
7
  6
CONTINUOUS
 10
103.1253650632
 20
217.3340010249
  0
VERTEX
  8
0
 62
7
  6
CONTINUOUS
 10
103.0828987034
 20
217.3472361036
  0
VERTEX
  8
0
 62
7
  6
CONTINUOUS
 10
103.0146874306
 20
217.3587613292
  0
VERTEX
  8
0
 62
7
  6
CONTINUOUS
 10
102.9720722953
 20
217.363688553
  0
VERTEX
  8
0
 62
7
  6
CONTINUOUS
 10
102.8728663871
 20
217.3715525914
  0
VERTEX
  8
0
 62
7
  6
CONTINUOUS
 10
102.7599088738
 20
217.3764404257
  0
VERTEX
  8
0
 62
7
  6
CONTINUOUS
 10
102.6397681754
 20
217.3780994762
  0
SEQEND
  0
LINE
  8
0
 62
7
  6
CONTINUOUS
 10
105.4624192918
 20
217.6560398073
 11
104.963409637
 21
218.1550494621
  0
LINE
  8
2_FEATURE
 62
7
  6
CONTINUOUS
 10
96.6460181754
 20
218.1560398073
 11
96.6460181754
 21
218.0560398073
  0
LINE
  8
0
 62
7
  6
CONTINUOUS
 10
96.7347681754
 20
227.2460398073
 11
96.7347681754
 21
220.5560398073
  0
LINE
  8
0
 62
7
  6
CONTINUOUS
 10
96.7897681754
 20
212.556108903
 11
96.7897681754
 21
218.0560398073
  0
LINE
  8
2_FEATURE
 62
7
  6
CONTINUOUS
 10
96.8647680919
 20
218.1560398073
 11
96.8647680919
 21
218.0560398073
  0
LINE
  8
0
 62
7
  6
CONTINUOUS
 10
97.0397681754
 20
212.5560410603
 11
97.0397681754
 21
220.0560398073
  0
LINE
  8
0
 62
7
  6
CONTINUOUS
 10
97.0947681754
 20
220.2840200696
 11
97.0947681754
 21
227.2460398073
  0
LINE
  8
0
 62
7
  6
CONTINUOUS
 10
98.2247681754
 20
227.2460398073
 11
98.2247681754
 21
220.5560398073
  0
POLYLINE
  8
0
 62
7
  6
CONTINUOUS
 66
1
 70
0
  0
VERTEX
  8
0
 62
7
  6
CONTINUOUS
 10
111.4324367954
 20
213.9150841763
  0
VERTEX
  8
0
 62
7
  6
CONTINUOUS
 10
111.4422541759
 20
213.920015115
  0
VERTEX
  8
0
 62
7
  6
CONTINUOUS
 10
111.4580724089
 20
213.9262699662
  0
VERTEX
  8
0
 62
7
  6
CONTINUOUS
 10
111.4736340993
 20
213.9302160404
  0
VERTEX
  8
0
 62
7
  6
CONTINUOUS
 10
111.4904202918
 20
213.9317583669
  0
VERTEX
  8
0
 62
7
  6
CONTINUOUS
 10
111.5083457617
 20
213.9301362636
  0
VERTEX
  8
0
 62
7
  6
CONTINUOUS
 10
111.5261837482
 20
213.9253492887
  0
VERTEX
  8
0
 62
7
  6
CONTINUOUS
 10
111.5432977209
 20
213.9180926928
  0
VERTEX
  8
0
 62
7
  6
CONTINUOUS
 10
111.5597348093
 20
213.9088844396
  0
VERTEX
  8
0
 62
7
  6
CONTINUOUS
 10
111.5754287856
 20
213.8981483216
  0
VERTEX
  8
0
 62
7
  6
CONTINUOUS
 10
111.590478046
 20
213.8860979641
  0
VERTEX
  8
0
 62
7
  6
CONTINUOUS
 10
111.6051102157
 20
213.8727110669
  0
VERTEX
  8
0
 62
7
  6
CONTINUOUS
 10
111.6192847472
 20
213.8581014126
  0
VERTEX
  8
0
 62
7
  6
CONTINUOUS
 10
111.6330374549
 20
213.8422783235
  0
VERTEX
  8
0
 62
7
  6
CONTINUOUS
 10
111.6464456093
 20
213.8251352518
  0
VERTEX
  8
0
 62
7
  6
CONTINUOUS
 10
111.6594787295
 20
213.8066397486
  0
VERTEX
  8
0
 62
7
  6
CONTINUOUS
 10
111.6720041215
 20
213.7868826448
  0
VERTEX
  8
0
 62
7
  6
CONTINUOUS
 10
111.6838898422
 20
213.7659666908
  0
VERTEX
  8
0
 62
7
  6
CONTINUOUS
 10
111.6949889162
 20
213.7440334149
  0
VERTEX
  8
0
 62
7
  6
CONTINUOUS
 10
111.7051600991
 20
213.7212390119
  0
VERTEX
  8
0
 62
7
  6
CONTINUOUS
 10
111.7142619163
 20
213.6977613674
  0
VERTEX
  8
0
 62
7
  6
CONTINUOUS
 10
111.7221717408
 20
213.6737579583
  0
VERTEX
  8
0
 62
7
  6
CONTINUOUS
 10
111.7287539258
 20
213.6494504827
  0
VERTEX
  8
0
 62
7
  6
CONTINUOUS
 10
111.7338915814
 20
213.6250501987
  0
VERTEX
  8
0
 62
7
  6
CONTINUOUS
 10
111.7374732307
 20
213.6008246134
  0
VERTEX
  8
0
 62
7
  6
CONTINUOUS
 10
111.7394158221
 20
213.5770008585
  0
VERTEX
  8
0
 62
7
  6
CONTINUOUS
 10
111.7397684817
 20
213.5620981539
  0
SEQEND
  0
LINE
  8
0
 62
7
  6
CONTINUOUS
 10
101.9547681754
 20
220.5560398073
 11
101.9547681754
 21
227.2460398073
  0
LINE
  8
0
 62
7
  6
CONTINUOUS
 10
107.9161267137
 20
218.1550494621
 11
107.4171170589
 21
217.6560398073
  0
POLYLINE
  8
0
 62
7
  6
CONTINUOUS
 66
1
 70
0
  0
VERTEX
  8
0
 62
7
  6
CONTINUOUS
 10
109.7397681754
 20
217.3197684322
  0
VERTEX
  8
0
 62
7
  6
CONTINUOUS
 10
109.7541712876
 20
217.3340010249
  0
VERTEX
  8
0
 62
7
  6
CONTINUOUS
 10
109.7966376473
 20
217.3472361036
  0
VERTEX
  8
0
 62
7
  6
CONTINUOUS
 10
109.8648489201
 20
217.3587613292
  0
VERTEX
  8
0
 62
7
  6
CONTINUOUS
 10
109.9074640554
 20
217.363688553
  0
VERTEX
  8
0
 62
7
  6
CONTINUOUS
 10
110.0066699636
 20
217.3715525914
  0
VERTEX
  8
0
 62
7
  6
CONTINUOUS
 10
110.1196274769
 20
217.3764404257
  0
VERTEX
  8
0
 62
7
  6
CONTINUOUS
 10
110.2397681754
 20
217.3780994762
  0
SEQEND
  0
POLYLINE
  8
0
 62
7
  6
CONTINUOUS
 66
1
 70
0
  0
VERTEX
  8
0
 62
7
  6
CONTINUOUS
 10
115.8397681754
 20
217.3197684322
  0
VERTEX
  8
0
 62
7
  6
CONTINUOUS
 10
115.8253650632
 20
217.3340010249
  0
VERTEX
  8
0
 62
7
  6
CONTINUOUS
 10
115.7828987034
 20
217.3472361036
  0
VERTEX
  8
0
 62
7
  6
CONTINUOUS
 10
115.7146874306
 20
217.3587613292
  0
VERTEX
  8
0
 62
7
  6
CONTINUOUS
 10
115.6720722953
 20
217.363688553
  0
VERTEX
  8
0
 62
7
  6
CONTINUOUS
 10
115.5728663871
 20
217.3715525914
  0
VERTEX
  8
0
 62
7
  6
CONTINUOUS
 10
115.4599088738
 20
217.3764404257
  0
VERTEX
  8
0
 62
7
  6
CONTINUOUS
 10
115.3397681754
 20
217.3780994762
  0
SEQEND
  0
LINE
  8
0
 62
7
  6
CONTINUOUS
 10
103.0847681754
 20
227.2460398073
 11
103.0847681754
 21
220.2840200696
  0
LINE
  8
0
 62
7
  6
CONTINUOUS
 10
103.1397681754
 20
212.5560398073
 11
103.1397681754
 21
220.0560398073
  0
LINE
  8
0
 62
7
  6
CONTINUOUS
 10
103.4447681754
 20
220.5560398073
 11
103.4447681754
 21
227.2460398073
  0
LINE
  8
0
 62
7
  6
CONTINUOUS
 10
104.5747681754
 20
227.2460398073
 11
104.5747681754
 21
220.5560398073
  0
LINE
  8
0
 62
7
  6
CONTINUOUS
 10
104.9897681754
 20
212.5560398073
 11
104.9897681754
 21
214.333002002
  0
POLYLINE
  8
0
 62
7
  6
CONTINUOUS
 66
1
 70
0
  0
VERTEX
  8
0
 62
7
  6
CONTINUOUS
 10
103.7404620136
 20
212.4107253715
  0
VERTEX
  8
0
 62
7
  6
CONTINUOUS
 10
103.7474208534
 20
212.4367548571
  0
VERTEX
  8
0
 62
7
  6
CONTINUOUS
 10
103.7610424177
 20
212.5560398073
  0
SEQEND
  0
LINE
  8
0
 62
7
  6
CONTINUOUS
 10
103.7404625799
 20
212.4107271865
 11
103.9726504298
 21
213.1936966264
  0
LINE
  8
0
 62
7
  6
CONTINUOUS
 10
103.9726551555
 20
213.193712529
 11
103.9760115355
 21
213.2042516351
  0
LINE
  8
0
 62
7
  6
CONTINUOUS
 10
118.1624192918
 20
217.6560398073
 11
117.663409637
 21
218.1550494621
  0
POLYLINE
  8
0
 62
7
  6
CONTINUOUS
 66
1
 70
0
  0
VERTEX
  8
0
 62
7
  6
CONTINUOUS
 10
117.9692289144
 20
213.858133408
  0
VERTEX
  8
0
 62
7
  6
CONTINUOUS
 10
117.9825268779
 20
213.8428965205
  0
VERTEX
  8
0
 62
7
  6
CONTINUOUS
 10
117.9959682384
 20
213.8257768781
  0
VERTEX
  8
0
 62
7
  6
CONTINUOUS
 10
118.0090303404
 20
213.8073090173
  0
SEQEND
  0
LINE
  8
0
 62
7
  6
CONTINUOUS
 10
111.6694004485
 20
213.7911671669
 11
111.7137655912
 21
213.6990416109
  0
POLYLINE
  8
0
 62
7
  6
CONTINUOUS
 66
1
 70
0
  0
VERTEX
  8
0
 62
7
  6
CONTINUOUS
 10
108.9039818787
 20
213.2030968716
  0
VERTEX
  8
0
 62
7
  6
CONTINUOUS
 10
108.9034795913
 20
213.2043765944
  0
VERTEX
  8
0
 62
7
  6
CONTINUOUS
 10
108.9068815098
 20
213.1937114681
  0
SEQEND
  0
LINE
  8
0
 62
7
  6
CONTINUOUS
 10
108.906885921
 20
213.1936966264
 11
109.1390737709
 21
212.4107271865
  0
POLYLINE
  8
0
 62
7
  6
CONTINUOUS
 66
1
 70
0
  0
VERTEX
  8
0
 62
7
  6
CONTINUOUS
 10
109.7397677813
 20
213.9149666999
  0
VERTEX
  8
0
 62
7
  6
CONTINUOUS
 10
109.7495533215
 20
213.7862137305
  0
VERTEX
  8
0
 62
7
  6
CONTINUOUS
 10
109.7824678028
 20
213.6592748216
  0
VERTEX
  8
0
 62
7
  6
CONTINUOUS
 10
109.8368098348
 20
213.5522451134
  0
VERTEX
  8
0
 62
7
  6
CONTINUOUS
 10
109.9073858175
 20
213.4701807042
  0
VERTEX
  8
0
 62
7
  6
CONTINUOUS
 10
109.9469940889
 20
213.4387396976
  0
VERTEX
  8
0
 62
7
  6
CONTINUOUS
 10
110.0330612943
 20
213.3938597747
  0
VERTEX
  8
0
 62
7
  6
CONTINUOUS
 10
110.1267043112
 20
213.3725950667
  0
VERTEX
  8
0
 62
7
  6
CONTINUOUS
 10
110.2258080027
 20
213.3759894667
  0
VERTEX
  8
0
 62
7
  6
CONTINUOUS
 10
110.3129171612
 20
213.4000443467
  0
SEQEND
  0
LINE
  8
0
 62
7
  6
CONTINUOUS
 10
107.8897681754
 20
212.5560398073
 11
107.8897681754
 21
214.3330019904
  0
LINE
  8
0
 62
7
  6
CONTINUOUS
 10
108.3047681754
 20
220.5560398073
 11
108.3047681754
 21
227.2460398073
  0
LINE
  8
0
 62
7
  6
CONTINUOUS
 10
120.6160104081
 20
218.1550602451
 11
120.1169899703
 21
217.6560398073
  0
POLYLINE
  8
0
 62
7
  6
CONTINUOUS
 66
1
 70
0
  0
VERTEX
  8
0
 62
7
  6
CONTINUOUS
 10
125.2397681754
 20
217.3197684322
  0
VERTEX
  8
0
 62
7
  6
CONTINUOUS
 10
125.2253650632
 20
217.3340010249
  0
VERTEX
  8
0
 62
7
  6
CONTINUOUS
 10
125.1828987034
 20
217.3472361036
  0
VERTEX
  8
0
 62
7
  6
CONTINUOUS
 10
125.1146874306
 20
217.3587613292
  0
VERTEX
  8
0
 62
7
  6
CONTINUOUS
 10
125.0720722953
 20
217.363688553
  0
VERTEX
  8
0
 62
7
  6
CONTINUOUS
 10
124.9728663871
 20
217.3715525914
  0
VERTEX
  8
0
 62
7
  6
CONTINUOUS
 10
124.8599088738
 20
217.3764404257
  0
VERTEX
  8
0
 62
7
  6
CONTINUOUS
 10
124.7397681754
 20
217.3780994762
  0
SEQEND
  0
LINE
  8
0
 62
7
  6
CONTINUOUS
 10
118.0090303404
 20
213.8073090173
 11
118.0197041763
 21
213.7905348966
  0
POLYLINE
  8
0
 62
7
  6
CONTINUOUS
 66
1
 70
0
  0
VERTEX
  8
0
 62
7
  6
CONTINUOUS
 10
117.9746649794
 20
213.8662421305
  0
VERTEX
  8
0
 62
7
  6
CONTINUOUS
 10
117.9766749469
 20
213.862716309
  0
VERTEX
  8
0
 62
7
  6
CONTINUOUS
 10
117.9921871032
 20
213.8361824769
  0
VERTEX
  8
0
 62
7
  6
CONTINUOUS
 10
118.0057714885
 20
213.8135104099
  0
VERTEX
  8
0
 62
7
  6
CONTINUOUS
 10
118.0193824084
 20
213.7911994154
  0
SEQEND
  0
POLYLINE
  8
0
 62
7
  6
CONTINUOUS
 66
1
 70
0
  0
VERTEX
  8
0
 62
7
  6
CONTINUOUS
 10
109.1390743371
 20
212.4107253715
  0
VERTEX
  8
0
 62
7
  6
CONTINUOUS
 10
109.1321154973
 20
212.4367548571
  0
VERTEX
  8
0
 62
7
  6
CONTINUOUS
 10
109.118493933
 20
212.5560398073
  0
SEQEND
  0
LINE
  8
0
 62
7
  6
CONTINUOUS
 10
109.4347681754
 20
227.2460398073
 11
109.4347681754
 21
220.5560398073
  0
LINE
  8
0
 62
7
  6
CONTINUOUS
 10
109.7397681754
 20
212.5560398073
 11
109.7397681754
 21
220.0560398073
  0
LINE
  8
0
 62
7
  6
CONTINUOUS
 10
109.7947681754
 20
220.2840200696
 11
109.7947681754
 21
227.2460398073
  0
LINE
  8
0
 62
7
  6
CONTINUOUS
 10
110.9247681754
 20
227.2460398073
 11
110.9247681754
 21
220.5560398073
  0
LINE
  8
0
 62
7
  6
CONTINUOUS
 10
111.3397681754
 20
212.5560398073
 11
111.3397681754
 21
212.9204374166
  0
LINE
  8
0
 62
7
  6
CONTINUOUS
 10
111.7397681754
 20
213.5620968384
 11
111.7397681754
 21
212.2560398073
  0
POLYLINE
  8
0
 62
7
  6
CONTINUOUS
 66
1
 70
0
  0
VERTEX
  8
0
 62
7
  6
CONTINUOUS
 10
111.3397677879
 20
212.9203985659
  0
VERTEX
  8
0
 62
7
  6
CONTINUOUS
 10
111.3588725461
 20
213.1415092295
  0
VERTEX
  8
0
 62
7
  6
CONTINUOUS
 10
111.420522281
 20
213.3938619366
  0
VERTEX
  8
0
 62
7
  6
CONTINUOUS
 10
111.5185230802
 20
213.6438530232
  0
SEQEND
  0
POLYLINE
  8
0
 62
7
  6
CONTINUOUS
 66
1
 70
0
  0
VERTEX
  8
0
 62
7
  6
CONTINUOUS
 10
111.5576925037
 20
213.7288825508
  0
VERTEX
  8
0
 62
7
  6
CONTINUOUS
 10
111.564092812
 20
213.7432153928
  0
VERTEX
  8
0
 62
7
  6
CONTINUOUS
 10
111.5872911386
 20
213.7961926639
  0
SEQEND
  0
POLYLINE
  8
0
 62
7
  6
CONTINUOUS
 66
1
 70
0
  0
VERTEX
  8
0
 62
7
  6
CONTINUOUS
 10
111.5872911386
 20
213.7961926639
  0
VERTEX
  8
0
 62
7
  6
CONTINUOUS
 10
111.5926620293
 20
213.8081145262
  0
VERTEX
  8
0
 62
7
  6
CONTINUOUS
 10
111.5980878629
 20
213.8196801008
  0
VERTEX
  8
0
 62
7
  6
CONTINUOUS
 10
111.6035561056
 20
213.8307414457
  0
VERTEX
  8
0
 62
7
  6
CONTINUOUS
 10
111.6090513312
 20
213.8411849574
  0
VERTEX
  8
0
 62
7
  6
CONTINUOUS
 10
111.6146216871
 20
213.8510147205
  0
VERTEX
  8
0
 62
7
  6
CONTINUOUS
 10
111.6191215333
 20
213.8582696368
  0
SEQEND
  0
LINE
  8
0
 62
7
  6
CONTINUOUS
 10
111.544018643
 20
213.6988286836
 11
111.5576925037
 21
213.7288825508
  0
POLYLINE
  8
0
 62
7
  6
CONTINUOUS
 66
1
 70
0
  0
VERTEX
  8
0
 62
7
  6
CONTINUOUS
 10
111.5185222798
 20
213.6438541965
  0
VERTEX
  8
0
 62
7
  6
CONTINUOUS
 10
111.5210696259
 20
213.6493266026
  0
VERTEX
  8
0
 62
7
  6
CONTINUOUS
 10
111.544018643
 20
213.6988286836
  0
SEQEND
  0
LINE
  8
0
 62
7
  6
CONTINUOUS
 10
125.2397681754
 20
219.9461529073
 11
125.4397681754
 21
219.7305549239
  0
POLYLINE
  8
0
 62
7
  6
CONTINUOUS
 66
1
 70
0
  0
VERTEX
  8
0
 62
7
  6
CONTINUOUS
 10
118.019399991
 20
213.79116791
  0
VERTEX
  8
0
 62
7
  6
CONTINUOUS
 10
118.0641934834
 20
213.6979520685
  0
VERTEX
  8
0
 62
7
  6
CONTINUOUS
 10
118.0791634307
 20
213.6477364449
  0
VERTEX
  8
0
 62
7
  6
CONTINUOUS
 10
118.0897684364
 20
213.5621581274
  0
SEQEND
  0
LINE
  8
0
 62
7
  6
CONTINUOUS
 10
114.6547681754
 20
220.5560398073
 11
114.6547681754
 21
227.2460398073
  0
LINE
  8
0
 62
7
  6
CONTINUOUS
 10
115.7847681754
 20
227.2460398073
 11
115.7847681754
 21
220.2840200696
  0
LINE
  8
0
 62
7
  6
CONTINUOUS
 10
115.8397681754
 20
212.5560398073
 11
115.8397681754
 21
220.0560398073
  0
LINE
  8
0
 62
7
  6
CONTINUOUS
 10
116.1447681754
 20
220.5560398073
 11
116.1447681754
 21
227.2460398073
  0
POLYLINE
  8
0
 62
7
  6
CONTINUOUS
 66
1
 70
0
  0
VERTEX
  8
0
 62
7
  6
CONTINUOUS
 10
125.2397681754
 20
215.4923111823
  0
VERTEX
  8
0
 62
7
  6
CONTINUOUS
 10
125.2253650632
 20
215.4780785896
  0
VERTEX
  8
0
 62
7
  6
CONTINUOUS
 10
125.1828987034
 20
215.4648435109
  0
VERTEX
  8
0
 62
7
  6
CONTINUOUS
 10
125.1146874306
 20
215.4533182853
  0
VERTEX
  8
0
 62
7
  6
CONTINUOUS
 10
125.0720722953
 20
215.4483910615
  0
VERTEX
  8
0
 62
7
  6
CONTINUOUS
 10
124.9728663871
 20
215.4405270231
  0
VERTEX
  8
0
 62
7
  6
CONTINUOUS
 10
124.8599088738
 20
215.4356391888
  0
VERTEX
  8
0
 62
7
  6
CONTINUOUS
 10
124.7397681754
 20
215.4339801383
  0
SEQEND
  0
POLYLINE
  8
0
 62
7
  6
CONTINUOUS
 66
1
 70
0
  0
VERTEX
  8
0
 62
7
  6
CONTINUOUS
 10
118.0641396252
 20
213.698064148
  0
VERTEX
  8
0
 62
7
  6
CONTINUOUS
 10
118.0719361735
 20
213.6745396337
  0
VERTEX
  8
0
 62
7
  6
CONTINUOUS
 10
118.0785655904
 20
213.6502288746
  0
VERTEX
  8
0
 62
7
  6
CONTINUOUS
 10
118.0789259348
 20
213.6485331081
  0
SEQEND
  0
LINE
  8
0
 62
7
  6
CONTINUOUS
 10
117.2747681754
 20
227.2460398073
 11
117.2747681754
 21
220.5560398073
  0
LINE
  8
0
 62
7
  6
CONTINUOUS
 10
117.6897681754
 20
212.5560398073
 11
117.6897681754
 21
214.333001983
  0
LINE
  8
0
 62
7
  6
CONTINUOUS
 10
118.0897681734
 20
213.5621578821
 11
118.0897681754
 21
212.2560398073
  0
POLYLINE
  8
0
 62
7
  6
CONTINUOUS
 66
1
 70
0
  0
VERTEX
  8
0
 62
7
  6
CONTINUOUS
 10
117.6897677923
 20
212.9203980092
  0
VERTEX
  8
0
 62
7
  6
CONTINUOUS
 10
117.7090728635
 20
213.1427172542
  0
VERTEX
  8
0
 62
7
  6
CONTINUOUS
 10
117.7709007418
 20
213.3950446329
  0
VERTEX
  8
0
 62
7
  6
CONTINUOUS
 10
117.8685231718
 20
213.6438530291
  0
SEQEND
  0
POLYLINE
  8
0
 62
7
  6
CONTINUOUS
 66
1
 70
0
  0
VERTEX
  8
0
 62
7
  6
CONTINUOUS
 10
116.4404620136
 20
212.4107253715
  0
VERTEX
  8
0
 62
7
  6
CONTINUOUS
 10
116.4474208534
 20
212.4367548571
  0
VERTEX
  8
0
 62
7
  6
CONTINUOUS
 10
116.4610424177
 20
212.5560398073
  0
SEQEND
  0
LINE
  8
0
 62
7
  6
CONTINUOUS
 10
116.4404625799
 20
212.4107271865
 11
116.6726504298
 21
213.1936966264
  0
LINE
  8
0
 62
7
  6
CONTINUOUS
 10
116.6726551555
 20
213.193712529
 11
116.6760115355
 21
213.2042516351
  0
POLYLINE
  8
0
 62
7
  6
CONTINUOUS
 66
1
 70
0
  0
VERTEX
  8
0
 62
7
  6
CONTINUOUS
 10
117.9349352426
 20
213.7904931549
  0
VERTEX
  8
0
 62
7
  6
CONTINUOUS
 10
117.939106593
 20
213.7998421186
  0
VERTEX
  8
0
 62
7
  6
CONTINUOUS
 10
117.9431261845
 20
213.8086630617
  0
VERTEX
  8
0
 62
7
  6
CONTINUOUS
 10
117.9470844456
 20
213.8171088981
  0
VERTEX
  8
0
 62
7
  6
CONTINUOUS
 10
117.9510113815
 20
213.8252078805
  0
VERTEX
  8
0
 62
7
  6
CONTINUOUS
 10
117.9549233538
 20
213.832964702
  0
VERTEX
  8
0
 62
7
  6
CONTINUOUS
 10
117.9588459769
 20
213.8403989713
  0
VERTEX
  8
0
 62
7
  6
CONTINUOUS
 10
117.9628309247
 20
213.8475682114
  0
VERTEX
  8
0
 62
7
  6
CONTINUOUS
 10
117.9668936195
 20
213.8544486751
  0
VERTEX
  8
0
 62
7
  6
CONTINUOUS
 10
117.9710441696
 20
213.860997599
  0
VERTEX
  8
0
 62
7
  6
CONTINUOUS
 10
117.9754052679
 20
213.8673143951
  0
VERTEX
  8
0
 62
7
  6
CONTINUOUS
 10
117.9801135781
 20
213.8734477008
  0
VERTEX
  8
0
 62
7
  6
CONTINUOUS
 10
117.9851249003
 20
213.8792084597
  0
VERTEX
  8
0
 62
7
  6
CONTINUOUS
 10
117.9902770885
 20
213.8843170207
  0
VERTEX
  8
0
 62
7
  6
CONTINUOUS
 10
117.995598237
 20
213.8886878803
  0
VERTEX
  8
0
 62
7
  6
CONTINUOUS
 10
117.9993004433
 20
213.8910787093
  0
VERTEX
  8
0
 62
7
  6
CONTINUOUS
 10
118.0001054843
 20
213.891487114
  0
SEQEND
  0
POLYLINE
  8
0
 62
7
  6
CONTINUOUS
 66
1
 70
0
  0
VERTEX
  8
0
 62
7
  6
CONTINUOUS
 10
117.9094457914
 20
213.732652056
  0
VERTEX
  8
0
 62
7
  6
CONTINUOUS
 10
117.9151978811
 20
213.7455389115
  0
VERTEX
  8
0
 62
7
  6
CONTINUOUS
 10
117.9349352426
 20
213.7904931549
  0
SEQEND
  0
LINE
  8
0
 62
7
  6
CONTINUOUS
 10
117.8974553185
 20
213.7062519017
 11
117.9094457914
 21
213.732652056
  0
POLYLINE
  8
0
 62
7
  6
CONTINUOUS
 66
1
 70
0
  0
VERTEX
  8
0
 62
7
  6
CONTINUOUS
 10
117.8685223259
 20
213.6438541745
  0
VERTEX
  8
0
 62
7
  6
CONTINUOUS
 10
117.8769752575
 20
213.6620083501
  0
VERTEX
  8
0
 62
7
  6
CONTINUOUS
 10
117.8974553185
 20
213.7062519017
  0
SEQEND
  0
LINE
  8
0
 62
7
  6
CONTINUOUS
 10
120.5897681754
 20
212.5560398073
 11
120.5897681754
 21
214.3326017569
  0
LINE
  8
0
 62
7
  6
CONTINUOUS
 10
121.0047681754
 20
220.5560398073
 11
121.0047681754
 21
227.2460398073
  0
LINE
  8
0
 62
7
  6
CONTINUOUS
 10
122.1347681754
 20
227.2460398073
 11
122.1347681754
 21
220.5560398073
  0
LINE
  8
0
 62
7
  6
CONTINUOUS
 10
122.4397681754
 20
220.0560398073
 11
122.4397681754
 21
212.5560398073
  0
LINE
  8
0
 62
7
  6
CONTINUOUS
 10
122.4947681754
 20
220.2840200696
 11
122.4947681754
 21
227.2460398073
  0
LINE
  8
0
 62
7
  6
CONTINUOUS
 10
123.6247681754
 20
227.2460398073
 11
123.6247681754
 21
220.5560398073
  0
LINE
  8
0
 62
7
  6
CONTINUOUS
 10
125.2397681754
 20
220.0560398073
 11
125.2397681754
 21
212.5560398892
  0
LINE
  8
0
 62
7
  6
CONTINUOUS
 10
125.4397681754
 20
219.7305549239
 11
125.4397681754
 21
214.1926398073
  0
LINE
  8
0
 62
7
  6
CONTINUOUS
 10
125.4397753847
 20
214.1926398073
 11
125.4308548671
 21
214.0981904592
  0
POLYLINE
  8
0
 62
7
  6
CONTINUOUS
 66
1
 70
0
  0
VERTEX
  8
0
 62
7
  6
CONTINUOUS
 10
125.4308548671
 20
214.0981904592
  0
VERTEX
  8
0
 62
7
  6
CONTINUOUS
 10
125.4044875239
 20
214.007953249
  0
VERTEX
  8
0
 62
7
  6
CONTINUOUS
 10
125.3608063953
 20
213.9229607066
  0
SEQEND
  0
ARC
  8
0
 62
7
  6
CONTINUOUS
 10
24.6397681754
 20
85.5417940082
 40
0.5
 50
180.0
 51
270.0
  0
ARC
  8
0
 62
7
  6
CONTINUOUS
 10
34.0397681754
 20
85.5417940082
 40
0.5
 50
180.0
 51
270.0
  0
ARC
  8
0
 62
7
  6
CONTINUOUS
 10
26.4397681754
 20
85.5417940082
 40
0.5
 50
270.0
 51
360.0
  0
ARC
  8
0
 62
7
  6
CONTINUOUS
 10
39.1397681754
 20
85.5417940082
 40
0.5
 50
270.0
 51
360.0
  0
ARC
  8
0
 62
7
  6
CONTINUOUS
 10
46.7397681754
 20
85.5417940082
 40
0.5
 50
180.0
 51
270.0
  0
ARC
  8
0
 62
7
  6
CONTINUOUS
 10
34.1547681754
 20
89.2917940082
 40
0.56
 50
180.0
 51
270.0
  0
ARC
  8
0
 62
7
  6
CONTINUOUS
 10
34.1647681754
 20
89.2917940082
 40
0.56
 50
270.0
 51
360.0
  0
ARC
  8
0
 62
7
  6
CONTINUOUS
 10
26.3147681754
 20
89.2917940082
 40
0.56
 50
180.0
 51
270.0
  0
ARC
  8
0
 62
7
  6
CONTINUOUS
 10
26.3247681754
 20
89.2917940082
 40
0.56
 50
270.0
 51
360.0
  0
ARC
  8
0
 62
7
  6
CONTINUOUS
 10
46.8547681754
 20
89.2917940082
 40
0.56
 50
180.0
 51
270.0
  0
ARC
  8
0
 62
7
  6
CONTINUOUS
 10
46.8647681754
 20
89.2917940082
 40
0.56
 50
270.0
 51
360.0
  0
ARC
  8
0
 62
7
  6
CONTINUOUS
 10
39.0147681754
 20
89.2917940082
 40
0.56
 50
180.0
 51
270.0
  0
ARC
  8
0
 62
7
  6
CONTINUOUS
 10
39.0247681754
 20
89.2917940082
 40
0.56
 50
270.0
 51
360.0
  0
ARC
  8
0
 62
7
  6
CONTINUOUS
 10
39.4397681754
 20
92.2174236096
 40
0.2
 50
320.1993843472
 51
360.0
  0
ARC
  8
0
 62
7
  6
CONTINUOUS
 10
59.4397681754
 20
85.5417940082
 40
0.5
 50
180.0
 51
270.0
  0
ARC
  8
0
 62
7
  6
CONTINUOUS
 10
51.8397681754
 20
85.5417940082
 40
0.5
 50
270.0
 51
360.0
  0
ARC
  8
0
 62
7
  6
CONTINUOUS
 10
72.1397681754
 20
85.5417940082
 40
0.5
 50
180.0
 51
270.0
  0
ARC
  8
0
 62
7
  6
CONTINUOUS
 10
64.5397681754
 20
85.5417940082
 40
0.5
 50
270.0
 51
360.0
  0
ARC
  8
0
 62
7
  6
CONTINUOUS
 10
72.2647681754
 20
89.2917940082
 40
0.56
 50
270.0
 51
360.0
  0
ARC
  8
0
 62
7
  6
CONTINUOUS
 10
64.4247681754
 20
89.2917940082
 40
0.56
 50
270.0
 51
360.0
  0
ARC
  8
0
 62
7
  6
CONTINUOUS
 10
51.7247681754
 20
89.2917940082
 40
0.56
 50
270.0
 51
360.0
  0
ARC
  8
0
 62
7
  6
CONTINUOUS
 10
72.2547681754
 20
89.2917940082
 40
0.56
 50
180.0
 51
270.0
  0
ARC
  8
0
 62
7
  6
CONTINUOUS
 10
64.4147681754
 20
89.2917940082
 40
0.56
 50
180.0
 51
270.0
  0
ARC
  8
0
 62
7
  6
CONTINUOUS
 10
59.5547681754
 20
89.2917940082
 40
0.56
 50
180.0
 51
270.0
  0
ARC
  8
0
 62
7
  6
CONTINUOUS
 10
59.5647681754
 20
89.2917940082
 40
0.56
 50
270.0
 51
360.0
  0
ARC
  8
0
 62
7
  6
CONTINUOUS
 10
51.7147681754
 20
89.2917940082
 40
0.56
 50
180.0
 51
270.0
  0
ARC
  8
2_FEATURE
 62
7
  6
CONTINUOUS
 10
24.9397681754
 20
121.6980455094
 40
1.0
 50
144.1408399887
 51
180.0
  0
ARC
  8
0
 62
7
  6
CONTINUOUS
 10
33.0897681754
 20
124.4461644069
 40
0.2
 50
0.0
 51
39.8006156551
  0
ARC
  8
0
 62
7
  6
CONTINUOUS
 10
45.3647681754
 20
127.3717940082
 40
0.56
 50
90.0
 51
180.0
  0
ARC
  8
0
 62
7
  6
CONTINUOUS
 10
45.3747681754
 20
127.3717940082
 40
0.56
 50
0.0
 51
90.0
  0
ARC
  8
0
 62
7
  6
CONTINUOUS
 10
40.5047681754
 20
127.3717940082
 40
0.56
 50
90.0
 51
180.0
  0
ARC
  8
0
 62
7
  6
CONTINUOUS
 10
40.5147681754
 20
127.3717940082
 40
0.56
 50
0.0
 51
90.0
  0
ARC
  8
0
 62
7
  6
CONTINUOUS
 10
32.6647681754
 20
127.3717940082
 40
0.56
 50
90.0
 51
180.0
  0
ARC
  8
0
 62
7
  6
CONTINUOUS
 10
32.6747681754
 20
127.3717940082
 40
0.56
 50
0.0
 51
90.0
  0
ARC
  8
0
 62
7
  6
CONTINUOUS
 10
27.8047681754
 20
127.3717940082
 40
0.56
 50
90.0
 51
180.0
  0
ARC
  8
0
 62
7
  6
CONTINUOUS
 10
27.8147681754
 20
127.3717940082
 40
0.56
 50
0.0
 51
90.0
  0
ARC
  8
0
 62
7
  6
CONTINUOUS
 10
40.3897681754
 20
131.1217940082
 40
0.5
 50
90.0
 51
180.0
  0
ARC
  8
0
 62
7
  6
CONTINUOUS
 10
27.6897681754
 20
131.1217940082
 40
0.5
 50
90.0
 51
180.0
  0
ARC
  8
0
 62
7
  6
CONTINUOUS
 10
32.7897681754
 20
131.1217940082
 40
0.5
 50
0.0
 51
90.0
  0
ARC
  8
0
 62
7
  6
CONTINUOUS
 10
45.4897681754
 20
131.1217940082
 40
0.5
 50
0.0
 51
90.0
  0
ARC
  8
0
 62
7
  6
CONTINUOUS
 10
53.2047681754
 20
127.3717940082
 40
0.56
 50
90.0
 51
180.0
  0
ARC
  8
0
 62
7
  6
CONTINUOUS
 10
70.7647681754
 20
127.3717940082
 40
0.56
 50
90.0
 51
180.0
  0
ARC
  8
0
 62
7
  6
CONTINUOUS
 10
70.7747681754
 20
127.3717940082
 40
0.56
 50
0.0
 51
90.0
  0
ARC
  8
0
 62
7
  6
CONTINUOUS
 10
65.9047681754
 20
127.3717940082
 40
0.56
 50
90.0
 51
180.0
  0
ARC
  8
0
 62
7
  6
CONTINUOUS
 10
65.9147681754
 20
127.3717940082
 40
0.56
 50
0.0
 51
90.0
  0
ARC
  8
0
 62
7
  6
CONTINUOUS
 10
58.0647681754
 20
127.3717940082
 40
0.56
 50
90.0
 51
180.0
  0
ARC
  8
0
 62
7
  6
CONTINUOUS
 10
58.0747681754
 20
127.3717940082
 40
0.56
 50
0.0
 51
90.0
  0
ARC
  8
0
 62
7
  6
CONTINUOUS
 10
53.2147681754
 20
127.3717940082
 40
0.56
 50
0.0
 51
90.0
  0
ARC
  8
0
 62
7
  6
CONTINUOUS
 10
65.7897681754
 20
131.1217940082
 40
0.5
 50
90.0
 51
180.0
  0
ARC
  8
0
 62
7
  6
CONTINUOUS
 10
53.0897681754
 20
131.1217940082
 40
0.5
 50
90.0
 51
180.0
  0
ARC
  8
0
 62
7
  6
CONTINUOUS
 10
58.1897681754
 20
131.1217940082
 40
0.5
 50
0.0
 51
90.0
  0
ARC
  8
0
 62
7
  6
CONTINUOUS
 10
70.8897681754
 20
131.1217940082
 40
0.5
 50
0.0
 51
90.0
  0
ARC
  8
0
 62
7
  6
CONTINUOUS
 10
84.8397681754
 20
85.5417940082
 40
0.5
 50
180.0
 51
270.0
  0
ARC
  8
0
 62
7
  6
CONTINUOUS
 10
77.2397681754
 20
85.5417940082
 40
0.5
 50
270.0
 51
360.0
  0
ARC
  8
0
 62
7
  6
CONTINUOUS
 10
97.5397681754
 20
85.5417940082
 40
0.5
 50
180.0
 51
270.0
  0
ARC
  8
0
 62
7
  6
CONTINUOUS
 10
89.9397681754
 20
85.5417940082
 40
0.5
 50
270.0
 51
360.0
  0
ARC
  8
0
 62
7
  6
CONTINUOUS
 10
77.1247681754
 20
89.2917940082
 40
0.56
 50
270.0
 51
360.0
  0
ARC
  8
0
 62
7
  6
CONTINUOUS
 10
97.6547681754
 20
89.2917940082
 40
0.56
 50
180.0
 51
270.0
  0
ARC
  8
0
 62
7
  6
CONTINUOUS
 10
97.6647681754
 20
89.2917940082
 40
0.56
 50
270.0
 51
360.0
  0
ARC
  8
0
 62
7
  6
CONTINUOUS
 10
89.8147681754
 20
89.2917940082
 40
0.56
 50
180.0
 51
270.0
  0
ARC
  8
0
 62
7
  6
CONTINUOUS
 10
89.8247681754
 20
89.2917940082
 40
0.56
 50
270.0
 51
360.0
  0
ARC
  8
0
 62
7
  6
CONTINUOUS
 10
84.9547681754
 20
89.2917940082
 40
0.56
 50
180.0
 51
270.0
  0
ARC
  8
0
 62
7
  6
CONTINUOUS
 10
84.9647681754
 20
89.2917940082
 40
0.56
 50
270.0
 51
360.0
  0
ARC
  8
0
 62
7
  6
CONTINUOUS
 10
77.1147681754
 20
89.2917940082
 40
0.56
 50
180.0
 51
270.0
  0
ARC
  8
0
 62
7
  6
CONTINUOUS
 10
115.3397681754
 20
85.5417940082
 40
0.5
 50
270.0
 51
360.0
  0
ARC
  8
0
 62
7
  6
CONTINUOUS
 10
124.7397681754
 20
85.5417940082
 40
0.5
 50
270.0
 51
360.0
  0
ARC
  8
0
 62
7
  6
CONTINUOUS
 10
110.2397681754
 20
85.5417940082
 40
0.5
 50
180.0
 51
270.0
  0
ARC
  8
0
 62
7
  6
CONTINUOUS
 10
102.6397681754
 20
85.5417940082
 40
0.5
 50
270.0
 51
360.0
  0
ARC
  8
0
 62
7
  6
CONTINUOUS
 10
122.9397681754
 20
85.5417940082
 40
0.5
 50
180.0
 51
270.0
  0
ARC
  8
0
 62
7
  6
CONTINUOUS
 10
102.5247681754
 20
89.2917940082
 40
0.56
 50
270.0
 51
360.0
  0
ARC
  8
0
 62
7
  6
CONTINUOUS
 10
110.3547681754
 20
89.2917940082
 40
0.56
 50
180.0
 51
270.0
  0
ARC
  8
0
 62
7
  6
CONTINUOUS
 10
110.3647681754
 20
89.2917940082
 40
0.56
 50
270.0
 51
360.0
  0
ARC
  8
0
 62
7
  6
CONTINUOUS
 10
102.5147681754
 20
89.2917940082
 40
0.56
 50
180.0
 51
270.0
  0
ARC
  8
0
 62
7
  6
CONTINUOUS
 10
109.9397681754
 20
92.2174236096
 40
0.2
 50
180.0
 51
219.8006156551
  0
ARC
  8
0
 62
7
  6
CONTINUOUS
 10
123.0547681754
 20
89.2917940082
 40
0.56
 50
180.0
 51
270.0
  0
ARC
  8
0
 62
7
  6
CONTINUOUS
 10
123.0647681754
 20
89.2917940082
 40
0.56
 50
270.0
 51
360.0
  0
ARC
  8
0
 62
7
  6
CONTINUOUS
 10
115.2147681754
 20
89.2917940082
 40
0.56
 50
180.0
 51
270.0
  0
ARC
  8
0
 62
7
  6
CONTINUOUS
 10
115.2247681754
 20
89.2917940082
 40
0.56
 50
270.0
 51
360.0
  0
ARC
  8
0
 62
7
  6
CONTINUOUS
 10
91.3047681754
 20
127.3717940082
 40
0.56
 50
90.0
 51
180.0
  0
ARC
  8
0
 62
7
  6
CONTINUOUS
 10
96.1647681754
 20
127.3717940082
 40
0.56
 50
90.0
 51
180.0
  0
ARC
  8
0
 62
7
  6
CONTINUOUS
 10
96.1747681754
 20
127.3717940082
 40
0.56
 50
0.0
 51
90.0
  0
ARC
  8
0
 62
7
  6
CONTINUOUS
 10
91.3147681754
 20
127.3717940082
 40
0.56
 50
0.0
 51
90.0
  0
ARC
  8
0
 62
7
  6
CONTINUOUS
 10
83.4647681754
 20
127.3717940082
 40
0.56
 50
90.0
 51
180.0
  0
ARC
  8
0
 62
7
  6
CONTINUOUS
 10
83.4747681754
 20
127.3717940082
 40
0.56
 50
0.0
 51
90.0
  0
ARC
  8
0
 62
7
  6
CONTINUOUS
 10
78.6047681754
 20
127.3717940082
 40
0.56
 50
90.0
 51
180.0
  0
ARC
  8
0
 62
7
  6
CONTINUOUS
 10
78.6147681754
 20
127.3717940082
 40
0.56
 50
0.0
 51
90.0
  0
ARC
  8
0
 62
7
  6
CONTINUOUS
 10
78.4897681754
 20
131.1217940082
 40
0.5
 50
90.0
 51
180.0
  0
ARC
  8
0
 62
7
  6
CONTINUOUS
 10
96.2897681754
 20
131.1217940082
 40
0.5
 50
0.0
 51
90.0
  0
ARC
  8
0
 62
7
  6
CONTINUOUS
 10
83.5897681754
 20
131.1217940082
 40
0.5
 50
0.0
 51
90.0
  0
ARC
  8
0
 62
7
  6
CONTINUOUS
 10
91.1897681754
 20
131.1217940082
 40
0.5
 50
90.0
 51
180.0
  0
ARC
  8
2_FEATURE
 62
7
  6
CONTINUOUS
 10
124.4397681754
 20
121.6980455094
 40
1.0
 50
0.0
 51
35.8591600113
  0
ARC
  8
0
 62
7
  6
CONTINUOUS
 10
116.2897681754
 20
124.4461644069
 40
0.2
 50
140.1993843472
 51
180.0
  0
ARC
  8
0
 62
7
  6
CONTINUOUS
 10
104.0047681754
 20
127.3717940082
 40
0.56
 50
90.0
 51
180.0
  0
ARC
  8
0
 62
7
  6
CONTINUOUS
 10
121.5647681754
 20
127.3717940082
 40
0.56
 50
90.0
 51
180.0
  0
ARC
  8
0
 62
7
  6
CONTINUOUS
 10
121.5747681754
 20
127.3717940082
 40
0.56
 50
0.0
 51
90.0
  0
ARC
  8
0
 62
7
  6
CONTINUOUS
 10
116.7047681754
 20
127.3717940082
 40
0.56
 50
90.0
 51
180.0
  0
ARC
  8
0
 62
7
  6
CONTINUOUS
 10
116.7147681754
 20
127.3717940082
 40
0.56
 50
0.0
 51
90.0
  0
ARC
  8
0
 62
7
  6
CONTINUOUS
 10
108.8647681754
 20
127.3717940082
 40
0.56
 50
90.0
 51
180.0
  0
ARC
  8
0
 62
7
  6
CONTINUOUS
 10
108.8747681754
 20
127.3717940082
 40
0.56
 50
0.0
 51
90.0
  0
ARC
  8
0
 62
7
  6
CONTINUOUS
 10
104.0147681754
 20
127.3717940082
 40
0.56
 50
0.0
 51
90.0
  0
ARC
  8
0
 62
7
  6
CONTINUOUS
 10
121.6897681754
 20
131.1217940082
 40
0.5
 50
0.0
 51
90.0
  0
ARC
  8
0
 62
7
  6
CONTINUOUS
 10
116.5897681754
 20
131.1217940082
 40
0.5
 50
90.0
 51
180.0
  0
ARC
  8
0
 62
7
  6
CONTINUOUS
 10
108.9897681754
 20
131.1217940082
 40
0.5
 50
0.0
 51
90.0
  0
ARC
  8
0
 62
7
  6
CONTINUOUS
 10
103.8897681754
 20
131.1217940082
 40
0.5
 50
90.0
 51
180.0
  0
ARC
  8
0
 62
7
  6
CONTINUOUS
 10
159.9167213549
 20
92.9145010485
 40
0.5
 50
311.4951540653
 51
358.6903416646
  0
ARC
  8
0
 62
7
  6
CONTINUOUS
 10
163.1301213549
 20
89.0817940082
 40
5.0489999763
 50
48.818215835
 51
69.7203027258
  0
ARC
  8
0
 62
7
  6
CONTINUOUS
 10
163.1301213549
 20
89.2817940082
 40
4.35
 50
282.9124542829
 51
342.5584061437
  0
ARC
  8
0
 62
7
  6
CONTINUOUS
 10
163.1301213549
 20
89.2817940082
 40
4.35
 50
131.4951540653
 51
257.0875457171
  0
CIRCLE
  8
2_FEATURE
 62
7
  6
CONTINUOUS
 10
163.1301213549
 20
89.2817940082
 40
2.5
  0
ARC
  8
0
 62
7
  6
CONTINUOUS
 10
160.9167213549
 20
122.1980455094
 40
0.5
 50
90.0
 51
180.0
  0
ARC
  8
2_FEATURE
 62
7
  6
CONTINUOUS
 10
163.1301213549
 20
127.3817940082
 40
5.0
 50
290.4873151147
 51
311.5777957855
  0
ARC
  8
0
 62
7
  6
CONTINUOUS
 10
163.1301213549
 20
127.3817940082
 40
5.0
 50
290.4873151147
 51
311.5777957855
  0
ARC
  8
0
 62
7
  6
CONTINUOUS
 10
163.1301213549
 20
127.3817940082
 40
4.35
 50
17.4415938563
 51
77.0875457171
  0
ARC
  8
0
 62
7
  6
CONTINUOUS
 10
163.1301213549
 20
127.3817940082
 40
4.35
 50
102.9124542829
 51
180.0
  0
CIRCLE
  8
2_FEATURE
 62
7
  6
CONTINUOUS
 10
163.1301213549
 20
127.3817940082
 40
2.5
  0
ARC
  8
0
 62
7
  6
CONTINUOUS
 10
173.5301213549
 20
89.7317940082
 40
1.0
 50
270.0
 51
360.0
  0
ARC
  8
0
 62
7
  6
CONTINUOUS
 10
166.7801213549
 20
123.2674903978
 40
0.4999997237
 50
0.0
 51
131.5778493998
  0
ARC
  8
0
 62
7
  6
CONTINUOUS
 10
173.5301213549
 20
109.2280953541
 40
1.0
 50
0.0
 51
68.0
  0
ARC
  8
0
 62
7
  6
CONTINUOUS
 10
173.5301213549
 20
126.9317940082
 40
1.0
 50
0.0
 51
90.0
  0
ARC
  8
0
 62
7
  6
CONTINUOUS
 10
24.6397681754
 20
212.5560398073
 40
0.5
 50
180.0
 51
270.0
  0
ARC
  8
0
 62
7
  6
CONTINUOUS
 10
24.4397681754
 20
214.1926398073
 40
0.5
 50
212.6399595159
 51
230.7851013361
  0
ARC
  8
0
 62
7
  6
CONTINUOUS
 10
40.3897681754
 20
212.5560398073
 40
0.5
 50
180.0
 51
270.0
  0
ARC
  8
0
 62
7
  6
CONTINUOUS
 10
46.7397681754
 20
212.5560398073
 40
0.5
 50
180.0
 51
270.0
  0
ARC
  8
0
 62
7
  6
CONTINUOUS
 10
45.4897681754
 20
212.5560398073
 40
0.5
 50
270.0
 51
360.0
  0
ARC
  8
0
 62
7
  6
CONTINUOUS
 10
65.7897681754
 20
212.5560398073
 40
0.5
 50
180.0
 51
270.0
  0
ARC
  8
0
 62
7
  6
CONTINUOUS
 10
72.1397681754
 20
212.5560398073
 40
0.5
 50
180.0
 51
270.0
  0
ARC
  8
0
 62
7
  6
CONTINUOUS
 10
64.5397681754
 20
212.5560398073
 40
0.5
 50
270.0
 51
360.0
  0
ARC
  8
0
 62
7
  6
CONTINUOUS
 10
70.8897681754
 20
212.5560398073
 40
0.5
 50
270.0
 51
360.0
  0
ARC
  8
0
 62
7
  6
CONTINUOUS
 10
53.6897681754
 20
212.5560398073
 40
0.5
 50
270.0
 51
360.0
  0
ARC
  8
0
 62
7
  6
CONTINUOUS
 10
51.8397681754
 20
212.5560398073
 40
0.5
 50
270.0
 51
360.0
  0
ARC
  8
0
 62
7
  6
CONTINUOUS
 10
59.4397681754
 20
212.5560398073
 40
0.5
 50
180.0
 51
270.0
  0
ARC
  8
0
 62
7
  6
CONTINUOUS
 10
57.5897681754
 20
212.5560398073
 40
0.5
 50
180.0
 51
270.0
  0
ARC
  8
0
 62
7
  6
CONTINUOUS
 10
28.2897681754
 20
212.5560398073
 40
0.5
 50
270.0
 51
360.0
  0
ARC
  8
0
 62
7
  6
CONTINUOUS
 10
26.4397681754
 20
212.5560398073
 40
0.5
 50
270.0
 51
360.0
  0
ARC
  8
0
 62
7
  6
CONTINUOUS
 10
34.0397681754
 20
212.5560398073
 40
0.5
 50
180.0
 51
270.0
  0
ARC
  8
0
 62
7
  6
CONTINUOUS
 10
32.1897681754
 20
212.5560398073
 40
0.5
 50
180.0
 51
270.0
  0
ARC
  8
0
 62
7
  6
CONTINUOUS
 10
31.0897681754
 20
212.2560398073
 40
0.2
 50
270.0
 51
360.0
  0
ARC
  8
0
 62
7
  6
CONTINUOUS
 10
37.4397681754
 20
212.2560398073
 40
0.2
 50
270.0
 51
360.0
  0
ARC
  8
0
 62
7
  6
CONTINUOUS
 10
34.0397681754
 20
220.0560398073
 40
0.5
 50
90.0
 51
180.0
  0
ARC
  8
0
 62
7
  6
CONTINUOUS
 10
46.7397681754
 20
220.0560398073
 40
0.5
 50
90.0
 51
180.0
  0
ARC
  8
0
 62
7
  6
CONTINUOUS
 10
39.1397681754
 20
220.0560398073
 40
0.5
 50
0.0
 51
90.0
  0
ARC
  8
0
 62
7
  6
CONTINUOUS
 10
26.4397681754
 20
220.0560398073
 40
0.5
 50
0.0
 51
90.0
  0
ARC
  8
0
 62
7
  6
CONTINUOUS
 10
24.6397681754
 20
220.0560398073
 40
0.5
 50
90.0
 51
180.0
  0
ARC
  8
0
 62
7
  6
CONTINUOUS
 10
45.3647681754
 20
227.2460398073
 40
0.56
 50
90.0
 51
180.0
  0
ARC
  8
0
 62
7
  6
CONTINUOUS
 10
45.3747681754
 20
227.2460398073
 40
0.56
 50
0.0
 51
90.0
  0
ARC
  8
0
 62
7
  6
CONTINUOUS
 10
40.5047681754
 20
227.2460398073
 40
0.56
 50
90.0
 51
180.0
  0
ARC
  8
0
 62
7
  6
CONTINUOUS
 10
40.5147681754
 20
227.2460398073
 40
0.56
 50
0.0
 51
90.0
  0
ARC
  8
0
 62
7
  6
CONTINUOUS
 10
32.6647681754
 20
227.2460398073
 40
0.56
 50
90.0
 51
180.0
  0
ARC
  8
0
 62
7
  6
CONTINUOUS
 10
32.6747681754
 20
227.2460398073
 40
0.56
 50
0.0
 51
90.0
  0
ARC
  8
0
 62
7
  6
CONTINUOUS
 10
27.8047681754
 20
227.2460398073
 40
0.56
 50
90.0
 51
180.0
  0
ARC
  8
0
 62
7
  6
CONTINUOUS
 10
27.8147681754
 20
227.2460398073
 40
0.56
 50
0.0
 51
90.0
  0
ARC
  8
0
 62
7
  6
CONTINUOUS
 10
46.8547681754
 20
227.2460398073
 40
0.56
 50
90.0
 51
180.0
  0
ARC
  8
0
 62
7
  6
CONTINUOUS
 10
46.8647681754
 20
227.2460398073
 40
0.56
 50
0.0
 51
90.0
  0
ARC
  8
0
 62
7
  6
CONTINUOUS
 10
39.0147681754
 20
227.2460398073
 40
0.56
 50
90.0
 51
180.0
  0
ARC
  8
0
 62
7
  6
CONTINUOUS
 10
39.0247681754
 20
227.2460398073
 40
0.56
 50
0.0
 51
90.0
  0
ARC
  8
0
 62
7
  6
CONTINUOUS
 10
34.1547681754
 20
227.2460398073
 40
0.56
 50
90.0
 51
180.0
  0
ARC
  8
0
 62
7
  6
CONTINUOUS
 10
34.1647681754
 20
227.2460398073
 40
0.56
 50
0.0
 51
90.0
  0
ARC
  8
0
 62
7
  6
CONTINUOUS
 10
26.3147681754
 20
227.2460398073
 40
0.56
 50
90.0
 51
180.0
  0
ARC
  8
0
 62
7
  6
CONTINUOUS
 10
26.3247681754
 20
227.2460398073
 40
0.56
 50
0.0
 51
90.0
  0
ARC
  8
0
 62
7
  6
CONTINUOUS
 10
64.5397681754
 20
220.0560398073
 40
0.5
 50
0.0
 51
90.0
  0
ARC
  8
0
 62
7
  6
CONTINUOUS
 10
72.1397681754
 20
220.0560398073
 40
0.5
 50
90.0
 51
180.0
  0
ARC
  8
0
 62
7
  6
CONTINUOUS
 10
51.8397681754
 20
220.0560398073
 40
0.5
 50
0.0
 51
90.0
  0
ARC
  8
0
 62
7
  6
CONTINUOUS
 10
59.4397681754
 20
220.0560398073
 40
0.5
 50
90.0
 51
180.0
  0
ARC
  8
0
 62
7
  6
CONTINUOUS
 10
72.2647681754
 20
227.2460398073
 40
0.56
 50
0.0
 51
90.0
  0
ARC
  8
0
 62
7
  6
CONTINUOUS
 10
64.4247681754
 20
227.2460398073
 40
0.56
 50
0.0
 51
90.0
  0
ARC
  8
0
 62
7
  6
CONTINUOUS
 10
51.7247681754
 20
227.2460398073
 40
0.56
 50
0.0
 51
90.0
  0
ARC
  8
0
 62
7
  6
CONTINUOUS
 10
70.7647681754
 20
227.2460398073
 40
0.56
 50
90.0
 51
180.0
  0
ARC
  8
0
 62
7
  6
CONTINUOUS
 10
70.7747681754
 20
227.2460398073
 40
0.56
 50
0.0
 51
90.0
  0
ARC
  8
0
 62
7
  6
CONTINUOUS
 10
65.9047681754
 20
227.2460398073
 40
0.56
 50
90.0
 51
180.0
  0
ARC
  8
0
 62
7
  6
CONTINUOUS
 10
65.9147681754
 20
227.2460398073
 40
0.56
 50
0.0
 51
90.0
  0
ARC
  8
0
 62
7
  6
CONTINUOUS
 10
58.0647681754
 20
227.2460398073
 40
0.56
 50
90.0
 51
180.0
  0
ARC
  8
0
 62
7
  6
CONTINUOUS
 10
58.0747681754
 20
227.2460398073
 40
0.56
 50
0.0
 51
90.0
  0
ARC
  8
0
 62
7
  6
CONTINUOUS
 10
53.2047681754
 20
227.2460398073
 40
0.56
 50
90.0
 51
180.0
  0
ARC
  8
0
 62
7
  6
CONTINUOUS
 10
53.2147681754
 20
227.2460398073
 40
0.56
 50
0.0
 51
90.0
  0
ARC
  8
0
 62
7
  6
CONTINUOUS
 10
72.2547681754
 20
227.2460398073
 40
0.56
 50
90.0
 51
180.0
  0
ARC
  8
0
 62
7
  6
CONTINUOUS
 10
64.4147681754
 20
227.2460398073
 40
0.56
 50
90.0
 51
180.0
  0
ARC
  8
0
 62
7
  6
CONTINUOUS
 10
59.5547681754
 20
227.2460398073
 40
0.56
 50
90.0
 51
180.0
  0
ARC
  8
0
 62
7
  6
CONTINUOUS
 10
59.5647681754
 20
227.2460398073
 40
0.56
 50
0.0
 51
90.0
  0
ARC
  8
0
 62
7
  6
CONTINUOUS
 10
51.7147681754
 20
227.2460398073
 40
0.56
 50
90.0
 51
180.0
  0
ARC
  8
0
 62
7
  6
CONTINUOUS
 10
96.2897681754
 20
212.5560398073
 40
0.5
 50
270.0
 51
360.0
  0
ARC
  8
0
 62
7
  6
CONTINUOUS
 10
91.1897681754
 20
212.5560398073
 40
0.5
 50
180.0
 51
270.0
  0
ARC
  8
0
 62
7
  6
CONTINUOUS
 10
97.5397681754
 20
212.5560398073
 40
0.5
 50
180.0
 51
270.0
  0
ARC
  8
0
 62
7
  6
CONTINUOUS
 10
89.9397681754
 20
212.5560398073
 40
0.5
 50
270.0
 51
360.0
  0
ARC
  8
0
 62
7
  6
CONTINUOUS
 10
79.0897681754
 20
212.5560398073
 40
0.5
 50
270.0
 51
360.0
  0
ARC
  8
0
 62
7
  6
CONTINUOUS
 10
77.2397681754
 20
212.5560398073
 40
0.5
 50
270.0
 51
360.0
  0
ARC
  8
0
 62
7
  6
CONTINUOUS
 10
84.8397681754
 20
212.5560398073
 40
0.5
 50
180.0
 51
270.0
  0
ARC
  8
0
 62
7
  6
CONTINUOUS
 10
82.9897681754
 20
212.5560398073
 40
0.5
 50
180.0
 51
270.0
  0
ARC
  8
0
 62
7
  6
CONTINUOUS
 10
124.7397681754
 20
212.5560398073
 40
0.5
 50
270.0
 51
360.0
  0
ARC
  8
0
 62
7
  6
CONTINUOUS
 10
117.1897681754
 20
212.5560398073
 40
0.5
 50
270.0
 51
360.0
  0
ARC
  8
0
 62
7
  6
CONTINUOUS
 10
115.3397681754
 20
212.5560398073
 40
0.5
 50
270.0
 51
360.0
  0
ARC
  8
0
 62
7
  6
CONTINUOUS
 10
122.9397681754
 20
212.5560398073
 40
0.5
 50
180.0
 51
270.0
  0
ARC
  8
0
 62
7
  6
CONTINUOUS
 10
121.0897681754
 20
212.5560398073
 40
0.5
 50
180.0
 51
270.0
  0
ARC
  8
0
 62
7
  6
CONTINUOUS
 10
104.4897681754
 20
212.5560398073
 40
0.5
 50
270.0
 51
360.0
  0
ARC
  8
0
 62
7
  6
CONTINUOUS
 10
102.6397681754
 20
212.5560398073
 40
0.5
 50
270.0
 51
360.0
  0
ARC
  8
0
 62
7
  6
CONTINUOUS
 10
110.2397681754
 20
212.5560398073
 40
0.5
 50
179.9993266383
 51
270.0
  0
ARC
  8
0
 62
7
  6
CONTINUOUS
 10
108.3897681754
 20
212.5560398073
 40
0.5
 50
180.0
 51
270.0
  0
ARC
  8
0
 62
7
  6
CONTINUOUS
 10
110.8397681754
 20
212.5560398073
 40
0.5
 50
270.0
 51
360.0
  0
ARC
  8
0
 62
7
  6
CONTINUOUS
 10
111.9397681754
 20
212.2560398073
 40
0.2
 50
180.0
 51
270.0
  0
ARC
  8
0
 62
7
  6
CONTINUOUS
 10
118.2897681754
 20
212.2560398073
 40
0.2
 50
180.0
 51
270.0
  0
ARC
  8
0
 62
7
  6
CONTINUOUS
 10
124.9397681754
 20
214.1926398073
 40
0.5
 50
309.2151435207
 51
327.3600404841
  0
ARC
  8
0
 62
7
  6
CONTINUOUS
 10
97.5397681754
 20
220.0560398073
 40
0.5
 50
90.0
 51
180.0
  0
ARC
  8
0
 62
7
  6
CONTINUOUS
 10
89.9397681754
 20
220.0560398073
 40
0.5
 50
0.0
 51
90.0
  0
ARC
  8
0
 62
7
  6
CONTINUOUS
 10
77.2397681754
 20
220.0560398073
 40
0.5
 50
0.0
 51
90.0
  0
ARC
  8
0
 62
7
  6
CONTINUOUS
 10
84.8397681754
 20
220.0560398073
 40
0.5
 50
90.0
 51
180.0
  0
ARC
  8
0
 62
7
  6
CONTINUOUS
 10
77.1247681754
 20
227.2460398073
 40
0.56
 50
0.0
 51
90.0
  0
ARC
  8
0
 62
7
  6
CONTINUOUS
 10
96.1647681754
 20
227.2460398073
 40
0.56
 50
90.0
 51
180.0
  0
ARC
  8
0
 62
7
  6
CONTINUOUS
 10
96.1747681754
 20
227.2460398073
 40
0.56
 50
0.0
 51
90.0
  0
ARC
  8
0
 62
7
  6
CONTINUOUS
 10
91.3047681754
 20
227.2460398073
 40
0.56
 50
90.0
 51
180.0
  0
ARC
  8
0
 62
7
  6
CONTINUOUS
 10
91.3147681754
 20
227.2460398073
 40
0.56
 50
0.0
 51
90.0
  0
ARC
  8
0
 62
7
  6
CONTINUOUS
 10
83.4647681754
 20
227.2460398073
 40
0.56
 50
90.0
 51
180.0
  0
ARC
  8
0
 62
7
  6
CONTINUOUS
 10
83.4747681754
 20
227.2460398073
 40
0.56
 50
0.0
 51
90.0
  0
ARC
  8
0
 62
7
  6
CONTINUOUS
 10
78.6047681754
 20
227.2460398073
 40
0.56
 50
90.0
 51
180.0
  0
ARC
  8
0
 62
7
  6
CONTINUOUS
 10
78.6147681754
 20
227.2460398073
 40
0.56
 50
0.0
 51
90.0
  0
ARC
  8
0
 62
7
  6
CONTINUOUS
 10
97.6547681754
 20
227.2460398073
 40
0.56
 50
90.0
 51
180.0
  0
ARC
  8
0
 62
7
  6
CONTINUOUS
 10
97.6647681754
 20
227.2460398073
 40
0.56
 50
0.0
 51
90.0
  0
ARC
  8
0
 62
7
  6
CONTINUOUS
 10
89.8147681754
 20
227.2460398073
 40
0.56
 50
90.0
 51
180.0
  0
ARC
  8
0
 62
7
  6
CONTINUOUS
 10
89.8247681754
 20
227.2460398073
 40
0.56
 50
0.0
 51
90.0
  0
ARC
  8
0
 62
7
  6
CONTINUOUS
 10
84.9547681754
 20
227.2460398073
 40
0.56
 50
90.0
 51
180.0
  0
ARC
  8
0
 62
7
  6
CONTINUOUS
 10
84.9647681754
 20
227.2460398073
 40
0.56
 50
0.0
 51
90.0
  0
ARC
  8
0
 62
7
  6
CONTINUOUS
 10
77.1147681754
 20
227.2460398073
 40
0.56
 50
90.0
 51
180.0
  0
ARC
  8
0
 62
7
  6
CONTINUOUS
 10
122.9397681754
 20
220.0560398073
 40
0.5
 50
90.0
 51
180.0
  0
ARC
  8
0
 62
7
  6
CONTINUOUS
 10
115.3397681754
 20
220.0560398073
 40
0.5
 50
0.0
 51
90.0
  0
ARC
  8
0
 62
7
  6
CONTINUOUS
 10
102.6397681754
 20
220.0560398073
 40
0.5
 50
0.0
 51
90.0
  0
ARC
  8
0
 62
7
  6
CONTINUOUS
 10
110.2397681754
 20
220.0560398073
 40
0.5
 50
90.0
 51
180.0
  0
ARC
  8
0
 62
7
  6
CONTINUOUS
 10
124.7397681754
 20
220.0560398073
 40
0.5
 50
0.0
 51
90.0
  0
ARC
  8
0
 62
7
  6
CONTINUOUS
 10
102.5247681754
 20
227.2460398073
 40
0.56
 50
0.0
 51
90.0
  0
ARC
  8
0
 62
7
  6
CONTINUOUS
 10
121.5647681754
 20
227.2460398073
 40
0.56
 50
90.0
 51
180.0
  0
ARC
  8
0
 62
7
  6
CONTINUOUS
 10
121.5747681754
 20
227.2460398073
 40
0.56
 50
0.0
 51
90.0
  0
ARC
  8
0
 62
7
  6
CONTINUOUS
 10
116.7047681754
 20
227.2460398073
 40
0.56
 50
90.0
 51
180.0
  0
ARC
  8
0
 62
7
  6
CONTINUOUS
 10
116.7147681754
 20
227.2460398073
 40
0.56
 50
0.0
 51
90.0
  0
ARC
  8
0
 62
7
  6
CONTINUOUS
 10
108.8647681754
 20
227.2460398073
 40
0.56
 50
90.0
 51
180.0
  0
ARC
  8
0
 62
7
  6
CONTINUOUS
 10
108.8747681754
 20
227.2460398073
 40
0.56
 50
0.0
 51
90.0
  0
ARC
  8
0
 62
7
  6
CONTINUOUS
 10
104.0047681754
 20
227.2460398073
 40
0.56
 50
90.0
 51
180.0
  0
ARC
  8
0
 62
7
  6
CONTINUOUS
 10
104.0147681754
 20
227.2460398073
 40
0.56
 50
0.0
 51
90.0
  0
ARC
  8
0
 62
7
  6
CONTINUOUS
 10
123.0547681754
 20
227.2460398073
 40
0.56
 50
90.0
 51
180.0
  0
ARC
  8
0
 62
7
  6
CONTINUOUS
 10
123.0647681754
 20
227.2460398073
 40
0.56
 50
0.0
 51
90.0
  0
ARC
  8
0
 62
7
  6
CONTINUOUS
 10
115.2147681754
 20
227.2460398073
 40
0.56
 50
90.0
 51
180.0
  0
ARC
  8
0
 62
7
  6
CONTINUOUS
 10
115.2247681754
 20
227.2460398073
 40
0.56
 50
0.0
 51
90.0
  0
ARC
  8
0
 62
7
  6
CONTINUOUS
 10
110.3547681754
 20
227.2460398073
 40
0.56
 50
90.0
 51
180.0
  0
ARC
  8
0
 62
7
  6
CONTINUOUS
 10
110.3647681754
 20
227.2460398073
 40
0.56
 50
0.0
 51
90.0
  0
ARC
  8
0
 62
7
  6
CONTINUOUS
 10
102.5147681754
 20
227.2460398073
 40
0.56
 50
90.0
 51
180.0
  0
ENDSEC
  0
EOF
