  0
SECTION
  2
HEADER
  9
$EXTMAX
 10
210.0
 20
297.0
 30
0.0
  9
$EXTMIN
 10
0.0
 20
0.0
 30
0.0
  9
$LIMMIN
 10
0.0
 20
0.0
  9
$LIMMAX
 10
210.0
 20
297.0
  9
$VIEWCTR
 10
105.0
 20
148.5
  9
$VIEWSIZE
 40
297.0
  9
$CLAYER
  8
0
  9
$LTSCALE
 40
19.36
  9
$CELTYPE
  6
BYLAYER
  9
$DIMSCALE
 40
1.0
  9
$DIMASZ
 40
3.5
  9
$DIMEXO
 40
0.0
  9
$DIMDLI
 40
13.376
  9
$DIMEXE
 40
2.0
  9
$DIMCEN
 40
3.168
  9
$DIMLFAC
 40
1.0
  9
$DIMBLK
  1
_FILLED
  9
$DIMALT
 70
0
  9
$DIMALTF
 40
0.0393700787
  9
$DIMTXT
 40
3.5
  9
$AUNITS
 70
0
  9
$PDMODE
 70
3
  9
$PDSIZE
 40
0.3125
  9
$TILEMODE
 70
1
  0
ENDSEC
  0
SECTION
  2
TABLES
  0
TABLE
  2
LTYPE
 70
6
  0
LTYPE
  2
BYBLOCK
 70
0
  3

 72
65
 73
0
 40
0.0
  0
LTYPE
  2
BYLAYER
 70
0
  3

 72
65
 73
0
 40
0.0
  0
LTYPE
  2
CONTINUOUS
 70
64
  3
Solid line
 72
65
 73
0
 40
0.0
  0
LTYPE
  2
CENTER
 70
64
  3
____ _ ____ _ ____ _ ____ _ ____ _ ____ _ ____
 72
65
 73
4
 40
0.6
 49
0.375
 49
-0.075
 49
0.075
 49
-0.075
  0
LTYPE
  2
HIDDEN
 70
64
  3
- - - - - - - - - - - - - - - - - - - -
 72
65
 73
2
 40
0.2
 49
0.1
 49
-0.1
  0
LTYPE
  2
PHANTOM
 70
64
  3
_____ _ _ _____ _ _ _____ _ _ _____
 72
65
 73
6
 40
0.8
 49
0.45
 49
-0.05
 49
0.1
 49
-0.05
 49
0.1
 49
-0.05
  0
LTYPE
  2
DOT
 70
64
  3
. . . . . . . . . . . . . . . . . . . .
 72
65
 73
2
 40
0.2
 49
0.1
 49
-0.1
  0
LTYPE
  2
DASHED
 70
64
  3
- - - - - - - - - - - - - - - - - - - -
 72
65
 73
2
 40
0.2
 49
0.1
 49
-0.1
  0
ENDTAB
  0
TABLE
  2
LAYER
 70
36
  0
LAYER
  2
0
 70
0
 62
7
  6
CONTINUOUS
  0
LAYER
  2
DEFAULT_1
 70
0
 62
7
  6
CENTER
  0
LAYER
  2
DEFAULT_2
 70
0
 62
8
  6
HIDDEN
  0
LAYER
  2
DEFAULT_3
 70
0
 62
7
  6
PHANTOM
  0
LAYER
  2
AXES
 70
0
 62
7
  6
CONTINUOUS
  0
LAYER
  2
CSYS
 70
0
 62
7
  6
CONTINUOUS
  0
LAYER
  2
NOTES
 70
0
 62
7
  6
CONTINUOUS
  0
LAYER
  2
PLANES
 70
0
 62
7
  6
CONTINUOUS
  0
ENDTAB
  0
TABLE
  2
STYLE
 70
1
  0
STYLE
  2
STANDARD
 70
0
 40
0.0
 41
0.8
 50
0.0
 71
0
 42
0.2
  3
txt
  4

  0
STYLE
  2
TEXTSTYLE_1
 70
0
 40
0.0
 41
0.8
 50
0.0
 71
0
 42
0.2
  3
gdt
  4

  0
STYLE
  2
TEXTSTYLE_2
 70
0
 40
0.0
 41
0.6
 50
0.0
 71
0
 42
0.2
  3
txt
  4

  0
STYLE
  2
TEXTSTYLE_3
 70
0
 40
0.0
 41
1.0
 50
0.0
 71
0
 42
0.2
  3
ftb_____.ttf
  4

  0
STYLE
  2
TEXTSTYLE_4
 70
0
 40
0.0
 41
1.0
 50
0.0
 71
0
 42
0.2
  3
fti_____.ttf
  4

  0
STYLE
  2
TEXTSTYLE_5
 70
0
 40
0.0
 41
1.0
 50
0.0
 71
0
 42
0.2
  3
frutiger light.ttf
  4

  0
STYLE
  2
TEXTSTYLE_6
 70
0
 40
0.0
 41
0.7
 50
0.0
 71
0
 42
0.2
  3
txt
  4

  0
STYLE
  2
TEXTSTYLE_7
 70
0
 40
0.0
 41
0.8
 50
0.0
 71
0
 42
0.2
  3
txt
  4

  0
ENDTAB
  0
ENDSEC
  0
SECTION
  2
BLOCKS
  0
BLOCK
  8
0
 62
2
  6
CONTINUOUS
  2
UNI_LOGO2_BL1
 70
64
 10
173.5956734183
 20
35.5426498779
  0
TEXT
  8
0
 62
7
  6
CONTINUOUS
 10
164.6539584268
 20
30.6865562072
  7
TEXTSTYLE_4
 40
1.0655737705
  1
The brand for plastic modular belts and chains
 41
1.0
 72
0
  0
LINE
  8
0
 62
7
  6
CONTINUOUS
 10
149.5737418074
 20
36.1675703219
 11
149.5737418074
 21
34.0364227809
  0
LINE
  8
0
 62
7
  6
CONTINUOUS
 10
149.8628043005
 20
31.0454914852
 11
149.8628043005
 21
31.1422825445
  0
LINE
  8
0
 62
7
  6
CONTINUOUS
 10
149.5737418074
 20
31.1100188581
 11
149.6315543091
 21
30.9164367395
  0
LINE
  8
0
 62
7
  6
CONTINUOUS
 10
150.9671844304
 20
33.9544555678
 11
150.9671844304
 21
36.1675703219
  0
LINE
  8
0
 62
7
  6
CONTINUOUS
 10
151.8862417523
 20
32.1101932727
 11
151.8862417523
 21
30.5937998301
  0
LINE
  8
0
 62
7
  6
CONTINUOUS
 10
152.1753043074
 20
30.5937998301
 11
152.1753043074
 21
31.3358647082
  0
LINE
  8
0
 62
7
  6
CONTINUOUS
 10
152.1753043074
 20
31.4649194539
 11
152.1753043074
 21
32.1101932727
  0
LINE
  8
0
 62
7
  6
CONTINUOUS
 10
149.6315543091
 20
31.3036010218
 11
149.5737418074
 21
31.1100188581
  0
LINE
  8
0
 62
7
  6
CONTINUOUS
 10
149.9784292936
 20
30.8841730531
 11
149.8628043005
 21
31.0454914852
  0
LINE
  8
0
 62
7
  6
CONTINUOUS
 10
151.0768668626
 20
31.400392081
 11
151.1346793074
 21
31.3036010218
  0
LINE
  8
0
 62
7
  6
CONTINUOUS
 10
151.4237418626
 20
31.3036010218
 11
151.3659292523
 21
31.4326557675
  0
LINE
  8
0
 62
7
  6
CONTINUOUS
 10
152.852430332
 20
36.1675703219
 11
152.852430332
 21
34.3642916334
  0
LINE
  8
0
 62
7
  6
CONTINUOUS
 10
152.852430332
 20
33.0528162235
 11
152.852430332
 21
32.3970785186
  0
LINE
  8
0
 62
7
  6
CONTINUOUS
 10
153.2159293074
 20
31.2390736489
 11
153.2159293074
 21
30.5937998301
  0
LINE
  8
0
 62
7
  6
CONTINUOUS
 10
153.5049916972
 20
30.5937998301
 11
153.5049916972
 21
31.2390736489
  0
LINE
  8
0
 62
7
  6
CONTINUOUS
 10
149.8628043005
 20
31.1422825445
 11
149.9206168074
 21
31.2713373354
  0
LINE
  8
0
 62
7
  6
CONTINUOUS
 10
149.6315543091
 20
30.9164367395
 11
149.7471793074
 21
30.7873819712
  0
LINE
  8
0
 62
7
  6
CONTINUOUS
 10
153.1581166972
 20
31.3681283946
 11
153.2159293074
 21
31.2390736489
  0
LINE
  8
0
 62
7
  6
CONTINUOUS
 10
153.9674919177
 20
30.8841730531
 11
154.0253041972
 21
30.7551182848
  0
LINE
  8
0
 62
7
  6
CONTINUOUS
 10
153.5049916972
 20
31.2390736489
 11
153.4471794177
 21
31.400392081
  0
LINE
  8
0
 62
7
  6
CONTINUOUS
 10
153.9674919177
 20
31.4326557675
 11
153.9674919177
 21
31.3681283946
  0
LINE
  8
0
 62
7
  6
CONTINUOUS
 10
153.9674919177
 20
30.9809641124
 11
153.9674919177
 21
30.8841730531
  0
LINE
  8
0
 62
7
  6
CONTINUOUS
 10
154.245872955
 20
32.3970785186
 11
154.245872955
 21
36.1675703219
  0
LINE
  8
0
 62
7
  6
CONTINUOUS
 10
154.2565543074
 20
30.8519093441
 11
154.2565543074
 21
30.9164367395
  0
LINE
  8
0
 62
7
  6
CONTINUOUS
 10
154.5737418074
 20
36.1675703219
 11
154.5737418074
 21
32.3970785186
  0
LINE
  8
0
 62
7
  6
CONTINUOUS
 10
151.3659292523
 20
30.7873819712
 11
151.4237418626
 21
30.9164367395
  0
LINE
  8
0
 62
7
  6
CONTINUOUS
 10
155.759679528
 20
30.6905909007
 11
155.7018665869
 21
30.8519093441
  0
LINE
  8
0
 62
7
  6
CONTINUOUS
 10
155.412804528
 20
31.3681283946
 11
155.412804528
 21
31.2713373354
  0
LINE
  8
0
 62
7
  6
CONTINUOUS
 10
155.412804528
 20
31.1422825445
 11
155.412804528
 21
30.9487004259
  0
LINE
  8
0
 62
7
  6
CONTINUOUS
 10
155.7018665869
 20
30.8519093441
 11
155.7018665869
 21
31.3681283946
  0
LINE
  8
0
 62
7
  6
CONTINUOUS
 10
155.9671844304
 20
32.3970785186
 11
155.9671844304
 21
34.2003572071
  0
LINE
  8
0
 62
7
  6
CONTINUOUS
 10
155.9671844304
 20
35.511832617
 11
155.9671844304
 21
36.1675703219
  0
LINE
  8
0
 62
7
  6
CONTINUOUS
 10
156.279992028
 20
32.1101932727
 11
156.279992028
 21
31.9488748406
  0
LINE
  8
0
 62
7
  6
CONTINUOUS
 10
156.279992028
 20
31.626237886
 11
156.279992028
 21
30.5937998301
  0
LINE
  8
0
 62
7
  6
CONTINUOUS
 10
156.5690540869
 20
30.5937998301
 11
156.5690540869
 21
31.626237886
  0
LINE
  8
0
 62
7
  6
CONTINUOUS
 10
156.5690540869
 20
31.9488748406
 11
156.5690540869
 21
32.1101932727
  0
LINE
  8
0
 62
7
  6
CONTINUOUS
 10
151.1346793074
 20
30.9164367395
 11
151.0768668626
 21
30.8196456577
  0
LINE
  8
0
 62
7
  6
CONTINUOUS
 10
153.4471794177
 20
31.400392081
 11
153.3893668074
 21
31.4649194539
  0
LINE
  8
0
 62
7
  6
CONTINUOUS
 10
154.3143669177
 20
30.7873819712
 11
154.2565543074
 21
30.8519093441
  0
LINE
  8
0
 62
7
  6
CONTINUOUS
 10
155.4706168074
 20
30.6583272086
 11
155.5284290869
 21
30.5937998301
  0
LINE
  8
0
 62
7
  6
CONTINUOUS
 10
155.412804528
 20
30.7551182848
 11
155.4706168074
 21
30.6583272086
  0
LINE
  8
0
 62
7
  6
CONTINUOUS
 10
155.8174918074
 20
30.5937998301
 11
155.759679528
 21
30.6905909007
  0
LINE
  8
0
 62
7
  6
CONTINUOUS
 10
155.7018665869
 20
31.3681283946
 11
155.6440543074
 21
31.4649194539
  0
LINE
  8
0
 62
7
  6
CONTINUOUS
 10
157.0315543074
 20
31.626237886
 11
157.0315543074
 21
30.5937998301
  0
LINE
  8
0
 62
7
  6
CONTINUOUS
 10
157.320617028
 20
30.5937998301
 11
157.320617028
 21
31.3358647082
  0
LINE
  8
0
 62
7
  6
CONTINUOUS
 10
157.320617028
 20
31.4649194539
 11
157.320617028
 21
31.626237886
  0
LINE
  8
0
 62
7
  6
CONTINUOUS
 10
157.852430332
 20
34.6101932727
 11
157.852430332
 21
32.3970785186
  0
LINE
  8
0
 62
7
  6
CONTINUOUS
 10
149.7471793074
 20
31.4326557675
 11
149.6315543091
 21
31.3036010218
  0
LINE
  8
0
 62
7
  6
CONTINUOUS
 10
149.9206168074
 20
31.2713373354
 11
149.9784292936
 21
31.3358647082
  0
LINE
  8
0
 62
7
  6
CONTINUOUS
 10
149.7471793074
 20
30.7873819712
 11
149.8628043005
 21
30.7228545871
  0
LINE
  8
0
 62
7
  6
CONTINUOUS
 10
150.1518667936
 20
30.7873819712
 11
149.9784292936
 21
30.8841730531
  0
LINE
  8
0
 62
7
  6
CONTINUOUS
 10
155.3549915869
 20
31.4326557675
 11
155.412804528
 21
31.3681283946
  0
LINE
  8
0
 62
7
  6
CONTINUOUS
 10
158.3034290869
 20
31.3681283946
 11
158.361242028
 21
31.2068099625
  0
LINE
  8
0
 62
7
  6
CONTINUOUS
 10
158.6503040869
 20
31.2068099625
 11
158.5924918074
 21
31.3681283946
  0
LINE
  8
0
 62
7
  6
CONTINUOUS
 10
158.361242028
 20
31.2068099625
 11
158.361242028
 21
30.5937998301
  0
LINE
  8
0
 62
7
  6
CONTINUOUS
 10
158.6503040869
 20
30.5937998301
 11
158.6503040869
 21
31.2068099625
  0
LINE
  8
0
 62
7
  6
CONTINUOUS
 10
159.1128043074
 20
31.4326557675
 11
159.1128043074
 21
31.3681283946
  0
LINE
  8
0
 62
7
  6
CONTINUOUS
 10
159.245872955
 20
32.3970785186
 11
159.245872955
 21
34.5282260596
  0
LINE
  8
0
 62
7
  6
CONTINUOUS
 10
159.5737418074
 20
36.1675703219
 11
159.5737418074
 21
32.3970785186
  0
LINE
  8
0
 62
7
  6
CONTINUOUS
 10
154.2565543074
 20
30.9164367395
 11
154.3143669177
 21
31.0132277988
  0
LINE
  8
0
 62
7
  6
CONTINUOUS
 10
149.8628043005
 20
30.7228545871
 11
150.0362418212
 21
30.6583272086
  0
LINE
  8
0
 62
7
  6
CONTINUOUS
 10
151.3659292523
 20
31.4326557675
 11
151.1924917523
 21
31.5294468267
  0
LINE
  8
0
 62
7
  6
CONTINUOUS
 10
154.0253041972
 20
30.7551182848
 11
154.1987416972
 21
30.6583272086
  0
LINE
  8
0
 62
7
  6
CONTINUOUS
 10
153.0424918074
 20
31.4326557675
 11
153.1581166972
 21
31.3681283946
  0
LINE
  8
0
 62
7
  6
CONTINUOUS
 10
153.3893668074
 20
31.4649194539
 11
153.2737419177
 21
31.5294468267
  0
LINE
  8
0
 62
7
  6
CONTINUOUS
 10
159.1128043074
 20
30.8519093441
 11
159.228429528
 21
30.7228545871
  0
LINE
  8
0
 62
7
  6
CONTINUOUS
 10
159.4596793074
 20
30.7873819712
 11
159.401867028
 21
30.8519093441
  0
LINE
  8
0
 62
7
  6
CONTINUOUS
 10
159.1128043074
 20
31.3681283946
 11
159.228429528
 21
31.2390736489
  0
LINE
  8
0
 62
7
  6
CONTINUOUS
 10
158.5924918074
 20
31.3681283946
 11
158.534679528
 21
31.4649194539
  0
LINE
  8
0
 62
7
  6
CONTINUOUS
 10
160.9628038663
 20
30.7873819712
 11
160.9628038663
 21
30.8519093441
  0
LINE
  8
0
 62
7
  6
CONTINUOUS
 10
160.9671844304
 20
32.3970785186
 11
160.9671844304
 21
36.1675703219
  0
LINE
  8
0
 62
7
  6
CONTINUOUS
 10
154.0253041972
 20
31.4971831403
 11
153.9674919177
 21
31.4326557675
  0
LINE
  8
0
 62
7
  6
CONTINUOUS
 10
150.9034292799
 20
31.4649194539
 11
151.0768668626
 21
31.400392081
  0
LINE
  8
0
 62
7
  6
CONTINUOUS
 10
155.6440543074
 20
31.4649194539
 11
155.5284290869
 21
31.5294468267
  0
LINE
  8
0
 62
7
  6
CONTINUOUS
 10
159.4596793074
 20
31.3036010218
 11
159.401867028
 21
31.3681283946
  0
LINE
  8
0
 62
7
  6
CONTINUOUS
 10
160.615929528
 20
30.9164367395
 11
160.6737418074
 21
30.8519093441
  0
LINE
  8
0
 62
7
  6
CONTINUOUS
 10
160.9628038663
 20
30.8519093441
 11
160.8471793074
 21
30.9809641124
  0
LINE
  8
0
 62
7
  6
CONTINUOUS
 10
160.615929528
 20
31.4326557675
 11
160.6737418074
 21
31.3681283946
  0
LINE
  8
0
 62
7
  6
CONTINUOUS
 10
160.9628038663
 20
31.3681283946
 11
160.8471793074
 21
31.4971831403
  0
LINE
  8
0
 62
7
  6
CONTINUOUS
 10
154.2565543074
 20
31.3681283946
 11
154.3143669177
 21
31.4326557675
  0
LINE
  8
0
 62
7
  6
CONTINUOUS
 10
154.0831168074
 20
31.1100188581
 11
153.9674919177
 21
30.9809641124
  0
LINE
  8
0
 62
7
  6
CONTINUOUS
 10
155.412804528
 20
30.9487004259
 11
155.3549915869
 21
30.8841730531
  0
LINE
  8
0
 62
7
  6
CONTINUOUS
 10
155.3549915869
 20
30.6905909007
 11
155.412804528
 21
30.7551182848
  0
LINE
  8
0
 62
7
  6
CONTINUOUS
 10
154.1987416972
 20
30.6583272086
 11
154.3143669177
 21
30.6260635193
  0
LINE
  8
0
 62
7
  6
CONTINUOUS
 10
151.1924917523
 20
31.5294468267
 11
150.9612418074
 21
31.5939741996
  0
LINE
  8
0
 62
7
  6
CONTINUOUS
 10
154.5456166972
 20
30.7228545871
 11
154.3143669177
 21
30.7873819712
  0
LINE
  8
0
 62
7
  6
CONTINUOUS
 10
153.2737419177
 20
31.5294468267
 11
153.1003044177
 21
31.5939741996
  0
LINE
  8
0
 62
7
  6
CONTINUOUS
 10
155.5284290869
 20
31.5294468267
 11
155.3549915869
 21
31.5939741996
  0
LINE
  8
0
 62
7
  6
CONTINUOUS
 10
158.187804528
 20
31.4326557675
 11
158.3034290869
 21
31.3681283946
  0
LINE
  8
0
 62
7
  6
CONTINUOUS
 10
158.534679528
 20
31.4649194539
 11
158.4190543074
 21
31.5294468267
  0
LINE
  8
0
 62
7
  6
CONTINUOUS
 10
150.0362418212
 20
30.6583272086
 11
150.2096793212
 21
30.6260635193
  0
LINE
  8
0
 62
7
  6
CONTINUOUS
 10
150.498741835
 20
30.7228545871
 11
150.1518667936
 21
30.7873819712
  0
LINE
  8
0
 62
7
  6
CONTINUOUS
 10
152.9268669177
 20
31.4649194539
 11
153.0424918074
 21
31.4326557675
  0
LINE
  8
0
 62
7
  6
CONTINUOUS
 10
155.239367028
 20
31.4649194539
 11
155.3549915869
 21
31.4326557675
  0
LINE
  8
0
 62
7
  6
CONTINUOUS
 10
159.575304528
 20
30.7551182848
 11
159.4596793074
 21
30.7873819712
  0
LINE
  8
0
 62
7
  6
CONTINUOUS
 10
158.0721793074
 20
31.4649194539
 11
158.187804528
 21
31.4326557675
  0
LINE
  8
0
 62
7
  6
CONTINUOUS
 10
159.228429528
 20
30.7228545871
 11
159.401867028
 21
30.6583272086
  0
LINE
  8
0
 62
7
  6
CONTINUOUS
 10
158.4190543074
 20
31.5294468267
 11
158.2456168074
 21
31.5939741996
  0
LINE
  8
0
 62
7
  6
CONTINUOUS
 10
159.6331168074
 20
31.2390736489
 11
159.4596793074
 21
31.3036010218
  0
LINE
  8
0
 62
7
  6
CONTINUOUS
 10
160.442492028
 20
30.9809641124
 11
160.615929528
 21
30.9164367395
  0
LINE
  8
0
 62
7
  6
CONTINUOUS
 10
160.8471793074
 20
31.4971831403
 11
160.6737418074
 21
31.5617105132
  0
LINE
  8
0
 62
7
  6
CONTINUOUS
 10
159.228429528
 20
31.2390736489
 11
159.4596793074
 21
31.1422825445
  0
LINE
  8
0
 62
7
  6
CONTINUOUS
 10
160.8471793074
 20
30.9809641124
 11
160.615929528
 21
31.0777551716
  0
LINE
  8
0
 62
7
  6
CONTINUOUS
 10
159.401867028
 20
31.3681283946
 11
159.4596793074
 21
31.4326557675
  0
LINE
  8
0
 62
7
  6
CONTINUOUS
 10
149.8628043005
 20
31.4971831403
 11
149.7471793074
 21
31.4326557675
  0
LINE
  8
0
 62
7
  6
CONTINUOUS
 10
149.9784292936
 20
31.3358647082
 11
150.1518667936
 21
31.4326557675
  0
LINE
  8
0
 62
7
  6
CONTINUOUS
 10
152.2909293626
 20
31.5294468267
 11
152.1753043074
 21
31.4649194539
  0
LINE
  8
0
 62
7
  6
CONTINUOUS
 10
152.1753043074
 20
31.3358647082
 11
152.2909293626
 21
31.400392081
  0
LINE
  8
0
 62
7
  6
CONTINUOUS
 10
151.1924917523
 20
30.6905909007
 11
151.3659292523
 21
30.7873819712
  0
LINE
  8
0
 62
7
  6
CONTINUOUS
 10
150.2096793212
 20
30.6260635193
 11
150.5565542799
 21
30.5937998301
  0
LINE
  8
0
 62
7
  6
CONTINUOUS
 10
154.3143669177
 20
30.6260635193
 11
154.5456166972
 21
30.5937998301
  0
LINE
  8
0
 62
7
  6
CONTINUOUS
 10
152.6956168074
 20
31.4971831403
 11
152.9268669177
 21
31.4649194539
  0
LINE
  8
0
 62
7
  6
CONTINUOUS
 10
155.0081169177
 20
31.4971831403
 11
155.239367028
 21
31.4649194539
  0
LINE
  8
0
 62
7
  6
CONTINUOUS
 10
159.4596793074
 20
31.1422825445
 11
160.442492028
 21
30.9809641124
  0
LINE
  8
0
 62
7
  6
CONTINUOUS
 10
160.615929528
 20
31.0777551716
 11
159.6331168074
 21
31.2390736489
  0
LINE
  8
0
 62
7
  6
CONTINUOUS
 10
153.1003044177
 20
31.5939741996
 11
152.9268669177
 21
31.626237886
  0
LINE
  8
0
 62
7
  6
CONTINUOUS
 10
159.401867028
 20
30.6583272086
 11
159.575304528
 21
30.6260635193
  0
LINE
  8
0
 62
7
  6
CONTINUOUS
 10
158.2456168074
 20
31.5939741996
 11
158.0721793074
 21
31.626237886
  0
LINE
  8
0
 62
7
  6
CONTINUOUS
 10
160.5003043074
 20
31.4649194539
 11
160.615929528
 21
31.4326557675
  0
LINE
  8
0
 62
7
  6
CONTINUOUS
 10
160.6737418074
 20
30.8519093441
 11
160.615929528
 21
30.7873819712
  0
LINE
  8
0
 62
7
  6
CONTINUOUS
 10
159.228429528
 20
31.5294468267
 11
159.1128043074
 21
31.4326557675
  0
LINE
  8
0
 62
7
  6
CONTINUOUS
 10
154.1409294177
 20
31.5617105132
 11
154.0253041972
 21
31.4971831403
  0
LINE
  8
0
 62
7
  6
CONTINUOUS
 10
154.1987416972
 20
31.1745462761
 11
154.0831168074
 21
31.1100188581
  0
LINE
  8
0
 62
7
  6
CONTINUOUS
 10
154.3143669177
 20
31.0132277988
 11
154.4299918074
 21
31.0777551716
  0
LINE
  8
0
 62
7
  6
CONTINUOUS
 10
151.8862417523
 20
30.5937998301
 11
152.1753043074
 21
30.5937998301
  0
LINE
  8
0
 62
7
  6
CONTINUOUS
 10
153.2159293074
 20
30.5937998301
 11
153.5049916972
 21
30.5937998301
  0
LINE
  8
0
 62
7
  6
CONTINUOUS
 10
154.5456166972
 20
30.5937998301
 11
154.8924916972
 21
30.5937998301
  0
LINE
  8
0
 62
7
  6
CONTINUOUS
 10
155.5284290869
 20
30.5937998301
 11
155.8174918074
 21
30.5937998301
  0
LINE
  8
0
 62
7
  6
CONTINUOUS
 10
156.279992028
 20
30.5937998301
 11
156.5690540869
 21
30.5937998301
  0
LINE
  8
0
 62
7
  6
CONTINUOUS
 10
157.0315543074
 20
30.5937998301
 11
157.320617028
 21
30.5937998301
  0
LINE
  8
0
 62
7
  6
CONTINUOUS
 10
158.361242028
 20
30.5937998301
 11
158.6503040869
 21
30.5937998301
  0
LINE
  8
0
 62
7
  6
CONTINUOUS
 10
159.922179528
 20
30.5937998301
 11
160.269054528
 21
30.5937998301
  0
LINE
  8
0
 62
7
  6
CONTINUOUS
 10
160.269054528
 20
30.7228545871
 11
159.922179528
 21
30.7228545871
  0
LINE
  8
0
 62
7
  6
CONTINUOUS
 10
154.8924916972
 20
30.7228545871
 11
154.5456166972
 21
30.7228545871
  0
LINE
  8
0
 62
7
  6
CONTINUOUS
 10
159.401867028
 20
30.8519093441
 11
159.1128043074
 21
30.8519093441
  0
LINE
  8
0
 62
7
  6
CONTINUOUS
 10
151.4237418626
 20
30.9164367395
 11
151.1346793074
 21
30.9164367395
  0
LINE
  8
0
 62
7
  6
CONTINUOUS
 10
150.498741835
 20
31.4971831403
 11
150.9034292799
 21
31.4649194539
  0
LINE
  8
0
 62
7
  6
CONTINUOUS
 10
150.9612418074
 20
31.5939741996
 11
150.5565542799
 21
31.626237886
  0
LINE
  8
0
 62
7
  6
CONTINUOUS
 10
159.575304528
 20
30.6260635193
 11
159.922179528
 21
30.5937998301
  0
LINE
  8
0
 62
7
  6
CONTINUOUS
 10
159.922179528
 20
30.7228545871
 11
159.575304528
 21
30.7551182848
  0
LINE
  8
0
 62
7
  6
CONTINUOUS
 10
155.3549915869
 20
31.5939741996
 11
155.0081169177
 21
31.626237886
  0
LINE
  8
0
 62
7
  6
CONTINUOUS
 10
160.1534293074
 20
31.4971831403
 11
160.5003043074
 21
31.4649194539
  0
LINE
  8
0
 62
7
  6
CONTINUOUS
 10
160.5003043074
 20
31.5939741996
 11
160.1534293074
 21
31.626237886
  0
LINE
  8
0
 62
7
  6
CONTINUOUS
 10
157.840929528
 20
31.4971831403
 11
158.0721793074
 21
31.4649194539
  0
LINE
  8
0
 62
7
  6
CONTINUOUS
 10
160.6737418074
 20
31.5617105132
 11
160.5003043074
 21
31.5939741996
  0
LINE
  8
0
 62
7
  6
CONTINUOUS
 10
160.8471793074
 20
30.6905909007
 11
160.9628038663
 21
30.7873819712
  0
LINE
  8
0
 62
7
  6
CONTINUOUS
 10
155.3549915869
 20
30.8841730531
 11
155.1815540869
 21
30.7873819712
  0
LINE
  8
0
 62
7
  6
CONTINUOUS
 10
157.4362415869
 20
31.5294468267
 11
157.320617028
 21
31.4649194539
  0
LINE
  8
0
 62
7
  6
CONTINUOUS
 10
157.320617028
 20
31.3358647082
 11
157.4362415869
 21
31.400392081
  0
LINE
  8
0
 62
7
  6
CONTINUOUS
 10
150.0362418212
 20
31.5617105132
 11
149.8628043005
 21
31.4971831403
  0
LINE
  8
0
 62
7
  6
CONTINUOUS
 10
152.4643666972
 20
31.5939741996
 11
152.2909293626
 21
31.5294468267
  0
LINE
  8
0
 62
7
  6
CONTINUOUS
 10
152.2909293626
 20
31.400392081
 11
152.4643666972
 21
31.4649194539
  0
LINE
  8
0
 62
7
  6
CONTINUOUS
 10
151.0768668626
 20
30.8196456577
 11
150.9034292799
 21
30.7551182848
  0
LINE
  8
0
 62
7
  6
CONTINUOUS
 10
160.5003043074
 20
30.7551182848
 11
160.269054528
 21
30.7228545871
  0
LINE
  8
0
 62
7
  6
CONTINUOUS
 10
154.8924916972
 20
30.5937998301
 11
155.1815540869
 21
30.6260635193
  0
LINE
  8
0
 62
7
  6
CONTINUOUS
 10
160.269054528
 20
30.5937998301
 11
160.615929528
 21
30.6260635193
  0
LINE
  8
0
 62
7
  6
CONTINUOUS
 10
150.5565542799
 20
30.5937998301
 11
150.9612418074
 21
30.6260635193
  0
LINE
  8
0
 62
7
  6
CONTINUOUS
 10
150.9034292799
 20
30.7551182848
 11
150.498741835
 21
30.7228545871
  0
LINE
  8
0
 62
7
  6
CONTINUOUS
 10
154.7768668074
 20
31.1422825445
 11
155.412804528
 21
31.1422825445
  0
LINE
  8
0
 62
7
  6
CONTINUOUS
 10
155.412804528
 20
31.2713373354
 11
154.7768668074
 21
31.2713373354
  0
LINE
  8
0
 62
7
  6
CONTINUOUS
 10
151.1346793074
 20
31.3036010218
 11
151.4237418626
 21
31.3036010218
  0
LINE
  8
0
 62
7
  6
CONTINUOUS
 10
153.9674919177
 20
31.3681283946
 11
154.2565543074
 21
31.3681283946
  0
LINE
  8
0
 62
7
  6
CONTINUOUS
 10
160.6737418074
 20
31.3681283946
 11
160.9628038663
 21
31.3681283946
  0
LINE
  8
0
 62
7
  6
CONTINUOUS
 10
154.6612419177
 20
31.4971831403
 11
155.0081169177
 21
31.4971831403
  0
LINE
  8
0
 62
7
  6
CONTINUOUS
 10
159.8065543074
 20
31.4971831403
 11
160.1534293074
 21
31.4971831403
  0
LINE
  8
0
 62
7
  6
CONTINUOUS
 10
160.1534293074
 20
31.626237886
 11
159.8065543074
 21
31.626237886
  0
LINE
  8
0
 62
7
  6
CONTINUOUS
 10
158.0721793074
 20
31.626237886
 11
157.840929528
 21
31.626237886
  0
LINE
  8
0
 62
7
  6
CONTINUOUS
 10
157.320617028
 20
31.626237886
 11
157.0315543074
 21
31.626237886
  0
LINE
  8
0
 62
7
  6
CONTINUOUS
 10
156.5690540869
 20
31.626237886
 11
156.279992028
 21
31.626237886
  0
LINE
  8
0
 62
7
  6
CONTINUOUS
 10
155.0081169177
 20
31.626237886
 11
154.6612419177
 21
31.626237886
  0
LINE
  8
0
 62
7
  6
CONTINUOUS
 10
152.9268669177
 20
31.626237886
 11
152.6956168074
 21
31.626237886
  0
LINE
  8
0
 62
7
  6
CONTINUOUS
 10
156.279992028
 20
31.9488748406
 11
156.5690540869
 21
31.9488748406
  0
LINE
  8
0
 62
7
  6
CONTINUOUS
 10
156.5690540869
 20
32.1101932727
 11
156.279992028
 21
32.1101932727
  0
LINE
  8
0
 62
7
  6
CONTINUOUS
 10
152.1753043074
 20
32.1101932727
 11
151.8862417523
 21
32.1101932727
  0
LINE
  8
0
 62
7
  6
CONTINUOUS
 10
151.2130860697
 20
32.3970785186
 11
151.6256574183
 21
32.3970785186
  0
LINE
  8
0
 62
7
  6
CONTINUOUS
 10
152.852430332
 20
32.3970785186
 11
154.245872955
 21
32.3970785186
  0
LINE
  8
0
 62
7
  6
CONTINUOUS
 10
154.5737418074
 20
32.3970785186
 11
155.9671844304
 21
32.3970785186
  0
LINE
  8
0
 62
7
  6
CONTINUOUS
 10
157.852430332
 20
32.3970785186
 11
159.245872955
 21
32.3970785186
  0
LINE
  8
0
 62
7
  6
CONTINUOUS
 10
159.5737418074
 20
32.3970785186
 11
160.9671844304
 21
32.3970785186
  0
LINE
  8
0
 62
7
  6
CONTINUOUS
 10
157.6096790869
 20
31.5939741996
 11
157.4362415869
 21
31.5294468267
  0
LINE
  8
0
 62
7
  6
CONTINUOUS
 10
155.1815540869
 20
30.6260635193
 11
155.3549915869
 21
30.6905909007
  0
LINE
  8
0
 62
7
  6
CONTINUOUS
 10
160.615929528
 20
30.6260635193
 11
160.8471793074
 21
30.6905909007
  0
LINE
  8
0
 62
7
  6
CONTINUOUS
 10
160.615929528
 20
30.7873819712
 11
160.5003043074
 21
30.7551182848
  0
LINE
  8
0
 62
7
  6
CONTINUOUS
 10
159.575304528
 20
31.4649194539
 11
159.8065543074
 21
31.4971831403
  0
LINE
  8
0
 62
7
  6
CONTINUOUS
 10
157.6096790869
 20
31.4649194539
 11
157.840929528
 21
31.4971831403
  0
LINE
  8
0
 62
7
  6
CONTINUOUS
 10
154.5456166972
 20
31.1100188581
 11
154.7768668074
 21
31.1422825445
  0
LINE
  8
0
 62
7
  6
CONTINUOUS
 10
157.840929528
 20
31.626237886
 11
157.6096790869
 21
31.5939741996
  0
LINE
  8
0
 62
7
  6
CONTINUOUS
 10
154.4299918074
 20
31.4649194539
 11
154.6612419177
 21
31.4971831403
  0
LINE
  8
0
 62
7
  6
CONTINUOUS
 10
159.8065543074
 20
31.626237886
 11
159.4596793074
 21
31.5939741996
  0
LINE
  8
0
 62
7
  6
CONTINUOUS
 10
154.7768668074
 20
31.2713373354
 11
154.4299918074
 21
31.2390736489
  0
LINE
  8
0
 62
7
  6
CONTINUOUS
 10
150.5565542799
 20
31.626237886
 11
150.2096793212
 21
31.5939741996
  0
LINE
  8
0
 62
7
  6
CONTINUOUS
 10
154.6612419177
 20
31.626237886
 11
154.2565543074
 21
31.5939741996
  0
LINE
  8
0
 62
7
  6
CONTINUOUS
 10
152.0327582009
 20
33.5446195022
 11
151.3770204959
 21
33.5446195022
  0
LINE
  8
0
 62
7
  6
CONTINUOUS
 10
157.4362415869
 20
31.400392081
 11
157.6096790869
 21
31.4649194539
  0
LINE
  8
0
 62
7
  6
CONTINUOUS
 10
159.4596793074
 20
31.4326557675
 11
159.575304528
 21
31.4649194539
  0
LINE
  8
0
 62
7
  6
CONTINUOUS
 10
159.4596793074
 20
31.5939741996
 11
159.228429528
 21
31.5294468267
  0
LINE
  8
0
 62
7
  6
CONTINUOUS
 10
155.1815540869
 20
30.7873819712
 11
154.8924916972
 21
30.7228545871
  0
LINE
  8
0
 62
7
  6
CONTINUOUS
 10
152.4643666972
 20
31.4649194539
 11
152.6956168074
 21
31.4971831403
  0
LINE
  8
0
 62
7
  6
CONTINUOUS
 10
152.6956168074
 20
31.626237886
 11
152.4643666972
 21
31.5939741996
  0
LINE
  8
0
 62
7
  6
CONTINUOUS
 10
150.2674918074
 20
31.4649194539
 11
150.498741835
 21
31.4971831403
  0
LINE
  8
0
 62
7
  6
CONTINUOUS
 10
156.7868565615
 20
35.0200293383
 11
157.4425942664
 21
35.0200293383
  0
LINE
  8
0
 62
7
  6
CONTINUOUS
 10
154.4299918074
 20
31.0777551716
 11
154.5456166972
 21
31.1100188581
  0
LINE
  8
0
 62
7
  6
CONTINUOUS
 10
154.4299918074
 20
31.2390736489
 11
154.1987416972
 21
31.1745462761
  0
LINE
  8
0
 62
7
  6
CONTINUOUS
 10
154.3143669177
 20
31.4326557675
 11
154.4299918074
 21
31.4649194539
  0
LINE
  8
0
 62
7
  6
CONTINUOUS
 10
150.9612418074
 20
30.6260635193
 11
151.1924917523
 21
30.6905909007
  0
LINE
  8
0
 62
7
  6
CONTINUOUS
 10
154.2565543074
 20
31.5939741996
 11
154.1409294177
 21
31.5617105132
  0
LINE
  8
0
 62
7
  6
CONTINUOUS
 10
150.2096793212
 20
31.5939741996
 11
150.0362418212
 21
31.5617105132
  0
LINE
  8
0
 62
7
  6
CONTINUOUS
 10
160.9671844304
 20
36.1675703219
 11
159.5737418074
 21
36.1675703219
  0
LINE
  8
0
 62
7
  6
CONTINUOUS
 10
157.6065286927
 20
36.1675703219
 11
157.1939573441
 21
36.1675703219
  0
LINE
  8
0
 62
7
  6
CONTINUOUS
 10
155.9671844304
 20
36.1675703219
 11
154.5737418074
 21
36.1675703219
  0
LINE
  8
0
 62
7
  6
CONTINUOUS
 10
154.245872955
 20
36.1675703219
 11
152.852430332
 21
36.1675703219
  0
LINE
  8
0
 62
7
  6
CONTINUOUS
 10
150.9671844304
 20
36.1675703219
 11
149.5737418074
 21
36.1675703219
  0
LINE
  8
0
 62
7
  6
CONTINUOUS
 10
150.1518667936
 20
31.4326557675
 11
150.2674918074
 21
31.4649194539
  0
CIRCLE
  8
0
 62
7
  6
CONTINUOUS
 10
160.2704631189
 20
38.5036358957
 40
2.0901639344
  0
ARC
  8
0
 62
7
  6
CONTINUOUS
 10
151.2130860697
 20
34.0364227809
 40
1.6393442623
 50
180.0
 51
270.0
  0
ARC
  8
0
 62
7
  6
CONTINUOUS
 10
157.6065286927
 20
34.5282260596
 40
1.6393442623
 50
0.0
 51
90.0
  0
ARC
  8
0
 62
7
  6
CONTINUOUS
 10
151.6256574183
 20
33.8724883547
 40
1.4754098361
 50
270.0
 51
326.2510114041
  0
ARC
  8
0
 62
7
  6
CONTINUOUS
 10
157.1939573441
 20
34.6921604858
 40
1.4754098361
 50
90.0
 51
146.2510114041
  0
ARC
  8
0
 62
7
  6
CONTINUOUS
 10
152.0327582009
 20
34.3642916334
 40
0.8196721311
 50
270.0
 51
360.0
  0
ARC
  8
0
 62
7
  6
CONTINUOUS
 10
156.7868565615
 20
34.2003572071
 40
0.8196721311
 50
90.0
 51
180.0
  0
ARC
  8
0
 62
7
  6
CONTINUOUS
 10
151.3770204959
 20
33.9544555678
 40
0.4098360656
 50
180.0
 51
270.0
  0
ARC
  8
0
 62
7
  6
CONTINUOUS
 10
157.4425942664
 20
34.6101932727
 40
0.4098360656
 50
0.0
 51
90.0
  0
SOLID
  8
0
 62
7
  6
CONTINUOUS
 10
156.279992028
 20
31.9488752009
 11
156.279992028
 21
32.1101936845
 12
156.5690540869
 22
31.9488752009
 13
156.5690540869
 23
32.1101936845
  0
SOLID
  8
0
 62
7
  6
CONTINUOUS
 10
150.5565542799
 20
31.6262382337
 11
150.9612418074
 21
31.5939740028
 12
150.2096793212
 22
31.5939740028
 13
150.2096793212
 23
31.5939740028
  0
SOLID
  8
0
 62
7
  6
CONTINUOUS
 10
150.0362418212
 20
31.5617111435
 11
150.2096793212
 21
31.5939740028
 12
150.9612418074
 22
31.5939740028
 13
150.9612418074
 23
31.5939740028
  0
SOLID
  8
0
 62
7
  6
CONTINUOUS
 10
150.9612418074
 20
31.5939740028
 11
151.1924917523
 21
31.5294468402
 12
150.0362418212
 22
31.5617111435
 13
150.0362418212
 23
31.5617111435
  0
SOLID
  8
0
 62
7
  6
CONTINUOUS
 10
149.8628043005
 20
31.49718259
 11
150.0362418212
 21
31.5617111435
 12
151.1924917523
 22
31.5294468402
 13
151.1924917523
 23
31.5294468402
  0
SOLID
  8
0
 62
7
  6
CONTINUOUS
 10
149.8628043005
 20
31.49718259
 11
151.1924917523
 21
31.5294468402
 12
150.498741835
 22
31.49718259
 13
150.498741835
 23
31.49718259
  0
SOLID
  8
0
 62
7
  6
CONTINUOUS
 10
150.498741835
 20
31.49718259
 11
151.1924917523
 21
31.5294468402
 12
150.9034292799
 22
31.4649197501
 13
150.9034292799
 23
31.4649197501
  0
SOLID
  8
0
 62
7
  6
CONTINUOUS
 10
151.1924917523
 20
31.5294468402
 11
151.3659292523
 21
31.4326554468
 12
150.9034292799
 22
31.4649197501
 13
150.9034292799
 23
31.4649197501
  0
SOLID
  8
0
 62
7
  6
CONTINUOUS
 10
151.0768668626
 20
31.4003926599
 11
150.9034292799
 21
31.4649197501
 12
151.3659292523
 22
31.4326554468
 13
151.3659292523
 23
31.4326554468
  0
SOLID
  8
0
 62
7
  6
CONTINUOUS
 10
151.0768668626
 20
31.4003926599
 11
151.3659292523
 21
31.4326554468
 12
151.1346793074
 22
31.3036013776
 13
151.1346793074
 23
31.3036013776
  0
SOLID
  8
0
 62
7
  6
CONTINUOUS
 10
151.3659292523
 20
31.4326554468
 11
151.4237418626
 21
31.3036013776
 12
151.1346793074
 22
31.3036013776
 13
151.1346793074
 23
31.3036013776
  0
SOLID
  8
0
 62
7
  6
CONTINUOUS
 10
152.4643666972
 20
31.5939739754
 11
152.6956168074
 21
31.6262382787
 12
152.9268669177
 22
31.6262382787
 13
152.9268669177
 23
31.6262382787
  0
SOLID
  8
0
 62
7
  6
CONTINUOUS
 10
152.9268669177
 20
31.6262382787
 11
153.1003044177
 21
31.5939739754
 12
152.4643666972
 22
31.5939739754
 13
152.4643666972
 23
31.5939739754
  0
SOLID
  8
0
 62
7
  6
CONTINUOUS
 10
152.2909293626
 20
31.5294468852
 11
152.4643666972
 21
31.5939739754
 12
153.1003044177
 22
31.5939739754
 13
153.1003044177
 23
31.5939739754
  0
SOLID
  8
0
 62
7
  6
CONTINUOUS
 10
153.1003044177
 20
31.5939739754
 11
153.2737419177
 21
31.5294468852
 12
152.2909293626
 22
31.5294468852
 13
152.2909293626
 23
31.5294468852
  0
SOLID
  8
0
 62
7
  6
CONTINUOUS
 10
153.2737419177
 20
31.5294468852
 11
152.6956168074
 21
31.4971825369
 12
152.2909293626
 22
31.5294468852
 13
152.2909293626
 23
31.5294468852
  0
SOLID
  8
0
 62
7
  6
CONTINUOUS
 10
152.1753043074
 20
31.4649197951
 11
152.2909293626
 21
31.5294468852
 12
152.6956168074
 22
31.4971825369
 13
152.6956168074
 23
31.4971825369
  0
SOLID
  8
0
 62
7
  6
CONTINUOUS
 10
152.6956168074
 20
31.4971825369
 11
152.4643666972
 21
31.4649197951
 12
152.1753043074
 22
31.4649197951
 13
152.1753043074
 23
31.4649197951
  0
SOLID
  8
0
 62
7
  6
CONTINUOUS
 10
152.6956168074
 20
31.4971825369
 11
153.2737419177
 21
31.5294468852
 12
152.9268669177
 22
31.4649197951
 13
152.9268669177
 23
31.4649197951
  0
SOLID
  8
0
 62
7
  6
CONTINUOUS
 10
153.2737419177
 20
31.5294468852
 11
153.3893668074
 21
31.4649197951
 12
152.9268669177
 22
31.4649197951
 13
152.9268669177
 23
31.4649197951
  0
SOLID
  8
0
 62
7
  6
CONTINUOUS
 10
153.0424918074
 20
31.4326554468
 11
152.9268669177
 21
31.4649197951
 12
153.3893668074
 22
31.4649197951
 13
153.3893668074
 23
31.4649197951
  0
SOLID
  8
0
 62
7
  6
CONTINUOUS
 10
153.3893668074
 20
31.4649197951
 11
153.4471794177
 21
31.4003927049
 12
153.0424918074
 22
31.4326554468
 13
153.0424918074
 23
31.4326554468
  0
SOLID
  8
0
 62
7
  6
CONTINUOUS
 10
153.1581166972
 20
31.3681283566
 11
153.0424918074
 21
31.4326554468
 12
153.4471794177
 22
31.4003927049
 13
153.4471794177
 23
31.4003927049
  0
SOLID
  8
0
 62
7
  6
CONTINUOUS
 10
153.1581166972
 20
31.3681283566
 11
153.4471794177
 21
31.4003927049
 12
153.2159293074
 22
31.2390742213
 13
153.2159293074
 23
31.2390742213
  0
SOLID
  8
0
 62
7
  6
CONTINUOUS
 10
153.4471794177
 20
31.4003927049
 11
153.5049916972
 21
31.2390742213
 12
153.2159293074
 22
31.2390742213
 13
153.2159293074
 23
31.2390742213
  0
SOLID
  8
0
 62
7
  6
CONTINUOUS
 10
152.4643666972
 20
31.4649197951
 11
152.2909293626
 21
31.4003927049
 12
152.1753043074
 22
31.4649197951
 13
152.1753043074
 23
31.4649197951
  0
SOLID
  8
0
 62
7
  6
CONTINUOUS
 10
152.2909293626
 20
31.4003927049
 11
152.1753043074
 21
31.3358640533
 12
152.1753043074
 22
31.4649197951
 13
152.1753043074
 23
31.4649197951
  0
SOLID
  8
0
 62
7
  6
CONTINUOUS
 10
152.1753043074
 20
31.3358640533
 11
151.8862417523
 21
30.5938002869
 12
152.1753043074
 22
31.4649197951
 13
152.1753043074
 23
31.4649197951
  0
SOLID
  8
0
 62
7
  6
CONTINUOUS
 10
152.1753043074
 20
31.4649197951
 11
151.8862417523
 21
30.5938002869
 12
152.1753043074
 22
32.1101937295
 13
152.1753043074
 23
32.1101937295
  0
SOLID
  8
0
 62
7
  6
CONTINUOUS
 10
151.8862417523
 20
30.5938002869
 11
151.8862417523
 21
32.1101937295
 12
152.1753043074
 22
32.1101937295
 13
152.1753043074
 23
32.1101937295
  0
SOLID
  8
0
 62
7
  6
CONTINUOUS
 10
152.1753043074
 20
31.3358640533
 11
152.1753043074
 21
30.5938002869
 12
151.8862417523
 22
30.5938002869
 13
151.8862417523
 23
30.5938002869
  0
SOLID
  8
0
 62
7
  6
CONTINUOUS
 10
153.2159293074
 20
30.5938002869
 11
153.2159293074
 21
31.2390742213
 12
153.5049916972
 22
31.2390742213
 13
153.5049916972
 23
31.2390742213
  0
SOLID
  8
0
 62
7
  6
CONTINUOUS
 10
153.5049916972
 20
31.2390742213
 11
153.5049916972
 21
30.5938002869
 12
153.2159293074
 22
30.5938002869
 13
153.2159293074
 23
30.5938002869
  0
SOLID
  8
0
 62
7
  6
CONTINUOUS
 10
154.2565543074
 20
31.5939738288
 11
154.6612419177
 21
31.6262385959
 12
155.0081169177
 22
31.6262385959
 13
155.0081169177
 23
31.6262385959
  0
SOLID
  8
0
 62
7
  6
CONTINUOUS
 10
155.0081169177
 20
31.6262385959
 11
155.3549915869
 21
31.5939738288
 12
154.2565543074
 22
31.5939738288
 13
154.2565543074
 23
31.5939738288
  0
SOLID
  8
0
 62
7
  6
CONTINUOUS
 10
154.1409294177
 20
31.5617111435
 11
154.2565543074
 21
31.5939738288
 12
155.3549915869
 22
31.5939738288
 13
155.3549915869
 23
31.5939738288
  0
SOLID
  8
0
 62
7
  6
CONTINUOUS
 10
155.3549915869
 20
31.5939738288
 11
155.5284290869
 21
31.5294468402
 12
154.1409294177
 22
31.5617111435
 13
154.1409294177
 23
31.5617111435
  0
SOLID
  8
0
 62
7
  6
CONTINUOUS
 10
154.0253041972
 20
31.4971826249
 11
154.1409294177
 21
31.5617111435
 12
155.5284290869
 22
31.5294468402
 13
155.5284290869
 23
31.5294468402
  0
SOLID
  8
0
 62
7
  6
CONTINUOUS
 10
154.0253041972
 20
31.4971826249
 11
155.5284290869
 21
31.5294468402
 12
154.6612419177
 22
31.4971826249
 13
154.6612419177
 23
31.4971826249
  0
SOLID
  8
0
 62
7
  6
CONTINUOUS
 10
154.6612419177
 20
31.4971826249
 11
155.5284290869
 21
31.5294468402
 12
155.0081169177
 22
31.4971826249
 13
155.0081169177
 23
31.4971826249
  0
SOLID
  8
0
 62
7
  6
CONTINUOUS
 10
155.0081169177
 20
31.4971826249
 11
155.5284290869
 21
31.5294468402
 12
155.239367028
 22
31.4649194065
 13
155.239367028
 23
31.4649194065
  0
SOLID
  8
0
 62
7
  6
CONTINUOUS
 10
155.5284290869
 20
31.5294468402
 11
155.6440543074
 21
31.4649194065
 12
155.239367028
 22
31.4649194065
 13
155.239367028
 23
31.4649194065
  0
SOLID
  8
0
 62
7
  6
CONTINUOUS
 10
153.9674919177
 20
31.4326554138
 11
154.0253041972
 21
31.4971826249
 12
154.6612419177
 22
31.4971826249
 13
154.6612419177
 23
31.4971826249
  0
SOLID
  8
0
 62
7
  6
CONTINUOUS
 10
155.3549915869
 20
31.4326554138
 11
155.239367028
 21
31.4649194065
 12
155.6440543074
 22
31.4649194065
 13
155.6440543074
 23
31.4649194065
  0
SOLID
  8
0
 62
7
  6
CONTINUOUS
 10
155.3549915869
 20
31.4326554138
 11
155.6440543074
 21
31.4649194065
 12
155.412804528
 22
31.3681282026
 13
155.412804528
 23
31.3681282026
  0
SOLID
  8
0
 62
7
  6
CONTINUOUS
 10
155.6440543074
 20
31.4649194065
 11
155.7018665869
 21
31.3681282026
 12
155.412804528
 22
31.3681282026
 13
155.412804528
 23
31.3681282026
  0
SOLID
  8
0
 62
7
  6
CONTINUOUS
 10
155.412804528
 20
31.2713369632
 11
155.412804528
 21
31.3681282026
 12
155.7018665869
 22
31.3681282026
 13
155.7018665869
 23
31.3681282026
  0
SOLID
  8
0
 62
7
  6
CONTINUOUS
 10
155.412804528
 20
31.2713369632
 11
155.7018665869
 21
31.3681282026
 12
155.412804528
 22
31.1422827828
 13
155.412804528
 23
31.1422827828
  0
SOLID
  8
0
 62
7
  6
CONTINUOUS
 10
155.412804528
 20
31.1422827828
 11
155.7018665869
 21
31.3681282026
 12
155.412804528
 22
30.9487004259
 13
155.412804528
 23
30.9487004259
  0
SOLID
  8
0
 62
7
  6
CONTINUOUS
 10
155.7018665869
 20
31.3681282026
 11
155.7018665869
 21
30.8519086025
 12
155.412804528
 22
30.9487004259
 13
155.412804528
 23
30.9487004259
  0
SOLID
  8
0
 62
7
  6
CONTINUOUS
 10
157.6096790869
 20
31.5939736268
 11
157.840929528
 21
31.6262383465
 12
158.0721793074
 22
31.6262383465
 13
158.0721793074
 23
31.6262383465
  0
SOLID
  8
0
 62
7
  6
CONTINUOUS
 10
158.0721793074
 20
31.6262383465
 11
158.2456168074
 21
31.5939736268
 12
157.6096790869
 22
31.5939736268
 13
157.6096790869
 23
31.5939736268
  0
SOLID
  8
0
 62
7
  6
CONTINUOUS
 10
157.4362415869
 20
31.5294472848
 11
157.6096790869
 21
31.5939736268
 12
158.2456168074
 22
31.5939736268
 13
158.2456168074
 23
31.5939736268
  0
SOLID
  8
0
 62
7
  6
CONTINUOUS
 10
158.2456168074
 20
31.5939736268
 11
158.4190543074
 21
31.5294472848
 12
157.4362415869
 22
31.5294472848
 13
157.4362415869
 23
31.5294472848
  0
SOLID
  8
0
 62
7
  6
CONTINUOUS
 10
158.4190543074
 20
31.5294472848
 11
157.840929528
 21
31.4971825369
 12
157.4362415869
 22
31.5294472848
 13
157.4362415869
 23
31.5294472848
  0
SOLID
  8
0
 62
7
  6
CONTINUOUS
 10
157.320617028
 20
31.4649199103
 11
157.4362415869
 21
31.5294472848
 12
157.840929528
 22
31.4971825369
 13
157.840929528
 23
31.4971825369
  0
SOLID
  8
0
 62
7
  6
CONTINUOUS
 10
157.840929528
 20
31.4971825369
 11
157.6096790869
 21
31.4649199103
 12
157.320617028
 22
31.4649199103
 13
157.320617028
 23
31.4649199103
  0
SOLID
  8
0
 62
7
  6
CONTINUOUS
 10
157.840929528
 20
31.4971825369
 11
158.4190543074
 21
31.5294472848
 12
158.0721793074
 22
31.4649199103
 13
158.0721793074
 23
31.4649199103
  0
SOLID
  8
0
 62
7
  6
CONTINUOUS
 10
158.4190543074
 20
31.5294472848
 11
158.534679528
 21
31.4649199103
 12
158.0721793074
 22
31.4649199103
 13
158.0721793074
 23
31.4649199103
  0
SOLID
  8
0
 62
7
  6
CONTINUOUS
 10
158.187804528
 20
31.4326554468
 11
158.0721793074
 21
31.4649199103
 12
158.534679528
 22
31.4649199103
 13
158.534679528
 23
31.4649199103
  0
SOLID
  8
0
 62
7
  6
CONTINUOUS
 10
158.187804528
 20
31.4326554468
 11
158.534679528
 21
31.4649199103
 12
158.3034290869
 22
31.3681288486
 13
158.3034290869
 23
31.3681288486
  0
SOLID
  8
0
 62
7
  6
CONTINUOUS
 10
158.534679528
 20
31.4649199103
 11
158.5924918074
 21
31.3681288486
 12
158.3034290869
 22
31.3681288486
 13
158.3034290869
 23
31.3681288486
  0
SOLID
  8
0
 62
7
  6
CONTINUOUS
 10
158.361242028
 20
31.2068093799
 11
158.3034290869
 21
31.3681288486
 12
158.5924918074
 22
31.3681288486
 13
158.5924918074
 23
31.3681288486
  0
SOLID
  8
0
 62
7
  6
CONTINUOUS
 10
158.5924918074
 20
31.3681288486
 11
158.6503040869
 21
31.2068093799
 12
158.361242028
 22
31.2068093799
 13
158.361242028
 23
31.2068093799
  0
SOLID
  8
0
 62
7
  6
CONTINUOUS
 10
157.6096790869
 20
31.4649199103
 11
157.4362415869
 21
31.4003926599
 12
157.320617028
 22
31.4649199103
 13
157.320617028
 23
31.4649199103
  0
SOLID
  8
0
 62
7
  6
CONTINUOUS
 10
157.4362415869
 20
31.4003926599
 11
157.320617028
 21
31.3358640533
 12
157.320617028
 22
31.4649199103
 13
157.320617028
 23
31.4649199103
  0
SOLID
  8
0
 62
7
  6
CONTINUOUS
 10
157.320617028
 20
31.3358640533
 11
157.0315543074
 21
30.5938003547
 12
157.320617028
 22
31.4649199103
 13
157.320617028
 23
31.4649199103
  0
SOLID
  8
0
 62
7
  6
CONTINUOUS
 10
157.320617028
 20
31.4649199103
 11
157.0315543074
 21
30.5938003547
 12
157.320617028
 22
31.6262383465
 13
157.320617028
 23
31.6262383465
  0
SOLID
  8
0
 62
7
  6
CONTINUOUS
 10
157.0315543074
 20
30.5938003547
 11
157.0315543074
 21
31.6262383465
 12
157.320617028
 22
31.6262383465
 13
157.320617028
 23
31.6262383465
  0
SOLID
  8
0
 62
7
  6
CONTINUOUS
 10
157.320617028
 20
31.3358640533
 11
157.320617028
 21
30.5938003547
 12
157.0315543074
 22
30.5938003547
 13
157.0315543074
 23
30.5938003547
  0
SOLID
  8
0
 62
7
  6
CONTINUOUS
 10
158.361242028
 20
30.5938003547
 11
158.361242028
 21
31.2068093799
 12
158.6503040869
 22
31.2068093799
 13
158.6503040869
 23
31.2068093799
  0
SOLID
  8
0
 62
7
  6
CONTINUOUS
 10
158.6503040869
 20
31.2068093799
 11
158.6503040869
 21
30.5938003547
 12
158.361242028
 22
30.5938003547
 13
158.361242028
 23
30.5938003547
  0
SOLID
  8
0
 62
7
  6
CONTINUOUS
 10
159.4596793074
 20
31.5939739474
 11
159.8065543074
 21
31.6262381969
 12
160.1534293074
 22
31.6262381969
 13
160.1534293074
 23
31.6262381969
  0
SOLID
  8
0
 62
7
  6
CONTINUOUS
 10
160.1534293074
 20
31.6262381969
 11
160.5003043074
 21
31.5939739474
 12
159.4596793074
 22
31.5939739474
 13
159.4596793074
 23
31.5939739474
  0
SOLID
  8
0
 62
7
  6
CONTINUOUS
 10
159.228429528
 20
31.5294468402
 11
159.4596793074
 21
31.5939739474
 12
160.5003043074
 22
31.5939739474
 13
160.5003043074
 23
31.5939739474
  0
SOLID
  8
0
 62
7
  6
CONTINUOUS
 10
159.228429528
 20
31.5294468402
 11
160.5003043074
 21
31.5939739304
 12
160.6737418074
 22
31.5617111435
 13
160.6737418074
 23
31.5617111435
  0
SOLID
  8
0
 62
7
  6
CONTINUOUS
 10
159.228429528
 20
31.5294468402
 11
160.6737418074
 21
31.5617111435
 12
159.8065543074
 22
31.4971825592
 13
159.8065543074
 23
31.4971825592
  0
SOLID
  8
0
 62
7
  6
CONTINUOUS
 10
159.8065543074
 20
31.4971825592
 11
160.6737418074
 21
31.5617111435
 12
160.1534293074
 22
31.4971825592
 13
160.1534293074
 23
31.4971825592
  0
SOLID
  8
0
 62
7
  6
CONTINUOUS
 10
160.6737418074
 20
31.5617111435
 11
160.8471793074
 21
31.4971825592
 12
160.1534293074
 22
31.4971825592
 13
160.1534293074
 23
31.4971825592
  0
SOLID
  8
0
 62
7
  6
CONTINUOUS
 10
160.5003043074
 20
31.4649197501
 11
160.1534293074
 21
31.4971825592
 12
160.8471793074
 22
31.4971825592
 13
160.8471793074
 23
31.4971825592
  0
SOLID
  8
0
 62
7
  6
CONTINUOUS
 10
159.1128043074
 20
31.4326555427
 11
159.228429528
 21
31.5294468402
 12
159.8065543074
 22
31.4971825592
 13
159.8065543074
 23
31.4971825592
  0
SOLID
  8
0
 62
7
  6
CONTINUOUS
 10
160.5003043074
 20
31.4649197501
 11
160.8471793074
 21
31.4971825592
 12
160.615929528
 22
31.4326555427
 13
160.615929528
 23
31.4326555427
  0
SOLID
  8
0
 62
7
  6
CONTINUOUS
 10
160.615929528
 20
31.4326555427
 11
160.8471793074
 21
31.4971825592
 12
160.6737418074
 22
31.3681283005
 13
160.6737418074
 23
31.3681283005
  0
SOLID
  8
0
 62
7
  6
CONTINUOUS
 10
160.8471793074
 20
31.4971825592
 11
160.9628038663
 21
31.3681283005
 12
160.6737418074
 22
31.3681283005
 13
160.6737418074
 23
31.3681283005
  0
SOLID
  8
0
 62
7
  6
CONTINUOUS
 10
150.2674918074
 20
31.4649197501
 11
149.7471793074
 21
31.4326554237
 12
150.498741835
 22
31.4971824493
 13
150.498741835
 23
31.4971824493
  0
SOLID
  8
0
 62
7
  6
CONTINUOUS
 10
149.7471793074
 20
31.4326554237
 11
149.8628043005
 21
31.4971824493
 12
150.498741835
 22
31.4971824493
 13
150.498741835
 23
31.4971824493
  0
SOLID
  8
0
 62
7
  6
CONTINUOUS
 10
150.2674918074
 20
31.4649197501
 11
150.1518667936
 21
31.4326554237
 12
149.7471793074
 22
31.4326554237
 13
149.7471793074
 23
31.4326554237
  0
SOLID
  8
0
 62
7
  6
CONTINUOUS
 10
149.6315543091
 20
31.3036012664
 11
149.7471793074
 21
31.4326554237
 12
150.1518667936
 22
31.4326554237
 13
150.1518667936
 23
31.4326554237
  0
SOLID
  8
0
 62
7
  6
CONTINUOUS
 10
153.9674919177
 20
31.4326554237
 11
154.6612419177
 21
31.4971825369
 12
154.4299918074
 22
31.4649197501
 13
154.4299918074
 23
31.4649197501
  0
SOLID
  8
0
 62
7
  6
CONTINUOUS
 10
154.4299918074
 20
31.4649197501
 11
154.3143669177
 21
31.4326554237
 12
153.9674919177
 22
31.4326554237
 13
153.9674919177
 23
31.4326554237
  0
SOLID
  8
0
 62
7
  6
CONTINUOUS
 10
153.9674919177
 20
31.3681283335
 11
153.9674919177
 21
31.4326554237
 12
154.3143669177
 22
31.4326554237
 13
154.3143669177
 23
31.4326554237
  0
SOLID
  8
0
 62
7
  6
CONTINUOUS
 10
154.3143669177
 20
31.4326554237
 11
154.2565543074
 21
31.3681283335
 12
153.9674919177
 22
31.3681283335
 13
153.9674919177
 23
31.3681283335
  0
SOLID
  8
0
 62
7
  6
CONTINUOUS
 10
159.1128043074
 20
31.4326555528
 11
159.8065543074
 21
31.4971825369
 12
159.575304528
 22
31.4649197501
 13
159.575304528
 23
31.4649197501
  0
SOLID
  8
0
 62
7
  6
CONTINUOUS
 10
159.575304528
 20
31.4649197501
 11
159.4596793074
 21
31.4326555528
 12
159.1128043074
 22
31.4326555528
 13
159.1128043074
 23
31.4326555528
  0
SOLID
  8
0
 62
7
  6
CONTINUOUS
 10
159.1128043074
 20
31.3681284626
 11
159.1128043074
 21
31.4326555528
 12
159.4596793074
 22
31.4326555528
 13
159.4596793074
 23
31.4326555528
  0
SOLID
  8
0
 62
7
  6
CONTINUOUS
 10
159.4596793074
 20
31.4326555528
 11
159.401867028
 21
31.3681284626
 12
159.1128043074
 22
31.3681284626
 13
159.1128043074
 23
31.3681284626
  0
SOLID
  8
0
 62
7
  6
CONTINUOUS
 10
159.228429528
 20
31.2390741763
 11
159.1128043074
 21
31.3681284626
 12
159.401867028
 22
31.3681284626
 13
159.401867028
 23
31.3681284626
  0
SOLID
  8
0
 62
7
  6
CONTINUOUS
 10
149.6315543091
 20
31.3036012664
 11
150.1518667936
 21
31.4326554468
 12
149.9784292936
 22
31.3358640533
 13
149.9784292936
 23
31.3358640533
  0
SOLID
  8
0
 62
7
  6
CONTINUOUS
 10
149.9784292936
 20
31.3358640533
 11
149.9206168074
 21
31.2713369632
 12
149.6315543091
 22
31.3036012664
 13
149.6315543091
 23
31.3036012664
  0
SOLID
  8
0
 62
7
  6
CONTINUOUS
 10
149.5737418074
 20
31.1100184796
 11
149.6315543091
 21
31.3036012664
 12
149.9206168074
 22
31.2713369632
 13
149.9206168074
 23
31.2713369632
  0
SOLID
  8
0
 62
7
  6
CONTINUOUS
 10
154.4299918074
 20
31.2390741763
 11
154.7768668074
 21
31.271336924
 12
155.412804528
 22
31.271336924
 13
155.412804528
 23
31.271336924
  0
SOLID
  8
0
 62
7
  6
CONTINUOUS
 10
154.4299918074
 20
31.2390741763
 11
155.412804528
 21
31.271336924
 12
154.1987416972
 22
31.1745462761
 13
154.1987416972
 23
31.1745462761
  0
SOLID
  8
0
 62
7
  6
CONTINUOUS
 10
154.1987416972
 20
31.1745462761
 11
155.412804528
 21
31.271336924
 12
154.7768668074
 22
31.1422827436
 13
154.7768668074
 23
31.1422827436
  0
SOLID
  8
0
 62
7
  6
CONTINUOUS
 10
155.412804528
 20
31.271336924
 11
155.412804528
 21
31.1422827436
 12
154.7768668074
 22
31.1422827436
 13
154.7768668074
 23
31.1422827436
  0
SOLID
  8
0
 62
7
  6
CONTINUOUS
 10
159.228429528
 20
31.2390745501
 11
159.401867028
 21
31.3681283566
 12
159.4596793074
 22
31.3036012664
 13
159.4596793074
 23
31.3036012664
  0
SOLID
  8
0
 62
7
  6
CONTINUOUS
 10
159.4596793074
 20
31.3036012664
 11
159.6331168074
 21
31.2390745501
 12
159.228429528
 22
31.2390745501
 13
159.228429528
 23
31.2390745501
  0
SOLID
  8
0
 62
7
  6
CONTINUOUS
 10
159.4596793074
 20
31.1422827828
 11
159.228429528
 21
31.2390745501
 12
159.6331168074
 22
31.2390745501
 13
159.6331168074
 23
31.2390745501
  0
SOLID
  8
0
 62
7
  6
CONTINUOUS
 10
159.6331168074
 20
31.2390745501
 11
160.615929528
 21
31.0777556927
 12
159.4596793074
 22
31.1422827828
 13
159.4596793074
 23
31.1422827828
  0
SOLID
  8
0
 62
7
  6
CONTINUOUS
 10
160.442492028
 20
30.9809646623
 11
159.4596793074
 21
31.1422827828
 12
160.615929528
 22
31.0777556927
 13
160.615929528
 23
31.0777556927
  0
SOLID
  8
0
 62
7
  6
CONTINUOUS
 10
160.615929528
 20
31.0777556927
 11
160.8471793074
 21
30.9809646623
 12
160.442492028
 22
30.9809646623
 13
160.442492028
 23
30.9809646623
  0
SOLID
  8
0
 62
7
  6
CONTINUOUS
 10
160.615929528
 20
30.9164372091
 11
160.442492028
 21
30.9809646623
 12
160.8471793074
 22
30.9809646623
 13
160.8471793074
 23
30.9809646623
  0
SOLID
  8
0
 62
7
  6
CONTINUOUS
 10
160.615929528
 20
30.9164372091
 11
160.8471793074
 21
30.9809646623
 12
160.6737418074
 22
30.8519089441
 13
160.6737418074
 23
30.8519089441
  0
SOLID
  8
0
 62
7
  6
CONTINUOUS
 10
160.8471793074
 20
30.9809646623
 11
160.9628038663
 21
30.8519089441
 12
160.6737418074
 22
30.8519089441
 13
160.6737418074
 23
30.8519089441
  0
SOLID
  8
0
 62
7
  6
CONTINUOUS
 10
160.615929528
 20
30.7873818593
 11
160.6737418074
 21
30.8519089441
 12
160.9628038663
 22
30.8519089441
 13
160.9628038663
 23
30.8519089441
  0
SOLID
  8
0
 62
7
  6
CONTINUOUS
 10
160.9628038663
 20
30.8519089441
 11
160.9628038663
 21
30.7873818593
 12
160.615929528
 22
30.7873818593
 13
160.615929528
 23
30.7873818593
  0
SOLID
  8
0
 62
7
  6
CONTINUOUS
 10
160.5003043074
 20
30.7551187255
 11
160.615929528
 21
30.7873818593
 12
160.9628038663
 22
30.7873818593
 13
160.9628038663
 23
30.7873818593
  0
SOLID
  8
0
 62
7
  6
CONTINUOUS
 10
160.5003043074
 20
30.7551187255
 11
160.9628038663
 21
30.7873818593
 12
160.269054528
 22
30.7228547745
 13
160.269054528
 23
30.7228547745
  0
SOLID
  8
0
 62
7
  6
CONTINUOUS
 10
160.9628038663
 20
30.7873818593
 11
160.8471793074
 21
30.6905916353
 12
160.269054528
 22
30.7228547745
 13
160.269054528
 23
30.7228547745
  0
SOLID
  8
0
 62
7
  6
CONTINUOUS
 10
160.8471793074
 20
30.6905916353
 11
159.401867028
 21
30.658327332
 12
160.269054528
 22
30.7228547745
 13
160.269054528
 23
30.7228547745
  0
SOLID
  8
0
 62
7
  6
CONTINUOUS
 10
160.269054528
 20
30.7228547745
 11
159.401867028
 21
30.658327332
 12
159.922179528
 22
30.7228547745
 13
159.922179528
 23
30.7228547745
  0
SOLID
  8
0
 62
7
  6
CONTINUOUS
 10
159.401867028
 20
30.658327332
 11
159.228429528
 21
30.7228547745
 12
159.922179528
 22
30.7228547745
 13
159.922179528
 23
30.7228547745
  0
SOLID
  8
0
 62
7
  6
CONTINUOUS
 10
159.401867028
 20
30.658327332
 11
160.8471793074
 21
30.6905916353
 12
159.575304528
 22
30.6260629858
 13
159.575304528
 23
30.6260629858
  0
SOLID
  8
0
 62
7
  6
CONTINUOUS
 10
160.8471793074
 20
30.6905916353
 11
160.615929528
 21
30.6260629858
 12
159.575304528
 22
30.6260629858
 13
159.575304528
 23
30.6260629858
  0
SOLID
  8
0
 62
7
  6
CONTINUOUS
 10
159.922179528
 20
30.5938006049
 11
159.575304528
 21
30.6260629858
 12
160.615929528
 22
30.6260629858
 13
160.615929528
 23
30.6260629858
  0
SOLID
  8
0
 62
7
  6
CONTINUOUS
 10
160.615929528
 20
30.6260629858
 11
160.269054528
 21
30.5938006049
 12
159.922179528
 22
30.5938006049
 13
159.922179528
 23
30.5938006049
  0
SOLID
  8
0
 62
7
  6
CONTINUOUS
 10
149.5737418074
 20
31.1100184796
 11
149.9206168074
 21
31.2713369632
 12
149.8628043005
 22
31.1422827828
 13
149.8628043005
 23
31.1422827828
  0
SOLID
  8
0
 62
7
  6
CONTINUOUS
 10
149.8628043005
 20
31.1422827828
 11
149.8628043005
 21
31.0454914852
 12
149.5737418074
 22
31.1100184796
 13
149.5737418074
 23
31.1100184796
  0
SOLID
  8
0
 62
7
  6
CONTINUOUS
 10
149.6315543091
 20
30.9164372091
 11
149.5737418074
 21
31.1100184796
 12
149.8628043005
 22
31.0454914852
 13
149.8628043005
 23
31.0454914852
  0
SOLID
  8
0
 62
7
  6
CONTINUOUS
 10
149.8628043005
 20
31.0454914852
 11
149.9784292936
 21
30.8841729058
 12
149.6315543091
 22
30.9164372091
 13
149.6315543091
 23
30.9164372091
  0
SOLID
  8
0
 62
7
  6
CONTINUOUS
 10
149.7471793074
 20
30.7873813202
 11
149.6315543091
 21
30.9164372091
 12
149.9784292936
 22
30.8841729058
 13
149.9784292936
 23
30.8841729058
  0
SOLID
  8
0
 62
7
  6
CONTINUOUS
 10
149.9784292936
 20
30.8841729058
 11
150.1518667936
 21
30.7873813202
 12
149.7471793074
 22
30.7873813202
 13
149.7471793074
 23
30.7873813202
  0
SOLID
  8
0
 62
7
  6
CONTINUOUS
 10
149.8628043005
 20
30.7228547004
 11
149.7471793074
 21
30.7873813202
 12
150.1518667936
 22
30.7873813202
 13
150.1518667936
 23
30.7873813202
  0
SOLID
  8
0
 62
7
  6
CONTINUOUS
 10
150.1518667936
 20
30.7873813202
 11
150.498741835
 21
30.7228547004
 12
149.8628043005
 22
30.7228547004
 13
149.8628043005
 23
30.7228547004
  0
SOLID
  8
0
 62
7
  6
CONTINUOUS
 10
150.0362418212
 20
30.658327332
 11
149.8628043005
 21
30.7228547004
 12
150.498741835
 22
30.7228547004
 13
150.498741835
 23
30.7228547004
  0
SOLID
  8
0
 62
7
  6
CONTINUOUS
 10
154.0831168074
 20
31.1100184386
 11
154.1987416972
 21
31.1745462761
 12
154.7768668074
 22
31.1422827828
 13
154.7768668074
 23
31.1422827828
  0
SOLID
  8
0
 62
7
  6
CONTINUOUS
 10
154.7768668074
 20
31.1422827828
 11
154.5456166972
 21
31.1100184386
 12
154.0831168074
 22
31.1100184386
 13
154.0831168074
 23
31.1100184386
  0
SOLID
  8
0
 62
7
  6
CONTINUOUS
 10
153.9674919177
 20
30.9809642992
 11
154.0831168074
 21
31.1100184386
 12
154.5456166972
 22
31.1100184386
 13
154.5456166972
 23
31.1100184386
  0
SOLID
  8
0
 62
7
  6
CONTINUOUS
 10
154.3143669177
 20
31.0132277988
 11
153.9674919177
 21
30.9809642992
 12
154.4299918074
 22
31.0777556927
 13
154.4299918074
 23
31.0777556927
  0
SOLID
  8
0
 62
7
  6
CONTINUOUS
 10
153.9674919177
 20
30.9809642992
 11
154.5456166972
 21
31.1100184796
 12
154.4299918074
 22
31.0777556927
 13
154.4299918074
 23
31.0777556927
  0
SOLID
  8
0
 62
7
  6
CONTINUOUS
 10
154.3143669177
 20
31.0132277988
 11
154.2565543074
 21
30.9164372091
 12
153.9674919177
 22
30.9809642992
 13
153.9674919177
 23
30.9809642992
  0
SOLID
  8
0
 62
7
  6
CONTINUOUS
 10
153.9674919177
 20
30.8841729058
 11
153.9674919177
 21
30.9809642992
 12
154.2565543074
 22
30.9164372091
 13
154.2565543074
 23
30.9164372091
  0
SOLID
  8
0
 62
7
  6
CONTINUOUS
 10
154.2565543074
 20
30.9164372091
 11
154.2565543074
 21
30.8519086025
 12
153.9674919177
 22
30.8841729058
 13
153.9674919177
 23
30.8841729058
  0
SOLID
  8
0
 62
7
  6
CONTINUOUS
 10
154.0253041972
 20
30.7551187255
 11
153.9674919177
 21
30.8841729058
 12
154.2565543074
 22
30.8519086025
 13
154.2565543074
 23
30.8519086025
  0
SOLID
  8
0
 62
7
  6
CONTINUOUS
 10
155.412804528
 20
30.9487004259
 11
155.7018665869
 21
30.8519086025
 12
155.3549915869
 22
30.8841729058
 13
155.3549915869
 23
30.8841729058
  0
SOLID
  8
0
 62
7
  6
CONTINUOUS
 10
155.1815540869
 20
30.7873815123
 11
155.3549915869
 21
30.8841729058
 12
155.7018665869
 22
30.8519086025
 13
155.7018665869
 23
30.8519086025
  0
SOLID
  8
0
 62
7
  6
CONTINUOUS
 10
155.1815540869
 20
30.7873815123
 11
155.7018665869
 21
30.8519086025
 12
155.412804528
 22
30.7551187255
 13
155.412804528
 23
30.7551187255
  0
SOLID
  8
0
 62
7
  6
CONTINUOUS
 10
155.7018665869
 20
30.8519086025
 11
155.759679528
 21
30.6905916353
 12
155.412804528
 22
30.7551187255
 13
155.412804528
 23
30.7551187255
  0
SOLID
  8
0
 62
7
  6
CONTINUOUS
 10
155.4706168074
 20
30.658327332
 11
155.412804528
 21
30.7551187255
 12
155.759679528
 22
30.6905916353
 13
155.759679528
 23
30.6905916353
  0
SOLID
  8
0
 62
7
  6
CONTINUOUS
 10
155.4706168074
 20
30.658327332
 11
155.759679528
 21
30.6905916353
 12
155.5284290869
 22
30.5938002079
 13
155.5284290869
 23
30.5938002079
  0
SOLID
  8
0
 62
7
  6
CONTINUOUS
 10
155.759679528
 20
30.6905916353
 11
155.8174918074
 21
30.5938002079
 12
155.5284290869
 22
30.5938002079
 13
155.5284290869
 23
30.5938002079
  0
SOLID
  8
0
 62
7
  6
CONTINUOUS
 10
151.0768668626
 20
30.8196456577
 11
151.1346793074
 21
30.9164373395
 12
151.4237418626
 22
30.9164373395
 13
151.4237418626
 23
30.9164373395
  0
SOLID
  8
0
 62
7
  6
CONTINUOUS
 10
151.4237418626
 20
30.9164373395
 11
151.3659292523
 21
30.7873815123
 12
151.0768668626
 22
30.8196456577
 13
151.0768668626
 23
30.8196456577
  0
SOLID
  8
0
 62
7
  6
CONTINUOUS
 10
150.9034292799
 20
30.7551187255
 11
151.0768668626
 21
30.8196456577
 12
151.3659292523
 22
30.7873815123
 13
151.3659292523
 23
30.7873815123
  0
SOLID
  8
0
 62
7
  6
CONTINUOUS
 10
150.9034292799
 20
30.7551187255
 11
151.3659292523
 21
30.7873815123
 12
150.498741835
 22
30.7228544222
 13
150.498741835
 23
30.7228544222
  0
SOLID
  8
0
 62
7
  6
CONTINUOUS
 10
151.3659292523
 20
30.7873815123
 11
151.1924917523
 21
30.6905916353
 12
150.498741835
 22
30.7228544222
 13
150.498741835
 23
30.7228544222
  0
SOLID
  8
0
 62
7
  6
CONTINUOUS
 10
150.0362418212
 20
30.658327332
 11
150.498741835
 21
30.7228544222
 12
151.1924917523
 22
30.6905916353
 13
151.1924917523
 23
30.6905916353
  0
SOLID
  8
0
 62
7
  6
CONTINUOUS
 10
150.0362418212
 20
30.658327332
 11
151.1924917523
 21
30.6905916353
 12
150.2096793212
 22
30.6260631011
 13
150.2096793212
 23
30.6260631011
  0
SOLID
  8
0
 62
7
  6
CONTINUOUS
 10
151.1924917523
 20
30.6905916353
 11
150.9612418074
 21
30.6260631011
 12
150.2096793212
 22
30.6260631011
 13
150.2096793212
 23
30.6260631011
  0
SOLID
  8
0
 62
7
  6
CONTINUOUS
 10
150.5565542799
 20
30.5938002419
 11
150.2096793212
 21
30.6260631011
 12
150.9612418074
 22
30.6260631011
 13
150.9612418074
 23
30.6260631011
  0
SOLID
  8
0
 62
7
  6
CONTINUOUS
 10
154.0253041972
 20
30.7551187255
 11
154.2565543074
 21
30.8519086025
 12
154.3143669177
 22
30.7873815123
 13
154.3143669177
 23
30.7873815123
  0
SOLID
  8
0
 62
7
  6
CONTINUOUS
 10
154.3143669177
 20
30.7873815123
 11
154.5456166972
 21
30.7228544222
 12
154.0253041972
 22
30.7551187255
 13
154.0253041972
 23
30.7551187255
  0
SOLID
  8
0
 62
7
  6
CONTINUOUS
 10
154.1987416972
 20
30.658327332
 11
154.0253041972
 21
30.7551187255
 12
154.5456166972
 22
30.7228544222
 13
154.5456166972
 23
30.7228544222
  0
SOLID
  8
0
 62
7
  6
CONTINUOUS
 10
154.8924916972
 20
30.7228544637
 11
155.1815540869
 21
30.7873815123
 12
155.412804528
 22
30.7551187255
 13
155.412804528
 23
30.7551187255
  0
SOLID
  8
0
 62
7
  6
CONTINUOUS
 10
155.412804528
 20
30.7551187255
 11
155.3549915869
 21
30.6905916353
 12
154.8924916972
 22
30.7228544637
 13
154.8924916972
 23
30.7228544637
  0
SOLID
  8
0
 62
7
  6
CONTINUOUS
 10
155.3549915869
 20
30.6905916353
 11
154.1987416972
 21
30.658327332
 12
154.8924916972
 22
30.7228544637
 13
154.8924916972
 23
30.7228544637
  0
SOLID
  8
0
 62
7
  6
CONTINUOUS
 10
154.1987416972
 20
30.658327332
 11
154.5456166972
 21
30.7228544637
 12
154.8924916972
 22
30.7228544637
 13
154.8924916972
 23
30.7228544637
  0
SOLID
  8
0
 62
7
  6
CONTINUOUS
 10
154.1987416972
 20
30.658327332
 11
155.3549915869
 21
30.6905916353
 12
154.3143669177
 22
30.6260630541
 13
154.3143669177
 23
30.6260630541
  0
SOLID
  8
0
 62
7
  6
CONTINUOUS
 10
155.3549915869
 20
30.6905916353
 11
155.1815540869
 21
30.6260630541
 12
154.3143669177
 22
30.6260630541
 13
154.3143669177
 23
30.6260630541
  0
SOLID
  8
0
 62
7
  6
CONTINUOUS
 10
154.5456166972
 20
30.5938002188
 11
154.3143669177
 21
30.6260630541
 12
155.1815540869
 22
30.6260630541
 13
155.1815540869
 23
30.6260630541
  0
SOLID
  8
0
 62
7
  6
CONTINUOUS
 10
155.1815540869
 20
30.6260630541
 11
154.8924916972
 21
30.5938002188
 12
154.5456166972
 22
30.5938002188
 13
154.5456166972
 23
30.5938002188
  0
SOLID
  8
0
 62
7
  6
CONTINUOUS
 10
159.575304528
 20
30.7551187255
 11
159.228429528
 21
30.7228544637
 12
159.4596793074
 22
30.7873815123
 13
159.4596793074
 23
30.7873815123
  0
SOLID
  8
0
 62
7
  6
CONTINUOUS
 10
159.4596793074
 20
30.7873815123
 11
159.228429528
 21
30.7228544637
 12
159.401867028
 22
30.851908644
 13
159.401867028
 23
30.851908644
  0
SOLID
  8
0
 62
7
  6
CONTINUOUS
 10
159.228429528
 20
30.7228544637
 11
159.1128043074
 21
30.851908644
 12
159.401867028
 22
30.851908644
 13
159.401867028
 23
30.851908644
  0
SOLID
  8
0
 62
7
  6
CONTINUOUS
 10
159.575304528
 20
30.7551187255
 11
159.922179528
 21
30.7228544637
 12
159.228429528
 22
30.7228544637
 13
159.228429528
 23
30.7228544637
  0
SOLID
  8
0
 62
7
  6
CONTINUOUS
 10
156.279992028
 20
30.5938002419
 11
156.279992028
 21
31.6262382337
 12
156.5690540869
 22
30.5938002419
 13
156.5690540869
 23
31.6262382337
  0
ENDBLK
  8
0
  6
BYBLOCK
 62
0
  0
BLOCK
  8
0
 62
2
  6
CONTINUOUS
  2
AMMEAAL_LOGO_BL0
 70
64
 10
32.1133409355
 20
19.8355904043
  0
TEXT
  8
0
 62
7
  6
CONTINUOUS
 10
18.3860103289
 20
19.2268451992
  7
TEXTSTYLE_3
 40
2.7338706658
  1
Ammeraal Beltech
 41
1.0
 51
15.0
 72
0
  0
TEXT
  8
0
 62
7
  6
CONTINUOUS
 10
29.1868111546
 20
16.9533085264
  7
TEXTSTYLE_4
 40
1.0935482663
  1
Innovation & Service in Belting
 41
1.0
 72
0
  0
LINE
  8
0
 62
7
  6
CONTINUOUS
 10
12.3614696776
 20
19.9934385078
 11
13.1396216709
 21
23.6543558055
  0
LINE
  8
0
 62
7
  6
CONTINUOUS
 10
23.2347899607
 20
27.3177497171
 11
13.6274394139
 21
24.1961322958
  0
LINE
  8
0
 62
7
  6
CONTINUOUS
 10
12.5867530099
 20
19.3000877048
 11
20.093828271
 21
12.5406867788
  0
LINE
  8
0
 62
7
  6
CONTINUOUS
 10
12.8492874206
 20
20.5352149982
 11
23.6575567857
 21
24.0470345971
  0
LINE
  8
0
 62
7
  6
CONTINUOUS
 10
23.6533516486
 20
13.6972460334
 11
15.2078919798
 21
21.3015720751
  0
LINE
  8
0
 62
7
  6
CONTINUOUS
 10
24.1731743684
 20
26.4728246013
 11
23.1966148312
 21
21.8784731989
  0
LINE
  8
0
 62
7
  6
CONTINUOUS
 10
22.4968128835
 20
18.5861638851
 11
21.810364672
 21
15.3566789607
  0
LINE
  8
0
 62
7
  6
CONTINUOUS
 10
24.8542704669
 20
14.087448211
 11
25.8105020025
 21
18.5861638851
  0
LINE
  8
0
 62
7
  6
CONTINUOUS
 10
26.5103039502
 20
21.8784731989
 11
26.9545457526
 21
23.9684665583
  0
LINE
  8
0
 62
7
  6
CONTINUOUS
 10
20.8069293463
 20
12.3891124661
 11
24.3664527239
 21
13.5456717207
  0
LINE
  8
0
 62
7
  6
CONTINUOUS
 10
23.9478910361
 20
27.1661754044
 11
26.7292624203
 21
24.6618173613
  0
ARC
  8
0
 62
7
  6
CONTINUOUS
 10
13.8527227462
 20
23.5027814928
 40
0.7290321776
 50
108.0
 51
168.0
  0
ARC
  8
0
 62
7
  6
CONTINUOUS
 10
23.4600732931
 20
26.624398914
 40
0.7290321776
 50
348.0
 51
108.0
  0
ARC
  8
0
 62
7
  6
CONTINUOUS
 10
26.2414446773
 20
24.120040871
 40
0.7290321776
 50
348.0
 51
48.0
  0
ARC
  8
0
 62
7
  6
CONTINUOUS
 10
20.581646014
 20
13.0824632691
 40
0.7290321776
 50
228.0
 51
288.0
  0
ARC
  8
0
 62
7
  6
CONTINUOUS
 10
13.0745707529
 20
19.8418641951
 40
0.7290321776
 50
108.0
 51
228.0
  0
ARC
  8
0
 62
7
  6
CONTINUOUS
 10
24.1411693916
 20
14.2390225237
 40
0.7290321776
 50
228.0
 51
348.0
  0
ENDBLK
  8
0
  6
BYBLOCK
 62
0
  0
ENDSEC
  0
SECTION
  2
ENTITIES
  0
TEXT
  8
0
 62
5
  6
CONTINUOUS
 10
96.0
 20
25.636
  7
TEXTSTYLE_2
 40
2.8
  1
Scale :
 41
0.6
 51
0.000019
 72
0
  0
TEXT
  8
0
 62
5
  6
CONTINUOUS
 10
116.0
 20
25.636
  7
TEXTSTYLE_2
 40
2.8
  1
Belt type:
 41
0.6
 51
0.000019
 72
0
  0
INSERT
  8
0
 62
2
  6
CONTINUOUS
  2
AMMEAAL_LOGO_BL0
 10
32.1133409355
 20
19.8355904043
  0
INSERT
  8
0
 62
2
  6
CONTINUOUS
  2
UNI_LOGO2_BL1
 10
173.5956734183
 20
35.5426498779
  0
LINE
  8
0
 62
2
  6
CONTINUOUS
 10
10.0
 20
30.0
 11
200.0
 21
30.0
  0
LINE
  8
0
 62
2
  6
CONTINUOUS
 10
10.0
 20
30.0
 11
10.0
 21
10.0
  0
LINE
  8
0
 62
2
  6
CONTINUOUS
 10
10.0
 20
10.0
 11
200.0
 21
10.0
  0
LINE
  8
0
 62
2
  6
CONTINUOUS
 10
95.0
 20
30.0
 11
95.0
 21
10.0
  0
LINE
  8
0
 62
2
  6
CONTINUOUS
 10
115.0
 20
30.0
 11
115.0
 21
10.0
  0
LINE
  8
0
 62
2
  6
CONTINUOUS
 10
200.0
 20
30.0
 11
200.0
 21
10.0
  0
TEXT
  8
0
 62
5
  6
CONTINUOUS
 10
13.0
 20
23.303
  7
TEXTSTYLE_5
 40
1.52
  1
                                                                     Ammeraal Beltech Modular A/S
 41
1.0
 72
0
  0
TEXT
  8
0
 62
5
  6
CONTINUOUS
 10
13.0
 20
20.595
  7
TEXTSTYLE_5
 40
1.5
  1
                                                                      Hjulmagervej 21,  7100 Vejle,  DK
 41
1.0
 72
0
  0
TEXT
  8
0
 62
5
  6
CONTINUOUS
 10
13.0
 20
17.881
  7
TEXTSTYLE_5
 40
1.495
  1
                                                                      tel: 
 41
1.0
 72
0
  0
TEXT
  8
0
 62
5
  6
CONTINUOUS
 10
57.9869465649
 20
17.881
  7
TEXTSTYLE_5
 40
1.51
  1
+45 75723100     fax: +45 75723348
 41
1.0
 72
0
  0
TEXT
  8
0
 62
5
  6
CONTINUOUS
 10
13.0
 20
15.177
  7
TEXTSTYLE_5
 40
1.5
  1
                                                                      admin@unichains.dk  www.unichains.com
 41
1.0
 72
0
  0
TEXT
  8
0
 62
5
  6
CONTINUOUS
 10
99.75
 20
13.75
  7
TEXTSTYLE_6
 40
5.0
  1
1:1
 41
0.7
 72
1
 11
105.0
 21
13.75
  0
TEXT
  8
0
 62
5
  6
CONTINUOUS
 10
118.0
 20
13.75
  7
TEXTSTYLE_7
 40
7.5
  1
uni Light EP Tab
 41
0.6375
 72
0
  0
LINE
  8
0
 62
7
  6
CONTINUOUS
 10
210.0
 20
0.0
 11
0.0
 21
0.0
  0
LINE
  8
0
 62
7
  6
CONTINUOUS
 10
10.0
 20
10.0
 11
200.0
 21
10.0
  0
LINE
  8
0
 62
7
  6
CONTINUOUS
 10
10.0
 20
30.0
 11
200.0
 21
30.0
  0
LINE
  8
0
 62
7
  6
CONTINUOUS
 10
0.0
 20
0.0
 11
0.0
 21
297.0
  0
LINE
  8
0
 62
7
  6
CONTINUOUS
 10
10.0
 20
10.0
 11
10.0
 21
287.0
  0
LINE
  8
0
 62
7
  6
CONTINUOUS
 10
200.0
 20
287.0
 11
200.0
 21
10.0
  0
LINE
  8
0
 62
7
  6
CONTINUOUS
 10
210.0
 20
0.0
 11
210.0
 21
297.0
  0
LINE
  8
0
 62
7
  6
CONTINUOUS
 10
10.0
 20
287.0
 11
200.0
 21
287.0
  0
LINE
  8
0
 62
7
  6
CONTINUOUS
 10
0.0
 20
297.0
 11
210.0
 21
297.0
  0
LINE
  8
0
 62
7
  6
CONTINUOUS
 10
51.7755263158
 20
189.8360070374
 11
51.7755263158
 21
187.8918876995
  0
LINE
  8
DEFAULT_1
 62
2
  6
CENTER
 10
56.0155263158
 20
188.8639473684
 11
56.0155263158
 21
181.3639473684
  0
LINE
  8
DEFAULT_1
 62
2
  6
CENTER
 10
56.0155263158
 20
188.8639473684
 11
56.0155263158
 21
196.3639473684
  0
POLYLINE
  8
0
 62
7
  6
CONTINUOUS
 66
1
 70
0
  0
VERTEX
  8
0
 62
7
  6
CONTINUOUS
 10
57.2402711872
 20
192.5139473684
  0
VERTEX
  8
0
 62
7
  6
CONTINUOUS
 10
57.2871316271
 20
192.8063975377
  0
VERTEX
  8
0
 62
7
  6
CONTINUOUS
 10
57.3193667968
 20
193.0139473684
  0
SEQEND
  0
POLYLINE
  8
0
 62
7
  6
CONTINUOUS
 66
1
 70
0
  0
VERTEX
  8
0
 62
7
  6
CONTINUOUS
 10
54.7907814444
 20
192.5139473684
  0
VERTEX
  8
0
 62
7
  6
CONTINUOUS
 10
54.726576192
 20
192.9174284222
  0
VERTEX
  8
0
 62
7
  6
CONTINUOUS
 10
54.7116858347
 20
193.0139473684
  0
SEQEND
  0
LINE
  8
0
 62
7
  6
CONTINUOUS
 10
60.3655263158
 20
186.2638156795
 11
60.3655263158
 21
188.8639473684
  0
LINE
  8
0
 62
7
  6
CONTINUOUS
 10
52.6571287141
 20
186.0992293811
 11
66.4514354645
 21
169.3428126616
  0
LINE
  8
0
 62
7
  6
CONTINUOUS
 10
67.9955263158
 20
168.6139473684
 11
82.1355263158
 21
168.6139473684
  0
LINE
  8
0
 62
7
  6
CONTINUOUS
 10
66.2541602873
 20
171.0284635697
 11
66.5224198273
 21
170.8967145402
  0
LINE
  8
0
 62
7
  6
CONTINUOUS
 10
66.0619286557
 20
171.125024749
 11
66.2541602873
 21
171.0284635697
  0
POLYLINE
  8
0
 62
7
  6
CONTINUOUS
 66
1
 70
0
  0
VERTEX
  8
0
 62
7
  6
CONTINUOUS
 10
66.0619286557
 20
171.125024749
  0
VERTEX
  8
0
 62
7
  6
CONTINUOUS
 10
65.873060283
 20
171.2212270388
  0
VERTEX
  8
0
 62
7
  6
CONTINUOUS
 10
65.6086970765
 20
171.3576181173
  0
SEQEND
  0
LINE
  8
0
 62
7
  6
CONTINUOUS
 10
80.9555263158
 20
172.6139473684
 11
69.1755263158
 21
172.6139473684
  0
LINE
  8
0
 62
7
  6
CONTINUOUS
 10
76.1592761966
 20
175.3639473684
 11
76.2634429427
 21
175.3852239635
  0
LINE
  8
0
 62
7
  6
CONTINUOUS
 10
74.034276286
 20
175.3639473684
 11
74.159276286
 21
175.3639473684
  0
LINE
  8
0
 62
7
  6
CONTINUOUS
 10
74.6592762562
 20
175.3639473684
 11
74.7842763158
 21
175.3639473684
  0
LINE
  8
0
 62
7
  6
CONTINUOUS
 10
75.3676095696
 20
175.3639473684
 11
75.4926095696
 21
175.3639473684
  0
LINE
  8
0
 62
7
  6
CONTINUOUS
 10
75.6592763158
 20
175.3639473684
 11
76.1592761966
 21
175.3639473684
  0
LINE
  8
0
 62
7
  6
CONTINUOUS
 10
76.1801096889
 20
175.4916069426
 11
75.7842761966
 21
175.4916069426
  0
LINE
  8
0
 62
7
  6
CONTINUOUS
 10
74.8676095696
 20
175.6192665167
 11
75.2842763158
 21
175.6192665167
  0
LINE
  8
0
 62
7
  6
CONTINUOUS
 10
75.2634429427
 20
175.7043728896
 11
74.8884429427
 21
175.7043728896
  0
LINE
  8
0
 62
7
  6
CONTINUOUS
 10
70.6801094877
 20
177.4277771555
 11
70.7426094951
 21
177.3852239635
  0
LINE
  8
0
 62
7
  6
CONTINUOUS
 10
70.6176094914
 20
177.4916069426
 11
70.6801094877
 21
177.4277771555
  0
LINE
  8
0
 62
7
  6
CONTINUOUS
 10
70.7426094951
 20
177.4916069426
 11
70.7009428235
 21
177.5554367371
  0
LINE
  8
0
 62
7
  6
CONTINUOUS
 10
70.5967761575
 20
177.534160129
 11
70.6176094914
 21
177.4916069426
  0
LINE
  8
0
 62
7
  6
CONTINUOUS
 10
70.7009428235
 20
177.5554367371
 11
70.6801094877
 21
177.6192665167
  0
LINE
  8
0
 62
7
  6
CONTINUOUS
 10
70.5759428235
 20
177.6192665167
 11
70.5967761575
 21
177.534160129
  0
LINE
  8
0
 62
7
  6
CONTINUOUS
 10
70.5759428235
 20
178.0447984107
 11
70.5759428235
 21
177.6192665167
  0
LINE
  8
0
 62
7
  6
CONTINUOUS
 10
70.6801094877
 20
177.6192665167
 11
70.6801094877
 21
178.0447984107
  0
LINE
  8
0
 62
7
  6
CONTINUOUS
 10
71.096776137
 20
178.0447984107
 11
71.096776137
 21
177.5767133303
  0
LINE
  8
0
 62
7
  6
CONTINUOUS
 10
71.2009428235
 20
177.4916069426
 11
71.2009428235
 21
178.0447984107
  0
LINE
  8
0
 62
7
  6
CONTINUOUS
 10
71.409276137
 20
178.0447984107
 11
71.409276137
 21
177.3639473684
  0
LINE
  8
0
 62
7
  6
CONTINUOUS
 10
71.5134428235
 20
177.9384154447
 11
71.5134428235
 21
178.0447984107
  0
LINE
  8
0
 62
7
  6
CONTINUOUS
 10
71.5134428235
 20
177.3639473684
 11
71.5134428235
 21
177.8533090718
  0
LINE
  8
0
 62
7
  6
CONTINUOUS
 10
74.9926093312
 20
177.0235218473
 11
75.0759428235
 21
177.0447984405
  0
LINE
  8
0
 62
7
  6
CONTINUOUS
 10
75.0759428235
 20
177.1299048133
 11
74.9926093312
 21
177.1086282201
  0
LINE
  8
0
 62
7
  6
CONTINUOUS
 10
74.9926093312
 20
177.3639473684
 11
75.0759428235
 21
177.3852239635
  0
LINE
  8
0
 62
7
  6
CONTINUOUS
 10
79.284275839
 20
177.8107558854
 11
79.3884428235
 21
177.8320324786
  0
LINE
  8
0
 62
7
  6
CONTINUOUS
 10
75.7842761966
 20
175.8107558854
 11
76.1801096889
 21
175.8107558854
  0
LINE
  8
0
 62
7
  6
CONTINUOUS
 10
76.1801096889
 20
175.9384154447
 11
75.7842761966
 21
175.9384154447
  0
LINE
  8
0
 62
7
  6
CONTINUOUS
 10
75.7842761966
 20
176.2362878092
 11
76.1801096889
 21
176.2362878092
  0
LINE
  8
0
 62
7
  6
CONTINUOUS
 10
73.7009429427
 20
176.2575644024
 11
74.034276286
 21
176.2575644024
  0
LINE
  8
0
 62
7
  6
CONTINUOUS
 10
74.159276286
 20
176.2575644024
 11
74.4926096293
 21
176.2575644024
  0
LINE
  8
0
 62
7
  6
CONTINUOUS
 10
76.1592761966
 20
176.3639473684
 11
75.6592763158
 21
176.3639473684
  0
LINE
  8
0
 62
7
  6
CONTINUOUS
 10
75.1592763158
 20
176.3639473684
 11
74.9926095696
 21
176.3639473684
  0
LINE
  8
0
 62
7
  6
CONTINUOUS
 10
74.4926096293
 20
176.3639473684
 11
73.7009429427
 21
176.3639473684
  0
LINE
  8
0
 62
7
  6
CONTINUOUS
 10
74.8676093312
 20
177.0235218473
 11
74.9926093312
 21
177.0235218473
  0
LINE
  8
0
 62
7
  6
CONTINUOUS
 10
74.9926093312
 20
177.1086282201
 11
74.8676093312
 21
177.1086282201
  0
LINE
  8
0
 62
7
  6
CONTINUOUS
 10
74.7217763158
 20
177.2788409881
 11
74.6176093312
 21
177.2788409881
  0
LINE
  8
0
 62
7
  6
CONTINUOUS
 10
70.8259428235
 20
177.3639473684
 11
70.9092761668
 21
177.3639473684
  0
LINE
  8
0
 62
7
  6
CONTINUOUS
 10
71.1384428235
 20
177.3639473684
 11
71.24260951
 21
177.3639473684
  0
LINE
  8
0
 62
7
  6
CONTINUOUS
 10
71.409276137
 20
177.3639473684
 11
71.5134428235
 21
177.3639473684
  0
LINE
  8
0
 62
7
  6
CONTINUOUS
 10
71.8884428235
 20
177.3639473684
 11
71.9926094504
 21
177.3639473684
  0
LINE
  8
0
 62
7
  6
CONTINUOUS
 10
72.1592761966
 20
177.3639473684
 11
72.2634428235
 21
177.3639473684
  0
LINE
  8
0
 62
7
  6
CONTINUOUS
 10
73.4301095696
 20
177.3639473684
 11
74.1801095696
 21
177.3639473684
  0
LINE
  8
0
 62
7
  6
CONTINUOUS
 10
74.3467760774
 20
177.3639473684
 11
74.4509428235
 21
177.3639473684
  0
LINE
  8
0
 62
7
  6
CONTINUOUS
 10
74.8676093312
 20
177.3639473684
 11
74.9926093312
 21
177.3639473684
  0
LINE
  8
0
 62
7
  6
CONTINUOUS
 10
75.4509428235
 20
177.3639473684
 11
75.5551093312
 21
177.3639473684
  0
LINE
  8
0
 62
7
  6
CONTINUOUS
 10
75.9301093312
 20
177.3639473684
 11
76.0342763158
 21
177.3639473684
  0
LINE
  8
0
 62
7
  6
CONTINUOUS
 10
77.8676093312
 20
177.3639473684
 11
78.6176098081
 21
177.3639473684
  0
LINE
  8
0
 62
7
  6
CONTINUOUS
 10
78.784275839
 20
177.3639473684
 11
78.909275839
 21
177.3639473684
  0
LINE
  8
0
 62
7
  6
CONTINUOUS
 10
70.9092761668
 20
177.4490537487
 11
70.8259428235
 21
177.4490537487
  0
LINE
  8
0
 62
7
  6
CONTINUOUS
 10
74.9926093312
 20
177.4703303494
 11
74.9092763158
 21
177.4703303494
  0
LINE
  8
0
 62
7
  6
CONTINUOUS
 10
78.6176098081
 20
177.4916069426
 11
77.9926093312
 21
177.4916069426
  0
LINE
  8
0
 62
7
  6
CONTINUOUS
 10
74.1801095696
 20
177.4916069426
 11
73.5551095696
 21
177.4916069426
  0
LINE
  8
0
 62
7
  6
CONTINUOUS
 10
76.2634429427
 20
176.3426707752
 11
76.1592761966
 21
176.3639473684
  0
LINE
  8
0
 62
7
  6
CONTINUOUS
 10
70.7426094951
 20
177.3852239635
 11
70.8259428235
 21
177.3639473684
  0
LINE
  8
0
 62
7
  6
CONTINUOUS
 10
74.7842763158
 20
177.0447984405
 11
74.8676093312
 21
177.0235218473
  0
LINE
  8
0
 62
7
  6
CONTINUOUS
 10
71.7009428235
 20
177.9596920379
 11
71.7842761966
 21
177.9384154447
  0
LINE
  8
0
 62
7
  6
CONTINUOUS
 10
74.7842763158
 20
177.3852239635
 11
74.8676093312
 21
177.3639473684
  0
LINE
  8
0
 62
7
  6
CONTINUOUS
 10
74.9092763158
 20
177.4703303494
 11
74.8259428235
 21
177.4916069426
  0
LINE
  8
0
 62
7
  6
CONTINUOUS
 10
76.1801096889
 20
175.8107558854
 11
76.2426096889
 21
175.7894792922
  0
LINE
  8
0
 62
7
  6
CONTINUOUS
 10
76.1801096889
 20
176.2362878092
 11
76.2426096889
 21
176.215011216
  0
LINE
  8
0
 62
7
  6
CONTINUOUS
 10
71.8467761966
 20
178.0235218175
 11
71.7842761966
 21
178.0447984107
  0
LINE
  8
0
 62
7
  6
CONTINUOUS
 10
70.8259428235
 20
177.4490537487
 11
70.7426094951
 21
177.4916069426
  0
LINE
  8
0
 62
7
  6
CONTINUOUS
 10
71.7842761966
 20
177.9384154447
 11
71.8259428235
 21
177.9171388514
  0
LINE
  8
0
 62
7
  6
CONTINUOUS
 10
76.3467761966
 20
175.8533090718
 11
76.3051096889
 21
175.874585665
  0
LINE
  8
0
 62
7
  6
CONTINUOUS
 10
74.8676093312
 20
177.1086282201
 11
74.7842763158
 21
177.1511814065
  0
LINE
  8
0
 62
7
  6
CONTINUOUS
 10
71.9092761966
 20
177.9809686311
 11
71.8467761966
 21
178.0235218175
  0
LINE
  8
0
 62
7
  6
CONTINUOUS
 10
74.7217763158
 20
177.0873516269
 11
74.7842763158
 21
177.0447984405
  0
LINE
  8
0
 62
7
  6
CONTINUOUS
 10
71.8259428235
 20
177.9171388514
 11
71.8676094504
 21
177.874585665
  0
LINE
  8
0
 62
7
  6
CONTINUOUS
 10
71.9509428235
 20
177.9384154447
 11
71.9092761966
 21
177.9809686311
  0
LINE
  8
0
 62
7
  6
CONTINUOUS
 10
71.24260951
 20
177.3639473684
 11
71.221776137
 21
177.4065005586
  0
LINE
  8
0
 62
7
  6
CONTINUOUS
 10
71.096776137
 20
177.4703303494
 11
71.1384428235
 21
177.3639473684
  0
LINE
  8
0
 62
7
  6
CONTINUOUS
 10
71.9717761966
 20
177.874585665
 11
71.9509428235
 21
177.9384154447
  0
LINE
  8
0
 62
7
  6
CONTINUOUS
 10
71.221776137
 20
177.4065005586
 11
71.2009428235
 21
177.4916069426
  0
LINE
  8
0
 62
7
  6
CONTINUOUS
 10
71.8676094504
 20
177.874585665
 11
71.8884428235
 21
177.768202699
  0
LINE
  8
0
 62
7
  6
CONTINUOUS
 10
71.9926094504
 20
177.768202699
 11
71.9717761966
 21
177.874585665
  0
LINE
  8
0
 62
7
  6
CONTINUOUS
 10
71.8884428235
 20
177.768202699
 11
71.8884428235
 21
177.3639473684
  0
LINE
  8
0
 62
7
  6
CONTINUOUS
 10
71.9926094504
 20
177.3639473684
 11
71.9926094504
 21
177.768202699
  0
LINE
  8
0
 62
7
  6
CONTINUOUS
 10
72.1592761966
 20
178.3639473684
 11
72.1592761966
 21
178.2575644024
  0
LINE
  8
0
 62
7
  6
CONTINUOUS
 10
72.1592761966
 20
178.0447984107
 11
72.1592761966
 21
177.3639473684
  0
LINE
  8
0
 62
7
  6
CONTINUOUS
 10
72.2634428235
 20
177.3639473684
 11
72.2634428235
 21
178.0447984107
  0
LINE
  8
0
 62
7
  6
CONTINUOUS
 10
72.2634428235
 20
178.2575644024
 11
72.2634428235
 21
178.3639473684
  0
LINE
  8
0
 62
7
  6
CONTINUOUS
 10
73.4301095696
 20
178.3639473684
 11
73.4301095696
 21
177.3639473684
  0
LINE
  8
0
 62
7
  6
CONTINUOUS
 10
71.096776137
 20
177.5767133303
 11
71.0551094802
 21
177.5128835358
  0
LINE
  8
0
 62
7
  6
CONTINUOUS
 10
75.0759428235
 20
177.4916069426
 11
74.9926093312
 21
177.4703303494
  0
LINE
  8
0
 62
7
  6
CONTINUOUS
 10
75.6592763158
 20
177.9384154447
 11
75.7426093312
 21
177.9596920379
  0
LINE
  8
0
 62
7
  6
CONTINUOUS
 10
75.7426093312
 20
178.0447984107
 11
75.6592763158
 21
178.0235218175
  0
LINE
  8
0
 62
7
  6
CONTINUOUS
 10
74.8676093312
 20
178.0447984107
 11
74.7842763158
 21
178.0235218175
  0
LINE
  8
0
 62
7
  6
CONTINUOUS
 10
70.9092761668
 20
177.3639473684
 11
70.9926094802
 21
177.3852239635
  0
LINE
  8
0
 62
7
  6
CONTINUOUS
 10
70.9926094802
 20
177.4703303494
 11
70.9092761668
 21
177.4490537487
  0
LINE
  8
0
 62
7
  6
CONTINUOUS
 10
71.6176094504
 20
177.9384154447
 11
71.7009428235
 21
177.9596920379
  0
LINE
  8
0
 62
7
  6
CONTINUOUS
 10
71.7009428235
 20
178.0447984107
 11
71.6176094504
 21
178.0235218175
  0
LINE
  8
0
 62
7
  6
CONTINUOUS
 10
74.3051096293
 20
179.0128835358
 11
74.221776286
 21
178.9916069426
  0
LINE
  8
0
 62
7
  6
CONTINUOUS
 10
74.221776286
 20
178.8639473684
 11
74.3259429427
 21
178.8852239635
  0
LINE
  8
0
 62
7
  6
CONTINUOUS
 10
78.909275839
 20
177.8107558854
 11
79.284275839
 21
177.8107558854
  0
LINE
  8
0
 62
7
  6
CONTINUOUS
 10
77.9926093312
 20
177.8320324786
 11
78.5342763158
 21
177.8320324786
  0
LINE
  8
0
 62
7
  6
CONTINUOUS
 10
79.3051098081
 20
177.9384154447
 11
78.909275839
 21
177.9384154447
  0
LINE
  8
0
 62
7
  6
CONTINUOUS
 10
74.8676093312
 20
177.9384154447
 11
74.9926093312
 21
177.9384154447
  0
LINE
  8
0
 62
7
  6
CONTINUOUS
 10
78.5342763158
 20
177.9596920379
 11
77.9926093312
 21
177.9596920379
  0
LINE
  8
0
 62
7
  6
CONTINUOUS
 10
76.4717763158
 20
177.9596920379
 11
76.7009428235
 21
177.9596920379
  0
LINE
  8
0
 62
7
  6
CONTINUOUS
 10
76.2009428235
 20
177.9596920379
 11
76.3676093312
 21
177.9596920379
  0
LINE
  8
0
 62
7
  6
CONTINUOUS
 10
76.7009428235
 20
178.0447984107
 11
76.4717763158
 21
178.0447984107
  0
LINE
  8
0
 62
7
  6
CONTINUOUS
 10
76.3676093312
 20
178.0447984107
 11
76.2009428235
 21
178.0447984107
  0
LINE
  8
0
 62
7
  6
CONTINUOUS
 10
75.8259428235
 20
178.0447984107
 11
75.7426093312
 21
178.0447984107
  0
LINE
  8
0
 62
7
  6
CONTINUOUS
 10
75.2842763158
 20
178.0447984107
 11
75.1801093312
 21
178.0447984107
  0
LINE
  8
0
 62
7
  6
CONTINUOUS
 10
74.9926093312
 20
178.0447984107
 11
74.8676093312
 21
178.0447984107
  0
LINE
  8
0
 62
7
  6
CONTINUOUS
 10
74.4509428235
 20
178.0447984107
 11
74.3467760774
 21
178.0447984107
  0
LINE
  8
0
 62
7
  6
CONTINUOUS
 10
72.2634428235
 20
178.0447984107
 11
72.1592761966
 21
178.0447984107
  0
LINE
  8
0
 62
7
  6
CONTINUOUS
 10
71.7842761966
 20
178.0447984107
 11
71.7009428235
 21
178.0447984107
  0
LINE
  8
0
 62
7
  6
CONTINUOUS
 10
71.5134428235
 20
178.0447984107
 11
71.409276137
 21
178.0447984107
  0
LINE
  8
0
 62
7
  6
CONTINUOUS
 10
71.2009428235
 20
178.0447984107
 11
71.096776137
 21
178.0447984107
  0
LINE
  8
0
 62
7
  6
CONTINUOUS
 10
70.6801094877
 20
178.0447984107
 11
70.5759428235
 21
178.0447984107
  0
LINE
  8
0
 62
7
  6
CONTINUOUS
 10
76.4717763158
 20
178.215011216
 11
76.3676093312
 21
178.215011216
  0
LINE
  8
0
 62
7
  6
CONTINUOUS
 10
77.9926093312
 20
178.2362878092
 11
78.6176098081
 21
178.2362878092
  0
LINE
  8
0
 62
7
  6
CONTINUOUS
 10
72.1592761966
 20
178.2575644024
 11
72.2634428235
 21
178.2575644024
  0
LINE
  8
0
 62
7
  6
CONTINUOUS
 10
74.3467760774
 20
178.2575644024
 11
74.4509428235
 21
178.2575644024
  0
LINE
  8
0
 62
7
  6
CONTINUOUS
 10
78.909275839
 20
178.2575644024
 11
79.3051098081
 21
178.2575644024
  0
LINE
  8
0
 62
7
  6
CONTINUOUS
 10
79.284275839
 20
178.3639473684
 11
78.784275839
 21
178.3639473684
  0
LINE
  8
0
 62
7
  6
CONTINUOUS
 10
78.6176098081
 20
178.3639473684
 11
77.8676093312
 21
178.3639473684
  0
LINE
  8
0
 62
7
  6
CONTINUOUS
 10
75.5551093312
 20
178.3639473684
 11
75.4509428235
 21
178.3639473684
  0
LINE
  8
0
 62
7
  6
CONTINUOUS
 10
74.4509428235
 20
178.3639473684
 11
74.3467760774
 21
178.3639473684
  0
LINE
  8
0
 62
7
  6
CONTINUOUS
 10
73.5551095696
 20
178.3639473684
 11
73.4301095696
 21
178.3639473684
  0
LINE
  8
0
 62
7
  6
CONTINUOUS
 10
72.2634428235
 20
178.3639473684
 11
72.1592761966
 21
178.3639473684
  0
LINE
  8
0
 62
7
  6
CONTINUOUS
 10
74.0551095995
 20
178.8639473684
 11
74.221776286
 21
178.8639473684
  0
LINE
  8
0
 62
7
  6
CONTINUOUS
 10
74.7009429427
 20
178.8639473684
 11
75.4509429427
 21
178.8639473684
  0
LINE
  8
0
 62
7
  6
CONTINUOUS
 10
75.6176095696
 20
178.8639473684
 11
75.7426095696
 21
178.8639473684
  0
LINE
  8
0
 62
7
  6
CONTINUOUS
 10
75.4509429427
 20
178.9916069426
 11
74.8259429427
 21
178.9916069426
  0
LINE
  8
0
 62
7
  6
CONTINUOUS
 10
74.221776286
 20
178.9916069426
 11
74.0551095995
 21
178.9916069426
  0
LINE
  8
0
 62
7
  6
CONTINUOUS
 10
73.8884429427
 20
179.1405431099
 11
73.7634429427
 21
179.1405431099
  0
LINE
  8
0
 62
7
  6
CONTINUOUS
 10
76.5342763158
 20
177.3852239635
 11
76.6592763158
 21
177.3639473684
  0
LINE
  8
0
 62
7
  6
CONTINUOUS
 10
76.6592763158
 20
177.4490537487
 11
76.5551093312
 21
177.4703303494
  0
LINE
  8
0
 62
7
  6
CONTINUOUS
 10
73.9509429427
 20
178.8852239635
 11
74.0551095995
 21
178.8639473684
  0
LINE
  8
0
 62
7
  6
CONTINUOUS
 10
79.3884428235
 20
178.3426707752
 11
79.284275839
 21
178.3639473684
  0
LINE
  8
0
 62
7
  6
CONTINUOUS
 10
74.9926093312
 20
177.9384154447
 11
75.0759428235
 21
177.9171388514
  0
LINE
  8
0
 62
7
  6
CONTINUOUS
 10
75.0759428235
 20
178.0235218175
 11
74.9926093312
 21
178.0447984107
  0
LINE
  8
0
 62
7
  6
CONTINUOUS
 10
75.7426093312
 20
177.9596920379
 11
75.8259428235
 21
177.9384154447
  0
LINE
  8
0
 62
7
  6
CONTINUOUS
 10
74.0551095995
 20
178.9916069426
 11
73.9717762711
 21
179.0128835358
  0
LINE
  8
0
 62
7
  6
CONTINUOUS
 10
74.0134429427
 20
179.3320324786
 11
74.096776286
 21
179.3107558854
  0
LINE
  8
0
 62
7
  6
CONTINUOUS
 10
74.221776286
 20
179.3107558854
 11
74.3051096293
 21
179.2894792922
  0
LINE
  8
0
 62
7
  6
CONTINUOUS
 10
76.4717763158
 20
177.4065005586
 11
76.5342763158
 21
177.3852239635
  0
LINE
  8
0
 62
7
  6
CONTINUOUS
 10
75.8884428235
 20
178.0235218175
 11
75.8259428235
 21
178.0447984107
  0
LINE
  8
0
 62
7
  6
CONTINUOUS
 10
74.096776286
 20
179.4384154447
 11
74.034276286
 21
179.4596920379
  0
LINE
  8
0
 62
7
  6
CONTINUOUS
 10
68.2675453163
 20
181.01193432
 11
61.4575453163
 21
184.4818026311
  0
LINE
  8
0
 62
7
  6
CONTINUOUS
 10
75.1176093312
 20
178.0022452243
 11
75.0759428235
 21
178.0235218175
  0
LINE
  8
0
 62
7
  6
CONTINUOUS
 10
75.8259428235
 20
177.9384154447
 11
75.8676093312
 21
177.9171388514
  0
LINE
  8
0
 62
7
  6
CONTINUOUS
 10
73.9301096144
 20
179.374585665
 11
74.0134429427
 21
179.3320324786
  0
LINE
  8
0
 62
7
  6
CONTINUOUS
 10
74.4092762562
 20
179.374585665
 11
74.3259429427
 21
179.4171388514
  0
LINE
  8
0
 62
7
  6
CONTINUOUS
 10
73.8467762785
 20
178.9490537487
 11
73.9509429427
 21
178.8852239635
  0
LINE
  8
0
 62
7
  6
CONTINUOUS
 10
74.7217763158
 20
177.4277771555
 11
74.7842763158
 21
177.3852239635
  0
LINE
  8
0
 62
7
  6
CONTINUOUS
 10
74.8259428235
 20
177.4916069426
 11
74.7634428235
 21
177.534160129
  0
LINE
  8
0
 62
7
  6
CONTINUOUS
 10
75.0759428235
 20
177.9171388514
 11
75.1384428235
 21
177.874585665
  0
LINE
  8
0
 62
7
  6
CONTINUOUS
 10
76.4092763158
 20
177.4490537487
 11
76.4717763158
 21
177.4065005586
  0
LINE
  8
0
 62
7
  6
CONTINUOUS
 10
76.5551093312
 20
177.4703303494
 11
76.4926093312
 21
177.5128835358
  0
LINE
  8
0
 62
7
  6
CONTINUOUS
 10
75.9509428235
 20
177.9809686311
 11
75.8884428235
 21
178.0235218175
  0
LINE
  8
0
 62
7
  6
CONTINUOUS
 10
74.034276286
 20
179.4596920379
 11
73.9717762711
 21
179.5022452243
  0
LINE
  8
0
 62
7
  6
CONTINUOUS
 10
74.3051096293
 20
179.2894792922
 11
74.3676096293
 21
179.2469261058
  0
LINE
  8
0
 62
7
  6
CONTINUOUS
 10
76.3467761966
 20
176.2788409956
 11
76.2634429427
 21
176.3426707752
  0
LINE
  8
0
 62
7
  6
CONTINUOUS
 10
74.6592763158
 20
177.1511814065
 11
74.7217763158
 21
177.0873516269
  0
LINE
  8
0
 62
7
  6
CONTINUOUS
 10
76.2426096889
 20
175.7894792922
 11
76.2842761966
 21
175.7469261058
  0
LINE
  8
0
 62
7
  6
CONTINUOUS
 10
74.6592763158
 20
177.4916069426
 11
74.7217763158
 21
177.4277771555
  0
LINE
  8
0
 62
7
  6
CONTINUOUS
 10
76.2426096889
 20
176.215011216
 11
76.2842761966
 21
176.1724580295
  0
LINE
  8
0
 62
7
  6
CONTINUOUS
 10
73.9717762711
 20
179.0128835358
 11
73.9092762711
 21
179.0767133303
  0
LINE
  8
0
 62
7
  6
CONTINUOUS
 10
75.1592763158
 20
177.9596920379
 11
75.1176093312
 21
178.0022452243
  0
LINE
  8
0
 62
7
  6
CONTINUOUS
 10
73.8467762785
 20
179.4596920379
 11
73.9301096144
 21
179.374585665
  0
LINE
  8
0
 62
7
  6
CONTINUOUS
 10
76.4092761966
 20
175.768202699
 11
76.3467761966
 21
175.8533090718
  0
LINE
  8
0
 62
7
  6
CONTINUOUS
 10
76.4092761966
 20
176.1937346228
 11
76.3467761966
 21
176.2788409956
  0
LINE
  8
0
 62
7
  6
CONTINUOUS
 10
74.7842763158
 20
177.1511814065
 11
74.7426093312
 21
177.2150112011
  0
LINE
  8
0
 62
7
  6
CONTINUOUS
 10
75.1384428235
 20
177.874585665
 11
75.1801093312
 21
177.8107558854
  0
LINE
  8
0
 62
7
  6
CONTINUOUS
 10
73.7842762767
 20
179.0554367371
 11
73.8467762785
 21
178.9490537487
  0
LINE
  8
0
 62
7
  6
CONTINUOUS
 10
74.6384428235
 20
177.534160129
 11
74.6592763158
 21
177.4916069426
  0
LINE
  8
0
 62
7
  6
CONTINUOUS
 10
74.7634428235
 20
177.534160129
 11
74.7426093312
 21
177.5767133303
  0
LINE
  8
0
 62
7
  6
CONTINUOUS
 10
73.9092762711
 20
179.0767133303
 11
73.8884429427
 21
179.1405431099
  0
LINE
  8
0
 62
7
  6
CONTINUOUS
 10
74.6176093312
 20
177.2788409881
 11
74.6592763158
 21
177.1511814065
  0
LINE
  8
0
 62
7
  6
CONTINUOUS
 10
73.7634429427
 20
179.1405431099
 11
73.7842762767
 21
179.0554367371
  0
LINE
  8
0
 62
7
  6
CONTINUOUS
 10
73.5551095696
 20
177.4916069426
 11
73.5551095696
 21
178.3639473684
  0
LINE
  8
0
 62
7
  6
CONTINUOUS
 10
73.7009429427
 20
176.3639473684
 11
73.7009429427
 21
176.2575644024
  0
LINE
  8
0
 62
7
  6
CONTINUOUS
 10
73.8259429427
 20
179.6299048431
 11
73.8259429427
 21
179.5447984107
  0
LINE
  8
0
 62
7
  6
CONTINUOUS
 10
73.9509429427
 20
179.5660750039
 11
73.9509429427
 21
179.6086281903
  0
LINE
  8
0
 62
7
  6
CONTINUOUS
 10
74.034276286
 20
176.2575644024
 11
74.034276286
 21
175.3639473684
  0
LINE
  8
0
 62
7
  6
CONTINUOUS
 10
74.159276286
 20
175.3639473684
 11
74.159276286
 21
176.2575644024
  0
LINE
  8
0
 62
7
  6
CONTINUOUS
 10
74.1801095696
 20
177.3639473684
 11
74.1801095696
 21
177.4916069426
  0
LINE
  8
0
 62
7
  6
CONTINUOUS
 10
74.3467760774
 20
178.3639473684
 11
74.3467760774
 21
178.2575644024
  0
LINE
  8
0
 62
7
  6
CONTINUOUS
 10
74.3467760774
 20
178.0447984107
 11
74.3467760774
 21
177.3639473684
  0
LINE
  8
0
 62
7
  6
CONTINUOUS
 10
74.4092762562
 20
179.1830962963
 11
74.4092762562
 21
179.1192665167
  0
LINE
  8
0
 62
7
  6
CONTINUOUS
 10
74.4509428235
 20
177.3639473684
 11
74.4509428235
 21
178.0447984107
  0
LINE
  8
0
 62
7
  6
CONTINUOUS
 10
74.4509428235
 20
178.2575644024
 11
74.4509428235
 21
178.3639473684
  0
LINE
  8
0
 62
7
  6
CONTINUOUS
 10
74.4926096293
 20
176.2575644024
 11
74.4926096293
 21
176.3639473684
  0
LINE
  8
0
 62
7
  6
CONTINUOUS
 10
74.5342762562
 20
179.0979899235
 11
74.5342762562
 21
179.2043728896
  0
LINE
  8
0
 62
7
  6
CONTINUOUS
 10
74.6176093312
 20
177.7894792922
 11
74.6176093312
 21
177.6192665167
  0
LINE
  8
0
 62
7
  6
CONTINUOUS
 10
74.7009429427
 20
179.8639473684
 11
74.7009429427
 21
178.8639473684
  0
LINE
  8
0
 62
7
  6
CONTINUOUS
 10
74.7217763158
 20
177.6405431099
 11
74.7217763158
 21
177.768202699
  0
LINE
  8
0
 62
7
  6
CONTINUOUS
 10
74.8259429427
 20
178.9916069426
 11
74.8259429427
 21
179.8639473684
  0
LINE
  8
DEFAULT_1
 62
2
  6
CENTER
 10
75.0655263158
 20
198.0139473684
 11
75.0655263158
 21
163.6139473684
  0
LINE
  8
0
 62
7
  6
CONTINUOUS
 10
75.1801093312
 20
177.8107558854
 11
75.1801093312
 21
177.5979899235
  0
LINE
  8
0
 62
7
  6
CONTINUOUS
 10
75.1801093312
 20
178.0447984107
 11
75.1801093312
 21
177.9171388514
  0
LINE
  8
0
 62
7
  6
CONTINUOUS
 10
75.1801093312
 20
177.4916069426
 11
75.1801093312
 21
177.3213941783
  0
LINE
  8
0
 62
7
  6
CONTINUOUS
 10
75.2842763158
 20
177.3213941783
 11
75.2842763158
 21
178.0447984107
  0
LINE
  8
0
 62
7
  6
CONTINUOUS
 10
73.8467762785
 20
179.715011216
 11
73.8259429427
 21
179.6299048431
  0
LINE
  8
0
 62
7
  6
CONTINUOUS
 10
73.9509429427
 20
179.6086281903
 11
73.9717762711
 21
179.6724580295
  0
LINE
  8
0
 62
7
  6
CONTINUOUS
 10
71.55510951
 20
177.9809686311
 11
71.5134428235
 21
177.9384154447
  0
LINE
  8
0
 62
7
  6
CONTINUOUS
 10
71.0342761668
 20
177.4065005586
 11
71.096776137
 21
177.4703303494
  0
LINE
  8
0
 62
7
  6
CONTINUOUS
 10
71.5134428235
 20
177.8533090718
 11
71.55510951
 21
177.8958622582
  0
LINE
  8
0
 62
7
  6
CONTINUOUS
 10
73.9301096144
 20
179.8001175888
 11
73.8467762785
 21
179.715011216
  0
LINE
  8
0
 62
7
  6
CONTINUOUS
 10
74.096776286
 20
179.8639473684
 11
74.0134429427
 21
179.8426707752
  0
LINE
  8
0
 62
7
  6
CONTINUOUS
 10
74.096776286
 20
179.3107558854
 11
74.221776286
 21
179.3107558854
  0
LINE
  8
0
 62
7
  6
CONTINUOUS
 10
75.7426095696
 20
179.3320324786
 11
76.2842761966
 21
179.3320324786
  0
LINE
  8
0
 62
7
  6
CONTINUOUS
 10
74.221776286
 20
179.4384154447
 11
74.096776286
 21
179.4384154447
  0
LINE
  8
0
 62
7
  6
CONTINUOUS
 10
76.2842761966
 20
179.4596920379
 11
75.7426095696
 21
179.4596920379
  0
LINE
  8
0
 62
7
  6
CONTINUOUS
 10
74.3467762562
 20
179.6299048431
 11
74.4717762562
 21
179.6299048431
  0
LINE
  8
0
 62
7
  6
CONTINUOUS
 10
74.096776286
 20
179.7362878092
 11
74.221776286
 21
179.7362878092
  0
LINE
  8
0
 62
7
  6
CONTINUOUS
 10
75.7426095696
 20
179.7362878092
 11
76.3676096889
 21
179.7362878092
  0
LINE
  8
0
 62
7
  6
CONTINUOUS
 10
76.3676096889
 20
179.8639473684
 11
75.6176095696
 21
179.8639473684
  0
LINE
  8
0
 62
7
  6
CONTINUOUS
 10
74.8259429427
 20
179.8639473684
 11
74.7009429427
 21
179.8639473684
  0
LINE
  8
0
 62
7
  6
CONTINUOUS
 10
74.2009429427
 20
179.8639473684
 11
74.096776286
 21
179.8639473684
  0
LINE
  8
0
 62
7
  6
CONTINUOUS
 10
80.9555263158
 20
180.7939473684
 11
69.1755263158
 21
180.7939473684
  0
LINE
  8
0
 62
7
  6
CONTINUOUS
 10
74.3259429427
 20
179.4171388514
 11
74.221776286
 21
179.4384154447
  0
LINE
  8
0
 62
7
  6
CONTINUOUS
 10
74.3051096293
 20
179.8426707752
 11
74.2009429427
 21
179.8639473684
  0
LINE
  8
0
 62
7
  6
CONTINUOUS
 10
74.221776286
 20
179.7362878092
 11
74.2842762562
 21
179.715011216
  0
LINE
  8
0
 62
7
  6
CONTINUOUS
 10
79.3051098081
 20
178.2575644024
 11
79.3676098081
 21
178.2362878092
  0
LINE
  8
0
 62
7
  6
CONTINUOUS
 10
74.3884429427
 20
179.7788409956
 11
74.3051096293
 21
179.8426707752
  0
LINE
  8
0
 62
7
  6
CONTINUOUS
 10
74.4926096293
 20
179.2894792922
 11
74.4092762562
 21
179.374585665
  0
LINE
  8
0
 62
7
  6
CONTINUOUS
 10
75.8676093312
 20
177.9171388514
 11
75.9092763158
 21
177.874585665
  0
LINE
  8
0
 62
7
  6
CONTINUOUS
 10
75.9926093312
 20
177.9384154447
 11
75.9509428235
 21
177.9809686311
  0
LINE
  8
0
 62
7
  6
CONTINUOUS
 10
74.2842762562
 20
179.715011216
 11
74.3259429427
 21
179.6724580295
  0
LINE
  8
0
 62
7
  6
CONTINUOUS
 10
74.4509429427
 20
179.6937346228
 11
74.3884429427
 21
179.7788409956
  0
LINE
  8
0
 62
7
  6
CONTINUOUS
 10
74.3676096293
 20
179.2469261058
 11
74.4092762562
 21
179.1830962963
  0
LINE
  8
0
 62
7
  6
CONTINUOUS
 10
74.5342762562
 20
179.2043728896
 11
74.4926096293
 21
179.2894792922
  0
LINE
  8
0
 62
7
  6
CONTINUOUS
 10
75.1801093312
 20
177.9171388514
 11
75.1592763158
 21
177.9596920379
  0
LINE
  8
0
 62
7
  6
CONTINUOUS
 10
74.3259429427
 20
179.6724580295
 11
74.3467762562
 21
179.6299048431
  0
LINE
  8
0
 62
7
  6
CONTINUOUS
 10
76.0134428235
 20
177.8958622582
 11
75.9926093312
 21
177.9384154447
  0
LINE
  8
0
 62
7
  6
CONTINUOUS
 10
76.3676093312
 20
177.534160129
 11
76.4092763158
 21
177.4490537487
  0
LINE
  8
0
 62
7
  6
CONTINUOUS
 10
75.4926095696
 20
175.3639473684
 11
75.1592763158
 21
176.3639473684
  0
LINE
  8
0
 62
7
  6
CONTINUOUS
 10
73.9717762711
 20
179.5022452243
 11
73.9509429427
 21
179.5660750039
  0
LINE
  8
0
 62
7
  6
CONTINUOUS
 10
74.7426093312
 20
177.2150112011
 11
74.7217763158
 21
177.2788409881
  0
LINE
  8
0
 62
7
  6
CONTINUOUS
 10
75.2842763158
 20
175.6192665167
 11
75.3676095696
 21
175.3639473684
  0
LINE
  8
0
 62
7
  6
CONTINUOUS
 10
75.0759429427
 20
176.2788409956
 11
75.2634429427
 21
175.7043728896
  0
LINE
  8
0
 62
7
  6
CONTINUOUS
 10
74.7426093312
 20
177.5767133303
 11
74.7217763158
 21
177.6405431099
  0
LINE
  8
0
 62
7
  6
CONTINUOUS
 10
74.4717762562
 20
179.6299048431
 11
74.4509429427
 21
179.6937346228
  0
LINE
  8
0
 62
7
  6
CONTINUOUS
 10
76.2842761966
 20
175.7469261058
 11
76.3051096889
 21
175.6830962963
  0
LINE
  8
0
 62
7
  6
CONTINUOUS
 10
76.4301096889
 20
175.7043728896
 11
76.4092761966
 21
175.768202699
  0
LINE
  8
0
 62
7
  6
CONTINUOUS
 10
76.2842761966
 20
176.1724580295
 11
76.3051096889
 21
176.1086281903
  0
LINE
  8
0
 62
7
  6
CONTINUOUS
 10
76.4301096889
 20
176.1299048431
 11
76.4092761966
 21
176.1937346228
  0
LINE
  8
0
 62
7
  6
CONTINUOUS
 10
73.8259429427
 20
179.5447984107
 11
73.8467762785
 21
179.4596920379
  0
LINE
  8
0
 62
7
  6
CONTINUOUS
 10
74.6176093312
 20
177.6192665167
 11
74.6384428235
 21
177.534160129
  0
LINE
  8
0
 62
7
  6
CONTINUOUS
 10
75.9092763158
 20
177.874585665
 11
75.9301093312
 21
177.7894792922
  0
LINE
  8
0
 62
7
  6
CONTINUOUS
 10
75.4509428235
 20
178.3639473684
 11
75.4509428235
 21
177.3639473684
  0
LINE
  8
0
 62
7
  6
CONTINUOUS
 10
75.4509429427
 20
178.8639473684
 11
75.4509429427
 21
178.9916069426
  0
LINE
  8
0
 62
7
  6
CONTINUOUS
 10
75.5551093312
 20
177.3639473684
 11
75.5551093312
 21
177.8533090718
  0
LINE
  8
0
 62
7
  6
CONTINUOUS
 10
75.5551093312
 20
177.9384154447
 11
75.5551093312
 21
178.3639473684
  0
LINE
  8
0
 62
7
  6
CONTINUOUS
 10
75.6176095696
 20
179.8639473684
 11
75.6176095696
 21
178.8639473684
  0
LINE
  8
0
 62
7
  6
CONTINUOUS
 10
75.6592763158
 20
176.3639473684
 11
75.6592763158
 21
175.3639473684
  0
LINE
  8
0
 62
7
  6
CONTINUOUS
 10
75.7426095696
 20
178.8639473684
 11
75.7426095696
 21
179.3320324786
  0
LINE
  8
0
 62
7
  6
CONTINUOUS
 10
75.7426095696
 20
179.4596920379
 11
75.7426095696
 21
179.7362878092
  0
LINE
  8
0
 62
7
  6
CONTINUOUS
 10
75.7842761966
 20
175.4916069426
 11
75.7842761966
 21
175.8107558854
  0
LINE
  8
0
 62
7
  6
CONTINUOUS
 10
75.7842761966
 20
175.9384154447
 11
75.7842761966
 21
176.2362878092
  0
LINE
  8
0
 62
7
  6
CONTINUOUS
 10
75.9301093312
 20
177.7894792922
 11
75.9301093312
 21
177.3639473684
  0
LINE
  8
0
 62
7
  6
CONTINUOUS
 10
76.0342763158
 20
177.3639473684
 11
76.0342763158
 21
177.7894792922
  0
LINE
  8
0
 62
7
  6
CONTINUOUS
 10
76.2009428235
 20
178.0447984107
 11
76.2009428235
 21
177.9596920379
  0
LINE
  8
0
 62
7
  6
CONTINUOUS
 10
76.2842761966
 20
179.3320324786
 11
76.2842761966
 21
179.4596920379
  0
LINE
  8
0
 62
7
  6
CONTINUOUS
 10
76.3051096889
 20
176.1086281903
 11
76.3051096889
 21
176.0660750039
  0
LINE
  8
0
 62
7
  6
CONTINUOUS
 10
76.3051096889
 20
175.6830962963
 11
76.3051096889
 21
175.6192665167
  0
LINE
  8
0
 62
7
  6
CONTINUOUS
 10
76.3676093312
 20
178.215011216
 11
76.3676093312
 21
178.0447984107
  0
LINE
  8
0
 62
7
  6
CONTINUOUS
 10
76.3676093312
 20
177.9596920379
 11
76.3676093312
 21
177.534160129
  0
LINE
  8
0
 62
7
  6
CONTINUOUS
 10
76.3676096889
 20
179.7362878092
 11
76.3676096889
 21
179.8639473684
  0
LINE
  8
0
 62
7
  6
CONTINUOUS
 10
76.4301096889
 20
175.5979899235
 11
76.4301096889
 21
175.7043728896
  0
LINE
  8
0
 62
7
  6
CONTINUOUS
 10
76.4301096889
 20
176.0447984107
 11
76.4301096889
 21
176.1299048431
  0
LINE
  8
0
 62
7
  6
CONTINUOUS
 10
76.4717763158
 20
177.5767133303
 11
76.4717763158
 21
177.9596920379
  0
LINE
  8
0
 62
7
  6
CONTINUOUS
 10
76.4717763158
 20
178.0447984107
 11
76.4717763158
 21
178.215011216
  0
LINE
  8
0
 62
7
  6
CONTINUOUS
 10
76.6592763158
 20
177.3639473684
 11
76.6592763158
 21
177.4490537487
  0
LINE
  8
0
 62
7
  6
CONTINUOUS
 10
76.7009428235
 20
177.9596920379
 11
76.7009428235
 21
178.0447984107
  0
LINE
  8
0
 62
7
  6
CONTINUOUS
 10
74.6384428235
 20
177.874585665
 11
74.6176093312
 21
177.7894792922
  0
LINE
  8
0
 62
7
  6
CONTINUOUS
 10
75.1801093312
 20
177.3213941783
 11
75.1592763158
 21
177.2362877943
  0
LINE
  8
0
 62
7
  6
CONTINUOUS
 10
75.2426093312
 20
177.1724579997
 11
75.2842763158
 21
177.3213941783
  0
LINE
  8
0
 62
7
  6
CONTINUOUS
 10
74.7217763158
 20
177.768202699
 11
74.7426093312
 21
177.8320324786
  0
LINE
  8
0
 62
7
  6
CONTINUOUS
 10
74.8884429427
 20
175.7043728896
 11
75.0759429427
 21
176.2788409956
  0
LINE
  8
0
 62
7
  6
CONTINUOUS
 10
74.7842763158
 20
175.3639473684
 11
74.8676095696
 21
175.6192665167
  0
LINE
  8
0
 62
7
  6
CONTINUOUS
 10
74.9926095696
 20
176.3639473684
 11
74.6592762562
 21
175.3639473684
  0
LINE
  8
0
 62
7
  6
CONTINUOUS
 10
74.4926096293
 20
179.0128835358
 11
74.5342762562
 21
179.0979899235
  0
LINE
  8
0
 62
7
  6
CONTINUOUS
 10
74.6592763158
 20
177.9171388514
 11
74.6384428235
 21
177.874585665
  0
LINE
  8
0
 62
7
  6
CONTINUOUS
 10
75.1592763158
 20
177.4490537487
 11
75.1801093312
 21
177.4916069426
  0
LINE
  8
0
 62
7
  6
CONTINUOUS
 10
75.1592763158
 20
177.2362877943
 11
75.1384428235
 21
177.1937346079
  0
LINE
  8
0
 62
7
  6
CONTINUOUS
 10
74.4092762562
 20
179.1192665167
 11
74.3676096293
 21
179.0554367371
  0
LINE
  8
0
 62
7
  6
CONTINUOUS
 10
74.7426093312
 20
177.8320324786
 11
74.7842763158
 21
177.8958622582
  0
LINE
  8
0
 62
7
  6
CONTINUOUS
 10
75.1801093312
 20
177.5979899235
 11
75.1384428235
 21
177.534160129
  0
LINE
  8
0
 62
7
  6
CONTINUOUS
 10
74.4092762562
 20
178.9277771555
 11
74.4926096293
 21
179.0128835358
  0
LINE
  8
0
 62
7
  6
CONTINUOUS
 10
74.7217763158
 20
177.9809686311
 11
74.6592763158
 21
177.9171388514
  0
LINE
  8
0
 62
7
  6
CONTINUOUS
 10
73.9717762711
 20
179.6724580295
 11
74.034276286
 21
179.715011216
  0
LINE
  8
0
 62
7
  6
CONTINUOUS
 10
71.6176094504
 20
178.0235218175
 11
71.55510951
 21
177.9809686311
  0
LINE
  8
0
 62
7
  6
CONTINUOUS
 10
71.55510951
 20
177.8958622582
 11
71.6176094504
 21
177.9384154447
  0
LINE
  8
0
 62
7
  6
CONTINUOUS
 10
71.0551094802
 20
177.5128835358
 11
70.9926094802
 21
177.4703303494
  0
LINE
  8
0
 62
7
  6
CONTINUOUS
 10
74.3676096293
 20
179.0554367371
 11
74.3051096293
 21
179.0128835358
  0
LINE
  8
0
 62
7
  6
CONTINUOUS
 10
74.0134429427
 20
179.8426707752
 11
73.9301096144
 21
179.8001175888
  0
LINE
  8
0
 62
7
  6
CONTINUOUS
 10
70.9926094802
 20
177.3852239635
 11
71.0342761668
 21
177.4065005586
  0
LINE
  8
0
 62
7
  6
CONTINUOUS
 10
74.3259429427
 20
178.8852239635
 11
74.4092762562
 21
178.9277771555
  0
LINE
  8
0
 62
7
  6
CONTINUOUS
 10
74.034276286
 20
179.715011216
 11
74.096776286
 21
179.7362878092
  0
LINE
  8
0
 62
7
  6
CONTINUOUS
 10
79.471775839
 20
178.2788409956
 11
79.3884428235
 21
178.3426707752
  0
LINE
  8
0
 62
7
  6
CONTINUOUS
 10
79.3676098081
 20
178.2362878092
 11
79.409275839
 21
178.1937346228
  0
LINE
  8
0
 62
7
  6
CONTINUOUS
 10
76.4926093312
 20
177.5128835358
 11
76.4717763158
 21
177.5767133303
  0
LINE
  8
0
 62
7
  6
CONTINUOUS
 10
76.0342763158
 20
177.7894792922
 11
76.0134428235
 21
177.8958622582
  0
LINE
  8
0
 62
7
  6
CONTINUOUS
 10
77.8676093312
 20
178.3639473684
 11
77.8676093312
 21
177.3639473684
  0
LINE
  8
0
 62
7
  6
CONTINUOUS
 10
77.9926093312
 20
177.4916069426
 11
77.9926093312
 21
177.8320324786
  0
LINE
  8
0
 62
7
  6
CONTINUOUS
 10
77.9926093312
 20
177.9596920379
 11
77.9926093312
 21
178.2362878092
  0
LINE
  8
0
 62
7
  6
CONTINUOUS
 10
78.5342763158
 20
177.8320324786
 11
78.5342763158
 21
177.9596920379
  0
LINE
  8
0
 62
7
  6
CONTINUOUS
 10
78.6176098081
 20
177.3639473684
 11
78.6176098081
 21
177.4916069426
  0
LINE
  8
0
 62
7
  6
CONTINUOUS
 10
78.6176098081
 20
178.2362878092
 11
78.6176098081
 21
178.3639473684
  0
LINE
  8
0
 62
7
  6
CONTINUOUS
 10
78.784275839
 20
178.3639473684
 11
78.784275839
 21
177.3639473684
  0
LINE
  8
0
 62
7
  6
CONTINUOUS
 10
76.3051096889
 20
176.0660750039
 11
76.2842761966
 21
176.0022452243
  0
LINE
  8
0
 62
7
  6
CONTINUOUS
 10
76.4092761966
 20
175.9809686311
 11
76.4301096889
 21
176.0447984107
  0
LINE
  8
0
 62
7
  6
CONTINUOUS
 10
76.3051096889
 20
175.6192665167
 11
76.2842761966
 21
175.5554367371
  0
LINE
  8
0
 62
7
  6
CONTINUOUS
 10
76.4092761966
 20
175.534160129
 11
76.4301096889
 21
175.5979899235
  0
LINE
  8
0
 62
7
  6
CONTINUOUS
 10
75.2009428235
 20
177.1086282201
 11
75.2426093312
 21
177.1724579997
  0
LINE
  8
0
 62
7
  6
CONTINUOUS
 10
75.5967763158
 20
177.9809686311
 11
75.5551093312
 21
177.9384154447
  0
LINE
  8
0
 62
7
  6
CONTINUOUS
 10
75.5551093312
 20
177.8533090718
 11
75.5967763158
 21
177.8958622582
  0
LINE
  8
0
 62
7
  6
CONTINUOUS
 10
75.1176093312
 20
177.4065005586
 11
75.1592763158
 21
177.4490537487
  0
LINE
  8
0
 62
7
  6
CONTINUOUS
 10
75.1384428235
 20
177.1937346079
 11
75.0759428235
 21
177.1299048133
  0
LINE
  8
0
 62
7
  6
CONTINUOUS
 10
74.7842763158
 20
178.0235218175
 11
74.7217763158
 21
177.9809686311
  0
LINE
  8
0
 62
7
  6
CONTINUOUS
 10
75.6592763158
 20
178.0235218175
 11
75.5967763158
 21
177.9809686311
  0
LINE
  8
0
 62
7
  6
CONTINUOUS
 10
75.5967763158
 20
177.8958622582
 11
75.6592763158
 21
177.9384154447
  0
LINE
  8
0
 62
7
  6
CONTINUOUS
 10
75.1384428235
 20
177.534160129
 11
75.0759428235
 21
177.4916069426
  0
LINE
  8
0
 62
7
  6
CONTINUOUS
 10
75.1384428235
 20
177.0660750337
 11
75.2009428235
 21
177.1086282201
  0
LINE
  8
0
 62
7
  6
CONTINUOUS
 10
74.7842763158
 20
177.8958622582
 11
74.8676093312
 21
177.9384154447
  0
LINE
  8
0
 62
7
  6
CONTINUOUS
 10
75.0759428235
 20
177.3852239635
 11
75.1176093312
 21
177.4065005586
  0
LINE
  8
0
 62
7
  6
CONTINUOUS
 10
88.6735073153
 20
184.4818026311
 11
81.8635073153
 21
181.01193432
  0
LINE
  8
0
 62
7
  6
CONTINUOUS
 10
75.0759428235
 20
177.0447984405
 11
75.1384428235
 21
177.0660750337
  0
LINE
  8
0
 62
7
  6
CONTINUOUS
 10
79.534275839
 20
178.1937346228
 11
79.471775839
 21
178.2788409956
  0
LINE
  8
0
 62
7
  6
CONTINUOUS
 10
79.409275839
 20
178.1937346228
 11
79.4301098081
 21
178.1299048431
  0
LINE
  8
0
 62
7
  6
CONTINUOUS
 10
79.5551098081
 20
178.1299048431
 11
79.534275839
 21
178.1937346228
  0
LINE
  8
0
 62
7
  6
CONTINUOUS
 10
78.909275839
 20
177.3639473684
 11
78.909275839
 21
177.8107558854
  0
LINE
  8
0
 62
7
  6
CONTINUOUS
 10
78.909275839
 20
177.9384154447
 11
78.909275839
 21
178.2575644024
  0
LINE
  8
0
 62
7
  6
CONTINUOUS
 10
79.4301098081
 20
178.1299048431
 11
79.4301098081
 21
178.0660750039
  0
LINE
  8
0
 62
7
  6
CONTINUOUS
 10
79.5551098081
 20
178.0447984107
 11
79.5551098081
 21
178.1299048431
  0
LINE
  8
0
 62
7
  6
CONTINUOUS
 10
79.4301098081
 20
178.0660750039
 11
79.409275839
 21
178.0022452243
  0
LINE
  8
0
 62
7
  6
CONTINUOUS
 10
79.534275839
 20
177.9809686311
 11
79.5551098081
 21
178.0447984107
  0
LINE
  8
0
 62
7
  6
CONTINUOUS
 10
76.3467761966
 20
175.8958622582
 11
76.4092761966
 21
175.9809686311
  0
LINE
  8
0
 62
7
  6
CONTINUOUS
 10
76.3467761966
 20
175.4490537487
 11
76.4092761966
 21
175.534160129
  0
LINE
  8
0
 62
7
  6
CONTINUOUS
 10
79.471775839
 20
177.8958622582
 11
79.534275839
 21
177.9809686311
  0
LINE
  8
0
 62
7
  6
CONTINUOUS
 10
76.2842761966
 20
176.0022452243
 11
76.2426096889
 21
175.9596920379
  0
LINE
  8
0
 62
7
  6
CONTINUOUS
 10
76.2842761966
 20
175.5554367371
 11
76.2426096889
 21
175.5128835358
  0
LINE
  8
0
 62
7
  6
CONTINUOUS
 10
79.409275839
 20
178.0022452243
 11
79.3676098081
 21
177.9596920379
  0
LINE
  8
0
 62
7
  6
CONTINUOUS
 10
79.3884428235
 20
177.8320324786
 11
79.471775839
 21
177.8958622582
  0
LINE
  8
0
 62
7
  6
CONTINUOUS
 10
76.2634429427
 20
175.3852239635
 11
76.3467761966
 21
175.4490537487
  0
LINE
  8
0
 62
7
  6
CONTINUOUS
 10
76.3051096889
 20
175.874585665
 11
76.3467761966
 21
175.8958622582
  0
LINE
  8
0
 62
7
  6
CONTINUOUS
 10
79.3676098081
 20
177.9596920379
 11
79.3051098081
 21
177.9384154447
  0
LINE
  8
0
 62
7
  6
CONTINUOUS
 10
76.2426096889
 20
175.9596920379
 11
76.1801096889
 21
175.9384154447
  0
LINE
  8
0
 62
7
  6
CONTINUOUS
 10
76.2426096889
 20
175.5128835358
 11
76.1801096889
 21
175.4916069426
  0
LINE
  8
0
 62
7
  6
CONTINUOUS
 10
52.2755263158
 20
189.7776759933
 11
51.7755263158
 21
189.8360070374
  0
LINE
  8
DEFAULT_1
 62
2
  6
CENTER
 10
94.1155263158
 20
188.8639473684
 11
86.6155263158
 21
188.8639473684
  0
LINE
  8
DEFAULT_1
 62
2
  6
CENTER
 10
56.0155263158
 20
188.8639473684
 11
48.5155263158
 21
188.8639473684
  0
LINE
  8
DEFAULT_1
 62
2
  6
CENTER
 10
103.4655263158
 20
188.8639473684
 11
101.6155263158
 21
188.8639473684
  0
LINE
  8
DEFAULT_1
 62
2
  6
CENTER
 10
86.6155263158
 20
188.8639473684
 11
63.5155263158
 21
188.8639473684
  0
LINE
  8
DEFAULT_1
 62
2
  6
CENTER
 10
48.5155263158
 20
188.8639473684
 11
46.7755263158
 21
188.8639473684
  0
LINE
  8
DEFAULT_1
 62
2
  6
CENTER
 10
56.0155263158
 20
188.8639473684
 11
63.5155263158
 21
188.8639473684
  0
LINE
  8
DEFAULT_1
 62
2
  6
CENTER
 10
94.1155263158
 20
188.8639473684
 11
101.6155263158
 21
188.8639473684
  0
LINE
  8
0
 62
7
  6
CONTINUOUS
 10
51.7755263158
 20
187.8918876995
 11
52.2755263158
 21
187.9502187435
  0
LINE
  8
0
 62
7
  6
CONTINUOUS
 10
95.4193667968
 20
193.0139473684
 11
92.8116858347
 21
193.0139473684
  0
LINE
  8
0
 62
7
  6
CONTINUOUS
 10
57.3193667968
 20
193.0139473684
 11
54.7116858347
 21
193.0139473684
  0
LINE
  8
0
 62
7
  6
CONTINUOUS
 10
83.6796171671
 20
169.3428126616
 11
97.4739239174
 21
186.0992293811
  0
LINE
  8
0
 62
7
  6
CONTINUOUS
 10
84.1572107755
 20
171.1697462888
 11
84.522355555
 21
171.3576181173
  0
POLYLINE
  8
0
 62
7
  6
CONTINUOUS
 66
1
 70
0
  0
VERTEX
  8
0
 62
7
  6
CONTINUOUS
 10
83.6086328043
 20
170.8967145402
  0
VERTEX
  8
0
 62
7
  6
CONTINUOUS
 10
83.8768923443
 20
171.0284635697
  0
VERTEX
  8
0
 62
7
  6
CONTINUOUS
 10
83.9794346563
 20
171.0797828305
  0
VERTEX
  8
0
 62
7
  6
CONTINUOUS
 10
84.1572107755
 20
171.1697462888
  0
SEQEND
  0
LINE
  8
0
 62
7
  6
CONTINUOUS
 10
89.7655263158
 20
188.8639473684
 11
89.7655263158
 21
186.2638156795
  0
LINE
  8
DEFAULT_1
 62
2
  6
CENTER
 10
94.1155263158
 20
188.8639473684
 11
94.1155263158
 21
181.3639473684
  0
LINE
  8
DEFAULT_1
 62
2
  6
CENTER
 10
94.1155263158
 20
188.8639473684
 11
94.1155263158
 21
196.3639473684
  0
POLYLINE
  8
0
 62
7
  6
CONTINUOUS
 66
1
 70
0
  0
VERTEX
  8
0
 62
7
  6
CONTINUOUS
 10
95.4193667968
 20
193.0139473684
  0
VERTEX
  8
0
 62
7
  6
CONTINUOUS
 10
95.3871316271
 20
192.8063975377
  0
VERTEX
  8
0
 62
7
  6
CONTINUOUS
 10
95.3402711872
 20
192.5139473684
  0
SEQEND
  0
POLYLINE
  8
0
 62
7
  6
CONTINUOUS
 66
1
 70
0
  0
VERTEX
  8
0
 62
7
  6
CONTINUOUS
 10
92.8907814444
 20
192.5139473684
  0
VERTEX
  8
0
 62
7
  6
CONTINUOUS
 10
92.826576192
 20
192.9174284222
  0
VERTEX
  8
0
 62
7
  6
CONTINUOUS
 10
92.8116858347
 20
193.0139473684
  0
SEQEND
  0
LINE
  8
0
 62
7
  6
CONTINUOUS
 10
98.3555263158
 20
189.8360070374
 11
98.3555263158
 21
187.8918876995
  0
LINE
  8
0
 62
7
  6
CONTINUOUS
 10
51.7755263158
 20
99.9955263158
 11
51.7755263158
 21
94.8955263158
  0
LINE
  8
0
 62
7
  6
CONTINUOUS
 10
54.7116858347
 20
94.8955263158
 11
54.7116858347
 21
99.9955263158
  0
POLYLINE
  8
0
 62
7
  6
CONTINUOUS
 66
1
 70
0
  0
VERTEX
  8
0
 62
7
  6
CONTINUOUS
 10
54.7907814444
 20
100.4955263158
  0
VERTEX
  8
0
 62
7
  6
CONTINUOUS
 10
54.7439210045
 20
100.4010788999
  0
VERTEX
  8
0
 62
7
  6
CONTINUOUS
 10
54.726576192
 20
100.2908279231
  0
VERTEX
  8
0
 62
7
  6
CONTINUOUS
 10
54.7116858347
 20
99.9955263158
  0
SEQEND
  0
POLYLINE
  8
0
 62
7
  6
CONTINUOUS
 66
1
 70
0
  0
VERTEX
  8
0
 62
7
  6
CONTINUOUS
 10
54.7907814444
 20
94.3955263158
  0
VERTEX
  8
0
 62
7
  6
CONTINUOUS
 10
54.7439210045
 20
94.4899737317
  0
VERTEX
  8
0
 62
7
  6
CONTINUOUS
 10
54.726576192
 20
94.6002247085
  0
VERTEX
  8
0
 62
7
  6
CONTINUOUS
 10
54.7116858347
 20
94.8955263158
  0
SEQEND
  0
LINE
  8
DEFAULT_1
 62
2
  6
CENTER
 10
56.0155263158
 20
89.3955263158
 11
56.0155263158
 21
105.4955263158
  0
LINE
  8
0
 62
7
  6
CONTINUOUS
 10
57.3193667968
 20
99.9955263158
 11
57.3193667968
 21
94.8955263158
  0
LINE
  8
0
 62
7
  6
CONTINUOUS
 10
60.3655263158
 20
99.9955263158
 11
60.3655263158
 21
94.8955263158
  0
POLYLINE
  8
0
 62
7
  6
CONTINUOUS
 66
1
 70
0
  0
VERTEX
  8
0
 62
7
  6
CONTINUOUS
 10
57.2402711872
 20
94.3955263158
  0
VERTEX
  8
0
 62
7
  6
CONTINUOUS
 10
57.2871316271
 20
94.4899737317
  0
VERTEX
  8
0
 62
7
  6
CONTINUOUS
 10
57.3044764395
 20
94.6002247085
  0
VERTEX
  8
0
 62
7
  6
CONTINUOUS
 10
57.3193667968
 20
94.8955263158
  0
SEQEND
  0
POLYLINE
  8
0
 62
7
  6
CONTINUOUS
 66
1
 70
0
  0
VERTEX
  8
0
 62
7
  6
CONTINUOUS
 10
66.5224198273
 20
110.4455263158
  0
VERTEX
  8
0
 62
7
  6
CONTINUOUS
 10
66.2541602873
 20
110.3528187756
  0
VERTEX
  8
0
 62
7
  6
CONTINUOUS
 10
66.1516179752
 20
110.2430553109
  0
VERTEX
  8
0
 62
7
  6
CONTINUOUS
 10
66.0619286557
 20
109.9455263158
  0
SEQEND
  0
LINE
  8
0
 62
7
  6
CONTINUOUS
 10
66.2541602873
 20
84.538233856
 11
66.5224198273
 21
84.4455263158
  0
POLYLINE
  8
0
 62
7
  6
CONTINUOUS
 66
1
 70
0
  0
VERTEX
  8
0
 62
7
  6
CONTINUOUS
 10
57.2402711872
 20
100.4955263158
  0
VERTEX
  8
0
 62
7
  6
CONTINUOUS
 10
57.2871316271
 20
100.4010788999
  0
VERTEX
  8
0
 62
7
  6
CONTINUOUS
 10
57.3044764395
 20
100.2908279231
  0
VERTEX
  8
0
 62
7
  6
CONTINUOUS
 10
57.3193667968
 20
99.9955263158
  0
SEQEND
  0
LINE
  8
0
 62
7
  6
CONTINUOUS
 10
83.6355823076
 20
84.4455263158
 11
66.4954667774
 21
84.4455263158
  0
POLYLINE
  8
0
 62
7
  6
CONTINUOUS
 66
1
 70
0
  0
VERTEX
  8
0
 62
7
  6
CONTINUOUS
 10
66.0619286557
 20
84.9455263158
  0
VERTEX
  8
0
 62
7
  6
CONTINUOUS
 10
66.1516179752
 20
84.6479973207
  0
VERTEX
  8
0
 62
7
  6
CONTINUOUS
 10
66.2541602873
 20
84.538233856
  0
SEQEND
  0
LINE
  8
0
 62
7
  6
CONTINUOUS
 10
65.9955263158
 20
109.9455263158
 11
65.9955263158
 21
99.5975432097
  0
LINE
  8
0
 62
7
  6
CONTINUOUS
 10
65.9955263254
 20
95.2928126547
 11
65.9955263158
 21
84.9455263158
  0
LINE
  8
0
 62
7
  6
CONTINUOUS
 10
66.0619286557
 20
109.9455263158
 11
66.0619286557
 21
99.6955263158
  0
LINE
  8
0
 62
7
  6
CONTINUOUS
 10
66.0619286557
 20
95.1955263158
 11
66.0619286557
 21
84.9455263158
  0
POLYLINE
  8
0
 62
7
  6
CONTINUOUS
 66
1
 70
0
  0
VERTEX
  8
0
 62
7
  6
CONTINUOUS
 10
65.9955265348
 20
99.5982016253
  0
VERTEX
  8
0
 62
7
  6
CONTINUOUS
 10
65.9872338318
 20
99.5267958306
  0
VERTEX
  8
0
 62
7
  6
CONTINUOUS
 10
65.8545734355
 20
99.3060291364
  0
VERTEX
  8
0
 62
7
  6
CONTINUOUS
 10
65.6059809655
 20
99.2020179724
  0
SEQEND
  0
POLYLINE
  8
0
 62
7
  6
CONTINUOUS
 66
1
 70
0
  0
VERTEX
  8
0
 62
7
  6
CONTINUOUS
 10
66.0619286557
 20
99.6955263158
  0
VERTEX
  8
0
 62
7
  6
CONTINUOUS
 10
65.9738418561
 20
99.3999873787
  0
VERTEX
  8
0
 62
7
  6
CONTINUOUS
 10
65.873060283
 20
99.2899125953
  0
VERTEX
  8
0
 62
7
  6
CONTINUOUS
 10
65.6086970765
 20
99.1955263158
  0
SEQEND
  0
POLYLINE
  8
0
 62
7
  6
CONTINUOUS
 66
1
 70
0
  0
VERTEX
  8
0
 62
7
  6
CONTINUOUS
 10
66.0619286557
 20
95.1955263158
  0
VERTEX
  8
0
 62
7
  6
CONTINUOUS
 10
65.9738418561
 20
95.4910652529
  0
VERTEX
  8
0
 62
7
  6
CONTINUOUS
 10
65.873060283
 20
95.6011400363
  0
VERTEX
  8
0
 62
7
  6
CONTINUOUS
 10
65.6086970765
 20
95.6955263158
  0
SEQEND
  0
POLYLINE
  8
0
 62
7
  6
CONTINUOUS
 66
1
 70
0
  0
VERTEX
  8
0
 62
7
  6
CONTINUOUS
 10
65.5920010951
 20
95.694731677
  0
VERTEX
  8
0
 62
7
  6
CONTINUOUS
 10
65.8538875783
 20
95.585629724
  0
VERTEX
  8
0
 62
7
  6
CONTINUOUS
 10
65.9869837549
 20
95.3653676009
  0
VERTEX
  8
0
 62
7
  6
CONTINUOUS
 10
65.9955265447
 20
95.2928424055
  0
SEQEND
  0
LINE
  8
0
 62
7
  6
CONTINUOUS
 10
70.5759428235
 20
95.6955263158
 11
70.5759428235
 21
95.3955263158
  0
LINE
  8
0
 62
7
  6
CONTINUOUS
 10
70.6801094877
 20
95.6955263158
 11
70.6801094877
 21
95.3955263158
  0
LINE
  8
0
 62
7
  6
CONTINUOUS
 10
70.7009428235
 20
95.6955263158
 11
70.7009428235
 21
95.3955263158
  0
LINE
  8
0
 62
7
  6
CONTINUOUS
 10
70.7426094951
 20
95.6955263158
 11
70.7426094951
 21
95.3955263158
  0
LINE
  8
0
 62
7
  6
CONTINUOUS
 10
70.8259428235
 20
95.6955263158
 11
70.8259428235
 21
95.3955263158
  0
LINE
  8
0
 62
7
  6
CONTINUOUS
 10
70.9092761668
 20
95.6955263158
 11
70.9092761668
 21
95.3955263158
  0
LINE
  8
0
 62
7
  6
CONTINUOUS
 10
70.9926094802
 20
95.6955263158
 11
70.9926094802
 21
95.3955263158
  0
LINE
  8
0
 62
7
  6
CONTINUOUS
 10
71.0551094802
 20
95.6955263158
 11
71.0551094802
 21
95.3955263158
  0
LINE
  8
0
 62
7
  6
CONTINUOUS
 10
71.096776137
 20
95.6955263158
 11
71.096776137
 21
95.3955263158
  0
LINE
  8
0
 62
7
  6
CONTINUOUS
 10
71.2009428235
 20
95.6955263158
 11
71.2009428235
 21
95.3955263158
  0
LINE
  8
0
 62
7
  6
CONTINUOUS
 10
71.221776137
 20
95.6955263158
 11
71.221776137
 21
95.3955263158
  0
LINE
  8
0
 62
7
  6
CONTINUOUS
 10
71.24260951
 20
95.6955263158
 11
71.24260951
 21
95.3955263158
  0
LINE
  8
0
 62
7
  6
CONTINUOUS
 10
71.409276137
 20
95.6955263158
 11
71.409276137
 21
95.3955263158
  0
LINE
  8
0
 62
7
  6
CONTINUOUS
 10
71.5134428235
 20
95.6955263158
 11
71.5134428235
 21
95.3955263158
  0
LINE
  8
0
 62
7
  6
CONTINUOUS
 10
71.55510951
 20
95.6955263158
 11
71.55510951
 21
95.3955263158
  0
LINE
  8
0
 62
7
  6
CONTINUOUS
 10
71.6176094504
 20
95.6955263158
 11
71.6176094504
 21
95.3955263158
  0
LINE
  8
0
 62
7
  6
CONTINUOUS
 10
71.7009428235
 20
95.6955263158
 11
71.7009428235
 21
95.3955263158
  0
LINE
  8
0
 62
7
  6
CONTINUOUS
 10
71.7842761966
 20
95.6955263158
 11
71.7842761966
 21
95.3955263158
  0
LINE
  8
0
 62
7
  6
CONTINUOUS
 10
71.8467761966
 20
95.6955263158
 11
71.8467761966
 21
95.3955263158
  0
LINE
  8
0
 62
7
  6
CONTINUOUS
 10
71.9092761966
 20
95.6955263158
 11
71.9092761966
 21
95.3955263158
  0
LINE
  8
0
 62
7
  6
CONTINUOUS
 10
71.9509428235
 20
95.6955263158
 11
71.9509428235
 21
95.3955263158
  0
LINE
  8
0
 62
7
  6
CONTINUOUS
 10
71.9717761966
 20
95.6955263158
 11
71.9717761966
 21
95.3955263158
  0
LINE
  8
0
 62
7
  6
CONTINUOUS
 10
71.9926094504
 20
95.6955263158
 11
71.9926094504
 21
95.3955263158
  0
LINE
  8
0
 62
7
  6
CONTINUOUS
 10
72.1592761966
 20
95.6955263158
 11
72.1592761966
 21
95.3955263158
  0
LINE
  8
0
 62
7
  6
CONTINUOUS
 10
72.2634428235
 20
95.6955263158
 11
72.2634428235
 21
95.3955263158
  0
LINE
  8
0
 62
7
  6
CONTINUOUS
 10
73.4301095696
 20
95.6955263158
 11
73.4301095696
 21
95.3955263158
  0
LINE
  8
0
 62
7
  6
CONTINUOUS
 10
73.4326098081
 20
99.1955263158
 11
73.4326098081
 21
99.4955263158
  0
LINE
  8
0
 62
7
  6
CONTINUOUS
 10
97.9655251021
 20
94.3955263158
 11
90.2655278376
 21
94.3955263158
  0
LINE
  8
0
 62
7
  6
CONTINUOUS
 10
59.8652672988
 20
94.3955263158
 11
52.2755263158
 21
94.3955263158
  0
LINE
  8
0
 62
7
  6
CONTINUOUS
 10
79.5551098081
 20
95.3955263158
 11
78.784275839
 21
95.3955263158
  0
LINE
  8
0
 62
7
  6
CONTINUOUS
 10
78.6176098081
 20
95.3955263158
 11
77.8676093312
 21
95.3955263158
  0
LINE
  8
0
 62
7
  6
CONTINUOUS
 10
76.7009428235
 20
95.3955263158
 11
74.6176093312
 21
95.3955263158
  0
LINE
  8
0
 62
7
  6
CONTINUOUS
 10
74.5342762562
 20
95.3955263158
 11
73.4301095696
 21
95.3955263158
  0
LINE
  8
0
 62
7
  6
CONTINUOUS
 10
72.2634428235
 20
95.3955263158
 11
72.1592761966
 21
95.3955263158
  0
LINE
  8
0
 62
7
  6
CONTINUOUS
 10
71.9926094504
 20
95.3955263158
 11
71.409276137
 21
95.3955263158
  0
LINE
  8
0
 62
7
  6
CONTINUOUS
 10
71.24260951
 20
95.3955263158
 11
70.5759428235
 21
95.3955263158
  0
LINE
  8
0
 62
7
  6
CONTINUOUS
 10
89.7655263158
 20
95.6955263158
 11
60.3655263158
 21
95.6955263158
  0
LINE
  8
0
 62
7
  6
CONTINUOUS
 10
65.5671839332
 20
95.6955254058
 11
65.5920010951
 21
95.694731677
  0
LINE
  8
0
 62
7
  6
CONTINUOUS
 10
73.5551095696
 20
95.6955263158
 11
73.5551095696
 21
95.3955263158
  0
LINE
  8
0
 62
7
  6
CONTINUOUS
 10
73.7634429427
 20
95.6955263158
 11
73.7634429427
 21
95.3955263158
  0
LINE
  8
0
 62
7
  6
CONTINUOUS
 10
73.8259429427
 20
95.6955263158
 11
73.8259429427
 21
95.3955263158
  0
LINE
  8
0
 62
7
  6
CONTINUOUS
 10
73.8467762785
 20
95.6955263158
 11
73.8467762785
 21
95.3955263158
  0
LINE
  8
0
 62
7
  6
CONTINUOUS
 10
73.9301096144
 20
95.6955263158
 11
73.9301096144
 21
95.3955263158
  0
LINE
  8
0
 62
7
  6
CONTINUOUS
 10
74.0134429427
 20
95.6955263158
 11
74.0134429427
 21
95.3955263158
  0
LINE
  8
0
 62
7
  6
CONTINUOUS
 10
74.096776286
 20
95.6955263158
 11
74.096776286
 21
95.3955263158
  0
LINE
  8
0
 62
7
  6
CONTINUOUS
 10
74.2009429427
 20
95.6955263158
 11
74.2009429427
 21
95.3955263158
  0
LINE
  8
0
 62
7
  6
CONTINUOUS
 10
74.3051096293
 20
95.6955263158
 11
74.3051096293
 21
95.3955263158
  0
LINE
  8
0
 62
7
  6
CONTINUOUS
 10
74.3884429427
 20
95.6955263158
 11
74.3884429427
 21
95.3955263158
  0
LINE
  8
0
 62
7
  6
CONTINUOUS
 10
74.4509429427
 20
95.6955263158
 11
74.4509429427
 21
95.3955263158
  0
LINE
  8
0
 62
7
  6
CONTINUOUS
 10
74.4526098081
 20
99.1955263158
 11
74.4526098081
 21
99.4955263158
  0
LINE
  8
0
 62
7
  6
CONTINUOUS
 10
74.4717762562
 20
95.6955263158
 11
74.4717762562
 21
95.3955263158
  0
LINE
  8
0
 62
7
  6
CONTINUOUS
 10
74.4926096293
 20
95.6955263158
 11
74.4926096293
 21
95.3955263158
  0
LINE
  8
0
 62
7
  6
CONTINUOUS
 10
74.5342762562
 20
95.6955263158
 11
74.5342762562
 21
95.3955263158
  0
LINE
  8
0
 62
7
  6
CONTINUOUS
 10
74.6176093312
 20
95.6955263158
 11
74.6176093312
 21
95.3955263158
  0
LINE
  8
0
 62
7
  6
CONTINUOUS
 10
74.6384428235
 20
95.6955263158
 11
74.6384428235
 21
95.3955263158
  0
LINE
  8
0
 62
7
  6
CONTINUOUS
 10
74.6592763158
 20
95.6955263158
 11
74.6592763158
 21
95.3955263158
  0
LINE
  8
0
 62
7
  6
CONTINUOUS
 10
74.7009429427
 20
95.6955263158
 11
74.7009429427
 21
95.3955263158
  0
LINE
  8
0
 62
7
  6
CONTINUOUS
 10
74.8259429427
 20
95.6955263158
 11
74.8259429427
 21
95.3955263158
  0
LINE
  8
0
 62
7
  6
CONTINUOUS
 10
74.9926098081
 20
99.1955263158
 11
74.9926098081
 21
99.4955263158
  0
LINE
  8
DEFAULT_1
 62
2
  6
CENTER
 10
75.0655263158
 20
115.4455263158
 11
75.0655263158
 21
79.4455263158
  0
LINE
  8
DEFAULT_1
 62
2
  6
CENTER
 10
103.4655263158
 20
97.4455263158
 11
46.7755263158
 21
97.4455263158
  0
LINE
  8
0
 62
7
  6
CONTINUOUS
 10
75.3326098081
 20
99.1955263158
 11
75.3326098081
 21
99.4955263158
  0
LINE
  8
0
 62
7
  6
CONTINUOUS
 10
75.4126098081
 20
99.1955263158
 11
75.4126098081
 21
99.4955263158
  0
LINE
  8
0
 62
7
  6
CONTINUOUS
 10
75.4509429427
 20
95.6955263158
 11
75.4509429427
 21
95.3955263158
  0
LINE
  8
0
 62
7
  6
CONTINUOUS
 10
75.5551093312
 20
95.6955263158
 11
75.5551093312
 21
95.3955263158
  0
LINE
  8
0
 62
7
  6
CONTINUOUS
 10
75.5967763158
 20
95.6955263158
 11
75.5967763158
 21
95.3955263158
  0
LINE
  8
0
 62
7
  6
CONTINUOUS
 10
75.6176095696
 20
95.6955263158
 11
75.6176095696
 21
95.3955263158
  0
LINE
  8
0
 62
7
  6
CONTINUOUS
 10
75.7526098081
 20
99.1955263158
 11
75.7526098081
 21
99.4955263158
  0
LINE
  8
0
 62
7
  6
CONTINUOUS
 10
76.2126098081
 20
99.1955263158
 11
76.2126098081
 21
99.4955263158
  0
LINE
  8
0
 62
7
  6
CONTINUOUS
 10
76.3676096889
 20
95.6955263158
 11
76.3676096889
 21
95.3955263158
  0
LINE
  8
0
 62
7
  6
CONTINUOUS
 10
76.4717763158
 20
95.6955263158
 11
76.4717763158
 21
95.3955263158
  0
LINE
  8
0
 62
7
  6
CONTINUOUS
 10
76.5526098081
 20
99.1955263158
 11
76.5526098081
 21
99.4955263158
  0
LINE
  8
0
 62
7
  6
CONTINUOUS
 10
76.7009428235
 20
95.6955263158
 11
76.7009428235
 21
95.3955263158
  0
LINE
  8
0
 62
7
  6
CONTINUOUS
 10
60.3655263158
 20
99.1955263158
 11
89.7655263158
 21
99.1955263158
  0
LINE
  8
0
 62
7
  6
CONTINUOUS
 10
77.8676093312
 20
95.6955263158
 11
77.8676093312
 21
95.3955263158
  0
LINE
  8
0
 62
7
  6
CONTINUOUS
 10
78.6176098081
 20
95.6955263158
 11
78.6176098081
 21
95.3955263158
  0
LINE
  8
0
 62
7
  6
CONTINUOUS
 10
78.784275839
 20
95.6955263158
 11
78.784275839
 21
95.3955263158
  0
LINE
  8
0
 62
7
  6
CONTINUOUS
 10
73.4326098081
 20
99.4955263158
 11
75.3326098081
 21
99.4955263158
  0
LINE
  8
0
 62
7
  6
CONTINUOUS
 10
75.4126098081
 20
99.4955263158
 11
76.5526098081
 21
99.4955263158
  0
LINE
  8
0
 62
7
  6
CONTINUOUS
 10
52.2755263158
 20
100.4955263158
 11
59.8652672988
 21
100.4955263158
  0
LINE
  8
0
 62
7
  6
CONTINUOUS
 10
90.2657853327
 20
100.4955263158
 11
97.8555263158
 21
100.4955263158
  0
LINE
  8
0
 62
7
  6
CONTINUOUS
 10
84.5647759242
 20
99.1955170615
 11
84.5389128691
 21
99.1963211471
  0
LINE
  8
0
 62
7
  6
CONTINUOUS
 10
79.284275839
 20
95.6955263158
 11
79.284275839
 21
95.3955263158
  0
LINE
  8
0
 62
7
  6
CONTINUOUS
 10
79.3884428235
 20
95.6955263158
 11
79.3884428235
 21
95.3955263158
  0
LINE
  8
0
 62
7
  6
CONTINUOUS
 10
79.471775839
 20
95.6955263158
 11
79.471775839
 21
95.3955263158
  0
LINE
  8
0
 62
7
  6
CONTINUOUS
 10
79.534275839
 20
95.6955263158
 11
79.534275839
 21
95.3955263158
  0
LINE
  8
0
 62
7
  6
CONTINUOUS
 10
79.5551098081
 20
95.6955263158
 11
79.5551098081
 21
95.3955263158
  0
POLYLINE
  8
0
 62
7
  6
CONTINUOUS
 66
1
 70
0
  0
VERTEX
  8
0
 62
7
  6
CONTINUOUS
 10
84.5389128691
 20
99.1963211471
  0
VERTEX
  8
0
 62
7
  6
CONTINUOUS
 10
84.2770897469
 20
99.3054865871
  0
VERTEX
  8
0
 62
7
  6
CONTINUOUS
 10
84.1440679725
 20
99.5256722292
  0
VERTEX
  8
0
 62
7
  6
CONTINUOUS
 10
84.1355009014
 20
99.5981218078
  0
SEQEND
  0
LINE
  8
0
 62
7
  6
CONTINUOUS
 10
84.0691239759
 20
109.9455263158
 11
84.0691239759
 21
99.6955263158
  0
LINE
  8
0
 62
7
  6
CONTINUOUS
 10
84.0691239759
 20
95.1955263158
 11
84.0691239759
 21
84.9455263158
  0
LINE
  8
0
 62
7
  6
CONTINUOUS
 10
84.1355263158
 20
109.9455263158
 11
84.1355263158
 21
99.5962052274
  0
LINE
  8
0
 62
7
  6
CONTINUOUS
 10
84.1355263158
 20
95.294847226
 11
84.1355263158
 21
84.9455263158
  0
POLYLINE
  8
0
 62
7
  6
CONTINUOUS
 66
1
 70
0
  0
VERTEX
  8
0
 62
7
  6
CONTINUOUS
 10
84.1355008176
 20
95.2929495066
  0
VERTEX
  8
0
 62
7
  6
CONTINUOUS
 10
84.1437799954
 20
95.3641017896
  0
VERTEX
  8
0
 62
7
  6
CONTINUOUS
 10
84.2762955249
 20
95.5848637998
  0
VERTEX
  8
0
 62
7
  6
CONTINUOUS
 10
84.5250549521
 20
95.6890831712
  0
SEQEND
  0
POLYLINE
  8
0
 62
7
  6
CONTINUOUS
 66
1
 70
0
  0
VERTEX
  8
0
 62
7
  6
CONTINUOUS
 10
84.0691239759
 20
95.1955263158
  0
VERTEX
  8
0
 62
7
  6
CONTINUOUS
 10
84.1572107755
 20
95.4910652529
  0
VERTEX
  8
0
 62
7
  6
CONTINUOUS
 10
84.2579923486
 20
95.6011400363
  0
VERTEX
  8
0
 62
7
  6
CONTINUOUS
 10
84.522355555
 20
95.6955263158
  0
SEQEND
  0
POLYLINE
  8
0
 62
7
  6
CONTINUOUS
 66
1
 70
0
  0
VERTEX
  8
0
 62
7
  6
CONTINUOUS
 10
84.0691239759
 20
99.6955263158
  0
VERTEX
  8
0
 62
7
  6
CONTINUOUS
 10
84.1572107755
 20
99.3999873787
  0
VERTEX
  8
0
 62
7
  6
CONTINUOUS
 10
84.2579923486
 20
99.2899125953
  0
VERTEX
  8
0
 62
7
  6
CONTINUOUS
 10
84.522355555
 20
99.1955263158
  0
SEQEND
  0
POLYLINE
  8
0
 62
7
  6
CONTINUOUS
 66
1
 70
0
  0
VERTEX
  8
0
 62
7
  6
CONTINUOUS
 10
84.0691239759
 20
109.9455263158
  0
VERTEX
  8
0
 62
7
  6
CONTINUOUS
 10
83.9794346563
 20
110.2430553109
  0
VERTEX
  8
0
 62
7
  6
CONTINUOUS
 10
83.8768923443
 20
110.3528187756
  0
SEQEND
  0
LINE
  8
0
 62
7
  6
CONTINUOUS
 10
66.4961902736
 20
110.4455263158
 11
83.6355199665
 21
110.4455263158
  0
LINE
  8
0
 62
7
  6
CONTINUOUS
 10
89.7655263158
 20
99.9955263158
 11
89.7655263158
 21
94.8955263158
  0
POLYLINE
  8
0
 62
7
  6
CONTINUOUS
 66
1
 70
0
  0
VERTEX
  8
0
 62
7
  6
CONTINUOUS
 10
92.8907814444
 20
100.4955263158
  0
VERTEX
  8
0
 62
7
  6
CONTINUOUS
 10
92.8439210045
 20
100.4010788999
  0
VERTEX
  8
0
 62
7
  6
CONTINUOUS
 10
92.826576192
 20
100.2908279231
  0
VERTEX
  8
0
 62
7
  6
CONTINUOUS
 10
92.8116858347
 20
99.9955263158
  0
SEQEND
  0
POLYLINE
  8
0
 62
7
  6
CONTINUOUS
 66
1
 70
0
  0
VERTEX
  8
0
 62
7
  6
CONTINUOUS
 10
83.6086328043
 20
84.4455263158
  0
VERTEX
  8
0
 62
7
  6
CONTINUOUS
 10
83.8768923443
 20
84.538233856
  0
VERTEX
  8
0
 62
7
  6
CONTINUOUS
 10
83.9794346563
 20
84.6479973207
  0
VERTEX
  8
0
 62
7
  6
CONTINUOUS
 10
84.0691239759
 20
84.9455263158
  0
SEQEND
  0
LINE
  8
0
 62
7
  6
CONTINUOUS
 10
83.8768923443
 20
110.3528187756
 11
83.6086328043
 21
110.4455263158
  0
POLYLINE
  8
0
 62
7
  6
CONTINUOUS
 66
1
 70
0
  0
VERTEX
  8
0
 62
7
  6
CONTINUOUS
 10
92.8907814444
 20
94.3955263158
  0
VERTEX
  8
0
 62
7
  6
CONTINUOUS
 10
92.8439210045
 20
94.4899737317
  0
VERTEX
  8
0
 62
7
  6
CONTINUOUS
 10
92.826576192
 20
94.6002247085
  0
VERTEX
  8
0
 62
7
  6
CONTINUOUS
 10
92.8116858347
 20
94.8955263158
  0
SEQEND
  0
LINE
  8
0
 62
7
  6
CONTINUOUS
 10
92.8116858347
 20
94.8955263158
 11
92.8116858347
 21
99.9955263158
  0
LINE
  8
DEFAULT_1
 62
2
  6
CENTER
 10
94.1155263158
 20
89.3955263158
 11
94.1155263158
 21
105.4955263158
  0
POLYLINE
  8
0
 62
7
  6
CONTINUOUS
 66
1
 70
0
  0
VERTEX
  8
0
 62
7
  6
CONTINUOUS
 10
95.3402711872
 20
100.4955263158
  0
VERTEX
  8
0
 62
7
  6
CONTINUOUS
 10
95.3871316271
 20
100.4010788999
  0
VERTEX
  8
0
 62
7
  6
CONTINUOUS
 10
95.4044764395
 20
100.2908279231
  0
VERTEX
  8
0
 62
7
  6
CONTINUOUS
 10
95.4193667968
 20
99.9955263158
  0
SEQEND
  0
LINE
  8
0
 62
7
  6
CONTINUOUS
 10
95.4193667968
 20
99.9955263158
 11
95.4193667968
 21
94.8955263158
  0
POLYLINE
  8
0
 62
7
  6
CONTINUOUS
 66
1
 70
0
  0
VERTEX
  8
0
 62
7
  6
CONTINUOUS
 10
95.4193667968
 20
94.8955263158
  0
VERTEX
  8
0
 62
7
  6
CONTINUOUS
 10
95.4044764395
 20
94.6002247085
  0
VERTEX
  8
0
 62
7
  6
CONTINUOUS
 10
95.3871316271
 20
94.4899737317
  0
VERTEX
  8
0
 62
7
  6
CONTINUOUS
 10
95.3402711872
 20
94.3955263158
  0
SEQEND
  0
LINE
  8
0
 62
7
  6
CONTINUOUS
 10
98.3555263158
 20
99.9955263158
 11
98.3555263158
 21
94.5826534009
  0
LINE
  8
0
 62
7
  6
CONTINUOUS
 10
144.8781578947
 20
169.1139473684
 11
144.8781578947
 21
172.1139473684
  0
LINE
  8
0
 62
7
  6
CONTINUOUS
 10
170.3781578947
 20
168.6139473684
 11
145.3781578947
 21
168.6139473684
  0
LINE
  8
0
 62
7
  6
CONTINUOUS
 10
145.3781578947
 20
171.125024749
 11
155.6281578947
 21
171.125024749
  0
LINE
  8
0
 62
7
  6
CONTINUOUS
 10
160.1281578947
 20
171.125024749
 11
170.3781578947
 21
171.125024749
  0
POLYLINE
  8
0
 62
7
  6
CONTINUOUS
 66
1
 70
0
  0
VERTEX
  8
0
 62
7
  6
CONTINUOUS
 10
155.6281578947
 20
171.125024749
  0
VERTEX
  8
0
 62
7
  6
CONTINUOUS
 10
155.9236968319
 20
171.1697462888
  0
VERTEX
  8
0
 62
7
  6
CONTINUOUS
 10
156.0337716152
 20
171.2212270388
  0
SEQEND
  0
LINE
  8
0
 62
7
  6
CONTINUOUS
 10
145.3781578947
 20
172.6139473684
 11
155.6281578947
 21
172.6139473684
  0
LINE
  8
0
 62
7
  6
CONTINUOUS
 10
160.1281578947
 20
172.6139473684
 11
170.3781578947
 21
172.6139473684
  0
POLYLINE
  8
0
 62
7
  6
CONTINUOUS
 66
1
 70
0
  0
VERTEX
  8
0
 62
7
  6
CONTINUOUS
 10
160.1281578947
 20
171.125024749
  0
VERTEX
  8
0
 62
7
  6
CONTINUOUS
 10
159.8326189576
 20
171.1697462888
  0
VERTEX
  8
0
 62
7
  6
CONTINUOUS
 10
159.7225441742
 20
171.2212270388
  0
SEQEND
  0
POLYLINE
  8
0
 62
7
  6
CONTINUOUS
 66
1
 70
0
  0
VERTEX
  8
0
 62
7
  6
CONTINUOUS
 10
170.3781578947
 20
171.125024749
  0
VERTEX
  8
0
 62
7
  6
CONTINUOUS
 10
170.6756868898
 20
171.0797828305
  0
VERTEX
  8
0
 62
7
  6
CONTINUOUS
 10
170.7854503546
 20
171.0284635697
  0
VERTEX
  8
0
 62
7
  6
CONTINUOUS
 10
170.8781578947
 20
170.8967145402
  0
SEQEND
  0
POLYLINE
  8
0
 62
7
  6
CONTINUOUS
 66
1
 70
0
  0
VERTEX
  8
0
 62
7
  6
CONTINUOUS
 10
144.8781578947
 20
170.8967145402
  0
VERTEX
  8
0
 62
7
  6
CONTINUOUS
 10
144.9708654349
 20
171.0284635697
  0
VERTEX
  8
0
 62
7
  6
CONTINUOUS
 10
145.0806288996
 20
171.0797828305
  0
VERTEX
  8
0
 62
7
  6
CONTINUOUS
 10
145.3781578947
 20
171.125024749
  0
SEQEND
  0
LINE
  8
0
 62
7
  6
CONTINUOUS
 10
159.6281578947
 20
175.3639473684
 11
159.9281578947
 21
175.3639473684
  0
LINE
  8
0
 62
7
  6
CONTINUOUS
 10
159.6281578947
 20
176.2575644024
 11
159.9281578947
 21
176.2575644024
  0
LINE
  8
0
 62
7
  6
CONTINUOUS
 10
159.6281578947
 20
176.3639473684
 11
159.9281578947
 21
176.3639473684
  0
LINE
  8
0
 62
7
  6
CONTINUOUS
 10
159.6281578947
 20
177.0235218473
 11
159.9281578947
 21
177.0235218473
  0
LINE
  8
0
 62
7
  6
CONTINUOUS
 10
159.6281578947
 20
177.0447984405
 11
159.9281578947
 21
177.0447984405
  0
LINE
  8
0
 62
7
  6
CONTINUOUS
 10
159.6281578947
 20
177.0873516269
 11
159.9281578947
 21
177.0873516269
  0
LINE
  8
0
 62
7
  6
CONTINUOUS
 10
159.6281578947
 20
177.1511814065
 11
159.9281578947
 21
177.1511814065
  0
LINE
  8
0
 62
7
  6
CONTINUOUS
 10
159.6281578947
 20
177.2788409881
 11
159.9281578947
 21
177.2788409881
  0
LINE
  8
0
 62
7
  6
CONTINUOUS
 10
159.6281578947
 20
177.3213941783
 11
159.9281578947
 21
177.3213941783
  0
LINE
  8
0
 62
7
  6
CONTINUOUS
 10
159.6281578947
 20
177.3639473684
 11
159.9281578947
 21
177.3639473684
  0
LINE
  8
0
 62
7
  6
CONTINUOUS
 10
159.6281578947
 20
177.3852239635
 11
159.9281578947
 21
177.3852239635
  0
LINE
  8
0
 62
7
  6
CONTINUOUS
 10
159.7225441742
 20
171.2212270388
 11
159.6281578947
 21
171.3576181173
  0
LINE
  8
0
 62
7
  6
CONTINUOUS
 10
154.8281578947
 20
185.0141045537
 11
154.8281578947
 21
192.5139473684
  0
POLYLINE
  8
0
 62
7
  6
CONTINUOUS
 66
1
 70
0
  0
VERTEX
  8
0
 62
7
  6
CONTINUOUS
 10
156.1281578947
 20
184.8537402182
  0
VERTEX
  8
0
 62
7
  6
CONTINUOUS
 10
156.2204825395
 20
185.2009157615
  0
VERTEX
  8
0
 62
7
  6
CONTINUOUS
 10
156.3266616509
 20
185.4435621885
  0
VERTEX
  8
0
 62
7
  6
CONTINUOUS
 10
156.6281578947
 20
186.0992293811
  0
SEQEND
  0
LINE
  8
0
 62
7
  6
CONTINUOUS
 10
159.6281578947
 20
177.4277771555
 11
159.9281578947
 21
177.4277771555
  0
LINE
  8
0
 62
7
  6
CONTINUOUS
 10
159.6281578947
 20
177.4916069426
 11
159.9281578947
 21
177.4916069426
  0
LINE
  8
0
 62
7
  6
CONTINUOUS
 10
159.6281578947
 20
177.534160129
 11
159.9281578947
 21
177.534160129
  0
LINE
  8
0
 62
7
  6
CONTINUOUS
 10
159.6281578947
 20
177.6192665167
 11
159.9281578947
 21
177.6192665167
  0
LINE
  8
0
 62
7
  6
CONTINUOUS
 10
156.1281578947
 20
177.9439473684
 11
155.8281578947
 21
177.9439473684
  0
LINE
  8
0
 62
7
  6
CONTINUOUS
 10
159.6281578947
 20
178.0447984107
 11
159.9281578947
 21
178.0447984107
  0
LINE
  8
0
 62
7
  6
CONTINUOUS
 10
159.6281578947
 20
178.2575644024
 11
159.9281578947
 21
178.2575644024
  0
LINE
  8
0
 62
7
  6
CONTINUOUS
 10
159.6281578947
 20
178.3639473684
 11
159.9281578947
 21
178.3639473684
  0
LINE
  8
0
 62
7
  6
CONTINUOUS
 10
155.8281578947
 20
177.9439473684
 11
155.8281578947
 21
178.8639473684
  0
LINE
  8
0
 62
7
  6
CONTINUOUS
 10
155.8281578947
 20
178.9241230396
 11
155.8281578947
 21
179.9437716972
  0
LINE
  8
0
 62
7
  6
CONTINUOUS
 10
156.1281578947
 20
171.2046871897
 11
156.1281578947
 21
184.8537402182
  0
LINE
  8
0
 62
7
  6
CONTINUOUS
 10
156.1281578947
 20
178.8639473684
 11
155.8281578947
 21
178.8639473684
  0
LINE
  8
0
 62
7
  6
CONTINUOUS
 10
159.6281578947
 20
178.8639473684
 11
159.9281578947
 21
178.8639473684
  0
LINE
  8
0
 62
7
  6
CONTINUOUS
 10
159.6281578947
 20
178.8852239635
 11
159.9281578947
 21
178.8852239635
  0
LINE
  8
0
 62
7
  6
CONTINUOUS
 10
156.1281578947
 20
178.9239473684
 11
155.8281578947
 21
178.9239473684
  0
LINE
  8
0
 62
7
  6
CONTINUOUS
 10
159.6281578947
 20
178.9490537487
 11
159.9281578947
 21
178.9490537487
  0
LINE
  8
0
 62
7
  6
CONTINUOUS
 10
159.6281578947
 20
179.0554367371
 11
159.9281578947
 21
179.0554367371
  0
LINE
  8
0
 62
7
  6
CONTINUOUS
 10
159.6281578947
 20
179.1405431099
 11
159.9281578947
 21
179.1405431099
  0
LINE
  8
0
 62
7
  6
CONTINUOUS
 10
159.6281578947
 20
179.1830962963
 11
159.9281578947
 21
179.1830962963
  0
LINE
  8
0
 62
7
  6
CONTINUOUS
 10
159.6281578947
 20
179.2469261058
 11
159.9281578947
 21
179.2469261058
  0
LINE
  8
0
 62
7
  6
CONTINUOUS
 10
159.6281578947
 20
179.2894792922
 11
159.9281578947
 21
179.2894792922
  0
LINE
  8
0
 62
7
  6
CONTINUOUS
 10
159.6281578947
 20
179.3107558854
 11
159.9281578947
 21
179.3107558854
  0
LINE
  8
0
 62
7
  6
CONTINUOUS
 10
159.6281578947
 20
179.3320324786
 11
159.9281578947
 21
179.3320324786
  0
LINE
  8
0
 62
7
  6
CONTINUOUS
 10
159.6281578947
 20
179.374585665
 11
159.9281578947
 21
179.374585665
  0
LINE
  8
0
 62
7
  6
CONTINUOUS
 10
159.6281578947
 20
179.4596920379
 11
159.9281578947
 21
179.4596920379
  0
LINE
  8
0
 62
7
  6
CONTINUOUS
 10
159.6281578947
 20
179.5447984107
 11
159.9281578947
 21
179.5447984107
  0
LINE
  8
0
 62
7
  6
CONTINUOUS
 10
159.6281578947
 20
179.6299048431
 11
159.9281578947
 21
179.6299048431
  0
LINE
  8
0
 62
7
  6
CONTINUOUS
 10
159.6281578947
 20
179.715011216
 11
159.9281578947
 21
179.715011216
  0
LINE
  8
DEFAULT_1
 62
2
  6
CENTER
 10
157.8781578947
 20
198.0139473684
 11
157.8781578947
 21
163.6139473684
  0
LINE
  8
0
 62
7
  6
CONTINUOUS
 10
159.6281578947
 20
179.8001175888
 11
159.9281578947
 21
179.8001175888
  0
LINE
  8
0
 62
7
  6
CONTINUOUS
 10
159.6281578947
 20
179.8426707752
 11
159.9281578947
 21
179.8426707752
  0
LINE
  8
0
 62
7
  6
CONTINUOUS
 10
159.6281578947
 20
179.8639473684
 11
159.9281578947
 21
179.8639473684
  0
LINE
  8
0
 62
7
  6
CONTINUOUS
 10
156.1281578947
 20
179.9439473684
 11
155.8281578947
 21
179.9439473684
  0
LINE
  8
0
 62
7
  6
CONTINUOUS
 10
159.6281578947
 20
184.8537402182
 11
159.6281578947
 21
171.2046871897
  0
LINE
  8
0
 62
7
  6
CONTINUOUS
 10
159.9281578947
 20
179.8639473684
 11
159.9281578947
 21
178.8639473684
  0
LINE
  8
0
 62
7
  6
CONTINUOUS
 10
159.9281578947
 20
178.3639473684
 11
159.9281578947
 21
177.0235218473
  0
LINE
  8
0
 62
7
  6
CONTINUOUS
 10
159.9281578947
 20
176.3639473684
 11
159.9281578947
 21
175.3639473684
  0
LINE
  8
0
 62
7
  6
CONTINUOUS
 10
160.9281578947
 20
192.5139473684
 11
160.9281578947
 21
185.0141043481
  0
LINE
  8
0
 62
7
  6
CONTINUOUS
 10
155.3281578947
 20
184.5139473684
 11
156.1281578947
 21
184.5139473684
  0
LINE
  8
0
 62
7
  6
CONTINUOUS
 10
159.6281578947
 20
184.5139473684
 11
160.4281578947
 21
184.5139473684
  0
POLYLINE
  8
0
 62
7
  6
CONTINUOUS
 66
1
 70
0
  0
VERTEX
  8
0
 62
7
  6
CONTINUOUS
 10
159.1281578947
 20
186.0992293811
  0
VERTEX
  8
0
 62
7
  6
CONTINUOUS
 10
159.4296185325
 20
185.4436397572
  0
VERTEX
  8
0
 62
7
  6
CONTINUOUS
 10
159.535887354
 20
185.2007820306
  0
VERTEX
  8
0
 62
7
  6
CONTINUOUS
 10
159.6281578947
 20
184.8537402182
  0
SEQEND
  0
LINE
  8
0
 62
7
  6
CONTINUOUS
 10
156.0337716152
 20
171.2212270388
 11
156.1281578947
 21
171.3576181173
  0
POLYLINE
  8
0
 62
7
  6
CONTINUOUS
 66
1
 70
0
  0
VERTEX
  8
0
 62
7
  6
CONTINUOUS
 10
154.8281578947
 20
187.9502187435
  0
VERTEX
  8
0
 62
7
  6
CONTINUOUS
 10
154.923077371
 20
187.9155894136
  0
VERTEX
  8
0
 62
7
  6
CONTINUOUS
 10
155.033495515
 20
187.9028185602
  0
VERTEX
  8
0
 62
7
  6
CONTINUOUS
 10
155.3281578947
 20
187.8918876995
  0
SEQEND
  0
POLYLINE
  8
0
 62
7
  6
CONTINUOUS
 66
1
 70
0
  0
VERTEX
  8
0
 62
7
  6
CONTINUOUS
 10
160.4281578947
 20
187.8918876995
  0
VERTEX
  8
0
 62
7
  6
CONTINUOUS
 10
160.7228202745
 20
187.9028185602
  0
VERTEX
  8
0
 62
7
  6
CONTINUOUS
 10
160.8332384185
 20
187.9155894136
  0
VERTEX
  8
0
 62
7
  6
CONTINUOUS
 10
160.9281578947
 20
187.9502187435
  0
SEQEND
  0
LINE
  8
0
 62
7
  6
CONTINUOUS
 10
155.3281578947
 20
187.8918876995
 11
160.4281578947
 21
187.8918876995
  0
LINE
  8
DEFAULT_1
 62
2
  6
CENTER
 10
165.9281578947
 20
188.8639473684
 11
149.8281578947
 21
188.8639473684
  0
POLYLINE
  8
0
 62
7
  6
CONTINUOUS
 66
1
 70
0
  0
VERTEX
  8
0
 62
7
  6
CONTINUOUS
 10
155.3281578947
 20
189.8360070374
  0
VERTEX
  8
0
 62
7
  6
CONTINUOUS
 10
155.033495515
 20
189.8250761766
  0
VERTEX
  8
0
 62
7
  6
CONTINUOUS
 10
154.923077371
 20
189.8123053232
  0
VERTEX
  8
0
 62
7
  6
CONTINUOUS
 10
154.8281578947
 20
189.7776759933
  0
SEQEND
  0
LINE
  8
0
 62
7
  6
CONTINUOUS
 10
155.3281578947
 20
189.8360070374
 11
160.4281578947
 21
189.8360070374
  0
POLYLINE
  8
0
 62
7
  6
CONTINUOUS
 66
1
 70
0
  0
VERTEX
  8
0
 62
7
  6
CONTINUOUS
 10
160.9281578947
 20
189.7776759933
  0
VERTEX
  8
0
 62
7
  6
CONTINUOUS
 10
160.8332384185
 20
189.8123053232
  0
VERTEX
  8
0
 62
7
  6
CONTINUOUS
 10
160.7228202745
 20
189.8250761766
  0
VERTEX
  8
0
 62
7
  6
CONTINUOUS
 10
160.4281578947
 20
189.8360070374
  0
SEQEND
  0
LINE
  8
0
 62
7
  6
CONTINUOUS
 10
170.8781578947
 20
172.1139473684
 11
170.8781578947
 21
169.1139473684
  0
LINE
  8
0
 62
7
  6
CONTINUOUS
 10
160.4281578947
 20
193.0139473684
 11
155.3281578947
 21
193.0139473684
  0
ARC
  8
0
 62
7
  6
CONTINUOUS
 10
67.9955263158
 20
170.6139473684
 40
2.0
 50
165.1944925842
 51
270.0
  0
ARC
  8
0
 62
7
  6
CONTINUOUS
 10
69.1755263158
 20
168.6139473684
 40
4.0
 50
90.0
 51
141.1142600615
  0
ARC
  8
0
 62
7
  6
CONTINUOUS
 10
56.0155263158
 20
188.8639473684
 40
4.35
 50
107.4415938563
 51
167.0875457171
  0
ARC
  8
0
 62
7
  6
CONTINUOUS
 10
56.0155263158
 20
188.8639473684
 40
4.35
 50
192.9124542829
 51
72.5584061437
  0
CIRCLE
  8
AXES
 62
7
  6
CONTINUOUS
 10
56.0155263158
 20
188.8639473684
 40
2.5
  0
ARC
  8
0
 62
7
  6
CONTINUOUS
 10
69.1755263158
 20
182.7939473684
 40
2.0
 50
243.0
 51
270.0
  0
ARC
  8
0
 62
7
  6
CONTINUOUS
 10
62.3655263158
 20
186.2638156795
 40
2.0
 50
180.0
 51
243.0
  0
ARC
  8
0
 62
7
  6
CONTINUOUS
 10
80.9555263158
 20
168.6139473684
 40
4.0
 50
38.8857399385
 51
90.0
  0
ARC
  8
0
 62
7
  6
CONTINUOUS
 10
82.1355263158
 20
170.6139473684
 40
2.0
 50
270.0
 51
14.8055074158
  0
ARC
  8
0
 62
7
  6
CONTINUOUS
 10
94.1155263158
 20
188.8639473684
 40
4.35
 50
12.9124542829
 51
72.5584061437
  0
ARC
  8
0
 62
7
  6
CONTINUOUS
 10
94.1155263158
 20
188.8639473684
 40
4.35
 50
107.4415938563
 51
347.0875457171
  0
CIRCLE
  8
AXES
 62
7
  6
CONTINUOUS
 10
94.1155263158
 20
188.8639473684
 40
2.5
  0
ARC
  8
0
 62
7
  6
CONTINUOUS
 10
87.7655263158
 20
186.2638156795
 40
2.0
 50
297.0
 51
360.0
  0
ARC
  8
0
 62
7
  6
CONTINUOUS
 10
80.9555263158
 20
182.7939473684
 40
2.0
 50
270.0
 51
297.0
  0
ARC
  8
0
 62
7
  6
CONTINUOUS
 10
59.8655263158
 20
99.9955263158
 40
0.5
 50
0.0
 51
90.0
  0
ARC
  8
0
 62
7
  6
CONTINUOUS
 10
90.2655263158
 20
99.9955263158
 40
0.5
 50
90.0
 51
180.0
  0
ARC
  8
0
 62
7
  6
CONTINUOUS
 10
97.9655263158
 20
94.8955263158
 40
0.5
 50
270.0
 51
321.3853501214
  0
ARC
  8
0
 62
7
  6
CONTINUOUS
 10
90.2655263158
 20
94.8955263158
 40
0.5
 50
180.0
 51
270.0
  0
ARC
  8
0
 62
7
  6
CONTINUOUS
 10
59.8655263158
 20
94.8955263158
 40
0.5
 50
270.0
 51
360.0
  0
ARC
  8
0
 62
7
  6
CONTINUOUS
 10
66.4955263158
 20
84.9455263158
 40
0.5
 50
180.0
 51
270.0
  0
ARC
  8
0
 62
7
  6
CONTINUOUS
 10
83.6355263158
 20
84.9455263158
 40
0.5
 50
270.0
 51
360.0
  0
ARC
  8
0
 62
7
  6
CONTINUOUS
 10
83.6355263158
 20
109.9455263158
 40
0.5
 50
0.0
 51
90.0
  0
ARC
  8
0
 62
7
  6
CONTINUOUS
 10
66.4955263158
 20
109.9455263158
 40
0.5
 50
90.0
 51
180.0
  0
ARC
  8
0
 62
7
  6
CONTINUOUS
 10
52.2755263158
 20
99.9955263158
 40
0.5
 50
90.0
 51
180.0
  0
ARC
  8
0
 62
7
  6
CONTINUOUS
 10
97.8555263158
 20
99.9955263158
 40
0.5
 50
0.0
 51
90.0
  0
ARC
  8
0
 62
7
  6
CONTINUOUS
 10
52.2755263158
 20
94.8955263158
 40
0.5
 50
180.0
 51
270.0
  0
ARC
  8
0
 62
7
  6
CONTINUOUS
 10
155.3281578947
 20
185.0139473684
 40
0.5
 50
180.0
 51
270.0
  0
ARC
  8
0
 62
7
  6
CONTINUOUS
 10
160.4281578947
 20
185.0139473684
 40
0.5
 50
270.0
 51
360.0
  0
ARC
  8
0
 62
7
  6
CONTINUOUS
 10
145.3781578947
 20
169.1139473684
 40
0.5
 50
180.0
 51
270.0
  0
ARC
  8
0
 62
7
  6
CONTINUOUS
 10
155.3281578947
 20
192.5139473684
 40
0.5
 50
90.0
 51
180.0
  0
ARC
  8
0
 62
7
  6
CONTINUOUS
 10
160.4281578947
 20
192.5139473684
 40
0.5
 50
0.0
 51
90.0
  0
ARC
  8
0
 62
7
  6
CONTINUOUS
 10
170.3781578947
 20
169.1139473684
 40
0.5
 50
270.0
 51
360.0
  0
ARC
  8
0
 62
7
  6
CONTINUOUS
 10
170.3781578947
 20
172.1139473684
 40
0.5
 50
0.0
 51
90.0
  0
ARC
  8
0
 62
7
  6
CONTINUOUS
 10
145.3781578947
 20
172.1139473684
 40
0.5
 50
90.0
 51
180.0
  0
ARC
  8
0
 62
7
  6
CONTINUOUS
 10
160.1281578947
 20
173.1139473684
 40
0.5
 50
180.0
 51
270.0
  0
ARC
  8
0
 62
7
  6
CONTINUOUS
 10
155.6281578947
 20
173.1139473684
 40
0.5
 50
270.0
 51
360.0
  0
ENDSEC
  0
EOF
