  0
SECTION
  2
HEADER
  9
$EXTMAX
 10
594.0
 20
420.0
 30
0.0
  9
$EXTMIN
 10
0.0
 20
0.0
 30
0.0
  9
$LIMMIN
 10
0.0
 20
0.0
  9
$LIMMAX
 10
594.0
 20
420.0
  9
$VIEWCTR
 10
297.0
 20
210.0
  9
$VIEWSIZE
 40
420.0
  9
$CLAYER
  8
0
  9
$LTSCALE
 40
32.67
  9
$CELTYPE
  6
BYLAYER
  9
$DIMSCALE
 40
1.0
  9
$DIMASZ
 40
3.5
  9
$DIMEXO
 40
1.0
  9
$DIMDLI
 40
22.572
  9
$DIMEXE
 40
2.0
  9
$DIMCEN
 40
5.346
  9
$DIMLFAC
 40
1.0
  9
$DIMBLK
  1
_FILLED
  9
$DIMALT
 70
0
  9
$DIMALTF
 40
0.0393700787
  9
$DIMTXT
 40
3.5
  9
$AUNITS
 70
0
  9
$PDMODE
 70
3
  9
$PDSIZE
 40
0.3125
  9
$TILEMODE
 70
1
  0
ENDSEC
  0
SECTION
  2
TABLES
  0
TABLE
  2
LTYPE
 70
6
  0
LTYPE
  2
BYBLOCK
 70
0
  3

 72
65
 73
0
 40
0.0
  0
LTYPE
  2
BYLAYER
 70
0
  3

 72
65
 73
0
 40
0.0
  0
LTYPE
  2
CONTINUOUS
 70
64
  3
Solid line
 72
65
 73
0
 40
0.0
  0
LTYPE
  2
CENTER
 70
64
  3
____ _ ____ _ ____ _ ____ _ ____ _ ____ _ ____
 72
65
 73
4
 40
0.6
 49
0.375
 49
-0.075
 49
0.075
 49
-0.075
  0
LTYPE
  2
HIDDEN
 70
64
  3
- - - - - - - - - - - - - - - - - - - -
 72
65
 73
2
 40
0.2
 49
0.1
 49
-0.1
  0
LTYPE
  2
PHANTOM
 70
64
  3
_____ _ _ _____ _ _ _____ _ _ _____
 72
65
 73
6
 40
0.8
 49
0.45
 49
-0.05
 49
0.1
 49
-0.05
 49
0.1
 49
-0.05
  0
LTYPE
  2
DOT
 70
64
  3
. . . . . . . . . . . . . . . . . . . .
 72
65
 73
2
 40
0.2
 49
0.1
 49
-0.1
  0
LTYPE
  2
DASHED
 70
64
  3
- - - - - - - - - - - - - - - - - - - -
 72
65
 73
2
 40
0.2
 49
0.1
 49
-0.1
  0
ENDTAB
  0
TABLE
  2
LAYER
 70
36
  0
LAYER
  2
0
 70
0
 62
7
  6
CONTINUOUS
  0
LAYER
  2
DEFAULT_1
 70
0
 62
7
  6
CENTER
  0
LAYER
  2
DEFAULT_2
 70
0
 62
8
  6
HIDDEN
  0
LAYER
  2
DEFAULT_3
 70
0
 62
7
  6
PHANTOM
  0
LAYER
  2
AXES
 70
0
 62
7
  6
CONTINUOUS
  0
LAYER
  2
CSYS
 70
0
 62
7
  6
CONTINUOUS
  0
LAYER
  2
PLANES
 70
0
 62
7
  6
CONTINUOUS
  0
LAYER
  2
QUILTS
 70
0
 62
7
  6
CONTINUOUS
  0
ENDTAB
  0
TABLE
  2
STYLE
 70
1
  0
STYLE
  2
STANDARD
 70
0
 40
0.0
 41
0.8
 50
0.0
 71
0
 42
0.2
  3
txt
  4

  0
STYLE
  2
TEXTSTYLE_1
 70
0
 40
0.0
 41
0.8
 50
0.0
 71
0
 42
0.2
  3
gdt
  4

  0
STYLE
  2
TEXTSTYLE_2
 70
0
 40
0.0
 41
0.6
 50
0.0
 71
0
 42
0.2
  3
txt
  4

  0
STYLE
  2
TEXTSTYLE_3
 70
0
 40
0.0
 41
1.0
 50
0.0
 71
0
 42
0.2
  3
ftb_____.ttf
  4

  0
STYLE
  2
TEXTSTYLE_4
 70
0
 40
0.0
 41
1.0
 50
0.0
 71
0
 42
0.2
  3
fti_____.ttf
  4

  0
STYLE
  2
TEXTSTYLE_5
 70
0
 40
0.0
 41
1.0
 50
0.0
 71
0
 42
0.2
  3
frutiger light.ttf
  4

  0
STYLE
  2
TEXTSTYLE_6
 70
0
 40
0.0
 41
0.7
 50
0.0
 71
0
 42
0.2
  3
txt
  4

  0
STYLE
  2
TEXTSTYLE_7
 70
0
 40
0.0
 41
0.8
 50
0.0
 71
0
 42
0.2
  3
txt
  4

  0
ENDTAB
  0
ENDSEC
  0
SECTION
  2
BLOCKS
  0
BLOCK
  8
0
 62
2
  6
CONTINUOUS
  2
UNI_LOGO2_BL1
 70
64
 10
557.4079930916
 20
35.8092573885
  0
TEXT
  8
0
 62
7
  6
CONTINUOUS
 10
548.4662781001
 20
30.9020137655
  7
TEXTSTYLE_4
 40
1.0655737705
  1
The brand for plastic modular belts and chains
 41
1.0
 72
0
  0
LINE
  8
0
 62
7
  6
CONTINUOUS
 10
533.3860614807
 20
36.3830278803
 11
533.3860614807
 21
34.2518803393
  0
LINE
  8
0
 62
7
  6
CONTINUOUS
 10
533.6751239738
 20
31.2609490436
 11
533.6751239738
 21
31.3577401029
  0
LINE
  8
0
 62
7
  6
CONTINUOUS
 10
533.3860614807
 20
31.3254764164
 11
533.4438739824
 21
31.1318942979
  0
LINE
  8
0
 62
7
  6
CONTINUOUS
 10
534.7795041036
 20
34.1699131262
 11
534.7795041036
 21
36.3830278803
  0
LINE
  8
0
 62
7
  6
CONTINUOUS
 10
535.6985614255
 20
32.3256508311
 11
535.6985614255
 21
30.8092573885
  0
LINE
  8
0
 62
7
  6
CONTINUOUS
 10
535.9876239807
 20
30.8092573885
 11
535.9876239807
 21
31.5513222666
  0
LINE
  8
0
 62
7
  6
CONTINUOUS
 10
535.9876239807
 20
31.6803770123
 11
535.9876239807
 21
32.3256508311
  0
LINE
  8
0
 62
7
  6
CONTINUOUS
 10
533.4438739824
 20
31.5190585802
 11
533.3860614807
 21
31.3254764164
  0
LINE
  8
0
 62
7
  6
CONTINUOUS
 10
533.7907489669
 20
31.0996306115
 11
533.6751239738
 21
31.2609490436
  0
LINE
  8
0
 62
7
  6
CONTINUOUS
 10
534.8891865358
 20
31.6158496394
 11
534.9469989807
 21
31.5190585802
  0
LINE
  8
0
 62
7
  6
CONTINUOUS
 10
535.2360615358
 20
31.5190585802
 11
535.1782489255
 21
31.6481133259
  0
LINE
  8
0
 62
7
  6
CONTINUOUS
 10
536.6647500053
 20
36.3830278803
 11
536.6647500053
 21
34.5797491918
  0
LINE
  8
0
 62
7
  6
CONTINUOUS
 10
536.6647500053
 20
33.2682737819
 11
536.6647500053
 21
32.612536077
  0
LINE
  8
0
 62
7
  6
CONTINUOUS
 10
537.0282489807
 20
31.4545312073
 11
537.0282489807
 21
30.8092573885
  0
LINE
  8
0
 62
7
  6
CONTINUOUS
 10
537.3173113704
 20
30.8092573885
 11
537.3173113704
 21
31.4545312073
  0
LINE
  8
0
 62
7
  6
CONTINUOUS
 10
533.6751239738
 20
31.3577401029
 11
533.7329364807
 21
31.4867948937
  0
LINE
  8
0
 62
7
  6
CONTINUOUS
 10
533.4438739824
 20
31.1318942979
 11
533.5594989807
 21
31.0028395296
  0
LINE
  8
0
 62
7
  6
CONTINUOUS
 10
536.9704363704
 20
31.583585953
 11
537.0282489807
 21
31.4545312073
  0
LINE
  8
0
 62
7
  6
CONTINUOUS
 10
537.7798115909
 20
31.0996306115
 11
537.8376238704
 21
30.9705758432
  0
LINE
  8
0
 62
7
  6
CONTINUOUS
 10
537.3173113704
 20
31.4545312073
 11
537.2594990909
 21
31.6158496394
  0
LINE
  8
0
 62
7
  6
CONTINUOUS
 10
537.7798115909
 20
31.6481133259
 11
537.7798115909
 21
31.583585953
  0
LINE
  8
0
 62
7
  6
CONTINUOUS
 10
537.7798115909
 20
31.1964216708
 11
537.7798115909
 21
31.0996306115
  0
LINE
  8
0
 62
7
  6
CONTINUOUS
 10
538.0581926282
 20
32.612536077
 11
538.0581926282
 21
36.3830278803
  0
LINE
  8
0
 62
7
  6
CONTINUOUS
 10
538.0688739807
 20
31.0673669025
 11
538.0688739807
 21
31.1318942979
  0
LINE
  8
0
 62
7
  6
CONTINUOUS
 10
538.3860614807
 20
36.3830278803
 11
538.3860614807
 21
32.612536077
  0
LINE
  8
0
 62
7
  6
CONTINUOUS
 10
535.1782489255
 20
31.0028395296
 11
535.2360615358
 21
31.1318942979
  0
LINE
  8
0
 62
7
  6
CONTINUOUS
 10
539.5719992012
 20
30.9060484591
 11
539.5141862601
 21
31.0673669025
  0
LINE
  8
0
 62
7
  6
CONTINUOUS
 10
539.2251242012
 20
31.583585953
 11
539.2251242012
 21
31.4867948937
  0
LINE
  8
0
 62
7
  6
CONTINUOUS
 10
539.2251242012
 20
31.3577401029
 11
539.2251242012
 21
31.1641579843
  0
LINE
  8
0
 62
7
  6
CONTINUOUS
 10
539.5141862601
 20
31.0673669025
 11
539.5141862601
 21
31.583585953
  0
LINE
  8
0
 62
7
  6
CONTINUOUS
 10
539.7795041036
 20
32.612536077
 11
539.7795041036
 21
34.4158147655
  0
LINE
  8
0
 62
7
  6
CONTINUOUS
 10
539.7795041036
 20
35.7272901754
 11
539.7795041036
 21
36.3830278803
  0
LINE
  8
0
 62
7
  6
CONTINUOUS
 10
540.0923117012
 20
32.3256508311
 11
540.0923117012
 21
32.164332399
  0
LINE
  8
0
 62
7
  6
CONTINUOUS
 10
540.0923117012
 20
31.8416954444
 11
540.0923117012
 21
30.8092573885
  0
LINE
  8
0
 62
7
  6
CONTINUOUS
 10
540.3813737601
 20
30.8092573885
 11
540.3813737601
 21
31.8416954444
  0
LINE
  8
0
 62
7
  6
CONTINUOUS
 10
540.3813737601
 20
32.164332399
 11
540.3813737601
 21
32.3256508311
  0
LINE
  8
0
 62
7
  6
CONTINUOUS
 10
534.9469989807
 20
31.1318942979
 11
534.8891865358
 21
31.035103216
  0
LINE
  8
0
 62
7
  6
CONTINUOUS
 10
537.2594990909
 20
31.6158496394
 11
537.2016864807
 21
31.6803770123
  0
LINE
  8
0
 62
7
  6
CONTINUOUS
 10
538.1266865909
 20
31.0028395296
 11
538.0688739807
 21
31.0673669025
  0
LINE
  8
0
 62
7
  6
CONTINUOUS
 10
539.2829364807
 20
30.873784767
 11
539.3407487601
 21
30.8092573885
  0
LINE
  8
0
 62
7
  6
CONTINUOUS
 10
539.2251242012
 20
30.9705758432
 11
539.2829364807
 21
30.873784767
  0
LINE
  8
0
 62
7
  6
CONTINUOUS
 10
539.6298114807
 20
30.8092573885
 11
539.5719992012
 21
30.9060484591
  0
LINE
  8
0
 62
7
  6
CONTINUOUS
 10
539.5141862601
 20
31.583585953
 11
539.4563739807
 21
31.6803770123
  0
LINE
  8
0
 62
7
  6
CONTINUOUS
 10
540.8438739807
 20
31.8416954444
 11
540.8438739807
 21
30.8092573885
  0
LINE
  8
0
 62
7
  6
CONTINUOUS
 10
541.1329367012
 20
30.8092573885
 11
541.1329367012
 21
31.5513222666
  0
LINE
  8
0
 62
7
  6
CONTINUOUS
 10
541.1329367012
 20
31.6803770123
 11
541.1329367012
 21
31.8416954444
  0
LINE
  8
0
 62
7
  6
CONTINUOUS
 10
541.6647500053
 20
34.8256508311
 11
541.6647500053
 21
32.612536077
  0
LINE
  8
0
 62
7
  6
CONTINUOUS
 10
533.5594989807
 20
31.6481133259
 11
533.4438739824
 21
31.5190585802
  0
LINE
  8
0
 62
7
  6
CONTINUOUS
 10
533.7329364807
 20
31.4867948937
 11
533.7907489669
 21
31.5513222666
  0
LINE
  8
0
 62
7
  6
CONTINUOUS
 10
533.5594989807
 20
31.0028395296
 11
533.6751239738
 21
30.9383121455
  0
LINE
  8
0
 62
7
  6
CONTINUOUS
 10
533.9641864669
 20
31.0028395296
 11
533.7907489669
 21
31.0996306115
  0
LINE
  8
0
 62
7
  6
CONTINUOUS
 10
539.1673112601
 20
31.6481133259
 11
539.2251242012
 21
31.583585953
  0
LINE
  8
0
 62
7
  6
CONTINUOUS
 10
542.1157487601
 20
31.583585953
 11
542.1735617012
 21
31.4222675209
  0
LINE
  8
0
 62
7
  6
CONTINUOUS
 10
542.4626237601
 20
31.4222675209
 11
542.4048114807
 21
31.583585953
  0
LINE
  8
0
 62
7
  6
CONTINUOUS
 10
542.1735617012
 20
31.4222675209
 11
542.1735617012
 21
30.8092573885
  0
LINE
  8
0
 62
7
  6
CONTINUOUS
 10
542.4626237601
 20
30.8092573885
 11
542.4626237601
 21
31.4222675209
  0
LINE
  8
0
 62
7
  6
CONTINUOUS
 10
542.9251239807
 20
31.6481133259
 11
542.9251239807
 21
31.583585953
  0
LINE
  8
0
 62
7
  6
CONTINUOUS
 10
543.0581926282
 20
32.612536077
 11
543.0581926282
 21
34.743683618
  0
LINE
  8
0
 62
7
  6
CONTINUOUS
 10
543.3860614807
 20
36.3830278803
 11
543.3860614807
 21
32.612536077
  0
LINE
  8
0
 62
7
  6
CONTINUOUS
 10
538.0688739807
 20
31.1318942979
 11
538.1266865909
 21
31.2286853572
  0
LINE
  8
0
 62
7
  6
CONTINUOUS
 10
533.6751239738
 20
30.9383121455
 11
533.8485614944
 21
30.873784767
  0
LINE
  8
0
 62
7
  6
CONTINUOUS
 10
535.1782489255
 20
31.6481133259
 11
535.0048114255
 21
31.7449043851
  0
LINE
  8
0
 62
7
  6
CONTINUOUS
 10
537.8376238704
 20
30.9705758432
 11
538.0110613704
 21
30.873784767
  0
LINE
  8
0
 62
7
  6
CONTINUOUS
 10
536.8548114807
 20
31.6481133259
 11
536.9704363704
 21
31.583585953
  0
LINE
  8
0
 62
7
  6
CONTINUOUS
 10
537.2016864807
 20
31.6803770123
 11
537.0860615909
 21
31.7449043851
  0
LINE
  8
0
 62
7
  6
CONTINUOUS
 10
542.9251239807
 20
31.0673669025
 11
543.0407492012
 21
30.9383121455
  0
LINE
  8
0
 62
7
  6
CONTINUOUS
 10
543.2719989807
 20
31.0028395296
 11
543.2141867012
 21
31.0673669025
  0
LINE
  8
0
 62
7
  6
CONTINUOUS
 10
542.9251239807
 20
31.583585953
 11
543.0407492012
 21
31.4545312073
  0
LINE
  8
0
 62
7
  6
CONTINUOUS
 10
542.4048114807
 20
31.583585953
 11
542.3469992012
 21
31.6803770123
  0
LINE
  8
0
 62
7
  6
CONTINUOUS
 10
544.7751235396
 20
31.0028395296
 11
544.7751235396
 21
31.0673669025
  0
LINE
  8
0
 62
7
  6
CONTINUOUS
 10
544.7795041036
 20
32.612536077
 11
544.7795041036
 21
36.3830278803
  0
LINE
  8
0
 62
7
  6
CONTINUOUS
 10
537.8376238704
 20
31.7126406987
 11
537.7798115909
 21
31.6481133259
  0
LINE
  8
0
 62
7
  6
CONTINUOUS
 10
534.7157489531
 20
31.6803770123
 11
534.8891865358
 21
31.6158496394
  0
LINE
  8
0
 62
7
  6
CONTINUOUS
 10
539.4563739807
 20
31.6803770123
 11
539.3407487601
 21
31.7449043851
  0
LINE
  8
0
 62
7
  6
CONTINUOUS
 10
543.2719989807
 20
31.5190585802
 11
543.2141867012
 21
31.583585953
  0
LINE
  8
0
 62
7
  6
CONTINUOUS
 10
544.4282492012
 20
31.1318942979
 11
544.4860614807
 21
31.0673669025
  0
LINE
  8
0
 62
7
  6
CONTINUOUS
 10
544.7751235396
 20
31.0673669025
 11
544.6594989807
 21
31.1964216708
  0
LINE
  8
0
 62
7
  6
CONTINUOUS
 10
544.4282492012
 20
31.6481133259
 11
544.4860614807
 21
31.583585953
  0
LINE
  8
0
 62
7
  6
CONTINUOUS
 10
544.7751235396
 20
31.583585953
 11
544.6594989807
 21
31.7126406987
  0
LINE
  8
0
 62
7
  6
CONTINUOUS
 10
538.0688739807
 20
31.583585953
 11
538.1266865909
 21
31.6481133259
  0
LINE
  8
0
 62
7
  6
CONTINUOUS
 10
537.8954364807
 20
31.3254764164
 11
537.7798115909
 21
31.1964216708
  0
LINE
  8
0
 62
7
  6
CONTINUOUS
 10
539.2251242012
 20
31.1641579843
 11
539.1673112601
 21
31.0996306115
  0
LINE
  8
0
 62
7
  6
CONTINUOUS
 10
539.1673112601
 20
30.9060484591
 11
539.2251242012
 21
30.9705758432
  0
LINE
  8
0
 62
7
  6
CONTINUOUS
 10
538.0110613704
 20
30.873784767
 11
538.1266865909
 21
30.8415210777
  0
LINE
  8
0
 62
7
  6
CONTINUOUS
 10
535.0048114255
 20
31.7449043851
 11
534.7735614807
 21
31.809431758
  0
LINE
  8
0
 62
7
  6
CONTINUOUS
 10
538.3579363704
 20
30.9383121455
 11
538.1266865909
 21
31.0028395296
  0
LINE
  8
0
 62
7
  6
CONTINUOUS
 10
537.0860615909
 20
31.7449043851
 11
536.9126240909
 21
31.809431758
  0
LINE
  8
0
 62
7
  6
CONTINUOUS
 10
539.3407487601
 20
31.7449043851
 11
539.1673112601
 21
31.809431758
  0
LINE
  8
0
 62
7
  6
CONTINUOUS
 10
542.0001242012
 20
31.6481133259
 11
542.1157487601
 21
31.583585953
  0
LINE
  8
0
 62
7
  6
CONTINUOUS
 10
542.3469992012
 20
31.6803770123
 11
542.2313739807
 21
31.7449043851
  0
LINE
  8
0
 62
7
  6
CONTINUOUS
 10
533.8485614944
 20
30.873784767
 11
534.0219989944
 21
30.8415210777
  0
LINE
  8
0
 62
7
  6
CONTINUOUS
 10
534.3110615082
 20
30.9383121455
 11
533.9641864669
 21
31.0028395296
  0
LINE
  8
0
 62
7
  6
CONTINUOUS
 10
536.7391865909
 20
31.6803770123
 11
536.8548114807
 21
31.6481133259
  0
LINE
  8
0
 62
7
  6
CONTINUOUS
 10
539.0516867012
 20
31.6803770123
 11
539.1673112601
 21
31.6481133259
  0
LINE
  8
0
 62
7
  6
CONTINUOUS
 10
543.3876242012
 20
30.9705758432
 11
543.2719989807
 21
31.0028395296
  0
LINE
  8
0
 62
7
  6
CONTINUOUS
 10
541.8844989807
 20
31.6803770123
 11
542.0001242012
 21
31.6481133259
  0
LINE
  8
0
 62
7
  6
CONTINUOUS
 10
543.0407492012
 20
30.9383121455
 11
543.2141867012
 21
30.873784767
  0
LINE
  8
0
 62
7
  6
CONTINUOUS
 10
542.2313739807
 20
31.7449043851
 11
542.0579364807
 21
31.809431758
  0
LINE
  8
0
 62
7
  6
CONTINUOUS
 10
543.4454364807
 20
31.4545312073
 11
543.2719989807
 21
31.5190585802
  0
LINE
  8
0
 62
7
  6
CONTINUOUS
 10
544.2548117012
 20
31.1964216708
 11
544.4282492012
 21
31.1318942979
  0
LINE
  8
0
 62
7
  6
CONTINUOUS
 10
544.6594989807
 20
31.7126406987
 11
544.4860614807
 21
31.7771680715
  0
LINE
  8
0
 62
7
  6
CONTINUOUS
 10
543.0407492012
 20
31.4545312073
 11
543.2719989807
 21
31.3577401029
  0
LINE
  8
0
 62
7
  6
CONTINUOUS
 10
544.6594989807
 20
31.1964216708
 11
544.4282492012
 21
31.29321273
  0
LINE
  8
0
 62
7
  6
CONTINUOUS
 10
543.2141867012
 20
31.583585953
 11
543.2719989807
 21
31.6481133259
  0
LINE
  8
0
 62
7
  6
CONTINUOUS
 10
533.6751239738
 20
31.7126406987
 11
533.5594989807
 21
31.6481133259
  0
LINE
  8
0
 62
7
  6
CONTINUOUS
 10
533.7907489669
 20
31.5513222666
 11
533.9641864669
 21
31.6481133259
  0
LINE
  8
0
 62
7
  6
CONTINUOUS
 10
536.1032490358
 20
31.7449043851
 11
535.9876239807
 21
31.6803770123
  0
LINE
  8
0
 62
7
  6
CONTINUOUS
 10
535.9876239807
 20
31.5513222666
 11
536.1032490358
 21
31.6158496394
  0
LINE
  8
0
 62
7
  6
CONTINUOUS
 10
535.0048114255
 20
30.9060484591
 11
535.1782489255
 21
31.0028395296
  0
LINE
  8
0
 62
7
  6
CONTINUOUS
 10
534.0219989944
 20
30.8415210777
 11
534.3688739531
 21
30.8092573885
  0
LINE
  8
0
 62
7
  6
CONTINUOUS
 10
538.1266865909
 20
30.8415210777
 11
538.3579363704
 21
30.8092573885
  0
LINE
  8
0
 62
7
  6
CONTINUOUS
 10
536.5079364807
 20
31.7126406987
 11
536.7391865909
 21
31.6803770123
  0
LINE
  8
0
 62
7
  6
CONTINUOUS
 10
538.8204365909
 20
31.7126406987
 11
539.0516867012
 21
31.6803770123
  0
LINE
  8
0
 62
7
  6
CONTINUOUS
 10
543.2719989807
 20
31.3577401029
 11
544.2548117012
 21
31.1964216708
  0
LINE
  8
0
 62
7
  6
CONTINUOUS
 10
544.4282492012
 20
31.29321273
 11
543.4454364807
 21
31.4545312073
  0
LINE
  8
0
 62
7
  6
CONTINUOUS
 10
536.9126240909
 20
31.809431758
 11
536.7391865909
 21
31.8416954444
  0
LINE
  8
0
 62
7
  6
CONTINUOUS
 10
543.2141867012
 20
30.873784767
 11
543.3876242012
 21
30.8415210777
  0
LINE
  8
0
 62
7
  6
CONTINUOUS
 10
542.0579364807
 20
31.809431758
 11
541.8844989807
 21
31.8416954444
  0
LINE
  8
0
 62
7
  6
CONTINUOUS
 10
544.3126239807
 20
31.6803770123
 11
544.4282492012
 21
31.6481133259
  0
LINE
  8
0
 62
7
  6
CONTINUOUS
 10
544.4860614807
 20
31.0673669025
 11
544.4282492012
 21
31.0028395296
  0
LINE
  8
0
 62
7
  6
CONTINUOUS
 10
543.0407492012
 20
31.7449043851
 11
542.9251239807
 21
31.6481133259
  0
LINE
  8
0
 62
7
  6
CONTINUOUS
 10
537.9532490909
 20
31.7771680715
 11
537.8376238704
 21
31.7126406987
  0
LINE
  8
0
 62
7
  6
CONTINUOUS
 10
538.0110613704
 20
31.3900038345
 11
537.8954364807
 21
31.3254764164
  0
LINE
  8
0
 62
7
  6
CONTINUOUS
 10
538.1266865909
 20
31.2286853572
 11
538.2423114807
 21
31.29321273
  0
LINE
  8
0
 62
7
  6
CONTINUOUS
 10
535.6985614255
 20
30.8092573885
 11
535.9876239807
 21
30.8092573885
  0
LINE
  8
0
 62
7
  6
CONTINUOUS
 10
537.0282489807
 20
30.8092573885
 11
537.3173113704
 21
30.8092573885
  0
LINE
  8
0
 62
7
  6
CONTINUOUS
 10
538.3579363704
 20
30.8092573885
 11
538.7048113704
 21
30.8092573885
  0
LINE
  8
0
 62
7
  6
CONTINUOUS
 10
539.3407487601
 20
30.8092573885
 11
539.6298114807
 21
30.8092573885
  0
LINE
  8
0
 62
7
  6
CONTINUOUS
 10
540.0923117012
 20
30.8092573885
 11
540.3813737601
 21
30.8092573885
  0
LINE
  8
0
 62
7
  6
CONTINUOUS
 10
540.8438739807
 20
30.8092573885
 11
541.1329367012
 21
30.8092573885
  0
LINE
  8
0
 62
7
  6
CONTINUOUS
 10
542.1735617012
 20
30.8092573885
 11
542.4626237601
 21
30.8092573885
  0
LINE
  8
0
 62
7
  6
CONTINUOUS
 10
543.7344992012
 20
30.8092573885
 11
544.0813742012
 21
30.8092573885
  0
LINE
  8
0
 62
7
  6
CONTINUOUS
 10
544.0813742012
 20
30.9383121455
 11
543.7344992012
 21
30.9383121455
  0
LINE
  8
0
 62
7
  6
CONTINUOUS
 10
538.7048113704
 20
30.9383121455
 11
538.3579363704
 21
30.9383121455
  0
LINE
  8
0
 62
7
  6
CONTINUOUS
 10
543.2141867012
 20
31.0673669025
 11
542.9251239807
 21
31.0673669025
  0
LINE
  8
0
 62
7
  6
CONTINUOUS
 10
535.2360615358
 20
31.1318942979
 11
534.9469989807
 21
31.1318942979
  0
LINE
  8
0
 62
7
  6
CONTINUOUS
 10
534.3110615082
 20
31.7126406987
 11
534.7157489531
 21
31.6803770123
  0
LINE
  8
0
 62
7
  6
CONTINUOUS
 10
534.7735614807
 20
31.809431758
 11
534.3688739531
 21
31.8416954444
  0
LINE
  8
0
 62
7
  6
CONTINUOUS
 10
543.3876242012
 20
30.8415210777
 11
543.7344992012
 21
30.8092573885
  0
LINE
  8
0
 62
7
  6
CONTINUOUS
 10
543.7344992012
 20
30.9383121455
 11
543.3876242012
 21
30.9705758432
  0
LINE
  8
0
 62
7
  6
CONTINUOUS
 10
539.1673112601
 20
31.809431758
 11
538.8204365909
 21
31.8416954444
  0
LINE
  8
0
 62
7
  6
CONTINUOUS
 10
543.9657489807
 20
31.7126406987
 11
544.3126239807
 21
31.6803770123
  0
LINE
  8
0
 62
7
  6
CONTINUOUS
 10
544.3126239807
 20
31.809431758
 11
543.9657489807
 21
31.8416954444
  0
LINE
  8
0
 62
7
  6
CONTINUOUS
 10
541.6532492012
 20
31.7126406987
 11
541.8844989807
 21
31.6803770123
  0
LINE
  8
0
 62
7
  6
CONTINUOUS
 10
544.4860614807
 20
31.7771680715
 11
544.3126239807
 21
31.809431758
  0
LINE
  8
0
 62
7
  6
CONTINUOUS
 10
544.6594989807
 20
30.9060484591
 11
544.7751235396
 21
31.0028395296
  0
LINE
  8
0
 62
7
  6
CONTINUOUS
 10
539.1673112601
 20
31.0996306115
 11
538.9938737601
 21
31.0028395296
  0
LINE
  8
0
 62
7
  6
CONTINUOUS
 10
541.2485612601
 20
31.7449043851
 11
541.1329367012
 21
31.6803770123
  0
LINE
  8
0
 62
7
  6
CONTINUOUS
 10
541.1329367012
 20
31.5513222666
 11
541.2485612601
 21
31.6158496394
  0
LINE
  8
0
 62
7
  6
CONTINUOUS
 10
533.8485614944
 20
31.7771680715
 11
533.6751239738
 21
31.7126406987
  0
LINE
  8
0
 62
7
  6
CONTINUOUS
 10
536.2766863704
 20
31.809431758
 11
536.1032490358
 21
31.7449043851
  0
LINE
  8
0
 62
7
  6
CONTINUOUS
 10
536.1032490358
 20
31.6158496394
 11
536.2766863704
 21
31.6803770123
  0
LINE
  8
0
 62
7
  6
CONTINUOUS
 10
534.8891865358
 20
31.035103216
 11
534.7157489531
 21
30.9705758432
  0
LINE
  8
0
 62
7
  6
CONTINUOUS
 10
544.3126239807
 20
30.9705758432
 11
544.0813742012
 21
30.9383121455
  0
LINE
  8
0
 62
7
  6
CONTINUOUS
 10
538.7048113704
 20
30.8092573885
 11
538.9938737601
 21
30.8415210777
  0
LINE
  8
0
 62
7
  6
CONTINUOUS
 10
544.0813742012
 20
30.8092573885
 11
544.4282492012
 21
30.8415210777
  0
LINE
  8
0
 62
7
  6
CONTINUOUS
 10
534.3688739531
 20
30.8092573885
 11
534.7735614807
 21
30.8415210777
  0
LINE
  8
0
 62
7
  6
CONTINUOUS
 10
534.7157489531
 20
30.9705758432
 11
534.3110615082
 21
30.9383121455
  0
LINE
  8
0
 62
7
  6
CONTINUOUS
 10
538.5891864807
 20
31.3577401029
 11
539.2251242012
 21
31.3577401029
  0
LINE
  8
0
 62
7
  6
CONTINUOUS
 10
539.2251242012
 20
31.4867948937
 11
538.5891864807
 21
31.4867948937
  0
LINE
  8
0
 62
7
  6
CONTINUOUS
 10
534.9469989807
 20
31.5190585802
 11
535.2360615358
 21
31.5190585802
  0
LINE
  8
0
 62
7
  6
CONTINUOUS
 10
537.7798115909
 20
31.583585953
 11
538.0688739807
 21
31.583585953
  0
LINE
  8
0
 62
7
  6
CONTINUOUS
 10
544.4860614807
 20
31.583585953
 11
544.7751235396
 21
31.583585953
  0
LINE
  8
0
 62
7
  6
CONTINUOUS
 10
538.4735615909
 20
31.7126406987
 11
538.8204365909
 21
31.7126406987
  0
LINE
  8
0
 62
7
  6
CONTINUOUS
 10
543.6188739807
 20
31.7126406987
 11
543.9657489807
 21
31.7126406987
  0
LINE
  8
0
 62
7
  6
CONTINUOUS
 10
543.9657489807
 20
31.8416954444
 11
543.6188739807
 21
31.8416954444
  0
LINE
  8
0
 62
7
  6
CONTINUOUS
 10
541.8844989807
 20
31.8416954444
 11
541.6532492012
 21
31.8416954444
  0
LINE
  8
0
 62
7
  6
CONTINUOUS
 10
541.1329367012
 20
31.8416954444
 11
540.8438739807
 21
31.8416954444
  0
LINE
  8
0
 62
7
  6
CONTINUOUS
 10
540.3813737601
 20
31.8416954444
 11
540.0923117012
 21
31.8416954444
  0
LINE
  8
0
 62
7
  6
CONTINUOUS
 10
538.8204365909
 20
31.8416954444
 11
538.4735615909
 21
31.8416954444
  0
LINE
  8
0
 62
7
  6
CONTINUOUS
 10
536.7391865909
 20
31.8416954444
 11
536.5079364807
 21
31.8416954444
  0
LINE
  8
0
 62
7
  6
CONTINUOUS
 10
540.0923117012
 20
32.164332399
 11
540.3813737601
 21
32.164332399
  0
LINE
  8
0
 62
7
  6
CONTINUOUS
 10
540.3813737601
 20
32.3256508311
 11
540.0923117012
 21
32.3256508311
  0
LINE
  8
0
 62
7
  6
CONTINUOUS
 10
535.9876239807
 20
32.3256508311
 11
535.6985614255
 21
32.3256508311
  0
LINE
  8
0
 62
7
  6
CONTINUOUS
 10
535.025405743
 20
32.612536077
 11
535.4379770916
 21
32.612536077
  0
LINE
  8
0
 62
7
  6
CONTINUOUS
 10
536.6647500053
 20
32.612536077
 11
538.0581926282
 21
32.612536077
  0
LINE
  8
0
 62
7
  6
CONTINUOUS
 10
538.3860614807
 20
32.612536077
 11
539.7795041036
 21
32.612536077
  0
LINE
  8
0
 62
7
  6
CONTINUOUS
 10
541.6647500053
 20
32.612536077
 11
543.0581926282
 21
32.612536077
  0
LINE
  8
0
 62
7
  6
CONTINUOUS
 10
543.3860614807
 20
32.612536077
 11
544.7795041036
 21
32.612536077
  0
LINE
  8
0
 62
7
  6
CONTINUOUS
 10
541.4219987601
 20
31.809431758
 11
541.2485612601
 21
31.7449043851
  0
LINE
  8
0
 62
7
  6
CONTINUOUS
 10
538.9938737601
 20
30.8415210777
 11
539.1673112601
 21
30.9060484591
  0
LINE
  8
0
 62
7
  6
CONTINUOUS
 10
544.4282492012
 20
30.8415210777
 11
544.6594989807
 21
30.9060484591
  0
LINE
  8
0
 62
7
  6
CONTINUOUS
 10
544.4282492012
 20
31.0028395296
 11
544.3126239807
 21
30.9705758432
  0
LINE
  8
0
 62
7
  6
CONTINUOUS
 10
543.3876242012
 20
31.6803770123
 11
543.6188739807
 21
31.7126406987
  0
LINE
  8
0
 62
7
  6
CONTINUOUS
 10
541.4219987601
 20
31.6803770123
 11
541.6532492012
 21
31.7126406987
  0
LINE
  8
0
 62
7
  6
CONTINUOUS
 10
538.3579363704
 20
31.3254764164
 11
538.5891864807
 21
31.3577401029
  0
LINE
  8
0
 62
7
  6
CONTINUOUS
 10
541.6532492012
 20
31.8416954444
 11
541.4219987601
 21
31.809431758
  0
LINE
  8
0
 62
7
  6
CONTINUOUS
 10
538.2423114807
 20
31.6803770123
 11
538.4735615909
 21
31.7126406987
  0
LINE
  8
0
 62
7
  6
CONTINUOUS
 10
543.6188739807
 20
31.8416954444
 11
543.2719989807
 21
31.809431758
  0
LINE
  8
0
 62
7
  6
CONTINUOUS
 10
538.5891864807
 20
31.4867948937
 11
538.2423114807
 21
31.4545312073
  0
LINE
  8
0
 62
7
  6
CONTINUOUS
 10
534.3688739531
 20
31.8416954444
 11
534.0219989944
 21
31.809431758
  0
LINE
  8
0
 62
7
  6
CONTINUOUS
 10
538.4735615909
 20
31.8416954444
 11
538.0688739807
 21
31.809431758
  0
LINE
  8
0
 62
7
  6
CONTINUOUS
 10
535.8450778741
 20
33.7600770606
 11
535.1893401692
 21
33.7600770606
  0
LINE
  8
0
 62
7
  6
CONTINUOUS
 10
541.2485612601
 20
31.6158496394
 11
541.4219987601
 21
31.6803770123
  0
LINE
  8
0
 62
7
  6
CONTINUOUS
 10
543.2719989807
 20
31.6481133259
 11
543.3876242012
 21
31.6803770123
  0
LINE
  8
0
 62
7
  6
CONTINUOUS
 10
543.2719989807
 20
31.809431758
 11
543.0407492012
 21
31.7449043851
  0
LINE
  8
0
 62
7
  6
CONTINUOUS
 10
538.9938737601
 20
31.0028395296
 11
538.7048113704
 21
30.9383121455
  0
LINE
  8
0
 62
7
  6
CONTINUOUS
 10
536.2766863704
 20
31.6803770123
 11
536.5079364807
 21
31.7126406987
  0
LINE
  8
0
 62
7
  6
CONTINUOUS
 10
536.5079364807
 20
31.8416954444
 11
536.2766863704
 21
31.809431758
  0
LINE
  8
0
 62
7
  6
CONTINUOUS
 10
534.0798114807
 20
31.6803770123
 11
534.3110615082
 21
31.7126406987
  0
LINE
  8
0
 62
7
  6
CONTINUOUS
 10
540.5991762348
 20
35.2354868967
 11
541.2549139397
 21
35.2354868967
  0
LINE
  8
0
 62
7
  6
CONTINUOUS
 10
538.2423114807
 20
31.29321273
 11
538.3579363704
 21
31.3254764164
  0
LINE
  8
0
 62
7
  6
CONTINUOUS
 10
538.2423114807
 20
31.4545312073
 11
538.0110613704
 21
31.3900038345
  0
LINE
  8
0
 62
7
  6
CONTINUOUS
 10
538.1266865909
 20
31.6481133259
 11
538.2423114807
 21
31.6803770123
  0
LINE
  8
0
 62
7
  6
CONTINUOUS
 10
534.7735614807
 20
30.8415210777
 11
535.0048114255
 21
30.9060484591
  0
LINE
  8
0
 62
7
  6
CONTINUOUS
 10
538.0688739807
 20
31.809431758
 11
537.9532490909
 21
31.7771680715
  0
LINE
  8
0
 62
7
  6
CONTINUOUS
 10
534.0219989944
 20
31.809431758
 11
533.8485614944
 21
31.7771680715
  0
LINE
  8
0
 62
7
  6
CONTINUOUS
 10
544.7795041036
 20
36.3830278803
 11
543.3860614807
 21
36.3830278803
  0
LINE
  8
0
 62
7
  6
CONTINUOUS
 10
541.4188483659
 20
36.3830278803
 11
541.0062770173
 21
36.3830278803
  0
LINE
  8
0
 62
7
  6
CONTINUOUS
 10
539.7795041036
 20
36.3830278803
 11
538.3860614807
 21
36.3830278803
  0
LINE
  8
0
 62
7
  6
CONTINUOUS
 10
538.0581926282
 20
36.3830278803
 11
536.6647500053
 21
36.3830278803
  0
LINE
  8
0
 62
7
  6
CONTINUOUS
 10
534.7795041036
 20
36.3830278803
 11
533.3860614807
 21
36.3830278803
  0
LINE
  8
0
 62
7
  6
CONTINUOUS
 10
533.9641864669
 20
31.6481133259
 11
534.0798114807
 21
31.6803770123
  0
CIRCLE
  8
0
 62
7
  6
CONTINUOUS
 10
544.0827827921
 20
38.7190934541
 40
2.0901639344
  0
ARC
  8
0
 62
7
  6
CONTINUOUS
 10
535.025405743
 20
34.2518803393
 40
1.6393442623
 50
180.0
 51
270.0
  0
ARC
  8
0
 62
7
  6
CONTINUOUS
 10
541.4188483659
 20
34.743683618
 40
1.6393442623
 50
0.0
 51
90.0
  0
ARC
  8
0
 62
7
  6
CONTINUOUS
 10
535.4379770916
 20
34.0879459131
 40
1.4754098361
 50
270.0
 51
326.2510114041
  0
ARC
  8
0
 62
7
  6
CONTINUOUS
 10
541.0062770173
 20
34.9076180442
 40
1.4754098361
 50
90.0
 51
146.2510114041
  0
ARC
  8
0
 62
7
  6
CONTINUOUS
 10
535.8450778741
 20
34.5797491918
 40
0.8196721311
 50
270.0
 51
360.0
  0
ARC
  8
0
 62
7
  6
CONTINUOUS
 10
540.5991762348
 20
34.4158147655
 40
0.8196721311
 50
90.0
 51
180.0
  0
ARC
  8
0
 62
7
  6
CONTINUOUS
 10
535.1893401692
 20
34.1699131262
 40
0.4098360656
 50
180.0
 51
270.0
  0
ARC
  8
0
 62
7
  6
CONTINUOUS
 10
541.2549139397
 20
34.8256508311
 40
0.4098360656
 50
0.0
 51
90.0
  0
SOLID
  8
0
 62
7
  6
CONTINUOUS
 10
540.0923117012
 20
32.1643327593
 11
540.0923117012
 21
32.3256512429
 12
540.3813737601
 22
32.1643327593
 13
540.3813737601
 23
32.3256512429
  0
SOLID
  8
0
 62
7
  6
CONTINUOUS
 10
534.3688739531
 20
31.841695792
 11
534.7735614807
 21
31.8094316148
 12
534.0219989944
 22
31.8094316148
 13
534.0219989944
 23
31.8094316148
  0
SOLID
  8
0
 62
7
  6
CONTINUOUS
 10
533.8485614944
 20
31.7771687019
 11
534.0219989944
 21
31.8094316148
 12
534.7735614807
 22
31.8094316148
 13
534.7735614807
 23
31.8094316148
  0
SOLID
  8
0
 62
7
  6
CONTINUOUS
 10
534.7735614807
 20
31.8094316148
 11
535.0048114255
 21
31.7449043986
 12
533.8485614944
 22
31.7771687019
 13
533.8485614944
 23
31.7771687019
  0
SOLID
  8
0
 62
7
  6
CONTINUOUS
 10
533.6751239738
 20
31.712640202
 11
533.8485614944
 21
31.7771687019
 12
535.0048114255
 22
31.7449043986
 13
535.0048114255
 23
31.7449043986
  0
SOLID
  8
0
 62
7
  6
CONTINUOUS
 10
533.6751239738
 20
31.712640202
 11
535.0048114255
 21
31.7449043986
 12
534.3110615082
 22
31.712640202
 13
534.3110615082
 23
31.712640202
  0
SOLID
  8
0
 62
7
  6
CONTINUOUS
 10
534.3110615082
 20
31.712640202
 11
535.0048114255
 21
31.7449043986
 12
534.7157489531
 22
31.6803773084
 13
534.7157489531
 23
31.6803773084
  0
SOLID
  8
0
 62
7
  6
CONTINUOUS
 10
535.0048114255
 20
31.7449043986
 11
535.1782489255
 21
31.6481130052
 12
534.7157489531
 22
31.6803773084
 13
534.7157489531
 23
31.6803773084
  0
SOLID
  8
0
 62
7
  6
CONTINUOUS
 10
534.8891865358
 20
31.6158502183
 11
534.7157489531
 21
31.6803773084
 12
535.1782489255
 22
31.6481130052
 13
535.1782489255
 23
31.6481130052
  0
SOLID
  8
0
 62
7
  6
CONTINUOUS
 10
534.8891865358
 20
31.6158502183
 11
535.1782489255
 21
31.6481130052
 12
534.9469989807
 22
31.5190586669
 13
534.9469989807
 23
31.5190586669
  0
SOLID
  8
0
 62
7
  6
CONTINUOUS
 10
535.1782489255
 20
31.6481130052
 11
535.2360615358
 21
31.5190586669
 12
534.9469989807
 22
31.5190586669
 13
534.9469989807
 23
31.5190586669
  0
SOLID
  8
0
 62
7
  6
CONTINUOUS
 10
536.2766863704
 20
31.8094307377
 11
536.5079364807
 21
31.841695041
 12
536.7391865909
 22
31.841695041
 13
536.7391865909
 23
31.841695041
  0
SOLID
  8
0
 62
7
  6
CONTINUOUS
 10
536.7391865909
 20
31.841695041
 11
536.9126240909
 21
31.8094307377
 12
536.2766863704
 22
31.8094307377
 13
536.2766863704
 23
31.8094307377
  0
SOLID
  8
0
 62
7
  6
CONTINUOUS
 10
536.1032490358
 20
31.7449036475
 11
536.2766863704
 21
31.8094307377
 12
536.9126240909
 22
31.8094307377
 13
536.9126240909
 23
31.8094307377
  0
SOLID
  8
0
 62
7
  6
CONTINUOUS
 10
536.9126240909
 20
31.8094307377
 11
537.0860615909
 21
31.7449036475
 12
536.1032490358
 22
31.7449036475
 13
536.1032490358
 23
31.7449036475
  0
SOLID
  8
0
 62
7
  6
CONTINUOUS
 10
537.0860615909
 20
31.7449036475
 11
536.5079364807
 21
31.7126400953
 12
536.1032490358
 22
31.7449036475
 13
536.1032490358
 23
31.7449036475
  0
SOLID
  8
0
 62
7
  6
CONTINUOUS
 10
535.9876239807
 20
31.6803765574
 11
536.1032490358
 21
31.7449036475
 12
536.5079364807
 22
31.7126400953
 13
536.5079364807
 23
31.7126400953
  0
SOLID
  8
0
 62
7
  6
CONTINUOUS
 10
536.5079364807
 20
31.7126400953
 11
536.2766863704
 21
31.6803765574
 12
535.9876239807
 22
31.6803765574
 13
535.9876239807
 23
31.6803765574
  0
SOLID
  8
0
 62
7
  6
CONTINUOUS
 10
536.5079364807
 20
31.7126400953
 11
537.0860615909
 21
31.7449036475
 12
536.7391865909
 22
31.6803765574
 13
536.7391865909
 23
31.6803765574
  0
SOLID
  8
0
 62
7
  6
CONTINUOUS
 10
537.0860615909
 20
31.7449036475
 11
537.2016864807
 21
31.6803765574
 12
536.7391865909
 22
31.6803765574
 13
536.7391865909
 23
31.6803765574
  0
SOLID
  8
0
 62
7
  6
CONTINUOUS
 10
536.8548114807
 20
31.6481130052
 11
536.7391865909
 21
31.6803765574
 12
537.2016864807
 22
31.6803765574
 13
537.2016864807
 23
31.6803765574
  0
SOLID
  8
0
 62
7
  6
CONTINUOUS
 10
537.2016864807
 20
31.6803765574
 11
537.2594990909
 21
31.6158494672
 12
536.8548114807
 22
31.6481130052
 13
536.8548114807
 23
31.6481130052
  0
SOLID
  8
0
 62
7
  6
CONTINUOUS
 10
536.9704363704
 20
31.583585915
 11
536.8548114807
 21
31.6481130052
 12
537.2594990909
 22
31.6158494672
 13
537.2594990909
 23
31.6158494672
  0
SOLID
  8
0
 62
7
  6
CONTINUOUS
 10
536.9704363704
 20
31.583585915
 11
537.2594990909
 21
31.6158494672
 12
537.0282489807
 22
31.4545309836
 13
537.0282489807
 23
31.4545309836
  0
SOLID
  8
0
 62
7
  6
CONTINUOUS
 10
537.2594990909
 20
31.6158494672
 11
537.3173113704
 21
31.4545309836
 12
537.0282489807
 22
31.4545309836
 13
537.0282489807
 23
31.4545309836
  0
SOLID
  8
0
 62
7
  6
CONTINUOUS
 10
536.2766863704
 20
31.6803765574
 11
536.1032490358
 21
31.6158494672
 12
535.9876239807
 22
31.6803765574
 13
535.9876239807
 23
31.6803765574
  0
SOLID
  8
0
 62
7
  6
CONTINUOUS
 10
536.1032490358
 20
31.6158494672
 11
535.9876239807
 21
31.5513216117
 12
535.9876239807
 22
31.6803765574
 13
535.9876239807
 23
31.6803765574
  0
SOLID
  8
0
 62
7
  6
CONTINUOUS
 10
535.9876239807
 20
31.5513216117
 11
535.6985614255
 21
30.8092570492
 12
535.9876239807
 22
31.6803765574
 13
535.9876239807
 23
31.6803765574
  0
SOLID
  8
0
 62
7
  6
CONTINUOUS
 10
535.9876239807
 20
31.6803765574
 11
535.6985614255
 21
30.8092570492
 12
535.9876239807
 22
32.3256504918
 13
535.9876239807
 23
32.3256504918
  0
SOLID
  8
0
 62
7
  6
CONTINUOUS
 10
535.6985614255
 20
30.8092570492
 11
535.6985614255
 21
32.3256504918
 12
535.9876239807
 22
32.3256504918
 13
535.9876239807
 23
32.3256504918
  0
SOLID
  8
0
 62
7
  6
CONTINUOUS
 10
535.9876239807
 20
31.5513216117
 11
535.9876239807
 21
30.8092570492
 12
535.6985614255
 22
30.8092570492
 13
535.6985614255
 23
30.8092570492
  0
SOLID
  8
0
 62
7
  6
CONTINUOUS
 10
537.0282489807
 20
30.8092570492
 11
537.0282489807
 21
31.4545309836
 12
537.3173113704
 22
31.4545309836
 13
537.3173113704
 23
31.4545309836
  0
SOLID
  8
0
 62
7
  6
CONTINUOUS
 10
537.3173113704
 20
31.4545309836
 11
537.3173113704
 21
30.8092570492
 12
537.0282489807
 22
30.8092570492
 13
537.0282489807
 23
30.8092570492
  0
SOLID
  8
0
 62
7
  6
CONTINUOUS
 10
538.0688739807
 20
31.809431823
 11
538.4735615909
 21
31.8416958158
 12
538.8204365909
 22
31.8416958158
 13
538.8204365909
 23
31.8416958158
  0
SOLID
  8
0
 62
7
  6
CONTINUOUS
 10
538.8204365909
 20
31.8416958158
 11
539.1673112601
 21
31.809431823
 12
538.0688739807
 22
31.809431823
 13
538.0688739807
 23
31.809431823
  0
SOLID
  8
0
 62
7
  6
CONTINUOUS
 10
537.9532490909
 20
31.7771687019
 11
538.0688739807
 21
31.809431823
 12
539.1673112601
 22
31.809431823
 13
539.1673112601
 23
31.809431823
  0
SOLID
  8
0
 62
7
  6
CONTINUOUS
 10
539.1673112601
 20
31.809431823
 11
539.3407487601
 21
31.7449043986
 12
537.9532490909
 22
31.7771687019
 13
537.9532490909
 23
31.7771687019
  0
SOLID
  8
0
 62
7
  6
CONTINUOUS
 10
537.8376238704
 20
31.7126398448
 11
537.9532490909
 21
31.7771687019
 12
539.3407487601
 22
31.7449043986
 13
539.3407487601
 23
31.7449043986
  0
SOLID
  8
0
 62
7
  6
CONTINUOUS
 10
537.8376238704
 20
31.7126398448
 11
539.3407487601
 21
31.7449043986
 12
538.4735615909
 22
31.7126398448
 13
538.4735615909
 23
31.7126398448
  0
SOLID
  8
0
 62
7
  6
CONTINUOUS
 10
538.4735615909
 20
31.7126398448
 11
539.3407487601
 21
31.7449043986
 12
538.8204365909
 22
31.7126398448
 13
538.8204365909
 23
31.7126398448
  0
SOLID
  8
0
 62
7
  6
CONTINUOUS
 10
538.8204365909
 20
31.7126398448
 11
539.3407487601
 21
31.7449043986
 12
539.0516867012
 22
31.6803774007
 13
539.0516867012
 23
31.6803774007
  0
SOLID
  8
0
 62
7
  6
CONTINUOUS
 10
539.3407487601
 20
31.7449043986
 11
539.4563739807
 21
31.6803774007
 12
539.0516867012
 22
31.6803774007
 13
539.0516867012
 23
31.6803774007
  0
SOLID
  8
0
 62
7
  6
CONTINUOUS
 10
537.7798115909
 20
31.6481126336
 11
537.8376238704
 21
31.7126398448
 12
538.4735615909
 22
31.7126398448
 13
538.4735615909
 23
31.7126398448
  0
SOLID
  8
0
 62
7
  6
CONTINUOUS
 10
539.1673112601
 20
31.6481126336
 11
539.0516867012
 21
31.6803774007
 12
539.4563739807
 22
31.6803774007
 13
539.4563739807
 23
31.6803774007
  0
SOLID
  8
0
 62
7
  6
CONTINUOUS
 10
539.1673112601
 20
31.6481126336
 11
539.4563739807
 21
31.6803774007
 12
539.2251242012
 22
31.5835861968
 13
539.2251242012
 23
31.5835861968
  0
SOLID
  8
0
 62
7
  6
CONTINUOUS
 10
539.4563739807
 20
31.6803774007
 11
539.5141862601
 21
31.5835861968
 12
539.2251242012
 22
31.5835861968
 13
539.2251242012
 23
31.5835861968
  0
SOLID
  8
0
 62
7
  6
CONTINUOUS
 10
539.2251242012
 20
31.4867945216
 11
539.2251242012
 21
31.5835861968
 12
539.5141862601
 22
31.5835861968
 13
539.5141862601
 23
31.5835861968
  0
SOLID
  8
0
 62
7
  6
CONTINUOUS
 10
539.2251242012
 20
31.4867945216
 11
539.5141862601
 21
31.5835861968
 12
539.2251242012
 22
31.3577403412
 13
539.2251242012
 23
31.3577403412
  0
SOLID
  8
0
 62
7
  6
CONTINUOUS
 10
539.2251242012
 20
31.3577403412
 11
539.5141862601
 21
31.5835861968
 12
539.2251242012
 22
31.1641579843
 13
539.2251242012
 23
31.1641579843
  0
SOLID
  8
0
 62
7
  6
CONTINUOUS
 10
539.5141862601
 20
31.5835861968
 11
539.5141862601
 21
31.0673661609
 12
539.2251242012
 22
31.1641579843
 13
539.2251242012
 23
31.1641579843
  0
SOLID
  8
0
 62
7
  6
CONTINUOUS
 10
541.4219987601
 20
31.8094310465
 11
541.6532492012
 21
31.8416957661
 12
541.8844989807
 22
31.8416957661
 13
541.8844989807
 23
31.8416957661
  0
SOLID
  8
0
 62
7
  6
CONTINUOUS
 10
541.8844989807
 20
31.8416957661
 11
542.0579364807
 21
31.8094310465
 12
541.4219987601
 22
31.8094310465
 13
541.4219987601
 23
31.8094310465
  0
SOLID
  8
0
 62
7
  6
CONTINUOUS
 10
541.2485612601
 20
31.7449047044
 11
541.4219987601
 21
31.8094310465
 12
542.0579364807
 22
31.8094310465
 13
542.0579364807
 23
31.8094310465
  0
SOLID
  8
0
 62
7
  6
CONTINUOUS
 10
542.0579364807
 20
31.8094310465
 11
542.2313739807
 21
31.7449047044
 12
541.2485612601
 22
31.7449047044
 13
541.2485612601
 23
31.7449047044
  0
SOLID
  8
0
 62
7
  6
CONTINUOUS
 10
542.2313739807
 20
31.7449047044
 11
541.6532492012
 21
31.7126400953
 12
541.2485612601
 22
31.7449047044
 13
541.2485612601
 23
31.7449047044
  0
SOLID
  8
0
 62
7
  6
CONTINUOUS
 10
541.1329367012
 20
31.6803773299
 11
541.2485612601
 21
31.7449047044
 12
541.6532492012
 22
31.7126400953
 13
541.6532492012
 23
31.7126400953
  0
SOLID
  8
0
 62
7
  6
CONTINUOUS
 10
541.6532492012
 20
31.7126400953
 11
541.4219987601
 21
31.6803773299
 12
541.1329367012
 22
31.6803773299
 13
541.1329367012
 23
31.6803773299
  0
SOLID
  8
0
 62
7
  6
CONTINUOUS
 10
541.6532492012
 20
31.7126400953
 11
542.2313739807
 21
31.7449047044
 12
541.8844989807
 22
31.6803773299
 13
541.8844989807
 23
31.6803773299
  0
SOLID
  8
0
 62
7
  6
CONTINUOUS
 10
542.2313739807
 20
31.7449047044
 11
542.3469992012
 21
31.6803773299
 12
541.8844989807
 22
31.6803773299
 13
541.8844989807
 23
31.6803773299
  0
SOLID
  8
0
 62
7
  6
CONTINUOUS
 10
542.0001242012
 20
31.6481130052
 11
541.8844989807
 21
31.6803773299
 12
542.3469992012
 22
31.6803773299
 13
542.3469992012
 23
31.6803773299
  0
SOLID
  8
0
 62
7
  6
CONTINUOUS
 10
542.0001242012
 20
31.6481130052
 11
542.3469992012
 21
31.6803773299
 12
542.1157487601
 22
31.5835862682
 13
542.1157487601
 23
31.5835862682
  0
SOLID
  8
0
 62
7
  6
CONTINUOUS
 10
542.3469992012
 20
31.6803773299
 11
542.4048114807
 21
31.5835862682
 12
542.1157487601
 22
31.5835862682
 13
542.1157487601
 23
31.5835862682
  0
SOLID
  8
0
 62
7
  6
CONTINUOUS
 10
542.1735617012
 20
31.422267832
 11
542.1157487601
 21
31.5835862682
 12
542.4048114807
 22
31.5835862682
 13
542.4048114807
 23
31.5835862682
  0
SOLID
  8
0
 62
7
  6
CONTINUOUS
 10
542.4048114807
 20
31.5835862682
 11
542.4626237601
 21
31.422267832
 12
542.1735617012
 22
31.422267832
 13
542.1735617012
 23
31.422267832
  0
SOLID
  8
0
 62
7
  6
CONTINUOUS
 10
541.4219987601
 20
31.6803773299
 11
541.2485612601
 21
31.6158502183
 12
541.1329367012
 22
31.6803773299
 13
541.1329367012
 23
31.6803773299
  0
SOLID
  8
0
 62
7
  6
CONTINUOUS
 10
541.2485612601
 20
31.6158502183
 11
541.1329367012
 21
31.5513216117
 12
541.1329367012
 22
31.6803773299
 13
541.1329367012
 23
31.6803773299
  0
SOLID
  8
0
 62
7
  6
CONTINUOUS
 10
541.1329367012
 20
31.5513216117
 11
540.8438739807
 21
30.8092577743
 12
541.1329367012
 22
31.6803773299
 13
541.1329367012
 23
31.6803773299
  0
SOLID
  8
0
 62
7
  6
CONTINUOUS
 10
541.1329367012
 20
31.6803773299
 11
540.8438739807
 21
30.8092577743
 12
541.1329367012
 22
31.8416957661
 13
541.1329367012
 23
31.8416957661
  0
SOLID
  8
0
 62
7
  6
CONTINUOUS
 10
540.8438739807
 20
30.8092577743
 11
540.8438739807
 21
31.8416957661
 12
541.1329367012
 22
31.8416957661
 13
541.1329367012
 23
31.8416957661
  0
SOLID
  8
0
 62
7
  6
CONTINUOUS
 10
541.1329367012
 20
31.5513216117
 11
541.1329367012
 21
30.8092577743
 12
540.8438739807
 22
30.8092577743
 13
540.8438739807
 23
30.8092577743
  0
SOLID
  8
0
 62
7
  6
CONTINUOUS
 10
542.1735617012
 20
30.8092577743
 11
542.1735617012
 21
31.422267832
 12
542.4626237601
 22
31.422267832
 13
542.4626237601
 23
31.422267832
  0
SOLID
  8
0
 62
7
  6
CONTINUOUS
 10
542.4626237601
 20
31.422267832
 11
542.4626237601
 21
30.8092577743
 12
542.1735617012
 22
30.8092577743
 13
542.1735617012
 23
30.8092577743
  0
SOLID
  8
0
 62
7
  6
CONTINUOUS
 10
543.2719989807
 20
31.8094314924
 11
543.6188739807
 21
31.8416958387
 12
543.9657489807
 22
31.8416958387
 13
543.9657489807
 23
31.8416958387
  0
SOLID
  8
0
 62
7
  6
CONTINUOUS
 10
543.9657489807
 20
31.8416958387
 11
544.3126239807
 21
31.8094314924
 12
543.2719989807
 22
31.8094314924
 13
543.2719989807
 23
31.8094314924
  0
SOLID
  8
0
 62
7
  6
CONTINUOUS
 10
543.0407492012
 20
31.7449043986
 11
543.2719989807
 21
31.8094314924
 12
544.3126239807
 22
31.8094314924
 13
544.3126239807
 23
31.8094314924
  0
SOLID
  8
0
 62
7
  6
CONTINUOUS
 10
543.0407492012
 20
31.7449043986
 11
544.3126239807
 21
31.8094314888
 12
544.4860614807
 22
31.7771687019
 13
544.4860614807
 23
31.7771687019
  0
SOLID
  8
0
 62
7
  6
CONTINUOUS
 10
543.0407492012
 20
31.7449043986
 11
544.4860614807
 21
31.7771687019
 12
543.6188739807
 22
31.7126401399
 13
543.6188739807
 23
31.7126401399
  0
SOLID
  8
0
 62
7
  6
CONTINUOUS
 10
543.6188739807
 20
31.7126401399
 11
544.4860614807
 21
31.7771687019
 12
543.9657489807
 22
31.7126401399
 13
543.9657489807
 23
31.7126401399
  0
SOLID
  8
0
 62
7
  6
CONTINUOUS
 10
544.4860614807
 20
31.7771687019
 11
544.6594989807
 21
31.7126401399
 12
543.9657489807
 22
31.7126401399
 13
543.9657489807
 23
31.7126401399
  0
SOLID
  8
0
 62
7
  6
CONTINUOUS
 10
544.3126239807
 20
31.6803773084
 11
543.9657489807
 21
31.7126401399
 12
544.6594989807
 22
31.7126401399
 13
544.6594989807
 23
31.7126401399
  0
SOLID
  8
0
 62
7
  6
CONTINUOUS
 10
542.9251239807
 20
31.6481128977
 11
543.0407492012
 21
31.7449043986
 12
543.6188739807
 22
31.7126401399
 13
543.6188739807
 23
31.7126401399
  0
SOLID
  8
0
 62
7
  6
CONTINUOUS
 10
544.3126239807
 20
31.6803773084
 11
544.6594989807
 21
31.7126401399
 12
544.4282492012
 22
31.6481128977
 13
544.4282492012
 23
31.6481128977
  0
SOLID
  8
0
 62
7
  6
CONTINUOUS
 10
544.4282492012
 20
31.6481128977
 11
544.6594989807
 21
31.7126401399
 12
544.4860614807
 22
31.5835858812
 13
544.4860614807
 23
31.5835858812
  0
SOLID
  8
0
 62
7
  6
CONTINUOUS
 10
544.6594989807
 20
31.7126401399
 11
544.7751235396
 21
31.5835858812
 12
544.4860614807
 22
31.5835858812
 13
544.4860614807
 23
31.5835858812
  0
SOLID
  8
0
 62
7
  6
CONTINUOUS
 10
534.0798114807
 20
31.6803773084
 11
533.5594989807
 21
31.6481129264
 12
534.3110615082
 22
31.7126401456
 13
534.3110615082
 23
31.7126401456
  0
SOLID
  8
0
 62
7
  6
CONTINUOUS
 10
533.5594989807
 20
31.6481129264
 11
533.6751239738
 21
31.7126401456
 12
534.3110615082
 22
31.7126401456
 13
534.3110615082
 23
31.7126401456
  0
SOLID
  8
0
 62
7
  6
CONTINUOUS
 10
534.0798114807
 20
31.6803773084
 11
533.9641864669
 21
31.6481129264
 12
533.5594989807
 22
31.6481129264
 13
533.5594989807
 23
31.6481129264
  0
SOLID
  8
0
 62
7
  6
CONTINUOUS
 10
533.4438739824
 20
31.5190588248
 11
533.5594989807
 21
31.6481129264
 12
533.9641864669
 22
31.6481129264
 13
533.9641864669
 23
31.6481129264
  0
SOLID
  8
0
 62
7
  6
CONTINUOUS
 10
537.7798115909
 20
31.6481130555
 11
538.4735615909
 21
31.7126400953
 12
538.2423114807
 22
31.6803773084
 13
538.2423114807
 23
31.6803773084
  0
SOLID
  8
0
 62
7
  6
CONTINUOUS
 10
538.2423114807
 20
31.6803773084
 11
538.1266865909
 21
31.6481130555
 12
537.7798115909
 22
31.6481130555
 13
537.7798115909
 23
31.6481130555
  0
SOLID
  8
0
 62
7
  6
CONTINUOUS
 10
537.7798115909
 20
31.5835859653
 11
537.7798115909
 21
31.6481130555
 12
538.1266865909
 22
31.6481130555
 13
538.1266865909
 23
31.6481130555
  0
SOLID
  8
0
 62
7
  6
CONTINUOUS
 10
538.1266865909
 20
31.6481130555
 11
538.0688739807
 21
31.5835859653
 12
537.7798115909
 22
31.5835859653
 13
537.7798115909
 23
31.5835859653
  0
SOLID
  8
0
 62
7
  6
CONTINUOUS
 10
542.9251239807
 20
31.6481130555
 11
543.6188739807
 21
31.7126400953
 12
543.3876242012
 22
31.6803773084
 13
543.3876242012
 23
31.6803773084
  0
SOLID
  8
0
 62
7
  6
CONTINUOUS
 10
543.3876242012
 20
31.6803773084
 11
543.2719989807
 21
31.6481130555
 12
542.9251239807
 22
31.6481130555
 13
542.9251239807
 23
31.6481130555
  0
SOLID
  8
0
 62
7
  6
CONTINUOUS
 10
542.9251239807
 20
31.5835859653
 11
542.9251239807
 21
31.6481130555
 12
543.2719989807
 22
31.6481130555
 13
543.2719989807
 23
31.6481130555
  0
SOLID
  8
0
 62
7
  6
CONTINUOUS
 10
543.2719989807
 20
31.6481130555
 11
543.2141867012
 21
31.5835859653
 12
542.9251239807
 22
31.5835859653
 13
542.9251239807
 23
31.5835859653
  0
SOLID
  8
0
 62
7
  6
CONTINUOUS
 10
543.0407492012
 20
31.4545317347
 11
542.9251239807
 21
31.5835859653
 12
543.2141867012
 22
31.5835859653
 13
543.2141867012
 23
31.5835859653
  0
SOLID
  8
0
 62
7
  6
CONTINUOUS
 10
533.4438739824
 20
31.5190588248
 11
533.9641864669
 21
31.6481130052
 12
533.7907489669
 22
31.5513216117
 13
533.7907489669
 23
31.5513216117
  0
SOLID
  8
0
 62
7
  6
CONTINUOUS
 10
533.7907489669
 20
31.5513216117
 11
533.7329364807
 21
31.4867945216
 12
533.4438739824
 22
31.5190588248
 13
533.4438739824
 23
31.5190588248
  0
SOLID
  8
0
 62
7
  6
CONTINUOUS
 10
533.3860614807
 20
31.325476038
 11
533.4438739824
 21
31.5190588248
 12
533.7329364807
 22
31.4867945216
 13
533.7329364807
 23
31.4867945216
  0
SOLID
  8
0
 62
7
  6
CONTINUOUS
 10
538.2423114807
 20
31.4545317347
 11
538.5891864807
 21
31.4867945557
 12
539.2251242012
 22
31.4867945557
 13
539.2251242012
 23
31.4867945557
  0
SOLID
  8
0
 62
7
  6
CONTINUOUS
 10
538.2423114807
 20
31.4545317347
 11
539.2251242012
 21
31.4867945557
 12
538.0110613704
 22
31.3900038345
 13
538.0110613704
 23
31.3900038345
  0
SOLID
  8
0
 62
7
  6
CONTINUOUS
 10
538.0110613704
 20
31.3900038345
 11
539.2251242012
 21
31.4867945557
 12
538.5891864807
 22
31.3577403754
 13
538.5891864807
 23
31.3577403754
  0
SOLID
  8
0
 62
7
  6
CONTINUOUS
 10
539.2251242012
 20
31.4867945557
 11
539.2251242012
 21
31.3577403754
 12
538.5891864807
 22
31.3577403754
 13
538.5891864807
 23
31.3577403754
  0
SOLID
  8
0
 62
7
  6
CONTINUOUS
 10
543.0407492012
 20
31.4545313481
 11
543.2141867012
 21
31.583585915
 12
543.2719989807
 22
31.5190588248
 13
543.2719989807
 23
31.5190588248
  0
SOLID
  8
0
 62
7
  6
CONTINUOUS
 10
543.2719989807
 20
31.5190588248
 11
543.4454364807
 21
31.4545313481
 12
543.0407492012
 22
31.4545313481
 13
543.0407492012
 23
31.4545313481
  0
SOLID
  8
0
 62
7
  6
CONTINUOUS
 10
543.2719989807
 20
31.3577403412
 11
543.0407492012
 21
31.4545313481
 12
543.4454364807
 22
31.4545313481
 13
543.4454364807
 23
31.4545313481
  0
SOLID
  8
0
 62
7
  6
CONTINUOUS
 10
543.4454364807
 20
31.4545313481
 11
544.4282492012
 21
31.2932132511
 12
543.2719989807
 22
31.3577403412
 13
543.2719989807
 23
31.3577403412
  0
SOLID
  8
0
 62
7
  6
CONTINUOUS
 10
544.2548117012
 20
31.1964222346
 11
543.2719989807
 21
31.3577403412
 12
544.4282492012
 22
31.2932132511
 13
544.4282492012
 23
31.2932132511
  0
SOLID
  8
0
 62
7
  6
CONTINUOUS
 10
544.4282492012
 20
31.2932132511
 11
544.6594989807
 21
31.1964222346
 12
544.2548117012
 22
31.1964222346
 13
544.2548117012
 23
31.1964222346
  0
SOLID
  8
0
 62
7
  6
CONTINUOUS
 10
544.4282492012
 20
31.1318947675
 11
544.2548117012
 21
31.1964222346
 12
544.6594989807
 22
31.1964222346
 13
544.6594989807
 23
31.1964222346
  0
SOLID
  8
0
 62
7
  6
CONTINUOUS
 10
544.4282492012
 20
31.1318947675
 11
544.6594989807
 21
31.1964222346
 12
544.4860614807
 22
31.0673665164
 13
544.4860614807
 23
31.0673665164
  0
SOLID
  8
0
 62
7
  6
CONTINUOUS
 10
544.6594989807
 20
31.1964222346
 11
544.7751235396
 21
31.0673665164
 12
544.4860614807
 22
31.0673665164
 13
544.4860614807
 23
31.0673665164
  0
SOLID
  8
0
 62
7
  6
CONTINUOUS
 10
544.4282492012
 20
31.0028394316
 11
544.4860614807
 21
31.0673665164
 12
544.7751235396
 22
31.0673665164
 13
544.7751235396
 23
31.0673665164
  0
SOLID
  8
0
 62
7
  6
CONTINUOUS
 10
544.7751235396
 20
31.0673665164
 11
544.7751235396
 21
31.0028394316
 12
544.4282492012
 22
31.0028394316
 13
544.4282492012
 23
31.0028394316
  0
SOLID
  8
0
 62
7
  6
CONTINUOUS
 10
544.3126239807
 20
30.9705762839
 11
544.4282492012
 21
31.0028394316
 12
544.7751235396
 22
31.0028394316
 13
544.7751235396
 23
31.0028394316
  0
SOLID
  8
0
 62
7
  6
CONTINUOUS
 10
544.3126239807
 20
30.9705762839
 11
544.7751235396
 21
31.0028394316
 12
544.0813742012
 22
30.9383123468
 13
544.0813742012
 23
30.9383123468
  0
SOLID
  8
0
 62
7
  6
CONTINUOUS
 10
544.7751235396
 20
31.0028394316
 11
544.6594989807
 21
30.9060491937
 12
544.0813742012
 22
30.9383123468
 13
544.0813742012
 23
30.9383123468
  0
SOLID
  8
0
 62
7
  6
CONTINUOUS
 10
544.6594989807
 20
30.9060491937
 11
543.2141867012
 21
30.8737848904
 12
544.0813742012
 22
30.9383123468
 13
544.0813742012
 23
30.9383123468
  0
SOLID
  8
0
 62
7
  6
CONTINUOUS
 10
544.0813742012
 20
30.9383123468
 11
543.2141867012
 21
30.8737848904
 12
543.7344992012
 22
30.9383123468
 13
543.7344992012
 23
30.9383123468
  0
SOLID
  8
0
 62
7
  6
CONTINUOUS
 10
543.2141867012
 20
30.8737848904
 11
543.0407492012
 21
30.9383123468
 12
543.7344992012
 22
30.9383123468
 13
543.7344992012
 23
30.9383123468
  0
SOLID
  8
0
 62
7
  6
CONTINUOUS
 10
543.2141867012
 20
30.8737848904
 11
544.6594989807
 21
30.9060491937
 12
543.3876242012
 22
30.8415205581
 13
543.3876242012
 23
30.8415205581
  0
SOLID
  8
0
 62
7
  6
CONTINUOUS
 10
544.6594989807
 20
30.9060491937
 11
544.4282492012
 21
30.8415205581
 12
543.3876242012
 22
30.8415205581
 13
543.3876242012
 23
30.8415205581
  0
SOLID
  8
0
 62
7
  6
CONTINUOUS
 10
543.7344992012
 20
30.8092581772
 11
543.3876242012
 21
30.8415205581
 12
544.4282492012
 22
30.8415205581
 13
544.4282492012
 23
30.8415205581
  0
SOLID
  8
0
 62
7
  6
CONTINUOUS
 10
544.4282492012
 20
30.8415205581
 11
544.0813742012
 21
30.8092581772
 12
543.7344992012
 22
30.8092581772
 13
543.7344992012
 23
30.8092581772
  0
SOLID
  8
0
 62
7
  6
CONTINUOUS
 10
533.3860614807
 20
31.325476038
 11
533.7329364807
 21
31.4867945216
 12
533.6751239738
 22
31.3577403412
 13
533.6751239738
 23
31.3577403412
  0
SOLID
  8
0
 62
7
  6
CONTINUOUS
 10
533.6751239738
 20
31.3577403412
 11
533.6751239738
 21
31.2609490436
 12
533.3860614807
 22
31.325476038
 13
533.3860614807
 23
31.325476038
  0
SOLID
  8
0
 62
7
  6
CONTINUOUS
 10
533.4438739824
 20
31.1318947675
 11
533.3860614807
 21
31.325476038
 12
533.6751239738
 22
31.2609490436
 13
533.6751239738
 23
31.2609490436
  0
SOLID
  8
0
 62
7
  6
CONTINUOUS
 10
533.6751239738
 20
31.2609490436
 11
533.7907489669
 21
31.0996304642
 12
533.4438739824
 22
31.1318947675
 13
533.4438739824
 23
31.1318947675
  0
SOLID
  8
0
 62
7
  6
CONTINUOUS
 10
533.5594989807
 20
31.0028388804
 11
533.4438739824
 21
31.1318947675
 12
533.7907489669
 22
31.0996304642
 13
533.7907489669
 23
31.0996304642
  0
SOLID
  8
0
 62
7
  6
CONTINUOUS
 10
533.7907489669
 20
31.0996304642
 11
533.9641864669
 21
31.0028388804
 12
533.5594989807
 22
31.0028388804
 13
533.5594989807
 23
31.0028388804
  0
SOLID
  8
0
 62
7
  6
CONTINUOUS
 10
533.6751239738
 20
30.9383122606
 11
533.5594989807
 21
31.0028388804
 12
533.9641864669
 22
31.0028388804
 13
533.9641864669
 23
31.0028388804
  0
SOLID
  8
0
 62
7
  6
CONTINUOUS
 10
533.9641864669
 20
31.0028388804
 11
534.3110615082
 21
30.9383122606
 12
533.6751239738
 22
30.9383122606
 13
533.6751239738
 23
30.9383122606
  0
SOLID
  8
0
 62
7
  6
CONTINUOUS
 10
533.8485614944
 20
30.8737848904
 11
533.6751239738
 21
30.9383122606
 12
534.3110615082
 22
30.9383122606
 13
534.3110615082
 23
30.9383122606
  0
SOLID
  8
0
 62
7
  6
CONTINUOUS
 10
537.8954364807
 20
31.3254759532
 11
538.0110613704
 21
31.3900038345
 12
538.5891864807
 22
31.3577403412
 13
538.5891864807
 23
31.3577403412
  0
SOLID
  8
0
 62
7
  6
CONTINUOUS
 10
538.5891864807
 20
31.3577403412
 11
538.3579363704
 21
31.3254759532
 12
537.8954364807
 22
31.3254759532
 13
537.8954364807
 23
31.3254759532
  0
SOLID
  8
0
 62
7
  6
CONTINUOUS
 10
537.7798115909
 20
31.1964218576
 11
537.8954364807
 21
31.3254759532
 12
538.3579363704
 22
31.3254759532
 13
538.3579363704
 23
31.3254759532
  0
SOLID
  8
0
 62
7
  6
CONTINUOUS
 10
538.1266865909
 20
31.2286853572
 11
537.7798115909
 21
31.1964218576
 12
538.2423114807
 22
31.2932132511
 13
538.2423114807
 23
31.2932132511
  0
SOLID
  8
0
 62
7
  6
CONTINUOUS
 10
537.7798115909
 20
31.1964218576
 11
538.3579363704
 21
31.325476038
 12
538.2423114807
 22
31.2932132511
 13
538.2423114807
 23
31.2932132511
  0
SOLID
  8
0
 62
7
  6
CONTINUOUS
 10
538.1266865909
 20
31.2286853572
 11
538.0688739807
 21
31.1318947675
 12
537.7798115909
 22
31.1964218576
 13
537.7798115909
 23
31.1964218576
  0
SOLID
  8
0
 62
7
  6
CONTINUOUS
 10
537.7798115909
 20
31.0996304642
 11
537.7798115909
 21
31.1964218576
 12
538.0688739807
 22
31.1318947675
 13
538.0688739807
 23
31.1318947675
  0
SOLID
  8
0
 62
7
  6
CONTINUOUS
 10
538.0688739807
 20
31.1318947675
 11
538.0688739807
 21
31.0673661609
 12
537.7798115909
 22
31.0996304642
 13
537.7798115909
 23
31.0996304642
  0
SOLID
  8
0
 62
7
  6
CONTINUOUS
 10
537.8376238704
 20
30.9705762839
 11
537.7798115909
 21
31.0996304642
 12
538.0688739807
 22
31.0673661609
 13
538.0688739807
 23
31.0673661609
  0
SOLID
  8
0
 62
7
  6
CONTINUOUS
 10
539.2251242012
 20
31.1641579843
 11
539.5141862601
 21
31.0673661609
 12
539.1673112601
 22
31.0996304642
 13
539.1673112601
 23
31.0996304642
  0
SOLID
  8
0
 62
7
  6
CONTINUOUS
 10
538.9938737601
 20
31.0028390707
 11
539.1673112601
 21
31.0996304642
 12
539.5141862601
 22
31.0673661609
 13
539.5141862601
 23
31.0673661609
  0
SOLID
  8
0
 62
7
  6
CONTINUOUS
 10
538.9938737601
 20
31.0028390707
 11
539.5141862601
 21
31.0673661609
 12
539.2251242012
 22
30.9705762839
 13
539.2251242012
 23
30.9705762839
  0
SOLID
  8
0
 62
7
  6
CONTINUOUS
 10
539.5141862601
 20
31.0673661609
 11
539.5719992012
 21
30.9060491937
 12
539.2251242012
 22
30.9705762839
 13
539.2251242012
 23
30.9705762839
  0
SOLID
  8
0
 62
7
  6
CONTINUOUS
 10
539.2829364807
 20
30.8737848904
 11
539.2251242012
 21
30.9705762839
 12
539.5719992012
 22
30.9060491937
 13
539.5719992012
 23
30.9060491937
  0
SOLID
  8
0
 62
7
  6
CONTINUOUS
 10
539.2829364807
 20
30.8737848904
 11
539.5719992012
 21
30.9060491937
 12
539.3407487601
 22
30.8092576254
 13
539.3407487601
 23
30.8092576254
  0
SOLID
  8
0
 62
7
  6
CONTINUOUS
 10
539.5719992012
 20
30.9060491937
 11
539.6298114807
 21
30.8092576254
 12
539.3407487601
 22
30.8092576254
 13
539.3407487601
 23
30.8092576254
  0
SOLID
  8
0
 62
7
  6
CONTINUOUS
 10
534.8891865358
 20
31.035103216
 11
534.9469989807
 21
31.1318946289
 12
535.2360615358
 22
31.1318946289
 13
535.2360615358
 23
31.1318946289
  0
SOLID
  8
0
 62
7
  6
CONTINUOUS
 10
535.2360615358
 20
31.1318946289
 11
535.1782489255
 21
31.0028390707
 12
534.8891865358
 22
31.035103216
 13
534.8891865358
 23
31.035103216
  0
SOLID
  8
0
 62
7
  6
CONTINUOUS
 10
534.7157489531
 20
30.9705762839
 11
534.8891865358
 21
31.035103216
 12
535.1782489255
 22
31.0028390707
 13
535.1782489255
 23
31.0028390707
  0
SOLID
  8
0
 62
7
  6
CONTINUOUS
 10
534.7157489531
 20
30.9705762839
 11
535.1782489255
 21
31.0028390707
 12
534.3110615082
 22
30.9383119806
 13
534.3110615082
 23
30.9383119806
  0
SOLID
  8
0
 62
7
  6
CONTINUOUS
 10
535.1782489255
 20
31.0028390707
 11
535.0048114255
 21
30.9060491937
 12
534.3110615082
 22
30.9383119806
 13
534.3110615082
 23
30.9383119806
  0
SOLID
  8
0
 62
7
  6
CONTINUOUS
 10
533.8485614944
 20
30.8737848904
 11
534.3110615082
 21
30.9383119806
 12
535.0048114255
 22
30.9060491937
 13
535.0048114255
 23
30.9060491937
  0
SOLID
  8
0
 62
7
  6
CONTINUOUS
 10
533.8485614944
 20
30.8737848904
 11
535.0048114255
 21
30.9060491937
 12
534.0219989944
 22
30.8415207131
 13
534.0219989944
 23
30.8415207131
  0
SOLID
  8
0
 62
7
  6
CONTINUOUS
 10
535.0048114255
 20
30.9060491937
 11
534.7735614807
 21
30.8415207131
 12
534.0219989944
 22
30.8415207131
 13
534.0219989944
 23
30.8415207131
  0
SOLID
  8
0
 62
7
  6
CONTINUOUS
 10
534.3688739531
 20
30.8092578002
 11
534.0219989944
 21
30.8415207131
 12
534.7735614807
 22
30.8415207131
 13
534.7735614807
 23
30.8415207131
  0
SOLID
  8
0
 62
7
  6
CONTINUOUS
 10
537.8376238704
 20
30.9705762839
 11
538.0688739807
 21
31.0673661609
 12
538.1266865909
 22
31.0028390707
 13
538.1266865909
 23
31.0028390707
  0
SOLID
  8
0
 62
7
  6
CONTINUOUS
 10
538.1266865909
 20
31.0028390707
 11
538.3579363704
 21
30.9383119806
 12
537.8376238704
 22
30.9705762839
 13
537.8376238704
 23
30.9705762839
  0
SOLID
  8
0
 62
7
  6
CONTINUOUS
 10
538.0110613704
 20
30.8737848904
 11
537.8376238704
 21
30.9705762839
 12
538.3579363704
 22
30.9383119806
 13
538.3579363704
 23
30.9383119806
  0
SOLID
  8
0
 62
7
  6
CONTINUOUS
 10
538.7048113704
 20
30.9383119664
 11
538.9938737601
 21
31.0028390707
 12
539.2251242012
 22
30.9705762839
 13
539.2251242012
 23
30.9705762839
  0
SOLID
  8
0
 62
7
  6
CONTINUOUS
 10
539.2251242012
 20
30.9705762839
 11
539.1673112601
 21
30.9060491937
 12
538.7048113704
 22
30.9383119664
 13
538.7048113704
 23
30.9383119664
  0
SOLID
  8
0
 62
7
  6
CONTINUOUS
 10
539.1673112601
 20
30.9060491937
 11
538.0110613704
 21
30.8737848904
 12
538.7048113704
 22
30.9383119664
 13
538.7048113704
 23
30.9383119664
  0
SOLID
  8
0
 62
7
  6
CONTINUOUS
 10
538.0110613704
 20
30.8737848904
 11
538.3579363704
 21
30.9383119664
 12
538.7048113704
 22
30.9383119664
 13
538.7048113704
 23
30.9383119664
  0
SOLID
  8
0
 62
7
  6
CONTINUOUS
 10
538.0110613704
 20
30.8737848904
 11
539.1673112601
 21
30.9060491937
 12
538.1266865909
 22
30.8415205568
 13
538.1266865909
 23
30.8415205568
  0
SOLID
  8
0
 62
7
  6
CONTINUOUS
 10
539.1673112601
 20
30.9060491937
 11
538.9938737601
 21
30.8415205568
 12
538.1266865909
 22
30.8415205568
 13
538.1266865909
 23
30.8415205568
  0
SOLID
  8
0
 62
7
  6
CONTINUOUS
 10
538.3579363704
 20
30.8092577215
 11
538.1266865909
 21
30.8415205568
 12
538.9938737601
 22
30.8415205568
 13
538.9938737601
 23
30.8415205568
  0
SOLID
  8
0
 62
7
  6
CONTINUOUS
 10
538.9938737601
 20
30.8415205568
 11
538.7048113704
 21
30.8092577215
 12
538.3579363704
 22
30.8092577215
 13
538.3579363704
 23
30.8092577215
  0
SOLID
  8
0
 62
7
  6
CONTINUOUS
 10
543.3876242012
 20
30.9705762839
 11
543.0407492012
 21
30.9383119664
 12
543.2719989807
 22
31.0028390707
 13
543.2719989807
 23
31.0028390707
  0
SOLID
  8
0
 62
7
  6
CONTINUOUS
 10
543.2719989807
 20
31.0028390707
 11
543.0407492012
 21
30.9383119664
 12
543.2141867012
 22
31.0673661467
 13
543.2141867012
 23
31.0673661467
  0
SOLID
  8
0
 62
7
  6
CONTINUOUS
 10
543.0407492012
 20
30.9383119664
 11
542.9251239807
 21
31.0673661467
 12
543.2141867012
 22
31.0673661467
 13
543.2141867012
 23
31.0673661467
  0
SOLID
  8
0
 62
7
  6
CONTINUOUS
 10
543.3876242012
 20
30.9705762839
 11
543.7344992012
 21
30.9383119664
 12
543.0407492012
 22
30.9383119664
 13
543.0407492012
 23
30.9383119664
  0
SOLID
  8
0
 62
7
  6
CONTINUOUS
 10
540.0923117012
 20
30.8092578002
 11
540.0923117012
 21
31.841695792
 12
540.3813737601
 22
30.8092578002
 13
540.3813737601
 23
31.841695792
  0
ENDBLK
  8
0
  6
BYBLOCK
 62
0
  0
BLOCK
  8
0
 62
2
  6
CONTINUOUS
  2
AMMEAAL_LOGO_BL0
 70
64
 10
416.1419631151
 20
19.7009994242
  0
TEXT
  8
0
 62
7
  6
CONTINUOUS
 10
402.4066669574
 20
19.0744135318
  7
TEXTSTYLE_3
 40
2.7338706658
  1
Ammeraal Beltech
 41
1.0
 51
15.0
 72
0
  0
TEXT
  8
0
 62
7
  6
CONTINUOUS
 10
413.2074677831
 20
16.800876859
  7
TEXTSTYLE_4
 40
1.0935482663
  1
Innovation & Service in Belting
 41
1.0
 72
0
  0
LINE
  8
0
 62
7
  6
CONTINUOUS
 10
396.382126306
 20
19.8410068404
 11
397.1602782994
 21
23.5019241381
  0
LINE
  8
0
 62
7
  6
CONTINUOUS
 10
407.2554465892
 20
27.1653180497
 11
397.6480960424
 21
24.0437006284
  0
LINE
  8
0
 62
7
  6
CONTINUOUS
 10
396.6074096383
 20
19.1476560374
 11
404.1144848995
 21
12.3882551114
  0
LINE
  8
0
 62
7
  6
CONTINUOUS
 10
396.869944049
 20
20.3827833308
 11
407.6782134142
 21
23.8946029297
  0
LINE
  8
0
 62
7
  6
CONTINUOUS
 10
407.674008277
 20
13.544814366
 11
399.2285486083
 21
21.1491404077
  0
LINE
  8
0
 62
7
  6
CONTINUOUS
 10
408.1938309968
 20
26.320392934
 11
407.2172714596
 21
21.7260415315
  0
LINE
  8
0
 62
7
  6
CONTINUOUS
 10
406.5174695119
 20
18.4337322177
 11
405.8310213004
 21
15.2042472933
  0
LINE
  8
0
 62
7
  6
CONTINUOUS
 10
408.8749270954
 20
13.9350165436
 11
409.831158631
 21
18.4337322177
  0
LINE
  8
0
 62
7
  6
CONTINUOUS
 10
410.5309605787
 20
21.7260415315
 11
410.9752023811
 21
23.8160348909
  0
LINE
  8
0
 62
7
  6
CONTINUOUS
 10
404.8275859748
 20
12.2366807987
 11
408.3871093524
 21
13.3932400533
  0
LINE
  8
0
 62
7
  6
CONTINUOUS
 10
407.9685476645
 20
27.013743737
 11
410.7499190488
 21
24.5093856939
  0
ARC
  8
0
 62
7
  6
CONTINUOUS
 10
397.8733793747
 20
23.3503498254
 40
0.7290321776
 50
108.0
 51
168.0
  0
ARC
  8
0
 62
7
  6
CONTINUOUS
 10
407.4807299215
 20
26.4719672466
 40
0.7290321776
 50
348.0
 51
108.0
  0
ARC
  8
0
 62
7
  6
CONTINUOUS
 10
410.2621013058
 20
23.9676092036
 40
0.7290321776
 50
348.0
 51
48.0
  0
ARC
  8
0
 62
7
  6
CONTINUOUS
 10
404.6023026425
 20
12.9300316018
 40
0.7290321776
 50
228.0
 51
288.0
  0
ARC
  8
0
 62
7
  6
CONTINUOUS
 10
397.0952273813
 20
19.6894325277
 40
0.7290321776
 50
108.0
 51
228.0
  0
ARC
  8
0
 62
7
  6
CONTINUOUS
 10
408.1618260201
 20
14.0865908563
 40
0.7290321776
 50
228.0
 51
348.0
  0
ENDBLK
  8
0
  6
BYBLOCK
 62
0
  0
ENDSEC
  0
SECTION
  2
ENTITIES
  0
TEXT
  8
0
 62
5
  6
CONTINUOUS
 10
480.0
 20
25.636
  7
TEXTSTYLE_2
 40
2.8
  1
Scale :
 41
0.6
 51
0.000019
 72
0
  0
TEXT
  8
0
 62
5
  6
CONTINUOUS
 10
500.0
 20
25.636
  7
TEXTSTYLE_2
 40
2.8
  1
Belt type:
 41
0.6
 51
0.000019
 72
0
  0
INSERT
  8
0
 62
2
  6
CONTINUOUS
  2
AMMEAAL_LOGO_BL0
 10
416.1419631151
 20
19.7009994242
  0
INSERT
  8
0
 62
2
  6
CONTINUOUS
  2
UNI_LOGO2_BL1
 10
557.4079930916
 20
35.8092573885
  0
LINE
  8
0
 62
2
  6
CONTINUOUS
 10
394.0
 20
30.0
 11
584.0
 21
30.0
  0
LINE
  8
0
 62
2
  6
CONTINUOUS
 10
394.0
 20
30.0
 11
394.0
 21
10.0
  0
LINE
  8
0
 62
2
  6
CONTINUOUS
 10
394.0
 20
10.0
 11
584.0
 21
10.0
  0
LINE
  8
0
 62
2
  6
CONTINUOUS
 10
479.0
 20
30.0
 11
479.0
 21
10.0
  0
LINE
  8
0
 62
2
  6
CONTINUOUS
 10
499.0
 20
30.0
 11
499.0
 21
10.0
  0
LINE
  8
0
 62
2
  6
CONTINUOUS
 10
584.0
 20
30.0
 11
584.0
 21
10.0
  0
TEXT
  8
0
 62
5
  6
CONTINUOUS
 10
397.0
 20
23.303
  7
TEXTSTYLE_5
 40
1.52
  1
                                                                     Ammeraal Beltech Modular A/S
 41
1.0
 72
0
  0
TEXT
  8
0
 62
5
  6
CONTINUOUS
 10
397.0
 20
20.595
  7
TEXTSTYLE_5
 40
1.5
  1
                                                                      Hjulmagervej 21, 7100 Vejle,  DK
 41
1.0
 72
0
  0
TEXT
  8
0
 62
5
  6
CONTINUOUS
 10
397.0
 20
17.881
  7
TEXTSTYLE_5
 40
1.495
  1
                                                                      tel: 
 41
1.0
 72
0
  0
TEXT
  8
0
 62
5
  6
CONTINUOUS
 10
441.9869465649
 20
17.881
  7
TEXTSTYLE_5
 40
1.51
  1
+45 75723100     fax: +45 75723348
 41
1.0
 72
0
  0
TEXT
  8
0
 62
5
  6
CONTINUOUS
 10
397.0
 20
15.177
  7
TEXTSTYLE_5
 40
1.5
  1
                                                                      admin@unichains.dk  www.unichains.com
 41
1.0
 72
0
  0
TEXT
  8
0
 62
5
  6
CONTINUOUS
 10
483.75
 20
13.75
  7
TEXTSTYLE_6
 40
5.0
  1
1:1
 41
0.7
 72
1
 11
489.0
 21
13.75
  0
TEXT
  8
0
 62
5
  6
CONTINUOUS
 10
502.0
 20
13.75
  7
TEXTSTYLE_7
 40
7.5
  1
Z16
 41
0.6222222222
 72
0
  0
LINE
  8
0
 62
7
  6
CONTINUOUS
 10
0.0
 20
0.0
 11
0.0
 21
420.0
  0
LINE
  8
0
 62
7
  6
CONTINUOUS
 10
10.0
 20
10.0
 11
10.0
 21
410.0
  0
LINE
  8
0
 62
7
  6
CONTINUOUS
 10
0.0
 20
0.0
 11
594.0
 21
0.0
  0
LINE
  8
0
 62
7
  6
CONTINUOUS
 10
10.0
 20
10.0
 11
584.0
 21
10.0
  0
LINE
  8
0
 62
7
  6
CONTINUOUS
 10
394.0
 20
30.0
 11
584.0
 21
30.0
  0
LINE
  8
0
 62
7
  6
CONTINUOUS
 10
179.0
 20
5.0
 11
179.0
 21
10.0
  0
LINE
  8
0
 62
7
  6
CONTINUOUS
 10
179.0
 20
410.0
 11
179.0
 21
415.0
  0
LINE
  8
0
 62
7
  6
CONTINUOUS
 10
594.0
 20
420.0
 11
584.0
 21
410.0
  0
LINE
  8
0
 62
7
  6
CONTINUOUS
 10
384.0
 20
410.0
 11
384.0
 21
415.0
  0
LINE
  8
0
 62
7
  6
CONTINUOUS
 10
584.0
 20
297.0
 11
589.0
 21
297.0
  0
LINE
  8
0
 62
7
  6
CONTINUOUS
 10
10.0
 20
410.0
 11
584.0
 21
410.0
  0
LINE
  8
0
 62
7
  6
CONTINUOUS
 10
0.0
 20
420.0
 11
594.0
 21
420.0
  0
LINE
  8
0
 62
7
  6
CONTINUOUS
 10
584.0
 20
10.0
 11
584.0
 21
410.0
  0
LINE
  8
0
 62
7
  6
CONTINUOUS
 10
594.0
 20
0.0
 11
594.0
 21
420.0
  0
LINE
  8
0
 62
7
  6
CONTINUOUS
 10
80.0311598105
 20
284.0311629747
 11
79.9327628632
 21
283.6125382586
  0
LINE
  8
0
 62
7
  6
CONTINUOUS
 10
80.3100430532
 20
283.4157210195
 11
80.4084400005
 21
283.8343457356
  0
LINE
  8
0
 62
7
  6
CONTINUOUS
 10
88.5534647358
 20
299.3022995593
 11
88.6545872519
 21
299.6165412214
  0
LINE
  8
0
 62
7
  6
CONTINUOUS
 10
88.1424030353
 20
299.9974498784
 11
87.9791178608
 21
299.5996219499
  0
LINE
  8
0
 62
7
  6
CONTINUOUS
 10
92.5274863146
 20
297.5151788148
 11
92.7529327172
 21
297.996591102
  0
LINE
  8
0
 62
7
  6
CONTINUOUS
 10
78.8367436418
 20
281.6962847535
 11
78.6126167498
 21
281.2261415829
  0
LINE
  8
0
 62
7
  6
CONTINUOUS
 10
77.7161093901
 20
279.3455693376
 11
77.4919825462
 21
278.8754262679
  0
LINE
  8
0
 62
7
  6
CONTINUOUS
 10
80.8980067013
 20
279.0980693808
 11
80.7187052005
 21
278.7219548712
  0
LINE
  8
0
 62
7
  6
CONTINUOUS
 10
81.1028220885
 20
278.5388384725
 11
81.2821235893
 21
278.914952982
  0
LINE
  8
0
 62
7
  6
CONTINUOUS
 10
81.7752026363
 20
279.9492677153
 11
81.9993295283
 21
280.4194108859
  0
LINE
  8
0
 62
7
  6
CONTINUOUS
 10
80.2238768053
 20
284.400583381
 11
80.0311598105
 21
284.0311629747
  0
LINE
  8
0
 62
7
  6
CONTINUOUS
 10
79.5975467789
 20
283.1999674569
 11
79.3566506042
 21
282.7381920811
  0
LINE
  8
0
 62
7
  6
CONTINUOUS
 10
82.3748923889
 20
281.1636540304
 11
82.6157885635
 21
281.6254294061
  0
LINE
  8
0
 62
7
  6
CONTINUOUS
 10
83.4830146268
 20
283.2878204418
 11
83.7239106635
 21
283.7495955533
  0
LINE
  8
0
 62
7
  6
CONTINUOUS
 10
80.0035052728
 20
287.3482809347
 11
79.7519614949
 21
286.8922185684
  0
LINE
  8
0
 62
7
  6
CONTINUOUS
 10
80.217727438
 20
286.6353227279
 11
80.4692712159
 21
287.0913850942
  0
LINE
  8
0
 62
7
  6
CONTINUOUS
 10
81.400803363
 20
286.5775932693
 11
81.1492595851
 21
286.121530903
  0
LINE
  8
0
 62
7
  6
CONTINUOUS
 10
84.1301618818
 20
284.4773973799
 11
84.3817056597
 21
284.9334597462
  0
LINE
  8
0
 62
7
  6
CONTINUOUS
 10
98.8066088672
 20
305.159515517
 11
99.0735254593
 21
305.619234874
  0
LINE
  8
0
 62
7
  6
CONTINUOUS
 10
107.1859775386
 20
319.2882212549
 11
107.3589137209
 21
319.5694092033
  0
LINE
  8
0
 62
7
  6
CONTINUOUS
 10
83.4805469198
 20
293.2151395508
 11
83.1398743095
 21
292.691147974
  0
LINE
  8
0
 62
7
  6
CONTINUOUS
 10
88.8407022535
 20
293.4576375158
 11
87.1373392021
 21
290.8376796315
  0
LINE
  8
0
 62
7
  6
CONTINUOUS
 10
87.3318069244
 20
289.9657670919
 11
89.3758425859
 21
293.109716553
  0
LINE
  8
0
 62
7
  6
CONTINUOUS
 10
88.7686804827
 20
296.3261117779
 11
87.9350574017
 21
295.1295292153
  0
LINE
  8
0
 62
7
  6
CONTINUOUS
 10
88.3715008408
 20
294.8254721984
 11
89.2051239218
 21
296.022054761
  0
LINE
  8
0
 62
7
  6
CONTINUOUS
 10
88.4532134814
 20
300.4153773839
 11
88.1424030353
 21
299.9974498784
  0
LINE
  8
0
 62
7
  6
CONTINUOUS
 10
88.6545872519
 20
299.6165412214
 11
89.0275603563
 21
300.1180549932
  0
LINE
  8
0
 62
7
  6
CONTINUOUS
 10
89.8273536412
 20
300.3021448843
 11
90.2003267457
 21
300.8036586562
  0
LINE
  8
0
 62
7
  6
CONTINUOUS
 10
90.2226571008
 20
299.2292679491
 11
89.8496839964
 21
298.7277541772
  0
LINE
  8
0
 62
7
  6
CONTINUOUS
 10
90.361868213
 20
298.3468455202
 11
90.7348413174
 21
298.8483592921
  0
LINE
  8
0
 62
7
  6
CONTINUOUS
 10
90.4231583064
 20
297.0031102978
 11
90.050185202
 21
296.501596526
  0
LINE
  8
0
 62
7
  6
CONTINUOUS
 10
92.0153020383
 20
297.8960875162
 11
91.51800504
 21
297.2274031248
  0
LINE
  8
0
 62
7
  6
CONTINUOUS
 10
92.0301893163
 20
296.8464944233
 11
92.5274863146
 21
297.5151788148
  0
LINE
  8
0
 62
7
  6
CONTINUOUS
 10
107.1000580757
 20
320.0456218641
 11
106.7666150967
 21
319.6316144583
  0
LINE
  8
0
 62
7
  6
CONTINUOUS
 10
108.2530352591
 20
318.6522968332
 11
107.9195922801
 21
318.2382894275
  0
LINE
  8
0
 62
7
  6
CONTINUOUS
 10
110.6889622129
 20
316.5255322141
 11
111.022405186
 21
316.939539627
  0
LINE
  8
0
 62
7
  6
CONTINUOUS
 10
92.7238385731
 20
305.8173437433
 11
92.3291504409
 21
305.3327343354
  0
LINE
  8
0
 62
7
  6
CONTINUOUS
 10
90.6846160549
 20
303.3135278526
 11
90.0925838565
 21
302.5866137406
  0
LINE
  8
0
 62
7
  6
CONTINUOUS
 10
93.9694591203
 20
299.429108683
 11
94.3641472525
 21
299.913718091
  0
LINE
  8
0
 62
7
  6
CONTINUOUS
 10
96.0086816386
 20
301.9329245737
 11
96.6007138369
 21
302.6598386857
  0
LINE
  8
0
 62
7
  6
CONTINUOUS
 10
95.0724845657
 20
308.4846193801
 11
93.4099326341
 21
306.6175572293
  0
LINE
  8
0
 62
7
  6
CONTINUOUS
 10
94.3022672795
 20
306.6598414734
 11
95.6184547538
 21
308.1379329363
  0
LINE
  8
0
 62
7
  6
CONTINUOUS
 10
96.730747189
 20
307.1474763863
 11
95.4145597147
 21
305.6693849234
  0
LINE
  8
0
 62
7
  6
CONTINUOUS
 10
95.8912563772
 20
305.2449036298
 11
97.2074438515
 21
306.7229950927
  0
LINE
  8
0
 62
7
  6
CONTINUOUS
 10
98.3991856747
 20
305.66179171
 11
97.0829982004
 21
304.1837002471
  0
LINE
  8
0
 62
7
  6
CONTINUOUS
 10
97.1440569357
 20
303.2924533662
 11
98.8066088672
 21
305.159515517
  0
LINE
  8
0
 62
7
  6
CONTINUOUS
 10
80.4084400005
 20
283.8343457356
 11
80.6954770429
 21
284.1545618321
  0
LINE
  8
0
 62
7
  6
CONTINUOUS
 10
103.3888372797
 20
316.8520388489
 11
100.3509096288
 21
314.0003562835
  0
LINE
  8
0
 62
7
  6
CONTINUOUS
 10
100.714954307
 20
313.6125356306
 11
103.3731396978
 21
316.1077566515
  0
LINE
  8
0
 62
7
  6
CONTINUOUS
 10
106.3740039985
 20
313.6719091149
 11
103.7917656691
 21
311.2479790975
  0
LINE
  8
0
 62
7
  6
CONTINUOUS
 10
103.7729300126
 20
310.3548417118
 11
106.8108576635
 21
313.2065242771
  0
LINE
  8
0
 62
7
  6
CONTINUOUS
 10
88.8493893864
 20
300.7698220263
 11
88.4532134814
 21
300.4153773839
  0
LINE
  8
0
 62
7
  6
CONTINUOUS
 10
90.618831583
 20
299.5837106784
 11
90.2226571008
 21
299.2292679491
  0
LINE
  8
0
 62
7
  6
CONTINUOUS
 10
91.6340134039
 20
296.4920497864
 11
92.0301893163
 21
296.8464944233
  0
LINE
  8
0
 62
7
  6
CONTINUOUS
 10
105.0790366005
 20
318.3292757294
 11
104.6098134932
 21
317.9164141599
  0
LINE
  8
0
 62
7
  6
CONTINUOUS
 10
107.9127060492
 20
314.1626293014
 11
108.3819291565
 21
314.5754908709
  0
LINE
  8
0
 62
7
  6
CONTINUOUS
 10
137.6051240616
 20
337.5626816725
 11
137.8559294531
 21
337.7773214663
  0
LINE
  8
0
 62
7
  6
CONTINUOUS
 10
107.4210679956
 20
320.3112577387
 11
107.1000580757
 21
320.0456218641
  0
LINE
  8
0
 62
7
  6
CONTINUOUS
 10
107.3589137209
 20
319.5694092033
 11
107.8404304375
 21
319.9678645353
  0
LINE
  8
0
 62
7
  6
CONTINUOUS
 10
108.8893870075
 20
320.00737763
 11
109.2906521626
 21
320.3394247533
  0
LINE
  8
0
 62
7
  6
CONTINUOUS
 10
108.6542967405
 20
318.9843409165
 11
108.2530352591
 21
318.6522968332
  0
LINE
  8
0
 62
7
  6
CONTINUOUS
 10
108.5118909043
 20
318.1760841724
 11
109.0736628561
 21
318.640950753
  0
LINE
  8
0
 62
7
  6
CONTINUOUS
 10
110.4301065203
 20
317.0017449323
 11
109.8683345684
 21
316.5368783517
  0
LINE
  8
0
 62
7
  6
CONTINUOUS
 10
110.2877007315
 20
316.1934881308
 11
110.6889622129
 21
316.5255322141
  0
LINE
  8
0
 62
7
  6
CONTINUOUS
 10
90.7348413174
 20
298.8483592921
 11
91.0688545641
 21
299.1192176682
  0
LINE
  8
0
 62
7
  6
CONTINUOUS
 10
90.0278549663
 20
298.0759871441
 11
90.361868213
 21
298.3468455202
  0
LINE
  8
0
 62
7
  6
CONTINUOUS
 10
130.5261504064
 20
332.0372483316
 11
130.9432132251
 21
332.3668616771
  0
LINE
  8
0
 62
7
  6
CONTINUOUS
 10
95.4983000522
 20
308.8028449663
 11
95.0724845657
 21
308.4846193801
  0
LINE
  8
0
 62
7
  6
CONTINUOUS
 10
89.0275603563
 20
300.1180549932
 11
89.2994109446
 21
300.305327103
  0
LINE
  8
0
 62
7
  6
CONTINUOUS
 10
137.7555124036
 20
338.3099575142
 11
137.3112086844
 21
338.018091921
  0
LINE
  8
0
 62
7
  6
CONTINUOUS
 10
138.4258776394
 20
336.6302785337
 11
137.9815739203
 21
336.3384129405
  0
LINE
  8
0
 62
7
  6
CONTINUOUS
 10
140.0926031344
 20
333.8591967966
 11
140.5368979927
 21
334.1510588634
  0
LINE
  8
0
 62
7
  6
CONTINUOUS
 10
95.6184547538
 20
308.1379329363
 11
95.905723189
 21
308.3005688229
  0
LINE
  8
0
 62
7
  6
CONTINUOUS
 10
107.8901553268
 20
320.5613445796
 11
107.4210679956
 21
320.3112577387
  0
LINE
  8
0
 62
7
  6
CONTINUOUS
 10
109.1233840717
 20
319.2344277574
 11
108.6542967405
 21
318.9843409165
  0
LINE
  8
0
 62
7
  6
CONTINUOUS
 10
109.8186133944
 20
315.9434012971
 11
110.2877007315
 21
316.1934881308
  0
LINE
  8
0
 62
7
  6
CONTINUOUS
 10
129.2800806203
 20
334.5066268992
 11
127.048142274
 21
333.3803715026
  0
LINE
  8
0
 62
7
  6
CONTINUOUS
 10
127.8457556397
 20
333.1870549091
 11
129.6127054115
 21
334.0786730487
  0
LINE
  8
0
 62
7
  6
CONTINUOUS
 10
130.3315918834
 20
332.6540314548
 11
128.5646421117
 21
331.7624133153
  0
LINE
  8
0
 62
7
  6
CONTINUOUS
 10
128.8521966467
 20
331.1925567841
 11
130.5261504064
 21
332.0372483316
  0
LINE
  8
0
 62
7
  6
CONTINUOUS
 10
129.3006530671
 20
328.91649481
 11
129.8586376537
 21
329.1980586591
  0
LINE
  8
0
 62
7
  6
CONTINUOUS
 10
133.718188887
 20
336.6007272435
 11
132.9584032846
 21
336.2584219238
  0
LINE
  8
0
 62
7
  6
CONTINUOUS
 10
135.5477079653
 20
333.8078628916
 11
133.8381936205
 21
333.0376773913
  0
LINE
  8
0
 62
7
  6
CONTINUOUS
 10
133.9180115546
 20
332.6069131616
 11
135.8174733869
 21
333.4626754816
  0
LINE
  8
0
 62
7
  6
CONTINUOUS
 10
133.4926644282
 20
331.0151083236
 11
134.0625025432
 21
331.2718368237
  0
LINE
  8
0
 62
7
  6
CONTINUOUS
 10
136.7217499778
 20
332.4699044634
 11
137.2915880928
 21
332.7266329635
  0
LINE
  8
0
 62
7
  6
CONTINUOUS
 10
138.1424913442
 20
338.4644020431
 11
137.7555124036
 21
338.3099575142
  0
LINE
  8
0
 62
7
  6
CONTINUOUS
 10
137.8559294531
 20
337.7773214663
 11
138.4364067213
 21
338.0089917946
  0
LINE
  8
0
 62
7
  6
CONTINUOUS
 10
139.4469729159
 20
337.7250566096
 11
139.9307098777
 21
337.9181175732
  0
LINE
  8
0
 62
7
  6
CONTINUOUS
 10
138.9096057439
 20
336.8233359623
 11
138.4258776394
 21
336.6302785337
  0
LINE
  8
0
 62
7
  6
CONTINUOUS
 10
138.5262946889
 20
336.0976424858
 11
139.203521121
 21
336.3679257138
  0
LINE
  8
0
 62
7
  6
CONTINUOUS
 10
139.9921860573
 20
334.3918329136
 11
139.3149596252
 21
334.1215496856
  0
LINE
  8
0
 62
7
  6
CONTINUOUS
 10
139.60887503
 20
333.666139368
 11
140.0926031344
 21
333.8591967966
  0
LINE
  8
0
 62
7
  6
CONTINUOUS
 10
107.8404304375
 20
319.9678645353
 11
108.149010972
 21
320.0851319188
  0
LINE
  8
0
 62
7
  6
CONTINUOUS
 10
81.3653958039
 20
279.3368464568
 11
81.3590173644
 21
279.5706828785
  0
LINE
  8
0
 62
7
  6
CONTINUOUS
 10
87.9791178608
 20
299.5996219499
 11
87.9011981453
 21
299.1383111584
  0
LINE
  8
0
 62
7
  6
CONTINUOUS
 10
92.7529327172
 20
297.996591102
 11
92.8308538331
 21
298.4579038233
  0
LINE
  8
0
 62
7
  6
CONTINUOUS
 10
80.9812788907
 20
279.5199628675
 11
80.8980067013
 21
279.0980693808
  0
LINE
  8
0
 62
7
  6
CONTINUOUS
 10
81.2821235893
 20
278.914952982
 11
81.3653958039
 21
279.3368464568
  0
LINE
  8
0
 62
7
  6
CONTINUOUS
 10
97.3847335031
 20
307.4020012772
 11
97.4438295252
 21
307.6283360785
  0
LINE
  8
0
 62
7
  6
CONTINUOUS
 10
106.7666150967
 20
319.6316144583
 11
106.5688164698
 21
319.0536864878
  0
LINE
  8
0
 62
7
  6
CONTINUOUS
 10
92.1785872127
 20
298.2939154447
 11
92.0153020383
 21
297.8960875162
  0
LINE
  8
0
 62
7
  6
CONTINUOUS
 10
96.8591167367
 20
307.4516060374
 11
96.730747189
 21
307.1474763863
  0
LINE
  8
0
 62
7
  6
CONTINUOUS
 10
98.5275552224
 20
305.9659213611
 11
98.3991856747
 21
305.66179171
  0
LINE
  8
0
 62
7
  6
CONTINUOUS
 10
108.338954722
 20
317.894896224
 11
108.5118909043
 21
318.1760841724
  0
LINE
  8
0
 62
7
  6
CONTINUOUS
 10
110.6030427025
 20
317.2829328807
 11
110.4301065203
 21
317.0017449323
  0
LINE
  8
0
 62
7
  6
CONTINUOUS
 10
137.3112086844
 20
338.018091921
 11
136.945780308
 21
337.5286206035
  0
LINE
  8
0
 62
7
  6
CONTINUOUS
 10
80.8274913977
 20
278.2085031298
 11
81.1028220885
 21
278.5388384725
  0
LINE
  8
0
 62
7
  6
CONTINUOUS
 10
130.5626584209
 20
332.8897894679
 11
130.3315918834
 21
332.6540314548
  0
LINE
  8
0
 62
7
  6
CONTINUOUS
 10
80.46273453
 20
284.6284442438
 11
80.2238768053
 21
284.400583381
  0
LINE
  8
0
 62
7
  6
CONTINUOUS
 10
138.2754892975
 20
335.883002692
 11
138.5262946889
 21
336.0976424858
  0
LINE
  8
0
 62
7
  6
CONTINUOUS
 10
140.2429914488
 20
334.6064727074
 11
139.9921860573
 21
334.3918329136
  0
LINE
  8
0
 62
7
  6
CONTINUOUS
 10
91.51800504
 20
297.2274031248
 11
91.1839917933
 21
296.9565447487
  0
LINE
  8
0
 62
7
  6
CONTINUOUS
 10
80.7187052005
 20
278.7219548712
 11
80.3473452709
 21
278.4373986362
  0
LINE
  8
0
 62
7
  6
CONTINUOUS
 10
80.6954770429
 20
284.1545618321
 11
80.88615545
 21
284.2900674612
  0
LINE
  8
0
 62
7
  6
CONTINUOUS
 10
89.8496839964
 20
298.7277541772
 11
89.5778334081
 21
298.5404820675
  0
LINE
  8
0
 62
7
  6
CONTINUOUS
 10
97.2074438515
 20
306.7229950927
 11
97.4947122867
 21
306.8856309793
  0
LINE
  8
0
 62
7
  6
CONTINUOUS
 10
91.0382088658
 20
299.7910842784
 11
90.618831583
 21
299.5837106784
  0
LINE
  8
0
 62
7
  6
CONTINUOUS
 10
89.6084791064
 20
297.8686154573
 11
90.0278549663
 21
298.0759871441
  0
LINE
  8
0
 62
7
  6
CONTINUOUS
 10
97.6027284127
 20
307.486842314
 11
97.3847335031
 21
307.4020012772
  0
LINE
  8
0
 62
7
  6
CONTINUOUS
 10
109.0736628561
 20
318.640950753
 11
109.3822433906
 21
318.7582181366
  0
LINE
  8
0
 62
7
  6
CONTINUOUS
 10
109.8683345684
 20
316.5368783517
 11
109.559754034
 21
316.4196109681
  0
LINE
  8
0
 62
7
  6
CONTINUOUS
 10
88.5377062557
 20
298.924573121
 11
88.5534647358
 21
299.3022995593
  0
LINE
  8
0
 62
7
  6
CONTINUOUS
 10
92.1943456329
 20
298.6716419274
 11
92.1785872127
 21
298.2939154447
  0
LINE
  8
0
 62
7
  6
CONTINUOUS
 10
99.0735254593
 20
305.619234874
 11
99.1122680387
 21
306.1426513774
  0
LINE
  8
0
 62
7
  6
CONTINUOUS
 10
107.0808635325
 20
318.925073024
 11
107.1859775386
 21
319.2882212549
  0
LINE
  8
0
 62
7
  6
CONTINUOUS
 10
107.9195922801
 20
318.2382894275
 11
107.7093642677
 21
317.5119929658
  0
LINE
  8
0
 62
7
  6
CONTINUOUS
 10
108.2338407158
 20
317.5317479932
 11
108.338954722
 21
317.894896224
  0
LINE
  8
0
 62
7
  6
CONTINUOUS
 10
110.7081567087
 20
317.6460811116
 11
110.6030427025
 21
317.2829328807
  0
LINE
  8
0
 62
7
  6
CONTINUOUS
 10
111.022405186
 20
316.939539627
 11
111.2202037951
 21
317.5174676191
  0
LINE
  8
0
 62
7
  6
CONTINUOUS
 10
130.9432132251
 20
332.3668616771
 11
131.1714242629
 21
332.8394984594
  0
LINE
  8
0
 62
7
  6
CONTINUOUS
 10
137.3937519128
 20
337.2492372491
 11
137.6051240616
 21
337.5626816725
  0
LINE
  8
0
 62
7
  6
CONTINUOUS
 10
137.9815739203
 20
336.3384129405
 11
137.5588296227
 21
335.7115240936
  0
LINE
  8
0
 62
7
  6
CONTINUOUS
 10
138.0641171487
 20
335.5695582686
 11
138.2754892975
 21
335.883002692
  0
LINE
  8
0
 62
7
  6
CONTINUOUS
 10
140.4543635976
 20
334.9199171308
 11
140.2429914488
 21
334.6064727074
  0
LINE
  8
0
 62
7
  6
CONTINUOUS
 10
140.5368979927
 20
334.1510588634
 11
140.9023352162
 21
334.6405337419
  0
LINE
  8
0
 62
7
  6
CONTINUOUS
 10
80.5009568197
 20
278.017975451
 11
80.8274913977
 21
278.2085031298
  0
LINE
  8
0
 62
7
  6
CONTINUOUS
 10
80.7959123023
 20
284.8071007968
 11
80.46273453
 21
284.6284442438
  0
LINE
  8
0
 62
7
  6
CONTINUOUS
 10
91.0671108271
 20
296.2645766261
 11
91.6340134039
 21
296.4920497864
  0
LINE
  8
0
 62
7
  6
CONTINUOUS
 10
91.0688545641
 20
299.1192176682
 11
91.4260691885
 21
299.2430050018
  0
LINE
  8
0
 62
7
  6
CONTINUOUS
 10
89.5778334081
 20
298.5404820675
 11
89.2206187837
 21
298.4166947338
  0
LINE
  8
0
 62
7
  6
CONTINUOUS
 10
89.3541292824
 20
300.913708937
 11
88.8493893864
 21
300.7698220263
  0
LINE
  8
0
 62
7
  6
CONTINUOUS
 10
80.9236965731
 20
279.8936069074
 11
80.9812788907
 21
279.5199628675
  0
LINE
  8
0
 62
7
  6
CONTINUOUS
 10
79.9327628632
 20
283.6125382586
 11
79.9768654188
 21
283.2370647307
  0
LINE
  8
0
 62
7
  6
CONTINUOUS
 10
80.3541456089
 20
283.0402474916
 11
80.3100430532
 21
283.4157210195
  0
LINE
  8
0
 62
7
  6
CONTINUOUS
 10
96.8387633149
 20
307.748687721
 11
96.8591167367
 21
307.4516060374
  0
LINE
  8
0
 62
7
  6
CONTINUOUS
 10
98.5072017451
 20
306.2630030943
 11
98.5275552224
 21
305.9659213611
  0
LINE
  8
0
 62
7
  6
CONTINUOUS
 10
104.6098134932
 20
317.9164141599
 11
104.6325104952
 21
316.9444783164
  0
LINE
  8
0
 62
7
  6
CONTINUOUS
 10
105.1947051026
 20
316.3055360652
 11
105.1720079038
 21
317.2774721325
  0
LINE
  8
0
 62
7
  6
CONTINUOUS
 10
103.7917656691
 20
311.2479790975
 11
103.8984998293
 21
316.3090899348
  0
LINE
  8
0
 62
7
  6
CONTINUOUS
 10
103.3731396978
 20
316.1077566515
 11
103.1904584763
 21
310.9753548107
  0
LINE
  8
0
 62
7
  6
CONTINUOUS
 10
108.2089819449
 20
317.235011011
 11
108.2338407158
 21
317.5317479932
  0
LINE
  8
0
 62
7
  6
CONTINUOUS
 10
130.6528031904
 20
333.1735969774
 11
130.5626584209
 21
332.8897894679
  0
LINE
  8
0
 62
7
  6
CONTINUOUS
 10
137.9494941637
 20
335.2947267449
 11
138.0641171487
 21
335.5695582686
  0
LINE
  8
0
 62
7
  6
CONTINUOUS
 10
80.0783930438
 20
277.8732269223
 11
80.5009568197
 21
278.017975451
  0
LINE
  8
0
 62
7
  6
CONTINUOUS
 10
81.0809107569
 20
284.8934021162
 11
80.7959123023
 21
284.8071007968
  0
LINE
  8
0
 62
7
  6
CONTINUOUS
 10
80.88615545
 20
284.2900674612
 11
81.1711539046
 21
284.3763687806
  0
LINE
  8
0
 62
7
  6
CONTINUOUS
 10
81.3590173644
 20
279.5706828785
 11
81.2054057186
 21
279.9901059036
  0
LINE
  8
0
 62
7
  6
CONTINUOUS
 10
79.9768654188
 20
283.2370647307
 11
80.0691470164
 21
282.953945908
  0
LINE
  8
0
 62
7
  6
CONTINUOUS
 10
80.4464272065
 20
282.7571286689
 11
80.3541456089
 21
283.0402474916
  0
LINE
  8
0
 62
7
  6
CONTINUOUS
 10
87.9011981453
 20
299.1383111584
 11
87.9940050791
 21
298.5500289015
  0
LINE
  8
0
 62
7
  6
CONTINUOUS
 10
92.8308538331
 20
298.4579038233
 11
92.7380468694
 21
299.0461861025
  0
LINE
  8
0
 62
7
  6
CONTINUOUS
 10
106.5688164698
 20
319.0536864878
 11
106.5993468158
 21
318.5266176921
  0
LINE
  8
0
 62
7
  6
CONTINUOUS
 10
111.2202037951
 20
317.5174676191
 11
111.1896734253
 21
318.0445364435
  0
LINE
  8
0
 62
7
  6
CONTINUOUS
 10
131.1714242629
 20
332.8394984594
 11
131.2587135328
 21
333.360184738
  0
LINE
  8
0
 62
7
  6
CONTINUOUS
 10
137.3185621705
 20
336.8756010958
 11
137.3937519128
 21
337.2492372491
  0
LINE
  8
0
 62
7
  6
CONTINUOUS
 10
140.5295533122
 20
335.2935533534
 11
140.4543635976
 21
334.9199171308
  0
LINE
  8
0
 62
7
  6
CONTINUOUS
 10
136.945780308
 20
337.5286206035
 11
136.8132746445
 21
337.0175669208
  0
LINE
  8
0
 62
7
  6
CONTINUOUS
 10
140.9023352162
 20
334.6405337419
 11
141.0348408658
 21
335.1515874591
  0
LINE
  8
0
 62
7
  6
CONTINUOUS
 10
80.7252595834
 20
280.219001414
 11
80.9236965731
 21
279.8936069074
  0
LINE
  8
0
 62
7
  6
CONTINUOUS
 10
92.0625774185
 20
299.0292668755
 11
92.1943456329
 21
298.6716419274
  0
LINE
  8
0
 62
7
  6
CONTINUOUS
 10
97.4438295252
 20
307.6283360785
 11
97.3338507416
 21
308.1447063765
  0
LINE
  8
0
 62
7
  6
CONTINUOUS
 10
99.1122680387
 20
306.1426513774
 11
99.0022892273
 21
306.6590217001
  0
LINE
  8
0
 62
7
  6
CONTINUOUS
 10
107.1238269376
 20
318.5463757594
 11
107.0808635325
 21
318.925073024
  0
LINE
  8
0
 62
7
  6
CONTINUOUS
 10
110.665193256
 20
318.0247784336
 11
110.7081567087
 21
317.6460811116
  0
LINE
  8
0
 62
7
  6
CONTINUOUS
 10
92.7380468694
 20
299.0461861025
 11
92.5209145591
 21
299.4672958712
  0
LINE
  8
0
 62
7
  6
CONTINUOUS
 10
133.8381936205
 20
333.0376773913
 11
133.5130921111
 21
336.0416007225
  0
LINE
  8
0
 62
7
  6
CONTINUOUS
 10
134.0625025432
 20
331.2718368237
 11
133.9180115546
 21
332.6069131616
  0
LINE
  8
0
 62
7
  6
CONTINUOUS
 10
132.9584032846
 20
336.2584219238
 11
133.4926644282
 21
331.0151083236
  0
LINE
  8
0
 62
7
  6
CONTINUOUS
 10
137.3401128452
 20
336.5405740304
 11
137.3185621705
 21
336.8756010958
  0
LINE
  8
0
 62
7
  6
CONTINUOUS
 10
137.9710447831
 20
334.9596998179
 11
137.9494941637
 21
335.2947267449
  0
LINE
  8
0
 62
7
  6
CONTINUOUS
 10
136.8132746445
 20
337.0175669208
 11
136.8169514981
 21
336.4463212314
  0
LINE
  8
0
 62
7
  6
CONTINUOUS
 10
141.0348408658
 20
335.1515874591
 11
141.0311640952
 21
335.7228329409
  0
LINE
  8
0
 62
7
  6
CONTINUOUS
 10
88.7316359448
 20
298.6505323483
 11
88.5377062557
 21
298.924573121
  0
LINE
  8
0
 62
7
  6
CONTINUOUS
 10
107.2470384206
 20
318.2340834339
 11
107.1238269376
 21
318.5463757594
  0
LINE
  8
0
 62
7
  6
CONTINUOUS
 10
108.3321933329
 20
316.9227188002
 11
108.2089819449
 21
317.235011011
  0
LINE
  8
0
 62
7
  6
CONTINUOUS
 10
106.5993468158
 20
318.5266176921
 11
106.7779547631
 21
317.983999633
  0
LINE
  8
0
 62
7
  6
CONTINUOUS
 10
111.1896734253
 20
318.0445364435
 11
111.0110656205
 21
318.5871543304
  0
LINE
  8
0
 62
7
  6
CONTINUOUS
 10
140.5080027481
 20
335.628580142
 11
140.5295533122
 21
335.2935533534
  0
LINE
  8
0
 62
7
  6
CONTINUOUS
 10
87.9940050791
 20
298.5500289015
 11
88.2732985652
 21
298.2125035305
  0
LINE
  8
0
 62
7
  6
CONTINUOUS
 10
96.6696885093
 20
308.0387232176
 11
96.8387633149
 21
307.748687721
  0
LINE
  8
0
 62
7
  6
CONTINUOUS
 10
97.3338507416
 20
308.1447063765
 11
97.164775936
 21
308.4347418731
  0
LINE
  8
0
 62
7
  6
CONTINUOUS
 10
98.3381269395
 20
306.5530385909
 11
98.5072017451
 21
306.2630030943
  0
LINE
  8
0
 62
7
  6
CONTINUOUS
 10
99.0022892273
 20
306.6590217001
 11
98.8332143661
 21
306.9490572463
  0
LINE
  8
0
 62
7
  6
CONTINUOUS
 10
110.541981963
 20
318.3370705295
 11
110.665193256
 21
318.0247784336
  0
LINE
  8
0
 62
7
  6
CONTINUOUS
 10
130.602021935
 20
333.5054518351
 11
130.6528031904
 21
333.1735969774
  0
LINE
  8
0
 62
7
  6
CONTINUOUS
 10
131.2587135328
 20
333.360184738
 11
131.2079322774
 21
333.6920395957
  0
LINE
  8
0
 62
7
  6
CONTINUOUS
 10
171.2783979797
 20
104.597342183
 11
171.1067663273
 21
107.8722692034
  0
LINE
  8
0
 62
7
  6
CONTINUOUS
 10
171.1067663273
 20
355.2864556289
 11
171.2783979797
 21
358.5613826493
  0
LINE
  8
0
 62
7
  6
CONTINUOUS
 10
123.3922464952
 20
117.8214421653
 11
124.4869398373
 21
120.9127607997
  0
LINE
  8
0
 62
7
  6
CONTINUOUS
 10
219.1682499144
 20
349.4936636912
 11
220.5800771982
 21
352.453621146
  0
LINE
  8
0
 62
7
  6
CONTINUOUS
 10
84.2118552191
 20
148.3641542876
 11
86.4062164178
 21
150.801239297
  0
LINE
  8
DEFAULT_3
 62
2
  6
PHANTOM
 10
162.5289714635
 20
244.079004545
 11
168.076700153
 21
249.6267332345
  0
LINE
  8
DEFAULT_3
 62
2
  6
PHANTOM
 10
176.4440375994
 20
255.7313289811
 11
172.2013969123
 21
251.488688294
  0
LINE
  8
DEFAULT_3
 62
2
  6
PHANTOM
 10
156.4243757169
 20
235.7116670986
 11
160.667016404
 21
239.9543077857
  0
LINE
  8
0
 62
7
  6
CONTINUOUS
 10
261.354465401
 20
325.7494882802
 11
263.7915504104
 21
327.9438494789
  0
LINE
  8
0
 62
7
  6
CONTINUOUS
 10
59.702083552
 20
191.5756274998
 11
62.6620410068
 21
192.9874547836
  0
LINE
  8
0
 62
7
  6
CONTINUOUS
 10
291.2429438983
 20
287.6687648607
 11
294.3342625328
 21
288.7634582028
  0
LINE
  8
0
 62
7
  6
CONTINUOUS
 10
307.558362515
 20
222.281418114
 11
304.2834354946
 21
222.1097864615
  0
LINE
  8
0
 62
7
  6
CONTINUOUS
 10
56.8692490691
 20
222.1097864615
 11
53.5943220487
 21
222.281418114
  0
LINE
  8
0
 62
7
  6
CONTINUOUS
 10
294.3342625328
 20
174.3952666295
 11
291.2429438983
 21
175.4899599716
  0
LINE
  8
0
 62
7
  6
CONTINUOUS
 10
62.6620410068
 20
270.1712700487
 11
59.702083552
 21
271.5830973324
  0
LINE
  8
0
 62
7
  6
CONTINUOUS
 10
263.7915504104
 20
135.2148753534
 11
261.354465401
 21
137.4092365521
  0
LINE
  8
DEFAULT_3
 62
2
  6
PHANTOM
 10
162.5289714635
 20
219.0797202872
 11
168.076700153
 21
213.5319915978
  0
LINE
  8
DEFAULT_3
 62
2
  6
PHANTOM
 10
172.2013969123
 20
211.6700365383
 11
176.4440375994
 21
207.4273958511
  0
LINE
  8
DEFAULT_3
 62
2
  6
PHANTOM
 10
160.667016404
 20
223.2044170466
 11
156.4243757169
 21
227.4470577337
  0
LINE
  8
0
 62
7
  6
CONTINUOUS
 10
86.4062164178
 20
312.3574855353
 11
84.2118552191
 21
314.7945705446
  0
LINE
  8
0
 62
7
  6
CONTINUOUS
 10
106.7779547631
 20
317.983999633
 11
107.1724547604
 21
317.3438664073
  0
LINE
  8
0
 62
7
  6
CONTINUOUS
 10
107.5737199156
 20
317.6759135306
 11
107.2470384206
 21
318.2340834339
  0
LINE
  8
0
 62
7
  6
CONTINUOUS
 10
220.5800771982
 20
110.7051036863
 11
219.1682499144
 21
113.6650611411
  0
LINE
  8
0
 62
7
  6
CONTINUOUS
 10
124.4869398373
 20
342.2459640325
 11
123.3922464952
 21
345.337282667
  0
LINE
  8
0
 62
7
  6
CONTINUOUS
 10
136.8169514981
 20
336.4463212314
 11
136.9962350329
 21
335.7160759243
  0
LINE
  8
0
 62
7
  6
CONTINUOUS
 10
137.4799631373
 20
335.9091333529
 11
137.3401128452
 21
336.5405740304
  0
LINE
  8
AXES
 62
2
  6
CONTINUOUS
 10
180.5763422819
 20
233.0643624161
 11
180.5763422819
 21
230.0943624161
  0
LINE
  8
AXES
 62
2
  6
CENTER
 10
180.5763422819
 20
224.1543624161
 11
180.5763422819
 21
100.9363624161
  0
LINE
  8
AXES
 62
2
  6
CENTER
 10
180.5763422819
 20
239.0043624161
 11
180.5763422819
 21
362.2223624161
  0
LINE
  8
AXES
 62
2
  6
CONTINUOUS
 10
182.0613422819
 20
231.5793624161
 11
179.0913422819
 21
231.5793624161
  0
LINE
  8
AXES
 62
2
  6
CENTER
 10
173.1513422819
 20
231.5793624161
 11
49.9333422819
 21
231.5793624161
  0
LINE
  8
AXES
 62
2
  6
CENTER
 10
188.0013422819
 20
231.5793624161
 11
311.2193422819
 21
231.5793624161
  0
LINE
  8
0
 62
7
  6
CONTINUOUS
 10
77.4919825462
 20
278.8754262679
 11
79.4125669526
 21
277.9598442904
  0
LINE
  8
0
 62
7
  6
CONTINUOUS
 10
79.6366937965
 20
278.4299873601
 11
77.7161093901
 21
279.3455693376
  0
LINE
  8
0
 62
7
  6
CONTINUOUS
 10
78.6126167498
 20
281.2261415829
 11
80.7252595834
 21
280.219001414
  0
LINE
  8
0
 62
7
  6
CONTINUOUS
 10
81.333503397
 20
280.5060281699
 11
78.8367436418
 21
281.6962847535
  0
LINE
  8
0
 62
7
  6
CONTINUOUS
 10
79.3566506042
 20
282.7381920811
 11
82.3748923889
 21
281.1636540304
  0
LINE
  8
0
 62
7
  6
CONTINUOUS
 10
82.6157885635
 20
281.6254294061
 11
80.4464272065
 21
282.7571286689
  0
LINE
  8
0
 62
7
  6
CONTINUOUS
 10
80.0691470164
 20
282.953945908
 11
79.5975467789
 21
283.1999674569
  0
LINE
  8
0
 62
7
  6
CONTINUOUS
 10
81.6909334598
 20
284.2227024654
 11
83.4830146268
 21
283.2878204418
  0
LINE
  8
0
 62
7
  6
CONTINUOUS
 10
83.7239106635
 20
283.7495955533
 11
81.9318294966
 21
284.6844775769
  0
LINE
  8
0
 62
7
  6
CONTINUOUS
 10
79.7519614949
 20
286.8922185684
 11
80.217727438
 21
286.6353227279
  0
LINE
  8
0
 62
7
  6
CONTINUOUS
 10
81.1492595851
 20
286.121530903
 11
84.1301618818
 21
284.4773973799
  0
LINE
  8
0
 62
7
  6
CONTINUOUS
 10
84.3817056597
 20
284.9334597462
 11
81.400803363
 21
286.5775932693
  0
LINE
  8
0
 62
7
  6
CONTINUOUS
 10
80.4692712159
 20
287.0913850942
 11
80.0035052728
 21
287.3482809347
  0
LINE
  8
0
 62
7
  6
CONTINUOUS
 10
83.1398743095
 20
292.691147974
 11
87.3318069244
 21
289.9657670919
  0
LINE
  8
0
 62
7
  6
CONTINUOUS
 10
87.1373392021
 20
290.8376796315
 11
83.4805469198
 21
293.2151395508
  0
LINE
  8
0
 62
7
  6
CONTINUOUS
 10
87.9350574017
 20
295.1295292153
 11
88.3715008408
 21
294.8254721984
  0
LINE
  8
0
 62
7
  6
CONTINUOUS
 10
89.2051239218
 20
296.022054761
 11
88.7686804827
 21
296.3261117779
  0
LINE
  8
0
 62
7
  6
CONTINUOUS
 10
88.2732985652
 20
298.2125035305
 11
88.6147549487
 21
297.958564248
  0
LINE
  8
0
 62
7
  6
CONTINUOUS
 10
88.902364017
 20
298.523562796
 11
88.7316359448
 21
298.6505323483
  0
LINE
  8
0
 62
7
  6
CONTINUOUS
 10
91.8064853102
 20
299.219721204
 11
92.0625774185
 21
299.0292668755
  0
LINE
  8
0
 62
7
  6
CONTINUOUS
 10
90.0925838565
 20
302.5866137406
 11
93.9694591203
 21
299.429108683
  0
LINE
  8
0
 62
7
  6
CONTINUOUS
 10
94.3641472525
 20
299.913718091
 11
90.9821921762
 21
302.6681374446
  0
LINE
  8
0
 62
7
  6
CONTINUOUS
 10
92.3291504409
 20
305.3327343354
 11
95.6286187616
 21
302.6454959794
  0
LINE
  8
0
 62
7
  6
CONTINUOUS
 10
93.4099326341
 20
306.6175572293
 11
97.1440569357
 21
303.2924533662
  0
LINE
  8
0
 62
7
  6
CONTINUOUS
 10
97.0829982004
 20
304.1837002471
 11
95.8912563772
 21
305.2449036298
  0
LINE
  8
0
 62
7
  6
CONTINUOUS
 10
95.4145597147
 20
305.6693849234
 11
94.3022672795
 21
306.6598414734
  0
LINE
  8
0
 62
7
  6
CONTINUOUS
 10
96.5107896218
 20
308.1802169822
 11
96.6696885093
 21
308.0387232176
  0
LINE
  8
0
 62
7
  6
CONTINUOUS
 10
98.0997786082
 20
306.7652792377
 11
98.3381269395
 21
306.5530385909
  0
LINE
  8
0
 62
7
  6
CONTINUOUS
 10
100.3509096288
 20
314.0003562835
 11
100.714954307
 21
313.6125356306
  0
LINE
  8
0
 62
7
  6
CONTINUOUS
 10
103.1904584763
 20
310.9753548107
 11
103.7729300126
 21
310.3548417118
  0
LINE
  8
0
 62
7
  6
CONTINUOUS
 10
104.6325104952
 20
316.9444783164
 11
105.1947051026
 21
316.3055360652
  0
LINE
  8
0
 62
7
  6
CONTINUOUS
 10
105.1720079038
 20
317.2774721325
 11
107.9127060492
 21
314.1626293014
  0
LINE
  8
0
 62
7
  6
CONTINUOUS
 10
108.3819291565
 20
314.5754908709
 11
105.0790366005
 21
318.3292757294
  0
LINE
  8
0
 62
7
  6
CONTINUOUS
 10
107.1724547604
 20
317.3438664073
 11
107.647209993
 21
316.7701444304
  0
LINE
  8
0
 62
7
  6
CONTINUOUS
 10
107.7093642677
 20
317.5119929658
 11
107.5737199156
 21
317.6759135306
  0
LINE
  8
0
 62
7
  6
CONTINUOUS
 10
108.5356598612
 20
316.676837953
 11
108.3321933329
 21
316.9227188002
  0
LINE
  8
0
 62
7
  6
CONTINUOUS
 10
110.3385154348
 20
318.5829513768
 11
110.541981963
 21
318.3370705295
  0
LINE
  8
0
 62
7
  6
CONTINUOUS
 10
127.048142274
 20
333.3803715026
 11
129.3006530671
 21
328.91649481
  0
LINE
  8
0
 62
7
  6
CONTINUOUS
 10
129.8586376537
 20
329.1980586591
 11
128.8521966467
 21
331.1925567841
  0
LINE
  8
0
 62
7
  6
CONTINUOUS
 10
128.5646421117
 20
331.7624133153
 11
127.8457556397
 21
333.1870549091
  0
LINE
  8
0
 62
7
  6
CONTINUOUS
 10
130.4582445332
 20
333.7903803667
 11
130.602021935
 21
333.5054518351
  0
LINE
  8
0
 62
7
  6
CONTINUOUS
 10
136.9962350329
 20
335.7160759243
 11
137.2722677316
 21
335.0244435169
  0
LINE
  8
0
 62
7
  6
CONTINUOUS
 10
137.5588296227
 20
335.7115240936
 11
137.4799631373
 21
335.9091333529
  0
LINE
  8
0
 62
7
  6
CONTINUOUS
 10
138.0893445111
 20
334.663285929
 11
137.9710447831
 21
334.9596998179
  0
LINE
  8
0
 62
7
  6
CONTINUOUS
 10
140.38970302
 20
335.9249940309
 11
140.5080027481
 21
335.628580142
  0
LINE
  8
0
 62
7
  6
CONTINUOUS
 10
89.3758425859
 20
293.109716553
 11
88.8407022535
 21
293.4576375158
  0
LINE
  8
0
 62
7
  6
CONTINUOUS
 10
92.5209145591
 20
299.4672958712
 11
92.0940943786
 21
299.784719752
  0
LINE
  8
0
 62
7
  6
CONTINUOUS
 10
96.6007138369
 20
302.6598386857
 11
92.7238385731
 21
305.8173437433
  0
LINE
  8
0
 62
7
  6
CONTINUOUS
 10
98.8332143661
 20
306.9490572463
 11
98.4359671473
 21
307.3027916577
  0
LINE
  8
0
 62
7
  6
CONTINUOUS
 10
97.164775936
 20
308.4347418731
 11
96.8469779384
 21
308.7177296003
  0
LINE
  8
0
 62
7
  6
CONTINUOUS
 10
107.647209993
 20
316.7701444304
 11
108.2022205558
 21
316.2628335872
  0
LINE
  8
0
 62
7
  6
CONTINUOUS
 10
106.8108576635
 20
313.2065242771
 11
106.3740039985
 21
313.6719091149
  0
LINE
  8
0
 62
7
  6
CONTINUOUS
 10
103.8984998293
 20
316.3090899348
 11
103.3888372797
 21
316.8520388489
  0
LINE
  8
0
 62
7
  6
CONTINUOUS
 10
111.0110656205
 20
318.5871543304
 11
110.6719546451
 21
318.9969558573
  0
LINE
  8
0
 62
7
  6
CONTINUOUS
 10
137.2722677316
 20
335.0244435169
 11
137.6450496494
 21
334.3714238708
  0
LINE
  8
0
 62
7
  6
CONTINUOUS
 10
131.2079322774
 20
333.6920395957
 11
131.0162291198
 21
334.0719442159
  0
LINE
  8
0
 62
7
  6
CONTINUOUS
 10
141.0311640952
 20
335.7228329409
 11
140.8339978266
 21
336.2168562275
  0
LINE
  8
0
 62
7
  6
CONTINUOUS
 10
189.874286584
 20
358.5613826493
 11
190.0459182365
 21
355.2864556289
  0
LINE
  8
0
 62
7
  6
CONTINUOUS
 10
190.0459182365
 20
107.8722692034
 11
189.874286584
 21
104.597342183
  0
LINE
  8
0
 62
7
  6
CONTINUOUS
 10
237.7604380685
 20
345.337282667
 11
236.6657447264
 21
342.2459640325
  0
LINE
  8
0
 62
7
  6
CONTINUOUS
 10
141.9844346493
 20
113.6650611411
 11
140.5726073656
 21
110.7051036863
  0
LINE
  8
0
 62
7
  6
CONTINUOUS
 10
276.9408293447
 20
314.7945705446
 11
274.7464681459
 21
312.3574855353
  0
LINE
  8
DEFAULT_3
 62
2
  6
PHANTOM
 10
204.7283088469
 20
227.4470577337
 11
200.4856681598
 21
223.2044170466
  0
LINE
  8
DEFAULT_3
 62
2
  6
PHANTOM
 10
184.7086469643
 20
207.4273958511
 11
188.9512876515
 21
211.6700365383
  0
LINE
  8
DEFAULT_3
 62
2
  6
PHANTOM
 10
193.0759844108
 20
213.5319915978
 11
198.6237131002
 21
219.0797202872
  0
LINE
  8
0
 62
7
  6
CONTINUOUS
 10
99.7982191627
 20
137.4092365521
 11
97.3611341534
 21
135.2148753534
  0
LINE
  8
0
 62
7
  6
CONTINUOUS
 10
301.4506010117
 20
271.5830973324
 11
298.490643557
 21
270.1712700487
  0
LINE
  8
0
 62
7
  6
CONTINUOUS
 10
69.9097406655
 20
175.4899599716
 11
66.818422031
 21
174.3952666295
  0
LINE
  8
0
 62
7
  6
CONTINUOUS
 10
53.5943220487
 20
240.8773067183
 11
56.8692490691
 21
241.0489383707
  0
LINE
  8
0
 62
7
  6
CONTINUOUS
 10
304.2834354946
 20
241.0489383707
 11
307.558362515
 21
240.8773067183
  0
LINE
  8
0
 62
7
  6
CONTINUOUS
 10
79.4125669526
 20
277.9598442904
 11
79.8415092454
 21
277.8707564946
  0
LINE
  8
0
 62
7
  6
CONTINUOUS
 10
81.1711539046
 20
284.3763687806
 11
81.6909334598
 21
284.2227024654
  0
LINE
  8
0
 62
7
  6
CONTINUOUS
 10
81.9318294966
 20
284.6844775769
 11
81.412050217
 21
284.8381444206
  0
LINE
  8
0
 62
7
  6
CONTINUOUS
 10
66.818422031
 20
288.7634582028
 11
69.9097406655
 21
287.6687648607
  0
LINE
  8
0
 62
7
  6
CONTINUOUS
 10
90.050185202
 20
296.501596526
 11
90.4538040047
 21
296.3312436877
  0
LINE
  8
0
 62
7
  6
CONTINUOUS
 10
88.6147549487
 20
297.958564248
 11
89.0183737514
 21
297.7882114097
  0
LINE
  8
0
 62
7
  6
CONTINUOUS
 10
298.490643557
 20
192.9874547836
 11
301.4506010117
 21
191.5756274998
  0
LINE
  8
0
 62
7
  6
CONTINUOUS
 10
97.3611341534
 20
327.9438494789
 11
99.7982191627
 21
325.7494882802
  0
LINE
  8
DEFAULT_3
 62
2
  6
PHANTOM
 10
200.4856681598
 20
239.9543077857
 11
204.7283088469
 21
235.7116670986
  0
LINE
  8
DEFAULT_3
 62
2
  6
PHANTOM
 10
188.9512876515
 20
251.488688294
 11
184.7086469643
 21
255.7313289811
  0
LINE
  8
DEFAULT_3
 62
2
  6
PHANTOM
 10
193.0759844108
 20
249.6267332345
 11
198.6237131002
 21
244.079004545
  0
LINE
  8
0
 62
7
  6
CONTINUOUS
 10
274.7464681459
 20
150.801239297
 11
276.9408293447
 21
148.3641542876
  0
LINE
  8
0
 62
7
  6
CONTINUOUS
 10
140.5726073656
 20
352.453621146
 11
141.9844346493
 21
349.4936636912
  0
LINE
  8
0
 62
7
  6
CONTINUOUS
 10
236.6657447264
 20
120.9127607997
 11
237.7604380685
 21
117.8214421653
  0
LINE
  8
0
 62
7
  6
CONTINUOUS
 10
79.9696068125
 20
278.3866787005
 11
79.6366937965
 21
278.4299873601
  0
LINE
  8
0
 62
7
  6
CONTINUOUS
 10
81.412050217
 20
284.8381444206
 11
81.0809107569
 21
284.8934021162
  0
LINE
  8
0
 62
7
  6
CONTINUOUS
 10
81.762445629
 20
280.4169402897
 11
81.333503397
 21
280.5060281699
  0
LINE
  8
0
 62
7
  6
CONTINUOUS
 10
90.741413073
 20
296.8962422357
 11
90.4231583064
 21
297.0031102978
  0
LINE
  8
0
 62
7
  6
CONTINUOUS
 10
89.2206187837
 20
298.4166947338
 11
88.902364017
 21
298.523562796
  0
LINE
  8
0
 62
7
  6
CONTINUOUS
 10
90.2003267457
 20
300.8036586562
 11
89.882071979
 21
300.9105267183
  0
LINE
  8
0
 62
7
  6
CONTINUOUS
 10
97.79215664
 20
306.8997251338
 11
98.0997786082
 21
306.7652792377
  0
LINE
  8
0
 62
7
  6
CONTINUOUS
 10
98.4359671473
 20
307.3027916577
 11
98.1283451791
 21
307.4372375538
  0
LINE
  8
0
 62
7
  6
CONTINUOUS
 10
96.2031675423
 20
308.3146629774
 11
96.5107896218
 21
308.1802169822
  0
LINE
  8
0
 62
7
  6
CONTINUOUS
 10
96.8469779384
 20
308.7177296003
 11
96.5393560815
 21
308.8521753974
  0
LINE
  8
0
 62
7
  6
CONTINUOUS
 10
108.8193816246
 20
316.4973683543
 11
108.5356598612
 21
316.676837953
  0
LINE
  8
0
 62
7
  6
CONTINUOUS
 10
110.0547935763
 20
318.7624210902
 11
110.3385154348
 21
318.5829513768
  0
LINE
  8
0
 62
7
  6
CONTINUOUS
 10
109.2906521626
 20
320.3394247533
 11
109.0069303991
 21
320.5188943519
  0
LINE
  8
0
 62
7
  6
CONTINUOUS
 10
130.2214712536
 20
334.0283820401
 11
130.4582445332
 21
333.7903803667
  0
LINE
  8
0
 62
7
  6
CONTINUOUS
 10
131.0162291198
 20
334.0719442159
 11
130.7794558402
 21
334.3099458893
  0
LINE
  8
0
 62
7
  6
CONTINUOUS
 10
137.2915880928
 20
332.7266329635
 11
133.718188887
 21
336.6007272435
  0
LINE
  8
0
 62
7
  6
CONTINUOUS
 10
135.8174733869
 20
333.4626754816
 11
136.7217499778
 21
332.4699044634
  0
LINE
  8
0
 62
7
  6
CONTINUOUS
 10
133.5130921111
 20
336.0416007225
 11
135.5477079653
 21
333.8078628916
  0
LINE
  8
0
 62
7
  6
CONTINUOUS
 10
138.304393403
 20
334.4054849399
 11
138.0893445111
 21
334.663285929
  0
LINE
  8
0
 62
7
  6
CONTINUOUS
 10
140.174654073
 20
336.1827951584
 11
140.38970302
 21
335.9249940309
  0
LINE
  8
0
 62
7
  6
CONTINUOUS
 10
139.9307098777
 20
337.9181175732
 11
139.7156609859
 21
338.1759185623
  0
LINE
  8
0
 62
7
  6
CONTINUOUS
 10
79.8415092454
 20
277.8707564946
 11
80.0783930438
 21
277.8732269223
  0
LINE
  8
0
 62
7
  6
CONTINUOUS
 10
81.9993295283
 20
280.4194108859
 11
81.762445629
 21
280.4169402897
  0
LINE
  8
0
 62
7
  6
CONTINUOUS
 10
81.2054057186
 20
279.9901059036
 11
81.7752026363
 21
279.9492677153
  0
LINE
  8
0
 62
7
  6
CONTINUOUS
 10
108.2022205558
 20
316.2628335872
 11
108.7018346068
 21
315.985848535
  0
LINE
  8
0
 62
7
  6
CONTINUOUS
 10
110.6719546451
 20
318.9969558573
 11
110.1723406416
 21
319.2739408521
  0
LINE
  8
0
 62
7
  6
CONTINUOUS
 10
137.6450496494
 20
334.3714238708
 11
138.0357053606
 21
333.9546229179
  0
LINE
  8
0
 62
7
  6
CONTINUOUS
 10
140.8339978266
 20
336.2168562275
 11
140.4433421429
 21
336.6336571112
  0
LINE
  8
0
 62
7
  6
CONTINUOUS
 10
80.3473452709
 20
278.4373986362
 11
79.9696068125
 21
278.3866787005
  0
LINE
  8
0
 62
7
  6
CONTINUOUS
 10
91.4260691885
 20
299.2430050018
 11
91.8064853102
 21
299.219721204
  0
LINE
  8
0
 62
7
  6
CONTINUOUS
 10
90.4538040047
 20
296.3312436877
 11
91.0671108271
 21
296.2645766261
  0
LINE
  8
0
 62
7
  6
CONTINUOUS
 10
95.6286187616
 20
302.6454959794
 11
90.6846160549
 21
303.3135278526
  0
LINE
  8
0
 62
7
  6
CONTINUOUS
 10
90.9821921762
 20
302.6681374446
 11
96.0086816386
 21
301.9329245737
  0
LINE
  8
0
 62
7
  6
CONTINUOUS
 10
92.0940943786
 20
299.784719752
 11
91.6283142207
 21
299.871488326
  0
LINE
  8
0
 62
7
  6
CONTINUOUS
 10
89.5944629107
 20
300.3455281703
 11
89.8273536412
 21
300.3021448843
  0
LINE
  8
0
 62
7
  6
CONTINUOUS
 10
109.1833513235
 20
316.384303867
 11
108.8193816246
 21
316.4973683543
  0
LINE
  8
0
 62
7
  6
CONTINUOUS
 10
138.6161826289
 20
334.1862932462
 11
138.304393403
 21
334.4054849399
  0
LINE
  8
0
 62
7
  6
CONTINUOUS
 10
89.882071979
 20
300.9105267183
 11
89.3541292824
 21
300.913708937
  0
LINE
  8
0
 62
7
  6
CONTINUOUS
 10
98.1283451791
 20
307.4372375538
 11
97.6027284127
 21
307.486842314
  0
LINE
  8
0
 62
7
  6
CONTINUOUS
 10
96.5393560815
 20
308.8521753974
 11
96.013739315
 21
308.9017801576
  0
LINE
  8
0
 62
7
  6
CONTINUOUS
 10
108.7018346068
 20
315.985848535
 11
109.2138816932
 21
315.8572350426
  0
LINE
  8
0
 62
7
  6
CONTINUOUS
 10
109.0069303991
 20
320.5188943519
 11
108.4948833365
 21
320.6475078156
  0
LINE
  8
0
 62
7
  6
CONTINUOUS
 10
108.5254136824
 20
320.1204390199
 11
108.8893870075
 21
320.00737763
  0
LINE
  8
0
 62
7
  6
CONTINUOUS
 10
130.7794558402
 20
334.3099458893
 11
130.3087605235
 21
334.5490683188
  0
LINE
  8
0
 62
7
  6
CONTINUOUS
 10
138.0357053606
 20
333.9546229179
 11
138.4836769793
 21
333.6752395289
  0
LINE
  8
0
 62
7
  6
CONTINUOUS
 10
139.7156609859
 20
338.1759185623
 11
139.2676893811
 21
338.4553019167
  0
LINE
  8
0
 62
7
  6
CONTINUOUS
 10
139.1351837176
 20
337.944248234
 11
139.4469729159
 21
337.7250566096
  0
LINE
  8
0
 62
7
  6
CONTINUOUS
 10
91.1839917933
 20
296.9565447487
 11
90.741413073
 21
296.8962422357
  0
LINE
  8
0
 62
7
  6
CONTINUOUS
 10
89.0183737514
 20
297.7882114097
 11
89.6084791064
 21
297.8686154573
  0
LINE
  8
0
 62
7
  6
CONTINUOUS
 10
91.6283142207
 20
299.871488326
 11
91.0382088658
 21
299.7910842784
  0
LINE
  8
0
 62
7
  6
CONTINUOUS
 10
89.2994109446
 20
300.305327103
 11
89.5944629107
 21
300.3455281703
  0
LINE
  8
0
 62
7
  6
CONTINUOUS
 10
97.4947122867
 20
306.8856309793
 11
97.79215664
 21
306.8997251338
  0
LINE
  8
0
 62
7
  6
CONTINUOUS
 10
95.905723189
 20
308.3005688229
 11
96.2031675423
 21
308.3146629774
  0
LINE
  8
0
 62
7
  6
CONTINUOUS
 10
109.758646101
 20
318.7935252377
 11
110.0547935763
 21
318.7624210902
  0
LINE
  8
0
 62
7
  6
CONTINUOUS
 10
110.1723406416
 20
319.2739408521
 11
109.7281157551
 21
319.3205940334
  0
LINE
  8
0
 62
7
  6
CONTINUOUS
 10
129.9396234607
 20
334.1244788848
 11
130.2214712536
 21
334.0283820401
  0
LINE
  8
0
 62
7
  6
CONTINUOUS
 10
139.9022981173
 20
336.3031821533
 11
140.174654073
 21
336.1827951584
  0
LINE
  8
0
 62
7
  6
CONTINUOUS
 10
140.4433421429
 20
336.6336571112
 11
140.0348037808
 21
336.8142358359
  0
LINE
  8
0
 62
7
  6
CONTINUOUS
 10
96.013739315
 20
308.9017801576
 11
95.4983000522
 21
308.8028449663
  0
LINE
  8
0
 62
7
  6
CONTINUOUS
 10
109.2138816932
 20
315.8572350426
 11
109.8186133944
 21
315.9434012971
  0
LINE
  8
0
 62
7
  6
CONTINUOUS
 10
109.7281157551
 20
319.3205940334
 11
109.1233840717
 21
319.2344277574
  0
LINE
  8
0
 62
7
  6
CONTINUOUS
 10
108.4948833365
 20
320.6475078156
 11
107.8901553268
 21
320.5613445796
  0
LINE
  8
0
 62
7
  6
CONTINUOUS
 10
109.559754034
 20
316.4196109681
 11
109.1833513235
 21
316.384303867
  0
LINE
  8
0
 62
7
  6
CONTINUOUS
 10
109.3822433906
 20
318.7582181366
 11
109.758646101
 21
318.7935252377
  0
LINE
  8
0
 62
7
  6
CONTINUOUS
 10
108.149010972
 20
320.0851319188
 11
108.5254136824
 21
320.1204390199
  0
LINE
  8
0
 62
7
  6
CONTINUOUS
 10
138.4836769793
 20
333.6752395289
 11
139.0857048221
 21
333.5718830427
  0
LINE
  8
0
 62
7
  6
CONTINUOUS
 10
140.0348037808
 20
336.8142358359
 11
139.432767091
 21
336.9175887612
  0
LINE
  8
0
 62
7
  6
CONTINUOUS
 10
139.2676893811
 20
338.4553019167
 11
138.6656615486
 21
338.558658377
  0
LINE
  8
0
 62
7
  6
CONTINUOUS
 10
130.3087605235
 20
334.5490683188
 11
129.7929949506
 21
334.6462880677
  0
LINE
  8
0
 62
7
  6
CONTINUOUS
 10
138.9852877484
 20
334.1045191511
 11
138.6161826289
 21
334.1862932462
  0
LINE
  8
0
 62
7
  6
CONTINUOUS
 10
139.5331929978
 20
336.3849562484
 11
139.9022981173
 21
336.3031821533
  0
LINE
  8
0
 62
7
  6
CONTINUOUS
 10
138.7660785981
 20
338.0260223291
 11
139.1351837176
 21
337.944248234
  0
LINE
  8
0
 62
7
  6
CONTINUOUS
 10
139.0857048221
 20
333.5718830427
 11
139.60887503
 21
333.666139368
  0
LINE
  8
0
 62
7
  6
CONTINUOUS
 10
129.6127054115
 20
334.0786730487
 11
129.9396234607
 21
334.1244788848
  0
LINE
  8
0
 62
7
  6
CONTINUOUS
 10
139.3149596252
 20
334.1215496856
 11
138.9852877484
 21
334.1045191511
  0
LINE
  8
0
 62
7
  6
CONTINUOUS
 10
139.203521121
 20
336.3679257138
 11
139.5331929978
 21
336.3849562484
  0
LINE
  8
0
 62
7
  6
CONTINUOUS
 10
138.4364067213
 20
338.0089917946
 11
138.7660785981
 21
338.0260223291
  0
LINE
  8
0
 62
7
  6
CONTINUOUS
 10
129.7929949506
 20
334.6462880677
 11
129.2800806203
 21
334.5066268992
  0
LINE
  8
0
 62
7
  6
CONTINUOUS
 10
139.432767091
 20
336.9175887612
 11
138.9096057439
 21
336.8233359623
  0
LINE
  8
0
 62
7
  6
CONTINUOUS
 10
138.6656615486
 20
338.558658377
 11
138.1424913442
 21
338.4644020431
  0
POLYLINE
  8
0
 62
7
  6
CONTINUOUS
 66
1
 70
0
  0
VERTEX
  8
0
 62
7
  6
CONTINUOUS
 10
392.6772469337
 20
109.8508703405
  0
VERTEX
  8
0
 62
7
  6
CONTINUOUS
 10
392.7183066812
 20
109.8517133063
  0
VERTEX
  8
0
 62
7
  6
CONTINUOUS
 10
392.8390097639
 20
109.8640352026
  0
VERTEX
  8
0
 62
7
  6
CONTINUOUS
 10
392.9503002623
 20
109.8888548694
  0
VERTEX
  8
0
 62
7
  6
CONTINUOUS
 10
393.0520556767
 20
109.9237342214
  0
VERTEX
  8
0
 62
7
  6
CONTINUOUS
 10
393.1445126378
 20
109.966694741
  0
VERTEX
  8
0
 62
7
  6
CONTINUOUS
 10
393.2278688683
 20
110.0160231879
  0
VERTEX
  8
0
 62
7
  6
CONTINUOUS
 10
393.3021976562
 20
110.0700683679
  0
VERTEX
  8
0
 62
7
  6
CONTINUOUS
 10
393.3677597812
 20
110.1273516519
  0
VERTEX
  8
0
 62
7
  6
CONTINUOUS
 10
393.4250585704
 20
110.1866787815
  0
VERTEX
  8
0
 62
7
  6
CONTINUOUS
 10
393.4747331389
 20
110.24714005
  0
VERTEX
  8
0
 62
7
  6
CONTINUOUS
 10
393.5173660021
 20
110.3079175946
  0
VERTEX
  8
0
 62
7
  6
CONTINUOUS
 10
393.5534151966
 20
110.3680881862
  0
VERTEX
  8
0
 62
7
  6
CONTINUOUS
 10
393.5833844639
 20
110.426776911
  0
VERTEX
  8
0
 62
7
  6
CONTINUOUS
 10
393.6078043431
 20
110.4831062036
  0
VERTEX
  8
0
 62
7
  6
CONTINUOUS
 10
393.6272263163
 20
110.5361394774
  0
VERTEX
  8
0
 62
7
  6
CONTINUOUS
 10
393.6421960759
 20
110.584719285
  0
VERTEX
  8
0
 62
7
  6
CONTINUOUS
 10
393.6533341219
 20
110.6276496564
  0
VERTEX
  8
0
 62
7
  6
CONTINUOUS
 10
393.6615743907
 20
110.6650854019
  0
VERTEX
  8
0
 62
7
  6
CONTINUOUS
 10
393.6680755762
 20
110.6994873677
  0
VERTEX
  8
0
 62
7
  6
CONTINUOUS
 10
393.6737908588
 20
110.7342910568
  0
VERTEX
  8
0
 62
7
  6
CONTINUOUS
 10
393.6790627592
 20
110.7706268724
  0
SEQEND
  0
LINE
  8
AXES
 62
7
  6
CONTINUOUS
 10
388.1692503987
 20
102.9363624161
 11
392.6748771181
 21
102.9363624161
  0
LINE
  8
0
 62
7
  6
CONTINUOUS
 10
388.1668801981
 20
109.8508703315
 11
392.6772473187
 21
109.8508703315
  0
POLYLINE
  8
0
 62
7
  6
CONTINUOUS
 66
1
 70
0
  0
VERTEX
  8
0
 62
7
  6
CONTINUOUS
 10
392.6858126786
 20
134.8295925956
  0
VERTEX
  8
0
 62
7
  6
CONTINUOUS
 10
392.7674114106
 20
134.8329217235
  0
VERTEX
  8
0
 62
7
  6
CONTINUOUS
 10
392.9109140135
 20
134.8552121319
  0
VERTEX
  8
0
 62
7
  6
CONTINUOUS
 10
393.0420629742
 20
134.8950779662
  0
VERTEX
  8
0
 62
7
  6
CONTINUOUS
 10
393.1591704286
 20
134.9484733424
  0
VERTEX
  8
0
 62
7
  6
CONTINUOUS
 10
393.2616222546
 20
135.0115765151
  0
VERTEX
  8
0
 62
7
  6
CONTINUOUS
 10
393.3498172553
 20
135.0811689864
  0
VERTEX
  8
0
 62
7
  6
CONTINUOUS
 10
393.4246446566
 20
135.1546301126
  0
VERTEX
  8
0
 62
7
  6
CONTINUOUS
 10
393.4873564117
 20
135.2300303765
  0
VERTEX
  8
0
 62
7
  6
CONTINUOUS
 10
393.5391598353
 20
135.3057876208
  0
VERTEX
  8
0
 62
7
  6
CONTINUOUS
 10
393.5809882656
 20
135.3801107371
  0
VERTEX
  8
0
 62
7
  6
CONTINUOUS
 10
393.6138127995
 20
135.4511267265
  0
VERTEX
  8
0
 62
7
  6
CONTINUOUS
 10
393.6384485898
 20
135.5160959373
  0
VERTEX
  8
0
 62
7
  6
CONTINUOUS
 10
393.6561979706
 20
135.5728431741
  0
VERTEX
  8
0
 62
7
  6
CONTINUOUS
 10
393.6691207171
 20
135.6223064791
  0
VERTEX
  8
0
 62
7
  6
CONTINUOUS
 10
393.679587934
 20
135.6697529046
  0
VERTEX
  8
0
 62
7
  6
CONTINUOUS
 10
393.6889716311
 20
135.7199269287
  0
VERTEX
  8
0
 62
7
  6
CONTINUOUS
 10
393.6976691506
 20
135.7744827368
  0
VERTEX
  8
0
 62
7
  6
CONTINUOUS
 10
393.7052475069
 20
135.8292616508
  0
SEQEND
  0
LINE
  8
AXES
 62
7
  6
CONTINUOUS
 10
371.2720637584
 20
131.5793624161
 11
381.9220637584
 21
131.5793624161
  0
LINE
  8
AXES
 62
7
  6
CONTINUOUS
 10
398.9220637584
 20
131.5793624161
 11
409.5720637584
 21
131.5793624161
  0
LINE
  8
0
 62
7
  6
CONTINUOUS
 10
388.1583104445
 20
134.8295925916
 11
392.6858170723
 21
134.8295925916
  0
LINE
  8
0
 62
7
  6
CONTINUOUS
 10
394.9220637584
 20
346.5793624161
 11
393.9220637584
 21
344.8473116086
  0
POLYLINE
  8
0
 62
7
  6
CONTINUOUS
 66
1
 70
0
  0
VERTEX
  8
0
 62
7
  6
CONTINUOUS
 10
392.6993642578
 20
174.3092288998
  0
VERTEX
  8
0
 62
7
  6
CONTINUOUS
 10
392.806213446
 20
174.314935854
  0
VERTEX
  8
0
 62
7
  6
CONTINUOUS
 10
392.9589676202
 20
174.3434015526
  0
VERTEX
  8
0
 62
7
  6
CONTINUOUS
 10
393.1043415101
 20
174.3945962392
  0
VERTEX
  8
0
 62
7
  6
CONTINUOUS
 10
393.2348861757
 20
174.4640767425
  0
VERTEX
  8
0
 62
7
  6
CONTINUOUS
 10
393.3467026232
 20
174.5458875887
  0
VERTEX
  8
0
 62
7
  6
CONTINUOUS
 10
393.4391441599
 20
174.6344608264
  0
VERTEX
  8
0
 62
7
  6
CONTINUOUS
 10
393.5129297631
 20
174.724633187
  0
VERTEX
  8
0
 62
7
  6
CONTINUOUS
 10
393.5699761121
 20
174.8122542509
  0
VERTEX
  8
0
 62
7
  6
CONTINUOUS
 10
393.6131781717
 20
174.8950501683
  0
VERTEX
  8
0
 62
7
  6
CONTINUOUS
 10
393.6450619472
 20
174.9710419071
  0
VERTEX
  8
0
 62
7
  6
CONTINUOUS
 10
393.6679298846
 20
175.0384963111
  0
VERTEX
  8
0
 62
7
  6
CONTINUOUS
 10
393.6813369355
 20
175.0860547616
  0
SEQEND
  0
LINE
  8
0
 62
7
  6
CONTINUOUS
 10
388.1447582115
 20
174.3092288661
 11
392.6993693053
 21
174.3092288661
  0
LINE
  8
AXES
 62
7
  6
CONTINUOUS
 10
369.2720637584
 20
329.5793624161
 11
369.2720637584
 21
133.5793624161
  0
POLYLINE
  8
0
 62
7
  6
CONTINUOUS
 66
1
 70
0
  0
VERTEX
  8
0
 62
7
  6
CONTINUOUS
 10
387.1598339591
 20
352.3481260169
  0
VERTEX
  8
0
 62
7
  6
CONTINUOUS
 10
387.1543488049
 20
352.3024638354
  0
VERTEX
  8
0
 62
7
  6
CONTINUOUS
 10
387.1483945397
 20
352.2491470956
  0
VERTEX
  8
0
 62
7
  6
CONTINUOUS
 10
387.1418159646
 20
352.1863039533
  0
VERTEX
  8
0
 62
7
  6
CONTINUOUS
 10
386.9418838374
 20
350.1108776098
  0
SEQEND
  0
LINE
  8
0
 62
7
  6
CONTINUOUS
 10
387.1650643347
 20
352.3880948829
 11
387.1598339591
 21
352.3481260169
  0
LINE
  8
0
 62
7
  6
CONTINUOUS
 10
387.1627999283
 20
288.0727060057
 11
386.9695136145
 21
287.3300102875
  0
POLYLINE
  8
0
 62
7
  6
CONTINUOUS
 66
1
 70
0
  0
VERTEX
  8
0
 62
7
  6
CONTINUOUS
 10
387.1627908723
 20
175.0860536432
  0
VERTEX
  8
0
 62
7
  6
CONTINUOUS
 10
387.1764547785
 20
175.0376526892
  0
VERTEX
  8
0
 62
7
  6
CONTINUOUS
 10
387.1993625843
 20
174.9702511356
  0
VERTEX
  8
0
 62
7
  6
CONTINUOUS
 10
387.2312806042
 20
174.8943400303
  0
VERTEX
  8
0
 62
7
  6
CONTINUOUS
 10
387.2745220798
 20
174.8116163928
  0
VERTEX
  8
0
 62
7
  6
CONTINUOUS
 10
387.331630109
 20
174.7240386032
  0
VERTEX
  8
0
 62
7
  6
CONTINUOUS
 10
387.4054849105
 20
174.6339155928
  0
VERTEX
  8
0
 62
7
  6
CONTINUOUS
 10
387.4979889424
 20
174.5454123487
  0
VERTEX
  8
0
 62
7
  6
CONTINUOUS
 10
387.6098377928
 20
174.4637008063
  0
VERTEX
  8
0
 62
7
  6
CONTINUOUS
 10
387.7403313904
 20
174.3943558617
  0
VERTEX
  8
0
 62
7
  6
CONTINUOUS
 10
387.8855498266
 20
174.3432971782
  0
VERTEX
  8
0
 62
7
  6
CONTINUOUS
 10
388.0380976456
 20
174.3149162054
  0
VERTEX
  8
0
 62
7
  6
CONTINUOUS
 10
388.1447632582
 20
174.3092288998
  0
SEQEND
  0
LINE
  8
0
 62
7
  6
CONTINUOUS
 10
386.9695136144
 20
175.8287145448
 11
387.1627999283
 21
175.0860188267
  0
POLYLINE
  8
0
 62
7
  6
CONTINUOUS
 66
1
 70
0
  0
VERTEX
  8
0
 62
7
  6
CONTINUOUS
 10
387.1629992036
 20
110.7859637597
  0
VERTEX
  8
0
 62
7
  6
CONTINUOUS
 10
387.16805365
 20
110.7495224107
  0
VERTEX
  8
0
 62
7
  6
CONTINUOUS
 10
387.1734874944
 20
110.7145304438
  0
VERTEX
  8
0
 62
7
  6
CONTINUOUS
 10
387.1795237745
 20
110.6804955444
  0
VERTEX
  8
0
 62
7
  6
CONTINUOUS
 10
387.1868102345
 20
110.6450099476
  0
VERTEX
  8
0
 62
7
  6
CONTINUOUS
 10
387.1966615779
 20
110.6041302141
  0
VERTEX
  8
0
 62
7
  6
CONTINUOUS
 10
387.2100061291
 20
110.5574742574
  0
VERTEX
  8
0
 62
7
  6
CONTINUOUS
 10
387.2277334743
 20
110.5054514457
  0
VERTEX
  8
0
 62
7
  6
CONTINUOUS
 10
387.2509262303
 20
110.4483117859
  0
VERTEX
  8
0
 62
7
  6
CONTINUOUS
 10
387.2800876691
 20
110.3878300626
  0
VERTEX
  8
0
 62
7
  6
CONTINUOUS
 10
387.3155800965
 20
110.325583603
  0
VERTEX
  8
0
 62
7
  6
CONTINUOUS
 10
387.3578684157
 20
110.2626501516
  0
VERTEX
  8
0
 62
7
  6
CONTINUOUS
 10
387.4073375572
 20
110.2001106054
  0
VERTEX
  8
0
 62
7
  6
CONTINUOUS
 10
387.464548467
 20
110.1388082371
  0
VERTEX
  8
0
 62
7
  6
CONTINUOUS
 10
387.5302067195
 20
110.0795902895
  0
VERTEX
  8
0
 62
7
  6
CONTINUOUS
 10
387.6049209236
 20
110.0236075077
  0
VERTEX
  8
0
 62
7
  6
CONTINUOUS
 10
387.6890380558
 20
109.9723626047
  0
VERTEX
  8
0
 62
7
  6
CONTINUOUS
 10
387.7826964579
 20
109.927577826
  0
VERTEX
  8
0
 62
7
  6
CONTINUOUS
 10
387.8860969959
 20
109.8910816148
  0
VERTEX
  8
0
 62
7
  6
CONTINUOUS
 10
387.9995017661
 20
109.8649718093
  0
VERTEX
  8
0
 62
7
  6
CONTINUOUS
 10
388.1227946561
 20
109.8518422042
  0
VERTEX
  8
0
 62
7
  6
CONTINUOUS
 10
388.1668805826
 20
109.8508703405
  0
SEQEND
  0
POLYLINE
  8
0
 62
7
  6
CONTINUOUS
 66
1
 70
0
  0
VERTEX
  8
0
 62
7
  6
CONTINUOUS
 10
387.1388800574
 20
135.8292612846
  0
VERTEX
  8
0
 62
7
  6
CONTINUOUS
 10
387.1465019535
 20
135.7741878879
  0
VERTEX
  8
0
 62
7
  6
CONTINUOUS
 10
387.1551840358
 20
135.7197637006
  0
VERTEX
  8
0
 62
7
  6
CONTINUOUS
 10
387.1645530677
 20
135.6696864829
  0
VERTEX
  8
0
 62
7
  6
CONTINUOUS
 10
387.1749903851
 20
135.6223750541
  0
VERTEX
  8
0
 62
7
  6
CONTINUOUS
 10
387.1878551489
 20
135.5731050933
  0
VERTEX
  8
0
 62
7
  6
CONTINUOUS
 10
387.2055467788
 20
135.5164819904
  0
VERTEX
  8
0
 62
7
  6
CONTINUOUS
 10
387.230119366
 20
135.4515952257
  0
VERTEX
  8
0
 62
7
  6
CONTINUOUS
 10
387.2628742256
 20
135.3806317065
  0
VERTEX
  8
0
 62
7
  6
CONTINUOUS
 10
387.3046658307
 20
135.306275341
  0
VERTEX
  8
0
 62
7
  6
CONTINUOUS
 10
387.3564749301
 20
135.2304241201
  0
VERTEX
  8
0
 62
7
  6
CONTINUOUS
 10
387.4192408579
 20
135.1548939336
  0
VERTEX
  8
0
 62
7
  6
CONTINUOUS
 10
387.4941555777
 20
135.0813057835
  0
VERTEX
  8
0
 62
7
  6
CONTINUOUS
 10
387.5824535884
 20
135.0116127917
  0
VERTEX
  8
0
 62
7
  6
CONTINUOUS
 10
387.6850624379
 20
134.9484168835
  0
VERTEX
  8
0
 62
7
  6
CONTINUOUS
 10
387.8024241316
 20
134.8949412369
  0
VERTEX
  8
0
 62
7
  6
CONTINUOUS
 10
387.9337978994
 20
134.8550775512
  0
VERTEX
  8
0
 62
7
  6
CONTINUOUS
 10
388.0772591685
 20
134.8328774861
  0
VERTEX
  8
0
 62
7
  6
CONTINUOUS
 10
388.1583148371
 20
134.8295925956
  0
SEQEND
  0
LINE
  8
0
 62
7
  6
CONTINUOUS
 10
387.1579216145
 20
110.8261098268
 11
387.1629992036
 21
110.7859637597
  0
POLYLINE
  8
0
 62
7
  6
CONTINUOUS
 66
1
 70
0
  0
VERTEX
  8
0
 62
7
  6
CONTINUOUS
 10
387.1409439257
 20
110.9810359166
  0
VERTEX
  8
0
 62
7
  6
CONTINUOUS
 10
387.1469590301
 20
110.9229560897
  0
VERTEX
  8
0
 62
7
  6
CONTINUOUS
 10
387.1526035866
 20
110.8715090137
  0
VERTEX
  8
0
 62
7
  6
CONTINUOUS
 10
387.1579216145
 20
110.8261098268
  0
SEQEND
  0
LINE
  8
0
 62
7
  6
CONTINUOUS
 10
386.9418838374
 20
113.0478472225
 11
387.1409439257
 21
110.9810359166
  0
LINE
  8
AXES
 62
7
  6
CONTINUOUS
 10
386.9410902679
 20
106.5005837024
 11
387.1730556938
 21
103.8492067522
  0
LINE
  8
AXES
 62
7
  6
CONTINUOUS
 10
386.9220637584
 20
106.9363624161
 11
386.9410902679
 21
106.5005837024
  0
POLYLINE
  8
0
 62
7
  6
CONTINUOUS
 66
1
 70
0
  0
VERTEX
  8
0
 62
7
  6
CONTINUOUS
 10
386.941883817
 20
350.1108773296
  0
VERTEX
  8
0
 62
7
  6
CONTINUOUS
 10
386.9311645067
 20
349.9779733095
  0
VERTEX
  8
0
 62
7
  6
CONTINUOUS
 10
386.9240845642
 20
349.8300535407
  0
VERTEX
  8
0
 62
7
  6
CONTINUOUS
 10
386.9220637615
 20
349.6980748868
  0
SEQEND
  0
LINE
  8
AXES
 62
7
  6
CONTINUOUS
 10
386.9410902679
 20
356.6581411299
 11
387.1730556933
 21
359.3095180741
  0
POLYLINE
  8
0
 62
7
  6
CONTINUOUS
 66
1
 70
0
  0
VERTEX
  8
0
 62
7
  6
CONTINUOUS
 10
386.9456054112
 20
325.840786979
  0
VERTEX
  8
0
 62
7
  6
CONTINUOUS
 10
386.9328637294
 20
325.723611908
  0
VERTEX
  8
0
 62
7
  6
CONTINUOUS
 10
386.9244587207
 20
325.5932387271
  0
VERTEX
  8
0
 62
7
  6
CONTINUOUS
 10
386.922063761
 20
325.4770756113
  0
SEQEND
  0
LINE
  8
0
 62
7
  6
CONTINUOUS
 10
387.1388808395
 20
327.3294695849
 11
387.1307300511
 21
327.2666942316
  0
LINE
  8
0
 62
7
  6
CONTINUOUS
 10
387.1307300511
 20
327.2666942316
 11
386.9456057256
 21
325.8407894507
  0
LINE
  8
0
 62
7
  6
CONTINUOUS
 10
386.9695088035
 20
287.3299917734
 11
386.9337771065
 21
287.1451415422
  0
LINE
  8
0
 62
7
  6
CONTINUOUS
 10
386.9456057256
 20
137.3179353815
 11
387.1388808395
 21
135.8292552474
  0
POLYLINE
  8
0
 62
7
  6
CONTINUOUS
 66
1
 70
0
  0
VERTEX
  8
0
 62
7
  6
CONTINUOUS
 10
386.9220637611
 20
176.1977744046
  0
VERTEX
  8
0
 62
7
  6
CONTINUOUS
 10
386.9339283063
 20
176.0124018912
  0
VERTEX
  8
0
 62
7
  6
CONTINUOUS
 10
386.9695084979
 20
175.8287342333
  0
SEQEND
  0
POLYLINE
  8
0
 62
7
  6
CONTINUOUS
 66
1
 70
0
  0
VERTEX
  8
0
 62
7
  6
CONTINUOUS
 10
386.922063761
 20
137.6816485431
  0
VERTEX
  8
0
 62
7
  6
CONTINUOUS
 10
386.9245074655
 20
137.5643104323
  0
VERTEX
  8
0
 62
7
  6
CONTINUOUS
 10
386.932966802
 20
137.4339408479
  0
VERTEX
  8
0
 62
7
  6
CONTINUOUS
 10
386.9456053923
 20
137.3179379991
  0
SEQEND
  0
POLYLINE
  8
0
 62
7
  6
CONTINUOUS
 66
1
 70
0
  0
VERTEX
  8
0
 62
7
  6
CONTINUOUS
 10
386.9220637615
 20
113.4606496427
  0
VERTEX
  8
0
 62
7
  6
CONTINUOUS
 10
386.9241256689
 20
113.3273367478
  0
VERTEX
  8
0
 62
7
  6
CONTINUOUS
 10
386.9312514671
 20
113.179419033
  0
VERTEX
  8
0
 62
7
  6
CONTINUOUS
 10
386.9418838159
 20
113.047847514
  0
SEQEND
  0
LINE
  8
AXES
 62
7
  6
CONTINUOUS
 10
386.9220637584
 20
356.2222977365
 11
386.9220637584
 21
355.9366820884
  0
LINE
  8
AXES
 62
7
  6
CONTINUOUS
 10
386.9220637584
 20
349.6981453277
 11
386.9220637584
 21
343.242944231
  0
LINE
  8
AXES
 62
7
  6
CONTINUOUS
 10
386.9220637584
 20
240.0134890999
 11
386.9220637584
 21
223.1452357323
  0
LINE
  8
AXES
 62
7
  6
CONTINUOUS
 10
386.9220637584
 20
191.781993502
 11
386.9220637584
 21
176.1977594664
  0
LINE
  8
AXES
 62
7
  6
CONTINUOUS
 10
386.9220637584
 20
119.9157806013
 11
386.9220637584
 21
113.4605795046
  0
LINE
  8
AXES
 62
7
  6
CONTINUOUS
 10
386.9220637584
 20
107.2220427438
 11
386.9220637584
 21
106.936521043
  0
LINE
  8
0
 62
7
  6
CONTINUOUS
 10
386.9220637584
 20
106.9363628587
 11
386.9220637584
 21
356.2223619024
  0
LINE
  8
0
 62
7
  6
CONTINUOUS
 10
386.9337771065
 20
287.1451415422
 11
386.9220637611
 21
286.9609495394
  0
LINE
  8
AXES
 62
2
  6
CENTER
 10
367.2720637584
 20
231.5793624161
 11
413.5720637584
 21
231.5793624161
  0
POLYLINE
  8
0
 62
7
  6
CONTINUOUS
 66
1
 70
0
  0
VERTEX
  8
0
 62
7
  6
CONTINUOUS
 10
393.9220637517
 20
286.9609497094
  0
VERTEX
  8
0
 62
7
  6
CONTINUOUS
 10
393.9101990799
 20
287.1463239581
  0
VERTEX
  8
0
 62
7
  6
CONTINUOUS
 10
393.8746189
 20
287.3299910709
  0
SEQEND
  0
LINE
  8
AXES
 62
7
  6
CONTINUOUS
 10
393.9030372488
 20
356.6581411299
 11
393.9220637584
 21
356.2223624161
  0
POLYLINE
  8
0
 62
7
  6
CONTINUOUS
 66
1
 70
0
  0
VERTEX
  8
0
 62
7
  6
CONTINUOUS
 10
393.9220637518
 20
325.4770727034
  0
VERTEX
  8
0
 62
7
  6
CONTINUOUS
 10
393.919619869
 20
325.5944188655
  0
VERTEX
  8
0
 62
7
  6
CONTINUOUS
 10
393.9111603184
 20
325.7247884366
  0
VERTEX
  8
0
 62
7
  6
CONTINUOUS
 10
393.8985221027
 20
325.8407870308
  0
SEQEND
  0
POLYLINE
  8
0
 62
7
  6
CONTINUOUS
 66
1
 70
0
  0
VERTEX
  8
0
 62
7
  6
CONTINUOUS
 10
393.9220637519
 20
349.6981456114
  0
VERTEX
  8
0
 62
7
  6
CONTINUOUS
 10
393.9200017223
 20
349.8313922599
  0
VERTEX
  8
0
 62
7
  6
CONTINUOUS
 10
393.912875773
 20
349.9793099676
  0
SEQEND
  0
LINE
  8
AXES
 62
7
  6
CONTINUOUS
 10
393.9220637584
 20
356.2222977365
 11
393.9220637584
 21
355.9366820884
  0
LINE
  8
AXES
 62
7
  6
CONTINUOUS
 10
393.9220637584
 20
349.6981453277
 11
393.9220637584
 21
343.242944231
  0
LINE
  8
AXES
 62
7
  6
CONTINUOUS
 10
393.9220637584
 20
107.2220427438
 11
393.9220637584
 21
106.936521043
  0
LINE
  8
0
 62
7
  6
CONTINUOUS
 10
393.9220637584
 20
106.9363628587
 11
393.9220637584
 21
356.2223619024
  0
LINE
  8
0
 62
7
  6
CONTINUOUS
 10
394.2220637584
 20
338.558658377
 11
394.2220637584
 21
328.91649481
  0
LINE
  8
0
 62
7
  6
CONTINUOUS
 10
394.2220637584
 20
320.6475078156
 11
394.2220637584
 21
310.3548417118
  0
LINE
  8
0
 62
7
  6
CONTINUOUS
 10
394.2220637584
 20
308.9017801576
 11
394.2220637584
 21
294.8254721984
  0
LINE
  8
0
 62
7
  6
CONTINUOUS
 10
394.2220637584
 20
293.4576375158
 11
394.2220637584
 21
289.9657670919
  0
LINE
  8
0
 62
7
  6
CONTINUOUS
 10
394.2220637584
 20
287.3482809347
 11
394.2220637584
 21
286.6353227279
  0
LINE
  8
0
 62
7
  6
CONTINUOUS
 10
394.2220637584
 20
286.5775932693
 11
394.2220637584
 21
277.8707564946
  0
LINE
  8
0
 62
7
  6
CONTINUOUS
 10
393.9103502789
 20
176.0135822596
 11
393.9220637517
 21
176.1977760173
  0
POLYLINE
  8
0
 62
7
  6
CONTINUOUS
 66
1
 70
0
  0
VERTEX
  8
0
 62
7
  6
CONTINUOUS
 10
393.7031836488
 20
352.1776883433
  0
VERTEX
  8
0
 62
7
  6
CONTINUOUS
 10
393.6971685749
 20
352.2357679148
  0
VERTEX
  8
0
 62
7
  6
CONTINUOUS
 10
393.6915240468
 20
352.2872147888
  0
VERTEX
  8
0
 62
7
  6
CONTINUOUS
 10
393.6862060528
 20
352.3326137676
  0
SEQEND
  0
LINE
  8
0
 62
7
  6
CONTINUOUS
 10
393.9022436794
 20
350.1108776098
 11
393.7031836488
 21
352.1776883433
  0
LINE
  8
AXES
 62
7
  6
CONTINUOUS
 10
393.6710718235
 20
359.3095180741
 11
393.9030372488
 21
356.6581411299
  0
LINE
  8
0
 62
7
  6
CONTINUOUS
 10
393.912875773
 20
349.9793099676
 11
393.9022437
 21
350.1108773681
  0
POLYLINE
  8
0
 62
7
  6
CONTINUOUS
 66
1
 70
0
  0
VERTEX
  8
0
 62
7
  6
CONTINUOUS
 10
393.9022436991
 20
113.0478474547
  0
VERTEX
  8
0
 62
7
  6
CONTINUOUS
 10
393.912962735
 20
113.1807473553
  0
VERTEX
  8
0
 62
7
  6
CONTINUOUS
 10
393.9200428286
 20
113.3286671182
  0
VERTEX
  8
0
 62
7
  6
CONTINUOUS
 10
393.9220637519
 20
113.4605792093
  0
SEQEND
  0
LINE
  8
AXES
 62
7
  6
CONTINUOUS
 10
393.671071823
 20
103.8492067522
 11
393.9030372488
 21
106.5005837024
  0
POLYLINE
  8
0
 62
7
  6
CONTINUOUS
 66
1
 70
0
  0
VERTEX
  8
0
 62
7
  6
CONTINUOUS
 10
393.8985220848
 20
137.3179376631
  0
VERTEX
  8
0
 62
7
  6
CONTINUOUS
 10
393.9112633933
 20
137.4351084743
  0
VERTEX
  8
0
 62
7
  6
CONTINUOUS
 10
393.919668616
 20
137.5654816436
  0
VERTEX
  8
0
 62
7
  6
CONTINUOUS
 10
393.9220637518
 20
137.6816528416
  0
SEQEND
  0
POLYLINE
  8
0
 62
7
  6
CONTINUOUS
 66
1
 70
0
  0
VERTEX
  8
0
 62
7
  6
CONTINUOUS
 10
393.6842932083
 20
110.810596023
  0
VERTEX
  8
0
 62
7
  6
CONTINUOUS
 10
393.6897784304
 20
110.8562585643
  0
VERTEX
  8
0
 62
7
  6
CONTINUOUS
 10
393.6957327701
 20
110.9095758214
  0
VERTEX
  8
0
 62
7
  6
CONTINUOUS
 10
393.7023114307
 20
110.9724196829
  0
VERTEX
  8
0
 62
7
  6
CONTINUOUS
 10
393.9022436794
 20
113.0478472225
  0
SEQEND
  0
LINE
  8
0
 62
7
  6
CONTINUOUS
 10
393.7133974656
 20
135.8920306007
 11
393.8985217912
 21
137.3179353815
  0
LINE
  8
0
 62
7
  6
CONTINUOUS
 10
393.7052466773
 20
135.8292552474
 11
393.7133974656
 21
135.8920306007
  0
LINE
  8
0
 62
7
  6
CONTINUOUS
 10
393.8746185967
 20
175.8287325959
 11
393.9103502789
 21
176.0135822596
  0
LINE
  8
0
 62
7
  6
CONTINUOUS
 10
393.6813275885
 20
175.0860188266
 11
393.8746139023
 21
175.8287145448
  0
POLYLINE
  8
0
 62
7
  6
CONTINUOUS
 66
1
 70
0
  0
VERTEX
  8
0
 62
7
  6
CONTINUOUS
 10
393.681336633
 20
288.0726712306
  0
VERTEX
  8
0
 62
7
  6
CONTINUOUS
 10
393.6676728321
 20
288.1210718381
  0
VERTEX
  8
0
 62
7
  6
CONTINUOUS
 10
393.6447652181
 20
288.1884729375
  0
VERTEX
  8
0
 62
7
  6
CONTINUOUS
 10
393.6128474622
 20
288.2643836251
  0
VERTEX
  8
0
 62
7
  6
CONTINUOUS
 10
393.5696065464
 20
288.347106531
  0
VERTEX
  8
0
 62
7
  6
CONTINUOUS
 10
393.5124997498
 20
288.4346830109
  0
VERTEX
  8
0
 62
7
  6
CONTINUOUS
 10
393.4386465961
 20
288.5248049068
  0
VERTEX
  8
0
 62
7
  6
CONTINUOUS
 10
393.3461450448
 20
288.6133070333
  0
VERTEX
  8
0
 62
7
  6
CONTINUOUS
 10
393.2342989841
 20
288.6950181934
  0
VERTEX
  8
0
 62
7
  6
CONTINUOUS
 10
393.1038058715
 20
288.7643646812
  0
VERTEX
  8
0
 62
7
  6
CONTINUOUS
 10
392.9585846071
 20
288.8154258062
  0
VERTEX
  8
0
 62
7
  6
CONTINUOUS
 10
392.8060326471
 20
288.8438083279
  0
VERTEX
  8
0
 62
7
  6
CONTINUOUS
 10
392.6993642581
 20
288.8494959294
  0
SEQEND
  0
LINE
  8
0
 62
7
  6
CONTINUOUS
 10
393.8746139023
 20
287.3300102875
 11
393.6813275885
 21
288.0727060056
  0
POLYLINE
  8
0
 62
7
  6
CONTINUOUS
 66
1
 70
0
  0
VERTEX
  8
0
 62
7
  6
CONTINUOUS
 10
393.7052474548
 20
327.3294635814
  0
VERTEX
  8
0
 62
7
  6
CONTINUOUS
 10
393.6976255339
 20
327.3845371428
  0
VERTEX
  8
0
 62
7
  6
CONTINUOUS
 10
393.6889434299
 20
327.4389614289
  0
VERTEX
  8
0
 62
7
  6
CONTINUOUS
 10
393.6795743496
 20
327.4890388382
  0
VERTEX
  8
0
 62
7
  6
CONTINUOUS
 10
393.6691369813
 20
327.5363504055
  0
VERTEX
  8
0
 62
7
  6
CONTINUOUS
 10
393.6562721133
 20
327.5856206345
  0
VERTEX
  8
0
 62
7
  6
CONTINUOUS
 10
393.6385803351
 20
327.6422440196
  0
VERTEX
  8
0
 62
7
  6
CONTINUOUS
 10
393.6140077294
 20
327.7071306186
  0
VERTEX
  8
0
 62
7
  6
CONTINUOUS
 10
393.58125269
 20
327.7780943069
  0
VERTEX
  8
0
 62
7
  6
CONTINUOUS
 10
393.5394610139
 20
327.8524505782
  0
VERTEX
  8
0
 62
7
  6
CONTINUOUS
 10
393.487651869
 20
327.9283016687
  0
VERTEX
  8
0
 62
7
  6
CONTINUOUS
 10
393.4248859481
 20
328.0038316728
  0
VERTEX
  8
0
 62
7
  6
CONTINUOUS
 10
393.3499713004
 20
328.0774196114
  0
VERTEX
  8
0
 62
7
  6
CONTINUOUS
 10
393.2616733575
 20
328.1471124404
  0
VERTEX
  8
0
 62
7
  6
CONTINUOUS
 10
393.1590645999
 20
328.2103082066
  0
VERTEX
  8
0
 62
7
  6
CONTINUOUS
 10
393.0417030645
 20
328.26378372
  0
VERTEX
  8
0
 62
7
  6
CONTINUOUS
 10
392.9103294875
 20
328.3036473136
  0
VERTEX
  8
0
 62
7
  6
CONTINUOUS
 10
392.7668683573
 20
328.3258473456
  0
VERTEX
  8
0
 62
7
  6
CONTINUOUS
 10
392.6858127044
 20
328.3291322348
  0
SEQEND
  0
LINE
  8
0
 62
7
  6
CONTINUOUS
 10
393.8985217912
 20
325.8407894507
 11
393.7052466773
 21
327.3294695849
  0
LINE
  8
0
 62
7
  6
CONTINUOUS
 10
393.6862060528
 20
352.3326137676
 11
393.6811284949
 21
352.3727596963
  0
LINE
  8
AXES
 62
7
  6
CONTINUOUS
 10
411.5720637584
 20
329.5793624161
 11
411.5720637584
 21
133.5793624161
  0
LINE
  8
0
 62
7
  6
CONTINUOUS
 10
393.6790627592
 20
110.7706268724
 11
393.6842932083
 21
110.810596023
  0
POLYLINE
  8
0
 62
7
  6
CONTINUOUS
 66
1
 70
0
  0
VERTEX
  8
0
 62
7
  6
CONTINUOUS
 10
393.6811284949
 20
352.3727596963
  0
VERTEX
  8
0
 62
7
  6
CONTINUOUS
 10
393.6760740909
 20
352.4092008885
  0
VERTEX
  8
0
 62
7
  6
CONTINUOUS
 10
393.6706402903
 20
352.4441927691
  0
VERTEX
  8
0
 62
7
  6
CONTINUOUS
 10
393.6646040921
 20
352.4782274485
  0
VERTEX
  8
0
 62
7
  6
CONTINUOUS
 10
393.6573177874
 20
352.5137126018
  0
VERTEX
  8
0
 62
7
  6
CONTINUOUS
 10
393.6474666245
 20
352.5545919957
  0
VERTEX
  8
0
 62
7
  6
CONTINUOUS
 10
393.6341221988
 20
352.6012479679
  0
VERTEX
  8
0
 62
7
  6
CONTINUOUS
 10
393.6163950767
 20
352.6532705985
  0
VERTEX
  8
0
 62
7
  6
CONTINUOUS
 10
393.5932025332
 20
352.7104102257
  0
VERTEX
  8
0
 62
7
  6
CONTINUOUS
 10
393.5640412595
 20
352.7708920755
  0
VERTEX
  8
0
 62
7
  6
CONTINUOUS
 10
393.5285489975
 20
352.8331386774
  0
VERTEX
  8
0
 62
7
  6
CONTINUOUS
 10
393.4862608109
 20
352.896072331
  0
VERTEX
  8
0
 62
7
  6
CONTINUOUS
 10
393.4367917582
 20
352.9586121287
  0
VERTEX
  8
0
 62
7
  6
CONTINUOUS
 10
393.3795808988
 20
353.0199147727
  0
VERTEX
  8
0
 62
7
  6
CONTINUOUS
 10
393.3139226513
 20
353.0791330141
  0
VERTEX
  8
0
 62
7
  6
CONTINUOUS
 10
393.2392083948
 20
353.1351161029
  0
VERTEX
  8
0
 62
7
  6
CONTINUOUS
 10
393.1550911439
 20
353.186361315
  0
VERTEX
  8
0
 62
7
  6
CONTINUOUS
 10
393.0614325522
 20
353.231146388
  0
VERTEX
  8
0
 62
7
  6
CONTINUOUS
 10
392.9580317561
 20
353.2676428594
  0
VERTEX
  8
0
 62
7
  6
CONTINUOUS
 10
392.8446266537
 20
353.2937528728
  0
VERTEX
  8
0
 62
7
  6
CONTINUOUS
 10
392.7213333541
 20
353.3068826089
  0
VERTEX
  8
0
 62
7
  6
CONTINUOUS
 10
392.6772469444
 20
353.307854494
  0
SEQEND
  0
LINE
  8
0
 62
7
  6
CONTINUOUS
 10
393.9220637584
 20
277.8707564946
 11
394.2220637584
 21
277.8707564946
  0
LINE
  8
0
 62
7
  6
CONTINUOUS
 10
393.9220637584
 20
277.9598442904
 11
394.2220637584
 21
277.9598442904
  0
LINE
  8
0
 62
7
  6
CONTINUOUS
 10
393.9220637584
 20
278.8754262679
 11
394.2220637584
 21
278.8754262679
  0
LINE
  8
0
 62
7
  6
CONTINUOUS
 10
393.9220637584
 20
279.3455693376
 11
394.2220637584
 21
279.3455693376
  0
LINE
  8
0
 62
7
  6
CONTINUOUS
 10
393.9220637584
 20
279.5199628675
 11
394.2220637584
 21
279.5199628675
  0
LINE
  8
0
 62
7
  6
CONTINUOUS
 10
393.9220637584
 20
279.8936069074
 11
394.2220637584
 21
279.8936069074
  0
LINE
  8
0
 62
7
  6
CONTINUOUS
 10
393.9220637584
 20
280.219001414
 11
394.2220637584
 21
280.219001414
  0
LINE
  8
0
 62
7
  6
CONTINUOUS
 10
393.9220637584
 20
281.2261415829
 11
394.2220637584
 21
281.2261415829
  0
LINE
  8
0
 62
7
  6
CONTINUOUS
 10
393.9220637584
 20
281.6962847535
 11
394.2220637584
 21
281.6962847535
  0
LINE
  8
0
 62
7
  6
CONTINUOUS
 10
393.9220637584
 20
282.7381920811
 11
394.2220637584
 21
282.7381920811
  0
LINE
  8
0
 62
7
  6
CONTINUOUS
 10
393.9220637584
 20
283.1999674569
 11
394.2220637584
 21
283.1999674569
  0
LINE
  8
0
 62
7
  6
CONTINUOUS
 10
393.9220637584
 20
283.2370647307
 11
394.2220637584
 21
283.2370647307
  0
LINE
  8
0
 62
7
  6
CONTINUOUS
 10
393.9220637584
 20
283.6125382586
 11
394.2220637584
 21
283.6125382586
  0
LINE
  8
0
 62
7
  6
CONTINUOUS
 10
393.9220637584
 20
284.0311629747
 11
394.2220637584
 21
284.0311629747
  0
LINE
  8
0
 62
7
  6
CONTINUOUS
 10
393.9220637584
 20
284.400583381
 11
394.2220637584
 21
284.400583381
  0
LINE
  8
0
 62
7
  6
CONTINUOUS
 10
393.9220637584
 20
284.6284442438
 11
394.2220637584
 21
284.6284442438
  0
LINE
  8
0
 62
7
  6
CONTINUOUS
 10
393.9220637584
 20
284.8071007968
 11
394.2220637584
 21
284.8071007968
  0
LINE
  8
0
 62
7
  6
CONTINUOUS
 10
393.9220637584
 20
284.8934021162
 11
394.2220637584
 21
284.8934021162
  0
POLYLINE
  8
0
 62
7
  6
CONTINUOUS
 66
1
 70
0
  0
VERTEX
  8
0
 62
7
  6
CONTINUOUS
 10
388.1447632595
 20
288.8494959294
  0
VERTEX
  8
0
 62
7
  6
CONTINUOUS
 10
388.0379112422
 20
288.8437886731
  0
VERTEX
  8
0
 62
7
  6
CONTINUOUS
 10
387.8851528505
 20
288.8153213943
  0
VERTEX
  8
0
 62
7
  6
CONTINUOUS
 10
387.739776089
 20
288.7641242208
  0
VERTEX
  8
0
 62
7
  6
CONTINUOUS
 10
387.6092319344
 20
288.6946421556
  0
VERTEX
  8
0
 62
7
  6
CONTINUOUS
 10
387.4974183316
 20
288.612831708
  0
VERTEX
  8
0
 62
7
  6
CONTINUOUS
 10
387.4049793123
 20
288.5242596074
  0
VERTEX
  8
0
 62
7
  6
CONTINUOUS
 10
387.3311953824
 20
288.434088382
  0
VERTEX
  8
0
 62
7
  6
CONTINUOUS
 10
387.2741502791
 20
288.346468642
  0
VERTEX
  8
0
 62
7
  6
CONTINUOUS
 10
387.2309487981
 20
288.2636734904
  0
VERTEX
  8
0
 62
7
  6
CONTINUOUS
 10
387.1990652811
 20
288.1876821566
  0
VERTEX
  8
0
 62
7
  6
CONTINUOUS
 10
387.1761975337
 20
288.1202282004
  0
VERTEX
  8
0
 62
7
  6
CONTINUOUS
 10
387.1627905926
 20
288.0726701117
  0
SEQEND
  0
LINE
  8
0
 62
7
  6
CONTINUOUS
 10
393.9220637584
 20
286.121530903
 11
394.2220637584
 21
286.121530903
  0
LINE
  8
0
 62
7
  6
CONTINUOUS
 10
393.9220637584
 20
286.5775932693
 11
394.2220637584
 21
286.5775932693
  0
LINE
  8
0
 62
7
  6
CONTINUOUS
 10
393.9220637584
 20
286.6353227279
 11
394.2220637584
 21
286.6353227279
  0
LINE
  8
0
 62
7
  6
CONTINUOUS
 10
393.9220637584
 20
286.8922185684
 11
394.2220637584
 21
286.8922185684
  0
LINE
  8
0
 62
7
  6
CONTINUOUS
 10
393.9220637584
 20
287.3482809347
 11
394.2220637584
 21
287.3482809347
  0
LINE
  8
0
 62
7
  6
CONTINUOUS
 10
388.144758212
 20
288.8494959661
 11
392.6993693047
 21
288.8494959661
  0
LINE
  8
0
 62
7
  6
CONTINUOUS
 10
393.9220637584
 20
289.9657670919
 11
394.2220637584
 21
289.9657670919
  0
LINE
  8
0
 62
7
  6
CONTINUOUS
 10
393.9220637584
 20
292.691147974
 11
394.2220637584
 21
292.691147974
  0
LINE
  8
0
 62
7
  6
CONTINUOUS
 10
393.9220637584
 20
293.2151395508
 11
394.2220637584
 21
293.2151395508
  0
LINE
  8
0
 62
7
  6
CONTINUOUS
 10
393.9220637584
 20
293.4576375158
 11
394.2220637584
 21
293.4576375158
  0
LINE
  8
0
 62
7
  6
CONTINUOUS
 10
394.9220637584
 20
346.5793624161
 11
393.9220637584
 21
348.3114132237
  0
LINE
  8
0
 62
7
  6
CONTINUOUS
 10
393.9220637584
 20
294.8254721984
 11
394.2220637584
 21
294.8254721984
  0
LINE
  8
0
 62
7
  6
CONTINUOUS
 10
393.9220637584
 20
295.1295292153
 11
394.2220637584
 21
295.1295292153
  0
LINE
  8
0
 62
7
  6
CONTINUOUS
 10
393.9220637584
 20
296.3261117779
 11
394.2220637584
 21
296.3261117779
  0
LINE
  8
0
 62
7
  6
CONTINUOUS
 10
393.9220637584
 20
296.3312436877
 11
394.2220637584
 21
296.3312436877
  0
LINE
  8
0
 62
7
  6
CONTINUOUS
 10
393.9220637584
 20
296.501596526
 11
394.2220637584
 21
296.501596526
  0
LINE
  8
0
 62
7
  6
CONTINUOUS
 10
393.9220637584
 20
297.0031102978
 11
394.2220637584
 21
297.0031102978
  0
LINE
  8
0
 62
7
  6
CONTINUOUS
 10
393.9220637584
 20
297.2274031248
 11
394.2220637584
 21
297.2274031248
  0
LINE
  8
0
 62
7
  6
CONTINUOUS
 10
393.9220637584
 20
297.7882114097
 11
394.2220637584
 21
297.7882114097
  0
LINE
  8
0
 62
7
  6
CONTINUOUS
 10
393.9220637584
 20
297.958564248
 11
394.2220637584
 21
297.958564248
  0
LINE
  8
0
 62
7
  6
CONTINUOUS
 10
393.9220637584
 20
298.2125035305
 11
394.2220637584
 21
298.2125035305
  0
LINE
  8
0
 62
7
  6
CONTINUOUS
 10
393.9220637584
 20
298.5500289015
 11
394.2220637584
 21
298.5500289015
  0
LINE
  8
0
 62
7
  6
CONTINUOUS
 10
393.9220637584
 20
299.1383111584
 11
394.2220637584
 21
299.1383111584
  0
LINE
  8
0
 62
7
  6
CONTINUOUS
 10
393.9220637584
 20
299.5996219499
 11
394.2220637584
 21
299.5996219499
  0
LINE
  8
0
 62
7
  6
CONTINUOUS
 10
393.9220637584
 20
299.9974498784
 11
394.2220637584
 21
299.9974498784
  0
LINE
  8
0
 62
7
  6
CONTINUOUS
 10
393.9220637584
 20
300.4153773839
 11
394.2220637584
 21
300.4153773839
  0
LINE
  8
0
 62
7
  6
CONTINUOUS
 10
393.9220637584
 20
300.7698220263
 11
394.2220637584
 21
300.7698220263
  0
LINE
  8
0
 62
7
  6
CONTINUOUS
 10
393.9220637584
 20
300.913708937
 11
394.2220637584
 21
300.913708937
  0
LINE
  8
0
 62
7
  6
CONTINUOUS
 10
393.9220637584
 20
302.5866137406
 11
394.2220637584
 21
302.5866137406
  0
LINE
  8
0
 62
7
  6
CONTINUOUS
 10
393.9220637584
 20
303.3135278526
 11
394.2220637584
 21
303.3135278526
  0
LINE
  8
0
 62
7
  6
CONTINUOUS
 10
393.9220637584
 20
305.3327343354
 11
394.2220637584
 21
305.3327343354
  0
LINE
  8
0
 62
7
  6
CONTINUOUS
 10
393.9220637584
 20
305.8173437433
 11
394.2220637584
 21
305.8173437433
  0
LINE
  8
0
 62
7
  6
CONTINUOUS
 10
393.9220637584
 20
306.6175572293
 11
394.2220637584
 21
306.6175572293
  0
LINE
  8
0
 62
7
  6
CONTINUOUS
 10
393.9220637584
 20
308.4846193801
 11
394.2220637584
 21
308.4846193801
  0
LINE
  8
0
 62
7
  6
CONTINUOUS
 10
393.9220637584
 20
308.8028449663
 11
394.2220637584
 21
308.8028449663
  0
LINE
  8
0
 62
7
  6
CONTINUOUS
 10
393.9220637584
 20
308.9017801576
 11
394.2220637584
 21
308.9017801576
  0
LINE
  8
0
 62
7
  6
CONTINUOUS
 10
393.9220637584
 20
310.3548417118
 11
394.2220637584
 21
310.3548417118
  0
LINE
  8
0
 62
7
  6
CONTINUOUS
 10
393.9220637584
 20
310.9753548107
 11
394.2220637584
 21
310.9753548107
  0
LINE
  8
0
 62
7
  6
CONTINUOUS
 10
393.9220637584
 20
313.6125356306
 11
394.2220637584
 21
313.6125356306
  0
LINE
  8
0
 62
7
  6
CONTINUOUS
 10
393.9220637584
 20
314.0003562835
 11
394.2220637584
 21
314.0003562835
  0
LINE
  8
0
 62
7
  6
CONTINUOUS
 10
393.9220637584
 20
316.8520388489
 11
394.2220637584
 21
316.8520388489
  0
LINE
  8
0
 62
7
  6
CONTINUOUS
 10
393.9220637584
 20
316.9444783164
 11
394.2220637584
 21
316.9444783164
  0
LINE
  8
0
 62
7
  6
CONTINUOUS
 10
393.9220637584
 20
317.9164141599
 11
394.2220637584
 21
317.9164141599
  0
LINE
  8
0
 62
7
  6
CONTINUOUS
 10
393.9220637584
 20
318.3292757294
 11
394.2220637584
 21
318.3292757294
  0
LINE
  8
0
 62
7
  6
CONTINUOUS
 10
393.9220637584
 20
318.5266176921
 11
394.2220637584
 21
318.5266176921
  0
LINE
  8
0
 62
7
  6
CONTINUOUS
 10
393.9220637584
 20
319.0536864878
 11
394.2220637584
 21
319.0536864878
  0
LINE
  8
0
 62
7
  6
CONTINUOUS
 10
393.9220637584
 20
319.6316144583
 11
394.2220637584
 21
319.6316144583
  0
POLYLINE
  8
0
 62
7
  6
CONTINUOUS
 66
1
 70
0
  0
VERTEX
  8
0
 62
7
  6
CONTINUOUS
 10
388.1583148134
 20
328.3291322348
  0
VERTEX
  8
0
 62
7
  6
CONTINUOUS
 10
388.0767160903
 20
328.3258031076
  0
VERTEX
  8
0
 62
7
  6
CONTINUOUS
 10
387.9332136253
 20
328.3035127313
  0
VERTEX
  8
0
 62
7
  6
CONTINUOUS
 10
387.8020648576
 20
328.2636469888
  0
VERTEX
  8
0
 62
7
  6
CONTINUOUS
 10
387.6849575641
 20
328.2102517462
  0
VERTEX
  8
0
 62
7
  6
CONTINUOUS
 10
387.5825058314
 20
328.1471487159
  0
VERTEX
  8
0
 62
7
  6
CONTINUOUS
 10
387.4943109004
 20
328.0775564083
  0
VERTEX
  8
0
 62
7
  6
CONTINUOUS
 10
387.4194835746
 20
328.0040954971
  0
VERTEX
  8
0
 62
7
  6
CONTINUOUS
 10
387.3567718295
 20
327.9286954204
  0
VERTEX
  8
0
 62
7
  6
CONTINUOUS
 10
387.3049683615
 20
327.8529383098
  0
VERTEX
  8
0
 62
7
  6
CONTINUOUS
 10
387.2631398601
 20
327.7786152898
  0
VERTEX
  8
0
 62
7
  6
CONTINUOUS
 10
387.2303151405
 20
327.7075991211
  0
VERTEX
  8
0
 62
7
  6
CONTINUOUS
 10
387.2056793289
 20
327.6426300684
  0
VERTEX
  8
0
 62
7
  6
CONTINUOUS
 10
387.1879298016
 20
327.5858825555
  0
VERTEX
  8
0
 62
7
  6
CONTINUOUS
 10
387.1750069507
 20
327.5364189828
  0
VERTEX
  8
0
 62
7
  6
CONTINUOUS
 10
387.1645396826
 20
327.4889724183
  0
VERTEX
  8
0
 62
7
  6
CONTINUOUS
 10
387.1551559368
 20
327.4387982008
  0
VERTEX
  8
0
 62
7
  6
CONTINUOUS
 10
387.1464583953
 20
327.3842422921
  0
VERTEX
  8
0
 62
7
  6
CONTINUOUS
 10
387.1388800147
 20
327.3294632167
  0
SEQEND
  0
LINE
  8
0
 62
7
  6
CONTINUOUS
 10
393.9220637584
 20
320.0456218641
 11
394.2220637584
 21
320.0456218641
  0
LINE
  8
0
 62
7
  6
CONTINUOUS
 10
393.9220637584
 20
320.3112577387
 11
394.2220637584
 21
320.3112577387
  0
LINE
  8
0
 62
7
  6
CONTINUOUS
 10
393.9220637584
 20
320.5613445796
 11
394.2220637584
 21
320.5613445796
  0
LINE
  8
0
 62
7
  6
CONTINUOUS
 10
393.9220637584
 20
320.6475078156
 11
394.2220637584
 21
320.6475078156
  0
LINE
  8
0
 62
7
  6
CONTINUOUS
 10
388.1583104319
 20
328.3291322407
 11
392.6858170849
 21
328.3291322407
  0
LINE
  8
0
 62
7
  6
CONTINUOUS
 10
393.9220637584
 20
328.91649481
 11
394.2220637584
 21
328.91649481
  0
LINE
  8
AXES
 62
7
  6
CONTINUOUS
 10
371.2720637584
 20
331.5793624161
 11
381.9220637584
 21
331.5793624161
  0
LINE
  8
AXES
 62
7
  6
CONTINUOUS
 10
398.9220637584
 20
331.5793624161
 11
409.5720637584
 21
331.5793624161
  0
LINE
  8
0
 62
7
  6
CONTINUOUS
 10
393.9220637584
 20
333.3803715026
 11
394.2220637584
 21
333.3803715026
  0
LINE
  8
0
 62
7
  6
CONTINUOUS
 10
393.9220637584
 20
334.5066268992
 11
394.2220637584
 21
334.5066268992
  0
LINE
  8
0
 62
7
  6
CONTINUOUS
 10
393.9220637584
 20
334.6462880677
 11
394.2220637584
 21
334.6462880677
  0
LINE
  8
0
 62
7
  6
CONTINUOUS
 10
393.9220637584
 20
336.2584219238
 11
394.2220637584
 21
336.2584219238
  0
LINE
  8
0
 62
7
  6
CONTINUOUS
 10
393.9220637584
 20
336.6007272435
 11
394.2220637584
 21
336.6007272435
  0
LINE
  8
0
 62
7
  6
CONTINUOUS
 10
393.9220637584
 20
337.0175669208
 11
394.2220637584
 21
337.0175669208
  0
LINE
  8
0
 62
7
  6
CONTINUOUS
 10
393.9220637584
 20
337.5286206035
 11
394.2220637584
 21
337.5286206035
  0
LINE
  8
0
 62
7
  6
CONTINUOUS
 10
393.9220637584
 20
338.018091921
 11
394.2220637584
 21
338.018091921
  0
LINE
  8
0
 62
7
  6
CONTINUOUS
 10
393.9220637584
 20
338.3099575142
 11
394.2220637584
 21
338.3099575142
  0
LINE
  8
0
 62
7
  6
CONTINUOUS
 10
393.9220637584
 20
338.4644020431
 11
394.2220637584
 21
338.4644020431
  0
LINE
  8
0
 62
7
  6
CONTINUOUS
 10
393.9220637584
 20
338.558658377
 11
394.2220637584
 21
338.558658377
  0
POLYLINE
  8
0
 62
7
  6
CONTINUOUS
 66
1
 70
0
  0
VERTEX
  8
0
 62
7
  6
CONTINUOUS
 10
388.1668805729
 20
353.307854494
  0
VERTEX
  8
0
 62
7
  6
CONTINUOUS
 10
388.1258198513
 20
353.307011488
  0
VERTEX
  8
0
 62
7
  6
CONTINUOUS
 10
388.0051159378
 20
353.2946893353
  0
VERTEX
  8
0
 62
7
  6
CONTINUOUS
 10
387.8938247602
 20
353.2698692584
  0
VERTEX
  8
0
 62
7
  6
CONTINUOUS
 10
387.7920688129
 20
353.2349893905
  0
VERTEX
  8
0
 62
7
  6
CONTINUOUS
 10
387.699611454
 20
353.1920282846
  0
VERTEX
  8
0
 62
7
  6
CONTINUOUS
 10
387.616254966
 20
353.1426992188
  0
VERTEX
  8
0
 62
7
  6
CONTINUOUS
 10
387.5419260531
 20
353.0886534199
  0
VERTEX
  8
0
 62
7
  6
CONTINUOUS
 10
387.4763639184
 20
353.0313695403
  0
VERTEX
  8
0
 62
7
  6
CONTINUOUS
 10
387.4190652107
 20
352.9720418485
  0
VERTEX
  8
0
 62
7
  6
CONTINUOUS
 10
387.3693907993
 20
352.9115800605
  0
VERTEX
  8
0
 62
7
  6
CONTINUOUS
 10
387.3267581655
 20
352.8508020644
  0
VERTEX
  8
0
 62
7
  6
CONTINUOUS
 10
387.2907092666
 20
352.7906311203
  0
VERTEX
  8
0
 62
7
  6
CONTINUOUS
 10
387.2607403114
 20
352.7319420908
  0
VERTEX
  8
0
 62
7
  6
CONTINUOUS
 10
387.2363207868
 20
352.6756126318
  0
VERTEX
  8
0
 62
7
  6
CONTINUOUS
 10
387.2168992223
 20
352.6225794526
  0
VERTEX
  8
0
 62
7
  6
CONTINUOUS
 10
387.2019298474
 20
352.5739998913
  0
VERTEX
  8
0
 62
7
  6
CONTINUOUS
 10
387.190792113
 20
352.5310697845
  0
VERTEX
  8
0
 62
7
  6
CONTINUOUS
 10
387.1825521678
 20
352.4936347127
  0
VERTEX
  8
0
 62
7
  6
CONTINUOUS
 10
387.1760512485
 20
352.4592335255
  0
VERTEX
  8
0
 62
7
  6
CONTINUOUS
 10
387.1703361219
 20
352.4244302891
  0
VERTEX
  8
0
 62
7
  6
CONTINUOUS
 10
387.1650643347
 20
352.3880948829
  0
SEQEND
  0
LINE
  8
0
 62
7
  6
CONTINUOUS
 10
388.1668801948
 20
353.3078545008
 11
392.677247322
 21
353.3078545008
  0
LINE
  8
AXES
 62
7
  6
CONTINUOUS
 10
388.1692503987
 20
360.2223624161
 11
392.6748771181
 21
360.2223624161
  0
ARC
  8
0
 62
7
  6
CONTINUOUS
 10
56.4243934411
 20
213.6214354161
 40
8.5
 50
33.1618141655
 51
87.0
  0
ARC
  8
0
 62
7
  6
CONTINUOUS
 10
72.747098969
 20
167.4775072973
 40
8.5
 50
55.6618141655
 51
109.5
  0
ARC
  8
0
 62
7
  6
CONTINUOUS
 10
59.0026966839
 20
200.6594297005
 40
8.5
 50
295.5
 51
349.3381858345
  0
ARC
  8
0
 62
7
  6
CONTINUOUS
 10
105.4858293168
 20
131.0925055355
 40
8.5
 50
78.1618141655
 51
132.0
  0
ARC
  8
0
 62
7
  6
CONTINUOUS
 10
80.0894854013
 20
156.488849451
 40
8.5
 50
318.0
 51
11.8381858345
  0
ARC
  8
0
 62
7
  6
CONTINUOUS
 10
149.6564095663
 20
110.0057168182
 40
8.5
 50
100.6618141655
 51
154.5
  0
ARC
  8
0
 62
7
  6
CONTINUOUS
 10
116.474487163
 20
123.7501191032
 40
8.5
 50
340.5
 51
34.3381858345
  0
ARC
  8
0
 62
7
  6
CONTINUOUS
 10
162.6184152819
 20
107.4274135753
 40
8.5
 50
3.0
 51
56.8381858345
  0
ARC
  8
DEFAULT_3
 62
2
  6
PHANTOM
 10
174.1812958996
 20
205.1646541513
 40
3.2
 50
2.2544307753
 51
45.0
  0
ARC
  8
DEFAULT_3
 62
2
  6
PHANTOM
 10
169.9386552125
 20
209.4072948385
 40
3.2
 50
45.0
 51
86.4096221093
  0
ARC
  8
DEFAULT_3
 62
2
  6
PHANTOM
 10
170.3394418528
 20
215.7947332976
 40
3.2
 50
225.0
 51
266.4096221093
  0
ARC
  8
DEFAULT_3
 62
2
  6
PHANTOM
 10
164.7917131633
 20
221.342461987
 40
3.2
 50
183.5903778907
 51
225.0
  0
ARC
  8
DEFAULT_3
 62
2
  6
PHANTOM
 10
158.4042747042
 20
220.9416753468
 40
3.2
 50
3.5903778907
 51
45.0
  0
ARC
  8
DEFAULT_3
 62
2
  6
PHANTOM
 10
154.1616340171
 20
225.1843160339
 40
3.2
 50
45.0
 51
87.7455692247
  0
ARC
  8
0
 62
7
  6
CONTINUOUS
 10
53.6728259831
 20
223.7793624161
 40
1.5
 50
183.5172041441
 51
267.0
  0
ARC
  8
0
 62
7
  6
CONTINUOUS
 10
66.3177117422
 20
175.8092288661
 40
1.5
 50
206.0172041441
 51
289.5
  0
ARC
  8
0
 62
7
  6
CONTINUOUS
 10
60.3478501973
 20
190.2217495733
 40
1.5
 50
115.5
 51
198.9827958559
  0
ARC
  8
0
 62
7
  6
CONTINUOUS
 10
96.3574382438
 20
136.3295925916
 40
1.5
 50
228.5172041441
 51
312.0
  0
ARC
  8
0
 62
7
  6
CONTINUOUS
 10
85.3265724573
 20
147.3604583781
 40
1.5
 50
138.0
 51
221.4827958559
  0
ARC
  8
0
 62
7
  6
CONTINUOUS
 10
139.218729439
 20
111.3508703315
 40
1.5
 50
251.0172041441
 51
334.5
  0
ARC
  8
0
 62
7
  6
CONTINUOUS
 10
124.8062087319
 20
117.3207318764
 40
1.5
 50
160.5
 51
243.9827958559
  0
ARC
  8
0
 62
7
  6
CONTINUOUS
 10
172.7763422819
 20
104.6758461173
 40
1.5
 50
183.0
 51
266.4827958559
  0
ARC
  8
0
 62
7
  6
CONTINUOUS
 10
62.7028614005
 20
217.7239761024
 40
1.0
 50
6.7040440996
 51
33.1618141655
  0
ARC
  8
0
 62
7
  6
CONTINUOUS
 10
76.977672661
 20
173.6704263373
 40
1.0
 50
29.2040440996
 51
55.6618141655
  0
ARC
  8
0
 62
7
  6
CONTINUOUS
 10
66.3732190784
 20
199.2718419979
 40
1.0
 50
349.3381858345
 51
15.7959559004
  0
ARC
  8
0
 62
7
  6
CONTINUOUS
 10
107.024442247
 20
138.4329871444
 40
1.0
 50
51.7040440996
 51
78.1618141655
  0
ARC
  8
0
 62
7
  6
CONTINUOUS
 10
87.4299670102
 20
158.0274623812
 40
1.0
 50
11.8381858345
 51
38.2959559004
  0
ARC
  8
0
 62
7
  6
CONTINUOUS
 10
148.2688218637
 20
117.3762392127
 40
1.0
 50
74.2040440996
 51
100.6618141655
  0
ARC
  8
0
 62
7
  6
CONTINUOUS
 10
122.6674062031
 20
127.9806927952
 40
1.0
 50
34.3381858345
 51
60.7959559004
  0
ARC
  8
0
 62
7
  6
CONTINUOUS
 10
166.7209559681
 20
113.7058815347
 40
1.0
 50
56.8381858345
 51
83.2959559004
  0
ARC
  8
0
 62
7
  6
CONTINUOUS
 10
162.6184152819
 20
355.731311257
 40
8.5
 50
303.1618141655
 51
357.0
  0
ARC
  8
0
 62
7
  6
CONTINUOUS
 10
116.474487163
 20
339.408605729
 40
8.5
 50
325.6618141655
 51
19.5
  0
ARC
  8
0
 62
7
  6
CONTINUOUS
 10
149.6564095663
 20
353.1530080141
 40
8.5
 50
205.5
 51
259.3381858345
  0
ARC
  8
0
 62
7
  6
CONTINUOUS
 10
80.0894854013
 20
306.6698753813
 40
8.5
 50
348.1618141655
 51
42.0
  0
ARC
  8
0
 62
7
  6
CONTINUOUS
 10
105.4858293168
 20
332.0662192968
 40
8.5
 50
228.0
 51
281.8381858345
  0
ARC
  8
0
 62
7
  6
CONTINUOUS
 10
59.0026966839
 20
262.4992951317
 40
8.5
 50
10.6618141655
 51
64.5
  0
ARC
  8
0
 62
7
  6
CONTINUOUS
 10
72.747098969
 20
295.681217535
 40
8.5
 50
250.5
 51
304.3381858345
  0
ARC
  8
0
 62
7
  6
CONTINUOUS
 10
56.4243934411
 20
249.5372894161
 40
8.5
 50
273.0
 51
326.8381858345
  0
ARC
  8
DEFAULT_3
 62
2
  6
PHANTOM
 10
154.413391378
 20
231.5793624161
 40
3.2
 50
92.2544307753
 51
267.7455692247
  0
ARC
  8
DEFAULT_3
 62
2
  6
PHANTOM
 10
154.1616340171
 20
237.9744087984
 40
3.2
 50
272.2544307753
 51
315.0
  0
ARC
  8
DEFAULT_3
 62
2
  6
PHANTOM
 10
158.4042747042
 20
242.2170494855
 40
3.2
 50
315.0
 51
356.4096221093
  0
ARC
  8
DEFAULT_3
 62
2
  6
PHANTOM
 10
164.7917131633
 20
241.8162628452
 40
3.2
 50
135.0
 51
176.4096221093
  0
ARC
  8
DEFAULT_3
 62
2
  6
PHANTOM
 10
170.3394418528
 20
247.3639915347
 40
3.2
 50
93.5903778907
 51
135.0
  0
ARC
  8
DEFAULT_3
 62
2
  6
PHANTOM
 10
169.9386552125
 20
253.7514299938
 40
3.2
 50
273.5903778907
 51
315.0
  0
ARC
  8
DEFAULT_3
 62
2
  6
PHANTOM
 10
174.1812958996
 20
257.9940706809
 40
3.2
 50
315.0
 51
357.7455692247
  0
ARC
  8
0
 62
7
  6
CONTINUOUS
 10
172.7763422819
 20
358.4828787149
 40
1.5
 50
93.5172041441
 51
177.0
  0
ARC
  8
0
 62
7
  6
CONTINUOUS
 10
124.8062087319
 20
345.8379929559
 40
1.5
 50
116.0172041441
 51
199.5
  0
ARC
  8
0
 62
7
  6
CONTINUOUS
 10
139.218729439
 20
351.8078545008
 40
1.5
 50
25.5
 51
108.9827958559
  0
ARC
  8
0
 62
7
  6
CONTINUOUS
 10
85.3265724573
 20
315.7982664542
 40
1.5
 50
138.5172041441
 51
222.0
  0
ARC
  8
0
 62
7
  6
CONTINUOUS
 10
96.3574382438
 20
326.8291322407
 40
1.5
 50
48.0
 51
131.4827958559
  0
ARC
  8
0
 62
7
  6
CONTINUOUS
 10
60.3478501973
 20
272.936975259
 40
1.5
 50
161.0172041441
 51
244.5
  0
ARC
  8
0
 62
7
  6
CONTINUOUS
 10
66.3177117422
 20
287.3494959661
 40
1.5
 50
70.5
 51
153.9827958559
  0
ARC
  8
0
 62
7
  6
CONTINUOUS
 10
53.6728259831
 20
239.3793624161
 40
1.5
 50
93.0
 51
176.4827958559
  0
ARC
  8
0
 62
7
  6
CONTINUOUS
 10
166.7209559681
 20
349.4528432975
 40
1.0
 50
276.7040440996
 51
303.1618141655
  0
ARC
  8
0
 62
7
  6
CONTINUOUS
 10
122.6674062031
 20
335.178032037
 40
1.0
 50
299.2040440996
 51
325.6618141655
  0
ARC
  8
0
 62
7
  6
CONTINUOUS
 10
148.2688218637
 20
345.7824856196
 40
1.0
 50
259.3381858345
 51
285.7959559004
  0
ARC
  8
0
 62
7
  6
CONTINUOUS
 10
87.4299670102
 20
305.131262451
 40
1.0
 50
321.7040440996
 51
348.1618141655
  0
ARC
  8
0
 62
7
  6
CONTINUOUS
 10
107.024442247
 20
324.7257376878
 40
1.0
 50
281.8381858345
 51
308.2959559004
  0
ARC
  8
0
 62
7
  6
CONTINUOUS
 10
66.3732190784
 20
263.8868828344
 40
1.0
 50
344.2040440996
 51
10.6618141655
  0
ARC
  8
0
 62
7
  6
CONTINUOUS
 10
76.977672661
 20
289.4882984949
 40
1.0
 50
304.3381858345
 51
330.7959559004
  0
ARC
  8
0
 62
7
  6
CONTINUOUS
 10
62.7028614005
 20
245.4347487299
 40
1.0
 50
326.8381858345
 51
353.2959559004
  0
ARC
  8
0
 62
7
  6
CONTINUOUS
 10
198.5342692819
 20
107.4274135753
 40
8.5
 50
123.1618141655
 51
177.0
  0
ARC
  8
0
 62
7
  6
CONTINUOUS
 10
244.6781974007
 20
123.7501191032
 40
8.5
 50
145.6618141655
 51
199.5
  0
ARC
  8
0
 62
7
  6
CONTINUOUS
 10
211.4962749975
 20
110.0057168182
 40
8.5
 50
25.5
 51
79.3381858345
  0
ARC
  8
0
 62
7
  6
CONTINUOUS
 10
281.0631991625
 20
156.488849451
 40
8.5
 50
168.1618141655
 51
222.0
  0
ARC
  8
0
 62
7
  6
CONTINUOUS
 10
255.666855247
 20
131.0925055355
 40
8.5
 50
48.0
 51
101.8381858345
  0
ARC
  8
0
 62
7
  6
CONTINUOUS
 10
302.1499878798
 20
200.6594297005
 40
8.5
 50
190.6618141655
 51
244.5
  0
ARC
  8
0
 62
7
  6
CONTINUOUS
 10
288.4055855948
 20
167.4775072973
 40
8.5
 50
70.5
 51
124.3381858345
  0
ARC
  8
0
 62
7
  6
CONTINUOUS
 10
304.7282911227
 20
213.6214354161
 40
8.5
 50
93.0
 51
146.8381858345
  0
ARC
  8
DEFAULT_3
 62
2
  6
PHANTOM
 10
206.9910505467
 20
225.1843160339
 40
3.2
 50
92.2544307753
 51
135.0
  0
ARC
  8
DEFAULT_3
 62
2
  6
PHANTOM
 10
202.7484098596
 20
220.9416753468
 40
3.2
 50
135.0
 51
176.4096221093
  0
ARC
  8
DEFAULT_3
 62
2
  6
PHANTOM
 10
196.3609714004
 20
221.342461987
 40
3.2
 50
315.0
 51
356.4096221093
  0
ARC
  8
DEFAULT_3
 62
2
  6
PHANTOM
 10
190.813242711
 20
215.7947332976
 40
3.2
 50
273.5903778907
 51
315.0
  0
ARC
  8
DEFAULT_3
 62
2
  6
PHANTOM
 10
191.2140293513
 20
209.4072948385
 40
3.2
 50
93.5903778907
 51
135.0
  0
ARC
  8
DEFAULT_3
 62
2
  6
PHANTOM
 10
186.9713886641
 20
205.1646541513
 40
3.2
 50
135.0
 51
177.7455692247
  0
ARC
  8
DEFAULT_3
 62
2
  6
PHANTOM
 10
180.5763422819
 20
205.4164115122
 40
3.2
 50
182.2544307753
 51
357.7455692247
  0
ARC
  8
0
 62
7
  6
CONTINUOUS
 10
188.3763422819
 20
104.6758461173
 40
1.5
 50
273.5172041441
 51
357.0
  0
ARC
  8
0
 62
7
  6
CONTINUOUS
 10
236.3464758319
 20
117.3207318764
 40
1.5
 50
296.0172041441
 51
19.5
  0
ARC
  8
0
 62
7
  6
CONTINUOUS
 10
221.9339551247
 20
111.3508703315
 40
1.5
 50
205.5
 51
288.9827958559
  0
ARC
  8
0
 62
7
  6
CONTINUOUS
 10
275.8261121064
 20
147.3604583781
 40
1.5
 50
318.5172041441
 51
42.0
  0
ARC
  8
0
 62
7
  6
CONTINUOUS
 10
264.7952463199
 20
136.3295925916
 40
1.5
 50
228.0
 51
311.4827958559
  0
ARC
  8
0
 62
7
  6
CONTINUOUS
 10
300.8048343665
 20
190.2217495733
 40
1.5
 50
341.0172041441
 51
64.5
  0
ARC
  8
0
 62
7
  6
CONTINUOUS
 10
294.8349728216
 20
175.8092288661
 40
1.5
 50
250.5
 51
333.9827958559
  0
ARC
  8
0
 62
7
  6
CONTINUOUS
 10
307.4798585807
 20
223.7793624161
 40
1.5
 50
273.0
 51
356.4827958559
  0
ARC
  8
0
 62
7
  6
CONTINUOUS
 10
194.4317285956
 20
113.7058815347
 40
1.0
 50
96.7040440996
 51
123.1618141655
  0
ARC
  8
0
 62
7
  6
CONTINUOUS
 10
238.4852783607
 20
127.9806927952
 40
1.0
 50
119.2040440996
 51
145.6618141655
  0
ARC
  8
0
 62
7
  6
CONTINUOUS
 10
212.8838627001
 20
117.3762392127
 40
1.0
 50
79.3381858345
 51
105.7959559004
  0
ARC
  8
0
 62
7
  6
CONTINUOUS
 10
273.7227175536
 20
158.0274623812
 40
1.0
 50
141.7040440996
 51
168.1618141655
  0
ARC
  8
0
 62
7
  6
CONTINUOUS
 10
254.1282423168
 20
138.4329871444
 40
1.0
 50
101.8381858345
 51
128.2959559004
  0
ARC
  8
0
 62
7
  6
CONTINUOUS
 10
294.7794654853
 20
199.2718419979
 40
1.0
 50
164.2040440996
 51
190.6618141655
  0
ARC
  8
0
 62
7
  6
CONTINUOUS
 10
284.1750119028
 20
173.6704263373
 40
1.0
 50
124.3381858345
 51
150.7959559004
  0
ARC
  8
0
 62
7
  6
CONTINUOUS
 10
298.4498231633
 20
217.7239761024
 40
1.0
 50
146.8381858345
 51
173.2959559004
  0
ARC
  8
0
 62
7
  6
CONTINUOUS
 10
180.5763422819
 20
231.5793624161
 40
128.643
 50
333.9827958559
 51
341.0172041441
  0
ARC
  8
0
 62
7
  6
CONTINUOUS
 10
180.5763422819
 20
231.5793624161
 40
128.643
 50
311.4827958559
 51
318.5172041441
  0
ARC
  8
0
 62
7
  6
CONTINUOUS
 10
180.5763422819
 20
231.5793624161
 40
128.643
 50
288.9827958559
 51
296.0172041441
  0
ARC
  8
0
 62
7
  6
CONTINUOUS
 10
180.5763422819
 20
231.5793624161
 40
128.643
 50
266.4827958559
 51
273.5172041441
  0
ARC
  8
0
 62
7
  6
CONTINUOUS
 10
180.5763422819
 20
231.5793624161
 40
128.643
 50
243.9827958559
 51
251.0172041441
  0
ARC
  8
0
 62
7
  6
CONTINUOUS
 10
180.5763422819
 20
231.5793624161
 40
128.643
 50
221.4827958559
 51
228.5172041441
  0
ARC
  8
0
 62
7
  6
CONTINUOUS
 10
180.5763422819
 20
231.5793624161
 40
128.643
 50
86.4827958559
 51
93.5172041441
  0
ARC
  8
0
 62
7
  6
CONTINUOUS
 10
180.5763422819
 20
231.5793624161
 40
128.643
 50
108.9827958559
 51
116.0172041441
  0
ARC
  8
0
 62
7
  6
CONTINUOUS
 10
180.5763422819
 20
231.5793624161
 40
128.643
 50
131.4827958559
 51
138.5172041441
  0
ARC
  8
0
 62
7
  6
CONTINUOUS
 10
180.5763422819
 20
231.5793624161
 40
128.643
 50
153.9827958559
 51
161.0172041441
  0
ARC
  8
0
 62
7
  6
CONTINUOUS
 10
180.5763422819
 20
231.5793624161
 40
128.643
 50
176.4827958559
 51
183.5172041441
  0
ARC
  8
0
 62
7
  6
CONTINUOUS
 10
180.5763422819
 20
231.5793624161
 40
128.643
 50
198.9827958559
 51
206.0172041441
  0
ARC
  8
0
 62
7
  6
CONTINUOUS
 10
180.5763422819
 20
231.5793624161
 40
128.643
 50
18.9827958559
 51
26.0172041441
  0
ARC
  8
0
 62
7
  6
CONTINUOUS
 10
180.5763422819
 20
231.5793624161
 40
128.643
 50
356.4827958559
 51
3.5172041441
  0
ARC
  8
0
 62
7
  6
CONTINUOUS
 10
180.5763422819
 20
231.5793624161
 40
128.643
 50
41.4827958559
 51
48.5172041441
  0
ARC
  8
0
 62
7
  6
CONTINUOUS
 10
180.5763422819
 20
231.5793624161
 40
128.643
 50
63.9827958559
 51
71.0172041441
  0
ARC
  8
0
 62
7
  6
CONTINUOUS
 10
180.5763422819
 20
231.5793624161
 40
117.685
 50
96.7040440996
 51
105.7959559004
  0
ARC
  8
0
 62
7
  6
CONTINUOUS
 10
180.5763422819
 20
231.5793624161
 40
117.685
 50
74.2040440996
 51
83.2959559004
  0
ARC
  8
0
 62
7
  6
CONTINUOUS
 10
180.5763422819
 20
231.5793624161
 40
117.685
 50
119.2040440996
 51
128.2959559004
  0
ARC
  8
0
 62
7
  6
CONTINUOUS
 10
180.5763422819
 20
231.5793624161
 40
117.685
 50
141.7040440996
 51
150.7959559004
  0
ARC
  8
0
 62
7
  6
CONTINUOUS
 10
180.5763422819
 20
231.5793624161
 40
117.685
 50
164.2040440996
 51
173.2959559004
  0
ARC
  8
0
 62
7
  6
CONTINUOUS
 10
180.5763422819
 20
231.5793624161
 40
117.685
 50
186.7040440996
 51
195.7959559004
  0
ARC
  8
0
 62
7
  6
CONTINUOUS
 10
180.5763422819
 20
231.5793624161
 40
117.685
 50
209.2040440996
 51
218.2959559004
  0
ARC
  8
0
 62
7
  6
CONTINUOUS
 10
180.5763422819
 20
231.5793624161
 40
117.685
 50
231.7040440996
 51
240.7959559004
  0
ARC
  8
0
 62
7
  6
CONTINUOUS
 10
180.5763422819
 20
231.5793624161
 40
117.685
 50
254.2040440996
 51
263.2959559004
  0
ARC
  8
0
 62
7
  6
CONTINUOUS
 10
180.5763422819
 20
231.5793624161
 40
117.685
 50
276.7040440996
 51
285.7959559004
  0
ARC
  8
0
 62
7
  6
CONTINUOUS
 10
180.5763422819
 20
231.5793624161
 40
117.685
 50
299.2040440996
 51
308.2959559004
  0
ARC
  8
0
 62
7
  6
CONTINUOUS
 10
180.5763422819
 20
231.5793624161
 40
117.685
 50
321.7040440996
 51
330.7959559004
  0
ARC
  8
0
 62
7
  6
CONTINUOUS
 10
180.5763422819
 20
231.5793624161
 40
117.685
 50
51.7040440996
 51
60.7959559004
  0
ARC
  8
0
 62
7
  6
CONTINUOUS
 10
180.5763422819
 20
231.5793624161
 40
117.685
 50
344.2040440996
 51
353.2959559004
  0
ARC
  8
0
 62
7
  6
CONTINUOUS
 10
180.5763422819
 20
231.5793624161
 40
117.685
 50
6.7040440996
 51
15.7959559004
  0
ARC
  8
0
 62
7
  6
CONTINUOUS
 10
180.5763422819
 20
231.5793624161
 40
117.685
 50
29.2040440996
 51
38.2959559004
  0
CIRCLE
  8
AXES
 62
7
  6
CONTINUOUS
 10
180.5763422819
 20
231.5793624161
 40
100.0
  0
CIRCLE
  8
DEFAULT_3
 62
2
  6
PHANTOM
 10
180.5763422819
 20
231.5793624161
 40
9.0
  0
ARC
  8
DEFAULT_3
 62
2
  6
PHANTOM
 10
180.5763422819
 20
257.74231332
 40
3.2
 50
2.2544307753
 51
177.7455692247
  0
ARC
  8
DEFAULT_3
 62
2
  6
PHANTOM
 10
186.9713886641
 20
257.9940706809
 40
3.2
 50
182.2544307753
 51
225.0
  0
ARC
  8
DEFAULT_3
 62
2
  6
PHANTOM
 10
191.2140293513
 20
253.7514299938
 40
3.2
 50
225.0
 51
266.4096221093
  0
ARC
  8
DEFAULT_3
 62
2
  6
PHANTOM
 10
190.813242711
 20
247.3639915347
 40
3.2
 50
45.0
 51
86.4096221093
  0
ARC
  8
DEFAULT_3
 62
2
  6
PHANTOM
 10
206.9910505467
 20
237.9744087984
 40
3.2
 50
225.0
 51
267.7455692247
  0
ARC
  8
DEFAULT_3
 62
2
  6
PHANTOM
 10
206.7392931858
 20
231.5793624161
 40
3.2
 50
272.2544307753
 51
87.7455692247
  0
ARC
  8
DEFAULT_3
 62
2
  6
PHANTOM
 10
196.3609714004
 20
241.8162628452
 40
3.2
 50
3.5903778907
 51
45.0
  0
ARC
  8
DEFAULT_3
 62
2
  6
PHANTOM
 10
202.7484098596
 20
242.2170494855
 40
3.2
 50
183.5903778907
 51
225.0
  0
ARC
  8
0
 62
7
  6
CONTINUOUS
 10
198.5342692819
 20
355.731311257
 40
8.5
 50
183.0
 51
236.8381858345
  0
ARC
  8
0
 62
7
  6
CONTINUOUS
 10
211.4962749975
 20
353.1530080141
 40
8.5
 50
280.6618141655
 51
334.5
  0
CIRCLE
  8
0
 62
7
  6
CONTINUOUS
 10
180.5763422819
 20
346.5793624161
 40
1.7320508076
  0
ARC
  8
0
 62
7
  6
CONTINUOUS
 10
188.3763422819
 20
358.4828787149
 40
1.5
 50
3.0
 51
86.4827958559
  0
ARC
  8
0
 62
7
  6
CONTINUOUS
 10
236.3464758319
 20
345.8379929559
 40
1.5
 50
340.5
 51
63.9827958559
  0
ARC
  8
0
 62
7
  6
CONTINUOUS
 10
221.9339551247
 20
351.8078545008
 40
1.5
 50
71.0172041441
 51
154.5
  0
ARC
  8
0
 62
7
  6
CONTINUOUS
 10
194.4317285956
 20
349.4528432975
 40
1.0
 50
236.8381858345
 51
263.2959559004
  0
ARC
  8
0
 62
7
  6
CONTINUOUS
 10
238.4852783607
 20
335.178032037
 40
1.0
 50
214.3381858345
 51
240.7959559004
  0
ARC
  8
0
 62
7
  6
CONTINUOUS
 10
212.8838627001
 20
345.7824856196
 40
1.0
 50
254.2040440996
 51
280.6618141655
  0
ARC
  8
0
 62
7
  6
CONTINUOUS
 10
302.1499878798
 20
262.4992951317
 40
8.5
 50
115.5
 51
169.3381858345
  0
ARC
  8
0
 62
7
  6
CONTINUOUS
 10
304.7282911227
 20
249.5372894161
 40
8.5
 50
213.1618141655
 51
267.0
  0
ARC
  8
0
 62
7
  6
CONTINUOUS
 10
300.8048343665
 20
272.936975259
 40
1.5
 50
295.5
 51
18.9827958559
  0
ARC
  8
0
 62
7
  6
CONTINUOUS
 10
294.8349728216
 20
287.3494959661
 40
1.5
 50
26.0172041441
 51
109.5
  0
ARC
  8
0
 62
7
  6
CONTINUOUS
 10
307.4798585807
 20
239.3793624161
 40
1.5
 50
3.5172041441
 51
87.0
  0
ARC
  8
0
 62
7
  6
CONTINUOUS
 10
294.7794654853
 20
263.8868828344
 40
1.0
 50
169.3381858345
 51
195.7959559004
  0
ARC
  8
0
 62
7
  6
CONTINUOUS
 10
284.1750119028
 20
289.4882984949
 40
1.0
 50
209.2040440996
 51
235.6618141655
  0
ARC
  8
0
 62
7
  6
CONTINUOUS
 10
298.4498231633
 20
245.4347487299
 40
1.0
 50
186.7040440996
 51
213.1618141655
  0
ARC
  8
0
 62
7
  6
CONTINUOUS
 10
244.6781974007
 20
339.408605729
 40
8.5
 50
160.5
 51
214.3381858345
  0
ARC
  8
0
 62
7
  6
CONTINUOUS
 10
281.0631991625
 20
306.6698753813
 40
8.5
 50
138.0
 51
191.8381858345
  0
ARC
  8
0
 62
7
  6
CONTINUOUS
 10
255.666855247
 20
332.0662192968
 40
8.5
 50
258.1618141655
 51
312.0
  0
ARC
  8
0
 62
7
  6
CONTINUOUS
 10
288.4055855948
 20
295.681217535
 40
8.5
 50
235.6618141655
 51
289.5
  0
ARC
  8
0
 62
7
  6
CONTINUOUS
 10
275.8261121064
 20
315.7982664542
 40
1.5
 50
318.0
 51
41.4827958559
  0
ARC
  8
0
 62
7
  6
CONTINUOUS
 10
264.7952463199
 20
326.8291322407
 40
1.5
 50
48.5172041441
 51
132.0
  0
ARC
  8
0
 62
7
  6
CONTINUOUS
 10
273.7227175536
 20
305.131262451
 40
1.0
 50
191.8381858345
 51
218.2959559004
  0
ARC
  8
0
 62
7
  6
CONTINUOUS
 10
254.1282423168
 20
324.7257376878
 40
1.0
 50
231.7040440996
 51
258.1618141655
  0
ARC
  8
0
 62
7
  6
CONTINUOUS
 10
398.9220637584
 20
126.5793624161
 40
5.0
 50
90.0
 51
180.0
  0
ARC
  8
0
 62
7
  6
CONTINUOUS
 10
398.9220637584
 20
336.5793624161
 40
5.0
 50
200.7840391936
 51
270.0
  0
ARC
  8
0
 62
7
  6
CONTINUOUS
 10
381.9220637584
 20
126.5793624161
 40
5.0
 50
0.0
 51
90.0
  0
ARC
  8
0
 62
7
  6
CONTINUOUS
 10
381.9220637584
 20
336.5793624161
 40
5.0
 50
270.0
 51
360.0
  0
ARC
  8
AXES
 62
7
  6
CONTINUOUS
 10
391.9220637584
 20
356.2223624161
 40
5.0
 50
175.0
 51
180.0
  0
ARC
  8
AXES
 62
7
  6
CONTINUOUS
 10
388.9220637584
 20
106.9363624161
 40
5.0
 50
355.0
 51
360.0
  0
ARC
  8
AXES
 62
7
  6
CONTINUOUS
 10
371.2720637584
 20
133.5793624161
 40
2.0
 50
180.0
 51
270.0
  0
ARC
  8
AXES
 62
7
  6
CONTINUOUS
 10
409.5720637584
 20
133.5793624161
 40
2.0
 50
270.0
 51
360.0
  0
ARC
  8
AXES
 62
7
  6
CONTINUOUS
 10
371.2720637584
 20
329.5793624161
 40
2.0
 50
90.0
 51
180.0
  0
ARC
  8
AXES
 62
7
  6
CONTINUOUS
 10
409.5720637584
 20
329.5793624161
 40
2.0
 50
0.0
 51
90.0
  0
ARC
  8
0
 62
7
  6
CONTINUOUS
 10
388.1692503988
 20
359.2223624161
 40
1.0
 50
90.0
 51
175.0000048767
  0
ARC
  8
0
 62
7
  6
CONTINUOUS
 10
388.1692503988
 20
103.9363624161
 40
1.0
 50
184.9999954657
 51
270.0
  0
ARC
  8
0
 62
7
  6
CONTINUOUS
 10
392.674877118
 20
103.9363624161
 40
1.0
 50
270.0
 51
355.0000045342
  0
ARC
  8
0
 62
7
  6
CONTINUOUS
 10
392.674877118
 20
359.2223624161
 40
1.0
 50
4.9999951233
 51
90.0
  0
ENDSEC
  0
EOF
