  0
SECTION
  2
HEADER
  9
$EXTMAX
 10
420.0
 20
297.0
 30
0.0
  9
$EXTMIN
 10
0.0
 20
0.0
 30
0.0
  9
$LIMMIN
 10
0.0
 20
0.0
  9
$LIMMAX
 10
420.0
 20
297.0
  9
$VIEWCTR
 10
210.0
 20
148.5
  9
$VIEWSIZE
 40
297.0
  9
$CLAYER
  8
0
  9
$LTSCALE
 40
23.1
  9
$CELTYPE
  6
BYLAYER
  9
$DIMSCALE
 40
1.0
  9
$DIMASZ
 40
3.5
  9
$DIMEXO
 40
1.0
  9
$DIMDLI
 40
15.96
  9
$DIMEXE
 40
2.0
  9
$DIMCEN
 40
3.78
  9
$DIMLFAC
 40
1.0
  9
$DIMBLK
  1
_FILLED
  9
$DIMALT
 70
0
  9
$DIMALTF
 40
0.0393700787
  9
$DIMTXT
 40
3.5
  9
$AUNITS
 70
0
  9
$PDMODE
 70
3
  9
$PDSIZE
 40
0.3125
  9
$TILEMODE
 70
1
  0
ENDSEC
  0
SECTION
  2
TABLES
  0
TABLE
  2
LTYPE
 70
6
  0
LTYPE
  2
BYBLOCK
 70
0
  3

 72
65
 73
0
 40
0.0
  0
LTYPE
  2
BYLAYER
 70
0
  3

 72
65
 73
0
 40
0.0
  0
LTYPE
  2
CONTINUOUS
 70
64
  3
Solid line
 72
65
 73
0
 40
0.0
  0
LTYPE
  2
CENTER
 70
64
  3
____ _ ____ _ ____ _ ____ _ ____ _ ____ _ ____
 72
65
 73
4
 40
0.6
 49
0.375
 49
-0.075
 49
0.075
 49
-0.075
  0
LTYPE
  2
HIDDEN
 70
64
  3
- - - - - - - - - - - - - - - - - - - -
 72
65
 73
2
 40
0.2
 49
0.1
 49
-0.1
  0
LTYPE
  2
PHANTOM
 70
64
  3
_____ _ _ _____ _ _ _____ _ _ _____
 72
65
 73
6
 40
0.8
 49
0.45
 49
-0.05
 49
0.1
 49
-0.05
 49
0.1
 49
-0.05
  0
LTYPE
  2
DOT
 70
64
  3
. . . . . . . . . . . . . . . . . . . .
 72
65
 73
2
 40
0.2
 49
0.1
 49
-0.1
  0
LTYPE
  2
DASHED
 70
64
  3
- - - - - - - - - - - - - - - - - - - -
 72
65
 73
2
 40
0.2
 49
0.1
 49
-0.1
  0
ENDTAB
  0
TABLE
  2
LAYER
 70
36
  0
LAYER
  2
0
 70
0
 62
7
  6
CONTINUOUS
  0
LAYER
  2
DEFAULT_1
 70
0
 62
7
  6
CENTER
  0
LAYER
  2
DEFAULT_2
 70
0
 62
8
  6
HIDDEN
  0
LAYER
  2
DEFAULT_3
 70
0
 62
7
  6
PHANTOM
  0
LAYER
  2
AXES
 70
0
 62
7
  6
CONTINUOUS
  0
LAYER
  2
CSYS
 70
0
 62
7
  6
CONTINUOUS
  0
LAYER
  2
PLANES
 70
0
 62
7
  6
CONTINUOUS
  0
LAYER
  2
QUILTS
 70
0
 62
7
  6
CONTINUOUS
  0
ENDTAB
  0
TABLE
  2
STYLE
 70
1
  0
STYLE
  2
STANDARD
 70
0
 40
0.0
 41
0.8
 50
0.0
 71
0
 42
0.2
  3
txt
  4

  0
STYLE
  2
TEXTSTYLE_1
 70
0
 40
0.0
 41
0.8
 50
0.0
 71
0
 42
0.2
  3
gdt
  4

  0
STYLE
  2
TEXTSTYLE_2
 70
0
 40
0.0
 41
0.6
 50
0.0
 71
0
 42
0.2
  3
txt
  4

  0
STYLE
  2
TEXTSTYLE_3
 70
0
 40
0.0
 41
1.0
 50
0.0
 71
0
 42
0.2
  3
ftb_____.ttf
  4

  0
STYLE
  2
TEXTSTYLE_4
 70
0
 40
0.0
 41
1.0
 50
0.0
 71
0
 42
0.2
  3
fti_____.ttf
  4

  0
STYLE
  2
TEXTSTYLE_5
 70
0
 40
0.0
 41
1.0
 50
0.0
 71
0
 42
0.2
  3
frutiger light.ttf
  4

  0
STYLE
  2
TEXTSTYLE_6
 70
0
 40
0.0
 41
0.7
 50
0.0
 71
0
 42
0.2
  3
txt
  4

  0
STYLE
  2
TEXTSTYLE_7
 70
0
 40
0.0
 41
0.8
 50
0.0
 71
0
 42
0.2
  3
txt
  4

  0
ENDTAB
  0
ENDSEC
  0
SECTION
  2
BLOCKS
  0
BLOCK
  8
0
 62
2
  6
CONTINUOUS
  2
UNI_LOGO2_BL1
 70
64
 10
382.7840918555
 20
35.5067593403
  0
TEXT
  8
0
 62
7
  6
CONTINUOUS
 10
373.842376864
 20
30.5995157174
  7
TEXTSTYLE_4
 40
1.0655737705
  1
The brand for plastic modular belts and chains
 41
1.0
 72
0
  0
LINE
  8
0
 62
7
  6
CONTINUOUS
 10
358.7621602445
 20
36.0805298321
 11
358.7621602445
 21
33.9493822911
  0
LINE
  8
0
 62
7
  6
CONTINUOUS
 10
359.0512227376
 20
30.9584509954
 11
359.0512227376
 21
31.0552420547
  0
LINE
  8
0
 62
7
  6
CONTINUOUS
 10
358.7621602445
 20
31.0229783683
 11
358.8199727462
 21
30.8293962497
  0
LINE
  8
0
 62
7
  6
CONTINUOUS
 10
360.1556028675
 20
33.867415078
 11
360.1556028675
 21
36.0805298321
  0
LINE
  8
0
 62
7
  6
CONTINUOUS
 10
361.0746601894
 20
32.0231527829
 11
361.0746601894
 21
30.5067593403
  0
LINE
  8
0
 62
7
  6
CONTINUOUS
 10
361.3637227445
 20
30.5067593403
 11
361.3637227445
 21
31.2488242184
  0
LINE
  8
0
 62
7
  6
CONTINUOUS
 10
361.3637227445
 20
31.3778789641
 11
361.3637227445
 21
32.0231527829
  0
LINE
  8
0
 62
7
  6
CONTINUOUS
 10
358.8199727462
 20
31.216560532
 11
358.7621602445
 21
31.0229783683
  0
LINE
  8
0
 62
7
  6
CONTINUOUS
 10
359.1668477307
 20
30.7971325633
 11
359.0512227376
 21
30.9584509954
  0
LINE
  8
0
 62
7
  6
CONTINUOUS
 10
360.2652852997
 20
31.3133515913
 11
360.3230977445
 21
31.216560532
  0
LINE
  8
0
 62
7
  6
CONTINUOUS
 10
360.6121602997
 20
31.216560532
 11
360.5543476894
 21
31.3456152777
  0
LINE
  8
0
 62
7
  6
CONTINUOUS
 10
362.0408487691
 20
36.0805298321
 11
362.0408487691
 21
34.2772511436
  0
LINE
  8
0
 62
7
  6
CONTINUOUS
 10
362.0408487691
 20
32.9657757338
 11
362.0408487691
 21
32.3100380288
  0
LINE
  8
0
 62
7
  6
CONTINUOUS
 10
362.4043477445
 20
31.1520331591
 11
362.4043477445
 21
30.5067593403
  0
LINE
  8
0
 62
7
  6
CONTINUOUS
 10
362.6934101343
 20
30.5067593403
 11
362.6934101343
 21
31.1520331591
  0
LINE
  8
0
 62
7
  6
CONTINUOUS
 10
359.0512227376
 20
31.0552420547
 11
359.1090352445
 21
31.1842968456
  0
LINE
  8
0
 62
7
  6
CONTINUOUS
 10
358.8199727462
 20
30.8293962497
 11
358.9355977445
 21
30.7003414814
  0
LINE
  8
0
 62
7
  6
CONTINUOUS
 10
362.3465351343
 20
31.2810879048
 11
362.4043477445
 21
31.1520331591
  0
LINE
  8
0
 62
7
  6
CONTINUOUS
 10
363.1559103548
 20
30.7971325633
 11
363.2137226343
 21
30.668077795
  0
LINE
  8
0
 62
7
  6
CONTINUOUS
 10
362.6934101343
 20
31.1520331591
 11
362.6355978548
 21
31.3133515913
  0
LINE
  8
0
 62
7
  6
CONTINUOUS
 10
363.1559103548
 20
31.3456152777
 11
363.1559103548
 21
31.2810879048
  0
LINE
  8
0
 62
7
  6
CONTINUOUS
 10
363.1559103548
 20
30.8939236226
 11
363.1559103548
 21
30.7971325633
  0
LINE
  8
0
 62
7
  6
CONTINUOUS
 10
363.4342913921
 20
32.3100380288
 11
363.4342913921
 21
36.0805298321
  0
LINE
  8
0
 62
7
  6
CONTINUOUS
 10
363.4449727445
 20
30.7648688543
 11
363.4449727445
 21
30.8293962497
  0
LINE
  8
0
 62
7
  6
CONTINUOUS
 10
363.7621602445
 20
36.0805298321
 11
363.7621602445
 21
32.3100380288
  0
LINE
  8
0
 62
7
  6
CONTINUOUS
 10
360.5543476894
 20
30.7003414814
 11
360.6121602997
 21
30.8293962497
  0
LINE
  8
0
 62
7
  6
CONTINUOUS
 10
364.9480979651
 20
30.6035504109
 11
364.890285024
 21
30.7648688543
  0
LINE
  8
0
 62
7
  6
CONTINUOUS
 10
364.6012229651
 20
31.2810879048
 11
364.6012229651
 21
31.1842968456
  0
LINE
  8
0
 62
7
  6
CONTINUOUS
 10
364.6012229651
 20
31.0552420547
 11
364.6012229651
 21
30.8616599362
  0
LINE
  8
0
 62
7
  6
CONTINUOUS
 10
364.890285024
 20
30.7648688543
 11
364.890285024
 21
31.2810879048
  0
LINE
  8
0
 62
7
  6
CONTINUOUS
 10
365.1556028675
 20
32.3100380288
 11
365.1556028675
 21
34.1133167174
  0
LINE
  8
0
 62
7
  6
CONTINUOUS
 10
365.1556028675
 20
35.4247921272
 11
365.1556028675
 21
36.0805298321
  0
LINE
  8
0
 62
7
  6
CONTINUOUS
 10
365.4684104651
 20
32.0231527829
 11
365.4684104651
 21
31.8618343508
  0
LINE
  8
0
 62
7
  6
CONTINUOUS
 10
365.4684104651
 20
31.5391973962
 11
365.4684104651
 21
30.5067593403
  0
LINE
  8
0
 62
7
  6
CONTINUOUS
 10
365.757472524
 20
30.5067593403
 11
365.757472524
 21
31.5391973962
  0
LINE
  8
0
 62
7
  6
CONTINUOUS
 10
365.757472524
 20
31.8618343508
 11
365.757472524
 21
32.0231527829
  0
LINE
  8
0
 62
7
  6
CONTINUOUS
 10
360.3230977445
 20
30.8293962497
 11
360.2652852997
 21
30.7326051679
  0
LINE
  8
0
 62
7
  6
CONTINUOUS
 10
362.6355978548
 20
31.3133515913
 11
362.5777852445
 21
31.3778789641
  0
LINE
  8
0
 62
7
  6
CONTINUOUS
 10
363.5027853548
 20
30.7003414814
 11
363.4449727445
 21
30.7648688543
  0
LINE
  8
0
 62
7
  6
CONTINUOUS
 10
364.6590352445
 20
30.5712867188
 11
364.716847524
 21
30.5067593403
  0
LINE
  8
0
 62
7
  6
CONTINUOUS
 10
364.6012229651
 20
30.668077795
 11
364.6590352445
 21
30.5712867188
  0
LINE
  8
0
 62
7
  6
CONTINUOUS
 10
365.0059102445
 20
30.5067593403
 11
364.9480979651
 21
30.6035504109
  0
LINE
  8
0
 62
7
  6
CONTINUOUS
 10
364.890285024
 20
31.2810879048
 11
364.8324727445
 21
31.3778789641
  0
LINE
  8
0
 62
7
  6
CONTINUOUS
 10
366.2199727445
 20
31.5391973962
 11
366.2199727445
 21
30.5067593403
  0
LINE
  8
0
 62
7
  6
CONTINUOUS
 10
366.5090354651
 20
30.5067593403
 11
366.5090354651
 21
31.2488242184
  0
LINE
  8
0
 62
7
  6
CONTINUOUS
 10
366.5090354651
 20
31.3778789641
 11
366.5090354651
 21
31.5391973962
  0
LINE
  8
0
 62
7
  6
CONTINUOUS
 10
367.0408487691
 20
34.5231527829
 11
367.0408487691
 21
32.3100380288
  0
LINE
  8
0
 62
7
  6
CONTINUOUS
 10
358.9355977445
 20
31.3456152777
 11
358.8199727462
 21
31.216560532
  0
LINE
  8
0
 62
7
  6
CONTINUOUS
 10
359.1090352445
 20
31.1842968456
 11
359.1668477307
 21
31.2488242184
  0
LINE
  8
0
 62
7
  6
CONTINUOUS
 10
358.9355977445
 20
30.7003414814
 11
359.0512227376
 21
30.6358140973
  0
LINE
  8
0
 62
7
  6
CONTINUOUS
 10
359.3402852307
 20
30.7003414814
 11
359.1668477307
 21
30.7971325633
  0
LINE
  8
0
 62
7
  6
CONTINUOUS
 10
364.543410024
 20
31.3456152777
 11
364.6012229651
 21
31.2810879048
  0
LINE
  8
0
 62
7
  6
CONTINUOUS
 10
367.491847524
 20
31.2810879048
 11
367.5496604651
 21
31.1197694727
  0
LINE
  8
0
 62
7
  6
CONTINUOUS
 10
367.838722524
 20
31.1197694727
 11
367.7809102445
 21
31.2810879048
  0
LINE
  8
0
 62
7
  6
CONTINUOUS
 10
367.5496604651
 20
31.1197694727
 11
367.5496604651
 21
30.5067593403
  0
LINE
  8
0
 62
7
  6
CONTINUOUS
 10
367.838722524
 20
30.5067593403
 11
367.838722524
 21
31.1197694727
  0
LINE
  8
0
 62
7
  6
CONTINUOUS
 10
368.3012227445
 20
31.3456152777
 11
368.3012227445
 21
31.2810879048
  0
LINE
  8
0
 62
7
  6
CONTINUOUS
 10
368.4342913921
 20
32.3100380288
 11
368.4342913921
 21
34.4411855698
  0
LINE
  8
0
 62
7
  6
CONTINUOUS
 10
368.7621602445
 20
36.0805298321
 11
368.7621602445
 21
32.3100380288
  0
LINE
  8
0
 62
7
  6
CONTINUOUS
 10
363.4449727445
 20
30.8293962497
 11
363.5027853548
 21
30.926187309
  0
LINE
  8
0
 62
7
  6
CONTINUOUS
 10
359.0512227376
 20
30.6358140973
 11
359.2246602583
 21
30.5712867188
  0
LINE
  8
0
 62
7
  6
CONTINUOUS
 10
360.5543476894
 20
31.3456152777
 11
360.3809101894
 21
31.4424063369
  0
LINE
  8
0
 62
7
  6
CONTINUOUS
 10
363.2137226343
 20
30.668077795
 11
363.3871601343
 21
30.5712867188
  0
LINE
  8
0
 62
7
  6
CONTINUOUS
 10
362.2309102445
 20
31.3456152777
 11
362.3465351343
 21
31.2810879048
  0
LINE
  8
0
 62
7
  6
CONTINUOUS
 10
362.5777852445
 20
31.3778789641
 11
362.4621603548
 21
31.4424063369
  0
LINE
  8
0
 62
7
  6
CONTINUOUS
 10
368.3012227445
 20
30.7648688543
 11
368.4168479651
 21
30.6358140973
  0
LINE
  8
0
 62
7
  6
CONTINUOUS
 10
368.6480977445
 20
30.7003414814
 11
368.5902854651
 21
30.7648688543
  0
LINE
  8
0
 62
7
  6
CONTINUOUS
 10
368.3012227445
 20
31.2810879048
 11
368.4168479651
 21
31.1520331591
  0
LINE
  8
0
 62
7
  6
CONTINUOUS
 10
367.7809102445
 20
31.2810879048
 11
367.7230979651
 21
31.3778789641
  0
LINE
  8
0
 62
7
  6
CONTINUOUS
 10
370.1512223035
 20
30.7003414814
 11
370.1512223035
 21
30.7648688543
  0
LINE
  8
0
 62
7
  6
CONTINUOUS
 10
370.1556028675
 20
32.3100380288
 11
370.1556028675
 21
36.0805298321
  0
LINE
  8
0
 62
7
  6
CONTINUOUS
 10
363.2137226343
 20
31.4101426505
 11
363.1559103548
 21
31.3456152777
  0
LINE
  8
0
 62
7
  6
CONTINUOUS
 10
360.091847717
 20
31.3778789641
 11
360.2652852997
 21
31.3133515913
  0
LINE
  8
0
 62
7
  6
CONTINUOUS
 10
364.8324727445
 20
31.3778789641
 11
364.716847524
 21
31.4424063369
  0
LINE
  8
0
 62
7
  6
CONTINUOUS
 10
368.6480977445
 20
31.216560532
 11
368.5902854651
 21
31.2810879048
  0
LINE
  8
0
 62
7
  6
CONTINUOUS
 10
369.8043479651
 20
30.8293962497
 11
369.8621602445
 21
30.7648688543
  0
LINE
  8
0
 62
7
  6
CONTINUOUS
 10
370.1512223035
 20
30.7648688543
 11
370.0355977445
 21
30.8939236226
  0
LINE
  8
0
 62
7
  6
CONTINUOUS
 10
369.8043479651
 20
31.3456152777
 11
369.8621602445
 21
31.2810879048
  0
LINE
  8
0
 62
7
  6
CONTINUOUS
 10
370.1512223035
 20
31.2810879048
 11
370.0355977445
 21
31.4101426505
  0
LINE
  8
0
 62
7
  6
CONTINUOUS
 10
363.4449727445
 20
31.2810879048
 11
363.5027853548
 21
31.3456152777
  0
LINE
  8
0
 62
7
  6
CONTINUOUS
 10
363.2715352445
 20
31.0229783683
 11
363.1559103548
 21
30.8939236226
  0
LINE
  8
0
 62
7
  6
CONTINUOUS
 10
364.6012229651
 20
30.8616599362
 11
364.543410024
 21
30.7971325633
  0
LINE
  8
0
 62
7
  6
CONTINUOUS
 10
364.543410024
 20
30.6035504109
 11
364.6012229651
 21
30.668077795
  0
LINE
  8
0
 62
7
  6
CONTINUOUS
 10
363.3871601343
 20
30.5712867188
 11
363.5027853548
 21
30.5390230296
  0
LINE
  8
0
 62
7
  6
CONTINUOUS
 10
360.3809101894
 20
31.4424063369
 11
360.1496602445
 21
31.5069337098
  0
LINE
  8
0
 62
7
  6
CONTINUOUS
 10
363.7340351343
 20
30.6358140973
 11
363.5027853548
 21
30.7003414814
  0
LINE
  8
0
 62
7
  6
CONTINUOUS
 10
362.4621603548
 20
31.4424063369
 11
362.2887228548
 21
31.5069337098
  0
LINE
  8
0
 62
7
  6
CONTINUOUS
 10
364.716847524
 20
31.4424063369
 11
364.543410024
 21
31.5069337098
  0
LINE
  8
0
 62
7
  6
CONTINUOUS
 10
367.3762229651
 20
31.3456152777
 11
367.491847524
 21
31.2810879048
  0
LINE
  8
0
 62
7
  6
CONTINUOUS
 10
367.7230979651
 20
31.3778789641
 11
367.6074727445
 21
31.4424063369
  0
LINE
  8
0
 62
7
  6
CONTINUOUS
 10
359.2246602583
 20
30.5712867188
 11
359.3980977583
 21
30.5390230296
  0
LINE
  8
0
 62
7
  6
CONTINUOUS
 10
359.6871602721
 20
30.6358140973
 11
359.3402852307
 21
30.7003414814
  0
LINE
  8
0
 62
7
  6
CONTINUOUS
 10
362.1152853548
 20
31.3778789641
 11
362.2309102445
 21
31.3456152777
  0
LINE
  8
0
 62
7
  6
CONTINUOUS
 10
364.4277854651
 20
31.3778789641
 11
364.543410024
 21
31.3456152777
  0
LINE
  8
0
 62
7
  6
CONTINUOUS
 10
368.7637229651
 20
30.668077795
 11
368.6480977445
 21
30.7003414814
  0
LINE
  8
0
 62
7
  6
CONTINUOUS
 10
367.2605977445
 20
31.3778789641
 11
367.3762229651
 21
31.3456152777
  0
LINE
  8
0
 62
7
  6
CONTINUOUS
 10
368.4168479651
 20
30.6358140973
 11
368.5902854651
 21
30.5712867188
  0
LINE
  8
0
 62
7
  6
CONTINUOUS
 10
367.6074727445
 20
31.4424063369
 11
367.4340352445
 21
31.5069337098
  0
LINE
  8
0
 62
7
  6
CONTINUOUS
 10
368.8215352445
 20
31.1520331591
 11
368.6480977445
 21
31.216560532
  0
LINE
  8
0
 62
7
  6
CONTINUOUS
 10
369.6309104651
 20
30.8939236226
 11
369.8043479651
 21
30.8293962497
  0
LINE
  8
0
 62
7
  6
CONTINUOUS
 10
370.0355977445
 20
31.4101426505
 11
369.8621602445
 21
31.4746700234
  0
LINE
  8
0
 62
7
  6
CONTINUOUS
 10
368.4168479651
 20
31.1520331591
 11
368.6480977445
 21
31.0552420547
  0
LINE
  8
0
 62
7
  6
CONTINUOUS
 10
370.0355977445
 20
30.8939236226
 11
369.8043479651
 21
30.9907146818
  0
LINE
  8
0
 62
7
  6
CONTINUOUS
 10
368.5902854651
 20
31.2810879048
 11
368.6480977445
 21
31.3456152777
  0
LINE
  8
0
 62
7
  6
CONTINUOUS
 10
359.0512227376
 20
31.4101426505
 11
358.9355977445
 21
31.3456152777
  0
LINE
  8
0
 62
7
  6
CONTINUOUS
 10
359.1668477307
 20
31.2488242184
 11
359.3402852307
 21
31.3456152777
  0
LINE
  8
0
 62
7
  6
CONTINUOUS
 10
361.4793477997
 20
31.4424063369
 11
361.3637227445
 21
31.3778789641
  0
LINE
  8
0
 62
7
  6
CONTINUOUS
 10
361.3637227445
 20
31.2488242184
 11
361.4793477997
 21
31.3133515913
  0
LINE
  8
0
 62
7
  6
CONTINUOUS
 10
360.3809101894
 20
30.6035504109
 11
360.5543476894
 21
30.7003414814
  0
LINE
  8
0
 62
7
  6
CONTINUOUS
 10
359.3980977583
 20
30.5390230296
 11
359.744972717
 21
30.5067593403
  0
LINE
  8
0
 62
7
  6
CONTINUOUS
 10
363.5027853548
 20
30.5390230296
 11
363.7340351343
 21
30.5067593403
  0
LINE
  8
0
 62
7
  6
CONTINUOUS
 10
361.8840352445
 20
31.4101426505
 11
362.1152853548
 21
31.3778789641
  0
LINE
  8
0
 62
7
  6
CONTINUOUS
 10
364.1965353548
 20
31.4101426505
 11
364.4277854651
 21
31.3778789641
  0
LINE
  8
0
 62
7
  6
CONTINUOUS
 10
368.6480977445
 20
31.0552420547
 11
369.6309104651
 21
30.8939236226
  0
LINE
  8
0
 62
7
  6
CONTINUOUS
 10
369.8043479651
 20
30.9907146818
 11
368.8215352445
 21
31.1520331591
  0
LINE
  8
0
 62
7
  6
CONTINUOUS
 10
362.2887228548
 20
31.5069337098
 11
362.1152853548
 21
31.5391973962
  0
LINE
  8
0
 62
7
  6
CONTINUOUS
 10
368.5902854651
 20
30.5712867188
 11
368.7637229651
 21
30.5390230296
  0
LINE
  8
0
 62
7
  6
CONTINUOUS
 10
367.4340352445
 20
31.5069337098
 11
367.2605977445
 21
31.5391973962
  0
LINE
  8
0
 62
7
  6
CONTINUOUS
 10
369.6887227445
 20
31.3778789641
 11
369.8043479651
 21
31.3456152777
  0
LINE
  8
0
 62
7
  6
CONTINUOUS
 10
369.8621602445
 20
30.7648688543
 11
369.8043479651
 21
30.7003414814
  0
LINE
  8
0
 62
7
  6
CONTINUOUS
 10
368.4168479651
 20
31.4424063369
 11
368.3012227445
 21
31.3456152777
  0
LINE
  8
0
 62
7
  6
CONTINUOUS
 10
363.3293478548
 20
31.4746700234
 11
363.2137226343
 21
31.4101426505
  0
LINE
  8
0
 62
7
  6
CONTINUOUS
 10
363.3871601343
 20
31.0875057863
 11
363.2715352445
 21
31.0229783683
  0
LINE
  8
0
 62
7
  6
CONTINUOUS
 10
363.5027853548
 20
30.926187309
 11
363.6184102445
 21
30.9907146818
  0
LINE
  8
0
 62
7
  6
CONTINUOUS
 10
361.0746601894
 20
30.5067593403
 11
361.3637227445
 21
30.5067593403
  0
LINE
  8
0
 62
7
  6
CONTINUOUS
 10
362.4043477445
 20
30.5067593403
 11
362.6934101343
 21
30.5067593403
  0
LINE
  8
0
 62
7
  6
CONTINUOUS
 10
363.7340351343
 20
30.5067593403
 11
364.0809101343
 21
30.5067593403
  0
LINE
  8
0
 62
7
  6
CONTINUOUS
 10
364.716847524
 20
30.5067593403
 11
365.0059102445
 21
30.5067593403
  0
LINE
  8
0
 62
7
  6
CONTINUOUS
 10
365.4684104651
 20
30.5067593403
 11
365.757472524
 21
30.5067593403
  0
LINE
  8
0
 62
7
  6
CONTINUOUS
 10
366.2199727445
 20
30.5067593403
 11
366.5090354651
 21
30.5067593403
  0
LINE
  8
0
 62
7
  6
CONTINUOUS
 10
367.5496604651
 20
30.5067593403
 11
367.838722524
 21
30.5067593403
  0
LINE
  8
0
 62
7
  6
CONTINUOUS
 10
369.1105979651
 20
30.5067593403
 11
369.4574729651
 21
30.5067593403
  0
LINE
  8
0
 62
7
  6
CONTINUOUS
 10
369.4574729651
 20
30.6358140973
 11
369.1105979651
 21
30.6358140973
  0
LINE
  8
0
 62
7
  6
CONTINUOUS
 10
364.0809101343
 20
30.6358140973
 11
363.7340351343
 21
30.6358140973
  0
LINE
  8
0
 62
7
  6
CONTINUOUS
 10
368.5902854651
 20
30.7648688543
 11
368.3012227445
 21
30.7648688543
  0
LINE
  8
0
 62
7
  6
CONTINUOUS
 10
360.6121602997
 20
30.8293962497
 11
360.3230977445
 21
30.8293962497
  0
LINE
  8
0
 62
7
  6
CONTINUOUS
 10
359.6871602721
 20
31.4101426505
 11
360.091847717
 21
31.3778789641
  0
LINE
  8
0
 62
7
  6
CONTINUOUS
 10
360.1496602445
 20
31.5069337098
 11
359.744972717
 21
31.5391973962
  0
LINE
  8
0
 62
7
  6
CONTINUOUS
 10
368.7637229651
 20
30.5390230296
 11
369.1105979651
 21
30.5067593403
  0
LINE
  8
0
 62
7
  6
CONTINUOUS
 10
369.1105979651
 20
30.6358140973
 11
368.7637229651
 21
30.668077795
  0
LINE
  8
0
 62
7
  6
CONTINUOUS
 10
364.543410024
 20
31.5069337098
 11
364.1965353548
 21
31.5391973962
  0
LINE
  8
0
 62
7
  6
CONTINUOUS
 10
369.3418477445
 20
31.4101426505
 11
369.6887227445
 21
31.3778789641
  0
LINE
  8
0
 62
7
  6
CONTINUOUS
 10
369.6887227445
 20
31.5069337098
 11
369.3418477445
 21
31.5391973962
  0
LINE
  8
0
 62
7
  6
CONTINUOUS
 10
367.0293479651
 20
31.4101426505
 11
367.2605977445
 21
31.3778789641
  0
LINE
  8
0
 62
7
  6
CONTINUOUS
 10
369.8621602445
 20
31.4746700234
 11
369.6887227445
 21
31.5069337098
  0
LINE
  8
0
 62
7
  6
CONTINUOUS
 10
370.0355977445
 20
30.6035504109
 11
370.1512223035
 21
30.7003414814
  0
LINE
  8
0
 62
7
  6
CONTINUOUS
 10
364.543410024
 20
30.7971325633
 11
364.369972524
 21
30.7003414814
  0
LINE
  8
0
 62
7
  6
CONTINUOUS
 10
366.624660024
 20
31.4424063369
 11
366.5090354651
 21
31.3778789641
  0
LINE
  8
0
 62
7
  6
CONTINUOUS
 10
366.5090354651
 20
31.2488242184
 11
366.624660024
 21
31.3133515913
  0
LINE
  8
0
 62
7
  6
CONTINUOUS
 10
359.2246602583
 20
31.4746700234
 11
359.0512227376
 21
31.4101426505
  0
LINE
  8
0
 62
7
  6
CONTINUOUS
 10
361.6527851343
 20
31.5069337098
 11
361.4793477997
 21
31.4424063369
  0
LINE
  8
0
 62
7
  6
CONTINUOUS
 10
361.4793477997
 20
31.3133515913
 11
361.6527851343
 21
31.3778789641
  0
LINE
  8
0
 62
7
  6
CONTINUOUS
 10
360.2652852997
 20
30.7326051679
 11
360.091847717
 21
30.668077795
  0
LINE
  8
0
 62
7
  6
CONTINUOUS
 10
369.6887227445
 20
30.668077795
 11
369.4574729651
 21
30.6358140973
  0
LINE
  8
0
 62
7
  6
CONTINUOUS
 10
364.0809101343
 20
30.5067593403
 11
364.369972524
 21
30.5390230296
  0
LINE
  8
0
 62
7
  6
CONTINUOUS
 10
369.4574729651
 20
30.5067593403
 11
369.8043479651
 21
30.5390230296
  0
LINE
  8
0
 62
7
  6
CONTINUOUS
 10
359.744972717
 20
30.5067593403
 11
360.1496602445
 21
30.5390230296
  0
LINE
  8
0
 62
7
  6
CONTINUOUS
 10
360.091847717
 20
30.668077795
 11
359.6871602721
 21
30.6358140973
  0
LINE
  8
0
 62
7
  6
CONTINUOUS
 10
363.9652852445
 20
31.0552420547
 11
364.6012229651
 21
31.0552420547
  0
LINE
  8
0
 62
7
  6
CONTINUOUS
 10
364.6012229651
 20
31.1842968456
 11
363.9652852445
 21
31.1842968456
  0
LINE
  8
0
 62
7
  6
CONTINUOUS
 10
360.3230977445
 20
31.216560532
 11
360.6121602997
 21
31.216560532
  0
LINE
  8
0
 62
7
  6
CONTINUOUS
 10
363.1559103548
 20
31.2810879048
 11
363.4449727445
 21
31.2810879048
  0
LINE
  8
0
 62
7
  6
CONTINUOUS
 10
369.8621602445
 20
31.2810879048
 11
370.1512223035
 21
31.2810879048
  0
LINE
  8
0
 62
7
  6
CONTINUOUS
 10
363.8496603548
 20
31.4101426505
 11
364.1965353548
 21
31.4101426505
  0
LINE
  8
0
 62
7
  6
CONTINUOUS
 10
368.9949727445
 20
31.4101426505
 11
369.3418477445
 21
31.4101426505
  0
LINE
  8
0
 62
7
  6
CONTINUOUS
 10
369.3418477445
 20
31.5391973962
 11
368.9949727445
 21
31.5391973962
  0
LINE
  8
0
 62
7
  6
CONTINUOUS
 10
367.2605977445
 20
31.5391973962
 11
367.0293479651
 21
31.5391973962
  0
LINE
  8
0
 62
7
  6
CONTINUOUS
 10
366.5090354651
 20
31.5391973962
 11
366.2199727445
 21
31.5391973962
  0
LINE
  8
0
 62
7
  6
CONTINUOUS
 10
365.757472524
 20
31.5391973962
 11
365.4684104651
 21
31.5391973962
  0
LINE
  8
0
 62
7
  6
CONTINUOUS
 10
364.1965353548
 20
31.5391973962
 11
363.8496603548
 21
31.5391973962
  0
LINE
  8
0
 62
7
  6
CONTINUOUS
 10
362.1152853548
 20
31.5391973962
 11
361.8840352445
 21
31.5391973962
  0
LINE
  8
0
 62
7
  6
CONTINUOUS
 10
365.4684104651
 20
31.8618343508
 11
365.757472524
 21
31.8618343508
  0
LINE
  8
0
 62
7
  6
CONTINUOUS
 10
365.757472524
 20
32.0231527829
 11
365.4684104651
 21
32.0231527829
  0
LINE
  8
0
 62
7
  6
CONTINUOUS
 10
361.3637227445
 20
32.0231527829
 11
361.0746601894
 21
32.0231527829
  0
LINE
  8
0
 62
7
  6
CONTINUOUS
 10
360.4015045068
 20
32.3100380288
 11
360.8140758554
 21
32.3100380288
  0
LINE
  8
0
 62
7
  6
CONTINUOUS
 10
362.0408487691
 20
32.3100380288
 11
363.4342913921
 21
32.3100380288
  0
LINE
  8
0
 62
7
  6
CONTINUOUS
 10
363.7621602445
 20
32.3100380288
 11
365.1556028675
 21
32.3100380288
  0
LINE
  8
0
 62
7
  6
CONTINUOUS
 10
367.0408487691
 20
32.3100380288
 11
368.4342913921
 21
32.3100380288
  0
LINE
  8
0
 62
7
  6
CONTINUOUS
 10
368.7621602445
 20
32.3100380288
 11
370.1556028675
 21
32.3100380288
  0
LINE
  8
0
 62
7
  6
CONTINUOUS
 10
366.798097524
 20
31.5069337098
 11
366.624660024
 21
31.4424063369
  0
LINE
  8
0
 62
7
  6
CONTINUOUS
 10
364.369972524
 20
30.5390230296
 11
364.543410024
 21
30.6035504109
  0
LINE
  8
0
 62
7
  6
CONTINUOUS
 10
369.8043479651
 20
30.5390230296
 11
370.0355977445
 21
30.6035504109
  0
LINE
  8
0
 62
7
  6
CONTINUOUS
 10
369.8043479651
 20
30.7003414814
 11
369.6887227445
 21
30.668077795
  0
LINE
  8
0
 62
7
  6
CONTINUOUS
 10
368.7637229651
 20
31.3778789641
 11
368.9949727445
 21
31.4101426505
  0
LINE
  8
0
 62
7
  6
CONTINUOUS
 10
366.798097524
 20
31.3778789641
 11
367.0293479651
 21
31.4101426505
  0
LINE
  8
0
 62
7
  6
CONTINUOUS
 10
363.7340351343
 20
31.0229783683
 11
363.9652852445
 21
31.0552420547
  0
LINE
  8
0
 62
7
  6
CONTINUOUS
 10
367.0293479651
 20
31.5391973962
 11
366.798097524
 21
31.5069337098
  0
LINE
  8
0
 62
7
  6
CONTINUOUS
 10
363.6184102445
 20
31.3778789641
 11
363.8496603548
 21
31.4101426505
  0
LINE
  8
0
 62
7
  6
CONTINUOUS
 10
368.9949727445
 20
31.5391973962
 11
368.6480977445
 21
31.5069337098
  0
LINE
  8
0
 62
7
  6
CONTINUOUS
 10
363.9652852445
 20
31.1842968456
 11
363.6184102445
 21
31.1520331591
  0
LINE
  8
0
 62
7
  6
CONTINUOUS
 10
359.744972717
 20
31.5391973962
 11
359.3980977583
 21
31.5069337098
  0
LINE
  8
0
 62
7
  6
CONTINUOUS
 10
363.8496603548
 20
31.5391973962
 11
363.4449727445
 21
31.5069337098
  0
LINE
  8
0
 62
7
  6
CONTINUOUS
 10
361.221176638
 20
33.4575790124
 11
360.565438933
 21
33.4575790124
  0
LINE
  8
0
 62
7
  6
CONTINUOUS
 10
366.624660024
 20
31.3133515913
 11
366.798097524
 21
31.3778789641
  0
LINE
  8
0
 62
7
  6
CONTINUOUS
 10
368.6480977445
 20
31.3456152777
 11
368.7637229651
 21
31.3778789641
  0
LINE
  8
0
 62
7
  6
CONTINUOUS
 10
368.6480977445
 20
31.5069337098
 11
368.4168479651
 21
31.4424063369
  0
LINE
  8
0
 62
7
  6
CONTINUOUS
 10
364.369972524
 20
30.7003414814
 11
364.0809101343
 21
30.6358140973
  0
LINE
  8
0
 62
7
  6
CONTINUOUS
 10
361.6527851343
 20
31.3778789641
 11
361.8840352445
 21
31.4101426505
  0
LINE
  8
0
 62
7
  6
CONTINUOUS
 10
361.8840352445
 20
31.5391973962
 11
361.6527851343
 21
31.5069337098
  0
LINE
  8
0
 62
7
  6
CONTINUOUS
 10
359.4559102445
 20
31.3778789641
 11
359.6871602721
 21
31.4101426505
  0
LINE
  8
0
 62
7
  6
CONTINUOUS
 10
365.9752749986
 20
34.9329888485
 11
366.6310127035
 21
34.9329888485
  0
LINE
  8
0
 62
7
  6
CONTINUOUS
 10
363.6184102445
 20
30.9907146818
 11
363.7340351343
 21
31.0229783683
  0
LINE
  8
0
 62
7
  6
CONTINUOUS
 10
363.6184102445
 20
31.1520331591
 11
363.3871601343
 21
31.0875057863
  0
LINE
  8
0
 62
7
  6
CONTINUOUS
 10
363.5027853548
 20
31.3456152777
 11
363.6184102445
 21
31.3778789641
  0
LINE
  8
0
 62
7
  6
CONTINUOUS
 10
360.1496602445
 20
30.5390230296
 11
360.3809101894
 21
30.6035504109
  0
LINE
  8
0
 62
7
  6
CONTINUOUS
 10
363.4449727445
 20
31.5069337098
 11
363.3293478548
 21
31.4746700234
  0
LINE
  8
0
 62
7
  6
CONTINUOUS
 10
359.3980977583
 20
31.5069337098
 11
359.2246602583
 21
31.4746700234
  0
LINE
  8
0
 62
7
  6
CONTINUOUS
 10
370.1556028675
 20
36.0805298321
 11
368.7621602445
 21
36.0805298321
  0
LINE
  8
0
 62
7
  6
CONTINUOUS
 10
366.7949471298
 20
36.0805298321
 11
366.3823757812
 21
36.0805298321
  0
LINE
  8
0
 62
7
  6
CONTINUOUS
 10
365.1556028675
 20
36.0805298321
 11
363.7621602445
 21
36.0805298321
  0
LINE
  8
0
 62
7
  6
CONTINUOUS
 10
363.4342913921
 20
36.0805298321
 11
362.0408487691
 21
36.0805298321
  0
LINE
  8
0
 62
7
  6
CONTINUOUS
 10
360.1556028675
 20
36.0805298321
 11
358.7621602445
 21
36.0805298321
  0
LINE
  8
0
 62
7
  6
CONTINUOUS
 10
359.3402852307
 20
31.3456152777
 11
359.4559102445
 21
31.3778789641
  0
CIRCLE
  8
0
 62
7
  6
CONTINUOUS
 10
369.458881556
 20
38.4165954059
 40
2.0901639344
  0
ARC
  8
0
 62
7
  6
CONTINUOUS
 10
360.4015045068
 20
33.9493822911
 40
1.6393442623
 50
180.0
 51
270.0
  0
ARC
  8
0
 62
7
  6
CONTINUOUS
 10
366.7949471298
 20
34.4411855698
 40
1.6393442623
 50
0.0
 51
90.0
  0
ARC
  8
0
 62
7
  6
CONTINUOUS
 10
360.8140758554
 20
33.7854478649
 40
1.4754098361
 50
270.0
 51
326.2510114041
  0
ARC
  8
0
 62
7
  6
CONTINUOUS
 10
366.3823757812
 20
34.6051199961
 40
1.4754098361
 50
90.0
 51
146.2510114041
  0
ARC
  8
0
 62
7
  6
CONTINUOUS
 10
361.221176638
 20
34.2772511436
 40
0.8196721311
 50
270.0
 51
360.0
  0
ARC
  8
0
 62
7
  6
CONTINUOUS
 10
365.9752749986
 20
34.1133167174
 40
0.8196721311
 50
90.0
 51
180.0
  0
ARC
  8
0
 62
7
  6
CONTINUOUS
 10
360.565438933
 20
33.867415078
 40
0.4098360656
 50
180.0
 51
270.0
  0
ARC
  8
0
 62
7
  6
CONTINUOUS
 10
366.6310127035
 20
34.5231527829
 40
0.4098360656
 50
0.0
 51
90.0
  0
SOLID
  8
0
 62
7
  6
CONTINUOUS
 10
365.4684104651
 20
31.8618347111
 11
365.4684104651
 21
32.0231531947
 12
365.757472524
 22
31.8618347111
 13
365.757472524
 23
32.0231531947
  0
SOLID
  8
0
 62
7
  6
CONTINUOUS
 10
359.744972717
 20
31.5391977439
 11
360.1496602445
 21
31.5069333244
 12
359.3980977583
 22
31.5069333244
 13
359.3980977583
 23
31.5069333244
  0
SOLID
  8
0
 62
7
  6
CONTINUOUS
 10
359.2246602583
 20
31.4746706537
 11
359.3980977583
 21
31.5069333244
 12
360.1496602445
 22
31.5069333244
 13
360.1496602445
 23
31.5069333244
  0
SOLID
  8
0
 62
7
  6
CONTINUOUS
 10
360.1496602445
 20
31.5069333244
 11
360.3809101894
 21
31.4424063504
 12
359.2246602583
 22
31.4746706537
 13
359.2246602583
 23
31.4746706537
  0
SOLID
  8
0
 62
7
  6
CONTINUOUS
 10
359.0512227376
 20
31.4101419116
 11
359.2246602583
 21
31.4746706537
 12
360.3809101894
 22
31.4424063504
 13
360.3809101894
 23
31.4424063504
  0
SOLID
  8
0
 62
7
  6
CONTINUOUS
 10
359.0512227376
 20
31.4101419116
 11
360.3809101894
 21
31.4424063504
 12
359.6871602721
 22
31.4101419116
 13
359.6871602721
 23
31.4101419116
  0
SOLID
  8
0
 62
7
  6
CONTINUOUS
 10
359.6871602721
 20
31.4101419116
 11
360.3809101894
 21
31.4424063504
 12
360.091847717
 22
31.3778792603
 13
360.091847717
 23
31.3778792603
  0
SOLID
  8
0
 62
7
  6
CONTINUOUS
 10
360.3809101894
 20
31.4424063504
 11
360.5543476894
 21
31.345614957
 12
360.091847717
 22
31.3778792603
 13
360.091847717
 23
31.3778792603
  0
SOLID
  8
0
 62
7
  6
CONTINUOUS
 10
360.2652852997
 20
31.3133521701
 11
360.091847717
 21
31.3778792603
 12
360.5543476894
 22
31.345614957
 13
360.5543476894
 23
31.345614957
  0
SOLID
  8
0
 62
7
  6
CONTINUOUS
 10
360.2652852997
 20
31.3133521701
 11
360.5543476894
 21
31.345614957
 12
360.3230977445
 22
31.2165606992
 13
360.3230977445
 23
31.2165606992
  0
SOLID
  8
0
 62
7
  6
CONTINUOUS
 10
360.5543476894
 20
31.345614957
 11
360.6121602997
 21
31.2165606992
 12
360.3230977445
 22
31.2165606992
 13
360.3230977445
 23
31.2165606992
  0
SOLID
  8
0
 62
7
  6
CONTINUOUS
 10
361.6527851343
 20
31.5069329918
 11
361.8840352445
 21
31.5391972951
 12
362.1152853548
 22
31.5391972951
 13
362.1152853548
 23
31.5391972951
  0
SOLID
  8
0
 62
7
  6
CONTINUOUS
 10
362.1152853548
 20
31.5391972951
 11
362.2887228548
 21
31.5069329918
 12
361.6527851343
 22
31.5069329918
 13
361.6527851343
 23
31.5069329918
  0
SOLID
  8
0
 62
7
  6
CONTINUOUS
 10
361.4793477997
 20
31.4424059016
 11
361.6527851343
 21
31.5069329918
 12
362.2887228548
 22
31.5069329918
 13
362.2887228548
 23
31.5069329918
  0
SOLID
  8
0
 62
7
  6
CONTINUOUS
 10
362.2887228548
 20
31.5069329918
 11
362.4621603548
 21
31.4424059016
 12
361.4793477997
 22
31.4424059016
 13
361.4793477997
 23
31.4424059016
  0
SOLID
  8
0
 62
7
  6
CONTINUOUS
 10
362.4621603548
 20
31.4424059016
 11
361.8840352445
 21
31.4101420472
 12
361.4793477997
 22
31.4424059016
 13
361.4793477997
 23
31.4424059016
  0
SOLID
  8
0
 62
7
  6
CONTINUOUS
 10
361.3637227445
 20
31.3778788115
 11
361.4793477997
 21
31.4424059016
 12
361.8840352445
 22
31.4101420472
 13
361.8840352445
 23
31.4101420472
  0
SOLID
  8
0
 62
7
  6
CONTINUOUS
 10
361.8840352445
 20
31.4101420472
 11
361.6527851343
 21
31.3778788115
 12
361.3637227445
 22
31.3778788115
 13
361.3637227445
 23
31.3778788115
  0
SOLID
  8
0
 62
7
  6
CONTINUOUS
 10
361.8840352445
 20
31.4101420472
 11
362.4621603548
 21
31.4424059016
 12
362.1152853548
 22
31.3778788115
 13
362.1152853548
 23
31.3778788115
  0
SOLID
  8
0
 62
7
  6
CONTINUOUS
 10
362.4621603548
 20
31.4424059016
 11
362.5777852445
 21
31.3778788115
 12
362.1152853548
 22
31.3778788115
 13
362.1152853548
 23
31.3778788115
  0
SOLID
  8
0
 62
7
  6
CONTINUOUS
 10
362.2309102445
 20
31.345614957
 11
362.1152853548
 21
31.3778788115
 12
362.5777852445
 22
31.3778788115
 13
362.5777852445
 23
31.3778788115
  0
SOLID
  8
0
 62
7
  6
CONTINUOUS
 10
362.5777852445
 20
31.3778788115
 11
362.6355978548
 21
31.3133517213
 12
362.2309102445
 22
31.345614957
 13
362.2309102445
 23
31.345614957
  0
SOLID
  8
0
 62
7
  6
CONTINUOUS
 10
362.3465351343
 20
31.2810878668
 11
362.2309102445
 21
31.345614957
 12
362.6355978548
 22
31.3133517213
 13
362.6355978548
 23
31.3133517213
  0
SOLID
  8
0
 62
7
  6
CONTINUOUS
 10
362.3465351343
 20
31.2810878668
 11
362.6355978548
 21
31.3133517213
 12
362.4043477445
 22
31.1520332377
 13
362.4043477445
 23
31.1520332377
  0
SOLID
  8
0
 62
7
  6
CONTINUOUS
 10
362.6355978548
 20
31.3133517213
 11
362.6934101343
 21
31.1520332377
 12
362.4043477445
 22
31.1520332377
 13
362.4043477445
 23
31.1520332377
  0
SOLID
  8
0
 62
7
  6
CONTINUOUS
 10
361.6527851343
 20
31.3778788115
 11
361.4793477997
 21
31.3133517213
 12
361.3637227445
 22
31.3778788115
 13
361.3637227445
 23
31.3778788115
  0
SOLID
  8
0
 62
7
  6
CONTINUOUS
 10
361.4793477997
 20
31.3133517213
 11
361.3637227445
 21
31.2488235635
 12
361.3637227445
 22
31.3778788115
 13
361.3637227445
 23
31.3778788115
  0
SOLID
  8
0
 62
7
  6
CONTINUOUS
 10
361.3637227445
 20
31.2488235635
 11
361.0746601894
 21
30.5067593033
 12
361.3637227445
 22
31.3778788115
 13
361.3637227445
 23
31.3778788115
  0
SOLID
  8
0
 62
7
  6
CONTINUOUS
 10
361.3637227445
 20
31.3778788115
 11
361.0746601894
 21
30.5067593033
 12
361.3637227445
 22
32.0231527459
 13
361.3637227445
 23
32.0231527459
  0
SOLID
  8
0
 62
7
  6
CONTINUOUS
 10
361.0746601894
 20
30.5067593033
 11
361.0746601894
 21
32.0231527459
 12
361.3637227445
 22
32.0231527459
 13
361.3637227445
 23
32.0231527459
  0
SOLID
  8
0
 62
7
  6
CONTINUOUS
 10
361.3637227445
 20
31.2488235635
 11
361.3637227445
 21
30.5067593033
 12
361.0746601894
 22
30.5067593033
 13
361.0746601894
 23
30.5067593033
  0
SOLID
  8
0
 62
7
  6
CONTINUOUS
 10
362.4043477445
 20
30.5067593033
 11
362.4043477445
 21
31.1520332377
 12
362.6934101343
 22
31.1520332377
 13
362.6934101343
 23
31.1520332377
  0
SOLID
  8
0
 62
7
  6
CONTINUOUS
 10
362.6934101343
 20
31.1520332377
 11
362.6934101343
 21
30.5067593033
 12
362.4043477445
 22
30.5067593033
 13
362.4043477445
 23
30.5067593033
  0
SOLID
  8
0
 62
7
  6
CONTINUOUS
 10
363.4449727445
 20
31.506933758
 11
363.8496603548
 21
31.5391977507
 12
364.1965353548
 22
31.5391977507
 13
364.1965353548
 23
31.5391977507
  0
SOLID
  8
0
 62
7
  6
CONTINUOUS
 10
364.1965353548
 20
31.5391977507
 11
364.543410024
 21
31.506933758
 12
363.4449727445
 22
31.506933758
 13
363.4449727445
 23
31.506933758
  0
SOLID
  8
0
 62
7
  6
CONTINUOUS
 10
363.3293478548
 20
31.4746706537
 11
363.4449727445
 21
31.506933758
 12
364.543410024
 22
31.506933758
 13
364.543410024
 23
31.506933758
  0
SOLID
  8
0
 62
7
  6
CONTINUOUS
 10
364.543410024
 20
31.506933758
 11
364.716847524
 21
31.4424063504
 12
363.3293478548
 22
31.4746706537
 13
363.3293478548
 23
31.4746706537
  0
SOLID
  8
0
 62
7
  6
CONTINUOUS
 10
363.2137226343
 20
31.4101417797
 11
363.3293478548
 21
31.4746706537
 12
364.716847524
 22
31.4424063504
 13
364.716847524
 23
31.4424063504
  0
SOLID
  8
0
 62
7
  6
CONTINUOUS
 10
363.2137226343
 20
31.4101417797
 11
364.716847524
 21
31.4424063504
 12
363.8496603548
 22
31.4101417797
 13
363.8496603548
 23
31.4101417797
  0
SOLID
  8
0
 62
7
  6
CONTINUOUS
 10
363.8496603548
 20
31.4101417797
 11
364.716847524
 21
31.4424063504
 12
364.1965353548
 22
31.4101417797
 13
364.1965353548
 23
31.4101417797
  0
SOLID
  8
0
 62
7
  6
CONTINUOUS
 10
364.1965353548
 20
31.4101417797
 11
364.716847524
 21
31.4424063504
 12
364.4277854651
 22
31.3778793357
 13
364.4277854651
 23
31.3778793357
  0
SOLID
  8
0
 62
7
  6
CONTINUOUS
 10
364.716847524
 20
31.4424063504
 11
364.8324727445
 21
31.3778793357
 12
364.4277854651
 22
31.3778793357
 13
364.4277854651
 23
31.3778793357
  0
SOLID
  8
0
 62
7
  6
CONTINUOUS
 10
363.1559103548
 20
31.3456153429
 11
363.2137226343
 21
31.4101417797
 12
363.8496603548
 22
31.4101417797
 13
363.8496603548
 23
31.4101417797
  0
SOLID
  8
0
 62
7
  6
CONTINUOUS
 10
364.543410024
 20
31.3456153429
 11
364.4277854651
 21
31.3778793357
 12
364.8324727445
 22
31.3778793357
 13
364.8324727445
 23
31.3778793357
  0
SOLID
  8
0
 62
7
  6
CONTINUOUS
 10
364.543410024
 20
31.3456153429
 11
364.8324727445
 21
31.3778793357
 12
364.6012229651
 22
31.2810881318
 13
364.6012229651
 23
31.2810881318
  0
SOLID
  8
0
 62
7
  6
CONTINUOUS
 10
364.8324727445
 20
31.3778793357
 11
364.890285024
 21
31.2810881318
 12
364.6012229651
 22
31.2810881318
 13
364.6012229651
 23
31.2810881318
  0
SOLID
  8
0
 62
7
  6
CONTINUOUS
 10
364.6012229651
 20
31.1842964734
 11
364.6012229651
 21
31.2810881318
 12
364.890285024
 22
31.2810881318
 13
364.890285024
 23
31.2810881318
  0
SOLID
  8
0
 62
7
  6
CONTINUOUS
 10
364.6012229651
 20
31.1842964734
 11
364.890285024
 21
31.2810881318
 12
364.6012229651
 22
31.0552422931
 13
364.6012229651
 23
31.0552422931
  0
SOLID
  8
0
 62
7
  6
CONTINUOUS
 10
364.6012229651
 20
31.0552422931
 11
364.890285024
 21
31.2810881318
 12
364.6012229651
 22
30.8616599362
 13
364.6012229651
 23
30.8616599362
  0
SOLID
  8
0
 62
7
  6
CONTINUOUS
 10
364.890285024
 20
31.2810881318
 11
364.890285024
 21
30.7648681127
 12
364.6012229651
 22
30.8616599362
 13
364.6012229651
 23
30.8616599362
  0
SOLID
  8
0
 62
7
  6
CONTINUOUS
 10
366.798097524
 20
31.5069339419
 11
367.0293479651
 21
31.5391976292
 12
367.2605977445
 22
31.5391976292
 13
367.2605977445
 23
31.5391976292
  0
SOLID
  8
0
 62
7
  6
CONTINUOUS
 10
367.2605977445
 20
31.5391976292
 11
367.4340352445
 21
31.5069339419
 12
366.798097524
 22
31.5069339419
 13
366.798097524
 23
31.5069339419
  0
SOLID
  8
0
 62
7
  6
CONTINUOUS
 10
366.624660024
 20
31.4424065674
 11
366.798097524
 21
31.5069339419
 12
367.4340352445
 22
31.5069339419
 13
367.4340352445
 23
31.5069339419
  0
SOLID
  8
0
 62
7
  6
CONTINUOUS
 10
367.4340352445
 20
31.5069339419
 11
367.6074727445
 21
31.4424065674
 12
366.624660024
 22
31.4424065674
 13
366.624660024
 23
31.4424065674
  0
SOLID
  8
0
 62
7
  6
CONTINUOUS
 10
367.6074727445
 20
31.4424065674
 11
367.0293479651
 21
31.4101420472
 12
366.624660024
 22
31.4424065674
 13
366.624660024
 23
31.4424065674
  0
SOLID
  8
0
 62
7
  6
CONTINUOUS
 10
366.5090354651
 20
31.377879193
 11
366.624660024
 21
31.4424065674
 12
367.0293479651
 22
31.4101420472
 13
367.0293479651
 23
31.4101420472
  0
SOLID
  8
0
 62
7
  6
CONTINUOUS
 10
367.0293479651
 20
31.4101420472
 11
366.798097524
 21
31.377879193
 12
366.5090354651
 22
31.377879193
 13
366.5090354651
 23
31.377879193
  0
SOLID
  8
0
 62
7
  6
CONTINUOUS
 10
367.0293479651
 20
31.4101420472
 11
367.6074727445
 21
31.4424065674
 12
367.2605977445
 22
31.377879193
 13
367.2605977445
 23
31.377879193
  0
SOLID
  8
0
 62
7
  6
CONTINUOUS
 10
367.6074727445
 20
31.4424065674
 11
367.7230979651
 21
31.377879193
 12
367.2605977445
 22
31.377879193
 13
367.2605977445
 23
31.377879193
  0
SOLID
  8
0
 62
7
  6
CONTINUOUS
 10
367.3762229651
 20
31.345614957
 11
367.2605977445
 21
31.377879193
 12
367.7230979651
 22
31.377879193
 13
367.7230979651
 23
31.377879193
  0
SOLID
  8
0
 62
7
  6
CONTINUOUS
 10
367.3762229651
 20
31.345614957
 11
367.7230979651
 21
31.377879193
 12
367.491847524
 22
31.2810881312
 13
367.491847524
 23
31.2810881312
  0
SOLID
  8
0
 62
7
  6
CONTINUOUS
 10
367.7230979651
 20
31.377879193
 11
367.7809102445
 21
31.2810881312
 12
367.491847524
 22
31.2810881312
 13
367.491847524
 23
31.2810881312
  0
SOLID
  8
0
 62
7
  6
CONTINUOUS
 10
367.5496604651
 20
31.119769695
 11
367.491847524
 21
31.2810881312
 12
367.7809102445
 22
31.2810881312
 13
367.7809102445
 23
31.2810881312
  0
SOLID
  8
0
 62
7
  6
CONTINUOUS
 10
367.7809102445
 20
31.2810881312
 11
367.838722524
 21
31.119769695
 12
367.5496604651
 22
31.119769695
 13
367.5496604651
 23
31.119769695
  0
SOLID
  8
0
 62
7
  6
CONTINUOUS
 10
366.798097524
 20
31.377879193
 11
366.624660024
 21
31.3133521701
 12
366.5090354651
 22
31.377879193
 13
366.5090354651
 23
31.377879193
  0
SOLID
  8
0
 62
7
  6
CONTINUOUS
 10
366.624660024
 20
31.3133521701
 11
366.5090354651
 21
31.2488235635
 12
366.5090354651
 22
31.377879193
 13
366.5090354651
 23
31.377879193
  0
SOLID
  8
0
 62
7
  6
CONTINUOUS
 10
366.5090354651
 20
31.2488235635
 11
366.2199727445
 21
30.5067596374
 12
366.5090354651
 22
31.377879193
 13
366.5090354651
 23
31.377879193
  0
SOLID
  8
0
 62
7
  6
CONTINUOUS
 10
366.5090354651
 20
31.377879193
 11
366.2199727445
 21
30.5067596374
 12
366.5090354651
 22
31.5391976292
 13
366.5090354651
 23
31.5391976292
  0
SOLID
  8
0
 62
7
  6
CONTINUOUS
 10
366.2199727445
 20
30.5067596374
 11
366.2199727445
 21
31.5391976292
 12
366.5090354651
 22
31.5391976292
 13
366.5090354651
 23
31.5391976292
  0
SOLID
  8
0
 62
7
  6
CONTINUOUS
 10
366.5090354651
 20
31.2488235635
 11
366.5090354651
 21
30.5067596374
 12
366.2199727445
 22
30.5067596374
 13
366.2199727445
 23
30.5067596374
  0
SOLID
  8
0
 62
7
  6
CONTINUOUS
 10
367.5496604651
 20
30.5067596374
 11
367.5496604651
 21
31.119769695
 12
367.838722524
 22
31.119769695
 13
367.838722524
 23
31.119769695
  0
SOLID
  8
0
 62
7
  6
CONTINUOUS
 10
367.838722524
 20
31.119769695
 11
367.838722524
 21
30.5067596374
 12
367.5496604651
 22
30.5067596374
 13
367.5496604651
 23
30.5067596374
  0
SOLID
  8
0
 62
7
  6
CONTINUOUS
 10
368.6480977445
 20
31.5069334157
 11
368.9949727445
 21
31.539197762
 12
369.3418477445
 22
31.539197762
 13
369.3418477445
 23
31.539197762
  0
SOLID
  8
0
 62
7
  6
CONTINUOUS
 10
369.3418477445
 20
31.539197762
 11
369.6887227445
 21
31.5069334157
 12
368.6480977445
 22
31.5069334157
 13
368.6480977445
 23
31.5069334157
  0
SOLID
  8
0
 62
7
  6
CONTINUOUS
 10
368.4168479651
 20
31.4424063504
 11
368.6480977445
 21
31.5069334157
 12
369.6887227445
 22
31.5069334157
 13
369.6887227445
 23
31.5069334157
  0
SOLID
  8
0
 62
7
  6
CONTINUOUS
 10
368.4168479651
 20
31.4424063504
 11
369.6887227445
 21
31.5069334406
 12
369.8621602445
 22
31.4746706537
 13
369.8621602445
 23
31.4746706537
  0
SOLID
  8
0
 62
7
  6
CONTINUOUS
 10
368.4168479651
 20
31.4424063504
 11
369.8621602445
 21
31.4746706537
 12
368.9949727445
 22
31.4101421267
 13
368.9949727445
 23
31.4101421267
  0
SOLID
  8
0
 62
7
  6
CONTINUOUS
 10
368.9949727445
 20
31.4101421267
 11
369.8621602445
 21
31.4746706537
 12
369.3418477445
 22
31.4101421267
 13
369.3418477445
 23
31.4101421267
  0
SOLID
  8
0
 62
7
  6
CONTINUOUS
 10
369.8621602445
 20
31.4746706537
 11
370.0355977445
 21
31.4101421267
 12
369.3418477445
 22
31.4101421267
 13
369.3418477445
 23
31.4101421267
  0
SOLID
  8
0
 62
7
  6
CONTINUOUS
 10
369.6887227445
 20
31.3778792603
 11
369.3418477445
 21
31.4101421267
 12
370.0355977445
 22
31.4101421267
 13
370.0355977445
 23
31.4101421267
  0
SOLID
  8
0
 62
7
  6
CONTINUOUS
 10
368.3012227445
 20
31.3456148845
 11
368.4168479651
 21
31.4424063504
 12
368.9949727445
 22
31.4101421267
 13
368.9949727445
 23
31.4101421267
  0
SOLID
  8
0
 62
7
  6
CONTINUOUS
 10
369.6887227445
 20
31.3778792603
 11
370.0355977445
 21
31.4101421267
 12
369.8043479651
 22
31.3456148845
 13
369.8043479651
 23
31.3456148845
  0
SOLID
  8
0
 62
7
  6
CONTINUOUS
 10
369.8043479651
 20
31.3456148845
 11
370.0355977445
 21
31.4101421267
 12
369.8621602445
 22
31.281087868
 13
369.8621602445
 23
31.281087868
  0
SOLID
  8
0
 62
7
  6
CONTINUOUS
 10
370.0355977445
 20
31.4101421267
 11
370.1512223035
 21
31.281087868
 12
369.8621602445
 22
31.281087868
 13
369.8621602445
 23
31.281087868
  0
SOLID
  8
0
 62
7
  6
CONTINUOUS
 10
359.4559102445
 20
31.3778792603
 11
358.9355977445
 21
31.3456148963
 12
359.6871602721
 22
31.4101421155
 13
359.6871602721
 23
31.4101421155
  0
SOLID
  8
0
 62
7
  6
CONTINUOUS
 10
358.9355977445
 20
31.3456148963
 11
359.0512227376
 21
31.4101421155
 12
359.6871602721
 22
31.4101421155
 13
359.6871602721
 23
31.4101421155
  0
SOLID
  8
0
 62
7
  6
CONTINUOUS
 10
359.4559102445
 20
31.3778792603
 11
359.3402852307
 21
31.3456148963
 12
358.9355977445
 22
31.3456148963
 13
358.9355977445
 23
31.3456148963
  0
SOLID
  8
0
 62
7
  6
CONTINUOUS
 10
358.8199727462
 20
31.2165607767
 11
358.9355977445
 21
31.3456148963
 12
359.3402852307
 22
31.3456148963
 13
359.3402852307
 23
31.3456148963
  0
SOLID
  8
0
 62
7
  6
CONTINUOUS
 10
363.1559103548
 20
31.3456149608
 11
363.8496603548
 21
31.4101420472
 12
363.6184102445
 22
31.3778792603
 13
363.6184102445
 23
31.3778792603
  0
SOLID
  8
0
 62
7
  6
CONTINUOUS
 10
363.6184102445
 20
31.3778792603
 11
363.5027853548
 21
31.3456149608
 12
363.1559103548
 22
31.3456149608
 13
363.1559103548
 23
31.3456149608
  0
SOLID
  8
0
 62
7
  6
CONTINUOUS
 10
363.1559103548
 20
31.2810878707
 11
363.1559103548
 21
31.3456149608
 12
363.5027853548
 22
31.3456149608
 13
363.5027853548
 23
31.3456149608
  0
SOLID
  8
0
 62
7
  6
CONTINUOUS
 10
363.5027853548
 20
31.3456149608
 11
363.4449727445
 21
31.2810878707
 12
363.1559103548
 22
31.2810878707
 13
363.1559103548
 23
31.2810878707
  0
SOLID
  8
0
 62
7
  6
CONTINUOUS
 10
368.3012227445
 20
31.3456149608
 11
368.9949727445
 21
31.4101420472
 12
368.7637229651
 22
31.3778792603
 13
368.7637229651
 23
31.3778792603
  0
SOLID
  8
0
 62
7
  6
CONTINUOUS
 10
368.7637229651
 20
31.3778792603
 11
368.6480977445
 21
31.3456149608
 12
368.3012227445
 22
31.3456149608
 13
368.3012227445
 23
31.3456149608
  0
SOLID
  8
0
 62
7
  6
CONTINUOUS
 10
368.3012227445
 20
31.2810878707
 11
368.3012227445
 21
31.3456149608
 12
368.6480977445
 22
31.3456149608
 13
368.6480977445
 23
31.3456149608
  0
SOLID
  8
0
 62
7
  6
CONTINUOUS
 10
368.6480977445
 20
31.3456149608
 11
368.5902854651
 21
31.2810878707
 12
368.3012227445
 22
31.2810878707
 13
368.3012227445
 23
31.2810878707
  0
SOLID
  8
0
 62
7
  6
CONTINUOUS
 10
368.4168479651
 20
31.1520336865
 11
368.3012227445
 21
31.2810878707
 12
368.5902854651
 22
31.2810878707
 13
368.5902854651
 23
31.2810878707
  0
SOLID
  8
0
 62
7
  6
CONTINUOUS
 10
358.8199727462
 20
31.2165607767
 11
359.3402852307
 21
31.345614957
 12
359.1668477307
 22
31.2488235635
 13
359.1668477307
 23
31.2488235635
  0
SOLID
  8
0
 62
7
  6
CONTINUOUS
 10
359.1668477307
 20
31.2488235635
 11
359.1090352445
 21
31.1842964734
 12
358.8199727462
 22
31.2165607767
 13
358.8199727462
 23
31.2165607767
  0
SOLID
  8
0
 62
7
  6
CONTINUOUS
 10
358.7621602445
 20
31.0229779898
 11
358.8199727462
 21
31.2165607767
 12
359.1090352445
 22
31.1842964734
 13
359.1090352445
 23
31.1842964734
  0
SOLID
  8
0
 62
7
  6
CONTINUOUS
 10
363.6184102445
 20
31.1520336865
 11
363.9652852445
 21
31.1842964611
 12
364.6012229651
 22
31.1842964611
 13
364.6012229651
 23
31.1842964611
  0
SOLID
  8
0
 62
7
  6
CONTINUOUS
 10
363.6184102445
 20
31.1520336865
 11
364.6012229651
 21
31.1842964611
 12
363.3871601343
 22
31.0875057863
 13
363.3871601343
 23
31.0875057863
  0
SOLID
  8
0
 62
7
  6
CONTINUOUS
 10
363.3871601343
 20
31.0875057863
 11
364.6012229651
 21
31.1842964611
 12
363.9652852445
 22
31.0552422808
 13
363.9652852445
 23
31.0552422808
  0
SOLID
  8
0
 62
7
  6
CONTINUOUS
 10
364.6012229651
 20
31.1842964611
 11
364.6012229651
 21
31.0552422808
 12
363.9652852445
 22
31.0552422808
 13
363.9652852445
 23
31.0552422808
  0
SOLID
  8
0
 62
7
  6
CONTINUOUS
 10
368.4168479651
 20
31.1520338754
 11
368.5902854651
 21
31.2810878668
 12
368.6480977445
 22
31.2165607767
 13
368.6480977445
 23
31.2165607767
  0
SOLID
  8
0
 62
7
  6
CONTINUOUS
 10
368.6480977445
 20
31.2165607767
 11
368.8215352445
 21
31.1520338754
 12
368.4168479651
 22
31.1520338754
 13
368.4168479651
 23
31.1520338754
  0
SOLID
  8
0
 62
7
  6
CONTINUOUS
 10
368.6480977445
 20
31.0552422931
 11
368.4168479651
 21
31.1520338754
 12
368.8215352445
 22
31.1520338754
 13
368.8215352445
 23
31.1520338754
  0
SOLID
  8
0
 62
7
  6
CONTINUOUS
 10
368.8215352445
 20
31.1520338754
 11
369.8043479651
 21
30.9907152029
 12
368.6480977445
 22
31.0552422931
 13
368.6480977445
 23
31.0552422931
  0
SOLID
  8
0
 62
7
  6
CONTINUOUS
 10
369.6309104651
 20
30.8939239876
 11
368.6480977445
 21
31.0552422931
 12
369.8043479651
 22
30.9907152029
 13
369.8043479651
 23
30.9907152029
  0
SOLID
  8
0
 62
7
  6
CONTINUOUS
 10
369.8043479651
 20
30.9907152029
 11
370.0355977445
 21
30.8939239876
 12
369.6309104651
 22
30.8939239876
 13
369.6309104651
 23
30.8939239876
  0
SOLID
  8
0
 62
7
  6
CONTINUOUS
 10
369.8043479651
 20
30.8293967193
 11
369.6309104651
 21
30.8939239876
 12
370.0355977445
 22
30.8939239876
 13
370.0355977445
 23
30.8939239876
  0
SOLID
  8
0
 62
7
  6
CONTINUOUS
 10
369.8043479651
 20
30.8293967193
 11
370.0355977445
 21
30.8939239876
 12
369.8621602445
 22
30.7648682694
 13
369.8621602445
 23
30.7648682694
  0
SOLID
  8
0
 62
7
  6
CONTINUOUS
 10
370.0355977445
 20
30.8939239876
 11
370.1512223035
 21
30.7648682694
 12
369.8621602445
 22
30.7648682694
 13
369.8621602445
 23
30.7648682694
  0
SOLID
  8
0
 62
7
  6
CONTINUOUS
 10
369.8043479651
 20
30.7003411846
 11
369.8621602445
 21
30.7648682694
 12
370.1512223035
 22
30.7648682694
 13
370.1512223035
 23
30.7648682694
  0
SOLID
  8
0
 62
7
  6
CONTINUOUS
 10
370.1512223035
 20
30.7648682694
 11
370.1512223035
 21
30.7003411846
 12
369.8043479651
 22
30.7003411846
 13
369.8043479651
 23
30.7003411846
  0
SOLID
  8
0
 62
7
  6
CONTINUOUS
 10
369.6887227445
 20
30.6680782357
 11
369.8043479651
 21
30.7003411846
 12
370.1512223035
 22
30.7003411846
 13
370.1512223035
 23
30.7003411846
  0
SOLID
  8
0
 62
7
  6
CONTINUOUS
 10
369.6887227445
 20
30.6680782357
 11
370.1512223035
 21
30.7003411846
 12
369.4574729651
 22
30.6358140998
 13
369.4574729651
 23
30.6358140998
  0
SOLID
  8
0
 62
7
  6
CONTINUOUS
 10
370.1512223035
 20
30.7003411846
 11
370.0355977445
 21
30.6035511455
 12
369.4574729651
 22
30.6358140998
 13
369.4574729651
 23
30.6358140998
  0
SOLID
  8
0
 62
7
  6
CONTINUOUS
 10
370.0355977445
 20
30.6035511455
 11
368.5902854651
 21
30.5712868422
 12
369.4574729651
 22
30.6358140998
 13
369.4574729651
 23
30.6358140998
  0
SOLID
  8
0
 62
7
  6
CONTINUOUS
 10
369.4574729651
 20
30.6358140998
 11
368.5902854651
 21
30.5712868422
 12
369.1105979651
 22
30.6358140998
 13
369.1105979651
 23
30.6358140998
  0
SOLID
  8
0
 62
7
  6
CONTINUOUS
 10
368.5902854651
 20
30.5712868422
 11
368.4168479651
 21
30.6358140998
 12
369.1105979651
 22
30.6358140998
 13
369.1105979651
 23
30.6358140998
  0
SOLID
  8
0
 62
7
  6
CONTINUOUS
 10
368.5902854651
 20
30.5712868422
 11
370.0355977445
 21
30.6035511455
 12
368.7637229651
 22
30.5390223111
 13
368.7637229651
 23
30.5390223111
  0
SOLID
  8
0
 62
7
  6
CONTINUOUS
 10
370.0355977445
 20
30.6035511455
 11
369.8043479651
 21
30.5390223111
 12
368.7637229651
 22
30.5390223111
 13
368.7637229651
 23
30.5390223111
  0
SOLID
  8
0
 62
7
  6
CONTINUOUS
 10
369.1105979651
 20
30.5067599302
 11
368.7637229651
 21
30.5390223111
 12
369.8043479651
 22
30.5390223111
 13
369.8043479651
 23
30.5390223111
  0
SOLID
  8
0
 62
7
  6
CONTINUOUS
 10
369.8043479651
 20
30.5390223111
 11
369.4574729651
 21
30.5067599302
 12
369.1105979651
 22
30.5067599302
 13
369.1105979651
 23
30.5067599302
  0
SOLID
  8
0
 62
7
  6
CONTINUOUS
 10
358.7621602445
 20
31.0229779898
 11
359.1090352445
 21
31.1842964734
 12
359.0512227376
 22
31.0552422931
 13
359.0512227376
 23
31.0552422931
  0
SOLID
  8
0
 62
7
  6
CONTINUOUS
 10
359.0512227376
 20
31.0552422931
 11
359.0512227376
 21
30.9584509954
 12
358.7621602445
 22
31.0229779898
 13
358.7621602445
 23
31.0229779898
  0
SOLID
  8
0
 62
7
  6
CONTINUOUS
 10
358.8199727462
 20
30.8293967193
 11
358.7621602445
 21
31.0229779898
 12
359.0512227376
 22
30.9584509954
 13
359.0512227376
 23
30.9584509954
  0
SOLID
  8
0
 62
7
  6
CONTINUOUS
 10
359.0512227376
 20
30.9584509954
 11
359.1668477307
 21
30.797132416
 12
358.8199727462
 22
30.8293967193
 13
358.8199727462
 23
30.8293967193
  0
SOLID
  8
0
 62
7
  6
CONTINUOUS
 10
358.9355977445
 20
30.7003413087
 11
358.8199727462
 21
30.8293967193
 12
359.1668477307
 22
30.797132416
 13
359.1668477307
 23
30.797132416
  0
SOLID
  8
0
 62
7
  6
CONTINUOUS
 10
359.1668477307
 20
30.797132416
 11
359.3402852307
 21
30.7003413087
 12
358.9355977445
 22
30.7003413087
 13
358.9355977445
 23
30.7003413087
  0
SOLID
  8
0
 62
7
  6
CONTINUOUS
 10
359.0512227376
 20
30.6358140759
 11
358.9355977445
 21
30.7003413087
 12
359.3402852307
 22
30.7003413087
 13
359.3402852307
 23
30.7003413087
  0
SOLID
  8
0
 62
7
  6
CONTINUOUS
 10
359.3402852307
 20
30.7003413087
 11
359.6871602721
 21
30.6358140759
 12
359.0512227376
 22
30.6358140759
 13
359.0512227376
 23
30.6358140759
  0
SOLID
  8
0
 62
7
  6
CONTINUOUS
 10
359.2246602583
 20
30.5712868422
 11
359.0512227376
 21
30.6358140759
 12
359.6871602721
 22
30.6358140759
 13
359.6871602721
 23
30.6358140759
  0
SOLID
  8
0
 62
7
  6
CONTINUOUS
 10
363.2715352445
 20
31.0229779808
 11
363.3871601343
 21
31.0875057863
 12
363.9652852445
 22
31.0552422931
 13
363.9652852445
 23
31.0552422931
  0
SOLID
  8
0
 62
7
  6
CONTINUOUS
 10
363.9652852445
 20
31.0552422931
 11
363.7340351343
 21
31.0229779808
 12
363.2715352445
 22
31.0229779808
 13
363.2715352445
 23
31.0229779808
  0
SOLID
  8
0
 62
7
  6
CONTINUOUS
 10
363.1559103548
 20
30.8939238094
 11
363.2715352445
 21
31.0229779808
 12
363.7340351343
 22
31.0229779808
 13
363.7340351343
 23
31.0229779808
  0
SOLID
  8
0
 62
7
  6
CONTINUOUS
 10
363.5027853548
 20
30.926187309
 11
363.1559103548
 21
30.8939238094
 12
363.6184102445
 22
30.9907152029
 13
363.6184102445
 23
30.9907152029
  0
SOLID
  8
0
 62
7
  6
CONTINUOUS
 10
363.1559103548
 20
30.8939238094
 11
363.7340351343
 21
31.0229779898
 12
363.6184102445
 22
30.9907152029
 13
363.6184102445
 23
30.9907152029
  0
SOLID
  8
0
 62
7
  6
CONTINUOUS
 10
363.5027853548
 20
30.926187309
 11
363.4449727445
 21
30.8293967193
 12
363.1559103548
 22
30.8939238094
 13
363.1559103548
 23
30.8939238094
  0
SOLID
  8
0
 62
7
  6
CONTINUOUS
 10
363.1559103548
 20
30.797132416
 11
363.1559103548
 21
30.8939238094
 12
363.4449727445
 22
30.8293967193
 13
363.4449727445
 23
30.8293967193
  0
SOLID
  8
0
 62
7
  6
CONTINUOUS
 10
363.4449727445
 20
30.8293967193
 11
363.4449727445
 21
30.7648681127
 12
363.1559103548
 22
30.797132416
 13
363.1559103548
 23
30.797132416
  0
SOLID
  8
0
 62
7
  6
CONTINUOUS
 10
363.2137226343
 20
30.6680782357
 11
363.1559103548
 21
30.797132416
 12
363.4449727445
 22
30.7648681127
 13
363.4449727445
 23
30.7648681127
  0
SOLID
  8
0
 62
7
  6
CONTINUOUS
 10
364.6012229651
 20
30.8616599362
 11
364.890285024
 21
30.7648681127
 12
364.543410024
 22
30.797132416
 13
364.543410024
 23
30.797132416
  0
SOLID
  8
0
 62
7
  6
CONTINUOUS
 10
364.369972524
 20
30.7003410226
 11
364.543410024
 21
30.797132416
 12
364.890285024
 22
30.7648681127
 13
364.890285024
 23
30.7648681127
  0
SOLID
  8
0
 62
7
  6
CONTINUOUS
 10
364.369972524
 20
30.7003410226
 11
364.890285024
 21
30.7648681127
 12
364.6012229651
 22
30.6680782357
 13
364.6012229651
 23
30.6680782357
  0
SOLID
  8
0
 62
7
  6
CONTINUOUS
 10
364.890285024
 20
30.7648681127
 11
364.9480979651
 21
30.6035511455
 12
364.6012229651
 22
30.6680782357
 13
364.6012229651
 23
30.6680782357
  0
SOLID
  8
0
 62
7
  6
CONTINUOUS
 10
364.6590352445
 20
30.5712868422
 11
364.6012229651
 21
30.6680782357
 12
364.9480979651
 22
30.6035511455
 13
364.9480979651
 23
30.6035511455
  0
SOLID
  8
0
 62
7
  6
CONTINUOUS
 10
364.6590352445
 20
30.5712868422
 11
364.9480979651
 21
30.6035511455
 12
364.716847524
 22
30.5067598731
 13
364.716847524
 23
30.5067598731
  0
SOLID
  8
0
 62
7
  6
CONTINUOUS
 10
364.9480979651
 20
30.6035511455
 11
365.0059102445
 21
30.5067598731
 12
364.716847524
 22
30.5067598731
 13
364.716847524
 23
30.5067598731
  0
SOLID
  8
0
 62
7
  6
CONTINUOUS
 10
360.2652852997
 20
30.7326051679
 11
360.3230977445
 21
30.8293966612
 12
360.6121602997
 22
30.8293966612
 13
360.6121602997
 23
30.8293966612
  0
SOLID
  8
0
 62
7
  6
CONTINUOUS
 10
360.6121602997
 20
30.8293966612
 11
360.5543476894
 21
30.7003410226
 12
360.2652852997
 22
30.7326051679
 13
360.2652852997
 23
30.7326051679
  0
SOLID
  8
0
 62
7
  6
CONTINUOUS
 10
360.091847717
 20
30.6680782357
 11
360.2652852997
 21
30.7326051679
 12
360.5543476894
 22
30.7003410226
 13
360.5543476894
 23
30.7003410226
  0
SOLID
  8
0
 62
7
  6
CONTINUOUS
 10
360.091847717
 20
30.6680782357
 11
360.5543476894
 21
30.7003410226
 12
359.6871602721
 22
30.6358139324
 13
359.6871602721
 23
30.6358139324
  0
SOLID
  8
0
 62
7
  6
CONTINUOUS
 10
360.5543476894
 20
30.7003410226
 11
360.3809101894
 21
30.6035511455
 12
359.6871602721
 22
30.6358139324
 13
359.6871602721
 23
30.6358139324
  0
SOLID
  8
0
 62
7
  6
CONTINUOUS
 10
359.2246602583
 20
30.5712868422
 11
359.6871602721
 21
30.6358139324
 12
360.3809101894
 22
30.6035511455
 13
360.3809101894
 23
30.6035511455
  0
SOLID
  8
0
 62
7
  6
CONTINUOUS
 10
359.2246602583
 20
30.5712868422
 11
360.3809101894
 21
30.6035511455
 12
359.3980977583
 22
30.5390224228
 13
359.3980977583
 23
30.5390224228
  0
SOLID
  8
0
 62
7
  6
CONTINUOUS
 10
360.3809101894
 20
30.6035511455
 11
360.1496602445
 21
30.5390224228
 12
359.3980977583
 22
30.5390224228
 13
359.3980977583
 23
30.5390224228
  0
SOLID
  8
0
 62
7
  6
CONTINUOUS
 10
359.744972717
 20
30.5067597521
 11
359.3980977583
 21
30.5390224228
 12
360.1496602445
 22
30.5390224228
 13
360.1496602445
 23
30.5390224228
  0
SOLID
  8
0
 62
7
  6
CONTINUOUS
 10
363.2137226343
 20
30.6680782357
 11
363.4449727445
 21
30.7648681127
 12
363.5027853548
 22
30.7003410226
 13
363.5027853548
 23
30.7003410226
  0
SOLID
  8
0
 62
7
  6
CONTINUOUS
 10
363.5027853548
 20
30.7003410226
 11
363.7340351343
 21
30.6358139324
 12
363.2137226343
 22
30.6680782357
 13
363.2137226343
 23
30.6680782357
  0
SOLID
  8
0
 62
7
  6
CONTINUOUS
 10
363.3871601343
 20
30.5712868422
 11
363.2137226343
 21
30.6680782357
 12
363.7340351343
 22
30.6358139324
 13
363.7340351343
 23
30.6358139324
  0
SOLID
  8
0
 62
7
  6
CONTINUOUS
 10
364.0809101343
 20
30.6358139363
 11
364.369972524
 21
30.7003410226
 12
364.6012229651
 22
30.6680782357
 13
364.6012229651
 23
30.6680782357
  0
SOLID
  8
0
 62
7
  6
CONTINUOUS
 10
364.6012229651
 20
30.6680782357
 11
364.543410024
 21
30.6035511455
 12
364.0809101343
 22
30.6358139363
 13
364.0809101343
 23
30.6358139363
  0
SOLID
  8
0
 62
7
  6
CONTINUOUS
 10
364.543410024
 20
30.6035511455
 11
363.3871601343
 21
30.5712868422
 12
364.0809101343
 22
30.6358139363
 13
364.0809101343
 23
30.6358139363
  0
SOLID
  8
0
 62
7
  6
CONTINUOUS
 10
363.3871601343
 20
30.5712868422
 11
363.7340351343
 21
30.6358139363
 12
364.0809101343
 22
30.6358139363
 13
364.0809101343
 23
30.6358139363
  0
SOLID
  8
0
 62
7
  6
CONTINUOUS
 10
363.3871601343
 20
30.5712868422
 11
364.543410024
 21
30.6035511455
 12
363.5027853548
 22
30.5390225267
 13
363.5027853548
 23
30.5390225267
  0
SOLID
  8
0
 62
7
  6
CONTINUOUS
 10
364.543410024
 20
30.6035511455
 11
364.369972524
 21
30.5390225267
 12
363.5027853548
 22
30.5390225267
 13
363.5027853548
 23
30.5390225267
  0
SOLID
  8
0
 62
7
  6
CONTINUOUS
 10
363.7340351343
 20
30.5067596914
 11
363.5027853548
 21
30.5390225267
 12
364.369972524
 22
30.5390225267
 13
364.369972524
 23
30.5390225267
  0
SOLID
  8
0
 62
7
  6
CONTINUOUS
 10
364.369972524
 20
30.5390225267
 11
364.0809101343
 21
30.5067596914
 12
363.7340351343
 22
30.5067596914
 13
363.7340351343
 23
30.5067596914
  0
SOLID
  8
0
 62
7
  6
CONTINUOUS
 10
368.7637229651
 20
30.6680782357
 11
368.4168479651
 21
30.6358138717
 12
368.6480977445
 22
30.7003410226
 13
368.6480977445
 23
30.7003410226
  0
SOLID
  8
0
 62
7
  6
CONTINUOUS
 10
368.6480977445
 20
30.7003410226
 11
368.4168479651
 21
30.6358138717
 12
368.5902854651
 22
30.7648680521
 13
368.5902854651
 23
30.7648680521
  0
SOLID
  8
0
 62
7
  6
CONTINUOUS
 10
368.4168479651
 20
30.6358138717
 11
368.3012227445
 21
30.7648680521
 12
368.5902854651
 22
30.7648680521
 13
368.5902854651
 23
30.7648680521
  0
SOLID
  8
0
 62
7
  6
CONTINUOUS
 10
368.7637229651
 20
30.6680782357
 11
369.1105979651
 21
30.6358138717
 12
368.4168479651
 22
30.6358138717
 13
368.4168479651
 23
30.6358138717
  0
SOLID
  8
0
 62
7
  6
CONTINUOUS
 10
365.4684104651
 20
30.5067597521
 11
365.4684104651
 21
31.5391977439
 12
365.757472524
 22
30.5067597521
 13
365.757472524
 23
31.5391977439
  0
ENDBLK
  8
0
  6
BYBLOCK
 62
0
  0
BLOCK
  8
0
 62
2
  6
CONTINUOUS
  2
AMMEAAL_LOGO_BL0
 70
64
 10
240.8592468615
 20
19.762288695
  0
TEXT
  8
0
 62
7
  6
CONTINUOUS
 10
227.1239507038
 20
19.1357028027
  7
TEXTSTYLE_3
 40
2.7338706658
  1
Ammeraal Beltech
 41
1.0
 51
15.0
 72
0
  0
TEXT
  8
0
 62
7
  6
CONTINUOUS
 10
237.9247515296
 20
16.8621661299
  7
TEXTSTYLE_4
 40
1.0935482663
  1
Innovation & Service in Belting
 41
1.0
 72
0
  0
LINE
  8
0
 62
7
  6
CONTINUOUS
 10
221.0994100525
 20
19.9022961113
 11
221.8775620458
 21
23.5632134089
  0
LINE
  8
0
 62
7
  6
CONTINUOUS
 10
231.9727303357
 20
27.2266073205
 11
222.3653797889
 21
24.1049898993
  0
LINE
  8
0
 62
7
  6
CONTINUOUS
 10
221.3246933848
 20
19.2089453082
 11
228.8317686459
 21
12.4495443822
  0
LINE
  8
0
 62
7
  6
CONTINUOUS
 10
221.5872277955
 20
20.4440726016
 11
232.3954971607
 21
23.9558922005
  0
LINE
  8
0
 62
7
  6
CONTINUOUS
 10
232.3912920235
 20
13.6061036368
 11
223.9458323548
 21
21.2104296785
  0
LINE
  8
0
 62
7
  6
CONTINUOUS
 10
232.9111147433
 20
26.3816822048
 11
231.9345552061
 21
21.7873308023
  0
LINE
  8
0
 62
7
  6
CONTINUOUS
 10
231.2347532584
 20
18.4950214885
 11
230.5483050469
 21
15.2655365641
  0
LINE
  8
0
 62
7
  6
CONTINUOUS
 10
233.5922108419
 20
13.9963058145
 11
234.5484423775
 21
18.4950214885
  0
LINE
  8
0
 62
7
  6
CONTINUOUS
 10
235.2482443252
 20
21.7873308023
 11
235.6924861276
 21
23.8773241617
  0
LINE
  8
0
 62
7
  6
CONTINUOUS
 10
229.5448697213
 20
12.2979700695
 11
233.1043930989
 21
13.4545293241
  0
LINE
  8
0
 62
7
  6
CONTINUOUS
 10
232.685831411
 20
27.0750330078
 11
235.4672027953
 21
24.5706749648
  0
ARC
  8
0
 62
7
  6
CONTINUOUS
 10
222.5906631212
 20
23.4116390962
 40
0.7290321776
 50
108.0
 51
168.0
  0
ARC
  8
0
 62
7
  6
CONTINUOUS
 10
232.198013668
 20
26.5332565175
 40
0.7290321776
 50
348.0
 51
108.0
  0
ARC
  8
0
 62
7
  6
CONTINUOUS
 10
234.9793850522
 20
24.0288984744
 40
0.7290321776
 50
348.0
 51
48.0
  0
ARC
  8
0
 62
7
  6
CONTINUOUS
 10
229.319586389
 20
12.9913208726
 40
0.7290321776
 50
228.0
 51
288.0
  0
ARC
  8
0
 62
7
  6
CONTINUOUS
 10
221.8125111278
 20
19.7507217986
 40
0.7290321776
 50
108.0
 51
228.0
  0
ARC
  8
0
 62
7
  6
CONTINUOUS
 10
232.8791097665
 20
14.1478801272
 40
0.7290321776
 50
228.0
 51
348.0
  0
ENDBLK
  8
0
  6
BYBLOCK
 62
0
  0
ENDSEC
  0
SECTION
  2
ENTITIES
  0
TEXT
  8
0
 62
5
  6
CONTINUOUS
 10
304.937007874
 20
25.636
  7
TEXTSTYLE_2
 40
2.8
  1
Scale :
 41
0.6
 51
0.000019
 72
0
  0
TEXT
  8
0
 62
5
  6
CONTINUOUS
 10
324.937007874
 20
25.636
  7
TEXTSTYLE_2
 40
2.8
  1
Belt type:
 41
0.6
 51
0.000019
 72
0
  0
INSERT
  8
0
 62
2
  6
CONTINUOUS
  2
AMMEAAL_LOGO_BL0
 10
240.8592468615
 20
19.762288695
  0
INSERT
  8
0
 62
2
  6
CONTINUOUS
  2
UNI_LOGO2_BL1
 10
382.7840918555
 20
35.5067593403
  0
LINE
  8
0
 62
2
  6
CONTINUOUS
 10
218.937007874
 20
30.0
 11
408.937007874
 21
30.0
  0
LINE
  8
0
 62
2
  6
CONTINUOUS
 10
218.937007874
 20
30.0
 11
218.937007874
 21
10.0
  0
LINE
  8
0
 62
2
  6
CONTINUOUS
 10
218.937007874
 20
10.0
 11
408.937007874
 21
10.0
  0
LINE
  8
0
 62
2
  6
CONTINUOUS
 10
303.937007874
 20
30.0
 11
303.937007874
 21
10.0
  0
LINE
  8
0
 62
2
  6
CONTINUOUS
 10
323.937007874
 20
30.0
 11
323.937007874
 21
10.0
  0
LINE
  8
0
 62
2
  6
CONTINUOUS
 10
408.937007874
 20
30.0
 11
408.937007874
 21
10.0
  0
TEXT
  8
0
 62
5
  6
CONTINUOUS
 10
221.937007874
 20
23.303
  7
TEXTSTYLE_5
 40
1.52
  1
                                                                     Ammeraal Beltech Modular A/S
 41
1.0
 72
0
  0
TEXT
  8
0
 62
5
  6
CONTINUOUS
 10
221.937007874
 20
20.595
  7
TEXTSTYLE_5
 40
1.5
  1
                                                                      Hjulmagervej 21, 7100 Vejle,  DK
 41
1.0
 72
0
  0
TEXT
  8
0
 62
5
  6
CONTINUOUS
 10
221.937007874
 20
17.881
  7
TEXTSTYLE_5
 40
1.495
  1
                                                                      tel: 
 41
1.0
 72
0
  0
TEXT
  8
0
 62
5
  6
CONTINUOUS
 10
266.9239544389
 20
17.881
  7
TEXTSTYLE_5
 40
1.51
  1
+45 75723100     fax: +45 75723348
 41
1.0
 72
0
  0
TEXT
  8
0
 62
5
  6
CONTINUOUS
 10
221.937007874
 20
15.177
  7
TEXTSTYLE_5
 40
1.5
  1
                                                                      admin@unichains.dk  www.unichains.com
 41
1.0
 72
0
  0
TEXT
  8
0
 62
5
  6
CONTINUOUS
 10
308.687007874
 20
13.75
  7
TEXTSTYLE_6
 40
5.0
  1
1:1
 41
0.7
 72
1
 11
313.937007874
 21
13.75
  0
TEXT
  8
0
 62
5
  6
CONTINUOUS
 10
326.937007874
 20
13.75
  7
TEXTSTYLE_7
 40
7.5
  1
Z12
 41
0.6222222222
 72
0
  0
LINE
  8
0
 62
7
  6
CONTINUOUS
 10
0.0
 20
0.0
 11
0.0
 21
297.0
  0
LINE
  8
0
 62
7
  6
CONTINUOUS
 10
8.937007874
 20
10.0
 11
8.937007874
 21
287.0
  0
LINE
  8
0
 62
7
  6
CONTINUOUS
 10
0.0
 20
0.0
 11
420.0
 21
0.0
  0
LINE
  8
0
 62
7
  6
CONTINUOUS
 10
408.937007874
 20
10.0
 11
8.937007874
 21
10.0
  0
LINE
  8
0
 62
7
  6
CONTINUOUS
 10
218.937007874
 20
30.0
 11
408.937007874
 21
30.0
  0
LINE
  8
0
 62
7
  6
CONTINUOUS
 10
210.0
 20
297.0
 11
210.0
 21
292.0
  0
LINE
  8
0
 62
7
  6
CONTINUOUS
 10
210.0
 20
0.0
 11
210.0
 21
5.0
  0
LINE
  8
0
 62
7
  6
CONTINUOUS
 10
8.937007874
 20
287.0
 11
408.937007874
 21
287.0
  0
LINE
  8
0
 62
7
  6
CONTINUOUS
 10
0.0
 20
297.0
 11
420.0
 21
297.0
  0
LINE
  8
0
 62
7
  6
CONTINUOUS
 10
408.937007874
 20
287.0
 11
408.937007874
 21
10.0
  0
LINE
  8
0
 62
7
  6
CONTINUOUS
 10
420.0
 20
0.0
 11
420.0
 21
297.0
  0
LINE
  8
0
 62
7
  6
CONTINUOUS
 10
84.1727689567
 20
224.2178173898
 11
83.9382040723
 21
223.8573903005
  0
LINE
  8
0
 62
7
  6
CONTINUOUS
 10
84.2263528942
 20
223.5442646778
 11
84.4609177975
 21
223.9046917466
  0
LINE
  8
0
 62
7
  6
CONTINUOUS
 10
85.0386039414
 20
228.7696825781
 11
84.7853517074
 21
228.4221312609
  0
LINE
  8
0
 62
7
  6
CONTINUOUS
 10
85.0565808778
 20
228.094240876
 11
85.3098331118
 21
228.4417921932
  0
LINE
  8
0
 62
7
  6
CONTINUOUS
 10
99.046688688
 20
239.6994268912
 11
98.7672159053
 21
239.3242281544
  0
LINE
  8
0
 62
7
  6
CONTINUOUS
 10
99.4225922196
 20
239.1731460996
 11
99.6557389731
 21
239.4068471411
  0
LINE
  8
0
 62
7
  6
CONTINUOUS
 10
82.9942699191
 20
227.0367796818
 11
82.6110171186
 21
226.6840974515
  0
LINE
  8
0
 62
7
  6
CONTINUOUS
 10
81.0780062731
 20
225.2733688585
 11
80.6947535549
 21
224.920686704
  0
LINE
  8
0
 62
7
  6
CONTINUOUS
 10
83.9382040723
 20
223.8573903005
 11
83.6316018539
 21
223.5752445365
  0
LINE
  8
0
 62
7
  6
CONTINUOUS
 10
83.9197506758
 20
223.2621189138
 11
84.2263528942
 21
223.5442646778
  0
LINE
  8
0
 62
7
  6
CONTINUOUS
 10
85.0695088579
 20
224.3201654027
 11
85.4527616583
 21
224.672847633
  0
LINE
  8
0
 62
7
  6
CONTINUOUS
 10
99.3732458037
 20
239.9792296058
 11
99.046688688
 21
239.6994268912
  0
LINE
  8
0
 62
7
  6
CONTINUOUS
 10
102.1906310382
 20
236.6243596051
 11
101.8640739225
 21
236.3445568906
  0
LINE
  8
0
 62
7
  6
CONTINUOUS
 10
85.3596634681
 20
229.0352612991
 11
85.0386039414
 21
228.7696825781
  0
LINE
  8
0
 62
7
  6
CONTINUOUS
 10
84.316220351
 20
228.1721307409
 11
83.9148960575
 21
227.8401574346
  0
LINE
  8
0
 62
7
  6
CONTINUOUS
 10
86.0847296106
 20
225.2170341254
 11
86.4860539041
 21
225.5490074316
  0
LINE
  8
0
 62
7
  6
CONTINUOUS
 10
87.930821085
 20
226.7441111062
 11
88.3321451489
 21
227.0760842224
  0
LINE
  8
0
 62
7
  6
CONTINUOUS
 10
102.1465671249
 20
235.7721743591
 11
102.5665324606
 21
236.0980776998
  0
LINE
  8
0
 62
7
  6
CONTINUOUS
 10
110.7322598624
 20
242.4647540834
 11
110.4709528037
 21
242.2630309898
  0
LINE
  8
0
 62
7
  6
CONTINUOUS
 10
111.4547038886
 20
240.3507482728
 11
111.1933968299
 21
240.1490251792
  0
LINE
  8
0
 62
7
  6
CONTINUOUS
 10
86.3543887069
 20
231.8574294957
 11
85.9420028365
 21
231.5393020872
  0
LINE
  8
0
 62
7
  6
CONTINUOUS
 10
86.2668989985
 20
231.1181419389
 11
86.6792848689
 21
231.4362693474
  0
LINE
  8
0
 62
7
  6
CONTINUOUS
 10
87.3290773749
 20
230.5939488149
 11
86.9166915045
 21
230.2758214064
  0
LINE
  8
0
 62
7
  6
CONTINUOUS
 10
88.9960271234
 20
227.5803962213
 11
89.4084129937
 21
227.8985236298
  0
LINE
  8
0
 62
7
  6
CONTINUOUS
 10
125.7007218683
 20
247.7093450732
 11
125.3089994232
 21
247.4535392327
  0
LINE
  8
0
 62
7
  6
CONTINUOUS
 10
92.0761223679
 20
235.8690020039
 11
91.5435647908
 21
235.5418821067
  0
LINE
  8
0
 62
7
  6
CONTINUOUS
 10
97.0217895364
 20
233.7880294614
 11
94.3590016512
 21
232.1524299755
  0
LINE
  8
0
 62
7
  6
CONTINUOUS
 10
94.1605239683
 20
231.2814214904
 11
97.3558694306
 21
233.2441408735
  0
LINE
  8
0
 62
7
  6
CONTINUOUS
 10
111.3012389429
 20
239.5113378651
 11
111.7596869373
 21
239.7804322552
  0
LINE
  8
0
 62
7
  6
CONTINUOUS
 10
98.2359554814
 20
236.3958461989
 11
96.9588712325
 21
235.691720435
  0
LINE
  8
0
 62
7
  6
CONTINUOUS
 10
97.2156951906
 20
235.2259146819
 11
98.4927794395
 21
235.9300404458
  0
LINE
  8
0
 62
7
  6
CONTINUOUS
 10
83.5411113067
 20
223.0582546059
 11
83.9197506758
 21
223.2621189138
  0
LINE
  8
0
 62
7
  6
CONTINUOUS
 10
99.8402933384
 20
240.2097358608
 11
99.3732458037
 21
239.9792296058
  0
LINE
  8
0
 62
7
  6
CONTINUOUS
 10
99.6557389731
 20
239.4068471411
 11
100.21619687
 21
239.6834550691
  0
LINE
  8
0
 62
7
  6
CONTINUOUS
 10
101.0120657413
 20
239.4830776099
 11
101.5725236382
 21
239.759685538
  0
LINE
  8
0
 62
7
  6
CONTINUOUS
 10
100.8753477305
 20
238.3478957175
 11
100.3148898337
 21
238.0712877895
  0
LINE
  8
0
 62
7
  6
CONTINUOUS
 10
100.5973830031
 20
237.4989053248
 11
101.1578409
 21
237.7755132528
  0
LINE
  8
0
 62
7
  6
CONTINUOUS
 10
100.0399434209
 20
236.2747150064
 11
99.4794855241
 21
235.9981070783
  0
LINE
  8
0
 62
7
  6
CONTINUOUS
 10
101.8640739225
 20
236.3445568906
 11
101.1167974394
 21
235.9757466716
  0
LINE
  8
0
 62
7
  6
CONTINUOUS
 10
101.3992906418
 20
235.40336414
 11
102.1465671249
 21
235.7721743591
  0
LINE
  8
0
 62
7
  6
CONTINUOUS
 10
85.3098331118
 20
228.4417921932
 11
85.6986999311
 21
228.6253983179
  0
LINE
  8
0
 62
7
  6
CONTINUOUS
 10
106.2342860903
 20
243.0294939732
 11
105.6571447782
 21
242.7896337934
  0
LINE
  8
0
 62
7
  6
CONTINUOUS
 10
103.2523885771
 20
241.7902160727
 11
102.386676609
 21
241.430425803
  0
LINE
  8
0
 62
7
  6
CONTINUOUS
 10
104.3055580472
 20
236.813295306
 11
104.8826993593
 21
237.0531554858
  0
LINE
  8
0
 62
7
  6
CONTINUOUS
 10
107.2874555604
 20
238.0525732066
 11
108.1531675286
 21
238.4123634762
  0
LINE
  8
0
 62
7
  6
CONTINUOUS
 10
85.6682652908
 20
229.1524726486
 11
85.3596634681
 21
229.0352612991
  0
LINE
  8
0
 62
7
  6
CONTINUOUS
 10
109.6843403771
 20
244.2426842938
 11
107.3186671628
 21
243.4342350109
  0
LINE
  8
0
 62
7
  6
CONTINUOUS
 10
108.1164980246
 20
243.0323457319
 11
109.9893234047
 21
243.6723683378
  0
LINE
  8
0
 62
7
  6
CONTINUOUS
 10
110.4709528037
 20
242.2630309898
 11
108.5981274236
 21
241.6230083838
  0
LINE
  8
0
 62
7
  6
CONTINUOUS
 10
108.8045399819
 20
241.0190067841
 11
110.6773653619
 21
241.65902939
  0
LINE
  8
0
 62
7
  6
CONTINUOUS
 10
111.1933968299
 20
240.1490251792
 11
109.3205714498
 21
239.5090025732
  0
LINE
  8
0
 62
7
  6
CONTINUOUS
 10
108.9355657286
 20
238.7028885822
 11
111.3012389429
 21
239.5113378651
  0
LINE
  8
0
 62
7
  6
CONTINUOUS
 10
125.860777716
 20
247.1914977255
 11
126.3673722946
 21
247.3525824399
  0
LINE
  8
0
 62
7
  6
CONTINUOUS
 10
84.7853517074
 20
228.4221312609
 11
84.6801719921
 21
228.0590023126
  0
LINE
  8
0
 62
7
  6
CONTINUOUS
 10
84.9514011625
 20
227.7311119277
 11
85.0565808778
 21
228.094240876
  0
LINE
  8
0
 62
7
  6
CONTINUOUS
 10
84.4609177975
 20
223.9046917466
 11
84.5421817561
 21
224.1240460847
  0
LINE
  8
0
 62
7
  6
CONTINUOUS
 10
99.236527661
 20
238.8440479807
 11
99.4225922196
 21
239.1731460996
  0
LINE
  8
0
 62
7
  6
CONTINUOUS
 10
102.5665324606
 20
236.0980776998
 11
102.846007369
 21
236.4732775169
  0
LINE
  8
0
 62
7
  6
CONTINUOUS
 10
111.1655773864
 20
242.1631425106
 11
111.3283139758
 21
242.3311799605
  0
LINE
  8
0
 62
7
  6
CONTINUOUS
 10
125.5726362172
 20
246.9467528206
 11
125.860777716
 21
247.1914977255
  0
LINE
  8
0
 62
7
  6
CONTINUOUS
 10
84.6801719921
 20
228.0590023126
 11
84.655256814
 21
227.7622677597
  0
LINE
  8
0
 62
7
  6
CONTINUOUS
 10
84.9264859844
 20
227.4343773747
 11
84.9514011625
 21
227.7311119277
  0
LINE
  8
0
 62
7
  6
CONTINUOUS
 10
84.2586461948
 20
224.5859894852
 11
84.1727689567
 21
224.2178173898
  0
LINE
  8
0
 62
7
  6
CONTINUOUS
 10
98.7672159053
 20
239.3242281544
 11
98.5819053743
 21
238.7582342075
  0
LINE
  8
0
 62
7
  6
CONTINUOUS
 10
110.8605943588
 20
242.7334584666
 11
110.7322598624
 21
242.4647540834
  0
LINE
  8
0
 62
7
  6
CONTINUOUS
 10
102.3766955638
 20
236.9534577909
 11
102.1906310382
 21
236.6243596051
  0
LINE
  8
0
 62
7
  6
CONTINUOUS
 10
118.7004119279
 20
242.2286806628
 11
121.4611722836
 21
246.471844264
  0
LINE
  8
0
 62
7
  6
CONTINUOUS
 10
111.7596869373
 20
239.7804322552
 11
112.0507580141
 21
240.2171741147
  0
LINE
  8
0
 62
7
  6
CONTINUOUS
 10
120.9086553323
 20
246.577973323
 11
118.0457660838
 21
242.3143145381
  0
LINE
  8
0
 62
7
  6
CONTINUOUS
 10
125.3089994232
 20
247.4535392327
 11
124.9398735766
 21
246.9861707877
  0
LINE
  8
0
 62
7
  6
CONTINUOUS
 10
127.7458568932
 20
246.2159306554
 11
125.1280739809
 21
243.2616944655
  0
LINE
  8
0
 62
7
  6
CONTINUOUS
 10
125.9566978441
 20
243.3501794186
 11
128.2976304447
 21
245.9538886419
  0
LINE
  8
0
 62
7
  6
CONTINUOUS
 10
153.4042192218
 20
244.3630542889
 11
153.1541354858
 21
244.2014037185
  0
LINE
  8
0
 62
7
  6
CONTINUOUS
 10
160.4240758654
 20
241.1861191186
 11
160.692804658
 21
241.3143986226
  0
LINE
  8
0
 62
7
  6
CONTINUOUS
 10
153.1151498019
 20
243.5558376492
 11
153.591879783
 21
243.7753697218
  0
LINE
  8
0
 62
7
  6
CONTINUOUS
 10
84.5421817561
 20
224.1240460847
 11
84.5560216475
 21
224.5704995191
  0
LINE
  8
0
 62
7
  6
CONTINUOUS
 10
111.3283139758
 20
242.3311799605
 11
111.4864147554
 21
242.834903854
  0
LINE
  8
0
 62
7
  6
CONTINUOUS
 10
102.846007369
 20
236.4732775169
 11
103.0313178834
 21
237.0392714972
  0
LINE
  8
0
 62
7
  6
CONTINUOUS
 10
111.5830383609
 20
240.6194527265
 11
111.4547038886
 21
240.3507482728
  0
LINE
  8
0
 62
7
  6
CONTINUOUS
 10
122.9921454494
 20
247.4476480475
 11
122.4861333187
 21
246.6175118169
  0
LINE
  8
0
 62
7
  6
CONTINUOUS
 10
122.6140103579
 20
245.7761097491
 11
123.1200224439
 21
246.6062462743
  0
LINE
  8
0
 62
7
  6
CONTINUOUS
 10
153.591879783
 20
243.7753697218
 11
153.9904359009
 21
244.1216162211
  0
LINE
  8
0
 62
7
  6
CONTINUOUS
 10
161.166538945
 20
243.5198868557
 11
160.7269066174
 21
243.2275565051
  0
LINE
  8
0
 62
7
  6
CONTINUOUS
 10
102.4222675654
 20
237.3318513142
 11
102.3766955638
 21
236.9534577909
  0
LINE
  8
0
 62
7
  6
CONTINUOUS
 10
112.0507580141
 20
240.2171741147
 11
112.2088587816
 21
240.7208980434
  0
LINE
  8
0
 62
7
  6
CONTINUOUS
 10
125.3993668518
 20
246.6072867895
 11
125.5726362172
 21
246.9467528206
  0
LINE
  8
0
 62
7
  6
CONTINUOUS
 10
128.2976304447
 20
245.9538886419
 11
128.4708998101
 21
246.293354673
  0
LINE
  8
0
 62
7
  6
CONTINUOUS
 10
161.0086305357
 20
242.7847231129
 11
161.3138939887
 21
243.0129153491
  0
LINE
  8
0
 62
7
  6
CONTINUOUS
 10
162.3453791411
 20
239.464114383
 11
162.0401156625
 21
239.2359220768
  0
LINE
  8
0
 62
7
  6
CONTINUOUS
 10
162.1874706934
 20
238.7289505352
 11
162.6271030339
 21
239.0212809208
  0
LINE
  8
0
 62
7
  6
CONTINUOUS
 10
84.1958356012
 20
224.961906568
 11
84.2586461948
 21
224.5859894852
  0
LINE
  8
0
 62
7
  6
CONTINUOUS
 10
103.0313178834
 20
237.0392714972
 11
103.0298076571
 21
237.5130621648
  0
LINE
  8
0
 62
7
  6
CONTINUOUS
 10
127.9078255886
 20
246.6611777355
 11
127.7458568932
 21
246.2159306554
  0
LINE
  8
0
 62
7
  6
CONTINUOUS
 10
160.7269066174
 20
243.2275565051
 11
160.348573741
 21
242.7995385247
  0
LINE
  8
0
 62
7
  6
CONTINUOUS
 10
162.6271030339
 20
239.0212809208
 11
163.0054358335
 21
239.4492986913
  0
LINE
  8
0
 62
7
  6
CONTINUOUS
 10
110.855958549
 20
243.0691449102
 11
110.8605943588
 21
242.7334584666
  0
LINE
  8
0
 62
7
  6
CONTINUOUS
 10
111.4864147554
 20
242.834903854
 11
111.4817789456
 21
243.1705902977
  0
LINE
  8
0
 62
7
  6
CONTINUOUS
 10
111.5784025511
 20
240.9551391701
 11
111.5830383609
 21
240.6194527265
  0
LINE
  8
0
 62
7
  6
CONTINUOUS
 10
112.2088587816
 20
240.7208980434
 11
112.2042229477
 21
241.0565845576
  0
LINE
  8
0
 62
7
  6
CONTINUOUS
 10
124.9398735766
 20
246.9861707877
 11
124.881481086
 21
246.5519841368
  0
LINE
  8
0
 62
7
  6
CONTINUOUS
 10
153.5761244435
 20
244.6514203363
 11
153.4042192218
 21
244.3630542889
  0
LINE
  8
0
 62
7
  6
CONTINUOUS
 10
153.9904359009
 20
244.1216162211
 11
154.1623411226
 21
244.4099822684
  0
LINE
  8
0
 62
7
  6
CONTINUOUS
 10
155.8018576481
 20
242.1928640322
 11
157.513289381
 21
244.6828937097
  0
LINE
  8
0
 62
7
  6
CONTINUOUS
 10
154.8209795916
 20
240.7074732953
 11
155.5816143787
 21
241.8141535538
  0
LINE
  8
0
 62
7
  6
CONTINUOUS
 10
157.2339485077
 20
245.2088783141
 11
154.2214859384
 21
240.8842000893
  0
LINE
  8
0
 62
7
  6
CONTINUOUS
 10
160.8011922377
 20
242.5207592543
 11
161.0086305357
 21
242.7847231129
  0
LINE
  8
0
 62
7
  6
CONTINUOUS
 10
160.2166376186
 20
240.9221553999
 11
160.4240758654
 21
241.1861191186
  0
LINE
  8
0
 62
7
  6
CONTINUOUS
 10
162.5528173367
 20
239.7280779617
 11
162.3453791411
 21
239.464114383
  0
LINE
  8
DEFAULT_3
 62
2
  6
PHANTOM
 10
116.9652135432
 20
180.8555140656
 11
122.5129422326
 21
186.4032427551
  0
LINE
  8
DEFAULT_3
 62
2
  6
PHANTOM
 10
130.8802796791
 20
192.5078385017
 11
126.6376389919
 21
188.2651978146
  0
LINE
  8
DEFAULT_3
 62
2
  6
PHANTOM
 10
110.8606177965
 20
172.4881766192
 11
115.1032584836
 21
176.7308173063
  0
LINE
  8
DEFAULT_3
 62
2
  6
PHANTOM
 10
116.9652135432
 20
155.8562298078
 11
122.5129422326
 21
150.3085011184
  0
LINE
  8
DEFAULT_3
 62
2
  6
PHANTOM
 10
126.6376389919
 20
148.4465460588
 11
130.8802796791
 21
144.2039053717
  0
LINE
  8
DEFAULT_3
 62
2
  6
PHANTOM
 10
115.1032584836
 20
159.9809265671
 11
110.8606177965
 21
164.2235672543
  0
LINE
  8
0
 62
7
  6
CONTINUOUS
 10
98.5819053743
 20
238.7582342075
 11
98.6768237918
 21
238.3305442246
  0
LINE
  8
0
 62
7
  6
CONTINUOUS
 10
99.2843640155
 20
238.511754808
 11
99.236527661
 21
238.8440479807
  0
LINE
  8
0
 62
7
  6
CONTINUOUS
 10
125.7146400594
 20
73.8379317429
 11
125.5430084069
 21
77.1128587633
  0
LINE
  8
0
 62
7
  6
CONTINUOUS
 10
125.5430084069
 20
259.5988851101
 11
125.7146400594
 21
262.8738121305
  0
LINE
  8
0
 62
7
  6
CONTINUOUS
 10
128.4708998101
 20
246.293354673
 11
128.5292923007
 21
246.7275413238
  0
LINE
  8
0
 62
7
  6
CONTINUOUS
 10
79.701358296
 20
91.1499067666
 11
81.1901844351
 21
94.071892588
  0
LINE
  8
0
 62
7
  6
CONTINUOUS
 10
160.348573741
 20
242.7995385247
 11
159.9949969034
 21
242.1359240174
  0
LINE
  8
0
 62
7
  6
CONTINUOUS
 10
160.4841500606
 20
241.9570574791
 11
160.8011922377
 21
242.5207592543
  0
LINE
  8
0
 62
7
  6
CONTINUOUS
 10
172.4331976085
 20
252.10942724
 11
174.2192984898
 21
254.859781409
  0
LINE
  8
0
 62
7
  6
CONTINUOUS
 10
48.5086748893
 20
129.1491578084
 11
51.2590290582
 21
130.9352586898
  0
LINE
  8
0
 62
7
  6
CONTINUOUS
 10
209.2965637102
 20
222.1782718632
 11
212.2185495317
 21
223.6670980022
  0
LINE
  8
0
 62
7
  6
CONTINUOUS
 10
229.5305245553
 20
159.0579276346
 11
226.2555975349
 21
158.8862959821
  0
LINE
  8
0
 62
7
  6
CONTINUOUS
 10
43.7695711881
 20
158.8862959821
 11
40.4946441677
 21
159.0579276346
  0
LINE
  8
0
 62
7
  6
CONTINUOUS
 10
212.2185495317
 20
113.0446458712
 11
209.2965637102
 21
114.5334720103
  0
LINE
  8
0
 62
7
  6
CONTINUOUS
 10
51.2590290582
 20
205.7764851837
 11
48.5086748893
 21
207.562586065
  0
LINE
  8
0
 62
7
  6
CONTINUOUS
 10
174.2192984898
 20
81.8519624644
 11
172.4331976085
 21
84.6023166334
  0
LINE
  8
0
 62
7
  6
CONTINUOUS
 10
81.1901844351
 20
242.6398512854
 11
79.701358296
 21
245.5618371069
  0
LINE
  8
0
 62
7
  6
CONTINUOUS
 10
125.1280739809
 20
243.2616944655
 11
125.1845536317
 21
242.7327866144
  0
LINE
  8
AXES
 62
2
  6
CONTINUOUS
 10
135.0125843615
 20
169.4058719367
 11
135.0125843615
 21
167.3058719367
  0
LINE
  8
AXES
 62
2
  6
CENTER
 10
135.0125843615
 20
163.1058719367
 11
135.0125843615
 21
70.0948719367
  0
LINE
  8
AXES
 62
2
  6
CENTER
 10
135.0125843615
 20
173.6058719367
 11
135.0125843615
 21
266.6168719367
  0
LINE
  8
0
 62
7
  6
CONTINUOUS
 10
150.7543299676
 20
246.8154863405
 11
149.652986373
 21
241.9382901904
  0
LINE
  8
0
 62
7
  6
CONTINUOUS
 10
150.2626358918
 20
241.800622241
 11
150.75472559
 21
243.9797950199
  0
LINE
  8
0
 62
7
  6
CONTINUOUS
 10
150.8953226278
 20
244.6024157308
 11
151.2468152881
 21
246.1589677987
  0
LINE
  8
0
 62
7
  6
CONTINUOUS
 10
159.9949969034
 20
242.1359240174
 11
159.7392542799
 21
241.4365348923
  0
LINE
  8
0
 62
7
  6
CONTINUOUS
 10
160.4110807396
 20
241.7572320148
 11
160.4841500606
 21
241.9570574791
  0
LINE
  8
0
 62
7
  6
CONTINUOUS
 10
160.1070336371
 20
240.6224172034
 11
160.2166376186
 21
240.9221553999
  0
LINE
  8
AXES
 62
2
  6
CONTINUOUS
 10
136.0625843615
 20
168.3558719367
 11
133.9625843615
 21
168.3558719367
  0
LINE
  8
AXES
 62
2
  6
CENTER
 10
129.7625843615
 20
168.3558719367
 11
36.7515843615
 21
168.3558719367
  0
LINE
  8
AXES
 62
2
  6
CENTER
 10
140.2625843615
 20
168.3558719367
 11
233.2735843615
 21
168.3558719367
  0
LINE
  8
0
 62
7
  6
CONTINUOUS
 10
80.6947535549
 20
224.920686704
 11
82.1354976392
 21
223.3550586181
  0
LINE
  8
0
 62
7
  6
CONTINUOUS
 10
82.5187503574
 20
223.7077407726
 11
81.0780062731
 21
225.2733688585
  0
LINE
  8
0
 62
7
  6
CONTINUOUS
 10
82.6110171186
 20
226.6840974515
 11
84.1958356012
 21
224.961906568
  0
LINE
  8
0
 62
7
  6
CONTINUOUS
 10
83.9148960575
 20
227.8401574346
 11
86.0847296106
 21
225.2170341254
  0
LINE
  8
0
 62
7
  6
CONTINUOUS
 10
86.4860539041
 20
225.5490074316
 11
84.9264859844
 21
227.4343773747
  0
LINE
  8
0
 62
7
  6
CONTINUOUS
 10
84.655256814
 20
227.7622677597
 11
84.316220351
 21
228.1721307409
  0
LINE
  8
0
 62
7
  6
CONTINUOUS
 10
86.6424823357
 20
228.3015906643
 11
87.930821085
 21
226.7441111062
  0
LINE
  8
0
 62
7
  6
CONTINUOUS
 10
85.9420028365
 20
231.5393020872
 11
86.2668989985
 21
231.1181419389
  0
LINE
  8
0
 62
7
  6
CONTINUOUS
 10
86.9166915045
 20
230.2758214064
 11
88.9960271234
 21
227.5803962213
  0
LINE
  8
0
 62
7
  6
CONTINUOUS
 10
89.4084129937
 20
227.8985236298
 11
87.3290773749
 21
230.5939488149
  0
LINE
  8
0
 62
7
  6
CONTINUOUS
 10
86.6792848689
 20
231.4362693474
 11
86.3543887069
 21
231.8574294957
  0
LINE
  8
0
 62
7
  6
CONTINUOUS
 10
91.5435647908
 20
235.5418821067
 11
94.1605239683
 21
231.2814214904
  0
LINE
  8
0
 62
7
  6
CONTINUOUS
 10
94.3590016512
 20
232.1524299755
 11
92.0761223679
 21
235.8690020039
  0
LINE
  8
0
 62
7
  6
CONTINUOUS
 10
96.9588712325
 20
235.691720435
 11
97.2156951906
 21
235.2259146819
  0
LINE
  8
0
 62
7
  6
CONTINUOUS
 10
98.4927794395
 20
235.9300404458
 11
98.2359554814
 21
236.3958461989
  0
LINE
  8
0
 62
7
  6
CONTINUOUS
 10
98.6768237918
 20
238.3305442246
 11
98.8651527033
 21
237.9489556476
  0
LINE
  8
0
 62
7
  6
CONTINUOUS
 10
99.3785284053
 20
238.3209606531
 11
99.2843640155
 21
238.511754808
  0
LINE
  8
0
 62
7
  6
CONTINUOUS
 10
102.386676609
 20
241.430425803
 11
104.3055580472
 21
236.813295306
  0
LINE
  8
0
 62
7
  6
CONTINUOUS
 10
104.8826993593
 20
237.0531554858
 11
103.2087814797
 21
241.0808651385
  0
LINE
  8
0
 62
7
  6
CONTINUOUS
 10
107.3186671628
 20
243.4342350109
 11
108.9355657286
 21
238.7028885822
  0
LINE
  8
0
 62
7
  6
CONTINUOUS
 10
109.3205714498
 20
239.5090025732
 11
108.8045399819
 21
241.0190067841
  0
LINE
  8
0
 62
7
  6
CONTINUOUS
 10
108.5981274236
 20
241.6230083838
 11
108.1164980246
 21
243.0323457319
  0
LINE
  8
0
 62
7
  6
CONTINUOUS
 10
117.2294348142
 20
246.3821487071
 11
117.3340926561
 21
245.8606315715
  0
LINE
  8
0
 62
7
  6
CONTINUOUS
 10
118.0457660838
 20
242.3143145381
 11
118.2132186455
 21
241.4798870481
  0
LINE
  8
0
 62
7
  6
CONTINUOUS
 10
122.4861333187
 20
246.6175118169
 11
122.6140103579
 21
245.7761097491
  0
LINE
  8
0
 62
7
  6
CONTINUOUS
 10
123.1200224439
 20
246.6062462743
 11
123.7434228814
 21
242.5044120406
  0
LINE
  8
0
 62
7
  6
CONTINUOUS
 10
124.3613273823
 20
242.5983217196
 11
123.6100499503
 21
247.5415577265
  0
LINE
  8
0
 62
7
  6
CONTINUOUS
 10
127.8852336998
 20
246.8727411427
 11
127.9078255886
 21
246.6611777355
  0
LINE
  8
0
 62
7
  6
CONTINUOUS
 10
128.9133539038
 20
243.1309681441
 11
128.856874253
 21
243.6598759952
  0
LINE
  8
0
 62
7
  6
CONTINUOUS
 10
128.5292923007
 20
246.7275413238
 11
128.5067004119
 21
246.9391047309
  0
LINE
  8
0
 62
7
  6
CONTINUOUS
 10
159.7392542799
 20
241.4365348923
 11
159.5813458194
 21
240.7013710096
  0
LINE
  8
0
 62
7
  6
CONTINUOUS
 10
153.646423028
 20
244.9627309824
 11
153.5761244435
 21
244.6514203363
  0
LINE
  8
0
 62
7
  6
CONTINUOUS
 10
154.1623411226
 20
244.4099822684
 11
154.2560725468
 21
244.8250630331
  0
LINE
  8
0
 62
7
  6
CONTINUOUS
 10
162.6624213182
 20
240.0278161582
 11
162.5528173367
 21
239.7280779617
  0
LINE
  8
0
 62
7
  6
CONTINUOUS
 10
163.0054358335
 20
239.4492986913
 11
163.1881091871
 21
239.948862492
  0
LINE
  8
0
 62
7
  6
CONTINUOUS
 10
84.8672372488
 20
225.0014631482
 11
82.9942699191
 21
227.0367796818
  0
LINE
  8
0
 62
7
  6
CONTINUOUS
 10
88.3321451489
 20
227.0760842224
 11
87.0438063995
 21
228.6335637806
  0
LINE
  8
0
 62
7
  6
CONTINUOUS
 10
97.3558694306
 20
233.2441408735
 11
97.0217895364
 21
233.7880294614
  0
LINE
  8
0
 62
7
  6
CONTINUOUS
 10
102.2810209806
 20
237.6180425466
 11
102.4222675654
 21
237.3318513142
  0
LINE
  8
0
 62
7
  6
CONTINUOUS
 10
103.0298076571
 20
237.5130621648
 11
102.7943966826
 21
237.9900475521
  0
LINE
  8
0
 62
7
  6
CONTINUOUS
 10
105.6571447782
 20
242.7896337934
 11
107.2902353694
 21
238.8601610169
  0
LINE
  8
0
 62
7
  6
CONTINUOUS
 10
108.1531675286
 20
238.4123634762
 11
106.2342860903
 21
243.0294939732
  0
LINE
  8
0
 62
7
  6
CONTINUOUS
 10
110.7871543629
 20
243.2704787768
 11
110.855958549
 21
243.0691449102
  0
LINE
  8
0
 62
7
  6
CONTINUOUS
 10
111.475196272
 20
241.25713997
 11
111.5784025511
 21
240.9551391701
  0
LINE
  8
0
 62
7
  6
CONTINUOUS
 10
112.2042229477
 20
241.0565845576
 11
112.0322124825
 21
241.559919224
  0
LINE
  8
0
 62
7
  6
CONTINUOUS
 10
111.4817789456
 20
243.1705902977
 11
111.344170477
 21
243.5732583128
  0
LINE
  8
0
 62
7
  6
CONTINUOUS
 10
122.2984351363
 20
242.2997065948
 11
122.1728457113
 21
242.9255272306
  0
LINE
  8
0
 62
7
  6
CONTINUOUS
 10
121.4611722836
 20
246.471844264
 11
121.3146513049
 21
247.2019682538
  0
LINE
  8
0
 62
7
  6
CONTINUOUS
 10
144.3105286637
 20
262.8738121305
 11
144.4821603161
 21
259.5988851101
  0
LINE
  8
0
 62
7
  6
CONTINUOUS
 10
144.4821603161
 20
77.1128587633
 11
144.3105286637
 21
73.8379317429
  0
LINE
  8
0
 62
7
  6
CONTINUOUS
 10
190.323810427
 20
245.5618371069
 11
188.834984288
 21
242.6398512854
  0
LINE
  8
0
 62
7
  6
CONTINUOUS
 10
97.5919711146
 20
84.6023166334
 11
95.8058702332
 21
81.8519624644
  0
LINE
  8
0
 62
7
  6
CONTINUOUS
 10
221.5164938338
 20
207.562586065
 11
218.7661396648
 21
205.7764851837
  0
LINE
  8
0
 62
7
  6
CONTINUOUS
 10
60.7286050128
 20
114.5334720103
 11
57.8066191914
 21
113.0446458712
  0
LINE
  8
0
 62
7
  6
CONTINUOUS
 10
40.4946441677
 20
177.6538162389
 11
43.7695711881
 21
177.8254478913
  0
LINE
  8
0
 62
7
  6
CONTINUOUS
 10
226.2555975349
 20
177.8254478913
 11
229.5305245553
 21
177.6538162389
  0
LINE
  8
0
 62
7
  6
CONTINUOUS
 10
57.8066191914
 20
223.6670980022
 11
60.7286050128
 21
222.1782718632
  0
LINE
  8
0
 62
7
  6
CONTINUOUS
 10
218.7661396648
 20
130.9352586898
 11
221.5164938338
 21
129.1491578084
  0
LINE
  8
0
 62
7
  6
CONTINUOUS
 10
82.1354976392
 20
223.3550586181
 11
82.500297034
 21
223.1124694027
  0
LINE
  8
0
 62
7
  6
CONTINUOUS
 10
86.2231808762
 20
228.6450588703
 11
86.6424823357
 21
228.3015906643
  0
LINE
  8
0
 62
7
  6
CONTINUOUS
 10
87.0438063995
 20
228.6335637806
 11
86.6245053993
 21
228.9770323665
  0
LINE
  8
0
 62
7
  6
CONTINUOUS
 10
99.4794855241
 20
235.9981070783
 11
99.7612246658
 21
235.6626204416
  0
LINE
  8
0
 62
7
  6
CONTINUOUS
 10
98.8651527033
 20
237.9489556476
 11
99.1468918451
 21
237.6134690108
  0
LINE
  8
0
 62
7
  6
CONTINUOUS
 10
95.8058702332
 20
254.859781409
 11
97.5919711146
 21
252.10942724
  0
LINE
  8
0
 62
7
  6
CONTINUOUS
 10
188.834984288
 20
94.071892588
 11
190.323810427
 21
91.1499067666
  0
LINE
  8
0
 62
7
  6
CONTINUOUS
 10
153.6151148443
 20
245.296985646
 11
153.646423028
 21
244.9627309824
  0
LINE
  8
0
 62
7
  6
CONTINUOUS
 10
154.2560725468
 20
244.8250630331
 11
154.224764363
 21
245.1593176966
  0
LINE
  8
0
 62
7
  6
CONTINUOUS
 10
158.2181133425
 20
239.7060205638
 11
158.0332749033
 21
244.9732421394
  0
LINE
  8
0
 62
7
  6
CONTINUOUS
 10
157.5799280808
 20
241.2250637911
 11
157.6186196893
 21
239.8827473578
  0
LINE
  8
0
 62
7
  6
CONTINUOUS
 10
157.513289381
 20
244.6828937097
 11
157.6003386079
 21
241.6626836502
  0
LINE
  8
0
 62
7
  6
CONTINUOUS
 10
159.5813458194
 20
240.7013710096
 11
159.5943319629
 21
240.1302613186
  0
LINE
  8
0
 62
7
  6
CONTINUOUS
 10
160.0952638698
 20
240.2869043893
 11
160.1070336371
 21
240.6224172034
  0
LINE
  8
0
 62
7
  6
CONTINUOUS
 10
162.6741911368
 20
240.3633291123
 11
162.6624213182
 21
240.0278161582
  0
LINE
  8
0
 62
7
  6
CONTINUOUS
 10
163.6500737069
 20
241.8188379109
 11
163.6618434742
 21
242.1543507251
  0
LINE
  8
DEFAULT_3
 62
2
  6
PHANTOM
 10
159.1645509265
 20
164.2235672543
 11
154.9219102394
 21
159.9809265671
  0
LINE
  8
DEFAULT_3
 62
2
  6
PHANTOM
 10
139.144889044
 20
144.2039053717
 11
143.3875297311
 21
148.4465460588
  0
LINE
  8
DEFAULT_3
 62
2
  6
PHANTOM
 10
147.5122264904
 20
150.3085011184
 11
153.0599551799
 21
155.8562298078
  0
LINE
  8
0
 62
7
  6
CONTINUOUS
 10
84.5560216475
 20
224.5704995191
 11
85.0695088579
 21
224.3201654027
  0
LINE
  8
0
 62
7
  6
CONTINUOUS
 10
82.8115125095
 20
223.5434330172
 11
82.5187503574
 21
223.7077407726
  0
LINE
  8
0
 62
7
  6
CONTINUOUS
 10
86.6245053993
 20
228.9770323665
 11
86.340818525
 21
229.15655538
  0
LINE
  8
0
 62
7
  6
CONTINUOUS
 10
85.2320365557
 20
224.7588738772
 11
84.8672372488
 21
225.0014631482
  0
LINE
  8
DEFAULT_3
 62
2
  6
PHANTOM
 10
154.9219102394
 20
176.7308173063
 11
159.1645509265
 21
172.4881766192
  0
LINE
  8
DEFAULT_3
 62
2
  6
PHANTOM
 10
143.3875297311
 20
188.2651978146
 11
139.144889044
 21
192.5078385017
  0
LINE
  8
DEFAULT_3
 62
2
  6
PHANTOM
 10
147.5122264904
 20
186.4032427551
 11
153.0599551799
 21
180.8555140656
  0
LINE
  8
0
 62
7
  6
CONTINUOUS
 10
100.2746003678
 20
236.0346254471
 11
100.0399434209
 21
236.2747150064
  0
LINE
  8
0
 62
7
  6
CONTINUOUS
 10
99.6131853521
 20
238.0808710938
 11
99.3785284053
 21
238.3209606531
  0
LINE
  8
0
 62
7
  6
CONTINUOUS
 10
101.5725236382
 20
239.759685538
 11
101.3378666913
 21
239.9997750973
  0
LINE
  8
0
 62
7
  6
CONTINUOUS
 10
111.2734194753
 20
241.5254552671
 11
111.475196272
 21
241.25713997
  0
LINE
  8
0
 62
7
  6
CONTINUOUS
 10
112.0322124825
 20
241.559919224
 11
111.8304356859
 21
241.8282345211
  0
LINE
  8
0
 62
7
  6
CONTINUOUS
 10
110.5853775181
 20
243.5387942149
 11
110.7871543629
 21
243.2704787768
  0
LINE
  8
0
 62
7
  6
CONTINUOUS
 10
111.344170477
 20
243.5732583128
 11
111.1423937286
 21
243.8415734689
  0
LINE
  8
0
 62
7
  6
CONTINUOUS
 10
128.5067004119
 20
246.9391047309
 11
128.3579404927
 21
247.3511705232
  0
LINE
  8
0
 62
7
  6
CONTINUOUS
 10
163.1881091871
 20
239.948862492
 11
163.1751230181
 21
240.519972113
  0
LINE
  8
0
 62
7
  6
CONTINUOUS
 10
82.500297034
 20
223.1124694027
 11
82.7210219801
 21
223.0264430398
  0
LINE
  8
0
 62
7
  6
CONTINUOUS
 10
85.4527616583
 20
224.672847633
 11
85.2320365557
 21
224.7588738772
  0
LINE
  8
0
 62
7
  6
CONTINUOUS
 10
99.7612246658
 20
235.6626204416
 11
100.2768646383
 21
235.3239389181
  0
LINE
  8
0
 62
7
  6
CONTINUOUS
 10
102.7943966826
 20
237.9900475521
 11
102.4192492507
 21
238.2794337045
  0
LINE
  8
0
 62
7
  6
CONTINUOUS
 10
100.8244909894
 20
239.6277700917
 11
101.0120657413
 21
239.4830776099
  0
LINE
  8
0
 62
7
  6
CONTINUOUS
 10
83.1809252667
 20
223.449661648
 11
82.8115125095
 21
223.5434330172
  0
LINE
  8
0
 62
7
  6
CONTINUOUS
 10
101.9529557437
 20
237.8120316216
 11
102.2810209806
 21
237.6180425466
  0
LINE
  8
0
 62
7
  6
CONTINUOUS
 10
107.2902353694
 20
238.8601610169
 11
103.2523885771
 21
241.7902160727
  0
LINE
  8
0
 62
7
  6
CONTINUOUS
 10
103.2087814797
 20
241.0808651385
 11
107.2874555604
 21
238.0525732066
  0
LINE
  8
0
 62
7
  6
CONTINUOUS
 10
127.6441935044
 20
247.1679649503
 11
127.8852336998
 21
246.8727411427
  0
LINE
  8
0
 62
7
  6
CONTINUOUS
 10
159.5943319629
 20
240.1302613186
 11
159.7416869938
 21
239.623289777
  0
LINE
  8
0
 62
7
  6
CONTINUOUS
 10
160.1813193342
 20
239.9156201626
 11
160.0952638698
 21
240.2869043893
  0
LINE
  8
0
 62
7
  6
CONTINUOUS
 10
163.0748561028
 20
242.3689918811
 11
163.1609115929
 21
241.9977077244
  0
LINE
  8
0
 62
7
  6
CONTINUOUS
 10
82.7210219801
 20
223.0264430398
 11
83.1670852256
 21
223.0032081011
  0
LINE
  8
0
 62
7
  6
CONTINUOUS
 10
85.9270367573
 20
228.6762148922
 11
86.2231808762
 21
228.6450588703
  0
LINE
  8
0
 62
7
  6
CONTINUOUS
 10
86.340818525
 20
229.15655538
 11
86.0446744062
 21
229.1877114019
  0
LINE
  8
0
 62
7
  6
CONTINUOUS
 10
100.6960759339
 20
235.8867381119
 11
100.2746003678
 21
236.0346254471
  0
LINE
  8
0
 62
7
  6
CONTINUOUS
 10
99.1468918451
 20
237.6134690108
 11
99.7088599353
 21
237.4162863381
  0
LINE
  8
0
 62
7
  6
CONTINUOUS
 10
102.4192492507
 20
238.2794337045
 11
101.8572811605
 21
238.4766163773
  0
LINE
  8
0
 62
7
  6
CONTINUOUS
 10
111.0074766068
 20
241.6594186171
 11
111.2734194753
 21
241.5254552671
  0
LINE
  8
0
 62
7
  6
CONTINUOUS
 10
101.3378666913
 20
239.9997750973
 11
100.8693089633
 21
240.243059443
  0
LINE
  8
0
 62
7
  6
CONTINUOUS
 10
111.8304356859
 20
241.8282345211
 11
111.3971181619
 21
242.1298460939
  0
LINE
  8
0
 62
7
  6
CONTINUOUS
 10
111.1423937286
 20
243.8415734689
 11
110.7090762047
 21
244.1431850417
  0
LINE
  8
0
 62
7
  6
CONTINUOUS
 10
162.5516009862
 20
240.6347005369
 11
162.6741911368
 21
240.3633291123
  0
LINE
  8
0
 62
7
  6
CONTINUOUS
 10
163.1751230181
 20
240.519972113
 11
162.9912333139
 21
240.9270308875
  0
LINE
  8
0
 62
7
  6
CONTINUOUS
 10
154.224764363
 20
245.1593176966
 11
154.0136709622
 21
245.6432321452
  0
LINE
  8
0
 62
7
  6
CONTINUOUS
 10
163.6618434742
 20
242.1543507251
 11
163.5144884305
 21
242.6613222317
  0
LINE
  8
0
 62
7
  6
CONTINUOUS
 10
162.0401156625
 20
239.2359220768
 11
161.6735526558
 21
239.1434171905
  0
LINE
  8
0
 62
7
  6
CONTINUOUS
 10
160.692804658
 20
241.3143986226
 11
161.0593676646
 21
241.4069035089
  0
LINE
  8
0
 62
7
  6
CONTINUOUS
 10
161.5887045884
 20
238.608082126
 11
162.1874706934
 21
238.7289505352
  0
LINE
  8
0
 62
7
  6
CONTINUOUS
 10
83.1670852256
 20
223.0032081011
 11
83.5411113067
 21
223.0582546059
  0
LINE
  8
0
 62
7
  6
CONTINUOUS
 10
100.2768646383
 20
235.3239389181
 11
100.8851587701
 21
235.2682539157
  0
LINE
  8
0
 62
7
  6
CONTINUOUS
 10
99.9875786904
 20
238.0283809029
 11
99.6131853521
 21
238.0808710938
  0
LINE
  8
0
 62
7
  6
CONTINUOUS
 10
101.5785624055
 20
237.8645218125
 11
101.9529557437
 21
237.8120316216
  0
LINE
  8
0
 62
7
  6
CONTINUOUS
 10
100.8693089633
 20
240.243059443
 11
100.354425206
 21
240.3448460935
  0
LINE
  8
0
 62
7
  6
CONTINUOUS
 10
110.7090762047
 20
244.1431850417
 11
110.2115925605
 21
244.3104448084
  0
LINE
  8
0
 62
7
  6
CONTINUOUS
 10
100.5435080133
 20
239.7263619557
 11
100.8244909894
 21
239.6277700917
  0
LINE
  8
0
 62
7
  6
CONTINUOUS
 10
110.3194346495
 20
243.6727575649
 11
110.5853775181
 21
243.5387942149
  0
LINE
  8
0
 62
7
  6
CONTINUOUS
 10
128.3579404927
 20
247.3511705232
 11
127.8984472175
 21
247.7300545214
  0
LINE
  8
0
 62
7
  6
CONTINUOUS
 10
154.0136709622
 20
245.6432321452
 11
153.6775380191
 21
246.0463207835
  0
LINE
  8
0
 62
7
  6
CONTINUOUS
 10
159.7416869938
 20
239.623289777
 11
160.1212361599
 21
239.144685016
  0
LINE
  8
0
 62
7
  6
CONTINUOUS
 10
160.4017436989
 20
239.6084741203
 11
160.1813193342
 21
239.9156201626
  0
LINE
  8
0
 62
7
  6
CONTINUOUS
 10
162.3311766215
 20
240.9418465792
 11
162.5516009862
 21
240.6347005369
  0
LINE
  8
0
 62
7
  6
CONTINUOUS
 10
153.4587624669
 20
245.5504155495
 11
153.6151148443
 21
245.296985646
  0
LINE
  8
0
 62
7
  6
CONTINUOUS
 10
83.6316018539
 20
223.5752445365
 11
83.1809252667
 21
223.449661648
  0
LINE
  8
0
 62
7
  6
CONTINUOUS
 10
100.8851587701
 20
235.2682539157
 11
101.3992906418
 21
235.40336414
  0
LINE
  8
0
 62
7
  6
CONTINUOUS
 10
161.144206753
 20
241.9422417874
 11
160.4110807396
 21
241.7572320148
  0
LINE
  8
0
 62
7
  6
CONTINUOUS
 10
161.3138939887
 20
243.0129153491
 11
161.6804569954
 21
243.1054202354
  0
LINE
  8
0
 62
7
  6
CONTINUOUS
 10
85.6986999311
 20
228.6253983179
 11
85.9270367573
 21
228.6762148922
  0
LINE
  8
0
 62
7
  6
CONTINUOUS
 10
101.1167974394
 20
235.9757466716
 11
100.6960759339
 21
235.8867381119
  0
LINE
  8
0
 62
7
  6
CONTINUOUS
 10
161.7652960838
 20
243.6407585139
 11
161.166538945
 21
243.5198868557
  0
LINE
  8
0
 62
7
  6
CONTINUOUS
 10
100.3148898337
 20
238.0712877895
 11
99.9875786904
 21
238.0283809029
  0
LINE
  8
0
 62
7
  6
CONTINUOUS
 10
153.1541354858
 20
244.2014037185
 11
152.8258778868
 21
244.1664675747
  0
LINE
  8
0
 62
7
  6
CONTINUOUS
 10
86.0446744062
 20
229.1877114019
 11
85.6682652908
 21
229.1524726486
  0
LINE
  8
0
 62
7
  6
CONTINUOUS
 10
110.6773653619
 20
241.65902939
 11
111.0074766068
 21
241.6594186171
  0
LINE
  8
0
 62
7
  6
CONTINUOUS
 10
99.7088599353
 20
237.4162863381
 11
100.1766614977
 21
237.4098967651
  0
LINE
  8
0
 62
7
  6
CONTINUOUS
 10
101.8572811605
 20
238.4766163773
 11
101.3894774602
 21
238.4830048951
  0
LINE
  8
0
 62
7
  6
CONTINUOUS
 10
161.6735526558
 20
239.1434171905
 11
161.3435243096
 21
239.1508250364
  0
LINE
  8
0
 62
7
  6
CONTINUOUS
 10
161.0593676646
 20
241.4069035089
 11
161.3893960108
 21
241.3994956631
  0
LINE
  8
0
 62
7
  6
CONTINUOUS
 10
111.3971181619
 20
242.1298460939
 11
111.1655773864
 21
242.1631425106
  0
LINE
  8
0
 62
7
  6
CONTINUOUS
 10
161.0630167674
 20
238.6870359234
 11
161.5887045884
 21
238.608082126
  0
LINE
  8
0
 62
7
  6
CONTINUOUS
 10
127.8984472175
 20
247.7300545214
 11
127.4615410581
 21
247.8973749025
  0
LINE
  8
0
 62
7
  6
CONTINUOUS
 10
127.3108682912
 20
247.3463462669
 11
127.6441935044
 21
247.1679649503
  0
LINE
  8
0
 62
7
  6
CONTINUOUS
 10
160.1212361599
 20
239.144685016
 11
160.5738636102
 21
238.8659024616
  0
LINE
  8
0
 62
7
  6
CONTINUOUS
 10
160.6587027241
 20
239.4012408101
 11
160.4017436989
 21
239.6084741203
  0
LINE
  8
0
 62
7
  6
CONTINUOUS
 10
162.0742175963
 20
241.1490798894
 11
162.3311766215
 21
240.9418465792
  0
LINE
  8
0
 62
7
  6
CONTINUOUS
 10
162.9912333139
 20
240.9270308875
 11
162.6116751814
 21
241.4056388974
  0
LINE
  8
0
 62
7
  6
CONTINUOUS
 10
163.5144884305
 20
242.6613222317
 11
163.1349392548
 21
243.1399269665
  0
LINE
  8
0
 62
7
  6
CONTINUOUS
 10
162.8544317382
 20
242.6761379234
 11
163.0748561028
 21
242.3689918811
  0
LINE
  8
0
 62
7
  6
CONTINUOUS
 10
101.3894774602
 20
238.4830048951
 11
100.8753477305
 21
238.3478957175
  0
LINE
  8
0
 62
7
  6
CONTINUOUS
 10
100.354425206
 20
240.3448460935
 11
99.8402933384
 21
240.2097358608
  0
LINE
  8
0
 62
7
  6
CONTINUOUS
 10
126.4144688566
 20
247.8925506462
 11
125.7007218683
 21
247.7093450732
  0
LINE
  8
0
 62
7
  6
CONTINUOUS
 10
100.1766614977
 20
237.4098967651
 11
100.5973830031
 21
237.4989053248
  0
LINE
  8
0
 62
7
  6
CONTINUOUS
 10
101.1578409
 20
237.7755132528
 11
101.5785624055
 21
237.8645218125
  0
LINE
  8
0
 62
7
  6
CONTINUOUS
 10
118.2132186455
 20
241.4798870481
 11
122.2984351363
 21
242.2997065948
  0
LINE
  8
0
 62
7
  6
CONTINUOUS
 10
122.1728457113
 20
242.9255272306
 11
118.7004119279
 21
242.2286806628
  0
LINE
  8
0
 62
7
  6
CONTINUOUS
 10
117.3340926561
 20
245.8606315715
 11
120.9086553323
 21
246.577973323
  0
LINE
  8
0
 62
7
  6
CONTINUOUS
 10
121.3146513049
 20
247.2019682538
 11
117.2294348142
 21
246.3821487071
  0
LINE
  8
0
 62
7
  6
CONTINUOUS
 10
123.7434228814
 20
242.5044120406
 11
124.3613273823
 21
242.5983217196
  0
LINE
  8
0
 62
7
  6
CONTINUOUS
 10
123.6100499503
 20
247.5415577265
 11
122.9921454494
 21
247.4476480475
  0
LINE
  8
0
 62
7
  6
CONTINUOUS
 10
100.21619687
 20
239.6834550691
 11
100.5435080133
 21
239.7263619557
  0
LINE
  8
0
 62
7
  6
CONTINUOUS
 10
110.2115925605
 20
244.3104448084
 11
109.6843403771
 21
244.2426842938
  0
LINE
  8
0
 62
7
  6
CONTINUOUS
 10
125.1845536317
 20
242.7327866144
 11
128.9133539038
 21
243.1309681441
  0
LINE
  8
0
 62
7
  6
CONTINUOUS
 10
128.856874253
 20
243.6598759952
 11
125.9566978441
 21
243.3501794186
  0
LINE
  8
0
 62
7
  6
CONTINUOUS
 10
124.881481086
 20
246.5519841368
 11
125.3993668518
 21
246.6072867895
  0
LINE
  8
0
 62
7
  6
CONTINUOUS
 10
126.3673722946
 20
247.3525824399
 11
126.7816818555
 21
247.3968246633
  0
LINE
  8
0
 62
7
  6
CONTINUOUS
 10
126.8287784175
 20
247.9367928696
 11
126.4144688566
 21
247.8925506462
  0
LINE
  8
0
 62
7
  6
CONTINUOUS
 10
109.9893234047
 20
243.6723683378
 11
110.3194346495
 21
243.6727575649
  0
LINE
  8
0
 62
7
  6
CONTINUOUS
 10
152.5836741462
 20
243.5667911719
 11
153.1151498019
 21
243.5558376492
  0
LINE
  8
0
 62
7
  6
CONTINUOUS
 10
161.6804569954
 20
243.1054202354
 11
162.0104853416
 21
243.0980123896
  0
LINE
  8
0
 62
7
  6
CONTINUOUS
 10
127.4615410581
 20
247.8973749025
 11
126.8287784175
 21
247.9367928696
  0
LINE
  8
0
 62
7
  6
CONTINUOUS
 10
126.7816818555
 20
247.3968246633
 11
127.3108682912
 21
247.3463462669
  0
LINE
  8
0
 62
7
  6
CONTINUOUS
 10
161.6699035274
 20
241.8632847061
 11
161.144206753
 21
241.9422417874
  0
LINE
  8
0
 62
7
  6
CONTINUOUS
 10
162.2909928582
 20
243.5618014326
 11
161.7652960838
 21
243.6407585139
  0
LINE
  8
0
 62
7
  6
CONTINUOUS
 10
149.652986373
 20
241.9382901904
 11
150.2626358918
 21
241.800622241
  0
LINE
  8
0
 62
7
  6
CONTINUOUS
 10
150.75472559
 20
243.9797950199
 11
152.5836741462
 21
243.5667911719
  0
LINE
  8
0
 62
7
  6
CONTINUOUS
 10
152.8258778868
 20
244.1664675747
 11
150.8953226278
 21
244.6024157308
  0
LINE
  8
0
 62
7
  6
CONTINUOUS
 10
151.2468152881
 20
246.1589677987
 11
153.1773705471
 21
245.7230196426
  0
LINE
  8
0
 62
7
  6
CONTINUOUS
 10
153.1929280427
 20
246.2648145432
 11
150.7543299676
 21
246.8154863405
  0
LINE
  8
0
 62
7
  6
CONTINUOUS
 10
154.2214859384
 20
240.8842000893
 11
154.8209795916
 21
240.7074732953
  0
LINE
  8
0
 62
7
  6
CONTINUOUS
 10
157.6186196893
 20
239.8827473578
 11
158.2181133425
 21
239.7060205638
  0
LINE
  8
0
 62
7
  6
CONTINUOUS
 10
155.5816143787
 20
241.8141535538
 11
157.5799280808
 21
241.2250637911
  0
LINE
  8
0
 62
7
  6
CONTINUOUS
 10
157.6003386079
 20
241.6626836502
 11
155.8018576481
 21
242.1928640322
  0
LINE
  8
0
 62
7
  6
CONTINUOUS
 10
158.0332749033
 20
244.9732421394
 11
157.2339485077
 21
245.2088783141
  0
LINE
  8
0
 62
7
  6
CONTINUOUS
 10
160.5738636102
 20
238.8659024616
 11
161.0630167674
 21
238.6870359234
  0
LINE
  8
0
 62
7
  6
CONTINUOUS
 10
161.3435243096
 20
239.1508250364
 11
160.6587027241
 21
239.4012408101
  0
LINE
  8
0
 62
7
  6
CONTINUOUS
 10
161.3893960108
 20
241.3994956631
 11
162.0742175963
 21
241.1490798894
  0
LINE
  8
0
 62
7
  6
CONTINUOUS
 10
162.1590566847
 20
241.6844181678
 11
161.6699035274
 21
241.8632847061
  0
LINE
  8
0
 62
7
  6
CONTINUOUS
 10
163.1609115929
 20
241.9977077244
 11
163.6500737069
 21
241.8188379109
  0
LINE
  8
0
 62
7
  6
CONTINUOUS
 10
162.0104853416
 20
243.0980123896
 11
162.597472713
 21
242.8833712336
  0
LINE
  8
0
 62
7
  6
CONTINUOUS
 10
162.6823118013
 20
243.4187095121
 11
162.2909928582
 21
243.5618014326
  0
LINE
  8
0
 62
7
  6
CONTINUOUS
 10
153.6775380191
 20
246.0463207835
 11
153.1929280427
 21
246.2648145432
  0
LINE
  8
0
 62
7
  6
CONTINUOUS
 10
153.1773705471
 20
245.7230196426
 11
153.4587624669
 21
245.5504155495
  0
LINE
  8
0
 62
7
  6
CONTINUOUS
 10
162.6116751814
 20
241.4056388974
 11
162.1590566847
 21
241.6844181678
  0
LINE
  8
0
 62
7
  6
CONTINUOUS
 10
163.1349392548
 20
243.1399269665
 11
162.6823118013
 21
243.4187095121
  0
LINE
  8
0
 62
7
  6
CONTINUOUS
 10
162.597472713
 20
242.8833712336
 11
162.8544317382
 21
242.6761379234
  0
LINE
  8
AXES
 62
7
  6
CONTINUOUS
 10
330.7081765733
 20
72.0948719367
 11
335.2138032925
 21
72.0948719367
  0
LINE
  8
0
 62
7
  6
CONTINUOUS
 10
330.7039961731
 20
81.168921017
 11
335.2179836927
 21
81.168921017
  0
POLYLINE
  8
0
 62
7
  6
CONTINUOUS
 66
1
 70
0
  0
VERTEX
  8
0
 62
7
  6
CONTINUOUS
 10
335.2179709586
 20
81.1689210658
  0
VERTEX
  8
0
 62
7
  6
CONTINUOUS
 10
335.2087774447
 20
81.1689632984
  0
VERTEX
  8
0
 62
7
  6
CONTINUOUS
 10
335.3481699645
 20
81.1774271586
  0
VERTEX
  8
0
 62
7
  6
CONTINUOUS
 10
335.4757805316
 20
81.2027001809
  0
VERTEX
  8
0
 62
7
  6
CONTINUOUS
 10
335.5912781698
 20
81.2411555024
  0
VERTEX
  8
0
 62
7
  6
CONTINUOUS
 10
335.6949535054
 20
81.2899020152
  0
VERTEX
  8
0
 62
7
  6
CONTINUOUS
 10
335.7870966938
 20
81.3464955808
  0
VERTEX
  8
0
 62
7
  6
CONTINUOUS
 10
335.8678612714
 20
81.4086224717
  0
VERTEX
  8
0
 62
7
  6
CONTINUOUS
 10
335.9377115695
 20
81.4742743735
  0
VERTEX
  8
0
 62
7
  6
CONTINUOUS
 10
335.9974713439
 20
81.5419280029
  0
VERTEX
  8
0
 62
7
  6
CONTINUOUS
 10
336.0480440821
 20
81.6104037967
  0
VERTEX
  8
0
 62
7
  6
CONTINUOUS
 10
336.0901133319
 20
81.6784025968
  0
VERTEX
  8
0
 62
7
  6
CONTINUOUS
 10
336.1081697256
 20
81.7118068288
  0
VERTEX
  8
0
 62
7
  6
CONTINUOUS
 10
336.1387963452
 20
81.7766246968
  0
VERTEX
  8
0
 62
7
  6
CONTINUOUS
 10
336.1628851897
 20
81.8380062117
  0
VERTEX
  8
0
 62
7
  6
CONTINUOUS
 10
336.1811295501
 20
81.8942317944
  0
VERTEX
  8
0
 62
7
  6
CONTINUOUS
 10
336.1940600265
 20
81.9422235174
  0
VERTEX
  8
0
 62
7
  6
CONTINUOUS
 10
336.2037037849
 20
81.9848169151
  0
VERTEX
  8
0
 62
7
  6
CONTINUOUS
 10
336.212112955
 20
82.0287759683
  0
VERTEX
  8
0
 62
7
  6
CONTINUOUS
 10
336.2196806879
 20
82.0752856627
  0
VERTEX
  8
0
 62
7
  6
CONTINUOUS
 10
336.2269706495
 20
82.1269486528
  0
SEQEND
  0
POLYLINE
  8
0
 62
7
  6
CONTINUOUS
 66
1
 70
0
  0
VERTEX
  8
0
 62
7
  6
CONTINUOUS
 10
335.2325532875
 20
112.8811557562
  0
VERTEX
  8
0
 62
7
  6
CONTINUOUS
 10
335.3412623868
 20
112.887066709
  0
VERTEX
  8
0
 62
7
  6
CONTINUOUS
 10
335.5064517252
 20
112.9192916115
  0
VERTEX
  8
0
 62
7
  6
CONTINUOUS
 10
335.6602581643
 20
112.9769435648
  0
VERTEX
  8
0
 62
7
  6
CONTINUOUS
 10
335.7921953955
 20
113.051817838
  0
VERTEX
  8
0
 62
7
  6
CONTINUOUS
 10
335.9015013658
 20
113.1367650815
  0
VERTEX
  8
0
 62
7
  6
CONTINUOUS
 10
335.9911637128
 20
113.2277836536
  0
VERTEX
  8
0
 62
7
  6
CONTINUOUS
 10
336.0620184404
 20
113.3195962065
  0
VERTEX
  8
0
 62
7
  6
CONTINUOUS
 10
336.1158839356
 20
113.4075368051
  0
VERTEX
  8
0
 62
7
  6
CONTINUOUS
 10
336.156121269
 20
113.4897598096
  0
VERTEX
  8
0
 62
7
  6
CONTINUOUS
 10
336.185953773
 20
113.5660012733
  0
VERTEX
  8
0
 62
7
  6
CONTINUOUS
 10
336.2068687387
 20
113.632574674
  0
VERTEX
  8
0
 62
7
  6
CONTINUOUS
 10
336.2219045833
 20
113.6914328659
  0
VERTEX
  8
0
 62
7
  6
CONTINUOUS
 10
336.2338239919
 20
113.7481650125
  0
SEQEND
  0
LINE
  8
0
 62
7
  6
CONTINUOUS
 10
330.6894103582
 20
112.8811556575
 11
335.2325695076
 21
112.8811556575
  0
LINE
  8
0
 62
7
  6
CONTINUOUS
 10
337.4609899329
 20
253.3558719367
 11
336.4609899329
 21
251.6238211291
  0
LINE
  8
AXES
 62
7
  6
CONTINUOUS
 10
313.8109899329
 20
133.3558719367
 11
324.4609899329
 21
133.3558719367
  0
LINE
  8
AXES
 62
7
  6
CONTINUOUS
 10
341.4609899329
 20
133.3558719367
 11
352.1109899329
 21
133.3558719367
  0
LINE
  8
AXES
 62
7
  6
CONTINUOUS
 10
311.8109899329
 20
201.3558692842
 11
311.8109899329
 21
135.3558719367
  0
POLYLINE
  8
0
 62
7
  6
CONTINUOUS
 66
1
 70
0
  0
VERTEX
  8
0
 62
7
  6
CONTINUOUS
 10
329.6757155907
 20
82.2938522636
  0
VERTEX
  8
0
 62
7
  6
CONTINUOUS
 10
329.6836850833
 20
82.2199683228
  0
VERTEX
  8
0
 62
7
  6
CONTINUOUS
 10
329.6916255514
 20
82.1531790636
  0
SEQEND
  0
POLYLINE
  8
0
 62
7
  6
CONTINUOUS
 66
1
 70
0
  0
VERTEX
  8
0
 62
7
  6
CONTINUOUS
 10
329.6950092063
 20
254.5847951454
  0
VERTEX
  8
0
 62
7
  6
CONTINUOUS
 10
329.6874518964
 20
254.5243456514
  0
VERTEX
  8
0
 62
7
  6
CONTINUOUS
 10
329.6793497496
 20
254.4524006131
  0
VERTEX
  8
0
 62
7
  6
CONTINUOUS
 10
329.6757155871
 20
254.4178915732
  0
SEQEND
  0
LINE
  8
0
 62
7
  6
CONTINUOUS
 10
329.6881558937
 20
222.963578962
 11
329.6881473738
 21
222.9635343217
  0
LINE
  8
0
 62
7
  6
CONTINUOUS
 10
329.6881473693
 20
222.9635343226
 11
329.4939190059
 21
221.9454576406
  0
POLYLINE
  8
0
 62
7
  6
CONTINUOUS
 66
1
 70
0
  0
VERTEX
  8
0
 62
7
  6
CONTINUOUS
 10
329.6881553481
 20
113.7481677664
  0
VERTEX
  8
0
 62
7
  6
CONTINUOUS
 10
329.7001875149
 20
113.6909471198
  0
VERTEX
  8
0
 62
7
  6
CONTINUOUS
 10
329.7152456355
 20
113.6320972347
  0
VERTEX
  8
0
 62
7
  6
CONTINUOUS
 10
329.7361817164
 20
113.5655548878
  0
VERTEX
  8
0
 62
7
  6
CONTINUOUS
 10
329.7660297278
 20
113.4893676806
  0
VERTEX
  8
0
 62
7
  6
CONTINUOUS
 10
329.8062815856
 20
113.4071965186
  0
VERTEX
  8
0
 62
7
  6
CONTINUOUS
 10
329.8601619722
 20
113.3193032396
  0
VERTEX
  8
0
 62
7
  6
CONTINUOUS
 10
329.931029596
 20
113.227537686
  0
VERTEX
  8
0
 62
7
  6
CONTINUOUS
 10
330.0206933794
 20
113.1365730333
  0
VERTEX
  8
0
 62
7
  6
CONTINUOUS
 10
330.1299860083
 20
113.051682417
  0
VERTEX
  8
0
 62
7
  6
CONTINUOUS
 10
330.2618907528
 20
112.9768638816
  0
VERTEX
  8
0
 62
7
  6
CONTINUOUS
 10
330.4156366412
 20
112.9192608093
  0
VERTEX
  8
0
 62
7
  6
CONTINUOUS
 10
330.5807584391
 20
112.8870622423
  0
VERTEX
  8
0
 62
7
  6
CONTINUOUS
 10
330.6894265781
 20
112.8811557562
  0
SEQEND
  0
LINE
  8
0
 62
7
  6
CONTINUOUS
 10
329.6881553441
 20
113.7481677657
 11
329.6881473692
 21
113.7482095509
  0
LINE
  8
0
 62
7
  6
CONTINUOUS
 10
329.6623572239
 20
113.883370835
 11
329.6881473692
 21
113.7482095509
  0
LINE
  8
0
 62
7
  6
CONTINUOUS
 10
329.4939190059
 20
114.7662862329
 11
329.6623572239
 21
113.883370835
  0
POLYLINE
  8
0
 62
7
  6
CONTINUOUS
 66
1
 70
0
  0
VERTEX
  8
0
 62
7
  6
CONTINUOUS
 10
329.6916255514
 20
82.1531790636
  0
VERTEX
  8
0
 62
7
  6
CONTINUOUS
 10
329.6991274191
 20
82.0969335205
  0
VERTEX
  8
0
 62
7
  6
CONTINUOUS
 10
329.7066518469
 20
82.0476673461
  0
VERTEX
  8
0
 62
7
  6
CONTINUOUS
 10
329.7148285592
 20
82.0019536968
  0
VERTEX
  8
0
 62
7
  6
CONTINUOUS
 10
329.7241243953
 20
81.958149071
  0
VERTEX
  8
0
 62
7
  6
CONTINUOUS
 10
329.7356524178
 20
81.9125076961
  0
VERTEX
  8
0
 62
7
  6
CONTINUOUS
 10
329.7519208438
 20
81.8588554758
  0
VERTEX
  8
0
 62
7
  6
CONTINUOUS
 10
329.7744262483
 20
81.7976290724
  0
VERTEX
  8
0
 62
7
  6
CONTINUOUS
 10
329.8039222976
 20
81.7314719421
  0
VERTEX
  8
0
 62
7
  6
CONTINUOUS
 10
329.8411772658
 20
81.6622754645
  0
VERTEX
  8
0
 62
7
  6
CONTINUOUS
 10
329.8868856472
 20
81.5916801503
  0
VERTEX
  8
0
 62
7
  6
CONTINUOUS
 10
329.9416285151
 20
81.5212647573
  0
VERTEX
  8
0
 62
7
  6
CONTINUOUS
 10
330.0061755796
 20
81.4523062252
  0
VERTEX
  8
0
 62
7
  6
CONTINUOUS
 10
330.0815308908
 20
81.3860508052
  0
VERTEX
  8
0
 62
7
  6
CONTINUOUS
 10
330.1684929715
 20
81.324249771
  0
VERTEX
  8
0
 62
7
  6
CONTINUOUS
 10
330.2674566125
 20
81.2691576042
  0
VERTEX
  8
0
 62
7
  6
CONTINUOUS
 10
330.3785999593
 20
81.2233056183
  0
VERTEX
  8
0
 62
7
  6
CONTINUOUS
 10
330.5023401719
 20
81.1894523817
  0
VERTEX
  8
0
 62
7
  6
CONTINUOUS
 10
330.6387280652
 20
81.1710526455
  0
VERTEX
  8
0
 62
7
  6
CONTINUOUS
 10
330.7040089077
 20
81.1689210658
  0
SEQEND
  0
LINE
  8
0
 62
7
  6
CONTINUOUS
 10
329.6732730728
 20
82.3174995177
 11
329.6757157737
 21
82.2938504816
  0
LINE
  8
0
 62
7
  6
CONTINUOUS
 10
329.4814989754
 20
84.1744627617
 11
329.6732730728
 21
82.3174995177
  0
LINE
  8
AXES
 62
7
  6
CONTINUOUS
 10
329.4800164424
 20
75.659093223
 11
329.7119818744
 21
73.0077162033
  0
LINE
  8
AXES
 62
7
  6
CONTINUOUS
 10
329.4609899329
 20
76.0948719367
 11
329.4800164424
 21
75.659093223
  0
POLYLINE
  8
0
 62
7
  6
CONTINUOUS
 66
1
 70
0
  0
VERTEX
  8
0
 62
7
  6
CONTINUOUS
 10
329.4814989216
 20
252.5372805292
  0
VERTEX
  8
0
 62
7
  6
CONTINUOUS
 10
329.4704054517
 20
252.4090665746
  0
VERTEX
  8
0
 62
7
  6
CONTINUOUS
 10
329.4630808842
 20
252.2664001876
  0
VERTEX
  8
0
 62
7
  6
CONTINUOUS
 10
329.4609899356
 20
252.1391182809
  0
SEQEND
  0
LINE
  8
AXES
 62
7
  6
CONTINUOUS
 10
329.4800164424
 20
261.0526506505
 11
329.7119818658
 21
263.7040275717
  0
POLYLINE
  8
0
 62
7
  6
CONTINUOUS
 66
1
 70
0
  0
VERTEX
  8
0
 62
7
  6
CONTINUOUS
 10
329.4760623347
 20
221.8334975645
  0
VERTEX
  8
0
 62
7
  6
CONTINUOUS
 10
329.4643206814
 20
221.708915247
  0
VERTEX
  8
0
 62
7
  6
CONTINUOUS
 10
329.4609899356
 20
221.5981612968
  0
SEQEND
  0
LINE
  8
0
 62
7
  6
CONTINUOUS
 10
329.6757157737
 20
254.4178933919
 11
329.6732730732
 21
254.3942443557
  0
LINE
  8
0
 62
7
  6
CONTINUOUS
 10
329.6732730732
 20
254.3942443557
 11
329.4814989754
 21
252.5372811117
  0
LINE
  8
0
 62
7
  6
CONTINUOUS
 10
329.4939166743
 20
221.9454453823
 11
329.4760623347
 21
221.8334975645
  0
POLYLINE
  8
0
 62
7
  6
CONTINUOUS
 66
1
 70
0
  0
VERTEX
  8
0
 62
7
  6
CONTINUOUS
 10
329.4609899356
 20
115.1135812769
  0
VERTEX
  8
0
 62
7
  6
CONTINUOUS
 10
329.4643884081
 20
115.0017091466
  0
VERTEX
  8
0
 62
7
  6
CONTINUOUS
 10
329.476205111
 20
114.8771373484
  0
VERTEX
  8
0
 62
7
  6
CONTINUOUS
 10
329.4939165149
 20
114.7662993269
  0
SEQEND
  0
POLYLINE
  8
0
 62
7
  6
CONTINUOUS
 66
1
 70
0
  0
VERTEX
  8
0
 62
7
  6
CONTINUOUS
 10
329.4609899356
 20
84.5726251937
  0
VERTEX
  8
0
 62
7
  6
CONTINUOUS
 10
329.4631233197
 20
84.4440592518
  0
VERTEX
  8
0
 62
7
  6
CONTINUOUS
 10
329.4704952103
 20
84.3013950954
  0
VERTEX
  8
0
 62
7
  6
CONTINUOUS
 10
329.4814989188
 20
84.1744633716
  0
SEQEND
  0
LINE
  8
AXES
 62
7
  6
CONTINUOUS
 10
329.4609899329
 20
260.6098719871
 11
329.4609899329
 21
260.2304665995
  0
LINE
  8
0
 62
7
  6
CONTINUOUS
 10
329.4609899329
 20
260.6168708406
 11
329.4609899329
 21
252.1401294749
  0
LINE
  8
AXES
 62
7
  6
CONTINUOUS
 10
329.4609899329
 20
252.1391567898
 11
329.4609899329
 21
243.7040529645
  0
LINE
  8
AXES
 62
7
  6
CONTINUOUS
 10
329.4609899329
 20
221.5981834644
 11
329.4609899329
 21
206.9881550719
  0
LINE
  8
AXES
 62
7
  6
CONTINUOUS
 10
329.4609899329
 20
176.790975762
 11
329.4609899329
 21
159.9207681114
  0
LINE
  8
AXES
 62
7
  6
CONTINUOUS
 10
329.4609899329
 20
129.7235888016
 11
329.4609899329
 21
115.113560409
  0
LINE
  8
AXES
 62
7
  6
CONTINUOUS
 10
329.4609899329
 20
93.007690909
 11
329.4609899329
 21
84.5725870837
  0
LINE
  8
AXES
 62
7
  6
CONTINUOUS
 10
329.4609899329
 20
76.4812772739
 11
329.4609899329
 21
76.0954368765
  0
LINE
  8
0
 62
7
  6
CONTINUOUS
 10
329.4609899329
 20
76.0948719367
 11
329.4609899329
 21
84.5716146789
  0
LINE
  8
0
 62
7
  6
CONTINUOUS
 10
329.4609899329
 20
84.5725870837
 11
329.4609899329
 21
252.1391567898
  0
LINE
  8
AXES
 62
2
  6
CENTER
 10
309.8109899329
 20
168.3558719367
 11
356.1109899329
 21
168.3558719367
  0
POLYLINE
  8
0
 62
7
  6
CONTINUOUS
 66
1
 70
0
  0
VERTEX
  8
0
 62
7
  6
CONTINUOUS
 10
336.4609899263
 20
221.598161246
  0
VERTEX
  8
0
 62
7
  6
CONTINUOUS
 10
336.4575912673
 20
221.7100379229
  0
VERTEX
  8
0
 62
7
  6
CONTINUOUS
 10
336.4457743419
 20
221.8346096959
  0
VERTEX
  8
0
 62
7
  6
CONTINUOUS
 10
336.4280632788
 20
221.9454449444
  0
SEQEND
  0
POLYLINE
  8
0
 62
7
  6
CONTINUOUS
 66
1
 70
0
  0
VERTEX
  8
0
 62
7
  6
CONTINUOUS
 10
336.4609899262
 20
252.1391062866
  0
VERTEX
  8
0
 62
7
  6
CONTINUOUS
 10
336.4588564089
 20
252.2676888661
  0
VERTEX
  8
0
 62
7
  6
CONTINUOUS
 10
336.4514843543
 20
252.4103530146
  0
VERTEX
  8
0
 62
7
  6
CONTINUOUS
 10
336.4404809422
 20
252.5372805852
  0
SEQEND
  0
LINE
  8
AXES
 62
7
  6
CONTINUOUS
 10
336.4609899329
 20
260.6098719871
 11
336.4609899329
 21
260.2304665995
  0
LINE
  8
AXES
 62
7
  6
CONTINUOUS
 10
336.4609899329
 20
76.4812772739
 11
336.4609899329
 21
76.0954368765
  0
LINE
  8
0
 62
7
  6
CONTINUOUS
 10
336.4609899329
 20
76.0948719367
 11
336.4609899329
 21
84.5716144974
  0
LINE
  8
0
 62
7
  6
CONTINUOUS
 10
336.4609899329
 20
84.5725870837
 11
336.4609899329
 21
252.1391567898
  0
LINE
  8
0
 62
7
  6
CONTINUOUS
 10
336.4609899329
 20
252.1401294749
 11
336.4609899329
 21
260.6168708406
  0
LINE
  8
0
 62
7
  6
CONTINUOUS
 10
336.7609899329
 20
247.9367928696
 11
336.7609899329
 21
231.1181419389
  0
LINE
  8
0
 62
7
  6
CONTINUOUS
 10
336.7609899329
 20
230.5939488149
 11
336.7609899329
 21
223.0032081011
  0
POLYLINE
  8
0
 62
7
  6
CONTINUOUS
 66
1
 70
0
  0
VERTEX
  8
0
 62
7
  6
CONTINUOUS
 10
336.2462642743
 20
254.4178916162
  0
VERTEX
  8
0
 62
7
  6
CONTINUOUS
 10
336.2382946341
 20
254.4917768629
  0
VERTEX
  8
0
 62
7
  6
CONTINUOUS
 10
336.2303540263
 20
254.5585671024
  0
SEQEND
  0
LINE
  8
0
 62
7
  6
CONTINUOUS
 10
336.4404808904
 20
252.5372811117
 11
336.2487067929
 21
254.3942443557
  0
LINE
  8
0
 62
7
  6
CONTINUOUS
 10
336.2487067929
 20
254.3942443557
 11
336.2462640921
 21
254.4178933918
  0
LINE
  8
AXES
 62
7
  6
CONTINUOUS
 10
336.209998
 20
263.7040275717
 11
336.4419634233
 21
261.0526506505
  0
LINE
  8
AXES
 62
7
  6
CONTINUOUS
 10
336.4419634233
 20
261.0526506505
 11
336.4609899329
 21
260.6168719367
  0
POLYLINE
  8
0
 62
7
  6
CONTINUOUS
 66
1
 70
0
  0
VERTEX
  8
0
 62
7
  6
CONTINUOUS
 10
336.4404809397
 20
84.1744632639
  0
VERTEX
  8
0
 62
7
  6
CONTINUOUS
 10
336.4515741146
 20
84.3026730638
  0
VERTEX
  8
0
 62
7
  6
CONTINUOUS
 10
336.458898846
 20
84.4453394444
  0
VERTEX
  8
0
 62
7
  6
CONTINUOUS
 10
336.4609899262
 20
84.5726380334
  0
SEQEND
  0
LINE
  8
AXES
 62
7
  6
CONTINUOUS
 10
336.2099979914
 20
73.0077162033
 11
336.4419634233
 21
75.659093223
  0
POLYLINE
  8
0
 62
7
  6
CONTINUOUS
 66
1
 70
0
  0
VERTEX
  8
0
 62
7
  6
CONTINUOUS
 10
336.4459171202
 20
114.8782431376
  0
VERTEX
  8
0
 62
7
  6
CONTINUOUS
 10
336.4576589961
 20
115.0028254312
  0
VERTEX
  8
0
 62
7
  6
CONTINUOUS
 10
336.4609899263
 20
115.1135839496
  0
SEQEND
  0
LINE
  8
0
 62
7
  6
CONTINUOUS
 10
336.2487067926
 20
82.3174995178
 11
336.4404808904
 21
84.1744627617
  0
POLYLINE
  8
0
 62
7
  6
CONTINUOUS
 66
1
 70
0
  0
VERTEX
  8
0
 62
7
  6
CONTINUOUS
 10
336.2269706495
 20
82.1269486528
  0
VERTEX
  8
0
 62
7
  6
CONTINUOUS
 10
336.2345279636
 20
82.1873981728
  0
VERTEX
  8
0
 62
7
  6
CONTINUOUS
 10
336.2426301052
 20
82.2593431582
  0
VERTEX
  8
0
 62
7
  6
CONTINUOUS
 10
336.2487067926
 20
82.3174995178
  0
SEQEND
  0
LINE
  8
0
 62
7
  6
CONTINUOUS
 10
336.4280631224
 20
114.7662981087
 11
336.4459171202
 21
114.8782431376
  0
LINE
  8
0
 62
7
  6
CONTINUOUS
 10
336.2338324965
 20
113.7482095508
 11
336.4280608599
 21
114.7662862329
  0
LINE
  8
0
 62
7
  6
CONTINUOUS
 10
336.2338239919
 20
113.7481650125
 11
336.2338324925
 21
113.7482095516
  0
LINE
  8
0
 62
7
  6
CONTINUOUS
 10
336.4280608599
 20
221.9454576405
 11
336.2596226419
 21
222.8283730385
  0
LINE
  8
0
 62
7
  6
CONTINUOUS
 10
336.2596226419
 20
222.8283730385
 11
336.2338324965
 21
222.9635343226
  0
LINE
  8
0
 62
7
  6
CONTINUOUS
 10
336.2338245027
 20
222.9635762072
 11
336.2338324965
 21
222.9635343226
  0
POLYLINE
  8
0
 62
7
  6
CONTINUOUS
 66
1
 70
0
  0
VERTEX
  8
0
 62
7
  6
CONTINUOUS
 10
336.2338244981
 20
222.9635762063
  0
VERTEX
  8
0
 62
7
  6
CONTINUOUS
 10
336.2217927865
 20
223.0207948693
  0
VERTEX
  8
0
 62
7
  6
CONTINUOUS
 10
336.206734843
 20
223.0796444659
  0
VERTEX
  8
0
 62
7
  6
CONTINUOUS
 10
336.1857989157
 20
223.1461867881
  0
VERTEX
  8
0
 62
7
  6
CONTINUOUS
 10
336.1559511534
 20
223.2223738656
  0
VERTEX
  8
0
 62
7
  6
CONTINUOUS
 10
336.1156996626
 20
223.3045448238
  0
VERTEX
  8
0
 62
7
  6
CONTINUOUS
 10
336.0618198543
 20
223.3924377693
  0
VERTEX
  8
0
 62
7
  6
CONTINUOUS
 10
335.9909531184
 20
223.4842029046
  0
VERTEX
  8
0
 62
7
  6
CONTINUOUS
 10
335.9012901942
 20
223.5751675298
  0
VERTEX
  8
0
 62
7
  6
CONTINUOUS
 10
335.7919984047
 20
223.6600584038
  0
VERTEX
  8
0
 62
7
  6
CONTINUOUS
 10
335.660094946
 20
223.7348772398
  0
VERTEX
  8
0
 62
7
  6
CONTINUOUS
 10
335.5063501876
 20
223.7924810848
  0
VERTEX
  8
0
 62
7
  6
CONTINUOUS
 10
335.3412271723
 20
223.8246810047
  0
VERTEX
  8
0
 62
7
  6
CONTINUOUS
 10
335.2325532639
 20
223.8305881195
  0
SEQEND
  0
POLYLINE
  8
0
 62
7
  6
CONTINUOUS
 66
1
 70
0
  0
VERTEX
  8
0
 62
7
  6
CONTINUOUS
 10
336.2303540263
 20
254.5585671024
  0
VERTEX
  8
0
 62
7
  6
CONTINUOUS
 10
336.2228520328
 20
254.6148132615
  0
VERTEX
  8
0
 62
7
  6
CONTINUOUS
 10
336.2153274357
 20
254.664080067
  0
VERTEX
  8
0
 62
7
  6
CONTINUOUS
 10
336.2071504949
 20
254.7097943486
  0
VERTEX
  8
0
 62
7
  6
CONTINUOUS
 10
336.197854444
 20
254.7535992459
  0
VERTEX
  8
0
 62
7
  6
CONTINUOUS
 10
336.18632619
 20
254.7992407503
  0
VERTEX
  8
0
 62
7
  6
CONTINUOUS
 10
336.1700574018
 20
254.8528932747
  0
VERTEX
  8
0
 62
7
  6
CONTINUOUS
 10
336.1475515484
 20
254.9141199217
  0
VERTEX
  8
0
 62
7
  6
CONTINUOUS
 10
336.118055142
 20
254.9802768907
  0
VERTEX
  8
0
 62
7
  6
CONTINUOUS
 10
336.0807998471
 20
255.0494730794
  0
VERTEX
  8
0
 62
7
  6
CONTINUOUS
 10
336.0350911782
 20
255.1200680146
  0
VERTEX
  8
0
 62
7
  6
CONTINUOUS
 10
335.9803481447
 20
255.1904828794
  0
VERTEX
  8
0
 62
7
  6
CONTINUOUS
 10
335.9158009988
 20
255.2594408413
  0
VERTEX
  8
0
 62
7
  6
CONTINUOUS
 10
335.8404457063
 20
255.3256956617
  0
VERTEX
  8
0
 62
7
  6
CONTINUOUS
 10
335.7534837752
 20
255.387496077
  0
VERTEX
  8
0
 62
7
  6
CONTINUOUS
 10
335.6545204361
 20
255.4425876357
  0
VERTEX
  8
0
 62
7
  6
CONTINUOUS
 10
335.5433775468
 20
255.4884390688
  0
VERTEX
  8
0
 62
7
  6
CONTINUOUS
 10
335.419637952
 20
255.5222918536
  0
VERTEX
  8
0
 62
7
  6
CONTINUOUS
 10
335.2832508488
 20
255.5406912943
  0
VERTEX
  8
0
 62
7
  6
CONTINUOUS
 10
335.2179709587
 20
255.5428228119
  0
SEQEND
  0
LINE
  8
AXES
 62
7
  6
CONTINUOUS
 10
354.1109899329
 20
201.3558692842
 11
354.1109899329
 21
135.3558719367
  0
LINE
  8
AXES
 62
7
  6
CONTINUOUS
 10
313.8109899329
 20
203.3558719367
 11
324.4609899329
 21
203.3558719367
  0
LINE
  8
AXES
 62
7
  6
CONTINUOUS
 10
341.4609899329
 20
203.3558719367
 11
352.1109899329
 21
203.3558719367
  0
LINE
  8
0
 62
7
  6
CONTINUOUS
 10
337.4609899329
 20
253.3558719367
 11
336.4609899329
 21
255.0879227443
  0
POLYLINE
  8
0
 62
7
  6
CONTINUOUS
 66
1
 70
0
  0
VERTEX
  8
0
 62
7
  6
CONTINUOUS
 10
330.689426602
 20
223.8305881195
  0
VERTEX
  8
0
 62
7
  6
CONTINUOUS
 10
330.5807117555
 20
223.8246765403
  0
VERTEX
  8
0
 62
7
  6
CONTINUOUS
 10
330.4155212002
 20
223.7924502881
  0
VERTEX
  8
0
 62
7
  6
CONTINUOUS
 10
330.2617158811
 20
223.7347975612
  0
VERTEX
  8
0
 62
7
  6
CONTINUOUS
 10
330.129779926
 20
223.6599229832
  0
VERTEX
  8
0
 62
7
  6
CONTINUOUS
 10
330.0204747901
 20
223.574975478
  0
VERTEX
  8
0
 62
7
  6
CONTINUOUS
 10
329.9308133008
 20
223.4839569307
  0
VERTEX
  8
0
 62
7
  6
CONTINUOUS
 10
329.8599594614
 20
223.3921447954
  0
VERTEX
  8
0
 62
7
  6
CONTINUOUS
 10
329.8060945438
 20
223.3042045276
  0
VERTEX
  8
0
 62
7
  6
CONTINUOUS
 10
329.765857578
 20
223.2219817264
  0
VERTEX
  8
0
 62
7
  6
CONTINUOUS
 10
329.7360253229
 20
223.1457403892
  0
VERTEX
  8
0
 62
7
  6
CONTINUOUS
 10
329.7151105081
 20
223.0791670006
  0
VERTEX
  8
0
 62
7
  6
CONTINUOUS
 10
329.700074841
 20
223.0203090951
  0
VERTEX
  8
0
 62
7
  6
CONTINUOUS
 10
329.6881558937
 20
222.963578962
  0
SEQEND
  0
LINE
  8
0
 62
7
  6
CONTINUOUS
 10
336.4609899329
 20
223.0032081011
 11
336.7609899329
 21
223.0032081011
  0
LINE
  8
0
 62
7
  6
CONTINUOUS
 10
336.4609899329
 20
223.0264430398
 11
336.7609899329
 21
223.0264430398
  0
LINE
  8
0
 62
7
  6
CONTINUOUS
 10
336.4609899329
 20
223.1124694027
 11
336.7609899329
 21
223.1124694027
  0
LINE
  8
0
 62
7
  6
CONTINUOUS
 10
336.4609899329
 20
223.3550586181
 11
336.7609899329
 21
223.3550586181
  0
LINE
  8
0
 62
7
  6
CONTINUOUS
 10
330.6894103448
 20
223.830588216
 11
335.2325695209
 21
223.830588216
  0
LINE
  8
0
 62
7
  6
CONTINUOUS
 10
336.4609899329
 20
224.920686704
 11
336.7609899329
 21
224.920686704
  0
LINE
  8
0
 62
7
  6
CONTINUOUS
 10
336.4609899329
 20
225.2733688585
 11
336.7609899329
 21
225.2733688585
  0
LINE
  8
0
 62
7
  6
CONTINUOUS
 10
336.4609899329
 20
226.6840974515
 11
336.7609899329
 21
226.6840974515
  0
LINE
  8
0
 62
7
  6
CONTINUOUS
 10
336.4609899329
 20
227.0367796818
 11
336.7609899329
 21
227.0367796818
  0
LINE
  8
0
 62
7
  6
CONTINUOUS
 10
336.4609899329
 20
227.8401574346
 11
336.7609899329
 21
227.8401574346
  0
LINE
  8
0
 62
7
  6
CONTINUOUS
 10
336.4609899329
 20
228.1721307409
 11
336.7609899329
 21
228.1721307409
  0
LINE
  8
0
 62
7
  6
CONTINUOUS
 10
336.4609899329
 20
228.4221312609
 11
336.7609899329
 21
228.4221312609
  0
LINE
  8
0
 62
7
  6
CONTINUOUS
 10
336.4609899329
 20
228.7696825781
 11
336.7609899329
 21
228.7696825781
  0
LINE
  8
0
 62
7
  6
CONTINUOUS
 10
336.4609899329
 20
229.0352612991
 11
336.7609899329
 21
229.0352612991
  0
LINE
  8
0
 62
7
  6
CONTINUOUS
 10
336.4609899329
 20
229.1524726486
 11
336.7609899329
 21
229.1524726486
  0
LINE
  8
0
 62
7
  6
CONTINUOUS
 10
336.4609899329
 20
229.1877114019
 11
336.7609899329
 21
229.1877114019
  0
LINE
  8
0
 62
7
  6
CONTINUOUS
 10
336.4609899329
 20
230.2758214064
 11
336.7609899329
 21
230.2758214064
  0
LINE
  8
0
 62
7
  6
CONTINUOUS
 10
336.4609899329
 20
230.5939488149
 11
336.7609899329
 21
230.5939488149
  0
LINE
  8
0
 62
7
  6
CONTINUOUS
 10
336.4609899329
 20
231.1181419389
 11
336.7609899329
 21
231.1181419389
  0
LINE
  8
0
 62
7
  6
CONTINUOUS
 10
336.4609899329
 20
231.5393020872
 11
336.7609899329
 21
231.5393020872
  0
LINE
  8
0
 62
7
  6
CONTINUOUS
 10
336.4609899329
 20
231.8574294957
 11
336.7609899329
 21
231.8574294957
  0
LINE
  8
0
 62
7
  6
CONTINUOUS
 10
336.4609899329
 20
235.5418821067
 11
336.7609899329
 21
235.5418821067
  0
LINE
  8
0
 62
7
  6
CONTINUOUS
 10
336.4609899329
 20
235.8690020039
 11
336.7609899329
 21
235.8690020039
  0
LINE
  8
0
 62
7
  6
CONTINUOUS
 10
336.4609899329
 20
236.3958461989
 11
336.7609899329
 21
236.3958461989
  0
LINE
  8
0
 62
7
  6
CONTINUOUS
 10
336.4609899329
 20
236.6243596051
 11
336.7609899329
 21
236.6243596051
  0
LINE
  8
0
 62
7
  6
CONTINUOUS
 10
336.4609899329
 20
236.9534577909
 11
336.7609899329
 21
236.9534577909
  0
LINE
  8
0
 62
7
  6
CONTINUOUS
 10
336.4609899329
 20
237.3318513142
 11
336.7609899329
 21
237.3318513142
  0
LINE
  8
0
 62
7
  6
CONTINUOUS
 10
336.4609899329
 20
237.4098967651
 11
336.7609899329
 21
237.4098967651
  0
LINE
  8
0
 62
7
  6
CONTINUOUS
 10
336.4609899329
 20
237.4162863381
 11
336.7609899329
 21
237.4162863381
  0
LINE
  8
0
 62
7
  6
CONTINUOUS
 10
336.4609899329
 20
237.6134690108
 11
336.7609899329
 21
237.6134690108
  0
LINE
  8
0
 62
7
  6
CONTINUOUS
 10
336.4609899329
 20
237.9489556476
 11
336.7609899329
 21
237.9489556476
  0
LINE
  8
0
 62
7
  6
CONTINUOUS
 10
336.4609899329
 20
238.3305442246
 11
336.7609899329
 21
238.3305442246
  0
LINE
  8
0
 62
7
  6
CONTINUOUS
 10
336.4609899329
 20
238.7582342075
 11
336.7609899329
 21
238.7582342075
  0
LINE
  8
0
 62
7
  6
CONTINUOUS
 10
336.4609899329
 20
239.3242281544
 11
336.7609899329
 21
239.3242281544
  0
LINE
  8
0
 62
7
  6
CONTINUOUS
 10
336.4609899329
 20
239.6994268912
 11
336.7609899329
 21
239.6994268912
  0
LINE
  8
0
 62
7
  6
CONTINUOUS
 10
336.4609899329
 20
239.9792296058
 11
336.7609899329
 21
239.9792296058
  0
LINE
  8
0
 62
7
  6
CONTINUOUS
 10
336.4609899329
 20
240.2097358608
 11
336.7609899329
 21
240.2097358608
  0
LINE
  8
0
 62
7
  6
CONTINUOUS
 10
336.4609899329
 20
240.3448460935
 11
336.7609899329
 21
240.3448460935
  0
LINE
  8
0
 62
7
  6
CONTINUOUS
 10
336.4609899329
 20
241.430425803
 11
336.7609899329
 21
241.430425803
  0
LINE
  8
0
 62
7
  6
CONTINUOUS
 10
336.4609899329
 20
241.7902160727
 11
336.7609899329
 21
241.7902160727
  0
LINE
  8
0
 62
7
  6
CONTINUOUS
 10
336.4609899329
 20
242.7896337934
 11
336.7609899329
 21
242.7896337934
  0
LINE
  8
0
 62
7
  6
CONTINUOUS
 10
336.4609899329
 20
243.0294939732
 11
336.7609899329
 21
243.0294939732
  0
LINE
  8
0
 62
7
  6
CONTINUOUS
 10
336.4609899329
 20
243.4342350109
 11
336.7609899329
 21
243.4342350109
  0
LINE
  8
0
 62
7
  6
CONTINUOUS
 10
336.4609899329
 20
244.2426842938
 11
336.7609899329
 21
244.2426842938
  0
LINE
  8
0
 62
7
  6
CONTINUOUS
 10
336.4609899329
 20
244.3104448084
 11
336.7609899329
 21
244.3104448084
  0
LINE
  8
0
 62
7
  6
CONTINUOUS
 10
336.4609899329
 20
245.8606315715
 11
336.7609899329
 21
245.8606315715
  0
LINE
  8
0
 62
7
  6
CONTINUOUS
 10
336.4609899329
 20
246.3821487071
 11
336.7609899329
 21
246.3821487071
  0
LINE
  8
0
 62
7
  6
CONTINUOUS
 10
336.4609899329
 20
247.2019682538
 11
336.7609899329
 21
247.2019682538
  0
LINE
  8
0
 62
7
  6
CONTINUOUS
 10
336.4609899329
 20
247.4476480475
 11
336.7609899329
 21
247.4476480475
  0
LINE
  8
0
 62
7
  6
CONTINUOUS
 10
336.4609899329
 20
247.5415577265
 11
336.7609899329
 21
247.5415577265
  0
LINE
  8
0
 62
7
  6
CONTINUOUS
 10
336.4609899329
 20
247.7093450732
 11
336.7609899329
 21
247.7093450732
  0
LINE
  8
0
 62
7
  6
CONTINUOUS
 10
336.4609899329
 20
247.8925506462
 11
336.7609899329
 21
247.8925506462
  0
LINE
  8
0
 62
7
  6
CONTINUOUS
 10
336.4609899329
 20
247.9367928696
 11
336.7609899329
 21
247.9367928696
  0
LINE
  8
0
 62
7
  6
CONTINUOUS
 10
330.7039961664
 20
255.5428228565
 11
335.2179836993
 21
255.5428228565
  0
LINE
  8
AXES
 62
7
  6
CONTINUOUS
 10
330.7081765731
 20
264.6168719367
 11
335.2138032927
 21
264.6168719367
  0
POLYLINE
  8
0
 62
7
  6
CONTINUOUS
 66
1
 70
0
  0
VERTEX
  8
0
 62
7
  6
CONTINUOUS
 10
330.7040089065
 20
255.5428228119
  0
VERTEX
  8
0
 62
7
  6
CONTINUOUS
 10
330.7132024225
 20
255.5427805793
  0
VERTEX
  8
0
 62
7
  6
CONTINUOUS
 10
330.5738099131
 20
255.5343167203
  0
VERTEX
  8
0
 62
7
  6
CONTINUOUS
 10
330.4461993552
 20
255.5090437011
  0
VERTEX
  8
0
 62
7
  6
CONTINUOUS
 10
330.3307017249
 20
255.4705883843
  0
VERTEX
  8
0
 62
7
  6
CONTINUOUS
 10
330.2270263959
 20
255.4218418778
  0
VERTEX
  8
0
 62
7
  6
CONTINUOUS
 10
330.1348832131
 20
255.3652483199
  0
VERTEX
  8
0
 62
7
  6
CONTINUOUS
 10
330.0541186407
 20
255.3031214387
  0
VERTEX
  8
0
 62
7
  6
CONTINUOUS
 10
329.9842683475
 20
255.2374695501
  0
VERTEX
  8
0
 62
7
  6
CONTINUOUS
 10
329.9245085788
 20
255.1698159392
  0
VERTEX
  8
0
 62
7
  6
CONTINUOUS
 10
329.8739358367
 20
255.1013401564
  0
VERTEX
  8
0
 62
7
  6
CONTINUOUS
 10
329.8318665671
 20
255.0333413376
  0
VERTEX
  8
0
 62
7
  6
CONTINUOUS
 10
329.81381017
 20
254.9999371038
  0
VERTEX
  8
0
 62
7
  6
CONTINUOUS
 10
329.7831835519
 20
254.9351192481
  0
VERTEX
  8
0
 62
7
  6
CONTINUOUS
 10
329.7590947214
 20
254.8737377897
  0
VERTEX
  8
0
 62
7
  6
CONTINUOUS
 10
329.7408503073
 20
254.8175120502
  0
VERTEX
  8
0
 62
7
  6
CONTINUOUS
 10
329.7279198171
 20
254.7695202671
  0
VERTEX
  8
0
 62
7
  6
CONTINUOUS
 10
329.7182760959
 20
254.7269270311
  0
VERTEX
  8
0
 62
7
  6
CONTINUOUS
 10
329.7098669097
 20
254.6829678997
  0
VERTEX
  8
0
 62
7
  6
CONTINUOUS
 10
329.7022991721
 20
254.636458172
  0
VERTEX
  8
0
 62
7
  6
CONTINUOUS
 10
329.6950092063
 20
254.5847951454
  0
SEQEND
  0
ARC
  8
0
 62
7
  6
CONTINUOUS
 10
43.3247155601
 20
150.3979449367
 40
8.5
 50
54.9838418302
 51
87.0
  0
ARC
  8
0
 62
7
  6
CONTINUOUS
 10
64.5875242606
 20
106.9599165547
 40
8.5
 50
84.9838418302
 51
117.0
  0
ARC
  8
0
 62
7
  6
CONTINUOUS
 10
46.6295972606
 20
138.0639585173
 40
8.5
 50
303.0
 51
335.0161581698
  0
ARC
  8
0
 62
7
  6
CONTINUOUS
 10
104.7206709421
 20
79.9728848358
 40
8.5
 50
114.9838418302
 51
147.0
  0
ARC
  8
0
 62
7
  6
CONTINUOUS
 10
73.6166289795
 20
97.9308118358
 40
8.5
 50
333.0
 51
5.0161581698
  0
ARC
  8
0
 62
7
  6
CONTINUOUS
 10
117.0546573615
 20
76.6680031353
 40
8.5
 50
3.0
 51
35.0161581698
  0
ARC
  8
DEFAULT_3
 62
2
  6
PHANTOM
 10
128.6175379793
 20
141.9411636719
 40
3.2
 50
2.2544307753
 51
45.0
  0
ARC
  8
DEFAULT_3
 62
2
  6
PHANTOM
 10
124.3748972922
 20
146.183804359
 40
3.2
 50
45.0
 51
86.4096221093
  0
ARC
  8
DEFAULT_3
 62
2
  6
PHANTOM
 10
124.7756839324
 20
152.5712428182
 40
3.2
 50
225.0
 51
266.4096221093
  0
ARC
  8
DEFAULT_3
 62
2
  6
PHANTOM
 10
119.227955243
 20
158.1189715076
 40
3.2
 50
183.5903778907
 51
225.0
  0
ARC
  8
DEFAULT_3
 62
2
  6
PHANTOM
 10
112.8405167838
 20
157.7181848673
 40
3.2
 50
3.5903778907
 51
45.0
  0
ARC
  8
DEFAULT_3
 62
2
  6
PHANTOM
 10
108.5978760967
 20
161.9608255545
 40
3.2
 50
45.0
 51
87.7455692247
  0
ARC
  8
0
 62
7
  6
CONTINUOUS
 10
40.5731481021
 20
160.5558719367
 40
1.5
 50
184.7214917702
 51
267.0
  0
ARC
  8
0
 62
7
  6
CONTINUOUS
 10
57.1256334418
 20
114.3811556575
 40
1.5
 50
214.7214917702
 51
297.0
  0
ARC
  8
0
 62
7
  6
CONTINUOUS
 10
49.3256334418
 20
127.8911519565
 40
1.5
 50
123.0
 51
205.2785082298
  0
ARC
  8
0
 62
7
  6
CONTINUOUS
 10
94.5478643813
 20
82.668921017
 40
1.5
 50
244.7214917702
 51
327.0
  0
ARC
  8
0
 62
7
  6
CONTINUOUS
 10
81.0378680823
 20
90.468921017
 40
1.5
 50
153.0
 51
235.2785082298
  0
ARC
  8
0
 62
7
  6
CONTINUOUS
 10
127.2125843615
 20
73.9164356773
 40
1.5
 50
183.0
 51
265.2785082298
  0
ARC
  8
0
 62
7
  6
CONTINUOUS
 10
47.6282712497
 20
156.5403718534
 40
1.0
 50
7.7004361856
 51
54.9838418302
  0
ARC
  8
0
 62
7
  6
CONTINUOUS
 10
65.2432993561
 20
114.4311921502
 40
1.0
 50
37.7004361856
 51
84.9838418302
  0
ARC
  8
0
 62
7
  6
CONTINUOUS
 10
53.4277992727
 20
134.8962386114
 40
1.0
 50
335.0161581698
 51
22.2995638144
  0
ARC
  8
0
 62
7
  6
CONTINUOUS
 10
101.5529510362
 20
86.7710868479
 40
1.0
 50
67.7004361856
 51
114.9838418302
  0
ARC
  8
0
 62
7
  6
CONTINUOUS
 10
81.087904575
 20
98.5865869313
 40
1.0
 50
5.0161581698
 51
52.2995638144
  0
ARC
  8
0
 62
7
  6
CONTINUOUS
 10
123.1970842782
 20
80.9715588249
 40
1.0
 50
35.0161581698
 51
82.2995638144
  0
ARC
  8
0
 62
7
  6
CONTINUOUS
 10
117.0546573615
 20
260.0437407382
 40
8.5
 50
324.9838418302
 51
357.0
  0
ARC
  8
0
 62
7
  6
CONTINUOUS
 10
73.6166289795
 20
238.7809320376
 40
8.5
 50
354.9838418302
 51
27.0
  0
ARC
  8
0
 62
7
  6
CONTINUOUS
 10
104.7206709421
 20
256.7388590376
 40
8.5
 50
213.0
 51
245.0161581698
  0
ARC
  8
0
 62
7
  6
CONTINUOUS
 10
46.6295972606
 20
198.6477853561
 40
8.5
 50
24.9838418302
 51
57.0
  0
ARC
  8
0
 62
7
  6
CONTINUOUS
 10
64.5875242606
 20
229.7518273188
 40
8.5
 50
243.0
 51
275.0161581698
  0
ARC
  8
0
 62
7
  6
CONTINUOUS
 10
43.3247155601
 20
186.3137989367
 40
8.5
 50
273.0
 51
305.0161581698
  0
ARC
  8
DEFAULT_3
 62
2
  6
PHANTOM
 10
108.8496334576
 20
168.3558719367
 40
3.2
 50
92.2544307753
 51
267.7455692247
  0
ARC
  8
DEFAULT_3
 62
2
  6
PHANTOM
 10
108.5978760967
 20
174.750918319
 40
3.2
 50
272.2544307753
 51
315.0
  0
ARC
  8
DEFAULT_3
 62
2
  6
PHANTOM
 10
112.8405167838
 20
178.9935590061
 40
3.2
 50
315.0
 51
356.4096221093
  0
ARC
  8
DEFAULT_3
 62
2
  6
PHANTOM
 10
119.227955243
 20
178.5927723658
 40
3.2
 50
135.0
 51
176.4096221093
  0
ARC
  8
DEFAULT_3
 62
2
  6
PHANTOM
 10
124.7756839324
 20
184.1405010553
 40
3.2
 50
93.5903778907
 51
135.0
  0
ARC
  8
DEFAULT_3
 62
2
  6
PHANTOM
 10
124.3748972922
 20
190.5279395144
 40
3.2
 50
273.5903778907
 51
315.0
  0
ARC
  8
DEFAULT_3
 62
2
  6
PHANTOM
 10
128.6175379793
 20
194.7705802015
 40
3.2
 50
315.0
 51
357.7455692247
  0
ARC
  8
0
 62
7
  6
CONTINUOUS
 10
127.2125843615
 20
262.7953081962
 40
1.5
 50
94.7214917702
 51
177.0
  0
ARC
  8
0
 62
7
  6
CONTINUOUS
 10
81.0378680823
 20
246.2428228565
 40
1.5
 50
124.7214917702
 51
207.0
  0
ARC
  8
0
 62
7
  6
CONTINUOUS
 10
94.5478643813
 20
254.0428228565
 40
1.5
 50
33.0
 51
115.2785082298
  0
ARC
  8
0
 62
7
  6
CONTINUOUS
 10
49.3256334418
 20
208.8205919169
 40
1.5
 50
154.7214917702
 51
237.0
  0
ARC
  8
0
 62
7
  6
CONTINUOUS
 10
57.1256334418
 20
222.330588216
 40
1.5
 50
63.0
 51
145.2785082298
  0
ARC
  8
0
 62
7
  6
CONTINUOUS
 10
40.5731481021
 20
176.1558719367
 40
1.5
 50
93.0
 51
175.2785082298
  0
ARC
  8
0
 62
7
  6
CONTINUOUS
 10
123.1970842782
 20
255.7401850486
 40
1.0
 50
277.7004361856
 51
324.9838418302
  0
ARC
  8
0
 62
7
  6
CONTINUOUS
 10
81.087904575
 20
238.1251569422
 40
1.0
 50
307.7004361856
 51
354.9838418302
  0
ARC
  8
0
 62
7
  6
CONTINUOUS
 10
101.5529510362
 20
249.9406570255
 40
1.0
 50
245.0161581698
 51
292.2995638144
  0
ARC
  8
0
 62
7
  6
CONTINUOUS
 10
53.4277992727
 20
201.8155052621
 40
1.0
 50
337.7004361856
 51
24.9838418302
  0
ARC
  8
0
 62
7
  6
CONTINUOUS
 10
65.2432993561
 20
222.2805517232
 40
1.0
 50
275.0161581698
 51
322.2995638144
  0
ARC
  8
0
 62
7
  6
CONTINUOUS
 10
47.6282712497
 20
180.1713720201
 40
1.0
 50
305.0161581698
 51
352.2995638144
  0
ARC
  8
0
 62
7
  6
CONTINUOUS
 10
152.9705113615
 20
76.6680031353
 40
8.5
 50
144.9838418302
 51
177.0
  0
ARC
  8
0
 62
7
  6
CONTINUOUS
 10
196.4085397436
 20
97.9308118358
 40
8.5
 50
174.9838418302
 51
207.0
  0
ARC
  8
0
 62
7
  6
CONTINUOUS
 10
165.304497781
 20
79.9728848358
 40
8.5
 50
33.0
 51
65.0161581698
  0
ARC
  8
0
 62
7
  6
CONTINUOUS
 10
223.3955714624
 20
138.0639585173
 40
8.5
 50
204.9838418302
 51
237.0
  0
ARC
  8
0
 62
7
  6
CONTINUOUS
 10
205.4376444624
 20
106.9599165547
 40
8.5
 50
63.0
 51
95.0161581698
  0
ARC
  8
0
 62
7
  6
CONTINUOUS
 10
226.700453163
 20
150.3979449367
 40
8.5
 50
93.0
 51
125.0161581698
  0
ARC
  8
DEFAULT_3
 62
2
  6
PHANTOM
 10
161.4272926263
 20
161.9608255545
 40
3.2
 50
92.2544307753
 51
135.0
  0
ARC
  8
DEFAULT_3
 62
2
  6
PHANTOM
 10
157.1846519392
 20
157.7181848673
 40
3.2
 50
135.0
 51
176.4096221093
  0
ARC
  8
DEFAULT_3
 62
2
  6
PHANTOM
 10
150.7972134801
 20
158.1189715076
 40
3.2
 50
315.0
 51
356.4096221093
  0
ARC
  8
DEFAULT_3
 62
2
  6
PHANTOM
 10
145.2494847906
 20
152.5712428182
 40
3.2
 50
273.5903778907
 51
315.0
  0
ARC
  8
DEFAULT_3
 62
2
  6
PHANTOM
 10
145.6502714309
 20
146.183804359
 40
3.2
 50
93.5903778907
 51
135.0
  0
ARC
  8
DEFAULT_3
 62
2
  6
PHANTOM
 10
141.4076307438
 20
141.9411636719
 40
3.2
 50
135.0
 51
177.7455692247
  0
ARC
  8
DEFAULT_3
 62
2
  6
PHANTOM
 10
135.0125843615
 20
142.1929210328
 40
3.2
 50
182.2544307753
 51
357.7455692247
  0
ARC
  8
0
 62
7
  6
CONTINUOUS
 10
142.8125843615
 20
73.9164356773
 40
1.5
 50
274.7214917702
 51
357.0
  0
ARC
  8
0
 62
7
  6
CONTINUOUS
 10
188.9873006408
 20
90.468921017
 40
1.5
 50
304.7214917702
 51
27.0
  0
ARC
  8
0
 62
7
  6
CONTINUOUS
 10
175.4773043417
 20
82.668921017
 40
1.5
 50
213.0
 51
295.2785082298
  0
ARC
  8
0
 62
7
  6
CONTINUOUS
 10
220.6995352813
 20
127.8911519565
 40
1.5
 50
334.7214917702
 51
57.0
  0
ARC
  8
0
 62
7
  6
CONTINUOUS
 10
212.8995352813
 20
114.3811556575
 40
1.5
 50
243.0
 51
325.2785082298
  0
ARC
  8
0
 62
7
  6
CONTINUOUS
 10
229.452020621
 20
160.5558719367
 40
1.5
 50
273.0
 51
355.2785082298
  0
ARC
  8
0
 62
7
  6
CONTINUOUS
 10
146.8280844449
 20
80.9715588249
 40
1.0
 50
97.7004361856
 51
144.9838418302
  0
ARC
  8
0
 62
7
  6
CONTINUOUS
 10
188.937264148
 20
98.5865869313
 40
1.0
 50
127.7004361856
 51
174.9838418302
  0
ARC
  8
0
 62
7
  6
CONTINUOUS
 10
168.4722176869
 20
86.7710868479
 40
1.0
 50
65.0161581698
 51
112.2995638144
  0
ARC
  8
0
 62
7
  6
CONTINUOUS
 10
216.5973694503
 20
134.8962386114
 40
1.0
 50
157.7004361856
 51
204.9838418302
  0
ARC
  8
0
 62
7
  6
CONTINUOUS
 10
204.781869367
 20
114.4311921502
 40
1.0
 50
95.0161581698
 51
142.2995638144
  0
ARC
  8
0
 62
7
  6
CONTINUOUS
 10
222.3968974734
 20
156.5403718534
 40
1.0
 50
125.0161581698
 51
172.2995638144
  0
ARC
  8
0
 62
7
  6
CONTINUOUS
 10
135.0125843615
 20
168.3558719367
 40
96.261
 50
55.2785082298
 51
64.7214917702
  0
ARC
  8
0
 62
7
  6
CONTINUOUS
 10
135.0125843615
 20
168.3558719367
 40
96.261
 50
25.2785082298
 51
34.7214917702
  0
ARC
  8
0
 62
7
  6
CONTINUOUS
 10
135.0125843615
 20
168.3558719367
 40
96.261
 50
355.2785082298
 51
4.7214917702
  0
ARC
  8
0
 62
7
  6
CONTINUOUS
 10
135.0125843615
 20
168.3558719367
 40
96.261
 50
325.2785082298
 51
334.7214917702
  0
ARC
  8
0
 62
7
  6
CONTINUOUS
 10
135.0125843615
 20
168.3558719367
 40
96.261
 50
295.2785082298
 51
304.7214917702
  0
ARC
  8
0
 62
7
  6
CONTINUOUS
 10
135.0125843615
 20
168.3558719367
 40
96.261
 50
265.2785082298
 51
274.7214917702
  0
ARC
  8
0
 62
7
  6
CONTINUOUS
 10
135.0125843615
 20
168.3558719367
 40
96.261
 50
85.2785082298
 51
94.7214917702
  0
ARC
  8
0
 62
7
  6
CONTINUOUS
 10
135.0125843615
 20
168.3558719367
 40
96.261
 50
115.2785082298
 51
124.7214917702
  0
ARC
  8
0
 62
7
  6
CONTINUOUS
 10
135.0125843615
 20
168.3558719367
 40
96.261
 50
145.2785082298
 51
154.7214917702
  0
ARC
  8
0
 62
7
  6
CONTINUOUS
 10
135.0125843615
 20
168.3558719367
 40
96.261
 50
175.2785082298
 51
184.7214917702
  0
ARC
  8
0
 62
7
  6
CONTINUOUS
 10
135.0125843615
 20
168.3558719367
 40
96.261
 50
205.2785082298
 51
214.7214917702
  0
ARC
  8
0
 62
7
  6
CONTINUOUS
 10
135.0125843615
 20
168.3558719367
 40
96.261
 50
235.2785082298
 51
244.7214917702
  0
ARC
  8
0
 62
7
  6
CONTINUOUS
 10
135.0125843615
 20
168.3558719367
 40
87.1795
 50
97.7004361856
 51
112.2995638144
  0
ARC
  8
0
 62
7
  6
CONTINUOUS
 10
135.0125843615
 20
168.3558719367
 40
87.1795
 50
67.7004361856
 51
82.2995638144
  0
ARC
  8
0
 62
7
  6
CONTINUOUS
 10
135.0125843615
 20
168.3558719367
 40
87.1795
 50
127.7004361856
 51
142.2995638144
  0
ARC
  8
0
 62
7
  6
CONTINUOUS
 10
135.0125843615
 20
168.3558719367
 40
87.1795
 50
157.7004361856
 51
172.2995638144
  0
ARC
  8
0
 62
7
  6
CONTINUOUS
 10
135.0125843615
 20
168.3558719367
 40
87.1795
 50
187.7004361856
 51
202.2995638144
  0
ARC
  8
0
 62
7
  6
CONTINUOUS
 10
135.0125843615
 20
168.3558719367
 40
87.1795
 50
217.7004361856
 51
232.2995638144
  0
ARC
  8
0
 62
7
  6
CONTINUOUS
 10
135.0125843615
 20
168.3558719367
 40
87.1795
 50
247.7004361856
 51
262.2995638144
  0
ARC
  8
0
 62
7
  6
CONTINUOUS
 10
135.0125843615
 20
168.3558719367
 40
87.1795
 50
277.7004361856
 51
292.2995638144
  0
ARC
  8
0
 62
7
  6
CONTINUOUS
 10
135.0125843615
 20
168.3558719367
 40
87.1795
 50
307.7004361856
 51
322.2995638144
  0
ARC
  8
0
 62
7
  6
CONTINUOUS
 10
135.0125843615
 20
168.3558719367
 40
87.1795
 50
337.7004361856
 51
352.2995638144
  0
ARC
  8
0
 62
7
  6
CONTINUOUS
 10
135.0125843615
 20
168.3558719367
 40
87.1795
 50
7.7004361856
 51
22.2995638144
  0
ARC
  8
0
 62
7
  6
CONTINUOUS
 10
135.0125843615
 20
168.3558719367
 40
87.1795
 50
37.7004361856
 51
52.2995638144
  0
CIRCLE
  8
AXES
 62
7
  6
CONTINUOUS
 10
135.0125843615
 20
168.3558719367
 40
35.0
  0
CIRCLE
  8
DEFAULT_3
 62
2
  6
PHANTOM
 10
135.0125843615
 20
168.3558719367
 40
9.0
  0
ARC
  8
DEFAULT_3
 62
2
  6
PHANTOM
 10
135.0125843615
 20
194.5188228406
 40
3.2
 50
2.2544307753
 51
177.7455692247
  0
ARC
  8
DEFAULT_3
 62
2
  6
PHANTOM
 10
141.4076307438
 20
194.7705802015
 40
3.2
 50
182.2544307753
 51
225.0
  0
ARC
  8
DEFAULT_3
 62
2
  6
PHANTOM
 10
145.6502714309
 20
190.5279395144
 40
3.2
 50
225.0
 51
266.4096221093
  0
ARC
  8
DEFAULT_3
 62
2
  6
PHANTOM
 10
145.2494847906
 20
184.1405010553
 40
3.2
 50
45.0
 51
86.4096221093
  0
ARC
  8
DEFAULT_3
 62
2
  6
PHANTOM
 10
161.4272926263
 20
174.750918319
 40
3.2
 50
225.0
 51
267.7455692247
  0
ARC
  8
DEFAULT_3
 62
2
  6
PHANTOM
 10
161.1755352654
 20
168.3558719367
 40
3.2
 50
272.2544307753
 51
87.7455692247
  0
ARC
  8
DEFAULT_3
 62
2
  6
PHANTOM
 10
150.7972134801
 20
178.5927723658
 40
3.2
 50
3.5903778907
 51
45.0
  0
ARC
  8
DEFAULT_3
 62
2
  6
PHANTOM
 10
157.1846519392
 20
178.9935590061
 40
3.2
 50
183.5903778907
 51
225.0
  0
ARC
  8
0
 62
7
  6
CONTINUOUS
 10
152.9705113615
 20
260.0437407382
 40
8.5
 50
183.0
 51
215.0161581698
  0
ARC
  8
0
 62
7
  6
CONTINUOUS
 10
165.304497781
 20
256.7388590376
 40
8.5
 50
294.9838418302
 51
327.0
  0
CIRCLE
  8
0
 62
7
  6
CONTINUOUS
 10
135.0125843615
 20
253.3558719367
 40
1.7320508076
  0
ARC
  8
0
 62
7
  6
CONTINUOUS
 10
142.8125843615
 20
262.7953081962
 40
1.5
 50
3.0
 51
85.2785082298
  0
ARC
  8
0
 62
7
  6
CONTINUOUS
 10
175.4773043417
 20
254.0428228565
 40
1.5
 50
64.7214917702
 51
147.0
  0
ARC
  8
0
 62
7
  6
CONTINUOUS
 10
146.8280844449
 20
255.7401850486
 40
1.0
 50
215.0161581698
 51
262.2995638144
  0
ARC
  8
0
 62
7
  6
CONTINUOUS
 10
168.4722176869
 20
249.9406570255
 40
1.0
 50
247.7004361856
 51
294.9838418302
  0
ARC
  8
0
 62
7
  6
CONTINUOUS
 10
223.3955714624
 20
198.6477853561
 40
8.5
 50
123.0
 51
155.0161581698
  0
ARC
  8
0
 62
7
  6
CONTINUOUS
 10
226.700453163
 20
186.3137989367
 40
8.5
 50
234.9838418302
 51
267.0
  0
ARC
  8
0
 62
7
  6
CONTINUOUS
 10
220.6995352813
 20
208.8205919169
 40
1.5
 50
303.0
 51
25.2785082298
  0
ARC
  8
0
 62
7
  6
CONTINUOUS
 10
229.452020621
 20
176.1558719367
 40
1.5
 50
4.7214917702
 51
87.0
  0
ARC
  8
0
 62
7
  6
CONTINUOUS
 10
216.5973694503
 20
201.8155052621
 40
1.0
 50
155.0161581698
 51
202.2995638144
  0
ARC
  8
0
 62
7
  6
CONTINUOUS
 10
222.3968974734
 20
180.1713720201
 40
1.0
 50
187.7004361856
 51
234.9838418302
  0
ARC
  8
0
 62
7
  6
CONTINUOUS
 10
196.4085397436
 20
238.7809320376
 40
8.5
 50
153.0
 51
185.0161581698
  0
ARC
  8
0
 62
7
  6
CONTINUOUS
 10
205.4376444624
 20
229.7518273188
 40
8.5
 50
264.9838418302
 51
297.0
  0
ARC
  8
0
 62
7
  6
CONTINUOUS
 10
188.9873006408
 20
246.2428228565
 40
1.5
 50
333.0
 51
55.2785082298
  0
ARC
  8
0
 62
7
  6
CONTINUOUS
 10
212.8995352813
 20
222.330588216
 40
1.5
 50
34.7214917702
 51
117.0
  0
ARC
  8
0
 62
7
  6
CONTINUOUS
 10
188.937264148
 20
238.1251569422
 40
1.0
 50
185.0161581698
 51
232.2995638144
  0
ARC
  8
0
 62
7
  6
CONTINUOUS
 10
204.781869367
 20
222.2805517232
 40
1.0
 50
217.7004361856
 51
264.9838418302
  0
ARC
  8
0
 62
7
  6
CONTINUOUS
 10
341.4609899329
 20
128.3558719367
 40
5.0
 50
90.0
 51
179.9999999998
  0
ARC
  8
0
 62
7
  6
CONTINUOUS
 10
341.4609899329
 20
208.3558719367
 40
5.0
 50
180.0000000002
 51
270.0
  0
ARC
  8
0
 62
7
  6
CONTINUOUS
 10
324.4609899329
 20
128.3558719367
 40
5.0
 50
0.0
 51
90.0
  0
ARC
  8
0
 62
7
  6
CONTINUOUS
 10
324.4609899329
 20
208.3558719367
 40
5.0
 50
270.0
 51
360.0
  0
ARC
  8
AXES
 62
7
  6
CONTINUOUS
 10
334.4609899329
 20
260.6168719367
 40
5.0
 50
175.0
 51
180.0
  0
ARC
  8
AXES
 62
7
  6
CONTINUOUS
 10
331.4609899329
 20
76.0948719367
 40
5.0
 50
355.0
 51
360.0
  0
ARC
  8
AXES
 62
7
  6
CONTINUOUS
 10
313.8109899329
 20
135.3558719367
 40
2.0
 50
180.0
 51
270.0
  0
ARC
  8
AXES
 62
7
  6
CONTINUOUS
 10
352.1109899329
 20
135.3558719367
 40
2.0
 50
270.0
 51
360.0
  0
ARC
  8
AXES
 62
7
  6
CONTINUOUS
 10
313.8109899329
 20
201.3558719367
 40
2.0
 50
90.0
 51
180.0
  0
ARC
  8
AXES
 62
7
  6
CONTINUOUS
 10
352.1109899329
 20
201.3558719367
 40
2.0
 50
0.0
 51
90.0
  0
ARC
  8
0
 62
7
  6
CONTINUOUS
 10
330.7081765733
 20
263.6168719367
 40
1.0
 50
90.0
 51
175.0000061956
  0
ARC
  8
0
 62
7
  6
CONTINUOUS
 10
330.7081765733
 20
73.0948719367
 40
1.0
 50
184.9999994656
 51
270.0
  0
ARC
  8
0
 62
7
  6
CONTINUOUS
 10
335.2138032925
 20
73.0948719367
 40
1.0
 50
270.0
 51
355.0000005344
  0
ARC
  8
0
 62
7
  6
CONTINUOUS
 10
335.2138032925
 20
263.6168719367
 40
1.0
 50
4.9999938044
 51
90.0
  0
ENDSEC
  0
EOF
