  0
SECTION
  2
HEADER
  9
$EXTMAX
 10
210.0
 20
297.0
 30
0.0
  9
$EXTMIN
 10
0.0
 20
0.0
 30
0.0
  9
$LIMMIN
 10
0.0
 20
0.0
  9
$LIMMAX
 10
210.0
 20
297.0
  9
$VIEWCTR
 10
105.0
 20
148.5
  9
$VIEWSIZE
 40
297.0
  9
$CLAYER
  8
0
  9
$LTSCALE
 40
19.36
  9
$CELTYPE
  6
BYLAYER
  9
$DIMSCALE
 40
1.0
  9
$DIMASZ
 40
3.5
  9
$DIMEXO
 40
1.0
  9
$DIMDLI
 40
13.376
  9
$DIMEXE
 40
2.0
  9
$DIMCEN
 40
3.168
  9
$DIMLFAC
 40
1.0
  9
$DIMBLK
  1
_FILLED
  9
$DIMALT
 70
0
  9
$DIMALTF
 40
0.0393700787
  9
$DIMTXT
 40
3.5
  9
$AUNITS
 70
0
  9
$PDMODE
 70
3
  9
$PDSIZE
 40
0.3125
  9
$TILEMODE
 70
1
  0
ENDSEC
  0
SECTION
  2
TABLES
  0
TABLE
  2
LTYPE
 70
6
  0
LTYPE
  2
BYBLOCK
 70
0
  3

 72
65
 73
0
 40
0.0
  0
LTYPE
  2
BYLAYER
 70
0
  3

 72
65
 73
0
 40
0.0
  0
LTYPE
  2
CONTINUOUS
 70
64
  3
Solid line
 72
65
 73
0
 40
0.0
  0
LTYPE
  2
CENTER
 70
64
  3
____ _ ____ _ ____ _ ____ _ ____ _ ____ _ ____
 72
65
 73
4
 40
0.6
 49
0.375
 49
-0.075
 49
0.075
 49
-0.075
  0
LTYPE
  2
HIDDEN
 70
64
  3
- - - - - - - - - - - - - - - - - - - -
 72
65
 73
2
 40
0.2
 49
0.1
 49
-0.1
  0
LTYPE
  2
PHANTOM
 70
64
  3
_____ _ _ _____ _ _ _____ _ _ _____
 72
65
 73
6
 40
0.8
 49
0.45
 49
-0.05
 49
0.1
 49
-0.05
 49
0.1
 49
-0.05
  0
LTYPE
  2
DOT
 70
64
  3
. . . . . . . . . . . . . . . . . . . .
 72
65
 73
2
 40
0.2
 49
0.1
 49
-0.1
  0
LTYPE
  2
DASHED
 70
64
  3
- - - - - - - - - - - - - - - - - - - -
 72
65
 73
2
 40
0.2
 49
0.1
 49
-0.1
  0
ENDTAB
  0
TABLE
  2
LAYER
 70
36
  0
LAYER
  2
0
 70
0
 62
7
  6
CONTINUOUS
  0
LAYER
  2
DEFAULT_1
 70
0
 62
7
  6
CENTER
  0
LAYER
  2
DEFAULT_2
 70
0
 62
8
  6
HIDDEN
  0
LAYER
  2
DEFAULT_3
 70
0
 62
7
  6
PHANTOM
  0
LAYER
  2
AXES
 70
0
 62
7
  6
CONTINUOUS
  0
LAYER
  2
CSYS
 70
0
 62
7
  6
CONTINUOUS
  0
LAYER
  2
PLANES
 70
0
 62
7
  6
CONTINUOUS
  0
LAYER
  2
QUILTS
 70
0
 62
7
  6
CONTINUOUS
  0
ENDTAB
  0
TABLE
  2
STYLE
 70
1
  0
STYLE
  2
STANDARD
 70
0
 40
0.0
 41
0.8
 50
0.0
 71
0
 42
0.2
  3
txt
  4

  0
STYLE
  2
TEXTSTYLE_1
 70
0
 40
0.0
 41
0.8
 50
0.0
 71
0
 42
0.2
  3
gdt
  4

  0
STYLE
  2
TEXTSTYLE_2
 70
0
 40
0.0
 41
0.6
 50
0.0
 71
0
 42
0.2
  3
txt
  4

  0
STYLE
  2
TEXTSTYLE_3
 70
0
 40
0.0
 41
1.0
 50
0.0
 71
0
 42
0.2
  3
ftb_____.ttf
  4

  0
STYLE
  2
TEXTSTYLE_4
 70
0
 40
0.0
 41
1.0
 50
0.0
 71
0
 42
0.2
  3
fti_____.ttf
  4

  0
STYLE
  2
TEXTSTYLE_5
 70
0
 40
0.0
 41
1.0
 50
0.0
 71
0
 42
0.2
  3
frutiger light.ttf
  4

  0
STYLE
  2
TEXTSTYLE_6
 70
0
 40
0.0
 41
0.7
 50
0.0
 71
0
 42
0.2
  3
txt
  4

  0
STYLE
  2
TEXTSTYLE_7
 70
0
 40
0.0
 41
0.8
 50
0.0
 71
0
 42
0.2
  3
txt
  4

  0
ENDTAB
  0
ENDSEC
  0
SECTION
  2
BLOCKS
  0
BLOCK
  8
0
 62
2
  6
CONTINUOUS
  2
UNI_LOGO2_BL1
 70
64
 10
173.5956734183
 20
35.5937998301
  0
TEXT
  8
0
 62
7
  6
CONTINUOUS
 10
164.6539584268
 20
30.6865562072
  7
TEXTSTYLE_4
 40
1.0655737705
  1
The brand for plastic modular belts and chains
 41
1.0
 72
0
  0
LINE
  8
0
 62
7
  6
CONTINUOUS
 10
149.5737418074
 20
36.1675703219
 11
149.5737418074
 21
34.0364227809
  0
LINE
  8
0
 62
7
  6
CONTINUOUS
 10
149.8628043005
 20
31.0454914852
 11
149.8628043005
 21
31.1422825445
  0
LINE
  8
0
 62
7
  6
CONTINUOUS
 10
149.5737418074
 20
31.1100188581
 11
149.6315543091
 21
30.9164367395
  0
LINE
  8
0
 62
7
  6
CONTINUOUS
 10
150.9671844304
 20
33.9544555678
 11
150.9671844304
 21
36.1675703219
  0
LINE
  8
0
 62
7
  6
CONTINUOUS
 10
151.8862417523
 20
32.1101932727
 11
151.8862417523
 21
30.5937998301
  0
LINE
  8
0
 62
7
  6
CONTINUOUS
 10
152.1753043074
 20
30.5937998301
 11
152.1753043074
 21
31.3358647082
  0
LINE
  8
0
 62
7
  6
CONTINUOUS
 10
152.1753043074
 20
31.4649194539
 11
152.1753043074
 21
32.1101932727
  0
LINE
  8
0
 62
7
  6
CONTINUOUS
 10
149.6315543091
 20
31.3036010218
 11
149.5737418074
 21
31.1100188581
  0
LINE
  8
0
 62
7
  6
CONTINUOUS
 10
149.9784292936
 20
30.8841730531
 11
149.8628043005
 21
31.0454914852
  0
LINE
  8
0
 62
7
  6
CONTINUOUS
 10
151.0768668626
 20
31.400392081
 11
151.1346793074
 21
31.3036010218
  0
LINE
  8
0
 62
7
  6
CONTINUOUS
 10
151.4237418626
 20
31.3036010218
 11
151.3659292523
 21
31.4326557675
  0
LINE
  8
0
 62
7
  6
CONTINUOUS
 10
152.852430332
 20
36.1675703219
 11
152.852430332
 21
34.3642916334
  0
LINE
  8
0
 62
7
  6
CONTINUOUS
 10
152.852430332
 20
33.0528162235
 11
152.852430332
 21
32.3970785186
  0
LINE
  8
0
 62
7
  6
CONTINUOUS
 10
153.2159293074
 20
31.2390736489
 11
153.2159293074
 21
30.5937998301
  0
LINE
  8
0
 62
7
  6
CONTINUOUS
 10
153.5049916972
 20
30.5937998301
 11
153.5049916972
 21
31.2390736489
  0
LINE
  8
0
 62
7
  6
CONTINUOUS
 10
149.8628043005
 20
31.1422825445
 11
149.9206168074
 21
31.2713373354
  0
LINE
  8
0
 62
7
  6
CONTINUOUS
 10
149.6315543091
 20
30.9164367395
 11
149.7471793074
 21
30.7873819712
  0
LINE
  8
0
 62
7
  6
CONTINUOUS
 10
153.1581166972
 20
31.3681283946
 11
153.2159293074
 21
31.2390736489
  0
LINE
  8
0
 62
7
  6
CONTINUOUS
 10
153.9674919177
 20
30.8841730531
 11
154.0253041972
 21
30.7551182848
  0
LINE
  8
0
 62
7
  6
CONTINUOUS
 10
153.5049916972
 20
31.2390736489
 11
153.4471794177
 21
31.400392081
  0
LINE
  8
0
 62
7
  6
CONTINUOUS
 10
153.9674919177
 20
31.4326557675
 11
153.9674919177
 21
31.3681283946
  0
LINE
  8
0
 62
7
  6
CONTINUOUS
 10
153.9674919177
 20
30.9809641124
 11
153.9674919177
 21
30.8841730531
  0
LINE
  8
0
 62
7
  6
CONTINUOUS
 10
154.245872955
 20
32.3970785186
 11
154.245872955
 21
36.1675703219
  0
LINE
  8
0
 62
7
  6
CONTINUOUS
 10
154.2565543074
 20
30.8519093441
 11
154.2565543074
 21
30.9164367395
  0
LINE
  8
0
 62
7
  6
CONTINUOUS
 10
154.5737418074
 20
36.1675703219
 11
154.5737418074
 21
32.3970785186
  0
LINE
  8
0
 62
7
  6
CONTINUOUS
 10
151.3659292523
 20
30.7873819712
 11
151.4237418626
 21
30.9164367395
  0
LINE
  8
0
 62
7
  6
CONTINUOUS
 10
155.759679528
 20
30.6905909007
 11
155.7018665869
 21
30.8519093441
  0
LINE
  8
0
 62
7
  6
CONTINUOUS
 10
155.412804528
 20
31.3681283946
 11
155.412804528
 21
31.2713373354
  0
LINE
  8
0
 62
7
  6
CONTINUOUS
 10
155.412804528
 20
31.1422825445
 11
155.412804528
 21
30.9487004259
  0
LINE
  8
0
 62
7
  6
CONTINUOUS
 10
155.7018665869
 20
30.8519093441
 11
155.7018665869
 21
31.3681283946
  0
LINE
  8
0
 62
7
  6
CONTINUOUS
 10
155.9671844304
 20
32.3970785186
 11
155.9671844304
 21
34.2003572071
  0
LINE
  8
0
 62
7
  6
CONTINUOUS
 10
155.9671844304
 20
35.511832617
 11
155.9671844304
 21
36.1675703219
  0
LINE
  8
0
 62
7
  6
CONTINUOUS
 10
156.279992028
 20
32.1101932727
 11
156.279992028
 21
31.9488748406
  0
LINE
  8
0
 62
7
  6
CONTINUOUS
 10
156.279992028
 20
31.626237886
 11
156.279992028
 21
30.5937998301
  0
LINE
  8
0
 62
7
  6
CONTINUOUS
 10
156.5690540869
 20
30.5937998301
 11
156.5690540869
 21
31.626237886
  0
LINE
  8
0
 62
7
  6
CONTINUOUS
 10
156.5690540869
 20
31.9488748406
 11
156.5690540869
 21
32.1101932727
  0
LINE
  8
0
 62
7
  6
CONTINUOUS
 10
151.1346793074
 20
30.9164367395
 11
151.0768668626
 21
30.8196456577
  0
LINE
  8
0
 62
7
  6
CONTINUOUS
 10
153.4471794177
 20
31.400392081
 11
153.3893668074
 21
31.4649194539
  0
LINE
  8
0
 62
7
  6
CONTINUOUS
 10
154.3143669177
 20
30.7873819712
 11
154.2565543074
 21
30.8519093441
  0
LINE
  8
0
 62
7
  6
CONTINUOUS
 10
155.4706168074
 20
30.6583272086
 11
155.5284290869
 21
30.5937998301
  0
LINE
  8
0
 62
7
  6
CONTINUOUS
 10
155.412804528
 20
30.7551182848
 11
155.4706168074
 21
30.6583272086
  0
LINE
  8
0
 62
7
  6
CONTINUOUS
 10
155.8174918074
 20
30.5937998301
 11
155.759679528
 21
30.6905909007
  0
LINE
  8
0
 62
7
  6
CONTINUOUS
 10
155.7018665869
 20
31.3681283946
 11
155.6440543074
 21
31.4649194539
  0
LINE
  8
0
 62
7
  6
CONTINUOUS
 10
157.0315543074
 20
31.626237886
 11
157.0315543074
 21
30.5937998301
  0
LINE
  8
0
 62
7
  6
CONTINUOUS
 10
157.320617028
 20
30.5937998301
 11
157.320617028
 21
31.3358647082
  0
LINE
  8
0
 62
7
  6
CONTINUOUS
 10
157.320617028
 20
31.4649194539
 11
157.320617028
 21
31.626237886
  0
LINE
  8
0
 62
7
  6
CONTINUOUS
 10
157.852430332
 20
34.6101932727
 11
157.852430332
 21
32.3970785186
  0
LINE
  8
0
 62
7
  6
CONTINUOUS
 10
149.7471793074
 20
31.4326557675
 11
149.6315543091
 21
31.3036010218
  0
LINE
  8
0
 62
7
  6
CONTINUOUS
 10
149.9206168074
 20
31.2713373354
 11
149.9784292936
 21
31.3358647082
  0
LINE
  8
0
 62
7
  6
CONTINUOUS
 10
149.7471793074
 20
30.7873819712
 11
149.8628043005
 21
30.7228545871
  0
LINE
  8
0
 62
7
  6
CONTINUOUS
 10
150.1518667936
 20
30.7873819712
 11
149.9784292936
 21
30.8841730531
  0
LINE
  8
0
 62
7
  6
CONTINUOUS
 10
155.3549915869
 20
31.4326557675
 11
155.412804528
 21
31.3681283946
  0
LINE
  8
0
 62
7
  6
CONTINUOUS
 10
158.3034290869
 20
31.3681283946
 11
158.361242028
 21
31.2068099625
  0
LINE
  8
0
 62
7
  6
CONTINUOUS
 10
158.6503040869
 20
31.2068099625
 11
158.5924918074
 21
31.3681283946
  0
LINE
  8
0
 62
7
  6
CONTINUOUS
 10
158.361242028
 20
31.2068099625
 11
158.361242028
 21
30.5937998301
  0
LINE
  8
0
 62
7
  6
CONTINUOUS
 10
158.6503040869
 20
30.5937998301
 11
158.6503040869
 21
31.2068099625
  0
LINE
  8
0
 62
7
  6
CONTINUOUS
 10
159.1128043074
 20
31.4326557675
 11
159.1128043074
 21
31.3681283946
  0
LINE
  8
0
 62
7
  6
CONTINUOUS
 10
159.245872955
 20
32.3970785186
 11
159.245872955
 21
34.5282260596
  0
LINE
  8
0
 62
7
  6
CONTINUOUS
 10
159.5737418074
 20
36.1675703219
 11
159.5737418074
 21
32.3970785186
  0
LINE
  8
0
 62
7
  6
CONTINUOUS
 10
154.2565543074
 20
30.9164367395
 11
154.3143669177
 21
31.0132277988
  0
LINE
  8
0
 62
7
  6
CONTINUOUS
 10
149.8628043005
 20
30.7228545871
 11
150.0362418212
 21
30.6583272086
  0
LINE
  8
0
 62
7
  6
CONTINUOUS
 10
151.3659292523
 20
31.4326557675
 11
151.1924917523
 21
31.5294468267
  0
LINE
  8
0
 62
7
  6
CONTINUOUS
 10
154.0253041972
 20
30.7551182848
 11
154.1987416972
 21
30.6583272086
  0
LINE
  8
0
 62
7
  6
CONTINUOUS
 10
153.0424918074
 20
31.4326557675
 11
153.1581166972
 21
31.3681283946
  0
LINE
  8
0
 62
7
  6
CONTINUOUS
 10
153.3893668074
 20
31.4649194539
 11
153.2737419177
 21
31.5294468267
  0
LINE
  8
0
 62
7
  6
CONTINUOUS
 10
159.1128043074
 20
30.8519093441
 11
159.228429528
 21
30.7228545871
  0
LINE
  8
0
 62
7
  6
CONTINUOUS
 10
159.4596793074
 20
30.7873819712
 11
159.401867028
 21
30.8519093441
  0
LINE
  8
0
 62
7
  6
CONTINUOUS
 10
159.1128043074
 20
31.3681283946
 11
159.228429528
 21
31.2390736489
  0
LINE
  8
0
 62
7
  6
CONTINUOUS
 10
158.5924918074
 20
31.3681283946
 11
158.534679528
 21
31.4649194539
  0
LINE
  8
0
 62
7
  6
CONTINUOUS
 10
160.9628038663
 20
30.7873819712
 11
160.9628038663
 21
30.8519093441
  0
LINE
  8
0
 62
7
  6
CONTINUOUS
 10
160.9671844304
 20
32.3970785186
 11
160.9671844304
 21
36.1675703219
  0
LINE
  8
0
 62
7
  6
CONTINUOUS
 10
154.0253041972
 20
31.4971831403
 11
153.9674919177
 21
31.4326557675
  0
LINE
  8
0
 62
7
  6
CONTINUOUS
 10
150.9034292799
 20
31.4649194539
 11
151.0768668626
 21
31.400392081
  0
LINE
  8
0
 62
7
  6
CONTINUOUS
 10
155.6440543074
 20
31.4649194539
 11
155.5284290869
 21
31.5294468267
  0
LINE
  8
0
 62
7
  6
CONTINUOUS
 10
159.4596793074
 20
31.3036010218
 11
159.401867028
 21
31.3681283946
  0
LINE
  8
0
 62
7
  6
CONTINUOUS
 10
160.615929528
 20
30.9164367395
 11
160.6737418074
 21
30.8519093441
  0
LINE
  8
0
 62
7
  6
CONTINUOUS
 10
160.9628038663
 20
30.8519093441
 11
160.8471793074
 21
30.9809641124
  0
LINE
  8
0
 62
7
  6
CONTINUOUS
 10
160.615929528
 20
31.4326557675
 11
160.6737418074
 21
31.3681283946
  0
LINE
  8
0
 62
7
  6
CONTINUOUS
 10
160.9628038663
 20
31.3681283946
 11
160.8471793074
 21
31.4971831403
  0
LINE
  8
0
 62
7
  6
CONTINUOUS
 10
154.2565543074
 20
31.3681283946
 11
154.3143669177
 21
31.4326557675
  0
LINE
  8
0
 62
7
  6
CONTINUOUS
 10
154.0831168074
 20
31.1100188581
 11
153.9674919177
 21
30.9809641124
  0
LINE
  8
0
 62
7
  6
CONTINUOUS
 10
155.412804528
 20
30.9487004259
 11
155.3549915869
 21
30.8841730531
  0
LINE
  8
0
 62
7
  6
CONTINUOUS
 10
155.3549915869
 20
30.6905909007
 11
155.412804528
 21
30.7551182848
  0
LINE
  8
0
 62
7
  6
CONTINUOUS
 10
154.1987416972
 20
30.6583272086
 11
154.3143669177
 21
30.6260635193
  0
LINE
  8
0
 62
7
  6
CONTINUOUS
 10
151.1924917523
 20
31.5294468267
 11
150.9612418074
 21
31.5939741996
  0
LINE
  8
0
 62
7
  6
CONTINUOUS
 10
154.5456166972
 20
30.7228545871
 11
154.3143669177
 21
30.7873819712
  0
LINE
  8
0
 62
7
  6
CONTINUOUS
 10
153.2737419177
 20
31.5294468267
 11
153.1003044177
 21
31.5939741996
  0
LINE
  8
0
 62
7
  6
CONTINUOUS
 10
155.5284290869
 20
31.5294468267
 11
155.3549915869
 21
31.5939741996
  0
LINE
  8
0
 62
7
  6
CONTINUOUS
 10
158.187804528
 20
31.4326557675
 11
158.3034290869
 21
31.3681283946
  0
LINE
  8
0
 62
7
  6
CONTINUOUS
 10
158.534679528
 20
31.4649194539
 11
158.4190543074
 21
31.5294468267
  0
LINE
  8
0
 62
7
  6
CONTINUOUS
 10
150.0362418212
 20
30.6583272086
 11
150.2096793212
 21
30.6260635193
  0
LINE
  8
0
 62
7
  6
CONTINUOUS
 10
150.498741835
 20
30.7228545871
 11
150.1518667936
 21
30.7873819712
  0
LINE
  8
0
 62
7
  6
CONTINUOUS
 10
152.9268669177
 20
31.4649194539
 11
153.0424918074
 21
31.4326557675
  0
LINE
  8
0
 62
7
  6
CONTINUOUS
 10
155.239367028
 20
31.4649194539
 11
155.3549915869
 21
31.4326557675
  0
LINE
  8
0
 62
7
  6
CONTINUOUS
 10
159.575304528
 20
30.7551182848
 11
159.4596793074
 21
30.7873819712
  0
LINE
  8
0
 62
7
  6
CONTINUOUS
 10
158.0721793074
 20
31.4649194539
 11
158.187804528
 21
31.4326557675
  0
LINE
  8
0
 62
7
  6
CONTINUOUS
 10
159.228429528
 20
30.7228545871
 11
159.401867028
 21
30.6583272086
  0
LINE
  8
0
 62
7
  6
CONTINUOUS
 10
158.4190543074
 20
31.5294468267
 11
158.2456168074
 21
31.5939741996
  0
LINE
  8
0
 62
7
  6
CONTINUOUS
 10
159.6331168074
 20
31.2390736489
 11
159.4596793074
 21
31.3036010218
  0
LINE
  8
0
 62
7
  6
CONTINUOUS
 10
160.442492028
 20
30.9809641124
 11
160.615929528
 21
30.9164367395
  0
LINE
  8
0
 62
7
  6
CONTINUOUS
 10
160.8471793074
 20
31.4971831403
 11
160.6737418074
 21
31.5617105132
  0
LINE
  8
0
 62
7
  6
CONTINUOUS
 10
159.228429528
 20
31.2390736489
 11
159.4596793074
 21
31.1422825445
  0
LINE
  8
0
 62
7
  6
CONTINUOUS
 10
160.8471793074
 20
30.9809641124
 11
160.615929528
 21
31.0777551716
  0
LINE
  8
0
 62
7
  6
CONTINUOUS
 10
159.401867028
 20
31.3681283946
 11
159.4596793074
 21
31.4326557675
  0
LINE
  8
0
 62
7
  6
CONTINUOUS
 10
149.8628043005
 20
31.4971831403
 11
149.7471793074
 21
31.4326557675
  0
LINE
  8
0
 62
7
  6
CONTINUOUS
 10
149.9784292936
 20
31.3358647082
 11
150.1518667936
 21
31.4326557675
  0
LINE
  8
0
 62
7
  6
CONTINUOUS
 10
152.2909293626
 20
31.5294468267
 11
152.1753043074
 21
31.4649194539
  0
LINE
  8
0
 62
7
  6
CONTINUOUS
 10
152.1753043074
 20
31.3358647082
 11
152.2909293626
 21
31.400392081
  0
LINE
  8
0
 62
7
  6
CONTINUOUS
 10
151.1924917523
 20
30.6905909007
 11
151.3659292523
 21
30.7873819712
  0
LINE
  8
0
 62
7
  6
CONTINUOUS
 10
150.2096793212
 20
30.6260635193
 11
150.5565542799
 21
30.5937998301
  0
LINE
  8
0
 62
7
  6
CONTINUOUS
 10
154.3143669177
 20
30.6260635193
 11
154.5456166972
 21
30.5937998301
  0
LINE
  8
0
 62
7
  6
CONTINUOUS
 10
152.6956168074
 20
31.4971831403
 11
152.9268669177
 21
31.4649194539
  0
LINE
  8
0
 62
7
  6
CONTINUOUS
 10
155.0081169177
 20
31.4971831403
 11
155.239367028
 21
31.4649194539
  0
LINE
  8
0
 62
7
  6
CONTINUOUS
 10
159.4596793074
 20
31.1422825445
 11
160.442492028
 21
30.9809641124
  0
LINE
  8
0
 62
7
  6
CONTINUOUS
 10
160.615929528
 20
31.0777551716
 11
159.6331168074
 21
31.2390736489
  0
LINE
  8
0
 62
7
  6
CONTINUOUS
 10
153.1003044177
 20
31.5939741996
 11
152.9268669177
 21
31.626237886
  0
LINE
  8
0
 62
7
  6
CONTINUOUS
 10
159.401867028
 20
30.6583272086
 11
159.575304528
 21
30.6260635193
  0
LINE
  8
0
 62
7
  6
CONTINUOUS
 10
158.2456168074
 20
31.5939741996
 11
158.0721793074
 21
31.626237886
  0
LINE
  8
0
 62
7
  6
CONTINUOUS
 10
160.5003043074
 20
31.4649194539
 11
160.615929528
 21
31.4326557675
  0
LINE
  8
0
 62
7
  6
CONTINUOUS
 10
160.6737418074
 20
30.8519093441
 11
160.615929528
 21
30.7873819712
  0
LINE
  8
0
 62
7
  6
CONTINUOUS
 10
159.228429528
 20
31.5294468267
 11
159.1128043074
 21
31.4326557675
  0
LINE
  8
0
 62
7
  6
CONTINUOUS
 10
154.1409294177
 20
31.5617105132
 11
154.0253041972
 21
31.4971831403
  0
LINE
  8
0
 62
7
  6
CONTINUOUS
 10
154.1987416972
 20
31.1745462761
 11
154.0831168074
 21
31.1100188581
  0
LINE
  8
0
 62
7
  6
CONTINUOUS
 10
154.3143669177
 20
31.0132277988
 11
154.4299918074
 21
31.0777551716
  0
LINE
  8
0
 62
7
  6
CONTINUOUS
 10
151.8862417523
 20
30.5937998301
 11
152.1753043074
 21
30.5937998301
  0
LINE
  8
0
 62
7
  6
CONTINUOUS
 10
153.2159293074
 20
30.5937998301
 11
153.5049916972
 21
30.5937998301
  0
LINE
  8
0
 62
7
  6
CONTINUOUS
 10
154.5456166972
 20
30.5937998301
 11
154.8924916972
 21
30.5937998301
  0
LINE
  8
0
 62
7
  6
CONTINUOUS
 10
155.5284290869
 20
30.5937998301
 11
155.8174918074
 21
30.5937998301
  0
LINE
  8
0
 62
7
  6
CONTINUOUS
 10
156.279992028
 20
30.5937998301
 11
156.5690540869
 21
30.5937998301
  0
LINE
  8
0
 62
7
  6
CONTINUOUS
 10
157.0315543074
 20
30.5937998301
 11
157.320617028
 21
30.5937998301
  0
LINE
  8
0
 62
7
  6
CONTINUOUS
 10
158.361242028
 20
30.5937998301
 11
158.6503040869
 21
30.5937998301
  0
LINE
  8
0
 62
7
  6
CONTINUOUS
 10
159.922179528
 20
30.5937998301
 11
160.269054528
 21
30.5937998301
  0
LINE
  8
0
 62
7
  6
CONTINUOUS
 10
160.269054528
 20
30.7228545871
 11
159.922179528
 21
30.7228545871
  0
LINE
  8
0
 62
7
  6
CONTINUOUS
 10
154.8924916972
 20
30.7228545871
 11
154.5456166972
 21
30.7228545871
  0
LINE
  8
0
 62
7
  6
CONTINUOUS
 10
159.401867028
 20
30.8519093441
 11
159.1128043074
 21
30.8519093441
  0
LINE
  8
0
 62
7
  6
CONTINUOUS
 10
151.4237418626
 20
30.9164367395
 11
151.1346793074
 21
30.9164367395
  0
LINE
  8
0
 62
7
  6
CONTINUOUS
 10
150.498741835
 20
31.4971831403
 11
150.9034292799
 21
31.4649194539
  0
LINE
  8
0
 62
7
  6
CONTINUOUS
 10
150.9612418074
 20
31.5939741996
 11
150.5565542799
 21
31.626237886
  0
LINE
  8
0
 62
7
  6
CONTINUOUS
 10
159.575304528
 20
30.6260635193
 11
159.922179528
 21
30.5937998301
  0
LINE
  8
0
 62
7
  6
CONTINUOUS
 10
159.922179528
 20
30.7228545871
 11
159.575304528
 21
30.7551182848
  0
LINE
  8
0
 62
7
  6
CONTINUOUS
 10
155.3549915869
 20
31.5939741996
 11
155.0081169177
 21
31.626237886
  0
LINE
  8
0
 62
7
  6
CONTINUOUS
 10
160.1534293074
 20
31.4971831403
 11
160.5003043074
 21
31.4649194539
  0
LINE
  8
0
 62
7
  6
CONTINUOUS
 10
160.5003043074
 20
31.5939741996
 11
160.1534293074
 21
31.626237886
  0
LINE
  8
0
 62
7
  6
CONTINUOUS
 10
157.840929528
 20
31.4971831403
 11
158.0721793074
 21
31.4649194539
  0
LINE
  8
0
 62
7
  6
CONTINUOUS
 10
160.6737418074
 20
31.5617105132
 11
160.5003043074
 21
31.5939741996
  0
LINE
  8
0
 62
7
  6
CONTINUOUS
 10
160.8471793074
 20
30.6905909007
 11
160.9628038663
 21
30.7873819712
  0
LINE
  8
0
 62
7
  6
CONTINUOUS
 10
155.3549915869
 20
30.8841730531
 11
155.1815540869
 21
30.7873819712
  0
LINE
  8
0
 62
7
  6
CONTINUOUS
 10
157.4362415869
 20
31.5294468267
 11
157.320617028
 21
31.4649194539
  0
LINE
  8
0
 62
7
  6
CONTINUOUS
 10
157.320617028
 20
31.3358647082
 11
157.4362415869
 21
31.400392081
  0
LINE
  8
0
 62
7
  6
CONTINUOUS
 10
150.0362418212
 20
31.5617105132
 11
149.8628043005
 21
31.4971831403
  0
LINE
  8
0
 62
7
  6
CONTINUOUS
 10
152.4643666972
 20
31.5939741996
 11
152.2909293626
 21
31.5294468267
  0
LINE
  8
0
 62
7
  6
CONTINUOUS
 10
152.2909293626
 20
31.400392081
 11
152.4643666972
 21
31.4649194539
  0
LINE
  8
0
 62
7
  6
CONTINUOUS
 10
151.0768668626
 20
30.8196456577
 11
150.9034292799
 21
30.7551182848
  0
LINE
  8
0
 62
7
  6
CONTINUOUS
 10
160.5003043074
 20
30.7551182848
 11
160.269054528
 21
30.7228545871
  0
LINE
  8
0
 62
7
  6
CONTINUOUS
 10
154.8924916972
 20
30.5937998301
 11
155.1815540869
 21
30.6260635193
  0
LINE
  8
0
 62
7
  6
CONTINUOUS
 10
160.269054528
 20
30.5937998301
 11
160.615929528
 21
30.6260635193
  0
LINE
  8
0
 62
7
  6
CONTINUOUS
 10
150.5565542799
 20
30.5937998301
 11
150.9612418074
 21
30.6260635193
  0
LINE
  8
0
 62
7
  6
CONTINUOUS
 10
150.9034292799
 20
30.7551182848
 11
150.498741835
 21
30.7228545871
  0
LINE
  8
0
 62
7
  6
CONTINUOUS
 10
154.7768668074
 20
31.1422825445
 11
155.412804528
 21
31.1422825445
  0
LINE
  8
0
 62
7
  6
CONTINUOUS
 10
155.412804528
 20
31.2713373354
 11
154.7768668074
 21
31.2713373354
  0
LINE
  8
0
 62
7
  6
CONTINUOUS
 10
151.1346793074
 20
31.3036010218
 11
151.4237418626
 21
31.3036010218
  0
LINE
  8
0
 62
7
  6
CONTINUOUS
 10
153.9674919177
 20
31.3681283946
 11
154.2565543074
 21
31.3681283946
  0
LINE
  8
0
 62
7
  6
CONTINUOUS
 10
160.6737418074
 20
31.3681283946
 11
160.9628038663
 21
31.3681283946
  0
LINE
  8
0
 62
7
  6
CONTINUOUS
 10
154.6612419177
 20
31.4971831403
 11
155.0081169177
 21
31.4971831403
  0
LINE
  8
0
 62
7
  6
CONTINUOUS
 10
159.8065543074
 20
31.4971831403
 11
160.1534293074
 21
31.4971831403
  0
LINE
  8
0
 62
7
  6
CONTINUOUS
 10
160.1534293074
 20
31.626237886
 11
159.8065543074
 21
31.626237886
  0
LINE
  8
0
 62
7
  6
CONTINUOUS
 10
158.0721793074
 20
31.626237886
 11
157.840929528
 21
31.626237886
  0
LINE
  8
0
 62
7
  6
CONTINUOUS
 10
157.320617028
 20
31.626237886
 11
157.0315543074
 21
31.626237886
  0
LINE
  8
0
 62
7
  6
CONTINUOUS
 10
156.5690540869
 20
31.626237886
 11
156.279992028
 21
31.626237886
  0
LINE
  8
0
 62
7
  6
CONTINUOUS
 10
155.0081169177
 20
31.626237886
 11
154.6612419177
 21
31.626237886
  0
LINE
  8
0
 62
7
  6
CONTINUOUS
 10
152.9268669177
 20
31.626237886
 11
152.6956168074
 21
31.626237886
  0
LINE
  8
0
 62
7
  6
CONTINUOUS
 10
156.279992028
 20
31.9488748406
 11
156.5690540869
 21
31.9488748406
  0
LINE
  8
0
 62
7
  6
CONTINUOUS
 10
156.5690540869
 20
32.1101932727
 11
156.279992028
 21
32.1101932727
  0
LINE
  8
0
 62
7
  6
CONTINUOUS
 10
152.1753043074
 20
32.1101932727
 11
151.8862417523
 21
32.1101932727
  0
LINE
  8
0
 62
7
  6
CONTINUOUS
 10
151.2130860697
 20
32.3970785186
 11
151.6256574183
 21
32.3970785186
  0
LINE
  8
0
 62
7
  6
CONTINUOUS
 10
152.852430332
 20
32.3970785186
 11
154.245872955
 21
32.3970785186
  0
LINE
  8
0
 62
7
  6
CONTINUOUS
 10
154.5737418074
 20
32.3970785186
 11
155.9671844304
 21
32.3970785186
  0
LINE
  8
0
 62
7
  6
CONTINUOUS
 10
157.852430332
 20
32.3970785186
 11
159.245872955
 21
32.3970785186
  0
LINE
  8
0
 62
7
  6
CONTINUOUS
 10
159.5737418074
 20
32.3970785186
 11
160.9671844304
 21
32.3970785186
  0
LINE
  8
0
 62
7
  6
CONTINUOUS
 10
157.6096790869
 20
31.5939741996
 11
157.4362415869
 21
31.5294468267
  0
LINE
  8
0
 62
7
  6
CONTINUOUS
 10
155.1815540869
 20
30.6260635193
 11
155.3549915869
 21
30.6905909007
  0
LINE
  8
0
 62
7
  6
CONTINUOUS
 10
160.615929528
 20
30.6260635193
 11
160.8471793074
 21
30.6905909007
  0
LINE
  8
0
 62
7
  6
CONTINUOUS
 10
160.615929528
 20
30.7873819712
 11
160.5003043074
 21
30.7551182848
  0
LINE
  8
0
 62
7
  6
CONTINUOUS
 10
159.575304528
 20
31.4649194539
 11
159.8065543074
 21
31.4971831403
  0
LINE
  8
0
 62
7
  6
CONTINUOUS
 10
157.6096790869
 20
31.4649194539
 11
157.840929528
 21
31.4971831403
  0
LINE
  8
0
 62
7
  6
CONTINUOUS
 10
154.5456166972
 20
31.1100188581
 11
154.7768668074
 21
31.1422825445
  0
LINE
  8
0
 62
7
  6
CONTINUOUS
 10
157.840929528
 20
31.626237886
 11
157.6096790869
 21
31.5939741996
  0
LINE
  8
0
 62
7
  6
CONTINUOUS
 10
154.4299918074
 20
31.4649194539
 11
154.6612419177
 21
31.4971831403
  0
LINE
  8
0
 62
7
  6
CONTINUOUS
 10
159.8065543074
 20
31.626237886
 11
159.4596793074
 21
31.5939741996
  0
LINE
  8
0
 62
7
  6
CONTINUOUS
 10
154.7768668074
 20
31.2713373354
 11
154.4299918074
 21
31.2390736489
  0
LINE
  8
0
 62
7
  6
CONTINUOUS
 10
150.5565542799
 20
31.626237886
 11
150.2096793212
 21
31.5939741996
  0
LINE
  8
0
 62
7
  6
CONTINUOUS
 10
154.6612419177
 20
31.626237886
 11
154.2565543074
 21
31.5939741996
  0
LINE
  8
0
 62
7
  6
CONTINUOUS
 10
152.0327582009
 20
33.5446195022
 11
151.3770204959
 21
33.5446195022
  0
LINE
  8
0
 62
7
  6
CONTINUOUS
 10
157.4362415869
 20
31.400392081
 11
157.6096790869
 21
31.4649194539
  0
LINE
  8
0
 62
7
  6
CONTINUOUS
 10
159.4596793074
 20
31.4326557675
 11
159.575304528
 21
31.4649194539
  0
LINE
  8
0
 62
7
  6
CONTINUOUS
 10
159.4596793074
 20
31.5939741996
 11
159.228429528
 21
31.5294468267
  0
LINE
  8
0
 62
7
  6
CONTINUOUS
 10
155.1815540869
 20
30.7873819712
 11
154.8924916972
 21
30.7228545871
  0
LINE
  8
0
 62
7
  6
CONTINUOUS
 10
152.4643666972
 20
31.4649194539
 11
152.6956168074
 21
31.4971831403
  0
LINE
  8
0
 62
7
  6
CONTINUOUS
 10
152.6956168074
 20
31.626237886
 11
152.4643666972
 21
31.5939741996
  0
LINE
  8
0
 62
7
  6
CONTINUOUS
 10
150.2674918074
 20
31.4649194539
 11
150.498741835
 21
31.4971831403
  0
LINE
  8
0
 62
7
  6
CONTINUOUS
 10
156.7868565615
 20
35.0200293383
 11
157.4425942664
 21
35.0200293383
  0
LINE
  8
0
 62
7
  6
CONTINUOUS
 10
154.4299918074
 20
31.0777551716
 11
154.5456166972
 21
31.1100188581
  0
LINE
  8
0
 62
7
  6
CONTINUOUS
 10
154.4299918074
 20
31.2390736489
 11
154.1987416972
 21
31.1745462761
  0
LINE
  8
0
 62
7
  6
CONTINUOUS
 10
154.3143669177
 20
31.4326557675
 11
154.4299918074
 21
31.4649194539
  0
LINE
  8
0
 62
7
  6
CONTINUOUS
 10
150.9612418074
 20
30.6260635193
 11
151.1924917523
 21
30.6905909007
  0
LINE
  8
0
 62
7
  6
CONTINUOUS
 10
154.2565543074
 20
31.5939741996
 11
154.1409294177
 21
31.5617105132
  0
LINE
  8
0
 62
7
  6
CONTINUOUS
 10
150.2096793212
 20
31.5939741996
 11
150.0362418212
 21
31.5617105132
  0
LINE
  8
0
 62
7
  6
CONTINUOUS
 10
160.9671844304
 20
36.1675703219
 11
159.5737418074
 21
36.1675703219
  0
LINE
  8
0
 62
7
  6
CONTINUOUS
 10
157.6065286927
 20
36.1675703219
 11
157.1939573441
 21
36.1675703219
  0
LINE
  8
0
 62
7
  6
CONTINUOUS
 10
155.9671844304
 20
36.1675703219
 11
154.5737418074
 21
36.1675703219
  0
LINE
  8
0
 62
7
  6
CONTINUOUS
 10
154.245872955
 20
36.1675703219
 11
152.852430332
 21
36.1675703219
  0
LINE
  8
0
 62
7
  6
CONTINUOUS
 10
150.9671844304
 20
36.1675703219
 11
149.5737418074
 21
36.1675703219
  0
LINE
  8
0
 62
7
  6
CONTINUOUS
 10
150.1518667936
 20
31.4326557675
 11
150.2674918074
 21
31.4649194539
  0
CIRCLE
  8
0
 62
7
  6
CONTINUOUS
 10
160.2704631189
 20
38.5036358957
 40
2.0901639344
  0
ARC
  8
0
 62
7
  6
CONTINUOUS
 10
151.2130860697
 20
34.0364227809
 40
1.6393442623
 50
180.0
 51
270.0
  0
ARC
  8
0
 62
7
  6
CONTINUOUS
 10
157.6065286927
 20
34.5282260596
 40
1.6393442623
 50
0.0
 51
90.0
  0
ARC
  8
0
 62
7
  6
CONTINUOUS
 10
151.6256574183
 20
33.8724883547
 40
1.4754098361
 50
270.0
 51
326.2510114041
  0
ARC
  8
0
 62
7
  6
CONTINUOUS
 10
157.1939573441
 20
34.6921604858
 40
1.4754098361
 50
90.0
 51
146.2510114041
  0
ARC
  8
0
 62
7
  6
CONTINUOUS
 10
152.0327582009
 20
34.3642916334
 40
0.8196721311
 50
270.0
 51
360.0
  0
ARC
  8
0
 62
7
  6
CONTINUOUS
 10
156.7868565615
 20
34.2003572071
 40
0.8196721311
 50
90.0
 51
180.0
  0
ARC
  8
0
 62
7
  6
CONTINUOUS
 10
151.3770204959
 20
33.9544555678
 40
0.4098360656
 50
180.0
 51
270.0
  0
ARC
  8
0
 62
7
  6
CONTINUOUS
 10
157.4425942664
 20
34.6101932727
 40
0.4098360656
 50
0.0
 51
90.0
  0
SOLID
  8
0
 62
7
  6
CONTINUOUS
 10
156.279992028
 20
31.9488752009
 11
156.279992028
 21
32.1101936845
 12
156.5690540869
 22
31.9488752009
 13
156.5690540869
 23
32.1101936845
  0
SOLID
  8
0
 62
7
  6
CONTINUOUS
 10
150.5565542799
 20
31.6262382337
 11
150.9612418074
 21
31.5939740028
 12
150.2096793212
 22
31.5939740028
 13
150.2096793212
 23
31.5939740028
  0
SOLID
  8
0
 62
7
  6
CONTINUOUS
 10
150.0362418212
 20
31.5617111435
 11
150.2096793212
 21
31.5939740028
 12
150.9612418074
 22
31.5939740028
 13
150.9612418074
 23
31.5939740028
  0
SOLID
  8
0
 62
7
  6
CONTINUOUS
 10
150.9612418074
 20
31.5939740028
 11
151.1924917523
 21
31.5294468402
 12
150.0362418212
 22
31.5617111435
 13
150.0362418212
 23
31.5617111435
  0
SOLID
  8
0
 62
7
  6
CONTINUOUS
 10
149.8628043005
 20
31.49718259
 11
150.0362418212
 21
31.5617111435
 12
151.1924917523
 22
31.5294468402
 13
151.1924917523
 23
31.5294468402
  0
SOLID
  8
0
 62
7
  6
CONTINUOUS
 10
149.8628043005
 20
31.49718259
 11
151.1924917523
 21
31.5294468402
 12
150.498741835
 22
31.49718259
 13
150.498741835
 23
31.49718259
  0
SOLID
  8
0
 62
7
  6
CONTINUOUS
 10
150.498741835
 20
31.49718259
 11
151.1924917523
 21
31.5294468402
 12
150.9034292799
 22
31.4649197501
 13
150.9034292799
 23
31.4649197501
  0
SOLID
  8
0
 62
7
  6
CONTINUOUS
 10
151.1924917523
 20
31.5294468402
 11
151.3659292523
 21
31.4326554468
 12
150.9034292799
 22
31.4649197501
 13
150.9034292799
 23
31.4649197501
  0
SOLID
  8
0
 62
7
  6
CONTINUOUS
 10
151.0768668626
 20
31.4003926599
 11
150.9034292799
 21
31.4649197501
 12
151.3659292523
 22
31.4326554468
 13
151.3659292523
 23
31.4326554468
  0
SOLID
  8
0
 62
7
  6
CONTINUOUS
 10
151.0768668626
 20
31.4003926599
 11
151.3659292523
 21
31.4326554468
 12
151.1346793074
 22
31.3036013776
 13
151.1346793074
 23
31.3036013776
  0
SOLID
  8
0
 62
7
  6
CONTINUOUS
 10
151.3659292523
 20
31.4326554468
 11
151.4237418626
 21
31.3036013776
 12
151.1346793074
 22
31.3036013776
 13
151.1346793074
 23
31.3036013776
  0
SOLID
  8
0
 62
7
  6
CONTINUOUS
 10
152.4643666972
 20
31.5939739754
 11
152.6956168074
 21
31.6262382787
 12
152.9268669177
 22
31.6262382787
 13
152.9268669177
 23
31.6262382787
  0
SOLID
  8
0
 62
7
  6
CONTINUOUS
 10
152.9268669177
 20
31.6262382787
 11
153.1003044177
 21
31.5939739754
 12
152.4643666972
 22
31.5939739754
 13
152.4643666972
 23
31.5939739754
  0
SOLID
  8
0
 62
7
  6
CONTINUOUS
 10
152.2909293626
 20
31.5294468852
 11
152.4643666972
 21
31.5939739754
 12
153.1003044177
 22
31.5939739754
 13
153.1003044177
 23
31.5939739754
  0
SOLID
  8
0
 62
7
  6
CONTINUOUS
 10
153.1003044177
 20
31.5939739754
 11
153.2737419177
 21
31.5294468852
 12
152.2909293626
 22
31.5294468852
 13
152.2909293626
 23
31.5294468852
  0
SOLID
  8
0
 62
7
  6
CONTINUOUS
 10
153.2737419177
 20
31.5294468852
 11
152.6956168074
 21
31.4971825369
 12
152.2909293626
 22
31.5294468852
 13
152.2909293626
 23
31.5294468852
  0
SOLID
  8
0
 62
7
  6
CONTINUOUS
 10
152.1753043074
 20
31.4649197951
 11
152.2909293626
 21
31.5294468852
 12
152.6956168074
 22
31.4971825369
 13
152.6956168074
 23
31.4971825369
  0
SOLID
  8
0
 62
7
  6
CONTINUOUS
 10
152.6956168074
 20
31.4971825369
 11
152.4643666972
 21
31.4649197951
 12
152.1753043074
 22
31.4649197951
 13
152.1753043074
 23
31.4649197951
  0
SOLID
  8
0
 62
7
  6
CONTINUOUS
 10
152.6956168074
 20
31.4971825369
 11
153.2737419177
 21
31.5294468852
 12
152.9268669177
 22
31.4649197951
 13
152.9268669177
 23
31.4649197951
  0
SOLID
  8
0
 62
7
  6
CONTINUOUS
 10
153.2737419177
 20
31.5294468852
 11
153.3893668074
 21
31.4649197951
 12
152.9268669177
 22
31.4649197951
 13
152.9268669177
 23
31.4649197951
  0
SOLID
  8
0
 62
7
  6
CONTINUOUS
 10
153.0424918074
 20
31.4326554468
 11
152.9268669177
 21
31.4649197951
 12
153.3893668074
 22
31.4649197951
 13
153.3893668074
 23
31.4649197951
  0
SOLID
  8
0
 62
7
  6
CONTINUOUS
 10
153.3893668074
 20
31.4649197951
 11
153.4471794177
 21
31.4003927049
 12
153.0424918074
 22
31.4326554468
 13
153.0424918074
 23
31.4326554468
  0
SOLID
  8
0
 62
7
  6
CONTINUOUS
 10
153.1581166972
 20
31.3681283566
 11
153.0424918074
 21
31.4326554468
 12
153.4471794177
 22
31.4003927049
 13
153.4471794177
 23
31.4003927049
  0
SOLID
  8
0
 62
7
  6
CONTINUOUS
 10
153.1581166972
 20
31.3681283566
 11
153.4471794177
 21
31.4003927049
 12
153.2159293074
 22
31.2390742213
 13
153.2159293074
 23
31.2390742213
  0
SOLID
  8
0
 62
7
  6
CONTINUOUS
 10
153.4471794177
 20
31.4003927049
 11
153.5049916972
 21
31.2390742213
 12
153.2159293074
 22
31.2390742213
 13
153.2159293074
 23
31.2390742213
  0
SOLID
  8
0
 62
7
  6
CONTINUOUS
 10
152.4643666972
 20
31.4649197951
 11
152.2909293626
 21
31.4003927049
 12
152.1753043074
 22
31.4649197951
 13
152.1753043074
 23
31.4649197951
  0
SOLID
  8
0
 62
7
  6
CONTINUOUS
 10
152.2909293626
 20
31.4003927049
 11
152.1753043074
 21
31.3358640533
 12
152.1753043074
 22
31.4649197951
 13
152.1753043074
 23
31.4649197951
  0
SOLID
  8
0
 62
7
  6
CONTINUOUS
 10
152.1753043074
 20
31.3358640533
 11
151.8862417523
 21
30.5938002869
 12
152.1753043074
 22
31.4649197951
 13
152.1753043074
 23
31.4649197951
  0
SOLID
  8
0
 62
7
  6
CONTINUOUS
 10
152.1753043074
 20
31.4649197951
 11
151.8862417523
 21
30.5938002869
 12
152.1753043074
 22
32.1101937295
 13
152.1753043074
 23
32.1101937295
  0
SOLID
  8
0
 62
7
  6
CONTINUOUS
 10
151.8862417523
 20
30.5938002869
 11
151.8862417523
 21
32.1101937295
 12
152.1753043074
 22
32.1101937295
 13
152.1753043074
 23
32.1101937295
  0
SOLID
  8
0
 62
7
  6
CONTINUOUS
 10
152.1753043074
 20
31.3358640533
 11
152.1753043074
 21
30.5938002869
 12
151.8862417523
 22
30.5938002869
 13
151.8862417523
 23
30.5938002869
  0
SOLID
  8
0
 62
7
  6
CONTINUOUS
 10
153.2159293074
 20
30.5938002869
 11
153.2159293074
 21
31.2390742213
 12
153.5049916972
 22
31.2390742213
 13
153.5049916972
 23
31.2390742213
  0
SOLID
  8
0
 62
7
  6
CONTINUOUS
 10
153.5049916972
 20
31.2390742213
 11
153.5049916972
 21
30.5938002869
 12
153.2159293074
 22
30.5938002869
 13
153.2159293074
 23
30.5938002869
  0
SOLID
  8
0
 62
7
  6
CONTINUOUS
 10
154.2565543074
 20
31.5939738288
 11
154.6612419177
 21
31.6262385959
 12
155.0081169177
 22
31.6262385959
 13
155.0081169177
 23
31.6262385959
  0
SOLID
  8
0
 62
7
  6
CONTINUOUS
 10
155.0081169177
 20
31.6262385959
 11
155.3549915869
 21
31.5939738288
 12
154.2565543074
 22
31.5939738288
 13
154.2565543074
 23
31.5939738288
  0
SOLID
  8
0
 62
7
  6
CONTINUOUS
 10
154.1409294177
 20
31.5617111435
 11
154.2565543074
 21
31.5939738288
 12
155.3549915869
 22
31.5939738288
 13
155.3549915869
 23
31.5939738288
  0
SOLID
  8
0
 62
7
  6
CONTINUOUS
 10
155.3549915869
 20
31.5939738288
 11
155.5284290869
 21
31.5294468402
 12
154.1409294177
 22
31.5617111435
 13
154.1409294177
 23
31.5617111435
  0
SOLID
  8
0
 62
7
  6
CONTINUOUS
 10
154.0253041972
 20
31.4971826249
 11
154.1409294177
 21
31.5617111435
 12
155.5284290869
 22
31.5294468402
 13
155.5284290869
 23
31.5294468402
  0
SOLID
  8
0
 62
7
  6
CONTINUOUS
 10
154.0253041972
 20
31.4971826249
 11
155.5284290869
 21
31.5294468402
 12
154.6612419177
 22
31.4971826249
 13
154.6612419177
 23
31.4971826249
  0
SOLID
  8
0
 62
7
  6
CONTINUOUS
 10
154.6612419177
 20
31.4971826249
 11
155.5284290869
 21
31.5294468402
 12
155.0081169177
 22
31.4971826249
 13
155.0081169177
 23
31.4971826249
  0
SOLID
  8
0
 62
7
  6
CONTINUOUS
 10
155.0081169177
 20
31.4971826249
 11
155.5284290869
 21
31.5294468402
 12
155.239367028
 22
31.4649194065
 13
155.239367028
 23
31.4649194065
  0
SOLID
  8
0
 62
7
  6
CONTINUOUS
 10
155.5284290869
 20
31.5294468402
 11
155.6440543074
 21
31.4649194065
 12
155.239367028
 22
31.4649194065
 13
155.239367028
 23
31.4649194065
  0
SOLID
  8
0
 62
7
  6
CONTINUOUS
 10
153.9674919177
 20
31.4326554138
 11
154.0253041972
 21
31.4971826249
 12
154.6612419177
 22
31.4971826249
 13
154.6612419177
 23
31.4971826249
  0
SOLID
  8
0
 62
7
  6
CONTINUOUS
 10
155.3549915869
 20
31.4326554138
 11
155.239367028
 21
31.4649194065
 12
155.6440543074
 22
31.4649194065
 13
155.6440543074
 23
31.4649194065
  0
SOLID
  8
0
 62
7
  6
CONTINUOUS
 10
155.3549915869
 20
31.4326554138
 11
155.6440543074
 21
31.4649194065
 12
155.412804528
 22
31.3681282026
 13
155.412804528
 23
31.3681282026
  0
SOLID
  8
0
 62
7
  6
CONTINUOUS
 10
155.6440543074
 20
31.4649194065
 11
155.7018665869
 21
31.3681282026
 12
155.412804528
 22
31.3681282026
 13
155.412804528
 23
31.3681282026
  0
SOLID
  8
0
 62
7
  6
CONTINUOUS
 10
155.412804528
 20
31.2713369632
 11
155.412804528
 21
31.3681282026
 12
155.7018665869
 22
31.3681282026
 13
155.7018665869
 23
31.3681282026
  0
SOLID
  8
0
 62
7
  6
CONTINUOUS
 10
155.412804528
 20
31.2713369632
 11
155.7018665869
 21
31.3681282026
 12
155.412804528
 22
31.1422827828
 13
155.412804528
 23
31.1422827828
  0
SOLID
  8
0
 62
7
  6
CONTINUOUS
 10
155.412804528
 20
31.1422827828
 11
155.7018665869
 21
31.3681282026
 12
155.412804528
 22
30.9487004259
 13
155.412804528
 23
30.9487004259
  0
SOLID
  8
0
 62
7
  6
CONTINUOUS
 10
155.7018665869
 20
31.3681282026
 11
155.7018665869
 21
30.8519086025
 12
155.412804528
 22
30.9487004259
 13
155.412804528
 23
30.9487004259
  0
SOLID
  8
0
 62
7
  6
CONTINUOUS
 10
157.6096790869
 20
31.5939736268
 11
157.840929528
 21
31.6262383465
 12
158.0721793074
 22
31.6262383465
 13
158.0721793074
 23
31.6262383465
  0
SOLID
  8
0
 62
7
  6
CONTINUOUS
 10
158.0721793074
 20
31.6262383465
 11
158.2456168074
 21
31.5939736268
 12
157.6096790869
 22
31.5939736268
 13
157.6096790869
 23
31.5939736268
  0
SOLID
  8
0
 62
7
  6
CONTINUOUS
 10
157.4362415869
 20
31.5294472848
 11
157.6096790869
 21
31.5939736268
 12
158.2456168074
 22
31.5939736268
 13
158.2456168074
 23
31.5939736268
  0
SOLID
  8
0
 62
7
  6
CONTINUOUS
 10
158.2456168074
 20
31.5939736268
 11
158.4190543074
 21
31.5294472848
 12
157.4362415869
 22
31.5294472848
 13
157.4362415869
 23
31.5294472848
  0
SOLID
  8
0
 62
7
  6
CONTINUOUS
 10
158.4190543074
 20
31.5294472848
 11
157.840929528
 21
31.4971825369
 12
157.4362415869
 22
31.5294472848
 13
157.4362415869
 23
31.5294472848
  0
SOLID
  8
0
 62
7
  6
CONTINUOUS
 10
157.320617028
 20
31.4649199103
 11
157.4362415869
 21
31.5294472848
 12
157.840929528
 22
31.4971825369
 13
157.840929528
 23
31.4971825369
  0
SOLID
  8
0
 62
7
  6
CONTINUOUS
 10
157.840929528
 20
31.4971825369
 11
157.6096790869
 21
31.4649199103
 12
157.320617028
 22
31.4649199103
 13
157.320617028
 23
31.4649199103
  0
SOLID
  8
0
 62
7
  6
CONTINUOUS
 10
157.840929528
 20
31.4971825369
 11
158.4190543074
 21
31.5294472848
 12
158.0721793074
 22
31.4649199103
 13
158.0721793074
 23
31.4649199103
  0
SOLID
  8
0
 62
7
  6
CONTINUOUS
 10
158.4190543074
 20
31.5294472848
 11
158.534679528
 21
31.4649199103
 12
158.0721793074
 22
31.4649199103
 13
158.0721793074
 23
31.4649199103
  0
SOLID
  8
0
 62
7
  6
CONTINUOUS
 10
158.187804528
 20
31.4326554468
 11
158.0721793074
 21
31.4649199103
 12
158.534679528
 22
31.4649199103
 13
158.534679528
 23
31.4649199103
  0
SOLID
  8
0
 62
7
  6
CONTINUOUS
 10
158.187804528
 20
31.4326554468
 11
158.534679528
 21
31.4649199103
 12
158.3034290869
 22
31.3681288486
 13
158.3034290869
 23
31.3681288486
  0
SOLID
  8
0
 62
7
  6
CONTINUOUS
 10
158.534679528
 20
31.4649199103
 11
158.5924918074
 21
31.3681288486
 12
158.3034290869
 22
31.3681288486
 13
158.3034290869
 23
31.3681288486
  0
SOLID
  8
0
 62
7
  6
CONTINUOUS
 10
158.361242028
 20
31.2068093799
 11
158.3034290869
 21
31.3681288486
 12
158.5924918074
 22
31.3681288486
 13
158.5924918074
 23
31.3681288486
  0
SOLID
  8
0
 62
7
  6
CONTINUOUS
 10
158.5924918074
 20
31.3681288486
 11
158.6503040869
 21
31.2068093799
 12
158.361242028
 22
31.2068093799
 13
158.361242028
 23
31.2068093799
  0
SOLID
  8
0
 62
7
  6
CONTINUOUS
 10
157.6096790869
 20
31.4649199103
 11
157.4362415869
 21
31.4003926599
 12
157.320617028
 22
31.4649199103
 13
157.320617028
 23
31.4649199103
  0
SOLID
  8
0
 62
7
  6
CONTINUOUS
 10
157.4362415869
 20
31.4003926599
 11
157.320617028
 21
31.3358640533
 12
157.320617028
 22
31.4649199103
 13
157.320617028
 23
31.4649199103
  0
SOLID
  8
0
 62
7
  6
CONTINUOUS
 10
157.320617028
 20
31.3358640533
 11
157.0315543074
 21
30.5938003547
 12
157.320617028
 22
31.4649199103
 13
157.320617028
 23
31.4649199103
  0
SOLID
  8
0
 62
7
  6
CONTINUOUS
 10
157.320617028
 20
31.4649199103
 11
157.0315543074
 21
30.5938003547
 12
157.320617028
 22
31.6262383465
 13
157.320617028
 23
31.6262383465
  0
SOLID
  8
0
 62
7
  6
CONTINUOUS
 10
157.0315543074
 20
30.5938003547
 11
157.0315543074
 21
31.6262383465
 12
157.320617028
 22
31.6262383465
 13
157.320617028
 23
31.6262383465
  0
SOLID
  8
0
 62
7
  6
CONTINUOUS
 10
157.320617028
 20
31.3358640533
 11
157.320617028
 21
30.5938003547
 12
157.0315543074
 22
30.5938003547
 13
157.0315543074
 23
30.5938003547
  0
SOLID
  8
0
 62
7
  6
CONTINUOUS
 10
158.361242028
 20
30.5938003547
 11
158.361242028
 21
31.2068093799
 12
158.6503040869
 22
31.2068093799
 13
158.6503040869
 23
31.2068093799
  0
SOLID
  8
0
 62
7
  6
CONTINUOUS
 10
158.6503040869
 20
31.2068093799
 11
158.6503040869
 21
30.5938003547
 12
158.361242028
 22
30.5938003547
 13
158.361242028
 23
30.5938003547
  0
SOLID
  8
0
 62
7
  6
CONTINUOUS
 10
159.4596793074
 20
31.5939739474
 11
159.8065543074
 21
31.6262381969
 12
160.1534293074
 22
31.6262381969
 13
160.1534293074
 23
31.6262381969
  0
SOLID
  8
0
 62
7
  6
CONTINUOUS
 10
160.1534293074
 20
31.6262381969
 11
160.5003043074
 21
31.5939739474
 12
159.4596793074
 22
31.5939739474
 13
159.4596793074
 23
31.5939739474
  0
SOLID
  8
0
 62
7
  6
CONTINUOUS
 10
159.228429528
 20
31.5294468402
 11
159.4596793074
 21
31.5939739474
 12
160.5003043074
 22
31.5939739474
 13
160.5003043074
 23
31.5939739474
  0
SOLID
  8
0
 62
7
  6
CONTINUOUS
 10
159.228429528
 20
31.5294468402
 11
160.5003043074
 21
31.5939739304
 12
160.6737418074
 22
31.5617111435
 13
160.6737418074
 23
31.5617111435
  0
SOLID
  8
0
 62
7
  6
CONTINUOUS
 10
159.228429528
 20
31.5294468402
 11
160.6737418074
 21
31.5617111435
 12
159.8065543074
 22
31.4971825592
 13
159.8065543074
 23
31.4971825592
  0
SOLID
  8
0
 62
7
  6
CONTINUOUS
 10
159.8065543074
 20
31.4971825592
 11
160.6737418074
 21
31.5617111435
 12
160.1534293074
 22
31.4971825592
 13
160.1534293074
 23
31.4971825592
  0
SOLID
  8
0
 62
7
  6
CONTINUOUS
 10
160.6737418074
 20
31.5617111435
 11
160.8471793074
 21
31.4971825592
 12
160.1534293074
 22
31.4971825592
 13
160.1534293074
 23
31.4971825592
  0
SOLID
  8
0
 62
7
  6
CONTINUOUS
 10
160.5003043074
 20
31.4649197501
 11
160.1534293074
 21
31.4971825592
 12
160.8471793074
 22
31.4971825592
 13
160.8471793074
 23
31.4971825592
  0
SOLID
  8
0
 62
7
  6
CONTINUOUS
 10
159.1128043074
 20
31.4326555427
 11
159.228429528
 21
31.5294468402
 12
159.8065543074
 22
31.4971825592
 13
159.8065543074
 23
31.4971825592
  0
SOLID
  8
0
 62
7
  6
CONTINUOUS
 10
160.5003043074
 20
31.4649197501
 11
160.8471793074
 21
31.4971825592
 12
160.615929528
 22
31.4326555427
 13
160.615929528
 23
31.4326555427
  0
SOLID
  8
0
 62
7
  6
CONTINUOUS
 10
160.615929528
 20
31.4326555427
 11
160.8471793074
 21
31.4971825592
 12
160.6737418074
 22
31.3681283005
 13
160.6737418074
 23
31.3681283005
  0
SOLID
  8
0
 62
7
  6
CONTINUOUS
 10
160.8471793074
 20
31.4971825592
 11
160.9628038663
 21
31.3681283005
 12
160.6737418074
 22
31.3681283005
 13
160.6737418074
 23
31.3681283005
  0
SOLID
  8
0
 62
7
  6
CONTINUOUS
 10
150.2674918074
 20
31.4649197501
 11
149.7471793074
 21
31.4326554237
 12
150.498741835
 22
31.4971824493
 13
150.498741835
 23
31.4971824493
  0
SOLID
  8
0
 62
7
  6
CONTINUOUS
 10
149.7471793074
 20
31.4326554237
 11
149.8628043005
 21
31.4971824493
 12
150.498741835
 22
31.4971824493
 13
150.498741835
 23
31.4971824493
  0
SOLID
  8
0
 62
7
  6
CONTINUOUS
 10
150.2674918074
 20
31.4649197501
 11
150.1518667936
 21
31.4326554237
 12
149.7471793074
 22
31.4326554237
 13
149.7471793074
 23
31.4326554237
  0
SOLID
  8
0
 62
7
  6
CONTINUOUS
 10
149.6315543091
 20
31.3036012664
 11
149.7471793074
 21
31.4326554237
 12
150.1518667936
 22
31.4326554237
 13
150.1518667936
 23
31.4326554237
  0
SOLID
  8
0
 62
7
  6
CONTINUOUS
 10
153.9674919177
 20
31.4326554237
 11
154.6612419177
 21
31.4971825369
 12
154.4299918074
 22
31.4649197501
 13
154.4299918074
 23
31.4649197501
  0
SOLID
  8
0
 62
7
  6
CONTINUOUS
 10
154.4299918074
 20
31.4649197501
 11
154.3143669177
 21
31.4326554237
 12
153.9674919177
 22
31.4326554237
 13
153.9674919177
 23
31.4326554237
  0
SOLID
  8
0
 62
7
  6
CONTINUOUS
 10
153.9674919177
 20
31.3681283335
 11
153.9674919177
 21
31.4326554237
 12
154.3143669177
 22
31.4326554237
 13
154.3143669177
 23
31.4326554237
  0
SOLID
  8
0
 62
7
  6
CONTINUOUS
 10
154.3143669177
 20
31.4326554237
 11
154.2565543074
 21
31.3681283335
 12
153.9674919177
 22
31.3681283335
 13
153.9674919177
 23
31.3681283335
  0
SOLID
  8
0
 62
7
  6
CONTINUOUS
 10
159.1128043074
 20
31.4326555528
 11
159.8065543074
 21
31.4971825369
 12
159.575304528
 22
31.4649197501
 13
159.575304528
 23
31.4649197501
  0
SOLID
  8
0
 62
7
  6
CONTINUOUS
 10
159.575304528
 20
31.4649197501
 11
159.4596793074
 21
31.4326555528
 12
159.1128043074
 22
31.4326555528
 13
159.1128043074
 23
31.4326555528
  0
SOLID
  8
0
 62
7
  6
CONTINUOUS
 10
159.1128043074
 20
31.3681284626
 11
159.1128043074
 21
31.4326555528
 12
159.4596793074
 22
31.4326555528
 13
159.4596793074
 23
31.4326555528
  0
SOLID
  8
0
 62
7
  6
CONTINUOUS
 10
159.4596793074
 20
31.4326555528
 11
159.401867028
 21
31.3681284626
 12
159.1128043074
 22
31.3681284626
 13
159.1128043074
 23
31.3681284626
  0
SOLID
  8
0
 62
7
  6
CONTINUOUS
 10
159.228429528
 20
31.2390741763
 11
159.1128043074
 21
31.3681284626
 12
159.401867028
 22
31.3681284626
 13
159.401867028
 23
31.3681284626
  0
SOLID
  8
0
 62
7
  6
CONTINUOUS
 10
149.6315543091
 20
31.3036012664
 11
150.1518667936
 21
31.4326554468
 12
149.9784292936
 22
31.3358640533
 13
149.9784292936
 23
31.3358640533
  0
SOLID
  8
0
 62
7
  6
CONTINUOUS
 10
149.9784292936
 20
31.3358640533
 11
149.9206168074
 21
31.2713369632
 12
149.6315543091
 22
31.3036012664
 13
149.6315543091
 23
31.3036012664
  0
SOLID
  8
0
 62
7
  6
CONTINUOUS
 10
149.5737418074
 20
31.1100184796
 11
149.6315543091
 21
31.3036012664
 12
149.9206168074
 22
31.2713369632
 13
149.9206168074
 23
31.2713369632
  0
SOLID
  8
0
 62
7
  6
CONTINUOUS
 10
154.4299918074
 20
31.2390741763
 11
154.7768668074
 21
31.271336924
 12
155.412804528
 22
31.271336924
 13
155.412804528
 23
31.271336924
  0
SOLID
  8
0
 62
7
  6
CONTINUOUS
 10
154.4299918074
 20
31.2390741763
 11
155.412804528
 21
31.271336924
 12
154.1987416972
 22
31.1745462761
 13
154.1987416972
 23
31.1745462761
  0
SOLID
  8
0
 62
7
  6
CONTINUOUS
 10
154.1987416972
 20
31.1745462761
 11
155.412804528
 21
31.271336924
 12
154.7768668074
 22
31.1422827436
 13
154.7768668074
 23
31.1422827436
  0
SOLID
  8
0
 62
7
  6
CONTINUOUS
 10
155.412804528
 20
31.271336924
 11
155.412804528
 21
31.1422827436
 12
154.7768668074
 22
31.1422827436
 13
154.7768668074
 23
31.1422827436
  0
SOLID
  8
0
 62
7
  6
CONTINUOUS
 10
159.228429528
 20
31.2390745501
 11
159.401867028
 21
31.3681283566
 12
159.4596793074
 22
31.3036012664
 13
159.4596793074
 23
31.3036012664
  0
SOLID
  8
0
 62
7
  6
CONTINUOUS
 10
159.4596793074
 20
31.3036012664
 11
159.6331168074
 21
31.2390745501
 12
159.228429528
 22
31.2390745501
 13
159.228429528
 23
31.2390745501
  0
SOLID
  8
0
 62
7
  6
CONTINUOUS
 10
159.4596793074
 20
31.1422827828
 11
159.228429528
 21
31.2390745501
 12
159.6331168074
 22
31.2390745501
 13
159.6331168074
 23
31.2390745501
  0
SOLID
  8
0
 62
7
  6
CONTINUOUS
 10
159.6331168074
 20
31.2390745501
 11
160.615929528
 21
31.0777556927
 12
159.4596793074
 22
31.1422827828
 13
159.4596793074
 23
31.1422827828
  0
SOLID
  8
0
 62
7
  6
CONTINUOUS
 10
160.442492028
 20
30.9809646623
 11
159.4596793074
 21
31.1422827828
 12
160.615929528
 22
31.0777556927
 13
160.615929528
 23
31.0777556927
  0
SOLID
  8
0
 62
7
  6
CONTINUOUS
 10
160.615929528
 20
31.0777556927
 11
160.8471793074
 21
30.9809646623
 12
160.442492028
 22
30.9809646623
 13
160.442492028
 23
30.9809646623
  0
SOLID
  8
0
 62
7
  6
CONTINUOUS
 10
160.615929528
 20
30.9164372091
 11
160.442492028
 21
30.9809646623
 12
160.8471793074
 22
30.9809646623
 13
160.8471793074
 23
30.9809646623
  0
SOLID
  8
0
 62
7
  6
CONTINUOUS
 10
160.615929528
 20
30.9164372091
 11
160.8471793074
 21
30.9809646623
 12
160.6737418074
 22
30.8519089441
 13
160.6737418074
 23
30.8519089441
  0
SOLID
  8
0
 62
7
  6
CONTINUOUS
 10
160.8471793074
 20
30.9809646623
 11
160.9628038663
 21
30.8519089441
 12
160.6737418074
 22
30.8519089441
 13
160.6737418074
 23
30.8519089441
  0
SOLID
  8
0
 62
7
  6
CONTINUOUS
 10
160.615929528
 20
30.7873818593
 11
160.6737418074
 21
30.8519089441
 12
160.9628038663
 22
30.8519089441
 13
160.9628038663
 23
30.8519089441
  0
SOLID
  8
0
 62
7
  6
CONTINUOUS
 10
160.9628038663
 20
30.8519089441
 11
160.9628038663
 21
30.7873818593
 12
160.615929528
 22
30.7873818593
 13
160.615929528
 23
30.7873818593
  0
SOLID
  8
0
 62
7
  6
CONTINUOUS
 10
160.5003043074
 20
30.7551187255
 11
160.615929528
 21
30.7873818593
 12
160.9628038663
 22
30.7873818593
 13
160.9628038663
 23
30.7873818593
  0
SOLID
  8
0
 62
7
  6
CONTINUOUS
 10
160.5003043074
 20
30.7551187255
 11
160.9628038663
 21
30.7873818593
 12
160.269054528
 22
30.7228547745
 13
160.269054528
 23
30.7228547745
  0
SOLID
  8
0
 62
7
  6
CONTINUOUS
 10
160.9628038663
 20
30.7873818593
 11
160.8471793074
 21
30.6905916353
 12
160.269054528
 22
30.7228547745
 13
160.269054528
 23
30.7228547745
  0
SOLID
  8
0
 62
7
  6
CONTINUOUS
 10
160.8471793074
 20
30.6905916353
 11
159.401867028
 21
30.658327332
 12
160.269054528
 22
30.7228547745
 13
160.269054528
 23
30.7228547745
  0
SOLID
  8
0
 62
7
  6
CONTINUOUS
 10
160.269054528
 20
30.7228547745
 11
159.401867028
 21
30.658327332
 12
159.922179528
 22
30.7228547745
 13
159.922179528
 23
30.7228547745
  0
SOLID
  8
0
 62
7
  6
CONTINUOUS
 10
159.401867028
 20
30.658327332
 11
159.228429528
 21
30.7228547745
 12
159.922179528
 22
30.7228547745
 13
159.922179528
 23
30.7228547745
  0
SOLID
  8
0
 62
7
  6
CONTINUOUS
 10
159.401867028
 20
30.658327332
 11
160.8471793074
 21
30.6905916353
 12
159.575304528
 22
30.6260629858
 13
159.575304528
 23
30.6260629858
  0
SOLID
  8
0
 62
7
  6
CONTINUOUS
 10
160.8471793074
 20
30.6905916353
 11
160.615929528
 21
30.6260629858
 12
159.575304528
 22
30.6260629858
 13
159.575304528
 23
30.6260629858
  0
SOLID
  8
0
 62
7
  6
CONTINUOUS
 10
159.922179528
 20
30.5938006049
 11
159.575304528
 21
30.6260629858
 12
160.615929528
 22
30.6260629858
 13
160.615929528
 23
30.6260629858
  0
SOLID
  8
0
 62
7
  6
CONTINUOUS
 10
160.615929528
 20
30.6260629858
 11
160.269054528
 21
30.5938006049
 12
159.922179528
 22
30.5938006049
 13
159.922179528
 23
30.5938006049
  0
SOLID
  8
0
 62
7
  6
CONTINUOUS
 10
149.5737418074
 20
31.1100184796
 11
149.9206168074
 21
31.2713369632
 12
149.8628043005
 22
31.1422827828
 13
149.8628043005
 23
31.1422827828
  0
SOLID
  8
0
 62
7
  6
CONTINUOUS
 10
149.8628043005
 20
31.1422827828
 11
149.8628043005
 21
31.0454914852
 12
149.5737418074
 22
31.1100184796
 13
149.5737418074
 23
31.1100184796
  0
SOLID
  8
0
 62
7
  6
CONTINUOUS
 10
149.6315543091
 20
30.9164372091
 11
149.5737418074
 21
31.1100184796
 12
149.8628043005
 22
31.0454914852
 13
149.8628043005
 23
31.0454914852
  0
SOLID
  8
0
 62
7
  6
CONTINUOUS
 10
149.8628043005
 20
31.0454914852
 11
149.9784292936
 21
30.8841729058
 12
149.6315543091
 22
30.9164372091
 13
149.6315543091
 23
30.9164372091
  0
SOLID
  8
0
 62
7
  6
CONTINUOUS
 10
149.7471793074
 20
30.7873813202
 11
149.6315543091
 21
30.9164372091
 12
149.9784292936
 22
30.8841729058
 13
149.9784292936
 23
30.8841729058
  0
SOLID
  8
0
 62
7
  6
CONTINUOUS
 10
149.9784292936
 20
30.8841729058
 11
150.1518667936
 21
30.7873813202
 12
149.7471793074
 22
30.7873813202
 13
149.7471793074
 23
30.7873813202
  0
SOLID
  8
0
 62
7
  6
CONTINUOUS
 10
149.8628043005
 20
30.7228547004
 11
149.7471793074
 21
30.7873813202
 12
150.1518667936
 22
30.7873813202
 13
150.1518667936
 23
30.7873813202
  0
SOLID
  8
0
 62
7
  6
CONTINUOUS
 10
150.1518667936
 20
30.7873813202
 11
150.498741835
 21
30.7228547004
 12
149.8628043005
 22
30.7228547004
 13
149.8628043005
 23
30.7228547004
  0
SOLID
  8
0
 62
7
  6
CONTINUOUS
 10
150.0362418212
 20
30.658327332
 11
149.8628043005
 21
30.7228547004
 12
150.498741835
 22
30.7228547004
 13
150.498741835
 23
30.7228547004
  0
SOLID
  8
0
 62
7
  6
CONTINUOUS
 10
154.0831168074
 20
31.1100184386
 11
154.1987416972
 21
31.1745462761
 12
154.7768668074
 22
31.1422827828
 13
154.7768668074
 23
31.1422827828
  0
SOLID
  8
0
 62
7
  6
CONTINUOUS
 10
154.7768668074
 20
31.1422827828
 11
154.5456166972
 21
31.1100184386
 12
154.0831168074
 22
31.1100184386
 13
154.0831168074
 23
31.1100184386
  0
SOLID
  8
0
 62
7
  6
CONTINUOUS
 10
153.9674919177
 20
30.9809642992
 11
154.0831168074
 21
31.1100184386
 12
154.5456166972
 22
31.1100184386
 13
154.5456166972
 23
31.1100184386
  0
SOLID
  8
0
 62
7
  6
CONTINUOUS
 10
154.3143669177
 20
31.0132277988
 11
153.9674919177
 21
30.9809642992
 12
154.4299918074
 22
31.0777556927
 13
154.4299918074
 23
31.0777556927
  0
SOLID
  8
0
 62
7
  6
CONTINUOUS
 10
153.9674919177
 20
30.9809642992
 11
154.5456166972
 21
31.1100184796
 12
154.4299918074
 22
31.0777556927
 13
154.4299918074
 23
31.0777556927
  0
SOLID
  8
0
 62
7
  6
CONTINUOUS
 10
154.3143669177
 20
31.0132277988
 11
154.2565543074
 21
30.9164372091
 12
153.9674919177
 22
30.9809642992
 13
153.9674919177
 23
30.9809642992
  0
SOLID
  8
0
 62
7
  6
CONTINUOUS
 10
153.9674919177
 20
30.8841729058
 11
153.9674919177
 21
30.9809642992
 12
154.2565543074
 22
30.9164372091
 13
154.2565543074
 23
30.9164372091
  0
SOLID
  8
0
 62
7
  6
CONTINUOUS
 10
154.2565543074
 20
30.9164372091
 11
154.2565543074
 21
30.8519086025
 12
153.9674919177
 22
30.8841729058
 13
153.9674919177
 23
30.8841729058
  0
SOLID
  8
0
 62
7
  6
CONTINUOUS
 10
154.0253041972
 20
30.7551187255
 11
153.9674919177
 21
30.8841729058
 12
154.2565543074
 22
30.8519086025
 13
154.2565543074
 23
30.8519086025
  0
SOLID
  8
0
 62
7
  6
CONTINUOUS
 10
155.412804528
 20
30.9487004259
 11
155.7018665869
 21
30.8519086025
 12
155.3549915869
 22
30.8841729058
 13
155.3549915869
 23
30.8841729058
  0
SOLID
  8
0
 62
7
  6
CONTINUOUS
 10
155.1815540869
 20
30.7873815123
 11
155.3549915869
 21
30.8841729058
 12
155.7018665869
 22
30.8519086025
 13
155.7018665869
 23
30.8519086025
  0
SOLID
  8
0
 62
7
  6
CONTINUOUS
 10
155.1815540869
 20
30.7873815123
 11
155.7018665869
 21
30.8519086025
 12
155.412804528
 22
30.7551187255
 13
155.412804528
 23
30.7551187255
  0
SOLID
  8
0
 62
7
  6
CONTINUOUS
 10
155.7018665869
 20
30.8519086025
 11
155.759679528
 21
30.6905916353
 12
155.412804528
 22
30.7551187255
 13
155.412804528
 23
30.7551187255
  0
SOLID
  8
0
 62
7
  6
CONTINUOUS
 10
155.4706168074
 20
30.658327332
 11
155.412804528
 21
30.7551187255
 12
155.759679528
 22
30.6905916353
 13
155.759679528
 23
30.6905916353
  0
SOLID
  8
0
 62
7
  6
CONTINUOUS
 10
155.4706168074
 20
30.658327332
 11
155.759679528
 21
30.6905916353
 12
155.5284290869
 22
30.5938002079
 13
155.5284290869
 23
30.5938002079
  0
SOLID
  8
0
 62
7
  6
CONTINUOUS
 10
155.759679528
 20
30.6905916353
 11
155.8174918074
 21
30.5938002079
 12
155.5284290869
 22
30.5938002079
 13
155.5284290869
 23
30.5938002079
  0
SOLID
  8
0
 62
7
  6
CONTINUOUS
 10
151.0768668626
 20
30.8196456577
 11
151.1346793074
 21
30.9164373395
 12
151.4237418626
 22
30.9164373395
 13
151.4237418626
 23
30.9164373395
  0
SOLID
  8
0
 62
7
  6
CONTINUOUS
 10
151.4237418626
 20
30.9164373395
 11
151.3659292523
 21
30.7873815123
 12
151.0768668626
 22
30.8196456577
 13
151.0768668626
 23
30.8196456577
  0
SOLID
  8
0
 62
7
  6
CONTINUOUS
 10
150.9034292799
 20
30.7551187255
 11
151.0768668626
 21
30.8196456577
 12
151.3659292523
 22
30.7873815123
 13
151.3659292523
 23
30.7873815123
  0
SOLID
  8
0
 62
7
  6
CONTINUOUS
 10
150.9034292799
 20
30.7551187255
 11
151.3659292523
 21
30.7873815123
 12
150.498741835
 22
30.7228544222
 13
150.498741835
 23
30.7228544222
  0
SOLID
  8
0
 62
7
  6
CONTINUOUS
 10
151.3659292523
 20
30.7873815123
 11
151.1924917523
 21
30.6905916353
 12
150.498741835
 22
30.7228544222
 13
150.498741835
 23
30.7228544222
  0
SOLID
  8
0
 62
7
  6
CONTINUOUS
 10
150.0362418212
 20
30.658327332
 11
150.498741835
 21
30.7228544222
 12
151.1924917523
 22
30.6905916353
 13
151.1924917523
 23
30.6905916353
  0
SOLID
  8
0
 62
7
  6
CONTINUOUS
 10
150.0362418212
 20
30.658327332
 11
151.1924917523
 21
30.6905916353
 12
150.2096793212
 22
30.6260631011
 13
150.2096793212
 23
30.6260631011
  0
SOLID
  8
0
 62
7
  6
CONTINUOUS
 10
151.1924917523
 20
30.6905916353
 11
150.9612418074
 21
30.6260631011
 12
150.2096793212
 22
30.6260631011
 13
150.2096793212
 23
30.6260631011
  0
SOLID
  8
0
 62
7
  6
CONTINUOUS
 10
150.5565542799
 20
30.5938002419
 11
150.2096793212
 21
30.6260631011
 12
150.9612418074
 22
30.6260631011
 13
150.9612418074
 23
30.6260631011
  0
SOLID
  8
0
 62
7
  6
CONTINUOUS
 10
154.0253041972
 20
30.7551187255
 11
154.2565543074
 21
30.8519086025
 12
154.3143669177
 22
30.7873815123
 13
154.3143669177
 23
30.7873815123
  0
SOLID
  8
0
 62
7
  6
CONTINUOUS
 10
154.3143669177
 20
30.7873815123
 11
154.5456166972
 21
30.7228544222
 12
154.0253041972
 22
30.7551187255
 13
154.0253041972
 23
30.7551187255
  0
SOLID
  8
0
 62
7
  6
CONTINUOUS
 10
154.1987416972
 20
30.658327332
 11
154.0253041972
 21
30.7551187255
 12
154.5456166972
 22
30.7228544222
 13
154.5456166972
 23
30.7228544222
  0
SOLID
  8
0
 62
7
  6
CONTINUOUS
 10
154.8924916972
 20
30.7228544637
 11
155.1815540869
 21
30.7873815123
 12
155.412804528
 22
30.7551187255
 13
155.412804528
 23
30.7551187255
  0
SOLID
  8
0
 62
7
  6
CONTINUOUS
 10
155.412804528
 20
30.7551187255
 11
155.3549915869
 21
30.6905916353
 12
154.8924916972
 22
30.7228544637
 13
154.8924916972
 23
30.7228544637
  0
SOLID
  8
0
 62
7
  6
CONTINUOUS
 10
155.3549915869
 20
30.6905916353
 11
154.1987416972
 21
30.658327332
 12
154.8924916972
 22
30.7228544637
 13
154.8924916972
 23
30.7228544637
  0
SOLID
  8
0
 62
7
  6
CONTINUOUS
 10
154.1987416972
 20
30.658327332
 11
154.5456166972
 21
30.7228544637
 12
154.8924916972
 22
30.7228544637
 13
154.8924916972
 23
30.7228544637
  0
SOLID
  8
0
 62
7
  6
CONTINUOUS
 10
154.1987416972
 20
30.658327332
 11
155.3549915869
 21
30.6905916353
 12
154.3143669177
 22
30.6260630541
 13
154.3143669177
 23
30.6260630541
  0
SOLID
  8
0
 62
7
  6
CONTINUOUS
 10
155.3549915869
 20
30.6905916353
 11
155.1815540869
 21
30.6260630541
 12
154.3143669177
 22
30.6260630541
 13
154.3143669177
 23
30.6260630541
  0
SOLID
  8
0
 62
7
  6
CONTINUOUS
 10
154.5456166972
 20
30.5938002188
 11
154.3143669177
 21
30.6260630541
 12
155.1815540869
 22
30.6260630541
 13
155.1815540869
 23
30.6260630541
  0
SOLID
  8
0
 62
7
  6
CONTINUOUS
 10
155.1815540869
 20
30.6260630541
 11
154.8924916972
 21
30.5938002188
 12
154.5456166972
 22
30.5938002188
 13
154.5456166972
 23
30.5938002188
  0
SOLID
  8
0
 62
7
  6
CONTINUOUS
 10
159.575304528
 20
30.7551187255
 11
159.228429528
 21
30.7228544637
 12
159.4596793074
 22
30.7873815123
 13
159.4596793074
 23
30.7873815123
  0
SOLID
  8
0
 62
7
  6
CONTINUOUS
 10
159.4596793074
 20
30.7873815123
 11
159.228429528
 21
30.7228544637
 12
159.401867028
 22
30.851908644
 13
159.401867028
 23
30.851908644
  0
SOLID
  8
0
 62
7
  6
CONTINUOUS
 10
159.228429528
 20
30.7228544637
 11
159.1128043074
 21
30.851908644
 12
159.401867028
 22
30.851908644
 13
159.401867028
 23
30.851908644
  0
SOLID
  8
0
 62
7
  6
CONTINUOUS
 10
159.575304528
 20
30.7551187255
 11
159.922179528
 21
30.7228544637
 12
159.228429528
 22
30.7228544637
 13
159.228429528
 23
30.7228544637
  0
SOLID
  8
0
 62
7
  6
CONTINUOUS
 10
156.279992028
 20
30.5938002419
 11
156.279992028
 21
31.6262382337
 12
156.5690540869
 22
30.5938002419
 13
156.5690540869
 23
31.6262382337
  0
ENDBLK
  8
0
  6
BYBLOCK
 62
0
  0
BLOCK
  8
0
 62
2
  6
CONTINUOUS
  2
AMMEAAL_LOGO_BL0
 70
64
 10
32.1213064866
 20
19.8534310916
  0
TEXT
  8
0
 62
7
  6
CONTINUOUS
 10
18.3860103289
 20
19.2268451992
  7
TEXTSTYLE_3
 40
2.7338706658
  1
Ammeraal Beltech
 41
1.0
 51
15.0
 72
0
  0
TEXT
  8
0
 62
7
  6
CONTINUOUS
 10
29.1868111546
 20
16.9533085264
  7
TEXTSTYLE_4
 40
1.0935482663
  1
Innovation & Service in Belting
 41
1.0
 72
0
  0
LINE
  8
0
 62
7
  6
CONTINUOUS
 10
12.3614696776
 20
19.9934385078
 11
13.1396216709
 21
23.6543558055
  0
LINE
  8
0
 62
7
  6
CONTINUOUS
 10
23.2347899607
 20
27.3177497171
 11
13.6274394139
 21
24.1961322958
  0
LINE
  8
0
 62
7
  6
CONTINUOUS
 10
12.5867530099
 20
19.3000877048
 11
20.093828271
 21
12.5406867788
  0
LINE
  8
0
 62
7
  6
CONTINUOUS
 10
12.8492874206
 20
20.5352149982
 11
23.6575567857
 21
24.0470345971
  0
LINE
  8
0
 62
7
  6
CONTINUOUS
 10
23.6533516486
 20
13.6972460334
 11
15.2078919798
 21
21.3015720751
  0
LINE
  8
0
 62
7
  6
CONTINUOUS
 10
24.1731743684
 20
26.4728246013
 11
23.1966148312
 21
21.8784731989
  0
LINE
  8
0
 62
7
  6
CONTINUOUS
 10
22.4968128835
 20
18.5861638851
 11
21.810364672
 21
15.3566789607
  0
LINE
  8
0
 62
7
  6
CONTINUOUS
 10
24.8542704669
 20
14.087448211
 11
25.8105020025
 21
18.5861638851
  0
LINE
  8
0
 62
7
  6
CONTINUOUS
 10
26.5103039502
 20
21.8784731989
 11
26.9545457526
 21
23.9684665583
  0
LINE
  8
0
 62
7
  6
CONTINUOUS
 10
20.8069293463
 20
12.3891124661
 11
24.3664527239
 21
13.5456717207
  0
LINE
  8
0
 62
7
  6
CONTINUOUS
 10
23.9478910361
 20
27.1661754044
 11
26.7292624203
 21
24.6618173613
  0
ARC
  8
0
 62
7
  6
CONTINUOUS
 10
13.8527227462
 20
23.5027814928
 40
0.7290321776
 50
108.0
 51
168.0
  0
ARC
  8
0
 62
7
  6
CONTINUOUS
 10
23.4600732931
 20
26.624398914
 40
0.7290321776
 50
348.0
 51
108.0
  0
ARC
  8
0
 62
7
  6
CONTINUOUS
 10
26.2414446773
 20
24.120040871
 40
0.7290321776
 50
348.0
 51
48.0
  0
ARC
  8
0
 62
7
  6
CONTINUOUS
 10
20.581646014
 20
13.0824632691
 40
0.7290321776
 50
228.0
 51
288.0
  0
ARC
  8
0
 62
7
  6
CONTINUOUS
 10
13.0745707529
 20
19.8418641951
 40
0.7290321776
 50
108.0
 51
228.0
  0
ARC
  8
0
 62
7
  6
CONTINUOUS
 10
24.1411693916
 20
14.2390225237
 40
0.7290321776
 50
228.0
 51
348.0
  0
ENDBLK
  8
0
  6
BYBLOCK
 62
0
  0
ENDSEC
  0
SECTION
  2
ENTITIES
  0
TEXT
  8
0
 62
5
  6
CONTINUOUS
 10
96.0
 20
25.636
  7
TEXTSTYLE_2
 40
2.8
  1
Scale :
 41
0.6
 51
0.000019
 72
0
  0
TEXT
  8
0
 62
5
  6
CONTINUOUS
 10
116.0
 20
25.636
  7
TEXTSTYLE_2
 40
2.8
  1
Belt type:
 41
0.6
 51
0.000019
 72
0
  0
INSERT
  8
0
 62
2
  6
CONTINUOUS
  2
AMMEAAL_LOGO_BL0
 10
32.1213064866
 20
19.8534310916
  0
INSERT
  8
0
 62
2
  6
CONTINUOUS
  2
UNI_LOGO2_BL1
 10
173.5956734183
 20
35.5937998301
  0
LINE
  8
0
 62
2
  6
CONTINUOUS
 10
10.0
 20
30.0
 11
200.0
 21
30.0
  0
LINE
  8
0
 62
2
  6
CONTINUOUS
 10
10.0
 20
30.0
 11
10.0
 21
10.0
  0
LINE
  8
0
 62
2
  6
CONTINUOUS
 10
10.0
 20
10.0
 11
200.0
 21
10.0
  0
LINE
  8
0
 62
2
  6
CONTINUOUS
 10
95.0
 20
30.0
 11
95.0
 21
10.0
  0
LINE
  8
0
 62
2
  6
CONTINUOUS
 10
115.0
 20
30.0
 11
115.0
 21
10.0
  0
LINE
  8
0
 62
2
  6
CONTINUOUS
 10
200.0
 20
30.0
 11
200.0
 21
10.0
  0
TEXT
  8
0
 62
5
  6
CONTINUOUS
 10
13.0
 20
23.303
  7
TEXTSTYLE_5
 40
1.52
  1
                                                                     Ammeraal Beltech Modular A/S
 41
1.0
 72
0
  0
TEXT
  8
0
 62
5
  6
CONTINUOUS
 10
13.0
 20
20.595
  7
TEXTSTYLE_5
 40
1.5
  1
                                                                      Hjulmagervej 21,  7100 Vejle,  DK
 41
1.0
 72
0
  0
TEXT
  8
0
 62
5
  6
CONTINUOUS
 10
13.0
 20
17.881
  7
TEXTSTYLE_5
 40
1.495
  1
                                                                      tel: 
 41
1.0
 72
0
  0
TEXT
  8
0
 62
5
  6
CONTINUOUS
 10
57.9869465649
 20
17.881
  7
TEXTSTYLE_5
 40
1.51
  1
+45 75723100     fax: +45 75723348
 41
1.0
 72
0
  0
TEXT
  8
0
 62
5
  6
CONTINUOUS
 10
13.0
 20
15.177
  7
TEXTSTYLE_5
 40
1.5
  1
                                                                      admin@unichains.dk  www.unichains.com
 41
1.0
 72
0
  0
TEXT
  8
0
 62
5
  6
CONTINUOUS
 10
99.75
 20
13.75
  7
TEXTSTYLE_6
 40
5.0
  1
1:1
 41
0.7
 72
1
 11
105.0
 21
13.75
  0
TEXT
  8
0
 62
5
  6
CONTINUOUS
 10
118.0
 20
13.75
  7
TEXTSTYLE_7
 40
7.5
  1
Z10
 41
0.6222222222
 72
0
  0
LINE
  8
0
 62
7
  6
CONTINUOUS
 10
210.0
 20
0.0
 11
0.0
 21
0.0
  0
LINE
  8
0
 62
7
  6
CONTINUOUS
 10
10.0
 20
10.0
 11
200.0
 21
10.0
  0
LINE
  8
0
 62
7
  6
CONTINUOUS
 10
10.0
 20
30.0
 11
200.0
 21
30.0
  0
LINE
  8
0
 62
7
  6
CONTINUOUS
 10
0.0
 20
0.0
 11
0.0
 21
297.0
  0
LINE
  8
0
 62
7
  6
CONTINUOUS
 10
10.0
 20
10.0
 11
10.0
 21
287.0
  0
LINE
  8
0
 62
7
  6
CONTINUOUS
 10
200.0
 20
287.0
 11
200.0
 21
10.0
  0
LINE
  8
0
 62
7
  6
CONTINUOUS
 10
210.0
 20
0.0
 11
210.0
 21
297.0
  0
LINE
  8
0
 62
7
  6
CONTINUOUS
 10
10.0
 20
287.0
 11
200.0
 21
287.0
  0
LINE
  8
0
 62
7
  6
CONTINUOUS
 10
0.0
 20
297.0
 11
210.0
 21
297.0
  0
LINE
  8
0
 62
7
  6
CONTINUOUS
 10
56.6889545698
 20
228.7777590446
 11
56.5563168703
 21
228.3686919929
  0
LINE
  8
0
 62
7
  6
CONTINUOUS
 10
56.9160514885
 20
228.1413852136
 11
57.048689188
 21
228.5504522653
  0
LINE
  8
0
 62
7
  6
CONTINUOUS
 10
55.2533880257
 20
226.4086154226
 11
55.0108659996
 21
225.947691859
  0
LINE
  8
0
 62
7
  6
CONTINUOUS
 10
54.0407781206
 20
224.1039980334
 11
53.7982561465
 21
223.6430745688
  0
LINE
  8
0
 62
7
  6
CONTINUOUS
 10
56.9115259239
 20
229.1299994015
 11
56.6889545698
 21
228.7777590446
  0
LINE
  8
0
 62
7
  6
CONTINUOUS
 10
56.1881692621
 20
227.9852186195
 11
55.9099551491
 21
227.5449182993
  0
LINE
  8
0
 62
7
  6
CONTINUOUS
 10
68.1900438316
 20
242.8176526038
 11
68.3721564604
 21
243.0929861758
  0
LINE
  8
0
 62
7
  6
CONTINUOUS
 10
57.0495834364
 20
232.1768517473
 11
56.7492679182
 21
231.751319441
  0
LINE
  8
0
 62
7
  6
CONTINUOUS
 10
57.1838542173
 20
231.4446141505
 11
57.4841697355
 21
231.8701464568
  0
LINE
  8
0
 62
7
  6
CONTINUOUS
 10
58.3533425772
 20
231.256735704
 11
58.053027059
 21
230.8312033977
  0
LINE
  8
0
 62
7
  6
CONTINUOUS
 10
67.9816574657
 20
243.5978966747
 11
67.7171456101
 21
243.2588353424
  0
LINE
  8
0
 62
7
  6
CONTINUOUS
 10
61.6281590402
 20
237.799653827
 11
61.1913084843
 21
237.3526788928
  0
LINE
  8
0
 62
7
  6
CONTINUOUS
 10
57.048689188
 20
228.5504522653
 11
57.3611941966
 21
228.8458659274
  0
LINE
  8
0
 62
7
  6
CONTINUOUS
 10
67.5534240927
 20
239.8066132498
 11
66.46325222
 21
238.83797371
  0
LINE
  8
0
 62
7
  6
CONTINUOUS
 10
66.8165553562
 20
238.4403426762
 11
67.9067272289
 21
239.408982216
  0
LINE
  8
0
 62
7
  6
CONTINUOUS
 10
68.393649828
 20
243.9165325589
 11
67.9816574657
 21
243.5978966747
  0
LINE
  8
0
 62
7
  6
CONTINUOUS
 10
68.3721564604
 20
243.0929861758
 11
68.8665480495
 21
243.4753498203
  0
LINE
  8
0
 62
7
  6
CONTINUOUS
 10
69.6863554674
 20
243.4369547157
 11
70.1807470565
 21
243.8193183602
  0
LINE
  8
0
 62
7
  6
CONTINUOUS
 10
69.7777125526
 20
242.2972250872
 11
69.2833209635
 21
241.9148614427
  0
LINE
  8
0
 62
7
  6
CONTINUOUS
 10
69.6738199581
 20
241.4099509438
 11
70.1682115472
 21
241.7923145883
  0
LINE
  8
0
 62
7
  6
CONTINUOUS
 10
69.370498765
 20
240.0994636004
 11
68.8761071759
 21
239.7170999559
  0
LINE
  8
0
 62
7
  6
CONTINUOUS
 10
74.3170425749
 20
247.9169512338
 11
73.787985479
 21
247.5841996909
  0
LINE
  8
0
 62
7
  6
CONTINUOUS
 10
71.5835802402
 20
246.1977345057
 11
70.7899945964
 21
245.6986071913
  0
LINE
  8
0
 62
7
  6
CONTINUOUS
 10
77.7061722587
 20
249.6784426291
 11
75.4711266284
 21
248.5583662788
  0
LINE
  8
0
 62
7
  6
CONTINUOUS
 10
76.3158649424
 20
248.2677354862
 11
78.0852767769
 21
249.1544629529
  0
LINE
  8
0
 62
7
  6
CONTINUOUS
 10
78.7525563587
 20
247.8229462995
 11
76.9831445242
 21
246.9362188328
  0
LINE
  8
0
 62
7
  6
CONTINUOUS
 10
77.2691214306
 20
246.3655689527
 11
79.0385332651
 21
247.2522964193
  0
LINE
  8
0
 62
7
  6
CONTINUOUS
 10
68.870727242
 20
244.1510181519
 11
68.393649828
 21
243.9165325589
  0
LINE
  8
0
 62
7
  6
CONTINUOUS
 10
70.2547880806
 20
242.5317092216
 11
69.7777125526
 21
242.2972250872
  0
LINE
  8
0
 62
7
  6
CONTINUOUS
 10
94.2620616131
 20
254.0848204171
 11
94.7646738586
 21
254.257916679
  0
LINE
  8
0
 62
7
  6
CONTINUOUS
 10
68.8665480495
 20
243.4753498203
 11
69.1788270098
 21
243.5823798928
  0
LINE
  8
0
 62
7
  6
CONTINUOUS
 10
94.6956213229
 20
254.785330306
 11
94.0897207445
 21
254.5987108415
  0
LINE
  8
0
 62
7
  6
CONTINUOUS
 10
56.5563168703
 20
228.3686919929
 11
56.5692559027
 21
227.9908587135
  0
LINE
  8
0
 62
7
  6
CONTINUOUS
 10
56.9289905209
 20
227.7635519342
 11
56.9160514885
 21
228.1413852136
  0
LINE
  8
0
 62
7
  6
CONTINUOUS
 10
57.6868721706
 20
223.9511399396
 11
57.6897349402
 21
224.1850458206
  0
LINE
  8
0
 62
7
  6
CONTINUOUS
 10
57.3102878714
 20
224.1492855639
 11
57.2104164271
 21
223.7310104555
  0
LINE
  8
0
 62
7
  6
CONTINUOUS
 10
57.5870007016
 20
223.5328648442
 11
57.6868721706
 21
223.9511399396
  0
LINE
  8
0
 62
7
  6
CONTINUOUS
 10
68.0730143686
 20
242.4581672819
 11
68.1900438316
 21
242.8176526038
  0
LINE
  8
0
 62
7
  6
CONTINUOUS
 10
67.7171456101
 20
243.2588353424
 11
67.5177188062
 21
242.8356237188
  0
LINE
  8
0
 62
7
  6
CONTINUOUS
 10
71.8818674016
 20
240.4279152478
 11
72.0812960743
 21
240.8511283521
  0
LINE
  8
0
 62
7
  6
CONTINUOUS
 10
57.2104164271
 20
223.7310104555
 11
57.0163988201
 21
223.362271631
  0
LINE
  8
0
 62
7
  6
CONTINUOUS
 10
57.3929830946
 20
223.1641260197
 11
57.5870007016
 21
223.5328648442
  0
LINE
  8
0
 62
7
  6
CONTINUOUS
 10
58.1205490342
 20
224.5468964466
 11
58.3630710603
 21
225.0078200102
  0
LINE
  8
0
 62
7
  6
CONTINUOUS
 10
58.7878323465
 20
225.7264639059
 11
59.0660464594
 21
226.1667642261
  0
LINE
  8
0
 62
7
  6
CONTINUOUS
 10
60.067617075
 20
227.7518450764
 11
60.3458310288
 21
228.1921451446
  0
LINE
  8
0
 62
7
  6
CONTINUOUS
 10
60.8343796168
 20
228.8682893667
 11
61.134695135
 21
229.293821673
  0
LINE
  8
0
 62
7
  6
CONTINUOUS
 10
79.4543062195
 20
247.817640447
 11
79.5928964938
 21
248.0060881001
  0
LINE
  8
0
 62
7
  6
CONTINUOUS
 10
71.4089710262
 20
240.8690994966
 11
71.1444591706
 21
240.5300381643
  0
LINE
  8
0
 62
7
  6
CONTINUOUS
 10
71.5349582108
 20
240.0251276064
 11
71.8818674016
 21
240.4279152478
  0
LINE
  8
0
 62
7
  6
CONTINUOUS
 10
57.1048194536
 20
222.844923664
 11
57.3929830946
 21
223.1641260197
  0
LINE
  8
0
 62
7
  6
CONTINUOUS
 10
66.9317262553
 20
236.9858692983
 11
64.7474734758
 21
234.7509946273
  0
LINE
  8
0
 62
7
  6
CONTINUOUS
 10
64.767107958
 20
233.8578744456
 11
67.3882112934
 21
236.5397240509
  0
LINE
  8
0
 62
7
  6
CONTINUOUS
 10
78.9842742447
 20
248.0580641566
 11
78.7525563587
 21
247.8229462995
  0
LINE
  8
0
 62
7
  6
CONTINUOUS
 10
79.9851935173
 20
246.0607893763
 11
79.7534756312
 21
245.8256715192
  0
LINE
  8
0
 62
7
  6
CONTINUOUS
 10
93.9798270846
 20
253.8332865968
 11
94.2620616131
 21
254.0848204171
  0
LINE
  8
0
 62
7
  6
CONTINUOUS
 10
94.0897207445
 20
254.5987108415
 11
93.6147295133
 21
254.2146491288
  0
LINE
  8
0
 62
7
  6
CONTINUOUS
 10
57.1683880144
 20
229.3373528484
 11
56.9115259239
 21
229.1299994015
  0
LINE
  8
0
 62
7
  6
CONTINUOUS
 10
79.9463249592
 20
245.2083513684
 11
80.3642980646
 21
245.5368096419
  0
LINE
  8
0
 62
7
  6
CONTINUOUS
 10
71.1444591706
 20
240.5300381643
 11
70.4852710138
 21
240.0202204578
  0
LINE
  8
0
 62
7
  6
CONTINUOUS
 10
70.875770054
 20
239.5153099
 11
71.5349582108
 21
240.0251276064
  0
LINE
  8
0
 62
7
  6
CONTINUOUS
 10
57.0163988201
 20
223.362271631
 11
56.634089094
 21
223.0926056868
  0
LINE
  8
0
 62
7
  6
CONTINUOUS
 10
73.4520069397
 20
241.4661504244
 11
73.9810640356
 21
241.7989019673
  0
LINE
  8
0
 62
7
  6
CONTINUOUS
 10
76.1854692744
 20
243.1853671525
 11
76.9790549182
 21
243.6844944669
  0
LINE
  8
0
 62
7
  6
CONTINUOUS
 10
57.3611941966
 20
228.8458659274
 11
57.562413369
 21
228.9651591591
  0
LINE
  8
0
 62
7
  6
CONTINUOUS
 10
79.7534756312
 20
245.8256715192
 11
77.9840637967
 21
244.9389440525
  0
LINE
  8
0
 62
7
  6
CONTINUOUS
 10
77.7112793289
 20
244.0882750182
 11
79.9463249592
 21
245.2083513684
  0
LINE
  8
0
 62
7
  6
CONTINUOUS
 10
70.3986926343
 20
239.2808243144
 11
70.875770054
 21
239.5153099
  0
LINE
  8
0
 62
7
  6
CONTINUOUS
 10
57.5151837594
 20
229.4878796005
 11
57.1683880144
 21
229.3373528484
  0
LINE
  8
0
 62
7
  6
CONTINUOUS
 10
70.1682115472
 20
241.7923145883
 11
70.5628897344
 21
241.963072421
  0
LINE
  8
0
 62
7
  6
CONTINUOUS
 10
69.279141771
 20
241.2391931111
 11
69.6738199581
 21
241.4099509438
  0
LINE
  8
0
 62
7
  6
CONTINUOUS
 10
70.4852710138
 20
240.0202204578
 11
70.0905928266
 21
239.8494626251
  0
LINE
  8
0
 62
7
  6
CONTINUOUS
 10
95.7782796638
 20
250.5281522033
 11
95.2756626902
 21
250.3550553223
  0
LINE
  8
0
 62
7
  6
CONTINUOUS
 10
69.2833209635
 20
241.9148614427
 11
68.9710420032
 21
241.8078313702
  0
LINE
  8
0
 62
7
  6
CONTINUOUS
 10
95.3447152356
 20
249.8276416215
 11
95.9506158128
 21
250.0142610952
  0
LINE
  8
0
 62
7
  6
CONTINUOUS
 10
67.5177188062
 20
242.8356237188
 11
67.4484564479
 21
242.244107137
  0
LINE
  8
0
 62
7
  6
CONTINUOUS
 10
79.0752017013
 20
248.3416201231
 11
78.9842742447
 21
248.0580641566
  0
LINE
  8
0
 62
7
  6
CONTINUOUS
 10
71.5260004436
 20
241.2285848774
 11
71.4089710262
 21
240.8690994966
  0
LINE
  8
0
 62
7
  6
CONTINUOUS
 10
80.3642980646
 20
245.5368096419
 11
80.593815783
 21
246.0088132865
  0
LINE
  8
0
 62
7
  6
CONTINUOUS
 10
87.0353934511
 20
248.6998643864
 11
89.494219105
 21
253.1248402611
  0
LINE
  8
0
 62
7
  6
CONTINUOUS
 10
88.9356567218
 20
253.192267427
 11
86.376375779
 21
248.7397398145
  0
LINE
  8
0
 62
7
  6
CONTINUOUS
 10
93.6147295133
 20
254.2146491288
 11
93.3463054919
 21
253.8576325831
  0
LINE
  8
0
 62
7
  6
CONTINUOUS
 10
96.0605141923
 20
250.7796860237
 11
95.7782796638
 21
250.5281522033
  0
LINE
  8
0
 62
7
  6
CONTINUOUS
 10
95.9506158128
 20
250.0142610952
 11
96.4256117684
 21
250.3983234547
  0
LINE
  8
0
 62
7
  6
CONTINUOUS
 10
56.7710141028
 20
222.6674423557
 11
57.1048194536
 21
222.844923664
  0
LINE
  8
0
 62
7
  6
CONTINUOUS
 10
121.8192013089
 20
249.5602608521
 11
121.5489530966
 21
249.4352061215
  0
LINE
  8
0
 62
7
  6
CONTINUOUS
 10
121.4199906353
 20
248.8014521337
 11
121.9227556306
 21
248.952094642
  0
LINE
  8
0
 62
7
  6
CONTINUOUS
 10
56.5692559027
 20
227.9908587135
 11
56.6378375348
 21
227.7010851454
  0
LINE
  8
0
 62
7
  6
CONTINUOUS
 10
56.997572153
 20
227.4737783661
 11
56.9289905209
 21
227.7635519342
  0
LINE
  8
0
 62
7
  6
CONTINUOUS
 10
57.2675089385
 20
224.5249124463
 11
57.3102878714
 21
224.1492855639
  0
LINE
  8
0
 62
7
  6
CONTINUOUS
 10
72.0812960743
 20
240.8511283521
 11
72.1505584098
 21
241.4426449634
  0
LINE
  8
0
 62
7
  6
CONTINUOUS
 10
79.5928964938
 20
248.0060881001
 11
79.6816259266
 21
248.5265308973
  0
LINE
  8
0
 62
7
  6
CONTINUOUS
 10
80.0761209404
 20
246.3443454094
 11
79.9851935173
 21
246.0607893763
  0
LINE
  8
0
 62
7
  6
CONTINUOUS
 10
93.6495462903
 20
253.1462983768
 11
93.9798270846
 21
253.8332865968
  0
LINE
  8
0
 62
7
  6
CONTINUOUS
 10
91.078539715
 20
254.1885382353
 11
90.6112579272
 21
253.3359995743
  0
LINE
  8
0
 62
7
  6
CONTINUOUS
 10
90.7777123509
 20
252.5013721713
 11
91.2449940804
 21
253.3539111246
  0
LINE
  8
0
 62
7
  6
CONTINUOUS
 10
96.4256117684
 20
250.3983234547
 11
96.694035785
 21
250.7553400373
  0
LINE
  8
0
 62
7
  6
CONTINUOUS
 10
121.9227556306
 20
248.952094642
 11
122.3658526907
 21
249.2391462274
  0
LINE
  8
0
 62
7
  6
CONTINUOUS
 10
129.2377417335
 20
246.5981877488
 11
129.5830122035
 21
246.7595747834
  0
LINE
  8
0
 62
7
  6
CONTINUOUS
 10
129.5417707929
 20
247.2859138029
 11
129.0519003503
 21
247.0890367681
  0
LINE
  8
0
 62
7
  6
CONTINUOUS
 10
56.3430627094
 20
222.5394974996
 11
56.7710141028
 21
222.6674423557
  0
LINE
  8
0
 62
7
  6
CONTINUOUS
 10
57.6897349402
 20
224.1850458206
 11
57.5528098281
 21
224.6102089956
  0
LINE
  8
0
 62
7
  6
CONTINUOUS
 10
71.495547514
 20
241.6084941888
 11
71.5260004436
 21
241.2285848774
  0
LINE
  8
0
 62
7
  6
CONTINUOUS
 10
80.593815783
 20
246.0088132865
 11
80.6825451991
 21
246.529256117
  0
LINE
  8
0
 62
7
  6
CONTINUOUS
 10
93.3463054919
 20
253.8576325831
 11
93.1949755825
 21
253.4086558955
  0
LINE
  8
0
 62
7
  6
CONTINUOUS
 10
96.3907902875
 20
251.4666734029
 11
96.0605141923
 21
250.7796860237
  0
LINE
  8
DEFAULT_3
 62
2
  6
PHANTOM
 10
83.7882835441
 20
212.7503969053
 11
89.3360122335
 21
218.2981255948
  0
LINE
  8
0
 62
7
  6
CONTINUOUS
 10
129.871701842
 20
243.0752012668
 11
129.5264313326
 21
242.913814169
  0
LINE
  8
0
 62
7
  6
CONTINUOUS
 10
129.5676727236
 20
242.3874751178
 11
130.0575431859
 21
242.5843521843
  0
LINE
  8
DEFAULT_3
 62
2
  6
PHANTOM
 10
83.7882835441
 20
187.7511126475
 11
89.3360122335
 21
182.203383958
  0
LINE
  8
0
 62
7
  6
CONTINUOUS
 10
57.0820794602
 20
224.8578910228
 11
57.2675089385
 21
224.5249124463
  0
LINE
  8
0
 62
7
  6
CONTINUOUS
 10
93.1949755825
 20
253.4086558955
 11
93.1331235377
 21
253.0786848403
  0
LINE
  8
0
 62
7
  6
CONTINUOUS
 10
96.8453656846
 20
251.2043167988
 11
96.9072177681
 21
251.5342875585
  0
LINE
  8
0
 62
7
  6
CONTINUOUS
 10
96.694035785
 20
250.7553400373
 11
96.8453656846
 21
251.2043167988
  0
LINE
  8
0
 62
7
  6
CONTINUOUS
 10
122.0297771277
 20
249.8217263508
 11
121.8192013089
 21
249.5602608521
  0
LINE
  8
0
 62
7
  6
CONTINUOUS
 10
122.3658526907
 20
249.2391462274
 11
122.5764285096
 21
249.5006117261
  0
LINE
  8
0
 62
7
  6
CONTINUOUS
 10
123.9204847368
 20
247.0080982909
 11
126.0344030931
 21
249.1669395436
  0
LINE
  8
0
 62
7
  6
CONTINUOUS
 10
122.6989132249
 20
245.7133896581
 11
123.6384310477
 21
246.6728753195
  0
LINE
  8
0
 62
7
  6
CONTINUOUS
 10
125.8496177743
 20
249.7331069337
 11
122.1387132537
 21
245.9905195775
  0
LINE
  8
DEFAULT_3
 62
2
  6
PHANTOM
 10
97.70334968
 20
224.4027213414
 11
93.4607089928
 21
220.1600806543
  0
LINE
  8
DEFAULT_3
 62
2
  6
PHANTOM
 10
77.6836877974
 20
204.3830594589
 11
81.9263284845
 21
208.625700146
  0
LINE
  8
0
 62
7
  6
CONTINUOUS
 10
128.9809843458
 20
246.3818934817
 11
129.2377417335
 21
246.5981877488
  0
LINE
  8
0
 62
7
  6
CONTINUOUS
 10
128.0837262031
 20
244.9354612464
 11
128.3404835122
 21
245.1517553869
  0
LINE
  8
0
 62
7
  6
CONTINUOUS
 10
130.1284590726
 20
243.2914952807
 11
129.871701842
 21
243.0752012668
  0
LINE
  8
0
 62
7
  6
CONTINUOUS
 10
129.0519003503
 20
247.0890367681
 11
128.5944724651
 21
246.7468454667
  0
LINE
  8
0
 62
7
  6
CONTINUOUS
 10
130.0575431859
 20
242.5843521843
 11
130.5149709532
 21
242.9265432957
  0
LINE
  8
DEFAULT_3
 62
2
  6
PHANTOM
 10
93.4607089928
 20
180.3414288985
 11
97.70334968
 21
176.0987882114
  0
LINE
  8
DEFAULT_3
 62
2
  6
PHANTOM
 10
81.9263284845
 20
191.8758094068
 11
77.6836877974
 21
196.1184500939
  0
LINE
  8
0
 62
7
  6
CONTINUOUS
 10
67.4484564479
 20
242.244107137
 11
67.6263898842
 21
241.8437723775
  0
LINE
  8
0
 62
7
  6
CONTINUOUS
 10
68.1858648214
 20
242.1419840364
 11
68.0730143686
 21
242.4581672819
  0
LINE
  8
0
 62
7
  6
CONTINUOUS
 10
72.1505584098
 20
241.4426449634
 11
72.0550222689
 21
241.9067060835
  0
LINE
  8
0
 62
7
  6
CONTINUOUS
 10
79.0253408599
 20
248.6736152672
 11
79.0752017013
 21
248.3416201231
  0
LINE
  8
0
 62
7
  6
CONTINUOUS
 10
79.6816259266
 20
248.5265308973
 11
79.6317650852
 21
248.8585260414
  0
LINE
  8
0
 62
7
  6
CONTINUOUS
 10
80.026260099
 20
246.6763405535
 11
80.0761209404
 21
246.3443454094
  0
LINE
  8
0
 62
7
  6
CONTINUOUS
 10
80.6825451991
 20
246.529256117
 11
80.6326843243
 21
246.8612513277
  0
LINE
  8
0
 62
7
  6
CONTINUOUS
 10
92.5377100603
 20
122.1612259802
 11
92.3660784078
 21
125.4361530006
  0
LINE
  8
0
 62
7
  6
CONTINUOUS
 10
93.6291257282
 20
252.499879441
 11
93.6495462903
 21
253.1462983768
  0
LINE
  8
0
 62
7
  6
CONTINUOUS
 10
96.4112155583
 20
252.1130931056
 11
96.3907902875
 21
251.4666734029
  0
LINE
  8
0
 62
7
  6
CONTINUOUS
 10
92.3660784078
 20
275.0653565522
 11
92.5377100603
 21
278.3402835726
  0
LINE
  8
0
 62
7
  6
CONTINUOUS
 10
93.1331235377
 20
253.0786848403
 11
93.0988877405
 21
252.5377480108
  0
LINE
  8
0
 62
7
  6
CONTINUOUS
 10
96.9072177681
 20
251.5342875585
 11
96.941448818
 21
252.0752239167
  0
LINE
  8
0
 62
7
  6
CONTINUOUS
 10
48.4135860243
 20
142.5401934349
 11
50.1996869057
 21
145.2905476039
  0
LINE
  8
0
 62
7
  6
CONTINUOUS
 10
138.1495260656
 20
266.343116132
 11
140.2133327941
 21
268.8917051927
  0
LINE
  8
0
 62
7
  6
CONTINUOUS
 10
128.5944724651
 20
246.7468454667
 11
128.1134007185
 21
246.1689434256
  0
LINE
  8
0
 62
7
  6
CONTINUOUS
 10
128.5559912281
 20
245.8943934474
 11
128.9809843458
 21
246.3818934817
  0
LINE
  8
0
 62
7
  6
CONTINUOUS
 10
24.6948763442
 20
184.9626338123
 11
27.75647993
 21
186.1378733184
  0
LINE
  8
0
 62
7
  6
CONTINUOUS
 10
33.608999729
 20
168.1256694821
 11
30.4413219484
 21
167.2768927789
  0
LINE
  8
0
 62
7
  6
CONTINUOUS
 10
173.2299867764
 20
167.2768927789
 11
170.0623089959
 21
168.1256694821
  0
LINE
  8
0
 62
7
  6
CONTINUOUS
 10
27.75647993
 20
214.3636362344
 11
24.6948763442
 21
215.5388757405
  0
LINE
  8
0
 62
7
  6
CONTINUOUS
 10
140.2133327941
 20
131.6098043601
 11
138.1495260656
 21
134.1583934208
  0
LINE
  8
0
 62
7
  6
CONTINUOUS
 10
50.1996869057
 20
255.2109619489
 11
48.4135860243
 21
257.9613161179
  0
LINE
  8
AXES
 62
2
  6
CONTINUOUS
 10
101.8356543624
 20
201.1307547764
 11
101.8356543624
 21
199.3707547764
  0
LINE
  8
AXES
 62
2
  6
CENTER
 10
101.8356543624
 20
195.8507547764
 11
101.8356543624
 21
118.3507547764
  0
LINE
  8
AXES
 62
2
  6
CENTER
 10
101.8356543624
 20
204.6507547764
 11
101.8356543624
 21
282.1507547764
  0
LINE
  8
0
 62
7
  6
CONTINUOUS
 10
119.5386681567
 20
252.3594579814
 11
117.7655003108
 21
247.684431159
  0
LINE
  8
0
 62
7
  6
CONTINUOUS
 10
118.3498786636
 20
247.4627851783
 11
119.1421451592
 21
249.5516269796
  0
LINE
  8
0
 62
7
  6
CONTINUOUS
 10
119.3685069849
 20
250.1484388433
 11
119.9344116548
 21
251.640468781
  0
LINE
  8
0
 62
7
  6
CONTINUOUS
 10
128.1134007185
 20
246.1689434256
 11
127.7208503154
 21
245.5361293781
  0
LINE
  8
0
 62
7
  6
CONTINUOUS
 10
128.4438339701
 20
245.7135894339
 11
128.5559912281
 21
245.8943934474
  0
LINE
  8
0
 62
7
  6
CONTINUOUS
 10
127.9154903161
 20
244.664255226
 11
128.0837262031
 21
244.9354612464
  0
LINE
  8
AXES
 62
2
  6
CONTINUOUS
 10
102.7156543624
 20
200.2507547764
 11
100.9556543624
 21
200.2507547764
  0
LINE
  8
AXES
 62
2
  6
CENTER
 10
97.4356543624
 20
200.2507547764
 11
19.9356543624
 21
200.2507547764
  0
LINE
  8
AXES
 62
2
  6
CENTER
 10
106.2356543624
 20
200.2507547764
 11
183.7356543624
 21
200.2507547764
  0
LINE
  8
0
 62
7
  6
CONTINUOUS
 10
53.7982561465
 20
223.6430745688
 11
55.6811774863
 21
222.6523465295
  0
LINE
  8
0
 62
7
  6
CONTINUOUS
 10
55.9236994604
 20
223.1132699942
 11
54.0407781206
 21
224.1039980334
  0
LINE
  8
0
 62
7
  6
CONTINUOUS
 10
55.0108659996
 20
225.947691859
 11
57.0820794602
 21
224.8578910228
  0
LINE
  8
0
 62
7
  6
CONTINUOUS
 10
55.9099551491
 20
227.5449182993
 11
58.7878323465
 21
225.7264639059
  0
LINE
  8
0
 62
7
  6
CONTINUOUS
 10
59.0660464594
 20
226.1667642261
 11
56.997572153
 21
227.4737783661
  0
LINE
  8
0
 62
7
  6
CONTINUOUS
 10
56.6378375348
 20
227.7010851454
 11
56.1881692621
 21
227.9852186195
  0
LINE
  8
0
 62
7
  6
CONTINUOUS
 10
58.3588773867
 20
228.8315524371
 11
60.067617075
 21
227.7518450764
  0
LINE
  8
0
 62
7
  6
CONTINUOUS
 10
56.7492679182
 20
231.751319441
 11
57.1838542173
 21
231.4446141505
  0
LINE
  8
0
 62
7
  6
CONTINUOUS
 10
58.053027059
 20
230.8312033977
 11
60.8343796168
 21
228.8682893667
  0
LINE
  8
0
 62
7
  6
CONTINUOUS
 10
61.134695135
 20
229.293821673
 11
58.3533425772
 21
231.256735704
  0
LINE
  8
0
 62
7
  6
CONTINUOUS
 10
57.4841697355
 20
231.8701464568
 11
57.0495834364
 21
232.1768517473
  0
LINE
  8
0
 62
7
  6
CONTINUOUS
 10
61.1913084843
 20
237.3526788928
 11
64.767107958
 21
233.8578744456
  0
LINE
  8
0
 62
7
  6
CONTINUOUS
 10
64.7474734758
 20
234.7509946273
 11
61.6281590402
 21
237.799653827
  0
LINE
  8
0
 62
7
  6
CONTINUOUS
 10
66.46325222
 20
238.83797371
 11
66.8165553562
 21
238.4403426762
  0
LINE
  8
0
 62
7
  6
CONTINUOUS
 10
67.9067272289
 20
239.408982216
 11
67.5534240927
 21
239.8066132498
  0
LINE
  8
0
 62
7
  6
CONTINUOUS
 10
67.6263898842
 20
241.8437723775
 11
67.8867227296
 21
241.5071651425
  0
LINE
  8
0
 62
7
  6
CONTINUOUS
 10
68.3160311529
 20
241.9736805368
 11
68.1858648214
 21
242.1419840364
  0
LINE
  8
0
 62
7
  6
CONTINUOUS
 10
70.7899945964
 20
245.6986071913
 11
73.4520069397
 21
241.4661504244
  0
LINE
  8
0
 62
7
  6
CONTINUOUS
 10
73.9810640356
 20
241.7989019673
 11
71.6588830147
 21
245.4910451688
  0
LINE
  8
0
 62
7
  6
CONTINUOUS
 10
75.4711266284
 20
248.5583662788
 11
77.7112793289
 21
244.0882750182
  0
LINE
  8
0
 62
7
  6
CONTINUOUS
 10
77.9840637967
 20
244.9389440525
 11
77.2691214306
 21
246.3655689527
  0
LINE
  8
0
 62
7
  6
CONTINUOUS
 10
76.9831445242
 20
246.9362188328
 11
76.3158649424
 21
248.2677354862
  0
LINE
  8
0
 62
7
  6
CONTINUOUS
 10
85.2789791736
 20
252.7409136746
 11
85.4196710284
 21
252.2279427314
  0
LINE
  8
0
 62
7
  6
CONTINUOUS
 10
86.376375779
 20
248.7397398145
 11
86.6014827664
 21
247.9189862335
  0
LINE
  8
0
 62
7
  6
CONTINUOUS
 10
90.6112579272
 20
253.3359995743
 11
90.7777123509
 21
252.5013721713
  0
LINE
  8
0
 62
7
  6
CONTINUOUS
 10
91.2449940804
 20
253.3539111246
 11
92.0564592284
 21
249.2851033754
  0
LINE
  8
0
 62
7
  6
CONTINUOUS
 10
92.6693885859
 20
249.4073433146
 11
91.6914690725
 21
254.3107781745
  0
LINE
  8
0
 62
7
  6
CONTINUOUS
 10
93.0988877405
 20
252.5377480108
 11
93.2231823047
 21
251.5884034822
  0
LINE
  8
0
 62
7
  6
CONTINUOUS
 10
93.7257992782
 20
251.7615003632
 11
93.6291257282
 21
252.499879441
  0
LINE
  8
0
 62
7
  6
CONTINUOUS
 10
122.1429581463
 20
250.1201325613
 11
122.0297771277
 21
249.8217263508
  0
LINE
  8
0
 62
7
  6
CONTINUOUS
 10
122.5764285096
 20
249.5006117261
 11
122.7273364991
 21
249.8984865805
  0
LINE
  8
0
 62
7
  6
CONTINUOUS
 10
127.7208503154
 20
245.5361293781
 11
127.4168211774
 21
244.8484031974
  0
LINE
  8
0
 62
7
  6
CONTINUOUS
 10
130.2966949596
 20
243.5627013011
 11
130.1284590726
 21
243.2914952807
  0
LINE
  8
0
 62
7
  6
CONTINUOUS
 10
130.5149709532
 20
242.9265432957
 11
130.7953641768
 21
243.3785534563
  0
LINE
  8
0
 62
7
  6
CONTINUOUS
 10
57.7011857938
 20
225.1206689576
 11
55.2533880257
 21
226.4086154226
  0
LINE
  8
0
 62
7
  6
CONTINUOUS
 10
60.3458310288
 20
228.1921451446
 11
58.6370913405
 21
229.2718525054
  0
LINE
  8
0
 62
7
  6
CONTINUOUS
 10
67.3882112934
 20
236.5397240509
 11
66.9317262553
 21
236.9858692983
  0
LINE
  8
0
 62
7
  6
CONTINUOUS
 10
71.3002980167
 20
241.8609494383
 11
71.495547514
 21
241.6084941888
  0
LINE
  8
0
 62
7
  6
CONTINUOUS
 10
72.0550222689
 20
241.9067060835
 11
71.72960644
 21
242.3274648326
  0
LINE
  8
0
 62
7
  6
CONTINUOUS
 10
73.787985479
 20
247.5841996909
 11
76.0535279065
 21
243.9821088134
  0
LINE
  8
0
 62
7
  6
CONTINUOUS
 10
76.9790549182
 20
243.6844944669
 11
74.3170425749
 21
247.9169512338
  0
LINE
  8
0
 62
7
  6
CONTINUOUS
 10
78.9300152244
 20
248.8638318939
 11
79.0253408599
 21
248.6736152672
  0
LINE
  8
0
 62
7
  6
CONTINUOUS
 10
79.8832716458
 20
246.9616654935
 11
80.026260099
 21
246.6763405535
  0
LINE
  8
0
 62
7
  6
CONTINUOUS
 10
80.6326843243
 20
246.8612513277
 11
80.3943702357
 21
247.3367928945
  0
LINE
  8
0
 62
7
  6
CONTINUOUS
 10
79.6317650852
 20
248.8585260414
 11
79.4411136807
 21
249.2389595612
  0
LINE
  8
0
 62
7
  6
CONTINUOUS
 10
93.2231823047
 20
251.5884034822
 11
93.3955231926
 21
251.07451291
  0
LINE
  8
0
 62
7
  6
CONTINUOUS
 10
93.9119459452
 20
251.1421264466
 11
93.7257992782
 21
251.7615003632
  0
LINE
  8
0
 62
7
  6
CONTINUOUS
 10
90.6197541011
 20
249.0210721405
 11
90.4509238557
 21
249.6366373442
  0
LINE
  8
0
 62
7
  6
CONTINUOUS
 10
89.494219105
 20
253.1248402611
 11
89.2972505083
 21
253.8429995816
  0
LINE
  8
0
 62
7
  6
CONTINUOUS
 10
96.3145420083
 20
252.8514721833
 11
96.4112155583
 21
252.1130931056
  0
LINE
  8
0
 62
7
  6
CONTINUOUS
 10
96.941448818
 20
252.0752239167
 11
96.8171542538
 21
253.0245684453
  0
LINE
  8
0
 62
7
  6
CONTINUOUS
 10
111.1335986645
 20
278.3402835726
 11
111.305230317
 21
275.0653565522
  0
LINE
  8
0
 62
7
  6
CONTINUOUS
 10
111.305230317
 20
125.4361530006
 11
111.1335986645
 21
122.1612259802
  0
LINE
  8
0
 62
7
  6
CONTINUOUS
 10
127.8357757726
 20
244.3381371991
 11
127.9154903161
 21
244.664255226
  0
LINE
  8
0
 62
7
  6
CONTINUOUS
 10
155.2577227005
 20
257.9613161179
 11
153.4716218192
 21
255.2109619489
  0
LINE
  8
0
 62
7
  6
CONTINUOUS
 10
65.5217826592
 20
134.1583934208
 11
63.4579759307
 21
131.6098043601
  0
LINE
  8
0
 62
7
  6
CONTINUOUS
 10
178.9764323806
 20
215.5388757405
 11
175.9148287948
 21
214.3636362344
  0
LINE
  8
0
 62
7
  6
CONTINUOUS
 10
170.0623089959
 20
232.3758400707
 11
173.2299867764
 21
233.2246167739
  0
LINE
  8
0
 62
7
  6
CONTINUOUS
 10
56.2546420433
 20
223.0568455048
 11
55.9236994604
 21
223.1132699942
  0
LINE
  8
0
 62
7
  6
CONTINUOUS
 10
55.6811774863
 20
222.6523465295
 11
56.1062661912
 21
222.5463855987
  0
LINE
  8
0
 62
7
  6
CONTINUOUS
 10
58.1262744346
 20
225.0147079449
 11
57.7011857938
 21
225.1206689576
  0
LINE
  8
0
 62
7
  6
CONTINUOUS
 10
30.4413219484
 20
233.2246167739
 11
33.608999729
 21
232.3758400707
  0
LINE
  8
0
 62
7
  6
CONTINUOUS
 10
175.9148287948
 20
186.1378733184
 11
178.9764323806
 21
184.9626338123
  0
LINE
  8
0
 62
7
  6
CONTINUOUS
 10
57.8535661959
 20
229.027625696
 11
58.3588773867
 21
228.8315524371
  0
LINE
  8
0
 62
7
  6
CONTINUOUS
 10
58.6370913405
 20
229.2718525054
 11
58.131780468
 21
229.4679262681
  0
LINE
  8
0
 62
7
  6
CONTINUOUS
 10
69.6481474892
 20
239.9107361112
 11
69.370498765
 21
240.0994636004
  0
LINE
  8
0
 62
7
  6
CONTINUOUS
 10
68.5936798771
 20
241.7849530476
 11
68.3160311529
 21
241.9736805368
  0
LINE
  8
0
 62
7
  6
CONTINUOUS
 10
68.8761071759
 20
239.7170999559
 11
69.2188390658
 21
239.4442207169
  0
LINE
  8
0
 62
7
  6
CONTINUOUS
 10
67.8867227296
 20
241.5071651425
 11
68.2294546195
 21
241.2342859035
  0
LINE
  8
0
 62
7
  6
CONTINUOUS
 10
63.4579759307
 20
268.8917051927
 11
65.5217826592
 21
266.343116132
  0
LINE
  8
0
 62
7
  6
CONTINUOUS
 10
153.4716218192
 20
145.2905476039
 11
155.2577227005
 21
142.5401934349
  0
LINE
  8
0
 62
7
  6
CONTINUOUS
 10
93.3955231926
 20
251.07451291
 11
93.5402383189
 21
250.7715873174
  0
LINE
  8
0
 62
7
  6
CONTINUOUS
 10
96.8171542538
 20
253.0245684453
 11
96.6448181132
 21
253.5384594888
  0
LINE
  8
0
 62
7
  6
CONTINUOUS
 10
96.1283906326
 20
253.4708453332
 11
96.3145420083
 21
252.8514721833
  0
LINE
  8
0
 62
7
  6
CONTINUOUS
 10
122.1587441531
 20
250.4554789262
 11
122.1429581463
 21
250.1201325613
  0
LINE
  8
0
 62
7
  6
CONTINUOUS
 10
122.7273364991
 20
249.8984865805
 11
122.7431225059
 21
250.2338329454
  0
LINE
  8
0
 62
7
  6
CONTINUOUS
 10
125.8733825778
 20
244.1429853718
 11
126.5965524939
 21
249.3635996697
  0
LINE
  8
0
 62
7
  6
CONTINUOUS
 10
125.5057657098
 20
245.7491082167
 11
125.3131826066
 21
244.4201152912
  0
LINE
  8
0
 62
7
  6
CONTINUOUS
 10
126.0344030931
 20
249.1669395436
 11
125.6010846505
 21
246.1767085327
  0
LINE
  8
0
 62
7
  6
CONTINUOUS
 10
127.4168211774
 20
244.8484031974
 11
127.3134625761
 21
244.2865741143
  0
LINE
  8
0
 62
7
  6
CONTINUOUS
 10
130.7953641768
 20
243.3785534563
 11
130.8987227388
 21
243.9403824761
  0
LINE
  8
0
 62
7
  6
CONTINUOUS
 10
130.3764095816
 20
243.8888194546
 11
130.2966949596
 21
243.5627013011
  0
LINE
  8
0
 62
7
  6
CONTINUOUS
 10
131.627745073
 20
245.1156088177
 11
131.7074596164
 21
245.4417268446
  0
LINE
  8
DEFAULT_3
 62
2
  6
PHANTOM
 10
125.9876209274
 20
196.1184500939
 11
121.7449802403
 21
191.8758094068
  0
LINE
  8
DEFAULT_3
 62
2
  6
PHANTOM
 10
105.9679590449
 20
176.0987882114
 11
110.210599732
 21
180.3414288985
  0
LINE
  8
DEFAULT_3
 62
2
  6
PHANTOM
 10
114.3352964913
 20
182.203383958
 11
119.8830251808
 21
187.7511126475
  0
LINE
  8
0
 62
7
  6
CONTINUOUS
 10
56.1062661912
 20
222.5463855987
 11
56.3430627094
 21
222.5394974996
  0
LINE
  8
0
 62
7
  6
CONTINUOUS
 10
57.5528098281
 20
224.6102089956
 11
58.1205490342
 21
224.5468964466
  0
LINE
  8
0
 62
7
  6
CONTINUOUS
 10
58.131780468
 20
229.4679262681
 11
57.8063365863
 21
229.5503461374
  0
LINE
  8
0
 62
7
  6
CONTINUOUS
 10
70.1807470565
 20
243.8193183602
 11
69.9030983324
 21
244.0080458494
  0
LINE
  8
DEFAULT_3
 62
2
  6
PHANTOM
 10
121.7449802403
 20
208.625700146
 11
125.9876209274
 21
204.3830594589
  0
LINE
  8
DEFAULT_3
 62
2
  6
PHANTOM
 10
110.210599732
 20
220.1600806543
 11
105.9679590449
 21
224.4027213414
  0
LINE
  8
DEFAULT_3
 62
2
  6
PHANTOM
 10
114.3352964913
 20
218.2981255948
 11
119.8830251808
 21
212.7503969053
  0
LINE
  8
0
 62
7
  6
CONTINUOUS
 10
79.6471555141
 20
247.2003203628
 11
79.8832716458
 21
246.9616654935
  0
LINE
  8
0
 62
7
  6
CONTINUOUS
 10
80.3943702357
 20
247.3367928945
 11
80.1582541039
 21
247.5754477638
  0
LINE
  8
0
 62
7
  6
CONTINUOUS
 10
78.6938990259
 20
249.1024868964
 11
78.9300152244
 21
248.8638318939
  0
LINE
  8
0
 62
7
  6
CONTINUOUS
 10
79.4411136807
 20
249.2389595612
 11
79.2049976158
 21
249.4776142973
  0
LINE
  8
0
 62
7
  6
CONTINUOUS
 10
93.5402383189
 20
250.7715873174
 11
93.802052295
 21
250.376702128
  0
LINE
  8
0
 62
7
  6
CONTINUOUS
 10
96.6448181132
 20
253.5384594888
 11
96.5001029482
 21
253.8413853769
  0
LINE
  8
0
 62
7
  6
CONTINUOUS
 10
127.3134625761
 20
244.2865741143
 11
127.3547039671
 21
243.7602350631
  0
LINE
  8
0
 62
7
  6
CONTINUOUS
 10
127.8445744294
 20
243.9571121296
 11
127.8357757726
 21
244.3381371991
  0
LINE
  8
0
 62
7
  6
CONTINUOUS
 10
131.1763477632
 20
245.7711888293
 11
131.1851464592
 21
245.3901638231
  0
LINE
  8
0
 62
7
  6
CONTINUOUS
 10
56.634089094
 20
223.0926056868
 11
56.2546420433
 21
223.0568455048
  0
LINE
  8
0
 62
7
  6
CONTINUOUS
 10
58.3630710603
 20
225.0078200102
 11
58.1262744346
 21
225.0147079449
  0
LINE
  8
0
 62
7
  6
CONTINUOUS
 10
70.9402518605
 20
241.9859507436
 11
71.3002980167
 21
241.8609494383
  0
LINE
  8
0
 62
7
  6
CONTINUOUS
 10
69.2188390658
 20
239.4442207169
 11
69.7914507576
 21
239.2146437017
  0
LINE
  8
0
 62
7
  6
CONTINUOUS
 10
71.72960644
 20
242.3274648326
 11
71.304477118
 21
242.5366178878
  0
LINE
  8
0
 62
7
  6
CONTINUOUS
 10
69.473789909
 20
243.5415304551
 11
69.6863554674
 21
243.4369547157
  0
LINE
  8
0
 62
7
  6
CONTINUOUS
 10
76.0535279065
 20
243.9821088134
 11
71.5835802402
 21
246.1977345057
  0
LINE
  8
0
 62
7
  6
CONTINUOUS
 10
71.6588830147
 20
245.4910451688
 11
76.1854692744
 21
243.1853671525
  0
LINE
  8
0
 62
7
  6
CONTINUOUS
 10
94.4079528734
 20
250.5633215924
 11
93.9119459452
 21
251.1421264466
  0
LINE
  8
0
 62
7
  6
CONTINUOUS
 10
95.6323884034
 20
254.049651028
 11
96.1283906326
 21
253.4708453332
  0
LINE
  8
0
 62
7
  6
CONTINUOUS
 10
96.5001029482
 20
253.8413853769
 11
96.2382889818
 21
254.2362704925
  0
LINE
  8
0
 62
7
  6
CONTINUOUS
 10
131.7074596164
 20
245.4417268446
 11
131.6662182059
 21
245.9680658641
  0
LINE
  8
0
 62
7
  6
CONTINUOUS
 10
128.3404835122
 20
245.1517553869
 11
128.6296753533
 21
245.2227404146
  0
LINE
  8
0
 62
7
  6
CONTINUOUS
 10
57.562413369
 20
228.9651591591
 11
57.8535661959
 21
229.027625696
  0
LINE
  8
0
 62
7
  6
CONTINUOUS
 10
57.8063365863
 20
229.5503461374
 11
57.5151837594
 21
229.4878796005
  0
LINE
  8
0
 62
7
  6
CONTINUOUS
 10
70.0905928266
 20
239.8494626251
 11
69.6481474892
 21
239.9107361112
  0
LINE
  8
0
 62
7
  6
CONTINUOUS
 10
68.2294546195
 20
241.2342859035
 11
68.819382304
 21
241.1525884868
  0
LINE
  8
0
 62
7
  6
CONTINUOUS
 10
71.304477118
 20
242.5366178878
 11
70.7145494336
 21
242.6183153045
  0
LINE
  8
0
 62
7
  6
CONTINUOUS
 10
69.9030983324
 20
244.0080458494
 11
69.3955698747
 21
244.1534710264
  0
LINE
  8
0
 62
7
  6
CONTINUOUS
 10
79.3655767866
 20
247.2971976498
 11
79.6471555141
 21
247.2003203628
  0
LINE
  8
0
 62
7
  6
CONTINUOUS
 10
80.1582541039
 20
247.5754477638
 11
79.6882221292
 21
247.8158714734
  0
LINE
  8
0
 62
7
  6
CONTINUOUS
 10
79.2049976158
 20
249.4776142973
 11
78.734965641
 21
249.718038007
  0
LINE
  8
0
 62
7
  6
CONTINUOUS
 10
93.802052295
 20
250.376702128
 11
94.153339364
 21
250.1008222844
  0
LINE
  8
0
 62
7
  6
CONTINUOUS
 10
122.7431225059
 20
250.2338329454
 11
122.6018412133
 21
250.7425305116
  0
LINE
  8
0
 62
7
  6
CONTINUOUS
 10
130.3115322566
 20
244.179442454
 11
130.3764095816
 21
243.8888194546
  0
LINE
  8
0
 62
7
  6
CONTINUOUS
 10
130.8987227388
 20
243.9403824761
 11
130.8014026992
 21
244.3763194889
  0
LINE
  8
0
 62
7
  6
CONTINUOUS
 10
69.7914507576
 20
239.2146437017
 11
70.3986926343
 21
239.2808243144
  0
LINE
  8
0
 62
7
  6
CONTINUOUS
 10
68.9710420032
 20
241.8078313702
 11
68.5936798771
 21
241.7849530476
  0
LINE
  8
0
 62
7
  6
CONTINUOUS
 10
70.5628897344
 20
241.963072421
 11
70.9402518605
 21
241.9859507436
  0
LINE
  8
0
 62
7
  6
CONTINUOUS
 10
129.5264313326
 20
242.913814169
 11
129.148718148
 21
242.8977411477
  0
LINE
  8
0
 62
7
  6
CONTINUOUS
 10
128.6296753533
 20
245.2227404146
 11
129.0073885379
 21
245.2388134359
  0
LINE
  8
0
 62
7
  6
CONTINUOUS
 10
129.1992603394
 20
245.7457354763
 11
128.4438339701
 21
245.7135894339
  0
LINE
  8
0
 62
7
  6
CONTINUOUS
 10
129.5830122035
 20
246.7595747834
 11
129.9607253881
 21
246.7756478046
  0
LINE
  8
0
 62
7
  6
CONTINUOUS
 10
69.3955698747
 20
244.1534710264
 11
68.870727242
 21
244.1510181519
  0
LINE
  8
0
 62
7
  6
CONTINUOUS
 10
128.9568382081
 20
242.390824079
 11
129.5676727236
 21
242.3874751178
  0
LINE
  8
0
 62
7
  6
CONTINUOUS
 10
69.1788270098
 20
243.5823798928
 11
69.473789909
 21
243.5415304551
  0
LINE
  8
0
 62
7
  6
CONTINUOUS
 10
78.734965641
 20
249.718038007
 11
78.2194710038
 21
249.8166842675
  0
LINE
  8
0
 62
7
  6
CONTINUOUS
 10
78.4123202984
 20
249.1993641833
 11
78.6938990259
 21
249.1024868964
  0
LINE
  8
0
 62
7
  6
CONTINUOUS
 10
94.153339364
 20
250.1008222844
 11
94.7111936417
 21
249.851987617
  0
LINE
  8
0
 62
7
  6
CONTINUOUS
 10
94.7454294305
 20
250.3929245112
 11
94.4079528734
 21
250.5633215924
  0
LINE
  8
0
 62
7
  6
CONTINUOUS
 10
95.2949118464
 20
254.2200481092
 11
95.6323884034
 21
254.049651028
  0
LINE
  8
0
 62
7
  6
CONTINUOUS
 10
96.2382889818
 20
254.2362704925
 11
95.8870019176
 21
254.5121502991
  0
LINE
  8
0
 62
7
  6
CONTINUOUS
 10
122.6018412133
 20
250.7425305116
 11
122.3254380438
 21
251.1886998669
  0
LINE
  8
0
 62
7
  6
CONTINUOUS
 10
127.3547039671
 20
243.7602350631
 11
127.629058575
 21
243.2144790408
  0
LINE
  8
0
 62
7
  6
CONTINUOUS
 10
127.997973098
 20
243.6115771236
 11
127.8445744294
 21
243.9571121296
  0
LINE
  8
0
 62
7
  6
CONTINUOUS
 10
130.158133588
 20
244.52497746
 11
130.3115322566
 21
244.179442454
  0
LINE
  8
0
 62
7
  6
CONTINUOUS
 10
131.0229490946
 20
246.1167238352
 11
131.1763477632
 21
245.7711888293
  0
LINE
  8
0
 62
7
  6
CONTINUOUS
 10
122.0394038246
 20
250.7282987713
 11
122.1587441531
 21
250.4554789262
  0
LINE
  8
0
 62
7
  6
CONTINUOUS
 10
86.6014827664
 20
247.9189862335
 11
90.6197541011
 21
249.0210721405
  0
LINE
  8
0
 62
7
  6
CONTINUOUS
 10
90.4509238557
 20
249.6366373442
 11
87.0353934511
 21
248.6998643864
  0
LINE
  8
0
 62
7
  6
CONTINUOUS
 10
92.0564592284
 20
249.2851033754
 11
92.6693885859
 21
249.4073433146
  0
LINE
  8
0
 62
7
  6
CONTINUOUS
 10
68.819382304
 20
241.1525884868
 11
69.279141771
 21
241.2391931111
  0
LINE
  8
0
 62
7
  6
CONTINUOUS
 10
70.7145494336
 20
242.6183153045
 11
70.2547880806
 21
242.5317092216
  0
LINE
  8
0
 62
7
  6
CONTINUOUS
 10
79.0385332651
 20
247.2522964193
 11
79.3655767866
 21
247.2971976498
  0
LINE
  8
0
 62
7
  6
CONTINUOUS
 10
78.0852767769
 20
249.1544629529
 11
78.4123202984
 21
249.1993641833
  0
LINE
  8
0
 62
7
  6
CONTINUOUS
 10
130.1525971896
 20
247.2825698451
 11
129.5417707929
 21
247.2859138029
  0
LINE
  8
0
 62
7
  6
CONTINUOUS
 10
79.6882221292
 20
247.8158714734
 11
79.4543062195
 21
247.817640447
  0
LINE
  8
0
 62
7
  6
CONTINUOUS
 10
121.5489530966
 20
249.4352061215
 11
121.2190369492
 21
249.4465604679
  0
LINE
  8
0
 62
7
  6
CONTINUOUS
 10
94.7111936417
 20
249.851987617
 11
95.3447152356
 21
249.8276416215
  0
LINE
  8
0
 62
7
  6
CONTINUOUS
 10
95.2756626902
 20
250.3550553223
 11
94.7454294305
 21
250.3929245112
  0
LINE
  8
0
 62
7
  6
CONTINUOUS
 10
120.8952802176
 20
248.8866890374
 11
121.4199906353
 21
248.8014521337
  0
LINE
  8
0
 62
7
  6
CONTINUOUS
 10
129.148718148
 20
242.8977411477
 11
128.8270835924
 21
242.9720701333
  0
LINE
  8
0
 62
7
  6
CONTINUOUS
 10
129.0073885379
 20
245.2388134359
 11
129.3290230935
 21
245.1644844503
  0
LINE
  8
0
 62
7
  6
CONTINUOUS
 10
129.9607253881
 20
246.7756478046
 11
130.2823599438
 21
246.7013188191
  0
LINE
  8
0
 62
7
  6
CONTINUOUS
 10
128.4581690645
 20
242.5749720425
 11
128.9568382081
 21
242.390824079
  0
LINE
  8
0
 62
7
  6
CONTINUOUS
 10
129.6979375822
 20
245.5615824778
 11
129.1992603394
 21
245.7457354763
  0
LINE
  8
0
 62
7
  6
CONTINUOUS
 10
117.7655003108
 20
247.684431159
 11
118.3498786636
 21
247.4627851783
  0
LINE
  8
0
 62
7
  6
CONTINUOUS
 10
119.1421451592
 20
249.5516269796
 11
120.8952802176
 21
248.8866890374
  0
LINE
  8
0
 62
7
  6
CONTINUOUS
 10
121.2190369492
 20
249.4465604679
 11
119.3685069849
 21
250.1484388433
  0
LINE
  8
0
 62
7
  6
CONTINUOUS
 10
95.8870019176
 20
254.5121502991
 11
95.3291429156
 21
254.7609843197
  0
LINE
  8
0
 62
7
  6
CONTINUOUS
 10
122.1387132537
 20
245.9905195775
 11
122.6989132249
 21
245.7133896581
  0
LINE
  8
0
 62
7
  6
CONTINUOUS
 10
125.3131826066
 20
244.4201152912
 11
125.8733825778
 21
244.1429853718
  0
LINE
  8
0
 62
7
  6
CONTINUOUS
 10
123.6384310477
 20
246.6728753195
 11
125.5057657098
 21
245.7491082167
  0
LINE
  8
0
 62
7
  6
CONTINUOUS
 10
125.6010846505
 20
246.1767085327
 11
123.9204847368
 21
247.0080982909
  0
LINE
  8
0
 62
7
  6
CONTINUOUS
 10
128.0155785548
 20
242.8495220207
 11
128.4581690645
 21
242.5749720425
  0
LINE
  8
0
 62
7
  6
CONTINUOUS
 10
128.8270835924
 20
242.9720701333
 11
128.2074503956
 21
243.3564441245
  0
LINE
  8
0
 62
7
  6
CONTINUOUS
 10
129.3290230935
 20
245.1644844503
 11
129.9486562904
 21
244.7801104591
  0
LINE
  8
0
 62
7
  6
CONTINUOUS
 10
121.7849416192
 20
250.9385904056
 11
122.0394038246
 21
250.7282987713
  0
LINE
  8
0
 62
7
  6
CONTINUOUS
 10
127.629058575
 20
243.2144790408
 11
128.0155785548
 21
242.8495220207
  0
LINE
  8
0
 62
7
  6
CONTINUOUS
 10
130.5270399725
 20
244.9220805146
 11
130.1405280918
 21
245.2870324996
  0
LINE
  8
0
 62
7
  6
CONTINUOUS
 10
128.2074503956
 20
243.3564441245
 11
127.997973098
 21
243.6115771236
  0
LINE
  8
0
 62
7
  6
CONTINUOUS
 10
129.9486562904
 20
244.7801104591
 11
130.158133588
 21
244.52497746
  0
LINE
  8
0
 62
7
  6
CONTINUOUS
 10
130.813471797
 20
246.3718568344
 11
131.0229490946
 21
246.1167238352
  0
LINE
  8
0
 62
7
  6
CONTINUOUS
 10
130.8014026992
 20
244.3763194889
 11
130.5270399725
 21
244.9220805146
  0
LINE
  8
0
 62
7
  6
CONTINUOUS
 10
131.6662182059
 20
245.9680658641
 11
131.3918635832
 21
246.5138218627
  0
LINE
  8
0
 62
7
  6
CONTINUOUS
 10
85.4196710284
 20
252.2279427314
 11
88.9356567218
 21
253.192267427
  0
LINE
  8
0
 62
7
  6
CONTINUOUS
 10
89.2972505083
 20
253.8429995816
 11
85.2789791736
 21
252.7409136746
  0
LINE
  8
0
 62
7
  6
CONTINUOUS
 10
78.2194710038
 20
249.8166842675
 11
77.7061722587
 21
249.6784426291
  0
LINE
  8
0
 62
7
  6
CONTINUOUS
 10
91.6914690725
 20
254.3107781745
 11
91.078539715
 21
254.1885382353
  0
LINE
  8
0
 62
7
  6
CONTINUOUS
 10
95.3291429156
 20
254.7609843197
 11
94.6956213229
 21
254.785330306
  0
LINE
  8
0
 62
7
  6
CONTINUOUS
 10
94.7646738586
 20
254.257916679
 11
95.2949118464
 21
254.2200481092
  0
LINE
  8
0
 62
7
  6
CONTINUOUS
 10
130.6512744324
 20
247.0984168465
 11
130.1525971896
 21
247.2825698451
  0
LINE
  8
0
 62
7
  6
CONTINUOUS
 10
119.9344116548
 20
251.640468781
 11
121.7849416192
 21
250.9385904056
  0
LINE
  8
0
 62
7
  6
CONTINUOUS
 10
121.8761815679
 20
251.4728740584
 11
119.5386681567
 21
252.3594579814
  0
LINE
  8
0
 62
7
  6
CONTINUOUS
 10
126.5965524939
 20
249.3635996697
 11
125.8496177743
 21
249.7331069337
  0
LINE
  8
0
 62
7
  6
CONTINUOUS
 10
130.1405280918
 20
245.2870324996
 11
129.6979375822
 21
245.5615824778
  0
LINE
  8
0
 62
7
  6
CONTINUOUS
 10
131.1851464592
 20
245.3901638231
 11
131.627745073
 21
245.1156088177
  0
LINE
  8
0
 62
7
  6
CONTINUOUS
 10
130.2823599438
 20
246.7013188191
 11
130.813471797
 21
246.3718568344
  0
LINE
  8
0
 62
7
  6
CONTINUOUS
 10
131.0053435985
 20
246.8787788749
 11
130.6512744324
 21
247.0984168465
  0
LINE
  8
0
 62
7
  6
CONTINUOUS
 10
122.3254380438
 20
251.1886998669
 11
121.8761815679
 21
251.4728740584
  0
LINE
  8
0
 62
7
  6
CONTINUOUS
 10
131.3918635832
 20
246.5138218627
 11
131.0053435985
 21
246.8787788749
  0
LINE
  8
0
 62
7
  6
CONTINUOUS
 10
23.7324282685
 20
72.6667422047
 11
23.7324282685
 21
68.1590967215
  0
POLYLINE
  8
0
 62
7
  6
CONTINUOUS
 66
1
 70
0
  0
VERTEX
  8
0
 62
7
  6
CONTINUOUS
 10
23.7324282723
 20
68.1591097845
  0
VERTEX
  8
0
 62
7
  6
CONTINUOUS
 10
23.7326454531
 20
68.1799517913
  0
VERTEX
  8
0
 62
7
  6
CONTINUOUS
 10
23.7380728861
 20
68.0529998597
  0
VERTEX
  8
0
 62
7
  6
CONTINUOUS
 10
23.7577372631
 20
67.935533462
  0
VERTEX
  8
0
 62
7
  6
CONTINUOUS
 10
23.7888553973
 20
67.8279139109
  0
VERTEX
  8
0
 62
7
  6
CONTINUOUS
 10
23.8291415339
 20
67.7300301034
  0
VERTEX
  8
0
 62
7
  6
CONTINUOUS
 10
23.8767287128
 20
67.641582324
  0
VERTEX
  8
0
 62
7
  6
CONTINUOUS
 10
23.9298482175
 20
67.562497517
  0
VERTEX
  8
0
 62
7
  6
CONTINUOUS
 10
23.9868697984
 20
67.4925868453
  0
VERTEX
  8
0
 62
7
  6
CONTINUOUS
 10
24.0464142428
 20
67.4314217844
  0
VERTEX
  8
0
 62
7
  6
CONTINUOUS
 10
24.1074339301
 20
67.3783609992
  0
VERTEX
  8
0
 62
7
  6
CONTINUOUS
 10
24.1690768655
 20
67.3327490992
  0
VERTEX
  8
0
 62
7
  6
CONTINUOUS
 10
24.2304186186
 20
67.2940751854
  0
SEQEND
  0
POLYLINE
  8
0
 62
7
  6
CONTINUOUS
 66
1
 70
0
  0
VERTEX
  8
0
 62
7
  6
CONTINUOUS
 10
23.738064771
 20
68.0530759595
  0
VERTEX
  8
0
 62
7
  6
CONTINUOUS
 10
23.7577105025
 20
67.935650179
  0
VERTEX
  8
0
 62
7
  6
CONTINUOUS
 10
23.7888030845
 20
67.8280630132
  0
SEQEND
  0
POLYLINE
  8
0
 62
7
  6
CONTINUOUS
 66
1
 70
0
  0
VERTEX
  8
0
 62
7
  6
CONTINUOUS
 10
24.0254751221
 20
73.3740830289
  0
VERTEX
  8
0
 62
7
  6
CONTINUOUS
 10
23.965535771
 20
73.3085817608
  0
VERTEX
  8
0
 62
7
  6
CONTINUOUS
 10
23.908735714
 20
73.2338283181
  0
VERTEX
  8
0
 62
7
  6
CONTINUOUS
 10
23.8566558466
 20
73.1495027873
  0
SEQEND
  0
POLYLINE
  8
0
 62
7
  6
CONTINUOUS
 66
1
 70
0
  0
VERTEX
  8
0
 62
7
  6
CONTINUOUS
 10
48.1715919545
 20
68.145545347
  0
VERTEX
  8
0
 62
7
  6
CONTINUOUS
 10
48.1776080634
 20
68.0359015174
  0
VERTEX
  8
0
 62
7
  6
CONTINUOUS
 10
48.2068843595
 20
67.8819284064
  0
VERTEX
  8
0
 62
7
  6
CONTINUOUS
 10
48.2549433001
 20
67.7453782758
  0
VERTEX
  8
0
 62
7
  6
CONTINUOUS
 10
48.3168706052
 20
67.6257928166
  0
VERTEX
  8
0
 62
7
  6
CONTINUOUS
 10
48.3886530051
 20
67.5225669441
  0
VERTEX
  8
0
 62
7
  6
CONTINUOUS
 10
48.4667526497
 20
67.4350506217
  0
VERTEX
  8
0
 62
7
  6
CONTINUOUS
 10
48.5478953642
 20
67.3624551918
  0
VERTEX
  8
0
 62
7
  6
CONTINUOUS
 10
48.6289131785
 20
67.30381864
  0
VERTEX
  8
0
 62
7
  6
CONTINUOUS
 10
48.7078358624
 20
67.2573358055
  0
VERTEX
  8
0
 62
7
  6
CONTINUOUS
 10
48.7833400508
 20
67.2211388255
  0
VERTEX
  8
0
 62
7
  6
CONTINUOUS
 10
48.8529600142
 20
67.1940036072
  0
VERTEX
  8
0
 62
7
  6
CONTINUOUS
 10
48.9159754784
 20
67.1740031562
  0
VERTEX
  8
0
 62
7
  6
CONTINUOUS
 10
48.9754285553
 20
67.1586068263
  0
VERTEX
  8
0
 62
7
  6
CONTINUOUS
 10
49.0357324701
 20
67.1458723739
  0
VERTEX
  8
0
 62
7
  6
CONTINUOUS
 10
49.0955882307
 20
67.1354708608
  0
SEQEND
  0
LINE
  8
0
 62
7
  6
CONTINUOUS
 10
48.1715918763
 20
72.6803106093
 11
48.1715918763
 21
68.1455283169
  0
LINE
  8
0
 62
7
  6
CONTINUOUS
 10
53.7982561465
 20
66.9129194631
 11
53.7982561465
 21
66.7129194631
  0
LINE
  8
0
 62
7
  6
CONTINUOUS
 10
54.0407781206
 20
66.9129194631
 11
54.0407781206
 21
66.7129194631
  0
LINE
  8
0
 62
7
  6
CONTINUOUS
 10
55.0108659996
 20
66.9129194631
 11
55.0108659996
 21
66.7129194631
  0
LINE
  8
0
 62
7
  6
CONTINUOUS
 10
55.2533880257
 20
66.9129194631
 11
55.2533880257
 21
66.7129194631
  0
LINE
  8
0
 62
7
  6
CONTINUOUS
 10
55.9099551491
 20
66.9129194631
 11
55.9099551491
 21
66.7129194631
  0
LINE
  8
0
 62
7
  6
CONTINUOUS
 10
56.1881692621
 20
66.9129194631
 11
56.1881692621
 21
66.7129194631
  0
LINE
  8
0
 62
7
  6
CONTINUOUS
 10
56.5563168703
 20
66.9129194631
 11
56.5563168703
 21
66.7129194631
  0
LINE
  8
0
 62
7
  6
CONTINUOUS
 10
56.6889545698
 20
66.9129194631
 11
56.6889545698
 21
66.7129194631
  0
LINE
  8
0
 62
7
  6
CONTINUOUS
 10
56.7492679182
 20
66.9129194631
 11
56.7492679182
 21
66.7129194631
  0
LINE
  8
0
 62
7
  6
CONTINUOUS
 10
57.0495834364
 20
66.9129194631
 11
57.0495834364
 21
66.7129194631
  0
LINE
  8
0
 62
7
  6
CONTINUOUS
 10
57.4841697355
 20
66.9129194631
 11
57.4841697355
 21
66.7129194631
  0
LINE
  8
0
 62
7
  6
CONTINUOUS
 10
57.5151837594
 20
66.9129194631
 11
57.5151837594
 21
66.7129194631
  0
LINE
  8
0
 62
7
  6
CONTINUOUS
 10
57.8063365863
 20
66.9129194631
 11
57.8063365863
 21
66.7129194631
  0
LINE
  8
0
 62
7
  6
CONTINUOUS
 10
58.053027059
 20
66.9129194631
 11
58.053027059
 21
66.7129194631
  0
LINE
  8
0
 62
7
  6
CONTINUOUS
 10
58.3533425772
 20
66.9129194631
 11
58.3533425772
 21
66.7129194631
  0
LINE
  8
0
 62
7
  6
CONTINUOUS
 10
61.134695135
 20
66.9129194631
 11
61.134695135
 21
66.7129194631
  0
LINE
  8
0
 62
7
  6
CONTINUOUS
 10
61.1913084843
 20
66.9129194631
 11
61.1913084843
 21
66.7129194631
  0
LINE
  8
0
 62
7
  6
CONTINUOUS
 10
61.6281590402
 20
66.9129194631
 11
61.6281590402
 21
66.7129194631
  0
LINE
  8
0
 62
7
  6
CONTINUOUS
 10
64.7474734758
 20
66.9129194631
 11
64.7474734758
 21
66.7129194631
  0
LINE
  8
0
 62
7
  6
CONTINUOUS
 10
24.2301281763
 20
67.2942439937
 11
24.2905623155
 21
67.2618189724
  0
LINE
  8
0
 62
7
  6
CONTINUOUS
 10
66.46325222
 20
66.9129194631
 11
66.46325222
 21
66.7129194631
  0
LINE
  8
AXES
 62
7
  6
CONTINUOUS
 10
66.8356543624
 20
89.5629194631
 11
66.8356543624
 21
78.9129194631
  0
LINE
  8
AXES
 62
7
  6
CONTINUOUS
 10
66.8356543624
 20
61.9129194631
 11
66.8356543624
 21
51.2629194631
  0
LINE
  8
0
 62
7
  6
CONTINUOUS
 10
67.4484564479
 20
66.9129194631
 11
67.4484564479
 21
66.7129194631
  0
LINE
  8
0
 62
7
  6
CONTINUOUS
 10
67.5177188062
 20
66.9129194631
 11
67.5177188062
 21
66.7129194631
  0
LINE
  8
0
 62
7
  6
CONTINUOUS
 10
67.7171456101
 20
66.9129194631
 11
67.7171456101
 21
66.7129194631
  0
LINE
  8
0
 62
7
  6
CONTINUOUS
 10
67.9816574657
 20
66.9129194631
 11
67.9816574657
 21
66.7129194631
  0
LINE
  8
0
 62
7
  6
CONTINUOUS
 10
68.393649828
 20
66.9129194631
 11
68.393649828
 21
66.7129194631
  0
LINE
  8
0
 62
7
  6
CONTINUOUS
 10
68.870727242
 20
66.9129194631
 11
68.870727242
 21
66.7129194631
  0
LINE
  8
0
 62
7
  6
CONTINUOUS
 10
69.3955698747
 20
66.9129194631
 11
69.3955698747
 21
66.7129194631
  0
LINE
  8
0
 62
7
  6
CONTINUOUS
 10
69.9030983324
 20
66.9129194631
 11
69.9030983324
 21
66.7129194631
  0
LINE
  8
0
 62
7
  6
CONTINUOUS
 10
70.1807470565
 20
66.9129194631
 11
70.1807470565
 21
66.7129194631
  0
POLYLINE
  8
0
 62
7
  6
CONTINUOUS
 66
1
 70
0
  0
VERTEX
  8
0
 62
7
  6
CONTINUOUS
 10
24.3250706549
 20
73.5802345266
  0
VERTEX
  8
0
 62
7
  6
CONTINUOUS
 10
24.2679318397
 20
73.5524986429
  0
VERTEX
  8
0
 62
7
  6
CONTINUOUS
 10
24.2088044657
 20
73.5188401947
  0
VERTEX
  8
0
 62
7
  6
CONTINUOUS
 10
24.1482926124
 20
73.4785199292
  0
VERTEX
  8
0
 62
7
  6
CONTINUOUS
 10
24.0868521846
 20
73.4305375778
  0
VERTEX
  8
0
 62
7
  6
CONTINUOUS
 10
24.0254070261
 20
73.3740149332
  0
VERTEX
  8
0
 62
7
  6
CONTINUOUS
 10
23.9654816607
 20
73.3085170779
  0
VERTEX
  8
0
 62
7
  6
CONTINUOUS
 10
23.9086930751
 20
73.2337663596
  0
VERTEX
  8
0
 62
7
  6
CONTINUOUS
 10
23.8566236178
 20
73.1494442994
  0
VERTEX
  8
0
 62
7
  6
CONTINUOUS
 10
23.8110309821
 20
73.0553884984
  0
VERTEX
  8
0
 62
7
  6
CONTINUOUS
 10
23.7737950344
 20
72.9513993606
  0
VERTEX
  8
0
 62
7
  6
CONTINUOUS
 10
23.7470620239
 20
72.8371945875
  0
VERTEX
  8
0
 62
7
  6
CONTINUOUS
 10
23.7334933282
 20
72.7128739326
  0
VERTEX
  8
0
 62
7
  6
CONTINUOUS
 10
23.7324282723
 20
72.6667291419
  0
SEQEND
  0
LINE
  8
0
 62
7
  6
CONTINUOUS
 10
24.3798813504
 20
73.6028158248
 11
24.3253368963
 21
73.5803534632
  0
LINE
  8
0
 62
7
  6
CONTINUOUS
 10
24.3482682815
 20
67.2355852759
 11
24.3764470846
 21
67.2243282393
  0
LINE
  8
0
 62
7
  6
CONTINUOUS
 10
24.2902550434
 20
67.2619706063
 11
24.3485851954
 21
67.2354531625
  0
LINE
  8
0
 62
7
  6
CONTINUOUS
 10
70.2547880806
 20
66.9129194631
 11
70.2547880806
 21
66.7129194631
  0
LINE
  8
0
 62
7
  6
CONTINUOUS
 10
70.7145494336
 20
66.9129194631
 11
70.7145494336
 21
66.7129194631
  0
LINE
  8
0
 62
7
  6
CONTINUOUS
 10
70.7899945964
 20
66.9129194631
 11
70.7899945964
 21
66.7129194631
  0
LINE
  8
0
 62
7
  6
CONTINUOUS
 10
71.5835802402
 20
66.9129194631
 11
71.5835802402
 21
66.7129194631
  0
LINE
  8
0
 62
7
  6
CONTINUOUS
 10
73.787985479
 20
66.9129194631
 11
73.787985479
 21
66.7129194631
  0
LINE
  8
0
 62
7
  6
CONTINUOUS
 10
74.3170425749
 20
66.9129194631
 11
74.3170425749
 21
66.7129194631
  0
LINE
  8
0
 62
7
  6
CONTINUOUS
 10
75.4711266284
 20
66.9129194631
 11
75.4711266284
 21
66.7129194631
  0
LINE
  8
0
 62
7
  6
CONTINUOUS
 10
24.4313291335
 20
73.6206909616
 11
24.3795479656
 21
73.6026897551
  0
LINE
  8
0
 62
7
  6
CONTINUOUS
 10
24.3761287674
 20
67.2244499374
 11
24.4289895575
 21
67.205894061
  0
LINE
  8
0
 62
7
  6
CONTINUOUS
 10
77.7061722587
 20
66.9129194631
 11
77.7061722587
 21
66.7129194631
  0
LINE
  8
0
 62
7
  6
CONTINUOUS
 10
78.2194710038
 20
66.9129194631
 11
78.2194710038
 21
66.7129194631
  0
LINE
  8
0
 62
7
  6
CONTINUOUS
 10
78.734965641
 20
66.9129194631
 11
78.734965641
 21
66.7129194631
  0
LINE
  8
0
 62
7
  6
CONTINUOUS
 10
79.2049976158
 20
66.9129194631
 11
79.2049976158
 21
66.7129194631
  0
LINE
  8
0
 62
7
  6
CONTINUOUS
 10
79.4411136807
 20
66.9129194631
 11
79.4411136807
 21
66.7129194631
  0
LINE
  8
0
 62
7
  6
CONTINUOUS
 10
79.6317650852
 20
66.9129194631
 11
79.6317650852
 21
66.7129194631
  0
LINE
  8
0
 62
7
  6
CONTINUOUS
 10
79.6816259266
 20
66.9129194631
 11
79.6816259266
 21
66.7129194631
  0
LINE
  8
0
 62
7
  6
CONTINUOUS
 10
79.6882221292
 20
66.9129194631
 11
79.6882221292
 21
66.7129194631
  0
LINE
  8
0
 62
7
  6
CONTINUOUS
 10
80.1582541039
 20
66.9129194631
 11
80.1582541039
 21
66.7129194631
  0
LINE
  8
0
 62
7
  6
CONTINUOUS
 10
80.3943702357
 20
66.9129194631
 11
80.3943702357
 21
66.7129194631
  0
LINE
  8
0
 62
7
  6
CONTINUOUS
 10
80.6326843243
 20
66.9129194631
 11
80.6326843243
 21
66.7129194631
  0
LINE
  8
0
 62
7
  6
CONTINUOUS
 10
80.6825451991
 20
66.9129194631
 11
80.6825451991
 21
66.7129194631
  0
LINE
  8
0
 62
7
  6
CONTINUOUS
 10
24.4791531929
 20
73.6346024064
 11
24.4309307328
 21
73.6205643508
  0
LINE
  8
0
 62
7
  6
CONTINUOUS
 10
179.1499324824
 20
67.1809962197
 11
179.1926191771
 21
67.1913593712
  0
LINE
  8
AXES
 62
7
  6
CONTINUOUS
 10
134.8356543624
 20
49.2629194631
 11
68.8356543624
 21
49.2629194631
  0
POLYLINE
  8
0
 62
7
  6
CONTINUOUS
 66
1
 70
0
  0
VERTEX
  8
0
 62
7
  6
CONTINUOUS
 10
24.4293066802
 20
67.2057925645
  0
VERTEX
  8
0
 62
7
  6
CONTINUOUS
 10
24.4782169374
 20
67.1914848358
  0
VERTEX
  8
0
 62
7
  6
CONTINUOUS
 10
24.5216451383
 20
67.1809368768
  0
VERTEX
  8
0
 62
7
  6
CONTINUOUS
 10
24.5568011754
 20
67.1737850878
  0
VERTEX
  8
0
 62
7
  6
CONTINUOUS
 10
24.5873536775
 20
67.1684785904
  0
VERTEX
  8
0
 62
7
  6
CONTINUOUS
 10
24.6168516866
 20
67.1640247546
  0
VERTEX
  8
0
 62
7
  6
CONTINUOUS
 10
24.6465731705
 20
67.1600318499
  0
SEQEND
  0
LINE
  8
0
 62
7
  6
CONTINUOUS
 10
85.2789791736
 20
66.9129194631
 11
85.2789791736
 21
66.7129194631
  0
LINE
  8
0
 62
7
  6
CONTINUOUS
 10
179.1146086276
 20
67.1738039803
 11
179.150447195
 21
67.1811100147
  0
LINE
  8
0
 62
7
  6
CONTINUOUS
 10
179.08363044
 20
67.1684262873
 11
179.1150956665
 21
67.1738951418
  0
LINE
  8
0
 62
7
  6
CONTINUOUS
 10
89.2972505083
 20
66.9129194631
 11
89.2972505083
 21
66.7129194631
  0
LINE
  8
0
 62
7
  6
CONTINUOUS
 10
89.494219105
 20
66.9129194631
 11
89.494219105
 21
66.7129194631
  0
LINE
  8
0
 62
7
  6
CONTINUOUS
 10
90.4509238557
 20
66.9129194631
 11
90.4509238557
 21
66.7129194631
  0
LINE
  8
0
 62
7
  6
CONTINUOUS
 10
90.6112579272
 20
66.9129194631
 11
90.6112579272
 21
66.7129194631
  0
LINE
  8
0
 62
7
  6
CONTINUOUS
 10
91.078539715
 20
66.9129194631
 11
91.078539715
 21
66.7129194631
  0
LINE
  8
0
 62
7
  6
CONTINUOUS
 10
91.6914690725
 20
66.9129194631
 11
91.6914690725
 21
66.7129194631
  0
POLYLINE
  8
0
 62
7
  6
CONTINUOUS
 66
1
 70
0
  0
VERTEX
  8
0
 62
7
  6
CONTINUOUS
 10
154.5757208848
 20
67.1354709232
  0
VERTEX
  8
0
 62
7
  6
CONTINUOUS
 10
154.6359590909
 20
67.1459453904
  0
VERTEX
  8
0
 62
7
  6
CONTINUOUS
 10
154.6961454981
 20
67.1586688236
  0
VERTEX
  8
0
 62
7
  6
CONTINUOUS
 10
154.7555645812
 20
67.1740693175
  0
VERTEX
  8
0
 62
7
  6
CONTINUOUS
 10
154.8185887259
 20
67.194087713
  0
VERTEX
  8
0
 62
7
  6
CONTINUOUS
 10
154.8881907527
 20
67.2212345429
  0
VERTEX
  8
0
 62
7
  6
CONTINUOUS
 10
154.9636567785
 20
67.2574333426
  0
VERTEX
  8
0
 62
7
  6
CONTINUOUS
 10
155.0425487465
 20
67.3039184163
  0
VERTEX
  8
0
 62
7
  6
CONTINUOUS
 10
155.123541932
 20
67.3625583092
  0
VERTEX
  8
0
 62
7
  6
CONTINUOUS
 10
155.2046607302
 20
67.4351549723
  0
VERTEX
  8
0
 62
7
  6
CONTINUOUS
 10
155.2827367479
 20
67.5226691823
  0
VERTEX
  8
0
 62
7
  6
CONTINUOUS
 10
155.3544961677
 20
67.6258885897
  0
VERTEX
  8
0
 62
7
  6
CONTINUOUS
 10
155.4164015273
 20
67.7454612088
  0
VERTEX
  8
0
 62
7
  6
CONTINUOUS
 10
155.4644414738
 20
67.8819911688
  0
VERTEX
  8
0
 62
7
  6
CONTINUOUS
 10
155.49370451
 20
68.0359364601
  0
VERTEX
  8
0
 62
7
  6
CONTINUOUS
 10
155.4997167747
 20
68.145545356
  0
SEQEND
  0
LINE
  8
0
 62
7
  6
CONTINUOUS
 10
154.4785401628
 20
67.1200572997
 11
154.5757205416
 21
67.1354708649
  0
LINE
  8
0
 62
7
  6
CONTINUOUS
 10
153.3459667697
 20
66.9404710877
 11
154.4785401628
 21
67.1200572997
  0
POLYLINE
  8
0
 62
7
  6
CONTINUOUS
 66
1
 70
0
  0
VERTEX
  8
0
 62
7
  6
CONTINUOUS
 10
179.0242488367
 20
67.1599696364
  0
VERTEX
  8
0
 62
7
  6
CONTINUOUS
 10
179.0543019147
 20
67.1640027799
  0
VERTEX
  8
0
 62
7
  6
CONTINUOUS
 10
179.0840233265
 20
67.1684896022
  0
SEQEND
  0
LINE
  8
0
 62
7
  6
CONTINUOUS
 10
178.9910700255
 20
67.1559082243
 11
179.0242488367
 21
67.1599696364
  0
LINE
  8
0
 62
7
  6
CONTINUOUS
 10
178.9521290336
 20
67.151473945
 11
178.9910700255
 21
67.1559082243
  0
LINE
  8
0
 62
7
  6
CONTINUOUS
 10
178.9517745095
 20
67.1514347949
 11
178.9907496083
 21
67.1558704801
  0
LINE
  8
0
 62
7
  6
CONTINUOUS
 10
178.9051687609
 20
67.1464319029
 11
178.9521290336
 21
67.151473945
  0
LINE
  8
0
 62
7
  6
CONTINUOUS
 10
178.7832669439
 20
67.1342586071
 11
178.9055676886
 21
67.1464736686
  0
LINE
  8
0
 62
7
  6
CONTINUOUS
 10
178.7102117814
 20
67.1273767426
 11
178.8494320357
 21
67.1407356856
  0
LINE
  8
0
 62
7
  6
CONTINUOUS
 10
178.703355016
 20
67.126742287
 11
178.7102118419
 21
67.1273767476
  0
LINE
  8
0
 62
7
  6
CONTINUOUS
 10
176.6023868055
 20
66.9323889035
 11
178.703355016
 21
67.126742287
  0
LINE
  8
0
 62
7
  6
CONTINUOUS
 10
24.8667688241
 20
67.1363127046
 11
27.0689219193
 21
66.9323889035
  0
POLYLINE
  8
0
 62
7
  6
CONTINUOUS
 66
1
 70
0
  0
VERTEX
  8
0
 62
7
  6
CONTINUOUS
 10
24.7156129825
 20
67.151868889
  0
VERTEX
  8
0
 62
7
  6
CONTINUOUS
 10
24.7587903661
 20
67.1472039899
  0
VERTEX
  8
0
 62
7
  6
CONTINUOUS
 10
24.8090552537
 20
67.1420237486
  0
SEQEND
  0
LINE
  8
0
 62
7
  6
CONTINUOUS
 10
24.6463322176
 20
67.1600626819
 11
24.6786386544
 21
67.1560970703
  0
POLYLINE
  8
0
 62
7
  6
CONTINUOUS
 66
1
 70
0
  0
VERTEX
  8
0
 62
7
  6
CONTINUOUS
 10
24.6465731705
 20
67.1600318499
  0
VERTEX
  8
0
 62
7
  6
CONTINUOUS
 10
24.6789029217
 20
67.1560658377
  0
VERTEX
  8
0
 62
7
  6
CONTINUOUS
 10
24.7159137017
 20
67.151835514
  0
VERTEX
  8
0
 62
7
  6
CONTINUOUS
 10
24.7591362113
 20
67.1471675319
  0
VERTEX
  8
0
 62
7
  6
CONTINUOUS
 10
24.9324095162
 20
67.1300494537
  0
SEQEND
  0
LINE
  8
0
 62
7
  6
CONTINUOUS
 10
50.3253477049
 20
66.9404701789
 11
50.4378456303
 21
66.9255441211
  0
LINE
  8
0
 62
7
  6
CONTINUOUS
 10
49.0955881832
 20
67.135470865
 11
49.1927685628
 21
67.1200573029
  0
LINE
  8
0
 62
7
  6
CONTINUOUS
 10
49.1927685628
 20
67.1200573029
 11
50.3253419551
 21
66.9404710877
  0
LINE
  8
0
 62
7
  6
CONTINUOUS
 10
92.6693885859
 20
66.9129194631
 11
92.6693885859
 21
66.7129194631
  0
LINE
  8
0
 62
7
  6
CONTINUOUS
 10
93.0988877405
 20
66.9129194631
 11
93.0988877405
 21
66.7129194631
  0
LINE
  8
0
 62
7
  6
CONTINUOUS
 10
93.1331235377
 20
66.9129194631
 11
93.1331235377
 21
66.7129194631
  0
LINE
  8
0
 62
7
  6
CONTINUOUS
 10
93.1949755825
 20
66.9129194631
 11
93.1949755825
 21
66.7129194631
  0
LINE
  8
0
 62
7
  6
CONTINUOUS
 10
93.3463054919
 20
66.9129194631
 11
93.3463054919
 21
66.7129194631
  0
LINE
  8
0
 62
7
  6
CONTINUOUS
 10
93.6147295133
 20
66.9129194631
 11
93.6147295133
 21
66.7129194631
  0
LINE
  8
0
 62
7
  6
CONTINUOUS
 10
94.0897207445
 20
66.9129194631
 11
94.0897207445
 21
66.7129194631
  0
LINE
  8
0
 62
7
  6
CONTINUOUS
 10
94.6956213229
 20
66.9129194631
 11
94.6956213229
 21
66.7129194631
  0
LINE
  8
0
 62
7
  6
CONTINUOUS
 10
95.3291429156
 20
66.9129194631
 11
95.3291429156
 21
66.7129194631
  0
LINE
  8
0
 62
7
  6
CONTINUOUS
 10
95.8870019176
 20
66.9129194631
 11
95.8870019176
 21
66.7129194631
  0
LINE
  8
0
 62
7
  6
CONTINUOUS
 10
96.2382889818
 20
66.9129194631
 11
96.2382889818
 21
66.7129194631
  0
LINE
  8
0
 62
7
  6
CONTINUOUS
 10
96.5001029482
 20
66.9129194631
 11
96.5001029482
 21
66.7129194631
  0
LINE
  8
0
 62
7
  6
CONTINUOUS
 10
96.6448181132
 20
66.9129194631
 11
96.6448181132
 21
66.7129194631
  0
LINE
  8
0
 62
7
  6
CONTINUOUS
 10
96.8171542538
 20
66.9129194631
 11
96.8171542538
 21
66.7129194631
  0
LINE
  8
0
 62
7
  6
CONTINUOUS
 10
96.941448818
 20
66.9129194631
 11
96.941448818
 21
66.7129194631
  0
LINE
  8
0
 62
7
  6
CONTINUOUS
 10
176.4678728616
 20
66.9219441733
 11
176.6023866696
 21
66.9323888934
  0
POLYLINE
  8
0
 62
7
  6
CONTINUOUS
 66
1
 70
0
  0
VERTEX
  8
0
 62
7
  6
CONTINUOUS
 10
152.9969575934
 20
66.9129194694
  0
VERTEX
  8
0
 62
7
  6
CONTINUOUS
 10
153.1094787087
 20
66.9157725799
  0
VERTEX
  8
0
 62
7
  6
CONTINUOUS
 10
153.2345797803
 20
66.9256638461
  0
VERTEX
  8
0
 62
7
  6
CONTINUOUS
 10
153.3459606385
 20
66.9404701184
  0
SEQEND
  0
POLYLINE
  8
0
 62
7
  6
CONTINUOUS
 66
1
 70
0
  0
VERTEX
  8
0
 62
7
  6
CONTINUOUS
 10
27.0689220504
 20
66.9323888938
  0
VERTEX
  8
0
 62
7
  6
CONTINUOUS
 10
27.2047922832
 20
66.9218591151
  0
VERTEX
  8
0
 62
7
  6
CONTINUOUS
 10
27.3559630931
 20
66.9149058606
  0
VERTEX
  8
0
 62
7
  6
CONTINUOUS
 10
27.4908591441
 20
66.9129194693
  0
SEQEND
  0
POLYLINE
  8
0
 62
7
  6
CONTINUOUS
 66
1
 70
0
  0
VERTEX
  8
0
 62
7
  6
CONTINUOUS
 10
50.4378456303
 20
66.9255441211
  0
VERTEX
  8
0
 62
7
  6
CONTINUOUS
 10
50.5629527773
 20
66.9157158932
  0
VERTEX
  8
0
 62
7
  6
CONTINUOUS
 10
50.6743521676
 20
66.9129194694
  0
SEQEND
  0
LINE
  8
AXES
 62
2
  6
CENTER
 10
101.8356543624
 20
47.2629194631
 11
101.8356543624
 21
93.5629194631
  0
POLYLINE
  8
0
 62
7
  6
CONTINUOUS
 66
1
 70
0
  0
VERTEX
  8
0
 62
7
  6
CONTINUOUS
 10
176.1804495746
 20
66.9129194693
  0
VERTEX
  8
0
 62
7
  6
CONTINUOUS
 10
176.3167039792
 20
66.9149460747
  0
VERTEX
  8
0
 62
7
  6
CONTINUOUS
 10
176.4678728616
 20
66.9219441733
  0
SEQEND
  0
LINE
  8
0
 62
7
  6
CONTINUOUS
 10
131.7074596164
 20
66.7129194631
 11
127.3134625761
 21
66.7129194631
  0
LINE
  8
0
 62
7
  6
CONTINUOUS
 10
126.5965524939
 20
66.7129194631
 11
117.7655003108
 21
66.7129194631
  0
LINE
  8
0
 62
7
  6
CONTINUOUS
 10
96.941448818
 20
66.7129194631
 11
93.0988877405
 21
66.7129194631
  0
LINE
  8
0
 62
7
  6
CONTINUOUS
 10
92.6693885859
 20
66.7129194631
 11
85.2789791736
 21
66.7129194631
  0
LINE
  8
0
 62
7
  6
CONTINUOUS
 10
80.6825451991
 20
66.7129194631
 11
61.1913084843
 21
66.7129194631
  0
LINE
  8
0
 62
7
  6
CONTINUOUS
 10
61.134695135
 20
66.7129194631
 11
53.7982561465
 21
66.7129194631
  0
LINE
  8
0
 62
7
  6
CONTINUOUS
 10
27.4908593133
 20
66.9129194631
 11
176.1804494115
 21
66.9129194631
  0
LINE
  8
0
 62
7
  6
CONTINUOUS
 10
101.8356543624
 20
65.9129194631
 11
100.1036035548
 21
66.9129194631
  0
LINE
  8
0
 62
7
  6
CONTINUOUS
 10
101.8356543624
 20
65.9129194631
 11
103.56770517
 21
66.9129194631
  0
POLYLINE
  8
0
 62
7
  6
CONTINUOUS
 66
1
 70
0
  0
VERTEX
  8
0
 62
7
  6
CONTINUOUS
 10
50.6743491051
 20
73.9129194605
  0
VERTEX
  8
0
 62
7
  6
CONTINUOUS
 10
50.5618339277
 20
73.910066541
  0
VERTEX
  8
0
 62
7
  6
CONTINUOUS
 10
50.4367328374
 20
73.9001755022
  0
VERTEX
  8
0
 62
7
  6
CONTINUOUS
 10
50.3253483775
 20
73.8853688501
  0
SEQEND
  0
POLYLINE
  8
0
 62
7
  6
CONTINUOUS
 66
1
 70
0
  0
VERTEX
  8
0
 62
7
  6
CONTINUOUS
 10
27.4908591809
 20
73.9129194606
  0
VERTEX
  8
0
 62
7
  6
CONTINUOUS
 10
27.3546086768
 20
73.9108929647
  0
VERTEX
  8
0
 62
7
  6
CONTINUOUS
 10
27.2034397883
 20
73.9038950035
  0
SEQEND
  0
LINE
  8
AXES
 62
7
  6
CONTINUOUS
 10
176.1804494115
 20
73.9129194631
 11
170.9667356976
 21
73.9129194631
  0
LINE
  8
AXES
 62
7
  6
CONTINUOUS
 10
110.2716203592
 20
73.9129194631
 11
93.3996883657
 21
73.9129194631
  0
LINE
  8
AXES
 62
7
  6
CONTINUOUS
 10
32.7045730273
 20
73.9129194631
 11
27.4908593133
 21
73.9129194631
  0
LINE
  8
0
 62
7
  6
CONTINUOUS
 10
27.4908593133
 20
73.9129194631
 11
176.1804494115
 21
73.9129194631
  0
LINE
  8
0
 62
7
  6
CONTINUOUS
 10
50.3253419551
 20
73.8853678385
 11
49.192768562
 21
73.7057816265
  0
LINE
  8
0
 62
7
  6
CONTINUOUS
 10
49.192768562
 20
73.7057816265
 11
49.0955881833
 21
73.6903680612
  0
LINE
  8
0
 62
7
  6
CONTINUOUS
 10
24.7661399982
 20
73.6794070268
 11
24.719179656
 21
73.6743649772
  0
LINE
  8
0
 62
7
  6
CONTINUOUS
 10
24.8885372456
 20
73.6916278688
 11
24.7657410043
 21
73.6793652542
  0
LINE
  8
0
 62
7
  6
CONTINUOUS
 10
27.0689219193
 20
73.8934500227
 11
24.9679537088
 21
73.6990966392
  0
LINE
  8
0
 62
7
  6
CONTINUOUS
 10
24.9679537088
 20
73.6990966392
 11
24.8214296434
 21
73.6850585297
  0
LINE
  8
0
 62
7
  6
CONTINUOUS
 10
27.2034397883
 20
73.9038950035
 11
27.0689220871
 21
73.893450032
  0
POLYLINE
  8
0
 62
7
  6
CONTINUOUS
 66
1
 70
0
  0
VERTEX
  8
0
 62
7
  6
CONTINUOUS
 10
176.6023866437
 20
73.8934500314
  0
VERTEX
  8
0
 62
7
  6
CONTINUOUS
 10
176.466512517
 20
73.9039800603
  0
VERTEX
  8
0
 62
7
  6
CONTINUOUS
 10
176.3153417022
 20
73.9109331775
  0
VERTEX
  8
0
 62
7
  6
CONTINUOUS
 10
176.1804495488
 20
73.9129194606
  0
SEQEND
  0
POLYLINE
  8
0
 62
7
  6
CONTINUOUS
 66
1
 70
0
  0
VERTEX
  8
0
 62
7
  6
CONTINUOUS
 10
153.233459203
 20
73.900295225
  0
VERTEX
  8
0
 62
7
  6
CONTINUOUS
 10
153.1083520391
 20
73.9101232253
  0
VERTEX
  8
0
 62
7
  6
CONTINUOUS
 10
152.9969586109
 20
73.9129194605
  0
SEQEND
  0
LINE
  8
0
 62
7
  6
CONTINUOUS
 10
178.703355016
 20
73.699096639
 11
176.6023868055
 21
73.8934500227
  0
LINE
  8
0
 62
7
  6
CONTINUOUS
 10
178.8040868194
 20
73.689570233
 11
178.703355016
 21
73.699096639
  0
LINE
  8
0
 62
7
  6
CONTINUOUS
 10
178.8618561732
 20
73.6838552734
 11
178.7394109177
 21
73.6957414645
  0
LINE
  8
0
 62
7
  6
CONTINUOUS
 10
153.3459607397
 20
73.8853687879
 11
153.233459203
 21
73.900295225
  0
LINE
  8
0
 62
7
  6
CONTINUOUS
 10
154.4785401621
 20
73.7057816232
 11
153.3459667698
 21
73.8853678385
  0
LINE
  8
0
 62
7
  6
CONTINUOUS
 10
154.5757205416
 20
73.6903680612
 11
154.4785401621
 21
73.7057816232
  0
LINE
  8
0
 62
7
  6
CONTINUOUS
 10
117.7655003108
 20
66.9129194631
 11
117.7655003108
 21
66.7129194631
  0
POLYLINE
  8
0
 62
7
  6
CONTINUOUS
 66
1
 70
0
  0
VERTEX
  8
0
 62
7
  6
CONTINUOUS
 10
49.0955879195
 20
73.690368016
  0
VERTEX
  8
0
 62
7
  6
CONTINUOUS
 10
49.0353534964
 20
73.6798942728
  0
VERTEX
  8
0
 62
7
  6
CONTINUOUS
 10
48.9751708482
 20
73.6671718844
  0
VERTEX
  8
0
 62
7
  6
CONTINUOUS
 10
48.9157528968
 20
73.6517721133
  0
VERTEX
  8
0
 62
7
  6
CONTINUOUS
 10
48.8527278069
 20
73.6317539496
  0
VERTEX
  8
0
 62
7
  6
CONTINUOUS
 10
48.7831253359
 20
73.6046075583
  0
VERTEX
  8
0
 62
7
  6
CONTINUOUS
 10
48.7076594473
 20
73.5684095618
  0
VERTEX
  8
0
 62
7
  6
CONTINUOUS
 10
48.628766843
 20
73.5219249831
  0
VERTEX
  8
0
 62
7
  6
CONTINUOUS
 10
48.5477728001
 20
73.4632854347
  0
VERTEX
  8
0
 62
7
  6
CONTINUOUS
 10
48.4666530284
 20
73.3906889706
  0
VERTEX
  8
0
 62
7
  6
CONTINUOUS
 10
48.3885759319
 20
73.3031747358
  0
VERTEX
  8
0
 62
7
  6
CONTINUOUS
 10
48.3168153771
 20
73.1999549957
  0
VERTEX
  8
0
 62
7
  6
CONTINUOUS
 10
48.2549089393
 20
73.0803817253
  0
VERTEX
  8
0
 62
7
  6
CONTINUOUS
 10
48.2068680764
 20
72.9438507855
  0
VERTEX
  8
0
 62
7
  6
CONTINUOUS
 10
48.1776044039
 20
72.7899041561
  0
VERTEX
  8
0
 62
7
  6
CONTINUOUS
 10
48.1715919545
 20
72.6802935793
  0
SEQEND
  0
LINE
  8
0
 62
7
  6
CONTINUOUS
 10
24.5876782918
 20
73.6574126401
 11
24.556213004
 21
73.651943774
  0
POLYLINE
  8
0
 62
7
  6
CONTINUOUS
 66
1
 70
0
  0
VERTEX
  8
0
 62
7
  6
CONTINUOUS
 10
24.6470598575
 20
73.6658692859
  0
VERTEX
  8
0
 62
7
  6
CONTINUOUS
 10
24.6170068085
 20
73.661836146
  0
VERTEX
  8
0
 62
7
  6
CONTINUOUS
 10
24.5872854005
 20
73.6573493243
  0
SEQEND
  0
LINE
  8
0
 62
7
  6
CONTINUOUS
 10
24.6802386739
 20
73.6699306989
 11
24.6470598575
 21
73.6658692859
  0
LINE
  8
0
 62
7
  6
CONTINUOUS
 10
24.7195342526
 20
73.6744041354
 11
24.6805591421
 21
73.669968449
  0
LINE
  8
0
 62
7
  6
CONTINUOUS
 10
24.719179656
 20
73.6743649772
 11
24.6802386739
 21
73.6699306989
  0
POLYLINE
  8
0
 62
7
  6
CONTINUOUS
 66
1
 70
0
  0
VERTEX
  8
0
 62
7
  6
CONTINUOUS
 10
178.9556957642
 20
73.6739700347
  0
VERTEX
  8
0
 62
7
  6
CONTINUOUS
 10
178.9125183886
 20
73.6786349332
  0
VERTEX
  8
0
 62
7
  6
CONTINUOUS
 10
178.8045400225
 20
73.6895262097
  0
SEQEND
  0
POLYLINE
  8
0
 62
7
  6
CONTINUOUS
 66
1
 70
0
  0
VERTEX
  8
0
 62
7
  6
CONTINUOUS
 10
179.0247355201
 20
73.6658070807
  0
VERTEX
  8
0
 62
7
  6
CONTINUOUS
 10
178.9924057717
 20
73.6697730922
  0
VERTEX
  8
0
 62
7
  6
CONTINUOUS
 10
178.9553949979
 20
73.6740034151
  0
VERTEX
  8
0
 62
7
  6
CONTINUOUS
 10
178.9121724812
 20
73.6786713977
  0
SEQEND
  0
LINE
  8
0
 62
7
  6
CONTINUOUS
 10
179.0249765389
 20
73.6657762402
 11
178.9926701004
 21
73.6697418524
  0
LINE
  8
0
 62
7
  6
CONTINUOUS
 10
119.5386681567
 20
66.9129194631
 11
119.5386681567
 21
66.7129194631
  0
LINE
  8
0
 62
7
  6
CONTINUOUS
 10
121.8761815679
 20
66.9129194631
 11
121.8761815679
 21
66.7129194631
  0
LINE
  8
0
 62
7
  6
CONTINUOUS
 10
122.3254380438
 20
66.9129194631
 11
122.3254380438
 21
66.7129194631
  0
LINE
  8
0
 62
7
  6
CONTINUOUS
 10
122.6018412133
 20
66.9129194631
 11
122.6018412133
 21
66.7129194631
  0
LINE
  8
0
 62
7
  6
CONTINUOUS
 10
122.7431225059
 20
66.9129194631
 11
122.7431225059
 21
66.7129194631
  0
LINE
  8
0
 62
7
  6
CONTINUOUS
 10
24.5213762491
 20
73.6448427077
 11
24.4786894801
 21
73.6344795368
  0
LINE
  8
0
 62
7
  6
CONTINUOUS
 10
24.5567001591
 20
73.6520349576
 11
24.5208615171
 21
73.644728909
  0
LINE
  8
AXES
 62
7
  6
CONTINUOUS
 10
134.8356543624
 20
91.5629194631
 11
68.8356543624
 21
91.5629194631
  0
LINE
  8
0
 62
7
  6
CONTINUOUS
 10
125.8496177743
 20
66.9129194631
 11
125.8496177743
 21
66.7129194631
  0
LINE
  8
0
 62
7
  6
CONTINUOUS
 10
126.5965524939
 20
66.9129194631
 11
126.5965524939
 21
66.7129194631
  0
LINE
  8
0
 62
7
  6
CONTINUOUS
 10
127.3134625761
 20
66.9129194631
 11
127.3134625761
 21
66.7129194631
  0
LINE
  8
0
 62
7
  6
CONTINUOUS
 10
127.4168211774
 20
66.9129194631
 11
127.4168211774
 21
66.7129194631
  0
LINE
  8
0
 62
7
  6
CONTINUOUS
 10
127.7208503154
 20
66.9129194631
 11
127.7208503154
 21
66.7129194631
  0
LINE
  8
0
 62
7
  6
CONTINUOUS
 10
128.1134007185
 20
66.9129194631
 11
128.1134007185
 21
66.7129194631
  0
LINE
  8
0
 62
7
  6
CONTINUOUS
 10
128.5944724651
 20
66.9129194631
 11
128.5944724651
 21
66.7129194631
  0
LINE
  8
0
 62
7
  6
CONTINUOUS
 10
129.0519003503
 20
66.9129194631
 11
129.0519003503
 21
66.7129194631
  0
LINE
  8
0
 62
7
  6
CONTINUOUS
 10
179.1921555987
 20
67.1912365377
 11
179.2403779482
 21
67.2052745613
  0
POLYLINE
  8
0
 62
7
  6
CONTINUOUS
 66
1
 70
0
  0
VERTEX
  8
0
 62
7
  6
CONTINUOUS
 10
179.2420021214
 20
73.6200463371
  0
VERTEX
  8
0
 62
7
  6
CONTINUOUS
 10
179.1930917219
 20
73.6343541081
  0
VERTEX
  8
0
 62
7
  6
CONTINUOUS
 10
179.1496635611
 20
73.6449020547
  0
VERTEX
  8
0
 62
7
  6
CONTINUOUS
 10
179.1145074493
 20
73.6520538572
  0
VERTEX
  8
0
 62
7
  6
CONTINUOUS
 10
179.0839550472
 20
73.6573603359
  0
VERTEX
  8
0
 62
7
  6
CONTINUOUS
 10
179.0544570358
 20
73.661814172
  0
VERTEX
  8
0
 62
7
  6
CONTINUOUS
 10
179.0247355201
 20
73.6658070807
  0
SEQEND
  0
LINE
  8
0
 62
7
  6
CONTINUOUS
 10
129.5417707929
 20
66.9129194631
 11
129.5417707929
 21
66.7129194631
  0
LINE
  8
0
 62
7
  6
CONTINUOUS
 10
130.1525971896
 20
66.9129194631
 11
130.1525971896
 21
66.7129194631
  0
LINE
  8
0
 62
7
  6
CONTINUOUS
 10
130.6512744324
 20
66.9129194631
 11
130.6512744324
 21
66.7129194631
  0
LINE
  8
0
 62
7
  6
CONTINUOUS
 10
131.0053435985
 20
66.9129194631
 11
131.0053435985
 21
66.7129194631
  0
LINE
  8
0
 62
7
  6
CONTINUOUS
 10
131.3918635832
 20
66.9129194631
 11
131.3918635832
 21
66.7129194631
  0
LINE
  8
0
 62
7
  6
CONTINUOUS
 10
131.6662182059
 20
66.9129194631
 11
131.6662182059
 21
66.7129194631
  0
LINE
  8
0
 62
7
  6
CONTINUOUS
 10
131.7074596164
 20
66.9129194631
 11
131.7074596164
 21
66.7129194631
  0
LINE
  8
0
 62
7
  6
CONTINUOUS
 10
179.2914275726
 20
67.2230231757
 11
179.3459721416
 21
67.2454856022
  0
LINE
  8
0
 62
7
  6
CONTINUOUS
 10
179.2399796383
 20
67.2051479796
 11
179.2917605716
 21
67.2231491007
  0
LINE
  8
0
 62
7
  6
CONTINUOUS
 10
179.295179997
 20
73.6013889744
 11
179.242319087
 21
73.6199448908
  0
LINE
  8
0
 62
7
  6
CONTINUOUS
 10
179.3230404915
 20
73.5902536308
 11
179.2948615988
 21
73.601510702
  0
LINE
  8
AXES
 62
7
  6
CONTINUOUS
 10
136.8356543624
 20
89.5629194631
 11
136.8356543624
 21
78.9129194631
  0
LINE
  8
AXES
 62
7
  6
CONTINUOUS
 10
136.8356543624
 20
61.9129194631
 11
136.8356543624
 21
51.2629194631
  0
POLYLINE
  8
0
 62
7
  6
CONTINUOUS
 66
1
 70
0
  0
VERTEX
  8
0
 62
7
  6
CONTINUOUS
 10
179.3462377783
 20
67.2456042698
  0
VERTEX
  8
0
 62
7
  6
CONTINUOUS
 10
179.4033765216
 20
67.2733400925
  0
VERTEX
  8
0
 62
7
  6
CONTINUOUS
 10
179.4625038973
 20
67.3069985083
  0
VERTEX
  8
0
 62
7
  6
CONTINUOUS
 10
179.5230158241
 20
67.3473187879
  0
VERTEX
  8
0
 62
7
  6
CONTINUOUS
 10
179.5844563515
 20
67.3953011866
  0
VERTEX
  8
0
 62
7
  6
CONTINUOUS
 10
179.6459015903
 20
67.4518238815
  0
VERTEX
  8
0
 62
7
  6
CONTINUOUS
 10
179.7058270044
 20
67.5173217731
  0
VERTEX
  8
0
 62
7
  6
CONTINUOUS
 10
179.7626156096
 20
67.5920725038
  0
VERTEX
  8
0
 62
7
  6
CONTINUOUS
 10
179.8146850736
 20
67.6763945614
  0
VERTEX
  8
0
 62
7
  6
CONTINUOUS
 10
179.8602777166
 20
67.7704503613
  0
VERTEX
  8
0
 62
7
  6
CONTINUOUS
 10
179.8975136744
 20
67.8744395084
  0
SEQEND
  0
LINE
  8
0
 62
7
  6
CONTINUOUS
 10
179.3810537362
 20
73.5638682932
 11
179.3227234793
 21
73.5903857839
  0
LINE
  8
0
 62
7
  6
CONTINUOUS
 10
179.4411806023
 20
73.5315949008
 11
179.3807463526
 21
73.5640199814
  0
POLYLINE
  8
0
 62
7
  6
CONTINUOUS
 66
1
 70
0
  0
VERTEX
  8
0
 62
7
  6
CONTINUOUS
 10
155.4997167747
 20
72.6802935701
  0
VERTEX
  8
0
 62
7
  6
CONTINUOUS
 10
155.4937008747
 20
72.7899354997
  0
VERTEX
  8
0
 62
7
  6
CONTINUOUS
 10
155.4644252976
 20
72.9439071004
  0
VERTEX
  8
0
 62
7
  6
CONTINUOUS
 10
155.4163673918
 20
73.080456126
  0
VERTEX
  8
0
 62
7
  6
CONTINUOUS
 10
155.3544413037
 20
73.2000408506
  0
VERTEX
  8
0
 62
7
  6
CONTINUOUS
 10
155.2826601838
 20
73.3032663491
  0
VERTEX
  8
0
 62
7
  6
CONTINUOUS
 10
155.2045617568
 20
73.3907826432
  0
VERTEX
  8
0
 62
7
  6
CONTINUOUS
 10
155.1234201377
 20
73.4633783009
  0
VERTEX
  8
0
 62
7
  6
CONTINUOUS
 10
155.0424032849
 20
73.5220152456
  0
VERTEX
  8
0
 62
7
  6
CONTINUOUS
 10
154.9634813089
 20
73.568498643
  0
VERTEX
  8
0
 62
7
  6
CONTINUOUS
 10
154.8879769691
 20
73.6046965264
  0
VERTEX
  8
0
 62
7
  6
CONTINUOUS
 10
154.8183575376
 20
73.6318322277
  0
VERTEX
  8
0
 62
7
  6
CONTINUOUS
 10
154.7553431528
 20
73.6518329375
  0
VERTEX
  8
0
 62
7
  6
CONTINUOUS
 10
154.6958887949
 20
73.6672300853
  0
VERTEX
  8
0
 62
7
  6
CONTINUOUS
 10
154.6355806358
 20
73.6799657173
  0
VERTEX
  8
0
 62
7
  6
CONTINUOUS
 10
154.5757205754
 20
73.690368052
  0
SEQEND
  0
LINE
  8
0
 62
7
  6
CONTINUOUS
 10
155.4997168486
 20
72.6803106249
 11
155.4997168486
 21
68.1455283012
  0
POLYLINE
  8
0
 62
7
  6
CONTINUOUS
 66
1
 70
0
  0
VERTEX
  8
0
 62
7
  6
CONTINUOUS
 10
179.6458337184
 20
67.4517560161
  0
VERTEX
  8
0
 62
7
  6
CONTINUOUS
 10
179.7057730172
 20
67.5172572449
  0
VERTEX
  8
0
 62
7
  6
CONTINUOUS
 10
179.7625730533
 20
67.5920106742
  0
VERTEX
  8
0
 62
7
  6
CONTINUOUS
 10
179.8146529137
 20
67.6763362079
  0
SEQEND
  0
LINE
  8
0
 62
7
  6
CONTINUOUS
 10
179.9388804563
 20
72.6667422072
 11
179.9388804563
 21
68.159096719
  0
POLYLINE
  8
0
 62
7
  6
CONTINUOUS
 66
1
 70
0
  0
VERTEX
  8
0
 62
7
  6
CONTINUOUS
 10
179.93888045
 20
72.6667291562
  0
VERTEX
  8
0
 62
7
  6
CONTINUOUS
 10
179.9386632692
 20
72.6458871474
  0
VERTEX
  8
0
 62
7
  6
CONTINUOUS
 10
179.9332358354
 20
72.7728390852
  0
VERTEX
  8
0
 62
7
  6
CONTINUOUS
 10
179.9135714561
 20
72.8903054896
  0
VERTEX
  8
0
 62
7
  6
CONTINUOUS
 10
179.8824533179
 20
72.9979250466
  0
VERTEX
  8
0
 62
7
  6
CONTINUOUS
 10
179.8421671762
 20
73.0958088585
  0
VERTEX
  8
0
 62
7
  6
CONTINUOUS
 10
179.7945799914
 20
73.1842566411
  0
VERTEX
  8
0
 62
7
  6
CONTINUOUS
 10
179.7414604803
 20
73.2633414498
  0
VERTEX
  8
0
 62
7
  6
CONTINUOUS
 10
179.684438893
 20
73.3332521218
  0
VERTEX
  8
0
 62
7
  6
CONTINUOUS
 10
179.6248944423
 20
73.3944171821
  0
VERTEX
  8
0
 62
7
  6
CONTINUOUS
 10
179.5638747488
 20
73.4474779657
  0
VERTEX
  8
0
 62
7
  6
CONTINUOUS
 10
179.5022318077
 20
73.4930898634
  0
VERTEX
  8
0
 62
7
  6
CONTINUOUS
 10
179.4408900506
 20
73.5317637734
  0
SEQEND
  0
LINE
  8
0
 62
7
  6
CONTINUOUS
 10
179.9378153936
 20
68.1129649713
 11
179.93888045
 21
68.1591097698
  0
POLYLINE
  8
0
 62
7
  6
CONTINUOUS
 66
1
 70
0
  0
VERTEX
  8
0
 62
7
  6
CONTINUOUS
 10
179.8975007544
 20
67.8743959983
  0
VERTEX
  8
0
 62
7
  6
CONTINUOUS
 10
179.9242412457
 20
67.9886128028
  0
VERTEX
  8
0
 62
7
  6
CONTINUOUS
 10
179.9378146204
 20
68.11294819
  0
SEQEND
  0
POLYLINE
  8
0
 62
7
  6
CONTINUOUS
 66
1
 70
0
  0
VERTEX
  8
0
 62
7
  6
CONTINUOUS
 10
179.9332439571
 20
72.7727629484
  0
VERTEX
  8
0
 62
7
  6
CONTINUOUS
 10
179.9135982278
 20
72.8901887224
  0
VERTEX
  8
0
 62
7
  6
CONTINUOUS
 10
179.8825056496
 20
72.9977758826
  0
SEQEND
  0
ARC
  8
0
 62
7
  6
CONTINUOUS
 10
35.8089616123
 20
159.9152999587
 40
8.5
 50
71.744631061
 51
105.0
  0
ARC
  8
0
 62
7
  6
CONTINUOUS
 10
24.7103523589
 20
194.0733069437
 40
8.5
 50
291.0
 51
324.255368939
  0
ARC
  8
0
 62
7
  6
CONTINUOUS
 10
72.1275233316
 20
128.8091700969
 40
8.5
 50
107.744631061
 51
141.0
  0
ARC
  8
0
 62
7
  6
CONTINUOUS
 10
43.0709870781
 20
149.9199794016
 40
8.5
 50
327.0
 51
0.255368939
  0
ARC
  8
0
 62
7
  6
CONTINUOUS
 10
83.8777273624
 20
124.9912973725
 40
8.5
 50
3.0
 51
36.255368939
  0
ARC
  8
DEFAULT_3
 62
2
  6
PHANTOM
 10
86.0510252439
 20
190.0138543473
 40
3.2
 50
183.5903778907
 51
225.0
  0
ARC
  8
DEFAULT_3
 62
2
  6
PHANTOM
 10
79.6635867847
 20
189.613067707
 40
3.2
 50
3.5903778907
 51
45.0
  0
ARC
  8
DEFAULT_3
 62
2
  6
PHANTOM
 10
75.4209460976
 20
193.8557083941
 40
3.2
 50
45.0
 51
87.7455692247
  0
ARC
  8
DEFAULT_3
 62
2
  6
PHANTOM
 10
95.4406079802
 20
173.8360465116
 40
3.2
 50
2.2544307753
 51
45.0
  0
ARC
  8
DEFAULT_3
 62
2
  6
PHANTOM
 10
91.197967293
 20
178.0786871987
 40
3.2
 50
45.0
 51
86.4096221093
  0
ARC
  8
DEFAULT_3
 62
2
  6
PHANTOM
 10
91.5987539333
 20
184.4661256578
 40
3.2
 50
225.0
 51
266.4096221093
  0
ARC
  8
0
 62
7
  6
CONTINUOUS
 10
30.0530933808
 20
168.7257815184
 40
1.5
 50
203.7097914243
 51
285.0
  0
ARC
  8
0
 62
7
  6
CONTINUOUS
 10
25.2324282685
 20
183.5622631726
 40
1.5
 50
111.0
 51
192.2902085757
  0
ARC
  8
0
 62
7
  6
CONTINUOUS
 10
62.2922569885
 20
132.5537849467
 40
1.5
 50
239.7097914243
 51
321.0
  0
ARC
  8
0
 62
7
  6
CONTINUOUS
 10
49.6715918763
 20
141.7232348824
 40
1.5
 50
147.0
 51
228.2902085757
  0
ARC
  8
0
 62
7
  6
CONTINUOUS
 10
94.0356543624
 20
122.2397299145
 40
1.5
 50
183.0
 51
264.2902085757
  0
ARC
  8
0
 62
7
  6
CONTINUOUS
 10
38.1583575921
 20
167.0378232847
 40
1.0
 50
27.5457343176
 51
71.744631061
  0
ARC
  8
0
 62
7
  6
CONTINUOUS
 10
30.7975678031
 20
189.6920048387
 40
1.0
 50
324.255368939
 51
8.4542656824
  0
ARC
  8
0
 62
7
  6
CONTINUOUS
 10
69.8417104355
 20
135.9523528192
 40
1.0
 50
63.5457343176
 51
107.744631061
  0
ARC
  8
0
 62
7
  6
CONTINUOUS
 10
50.5709125841
 20
149.9534070068
 40
1.0
 50
0.255368939
 51
44.4542656824
  0
ARC
  8
0
 62
7
  6
CONTINUOUS
 10
89.9256462999
 20
129.426686479
 40
1.0
 50
36.255368939
 51
80.4542656824
  0
ARC
  8
0
 62
7
  6
CONTINUOUS
 10
83.8777273624
 20
275.5102121803
 40
8.5
 50
323.744631061
 51
357.0
  0
ARC
  8
0
 62
7
  6
CONTINUOUS
 10
43.0709870781
 20
250.5815301513
 40
8.5
 50
359.744631061
 51
33.0
  0
ARC
  8
0
 62
7
  6
CONTINUOUS
 10
72.1275233316
 20
271.6923394559
 40
8.5
 50
219.0
 51
252.255368939
  0
ARC
  8
0
 62
7
  6
CONTINUOUS
 10
24.7103523589
 20
206.4282026091
 40
8.5
 50
35.744631061
 51
69.0
  0
ARC
  8
0
 62
7
  6
CONTINUOUS
 10
35.8089616123
 20
240.5862095941
 40
8.5
 50
255.0
 51
288.255368939
  0
ARC
  8
DEFAULT_3
 62
2
  6
PHANTOM
 10
75.6727034585
 20
200.2507547764
 40
3.2
 50
92.2544307753
 51
267.7455692247
  0
ARC
  8
DEFAULT_3
 62
2
  6
PHANTOM
 10
75.4209460976
 20
206.6458011587
 40
3.2
 50
272.2544307753
 51
315.0
  0
ARC
  8
DEFAULT_3
 62
2
  6
PHANTOM
 10
79.6635867847
 20
210.8884418458
 40
3.2
 50
315.0
 51
356.4096221093
  0
ARC
  8
DEFAULT_3
 62
2
  6
PHANTOM
 10
86.0510252439
 20
210.4876552055
 40
3.2
 50
135.0
 51
176.4096221093
  0
ARC
  8
DEFAULT_3
 62
2
  6
PHANTOM
 10
91.5987539333
 20
216.035383895
 40
3.2
 50
93.5903778907
 51
135.0
  0
ARC
  8
DEFAULT_3
 62
2
  6
PHANTOM
 10
91.197967293
 20
222.4228223541
 40
3.2
 50
273.5903778907
 51
315.0
  0
ARC
  8
DEFAULT_3
 62
2
  6
PHANTOM
 10
95.4406079802
 20
226.6654630412
 40
3.2
 50
315.0
 51
357.7455692247
  0
ARC
  8
0
 62
7
  6
CONTINUOUS
 10
94.0356543624
 20
278.2617796383
 40
1.5
 50
95.7097914243
 51
177.0
  0
ARC
  8
0
 62
7
  6
CONTINUOUS
 10
49.6715918763
 20
258.7782746704
 40
1.5
 50
131.7097914243
 51
213.0
  0
ARC
  8
0
 62
7
  6
CONTINUOUS
 10
62.2922569885
 20
267.9477246061
 40
1.5
 50
39.0
 51
120.2902085757
  0
ARC
  8
0
 62
7
  6
CONTINUOUS
 10
25.2324282685
 20
216.9392463802
 40
1.5
 50
167.7097914243
 51
249.0
  0
ARC
  8
0
 62
7
  6
CONTINUOUS
 10
30.0530933808
 20
231.7757280344
 40
1.5
 50
75.0
 51
156.2902085757
  0
ARC
  8
0
 62
7
  6
CONTINUOUS
 10
89.9256462999
 20
271.0748230738
 40
1.0
 50
279.5457343176
 51
323.744631061
  0
ARC
  8
0
 62
7
  6
CONTINUOUS
 10
50.5709125841
 20
250.548102546
 40
1.0
 50
315.5457343176
 51
359.744631061
  0
ARC
  8
0
 62
7
  6
CONTINUOUS
 10
69.8417104355
 20
264.5491567336
 40
1.0
 50
252.255368939
 51
296.4542656824
  0
ARC
  8
0
 62
7
  6
CONTINUOUS
 10
30.7975678031
 20
210.8095047141
 40
1.0
 50
351.5457343176
 51
35.744631061
  0
ARC
  8
0
 62
7
  6
CONTINUOUS
 10
38.1583575921
 20
233.4636862681
 40
1.0
 50
288.255368939
 51
332.4542656824
  0
ARC
  8
0
 62
7
  6
CONTINUOUS
 10
119.7935813624
 20
124.9912973725
 40
8.5
 50
143.744631061
 51
177.0
  0
ARC
  8
0
 62
7
  6
CONTINUOUS
 10
160.6003216467
 20
149.9199794016
 40
8.5
 50
179.744631061
 51
213.0
  0
ARC
  8
0
 62
7
  6
CONTINUOUS
 10
131.5437853932
 20
128.8091700969
 40
8.5
 50
39.0
 51
72.255368939
  0
ARC
  8
0
 62
7
  6
CONTINUOUS
 10
178.960956366
 20
194.0733069437
 40
8.5
 50
215.744631061
 51
249.0
  0
ARC
  8
0
 62
7
  6
CONTINUOUS
 10
167.8623471125
 20
159.9152999587
 40
8.5
 50
75.0
 51
108.255368939
  0
ARC
  8
DEFAULT_3
 62
2
  6
PHANTOM
 10
128.2503626272
 20
193.8557083941
 40
3.2
 50
92.2544307753
 51
135.0
  0
ARC
  8
DEFAULT_3
 62
2
  6
PHANTOM
 10
124.0077219401
 20
189.613067707
 40
3.2
 50
135.0
 51
176.4096221093
  0
ARC
  8
DEFAULT_3
 62
2
  6
PHANTOM
 10
117.620283481
 20
190.0138543473
 40
3.2
 50
315.0
 51
356.4096221093
  0
ARC
  8
DEFAULT_3
 62
2
  6
PHANTOM
 10
112.0725547915
 20
184.4661256578
 40
3.2
 50
273.5903778907
 51
315.0
  0
ARC
  8
DEFAULT_3
 62
2
  6
PHANTOM
 10
112.4733414318
 20
178.0786871987
 40
3.2
 50
93.5903778907
 51
135.0
  0
ARC
  8
DEFAULT_3
 62
2
  6
PHANTOM
 10
108.2307007447
 20
173.8360465116
 40
3.2
 50
135.0
 51
177.7455692247
  0
ARC
  8
DEFAULT_3
 62
2
  6
PHANTOM
 10
101.8356543624
 20
174.0878038725
 40
3.2
 50
182.2544307753
 51
357.7455692247
  0
ARC
  8
0
 62
7
  6
CONTINUOUS
 10
109.6356543624
 20
122.2397299145
 40
1.5
 50
275.7097914243
 51
357.0
  0
ARC
  8
0
 62
7
  6
CONTINUOUS
 10
153.9997168486
 20
141.7232348824
 40
1.5
 50
311.7097914243
 51
33.0
  0
ARC
  8
0
 62
7
  6
CONTINUOUS
 10
141.3790517363
 20
132.5537849467
 40
1.5
 50
219.0
 51
300.2902085757
  0
ARC
  8
0
 62
7
  6
CONTINUOUS
 10
178.4388804563
 20
183.5622631726
 40
1.5
 50
347.7097914243
 51
69.0
  0
ARC
  8
0
 62
7
  6
CONTINUOUS
 10
173.618215344
 20
168.7257815184
 40
1.5
 50
255.0
 51
336.2902085757
  0
ARC
  8
0
 62
7
  6
CONTINUOUS
 10
113.7456624249
 20
129.426686479
 40
1.0
 50
99.5457343176
 51
143.744631061
  0
ARC
  8
0
 62
7
  6
CONTINUOUS
 10
153.1003961407
 20
149.9534070068
 40
1.0
 50
135.5457343176
 51
179.744631061
  0
ARC
  8
0
 62
7
  6
CONTINUOUS
 10
133.8295982893
 20
135.9523528192
 40
1.0
 50
72.255368939
 51
116.4542656824
  0
ARC
  8
0
 62
7
  6
CONTINUOUS
 10
172.8737409217
 20
189.6920048387
 40
1.0
 50
171.5457343176
 51
215.744631061
  0
ARC
  8
0
 62
7
  6
CONTINUOUS
 10
165.5129511328
 20
167.0378232847
 40
1.0
 50
108.255368939
 51
152.4542656824
  0
ARC
  8
0
 62
7
  6
CONTINUOUS
 10
101.8356543624
 20
200.2507547764
 40
79.9
 50
120.2902085757
 51
131.7097914243
  0
ARC
  8
0
 62
7
  6
CONTINUOUS
 10
101.8356543624
 20
200.2507547764
 40
79.9
 50
84.2902085757
 51
95.7097914243
  0
ARC
  8
0
 62
7
  6
CONTINUOUS
 10
101.8356543624
 20
200.2507547764
 40
79.9
 50
48.2902085757
 51
59.7097914243
  0
ARC
  8
0
 62
7
  6
CONTINUOUS
 10
101.8356543624
 20
200.2507547764
 40
79.9
 50
12.2902085757
 51
23.7097914243
  0
ARC
  8
0
 62
7
  6
CONTINUOUS
 10
101.8356543624
 20
200.2507547764
 40
79.9
 50
336.2902085757
 51
347.7097914243
  0
ARC
  8
0
 62
7
  6
CONTINUOUS
 10
101.8356543624
 20
200.2507547764
 40
79.9
 50
300.2902085757
 51
311.7097914243
  0
ARC
  8
0
 62
7
  6
CONTINUOUS
 10
101.8356543624
 20
200.2507547764
 40
79.9
 50
156.2902085757
 51
167.7097914243
  0
ARC
  8
0
 62
7
  6
CONTINUOUS
 10
101.8356543624
 20
200.2507547764
 40
79.9
 50
192.2902085757
 51
203.7097914243
  0
ARC
  8
0
 62
7
  6
CONTINUOUS
 10
101.8356543624
 20
200.2507547764
 40
79.9
 50
228.2902085757
 51
239.7097914243
  0
ARC
  8
0
 62
7
  6
CONTINUOUS
 10
101.8356543624
 20
200.2507547764
 40
79.9
 50
264.2902085757
 51
275.7097914243
  0
ARC
  8
0
 62
7
  6
CONTINUOUS
 10
101.8356543624
 20
200.2507547764
 40
70.8185
 50
99.5457343176
 51
116.4542656824
  0
ARC
  8
0
 62
7
  6
CONTINUOUS
 10
101.8356543624
 20
200.2507547764
 40
70.8185
 50
63.5457343176
 51
80.4542656824
  0
ARC
  8
0
 62
7
  6
CONTINUOUS
 10
101.8356543624
 20
200.2507547764
 40
70.8185
 50
135.5457343176
 51
152.4542656824
  0
ARC
  8
0
 62
7
  6
CONTINUOUS
 10
101.8356543624
 20
200.2507547764
 40
70.8185
 50
171.5457343176
 51
188.4542656824
  0
ARC
  8
0
 62
7
  6
CONTINUOUS
 10
101.8356543624
 20
200.2507547764
 40
70.8185
 50
207.5457343176
 51
224.4542656824
  0
ARC
  8
0
 62
7
  6
CONTINUOUS
 10
101.8356543624
 20
200.2507547764
 40
70.8185
 50
243.5457343176
 51
260.4542656824
  0
ARC
  8
0
 62
7
  6
CONTINUOUS
 10
101.8356543624
 20
200.2507547764
 40
70.8185
 50
279.5457343176
 51
296.4542656824
  0
ARC
  8
0
 62
7
  6
CONTINUOUS
 10
101.8356543624
 20
200.2507547764
 40
70.8185
 50
315.5457343176
 51
332.4542656824
  0
ARC
  8
0
 62
7
  6
CONTINUOUS
 10
101.8356543624
 20
200.2507547764
 40
70.8185
 50
351.5457343176
 51
8.4542656824
  0
ARC
  8
0
 62
7
  6
CONTINUOUS
 10
101.8356543624
 20
200.2507547764
 40
70.8185
 50
27.5457343176
 51
44.4542656824
  0
CIRCLE
  8
AXES
 62
7
  6
CONTINUOUS
 10
101.8356543624
 20
200.2507547764
 40
35.0
  0
CIRCLE
  8
DEFAULT_3
 62
2
  6
PHANTOM
 10
101.8356543624
 20
200.2507547764
 40
9.0
  0
ARC
  8
DEFAULT_3
 62
2
  6
PHANTOM
 10
101.8356543624
 20
226.4137056803
 40
3.2
 50
2.2544307753
 51
177.7455692247
  0
ARC
  8
DEFAULT_3
 62
2
  6
PHANTOM
 10
108.2307007447
 20
226.6654630412
 40
3.2
 50
182.2544307753
 51
225.0
  0
ARC
  8
DEFAULT_3
 62
2
  6
PHANTOM
 10
112.4733414318
 20
222.4228223541
 40
3.2
 50
225.0
 51
266.4096221093
  0
ARC
  8
DEFAULT_3
 62
2
  6
PHANTOM
 10
112.0725547915
 20
216.035383895
 40
3.2
 50
45.0
 51
86.4096221093
  0
ARC
  8
DEFAULT_3
 62
2
  6
PHANTOM
 10
117.620283481
 20
210.4876552055
 40
3.2
 50
3.5903778907
 51
45.0
  0
ARC
  8
DEFAULT_3
 62
2
  6
PHANTOM
 10
124.0077219401
 20
210.8884418458
 40
3.2
 50
183.5903778907
 51
225.0
  0
ARC
  8
DEFAULT_3
 62
2
  6
PHANTOM
 10
128.2503626272
 20
206.6458011587
 40
3.2
 50
225.0
 51
267.7455692247
  0
ARC
  8
DEFAULT_3
 62
2
  6
PHANTOM
 10
127.9986052663
 20
200.2507547764
 40
3.2
 50
272.2544307753
 51
87.7455692247
  0
ARC
  8
0
 62
7
  6
CONTINUOUS
 10
119.7935813624
 20
275.5102121803
 40
8.5
 50
183.0
 51
216.255368939
  0
ARC
  8
0
 62
7
  6
CONTINUOUS
 10
131.5437853932
 20
271.6923394559
 40
8.5
 50
287.744631061
 51
321.0
  0
CIRCLE
  8
0
 62
7
  6
CONTINUOUS
 10
101.8356543624
 20
270.2507547764
 40
1.7320508076
  0
ARC
  8
0
 62
7
  6
CONTINUOUS
 10
109.6356543624
 20
278.2617796383
 40
1.5
 50
3.0
 51
84.2902085757
  0
ARC
  8
0
 62
7
  6
CONTINUOUS
 10
113.7456624249
 20
271.0748230738
 40
1.0
 50
216.255368939
 51
260.4542656824
  0
ARC
  8
0
 62
7
  6
CONTINUOUS
 10
133.8295982893
 20
264.5491567336
 40
1.0
 50
243.5457343176
 51
287.744631061
  0
ARC
  8
0
 62
7
  6
CONTINUOUS
 10
178.960956366
 20
206.4282026091
 40
8.5
 50
111.0
 51
144.255368939
  0
ARC
  8
0
 62
7
  6
CONTINUOUS
 10
178.4388804563
 20
216.9392463802
 40
1.5
 50
291.0
 51
12.2902085757
  0
ARC
  8
0
 62
7
  6
CONTINUOUS
 10
173.618215344
 20
231.7757280344
 40
1.5
 50
23.7097914243
 51
105.0
  0
ARC
  8
0
 62
7
  6
CONTINUOUS
 10
172.8737409217
 20
210.8095047141
 40
1.0
 50
144.255368939
 51
188.4542656824
  0
ARC
  8
0
 62
7
  6
CONTINUOUS
 10
165.5129511328
 20
233.4636862681
 40
1.0
 50
207.5457343176
 51
251.744631061
  0
ARC
  8
0
 62
7
  6
CONTINUOUS
 10
160.6003216467
 20
250.5815301513
 40
8.5
 50
147.0
 51
180.255368939
  0
ARC
  8
0
 62
7
  6
CONTINUOUS
 10
167.8623471125
 20
240.5862095941
 40
8.5
 50
251.744631061
 51
285.0
  0
ARC
  8
0
 62
7
  6
CONTINUOUS
 10
153.9997168486
 20
258.7782746704
 40
1.5
 50
327.0
 51
48.2902085757
  0
ARC
  8
0
 62
7
  6
CONTINUOUS
 10
141.3790517363
 20
267.9477246061
 40
1.5
 50
59.7097914243
 51
141.0
  0
ARC
  8
0
 62
7
  6
CONTINUOUS
 10
153.1003961407
 20
250.548102546
 40
1.0
 50
180.255368939
 51
224.4542656824
  0
ARC
  8
0
 62
7
  6
CONTINUOUS
 10
141.8356543624
 20
61.9129194631
 40
5.0
 50
90.0
 51
180.0
  0
ARC
  8
0
 62
7
  6
CONTINUOUS
 10
61.8356543624
 20
61.9129194631
 40
5.0
 50
0.0
 51
74.0516526909
  0
ARC
  8
0
 62
7
  6
CONTINUOUS
 10
141.8356543624
 20
78.9129194631
 40
5.0
 50
180.0
 51
270.0
  0
ARC
  8
0
 62
7
  6
CONTINUOUS
 10
61.8356543624
 20
78.9129194631
 40
5.0
 50
270.0
 51
360.0
  0
ARC
  8
AXES
 62
7
  6
CONTINUOUS
 10
134.8356543624
 20
89.5629194631
 40
2.0
 50
0.0
 51
90.0
  0
ARC
  8
AXES
 62
7
  6
CONTINUOUS
 10
68.8356543624
 20
89.5629194631
 40
2.0
 50
90.0
 51
180.0
  0
ARC
  8
AXES
 62
7
  6
CONTINUOUS
 10
134.8356543624
 20
51.2629194631
 40
2.0
 50
270.0
 51
360.0
  0
ARC
  8
AXES
 62
7
  6
CONTINUOUS
 10
68.8356543624
 20
51.2629194631
 40
2.0
 50
180.0
 51
270.0
  0
ENDSEC
  0
EOF
