  0
SECTION
  2
HEADER
  9
$EXTMAX
 10
210.0
 20
297.0
 30
0.0
  9
$EXTMIN
 10
0.0
 20
0.0
 30
0.0
  9
$LIMMIN
 10
0.0
 20
0.0
  9
$LIMMAX
 10
210.0
 20
297.0
  9
$VIEWCTR
 10
105.0
 20
148.5
  9
$VIEWSIZE
 40
297.0
  9
$CLAYER
  8
0
  9
$LTSCALE
 40
19.36
  9
$CELTYPE
  6
BYLAYER
  9
$DIMSCALE
 40
1.0
  9
$DIMASZ
 40
3.5
  9
$DIMEXO
 40
1.0
  9
$DIMDLI
 40
13.376
  9
$DIMEXE
 40
2.0
  9
$DIMCEN
 40
3.168
  9
$DIMLFAC
 40
1.0
  9
$DIMBLK
  1
_FILLED
  9
$DIMALT
 70
0
  9
$DIMALTF
 40
0.0393700787
  9
$DIMTXT
 40
3.5
  9
$AUNITS
 70
0
  9
$PDMODE
 70
3
  9
$PDSIZE
 40
0.3125
  9
$TILEMODE
 70
1
  0
ENDSEC
  0
SECTION
  2
TABLES
  0
TABLE
  2
LTYPE
 70
6
  0
LTYPE
  2
BYBLOCK
 70
0
  3

 72
65
 73
0
 40
0.0
  0
LTYPE
  2
BYLAYER
 70
0
  3

 72
65
 73
0
 40
0.0
  0
LTYPE
  2
CONTINUOUS
 70
64
  3
Solid line
 72
65
 73
0
 40
0.0
  0
LTYPE
  2
CENTER
 70
64
  3
____ _ ____ _ ____ _ ____ _ ____ _ ____ _ ____
 72
65
 73
4
 40
0.6
 49
0.375
 49
-0.075
 49
0.075
 49
-0.075
  0
LTYPE
  2
HIDDEN
 70
64
  3
- - - - - - - - - - - - - - - - - - - -
 72
65
 73
2
 40
0.2
 49
0.1
 49
-0.1
  0
LTYPE
  2
PHANTOM
 70
64
  3
_____ _ _ _____ _ _ _____ _ _ _____
 72
65
 73
6
 40
0.8
 49
0.45
 49
-0.05
 49
0.1
 49
-0.05
 49
0.1
 49
-0.05
  0
LTYPE
  2
DOT
 70
64
  3
. . . . . . . . . . . . . . . . . . . .
 72
65
 73
2
 40
0.2
 49
0.1
 49
-0.1
  0
LTYPE
  2
DASHED
 70
64
  3
- - - - - - - - - - - - - - - - - - - -
 72
65
 73
2
 40
0.2
 49
0.1
 49
-0.1
  0
ENDTAB
  0
TABLE
  2
LAYER
 70
36
  0
LAYER
  2
0
 70
0
 62
7
  6
CONTINUOUS
  0
LAYER
  2
DEFAULT_1
 70
0
 62
7
  6
CENTER
  0
LAYER
  2
DEFAULT_2
 70
0
 62
8
  6
HIDDEN
  0
LAYER
  2
DEFAULT_3
 70
0
 62
7
  6
PHANTOM
  0
LAYER
  2
AXES
 70
0
 62
7
  6
CONTINUOUS
  0
LAYER
  2
CSYS
 70
0
 62
7
  6
CONTINUOUS
  0
LAYER
  2
PLANES
 70
0
 62
7
  6
CONTINUOUS
  0
LAYER
  2
QUILTS
 70
0
 62
7
  6
CONTINUOUS
  0
ENDTAB
  0
TABLE
  2
STYLE
 70
1
  0
STYLE
  2
STANDARD
 70
0
 40
0.0
 41
0.8
 50
0.0
 71
0
 42
0.2
  3
txt
  4

  0
STYLE
  2
TEXTSTYLE_1
 70
0
 40
0.0
 41
0.8
 50
0.0
 71
0
 42
0.2
  3
gdt
  4

  0
STYLE
  2
TEXTSTYLE_2
 70
0
 40
0.0
 41
0.6
 50
0.0
 71
0
 42
0.2
  3
txt
  4

  0
STYLE
  2
TEXTSTYLE_3
 70
0
 40
0.0
 41
1.0
 50
0.0
 71
0
 42
0.2
  3
ftb_____.ttf
  4

  0
STYLE
  2
TEXTSTYLE_4
 70
0
 40
0.0
 41
1.0
 50
0.0
 71
0
 42
0.2
  3
fti_____.ttf
  4

  0
STYLE
  2
TEXTSTYLE_5
 70
0
 40
0.0
 41
1.0
 50
0.0
 71
0
 42
0.2
  3
frutiger light.ttf
  4

  0
STYLE
  2
TEXTSTYLE_6
 70
0
 40
0.0
 41
0.7
 50
0.0
 71
0
 42
0.2
  3
txt
  4

  0
STYLE
  2
TEXTSTYLE_7
 70
0
 40
0.0
 41
0.8
 50
0.0
 71
0
 42
0.2
  3
txt
  4

  0
ENDTAB
  0
ENDSEC
  0
SECTION
  2
BLOCKS
  0
BLOCK
  8
0
 62
2
  6
CONTINUOUS
  2
UNI_LOGO2_BL1
 70
64
 10
173.5956734183
 20
35.5937998301
  0
TEXT
  8
0
 62
7
  6
CONTINUOUS
 10
164.6539584268
 20
30.6865562072
  7
TEXTSTYLE_4
 40
1.0655737705
  1
The brand for plastic modular belts and chains
 41
1.0
 72
0
  0
LINE
  8
0
 62
7
  6
CONTINUOUS
 10
149.5737418074
 20
36.1675703219
 11
149.5737418074
 21
34.0364227809
  0
LINE
  8
0
 62
7
  6
CONTINUOUS
 10
149.8628043005
 20
31.0454914852
 11
149.8628043005
 21
31.1422825445
  0
LINE
  8
0
 62
7
  6
CONTINUOUS
 10
149.5737418074
 20
31.1100188581
 11
149.6315543091
 21
30.9164367395
  0
LINE
  8
0
 62
7
  6
CONTINUOUS
 10
150.9671844304
 20
33.9544555678
 11
150.9671844304
 21
36.1675703219
  0
LINE
  8
0
 62
7
  6
CONTINUOUS
 10
151.8862417523
 20
32.1101932727
 11
151.8862417523
 21
30.5937998301
  0
LINE
  8
0
 62
7
  6
CONTINUOUS
 10
152.1753043074
 20
30.5937998301
 11
152.1753043074
 21
31.3358647082
  0
LINE
  8
0
 62
7
  6
CONTINUOUS
 10
152.1753043074
 20
31.4649194539
 11
152.1753043074
 21
32.1101932727
  0
LINE
  8
0
 62
7
  6
CONTINUOUS
 10
149.6315543091
 20
31.3036010218
 11
149.5737418074
 21
31.1100188581
  0
LINE
  8
0
 62
7
  6
CONTINUOUS
 10
149.9784292936
 20
30.8841730531
 11
149.8628043005
 21
31.0454914852
  0
LINE
  8
0
 62
7
  6
CONTINUOUS
 10
151.0768668626
 20
31.400392081
 11
151.1346793074
 21
31.3036010218
  0
LINE
  8
0
 62
7
  6
CONTINUOUS
 10
151.4237418626
 20
31.3036010218
 11
151.3659292523
 21
31.4326557675
  0
LINE
  8
0
 62
7
  6
CONTINUOUS
 10
152.852430332
 20
36.1675703219
 11
152.852430332
 21
34.3642916334
  0
LINE
  8
0
 62
7
  6
CONTINUOUS
 10
152.852430332
 20
33.0528162235
 11
152.852430332
 21
32.3970785186
  0
LINE
  8
0
 62
7
  6
CONTINUOUS
 10
153.2159293074
 20
31.2390736489
 11
153.2159293074
 21
30.5937998301
  0
LINE
  8
0
 62
7
  6
CONTINUOUS
 10
153.5049916972
 20
30.5937998301
 11
153.5049916972
 21
31.2390736489
  0
LINE
  8
0
 62
7
  6
CONTINUOUS
 10
149.8628043005
 20
31.1422825445
 11
149.9206168074
 21
31.2713373354
  0
LINE
  8
0
 62
7
  6
CONTINUOUS
 10
149.6315543091
 20
30.9164367395
 11
149.7471793074
 21
30.7873819712
  0
LINE
  8
0
 62
7
  6
CONTINUOUS
 10
153.1581166972
 20
31.3681283946
 11
153.2159293074
 21
31.2390736489
  0
LINE
  8
0
 62
7
  6
CONTINUOUS
 10
153.9674919177
 20
30.8841730531
 11
154.0253041972
 21
30.7551182848
  0
LINE
  8
0
 62
7
  6
CONTINUOUS
 10
153.5049916972
 20
31.2390736489
 11
153.4471794177
 21
31.400392081
  0
LINE
  8
0
 62
7
  6
CONTINUOUS
 10
153.9674919177
 20
31.4326557675
 11
153.9674919177
 21
31.3681283946
  0
LINE
  8
0
 62
7
  6
CONTINUOUS
 10
153.9674919177
 20
30.9809641124
 11
153.9674919177
 21
30.8841730531
  0
LINE
  8
0
 62
7
  6
CONTINUOUS
 10
154.245872955
 20
32.3970785186
 11
154.245872955
 21
36.1675703219
  0
LINE
  8
0
 62
7
  6
CONTINUOUS
 10
154.2565543074
 20
30.8519093441
 11
154.2565543074
 21
30.9164367395
  0
LINE
  8
0
 62
7
  6
CONTINUOUS
 10
154.5737418074
 20
36.1675703219
 11
154.5737418074
 21
32.3970785186
  0
LINE
  8
0
 62
7
  6
CONTINUOUS
 10
151.3659292523
 20
30.7873819712
 11
151.4237418626
 21
30.9164367395
  0
LINE
  8
0
 62
7
  6
CONTINUOUS
 10
155.759679528
 20
30.6905909007
 11
155.7018665869
 21
30.8519093441
  0
LINE
  8
0
 62
7
  6
CONTINUOUS
 10
155.412804528
 20
31.3681283946
 11
155.412804528
 21
31.2713373354
  0
LINE
  8
0
 62
7
  6
CONTINUOUS
 10
155.412804528
 20
31.1422825445
 11
155.412804528
 21
30.9487004259
  0
LINE
  8
0
 62
7
  6
CONTINUOUS
 10
155.7018665869
 20
30.8519093441
 11
155.7018665869
 21
31.3681283946
  0
LINE
  8
0
 62
7
  6
CONTINUOUS
 10
155.9671844304
 20
32.3970785186
 11
155.9671844304
 21
34.2003572071
  0
LINE
  8
0
 62
7
  6
CONTINUOUS
 10
155.9671844304
 20
35.511832617
 11
155.9671844304
 21
36.1675703219
  0
LINE
  8
0
 62
7
  6
CONTINUOUS
 10
156.279992028
 20
32.1101932727
 11
156.279992028
 21
31.9488748406
  0
LINE
  8
0
 62
7
  6
CONTINUOUS
 10
156.279992028
 20
31.626237886
 11
156.279992028
 21
30.5937998301
  0
LINE
  8
0
 62
7
  6
CONTINUOUS
 10
156.5690540869
 20
30.5937998301
 11
156.5690540869
 21
31.626237886
  0
LINE
  8
0
 62
7
  6
CONTINUOUS
 10
156.5690540869
 20
31.9488748406
 11
156.5690540869
 21
32.1101932727
  0
LINE
  8
0
 62
7
  6
CONTINUOUS
 10
151.1346793074
 20
30.9164367395
 11
151.0768668626
 21
30.8196456577
  0
LINE
  8
0
 62
7
  6
CONTINUOUS
 10
153.4471794177
 20
31.400392081
 11
153.3893668074
 21
31.4649194539
  0
LINE
  8
0
 62
7
  6
CONTINUOUS
 10
154.3143669177
 20
30.7873819712
 11
154.2565543074
 21
30.8519093441
  0
LINE
  8
0
 62
7
  6
CONTINUOUS
 10
155.4706168074
 20
30.6583272086
 11
155.5284290869
 21
30.5937998301
  0
LINE
  8
0
 62
7
  6
CONTINUOUS
 10
155.412804528
 20
30.7551182848
 11
155.4706168074
 21
30.6583272086
  0
LINE
  8
0
 62
7
  6
CONTINUOUS
 10
155.8174918074
 20
30.5937998301
 11
155.759679528
 21
30.6905909007
  0
LINE
  8
0
 62
7
  6
CONTINUOUS
 10
155.7018665869
 20
31.3681283946
 11
155.6440543074
 21
31.4649194539
  0
LINE
  8
0
 62
7
  6
CONTINUOUS
 10
157.0315543074
 20
31.626237886
 11
157.0315543074
 21
30.5937998301
  0
LINE
  8
0
 62
7
  6
CONTINUOUS
 10
157.320617028
 20
30.5937998301
 11
157.320617028
 21
31.3358647082
  0
LINE
  8
0
 62
7
  6
CONTINUOUS
 10
157.320617028
 20
31.4649194539
 11
157.320617028
 21
31.626237886
  0
LINE
  8
0
 62
7
  6
CONTINUOUS
 10
157.852430332
 20
34.6101932727
 11
157.852430332
 21
32.3970785186
  0
LINE
  8
0
 62
7
  6
CONTINUOUS
 10
149.7471793074
 20
31.4326557675
 11
149.6315543091
 21
31.3036010218
  0
LINE
  8
0
 62
7
  6
CONTINUOUS
 10
149.9206168074
 20
31.2713373354
 11
149.9784292936
 21
31.3358647082
  0
LINE
  8
0
 62
7
  6
CONTINUOUS
 10
149.7471793074
 20
30.7873819712
 11
149.8628043005
 21
30.7228545871
  0
LINE
  8
0
 62
7
  6
CONTINUOUS
 10
150.1518667936
 20
30.7873819712
 11
149.9784292936
 21
30.8841730531
  0
LINE
  8
0
 62
7
  6
CONTINUOUS
 10
155.3549915869
 20
31.4326557675
 11
155.412804528
 21
31.3681283946
  0
LINE
  8
0
 62
7
  6
CONTINUOUS
 10
158.3034290869
 20
31.3681283946
 11
158.361242028
 21
31.2068099625
  0
LINE
  8
0
 62
7
  6
CONTINUOUS
 10
158.6503040869
 20
31.2068099625
 11
158.5924918074
 21
31.3681283946
  0
LINE
  8
0
 62
7
  6
CONTINUOUS
 10
158.361242028
 20
31.2068099625
 11
158.361242028
 21
30.5937998301
  0
LINE
  8
0
 62
7
  6
CONTINUOUS
 10
158.6503040869
 20
30.5937998301
 11
158.6503040869
 21
31.2068099625
  0
LINE
  8
0
 62
7
  6
CONTINUOUS
 10
159.1128043074
 20
31.4326557675
 11
159.1128043074
 21
31.3681283946
  0
LINE
  8
0
 62
7
  6
CONTINUOUS
 10
159.245872955
 20
32.3970785186
 11
159.245872955
 21
34.5282260596
  0
LINE
  8
0
 62
7
  6
CONTINUOUS
 10
159.5737418074
 20
36.1675703219
 11
159.5737418074
 21
32.3970785186
  0
LINE
  8
0
 62
7
  6
CONTINUOUS
 10
154.2565543074
 20
30.9164367395
 11
154.3143669177
 21
31.0132277988
  0
LINE
  8
0
 62
7
  6
CONTINUOUS
 10
149.8628043005
 20
30.7228545871
 11
150.0362418212
 21
30.6583272086
  0
LINE
  8
0
 62
7
  6
CONTINUOUS
 10
151.3659292523
 20
31.4326557675
 11
151.1924917523
 21
31.5294468267
  0
LINE
  8
0
 62
7
  6
CONTINUOUS
 10
154.0253041972
 20
30.7551182848
 11
154.1987416972
 21
30.6583272086
  0
LINE
  8
0
 62
7
  6
CONTINUOUS
 10
153.0424918074
 20
31.4326557675
 11
153.1581166972
 21
31.3681283946
  0
LINE
  8
0
 62
7
  6
CONTINUOUS
 10
153.3893668074
 20
31.4649194539
 11
153.2737419177
 21
31.5294468267
  0
LINE
  8
0
 62
7
  6
CONTINUOUS
 10
159.1128043074
 20
30.8519093441
 11
159.228429528
 21
30.7228545871
  0
LINE
  8
0
 62
7
  6
CONTINUOUS
 10
159.4596793074
 20
30.7873819712
 11
159.401867028
 21
30.8519093441
  0
LINE
  8
0
 62
7
  6
CONTINUOUS
 10
159.1128043074
 20
31.3681283946
 11
159.228429528
 21
31.2390736489
  0
LINE
  8
0
 62
7
  6
CONTINUOUS
 10
158.5924918074
 20
31.3681283946
 11
158.534679528
 21
31.4649194539
  0
LINE
  8
0
 62
7
  6
CONTINUOUS
 10
160.9628038663
 20
30.7873819712
 11
160.9628038663
 21
30.8519093441
  0
LINE
  8
0
 62
7
  6
CONTINUOUS
 10
160.9671844304
 20
32.3970785186
 11
160.9671844304
 21
36.1675703219
  0
LINE
  8
0
 62
7
  6
CONTINUOUS
 10
154.0253041972
 20
31.4971831403
 11
153.9674919177
 21
31.4326557675
  0
LINE
  8
0
 62
7
  6
CONTINUOUS
 10
150.9034292799
 20
31.4649194539
 11
151.0768668626
 21
31.400392081
  0
LINE
  8
0
 62
7
  6
CONTINUOUS
 10
155.6440543074
 20
31.4649194539
 11
155.5284290869
 21
31.5294468267
  0
LINE
  8
0
 62
7
  6
CONTINUOUS
 10
159.4596793074
 20
31.3036010218
 11
159.401867028
 21
31.3681283946
  0
LINE
  8
0
 62
7
  6
CONTINUOUS
 10
160.615929528
 20
30.9164367395
 11
160.6737418074
 21
30.8519093441
  0
LINE
  8
0
 62
7
  6
CONTINUOUS
 10
160.9628038663
 20
30.8519093441
 11
160.8471793074
 21
30.9809641124
  0
LINE
  8
0
 62
7
  6
CONTINUOUS
 10
160.615929528
 20
31.4326557675
 11
160.6737418074
 21
31.3681283946
  0
LINE
  8
0
 62
7
  6
CONTINUOUS
 10
160.9628038663
 20
31.3681283946
 11
160.8471793074
 21
31.4971831403
  0
LINE
  8
0
 62
7
  6
CONTINUOUS
 10
154.2565543074
 20
31.3681283946
 11
154.3143669177
 21
31.4326557675
  0
LINE
  8
0
 62
7
  6
CONTINUOUS
 10
154.0831168074
 20
31.1100188581
 11
153.9674919177
 21
30.9809641124
  0
LINE
  8
0
 62
7
  6
CONTINUOUS
 10
155.412804528
 20
30.9487004259
 11
155.3549915869
 21
30.8841730531
  0
LINE
  8
0
 62
7
  6
CONTINUOUS
 10
155.3549915869
 20
30.6905909007
 11
155.412804528
 21
30.7551182848
  0
LINE
  8
0
 62
7
  6
CONTINUOUS
 10
154.1987416972
 20
30.6583272086
 11
154.3143669177
 21
30.6260635193
  0
LINE
  8
0
 62
7
  6
CONTINUOUS
 10
151.1924917523
 20
31.5294468267
 11
150.9612418074
 21
31.5939741996
  0
LINE
  8
0
 62
7
  6
CONTINUOUS
 10
154.5456166972
 20
30.7228545871
 11
154.3143669177
 21
30.7873819712
  0
LINE
  8
0
 62
7
  6
CONTINUOUS
 10
153.2737419177
 20
31.5294468267
 11
153.1003044177
 21
31.5939741996
  0
LINE
  8
0
 62
7
  6
CONTINUOUS
 10
155.5284290869
 20
31.5294468267
 11
155.3549915869
 21
31.5939741996
  0
LINE
  8
0
 62
7
  6
CONTINUOUS
 10
158.187804528
 20
31.4326557675
 11
158.3034290869
 21
31.3681283946
  0
LINE
  8
0
 62
7
  6
CONTINUOUS
 10
158.534679528
 20
31.4649194539
 11
158.4190543074
 21
31.5294468267
  0
LINE
  8
0
 62
7
  6
CONTINUOUS
 10
150.0362418212
 20
30.6583272086
 11
150.2096793212
 21
30.6260635193
  0
LINE
  8
0
 62
7
  6
CONTINUOUS
 10
150.498741835
 20
30.7228545871
 11
150.1518667936
 21
30.7873819712
  0
LINE
  8
0
 62
7
  6
CONTINUOUS
 10
152.9268669177
 20
31.4649194539
 11
153.0424918074
 21
31.4326557675
  0
LINE
  8
0
 62
7
  6
CONTINUOUS
 10
155.239367028
 20
31.4649194539
 11
155.3549915869
 21
31.4326557675
  0
LINE
  8
0
 62
7
  6
CONTINUOUS
 10
159.575304528
 20
30.7551182848
 11
159.4596793074
 21
30.7873819712
  0
LINE
  8
0
 62
7
  6
CONTINUOUS
 10
158.0721793074
 20
31.4649194539
 11
158.187804528
 21
31.4326557675
  0
LINE
  8
0
 62
7
  6
CONTINUOUS
 10
159.228429528
 20
30.7228545871
 11
159.401867028
 21
30.6583272086
  0
LINE
  8
0
 62
7
  6
CONTINUOUS
 10
158.4190543074
 20
31.5294468267
 11
158.2456168074
 21
31.5939741996
  0
LINE
  8
0
 62
7
  6
CONTINUOUS
 10
159.6331168074
 20
31.2390736489
 11
159.4596793074
 21
31.3036010218
  0
LINE
  8
0
 62
7
  6
CONTINUOUS
 10
160.442492028
 20
30.9809641124
 11
160.615929528
 21
30.9164367395
  0
LINE
  8
0
 62
7
  6
CONTINUOUS
 10
160.8471793074
 20
31.4971831403
 11
160.6737418074
 21
31.5617105132
  0
LINE
  8
0
 62
7
  6
CONTINUOUS
 10
159.228429528
 20
31.2390736489
 11
159.4596793074
 21
31.1422825445
  0
LINE
  8
0
 62
7
  6
CONTINUOUS
 10
160.8471793074
 20
30.9809641124
 11
160.615929528
 21
31.0777551716
  0
LINE
  8
0
 62
7
  6
CONTINUOUS
 10
159.401867028
 20
31.3681283946
 11
159.4596793074
 21
31.4326557675
  0
LINE
  8
0
 62
7
  6
CONTINUOUS
 10
149.8628043005
 20
31.4971831403
 11
149.7471793074
 21
31.4326557675
  0
LINE
  8
0
 62
7
  6
CONTINUOUS
 10
149.9784292936
 20
31.3358647082
 11
150.1518667936
 21
31.4326557675
  0
LINE
  8
0
 62
7
  6
CONTINUOUS
 10
152.2909293626
 20
31.5294468267
 11
152.1753043074
 21
31.4649194539
  0
LINE
  8
0
 62
7
  6
CONTINUOUS
 10
152.1753043074
 20
31.3358647082
 11
152.2909293626
 21
31.400392081
  0
LINE
  8
0
 62
7
  6
CONTINUOUS
 10
151.1924917523
 20
30.6905909007
 11
151.3659292523
 21
30.7873819712
  0
LINE
  8
0
 62
7
  6
CONTINUOUS
 10
150.2096793212
 20
30.6260635193
 11
150.5565542799
 21
30.5937998301
  0
LINE
  8
0
 62
7
  6
CONTINUOUS
 10
154.3143669177
 20
30.6260635193
 11
154.5456166972
 21
30.5937998301
  0
LINE
  8
0
 62
7
  6
CONTINUOUS
 10
152.6956168074
 20
31.4971831403
 11
152.9268669177
 21
31.4649194539
  0
LINE
  8
0
 62
7
  6
CONTINUOUS
 10
155.0081169177
 20
31.4971831403
 11
155.239367028
 21
31.4649194539
  0
LINE
  8
0
 62
7
  6
CONTINUOUS
 10
159.4596793074
 20
31.1422825445
 11
160.442492028
 21
30.9809641124
  0
LINE
  8
0
 62
7
  6
CONTINUOUS
 10
160.615929528
 20
31.0777551716
 11
159.6331168074
 21
31.2390736489
  0
LINE
  8
0
 62
7
  6
CONTINUOUS
 10
153.1003044177
 20
31.5939741996
 11
152.9268669177
 21
31.626237886
  0
LINE
  8
0
 62
7
  6
CONTINUOUS
 10
159.401867028
 20
30.6583272086
 11
159.575304528
 21
30.6260635193
  0
LINE
  8
0
 62
7
  6
CONTINUOUS
 10
158.2456168074
 20
31.5939741996
 11
158.0721793074
 21
31.626237886
  0
LINE
  8
0
 62
7
  6
CONTINUOUS
 10
160.5003043074
 20
31.4649194539
 11
160.615929528
 21
31.4326557675
  0
LINE
  8
0
 62
7
  6
CONTINUOUS
 10
160.6737418074
 20
30.8519093441
 11
160.615929528
 21
30.7873819712
  0
LINE
  8
0
 62
7
  6
CONTINUOUS
 10
159.228429528
 20
31.5294468267
 11
159.1128043074
 21
31.4326557675
  0
LINE
  8
0
 62
7
  6
CONTINUOUS
 10
154.1409294177
 20
31.5617105132
 11
154.0253041972
 21
31.4971831403
  0
LINE
  8
0
 62
7
  6
CONTINUOUS
 10
154.1987416972
 20
31.1745462761
 11
154.0831168074
 21
31.1100188581
  0
LINE
  8
0
 62
7
  6
CONTINUOUS
 10
154.3143669177
 20
31.0132277988
 11
154.4299918074
 21
31.0777551716
  0
LINE
  8
0
 62
7
  6
CONTINUOUS
 10
151.8862417523
 20
30.5937998301
 11
152.1753043074
 21
30.5937998301
  0
LINE
  8
0
 62
7
  6
CONTINUOUS
 10
153.2159293074
 20
30.5937998301
 11
153.5049916972
 21
30.5937998301
  0
LINE
  8
0
 62
7
  6
CONTINUOUS
 10
154.5456166972
 20
30.5937998301
 11
154.8924916972
 21
30.5937998301
  0
LINE
  8
0
 62
7
  6
CONTINUOUS
 10
155.5284290869
 20
30.5937998301
 11
155.8174918074
 21
30.5937998301
  0
LINE
  8
0
 62
7
  6
CONTINUOUS
 10
156.279992028
 20
30.5937998301
 11
156.5690540869
 21
30.5937998301
  0
LINE
  8
0
 62
7
  6
CONTINUOUS
 10
157.0315543074
 20
30.5937998301
 11
157.320617028
 21
30.5937998301
  0
LINE
  8
0
 62
7
  6
CONTINUOUS
 10
158.361242028
 20
30.5937998301
 11
158.6503040869
 21
30.5937998301
  0
LINE
  8
0
 62
7
  6
CONTINUOUS
 10
159.922179528
 20
30.5937998301
 11
160.269054528
 21
30.5937998301
  0
LINE
  8
0
 62
7
  6
CONTINUOUS
 10
160.269054528
 20
30.7228545871
 11
159.922179528
 21
30.7228545871
  0
LINE
  8
0
 62
7
  6
CONTINUOUS
 10
154.8924916972
 20
30.7228545871
 11
154.5456166972
 21
30.7228545871
  0
LINE
  8
0
 62
7
  6
CONTINUOUS
 10
159.401867028
 20
30.8519093441
 11
159.1128043074
 21
30.8519093441
  0
LINE
  8
0
 62
7
  6
CONTINUOUS
 10
151.4237418626
 20
30.9164367395
 11
151.1346793074
 21
30.9164367395
  0
LINE
  8
0
 62
7
  6
CONTINUOUS
 10
150.498741835
 20
31.4971831403
 11
150.9034292799
 21
31.4649194539
  0
LINE
  8
0
 62
7
  6
CONTINUOUS
 10
150.9612418074
 20
31.5939741996
 11
150.5565542799
 21
31.626237886
  0
LINE
  8
0
 62
7
  6
CONTINUOUS
 10
159.575304528
 20
30.6260635193
 11
159.922179528
 21
30.5937998301
  0
LINE
  8
0
 62
7
  6
CONTINUOUS
 10
159.922179528
 20
30.7228545871
 11
159.575304528
 21
30.7551182848
  0
LINE
  8
0
 62
7
  6
CONTINUOUS
 10
155.3549915869
 20
31.5939741996
 11
155.0081169177
 21
31.626237886
  0
LINE
  8
0
 62
7
  6
CONTINUOUS
 10
160.1534293074
 20
31.4971831403
 11
160.5003043074
 21
31.4649194539
  0
LINE
  8
0
 62
7
  6
CONTINUOUS
 10
160.5003043074
 20
31.5939741996
 11
160.1534293074
 21
31.626237886
  0
LINE
  8
0
 62
7
  6
CONTINUOUS
 10
157.840929528
 20
31.4971831403
 11
158.0721793074
 21
31.4649194539
  0
LINE
  8
0
 62
7
  6
CONTINUOUS
 10
160.6737418074
 20
31.5617105132
 11
160.5003043074
 21
31.5939741996
  0
LINE
  8
0
 62
7
  6
CONTINUOUS
 10
160.8471793074
 20
30.6905909007
 11
160.9628038663
 21
30.7873819712
  0
LINE
  8
0
 62
7
  6
CONTINUOUS
 10
155.3549915869
 20
30.8841730531
 11
155.1815540869
 21
30.7873819712
  0
LINE
  8
0
 62
7
  6
CONTINUOUS
 10
157.4362415869
 20
31.5294468267
 11
157.320617028
 21
31.4649194539
  0
LINE
  8
0
 62
7
  6
CONTINUOUS
 10
157.320617028
 20
31.3358647082
 11
157.4362415869
 21
31.400392081
  0
LINE
  8
0
 62
7
  6
CONTINUOUS
 10
150.0362418212
 20
31.5617105132
 11
149.8628043005
 21
31.4971831403
  0
LINE
  8
0
 62
7
  6
CONTINUOUS
 10
152.4643666972
 20
31.5939741996
 11
152.2909293626
 21
31.5294468267
  0
LINE
  8
0
 62
7
  6
CONTINUOUS
 10
152.2909293626
 20
31.400392081
 11
152.4643666972
 21
31.4649194539
  0
LINE
  8
0
 62
7
  6
CONTINUOUS
 10
151.0768668626
 20
30.8196456577
 11
150.9034292799
 21
30.7551182848
  0
LINE
  8
0
 62
7
  6
CONTINUOUS
 10
160.5003043074
 20
30.7551182848
 11
160.269054528
 21
30.7228545871
  0
LINE
  8
0
 62
7
  6
CONTINUOUS
 10
154.8924916972
 20
30.5937998301
 11
155.1815540869
 21
30.6260635193
  0
LINE
  8
0
 62
7
  6
CONTINUOUS
 10
160.269054528
 20
30.5937998301
 11
160.615929528
 21
30.6260635193
  0
LINE
  8
0
 62
7
  6
CONTINUOUS
 10
150.5565542799
 20
30.5937998301
 11
150.9612418074
 21
30.6260635193
  0
LINE
  8
0
 62
7
  6
CONTINUOUS
 10
150.9034292799
 20
30.7551182848
 11
150.498741835
 21
30.7228545871
  0
LINE
  8
0
 62
7
  6
CONTINUOUS
 10
154.7768668074
 20
31.1422825445
 11
155.412804528
 21
31.1422825445
  0
LINE
  8
0
 62
7
  6
CONTINUOUS
 10
155.412804528
 20
31.2713373354
 11
154.7768668074
 21
31.2713373354
  0
LINE
  8
0
 62
7
  6
CONTINUOUS
 10
151.1346793074
 20
31.3036010218
 11
151.4237418626
 21
31.3036010218
  0
LINE
  8
0
 62
7
  6
CONTINUOUS
 10
153.9674919177
 20
31.3681283946
 11
154.2565543074
 21
31.3681283946
  0
LINE
  8
0
 62
7
  6
CONTINUOUS
 10
160.6737418074
 20
31.3681283946
 11
160.9628038663
 21
31.3681283946
  0
LINE
  8
0
 62
7
  6
CONTINUOUS
 10
154.6612419177
 20
31.4971831403
 11
155.0081169177
 21
31.4971831403
  0
LINE
  8
0
 62
7
  6
CONTINUOUS
 10
159.8065543074
 20
31.4971831403
 11
160.1534293074
 21
31.4971831403
  0
LINE
  8
0
 62
7
  6
CONTINUOUS
 10
160.1534293074
 20
31.626237886
 11
159.8065543074
 21
31.626237886
  0
LINE
  8
0
 62
7
  6
CONTINUOUS
 10
158.0721793074
 20
31.626237886
 11
157.840929528
 21
31.626237886
  0
LINE
  8
0
 62
7
  6
CONTINUOUS
 10
157.320617028
 20
31.626237886
 11
157.0315543074
 21
31.626237886
  0
LINE
  8
0
 62
7
  6
CONTINUOUS
 10
156.5690540869
 20
31.626237886
 11
156.279992028
 21
31.626237886
  0
LINE
  8
0
 62
7
  6
CONTINUOUS
 10
155.0081169177
 20
31.626237886
 11
154.6612419177
 21
31.626237886
  0
LINE
  8
0
 62
7
  6
CONTINUOUS
 10
152.9268669177
 20
31.626237886
 11
152.6956168074
 21
31.626237886
  0
LINE
  8
0
 62
7
  6
CONTINUOUS
 10
156.279992028
 20
31.9488748406
 11
156.5690540869
 21
31.9488748406
  0
LINE
  8
0
 62
7
  6
CONTINUOUS
 10
156.5690540869
 20
32.1101932727
 11
156.279992028
 21
32.1101932727
  0
LINE
  8
0
 62
7
  6
CONTINUOUS
 10
152.1753043074
 20
32.1101932727
 11
151.8862417523
 21
32.1101932727
  0
LINE
  8
0
 62
7
  6
CONTINUOUS
 10
151.2130860697
 20
32.3970785186
 11
151.6256574183
 21
32.3970785186
  0
LINE
  8
0
 62
7
  6
CONTINUOUS
 10
152.852430332
 20
32.3970785186
 11
154.245872955
 21
32.3970785186
  0
LINE
  8
0
 62
7
  6
CONTINUOUS
 10
154.5737418074
 20
32.3970785186
 11
155.9671844304
 21
32.3970785186
  0
LINE
  8
0
 62
7
  6
CONTINUOUS
 10
157.852430332
 20
32.3970785186
 11
159.245872955
 21
32.3970785186
  0
LINE
  8
0
 62
7
  6
CONTINUOUS
 10
159.5737418074
 20
32.3970785186
 11
160.9671844304
 21
32.3970785186
  0
LINE
  8
0
 62
7
  6
CONTINUOUS
 10
157.6096790869
 20
31.5939741996
 11
157.4362415869
 21
31.5294468267
  0
LINE
  8
0
 62
7
  6
CONTINUOUS
 10
155.1815540869
 20
30.6260635193
 11
155.3549915869
 21
30.6905909007
  0
LINE
  8
0
 62
7
  6
CONTINUOUS
 10
160.615929528
 20
30.6260635193
 11
160.8471793074
 21
30.6905909007
  0
LINE
  8
0
 62
7
  6
CONTINUOUS
 10
160.615929528
 20
30.7873819712
 11
160.5003043074
 21
30.7551182848
  0
LINE
  8
0
 62
7
  6
CONTINUOUS
 10
159.575304528
 20
31.4649194539
 11
159.8065543074
 21
31.4971831403
  0
LINE
  8
0
 62
7
  6
CONTINUOUS
 10
157.6096790869
 20
31.4649194539
 11
157.840929528
 21
31.4971831403
  0
LINE
  8
0
 62
7
  6
CONTINUOUS
 10
154.5456166972
 20
31.1100188581
 11
154.7768668074
 21
31.1422825445
  0
LINE
  8
0
 62
7
  6
CONTINUOUS
 10
157.840929528
 20
31.626237886
 11
157.6096790869
 21
31.5939741996
  0
LINE
  8
0
 62
7
  6
CONTINUOUS
 10
154.4299918074
 20
31.4649194539
 11
154.6612419177
 21
31.4971831403
  0
LINE
  8
0
 62
7
  6
CONTINUOUS
 10
159.8065543074
 20
31.626237886
 11
159.4596793074
 21
31.5939741996
  0
LINE
  8
0
 62
7
  6
CONTINUOUS
 10
154.7768668074
 20
31.2713373354
 11
154.4299918074
 21
31.2390736489
  0
LINE
  8
0
 62
7
  6
CONTINUOUS
 10
150.5565542799
 20
31.626237886
 11
150.2096793212
 21
31.5939741996
  0
LINE
  8
0
 62
7
  6
CONTINUOUS
 10
154.6612419177
 20
31.626237886
 11
154.2565543074
 21
31.5939741996
  0
LINE
  8
0
 62
7
  6
CONTINUOUS
 10
152.0327582009
 20
33.5446195022
 11
151.3770204959
 21
33.5446195022
  0
LINE
  8
0
 62
7
  6
CONTINUOUS
 10
157.4362415869
 20
31.400392081
 11
157.6096790869
 21
31.4649194539
  0
LINE
  8
0
 62
7
  6
CONTINUOUS
 10
159.4596793074
 20
31.4326557675
 11
159.575304528
 21
31.4649194539
  0
LINE
  8
0
 62
7
  6
CONTINUOUS
 10
159.4596793074
 20
31.5939741996
 11
159.228429528
 21
31.5294468267
  0
LINE
  8
0
 62
7
  6
CONTINUOUS
 10
155.1815540869
 20
30.7873819712
 11
154.8924916972
 21
30.7228545871
  0
LINE
  8
0
 62
7
  6
CONTINUOUS
 10
152.4643666972
 20
31.4649194539
 11
152.6956168074
 21
31.4971831403
  0
LINE
  8
0
 62
7
  6
CONTINUOUS
 10
152.6956168074
 20
31.626237886
 11
152.4643666972
 21
31.5939741996
  0
LINE
  8
0
 62
7
  6
CONTINUOUS
 10
150.2674918074
 20
31.4649194539
 11
150.498741835
 21
31.4971831403
  0
LINE
  8
0
 62
7
  6
CONTINUOUS
 10
156.7868565615
 20
35.0200293383
 11
157.4425942664
 21
35.0200293383
  0
LINE
  8
0
 62
7
  6
CONTINUOUS
 10
154.4299918074
 20
31.0777551716
 11
154.5456166972
 21
31.1100188581
  0
LINE
  8
0
 62
7
  6
CONTINUOUS
 10
154.4299918074
 20
31.2390736489
 11
154.1987416972
 21
31.1745462761
  0
LINE
  8
0
 62
7
  6
CONTINUOUS
 10
154.3143669177
 20
31.4326557675
 11
154.4299918074
 21
31.4649194539
  0
LINE
  8
0
 62
7
  6
CONTINUOUS
 10
150.9612418074
 20
30.6260635193
 11
151.1924917523
 21
30.6905909007
  0
LINE
  8
0
 62
7
  6
CONTINUOUS
 10
154.2565543074
 20
31.5939741996
 11
154.1409294177
 21
31.5617105132
  0
LINE
  8
0
 62
7
  6
CONTINUOUS
 10
150.2096793212
 20
31.5939741996
 11
150.0362418212
 21
31.5617105132
  0
LINE
  8
0
 62
7
  6
CONTINUOUS
 10
160.9671844304
 20
36.1675703219
 11
159.5737418074
 21
36.1675703219
  0
LINE
  8
0
 62
7
  6
CONTINUOUS
 10
157.6065286927
 20
36.1675703219
 11
157.1939573441
 21
36.1675703219
  0
LINE
  8
0
 62
7
  6
CONTINUOUS
 10
155.9671844304
 20
36.1675703219
 11
154.5737418074
 21
36.1675703219
  0
LINE
  8
0
 62
7
  6
CONTINUOUS
 10
154.245872955
 20
36.1675703219
 11
152.852430332
 21
36.1675703219
  0
LINE
  8
0
 62
7
  6
CONTINUOUS
 10
150.9671844304
 20
36.1675703219
 11
149.5737418074
 21
36.1675703219
  0
LINE
  8
0
 62
7
  6
CONTINUOUS
 10
150.1518667936
 20
31.4326557675
 11
150.2674918074
 21
31.4649194539
  0
CIRCLE
  8
0
 62
7
  6
CONTINUOUS
 10
160.2704631189
 20
38.5036358957
 40
2.0901639344
  0
ARC
  8
0
 62
7
  6
CONTINUOUS
 10
151.2130860697
 20
34.0364227809
 40
1.6393442623
 50
180.0
 51
270.0
  0
ARC
  8
0
 62
7
  6
CONTINUOUS
 10
157.6065286927
 20
34.5282260596
 40
1.6393442623
 50
0.0
 51
90.0
  0
ARC
  8
0
 62
7
  6
CONTINUOUS
 10
151.6256574183
 20
33.8724883547
 40
1.4754098361
 50
270.0
 51
326.2510114041
  0
ARC
  8
0
 62
7
  6
CONTINUOUS
 10
157.1939573441
 20
34.6921604858
 40
1.4754098361
 50
90.0
 51
146.2510114041
  0
ARC
  8
0
 62
7
  6
CONTINUOUS
 10
152.0327582009
 20
34.3642916334
 40
0.8196721311
 50
270.0
 51
360.0
  0
ARC
  8
0
 62
7
  6
CONTINUOUS
 10
156.7868565615
 20
34.2003572071
 40
0.8196721311
 50
90.0
 51
180.0
  0
ARC
  8
0
 62
7
  6
CONTINUOUS
 10
151.3770204959
 20
33.9544555678
 40
0.4098360656
 50
180.0
 51
270.0
  0
ARC
  8
0
 62
7
  6
CONTINUOUS
 10
157.4425942664
 20
34.6101932727
 40
0.4098360656
 50
0.0
 51
90.0
  0
SOLID
  8
0
 62
7
  6
CONTINUOUS
 10
156.279992028
 20
31.9488752009
 11
156.279992028
 21
32.1101936845
 12
156.5690540869
 22
31.9488752009
 13
156.5690540869
 23
32.1101936845
  0
SOLID
  8
0
 62
7
  6
CONTINUOUS
 10
150.5565542799
 20
31.6262382337
 11
150.9612418074
 21
31.5939740028
 12
150.2096793212
 22
31.5939740028
 13
150.2096793212
 23
31.5939740028
  0
SOLID
  8
0
 62
7
  6
CONTINUOUS
 10
150.0362418212
 20
31.5617111435
 11
150.2096793212
 21
31.5939740028
 12
150.9612418074
 22
31.5939740028
 13
150.9612418074
 23
31.5939740028
  0
SOLID
  8
0
 62
7
  6
CONTINUOUS
 10
150.9612418074
 20
31.5939740028
 11
151.1924917523
 21
31.5294468402
 12
150.0362418212
 22
31.5617111435
 13
150.0362418212
 23
31.5617111435
  0
SOLID
  8
0
 62
7
  6
CONTINUOUS
 10
149.8628043005
 20
31.49718259
 11
150.0362418212
 21
31.5617111435
 12
151.1924917523
 22
31.5294468402
 13
151.1924917523
 23
31.5294468402
  0
SOLID
  8
0
 62
7
  6
CONTINUOUS
 10
149.8628043005
 20
31.49718259
 11
151.1924917523
 21
31.5294468402
 12
150.498741835
 22
31.49718259
 13
150.498741835
 23
31.49718259
  0
SOLID
  8
0
 62
7
  6
CONTINUOUS
 10
150.498741835
 20
31.49718259
 11
151.1924917523
 21
31.5294468402
 12
150.9034292799
 22
31.4649197501
 13
150.9034292799
 23
31.4649197501
  0
SOLID
  8
0
 62
7
  6
CONTINUOUS
 10
151.1924917523
 20
31.5294468402
 11
151.3659292523
 21
31.4326554468
 12
150.9034292799
 22
31.4649197501
 13
150.9034292799
 23
31.4649197501
  0
SOLID
  8
0
 62
7
  6
CONTINUOUS
 10
151.0768668626
 20
31.4003926599
 11
150.9034292799
 21
31.4649197501
 12
151.3659292523
 22
31.4326554468
 13
151.3659292523
 23
31.4326554468
  0
SOLID
  8
0
 62
7
  6
CONTINUOUS
 10
151.0768668626
 20
31.4003926599
 11
151.3659292523
 21
31.4326554468
 12
151.1346793074
 22
31.3036013776
 13
151.1346793074
 23
31.3036013776
  0
SOLID
  8
0
 62
7
  6
CONTINUOUS
 10
151.3659292523
 20
31.4326554468
 11
151.4237418626
 21
31.3036013776
 12
151.1346793074
 22
31.3036013776
 13
151.1346793074
 23
31.3036013776
  0
SOLID
  8
0
 62
7
  6
CONTINUOUS
 10
152.4643666972
 20
31.5939739754
 11
152.6956168074
 21
31.6262382787
 12
152.9268669177
 22
31.6262382787
 13
152.9268669177
 23
31.6262382787
  0
SOLID
  8
0
 62
7
  6
CONTINUOUS
 10
152.9268669177
 20
31.6262382787
 11
153.1003044177
 21
31.5939739754
 12
152.4643666972
 22
31.5939739754
 13
152.4643666972
 23
31.5939739754
  0
SOLID
  8
0
 62
7
  6
CONTINUOUS
 10
152.2909293626
 20
31.5294468852
 11
152.4643666972
 21
31.5939739754
 12
153.1003044177
 22
31.5939739754
 13
153.1003044177
 23
31.5939739754
  0
SOLID
  8
0
 62
7
  6
CONTINUOUS
 10
153.1003044177
 20
31.5939739754
 11
153.2737419177
 21
31.5294468852
 12
152.2909293626
 22
31.5294468852
 13
152.2909293626
 23
31.5294468852
  0
SOLID
  8
0
 62
7
  6
CONTINUOUS
 10
153.2737419177
 20
31.5294468852
 11
152.6956168074
 21
31.4971825369
 12
152.2909293626
 22
31.5294468852
 13
152.2909293626
 23
31.5294468852
  0
SOLID
  8
0
 62
7
  6
CONTINUOUS
 10
152.1753043074
 20
31.4649197951
 11
152.2909293626
 21
31.5294468852
 12
152.6956168074
 22
31.4971825369
 13
152.6956168074
 23
31.4971825369
  0
SOLID
  8
0
 62
7
  6
CONTINUOUS
 10
152.6956168074
 20
31.4971825369
 11
152.4643666972
 21
31.4649197951
 12
152.1753043074
 22
31.4649197951
 13
152.1753043074
 23
31.4649197951
  0
SOLID
  8
0
 62
7
  6
CONTINUOUS
 10
152.6956168074
 20
31.4971825369
 11
153.2737419177
 21
31.5294468852
 12
152.9268669177
 22
31.4649197951
 13
152.9268669177
 23
31.4649197951
  0
SOLID
  8
0
 62
7
  6
CONTINUOUS
 10
153.2737419177
 20
31.5294468852
 11
153.3893668074
 21
31.4649197951
 12
152.9268669177
 22
31.4649197951
 13
152.9268669177
 23
31.4649197951
  0
SOLID
  8
0
 62
7
  6
CONTINUOUS
 10
153.0424918074
 20
31.4326554468
 11
152.9268669177
 21
31.4649197951
 12
153.3893668074
 22
31.4649197951
 13
153.3893668074
 23
31.4649197951
  0
SOLID
  8
0
 62
7
  6
CONTINUOUS
 10
153.3893668074
 20
31.4649197951
 11
153.4471794177
 21
31.4003927049
 12
153.0424918074
 22
31.4326554468
 13
153.0424918074
 23
31.4326554468
  0
SOLID
  8
0
 62
7
  6
CONTINUOUS
 10
153.1581166972
 20
31.3681283566
 11
153.0424918074
 21
31.4326554468
 12
153.4471794177
 22
31.4003927049
 13
153.4471794177
 23
31.4003927049
  0
SOLID
  8
0
 62
7
  6
CONTINUOUS
 10
153.1581166972
 20
31.3681283566
 11
153.4471794177
 21
31.4003927049
 12
153.2159293074
 22
31.2390742213
 13
153.2159293074
 23
31.2390742213
  0
SOLID
  8
0
 62
7
  6
CONTINUOUS
 10
153.4471794177
 20
31.4003927049
 11
153.5049916972
 21
31.2390742213
 12
153.2159293074
 22
31.2390742213
 13
153.2159293074
 23
31.2390742213
  0
SOLID
  8
0
 62
7
  6
CONTINUOUS
 10
152.4643666972
 20
31.4649197951
 11
152.2909293626
 21
31.4003927049
 12
152.1753043074
 22
31.4649197951
 13
152.1753043074
 23
31.4649197951
  0
SOLID
  8
0
 62
7
  6
CONTINUOUS
 10
152.2909293626
 20
31.4003927049
 11
152.1753043074
 21
31.3358640533
 12
152.1753043074
 22
31.4649197951
 13
152.1753043074
 23
31.4649197951
  0
SOLID
  8
0
 62
7
  6
CONTINUOUS
 10
152.1753043074
 20
31.3358640533
 11
151.8862417523
 21
30.5938002869
 12
152.1753043074
 22
31.4649197951
 13
152.1753043074
 23
31.4649197951
  0
SOLID
  8
0
 62
7
  6
CONTINUOUS
 10
152.1753043074
 20
31.4649197951
 11
151.8862417523
 21
30.5938002869
 12
152.1753043074
 22
32.1101937295
 13
152.1753043074
 23
32.1101937295
  0
SOLID
  8
0
 62
7
  6
CONTINUOUS
 10
151.8862417523
 20
30.5938002869
 11
151.8862417523
 21
32.1101937295
 12
152.1753043074
 22
32.1101937295
 13
152.1753043074
 23
32.1101937295
  0
SOLID
  8
0
 62
7
  6
CONTINUOUS
 10
152.1753043074
 20
31.3358640533
 11
152.1753043074
 21
30.5938002869
 12
151.8862417523
 22
30.5938002869
 13
151.8862417523
 23
30.5938002869
  0
SOLID
  8
0
 62
7
  6
CONTINUOUS
 10
153.2159293074
 20
30.5938002869
 11
153.2159293074
 21
31.2390742213
 12
153.5049916972
 22
31.2390742213
 13
153.5049916972
 23
31.2390742213
  0
SOLID
  8
0
 62
7
  6
CONTINUOUS
 10
153.5049916972
 20
31.2390742213
 11
153.5049916972
 21
30.5938002869
 12
153.2159293074
 22
30.5938002869
 13
153.2159293074
 23
30.5938002869
  0
SOLID
  8
0
 62
7
  6
CONTINUOUS
 10
154.2565543074
 20
31.5939738288
 11
154.6612419177
 21
31.6262385959
 12
155.0081169177
 22
31.6262385959
 13
155.0081169177
 23
31.6262385959
  0
SOLID
  8
0
 62
7
  6
CONTINUOUS
 10
155.0081169177
 20
31.6262385959
 11
155.3549915869
 21
31.5939738288
 12
154.2565543074
 22
31.5939738288
 13
154.2565543074
 23
31.5939738288
  0
SOLID
  8
0
 62
7
  6
CONTINUOUS
 10
154.1409294177
 20
31.5617111435
 11
154.2565543074
 21
31.5939738288
 12
155.3549915869
 22
31.5939738288
 13
155.3549915869
 23
31.5939738288
  0
SOLID
  8
0
 62
7
  6
CONTINUOUS
 10
155.3549915869
 20
31.5939738288
 11
155.5284290869
 21
31.5294468402
 12
154.1409294177
 22
31.5617111435
 13
154.1409294177
 23
31.5617111435
  0
SOLID
  8
0
 62
7
  6
CONTINUOUS
 10
154.0253041972
 20
31.4971826249
 11
154.1409294177
 21
31.5617111435
 12
155.5284290869
 22
31.5294468402
 13
155.5284290869
 23
31.5294468402
  0
SOLID
  8
0
 62
7
  6
CONTINUOUS
 10
154.0253041972
 20
31.4971826249
 11
155.5284290869
 21
31.5294468402
 12
154.6612419177
 22
31.4971826249
 13
154.6612419177
 23
31.4971826249
  0
SOLID
  8
0
 62
7
  6
CONTINUOUS
 10
154.6612419177
 20
31.4971826249
 11
155.5284290869
 21
31.5294468402
 12
155.0081169177
 22
31.4971826249
 13
155.0081169177
 23
31.4971826249
  0
SOLID
  8
0
 62
7
  6
CONTINUOUS
 10
155.0081169177
 20
31.4971826249
 11
155.5284290869
 21
31.5294468402
 12
155.239367028
 22
31.4649194065
 13
155.239367028
 23
31.4649194065
  0
SOLID
  8
0
 62
7
  6
CONTINUOUS
 10
155.5284290869
 20
31.5294468402
 11
155.6440543074
 21
31.4649194065
 12
155.239367028
 22
31.4649194065
 13
155.239367028
 23
31.4649194065
  0
SOLID
  8
0
 62
7
  6
CONTINUOUS
 10
153.9674919177
 20
31.4326554138
 11
154.0253041972
 21
31.4971826249
 12
154.6612419177
 22
31.4971826249
 13
154.6612419177
 23
31.4971826249
  0
SOLID
  8
0
 62
7
  6
CONTINUOUS
 10
155.3549915869
 20
31.4326554138
 11
155.239367028
 21
31.4649194065
 12
155.6440543074
 22
31.4649194065
 13
155.6440543074
 23
31.4649194065
  0
SOLID
  8
0
 62
7
  6
CONTINUOUS
 10
155.3549915869
 20
31.4326554138
 11
155.6440543074
 21
31.4649194065
 12
155.412804528
 22
31.3681282026
 13
155.412804528
 23
31.3681282026
  0
SOLID
  8
0
 62
7
  6
CONTINUOUS
 10
155.6440543074
 20
31.4649194065
 11
155.7018665869
 21
31.3681282026
 12
155.412804528
 22
31.3681282026
 13
155.412804528
 23
31.3681282026
  0
SOLID
  8
0
 62
7
  6
CONTINUOUS
 10
155.412804528
 20
31.2713369632
 11
155.412804528
 21
31.3681282026
 12
155.7018665869
 22
31.3681282026
 13
155.7018665869
 23
31.3681282026
  0
SOLID
  8
0
 62
7
  6
CONTINUOUS
 10
155.412804528
 20
31.2713369632
 11
155.7018665869
 21
31.3681282026
 12
155.412804528
 22
31.1422827828
 13
155.412804528
 23
31.1422827828
  0
SOLID
  8
0
 62
7
  6
CONTINUOUS
 10
155.412804528
 20
31.1422827828
 11
155.7018665869
 21
31.3681282026
 12
155.412804528
 22
30.9487004259
 13
155.412804528
 23
30.9487004259
  0
SOLID
  8
0
 62
7
  6
CONTINUOUS
 10
155.7018665869
 20
31.3681282026
 11
155.7018665869
 21
30.8519086025
 12
155.412804528
 22
30.9487004259
 13
155.412804528
 23
30.9487004259
  0
SOLID
  8
0
 62
7
  6
CONTINUOUS
 10
157.6096790869
 20
31.5939736268
 11
157.840929528
 21
31.6262383465
 12
158.0721793074
 22
31.6262383465
 13
158.0721793074
 23
31.6262383465
  0
SOLID
  8
0
 62
7
  6
CONTINUOUS
 10
158.0721793074
 20
31.6262383465
 11
158.2456168074
 21
31.5939736268
 12
157.6096790869
 22
31.5939736268
 13
157.6096790869
 23
31.5939736268
  0
SOLID
  8
0
 62
7
  6
CONTINUOUS
 10
157.4362415869
 20
31.5294472848
 11
157.6096790869
 21
31.5939736268
 12
158.2456168074
 22
31.5939736268
 13
158.2456168074
 23
31.5939736268
  0
SOLID
  8
0
 62
7
  6
CONTINUOUS
 10
158.2456168074
 20
31.5939736268
 11
158.4190543074
 21
31.5294472848
 12
157.4362415869
 22
31.5294472848
 13
157.4362415869
 23
31.5294472848
  0
SOLID
  8
0
 62
7
  6
CONTINUOUS
 10
158.4190543074
 20
31.5294472848
 11
157.840929528
 21
31.4971825369
 12
157.4362415869
 22
31.5294472848
 13
157.4362415869
 23
31.5294472848
  0
SOLID
  8
0
 62
7
  6
CONTINUOUS
 10
157.320617028
 20
31.4649199103
 11
157.4362415869
 21
31.5294472848
 12
157.840929528
 22
31.4971825369
 13
157.840929528
 23
31.4971825369
  0
SOLID
  8
0
 62
7
  6
CONTINUOUS
 10
157.840929528
 20
31.4971825369
 11
157.6096790869
 21
31.4649199103
 12
157.320617028
 22
31.4649199103
 13
157.320617028
 23
31.4649199103
  0
SOLID
  8
0
 62
7
  6
CONTINUOUS
 10
157.840929528
 20
31.4971825369
 11
158.4190543074
 21
31.5294472848
 12
158.0721793074
 22
31.4649199103
 13
158.0721793074
 23
31.4649199103
  0
SOLID
  8
0
 62
7
  6
CONTINUOUS
 10
158.4190543074
 20
31.5294472848
 11
158.534679528
 21
31.4649199103
 12
158.0721793074
 22
31.4649199103
 13
158.0721793074
 23
31.4649199103
  0
SOLID
  8
0
 62
7
  6
CONTINUOUS
 10
158.187804528
 20
31.4326554468
 11
158.0721793074
 21
31.4649199103
 12
158.534679528
 22
31.4649199103
 13
158.534679528
 23
31.4649199103
  0
SOLID
  8
0
 62
7
  6
CONTINUOUS
 10
158.187804528
 20
31.4326554468
 11
158.534679528
 21
31.4649199103
 12
158.3034290869
 22
31.3681288486
 13
158.3034290869
 23
31.3681288486
  0
SOLID
  8
0
 62
7
  6
CONTINUOUS
 10
158.534679528
 20
31.4649199103
 11
158.5924918074
 21
31.3681288486
 12
158.3034290869
 22
31.3681288486
 13
158.3034290869
 23
31.3681288486
  0
SOLID
  8
0
 62
7
  6
CONTINUOUS
 10
158.361242028
 20
31.2068093799
 11
158.3034290869
 21
31.3681288486
 12
158.5924918074
 22
31.3681288486
 13
158.5924918074
 23
31.3681288486
  0
SOLID
  8
0
 62
7
  6
CONTINUOUS
 10
158.5924918074
 20
31.3681288486
 11
158.6503040869
 21
31.2068093799
 12
158.361242028
 22
31.2068093799
 13
158.361242028
 23
31.2068093799
  0
SOLID
  8
0
 62
7
  6
CONTINUOUS
 10
157.6096790869
 20
31.4649199103
 11
157.4362415869
 21
31.4003926599
 12
157.320617028
 22
31.4649199103
 13
157.320617028
 23
31.4649199103
  0
SOLID
  8
0
 62
7
  6
CONTINUOUS
 10
157.4362415869
 20
31.4003926599
 11
157.320617028
 21
31.3358640533
 12
157.320617028
 22
31.4649199103
 13
157.320617028
 23
31.4649199103
  0
SOLID
  8
0
 62
7
  6
CONTINUOUS
 10
157.320617028
 20
31.3358640533
 11
157.0315543074
 21
30.5938003547
 12
157.320617028
 22
31.4649199103
 13
157.320617028
 23
31.4649199103
  0
SOLID
  8
0
 62
7
  6
CONTINUOUS
 10
157.320617028
 20
31.4649199103
 11
157.0315543074
 21
30.5938003547
 12
157.320617028
 22
31.6262383465
 13
157.320617028
 23
31.6262383465
  0
SOLID
  8
0
 62
7
  6
CONTINUOUS
 10
157.0315543074
 20
30.5938003547
 11
157.0315543074
 21
31.6262383465
 12
157.320617028
 22
31.6262383465
 13
157.320617028
 23
31.6262383465
  0
SOLID
  8
0
 62
7
  6
CONTINUOUS
 10
157.320617028
 20
31.3358640533
 11
157.320617028
 21
30.5938003547
 12
157.0315543074
 22
30.5938003547
 13
157.0315543074
 23
30.5938003547
  0
SOLID
  8
0
 62
7
  6
CONTINUOUS
 10
158.361242028
 20
30.5938003547
 11
158.361242028
 21
31.2068093799
 12
158.6503040869
 22
31.2068093799
 13
158.6503040869
 23
31.2068093799
  0
SOLID
  8
0
 62
7
  6
CONTINUOUS
 10
158.6503040869
 20
31.2068093799
 11
158.6503040869
 21
30.5938003547
 12
158.361242028
 22
30.5938003547
 13
158.361242028
 23
30.5938003547
  0
SOLID
  8
0
 62
7
  6
CONTINUOUS
 10
159.4596793074
 20
31.5939739474
 11
159.8065543074
 21
31.6262381969
 12
160.1534293074
 22
31.6262381969
 13
160.1534293074
 23
31.6262381969
  0
SOLID
  8
0
 62
7
  6
CONTINUOUS
 10
160.1534293074
 20
31.6262381969
 11
160.5003043074
 21
31.5939739474
 12
159.4596793074
 22
31.5939739474
 13
159.4596793074
 23
31.5939739474
  0
SOLID
  8
0
 62
7
  6
CONTINUOUS
 10
159.228429528
 20
31.5294468402
 11
159.4596793074
 21
31.5939739474
 12
160.5003043074
 22
31.5939739474
 13
160.5003043074
 23
31.5939739474
  0
SOLID
  8
0
 62
7
  6
CONTINUOUS
 10
159.228429528
 20
31.5294468402
 11
160.5003043074
 21
31.5939739304
 12
160.6737418074
 22
31.5617111435
 13
160.6737418074
 23
31.5617111435
  0
SOLID
  8
0
 62
7
  6
CONTINUOUS
 10
159.228429528
 20
31.5294468402
 11
160.6737418074
 21
31.5617111435
 12
159.8065543074
 22
31.4971825592
 13
159.8065543074
 23
31.4971825592
  0
SOLID
  8
0
 62
7
  6
CONTINUOUS
 10
159.8065543074
 20
31.4971825592
 11
160.6737418074
 21
31.5617111435
 12
160.1534293074
 22
31.4971825592
 13
160.1534293074
 23
31.4971825592
  0
SOLID
  8
0
 62
7
  6
CONTINUOUS
 10
160.6737418074
 20
31.5617111435
 11
160.8471793074
 21
31.4971825592
 12
160.1534293074
 22
31.4971825592
 13
160.1534293074
 23
31.4971825592
  0
SOLID
  8
0
 62
7
  6
CONTINUOUS
 10
160.5003043074
 20
31.4649197501
 11
160.1534293074
 21
31.4971825592
 12
160.8471793074
 22
31.4971825592
 13
160.8471793074
 23
31.4971825592
  0
SOLID
  8
0
 62
7
  6
CONTINUOUS
 10
159.1128043074
 20
31.4326555427
 11
159.228429528
 21
31.5294468402
 12
159.8065543074
 22
31.4971825592
 13
159.8065543074
 23
31.4971825592
  0
SOLID
  8
0
 62
7
  6
CONTINUOUS
 10
160.5003043074
 20
31.4649197501
 11
160.8471793074
 21
31.4971825592
 12
160.615929528
 22
31.4326555427
 13
160.615929528
 23
31.4326555427
  0
SOLID
  8
0
 62
7
  6
CONTINUOUS
 10
160.615929528
 20
31.4326555427
 11
160.8471793074
 21
31.4971825592
 12
160.6737418074
 22
31.3681283005
 13
160.6737418074
 23
31.3681283005
  0
SOLID
  8
0
 62
7
  6
CONTINUOUS
 10
160.8471793074
 20
31.4971825592
 11
160.9628038663
 21
31.3681283005
 12
160.6737418074
 22
31.3681283005
 13
160.6737418074
 23
31.3681283005
  0
SOLID
  8
0
 62
7
  6
CONTINUOUS
 10
150.2674918074
 20
31.4649197501
 11
149.7471793074
 21
31.4326554237
 12
150.498741835
 22
31.4971824493
 13
150.498741835
 23
31.4971824493
  0
SOLID
  8
0
 62
7
  6
CONTINUOUS
 10
149.7471793074
 20
31.4326554237
 11
149.8628043005
 21
31.4971824493
 12
150.498741835
 22
31.4971824493
 13
150.498741835
 23
31.4971824493
  0
SOLID
  8
0
 62
7
  6
CONTINUOUS
 10
150.2674918074
 20
31.4649197501
 11
150.1518667936
 21
31.4326554237
 12
149.7471793074
 22
31.4326554237
 13
149.7471793074
 23
31.4326554237
  0
SOLID
  8
0
 62
7
  6
CONTINUOUS
 10
149.6315543091
 20
31.3036012664
 11
149.7471793074
 21
31.4326554237
 12
150.1518667936
 22
31.4326554237
 13
150.1518667936
 23
31.4326554237
  0
SOLID
  8
0
 62
7
  6
CONTINUOUS
 10
153.9674919177
 20
31.4326554237
 11
154.6612419177
 21
31.4971825369
 12
154.4299918074
 22
31.4649197501
 13
154.4299918074
 23
31.4649197501
  0
SOLID
  8
0
 62
7
  6
CONTINUOUS
 10
154.4299918074
 20
31.4649197501
 11
154.3143669177
 21
31.4326554237
 12
153.9674919177
 22
31.4326554237
 13
153.9674919177
 23
31.4326554237
  0
SOLID
  8
0
 62
7
  6
CONTINUOUS
 10
153.9674919177
 20
31.3681283335
 11
153.9674919177
 21
31.4326554237
 12
154.3143669177
 22
31.4326554237
 13
154.3143669177
 23
31.4326554237
  0
SOLID
  8
0
 62
7
  6
CONTINUOUS
 10
154.3143669177
 20
31.4326554237
 11
154.2565543074
 21
31.3681283335
 12
153.9674919177
 22
31.3681283335
 13
153.9674919177
 23
31.3681283335
  0
SOLID
  8
0
 62
7
  6
CONTINUOUS
 10
159.1128043074
 20
31.4326555528
 11
159.8065543074
 21
31.4971825369
 12
159.575304528
 22
31.4649197501
 13
159.575304528
 23
31.4649197501
  0
SOLID
  8
0
 62
7
  6
CONTINUOUS
 10
159.575304528
 20
31.4649197501
 11
159.4596793074
 21
31.4326555528
 12
159.1128043074
 22
31.4326555528
 13
159.1128043074
 23
31.4326555528
  0
SOLID
  8
0
 62
7
  6
CONTINUOUS
 10
159.1128043074
 20
31.3681284626
 11
159.1128043074
 21
31.4326555528
 12
159.4596793074
 22
31.4326555528
 13
159.4596793074
 23
31.4326555528
  0
SOLID
  8
0
 62
7
  6
CONTINUOUS
 10
159.4596793074
 20
31.4326555528
 11
159.401867028
 21
31.3681284626
 12
159.1128043074
 22
31.3681284626
 13
159.1128043074
 23
31.3681284626
  0
SOLID
  8
0
 62
7
  6
CONTINUOUS
 10
159.228429528
 20
31.2390741763
 11
159.1128043074
 21
31.3681284626
 12
159.401867028
 22
31.3681284626
 13
159.401867028
 23
31.3681284626
  0
SOLID
  8
0
 62
7
  6
CONTINUOUS
 10
149.6315543091
 20
31.3036012664
 11
150.1518667936
 21
31.4326554468
 12
149.9784292936
 22
31.3358640533
 13
149.9784292936
 23
31.3358640533
  0
SOLID
  8
0
 62
7
  6
CONTINUOUS
 10
149.9784292936
 20
31.3358640533
 11
149.9206168074
 21
31.2713369632
 12
149.6315543091
 22
31.3036012664
 13
149.6315543091
 23
31.3036012664
  0
SOLID
  8
0
 62
7
  6
CONTINUOUS
 10
149.5737418074
 20
31.1100184796
 11
149.6315543091
 21
31.3036012664
 12
149.9206168074
 22
31.2713369632
 13
149.9206168074
 23
31.2713369632
  0
SOLID
  8
0
 62
7
  6
CONTINUOUS
 10
154.4299918074
 20
31.2390741763
 11
154.7768668074
 21
31.271336924
 12
155.412804528
 22
31.271336924
 13
155.412804528
 23
31.271336924
  0
SOLID
  8
0
 62
7
  6
CONTINUOUS
 10
154.4299918074
 20
31.2390741763
 11
155.412804528
 21
31.271336924
 12
154.1987416972
 22
31.1745462761
 13
154.1987416972
 23
31.1745462761
  0
SOLID
  8
0
 62
7
  6
CONTINUOUS
 10
154.1987416972
 20
31.1745462761
 11
155.412804528
 21
31.271336924
 12
154.7768668074
 22
31.1422827436
 13
154.7768668074
 23
31.1422827436
  0
SOLID
  8
0
 62
7
  6
CONTINUOUS
 10
155.412804528
 20
31.271336924
 11
155.412804528
 21
31.1422827436
 12
154.7768668074
 22
31.1422827436
 13
154.7768668074
 23
31.1422827436
  0
SOLID
  8
0
 62
7
  6
CONTINUOUS
 10
159.228429528
 20
31.2390745501
 11
159.401867028
 21
31.3681283566
 12
159.4596793074
 22
31.3036012664
 13
159.4596793074
 23
31.3036012664
  0
SOLID
  8
0
 62
7
  6
CONTINUOUS
 10
159.4596793074
 20
31.3036012664
 11
159.6331168074
 21
31.2390745501
 12
159.228429528
 22
31.2390745501
 13
159.228429528
 23
31.2390745501
  0
SOLID
  8
0
 62
7
  6
CONTINUOUS
 10
159.4596793074
 20
31.1422827828
 11
159.228429528
 21
31.2390745501
 12
159.6331168074
 22
31.2390745501
 13
159.6331168074
 23
31.2390745501
  0
SOLID
  8
0
 62
7
  6
CONTINUOUS
 10
159.6331168074
 20
31.2390745501
 11
160.615929528
 21
31.0777556927
 12
159.4596793074
 22
31.1422827828
 13
159.4596793074
 23
31.1422827828
  0
SOLID
  8
0
 62
7
  6
CONTINUOUS
 10
160.442492028
 20
30.9809646623
 11
159.4596793074
 21
31.1422827828
 12
160.615929528
 22
31.0777556927
 13
160.615929528
 23
31.0777556927
  0
SOLID
  8
0
 62
7
  6
CONTINUOUS
 10
160.615929528
 20
31.0777556927
 11
160.8471793074
 21
30.9809646623
 12
160.442492028
 22
30.9809646623
 13
160.442492028
 23
30.9809646623
  0
SOLID
  8
0
 62
7
  6
CONTINUOUS
 10
160.615929528
 20
30.9164372091
 11
160.442492028
 21
30.9809646623
 12
160.8471793074
 22
30.9809646623
 13
160.8471793074
 23
30.9809646623
  0
SOLID
  8
0
 62
7
  6
CONTINUOUS
 10
160.615929528
 20
30.9164372091
 11
160.8471793074
 21
30.9809646623
 12
160.6737418074
 22
30.8519089441
 13
160.6737418074
 23
30.8519089441
  0
SOLID
  8
0
 62
7
  6
CONTINUOUS
 10
160.8471793074
 20
30.9809646623
 11
160.9628038663
 21
30.8519089441
 12
160.6737418074
 22
30.8519089441
 13
160.6737418074
 23
30.8519089441
  0
SOLID
  8
0
 62
7
  6
CONTINUOUS
 10
160.615929528
 20
30.7873818593
 11
160.6737418074
 21
30.8519089441
 12
160.9628038663
 22
30.8519089441
 13
160.9628038663
 23
30.8519089441
  0
SOLID
  8
0
 62
7
  6
CONTINUOUS
 10
160.9628038663
 20
30.8519089441
 11
160.9628038663
 21
30.7873818593
 12
160.615929528
 22
30.7873818593
 13
160.615929528
 23
30.7873818593
  0
SOLID
  8
0
 62
7
  6
CONTINUOUS
 10
160.5003043074
 20
30.7551187255
 11
160.615929528
 21
30.7873818593
 12
160.9628038663
 22
30.7873818593
 13
160.9628038663
 23
30.7873818593
  0
SOLID
  8
0
 62
7
  6
CONTINUOUS
 10
160.5003043074
 20
30.7551187255
 11
160.9628038663
 21
30.7873818593
 12
160.269054528
 22
30.7228547745
 13
160.269054528
 23
30.7228547745
  0
SOLID
  8
0
 62
7
  6
CONTINUOUS
 10
160.9628038663
 20
30.7873818593
 11
160.8471793074
 21
30.6905916353
 12
160.269054528
 22
30.7228547745
 13
160.269054528
 23
30.7228547745
  0
SOLID
  8
0
 62
7
  6
CONTINUOUS
 10
160.8471793074
 20
30.6905916353
 11
159.401867028
 21
30.658327332
 12
160.269054528
 22
30.7228547745
 13
160.269054528
 23
30.7228547745
  0
SOLID
  8
0
 62
7
  6
CONTINUOUS
 10
160.269054528
 20
30.7228547745
 11
159.401867028
 21
30.658327332
 12
159.922179528
 22
30.7228547745
 13
159.922179528
 23
30.7228547745
  0
SOLID
  8
0
 62
7
  6
CONTINUOUS
 10
159.401867028
 20
30.658327332
 11
159.228429528
 21
30.7228547745
 12
159.922179528
 22
30.7228547745
 13
159.922179528
 23
30.7228547745
  0
SOLID
  8
0
 62
7
  6
CONTINUOUS
 10
159.401867028
 20
30.658327332
 11
160.8471793074
 21
30.6905916353
 12
159.575304528
 22
30.6260629858
 13
159.575304528
 23
30.6260629858
  0
SOLID
  8
0
 62
7
  6
CONTINUOUS
 10
160.8471793074
 20
30.6905916353
 11
160.615929528
 21
30.6260629858
 12
159.575304528
 22
30.6260629858
 13
159.575304528
 23
30.6260629858
  0
SOLID
  8
0
 62
7
  6
CONTINUOUS
 10
159.922179528
 20
30.5938006049
 11
159.575304528
 21
30.6260629858
 12
160.615929528
 22
30.6260629858
 13
160.615929528
 23
30.6260629858
  0
SOLID
  8
0
 62
7
  6
CONTINUOUS
 10
160.615929528
 20
30.6260629858
 11
160.269054528
 21
30.5938006049
 12
159.922179528
 22
30.5938006049
 13
159.922179528
 23
30.5938006049
  0
SOLID
  8
0
 62
7
  6
CONTINUOUS
 10
149.5737418074
 20
31.1100184796
 11
149.9206168074
 21
31.2713369632
 12
149.8628043005
 22
31.1422827828
 13
149.8628043005
 23
31.1422827828
  0
SOLID
  8
0
 62
7
  6
CONTINUOUS
 10
149.8628043005
 20
31.1422827828
 11
149.8628043005
 21
31.0454914852
 12
149.5737418074
 22
31.1100184796
 13
149.5737418074
 23
31.1100184796
  0
SOLID
  8
0
 62
7
  6
CONTINUOUS
 10
149.6315543091
 20
30.9164372091
 11
149.5737418074
 21
31.1100184796
 12
149.8628043005
 22
31.0454914852
 13
149.8628043005
 23
31.0454914852
  0
SOLID
  8
0
 62
7
  6
CONTINUOUS
 10
149.8628043005
 20
31.0454914852
 11
149.9784292936
 21
30.8841729058
 12
149.6315543091
 22
30.9164372091
 13
149.6315543091
 23
30.9164372091
  0
SOLID
  8
0
 62
7
  6
CONTINUOUS
 10
149.7471793074
 20
30.7873813202
 11
149.6315543091
 21
30.9164372091
 12
149.9784292936
 22
30.8841729058
 13
149.9784292936
 23
30.8841729058
  0
SOLID
  8
0
 62
7
  6
CONTINUOUS
 10
149.9784292936
 20
30.8841729058
 11
150.1518667936
 21
30.7873813202
 12
149.7471793074
 22
30.7873813202
 13
149.7471793074
 23
30.7873813202
  0
SOLID
  8
0
 62
7
  6
CONTINUOUS
 10
149.8628043005
 20
30.7228547004
 11
149.7471793074
 21
30.7873813202
 12
150.1518667936
 22
30.7873813202
 13
150.1518667936
 23
30.7873813202
  0
SOLID
  8
0
 62
7
  6
CONTINUOUS
 10
150.1518667936
 20
30.7873813202
 11
150.498741835
 21
30.7228547004
 12
149.8628043005
 22
30.7228547004
 13
149.8628043005
 23
30.7228547004
  0
SOLID
  8
0
 62
7
  6
CONTINUOUS
 10
150.0362418212
 20
30.658327332
 11
149.8628043005
 21
30.7228547004
 12
150.498741835
 22
30.7228547004
 13
150.498741835
 23
30.7228547004
  0
SOLID
  8
0
 62
7
  6
CONTINUOUS
 10
154.0831168074
 20
31.1100184386
 11
154.1987416972
 21
31.1745462761
 12
154.7768668074
 22
31.1422827828
 13
154.7768668074
 23
31.1422827828
  0
SOLID
  8
0
 62
7
  6
CONTINUOUS
 10
154.7768668074
 20
31.1422827828
 11
154.5456166972
 21
31.1100184386
 12
154.0831168074
 22
31.1100184386
 13
154.0831168074
 23
31.1100184386
  0
SOLID
  8
0
 62
7
  6
CONTINUOUS
 10
153.9674919177
 20
30.9809642992
 11
154.0831168074
 21
31.1100184386
 12
154.5456166972
 22
31.1100184386
 13
154.5456166972
 23
31.1100184386
  0
SOLID
  8
0
 62
7
  6
CONTINUOUS
 10
154.3143669177
 20
31.0132277988
 11
153.9674919177
 21
30.9809642992
 12
154.4299918074
 22
31.0777556927
 13
154.4299918074
 23
31.0777556927
  0
SOLID
  8
0
 62
7
  6
CONTINUOUS
 10
153.9674919177
 20
30.9809642992
 11
154.5456166972
 21
31.1100184796
 12
154.4299918074
 22
31.0777556927
 13
154.4299918074
 23
31.0777556927
  0
SOLID
  8
0
 62
7
  6
CONTINUOUS
 10
154.3143669177
 20
31.0132277988
 11
154.2565543074
 21
30.9164372091
 12
153.9674919177
 22
30.9809642992
 13
153.9674919177
 23
30.9809642992
  0
SOLID
  8
0
 62
7
  6
CONTINUOUS
 10
153.9674919177
 20
30.8841729058
 11
153.9674919177
 21
30.9809642992
 12
154.2565543074
 22
30.9164372091
 13
154.2565543074
 23
30.9164372091
  0
SOLID
  8
0
 62
7
  6
CONTINUOUS
 10
154.2565543074
 20
30.9164372091
 11
154.2565543074
 21
30.8519086025
 12
153.9674919177
 22
30.8841729058
 13
153.9674919177
 23
30.8841729058
  0
SOLID
  8
0
 62
7
  6
CONTINUOUS
 10
154.0253041972
 20
30.7551187255
 11
153.9674919177
 21
30.8841729058
 12
154.2565543074
 22
30.8519086025
 13
154.2565543074
 23
30.8519086025
  0
SOLID
  8
0
 62
7
  6
CONTINUOUS
 10
155.412804528
 20
30.9487004259
 11
155.7018665869
 21
30.8519086025
 12
155.3549915869
 22
30.8841729058
 13
155.3549915869
 23
30.8841729058
  0
SOLID
  8
0
 62
7
  6
CONTINUOUS
 10
155.1815540869
 20
30.7873815123
 11
155.3549915869
 21
30.8841729058
 12
155.7018665869
 22
30.8519086025
 13
155.7018665869
 23
30.8519086025
  0
SOLID
  8
0
 62
7
  6
CONTINUOUS
 10
155.1815540869
 20
30.7873815123
 11
155.7018665869
 21
30.8519086025
 12
155.412804528
 22
30.7551187255
 13
155.412804528
 23
30.7551187255
  0
SOLID
  8
0
 62
7
  6
CONTINUOUS
 10
155.7018665869
 20
30.8519086025
 11
155.759679528
 21
30.6905916353
 12
155.412804528
 22
30.7551187255
 13
155.412804528
 23
30.7551187255
  0
SOLID
  8
0
 62
7
  6
CONTINUOUS
 10
155.4706168074
 20
30.658327332
 11
155.412804528
 21
30.7551187255
 12
155.759679528
 22
30.6905916353
 13
155.759679528
 23
30.6905916353
  0
SOLID
  8
0
 62
7
  6
CONTINUOUS
 10
155.4706168074
 20
30.658327332
 11
155.759679528
 21
30.6905916353
 12
155.5284290869
 22
30.5938002079
 13
155.5284290869
 23
30.5938002079
  0
SOLID
  8
0
 62
7
  6
CONTINUOUS
 10
155.759679528
 20
30.6905916353
 11
155.8174918074
 21
30.5938002079
 12
155.5284290869
 22
30.5938002079
 13
155.5284290869
 23
30.5938002079
  0
SOLID
  8
0
 62
7
  6
CONTINUOUS
 10
151.0768668626
 20
30.8196456577
 11
151.1346793074
 21
30.9164373395
 12
151.4237418626
 22
30.9164373395
 13
151.4237418626
 23
30.9164373395
  0
SOLID
  8
0
 62
7
  6
CONTINUOUS
 10
151.4237418626
 20
30.9164373395
 11
151.3659292523
 21
30.7873815123
 12
151.0768668626
 22
30.8196456577
 13
151.0768668626
 23
30.8196456577
  0
SOLID
  8
0
 62
7
  6
CONTINUOUS
 10
150.9034292799
 20
30.7551187255
 11
151.0768668626
 21
30.8196456577
 12
151.3659292523
 22
30.7873815123
 13
151.3659292523
 23
30.7873815123
  0
SOLID
  8
0
 62
7
  6
CONTINUOUS
 10
150.9034292799
 20
30.7551187255
 11
151.3659292523
 21
30.7873815123
 12
150.498741835
 22
30.7228544222
 13
150.498741835
 23
30.7228544222
  0
SOLID
  8
0
 62
7
  6
CONTINUOUS
 10
151.3659292523
 20
30.7873815123
 11
151.1924917523
 21
30.6905916353
 12
150.498741835
 22
30.7228544222
 13
150.498741835
 23
30.7228544222
  0
SOLID
  8
0
 62
7
  6
CONTINUOUS
 10
150.0362418212
 20
30.658327332
 11
150.498741835
 21
30.7228544222
 12
151.1924917523
 22
30.6905916353
 13
151.1924917523
 23
30.6905916353
  0
SOLID
  8
0
 62
7
  6
CONTINUOUS
 10
150.0362418212
 20
30.658327332
 11
151.1924917523
 21
30.6905916353
 12
150.2096793212
 22
30.6260631011
 13
150.2096793212
 23
30.6260631011
  0
SOLID
  8
0
 62
7
  6
CONTINUOUS
 10
151.1924917523
 20
30.6905916353
 11
150.9612418074
 21
30.6260631011
 12
150.2096793212
 22
30.6260631011
 13
150.2096793212
 23
30.6260631011
  0
SOLID
  8
0
 62
7
  6
CONTINUOUS
 10
150.5565542799
 20
30.5938002419
 11
150.2096793212
 21
30.6260631011
 12
150.9612418074
 22
30.6260631011
 13
150.9612418074
 23
30.6260631011
  0
SOLID
  8
0
 62
7
  6
CONTINUOUS
 10
154.0253041972
 20
30.7551187255
 11
154.2565543074
 21
30.8519086025
 12
154.3143669177
 22
30.7873815123
 13
154.3143669177
 23
30.7873815123
  0
SOLID
  8
0
 62
7
  6
CONTINUOUS
 10
154.3143669177
 20
30.7873815123
 11
154.5456166972
 21
30.7228544222
 12
154.0253041972
 22
30.7551187255
 13
154.0253041972
 23
30.7551187255
  0
SOLID
  8
0
 62
7
  6
CONTINUOUS
 10
154.1987416972
 20
30.658327332
 11
154.0253041972
 21
30.7551187255
 12
154.5456166972
 22
30.7228544222
 13
154.5456166972
 23
30.7228544222
  0
SOLID
  8
0
 62
7
  6
CONTINUOUS
 10
154.8924916972
 20
30.7228544637
 11
155.1815540869
 21
30.7873815123
 12
155.412804528
 22
30.7551187255
 13
155.412804528
 23
30.7551187255
  0
SOLID
  8
0
 62
7
  6
CONTINUOUS
 10
155.412804528
 20
30.7551187255
 11
155.3549915869
 21
30.6905916353
 12
154.8924916972
 22
30.7228544637
 13
154.8924916972
 23
30.7228544637
  0
SOLID
  8
0
 62
7
  6
CONTINUOUS
 10
155.3549915869
 20
30.6905916353
 11
154.1987416972
 21
30.658327332
 12
154.8924916972
 22
30.7228544637
 13
154.8924916972
 23
30.7228544637
  0
SOLID
  8
0
 62
7
  6
CONTINUOUS
 10
154.1987416972
 20
30.658327332
 11
154.5456166972
 21
30.7228544637
 12
154.8924916972
 22
30.7228544637
 13
154.8924916972
 23
30.7228544637
  0
SOLID
  8
0
 62
7
  6
CONTINUOUS
 10
154.1987416972
 20
30.658327332
 11
155.3549915869
 21
30.6905916353
 12
154.3143669177
 22
30.6260630541
 13
154.3143669177
 23
30.6260630541
  0
SOLID
  8
0
 62
7
  6
CONTINUOUS
 10
155.3549915869
 20
30.6905916353
 11
155.1815540869
 21
30.6260630541
 12
154.3143669177
 22
30.6260630541
 13
154.3143669177
 23
30.6260630541
  0
SOLID
  8
0
 62
7
  6
CONTINUOUS
 10
154.5456166972
 20
30.5938002188
 11
154.3143669177
 21
30.6260630541
 12
155.1815540869
 22
30.6260630541
 13
155.1815540869
 23
30.6260630541
  0
SOLID
  8
0
 62
7
  6
CONTINUOUS
 10
155.1815540869
 20
30.6260630541
 11
154.8924916972
 21
30.5938002188
 12
154.5456166972
 22
30.5938002188
 13
154.5456166972
 23
30.5938002188
  0
SOLID
  8
0
 62
7
  6
CONTINUOUS
 10
159.575304528
 20
30.7551187255
 11
159.228429528
 21
30.7228544637
 12
159.4596793074
 22
30.7873815123
 13
159.4596793074
 23
30.7873815123
  0
SOLID
  8
0
 62
7
  6
CONTINUOUS
 10
159.4596793074
 20
30.7873815123
 11
159.228429528
 21
30.7228544637
 12
159.401867028
 22
30.851908644
 13
159.401867028
 23
30.851908644
  0
SOLID
  8
0
 62
7
  6
CONTINUOUS
 10
159.228429528
 20
30.7228544637
 11
159.1128043074
 21
30.851908644
 12
159.401867028
 22
30.851908644
 13
159.401867028
 23
30.851908644
  0
SOLID
  8
0
 62
7
  6
CONTINUOUS
 10
159.575304528
 20
30.7551187255
 11
159.922179528
 21
30.7228544637
 12
159.228429528
 22
30.7228544637
 13
159.228429528
 23
30.7228544637
  0
SOLID
  8
0
 62
7
  6
CONTINUOUS
 10
156.279992028
 20
30.5938002419
 11
156.279992028
 21
31.6262382337
 12
156.5690540869
 22
30.5938002419
 13
156.5690540869
 23
31.6262382337
  0
ENDBLK
  8
0
  6
BYBLOCK
 62
0
  0
BLOCK
  8
0
 62
2
  6
CONTINUOUS
  2
AMMEAAL_LOGO_BL0
 70
64
 10
32.1213064866
 20
19.8534310916
  0
TEXT
  8
0
 62
7
  6
CONTINUOUS
 10
18.3860103289
 20
19.2268451992
  7
TEXTSTYLE_3
 40
2.7338706658
  1
Ammeraal Beltech
 41
1.0
 51
15.0
 72
0
  0
TEXT
  8
0
 62
7
  6
CONTINUOUS
 10
29.1868111546
 20
16.9533085264
  7
TEXTSTYLE_4
 40
1.0935482663
  1
Innovation & Service in Belting
 41
1.0
 72
0
  0
LINE
  8
0
 62
7
  6
CONTINUOUS
 10
12.3614696776
 20
19.9934385078
 11
13.1396216709
 21
23.6543558055
  0
LINE
  8
0
 62
7
  6
CONTINUOUS
 10
23.2347899607
 20
27.3177497171
 11
13.6274394139
 21
24.1961322958
  0
LINE
  8
0
 62
7
  6
CONTINUOUS
 10
12.5867530099
 20
19.3000877048
 11
20.093828271
 21
12.5406867788
  0
LINE
  8
0
 62
7
  6
CONTINUOUS
 10
12.8492874206
 20
20.5352149982
 11
23.6575567857
 21
24.0470345971
  0
LINE
  8
0
 62
7
  6
CONTINUOUS
 10
23.6533516486
 20
13.6972460334
 11
15.2078919798
 21
21.3015720751
  0
LINE
  8
0
 62
7
  6
CONTINUOUS
 10
24.1731743684
 20
26.4728246013
 11
23.1966148312
 21
21.8784731989
  0
LINE
  8
0
 62
7
  6
CONTINUOUS
 10
22.4968128835
 20
18.5861638851
 11
21.810364672
 21
15.3566789607
  0
LINE
  8
0
 62
7
  6
CONTINUOUS
 10
24.8542704669
 20
14.087448211
 11
25.8105020025
 21
18.5861638851
  0
LINE
  8
0
 62
7
  6
CONTINUOUS
 10
26.5103039502
 20
21.8784731989
 11
26.9545457526
 21
23.9684665583
  0
LINE
  8
0
 62
7
  6
CONTINUOUS
 10
20.8069293463
 20
12.3891124661
 11
24.3664527239
 21
13.5456717207
  0
LINE
  8
0
 62
7
  6
CONTINUOUS
 10
23.9478910361
 20
27.1661754044
 11
26.7292624203
 21
24.6618173613
  0
ARC
  8
0
 62
7
  6
CONTINUOUS
 10
13.8527227462
 20
23.5027814928
 40
0.7290321776
 50
108.0
 51
168.0
  0
ARC
  8
0
 62
7
  6
CONTINUOUS
 10
23.4600732931
 20
26.624398914
 40
0.7290321776
 50
348.0
 51
108.0
  0
ARC
  8
0
 62
7
  6
CONTINUOUS
 10
26.2414446773
 20
24.120040871
 40
0.7290321776
 50
348.0
 51
48.0
  0
ARC
  8
0
 62
7
  6
CONTINUOUS
 10
20.581646014
 20
13.0824632691
 40
0.7290321776
 50
228.0
 51
288.0
  0
ARC
  8
0
 62
7
  6
CONTINUOUS
 10
13.0745707529
 20
19.8418641951
 40
0.7290321776
 50
108.0
 51
228.0
  0
ARC
  8
0
 62
7
  6
CONTINUOUS
 10
24.1411693916
 20
14.2390225237
 40
0.7290321776
 50
228.0
 51
348.0
  0
ENDBLK
  8
0
  6
BYBLOCK
 62
0
  0
ENDSEC
  0
SECTION
  2
ENTITIES
  0
TEXT
  8
0
 62
5
  6
CONTINUOUS
 10
96.0
 20
25.636
  7
TEXTSTYLE_2
 40
2.8
  1
Scale :
 41
0.6
 51
0.000019
 72
0
  0
TEXT
  8
0
 62
5
  6
CONTINUOUS
 10
116.0
 20
25.636
  7
TEXTSTYLE_2
 40
2.8
  1
Belt type:
 41
0.6
 51
0.000019
 72
0
  0
INSERT
  8
0
 62
2
  6
CONTINUOUS
  2
AMMEAAL_LOGO_BL0
 10
32.1213064866
 20
19.8534310916
  0
INSERT
  8
0
 62
2
  6
CONTINUOUS
  2
UNI_LOGO2_BL1
 10
173.5956734183
 20
35.5937998301
  0
LINE
  8
0
 62
2
  6
CONTINUOUS
 10
10.0
 20
30.0
 11
200.0
 21
30.0
  0
LINE
  8
0
 62
2
  6
CONTINUOUS
 10
10.0
 20
30.0
 11
10.0
 21
10.0
  0
LINE
  8
0
 62
2
  6
CONTINUOUS
 10
10.0
 20
10.0
 11
200.0
 21
10.0
  0
LINE
  8
0
 62
2
  6
CONTINUOUS
 10
95.0
 20
30.0
 11
95.0
 21
10.0
  0
LINE
  8
0
 62
2
  6
CONTINUOUS
 10
115.0
 20
30.0
 11
115.0
 21
10.0
  0
LINE
  8
0
 62
2
  6
CONTINUOUS
 10
200.0
 20
30.0
 11
200.0
 21
10.0
  0
TEXT
  8
0
 62
5
  6
CONTINUOUS
 10
13.0
 20
23.303
  7
TEXTSTYLE_5
 40
1.52
  1
                                                                     Ammeraal Beltech Modular A/S
 41
1.0
 72
0
  0
TEXT
  8
0
 62
5
  6
CONTINUOUS
 10
13.0
 20
20.595
  7
TEXTSTYLE_5
 40
1.5
  1
                                                                      Hjulmagervej 21,  7100 Vejle,  DK
 41
1.0
 72
0
  0
TEXT
  8
0
 62
5
  6
CONTINUOUS
 10
13.0
 20
17.881
  7
TEXTSTYLE_5
 40
1.495
  1
                                                                      tel: 
 41
1.0
 72
0
  0
TEXT
  8
0
 62
5
  6
CONTINUOUS
 10
57.9869465649
 20
17.881
  7
TEXTSTYLE_5
 40
1.51
  1
+45 75723100     fax: +45 75723348
 41
1.0
 72
0
  0
TEXT
  8
0
 62
5
  6
CONTINUOUS
 10
13.0
 20
15.177
  7
TEXTSTYLE_5
 40
1.5
  1
                                                                      admin@unichains.dk  www.unichains.com
 41
1.0
 72
0
  0
TEXT
  8
0
 62
5
  6
CONTINUOUS
 10
99.75
 20
13.75
  7
TEXTSTYLE_6
 40
5.0
  1
1:1
 41
0.7
 72
1
 11
105.0
 21
13.75
  0
TEXT
  8
0
 62
5
  6
CONTINUOUS
 10
118.0
 20
13.75
  7
TEXTSTYLE_7
 40
7.5
  1
Z06
 41
0.7555555556
 72
0
  0
LINE
  8
0
 62
7
  6
CONTINUOUS
 10
210.0
 20
0.0
 11
0.0
 21
0.0
  0
LINE
  8
0
 62
7
  6
CONTINUOUS
 10
10.0
 20
10.0
 11
200.0
 21
10.0
  0
LINE
  8
0
 62
7
  6
CONTINUOUS
 10
10.0
 20
30.0
 11
200.0
 21
30.0
  0
LINE
  8
0
 62
7
  6
CONTINUOUS
 10
0.0
 20
0.0
 11
0.0
 21
297.0
  0
LINE
  8
0
 62
7
  6
CONTINUOUS
 10
10.0
 20
10.0
 11
10.0
 21
287.0
  0
LINE
  8
0
 62
7
  6
CONTINUOUS
 10
200.0
 20
287.0
 11
200.0
 21
10.0
  0
LINE
  8
0
 62
7
  6
CONTINUOUS
 10
210.0
 20
0.0
 11
210.0
 21
297.0
  0
LINE
  8
0
 62
7
  6
CONTINUOUS
 10
10.0
 20
287.0
 11
200.0
 21
287.0
  0
LINE
  8
0
 62
7
  6
CONTINUOUS
 10
0.0
 20
297.0
 11
210.0
 21
297.0
  0
LINE
  8
0
 62
7
  6
CONTINUOUS
 10
68.6394343648
 20
230.2815628031
 11
68.5781124299
 21
230.0309357482
  0
LINE
  8
0
 62
7
  6
CONTINUOUS
 10
68.8033962995
 20
229.9107898769
 11
68.8647182344
 21
230.1614169319
  0
LINE
  8
0
 62
7
  6
CONTINUOUS
 10
67.8834631145
 20
228.7950623626
 11
67.7594591689
 21
228.5082186618
  0
LINE
  8
0
 62
7
  6
CONTINUOUS
 10
67.2634435016
 20
227.3608441251
 11
67.1394395825
 21
227.0740004858
  0
LINE
  8
0
 62
7
  6
CONTINUOUS
 10
69.1767536264
 20
227.2827033047
 11
69.077550477
 21
227.0532283604
  0
LINE
  8
0
 62
7
  6
CONTINUOUS
 10
68.7570772672
 20
230.5021533902
 11
68.6394343648
 21
230.2815628031
  0
LINE
  8
0
 62
7
  6
CONTINUOUS
 10
68.3747379607
 20
229.7852342187
 11
68.2276843749
 21
229.5094960637
  0
LINE
  8
0
 62
7
  6
CONTINUOUS
 10
74.9692090003
 20
239.1718395044
 11
75.0681070685
 21
239.3434485451
  0
LINE
  8
0
 62
7
  6
CONTINUOUS
 10
68.7094058896
 20
232.3351144654
 11
68.5480046558
 21
232.0675218324
  0
LINE
  8
0
 62
7
  6
CONTINUOUS
 10
68.8212908207
 20
231.9026864866
 11
68.9826920545
 21
232.1702791195
  0
LINE
  8
0
 62
7
  6
CONTINUOUS
 10
69.5292645375
 20
231.8406083355
 11
69.3678633037
 21
231.5730157026
  0
LINE
  8
0
 62
7
  6
CONTINUOUS
 10
74.8156151748
 20
239.631407763
 11
74.6697233978
 21
239.4185931287
  0
LINE
  8
0
 62
7
  6
CONTINUOUS
 10
71.2253370924
 20
235.9045251834
 11
70.9815796211
 21
235.6195562463
  0
LINE
  8
0
 62
7
  6
CONTINUOUS
 10
74.4328438413
 20
235.6282538986
 11
73.2140564846
 21
234.2034092126
  0
LINE
  8
0
 62
7
  6
CONTINUOUS
 10
68.8647182344
 20
230.1614169319
 11
69.0386821042
 21
230.3519710512
  0
LINE
  8
0
 62
7
  6
CONTINUOUS
 10
74.6977922453
 20
237.3417100821
 11
74.082139365
 21
236.7199408739
  0
LINE
  8
0
 62
7
  6
CONTINUOUS
 10
74.3089244613
 20
236.4953866569
 11
74.9245773415
 21
237.1171558651
  0
LINE
  8
0
 62
7
  6
CONTINUOUS
 10
68.9016303693
 20
230.6375597839
 11
68.7570772672
 21
230.5021533902
  0
LINE
  8
0
 62
7
  6
CONTINUOUS
 10
75.0505815672
 20
239.8374338449
 11
74.8156151748
 21
239.631407763
  0
LINE
  8
0
 62
7
  6
CONTINUOUS
 10
75.0681070685
 20
239.3434485451
 11
75.3500671697
 21
239.5906802206
  0
LINE
  8
0
 62
7
  6
CONTINUOUS
 10
75.8424371824
 20
239.597945881
 11
76.1243972835
 21
239.8451775565
  0
LINE
  8
0
 62
7
  6
CONTINUOUS
 10
75.9392150397
 20
238.9187752442
 11
75.6572549385
 21
238.6715435688
  0
LINE
  8
0
 62
7
  6
CONTINUOUS
 10
75.9097468323
 20
238.3835843509
 11
76.1917069335
 21
238.6308160263
  0
LINE
  8
0
 62
7
  6
CONTINUOUS
 10
75.7764688891
 20
237.5875855529
 11
75.4945087879
 21
237.3403538775
  0
LINE
  8
0
 62
7
  6
CONTINUOUS
 10
76.8229367563
 20
237.9109178806
 11
76.4469903133
 21
237.5812759611
  0
LINE
  8
0
 62
7
  6
CONTINUOUS
 10
78.4637628966
 20
242.4503589035
 11
78.1584824958
 21
242.232577185
  0
LINE
  8
0
 62
7
  6
CONTINUOUS
 10
76.8864804377
 20
241.3251530812
 11
76.4285598365
 21
240.9984805035
  0
LINE
  8
0
 62
7
  6
CONTINUOUS
 10
80.4441194815
 20
243.6236415336
 11
79.1419703266
 21
242.8790560257
  0
LINE
  8
0
 62
7
  6
CONTINUOUS
 10
79.6576145309
 20
242.7327388284
 11
80.6884830257
 21
243.3222025921
  0
LINE
  8
0
 62
7
  6
CONTINUOUS
 10
81.1320659174
 20
242.5464540967
 11
80.1011974225
 21
241.9569903329
  0
LINE
  8
0
 62
7
  6
CONTINUOUS
 10
80.2913043381
 20
241.6245267586
 11
81.3221728329
 21
242.2139905224
  0
LINE
  8
0
 62
7
  6
CONTINUOUS
 10
81.7974401883
 20
241.38283147
 11
80.7665716934
 21
240.7933677062
  0
LINE
  8
0
 62
7
  6
CONTINUOUS
 10
75.3276310176
 20
239.9954676668
 11
75.0505815672
 21
239.8374338449
  0
LINE
  8
0
 62
7
  6
CONTINUOUS
 10
76.2162634145
 20
239.0768081231
 11
75.9392150397
 21
238.9187752442
  0
LINE
  8
0
 62
7
  6
CONTINUOUS
 10
76.1917069335
 20
238.6308160263
 11
76.4217626751
 21
238.7476442546
  0
LINE
  8
0
 62
7
  6
CONTINUOUS
 10
75.6796910907
 20
238.2667561225
 11
75.9097468323
 21
238.3835843509
  0
LINE
  8
0
 62
7
  6
CONTINUOUS
 10
91.8163402379
 20
247.011024435
 11
91.9946953424
 21
247.0971635519
  0
LINE
  8
0
 62
7
  6
CONTINUOUS
 10
88.9291330691
 20
246.4846762465
 11
89.2206099879
 21
246.6141841329
  0
LINE
  8
0
 62
7
  6
CONTINUOUS
 10
75.3500671697
 20
239.5906802206
 11
75.5331292026
 21
239.6663028553
  0
LINE
  8
0
 62
7
  6
CONTINUOUS
 10
89.1520110234
 20
246.9258734033
 11
88.79949588
 21
246.7829317564
  0
LINE
  8
0
 62
7
  6
CONTINUOUS
 10
92.0179558366
 20
247.4215421224
 11
91.7155259395
 21
247.3202147117
  0
LINE
  8
0
 62
7
  6
CONTINUOUS
 10
92.1498021532
 20
246.3444754957
 11
91.8473722561
 21
246.243148085
  0
LINE
  8
0
 62
7
  6
CONTINUOUS
 10
80.7470858692
 20
243.7233533921
 11
80.4441194815
 21
243.6236415336
  0
LINE
  8
0
 62
7
  6
CONTINUOUS
 10
87.2807884149
 20
246.4798358298
 11
84.904396928
 21
245.7034604486
  0
LINE
  8
0
 62
7
  6
CONTINUOUS
 10
85.0035087047
 20
245.400091243
 11
87.082850236
 21
246.0794193684
  0
LINE
  8
0
 62
7
  6
CONTINUOUS
 10
88.0935050817
 20
243.9922080468
 11
86.0735724538
 21
243.3322890172
  0
LINE
  8
0
 62
7
  6
CONTINUOUS
 10
68.5781124299
 20
230.0309357482
 11
68.6025223141
 21
229.8054201089
  0
LINE
  8
0
 62
7
  6
CONTINUOUS
 10
68.8278061837
 20
229.6852742376
 11
68.8033962995
 21
229.9107898769
  0
LINE
  8
0
 62
7
  6
CONTINUOUS
 10
69.4517247563
 20
227.4361927873
 11
69.4427370101
 21
227.5762587603
  0
LINE
  8
0
 62
7
  6
CONTINUOUS
 10
69.2173673864
 20
227.5375066334
 11
69.1767536264
 21
227.2827033047
  0
LINE
  8
0
 62
7
  6
CONTINUOUS
 10
69.411110981
 20
227.1813894652
 11
69.4517247563
 21
227.4361927873
  0
LINE
  8
0
 62
7
  6
CONTINUOUS
 10
74.9123929142
 20
238.9522372607
 11
74.9692090003
 21
239.1718395044
  0
LINE
  8
0
 62
7
  6
CONTINUOUS
 10
74.6697233978
 20
239.4185931287
 11
74.5659146786
 21
239.1577862345
  0
LINE
  8
0
 62
7
  6
CONTINUOUS
 10
77.268313086
 20
237.8769779181
 11
77.3721228697
 21
238.137785768
  0
LINE
  8
0
 62
7
  6
CONTINUOUS
 10
69.3119078315
 20
226.9519145209
 11
69.411110981
 21
227.1813894652
  0
LINE
  8
0
 62
7
  6
CONTINUOUS
 10
69.6839195975
 20
227.8124454594
 11
69.8079235432
 21
228.0992891602
  0
LINE
  8
0
 62
7
  6
CONTINUOUS
 10
70.0299554894
 20
228.5483290098
 11
70.1770090753
 21
228.8240671648
  0
LINE
  8
0
 62
7
  6
CONTINUOUS
 10
70.7064018835
 20
229.8167243335
 11
70.8534553852
 21
230.0924623307
  0
LINE
  8
0
 62
7
  6
CONTINUOUS
 10
71.1168949123
 20
230.5180693969
 11
71.2782961461
 21
230.7856620299
  0
LINE
  8
0
 62
7
  6
CONTINUOUS
 10
81.5526566639
 20
242.5663686865
 11
81.6294841936
 21
242.6838278379
  0
LINE
  8
0
 62
7
  6
CONTINUOUS
 10
76.9688285333
 20
238.1237325149
 11
76.8229367563
 21
237.9109178806
  0
LINE
  8
0
 62
7
  6
CONTINUOUS
 10
77.0754286795
 20
237.6229586291
 11
77.268313086
 21
237.8769779181
  0
LINE
  8
0
 62
7
  6
CONTINUOUS
 10
69.1541153612
 20
226.7477680776
 11
69.3119078315
 21
226.9519145209
  0
LINE
  8
0
 62
7
  6
CONTINUOUS
 10
73.2613311186
 20
233.6694964755
 11
74.7238759467
 21
235.3793100987
  0
LINE
  8
0
 62
7
  6
CONTINUOUS
 10
81.2631500758
 20
242.6949378809
 11
81.1320659174
 21
242.5464540967
  0
LINE
  8
0
 62
7
  6
CONTINUOUS
 10
81.9285243467
 20
241.5313152542
 11
81.7974401883
 21
241.38283147
  0
LINE
  8
0
 62
7
  6
CONTINUOUS
 10
88.7734551867
 20
246.319698642
 11
88.9291330691
 21
246.4846762465
  0
LINE
  8
0
 62
7
  6
CONTINUOUS
 10
88.79949588
 20
246.7829317564
 11
88.535458547
 21
246.5287481619
  0
LINE
  8
0
 62
7
  6
CONTINUOUS
 10
81.9332904973
 20
241.019343224
 11
82.1728879104
 21
241.2298762788
  0
LINE
  8
0
 62
7
  6
CONTINUOUS
 10
76.6994822365
 20
237.2933167095
 11
77.0754286795
 21
237.6229586291
  0
LINE
  8
0
 62
7
  6
CONTINUOUS
 10
91.6457407978
 20
246.8615284682
 11
91.8163402379
 21
247.011024435
  0
LINE
  8
0
 62
7
  6
CONTINUOUS
 10
91.8473722561
 20
246.243148085
 11
91.5061733759
 21
245.9441561513
  0
LINE
  8
0
 62
7
  6
CONTINUOUS
 10
91.7775871144
 20
245.7844618415
 11
91.9481865545
 21
245.9339578083
  0
LINE
  8
0
 62
7
  6
CONTINUOUS
 10
69.077550477
 20
227.0532283604
 11
68.8611686578
 21
226.8744103813
  0
LINE
  8
0
 62
7
  6
CONTINUOUS
 10
91.7155259395
 20
247.3202147117
 11
91.4286073712
 21
247.0921736011
  0
LINE
  8
0
 62
7
  6
CONTINUOUS
 10
78.1708135842
 20
238.5562372972
 11
78.476093985
 21
238.7740190157
  0
LINE
  8
0
 62
7
  6
CONTINUOUS
 10
79.7480960431
 20
239.6814431195
 11
80.2060166443
 21
240.0081156972
  0
LINE
  8
0
 62
7
  6
CONTINUOUS
 10
69.0386821042
 20
230.3519710512
 11
69.1538244386
 21
230.4322297192
  0
LINE
  8
0
 62
7
  6
CONTINUOUS
 10
80.6311413424
 20
240.2747577161
 11
81.9332904973
 21
241.019343224
  0
LINE
  8
0
 62
7
  6
CONTINUOUS
 10
76.4224327825
 20
237.1352828918
 11
76.6994822365
 21
237.2933167095
  0
LINE
  8
0
 62
7
  6
CONTINUOUS
 10
69.1025044388
 20
230.7429297097
 11
68.9016303693
 21
230.6375597839
  0
LINE
  8
0
 62
7
  6
CONTINUOUS
 10
76.4469903133
 20
237.5812759611
 11
76.2169345716
 21
237.4644477327
  0
LINE
  8
0
 62
7
  6
CONTINUOUS
 10
91.9481865545
 20
245.9339578083
 11
92.1265416591
 21
246.0200969251
  0
LINE
  8
0
 62
7
  6
CONTINUOUS
 10
92.8942704221
 20
244.8922577643
 11
92.7159153176
 21
244.8061186474
  0
LINE
  8
0
 62
7
  6
CONTINUOUS
 10
90.0197165164
 20
244.4371904981
 11
89.7282423918
 21
244.3076832267
  0
LINE
  8
0
 62
7
  6
CONTINUOUS
 10
75.6572549385
 20
238.6715435688
 11
75.4741929057
 21
238.5959209341
  0
LINE
  8
0
 62
7
  6
CONTINUOUS
 10
89.7968413658
 20
243.9959939126
 11
90.1493565081
 21
244.138935565
  0
LINE
  8
0
 62
7
  6
CONTINUOUS
 10
92.6926548289
 20
244.4817400325
 11
92.9950847253
 21
244.5830674488
  0
LINE
  8
0
 62
7
  6
CONTINUOUS
 10
85.8360477409
 20
242.8517895764
 11
88.2124392278
 21
243.6281649577
  0
LINE
  8
0
 62
7
  6
CONTINUOUS
 10
74.5659146786
 20
239.1577862345
 11
74.5462688485
 21
238.8009919912
  0
LINE
  8
0
 62
7
  6
CONTINUOUS
 10
77.0256445898
 20
238.3433347923
 11
76.9688285333
 21
238.1237325149
  0
LINE
  8
0
 62
7
  6
CONTINUOUS
 10
81.3082931196
 20
242.867807628
 11
81.2631500758
 21
242.6949378809
  0
LINE
  8
0
 62
7
  6
CONTINUOUS
 10
82.1728879104
 20
241.2298762788
 11
82.2948584756
 21
241.5202051918
  0
LINE
  8
0
 62
7
  6
CONTINUOUS
 10
86.0735724538
 20
243.3322890172
 11
87.4195449024
 21
246.055118942
  0
LINE
  8
0
 62
7
  6
CONTINUOUS
 10
87.082850236
 20
246.0794193684
 11
85.6774688841
 21
243.3371803478
  0
LINE
  8
0
 62
7
  6
CONTINUOUS
 10
88.535458547
 20
246.5287481619
 11
88.3935004575
 21
246.3014327032
  0
LINE
  8
0
 62
7
  6
CONTINUOUS
 10
91.6690264905
 20
245.6425601953
 11
91.7775871144
 21
245.7844618415
  0
LINE
  8
0
 62
7
  6
CONTINUOUS
 10
90.1753943988
 20
244.6021681026
 11
90.0197165164
 21
244.4371904981
  0
LINE
  8
DEFAULT_3
 62
2
  6
PHANTOM
 10
77.9828305239
 20
228.1734676323
 11
83.5305592134
 21
233.7211963217
  0
LINE
  8
0
 62
7
  6
CONTINUOUS
 10
90.1493565081
 20
244.138935565
 11
90.4133910433
 21
244.3931185609
  0
LINE
  8
0
 62
7
  6
CONTINUOUS
 10
93.0648698622
 20
245.0417537311
 11
92.8942704221
 21
244.8922577643
  0
LINE
  8
0
 62
7
  6
CONTINUOUS
 10
92.9950847253
 20
244.5830674488
 11
93.2820032915
 21
244.811108576
  0
LINE
  8
0
 62
7
  6
CONTINUOUS
 10
68.9625343168
 20
226.6263187913
 11
69.1541153612
 21
226.7477680776
  0
LINE
  8
0
 62
7
  6
CONTINUOUS
 10
108.3887348822
 20
244.0201461691
 11
108.2247347731
 21
243.9492507129
  0
LINE
  8
0
 62
7
  6
CONTINUOUS
 10
69.2739677406
 20
230.7931519099
 11
69.1025044388
 21
230.7429297097
  0
LINE
  8
0
 62
7
  6
CONTINUOUS
 10
69.1538244386
 20
230.4322297192
 11
69.3252877405
 21
230.4824519193
  0
LINE
  8
DEFAULT_3
 62
2
  6
PHANTOM
 10
77.9828305239
 20
203.1741833745
 11
83.5305592134
 21
197.626454685
  0
LINE
  8
0
 62
7
  6
CONTINUOUS
 10
68.6025223141
 20
229.8054201089
 11
68.6563427977
 21
229.6350518797
  0
LINE
  8
0
 62
7
  6
CONTINUOUS
 10
68.8816266673
 20
229.5149060085
 11
68.8278061837
 21
229.6852742376
  0
LINE
  8
0
 62
7
  6
CONTINUOUS
 10
69.1745910726
 20
227.7602697363
 11
69.2173673864
 21
227.5375066334
  0
LINE
  8
0
 62
7
  6
CONTINUOUS
 10
77.3721228697
 20
238.137785768
 11
77.3917686851
 21
238.4945800281
  0
LINE
  8
0
 62
7
  6
CONTINUOUS
 10
81.6294841936
 20
242.6838278379
 11
81.6655148942
 21
242.9985434093
  0
LINE
  8
0
 62
7
  6
CONTINUOUS
 10
82.2948584756
 20
241.5202051918
 11
82.3308891651
 21
241.8349207826
  0
LINE
  8
0
 62
7
  6
CONTINUOUS
 10
81.9736673683
 20
241.7041850401
 11
81.9285243467
 21
241.5313152542
  0
LINE
  8
0
 62
7
  6
CONTINUOUS
 10
88.6116182896
 20
245.891935686
 11
88.7734551867
 21
246.319698642
  0
LINE
  8
0
 62
7
  6
CONTINUOUS
 10
91.5449358383
 20
246.6562699722
 11
91.6457407978
 21
246.8615284682
  0
LINE
  8
0
 62
7
  6
CONTINUOUS
 10
91.4286073712
 20
247.0921736011
 11
91.2735192599
 21
246.8159639344
  0
LINE
  8
0
 62
7
  6
CONTINUOUS
 10
93.2820032915
 20
244.811108576
 11
93.4370914001
 21
245.0873182649
  0
LINE
  8
0
 62
7
  6
CONTINUOUS
 10
90.4133910433
 20
244.3931185609
 11
90.555349128
 21
244.6204340414
  0
LINE
  8
DEFAULT_3
 62
2
  6
PHANTOM
 10
91.8978966598
 20
239.8257920684
 11
87.6552559727
 21
235.5831513812
  0
LINE
  8
DEFAULT_3
 62
2
  6
PHANTOM
 10
71.8782347773
 20
219.8061301858
 11
76.1208754644
 21
224.0487708729
  0
LINE
  8
0
 62
7
  6
CONTINUOUS
 10
108.4415910582
 20
243.6537877464
 11
108.7117327305
 21
243.8192192402
  0
LINE
  8
0
 62
7
  6
CONTINUOUS
 10
112.7990908925
 20
242.1092906053
 11
113.0092465593
 21
242.1994420657
  0
LINE
  8
0
 62
7
  6
CONTINUOUS
 10
68.712363947
 20
226.5301979957
 11
68.9625343168
 21
226.6263187913
  0
LINE
  8
0
 62
7
  6
CONTINUOUS
 10
112.9946230708
 20
242.5158757173
 11
112.6970702709
 21
242.4072183035
  0
LINE
  8
0
 62
7
  6
CONTINUOUS
 10
112.9160786145
 20
239.5778211135
 11
113.2136314268
 21
239.6864785459
  0
LINE
  8
DEFAULT_3
 62
2
  6
PHANTOM
 10
87.6552559727
 20
195.7644996255
 11
91.8978966598
 21
191.5218589384
  0
LINE
  8
DEFAULT_3
 62
2
  6
PHANTOM
 10
76.1208754644
 20
207.2988801338
 11
71.8782347773
 21
211.5415208209
  0
LINE
  8
0
 62
7
  6
CONTINUOUS
 10
69.4427370101
 20
227.5762587603
 11
69.3413712965
 21
227.8243502522
  0
LINE
  8
0
 62
7
  6
CONTINUOUS
 10
88.3935004575
 20
246.3014327032
 11
88.3263003855
 21
246.025213151
  0
LINE
  8
0
 62
7
  6
CONTINUOUS
 10
90.555349128
 20
244.6204340414
 11
90.6225491904
 21
244.8966536372
  0
LINE
  8
0
 62
7
  6
CONTINUOUS
 10
91.2735192599
 20
246.8159639344
 11
91.1882256509
 21
246.4839915609
  0
LINE
  8
0
 62
7
  6
CONTINUOUS
 10
90.3372341189
 20
245.0299315426
 11
90.1753943988
 21
244.6021681026
  0
LINE
  8
0
 62
7
  6
CONTINUOUS
 10
93.1656748163
 20
245.2470122716
 11
93.0648698622
 21
245.0417537311
  0
LINE
  8
0
 62
7
  6
CONTINUOUS
 10
112.6970702709
 20
242.4072183035
 11
112.4161821773
 21
242.2107939279
  0
LINE
  8
0
 62
7
  6
CONTINUOUS
 10
113.1116108299
 20
239.9844062813
 11
112.9014551384
 21
239.8942547837
  0
LINE
  8
0
 62
7
  6
CONTINUOUS
 10
69.048424588
 20
227.9509925581
 11
69.1745910726
 21
227.7602697363
  0
LINE
  8
0
 62
7
  6
CONTINUOUS
 10
76.9933849848
 20
238.5697246453
 11
77.0256445898
 21
238.3433347923
  0
LINE
  8
0
 62
7
  6
CONTINUOUS
 10
86.7322570402
 20
171.519170183
 11
86.5606253877
 21
174.7940972034
  0
LINE
  8
0
 62
7
  6
CONTINUOUS
 10
86.5606253877
 20
256.5535538033
 11
86.7322570402
 21
259.8284808237
  0
LINE
  8
0
 62
7
  6
CONTINUOUS
 10
88.3263003855
 20
246.025213151
 11
88.3064215779
 21
245.8247656537
  0
LINE
  8
0
 62
7
  6
CONTINUOUS
 10
90.6225491904
 20
244.8966536372
 11
90.6424280364
 21
245.0971009599
  0
LINE
  8
0
 62
7
  6
CONTINUOUS
 10
91.506164037
 20
246.4586049241
 11
91.5449358383
 21
246.6562699722
  0
LINE
  8
0
 62
7
  6
CONTINUOUS
 10
91.6302546784
 20
245.444895236
 11
91.6690264905
 21
245.6425601953
  0
LINE
  8
0
 62
7
  6
CONTINUOUS
 10
93.2044466393
 20
245.4446771422
 11
93.1656748163
 21
245.2470122716
  0
LINE
  8
0
 62
7
  6
CONTINUOUS
 10
93.4370914001
 20
245.0873182649
 11
93.5223850254
 21
245.4192905053
  0
LINE
  8
0
 62
7
  6
CONTINUOUS
 10
108.5190192784
 20
244.1737699752
 11
108.3887348822
 21
244.0201461691
  0
LINE
  8
0
 62
7
  6
CONTINUOUS
 10
108.7117327305
 20
243.8192192402
 11
108.8420171267
 21
243.9728430463
  0
LINE
  8
0
 62
7
  6
CONTINUOUS
 10
109.6120199921
 20
242.4530648154
 11
110.9170317472
 21
243.7114260562
  0
LINE
  8
0
 62
7
  6
CONTINUOUS
 10
108.8570818674
 20
241.6975985323
 11
109.4370887625
 21
242.2568692742
  0
LINE
  8
0
 62
7
  6
CONTINUOUS
 10
110.8159628532
 20
244.0541665172
 11
108.5258736331
 21
241.8734567295
  0
LINE
  8
0
 62
7
  6
CONTINUOUS
 10
112.6409613325
 20
241.9845117367
 11
112.7990908925
 21
242.1092906053
  0
LINE
  8
0
 62
7
  6
CONTINUOUS
 10
112.0751026602
 20
241.1343295316
 11
112.2332321707
 21
241.2591083257
  0
LINE
  8
0
 62
7
  6
CONTINUOUS
 10
113.2697402909
 20
240.109185001
 11
113.1116108299
 21
239.9844062813
  0
LINE
  8
0
 62
7
  6
CONTINUOUS
 10
113.2136314268
 20
239.6864785459
 11
113.4945194461
 21
239.8829028098
  0
LINE
  8
0
 62
7
  6
CONTINUOUS
 10
53.1421759885
 20
201.6487538118
 11
55.8925301574
 21
203.4348546931
  0
LINE
  8
0
 62
7
  6
CONTINUOUS
 10
126.6982965725
 20
244.3145829931
 11
129.620282394
 21
245.8034091321
  0
LINE
  8
0
 62
7
  6
CONTINUOUS
 10
129.620282394
 20
185.5442418746
 11
126.6982965725
 21
187.0330680136
  0
LINE
  8
0
 62
7
  6
CONTINUOUS
 10
55.8925301574
 20
227.9127963136
 11
53.1421759885
 21
229.6988971949
  0
LINE
  8
0
 62
7
  6
CONTINUOUS
 10
74.5462688485
 20
238.8009919912
 11
74.6676030689
 21
238.5678135857
  0
LINE
  8
0
 62
7
  6
CONTINUOUS
 10
74.9916452703
 20
238.7670519237
 11
74.9123929142
 21
238.9522372607
  0
LINE
  8
0
 62
7
  6
CONTINUOUS
 10
77.3917686851
 20
238.4945800281
 11
77.3174270683
 21
238.7689631178
  0
LINE
  8
0
 62
7
  6
CONTINUOUS
 10
81.2674962906
 20
243.0650640481
 11
81.3082931196
 21
242.867807628
  0
LINE
  8
0
 62
7
  6
CONTINUOUS
 10
81.6655148942
 20
242.9985434093
 11
81.6247180652
 21
243.1957998293
  0
LINE
  8
0
 62
7
  6
CONTINUOUS
 10
81.9328705393
 20
241.9014414602
 11
81.9736673683
 21
241.7041850401
  0
LINE
  8
0
 62
7
  6
CONTINUOUS
 10
82.3308891651
 20
241.8349207826
 11
82.2900923139
 21
242.0321772414
  0
LINE
  8
0
 62
7
  6
CONTINUOUS
 10
88.6328960281
 20
245.5044741862
 11
88.6116182896
 21
245.891935686
  0
LINE
  8
0
 62
7
  6
CONTINUOUS
 10
90.3159535671
 20
245.4173925148
 11
90.3372341189
 21
245.0299315426
  0
LINE
  8
0
 62
7
  6
CONTINUOUS
 10
88.3064215779
 20
245.8247656537
 11
88.3139823177
 21
245.4996426229
  0
LINE
  8
0
 62
7
  6
CONTINUOUS
 10
90.6424280364
 20
245.0971009599
 11
90.6348700716
 21
245.422224693
  0
LINE
  8
0
 62
7
  6
CONTINUOUS
 10
91.1882256509
 20
246.4839915609
 11
91.1804764856
 21
246.0328992905
  0
LINE
  8
0
 62
7
  6
CONTINUOUS
 10
91.4906620471
 20
246.0708698512
 11
91.506164037
 21
246.4586049241
  0
LINE
  8
0
 62
7
  6
CONTINUOUS
 10
112.4161821773
 20
242.2107939279
 11
112.1165880606
 21
241.8734696755
  0
LINE
  8
0
 62
7
  6
CONTINUOUS
 10
112.3767333797
 20
241.7003238675
 11
112.6409613325
 21
241.9845117367
  0
LINE
  8
AXES
 62
2
  6
CONTINUOUS
 10
96.0302013423
 20
216.5538255034
 11
96.0302013423
 21
214.7938255034
  0
LINE
  8
AXES
 62
2
  6
CENTER
 10
96.0302013423
 20
211.2738255034
 11
96.0302013423
 21
167.4128255034
  0
LINE
  8
AXES
 62
2
  6
CENTER
 10
96.0302013423
 20
220.0738255034
 11
96.0302013423
 21
263.9348255034
  0
LINE
  8
0
 62
7
  6
CONTINUOUS
 10
107.0634597035
 20
245.7338342009
 11
105.9287464203
 21
242.9567087509
  0
LINE
  8
0
 62
7
  6
CONTINUOUS
 10
106.2758871016
 20
242.8148695905
 11
106.7828866608
 21
244.0557128943
  0
LINE
  8
0
 62
7
  6
CONTINUOUS
 10
106.9277436584
 20
244.4102395052
 11
107.2898862201
 21
245.296556198
  0
LINE
  8
0
 62
7
  6
CONTINUOUS
 10
112.1165880606
 20
241.8734696755
 11
111.8690249131
 21
241.5015149933
  0
LINE
  8
0
 62
7
  6
CONTINUOUS
 10
112.3060010519
 20
241.5940511011
 11
112.3767333797
 21
241.7003238675
  0
LINE
  8
0
 62
7
  6
CONTINUOUS
 10
111.9690041684
 20
240.9749203821
 11
112.0751026602
 21
241.1343295316
  0
LINE
  8
AXES
 62
2
  6
CONTINUOUS
 10
96.9102013423
 20
215.6738255034
 11
95.1502013423
 21
215.6738255034
  0
LINE
  8
AXES
 62
2
  6
CENTER
 10
91.6302013423
 20
215.6738255034
 11
47.7692013423
 21
215.6738255034
  0
LINE
  8
AXES
 62
2
  6
CENTER
 10
100.4302013423
 20
215.6738255034
 11
144.2912013423
 21
215.6738255034
  0
LINE
  8
0
 62
7
  6
CONTINUOUS
 10
67.1394395825
 20
227.0740004858
 11
68.3112263346
 21
226.5674312974
  0
LINE
  8
0
 62
7
  6
CONTINUOUS
 10
68.4352302537
 20
226.8542749367
 11
67.2634435016
 21
227.3608441251
  0
LINE
  8
0
 62
7
  6
CONTINUOUS
 10
67.7594591689
 20
228.5082186618
 11
69.048424588
 21
227.9509925581
  0
LINE
  8
0
 62
7
  6
CONTINUOUS
 10
68.2276843749
 20
229.5094960637
 11
70.0299554894
 21
228.5483290098
  0
LINE
  8
0
 62
7
  6
CONTINUOUS
 10
70.1770090753
 20
228.8240671648
 11
68.8816266673
 21
229.5149060085
  0
LINE
  8
0
 62
7
  6
CONTINUOUS
 10
68.6563427977
 20
229.6350518797
 11
68.3747379607
 21
229.7852342187
  0
LINE
  8
0
 62
7
  6
CONTINUOUS
 10
69.6363033451
 20
230.387417306
 11
70.7064018835
 21
229.8167243335
  0
LINE
  8
0
 62
7
  6
CONTINUOUS
 10
68.5480046558
 20
232.0675218324
 11
68.8212908207
 21
231.9026864866
  0
LINE
  8
0
 62
7
  6
CONTINUOUS
 10
69.3678633037
 20
231.5730157026
 11
71.1168949123
 21
230.5180693969
  0
LINE
  8
0
 62
7
  6
CONTINUOUS
 10
71.2782961461
 20
230.7856620299
 11
69.5292645375
 21
231.8406083355
  0
LINE
  8
0
 62
7
  6
CONTINUOUS
 10
68.9826920545
 20
232.1702791195
 11
68.7094058896
 21
232.3351144654
  0
LINE
  8
0
 62
7
  6
CONTINUOUS
 10
70.9815796211
 20
235.6195562463
 11
73.2613311186
 21
233.6694964755
  0
LINE
  8
0
 62
7
  6
CONTINUOUS
 10
73.2140564846
 20
234.2034092126
 11
71.2253370924
 21
235.9045251834
  0
LINE
  8
0
 62
7
  6
CONTINUOUS
 10
74.082139365
 20
236.7199408739
 11
74.3089244613
 21
236.4953866569
  0
LINE
  8
0
 62
7
  6
CONTINUOUS
 10
74.9245773415
 20
237.1171558651
 11
74.6977922453
 21
237.3417100821
  0
LINE
  8
0
 62
7
  6
CONTINUOUS
 10
74.6676030689
 20
238.5678135857
 11
74.835931116
 21
238.3758406392
  0
LINE
  8
0
 62
7
  6
CONTINUOUS
 10
75.0758092349
 20
238.6710655177
 11
74.9916452703
 21
238.7670519237
  0
LINE
  8
0
 62
7
  6
CONTINUOUS
 10
76.4285598365
 20
240.9984805035
 11
78.1708135842
 21
238.5562372972
  0
LINE
  8
0
 62
7
  6
CONTINUOUS
 10
78.476093985
 20
238.7740190157
 11
76.9562555828
 21
240.9044865307
  0
LINE
  8
0
 62
7
  6
CONTINUOUS
 10
79.1419703266
 20
242.8790560257
 11
80.6311413424
 21
240.2747577161
  0
LINE
  8
0
 62
7
  6
CONTINUOUS
 10
80.7665716934
 20
240.7933677062
 11
80.2913043381
 21
241.6245267586
  0
LINE
  8
0
 62
7
  6
CONTINUOUS
 10
80.1011974225
 20
241.9569903329
 11
79.6576145309
 21
242.7327388284
  0
LINE
  8
0
 62
7
  6
CONTINUOUS
 10
84.904396928
 20
245.7034604486
 11
85.0035087047
 21
245.400091243
  0
LINE
  8
0
 62
7
  6
CONTINUOUS
 10
85.6774688841
 20
243.3371803478
 11
85.8360477409
 21
242.8517895764
  0
LINE
  8
0
 62
7
  6
CONTINUOUS
 10
88.3139823177
 20
245.4996426229
 11
88.4374604536
 21
244.9386019362
  0
LINE
  8
0
 62
7
  6
CONTINUOUS
 10
88.7289345783
 20
245.0681092077
 11
88.6328960281
 21
245.5044741862
  0
LINE
  8
0
 62
7
  6
CONTINUOUS
 10
91.1804764856
 20
246.0328992905
 11
91.2347661364
 21
245.5894013408
  0
LINE
  8
0
 62
7
  6
CONTINUOUS
 10
91.5061733759
 20
245.9441561513
 11
91.4906620471
 21
246.0708698512
  0
LINE
  8
0
 62
7
  6
CONTINUOUS
 10
91.6535216716
 20
245.2548246861
 11
91.6302546784
 21
245.444895236
  0
LINE
  8
0
 62
7
  6
CONTINUOUS
 10
108.5914478448
 20
244.3510334462
 11
108.5190192784
 21
244.1737699752
  0
LINE
  8
0
 62
7
  6
CONTINUOUS
 10
108.8420171267
 20
243.9728430463
 11
108.9385885261
 21
244.2091942858
  0
LINE
  8
0
 62
7
  6
CONTINUOUS
 10
111.8690249131
 20
241.5015149933
 11
111.6734926853
 21
241.0949298069
  0
LINE
  8
0
 62
7
  6
CONTINUOUS
 10
113.3758387827
 20
240.2685941505
 11
113.2697402909
 21
240.109185001
  0
LINE
  8
0
 62
7
  6
CONTINUOUS
 10
113.4945194461
 20
239.8829028098
 11
113.6713503153
 21
240.1485848001
  0
LINE
  8
0
 62
7
  6
CONTINUOUS
 10
69.4067859087
 20
228.1365224106
 11
67.8834631145
 21
228.7950623626
  0
LINE
  8
0
 62
7
  6
CONTINUOUS
 10
70.8534553852
 20
230.0924623307
 11
69.7833568468
 21
230.6631553032
  0
LINE
  8
0
 62
7
  6
CONTINUOUS
 10
74.7238759467
 20
235.3793100987
 11
74.4328438413
 21
235.6282538986
  0
LINE
  8
0
 62
7
  6
CONTINUOUS
 10
76.8671390379
 20
238.7137042543
 11
76.9933849848
 21
238.5697246453
  0
LINE
  8
0
 62
7
  6
CONTINUOUS
 10
77.3174270683
 20
238.7689631178
 11
77.1070171568
 21
239.0089291327
  0
LINE
  8
0
 62
7
  6
CONTINUOUS
 10
78.1584824958
 20
242.232577185
 11
79.6412516478
 21
240.1540723217
  0
LINE
  8
0
 62
7
  6
CONTINUOUS
 10
80.2060166443
 20
240.0081156972
 11
78.4637628966
 21
242.4503589035
  0
LINE
  8
0
 62
7
  6
CONTINUOUS
 10
81.2041273187
 20
243.1758852395
 11
81.2674962906
 21
243.0650640481
  0
LINE
  8
0
 62
7
  6
CONTINUOUS
 10
81.8378170815
 20
242.0676732473
 11
81.9328705393
 21
241.9014414602
  0
LINE
  8
0
 62
7
  6
CONTINUOUS
 10
82.2900923139
 20
242.0321772414
 11
82.1316698843
 21
242.30923022
  0
LINE
  8
0
 62
7
  6
CONTINUOUS
 10
81.6247180652
 20
243.1957998293
 11
81.4979800327
 21
243.4174423674
  0
LINE
  8
0
 62
7
  6
CONTINUOUS
 10
88.4374604536
 20
244.9386019362
 11
88.5670976619
 21
244.640346339
  0
LINE
  8
0
 62
7
  6
CONTINUOUS
 10
88.8722943736
 20
244.7075163714
 11
88.7289345783
 21
245.0681092077
  0
LINE
  8
0
 62
7
  6
CONTINUOUS
 10
88.2124392278
 20
243.6281649577
 11
88.0935050817
 21
243.9922080468
  0
LINE
  8
0
 62
7
  6
CONTINUOUS
 10
87.4195449024
 20
246.055118942
 11
87.2807884149
 21
246.4798358298
  0
LINE
  8
0
 62
7
  6
CONTINUOUS
 10
91.2347661364
 20
245.5894013408
 11
91.3510946143
 21
245.1534976231
  0
LINE
  8
0
 62
7
  6
CONTINUOUS
 10
90.2199150169
 20
245.8537574933
 11
90.3159535671
 21
245.4173925148
  0
LINE
  8
0
 62
7
  6
CONTINUOUS
 10
90.6348700716
 20
245.422224693
 11
90.5113919356
 21
245.9832653797
  0
LINE
  8
0
 62
7
  6
CONTINUOUS
 10
93.1811796461
 20
245.634747692
 11
93.2044466393
 21
245.4446771422
  0
LINE
  8
0
 62
7
  6
CONTINUOUS
 10
93.5223850254
 20
245.4192905053
 11
93.4836066925
 21
245.7360748438
  0
LINE
  8
0
 62
7
  6
CONTINUOUS
 10
111.9149366458
 20
240.7808808028
 11
111.9690041684
 21
240.9749203821
  0
LINE
  8
0
 62
7
  6
CONTINUOUS
 10
68.6357990415
 20
226.8356582999
 11
68.4352302537
 21
226.8542749367
  0
LINE
  8
0
 62
7
  6
CONTINUOUS
 10
68.3112263346
 20
226.5674312974
 11
68.5703844948
 21
226.5234861801
  0
LINE
  8
0
 62
7
  6
CONTINUOUS
 10
69.6659440342
 20
228.0925772413
 11
69.4067859087
 21
228.1365224106
  0
LINE
  8
0
 62
7
  6
CONTINUOUS
 10
69.3252877405
 20
230.4824519193
 11
69.6363033451
 21
230.387417306
  0
LINE
  8
0
 62
7
  6
CONTINUOUS
 10
69.7833568468
 20
230.6631553032
 11
69.4723414105
 21
230.7581902321
  0
LINE
  8
0
 62
7
  6
CONTINUOUS
 10
75.9497085447
 20
237.4848115376
 11
75.7764688891
 21
237.5875855529
  0
LINE
  8
0
 62
7
  6
CONTINUOUS
 10
75.4945087879
 20
237.3403538775
 11
75.7098304258
 21
237.1895866591
  0
LINE
  8
0
 62
7
  6
CONTINUOUS
 10
74.835931116
 20
238.3758406392
 11
75.0512527539
 21
238.2250734209
  0
LINE
  8
0
 62
7
  6
CONTINUOUS
 10
88.5670976619
 20
244.640346339
 11
88.6692952653
 21
244.4667665373
  0
LINE
  8
0
 62
7
  6
CONTINUOUS
 10
91.738827481
 20
245.072348457
 11
91.6535216716
 21
245.2548246861
  0
LINE
  8
0
 62
7
  6
CONTINUOUS
 10
90.5113919356
 20
245.9832653797
 11
90.3817519524
 21
246.2815202746
  0
LINE
  8
0
 62
7
  6
CONTINUOUS
 10
90.0765580349
 20
246.2143508572
 11
90.2199150169
 21
245.8537574933
  0
LINE
  8
0
 62
7
  6
CONTINUOUS
 10
105.3281456444
 20
259.8284808237
 11
105.4997772969
 21
256.5535538033
  0
LINE
  8
0
 62
7
  6
CONTINUOUS
 10
105.4997772969
 20
174.7940972034
 11
105.3281456444
 21
171.519170183
  0
LINE
  8
0
 62
7
  6
CONTINUOUS
 10
108.6060204463
 20
244.551936251
 11
108.5914478448
 21
244.3510334462
  0
LINE
  8
0
 62
7
  6
CONTINUOUS
 10
108.9385885261
 20
244.2091942858
 11
108.9531611275
 21
244.4100970906
  0
LINE
  8
0
 62
7
  6
CONTINUOUS
 10
110.7339302132
 20
240.7010678539
 11
111.2575721477
 21
243.8196898155
  0
LINE
  8
0
 62
7
  6
CONTINUOUS
 10
110.5411145257
 20
241.6706761781
 11
110.4027219789
 21
240.8769260511
  0
LINE
  8
0
 62
7
  6
CONTINUOUS
 10
110.9170317472
 20
243.7114260562
 11
110.6056446951
 21
241.9254902239
  0
LINE
  8
0
 62
7
  6
CONTINUOUS
 10
111.6734926853
 20
241.0949298069
 11
111.6007190159
 21
240.7599901648
  0
LINE
  8
0
 62
7
  6
CONTINUOUS
 10
113.6713503153
 20
240.1485848001
 11
113.7441239599
 21
240.483524405
  0
LINE
  8
0
 62
7
  6
CONTINUOUS
 10
113.4299063548
 20
240.4626338042
 11
113.3758387827
 21
240.2685941505
  0
LINE
  8
0
 62
7
  6
CONTINUOUS
 10
114.20388419
 20
241.1742975351
 11
114.2579517126
 21
241.3683371144
  0
LINE
  8
0
 62
7
  6
CONTINUOUS
 10
138.9182266961
 20
229.6988971949
 11
136.1678725271
 21
227.9127963136
  0
LINE
  8
0
 62
7
  6
CONTINUOUS
 10
65.362106112
 20
187.0330680136
 11
62.4401202906
 21
185.5442418746
  0
LINE
  8
0
 62
7
  6
CONTINUOUS
 10
68.5703844948
 20
226.5234861801
 11
68.712363947
 21
226.5301979957
  0
LINE
  8
0
 62
7
  6
CONTINUOUS
 10
69.3413712965
 20
227.8243502522
 11
69.6839195975
 21
227.8124454594
  0
LINE
  8
0
 62
7
  6
CONTINUOUS
 10
69.4723414105
 20
230.7581902321
 11
69.2739677406
 21
230.7931519099
  0
LINE
  8
0
 62
7
  6
CONTINUOUS
 10
62.4401202906
 20
245.8034091321
 11
65.362106112
 21
244.3145829931
  0
LINE
  8
0
 62
7
  6
CONTINUOUS
 10
75.2490488905
 20
238.5682915023
 11
75.0758092349
 21
238.6710655177
  0
LINE
  8
0
 62
7
  6
CONTINUOUS
 10
76.1243972835
 20
239.8451775565
 11
75.9511576279
 21
239.9479515718
  0
LINE
  8
0
 62
7
  6
CONTINUOUS
 10
136.1678725271
 20
203.4348546931
 11
138.9182266961
 21
201.6487538118
  0
LINE
  8
0
 62
7
  6
CONTINUOUS
 10
81.6885069506
 20
242.2028804793
 11
81.8378170815
 21
242.0676732473
  0
LINE
  8
0
 62
7
  6
CONTINUOUS
 10
82.1316698843
 20
242.30923022
 11
81.9823597534
 21
242.444437452
  0
LINE
  8
0
 62
7
  6
CONTINUOUS
 10
81.0548171435
 20
243.3110925491
 11
81.2041273187
 21
243.1758852395
  0
LINE
  8
0
 62
7
  6
CONTINUOUS
 10
81.4979800327
 20
243.4174423674
 11
81.3486699463
 21
243.5526495218
  0
LINE
  8
0
 62
7
  6
CONTINUOUS
 10
88.6692952653
 20
244.4667665373
 11
88.8462536899
 21
244.2442832133
  0
LINE
  8
0
 62
7
  6
CONTINUOUS
 10
90.3817519524
 20
246.2815202746
 11
90.2795543106
 21
246.455100251
  0
LINE
  8
0
 62
7
  6
CONTINUOUS
 10
91.3510946143
 20
245.1534976231
 11
91.5139448945
 21
244.8519012751
  0
LINE
  8
0
 62
7
  6
CONTINUOUS
 10
93.4836066925
 20
245.7360748438
 11
93.3207564177
 21
246.0376711474
  0
LINE
  8
0
 62
7
  6
CONTINUOUS
 10
93.0958738258
 20
245.8172240099
 11
93.1811796461
 21
245.634747692
  0
LINE
  8
0
 62
7
  6
CONTINUOUS
 10
93.2199327587
 20
246.8613103744
 11
93.1346269493
 21
247.0437866035
  0
LINE
  8
0
 62
7
  6
CONTINUOUS
 10
111.6007190159
 20
240.7599901648
 11
111.615342492
 21
240.4435564946
  0
LINE
  8
0
 62
7
  6
CONTINUOUS
 10
111.9128953042
 20
240.5522139269
 11
111.9149366458
 21
240.7808808028
  0
LINE
  8
0
 62
7
  6
CONTINUOUS
 10
68.8611686578
 20
226.8744103813
 11
68.6357990415
 21
226.8356582999
  0
LINE
  8
0
 62
7
  6
CONTINUOUS
 10
69.8079235432
 20
228.0992891602
 11
69.6659440342
 21
228.0925772413
  0
LINE
  8
0
 62
7
  6
CONTINUOUS
 10
76.6469066903
 20
238.7752736864
 11
76.8671390379
 21
238.7137042543
  0
LINE
  8
0
 62
7
  6
CONTINUOUS
 10
75.7098304258
 20
237.1895866591
 11
76.0612204321
 21
237.0732364315
  0
LINE
  8
0
 62
7
  6
CONTINUOUS
 10
77.1070171568
 20
239.0089291327
 11
76.8447028269
 21
239.1184917678
  0
LINE
  8
0
 62
7
  6
CONTINUOUS
 10
75.7112795091
 20
239.6527266934
 11
75.8424371824
 21
239.597945881
  0
LINE
  8
0
 62
7
  6
CONTINUOUS
 10
79.6412516478
 20
240.1540723217
 11
76.8864804377
 21
241.3251530812
  0
LINE
  8
0
 62
7
  6
CONTINUOUS
 10
76.9562555828
 20
240.9044865307
 11
79.7480960431
 21
239.6814431195
  0
LINE
  8
0
 62
7
  6
CONTINUOUS
 10
89.1987688333
 20
244.3872248602
 11
88.8722943736
 21
244.7075163714
  0
LINE
  8
0
 62
7
  6
CONTINUOUS
 10
91.5139448945
 20
244.8519012751
 11
91.7310783238
 21
244.62125612
  0
LINE
  8
0
 62
7
  6
CONTINUOUS
 10
91.8861664324
 20
244.8974658089
 11
91.738827481
 21
245.072348457
  0
LINE
  8
0
 62
7
  6
CONTINUOUS
 10
90.2795543106
 20
246.455100251
 11
90.1025958956
 21
246.6775835313
  0
LINE
  8
0
 62
7
  6
CONTINUOUS
 10
114.2579517126
 20
241.3683371144
 11
114.2433282241
 21
241.684770766
  0
LINE
  8
0
 62
7
  6
CONTINUOUS
 10
113.9457754243
 20
241.5761133522
 11
113.9437341075
 21
241.3474465136
  0
LINE
  8
DEFAULT_3
 62
2
  6
PHANTOM
 10
120.1821679073
 20
211.5415208209
 11
115.9395272202
 21
207.2988801338
  0
LINE
  8
DEFAULT_3
 62
2
  6
PHANTOM
 10
100.1625060247
 20
191.5218589384
 11
104.4051467119
 21
195.7644996255
  0
LINE
  8
DEFAULT_3
 62
2
  6
PHANTOM
 10
108.5298434712
 20
197.626454685
 11
114.0775721606
 21
203.1741833745
  0
LINE
  8
0
 62
7
  6
CONTINUOUS
 10
112.2332321707
 20
241.2591083257
 11
112.4080216735
 21
241.2961234029
  0
LINE
  8
0
 62
7
  6
CONTINUOUS
 10
76.2169345716
 20
237.4644477327
 11
75.9497085447
 21
237.4848115376
  0
LINE
  8
0
 62
7
  6
CONTINUOUS
 10
75.0512527539
 20
238.2250734209
 11
75.4075544424
 21
238.1979220403
  0
LINE
  8
0
 62
7
  6
CONTINUOUS
 10
75.9511576279
 20
239.9479515718
 11
75.6418496482
 21
240.0163085461
  0
LINE
  8
0
 62
7
  6
CONTINUOUS
 10
81.5166259632
 20
242.2516531151
 11
81.6885069506
 21
242.2028804793
  0
LINE
  8
0
 62
7
  6
CONTINUOUS
 10
81.9823597534
 20
242.444437452
 11
81.6928531654
 21
242.5730066464
  0
LINE
  8
0
 62
7
  6
CONTINUOUS
 10
81.3486699463
 20
243.5526495218
 11
81.0591633582
 21
243.6812187162
  0
LINE
  8
0
 62
7
  6
CONTINUOUS
 10
88.8462536899
 20
244.2442832133
 11
89.0705305415
 21
244.0975715256
  0
LINE
  8
0
 62
7
  6
CONTINUOUS
 10
92.9562905442
 20
245.9287497636
 11
93.0958738258
 21
245.8172240099
  0
LINE
  8
0
 62
7
  6
CONTINUOUS
 10
89.7500807522
 20
246.5346418844
 11
90.0765580349
 21
246.2143508572
  0
LINE
  8
DEFAULT_3
 62
2
  6
PHANTOM
 10
115.9395272202
 20
224.0487708729
 11
120.1821679073
 21
219.8061301858
  0
LINE
  8
DEFAULT_3
 62
2
  6
PHANTOM
 10
104.4051467119
 20
235.5831513812
 11
100.1625060247
 21
239.8257920684
  0
LINE
  8
DEFAULT_3
 62
2
  6
PHANTOM
 10
108.5298434712
 20
233.7211963217
 11
114.0775721606
 21
228.1734676323
  0
LINE
  8
0
 62
7
  6
CONTINUOUS
 10
93.1346269493
 20
247.0437866035
 11
92.9174935227
 21
247.2744317364
  0
LINE
  8
0
 62
7
  6
CONTINUOUS
 10
92.7624054114
 20
246.9982220697
 11
92.9097471972
 21
246.8233398136
  0
LINE
  8
0
 62
7
  6
CONTINUOUS
 10
108.9531611275
 20
244.4100970906
 11
108.8761621186
 21
244.7173677448
  0
LINE
  8
0
 62
7
  6
CONTINUOUS
 10
113.3965815077
 20
240.6381642597
 11
113.4299063548
 21
240.4626338042
  0
LINE
  8
0
 62
7
  6
CONTINUOUS
 10
108.1377363214
 20
243.5710835205
 11
108.4415910582
 21
243.6537877464
  0
LINE
  8
0
 62
7
  6
CONTINUOUS
 10
76.0612204321
 20
237.0732364315
 11
76.4224327825
 21
237.1352828918
  0
LINE
  8
0
 62
7
  6
CONTINUOUS
 10
75.4741929057
 20
238.5959209341
 11
75.2490488905
 21
238.5682915023
  0
LINE
  8
0
 62
7
  6
CONTINUOUS
 10
76.4217626751
 20
238.7476442546
 11
76.6469066903
 21
238.7752736864
  0
LINE
  8
0
 62
7
  6
CONTINUOUS
 10
75.6418496482
 20
240.0163085461
 11
75.3276310176
 21
239.9954676668
  0
LINE
  8
0
 62
7
  6
CONTINUOUS
 10
112.9014551384
 20
239.8942547837
 11
112.6746346664
 21
239.8918701363
  0
LINE
  8
0
 62
7
  6
CONTINUOUS
 10
112.4080216735
 20
241.2961234029
 11
112.6348421455
 21
241.2985080504
  0
LINE
  8
0
 62
7
  6
CONTINUOUS
 10
112.7596419959
 20
241.598820396
 11
112.3060010519
 21
241.5940511011
  0
LINE
  8
0
 62
7
  6
CONTINUOUS
 10
112.5498300309
 20
239.5915609285
 11
112.9160786145
 21
239.5778211135
  0
LINE
  8
0
 62
7
  6
CONTINUOUS
 10
76.8447028269
 20
239.1184917678
 11
76.4884011384
 21
239.1456431484
  0
LINE
  8
0
 62
7
  6
CONTINUOUS
 10
75.5331292026
 20
239.6663028553
 11
75.7112795091
 21
239.6527266934
  0
LINE
  8
0
 62
7
  6
CONTINUOUS
 10
81.0591633582
 20
243.6812187162
 11
80.7470858692
 21
243.7233533921
  0
LINE
  8
0
 62
7
  6
CONTINUOUS
 10
80.882936156
 20
243.3598651849
 11
81.0548171435
 21
243.3110925491
  0
LINE
  8
0
 62
7
  6
CONTINUOUS
 10
89.0705305415
 20
244.0975715256
 11
89.4168866354
 21
243.9777279794
  0
LINE
  8
0
 62
7
  6
CONTINUOUS
 10
89.4093258873
 20
244.3028510484
 11
89.1987688333
 21
244.3872248602
  0
LINE
  8
0
 62
7
  6
CONTINUOUS
 10
91.7310783238
 20
244.62125612
 11
92.0645308806
 21
244.4691561142
  0
LINE
  8
0
 62
7
  6
CONTINUOUS
 10
92.0877885302
 20
244.7935343759
 11
91.8861664324
 21
244.8974658089
  0
LINE
  8
0
 62
7
  6
CONTINUOUS
 10
92.7546684465
 20
246.0326811966
 11
92.9562905442
 21
245.9287497636
  0
LINE
  8
0
 62
7
  6
CONTINUOUS
 10
90.1025958956
 20
246.6775835313
 11
89.8783190488
 21
246.8242951971
  0
LINE
  8
0
 62
7
  6
CONTINUOUS
 10
93.3207564177
 20
246.0376711474
 11
93.1113786555
 21
246.2049594304
  0
LINE
  8
0
 62
7
  6
CONTINUOUS
 10
108.8761621186
 20
244.7173677448
 11
108.7171643794
 21
244.9891901298
  0
LINE
  8
0
 62
7
  6
CONTINUOUS
 10
111.615342492
 20
240.4435564946
 11
111.7693893101
 21
240.1110015231
  0
LINE
  8
0
 62
7
  6
CONTINUOUS
 10
108.5385916689
 20
244.7173918688
 11
108.6060204463
 21
244.551936251
  0
LINE
  8
0
 62
7
  6
CONTINUOUS
 10
111.9982511206
 20
240.3420530417
 11
111.9128953042
 21
240.5522139269
  0
LINE
  8
0
 62
7
  6
CONTINUOUS
 10
113.3112256914
 20
240.8483251449
 11
113.3965815077
 21
240.6381642597
  0
LINE
  8
0
 62
7
  6
CONTINUOUS
 10
113.7441239599
 20
240.483524405
 11
113.6941343075
 21
240.7468216735
  0
LINE
  8
0
 62
7
  6
CONTINUOUS
 10
75.4075544424
 20
238.1979220403
 11
75.6796910907
 21
238.2667561225
  0
LINE
  8
0
 62
7
  6
CONTINUOUS
 10
76.4884011384
 20
239.1456431484
 11
76.2162634145
 21
239.0768081231
  0
LINE
  8
0
 62
7
  6
CONTINUOUS
 10
81.3221728329
 20
242.2139905224
 11
81.5166259632
 21
242.2516531151
  0
LINE
  8
0
 62
7
  6
CONTINUOUS
 10
80.6884830257
 20
243.3222025921
 11
80.882936156
 21
243.3598651849
  0
LINE
  8
0
 62
7
  6
CONTINUOUS
 10
92.3824721072
 20
244.4437698194
 11
92.6926548289
 21
244.4817400325
  0
LINE
  8
0
 62
7
  6
CONTINUOUS
 10
92.7159153176
 20
244.8061186474
 11
92.2816549635
 21
244.7529597929
  0
LINE
  8
0
 62
7
  6
CONTINUOUS
 10
89.4168866354
 20
243.9777279794
 11
89.7968413658
 21
243.9959939126
  0
LINE
  8
0
 62
7
  6
CONTINUOUS
 10
81.6928531654
 20
242.5730066464
 11
81.5526566639
 21
242.5663686865
  0
LINE
  8
0
 62
7
  6
CONTINUOUS
 10
89.7282423918
 20
244.3076832267
 11
89.4093258873
 21
244.3028510484
  0
LINE
  8
0
 62
7
  6
CONTINUOUS
 10
113.0092465593
 20
242.1994420657
 11
113.2360670313
 21
242.2018267131
  0
LINE
  8
0
 62
7
  6
CONTINUOUS
 10
113.3608668817
 20
242.5021390587
 11
112.9946230708
 21
242.5158757173
  0
LINE
  8
0
 62
7
  6
CONTINUOUS
 10
108.2247347731
 20
243.9492507129
 11
108.0270215996
 21
243.9610825247
  0
LINE
  8
0
 62
7
  6
CONTINUOUS
 10
92.0645308806
 20
244.4691561142
 11
92.3824721072
 21
244.4437698194
  0
LINE
  8
0
 62
7
  6
CONTINUOUS
 10
107.8243087046
 20
243.6301954131
 11
108.1377363214
 21
243.5710835205
  0
LINE
  8
0
 62
7
  6
CONTINUOUS
 10
92.2816549635
 20
244.7529597929
 11
92.0877885302
 21
244.7935343759
  0
LINE
  8
0
 62
7
  6
CONTINUOUS
 10
92.5608020131
 20
246.0732557797
 11
92.7546684465
 21
246.0326811966
  0
LINE
  8
0
 62
7
  6
CONTINUOUS
 10
92.3669168803
 20
247.1427280857
 11
92.5607833136
 21
247.1021535027
  0
LINE
  8
0
 62
7
  6
CONTINUOUS
 10
112.6746346664
 20
239.8918701363
 11
112.4831803583
 21
239.942621872
  0
LINE
  8
0
 62
7
  6
CONTINUOUS
 10
112.6348421455
 20
241.2985080504
 11
112.8262964536
 21
241.2477563146
  0
LINE
  8
0
 62
7
  6
CONTINUOUS
 10
113.2360670313
 20
242.2018267131
 11
113.4275213394
 21
242.1510749773
  0
LINE
  8
0
 62
7
  6
CONTINUOUS
 10
89.8783190488
 20
246.8242951971
 11
89.5319657527
 21
246.944139342
  0
LINE
  8
0
 62
7
  6
CONTINUOUS
 10
89.5395236982
 20
246.6190156962
 11
89.7500807522
 21
246.5346418844
  0
LINE
  8
0
 62
7
  6
CONTINUOUS
 10
112.2543185447
 20
239.7115703487
 11
112.5498300309
 21
239.5915609285
  0
LINE
  8
0
 62
7
  6
CONTINUOUS
 10
105.9287464203
 20
242.9567087509
 11
106.2758871016
 21
242.8148695905
  0
LINE
  8
0
 62
7
  6
CONTINUOUS
 10
93.1113786555
 20
246.2049594304
 11
92.7779261008
 21
246.3570594195
  0
LINE
  8
0
 62
7
  6
CONTINUOUS
 10
92.9174935227
 20
247.2744317364
 11
92.5840438078
 21
247.4265320732
  0
LINE
  8
0
 62
7
  6
CONTINUOUS
 10
92.5607833136
 20
247.1021535027
 11
92.7624054114
 21
246.9982220697
  0
LINE
  8
0
 62
7
  6
CONTINUOUS
 10
108.5258736331
 20
241.8734567295
 11
108.8570818674
 21
241.6975985323
  0
LINE
  8
0
 62
7
  6
CONTINUOUS
 10
110.4027219789
 20
240.8769260511
 11
110.7339302132
 21
240.7010678539
  0
LINE
  8
0
 62
7
  6
CONTINUOUS
 10
109.4370887625
 20
242.2568692742
 11
110.5411145257
 21
241.6706761781
  0
LINE
  8
0
 62
7
  6
CONTINUOUS
 10
110.6056446951
 20
241.9254902239
 11
109.6120199921
 21
242.4530648154
  0
LINE
  8
0
 62
7
  6
CONTINUOUS
 10
111.9941732256
 20
239.8847161568
 11
112.2543185447
 21
239.7115703487
  0
LINE
  8
0
 62
7
  6
CONTINUOUS
 10
112.4831803583
 20
239.942621872
 11
112.1189731008
 21
240.1850285396
  0
LINE
  8
0
 62
7
  6
CONTINUOUS
 10
108.3891641612
 20
244.8473992175
 11
108.5385916689
 21
244.7173918688
  0
LINE
  8
0
 62
7
  6
CONTINUOUS
 10
111.7693893101
 20
240.1110015231
 11
111.9941732256
 21
239.8847161568
  0
LINE
  8
0
 62
7
  6
CONTINUOUS
 10
112.1189731008
 20
240.1850285396
 11
111.9982511206
 21
240.3420530417
  0
LINE
  8
0
 62
7
  6
CONTINUOUS
 10
113.1905037111
 20
241.005349647
 11
113.3112256914
 21
240.8483251449
  0
LINE
  8
0
 62
7
  6
CONTINUOUS
 10
113.7396976277
 20
241.9432987395
 11
113.8604196079
 21
241.7862742374
  0
LINE
  8
0
 62
7
  6
CONTINUOUS
 10
113.6941343075
 20
240.7468216735
 11
113.5400827167
 21
241.0793798014
  0
LINE
  8
0
 62
7
  6
CONTINUOUS
 10
114.2433282241
 20
241.684770766
 11
114.0892813968
 21
242.0173257235
  0
LINE
  8
0
 62
7
  6
CONTINUOUS
 10
113.8604196079
 20
241.7862742374
 11
113.9457754243
 21
241.5761133522
  0
LINE
  8
0
 62
7
  6
CONTINUOUS
 10
92.1265416591
 20
246.0200969251
 11
92.5608020131
 21
246.0732557797
  0
LINE
  8
0
 62
7
  6
CONTINUOUS
 10
92.4599848749
 20
246.3824457088
 11
92.1498021532
 21
246.3444754957
  0
LINE
  8
0
 62
7
  6
CONTINUOUS
 10
92.9097471972
 20
246.8233398136
 11
93.2199327587
 21
246.8613103744
  0
LINE
  8
0
 62
7
  6
CONTINUOUS
 10
91.9946953424
 20
247.0971635519
 11
92.3669168803
 21
247.1427280857
  0
LINE
  8
0
 62
7
  6
CONTINUOUS
 10
92.2661025819
 20
247.4519183624
 11
92.0179558366
 21
247.4215421224
  0
LINE
  8
0
 62
7
  6
CONTINUOUS
 10
89.5319657527
 20
246.944139342
 11
89.1520110234
 21
246.9258734033
  0
LINE
  8
0
 62
7
  6
CONTINUOUS
 10
89.2206099879
 20
246.6141841329
 11
89.5395236982
 21
246.6190156962
  0
LINE
  8
0
 62
7
  6
CONTINUOUS
 10
92.7779261008
 20
246.3570594195
 11
92.4599848749
 21
246.3824457088
  0
LINE
  8
0
 62
7
  6
CONTINUOUS
 10
92.5840438078
 20
247.4265320732
 11
92.2661025819
 21
247.4519183624
  0
LINE
  8
0
 62
7
  6
CONTINUOUS
 10
113.0551582424
 20
241.4788078007
 11
112.7596419959
 21
241.598820396
  0
LINE
  8
0
 62
7
  6
CONTINUOUS
 10
113.6563831282
 20
242.3821264634
 11
113.3608668817
 21
242.5021390587
  0
LINE
  8
0
 62
7
  6
CONTINUOUS
 10
106.7828866608
 20
244.0557128943
 11
107.8243087046
 21
243.6301954131
  0
LINE
  8
0
 62
7
  6
CONTINUOUS
 10
108.0270215996
 20
243.9610825247
 11
106.9277436584
 21
244.4102395052
  0
LINE
  8
0
 62
7
  6
CONTINUOUS
 10
107.2898862201
 20
245.296556198
 11
108.3891641612
 21
244.8473992175
  0
LINE
  8
0
 62
7
  6
CONTINUOUS
 10
108.4520224285
 20
245.1664775593
 11
107.0634597035
 21
245.7338342009
  0
LINE
  8
0
 62
7
  6
CONTINUOUS
 10
111.2575721477
 20
243.8196898155
 11
110.8159628532
 21
244.0541665172
  0
LINE
  8
0
 62
7
  6
CONTINUOUS
 10
112.8262964536
 20
241.2477563146
 11
113.1905037111
 21
241.005349647
  0
LINE
  8
0
 62
7
  6
CONTINUOUS
 10
113.3153035615
 20
241.3056619926
 11
113.0551582424
 21
241.4788078007
  0
LINE
  8
0
 62
7
  6
CONTINUOUS
 10
113.9437341075
 20
241.3474465136
 11
114.20388419
 21
241.1742975351
  0
LINE
  8
0
 62
7
  6
CONTINUOUS
 10
113.4275213394
 20
242.1510749773
 11
113.7396976277
 21
241.9432987395
  0
LINE
  8
0
 62
7
  6
CONTINUOUS
 10
113.8644974781
 20
242.2436110851
 11
113.6563831282
 21
242.3821264634
  0
LINE
  8
0
 62
7
  6
CONTINUOUS
 10
108.7171643794
 20
244.9891901298
 11
108.4520224285
 21
245.1664775593
  0
LINE
  8
0
 62
7
  6
CONTINUOUS
 10
113.5400827167
 20
241.0793798014
 11
113.3153035615
 21
241.3056619926
  0
LINE
  8
0
 62
7
  6
CONTINUOUS
 10
114.0892813968
 20
242.0173257235
 11
113.8644974781
 21
242.2436110851
  0
POLYLINE
  8
0
 62
7
  6
CONTINUOUS
 66
1
 70
0
  0
VERTEX
  8
0
 62
7
  6
CONTINUOUS
 10
52.4591346452
 20
93.5724386553
  0
VERTEX
  8
0
 62
7
  6
CONTINUOUS
 10
52.4643975439
 20
93.4699556298
  0
VERTEX
  8
0
 62
7
  6
CONTINUOUS
 10
52.4934252875
 20
93.3127529202
  0
VERTEX
  8
0
 62
7
  6
CONTINUOUS
 10
52.5405458249
 20
93.1771265125
  0
VERTEX
  8
0
 62
7
  6
CONTINUOUS
 10
52.5997569174
 20
93.0609605939
  0
SEQEND
  0
LINE
  8
0
 62
7
  6
CONTINUOUS
 10
52.459134541
 20
98.0832845878
 11
52.459134541
 21
93.5724201057
  0
POLYLINE
  8
0
 62
7
  6
CONTINUOUS
 66
1
 70
0
  0
VERTEX
  8
0
 62
7
  6
CONTINUOUS
 10
52.4776240922
 20
98.2747174738
  0
VERTEX
  8
0
 62
7
  6
CONTINUOUS
 10
52.4592994201
 20
98.1014228696
  0
VERTEX
  8
0
 62
7
  6
CONTINUOUS
 10
52.4591346452
 20
98.0832660389
  0
SEQEND
  0
LINE
  8
0
 62
7
  6
CONTINUOUS
 10
52.518991716
 20
98.4241281572
 11
52.4775256336
 21
98.2742118123
  0
LINE
  8
0
 62
7
  6
CONTINUOUS
 10
52.5756683544
 20
98.5518820027
 11
52.5187299541
 21
98.4234049541
  0
LINE
  8
0
 62
7
  6
CONTINUOUS
 10
52.6422760143
 20
98.6602678031
 11
52.5752119071
 21
98.5510199474
  0
POLYLINE
  8
0
 62
7
  6
CONTINUOUS
 66
1
 70
0
  0
VERTEX
  8
0
 62
7
  6
CONTINUOUS
 10
52.5405768904
 20
93.1770542843
  0
VERTEX
  8
0
 62
7
  6
CONTINUOUS
 10
52.5998057981
 20
93.0608784175
  0
VERTEX
  8
0
 62
7
  6
CONTINUOUS
 10
52.6668679339
 20
92.9620840391
  0
VERTEX
  8
0
 62
7
  6
CONTINUOUS
 10
52.7386693908
 20
92.8787193057
  0
VERTEX
  8
0
 62
7
  6
CONTINUOUS
 10
52.8131159669
 20
92.8088313696
  0
VERTEX
  8
0
 62
7
  6
CONTINUOUS
 10
52.8888835735
 20
92.7506117893
  0
VERTEX
  8
0
 62
7
  6
CONTINUOUS
 10
52.9644802773
 20
92.7029015548
  0
VERTEX
  8
0
 62
7
  6
CONTINUOUS
 10
53.0380142499
 20
92.6648651311
  0
VERTEX
  8
0
 62
7
  6
CONTINUOUS
 10
53.107782291
 20
92.6354569773
  0
VERTEX
  8
0
 62
7
  6
CONTINUOUS
 10
53.1720032738
 20
92.6135616992
  0
VERTEX
  8
0
 62
7
  6
CONTINUOUS
 10
53.2276193562
 20
92.5982597652
  0
VERTEX
  8
0
 62
7
  6
CONTINUOUS
 10
53.275632237
 20
92.5875202607
  0
VERTEX
  8
0
 62
7
  6
CONTINUOUS
 10
53.3203090703
 20
92.5792884856
  0
SEQEND
  0
LINE
  8
0
 62
7
  6
CONTINUOUS
 10
52.714990313
 20
98.7514966526
 11
52.641614482
 21
98.6593294458
  0
LINE
  8
AXES
 62
7
  6
CONTINUOUS
 10
61.0302013423
 20
114.977852349
 11
61.0302013423
 21
99.827852349
  0
LINE
  8
AXES
 62
7
  6
CONTINUOUS
 10
61.0302013423
 20
91.827852349
 11
61.0302013423
 21
76.677852349
  0
LINE
  8
0
 62
7
  6
CONTINUOUS
 10
52.7911835124
 20
98.827738973
 11
52.7141303783
 21
98.7505368884
  0
LINE
  8
0
 62
7
  6
CONTINUOUS
 10
67.1394395825
 20
74.677852349
 11
67.1394395825
 21
74.377852349
  0
LINE
  8
0
 62
7
  6
CONTINUOUS
 10
67.2634435016
 20
74.677852349
 11
67.2634435016
 21
74.377852349
  0
LINE
  8
0
 62
7
  6
CONTINUOUS
 10
52.869206032
 20
98.8910579244
 11
52.7901436931
 21
98.8268035561
  0
LINE
  8
0
 62
7
  6
CONTINUOUS
 10
67.7594591689
 20
74.677852349
 11
67.7594591689
 21
74.377852349
  0
LINE
  8
0
 62
7
  6
CONTINUOUS
 10
67.8834631145
 20
74.677852349
 11
67.8834631145
 21
74.377852349
  0
LINE
  8
0
 62
7
  6
CONTINUOUS
 10
68.2276843749
 20
74.677852349
 11
68.2276843749
 21
74.377852349
  0
LINE
  8
0
 62
7
  6
CONTINUOUS
 10
68.3747379607
 20
74.677852349
 11
68.3747379607
 21
74.377852349
  0
LINE
  8
0
 62
7
  6
CONTINUOUS
 10
68.5480046558
 20
74.677852349
 11
68.5480046558
 21
74.377852349
  0
LINE
  8
0
 62
7
  6
CONTINUOUS
 10
68.7094058896
 20
74.677852349
 11
68.7094058896
 21
74.377852349
  0
LINE
  8
0
 62
7
  6
CONTINUOUS
 10
68.9826920545
 20
74.677852349
 11
68.9826920545
 21
74.377852349
  0
LINE
  8
0
 62
7
  6
CONTINUOUS
 10
69.1025044388
 20
74.677852349
 11
69.1025044388
 21
74.377852349
  0
LINE
  8
0
 62
7
  6
CONTINUOUS
 10
69.2739677406
 20
74.677852349
 11
69.2739677406
 21
74.377852349
  0
LINE
  8
0
 62
7
  6
CONTINUOUS
 10
69.3678633037
 20
74.677852349
 11
69.3678633037
 21
74.377852349
  0
LINE
  8
0
 62
7
  6
CONTINUOUS
 10
69.5292645375
 20
74.677852349
 11
69.5292645375
 21
74.377852349
  0
LINE
  8
0
 62
7
  6
CONTINUOUS
 10
52.9476213267
 20
98.9429660876
 11
52.8680085846
 21
98.8901805272
  0
LINE
  8
0
 62
7
  6
CONTINUOUS
 10
70.9815796211
 20
74.677852349
 11
70.9815796211
 21
74.377852349
  0
LINE
  8
0
 62
7
  6
CONTINUOUS
 10
71.2253370924
 20
74.677852349
 11
71.2253370924
 21
74.377852349
  0
LINE
  8
0
 62
7
  6
CONTINUOUS
 10
73.2140564846
 20
74.677852349
 11
73.2140564846
 21
74.377852349
  0
LINE
  8
0
 62
7
  6
CONTINUOUS
 10
53.024336877
 20
98.9843369317
 11
52.946313527
 21
98.9421845329
  0
LINE
  8
0
 62
7
  6
CONTINUOUS
 10
74.082139365
 20
74.677852349
 11
74.082139365
 21
74.377852349
  0
LINE
  8
0
 62
7
  6
CONTINUOUS
 10
74.5462688485
 20
74.677852349
 11
74.5462688485
 21
74.377852349
  0
LINE
  8
0
 62
7
  6
CONTINUOUS
 10
74.5659146786
 20
74.677852349
 11
74.5659146786
 21
74.377852349
  0
LINE
  8
0
 62
7
  6
CONTINUOUS
 10
74.6697233978
 20
74.677852349
 11
74.6697233978
 21
74.377852349
  0
LINE
  8
0
 62
7
  6
CONTINUOUS
 10
74.8156151748
 20
74.677852349
 11
74.8156151748
 21
74.377852349
  0
LINE
  8
0
 62
7
  6
CONTINUOUS
 10
75.0505815672
 20
74.677852349
 11
75.0505815672
 21
74.377852349
  0
LINE
  8
0
 62
7
  6
CONTINUOUS
 10
75.3276310176
 20
74.677852349
 11
75.3276310176
 21
74.377852349
  0
LINE
  8
0
 62
7
  6
CONTINUOUS
 10
75.6418496482
 20
74.677852349
 11
75.6418496482
 21
74.377852349
  0
LINE
  8
0
 62
7
  6
CONTINUOUS
 10
75.9511576279
 20
74.677852349
 11
75.9511576279
 21
74.377852349
  0
LINE
  8
0
 62
7
  6
CONTINUOUS
 10
76.1243972835
 20
74.677852349
 11
76.1243972835
 21
74.377852349
  0
LINE
  8
0
 62
7
  6
CONTINUOUS
 10
76.2162634145
 20
74.677852349
 11
76.2162634145
 21
74.377852349
  0
LINE
  8
0
 62
7
  6
CONTINUOUS
 10
76.4285598365
 20
74.677852349
 11
76.4285598365
 21
74.377852349
  0
LINE
  8
0
 62
7
  6
CONTINUOUS
 10
76.8864804377
 20
74.677852349
 11
76.8864804377
 21
74.377852349
  0
LINE
  8
0
 62
7
  6
CONTINUOUS
 10
53.0613931751
 20
99.0013815204
 11
53.0229820518
 21
98.9836790536
  0
LINE
  8
0
 62
7
  6
CONTINUOUS
 10
114.2579517126
 20
74.377852349
 11
111.6007190159
 21
74.377852349
  0
LINE
  8
0
 62
7
  6
CONTINUOUS
 10
111.2575721477
 20
74.377852349
 11
105.9287464203
 21
74.377852349
  0
LINE
  8
0
 62
7
  6
CONTINUOUS
 10
93.5223850254
 20
74.377852349
 11
91.1804764856
 21
74.377852349
  0
LINE
  8
0
 62
7
  6
CONTINUOUS
 10
90.6424280364
 20
74.377852349
 11
88.3064215779
 21
74.377852349
  0
LINE
  8
0
 62
7
  6
CONTINUOUS
 10
88.2124392278
 20
74.377852349
 11
84.904396928
 21
74.377852349
  0
LINE
  8
0
 62
7
  6
CONTINUOUS
 10
82.3308891651
 20
74.377852349
 11
67.1394395825
 21
74.377852349
  0
LINE
  8
AXES
 62
7
  6
CONTINUOUS
 10
129.0302013423
 20
74.677852349
 11
63.0302013423
 21
74.677852349
  0
LINE
  8
0
 62
7
  6
CONTINUOUS
 10
78.1584824958
 20
74.677852349
 11
78.1584824958
 21
74.377852349
  0
LINE
  8
0
 62
7
  6
CONTINUOUS
 10
78.4637628966
 20
74.677852349
 11
78.4637628966
 21
74.377852349
  0
LINE
  8
0
 62
7
  6
CONTINUOUS
 10
79.1419703266
 20
74.677852349
 11
79.1419703266
 21
74.377852349
  0
LINE
  8
0
 62
7
  6
CONTINUOUS
 10
53.13161529
 20
99.028926855
 11
53.0600417948
 21
99.0007914842
  0
LINE
  8
0
 62
7
  6
CONTINUOUS
 10
53.1944627936
 20
99.0487132857
 11
53.1303526493
 21
99.0284837533
  0
LINE
  8
0
 62
7
  6
CONTINUOUS
 10
80.4441194815
 20
74.677852349
 11
80.4441194815
 21
74.377852349
  0
LINE
  8
0
 62
7
  6
CONTINUOUS
 10
80.7470858692
 20
74.677852349
 11
80.7470858692
 21
74.377852349
  0
LINE
  8
0
 62
7
  6
CONTINUOUS
 10
81.0591633582
 20
74.677852349
 11
81.0591633582
 21
74.377852349
  0
LINE
  8
0
 62
7
  6
CONTINUOUS
 10
81.3486699463
 20
74.677852349
 11
81.3486699463
 21
74.377852349
  0
LINE
  8
0
 62
7
  6
CONTINUOUS
 10
81.4979800327
 20
74.677852349
 11
81.4979800327
 21
74.377852349
  0
LINE
  8
0
 62
7
  6
CONTINUOUS
 10
81.6247180652
 20
74.677852349
 11
81.6247180652
 21
74.377852349
  0
LINE
  8
0
 62
7
  6
CONTINUOUS
 10
81.6655148942
 20
74.677852349
 11
81.6655148942
 21
74.377852349
  0
LINE
  8
0
 62
7
  6
CONTINUOUS
 10
81.6928531654
 20
74.677852349
 11
81.6928531654
 21
74.377852349
  0
LINE
  8
0
 62
7
  6
CONTINUOUS
 10
81.9823597534
 20
74.677852349
 11
81.9823597534
 21
74.377852349
  0
LINE
  8
0
 62
7
  6
CONTINUOUS
 10
82.1316698843
 20
74.677852349
 11
82.1316698843
 21
74.377852349
  0
LINE
  8
0
 62
7
  6
CONTINUOUS
 10
82.2900923139
 20
74.677852349
 11
82.2900923139
 21
74.377852349
  0
LINE
  8
0
 62
7
  6
CONTINUOUS
 10
82.3308891651
 20
74.677852349
 11
82.3308891651
 21
74.377852349
  0
LINE
  8
0
 62
7
  6
CONTINUOUS
 10
138.8125336358
 20
92.5934678828
 11
138.8669848846
 21
92.6072851391
  0
LINE
  8
0
 62
7
  6
CONTINUOUS
 10
53.1718668334
 20
92.6136032809
 11
53.227487637
 21
92.598292246
  0
LINE
  8
0
 62
7
  6
CONTINUOUS
 10
84.904396928
 20
74.677852349
 11
84.904396928
 21
74.377852349
  0
LINE
  8
0
 62
7
  6
CONTINUOUS
 10
138.7651649641
 20
92.5837202901
 11
138.8134794446
 21
92.5936829322
  0
LINE
  8
0
 62
7
  6
CONTINUOUS
 10
138.7210794431
 20
92.5762046639
 11
138.7659552929
 21
92.5838675087
  0
LINE
  8
0
 62
7
  6
CONTINUOUS
 10
53.3202671164
 20
92.5792955376
 11
53.3634763517
 21
92.5725722422
  0
LINE
  8
0
 62
7
  6
CONTINUOUS
 10
87.2807884149
 20
74.677852349
 11
87.2807884149
 21
74.377852349
  0
LINE
  8
0
 62
7
  6
CONTINUOUS
 10
87.4195449024
 20
74.677852349
 11
87.4195449024
 21
74.377852349
  0
LINE
  8
0
 62
7
  6
CONTINUOUS
 10
88.0935050817
 20
74.677852349
 11
88.0935050817
 21
74.377852349
  0
LINE
  8
0
 62
7
  6
CONTINUOUS
 10
88.2124392278
 20
74.677852349
 11
88.2124392278
 21
74.377852349
  0
LINE
  8
0
 62
7
  6
CONTINUOUS
 10
88.3064215779
 20
74.677852349
 11
88.3064215779
 21
74.377852349
  0
LINE
  8
0
 62
7
  6
CONTINUOUS
 10
88.3263003855
 20
74.677852349
 11
88.3263003855
 21
74.377852349
  0
LINE
  8
0
 62
7
  6
CONTINUOUS
 10
88.3935004575
 20
74.677852349
 11
88.3935004575
 21
74.377852349
  0
LINE
  8
0
 62
7
  6
CONTINUOUS
 10
88.535458547
 20
74.677852349
 11
88.535458547
 21
74.377852349
  0
LINE
  8
0
 62
7
  6
CONTINUOUS
 10
88.79949588
 20
74.677852349
 11
88.79949588
 21
74.377852349
  0
LINE
  8
0
 62
7
  6
CONTINUOUS
 10
89.1520110234
 20
74.677852349
 11
89.1520110234
 21
74.377852349
  0
LINE
  8
0
 62
7
  6
CONTINUOUS
 10
89.5319657527
 20
74.677852349
 11
89.5319657527
 21
74.377852349
  0
LINE
  8
0
 62
7
  6
CONTINUOUS
 10
89.8783190488
 20
74.677852349
 11
89.8783190488
 21
74.377852349
  0
POLYLINE
  8
0
 62
7
  6
CONTINUOUS
 66
1
 70
0
  0
VERTEX
  8
0
 62
7
  6
CONTINUOUS
 10
138.6273249744
 20
92.5633598828
  0
VERTEX
  8
0
 62
7
  6
CONTINUOUS
 10
138.6766281864
 20
92.5697209211
  0
VERTEX
  8
0
 62
7
  6
CONTINUOUS
 10
138.7216194903
 20
92.5762893202
  0
SEQEND
  0
POLYLINE
  8
0
 62
7
  6
CONTINUOUS
 66
1
 70
0
  0
VERTEX
  8
0
 62
7
  6
CONTINUOUS
 10
138.5707276108
 20
92.5567347831
  0
VERTEX
  8
0
 62
7
  6
CONTINUOUS
 10
138.6275540191
 20
92.5633879577
  0
VERTEX
  8
0
 62
7
  6
CONTINUOUS
 10
138.6770108771
 20
92.5697732144
  0
SEQEND
  0
LINE
  8
0
 62
7
  6
CONTINUOUS
 10
138.5050862307
 20
92.549641822
 11
138.5707126917
 21
92.5567331077
  0
LINE
  8
0
 62
7
  6
CONTINUOUS
 10
137.8086435946
 20
92.479035286
 11
138.5050862307
 21
92.549641822
  0
LINE
  8
0
 62
7
  6
CONTINUOUS
 10
136.5146192154
 20
92.3481394657
 11
137.8086435946
 21
92.479035286
  0
POLYLINE
  8
0
 62
7
  6
CONTINUOUS
 66
1
 70
0
  0
VERTEX
  8
0
 62
7
  6
CONTINUOUS
 10
55.5457839068
 20
92.3481394237
  0
VERTEX
  8
0
 62
7
  6
CONTINUOUS
 10
55.6754064181
 20
92.3371645845
  0
VERTEX
  8
0
 62
7
  6
CONTINUOUS
 10
55.8194748338
 20
92.3299250339
  0
VERTEX
  8
0
 62
7
  6
CONTINUOUS
 10
55.9483324904
 20
92.3278523552
  0
SEQEND
  0
LINE
  8
0
 62
7
  6
CONTINUOUS
 10
53.5221132889
 20
92.5531643381
 11
55.5457834692
 21
92.3481394657
  0
POLYLINE
  8
0
 62
7
  6
CONTINUOUS
 66
1
 70
0
  0
VERTEX
  8
0
 62
7
  6
CONTINUOUS
 10
53.4096071004
 20
92.5663026062
  0
VERTEX
  8
0
 62
7
  6
CONTINUOUS
 10
53.4619267279
 20
92.5599109538
  0
VERTEX
  8
0
 62
7
  6
CONTINUOUS
 10
53.5224363045
 20
92.5531294644
  0
SEQEND
  0
POLYLINE
  8
0
 62
7
  6
CONTINUOUS
 66
1
 70
0
  0
VERTEX
  8
0
 62
7
  6
CONTINUOUS
 10
53.3634493392
 20
92.5725761493
  0
VERTEX
  8
0
 62
7
  6
CONTINUOUS
 10
53.4095138938
 20
92.5663145769
  0
VERTEX
  8
0
 62
7
  6
CONTINUOUS
 10
53.4617384882
 20
92.559932939
  0
VERTEX
  8
0
 62
7
  6
CONTINUOUS
 10
53.5221132889
 20
92.5531643381
  0
SEQEND
  0
LINE
  8
0
 62
7
  6
CONTINUOUS
 10
90.1025958956
 20
74.677852349
 11
90.1025958956
 21
74.377852349
  0
LINE
  8
0
 62
7
  6
CONTINUOUS
 10
90.2795543106
 20
74.677852349
 11
90.2795543106
 21
74.377852349
  0
LINE
  8
0
 62
7
  6
CONTINUOUS
 10
90.3817519524
 20
74.677852349
 11
90.3817519524
 21
74.377852349
  0
LINE
  8
0
 62
7
  6
CONTINUOUS
 10
90.5113919356
 20
74.677852349
 11
90.5113919356
 21
74.377852349
  0
LINE
  8
0
 62
7
  6
CONTINUOUS
 10
90.6348700716
 20
74.677852349
 11
90.6348700716
 21
74.377852349
  0
LINE
  8
0
 62
7
  6
CONTINUOUS
 10
90.6424280364
 20
74.677852349
 11
90.6424280364
 21
74.377852349
  0
LINE
  8
0
 62
7
  6
CONTINUOUS
 10
91.1804764856
 20
74.677852349
 11
91.1804764856
 21
74.377852349
  0
LINE
  8
0
 62
7
  6
CONTINUOUS
 10
91.1882256509
 20
74.677852349
 11
91.1882256509
 21
74.377852349
  0
LINE
  8
0
 62
7
  6
CONTINUOUS
 10
91.2735192599
 20
74.677852349
 11
91.2735192599
 21
74.377852349
  0
LINE
  8
0
 62
7
  6
CONTINUOUS
 10
91.4286073712
 20
74.677852349
 11
91.4286073712
 21
74.377852349
  0
LINE
  8
0
 62
7
  6
CONTINUOUS
 10
91.7155259395
 20
74.677852349
 11
91.7155259395
 21
74.377852349
  0
LINE
  8
0
 62
7
  6
CONTINUOUS
 10
92.0179558366
 20
74.677852349
 11
92.0179558366
 21
74.377852349
  0
LINE
  8
0
 62
7
  6
CONTINUOUS
 10
92.2661025819
 20
74.677852349
 11
92.2661025819
 21
74.377852349
  0
LINE
  8
0
 62
7
  6
CONTINUOUS
 10
92.5840438078
 20
74.677852349
 11
92.5840438078
 21
74.377852349
  0
LINE
  8
0
 62
7
  6
CONTINUOUS
 10
92.9174935227
 20
74.677852349
 11
92.9174935227
 21
74.377852349
  0
LINE
  8
0
 62
7
  6
CONTINUOUS
 10
93.1346269493
 20
74.677852349
 11
93.1346269493
 21
74.377852349
  0
LINE
  8
0
 62
7
  6
CONTINUOUS
 10
93.2199327587
 20
74.677852349
 11
93.2199327587
 21
74.377852349
  0
POLYLINE
  8
0
 62
7
  6
CONTINUOUS
 66
1
 70
0
  0
VERTEX
  8
0
 62
7
  6
CONTINUOUS
 10
136.1120707243
 20
92.3278523552
  0
VERTEX
  8
0
 62
7
  6
CONTINUOUS
 10
136.2422062458
 20
92.3299663995
  0
VERTEX
  8
0
 62
7
  6
CONTINUOUS
 10
136.386272709
 20
92.337252013
  0
VERTEX
  8
0
 62
7
  6
CONTINUOUS
 10
136.5146187561
 20
92.3481394215
  0
SEQEND
  0
LINE
  8
0
 62
7
  6
CONTINUOUS
 10
55.9482574299
 20
92.327852349
 11
136.1121452546
 21
92.327852349
  0
LINE
  8
0
 62
7
  6
CONTINUOUS
 10
96.0302013423
 20
91.327852349
 11
94.2981505347
 21
92.327852349
  0
LINE
  8
0
 62
7
  6
CONTINUOUS
 10
93.3207564177
 20
74.677852349
 11
93.3207564177
 21
74.377852349
  0
LINE
  8
0
 62
7
  6
CONTINUOUS
 10
93.4836066925
 20
74.677852349
 11
93.4836066925
 21
74.377852349
  0
LINE
  8
0
 62
7
  6
CONTINUOUS
 10
93.5223850254
 20
74.677852349
 11
93.5223850254
 21
74.377852349
  0
LINE
  8
AXES
 62
2
  6
CENTER
 10
96.0302013423
 20
65.4014585294
 11
96.0302013423
 21
118.6313574052
  0
LINE
  8
AXES
 62
7
  6
CONTINUOUS
 10
104.4706379701
 20
99.327852349
 11
87.5897647145
 21
99.327852349
  0
LINE
  8
AXES
 62
7
  6
CONTINUOUS
 10
64.3886940577
 20
99.327852349
 11
55.9482574299
 21
99.327852349
  0
LINE
  8
0
 62
7
  6
CONTINUOUS
 10
55.9482574299
 20
99.327852349
 11
136.1121452546
 21
99.327852349
  0
LINE
  8
0
 62
7
  6
CONTINUOUS
 10
96.0302013423
 20
91.327852349
 11
97.7622521499
 21
92.327852349
  0
POLYLINE
  8
0
 62
7
  6
CONTINUOUS
 66
1
 70
0
  0
VERTEX
  8
0
 62
7
  6
CONTINUOUS
 10
55.9483134194
 20
99.3278523464
  0
VERTEX
  8
0
 62
7
  6
CONTINUOUS
 10
55.8182001231
 20
99.3257384147
  0
VERTEX
  8
0
 62
7
  6
CONTINUOUS
 10
55.6741336549
 20
99.3184529413
  0
VERTEX
  8
0
 62
7
  6
CONTINUOUS
 10
55.5457839985
 20
99.3075652802
  0
SEQEND
  0
LINE
  8
0
 62
7
  6
CONTINUOUS
 10
105.9287464203
 20
74.677852349
 11
105.9287464203
 21
74.377852349
  0
POLYLINE
  8
0
 62
7
  6
CONTINUOUS
 66
1
 70
0
  0
VERTEX
  8
0
 62
7
  6
CONTINUOUS
 10
53.4330760445
 20
99.0923446112
  0
VERTEX
  8
0
 62
7
  6
CONTINUOUS
 10
53.3837725182
 20
99.0859835065
  0
VERTEX
  8
0
 62
7
  6
CONTINUOUS
 10
53.338770317
 20
99.0794133571
  0
SEQEND
  0
POLYLINE
  8
0
 62
7
  6
CONTINUOUS
 66
1
 70
0
  0
VERTEX
  8
0
 62
7
  6
CONTINUOUS
 10
53.5555314614
 20
99.1060849782
  0
VERTEX
  8
0
 62
7
  6
CONTINUOUS
 10
53.4896687766
 20
99.0989692079
  0
VERTEX
  8
0
 62
7
  6
CONTINUOUS
 10
53.4328399223
 20
99.0923156683
  0
VERTEX
  8
0
 62
7
  6
CONTINUOUS
 10
53.3833811385
 20
99.085930025
  0
SEQEND
  0
LINE
  8
0
 62
7
  6
CONTINUOUS
 10
55.545783469
 20
99.3075652323
 11
53.5553158701
 21
99.106062815
  0
POLYLINE
  8
0
 62
7
  6
CONTINUOUS
 66
1
 70
0
  0
VERTEX
  8
0
 62
7
  6
CONTINUOUS
 10
136.5146187102
 20
99.3075652777
  0
VERTEX
  8
0
 62
7
  6
CONTINUOUS
 10
136.3849925892
 20
99.3185403684
  0
VERTEX
  8
0
 62
7
  6
CONTINUOUS
 10
136.2409241699
 20
99.3257797789
  0
VERTEX
  8
0
 62
7
  6
CONTINUOUS
 10
136.1120887842
 20
99.3278523464
  0
SEQEND
  0
LINE
  8
0
 62
7
  6
CONTINUOUS
 10
137.1456452448
 20
99.2437702501
 11
136.5146192155
 21
99.3075652323
  0
POLYLINE
  8
0
 62
7
  6
CONTINUOUS
 66
1
 70
0
  0
VERTEX
  8
0
 62
7
  6
CONTINUOUS
 10
138.650808784
 20
99.0894003966
  0
VERTEX
  8
0
 62
7
  6
CONTINUOUS
 10
138.5984863488
 20
99.0957925306
  0
VERTEX
  8
0
 62
7
  6
CONTINUOUS
 10
138.5379726196
 20
99.1025745601
  0
VERTEX
  8
0
 62
7
  6
CONTINUOUS
 10
137.1456452448
 20
99.2437702501
  0
SEQEND
  0
POLYLINE
  8
0
 62
7
  6
CONTINUOUS
 66
1
 70
0
  0
VERTEX
  8
0
 62
7
  6
CONTINUOUS
 10
138.6508818918
 20
99.0893910073
  0
VERTEX
  8
0
 62
7
  6
CONTINUOUS
 10
138.5986587581
 20
99.0957723942
  0
VERTEX
  8
0
 62
7
  6
CONTINUOUS
 10
138.5382861876
 20
99.1025407062
  0
SEQEND
  0
LINE
  8
0
 62
7
  6
CONTINUOUS
 10
138.6969420285
 20
99.0831301856
 11
138.650808784
 21
99.0894003966
  0
LINE
  8
0
 62
7
  6
CONTINUOUS
 10
107.0634597035
 20
74.677852349
 11
107.0634597035
 21
74.377852349
  0
LINE
  8
0
 62
7
  6
CONTINUOUS
 10
108.4520224285
 20
74.677852349
 11
108.4520224285
 21
74.377852349
  0
LINE
  8
0
 62
7
  6
CONTINUOUS
 10
108.7171643794
 20
74.677852349
 11
108.7171643794
 21
74.377852349
  0
LINE
  8
0
 62
7
  6
CONTINUOUS
 10
108.8761621186
 20
74.677852349
 11
108.8761621186
 21
74.377852349
  0
LINE
  8
0
 62
7
  6
CONTINUOUS
 10
108.9531611275
 20
74.677852349
 11
108.9531611275
 21
74.377852349
  0
LINE
  8
0
 62
7
  6
CONTINUOUS
 10
53.2952344423
 20
99.0719837982
 11
53.2469029486
 21
99.0620171428
  0
LINE
  8
0
 62
7
  6
CONTINUOUS
 10
53.3393207452
 20
99.0794996433
 11
53.2944303762
 21
99.0718340145
  0
LINE
  8
0
 62
7
  6
CONTINUOUS
 10
110.8159628532
 20
74.677852349
 11
110.8159628532
 21
74.377852349
  0
LINE
  8
0
 62
7
  6
CONTINUOUS
 10
111.2575721477
 20
74.677852349
 11
111.2575721477
 21
74.377852349
  0
LINE
  8
0
 62
7
  6
CONTINUOUS
 10
111.6007190159
 20
74.677852349
 11
111.6007190159
 21
74.377852349
  0
LINE
  8
0
 62
7
  6
CONTINUOUS
 10
111.6734926853
 20
74.677852349
 11
111.6734926853
 21
74.377852349
  0
LINE
  8
0
 62
7
  6
CONTINUOUS
 10
111.8690249131
 20
74.677852349
 11
111.8690249131
 21
74.377852349
  0
LINE
  8
0
 62
7
  6
CONTINUOUS
 10
112.1165880606
 20
74.677852349
 11
112.1165880606
 21
74.377852349
  0
LINE
  8
0
 62
7
  6
CONTINUOUS
 10
112.4161821773
 20
74.677852349
 11
112.4161821773
 21
74.377852349
  0
LINE
  8
0
 62
7
  6
CONTINUOUS
 10
138.8659360087
 20
92.6069903235
 11
138.930027425
 21
92.6272129938
  0
LINE
  8
0
 62
7
  6
CONTINUOUS
 10
53.247865145
 20
99.0622359295
 11
53.1933963328
 21
99.0484135124
  0
LINE
  8
0
 62
7
  6
CONTINUOUS
 10
112.6970702709
 20
74.677852349
 11
112.6970702709
 21
74.377852349
  0
LINE
  8
0
 62
7
  6
CONTINUOUS
 10
112.9946230708
 20
74.677852349
 11
112.9946230708
 21
74.377852349
  0
LINE
  8
0
 62
7
  6
CONTINUOUS
 10
113.3608668817
 20
74.677852349
 11
113.3608668817
 21
74.377852349
  0
LINE
  8
0
 62
7
  6
CONTINUOUS
 10
113.6563831282
 20
74.677852349
 11
113.6563831282
 21
74.377852349
  0
LINE
  8
0
 62
7
  6
CONTINUOUS
 10
113.8644974781
 20
74.677852349
 11
113.8644974781
 21
74.377852349
  0
LINE
  8
0
 62
7
  6
CONTINUOUS
 10
114.0892813968
 20
74.677852349
 11
114.0892813968
 21
74.377852349
  0
LINE
  8
0
 62
7
  6
CONTINUOUS
 10
114.2433282241
 20
74.677852349
 11
114.2433282241
 21
74.377852349
  0
LINE
  8
0
 62
7
  6
CONTINUOUS
 10
114.2579517126
 20
74.677852349
 11
114.2579517126
 21
74.377852349
  0
LINE
  8
0
 62
7
  6
CONTINUOUS
 10
138.9287831061
 20
92.6267763411
 11
139.0003384274
 21
92.6549033885
  0
POLYLINE
  8
0
 62
7
  6
CONTINUOUS
 66
1
 70
0
  0
VERTEX
  8
0
 62
7
  6
CONTINUOUS
 10
139.0360616504
 20
92.6713657506
  0
VERTEX
  8
0
 62
7
  6
CONTINUOUS
 10
139.1127774756
 20
92.7127362963
  0
VERTEX
  8
0
 62
7
  6
CONTINUOUS
 10
139.1911931867
 20
92.764644241
  0
VERTEX
  8
0
 62
7
  6
CONTINUOUS
 10
139.2702436655
 20
92.8288873329
  0
SEQEND
  0
LINE
  8
0
 62
7
  6
CONTINUOUS
 10
138.9990052388
 20
92.6543213154
 11
139.0373987026
 21
92.6720149764
  0
LINE
  8
AXES
 62
7
  6
CONTINUOUS
 10
129.0302013423
 20
116.977852349
 11
63.0302013423
 21
116.977852349
  0
POLYLINE
  8
0
 62
7
  6
CONTINUOUS
 66
1
 70
0
  0
VERTEX
  8
0
 62
7
  6
CONTINUOUS
 10
139.0373987026
 20
92.6720149764
  0
VERTEX
  8
0
 62
7
  6
CONTINUOUS
 10
139.1140689085
 20
92.7135080416
  0
VERTEX
  8
0
 62
7
  6
CONTINUOUS
 10
139.1923761128
 20
92.7655109681
  0
SEQEND
  0
LINE
  8
0
 62
7
  6
CONTINUOUS
 10
139.2692162061
 20
92.8279630633
 11
139.3462597747
 21
92.9051538041
  0
LINE
  8
AXES
 62
7
  6
CONTINUOUS
 10
131.0302013423
 20
114.977852349
 11
131.0302013423
 21
99.827852349
  0
LINE
  8
AXES
 62
7
  6
CONTINUOUS
 10
131.0302013423
 20
91.827852349
 11
131.0302013423
 21
76.677852349
  0
LINE
  8
0
 62
7
  6
CONTINUOUS
 10
139.3454099417
 20
92.9042053383
 11
139.4187785866
 21
92.9963615972
  0
LINE
  8
0
 62
7
  6
CONTINUOUS
 10
139.4181248049
 20
92.9954342508
 11
139.4851841311
 21
93.104672189
  0
LINE
  8
0
 62
7
  6
CONTINUOUS
 10
139.484733042
 20
93.1038202598
 11
139.5416689177
 21
93.2322892105
  0
POLYLINE
  8
0
 62
7
  6
CONTINUOUS
 66
1
 70
0
  0
VERTEX
  8
0
 62
7
  6
CONTINUOUS
 10
139.5669806453
 20
98.3429397138
  0
VERTEX
  8
0
 62
7
  6
CONTINUOUS
 10
139.5198635564
 20
98.4785626249
  0
VERTEX
  8
0
 62
7
  6
CONTINUOUS
 10
139.460656301
 20
98.594726397
  0
SEQEND
  0
LINE
  8
0
 62
7
  6
CONTINUOUS
 10
139.6012680465
 20
98.0832660415
 11
139.5960058647
 21
98.1857421036
  0
LINE
  8
0
 62
7
  6
CONTINUOUS
 10
139.6012681436
 20
98.0832845976
 11
139.6012681436
 21
93.5724201035
  0
LINE
  8
0
 62
7
  6
CONTINUOUS
 10
139.6011067184
 20
93.5544731159
 11
139.6012680394
 21
93.5724386589
  0
LINE
  8
0
 62
7
  6
CONTINUOUS
 10
139.5827783197
 20
93.3809857935
 11
139.6011032615
 21
93.5542812777
  0
LINE
  8
0
 62
7
  6
CONTINUOUS
 10
139.5414102324
 20
93.2315744961
 11
139.5828756135
 21
93.3814855253
  0
POLYLINE
  8
0
 62
7
  6
CONTINUOUS
 66
1
 70
0
  0
VERTEX
  8
0
 62
7
  6
CONTINUOUS
 10
139.59600143
 20
98.1857850949
  0
VERTEX
  8
0
 62
7
  6
CONTINUOUS
 10
139.5669606247
 20
98.3430141724
  0
VERTEX
  8
0
 62
7
  6
CONTINUOUS
 10
139.5198222439
 20
98.4786586567
  0
VERTEX
  8
0
 62
7
  6
CONTINUOUS
 10
139.4605913035
 20
98.594835661
  0
VERTEX
  8
0
 62
7
  6
CONTINUOUS
 10
139.393527105
 20
98.6936305909
  0
VERTEX
  8
0
 62
7
  6
CONTINUOUS
 10
139.321723651
 20
98.7769954188
  0
VERTEX
  8
0
 62
7
  6
CONTINUOUS
 10
139.2472751762
 20
98.8468831088
  0
VERTEX
  8
0
 62
7
  6
CONTINUOUS
 10
139.1715058002
 20
98.9051021655
  0
VERTEX
  8
0
 62
7
  6
CONTINUOUS
 10
139.0959076639
 20
98.9528115563
  0
VERTEX
  8
0
 62
7
  6
CONTINUOUS
 10
139.0223726718
 20
98.9908469153
  0
VERTEX
  8
0
 62
7
  6
CONTINUOUS
 10
138.9526042134
 20
99.0202538405
  0
VERTEX
  8
0
 62
7
  6
CONTINUOUS
 10
138.8883839216
 20
99.0421477187
  0
VERTEX
  8
0
 62
7
  6
CONTINUOUS
 10
138.8327686868
 20
99.0574485417
  0
VERTEX
  8
0
 62
7
  6
CONTINUOUS
 10
138.7847567131
 20
99.0681872106
  0
VERTEX
  8
0
 62
7
  6
CONTINUOUS
 10
138.7400831465
 20
99.0764179716
  0
VERTEX
  8
0
 62
7
  6
CONTINUOUS
 10
138.6969452189
 20
99.083129724
  0
SEQEND
  0
ARC
  8
0
 62
7
  6
CONTINUOUS
 10
69.2210253598
 20
179.459512558
 40
8.5
 50
75.0004215603
 51
117.0
  0
ARC
  8
0
 62
7
  6
CONTINUOUS
 10
78.0722743423
 20
174.3492415754
 40
8.5
 50
3.0
 51
44.9995784397
  0
ARC
  8
0
 62
7
  6
CONTINUOUS
 10
51.2630983598
 20
210.5635545207
 40
8.5
 50
303.0
 51
344.9995784397
  0
ARC
  8
DEFAULT_3
 62
2
  6
PHANTOM
 10
85.3925142729
 20
193.5017579257
 40
3.2
 50
45.0
 51
86.4096221093
  0
ARC
  8
DEFAULT_3
 62
2
  6
PHANTOM
 10
85.7933009132
 20
199.8891963848
 40
3.2
 50
225.0
 51
266.4096221093
  0
ARC
  8
DEFAULT_3
 62
2
  6
PHANTOM
 10
80.2455722237
 20
205.4369250743
 40
3.2
 50
183.5903778907
 51
225.0
  0
ARC
  8
DEFAULT_3
 62
2
  6
PHANTOM
 10
73.8581337646
 20
205.036138434
 40
3.2
 50
3.5903778907
 51
45.0
  0
ARC
  8
DEFAULT_3
 62
2
  6
PHANTOM
 10
69.6154930775
 20
209.2787791211
 40
3.2
 50
45.0
 51
87.7455692247
  0
ARC
  8
DEFAULT_3
 62
2
  6
PHANTOM
 10
89.63515496
 20
189.2591172386
 40
3.2
 50
2.2544307753
 51
45.0
  0
ARC
  8
0
 62
7
  6
CONTINUOUS
 10
88.2302013423
 20
171.5976741174
 40
1.5
 50
183.0
 51
259.9644698472
  0
ARC
  8
0
 62
7
  6
CONTINUOUS
 10
53.959134541
 20
200.3907479599
 40
1.5
 50
123.0
 51
199.9644698472
  0
ARC
  8
0
 62
7
  6
CONTINUOUS
 10
61.759134541
 20
186.8807516608
 40
1.5
 50
220.0355301528
 51
297.0
  0
ARC
  8
0
 62
7
  6
CONTINUOUS
 10
71.1621148962
 20
186.7039705372
 40
1.0
 50
49.3567952655
 51
75.0004215603
  0
ARC
  8
0
 62
7
  6
CONTINUOUS
 10
83.3756142207
 20
179.6525034145
 40
1.0
 50
44.9995784397
 51
70.6432047345
  0
ARC
  8
0
 62
7
  6
CONTINUOUS
 10
58.5075277746
 20
208.6223583806
 40
1.0
 50
344.9995784397
 51
10.6432047345
  0
ARC
  8
0
 62
7
  6
CONTINUOUS
 10
69.2210253598
 20
251.8881384487
 40
8.5
 50
243.0
 51
284.9995784397
  0
ARC
  8
0
 62
7
  6
CONTINUOUS
 10
51.2630983598
 20
220.7840964861
 40
8.5
 50
15.0004215603
 51
57.0
  0
ARC
  8
0
 62
7
  6
CONTINUOUS
 10
78.0722743423
 20
256.9984094314
 40
8.5
 50
315.0004215603
 51
357.0
  0
ARC
  8
DEFAULT_3
 62
2
  6
PHANTOM
 10
69.8672504384
 20
215.6738255034
 40
3.2
 50
92.2544307753
 51
267.7455692247
  0
ARC
  8
DEFAULT_3
 62
2
  6
PHANTOM
 10
69.6154930775
 20
222.0688718856
 40
3.2
 50
272.2544307753
 51
315.0
  0
ARC
  8
DEFAULT_3
 62
2
  6
PHANTOM
 10
73.8581337646
 20
226.3115125727
 40
3.2
 50
315.0
 51
356.4096221093
  0
ARC
  8
DEFAULT_3
 62
2
  6
PHANTOM
 10
80.2455722237
 20
225.9107259325
 40
3.2
 50
135.0
 51
176.4096221093
  0
ARC
  8
DEFAULT_3
 62
2
  6
PHANTOM
 10
85.7933009132
 20
231.4584546219
 40
3.2
 50
93.5903778907
 51
135.0
  0
ARC
  8
DEFAULT_3
 62
2
  6
PHANTOM
 10
85.3925142729
 20
237.845893081
 40
3.2
 50
273.5903778907
 51
315.0
  0
ARC
  8
DEFAULT_3
 62
2
  6
PHANTOM
 10
89.63515496
 20
242.0885337682
 40
3.2
 50
315.0
 51
357.7455692247
  0
ARC
  8
0
 62
7
  6
CONTINUOUS
 10
61.759134541
 20
244.4668993459
 40
1.5
 50
63.0
 51
139.9644698472
  0
ARC
  8
0
 62
7
  6
CONTINUOUS
 10
53.959134541
 20
230.9569030468
 40
1.5
 50
160.0355301528
 51
237.0
  0
ARC
  8
0
 62
7
  6
CONTINUOUS
 10
88.2302013423
 20
259.7499768893
 40
1.5
 50
100.0355301528
 51
177.0
  0
ARC
  8
0
 62
7
  6
CONTINUOUS
 10
71.1621148962
 20
244.6436804695
 40
1.0
 50
284.9995784397
 51
310.6432047345
  0
ARC
  8
0
 62
7
  6
CONTINUOUS
 10
58.5075277746
 20
222.7252926261
 40
1.0
 50
349.3567952655
 51
15.0004215603
  0
ARC
  8
0
 62
7
  6
CONTINUOUS
 10
83.3756142207
 20
251.6951475923
 40
1.0
 50
289.3567952655
 51
315.0004215603
  0
ARC
  8
0
 62
7
  6
CONTINUOUS
 10
113.9881283423
 20
174.3492415754
 40
8.5
 50
135.0004215603
 51
177.0
  0
ARC
  8
0
 62
7
  6
CONTINUOUS
 10
140.7973043248
 20
210.5635545207
 40
8.5
 50
195.0004215603
 51
237.0
  0
ARC
  8
0
 62
7
  6
CONTINUOUS
 10
122.8393773248
 20
179.459512558
 40
8.5
 50
63.0
 51
104.9995784397
  0
ARC
  8
DEFAULT_3
 62
2
  6
PHANTOM
 10
122.4449096071
 20
209.2787791211
 40
3.2
 50
92.2544307753
 51
135.0
  0
ARC
  8
DEFAULT_3
 62
2
  6
PHANTOM
 10
118.20226892
 20
205.036138434
 40
3.2
 50
135.0
 51
176.4096221093
  0
ARC
  8
DEFAULT_3
 62
2
  6
PHANTOM
 10
111.8148304608
 20
205.4369250743
 40
3.2
 50
315.0
 51
356.4096221093
  0
ARC
  8
DEFAULT_3
 62
2
  6
PHANTOM
 10
106.2671017714
 20
199.8891963848
 40
3.2
 50
273.5903778907
 51
315.0
  0
ARC
  8
DEFAULT_3
 62
2
  6
PHANTOM
 10
106.6678884117
 20
193.5017579257
 40
3.2
 50
93.5903778907
 51
135.0
  0
ARC
  8
DEFAULT_3
 62
2
  6
PHANTOM
 10
102.4252477245
 20
189.2591172386
 40
3.2
 50
135.0
 51
177.7455692247
  0
ARC
  8
DEFAULT_3
 62
2
  6
PHANTOM
 10
96.0302013423
 20
189.5108745995
 40
3.2
 50
182.2544307753
 51
357.7455692247
  0
ARC
  8
0
 62
7
  6
CONTINUOUS
 10
103.8302013423
 20
171.5976741174
 40
1.5
 50
280.0355301528
 51
357.0
  0
ARC
  8
0
 62
7
  6
CONTINUOUS
 10
138.1012681436
 20
200.3907479599
 40
1.5
 50
340.0355301528
 51
57.0
  0
ARC
  8
0
 62
7
  6
CONTINUOUS
 10
130.3012681436
 20
186.8807516608
 40
1.5
 50
243.0
 51
319.9644698472
  0
ARC
  8
0
 62
7
  6
CONTINUOUS
 10
108.6847884639
 20
179.6525034145
 40
1.0
 50
109.3567952655
 51
135.0004215603
  0
ARC
  8
0
 62
7
  6
CONTINUOUS
 10
133.55287491
 20
208.6223583806
 40
1.0
 50
169.3567952655
 51
195.0004215603
  0
ARC
  8
0
 62
7
  6
CONTINUOUS
 10
120.8982877884
 20
186.7039705372
 40
1.0
 50
104.9995784397
 51
130.6432047345
  0
ARC
  8
0
 62
7
  6
CONTINUOUS
 10
96.0302013423
 20
215.6738255034
 40
46.261
 50
19.9644698472
 51
40.0355301528
  0
ARC
  8
0
 62
7
  6
CONTINUOUS
 10
96.0302013423
 20
215.6738255034
 40
46.261
 50
319.9644698472
 51
340.0355301528
  0
ARC
  8
0
 62
7
  6
CONTINUOUS
 10
96.0302013423
 20
215.6738255034
 40
46.261
 50
259.9644698472
 51
280.0355301528
  0
ARC
  8
0
 62
7
  6
CONTINUOUS
 10
96.0302013423
 20
215.6738255034
 40
46.261
 50
199.9644698472
 51
220.0355301528
  0
ARC
  8
0
 62
7
  6
CONTINUOUS
 10
96.0302013423
 20
215.6738255034
 40
46.261
 50
139.9644698472
 51
160.0355301528
  0
ARC
  8
0
 62
7
  6
CONTINUOUS
 10
96.0302013423
 20
215.6738255034
 40
46.261
 50
79.9644698472
 51
100.0355301528
  0
ARC
  8
0
 62
7
  6
CONTINUOUS
 10
96.0302013423
 20
215.6738255034
 40
37.1795
 50
229.3567952655
 51
250.6432047345
  0
ARC
  8
0
 62
7
  6
CONTINUOUS
 10
96.0302013423
 20
215.6738255034
 40
37.1795
 50
289.3567952655
 51
310.6432047345
  0
ARC
  8
0
 62
7
  6
CONTINUOUS
 10
96.0302013423
 20
215.6738255034
 40
37.1795
 50
349.3567952655
 51
10.6432047345
  0
ARC
  8
0
 62
7
  6
CONTINUOUS
 10
96.0302013423
 20
215.6738255034
 40
37.1795
 50
169.3567952655
 51
190.6432047345
  0
ARC
  8
0
 62
7
  6
CONTINUOUS
 10
96.0302013423
 20
215.6738255034
 40
37.1795
 50
109.3567952655
 51
130.6432047345
  0
ARC
  8
0
 62
7
  6
CONTINUOUS
 10
96.0302013423
 20
215.6738255034
 40
37.1795
 50
49.3567952655
 51
70.6432047345
  0
CIRCLE
  8
AXES
 62
7
  6
CONTINUOUS
 10
96.0302013423
 20
215.6738255034
 40
35.0
  0
CIRCLE
  8
DEFAULT_3
 62
2
  6
PHANTOM
 10
96.0302013423
 20
215.6738255034
 40
9.0
  0
ARC
  8
DEFAULT_3
 62
2
  6
PHANTOM
 10
106.2671017714
 20
231.4584546219
 40
3.2
 50
45.0
 51
86.4096221093
  0
ARC
  8
DEFAULT_3
 62
2
  6
PHANTOM
 10
111.8148304608
 20
225.9107259325
 40
3.2
 50
3.5903778907
 51
45.0
  0
ARC
  8
DEFAULT_3
 62
2
  6
PHANTOM
 10
118.20226892
 20
226.3115125727
 40
3.2
 50
183.5903778907
 51
225.0
  0
ARC
  8
0
 62
7
  6
CONTINUOUS
 10
113.9881283423
 20
256.9984094314
 40
8.5
 50
183.0
 51
224.9995784397
  0
ARC
  8
DEFAULT_3
 62
2
  6
PHANTOM
 10
96.0302013423
 20
241.8367764073
 40
3.2
 50
2.2544307753
 51
177.7455692247
  0
ARC
  8
DEFAULT_3
 62
2
  6
PHANTOM
 10
102.4252477245
 20
242.0885337682
 40
3.2
 50
182.2544307753
 51
225.0
  0
ARC
  8
DEFAULT_3
 62
2
  6
PHANTOM
 10
106.6678884117
 20
237.845893081
 40
3.2
 50
225.0
 51
266.4096221093
  0
CIRCLE
  8
0
 62
7
  6
CONTINUOUS
 10
96.0302013423
 20
253.6738255034
 40
1.7320508076
  0
ARC
  8
0
 62
7
  6
CONTINUOUS
 10
103.8302013423
 20
259.7499768893
 40
1.5
 50
3.0
 51
79.9644698472
  0
ARC
  8
0
 62
7
  6
CONTINUOUS
 10
108.6847884639
 20
251.6951475923
 40
1.0
 50
224.9995784397
 51
250.6432047345
  0
ARC
  8
0
 62
7
  6
CONTINUOUS
 10
140.7973043248
 20
220.7840964861
 40
8.5
 50
123.0
 51
164.9995784397
  0
ARC
  8
DEFAULT_3
 62
2
  6
PHANTOM
 10
122.4449096071
 20
222.0688718856
 40
3.2
 50
225.0
 51
267.7455692247
  0
ARC
  8
DEFAULT_3
 62
2
  6
PHANTOM
 10
122.1931522462
 20
215.6738255034
 40
3.2
 50
272.2544307753
 51
87.7455692247
  0
ARC
  8
0
 62
7
  6
CONTINUOUS
 10
138.1012681436
 20
230.9569030468
 40
1.5
 50
303.0
 51
19.9644698472
  0
ARC
  8
0
 62
7
  6
CONTINUOUS
 10
133.55287491
 20
222.7252926261
 40
1.0
 50
164.9995784397
 51
190.6432047345
  0
ARC
  8
0
 62
7
  6
CONTINUOUS
 10
122.8393773248
 20
251.8881384487
 40
8.5
 50
255.0004215603
 51
297.0
  0
ARC
  8
0
 62
7
  6
CONTINUOUS
 10
130.3012681436
 20
244.4668993459
 40
1.5
 50
40.0355301528
 51
117.0
  0
ARC
  8
0
 62
7
  6
CONTINUOUS
 10
120.8982877884
 20
244.6436804695
 40
1.0
 50
229.3567952655
 51
255.0004215603
  0
ARC
  8
AXES
 62
7
  6
CONTINUOUS
 10
129.0302013423
 20
114.977852349
 40
2.0
 50
0.0
 51
90.0
  0
ARC
  8
AXES
 62
7
  6
CONTINUOUS
 10
63.0302013423
 20
114.977852349
 40
2.0
 50
90.0
 51
180.0
  0
ARC
  8
AXES
 62
7
  6
CONTINUOUS
 10
129.0302013423
 20
76.677852349
 40
2.0
 50
270.0
 51
360.0
  0
ARC
  8
AXES
 62
7
  6
CONTINUOUS
 10
63.0302013423
 20
76.677852349
 40
2.0
 50
180.0
 51
270.0
  0
ARC
  8
0
 62
7
  6
CONTINUOUS
 10
131.5302013423
 20
91.827852349
 40
0.5
 50
90.0
 51
180.0
  0
ARC
  8
0
 62
7
  6
CONTINUOUS
 10
60.5302013423
 20
91.827852349
 40
0.5
 50
0.0
 51
90.0
  0
ARC
  8
0
 62
7
  6
CONTINUOUS
 10
131.5302013423
 20
99.827852349
 40
0.5
 50
180.0
 51
270.0
  0
ARC
  8
0
 62
7
  6
CONTINUOUS
 10
60.5302013423
 20
99.827852349
 40
0.5
 50
270.0
 51
360.0
  0
ENDSEC
  0
EOF
