  0
SECTION
  2
HEADER
  9
$EXTMAX
 10
210.0
 20
297.0
 30
0.0
  9
$EXTMIN
 10
0.0
 20
0.0
 30
0.0
  9
$LIMMIN
 10
0.0
 20
0.0
  9
$LIMMAX
 10
210.0
 20
297.0
  9
$VIEWCTR
 10
105.0
 20
148.5
  9
$VIEWSIZE
 40
297.0
  9
$CLAYER
  8
0
  9
$LTSCALE
 40
19.36
  9
$CELTYPE
  6
BYLAYER
  9
$DIMSCALE
 40
1.0
  9
$DIMASZ
 40
3.5
  9
$DIMEXO
 40
2.2
  9
$DIMDLI
 40
13.376
  9
$DIMEXE
 40
6.336
  9
$DIMCEN
 40
3.168
  9
$DIMLFAC
 40
1.0
  9
$DIMBLK
  1
_FILLED
  9
$DIMTXT
 40
3.5
  9
$PDMODE
 70
3
  9
$PDSIZE
 40
0.3125
  9
$TILEMODE
 70
1
  0
ENDSEC
  0
SECTION
  2
TABLES
  0
TABLE
  2
LTYPE
 70
6
  0
LTYPE
  2
BYBLOCK
 70
0
  3

 72
65
 73
0
 40
0.0
  0
LTYPE
  2
BYLAYER
 70
0
  3

 72
65
 73
0
 40
0.0
  0
LTYPE
  2
CONTINUOUS
 70
64
  3
Solid line
 72
65
 73
0
 40
0.0
  0
LTYPE
  2
CENTER
 70
64
  3
____ _ ____ _ ____ _ ____ _ ____ _ ____ _ ____
 72
65
 73
4
 40
0.6
 49
0.375
 49
-0.075
 49
0.075
 49
-0.075
  0
LTYPE
  2
HIDDEN
 70
64
  3
- - - - - - - - - - - - - - - - - - - -
 72
65
 73
2
 40
0.2
 49
0.1
 49
-0.1
  0
LTYPE
  2
PHANTOM
 70
64
  3
_____ _ _ _____ _ _ _____ _ _ _____
 72
65
 73
6
 40
0.8
 49
0.45
 49
-0.05
 49
0.1
 49
-0.05
 49
0.1
 49
-0.05
  0
LTYPE
  2
DOT
 70
64
  3
. . . . . . . . . . . . . . . . . . . .
 72
65
 73
2
 40
0.2
 49
0.1
 49
-0.1
  0
LTYPE
  2
DASHED
 70
64
  3
- - - - - - - - - - - - - - - - - - - -
 72
65
 73
2
 40
0.2
 49
0.1
 49
-0.1
  0
ENDTAB
  0
TABLE
  2
LAYER
 70
36
  0
LAYER
  2
0
 70
0
 62
7
  6
CONTINUOUS
  0
LAYER
  2
DEFAULT_1
 70
0
 62
7
  6
CENTER
  0
LAYER
  2
DEFAULT_2
 70
0
 62
8
  6
HIDDEN
  0
LAYER
  2
DEFAULT_3
 70
0
 62
7
  6
PHANTOM
  0
LAYER
  2
1_AXIS
 70
0
 62
7
  6
CONTINUOUS
  0
LAYER
  2
1_CSYS
 70
0
 62
7
  6
CONTINUOUS
  0
LAYER
  2
1_DATUM_PLANE
 70
0
 62
7
  6
CONTINUOUS
  0
LAYER
  2
2_FEATURE
 70
0
 62
7
  6
CONTINUOUS
  0
LAYER
  2
6_DIM
 70
0
 62
7
  6
CONTINUOUS
  0
LAYER
  2
AXES
 70
0
 62
7
  6
CONTINUOUS
  0
LAYER
  2
CSYS
 70
0
 62
7
  6
CONTINUOUS
  0
LAYER
  2
PLANES
 70
0
 62
7
  6
CONTINUOUS
  0
LAYER
  2
QUILTS
 70
0
 62
7
  6
CONTINUOUS
  0
LAYER
  2
SQ
 70
0
 62
7
  6
CONTINUOUS
  0
ENDTAB
  0
TABLE
  2
STYLE
 70
1
  0
STYLE
  2
STANDARD
 70
0
 40
0.0
 41
0.8
 50
0.0
 71
0
 42
0.2
  3
txt
  4

  0
STYLE
  2
TEXTSTYLE_1
 70
0
 40
0.0
 41
0.8
 50
0.0
 71
0
 42
0.2
  3
gdt
  4

  0
STYLE
  2
TEXTSTYLE_2
 70
0
 40
0.0
 41
0.6
 50
0.0
 71
0
 42
0.2
  3
txt
  4

  0
STYLE
  2
TEXTSTYLE_3
 70
0
 40
0.0
 41
1.0
 50
0.0
 71
0
 42
0.2
  3
ftb_____.ttf
  4

  0
STYLE
  2
TEXTSTYLE_4
 70
0
 40
0.0
 41
1.0
 50
0.0
 71
0
 42
0.2
  3
fti_____.ttf
  4

  0
STYLE
  2
TEXTSTYLE_5
 70
0
 40
0.0
 41
1.0
 50
0.0
 71
0
 42
0.2
  3
frutiger light.ttf
  4

  0
STYLE
  2
TEXTSTYLE_6
 70
0
 40
0.0
 41
0.7
 50
0.0
 71
0
 42
0.2
  3
txt
  4

  0
STYLE
  2
TEXTSTYLE_7
 70
0
 40
0.0
 41
0.8
 50
0.0
 71
0
 42
0.2
  3
txt
  4

  0
ENDTAB
  0
ENDSEC
  0
SECTION
  2
BLOCKS
  0
BLOCK
  8
0
 62
2
  6
CONTINUOUS
  2
SYMBOL_8_BL1
 70
64
 10
173.5956734183
 20
35.5937998301
  0
TEXT
  8
0
 62
7
  6
CONTINUOUS
 10
164.6539584268
 20
30.6865562072
  7
TEXTSTYLE_4
 40
1.0655737705
  1
The brand for plastic modular belts and chains
 41
1.0
 72
0
  0
LINE
  8
0
 62
7
  6
CONTINUOUS
 10
149.5737418074
 20
36.1675703219
 11
149.5737418074
 21
34.0364227809
  0
LINE
  8
0
 62
7
  6
CONTINUOUS
 10
149.8628043005
 20
31.0454914852
 11
149.8628043005
 21
31.1422825445
  0
LINE
  8
0
 62
7
  6
CONTINUOUS
 10
149.5737418074
 20
31.1100188581
 11
149.6315543091
 21
30.9164367395
  0
LINE
  8
0
 62
7
  6
CONTINUOUS
 10
150.9671844304
 20
33.9544555678
 11
150.9671844304
 21
36.1675703219
  0
LINE
  8
0
 62
7
  6
CONTINUOUS
 10
151.8862417523
 20
32.1101932727
 11
151.8862417523
 21
30.5937998301
  0
LINE
  8
0
 62
7
  6
CONTINUOUS
 10
152.1753043074
 20
30.5937998301
 11
152.1753043074
 21
31.3358647082
  0
LINE
  8
0
 62
7
  6
CONTINUOUS
 10
152.1753043074
 20
31.4649194539
 11
152.1753043074
 21
32.1101932727
  0
LINE
  8
0
 62
7
  6
CONTINUOUS
 10
149.6315543091
 20
31.3036010218
 11
149.5737418074
 21
31.1100188581
  0
LINE
  8
0
 62
7
  6
CONTINUOUS
 10
149.9784292936
 20
30.8841730531
 11
149.8628043005
 21
31.0454914852
  0
LINE
  8
0
 62
7
  6
CONTINUOUS
 10
151.0768668626
 20
31.400392081
 11
151.1346793074
 21
31.3036010218
  0
LINE
  8
0
 62
7
  6
CONTINUOUS
 10
151.4237418626
 20
31.3036010218
 11
151.3659292523
 21
31.4326557675
  0
LINE
  8
0
 62
7
  6
CONTINUOUS
 10
152.852430332
 20
36.1675703219
 11
152.852430332
 21
34.3642916334
  0
LINE
  8
0
 62
7
  6
CONTINUOUS
 10
152.852430332
 20
33.0528162235
 11
152.852430332
 21
32.3970785186
  0
LINE
  8
0
 62
7
  6
CONTINUOUS
 10
153.2159293074
 20
31.2390736489
 11
153.2159293074
 21
30.5937998301
  0
LINE
  8
0
 62
7
  6
CONTINUOUS
 10
153.5049916972
 20
30.5937998301
 11
153.5049916972
 21
31.2390736489
  0
LINE
  8
0
 62
7
  6
CONTINUOUS
 10
149.8628043005
 20
31.1422825445
 11
149.9206168074
 21
31.2713373354
  0
LINE
  8
0
 62
7
  6
CONTINUOUS
 10
149.6315543091
 20
30.9164367395
 11
149.7471793074
 21
30.7873819712
  0
LINE
  8
0
 62
7
  6
CONTINUOUS
 10
153.1581166972
 20
31.3681283946
 11
153.2159293074
 21
31.2390736489
  0
LINE
  8
0
 62
7
  6
CONTINUOUS
 10
153.9674919177
 20
30.8841730531
 11
154.0253041972
 21
30.7551182848
  0
LINE
  8
0
 62
7
  6
CONTINUOUS
 10
153.5049916972
 20
31.2390736489
 11
153.4471794177
 21
31.400392081
  0
LINE
  8
0
 62
7
  6
CONTINUOUS
 10
153.9674919177
 20
31.4326557675
 11
153.9674919177
 21
31.3681283946
  0
LINE
  8
0
 62
7
  6
CONTINUOUS
 10
153.9674919177
 20
30.9809641124
 11
153.9674919177
 21
30.8841730531
  0
LINE
  8
0
 62
7
  6
CONTINUOUS
 10
154.245872955
 20
32.3970785186
 11
154.245872955
 21
36.1675703219
  0
LINE
  8
0
 62
7
  6
CONTINUOUS
 10
154.2565543074
 20
30.8519093441
 11
154.2565543074
 21
30.9164367395
  0
LINE
  8
0
 62
7
  6
CONTINUOUS
 10
154.5737418074
 20
36.1675703219
 11
154.5737418074
 21
32.3970785186
  0
LINE
  8
0
 62
7
  6
CONTINUOUS
 10
151.3659292523
 20
30.7873819712
 11
151.4237418626
 21
30.9164367395
  0
LINE
  8
0
 62
7
  6
CONTINUOUS
 10
155.759679528
 20
30.6905909007
 11
155.7018665869
 21
30.8519093441
  0
LINE
  8
0
 62
7
  6
CONTINUOUS
 10
155.412804528
 20
31.3681283946
 11
155.412804528
 21
31.2713373354
  0
LINE
  8
0
 62
7
  6
CONTINUOUS
 10
155.412804528
 20
31.1422825445
 11
155.412804528
 21
30.9487004259
  0
LINE
  8
0
 62
7
  6
CONTINUOUS
 10
155.7018665869
 20
30.8519093441
 11
155.7018665869
 21
31.3681283946
  0
LINE
  8
0
 62
7
  6
CONTINUOUS
 10
155.9671844304
 20
32.3970785186
 11
155.9671844304
 21
34.2003572071
  0
LINE
  8
0
 62
7
  6
CONTINUOUS
 10
155.9671844304
 20
35.511832617
 11
155.9671844304
 21
36.1675703219
  0
LINE
  8
0
 62
7
  6
CONTINUOUS
 10
156.279992028
 20
32.1101932727
 11
156.279992028
 21
31.9488748406
  0
LINE
  8
0
 62
7
  6
CONTINUOUS
 10
156.279992028
 20
31.626237886
 11
156.279992028
 21
30.5937998301
  0
LINE
  8
0
 62
7
  6
CONTINUOUS
 10
156.5690540869
 20
30.5937998301
 11
156.5690540869
 21
31.626237886
  0
LINE
  8
0
 62
7
  6
CONTINUOUS
 10
156.5690540869
 20
31.9488748406
 11
156.5690540869
 21
32.1101932727
  0
LINE
  8
0
 62
7
  6
CONTINUOUS
 10
151.1346793074
 20
30.9164367395
 11
151.0768668626
 21
30.8196456577
  0
LINE
  8
0
 62
7
  6
CONTINUOUS
 10
153.4471794177
 20
31.400392081
 11
153.3893668074
 21
31.4649194539
  0
LINE
  8
0
 62
7
  6
CONTINUOUS
 10
154.3143669177
 20
30.7873819712
 11
154.2565543074
 21
30.8519093441
  0
LINE
  8
0
 62
7
  6
CONTINUOUS
 10
155.4706168074
 20
30.6583272086
 11
155.5284290869
 21
30.5937998301
  0
LINE
  8
0
 62
7
  6
CONTINUOUS
 10
155.412804528
 20
30.7551182848
 11
155.4706168074
 21
30.6583272086
  0
LINE
  8
0
 62
7
  6
CONTINUOUS
 10
155.8174918074
 20
30.5937998301
 11
155.759679528
 21
30.6905909007
  0
LINE
  8
0
 62
7
  6
CONTINUOUS
 10
155.7018665869
 20
31.3681283946
 11
155.6440543074
 21
31.4649194539
  0
LINE
  8
0
 62
7
  6
CONTINUOUS
 10
157.0315543074
 20
31.626237886
 11
157.0315543074
 21
30.5937998301
  0
LINE
  8
0
 62
7
  6
CONTINUOUS
 10
157.320617028
 20
30.5937998301
 11
157.320617028
 21
31.3358647082
  0
LINE
  8
0
 62
7
  6
CONTINUOUS
 10
157.320617028
 20
31.4649194539
 11
157.320617028
 21
31.626237886
  0
LINE
  8
0
 62
7
  6
CONTINUOUS
 10
157.852430332
 20
34.6101932727
 11
157.852430332
 21
32.3970785186
  0
LINE
  8
0
 62
7
  6
CONTINUOUS
 10
149.7471793074
 20
31.4326557675
 11
149.6315543091
 21
31.3036010218
  0
LINE
  8
0
 62
7
  6
CONTINUOUS
 10
149.9206168074
 20
31.2713373354
 11
149.9784292936
 21
31.3358647082
  0
LINE
  8
0
 62
7
  6
CONTINUOUS
 10
149.7471793074
 20
30.7873819712
 11
149.8628043005
 21
30.7228545871
  0
LINE
  8
0
 62
7
  6
CONTINUOUS
 10
150.1518667936
 20
30.7873819712
 11
149.9784292936
 21
30.8841730531
  0
LINE
  8
0
 62
7
  6
CONTINUOUS
 10
155.3549915869
 20
31.4326557675
 11
155.412804528
 21
31.3681283946
  0
LINE
  8
0
 62
7
  6
CONTINUOUS
 10
158.3034290869
 20
31.3681283946
 11
158.361242028
 21
31.2068099625
  0
LINE
  8
0
 62
7
  6
CONTINUOUS
 10
158.6503040869
 20
31.2068099625
 11
158.5924918074
 21
31.3681283946
  0
LINE
  8
0
 62
7
  6
CONTINUOUS
 10
158.361242028
 20
31.2068099625
 11
158.361242028
 21
30.5937998301
  0
LINE
  8
0
 62
7
  6
CONTINUOUS
 10
158.6503040869
 20
30.5937998301
 11
158.6503040869
 21
31.2068099625
  0
LINE
  8
0
 62
7
  6
CONTINUOUS
 10
159.1128043074
 20
31.4326557675
 11
159.1128043074
 21
31.3681283946
  0
LINE
  8
0
 62
7
  6
CONTINUOUS
 10
159.245872955
 20
32.3970785186
 11
159.245872955
 21
34.5282260596
  0
LINE
  8
0
 62
7
  6
CONTINUOUS
 10
159.5737418074
 20
36.1675703219
 11
159.5737418074
 21
32.3970785186
  0
LINE
  8
0
 62
7
  6
CONTINUOUS
 10
154.2565543074
 20
30.9164367395
 11
154.3143669177
 21
31.0132277988
  0
LINE
  8
0
 62
7
  6
CONTINUOUS
 10
149.8628043005
 20
30.7228545871
 11
150.0362418212
 21
30.6583272086
  0
LINE
  8
0
 62
7
  6
CONTINUOUS
 10
151.3659292523
 20
31.4326557675
 11
151.1924917523
 21
31.5294468267
  0
LINE
  8
0
 62
7
  6
CONTINUOUS
 10
154.0253041972
 20
30.7551182848
 11
154.1987416972
 21
30.6583272086
  0
LINE
  8
0
 62
7
  6
CONTINUOUS
 10
153.0424918074
 20
31.4326557675
 11
153.1581166972
 21
31.3681283946
  0
LINE
  8
0
 62
7
  6
CONTINUOUS
 10
153.3893668074
 20
31.4649194539
 11
153.2737419177
 21
31.5294468267
  0
LINE
  8
0
 62
7
  6
CONTINUOUS
 10
159.1128043074
 20
30.8519093441
 11
159.228429528
 21
30.7228545871
  0
LINE
  8
0
 62
7
  6
CONTINUOUS
 10
159.4596793074
 20
30.7873819712
 11
159.401867028
 21
30.8519093441
  0
LINE
  8
0
 62
7
  6
CONTINUOUS
 10
159.1128043074
 20
31.3681283946
 11
159.228429528
 21
31.2390736489
  0
LINE
  8
0
 62
7
  6
CONTINUOUS
 10
158.5924918074
 20
31.3681283946
 11
158.534679528
 21
31.4649194539
  0
LINE
  8
0
 62
7
  6
CONTINUOUS
 10
160.9628038663
 20
30.7873819712
 11
160.9628038663
 21
30.8519093441
  0
LINE
  8
0
 62
7
  6
CONTINUOUS
 10
160.9671844304
 20
32.3970785186
 11
160.9671844304
 21
36.1675703219
  0
LINE
  8
0
 62
7
  6
CONTINUOUS
 10
154.0253041972
 20
31.4971831403
 11
153.9674919177
 21
31.4326557675
  0
LINE
  8
0
 62
7
  6
CONTINUOUS
 10
150.9034292799
 20
31.4649194539
 11
151.0768668626
 21
31.400392081
  0
LINE
  8
0
 62
7
  6
CONTINUOUS
 10
155.6440543074
 20
31.4649194539
 11
155.5284290869
 21
31.5294468267
  0
LINE
  8
0
 62
7
  6
CONTINUOUS
 10
159.4596793074
 20
31.3036010218
 11
159.401867028
 21
31.3681283946
  0
LINE
  8
0
 62
7
  6
CONTINUOUS
 10
160.615929528
 20
30.9164367395
 11
160.6737418074
 21
30.8519093441
  0
LINE
  8
0
 62
7
  6
CONTINUOUS
 10
160.9628038663
 20
30.8519093441
 11
160.8471793074
 21
30.9809641124
  0
LINE
  8
0
 62
7
  6
CONTINUOUS
 10
160.615929528
 20
31.4326557675
 11
160.6737418074
 21
31.3681283946
  0
LINE
  8
0
 62
7
  6
CONTINUOUS
 10
160.9628038663
 20
31.3681283946
 11
160.8471793074
 21
31.4971831403
  0
LINE
  8
0
 62
7
  6
CONTINUOUS
 10
154.2565543074
 20
31.3681283946
 11
154.3143669177
 21
31.4326557675
  0
LINE
  8
0
 62
7
  6
CONTINUOUS
 10
154.0831168074
 20
31.1100188581
 11
153.9674919177
 21
30.9809641124
  0
LINE
  8
0
 62
7
  6
CONTINUOUS
 10
155.412804528
 20
30.9487004259
 11
155.3549915869
 21
30.8841730531
  0
LINE
  8
0
 62
7
  6
CONTINUOUS
 10
155.3549915869
 20
30.6905909007
 11
155.412804528
 21
30.7551182848
  0
LINE
  8
0
 62
7
  6
CONTINUOUS
 10
154.1987416972
 20
30.6583272086
 11
154.3143669177
 21
30.6260635193
  0
LINE
  8
0
 62
7
  6
CONTINUOUS
 10
151.1924917523
 20
31.5294468267
 11
150.9612418074
 21
31.5939741996
  0
LINE
  8
0
 62
7
  6
CONTINUOUS
 10
154.5456166972
 20
30.7228545871
 11
154.3143669177
 21
30.7873819712
  0
LINE
  8
0
 62
7
  6
CONTINUOUS
 10
153.2737419177
 20
31.5294468267
 11
153.1003044177
 21
31.5939741996
  0
LINE
  8
0
 62
7
  6
CONTINUOUS
 10
155.5284290869
 20
31.5294468267
 11
155.3549915869
 21
31.5939741996
  0
LINE
  8
0
 62
7
  6
CONTINUOUS
 10
158.187804528
 20
31.4326557675
 11
158.3034290869
 21
31.3681283946
  0
LINE
  8
0
 62
7
  6
CONTINUOUS
 10
158.534679528
 20
31.4649194539
 11
158.4190543074
 21
31.5294468267
  0
LINE
  8
0
 62
7
  6
CONTINUOUS
 10
150.0362418212
 20
30.6583272086
 11
150.2096793212
 21
30.6260635193
  0
LINE
  8
0
 62
7
  6
CONTINUOUS
 10
150.498741835
 20
30.7228545871
 11
150.1518667936
 21
30.7873819712
  0
LINE
  8
0
 62
7
  6
CONTINUOUS
 10
152.9268669177
 20
31.4649194539
 11
153.0424918074
 21
31.4326557675
  0
LINE
  8
0
 62
7
  6
CONTINUOUS
 10
155.239367028
 20
31.4649194539
 11
155.3549915869
 21
31.4326557675
  0
LINE
  8
0
 62
7
  6
CONTINUOUS
 10
159.575304528
 20
30.7551182848
 11
159.4596793074
 21
30.7873819712
  0
LINE
  8
0
 62
7
  6
CONTINUOUS
 10
158.0721793074
 20
31.4649194539
 11
158.187804528
 21
31.4326557675
  0
LINE
  8
0
 62
7
  6
CONTINUOUS
 10
159.228429528
 20
30.7228545871
 11
159.401867028
 21
30.6583272086
  0
LINE
  8
0
 62
7
  6
CONTINUOUS
 10
158.4190543074
 20
31.5294468267
 11
158.2456168074
 21
31.5939741996
  0
LINE
  8
0
 62
7
  6
CONTINUOUS
 10
159.6331168074
 20
31.2390736489
 11
159.4596793074
 21
31.3036010218
  0
LINE
  8
0
 62
7
  6
CONTINUOUS
 10
160.442492028
 20
30.9809641124
 11
160.615929528
 21
30.9164367395
  0
LINE
  8
0
 62
7
  6
CONTINUOUS
 10
160.8471793074
 20
31.4971831403
 11
160.6737418074
 21
31.5617105132
  0
LINE
  8
0
 62
7
  6
CONTINUOUS
 10
159.228429528
 20
31.2390736489
 11
159.4596793074
 21
31.1422825445
  0
LINE
  8
0
 62
7
  6
CONTINUOUS
 10
160.8471793074
 20
30.9809641124
 11
160.615929528
 21
31.0777551716
  0
LINE
  8
0
 62
7
  6
CONTINUOUS
 10
159.401867028
 20
31.3681283946
 11
159.4596793074
 21
31.4326557675
  0
LINE
  8
0
 62
7
  6
CONTINUOUS
 10
149.8628043005
 20
31.4971831403
 11
149.7471793074
 21
31.4326557675
  0
LINE
  8
0
 62
7
  6
CONTINUOUS
 10
149.9784292936
 20
31.3358647082
 11
150.1518667936
 21
31.4326557675
  0
LINE
  8
0
 62
7
  6
CONTINUOUS
 10
152.2909293626
 20
31.5294468267
 11
152.1753043074
 21
31.4649194539
  0
LINE
  8
0
 62
7
  6
CONTINUOUS
 10
152.1753043074
 20
31.3358647082
 11
152.2909293626
 21
31.400392081
  0
LINE
  8
0
 62
7
  6
CONTINUOUS
 10
151.1924917523
 20
30.6905909007
 11
151.3659292523
 21
30.7873819712
  0
LINE
  8
0
 62
7
  6
CONTINUOUS
 10
150.2096793212
 20
30.6260635193
 11
150.5565542799
 21
30.5937998301
  0
LINE
  8
0
 62
7
  6
CONTINUOUS
 10
154.3143669177
 20
30.6260635193
 11
154.5456166972
 21
30.5937998301
  0
LINE
  8
0
 62
7
  6
CONTINUOUS
 10
152.6956168074
 20
31.4971831403
 11
152.9268669177
 21
31.4649194539
  0
LINE
  8
0
 62
7
  6
CONTINUOUS
 10
155.0081169177
 20
31.4971831403
 11
155.239367028
 21
31.4649194539
  0
LINE
  8
0
 62
7
  6
CONTINUOUS
 10
159.4596793074
 20
31.1422825445
 11
160.442492028
 21
30.9809641124
  0
LINE
  8
0
 62
7
  6
CONTINUOUS
 10
160.615929528
 20
31.0777551716
 11
159.6331168074
 21
31.2390736489
  0
LINE
  8
0
 62
7
  6
CONTINUOUS
 10
153.1003044177
 20
31.5939741996
 11
152.9268669177
 21
31.626237886
  0
LINE
  8
0
 62
7
  6
CONTINUOUS
 10
159.401867028
 20
30.6583272086
 11
159.575304528
 21
30.6260635193
  0
LINE
  8
0
 62
7
  6
CONTINUOUS
 10
158.2456168074
 20
31.5939741996
 11
158.0721793074
 21
31.626237886
  0
LINE
  8
0
 62
7
  6
CONTINUOUS
 10
160.5003043074
 20
31.4649194539
 11
160.615929528
 21
31.4326557675
  0
LINE
  8
0
 62
7
  6
CONTINUOUS
 10
160.6737418074
 20
30.8519093441
 11
160.615929528
 21
30.7873819712
  0
LINE
  8
0
 62
7
  6
CONTINUOUS
 10
159.228429528
 20
31.5294468267
 11
159.1128043074
 21
31.4326557675
  0
LINE
  8
0
 62
7
  6
CONTINUOUS
 10
154.1409294177
 20
31.5617105132
 11
154.0253041972
 21
31.4971831403
  0
LINE
  8
0
 62
7
  6
CONTINUOUS
 10
154.1987416972
 20
31.1745462761
 11
154.0831168074
 21
31.1100188581
  0
LINE
  8
0
 62
7
  6
CONTINUOUS
 10
154.3143669177
 20
31.0132277988
 11
154.4299918074
 21
31.0777551716
  0
LINE
  8
0
 62
7
  6
CONTINUOUS
 10
151.8862417523
 20
30.5937998301
 11
152.1753043074
 21
30.5937998301
  0
LINE
  8
0
 62
7
  6
CONTINUOUS
 10
153.2159293074
 20
30.5937998301
 11
153.5049916972
 21
30.5937998301
  0
LINE
  8
0
 62
7
  6
CONTINUOUS
 10
154.5456166972
 20
30.5937998301
 11
154.8924916972
 21
30.5937998301
  0
LINE
  8
0
 62
7
  6
CONTINUOUS
 10
155.5284290869
 20
30.5937998301
 11
155.8174918074
 21
30.5937998301
  0
LINE
  8
0
 62
7
  6
CONTINUOUS
 10
156.279992028
 20
30.5937998301
 11
156.5690540869
 21
30.5937998301
  0
LINE
  8
0
 62
7
  6
CONTINUOUS
 10
157.0315543074
 20
30.5937998301
 11
157.320617028
 21
30.5937998301
  0
LINE
  8
0
 62
7
  6
CONTINUOUS
 10
158.361242028
 20
30.5937998301
 11
158.6503040869
 21
30.5937998301
  0
LINE
  8
0
 62
7
  6
CONTINUOUS
 10
159.922179528
 20
30.5937998301
 11
160.269054528
 21
30.5937998301
  0
LINE
  8
0
 62
7
  6
CONTINUOUS
 10
160.269054528
 20
30.7228545871
 11
159.922179528
 21
30.7228545871
  0
LINE
  8
0
 62
7
  6
CONTINUOUS
 10
154.8924916972
 20
30.7228545871
 11
154.5456166972
 21
30.7228545871
  0
LINE
  8
0
 62
7
  6
CONTINUOUS
 10
159.401867028
 20
30.8519093441
 11
159.1128043074
 21
30.8519093441
  0
LINE
  8
0
 62
7
  6
CONTINUOUS
 10
151.4237418626
 20
30.9164367395
 11
151.1346793074
 21
30.9164367395
  0
LINE
  8
0
 62
7
  6
CONTINUOUS
 10
150.498741835
 20
31.4971831403
 11
150.9034292799
 21
31.4649194539
  0
LINE
  8
0
 62
7
  6
CONTINUOUS
 10
150.9612418074
 20
31.5939741996
 11
150.5565542799
 21
31.626237886
  0
LINE
  8
0
 62
7
  6
CONTINUOUS
 10
159.575304528
 20
30.6260635193
 11
159.922179528
 21
30.5937998301
  0
LINE
  8
0
 62
7
  6
CONTINUOUS
 10
159.922179528
 20
30.7228545871
 11
159.575304528
 21
30.7551182848
  0
LINE
  8
0
 62
7
  6
CONTINUOUS
 10
155.3549915869
 20
31.5939741996
 11
155.0081169177
 21
31.626237886
  0
LINE
  8
0
 62
7
  6
CONTINUOUS
 10
160.1534293074
 20
31.4971831403
 11
160.5003043074
 21
31.4649194539
  0
LINE
  8
0
 62
7
  6
CONTINUOUS
 10
160.5003043074
 20
31.5939741996
 11
160.1534293074
 21
31.626237886
  0
LINE
  8
0
 62
7
  6
CONTINUOUS
 10
157.840929528
 20
31.4971831403
 11
158.0721793074
 21
31.4649194539
  0
LINE
  8
0
 62
7
  6
CONTINUOUS
 10
160.6737418074
 20
31.5617105132
 11
160.5003043074
 21
31.5939741996
  0
LINE
  8
0
 62
7
  6
CONTINUOUS
 10
160.8471793074
 20
30.6905909007
 11
160.9628038663
 21
30.7873819712
  0
LINE
  8
0
 62
7
  6
CONTINUOUS
 10
155.3549915869
 20
30.8841730531
 11
155.1815540869
 21
30.7873819712
  0
LINE
  8
0
 62
7
  6
CONTINUOUS
 10
157.4362415869
 20
31.5294468267
 11
157.320617028
 21
31.4649194539
  0
LINE
  8
0
 62
7
  6
CONTINUOUS
 10
157.320617028
 20
31.3358647082
 11
157.4362415869
 21
31.400392081
  0
LINE
  8
0
 62
7
  6
CONTINUOUS
 10
150.0362418212
 20
31.5617105132
 11
149.8628043005
 21
31.4971831403
  0
LINE
  8
0
 62
7
  6
CONTINUOUS
 10
152.4643666972
 20
31.5939741996
 11
152.2909293626
 21
31.5294468267
  0
LINE
  8
0
 62
7
  6
CONTINUOUS
 10
152.2909293626
 20
31.400392081
 11
152.4643666972
 21
31.4649194539
  0
LINE
  8
0
 62
7
  6
CONTINUOUS
 10
151.0768668626
 20
30.8196456577
 11
150.9034292799
 21
30.7551182848
  0
LINE
  8
0
 62
7
  6
CONTINUOUS
 10
160.5003043074
 20
30.7551182848
 11
160.269054528
 21
30.7228545871
  0
LINE
  8
0
 62
7
  6
CONTINUOUS
 10
154.8924916972
 20
30.5937998301
 11
155.1815540869
 21
30.6260635193
  0
LINE
  8
0
 62
7
  6
CONTINUOUS
 10
160.269054528
 20
30.5937998301
 11
160.615929528
 21
30.6260635193
  0
LINE
  8
0
 62
7
  6
CONTINUOUS
 10
150.5565542799
 20
30.5937998301
 11
150.9612418074
 21
30.6260635193
  0
LINE
  8
0
 62
7
  6
CONTINUOUS
 10
150.9034292799
 20
30.7551182848
 11
150.498741835
 21
30.7228545871
  0
LINE
  8
0
 62
7
  6
CONTINUOUS
 10
154.7768668074
 20
31.1422825445
 11
155.412804528
 21
31.1422825445
  0
LINE
  8
0
 62
7
  6
CONTINUOUS
 10
155.412804528
 20
31.2713373354
 11
154.7768668074
 21
31.2713373354
  0
LINE
  8
0
 62
7
  6
CONTINUOUS
 10
151.1346793074
 20
31.3036010218
 11
151.4237418626
 21
31.3036010218
  0
LINE
  8
0
 62
7
  6
CONTINUOUS
 10
153.9674919177
 20
31.3681283946
 11
154.2565543074
 21
31.3681283946
  0
LINE
  8
0
 62
7
  6
CONTINUOUS
 10
160.6737418074
 20
31.3681283946
 11
160.9628038663
 21
31.3681283946
  0
LINE
  8
0
 62
7
  6
CONTINUOUS
 10
154.6612419177
 20
31.4971831403
 11
155.0081169177
 21
31.4971831403
  0
LINE
  8
0
 62
7
  6
CONTINUOUS
 10
159.8065543074
 20
31.4971831403
 11
160.1534293074
 21
31.4971831403
  0
LINE
  8
0
 62
7
  6
CONTINUOUS
 10
160.1534293074
 20
31.626237886
 11
159.8065543074
 21
31.626237886
  0
LINE
  8
0
 62
7
  6
CONTINUOUS
 10
158.0721793074
 20
31.626237886
 11
157.840929528
 21
31.626237886
  0
LINE
  8
0
 62
7
  6
CONTINUOUS
 10
157.320617028
 20
31.626237886
 11
157.0315543074
 21
31.626237886
  0
LINE
  8
0
 62
7
  6
CONTINUOUS
 10
156.5690540869
 20
31.626237886
 11
156.279992028
 21
31.626237886
  0
LINE
  8
0
 62
7
  6
CONTINUOUS
 10
155.0081169177
 20
31.626237886
 11
154.6612419177
 21
31.626237886
  0
LINE
  8
0
 62
7
  6
CONTINUOUS
 10
152.9268669177
 20
31.626237886
 11
152.6956168074
 21
31.626237886
  0
LINE
  8
0
 62
7
  6
CONTINUOUS
 10
156.279992028
 20
31.9488748406
 11
156.5690540869
 21
31.9488748406
  0
LINE
  8
0
 62
7
  6
CONTINUOUS
 10
156.5690540869
 20
32.1101932727
 11
156.279992028
 21
32.1101932727
  0
LINE
  8
0
 62
7
  6
CONTINUOUS
 10
152.1753043074
 20
32.1101932727
 11
151.8862417523
 21
32.1101932727
  0
LINE
  8
0
 62
7
  6
CONTINUOUS
 10
151.2130860697
 20
32.3970785186
 11
151.6256574183
 21
32.3970785186
  0
LINE
  8
0
 62
7
  6
CONTINUOUS
 10
152.852430332
 20
32.3970785186
 11
154.245872955
 21
32.3970785186
  0
LINE
  8
0
 62
7
  6
CONTINUOUS
 10
154.5737418074
 20
32.3970785186
 11
155.9671844304
 21
32.3970785186
  0
LINE
  8
0
 62
7
  6
CONTINUOUS
 10
157.852430332
 20
32.3970785186
 11
159.245872955
 21
32.3970785186
  0
LINE
  8
0
 62
7
  6
CONTINUOUS
 10
159.5737418074
 20
32.3970785186
 11
160.9671844304
 21
32.3970785186
  0
LINE
  8
0
 62
7
  6
CONTINUOUS
 10
157.6096790869
 20
31.5939741996
 11
157.4362415869
 21
31.5294468267
  0
LINE
  8
0
 62
7
  6
CONTINUOUS
 10
155.1815540869
 20
30.6260635193
 11
155.3549915869
 21
30.6905909007
  0
LINE
  8
0
 62
7
  6
CONTINUOUS
 10
160.615929528
 20
30.6260635193
 11
160.8471793074
 21
30.6905909007
  0
LINE
  8
0
 62
7
  6
CONTINUOUS
 10
160.615929528
 20
30.7873819712
 11
160.5003043074
 21
30.7551182848
  0
LINE
  8
0
 62
7
  6
CONTINUOUS
 10
159.575304528
 20
31.4649194539
 11
159.8065543074
 21
31.4971831403
  0
LINE
  8
0
 62
7
  6
CONTINUOUS
 10
157.6096790869
 20
31.4649194539
 11
157.840929528
 21
31.4971831403
  0
LINE
  8
0
 62
7
  6
CONTINUOUS
 10
154.5456166972
 20
31.1100188581
 11
154.7768668074
 21
31.1422825445
  0
LINE
  8
0
 62
7
  6
CONTINUOUS
 10
157.840929528
 20
31.626237886
 11
157.6096790869
 21
31.5939741996
  0
LINE
  8
0
 62
7
  6
CONTINUOUS
 10
154.4299918074
 20
31.4649194539
 11
154.6612419177
 21
31.4971831403
  0
LINE
  8
0
 62
7
  6
CONTINUOUS
 10
159.8065543074
 20
31.626237886
 11
159.4596793074
 21
31.5939741996
  0
LINE
  8
0
 62
7
  6
CONTINUOUS
 10
154.7768668074
 20
31.2713373354
 11
154.4299918074
 21
31.2390736489
  0
LINE
  8
0
 62
7
  6
CONTINUOUS
 10
150.5565542799
 20
31.626237886
 11
150.2096793212
 21
31.5939741996
  0
LINE
  8
0
 62
7
  6
CONTINUOUS
 10
154.6612419177
 20
31.626237886
 11
154.2565543074
 21
31.5939741996
  0
LINE
  8
0
 62
7
  6
CONTINUOUS
 10
152.0327582009
 20
33.5446195022
 11
151.3770204959
 21
33.5446195022
  0
LINE
  8
0
 62
7
  6
CONTINUOUS
 10
157.4362415869
 20
31.400392081
 11
157.6096790869
 21
31.4649194539
  0
LINE
  8
0
 62
7
  6
CONTINUOUS
 10
159.4596793074
 20
31.4326557675
 11
159.575304528
 21
31.4649194539
  0
LINE
  8
0
 62
7
  6
CONTINUOUS
 10
159.4596793074
 20
31.5939741996
 11
159.228429528
 21
31.5294468267
  0
LINE
  8
0
 62
7
  6
CONTINUOUS
 10
155.1815540869
 20
30.7873819712
 11
154.8924916972
 21
30.7228545871
  0
LINE
  8
0
 62
7
  6
CONTINUOUS
 10
152.4643666972
 20
31.4649194539
 11
152.6956168074
 21
31.4971831403
  0
LINE
  8
0
 62
7
  6
CONTINUOUS
 10
152.6956168074
 20
31.626237886
 11
152.4643666972
 21
31.5939741996
  0
LINE
  8
0
 62
7
  6
CONTINUOUS
 10
150.2674918074
 20
31.4649194539
 11
150.498741835
 21
31.4971831403
  0
LINE
  8
0
 62
7
  6
CONTINUOUS
 10
156.7868565615
 20
35.0200293383
 11
157.4425942664
 21
35.0200293383
  0
LINE
  8
0
 62
7
  6
CONTINUOUS
 10
154.4299918074
 20
31.0777551716
 11
154.5456166972
 21
31.1100188581
  0
LINE
  8
0
 62
7
  6
CONTINUOUS
 10
154.4299918074
 20
31.2390736489
 11
154.1987416972
 21
31.1745462761
  0
LINE
  8
0
 62
7
  6
CONTINUOUS
 10
154.3143669177
 20
31.4326557675
 11
154.4299918074
 21
31.4649194539
  0
LINE
  8
0
 62
7
  6
CONTINUOUS
 10
150.9612418074
 20
30.6260635193
 11
151.1924917523
 21
30.6905909007
  0
LINE
  8
0
 62
7
  6
CONTINUOUS
 10
154.2565543074
 20
31.5939741996
 11
154.1409294177
 21
31.5617105132
  0
LINE
  8
0
 62
7
  6
CONTINUOUS
 10
150.2096793212
 20
31.5939741996
 11
150.0362418212
 21
31.5617105132
  0
LINE
  8
0
 62
7
  6
CONTINUOUS
 10
160.9671844304
 20
36.1675703219
 11
159.5737418074
 21
36.1675703219
  0
LINE
  8
0
 62
7
  6
CONTINUOUS
 10
157.6065286927
 20
36.1675703219
 11
157.1939573441
 21
36.1675703219
  0
LINE
  8
0
 62
7
  6
CONTINUOUS
 10
155.9671844304
 20
36.1675703219
 11
154.5737418074
 21
36.1675703219
  0
LINE
  8
0
 62
7
  6
CONTINUOUS
 10
154.245872955
 20
36.1675703219
 11
152.852430332
 21
36.1675703219
  0
LINE
  8
0
 62
7
  6
CONTINUOUS
 10
150.9671844304
 20
36.1675703219
 11
149.5737418074
 21
36.1675703219
  0
LINE
  8
0
 62
7
  6
CONTINUOUS
 10
150.1518667936
 20
31.4326557675
 11
150.2674918074
 21
31.4649194539
  0
CIRCLE
  8
0
 62
7
  6
CONTINUOUS
 10
160.2704631189
 20
38.5036358957
 40
2.0901639344
  0
ARC
  8
0
 62
7
  6
CONTINUOUS
 10
151.2130860697
 20
34.0364227809
 40
1.6393442623
 50
180.0
 51
270.0
  0
ARC
  8
0
 62
7
  6
CONTINUOUS
 10
157.6065286927
 20
34.5282260596
 40
1.6393442623
 50
0.0
 51
90.0
  0
ARC
  8
0
 62
7
  6
CONTINUOUS
 10
151.6256574183
 20
33.8724883547
 40
1.4754098361
 50
270.0
 51
326.2510114041
  0
ARC
  8
0
 62
7
  6
CONTINUOUS
 10
157.1939573441
 20
34.6921604858
 40
1.4754098361
 50
90.0
 51
146.2510114041
  0
ARC
  8
0
 62
7
  6
CONTINUOUS
 10
152.0327582009
 20
34.3642916334
 40
0.8196721311
 50
270.0
 51
360.0
  0
ARC
  8
0
 62
7
  6
CONTINUOUS
 10
156.7868565615
 20
34.2003572071
 40
0.8196721311
 50
90.0
 51
180.0
  0
ARC
  8
0
 62
7
  6
CONTINUOUS
 10
151.3770204959
 20
33.9544555678
 40
0.4098360656
 50
180.0
 51
270.0
  0
ARC
  8
0
 62
7
  6
CONTINUOUS
 10
157.4425942664
 20
34.6101932727
 40
0.4098360656
 50
0.0
 51
90.0
  0
SOLID
  8
0
 62
7
  6
CONTINUOUS
 10
156.279992028
 20
31.9488752009
 11
156.279992028
 21
32.1101936845
 12
156.5690540869
 22
31.9488752009
 13
156.5690540869
 23
32.1101936845
  0
SOLID
  8
0
 62
7
  6
CONTINUOUS
 10
150.5565542799
 20
31.6262382337
 11
150.9612418074
 21
31.5939740028
 12
150.2096793212
 22
31.5939740028
 13
150.2096793212
 23
31.5939740028
  0
SOLID
  8
0
 62
7
  6
CONTINUOUS
 10
150.0362418212
 20
31.5617111435
 11
150.2096793212
 21
31.5939740028
 12
150.9612418074
 22
31.5939740028
 13
150.9612418074
 23
31.5939740028
  0
SOLID
  8
0
 62
7
  6
CONTINUOUS
 10
150.9612418074
 20
31.5939740028
 11
151.1924917523
 21
31.5294468402
 12
150.0362418212
 22
31.5617111435
 13
150.0362418212
 23
31.5617111435
  0
SOLID
  8
0
 62
7
  6
CONTINUOUS
 10
149.8628043005
 20
31.49718259
 11
150.0362418212
 21
31.5617111435
 12
151.1924917523
 22
31.5294468402
 13
151.1924917523
 23
31.5294468402
  0
SOLID
  8
0
 62
7
  6
CONTINUOUS
 10
149.8628043005
 20
31.49718259
 11
151.1924917523
 21
31.5294468402
 12
150.498741835
 22
31.49718259
 13
150.498741835
 23
31.49718259
  0
SOLID
  8
0
 62
7
  6
CONTINUOUS
 10
150.498741835
 20
31.49718259
 11
151.1924917523
 21
31.5294468402
 12
150.9034292799
 22
31.4649197501
 13
150.9034292799
 23
31.4649197501
  0
SOLID
  8
0
 62
7
  6
CONTINUOUS
 10
151.1924917523
 20
31.5294468402
 11
151.3659292523
 21
31.4326554468
 12
150.9034292799
 22
31.4649197501
 13
150.9034292799
 23
31.4649197501
  0
SOLID
  8
0
 62
7
  6
CONTINUOUS
 10
151.0768668626
 20
31.4003926599
 11
150.9034292799
 21
31.4649197501
 12
151.3659292523
 22
31.4326554468
 13
151.3659292523
 23
31.4326554468
  0
SOLID
  8
0
 62
7
  6
CONTINUOUS
 10
151.0768668626
 20
31.4003926599
 11
151.3659292523
 21
31.4326554468
 12
151.1346793074
 22
31.3036013776
 13
151.1346793074
 23
31.3036013776
  0
SOLID
  8
0
 62
7
  6
CONTINUOUS
 10
151.3659292523
 20
31.4326554468
 11
151.4237418626
 21
31.3036013776
 12
151.1346793074
 22
31.3036013776
 13
151.1346793074
 23
31.3036013776
  0
SOLID
  8
0
 62
7
  6
CONTINUOUS
 10
152.4643666972
 20
31.5939739754
 11
152.6956168074
 21
31.6262382787
 12
152.9268669177
 22
31.6262382787
 13
152.9268669177
 23
31.6262382787
  0
SOLID
  8
0
 62
7
  6
CONTINUOUS
 10
152.9268669177
 20
31.6262382787
 11
153.1003044177
 21
31.5939739754
 12
152.4643666972
 22
31.5939739754
 13
152.4643666972
 23
31.5939739754
  0
SOLID
  8
0
 62
7
  6
CONTINUOUS
 10
152.2909293626
 20
31.5294468852
 11
152.4643666972
 21
31.5939739754
 12
153.1003044177
 22
31.5939739754
 13
153.1003044177
 23
31.5939739754
  0
SOLID
  8
0
 62
7
  6
CONTINUOUS
 10
153.1003044177
 20
31.5939739754
 11
153.2737419177
 21
31.5294468852
 12
152.2909293626
 22
31.5294468852
 13
152.2909293626
 23
31.5294468852
  0
SOLID
  8
0
 62
7
  6
CONTINUOUS
 10
153.2737419177
 20
31.5294468852
 11
152.6956168074
 21
31.4971825369
 12
152.2909293626
 22
31.5294468852
 13
152.2909293626
 23
31.5294468852
  0
SOLID
  8
0
 62
7
  6
CONTINUOUS
 10
152.1753043074
 20
31.4649197951
 11
152.2909293626
 21
31.5294468852
 12
152.6956168074
 22
31.4971825369
 13
152.6956168074
 23
31.4971825369
  0
SOLID
  8
0
 62
7
  6
CONTINUOUS
 10
152.6956168074
 20
31.4971825369
 11
152.4643666972
 21
31.4649197951
 12
152.1753043074
 22
31.4649197951
 13
152.1753043074
 23
31.4649197951
  0
SOLID
  8
0
 62
7
  6
CONTINUOUS
 10
152.6956168074
 20
31.4971825369
 11
153.2737419177
 21
31.5294468852
 12
152.9268669177
 22
31.4649197951
 13
152.9268669177
 23
31.4649197951
  0
SOLID
  8
0
 62
7
  6
CONTINUOUS
 10
153.2737419177
 20
31.5294468852
 11
153.3893668074
 21
31.4649197951
 12
152.9268669177
 22
31.4649197951
 13
152.9268669177
 23
31.4649197951
  0
SOLID
  8
0
 62
7
  6
CONTINUOUS
 10
153.0424918074
 20
31.4326554468
 11
152.9268669177
 21
31.4649197951
 12
153.3893668074
 22
31.4649197951
 13
153.3893668074
 23
31.4649197951
  0
SOLID
  8
0
 62
7
  6
CONTINUOUS
 10
153.3893668074
 20
31.4649197951
 11
153.4471794177
 21
31.4003927049
 12
153.0424918074
 22
31.4326554468
 13
153.0424918074
 23
31.4326554468
  0
SOLID
  8
0
 62
7
  6
CONTINUOUS
 10
153.1581166972
 20
31.3681283566
 11
153.0424918074
 21
31.4326554468
 12
153.4471794177
 22
31.4003927049
 13
153.4471794177
 23
31.4003927049
  0
SOLID
  8
0
 62
7
  6
CONTINUOUS
 10
153.1581166972
 20
31.3681283566
 11
153.4471794177
 21
31.4003927049
 12
153.2159293074
 22
31.2390742213
 13
153.2159293074
 23
31.2390742213
  0
SOLID
  8
0
 62
7
  6
CONTINUOUS
 10
153.4471794177
 20
31.4003927049
 11
153.5049916972
 21
31.2390742213
 12
153.2159293074
 22
31.2390742213
 13
153.2159293074
 23
31.2390742213
  0
SOLID
  8
0
 62
7
  6
CONTINUOUS
 10
152.4643666972
 20
31.4649197951
 11
152.2909293626
 21
31.4003927049
 12
152.1753043074
 22
31.4649197951
 13
152.1753043074
 23
31.4649197951
  0
SOLID
  8
0
 62
7
  6
CONTINUOUS
 10
152.2909293626
 20
31.4003927049
 11
152.1753043074
 21
31.3358640533
 12
152.1753043074
 22
31.4649197951
 13
152.1753043074
 23
31.4649197951
  0
SOLID
  8
0
 62
7
  6
CONTINUOUS
 10
152.1753043074
 20
31.3358640533
 11
151.8862417523
 21
30.5938002869
 12
152.1753043074
 22
31.4649197951
 13
152.1753043074
 23
31.4649197951
  0
SOLID
  8
0
 62
7
  6
CONTINUOUS
 10
152.1753043074
 20
31.4649197951
 11
151.8862417523
 21
30.5938002869
 12
152.1753043074
 22
32.1101937295
 13
152.1753043074
 23
32.1101937295
  0
SOLID
  8
0
 62
7
  6
CONTINUOUS
 10
151.8862417523
 20
30.5938002869
 11
151.8862417523
 21
32.1101937295
 12
152.1753043074
 22
32.1101937295
 13
152.1753043074
 23
32.1101937295
  0
SOLID
  8
0
 62
7
  6
CONTINUOUS
 10
152.1753043074
 20
31.3358640533
 11
152.1753043074
 21
30.5938002869
 12
151.8862417523
 22
30.5938002869
 13
151.8862417523
 23
30.5938002869
  0
SOLID
  8
0
 62
7
  6
CONTINUOUS
 10
153.2159293074
 20
30.5938002869
 11
153.2159293074
 21
31.2390742213
 12
153.5049916972
 22
31.2390742213
 13
153.5049916972
 23
31.2390742213
  0
SOLID
  8
0
 62
7
  6
CONTINUOUS
 10
153.5049916972
 20
31.2390742213
 11
153.5049916972
 21
30.5938002869
 12
153.2159293074
 22
30.5938002869
 13
153.2159293074
 23
30.5938002869
  0
SOLID
  8
0
 62
7
  6
CONTINUOUS
 10
154.2565543074
 20
31.5939738288
 11
154.6612419177
 21
31.6262385959
 12
155.0081169177
 22
31.6262385959
 13
155.0081169177
 23
31.6262385959
  0
SOLID
  8
0
 62
7
  6
CONTINUOUS
 10
155.0081169177
 20
31.6262385959
 11
155.3549915869
 21
31.5939738288
 12
154.2565543074
 22
31.5939738288
 13
154.2565543074
 23
31.5939738288
  0
SOLID
  8
0
 62
7
  6
CONTINUOUS
 10
154.1409294177
 20
31.5617111435
 11
154.2565543074
 21
31.5939738288
 12
155.3549915869
 22
31.5939738288
 13
155.3549915869
 23
31.5939738288
  0
SOLID
  8
0
 62
7
  6
CONTINUOUS
 10
155.3549915869
 20
31.5939738288
 11
155.5284290869
 21
31.5294468402
 12
154.1409294177
 22
31.5617111435
 13
154.1409294177
 23
31.5617111435
  0
SOLID
  8
0
 62
7
  6
CONTINUOUS
 10
154.0253041972
 20
31.4971826249
 11
154.1409294177
 21
31.5617111435
 12
155.5284290869
 22
31.5294468402
 13
155.5284290869
 23
31.5294468402
  0
SOLID
  8
0
 62
7
  6
CONTINUOUS
 10
154.0253041972
 20
31.4971826249
 11
155.5284290869
 21
31.5294468402
 12
154.6612419177
 22
31.4971826249
 13
154.6612419177
 23
31.4971826249
  0
SOLID
  8
0
 62
7
  6
CONTINUOUS
 10
154.6612419177
 20
31.4971826249
 11
155.5284290869
 21
31.5294468402
 12
155.0081169177
 22
31.4971826249
 13
155.0081169177
 23
31.4971826249
  0
SOLID
  8
0
 62
7
  6
CONTINUOUS
 10
155.0081169177
 20
31.4971826249
 11
155.5284290869
 21
31.5294468402
 12
155.239367028
 22
31.4649194065
 13
155.239367028
 23
31.4649194065
  0
SOLID
  8
0
 62
7
  6
CONTINUOUS
 10
155.5284290869
 20
31.5294468402
 11
155.6440543074
 21
31.4649194065
 12
155.239367028
 22
31.4649194065
 13
155.239367028
 23
31.4649194065
  0
SOLID
  8
0
 62
7
  6
CONTINUOUS
 10
153.9674919177
 20
31.4326554138
 11
154.0253041972
 21
31.4971826249
 12
154.6612419177
 22
31.4971826249
 13
154.6612419177
 23
31.4971826249
  0
SOLID
  8
0
 62
7
  6
CONTINUOUS
 10
155.3549915869
 20
31.4326554138
 11
155.239367028
 21
31.4649194065
 12
155.6440543074
 22
31.4649194065
 13
155.6440543074
 23
31.4649194065
  0
SOLID
  8
0
 62
7
  6
CONTINUOUS
 10
155.3549915869
 20
31.4326554138
 11
155.6440543074
 21
31.4649194065
 12
155.412804528
 22
31.3681282026
 13
155.412804528
 23
31.3681282026
  0
SOLID
  8
0
 62
7
  6
CONTINUOUS
 10
155.6440543074
 20
31.4649194065
 11
155.7018665869
 21
31.3681282026
 12
155.412804528
 22
31.3681282026
 13
155.412804528
 23
31.3681282026
  0
SOLID
  8
0
 62
7
  6
CONTINUOUS
 10
155.412804528
 20
31.2713369632
 11
155.412804528
 21
31.3681282026
 12
155.7018665869
 22
31.3681282026
 13
155.7018665869
 23
31.3681282026
  0
SOLID
  8
0
 62
7
  6
CONTINUOUS
 10
155.412804528
 20
31.2713369632
 11
155.7018665869
 21
31.3681282026
 12
155.412804528
 22
31.1422827828
 13
155.412804528
 23
31.1422827828
  0
SOLID
  8
0
 62
7
  6
CONTINUOUS
 10
155.412804528
 20
31.1422827828
 11
155.7018665869
 21
31.3681282026
 12
155.412804528
 22
30.9487004259
 13
155.412804528
 23
30.9487004259
  0
SOLID
  8
0
 62
7
  6
CONTINUOUS
 10
155.7018665869
 20
31.3681282026
 11
155.7018665869
 21
30.8519086025
 12
155.412804528
 22
30.9487004259
 13
155.412804528
 23
30.9487004259
  0
SOLID
  8
0
 62
7
  6
CONTINUOUS
 10
157.6096790869
 20
31.5939736268
 11
157.840929528
 21
31.6262383465
 12
158.0721793074
 22
31.6262383465
 13
158.0721793074
 23
31.6262383465
  0
SOLID
  8
0
 62
7
  6
CONTINUOUS
 10
158.0721793074
 20
31.6262383465
 11
158.2456168074
 21
31.5939736268
 12
157.6096790869
 22
31.5939736268
 13
157.6096790869
 23
31.5939736268
  0
SOLID
  8
0
 62
7
  6
CONTINUOUS
 10
157.4362415869
 20
31.5294472848
 11
157.6096790869
 21
31.5939736268
 12
158.2456168074
 22
31.5939736268
 13
158.2456168074
 23
31.5939736268
  0
SOLID
  8
0
 62
7
  6
CONTINUOUS
 10
158.2456168074
 20
31.5939736268
 11
158.4190543074
 21
31.5294472848
 12
157.4362415869
 22
31.5294472848
 13
157.4362415869
 23
31.5294472848
  0
SOLID
  8
0
 62
7
  6
CONTINUOUS
 10
158.4190543074
 20
31.5294472848
 11
157.840929528
 21
31.4971825369
 12
157.4362415869
 22
31.5294472848
 13
157.4362415869
 23
31.5294472848
  0
SOLID
  8
0
 62
7
  6
CONTINUOUS
 10
157.320617028
 20
31.4649199103
 11
157.4362415869
 21
31.5294472848
 12
157.840929528
 22
31.4971825369
 13
157.840929528
 23
31.4971825369
  0
SOLID
  8
0
 62
7
  6
CONTINUOUS
 10
157.840929528
 20
31.4971825369
 11
157.6096790869
 21
31.4649199103
 12
157.320617028
 22
31.4649199103
 13
157.320617028
 23
31.4649199103
  0
SOLID
  8
0
 62
7
  6
CONTINUOUS
 10
157.840929528
 20
31.4971825369
 11
158.4190543074
 21
31.5294472848
 12
158.0721793074
 22
31.4649199103
 13
158.0721793074
 23
31.4649199103
  0
SOLID
  8
0
 62
7
  6
CONTINUOUS
 10
158.4190543074
 20
31.5294472848
 11
158.534679528
 21
31.4649199103
 12
158.0721793074
 22
31.4649199103
 13
158.0721793074
 23
31.4649199103
  0
SOLID
  8
0
 62
7
  6
CONTINUOUS
 10
158.187804528
 20
31.4326554468
 11
158.0721793074
 21
31.4649199103
 12
158.534679528
 22
31.4649199103
 13
158.534679528
 23
31.4649199103
  0
SOLID
  8
0
 62
7
  6
CONTINUOUS
 10
158.187804528
 20
31.4326554468
 11
158.534679528
 21
31.4649199103
 12
158.3034290869
 22
31.3681288486
 13
158.3034290869
 23
31.3681288486
  0
SOLID
  8
0
 62
7
  6
CONTINUOUS
 10
158.534679528
 20
31.4649199103
 11
158.5924918074
 21
31.3681288486
 12
158.3034290869
 22
31.3681288486
 13
158.3034290869
 23
31.3681288486
  0
SOLID
  8
0
 62
7
  6
CONTINUOUS
 10
158.361242028
 20
31.2068093799
 11
158.3034290869
 21
31.3681288486
 12
158.5924918074
 22
31.3681288486
 13
158.5924918074
 23
31.3681288486
  0
SOLID
  8
0
 62
7
  6
CONTINUOUS
 10
158.5924918074
 20
31.3681288486
 11
158.6503040869
 21
31.2068093799
 12
158.361242028
 22
31.2068093799
 13
158.361242028
 23
31.2068093799
  0
SOLID
  8
0
 62
7
  6
CONTINUOUS
 10
157.6096790869
 20
31.4649199103
 11
157.4362415869
 21
31.4003926599
 12
157.320617028
 22
31.4649199103
 13
157.320617028
 23
31.4649199103
  0
SOLID
  8
0
 62
7
  6
CONTINUOUS
 10
157.4362415869
 20
31.4003926599
 11
157.320617028
 21
31.3358640533
 12
157.320617028
 22
31.4649199103
 13
157.320617028
 23
31.4649199103
  0
SOLID
  8
0
 62
7
  6
CONTINUOUS
 10
157.320617028
 20
31.3358640533
 11
157.0315543074
 21
30.5938003547
 12
157.320617028
 22
31.4649199103
 13
157.320617028
 23
31.4649199103
  0
SOLID
  8
0
 62
7
  6
CONTINUOUS
 10
157.320617028
 20
31.4649199103
 11
157.0315543074
 21
30.5938003547
 12
157.320617028
 22
31.6262383465
 13
157.320617028
 23
31.6262383465
  0
SOLID
  8
0
 62
7
  6
CONTINUOUS
 10
157.0315543074
 20
30.5938003547
 11
157.0315543074
 21
31.6262383465
 12
157.320617028
 22
31.6262383465
 13
157.320617028
 23
31.6262383465
  0
SOLID
  8
0
 62
7
  6
CONTINUOUS
 10
157.320617028
 20
31.3358640533
 11
157.320617028
 21
30.5938003547
 12
157.0315543074
 22
30.5938003547
 13
157.0315543074
 23
30.5938003547
  0
SOLID
  8
0
 62
7
  6
CONTINUOUS
 10
158.361242028
 20
30.5938003547
 11
158.361242028
 21
31.2068093799
 12
158.6503040869
 22
31.2068093799
 13
158.6503040869
 23
31.2068093799
  0
SOLID
  8
0
 62
7
  6
CONTINUOUS
 10
158.6503040869
 20
31.2068093799
 11
158.6503040869
 21
30.5938003547
 12
158.361242028
 22
30.5938003547
 13
158.361242028
 23
30.5938003547
  0
SOLID
  8
0
 62
7
  6
CONTINUOUS
 10
159.4596793074
 20
31.5939739474
 11
159.8065543074
 21
31.6262381969
 12
160.1534293074
 22
31.6262381969
 13
160.1534293074
 23
31.6262381969
  0
SOLID
  8
0
 62
7
  6
CONTINUOUS
 10
160.1534293074
 20
31.6262381969
 11
160.5003043074
 21
31.5939739474
 12
159.4596793074
 22
31.5939739474
 13
159.4596793074
 23
31.5939739474
  0
SOLID
  8
0
 62
7
  6
CONTINUOUS
 10
159.228429528
 20
31.5294468402
 11
159.4596793074
 21
31.5939739474
 12
160.5003043074
 22
31.5939739474
 13
160.5003043074
 23
31.5939739474
  0
SOLID
  8
0
 62
7
  6
CONTINUOUS
 10
159.228429528
 20
31.5294468402
 11
160.5003043074
 21
31.5939739304
 12
160.6737418074
 22
31.5617111435
 13
160.6737418074
 23
31.5617111435
  0
SOLID
  8
0
 62
7
  6
CONTINUOUS
 10
159.228429528
 20
31.5294468402
 11
160.6737418074
 21
31.5617111435
 12
159.8065543074
 22
31.4971825592
 13
159.8065543074
 23
31.4971825592
  0
SOLID
  8
0
 62
7
  6
CONTINUOUS
 10
159.8065543074
 20
31.4971825592
 11
160.6737418074
 21
31.5617111435
 12
160.1534293074
 22
31.4971825592
 13
160.1534293074
 23
31.4971825592
  0
SOLID
  8
0
 62
7
  6
CONTINUOUS
 10
160.6737418074
 20
31.5617111435
 11
160.8471793074
 21
31.4971825592
 12
160.1534293074
 22
31.4971825592
 13
160.1534293074
 23
31.4971825592
  0
SOLID
  8
0
 62
7
  6
CONTINUOUS
 10
160.5003043074
 20
31.4649197501
 11
160.1534293074
 21
31.4971825592
 12
160.8471793074
 22
31.4971825592
 13
160.8471793074
 23
31.4971825592
  0
SOLID
  8
0
 62
7
  6
CONTINUOUS
 10
159.1128043074
 20
31.4326555427
 11
159.228429528
 21
31.5294468402
 12
159.8065543074
 22
31.4971825592
 13
159.8065543074
 23
31.4971825592
  0
SOLID
  8
0
 62
7
  6
CONTINUOUS
 10
160.5003043074
 20
31.4649197501
 11
160.8471793074
 21
31.4971825592
 12
160.615929528
 22
31.4326555427
 13
160.615929528
 23
31.4326555427
  0
SOLID
  8
0
 62
7
  6
CONTINUOUS
 10
160.615929528
 20
31.4326555427
 11
160.8471793074
 21
31.4971825592
 12
160.6737418074
 22
31.3681283005
 13
160.6737418074
 23
31.3681283005
  0
SOLID
  8
0
 62
7
  6
CONTINUOUS
 10
160.8471793074
 20
31.4971825592
 11
160.9628038663
 21
31.3681283005
 12
160.6737418074
 22
31.3681283005
 13
160.6737418074
 23
31.3681283005
  0
SOLID
  8
0
 62
7
  6
CONTINUOUS
 10
150.2674918074
 20
31.4649197501
 11
149.7471793074
 21
31.4326554237
 12
150.498741835
 22
31.4971824493
 13
150.498741835
 23
31.4971824493
  0
SOLID
  8
0
 62
7
  6
CONTINUOUS
 10
149.7471793074
 20
31.4326554237
 11
149.8628043005
 21
31.4971824493
 12
150.498741835
 22
31.4971824493
 13
150.498741835
 23
31.4971824493
  0
SOLID
  8
0
 62
7
  6
CONTINUOUS
 10
150.2674918074
 20
31.4649197501
 11
150.1518667936
 21
31.4326554237
 12
149.7471793074
 22
31.4326554237
 13
149.7471793074
 23
31.4326554237
  0
SOLID
  8
0
 62
7
  6
CONTINUOUS
 10
149.6315543091
 20
31.3036012664
 11
149.7471793074
 21
31.4326554237
 12
150.1518667936
 22
31.4326554237
 13
150.1518667936
 23
31.4326554237
  0
SOLID
  8
0
 62
7
  6
CONTINUOUS
 10
153.9674919177
 20
31.4326554237
 11
154.6612419177
 21
31.4971825369
 12
154.4299918074
 22
31.4649197501
 13
154.4299918074
 23
31.4649197501
  0
SOLID
  8
0
 62
7
  6
CONTINUOUS
 10
154.4299918074
 20
31.4649197501
 11
154.3143669177
 21
31.4326554237
 12
153.9674919177
 22
31.4326554237
 13
153.9674919177
 23
31.4326554237
  0
SOLID
  8
0
 62
7
  6
CONTINUOUS
 10
153.9674919177
 20
31.3681283335
 11
153.9674919177
 21
31.4326554237
 12
154.3143669177
 22
31.4326554237
 13
154.3143669177
 23
31.4326554237
  0
SOLID
  8
0
 62
7
  6
CONTINUOUS
 10
154.3143669177
 20
31.4326554237
 11
154.2565543074
 21
31.3681283335
 12
153.9674919177
 22
31.3681283335
 13
153.9674919177
 23
31.3681283335
  0
SOLID
  8
0
 62
7
  6
CONTINUOUS
 10
159.1128043074
 20
31.4326555528
 11
159.8065543074
 21
31.4971825369
 12
159.575304528
 22
31.4649197501
 13
159.575304528
 23
31.4649197501
  0
SOLID
  8
0
 62
7
  6
CONTINUOUS
 10
159.575304528
 20
31.4649197501
 11
159.4596793074
 21
31.4326555528
 12
159.1128043074
 22
31.4326555528
 13
159.1128043074
 23
31.4326555528
  0
SOLID
  8
0
 62
7
  6
CONTINUOUS
 10
159.1128043074
 20
31.3681284626
 11
159.1128043074
 21
31.4326555528
 12
159.4596793074
 22
31.4326555528
 13
159.4596793074
 23
31.4326555528
  0
SOLID
  8
0
 62
7
  6
CONTINUOUS
 10
159.4596793074
 20
31.4326555528
 11
159.401867028
 21
31.3681284626
 12
159.1128043074
 22
31.3681284626
 13
159.1128043074
 23
31.3681284626
  0
SOLID
  8
0
 62
7
  6
CONTINUOUS
 10
159.228429528
 20
31.2390741763
 11
159.1128043074
 21
31.3681284626
 12
159.401867028
 22
31.3681284626
 13
159.401867028
 23
31.3681284626
  0
SOLID
  8
0
 62
7
  6
CONTINUOUS
 10
149.6315543091
 20
31.3036012664
 11
150.1518667936
 21
31.4326554468
 12
149.9784292936
 22
31.3358640533
 13
149.9784292936
 23
31.3358640533
  0
SOLID
  8
0
 62
7
  6
CONTINUOUS
 10
149.9784292936
 20
31.3358640533
 11
149.9206168074
 21
31.2713369632
 12
149.6315543091
 22
31.3036012664
 13
149.6315543091
 23
31.3036012664
  0
SOLID
  8
0
 62
7
  6
CONTINUOUS
 10
149.5737418074
 20
31.1100184796
 11
149.6315543091
 21
31.3036012664
 12
149.9206168074
 22
31.2713369632
 13
149.9206168074
 23
31.2713369632
  0
SOLID
  8
0
 62
7
  6
CONTINUOUS
 10
154.4299918074
 20
31.2390741763
 11
154.7768668074
 21
31.271336924
 12
155.412804528
 22
31.271336924
 13
155.412804528
 23
31.271336924
  0
SOLID
  8
0
 62
7
  6
CONTINUOUS
 10
154.4299918074
 20
31.2390741763
 11
155.412804528
 21
31.271336924
 12
154.1987416972
 22
31.1745462761
 13
154.1987416972
 23
31.1745462761
  0
SOLID
  8
0
 62
7
  6
CONTINUOUS
 10
154.1987416972
 20
31.1745462761
 11
155.412804528
 21
31.271336924
 12
154.7768668074
 22
31.1422827436
 13
154.7768668074
 23
31.1422827436
  0
SOLID
  8
0
 62
7
  6
CONTINUOUS
 10
155.412804528
 20
31.271336924
 11
155.412804528
 21
31.1422827436
 12
154.7768668074
 22
31.1422827436
 13
154.7768668074
 23
31.1422827436
  0
SOLID
  8
0
 62
7
  6
CONTINUOUS
 10
159.228429528
 20
31.2390745501
 11
159.401867028
 21
31.3681283566
 12
159.4596793074
 22
31.3036012664
 13
159.4596793074
 23
31.3036012664
  0
SOLID
  8
0
 62
7
  6
CONTINUOUS
 10
159.4596793074
 20
31.3036012664
 11
159.6331168074
 21
31.2390745501
 12
159.228429528
 22
31.2390745501
 13
159.228429528
 23
31.2390745501
  0
SOLID
  8
0
 62
7
  6
CONTINUOUS
 10
159.4596793074
 20
31.1422827828
 11
159.228429528
 21
31.2390745501
 12
159.6331168074
 22
31.2390745501
 13
159.6331168074
 23
31.2390745501
  0
SOLID
  8
0
 62
7
  6
CONTINUOUS
 10
159.6331168074
 20
31.2390745501
 11
160.615929528
 21
31.0777556927
 12
159.4596793074
 22
31.1422827828
 13
159.4596793074
 23
31.1422827828
  0
SOLID
  8
0
 62
7
  6
CONTINUOUS
 10
160.442492028
 20
30.9809646623
 11
159.4596793074
 21
31.1422827828
 12
160.615929528
 22
31.0777556927
 13
160.615929528
 23
31.0777556927
  0
SOLID
  8
0
 62
7
  6
CONTINUOUS
 10
160.615929528
 20
31.0777556927
 11
160.8471793074
 21
30.9809646623
 12
160.442492028
 22
30.9809646623
 13
160.442492028
 23
30.9809646623
  0
SOLID
  8
0
 62
7
  6
CONTINUOUS
 10
160.615929528
 20
30.9164372091
 11
160.442492028
 21
30.9809646623
 12
160.8471793074
 22
30.9809646623
 13
160.8471793074
 23
30.9809646623
  0
SOLID
  8
0
 62
7
  6
CONTINUOUS
 10
160.615929528
 20
30.9164372091
 11
160.8471793074
 21
30.9809646623
 12
160.6737418074
 22
30.8519089441
 13
160.6737418074
 23
30.8519089441
  0
SOLID
  8
0
 62
7
  6
CONTINUOUS
 10
160.8471793074
 20
30.9809646623
 11
160.9628038663
 21
30.8519089441
 12
160.6737418074
 22
30.8519089441
 13
160.6737418074
 23
30.8519089441
  0
SOLID
  8
0
 62
7
  6
CONTINUOUS
 10
160.615929528
 20
30.7873818593
 11
160.6737418074
 21
30.8519089441
 12
160.9628038663
 22
30.8519089441
 13
160.9628038663
 23
30.8519089441
  0
SOLID
  8
0
 62
7
  6
CONTINUOUS
 10
160.9628038663
 20
30.8519089441
 11
160.9628038663
 21
30.7873818593
 12
160.615929528
 22
30.7873818593
 13
160.615929528
 23
30.7873818593
  0
SOLID
  8
0
 62
7
  6
CONTINUOUS
 10
160.5003043074
 20
30.7551187255
 11
160.615929528
 21
30.7873818593
 12
160.9628038663
 22
30.7873818593
 13
160.9628038663
 23
30.7873818593
  0
SOLID
  8
0
 62
7
  6
CONTINUOUS
 10
160.5003043074
 20
30.7551187255
 11
160.9628038663
 21
30.7873818593
 12
160.269054528
 22
30.7228547745
 13
160.269054528
 23
30.7228547745
  0
SOLID
  8
0
 62
7
  6
CONTINUOUS
 10
160.9628038663
 20
30.7873818593
 11
160.8471793074
 21
30.6905916353
 12
160.269054528
 22
30.7228547745
 13
160.269054528
 23
30.7228547745
  0
SOLID
  8
0
 62
7
  6
CONTINUOUS
 10
160.8471793074
 20
30.6905916353
 11
159.401867028
 21
30.658327332
 12
160.269054528
 22
30.7228547745
 13
160.269054528
 23
30.7228547745
  0
SOLID
  8
0
 62
7
  6
CONTINUOUS
 10
160.269054528
 20
30.7228547745
 11
159.401867028
 21
30.658327332
 12
159.922179528
 22
30.7228547745
 13
159.922179528
 23
30.7228547745
  0
SOLID
  8
0
 62
7
  6
CONTINUOUS
 10
159.401867028
 20
30.658327332
 11
159.228429528
 21
30.7228547745
 12
159.922179528
 22
30.7228547745
 13
159.922179528
 23
30.7228547745
  0
SOLID
  8
0
 62
7
  6
CONTINUOUS
 10
159.401867028
 20
30.658327332
 11
160.8471793074
 21
30.6905916353
 12
159.575304528
 22
30.6260629858
 13
159.575304528
 23
30.6260629858
  0
SOLID
  8
0
 62
7
  6
CONTINUOUS
 10
160.8471793074
 20
30.6905916353
 11
160.615929528
 21
30.6260629858
 12
159.575304528
 22
30.6260629858
 13
159.575304528
 23
30.6260629858
  0
SOLID
  8
0
 62
7
  6
CONTINUOUS
 10
159.922179528
 20
30.5938006049
 11
159.575304528
 21
30.6260629858
 12
160.615929528
 22
30.6260629858
 13
160.615929528
 23
30.6260629858
  0
SOLID
  8
0
 62
7
  6
CONTINUOUS
 10
160.615929528
 20
30.6260629858
 11
160.269054528
 21
30.5938006049
 12
159.922179528
 22
30.5938006049
 13
159.922179528
 23
30.5938006049
  0
SOLID
  8
0
 62
7
  6
CONTINUOUS
 10
149.5737418074
 20
31.1100184796
 11
149.9206168074
 21
31.2713369632
 12
149.8628043005
 22
31.1422827828
 13
149.8628043005
 23
31.1422827828
  0
SOLID
  8
0
 62
7
  6
CONTINUOUS
 10
149.8628043005
 20
31.1422827828
 11
149.8628043005
 21
31.0454914852
 12
149.5737418074
 22
31.1100184796
 13
149.5737418074
 23
31.1100184796
  0
SOLID
  8
0
 62
7
  6
CONTINUOUS
 10
149.6315543091
 20
30.9164372091
 11
149.5737418074
 21
31.1100184796
 12
149.8628043005
 22
31.0454914852
 13
149.8628043005
 23
31.0454914852
  0
SOLID
  8
0
 62
7
  6
CONTINUOUS
 10
149.8628043005
 20
31.0454914852
 11
149.9784292936
 21
30.8841729058
 12
149.6315543091
 22
30.9164372091
 13
149.6315543091
 23
30.9164372091
  0
SOLID
  8
0
 62
7
  6
CONTINUOUS
 10
149.7471793074
 20
30.7873813202
 11
149.6315543091
 21
30.9164372091
 12
149.9784292936
 22
30.8841729058
 13
149.9784292936
 23
30.8841729058
  0
SOLID
  8
0
 62
7
  6
CONTINUOUS
 10
149.9784292936
 20
30.8841729058
 11
150.1518667936
 21
30.7873813202
 12
149.7471793074
 22
30.7873813202
 13
149.7471793074
 23
30.7873813202
  0
SOLID
  8
0
 62
7
  6
CONTINUOUS
 10
149.8628043005
 20
30.7228547004
 11
149.7471793074
 21
30.7873813202
 12
150.1518667936
 22
30.7873813202
 13
150.1518667936
 23
30.7873813202
  0
SOLID
  8
0
 62
7
  6
CONTINUOUS
 10
150.1518667936
 20
30.7873813202
 11
150.498741835
 21
30.7228547004
 12
149.8628043005
 22
30.7228547004
 13
149.8628043005
 23
30.7228547004
  0
SOLID
  8
0
 62
7
  6
CONTINUOUS
 10
150.0362418212
 20
30.658327332
 11
149.8628043005
 21
30.7228547004
 12
150.498741835
 22
30.7228547004
 13
150.498741835
 23
30.7228547004
  0
SOLID
  8
0
 62
7
  6
CONTINUOUS
 10
154.0831168074
 20
31.1100184386
 11
154.1987416972
 21
31.1745462761
 12
154.7768668074
 22
31.1422827828
 13
154.7768668074
 23
31.1422827828
  0
SOLID
  8
0
 62
7
  6
CONTINUOUS
 10
154.7768668074
 20
31.1422827828
 11
154.5456166972
 21
31.1100184386
 12
154.0831168074
 22
31.1100184386
 13
154.0831168074
 23
31.1100184386
  0
SOLID
  8
0
 62
7
  6
CONTINUOUS
 10
153.9674919177
 20
30.9809642992
 11
154.0831168074
 21
31.1100184386
 12
154.5456166972
 22
31.1100184386
 13
154.5456166972
 23
31.1100184386
  0
SOLID
  8
0
 62
7
  6
CONTINUOUS
 10
154.3143669177
 20
31.0132277988
 11
153.9674919177
 21
30.9809642992
 12
154.4299918074
 22
31.0777556927
 13
154.4299918074
 23
31.0777556927
  0
SOLID
  8
0
 62
7
  6
CONTINUOUS
 10
153.9674919177
 20
30.9809642992
 11
154.5456166972
 21
31.1100184796
 12
154.4299918074
 22
31.0777556927
 13
154.4299918074
 23
31.0777556927
  0
SOLID
  8
0
 62
7
  6
CONTINUOUS
 10
154.3143669177
 20
31.0132277988
 11
154.2565543074
 21
30.9164372091
 12
153.9674919177
 22
30.9809642992
 13
153.9674919177
 23
30.9809642992
  0
SOLID
  8
0
 62
7
  6
CONTINUOUS
 10
153.9674919177
 20
30.8841729058
 11
153.9674919177
 21
30.9809642992
 12
154.2565543074
 22
30.9164372091
 13
154.2565543074
 23
30.9164372091
  0
SOLID
  8
0
 62
7
  6
CONTINUOUS
 10
154.2565543074
 20
30.9164372091
 11
154.2565543074
 21
30.8519086025
 12
153.9674919177
 22
30.8841729058
 13
153.9674919177
 23
30.8841729058
  0
SOLID
  8
0
 62
7
  6
CONTINUOUS
 10
154.0253041972
 20
30.7551187255
 11
153.9674919177
 21
30.8841729058
 12
154.2565543074
 22
30.8519086025
 13
154.2565543074
 23
30.8519086025
  0
SOLID
  8
0
 62
7
  6
CONTINUOUS
 10
155.412804528
 20
30.9487004259
 11
155.7018665869
 21
30.8519086025
 12
155.3549915869
 22
30.8841729058
 13
155.3549915869
 23
30.8841729058
  0
SOLID
  8
0
 62
7
  6
CONTINUOUS
 10
155.1815540869
 20
30.7873815123
 11
155.3549915869
 21
30.8841729058
 12
155.7018665869
 22
30.8519086025
 13
155.7018665869
 23
30.8519086025
  0
SOLID
  8
0
 62
7
  6
CONTINUOUS
 10
155.1815540869
 20
30.7873815123
 11
155.7018665869
 21
30.8519086025
 12
155.412804528
 22
30.7551187255
 13
155.412804528
 23
30.7551187255
  0
SOLID
  8
0
 62
7
  6
CONTINUOUS
 10
155.7018665869
 20
30.8519086025
 11
155.759679528
 21
30.6905916353
 12
155.412804528
 22
30.7551187255
 13
155.412804528
 23
30.7551187255
  0
SOLID
  8
0
 62
7
  6
CONTINUOUS
 10
155.4706168074
 20
30.658327332
 11
155.412804528
 21
30.7551187255
 12
155.759679528
 22
30.6905916353
 13
155.759679528
 23
30.6905916353
  0
SOLID
  8
0
 62
7
  6
CONTINUOUS
 10
155.4706168074
 20
30.658327332
 11
155.759679528
 21
30.6905916353
 12
155.5284290869
 22
30.5938002079
 13
155.5284290869
 23
30.5938002079
  0
SOLID
  8
0
 62
7
  6
CONTINUOUS
 10
155.759679528
 20
30.6905916353
 11
155.8174918074
 21
30.5938002079
 12
155.5284290869
 22
30.5938002079
 13
155.5284290869
 23
30.5938002079
  0
SOLID
  8
0
 62
7
  6
CONTINUOUS
 10
151.0768668626
 20
30.8196456577
 11
151.1346793074
 21
30.9164373395
 12
151.4237418626
 22
30.9164373395
 13
151.4237418626
 23
30.9164373395
  0
SOLID
  8
0
 62
7
  6
CONTINUOUS
 10
151.4237418626
 20
30.9164373395
 11
151.3659292523
 21
30.7873815123
 12
151.0768668626
 22
30.8196456577
 13
151.0768668626
 23
30.8196456577
  0
SOLID
  8
0
 62
7
  6
CONTINUOUS
 10
150.9034292799
 20
30.7551187255
 11
151.0768668626
 21
30.8196456577
 12
151.3659292523
 22
30.7873815123
 13
151.3659292523
 23
30.7873815123
  0
SOLID
  8
0
 62
7
  6
CONTINUOUS
 10
150.9034292799
 20
30.7551187255
 11
151.3659292523
 21
30.7873815123
 12
150.498741835
 22
30.7228544222
 13
150.498741835
 23
30.7228544222
  0
SOLID
  8
0
 62
7
  6
CONTINUOUS
 10
151.3659292523
 20
30.7873815123
 11
151.1924917523
 21
30.6905916353
 12
150.498741835
 22
30.7228544222
 13
150.498741835
 23
30.7228544222
  0
SOLID
  8
0
 62
7
  6
CONTINUOUS
 10
150.0362418212
 20
30.658327332
 11
150.498741835
 21
30.7228544222
 12
151.1924917523
 22
30.6905916353
 13
151.1924917523
 23
30.6905916353
  0
SOLID
  8
0
 62
7
  6
CONTINUOUS
 10
150.0362418212
 20
30.658327332
 11
151.1924917523
 21
30.6905916353
 12
150.2096793212
 22
30.6260631011
 13
150.2096793212
 23
30.6260631011
  0
SOLID
  8
0
 62
7
  6
CONTINUOUS
 10
151.1924917523
 20
30.6905916353
 11
150.9612418074
 21
30.6260631011
 12
150.2096793212
 22
30.6260631011
 13
150.2096793212
 23
30.6260631011
  0
SOLID
  8
0
 62
7
  6
CONTINUOUS
 10
150.5565542799
 20
30.5938002419
 11
150.2096793212
 21
30.6260631011
 12
150.9612418074
 22
30.6260631011
 13
150.9612418074
 23
30.6260631011
  0
SOLID
  8
0
 62
7
  6
CONTINUOUS
 10
154.0253041972
 20
30.7551187255
 11
154.2565543074
 21
30.8519086025
 12
154.3143669177
 22
30.7873815123
 13
154.3143669177
 23
30.7873815123
  0
SOLID
  8
0
 62
7
  6
CONTINUOUS
 10
154.3143669177
 20
30.7873815123
 11
154.5456166972
 21
30.7228544222
 12
154.0253041972
 22
30.7551187255
 13
154.0253041972
 23
30.7551187255
  0
SOLID
  8
0
 62
7
  6
CONTINUOUS
 10
154.1987416972
 20
30.658327332
 11
154.0253041972
 21
30.7551187255
 12
154.5456166972
 22
30.7228544222
 13
154.5456166972
 23
30.7228544222
  0
SOLID
  8
0
 62
7
  6
CONTINUOUS
 10
154.8924916972
 20
30.7228544637
 11
155.1815540869
 21
30.7873815123
 12
155.412804528
 22
30.7551187255
 13
155.412804528
 23
30.7551187255
  0
SOLID
  8
0
 62
7
  6
CONTINUOUS
 10
155.412804528
 20
30.7551187255
 11
155.3549915869
 21
30.6905916353
 12
154.8924916972
 22
30.7228544637
 13
154.8924916972
 23
30.7228544637
  0
SOLID
  8
0
 62
7
  6
CONTINUOUS
 10
155.3549915869
 20
30.6905916353
 11
154.1987416972
 21
30.658327332
 12
154.8924916972
 22
30.7228544637
 13
154.8924916972
 23
30.7228544637
  0
SOLID
  8
0
 62
7
  6
CONTINUOUS
 10
154.1987416972
 20
30.658327332
 11
154.5456166972
 21
30.7228544637
 12
154.8924916972
 22
30.7228544637
 13
154.8924916972
 23
30.7228544637
  0
SOLID
  8
0
 62
7
  6
CONTINUOUS
 10
154.1987416972
 20
30.658327332
 11
155.3549915869
 21
30.6905916353
 12
154.3143669177
 22
30.6260630541
 13
154.3143669177
 23
30.6260630541
  0
SOLID
  8
0
 62
7
  6
CONTINUOUS
 10
155.3549915869
 20
30.6905916353
 11
155.1815540869
 21
30.6260630541
 12
154.3143669177
 22
30.6260630541
 13
154.3143669177
 23
30.6260630541
  0
SOLID
  8
0
 62
7
  6
CONTINUOUS
 10
154.5456166972
 20
30.5938002188
 11
154.3143669177
 21
30.6260630541
 12
155.1815540869
 22
30.6260630541
 13
155.1815540869
 23
30.6260630541
  0
SOLID
  8
0
 62
7
  6
CONTINUOUS
 10
155.1815540869
 20
30.6260630541
 11
154.8924916972
 21
30.5938002188
 12
154.5456166972
 22
30.5938002188
 13
154.5456166972
 23
30.5938002188
  0
SOLID
  8
0
 62
7
  6
CONTINUOUS
 10
159.575304528
 20
30.7551187255
 11
159.228429528
 21
30.7228544637
 12
159.4596793074
 22
30.7873815123
 13
159.4596793074
 23
30.7873815123
  0
SOLID
  8
0
 62
7
  6
CONTINUOUS
 10
159.4596793074
 20
30.7873815123
 11
159.228429528
 21
30.7228544637
 12
159.401867028
 22
30.851908644
 13
159.401867028
 23
30.851908644
  0
SOLID
  8
0
 62
7
  6
CONTINUOUS
 10
159.228429528
 20
30.7228544637
 11
159.1128043074
 21
30.851908644
 12
159.401867028
 22
30.851908644
 13
159.401867028
 23
30.851908644
  0
SOLID
  8
0
 62
7
  6
CONTINUOUS
 10
159.575304528
 20
30.7551187255
 11
159.922179528
 21
30.7228544637
 12
159.228429528
 22
30.7228544637
 13
159.228429528
 23
30.7228544637
  0
SOLID
  8
0
 62
7
  6
CONTINUOUS
 10
156.279992028
 20
30.5938002419
 11
156.279992028
 21
31.6262382337
 12
156.5690540869
 22
30.5938002419
 13
156.5690540869
 23
31.6262382337
  0
ENDBLK
  8
0
  6
BYBLOCK
 62
0
  0
BLOCK
  8
0
 62
2
  6
CONTINUOUS
  2
SYMBOL_3_BL0
 70
64
 10
32.1213064866
 20
19.8534310916
  0
TEXT
  8
0
 62
7
  6
CONTINUOUS
 10
18.3860103289
 20
19.2268451992
  7
TEXTSTYLE_3
 40
2.7338706658
  1
Ammeraal Beltech
 41
1.0
 51
15.0
 72
0
  0
TEXT
  8
0
 62
7
  6
CONTINUOUS
 10
29.1868111546
 20
16.9533085264
  7
TEXTSTYLE_4
 40
1.0935482663
  1
Innovation & Service in Belting
 41
1.0
 72
0
  0
LINE
  8
0
 62
7
  6
CONTINUOUS
 10
12.3614696776
 20
19.9934385078
 11
13.1396216709
 21
23.6543558055
  0
LINE
  8
0
 62
7
  6
CONTINUOUS
 10
23.2347899607
 20
27.3177497171
 11
13.6274394139
 21
24.1961322958
  0
LINE
  8
0
 62
7
  6
CONTINUOUS
 10
12.5867530099
 20
19.3000877048
 11
20.093828271
 21
12.5406867788
  0
LINE
  8
0
 62
7
  6
CONTINUOUS
 10
12.8492874206
 20
20.5352149982
 11
23.6575567857
 21
24.0470345971
  0
LINE
  8
0
 62
7
  6
CONTINUOUS
 10
23.6533516486
 20
13.6972460334
 11
15.2078919798
 21
21.3015720751
  0
LINE
  8
0
 62
7
  6
CONTINUOUS
 10
24.1731743684
 20
26.4728246013
 11
23.1966148312
 21
21.8784731989
  0
LINE
  8
0
 62
7
  6
CONTINUOUS
 10
22.4968128835
 20
18.5861638851
 11
21.810364672
 21
15.3566789607
  0
LINE
  8
0
 62
7
  6
CONTINUOUS
 10
24.8542704669
 20
14.087448211
 11
25.8105020025
 21
18.5861638851
  0
LINE
  8
0
 62
7
  6
CONTINUOUS
 10
26.5103039502
 20
21.8784731989
 11
26.9545457526
 21
23.9684665583
  0
LINE
  8
0
 62
7
  6
CONTINUOUS
 10
20.8069293463
 20
12.3891124661
 11
24.3664527239
 21
13.5456717207
  0
LINE
  8
0
 62
7
  6
CONTINUOUS
 10
23.9478910361
 20
27.1661754044
 11
26.7292624203
 21
24.6618173613
  0
ARC
  8
0
 62
7
  6
CONTINUOUS
 10
13.8527227462
 20
23.5027814928
 40
0.7290321776
 50
108.0
 51
168.0
  0
ARC
  8
0
 62
7
  6
CONTINUOUS
 10
23.4600732931
 20
26.624398914
 40
0.7290321776
 50
348.0
 51
108.0
  0
ARC
  8
0
 62
7
  6
CONTINUOUS
 10
26.2414446773
 20
24.120040871
 40
0.7290321776
 50
348.0
 51
48.0
  0
ARC
  8
0
 62
7
  6
CONTINUOUS
 10
20.581646014
 20
13.0824632691
 40
0.7290321776
 50
228.0
 51
288.0
  0
ARC
  8
0
 62
7
  6
CONTINUOUS
 10
13.0745707529
 20
19.8418641951
 40
0.7290321776
 50
108.0
 51
228.0
  0
ARC
  8
0
 62
7
  6
CONTINUOUS
 10
24.1411693916
 20
14.2390225237
 40
0.7290321776
 50
228.0
 51
348.0
  0
ENDBLK
  8
0
  6
BYBLOCK
 62
0
  0
ENDSEC
  0
SECTION
  2
ENTITIES
  0
TEXT
  8
0
 62
5
  6
CONTINUOUS
 10
96.0
 20
25.636
  7
TEXTSTYLE_2
 40
2.8
  1
Scale :
 41
0.6
 51
0.000019
 72
0
  0
TEXT
  8
0
 62
5
  6
CONTINUOUS
 10
116.0
 20
25.636
  7
TEXTSTYLE_2
 40
2.8
  1
Belt type:
 41
0.6
 51
0.000019
 72
0
  0
INSERT
  8
0
 62
2
  6
CONTINUOUS
  2
SYMBOL_3_BL0
 10
32.1213064866
 20
19.8534310916
  0
INSERT
  8
0
 62
2
  6
CONTINUOUS
  2
SYMBOL_8_BL1
 10
173.5956734183
 20
35.5937998301
  0
LINE
  8
0
 62
2
  6
CONTINUOUS
 10
10.0
 20
30.0
 11
200.0
 21
30.0
  0
LINE
  8
0
 62
2
  6
CONTINUOUS
 10
10.0
 20
30.0
 11
10.0
 21
10.0
  0
LINE
  8
0
 62
2
  6
CONTINUOUS
 10
10.0
 20
10.0
 11
200.0
 21
10.0
  0
LINE
  8
0
 62
2
  6
CONTINUOUS
 10
95.0
 20
30.0
 11
95.0
 21
10.0
  0
LINE
  8
0
 62
2
  6
CONTINUOUS
 10
115.0
 20
30.0
 11
115.0
 21
10.0
  0
LINE
  8
0
 62
2
  6
CONTINUOUS
 10
200.0
 20
30.0
 11
200.0
 21
10.0
  0
TEXT
  8
0
 62
5
  6
CONTINUOUS
 10
13.0
 20
23.303
  7
TEXTSTYLE_5
 40
1.52
  1
                                                                     Ammeraal Beltech Modular A/S
 41
1.0
 72
0
  0
TEXT
  8
0
 62
5
  6
CONTINUOUS
 10
13.0
 20
20.595
  7
TEXTSTYLE_5
 40
1.5
  1
                                                                      Hjulmagervej 21,  7100 Vejle,  DK
 41
1.0
 72
0
  0
TEXT
  8
0
 62
5
  6
CONTINUOUS
 10
13.0
 20
17.881
  7
TEXTSTYLE_5
 40
1.495
  1
                                                                      tel: 
 41
1.0
 72
0
  0
TEXT
  8
0
 62
5
  6
CONTINUOUS
 10
57.9869465649
 20
17.881
  7
TEXTSTYLE_5
 40
1.51
  1
+45 75723100     fax: +45 75723348
 41
1.0
 72
0
  0
TEXT
  8
0
 62
5
  6
CONTINUOUS
 10
13.0
 20
15.177
  7
TEXTSTYLE_5
 40
1.5
  1
                                                                      admin@unichains.dk  www.unichains.com
 41
1.0
 72
0
  0
TEXT
  8
0
 62
5
  6
CONTINUOUS
 10
99.75
 20
13.75
  7
TEXTSTYLE_6
 40
5.0
  1
1:1
 41
0.7
 72
1
 11
105.0
 21
13.75
  0
TEXT
  8
0
 62
5
  6
CONTINUOUS
 10
118.0
 20
13.75
  7
TEXTSTYLE_7
 40
7.5
  1
Sprocket Z15
 41
0.6361111111
 72
0
  0
LINE
  8
0
 62
7
  6
CONTINUOUS
 10
210.0
 20
0.0
 11
0.0
 21
0.0
  0
LINE
  8
0
 62
7
  6
CONTINUOUS
 10
10.0
 20
10.0
 11
200.0
 21
10.0
  0
LINE
  8
0
 62
7
  6
CONTINUOUS
 10
10.0
 20
30.0
 11
200.0
 21
30.0
  0
LINE
  8
0
 62
7
  6
CONTINUOUS
 10
0.0
 20
0.0
 11
0.0
 21
297.0
  0
LINE
  8
0
 62
7
  6
CONTINUOUS
 10
10.0
 20
10.0
 11
10.0
 21
287.0
  0
LINE
  8
0
 62
7
  6
CONTINUOUS
 10
200.0
 20
287.0
 11
200.0
 21
10.0
  0
LINE
  8
0
 62
7
  6
CONTINUOUS
 10
210.0
 20
0.0
 11
210.0
 21
297.0
  0
LINE
  8
0
 62
7
  6
CONTINUOUS
 10
10.0
 20
287.0
 11
200.0
 21
287.0
  0
LINE
  8
0
 62
7
  6
CONTINUOUS
 10
0.0
 20
297.0
 11
210.0
 21
297.0
  0
LINE
  8
0
 62
7
  6
CONTINUOUS
 10
78.3036233464
 20
144.6638560005
 11
78.8322679479
 21
144.6079435272
  0
LINE
  8
0
 62
7
  6
CONTINUOUS
 10
87.9309586025
 20
142.6098739811
 11
90.4168956324
 21
142.3450776755
  0
LINE
  8
0
 62
7
  6
CONTINUOUS
 10
89.8517510077
 20
142.9401994612
 11
87.8837143646
 21
143.1498302065
  0
LINE
  8
0
 62
7
  6
CONTINUOUS
 10
88.0527332945
 20
144.7365986306
 11
90.0207699376
 21
144.5269678853
  0
LINE
  8
0
 62
7
  6
CONTINUOUS
 10
90.0883774969
 20
145.1616751364
 11
88.2239247245
 21
145.3602723657
  0
LINE
  8
0
 62
7
  6
CONTINUOUS
 10
82.8122408678
 20
143.468469544
 11
83.6277760276
 21
143.2971757925
  0
LINE
  8
0
 62
7
  6
CONTINUOUS
 10
77.9064260111
 20
144.7897134191
 11
78.3036233464
 21
144.6638560005
  0
LINE
  8
0
 62
7
  6
CONTINUOUS
 10
78.5635987033
 20
145.1394583104
 11
77.9677936092
 21
145.3282473189
  0
LINE
  8
0
 62
7
  6
CONTINUOUS
 10
77.3661956203
 20
146.1884467625
 11
76.8696853143
 21
146.3457728568
  0
LINE
  8
0
 62
7
  6
CONTINUOUS
 10
78.3534052452
 20
146.5452110546
 11
78.8499064599
 21
146.387887841
  0
LINE
  8
0
 62
7
  6
CONTINUOUS
 10
79.1098818168
 20
146.8634901508
 11
78.4147728432
 21
147.0837449544
  0
LINE
  8
0
 62
7
  6
CONTINUOUS
 10
87.4243261422
 20
142.7708240833
 11
87.9309586025
 21
142.6098739811
  0
LINE
  8
0
 62
7
  6
CONTINUOUS
 10
77.4420500006
 20
145.0484531343
 11
77.9064260111
 21
144.7897134191
  0
LINE
  8
0
 62
7
  6
CONTINUOUS
 10
78.8322679479
 20
144.6079435272
 11
79.4251720491
 21
144.7548611766
  0
LINE
  8
0
 62
7
  6
CONTINUOUS
 10
87.7307232393
 20
144.663913627
 11
88.0527332945
 21
144.7365986306
  0
LINE
  8
0
 62
7
  6
CONTINUOUS
 10
88.2239247245
 20
145.3602723657
 11
87.6947564111
 21
145.3096533841
  0
LINE
  8
0
 62
7
  6
CONTINUOUS
 10
78.8936355459
 20
145.146477427
 11
78.5635987033
 21
145.1394583104
  0
LINE
  8
0
 62
7
  6
CONTINUOUS
 10
79.4399186594
 20
146.8705092675
 11
79.1098818168
 21
146.8634901508
  0
LINE
  8
0
 62
7
  6
CONTINUOUS
 10
78.7274219781
 20
149.10499847
 11
79.0574588207
 21
149.1120175867
  0
LINE
  8
0
 62
7
  6
CONTINUOUS
 10
78.8499064599
 20
146.387887841
 11
79.3785510614
 21
146.3319753677
  0
LINE
  8
0
 62
7
  6
CONTINUOUS
 10
79.3174342001
 20
149.5876199675
 11
78.7887986871
 21
149.6435295513
  0
LINE
  8
0
 62
7
  6
CONTINUOUS
 10
90.9464882436
 20
147.3169517353
 11
90.3250039861
 21
147.3831508117
  0
LINE
  8
0
 62
7
  6
CONTINUOUS
 10
82.9804210668
 20
146.8029772738
 11
84.8153821763
 21
146.4175648626
  0
LINE
  8
0
 62
7
  6
CONTINUOUS
 10
85.0047877111
 20
146.8125993937
 11
82.9659451449
 21
147.2408347527
  0
LINE
  8
0
 62
7
  6
CONTINUOUS
 10
86.2866221102
 20
147.8478159544
 11
85.6749684071
 21
147.9762867581
  0
LINE
  8
0
 62
7
  6
CONTINUOUS
 10
82.820581348
 20
148.575817829
 11
82.2089276448
 21
148.7042886327
  0
LINE
  8
0
 62
7
  6
CONTINUOUS
 10
79.0574588207
 20
149.1120175867
 11
79.7525677943
 21
148.8917627831
  0
LINE
  8
0
 62
7
  6
CONTINUOUS
 10
79.8139354148
 20
149.430296754
 11
79.3174342001
 21
149.5876199675
  0
LINE
  8
0
 62
7
  6
CONTINUOUS
 10
87.8837143646
 20
143.1498302065
 11
87.5842401625
 21
143.2887142866
  0
LINE
  8
0
 62
7
  6
CONTINUOUS
 10
77.8890383259
 20
146.8039478891
 11
78.3534052452
 21
146.5452110546
  0
LINE
  8
0
 62
7
  6
CONTINUOUS
 10
80.2783114225
 20
149.1715570299
 11
79.8139354148
 21
149.430296754
  0
LINE
  8
0
 62
7
  6
CONTINUOUS
 10
77.9677936092
 20
145.3282473189
 11
77.7020253576
 21
145.5240554441
  0
LINE
  8
0
 62
7
  6
CONTINUOUS
 10
78.4147728432
 20
147.0837449544
 11
78.1490045916
 21
147.2795530796
  0
LINE
  8
0
 62
7
  6
CONTINUOUS
 10
79.7525677943
 20
148.8917627831
 11
80.0183360459
 21
148.6959546579
  0
LINE
  8
0
 62
7
  6
CONTINUOUS
 10
77.0419516724
 20
145.5100172108
 11
77.4420500006
 21
145.0484531343
  0
LINE
  8
0
 62
7
  6
CONTINUOUS
 10
78.7887986871
 20
149.6435295513
 11
78.1958854861
 21
149.496614756
  0
LINE
  8
0
 62
7
  6
CONTINUOUS
 10
87.0438039225
 20
143.1323107632
 11
87.4243261422
 21
142.7708240833
  0
LINE
  8
0
 62
7
  6
CONTINUOUS
 10
77.4889309064
 20
147.2655148462
 11
77.8890383259
 21
146.8039478891
  0
LINE
  8
0
 62
7
  6
CONTINUOUS
 10
80.6784097423
 20
148.7099929268
 11
80.2783114225
 21
149.1715570299
  0
LINE
  8
0
 62
7
  6
CONTINUOUS
 10
77.7020253576
 20
145.5240554441
 11
77.4683914015
 21
145.8212771903
  0
LINE
  8
0
 62
7
  6
CONTINUOUS
 10
78.1490045916
 20
147.2795530796
 11
77.9153706355
 21
147.5767748258
  0
LINE
  8
0
 62
7
  6
CONTINUOUS
 10
80.0183360459
 20
148.6959546579
 11
80.251970002
 21
148.3987329117
  0
LINE
  8
0
 62
7
  6
CONTINUOUS
 10
87.5842401625
 20
143.2887142866
 11
87.3996177575
 21
143.5223493924
  0
LINE
  8
0
 62
7
  6
CONTINUOUS
 10
77.2874312458
 20
147.6641502134
 11
77.4889309064
 21
147.2655148462
  0
LINE
  8
0
 62
7
  6
CONTINUOUS
 10
77.9153706355
 20
147.5767748258
 11
77.7810405589
 21
147.842530777
  0
LINE
  8
0
 62
7
  6
CONTINUOUS
 10
133.4074286978
 20
163.7393313803
 11
133.935357577
 21
163.734359878
  0
LINE
  8
0
 62
7
  6
CONTINUOUS
 10
134.2135957914
 20
167.3001479638
 11
133.6856668823
 21
167.3051194885
  0
LINE
  8
0
 62
7
  6
CONTINUOUS
 10
133.7820993891
 20
164.2395781924
 11
133.4017659141
 21
164.2641529807
  0
LINE
  8
0
 62
7
  6
CONTINUOUS
 10
86.7781335
 20
143.5885484688
 11
87.0438039225
 21
143.1323107632
  0
LINE
  8
0
 62
7
  6
CONTINUOUS
 10
76.8725863073
 20
146.0100661989
 11
77.0419516724
 21
145.5100172108
  0
LINE
  8
0
 62
7
  6
CONTINUOUS
 10
80.8477750961
 20
148.2099439031
 11
80.6784097423
 21
148.7099929268
  0
LINE
  8
0
 62
7
  6
CONTINUOUS
 10
77.4683914015
 20
145.8212771903
 11
77.3661956203
 21
146.1884467625
  0
LINE
  8
0
 62
7
  6
CONTINUOUS
 10
80.251970002
 20
148.3987329117
 11
80.3541657606
 21
148.0315632685
  0
LINE
  8
0
 62
7
  6
CONTINUOUS
 10
77.2495040557
 20
148.2341470275
 11
77.2874312458
 21
147.6641502134
  0
LINE
  8
0
 62
7
  6
CONTINUOUS
 10
80.8857022638
 20
147.639947018
 11
80.8477750961
 21
148.2099439031
  0
LINE
  8
0
 62
7
  6
CONTINUOUS
 10
76.8696853143
 20
146.3457728568
 11
76.8725863073
 21
146.0100661989
  0
LINE
  8
0
 62
7
  6
CONTINUOUS
 10
77.7810405589
 20
147.842530777
 11
77.7781396109
 21
148.1782375769
  0
LINE
  8
SQ
 62
2
  6
PHANTOM
 10
73.6915624016
 20
205.3752994411
 11
83.990089859
 21
215.6738268986
  0
LINE
  8
SQ
 62
2
  6
PHANTOM
 10
91.3699266081
 20
220.7909219479
 11
87.8343927022
 21
217.2553880419
  0
LINE
  8
SQ
 62
2
  6
PHANTOM
 10
68.5744673523
 20
197.9954626921
 11
72.1100012582
 21
201.530996598
  0
LINE
  8
0
 62
7
  6
CONTINUOUS
 10
144.6431459751
 20
183.5515041324
 11
144.9762399669
 21
183.5934000967
  0
LINE
  8
0
 62
7
  6
CONTINUOUS
 10
144.9900419635
 20
184.227239067
 11
144.656947679
 21
184.1853431592
  0
LINE
  8
0
 62
7
  6
CONTINUOUS
 10
142.5539233763
 20
183.9541019718
 11
142.8870175144
 21
183.9959979079
  0
LINE
  8
0
 62
7
  6
CONTINUOUS
 10
142.9008195109
 20
184.6298368782
 11
142.5677253728
 21
184.5879409422
  0
LINE
  8
0
 62
7
  6
CONTINUOUS
 10
133.8389251001
 20
166.7999011517
 11
134.3044098766
 21
166.7115564082
  0
LINE
  8
0
 62
7
  6
CONTINUOUS
 10
134.679080568
 20
167.2118032203
 11
134.2135957914
 21
167.3001479638
  0
LINE
  8
0
 62
7
  6
CONTINUOUS
 10
132.8567983367
 20
163.8914537122
 11
133.4074286978
 21
163.7393313803
  0
LINE
  8
0
 62
7
  6
CONTINUOUS
 10
133.4017659141
 20
164.2641529807
 11
133.0838736238
 21
164.3720972383
  0
LINE
  8
SQ
 62
2
  6
PHANTOM
 10
73.6915624016
 20
185.1268139513
 11
83.990089859
 21
174.8282864939
  0
LINE
  8
SQ
 62
2
  6
PHANTOM
 10
87.8343927022
 20
173.2467253505
 11
91.3699266081
 21
169.7111914446
  0
LINE
  8
SQ
 62
2
  6
PHANTOM
 10
72.1100012582
 20
188.9711167945
 11
68.5744673523
 21
192.5066507004
  0
LINE
  8
0
 62
7
  6
CONTINUOUS
 10
86.708353409
 20
143.9169356104
 11
86.7781335
 21
143.5885484688
  0
LINE
  8
0
 62
7
  6
CONTINUOUS
 10
87.3996177575
 20
143.5223493924
 11
87.3298376665
 21
143.850736534
  0
LINE
  8
0
 62
7
  6
CONTINUOUS
 10
82.2089276448
 20
148.7042886327
 11
82.8122408678
 21
143.468469544
  0
LINE
  8
0
 62
7
  6
CONTINUOUS
 10
83.3074825872
 20
143.799266713
 11
82.9804210668
 21
146.8029772738
  0
LINE
  8
0
 62
7
  6
CONTINUOUS
 10
82.9659451449
 20
147.2408347527
 11
82.820581348
 21
148.575817829
  0
LINE
  8
0
 62
7
  6
CONTINUOUS
 10
80.3541657606
 20
148.0315632685
 11
80.3570667536
 21
147.6958566106
  0
LINE
  8
0
 62
7
  6
CONTINUOUS
 10
77.8471912549
 20
138.6459518724
 11
77.764072811
 21
137.4069703988
  0
LINE
  8
0
 62
7
  6
CONTINUOUS
 10
90.147827002
 20
255.2305210835
 11
89.9715303754
 21
254.0013330316
  0
LINE
  8
0
 62
7
  6
CONTINUOUS
 10
56.2301891987
 20
150.1561627697
 11
55.6503175564
 21
149.0581041894
  0
LINE
  8
0
 62
7
  6
CONTINUOUS
 10
114.8865954269
 20
251.6583471123
 11
114.2255846226
 21
250.607134249
  0
LINE
  8
0
 62
7
  6
CONTINUOUS
 10
41.1636997039
 20
169.4636905013
 11
40.1873399382
 21
168.6964191181
  0
LINE
  8
0
 62
7
  6
CONTINUOUS
 10
136.0336508997
 20
238.3328401841
 11
135.0022206908
 21
237.6413667634
  0
LINE
  8
0
 62
7
  6
CONTINUOUS
 10
145.8520594687
 20
194.657828717
 11
145.4281058063
 21
194.5474146272
  0
LINE
  8
0
 62
7
  6
CONTINUOUS
 10
143.3656792934
 20
197.3298796914
 11
143.7896329558
 21
197.4402937812
  0
LINE
  8
0
 62
7
  6
CONTINUOUS
 10
145.4372988448
 20
193.9224822404
 11
145.9676242626
 21
194.0344611069
  0
LINE
  8
0
 62
7
  6
CONTINUOUS
 10
153.3506104744
 20
185.036718787
 11
152.1097280279
 21
184.9898730699
  0
LINE
  8
0
 62
7
  6
CONTINUOUS
 10
36.11893718
 20
184.9898730699
 11
34.8780547334
 21
185.036718787
  0
LINE
  8
0
 62
7
  6
CONTINUOUS
 10
144.0748196677
 20
161.8262298871
 11
142.9221632755
 21
162.2881465558
  0
LINE
  8
0
 62
7
  6
CONTINUOUS
 10
36.9593031681
 20
209.465851453
 11
35.8447545152
 21
210.0133595058
  0
LINE
  8
0
 62
7
  6
CONTINUOUS
 10
126.1604067709
 20
144.3951971975
 11
125.2952811948
 21
145.2860066636
  0
LINE
  8
0
 62
7
  6
CONTINUOUS
 10
46.8867937111
 20
232.4374639575
 11
47.6822929827
 21
231.4839626852
  0
LINE
  8
0
 62
7
  6
CONTINUOUS
 10
102.2769298327
 20
136.9232778403
 11
102.7049365212
 21
135.7576046262
  0
LINE
  8
0
 62
7
  6
CONTINUOUS
 10
66.0949034302
 20
248.4317007658
 11
66.4338042697
 21
247.2370753063
  0
LINE
  8
0
 62
7
  6
CONTINUOUS
 10
80.7600660298
 20
146.8985857342
 11
80.8857022638
 21
147.639947018
  0
LINE
  8
0
 62
7
  6
CONTINUOUS
 10
143.7804399173
 20
198.0652261679
 11
143.2501147975
 21
197.9532473059
  0
LINE
  8
1_AXIS
 62
2
  6
CONTINUOUS
 10
94.1143326039
 20
196.1310566962
 11
94.1143326039
 21
194.3710566962
  0
LINE
  8
1_AXIS
 62
2
  6
CENTER
 10
94.1143326039
 20
190.8510566962
 11
94.1143326039
 21
132.5010566962
  0
LINE
  8
1_AXIS
 62
2
  6
CENTER
 10
94.1143326039
 20
199.6510566962
 11
94.1143326039
 21
258.0010566962
  0
LINE
  8
0
 62
7
  6
CONTINUOUS
 10
86.7534251468
 20
144.3400740742
 11
86.708353409
 21
143.9169356104
  0
LINE
  8
0
 62
7
  6
CONTINUOUS
 10
87.3298376665
 20
143.850736534
 11
87.3636414777
 21
144.1680904559
  0
LINE
  8
0
 62
7
  6
CONTINUOUS
 10
77.4101755782
 20
148.7412152743
 11
77.2495040557
 21
148.2341470275
  0
LINE
  8
0
 62
7
  6
CONTINUOUS
 10
77.7781396109
 20
148.1782375769
 11
77.8745424974
 21
148.4824784398
  0
LINE
  8
0
 62
7
  6
CONTINUOUS
 10
142.3723745351
 20
213.036911209
 11
140.3531931217
 21
212.3662091594
  0
LINE
  8
0
 62
7
  6
CONTINUOUS
 10
140.5173753984
 20
211.8719303634
 11
142.5365568118
 21
212.542632413
  0
LINE
  8
0
 62
7
  6
CONTINUOUS
 10
141.1027826959
 20
205.1612682943
 11
143.0669710425
 21
205.6382624728
  0
LINE
  8
0
 62
7
  6
CONTINUOUS
 10
142.9440614087
 20
206.1443853592
 11
140.9798730621
 21
205.6673911806
  0
LINE
  8
0
 62
7
  6
CONTINUOUS
 10
140.5373982117
 20
207.4894342665
 11
142.9150998334
 21
208.0668482573
  0
LINE
  8
0
 62
7
  6
CONTINUOUS
 10
143.3286131086
 20
208.1672680695
 11
143.8455047025
 21
208.2927928348
  0
LINE
  8
0
 62
7
  6
CONTINUOUS
 10
141.3426154384
 20
203.8276012973
 11
144.688740396
 21
204.4540207354
  0
LINE
  8
0
 62
7
  6
CONTINUOUS
 10
145.7344046466
 20
204.6497768475
 11
146.2572366255
 21
204.7476548762
  0
LINE
  8
0
 62
7
  6
CONTINUOUS
 10
146.1613977476
 20
205.2595943879
 11
145.6385657687
 21
205.1617163592
  0
LINE
  8
0
 62
7
  6
CONTINUOUS
 10
144.5929015181
 20
204.9659602471
 11
141.2467765605
 21
204.339540809
  0
LINE
  8
0
 62
7
  6
CONTINUOUS
 10
143.8417268347
 20
193.8990106534
 11
145.4372988448
 21
193.9224822404
  0
LINE
  8
0
 62
7
  6
CONTINUOUS
 10
145.4281058063
 20
194.5474146272
 11
143.8325337962
 21
194.5239430402
  0
LINE
  8
1_AXIS
 62
2
  6
CONTINUOUS
 10
94.9943326039
 20
195.2510566962
 11
93.2343326039
 21
195.2510566962
  0
LINE
  8
1_AXIS
 62
2
  6
CENTER
 10
89.7143326039
 20
195.2510566962
 11
31.3643326039
 21
195.2510566962
  0
LINE
  8
1_AXIS
 62
2
  6
CENTER
 10
98.5143326039
 20
195.2510566962
 11
156.8643326039
 21
195.2510566962
  0
LINE
  8
0
 62
7
  6
CONTINUOUS
 10
141.7362773267
 20
188.8878297027
 11
146.7162841552
 21
188.4411396666
  0
LINE
  8
0
 62
7
  6
CONTINUOUS
 10
146.7721204097
 20
189.0636405202
 11
142.5338167117
 21
189.4438022543
  0
LINE
  8
0
 62
7
  6
CONTINUOUS
 10
142.0316178363
 20
184.0547514105
 11
142.5539233763
 21
183.9541019718
  0
LINE
  8
0
 62
7
  6
CONTINUOUS
 10
144.2253012505
 20
183.6320237398
 11
144.6431459751
 21
183.5515041324
  0
LINE
  8
0
 62
7
  6
CONTINUOUS
 10
144.656947679
 20
184.1853431592
 11
144.4480254631
 21
184.2256029347
  0
LINE
  8
0
 62
7
  6
CONTINUOUS
 10
142.5677253728
 20
184.5879409422
 11
142.2543420489
 21
184.6483306054
  0
LINE
  8
0
 62
7
  6
CONTINUOUS
 10
135.2490897421
 20
170.4262297157
 11
135.8093670525
 21
170.1204299327
  0
LINE
  8
0
 62
7
  6
CONTINUOUS
 10
138.9842718985
 20
168.3875644481
 11
139.6379286843
 21
168.0307980762
  0
LINE
  8
0
 62
7
  6
CONTINUOUS
 10
134.098266738
 20
168.6865006833
 11
138.2985782323
 21
165.9740509878
  0
LINE
  8
0
 62
7
  6
CONTINUOUS
 10
137.9226878922
 20
166.9607834348
 11
134.4373229499
 21
169.2115396201
  0
LINE
  8
0
 62
7
  6
CONTINUOUS
 10
138.3511124231
 20
167.4281106828
 11
137.6361656206
 21
167.8898043546
  0
LINE
  8
0
 62
7
  6
CONTINUOUS
 10
132.5162048031
 20
164.1465486206
 11
132.8567983367
 21
163.8914537122
  0
LINE
  8
0
 62
7
  6
CONTINUOUS
 10
135.1103966043
 20
162.4638566597
 11
135.5361385213
 21
162.1449880242
  0
LINE
  8
0
 62
7
  6
CONTINUOUS
 10
133.0838736238
 20
164.3720972383
 11
132.913576857
 21
164.4996446925
  0
LINE
  8
0
 62
7
  6
CONTINUOUS
 10
90.3250039861
 20
147.3831508117
 11
90.0883774969
 21
145.1616751364
  0
LINE
  8
0
 62
7
  6
CONTINUOUS
 10
90.0207699376
 20
144.5269678853
 11
89.8517510077
 21
142.9401994612
  0
LINE
  8
0
 62
7
  6
CONTINUOUS
 10
90.4168956324
 20
142.3450776755
 11
90.9464882436
 21
147.3169517353
  0
LINE
  8
0
 62
7
  6
CONTINUOUS
 10
80.3570667536
 20
147.6958566106
 11
80.2606638671
 21
147.3916157477
  0
LINE
  8
0
 62
7
  6
CONTINUOUS
 10
80.1028933375
 20
146.548840843
 11
80.0386247465
 21
146.3460136011
  0
LINE
  8
0
 62
7
  6
CONTINUOUS
 10
80.5351259613
 20
146.1886903875
 11
80.7600660298
 21
146.8985857342
  0
LINE
  8
0
 62
7
  6
CONTINUOUS
 10
143.1932859069
 20
210.5655172643
 11
140.9721863663
 21
209.8277450144
  0
LINE
  8
0
 62
7
  6
CONTINUOUS
 10
140.7325323531
 20
209.1993256884
 11
143.3574682188
 21
210.0712383622
  0
LINE
  8
0
 62
7
  6
CONTINUOUS
 10
143.7225949984
 20
208.7989160108
 11
140.4144885075
 21
207.9955574424
  0
LINE
  8
0
 62
7
  6
CONTINUOUS
 10
143.7896329558
 20
197.4402937812
 11
145.3852049659
 21
197.4637653682
  0
LINE
  8
0
 62
7
  6
CONTINUOUS
 10
145.3760119275
 20
198.0886977549
 11
143.7804399173
 21
198.0652261679
  0
LINE
  8
0
 62
7
  6
CONTINUOUS
 10
142.0526827334
 20
192.4153341438
 11
146.3969440851
 21
192.0256683608
  0
LINE
  8
0
 62
7
  6
CONTINUOUS
 10
147.0885258164
 20
192.5911449612
 11
142.1085189879
 21
193.0378349973
  0
LINE
  8
0
 62
7
  6
CONTINUOUS
 10
142.1203384138
 20
187.3262319039
 11
143.6872552532
 21
187.0242835455
  0
LINE
  8
0
 62
7
  6
CONTINUOUS
 10
144.3140219012
 20
186.9035042191
 11
145.7764777057
 21
186.6216857343
  0
LINE
  8
0
 62
7
  6
CONTINUOUS
 10
146.5215074583
 20
187.1146154905
 11
141.6118347972
 21
188.0607203271
  0
LINE
  8
0
 62
7
  6
CONTINUOUS
 10
141.634122098
 20
171.6881645589
 11
141.1672243938
 21
171.9429976817
  0
LINE
  8
0
 62
7
  6
CONTINUOUS
 10
137.9923195478
 20
173.6758631663
 11
137.2452831558
 21
174.0835961984
  0
LINE
  8
0
 62
7
  6
CONTINUOUS
 10
135.5589315258
 20
165.902097336
 11
136.9213058988
 21
164.8817175237
  0
LINE
  8
0
 62
7
  6
CONTINUOUS
 10
137.6592743448
 20
164.9797225038
 11
135.4454161378
 21
166.6378395871
  0
LINE
  8
0
 62
7
  6
CONTINUOUS
 10
80.2108820133
 20
145.5102608358
 11
80.5351259613
 21
146.1886903875
  0
LINE
  8
0
 62
7
  6
CONTINUOUS
 10
80.0386247465
 20
146.3460136011
 11
79.7465150941
 21
145.7689976703
  0
LINE
  8
0
 62
7
  6
CONTINUOUS
 10
140.3531931217
 20
212.3662091594
 11
139.9821932537
 21
212.1332129709
  0
LINE
  8
0
 62
7
  6
CONTINUOUS
 10
143.4363710196
 20
206.3711349334
 11
142.9440614087
 21
206.1443853592
  0
LINE
  8
0
 62
7
  6
CONTINUOUS
 10
143.0669710425
 20
205.6382624728
 11
143.5592807941
 21
205.8650114679
  0
LINE
  8
0
 62
7
  6
CONTINUOUS
 10
35.2528556789
 20
193.2300881188
 11
34.0488292632
 21
192.9262721254
  0
LINE
  8
0
 62
7
  6
CONTINUOUS
 10
149.9324754141
 20
217.558101505
 11
148.7089694539
 21
217.3459295632
  0
LINE
  8
0
 62
7
  6
CONTINUOUS
 10
39.5196957539
 20
217.3459295632
 11
38.2961897938
 21
217.558101505
  0
LINE
  8
0
 62
7
  6
CONTINUOUS
 10
143.3083373804
 20
193.9953417923
 11
143.8417268347
 21
193.8990106534
  0
LINE
  8
0
 62
7
  6
CONTINUOUS
 10
145.9094016797
 20
197.9923666205
 11
145.3760119275
 21
198.0886977549
  0
LINE
  8
0
 62
7
  6
CONTINUOUS
 10
143.8325337962
 20
194.5239430402
 11
143.4055157993
 21
194.6218389514
  0
LINE
  8
0
 62
7
  6
CONTINUOUS
 10
154.1798359447
 20
192.9262721254
 11
152.975809529
 21
193.2300881188
  0
LINE
  8
0
 62
7
  6
CONTINUOUS
 10
52.1950143082
 20
238.3328401841
 11
53.2264445171
 21
237.6413667634
  0
LINE
  8
0
 62
7
  6
CONTINUOUS
 10
148.0413252697
 20
168.6964191181
 11
147.064965504
 21
169.4636905013
  0
LINE
  8
0
 62
7
  6
CONTINUOUS
 10
110.381473953
 20
138.6459518724
 11
110.4645923969
 21
137.4069703988
  0
LINE
  8
0
 62
7
  6
CONTINUOUS
 10
122.1337617777
 20
248.4317007658
 11
121.7948609381
 21
247.2370753063
  0
LINE
  8
0
 62
7
  6
CONTINUOUS
 10
85.9517353752
 20
136.9232778403
 11
85.5237286867
 21
135.7576046262
  0
LINE
  8
0
 62
7
  6
CONTINUOUS
 10
86.8908127971
 20
144.6463941836
 11
86.7534251468
 21
144.3400740742
  0
LINE
  8
0
 62
7
  6
CONTINUOUS
 10
87.3636414777
 20
144.1680904559
 11
87.501029128
 21
144.4744105654
  0
LINE
  8
0
 62
7
  6
CONTINUOUS
 10
85.6749684071
 20
147.9762867581
 11
85.0047877111
 21
146.8125993937
  0
LINE
  8
0
 62
7
  6
CONTINUOUS
 10
84.8153821763
 20
146.4175648626
 11
83.3074825872
 21
143.799266713
  0
LINE
  8
0
 62
7
  6
CONTINUOUS
 10
83.6277760276
 20
143.2971757925
 11
86.2866221102
 21
147.8478159544
  0
LINE
  8
0
 62
7
  6
CONTINUOUS
 10
77.8745424974
 20
148.4824784398
 11
78.0702492633
 21
148.7552535077
  0
LINE
  8
0
 62
7
  6
CONTINUOUS
 10
80.2606638671
 20
147.3916157477
 11
80.0649570561
 21
147.1188405378
  0
LINE
  8
0
 62
7
  6
CONTINUOUS
 10
79.7465150941
 20
145.7689976703
 11
79.5508082381
 21
145.4962223183
  0
LINE
  8
0
 62
7
  6
CONTINUOUS
 10
77.7694457458
 20
149.1853547409
 11
77.4101755782
 21
148.7412152743
  0
LINE
  8
0
 62
7
  6
CONTINUOUS
 10
141.3418714968
 20
232.4374639575
 11
140.5463722251
 21
231.4839626852
  0
LINE
  8
0
 62
7
  6
CONTINUOUS
 10
62.9333840131
 20
145.2860066636
 11
62.0682584369
 21
144.3951971975
  0
LINE
  8
0
 62
7
  6
CONTINUOUS
 10
140.2473346676
 20
211.6724692897
 11
140.5173753984
 21
211.8719303634
  0
LINE
  8
0
 62
7
  6
CONTINUOUS
 10
140.3615324705
 20
208.9663296029
 11
140.7325323531
 21
209.1993256884
  0
LINE
  8
0
 62
7
  6
CONTINUOUS
 10
143.5592807941
 20
205.8650114679
 11
143.8448337674
 21
206.041551136
  0
LINE
  8
0
 62
7
  6
CONTINUOUS
 10
152.3839106926
 20
210.0133595058
 11
151.2693620398
 21
209.465851453
  0
LINE
  8
0
 62
7
  6
CONTINUOUS
 10
45.3065019324
 20
162.2881465558
 11
44.1538455401
 21
161.8262298871
  0
LINE
  8
0
 62
7
  6
CONTINUOUS
 10
145.3852049659
 20
197.4637653682
 11
145.8122229628
 21
197.365869457
  0
LINE
  8
0
 62
7
  6
CONTINUOUS
 10
141.737945107
 20
184.2174267153
 11
142.0316178363
 21
184.0547514105
  0
LINE
  8
0
 62
7
  6
CONTINUOUS
 10
142.2543420489
 20
184.6483306054
 11
141.9606693927
 21
184.8110058961
  0
LINE
  8
0
 62
7
  6
CONTINUOUS
 10
143.9316285943
 20
183.7946990305
 11
144.2253012505
 21
183.6320237398
  0
LINE
  8
0
 62
7
  6
CONTINUOUS
 10
144.4480254631
 20
184.2256029347
 11
144.1543528069
 21
184.3882782254
  0
LINE
  8
0
 62
7
  6
CONTINUOUS
 10
132.913576857
 20
164.4996446925
 11
132.7205787277
 21
164.7743428869
  0
LINE
  8
0
 62
7
  6
CONTINUOUS
 10
73.3420697809
 20
251.6583471123
 11
74.0030805853
 21
250.607134249
  0
LINE
  8
0
 62
7
  6
CONTINUOUS
 10
132.2153511513
 20
164.6321636937
 11
132.5162048031
 21
164.1465486206
  0
LINE
  8
0
 62
7
  6
CONTINUOUS
 10
131.9984760092
 20
150.1561627697
 11
132.5783476514
 21
149.0581041894
  0
LINE
  8
0
 62
7
  6
CONTINUOUS
 10
98.0808382059
 20
255.2305210835
 11
98.2571348324
 21
254.0013330316
  0
LINE
  8
0
 62
7
  6
CONTINUOUS
 10
79.8516117782
 20
145.0661211561
 11
80.2108820133
 21
145.5102608358
  0
LINE
  8
SQ
 62
2
  6
PHANTOM
 10
119.6541978556
 20
192.5066507004
 11
116.1186639496
 21
188.9711167945
  0
LINE
  8
SQ
 62
2
  6
PHANTOM
 10
96.8587385998
 20
169.7111914446
 11
100.3942725057
 21
173.2467253505
  0
LINE
  8
SQ
 62
2
  6
PHANTOM
 10
104.2385753488
 20
174.8282864939
 11
114.5371028063
 21
185.1268139513
  0
LINE
  8
0
 62
7
  6
CONTINUOUS
 10
139.9821932537
 20
212.1332129709
 11
139.8131115836
 21
211.9672870061
  0
LINE
  8
0
 62
7
  6
CONTINUOUS
 10
140.1924508444
 20
208.8004034467
 11
140.3615324705
 21
208.9663296029
  0
LINE
  8
0
 62
7
  6
CONTINUOUS
 10
140.4673909776
 20
209.6600694903
 11
140.0282685324
 21
209.2946823488
  0
LINE
  8
0
 62
7
  6
CONTINUOUS
 10
143.2501147975
 20
197.9532473059
 11
142.8276932454
 21
197.7386770226
  0
LINE
  8
0
 62
7
  6
CONTINUOUS
 10
142.8797871243
 20
194.1973938948
 11
143.3083373804
 21
193.9953417923
  0
LINE
  8
SQ
 62
2
  6
PHANTOM
 10
116.1186639496
 20
201.530996598
 11
119.6541978556
 21
197.9954626921
  0
LINE
  8
SQ
 62
2
  6
PHANTOM
 10
100.3942725057
 20
217.2553880419
 11
96.8587385998
 21
220.7909219479
  0
LINE
  8
SQ
 62
2
  6
PHANTOM
 10
104.2385753488
 20
215.6738268986
 11
114.5371028063
 21
205.3752994411
  0
LINE
  8
0
 62
7
  6
CONTINUOUS
 10
140.0101303262
 20
211.3741524191
 11
140.2473346676
 21
211.6724692897
  0
LINE
  8
0
 62
7
  6
CONTINUOUS
 10
87.2466266321
 20
145.0364328129
 11
86.8908127971
 21
144.6463941836
  0
LINE
  8
0
 62
7
  6
CONTINUOUS
 10
78.0702492633
 20
148.7552535077
 11
78.36525084
 21
148.9965657323
  0
LINE
  8
0
 62
7
  6
CONTINUOUS
 10
78.1958854861
 20
149.496614756
 11
77.7694457458
 21
149.1853547409
  0
LINE
  8
0
 62
7
  6
CONTINUOUS
 10
143.0496292732
 20
197.1168741815
 11
143.3656792934
 21
197.3298796914
  0
LINE
  8
0
 62
7
  6
CONTINUOUS
 10
145.9676242626
 20
194.0344611069
 11
146.3900457402
 21
194.2490313891
  0
LINE
  8
0
 62
7
  6
CONTINUOUS
 10
142.5338167117
 20
189.4438022543
 11
147.0047715411
 21
191.6573948682
  0
LINE
  8
0
 62
7
  6
CONTINUOUS
 10
146.3969440851
 20
192.0256683608
 11
141.8200317085
 21
189.821580983
  0
LINE
  8
0
 62
7
  6
CONTINUOUS
 10
140.9721863663
 20
209.8277450144
 11
140.6036362082
 21
209.9248511665
  0
LINE
  8
0
 62
7
  6
CONTINUOUS
 10
146.3379518614
 20
197.7903145168
 11
145.9094016797
 21
197.9923666205
  0
LINE
  8
0
 62
7
  6
CONTINUOUS
 10
143.4055157993
 20
194.6218389514
 11
143.0833370751
 21
194.8254558273
  0
LINE
  8
0
 62
7
  6
CONTINUOUS
 10
145.8122229628
 20
197.365869457
 11
146.134401985
 21
197.1622525854
  0
LINE
  8
0
 62
7
  6
CONTINUOUS
 10
141.3792321907
 20
184.6048008146
 11
141.737945107
 21
184.2174267153
  0
LINE
  8
0
 62
7
  6
CONTINUOUS
 10
143.5729157146
 20
184.1820731227
 11
143.9316285943
 21
183.7946990305
  0
LINE
  8
0
 62
7
  6
CONTINUOUS
 10
132.7205787277
 20
164.7743428869
 11
132.5900218426
 21
165.1324105058
  0
LINE
  8
0
 62
7
  6
CONTINUOUS
 10
132.0620929335
 20
165.1373820305
 11
132.2153511513
 21
164.6321636937
  0
LINE
  8
0
 62
7
  6
CONTINUOUS
 10
139.8131115836
 20
211.9672870061
 11
139.6087437199
 21
211.570114427
  0
LINE
  8
0
 62
7
  6
CONTINUOUS
 10
142.8276932454
 20
197.7386770226
 11
142.408336065
 21
197.3157967389
  0
LINE
  8
0
 62
7
  6
CONTINUOUS
 10
143.3886618896
 20
195.7675487245
 11
142.8644653993
 21
195.2389474755
  0
LINE
  8
0
 62
7
  6
CONTINUOUS
 10
142.3402689101
 20
194.7103474187
 11
142.1305903287
 21
194.4989066809
  0
LINE
  8
0
 62
7
  6
CONTINUOUS
 10
79.5508082381
 20
145.4962223183
 11
79.255806684
 21
145.2549101647
  0
LINE
  8
0
 62
7
  6
CONTINUOUS
 10
79.4251720491
 20
144.7548611766
 11
79.8516117782
 21
145.0661211561
  0
LINE
  8
0
 62
7
  6
CONTINUOUS
 10
146.1681097869
 20
194.8708342312
 11
145.8520594687
 21
194.657828717
  0
LINE
  8
0
 62
7
  6
CONTINUOUS
 10
142.8870175144
 20
183.9959979079
 11
143.3639934986
 21
184.2223328982
  0
LINE
  8
0
 62
7
  6
CONTINUOUS
 10
144.9762399669
 20
183.5934000967
 11
145.4532159512
 21
183.819735087
  0
LINE
  8
0
 62
7
  6
CONTINUOUS
 10
140.0660044123
 20
209.8560313156
 11
140.4673909776
 21
209.6600694903
  0
LINE
  8
0
 62
7
  6
CONTINUOUS
 10
142.6639798574
 20
194.4025755431
 11
142.8797871243
 21
194.1973938948
  0
LINE
  8
0
 62
7
  6
CONTINUOUS
 10
141.9606693927
 20
184.8110058961
 11
141.791167988
 21
185.0558345995
  0
LINE
  8
0
 62
7
  6
CONTINUOUS
 10
144.1543528069
 20
184.3882782254
 11
143.9848514754
 21
184.6331069147
  0
LINE
  8
0
 62
7
  6
CONTINUOUS
 10
137.6361656206
 20
167.8898043546
 11
137.9226878922
 21
166.9607834348
  0
LINE
  8
0
 62
7
  6
CONTINUOUS
 10
138.6376344443
 20
166.4990899246
 11
138.3511124231
 21
167.4281106828
  0
LINE
  8
0
 62
7
  6
CONTINUOUS
 10
137.5061315112
 20
173.2291915477
 11
138.9842718985
 21
168.3875644481
  0
LINE
  8
0
 62
7
  6
CONTINUOUS
 10
135.0082984255
 20
166.0542157619
 11
135.0139640677
 21
165.529397978
  0
LINE
  8
0
 62
7
  6
CONTINUOUS
 10
132.5900218426
 20
165.1324105058
 11
132.6070604215
 21
165.5100813661
  0
LINE
  8
0
 62
7
  6
CONTINUOUS
 10
132.1188742899
 20
165.7455768442
 11
132.0620929335
 21
165.1373820305
  0
LINE
  8
0
 62
7
  6
CONTINUOUS
 10
139.6087437199
 20
211.570114427
 11
139.5053349463
 21
211.2064768979
  0
LINE
  8
0
 62
7
  6
CONTINUOUS
 10
143.5939638318
 20
206.6237938782
 11
143.4363710196
 21
206.3711349334
  0
LINE
  8
0
 62
7
  6
CONTINUOUS
 10
143.8448337674
 20
206.041551136
 11
144.0024265796
 21
206.2942100808
  0
LINE
  8
0
 62
7
  6
CONTINUOUS
 10
142.8414828031
 20
196.8012784424
 11
143.0496292732
 21
197.1168741815
  0
LINE
  8
0
 62
7
  6
CONTINUOUS
 10
143.0833370751
 20
194.8254558273
 11
143.3978549281
 21
195.1426163377
  0
LINE
  8
0
 62
7
  6
CONTINUOUS
 10
142.1397833671
 20
193.8739742941
 11
142.6639798574
 21
194.4025755431
  0
LINE
  8
0
 62
7
  6
CONTINUOUS
 10
146.3900457402
 20
194.2490313891
 11
146.8094028834
 21
194.6719116722
  0
LINE
  8
0
 62
7
  6
CONTINUOUS
 10
87.501029128
 20
144.4744105654
 11
87.7307232393
 21
144.663913627
  0
LINE
  8
0
 62
7
  6
CONTINUOUS
 10
143.1491626114
 20
184.7941460166
 11
142.9008195109
 21
184.6298368782
  0
LINE
  8
0
 62
7
  6
CONTINUOUS
 10
145.2383850639
 20
184.3915482054
 11
144.9900419635
 21
184.227239067
  0
LINE
  8
0
 62
7
  6
CONTINUOUS
 10
87.6947564111
 20
145.3096533841
 11
87.2466266321
 21
145.0364328129
  0
LINE
  8
0
 62
7
  6
CONTINUOUS
 10
80.0649570561
 20
147.1188405378
 11
79.8020897975
 21
146.9789420052
  0
LINE
  8
0
 62
7
  6
CONTINUOUS
 10
133.4812929876
 20
166.6773251998
 11
133.8389251001
 21
166.7999011517
  0
LINE
  8
0
 62
7
  6
CONTINUOUS
 10
78.36525084
 20
148.9965657323
 11
78.7274219781
 21
149.10499847
  0
LINE
  8
0
 62
7
  6
CONTINUOUS
 10
142.9150998334
 20
208.0668482573
 11
143.1710203667
 21
207.9146088351
  0
LINE
  8
0
 62
7
  6
CONTINUOUS
 10
143.5845336418
 20
208.0150286473
 11
143.3286131086
 21
208.1672680695
  0
LINE
  8
0
 62
7
  6
CONTINUOUS
 10
140.6036362082
 20
209.9248511665
 11
140.3032087126
 21
210.154348251
  0
LINE
  8
0
 62
7
  6
CONTINUOUS
 10
146.7695663775
 20
197.3799524122
 11
146.3379518614
 21
197.7903145168
  0
LINE
  8
0
 62
7
  6
CONTINUOUS
 10
141.1446906082
 20
185.0743283108
 11
141.3792321907
 21
184.6048008146
  0
LINE
  8
0
 62
7
  6
CONTINUOUS
 10
139.4205558708
 20
168.7428033173
 11
137.9923195478
 21
173.6758631663
  0
LINE
  8
0
 62
7
  6
CONTINUOUS
 10
139.5053349463
 20
211.2064768979
 11
139.5357216905
 21
210.7775187722
  0
LINE
  8
0
 62
7
  6
CONTINUOUS
 10
135.5021501471
 20
165.293902539
 11
135.5589315258
 21
165.902097336
  0
LINE
  8
0
 62
7
  6
CONTINUOUS
 10
139.9395579803
 20
210.9116591844
 11
140.0101303262
 21
211.3741524191
  0
LINE
  8
0
 62
7
  6
CONTINUOUS
 10
143.6481783252
 20
206.85134787
 11
143.5939638318
 21
206.6237938782
  0
LINE
  8
0
 62
7
  6
CONTINUOUS
 10
144.0024265796
 20
206.2942100808
 11
144.1354374088
 21
206.6480938346
  0
LINE
  8
0
 62
7
  6
CONTINUOUS
 10
142.408336065
 20
197.3157967389
 11
142.2017218087
 21
196.896046
  0
LINE
  8
0
 62
7
  6
CONTINUOUS
 10
146.3762561825
 20
195.1864299692
 11
146.1681097869
 21
194.8708342312
  0
LINE
  8
0
 62
7
  6
CONTINUOUS
 10
143.3639934986
 20
184.2223328982
 11
143.5078754911
 21
184.4067719243
  0
LINE
  8
0
 62
7
  6
CONTINUOUS
 10
145.4532159512
 20
183.819735087
 11
145.8454410441
 21
184.1684832515
  0
LINE
  8
0
 62
7
  6
CONTINUOUS
 10
133.6856668823
 20
167.3051194885
 11
133.1179951808
 21
167.0795670709
  0
LINE
  8
0
 62
7
  6
CONTINUOUS
 10
133.935357577
 20
163.734359878
 11
134.5030292562
 21
163.9599123123
  0
LINE
  8
0
 62
7
  6
CONTINUOUS
 10
134.1397315016
 20
164.3621541443
 11
133.7820993891
 21
164.2395781924
  0
LINE
  8
0
 62
7
  6
CONTINUOUS
 10
79.8020897975
 20
146.9789420052
 11
79.4399186594
 21
146.8705092675
  0
LINE
  8
0
 62
7
  6
CONTINUOUS
 10
79.3785510614
 20
146.3319753677
 11
80.1028933375
 21
146.548840843
  0
LINE
  8
0
 62
7
  6
CONTINUOUS
 10
79.255806684
 20
145.2549101647
 11
78.8936355459
 21
145.146477427
  0
LINE
  8
0
 62
7
  6
CONTINUOUS
 10
143.1710203667
 20
207.9146088351
 11
143.4515227424
 21
207.6611451832
  0
LINE
  8
0
 62
7
  6
CONTINUOUS
 10
143.8650360175
 20
207.7615649954
 11
143.5845336418
 21
208.0150286473
  0
LINE
  8
0
 62
7
  6
CONTINUOUS
 10
139.8993723963
 20
210.0202078299
 11
140.0660044123
 21
209.8560313156
  0
LINE
  8
0
 62
7
  6
CONTINUOUS
 10
146.134401985
 20
197.1622525854
 11
146.3517414191
 21
196.8529159367
  0
LINE
  8
0
 62
7
  6
CONTINUOUS
 10
139.6670675307
 20
210.3820956788
 11
139.8993723963
 21
210.0202078299
  0
LINE
  8
0
 62
7
  6
CONTINUOUS
 10
142.2293009241
 20
195.0212488396
 11
142.3402689101
 21
194.7103474187
  0
LINE
  8
0
 62
7
  6
CONTINUOUS
 10
142.8644653993
 20
195.2389474755
 11
142.7534974227
 21
195.5498488965
  0
LINE
  8
0
 62
7
  6
CONTINUOUS
 10
143.5078754911
 20
184.4067719243
 11
143.5729157146
 21
184.1820731227
  0
LINE
  8
0
 62
7
  6
CONTINUOUS
 10
141.791167988
 20
185.0558345995
 11
141.7458384323
 21
185.3828190285
  0
LINE
  8
0
 62
7
  6
CONTINUOUS
 10
142.1030112132
 20
196.3737038412
 11
142.1152686037
 21
195.5404602615
  0
LINE
  8
0
 62
7
  6
CONTINUOUS
 10
142.1305903287
 20
194.4989066809
 11
142.1397833671
 21
193.8739742941
  0
LINE
  8
0
 62
7
  6
CONTINUOUS
 10
142.7534974227
 20
195.5498488965
 11
142.7412400322
 21
196.3830924762
  0
LINE
  8
0
 62
7
  6
CONTINUOUS
 10
143.3978549281
 20
195.1426163377
 11
143.3886618896
 21
195.7675487245
  0
LINE
  8
0
 62
7
  6
CONTINUOUS
 10
141.138782379
 20
185.6058839966
 11
141.1446906082
 21
185.0743283108
  0
LINE
  8
0
 62
7
  6
CONTINUOUS
 10
143.6532288526
 20
207.2813514796
 11
143.6481783252
 21
206.85134787
  0
LINE
  8
0
 62
7
  6
CONTINUOUS
 10
142.1085189879
 20
193.0378349973
 11
142.0526827334
 21
192.4153341438
  0
LINE
  8
0
 62
7
  6
CONTINUOUS
 10
141.8200317085
 20
189.821580983
 11
141.7362773267
 21
188.8878297027
  0
LINE
  8
0
 62
7
  6
CONTINUOUS
 10
144.1354374088
 20
206.6480938346
 11
144.1650699192
 21
206.9768726353
  0
LINE
  8
0
 62
7
  6
CONTINUOUS
 10
142.2017218087
 20
196.896046
 11
142.1030112132
 21
196.3737038412
  0
LINE
  8
0
 62
7
  6
CONTINUOUS
 10
147.0160170942
 20
195.0916636027
 11
147.1147276979
 21
195.6140045693
  0
LINE
  8
0
 62
7
  6
CONTINUOUS
 10
141.6118347972
 20
188.0607203271
 11
141.138782379
 21
185.6058839966
  0
LINE
  8
0
 62
7
  6
CONTINUOUS
 10
141.7458384323
 20
185.3828190285
 11
142.1203384138
 21
187.3262319039
  0
LINE
  8
0
 62
7
  6
CONTINUOUS
 10
143.6872552532
 20
187.0242835455
 11
143.3127552717
 21
185.0808706702
  0
LINE
  8
0
 62
7
  6
CONTINUOUS
 10
143.9395219197
 20
184.9600913437
 11
144.3140219012
 21
186.9035042191
  0
LINE
  8
0
 62
7
  6
CONTINUOUS
 10
142.7412400322
 20
196.3830924762
 11
142.8414828031
 21
196.8012784424
  0
LINE
  8
0
 62
7
  6
CONTINUOUS
 10
146.4764989535
 20
195.6046159354
 11
146.3762561825
 21
195.1864299692
  0
LINE
  8
0
 62
7
  6
CONTINUOUS
 10
132.6070604215
 20
165.5100813661
 11
132.7716944047
 21
165.9073555123
  0
LINE
  8
0
 62
7
  6
CONTINUOUS
 10
135.0139640677
 20
165.529397978
 11
134.849332943
 21
165.1321276484
  0
LINE
  8
0
 62
7
  6
CONTINUOUS
 10
132.3459524281
 20
166.2262241925
 11
132.1188742899
 21
165.7455768442
  0
LINE
  8
0
 62
7
  6
CONTINUOUS
 10
135.27507486
 20
164.8132590129
 11
135.5021501471
 21
165.293902539
  0
LINE
  8
0
 62
7
  6
CONTINUOUS
 10
146.8094028834
 20
194.6719116722
 11
147.0160170942
 21
195.0916636027
  0
LINE
  8
0
 62
7
  6
CONTINUOUS
 10
137.2452831558
 20
174.0835961984
 11
135.2490897421
 21
170.4262297157
  0
LINE
  8
0
 62
7
  6
CONTINUOUS
 10
135.8093670525
 20
170.1204299327
 11
137.5061315112
 21
173.2291915477
  0
LINE
  8
0
 62
7
  6
CONTINUOUS
 10
143.3127552717
 20
185.0808706702
 11
143.1491626114
 21
184.7941460166
  0
LINE
  8
0
 62
7
  6
CONTINUOUS
 10
145.4019777242
 20
184.678272859
 11
145.2383850639
 21
184.3915482054
  0
LINE
  8
0
 62
7
  6
CONTINUOUS
 10
134.4373229499
 20
169.2115396201
 11
134.098266738
 21
168.6865006833
  0
LINE
  8
0
 62
7
  6
CONTINUOUS
 10
132.7206231195
 20
166.7264710046
 11
132.3459524281
 21
166.2262241925
  0
LINE
  8
0
 62
7
  6
CONTINUOUS
 10
132.7716944047
 20
165.9073555123
 11
133.1463650961
 21
166.4076023244
  0
LINE
  8
0
 62
7
  6
CONTINUOUS
 10
134.3044098766
 20
166.7115564082
 11
134.679080568
 21
167.2118032203
  0
LINE
  8
0
 62
7
  6
CONTINUOUS
 10
135.4454161378
 20
166.6378395871
 11
135.0082984255
 21
166.0542157619
  0
LINE
  8
0
 62
7
  6
CONTINUOUS
 10
134.849332943
 20
165.1321276484
 11
134.4746622516
 21
164.6318808363
  0
LINE
  8
0
 62
7
  6
CONTINUOUS
 10
134.9004041686
 20
164.3130122008
 11
135.27507486
 21
164.8132590129
  0
LINE
  8
0
 62
7
  6
CONTINUOUS
 10
133.1179951808
 20
167.0795670709
 11
132.7206231195
 21
166.7264710046
  0
LINE
  8
0
 62
7
  6
CONTINUOUS
 10
134.5030292562
 20
163.9599123123
 11
134.9004041686
 21
164.3130122008
  0
LINE
  8
0
 62
7
  6
CONTINUOUS
 10
133.1463650961
 20
166.4076023244
 11
133.4812929876
 21
166.6773251998
  0
LINE
  8
0
 62
7
  6
CONTINUOUS
 10
134.4746622516
 20
164.6318808363
 11
134.1397315016
 21
164.3621541443
  0
LINE
  8
0
 62
7
  6
CONTINUOUS
 10
140.3032087126
 20
210.154348251
 11
140.0709038205
 21
210.5162360911
  0
LINE
  8
0
 62
7
  6
CONTINUOUS
 10
143.4515227424
 20
207.6611451832
 11
143.6532288526
 21
207.2813514796
  0
LINE
  8
0
 62
7
  6
CONTINUOUS
 10
144.0667421277
 20
207.3817712919
 11
143.8650360175
 21
207.7615649954
  0
LINE
  8
0
 62
7
  6
CONTINUOUS
 10
146.9884379788
 20
196.966460763
 11
146.7695663775
 21
197.3799524122
  0
LINE
  8
0
 62
7
  6
CONTINUOUS
 10
139.5357216905
 20
210.7775187722
 11
139.6670675307
 21
210.3820956788
  0
LINE
  8
0
 62
7
  6
CONTINUOUS
 10
140.0282685324
 20
209.2946823488
 11
140.1924508444
 21
208.8004034467
  0
LINE
  8
0
 62
7
  6
CONTINUOUS
 10
140.0709038205
 20
210.5162360911
 11
139.9395579803
 21
210.9116591844
  0
LINE
  8
0
 62
7
  6
CONTINUOUS
 10
143.3574682188
 20
210.0712383622
 11
143.1932859069
 21
210.5655172643
  0
LINE
  8
0
 62
7
  6
CONTINUOUS
 10
142.5365568118
 20
212.542632413
 11
142.3723745351
 21
213.036911209
  0
LINE
  8
0
 62
7
  6
CONTINUOUS
 10
146.3517414191
 20
196.8529159367
 11
146.464241563
 21
196.4378595151
  0
LINE
  8
0
 62
7
  6
CONTINUOUS
 10
140.4144885075
 20
207.9955574424
 11
140.5373982117
 21
207.4894342665
  0
LINE
  8
0
 62
7
  6
CONTINUOUS
 10
140.9798730621
 20
205.6673911806
 11
141.1027826959
 21
205.1612682943
  0
LINE
  8
0
 62
7
  6
CONTINUOUS
 10
144.1650699192
 20
206.9768726353
 11
144.0667421277
 21
207.3817712919
  0
LINE
  8
0
 62
7
  6
CONTINUOUS
 10
143.8455047025
 20
208.2927928348
 11
143.7225949984
 21
208.7989160108
  0
LINE
  8
0
 62
7
  6
CONTINUOUS
 10
142.1152686037
 20
195.5404602615
 11
142.2293009241
 21
195.0212488396
  0
LINE
  8
0
 62
7
  6
CONTINUOUS
 10
147.1024703074
 20
196.447248149
 11
146.9884379788
 21
196.966460763
  0
LINE
  8
0
 62
7
  6
CONTINUOUS
 10
141.2467765605
 20
204.339540809
 11
141.3426154384
 21
203.8276012973
  0
LINE
  8
0
 62
7
  6
CONTINUOUS
 10
144.688740396
 20
204.4540207354
 11
144.5929015181
 21
204.9659602471
  0
LINE
  8
0
 62
7
  6
CONTINUOUS
 10
143.9848514754
 20
184.6331069147
 11
143.9395219197
 21
184.9600913437
  0
LINE
  8
0
 62
7
  6
CONTINUOUS
 10
146.464241563
 20
196.4378595151
 11
146.4764989535
 21
195.6046159354
  0
LINE
  8
0
 62
7
  6
CONTINUOUS
 10
147.1147276979
 20
195.6140045693
 11
147.1024703074
 21
196.447248149
  0
LINE
  8
0
 62
7
  6
CONTINUOUS
 10
146.7162841552
 20
188.4411396666
 11
146.7721204097
 21
189.0636405202
  0
LINE
  8
0
 62
7
  6
CONTINUOUS
 10
147.0047715411
 20
191.6573948682
 11
147.0885258164
 21
192.5911449612
  0
LINE
  8
0
 62
7
  6
CONTINUOUS
 10
145.7764777057
 20
186.6216857343
 11
145.4019777242
 21
184.678272859
  0
LINE
  8
0
 62
7
  6
CONTINUOUS
 10
146.04845504
 20
184.65977916
 11
146.5215074583
 21
187.1146154905
  0
LINE
  8
0
 62
7
  6
CONTINUOUS
 10
145.8454410441
 20
184.1684832515
 11
146.04845504
 21
184.65977916
  0
LINE
  8
0
 62
7
  6
CONTINUOUS
 10
141.1672243938
 20
171.9429976817
 11
139.4205558708
 21
168.7428033173
  0
LINE
  8
0
 62
7
  6
CONTINUOUS
 10
139.6379286843
 20
168.0307980762
 11
141.634122098
 21
171.6881645589
  0
LINE
  8
0
 62
7
  6
CONTINUOUS
 10
138.2985782323
 20
165.9740509878
 11
138.6376344443
 21
166.4990899246
  0
LINE
  8
0
 62
7
  6
CONTINUOUS
 10
136.9213058988
 20
164.8817175237
 11
135.1103966043
 21
162.4638566597
  0
LINE
  8
0
 62
7
  6
CONTINUOUS
 10
135.5361385213
 20
162.1449880242
 11
137.6592743448
 21
164.9797225038
  0
LINE
  8
0
 62
7
  6
CONTINUOUS
 10
145.6385657687
 20
205.1617163592
 11
145.7344046466
 21
204.6497768475
  0
LINE
  8
0
 62
7
  6
CONTINUOUS
 10
146.2572366255
 20
204.7476548762
 11
146.1613977476
 21
205.2595943879
  0
LINE
  8
0
 62
7
  6
CONTINUOUS
 10
35.3975986086
 20
83.7577259351
 11
35.4022056156
 21
83.6998941397
  0
POLYLINE
  8
0
 62
7
  6
CONTINUOUS
 66
1
 70
0
  0
VERTEX
  8
0
 62
7
  6
CONTINUOUS
 10
33.4445616931
 20
83.7693115025
  0
VERTEX
  8
0
 62
7
  6
CONTINUOUS
 10
33.4451264099
 20
83.745554434
  0
VERTEX
  8
0
 62
7
  6
CONTINUOUS
 10
33.4477442131
 20
83.71298729
  0
VERTEX
  8
0
 62
7
  6
CONTINUOUS
 10
33.4524418548
 20
83.6808912384
  0
VERTEX
  8
0
 62
7
  6
CONTINUOUS
 10
33.4591490196
 20
83.6494169826
  0
VERTEX
  8
0
 62
7
  6
CONTINUOUS
 10
33.4677825339
 20
83.6187063826
  0
VERTEX
  8
0
 62
7
  6
CONTINUOUS
 10
33.4782474666
 20
83.5888913017
  0
VERTEX
  8
0
 62
7
  6
CONTINUOUS
 10
33.4904383345
 20
83.5600926
  0
VERTEX
  8
0
 62
7
  6
CONTINUOUS
 10
33.50424039
 20
83.5324192867
  0
VERTEX
  8
0
 62
7
  6
CONTINUOUS
 10
33.5195309708
 20
83.5059678352
  0
VERTEX
  8
0
 62
7
  6
CONTINUOUS
 10
33.5361808875
 20
83.4808216682
  0
VERTEX
  8
0
 62
7
  6
CONTINUOUS
 10
33.5540558428
 20
83.4570507929
  0
VERTEX
  8
0
 62
7
  6
CONTINUOUS
 10
33.5730179163
 20
83.4347115358
  0
VERTEX
  8
0
 62
7
  6
CONTINUOUS
 10
33.5929266433
 20
83.4138468731
  0
VERTEX
  8
0
 62
7
  6
CONTINUOUS
 10
33.6136405514
 20
83.3944862601
  0
VERTEX
  8
0
 62
7
  6
CONTINUOUS
 10
33.6350185441
 20
83.3766458346
  0
VERTEX
  8
0
 62
7
  6
CONTINUOUS
 10
33.6569211449
 20
83.3603288456
  0
VERTEX
  8
0
 62
7
  6
CONTINUOUS
 10
33.6792115988
 20
83.3455262407
  0
VERTEX
  8
0
 62
7
  6
CONTINUOUS
 10
33.7017566804
 20
83.3322174455
  0
VERTEX
  8
0
 62
7
  6
CONTINUOUS
 10
33.7244276494
 20
83.3203710182
  0
VERTEX
  8
0
 62
7
  6
CONTINUOUS
 10
33.7470992737
 20
83.3099461842
  0
VERTEX
  8
0
 62
7
  6
CONTINUOUS
 10
33.7696463546
 20
83.3008947129
  0
VERTEX
  8
0
 62
7
  6
CONTINUOUS
 10
33.7919581483
 20
83.2931558173
  0
VERTEX
  8
0
 62
7
  6
CONTINUOUS
 10
33.8139246904
 20
83.2866629979
  0
VERTEX
  8
0
 62
7
  6
CONTINUOUS
 10
33.8353099384
 20
83.2813716744
  0
VERTEX
  8
0
 62
7
  6
CONTINUOUS
 10
33.855207226
 20
83.2773290085
  0
VERTEX
  8
0
 62
7
  6
CONTINUOUS
 10
33.8723234303
 20
83.2745072507
  0
VERTEX
  8
0
 62
7
  6
CONTINUOUS
 10
33.8846605563
 20
83.2728289853
  0
VERTEX
  8
0
 62
7
  6
CONTINUOUS
 10
33.89326904
 20
83.2718103064
  0
VERTEX
  8
0
 62
7
  6
CONTINUOUS
 10
33.9008481232
 20
83.2709874702
  0
VERTEX
  8
0
 62
7
  6
CONTINUOUS
 10
33.9180264036
 20
83.2692524035
  0
SEQEND
  0
LINE
  8
0
 62
7
  6
CONTINUOUS
 10
35.3974833944
 20
83.7684605404
 11
35.3975986086
 21
83.7577259351
  0
LINE
  8
2_FEATURE
 62
7
  6
CONTINUOUS
 10
33.4445607604
 20
92.3511352929
 11
33.4445607604
 21
83.7692148166
  0
LINE
  8
0
 62
9
  6
CONTINUOUS
 10
34.0488292632
 20
83.7482605108
 11
34.0488292632
 21
92.3720895986
  0
LINE
  8
0
 62
9
  6
CONTINUOUS
 10
35.2528556789
 20
83.6418383183
 11
35.2528556789
 21
92.4785117911
  0
LINE
  8
2_FEATURE
 62
7
  6
CONTINUOUS
 10
35.3974830524
 20
92.3519957986
 11
35.3974830524
 21
83.7683543108
  0
LINE
  8
0
 62
9
  6
CONTINUOUS
 10
35.4246143344
 20
92.3510029897
 11
35.4246143344
 21
83.7693471197
  0
LINE
  8
0
 62
7
  6
CONTINUOUS
 10
35.3998340981
 20
92.400323851
 11
35.3974833943
 21
92.3518895809
  0
LINE
  8
0
 62
9
  6
CONTINUOUS
 10
36.0318590267
 20
92.8979119244
 11
36.0264580336
 21
92.870663797
  0
LINE
  8
0
 62
9
  6
CONTINUOUS
 10
36.0318589823
 20
83.2224380715
 11
36.0264579659
 21
83.2496863169
  0
POLYLINE
  8
0
 62
7
  6
CONTINUOUS
 66
1
 70
0
  0
VERTEX
  8
0
 62
7
  6
CONTINUOUS
 10
35.4022056156
 20
83.6998941397
  0
VERTEX
  8
0
 62
7
  6
CONTINUOUS
 10
35.4132700163
 20
83.6437916635
  0
VERTEX
  8
0
 62
7
  6
CONTINUOUS
 10
35.4303338558
 20
83.590185784
  0
VERTEX
  8
0
 62
7
  6
CONTINUOUS
 10
35.4528403831
 20
83.5397442846
  0
VERTEX
  8
0
 62
7
  6
CONTINUOUS
 10
35.4801544125
 20
83.4930235278
  0
VERTEX
  8
0
 62
7
  6
CONTINUOUS
 10
35.5115832282
 20
83.4504612688
  0
VERTEX
  8
0
 62
7
  6
CONTINUOUS
 10
35.5464049046
 20
83.4123657961
  0
VERTEX
  8
0
 62
7
  6
CONTINUOUS
 10
35.5838542652
 20
83.3789502641
  0
VERTEX
  8
0
 62
7
  6
CONTINUOUS
 10
35.6231702281
 20
83.3502948439
  0
VERTEX
  8
0
 62
7
  6
CONTINUOUS
 10
35.6636368295
 20
83.3263456956
  0
VERTEX
  8
0
 62
7
  6
CONTINUOUS
 10
35.7045736618
 20
83.3069481199
  0
VERTEX
  8
0
 62
7
  6
CONTINUOUS
 10
35.7446781218
 20
83.2920658768
  0
VERTEX
  8
0
 62
7
  6
CONTINUOUS
 10
35.7818668782
 20
83.2815311895
  0
SEQEND
  0
POLYLINE
  8
0
 62
9
  6
CONTINUOUS
 66
1
 70
0
  0
VERTEX
  8
0
 62
9
  6
CONTINUOUS
 10
40.520565177
 20
92.9137281819
  0
VERTEX
  8
0
 62
9
  6
CONTINUOUS
 10
40.5217576578
 20
92.6895844137
  0
VERTEX
  8
0
 62
9
  6
CONTINUOUS
 10
40.5219146507
 20
92.5601750547
  0
SEQEND
  0
LINE
  8
0
 62
9
  6
CONTINUOUS
 10
37.4128127048
 20
92.3510029897
 11
37.4128127048
 21
83.7693471197
  0
LINE
  8
0
 62
9
  6
CONTINUOUS
 10
38.2961897938
 20
83.7482605108
 11
38.2961897938
 21
92.3720895986
  0
LINE
  8
0
 62
9
  6
CONTINUOUS
 10
39.5196957539
 20
83.6418383183
 11
39.5196957539
 21
92.4785117911
  0
POLYLINE
  8
0
 62
9
  6
CONTINUOUS
 66
1
 70
0
  0
VERTEX
  8
0
 62
9
  6
CONTINUOUS
 10
40.5173072508
 20
93.0601750547
  0
VERTEX
  8
0
 62
9
  6
CONTINUOUS
 10
40.5184997357
 20
93.0431379085
  0
VERTEX
  8
0
 62
9
  6
CONTINUOUS
 10
40.5196109536
 20
92.9931875805
  0
VERTEX
  8
0
 62
9
  6
CONTINUOUS
 10
40.520565177
 20
92.9137281819
  0
SEQEND
  0
LINE
  8
0
 62
9
  6
CONTINUOUS
 10
42.0727801296
 20
83.5601750547
 11
42.0727801296
 21
92.5601750547
  0
LINE
  8
0
 62
9
  6
CONTINUOUS
 10
43.4083492989
 20
83.5601750547
 11
43.4083492989
 21
92.5601750547
  0
POLYLINE
  8
0
 62
9
  6
CONTINUOUS
 66
1
 70
0
  0
VERTEX
  8
0
 62
9
  6
CONTINUOUS
 10
40.5173072508
 20
83.0601750547
  0
VERTEX
  8
0
 62
9
  6
CONTINUOUS
 10
40.5184997298
 20
83.0772121463
  0
VERTEX
  8
0
 62
9
  6
CONTINUOUS
 10
40.5196109444
 20
83.1271623679
  0
VERTEX
  8
0
 62
9
  6
CONTINUOUS
 10
40.5205651673
 20
83.2066216885
  0
VERTEX
  8
0
 62
9
  6
CONTINUOUS
 10
40.5212973697
 20
83.3101750813
  0
VERTEX
  8
0
 62
9
  6
CONTINUOUS
 10
40.5219146507
 20
83.5601750547
  0
SEQEND
  0
POLYLINE
  8
0
 62
7
  6
CONTINUOUS
 66
1
 70
0
  0
VERTEX
  8
0
 62
7
  6
CONTINUOUS
 10
46.7010815373
 20
83.7635304323
  0
VERTEX
  8
0
 62
7
  6
CONTINUOUS
 10
46.704035067
 20
83.7092159884
  0
VERTEX
  8
0
 62
7
  6
CONTINUOUS
 10
46.717933439
 20
83.6346933024
  0
VERTEX
  8
0
 62
7
  6
CONTINUOUS
 10
46.7423581987
 20
83.5644017868
  0
VERTEX
  8
0
 62
7
  6
CONTINUOUS
 10
46.775930098
 20
83.5000953122
  0
VERTEX
  8
0
 62
7
  6
CONTINUOUS
 10
46.8169145009
 20
83.4431119077
  0
VERTEX
  8
0
 62
7
  6
CONTINUOUS
 10
46.8633296491
 20
83.3943261893
  0
VERTEX
  8
0
 62
7
  6
CONTINUOUS
 10
46.9130172177
 20
83.3541511481
  0
VERTEX
  8
0
 62
7
  6
CONTINUOUS
 10
46.9638970309
 20
83.3224238508
  0
VERTEX
  8
0
 62
7
  6
CONTINUOUS
 10
47.0144272546
 20
83.2983610265
  0
VERTEX
  8
0
 62
7
  6
CONTINUOUS
 10
47.0624710374
 20
83.2811950866
  0
VERTEX
  8
0
 62
7
  6
CONTINUOUS
 10
47.1061711492
 20
83.2696048159
  0
VERTEX
  8
0
 62
7
  6
CONTINUOUS
 10
47.1456943721
 20
83.2616641412
  0
SEQEND
  0
LINE
  8
2_FEATURE
 62
7
  6
CONTINUOUS
 10
46.7010807653
 20
92.3569131074
 11
46.7010807653
 21
83.763437002
  0
LINE
  8
0
 62
9
  6
CONTINUOUS
 10
46.8790523838
 20
92.3510029897
 11
46.8790523838
 21
83.7693471197
  0
POLYLINE
  8
0
 62
9
  6
CONTINUOUS
 66
1
 70
0
  0
VERTEX
  8
0
 62
9
  6
CONTINUOUS
 10
40.2446034058
 20
83.0715909757
  0
VERTEX
  8
0
 62
9
  6
CONTINUOUS
 10
40.2518072165
 20
83.0915933494
  0
VERTEX
  8
0
 62
9
  6
CONTINUOUS
 10
40.261196033
 20
83.1430013702
  0
VERTEX
  8
0
 62
9
  6
CONTINUOUS
 10
40.2721531119
 20
83.2224380894
  0
VERTEX
  8
0
 62
9
  6
CONTINUOUS
 10
40.2839586924
 20
83.3246853771
  0
VERTEX
  8
0
 62
9
  6
CONTINUOUS
 10
40.2958372758
 20
83.443026697
  0
VERTEX
  8
0
 62
9
  6
CONTINUOUS
 10
40.3070085683
 20
83.5696883095
  0
SEQEND
  0
POLYLINE
  8
0
 62
9
  6
CONTINUOUS
 66
1
 70
0
  0
VERTEX
  8
0
 62
9
  6
CONTINUOUS
 10
40.2446034147
 20
93.0487590236
  0
VERTEX
  8
0
 62
9
  6
CONTINUOUS
 10
40.2518072213
 20
93.028756641
  0
VERTEX
  8
0
 62
9
  6
CONTINUOUS
 10
40.2611960341
 20
92.977348626
  0
VERTEX
  8
0
 62
9
  6
CONTINUOUS
 10
40.2721531103
 20
92.8979119255
  0
VERTEX
  8
0
 62
9
  6
CONTINUOUS
 10
40.2839586889
 20
92.795664666
  0
VERTEX
  8
0
 62
9
  6
CONTINUOUS
 10
40.295837272
 20
92.6773233794
  0
VERTEX
  8
0
 62
9
  6
CONTINUOUS
 10
40.3070085655
 20
92.5506617999
  0
SEQEND
  0
LINE
  8
0
 62
9
  6
CONTINUOUS
 10
51.1842019561
 20
92.3510029897
 11
51.1842019561
 21
83.7693471197
  0
LINE
  8
0
 62
9
  6
CONTINUOUS
 10
52.1950143082
 20
83.7482605108
 11
52.1950143082
 21
92.3720895986
  0
LINE
  8
0
 62
9
  6
CONTINUOUS
 10
53.2264445171
 20
83.6418383183
 11
53.2264445171
 21
92.4785117911
  0
LINE
  8
0
 62
9
  6
CONTINUOUS
 10
55.5960017565
 20
83.5601750547
 11
55.5960017565
 21
92.5601750547
  0
LINE
  8
0
 62
9
  6
CONTINUOUS
 10
57.2660487201
 20
83.5601750547
 11
57.2660487201
 21
92.5601750547
  0
LINE
  8
1_AXIS
 62
7
  6
CONTINUOUS
 10
59.1143326039
 20
98.5601750547
 11
59.1143326039
 21
95.0601750547
  0
LINE
  8
1_AXIS
 62
7
  6
CONTINUOUS
 10
59.1143326039
 20
81.0601750547
 11
59.1143326039
 21
77.5601750547
  0
LINE
  8
0
 62
9
  6
CONTINUOUS
 10
37.7758734332
 20
93.043137804
 11
37.7681101288
 21
93.037907792
  0
POLYLINE
  8
0
 62
9
  6
CONTINUOUS
 66
1
 70
0
  0
VERTEX
  8
0
 62
9
  6
CONTINUOUS
 10
34.127120845
 20
92.8701462472
  0
VERTEX
  8
0
 62
9
  6
CONTINUOUS
 10
34.097950658
 20
92.8513732226
  0
VERTEX
  8
0
 62
9
  6
CONTINUOUS
 10
34.0731501832
 20
92.8006104362
  0
VERTEX
  8
0
 62
9
  6
CONTINUOUS
 10
34.0548831424
 20
92.7212824373
  0
VERTEX
  8
0
 62
9
  6
CONTINUOUS
 10
34.0443672172
 20
92.6186772328
  0
VERTEX
  8
0
 62
9
  6
CONTINUOUS
 10
34.0423033994
 20
92.4996344889
  0
VERTEX
  8
0
 62
9
  6
CONTINUOUS
 10
34.0488292632
 20
92.3720895986
  0
SEQEND
  0
POLYLINE
  8
0
 62
9
  6
CONTINUOUS
 66
1
 70
0
  0
VERTEX
  8
0
 62
9
  6
CONTINUOUS
 10
35.3316495919
 20
92.9766091305
  0
VERTEX
  8
0
 62
9
  6
CONTINUOUS
 10
35.3019793561
 20
92.9577577772
  0
VERTEX
  8
0
 62
9
  6
CONTINUOUS
 10
35.2771869594
 20
92.906974542
  0
VERTEX
  8
0
 62
9
  6
CONTINUOUS
 10
35.2589243048
 20
92.8276430825
  0
VERTEX
  8
0
 62
9
  6
CONTINUOUS
 10
35.2484082224
 20
92.7250492076
  0
VERTEX
  8
0
 62
9
  6
CONTINUOUS
 10
35.2463393926
 20
92.6060286877
  0
VERTEX
  8
0
 62
9
  6
CONTINUOUS
 10
35.2528556604
 20
92.4785117911
  0
SEQEND
  0
POLYLINE
  8
0
 62
9
  6
CONTINUOUS
 66
1
 70
0
  0
VERTEX
  8
0
 62
9
  6
CONTINUOUS
 10
35.3316495911
 20
83.1437409693
  0
VERTEX
  8
0
 62
9
  6
CONTINUOUS
 10
35.3019793603
 20
83.16259234
  0
VERTEX
  8
0
 62
9
  6
CONTINUOUS
 10
35.2771869687
 20
83.2133755855
  0
VERTEX
  8
0
 62
9
  6
CONTINUOUS
 10
35.2589243185
 20
83.2927070482
  0
VERTEX
  8
0
 62
9
  6
CONTINUOUS
 10
35.2484082393
 20
83.3953009199
  0
VERTEX
  8
0
 62
9
  6
CONTINUOUS
 10
35.2463394111
 20
83.5143214319
  0
VERTEX
  8
0
 62
9
  6
CONTINUOUS
 10
35.2528556789
 20
83.6418383183
  0
SEQEND
  0
POLYLINE
  8
0
 62
9
  6
CONTINUOUS
 66
1
 70
0
  0
VERTEX
  8
0
 62
9
  6
CONTINUOUS
 10
34.1271208511
 20
83.2502038725
  0
VERTEX
  8
0
 62
9
  6
CONTINUOUS
 10
34.097951065
 20
83.2689774887
  0
VERTEX
  8
0
 62
9
  6
CONTINUOUS
 10
34.0731509839
 20
83.3197406043
  0
VERTEX
  8
0
 62
9
  6
CONTINUOUS
 10
34.0548842854
 20
83.3990686604
  0
VERTEX
  8
0
 62
9
  6
CONTINUOUS
 10
34.0443686191
 20
83.5016736845
  0
VERTEX
  8
0
 62
9
  6
CONTINUOUS
 10
34.0423049546
 20
83.620716072
  0
VERTEX
  8
0
 62
9
  6
CONTINUOUS
 10
34.0488308544
 20
83.7482605108
  0
SEQEND
  0
LINE
  8
0
 62
9
  6
CONTINUOUS
 10
37.7758738042
 20
83.0772121437
 11
37.7681130198
 21
83.0824404345
  0
LINE
  8
0
 62
9
  6
CONTINUOUS
 10
65.6491551843
 20
83.5601750547
 11
65.6491551843
 21
92.5601750547
  0
POLYLINE
  8
0
 62
9
  6
CONTINUOUS
 66
1
 70
0
  0
VERTEX
  8
0
 62
9
  6
CONTINUOUS
 10
39.39373462
 20
83.1437409693
  0
VERTEX
  8
0
 62
9
  6
CONTINUOUS
 10
39.4171396804
 20
83.16259234
  0
VERTEX
  8
0
 62
9
  6
CONTINUOUS
 10
39.4416857406
 20
83.2133755855
  0
VERTEX
  8
0
 62
9
  6
CONTINUOUS
 10
39.4657373113
 20
83.2927070482
  0
VERTEX
  8
0
 62
9
  6
CONTINUOUS
 10
39.4876918506
 20
83.3953009199
  0
VERTEX
  8
0
 62
9
  6
CONTINUOUS
 10
39.5060865405
 20
83.5143214319
  0
VERTEX
  8
0
 62
9
  6
CONTINUOUS
 10
39.5196957539
 20
83.6418383183
  0
SEQEND
  0
POLYLINE
  8
0
 62
9
  6
CONTINUOUS
 66
1
 70
0
  0
VERTEX
  8
0
 62
9
  6
CONTINUOUS
 10
38.1701617183
 20
83.2501631602
  0
VERTEX
  8
0
 62
9
  6
CONTINUOUS
 10
38.1935708412
 20
83.2689774887
  0
VERTEX
  8
0
 62
9
  6
CONTINUOUS
 10
38.2181256395
 20
83.3197406043
  0
VERTEX
  8
0
 62
9
  6
CONTINUOUS
 10
38.2421893013
 20
83.3990686604
  0
VERTEX
  8
0
 62
9
  6
CONTINUOUS
 10
38.2641577536
 20
83.5016736845
  0
VERTEX
  8
0
 62
9
  6
CONTINUOUS
 10
38.2825665892
 20
83.620716072
  0
VERTEX
  8
0
 62
9
  6
CONTINUOUS
 10
38.2961886829
 20
83.7482605108
  0
SEQEND
  0
POLYLINE
  8
0
 62
9
  6
CONTINUOUS
 66
1
 70
0
  0
VERTEX
  8
0
 62
9
  6
CONTINUOUS
 10
42.1932425263
 20
93.0601750547
  0
VERTEX
  8
0
 62
9
  6
CONTINUOUS
 10
42.1620644165
 20
93.043137804
  0
VERTEX
  8
0
 62
9
  6
CONTINUOUS
 10
42.1330111234
 20
92.9931872665
  0
VERTEX
  8
0
 62
9
  6
CONTINUOUS
 10
42.1080625709
 20
92.9137277075
  0
VERTEX
  8
0
 62
9
  6
CONTINUOUS
 10
42.0889189275
 20
92.8101743143
  0
VERTEX
  8
0
 62
9
  6
CONTINUOUS
 10
42.0768847563
 20
92.6895841155
  0
VERTEX
  8
0
 62
9
  6
CONTINUOUS
 10
42.0727801295
 20
92.5601750547
  0
SEQEND
  0
POLYLINE
  8
0
 62
9
  6
CONTINUOUS
 66
1
 70
0
  0
VERTEX
  8
0
 62
9
  6
CONTINUOUS
 10
42.1932425264
 20
83.0601750547
  0
VERTEX
  8
0
 62
9
  6
CONTINUOUS
 10
42.1620644885
 20
83.0772122254
  0
VERTEX
  8
0
 62
9
  6
CONTINUOUS
 10
42.1330112254
 20
83.1271625986
  0
VERTEX
  8
0
 62
9
  6
CONTINUOUS
 10
42.1080626611
 20
83.2066220281
  0
VERTEX
  8
0
 62
9
  6
CONTINUOUS
 10
42.0889189804
 20
83.3101754156
  0
VERTEX
  8
0
 62
9
  6
CONTINUOUS
 10
42.0768847718
 20
83.4307657555
  0
VERTEX
  8
0
 62
9
  6
CONTINUOUS
 10
42.0727801296
 20
83.5601750547
  0
SEQEND
  0
POLYLINE
  8
0
 62
9
  6
CONTINUOUS
 66
1
 70
0
  0
VERTEX
  8
0
 62
9
  6
CONTINUOUS
 10
38.1701617184
 20
92.8701869476
  0
VERTEX
  8
0
 62
9
  6
CONTINUOUS
 10
38.1935710471
 20
92.8513732226
  0
VERTEX
  8
0
 62
9
  6
CONTINUOUS
 10
38.218126078
 20
92.8006104362
  0
VERTEX
  8
0
 62
9
  6
CONTINUOUS
 10
38.2421899718
 20
92.7212824373
  0
VERTEX
  8
0
 62
9
  6
CONTINUOUS
 10
38.2641586287
 20
92.6186772328
  0
VERTEX
  8
0
 62
9
  6
CONTINUOUS
 10
38.2825676173
 20
92.4996344889
  0
VERTEX
  8
0
 62
9
  6
CONTINUOUS
 10
38.2961897938
 20
92.3720895986
  0
SEQEND
  0
POLYLINE
  8
0
 62
9
  6
CONTINUOUS
 66
1
 70
0
  0
VERTEX
  8
0
 62
9
  6
CONTINUOUS
 10
39.3937346213
 20
92.9766091243
  0
VERTEX
  8
0
 62
9
  6
CONTINUOUS
 10
39.4171396834
 20
92.957757784
  0
VERTEX
  8
0
 62
9
  6
CONTINUOUS
 10
39.4416857473
 20
92.9069745565
  0
VERTEX
  8
0
 62
9
  6
CONTINUOUS
 10
39.4657373226
 20
92.8276430991
  0
VERTEX
  8
0
 62
9
  6
CONTINUOUS
 10
39.4876918666
 20
92.7250492216
  0
VERTEX
  8
0
 62
9
  6
CONTINUOUS
 10
39.5060865605
 20
92.6060286957
  0
VERTEX
  8
0
 62
9
  6
CONTINUOUS
 10
39.5196957765
 20
92.4785117911
  0
SEQEND
  0
POLYLINE
  8
0
 62
7
  6
CONTINUOUS
 66
1
 70
0
  0
VERTEX
  8
0
 62
7
  6
CONTINUOUS
 10
66.0645336144
 20
83.7550777402
  0
VERTEX
  8
0
 62
7
  6
CONTINUOUS
 10
66.0742475851
 20
83.6568177308
  0
VERTEX
  8
0
 62
7
  6
CONTINUOUS
 10
66.0992043179
 20
83.5717750655
  0
VERTEX
  8
0
 62
7
  6
CONTINUOUS
 10
66.1372427189
 20
83.4948600341
  0
VERTEX
  8
0
 62
7
  6
CONTINUOUS
 10
66.1857513506
 20
83.4278960178
  0
VERTEX
  8
0
 62
7
  6
CONTINUOUS
 10
66.2418793626
 20
83.3720017918
  0
VERTEX
  8
0
 62
7
  6
CONTINUOUS
 10
66.3025180701
 20
83.32767533
  0
VERTEX
  8
0
 62
7
  6
CONTINUOUS
 10
66.3646791743
 20
83.2945316443
  0
VERTEX
  8
0
 62
7
  6
CONTINUOUS
 10
66.426113566
 20
83.2712316441
  0
SEQEND
  0
LINE
  8
2_FEATURE
 62
7
  6
CONTINUOUS
 10
66.0645331893
 20
92.3653239996
 11
66.0645331893
 21
83.7550261098
  0
LINE
  8
0
 62
9
  6
CONTINUOUS
 10
66.5008995023
 20
92.3510029897
 11
66.5008995023
 21
83.7693471197
  0
POLYLINE
  8
0
 62
9
  6
CONTINUOUS
 66
1
 70
0
  0
VERTEX
  8
0
 62
9
  6
CONTINUOUS
 10
36.1463416185
 20
93.0487590212
  0
VERTEX
  8
0
 62
9
  6
CONTINUOUS
 10
36.1015218474
 20
93.0287566389
  0
VERTEX
  8
0
 62
9
  6
CONTINUOUS
 10
36.0625066932
 20
92.9773486244
  0
VERTEX
  8
0
 62
9
  6
CONTINUOUS
 10
36.0318590267
 20
92.8979119244
  0
SEQEND
  0
POLYLINE
  8
0
 62
9
  6
CONTINUOUS
 66
1
 70
0
  0
VERTEX
  8
0
 62
9
  6
CONTINUOUS
 10
36.1463416093
 20
83.0715909827
  0
VERTEX
  8
0
 62
9
  6
CONTINUOUS
 10
36.101521826
 20
83.0915933423
  0
VERTEX
  8
0
 62
9
  6
CONTINUOUS
 10
36.0625066593
 20
83.1430013548
  0
VERTEX
  8
0
 62
9
  6
CONTINUOUS
 10
36.0318589823
 20
83.2224380715
  0
SEQEND
  0
LINE
  8
0
 62
9
  6
CONTINUOUS
 10
72.3786008043
 20
92.3510029897
 11
72.3786008043
 21
83.7693471197
  0
LINE
  8
0
 62
9
  6
CONTINUOUS
 10
73.3420697809
 20
83.7482605108
 11
73.3420697809
 21
92.3720895986
  0
LINE
  8
0
 62
9
  6
CONTINUOUS
 10
74.0030805853
 20
83.6418383183
 11
74.0030805853
 21
92.4785117911
  0
LINE
  8
0
 62
9
  6
CONTINUOUS
 10
66.8573213872
 20
92.9931875994
 11
66.8471854976
 21
92.9853347428
  0
POLYLINE
  8
0
 62
9
  6
CONTINUOUS
 66
1
 70
0
  0
VERTEX
  8
0
 62
9
  6
CONTINUOUS
 10
36.4045548549
 20
93.0601750547
  0
VERTEX
  8
0
 62
9
  6
CONTINUOUS
 10
36.3530108781
 20
93.0431379651
  0
VERTEX
  8
0
 62
9
  6
CONTINUOUS
 10
36.3049795404
 20
92.9931877484
  0
VERTEX
  8
0
 62
9
  6
CONTINUOUS
 10
36.2637340977
 20
92.9137284331
  0
VERTEX
  8
0
 62
9
  6
CONTINUOUS
 10
36.2573112575
 20
92.8927131608
  0
SEQEND
  0
POLYLINE
  8
0
 62
7
  6
CONTINUOUS
 66
1
 70
0
  0
VERTEX
  8
0
 62
7
  6
CONTINUOUS
 10
35.7713943472
 20
92.8361508312
  0
VERTEX
  8
0
 62
7
  6
CONTINUOUS
 10
35.7356783217
 20
92.8252757974
  0
VERTEX
  8
0
 62
7
  6
CONTINUOUS
 10
35.6991193553
 20
92.8110739372
  0
VERTEX
  8
0
 62
7
  6
CONTINUOUS
 10
35.6617808384
 20
92.7930153334
  0
VERTEX
  8
0
 62
7
  6
CONTINUOUS
 10
35.624408939
 20
92.7708664649
  0
VERTEX
  8
0
 62
7
  6
CONTINUOUS
 10
35.5876175378
 20
92.7444033865
  0
VERTEX
  8
0
 62
7
  6
CONTINUOUS
 10
35.552153151
 20
92.7135657933
  0
VERTEX
  8
0
 62
7
  6
CONTINUOUS
 10
35.5188291147
 20
92.6784883413
  0
VERTEX
  8
0
 62
7
  6
CONTINUOUS
 10
35.4884187484
 20
92.6394630791
  0
VERTEX
  8
0
 62
7
  6
CONTINUOUS
 10
35.4615457572
 20
92.5967980162
  0
VERTEX
  8
0
 62
7
  6
CONTINUOUS
 10
35.4388008505
 20
92.5509469178
  0
VERTEX
  8
0
 62
7
  6
CONTINUOUS
 10
35.4206901156
 20
92.5024734809
  0
VERTEX
  8
0
 62
7
  6
CONTINUOUS
 10
35.4076104651
 20
92.4520276319
  0
VERTEX
  8
0
 62
7
  6
CONTINUOUS
 10
35.3998340981
 20
92.400323851
  0
SEQEND
  0
POLYLINE
  8
0
 62
9
  6
CONTINUOUS
 66
1
 70
0
  0
VERTEX
  8
0
 62
9
  6
CONTINUOUS
 10
36.4045548549
 20
83.0601750547
  0
VERTEX
  8
0
 62
9
  6
CONTINUOUS
 10
36.3530108715
 20
83.0772121463
  0
VERTEX
  8
0
 62
9
  6
CONTINUOUS
 10
36.3049795297
 20
83.1271623677
  0
VERTEX
  8
0
 62
9
  6
CONTINUOUS
 10
36.2637340862
 20
83.2066216881
  0
VERTEX
  8
0
 62
9
  6
CONTINUOUS
 10
36.2573112663
 20
83.2276368959
  0
SEQEND
  0
LINE
  8
0
 62
9
  6
CONTINUOUS
 10
66.8573204799
 20
83.1271630389
 11
66.8470105549
 21
83.1351507671
  0
LINE
  8
0
 62
9
  6
CONTINUOUS
 10
75.779392715
 20
83.5601750547
 11
75.779392715
 21
92.5601750547
  0
LINE
  8
0
 62
9
  6
CONTINUOUS
 10
77.4951511811
 20
83.5601750547
 11
77.4951511811
 21
92.5601750547
  0
POLYLINE
  8
0
 62
9
  6
CONTINUOUS
 66
1
 70
0
  0
VERTEX
  8
0
 62
9
  6
CONTINUOUS
 10
55.5086717708
 20
83.0601750547
  0
VERTEX
  8
0
 62
9
  6
CONTINUOUS
 10
55.5312744889
 20
83.0772122254
  0
VERTEX
  8
0
 62
9
  6
CONTINUOUS
 10
55.552336838
 20
83.1271625986
  0
VERTEX
  8
0
 62
9
  6
CONTINUOUS
 10
55.5704234595
 20
83.2066220281
  0
VERTEX
  8
0
 62
9
  6
CONTINUOUS
 10
55.5843017933
 20
83.3101754156
  0
VERTEX
  8
0
 62
9
  6
CONTINUOUS
 10
55.5930260699
 20
83.4307657555
  0
VERTEX
  8
0
 62
9
  6
CONTINUOUS
 10
55.5960017565
 20
83.5601750547
  0
SEQEND
  0
LINE
  8
0
 62
7
  6
CONTINUOUS
 10
66.8513980118
 20
92.9871249179
 11
66.8517036068
 21
92.9873441537
  0
LINE
  8
0
 62
7
  6
CONTINUOUS
 10
66.8520510208
 20
92.9874892263
 11
66.8513980118
 21
92.9871249179
  0
POLYLINE
  8
0
 62
9
  6
CONTINUOUS
 66
1
 70
0
  0
VERTEX
  8
0
 62
9
  6
CONTINUOUS
 10
67.075012488
 20
93.048759149
  0
VERTEX
  8
0
 62
9
  6
CONTINUOUS
 10
67.0223376732
 20
93.0230547375
  0
VERTEX
  8
0
 62
9
  6
CONTINUOUS
 10
66.9612310879
 20
92.9989715789
  0
VERTEX
  8
0
 62
9
  6
CONTINUOUS
 10
66.8946622131
 20
92.9766091401
  0
SEQEND
  0
LINE
  8
0
 62
7
  6
CONTINUOUS
 10
66.8517036068
 20
92.9873441537
 11
66.849044029
 21
92.9860850666
  0
POLYLINE
  8
0
 62
9
  6
CONTINUOUS
 66
1
 70
0
  0
VERTEX
  8
0
 62
9
  6
CONTINUOUS
 10
66.5559239338
 20
92.8701869476
  0
VERTEX
  8
0
 62
9
  6
CONTINUOUS
 10
66.5455075059
 20
92.8652688157
  0
VERTEX
  8
0
 62
9
  6
CONTINUOUS
 10
66.5466018966
 20
92.8607332746
  0
VERTEX
  8
0
 62
9
  6
CONTINUOUS
 10
66.5591827339
 20
92.8567616209
  0
VERTEX
  8
0
 62
9
  6
CONTINUOUS
 10
66.5827613526
 20
92.8535053558
  0
VERTEX
  8
0
 62
9
  6
CONTINUOUS
 10
66.6164326744
 20
92.851087651
  0
VERTEX
  8
0
 62
9
  6
CONTINUOUS
 10
66.6588902747
 20
92.8496005334
  0
VERTEX
  8
0
 62
9
  6
CONTINUOUS
 10
66.7083625791
 20
92.8491003388
  0
SEQEND
  0
POLYLINE
  8
0
 62
9
  6
CONTINUOUS
 66
1
 70
0
  0
VERTEX
  8
0
 62
9
  6
CONTINUOUS
 10
66.7083625791
 20
92.8491003388
  0
VERTEX
  8
0
 62
9
  6
CONTINUOUS
 10
66.6535537969
 20
92.8232869349
  0
VERTEX
  8
0
 62
9
  6
CONTINUOUS
 10
66.6032833785
 20
92.7687473391
  0
VERTEX
  8
0
 62
9
  6
CONTINUOUS
 10
66.5606090164
 20
92.6887987116
  0
VERTEX
  8
0
 62
9
  6
CONTINUOUS
 10
66.528126404
 20
92.5883037683
  0
VERTEX
  8
0
 62
9
  6
CONTINUOUS
 10
66.507811334
 20
92.4733750235
  0
VERTEX
  8
0
 62
9
  6
CONTINUOUS
 10
66.5008995023
 20
92.3510029897
  0
SEQEND
  0
POLYLINE
  8
0
 62
9
  6
CONTINUOUS
 66
1
 70
0
  0
VERTEX
  8
0
 62
9
  6
CONTINUOUS
 10
51.5067412419
 20
92.8491003388
  0
VERTEX
  8
0
 62
9
  6
CONTINUOUS
 10
51.4215310417
 20
92.8232869711
  0
VERTEX
  8
0
 62
9
  6
CONTINUOUS
 10
51.3433765426
 20
92.7687474616
  0
VERTEX
  8
0
 62
9
  6
CONTINUOUS
 10
51.2770314565
 20
92.688798934
  0
VERTEX
  8
0
 62
9
  6
CONTINUOUS
 10
51.2265312569
 20
92.5883040422
  0
VERTEX
  8
0
 62
9
  6
CONTINUOUS
 10
51.1949477
 20
92.4733752362
  0
VERTEX
  8
0
 62
9
  6
CONTINUOUS
 10
51.1842019564
 20
92.3510029897
  0
SEQEND
  0
POLYLINE
  8
0
 62
9
  6
CONTINUOUS
 66
1
 70
0
  0
VERTEX
  8
0
 62
9
  6
CONTINUOUS
 10
140.9947284266
 20
83.2712497706
  0
VERTEX
  8
0
 62
9
  6
CONTINUOUS
 10
141.0884838477
 20
83.2970631885
  0
VERTEX
  8
0
 62
9
  6
CONTINUOUS
 10
141.1744759653
 20
83.3516028054
  0
VERTEX
  8
0
 62
9
  6
CONTINUOUS
 10
141.247474323
 20
83.4315514467
  0
VERTEX
  8
0
 62
9
  6
CONTINUOUS
 10
141.3030387607
 20
83.532046388
  0
VERTEX
  8
0
 62
9
  6
CONTINUOUS
 10
141.3377895154
 20
83.6469751145
  0
VERTEX
  8
0
 62
9
  6
CONTINUOUS
 10
141.349612824
 20
83.7693471197
  0
SEQEND
  0
POLYLINE
  8
0
 62
9
  6
CONTINUOUS
 66
1
 70
0
  0
VERTEX
  8
0
 62
9
  6
CONTINUOUS
 10
150.3898470971
 20
83.2712497706
  0
VERTEX
  8
0
 62
9
  6
CONTINUOUS
 10
150.5023914442
 20
83.2970631008
  0
VERTEX
  8
0
 62
9
  6
CONTINUOUS
 10
150.6056167804
 20
83.3516025486
  0
VERTEX
  8
0
 62
9
  6
CONTINUOUS
 10
150.6932444638
 20
83.4315510292
  0
VERTEX
  8
0
 62
9
  6
CONTINUOUS
 10
150.7599444756
 20
83.5320459174
  0
VERTEX
  8
0
 62
9
  6
CONTINUOUS
 10
150.8016596511
 20
83.6469747748
  0
VERTEX
  8
0
 62
9
  6
CONTINUOUS
 10
150.8158525031
 20
83.7693471197
  0
SEQEND
  0
POLYLINE
  8
0
 62
9
  6
CONTINUOUS
 66
1
 70
0
  0
VERTEX
  8
0
 62
9
  6
CONTINUOUS
 10
152.3631078917
 20
83.2712497706
  0
VERTEX
  8
0
 62
9
  6
CONTINUOUS
 10
152.4795988855
 20
83.2970632303
  0
VERTEX
  8
0
 62
9
  6
CONTINUOUS
 10
152.586443916
 20
83.3516029104
  0
VERTEX
  8
0
 62
9
  6
CONTINUOUS
 10
152.6771441692
 20
83.431551593
  0
VERTEX
  8
0
 62
9
  6
CONTINUOUS
 10
152.7461827886
 20
83.5320465285
  0
VERTEX
  8
0
 62
9
  6
CONTINUOUS
 10
152.7893604626
 20
83.6469752002
  0
VERTEX
  8
0
 62
9
  6
CONTINUOUS
 10
152.8040508734
 20
83.7693471197
  0
SEQEND
  0
LINE
  8
0
 62
9
  6
CONTINUOUS
 10
150.3732237633
 20
83.0601750547
 11
150.4527919237
 21
83.0772123703
  0
LINE
  8
0
 62
9
  6
CONTINUOUS
 10
37.8554414446
 20
83.0601750547
 11
37.7758738042
 21
83.0772121437
  0
POLYLINE
  8
0
 62
7
  6
CONTINUOUS
 66
1
 70
0
  0
VERTEX
  8
0
 62
7
  6
CONTINUOUS
 10
35.7818668782
 20
83.2815311895
  0
VERTEX
  8
0
 62
7
  6
CONTINUOUS
 10
35.8125623538
 20
83.2749457099
  0
VERTEX
  8
0
 62
7
  6
CONTINUOUS
 10
35.8360898526
 20
83.2709625069
  0
VERTEX
  8
0
 62
7
  6
CONTINUOUS
 10
35.85680842
 20
83.2679909395
  0
VERTEX
  8
0
 62
7
  6
CONTINUOUS
 10
35.8778310499
 20
83.2652968169
  0
VERTEX
  8
0
 62
7
  6
CONTINUOUS
 10
35.9013699944
 20
83.2625179832
  0
VERTEX
  8
0
 62
7
  6
CONTINUOUS
 10
35.9290366501
 20
83.2594590662
  0
SEQEND
  0
POLYLINE
  8
0
 62
9
  6
CONTINUOUS
 66
1
 70
0
  0
VERTEX
  8
0
 62
9
  6
CONTINUOUS
 10
35.8655573162
 20
83.2712497706
  0
VERTEX
  8
0
 62
9
  6
CONTINUOUS
 10
35.7490666824
 20
83.2970631008
  0
VERTEX
  8
0
 62
9
  6
CONTINUOUS
 10
35.6422218238
 20
83.3516025486
  0
VERTEX
  8
0
 62
9
  6
CONTINUOUS
 10
35.5515215383
 20
83.4315510292
  0
VERTEX
  8
0
 62
9
  6
CONTINUOUS
 10
35.4824827381
 20
83.5320459174
  0
VERTEX
  8
0
 62
9
  6
CONTINUOUS
 10
35.4393048493
 20
83.6469747748
  0
VERTEX
  8
0
 62
9
  6
CONTINUOUS
 10
35.4246143345
 20
83.7693471197
  0
SEQEND
  0
POLYLINE
  8
0
 62
9
  6
CONTINUOUS
 66
1
 70
0
  0
VERTEX
  8
0
 62
9
  6
CONTINUOUS
 10
37.8388181107
 20
83.2712497706
  0
VERTEX
  8
0
 62
9
  6
CONTINUOUS
 10
37.7262735548
 20
83.2970631787
  0
VERTEX
  8
0
 62
9
  6
CONTINUOUS
 10
37.6230480983
 20
83.3516027809
  0
VERTEX
  8
0
 62
9
  6
CONTINUOUS
 10
37.5354204168
 20
83.4315514126
  0
VERTEX
  8
0
 62
9
  6
CONTINUOUS
 10
37.4687205126
 20
83.5320463552
  0
VERTEX
  8
0
 62
9
  6
CONTINUOUS
 10
37.4270054819
 20
83.6469750946
  0
VERTEX
  8
0
 62
9
  6
CONTINUOUS
 10
37.4128127048
 20
83.7693471197
  0
SEQEND
  0
POLYLINE
  8
0
 62
9
  6
CONTINUOUS
 66
1
 70
0
  0
VERTEX
  8
0
 62
9
  6
CONTINUOUS
 10
47.2339367813
 20
83.2712497706
  0
VERTEX
  8
0
 62
9
  6
CONTINUOUS
 10
47.1401815569
 20
83.2970631008
  0
VERTEX
  8
0
 62
9
  6
CONTINUOUS
 10
47.0541895472
 20
83.3516025486
  0
VERTEX
  8
0
 62
9
  6
CONTINUOUS
 10
46.9811911836
 20
83.4315510292
  0
VERTEX
  8
0
 62
9
  6
CONTINUOUS
 10
46.9256266456
 20
83.5320459174
  0
VERTEX
  8
0
 62
9
  6
CONTINUOUS
 10
46.89087576
 20
83.6469747748
  0
VERTEX
  8
0
 62
9
  6
CONTINUOUS
 10
46.8790523839
 20
83.7693471197
  0
SEQEND
  0
POLYLINE
  8
0
 62
9
  6
CONTINUOUS
 66
1
 70
0
  0
VERTEX
  8
0
 62
9
  6
CONTINUOUS
 10
51.5067412419
 20
83.2712497706
  0
VERTEX
  8
0
 62
9
  6
CONTINUOUS
 10
51.4215307851
 20
83.2970632648
  0
VERTEX
  8
0
 62
9
  6
CONTINUOUS
 10
51.3433761678
 20
83.3516029972
  0
VERTEX
  8
0
 62
9
  6
CONTINUOUS
 10
51.2770311085
 20
83.4315517139
  0
VERTEX
  8
0
 62
9
  6
CONTINUOUS
 10
51.2265310373
 20
83.5320466447
  0
VERTEX
  8
0
 62
9
  6
CONTINUOUS
 10
51.1949476292
 20
83.6469752709
  0
VERTEX
  8
0
 62
9
  6
CONTINUOUS
 10
51.1842019561
 20
83.7693471197
  0
SEQEND
  0
POLYLINE
  8
0
 62
9
  6
CONTINUOUS
 66
1
 70
0
  0
VERTEX
  8
0
 62
9
  6
CONTINUOUS
 10
66.7083625791
 20
83.2712497706
  0
VERTEX
  8
0
 62
9
  6
CONTINUOUS
 10
66.6535538942
 20
83.2970631008
  0
VERTEX
  8
0
 62
9
  6
CONTINUOUS
 10
66.6032835331
 20
83.3516025486
  0
VERTEX
  8
0
 62
9
  6
CONTINUOUS
 10
66.5606091716
 20
83.4315510292
  0
VERTEX
  8
0
 62
9
  6
CONTINUOUS
 10
66.5281265093
 20
83.5320459174
  0
VERTEX
  8
0
 62
9
  6
CONTINUOUS
 10
66.5078113706
 20
83.6469747748
  0
VERTEX
  8
0
 62
9
  6
CONTINUOUS
 10
66.5008995025
 20
83.7693471197
  0
SEQEND
  0
LINE
  8
0
 62
7
  6
CONTINUOUS
 10
66.852051203
 20
83.132860959
 11
66.8885573671
 21
83.114110276
  0
LINE
  8
0
 62
7
  6
CONTINUOUS
 10
66.852051203
 20
83.132860959
 11
66.851417822
 21
83.1332142978
  0
POLYLINE
  8
0
 62
9
  6
CONTINUOUS
 66
1
 70
0
  0
VERTEX
  8
0
 62
9
  6
CONTINUOUS
 10
55.5086717708
 20
93.0601750547
  0
VERTEX
  8
0
 62
9
  6
CONTINUOUS
 10
55.531274541
 20
93.043137804
  0
VERTEX
  8
0
 62
9
  6
CONTINUOUS
 10
55.5523369119
 20
92.9931872665
  0
VERTEX
  8
0
 62
9
  6
CONTINUOUS
 10
55.5704235247
 20
92.9137277075
  0
VERTEX
  8
0
 62
9
  6
CONTINUOUS
 10
55.5843018315
 20
92.8101743143
  0
VERTEX
  8
0
 62
9
  6
CONTINUOUS
 10
55.5930260809
 20
92.6895841155
  0
VERTEX
  8
0
 62
9
  6
CONTINUOUS
 10
55.5960017564
 20
92.5601750547
  0
SEQEND
  0
POLYLINE
  8
0
 62
9
  6
CONTINUOUS
 66
1
 70
0
  0
VERTEX
  8
0
 62
9
  6
CONTINUOUS
 10
72.5419039973
 20
92.8491003388
  0
VERTEX
  8
0
 62
9
  6
CONTINUOUS
 10
72.4987616625
 20
92.8232869711
  0
VERTEX
  8
0
 62
9
  6
CONTINUOUS
 10
72.4591916632
 20
92.7687474616
  0
VERTEX
  8
0
 62
9
  6
CONTINUOUS
 10
72.4256008267
 20
92.688798934
  0
VERTEX
  8
0
 62
9
  6
CONTINUOUS
 10
72.4000323327
 20
92.5883040422
  0
VERTEX
  8
0
 62
9
  6
CONTINUOUS
 10
72.3840414262
 20
92.4733752362
  0
VERTEX
  8
0
 62
9
  6
CONTINUOUS
 10
72.3786008048
 20
92.3510029897
  0
SEQEND
  0
LINE
  8
0
 62
9
  6
CONTINUOUS
 10
66.976755539
 20
93.0431379141
 11
66.8573213872
 21
92.9931875994
  0
LINE
  8
0
 62
7
  6
CONTINUOUS
 10
66.849044029
 20
92.9860850666
 11
66.8161815951
 21
92.9728178873
  0
POLYLINE
  8
0
 62
7
  6
CONTINUOUS
 66
1
 70
0
  0
VERTEX
  8
0
 62
7
  6
CONTINUOUS
 10
66.4260953508
 20
92.8491127446
  0
VERTEX
  8
0
 62
7
  6
CONTINUOUS
 10
66.3681003588
 20
92.8273429507
  0
VERTEX
  8
0
 62
7
  6
CONTINUOUS
 10
66.3054254784
 20
92.7944751258
  0
VERTEX
  8
0
 62
7
  6
CONTINUOUS
 10
66.2442082169
 20
92.7503179177
  0
VERTEX
  8
0
 62
7
  6
CONTINUOUS
 10
66.1874731409
 20
92.694450596
  0
VERTEX
  8
0
 62
7
  6
CONTINUOUS
 10
66.1383830559
 20
92.6273630608
  0
VERTEX
  8
0
 62
7
  6
CONTINUOUS
 10
66.0998333125
 20
92.5501705958
  0
VERTEX
  8
0
 62
7
  6
CONTINUOUS
 10
66.0744830966
 20
92.4647046754
  0
VERTEX
  8
0
 62
7
  6
CONTINUOUS
 10
66.0645336144
 20
92.36527234
  0
SEQEND
  0
POLYLINE
  8
0
 62
7
  6
CONTINUOUS
 66
1
 70
0
  0
VERTEX
  8
0
 62
7
  6
CONTINUOUS
 10
66.9940462011
 20
93.0439356221
  0
VERTEX
  8
0
 62
7
  6
CONTINUOUS
 10
66.8915685719
 20
93.0076482065
  0
VERTEX
  8
0
 62
7
  6
CONTINUOUS
 10
66.852051096
 20
92.9874890912
  0
SEQEND
  0
LINE
  8
0
 62
7
  6
CONTINUOUS
 10
66.8161815951
 20
92.9728178873
 11
66.7652614826
 21
92.9556191261
  0
LINE
  8
0
 62
9
  6
CONTINUOUS
 10
67.1012704058
 20
93.0573167486
 11
67.075012488
 21
93.048759149
  0
LINE
  8
0
 62
7
  6
CONTINUOUS
 10
66.7650836495
 20
92.9555633251
 11
66.4260651819
 21
92.849104195
  0
LINE
  8
0
 62
9
  6
CONTINUOUS
 10
66.8946622131
 20
92.9766091401
 11
66.5559239338
 21
92.8701869476
  0
POLYLINE
  8
0
 62
9
  6
CONTINUOUS
 66
1
 70
0
  0
VERTEX
  8
0
 62
9
  6
CONTINUOUS
 10
122.3244457099
 20
83.0601750547
  0
VERTEX
  8
0
 62
9
  6
CONTINUOUS
 10
122.3904616475
 20
83.0772123703
  0
VERTEX
  8
0
 62
9
  6
CONTINUOUS
 10
122.451978473
 20
83.1271630389
  0
VERTEX
  8
0
 62
9
  6
CONTINUOUS
 10
122.5048039438
 20
83.2066226992
  0
VERTEX
  8
0
 62
9
  6
CONTINUOUS
 10
122.5453381917
 20
83.3101760951
  0
VERTEX
  8
0
 62
9
  6
CONTINUOUS
 10
122.5708190067
 20
83.4307661815
  0
VERTEX
  8
0
 62
9
  6
CONTINUOUS
 10
122.5795100237
 20
83.5601750547
  0
SEQEND
  0
POLYLINE
  8
0
 62
9
  6
CONTINUOUS
 66
1
 70
0
  0
VERTEX
  8
0
 62
9
  6
CONTINUOUS
 10
130.6324347325
 20
83.0601750547
  0
VERTEX
  8
0
 62
9
  6
CONTINUOUS
 10
130.7178920534
 20
83.0772121392
  0
VERTEX
  8
0
 62
9
  6
CONTINUOUS
 10
130.7975256024
 20
83.1271623461
  0
VERTEX
  8
0
 62
9
  6
CONTINUOUS
 10
130.8659084841
 20
83.2066216543
  0
VERTEX
  8
0
 62
9
  6
CONTINUOUS
 10
130.9183805167
 20
83.310175045
  0
VERTEX
  8
0
 62
9
  6
CONTINUOUS
 10
130.9513658162
 20
83.4307655262
  0
VERTEX
  8
0
 62
9
  6
CONTINUOUS
 10
130.9626164877
 20
83.5601750547
  0
SEQEND
  0
POLYLINE
  8
0
 62
7
  6
CONTINUOUS
 66
1
 70
0
  0
VERTEX
  8
0
 62
7
  6
CONTINUOUS
 10
141.0779652433
 20
83.2607895263
  0
VERTEX
  8
0
 62
7
  6
CONTINUOUS
 10
141.1140645286
 20
83.2677366091
  0
VERTEX
  8
0
 62
7
  6
CONTINUOUS
 10
141.1527468927
 20
83.2772591962
  0
VERTEX
  8
0
 62
7
  6
CONTINUOUS
 10
141.1968170238
 20
83.2915433791
  0
VERTEX
  8
0
 62
7
  6
CONTINUOUS
 10
141.2441870166
 20
83.3118090781
  0
VERTEX
  8
0
 62
7
  6
CONTINUOUS
 10
141.2920644534
 20
83.3384059924
  0
VERTEX
  8
0
 62
7
  6
CONTINUOUS
 10
141.33948902
 20
83.3721327384
  0
VERTEX
  8
0
 62
7
  6
CONTINUOUS
 10
141.3846671662
 20
83.4130756356
  0
VERTEX
  8
0
 62
7
  6
CONTINUOUS
 10
141.4253916369
 20
83.4602733942
  0
VERTEX
  8
0
 62
7
  6
CONTINUOUS
 10
141.4606814613
 20
83.51341229
  0
VERTEX
  8
0
 62
7
  6
CONTINUOUS
 10
141.4897617434
 20
83.5725780692
  0
VERTEX
  8
0
 62
7
  6
CONTINUOUS
 10
141.5114984399
 20
83.6376110681
  0
VERTEX
  8
0
 62
7
  6
CONTINUOUS
 10
141.5245114881
 20
83.7081377144
  0
VERTEX
  8
0
 62
7
  6
CONTINUOUS
 10
141.5275842709
 20
83.7635358873
  0
SEQEND
  0
LINE
  8
0
 62
7
  6
CONTINUOUS
 10
141.0391507085
 20
83.2547317949
 11
141.0779652433
 21
83.2607895263
  0
POLYLINE
  8
0
 62
9
  6
CONTINUOUS
 66
1
 70
0
  0
VERTEX
  8
0
 62
9
  6
CONTINUOUS
 10
144.3659612199
 20
83.0601750547
  0
VERTEX
  8
0
 62
9
  6
CONTINUOUS
 10
144.4835568588
 20
83.0772121392
  0
VERTEX
  8
0
 62
9
  6
CONTINUOUS
 10
144.5931385539
 20
83.1271623461
  0
VERTEX
  8
0
 62
9
  6
CONTINUOUS
 10
144.6872384926
 20
83.2066216543
  0
VERTEX
  8
0
 62
9
  6
CONTINUOUS
 10
144.7594439179
 20
83.310175045
  0
VERTEX
  8
0
 62
9
  6
CONTINUOUS
 10
144.8048341469
 20
83.4307655262
  0
VERTEX
  8
0
 62
9
  6
CONTINUOUS
 10
144.820315909
 20
83.5601750547
  0
SEQEND
  0
POLYLINE
  8
0
 62
9
  6
CONTINUOUS
 66
1
 70
0
  0
VERTEX
  8
0
 62
9
  6
CONTINUOUS
 10
152.3329546791
 20
83.2635850435
  0
VERTEX
  8
0
 62
9
  6
CONTINUOUS
 10
152.3573033565
 20
83.266842317
  0
VERTEX
  8
0
 62
9
  6
CONTINUOUS
 10
152.3707097945
 20
83.2692609655
  0
VERTEX
  8
0
 62
9
  6
CONTINUOUS
 10
152.3726596656
 20
83.2707486891
  0
VERTEX
  8
0
 62
9
  6
CONTINUOUS
 10
152.3631078917
 20
83.2712497706
  0
SEQEND
  0
LINE
  8
1_AXIS
 62
7
  6
CONTINUOUS
 10
127.1143326039
 20
75.5601750547
 11
61.1144390202
 21
75.5601750547
  0
POLYLINE
  8
0
 62
9
  6
CONTINUOUS
 66
1
 70
0
  0
VERTEX
  8
0
 62
9
  6
CONTINUOUS
 10
43.862703988
 20
83.0601750547
  0
VERTEX
  8
0
 62
9
  6
CONTINUOUS
 10
43.7451075655
 20
83.0772123703
  0
VERTEX
  8
0
 62
9
  6
CONTINUOUS
 10
43.6355255635
 20
83.1271630389
  0
VERTEX
  8
0
 62
9
  6
CONTINUOUS
 10
43.5414257657
 20
83.2066226992
  0
VERTEX
  8
0
 62
9
  6
CONTINUOUS
 10
43.4692207391
 20
83.3101760951
  0
VERTEX
  8
0
 62
9
  6
CONTINUOUS
 10
43.4238309014
 20
83.4307661815
  0
VERTEX
  8
0
 62
9
  6
CONTINUOUS
 10
43.4083492989
 20
83.5601750547
  0
SEQEND
  0
POLYLINE
  8
0
 62
7
  6
CONTINUOUS
 66
1
 70
0
  0
VERTEX
  8
0
 62
7
  6
CONTINUOUS
 10
47.1456943721
 20
83.2616641412
  0
VERTEX
  8
0
 62
7
  6
CONTINUOUS
 10
47.1868046376
 20
83.2551192292
  0
VERTEX
  8
0
 62
7
  6
CONTINUOUS
 10
47.204507975
 20
83.2526645857
  0
SEQEND
  0
POLYLINE
  8
0
 62
9
  6
CONTINUOUS
 66
1
 70
0
  0
VERTEX
  8
0
 62
9
  6
CONTINUOUS
 10
57.5962304754
 20
83.0601750547
  0
VERTEX
  8
0
 62
9
  6
CONTINUOUS
 10
57.5107725851
 20
83.0772123703
  0
VERTEX
  8
0
 62
9
  6
CONTINUOUS
 10
57.431138813
 20
83.1271630389
  0
VERTEX
  8
0
 62
9
  6
CONTINUOUS
 10
57.3627560338
 20
83.2066226992
  0
VERTEX
  8
0
 62
9
  6
CONTINUOUS
 10
57.3102842909
 20
83.3101760951
  0
VERTEX
  8
0
 62
9
  6
CONTINUOUS
 10
57.2772992758
 20
83.4307661815
  0
VERTEX
  8
0
 62
9
  6
CONTINUOUS
 10
57.2660487202
 20
83.5601750547
  0
SEQEND
  0
POLYLINE
  8
0
 62
9
  6
CONTINUOUS
 66
1
 70
0
  0
VERTEX
  8
0
 62
9
  6
CONTINUOUS
 10
65.904219498
 20
83.0601750547
  0
VERTEX
  8
0
 62
9
  6
CONTINUOUS
 10
65.8382040003
 20
83.0772121392
  0
VERTEX
  8
0
 62
9
  6
CONTINUOUS
 10
65.7766873471
 20
83.1271623461
  0
VERTEX
  8
0
 62
9
  6
CONTINUOUS
 10
65.7238617971
 20
83.2066216543
  0
VERTEX
  8
0
 62
9
  6
CONTINUOUS
 10
65.6833273256
 20
83.310175045
  0
VERTEX
  8
0
 62
9
  6
CONTINUOUS
 10
65.6578462908
 20
83.4307655262
  0
VERTEX
  8
0
 62
9
  6
CONTINUOUS
 10
65.6491551843
 20
83.5601750547
  0
SEQEND
  0
LINE
  8
0
 62
7
  6
CONTINUOUS
 10
66.4260651803
 20
83.2712459149
 11
66.7650836496
 21
83.1647867843
  0
LINE
  8
0
 62
9
  6
CONTINUOUS
 10
66.5559239338
 20
83.2501631618
 11
66.8946622131
 21
83.1437409693
  0
POLYLINE
  8
0
 62
9
  6
CONTINUOUS
 66
1
 70
0
  0
VERTEX
  8
0
 62
9
  6
CONTINUOUS
 10
67.075012488
 20
83.0715909604
  0
VERTEX
  8
0
 62
9
  6
CONTINUOUS
 10
67.1012709137
 20
83.0630332468
  0
VERTEX
  8
0
 62
9
  6
CONTINUOUS
 10
67.1257339319
 20
83.0601750547
  0
SEQEND
  0
POLYLINE
  8
0
 62
9
  6
CONTINUOUS
 66
1
 70
0
  0
VERTEX
  8
0
 62
9
  6
CONTINUOUS
 10
66.8946622131
 20
83.1437409693
  0
VERTEX
  8
0
 62
9
  6
CONTINUOUS
 10
66.9612192787
 20
83.1213827986
  0
VERTEX
  8
0
 62
9
  6
CONTINUOUS
 10
67.0223280857
 20
83.0972995341
  0
VERTEX
  8
0
 62
9
  6
CONTINUOUS
 10
67.075012488
 20
83.0715909604
  0
SEQEND
  0
POLYLINE
  8
0
 62
7
  6
CONTINUOUS
 66
1
 70
0
  0
VERTEX
  8
0
 62
7
  6
CONTINUOUS
 10
66.7652684837
 20
83.1647287886
  0
VERTEX
  8
0
 62
7
  6
CONTINUOUS
 10
66.8151867043
 20
83.1478974256
  0
VERTEX
  8
0
 62
7
  6
CONTINUOUS
 10
66.8362514646
 20
83.1397804524
  0
SEQEND
  0
LINE
  8
0
 62
7
  6
CONTINUOUS
 10
66.8885573671
 20
83.114110276
 11
66.9922151512
 21
83.076873704
  0
POLYLINE
  8
0
 62
9
  6
CONTINUOUS
 66
1
 70
0
  0
VERTEX
  8
0
 62
9
  6
CONTINUOUS
 10
46.7010807653
 20
92.3568160988
  0
VERTEX
  8
0
 62
9
  6
CONTINUOUS
 10
46.7043698221
 20
92.3554103838
  0
VERTEX
  8
0
 62
9
  6
CONTINUOUS
 10
46.7338443058
 20
92.3529934514
  0
VERTEX
  8
0
 62
9
  6
CONTINUOUS
 10
46.7928300123
 20
92.3515052925
  0
VERTEX
  8
0
 62
9
  6
CONTINUOUS
 10
46.8790523838
 20
92.3510029897
  0
SEQEND
  0
LINE
  8
0
 62
7
  6
CONTINUOUS
 10
66.8362514646
 20
83.1397804524
 11
66.8514177446
 21
83.1332141594
  0
POLYLINE
  8
0
 62
9
  6
CONTINUOUS
 66
1
 70
0
  0
VERTEX
  8
0
 62
9
  6
CONTINUOUS
 10
72.5419039973
 20
83.2712497706
  0
VERTEX
  8
0
 62
9
  6
CONTINUOUS
 10
72.4987614591
 20
83.2970633365
  0
VERTEX
  8
0
 62
9
  6
CONTINUOUS
 10
72.459191376
 20
83.3516031773
  0
VERTEX
  8
0
 62
9
  6
CONTINUOUS
 10
72.4256005688
 20
83.4315519648
  0
VERTEX
  8
0
 62
9
  6
CONTINUOUS
 10
72.4000321755
 20
83.5320468858
  0
VERTEX
  8
0
 62
9
  6
CONTINUOUS
 10
72.3840413772
 20
83.6469754178
  0
VERTEX
  8
0
 62
9
  6
CONTINUOUS
 10
72.3786008043
 20
83.7693471197
  0
SEQEND
  0
POLYLINE
  8
0
 62
9
  6
CONTINUOUS
 66
1
 70
0
  0
VERTEX
  8
0
 62
9
  6
CONTINUOUS
 10
87.6889002507
 20
93.0601750547
  0
VERTEX
  8
0
 62
9
  6
CONTINUOUS
 10
87.6738637939
 20
93.043137804
  0
VERTEX
  8
0
 62
9
  6
CONTINUOUS
 10
87.6598520854
 20
92.9931872665
  0
VERTEX
  8
0
 62
9
  6
CONTINUOUS
 10
87.6478199951
 20
92.9137277075
  0
VERTEX
  8
0
 62
9
  6
CONTINUOUS
 10
87.6385874736
 20
92.8101743143
  0
VERTEX
  8
0
 62
9
  6
CONTINUOUS
 10
87.6327836806
 20
92.6895841155
  0
VERTEX
  8
0
 62
9
  6
CONTINUOUS
 10
87.6308041172
 20
92.5601750547
  0
SEQEND
  0
POLYLINE
  8
0
 62
9
  6
CONTINUOUS
 66
1
 70
0
  0
VERTEX
  8
0
 62
9
  6
CONTINUOUS
 10
77.6440685773
 20
93.0601750547
  0
VERTEX
  8
0
 62
9
  6
CONTINUOUS
 10
77.6055259234
 20
93.0431379717
  0
VERTEX
  8
0
 62
9
  6
CONTINUOUS
 10
77.569609885
 20
92.9931877679
  0
VERTEX
  8
0
 62
9
  6
CONTINUOUS
 10
77.5387680815
 20
92.9137284619
  0
VERTEX
  8
0
 62
9
  6
CONTINUOUS
 10
77.5151023319
 20
92.8101750711
  0
VERTEX
  8
0
 62
9
  6
CONTINUOUS
 10
77.5002254191
 20
92.6895845873
  0
VERTEX
  8
0
 62
9
  6
CONTINUOUS
 10
77.4951511811
 20
92.5601750547
  0
SEQEND
  0
POLYLINE
  8
0
 62
9
  6
CONTINUOUS
 66
1
 70
0
  0
VERTEX
  8
0
 62
9
  6
CONTINUOUS
 10
53.6574307729
 20
83.0715909827
  0
VERTEX
  8
0
 62
9
  6
CONTINUOUS
 10
53.715412572
 20
83.0915933423
  0
VERTEX
  8
0
 62
9
  6
CONTINUOUS
 10
53.7715819599
 20
83.1430013548
  0
VERTEX
  8
0
 62
9
  6
CONTINUOUS
 10
53.8222492171
 20
83.2224380715
  0
VERTEX
  8
0
 62
9
  6
CONTINUOUS
 10
53.8640860544
 20
83.3246853619
  0
VERTEX
  8
0
 62
9
  6
CONTINUOUS
 10
53.8943442455
 20
83.4430266884
  0
VERTEX
  8
0
 62
9
  6
CONTINUOUS
 10
53.9110361555
 20
83.5696883095
  0
SEQEND
  0
LINE
  8
0
 62
9
  6
CONTINUOUS
 10
121.6727412742
 20
83.2501631602
 11
121.8025997096
 21
83.2712469252
  0
LINE
  8
0
 62
9
  6
CONTINUOUS
 10
121.3340029948
 20
83.1437409693
 11
121.4634035707
 21
83.1647309564
  0
LINE
  8
0
 62
9
  6
CONTINUOUS
 10
115.3252605944
 20
83.2501631618
 11
114.6640782976
 21
83.1437409693
  0
POLYLINE
  8
0
 62
9
  6
CONTINUOUS
 66
1
 70
0
  0
VERTEX
  8
0
 62
9
  6
CONTINUOUS
 10
121.1536527189
 20
83.0715909827
  0
VERTEX
  8
0
 62
9
  6
CONTINUOUS
 10
121.2785810705
 20
83.0915933423
  0
VERTEX
  8
0
 62
9
  6
CONTINUOUS
 10
121.3766144768
 20
83.1328610488
  0
SEQEND
  0
POLYLINE
  8
0
 62
9
  6
CONTINUOUS
 66
1
 70
0
  0
VERTEX
  8
0
 62
9
  6
CONTINUOUS
 10
114.6640782976
 20
83.1437409693
  0
VERTEX
  8
0
 62
9
  6
CONTINUOUS
 10
114.5201825964
 20
83.1213827986
  0
VERTEX
  8
0
 62
9
  6
CONTINUOUS
 10
114.3539213401
 20
83.0972995341
  0
VERTEX
  8
0
 62
9
  6
CONTINUOUS
 10
114.1630412032
 20
83.0715909604
  0
SEQEND
  0
POLYLINE
  8
0
 62
7
  6
CONTINUOUS
 66
1
 70
0
  0
VERTEX
  8
0
 62
7
  6
CONTINUOUS
 10
139.7332421374
 20
83.0754887202
  0
VERTEX
  8
0
 62
7
  6
CONTINUOUS
 10
139.8700832611
 20
83.0960480641
  0
VERTEX
  8
0
 62
7
  6
CONTINUOUS
 10
140.0664619943
 20
83.1241221938
  0
SEQEND
  0
POLYLINE
  8
0
 62
9
  6
CONTINUOUS
 66
1
 70
0
  0
VERTEX
  8
0
 62
9
  6
CONTINUOUS
 10
139.6915402557
 20
83.0715909604
  0
VERTEX
  8
0
 62
9
  6
CONTINUOUS
 10
139.8633450451
 20
83.0972862148
  0
VERTEX
  8
0
 62
9
  6
CONTINUOUS
 10
140.0325441426
 20
83.1213695033
  0
SEQEND
  0
POLYLINE
  8
0
 62
9
  6
CONTINUOUS
 66
1
 70
0
  0
VERTEX
  8
0
 62
9
  6
CONTINUOUS
 10
140.9919594104
 20
83.2501631618
  0
VERTEX
  8
0
 62
9
  6
CONTINUOUS
 10
141.0249888531
 20
83.2550760206
  0
VERTEX
  8
0
 62
9
  6
CONTINUOUS
 10
141.0479566933
 20
83.2596121936
  0
VERTEX
  8
0
 62
9
  6
CONTINUOUS
 10
141.0598832871
 20
83.2635850435
  0
VERTEX
  8
0
 62
9
  6
CONTINUOUS
 10
141.0603087856
 20
83.266842317
  0
VERTEX
  8
0
 62
9
  6
CONTINUOUS
 10
141.0492201993
 20
83.2692609655
  0
VERTEX
  8
0
 62
9
  6
CONTINUOUS
 10
141.0270558685
 20
83.2707486891
  0
SEQEND
  0
LINE
  8
0
 62
7
  6
CONTINUOUS
 10
121.1248574785
 20
83.0606222239
 11
121.2346146238
 21
83.0764133967
  0
LINE
  8
0
 62
7
  6
CONTINUOUS
 10
139.682502467
 20
83.0686720852
 11
139.7332193704
 21
83.0754853427
  0
LINE
  8
0
 62
7
  6
CONTINUOUS
 10
140.0664619943
 20
83.1241221938
 11
141.0391507085
 21
83.2547317949
  0
LINE
  8
0
 62
9
  6
CONTINUOUS
 10
140.0325441426
 20
83.1213695033
 11
140.9919594104
 21
83.2501631618
  0
LINE
  8
0
 62
9
  6
CONTINUOUS
 10
121.1237409145
 20
83.0601750547
 11
121.2519097801
 21
83.0772122254
  0
LINE
  8
0
 62
9
  6
CONTINUOUS
 10
121.1029312759
 20
83.0601750547
 11
121.1273932104
 21
83.0630330029
  0
LINE
  8
0
 62
9
  6
CONTINUOUS
 10
152.2985928826
 20
83.2596121936
 11
152.3083256813
 21
83.2604014655
  0
POLYLINE
  8
0
 62
7
  6
CONTINUOUS
 66
1
 70
0
  0
VERTEX
  8
0
 62
7
  6
CONTINUOUS
 10
154.3285711017
 20
83.2710670643
  0
VERTEX
  8
0
 62
7
  6
CONTINUOUS
 10
154.3371227148
 20
83.2720062694
  0
VERTEX
  8
0
 62
7
  6
CONTINUOUS
 10
154.3475312676
 20
83.2732802466
  0
VERTEX
  8
0
 62
7
  6
CONTINUOUS
 10
154.3623631063
 20
83.2754324382
  0
VERTEX
  8
0
 62
7
  6
CONTINUOUS
 10
154.3808186457
 20
83.2787275112
  0
VERTEX
  8
0
 62
7
  6
CONTINUOUS
 10
154.4008384942
 20
83.2831102637
  0
VERTEX
  8
0
 62
7
  6
CONTINUOUS
 10
154.4217247468
 20
83.2886095227
  0
VERTEX
  8
0
 62
7
  6
CONTINUOUS
 10
154.4434878525
 20
83.2953838321
  0
VERTEX
  8
0
 62
7
  6
CONTINUOUS
 10
154.4657698728
 20
83.3034726624
  0
VERTEX
  8
0
 62
7
  6
CONTINUOUS
 10
154.4881012168
 20
83.3128121323
  0
VERTEX
  8
0
 62
7
  6
CONTINUOUS
 10
154.5102898382
 20
83.3233910004
  0
VERTEX
  8
0
 62
7
  6
CONTINUOUS
 10
154.5323794459
 20
83.3353031433
  0
VERTEX
  8
0
 62
7
  6
CONTINUOUS
 10
154.5543784078
 20
83.3486516804
  0
VERTEX
  8
0
 62
7
  6
CONTINUOUS
 10
154.5762751478
 20
83.3635553355
  0
VERTEX
  8
0
 62
7
  6
CONTINUOUS
 10
154.598033709
 20
83.3801465302
  0
VERTEX
  8
0
 62
7
  6
CONTINUOUS
 10
154.6195546806
 20
83.3985375324
  0
VERTEX
  8
0
 62
7
  6
CONTINUOUS
 10
154.6406451716
 20
83.418771628
  0
VERTEX
  8
0
 62
7
  6
CONTINUOUS
 10
154.661095337
 20
83.4408656058
  0
VERTEX
  8
0
 62
7
  6
CONTINUOUS
 10
154.6806902383
 20
83.4648152931
  0
VERTEX
  8
0
 62
7
  6
CONTINUOUS
 10
154.6992162457
 20
83.4906004251
  0
VERTEX
  8
0
 62
7
  6
CONTINUOUS
 10
154.7164739766
 20
83.5182064565
  0
VERTEX
  8
0
 62
7
  6
CONTINUOUS
 10
154.732260687
 20
83.5476074889
  0
VERTEX
  8
0
 62
7
  6
CONTINUOUS
 10
154.7463657319
 20
83.5787576517
  0
VERTEX
  8
0
 62
7
  6
CONTINUOUS
 10
154.7585720804
 20
83.6115890739
  0
VERTEX
  8
0
 62
7
  6
CONTINUOUS
 10
154.7686581615
 20
83.6460098814
  0
VERTEX
  8
0
 62
7
  6
CONTINUOUS
 10
154.7764000625
 20
83.6819022631
  0
VERTEX
  8
0
 62
7
  6
CONTINUOUS
 10
154.7815740981
 20
83.7191206632
  0
VERTEX
  8
0
 62
7
  6
CONTINUOUS
 10
154.7839597566
 20
83.7574901027
  0
VERTEX
  8
0
 62
7
  6
CONTINUOUS
 10
154.7840995092
 20
83.7693109319
  0
SEQEND
  0
POLYLINE
  8
0
 62
9
  6
CONTINUOUS
 66
1
 70
0
  0
VERTEX
  8
0
 62
9
  6
CONTINUOUS
 10
135.0022206908
 20
83.6418383183
  0
VERTEX
  8
0
 62
9
  6
CONTINUOUS
 10
134.5703237756
 20
83.5953974561
  0
VERTEX
  8
0
 62
9
  6
CONTINUOUS
 10
134.3176291357
 20
83.5696883095
  0
SEQEND
  0
POLYLINE
  8
0
 62
7
  6
CONTINUOUS
 66
1
 70
0
  0
VERTEX
  8
0
 62
7
  6
CONTINUOUS
 10
152.2686455859
 20
83.2562143507
  0
VERTEX
  8
0
 62
7
  6
CONTINUOUS
 10
152.3083256813
 20
83.2604014655
  0
VERTEX
  8
0
 62
7
  6
CONTINUOUS
 10
152.3420854774
 20
83.2642402593
  0
VERTEX
  8
0
 62
7
  6
CONTINUOUS
 10
152.3707019408
 20
83.2678359341
  0
VERTEX
  8
0
 62
7
  6
CONTINUOUS
 10
152.3969105871
 20
83.2716399616
  0
VERTEX
  8
0
 62
7
  6
CONTINUOUS
 10
152.424912804
 20
83.2766582514
  0
VERTEX
  8
0
 62
7
  6
CONTINUOUS
 10
152.4572942523
 20
83.2842054884
  0
SEQEND
  0
LINE
  8
0
 62
9
  6
CONTINUOUS
 10
152.2555465758
 20
83.2550760206
 11
152.2686455859
 21
83.2562143507
  0
LINE
  8
0
 62
9
  6
CONTINUOUS
 10
136.0336508997
 20
83.7482605108
 11
135.0022206908
 21
83.6418383183
  0
LINE
  8
0
 62
9
  6
CONTINUOUS
 10
136.3427177546
 20
83.2501631618
 11
135.0905753562
 21
83.1213827986
  0
LINE
  8
0
 62
7
  6
CONTINUOUS
 10
154.3099285506
 20
83.2691828593
 11
154.3285711017
 21
83.2710670643
  0
LINE
  8
0
 62
9
  6
CONTINUOUS
 10
150.3487145326
 20
83.0715909604
 11
150.3557268831
 21
83.0722806623
  0
LINE
  8
0
 62
9
  6
CONTINUOUS
 10
152.975809529
 20
83.6418383183
 11
152.810082193
 21
83.6260033121
  0
LINE
  8
0
 62
7
  6
CONTINUOUS
 10
152.2056243731
 20
83.2500126975
 11
152.2686455859
 21
83.2562143507
  0
LINE
  8
0
 62
7
  6
CONTINUOUS
 10
150.3557425011
 20
83.0721218709
 11
152.2056243731
 21
83.2500126975
  0
LINE
  8
0
 62
9
  6
CONTINUOUS
 10
135.0905753562
 20
83.1213827986
 11
134.5712344364
 21
83.0715909604
  0
LINE
  8
0
 62
9
  6
CONTINUOUS
 10
139.6915402541
 20
83.0715909827
 11
139.7332193887
 21
83.0754852252
  0
LINE
  8
0
 62
7
  6
CONTINUOUS
 10
154.2497154445
 20
83.2635177297
 11
154.3099285506
 21
83.2691828593
  0
LINE
  8
0
 62
9
  6
CONTINUOUS
 10
148.7089694539
 20
83.6418383183
 11
147.9216566451
 21
83.5696883095
  0
LINE
  8
0
 62
7
  6
CONTINUOUS
 10
154.2497154445
 20
83.2635177297
 11
152.0823236005
 21
83.0715909604
  0
LINE
  8
0
 62
9
  6
CONTINUOUS
 10
154.1798359447
 20
83.7482605108
 11
152.975809529
 21
83.6418383183
  0
LINE
  8
0
 62
7
  6
CONTINUOUS
 10
150.2978018415
 20
83.0670718312
 11
150.3557419907
 21
83.0721219307
  0
LINE
  8
0
 62
9
  6
CONTINUOUS
 10
149.9324754141
 20
83.7482605108
 11
148.7089694539
 21
83.6418383183
  0
LINE
  8
0
 62
9
  6
CONTINUOUS
 10
148.2921936891
 20
83.0972995341
 11
147.9840618033
 21
83.0715909604
  0
LINE
  8
0
 62
9
  6
CONTINUOUS
 10
140.1965743179
 20
83.1437409693
 11
140.2287107197
 21
83.1462492093
  0
LINE
  8
0
 62
9
  6
CONTINUOUS
 10
140.9919594105
 20
83.2501631602
 11
141.0242113152
 21
83.2526718553
  0
POLYLINE
  8
0
 62
9
  6
CONTINUOUS
 66
1
 70
0
  0
VERTEX
  8
0
 62
9
  6
CONTINUOUS
 10
134.5712344364
 20
83.0715909604
  0
VERTEX
  8
0
 62
9
  6
CONTINUOUS
 10
134.4521610223
 20
83.0630332468
  0
VERTEX
  8
0
 62
9
  6
CONTINUOUS
 10
134.3311929639
 20
83.0601750547
  0
SEQEND
  0
LINE
  8
0
 62
9
  6
CONTINUOUS
 10
151.0911074047
 20
83.1437409693
 11
151.0964122999
 21
83.1441002161
  0
LINE
  8
0
 62
9
  6
CONTINUOUS
 10
152.205610002
 20
83.2501631602
 11
152.2109958118
 21
83.25052581
  0
POLYLINE
  8
0
 62
9
  6
CONTINUOUS
 66
1
 70
0
  0
VERTEX
  8
0
 62
9
  6
CONTINUOUS
 10
147.9216566451
 20
83.5696883095
  0
VERTEX
  8
0
 62
9
  6
CONTINUOUS
 10
147.814743336
 20
83.5625568931
  0
VERTEX
  8
0
 62
9
  6
CONTINUOUS
 10
147.7067505571
 20
83.5601750547
  0
SEQEND
  0
POLYLINE
  8
0
 62
7
  6
CONTINUOUS
 66
1
 70
0
  0
VERTEX
  8
0
 62
7
  6
CONTINUOUS
 10
152.0823236005
 20
83.0715909604
  0
VERTEX
  8
0
 62
7
  6
CONTINUOUS
 10
151.9535706894
 20
83.06304177
  0
VERTEX
  8
0
 62
7
  6
CONTINUOUS
 10
151.8241103529
 20
83.0601750547
  0
SEQEND
  0
POLYLINE
  8
0
 62
9
  6
CONTINUOUS
 66
1
 70
0
  0
VERTEX
  8
0
 62
9
  6
CONTINUOUS
 10
147.9840618033
 20
83.0715909604
  0
VERTEX
  8
0
 62
9
  6
CONTINUOUS
 10
147.8483165777
 20
83.0630332468
  0
VERTEX
  8
0
 62
9
  6
CONTINUOUS
 10
147.711357957
 20
83.0601750547
  0
SEQEND
  0
LINE
  8
1_AXIS
 62
9
  6
CONTINUOUS
 10
59.1143326039
 20
77.5601750547
 11
129.1143326039
 21
77.5601750547
  0
POLYLINE
  8
0
 62
7
  6
CONTINUOUS
 66
1
 70
0
  0
VERTEX
  8
0
 62
7
  6
CONTINUOUS
 10
37.9244031627
 20
83.0675667874
  0
VERTEX
  8
0
 62
7
  6
CONTINUOUS
 10
38.054425707
 20
83.060902317
  0
VERTEX
  8
0
 62
7
  6
CONTINUOUS
 10
38.1136563739
 20
83.0601751594
  0
SEQEND
  0
LINE
  8
0
 62
9
  6
CONTINUOUS
 10
36.023055206
 20
83.2501631618
 11
36.0176655258
 21
83.2505261066
  0
LINE
  8
0
 62
9
  6
CONTINUOUS
 10
37.1375578047
 20
83.1437409863
 11
37.1322529093
 21
83.1441002298
  0
LINE
  8
0
 62
9
  6
CONTINUOUS
 10
37.9969040354
 20
83.0630332468
 11
37.8729229869
 21
83.0721219536
  0
POLYLINE
  8
0
 62
9
  6
CONTINUOUS
 66
1
 70
0
  0
VERTEX
  8
0
 62
9
  6
CONTINUOUS
 10
38.1115682214
 20
83.2550760206
  0
VERTEX
  8
0
 62
9
  6
CONTINUOUS
 10
38.0531052385
 20
83.2596121936
  0
VERTEX
  8
0
 62
9
  6
CONTINUOUS
 10
37.9971773718
 20
83.2635850435
  0
VERTEX
  8
0
 62
9
  6
CONTINUOUS
 10
37.9459489619
 20
83.266842317
  0
VERTEX
  8
0
 62
9
  6
CONTINUOUS
 10
37.9013795245
 20
83.2692609655
  0
VERTEX
  8
0
 62
9
  6
CONTINUOUS
 10
37.865197624
 20
83.2707486891
  0
VERTEX
  8
0
 62
9
  6
CONTINUOUS
 10
37.8388181107
 20
83.2712497706
  0
SEQEND
  0
LINE
  8
0
 62
9
  6
CONTINUOUS
 10
47.2367057975
 20
83.2501631618
 11
47.2045079537
 21
83.252664362
  0
POLYLINE
  8
0
 62
7
  6
CONTINUOUS
 66
1
 70
0
  0
VERTEX
  8
0
 62
7
  6
CONTINUOUS
 10
48.5408919908
 20
83.0692886955
  0
VERTEX
  8
0
 62
7
  6
CONTINUOUS
 10
48.6474648695
 20
83.0609974294
  0
VERTEX
  8
0
 62
7
  6
CONTINUOUS
 10
48.6928896878
 20
83.0601751613
  0
SEQEND
  0
LINE
  8
0
 62
9
  6
CONTINUOUS
 10
48.0320908911
 20
83.1437409863
 11
47.9999546103
 21
83.1462491985
  0
LINE
  8
0
 62
9
  6
CONTINUOUS
 10
40.2446034046
 20
83.0715909604
 11
38.1115682214
 21
83.2550760206
  0
LINE
  8
0
 62
9
  6
CONTINUOUS
 10
39.5196957539
 20
83.6418383183
 11
38.2961897938
 21
83.7482605108
  0
LINE
  8
0
 62
9
  6
CONTINUOUS
 10
35.2528556789
 20
83.6418383183
 11
34.0488292632
 21
83.7482605108
  0
LINE
  8
0
 62
7
  6
CONTINUOUS
 10
37.8729229869
 20
83.0721219536
 11
37.9244031627
 21
83.0675667874
  0
LINE
  8
0
 62
7
  6
CONTINUOUS
 10
33.954903935
 20
83.2657431169
 11
36.1463416073
 21
83.0715909604
  0
LINE
  8
0
 62
9
  6
CONTINUOUS
 10
40.3070085628
 20
83.5696883095
 11
39.5196957539
 21
83.6418383183
  0
LINE
  8
0
 62
9
  6
CONTINUOUS
 10
48.5371249611
 20
83.071591089
 11
48.4954440902
 21
83.0754856111
  0
POLYLINE
  8
0
 62
9
  6
CONTINUOUS
 66
1
 70
0
  0
VERTEX
  8
0
 62
9
  6
CONTINUOUS
 10
51.8859474532
 20
83.2501631618
  0
VERTEX
  8
0
 62
9
  6
CONTINUOUS
 10
51.8341727237
 20
83.2550760206
  0
VERTEX
  8
0
 62
9
  6
CONTINUOUS
 10
51.777822351
 20
83.2596121936
  0
VERTEX
  8
0
 62
9
  6
CONTINUOUS
 10
51.7191976212
 20
83.2635850435
  0
VERTEX
  8
0
 62
9
  6
CONTINUOUS
 10
51.6605680368
 20
83.266842317
  0
VERTEX
  8
0
 62
9
  6
CONTINUOUS
 10
51.604177756
 20
83.2692609655
  0
VERTEX
  8
0
 62
9
  6
CONTINUOUS
 10
51.5522176893
 20
83.2707486891
  0
VERTEX
  8
0
 62
9
  6
CONTINUOUS
 10
51.5067412419
 20
83.2712497706
  0
SEQEND
  0
LINE
  8
0
 62
9
  6
CONTINUOUS
 10
35.4189433718
 20
83.6259688746
 11
35.2528556789
 21
83.6418383183
  0
LINE
  8
0
 62
7
  6
CONTINUOUS
 10
33.9180264036
 20
83.2692524035
 11
33.954903935
 21
83.2657431169
  0
LINE
  8
0
 62
9
  6
CONTINUOUS
 10
53.6574307715
 20
83.0715909604
 11
53.1382233006
 21
83.1213695033
  0
LINE
  8
0
 62
9
  6
CONTINUOUS
 10
37.8729226877
 20
83.0721218748
 11
37.8799506753
 21
83.0715909604
  0
LINE
  8
0
 62
7
  6
CONTINUOUS
 10
35.9622579043
 20
83.2559858143
 11
37.6523940584
 21
83.0938330192
  0
LINE
  8
0
 62
7
  6
CONTINUOUS
 10
37.6523940584
 20
83.0938330192
 11
37.8729226877
 21
83.0721218748
  0
LINE
  8
0
 62
9
  6
CONTINUOUS
 10
53.1382233006
 20
83.1213695033
 11
51.8859474532
 21
83.2501631618
  0
LINE
  8
0
 62
9
  6
CONTINUOUS
 10
53.2264445171
 20
83.6418383183
 11
52.1950143082
 21
83.7482605108
  0
LINE
  8
0
 62
7
  6
CONTINUOUS
 10
35.9290366501
 20
83.2594590662
 11
35.9622579043
 21
83.2559858143
  0
LINE
  8
0
 62
9
  6
CONTINUOUS
 10
35.9622579043
 20
83.2559858143
 11
35.9730667408
 21
83.2550812937
  0
POLYLINE
  8
0
 62
9
  6
CONTINUOUS
 66
1
 70
0
  0
VERTEX
  8
0
 62
9
  6
CONTINUOUS
 10
53.9110360721
 20
83.5696883095
  0
VERTEX
  8
0
 62
9
  6
CONTINUOUS
 10
53.4306839432
 20
83.6194642397
  0
VERTEX
  8
0
 62
9
  6
CONTINUOUS
 10
53.2264445171
 20
83.6418383183
  0
SEQEND
  0
LINE
  8
0
 62
9
  6
CONTINUOUS
 10
48.5371249522
 20
83.0715909604
 11
48.6155073603
 21
83.0630332468
  0
LINE
  8
0
 62
9
  6
CONTINUOUS
 10
35.9013699944
 20
83.2625179832
 11
35.9300300324
 21
83.2596168349
  0
POLYLINE
  8
0
 62
9
  6
CONTINUOUS
 66
1
 70
0
  0
VERTEX
  8
0
 62
9
  6
CONTINUOUS
 10
67.1049242933
 20
83.0601750547
  0
VERTEX
  8
0
 62
9
  6
CONTINUOUS
 10
66.9767548921
 20
83.0772123703
  0
VERTEX
  8
0
 62
9
  6
CONTINUOUS
 10
66.8573204799
 20
83.1271630389
  0
SEQEND
  0
POLYLINE
  8
0
 62
7
  6
CONTINUOUS
 66
1
 70
0
  0
VERTEX
  8
0
 62
7
  6
CONTINUOUS
 10
47.204395781
 20
83.2526793529
  0
VERTEX
  8
0
 62
7
  6
CONTINUOUS
 10
48.1580024048
 20
83.1247064796
  0
VERTEX
  8
0
 62
7
  6
CONTINUOUS
 10
48.3546776069
 20
83.0966217646
  0
VERTEX
  8
0
 62
7
  6
CONTINUOUS
 10
48.4954233618
 20
83.0754886759
  0
SEQEND
  0
LINE
  8
0
 62
7
  6
CONTINUOUS
 10
48.4954440902
 20
83.0754856111
 11
48.5408919908
 21
83.0692886955
  0
POLYLINE
  8
0
 62
9
  6
CONTINUOUS
 66
1
 70
0
  0
VERTEX
  8
0
 62
9
  6
CONTINUOUS
 10
47.2367057975
 20
83.2501631618
  0
VERTEX
  8
0
 62
9
  6
CONTINUOUS
 10
48.196025538
 20
83.1213827986
  0
VERTEX
  8
0
 62
9
  6
CONTINUOUS
 10
48.365228727
 20
83.0972995341
  0
SEQEND
  0
LINE
  8
0
 62
7
  6
CONTINUOUS
 10
66.9922151512
 20
83.076873704
 11
67.1031126176
 21
83.0606510136
  0
LINE
  8
0
 62
9
  6
CONTINUOUS
 10
47.2036451039
 20
83.2550812937
 11
47.2367057975
 21
83.2501631618
  0
LINE
  8
0
 62
9
  6
CONTINUOUS
 10
48.365228727
 20
83.0972995341
 11
48.5371249522
 21
83.0715909604
  0
POLYLINE
  8
0
 62
9
  6
CONTINUOUS
 66
1
 70
0
  0
VERTEX
  8
0
 62
9
  6
CONTINUOUS
 10
67.0750124933
 20
83.071591089
  0
VERTEX
  8
0
 62
9
  6
CONTINUOUS
 10
66.9500841792
 20
83.091593471
  0
VERTEX
  8
0
 62
9
  6
CONTINUOUS
 10
66.852051203
 20
83.132860959
  0
SEQEND
  0
LINE
  8
0
 62
9
  6
CONTINUOUS
 10
73.5645869102
 20
83.1437409693
 11
72.9034046135
 21
83.2501631618
  0
LINE
  8
0
 62
9
  6
CONTINUOUS
 10
66.8946622138
 20
83.1437409863
 11
66.7652684837
 21
83.1647287886
  0
LINE
  8
0
 62
9
  6
CONTINUOUS
 10
66.5559239338
 20
83.2501631618
 11
66.4261132996
 21
83.2712308008
  0
POLYLINE
  8
0
 62
9
  6
CONTINUOUS
 66
1
 70
0
  0
VERTEX
  8
0
 62
9
  6
CONTINUOUS
 10
35.3974830524
 20
92.3518889571
  0
VERTEX
  8
0
 62
9
  6
CONTINUOUS
 10
35.3991594736
 20
92.3515052925
  0
VERTEX
  8
0
 62
9
  6
CONTINUOUS
 10
35.4246143344
 20
92.3510029897
  0
SEQEND
  0
POLYLINE
  8
0
 62
9
  6
CONTINUOUS
 66
1
 70
0
  0
VERTEX
  8
0
 62
9
  6
CONTINUOUS
 10
53.6574307793
 20
93.0487590212
  0
VERTEX
  8
0
 62
9
  6
CONTINUOUS
 10
53.7154125597
 20
93.0287566389
  0
VERTEX
  8
0
 62
9
  6
CONTINUOUS
 10
53.7715819283
 20
92.9773486244
  0
VERTEX
  8
0
 62
9
  6
CONTINUOUS
 10
53.8222491691
 20
92.8979119244
  0
VERTEX
  8
0
 62
9
  6
CONTINUOUS
 10
53.8640859957
 20
92.7956646653
  0
VERTEX
  8
0
 62
9
  6
CONTINUOUS
 10
53.8943441838
 20
92.6773233791
  0
VERTEX
  8
0
 62
9
  6
CONTINUOUS
 10
53.9110360997
 20
92.5506617999
  0
SEQEND
  0
POLYLINE
  8
0
 62
9
  6
CONTINUOUS
 66
1
 70
0
  0
VERTEX
  8
0
 62
9
  6
CONTINUOUS
 10
77.6440685773
 20
83.0601750547
  0
VERTEX
  8
0
 62
9
  6
CONTINUOUS
 10
77.6055256648
 20
83.0772123703
  0
VERTEX
  8
0
 62
9
  6
CONTINUOUS
 10
77.5696095253
 20
83.1271630389
  0
VERTEX
  8
0
 62
9
  6
CONTINUOUS
 10
77.5387677684
 20
83.2066226992
  0
VERTEX
  8
0
 62
9
  6
CONTINUOUS
 10
77.5151021503
 20
83.3101760951
  0
VERTEX
  8
0
 62
9
  6
CONTINUOUS
 10
77.5002253666
 20
83.4307661815
  0
VERTEX
  8
0
 62
9
  6
CONTINUOUS
 10
77.4951511812
 20
83.5601750547
  0
SEQEND
  0
POLYLINE
  8
0
 62
9
  6
CONTINUOUS
 66
1
 70
0
  0
VERTEX
  8
0
 62
9
  6
CONTINUOUS
 10
66.0645331893
 20
92.3652684381
  0
VERTEX
  8
0
 62
9
  6
CONTINUOUS
 10
66.0699678257
 20
92.3626338019
  0
VERTEX
  8
0
 62
9
  6
CONTINUOUS
 10
66.1034328695
 20
92.3586650447
  0
VERTEX
  8
0
 62
9
  6
CONTINUOUS
 10
66.1661770908
 20
92.3554103838
  0
VERTEX
  8
0
 62
9
  6
CONTINUOUS
 10
66.2557949181
 20
92.3529934514
  0
VERTEX
  8
0
 62
9
  6
CONTINUOUS
 10
66.3688182515
 20
92.3515052925
  0
VERTEX
  8
0
 62
9
  6
CONTINUOUS
 10
66.5008995023
 20
92.3510029897
  0
SEQEND
  0
POLYLINE
  8
0
 62
9
  6
CONTINUOUS
 66
1
 70
0
  0
VERTEX
  8
0
 62
9
  6
CONTINUOUS
 10
87.6889002508
 20
83.0601750547
  0
VERTEX
  8
0
 62
9
  6
CONTINUOUS
 10
87.673863866
 20
83.0772121392
  0
VERTEX
  8
0
 62
9
  6
CONTINUOUS
 10
87.6598521854
 20
83.1271623461
  0
VERTEX
  8
0
 62
9
  6
CONTINUOUS
 10
87.647820082
 20
83.2066216543
  0
VERTEX
  8
0
 62
9
  6
CONTINUOUS
 10
87.638587524
 20
83.310175045
  0
VERTEX
  8
0
 62
9
  6
CONTINUOUS
 10
87.6327836953
 20
83.4307655262
  0
VERTEX
  8
0
 62
9
  6
CONTINUOUS
 10
87.6308041174
 20
83.5601750547
  0
SEQEND
  0
LINE
  8
0
 62
9
  6
CONTINUOUS
 10
87.6308041174
 20
83.5601750547
 11
87.6308041174
 21
92.5601750547
  0
LINE
  8
0
 62
9
  6
CONTINUOUS
 10
89.0956038599
 20
83.5601750547
 11
89.0956038599
 21
92.5601750547
  0
LINE
  8
0
 62
9
  6
CONTINUOUS
 10
89.9715303754
 20
83.6418383183
 11
89.9715303754
 21
92.4785117911
  0
LINE
  8
0
 62
9
  6
CONTINUOUS
 10
90.147827002
 20
83.7482605108
 11
90.147827002
 21
92.3720895986
  0
POLYLINE
  8
0
 62
9
  6
CONTINUOUS
 66
1
 70
0
  0
VERTEX
  8
0
 62
9
  6
CONTINUOUS
 10
90.9215295697
 20
92.8491003388
  0
VERTEX
  8
0
 62
9
  6
CONTINUOUS
 10
90.9151443102
 20
92.8232867952
  0
VERTEX
  8
0
 62
9
  6
CONTINUOUS
 10
90.9092877857
 20
92.7687469881
  0
VERTEX
  8
0
 62
9
  6
CONTINUOUS
 10
90.9043162153
 20
92.6887982227
  0
VERTEX
  8
0
 62
9
  6
CONTINUOUS
 10
90.9005319924
 20
92.5883032987
  0
VERTEX
  8
0
 62
9
  6
CONTINUOUS
 10
90.8981652908
 20
92.4733747374
  0
VERTEX
  8
0
 62
9
  6
CONTINUOUS
 10
90.8973600643
 20
92.3510029897
  0
SEQEND
  0
POLYLINE
  8
0
 62
9
  6
CONTINUOUS
 66
1
 70
0
  0
VERTEX
  8
0
 62
9
  6
CONTINUOUS
 10
53.897472244
 20
83.0601750547
  0
VERTEX
  8
0
 62
9
  6
CONTINUOUS
 10
53.9511949949
 20
83.0772121463
  0
VERTEX
  8
0
 62
9
  6
CONTINUOUS
 10
54.0012566269
 20
83.1271623677
  0
VERTEX
  8
0
 62
9
  6
CONTINUOUS
 10
54.0442455224
 20
83.2066216881
  0
VERTEX
  8
0
 62
9
  6
CONTINUOUS
 10
54.0772320603
 20
83.3101750809
  0
VERTEX
  8
0
 62
9
  6
CONTINUOUS
 10
54.0979682648
 20
83.4307655502
  0
VERTEX
  8
0
 62
9
  6
CONTINUOUS
 10
54.1050410003
 20
83.5601750547
  0
SEQEND
  0
POLYLINE
  8
0
 62
9
  6
CONTINUOUS
 66
1
 70
0
  0
VERTEX
  8
0
 62
9
  6
CONTINUOUS
 10
90.2882441164
 20
83.0715909604
  0
VERTEX
  8
0
 62
9
  6
CONTINUOUS
 10
90.2578382393
 20
83.0630332468
  0
VERTEX
  8
0
 62
9
  6
CONTINUOUS
 10
90.2252191719
 20
83.0601750547
  0
SEQEND
  0
POLYLINE
  8
0
 62
9
  6
CONTINUOUS
 66
1
 70
0
  0
VERTEX
  8
0
 62
9
  6
CONTINUOUS
 10
135.3111570465
 20
92.9766091401
  0
VERTEX
  8
0
 62
9
  6
CONTINUOUS
 10
135.2387236426
 20
92.9577577694
  0
VERTEX
  8
0
 62
9
  6
CONTINUOUS
 10
135.1690833673
 20
92.9069745239
  0
VERTEX
  8
0
 62
9
  6
CONTINUOUS
 10
135.1068763108
 20
92.8276430613
  0
VERTEX
  8
0
 62
9
  6
CONTINUOUS
 10
135.0562472923
 20
92.7250491895
  0
VERTEX
  8
0
 62
9
  6
CONTINUOUS
 10
135.0205696932
 20
92.6060286775
  0
VERTEX
  8
0
 62
9
  6
CONTINUOUS
 10
135.0022206908
 20
92.4785117911
  0
SEQEND
  0
POLYLINE
  8
0
 62
9
  6
CONTINUOUS
 66
1
 70
0
  0
VERTEX
  8
0
 62
9
  6
CONTINUOUS
 10
136.3427177547
 20
92.8701869489
  0
VERTEX
  8
0
 62
9
  6
CONTINUOUS
 10
136.2702667355
 20
92.8513727283
  0
VERTEX
  8
0
 62
9
  6
CONTINUOUS
 10
136.2006026789
 20
92.8006096717
  0
VERTEX
  8
0
 62
9
  6
CONTINUOUS
 10
136.1383693654
 20
92.7212816258
  0
VERTEX
  8
0
 62
9
  6
CONTINUOUS
 10
136.0877152449
 20
92.6186765695
  0
VERTEX
  8
0
 62
9
  6
CONTINUOUS
 10
136.0520169025
 20
92.4996341182
  0
VERTEX
  8
0
 62
9
  6
CONTINUOUS
 10
136.0336539761
 20
92.3720895986
  0
SEQEND
  0
POLYLINE
  8
0
 62
9
  6
CONTINUOUS
 66
1
 70
0
  0
VERTEX
  8
0
 62
9
  6
CONTINUOUS
 10
114.2255846226
 20
83.6418383183
  0
VERTEX
  8
0
 62
9
  6
CONTINUOUS
 10
114.0924457506
 20
83.6194770232
  0
VERTEX
  8
0
 62
9
  6
CONTINUOUS
 10
113.9386637189
 20
83.5953974561
  0
VERTEX
  8
0
 62
9
  6
CONTINUOUS
 10
113.7620864206
 20
83.5696883095
  0
SEQEND
  0
POLYLINE
  8
0
 62
9
  6
CONTINUOUS
 66
1
 70
0
  0
VERTEX
  8
0
 62
9
  6
CONTINUOUS
 10
97.9404210913
 20
83.0715909827
  0
VERTEX
  8
0
 62
9
  6
CONTINUOUS
 10
98.0628356675
 20
83.0915933423
  0
VERTEX
  8
0
 62
9
  6
CONTINUOUS
 10
98.1770201474
 20
83.1430013548
  0
VERTEX
  8
0
 62
9
  6
CONTINUOUS
 10
98.2754738493
 20
83.2224380715
  0
VERTEX
  8
0
 62
9
  6
CONTINUOUS
 10
98.3517294331
 20
83.3246853619
  0
VERTEX
  8
0
 62
9
  6
CONTINUOUS
 10
98.4007777343
 20
83.4430266884
  0
VERTEX
  8
0
 62
9
  6
CONTINUOUS
 10
98.4193968115
 20
83.5696883095
  0
SEQEND
  0
LINE
  8
0
 62
9
  6
CONTINUOUS
 10
114.8865954269
 20
83.7482605108
 11
114.2255846226
 21
83.6418383183
  0
POLYLINE
  8
0
 62
9
  6
CONTINUOUS
 66
1
 70
0
  0
VERTEX
  8
0
 62
9
  6
CONTINUOUS
 10
98.7087652789
 20
83.0601750547
  0
VERTEX
  8
0
 62
9
  6
CONTINUOUS
 10
98.8185813423
 20
83.0772121921
  0
VERTEX
  8
0
 62
9
  6
CONTINUOUS
 10
98.9209135317
 20
83.1271625013
  0
VERTEX
  8
0
 62
9
  6
CONTINUOUS
 10
99.0087880936
 20
83.2066218845
  0
VERTEX
  8
0
 62
9
  6
CONTINUOUS
 10
99.0762165607
 20
83.3101752736
  0
VERTEX
  8
0
 62
9
  6
CONTINUOUS
 10
99.1186038408
 20
83.4307656678
  0
VERTEX
  8
0
 62
9
  6
CONTINUOUS
 10
99.133061348
 20
83.5601750547
  0
SEQEND
  0
POLYLINE
  8
0
 62
9
  6
CONTINUOUS
 66
1
 70
0
  0
VERTEX
  8
0
 62
9
  6
CONTINUOUS
 10
97.7649033781
 20
83.1437409693
  0
VERTEX
  8
0
 62
9
  6
CONTINUOUS
 10
97.8915084239
 20
83.16259234
  0
VERTEX
  8
0
 62
9
  6
CONTINUOUS
 10
98.0094976948
 20
83.2133755855
  0
VERTEX
  8
0
 62
9
  6
CONTINUOUS
 10
98.1110096359
 20
83.2927070482
  0
VERTEX
  8
0
 62
9
  6
CONTINUOUS
 10
98.1892805668
 20
83.3953009199
  0
VERTEX
  8
0
 62
9
  6
CONTINUOUS
 10
98.2390953419
 20
83.5143214319
  0
VERTEX
  8
0
 62
9
  6
CONTINUOUS
 10
98.2571348324
 20
83.6418383183
  0
SEQEND
  0
POLYLINE
  8
0
 62
9
  6
CONTINUOUS
 66
1
 70
0
  0
VERTEX
  8
0
 62
9
  6
CONTINUOUS
 10
97.5884239185
 20
83.2501631602
  0
VERTEX
  8
0
 62
9
  6
CONTINUOUS
 10
97.7150624454
 20
83.2689774887
  0
VERTEX
  8
0
 62
9
  6
CONTINUOUS
 10
97.8330910618
 20
83.3197406043
  0
VERTEX
  8
0
 62
9
  6
CONTINUOUS
 10
97.9346420333
 20
83.3990686604
  0
VERTEX
  8
0
 62
9
  6
CONTINUOUS
 10
98.0129460177
 20
83.5016736845
  0
VERTEX
  8
0
 62
9
  6
CONTINUOUS
 10
98.0627833068
 20
83.620716072
  0
VERTEX
  8
0
 62
9
  6
CONTINUOUS
 10
98.0808317691
 20
83.7482605108
  0
SEQEND
  0
POLYLINE
  8
0
 62
9
  6
CONTINUOUS
 66
1
 70
0
  0
VERTEX
  8
0
 62
9
  6
CONTINUOUS
 10
98.003446036
 20
83.0601750547
  0
VERTEX
  8
0
 62
9
  6
CONTINUOUS
 10
98.1268850932
 20
83.0772121463
  0
VERTEX
  8
0
 62
9
  6
CONTINUOUS
 10
98.2419119753
 20
83.1271623677
  0
VERTEX
  8
0
 62
9
  6
CONTINUOUS
 10
98.3406877902
 20
83.2066216881
  0
VERTEX
  8
0
 62
9
  6
CONTINUOUS
 10
98.416481132
 20
83.3101750809
  0
VERTEX
  8
0
 62
9
  6
CONTINUOUS
 10
98.4641268146
 20
83.4307655502
  0
VERTEX
  8
0
 62
9
  6
CONTINUOUS
 10
98.4803778694
 20
83.5601750547
  0
SEQEND
  0
POLYLINE
  8
0
 62
9
  6
CONTINUOUS
 66
1
 70
0
  0
VERTEX
  8
0
 62
9
  6
CONTINUOUS
 10
114.1630412032
 20
83.0715909604
  0
VERTEX
  8
0
 62
9
  6
CONTINUOUS
 10
114.0812284757
 20
83.0630332468
  0
VERTEX
  8
0
 62
9
  6
CONTINUOUS
 10
113.9971674558
 20
83.0601750547
  0
SEQEND
  0
POLYLINE
  8
0
 62
9
  6
CONTINUOUS
 66
1
 70
0
  0
VERTEX
  8
0
 62
9
  6
CONTINUOUS
 10
113.7620864206
 20
83.5696883095
  0
VERTEX
  8
0
 62
9
  6
CONTINUOUS
 10
113.6933503854
 20
83.5625568931
  0
VERTEX
  8
0
 62
9
  6
CONTINUOUS
 10
113.6225278667
 20
83.5601750547
  0
SEQEND
  0
POLYLINE
  8
0
 62
9
  6
CONTINUOUS
 66
1
 70
0
  0
VERTEX
  8
0
 62
9
  6
CONTINUOUS
 10
134.3176291357
 20
83.5696883095
  0
VERTEX
  8
0
 62
9
  6
CONTINUOUS
 10
134.2214930635
 20
83.5625568931
  0
VERTEX
  8
0
 62
9
  6
CONTINUOUS
 10
134.1236242075
 20
83.5601750547
  0
SEQEND
  0
LINE
  8
0
 62
9
  6
CONTINUOUS
 10
154.7841044424
 20
83.7693102367
 11
154.7757449863
 21
83.7688448219
  0
POLYLINE
  8
0
 62
9
  6
CONTINUOUS
 66
1
 70
0
  0
VERTEX
  8
0
 62
9
  6
CONTINUOUS
 10
139.5358426218
 20
83.0601750547
  0
VERTEX
  8
0
 62
9
  6
CONTINUOUS
 10
139.6131545216
 20
83.0630330029
  0
VERTEX
  8
0
 62
9
  6
CONTINUOUS
 10
139.6915402557
 20
83.0715909604
  0
SEQEND
  0
LINE
  8
0
 62
9
  6
CONTINUOUS
 10
154.7757449863
 20
83.7688448219
 11
154.6712735655
 21
83.7649404565
  0
LINE
  8
0
 62
9
  6
CONTINUOUS
 10
154.6712735655
 20
83.7649404565
 11
154.1798359447
 21
83.7482605108
  0
LINE
  8
0
 62
9
  6
CONTINUOUS
 10
150.2448012818
 20
83.7577163075
 11
149.9324754141
 21
83.7482605108
  0
POLYLINE
  8
0
 62
9
  6
CONTINUOUS
 66
1
 70
0
  0
VERTEX
  8
0
 62
9
  6
CONTINUOUS
 10
150.1150135177
 20
83.0601750553
  0
VERTEX
  8
0
 62
9
  6
CONTINUOUS
 10
150.2317561793
 20
83.0630330029
  0
VERTEX
  8
0
 62
9
  6
CONTINUOUS
 10
150.3557420015
 20
83.0721218214
  0
SEQEND
  0
LINE
  8
0
 62
7
  6
CONTINUOUS
 10
121.1028720408
 20
83.0601751772
 11
121.1248574785
 21
83.0606222239
  0
POLYLINE
  8
0
 62
9
  6
CONTINUOUS
 66
1
 70
0
  0
VERTEX
  8
0
 62
9
  6
CONTINUOUS
 10
150.3898470971
 20
83.2712497706
  0
VERTEX
  8
0
 62
9
  6
CONTINUOUS
 10
150.3634955199
 20
83.270749576
  0
VERTEX
  8
0
 62
9
  6
CONTINUOUS
 10
150.3273167598
 20
83.2692624584
  0
VERTEX
  8
0
 62
9
  6
CONTINUOUS
 10
150.2827573801
 20
83.2668447536
  0
VERTEX
  8
0
 62
9
  6
CONTINUOUS
 10
150.2315388978
 20
83.2635884885
  0
VERTEX
  8
0
 62
9
  6
CONTINUOUS
 10
150.1756222703
 20
83.2596168349
  0
VERTEX
  8
0
 62
9
  6
CONTINUOUS
 10
150.117162312
 20
83.2550812937
  0
VERTEX
  8
0
 62
9
  6
CONTINUOUS
 10
148.2921936891
 20
83.0972995341
  0
SEQEND
  0
POLYLINE
  8
0
 62
7
  6
CONTINUOUS
 66
1
 70
0
  0
VERTEX
  8
0
 62
7
  6
CONTINUOUS
 10
139.5357818226
 20
83.0601751607
  0
VERTEX
  8
0
 62
7
  6
CONTINUOUS
 10
139.5759100855
 20
83.060817224
  0
VERTEX
  8
0
 62
7
  6
CONTINUOUS
 10
139.682502467
 20
83.0686720852
  0
SEQEND
  0
POLYLINE
  8
0
 62
9
  6
CONTINUOUS
 66
1
 70
0
  0
VERTEX
  8
0
 62
9
  6
CONTINUOUS
 10
47.2339367813
 20
83.2712497706
  0
VERTEX
  8
0
 62
9
  6
CONTINUOUS
 10
47.2016337013
 20
83.270749576
  0
VERTEX
  8
0
 62
9
  6
CONTINUOUS
 10
47.1794580879
 20
83.2692624584
  0
VERTEX
  8
0
 62
9
  6
CONTINUOUS
 10
47.1683610094
 20
83.2668447536
  0
VERTEX
  8
0
 62
9
  6
CONTINUOUS
 10
47.1687760337
 20
83.2635884885
  0
VERTEX
  8
0
 62
9
  6
CONTINUOUS
 10
47.1806893126
 20
83.2596168349
  0
VERTEX
  8
0
 62
9
  6
CONTINUOUS
 10
47.2036451039
 20
83.2550812937
  0
SEQEND
  0
POLYLINE
  8
0
 62
9
  6
CONTINUOUS
 66
1
 70
0
  0
VERTEX
  8
0
 62
9
  6
CONTINUOUS
 10
66.3688182515
 20
83.7688448169
  0
VERTEX
  8
0
 62
9
  6
CONTINUOUS
 10
66.2557949181
 20
83.767356658
  0
VERTEX
  8
0
 62
9
  6
CONTINUOUS
 10
66.1661770908
 20
83.7649397256
  0
VERTEX
  8
0
 62
9
  6
CONTINUOUS
 10
66.1034328695
 20
83.7616850647
  0
VERTEX
  8
0
 62
9
  6
CONTINUOUS
 10
66.0699678257
 20
83.7577163075
  0
VERTEX
  8
0
 62
9
  6
CONTINUOUS
 10
66.0645331893
 20
83.7550816712
  0
SEQEND
  0
POLYLINE
  8
0
 62
7
  6
CONTINUOUS
 66
1
 70
0
  0
VERTEX
  8
0
 62
7
  6
CONTINUOUS
 10
150.1150159882
 20
83.0601751594
  0
VERTEX
  8
0
 62
7
  6
CONTINUOUS
 10
150.1678194651
 20
83.0607534376
  0
VERTEX
  8
0
 62
7
  6
CONTINUOUS
 10
150.2978018415
 20
83.0670718312
  0
SEQEND
  0
POLYLINE
  8
0
 62
9
  6
CONTINUOUS
 66
1
 70
0
  0
VERTEX
  8
0
 62
9
  6
CONTINUOUS
 10
136.721923966
 20
83.2712497706
  0
VERTEX
  8
0
 62
9
  6
CONTINUOUS
 10
136.6764910415
 20
83.270749576
  0
VERTEX
  8
0
 62
9
  6
CONTINUOUS
 10
136.6245292821
 20
83.2692624584
  0
VERTEX
  8
0
 62
9
  6
CONTINUOUS
 10
136.5681465628
 20
83.2668447536
  0
VERTEX
  8
0
 62
9
  6
CONTINUOUS
 10
136.5095234598
 20
83.2635884885
  0
VERTEX
  8
0
 62
9
  6
CONTINUOUS
 10
136.4509053834
 20
83.2596168349
  0
VERTEX
  8
0
 62
9
  6
CONTINUOUS
 10
136.3945528251
 20
83.2550812937
  0
VERTEX
  8
0
 62
9
  6
CONTINUOUS
 10
136.3427177546
 20
83.2501631618
  0
SEQEND
  0
POLYLINE
  8
0
 62
9
  6
CONTINUOUS
 66
1
 70
0
  0
VERTEX
  8
0
 62
9
  6
CONTINUOUS
 10
136.923118523
 20
83.7688448169
  0
VERTEX
  8
0
 62
9
  6
CONTINUOUS
 10
136.7846863454
 20
83.767356658
  0
VERTEX
  8
0
 62
9
  6
CONTINUOUS
 10
136.6344786061
 20
83.7649397256
  0
VERTEX
  8
0
 62
9
  6
CONTINUOUS
 10
136.4783013401
 20
83.7616850647
  0
VERTEX
  8
0
 62
9
  6
CONTINUOUS
 10
136.322128538
 20
83.7577163075
  0
VERTEX
  8
0
 62
9
  6
CONTINUOUS
 10
136.1719775972
 20
83.7531831287
  0
VERTEX
  8
0
 62
9
  6
CONTINUOUS
 10
136.0336508997
 20
83.7482605108
  0
SEQEND
  0
POLYLINE
  8
0
 62
9
  6
CONTINUOUS
 66
1
 70
0
  0
VERTEX
  8
0
 62
9
  6
CONTINUOUS
 10
66.7083625791
 20
83.2712497706
  0
VERTEX
  8
0
 62
9
  6
CONTINUOUS
 10
66.6588902747
 20
83.270749576
  0
VERTEX
  8
0
 62
9
  6
CONTINUOUS
 10
66.6164326744
 20
83.2692624584
  0
VERTEX
  8
0
 62
9
  6
CONTINUOUS
 10
66.5827613526
 20
83.2668447536
  0
VERTEX
  8
0
 62
9
  6
CONTINUOUS
 10
66.5591827339
 20
83.2635884885
  0
VERTEX
  8
0
 62
9
  6
CONTINUOUS
 10
66.5466018966
 20
83.2596168349
  0
VERTEX
  8
0
 62
9
  6
CONTINUOUS
 10
66.5455075059
 20
83.2550812937
  0
VERTEX
  8
0
 62
9
  6
CONTINUOUS
 10
66.5559239338
 20
83.2501631618
  0
SEQEND
  0
POLYLINE
  8
0
 62
9
  6
CONTINUOUS
 66
1
 70
0
  0
VERTEX
  8
0
 62
9
  6
CONTINUOUS
 10
90.7422579823
 20
83.7688448169
  0
VERTEX
  8
0
 62
9
  6
CONTINUOUS
 10
90.5947397831
 20
83.767356658
  0
VERTEX
  8
0
 62
9
  6
CONTINUOUS
 10
90.4604743488
 20
83.7649397256
  0
VERTEX
  8
0
 62
9
  6
CONTINUOUS
 10
90.3446546699
 20
83.7616850647
  0
VERTEX
  8
0
 62
9
  6
CONTINUOUS
 10
90.2517153189
 20
83.7577163075
  0
VERTEX
  8
0
 62
9
  6
CONTINUOUS
 10
90.1852481869
 20
83.7531831287
  0
VERTEX
  8
0
 62
9
  6
CONTINUOUS
 10
90.147827002
 20
83.7482605108
  0
SEQEND
  0
POLYLINE
  8
0
 62
9
  6
CONTINUOUS
 66
1
 70
0
  0
VERTEX
  8
0
 62
9
  6
CONTINUOUS
 10
115.6987600495
 20
83.7688448169
  0
VERTEX
  8
0
 62
9
  6
CONTINUOUS
 10
115.5422542214
 20
83.767356658
  0
VERTEX
  8
0
 62
9
  6
CONTINUOUS
 10
115.3865568933
 20
83.7649397256
  0
VERTEX
  8
0
 62
9
  6
CONTINUOUS
 10
115.2376880315
 20
83.7616850647
  0
VERTEX
  8
0
 62
9
  6
CONTINUOUS
 10
115.1013444315
 20
83.7577163075
  0
VERTEX
  8
0
 62
9
  6
CONTINUOUS
 10
114.9827854309
 20
83.7531831287
  0
VERTEX
  8
0
 62
9
  6
CONTINUOUS
 10
114.8865954269
 20
83.7482605108
  0
SEQEND
  0
POLYLINE
  8
0
 62
9
  6
CONTINUOUS
 66
1
 70
0
  0
VERTEX
  8
0
 62
9
  6
CONTINUOUS
 10
115.6867612106
 20
83.2712497706
  0
VERTEX
  8
0
 62
9
  6
CONTINUOUS
 10
115.6301027041
 20
83.270749576
  0
VERTEX
  8
0
 62
9
  6
CONTINUOUS
 10
115.5713426057
 20
83.2692624584
  0
VERTEX
  8
0
 62
9
  6
CONTINUOUS
 10
115.5128856313
 20
83.2668447536
  0
VERTEX
  8
0
 62
9
  6
CONTINUOUS
 10
115.4569943746
 20
83.2635884885
  0
VERTEX
  8
0
 62
9
  6
CONTINUOUS
 10
115.4058104472
 20
83.2596168349
  0
VERTEX
  8
0
 62
9
  6
CONTINUOUS
 10
115.3613091581
 20
83.2550812937
  0
VERTEX
  8
0
 62
9
  6
CONTINUOUS
 10
115.3252605944
 20
83.2501631618
  0
SEQEND
  0
POLYLINE
  8
0
 62
9
  6
CONTINUOUS
 66
1
 70
0
  0
VERTEX
  8
0
 62
9
  6
CONTINUOUS
 10
90.9215295697
 20
83.2712497706
  0
VERTEX
  8
0
 62
9
  6
CONTINUOUS
 10
90.8634422518
 20
83.270749576
  0
VERTEX
  8
0
 62
9
  6
CONTINUOUS
 10
90.8080439692
 20
83.2692624584
  0
VERTEX
  8
0
 62
9
  6
CONTINUOUS
 10
90.7576204816
 20
83.2668447536
  0
VERTEX
  8
0
 62
9
  6
CONTINUOUS
 10
90.7141251772
 20
83.2635884885
  0
VERTEX
  8
0
 62
9
  6
CONTINUOUS
 10
90.6792255649
 20
83.2596168349
  0
VERTEX
  8
0
 62
9
  6
CONTINUOUS
 10
90.6542702223
 20
83.2550812937
  0
VERTEX
  8
0
 62
9
  6
CONTINUOUS
 10
90.6402412894
 20
83.2501631618
  0
SEQEND
  0
POLYLINE
  8
0
 62
9
  6
CONTINUOUS
 66
1
 70
0
  0
VERTEX
  8
0
 62
9
  6
CONTINUOUS
 10
150.815852503
 20
83.7693471197
  0
VERTEX
  8
0
 62
9
  6
CONTINUOUS
 10
150.7454490055
 20
83.7688448169
  0
VERTEX
  8
0
 62
9
  6
CONTINUOUS
 10
150.6490266595
 20
83.767356658
  0
VERTEX
  8
0
 62
9
  6
CONTINUOUS
 10
150.5302807918
 20
83.7649397256
  0
VERTEX
  8
0
 62
9
  6
CONTINUOUS
 10
150.2448012818
 20
83.7577163075
  0
SEQEND
  0
POLYLINE
  8
0
 62
9
  6
CONTINUOUS
 66
1
 70
0
  0
VERTEX
  8
0
 62
9
  6
CONTINUOUS
 10
46.8790523838
 20
83.7693471197
  0
VERTEX
  8
0
 62
9
  6
CONTINUOUS
 10
46.7928300123
 20
83.7688448169
  0
VERTEX
  8
0
 62
9
  6
CONTINUOUS
 10
46.7338443058
 20
83.767356658
  0
VERTEX
  8
0
 62
9
  6
CONTINUOUS
 10
46.7043698221
 20
83.7649397256
  0
VERTEX
  8
0
 62
9
  6
CONTINUOUS
 10
46.7010807653
 20
83.7635340106
  0
SEQEND
  0
LINE
  8
1_AXIS
 62
9
  6
CONTINUOUS
 10
59.1143326039
 20
81.0601750547
 11
129.1143326039
 21
81.0601750547
  0
LINE
  8
0
 62
7
  6
CONTINUOUS
 10
147.1147276979
 20
82.7601750547
 11
132.0620929335
 21
82.7601750547
  0
LINE
  8
0
 62
7
  6
CONTINUOUS
 10
36.4045548557
 20
83.0601750547
 11
151.8241103522
 21
83.0601750547
  0
LINE
  8
0
 62
9
  6
CONTINUOUS
 10
37.8799506753
 20
83.0715909604
 11
40.2446034046
 21
83.0715909604
  0
LINE
  8
0
 62
9
  6
CONTINUOUS
 10
48.5371249522
 20
83.0715909604
 11
53.6574307715
 21
83.0715909604
  0
LINE
  8
0
 62
9
  6
CONTINUOUS
 10
67.075012488
 20
83.0715909604
 11
74.0656240047
 21
83.0715909604
  0
LINE
  8
0
 62
9
  6
CONTINUOUS
 10
90.2882441164
 20
83.0715909604
 11
97.9404210915
 21
83.0715909604
  0
LINE
  8
0
 62
9
  6
CONTINUOUS
 10
114.1630412032
 20
83.0715909604
 11
121.1536527198
 21
83.0715909604
  0
LINE
  8
0
 62
9
  6
CONTINUOUS
 10
134.5712344364
 20
83.0715909604
 11
139.6915402557
 21
83.0715909604
  0
LINE
  8
0
 62
9
  6
CONTINUOUS
 10
147.9840618033
 20
83.0715909604
 11
150.3487145326
 21
83.0715909604
  0
LINE
  8
0
 62
9
  6
CONTINUOUS
 10
140.9947284266
 20
83.2712497706
 11
136.721923966
 21
83.2712497706
  0
LINE
  8
0
 62
9
  6
CONTINUOUS
 10
121.5203026288
 20
83.2712497706
 11
115.6867612106
 21
83.2712497706
  0
LINE
  8
0
 62
9
  6
CONTINUOUS
 10
97.3071356382
 20
83.2712497706
 11
90.9215295697
 21
83.2712497706
  0
LINE
  8
0
 62
9
  6
CONTINUOUS
 10
72.5419039973
 20
83.2712497706
 11
66.7083625791
 21
83.2712497706
  0
LINE
  8
0
 62
9
  6
CONTINUOUS
 10
51.5067412419
 20
83.2712497706
 11
47.2339367813
 21
83.2712497706
  0
LINE
  8
0
 62
9
  6
CONTINUOUS
 10
37.8388181107
 20
83.2712497706
 11
35.8655573162
 21
83.2712497706
  0
LINE
  8
0
 62
9
  6
CONTINUOUS
 10
152.3631078917
 20
83.2712497706
 11
150.3898470971
 21
83.2712497706
  0
LINE
  8
0
 62
9
  6
CONTINUOUS
 10
147.7067505571
 20
83.5601750547
 11
141.4836655986
 21
83.5601750547
  0
LINE
  8
0
 62
9
  6
CONTINUOUS
 10
134.1236242075
 20
83.5601750547
 11
122.1238348972
 21
83.5601750547
  0
LINE
  8
0
 62
9
  6
CONTINUOUS
 10
113.6225278667
 20
83.5601750547
 11
98.4803778694
 21
83.5601750547
  0
LINE
  8
0
 62
9
  6
CONTINUOUS
 10
89.7482873385
 20
83.5601750547
 11
74.6061373412
 21
83.5601750547
  0
LINE
  8
0
 62
9
  6
CONTINUOUS
 10
66.1049411142
 20
83.5601750547
 11
54.1050410003
 21
83.5601750547
  0
LINE
  8
0
 62
9
  6
CONTINUOUS
 10
46.7445648105
 20
83.5601750547
 11
40.5219146507
 21
83.5601750547
  0
LINE
  8
0
 62
9
  6
CONTINUOUS
 10
152.8040508734
 20
83.7693471197
 11
150.815852503
 21
83.7693471197
  0
LINE
  8
0
 62
9
  6
CONTINUOUS
 10
141.349612824
 20
83.7693471197
 11
136.923118523
 21
83.7688448169
  0
LINE
  8
0
 62
9
  6
CONTINUOUS
 10
121.7277657055
 20
83.7693471197
 11
115.6987600495
 21
83.7688448169
  0
LINE
  8
0
 62
9
  6
CONTINUOUS
 10
97.3313051436
 20
83.7693471197
 11
90.7422579823
 21
83.7688448169
  0
LINE
  8
0
 62
9
  6
CONTINUOUS
 10
72.3786008043
 20
83.7693471197
 11
66.3688182515
 21
83.7688448169
  0
LINE
  8
0
 62
9
  6
CONTINUOUS
 10
37.4128127048
 20
83.7693471197
 11
35.4246143344
 21
83.7693471197
  0
POLYLINE
  8
0
 62
9
  6
CONTINUOUS
 66
1
 70
0
  0
VERTEX
  8
0
 62
9
  6
CONTINUOUS
 10
37.5795850128
 20
83.7673568825
  0
VERTEX
  8
0
 62
9
  6
CONTINUOUS
 10
37.4831864088
 20
83.7688449847
  0
VERTEX
  8
0
 62
9
  6
CONTINUOUS
 10
37.4128127048
 20
83.7693471197
  0
SEQEND
  0
LINE
  8
0
 62
9
  6
CONTINUOUS
 10
141.0270558685
 20
83.2707486891
 11
140.9947284266
 21
83.2712497706
  0
POLYLINE
  8
0
 62
9
  6
CONTINUOUS
 66
1
 70
0
  0
VERTEX
  8
0
 62
9
  6
CONTINUOUS
 10
40.5173072508
 20
83.0601750547
  0
VERTEX
  8
0
 62
9
  6
CONTINUOUS
 10
40.3801403016
 20
83.0630419793
  0
VERTEX
  8
0
 62
9
  6
CONTINUOUS
 10
40.2446034046
 20
83.0715909604
  0
SEQEND
  0
LINE
  8
0
 62
7
  6
CONTINUOUS
 10
67.1031126176
 20
83.0606510136
 11
67.1257972722
 21
83.06017518
  0
POLYLINE
  8
0
 62
7
  6
CONTINUOUS
 66
1
 70
0
  0
VERTEX
  8
0
 62
7
  6
CONTINUOUS
 10
36.4045548549
 20
83.0601750547
  0
VERTEX
  8
0
 62
7
  6
CONTINUOUS
 10
36.2752925773
 20
83.0630330029
  0
VERTEX
  8
0
 62
7
  6
CONTINUOUS
 10
36.1463416073
 20
83.0715909604
  0
SEQEND
  0
POLYLINE
  8
0
 62
9
  6
CONTINUOUS
 66
1
 70
0
  0
VERTEX
  8
0
 62
9
  6
CONTINUOUS
 10
40.5219146507
 20
83.5601750547
  0
VERTEX
  8
0
 62
9
  6
CONTINUOUS
 10
40.4137578761
 20
83.5625641628
  0
VERTEX
  8
0
 62
9
  6
CONTINUOUS
 10
40.3070085628
 20
83.5696883095
  0
SEQEND
  0
POLYLINE
  8
0
 62
9
  6
CONTINUOUS
 66
1
 70
0
  0
VERTEX
  8
0
 62
9
  6
CONTINUOUS
 10
53.897472244
 20
83.0601750547
  0
VERTEX
  8
0
 62
9
  6
CONTINUOUS
 10
53.7765093128
 20
83.0630330029
  0
VERTEX
  8
0
 62
9
  6
CONTINUOUS
 10
53.6574307715
 20
83.0715909604
  0
SEQEND
  0
LINE
  8
0
 62
9
  6
CONTINUOUS
 10
37.8348183195
 20
83.7616850413
 11
37.5795850128
 21
83.7673568825
  0
LINE
  8
0
 62
9
  6
CONTINUOUS
 10
37.9969040354
 20
83.0630332468
 11
38.1136588318
 21
83.0601750551
  0
POLYLINE
  8
0
 62
9
  6
CONTINUOUS
 66
1
 70
0
  0
VERTEX
  8
0
 62
9
  6
CONTINUOUS
 10
54.1050410003
 20
83.5601750547
  0
VERTEX
  8
0
 62
9
  6
CONTINUOUS
 10
54.0071762918
 20
83.5625566897
  0
VERTEX
  8
0
 62
9
  6
CONTINUOUS
 10
53.9110360721
 20
83.5696883095
  0
SEQEND
  0
POLYLINE
  8
0
 62
9
  6
CONTINUOUS
 66
1
 70
0
  0
VERTEX
  8
0
 62
9
  6
CONTINUOUS
 10
38.2961897938
 20
83.7482605108
  0
VERTEX
  8
0
 62
9
  6
CONTINUOUS
 10
38.1396207098
 20
83.7531829952
  0
VERTEX
  8
0
 62
9
  6
CONTINUOUS
 10
37.8348183195
 20
83.7616850413
  0
SEQEND
  0
POLYLINE
  8
0
 62
9
  6
CONTINUOUS
 66
1
 70
0
  0
VERTEX
  8
0
 62
9
  6
CONTINUOUS
 10
74.6061373412
 20
83.5601750547
  0
VERTEX
  8
0
 62
9
  6
CONTINUOUS
 10
74.5353178057
 20
83.5625566897
  0
VERTEX
  8
0
 62
9
  6
CONTINUOUS
 10
74.4665787873
 20
83.5696883095
  0
SEQEND
  0
POLYLINE
  8
0
 62
9
  6
CONTINUOUS
 66
1
 70
0
  0
VERTEX
  8
0
 62
9
  6
CONTINUOUS
 10
74.2314977521
 20
83.0601750547
  0
VERTEX
  8
0
 62
9
  6
CONTINUOUS
 10
74.147440275
 20
83.0630330029
  0
VERTEX
  8
0
 62
9
  6
CONTINUOUS
 10
74.0656240047
 20
83.0715909604
  0
SEQEND
  0
POLYLINE
  8
0
 62
9
  6
CONTINUOUS
 66
1
 70
0
  0
VERTEX
  8
0
 62
9
  6
CONTINUOUS
 10
52.1950143082
 20
83.7482605108
  0
VERTEX
  8
0
 62
9
  6
CONTINUOUS
 10
52.0566657796
 20
83.7531829952
  0
VERTEX
  8
0
 62
9
  6
CONTINUOUS
 10
51.9065073439
 20
83.757715397
  0
VERTEX
  8
0
 62
9
  6
CONTINUOUS
 10
51.7503121159
 20
83.7616850413
  0
VERTEX
  8
0
 62
9
  6
CONTINUOUS
 10
51.5941219715
 20
83.7649399461
  0
VERTEX
  8
0
 62
9
  6
CONTINUOUS
 10
51.4439070438
 20
83.7673568825
  0
VERTEX
  8
0
 62
9
  6
CONTINUOUS
 10
51.3055002893
 20
83.7688449847
  0
VERTEX
  8
0
 62
9
  6
CONTINUOUS
 10
46.8790523838
 20
83.7693471197
  0
SEQEND
  0
POLYLINE
  8
0
 62
9
  6
CONTINUOUS
 66
1
 70
0
  0
VERTEX
  8
0
 62
9
  6
CONTINUOUS
 10
34.0488292632
 20
83.7482605108
  0
VERTEX
  8
0
 62
9
  6
CONTINUOUS
 10
33.4906291655
 20
83.767357079
  0
VERTEX
  8
0
 62
9
  6
CONTINUOUS
 10
33.4529107847
 20
83.768845048
  0
VERTEX
  8
0
 62
9
  6
CONTINUOUS
 10
33.4445607652
 20
83.7693103274
  0
SEQEND
  0
LINE
  8
0
 62
9
  6
CONTINUOUS
 10
48.6155073603
 20
83.0630332468
 11
48.6928225861
 21
83.0601750547
  0
POLYLINE
  8
0
 62
9
  6
CONTINUOUS
 66
1
 70
0
  0
VERTEX
  8
0
 62
9
  6
CONTINUOUS
 10
73.3420697809
 20
83.7482605108
  0
VERTEX
  8
0
 62
9
  6
CONTINUOUS
 10
73.2458635253
 20
83.7531829952
  0
VERTEX
  8
0
 62
9
  6
CONTINUOUS
 10
73.1272963729
 20
83.757715397
  0
VERTEX
  8
0
 62
9
  6
CONTINUOUS
 10
72.9909299197
 20
83.7616850413
  0
VERTEX
  8
0
 62
9
  6
CONTINUOUS
 10
72.842044067
 20
83.7649399461
  0
VERTEX
  8
0
 62
9
  6
CONTINUOUS
 10
72.6863333027
 20
83.7673568825
  0
VERTEX
  8
0
 62
9
  6
CONTINUOUS
 10
72.529850183
 20
83.7688449847
  0
VERTEX
  8
0
 62
9
  6
CONTINUOUS
 10
72.3786008043
 20
83.7693471197
  0
SEQEND
  0
POLYLINE
  8
0
 62
9
  6
CONTINUOUS
 66
1
 70
0
  0
VERTEX
  8
0
 62
9
  6
CONTINUOUS
 10
98.4803778694
 20
83.5601750547
  0
VERTEX
  8
0
 62
9
  6
CONTINUOUS
 10
98.4488488481
 20
83.5625566897
  0
VERTEX
  8
0
 62
9
  6
CONTINUOUS
 10
98.4193966316
 20
83.5696883095
  0
SEQEND
  0
POLYLINE
  8
0
 62
9
  6
CONTINUOUS
 66
1
 70
0
  0
VERTEX
  8
0
 62
9
  6
CONTINUOUS
 10
98.003446036
 20
83.0601750547
  0
VERTEX
  8
0
 62
9
  6
CONTINUOUS
 10
97.9708283145
 20
83.0630330029
  0
VERTEX
  8
0
 62
9
  6
CONTINUOUS
 10
97.9404210915
 20
83.0715909604
  0
SEQEND
  0
POLYLINE
  8
0
 62
9
  6
CONTINUOUS
 66
1
 70
0
  0
VERTEX
  8
0
 62
9
  6
CONTINUOUS
 10
98.0808382059
 20
83.7482605108
  0
VERTEX
  8
0
 62
9
  6
CONTINUOUS
 10
98.0434091588
 20
83.7531829952
  0
VERTEX
  8
0
 62
9
  6
CONTINUOUS
 10
97.9769346274
 20
83.757715397
  0
VERTEX
  8
0
 62
9
  6
CONTINUOUS
 10
97.8839759477
 20
83.7616850413
  0
VERTEX
  8
0
 62
9
  6
CONTINUOUS
 10
97.7681381032
 20
83.7649399461
  0
VERTEX
  8
0
 62
9
  6
CONTINUOUS
 10
97.6338553081
 20
83.7673568825
  0
VERTEX
  8
0
 62
9
  6
CONTINUOUS
 10
97.4863531762
 20
83.7688449847
  0
VERTEX
  8
0
 62
9
  6
CONTINUOUS
 10
97.3313051436
 20
83.7693471197
  0
SEQEND
  0
POLYLINE
  8
0
 62
9
  6
CONTINUOUS
 66
1
 70
0
  0
VERTEX
  8
0
 62
9
  6
CONTINUOUS
 10
74.0656240047
 20
83.0715909604
  0
VERTEX
  8
0
 62
9
  6
CONTINUOUS
 10
73.8748391002
 20
83.0972862148
  0
VERTEX
  8
0
 62
9
  6
CONTINUOUS
 10
73.7085711596
 20
83.1213695033
  0
VERTEX
  8
0
 62
9
  6
CONTINUOUS
 10
73.5645869102
 20
83.1437409693
  0
SEQEND
  0
POLYLINE
  8
0
 62
9
  6
CONTINUOUS
 66
1
 70
0
  0
VERTEX
  8
0
 62
9
  6
CONTINUOUS
 10
72.9034046135
 20
83.2501631618
  0
VERTEX
  8
0
 62
9
  6
CONTINUOUS
 10
72.8674009725
 20
83.2550760206
  0
VERTEX
  8
0
 62
9
  6
CONTINUOUS
 10
72.8229067014
 20
83.2596121936
  0
VERTEX
  8
0
 62
9
  6
CONTINUOUS
 10
72.7717218569
 20
83.2635850435
  0
VERTEX
  8
0
 62
9
  6
CONTINUOUS
 10
72.7158286857
 20
83.266842317
  0
VERTEX
  8
0
 62
9
  6
CONTINUOUS
 10
72.6573679534
 20
83.2692609655
  0
VERTEX
  8
0
 62
9
  6
CONTINUOUS
 10
72.5986140879
 20
83.2707486891
  0
VERTEX
  8
0
 62
9
  6
CONTINUOUS
 10
72.5419039973
 20
83.2712497706
  0
SEQEND
  0
POLYLINE
  8
0
 62
9
  6
CONTINUOUS
 66
1
 70
0
  0
VERTEX
  8
0
 62
9
  6
CONTINUOUS
 10
90.2252191719
 20
83.0601750547
  0
VERTEX
  8
0
 62
9
  6
CONTINUOUS
 10
90.1017797062
 20
83.0772122607
  0
VERTEX
  8
0
 62
9
  6
CONTINUOUS
 10
89.9867526751
 20
83.127162704
  0
VERTEX
  8
0
 62
9
  6
CONTINUOUS
 10
89.8879769401
 20
83.2066221865
  0
VERTEX
  8
0
 62
9
  6
CONTINUOUS
 10
89.8121838021
 20
83.3101755744
  0
VERTEX
  8
0
 62
9
  6
CONTINUOUS
 10
89.7645383143
 20
83.4307658545
  0
VERTEX
  8
0
 62
9
  6
CONTINUOUS
 10
89.7482873385
 20
83.5601750547
  0
SEQEND
  0
POLYLINE
  8
0
 62
9
  6
CONTINUOUS
 66
1
 70
0
  0
VERTEX
  8
0
 62
9
  6
CONTINUOUS
 10
74.4665787873
 20
83.5696883095
  0
VERTEX
  8
0
 62
9
  6
CONTINUOUS
 10
74.2900855791
 20
83.5953847425
  0
VERTEX
  8
0
 62
9
  6
CONTINUOUS
 10
74.1362982075
 20
83.6194642397
  0
VERTEX
  8
0
 62
9
  6
CONTINUOUS
 10
74.0030805853
 20
83.6418383183
  0
SEQEND
  0
POLYLINE
  8
0
 62
9
  6
CONTINUOUS
 66
1
 70
0
  0
VERTEX
  8
0
 62
9
  6
CONTINUOUS
 10
90.6402412894
 20
83.2501631618
  0
VERTEX
  8
0
 62
9
  6
CONTINUOUS
 10
90.5136013073
 20
83.2689768868
  0
VERTEX
  8
0
 62
9
  6
CONTINUOUS
 10
90.3955712014
 20
83.3197396732
  0
VERTEX
  8
0
 62
9
  6
CONTINUOUS
 10
90.2940188624
 20
83.3990676721
  0
VERTEX
  8
0
 62
9
  6
CONTINUOUS
 10
90.2157137723
 20
83.5016728766
  0
VERTEX
  8
0
 62
9
  6
CONTINUOUS
 10
90.1658757508
 20
83.6207156205
  0
VERTEX
  8
0
 62
9
  6
CONTINUOUS
 10
90.147827002
 20
83.7482605108
  0
SEQEND
  0
POLYLINE
  8
0
 62
9
  6
CONTINUOUS
 66
1
 70
0
  0
VERTEX
  8
0
 62
9
  6
CONTINUOUS
 10
90.4637618298
 20
83.1437409863
  0
VERTEX
  8
0
 62
9
  6
CONTINUOUS
 10
90.33715676
 20
83.1625923275
  0
VERTEX
  8
0
 62
9
  6
CONTINUOUS
 10
90.2191674605
 20
83.2133755554
  0
VERTEX
  8
0
 62
9
  6
CONTINUOUS
 10
90.1176554912
 20
83.2927070127
  0
VERTEX
  8
0
 62
9
  6
CONTINUOUS
 10
90.0393845364
 20
83.3953008897
  0
VERTEX
  8
0
 62
9
  6
CONTINUOUS
 10
89.9895697454
 20
83.5143214147
  0
VERTEX
  8
0
 62
9
  6
CONTINUOUS
 10
89.9715302491
 20
83.6418383183
  0
SEQEND
  0
POLYLINE
  8
0
 62
9
  6
CONTINUOUS
 66
1
 70
0
  0
VERTEX
  8
0
 62
9
  6
CONTINUOUS
 10
89.5198999289
 20
83.0601750547
  0
VERTEX
  8
0
 62
9
  6
CONTINUOUS
 10
89.4100833012
 20
83.0772123703
  0
VERTEX
  8
0
 62
9
  6
CONTINUOUS
 10
89.307750886
 20
83.1271630389
  0
VERTEX
  8
0
 62
9
  6
CONTINUOUS
 10
89.219876423
 20
83.2066226992
  0
VERTEX
  8
0
 62
9
  6
CONTINUOUS
 10
89.1524482448
 20
83.3101760951
  0
VERTEX
  8
0
 62
9
  6
CONTINUOUS
 10
89.1100612503
 20
83.4307661815
  0
VERTEX
  8
0
 62
9
  6
CONTINUOUS
 10
89.09560386
 20
83.5601750547
  0
SEQEND
  0
LINE
  8
0
 62
9
  6
CONTINUOUS
 10
74.0030805853
 20
83.6418383183
 11
73.3420697809
 21
83.7482605108
  0
POLYLINE
  8
0
 62
9
  6
CONTINUOUS
 66
1
 70
0
  0
VERTEX
  8
0
 62
9
  6
CONTINUOUS
 10
90.2882441172
 20
83.071591089
  0
VERTEX
  8
0
 62
9
  6
CONTINUOUS
 10
90.1658295783
 20
83.091593471
  0
VERTEX
  8
0
 62
9
  6
CONTINUOUS
 10
90.0516451366
 20
83.1430014854
  0
VERTEX
  8
0
 62
9
  6
CONTINUOUS
 10
89.9531914668
 20
83.2224381853
  0
VERTEX
  8
0
 62
9
  6
CONTINUOUS
 10
89.8769359034
 20
83.3246854442
  0
VERTEX
  8
0
 62
9
  6
CONTINUOUS
 10
89.8278876068
 20
83.4430267303
  0
VERTEX
  8
0
 62
9
  6
CONTINUOUS
 10
89.8092685162
 20
83.5696883095
  0
SEQEND
  0
POLYLINE
  8
0
 62
9
  6
CONTINUOUS
 66
1
 70
0
  0
VERTEX
  8
0
 62
9
  6
CONTINUOUS
 10
51.8859474532
 20
92.8701869476
  0
VERTEX
  8
0
 62
9
  6
CONTINUOUS
 10
51.9583991336
 20
92.8513732226
  0
VERTEX
  8
0
 62
9
  6
CONTINUOUS
 10
52.0280638822
 20
92.8006104362
  0
VERTEX
  8
0
 62
9
  6
CONTINUOUS
 10
52.0902978448
 20
92.7212824373
  0
VERTEX
  8
0
 62
9
  6
CONTINUOUS
 10
52.1409525035
 20
92.6186772328
  0
VERTEX
  8
0
 62
9
  6
CONTINUOUS
 10
52.1766512171
 20
92.4996344889
  0
VERTEX
  8
0
 62
9
  6
CONTINUOUS
 10
52.1950143082
 20
92.3720895986
  0
SEQEND
  0
POLYLINE
  8
0
 62
9
  6
CONTINUOUS
 66
1
 70
0
  0
VERTEX
  8
0
 62
9
  6
CONTINUOUS
 10
52.917508162
 20
92.9766091305
  0
VERTEX
  8
0
 62
9
  6
CONTINUOUS
 10
52.9899415728
 20
92.9577577772
  0
VERTEX
  8
0
 62
9
  6
CONTINUOUS
 10
53.0595818569
 20
92.906974542
  0
VERTEX
  8
0
 62
9
  6
CONTINUOUS
 10
53.1217889226
 20
92.8276430825
  0
VERTEX
  8
0
 62
9
  6
CONTINUOUS
 10
53.1724179493
 20
92.7250492076
  0
VERTEX
  8
0
 62
9
  6
CONTINUOUS
 10
53.2080955541
 20
92.6060286877
  0
VERTEX
  8
0
 62
9
  6
CONTINUOUS
 10
53.2264445591
 20
92.4785117911
  0
SEQEND
  0
POLYLINE
  8
0
 62
9
  6
CONTINUOUS
 66
1
 70
0
  0
VERTEX
  8
0
 62
9
  6
CONTINUOUS
 10
53.897472244
 20
93.0601750547
  0
VERTEX
  8
0
 62
9
  6
CONTINUOUS
 10
53.9511950833
 20
93.0431379085
  0
VERTEX
  8
0
 62
9
  6
CONTINUOUS
 10
54.0012567488
 20
92.9931875805
  0
VERTEX
  8
0
 62
9
  6
CONTINUOUS
 10
54.0442456285
 20
92.9137281819
  0
VERTEX
  8
0
 62
9
  6
CONTINUOUS
 10
54.0772321231
 20
92.8101747917
  0
VERTEX
  8
0
 62
9
  6
CONTINUOUS
 10
54.0979682847
 20
92.6895844137
  0
VERTEX
  8
0
 62
9
  6
CONTINUOUS
 10
54.1050410003
 20
92.5601750547
  0
SEQEND
  0
LINE
  8
0
 62
7
  6
CONTINUOUS
 10
94.1143326039
 20
82.5601750547
 11
93.2483072002
 21
83.0601750547
  0
POLYLINE
  8
0
 62
9
  6
CONTINUOUS
 66
1
 70
0
  0
VERTEX
  8
0
 62
9
  6
CONTINUOUS
 10
90.9215295697
 20
83.2712497706
  0
VERTEX
  8
0
 62
9
  6
CONTINUOUS
 10
90.9151443437
 20
83.2970631008
  0
VERTEX
  8
0
 62
9
  6
CONTINUOUS
 10
90.9092878334
 20
83.3516025486
  0
VERTEX
  8
0
 62
9
  6
CONTINUOUS
 10
90.9043162588
 20
83.4315510292
  0
VERTEX
  8
0
 62
9
  6
CONTINUOUS
 10
90.9005320196
 20
83.5320459174
  0
VERTEX
  8
0
 62
9
  6
CONTINUOUS
 10
90.8981652999
 20
83.6469747748
  0
VERTEX
  8
0
 62
9
  6
CONTINUOUS
 10
90.8973600645
 20
83.7693471197
  0
SEQEND
  0
LINE
  8
0
 62
9
  6
CONTINUOUS
 10
90.8973600643
 20
92.3510029897
 11
90.8973600643
 21
83.7693471197
  0
LINE
  8
1_AXIS
 62
2
  6
CENTER
 10
94.1143326039
 20
73.5601750547
 11
94.1143326039
 21
102.5601750547
  0
LINE
  8
0
 62
9
  6
CONTINUOUS
 10
98.0808382059
 20
92.3720895986
 11
98.2571348324
 21
92.4785117911
  0
LINE
  8
0
 62
9
  6
CONTINUOUS
 10
97.5884239185
 20
92.8701869476
 11
97.7649033781
 21
92.9766091401
  0
POLYLINE
  8
0
 62
9
  6
CONTINUOUS
 66
1
 70
0
  0
VERTEX
  8
0
 62
9
  6
CONTINUOUS
 10
98.2571348324
 20
92.4785117911
  0
VERTEX
  8
0
 62
9
  6
CONTINUOUS
 10
98.2963049045
 20
92.5008903343
  0
VERTEX
  8
0
 62
9
  6
CONTINUOUS
 10
98.3495106357
 20
92.5249698373
  0
VERTEX
  8
0
 62
9
  6
CONTINUOUS
 10
98.4193966316
 20
92.5506617999
  0
SEQEND
  0
POLYLINE
  8
0
 62
9
  6
CONTINUOUS
 66
1
 70
0
  0
VERTEX
  8
0
 62
9
  6
CONTINUOUS
 10
97.7649033781
 20
92.9766091401
  0
VERTEX
  8
0
 62
9
  6
CONTINUOUS
 10
97.807270046
 20
92.998985064
  0
VERTEX
  8
0
 62
9
  6
CONTINUOUS
 10
97.8648309382
 20
93.0230682537
  0
VERTEX
  8
0
 62
9
  6
CONTINUOUS
 10
97.9404210915
 20
93.048759149
  0
SEQEND
  0
POLYLINE
  8
0
 62
9
  6
CONTINUOUS
 66
1
 70
0
  0
VERTEX
  8
0
 62
9
  6
CONTINUOUS
 10
89.8092685763
 20
83.5696883095
  0
VERTEX
  8
0
 62
9
  6
CONTINUOUS
 10
89.7798176631
 20
83.5625568931
  0
VERTEX
  8
0
 62
9
  6
CONTINUOUS
 10
89.7482873385
 20
83.5601750547
  0
SEQEND
  0
POLYLINE
  8
0
 62
9
  6
CONTINUOUS
 66
1
 70
0
  0
VERTEX
  8
0
 62
9
  6
CONTINUOUS
 10
75.4993704947
 20
83.0601750547
  0
VERTEX
  8
0
 62
9
  6
CONTINUOUS
 10
75.5718457535
 20
83.0772122254
  0
VERTEX
  8
0
 62
9
  6
CONTINUOUS
 10
75.6393818432
 20
83.1271625986
  0
VERTEX
  8
0
 62
9
  6
CONTINUOUS
 10
75.6973763094
 20
83.2066220281
  0
VERTEX
  8
0
 62
9
  6
CONTINUOUS
 10
75.7418769678
 20
83.3101754156
  0
VERTEX
  8
0
 62
9
  6
CONTINUOUS
 10
75.7698512228
 20
83.4307657555
  0
VERTEX
  8
0
 62
9
  6
CONTINUOUS
 10
75.779392715
 20
83.5601750547
  0
SEQEND
  0
POLYLINE
  8
0
 62
9
  6
CONTINUOUS
 66
1
 70
0
  0
VERTEX
  8
0
 62
9
  6
CONTINUOUS
 10
74.0656240053
 20
83.0715909827
  0
VERTEX
  8
0
 62
9
  6
CONTINUOUS
 10
74.1643582138
 20
83.0915933423
  0
VERTEX
  8
0
 62
9
  6
CONTINUOUS
 10
74.2575959757
 20
83.1430013548
  0
VERTEX
  8
0
 62
9
  6
CONTINUOUS
 10
74.3392125816
 20
83.2224380715
  0
VERTEX
  8
0
 62
9
  6
CONTINUOUS
 10
74.4038467058
 20
83.3246853619
  0
VERTEX
  8
0
 62
9
  6
CONTINUOUS
 10
74.4472525876
 20
83.4430266884
  0
VERTEX
  8
0
 62
9
  6
CONTINUOUS
 10
74.4665789314
 20
83.5696883095
  0
SEQEND
  0
POLYLINE
  8
0
 62
9
  6
CONTINUOUS
 66
1
 70
0
  0
VERTEX
  8
0
 62
9
  6
CONTINUOUS
 10
74.2314977521
 20
83.0601750547
  0
VERTEX
  8
0
 62
9
  6
CONTINUOUS
 10
74.3284616233
 20
83.0772121463
  0
VERTEX
  8
0
 62
9
  6
CONTINUOUS
 10
74.4188175616
 20
83.1271623677
  0
VERTEX
  8
0
 62
9
  6
CONTINUOUS
 10
74.4964079591
 20
83.2066216881
  0
VERTEX
  8
0
 62
9
  6
CONTINUOUS
 10
74.5559451605
 20
83.3101750809
  0
VERTEX
  8
0
 62
9
  6
CONTINUOUS
 10
74.5933718077
 20
83.4307655502
  0
VERTEX
  8
0
 62
9
  6
CONTINUOUS
 10
74.6061373412
 20
83.5601750547
  0
SEQEND
  0
POLYLINE
  8
0
 62
9
  6
CONTINUOUS
 66
1
 70
0
  0
VERTEX
  8
0
 62
9
  6
CONTINUOUS
 10
73.5645869102
 20
83.1437409693
  0
VERTEX
  8
0
 62
9
  6
CONTINUOUS
 10
73.6735242642
 20
83.16259234
  0
VERTEX
  8
0
 62
9
  6
CONTINUOUS
 10
73.7762173183
 20
83.2133755855
  0
VERTEX
  8
0
 62
9
  6
CONTINUOUS
 10
73.8658236954
 20
83.2927070482
  0
VERTEX
  8
0
 62
9
  6
CONTINUOUS
 10
73.9363729758
 20
83.3953009199
  0
VERTEX
  8
0
 62
9
  6
CONTINUOUS
 10
73.983164503
 20
83.5143214319
  0
VERTEX
  8
0
 62
9
  6
CONTINUOUS
 10
74.0030805853
 20
83.6418383183
  0
SEQEND
  0
POLYLINE
  8
0
 62
9
  6
CONTINUOUS
 66
1
 70
0
  0
VERTEX
  8
0
 62
9
  6
CONTINUOUS
 10
72.9034046134
 20
83.2501631602
  0
VERTEX
  8
0
 62
9
  6
CONTINUOUS
 10
73.0123698666
 20
83.2689774887
  0
VERTEX
  8
0
 62
9
  6
CONTINUOUS
 10
73.1150974018
 20
83.3197406043
  0
VERTEX
  8
0
 62
9
  6
CONTINUOUS
 10
73.2047394478
 20
83.3990686604
  0
VERTEX
  8
0
 62
9
  6
CONTINUOUS
 10
73.2753205061
 20
83.5016736845
  0
VERTEX
  8
0
 62
9
  6
CONTINUOUS
 10
73.322135675
 20
83.620716072
  0
VERTEX
  8
0
 62
9
  6
CONTINUOUS
 10
73.3420642762
 20
83.7482605108
  0
SEQEND
  0
POLYLINE
  8
0
 62
9
  6
CONTINUOUS
 66
1
 70
0
  0
VERTEX
  8
0
 62
9
  6
CONTINUOUS
 10
35.8655573162
 20
83.2712497706
  0
VERTEX
  8
0
 62
9
  6
CONTINUOUS
 10
35.8560089566
 20
83.270749576
  0
VERTEX
  8
0
 62
9
  6
CONTINUOUS
 10
35.8579496952
 20
83.2692624584
  0
VERTEX
  8
0
 62
9
  6
CONTINUOUS
 10
35.8713456457
 20
83.2668447536
  0
VERTEX
  8
0
 62
9
  6
CONTINUOUS
 10
35.8956825516
 20
83.2635884885
  0
SEQEND
  0
POLYLINE
  8
0
 62
9
  6
CONTINUOUS
 66
1
 70
0
  0
VERTEX
  8
0
 62
9
  6
CONTINUOUS
 10
35.4246143344
 20
83.7693471197
  0
VERTEX
  8
0
 62
9
  6
CONTINUOUS
 10
35.3991594736
 20
83.7688448169
  0
VERTEX
  8
0
 62
9
  6
CONTINUOUS
 10
35.3974830524
 20
83.7684611524
  0
SEQEND
  0
POLYLINE
  8
0
 62
9
  6
CONTINUOUS
 66
1
 70
0
  0
VERTEX
  8
0
 62
9
  6
CONTINUOUS
 10
115.3252605944
 20
83.2501631618
  0
VERTEX
  8
0
 62
9
  6
CONTINUOUS
 10
115.2162941162
 20
83.2689768868
  0
VERTEX
  8
0
 62
9
  6
CONTINUOUS
 10
115.1135653177
 20
83.3197396732
  0
VERTEX
  8
0
 62
9
  6
CONTINUOUS
 10
115.0239221039
 20
83.3990676721
  0
VERTEX
  8
0
 62
9
  6
CONTINUOUS
 10
114.9533400942
 20
83.5016728766
  0
VERTEX
  8
0
 62
9
  6
CONTINUOUS
 10
114.9065242875
 20
83.6207156205
  0
VERTEX
  8
0
 62
9
  6
CONTINUOUS
 10
114.8865954269
 20
83.7482605108
  0
SEQEND
  0
POLYLINE
  8
0
 62
9
  6
CONTINUOUS
 66
1
 70
0
  0
VERTEX
  8
0
 62
9
  6
CONTINUOUS
 10
114.6640782971
 20
83.1437409863
  0
VERTEX
  8
0
 62
9
  6
CONTINUOUS
 10
114.5551409236
 20
83.1625923275
  0
VERTEX
  8
0
 62
9
  6
CONTINUOUS
 10
114.4524478457
 20
83.2133755554
  0
VERTEX
  8
0
 62
9
  6
CONTINUOUS
 10
114.3628414446
 20
83.2927070127
  0
VERTEX
  8
0
 62
9
  6
CONTINUOUS
 10
114.2922921436
 20
83.3953008897
  0
VERTEX
  8
0
 62
9
  6
CONTINUOUS
 10
114.2455006024
 20
83.5143214147
  0
VERTEX
  8
0
 62
9
  6
CONTINUOUS
 10
114.2255845146
 20
83.6418383183
  0
SEQEND
  0
POLYLINE
  8
0
 62
9
  6
CONTINUOUS
 66
1
 70
0
  0
VERTEX
  8
0
 62
9
  6
CONTINUOUS
 10
113.9971674558
 20
83.0601750547
  0
VERTEX
  8
0
 62
9
  6
CONTINUOUS
 10
113.9002034347
 20
83.0772121989
  0
VERTEX
  8
0
 62
9
  6
CONTINUOUS
 10
113.8098474405
 20
83.1271625229
  0
VERTEX
  8
0
 62
9
  6
CONTINUOUS
 10
113.7322570713
 20
83.2066219184
  0
VERTEX
  8
0
 62
9
  6
CONTINUOUS
 10
113.6727199445
 20
83.3101753086
  0
VERTEX
  8
0
 62
9
  6
CONTINUOUS
 10
113.6352933694
 20
83.43076569
  0
VERTEX
  8
0
 62
9
  6
CONTINUOUS
 10
113.6225278667
 20
83.5601750547
  0
SEQEND
  0
POLYLINE
  8
0
 62
9
  6
CONTINUOUS
 66
1
 70
0
  0
VERTEX
  8
0
 62
9
  6
CONTINUOUS
 10
114.1630411993
 20
83.071591089
  0
VERTEX
  8
0
 62
9
  6
CONTINUOUS
 10
114.0643070216
 20
83.091593471
  0
VERTEX
  8
0
 62
9
  6
CONTINUOUS
 10
113.9710692911
 20
83.1430014854
  0
VERTEX
  8
0
 62
9
  6
CONTINUOUS
 10
113.8894527118
 20
83.2224381853
  0
VERTEX
  8
0
 62
9
  6
CONTINUOUS
 10
113.8248186046
 20
83.3246854442
  0
VERTEX
  8
0
 62
9
  6
CONTINUOUS
 10
113.7814127269
 20
83.4430267303
  0
VERTEX
  8
0
 62
9
  6
CONTINUOUS
 10
113.7620863725
 20
83.5696883095
  0
SEQEND
  0
POLYLINE
  8
0
 62
9
  6
CONTINUOUS
 66
1
 70
0
  0
VERTEX
  8
0
 62
9
  6
CONTINUOUS
 10
112.7292947132
 20
83.0601750547
  0
VERTEX
  8
0
 62
9
  6
CONTINUOUS
 10
112.6568191515
 20
83.0772123703
  0
VERTEX
  8
0
 62
9
  6
CONTINUOUS
 10
112.5892829375
 20
83.1271630389
  0
VERTEX
  8
0
 62
9
  6
CONTINUOUS
 10
112.5312885227
 20
83.2066226992
  0
VERTEX
  8
0
 62
9
  6
CONTINUOUS
 10
112.4867880205
 20
83.3101760951
  0
VERTEX
  8
0
 62
9
  6
CONTINUOUS
 10
112.4588139213
 20
83.4307661815
  0
VERTEX
  8
0
 62
9
  6
CONTINUOUS
 10
112.449272493
 20
83.5601750547
  0
SEQEND
  0
POLYLINE
  8
0
 62
9
  6
CONTINUOUS
 66
1
 70
0
  0
VERTEX
  8
0
 62
9
  6
CONTINUOUS
 10
97.9404210915
 20
83.0715909604
  0
VERTEX
  8
0
 62
9
  6
CONTINUOUS
 10
97.8648193685
 20
83.0972862148
  0
VERTEX
  8
0
 62
9
  6
CONTINUOUS
 10
97.8072605528
 20
83.1213695033
  0
VERTEX
  8
0
 62
9
  6
CONTINUOUS
 10
97.7649033781
 20
83.1437409693
  0
SEQEND
  0
POLYLINE
  8
0
 62
9
  6
CONTINUOUS
 66
1
 70
0
  0
VERTEX
  8
0
 62
9
  6
CONTINUOUS
 10
97.5884239185
 20
83.2501631618
  0
VERTEX
  8
0
 62
9
  6
CONTINUOUS
 10
97.5744167227
 20
83.2550760206
  0
VERTEX
  8
0
 62
9
  6
CONTINUOUS
 10
97.5494720168
 20
83.2596121936
  0
VERTEX
  8
0
 62
9
  6
CONTINUOUS
 10
97.5145773822
 20
83.2635850435
  0
VERTEX
  8
0
 62
9
  6
CONTINUOUS
 10
97.4710850614
 20
83.266842317
  0
VERTEX
  8
0
 62
9
  6
CONTINUOUS
 10
97.4206622692
 20
83.2692609655
  0
VERTEX
  8
0
 62
9
  6
CONTINUOUS
 10
97.3652736822
 20
83.2707486891
  0
VERTEX
  8
0
 62
9
  6
CONTINUOUS
 10
97.3071356382
 20
83.2712497706
  0
SEQEND
  0
POLYLINE
  8
0
 62
9
  6
CONTINUOUS
 66
1
 70
0
  0
VERTEX
  8
0
 62
9
  6
CONTINUOUS
 10
98.4193966316
 20
83.5696883095
  0
VERTEX
  8
0
 62
9
  6
CONTINUOUS
 10
98.349499669
 20
83.5953847425
  0
VERTEX
  8
0
 62
9
  6
CONTINUOUS
 10
98.2962961137
 20
83.6194642397
  0
VERTEX
  8
0
 62
9
  6
CONTINUOUS
 10
98.2571348324
 20
83.6418383183
  0
SEQEND
  0
LINE
  8
0
 62
9
  6
CONTINUOUS
 10
97.7649033781
 20
83.1437409693
 11
97.5884239185
 21
83.2501631618
  0
LINE
  8
0
 62
9
  6
CONTINUOUS
 10
98.2571348324
 20
83.6418383183
 11
98.0808382059
 21
83.7482605108
  0
LINE
  8
0
 62
9
  6
CONTINUOUS
 10
97.3313051436
 20
92.3510029897
 11
97.3313051436
 21
83.7693471197
  0
LINE
  8
0
 62
9
  6
CONTINUOUS
 10
98.0808382059
 20
83.7482605108
 11
98.0808382059
 21
92.3720895986
  0
LINE
  8
0
 62
9
  6
CONTINUOUS
 10
98.2571348324
 20
83.6418383183
 11
98.2571348324
 21
92.4785117911
  0
POLYLINE
  8
0
 62
9
  6
CONTINUOUS
 66
1
 70
0
  0
VERTEX
  8
0
 62
9
  6
CONTINUOUS
 10
97.3071356382
 20
83.2712497706
  0
VERTEX
  8
0
 62
9
  6
CONTINUOUS
 10
97.3135209028
 20
83.2970633477
  0
VERTEX
  8
0
 62
9
  6
CONTINUOUS
 10
97.319377429
 20
83.3516032056
  0
VERTEX
  8
0
 62
9
  6
CONTINUOUS
 10
97.3243489984
 20
83.4315520042
  0
VERTEX
  8
0
 62
9
  6
CONTINUOUS
 10
97.3281332189
 20
83.5320469236
  0
VERTEX
  8
0
 62
9
  6
CONTINUOUS
 10
97.3304999183
 20
83.6469754409
  0
VERTEX
  8
0
 62
9
  6
CONTINUOUS
 10
97.3313051436
 20
83.7693471197
  0
SEQEND
  0
LINE
  8
0
 62
9
  6
CONTINUOUS
 10
90.147827002
 20
83.7482605108
 11
89.9715303754
 21
83.6418383183
  0
LINE
  8
0
 62
9
  6
CONTINUOUS
 10
90.6402412894
 20
83.2501631618
 11
90.4637618297
 21
83.1437409693
  0
POLYLINE
  8
0
 62
9
  6
CONTINUOUS
 66
1
 70
0
  0
VERTEX
  8
0
 62
9
  6
CONTINUOUS
 10
89.9715303754
 20
83.6418383183
  0
VERTEX
  8
0
 62
9
  6
CONTINUOUS
 10
89.932394265
 20
83.6194770232
  0
VERTEX
  8
0
 62
9
  6
CONTINUOUS
 10
89.8791967141
 20
83.5953974561
  0
VERTEX
  8
0
 62
9
  6
CONTINUOUS
 10
89.8092685763
 20
83.5696883095
  0
SEQEND
  0
POLYLINE
  8
0
 62
9
  6
CONTINUOUS
 66
1
 70
0
  0
VERTEX
  8
0
 62
9
  6
CONTINUOUS
 10
90.4637618297
 20
83.1437409693
  0
VERTEX
  8
0
 62
9
  6
CONTINUOUS
 10
90.4214329916
 20
83.1213827986
  0
VERTEX
  8
0
 62
9
  6
CONTINUOUS
 10
90.3638811487
 20
83.0972995341
  0
VERTEX
  8
0
 62
9
  6
CONTINUOUS
 10
90.2882441164
 20
83.0715909604
  0
SEQEND
  0
POLYLINE
  8
0
 62
9
  6
CONTINUOUS
 66
1
 70
0
  0
VERTEX
  8
0
 62
9
  6
CONTINUOUS
 10
97.9404210915
 20
93.048759149
  0
VERTEX
  8
0
 62
9
  6
CONTINUOUS
 10
97.9708277931
 20
93.0573170117
  0
VERTEX
  8
0
 62
9
  6
CONTINUOUS
 10
98.003446036
 20
93.0601750547
  0
SEQEND
  0
POLYLINE
  8
0
 62
9
  6
CONTINUOUS
 66
1
 70
0
  0
VERTEX
  8
0
 62
9
  6
CONTINUOUS
 10
98.4193966316
 20
92.5506617999
  0
VERTEX
  8
0
 62
9
  6
CONTINUOUS
 10
98.4488484947
 20
92.5577933645
  0
VERTEX
  8
0
 62
9
  6
CONTINUOUS
 10
98.4803778694
 20
92.5601750547
  0
SEQEND
  0
POLYLINE
  8
0
 62
9
  6
CONTINUOUS
 66
1
 70
0
  0
VERTEX
  8
0
 62
9
  6
CONTINUOUS
 10
112.7292947132
 20
93.0601750547
  0
VERTEX
  8
0
 62
9
  6
CONTINUOUS
 10
112.6568195172
 20
93.0431379141
  0
VERTEX
  8
0
 62
9
  6
CONTINUOUS
 10
112.5892834505
 20
92.9931875994
  0
VERTEX
  8
0
 62
9
  6
CONTINUOUS
 10
112.5312889721
 20
92.9137282128
  0
VERTEX
  8
0
 62
9
  6
CONTINUOUS
 10
112.4867882823
 20
92.8101748245
  0
VERTEX
  8
0
 62
9
  6
CONTINUOUS
 10
112.4588139973
 20
92.6895844348
  0
VERTEX
  8
0
 62
9
  6
CONTINUOUS
 10
112.4492724929
 20
92.5601750547
  0
SEQEND
  0
POLYLINE
  8
0
 62
9
  6
CONTINUOUS
 66
1
 70
0
  0
VERTEX
  8
0
 62
9
  6
CONTINUOUS
 10
114.1630412025
 20
93.0487591258
  0
VERTEX
  8
0
 62
9
  6
CONTINUOUS
 10
114.0643069927
 20
93.0287567684
  0
VERTEX
  8
0
 62
9
  6
CONTINUOUS
 10
113.9710692292
 20
92.9773487572
  0
VERTEX
  8
0
 62
9
  6
CONTINUOUS
 10
113.8894526218
 20
92.8979120408
  0
VERTEX
  8
0
 62
9
  6
CONTINUOUS
 10
113.8248184962
 20
92.7956647499
  0
VERTEX
  8
0
 62
9
  6
CONTINUOUS
 10
113.7814126135
 20
92.6773234224
  0
VERTEX
  8
0
 62
9
  6
CONTINUOUS
 10
113.7620862692
 20
92.5506617999
  0
SEQEND
  0
POLYLINE
  8
0
 62
9
  6
CONTINUOUS
 66
1
 70
0
  0
VERTEX
  8
0
 62
9
  6
CONTINUOUS
 10
113.9971674558
 20
93.0601750547
  0
VERTEX
  8
0
 62
9
  6
CONTINUOUS
 10
113.9002035845
 20
93.0431379631
  0
VERTEX
  8
0
 62
9
  6
CONTINUOUS
 10
113.8098476461
 20
92.9931877415
  0
VERTEX
  8
0
 62
9
  6
CONTINUOUS
 10
113.7322572486
 20
92.913728421
  0
VERTEX
  8
0
 62
9
  6
CONTINUOUS
 10
113.6727200473
 20
92.8101750282
  0
VERTEX
  8
0
 62
9
  6
CONTINUOUS
 10
113.6352934001
 20
92.689584559
  0
VERTEX
  8
0
 62
9
  6
CONTINUOUS
 10
113.6225278667
 20
92.5601750547
  0
SEQEND
  0
POLYLINE
  8
0
 62
9
  6
CONTINUOUS
 66
1
 70
0
  0
VERTEX
  8
0
 62
9
  6
CONTINUOUS
 10
114.6640782976
 20
92.9766091401
  0
VERTEX
  8
0
 62
9
  6
CONTINUOUS
 10
114.5551409437
 20
92.9577577694
  0
VERTEX
  8
0
 62
9
  6
CONTINUOUS
 10
114.4524478896
 20
92.9069745239
  0
VERTEX
  8
0
 62
9
  6
CONTINUOUS
 10
114.3628415125
 20
92.8276430613
  0
VERTEX
  8
0
 62
9
  6
CONTINUOUS
 10
114.292292232
 20
92.7250491895
  0
VERTEX
  8
0
 62
9
  6
CONTINUOUS
 10
114.2455007049
 20
92.6060286775
  0
VERTEX
  8
0
 62
9
  6
CONTINUOUS
 10
114.2255846226
 20
92.4785117911
  0
SEQEND
  0
POLYLINE
  8
0
 62
9
  6
CONTINUOUS
 66
1
 70
0
  0
VERTEX
  8
0
 62
9
  6
CONTINUOUS
 10
115.3252605944
 20
92.8701869489
  0
VERTEX
  8
0
 62
9
  6
CONTINUOUS
 10
115.2162951564
 20
92.8513727283
  0
VERTEX
  8
0
 62
9
  6
CONTINUOUS
 10
115.1135674293
 20
92.8006096717
  0
VERTEX
  8
0
 62
9
  6
CONTINUOUS
 10
115.0239252057
 20
92.7212816258
  0
VERTEX
  8
0
 62
9
  6
CONTINUOUS
 10
114.9533440037
 20
92.6186765695
  0
VERTEX
  8
0
 62
9
  6
CONTINUOUS
 10
114.9065287403
 20
92.4996341182
  0
VERTEX
  8
0
 62
9
  6
CONTINUOUS
 10
114.8866001035
 20
92.3720895986
  0
SEQEND
  0
POLYLINE
  8
0
 62
9
  6
CONTINUOUS
 66
1
 70
0
  0
VERTEX
  8
0
 62
9
  6
CONTINUOUS
 10
152.3631078917
 20
92.8491003388
  0
VERTEX
  8
0
 62
9
  6
CONTINUOUS
 10
152.3726596654
 20
92.8496014204
  0
VERTEX
  8
0
 62
9
  6
CONTINUOUS
 10
152.3707097947
 20
92.8510891439
  0
VERTEX
  8
0
 62
9
  6
CONTINUOUS
 10
152.3573033564
 20
92.8535077924
  0
VERTEX
  8
0
 62
9
  6
CONTINUOUS
 10
152.3329546791
 20
92.8567650659
  0
SEQEND
  0
POLYLINE
  8
0
 62
9
  6
CONTINUOUS
 66
1
 70
0
  0
VERTEX
  8
0
 62
9
  6
CONTINUOUS
 10
152.8040508734
 20
92.3510029897
  0
VERTEX
  8
0
 62
9
  6
CONTINUOUS
 10
152.8295021235
 20
92.351505125
  0
VERTEX
  8
0
 62
9
  6
CONTINUOUS
 10
152.8311821553
 20
92.3518891813
  0
SEQEND
  0
POLYLINE
  8
0
 62
9
  6
CONTINUOUS
 66
1
 70
0
  0
VERTEX
  8
0
 62
9
  6
CONTINUOUS
 10
140.9947284266
 20
92.8491003388
  0
VERTEX
  8
0
 62
9
  6
CONTINUOUS
 10
141.0270558682
 20
92.8496014204
  0
VERTEX
  8
0
 62
9
  6
CONTINUOUS
 10
141.0492201995
 20
92.8510891439
  0
VERTEX
  8
0
 62
9
  6
CONTINUOUS
 10
141.0603087855
 20
92.8535077924
  0
VERTEX
  8
0
 62
9
  6
CONTINUOUS
 10
141.0598832872
 20
92.8567650659
  0
VERTEX
  8
0
 62
9
  6
CONTINUOUS
 10
141.0479566933
 20
92.8607379158
  0
VERTEX
  8
0
 62
9
  6
CONTINUOUS
 10
141.0249888531
 20
92.8652740888
  0
SEQEND
  0
POLYLINE
  8
0
 62
9
  6
CONTINUOUS
 66
1
 70
0
  0
VERTEX
  8
0
 62
9
  6
CONTINUOUS
 10
121.8598031786
 20
92.351505125
  0
VERTEX
  8
0
 62
9
  6
CONTINUOUS
 10
121.9728198641
 20
92.3529932268
  0
VERTEX
  8
0
 62
9
  6
CONTINUOUS
 10
122.0624559748
 20
92.3554101633
  0
VERTEX
  8
0
 62
9
  6
CONTINUOUS
 10
122.1252163955
 20
92.3586650681
  0
VERTEX
  8
0
 62
9
  6
CONTINUOUS
 10
122.1586939015
 20
92.3626347124
  0
VERTEX
  8
0
 62
9
  6
CONTINUOUS
 10
122.1641320182
 20
92.3652690183
  0
SEQEND
  0
POLYLINE
  8
0
 62
9
  6
CONTINUOUS
 66
1
 70
0
  0
VERTEX
  8
0
 62
9
  6
CONTINUOUS
 10
97.4863531762
 20
92.351505125
  0
VERTEX
  8
0
 62
9
  6
CONTINUOUS
 10
97.6338553081
 20
92.3529932268
  0
VERTEX
  8
0
 62
9
  6
CONTINUOUS
 10
97.7681381032
 20
92.3554101633
  0
VERTEX
  8
0
 62
9
  6
CONTINUOUS
 10
97.8839759477
 20
92.3586650681
  0
VERTEX
  8
0
 62
9
  6
CONTINUOUS
 10
97.9769346274
 20
92.3626347124
  0
VERTEX
  8
0
 62
9
  6
CONTINUOUS
 10
98.0434091588
 20
92.3671671142
  0
VERTEX
  8
0
 62
9
  6
CONTINUOUS
 10
98.0808382059
 20
92.3720895986
  0
SEQEND
  0
POLYLINE
  8
0
 62
9
  6
CONTINUOUS
 66
1
 70
0
  0
VERTEX
  8
0
 62
9
  6
CONTINUOUS
 10
121.5203026288
 20
92.8491003388
  0
VERTEX
  8
0
 62
9
  6
CONTINUOUS
 10
121.56981603
 20
92.8496014204
  0
VERTEX
  8
0
 62
9
  6
CONTINUOUS
 10
121.612262149
 20
92.8510891439
  0
VERTEX
  8
0
 62
9
  6
CONTINUOUS
 10
121.645928442
 20
92.8535077924
  0
VERTEX
  8
0
 62
9
  6
CONTINUOUS
 10
121.6694996952
 20
92.8567650659
  0
VERTEX
  8
0
 62
9
  6
CONTINUOUS
 10
121.6820705204
 20
92.8607379158
  0
VERTEX
  8
0
 62
9
  6
CONTINUOUS
 10
121.683152495
 20
92.8652740888
  0
VERTEX
  8
0
 62
9
  6
CONTINUOUS
 10
121.6727412741
 20
92.8701869476
  0
SEQEND
  0
POLYLINE
  8
0
 62
9
  6
CONTINUOUS
 66
1
 70
0
  0
VERTEX
  8
0
 62
9
  6
CONTINUOUS
 10
72.529850183
 20
92.351505125
  0
VERTEX
  8
0
 62
9
  6
CONTINUOUS
 10
72.6863333027
 20
92.3529932268
  0
VERTEX
  8
0
 62
9
  6
CONTINUOUS
 10
72.842044067
 20
92.3554101633
  0
VERTEX
  8
0
 62
9
  6
CONTINUOUS
 10
72.9909299197
 20
92.3586650681
  0
VERTEX
  8
0
 62
9
  6
CONTINUOUS
 10
73.1272963729
 20
92.3626347124
  0
VERTEX
  8
0
 62
9
  6
CONTINUOUS
 10
73.2458635253
 20
92.3671671142
  0
VERTEX
  8
0
 62
9
  6
CONTINUOUS
 10
73.3420697809
 20
92.3720895986
  0
SEQEND
  0
POLYLINE
  8
0
 62
9
  6
CONTINUOUS
 66
1
 70
0
  0
VERTEX
  8
0
 62
9
  6
CONTINUOUS
 10
141.349612824
 20
92.3510029897
  0
VERTEX
  8
0
 62
9
  6
CONTINUOUS
 10
141.4358092589
 20
92.351505125
  0
VERTEX
  8
0
 62
9
  6
CONTINUOUS
 10
141.4947988864
 20
92.3529932268
  0
VERTEX
  8
0
 62
9
  6
CONTINUOUS
 10
141.5242894148
 20
92.3554101633
  0
VERTEX
  8
0
 62
9
  6
CONTINUOUS
 10
141.5275844422
 20
92.356816745
  0
SEQEND
  0
LINE
  8
0
 62
9
  6
CONTINUOUS
 10
35.4246143344
 20
92.3510029897
 11
37.4128127048
 21
92.3510029897
  0
LINE
  8
0
 62
9
  6
CONTINUOUS
 10
46.8790523838
 20
92.3510029897
 11
51.3055002893
 21
92.351505125
  0
LINE
  8
0
 62
9
  6
CONTINUOUS
 10
66.5008995023
 20
92.3510029897
 11
72.529850183
 21
92.351505125
  0
LINE
  8
0
 62
9
  6
CONTINUOUS
 10
90.8973600643
 20
92.3510029897
 11
97.4863531762
 21
92.351505125
  0
LINE
  8
0
 62
9
  6
CONTINUOUS
 10
115.8500644036
 20
92.3510029897
 11
121.8598031786
 21
92.351505125
  0
LINE
  8
0
 62
9
  6
CONTINUOUS
 10
150.815852503
 20
92.3510029897
 11
152.8040508734
 21
92.3510029897
  0
LINE
  8
0
 62
9
  6
CONTINUOUS
 10
40.5219146507
 20
92.5601750547
 11
46.7450000425
 21
92.5601750547
  0
LINE
  8
0
 62
9
  6
CONTINUOUS
 10
54.1050410003
 20
92.5601750547
 11
66.1048295168
 21
92.5601750547
  0
LINE
  8
0
 62
9
  6
CONTINUOUS
 10
74.6061373412
 20
92.5601750547
 11
89.7482873385
 21
92.5601750547
  0
LINE
  8
0
 62
9
  6
CONTINUOUS
 10
98.4803778694
 20
92.5601750547
 11
113.6225278667
 21
92.5601750547
  0
LINE
  8
0
 62
9
  6
CONTINUOUS
 10
122.1237231892
 20
92.5601750547
 11
134.1236242075
 21
92.5601750547
  0
LINE
  8
0
 62
9
  6
CONTINUOUS
 10
141.4840769975
 20
92.5601750547
 11
147.7067505571
 21
92.5601750547
  0
LINE
  8
0
 62
9
  6
CONTINUOUS
 10
47.2016337013
 20
92.8496005334
 11
47.2339367813
 21
92.8491003388
  0
POLYLINE
  8
0
 62
9
  6
CONTINUOUS
 66
1
 70
0
  0
VERTEX
  8
0
 62
9
  6
CONTINUOUS
 10
89.7482873385
 20
92.5601750547
  0
VERTEX
  8
0
 62
9
  6
CONTINUOUS
 10
89.7798181184
 20
92.5577931451
  0
VERTEX
  8
0
 62
9
  6
CONTINUOUS
 10
89.8092685763
 20
92.5506617999
  0
SEQEND
  0
POLYLINE
  8
0
 62
9
  6
CONTINUOUS
 66
1
 70
0
  0
VERTEX
  8
0
 62
9
  6
CONTINUOUS
 10
90.2252191719
 20
93.0601750547
  0
VERTEX
  8
0
 62
9
  6
CONTINUOUS
 10
90.2578388657
 20
93.0573167486
  0
VERTEX
  8
0
 62
9
  6
CONTINUOUS
 10
90.2882441164
 20
93.048759149
  0
SEQEND
  0
POLYLINE
  8
0
 62
9
  6
CONTINUOUS
 66
1
 70
0
  0
VERTEX
  8
0
 62
9
  6
CONTINUOUS
 10
90.147827002
 20
92.3720895986
  0
VERTEX
  8
0
 62
9
  6
CONTINUOUS
 10
90.1852481869
 20
92.3671669807
  0
VERTEX
  8
0
 62
9
  6
CONTINUOUS
 10
90.2517153189
 20
92.3626338019
  0
VERTEX
  8
0
 62
9
  6
CONTINUOUS
 10
90.3446546699
 20
92.3586650447
  0
VERTEX
  8
0
 62
9
  6
CONTINUOUS
 10
90.4604743488
 20
92.3554103838
  0
VERTEX
  8
0
 62
9
  6
CONTINUOUS
 10
90.5947397831
 20
92.3529934514
  0
VERTEX
  8
0
 62
9
  6
CONTINUOUS
 10
90.7422579823
 20
92.3515052925
  0
VERTEX
  8
0
 62
9
  6
CONTINUOUS
 10
90.8973600643
 20
92.3510029897
  0
SEQEND
  0
POLYLINE
  8
0
 62
9
  6
CONTINUOUS
 66
1
 70
0
  0
VERTEX
  8
0
 62
9
  6
CONTINUOUS
 10
72.9034046135
 20
92.8701869476
  0
VERTEX
  8
0
 62
9
  6
CONTINUOUS
 10
73.0123710917
 20
92.8513732226
  0
VERTEX
  8
0
 62
9
  6
CONTINUOUS
 10
73.1150998902
 20
92.8006104362
  0
VERTEX
  8
0
 62
9
  6
CONTINUOUS
 10
73.2047431041
 20
92.7212824373
  0
VERTEX
  8
0
 62
9
  6
CONTINUOUS
 10
73.2753251138
 20
92.6186772328
  0
VERTEX
  8
0
 62
9
  6
CONTINUOUS
 10
73.3221409205
 20
92.4996344889
  0
VERTEX
  8
0
 62
9
  6
CONTINUOUS
 10
73.3420697809
 20
92.3720895986
  0
SEQEND
  0
POLYLINE
  8
0
 62
9
  6
CONTINUOUS
 66
1
 70
0
  0
VERTEX
  8
0
 62
9
  6
CONTINUOUS
 10
73.5645869105
 20
92.9766091305
  0
VERTEX
  8
0
 62
9
  6
CONTINUOUS
 10
73.6735242761
 20
92.9577577772
  0
VERTEX
  8
0
 62
9
  6
CONTINUOUS
 10
73.7762173442
 20
92.906974542
  0
VERTEX
  8
0
 62
9
  6
CONTINUOUS
 10
73.8658237356
 20
92.8276430825
  0
VERTEX
  8
0
 62
9
  6
CONTINUOUS
 10
73.9363730282
 20
92.7250492076
  0
VERTEX
  8
0
 62
9
  6
CONTINUOUS
 10
73.9831645636
 20
92.6060286877
  0
VERTEX
  8
0
 62
9
  6
CONTINUOUS
 10
74.0030806491
 20
92.4785117911
  0
SEQEND
  0
POLYLINE
  8
0
 62
9
  6
CONTINUOUS
 66
1
 70
0
  0
VERTEX
  8
0
 62
9
  6
CONTINUOUS
 10
74.2314977521
 20
93.0601750547
  0
VERTEX
  8
0
 62
9
  6
CONTINUOUS
 10
74.3284617788
 20
93.0431379085
  0
VERTEX
  8
0
 62
9
  6
CONTINUOUS
 10
74.4188177752
 20
92.9931875805
  0
VERTEX
  8
0
 62
9
  6
CONTINUOUS
 10
74.4964081434
 20
92.9137281819
  0
VERTEX
  8
0
 62
9
  6
CONTINUOUS
 10
74.5559452673
 20
92.8101747917
  0
VERTEX
  8
0
 62
9
  6
CONTINUOUS
 10
74.5933718396
 20
92.6895844137
  0
VERTEX
  8
0
 62
9
  6
CONTINUOUS
 10
74.6061373412
 20
92.5601750547
  0
SEQEND
  0
POLYLINE
  8
0
 62
9
  6
CONTINUOUS
 66
1
 70
0
  0
VERTEX
  8
0
 62
9
  6
CONTINUOUS
 10
74.0656240085
 20
93.0487590212
  0
VERTEX
  8
0
 62
9
  6
CONTINUOUS
 10
74.1643581863
 20
93.0287566389
  0
VERTEX
  8
0
 62
9
  6
CONTINUOUS
 10
74.2575959167
 20
92.9773486244
  0
VERTEX
  8
0
 62
9
  6
CONTINUOUS
 10
74.3392124959
 20
92.8979119244
  0
VERTEX
  8
0
 62
9
  6
CONTINUOUS
 10
74.403846603
 20
92.7956646653
  0
VERTEX
  8
0
 62
9
  6
CONTINUOUS
 10
74.4472524806
 20
92.6773233791
  0
VERTEX
  8
0
 62
9
  6
CONTINUOUS
 10
74.4665788349
 20
92.5506617999
  0
SEQEND
  0
POLYLINE
  8
0
 62
9
  6
CONTINUOUS
 66
1
 70
0
  0
VERTEX
  8
0
 62
9
  6
CONTINUOUS
 10
75.4993704947
 20
93.0601750547
  0
VERTEX
  8
0
 62
9
  6
CONTINUOUS
 10
75.5718459207
 20
93.043137804
  0
VERTEX
  8
0
 62
9
  6
CONTINUOUS
 10
75.6393820802
 20
92.9931872665
  0
VERTEX
  8
0
 62
9
  6
CONTINUOUS
 10
75.6973765187
 20
92.9137277075
  0
VERTEX
  8
0
 62
9
  6
CONTINUOUS
 10
75.7418770904
 20
92.8101743143
  0
VERTEX
  8
0
 62
9
  6
CONTINUOUS
 10
75.7698512584
 20
92.6895841155
  0
VERTEX
  8
0
 62
9
  6
CONTINUOUS
 10
75.7793927149
 20
92.5601750547
  0
SEQEND
  0
POLYLINE
  8
0
 62
9
  6
CONTINUOUS
 66
1
 70
0
  0
VERTEX
  8
0
 62
9
  6
CONTINUOUS
 10
90.2882441164
 20
93.048759149
  0
VERTEX
  8
0
 62
9
  6
CONTINUOUS
 10
90.363870101
 20
93.0230547375
  0
VERTEX
  8
0
 62
9
  6
CONTINUOUS
 10
90.4214238992
 20
92.9989715789
  0
VERTEX
  8
0
 62
9
  6
CONTINUOUS
 10
90.4637618297
 20
92.9766091401
  0
SEQEND
  0
POLYLINE
  8
0
 62
9
  6
CONTINUOUS
 66
1
 70
0
  0
VERTEX
  8
0
 62
9
  6
CONTINUOUS
 10
90.6402412894
 20
92.8701869476
  0
VERTEX
  8
0
 62
9
  6
CONTINUOUS
 10
90.6542702223
 20
92.8652688157
  0
VERTEX
  8
0
 62
9
  6
CONTINUOUS
 10
90.6792255648
 20
92.8607332746
  0
VERTEX
  8
0
 62
9
  6
CONTINUOUS
 10
90.7141251772
 20
92.8567616209
  0
VERTEX
  8
0
 62
9
  6
CONTINUOUS
 10
90.7576204816
 20
92.8535053558
  0
VERTEX
  8
0
 62
9
  6
CONTINUOUS
 10
90.8080439692
 20
92.851087651
  0
VERTEX
  8
0
 62
9
  6
CONTINUOUS
 10
90.8634422518
 20
92.8496005334
  0
VERTEX
  8
0
 62
9
  6
CONTINUOUS
 10
90.9215295697
 20
92.8491003388
  0
SEQEND
  0
POLYLINE
  8
0
 62
9
  6
CONTINUOUS
 66
1
 70
0
  0
VERTEX
  8
0
 62
9
  6
CONTINUOUS
 10
89.8092685763
 20
92.5506617999
  0
VERTEX
  8
0
 62
9
  6
CONTINUOUS
 10
89.8791861959
 20
92.5249569415
  0
VERTEX
  8
0
 62
9
  6
CONTINUOUS
 10
89.932385875
 20
92.5008773475
  0
VERTEX
  8
0
 62
9
  6
CONTINUOUS
 10
89.9715303754
 20
92.4785117911
  0
SEQEND
  0
LINE
  8
0
 62
9
  6
CONTINUOUS
 10
90.4637618297
 20
92.9766091401
 11
90.6402412894
 21
92.8701869476
  0
LINE
  8
0
 62
9
  6
CONTINUOUS
 10
89.9715303754
 20
92.4785117911
 11
90.147827002
 21
92.3720895986
  0
POLYLINE
  8
0
 62
9
  6
CONTINUOUS
 66
1
 70
0
  0
VERTEX
  8
0
 62
9
  6
CONTINUOUS
 10
97.3071356382
 20
92.8491003388
  0
VERTEX
  8
0
 62
9
  6
CONTINUOUS
 10
97.3135208703
 20
92.8232869711
  0
VERTEX
  8
0
 62
9
  6
CONTINUOUS
 10
97.3193773832
 20
92.7687474616
  0
VERTEX
  8
0
 62
9
  6
CONTINUOUS
 10
97.3243489572
 20
92.688798934
  0
VERTEX
  8
0
 62
9
  6
CONTINUOUS
 10
97.3281331937
 20
92.5883040422
  0
VERTEX
  8
0
 62
9
  6
CONTINUOUS
 10
97.3304999105
 20
92.4733752362
  0
VERTEX
  8
0
 62
9
  6
CONTINUOUS
 10
97.3313051441
 20
92.3510029897
  0
SEQEND
  0
LINE
  8
0
 62
9
  6
CONTINUOUS
 10
99.133061348
 20
83.5601750547
 11
99.133061348
 21
92.5601750547
  0
LINE
  8
0
 62
9
  6
CONTINUOUS
 10
100.5978610905
 20
83.5601750547
 11
100.5978610905
 21
92.5601750547
  0
POLYLINE
  8
0
 62
9
  6
CONTINUOUS
 66
1
 70
0
  0
VERTEX
  8
0
 62
9
  6
CONTINUOUS
 10
100.5397649571
 20
83.0601750547
  0
VERTEX
  8
0
 62
9
  6
CONTINUOUS
 10
100.5548014421
 20
83.0772123703
  0
VERTEX
  8
0
 62
9
  6
CONTINUOUS
 10
100.568813162
 20
83.1271630389
  0
VERTEX
  8
0
 62
9
  6
CONTINUOUS
 10
100.5808452473
 20
83.2066226992
  0
VERTEX
  8
0
 62
9
  6
CONTINUOUS
 10
100.5900777544
 20
83.3101760951
  0
VERTEX
  8
0
 62
9
  6
CONTINUOUS
 10
100.5958815331
 20
83.4307661815
  0
VERTEX
  8
0
 62
9
  6
CONTINUOUS
 10
100.5978610906
 20
83.5601750547
  0
SEQEND
  0
LINE
  8
0
 62
7
  6
CONTINUOUS
 10
94.1143326039
 20
82.5601750547
 11
94.9803580077
 21
83.0601750547
  0
POLYLINE
  8
0
 62
9
  6
CONTINUOUS
 66
1
 70
0
  0
VERTEX
  8
0
 62
9
  6
CONTINUOUS
 10
134.571234435
 20
93.0487591258
  0
VERTEX
  8
0
 62
9
  6
CONTINUOUS
 10
134.5132526351
 20
93.0287567684
  0
VERTEX
  8
0
 62
9
  6
CONTINUOUS
 10
134.4570832464
 20
92.9773487572
  0
VERTEX
  8
0
 62
9
  6
CONTINUOUS
 10
134.4064159883
 20
92.8979120408
  0
VERTEX
  8
0
 62
9
  6
CONTINUOUS
 10
134.3645791502
 20
92.7956647499
  0
VERTEX
  8
0
 62
9
  6
CONTINUOUS
 10
134.3343209585
 20
92.6773234224
  0
VERTEX
  8
0
 62
9
  6
CONTINUOUS
 10
134.3176290482
 20
92.5506617999
  0
SEQEND
  0
POLYLINE
  8
0
 62
9
  6
CONTINUOUS
 66
1
 70
0
  0
VERTEX
  8
0
 62
9
  6
CONTINUOUS
 10
134.3311929639
 20
93.0601750547
  0
VERTEX
  8
0
 62
9
  6
CONTINUOUS
 10
134.2774702129
 20
93.0431379631
  0
VERTEX
  8
0
 62
9
  6
CONTINUOUS
 10
134.2274085809
 20
92.9931877415
  0
VERTEX
  8
0
 62
9
  6
CONTINUOUS
 10
134.1844196855
 20
92.913728421
  0
VERTEX
  8
0
 62
9
  6
CONTINUOUS
 10
134.1514331475
 20
92.8101750282
  0
VERTEX
  8
0
 62
9
  6
CONTINUOUS
 10
134.1306969431
 20
92.689584559
  0
VERTEX
  8
0
 62
9
  6
CONTINUOUS
 10
134.1236242075
 20
92.5601750547
  0
SEQEND
  0
POLYLINE
  8
0
 62
9
  6
CONTINUOUS
 66
1
 70
0
  0
VERTEX
  8
0
 62
9
  6
CONTINUOUS
 10
52.9175081614
 20
83.1437409693
  0
VERTEX
  8
0
 62
9
  6
CONTINUOUS
 10
52.9899415653
 20
83.16259234
  0
VERTEX
  8
0
 62
9
  6
CONTINUOUS
 10
53.0595818406
 20
83.2133755855
  0
VERTEX
  8
0
 62
9
  6
CONTINUOUS
 10
53.1217888971
 20
83.2927070482
  0
VERTEX
  8
0
 62
9
  6
CONTINUOUS
 10
53.1724179156
 20
83.3953009199
  0
VERTEX
  8
0
 62
9
  6
CONTINUOUS
 10
53.2080955147
 20
83.5143214319
  0
VERTEX
  8
0
 62
9
  6
CONTINUOUS
 10
53.2264445171
 20
83.6418383183
  0
SEQEND
  0
POLYLINE
  8
0
 62
9
  6
CONTINUOUS
 66
1
 70
0
  0
VERTEX
  8
0
 62
9
  6
CONTINUOUS
 10
51.8859474531
 20
83.2501631602
  0
VERTEX
  8
0
 62
9
  6
CONTINUOUS
 10
51.9583983503
 20
83.2689774887
  0
VERTEX
  8
0
 62
9
  6
CONTINUOUS
 10
52.0280622803
 20
83.3197406043
  0
VERTEX
  8
0
 62
9
  6
CONTINUOUS
 10
52.0902954767
 20
83.3990686604
  0
VERTEX
  8
0
 62
9
  6
CONTINUOUS
 10
52.1409495026
 20
83.5016736845
  0
VERTEX
  8
0
 62
9
  6
CONTINUOUS
 10
52.1766477834
 20
83.620716072
  0
VERTEX
  8
0
 62
9
  6
CONTINUOUS
 10
52.1950106873
 20
83.7482605108
  0
SEQEND
  0
POLYLINE
  8
0
 62
9
  6
CONTINUOUS
 66
1
 70
0
  0
VERTEX
  8
0
 62
9
  6
CONTINUOUS
 10
74.0030805853
 20
92.4785117911
  0
VERTEX
  8
0
 62
9
  6
CONTINUOUS
 10
74.1363257089
 20
92.5008903343
  0
VERTEX
  8
0
 62
9
  6
CONTINUOUS
 10
74.2901151587
 20
92.5249698373
  0
VERTEX
  8
0
 62
9
  6
CONTINUOUS
 10
74.4665787873
 20
92.5506617999
  0
SEQEND
  0
POLYLINE
  8
0
 62
9
  6
CONTINUOUS
 66
1
 70
0
  0
VERTEX
  8
0
 62
9
  6
CONTINUOUS
 10
90.2882441166
 20
93.0487591258
  0
VERTEX
  8
0
 62
9
  6
CONTINUOUS
 10
90.1658295387
 20
93.0287567684
  0
VERTEX
  8
0
 62
9
  6
CONTINUOUS
 10
90.0516450568
 20
92.9773487572
  0
VERTEX
  8
0
 62
9
  6
CONTINUOUS
 10
89.9531913529
 20
92.8979120408
  0
VERTEX
  8
0
 62
9
  6
CONTINUOUS
 10
89.8769357673
 20
92.7956647499
  0
VERTEX
  8
0
 62
9
  6
CONTINUOUS
 10
89.827887465
 20
92.6773234224
  0
VERTEX
  8
0
 62
9
  6
CONTINUOUS
 10
89.8092683873
 20
92.5506617999
  0
SEQEND
  0
LINE
  8
0
 62
9
  6
CONTINUOUS
 10
73.3420697809
 20
92.3720895986
 11
74.0030805853
 21
92.4785117911
  0
LINE
  8
0
 62
9
  6
CONTINUOUS
 10
72.9034046135
 20
92.8701869476
 11
73.5645869102
 21
92.9766091401
  0
POLYLINE
  8
0
 62
9
  6
CONTINUOUS
 66
1
 70
0
  0
VERTEX
  8
0
 62
9
  6
CONTINUOUS
 10
73.5645869102
 20
92.9766091401
  0
VERTEX
  8
0
 62
9
  6
CONTINUOUS
 10
73.7086008422
 20
92.998985064
  0
VERTEX
  8
0
 62
9
  6
CONTINUOUS
 10
73.8748702809
 20
93.0230682537
  0
VERTEX
  8
0
 62
9
  6
CONTINUOUS
 10
74.0656240047
 20
93.048759149
  0
SEQEND
  0
POLYLINE
  8
0
 62
9
  6
CONTINUOUS
 66
1
 70
0
  0
VERTEX
  8
0
 62
9
  6
CONTINUOUS
 10
89.519899929
 20
93.0601750547
  0
VERTEX
  8
0
 62
9
  6
CONTINUOUS
 10
89.4100839377
 20
93.0431379401
  0
VERTEX
  8
0
 62
9
  6
CONTINUOUS
 10
89.3077517748
 20
92.9931876752
  0
VERTEX
  8
0
 62
9
  6
CONTINUOUS
 10
89.219877199
 20
92.9137283247
  0
VERTEX
  8
0
 62
9
  6
CONTINUOUS
 10
89.1524486958
 20
92.8101749351
  0
VERTEX
  8
0
 62
9
  6
CONTINUOUS
 10
89.110061381
 20
92.6895845032
  0
VERTEX
  8
0
 62
9
  6
CONTINUOUS
 10
89.0956038599
 20
92.5601750547
  0
SEQEND
  0
POLYLINE
  8
0
 62
9
  6
CONTINUOUS
 66
1
 70
0
  0
VERTEX
  8
0
 62
9
  6
CONTINUOUS
 10
90.4637618297
 20
92.9766091401
  0
VERTEX
  8
0
 62
9
  6
CONTINUOUS
 10
90.337156784
 20
92.9577577694
  0
VERTEX
  8
0
 62
9
  6
CONTINUOUS
 10
90.219167513
 20
92.9069745239
  0
VERTEX
  8
0
 62
9
  6
CONTINUOUS
 10
90.117655572
 20
92.8276430613
  0
VERTEX
  8
0
 62
9
  6
CONTINUOUS
 10
90.0393846411
 20
92.7250491895
  0
VERTEX
  8
0
 62
9
  6
CONTINUOUS
 10
89.9895698659
 20
92.6060286775
  0
VERTEX
  8
0
 62
9
  6
CONTINUOUS
 10
89.9715303754
 20
92.4785117911
  0
SEQEND
  0
POLYLINE
  8
0
 62
9
  6
CONTINUOUS
 66
1
 70
0
  0
VERTEX
  8
0
 62
9
  6
CONTINUOUS
 10
90.6402412894
 20
92.8701869489
  0
VERTEX
  8
0
 62
9
  6
CONTINUOUS
 10
90.5136025467
 20
92.8513727283
  0
VERTEX
  8
0
 62
9
  6
CONTINUOUS
 10
90.3955737063
 20
92.8006096717
  0
VERTEX
  8
0
 62
9
  6
CONTINUOUS
 10
90.2940225275
 20
92.7212816258
  0
VERTEX
  8
0
 62
9
  6
CONTINUOUS
 10
90.215718375
 20
92.6186765695
  0
VERTEX
  8
0
 62
9
  6
CONTINUOUS
 10
90.1658809749
 20
92.4996341182
  0
VERTEX
  8
0
 62
9
  6
CONTINUOUS
 10
90.1478324701
 20
92.3720895986
  0
SEQEND
  0
LINE
  8
0
 62
7
  6
CONTINUOUS
 10
67.1038038338
 20
93.0597277225
 11
66.9940462011
 21
93.0439356221
  0
POLYLINE
  8
0
 62
9
  6
CONTINUOUS
 66
1
 70
0
  0
VERTEX
  8
0
 62
9
  6
CONTINUOUS
 10
90.2252191719
 20
93.0601750547
  0
VERTEX
  8
0
 62
9
  6
CONTINUOUS
 10
90.1017801145
 20
93.0431379631
  0
VERTEX
  8
0
 62
9
  6
CONTINUOUS
 10
89.9867532323
 20
92.9931877415
  0
VERTEX
  8
0
 62
9
  6
CONTINUOUS
 10
89.8879774174
 20
92.913728421
  0
VERTEX
  8
0
 62
9
  6
CONTINUOUS
 10
89.8121840757
 20
92.8101750282
  0
VERTEX
  8
0
 62
9
  6
CONTINUOUS
 10
89.7645383932
 20
92.689584559
  0
VERTEX
  8
0
 62
9
  6
CONTINUOUS
 10
89.7482873385
 20
92.5601750547
  0
SEQEND
  0
LINE
  8
0
 62
9
  6
CONTINUOUS
 10
67.1049242934
 20
93.0601750547
 11
66.976755539
 21
93.0431379141
  0
LINE
  8
0
 62
9
  6
CONTINUOUS
 10
67.1257339319
 20
93.0601750547
 11
67.1012704058
 21
93.0573167486
  0
POLYLINE
  8
0
 62
9
  6
CONTINUOUS
 66
1
 70
0
  0
VERTEX
  8
0
 62
9
  6
CONTINUOUS
 10
74.0656240047
 20
93.048759149
  0
VERTEX
  8
0
 62
9
  6
CONTINUOUS
 10
74.1474388993
 20
93.0573170117
  0
VERTEX
  8
0
 62
9
  6
CONTINUOUS
 10
74.2314977521
 20
93.0601750547
  0
SEQEND
  0
POLYLINE
  8
0
 62
9
  6
CONTINUOUS
 66
1
 70
0
  0
VERTEX
  8
0
 62
9
  6
CONTINUOUS
 10
74.4665787873
 20
92.5506617999
  0
VERTEX
  8
0
 62
9
  6
CONTINUOUS
 10
74.5353169968
 20
92.5577933645
  0
VERTEX
  8
0
 62
9
  6
CONTINUOUS
 10
74.6061373412
 20
92.5601750547
  0
SEQEND
  0
LINE
  8
0
 62
9
  6
CONTINUOUS
 10
52.1950143082
 20
92.3720895986
 11
53.2264445171
 21
92.4785117911
  0
LINE
  8
0
 62
9
  6
CONTINUOUS
 10
53.4307254
 20
92.5008903343
 11
53.9110360721
 21
92.5506617999
  0
LINE
  8
0
 62
9
  6
CONTINUOUS
 10
48.03209089
 20
92.9766091401
 11
47.999954473
 21
92.9741008981
  0
LINE
  8
0
 62
9
  6
CONTINUOUS
 10
47.2367057974
 20
92.8701869489
 11
47.2044506928
 21
92.8676778736
  0
POLYLINE
  8
0
 62
9
  6
CONTINUOUS
 66
1
 70
0
  0
VERTEX
  8
0
 62
9
  6
CONTINUOUS
 10
53.9110360721
 20
92.5506617999
  0
VERTEX
  8
0
 62
9
  6
CONTINUOUS
 10
54.0071751672
 20
92.5577933645
  0
VERTEX
  8
0
 62
9
  6
CONTINUOUS
 10
54.1050410003
 20
92.5601750547
  0
SEQEND
  0
POLYLINE
  8
0
 62
9
  6
CONTINUOUS
 66
1
 70
0
  0
VERTEX
  8
0
 62
9
  6
CONTINUOUS
 10
53.6574307715
 20
93.048759149
  0
VERTEX
  8
0
 62
9
  6
CONTINUOUS
 10
53.7765073205
 20
93.0573170117
  0
VERTEX
  8
0
 62
9
  6
CONTINUOUS
 10
53.897472244
 20
93.0601750547
  0
SEQEND
  0
LINE
  8
0
 62
9
  6
CONTINUOUS
 10
37.1375578032
 20
92.9766091401
 11
37.132252908
 21
92.9762498933
  0
LINE
  8
0
 62
9
  6
CONTINUOUS
 10
36.0230552059
 20
92.8701869489
 11
36.0176691194
 21
92.8698242857
  0
POLYLINE
  8
0
 62
9
  6
CONTINUOUS
 66
1
 70
0
  0
VERTEX
  8
0
 62
9
  6
CONTINUOUS
 10
40.3070085628
 20
92.5506617999
  0
VERTEX
  8
0
 62
9
  6
CONTINUOUS
 10
40.4137588718
 20
92.5577859908
  0
VERTEX
  8
0
 62
9
  6
CONTINUOUS
 10
40.5219146507
 20
92.5601750547
  0
SEQEND
  0
POLYLINE
  8
0
 62
9
  6
CONTINUOUS
 66
1
 70
0
  0
VERTEX
  8
0
 62
9
  6
CONTINUOUS
 10
40.2446034046
 20
93.048759149
  0
VERTEX
  8
0
 62
9
  6
CONTINUOUS
 10
40.3801408849
 20
93.0573081546
  0
VERTEX
  8
0
 62
9
  6
CONTINUOUS
 10
40.5173072508
 20
93.0601750547
  0
SEQEND
  0
LINE
  8
0
 62
9
  6
CONTINUOUS
 10
33.4445607651
 20
92.351039782
 11
33.4529107847
 21
92.3515050617
  0
LINE
  8
0
 62
9
  6
CONTINUOUS
 10
48.6928225861
 20
93.0601750547
 11
48.6155058058
 21
93.0573167486
  0
LINE
  8
0
 62
9
  6
CONTINUOUS
 10
33.4529107847
 20
92.3515050617
 11
33.5573723998
 21
92.3554099478
  0
LINE
  8
0
 62
9
  6
CONTINUOUS
 10
33.5573723998
 20
92.3554099478
 11
34.0488292632
 21
92.3720895986
  0
LINE
  8
0
 62
9
  6
CONTINUOUS
 10
37.9838347484
 20
92.3626347124
 11
38.2961897938
 21
92.3720895986
  0
POLYLINE
  8
0
 62
9
  6
CONTINUOUS
 66
1
 70
0
  0
VERTEX
  8
0
 62
9
  6
CONTINUOUS
 10
38.1136908985
 20
93.0601750547
  0
VERTEX
  8
0
 62
9
  6
CONTINUOUS
 10
37.9969017032
 20
93.0573167486
  0
VERTEX
  8
0
 62
9
  6
CONTINUOUS
 10
37.8729232743
 20
93.0482282942
  0
SEQEND
  0
LINE
  8
0
 62
7
  6
CONTINUOUS
 10
67.1257933608
 20
93.0601749309
 11
67.1038038338
 21
93.0597277225
  0
POLYLINE
  8
0
 62
9
  6
CONTINUOUS
 66
1
 70
0
  0
VERTEX
  8
0
 62
9
  6
CONTINUOUS
 10
37.8388181107
 20
92.8491003388
  0
VERTEX
  8
0
 62
9
  6
CONTINUOUS
 10
37.8651976242
 20
92.8496014204
  0
VERTEX
  8
0
 62
9
  6
CONTINUOUS
 10
37.9013795244
 20
92.8510891439
  0
VERTEX
  8
0
 62
9
  6
CONTINUOUS
 10
37.9459489619
 20
92.8535077924
  0
VERTEX
  8
0
 62
9
  6
CONTINUOUS
 10
37.9971773718
 20
92.8567650659
  0
VERTEX
  8
0
 62
9
  6
CONTINUOUS
 10
38.0531052386
 20
92.8607379158
  0
VERTEX
  8
0
 62
9
  6
CONTINUOUS
 10
38.1115682214
 20
92.8652740888
  0
VERTEX
  8
0
 62
9
  6
CONTINUOUS
 10
39.9614320447
 20
93.0251508387
  0
SEQEND
  0
POLYLINE
  8
0
 62
7
  6
CONTINUOUS
 66
1
 70
0
  0
VERTEX
  8
0
 62
7
  6
CONTINUOUS
 10
48.6928849686
 20
93.0601749474
  0
VERTEX
  8
0
 62
7
  6
CONTINUOUS
 10
48.6527605558
 20
93.0595330537
  0
VERTEX
  8
0
 62
7
  6
CONTINUOUS
 10
48.5461682374
 20
93.0516786589
  0
SEQEND
  0
POLYLINE
  8
0
 62
9
  6
CONTINUOUS
 66
1
 70
0
  0
VERTEX
  8
0
 62
9
  6
CONTINUOUS
 10
51.5067412419
 20
92.8491003388
  0
VERTEX
  8
0
 62
9
  6
CONTINUOUS
 10
51.5522176894
 20
92.8496014204
  0
VERTEX
  8
0
 62
9
  6
CONTINUOUS
 10
51.604177756
 20
92.8510891439
  0
VERTEX
  8
0
 62
9
  6
CONTINUOUS
 10
51.6605680368
 20
92.8535077924
  0
VERTEX
  8
0
 62
9
  6
CONTINUOUS
 10
51.7191976212
 20
92.8567650659
  0
VERTEX
  8
0
 62
9
  6
CONTINUOUS
 10
51.777822351
 20
92.8607379158
  0
VERTEX
  8
0
 62
9
  6
CONTINUOUS
 10
51.8341727237
 20
92.8652740888
  0
VERTEX
  8
0
 62
9
  6
CONTINUOUS
 10
51.8859474532
 20
92.8701869476
  0
SEQEND
  0
POLYLINE
  8
0
 62
7
  6
CONTINUOUS
 66
1
 70
0
  0
VERTEX
  8
0
 62
7
  6
CONTINUOUS
 10
38.1136896429
 20
93.0601749493
  0
VERTEX
  8
0
 62
7
  6
CONTINUOUS
 10
38.0608503794
 20
93.0595967686
  0
VERTEX
  8
0
 62
7
  6
CONTINUOUS
 10
37.9308680684
 20
93.0532786365
  0
SEQEND
  0
POLYLINE
  8
0
 62
9
  6
CONTINUOUS
 66
1
 70
0
  0
VERTEX
  8
0
 62
9
  6
CONTINUOUS
 10
51.3055002893
 20
92.351505125
  0
VERTEX
  8
0
 62
9
  6
CONTINUOUS
 10
51.4439070438
 20
92.3529932268
  0
VERTEX
  8
0
 62
9
  6
CONTINUOUS
 10
51.5941219715
 20
92.3554101633
  0
VERTEX
  8
0
 62
9
  6
CONTINUOUS
 10
51.7503121159
 20
92.3586650681
  0
VERTEX
  8
0
 62
9
  6
CONTINUOUS
 10
51.9065073439
 20
92.3626347124
  0
VERTEX
  8
0
 62
9
  6
CONTINUOUS
 10
52.0566657796
 20
92.3671671142
  0
VERTEX
  8
0
 62
9
  6
CONTINUOUS
 10
52.1950143082
 20
92.3720895986
  0
SEQEND
  0
POLYLINE
  8
0
 62
9
  6
CONTINUOUS
 66
1
 70
0
  0
VERTEX
  8
0
 62
9
  6
CONTINUOUS
 10
72.5419039973
 20
92.8491003388
  0
VERTEX
  8
0
 62
9
  6
CONTINUOUS
 10
72.598614088
 20
92.8496014204
  0
VERTEX
  8
0
 62
9
  6
CONTINUOUS
 10
72.6573679534
 20
92.8510891439
  0
VERTEX
  8
0
 62
9
  6
CONTINUOUS
 10
72.7158286857
 20
92.8535077924
  0
VERTEX
  8
0
 62
9
  6
CONTINUOUS
 10
72.7717218569
 20
92.8567650659
  0
VERTEX
  8
0
 62
9
  6
CONTINUOUS
 10
72.8229067013
 20
92.8607379158
  0
VERTEX
  8
0
 62
9
  6
CONTINUOUS
 10
72.8674009726
 20
92.8652740888
  0
VERTEX
  8
0
 62
9
  6
CONTINUOUS
 10
72.9034046135
 20
92.8701869476
  0
SEQEND
  0
POLYLINE
  8
0
 62
9
  6
CONTINUOUS
 66
1
 70
0
  0
VERTEX
  8
0
 62
9
  6
CONTINUOUS
 10
97.3071356382
 20
92.8491003388
  0
VERTEX
  8
0
 62
9
  6
CONTINUOUS
 10
97.3652736821
 20
92.8496014204
  0
VERTEX
  8
0
 62
9
  6
CONTINUOUS
 10
97.4206622693
 20
92.8510891439
  0
VERTEX
  8
0
 62
9
  6
CONTINUOUS
 10
97.4710850613
 20
92.8535077924
  0
VERTEX
  8
0
 62
9
  6
CONTINUOUS
 10
97.5145773822
 20
92.8567650659
  0
VERTEX
  8
0
 62
9
  6
CONTINUOUS
 10
97.5494720167
 20
92.8607379158
  0
VERTEX
  8
0
 62
9
  6
CONTINUOUS
 10
97.5744167228
 20
92.8652740888
  0
VERTEX
  8
0
 62
9
  6
CONTINUOUS
 10
97.5884239185
 20
92.8701869476
  0
SEQEND
  0
POLYLINE
  8
0
 62
9
  6
CONTINUOUS
 66
1
 70
0
  0
VERTEX
  8
0
 62
9
  6
CONTINUOUS
 10
37.4128127048
 20
92.3510029897
  0
VERTEX
  8
0
 62
9
  6
CONTINUOUS
 10
37.4831864088
 20
92.351505125
  0
VERTEX
  8
0
 62
9
  6
CONTINUOUS
 10
37.5795850128
 20
92.3529932268
  0
VERTEX
  8
0
 62
9
  6
CONTINUOUS
 10
37.6983305783
 20
92.3554101633
  0
VERTEX
  8
0
 62
9
  6
CONTINUOUS
 10
37.9838347484
 20
92.3626347124
  0
SEQEND
  0
LINE
  8
0
 62
9
  6
CONTINUOUS
 10
47.2339367813
 20
92.8491003388
 11
51.5067412419
 21
92.8491003388
  0
LINE
  8
0
 62
9
  6
CONTINUOUS
 10
66.7083625791
 20
92.8491003388
 11
72.5419039973
 21
92.8491003388
  0
LINE
  8
0
 62
9
  6
CONTINUOUS
 10
90.9215295697
 20
92.8491003388
 11
97.3071356382
 21
92.8491003388
  0
LINE
  8
0
 62
9
  6
CONTINUOUS
 10
115.6867612106
 20
92.8491003388
 11
121.5203026288
 21
92.8491003388
  0
LINE
  8
0
 62
9
  6
CONTINUOUS
 10
136.721923966
 20
92.8491003388
 11
140.9947284266
 21
92.8491003388
  0
LINE
  8
0
 62
9
  6
CONTINUOUS
 10
35.8655573162
 20
92.8491003388
 11
37.8388181107
 21
92.8491003388
  0
LINE
  8
0
 62
9
  6
CONTINUOUS
 10
150.3898470971
 20
92.8491003388
 11
152.3631078917
 21
92.8491003388
  0
LINE
  8
0
 62
9
  6
CONTINUOUS
 10
150.3487145326
 20
93.048759149
 11
147.9840618033
 21
93.048759149
  0
LINE
  8
0
 62
9
  6
CONTINUOUS
 10
139.6915402557
 20
93.048759149
 11
134.5712344364
 21
93.048759149
  0
LINE
  8
0
 62
9
  6
CONTINUOUS
 10
121.1536527198
 20
93.048759149
 11
114.1630412032
 21
93.048759149
  0
LINE
  8
0
 62
9
  6
CONTINUOUS
 10
97.9404210915
 20
93.048759149
 11
90.2882441164
 21
93.048759149
  0
LINE
  8
0
 62
9
  6
CONTINUOUS
 10
74.0656240047
 20
93.048759149
 11
67.075012488
 21
93.048759149
  0
LINE
  8
0
 62
9
  6
CONTINUOUS
 10
53.6574307715
 20
93.048759149
 11
48.5371249522
 21
93.048759149
  0
LINE
  8
0
 62
9
  6
CONTINUOUS
 10
40.2446034046
 20
93.048759149
 11
37.8799506753
 21
93.048759149
  0
LINE
  8
1_AXIS
 62
7
  6
CONTINUOUS
 10
121.1029312759
 20
93.0601750547
 11
113.9971674558
 21
93.0601750547
  0
LINE
  8
1_AXIS
 62
7
  6
CONTINUOUS
 10
98.003446036
 20
93.0601750547
 11
90.2252191719
 21
93.0601750547
  0
LINE
  8
1_AXIS
 62
7
  6
CONTINUOUS
 10
74.2314977521
 20
93.0601750547
 11
67.1257339319
 21
93.0601750547
  0
LINE
  8
1_AXIS
 62
7
  6
CONTINUOUS
 10
53.897472244
 20
93.0601750547
 11
48.6928225861
 21
93.0601750547
  0
LINE
  8
1_AXIS
 62
7
  6
CONTINUOUS
 10
40.5173072508
 20
93.0601750547
 11
38.1137029638
 21
93.0601750547
  0
LINE
  8
0
 62
7
  6
CONTINUOUS
 10
36.4045548557
 20
93.0601750547
 11
67.1049242934
 21
93.0601750547
  0
LINE
  8
0
 62
7
  6
CONTINUOUS
 10
67.125733932
 20
93.0601750547
 11
151.8241103522
 21
93.0601750547
  0
LINE
  8
1_AXIS
 62
9
  6
CONTINUOUS
 10
59.1143326039
 20
95.0601750547
 11
129.1143326039
 21
95.0601750547
  0
POLYLINE
  8
0
 62
9
  6
CONTINUOUS
 66
1
 70
0
  0
VERTEX
  8
0
 62
9
  6
CONTINUOUS
 10
150.6490266595
 20
92.3529934514
  0
VERTEX
  8
0
 62
9
  6
CONTINUOUS
 10
150.7454490055
 20
92.3515052925
  0
VERTEX
  8
0
 62
9
  6
CONTINUOUS
 10
150.815852503
 20
92.3510029897
  0
SEQEND
  0
LINE
  8
0
 62
7
  6
CONTINUOUS
 10
121.1255563577
 20
93.0596989332
 11
121.1028677447
 21
93.0601749284
  0
POLYLINE
  8
0
 62
9
  6
CONTINUOUS
 66
1
 70
0
  0
VERTEX
  8
0
 62
9
  6
CONTINUOUS
 10
147.711357957
 20
93.0601750547
  0
VERTEX
  8
0
 62
9
  6
CONTINUOUS
 10
147.8483192971
 20
93.0573167486
  0
VERTEX
  8
0
 62
9
  6
CONTINUOUS
 10
147.9840618033
 20
93.048759149
  0
SEQEND
  0
POLYLINE
  8
0
 62
9
  6
CONTINUOUS
 66
1
 70
0
  0
VERTEX
  8
0
 62
9
  6
CONTINUOUS
 10
147.7067505571
 20
92.5601750547
  0
VERTEX
  8
0
 62
9
  6
CONTINUOUS
 10
147.8147449411
 20
92.5577931451
  0
VERTEX
  8
0
 62
9
  6
CONTINUOUS
 10
147.9216566451
 20
92.5506617999
  0
SEQEND
  0
POLYLINE
  8
0
 62
7
  6
CONTINUOUS
 66
1
 70
0
  0
VERTEX
  8
0
 62
7
  6
CONTINUOUS
 10
151.8241103529
 20
93.0601750547
  0
VERTEX
  8
0
 62
7
  6
CONTINUOUS
 10
151.953570052
 20
93.0573083676
  0
VERTEX
  8
0
 62
7
  6
CONTINUOUS
 10
152.0823236005
 20
93.048759149
  0
SEQEND
  0
POLYLINE
  8
0
 62
9
  6
CONTINUOUS
 66
1
 70
0
  0
VERTEX
  8
0
 62
9
  6
CONTINUOUS
 10
134.3311929639
 20
93.0601750547
  0
VERTEX
  8
0
 62
9
  6
CONTINUOUS
 10
134.4521634151
 20
93.0573167486
  0
VERTEX
  8
0
 62
9
  6
CONTINUOUS
 10
134.5712344364
 20
93.048759149
  0
SEQEND
  0
LINE
  8
0
 62
9
  6
CONTINUOUS
 10
150.3937995896
 20
92.3586650447
 11
150.6490266595
 21
92.3529934514
  0
POLYLINE
  8
0
 62
9
  6
CONTINUOUS
 66
1
 70
0
  0
VERTEX
  8
0
 62
9
  6
CONTINUOUS
 10
134.1236242075
 20
92.5601750547
  0
VERTEX
  8
0
 62
9
  6
CONTINUOUS
 10
134.2214945124
 20
92.5577931451
  0
VERTEX
  8
0
 62
9
  6
CONTINUOUS
 10
134.3176291357
 20
92.5506617999
  0
SEQEND
  0
LINE
  8
0
 62
9
  6
CONTINUOUS
 10
150.2317581214
 20
93.0573170117
 11
150.1149674431
 21
93.0601750547
  0
POLYLINE
  8
0
 62
9
  6
CONTINUOUS
 66
1
 70
0
  0
VERTEX
  8
0
 62
9
  6
CONTINUOUS
 10
149.9324754141
 20
92.3720895986
  0
VERTEX
  8
0
 62
9
  6
CONTINUOUS
 10
150.0890208624
 20
92.3671669807
  0
VERTEX
  8
0
 62
9
  6
CONTINUOUS
 10
150.3937995896
 20
92.3586650447
  0
SEQEND
  0
POLYLINE
  8
0
 62
9
  6
CONTINUOUS
 66
1
 70
0
  0
VERTEX
  8
0
 62
9
  6
CONTINUOUS
 10
113.6225278667
 20
92.5601750547
  0
VERTEX
  8
0
 62
9
  6
CONTINUOUS
 10
113.6933514276
 20
92.5577931451
  0
VERTEX
  8
0
 62
9
  6
CONTINUOUS
 10
113.7620864206
 20
92.5506617999
  0
SEQEND
  0
POLYLINE
  8
0
 62
9
  6
CONTINUOUS
 66
1
 70
0
  0
VERTEX
  8
0
 62
9
  6
CONTINUOUS
 10
113.9971674558
 20
93.0601750547
  0
VERTEX
  8
0
 62
9
  6
CONTINUOUS
 10
114.0812301282
 20
93.0573167486
  0
VERTEX
  8
0
 62
9
  6
CONTINUOUS
 10
114.1630412032
 20
93.048759149
  0
SEQEND
  0
POLYLINE
  8
0
 62
9
  6
CONTINUOUS
 66
1
 70
0
  0
VERTEX
  8
0
 62
9
  6
CONTINUOUS
 10
136.0336508997
 20
92.3720895986
  0
VERTEX
  8
0
 62
9
  6
CONTINUOUS
 10
136.1719775972
 20
92.3671669807
  0
VERTEX
  8
0
 62
9
  6
CONTINUOUS
 10
136.322128538
 20
92.3626338019
  0
VERTEX
  8
0
 62
9
  6
CONTINUOUS
 10
136.4783013401
 20
92.3586650447
  0
VERTEX
  8
0
 62
9
  6
CONTINUOUS
 10
136.6344786061
 20
92.3554103838
  0
VERTEX
  8
0
 62
9
  6
CONTINUOUS
 10
136.7846863454
 20
92.3529934514
  0
VERTEX
  8
0
 62
9
  6
CONTINUOUS
 10
136.923118523
 20
92.3515052925
  0
VERTEX
  8
0
 62
9
  6
CONTINUOUS
 10
141.349612824
 20
92.3510029897
  0
SEQEND
  0
POLYLINE
  8
0
 62
9
  6
CONTINUOUS
 66
1
 70
0
  0
VERTEX
  8
0
 62
9
  6
CONTINUOUS
 10
154.1798359447
 20
92.3720895986
  0
VERTEX
  8
0
 62
9
  6
CONTINUOUS
 10
154.7380238039
 20
92.3529927409
  0
VERTEX
  8
0
 62
9
  6
CONTINUOUS
 10
154.7757449863
 20
92.3515052873
  0
VERTEX
  8
0
 62
9
  6
CONTINUOUS
 10
154.7841044424
 20
92.3510398728
  0
SEQEND
  0
LINE
  8
0
 62
9
  6
CONTINUOUS
 10
139.6131558161
 20
93.0573170117
 11
139.5358426218
 21
93.0601750547
  0
POLYLINE
  8
0
 62
9
  6
CONTINUOUS
 66
1
 70
0
  0
VERTEX
  8
0
 62
9
  6
CONTINUOUS
 10
114.8865954269
 20
92.3720895986
  0
VERTEX
  8
0
 62
9
  6
CONTINUOUS
 10
114.9827854309
 20
92.3671669807
  0
VERTEX
  8
0
 62
9
  6
CONTINUOUS
 10
115.1013444315
 20
92.3626338019
  0
VERTEX
  8
0
 62
9
  6
CONTINUOUS
 10
115.2376880315
 20
92.3586650447
  0
VERTEX
  8
0
 62
9
  6
CONTINUOUS
 10
115.3865568933
 20
92.3554103838
  0
VERTEX
  8
0
 62
9
  6
CONTINUOUS
 10
115.5422542214
 20
92.3529934514
  0
VERTEX
  8
0
 62
9
  6
CONTINUOUS
 10
115.6987600495
 20
92.3515052925
  0
VERTEX
  8
0
 62
9
  6
CONTINUOUS
 10
115.8500644036
 20
92.3510029897
  0
SEQEND
  0
POLYLINE
  8
0
 62
7
  6
CONTINUOUS
 66
1
 70
0
  0
VERTEX
  8
0
 62
7
  6
CONTINUOUS
 10
150.3042572579
 20
93.0527837013
  0
VERTEX
  8
0
 62
7
  6
CONTINUOUS
 10
150.1742347611
 20
93.059447906
  0
VERTEX
  8
0
 62
7
  6
CONTINUOUS
 10
150.1149686944
 20
93.0601749494
  0
SEQEND
  0
LINE
  8
0
 62
9
  6
CONTINUOUS
 10
152.2056100019
 20
92.8701869476
 11
152.2109993182
 21
92.8698240376
  0
LINE
  8
0
 62
9
  6
CONTINUOUS
 10
151.0911074038
 20
92.9766091305
 11
151.0964122991
 21
92.9762498856
  0
LINE
  8
0
 62
9
  6
CONTINUOUS
 10
140.9919594104
 20
92.8701869476
 11
141.0241515977
 21
92.8676865021
  0
POLYLINE
  8
0
 62
7
  6
CONTINUOUS
 66
1
 70
0
  0
VERTEX
  8
0
 62
7
  6
CONTINUOUS
 10
139.6877676226
 20
93.0510620845
  0
VERTEX
  8
0
 62
7
  6
CONTINUOUS
 10
139.5811947902
 20
93.0593528767
  0
VERTEX
  8
0
 62
7
  6
CONTINUOUS
 10
139.5357740374
 20
93.0601749471
  0
SEQEND
  0
LINE
  8
0
 62
9
  6
CONTINUOUS
 10
140.1965743172
 20
92.9766091305
 11
140.2287105824
 21
92.9741009156
  0
LINE
  8
0
 62
9
  6
CONTINUOUS
 10
134.5712344364
 20
93.048759149
 11
134.8443094185
 21
93.0230547375
  0
POLYLINE
  8
0
 62
9
  6
CONTINUOUS
 66
1
 70
0
  0
VERTEX
  8
0
 62
9
  6
CONTINUOUS
 10
136.3427177546
 20
92.8701869476
  0
VERTEX
  8
0
 62
9
  6
CONTINUOUS
 10
136.3945528251
 20
92.8652688157
  0
VERTEX
  8
0
 62
9
  6
CONTINUOUS
 10
136.4509053834
 20
92.8607332746
  0
VERTEX
  8
0
 62
9
  6
CONTINUOUS
 10
136.5095234598
 20
92.8567616209
  0
VERTEX
  8
0
 62
9
  6
CONTINUOUS
 10
136.5681465628
 20
92.8535053558
  0
VERTEX
  8
0
 62
9
  6
CONTINUOUS
 10
136.6245292821
 20
92.851087651
  0
VERTEX
  8
0
 62
9
  6
CONTINUOUS
 10
136.6764910415
 20
92.8496005334
  0
VERTEX
  8
0
 62
9
  6
CONTINUOUS
 10
136.721923966
 20
92.8491003388
  0
SEQEND
  0
LINE
  8
0
 62
9
  6
CONTINUOUS
 10
135.0022206908
 20
92.4785117911
 11
136.0336508997
 21
92.3720895986
  0
POLYLINE
  8
0
 62
9
  6
CONTINUOUS
 66
1
 70
0
  0
VERTEX
  8
0
 62
9
  6
CONTINUOUS
 10
134.3176291357
 20
92.5506617999
  0
VERTEX
  8
0
 62
9
  6
CONTINUOUS
 10
134.7980604066
 20
92.5008773475
  0
VERTEX
  8
0
 62
9
  6
CONTINUOUS
 10
135.0022206908
 20
92.4785117911
  0
SEQEND
  0
POLYLINE
  8
0
 62
9
  6
CONTINUOUS
 66
1
 70
0
  0
VERTEX
  8
0
 62
9
  6
CONTINUOUS
 10
121.1237409145
 20
93.0601750547
  0
VERTEX
  8
0
 62
9
  6
CONTINUOUS
 10
121.2519100758
 20
93.043137804
  0
VERTEX
  8
0
 62
9
  6
CONTINUOUS
 10
121.3713443917
 20
92.9931872665
  0
SEQEND
  0
POLYLINE
  8
0
 62
9
  6
CONTINUOUS
 66
1
 70
0
  0
VERTEX
  8
0
 62
9
  6
CONTINUOUS
 10
114.1630412032
 20
93.048759149
  0
VERTEX
  8
0
 62
9
  6
CONTINUOUS
 10
114.3538915675
 20
93.0230547375
  0
VERTEX
  8
0
 62
9
  6
CONTINUOUS
 10
114.5201541746
 20
92.9989715789
  0
VERTEX
  8
0
 62
9
  6
CONTINUOUS
 10
114.6640782976
 20
92.9766091401
  0
SEQEND
  0
POLYLINE
  8
0
 62
9
  6
CONTINUOUS
 66
1
 70
0
  0
VERTEX
  8
0
 62
9
  6
CONTINUOUS
 10
115.3252605944
 20
92.8701869476
  0
VERTEX
  8
0
 62
9
  6
CONTINUOUS
 10
115.3613091582
 20
92.8652688157
  0
VERTEX
  8
0
 62
9
  6
CONTINUOUS
 10
115.4058104472
 20
92.8607332746
  0
VERTEX
  8
0
 62
9
  6
CONTINUOUS
 10
115.4569943746
 20
92.8567616209
  0
VERTEX
  8
0
 62
9
  6
CONTINUOUS
 10
115.5128856313
 20
92.8535053558
  0
VERTEX
  8
0
 62
9
  6
CONTINUOUS
 10
115.5713426057
 20
92.851087651
  0
VERTEX
  8
0
 62
9
  6
CONTINUOUS
 10
115.6301027041
 20
92.8496005334
  0
VERTEX
  8
0
 62
9
  6
CONTINUOUS
 10
115.6867612106
 20
92.8491003388
  0
SEQEND
  0
POLYLINE
  8
0
 62
9
  6
CONTINUOUS
 66
1
 70
0
  0
VERTEX
  8
0
 62
9
  6
CONTINUOUS
 10
98.003446036
 20
93.0601750547
  0
VERTEX
  8
0
 62
9
  6
CONTINUOUS
 10
98.1268855236
 20
93.0431378426
  0
VERTEX
  8
0
 62
9
  6
CONTINUOUS
 10
98.2419125628
 20
92.9931873873
  0
VERTEX
  8
0
 62
9
  6
CONTINUOUS
 10
98.3406882936
 20
92.9137278959
  0
VERTEX
  8
0
 62
9
  6
CONTINUOUS
 10
98.4164814206
 20
92.8101745082
  0
VERTEX
  8
0
 62
9
  6
CONTINUOUS
 10
98.4641268979
 20
92.6895842383
  0
VERTEX
  8
0
 62
9
  6
CONTINUOUS
 10
98.4803778694
 20
92.5601750547
  0
SEQEND
  0
POLYLINE
  8
0
 62
9
  6
CONTINUOUS
 66
1
 70
0
  0
VERTEX
  8
0
 62
9
  6
CONTINUOUS
 10
113.7620864206
 20
92.5506617999
  0
VERTEX
  8
0
 62
9
  6
CONTINUOUS
 10
113.9386353471
 20
92.5249569415
  0
VERTEX
  8
0
 62
9
  6
CONTINUOUS
 10
114.0924195007
 20
92.5008773475
  0
VERTEX
  8
0
 62
9
  6
CONTINUOUS
 10
114.2255846226
 20
92.4785117911
  0
SEQEND
  0
POLYLINE
  8
0
 62
9
  6
CONTINUOUS
 66
1
 70
0
  0
VERTEX
  8
0
 62
9
  6
CONTINUOUS
 10
97.5884239185
 20
92.8701869476
  0
VERTEX
  8
0
 62
9
  6
CONTINUOUS
 10
97.7150639006
 20
92.8513732226
  0
VERTEX
  8
0
 62
9
  6
CONTINUOUS
 10
97.8330940064
 20
92.8006104362
  0
VERTEX
  8
0
 62
9
  6
CONTINUOUS
 10
97.9346463455
 20
92.7212824373
  0
VERTEX
  8
0
 62
9
  6
CONTINUOUS
 10
98.0129514356
 20
92.6186772328
  0
VERTEX
  8
0
 62
9
  6
CONTINUOUS
 10
98.0627894571
 20
92.4996344889
  0
VERTEX
  8
0
 62
9
  6
CONTINUOUS
 10
98.0808382059
 20
92.3720895986
  0
SEQEND
  0
POLYLINE
  8
0
 62
9
  6
CONTINUOUS
 66
1
 70
0
  0
VERTEX
  8
0
 62
9
  6
CONTINUOUS
 10
97.7649033781
 20
92.9766091305
  0
VERTEX
  8
0
 62
9
  6
CONTINUOUS
 10
97.8915084381
 20
92.9577577772
  0
VERTEX
  8
0
 62
9
  6
CONTINUOUS
 10
98.0094977259
 20
92.906974542
  0
VERTEX
  8
0
 62
9
  6
CONTINUOUS
 10
98.1110096837
 20
92.8276430825
  0
VERTEX
  8
0
 62
9
  6
CONTINUOUS
 10
98.1892806287
 20
92.7250492076
  0
VERTEX
  8
0
 62
9
  6
CONTINUOUS
 10
98.2390954132
 20
92.6060286877
  0
VERTEX
  8
0
 62
9
  6
CONTINUOUS
 10
98.2571349071
 20
92.4785117911
  0
SEQEND
  0
POLYLINE
  8
0
 62
9
  6
CONTINUOUS
 66
1
 70
0
  0
VERTEX
  8
0
 62
9
  6
CONTINUOUS
 10
98.7087652789
 20
93.0601750547
  0
VERTEX
  8
0
 62
9
  6
CONTINUOUS
 10
98.8185817011
 20
93.043137804
  0
VERTEX
  8
0
 62
9
  6
CONTINUOUS
 10
98.9209140337
 20
92.9931872665
  0
VERTEX
  8
0
 62
9
  6
CONTINUOUS
 10
99.0087885326
 20
92.9137277075
  0
VERTEX
  8
0
 62
9
  6
CONTINUOUS
 10
99.0762168161
 20
92.8101743143
  0
VERTEX
  8
0
 62
9
  6
CONTINUOUS
 10
99.1186039149
 20
92.6895841155
  0
VERTEX
  8
0
 62
9
  6
CONTINUOUS
 10
99.1330613479
 20
92.5601750547
  0
SEQEND
  0
LINE
  8
0
 62
9
  6
CONTINUOUS
 10
114.2255846226
 20
92.4785117911
 11
114.8865954269
 21
92.3720895986
  0
LINE
  8
0
 62
9
  6
CONTINUOUS
 10
114.6640782976
 20
92.9766091401
 11
115.3252605944
 21
92.8701869476
  0
POLYLINE
  8
0
 62
9
  6
CONTINUOUS
 66
1
 70
0
  0
VERTEX
  8
0
 62
9
  6
CONTINUOUS
 10
97.9404210907
 20
93.0487590212
  0
VERTEX
  8
0
 62
9
  6
CONTINUOUS
 10
98.0628356295
 20
93.0287566389
  0
VERTEX
  8
0
 62
9
  6
CONTINUOUS
 10
98.1770200712
 20
92.9773486244
  0
VERTEX
  8
0
 62
9
  6
CONTINUOUS
 10
98.2754737408
 20
92.8979119244
  0
VERTEX
  8
0
 62
9
  6
CONTINUOUS
 10
98.3517293041
 20
92.7956646653
  0
VERTEX
  8
0
 62
9
  6
CONTINUOUS
 10
98.4007776005
 20
92.6773233791
  0
VERTEX
  8
0
 62
9
  6
CONTINUOUS
 10
98.419396691
 20
92.5506617999
  0
SEQEND
  0
POLYLINE
  8
0
 62
9
  6
CONTINUOUS
 66
1
 70
0
  0
VERTEX
  8
0
 62
9
  6
CONTINUOUS
 10
136.3427177546
 20
83.2501631618
  0
VERTEX
  8
0
 62
9
  6
CONTINUOUS
 10
136.2702660743
 20
83.2689768868
  0
VERTEX
  8
0
 62
9
  6
CONTINUOUS
 10
136.2006013257
 20
83.3197396732
  0
VERTEX
  8
0
 62
9
  6
CONTINUOUS
 10
136.1383673631
 20
83.3990676721
  0
VERTEX
  8
0
 62
9
  6
CONTINUOUS
 10
136.0877127045
 20
83.5016728766
  0
VERTEX
  8
0
 62
9
  6
CONTINUOUS
 10
136.052013991
 20
83.6207156205
  0
VERTEX
  8
0
 62
9
  6
CONTINUOUS
 10
136.0336508997
 20
83.7482605108
  0
SEQEND
  0
POLYLINE
  8
0
 62
9
  6
CONTINUOUS
 66
1
 70
0
  0
VERTEX
  8
0
 62
9
  6
CONTINUOUS
 10
135.3111570455
 20
83.1437409863
  0
VERTEX
  8
0
 62
9
  6
CONTINUOUS
 10
135.2387236299
 20
83.1625923275
  0
VERTEX
  8
0
 62
9
  6
CONTINUOUS
 10
135.1690833397
 20
83.2133755554
  0
VERTEX
  8
0
 62
9
  6
CONTINUOUS
 10
135.1068762676
 20
83.2927070127
  0
VERTEX
  8
0
 62
9
  6
CONTINUOUS
 10
135.0562472354
 20
83.3953008897
  0
VERTEX
  8
0
 62
9
  6
CONTINUOUS
 10
135.0205696265
 20
83.5143214147
  0
VERTEX
  8
0
 62
9
  6
CONTINUOUS
 10
135.0022206197
 20
83.6418383183
  0
SEQEND
  0
POLYLINE
  8
0
 62
9
  6
CONTINUOUS
 66
1
 70
0
  0
VERTEX
  8
0
 62
9
  6
CONTINUOUS
 10
134.3311929639
 20
83.0601750547
  0
VERTEX
  8
0
 62
9
  6
CONTINUOUS
 10
134.2774701277
 20
83.0772121989
  0
VERTEX
  8
0
 62
9
  6
CONTINUOUS
 10
134.2274084634
 20
83.1271625229
  0
VERTEX
  8
0
 62
9
  6
CONTINUOUS
 10
134.1844195831
 20
83.2066219184
  0
VERTEX
  8
0
 62
9
  6
CONTINUOUS
 10
134.151433087
 20
83.3101753086
  0
VERTEX
  8
0
 62
9
  6
CONTINUOUS
 10
134.1306969238
 20
83.43076569
  0
VERTEX
  8
0
 62
9
  6
CONTINUOUS
 10
134.1236242075
 20
83.5601750547
  0
SEQEND
  0
POLYLINE
  8
0
 62
9
  6
CONTINUOUS
 66
1
 70
0
  0
VERTEX
  8
0
 62
9
  6
CONTINUOUS
 10
134.5712344285
 20
83.071591089
  0
VERTEX
  8
0
 62
9
  6
CONTINUOUS
 10
134.5132526482
 20
83.091593471
  0
VERTEX
  8
0
 62
9
  6
CONTINUOUS
 10
134.4570832796
 20
83.1430014854
  0
VERTEX
  8
0
 62
9
  6
CONTINUOUS
 10
134.4064160387
 20
83.2224381853
  0
VERTEX
  8
0
 62
9
  6
CONTINUOUS
 10
134.3645792121
 20
83.3246854442
  0
VERTEX
  8
0
 62
9
  6
CONTINUOUS
 10
134.3343210239
 20
83.4430267303
  0
VERTEX
  8
0
 62
9
  6
CONTINUOUS
 10
134.3176291079
 20
83.5696883095
  0
SEQEND
  0
POLYLINE
  8
0
 62
9
  6
CONTINUOUS
 66
1
 70
0
  0
VERTEX
  8
0
 62
9
  6
CONTINUOUS
 10
122.1641320182
 20
83.7550811204
  0
VERTEX
  8
0
 62
9
  6
CONTINUOUS
 10
122.1586939015
 20
83.757715397
  0
VERTEX
  8
0
 62
9
  6
CONTINUOUS
 10
122.1252163955
 20
83.7616850413
  0
VERTEX
  8
0
 62
9
  6
CONTINUOUS
 10
122.0624559748
 20
83.7649399461
  0
VERTEX
  8
0
 62
9
  6
CONTINUOUS
 10
121.9728198641
 20
83.7673568825
  0
VERTEX
  8
0
 62
9
  6
CONTINUOUS
 10
121.8598031786
 20
83.7688449847
  0
VERTEX
  8
0
 62
9
  6
CONTINUOUS
 10
121.7277657055
 20
83.7693471197
  0
SEQEND
  0
POLYLINE
  8
0
 62
9
  6
CONTINUOUS
 66
1
 70
0
  0
VERTEX
  8
0
 62
9
  6
CONTINUOUS
 10
100.5397649571
 20
93.0601750547
  0
VERTEX
  8
0
 62
9
  6
CONTINUOUS
 10
100.5548013412
 20
93.0431379717
  0
VERTEX
  8
0
 62
9
  6
CONTINUOUS
 10
100.5688130216
 20
92.9931877679
  0
VERTEX
  8
0
 62
9
  6
CONTINUOUS
 10
100.5808451251
 20
92.9137284619
  0
VERTEX
  8
0
 62
9
  6
CONTINUOUS
 10
100.5900776834
 20
92.8101750711
  0
VERTEX
  8
0
 62
9
  6
CONTINUOUS
 10
100.5958815125
 20
92.6895845873
  0
VERTEX
  8
0
 62
9
  6
CONTINUOUS
 10
100.5978610905
 20
92.5601750547
  0
SEQEND
  0
POLYLINE
  8
0
 62
9
  6
CONTINUOUS
 66
1
 70
0
  0
VERTEX
  8
0
 62
9
  6
CONTINUOUS
 10
110.5845966306
 20
83.0601750547
  0
VERTEX
  8
0
 62
9
  6
CONTINUOUS
 10
110.6231392863
 20
83.0772121392
  0
VERTEX
  8
0
 62
9
  6
CONTINUOUS
 10
110.6590553252
 20
83.1271623461
  0
VERTEX
  8
0
 62
9
  6
CONTINUOUS
 10
110.6898971283
 20
83.2066216543
  0
VERTEX
  8
0
 62
9
  6
CONTINUOUS
 10
110.7135628771
 20
83.310175045
  0
VERTEX
  8
0
 62
9
  6
CONTINUOUS
 10
110.7284397891
 20
83.4307655262
  0
VERTEX
  8
0
 62
9
  6
CONTINUOUS
 10
110.7335140268
 20
83.5601750547
  0
SEQEND
  0
LINE
  8
0
 62
9
  6
CONTINUOUS
 10
121.3340029948
 20
83.1437409693
 11
121.6727412741
 21
83.2501631618
  0
LINE
  8
0
 62
7
  6
CONTINUOUS
 10
121.4635815582
 20
83.1647867843
 11
121.8026000287
 21
83.2712459153
  0
POLYLINE
  8
0
 62
9
  6
CONTINUOUS
 66
1
 70
0
  0
VERTEX
  8
0
 62
9
  6
CONTINUOUS
 10
65.904219498
 20
93.0601750547
  0
VERTEX
  8
0
 62
9
  6
CONTINUOUS
 10
65.838203684
 20
93.043137804
  0
VERTEX
  8
0
 62
9
  6
CONTINUOUS
 10
65.7766869081
 20
92.9931872665
  0
VERTEX
  8
0
 62
9
  6
CONTINUOUS
 10
65.7238614157
 20
92.9137277075
  0
VERTEX
  8
0
 62
9
  6
CONTINUOUS
 10
65.6833271045
 20
92.8101743143
  0
VERTEX
  8
0
 62
9
  6
CONTINUOUS
 10
65.6578462268
 20
92.6895841155
  0
VERTEX
  8
0
 62
9
  6
CONTINUOUS
 10
65.6491551841
 20
92.5601750547
  0
SEQEND
  0
POLYLINE
  8
0
 62
9
  6
CONTINUOUS
 66
1
 70
0
  0
VERTEX
  8
0
 62
9
  6
CONTINUOUS
 10
57.5962304754
 20
93.0601750547
  0
VERTEX
  8
0
 62
9
  6
CONTINUOUS
 10
57.5107731584
 20
93.0431379717
  0
VERTEX
  8
0
 62
9
  6
CONTINUOUS
 10
57.4311396107
 20
92.9931877679
  0
VERTEX
  8
0
 62
9
  6
CONTINUOUS
 10
57.3627567282
 20
92.9137284619
  0
VERTEX
  8
0
 62
9
  6
CONTINUOUS
 10
57.3102846937
 20
92.8101750711
  0
VERTEX
  8
0
 62
9
  6
CONTINUOUS
 10
57.2772993924
 20
92.6895845873
  0
VERTEX
  8
0
 62
9
  6
CONTINUOUS
 10
57.2660487201
 20
92.5601750547
  0
SEQEND
  0
LINE
  8
0
 62
9
  6
CONTINUOUS
 10
66.5559239337
 20
92.8701869489
 11
66.4260953508
 21
92.8491127446
  0
LINE
  8
0
 62
9
  6
CONTINUOUS
 10
66.8946622131
 20
92.9766091401
 11
66.7652614888
 21
92.9556191065
  0
POLYLINE
  8
0
 62
9
  6
CONTINUOUS
 66
1
 70
0
  0
VERTEX
  8
0
 62
9
  6
CONTINUOUS
 10
67.075012489
 20
93.0487591258
  0
VERTEX
  8
0
 62
9
  6
CONTINUOUS
 10
66.9500841356
 20
93.0287567684
  0
VERTEX
  8
0
 62
9
  6
CONTINUOUS
 10
66.8520510208
 20
92.9874892263
  0
SEQEND
  0
LINE
  8
0
 62
7
  6
CONTINUOUS
 10
47.1895228093
 20
92.8656196606
 11
47.1507118351
 21
92.8595626469
  0
POLYLINE
  8
0
 62
7
  6
CONTINUOUS
 66
1
 70
0
  0
VERTEX
  8
0
 62
7
  6
CONTINUOUS
 10
48.4954230816
 20
93.0448613911
  0
VERTEX
  8
0
 62
7
  6
CONTINUOUS
 10
48.3585922351
 20
93.0243035554
  0
VERTEX
  8
0
 62
7
  6
CONTINUOUS
 10
48.1622141339
 20
92.9962294372
  0
SEQEND
  0
POLYLINE
  8
0
 62
9
  6
CONTINUOUS
 66
1
 70
0
  0
VERTEX
  8
0
 62
9
  6
CONTINUOUS
 10
48.5371249522
 20
93.048759149
  0
VERTEX
  8
0
 62
9
  6
CONTINUOUS
 10
48.3652572919
 20
93.0230547375
  0
VERTEX
  8
0
 62
9
  6
CONTINUOUS
 10
48.1960562069
 20
92.9989715789
  0
SEQEND
  0
POLYLINE
  8
0
 62
9
  6
CONTINUOUS
 66
1
 70
0
  0
VERTEX
  8
0
 62
9
  6
CONTINUOUS
 10
47.2367057975
 20
92.8701869476
  0
VERTEX
  8
0
 62
9
  6
CONTINUOUS
 10
47.2036451039
 20
92.8652688157
  0
VERTEX
  8
0
 62
9
  6
CONTINUOUS
 10
47.1806893126
 20
92.8607332746
  0
VERTEX
  8
0
 62
9
  6
CONTINUOUS
 10
47.1687760338
 20
92.8567616209
  0
VERTEX
  8
0
 62
9
  6
CONTINUOUS
 10
47.1683610094
 20
92.8535053558
  0
VERTEX
  8
0
 62
9
  6
CONTINUOUS
 10
47.1794580879
 20
92.851087651
  0
VERTEX
  8
0
 62
9
  6
CONTINUOUS
 10
47.2016337013
 20
92.8496005334
  0
SEQEND
  0
POLYLINE
  8
0
 62
9
  6
CONTINUOUS
 66
1
 70
0
  0
VERTEX
  8
0
 62
9
  6
CONTINUOUS
 10
43.862703988
 20
93.0601750547
  0
VERTEX
  8
0
 62
9
  6
CONTINUOUS
 10
43.7451083544
 20
93.0431379717
  0
VERTEX
  8
0
 62
9
  6
CONTINUOUS
 10
43.6355266612
 20
92.9931877679
  0
VERTEX
  8
0
 62
9
  6
CONTINUOUS
 10
43.5414267214
 20
92.9137284619
  0
VERTEX
  8
0
 62
9
  6
CONTINUOUS
 10
43.4692212935
 20
92.8101750711
  0
VERTEX
  8
0
 62
9
  6
CONTINUOUS
 10
43.423831062
 20
92.6895845873
  0
VERTEX
  8
0
 62
9
  6
CONTINUOUS
 10
43.4083492989
 20
92.5601750547
  0
SEQEND
  0
LINE
  8
0
 62
7
  6
CONTINUOUS
 10
48.5461682374
 20
93.0516786589
 11
48.4954460592
 21
93.0448648015
  0
LINE
  8
0
 62
9
  6
CONTINUOUS
 10
48.1960562069
 20
92.9989715789
 11
47.2367057975
 21
92.8701869476
  0
LINE
  8
0
 62
7
  6
CONTINUOUS
 10
48.1622141339
 20
92.9962294372
 11
47.2309757132
 21
92.8712276695
  0
LINE
  8
0
 62
7
  6
CONTINUOUS
 10
47.2309757132
 20
92.8712276695
 11
47.1895228093
 21
92.8656196606
  0
POLYLINE
  8
0
 62
9
  6
CONTINUOUS
 66
1
 70
0
  0
VERTEX
  8
0
 62
9
  6
CONTINUOUS
 10
35.8956825516
 20
92.8567616209
  0
VERTEX
  8
0
 62
9
  6
CONTINUOUS
 10
35.8713456457
 20
92.8535053558
  0
VERTEX
  8
0
 62
9
  6
CONTINUOUS
 10
35.8579496953
 20
92.851087651
  0
VERTEX
  8
0
 62
9
  6
CONTINUOUS
 10
35.8560089566
 20
92.8496005334
  0
VERTEX
  8
0
 62
9
  6
CONTINUOUS
 10
35.8655573162
 20
92.8491003388
  0
SEQEND
  0
LINE
  8
0
 62
9
  6
CONTINUOUS
 10
35.9300300324
 20
92.8607332746
 11
35.9203658199
 21
92.8599515154
  0
POLYLINE
  8
0
 62
7
  6
CONTINUOUS
 66
1
 70
0
  0
VERTEX
  8
0
 62
7
  6
CONTINUOUS
 10
33.9000950851
 20
92.8492831399
  0
VERTEX
  8
0
 62
7
  6
CONTINUOUS
 10
33.8915371396
 20
92.8483432317
  0
VERTEX
  8
0
 62
7
  6
CONTINUOUS
 10
33.8811274946
 20
92.8470690008
  0
VERTEX
  8
0
 62
7
  6
CONTINUOUS
 10
33.8663083776
 20
92.8449186718
  0
VERTEX
  8
0
 62
7
  6
CONTINUOUS
 10
33.8478570619
 20
92.8416247566
  0
VERTEX
  8
0
 62
7
  6
CONTINUOUS
 10
33.8278389805
 20
92.8372429924
  0
VERTEX
  8
0
 62
7
  6
CONTINUOUS
 10
33.8069531598
 20
92.8317445515
  0
VERTEX
  8
0
 62
7
  6
CONTINUOUS
 10
33.785185173
 20
92.8249693791
  0
VERTEX
  8
0
 62
7
  6
CONTINUOUS
 10
33.762897784
 20
92.8168790354
  0
VERTEX
  8
0
 62
7
  6
CONTINUOUS
 10
33.7405642823
 20
92.8075389192
  0
VERTEX
  8
0
 62
7
  6
CONTINUOUS
 10
33.7183739452
 20
92.7969593962
  0
VERTEX
  8
0
 62
7
  6
CONTINUOUS
 10
33.696282428
 20
92.7850462904
  0
VERTEX
  8
0
 62
7
  6
CONTINUOUS
 10
33.6742815582
 20
92.7716965433
  0
VERTEX
  8
0
 62
7
  6
CONTINUOUS
 10
33.652383102
 20
92.7567915316
  0
VERTEX
  8
0
 62
7
  6
CONTINUOUS
 10
33.6306231926
 20
92.740198976
  0
VERTEX
  8
0
 62
7
  6
CONTINUOUS
 10
33.6091014894
 20
92.7218068805
  0
VERTEX
  8
0
 62
7
  6
CONTINUOUS
 10
33.5880108188
 20
92.701572035
  0
VERTEX
  8
0
 62
7
  6
CONTINUOUS
 10
33.5675608582
 20
92.679477618
  0
VERTEX
  8
0
 62
7
  6
CONTINUOUS
 10
33.5479663939
 20
92.6555277417
  0
VERTEX
  8
0
 62
7
  6
CONTINUOUS
 10
33.5294409332
 20
92.6297425945
  0
VERTEX
  8
0
 62
7
  6
CONTINUOUS
 10
33.5121838045
 20
92.6021366985
  0
VERTEX
  8
0
 62
7
  6
CONTINUOUS
 10
33.4963977192
 20
92.572735948
  0
VERTEX
  8
0
 62
7
  6
CONTINUOUS
 10
33.4822932918
 20
92.5415862044
  0
VERTEX
  8
0
 62
7
  6
CONTINUOUS
 10
33.4700875254
 20
92.5087553249
  0
VERTEX
  8
0
 62
7
  6
CONTINUOUS
 10
33.4600019662
 20
92.4743351656
  0
VERTEX
  8
0
 62
7
  6
CONTINUOUS
 10
33.4522605063
 20
92.4384435154
  0
VERTEX
  8
0
 62
7
  6
CONTINUOUS
 10
33.4470868154
 20
92.4012259053
  0
VERTEX
  8
0
 62
7
  6
CONTINUOUS
 10
33.4447013951
 20
92.3628572869
  0
VERTEX
  8
0
 62
7
  6
CONTINUOUS
 10
33.4445616927
 20
92.3510386064
  0
SEQEND
  0
LINE
  8
0
 62
9
  6
CONTINUOUS
 10
53.2264445171
 20
92.4785117911
 11
53.4307254
 21
92.5008903343
  0
LINE
  8
0
 62
9
  6
CONTINUOUS
 10
48.6155058058
 20
93.0573167486
 11
48.5371249522
 21
93.048759149
  0
POLYLINE
  8
0
 62
7
  6
CONTINUOUS
 66
1
 70
0
  0
VERTEX
  8
0
 62
7
  6
CONTINUOUS
 10
35.9600561786
 20
92.8641395014
  0
VERTEX
  8
0
 62
7
  6
CONTINUOUS
 10
35.9203658199
 20
92.8599515154
  0
VERTEX
  8
0
 62
7
  6
CONTINUOUS
 10
35.886595311
 20
92.8561116741
  0
VERTEX
  8
0
 62
7
  6
CONTINUOUS
 10
35.8579687193
 20
92.8525149035
  0
VERTEX
  8
0
 62
7
  6
CONTINUOUS
 10
35.8317689382
 20
92.8487124744
  0
VERTEX
  8
0
 62
7
  6
CONTINUOUS
 10
35.8037642783
 20
92.8436941221
  0
VERTEX
  8
0
 62
7
  6
CONTINUOUS
 10
35.7713943472
 20
92.8361508312
  0
SEQEND
  0
LINE
  8
0
 62
9
  6
CONTINUOUS
 10
35.9730667409
 20
92.8652688157
 11
35.9600561786
 21
92.8641395014
  0
POLYLINE
  8
0
 62
9
  6
CONTINUOUS
 66
1
 70
0
  0
VERTEX
  8
0
 62
9
  6
CONTINUOUS
 10
51.8859474532
 20
92.8701869476
  0
VERTEX
  8
0
 62
9
  6
CONTINUOUS
 10
53.1382680403
 20
92.998985064
  0
VERTEX
  8
0
 62
9
  6
CONTINUOUS
 10
53.384496529
 20
93.0230682537
  0
VERTEX
  8
0
 62
9
  6
CONTINUOUS
 10
53.6574307715
 20
93.048759149
  0
SEQEND
  0
LINE
  8
0
 62
7
  6
CONTINUOUS
 10
33.9187321955
 20
92.8511668257
 11
33.9000950851
 21
92.8492831399
  0
LINE
  8
0
 62
9
  6
CONTINUOUS
 10
37.8799506753
 20
93.048759149
 11
37.8729383268
 21
93.048069449
  0
LINE
  8
0
 62
9
  6
CONTINUOUS
 10
35.2528556789
 20
92.4785117911
 11
35.4185830232
 21
92.4943468065
  0
LINE
  8
0
 62
7
  6
CONTINUOUS
 10
37.8729227091
 20
93.0482282382
 11
36.0230408347
 21
92.8703374119
  0
LINE
  8
0
 62
9
  6
CONTINUOUS
 10
37.1322668296
 20
92.9761040583
 11
36.0176691194
 21
92.8698242857
  0
LINE
  8
0
 62
7
  6
CONTINUOUS
 10
36.0230408347
 20
92.8703374119
 11
35.9600561786
 21
92.8641395014
  0
LINE
  8
0
 62
9
  6
CONTINUOUS
 10
48.5371249538
 20
93.0487591258
 11
48.4954460411
 21
93.0448649184
  0
LINE
  8
0
 62
7
  6
CONTINUOUS
 10
33.9789390961
 20
92.8568314005
 11
33.9187321955
 21
92.8511668257
  0
LINE
  8
0
 62
9
  6
CONTINUOUS
 10
39.5196957539
 20
92.4785117911
 11
40.3070085628
 21
92.5506617999
  0
LINE
  8
0
 62
9
  6
CONTINUOUS
 10
34.0488292632
 20
92.3720895986
 11
35.2528556789
 21
92.4785117911
  0
LINE
  8
0
 62
7
  6
CONTINUOUS
 10
33.9789390961
 20
92.8568314005
 11
36.1463416073
 21
93.048759149
  0
LINE
  8
0
 62
7
  6
CONTINUOUS
 10
37.9308680684
 20
93.0532786365
 11
37.8729232851
 21
93.0482281862
  0
LINE
  8
0
 62
9
  6
CONTINUOUS
 10
38.2961897938
 20
92.3720895986
 11
39.5196957539
 21
92.4785117911
  0
LINE
  8
0
 62
9
  6
CONTINUOUS
 10
39.9614320447
 20
93.0251508387
 11
40.2446034046
 21
93.048759149
  0
POLYLINE
  8
0
 62
7
  6
CONTINUOUS
 66
1
 70
0
  0
VERTEX
  8
0
 62
7
  6
CONTINUOUS
 10
36.1463416073
 20
93.048759149
  0
VERTEX
  8
0
 62
7
  6
CONTINUOUS
 10
36.2752904325
 20
93.0573170117
  0
VERTEX
  8
0
 62
7
  6
CONTINUOUS
 10
36.4045548549
 20
93.0601750547
  0
SEQEND
  0
LINE
  8
1_AXIS
 62
9
  6
CONTINUOUS
 10
59.1143326039
 20
98.5601750547
 11
129.1143326039
 21
98.5601750547
  0
LINE
  8
1_AXIS
 62
7
  6
CONTINUOUS
 10
127.1143326039
 20
100.5601750547
 11
61.1143326039
 21
100.5601750547
  0
LINE
  8
0
 62
9
  6
CONTINUOUS
 10
150.2317581214
 20
93.0573170117
 11
150.3557421606
 21
93.0482281625
  0
POLYLINE
  8
0
 62
9
  6
CONTINUOUS
 66
1
 70
0
  0
VERTEX
  8
0
 62
9
  6
CONTINUOUS
 10
150.117162312
 20
92.8652688157
  0
VERTEX
  8
0
 62
9
  6
CONTINUOUS
 10
150.1756222703
 20
92.8607332746
  0
VERTEX
  8
0
 62
9
  6
CONTINUOUS
 10
150.2315388978
 20
92.8567616209
  0
VERTEX
  8
0
 62
9
  6
CONTINUOUS
 10
150.2827573801
 20
92.8535053558
  0
VERTEX
  8
0
 62
9
  6
CONTINUOUS
 10
150.3273167598
 20
92.851087651
  0
VERTEX
  8
0
 62
9
  6
CONTINUOUS
 10
150.3634955199
 20
92.8496005334
  0
VERTEX
  8
0
 62
9
  6
CONTINUOUS
 10
150.3898470971
 20
92.8491003388
  0
SEQEND
  0
LINE
  8
0
 62
9
  6
CONTINUOUS
 10
148.7089694539
 20
92.4785117911
 11
149.9324754141
 21
92.3720895986
  0
LINE
  8
0
 62
9
  6
CONTINUOUS
 10
147.9840618033
 20
93.048759149
 11
150.117162312
 21
92.8652688157
  0
LINE
  8
0
 62
9
  6
CONTINUOUS
 10
152.975809529
 20
92.4785117911
 11
154.1798359447
 21
92.3720895986
  0
LINE
  8
0
 62
7
  6
CONTINUOUS
 10
150.3557421606
 20
93.0482281625
 11
150.3042572579
 21
93.0527837013
  0
LINE
  8
0
 62
7
  6
CONTINUOUS
 10
152.6441003
 20
92.9989715789
 11
154.1010338414
 21
92.8701869476
  0
LINE
  8
0
 62
7
  6
CONTINUOUS
 10
152.0823236005
 20
93.048759149
 11
152.6441003
 21
92.9989715789
  0
LINE
  8
0
 62
7
  6
CONTINUOUS
 10
154.2737497222
 20
92.8546080673
 11
154.1015444744
 21
92.8701462284
  0
LINE
  8
0
 62
9
  6
CONTINUOUS
 10
147.9216566451
 20
92.5506617999
 11
148.7089694539
 21
92.4785117911
  0
LINE
  8
0
 62
9
  6
CONTINUOUS
 10
139.6915402469
 20
93.0487590212
 11
139.7332208595
 21
93.0448645386
  0
LINE
  8
0
 62
9
  6
CONTINUOUS
 10
152.8097218177
 20
92.4943812325
 11
152.975809529
 21
92.4785117911
  0
LINE
  8
0
 62
7
  6
CONTINUOUS
 10
154.3106299916
 20
92.8510985576
 11
154.2737497222
 21
92.8546080673
  0
LINE
  8
0
 62
9
  6
CONTINUOUS
 10
150.5762856087
 20
93.0265156811
 11
150.3487145326
 21
93.048759149
  0
LINE
  8
0
 62
7
  6
CONTINUOUS
 10
152.2664389201
 20
92.8643610696
 11
150.3557425033
 21
93.0482282392
  0
LINE
  8
0
 62
9
  6
CONTINUOUS
 10
134.8443094185
 20
93.0230547375
 11
135.3111570465
 21
92.9766091401
  0
LINE
  8
0
 62
9
  6
CONTINUOUS
 10
135.3111570465
 20
92.9766091401
 11
136.3427177546
 21
92.8701869476
  0
LINE
  8
0
 62
7
  6
CONTINUOUS
 10
152.2996535507
 20
92.8608883842
 11
152.2664389201
 21
92.8643610696
  0
LINE
  8
0
 62
9
  6
CONTINUOUS
 10
152.2664389201
 20
92.8643610696
 11
152.2555465759
 21
92.8652740888
  0
LINE
  8
0
 62
9
  6
CONTINUOUS
 10
139.6915402557
 20
93.048759149
 11
139.6131558161
 21
93.0573170117
  0
LINE
  8
0
 62
9
  6
CONTINUOUS
 10
152.3273084161
 20
92.8578305929
 11
152.2985928825
 21
92.8607379158
  0
POLYLINE
  8
0
 62
7
  6
CONTINUOUS
 66
1
 70
0
  0
VERTEX
  8
0
 62
7
  6
CONTINUOUS
 10
141.0242694268
 20
92.8676707566
  0
VERTEX
  8
0
 62
7
  6
CONTINUOUS
 10
140.0706724634
 20
92.995642285
  0
VERTEX
  8
0
 62
7
  6
CONTINUOUS
 10
139.8739967743
 20
93.0237269999
  0
VERTEX
  8
0
 62
7
  6
CONTINUOUS
 10
139.7332418292
 20
93.0448614366
  0
SEQEND
  0
POLYLINE
  8
0
 62
9
  6
CONTINUOUS
 66
1
 70
0
  0
VERTEX
  8
0
 62
9
  6
CONTINUOUS
 10
140.9919594104
 20
92.8701869476
  0
VERTEX
  8
0
 62
9
  6
CONTINUOUS
 10
140.0325121073
 20
92.998985064
  0
VERTEX
  8
0
 62
9
  6
CONTINUOUS
 10
139.8633151279
 20
93.0230682537
  0
SEQEND
  0
LINE
  8
0
 62
7
  6
CONTINUOUS
 10
139.7332208595
 20
93.0448645386
 11
139.6877676226
 21
93.0510620845
  0
POLYLINE
  8
0
 62
9
  6
CONTINUOUS
 66
1
 70
0
  0
VERTEX
  8
0
 62
9
  6
CONTINUOUS
 10
144.3659612199
 20
93.0601750547
  0
VERTEX
  8
0
 62
9
  6
CONTINUOUS
 10
144.4835574222
 20
93.043137804
  0
VERTEX
  8
0
 62
9
  6
CONTINUOUS
 10
144.5931393358
 20
92.9931872665
  0
VERTEX
  8
0
 62
9
  6
CONTINUOUS
 10
144.687239172
 20
92.9137277075
  0
VERTEX
  8
0
 62
9
  6
CONTINUOUS
 10
144.7594443114
 20
92.8101743143
  0
VERTEX
  8
0
 62
9
  6
CONTINUOUS
 10
144.8048342608
 20
92.6895841155
  0
VERTEX
  8
0
 62
9
  6
CONTINUOUS
 10
144.8203159089
 20
92.5601750547
  0
SEQEND
  0
LINE
  8
0
 62
7
  6
CONTINUOUS
 10
121.2364542651
 20
93.0434753429
 11
121.1255563577
 21
93.0596989332
  0
LINE
  8
0
 62
9
  6
CONTINUOUS
 10
141.0249888531
 20
92.8652740888
 11
140.9919594104
 21
92.8701869476
  0
LINE
  8
0
 62
9
  6
CONTINUOUS
 10
139.8633151279
 20
93.0230682537
 11
139.6915402557
 21
93.048759149
  0
POLYLINE
  8
0
 62
7
  6
CONTINUOUS
 66
1
 70
0
  0
VERTEX
  8
0
 62
7
  6
CONTINUOUS
 10
141.0833275066
 20
92.8586226442
  0
VERTEX
  8
0
 62
7
  6
CONTINUOUS
 10
141.0420972629
 20
92.8651966613
  0
VERTEX
  8
0
 62
7
  6
CONTINUOUS
 10
141.0241515717
 20
92.8676862321
  0
SEQEND
  0
POLYLINE
  8
0
 62
9
  6
CONTINUOUS
 66
1
 70
0
  0
VERTEX
  8
0
 62
9
  6
CONTINUOUS
 10
121.1536527146
 20
93.0487590212
  0
VERTEX
  8
0
 62
9
  6
CONTINUOUS
 10
121.2785810286
 20
93.0287566389
  0
VERTEX
  8
0
 62
9
  6
CONTINUOUS
 10
121.37661376
 20
92.9874892871
  0
SEQEND
  0
LINE
  8
0
 62
9
  6
CONTINUOUS
 10
121.6727412741
 20
92.8701869476
 11
121.8025991455
 21
92.8491044716
  0
LINE
  8
0
 62
9
  6
CONTINUOUS
 10
121.3340029944
 20
92.9766091305
 11
121.4633965596
 21
92.9556213639
  0
POLYLINE
  8
0
 62
9
  6
CONTINUOUS
 66
1
 70
0
  0
VERTEX
  8
0
 62
9
  6
CONTINUOUS
 10
130.6324347325
 20
93.0601750547
  0
VERTEX
  8
0
 62
9
  6
CONTINUOUS
 10
130.7178924628
 20
93.043137804
  0
VERTEX
  8
0
 62
9
  6
CONTINUOUS
 10
130.7975261706
 20
92.9931872665
  0
VERTEX
  8
0
 62
9
  6
CONTINUOUS
 10
130.8659089778
 20
92.9137277075
  0
VERTEX
  8
0
 62
9
  6
CONTINUOUS
 10
130.9183808026
 20
92.8101743143
  0
VERTEX
  8
0
 62
9
  6
CONTINUOUS
 10
130.9513658989
 20
92.6895841155
  0
VERTEX
  8
0
 62
9
  6
CONTINUOUS
 10
130.9626164876
 20
92.5601750547
  0
SEQEND
  0
POLYLINE
  8
0
 62
9
  6
CONTINUOUS
 66
1
 70
0
  0
VERTEX
  8
0
 62
9
  6
CONTINUOUS
 10
152.8311821553
 20
83.7684609174
  0
VERTEX
  8
0
 62
9
  6
CONTINUOUS
 10
152.8295021235
 20
83.7688449847
  0
VERTEX
  8
0
 62
9
  6
CONTINUOUS
 10
152.8040508734
 20
83.7693471197
  0
SEQEND
  0
POLYLINE
  8
0
 62
9
  6
CONTINUOUS
 66
1
 70
0
  0
VERTEX
  8
0
 62
9
  6
CONTINUOUS
 10
122.3244457098
 20
93.0601750547
  0
VERTEX
  8
0
 62
9
  6
CONTINUOUS
 10
122.3904612046
 20
93.0431379717
  0
VERTEX
  8
0
 62
9
  6
CONTINUOUS
 10
122.4519778567
 20
92.9931877679
  0
VERTEX
  8
0
 62
9
  6
CONTINUOUS
 10
122.5048034073
 20
92.9137284619
  0
VERTEX
  8
0
 62
9
  6
CONTINUOUS
 10
122.5453378804
 20
92.8101750711
  0
VERTEX
  8
0
 62
9
  6
CONTINUOUS
 10
122.5708189165
 20
92.6895845873
  0
VERTEX
  8
0
 62
9
  6
CONTINUOUS
 10
122.5795100236
 20
92.5601750547
  0
SEQEND
  0
LINE
  8
0
 62
7
  6
CONTINUOUS
 10
121.8026000274
 20
92.8491041946
 11
121.4635815582
 21
92.9555633252
  0
LINE
  8
0
 62
9
  6
CONTINUOUS
 10
121.6727412741
 20
92.8701869476
 11
121.3340029948
 21
92.9766091401
  0
POLYLINE
  8
0
 62
9
  6
CONTINUOUS
 66
1
 70
0
  0
VERTEX
  8
0
 62
9
  6
CONTINUOUS
 10
110.5845966305
 20
93.0601750547
  0
VERTEX
  8
0
 62
9
  6
CONTINUOUS
 10
110.6231394709
 20
93.043137804
  0
VERTEX
  8
0
 62
9
  6
CONTINUOUS
 10
110.6590555814
 20
92.9931872665
  0
VERTEX
  8
0
 62
9
  6
CONTINUOUS
 10
110.6898973509
 20
92.9137277075
  0
VERTEX
  8
0
 62
9
  6
CONTINUOUS
 10
110.713563006
 20
92.8101743143
  0
VERTEX
  8
0
 62
9
  6
CONTINUOUS
 10
110.7284398263
 20
92.6895841155
  0
VERTEX
  8
0
 62
9
  6
CONTINUOUS
 10
110.7335140267
 20
92.5601750547
  0
SEQEND
  0
LINE
  8
0
 62
9
  6
CONTINUOUS
 10
110.7335140268
 20
83.5601750547
 11
110.7335140268
 21
92.5601750547
  0
POLYLINE
  8
0
 62
9
  6
CONTINUOUS
 66
1
 70
0
  0
VERTEX
  8
0
 62
9
  6
CONTINUOUS
 10
115.6867612106
 20
83.2712497706
  0
VERTEX
  8
0
 62
9
  6
CONTINUOUS
 10
115.7299035071
 20
83.2970631008
  0
VERTEX
  8
0
 62
9
  6
CONTINUOUS
 10
115.7694734914
 20
83.3516025486
  0
VERTEX
  8
0
 62
9
  6
CONTINUOUS
 10
115.8030643341
 20
83.4315510292
  0
VERTEX
  8
0
 62
9
  6
CONTINUOUS
 10
115.8286328473
 20
83.5320459174
  0
VERTEX
  8
0
 62
9
  6
CONTINUOUS
 10
115.8446237739
 20
83.6469747748
  0
VERTEX
  8
0
 62
9
  6
CONTINUOUS
 10
115.8500644038
 20
83.7693471197
  0
SEQEND
  0
POLYLINE
  8
0
 62
9
  6
CONTINUOUS
 66
1
 70
0
  0
VERTEX
  8
0
 62
9
  6
CONTINUOUS
 10
121.1536527198
 20
83.0715909604
  0
VERTEX
  8
0
 62
9
  6
CONTINUOUS
 10
121.2063064032
 20
83.0972862148
  0
VERTEX
  8
0
 62
9
  6
CONTINUOUS
 10
121.2674091544
 20
83.1213695033
  0
VERTEX
  8
0
 62
9
  6
CONTINUOUS
 10
121.3340029948
 20
83.1437409693
  0
SEQEND
  0
LINE
  8
0
 62
7
  6
CONTINUOUS
 10
121.3769614428
 20
83.1330059024
 11
121.3796209647
 21
83.1342649687
  0
POLYLINE
  8
0
 62
9
  6
CONTINUOUS
 66
1
 70
0
  0
VERTEX
  8
0
 62
9
  6
CONTINUOUS
 10
121.6727412741
 20
83.2501631618
  0
VERTEX
  8
0
 62
9
  6
CONTINUOUS
 10
121.6831524949
 20
83.2550760206
  0
VERTEX
  8
0
 62
9
  6
CONTINUOUS
 10
121.6820705205
 20
83.2596121936
  0
VERTEX
  8
0
 62
9
  6
CONTINUOUS
 10
121.6694996951
 20
83.2635850435
  0
VERTEX
  8
0
 62
9
  6
CONTINUOUS
 10
121.645928442
 20
83.266842317
  0
VERTEX
  8
0
 62
9
  6
CONTINUOUS
 10
121.6122621488
 20
83.2692609655
  0
VERTEX
  8
0
 62
9
  6
CONTINUOUS
 10
121.5698160301
 20
83.2707486891
  0
VERTEX
  8
0
 62
9
  6
CONTINUOUS
 10
121.5203026288
 20
83.2712497706
  0
SEQEND
  0
POLYLINE
  8
0
 62
9
  6
CONTINUOUS
 66
1
 70
0
  0
VERTEX
  8
0
 62
9
  6
CONTINUOUS
 10
121.5203026288
 20
83.2712497706
  0
VERTEX
  8
0
 62
9
  6
CONTINUOUS
 10
121.5751116245
 20
83.2970633378
  0
VERTEX
  8
0
 62
9
  6
CONTINUOUS
 10
121.625382113
 20
83.3516031806
  0
VERTEX
  8
0
 62
9
  6
CONTINUOUS
 10
121.6680564296
 20
83.4315519694
  0
VERTEX
  8
0
 62
9
  6
CONTINUOUS
 10
121.7005389386
 20
83.5320468901
  0
VERTEX
  8
0
 62
9
  6
CONTINUOUS
 10
121.7208539126
 20
83.6469754205
  0
VERTEX
  8
0
 62
9
  6
CONTINUOUS
 10
121.7277657055
 20
83.7693471197
  0
SEQEND
  0
LINE
  8
0
 62
9
  6
CONTINUOUS
 10
121.2519097801
 20
83.0772122254
 11
121.3713439725
 21
83.1271625986
  0
LINE
  8
0
 62
7
  6
CONTINUOUS
 10
121.3796209647
 20
83.1342649687
 11
121.4124834888
 21
83.1475321747
  0
POLYLINE
  8
0
 62
7
  6
CONTINUOUS
 66
1
 70
0
  0
VERTEX
  8
0
 62
7
  6
CONTINUOUS
 10
121.8026173284
 20
83.2712524608
  0
VERTEX
  8
0
 62
7
  6
CONTINUOUS
 10
121.8605522257
 20
83.2930021395
  0
VERTEX
  8
0
 62
7
  6
CONTINUOUS
 10
121.9232381625
 20
83.3258736676
  0
VERTEX
  8
0
 62
7
  6
CONTINUOUS
 10
121.9844587069
 20
83.3700333937
  0
VERTEX
  8
0
 62
7
  6
CONTINUOUS
 10
122.0411934026
 20
83.425901357
  0
VERTEX
  8
0
 62
7
  6
CONTINUOUS
 10
122.0902828836
 20
83.492989237
  0
VERTEX
  8
0
 62
7
  6
CONTINUOUS
 10
122.1288321397
 20
83.5701817215
  0
VERTEX
  8
0
 62
7
  6
CONTINUOUS
 10
122.1541822616
 20
83.6556475957
  0
VERTEX
  8
0
 62
7
  6
CONTINUOUS
 10
122.1641321222
 20
83.7550845309
  0
SEQEND
  0
POLYLINE
  8
0
 62
7
  6
CONTINUOUS
 66
1
 70
0
  0
VERTEX
  8
0
 62
7
  6
CONTINUOUS
 10
121.2346146238
 20
83.0764133967
  0
VERTEX
  8
0
 62
7
  6
CONTINUOUS
 10
121.3370940641
 20
83.1127007143
  0
VERTEX
  8
0
 62
7
  6
CONTINUOUS
 10
121.3766144033
 20
83.1328611808
  0
SEQEND
  0
LINE
  8
0
 62
7
  6
CONTINUOUS
 10
121.4124834888
 20
83.1475321747
 11
121.4634035745
 21
83.1647309443
  0
LINE
  8
0
 62
9
  6
CONTINUOUS
 10
121.1273932104
 20
83.0630330029
 11
121.1536527198
 21
83.0715909604
  0
POLYLINE
  8
0
 62
9
  6
CONTINUOUS
 66
1
 70
0
  0
VERTEX
  8
0
 62
9
  6
CONTINUOUS
 10
136.721923966
 20
83.2712497706
  0
VERTEX
  8
0
 62
9
  6
CONTINUOUS
 10
136.8071340901
 20
83.2970631008
  0
VERTEX
  8
0
 62
9
  6
CONTINUOUS
 10
136.8852885592
 20
83.3516025486
  0
VERTEX
  8
0
 62
9
  6
CONTINUOUS
 10
136.9516336574
 20
83.4315510292
  0
VERTEX
  8
0
 62
9
  6
CONTINUOUS
 10
137.0021338948
 20
83.5320459174
  0
VERTEX
  8
0
 62
9
  6
CONTINUOUS
 10
137.0337174912
 20
83.6469747748
  0
VERTEX
  8
0
 62
9
  6
CONTINUOUS
 10
137.044463252
 20
83.7693471197
  0
SEQEND
  0
POLYLINE
  8
0
 62
9
  6
CONTINUOUS
 66
1
 70
0
  0
VERTEX
  8
0
 62
9
  6
CONTINUOUS
 10
47.2339367813
 20
92.8491003388
  0
VERTEX
  8
0
 62
9
  6
CONTINUOUS
 10
47.1401811734
 20
92.8232868374
  0
VERTEX
  8
0
 62
9
  6
CONTINUOUS
 10
47.0541889945
 20
92.7687470941
  0
VERTEX
  8
0
 62
9
  6
CONTINUOUS
 10
46.9811906766
 20
92.6887983703
  0
VERTEX
  8
0
 62
9
  6
CONTINUOUS
 10
46.9256263296
 20
92.5883034405
  0
VERTEX
  8
0
 62
9
  6
CONTINUOUS
 10
46.8908756591
 20
92.4733748237
  0
VERTEX
  8
0
 62
9
  6
CONTINUOUS
 10
46.8790523838
 20
92.3510029897
  0
SEQEND
  0
LINE
  8
0
 62
9
  6
CONTINUOUS
 10
37.8554414446
 20
93.0601750547
 11
37.7758734332
 21
93.043137804
  0
POLYLINE
  8
0
 62
7
  6
CONTINUOUS
 66
1
 70
0
  0
VERTEX
  8
0
 62
7
  6
CONTINUOUS
 10
47.1507118351
 20
92.8595626469
  0
VERTEX
  8
0
 62
7
  6
CONTINUOUS
 10
47.114615689
 20
92.8526165664
  0
VERTEX
  8
0
 62
7
  6
CONTINUOUS
 10
47.0759256036
 20
92.8430932277
  0
VERTEX
  8
0
 62
7
  6
CONTINUOUS
 10
47.0318429471
 20
92.8288045126
  0
VERTEX
  8
0
 62
7
  6
CONTINUOUS
 10
46.9844684693
 20
92.8085360054
  0
VERTEX
  8
0
 62
7
  6
CONTINUOUS
 10
46.9365723464
 20
92.7819264511
  0
VERTEX
  8
0
 62
7
  6
CONTINUOUS
 10
46.8891414483
 20
92.7481903018
  0
VERTEX
  8
0
 62
7
  6
CONTINUOUS
 10
46.8439652914
 20
92.7072423617
  0
VERTEX
  8
0
 62
7
  6
CONTINUOUS
 10
46.8032452383
 20
92.6600413655
  0
VERTEX
  8
0
 62
7
  6
CONTINUOUS
 10
46.7679614318
 20
92.6069013912
  0
VERTEX
  8
0
 62
7
  6
CONTINUOUS
 10
46.7388884605
 20
92.5477380095
  0
VERTEX
  8
0
 62
7
  6
CONTINUOUS
 10
46.7171589929
 20
92.4827108618
  0
VERTEX
  8
0
 62
7
  6
CONTINUOUS
 10
46.7041517113
 20
92.4121930608
  0
VERTEX
  8
0
 62
7
  6
CONTINUOUS
 10
46.7010815373
 20
92.3568197016
  0
SEQEND
  0
LINE
  8
0
 62
9
  6
CONTINUOUS
 10
150.3732237632
 20
93.0601750547
 11
150.4527914025
 21
93.0431379662
  0
POLYLINE
  8
0
 62
7
  6
CONTINUOUS
 66
1
 70
0
  0
VERTEX
  8
0
 62
7
  6
CONTINUOUS
 10
152.4468178869
 20
92.8388142284
  0
VERTEX
  8
0
 62
7
  6
CONTINUOUS
 10
152.41609081
 20
92.8454067083
  0
VERTEX
  8
0
 62
7
  6
CONTINUOUS
 10
152.3925869854
 20
92.8493857916
  0
VERTEX
  8
0
 62
7
  6
CONTINUOUS
 10
152.3718580893
 20
92.8523590064
  0
VERTEX
  8
0
 62
7
  6
CONTINUOUS
 10
152.350844942
 20
92.8550519745
  0
VERTEX
  8
0
 62
7
  6
CONTINUOUS
 10
152.3273084161
 20
92.8578305929
  0
VERTEX
  8
0
 62
7
  6
CONTINUOUS
 10
152.2996535507
 20
92.8608883842
  0
SEQEND
  0
POLYLINE
  8
0
 62
9
  6
CONTINUOUS
 66
1
 70
0
  0
VERTEX
  8
0
 62
9
  6
CONTINUOUS
 10
140.9947284266
 20
92.8491003388
  0
VERTEX
  8
0
 62
9
  6
CONTINUOUS
 10
141.0884837352
 20
92.8232869711
  0
VERTEX
  8
0
 62
9
  6
CONTINUOUS
 10
141.1744757784
 20
92.7687474616
  0
VERTEX
  8
0
 62
9
  6
CONTINUOUS
 10
141.2474741291
 20
92.688798934
  0
VERTEX
  8
0
 62
9
  6
CONTINUOUS
 10
141.3030386258
 20
92.5883040422
  0
VERTEX
  8
0
 62
9
  6
CONTINUOUS
 10
141.3377894679
 20
92.4733752362
  0
VERTEX
  8
0
 62
9
  6
CONTINUOUS
 10
141.3496128244
 20
92.3510029897
  0
SEQEND
  0
POLYLINE
  8
0
 62
9
  6
CONTINUOUS
 66
1
 70
0
  0
VERTEX
  8
0
 62
9
  6
CONTINUOUS
 10
136.721923966
 20
92.8491003388
  0
VERTEX
  8
0
 62
9
  6
CONTINUOUS
 10
136.8071344953
 20
92.823286809
  0
VERTEX
  8
0
 62
9
  6
CONTINUOUS
 10
136.8852891363
 20
92.7687470226
  0
VERTEX
  8
0
 62
9
  6
CONTINUOUS
 10
136.9516341803
 20
92.6887982708
  0
VERTEX
  8
0
 62
9
  6
CONTINUOUS
 10
137.0021342164
 20
92.5883033449
  0
VERTEX
  8
0
 62
9
  6
CONTINUOUS
 10
137.033717592
 20
92.4733747655
  0
VERTEX
  8
0
 62
9
  6
CONTINUOUS
 10
137.0444632518
 20
92.3510029897
  0
SEQEND
  0
POLYLINE
  8
0
 62
9
  6
CONTINUOUS
 66
1
 70
0
  0
VERTEX
  8
0
 62
9
  6
CONTINUOUS
 10
121.1536527198
 20
93.048759149
  0
VERTEX
  8
0
 62
9
  6
CONTINUOUS
 10
121.1273936336
 20
93.0573170117
  0
VERTEX
  8
0
 62
9
  6
CONTINUOUS
 10
121.1029312759
 20
93.0601750547
  0
SEQEND
  0
POLYLINE
  8
0
 62
9
  6
CONTINUOUS
 66
1
 70
0
  0
VERTEX
  8
0
 62
9
  6
CONTINUOUS
 10
121.3340029948
 20
92.9766091401
  0
VERTEX
  8
0
 62
9
  6
CONTINUOUS
 10
121.2673968168
 20
92.998985064
  0
VERTEX
  8
0
 62
9
  6
CONTINUOUS
 10
121.2062963613
 20
93.0230682537
  0
VERTEX
  8
0
 62
9
  6
CONTINUOUS
 10
121.1536527198
 20
93.048759149
  0
SEQEND
  0
POLYLINE
  8
0
 62
7
  6
CONTINUOUS
 66
1
 70
0
  0
VERTEX
  8
0
 62
7
  6
CONTINUOUS
 10
121.4633965596
 20
92.9556213639
  0
VERTEX
  8
0
 62
7
  6
CONTINUOUS
 10
121.4134783837
 20
92.9724527299
  0
VERTEX
  8
0
 62
7
  6
CONTINUOUS
 10
121.3924134391
 20
92.9805697851
  0
SEQEND
  0
LINE
  8
0
 62
7
  6
CONTINUOUS
 10
121.3401103287
 20
93.006238667
 11
121.2364542651
 21
93.0434753429
  0
POLYLINE
  8
0
 62
9
  6
CONTINUOUS
 66
1
 70
0
  0
VERTEX
  8
0
 62
9
  6
CONTINUOUS
 10
141.5275844423
 20
83.7635333426
  0
VERTEX
  8
0
 62
9
  6
CONTINUOUS
 10
141.5242894148
 20
83.7649399461
  0
VERTEX
  8
0
 62
9
  6
CONTINUOUS
 10
141.4947988864
 20
83.7673568825
  0
VERTEX
  8
0
 62
9
  6
CONTINUOUS
 10
141.4358092589
 20
83.7688449847
  0
VERTEX
  8
0
 62
9
  6
CONTINUOUS
 10
141.349612824
 20
83.7693471197
  0
SEQEND
  0
LINE
  8
0
 62
7
  6
CONTINUOUS
 10
121.3924134391
 20
92.9805697851
 11
121.3772476053
 21
92.9871358569
  0
POLYLINE
  8
0
 62
9
  6
CONTINUOUS
 66
1
 70
0
  0
VERTEX
  8
0
 62
9
  6
CONTINUOUS
 10
121.5203026288
 20
92.8491003388
  0
VERTEX
  8
0
 62
9
  6
CONTINUOUS
 10
121.5751113632
 20
92.8232869711
  0
VERTEX
  8
0
 62
9
  6
CONTINUOUS
 10
121.625381744
 20
92.7687474616
  0
VERTEX
  8
0
 62
9
  6
CONTINUOUS
 10
121.6680560981
 20
92.688798934
  0
VERTEX
  8
0
 62
9
  6
CONTINUOUS
 10
121.7005387363
 20
92.5883040422
  0
VERTEX
  8
0
 62
9
  6
CONTINUOUS
 10
121.7208538496
 20
92.4733752362
  0
VERTEX
  8
0
 62
9
  6
CONTINUOUS
 10
121.727765706
 20
92.3510029897
  0
SEQEND
  0
LINE
  8
0
 62
7
  6
CONTINUOUS
 10
121.37661376
 20
92.9874892871
 11
121.3401103287
 21
93.006238667
  0
POLYLINE
  8
0
 62
9
  6
CONTINUOUS
 66
1
 70
0
  0
VERTEX
  8
0
 62
9
  6
CONTINUOUS
 10
115.6867612106
 20
92.8491003388
  0
VERTEX
  8
0
 62
9
  6
CONTINUOUS
 10
115.7299037592
 20
92.8232867628
  0
VERTEX
  8
0
 62
9
  6
CONTINUOUS
 10
115.7694738458
 20
92.7687469066
  0
VERTEX
  8
0
 62
9
  6
CONTINUOUS
 10
115.8030646508
 20
92.6887981091
  0
VERTEX
  8
0
 62
9
  6
CONTINUOUS
 10
115.8286330392
 20
92.5883031896
  0
VERTEX
  8
0
 62
9
  6
CONTINUOUS
 10
115.8446238329
 20
92.4733746708
  0
VERTEX
  8
0
 62
9
  6
CONTINUOUS
 10
115.8500644036
 20
92.3510029897
  0
SEQEND
  0
LINE
  8
0
 62
9
  6
CONTINUOUS
 10
112.4492724929
 20
83.5601750547
 11
112.4492724929
 21
92.5601750547
  0
LINE
  8
0
 62
9
  6
CONTINUOUS
 10
114.2255846226
 20
83.6418383183
 11
114.2255846226
 21
92.4785117911
  0
LINE
  8
0
 62
9
  6
CONTINUOUS
 10
114.8865954269
 20
83.7482605108
 11
114.8865954269
 21
92.3720895986
  0
LINE
  8
0
 62
9
  6
CONTINUOUS
 10
121.3713439725
 20
83.1271625986
 11
121.3814798049
 21
83.1350154167
  0
POLYLINE
  8
0
 62
9
  6
CONTINUOUS
 66
1
 70
0
  0
VERTEX
  8
0
 62
9
  6
CONTINUOUS
 10
132.7199934371
 20
93.0601750547
  0
VERTEX
  8
0
 62
9
  6
CONTINUOUS
 10
132.6973907385
 20
93.0431379141
  0
VERTEX
  8
0
 62
9
  6
CONTINUOUS
 10
132.6763283967
 20
92.9931875994
  0
VERTEX
  8
0
 62
9
  6
CONTINUOUS
 10
132.6582417714
 20
92.9137282128
  0
VERTEX
  8
0
 62
9
  6
CONTINUOUS
 10
132.6443634277
 20
92.8101748245
  0
VERTEX
  8
0
 62
9
  6
CONTINUOUS
 10
132.6356391418
 20
92.6895844348
  0
VERTEX
  8
0
 62
9
  6
CONTINUOUS
 10
132.6326634514
 20
92.5601750547
  0
SEQEND
  0
LINE
  8
0
 62
7
  6
CONTINUOUS
 10
121.3772671079
 20
83.1332251466
 11
121.3769614428
 21
83.1330059024
  0
LINE
  8
0
 62
7
  6
CONTINUOUS
 10
121.3766144768
 20
83.1328610488
 11
121.3772671079
 21
83.1332251466
  0
POLYLINE
  8
0
 62
9
  6
CONTINUOUS
 66
1
 70
0
  0
VERTEX
  8
0
 62
9
  6
CONTINUOUS
 10
37.8388181107
 20
92.8491003388
  0
VERTEX
  8
0
 62
9
  6
CONTINUOUS
 10
37.726273663
 20
92.8232869711
  0
VERTEX
  8
0
 62
9
  6
CONTINUOUS
 10
37.6230482869
 20
92.7687474616
  0
VERTEX
  8
0
 62
9
  6
CONTINUOUS
 10
37.5354206193
 20
92.688798934
  0
VERTEX
  8
0
 62
9
  6
CONTINUOUS
 10
37.4687206573
 20
92.5883040422
  0
VERTEX
  8
0
 62
9
  6
CONTINUOUS
 10
37.427005534
 20
92.4733752362
  0
VERTEX
  8
0
 62
9
  6
CONTINUOUS
 10
37.412812705
 20
92.3510029897
  0
SEQEND
  0
POLYLINE
  8
0
 62
9
  6
CONTINUOUS
 66
1
 70
0
  0
VERTEX
  8
0
 62
9
  6
CONTINUOUS
 10
35.8655573162
 20
92.8491003388
  0
VERTEX
  8
0
 62
9
  6
CONTINUOUS
 10
35.7490660432
 20
92.8232867787
  0
VERTEX
  8
0
 62
9
  6
CONTINUOUS
 10
35.642220921
 20
92.7687469465
  0
VERTEX
  8
0
 62
9
  6
CONTINUOUS
 10
35.5515207273
 20
92.6887981646
  0
VERTEX
  8
0
 62
9
  6
CONTINUOUS
 10
35.4824822433
 20
92.5883032429
  0
VERTEX
  8
0
 62
9
  6
CONTINUOUS
 10
35.4393046951
 20
92.4733747033
  0
VERTEX
  8
0
 62
9
  6
CONTINUOUS
 10
35.4246143344
 20
92.3510029897
  0
SEQEND
  0
POLYLINE
  8
0
 62
9
  6
CONTINUOUS
 66
1
 70
0
  0
VERTEX
  8
0
 62
9
  6
CONTINUOUS
 10
152.3631078917
 20
92.8491003388
  0
VERTEX
  8
0
 62
9
  6
CONTINUOUS
 10
152.4795986299
 20
92.8232869711
  0
VERTEX
  8
0
 62
9
  6
CONTINUOUS
 10
152.58644353
 20
92.7687474616
  0
VERTEX
  8
0
 62
9
  6
CONTINUOUS
 10
152.6771437993
 20
92.688798934
  0
VERTEX
  8
0
 62
9
  6
CONTINUOUS
 10
152.7461825481
 20
92.5883040422
  0
VERTEX
  8
0
 62
9
  6
CONTINUOUS
 10
152.7893603828
 20
92.4733752362
  0
VERTEX
  8
0
 62
9
  6
CONTINUOUS
 10
152.8040508736
 20
92.3510029897
  0
SEQEND
  0
POLYLINE
  8
0
 62
9
  6
CONTINUOUS
 66
1
 70
0
  0
VERTEX
  8
0
 62
9
  6
CONTINUOUS
 10
150.3898470971
 20
92.8491003388
  0
VERTEX
  8
0
 62
9
  6
CONTINUOUS
 10
150.5023920003
 20
92.8232868014
  0
VERTEX
  8
0
 62
9
  6
CONTINUOUS
 10
150.6056175707
 20
92.7687470035
  0
VERTEX
  8
0
 62
9
  6
CONTINUOUS
 10
150.6932451783
 20
92.6887982441
  0
VERTEX
  8
0
 62
9
  6
CONTINUOUS
 10
150.7599449142
 20
92.5883033193
  0
VERTEX
  8
0
 62
9
  6
CONTINUOUS
 10
150.8016597885
 20
92.4733747499
  0
VERTEX
  8
0
 62
9
  6
CONTINUOUS
 10
150.815852503
 20
92.3510029897
  0
SEQEND
  0
LINE
  8
0
 62
7
  6
CONTINUOUS
 10
121.37661376
 20
92.9874892871
 11
121.3772475339
 21
92.9871357292
  0
POLYLINE
  8
0
 62
9
  6
CONTINUOUS
 66
1
 70
0
  0
VERTEX
  8
0
 62
9
  6
CONTINUOUS
 10
132.7199934371
 20
83.0601750547
  0
VERTEX
  8
0
 62
9
  6
CONTINUOUS
 10
132.6973906245
 20
83.0772123703
  0
VERTEX
  8
0
 62
9
  6
CONTINUOUS
 10
132.6763282367
 20
83.1271630389
  0
VERTEX
  8
0
 62
9
  6
CONTINUOUS
 10
132.6582416313
 20
83.2066226992
  0
VERTEX
  8
0
 62
9
  6
CONTINUOUS
 10
132.6443633461
 20
83.3101760951
  0
VERTEX
  8
0
 62
9
  6
CONTINUOUS
 10
132.6356391182
 20
83.4307661815
  0
VERTEX
  8
0
 62
9
  6
CONTINUOUS
 10
132.6326634515
 20
83.5601750547
  0
SEQEND
  0
LINE
  8
0
 62
9
  6
CONTINUOUS
 10
121.3713443917
 20
92.9931872665
 11
121.381654539
 21
92.9851993796
  0
LINE
  8
0
 62
9
  6
CONTINUOUS
 10
115.8500644036
 20
92.3510029897
 11
115.8500644036
 21
83.7693471197
  0
POLYLINE
  8
0
 62
9
  6
CONTINUOUS
 66
1
 70
0
  0
VERTEX
  8
0
 62
9
  6
CONTINUOUS
 10
151.8241103529
 20
83.0601750547
  0
VERTEX
  8
0
 62
9
  6
CONTINUOUS
 10
151.8756543299
 20
83.0772121444
  0
VERTEX
  8
0
 62
9
  6
CONTINUOUS
 10
151.9236856676
 20
83.1271623612
  0
VERTEX
  8
0
 62
9
  6
CONTINUOUS
 10
151.9649311103
 20
83.2066216765
  0
VERTEX
  8
0
 62
9
  6
CONTINUOUS
 10
151.9713539504
 20
83.2276369486
  0
SEQEND
  0
POLYLINE
  8
0
 62
7
  6
CONTINUOUS
 66
1
 70
0
  0
VERTEX
  8
0
 62
7
  6
CONTINUOUS
 10
152.4572942523
 20
83.2842054884
  0
VERTEX
  8
0
 62
7
  6
CONTINUOUS
 10
152.4929985054
 20
83.2950786034
  0
VERTEX
  8
0
 62
7
  6
CONTINUOUS
 10
152.5295525789
 20
83.3092796199
  0
VERTEX
  8
0
 62
7
  6
CONTINUOUS
 10
152.5668878049
 20
83.3273373167
  0
VERTEX
  8
0
 62
7
  6
CONTINUOUS
 10
152.604257044
 20
83.3494849444
  0
VERTEX
  8
0
 62
7
  6
CONTINUOUS
 10
152.6410467336
 20
83.3759468058
  0
VERTEX
  8
0
 62
7
  6
CONTINUOUS
 10
152.676510254
 20
83.4067833984
  0
VERTEX
  8
0
 62
7
  6
CONTINUOUS
 10
152.709834052
 20
83.4418601449
  0
VERTEX
  8
0
 62
7
  6
CONTINUOUS
 10
152.7402445588
 20
83.4808849642
  0
VERTEX
  8
0
 62
7
  6
CONTINUOUS
 10
152.7671179139
 20
83.523549831
  0
VERTEX
  8
0
 62
7
  6
CONTINUOUS
 10
152.7898633034
 20
83.5694009832
  0
VERTEX
  8
0
 62
7
  6
CONTINUOUS
 10
152.8079745457
 20
83.6178747034
  0
VERTEX
  8
0
 62
7
  6
CONTINUOUS
 10
152.8210546491
 20
83.6683210203
  0
VERTEX
  8
0
 62
7
  6
CONTINUOUS
 10
152.828831357
 20
83.7200253893
  0
SEQEND
  0
POLYLINE
  8
0
 62
9
  6
CONTINUOUS
 66
1
 70
0
  0
VERTEX
  8
0
 62
9
  6
CONTINUOUS
 10
151.8241103529
 20
93.0601750547
  0
VERTEX
  8
0
 62
9
  6
CONTINUOUS
 10
151.8756543366
 20
93.043137963
  0
VERTEX
  8
0
 62
9
  6
CONTINUOUS
 10
151.9236856786
 20
92.9931877413
  0
VERTEX
  8
0
 62
9
  6
CONTINUOUS
 10
151.9649311221
 20
92.9137284207
  0
VERTEX
  8
0
 62
9
  6
CONTINUOUS
 10
151.9713539418
 20
92.8927132134
  0
SEQEND
  0
POLYLINE
  8
0
 62
7
  6
CONTINUOUS
 66
1
 70
0
  0
VERTEX
  8
0
 62
7
  6
CONTINUOUS
 10
122.1641321224
 20
92.3652656082
  0
VERTEX
  8
0
 62
7
  6
CONTINUOUS
 10
122.1544180515
 20
92.4635288321
  0
VERTEX
  8
0
 62
7
  6
CONTINUOUS
 10
122.1294618535
 20
92.5485709886
  0
VERTEX
  8
0
 62
7
  6
CONTINUOUS
 10
122.0914244981
 20
92.6254857488
  0
VERTEX
  8
0
 62
7
  6
CONTINUOUS
 10
122.0429170934
 20
92.6924499952
  0
VERTEX
  8
0
 62
7
  6
CONTINUOUS
 10
121.9867901165
 20
92.7483449078
  0
VERTEX
  8
0
 62
7
  6
CONTINUOUS
 10
121.9261490185
 20
92.7926739702
  0
VERTEX
  8
0
 62
7
  6
CONTINUOUS
 10
121.8639759462
 20
92.8258225248
  0
VERTEX
  8
0
 62
7
  6
CONTINUOUS
 10
121.8025988264
 20
92.8491034617
  0
SEQEND
  0
LINE
  8
0
 62
9
  6
CONTINUOUS
 10
121.7277657055
 20
92.3510029897
 11
121.7277657055
 21
83.7693471197
  0
LINE
  8
0
 62
7
  6
CONTINUOUS
 10
122.1641320186
 20
92.365325204
 11
122.1641320186
 21
83.7550249054
  0
LINE
  8
0
 62
9
  6
CONTINUOUS
 10
122.5795100236
 20
83.5601750547
 11
122.5795100236
 21
92.5601750547
  0
POLYLINE
  8
0
 62
9
  6
CONTINUOUS
 66
1
 70
0
  0
VERTEX
  8
0
 62
9
  6
CONTINUOUS
 10
146.0354226815
 20
83.0601750547
  0
VERTEX
  8
0
 62
9
  6
CONTINUOUS
 10
146.0666008497
 20
83.0772123703
  0
VERTEX
  8
0
 62
9
  6
CONTINUOUS
 10
146.0956541663
 20
83.1271630389
  0
VERTEX
  8
0
 62
9
  6
CONTINUOUS
 10
146.1206027086
 20
83.2066226992
  0
VERTEX
  8
0
 62
9
  6
CONTINUOUS
 10
146.1397463221
 20
83.3101760951
  0
VERTEX
  8
0
 62
9
  6
CONTINUOUS
 10
146.1517804637
 20
83.4307661815
  0
VERTEX
  8
0
 62
9
  6
CONTINUOUS
 10
146.1558850784
 20
83.5601750547
  0
SEQEND
  0
POLYLINE
  8
0
 62
9
  6
CONTINUOUS
 66
1
 70
0
  0
VERTEX
  8
0
 62
9
  6
CONTINUOUS
 10
152.0823235895
 20
83.0715910867
  0
VERTEX
  8
0
 62
9
  6
CONTINUOUS
 10
152.1271433606
 20
83.0915934691
  0
VERTEX
  8
0
 62
9
  6
CONTINUOUS
 10
152.1661585148
 20
83.1430014839
  0
VERTEX
  8
0
 62
9
  6
CONTINUOUS
 10
152.1968061813
 20
83.2224381842
  0
SEQEND
  0
POLYLINE
  8
0
 62
9
  6
CONTINUOUS
 66
1
 70
0
  0
VERTEX
  8
0
 62
9
  6
CONTINUOUS
 10
152.0823235985
 20
93.0487591258
  0
VERTEX
  8
0
 62
9
  6
CONTINUOUS
 10
152.1271433827
 20
93.0287567684
  0
VERTEX
  8
0
 62
9
  6
CONTINUOUS
 10
152.1661585502
 20
92.9773487572
  0
VERTEX
  8
0
 62
9
  6
CONTINUOUS
 10
152.196806228
 20
92.8979120408
  0
SEQEND
  0
POLYLINE
  8
0
 62
9
  6
CONTINUOUS
 66
1
 70
0
  0
VERTEX
  8
0
 62
9
  6
CONTINUOUS
 10
146.0354226815
 20
93.0601750547
  0
VERTEX
  8
0
 62
9
  6
CONTINUOUS
 10
146.0666006923
 20
93.0431379141
  0
VERTEX
  8
0
 62
9
  6
CONTINUOUS
 10
146.0956539455
 20
92.9931875994
  0
VERTEX
  8
0
 62
9
  6
CONTINUOUS
 10
146.1206025151
 20
92.9137282128
  0
VERTEX
  8
0
 62
9
  6
CONTINUOUS
 10
146.1397462093
 20
92.8101748245
  0
VERTEX
  8
0
 62
9
  6
CONTINUOUS
 10
146.1517804308
 20
92.6895844348
  0
VERTEX
  8
0
 62
9
  6
CONTINUOUS
 10
146.1558850783
 20
92.5601750547
  0
SEQEND
  0
POLYLINE
  8
0
 62
9
  6
CONTINUOUS
 66
1
 70
0
  0
VERTEX
  8
0
 62
9
  6
CONTINUOUS
 10
148.8349305879
 20
92.9766091401
  0
VERTEX
  8
0
 62
9
  6
CONTINUOUS
 10
148.8115255275
 20
92.9577577694
  0
VERTEX
  8
0
 62
9
  6
CONTINUOUS
 10
148.7869794673
 20
92.9069745239
  0
VERTEX
  8
0
 62
9
  6
CONTINUOUS
 10
148.7629278966
 20
92.8276430613
  0
VERTEX
  8
0
 62
9
  6
CONTINUOUS
 10
148.7409733573
 20
92.7250491895
  0
VERTEX
  8
0
 62
9
  6
CONTINUOUS
 10
148.7225786673
 20
92.6060286775
  0
VERTEX
  8
0
 62
9
  6
CONTINUOUS
 10
148.7089694539
 20
92.4785117911
  0
SEQEND
  0
POLYLINE
  8
0
 62
9
  6
CONTINUOUS
 66
1
 70
0
  0
VERTEX
  8
0
 62
9
  6
CONTINUOUS
 10
150.0585034896
 20
92.8701869489
  0
VERTEX
  8
0
 62
9
  6
CONTINUOUS
 10
150.0350943286
 20
92.8513727283
  0
VERTEX
  8
0
 62
9
  6
CONTINUOUS
 10
150.0105394908
 20
92.8006096717
  0
VERTEX
  8
0
 62
9
  6
CONTINUOUS
 10
149.9864757926
 20
92.7212816258
  0
VERTEX
  8
0
 62
9
  6
CONTINUOUS
 10
149.9645073113
 20
92.6186765695
  0
VERTEX
  8
0
 62
9
  6
CONTINUOUS
 10
149.9460984576
 20
92.4996341182
  0
VERTEX
  8
0
 62
9
  6
CONTINUOUS
 10
149.9324763584
 20
92.3720895986
  0
SEQEND
  0
POLYLINE
  8
0
 62
9
  6
CONTINUOUS
 66
1
 70
0
  0
VERTEX
  8
0
 62
9
  6
CONTINUOUS
 10
150.0585034895
 20
83.2501631618
  0
VERTEX
  8
0
 62
9
  6
CONTINUOUS
 10
150.0350941608
 20
83.2689768868
  0
VERTEX
  8
0
 62
9
  6
CONTINUOUS
 10
150.0105391299
 20
83.3197396732
  0
VERTEX
  8
0
 62
9
  6
CONTINUOUS
 10
149.9864752362
 20
83.3990676721
  0
VERTEX
  8
0
 62
9
  6
CONTINUOUS
 10
149.9645065794
 20
83.5016728766
  0
VERTEX
  8
0
 62
9
  6
CONTINUOUS
 10
149.9460975908
 20
83.6207156205
  0
VERTEX
  8
0
 62
9
  6
CONTINUOUS
 10
149.9324754141
 20
83.7482605108
  0
SEQEND
  0
POLYLINE
  8
0
 62
9
  6
CONTINUOUS
 66
1
 70
0
  0
VERTEX
  8
0
 62
9
  6
CONTINUOUS
 10
148.8349305865
 20
83.1437409863
  0
VERTEX
  8
0
 62
9
  6
CONTINUOUS
 10
148.8115255244
 20
83.1625923275
  0
VERTEX
  8
0
 62
9
  6
CONTINUOUS
 10
148.7869794607
 20
83.2133755554
  0
VERTEX
  8
0
 62
9
  6
CONTINUOUS
 10
148.7629278855
 20
83.2927070127
  0
VERTEX
  8
0
 62
9
  6
CONTINUOUS
 10
148.7409733417
 20
83.3953008897
  0
VERTEX
  8
0
 62
9
  6
CONTINUOUS
 10
148.7225786479
 20
83.5143214147
  0
VERTEX
  8
0
 62
9
  6
CONTINUOUS
 10
148.7089694321
 20
83.6418383183
  0
SEQEND
  0
LINE
  8
1_AXIS
 62
7
  6
CONTINUOUS
 10
129.1143326039
 20
98.5601750547
 11
129.1143326039
 21
95.0601750547
  0
LINE
  8
1_AXIS
 62
7
  6
CONTINUOUS
 10
129.1143326039
 20
81.0601750547
 11
129.1143326039
 21
77.5601750547
  0
LINE
  8
0
 62
9
  6
CONTINUOUS
 10
130.9626164877
 20
83.5601750547
 11
130.9626164877
 21
92.5601750547
  0
LINE
  8
0
 62
9
  6
CONTINUOUS
 10
150.4527919237
 20
83.0772123703
 11
150.4605551096
 21
83.0824423121
  0
POLYLINE
  8
0
 62
9
  6
CONTINUOUS
 66
1
 70
0
  0
VERTEX
  8
0
 62
9
  6
CONTINUOUS
 10
154.1015444776
 20
83.2502038724
  0
VERTEX
  8
0
 62
9
  6
CONTINUOUS
 10
154.1307145499
 20
83.2689768868
  0
VERTEX
  8
0
 62
9
  6
CONTINUOUS
 10
154.1555150248
 20
83.3197396732
  0
VERTEX
  8
0
 62
9
  6
CONTINUOUS
 10
154.1737820656
 20
83.3990676721
  0
VERTEX
  8
0
 62
9
  6
CONTINUOUS
 10
154.1842979909
 20
83.5016728766
  0
VERTEX
  8
0
 62
9
  6
CONTINUOUS
 10
154.1863618087
 20
83.6207156205
  0
VERTEX
  8
0
 62
9
  6
CONTINUOUS
 10
154.1798359447
 20
83.7482605108
  0
SEQEND
  0
POLYLINE
  8
0
 62
9
  6
CONTINUOUS
 66
1
 70
0
  0
VERTEX
  8
0
 62
9
  6
CONTINUOUS
 10
152.8970156153
 20
83.1437409863
  0
VERTEX
  8
0
 62
9
  6
CONTINUOUS
 10
152.9266858546
 20
83.1625923275
  0
VERTEX
  8
0
 62
9
  6
CONTINUOUS
 10
152.9514782548
 20
83.2133755554
  0
VERTEX
  8
0
 62
9
  6
CONTINUOUS
 10
152.9697409124
 20
83.2927070127
  0
VERTEX
  8
0
 62
9
  6
CONTINUOUS
 10
152.9802569971
 20
83.3953008896
  0
VERTEX
  8
0
 62
9
  6
CONTINUOUS
 10
152.982325828
 20
83.5143214147
  0
VERTEX
  8
0
 62
9
  6
CONTINUOUS
 10
152.9758095602
 20
83.6418383183
  0
SEQEND
  0
POLYLINE
  8
0
 62
9
  6
CONTINUOUS
 66
1
 70
0
  0
VERTEX
  8
0
 62
9
  6
CONTINUOUS
 10
152.8970156168
 20
92.9766091401
  0
VERTEX
  8
0
 62
9
  6
CONTINUOUS
 10
152.9266858476
 20
92.9577577694
  0
VERTEX
  8
0
 62
9
  6
CONTINUOUS
 10
152.9514782392
 20
92.9069745239
  0
VERTEX
  8
0
 62
9
  6
CONTINUOUS
 10
152.9697408894
 20
92.8276430613
  0
VERTEX
  8
0
 62
9
  6
CONTINUOUS
 10
152.9802569686
 20
92.7250491895
  0
VERTEX
  8
0
 62
9
  6
CONTINUOUS
 10
152.9823257968
 20
92.6060286775
  0
VERTEX
  8
0
 62
9
  6
CONTINUOUS
 10
152.975809529
 20
92.4785117911
  0
SEQEND
  0
POLYLINE
  8
0
 62
9
  6
CONTINUOUS
 66
1
 70
0
  0
VERTEX
  8
0
 62
9
  6
CONTINUOUS
 10
154.1015444744
 20
92.8701462284
  0
VERTEX
  8
0
 62
9
  6
CONTINUOUS
 10
154.1307141954
 20
92.8513727283
  0
VERTEX
  8
0
 62
9
  6
CONTINUOUS
 10
154.1555143309
 20
92.8006096717
  0
VERTEX
  8
0
 62
9
  6
CONTINUOUS
 10
154.1737810801
 20
92.7212816258
  0
VERTEX
  8
0
 62
9
  6
CONTINUOUS
 10
154.1842967879
 20
92.6186765695
  0
VERTEX
  8
0
 62
9
  6
CONTINUOUS
 10
154.1863604809
 20
92.4996341182
  0
VERTEX
  8
0
 62
9
  6
CONTINUOUS
 10
154.1798345936
 20
92.3720895986
  0
SEQEND
  0
LINE
  8
0
 62
9
  6
CONTINUOUS
 10
150.4527914025
 20
93.0431379662
 11
150.460552173
 21
93.0379096848
  0
LINE
  8
0
 62
7
  6
CONTINUOUS
 10
132.0620929335
 20
83.0601750547
 11
132.0620929335
 21
82.7601750547
  0
LINE
  8
0
 62
7
  6
CONTINUOUS
 10
132.1188742899
 20
83.0601750547
 11
132.1188742899
 21
82.7601750547
  0
LINE
  8
0
 62
7
  6
CONTINUOUS
 10
132.3459524281
 20
83.0601750547
 11
132.3459524281
 21
82.7601750547
  0
LINE
  8
0
 62
9
  6
CONTINUOUS
 10
132.6326634514
 20
83.5601750547
 11
132.6326634514
 21
92.5601750547
  0
LINE
  8
0
 62
7
  6
CONTINUOUS
 10
132.7206231195
 20
83.0601750547
 11
132.7206231195
 21
82.7601750547
  0
LINE
  8
0
 62
7
  6
CONTINUOUS
 10
133.1179951808
 20
83.0601750547
 11
133.1179951808
 21
82.7601750547
  0
LINE
  8
0
 62
7
  6
CONTINUOUS
 10
133.6856668823
 20
83.0601750547
 11
133.6856668823
 21
82.7601750547
  0
LINE
  8
0
 62
7
  6
CONTINUOUS
 10
134.098266738
 20
83.0601750547
 11
134.098266738
 21
82.7601750547
  0
LINE
  8
0
 62
7
  6
CONTINUOUS
 10
134.4373229499
 20
83.0601750547
 11
134.4373229499
 21
82.7601750547
  0
LINE
  8
0
 62
9
  6
CONTINUOUS
 10
135.0022206908
 20
83.6418383183
 11
135.0022206908
 21
92.4785117911
  0
LINE
  8
0
 62
7
  6
CONTINUOUS
 10
135.2490897421
 20
83.0601750547
 11
135.2490897421
 21
82.7601750547
  0
LINE
  8
0
 62
9
  6
CONTINUOUS
 10
136.0336508997
 20
83.7482605108
 11
136.0336508997
 21
92.3720895986
  0
LINE
  8
0
 62
9
  6
CONTINUOUS
 10
137.0444632518
 20
92.3510029897
 11
137.0444632518
 21
83.7693471197
  0
LINE
  8
0
 62
7
  6
CONTINUOUS
 10
137.2452831558
 20
83.0601750547
 11
137.2452831558
 21
82.7601750547
  0
LINE
  8
0
 62
7
  6
CONTINUOUS
 10
137.9923195478
 20
83.0601750547
 11
137.9923195478
 21
82.7601750547
  0
LINE
  8
0
 62
7
  6
CONTINUOUS
 10
139.4205558708
 20
83.0601750547
 11
139.4205558708
 21
82.7601750547
  0
LINE
  8
0
 62
7
  6
CONTINUOUS
 10
139.5053349463
 20
83.0601750547
 11
139.5053349463
 21
82.7601750547
  0
LINE
  8
0
 62
7
  6
CONTINUOUS
 10
139.6087437199
 20
83.0601750547
 11
139.6087437199
 21
82.7601750547
  0
LINE
  8
0
 62
7
  6
CONTINUOUS
 10
139.8131115836
 20
83.0601750547
 11
139.8131115836
 21
82.7601750547
  0
LINE
  8
0
 62
7
  6
CONTINUOUS
 10
139.9821932537
 20
83.0601750547
 11
139.9821932537
 21
82.7601750547
  0
POLYLINE
  8
0
 62
7
  6
CONTINUOUS
 66
1
 70
0
  0
VERTEX
  8
0
 62
7
  6
CONTINUOUS
 10
141.527584271
 20
92.3568142025
  0
VERTEX
  8
0
 62
7
  6
CONTINUOUS
 10
141.5246514246
 20
92.4109400478
  0
VERTEX
  8
0
 62
7
  6
CONTINUOUS
 10
141.5107992535
 20
92.4854011617
  0
VERTEX
  8
0
 62
7
  6
CONTINUOUS
 10
141.4864333489
 20
92.5556539881
  0
VERTEX
  8
0
 62
7
  6
CONTINUOUS
 10
141.4529267187
 20
92.6199422374
  0
VERTEX
  8
0
 62
7
  6
CONTINUOUS
 10
141.412009792
 20
92.6769244786
  0
VERTEX
  8
0
 62
7
  6
CONTINUOUS
 10
141.365662056
 20
92.7257223984
  0
VERTEX
  8
0
 62
7
  6
CONTINUOUS
 10
141.3160405377
 20
92.7659199448
  0
VERTEX
  8
0
 62
7
  6
CONTINUOUS
 10
141.2652281005
 20
92.7976755776
  0
VERTEX
  8
0
 62
7
  6
CONTINUOUS
 10
141.2147451964
 20
92.8217802522
  0
VERTEX
  8
0
 62
7
  6
CONTINUOUS
 10
141.1666874323
 20
92.8390036689
  0
VERTEX
  8
0
 62
7
  6
CONTINUOUS
 10
141.1229454946
 20
92.8506423198
  0
VERTEX
  8
0
 62
7
  6
CONTINUOUS
 10
141.0833275066
 20
92.8586226442
  0
SEQEND
  0
LINE
  8
0
 62
7
  6
CONTINUOUS
 10
140.3531931217
 20
83.0601750547
 11
140.3531931217
 21
82.7601750547
  0
LINE
  8
0
 62
9
  6
CONTINUOUS
 10
141.349612824
 20
92.3510029897
 11
141.349612824
 21
83.7693471197
  0
LINE
  8
0
 62
7
  6
CONTINUOUS
 10
141.5275844425
 20
92.3569142287
 11
141.5275844425
 21
83.7634358807
  0
LINE
  8
0
 62
7
  6
CONTINUOUS
 10
142.3723745351
 20
83.0601750547
 11
142.3723745351
 21
82.7601750547
  0
LINE
  8
0
 62
7
  6
CONTINUOUS
 10
142.5365568118
 20
83.0601750547
 11
142.5365568118
 21
82.7601750547
  0
LINE
  8
0
 62
7
  6
CONTINUOUS
 10
143.1932859069
 20
83.0601750547
 11
143.1932859069
 21
82.7601750547
  0
LINE
  8
0
 62
7
  6
CONTINUOUS
 10
143.3574682188
 20
83.0601750547
 11
143.3574682188
 21
82.7601750547
  0
LINE
  8
0
 62
7
  6
CONTINUOUS
 10
143.7225949984
 20
83.0601750547
 11
143.7225949984
 21
82.7601750547
  0
LINE
  8
0
 62
7
  6
CONTINUOUS
 10
143.8455047025
 20
83.0601750547
 11
143.8455047025
 21
82.7601750547
  0
LINE
  8
0
 62
7
  6
CONTINUOUS
 10
143.8650360175
 20
83.0601750547
 11
143.8650360175
 21
82.7601750547
  0
LINE
  8
0
 62
7
  6
CONTINUOUS
 10
144.0667421277
 20
83.0601750547
 11
144.0667421277
 21
82.7601750547
  0
LINE
  8
0
 62
7
  6
CONTINUOUS
 10
144.1650699192
 20
83.0601750547
 11
144.1650699192
 21
82.7601750547
  0
POLYLINE
  8
0
 62
9
  6
CONTINUOUS
 66
1
 70
0
  0
VERTEX
  8
0
 62
9
  6
CONTINUOUS
 10
147.9840618014
 20
93.0487591258
  0
VERTEX
  8
0
 62
9
  6
CONTINUOUS
 10
147.9768579915
 20
93.0287567684
  0
VERTEX
  8
0
 62
9
  6
CONTINUOUS
 10
147.9674691751
 20
92.9773487572
  0
VERTEX
  8
0
 62
9
  6
CONTINUOUS
 10
147.9565120956
 20
92.8979120408
  0
VERTEX
  8
0
 62
9
  6
CONTINUOUS
 10
147.9447065144
 20
92.7956647499
  0
VERTEX
  8
0
 62
9
  6
CONTINUOUS
 10
147.9328279299
 20
92.6773234224
  0
VERTEX
  8
0
 62
9
  6
CONTINUOUS
 10
147.9216566365
 20
92.5506617999
  0
SEQEND
  0
POLYLINE
  8
0
 62
9
  6
CONTINUOUS
 66
1
 70
0
  0
VERTEX
  8
0
 62
9
  6
CONTINUOUS
 10
147.9840617929
 20
83.071591089
  0
VERTEX
  8
0
 62
9
  6
CONTINUOUS
 10
147.9768579865
 20
83.091593471
  0
VERTEX
  8
0
 62
9
  6
CONTINUOUS
 10
147.9674691738
 20
83.1430014854
  0
VERTEX
  8
0
 62
9
  6
CONTINUOUS
 10
147.9565120977
 20
83.2224381853
  0
VERTEX
  8
0
 62
9
  6
CONTINUOUS
 10
147.944706519
 20
83.3246854442
  0
VERTEX
  8
0
 62
9
  6
CONTINUOUS
 10
147.9328279359
 20
83.4430267303
  0
VERTEX
  8
0
 62
9
  6
CONTINUOUS
 10
147.9216566423
 20
83.5696883095
  0
SEQEND
  0
POLYLINE
  8
0
 62
9
  6
CONTINUOUS
 66
1
 70
0
  0
VERTEX
  8
0
 62
9
  6
CONTINUOUS
 10
147.711357957
 20
83.0601750547
  0
VERTEX
  8
0
 62
9
  6
CONTINUOUS
 10
147.7101654722
 20
83.0772121989
  0
VERTEX
  8
0
 62
9
  6
CONTINUOUS
 10
147.7090542544
 20
83.1271625229
  0
VERTEX
  8
0
 62
9
  6
CONTINUOUS
 10
147.708100031
 20
83.2066219184
  0
SEQEND
  0
POLYLINE
  8
0
 62
9
  6
CONTINUOUS
 66
1
 70
0
  0
VERTEX
  8
0
 62
9
  6
CONTINUOUS
 10
147.708100031
 20
83.2066219184
  0
VERTEX
  8
0
 62
9
  6
CONTINUOUS
 10
147.7069075501
 20
83.43076569
  0
VERTEX
  8
0
 62
9
  6
CONTINUOUS
 10
147.7067505571
 20
83.5601750547
  0
SEQEND
  0
LINE
  8
0
 62
7
  6
CONTINUOUS
 10
144.5929015181
 20
83.0601750547
 11
144.5929015181
 21
82.7601750547
  0
LINE
  8
0
 62
7
  6
CONTINUOUS
 10
144.688740396
 20
83.0601750547
 11
144.688740396
 21
82.7601750547
  0
LINE
  8
0
 62
9
  6
CONTINUOUS
 10
144.820315909
 20
83.5601750547
 11
144.820315909
 21
92.5601750547
  0
LINE
  8
0
 62
7
  6
CONTINUOUS
 10
145.3760119275
 20
83.0601750547
 11
145.3760119275
 21
82.7601750547
  0
LINE
  8
0
 62
7
  6
CONTINUOUS
 10
145.6385657687
 20
83.0601750547
 11
145.6385657687
 21
82.7601750547
  0
LINE
  8
0
 62
9
  6
CONTINUOUS
 10
146.1558850783
 20
83.5601750547
 11
146.1558850783
 21
92.5601750547
  0
LINE
  8
0
 62
7
  6
CONTINUOUS
 10
146.1613977476
 20
83.0601750547
 11
146.1613977476
 21
82.7601750547
  0
LINE
  8
0
 62
7
  6
CONTINUOUS
 10
146.2572366255
 20
83.0601750547
 11
146.2572366255
 21
82.7601750547
  0
LINE
  8
0
 62
7
  6
CONTINUOUS
 10
146.3379518614
 20
83.0601750547
 11
146.3379518614
 21
82.7601750547
  0
LINE
  8
0
 62
7
  6
CONTINUOUS
 10
146.7695663775
 20
83.0601750547
 11
146.7695663775
 21
82.7601750547
  0
LINE
  8
0
 62
7
  6
CONTINUOUS
 10
146.9884379788
 20
83.0601750547
 11
146.9884379788
 21
82.7601750547
  0
LINE
  8
0
 62
7
  6
CONTINUOUS
 10
147.1024703074
 20
83.0601750547
 11
147.1024703074
 21
82.7601750547
  0
LINE
  8
0
 62
7
  6
CONTINUOUS
 10
147.1147276979
 20
83.0601750547
 11
147.1147276979
 21
82.7601750547
  0
POLYLINE
  8
0
 62
9
  6
CONTINUOUS
 66
1
 70
0
  0
VERTEX
  8
0
 62
9
  6
CONTINUOUS
 10
147.711357957
 20
93.0601750547
  0
VERTEX
  8
0
 62
9
  6
CONTINUOUS
 10
147.7101654781
 20
93.0431379631
  0
VERTEX
  8
0
 62
9
  6
CONTINUOUS
 10
147.7090542635
 20
92.9931877415
  0
VERTEX
  8
0
 62
9
  6
CONTINUOUS
 10
147.7081000406
 20
92.913728421
  0
VERTEX
  8
0
 62
9
  6
CONTINUOUS
 10
147.7073678382
 20
92.8101750282
  0
VERTEX
  8
0
 62
9
  6
CONTINUOUS
 10
147.7067505571
 20
92.5601750547
  0
SEQEND
  0
POLYLINE
  8
0
 62
7
  6
CONTINUOUS
 66
1
 70
0
  0
VERTEX
  8
0
 62
7
  6
CONTINUOUS
 10
154.7840995084
 20
92.351039178
  0
VERTEX
  8
0
 62
7
  6
CONTINUOUS
 10
154.7835348767
 20
92.3747945077
  0
VERTEX
  8
0
 62
7
  6
CONTINUOUS
 10
154.7809172391
 20
92.4073613038
  0
VERTEX
  8
0
 62
7
  6
CONTINUOUS
 10
154.7762198148
 20
92.4394570326
  0
VERTEX
  8
0
 62
7
  6
CONTINUOUS
 10
154.7695129142
 20
92.4709309953
  0
VERTEX
  8
0
 62
7
  6
CONTINUOUS
 10
154.7608797056
 20
92.5016413359
  0
VERTEX
  8
0
 62
7
  6
CONTINUOUS
 10
154.750415114
 20
92.5314561944
  0
VERTEX
  8
0
 62
7
  6
CONTINUOUS
 10
154.7382246165
 20
92.560254713
  0
VERTEX
  8
0
 62
7
  6
CONTINUOUS
 10
154.724422954
 20
92.5879278842
  0
VERTEX
  8
0
 62
7
  6
CONTINUOUS
 10
154.7091327825
 20
92.6143792353
  0
VERTEX
  8
0
 62
7
  6
CONTINUOUS
 10
154.6924832849
 20
92.6395253437
  0
VERTEX
  8
0
 62
7
  6
CONTINUOUS
 10
154.6746087523
 20
92.6632962011
  0
VERTEX
  8
0
 62
7
  6
CONTINUOUS
 10
154.6556470996
 20
92.6856354792
  0
VERTEX
  8
0
 62
7
  6
CONTINUOUS
 10
154.635738788
 20
92.7065001978
  0
VERTEX
  8
0
 62
7
  6
CONTINUOUS
 10
154.6150252866
 20
92.7258608982
  0
VERTEX
  8
0
 62
7
  6
CONTINUOUS
 10
154.5936476892
 20
92.7437014392
  0
VERTEX
  8
0
 62
7
  6
CONTINUOUS
 10
154.5717454689
 20
92.7600185691
  0
VERTEX
  8
0
 62
7
  6
CONTINUOUS
 10
154.5494553781
 20
92.7748213375
  0
VERTEX
  8
0
 62
7
  6
CONTINUOUS
 10
154.5269106419
 20
92.7881303149
  0
VERTEX
  8
0
 62
7
  6
CONTINUOUS
 10
154.5042400117
 20
92.7999769344
  0
VERTEX
  8
0
 62
7
  6
CONTINUOUS
 10
154.4815687429
 20
92.81040196
  0
VERTEX
  8
0
 62
7
  6
CONTINUOUS
 10
154.4590220156
 20
92.8194536326
  0
VERTEX
  8
0
 62
7
  6
CONTINUOUS
 10
154.436710551
 20
92.8271927472
  0
VERTEX
  8
0
 62
7
  6
CONTINUOUS
 10
154.4147443713
 20
92.8336857844
  0
VERTEX
  8
0
 62
7
  6
CONTINUOUS
 10
154.393360788
 20
92.8389770434
  0
VERTEX
  8
0
 62
7
  6
CONTINUOUS
 10
154.3734632386
 20
92.8430200979
  0
VERTEX
  8
0
 62
7
  6
CONTINUOUS
 10
154.3563360973
 20
92.8458437132
  0
VERTEX
  8
0
 62
7
  6
CONTINUOUS
 10
154.3439931204
 20
92.8475225756
  0
VERTEX
  8
0
 62
7
  6
CONTINUOUS
 10
154.3353895494
 20
92.8485405399
  0
VERTEX
  8
0
 62
7
  6
CONTINUOUS
 10
154.3278151694
 20
92.8493628529
  0
VERTEX
  8
0
 62
7
  6
CONTINUOUS
 10
154.3106299916
 20
92.8510985576
  0
SEQEND
  0
POLYLINE
  8
0
 62
7
  6
CONTINUOUS
 66
1
 70
0
  0
VERTEX
  8
0
 62
7
  6
CONTINUOUS
 10
152.8311822504
 20
92.351888193
  0
VERTEX
  8
0
 62
7
  6
CONTINUOUS
 10
152.8310670929
 20
92.3626204944
  0
VERTEX
  8
0
 62
7
  6
CONTINUOUS
 10
152.826460584
 20
92.4204508568
  0
SEQEND
  0
LINE
  8
0
 62
9
  6
CONTINUOUS
 10
148.7089694539
 20
83.6418383183
 11
148.7089694539
 21
92.4785117911
  0
LINE
  8
0
 62
9
  6
CONTINUOUS
 10
149.9324754141
 20
83.7482605108
 11
149.9324754141
 21
92.3720895986
  0
LINE
  8
0
 62
9
  6
CONTINUOUS
 10
150.815852503
 20
92.3510029897
 11
150.815852503
 21
83.7693471197
  0
LINE
  8
0
 62
9
  6
CONTINUOUS
 10
152.8040508734
 20
92.3510029897
 11
152.8040508734
 21
83.7693471197
  0
LINE
  8
0
 62
7
  6
CONTINUOUS
 10
152.8311821555
 20
92.351996209
 11
152.8311821555
 21
83.7683539005
  0
LINE
  8
0
 62
9
  6
CONTINUOUS
 10
152.975809529
 20
83.6418383183
 11
152.975809529
 21
92.4785117911
  0
LINE
  8
0
 62
9
  6
CONTINUOUS
 10
154.1798359447
 20
83.7482605108
 11
154.1798359447
 21
92.3720895986
  0
LINE
  8
0
 62
7
  6
CONTINUOUS
 10
154.7841044475
 20
92.3511352972
 11
154.7841044475
 21
83.7692148122
  0
LINE
  8
0
 62
7
  6
CONTINUOUS
 10
152.828831357
 20
83.7200253893
 11
152.8311822505
 21
83.7684619068
  0
LINE
  8
0
 62
9
  6
CONTINUOUS
 10
152.1968061813
 20
83.2224381842
 11
152.2022071745
 21
83.2496863124
  0
LINE
  8
0
 62
9
  6
CONTINUOUS
 10
152.196806228
 20
92.8979120408
 11
152.2022072452
 21
92.8706637922
  0
POLYLINE
  8
0
 62
7
  6
CONTINUOUS
 66
1
 70
0
  0
VERTEX
  8
0
 62
7
  6
CONTINUOUS
 10
152.826460584
 20
92.4204508568
  0
VERTEX
  8
0
 62
7
  6
CONTINUOUS
 10
152.8153969886
 20
92.4765519962
  0
VERTEX
  8
0
 62
7
  6
CONTINUOUS
 10
152.7983342369
 20
92.5301566952
  0
VERTEX
  8
0
 62
7
  6
CONTINUOUS
 10
152.7758290409
 20
92.5805972292
  0
VERTEX
  8
0
 62
7
  6
CONTINUOUS
 10
152.7485165333
 20
92.6273172861
  0
VERTEX
  8
0
 62
7
  6
CONTINUOUS
 10
152.7170893668
 20
92.669879146
  0
VERTEX
  8
0
 62
7
  6
CONTINUOUS
 10
152.6822693491
 20
92.7079745904
  0
VERTEX
  8
0
 62
7
  6
CONTINUOUS
 10
152.6448217377
 20
92.7413903212
  0
VERTEX
  8
0
 62
7
  6
CONTINUOUS
 10
152.6055078003
 20
92.7700460467
  0
VERTEX
  8
0
 62
7
  6
CONTINUOUS
 10
152.5650438604
 20
92.7939955105
  0
VERTEX
  8
0
 62
7
  6
CONTINUOUS
 10
152.5241110965
 20
92.8133932816
  0
VERTEX
  8
0
 62
7
  6
CONTINUOUS
 10
152.4840099015
 20
92.8282766235
  0
VERTEX
  8
0
 62
7
  6
CONTINUOUS
 10
152.4468178869
 20
92.8388142284
  0
SEQEND
  0
ARC
  8
0
 62
7
  6
CONTINUOUS
 10
47.6127999358
 20
156.533062758
 40
6.2
 50
88.058871156
 51
111.838
  0
ARC
  8
0
 62
7
  6
CONTINUOUS
 10
50.7477061383
 20
153.0513966968
 40
6.2
 50
332.162
 51
355.941128844
  0
ARC
  8
0
 62
7
  6
CONTINUOUS
 10
47.7550648931
 20
160.7306526239
 40
2.0
 50
36.6723979408
 51
88.058871156
  0
ARC
  8
0
 62
7
  6
CONTINUOUS
 10
54.937171905
 20
152.7541146937
 40
2.0
 50
355.941128844
 51
47.3276020592
  0
ARC
  8
0
 62
7
  6
CONTINUOUS
 10
43.856258701
 20
162.5688213448
 40
0.8
 50
213.0354765661
 51
291.838
  0
ARC
  8
0
 62
7
  6
CONTINUOUS
 10
61.4943601751
 20
144.9525487786
 40
0.8
 50
237.0354765661
 51
315.838
  0
ARC
  8
0
 62
7
  6
CONTINUOUS
 10
56.3577347255
 20
148.6845256181
 40
0.8
 50
152.162
 51
230.9645234339
  0
ARC
  8
0
 62
7
  6
CONTINUOUS
 10
35.8850417805
 20
178.7942865003
 40
6.2
 50
64.058871156
 51
87.838
  0
ARC
  8
0
 62
7
  6
CONTINUOUS
 10
37.3327999358
 20
174.3385450598
 40
6.2
 50
308.162
 51
331.941128844
  0
ARC
  8
0
 62
7
  6
CONTINUOUS
 10
37.7223208971
 20
182.5711112841
 40
2.0
 50
12.6723979408
 51
64.058871156
  0
ARC
  8
0
 62
7
  6
CONTINUOUS
 10
41.039151873
 20
172.362955194
 40
2.0
 50
331.941128844
 51
23.3276020592
  0
ARC
  8
0
 62
7
  6
CONTINUOUS
 10
34.908234785
 20
185.8361493121
 40
0.8
 50
189.0354765661
 51
267.838
  0
ARC
  8
0
 62
7
  6
CONTINUOUS
 10
34.2445607604
 20
192.1505858609
 40
0.8
 50
104.162
 51
182.9645234339
  0
ARC
  8
0
 62
7
  6
CONTINUOUS
 10
40.6816495857
 20
168.0674056267
 40
0.8
 50
128.162
 51
206.9645234339
  0
ARC
  8
0
 62
7
  6
CONTINUOUS
 10
67.3810955426
 20
140.9665319097
 40
6.2
 50
112.058871156
 51
135.838
  0
ARC
  8
0
 62
7
  6
CONTINUOUS
 10
91.7718107012
 20
134.7862885563
 40
6.2
 50
136.058871156
 51
159.838
  0
ARC
  8
0
 62
7
  6
CONTINUOUS
 10
71.6610960301
 20
139.0609529195
 40
6.2
 50
356.162
 51
19.941128844
  0
ARC
  8
0
 62
7
  6
CONTINUOUS
 10
65.8037474371
 20
144.8590854358
 40
2.0
 50
60.6723979408
 51
112.058871156
  0
ARC
  8
0
 62
7
  6
CONTINUOUS
 10
88.74758735
 20
137.7007478753
 40
2.0
 50
84.6723979408
 51
136.058871156
  0
ARC
  8
0
 62
7
  6
CONTINUOUS
 10
75.6092789352
 20
140.4933815382
 40
2.0
 50
19.941128844
 51
71.3276020592
  0
ARC
  8
0
 62
7
  6
CONTINUOUS
 10
84.7727512252
 20
136.0333451789
 40
0.8
 50
261.0354765661
 51
339.838
  0
ARC
  8
0
 62
7
  6
CONTINUOUS
 10
78.5622786465
 20
137.3534218766
 40
0.8
 50
176.162
 51
254.9645234339
  0
ARC
  8
SQ
 62
2
  6
PHANTOM
 10
86.2528315588
 20
177.0910281937
 40
3.2
 50
225.0
 51
270.2750868451
  0
ARC
  8
SQ
 62
2
  6
PHANTOM
 10
75.9543041014
 20
187.3895556511
 40
3.2
 50
179.7249131549
 51
225.0
  0
ARC
  8
SQ
 62
2
  6
PHANTOM
 10
89.8142916895
 20
168.155556526
 40
2.2
 50
12.2362422411
 51
45.0
  0
ARC
  8
SQ
 62
2
  6
PHANTOM
 10
86.2787577836
 20
171.6910904319
 40
2.2
 50
45.0
 51
90.2750868451
  0
ARC
  8
SQ
 62
2
  6
PHANTOM
 10
70.5543663396
 20
187.4154818759
 40
2.2
 50
359.7249131549
 51
45.0
  0
ARC
  8
SQ
 62
2
  6
PHANTOM
 10
67.0188324337
 20
190.9510157818
 40
2.2
 50
45.0
 51
77.7637577589
  0
ARC
  8
0
 62
7
  6
CONTINUOUS
 10
34.2256570051
 20
203.9010353144
 40
6.2
 50
40.058871156
 51
63.838
  0
ARC
  8
0
 62
7
  6
CONTINUOUS
 10
40.5790464094
 20
223.4547572895
 40
6.2
 50
260.162
 51
283.941128844
  0
ARC
  8
0
 62
7
  6
CONTINUOUS
 10
33.7359365758
 20
199.241656669
 40
6.2
 50
284.162
 51
307.941128844
  0
ARC
  8
0
 62
7
  6
CONTINUOUS
 10
37.4402680305
 20
206.6040476998
 40
2.0
 50
348.6723979408
 51
40.058871156
  0
ARC
  8
0
 62
7
  6
CONTINUOUS
 10
41.5909305424
 20
219.3784733811
 40
2.0
 50
283.941128844
 51
335.3276020592
  0
ARC
  8
0
 62
7
  6
CONTINUOUS
 10
36.3183127622
 20
195.9293563759
 40
2.0
 50
307.941128844
 51
359.3276020592
  0
ARC
  8
0
 62
7
  6
CONTINUOUS
 10
36.1974830524
 20
210.7314002978
 40
0.8
 50
165.0354765661
 51
243.838
  0
ARC
  8
0
 62
7
  6
CONTINUOUS
 10
38.1594993866
 20
216.7698656694
 40
0.8
 50
80.162
 51
158.9645234339
  0
ARC
  8
0
 62
7
  6
CONTINUOUS
 10
60.4691736371
 20
245.54498151
 40
6.2
 50
352.058871156
 51
15.838
  0
ARC
  8
0
 62
7
  6
CONTINUOUS
 10
42.9215683122
 20
227.5121242429
 40
6.2
 50
16.058871156
 51
39.838
  0
ARC
  8
0
 62
7
  6
CONTINUOUS
 10
56.678893579
 20
242.7911818547
 40
6.2
 50
236.162
 51
259.941128844
  0
ARC
  8
0
 62
7
  6
CONTINUOUS
 10
46.9576757964
 20
228.6739488322
 40
2.0
 50
324.6723979408
 51
16.058871156
  0
ARC
  8
0
 62
7
  6
CONTINUOUS
 10
55.9453216992
 20
238.6557408508
 40
2.0
 50
259.941128844
 51
311.3276020592
  0
ARC
  8
0
 62
7
  6
CONTINUOUS
 10
47.5010807653
 20
232.9499592403
 40
0.8
 50
141.0354765661
 51
219.838
  0
ARC
  8
0
 62
7
  6
CONTINUOUS
 10
51.7495370099
 20
237.6683479142
 40
0.8
 50
56.162
 51
134.9645234339
  0
ARC
  8
SQ
 62
2
  6
PHANTOM
 10
75.9543041014
 20
203.1125577413
 40
3.2
 50
135.0
 51
180.2750868451
  0
ARC
  8
SQ
 62
2
  6
PHANTOM
 10
86.2528315588
 20
213.4110851988
 40
3.2
 50
89.7249131549
 51
135.0
  0
ARC
  8
SQ
 62
2
  6
PHANTOM
 10
67.9513817
 20
195.2510566962
 40
2.2
 50
102.2362422411
 51
257.7637577589
  0
ARC
  8
SQ
 62
2
  6
PHANTOM
 10
67.0188324337
 20
199.5510976107
 40
2.2
 50
282.2362422411
 51
315.0
  0
ARC
  8
SQ
 62
2
  6
PHANTOM
 10
70.5543663396
 20
203.0866315166
 40
2.2
 50
315.0
 51
0.2750868451
  0
ARC
  8
SQ
 62
2
  6
PHANTOM
 10
86.2787577836
 20
218.8110229605
 40
2.2
 50
269.7249131549
 51
315.0
  0
ARC
  8
SQ
 62
2
  6
PHANTOM
 10
89.8142916895
 20
222.3465568665
 40
2.2
 50
315.0
 51
347.7637577589
  0
ARC
  8
0
 62
7
  6
CONTINUOUS
 10
83.8343326039
 20
254.8815622708
 40
6.2
 50
328.058871156
 51
351.838
  0
ARC
  8
0
 62
7
  6
CONTINUOUS
 10
79.2516682462
 20
253.9074868916
 40
6.2
 50
212.162
 51
235.941128844
  0
ARC
  8
0
 62
7
  6
CONTINUOUS
 10
87.3984195838
 20
252.6595622708
 40
2.0
 50
276.6723979408
 51
328.058871156
  0
ARC
  8
0
 62
7
  6
CONTINUOUS
 10
64.6288979291
 20
244.9647282769
 40
2.0
 50
300.6723979408
 51
352.058871156
  0
ARC
  8
0
 62
7
  6
CONTINUOUS
 10
76.899481596
 20
250.4279441109
 40
2.0
 50
235.941128844
 51
287.3276020592
  0
ARC
  8
0
 62
7
  6
CONTINUOUS
 10
90.9397234887
 20
255.1169431172
 40
0.8
 50
93.0354765661
 51
171.838
  0
ARC
  8
0
 62
7
  6
CONTINUOUS
 10
66.8645331893
 20
248.6500354492
 40
0.8
 50
117.0354765661
 51
195.838
  0
ARC
  8
0
 62
7
  6
CONTINUOUS
 10
72.6648326634
 20
251.2324951585
 40
0.8
 50
32.162
 51
110.9645234339
  0
ARC
  8
0
 62
7
  6
CONTINUOUS
 10
116.5675691778
 20
139.0609529195
 40
6.2
 50
160.058871156
 51
183.838
  0
ARC
  8
0
 62
7
  6
CONTINUOUS
 10
96.4568545067
 20
134.7862885563
 40
6.2
 50
20.162
 51
43.941128844
  0
ARC
  8
0
 62
7
  6
CONTINUOUS
 10
120.8475696652
 20
140.9665319097
 40
6.2
 50
44.162
 51
67.941128844
  0
ARC
  8
0
 62
7
  6
CONTINUOUS
 10
112.6193862727
 20
140.4933815382
 40
2.0
 50
108.6723979408
 51
160.058871156
  0
ARC
  8
0
 62
7
  6
CONTINUOUS
 10
99.4810778579
 20
137.7007478753
 40
2.0
 50
43.941128844
 51
95.3276020592
  0
ARC
  8
0
 62
7
  6
CONTINUOUS
 10
122.4249177708
 20
144.8590854358
 40
2.0
 50
67.941128844
 51
119.3276020592
  0
ARC
  8
0
 62
7
  6
CONTINUOUS
 10
109.6663865614
 20
137.3534218766
 40
0.8
 50
285.0354765661
 51
3.838
  0
ARC
  8
0
 62
7
  6
CONTINUOUS
 10
103.4559139826
 20
136.0333451789
 40
0.8
 50
200.162
 51
278.9645234339
  0
ARC
  8
SQ
 62
2
  6
PHANTOM
 10
112.2743611065
 20
187.3895556511
 40
3.2
 50
315.0
 51
0.2750868451
  0
ARC
  8
SQ
 62
2
  6
PHANTOM
 10
101.9758336491
 20
177.0910281937
 40
3.2
 50
269.7249131549
 51
315.0
  0
ARC
  8
SQ
 62
2
  6
PHANTOM
 10
121.2098327742
 20
190.9510157818
 40
2.2
 50
102.2362422411
 51
135.0
  0
ARC
  8
SQ
 62
2
  6
PHANTOM
 10
117.6742988683
 20
187.4154818759
 40
2.2
 50
135.0
 51
180.2750868451
  0
ARC
  8
SQ
 62
2
  6
PHANTOM
 10
101.9499074243
 20
171.6910904319
 40
2.2
 50
89.7249131549
 51
135.0
  0
ARC
  8
SQ
 62
2
  6
PHANTOM
 10
98.4143735184
 20
168.155556526
 40
2.2
 50
135.0
 51
167.7637577589
  0
ARC
  8
SQ
 62
2
  6
PHANTOM
 10
94.1143326039
 20
169.0881057923
 40
2.2
 50
192.2362422411
 51
347.7637577589
  0
ARC
  8
0
 62
7
  6
CONTINUOUS
 10
137.4809590696
 20
153.0513966968
 40
6.2
 50
184.058871156
 51
207.838
  0
ARC
  8
0
 62
7
  6
CONTINUOUS
 10
140.615865272
 20
156.533062758
 40
6.2
 50
68.162
 51
91.941128844
  0
ARC
  8
0
 62
7
  6
CONTINUOUS
 10
133.2914933029
 20
152.7541146937
 40
2.0
 50
132.6723979408
 51
184.058871156
  0
ARC
  8
0
 62
7
  6
CONTINUOUS
 10
140.4736003147
 20
160.7306526239
 40
2.0
 50
91.941128844
 51
143.3276020592
  0
ARC
  8
0
 62
7
  6
CONTINUOUS
 10
131.8709304823
 20
148.6845256181
 40
0.8
 50
309.0354765661
 51
27.838
  0
ARC
  8
0
 62
7
  6
CONTINUOUS
 10
126.7343050328
 20
144.9525487786
 40
0.8
 50
224.162
 51
302.9645234339
  0
ARC
  8
0
 62
7
  6
CONTINUOUS
 10
144.3724065069
 20
162.5688213448
 40
0.8
 50
248.162
 51
326.9645234339
  0
ARC
  8
0
 62
7
  6
CONTINUOUS
 10
150.895865272
 20
174.3385450598
 40
6.2
 50
208.058871156
 51
231.838
  0
ARC
  8
0
 62
7
  6
CONTINUOUS
 10
152.3436234273
 20
178.7942865003
 40
6.2
 50
92.162
 51
115.941128844
  0
ARC
  8
0
 62
7
  6
CONTINUOUS
 10
147.1895133349
 20
172.362955194
 40
2.0
 50
156.6723979408
 51
208.058871156
  0
ARC
  8
0
 62
7
  6
CONTINUOUS
 10
150.5063443108
 20
182.5711112841
 40
2.0
 50
115.941128844
 51
167.3276020592
  0
ARC
  8
0
 62
7
  6
CONTINUOUS
 10
147.5470156222
 20
168.0674056267
 40
0.8
 50
333.0354765661
 51
51.838
  0
ARC
  8
0
 62
7
  6
CONTINUOUS
 10
153.9841044475
 20
192.1505858609
 40
0.8
 50
357.0354765661
 51
75.838
  0
ARC
  8
0
 62
7
  6
CONTINUOUS
 10
153.3204304229
 20
185.8361493121
 40
0.8
 50
272.162
 51
350.9645234339
  0
ARC
  8
0
 62
7
  6
CONTINUOUS
 10
94.1143326039
 20
195.2510566962
 40
60.75
 50
86.9645234339
 51
93.0354765661
  0
ARC
  8
0
 62
7
  6
CONTINUOUS
 10
94.1143326039
 20
195.2510566962
 40
60.75
 50
110.9645234339
 51
117.0354765661
  0
ARC
  8
0
 62
7
  6
CONTINUOUS
 10
94.1143326039
 20
195.2510566962
 40
60.75
 50
134.9645234339
 51
141.0354765661
  0
ARC
  8
0
 62
7
  6
CONTINUOUS
 10
94.1143326039
 20
195.2510566962
 40
60.75
 50
158.9645234339
 51
165.0354765661
  0
ARC
  8
0
 62
7
  6
CONTINUOUS
 10
94.1143326039
 20
195.2510566962
 40
60.75
 50
182.9645234339
 51
189.0354765661
  0
ARC
  8
0
 62
7
  6
CONTINUOUS
 10
94.1143326039
 20
195.2510566962
 40
60.75
 50
206.9645234339
 51
213.0354765661
  0
ARC
  8
0
 62
7
  6
CONTINUOUS
 10
94.1143326039
 20
195.2510566962
 40
60.75
 50
230.9645234339
 51
237.0354765661
  0
ARC
  8
0
 62
7
  6
CONTINUOUS
 10
94.1143326039
 20
195.2510566962
 40
60.75
 50
254.9645234339
 51
261.0354765661
  0
ARC
  8
0
 62
7
  6
CONTINUOUS
 10
94.1143326039
 20
195.2510566962
 40
60.75
 50
278.9645234339
 51
285.0354765661
  0
ARC
  8
0
 62
7
  6
CONTINUOUS
 10
94.1143326039
 20
195.2510566962
 40
60.75
 50
302.9645234339
 51
309.0354765661
  0
ARC
  8
0
 62
7
  6
CONTINUOUS
 10
94.1143326039
 20
195.2510566962
 40
60.75
 50
326.9645234339
 51
333.0354765661
  0
ARC
  8
0
 62
7
  6
CONTINUOUS
 10
94.1143326039
 20
195.2510566962
 40
60.75
 50
350.9645234339
 51
357.0354765661
  0
ARC
  8
0
 62
7
  6
CONTINUOUS
 10
94.1143326039
 20
195.2510566962
 40
60.75
 50
14.9645234339
 51
21.0354765661
  0
ARC
  8
0
 62
7
  6
CONTINUOUS
 10
94.1143326039
 20
195.2510566962
 40
60.75
 50
38.9645234339
 51
45.0354765661
  0
ARC
  8
0
 62
7
  6
CONTINUOUS
 10
94.1143326039
 20
195.2510566962
 40
60.75
 50
62.9645234339
 51
69.0354765661
  0
ARC
  8
0
 62
7
  6
CONTINUOUS
 10
94.1143326039
 20
195.2510566962
 40
55.8
 50
96.6723979408
 51
107.3276020592
  0
ARC
  8
0
 62
7
  6
CONTINUOUS
 10
94.1143326039
 20
195.2510566962
 40
55.8
 50
72.6723979408
 51
83.3276020592
  0
ARC
  8
0
 62
7
  6
CONTINUOUS
 10
94.1143326039
 20
195.2510566962
 40
55.8
 50
120.6723979408
 51
131.3276020592
  0
ARC
  8
0
 62
7
  6
CONTINUOUS
 10
94.1143326039
 20
195.2510566962
 40
55.8
 50
144.6723979408
 51
155.3276020592
  0
ARC
  8
0
 62
7
  6
CONTINUOUS
 10
94.1143326039
 20
195.2510566962
 40
55.8
 50
168.6723979408
 51
179.3276020592
  0
ARC
  8
0
 62
7
  6
CONTINUOUS
 10
94.1143326039
 20
195.2510566962
 40
55.8
 50
192.6723979408
 51
203.3276020592
  0
ARC
  8
0
 62
7
  6
CONTINUOUS
 10
94.1143326039
 20
195.2510566962
 40
55.8
 50
216.6723979408
 51
227.3276020592
  0
ARC
  8
0
 62
7
  6
CONTINUOUS
 10
94.1143326039
 20
195.2510566962
 40
55.8
 50
240.6723979408
 51
251.3276020592
  0
ARC
  8
0
 62
7
  6
CONTINUOUS
 10
94.1143326039
 20
195.2510566962
 40
55.8
 50
264.6723979408
 51
275.3276020592
  0
ARC
  8
0
 62
7
  6
CONTINUOUS
 10
94.1143326039
 20
195.2510566962
 40
55.8
 50
288.6723979408
 51
299.3276020592
  0
ARC
  8
0
 62
7
  6
CONTINUOUS
 10
94.1143326039
 20
195.2510566962
 40
55.8
 50
48.6723979408
 51
59.3276020592
  0
ARC
  8
0
 62
7
  6
CONTINUOUS
 10
94.1143326039
 20
195.2510566962
 40
55.8
 50
312.6723979408
 51
323.3276020592
  0
ARC
  8
0
 62
7
  6
CONTINUOUS
 10
94.1143326039
 20
195.2510566962
 40
55.8
 50
336.6723979408
 51
347.3276020592
  0
ARC
  8
0
 62
7
  6
CONTINUOUS
 10
94.1143326039
 20
195.2510566962
 40
55.8
 50
24.6723979408
 51
35.3276020592
  0
ARC
  8
0
 62
7
  6
CONTINUOUS
 10
94.1143326039
 20
195.2510566962
 40
55.8
 50
0.6723979408
 51
11.3276020592
  0
CIRCLE
  8
1_AXIS
 62
7
  6
CONTINUOUS
 10
94.1143326039
 20
195.2510566962
 40
35.0
  0
CIRCLE
  8
SQ
 62
2
  6
PHANTOM
 10
94.1143326039
 20
195.2510566962
 40
8.0
  0
ARC
  8
SQ
 62
2
  6
PHANTOM
 10
101.9758336491
 20
213.4110851988
 40
3.2
 50
45.0
 51
90.2750868451
  0
ARC
  8
SQ
 62
2
  6
PHANTOM
 10
94.1143326039
 20
221.4140076001
 40
2.2
 50
12.2362422411
 51
167.7637577589
  0
ARC
  8
SQ
 62
2
  6
PHANTOM
 10
98.4143735184
 20
222.3465568665
 40
2.2
 50
192.2362422411
 51
225.0
  0
ARC
  8
SQ
 62
2
  6
PHANTOM
 10
101.9499074243
 20
218.8110229605
 40
2.2
 50
225.0
 51
270.2750868451
  0
ARC
  8
SQ
 62
2
  6
PHANTOM
 10
112.2743611065
 20
203.1125577413
 40
3.2
 50
359.7249131549
 51
45.0
  0
ARC
  8
SQ
 62
2
  6
PHANTOM
 10
121.2098327742
 20
199.5510976107
 40
2.2
 50
225.0
 51
257.7637577589
  0
ARC
  8
SQ
 62
2
  6
PHANTOM
 10
120.2772835078
 20
195.2510566962
 40
2.2
 50
282.2362422411
 51
77.7637577589
  0
ARC
  8
SQ
 62
2
  6
PHANTOM
 10
117.6742988683
 20
203.0866315166
 40
2.2
 50
179.7249131549
 51
225.0
  0
ARC
  8
0
 62
7
  6
CONTINUOUS
 10
104.3943326039
 20
254.8815622708
 40
6.2
 50
188.162
 51
211.941128844
  0
ARC
  8
0
 62
7
  6
CONTINUOUS
 10
108.9769969617
 20
253.9074868916
 40
6.2
 50
304.058871156
 51
327.838
  0
ARC
  8
0
 62
7
  6
CONTINUOUS
 10
100.8302456241
 20
252.6595622708
 40
2.0
 50
211.941128844
 51
263.3276020592
  0
ARC
  8
0
 62
7
  6
CONTINUOUS
 10
123.5997672788
 20
244.9647282769
 40
2.0
 50
187.941128844
 51
239.3276020592
  0
ARC
  8
0
 62
7
  6
CONTINUOUS
 10
111.3291836119
 20
250.4279441109
 40
2.0
 50
252.6723979408
 51
304.058871156
  0
CIRCLE
  8
0
 62
7
  6
CONTINUOUS
 10
94.1143326039
 20
245.2510566962
 40
0.8660254038
  0
ARC
  8
0
 62
7
  6
CONTINUOUS
 10
97.2889417192
 20
255.1169431172
 40
0.8
 50
8.162
 51
86.9645234339
  0
ARC
  8
0
 62
7
  6
CONTINUOUS
 10
121.3641320186
 20
248.6500354492
 40
0.8
 50
344.162
 51
62.9645234339
  0
ARC
  8
0
 62
7
  6
CONTINUOUS
 10
115.5638325445
 20
251.2324951585
 40
0.8
 50
69.0354765661
 51
147.838
  0
ARC
  8
0
 62
7
  6
CONTINUOUS
 10
154.0030082028
 20
203.9010353144
 40
6.2
 50
116.162
 51
139.941128844
  0
ARC
  8
0
 62
7
  6
CONTINUOUS
 10
147.6496187984
 20
223.4547572895
 40
6.2
 50
256.058871156
 51
279.838
  0
ARC
  8
0
 62
7
  6
CONTINUOUS
 10
154.4927286321
 20
199.241656669
 40
6.2
 50
232.058871156
 51
255.838
  0
ARC
  8
0
 62
7
  6
CONTINUOUS
 10
150.7883971774
 20
206.6040476998
 40
2.0
 50
139.941128844
 51
191.3276020592
  0
ARC
  8
0
 62
7
  6
CONTINUOUS
 10
146.6377346654
 20
219.3784733811
 40
2.0
 50
204.6723979408
 51
256.058871156
  0
ARC
  8
0
 62
7
  6
CONTINUOUS
 10
151.9103524457
 20
195.9293563759
 40
2.0
 50
180.6723979408
 51
232.058871156
  0
ARC
  8
0
 62
7
  6
CONTINUOUS
 10
152.0311821555
 20
210.7314002978
 40
0.8
 50
296.162
 51
14.9645234339
  0
ARC
  8
0
 62
7
  6
CONTINUOUS
 10
150.0691658212
 20
216.7698656694
 40
0.8
 50
21.0354765661
 51
99.838
  0
ARC
  8
0
 62
7
  6
CONTINUOUS
 10
127.7594915708
 20
245.54498151
 40
6.2
 50
164.162
 51
187.941128844
  0
ARC
  8
0
 62
7
  6
CONTINUOUS
 10
145.3070968957
 20
227.5121242429
 40
6.2
 50
140.162
 51
163.941128844
  0
ARC
  8
0
 62
7
  6
CONTINUOUS
 10
131.5497716289
 20
242.7911818547
 40
6.2
 50
280.058871156
 51
303.838
  0
ARC
  8
0
 62
7
  6
CONTINUOUS
 10
141.2709894115
 20
228.6739488322
 40
2.0
 50
163.941128844
 51
215.3276020592
  0
ARC
  8
0
 62
7
  6
CONTINUOUS
 10
132.2833435087
 20
238.6557408508
 40
2.0
 50
228.6723979408
 51
280.058871156
  0
ARC
  8
0
 62
7
  6
CONTINUOUS
 10
140.7275844425
 20
232.9499592403
 40
0.8
 50
320.162
 51
38.9645234339
  0
ARC
  8
0
 62
7
  6
CONTINUOUS
 10
136.479128198
 20
237.6683479142
 40
0.8
 50
45.0354765661
 51
123.838
  0
ARC
  8
1_AXIS
 62
7
  6
CONTINUOUS
 10
127.1143326039
 20
98.5601750547
 40
2.0
 50
0.0
 51
90.0
  0
ARC
  8
1_AXIS
 62
7
  6
CONTINUOUS
 10
131.1143326039
 20
95.0601750547
 40
2.0
 50
180.0
 51
270.0
  0
ARC
  8
1_AXIS
 62
7
  6
CONTINUOUS
 10
131.1143326039
 20
81.0601750547
 40
2.0
 50
90.0
 51
180.0
  0
ARC
  8
1_AXIS
 62
7
  6
CONTINUOUS
 10
127.1143326039
 20
77.5601750547
 40
2.0
 50
270.0
 51
360.0
  0
ARC
  8
1_AXIS
 62
7
  6
CONTINUOUS
 10
61.1143326039
 20
98.5601750547
 40
2.0
 50
90.0
 51
180.0
  0
ARC
  8
1_AXIS
 62
7
  6
CONTINUOUS
 10
57.1143326039
 20
95.0601750547
 40
2.0
 50
270.0
 51
360.0
  0
ARC
  8
1_AXIS
 62
7
  6
CONTINUOUS
 10
57.1143326039
 20
81.0601750547
 40
2.0
 50
0.0
 51
90.0
  0
ARC
  8
1_AXIS
 62
7
  6
CONTINUOUS
 10
61.1143326039
 20
77.5601750547
 40
2.0
 50
180.0
 51
270.0
  0
ENDSEC
  0
EOF
