  0
SECTION
  2
HEADER
  9
$EXTMAX
 10
210.0
 20
297.0
 30
0.0
  9
$EXTMIN
 10
0.0
 20
0.0
 30
0.0
  9
$LIMMIN
 10
0.0
 20
0.0
  9
$LIMMAX
 10
210.0
 20
297.0
  9
$VIEWCTR
 10
105.0
 20
148.5
  9
$VIEWSIZE
 40
297.0
  9
$CLAYER
  8
0
  9
$LTSCALE
 40
19.36
  9
$CELTYPE
  6
BYLAYER
  9
$DIMSCALE
 40
1.0
  9
$DIMASZ
 40
3.5
  9
$DIMEXO
 40
2.2
  9
$DIMDLI
 40
13.376
  9
$DIMEXE
 40
6.336
  9
$DIMCEN
 40
3.168
  9
$DIMLFAC
 40
1.0
  9
$DIMBLK
  1
_FILLED
  9
$DIMTXT
 40
3.5
  9
$PDMODE
 70
3
  9
$PDSIZE
 40
0.3125
  9
$TILEMODE
 70
1
  0
ENDSEC
  0
SECTION
  2
TABLES
  0
TABLE
  2
LTYPE
 70
6
  0
LTYPE
  2
BYBLOCK
 70
0
  3

 72
65
 73
0
 40
0.0
  0
LTYPE
  2
BYLAYER
 70
0
  3

 72
65
 73
0
 40
0.0
  0
LTYPE
  2
CONTINUOUS
 70
64
  3
Solid line
 72
65
 73
0
 40
0.0
  0
LTYPE
  2
CENTER
 70
64
  3
____ _ ____ _ ____ _ ____ _ ____ _ ____ _ ____
 72
65
 73
4
 40
0.6
 49
0.375
 49
-0.075
 49
0.075
 49
-0.075
  0
LTYPE
  2
HIDDEN
 70
64
  3
- - - - - - - - - - - - - - - - - - - -
 72
65
 73
2
 40
0.2
 49
0.1
 49
-0.1
  0
LTYPE
  2
PHANTOM
 70
64
  3
_____ _ _ _____ _ _ _____ _ _ _____
 72
65
 73
6
 40
0.8
 49
0.45
 49
-0.05
 49
0.1
 49
-0.05
 49
0.1
 49
-0.05
  0
LTYPE
  2
DOT
 70
64
  3
. . . . . . . . . . . . . . . . . . . .
 72
65
 73
2
 40
0.2
 49
0.1
 49
-0.1
  0
LTYPE
  2
DASHED
 70
64
  3
- - - - - - - - - - - - - - - - - - - -
 72
65
 73
2
 40
0.2
 49
0.1
 49
-0.1
  0
ENDTAB
  0
TABLE
  2
LAYER
 70
36
  0
LAYER
  2
0
 70
0
 62
7
  6
CONTINUOUS
  0
LAYER
  2
DEFAULT_1
 70
0
 62
7
  6
CENTER
  0
LAYER
  2
DEFAULT_2
 70
0
 62
8
  6
HIDDEN
  0
LAYER
  2
DEFAULT_3
 70
0
 62
7
  6
PHANTOM
  0
LAYER
  2
1_AXIS
 70
0
 62
7
  6
CONTINUOUS
  0
LAYER
  2
1_CSYS
 70
0
 62
7
  6
CONTINUOUS
  0
LAYER
  2
1_DATUM_PLANE
 70
0
 62
7
  6
CONTINUOUS
  0
LAYER
  2
2_FEATURE
 70
0
 62
7
  6
CONTINUOUS
  0
LAYER
  2
6_DIM
 70
0
 62
7
  6
CONTINUOUS
  0
LAYER
  2
AXES
 70
0
 62
7
  6
CONTINUOUS
  0
LAYER
  2
CSYS
 70
0
 62
7
  6
CONTINUOUS
  0
LAYER
  2
PLANES
 70
0
 62
7
  6
CONTINUOUS
  0
LAYER
  2
QUILTS
 70
0
 62
7
  6
CONTINUOUS
  0
LAYER
  2
SQ
 70
0
 62
7
  6
CONTINUOUS
  0
ENDTAB
  0
TABLE
  2
STYLE
 70
1
  0
STYLE
  2
STANDARD
 70
0
 40
0.0
 41
0.8
 50
0.0
 71
0
 42
0.2
  3
txt
  4

  0
STYLE
  2
TEXTSTYLE_1
 70
0
 40
0.0
 41
0.8
 50
0.0
 71
0
 42
0.2
  3
gdt
  4

  0
STYLE
  2
TEXTSTYLE_2
 70
0
 40
0.0
 41
0.6
 50
0.0
 71
0
 42
0.2
  3
txt
  4

  0
STYLE
  2
TEXTSTYLE_3
 70
0
 40
0.0
 41
1.0
 50
0.0
 71
0
 42
0.2
  3
ftb_____.ttf
  4

  0
STYLE
  2
TEXTSTYLE_4
 70
0
 40
0.0
 41
1.0
 50
0.0
 71
0
 42
0.2
  3
fti_____.ttf
  4

  0
STYLE
  2
TEXTSTYLE_5
 70
0
 40
0.0
 41
1.0
 50
0.0
 71
0
 42
0.2
  3
frutiger light.ttf
  4

  0
STYLE
  2
TEXTSTYLE_6
 70
0
 40
0.0
 41
0.7
 50
0.0
 71
0
 42
0.2
  3
txt
  4

  0
STYLE
  2
TEXTSTYLE_7
 70
0
 40
0.0
 41
0.8
 50
0.0
 71
0
 42
0.2
  3
txt
  4

  0
ENDTAB
  0
ENDSEC
  0
SECTION
  2
BLOCKS
  0
BLOCK
  8
0
 62
2
  6
CONTINUOUS
  2
SYMBOL_8_BL1
 70
64
 10
173.5956734183
 20
35.5937998301
  0
TEXT
  8
0
 62
7
  6
CONTINUOUS
 10
164.6539584268
 20
30.6865562072
  7
TEXTSTYLE_4
 40
1.0655737705
  1
The brand for plastic modular belts and chains
 41
1.0
 72
0
  0
LINE
  8
0
 62
7
  6
CONTINUOUS
 10
149.5737418074
 20
36.1675703219
 11
149.5737418074
 21
34.0364227809
  0
LINE
  8
0
 62
7
  6
CONTINUOUS
 10
149.8628043005
 20
31.0454914852
 11
149.8628043005
 21
31.1422825445
  0
LINE
  8
0
 62
7
  6
CONTINUOUS
 10
149.5737418074
 20
31.1100188581
 11
149.6315543091
 21
30.9164367395
  0
LINE
  8
0
 62
7
  6
CONTINUOUS
 10
150.9671844304
 20
33.9544555678
 11
150.9671844304
 21
36.1675703219
  0
LINE
  8
0
 62
7
  6
CONTINUOUS
 10
151.8862417523
 20
32.1101932727
 11
151.8862417523
 21
30.5937998301
  0
LINE
  8
0
 62
7
  6
CONTINUOUS
 10
152.1753043074
 20
30.5937998301
 11
152.1753043074
 21
31.3358647082
  0
LINE
  8
0
 62
7
  6
CONTINUOUS
 10
152.1753043074
 20
31.4649194539
 11
152.1753043074
 21
32.1101932727
  0
LINE
  8
0
 62
7
  6
CONTINUOUS
 10
149.6315543091
 20
31.3036010218
 11
149.5737418074
 21
31.1100188581
  0
LINE
  8
0
 62
7
  6
CONTINUOUS
 10
149.9784292936
 20
30.8841730531
 11
149.8628043005
 21
31.0454914852
  0
LINE
  8
0
 62
7
  6
CONTINUOUS
 10
151.0768668626
 20
31.400392081
 11
151.1346793074
 21
31.3036010218
  0
LINE
  8
0
 62
7
  6
CONTINUOUS
 10
151.4237418626
 20
31.3036010218
 11
151.3659292523
 21
31.4326557675
  0
LINE
  8
0
 62
7
  6
CONTINUOUS
 10
152.852430332
 20
36.1675703219
 11
152.852430332
 21
34.3642916334
  0
LINE
  8
0
 62
7
  6
CONTINUOUS
 10
152.852430332
 20
33.0528162235
 11
152.852430332
 21
32.3970785186
  0
LINE
  8
0
 62
7
  6
CONTINUOUS
 10
153.2159293074
 20
31.2390736489
 11
153.2159293074
 21
30.5937998301
  0
LINE
  8
0
 62
7
  6
CONTINUOUS
 10
153.5049916972
 20
30.5937998301
 11
153.5049916972
 21
31.2390736489
  0
LINE
  8
0
 62
7
  6
CONTINUOUS
 10
149.8628043005
 20
31.1422825445
 11
149.9206168074
 21
31.2713373354
  0
LINE
  8
0
 62
7
  6
CONTINUOUS
 10
149.6315543091
 20
30.9164367395
 11
149.7471793074
 21
30.7873819712
  0
LINE
  8
0
 62
7
  6
CONTINUOUS
 10
153.1581166972
 20
31.3681283946
 11
153.2159293074
 21
31.2390736489
  0
LINE
  8
0
 62
7
  6
CONTINUOUS
 10
153.9674919177
 20
30.8841730531
 11
154.0253041972
 21
30.7551182848
  0
LINE
  8
0
 62
7
  6
CONTINUOUS
 10
153.5049916972
 20
31.2390736489
 11
153.4471794177
 21
31.400392081
  0
LINE
  8
0
 62
7
  6
CONTINUOUS
 10
153.9674919177
 20
31.4326557675
 11
153.9674919177
 21
31.3681283946
  0
LINE
  8
0
 62
7
  6
CONTINUOUS
 10
153.9674919177
 20
30.9809641124
 11
153.9674919177
 21
30.8841730531
  0
LINE
  8
0
 62
7
  6
CONTINUOUS
 10
154.245872955
 20
32.3970785186
 11
154.245872955
 21
36.1675703219
  0
LINE
  8
0
 62
7
  6
CONTINUOUS
 10
154.2565543074
 20
30.8519093441
 11
154.2565543074
 21
30.9164367395
  0
LINE
  8
0
 62
7
  6
CONTINUOUS
 10
154.5737418074
 20
36.1675703219
 11
154.5737418074
 21
32.3970785186
  0
LINE
  8
0
 62
7
  6
CONTINUOUS
 10
151.3659292523
 20
30.7873819712
 11
151.4237418626
 21
30.9164367395
  0
LINE
  8
0
 62
7
  6
CONTINUOUS
 10
155.759679528
 20
30.6905909007
 11
155.7018665869
 21
30.8519093441
  0
LINE
  8
0
 62
7
  6
CONTINUOUS
 10
155.412804528
 20
31.3681283946
 11
155.412804528
 21
31.2713373354
  0
LINE
  8
0
 62
7
  6
CONTINUOUS
 10
155.412804528
 20
31.1422825445
 11
155.412804528
 21
30.9487004259
  0
LINE
  8
0
 62
7
  6
CONTINUOUS
 10
155.7018665869
 20
30.8519093441
 11
155.7018665869
 21
31.3681283946
  0
LINE
  8
0
 62
7
  6
CONTINUOUS
 10
155.9671844304
 20
32.3970785186
 11
155.9671844304
 21
34.2003572071
  0
LINE
  8
0
 62
7
  6
CONTINUOUS
 10
155.9671844304
 20
35.511832617
 11
155.9671844304
 21
36.1675703219
  0
LINE
  8
0
 62
7
  6
CONTINUOUS
 10
156.279992028
 20
32.1101932727
 11
156.279992028
 21
31.9488748406
  0
LINE
  8
0
 62
7
  6
CONTINUOUS
 10
156.279992028
 20
31.626237886
 11
156.279992028
 21
30.5937998301
  0
LINE
  8
0
 62
7
  6
CONTINUOUS
 10
156.5690540869
 20
30.5937998301
 11
156.5690540869
 21
31.626237886
  0
LINE
  8
0
 62
7
  6
CONTINUOUS
 10
156.5690540869
 20
31.9488748406
 11
156.5690540869
 21
32.1101932727
  0
LINE
  8
0
 62
7
  6
CONTINUOUS
 10
151.1346793074
 20
30.9164367395
 11
151.0768668626
 21
30.8196456577
  0
LINE
  8
0
 62
7
  6
CONTINUOUS
 10
153.4471794177
 20
31.400392081
 11
153.3893668074
 21
31.4649194539
  0
LINE
  8
0
 62
7
  6
CONTINUOUS
 10
154.3143669177
 20
30.7873819712
 11
154.2565543074
 21
30.8519093441
  0
LINE
  8
0
 62
7
  6
CONTINUOUS
 10
155.4706168074
 20
30.6583272086
 11
155.5284290869
 21
30.5937998301
  0
LINE
  8
0
 62
7
  6
CONTINUOUS
 10
155.412804528
 20
30.7551182848
 11
155.4706168074
 21
30.6583272086
  0
LINE
  8
0
 62
7
  6
CONTINUOUS
 10
155.8174918074
 20
30.5937998301
 11
155.759679528
 21
30.6905909007
  0
LINE
  8
0
 62
7
  6
CONTINUOUS
 10
155.7018665869
 20
31.3681283946
 11
155.6440543074
 21
31.4649194539
  0
LINE
  8
0
 62
7
  6
CONTINUOUS
 10
157.0315543074
 20
31.626237886
 11
157.0315543074
 21
30.5937998301
  0
LINE
  8
0
 62
7
  6
CONTINUOUS
 10
157.320617028
 20
30.5937998301
 11
157.320617028
 21
31.3358647082
  0
LINE
  8
0
 62
7
  6
CONTINUOUS
 10
157.320617028
 20
31.4649194539
 11
157.320617028
 21
31.626237886
  0
LINE
  8
0
 62
7
  6
CONTINUOUS
 10
157.852430332
 20
34.6101932727
 11
157.852430332
 21
32.3970785186
  0
LINE
  8
0
 62
7
  6
CONTINUOUS
 10
149.7471793074
 20
31.4326557675
 11
149.6315543091
 21
31.3036010218
  0
LINE
  8
0
 62
7
  6
CONTINUOUS
 10
149.9206168074
 20
31.2713373354
 11
149.9784292936
 21
31.3358647082
  0
LINE
  8
0
 62
7
  6
CONTINUOUS
 10
149.7471793074
 20
30.7873819712
 11
149.8628043005
 21
30.7228545871
  0
LINE
  8
0
 62
7
  6
CONTINUOUS
 10
150.1518667936
 20
30.7873819712
 11
149.9784292936
 21
30.8841730531
  0
LINE
  8
0
 62
7
  6
CONTINUOUS
 10
155.3549915869
 20
31.4326557675
 11
155.412804528
 21
31.3681283946
  0
LINE
  8
0
 62
7
  6
CONTINUOUS
 10
158.3034290869
 20
31.3681283946
 11
158.361242028
 21
31.2068099625
  0
LINE
  8
0
 62
7
  6
CONTINUOUS
 10
158.6503040869
 20
31.2068099625
 11
158.5924918074
 21
31.3681283946
  0
LINE
  8
0
 62
7
  6
CONTINUOUS
 10
158.361242028
 20
31.2068099625
 11
158.361242028
 21
30.5937998301
  0
LINE
  8
0
 62
7
  6
CONTINUOUS
 10
158.6503040869
 20
30.5937998301
 11
158.6503040869
 21
31.2068099625
  0
LINE
  8
0
 62
7
  6
CONTINUOUS
 10
159.1128043074
 20
31.4326557675
 11
159.1128043074
 21
31.3681283946
  0
LINE
  8
0
 62
7
  6
CONTINUOUS
 10
159.245872955
 20
32.3970785186
 11
159.245872955
 21
34.5282260596
  0
LINE
  8
0
 62
7
  6
CONTINUOUS
 10
159.5737418074
 20
36.1675703219
 11
159.5737418074
 21
32.3970785186
  0
LINE
  8
0
 62
7
  6
CONTINUOUS
 10
154.2565543074
 20
30.9164367395
 11
154.3143669177
 21
31.0132277988
  0
LINE
  8
0
 62
7
  6
CONTINUOUS
 10
149.8628043005
 20
30.7228545871
 11
150.0362418212
 21
30.6583272086
  0
LINE
  8
0
 62
7
  6
CONTINUOUS
 10
151.3659292523
 20
31.4326557675
 11
151.1924917523
 21
31.5294468267
  0
LINE
  8
0
 62
7
  6
CONTINUOUS
 10
154.0253041972
 20
30.7551182848
 11
154.1987416972
 21
30.6583272086
  0
LINE
  8
0
 62
7
  6
CONTINUOUS
 10
153.0424918074
 20
31.4326557675
 11
153.1581166972
 21
31.3681283946
  0
LINE
  8
0
 62
7
  6
CONTINUOUS
 10
153.3893668074
 20
31.4649194539
 11
153.2737419177
 21
31.5294468267
  0
LINE
  8
0
 62
7
  6
CONTINUOUS
 10
159.1128043074
 20
30.8519093441
 11
159.228429528
 21
30.7228545871
  0
LINE
  8
0
 62
7
  6
CONTINUOUS
 10
159.4596793074
 20
30.7873819712
 11
159.401867028
 21
30.8519093441
  0
LINE
  8
0
 62
7
  6
CONTINUOUS
 10
159.1128043074
 20
31.3681283946
 11
159.228429528
 21
31.2390736489
  0
LINE
  8
0
 62
7
  6
CONTINUOUS
 10
158.5924918074
 20
31.3681283946
 11
158.534679528
 21
31.4649194539
  0
LINE
  8
0
 62
7
  6
CONTINUOUS
 10
160.9628038663
 20
30.7873819712
 11
160.9628038663
 21
30.8519093441
  0
LINE
  8
0
 62
7
  6
CONTINUOUS
 10
160.9671844304
 20
32.3970785186
 11
160.9671844304
 21
36.1675703219
  0
LINE
  8
0
 62
7
  6
CONTINUOUS
 10
154.0253041972
 20
31.4971831403
 11
153.9674919177
 21
31.4326557675
  0
LINE
  8
0
 62
7
  6
CONTINUOUS
 10
150.9034292799
 20
31.4649194539
 11
151.0768668626
 21
31.400392081
  0
LINE
  8
0
 62
7
  6
CONTINUOUS
 10
155.6440543074
 20
31.4649194539
 11
155.5284290869
 21
31.5294468267
  0
LINE
  8
0
 62
7
  6
CONTINUOUS
 10
159.4596793074
 20
31.3036010218
 11
159.401867028
 21
31.3681283946
  0
LINE
  8
0
 62
7
  6
CONTINUOUS
 10
160.615929528
 20
30.9164367395
 11
160.6737418074
 21
30.8519093441
  0
LINE
  8
0
 62
7
  6
CONTINUOUS
 10
160.9628038663
 20
30.8519093441
 11
160.8471793074
 21
30.9809641124
  0
LINE
  8
0
 62
7
  6
CONTINUOUS
 10
160.615929528
 20
31.4326557675
 11
160.6737418074
 21
31.3681283946
  0
LINE
  8
0
 62
7
  6
CONTINUOUS
 10
160.9628038663
 20
31.3681283946
 11
160.8471793074
 21
31.4971831403
  0
LINE
  8
0
 62
7
  6
CONTINUOUS
 10
154.2565543074
 20
31.3681283946
 11
154.3143669177
 21
31.4326557675
  0
LINE
  8
0
 62
7
  6
CONTINUOUS
 10
154.0831168074
 20
31.1100188581
 11
153.9674919177
 21
30.9809641124
  0
LINE
  8
0
 62
7
  6
CONTINUOUS
 10
155.412804528
 20
30.9487004259
 11
155.3549915869
 21
30.8841730531
  0
LINE
  8
0
 62
7
  6
CONTINUOUS
 10
155.3549915869
 20
30.6905909007
 11
155.412804528
 21
30.7551182848
  0
LINE
  8
0
 62
7
  6
CONTINUOUS
 10
154.1987416972
 20
30.6583272086
 11
154.3143669177
 21
30.6260635193
  0
LINE
  8
0
 62
7
  6
CONTINUOUS
 10
151.1924917523
 20
31.5294468267
 11
150.9612418074
 21
31.5939741996
  0
LINE
  8
0
 62
7
  6
CONTINUOUS
 10
154.5456166972
 20
30.7228545871
 11
154.3143669177
 21
30.7873819712
  0
LINE
  8
0
 62
7
  6
CONTINUOUS
 10
153.2737419177
 20
31.5294468267
 11
153.1003044177
 21
31.5939741996
  0
LINE
  8
0
 62
7
  6
CONTINUOUS
 10
155.5284290869
 20
31.5294468267
 11
155.3549915869
 21
31.5939741996
  0
LINE
  8
0
 62
7
  6
CONTINUOUS
 10
158.187804528
 20
31.4326557675
 11
158.3034290869
 21
31.3681283946
  0
LINE
  8
0
 62
7
  6
CONTINUOUS
 10
158.534679528
 20
31.4649194539
 11
158.4190543074
 21
31.5294468267
  0
LINE
  8
0
 62
7
  6
CONTINUOUS
 10
150.0362418212
 20
30.6583272086
 11
150.2096793212
 21
30.6260635193
  0
LINE
  8
0
 62
7
  6
CONTINUOUS
 10
150.498741835
 20
30.7228545871
 11
150.1518667936
 21
30.7873819712
  0
LINE
  8
0
 62
7
  6
CONTINUOUS
 10
152.9268669177
 20
31.4649194539
 11
153.0424918074
 21
31.4326557675
  0
LINE
  8
0
 62
7
  6
CONTINUOUS
 10
155.239367028
 20
31.4649194539
 11
155.3549915869
 21
31.4326557675
  0
LINE
  8
0
 62
7
  6
CONTINUOUS
 10
159.575304528
 20
30.7551182848
 11
159.4596793074
 21
30.7873819712
  0
LINE
  8
0
 62
7
  6
CONTINUOUS
 10
158.0721793074
 20
31.4649194539
 11
158.187804528
 21
31.4326557675
  0
LINE
  8
0
 62
7
  6
CONTINUOUS
 10
159.228429528
 20
30.7228545871
 11
159.401867028
 21
30.6583272086
  0
LINE
  8
0
 62
7
  6
CONTINUOUS
 10
158.4190543074
 20
31.5294468267
 11
158.2456168074
 21
31.5939741996
  0
LINE
  8
0
 62
7
  6
CONTINUOUS
 10
159.6331168074
 20
31.2390736489
 11
159.4596793074
 21
31.3036010218
  0
LINE
  8
0
 62
7
  6
CONTINUOUS
 10
160.442492028
 20
30.9809641124
 11
160.615929528
 21
30.9164367395
  0
LINE
  8
0
 62
7
  6
CONTINUOUS
 10
160.8471793074
 20
31.4971831403
 11
160.6737418074
 21
31.5617105132
  0
LINE
  8
0
 62
7
  6
CONTINUOUS
 10
159.228429528
 20
31.2390736489
 11
159.4596793074
 21
31.1422825445
  0
LINE
  8
0
 62
7
  6
CONTINUOUS
 10
160.8471793074
 20
30.9809641124
 11
160.615929528
 21
31.0777551716
  0
LINE
  8
0
 62
7
  6
CONTINUOUS
 10
159.401867028
 20
31.3681283946
 11
159.4596793074
 21
31.4326557675
  0
LINE
  8
0
 62
7
  6
CONTINUOUS
 10
149.8628043005
 20
31.4971831403
 11
149.7471793074
 21
31.4326557675
  0
LINE
  8
0
 62
7
  6
CONTINUOUS
 10
149.9784292936
 20
31.3358647082
 11
150.1518667936
 21
31.4326557675
  0
LINE
  8
0
 62
7
  6
CONTINUOUS
 10
152.2909293626
 20
31.5294468267
 11
152.1753043074
 21
31.4649194539
  0
LINE
  8
0
 62
7
  6
CONTINUOUS
 10
152.1753043074
 20
31.3358647082
 11
152.2909293626
 21
31.400392081
  0
LINE
  8
0
 62
7
  6
CONTINUOUS
 10
151.1924917523
 20
30.6905909007
 11
151.3659292523
 21
30.7873819712
  0
LINE
  8
0
 62
7
  6
CONTINUOUS
 10
150.2096793212
 20
30.6260635193
 11
150.5565542799
 21
30.5937998301
  0
LINE
  8
0
 62
7
  6
CONTINUOUS
 10
154.3143669177
 20
30.6260635193
 11
154.5456166972
 21
30.5937998301
  0
LINE
  8
0
 62
7
  6
CONTINUOUS
 10
152.6956168074
 20
31.4971831403
 11
152.9268669177
 21
31.4649194539
  0
LINE
  8
0
 62
7
  6
CONTINUOUS
 10
155.0081169177
 20
31.4971831403
 11
155.239367028
 21
31.4649194539
  0
LINE
  8
0
 62
7
  6
CONTINUOUS
 10
159.4596793074
 20
31.1422825445
 11
160.442492028
 21
30.9809641124
  0
LINE
  8
0
 62
7
  6
CONTINUOUS
 10
160.615929528
 20
31.0777551716
 11
159.6331168074
 21
31.2390736489
  0
LINE
  8
0
 62
7
  6
CONTINUOUS
 10
153.1003044177
 20
31.5939741996
 11
152.9268669177
 21
31.626237886
  0
LINE
  8
0
 62
7
  6
CONTINUOUS
 10
159.401867028
 20
30.6583272086
 11
159.575304528
 21
30.6260635193
  0
LINE
  8
0
 62
7
  6
CONTINUOUS
 10
158.2456168074
 20
31.5939741996
 11
158.0721793074
 21
31.626237886
  0
LINE
  8
0
 62
7
  6
CONTINUOUS
 10
160.5003043074
 20
31.4649194539
 11
160.615929528
 21
31.4326557675
  0
LINE
  8
0
 62
7
  6
CONTINUOUS
 10
160.6737418074
 20
30.8519093441
 11
160.615929528
 21
30.7873819712
  0
LINE
  8
0
 62
7
  6
CONTINUOUS
 10
159.228429528
 20
31.5294468267
 11
159.1128043074
 21
31.4326557675
  0
LINE
  8
0
 62
7
  6
CONTINUOUS
 10
154.1409294177
 20
31.5617105132
 11
154.0253041972
 21
31.4971831403
  0
LINE
  8
0
 62
7
  6
CONTINUOUS
 10
154.1987416972
 20
31.1745462761
 11
154.0831168074
 21
31.1100188581
  0
LINE
  8
0
 62
7
  6
CONTINUOUS
 10
154.3143669177
 20
31.0132277988
 11
154.4299918074
 21
31.0777551716
  0
LINE
  8
0
 62
7
  6
CONTINUOUS
 10
151.8862417523
 20
30.5937998301
 11
152.1753043074
 21
30.5937998301
  0
LINE
  8
0
 62
7
  6
CONTINUOUS
 10
153.2159293074
 20
30.5937998301
 11
153.5049916972
 21
30.5937998301
  0
LINE
  8
0
 62
7
  6
CONTINUOUS
 10
154.5456166972
 20
30.5937998301
 11
154.8924916972
 21
30.5937998301
  0
LINE
  8
0
 62
7
  6
CONTINUOUS
 10
155.5284290869
 20
30.5937998301
 11
155.8174918074
 21
30.5937998301
  0
LINE
  8
0
 62
7
  6
CONTINUOUS
 10
156.279992028
 20
30.5937998301
 11
156.5690540869
 21
30.5937998301
  0
LINE
  8
0
 62
7
  6
CONTINUOUS
 10
157.0315543074
 20
30.5937998301
 11
157.320617028
 21
30.5937998301
  0
LINE
  8
0
 62
7
  6
CONTINUOUS
 10
158.361242028
 20
30.5937998301
 11
158.6503040869
 21
30.5937998301
  0
LINE
  8
0
 62
7
  6
CONTINUOUS
 10
159.922179528
 20
30.5937998301
 11
160.269054528
 21
30.5937998301
  0
LINE
  8
0
 62
7
  6
CONTINUOUS
 10
160.269054528
 20
30.7228545871
 11
159.922179528
 21
30.7228545871
  0
LINE
  8
0
 62
7
  6
CONTINUOUS
 10
154.8924916972
 20
30.7228545871
 11
154.5456166972
 21
30.7228545871
  0
LINE
  8
0
 62
7
  6
CONTINUOUS
 10
159.401867028
 20
30.8519093441
 11
159.1128043074
 21
30.8519093441
  0
LINE
  8
0
 62
7
  6
CONTINUOUS
 10
151.4237418626
 20
30.9164367395
 11
151.1346793074
 21
30.9164367395
  0
LINE
  8
0
 62
7
  6
CONTINUOUS
 10
150.498741835
 20
31.4971831403
 11
150.9034292799
 21
31.4649194539
  0
LINE
  8
0
 62
7
  6
CONTINUOUS
 10
150.9612418074
 20
31.5939741996
 11
150.5565542799
 21
31.626237886
  0
LINE
  8
0
 62
7
  6
CONTINUOUS
 10
159.575304528
 20
30.6260635193
 11
159.922179528
 21
30.5937998301
  0
LINE
  8
0
 62
7
  6
CONTINUOUS
 10
159.922179528
 20
30.7228545871
 11
159.575304528
 21
30.7551182848
  0
LINE
  8
0
 62
7
  6
CONTINUOUS
 10
155.3549915869
 20
31.5939741996
 11
155.0081169177
 21
31.626237886
  0
LINE
  8
0
 62
7
  6
CONTINUOUS
 10
160.1534293074
 20
31.4971831403
 11
160.5003043074
 21
31.4649194539
  0
LINE
  8
0
 62
7
  6
CONTINUOUS
 10
160.5003043074
 20
31.5939741996
 11
160.1534293074
 21
31.626237886
  0
LINE
  8
0
 62
7
  6
CONTINUOUS
 10
157.840929528
 20
31.4971831403
 11
158.0721793074
 21
31.4649194539
  0
LINE
  8
0
 62
7
  6
CONTINUOUS
 10
160.6737418074
 20
31.5617105132
 11
160.5003043074
 21
31.5939741996
  0
LINE
  8
0
 62
7
  6
CONTINUOUS
 10
160.8471793074
 20
30.6905909007
 11
160.9628038663
 21
30.7873819712
  0
LINE
  8
0
 62
7
  6
CONTINUOUS
 10
155.3549915869
 20
30.8841730531
 11
155.1815540869
 21
30.7873819712
  0
LINE
  8
0
 62
7
  6
CONTINUOUS
 10
157.4362415869
 20
31.5294468267
 11
157.320617028
 21
31.4649194539
  0
LINE
  8
0
 62
7
  6
CONTINUOUS
 10
157.320617028
 20
31.3358647082
 11
157.4362415869
 21
31.400392081
  0
LINE
  8
0
 62
7
  6
CONTINUOUS
 10
150.0362418212
 20
31.5617105132
 11
149.8628043005
 21
31.4971831403
  0
LINE
  8
0
 62
7
  6
CONTINUOUS
 10
152.4643666972
 20
31.5939741996
 11
152.2909293626
 21
31.5294468267
  0
LINE
  8
0
 62
7
  6
CONTINUOUS
 10
152.2909293626
 20
31.400392081
 11
152.4643666972
 21
31.4649194539
  0
LINE
  8
0
 62
7
  6
CONTINUOUS
 10
151.0768668626
 20
30.8196456577
 11
150.9034292799
 21
30.7551182848
  0
LINE
  8
0
 62
7
  6
CONTINUOUS
 10
160.5003043074
 20
30.7551182848
 11
160.269054528
 21
30.7228545871
  0
LINE
  8
0
 62
7
  6
CONTINUOUS
 10
154.8924916972
 20
30.5937998301
 11
155.1815540869
 21
30.6260635193
  0
LINE
  8
0
 62
7
  6
CONTINUOUS
 10
160.269054528
 20
30.5937998301
 11
160.615929528
 21
30.6260635193
  0
LINE
  8
0
 62
7
  6
CONTINUOUS
 10
150.5565542799
 20
30.5937998301
 11
150.9612418074
 21
30.6260635193
  0
LINE
  8
0
 62
7
  6
CONTINUOUS
 10
150.9034292799
 20
30.7551182848
 11
150.498741835
 21
30.7228545871
  0
LINE
  8
0
 62
7
  6
CONTINUOUS
 10
154.7768668074
 20
31.1422825445
 11
155.412804528
 21
31.1422825445
  0
LINE
  8
0
 62
7
  6
CONTINUOUS
 10
155.412804528
 20
31.2713373354
 11
154.7768668074
 21
31.2713373354
  0
LINE
  8
0
 62
7
  6
CONTINUOUS
 10
151.1346793074
 20
31.3036010218
 11
151.4237418626
 21
31.3036010218
  0
LINE
  8
0
 62
7
  6
CONTINUOUS
 10
153.9674919177
 20
31.3681283946
 11
154.2565543074
 21
31.3681283946
  0
LINE
  8
0
 62
7
  6
CONTINUOUS
 10
160.6737418074
 20
31.3681283946
 11
160.9628038663
 21
31.3681283946
  0
LINE
  8
0
 62
7
  6
CONTINUOUS
 10
154.6612419177
 20
31.4971831403
 11
155.0081169177
 21
31.4971831403
  0
LINE
  8
0
 62
7
  6
CONTINUOUS
 10
159.8065543074
 20
31.4971831403
 11
160.1534293074
 21
31.4971831403
  0
LINE
  8
0
 62
7
  6
CONTINUOUS
 10
160.1534293074
 20
31.626237886
 11
159.8065543074
 21
31.626237886
  0
LINE
  8
0
 62
7
  6
CONTINUOUS
 10
158.0721793074
 20
31.626237886
 11
157.840929528
 21
31.626237886
  0
LINE
  8
0
 62
7
  6
CONTINUOUS
 10
157.320617028
 20
31.626237886
 11
157.0315543074
 21
31.626237886
  0
LINE
  8
0
 62
7
  6
CONTINUOUS
 10
156.5690540869
 20
31.626237886
 11
156.279992028
 21
31.626237886
  0
LINE
  8
0
 62
7
  6
CONTINUOUS
 10
155.0081169177
 20
31.626237886
 11
154.6612419177
 21
31.626237886
  0
LINE
  8
0
 62
7
  6
CONTINUOUS
 10
152.9268669177
 20
31.626237886
 11
152.6956168074
 21
31.626237886
  0
LINE
  8
0
 62
7
  6
CONTINUOUS
 10
156.279992028
 20
31.9488748406
 11
156.5690540869
 21
31.9488748406
  0
LINE
  8
0
 62
7
  6
CONTINUOUS
 10
156.5690540869
 20
32.1101932727
 11
156.279992028
 21
32.1101932727
  0
LINE
  8
0
 62
7
  6
CONTINUOUS
 10
152.1753043074
 20
32.1101932727
 11
151.8862417523
 21
32.1101932727
  0
LINE
  8
0
 62
7
  6
CONTINUOUS
 10
151.2130860697
 20
32.3970785186
 11
151.6256574183
 21
32.3970785186
  0
LINE
  8
0
 62
7
  6
CONTINUOUS
 10
152.852430332
 20
32.3970785186
 11
154.245872955
 21
32.3970785186
  0
LINE
  8
0
 62
7
  6
CONTINUOUS
 10
154.5737418074
 20
32.3970785186
 11
155.9671844304
 21
32.3970785186
  0
LINE
  8
0
 62
7
  6
CONTINUOUS
 10
157.852430332
 20
32.3970785186
 11
159.245872955
 21
32.3970785186
  0
LINE
  8
0
 62
7
  6
CONTINUOUS
 10
159.5737418074
 20
32.3970785186
 11
160.9671844304
 21
32.3970785186
  0
LINE
  8
0
 62
7
  6
CONTINUOUS
 10
157.6096790869
 20
31.5939741996
 11
157.4362415869
 21
31.5294468267
  0
LINE
  8
0
 62
7
  6
CONTINUOUS
 10
155.1815540869
 20
30.6260635193
 11
155.3549915869
 21
30.6905909007
  0
LINE
  8
0
 62
7
  6
CONTINUOUS
 10
160.615929528
 20
30.6260635193
 11
160.8471793074
 21
30.6905909007
  0
LINE
  8
0
 62
7
  6
CONTINUOUS
 10
160.615929528
 20
30.7873819712
 11
160.5003043074
 21
30.7551182848
  0
LINE
  8
0
 62
7
  6
CONTINUOUS
 10
159.575304528
 20
31.4649194539
 11
159.8065543074
 21
31.4971831403
  0
LINE
  8
0
 62
7
  6
CONTINUOUS
 10
157.6096790869
 20
31.4649194539
 11
157.840929528
 21
31.4971831403
  0
LINE
  8
0
 62
7
  6
CONTINUOUS
 10
154.5456166972
 20
31.1100188581
 11
154.7768668074
 21
31.1422825445
  0
LINE
  8
0
 62
7
  6
CONTINUOUS
 10
157.840929528
 20
31.626237886
 11
157.6096790869
 21
31.5939741996
  0
LINE
  8
0
 62
7
  6
CONTINUOUS
 10
154.4299918074
 20
31.4649194539
 11
154.6612419177
 21
31.4971831403
  0
LINE
  8
0
 62
7
  6
CONTINUOUS
 10
159.8065543074
 20
31.626237886
 11
159.4596793074
 21
31.5939741996
  0
LINE
  8
0
 62
7
  6
CONTINUOUS
 10
154.7768668074
 20
31.2713373354
 11
154.4299918074
 21
31.2390736489
  0
LINE
  8
0
 62
7
  6
CONTINUOUS
 10
150.5565542799
 20
31.626237886
 11
150.2096793212
 21
31.5939741996
  0
LINE
  8
0
 62
7
  6
CONTINUOUS
 10
154.6612419177
 20
31.626237886
 11
154.2565543074
 21
31.5939741996
  0
LINE
  8
0
 62
7
  6
CONTINUOUS
 10
152.0327582009
 20
33.5446195022
 11
151.3770204959
 21
33.5446195022
  0
LINE
  8
0
 62
7
  6
CONTINUOUS
 10
157.4362415869
 20
31.400392081
 11
157.6096790869
 21
31.4649194539
  0
LINE
  8
0
 62
7
  6
CONTINUOUS
 10
159.4596793074
 20
31.4326557675
 11
159.575304528
 21
31.4649194539
  0
LINE
  8
0
 62
7
  6
CONTINUOUS
 10
159.4596793074
 20
31.5939741996
 11
159.228429528
 21
31.5294468267
  0
LINE
  8
0
 62
7
  6
CONTINUOUS
 10
155.1815540869
 20
30.7873819712
 11
154.8924916972
 21
30.7228545871
  0
LINE
  8
0
 62
7
  6
CONTINUOUS
 10
152.4643666972
 20
31.4649194539
 11
152.6956168074
 21
31.4971831403
  0
LINE
  8
0
 62
7
  6
CONTINUOUS
 10
152.6956168074
 20
31.626237886
 11
152.4643666972
 21
31.5939741996
  0
LINE
  8
0
 62
7
  6
CONTINUOUS
 10
150.2674918074
 20
31.4649194539
 11
150.498741835
 21
31.4971831403
  0
LINE
  8
0
 62
7
  6
CONTINUOUS
 10
156.7868565615
 20
35.0200293383
 11
157.4425942664
 21
35.0200293383
  0
LINE
  8
0
 62
7
  6
CONTINUOUS
 10
154.4299918074
 20
31.0777551716
 11
154.5456166972
 21
31.1100188581
  0
LINE
  8
0
 62
7
  6
CONTINUOUS
 10
154.4299918074
 20
31.2390736489
 11
154.1987416972
 21
31.1745462761
  0
LINE
  8
0
 62
7
  6
CONTINUOUS
 10
154.3143669177
 20
31.4326557675
 11
154.4299918074
 21
31.4649194539
  0
LINE
  8
0
 62
7
  6
CONTINUOUS
 10
150.9612418074
 20
30.6260635193
 11
151.1924917523
 21
30.6905909007
  0
LINE
  8
0
 62
7
  6
CONTINUOUS
 10
154.2565543074
 20
31.5939741996
 11
154.1409294177
 21
31.5617105132
  0
LINE
  8
0
 62
7
  6
CONTINUOUS
 10
150.2096793212
 20
31.5939741996
 11
150.0362418212
 21
31.5617105132
  0
LINE
  8
0
 62
7
  6
CONTINUOUS
 10
160.9671844304
 20
36.1675703219
 11
159.5737418074
 21
36.1675703219
  0
LINE
  8
0
 62
7
  6
CONTINUOUS
 10
157.6065286927
 20
36.1675703219
 11
157.1939573441
 21
36.1675703219
  0
LINE
  8
0
 62
7
  6
CONTINUOUS
 10
155.9671844304
 20
36.1675703219
 11
154.5737418074
 21
36.1675703219
  0
LINE
  8
0
 62
7
  6
CONTINUOUS
 10
154.245872955
 20
36.1675703219
 11
152.852430332
 21
36.1675703219
  0
LINE
  8
0
 62
7
  6
CONTINUOUS
 10
150.9671844304
 20
36.1675703219
 11
149.5737418074
 21
36.1675703219
  0
LINE
  8
0
 62
7
  6
CONTINUOUS
 10
150.1518667936
 20
31.4326557675
 11
150.2674918074
 21
31.4649194539
  0
CIRCLE
  8
0
 62
7
  6
CONTINUOUS
 10
160.2704631189
 20
38.5036358957
 40
2.0901639344
  0
ARC
  8
0
 62
7
  6
CONTINUOUS
 10
151.2130860697
 20
34.0364227809
 40
1.6393442623
 50
180.0
 51
270.0
  0
ARC
  8
0
 62
7
  6
CONTINUOUS
 10
157.6065286927
 20
34.5282260596
 40
1.6393442623
 50
0.0
 51
90.0
  0
ARC
  8
0
 62
7
  6
CONTINUOUS
 10
151.6256574183
 20
33.8724883547
 40
1.4754098361
 50
270.0
 51
326.2510114041
  0
ARC
  8
0
 62
7
  6
CONTINUOUS
 10
157.1939573441
 20
34.6921604858
 40
1.4754098361
 50
90.0
 51
146.2510114041
  0
ARC
  8
0
 62
7
  6
CONTINUOUS
 10
152.0327582009
 20
34.3642916334
 40
0.8196721311
 50
270.0
 51
360.0
  0
ARC
  8
0
 62
7
  6
CONTINUOUS
 10
156.7868565615
 20
34.2003572071
 40
0.8196721311
 50
90.0
 51
180.0
  0
ARC
  8
0
 62
7
  6
CONTINUOUS
 10
151.3770204959
 20
33.9544555678
 40
0.4098360656
 50
180.0
 51
270.0
  0
ARC
  8
0
 62
7
  6
CONTINUOUS
 10
157.4425942664
 20
34.6101932727
 40
0.4098360656
 50
0.0
 51
90.0
  0
SOLID
  8
0
 62
7
  6
CONTINUOUS
 10
156.279992028
 20
31.9488752009
 11
156.279992028
 21
32.1101936845
 12
156.5690540869
 22
31.9488752009
 13
156.5690540869
 23
32.1101936845
  0
SOLID
  8
0
 62
7
  6
CONTINUOUS
 10
150.5565542799
 20
31.6262382337
 11
150.9612418074
 21
31.5939740028
 12
150.2096793212
 22
31.5939740028
 13
150.2096793212
 23
31.5939740028
  0
SOLID
  8
0
 62
7
  6
CONTINUOUS
 10
150.0362418212
 20
31.5617111435
 11
150.2096793212
 21
31.5939740028
 12
150.9612418074
 22
31.5939740028
 13
150.9612418074
 23
31.5939740028
  0
SOLID
  8
0
 62
7
  6
CONTINUOUS
 10
150.9612418074
 20
31.5939740028
 11
151.1924917523
 21
31.5294468402
 12
150.0362418212
 22
31.5617111435
 13
150.0362418212
 23
31.5617111435
  0
SOLID
  8
0
 62
7
  6
CONTINUOUS
 10
149.8628043005
 20
31.49718259
 11
150.0362418212
 21
31.5617111435
 12
151.1924917523
 22
31.5294468402
 13
151.1924917523
 23
31.5294468402
  0
SOLID
  8
0
 62
7
  6
CONTINUOUS
 10
149.8628043005
 20
31.49718259
 11
151.1924917523
 21
31.5294468402
 12
150.498741835
 22
31.49718259
 13
150.498741835
 23
31.49718259
  0
SOLID
  8
0
 62
7
  6
CONTINUOUS
 10
150.498741835
 20
31.49718259
 11
151.1924917523
 21
31.5294468402
 12
150.9034292799
 22
31.4649197501
 13
150.9034292799
 23
31.4649197501
  0
SOLID
  8
0
 62
7
  6
CONTINUOUS
 10
151.1924917523
 20
31.5294468402
 11
151.3659292523
 21
31.4326554468
 12
150.9034292799
 22
31.4649197501
 13
150.9034292799
 23
31.4649197501
  0
SOLID
  8
0
 62
7
  6
CONTINUOUS
 10
151.0768668626
 20
31.4003926599
 11
150.9034292799
 21
31.4649197501
 12
151.3659292523
 22
31.4326554468
 13
151.3659292523
 23
31.4326554468
  0
SOLID
  8
0
 62
7
  6
CONTINUOUS
 10
151.0768668626
 20
31.4003926599
 11
151.3659292523
 21
31.4326554468
 12
151.1346793074
 22
31.3036013776
 13
151.1346793074
 23
31.3036013776
  0
SOLID
  8
0
 62
7
  6
CONTINUOUS
 10
151.3659292523
 20
31.4326554468
 11
151.4237418626
 21
31.3036013776
 12
151.1346793074
 22
31.3036013776
 13
151.1346793074
 23
31.3036013776
  0
SOLID
  8
0
 62
7
  6
CONTINUOUS
 10
152.4643666972
 20
31.5939739754
 11
152.6956168074
 21
31.6262382787
 12
152.9268669177
 22
31.6262382787
 13
152.9268669177
 23
31.6262382787
  0
SOLID
  8
0
 62
7
  6
CONTINUOUS
 10
152.9268669177
 20
31.6262382787
 11
153.1003044177
 21
31.5939739754
 12
152.4643666972
 22
31.5939739754
 13
152.4643666972
 23
31.5939739754
  0
SOLID
  8
0
 62
7
  6
CONTINUOUS
 10
152.2909293626
 20
31.5294468852
 11
152.4643666972
 21
31.5939739754
 12
153.1003044177
 22
31.5939739754
 13
153.1003044177
 23
31.5939739754
  0
SOLID
  8
0
 62
7
  6
CONTINUOUS
 10
153.1003044177
 20
31.5939739754
 11
153.2737419177
 21
31.5294468852
 12
152.2909293626
 22
31.5294468852
 13
152.2909293626
 23
31.5294468852
  0
SOLID
  8
0
 62
7
  6
CONTINUOUS
 10
153.2737419177
 20
31.5294468852
 11
152.6956168074
 21
31.4971825369
 12
152.2909293626
 22
31.5294468852
 13
152.2909293626
 23
31.5294468852
  0
SOLID
  8
0
 62
7
  6
CONTINUOUS
 10
152.1753043074
 20
31.4649197951
 11
152.2909293626
 21
31.5294468852
 12
152.6956168074
 22
31.4971825369
 13
152.6956168074
 23
31.4971825369
  0
SOLID
  8
0
 62
7
  6
CONTINUOUS
 10
152.6956168074
 20
31.4971825369
 11
152.4643666972
 21
31.4649197951
 12
152.1753043074
 22
31.4649197951
 13
152.1753043074
 23
31.4649197951
  0
SOLID
  8
0
 62
7
  6
CONTINUOUS
 10
152.6956168074
 20
31.4971825369
 11
153.2737419177
 21
31.5294468852
 12
152.9268669177
 22
31.4649197951
 13
152.9268669177
 23
31.4649197951
  0
SOLID
  8
0
 62
7
  6
CONTINUOUS
 10
153.2737419177
 20
31.5294468852
 11
153.3893668074
 21
31.4649197951
 12
152.9268669177
 22
31.4649197951
 13
152.9268669177
 23
31.4649197951
  0
SOLID
  8
0
 62
7
  6
CONTINUOUS
 10
153.0424918074
 20
31.4326554468
 11
152.9268669177
 21
31.4649197951
 12
153.3893668074
 22
31.4649197951
 13
153.3893668074
 23
31.4649197951
  0
SOLID
  8
0
 62
7
  6
CONTINUOUS
 10
153.3893668074
 20
31.4649197951
 11
153.4471794177
 21
31.4003927049
 12
153.0424918074
 22
31.4326554468
 13
153.0424918074
 23
31.4326554468
  0
SOLID
  8
0
 62
7
  6
CONTINUOUS
 10
153.1581166972
 20
31.3681283566
 11
153.0424918074
 21
31.4326554468
 12
153.4471794177
 22
31.4003927049
 13
153.4471794177
 23
31.4003927049
  0
SOLID
  8
0
 62
7
  6
CONTINUOUS
 10
153.1581166972
 20
31.3681283566
 11
153.4471794177
 21
31.4003927049
 12
153.2159293074
 22
31.2390742213
 13
153.2159293074
 23
31.2390742213
  0
SOLID
  8
0
 62
7
  6
CONTINUOUS
 10
153.4471794177
 20
31.4003927049
 11
153.5049916972
 21
31.2390742213
 12
153.2159293074
 22
31.2390742213
 13
153.2159293074
 23
31.2390742213
  0
SOLID
  8
0
 62
7
  6
CONTINUOUS
 10
152.4643666972
 20
31.4649197951
 11
152.2909293626
 21
31.4003927049
 12
152.1753043074
 22
31.4649197951
 13
152.1753043074
 23
31.4649197951
  0
SOLID
  8
0
 62
7
  6
CONTINUOUS
 10
152.2909293626
 20
31.4003927049
 11
152.1753043074
 21
31.3358640533
 12
152.1753043074
 22
31.4649197951
 13
152.1753043074
 23
31.4649197951
  0
SOLID
  8
0
 62
7
  6
CONTINUOUS
 10
152.1753043074
 20
31.3358640533
 11
151.8862417523
 21
30.5938002869
 12
152.1753043074
 22
31.4649197951
 13
152.1753043074
 23
31.4649197951
  0
SOLID
  8
0
 62
7
  6
CONTINUOUS
 10
152.1753043074
 20
31.4649197951
 11
151.8862417523
 21
30.5938002869
 12
152.1753043074
 22
32.1101937295
 13
152.1753043074
 23
32.1101937295
  0
SOLID
  8
0
 62
7
  6
CONTINUOUS
 10
151.8862417523
 20
30.5938002869
 11
151.8862417523
 21
32.1101937295
 12
152.1753043074
 22
32.1101937295
 13
152.1753043074
 23
32.1101937295
  0
SOLID
  8
0
 62
7
  6
CONTINUOUS
 10
152.1753043074
 20
31.3358640533
 11
152.1753043074
 21
30.5938002869
 12
151.8862417523
 22
30.5938002869
 13
151.8862417523
 23
30.5938002869
  0
SOLID
  8
0
 62
7
  6
CONTINUOUS
 10
153.2159293074
 20
30.5938002869
 11
153.2159293074
 21
31.2390742213
 12
153.5049916972
 22
31.2390742213
 13
153.5049916972
 23
31.2390742213
  0
SOLID
  8
0
 62
7
  6
CONTINUOUS
 10
153.5049916972
 20
31.2390742213
 11
153.5049916972
 21
30.5938002869
 12
153.2159293074
 22
30.5938002869
 13
153.2159293074
 23
30.5938002869
  0
SOLID
  8
0
 62
7
  6
CONTINUOUS
 10
154.2565543074
 20
31.5939738288
 11
154.6612419177
 21
31.6262385959
 12
155.0081169177
 22
31.6262385959
 13
155.0081169177
 23
31.6262385959
  0
SOLID
  8
0
 62
7
  6
CONTINUOUS
 10
155.0081169177
 20
31.6262385959
 11
155.3549915869
 21
31.5939738288
 12
154.2565543074
 22
31.5939738288
 13
154.2565543074
 23
31.5939738288
  0
SOLID
  8
0
 62
7
  6
CONTINUOUS
 10
154.1409294177
 20
31.5617111435
 11
154.2565543074
 21
31.5939738288
 12
155.3549915869
 22
31.5939738288
 13
155.3549915869
 23
31.5939738288
  0
SOLID
  8
0
 62
7
  6
CONTINUOUS
 10
155.3549915869
 20
31.5939738288
 11
155.5284290869
 21
31.5294468402
 12
154.1409294177
 22
31.5617111435
 13
154.1409294177
 23
31.5617111435
  0
SOLID
  8
0
 62
7
  6
CONTINUOUS
 10
154.0253041972
 20
31.4971826249
 11
154.1409294177
 21
31.5617111435
 12
155.5284290869
 22
31.5294468402
 13
155.5284290869
 23
31.5294468402
  0
SOLID
  8
0
 62
7
  6
CONTINUOUS
 10
154.0253041972
 20
31.4971826249
 11
155.5284290869
 21
31.5294468402
 12
154.6612419177
 22
31.4971826249
 13
154.6612419177
 23
31.4971826249
  0
SOLID
  8
0
 62
7
  6
CONTINUOUS
 10
154.6612419177
 20
31.4971826249
 11
155.5284290869
 21
31.5294468402
 12
155.0081169177
 22
31.4971826249
 13
155.0081169177
 23
31.4971826249
  0
SOLID
  8
0
 62
7
  6
CONTINUOUS
 10
155.0081169177
 20
31.4971826249
 11
155.5284290869
 21
31.5294468402
 12
155.239367028
 22
31.4649194065
 13
155.239367028
 23
31.4649194065
  0
SOLID
  8
0
 62
7
  6
CONTINUOUS
 10
155.5284290869
 20
31.5294468402
 11
155.6440543074
 21
31.4649194065
 12
155.239367028
 22
31.4649194065
 13
155.239367028
 23
31.4649194065
  0
SOLID
  8
0
 62
7
  6
CONTINUOUS
 10
153.9674919177
 20
31.4326554138
 11
154.0253041972
 21
31.4971826249
 12
154.6612419177
 22
31.4971826249
 13
154.6612419177
 23
31.4971826249
  0
SOLID
  8
0
 62
7
  6
CONTINUOUS
 10
155.3549915869
 20
31.4326554138
 11
155.239367028
 21
31.4649194065
 12
155.6440543074
 22
31.4649194065
 13
155.6440543074
 23
31.4649194065
  0
SOLID
  8
0
 62
7
  6
CONTINUOUS
 10
155.3549915869
 20
31.4326554138
 11
155.6440543074
 21
31.4649194065
 12
155.412804528
 22
31.3681282026
 13
155.412804528
 23
31.3681282026
  0
SOLID
  8
0
 62
7
  6
CONTINUOUS
 10
155.6440543074
 20
31.4649194065
 11
155.7018665869
 21
31.3681282026
 12
155.412804528
 22
31.3681282026
 13
155.412804528
 23
31.3681282026
  0
SOLID
  8
0
 62
7
  6
CONTINUOUS
 10
155.412804528
 20
31.2713369632
 11
155.412804528
 21
31.3681282026
 12
155.7018665869
 22
31.3681282026
 13
155.7018665869
 23
31.3681282026
  0
SOLID
  8
0
 62
7
  6
CONTINUOUS
 10
155.412804528
 20
31.2713369632
 11
155.7018665869
 21
31.3681282026
 12
155.412804528
 22
31.1422827828
 13
155.412804528
 23
31.1422827828
  0
SOLID
  8
0
 62
7
  6
CONTINUOUS
 10
155.412804528
 20
31.1422827828
 11
155.7018665869
 21
31.3681282026
 12
155.412804528
 22
30.9487004259
 13
155.412804528
 23
30.9487004259
  0
SOLID
  8
0
 62
7
  6
CONTINUOUS
 10
155.7018665869
 20
31.3681282026
 11
155.7018665869
 21
30.8519086025
 12
155.412804528
 22
30.9487004259
 13
155.412804528
 23
30.9487004259
  0
SOLID
  8
0
 62
7
  6
CONTINUOUS
 10
157.6096790869
 20
31.5939736268
 11
157.840929528
 21
31.6262383465
 12
158.0721793074
 22
31.6262383465
 13
158.0721793074
 23
31.6262383465
  0
SOLID
  8
0
 62
7
  6
CONTINUOUS
 10
158.0721793074
 20
31.6262383465
 11
158.2456168074
 21
31.5939736268
 12
157.6096790869
 22
31.5939736268
 13
157.6096790869
 23
31.5939736268
  0
SOLID
  8
0
 62
7
  6
CONTINUOUS
 10
157.4362415869
 20
31.5294472848
 11
157.6096790869
 21
31.5939736268
 12
158.2456168074
 22
31.5939736268
 13
158.2456168074
 23
31.5939736268
  0
SOLID
  8
0
 62
7
  6
CONTINUOUS
 10
158.2456168074
 20
31.5939736268
 11
158.4190543074
 21
31.5294472848
 12
157.4362415869
 22
31.5294472848
 13
157.4362415869
 23
31.5294472848
  0
SOLID
  8
0
 62
7
  6
CONTINUOUS
 10
158.4190543074
 20
31.5294472848
 11
157.840929528
 21
31.4971825369
 12
157.4362415869
 22
31.5294472848
 13
157.4362415869
 23
31.5294472848
  0
SOLID
  8
0
 62
7
  6
CONTINUOUS
 10
157.320617028
 20
31.4649199103
 11
157.4362415869
 21
31.5294472848
 12
157.840929528
 22
31.4971825369
 13
157.840929528
 23
31.4971825369
  0
SOLID
  8
0
 62
7
  6
CONTINUOUS
 10
157.840929528
 20
31.4971825369
 11
157.6096790869
 21
31.4649199103
 12
157.320617028
 22
31.4649199103
 13
157.320617028
 23
31.4649199103
  0
SOLID
  8
0
 62
7
  6
CONTINUOUS
 10
157.840929528
 20
31.4971825369
 11
158.4190543074
 21
31.5294472848
 12
158.0721793074
 22
31.4649199103
 13
158.0721793074
 23
31.4649199103
  0
SOLID
  8
0
 62
7
  6
CONTINUOUS
 10
158.4190543074
 20
31.5294472848
 11
158.534679528
 21
31.4649199103
 12
158.0721793074
 22
31.4649199103
 13
158.0721793074
 23
31.4649199103
  0
SOLID
  8
0
 62
7
  6
CONTINUOUS
 10
158.187804528
 20
31.4326554468
 11
158.0721793074
 21
31.4649199103
 12
158.534679528
 22
31.4649199103
 13
158.534679528
 23
31.4649199103
  0
SOLID
  8
0
 62
7
  6
CONTINUOUS
 10
158.187804528
 20
31.4326554468
 11
158.534679528
 21
31.4649199103
 12
158.3034290869
 22
31.3681288486
 13
158.3034290869
 23
31.3681288486
  0
SOLID
  8
0
 62
7
  6
CONTINUOUS
 10
158.534679528
 20
31.4649199103
 11
158.5924918074
 21
31.3681288486
 12
158.3034290869
 22
31.3681288486
 13
158.3034290869
 23
31.3681288486
  0
SOLID
  8
0
 62
7
  6
CONTINUOUS
 10
158.361242028
 20
31.2068093799
 11
158.3034290869
 21
31.3681288486
 12
158.5924918074
 22
31.3681288486
 13
158.5924918074
 23
31.3681288486
  0
SOLID
  8
0
 62
7
  6
CONTINUOUS
 10
158.5924918074
 20
31.3681288486
 11
158.6503040869
 21
31.2068093799
 12
158.361242028
 22
31.2068093799
 13
158.361242028
 23
31.2068093799
  0
SOLID
  8
0
 62
7
  6
CONTINUOUS
 10
157.6096790869
 20
31.4649199103
 11
157.4362415869
 21
31.4003926599
 12
157.320617028
 22
31.4649199103
 13
157.320617028
 23
31.4649199103
  0
SOLID
  8
0
 62
7
  6
CONTINUOUS
 10
157.4362415869
 20
31.4003926599
 11
157.320617028
 21
31.3358640533
 12
157.320617028
 22
31.4649199103
 13
157.320617028
 23
31.4649199103
  0
SOLID
  8
0
 62
7
  6
CONTINUOUS
 10
157.320617028
 20
31.3358640533
 11
157.0315543074
 21
30.5938003547
 12
157.320617028
 22
31.4649199103
 13
157.320617028
 23
31.4649199103
  0
SOLID
  8
0
 62
7
  6
CONTINUOUS
 10
157.320617028
 20
31.4649199103
 11
157.0315543074
 21
30.5938003547
 12
157.320617028
 22
31.6262383465
 13
157.320617028
 23
31.6262383465
  0
SOLID
  8
0
 62
7
  6
CONTINUOUS
 10
157.0315543074
 20
30.5938003547
 11
157.0315543074
 21
31.6262383465
 12
157.320617028
 22
31.6262383465
 13
157.320617028
 23
31.6262383465
  0
SOLID
  8
0
 62
7
  6
CONTINUOUS
 10
157.320617028
 20
31.3358640533
 11
157.320617028
 21
30.5938003547
 12
157.0315543074
 22
30.5938003547
 13
157.0315543074
 23
30.5938003547
  0
SOLID
  8
0
 62
7
  6
CONTINUOUS
 10
158.361242028
 20
30.5938003547
 11
158.361242028
 21
31.2068093799
 12
158.6503040869
 22
31.2068093799
 13
158.6503040869
 23
31.2068093799
  0
SOLID
  8
0
 62
7
  6
CONTINUOUS
 10
158.6503040869
 20
31.2068093799
 11
158.6503040869
 21
30.5938003547
 12
158.361242028
 22
30.5938003547
 13
158.361242028
 23
30.5938003547
  0
SOLID
  8
0
 62
7
  6
CONTINUOUS
 10
159.4596793074
 20
31.5939739474
 11
159.8065543074
 21
31.6262381969
 12
160.1534293074
 22
31.6262381969
 13
160.1534293074
 23
31.6262381969
  0
SOLID
  8
0
 62
7
  6
CONTINUOUS
 10
160.1534293074
 20
31.6262381969
 11
160.5003043074
 21
31.5939739474
 12
159.4596793074
 22
31.5939739474
 13
159.4596793074
 23
31.5939739474
  0
SOLID
  8
0
 62
7
  6
CONTINUOUS
 10
159.228429528
 20
31.5294468402
 11
159.4596793074
 21
31.5939739474
 12
160.5003043074
 22
31.5939739474
 13
160.5003043074
 23
31.5939739474
  0
SOLID
  8
0
 62
7
  6
CONTINUOUS
 10
159.228429528
 20
31.5294468402
 11
160.5003043074
 21
31.5939739304
 12
160.6737418074
 22
31.5617111435
 13
160.6737418074
 23
31.5617111435
  0
SOLID
  8
0
 62
7
  6
CONTINUOUS
 10
159.228429528
 20
31.5294468402
 11
160.6737418074
 21
31.5617111435
 12
159.8065543074
 22
31.4971825592
 13
159.8065543074
 23
31.4971825592
  0
SOLID
  8
0
 62
7
  6
CONTINUOUS
 10
159.8065543074
 20
31.4971825592
 11
160.6737418074
 21
31.5617111435
 12
160.1534293074
 22
31.4971825592
 13
160.1534293074
 23
31.4971825592
  0
SOLID
  8
0
 62
7
  6
CONTINUOUS
 10
160.6737418074
 20
31.5617111435
 11
160.8471793074
 21
31.4971825592
 12
160.1534293074
 22
31.4971825592
 13
160.1534293074
 23
31.4971825592
  0
SOLID
  8
0
 62
7
  6
CONTINUOUS
 10
160.5003043074
 20
31.4649197501
 11
160.1534293074
 21
31.4971825592
 12
160.8471793074
 22
31.4971825592
 13
160.8471793074
 23
31.4971825592
  0
SOLID
  8
0
 62
7
  6
CONTINUOUS
 10
159.1128043074
 20
31.4326555427
 11
159.228429528
 21
31.5294468402
 12
159.8065543074
 22
31.4971825592
 13
159.8065543074
 23
31.4971825592
  0
SOLID
  8
0
 62
7
  6
CONTINUOUS
 10
160.5003043074
 20
31.4649197501
 11
160.8471793074
 21
31.4971825592
 12
160.615929528
 22
31.4326555427
 13
160.615929528
 23
31.4326555427
  0
SOLID
  8
0
 62
7
  6
CONTINUOUS
 10
160.615929528
 20
31.4326555427
 11
160.8471793074
 21
31.4971825592
 12
160.6737418074
 22
31.3681283005
 13
160.6737418074
 23
31.3681283005
  0
SOLID
  8
0
 62
7
  6
CONTINUOUS
 10
160.8471793074
 20
31.4971825592
 11
160.9628038663
 21
31.3681283005
 12
160.6737418074
 22
31.3681283005
 13
160.6737418074
 23
31.3681283005
  0
SOLID
  8
0
 62
7
  6
CONTINUOUS
 10
150.2674918074
 20
31.4649197501
 11
149.7471793074
 21
31.4326554237
 12
150.498741835
 22
31.4971824493
 13
150.498741835
 23
31.4971824493
  0
SOLID
  8
0
 62
7
  6
CONTINUOUS
 10
149.7471793074
 20
31.4326554237
 11
149.8628043005
 21
31.4971824493
 12
150.498741835
 22
31.4971824493
 13
150.498741835
 23
31.4971824493
  0
SOLID
  8
0
 62
7
  6
CONTINUOUS
 10
150.2674918074
 20
31.4649197501
 11
150.1518667936
 21
31.4326554237
 12
149.7471793074
 22
31.4326554237
 13
149.7471793074
 23
31.4326554237
  0
SOLID
  8
0
 62
7
  6
CONTINUOUS
 10
149.6315543091
 20
31.3036012664
 11
149.7471793074
 21
31.4326554237
 12
150.1518667936
 22
31.4326554237
 13
150.1518667936
 23
31.4326554237
  0
SOLID
  8
0
 62
7
  6
CONTINUOUS
 10
153.9674919177
 20
31.4326554237
 11
154.6612419177
 21
31.4971825369
 12
154.4299918074
 22
31.4649197501
 13
154.4299918074
 23
31.4649197501
  0
SOLID
  8
0
 62
7
  6
CONTINUOUS
 10
154.4299918074
 20
31.4649197501
 11
154.3143669177
 21
31.4326554237
 12
153.9674919177
 22
31.4326554237
 13
153.9674919177
 23
31.4326554237
  0
SOLID
  8
0
 62
7
  6
CONTINUOUS
 10
153.9674919177
 20
31.3681283335
 11
153.9674919177
 21
31.4326554237
 12
154.3143669177
 22
31.4326554237
 13
154.3143669177
 23
31.4326554237
  0
SOLID
  8
0
 62
7
  6
CONTINUOUS
 10
154.3143669177
 20
31.4326554237
 11
154.2565543074
 21
31.3681283335
 12
153.9674919177
 22
31.3681283335
 13
153.9674919177
 23
31.3681283335
  0
SOLID
  8
0
 62
7
  6
CONTINUOUS
 10
159.1128043074
 20
31.4326555528
 11
159.8065543074
 21
31.4971825369
 12
159.575304528
 22
31.4649197501
 13
159.575304528
 23
31.4649197501
  0
SOLID
  8
0
 62
7
  6
CONTINUOUS
 10
159.575304528
 20
31.4649197501
 11
159.4596793074
 21
31.4326555528
 12
159.1128043074
 22
31.4326555528
 13
159.1128043074
 23
31.4326555528
  0
SOLID
  8
0
 62
7
  6
CONTINUOUS
 10
159.1128043074
 20
31.3681284626
 11
159.1128043074
 21
31.4326555528
 12
159.4596793074
 22
31.4326555528
 13
159.4596793074
 23
31.4326555528
  0
SOLID
  8
0
 62
7
  6
CONTINUOUS
 10
159.4596793074
 20
31.4326555528
 11
159.401867028
 21
31.3681284626
 12
159.1128043074
 22
31.3681284626
 13
159.1128043074
 23
31.3681284626
  0
SOLID
  8
0
 62
7
  6
CONTINUOUS
 10
159.228429528
 20
31.2390741763
 11
159.1128043074
 21
31.3681284626
 12
159.401867028
 22
31.3681284626
 13
159.401867028
 23
31.3681284626
  0
SOLID
  8
0
 62
7
  6
CONTINUOUS
 10
149.6315543091
 20
31.3036012664
 11
150.1518667936
 21
31.4326554468
 12
149.9784292936
 22
31.3358640533
 13
149.9784292936
 23
31.3358640533
  0
SOLID
  8
0
 62
7
  6
CONTINUOUS
 10
149.9784292936
 20
31.3358640533
 11
149.9206168074
 21
31.2713369632
 12
149.6315543091
 22
31.3036012664
 13
149.6315543091
 23
31.3036012664
  0
SOLID
  8
0
 62
7
  6
CONTINUOUS
 10
149.5737418074
 20
31.1100184796
 11
149.6315543091
 21
31.3036012664
 12
149.9206168074
 22
31.2713369632
 13
149.9206168074
 23
31.2713369632
  0
SOLID
  8
0
 62
7
  6
CONTINUOUS
 10
154.4299918074
 20
31.2390741763
 11
154.7768668074
 21
31.271336924
 12
155.412804528
 22
31.271336924
 13
155.412804528
 23
31.271336924
  0
SOLID
  8
0
 62
7
  6
CONTINUOUS
 10
154.4299918074
 20
31.2390741763
 11
155.412804528
 21
31.271336924
 12
154.1987416972
 22
31.1745462761
 13
154.1987416972
 23
31.1745462761
  0
SOLID
  8
0
 62
7
  6
CONTINUOUS
 10
154.1987416972
 20
31.1745462761
 11
155.412804528
 21
31.271336924
 12
154.7768668074
 22
31.1422827436
 13
154.7768668074
 23
31.1422827436
  0
SOLID
  8
0
 62
7
  6
CONTINUOUS
 10
155.412804528
 20
31.271336924
 11
155.412804528
 21
31.1422827436
 12
154.7768668074
 22
31.1422827436
 13
154.7768668074
 23
31.1422827436
  0
SOLID
  8
0
 62
7
  6
CONTINUOUS
 10
159.228429528
 20
31.2390745501
 11
159.401867028
 21
31.3681283566
 12
159.4596793074
 22
31.3036012664
 13
159.4596793074
 23
31.3036012664
  0
SOLID
  8
0
 62
7
  6
CONTINUOUS
 10
159.4596793074
 20
31.3036012664
 11
159.6331168074
 21
31.2390745501
 12
159.228429528
 22
31.2390745501
 13
159.228429528
 23
31.2390745501
  0
SOLID
  8
0
 62
7
  6
CONTINUOUS
 10
159.4596793074
 20
31.1422827828
 11
159.228429528
 21
31.2390745501
 12
159.6331168074
 22
31.2390745501
 13
159.6331168074
 23
31.2390745501
  0
SOLID
  8
0
 62
7
  6
CONTINUOUS
 10
159.6331168074
 20
31.2390745501
 11
160.615929528
 21
31.0777556927
 12
159.4596793074
 22
31.1422827828
 13
159.4596793074
 23
31.1422827828
  0
SOLID
  8
0
 62
7
  6
CONTINUOUS
 10
160.442492028
 20
30.9809646623
 11
159.4596793074
 21
31.1422827828
 12
160.615929528
 22
31.0777556927
 13
160.615929528
 23
31.0777556927
  0
SOLID
  8
0
 62
7
  6
CONTINUOUS
 10
160.615929528
 20
31.0777556927
 11
160.8471793074
 21
30.9809646623
 12
160.442492028
 22
30.9809646623
 13
160.442492028
 23
30.9809646623
  0
SOLID
  8
0
 62
7
  6
CONTINUOUS
 10
160.615929528
 20
30.9164372091
 11
160.442492028
 21
30.9809646623
 12
160.8471793074
 22
30.9809646623
 13
160.8471793074
 23
30.9809646623
  0
SOLID
  8
0
 62
7
  6
CONTINUOUS
 10
160.615929528
 20
30.9164372091
 11
160.8471793074
 21
30.9809646623
 12
160.6737418074
 22
30.8519089441
 13
160.6737418074
 23
30.8519089441
  0
SOLID
  8
0
 62
7
  6
CONTINUOUS
 10
160.8471793074
 20
30.9809646623
 11
160.9628038663
 21
30.8519089441
 12
160.6737418074
 22
30.8519089441
 13
160.6737418074
 23
30.8519089441
  0
SOLID
  8
0
 62
7
  6
CONTINUOUS
 10
160.615929528
 20
30.7873818593
 11
160.6737418074
 21
30.8519089441
 12
160.9628038663
 22
30.8519089441
 13
160.9628038663
 23
30.8519089441
  0
SOLID
  8
0
 62
7
  6
CONTINUOUS
 10
160.9628038663
 20
30.8519089441
 11
160.9628038663
 21
30.7873818593
 12
160.615929528
 22
30.7873818593
 13
160.615929528
 23
30.7873818593
  0
SOLID
  8
0
 62
7
  6
CONTINUOUS
 10
160.5003043074
 20
30.7551187255
 11
160.615929528
 21
30.7873818593
 12
160.9628038663
 22
30.7873818593
 13
160.9628038663
 23
30.7873818593
  0
SOLID
  8
0
 62
7
  6
CONTINUOUS
 10
160.5003043074
 20
30.7551187255
 11
160.9628038663
 21
30.7873818593
 12
160.269054528
 22
30.7228547745
 13
160.269054528
 23
30.7228547745
  0
SOLID
  8
0
 62
7
  6
CONTINUOUS
 10
160.9628038663
 20
30.7873818593
 11
160.8471793074
 21
30.6905916353
 12
160.269054528
 22
30.7228547745
 13
160.269054528
 23
30.7228547745
  0
SOLID
  8
0
 62
7
  6
CONTINUOUS
 10
160.8471793074
 20
30.6905916353
 11
159.401867028
 21
30.658327332
 12
160.269054528
 22
30.7228547745
 13
160.269054528
 23
30.7228547745
  0
SOLID
  8
0
 62
7
  6
CONTINUOUS
 10
160.269054528
 20
30.7228547745
 11
159.401867028
 21
30.658327332
 12
159.922179528
 22
30.7228547745
 13
159.922179528
 23
30.7228547745
  0
SOLID
  8
0
 62
7
  6
CONTINUOUS
 10
159.401867028
 20
30.658327332
 11
159.228429528
 21
30.7228547745
 12
159.922179528
 22
30.7228547745
 13
159.922179528
 23
30.7228547745
  0
SOLID
  8
0
 62
7
  6
CONTINUOUS
 10
159.401867028
 20
30.658327332
 11
160.8471793074
 21
30.6905916353
 12
159.575304528
 22
30.6260629858
 13
159.575304528
 23
30.6260629858
  0
SOLID
  8
0
 62
7
  6
CONTINUOUS
 10
160.8471793074
 20
30.6905916353
 11
160.615929528
 21
30.6260629858
 12
159.575304528
 22
30.6260629858
 13
159.575304528
 23
30.6260629858
  0
SOLID
  8
0
 62
7
  6
CONTINUOUS
 10
159.922179528
 20
30.5938006049
 11
159.575304528
 21
30.6260629858
 12
160.615929528
 22
30.6260629858
 13
160.615929528
 23
30.6260629858
  0
SOLID
  8
0
 62
7
  6
CONTINUOUS
 10
160.615929528
 20
30.6260629858
 11
160.269054528
 21
30.5938006049
 12
159.922179528
 22
30.5938006049
 13
159.922179528
 23
30.5938006049
  0
SOLID
  8
0
 62
7
  6
CONTINUOUS
 10
149.5737418074
 20
31.1100184796
 11
149.9206168074
 21
31.2713369632
 12
149.8628043005
 22
31.1422827828
 13
149.8628043005
 23
31.1422827828
  0
SOLID
  8
0
 62
7
  6
CONTINUOUS
 10
149.8628043005
 20
31.1422827828
 11
149.8628043005
 21
31.0454914852
 12
149.5737418074
 22
31.1100184796
 13
149.5737418074
 23
31.1100184796
  0
SOLID
  8
0
 62
7
  6
CONTINUOUS
 10
149.6315543091
 20
30.9164372091
 11
149.5737418074
 21
31.1100184796
 12
149.8628043005
 22
31.0454914852
 13
149.8628043005
 23
31.0454914852
  0
SOLID
  8
0
 62
7
  6
CONTINUOUS
 10
149.8628043005
 20
31.0454914852
 11
149.9784292936
 21
30.8841729058
 12
149.6315543091
 22
30.9164372091
 13
149.6315543091
 23
30.9164372091
  0
SOLID
  8
0
 62
7
  6
CONTINUOUS
 10
149.7471793074
 20
30.7873813202
 11
149.6315543091
 21
30.9164372091
 12
149.9784292936
 22
30.8841729058
 13
149.9784292936
 23
30.8841729058
  0
SOLID
  8
0
 62
7
  6
CONTINUOUS
 10
149.9784292936
 20
30.8841729058
 11
150.1518667936
 21
30.7873813202
 12
149.7471793074
 22
30.7873813202
 13
149.7471793074
 23
30.7873813202
  0
SOLID
  8
0
 62
7
  6
CONTINUOUS
 10
149.8628043005
 20
30.7228547004
 11
149.7471793074
 21
30.7873813202
 12
150.1518667936
 22
30.7873813202
 13
150.1518667936
 23
30.7873813202
  0
SOLID
  8
0
 62
7
  6
CONTINUOUS
 10
150.1518667936
 20
30.7873813202
 11
150.498741835
 21
30.7228547004
 12
149.8628043005
 22
30.7228547004
 13
149.8628043005
 23
30.7228547004
  0
SOLID
  8
0
 62
7
  6
CONTINUOUS
 10
150.0362418212
 20
30.658327332
 11
149.8628043005
 21
30.7228547004
 12
150.498741835
 22
30.7228547004
 13
150.498741835
 23
30.7228547004
  0
SOLID
  8
0
 62
7
  6
CONTINUOUS
 10
154.0831168074
 20
31.1100184386
 11
154.1987416972
 21
31.1745462761
 12
154.7768668074
 22
31.1422827828
 13
154.7768668074
 23
31.1422827828
  0
SOLID
  8
0
 62
7
  6
CONTINUOUS
 10
154.7768668074
 20
31.1422827828
 11
154.5456166972
 21
31.1100184386
 12
154.0831168074
 22
31.1100184386
 13
154.0831168074
 23
31.1100184386
  0
SOLID
  8
0
 62
7
  6
CONTINUOUS
 10
153.9674919177
 20
30.9809642992
 11
154.0831168074
 21
31.1100184386
 12
154.5456166972
 22
31.1100184386
 13
154.5456166972
 23
31.1100184386
  0
SOLID
  8
0
 62
7
  6
CONTINUOUS
 10
154.3143669177
 20
31.0132277988
 11
153.9674919177
 21
30.9809642992
 12
154.4299918074
 22
31.0777556927
 13
154.4299918074
 23
31.0777556927
  0
SOLID
  8
0
 62
7
  6
CONTINUOUS
 10
153.9674919177
 20
30.9809642992
 11
154.5456166972
 21
31.1100184796
 12
154.4299918074
 22
31.0777556927
 13
154.4299918074
 23
31.0777556927
  0
SOLID
  8
0
 62
7
  6
CONTINUOUS
 10
154.3143669177
 20
31.0132277988
 11
154.2565543074
 21
30.9164372091
 12
153.9674919177
 22
30.9809642992
 13
153.9674919177
 23
30.9809642992
  0
SOLID
  8
0
 62
7
  6
CONTINUOUS
 10
153.9674919177
 20
30.8841729058
 11
153.9674919177
 21
30.9809642992
 12
154.2565543074
 22
30.9164372091
 13
154.2565543074
 23
30.9164372091
  0
SOLID
  8
0
 62
7
  6
CONTINUOUS
 10
154.2565543074
 20
30.9164372091
 11
154.2565543074
 21
30.8519086025
 12
153.9674919177
 22
30.8841729058
 13
153.9674919177
 23
30.8841729058
  0
SOLID
  8
0
 62
7
  6
CONTINUOUS
 10
154.0253041972
 20
30.7551187255
 11
153.9674919177
 21
30.8841729058
 12
154.2565543074
 22
30.8519086025
 13
154.2565543074
 23
30.8519086025
  0
SOLID
  8
0
 62
7
  6
CONTINUOUS
 10
155.412804528
 20
30.9487004259
 11
155.7018665869
 21
30.8519086025
 12
155.3549915869
 22
30.8841729058
 13
155.3549915869
 23
30.8841729058
  0
SOLID
  8
0
 62
7
  6
CONTINUOUS
 10
155.1815540869
 20
30.7873815123
 11
155.3549915869
 21
30.8841729058
 12
155.7018665869
 22
30.8519086025
 13
155.7018665869
 23
30.8519086025
  0
SOLID
  8
0
 62
7
  6
CONTINUOUS
 10
155.1815540869
 20
30.7873815123
 11
155.7018665869
 21
30.8519086025
 12
155.412804528
 22
30.7551187255
 13
155.412804528
 23
30.7551187255
  0
SOLID
  8
0
 62
7
  6
CONTINUOUS
 10
155.7018665869
 20
30.8519086025
 11
155.759679528
 21
30.6905916353
 12
155.412804528
 22
30.7551187255
 13
155.412804528
 23
30.7551187255
  0
SOLID
  8
0
 62
7
  6
CONTINUOUS
 10
155.4706168074
 20
30.658327332
 11
155.412804528
 21
30.7551187255
 12
155.759679528
 22
30.6905916353
 13
155.759679528
 23
30.6905916353
  0
SOLID
  8
0
 62
7
  6
CONTINUOUS
 10
155.4706168074
 20
30.658327332
 11
155.759679528
 21
30.6905916353
 12
155.5284290869
 22
30.5938002079
 13
155.5284290869
 23
30.5938002079
  0
SOLID
  8
0
 62
7
  6
CONTINUOUS
 10
155.759679528
 20
30.6905916353
 11
155.8174918074
 21
30.5938002079
 12
155.5284290869
 22
30.5938002079
 13
155.5284290869
 23
30.5938002079
  0
SOLID
  8
0
 62
7
  6
CONTINUOUS
 10
151.0768668626
 20
30.8196456577
 11
151.1346793074
 21
30.9164373395
 12
151.4237418626
 22
30.9164373395
 13
151.4237418626
 23
30.9164373395
  0
SOLID
  8
0
 62
7
  6
CONTINUOUS
 10
151.4237418626
 20
30.9164373395
 11
151.3659292523
 21
30.7873815123
 12
151.0768668626
 22
30.8196456577
 13
151.0768668626
 23
30.8196456577
  0
SOLID
  8
0
 62
7
  6
CONTINUOUS
 10
150.9034292799
 20
30.7551187255
 11
151.0768668626
 21
30.8196456577
 12
151.3659292523
 22
30.7873815123
 13
151.3659292523
 23
30.7873815123
  0
SOLID
  8
0
 62
7
  6
CONTINUOUS
 10
150.9034292799
 20
30.7551187255
 11
151.3659292523
 21
30.7873815123
 12
150.498741835
 22
30.7228544222
 13
150.498741835
 23
30.7228544222
  0
SOLID
  8
0
 62
7
  6
CONTINUOUS
 10
151.3659292523
 20
30.7873815123
 11
151.1924917523
 21
30.6905916353
 12
150.498741835
 22
30.7228544222
 13
150.498741835
 23
30.7228544222
  0
SOLID
  8
0
 62
7
  6
CONTINUOUS
 10
150.0362418212
 20
30.658327332
 11
150.498741835
 21
30.7228544222
 12
151.1924917523
 22
30.6905916353
 13
151.1924917523
 23
30.6905916353
  0
SOLID
  8
0
 62
7
  6
CONTINUOUS
 10
150.0362418212
 20
30.658327332
 11
151.1924917523
 21
30.6905916353
 12
150.2096793212
 22
30.6260631011
 13
150.2096793212
 23
30.6260631011
  0
SOLID
  8
0
 62
7
  6
CONTINUOUS
 10
151.1924917523
 20
30.6905916353
 11
150.9612418074
 21
30.6260631011
 12
150.2096793212
 22
30.6260631011
 13
150.2096793212
 23
30.6260631011
  0
SOLID
  8
0
 62
7
  6
CONTINUOUS
 10
150.5565542799
 20
30.5938002419
 11
150.2096793212
 21
30.6260631011
 12
150.9612418074
 22
30.6260631011
 13
150.9612418074
 23
30.6260631011
  0
SOLID
  8
0
 62
7
  6
CONTINUOUS
 10
154.0253041972
 20
30.7551187255
 11
154.2565543074
 21
30.8519086025
 12
154.3143669177
 22
30.7873815123
 13
154.3143669177
 23
30.7873815123
  0
SOLID
  8
0
 62
7
  6
CONTINUOUS
 10
154.3143669177
 20
30.7873815123
 11
154.5456166972
 21
30.7228544222
 12
154.0253041972
 22
30.7551187255
 13
154.0253041972
 23
30.7551187255
  0
SOLID
  8
0
 62
7
  6
CONTINUOUS
 10
154.1987416972
 20
30.658327332
 11
154.0253041972
 21
30.7551187255
 12
154.5456166972
 22
30.7228544222
 13
154.5456166972
 23
30.7228544222
  0
SOLID
  8
0
 62
7
  6
CONTINUOUS
 10
154.8924916972
 20
30.7228544637
 11
155.1815540869
 21
30.7873815123
 12
155.412804528
 22
30.7551187255
 13
155.412804528
 23
30.7551187255
  0
SOLID
  8
0
 62
7
  6
CONTINUOUS
 10
155.412804528
 20
30.7551187255
 11
155.3549915869
 21
30.6905916353
 12
154.8924916972
 22
30.7228544637
 13
154.8924916972
 23
30.7228544637
  0
SOLID
  8
0
 62
7
  6
CONTINUOUS
 10
155.3549915869
 20
30.6905916353
 11
154.1987416972
 21
30.658327332
 12
154.8924916972
 22
30.7228544637
 13
154.8924916972
 23
30.7228544637
  0
SOLID
  8
0
 62
7
  6
CONTINUOUS
 10
154.1987416972
 20
30.658327332
 11
154.5456166972
 21
30.7228544637
 12
154.8924916972
 22
30.7228544637
 13
154.8924916972
 23
30.7228544637
  0
SOLID
  8
0
 62
7
  6
CONTINUOUS
 10
154.1987416972
 20
30.658327332
 11
155.3549915869
 21
30.6905916353
 12
154.3143669177
 22
30.6260630541
 13
154.3143669177
 23
30.6260630541
  0
SOLID
  8
0
 62
7
  6
CONTINUOUS
 10
155.3549915869
 20
30.6905916353
 11
155.1815540869
 21
30.6260630541
 12
154.3143669177
 22
30.6260630541
 13
154.3143669177
 23
30.6260630541
  0
SOLID
  8
0
 62
7
  6
CONTINUOUS
 10
154.5456166972
 20
30.5938002188
 11
154.3143669177
 21
30.6260630541
 12
155.1815540869
 22
30.6260630541
 13
155.1815540869
 23
30.6260630541
  0
SOLID
  8
0
 62
7
  6
CONTINUOUS
 10
155.1815540869
 20
30.6260630541
 11
154.8924916972
 21
30.5938002188
 12
154.5456166972
 22
30.5938002188
 13
154.5456166972
 23
30.5938002188
  0
SOLID
  8
0
 62
7
  6
CONTINUOUS
 10
159.575304528
 20
30.7551187255
 11
159.228429528
 21
30.7228544637
 12
159.4596793074
 22
30.7873815123
 13
159.4596793074
 23
30.7873815123
  0
SOLID
  8
0
 62
7
  6
CONTINUOUS
 10
159.4596793074
 20
30.7873815123
 11
159.228429528
 21
30.7228544637
 12
159.401867028
 22
30.851908644
 13
159.401867028
 23
30.851908644
  0
SOLID
  8
0
 62
7
  6
CONTINUOUS
 10
159.228429528
 20
30.7228544637
 11
159.1128043074
 21
30.851908644
 12
159.401867028
 22
30.851908644
 13
159.401867028
 23
30.851908644
  0
SOLID
  8
0
 62
7
  6
CONTINUOUS
 10
159.575304528
 20
30.7551187255
 11
159.922179528
 21
30.7228544637
 12
159.228429528
 22
30.7228544637
 13
159.228429528
 23
30.7228544637
  0
SOLID
  8
0
 62
7
  6
CONTINUOUS
 10
156.279992028
 20
30.5938002419
 11
156.279992028
 21
31.6262382337
 12
156.5690540869
 22
30.5938002419
 13
156.5690540869
 23
31.6262382337
  0
ENDBLK
  8
0
  6
BYBLOCK
 62
0
  0
BLOCK
  8
0
 62
2
  6
CONTINUOUS
  2
SYMBOL_3_BL0
 70
64
 10
32.1213064866
 20
19.8534310916
  0
TEXT
  8
0
 62
7
  6
CONTINUOUS
 10
18.3860103289
 20
19.2268451992
  7
TEXTSTYLE_3
 40
2.7338706658
  1
Ammeraal Beltech
 41
1.0
 51
15.0
 72
0
  0
TEXT
  8
0
 62
7
  6
CONTINUOUS
 10
29.1868111546
 20
16.9533085264
  7
TEXTSTYLE_4
 40
1.0935482663
  1
Innovation & Service in Belting
 41
1.0
 72
0
  0
LINE
  8
0
 62
7
  6
CONTINUOUS
 10
12.3614696776
 20
19.9934385078
 11
13.1396216709
 21
23.6543558055
  0
LINE
  8
0
 62
7
  6
CONTINUOUS
 10
23.2347899607
 20
27.3177497171
 11
13.6274394139
 21
24.1961322958
  0
LINE
  8
0
 62
7
  6
CONTINUOUS
 10
12.5867530099
 20
19.3000877048
 11
20.093828271
 21
12.5406867788
  0
LINE
  8
0
 62
7
  6
CONTINUOUS
 10
12.8492874206
 20
20.5352149982
 11
23.6575567857
 21
24.0470345971
  0
LINE
  8
0
 62
7
  6
CONTINUOUS
 10
23.6533516486
 20
13.6972460334
 11
15.2078919798
 21
21.3015720751
  0
LINE
  8
0
 62
7
  6
CONTINUOUS
 10
24.1731743684
 20
26.4728246013
 11
23.1966148312
 21
21.8784731989
  0
LINE
  8
0
 62
7
  6
CONTINUOUS
 10
22.4968128835
 20
18.5861638851
 11
21.810364672
 21
15.3566789607
  0
LINE
  8
0
 62
7
  6
CONTINUOUS
 10
24.8542704669
 20
14.087448211
 11
25.8105020025
 21
18.5861638851
  0
LINE
  8
0
 62
7
  6
CONTINUOUS
 10
26.5103039502
 20
21.8784731989
 11
26.9545457526
 21
23.9684665583
  0
LINE
  8
0
 62
7
  6
CONTINUOUS
 10
20.8069293463
 20
12.3891124661
 11
24.3664527239
 21
13.5456717207
  0
LINE
  8
0
 62
7
  6
CONTINUOUS
 10
23.9478910361
 20
27.1661754044
 11
26.7292624203
 21
24.6618173613
  0
ARC
  8
0
 62
7
  6
CONTINUOUS
 10
13.8527227462
 20
23.5027814928
 40
0.7290321776
 50
108.0
 51
168.0
  0
ARC
  8
0
 62
7
  6
CONTINUOUS
 10
23.4600732931
 20
26.624398914
 40
0.7290321776
 50
348.0
 51
108.0
  0
ARC
  8
0
 62
7
  6
CONTINUOUS
 10
26.2414446773
 20
24.120040871
 40
0.7290321776
 50
348.0
 51
48.0
  0
ARC
  8
0
 62
7
  6
CONTINUOUS
 10
20.581646014
 20
13.0824632691
 40
0.7290321776
 50
228.0
 51
288.0
  0
ARC
  8
0
 62
7
  6
CONTINUOUS
 10
13.0745707529
 20
19.8418641951
 40
0.7290321776
 50
108.0
 51
228.0
  0
ARC
  8
0
 62
7
  6
CONTINUOUS
 10
24.1411693916
 20
14.2390225237
 40
0.7290321776
 50
228.0
 51
348.0
  0
ENDBLK
  8
0
  6
BYBLOCK
 62
0
  0
ENDSEC
  0
SECTION
  2
ENTITIES
  0
TEXT
  8
0
 62
5
  6
CONTINUOUS
 10
96.0
 20
25.636
  7
TEXTSTYLE_2
 40
2.8
  1
Scale :
 41
0.6
 51
0.000019
 72
0
  0
TEXT
  8
0
 62
5
  6
CONTINUOUS
 10
116.0
 20
25.636
  7
TEXTSTYLE_2
 40
2.8
  1
Belt type:
 41
0.6
 51
0.000019
 72
0
  0
INSERT
  8
0
 62
2
  6
CONTINUOUS
  2
SYMBOL_3_BL0
 10
32.1213064866
 20
19.8534310916
  0
INSERT
  8
0
 62
2
  6
CONTINUOUS
  2
SYMBOL_8_BL1
 10
173.5956734183
 20
35.5937998301
  0
LINE
  8
0
 62
2
  6
CONTINUOUS
 10
10.0
 20
30.0
 11
200.0
 21
30.0
  0
LINE
  8
0
 62
2
  6
CONTINUOUS
 10
10.0
 20
30.0
 11
10.0
 21
10.0
  0
LINE
  8
0
 62
2
  6
CONTINUOUS
 10
10.0
 20
10.0
 11
200.0
 21
10.0
  0
LINE
  8
0
 62
2
  6
CONTINUOUS
 10
95.0
 20
30.0
 11
95.0
 21
10.0
  0
LINE
  8
0
 62
2
  6
CONTINUOUS
 10
115.0
 20
30.0
 11
115.0
 21
10.0
  0
LINE
  8
0
 62
2
  6
CONTINUOUS
 10
200.0
 20
30.0
 11
200.0
 21
10.0
  0
TEXT
  8
0
 62
5
  6
CONTINUOUS
 10
13.0
 20
23.303
  7
TEXTSTYLE_5
 40
1.52
  1
                                                                     Ammeraal Beltech Modular A/S
 41
1.0
 72
0
  0
TEXT
  8
0
 62
5
  6
CONTINUOUS
 10
13.0
 20
20.595
  7
TEXTSTYLE_5
 40
1.5
  1
                                                                      Hjulmagervej 21,  7100 Vejle,  DK
 41
1.0
 72
0
  0
TEXT
  8
0
 62
5
  6
CONTINUOUS
 10
13.0
 20
17.881
  7
TEXTSTYLE_5
 40
1.495
  1
                                                                      tel: 
 41
1.0
 72
0
  0
TEXT
  8
0
 62
5
  6
CONTINUOUS
 10
57.9869465649
 20
17.881
  7
TEXTSTYLE_5
 40
1.51
  1
+45 75723100     fax: +45 75723348
 41
1.0
 72
0
  0
TEXT
  8
0
 62
5
  6
CONTINUOUS
 10
13.0
 20
15.177
  7
TEXTSTYLE_5
 40
1.5
  1
                                                                      admin@unichains.dk  www.unichains.com
 41
1.0
 72
0
  0
TEXT
  8
0
 62
5
  6
CONTINUOUS
 10
99.75
 20
13.75
  7
TEXTSTYLE_6
 40
5.0
  1
1:1
 41
0.7
 72
1
 11
105.0
 21
13.75
  0
TEXT
  8
0
 62
5
  6
CONTINUOUS
 10
118.0
 20
13.75
  7
TEXTSTYLE_7
 40
7.5
  1
Sprocket Z12
 41
0.6361111111
 72
0
  0
LINE
  8
0
 62
7
  6
CONTINUOUS
 10
210.0
 20
0.0
 11
0.0
 21
0.0
  0
LINE
  8
0
 62
7
  6
CONTINUOUS
 10
10.0
 20
10.0
 11
200.0
 21
10.0
  0
LINE
  8
0
 62
7
  6
CONTINUOUS
 10
10.0
 20
30.0
 11
200.0
 21
30.0
  0
LINE
  8
0
 62
7
  6
CONTINUOUS
 10
0.0
 20
0.0
 11
0.0
 21
297.0
  0
LINE
  8
0
 62
7
  6
CONTINUOUS
 10
10.0
 20
10.0
 11
10.0
 21
287.0
  0
LINE
  8
0
 62
7
  6
CONTINUOUS
 10
200.0
 20
287.0
 11
200.0
 21
10.0
  0
LINE
  8
0
 62
7
  6
CONTINUOUS
 10
210.0
 20
0.0
 11
210.0
 21
297.0
  0
LINE
  8
0
 62
7
  6
CONTINUOUS
 10
10.0
 20
287.0
 11
200.0
 21
287.0
  0
LINE
  8
0
 62
7
  6
CONTINUOUS
 10
0.0
 20
297.0
 11
210.0
 21
297.0
  0
LINE
  8
0
 62
7
  6
CONTINUOUS
 10
91.265874594
 20
161.7146551732
 11
93.7080617905
 21
161.1801257564
  0
LINE
  8
0
 62
7
  6
CONTINUOUS
 10
93.211244641
 20
161.8333723458
 11
91.2778433384
 21
162.2565421471
  0
LINE
  8
0
 62
7
  6
CONTINUOUS
 10
81.7587553226
 20
165.1695748623
 11
82.2709561008
 21
165.0273015967
  0
LINE
  8
0
 62
7
  6
CONTINUOUS
 10
86.1613390263
 20
163.249265646
 11
86.945666431
 21
162.9677169495
  0
LINE
  8
0
 62
7
  6
CONTINUOUS
 10
90.7798346301
 20
161.9299376358
 11
91.265874594
 21
161.7146551732
  0
LINE
  8
0
 62
7
  6
CONTINUOUS
 10
81.3877318896
 20
165.3591729243
 11
81.7587553226
 21
165.1695748623
  0
LINE
  8
0
 62
7
  6
CONTINUOUS
 10
82.0935591705
 20
165.5958272837
 11
81.5370155289
 21
165.8802287163
  0
LINE
  8
0
 62
7
  6
CONTINUOUS
 10
81.085412663
 20
166.827814108
 11
80.6216206335
 21
167.0648181949
  0
LINE
  8
0
 62
7
  6
CONTINUOUS
 10
82.1179206491
 20
167.0169988377
 11
82.5817041865
 21
166.7799990904
  0
LINE
  8
0
 62
7
  6
CONTINUOUS
 10
80.9723486088
 20
165.6909078326
 11
81.3877318896
 21
165.3591729243
  0
LINE
  8
0
 62
7
  6
CONTINUOUS
 10
91.2910130214
 20
163.7782784739
 11
91.6190323509
 21
163.8153851438
  0
LINE
  8
0
 62
7
  6
CONTINUOUS
 10
82.2709561008
 20
165.0273015967
 11
82.8799658844
 21
165.0744943133
  0
LINE
  8
0
 62
7
  6
CONTINUOUS
 10
91.8572688357
 20
164.4166494873
 11
91.3257370119
 21
164.4240862557
  0
LINE
  8
0
 62
7
  6
CONTINUOUS
 10
82.4202397401
 20
165.5483573887
 11
82.0935591705
 21
165.5958272837
  0
LINE
  8
0
 62
7
  6
CONTINUOUS
 10
83.243188604
 20
167.1587816168
 11
82.9165080345
 21
167.2062515117
  0
LINE
  8
0
 62
7
  6
CONTINUOUS
 10
91.6190323509
 20
163.8153851438
 11
93.5524336535
 21
163.3922153425
  0
LINE
  8
0
 62
7
  6
CONTINUOUS
 10
93.688909233
 20
164.0157524247
 11
91.8572688357
 21
164.4166494873
  0
LINE
  8
0
 62
7
  6
CONTINUOUS
 10
94.7771206241
 20
166.0645001493
 11
94.166573825
 21
166.1981325035
  0
LINE
  8
0
 62
7
  6
CONTINUOUS
 10
82.5817041865
 20
166.7799990904
 11
83.0939049647
 21
166.6377258248
  0
LINE
  8
0
 62
7
  6
CONTINUOUS
 10
83.5701832465
 20
169.8589237432
 11
83.0579909561
 21
170.0011926609
  0
LINE
  8
0
 62
7
  6
CONTINUOUS
 10
86.7853537795
 20
166.5291790544
 11
88.550097172
 21
165.8956920707
  0
LINE
  8
0
 62
7
  6
CONTINUOUS
 10
88.7919025661
 20
166.2610095884
 11
86.8310795664
 21
166.9648829407
  0
LINE
  8
0
 62
7
  6
CONTINUOUS
 10
90.2036288396
 20
167.1105987144
 11
89.6153810421
 21
167.3217610423
  0
LINE
  8
0
 62
7
  6
CONTINUOUS
 10
86.8702216618
 20
168.3071863132
 11
86.2819738643
 21
168.5183486411
  0
LINE
  8
0
 62
7
  6
CONTINUOUS
 10
82.9165080345
 20
167.2062515117
 11
82.2672042884
 21
167.5380546297
  0
LINE
  8
0
 62
7
  6
CONTINUOUS
 10
83.2353793646
 20
169.4326712555
 11
83.8846831106
 21
169.1008681375
  0
LINE
  8
0
 62
7
  6
CONTINUOUS
 10
84.0339667838
 20
169.6219239958
 11
83.5701832465
 21
169.8589237432
  0
LINE
  8
0
 62
7
  6
CONTINUOUS
 10
91.2778433384
 20
162.2565421471
 11
90.9953158687
 21
162.4272811713
  0
LINE
  8
0
 62
7
  6
CONTINUOUS
 10
81.7025458605
 20
167.3487294064
 11
82.1179206491
 21
167.0169988377
  0
LINE
  8
0
 62
7
  6
CONTINUOUS
 10
84.4493500604
 20
169.2901890792
 11
84.0339667838
 21
169.6219239958
  0
LINE
  8
0
 62
7
  6
CONTINUOUS
 10
81.5370155289
 20
165.8802287163
 11
81.3071524567
 21
166.117160254
  0
LINE
  8
0
 62
7
  6
CONTINUOUS
 10
82.2672042884
 20
167.5380546297
 11
82.0373412163
 21
167.7749861674
  0
LINE
  8
0
 62
7
  6
CONTINUOUS
 10
83.8846831106
 20
169.1008681375
 11
84.1145461827
 21
168.8639365998
  0
LINE
  8
0
 62
7
  6
CONTINUOUS
 10
80.6537913176
 20
166.212100044
 11
80.9723486088
 21
165.6909078326
  0
LINE
  8
0
 62
7
  6
CONTINUOUS
 10
131.6396921719
 20
174.6703545114
 11
131.2728089878
 21
174.579127755
  0
LINE
  8
0
 62
7
  6
CONTINUOUS
 10
82.7953290584
 20
165.595618315
 11
82.4202397401
 21
165.5483573887
  0
LINE
  8
0
 62
7
  6
CONTINUOUS
 10
83.0939049647
 20
166.6377258248
 11
83.8440836013
 21
166.7322476774
  0
LINE
  8
0
 62
7
  6
CONTINUOUS
 10
83.6182779223
 20
167.2060425431
 11
83.243188604
 21
167.1587816168
  0
LINE
  8
0
 62
7
  6
CONTINUOUS
 10
83.0579909561
 20
170.0011926609
 11
82.4489726677
 21
169.9540042589
  0
LINE
  8
0
 62
7
  6
CONTINUOUS
 10
82.908698795
 20
169.4801411504
 11
83.2353793646
 21
169.4326712555
  0
LINE
  8
0
 62
7
  6
CONTINUOUS
 10
90.441038115
 20
162.3307950927
 11
90.7798346301
 21
161.9299376358
  0
LINE
  8
0
 62
7
  6
CONTINUOUS
 10
81.3839800772
 20
167.8699259574
 11
81.7025458605
 21
167.3487294064
  0
LINE
  8
0
 62
7
  6
CONTINUOUS
 10
84.7679073388
 20
168.768996843
 11
84.4493500604
 21
169.2901890792
  0
LINE
  8
0
 62
7
  6
CONTINUOUS
 10
81.3071524567
 20
166.117160254
 11
81.1256981333
 21
166.448822613
  0
LINE
  8
0
 62
7
  6
CONTINUOUS
 10
82.0373412163
 20
167.7749861674
 11
81.8558868929
 21
168.1066485264
  0
LINE
  8
0
 62
7
  6
CONTINUOUS
 10
82.5336094767
 20
169.4328802241
 11
82.908698795
 21
169.4801411504
  0
LINE
  8
0
 62
7
  6
CONTINUOUS
 10
130.8662382536
 20
173.9645553155
 11
131.4611768838
 21
173.9916695247
  0
LINE
  8
0
 62
7
  6
CONTINUOUS
 10
90.9953158687
 20
162.4272811713
 11
90.8372952343
 21
162.6796703037
  0
LINE
  8
0
 62
7
  6
CONTINUOUS
 10
84.1145461827
 20
168.8639365998
 11
84.2960005061
 21
168.5322742408
  0
LINE
  8
0
 62
7
  6
CONTINUOUS
 10
81.2509345025
 20
168.2963191377
 11
81.3839800772
 21
167.8699259574
  0
LINE
  8
0
 62
7
  6
CONTINUOUS
 10
81.8558868929
 20
168.1066485264
 11
81.7671926738
 21
168.3909092
  0
LINE
  8
0
 62
7
  6
CONTINUOUS
 10
81.1256981333
 20
166.448822613
 11
81.085412663
 21
166.827814108
  0
LINE
  8
0
 62
7
  6
CONTINUOUS
 10
131.2728089878
 20
174.579127755
 11
130.8960196785
 21
174.6364626387
  0
LINE
  8
0
 62
7
  6
CONTINUOUS
 10
90.2267484352
 20
162.8133026579
 11
90.441038115
 21
162.3307950927
  0
LINE
  8
0
 62
7
  6
CONTINUOUS
 10
80.5691544916
 20
166.7332240456
 11
80.6537913176
 21
166.212100044
  0
LINE
  8
0
 62
7
  6
CONTINUOUS
 10
84.2960005061
 20
168.5322742408
 11
84.3362859426
 21
168.1532826795
  0
LINE
  8
SQ
 62
2
  6
PHANTOM
 10
80.4897708241
 20
213.2335842731
 11
90.7882982815
 21
223.5321117306
  0
LINE
  8
SQ
 62
2
  6
PHANTOM
 10
98.1681350306
 20
228.6492067799
 11
94.6326011247
 21
225.1136728739
  0
LINE
  8
SQ
 62
2
  6
PHANTOM
 10
75.3726757748
 20
205.8537475241
 11
78.9082096807
 21
209.38928143
  0
LINE
  8
SQ
 62
2
  6
PHANTOM
 10
80.4897708241
 20
192.9850987833
 11
90.7882982815
 21
182.6865713259
  0
LINE
  8
SQ
 62
2
  6
PHANTOM
 10
94.6326011247
 20
181.1050101825
 11
98.1681350306
 21
177.5694762766
  0
LINE
  8
SQ
 62
2
  6
PHANTOM
 10
78.9082096807
 20
196.8294016265
 11
75.3726757748
 21
200.3649355324
  0
LINE
  8
0
 62
7
  6
CONTINUOUS
 10
84.8525441478
 20
168.2478728082
 11
84.7679073388
 21
168.768996843
  0
LINE
  8
0
 62
7
  6
CONTINUOUS
 10
90.1932253197
 20
163.1473439378
 11
90.2267484352
 21
162.8133026579
  0
LINE
  8
0
 62
7
  6
CONTINUOUS
 10
90.8372952343
 20
162.6796703037
 11
90.8037721188
 21
163.0137115836
  0
LINE
  8
0
 62
7
  6
CONTINUOUS
 10
86.2819738643
 20
168.5183486411
 11
86.1613390263
 21
163.249265646
  0
LINE
  8
0
 62
7
  6
CONTINUOUS
 10
81.3074665296
 20
168.8647722754
 11
81.2509345025
 21
168.2963191377
  0
LINE
  8
0
 62
7
  6
CONTINUOUS
 10
80.6216206335
 20
167.0648181949
 11
80.5691544916
 21
166.7332240456
  0
LINE
  8
0
 62
7
  6
CONTINUOUS
 10
81.7671926738
 20
168.3909092
 11
81.8196588835
 21
168.7225034821
  0
LINE
  8
0
 62
7
  6
CONTINUOUS
 10
141.4889622656
 20
195.0211392884
 11
141.8201029269
 21
195.0763909093
  0
LINE
  8
0
 62
7
  6
CONTINUOUS
 10
141.8084150775
 20
195.7102723885
 11
141.4772741215
 21
195.6550208122
  0
LINE
  8
0
 62
7
  6
CONTINUOUS
 10
139.385244872
 20
195.3394303752
 11
139.7163856807
 21
195.3946819737
  0
LINE
  8
0
 62
7
  6
CONTINUOUS
 10
139.7046978313
 20
196.0285634529
 11
139.3735570227
 21
195.9733118543
  0
LINE
  8
0
 62
7
  6
CONTINUOUS
 10
86.6972772951
 20
163.5089987777
 11
86.7853537795
 21
166.5291790544
  0
LINE
  8
0
 62
7
  6
CONTINUOUS
 10
86.8310795664
 20
166.9648829407
 11
86.8702216618
 21
168.3071863132
  0
LINE
  8
0
 62
7
  6
CONTINUOUS
 10
84.7960120868
 20
167.6794196041
 11
84.8525441478
 21
168.2478728082
  0
LINE
  8
0
 62
7
  6
CONTINUOUS
 10
96.9313393935
 20
250.7159540647
 11
96.7697387979
 21
249.5892307402
  0
LINE
  8
0
 62
7
  6
CONTINUOUS
 10
84.3362859426
 20
168.1532826795
 11
84.2838198007
 21
167.8216885301
  0
LINE
  8
0
 62
7
  6
CONTINUOUS
 10
74.0848244477
 20
164.9279778198
 11
73.6614130064
 21
163.8714065
  0
LINE
  8
0
 62
7
  6
CONTINUOUS
 10
121.2680255429
 20
246.3284781895
 11
120.5647136597
 21
245.4335074651
  0
LINE
  8
0
 62
7
  6
CONTINUOUS
 10
58.5883750895
 20
183.457168895
 11
57.6934043652
 21
182.7538570117
  0
LINE
  8
0
 62
7
  6
CONTINUOUS
 10
140.1504760547
 20
230.3604695482
 11
139.0939047348
 21
229.9370581069
  0
LINE
  8
0
 62
7
  6
CONTINUOUS
 10
148.5191535629
 20
199.1281398953
 11
147.3924302384
 21
198.9665392997
  0
LINE
  8
0
 62
7
  6
CONTINUOUS
 10
54.4326518145
 20
198.9665392997
 11
53.3059284899
 21
199.1281398953
  0
LINE
  8
0
 62
7
  6
CONTINUOUS
 10
140.1504760547
 20
175.8582135082
 11
139.0939047348
 21
176.2816249495
  0
LINE
  8
0
 62
7
  6
CONTINUOUS
 10
130.4795396418
 20
174.1704482837
 11
130.8662382536
 21
173.9645553155
  0
LINE
  8
0
 62
7
  6
CONTINUOUS
 10
57.6934043652
 20
223.4648260447
 11
58.5883750895
 21
222.7615141615
  0
LINE
  8
0
 62
7
  6
CONTINUOUS
 10
120.5647136597
 20
160.7851755913
 11
121.2680255429
 21
159.890204867
  0
LINE
  8
0
 62
7
  6
CONTINUOUS
 10
73.6614130064
 20
242.3472765565
 11
74.0848244477
 21
241.2907052366
  0
LINE
  8
0
 62
7
  6
CONTINUOUS
 10
96.7697387979
 20
156.6294523163
 11
96.9313393935
 21
155.5027289917
  0
LINE
  8
1_AXIS
 62
2
  6
CONTINUOUS
 10
100.9125410264
 20
203.9893415282
 11
100.9125410264
 21
202.2293415282
  0
LINE
  8
1_AXIS
 62
2
  6
CENTER
 10
100.9125410264
 20
198.7093415282
 11
100.9125410264
 21
152.7093415282
  0
LINE
  8
1_AXIS
 62
2
  6
CENTER
 10
100.9125410264
 20
207.5093415282
 11
100.9125410264
 21
253.5093415282
  0
LINE
  8
0
 62
7
  6
CONTINUOUS
 10
90.2842091031
 20
163.563035617
 11
90.1932253197
 21
163.1473439378
  0
LINE
  8
0
 62
7
  6
CONTINUOUS
 10
90.8037721188
 20
163.0137115836
 11
90.8720099723
 21
163.3254804158
  0
LINE
  8
0
 62
7
  6
CONTINUOUS
 10
84.5499108823
 20
166.9689020368
 11
84.7960120868
 21
167.6794196041
  0
LINE
  8
0
 62
7
  6
CONTINUOUS
 10
81.549510341
 20
169.3384265147
 11
81.3074665296
 21
168.8647722754
  0
LINE
  8
0
 62
7
  6
CONTINUOUS
 10
81.8196588835
 20
168.7225034821
 11
81.9648851296
 21
169.0066959461
  0
LINE
  8
0
 62
7
  6
CONTINUOUS
 10
135.9256550005
 20
224.3229626754
 11
134.0625596524
 21
223.2954362555
  0
LINE
  8
0
 62
7
  6
CONTINUOUS
 10
134.3140895637
 20
222.8393660285
 11
136.1771849117
 21
223.8668924485
  0
LINE
  8
0
 62
7
  6
CONTINUOUS
 10
138.046669452
 20
220.3239090928
 11
134.9090925675
 21
219.003089333
  0
LINE
  8
0
 62
7
  6
CONTINUOUS
 10
135.1111711564
 20
218.5230563045
 11
137.3663046194
 21
219.4723955393
  0
LINE
  8
0
 62
7
  6
CONTINUOUS
 10
137.7585016956
 20
219.6374979948
 11
138.2487480409
 21
219.8438760642
  0
LINE
  8
0
 62
7
  6
CONTINUOUS
 10
141.0294131009
 20
217.1433855551
 11
140.5262672839
 21
216.9708234694
  0
LINE
  8
0
 62
7
  6
CONTINUOUS
 10
139.5199753679
 20
216.6256992015
 11
136.299841857
 21
215.5213017568
  0
LINE
  8
0
 62
7
  6
CONTINUOUS
 10
136.4688088548
 20
215.0286382735
 11
139.6889423658
 21
216.1330357182
  0
LINE
  8
0
 62
7
  6
CONTINUOUS
 10
140.6952342817
 20
216.4781599861
 11
141.1983800988
 21
216.6507220718
  0
LINE
  8
0
 62
7
  6
CONTINUOUS
 10
140.1011086553
 20
205.433831356
 11
141.6867945984
 21
205.6127197143
  0
LINE
  8
0
 62
7
  6
CONTINUOUS
 10
141.6167299896
 20
206.2337800581
 11
140.0310440465
 21
206.0548916998
  0
LINE
  8
1_AXIS
 62
2
  6
CONTINUOUS
 10
101.7925410264
 20
203.1093415282
 11
100.0325410264
 21
203.1093415282
  0
LINE
  8
1_AXIS
 62
2
  6
CENTER
 10
96.5125410264
 20
203.1093415282
 11
50.5125410264
 21
203.1093415282
  0
LINE
  8
1_AXIS
 62
2
  6
CENTER
 10
105.3125410264
 20
203.1093415282
 11
151.3125410264
 21
203.1093415282
  0
LINE
  8
0
 62
7
  6
CONTINUOUS
 10
138.3605435444
 20
200.2392571454
 11
143.3594417339
 21
200.1342957673
  0
LINE
  8
0
 62
7
  6
CONTINUOUS
 10
143.3725619062
 20
200.759158041
 11
139.118180454
 21
200.8484868737
  0
LINE
  8
0
 62
7
  6
CONTINUOUS
 10
138.8593156341
 20
195.4190031301
 11
139.385244872
 21
195.3394303752
  0
LINE
  8
0
 62
7
  6
CONTINUOUS
 10
141.0682185806
 20
195.084797537
 11
141.4889622656
 21
195.0211392884
  0
LINE
  8
0
 62
7
  6
CONTINUOUS
 10
141.4772741215
 20
195.6550208122
 11
141.2669024264
 21
195.6868499142
  0
LINE
  8
0
 62
7
  6
CONTINUOUS
 10
139.3735570227
 20
195.9733118543
 11
139.0579994799
 21
196.0210555073
  0
LINE
  8
0
 62
7
  6
CONTINUOUS
 10
131.8786705823
 20
181.856362919
 11
132.4241673876
 21
181.5249154764
  0
LINE
  8
0
 62
7
  6
CONTINUOUS
 10
135.5153160358
 20
179.6467132498
 11
136.151728901
 21
179.2600246119
  0
LINE
  8
0
 62
7
  6
CONTINUOUS
 10
130.6078465826
 20
180.200184998
 11
134.6170162352
 21
177.2124502882
  0
LINE
  8
0
 62
7
  6
CONTINUOUS
 10
134.3080712995
 20
178.222147023
 11
130.9813134213
 21
180.7013312046
  0
LINE
  8
0
 62
7
  6
CONTINUOUS
 10
127.6239622138
 20
176.7224962611
 11
128.0205701838
 21
176.3680451587
  0
LINE
  8
0
 62
7
  6
CONTINUOUS
 10
130.3208962539
 20
174.3122289034
 11
130.4795396418
 21
174.1704482837
  0
LINE
  8
0
 62
7
  6
CONTINUOUS
 10
130.8960196785
 20
174.6364626387
 11
130.7373762906
 21
174.7782432584
  0
LINE
  8
0
 62
7
  6
CONTINUOUS
 10
94.166573825
 20
166.1981325035
 11
93.688909233
 21
164.0157524247
  0
LINE
  8
0
 62
7
  6
CONTINUOUS
 10
93.5524336535
 20
163.3922153425
 11
93.211244641
 21
161.8333723458
  0
LINE
  8
0
 62
7
  6
CONTINUOUS
 10
93.7080617905
 20
161.1801257564
 11
94.7771206241
 21
166.0645001493
  0
LINE
  8
0
 62
7
  6
CONTINUOUS
 10
84.2838198007
 20
167.8216885301
 11
84.1385935546
 21
167.5374960661
  0
LINE
  8
0
 62
7
  6
CONTINUOUS
 10
83.8440836013
 20
166.7322476774
 11
83.7472661039
 21
166.5427860348
  0
LINE
  8
0
 62
7
  6
CONTINUOUS
 10
84.2110496412
 20
166.3057862874
 11
84.5499108823
 21
166.9689020368
  0
LINE
  8
0
 62
7
  6
CONTINUOUS
 10
137.1833045388
 20
222.0426115732
 11
135.133899669
 21
220.9123325185
  0
LINE
  8
0
 62
7
  6
CONTINUOUS
 10
135.0128105254
 20
220.2507568881
 11
137.434834504
 21
221.5865412484
  0
LINE
  8
0
 62
7
  6
CONTINUOUS
 10
137.7015903245
 20
217.5791745107
 11
135.8386539378
 21
216.7949377313
  0
LINE
  8
0
 62
7
  6
CONTINUOUS
 10
136.040732411
 20
216.3149049775
 11
137.9036687978
 21
217.0991417568
  0
LINE
  8
0
 62
7
  6
CONTINUOUS
 10
139.7040759166
 20
208.9531729092
 11
141.2897618597
 21
209.1320612675
  0
LINE
  8
0
 62
7
  6
CONTINUOUS
 10
141.2196972509
 20
209.7531216112
 11
139.6340113078
 21
209.5742332529
  0
LINE
  8
0
 62
7
  6
CONTINUOUS
 10
138.4348911789
 20
203.7801429657
 11
142.7956322288
 21
203.6885809108
  0
LINE
  8
0
 62
7
  6
CONTINUOUS
 10
143.4469095406
 20
204.3000438613
 11
138.4480113511
 21
204.4050052394
  0
LINE
  8
0
 62
7
  6
CONTINUOUS
 10
138.8164594323
 20
198.691405811
 11
140.3942473669
 21
198.4526875126
  0
LINE
  8
0
 62
7
  6
CONTINUOUS
 10
141.0253624524
 20
198.3572002067
 11
142.4979646132
 21
198.1343964482
  0
LINE
  8
0
 62
7
  6
CONTINUOUS
 10
143.2225776968
 20
198.6568760704
 11
138.2788422714
 21
199.4048600562
  0
LINE
  8
0
 62
7
  6
CONTINUOUS
 10
138.3153445696
 20
182.8209072233
 11
137.8607639516
 21
183.0971133933
  0
LINE
  8
0
 62
7
  6
CONTINUOUS
 10
134.7696153034
 20
184.9753156198
 11
134.0422862509
 21
185.4172455304
  0
LINE
  8
0
 62
7
  6
CONTINUOUS
 10
134.7668396101
 20
178.6597244136
 11
134.0844275967
 21
179.16827512
  0
LINE
  8
0
 62
7
  6
CONTINUOUS
 10
130.519450404
 20
179.1641312884
 11
130.122842434
 21
179.5185823909
  0
LINE
  8
0
 62
7
  6
CONTINUOUS
 10
83.7794282958
 20
165.6900722234
 11
84.2110496412
 21
166.3057862874
  0
LINE
  8
0
 62
7
  6
CONTINUOUS
 10
83.7472661039
 20
166.5427860348
 11
83.3640535072
 21
166.0218027921
  0
LINE
  8
0
 62
7
  6
CONTINUOUS
 10
134.0625596524
 20
223.2954362555
 11
133.7402465286
 21
222.9987168996
  0
LINE
  8
0
 62
7
  6
CONTINUOUS
 10
138.1514208826
 20
217.8815593506
 11
137.7015903245
 21
217.5791745107
  0
LINE
  8
0
 62
7
  6
CONTINUOUS
 10
137.9036687978
 20
217.0991417568
 11
138.3534995872
 21
217.4015260474
  0
LINE
  8
0
 62
7
  6
CONTINUOUS
 10
139.2929037615
 20
208.801959689
 11
139.7040759166
 21
208.9531729092
  0
LINE
  8
0
 62
7
  6
CONTINUOUS
 10
139.6340113078
 20
209.5742332529
 11
139.1171267664
 21
209.4110941433
  0
LINE
  8
0
 62
7
  6
CONTINUOUS
 10
139.5608693334
 20
205.4777115713
 11
140.1011086553
 21
205.433831356
  0
LINE
  8
0
 62
7
  6
CONTINUOUS
 10
140.0310440465
 20
206.0548916998
 11
139.5965171109
 21
206.1106978045
  0
LINE
  8
0
 62
7
  6
CONTINUOUS
 10
130.0730222027
 20
174.6734576197
 11
130.3208962539
 21
174.3122289034
  0
LINE
  8
0
 62
7
  6
CONTINUOUS
 10
105.0553432549
 20
156.6294523163
 11
104.8937426594
 21
155.5027289917
  0
LINE
  8
0
 62
7
  6
CONTINUOUS
 10
128.1636690464
 20
242.3472765565
 11
127.7402576051
 21
241.2907052366
  0
LINE
  8
0
 62
7
  6
CONTINUOUS
 10
90.4542077981
 20
163.8525314194
 11
90.2842091031
 21
163.563035617
  0
LINE
  8
0
 62
7
  6
CONTINUOUS
 10
90.8720099723
 20
163.3254804158
 11
91.0420086673
 21
163.6149762182
  0
LINE
  8
0
 62
7
  6
CONTINUOUS
 10
88.550097172
 20
165.8956920707
 11
86.6972772951
 21
163.5089987777
  0
LINE
  8
0
 62
7
  6
CONTINUOUS
 10
89.6153810421
 20
167.3217610423
 11
88.7919025661
 21
166.2610095884
  0
LINE
  8
0
 62
7
  6
CONTINUOUS
 10
81.2603683932
 20
160.7851755913
 11
80.5570565099
 21
159.890204867
  0
LINE
  8
0
 62
7
  6
CONTINUOUS
 10
86.945666431
 20
162.9677169495
 11
90.2036288396
 21
167.1105987144
  0
LINE
  8
0
 62
7
  6
CONTINUOUS
 10
134.0849312705
 20
222.5940230179
 11
134.3140895637
 21
222.8393660285
  0
LINE
  8
0
 62
7
  6
CONTINUOUS
 10
81.9648851296
 20
169.0066959461
 11
82.2028714802
 21
169.2434867248
  0
LINE
  8
0
 62
7
  6
CONTINUOUS
 10
84.1385935546
 20
167.5374960661
 11
83.9006071363
 21
167.3007051548
  0
LINE
  8
0
 62
7
  6
CONTINUOUS
 10
83.3640535072
 20
166.0218027921
 11
83.1260670211
 21
165.785011748
  0
LINE
  8
0
 62
7
  6
CONTINUOUS
 10
134.6904973685
 20
219.954037631
 11
135.0128105254
 21
220.2507568881
  0
LINE
  8
0
 62
7
  6
CONTINUOUS
 10
81.977065835
 20
169.7172816568
 11
81.549510341
 21
169.3384265147
  0
LINE
  8
0
 62
7
  6
CONTINUOUS
 10
138.3534995872
 20
217.4015260474
 11
138.6072316072
 21
217.6213596595
  0
LINE
  8
0
 62
7
  6
CONTINUOUS
 10
144.1316776877
 20
223.4648260447
 11
143.2367069633
 21
222.7615141615
  0
LINE
  8
0
 62
7
  6
CONTINUOUS
 10
62.731177318
 20
176.2816249495
 11
61.6746059982
 21
175.8582135082
  0
LINE
  8
0
 62
7
  6
CONTINUOUS
 10
142.0279021447
 20
206.3849932783
 11
141.6167299896
 21
206.2337800581
  0
LINE
  8
0
 62
7
  6
CONTINUOUS
 10
141.6867945984
 20
205.6127197143
 11
142.203679436
 21
205.7758588574
  0
LINE
  8
0
 62
7
  6
CONTINUOUS
 10
54.4326518145
 20
207.2521437567
 11
53.3059284899
 21
207.0905431612
  0
LINE
  8
0
 62
7
  6
CONTINUOUS
 10
141.759936869
 20
209.7092414294
 11
141.2196972509
 21
209.7531216112
  0
LINE
  8
0
 62
7
  6
CONTINUOUS
 10
141.2897618597
 20
209.1320612675
 11
141.7242887953
 21
209.0762551628
  0
LINE
  8
0
 62
7
  6
CONTINUOUS
 10
148.5191535629
 20
207.0905431612
 11
147.3924302384
 21
207.2521437567
  0
LINE
  8
0
 62
7
  6
CONTINUOUS
 10
62.731177318
 20
229.9370581069
 11
61.6746059982
 21
230.3604695482
  0
LINE
  8
0
 62
7
  6
CONTINUOUS
 10
138.5593411363
 20
195.5697420681
 11
138.8593156341
 21
195.4190031301
  0
LINE
  8
0
 62
7
  6
CONTINUOUS
 10
139.0579994799
 20
196.0210555073
 11
138.7580250558
 21
196.1717944341
  0
LINE
  8
0
 62
7
  6
CONTINUOUS
 10
140.7682441564
 20
195.2355364638
 11
141.0682185806
 21
195.084797537
  0
LINE
  8
0
 62
7
  6
CONTINUOUS
 10
141.2669024264
 20
195.6868499142
 11
140.9669280022
 21
195.837588841
  0
LINE
  8
0
 62
7
  6
CONTINUOUS
 10
144.1316776877
 20
182.7538570117
 11
143.2367069633
 21
183.457168895
  0
LINE
  8
0
 62
7
  6
CONTINUOUS
 10
80.5570565099
 20
246.3284781895
 11
81.2603683932
 21
245.4335074651
  0
LINE
  8
0
 62
7
  6
CONTINUOUS
 10
133.1568784555
 20
176.5276342677
 11
132.9090044043
 21
176.888862984
  0
LINE
  8
0
 62
7
  6
CONTINUOUS
 10
127.7402576051
 20
164.9279778198
 11
128.1636690464
 21
163.8714065
  0
LINE
  8
0
 62
7
  6
CONTINUOUS
 10
104.8937426594
 20
250.7159540647
 11
105.0553432549
 21
249.5892307402
  0
LINE
  8
0
 62
7
  6
CONTINUOUS
 10
133.7402465286
 20
222.9987168996
 11
133.6042429918
 21
222.8047502146
  0
LINE
  8
0
 62
7
  6
CONTINUOUS
 10
134.5544939098
 20
219.7600707656
 11
134.6904973685
 21
219.954037631
  0
LINE
  8
0
 62
7
  6
CONTINUOUS
 10
134.6681257993
 20
220.6554508955
 11
134.3029639446
 21
220.2161410904
  0
LINE
  8
0
 62
7
  6
CONTINUOUS
 10
83.3518727001
 20
165.3112168824
 11
83.7794282958
 21
165.6900722234
  0
LINE
  8
0
 62
7
  6
CONTINUOUS
 10
139.1171267664
 20
209.4110941433
 11
138.7176320611
 21
209.1563700677
  0
LINE
  8
0
 62
7
  6
CONTINUOUS
 10
139.1146647998
 20
205.6370285146
 11
139.5608693334
 21
205.4777115713
  0
LINE
  8
0
 62
7
  6
CONTINUOUS
 10
130.7373762906
 20
174.7782432584
 11
130.5589145196
 21
175.2171398487
  0
LINE
  8
0
 62
7
  6
CONTINUOUS
 10
133.9060789015
 20
222.2574659128
 11
134.0849312705
 21
222.5940230179
  0
LINE
  8
SQ
 62
2
  6
PHANTOM
 10
126.4524062781
 20
200.3649355324
 11
122.9168723721
 21
196.8294016265
  0
LINE
  8
SQ
 62
2
  6
PHANTOM
 10
103.6569470223
 20
177.5694762766
 11
107.1924809282
 21
181.1050101825
  0
LINE
  8
SQ
 62
2
  6
PHANTOM
 10
111.0367837713
 20
182.6865713259
 11
121.3353112288
 21
192.9850987833
  0
LINE
  8
0
 62
7
  6
CONTINUOUS
 10
90.8504649173
 20
164.2014066304
 11
90.4542077981
 21
163.8525314194
  0
LINE
  8
0
 62
7
  6
CONTINUOUS
 10
138.9991215166
 20
208.5591615112
 11
139.2929037615
 21
208.801959689
  0
LINE
  8
0
 62
7
  6
CONTINUOUS
 10
142.203679436
 20
205.7758588574
 11
142.6031740672
 21
206.0305829246
  0
LINE
  8
0
 62
7
  6
CONTINUOUS
 10
139.118180454
 20
200.8484868737
 11
143.4272293073
 21
203.3627516426
  0
LINE
  8
0
 62
7
  6
CONTINUOUS
 10
82.2028714802
 20
169.2434867248
 11
82.5336094767
 21
169.4328802241
  0
LINE
  8
0
 62
7
  6
CONTINUOUS
 10
142.7956322288
 20
203.6885809108
 11
138.3802238028
 21
201.1765505559
  0
LINE
  8
0
 62
7
  6
CONTINUOUS
 10
82.4489726677
 20
169.9540042589
 11
81.977065835
 21
169.7172816568
  0
LINE
  8
0
 62
7
  6
CONTINUOUS
 10
135.133899669
 20
220.9123325185
 11
134.7538233782
 21
220.940631582
  0
LINE
  8
0
 62
7
  6
CONTINUOUS
 10
142.2061413285
 20
209.5499244777
 11
141.759936869
 21
209.7092414294
  0
LINE
  8
0
 62
7
  6
CONTINUOUS
 10
139.5965171109
 20
206.1106978045
 11
139.2560250377
 21
206.2819406456
  0
LINE
  8
0
 62
7
  6
CONTINUOUS
 10
138.1853467083
 20
195.9423837417
 11
138.5593411363
 21
195.5697420681
  0
LINE
  8
0
 62
7
  6
CONTINUOUS
 10
140.3942497652
 20
195.6081781318
 11
140.7682441564
 21
195.2355364638
  0
LINE
  8
SQ
 62
2
  6
PHANTOM
 10
122.9168723721
 20
209.38928143
 11
126.4524062781
 21
205.8537475241
  0
LINE
  8
SQ
 62
2
  6
PHANTOM
 10
107.1924809282
 20
225.1136728739
 11
103.6569470223
 21
228.6492067799
  0
LINE
  8
SQ
 62
2
  6
PHANTOM
 10
111.0367837713
 20
223.5321117306
 11
121.3353112288
 21
213.2335842731
  0
LINE
  8
0
 62
7
  6
CONTINUOUS
 10
129.9738851921
 20
175.0414675548
 11
130.0730222027
 21
174.6734576197
  0
LINE
  8
0
 62
7
  6
CONTINUOUS
 10
133.6042429918
 20
222.8047502146
 11
133.4756966179
 21
222.376979118
  0
LINE
  8
0
 62
7
  6
CONTINUOUS
 10
138.7176320611
 20
209.1563700677
 11
138.3414921734
 21
208.6946266715
  0
LINE
  8
0
 62
7
  6
CONTINUOUS
 10
139.4680652835
 20
207.2493088296
 11
138.9978904964
 21
206.6721286927
  0
LINE
  8
0
 62
7
  6
CONTINUOUS
 10
138.5277155941
 20
206.0949497425
 11
138.339645717
 21
205.8640774521
  0
LINE
  8
0
 62
7
  6
CONTINUOUS
 10
139.2560250377
 20
206.2819406456
 11
139.5381298923
 21
206.6282484858
  0
LINE
  8
0
 62
7
  6
CONTINUOUS
 10
138.4097103258
 20
205.2430171083
 11
138.879885113
 21
205.8201972452
  0
LINE
  8
0
 62
7
  6
CONTINUOUS
 10
142.3216846857
 20
206.6277914895
 11
142.0279021447
 21
206.3849932783
  0
LINE
  8
0
 62
7
  6
CONTINUOUS
 10
91.0420086673
 20
163.6149762182
 11
91.2910130214
 21
163.7782784739
  0
LINE
  8
0
 62
7
  6
CONTINUOUS
 10
83.1260670211
 20
165.785011748
 11
82.7953290584
 21
165.595618315
  0
LINE
  8
0
 62
7
  6
CONTINUOUS
 10
139.7163856807
 20
195.3946819737
 11
140.1838780701
 21
195.6400072338
  0
LINE
  8
0
 62
7
  6
CONTINUOUS
 10
141.8201029269
 20
195.0763909093
 11
142.2875953163
 21
195.3217161694
  0
LINE
  8
0
 62
7
  6
CONTINUOUS
 10
82.8799658844
 20
165.0744943133
 11
83.3518727001
 21
165.3112168824
  0
LINE
  8
0
 62
7
  6
CONTINUOUS
 10
134.2377435894
 20
220.7749639286
 11
134.6681257993
 21
220.6554508955
  0
LINE
  8
0
 62
7
  6
CONTINUOUS
 10
141.7242887953
 20
209.0762551628
 11
142.0647811646
 21
208.9050123551
  0
LINE
  8
0
 62
7
  6
CONTINUOUS
 10
138.879885113
 20
205.8201972452
 11
139.1146647998
 21
205.6370285146
  0
LINE
  8
0
 62
7
  6
CONTINUOUS
 10
138.7580250558
 20
196.1717944341
 11
138.5788191675
 21
196.4096117375
  0
LINE
  8
0
 62
7
  6
CONTINUOUS
 10
140.9669280022
 20
195.837588841
 11
140.7877221876
 21
196.0754061332
  0
LINE
  8
0
 62
7
  6
CONTINUOUS
 10
132.5619398254
 20
176.5005200585
 11
132.6610768359
 21
176.1325101234
  0
LINE
  8
0
 62
7
  6
CONTINUOUS
 10
134.2632407678
 20
184.551665798
 11
135.5153160358
 21
179.6467132498
  0
LINE
  8
0
 62
7
  6
CONTINUOUS
 10
134.0844275967
 20
179.16827512
 11
134.3080712995
 21
178.222147023
  0
LINE
  8
0
 62
7
  6
CONTINUOUS
 10
134.990483074
 20
177.7135964948
 11
134.7668396101
 21
178.6597244136
  0
LINE
  8
0
 62
7
  6
CONTINUOUS
 10
133.1965124884
 20
175.933398374
 11
133.1568784555
 21
176.5276342677
  0
LINE
  8
0
 62
7
  6
CONTINUOUS
 10
130.5589145196
 20
175.2171398487
 11
130.519450404
 21
179.1641312884
  0
LINE
  8
0
 62
7
  6
CONTINUOUS
 10
129.9641426292
 20
178.54277763
 11
129.9738851921
 21
175.0414675548
  0
LINE
  8
0
 62
7
  6
CONTINUOUS
 10
133.4756966179
 20
222.376979118
 11
133.44030504
 21
222.0005842944
  0
LINE
  8
0
 62
7
  6
CONTINUOUS
 10
138.2666880777
 20
218.15612357
 11
138.1514208826
 21
217.8815593506
  0
LINE
  8
0
 62
7
  6
CONTINUOUS
 10
138.6072316072
 20
217.6213596595
 11
138.7224988023
 21
217.8959238789
  0
LINE
  8
0
 62
7
  6
CONTINUOUS
 10
138.8227289743
 20
208.2247795521
 11
138.9991215166
 21
208.5591615112
  0
LINE
  8
0
 62
7
  6
CONTINUOUS
 10
142.6031740672
 20
206.0305829246
 11
142.9793139179
 21
206.4923263166
  0
LINE
  8
0
 62
7
  6
CONTINUOUS
 10
139.946235407
 20
196.2027225412
 11
139.7046978313
 21
196.0285634529
  0
LINE
  8
0
 62
7
  6
CONTINUOUS
 10
142.0499526532
 20
195.8844314767
 11
141.8084150775
 21
195.7102723885
  0
LINE
  8
0
 62
7
  6
CONTINUOUS
 10
91.3257370119
 20
164.4240862557
 11
90.8504649173
 21
164.2014066304
  0
LINE
  8
0
 62
7
  6
CONTINUOUS
 10
83.9006071363
 20
167.3007051548
 11
83.6182779223
 21
167.2060425431
  0
LINE
  8
0
 62
7
  6
CONTINUOUS
 10
137.3663046194
 20
219.4723955393
 11
137.6432346162
 21
219.3629335007
  0
LINE
  8
0
 62
7
  6
CONTINUOUS
 10
138.0354316924
 20
219.5280359562
 11
137.7585016956
 21
219.6374979948
  0
LINE
  8
0
 62
7
  6
CONTINUOUS
 10
134.7538233782
 20
220.940631582
 11
134.4165959061
 21
221.1115210899
  0
LINE
  8
0
 62
7
  6
CONTINUOUS
 10
142.6757005685
 20
209.1835882011
 11
142.2061413285
 21
209.5499244777
  0
LINE
  8
0
 62
7
  6
CONTINUOUS
 10
137.932120899
 20
196.4021037794
 11
138.1853467083
 21
195.9423837417
  0
LINE
  8
0
 62
7
  6
CONTINUOUS
 10
135.9676010153
 20
179.9813423817
 11
134.7696153034
 21
184.9753156198
  0
LINE
  8
0
 62
7
  6
CONTINUOUS
 10
137.9048502785
 20
196.9329923435
 11
137.932120899
 21
196.4021037794
  0
LINE
  8
0
 62
7
  6
CONTINUOUS
 10
133.9209932689
 20
221.7898570915
 11
133.9060789015
 21
222.2574659128
  0
LINE
  8
0
 62
7
  6
CONTINUOUS
 10
138.2839060037
 20
218.3894121756
 11
138.2666880777
 21
218.15612357
  0
LINE
  8
0
 62
7
  6
CONTINUOUS
 10
138.1767770676
 20
208.2567350552
 11
138.1294518906
 21
207.7272584833
  0
LINE
  8
0
 62
7
  6
CONTINUOUS
 10
132.6610768359
 20
176.1325101234
 11
132.6114799833
 21
175.7577225247
  0
LINE
  8
0
 62
7
  6
CONTINUOUS
 10
138.7637262827
 20
207.7988138283
 11
138.8227289743
 21
208.2247795521
  0
LINE
  8
0
 62
7
  6
CONTINUOUS
 10
138.7224988023
 20
217.8959238789
 11
138.7973502101
 21
218.2664948689
  0
LINE
  8
0
 62
7
  6
CONTINUOUS
 10
138.3414921734
 20
208.6946266715
 11
138.1767770676
 21
208.2567350552
  0
LINE
  8
0
 62
7
  6
CONTINUOUS
 10
142.498077154
 20
206.9621734402
 11
142.3216846857
 21
206.6277914895
  0
LINE
  8
0
 62
7
  6
CONTINUOUS
 10
140.1838780701
 20
195.6400072338
 11
140.3202297982
 21
195.8300808731
  0
LINE
  8
0
 62
7
  6
CONTINUOUS
 10
142.2875953163
 20
195.3217161694
 11
142.6654846201
 21
195.685948897
  0
LINE
  8
0
 62
7
  6
CONTINUOUS
 10
137.6432346162
 20
219.3629335007
 11
137.9605801689
 21
219.157465241
  0
LINE
  8
0
 62
7
  6
CONTINUOUS
 10
138.3527772451
 20
219.3225676965
 11
138.0354316924
 21
219.5280359562
  0
LINE
  8
0
 62
7
  6
CONTINUOUS
 10
134.0439768055
 20
220.9060157888
 11
134.2377435894
 21
220.7749639286
  0
LINE
  8
0
 62
7
  6
CONTINUOUS
 10
133.7495981506
 20
221.2194955702
 11
134.0439768055
 21
220.9060157888
  0
LINE
  8
0
 62
7
  6
CONTINUOUS
 10
134.4165959061
 20
221.1115210899
 11
134.1222172267
 21
221.4250008578
  0
LINE
  8
0
 62
7
  6
CONTINUOUS
 10
142.0647811646
 20
208.9050123551
 11
142.3112382417
 21
208.6183339621
  0
LINE
  8
0
 62
7
  6
CONTINUOUS
 10
138.3869708941
 20
206.3935540239
 11
138.5277155941
 21
206.0949497425
  0
LINE
  8
0
 62
7
  6
CONTINUOUS
 10
138.9978904964
 20
206.6721286927
 11
138.8571458056
 21
206.9707329751
  0
LINE
  8
0
 62
7
  6
CONTINUOUS
 10
140.3202297982
 20
195.8300808731
 11
140.3942497652
 21
195.6081781318
  0
LINE
  8
0
 62
7
  6
CONTINUOUS
 10
138.2228714136
 20
206.8991776301
 11
138.3869708941
 21
206.3935540239
  0
LINE
  8
0
 62
7
  6
CONTINUOUS
 10
133.44030504
 20
222.0005842944
 11
133.5483741928
 21
221.5843518039
  0
LINE
  8
0
 62
7
  6
CONTINUOUS
 10
138.5788191675
 20
196.4096117375
 11
138.520382319
 21
196.7345097526
  0
LINE
  8
0
 62
7
  6
CONTINUOUS
 10
138.7973502101
 20
218.2664948689
 11
138.774152349
 21
218.595790245
  0
LINE
  8
0
 62
7
  6
CONTINUOUS
 10
138.4480113511
 20
204.4050052394
 11
138.4348911789
 21
203.7801429657
  0
LINE
  8
0
 62
7
  6
CONTINUOUS
 10
138.3802238028
 20
201.1765505559
 11
138.3605435444
 21
200.2392571454
  0
LINE
  8
0
 62
7
  6
CONTINUOUS
 10
142.5570798456
 20
207.388139164
 11
142.498077154
 21
206.9621734402
  0
LINE
  8
0
 62
7
  6
CONTINUOUS
 10
138.2788422714
 20
199.4048600562
 11
137.9048502785
 21
196.9329923435
  0
LINE
  8
0
 62
7
  6
CONTINUOUS
 10
138.520382319
 20
196.7345097526
 11
138.8164594323
 21
198.691405811
  0
LINE
  8
0
 62
7
  6
CONTINUOUS
 10
140.3942473669
 20
198.4526875126
 11
140.0981702537
 21
196.4957914543
  0
LINE
  8
0
 62
7
  6
CONTINUOUS
 10
140.7292853391
 20
196.4003041483
 11
141.0253624524
 21
198.3572002067
  0
LINE
  8
0
 62
7
  6
CONTINUOUS
 10
133.077500178
 20
175.480939346
 11
133.1965124884
 21
175.933398374
  0
LINE
  8
0
 62
7
  6
CONTINUOUS
 10
142.9793139179
 20
206.4923263166
 11
143.1440288622
 21
206.9302191144
  0
LINE
  8
0
 62
7
  6
CONTINUOUS
 10
140.0981702537
 20
196.4957914543
 11
139.946235407
 21
196.2027225412
  0
LINE
  8
0
 62
7
  6
CONTINUOUS
 10
142.2018874999
 20
196.1775003898
 11
142.0499526532
 21
195.8844314767
  0
LINE
  8
0
 62
7
  6
CONTINUOUS
 10
132.6114799833
 20
175.7577225247
 11
132.3437338098
 21
175.2984858332
  0
LINE
  8
0
 62
7
  6
CONTINUOUS
 10
134.0422862509
 20
185.4172455304
 11
131.8786705823
 21
181.856362919
  0
LINE
  8
0
 62
7
  6
CONTINUOUS
 10
132.4241673876
 20
181.5249154764
 11
134.2632407678
 21
184.551665798
  0
LINE
  8
0
 62
7
  6
CONTINUOUS
 10
130.9813134213
 20
180.7013312046
 11
130.6078465826
 21
180.200184998
  0
LINE
  8
0
 62
7
  6
CONTINUOUS
 10
130.122842434
 20
179.5185823909
 11
127.6239622138
 21
176.7224962611
  0
LINE
  8
0
 62
7
  6
CONTINUOUS
 10
128.0205701838
 20
176.3680451587
 11
129.9641426292
 21
178.54277763
  0
LINE
  8
0
 62
7
  6
CONTINUOUS
 10
132.9090044043
 20
176.888862984
 11
132.5619398254
 21
176.5005200585
  0
LINE
  8
0
 62
7
  6
CONTINUOUS
 10
132.0660815112
 20
174.9878107817
 11
131.6396921719
 21
174.6703545114
  0
LINE
  8
0
 62
7
  6
CONTINUOUS
 10
131.4611768838
 20
173.9916695247
 11
131.8974755257
 21
174.1605677105
  0
LINE
  8
0
 62
7
  6
CONTINUOUS
 10
137.9605801689
 20
219.157465241
 11
138.2202923554
 21
218.8147143221
  0
LINE
  8
0
 62
7
  6
CONTINUOUS
 10
138.6124894316
 20
218.9798167777
 11
138.3527772451
 21
219.3225676965
  0
LINE
  8
0
 62
7
  6
CONTINUOUS
 10
142.9338350358
 20
208.7934001457
 11
142.6757005685
 21
209.1835882011
  0
LINE
  8
0
 62
7
  6
CONTINUOUS
 10
133.5483741928
 20
221.5843518039
 11
133.7495981506
 21
221.2194955702
  0
LINE
  8
0
 62
7
  6
CONTINUOUS
 10
134.3029639446
 20
220.2161410904
 11
134.5544939098
 21
219.7600707656
  0
LINE
  8
0
 62
7
  6
CONTINUOUS
 10
134.1222172267
 20
221.4250008578
 11
133.9209932689
 21
221.7898570915
  0
LINE
  8
0
 62
7
  6
CONTINUOUS
 10
137.434834504
 20
221.5865412484
 11
137.1833045388
 21
222.0426115732
  0
LINE
  8
0
 62
7
  6
CONTINUOUS
 10
136.1771849117
 20
223.8668924485
 11
135.9256550005
 21
224.3229626754
  0
LINE
  8
0
 62
7
  6
CONTINUOUS
 10
134.9090925675
 20
219.003089333
 11
135.1111711564
 21
218.5230563045
  0
LINE
  8
0
 62
7
  6
CONTINUOUS
 10
135.8386539378
 20
216.7949377313
 11
136.040732411
 21
216.3149049775
  0
LINE
  8
0
 62
7
  6
CONTINUOUS
 10
138.774152349
 20
218.595790245
 11
138.6124894316
 21
218.9798167777
  0
LINE
  8
0
 62
7
  6
CONTINUOUS
 10
138.2487480409
 20
219.8438760642
 11
138.046669452
 21
220.3239090928
  0
LINE
  8
0
 62
7
  6
CONTINUOUS
 10
142.3112382417
 20
208.6183339621
 11
142.4636603227
 21
208.2162200172
  0
LINE
  8
0
 62
7
  6
CONTINUOUS
 10
136.299841857
 20
215.5213017568
 11
136.4688088548
 21
215.0286382735
  0
LINE
  8
0
 62
7
  6
CONTINUOUS
 10
139.6889423658
 20
216.1330357182
 11
139.5199753679
 21
216.6256992015
  0
LINE
  8
0
 62
7
  6
CONTINUOUS
 10
140.7877221876
 20
196.0754061332
 11
140.7292853391
 21
196.4003041483
  0
LINE
  8
0
 62
7
  6
CONTINUOUS
 10
138.2202923554
 20
218.8147143221
 11
138.2839060037
 21
218.3894121756
  0
LINE
  8
0
 62
7
  6
CONTINUOUS
 10
138.1294518906
 20
207.7272584833
 11
138.2228714136
 21
206.8991776301
  0
LINE
  8
0
 62
7
  6
CONTINUOUS
 10
138.339645717
 20
205.8640774521
 11
138.4097103258
 21
205.2430171083
  0
LINE
  8
0
 62
7
  6
CONTINUOUS
 10
138.8571458056
 20
206.9707329751
 11
138.7637262827
 21
207.7988138283
  0
LINE
  8
0
 62
7
  6
CONTINUOUS
 10
139.5381298923
 20
206.6282484858
 11
139.4680652835
 21
207.2493088296
  0
LINE
  8
0
 62
7
  6
CONTINUOUS
 10
143.3594417339
 20
200.1342957673
 11
143.3725619062
 21
200.759158041
  0
LINE
  8
0
 62
7
  6
CONTINUOUS
 10
143.4272293073
 20
203.3627516426
 11
143.4469095406
 21
204.3000438613
  0
LINE
  8
0
 62
7
  6
CONTINUOUS
 10
143.1440288622
 20
206.9302191144
 11
143.1913541636
 21
207.4596945006
  0
LINE
  8
0
 62
7
  6
CONTINUOUS
 10
142.4979646132
 20
198.1343964482
 11
142.2018874999
 21
196.1775003898
  0
LINE
  8
0
 62
7
  6
CONTINUOUS
 10
142.8485857039
 20
196.1850083577
 11
143.2225776968
 21
198.6568760704
  0
LINE
  8
0
 62
7
  6
CONTINUOUS
 10
142.6654846201
 20
195.685948897
 11
142.8485857039
 21
196.1850083577
  0
LINE
  8
0
 62
7
  6
CONTINUOUS
 10
137.8607639516
 20
183.0971133933
 11
135.9676010153
 21
179.9813423817
  0
LINE
  8
0
 62
7
  6
CONTINUOUS
 10
136.151728901
 20
179.2600246119
 11
138.3153445696
 21
182.8209072233
  0
LINE
  8
0
 62
7
  6
CONTINUOUS
 10
132.6709294439
 20
174.8663669064
 11
133.077500178
 21
175.480939346
  0
LINE
  8
0
 62
7
  6
CONTINUOUS
 10
134.6170162352
 20
177.2124502882
 11
134.990483074
 21
177.7135964948
  0
LINE
  8
0
 62
7
  6
CONTINUOUS
 10
132.3437338098
 20
175.2984858332
 11
132.0660815112
 21
174.9878107817
  0
LINE
  8
0
 62
7
  6
CONTINUOUS
 10
132.3932771453
 20
174.5556918549
 11
132.6709294439
 21
174.8663669064
  0
LINE
  8
0
 62
7
  6
CONTINUOUS
 10
131.8974755257
 20
174.1605677105
 11
132.3932771453
 21
174.5556918549
  0
LINE
  8
0
 62
7
  6
CONTINUOUS
 10
140.5262672839
 20
216.9708234694
 11
140.6952342817
 21
216.4781599861
  0
LINE
  8
0
 62
7
  6
CONTINUOUS
 10
141.1983800988
 20
216.6507220718
 11
141.0294131009
 21
217.1433855551
  0
LINE
  8
0
 62
7
  6
CONTINUOUS
 10
143.0979346407
 20
208.2877753538
 11
142.9338350358
 21
208.7934001457
  0
LINE
  8
0
 62
7
  6
CONTINUOUS
 10
142.4636603227
 20
208.2162200172
 11
142.5570798456
 21
207.388139164
  0
LINE
  8
0
 62
7
  6
CONTINUOUS
 10
143.1913541636
 20
207.4596945006
 11
143.0979346407
 21
208.2877753538
  0
LINE
  8
1_AXIS
 62
7
  6
CONTINUOUS
 10
52.5125410264
 20
82.6137218085
 11
52.5125410264
 21
74.0320659377
  0
LINE
  8
0
 62
9
  6
CONTINUOUS
 10
52.6213041946
 20
82.6137218081
 11
52.6213041946
 21
74.032065938
  0
LINE
  8
0
 62
9
  6
CONTINUOUS
 10
53.3059284899
 20
74.0113570543
 11
53.3059284899
 21
82.6344306919
  0
LINE
  8
0
 62
9
  6
CONTINUOUS
 10
54.4326518145
 20
73.9141354531
 11
54.4326518145
 21
82.7316522931
  0
POLYLINE
  8
0
 62
7
  6
CONTINUOUS
 66
1
 70
0
  0
VERTEX
  8
0
 62
7
  6
CONTINUOUS
 10
57.3877216329
 20
74.0293943685
  0
VERTEX
  8
0
 62
7
  6
CONTINUOUS
 10
57.3901622632
 20
73.9800291179
  0
VERTEX
  8
0
 62
7
  6
CONTINUOUS
 10
57.403029005
 20
73.9065636198
  0
VERTEX
  8
0
 62
7
  6
CONTINUOUS
 10
57.426010726
 20
73.8374044117
  0
VERTEX
  8
0
 62
7
  6
CONTINUOUS
 10
57.457786235
 20
73.7739988115
  0
VERTEX
  8
0
 62
7
  6
CONTINUOUS
 10
57.4968185157
 20
73.7174432967
  0
VERTEX
  8
0
 62
7
  6
CONTINUOUS
 10
57.5414366204
 20
73.6684660118
  0
VERTEX
  8
0
 62
7
  6
CONTINUOUS
 10
57.5898884686
 20
73.6274430785
  0
VERTEX
  8
0
 62
7
  6
CONTINUOUS
 10
57.6404770364
 20
73.5943511346
  0
VERTEX
  8
0
 62
7
  6
CONTINUOUS
 10
57.6917180372
 20
73.5687814537
  0
VERTEX
  8
0
 62
7
  6
CONTINUOUS
 10
57.7406272218
 20
73.550581256
  0
VERTEX
  8
0
 62
7
  6
CONTINUOUS
 10
57.7839560217
 20
73.5387730162
  0
VERTEX
  8
0
 62
7
  6
CONTINUOUS
 10
57.8192606609
 20
73.5315833844
  0
VERTEX
  8
0
 62
7
  6
CONTINUOUS
 10
57.851740393
 20
73.5263146643
  0
VERTEX
  8
0
 62
7
  6
CONTINUOUS
 10
57.8865882968
 20
73.5215317128
  0
SEQEND
  0
LINE
  8
0
 62
9
  6
CONTINUOUS
 10
56.8325178134
 20
73.8228938731
 11
56.8325178134
 21
82.8228938731
  0
LINE
  8
2_FEATURE
 62
7
  6
CONTINUOUS
 10
57.3877140127
 20
82.6164016341
 11
57.3877140127
 21
74.029386112
  0
LINE
  8
0
 62
9
  6
CONTINUOUS
 10
57.4696496931
 20
82.6137218081
 11
57.4696496931
 21
74.032065938
  0
POLYLINE
  8
0
 62
9
  6
CONTINUOUS
 66
1
 70
0
  0
VERTEX
  8
0
 62
9
  6
CONTINUOUS
 10
55.6032690644
 20
83.2559062059
  0
VERTEX
  8
0
 62
9
  6
CONTINUOUS
 10
55.5703431816
 20
83.1764467144
  0
VERTEX
  8
0
 62
9
  6
CONTINUOUS
 10
55.5450783155
 20
83.0728933264
  0
VERTEX
  8
0
 62
9
  6
CONTINUOUS
 10
55.5291961814
 20
82.9523030565
  0
VERTEX
  8
0
 62
9
  6
CONTINUOUS
 10
55.5237790858
 20
82.8228938731
  0
SEQEND
  0
POLYLINE
  8
0
 62
9
  6
CONTINUOUS
 66
1
 70
0
  0
VERTEX
  8
0
 62
9
  6
CONTINUOUS
 10
55.6032692531
 20
73.3898811856
  0
VERTEX
  8
0
 62
9
  6
CONTINUOUS
 10
55.5703433414
 20
73.4693405058
  0
VERTEX
  8
0
 62
9
  6
CONTINUOUS
 10
55.5450784046
 20
73.5728938984
  0
VERTEX
  8
0
 62
9
  6
CONTINUOUS
 10
55.5291962048
 20
73.693484368
  0
VERTEX
  8
0
 62
9
  6
CONTINUOUS
 10
55.5237790858
 20
73.8228938731
  0
SEQEND
  0
LINE
  8
0
 62
9
  6
CONTINUOUS
 10
60.7125566066
 20
82.6137218081
 11
60.7125566066
 21
74.032065938
  0
LINE
  8
0
 62
9
  6
CONTINUOUS
 10
61.6746059982
 20
74.0113570543
 11
61.6746059982
 21
82.6344306919
  0
LINE
  8
0
 62
9
  6
CONTINUOUS
 10
62.731177318
 20
73.9141354531
 11
62.731177318
 21
82.7316522931
  0
LINE
  8
0
 62
9
  6
CONTINUOUS
 10
57.8974983443
 20
83.176447295
 11
57.8545326242
 21
83.1198369042
  0
POLYLINE
  8
0
 62
9
  6
CONTINUOUS
 66
1
 70
0
  0
VERTEX
  8
0
 62
9
  6
CONTINUOUS
 10
54.4601941737
 20
83.2297496224
  0
VERTEX
  8
0
 62
9
  6
CONTINUOUS
 10
54.4436935447
 20
83.2107522943
  0
VERTEX
  8
0
 62
9
  6
CONTINUOUS
 10
54.4311798577
 20
83.1598897429
  0
VERTEX
  8
0
 62
9
  6
CONTINUOUS
 10
54.4234854057
 20
83.0805448663
  0
VERTEX
  8
0
 62
9
  6
CONTINUOUS
 10
54.421121951
 20
82.9779949392
  0
VERTEX
  8
0
 62
9
  6
CONTINUOUS
 10
54.4242466885
 20
82.8590606175
  0
VERTEX
  8
0
 62
9
  6
CONTINUOUS
 10
54.43265179
 20
82.7316522931
  0
SEQEND
  0
POLYLINE
  8
0
 62
9
  6
CONTINUOUS
 66
1
 70
0
  0
VERTEX
  8
0
 62
9
  6
CONTINUOUS
 10
53.3334535744
 20
83.132528041
  0
VERTEX
  8
0
 62
9
  6
CONTINUOUS
 10
53.3169446029
 20
83.1135772953
  0
VERTEX
  8
0
 62
9
  6
CONTINUOUS
 10
53.3044265541
 20
83.0627400509
  0
VERTEX
  8
0
 62
9
  6
CONTINUOUS
 10
53.2967324856
 20
82.9833994511
  0
VERTEX
  8
0
 62
9
  6
CONTINUOUS
 10
53.2943744264
 20
82.8808354958
  0
VERTEX
  8
0
 62
9
  6
CONTINUOUS
 10
53.2975093018
 20
82.7618736647
  0
VERTEX
  8
0
 62
9
  6
CONTINUOUS
 10
53.3059284899
 20
82.6344306919
  0
SEQEND
  0
POLYLINE
  8
0
 62
9
  6
CONTINUOUS
 66
1
 70
0
  0
VERTEX
  8
0
 62
9
  6
CONTINUOUS
 10
53.3334535742
 20
73.5132597022
  0
VERTEX
  8
0
 62
9
  6
CONTINUOUS
 10
53.3169449928
 20
73.5322113936
  0
VERTEX
  8
0
 62
9
  6
CONTINUOUS
 10
53.3044273108
 20
73.5830491538
  0
VERTEX
  8
0
 62
9
  6
CONTINUOUS
 10
53.2967335517
 20
73.6623898434
  0
VERTEX
  8
0
 62
9
  6
CONTINUOUS
 10
53.2943757179
 20
73.7649535163
  0
VERTEX
  8
0
 62
9
  6
CONTINUOUS
 10
53.2975107173
 20
73.883914789
  0
VERTEX
  8
0
 62
9
  6
CONTINUOUS
 10
53.3059299214
 20
74.0113570542
  0
SEQEND
  0
POLYLINE
  8
0
 62
9
  6
CONTINUOUS
 66
1
 70
0
  0
VERTEX
  8
0
 62
9
  6
CONTINUOUS
 10
54.460194172
 20
73.416038104
  0
VERTEX
  8
0
 62
9
  6
CONTINUOUS
 10
54.443693551
 20
73.4350354719
  0
VERTEX
  8
0
 62
9
  6
CONTINUOUS
 10
54.4311798716
 20
73.4858980467
  0
VERTEX
  8
0
 62
9
  6
CONTINUOUS
 10
54.4234854256
 20
73.5652429299
  0
VERTEX
  8
0
 62
9
  6
CONTINUOUS
 10
54.4211219749
 20
73.6677928494
  0
VERTEX
  8
0
 62
9
  6
CONTINUOUS
 10
54.4242467139
 20
73.7867271527
  0
VERTEX
  8
0
 62
9
  6
CONTINUOUS
 10
54.4326518145
 20
73.9141354531
  0
SEQEND
  0
LINE
  8
0
 62
9
  6
CONTINUOUS
 10
57.897496913
 20
73.4693418983
 11
57.8545490733
 21
73.5259291668
  0
LINE
  8
0
 62
9
  6
CONTINUOUS
 10
65.2474854966
 20
73.8228938731
 11
65.2474854966
 21
82.8228938731
  0
LINE
  8
1_AXIS
 62
7
  6
CONTINUOUS
 10
65.9125410264
 20
88.8228938731
 11
65.9125410264
 21
85.3228938731
  0
LINE
  8
1_AXIS
 62
7
  6
CONTINUOUS
 10
65.9125410264
 20
71.3228938731
 11
65.9125410264
 21
67.8228938731
  0
LINE
  8
0
 62
9
  6
CONTINUOUS
 10
66.745766388
 20
73.8228938731
 11
66.745766388
 21
82.8228938731
  0
POLYLINE
  8
0
 62
9
  6
CONTINUOUS
 66
1
 70
0
  0
VERTEX
  8
0
 62
9
  6
CONTINUOUS
 10
65.264421801
 20
83.3228938731
  0
VERTEX
  8
0
 62
9
  6
CONTINUOUS
 10
65.2600383352
 20
83.3058565684
  0
VERTEX
  8
0
 62
9
  6
CONTINUOUS
 10
65.2559536105
 20
83.255905924
  0
VERTEX
  8
0
 62
9
  6
CONTINUOUS
 10
65.252445992
 20
83.1764462846
  0
VERTEX
  8
0
 62
9
  6
CONTINUOUS
 10
65.2497545117
 20
83.0728928912
  0
VERTEX
  8
0
 62
9
  6
CONTINUOUS
 10
65.2480625814
 20
82.9523027836
  0
VERTEX
  8
0
 62
9
  6
CONTINUOUS
 10
65.2474854963
 20
82.8228938731
  0
SEQEND
  0
POLYLINE
  8
0
 62
9
  6
CONTINUOUS
 66
1
 70
0
  0
VERTEX
  8
0
 62
9
  6
CONTINUOUS
 10
65.264421801
 20
73.3228938731
  0
VERTEX
  8
0
 62
9
  6
CONTINUOUS
 10
65.2600383521
 20
73.3399310451
  0
VERTEX
  8
0
 62
9
  6
CONTINUOUS
 10
65.2559536342
 20
73.3898814208
  0
VERTEX
  8
0
 62
9
  6
CONTINUOUS
 10
65.2524460128
 20
73.4693408521
  0
VERTEX
  8
0
 62
9
  6
CONTINUOUS
 10
65.249754524
 20
73.5728942396
  0
VERTEX
  8
0
 62
9
  6
CONTINUOUS
 10
65.2480625851
 20
73.6934845774
  0
VERTEX
  8
0
 62
9
  6
CONTINUOUS
 10
65.2474854966
 20
73.8228938731
  0
SEQEND
  0
LINE
  8
0
 62
9
  6
CONTINUOUS
 10
57.9999242338
 20
83.2559065963
 11
57.8974983443
 21
83.176447295
  0
LINE
  8
0
 62
9
  6
CONTINUOUS
 10
57.9999225881
 20
73.3898821104
 11
57.897496913
 21
73.4693418983
  0
POLYLINE
  8
0
 62
7
  6
CONTINUOUS
 66
1
 70
0
  0
VERTEX
  8
0
 62
7
  6
CONTINUOUS
 10
73.6040097612
 20
74.0204840692
  0
VERTEX
  8
0
 62
7
  6
CONTINUOUS
 10
73.6121226747
 20
73.9306355929
  0
VERTEX
  8
0
 62
7
  6
CONTINUOUS
 10
73.6348095107
 20
73.8474161804
  0
VERTEX
  8
0
 62
7
  6
CONTINUOUS
 10
73.6700935365
 20
73.7715947872
  0
VERTEX
  8
0
 62
7
  6
CONTINUOUS
 10
73.7156975785
 20
73.7048420166
  0
VERTEX
  8
0
 62
7
  6
CONTINUOUS
 10
73.7691945632
 20
73.6482227369
  0
VERTEX
  8
0
 62
7
  6
CONTINUOUS
 10
73.8278654745
 20
73.6023928122
  0
VERTEX
  8
0
 62
7
  6
CONTINUOUS
 10
73.8889484995
 20
73.5673016615
  0
VERTEX
  8
0
 62
7
  6
CONTINUOUS
 10
73.9498022569
 20
73.5421544313
  0
VERTEX
  8
0
 62
7
  6
CONTINUOUS
 10
74.0039510265
 20
73.5263348718
  0
VERTEX
  8
0
 62
7
  6
CONTINUOUS
 10
74.0138884915
 20
73.5239819563
  0
SEQEND
  0
LINE
  8
2_FEATURE
 62
7
  6
CONTINUOUS
 10
73.6040044642
 20
82.6253731297
 11
73.6040044642
 21
74.0204146164
  0
LINE
  8
0
 62
9
  6
CONTINUOUS
 10
73.9584828413
 20
82.6137218081
 11
73.9584828413
 21
74.032065938
  0
POLYLINE
  8
0
 62
9
  6
CONTINUOUS
 66
1
 70
0
  0
VERTEX
  8
0
 62
9
  6
CONTINUOUS
 10
55.4145511925
 20
83.3114778422
  0
VERTEX
  8
0
 62
9
  6
CONTINUOUS
 10
55.3802260835
 20
83.291165549
  0
VERTEX
  8
0
 62
9
  6
CONTINUOUS
 10
55.3509883197
 20
83.2395895601
  0
VERTEX
  8
0
 62
9
  6
CONTINUOUS
 10
55.328751064
 20
83.1601247325
  0
VERTEX
  8
0
 62
9
  6
CONTINUOUS
 10
55.314969403
 20
83.0579708192
  0
VERTEX
  8
0
 62
9
  6
CONTINUOUS
 10
55.3105451347
 20
82.9398122257
  0
VERTEX
  8
0
 62
9
  6
CONTINUOUS
 10
55.3157677594
 20
82.8133806183
  0
SEQEND
  0
POLYLINE
  8
0
 62
9
  6
CONTINUOUS
 66
1
 70
0
  0
VERTEX
  8
0
 62
9
  6
CONTINUOUS
 10
55.4145511834
 20
73.3343097996
  0
VERTEX
  8
0
 62
9
  6
CONTINUOUS
 10
55.3802260666
 20
73.3546220726
  0
VERTEX
  8
0
 62
9
  6
CONTINUOUS
 10
55.3509882946
 20
73.4061980605
  0
VERTEX
  8
0
 62
9
  6
CONTINUOUS
 10
55.3287510319
 20
73.4856629049
  0
VERTEX
  8
0
 62
9
  6
CONTINUOUS
 10
55.3149693668
 20
73.5878168487
  0
VERTEX
  8
0
 62
9
  6
CONTINUOUS
 10
55.3105450982
 20
73.7059754806
  0
VERTEX
  8
0
 62
9
  6
CONTINUOUS
 10
55.3157677267
 20
73.8324071279
  0
SEQEND
  0
LINE
  8
0
 62
9
  6
CONTINUOUS
 10
79.5753623797
 20
82.6137218081
 11
79.5753623797
 21
74.032065938
  0
LINE
  8
0
 62
9
  6
CONTINUOUS
 10
80.5570565099
 20
74.0113570543
 11
80.5570565099
 21
82.6344306919
  0
LINE
  8
0
 62
9
  6
CONTINUOUS
 10
81.2603683932
 20
73.9141354531
 11
81.2603683932
 21
82.7316522931
  0
POLYLINE
  8
0
 62
9
  6
CONTINUOUS
 66
1
 70
0
  0
VERTEX
  8
0
 62
9
  6
CONTINUOUS
 10
55.6827594495
 20
83.3228938731
  0
VERTEX
  8
0
 62
9
  6
CONTINUOUS
 10
55.6416121551
 20
83.3058566611
  0
VERTEX
  8
0
 62
9
  6
CONTINUOUS
 10
55.6032690644
 20
83.2559062059
  0
SEQEND
  0
POLYLINE
  8
0
 62
9
  6
CONTINUOUS
 66
1
 70
0
  0
VERTEX
  8
0
 62
9
  6
CONTINUOUS
 10
55.6827594495
 20
73.3228938731
  0
VERTEX
  8
0
 62
9
  6
CONTINUOUS
 10
55.6416122941
 20
73.3399309645
  0
VERTEX
  8
0
 62
9
  6
CONTINUOUS
 10
55.6032692531
 20
73.3898811856
  0
SEQEND
  0
LINE
  8
0
 62
9
  6
CONTINUOUS
 10
83.2188760069
 20
73.8228938731
 11
83.2188760069
 21
82.8228938731
  0
POLYLINE
  8
0
 62
9
  6
CONTINUOUS
 66
1
 70
0
  0
VERTEX
  8
0
 62
9
  6
CONTINUOUS
 10
63.7062531602
 20
73.3228938731
  0
VERTEX
  8
0
 62
9
  6
CONTINUOUS
 10
63.7319655212
 20
73.3399309645
  0
VERTEX
  8
0
 62
9
  6
CONTINUOUS
 10
63.7559256271
 20
73.3898811856
  0
VERTEX
  8
0
 62
9
  6
CONTINUOUS
 10
63.776500636
 20
73.4693405058
  0
VERTEX
  8
0
 62
9
  6
CONTINUOUS
 10
63.7922883958
 20
73.5728938984
  0
VERTEX
  8
0
 62
9
  6
CONTINUOUS
 10
63.8022129977
 20
73.693484368
  0
VERTEX
  8
0
 62
9
  6
CONTINUOUS
 10
63.8055980976
 20
73.8228938731
  0
SEQEND
  0
POLYLINE
  8
0
 62
9
  6
CONTINUOUS
 66
1
 70
0
  0
VERTEX
  8
0
 62
9
  6
CONTINUOUS
 10
63.4403144323
 20
73.3343097996
  0
VERTEX
  8
0
 62
9
  6
CONTINUOUS
 10
63.4713495684
 20
73.3546220726
  0
VERTEX
  8
0
 62
9
  6
CONTINUOUS
 10
63.5026940288
 20
73.4061980605
  0
VERTEX
  8
0
 62
9
  6
CONTINUOUS
 10
63.5322967988
 20
73.4856629049
  0
VERTEX
  8
0
 62
9
  6
CONTINUOUS
 10
63.5582208304
 20
73.5878168487
  0
VERTEX
  8
0
 62
9
  6
CONTINUOUS
 10
63.5787697927
 20
73.7059754806
  0
VERTEX
  8
0
 62
9
  6
CONTINUOUS
 10
63.5925990709
 20
73.8324071279
  0
SEQEND
  0
POLYLINE
  8
0
 62
9
  6
CONTINUOUS
 66
1
 70
0
  0
VERTEX
  8
0
 62
9
  6
CONTINUOUS
 10
63.4403144398
 20
83.3114778422
  0
VERTEX
  8
0
 62
9
  6
CONTINUOUS
 10
63.4713495649
 20
83.291165549
  0
VERTEX
  8
0
 62
9
  6
CONTINUOUS
 10
63.5026940146
 20
83.2395895601
  0
VERTEX
  8
0
 62
9
  6
CONTINUOUS
 10
63.5322967757
 20
83.1601247325
  0
VERTEX
  8
0
 62
9
  6
CONTINUOUS
 10
63.5582208015
 20
83.0579708192
  0
VERTEX
  8
0
 62
9
  6
CONTINUOUS
 10
63.5787697625
 20
82.9398122257
  0
VERTEX
  8
0
 62
9
  6
CONTINUOUS
 10
63.5925990441
 20
82.8133806183
  0
SEQEND
  0
POLYLINE
  8
0
 62
9
  6
CONTINUOUS
 66
1
 70
0
  0
VERTEX
  8
0
 62
9
  6
CONTINUOUS
 10
63.7062531602
 20
83.3228938731
  0
VERTEX
  8
0
 62
9
  6
CONTINUOUS
 10
63.7319655513
 20
83.3058567468
  0
VERTEX
  8
0
 62
9
  6
CONTINUOUS
 10
63.7559256692
 20
83.255906458
  0
VERTEX
  8
0
 62
9
  6
CONTINUOUS
 10
63.7765006739
 20
83.1764470888
  0
VERTEX
  8
0
 62
9
  6
CONTINUOUS
 10
63.7922884198
 20
83.0728936985
  0
VERTEX
  8
0
 62
9
  6
CONTINUOUS
 10
63.8022130067
 20
82.9523032871
  0
VERTEX
  8
0
 62
9
  6
CONTINUOUS
 10
63.8055980976
 20
82.8228938731
  0
SEQEND
  0
LINE
  8
0
 62
9
  6
CONTINUOUS
 10
84.8938462092
 20
73.8228938731
 11
84.8938462092
 21
82.8228938731
  0
POLYLINE
  8
0
 62
9
  6
CONTINUOUS
 66
1
 70
0
  0
VERTEX
  8
0
 62
9
  6
CONTINUOUS
 10
79.7765764395
 20
83.1118191572
  0
VERTEX
  8
0
 62
9
  6
CONTINUOUS
 10
79.7234188453
 20
83.08600598
  0
VERTEX
  8
0
 62
9
  6
CONTINUOUS
 10
79.6746627615
 20
83.031466787
  0
VERTEX
  8
0
 62
9
  6
CONTINUOUS
 10
79.6332737702
 20
82.9515185046
  0
VERTEX
  8
0
 62
9
  6
CONTINUOUS
 10
79.6017694261
 20
82.8510236367
  0
VERTEX
  8
0
 62
9
  6
CONTINUOUS
 10
79.5820661003
 20
82.7360945683
  0
VERTEX
  8
0
 62
9
  6
CONTINUOUS
 10
79.5753623804
 20
82.6137218081
  0
SEQEND
  0
POLYLINE
  8
0
 62
9
  6
CONTINUOUS
 66
1
 70
0
  0
VERTEX
  8
0
 62
9
  6
CONTINUOUS
 10
74.2126652506
 20
83.1118191572
  0
VERTEX
  8
0
 62
9
  6
CONTINUOUS
 10
74.1455136728
 20
83.086005619
  0
VERTEX
  8
0
 62
9
  6
CONTINUOUS
 10
74.0839226133
 20
83.03146582
  0
VERTEX
  8
0
 62
9
  6
CONTINUOUS
 10
74.031638309
 20
82.95151706
  0
VERTEX
  8
0
 62
9
  6
CONTINUOUS
 10
73.9918409284
 20
82.8510221353
  0
VERTEX
  8
0
 62
9
  6
CONTINUOUS
 10
73.966951134
 20
82.7360935669
  0
VERTEX
  8
0
 62
9
  6
CONTINUOUS
 10
73.9584828413
 20
82.6137218081
  0
SEQEND
  0
LINE
  8
0
 62
7
  6
CONTINUOUS
 10
74.680654426
 20
83.2855076648
 11
74.680142259
 21
83.2853287954
  0
POLYLINE
  8
0
 62
9
  6
CONTINUOUS
 66
1
 70
0
  0
VERTEX
  8
0
 62
9
  6
CONTINUOUS
 10
140.7334311805
 20
73.533968589
  0
VERTEX
  8
0
 62
9
  6
CONTINUOUS
 10
140.8335819658
 20
73.5597817812
  0
VERTEX
  8
0
 62
9
  6
CONTINUOUS
 10
140.925440134
 20
73.6143210004
  0
VERTEX
  8
0
 62
9
  6
CONTINUOUS
 10
141.0034184251
 20
73.6942693049
  0
VERTEX
  8
0
 62
9
  6
CONTINUOUS
 10
141.0627736847
 20
73.7947641771
  0
VERTEX
  8
0
 62
9
  6
CONTINUOUS
 10
141.0998954147
 20
73.9096932243
  0
VERTEX
  8
0
 62
9
  6
CONTINUOUS
 10
141.1125254468
 20
74.032065938
  0
SEQEND
  0
POLYLINE
  8
0
 62
9
  6
CONTINUOUS
 66
1
 70
0
  0
VERTEX
  8
0
 62
9
  6
CONTINUOUS
 10
144.72804043
 20
73.3228938731
  0
VERTEX
  8
0
 62
9
  6
CONTINUOUS
 10
144.7965048486
 20
73.3399312734
  0
VERTEX
  8
0
 62
9
  6
CONTINUOUS
 10
144.8603031954
 20
73.3898821104
  0
VERTEX
  8
0
 62
9
  6
CONTINUOUS
 10
144.9150877586
 20
73.4693418983
  0
VERTEX
  8
0
 62
9
  6
CONTINUOUS
 10
144.9571252034
 20
73.5728952954
  0
VERTEX
  8
0
 62
9
  6
CONTINUOUS
 10
144.9835509352
 20
73.693485238
  0
VERTEX
  8
0
 62
9
  6
CONTINUOUS
 10
144.9925642396
 20
73.8228938731
  0
SEQEND
  0
POLYLINE
  8
0
 62
9
  6
CONTINUOUS
 66
1
 70
0
  0
VERTEX
  8
0
 62
9
  6
CONTINUOUS
 10
143.9457568032
 20
73.533968589
  0
VERTEX
  8
0
 62
9
  6
CONTINUOUS
 10
144.0539875058
 20
73.5597820978
  0
VERTEX
  8
0
 62
9
  6
CONTINUOUS
 10
144.1532561583
 20
73.6143218523
  0
VERTEX
  8
0
 62
9
  6
CONTINUOUS
 10
144.2375247968
 20
73.6942705832
  0
VERTEX
  8
0
 62
9
  6
CONTINUOUS
 10
144.3016678015
 20
73.7947655119
  0
VERTEX
  8
0
 62
9
  6
CONTINUOUS
 10
144.341783674
 20
73.909694119
  0
VERTEX
  8
0
 62
9
  6
CONTINUOUS
 10
144.3554323597
 20
74.032065938
  0
SEQEND
  0
POLYLINE
  8
0
 62
9
  6
CONTINUOUS
 66
1
 70
0
  0
VERTEX
  8
0
 62
9
  6
CONTINUOUS
 10
148.7483813891
 20
73.533968589
  0
VERTEX
  8
0
 62
9
  6
CONTINUOUS
 10
148.8686900251
 20
73.5597817812
  0
VERTEX
  8
0
 62
9
  6
CONTINUOUS
 10
148.9790369475
 20
73.6143210004
  0
VERTEX
  8
0
 62
9
  6
CONTINUOUS
 10
149.07271032
 20
73.6942693049
  0
VERTEX
  8
0
 62
9
  6
CONTINUOUS
 10
149.1440123101
 20
73.7947641771
  0
VERTEX
  8
0
 62
9
  6
CONTINUOUS
 10
149.1886057165
 20
73.9096932243
  0
VERTEX
  8
0
 62
9
  6
CONTINUOUS
 10
149.2037778583
 20
74.032065938
  0
SEQEND
  0
POLYLINE
  8
0
 62
7
  6
CONTINUOUS
 66
1
 70
0
  0
VERTEX
  8
0
 62
7
  6
CONTINUOUS
 10
144.0091057756
 20
73.5321780121
  0
VERTEX
  8
0
 62
7
  6
CONTINUOUS
 10
144.04623157
 20
73.5399776033
  0
VERTEX
  8
0
 62
7
  6
CONTINUOUS
 10
144.0906219705
 20
73.5525749851
  0
VERTEX
  8
0
 62
7
  6
CONTINUOUS
 10
144.1394897104
 20
73.5714666347
  0
VERTEX
  8
0
 62
7
  6
CONTINUOUS
 10
144.1900442308
 20
73.5975043797
  0
VERTEX
  8
0
 62
7
  6
CONTINUOUS
 10
144.239785212
 20
73.6308960706
  0
VERTEX
  8
0
 62
7
  6
CONTINUOUS
 10
144.2874710469
 20
73.6721817509
  0
VERTEX
  8
0
 62
7
  6
CONTINUOUS
 10
144.3313335172
 20
73.721333178
  0
VERTEX
  8
0
 62
7
  6
CONTINUOUS
 10
144.3696021944
 20
73.7779237826
  0
VERTEX
  8
0
 62
7
  6
CONTINUOUS
 10
144.4006162323
 20
73.8411630248
  0
VERTEX
  8
0
 62
7
  6
CONTINUOUS
 10
144.4228837886
 20
73.9098881477
  0
VERTEX
  8
0
 62
7
  6
CONTINUOUS
 10
144.4351682351
 20
73.9825955793
  0
SEQEND
  0
POLYLINE
  8
0
 62
9
  6
CONTINUOUS
 66
1
 70
0
  0
VERTEX
  8
0
 62
9
  6
CONTINUOUS
 10
53.0767006638
 20
73.533968589
  0
VERTEX
  8
0
 62
9
  6
CONTINUOUS
 10
52.9563912341
 20
73.5597820576
  0
VERTEX
  8
0
 62
9
  6
CONTINUOUS
 10
52.8460439665
 20
73.6143217512
  0
VERTEX
  8
0
 62
9
  6
CONTINUOUS
 10
52.7523706929
 20
73.6942704423
  0
VERTEX
  8
0
 62
9
  6
CONTINUOUS
 10
52.6810690976
 20
73.7947653764
  0
VERTEX
  8
0
 62
9
  6
CONTINUOUS
 10
52.6364761319
 20
73.9096940364
  0
VERTEX
  8
0
 62
9
  6
CONTINUOUS
 10
52.6213041946
 20
74.032065938
  0
SEQEND
  0
POLYLINE
  8
0
 62
9
  6
CONTINUOUS
 66
1
 70
0
  0
VERTEX
  8
0
 62
9
  6
CONTINUOUS
 10
57.8793252497
 20
73.533968589
  0
VERTEX
  8
0
 62
9
  6
CONTINUOUS
 10
57.7710953647
 20
73.5597817812
  0
VERTEX
  8
0
 62
9
  6
CONTINUOUS
 10
57.6718270569
 20
73.6143210004
  0
VERTEX
  8
0
 62
9
  6
CONTINUOUS
 10
57.5875583074
 20
73.6942693049
  0
VERTEX
  8
0
 62
9
  6
CONTINUOUS
 10
57.5234148976
 20
73.7947641771
  0
VERTEX
  8
0
 62
9
  6
CONTINUOUS
 10
57.483298582
 20
73.9096932243
  0
VERTEX
  8
0
 62
9
  6
CONTINUOUS
 10
57.4696496935
 20
74.032065938
  0
SEQEND
  0
POLYLINE
  8
0
 62
9
  6
CONTINUOUS
 66
1
 70
0
  0
VERTEX
  8
0
 62
9
  6
CONTINUOUS
 10
57.0970416229
 20
73.3228938731
  0
VERTEX
  8
0
 62
9
  6
CONTINUOUS
 10
57.0285777324
 20
73.3399310059
  0
VERTEX
  8
0
 62
9
  6
CONTINUOUS
 10
56.9647795943
 20
73.3898813064
  0
VERTEX
  8
0
 62
9
  6
CONTINUOUS
 10
56.9099949372
 20
73.4693406833
  0
VERTEX
  8
0
 62
9
  6
CONTINUOUS
 10
56.8679572231
 20
73.5728940725
  0
VERTEX
  8
0
 62
9
  6
CONTINUOUS
 10
56.8415312261
 20
73.6934844741
  0
VERTEX
  8
0
 62
9
  6
CONTINUOUS
 10
56.8325178134
 20
73.8228938731
  0
SEQEND
  0
POLYLINE
  8
0
 62
9
  6
CONTINUOUS
 66
1
 70
0
  0
VERTEX
  8
0
 62
9
  6
CONTINUOUS
 10
61.0916508723
 20
73.533968589
  0
VERTEX
  8
0
 62
9
  6
CONTINUOUS
 10
60.9914992727
 20
73.5597821219
  0
VERTEX
  8
0
 62
9
  6
CONTINUOUS
 10
60.8996407664
 20
73.6143219129
  0
VERTEX
  8
0
 62
9
  6
CONTINUOUS
 10
60.8216625905
 20
73.6942706677
  0
VERTEX
  8
0
 62
9
  6
CONTINUOUS
 10
60.7623077343
 20
73.7947655931
  0
VERTEX
  8
0
 62
9
  6
CONTINUOUS
 10
60.7251864408
 20
73.9096941685
  0
VERTEX
  8
0
 62
9
  6
CONTINUOUS
 10
60.7125566066
 20
74.032065938
  0
SEQEND
  0
LINE
  8
0
 62
7
  6
CONTINUOUS
 10
74.6806348004
 20
73.3602870466
 11
74.6801493142
 21
73.3604566057
  0
POLYLINE
  8
0
 62
9
  6
CONTINUOUS
 66
1
 70
0
  0
VERTEX
  8
0
 62
9
  6
CONTINUOUS
 10
74.2126652506
 20
73.533968589
  0
VERTEX
  8
0
 62
9
  6
CONTINUOUS
 10
74.145514227
 20
73.5597817812
  0
VERTEX
  8
0
 62
9
  6
CONTINUOUS
 10
74.0839233968
 20
73.6143210004
  0
VERTEX
  8
0
 62
9
  6
CONTINUOUS
 10
74.0316390137
 20
73.6942693049
  0
VERTEX
  8
0
 62
9
  6
CONTINUOUS
 10
73.9918413589
 20
73.7947641771
  0
VERTEX
  8
0
 62
9
  6
CONTINUOUS
 10
73.9669512685
 20
73.9096932243
  0
VERTEX
  8
0
 62
9
  6
CONTINUOUS
 10
73.9584828421
 20
74.032065938
  0
SEQEND
  0
POLYLINE
  8
0
 62
9
  6
CONTINUOUS
 66
1
 70
0
  0
VERTEX
  8
0
 62
9
  6
CONTINUOUS
 10
79.7765764395
 20
73.533968589
  0
VERTEX
  8
0
 62
9
  6
CONTINUOUS
 10
79.7234186104
 20
73.5597819519
  0
VERTEX
  8
0
 62
9
  6
CONTINUOUS
 10
79.6746624098
 20
73.6143214853
  0
VERTEX
  8
0
 62
9
  6
CONTINUOUS
 10
79.6332734358
 20
73.6942700717
  0
VERTEX
  8
0
 62
9
  6
CONTINUOUS
 10
79.6017692103
 20
73.7947650202
  0
VERTEX
  8
0
 62
9
  6
CONTINUOUS
 10
79.582066029
 20
73.9096938192
  0
VERTEX
  8
0
 62
9
  6
CONTINUOUS
 10
79.5753623797
 20
74.032065938
  0
SEQEND
  0
POLYLINE
  8
0
 62
9
  6
CONTINUOUS
 66
1
 70
0
  0
VERTEX
  8
0
 62
9
  6
CONTINUOUS
 10
61.4525694901
 20
73.5132597022
  0
VERTEX
  8
0
 62
9
  6
CONTINUOUS
 10
61.5015278455
 20
73.5322113936
  0
VERTEX
  8
0
 62
9
  6
CONTINUOUS
 10
61.5496267182
 20
73.5830491538
  0
VERTEX
  8
0
 62
9
  6
CONTINUOUS
 10
61.5936652353
 20
73.6623898434
  0
VERTEX
  8
0
 62
9
  6
CONTINUOUS
 10
61.6307127313
 20
73.7649535163
  0
VERTEX
  8
0
 62
9
  6
CONTINUOUS
 10
61.6583037776
 20
73.883914789
  0
VERTEX
  8
0
 62
9
  6
CONTINUOUS
 10
61.6746022503
 20
74.0113570542
  0
SEQEND
  0
POLYLINE
  8
0
 62
9
  6
CONTINUOUS
 66
1
 70
0
  0
VERTEX
  8
0
 62
9
  6
CONTINUOUS
 10
85.07739949
 20
83.3228938731
  0
VERTEX
  8
0
 62
9
  6
CONTINUOUS
 10
85.0298924153
 20
83.3058567936
  0
VERTEX
  8
0
 62
9
  6
CONTINUOUS
 10
84.9856228632
 20
83.2559065963
  0
VERTEX
  8
0
 62
9
  6
CONTINUOUS
 10
84.947607732
 20
83.176447295
  0
VERTEX
  8
0
 62
9
  6
CONTINUOUS
 10
84.9184376925
 20
83.072893904
  0
VERTEX
  8
0
 62
9
  6
CONTINUOUS
 10
84.9001006375
 20
82.9523034147
  0
VERTEX
  8
0
 62
9
  6
CONTINUOUS
 10
84.8938462092
 20
82.8228938731
  0
SEQEND
  0
POLYLINE
  8
0
 62
7
  6
CONTINUOUS
 66
1
 70
0
  0
VERTEX
  8
0
 62
7
  6
CONTINUOUS
 10
74.680142259
 20
83.2853287954
  0
VERTEX
  8
0
 62
7
  6
CONTINUOUS
 10
74.6335283754
 20
83.27016654
  0
VERTEX
  8
0
 62
7
  6
CONTINUOUS
 10
74.5409047736
 20
83.2442374947
  0
SEQEND
  0
LINE
  8
0
 62
9
  6
CONTINUOUS
 10
74.8203616731
 20
83.3114779674
 11
74.7451017809
 21
83.287144949
  0
POLYLINE
  8
0
 62
9
  6
CONTINUOUS
 66
1
 70
0
  0
VERTEX
  8
0
 62
9
  6
CONTINUOUS
 10
74.1010416882
 20
83.1325280409
  0
VERTEX
  8
0
 62
9
  6
CONTINUOUS
 10
74.0831058153
 20
83.1269110398
  0
VERTEX
  8
0
 62
9
  6
CONTINUOUS
 10
74.0803503131
 20
83.1218549393
  0
VERTEX
  8
0
 62
9
  6
CONTINUOUS
 10
74.0929690027
 20
83.117631647
  0
VERTEX
  8
0
 62
9
  6
CONTINUOUS
 10
74.1203156618
 20
83.1144546428
  0
VERTEX
  8
0
 62
9
  6
CONTINUOUS
 10
74.1609773106
 20
83.1124839327
  0
VERTEX
  8
0
 62
9
  6
CONTINUOUS
 10
74.2126652506
 20
83.1118191572
  0
SEQEND
  0
LINE
  8
0
 62
7
  6
CONTINUOUS
 10
74.7445124246
 20
83.3044184881
 11
74.6806544642
 21
83.2855075552
  0
LINE
  8
0
 62
9
  6
CONTINUOUS
 10
127.0883238231
 20
73.3611345561
 11
127.1870573876
 21
73.3883883224
  0
LINE
  8
0
 62
7
  6
CONTINUOUS
 10
127.2841767557
 20
73.4015501153
 11
127.387916721
 21
73.4267900721
  0
LINE
  8
0
 62
9
  6
CONTINUOUS
 10
127.1870573876
 20
73.3883883224
 11
127.3008171896
 21
73.416038104
  0
POLYLINE
  8
0
 62
7
  6
CONTINUOUS
 66
1
 70
0
  0
VERTEX
  8
0
 62
7
  6
CONTINUOUS
 10
127.8112979223
 20
73.5240058537
  0
VERTEX
  8
0
 62
7
  6
CONTINUOUS
 10
127.8182365489
 20
73.5256341077
  0
VERTEX
  8
0
 62
7
  6
CONTINUOUS
 10
127.8723040568
 20
73.5411387826
  0
VERTEX
  8
0
 62
7
  6
CONTINUOUS
 10
127.9334613894
 20
73.5660083765
  0
VERTEX
  8
0
 62
7
  6
CONTINUOUS
 10
127.9949578053
 20
73.6008896404
  0
VERTEX
  8
0
 62
7
  6
CONTINUOUS
 10
128.0540946222
 20
73.6466053566
  0
VERTEX
  8
0
 62
7
  6
CONTINUOUS
 10
128.1080749976
 20
73.7032285826
  0
VERTEX
  8
0
 62
7
  6
CONTINUOUS
 10
128.1541333016
 20
73.7701006594
  0
VERTEX
  8
0
 62
7
  6
CONTINUOUS
 10
128.1898111012
 20
73.8461583547
  0
VERTEX
  8
0
 62
7
  6
CONTINUOUS
 10
128.2127956262
 20
73.9297215799
  0
VERTEX
  8
0
 62
7
  6
CONTINUOUS
 10
128.2210760907
 20
74.0204840976
  0
SEQEND
  0
LINE
  8
0
 62
7
  6
CONTINUOUS
 10
127.3879711609
 20
73.4268025775
 11
127.8115059704
 21
73.5240525057
  0
LINE
  8
0
 62
9
  6
CONTINUOUS
 10
127.3008171896
 20
73.416038104
 11
127.7240403646
 21
73.5132597052
  0
POLYLINE
  8
0
 62
9
  6
CONTINUOUS
 66
1
 70
0
  0
VERTEX
  8
0
 62
9
  6
CONTINUOUS
 10
127.7427383613
 20
73.3228938731
  0
VERTEX
  8
0
 62
9
  6
CONTINUOUS
 10
127.8232324939
 20
73.3399312734
  0
VERTEX
  8
0
 62
9
  6
CONTINUOUS
 10
127.8982406908
 20
73.3898821104
  0
VERTEX
  8
0
 62
9
  6
CONTINUOUS
 10
127.9626513143
 20
73.4693418983
  0
VERTEX
  8
0
 62
9
  6
CONTINUOUS
 10
128.0120750548
 20
73.5728952954
  0
VERTEX
  8
0
 62
9
  6
CONTINUOUS
 10
128.0253384472
 20
73.6243753956
  0
SEQEND
  0
POLYLINE
  8
0
 62
9
  6
CONTINUOUS
 66
1
 70
0
  0
VERTEX
  8
0
 62
9
  6
CONTINUOUS
 10
143.9465534299
 20
73.5239286228
  0
VERTEX
  8
0
 62
9
  6
CONTINUOUS
 10
143.9690589217
 20
73.5281533988
  0
VERTEX
  8
0
 62
9
  6
CONTINUOUS
 10
143.9765311246
 20
73.5313315281
  0
VERTEX
  8
0
 62
9
  6
CONTINUOUS
 10
143.9686023405
 20
73.5333026393
  0
VERTEX
  8
0
 62
9
  6
CONTINUOUS
 10
143.9457568032
 20
73.533968589
  0
SEQEND
  0
POLYLINE
  8
0
 62
9
  6
CONTINUOUS
 66
1
 70
0
  0
VERTEX
  8
0
 62
9
  6
CONTINUOUS
 10
134.6878091375
 20
73.3228938731
  0
VERTEX
  8
0
 62
9
  6
CONTINUOUS
 10
134.7891384703
 20
73.3399309556
  0
VERTEX
  8
0
 62
9
  6
CONTINUOUS
 10
134.883562384
 20
73.3898811586
  0
VERTEX
  8
0
 62
9
  6
CONTINUOUS
 10
134.9646460433
 20
73.4693404639
  0
VERTEX
  8
0
 62
9
  6
CONTINUOUS
 10
135.0268637276
 20
73.5728938548
  0
VERTEX
  8
0
 62
9
  6
CONTINUOUS
 10
135.065975401
 20
73.6934843393
  0
VERTEX
  8
0
 62
9
  6
CONTINUOUS
 10
135.0793156648
 20
73.8228938731
  0
SEQEND
  0
LINE
  8
0
 62
9
  6
CONTINUOUS
 10
143.9101710342
 20
73.518871387
 11
143.9388541066
 21
73.5215779399
  0
POLYLINE
  8
0
 62
7
  6
CONTINUOUS
 66
1
 70
0
  0
VERTEX
  8
0
 62
7
  6
CONTINUOUS
 10
143.9388541066
 20
73.5215779399
  0
VERTEX
  8
0
 62
7
  6
CONTINUOUS
 10
143.9752372882
 20
73.5265964762
  0
VERTEX
  8
0
 62
7
  6
CONTINUOUS
 10
144.0091057756
 20
73.5321780121
  0
SEQEND
  0
POLYLINE
  8
0
 62
9
  6
CONTINUOUS
 66
1
 70
0
  0
VERTEX
  8
0
 62
9
  6
CONTINUOUS
 10
143.5778798976
 20
73.3228938731
  0
VERTEX
  8
0
 62
9
  6
CONTINUOUS
 10
143.7058803715
 20
73.3399309556
  0
VERTEX
  8
0
 62
9
  6
CONTINUOUS
 10
143.825157834
 20
73.3898811586
  0
SEQEND
  0
LINE
  8
0
 62
7
  6
CONTINUOUS
 10
143.8958445968
 20
73.516403417
 11
143.9388541066
 21
73.5215779399
  0
LINE
  8
0
 62
9
  6
CONTINUOUS
 10
142.2451444843
 20
73.3343097788
 11
142.2644127647
 21
73.3365598518
  0
LINE
  8
0
 62
9
  6
CONTINUOUS
 10
143.8619663349
 20
73.5132597052
 11
143.8958445968
 21
73.516403417
  0
LINE
  8
0
 62
7
  6
CONTINUOUS
 10
142.2644926243
 20
73.3358759818
 11
142.7492858721
 21
73.3914996163
  0
LINE
  8
1_AXIS
 62
7
  6
CONTINUOUS
 10
133.9125410264
 20
65.8228938731
 11
67.9126474427
 21
65.8228938731
  0
LINE
  8
1_AXIS
 62
9
  6
CONTINUOUS
 10
65.9125410264
 20
67.8228938731
 11
135.9125410264
 21
67.8228938731
  0
LINE
  8
0
 62
9
  6
CONTINUOUS
 10
57.9279483461
 20
73.5165497919
 11
57.9631157179
 21
73.5132597052
  0
LINE
  8
0
 62
9
  6
CONTINUOUS
 10
59.560589428
 20
73.3358759865
 11
59.5799375686
 21
73.3343097788
  0
LINE
  8
0
 62
7
  6
CONTINUOUS
 10
59.0705423368
 20
73.3920845831
 11
59.560589428
 21
73.3358759865
  0
LINE
  8
0
 62
7
  6
CONTINUOUS
 10
57.8865882968
 20
73.5215317128
 11
57.9279483461
 21
73.5165497919
  0
POLYLINE
  8
0
 62
9
  6
CONTINUOUS
 66
1
 70
0
  0
VERTEX
  8
0
 62
9
  6
CONTINUOUS
 10
58.2472021552
 20
73.3228938731
  0
VERTEX
  8
0
 62
9
  6
CONTINUOUS
 10
58.1192005083
 20
73.3399312734
  0
VERTEX
  8
0
 62
9
  6
CONTINUOUS
 10
57.9999225881
 20
73.3898821104
  0
SEQEND
  0
LINE
  8
0
 62
9
  6
CONTINUOUS
 10
57.8865882968
 20
73.5215317128
 11
57.9148689071
 21
73.5188767064
  0
POLYLINE
  8
0
 62
9
  6
CONTINUOUS
 66
1
 70
0
  0
VERTEX
  8
0
 62
9
  6
CONTINUOUS
 10
67.1372729154
 20
73.3228938731
  0
VERTEX
  8
0
 62
9
  6
CONTINUOUS
 10
67.035942654
 20
73.3399312734
  0
VERTEX
  8
0
 62
9
  6
CONTINUOUS
 10
66.9415183779
 20
73.3898821104
  0
VERTEX
  8
0
 62
9
  6
CONTINUOUS
 10
66.8604348865
 20
73.4693418983
  0
VERTEX
  8
0
 62
9
  6
CONTINUOUS
 10
66.7982176741
 20
73.5728952954
  0
VERTEX
  8
0
 62
9
  6
CONTINUOUS
 10
66.7591064634
 20
73.693485238
  0
VERTEX
  8
0
 62
9
  6
CONTINUOUS
 10
66.7457663882
 20
73.8228938731
  0
SEQEND
  0
POLYLINE
  8
0
 62
9
  6
CONTINUOUS
 66
1
 70
0
  0
VERTEX
  8
0
 62
9
  6
CONTINUOUS
 10
74.0823436916
 20
73.3228938731
  0
VERTEX
  8
0
 62
9
  6
CONTINUOUS
 10
74.0018502967
 20
73.3399309556
  0
VERTEX
  8
0
 62
9
  6
CONTINUOUS
 10
73.9268423876
 20
73.3898811586
  0
VERTEX
  8
0
 62
9
  6
CONTINUOUS
 10
73.8624316308
 20
73.4693404639
  0
VERTEX
  8
0
 62
9
  6
CONTINUOUS
 10
73.8130075154
 20
73.5728938548
  0
VERTEX
  8
0
 62
9
  6
CONTINUOUS
 10
73.7997486978
 20
73.6243558213
  0
SEQEND
  0
POLYLINE
  8
0
 62
9
  6
CONTINUOUS
 66
1
 70
0
  0
VERTEX
  8
0
 62
9
  6
CONTINUOUS
 10
74.8203616731
 20
73.3343097788
  0
VERTEX
  8
0
 62
9
  6
CONTINUOUS
 10
74.8591033055
 20
73.3257519776
  0
VERTEX
  8
0
 62
9
  6
CONTINUOUS
 10
74.896158818
 20
73.3228938731
  0
SEQEND
  0
LINE
  8
0
 62
7
  6
CONTINUOUS
 10
74.0135760864
 20
73.5240525048
 11
74.4371108918
 21
73.4268025775
  0
LINE
  8
0
 62
9
  6
CONTINUOUS
 10
74.1010416882
 20
73.5132597052
 11
74.5242648632
 21
73.416038104
  0
LINE
  8
0
 62
7
  6
CONTINUOUS
 10
74.437167407
 20
73.4267895719
 11
74.5389481079
 21
73.4020570551
  0
LINE
  8
0
 62
9
  6
CONTINUOUS
 10
74.5242648632
 20
73.416038104
 11
74.6477731836
 21
73.3858544938
  0
POLYLINE
  8
0
 62
7
  6
CONTINUOUS
 66
1
 70
0
  0
VERTEX
  8
0
 62
7
  6
CONTINUOUS
 10
74.5389481079
 20
73.4020570551
  0
VERTEX
  8
0
 62
7
  6
CONTINUOUS
 10
74.6320740252
 20
73.3760648524
  0
VERTEX
  8
0
 62
7
  6
CONTINUOUS
 10
74.6801492756
 20
73.3604564951
  0
SEQEND
  0
LINE
  8
0
 62
9
  6
CONTINUOUS
 10
74.6477731836
 20
73.3858544938
 11
74.745127175
 21
73.3586351601
  0
LINE
  8
0
 62
7
  6
CONTINUOUS
 10
74.6806348004
 20
73.3602870466
 11
74.7390974716
 21
73.3427134093
  0
LINE
  8
0
 62
9
  6
CONTINUOUS
 10
74.745127175
 20
73.3586351601
 11
74.8203616731
 21
73.3343097788
  0
POLYLINE
  8
0
 62
9
  6
CONTINUOUS
 66
1
 70
0
  0
VERTEX
  8
0
 62
9
  6
CONTINUOUS
 10
85.07739949
 20
73.3228938731
  0
VERTEX
  8
0
 62
9
  6
CONTINUOUS
 10
85.0298919758
 20
73.3399312734
  0
VERTEX
  8
0
 62
9
  6
CONTINUOUS
 10
84.9856222525
 20
73.3898821104
  0
VERTEX
  8
0
 62
9
  6
CONTINUOUS
 10
84.9476072008
 20
73.4693418983
  0
VERTEX
  8
0
 62
9
  6
CONTINUOUS
 10
84.9184373846
 20
73.5728952954
  0
VERTEX
  8
0
 62
9
  6
CONTINUOUS
 10
84.9001005485
 20
73.693485238
  0
VERTEX
  8
0
 62
9
  6
CONTINUOUS
 10
84.8938462094
 20
73.8228938731
  0
SEQEND
  0
POLYLINE
  8
0
 62
9
  6
CONTINUOUS
 66
1
 70
0
  0
VERTEX
  8
0
 62
9
  6
CONTINUOUS
 10
61.4525694903
 20
83.132528041
  0
VERTEX
  8
0
 62
9
  6
CONTINUOUS
 10
61.501528633
 20
83.1135772953
  0
VERTEX
  8
0
 62
9
  6
CONTINUOUS
 10
61.549628341
 20
83.0627400509
  0
VERTEX
  8
0
 62
9
  6
CONTINUOUS
 10
61.5936676496
 20
82.9833994511
  0
VERTEX
  8
0
 62
9
  6
CONTINUOUS
 10
61.6307158078
 20
82.8808354958
  0
VERTEX
  8
0
 62
9
  6
CONTINUOUS
 10
61.6583073155
 20
82.7618736647
  0
VERTEX
  8
0
 62
9
  6
CONTINUOUS
 10
61.6746059982
 20
82.6344306919
  0
SEQEND
  0
POLYLINE
  8
0
 62
9
  6
CONTINUOUS
 66
1
 70
0
  0
VERTEX
  8
0
 62
9
  6
CONTINUOUS
 10
73.6040044642
 20
82.6252915031
  0
VERTEX
  8
0
 62
9
  6
CONTINUOUS
 10
73.6061188759
 20
82.623754523
  0
VERTEX
  8
0
 62
9
  6
CONTINUOUS
 10
73.639640733
 20
82.619535968
  0
VERTEX
  8
0
 62
9
  6
CONTINUOUS
 10
73.712334064
 20
82.6163615076
  0
VERTEX
  8
0
 62
9
  6
CONTINUOUS
 10
73.820464669
 20
82.6143899725
  0
VERTEX
  8
0
 62
9
  6
CONTINUOUS
 10
73.9584828413
 20
82.6137218081
  0
SEQEND
  0
LINE
  8
0
 62
9
  6
CONTINUOUS
 10
94.4909596824
 20
73.8228938731
 11
94.4909596824
 21
82.8228938731
  0
POLYLINE
  8
0
 62
9
  6
CONTINUOUS
 66
1
 70
0
  0
VERTEX
  8
0
 62
9
  6
CONTINUOUS
 10
94.5645426014
 20
83.3228938731
  0
VERTEX
  8
0
 62
9
  6
CONTINUOUS
 10
94.5454978209
 20
83.3058565684
  0
VERTEX
  8
0
 62
9
  6
CONTINUOUS
 10
94.5277509759
 20
83.255905924
  0
VERTEX
  8
0
 62
9
  6
CONTINUOUS
 10
94.5125114762
 20
83.1764462846
  0
VERTEX
  8
0
 62
9
  6
CONTINUOUS
 10
94.5008178407
 20
83.0728928912
  0
VERTEX
  8
0
 62
9
  6
CONTINUOUS
 10
94.4934669352
 20
82.9523027836
  0
VERTEX
  8
0
 62
9
  6
CONTINUOUS
 10
94.4909596822
 20
82.8228938731
  0
SEQEND
  0
POLYLINE
  8
0
 62
9
  6
CONTINUOUS
 66
1
 70
0
  0
VERTEX
  8
0
 62
9
  6
CONTINUOUS
 10
62.5092694509
 20
73.416038104
  0
VERTEX
  8
0
 62
9
  6
CONTINUOUS
 10
62.5582141143
 20
73.4350354719
  0
VERTEX
  8
0
 62
9
  6
CONTINUOUS
 10
62.6062922403
 20
73.4858980467
  0
VERTEX
  8
0
 62
9
  6
CONTINUOUS
 10
62.6503061257
 20
73.5652429299
  0
VERTEX
  8
0
 62
9
  6
CONTINUOUS
 10
62.6873283827
 20
73.6677928494
  0
VERTEX
  8
0
 62
9
  6
CONTINUOUS
 10
62.7148966402
 20
73.7867271527
  0
VERTEX
  8
0
 62
9
  6
CONTINUOUS
 10
62.731177318
 20
73.9141354531
  0
SEQEND
  0
POLYLINE
  8
0
 62
9
  6
CONTINUOUS
 66
1
 70
0
  0
VERTEX
  8
0
 62
9
  6
CONTINUOUS
 10
127.0047203787
 20
73.3343097996
  0
VERTEX
  8
0
 62
9
  6
CONTINUOUS
 10
127.1271250448
 20
73.3546220726
  0
VERTEX
  8
0
 62
9
  6
CONTINUOUS
 10
127.1444279526
 20
73.3602801762
  0
SEQEND
  0
LINE
  8
0
 62
7
  6
CONTINUOUS
 10
126.9620266253
 20
73.3237783458
 11
127.0805698239
 21
73.3413693056
  0
POLYLINE
  8
0
 62
9
  6
CONTINUOUS
 66
1
 70
0
  0
VERTEX
  8
0
 62
9
  6
CONTINUOUS
 10
120.5647136597
 20
73.9141354531
  0
VERTEX
  8
0
 62
9
  6
CONTINUOUS
 10
120.3726774965
 20
73.8864842255
  0
VERTEX
  8
0
 62
9
  6
CONTINUOUS
 10
120.1696981351
 20
73.8592365433
  0
VERTEX
  8
0
 62
9
  6
CONTINUOUS
 10
119.9558034512
 20
73.8324071279
  0
SEQEND
  0
LINE
  8
0
 62
9
  6
CONTINUOUS
 10
121.6801291402
 20
73.5132597052
 11
120.9766117176
 21
73.416038104
  0
LINE
  8
0
 62
9
  6
CONTINUOUS
 10
121.2680255429
 20
74.0113570543
 11
120.5647136597
 21
73.9141354531
  0
POLYLINE
  8
0
 62
9
  6
CONTINUOUS
 66
1
 70
0
  0
VERTEX
  8
0
 62
9
  6
CONTINUOUS
 10
120.9766117176
 20
73.416038104
  0
VERTEX
  8
0
 62
9
  6
CONTINUOUS
 10
120.7690545418
 20
73.388391128
  0
VERTEX
  8
0
 62
9
  6
CONTINUOUS
 10
120.5495737702
 20
73.3611370641
  0
VERTEX
  8
0
 62
9
  6
CONTINUOUS
 10
120.3183515179
 20
73.3343097788
  0
SEQEND
  0
LINE
  8
0
 62
9
  6
CONTINUOUS
 10
127.3008171896
 20
73.416038104
 11
127.3879167174
 21
73.4267900875
  0
LINE
  8
0
 62
9
  6
CONTINUOUS
 10
127.7240403648
 20
73.5132597022
 11
127.8112979223
 21
73.5240058537
  0
LINE
  8
0
 62
9
  6
CONTINUOUS
 10
142.6942187997
 20
73.3859664847
 11
142.7492858721
 21
73.3914996163
  0
LINE
  8
0
 62
7
  6
CONTINUOUS
 10
142.7492858721
 20
73.3914996163
 11
143.8958445968
 21
73.516403417
  0
LINE
  8
0
 62
7
  6
CONTINUOUS
 10
142.2109596362
 20
73.3303049928
 11
142.2644885191
 21
73.3358756119
  0
POLYLINE
  8
0
 62
9
  6
CONTINUOUS
 66
1
 70
0
  0
VERTEX
  8
0
 62
9
  6
CONTINUOUS
 10
139.0939047348
 20
73.9141354531
  0
VERTEX
  8
0
 62
9
  6
CONTINUOUS
 10
138.524188449
 20
73.8592365433
  0
VERTEX
  8
0
 62
9
  6
CONTINUOUS
 10
138.2324830233
 20
73.8324071279
  0
SEQEND
  0
LINE
  8
0
 62
9
  6
CONTINUOUS
 10
147.3924302384
 20
73.9141354531
 11
146.5093142757
 21
73.8324071279
  0
LINE
  8
0
 62
9
  6
CONTINUOUS
 10
140.1504760547
 20
74.0113570543
 11
139.0939047348
 21
73.9141354531
  0
LINE
  8
0
 62
9
  6
CONTINUOUS
 10
140.3725125626
 20
73.5132597052
 11
139.0104732168
 21
73.388391128
  0
POLYLINE
  8
0
 62
9
  6
CONTINUOUS
 66
1
 70
0
  0
VERTEX
  8
0
 62
9
  6
CONTINUOUS
 10
120.3183515179
 20
73.3343097788
  0
VERTEX
  8
0
 62
9
  6
CONTINUOUS
 10
120.2232989018
 20
73.3257519776
  0
VERTEX
  8
0
 62
9
  6
CONTINUOUS
 10
120.1259403949
 20
73.3228938731
  0
SEQEND
  0
LINE
  8
1_AXIS
 62
7
  6
CONTINUOUS
 10
148.8561153381
 20
73.5339682776
 11
146.5740082547
 21
73.3343097788
  0
LINE
  8
0
 62
9
  6
CONTINUOUS
 10
148.5191535629
 20
74.0113570543
 11
147.3924302384
 21
73.9141354531
  0
LINE
  8
0
 62
7
  6
CONTINUOUS
 10
147.3648878808
 20
73.416038104
 11
146.4105308712
 21
73.3343097788
  0
LINE
  8
0
 62
9
  6
CONTINUOUS
 10
139.0104732168
 20
73.388391128
 11
138.384767622
 21
73.3343097788
  0
LINE
  8
0
 62
9
  6
CONTINUOUS
 10
148.6174923328
 20
73.5239328068
 11
147.3648878808
 21
73.416038104
  0
LINE
  8
0
 62
9
  6
CONTINUOUS
 10
142.2451444833
 20
73.3343097911
 11
142.2644885328
 21
73.3358754973
  0
POLYLINE
  8
0
 62
9
  6
CONTINUOUS
 66
1
 70
0
  0
VERTEX
  8
0
 62
9
  6
CONTINUOUS
 10
126.9289232349
 20
73.3228938731
  0
VERTEX
  8
0
 62
9
  6
CONTINUOUS
 10
126.9659787474
 20
73.3257519776
  0
VERTEX
  8
0
 62
9
  6
CONTINUOUS
 10
127.0047203797
 20
73.3343097788
  0
SEQEND
  0
LINE
  8
0
 62
9
  6
CONTINUOUS
 10
142.9670943336
 20
73.416038104
 11
142.9817296472
 21
73.4170563368
  0
LINE
  8
0
 62
9
  6
CONTINUOUS
 10
143.8619663352
 20
73.5132597022
 11
143.8767346022
 21
73.5142818892
  0
POLYLINE
  8
0
 62
9
  6
CONTINUOUS
 66
1
 70
0
  0
VERTEX
  8
0
 62
9
  6
CONTINUOUS
 10
146.5093142757
 20
73.8324071279
  0
VERTEX
  8
0
 62
9
  6
CONTINUOUS
 10
146.4055685792
 20
73.8252756382
  0
VERTEX
  8
0
 62
9
  6
CONTINUOUS
 10
146.3013029671
 20
73.8228938731
  0
SEQEND
  0
POLYLINE
  8
0
 62
9
  6
CONTINUOUS
 66
1
 70
0
  0
VERTEX
  8
0
 62
9
  6
CONTINUOUS
 10
138.2324830233
 20
73.8324071279
  0
VERTEX
  8
0
 62
9
  6
CONTINUOUS
 10
138.126752778
 20
73.8252756382
  0
VERTEX
  8
0
 62
9
  6
CONTINUOUS
 10
138.0194839552
 20
73.8228938731
  0
SEQEND
  0
POLYLINE
  8
0
 62
9
  6
CONTINUOUS
 66
1
 70
0
  0
VERTEX
  8
0
 62
9
  6
CONTINUOUS
 10
138.384767622
 20
73.3343097788
  0
VERTEX
  8
0
 62
9
  6
CONTINUOUS
 10
138.2526428231
 20
73.3257519776
  0
VERTEX
  8
0
 62
9
  6
CONTINUOUS
 10
138.1188288926
 20
73.3228938731
  0
SEQEND
  0
POLYLINE
  8
0
 62
7
  6
CONTINUOUS
 66
1
 70
0
  0
VERTEX
  8
0
 62
7
  6
CONTINUOUS
 10
146.4105308712
 20
73.3343097788
  0
VERTEX
  8
0
 62
7
  6
CONTINUOUS
 10
146.2767366227
 20
73.3257519776
  0
VERTEX
  8
0
 62
7
  6
CONTINUOUS
 10
146.1423226033
 20
73.3228938731
  0
SEQEND
  0
POLYLINE
  8
0
 62
9
  6
CONTINUOUS
 66
1
 70
0
  0
VERTEX
  8
0
 62
9
  6
CONTINUOUS
 10
148.7483813891
 20
73.533968589
  0
VERTEX
  8
0
 62
9
  6
CONTINUOUS
 10
148.7362397099
 20
73.5333038135
  0
VERTEX
  8
0
 62
9
  6
CONTINUOUS
 10
148.7093340834
 20
73.5313331034
  0
VERTEX
  8
0
 62
9
  6
CONTINUOUS
 10
148.6174923328
 20
73.5239328068
  0
SEQEND
  0
LINE
  8
1_AXIS
 62
9
  6
CONTINUOUS
 10
65.9125410264
 20
71.3228938731
 11
135.9125410264
 21
71.3228938731
  0
POLYLINE
  8
0
 62
7
  6
CONTINUOUS
 66
1
 70
0
  0
VERTEX
  8
0
 62
7
  6
CONTINUOUS
 10
59.6083373873
 20
73.3308328924
  0
VERTEX
  8
0
 62
7
  6
CONTINUOUS
 10
59.725528567
 20
73.3236702321
  0
VERTEX
  8
0
 62
7
  6
CONTINUOUS
 10
59.7785784193
 20
73.3228939723
  0
SEQEND
  0
LINE
  8
0
 62
7
  6
CONTINUOUS
 10
55.5483454301
 20
73.3257519776
 11
55.4145511816
 21
73.3343097788
  0
LINE
  8
0
 62
9
  6
CONTINUOUS
 10
57.9631157179
 20
73.5132597052
 11
57.9483427235
 21
73.51428217
  0
LINE
  8
0
 62
9
  6
CONTINUOUS
 10
58.8579877221
 20
73.4160381397
 11
58.8433524483
 21
73.4170563528
  0
POLYLINE
  8
0
 62
9
  6
CONTINUOUS
 66
1
 70
0
  0
VERTEX
  8
0
 62
9
  6
CONTINUOUS
 10
53.1157685434
 20
73.5313315281
  0
VERTEX
  8
0
 62
9
  6
CONTINUOUS
 10
53.0888597085
 20
73.5333026393
  0
VERTEX
  8
0
 62
9
  6
CONTINUOUS
 10
53.0767006638
 20
73.533968589
  0
SEQEND
  0
LINE
  8
0
 62
9
  6
CONTINUOUS
 10
59.5799375785
 20
73.3343099046
 11
59.560592943
 21
73.335875682
  0
LINE
  8
0
 62
9
  6
CONTINUOUS
 10
53.207640127
 20
73.5239286228
 11
53.1157685434
 21
73.5313315281
  0
LINE
  8
0
 62
9
  6
CONTINUOUS
 10
59.5799375686
 20
73.3343097788
 11
59.6795512059
 21
73.3257519776
  0
POLYLINE
  8
0
 62
9
  6
CONTINUOUS
 66
1
 70
0
  0
VERTEX
  8
0
 62
9
  6
CONTINUOUS
 10
61.4525694903
 20
73.5132597052
  0
VERTEX
  8
0
 62
9
  6
CONTINUOUS
 10
61.3872082769
 20
73.518871387
  0
VERTEX
  8
0
 62
9
  6
CONTINUOUS
 10
61.3192413021
 20
73.5239286228
  0
VERTEX
  8
0
 62
9
  6
CONTINUOUS
 10
61.2523918727
 20
73.5281533988
  0
VERTEX
  8
0
 62
9
  6
CONTINUOUS
 10
61.1900927462
 20
73.5313315281
  0
VERTEX
  8
0
 62
9
  6
CONTINUOUS
 10
61.1355564929
 20
73.5333026393
  0
VERTEX
  8
0
 62
9
  6
CONTINUOUS
 10
61.0916508723
 20
73.533968589
  0
SEQEND
  0
LINE
  8
0
 62
7
  6
CONTINUOUS
 10
55.4145511816
 20
73.3343097788
 11
54.460194172
 21
73.416038104
  0
LINE
  8
0
 62
9
  6
CONTINUOUS
 10
54.460194172
 20
73.416038104
 11
53.207640127
 21
73.5239286228
  0
LINE
  8
0
 62
9
  6
CONTINUOUS
 10
54.4326518145
 20
73.9141354531
 11
53.3059284899
 21
74.0113570543
  0
LINE
  8
1_AXIS
 62
7
  6
CONTINUOUS
 10
52.9689633639
 20
73.5339685707
 11
55.2510737982
 21
73.3343097788
  0
LINE
  8
0
 62
9
  6
CONTINUOUS
 10
63.4403144308
 20
73.3343097788
 11
62.8146403246
 21
73.3883883224
  0
LINE
  8
0
 62
9
  6
CONTINUOUS
 10
62.8146403246
 20
73.3883883224
 11
61.4525694903
 21
73.5132597052
  0
LINE
  8
0
 62
9
  6
CONTINUOUS
 10
62.731177318
 20
73.9141354531
 11
61.6746059982
 21
74.0113570543
  0
LINE
  8
0
 62
9
  6
CONTINUOUS
 10
55.3157677771
 20
73.8324071279
 11
54.4326518145
 21
73.9141354531
  0
POLYLINE
  8
0
 62
9
  6
CONTINUOUS
 66
1
 70
0
  0
VERTEX
  8
0
 62
9
  6
CONTINUOUS
 10
63.5925990296
 20
73.8324071279
  0
VERTEX
  8
0
 62
9
  6
CONTINUOUS
 10
63.0137491037
 20
73.886482882
  0
VERTEX
  8
0
 62
9
  6
CONTINUOUS
 10
62.731177318
 20
73.9141354531
  0
SEQEND
  0
LINE
  8
0
 62
7
  6
CONTINUOUS
 10
59.560592943
 20
73.335875682
 11
59.6083373873
 21
73.3308328924
  0
LINE
  8
0
 62
9
  6
CONTINUOUS
 10
59.0705423368
 20
73.3920845831
 11
59.10921173
 21
73.388386126
  0
LINE
  8
0
 62
7
  6
CONTINUOUS
 10
57.9279483461
 20
73.5165497919
 11
59.0705423368
 21
73.3920845831
  0
POLYLINE
  8
0
 62
9
  6
CONTINUOUS
 66
1
 70
0
  0
VERTEX
  8
0
 62
9
  6
CONTINUOUS
 10
81.5067305349
 20
73.3343097788
  0
VERTEX
  8
0
 62
9
  6
CONTINUOUS
 10
81.2755291664
 20
73.3611345561
  0
VERTEX
  8
0
 62
9
  6
CONTINUOUS
 10
81.0560493684
 20
73.3883883224
  0
VERTEX
  8
0
 62
9
  6
CONTINUOUS
 10
80.8484703352
 20
73.416038104
  0
SEQEND
  0
POLYLINE
  8
0
 62
9
  6
CONTINUOUS
 66
1
 70
0
  0
VERTEX
  8
0
 62
9
  6
CONTINUOUS
 10
80.1449529126
 20
73.5132597052
  0
VERTEX
  8
0
 62
9
  6
CONTINUOUS
 10
80.0973112805
 20
73.518871387
  0
VERTEX
  8
0
 62
9
  6
CONTINUOUS
 10
80.039835164
 20
73.5239286228
  0
VERTEX
  8
0
 62
9
  6
CONTINUOUS
 10
79.9756376436
 20
73.5281533988
  0
VERTEX
  8
0
 62
9
  6
CONTINUOUS
 10
79.908014887
 20
73.5313315281
  0
VERTEX
  8
0
 62
9
  6
CONTINUOUS
 10
79.8404641604
 20
73.5333026393
  0
VERTEX
  8
0
 62
9
  6
CONTINUOUS
 10
79.7765764395
 20
73.533968589
  0
SEQEND
  0
LINE
  8
0
 62
9
  6
CONTINUOUS
 10
74.1010416882
 20
73.5132597052
 11
74.013888264
 21
73.5239809061
  0
LINE
  8
0
 62
9
  6
CONTINUOUS
 10
74.5242648658
 20
73.4160381569
 11
74.437167407
 21
73.4267895719
  0
POLYLINE
  8
0
 62
9
  6
CONTINUOUS
 66
1
 70
0
  0
VERTEX
  8
0
 62
9
  6
CONTINUOUS
 10
81.8692786016
 20
73.8324071279
  0
VERTEX
  8
0
 62
9
  6
CONTINUOUS
 10
81.6553989561
 20
73.8592345897
  0
VERTEX
  8
0
 62
9
  6
CONTINUOUS
 10
81.4524142265
 20
73.886482882
  0
VERTEX
  8
0
 62
9
  6
CONTINUOUS
 10
81.2603683932
 20
73.9141354531
  0
SEQEND
  0
LINE
  8
0
 62
9
  6
CONTINUOUS
 10
80.8484703352
 20
73.416038104
 11
80.1449529126
 21
73.5132597052
  0
LINE
  8
0
 62
9
  6
CONTINUOUS
 10
81.2603683932
 20
73.9141354531
 11
80.5570565099
 21
74.0113570543
  0
LINE
  8
0
 62
7
  6
CONTINUOUS
 10
74.7390974716
 20
73.3427134093
 11
74.8567609634
 21
73.3241459636
  0
POLYLINE
  8
0
 62
9
  6
CONTINUOUS
 66
1
 70
0
  0
VERTEX
  8
0
 62
9
  6
CONTINUOUS
 10
74.8203616794
 20
73.3343099046
  0
VERTEX
  8
0
 62
9
  6
CONTINUOUS
 10
74.6979570478
 20
73.3546221977
  0
VERTEX
  8
0
 62
9
  6
CONTINUOUS
 10
74.6806348004
 20
73.3602870466
  0
SEQEND
  0
POLYLINE
  8
0
 62
9
  6
CONTINUOUS
 66
1
 70
0
  0
VERTEX
  8
0
 62
9
  6
CONTINUOUS
 10
62.5092694524
 20
83.2297496224
  0
VERTEX
  8
0
 62
9
  6
CONTINUOUS
 10
62.5582141251
 20
83.2107522943
  0
VERTEX
  8
0
 62
9
  6
CONTINUOUS
 10
62.6062922638
 20
83.1598897429
  0
VERTEX
  8
0
 62
9
  6
CONTINUOUS
 10
62.6503061631
 20
83.0805448663
  0
VERTEX
  8
0
 62
9
  6
CONTINUOUS
 10
62.6873284327
 20
82.9779949392
  0
VERTEX
  8
0
 62
9
  6
CONTINUOUS
 10
62.7148966996
 20
82.8590606175
  0
VERTEX
  8
0
 62
9
  6
CONTINUOUS
 10
62.7311773822
 20
82.7316522931
  0
SEQEND
  0
POLYLINE
  8
0
 62
9
  6
CONTINUOUS
 66
1
 70
0
  0
VERTEX
  8
0
 62
9
  6
CONTINUOUS
 10
94.5645426014
 20
73.3228938731
  0
VERTEX
  8
0
 62
9
  6
CONTINUOUS
 10
94.545497943
 20
73.3399309556
  0
VERTEX
  8
0
 62
9
  6
CONTINUOUS
 10
94.5277511451
 20
73.3898811586
  0
VERTEX
  8
0
 62
9
  6
CONTINUOUS
 10
94.5125116231
 20
73.4693404639
  0
VERTEX
  8
0
 62
9
  6
CONTINUOUS
 10
94.5008179258
 20
73.5728938548
  0
VERTEX
  8
0
 62
9
  6
CONTINUOUS
 10
94.49346696
 20
73.6934843393
  0
VERTEX
  8
0
 62
9
  6
CONTINUOUS
 10
94.4909596824
 20
73.8228938731
  0
SEQEND
  0
LINE
  8
0
 62
9
  6
CONTINUOUS
 10
95.8938122824
 20
73.8228938731
 11
95.8938122824
 21
82.8228938731
  0
LINE
  8
0
 62
9
  6
CONTINUOUS
 10
96.7697387979
 20
73.9141354531
 11
96.7697387979
 21
82.7316522931
  0
LINE
  8
0
 62
9
  6
CONTINUOUS
 10
96.9313393935
 20
74.0113570543
 11
96.9313393935
 21
82.6344306919
  0
LINE
  8
0
 62
9
  6
CONTINUOUS
 10
97.6696341129
 20
82.6137218081
 11
97.6696341129
 21
74.032065938
  0
POLYLINE
  8
0
 62
9
  6
CONTINUOUS
 66
1
 70
0
  0
VERTEX
  8
0
 62
9
  6
CONTINUOUS
 10
97.7002154038
 20
83.1118191572
  0
VERTEX
  8
0
 62
9
  6
CONTINUOUS
 10
97.6921362387
 20
83.0860056249
  0
VERTEX
  8
0
 62
9
  6
CONTINUOUS
 10
97.6847260721
 20
83.0314658351
  0
VERTEX
  8
0
 62
9
  6
CONTINUOUS
 10
97.6784356228
 20
82.9515170812
  0
VERTEX
  8
0
 62
9
  6
CONTINUOUS
 10
97.6736475047
 20
82.8510221558
  0
VERTEX
  8
0
 62
9
  6
CONTINUOUS
 10
97.6706529539
 20
82.7360935794
  0
VERTEX
  8
0
 62
9
  6
CONTINUOUS
 10
97.6696341129
 20
82.6137218081
  0
SEQEND
  0
POLYLINE
  8
0
 62
9
  6
CONTINUOUS
 66
1
 70
0
  0
VERTEX
  8
0
 62
9
  6
CONTINUOUS
 10
97.0521641642
 20
73.3343097788
  0
VERTEX
  8
0
 62
9
  6
CONTINUOUS
 10
97.0196530026
 20
73.3257519776
  0
VERTEX
  8
0
 62
9
  6
CONTINUOUS
 10
96.9848370525
 20
73.3228938731
  0
SEQEND
  0
POLYLINE
  8
0
 62
9
  6
CONTINUOUS
 66
1
 70
0
  0
VERTEX
  8
0
 62
9
  6
CONTINUOUS
 10
96.5764970911
 20
73.8324071279
  0
VERTEX
  8
0
 62
9
  6
CONTINUOUS
 10
96.544729418
 20
73.8252756382
  0
VERTEX
  8
0
 62
9
  6
CONTINUOUS
 10
96.5107851102
 20
73.8228938731
  0
SEQEND
  0
POLYLINE
  8
0
 62
9
  6
CONTINUOUS
 66
1
 70
0
  0
VERTEX
  8
0
 62
9
  6
CONTINUOUS
 10
104.7729178885
 20
73.3343097996
  0
VERTEX
  8
0
 62
9
  6
CONTINUOUS
 10
104.894441007
 20
73.3546220726
  0
VERTEX
  8
0
 62
9
  6
CONTINUOUS
 10
105.0077712345
 20
73.4061980605
  0
VERTEX
  8
0
 62
9
  6
CONTINUOUS
 10
105.1054928433
 20
73.4856629049
  0
VERTEX
  8
0
 62
9
  6
CONTINUOUS
 10
105.1812114507
 20
73.5878168487
  0
VERTEX
  8
0
 62
9
  6
CONTINUOUS
 10
105.2299724333
 20
73.7059754806
  0
VERTEX
  8
0
 62
9
  6
CONTINUOUS
 10
105.2485851317
 20
73.8324071279
  0
SEQEND
  0
POLYLINE
  8
0
 62
9
  6
CONTINUOUS
 66
1
 70
0
  0
VERTEX
  8
0
 62
9
  6
CONTINUOUS
 10
105.5069737014
 20
73.3228938731
  0
VERTEX
  8
0
 62
9
  6
CONTINUOUS
 10
105.6167897515
 20
73.3399310062
  0
VERTEX
  8
0
 62
9
  6
CONTINUOUS
 10
105.7191219361
 20
73.3898813074
  0
VERTEX
  8
0
 62
9
  6
CONTINUOUS
 10
105.8069965006
 20
73.4693406846
  0
VERTEX
  8
0
 62
9
  6
CONTINUOUS
 10
105.8744249743
 20
73.5728940739
  0
VERTEX
  8
0
 62
9
  6
CONTINUOUS
 10
105.9168122608
 20
73.693484475
  0
VERTEX
  8
0
 62
9
  6
CONTINUOUS
 10
105.9312697704
 20
73.8228938731
  0
SEQEND
  0
POLYLINE
  8
0
 62
9
  6
CONTINUOUS
 66
1
 70
0
  0
VERTEX
  8
0
 62
9
  6
CONTINUOUS
 10
104.5638227581
 20
73.416038104
  0
VERTEX
  8
0
 62
9
  6
CONTINUOUS
 10
104.6902919988
 20
73.4350354719
  0
VERTEX
  8
0
 62
9
  6
CONTINUOUS
 10
104.8081225791
 20
73.4858980467
  0
VERTEX
  8
0
 62
9
  6
CONTINUOUS
 10
104.9094775215
 20
73.5652429299
  0
VERTEX
  8
0
 62
9
  6
CONTINUOUS
 10
104.9876156521
 20
73.6677928494
  0
VERTEX
  8
0
 62
9
  6
CONTINUOUS
 10
105.0373399604
 20
73.7867271527
  0
VERTEX
  8
0
 62
9
  6
CONTINUOUS
 10
105.0553432549
 20
73.9141354531
  0
SEQEND
  0
POLYLINE
  8
0
 62
9
  6
CONTINUOUS
 66
1
 70
0
  0
VERTEX
  8
0
 62
9
  6
CONTINUOUS
 10
104.4019947988
 20
73.5132597022
  0
VERTEX
  8
0
 62
9
  6
CONTINUOUS
 10
104.5285052114
 20
73.5322113936
  0
VERTEX
  8
0
 62
9
  6
CONTINUOUS
 10
104.6463842181
 20
73.5830491538
  0
VERTEX
  8
0
 62
9
  6
CONTINUOUS
 10
104.7477872337
 20
73.6623898434
  0
VERTEX
  8
0
 62
9
  6
CONTINUOUS
 10
104.8259661138
 20
73.7649535163
  0
VERTEX
  8
0
 62
9
  6
CONTINUOUS
 10
104.8757182281
 20
73.883914789
  0
VERTEX
  8
0
 62
9
  6
CONTINUOUS
 10
104.8937326842
 20
74.0113570542
  0
SEQEND
  0
POLYLINE
  8
0
 62
9
  6
CONTINUOUS
 66
1
 70
0
  0
VERTEX
  8
0
 62
9
  6
CONTINUOUS
 10
104.8402450004
 20
73.3228938731
  0
VERTEX
  8
0
 62
9
  6
CONTINUOUS
 10
104.9629386862
 20
73.3399309645
  0
VERTEX
  8
0
 62
9
  6
CONTINUOUS
 10
105.077270993
 20
73.3898811856
  0
VERTEX
  8
0
 62
9
  6
CONTINUOUS
 10
105.1754503629
 20
73.4693405058
  0
VERTEX
  8
0
 62
9
  6
CONTINUOUS
 10
105.2507860367
 20
73.5728938984
  0
VERTEX
  8
0
 62
9
  6
CONTINUOUS
 10
105.2981440175
 20
73.693484368
  0
VERTEX
  8
0
 62
9
  6
CONTINUOUS
 10
105.3142969426
 20
73.8228938731
  0
SEQEND
  0
POLYLINE
  8
0
 62
9
  6
CONTINUOUS
 66
1
 70
0
  0
VERTEX
  8
0
 62
9
  6
CONTINUOUS
 10
119.9558034512
 20
73.8324071279
  0
VERTEX
  8
0
 62
9
  6
CONTINUOUS
 10
119.876418991
 20
73.8252756382
  0
VERTEX
  8
0
 62
9
  6
CONTINUOUS
 10
119.794889552
 20
73.8228938731
  0
SEQEND
  0
POLYLINE
  8
0
 62
9
  6
CONTINUOUS
 66
1
 70
0
  0
VERTEX
  8
0
 62
9
  6
CONTINUOUS
 10
57.8793252496
 20
73.533968589
  0
VERTEX
  8
0
 62
9
  6
CONTINUOUS
 10
57.8564932053
 20
73.5333038135
  0
VERTEX
  8
0
 62
9
  6
CONTINUOUS
 10
57.8485511621
 20
73.5313331034
  0
VERTEX
  8
0
 62
9
  6
CONTINUOUS
 10
57.8560121986
 20
73.5281560991
  0
VERTEX
  8
0
 62
9
  6
CONTINUOUS
 10
57.8785020168
 20
73.5239328068
  0
SEQEND
  0
POLYLINE
  8
0
 62
9
  6
CONTINUOUS
 66
1
 70
0
  0
VERTEX
  8
0
 62
9
  6
CONTINUOUS
 10
142.0465328666
 20
73.3228938731
  0
VERTEX
  8
0
 62
9
  6
CONTINUOUS
 10
142.145530847
 20
73.3257519776
  0
VERTEX
  8
0
 62
9
  6
CONTINUOUS
 10
142.2451444843
 20
73.3343097788
  0
SEQEND
  0
LINE
  8
0
 62
7
  6
CONTINUOUS
 10
126.9293214678
 20
73.322894137
 11
126.9620266253
 21
73.3237783458
  0
POLYLINE
  8
0
 62
9
  6
CONTINUOUS
 66
1
 70
0
  0
VERTEX
  8
0
 62
9
  6
CONTINUOUS
 10
149.2037778583
 20
74.032065938
  0
VERTEX
  8
0
 62
9
  6
CONTINUOUS
 10
149.1712769033
 20
74.0313977736
  0
VERTEX
  8
0
 62
9
  6
CONTINUOUS
 10
149.099540145
 20
74.0294262385
  0
VERTEX
  8
0
 62
9
  6
CONTINUOUS
 10
148.5191535629
 20
74.0113570543
  0
SEQEND
  0
POLYLINE
  8
0
 62
9
  6
CONTINUOUS
 66
1
 70
0
  0
VERTEX
  8
0
 62
9
  6
CONTINUOUS
 10
140.7334311805
 20
73.533968589
  0
VERTEX
  8
0
 62
9
  6
CONTINUOUS
 10
140.689569131
 20
73.5333038135
  0
VERTEX
  8
0
 62
9
  6
CONTINUOUS
 10
140.6350251757
 20
73.5313331034
  0
VERTEX
  8
0
 62
9
  6
CONTINUOUS
 10
140.5727372997
 20
73.5281560991
  0
VERTEX
  8
0
 62
9
  6
CONTINUOUS
 10
140.505901452
 20
73.5239328068
  0
VERTEX
  8
0
 62
9
  6
CONTINUOUS
 10
140.4379403409
 20
73.5188767064
  0
VERTEX
  8
0
 62
9
  6
CONTINUOUS
 10
140.3725125626
 20
73.5132597052
  0
SEQEND
  0
POLYLINE
  8
0
 62
7
  6
CONTINUOUS
 66
1
 70
0
  0
VERTEX
  8
0
 62
7
  6
CONTINUOUS
 10
142.0465087916
 20
73.3228939722
  0
VERTEX
  8
0
 62
7
  6
CONTINUOUS
 10
142.0938058618
 20
73.3235113029
  0
VERTEX
  8
0
 62
7
  6
CONTINUOUS
 10
142.2109596362
 20
73.3303049928
  0
SEQEND
  0
POLYLINE
  8
0
 62
9
  6
CONTINUOUS
 66
1
 70
0
  0
VERTEX
  8
0
 62
9
  6
CONTINUOUS
 10
74.2126652506
 20
73.533968589
  0
VERTEX
  8
0
 62
9
  6
CONTINUOUS
 10
74.1609773106
 20
73.5333038135
  0
VERTEX
  8
0
 62
9
  6
CONTINUOUS
 10
74.1203156618
 20
73.5313331034
  0
VERTEX
  8
0
 62
9
  6
CONTINUOUS
 10
74.0929690027
 20
73.5281560991
  0
VERTEX
  8
0
 62
9
  6
CONTINUOUS
 10
74.0803503131
 20
73.5239328068
  0
VERTEX
  8
0
 62
9
  6
CONTINUOUS
 10
74.0831058152
 20
73.5188767064
  0
VERTEX
  8
0
 62
9
  6
CONTINUOUS
 10
74.1010416882
 20
73.5132597052
  0
SEQEND
  0
POLYLINE
  8
0
 62
9
  6
CONTINUOUS
 66
1
 70
0
  0
VERTEX
  8
0
 62
9
  6
CONTINUOUS
 10
97.4915000199
 20
74.0313977736
  0
VERTEX
  8
0
 62
9
  6
CONTINUOUS
 10
97.3252243155
 20
74.0294262385
  0
VERTEX
  8
0
 62
9
  6
CONTINUOUS
 10
97.1793326346
 20
74.0262517782
  0
VERTEX
  8
0
 62
9
  6
CONTINUOUS
 10
97.0613095028
 20
74.0220332232
  0
VERTEX
  8
0
 62
9
  6
CONTINUOUS
 10
96.9771991315
 20
74.0169823915
  0
VERTEX
  8
0
 62
9
  6
CONTINUOUS
 10
96.9313393935
 20
74.0113570543
  0
SEQEND
  0
POLYLINE
  8
0
 62
9
  6
CONTINUOUS
 66
1
 70
0
  0
VERTEX
  8
0
 62
9
  6
CONTINUOUS
 10
122.0792005459
 20
74.0313977736
  0
VERTEX
  8
0
 62
9
  6
CONTINUOUS
 10
121.8993331826
 20
74.0294262385
  0
VERTEX
  8
0
 62
9
  6
CONTINUOUS
 10
121.7193347099
 20
74.0262517782
  0
VERTEX
  8
0
 62
9
  6
CONTINUOUS
 10
121.5484345063
 20
74.0220332232
  0
VERTEX
  8
0
 62
9
  6
CONTINUOUS
 10
121.3953727981
 20
74.0169823915
  0
VERTEX
  8
0
 62
9
  6
CONTINUOUS
 10
121.2680255429
 20
74.0113570543
  0
SEQEND
  0
POLYLINE
  8
0
 62
9
  6
CONTINUOUS
 66
1
 70
0
  0
VERTEX
  8
0
 62
9
  6
CONTINUOUS
 10
57.4696496931
 20
74.032065938
  0
VERTEX
  8
0
 62
9
  6
CONTINUOUS
 10
57.4087292993
 20
74.0313977736
  0
VERTEX
  8
0
 62
9
  6
CONTINUOUS
 10
57.3877140132
 20
74.0293940076
  0
SEQEND
  0
POLYLINE
  8
0
 62
9
  6
CONTINUOUS
 66
1
 70
0
  0
VERTEX
  8
0
 62
9
  6
CONTINUOUS
 10
122.0485056133
 20
73.533968589
  0
VERTEX
  8
0
 62
9
  6
CONTINUOUS
 10
121.9846759941
 20
73.5333038135
  0
VERTEX
  8
0
 62
9
  6
CONTINUOUS
 10
121.9171087188
 20
73.5313331034
  0
VERTEX
  8
0
 62
9
  6
CONTINUOUS
 10
121.8494925063
 20
73.5281560991
  0
VERTEX
  8
0
 62
9
  6
CONTINUOUS
 10
121.7853016195
 20
73.5239328068
  0
VERTEX
  8
0
 62
9
  6
CONTINUOUS
 10
121.7278233219
 20
73.5188767064
  0
VERTEX
  8
0
 62
9
  6
CONTINUOUS
 10
121.6801291402
 20
73.5132597052
  0
SEQEND
  0
POLYLINE
  8
0
 62
9
  6
CONTINUOUS
 66
1
 70
0
  0
VERTEX
  8
0
 62
9
  6
CONTINUOUS
 10
97.7002154038
 20
73.533968589
  0
VERTEX
  8
0
 62
9
  6
CONTINUOUS
 10
97.6335213098
 20
73.5333038135
  0
VERTEX
  8
0
 62
9
  6
CONTINUOUS
 10
97.5710353114
 20
73.5313331034
  0
VERTEX
  8
0
 62
9
  6
CONTINUOUS
 10
97.5162084719
 20
73.5281560991
  0
VERTEX
  8
0
 62
9
  6
CONTINUOUS
 10
97.4718624423
 20
73.5239328068
  0
VERTEX
  8
0
 62
9
  6
CONTINUOUS
 10
97.4402682216
 20
73.5188767064
  0
VERTEX
  8
0
 62
9
  6
CONTINUOUS
 10
97.4230872541
 20
73.5132597052
  0
SEQEND
  0
POLYLINE
  8
0
 62
9
  6
CONTINUOUS
 66
1
 70
0
  0
VERTEX
  8
0
 62
9
  6
CONTINUOUS
 10
141.1125254462
 20
74.032065938
  0
VERTEX
  8
0
 62
9
  6
CONTINUOUS
 10
140.9953117471
 20
74.0313977736
  0
VERTEX
  8
0
 62
9
  6
CONTINUOUS
 10
140.8500480398
 20
74.0294262385
  0
VERTEX
  8
0
 62
9
  6
CONTINUOUS
 10
140.6841732207
 20
74.0262517782
  0
VERTEX
  8
0
 62
9
  6
CONTINUOUS
 10
140.5061885168
 20
74.0220332232
  0
VERTEX
  8
0
 62
9
  6
CONTINUOUS
 10
140.1504760547
 20
74.0113570543
  0
SEQEND
  0
POLYLINE
  8
0
 62
9
  6
CONTINUOUS
 66
1
 70
0
  0
VERTEX
  8
0
 62
9
  6
CONTINUOUS
 10
73.9584828413
 20
74.032065938
  0
VERTEX
  8
0
 62
9
  6
CONTINUOUS
 10
73.820464669
 20
74.0313977736
  0
VERTEX
  8
0
 62
9
  6
CONTINUOUS
 10
73.712334064
 20
74.0294262385
  0
VERTEX
  8
0
 62
9
  6
CONTINUOUS
 10
73.639640733
 20
74.0262517782
  0
VERTEX
  8
0
 62
9
  6
CONTINUOUS
 10
73.6061188759
 20
74.0220332232
  0
VERTEX
  8
0
 62
9
  6
CONTINUOUS
 10
73.6040044642
 20
74.020496243
  0
SEQEND
  0
LINE
  8
0
 62
7
  6
CONTINUOUS
 10
143.4469095406
 20
73.0228938731
 11
133.44030504
 21
73.0228938731
  0
LINE
  8
0
 62
7
  6
CONTINUOUS
 10
146.3125177644
 20
73.3228938731
 11
55.5125608577
 21
73.3228938731
  0
LINE
  8
1_AXIS
 62
7
  6
CONTINUOUS
 10
55.6827594495
 20
73.3228938731
 11
55.5145509092
 21
73.3228938731
  0
LINE
  8
0
 62
9
  6
CONTINUOUS
 10
55.2510737982
 20
73.3343097788
 11
55.4145511816
 21
73.3343097788
  0
LINE
  8
0
 62
9
  6
CONTINUOUS
 10
59.5799375686
 20
73.3343097788
 11
63.4403144308
 21
73.3343097788
  0
LINE
  8
0
 62
9
  6
CONTINUOUS
 10
74.8203616731
 20
73.3343097788
 11
81.5067305349
 21
73.3343097788
  0
LINE
  8
0
 62
9
  6
CONTINUOUS
 10
97.0521641642
 20
73.3343097788
 11
104.7729178887
 21
73.3343097788
  0
LINE
  8
0
 62
9
  6
CONTINUOUS
 10
120.3183515179
 20
73.3343097788
 11
127.0047203797
 21
73.3343097788
  0
LINE
  8
0
 62
9
  6
CONTINUOUS
 10
138.384767622
 20
73.3343097788
 11
142.2451444843
 21
73.3343097788
  0
LINE
  8
0
 62
9
  6
CONTINUOUS
 10
146.4105308712
 20
73.3343097788
 11
146.5740082547
 21
73.3343097788
  0
LINE
  8
0
 62
9
  6
CONTINUOUS
 10
143.9457568032
 20
73.533968589
 11
140.7334311805
 21
73.533968589
  0
LINE
  8
0
 62
9
  6
CONTINUOUS
 10
127.6124168022
 20
73.533968589
 11
122.0485056133
 21
73.533968589
  0
LINE
  8
0
 62
9
  6
CONTINUOUS
 10
104.1248666491
 20
73.533968589
 11
97.7002154038
 21
73.533968589
  0
LINE
  8
0
 62
9
  6
CONTINUOUS
 10
79.7765764395
 20
73.533968589
 11
74.2126652506
 21
73.533968589
  0
LINE
  8
0
 62
9
  6
CONTINUOUS
 10
61.0916508723
 20
73.533968589
 11
57.8793252496
 21
73.533968589
  0
LINE
  8
0
 62
9
  6
CONTINUOUS
 10
53.0767006638
 20
73.533968589
 11
52.9689633639
 21
73.5339685707
  0
LINE
  8
0
 62
9
  6
CONTINUOUS
 10
148.8561153381
 20
73.5339682776
 11
148.7483813891
 21
73.533968589
  0
LINE
  8
0
 62
9
  6
CONTINUOUS
 10
146.3013029671
 20
73.8228938731
 11
144.3916566031
 21
73.8228938731
  0
LINE
  8
0
 62
9
  6
CONTINUOUS
 10
138.0194839552
 20
73.8228938731
 11
128.1788979975
 21
73.8228938731
  0
LINE
  8
0
 62
9
  6
CONTINUOUS
 10
119.794889552
 20
73.8228938731
 11
105.3142969426
 21
73.8228938731
  0
LINE
  8
0
 62
9
  6
CONTINUOUS
 10
96.5107851102
 20
73.8228938731
 11
82.0301925008
 21
73.8228938731
  0
LINE
  8
0
 62
9
  6
CONTINUOUS
 10
73.6462211412
 20
73.8228938731
 11
63.8055980976
 21
73.8228938731
  0
LINE
  8
0
 62
9
  6
CONTINUOUS
 10
57.4332826349
 20
73.8228938731
 11
55.5237790858
 21
73.8228938731
  0
LINE
  8
0
 62
9
  6
CONTINUOUS
 10
144.3554323597
 20
74.032065938
 11
141.1125254462
 21
74.032065938
  0
LINE
  8
0
 62
9
  6
CONTINUOUS
 10
127.8665992115
 20
74.032065938
 11
122.0792005459
 21
74.0313977736
  0
LINE
  8
0
 62
9
  6
CONTINUOUS
 10
104.1554479399
 20
74.032065938
 11
97.4915000199
 21
74.0313977736
  0
LINE
  8
0
 62
9
  6
CONTINUOUS
 10
60.7125566066
 20
74.032065938
 11
57.4696496931
 21
74.032065938
  0
LINE
  8
0
 62
9
  6
CONTINUOUS
 10
52.6213041946
 20
74.032065938
 11
52.5125410264
 21
74.0320659377
  0
LINE
  8
0
 62
9
  6
CONTINUOUS
 10
149.3125410264
 20
74.0320659315
 11
149.2037778583
 21
74.032065938
  0
POLYLINE
  8
0
 62
9
  6
CONTINUOUS
 66
1
 70
0
  0
VERTEX
  8
0
 62
9
  6
CONTINUOUS
 10
61.1408375371
 20
74.0262520049
  0
VERTEX
  8
0
 62
9
  6
CONTINUOUS
 10
60.9749517773
 20
74.0294263612
  0
VERTEX
  8
0
 62
9
  6
CONTINUOUS
 10
60.8297370959
 20
74.0313977624
  0
VERTEX
  8
0
 62
9
  6
CONTINUOUS
 10
60.7125566066
 20
74.032065938
  0
SEQEND
  0
LINE
  8
0
 62
9
  6
CONTINUOUS
 10
52.6537919621
 20
74.0313977624
 11
52.6213041946
 21
74.032065938
  0
LINE
  8
0
 62
7
  6
CONTINUOUS
 10
55.6827594495
 20
73.3228938731
 11
55.5483454301
 21
73.3257519776
  0
POLYLINE
  8
0
 62
9
  6
CONTINUOUS
 66
1
 70
0
  0
VERTEX
  8
0
 62
9
  6
CONTINUOUS
 10
63.7062531602
 20
73.3228938731
  0
VERTEX
  8
0
 62
9
  6
CONTINUOUS
 10
63.5724392297
 20
73.3257519776
  0
VERTEX
  8
0
 62
9
  6
CONTINUOUS
 10
63.4403144308
 20
73.3343097788
  0
SEQEND
  0
POLYLINE
  8
0
 62
9
  6
CONTINUOUS
 66
1
 70
0
  0
VERTEX
  8
0
 62
9
  6
CONTINUOUS
 10
63.8055980976
 20
73.8228938731
  0
VERTEX
  8
0
 62
9
  6
CONTINUOUS
 10
63.6983292749
 20
73.8252756383
  0
VERTEX
  8
0
 62
9
  6
CONTINUOUS
 10
63.5925990296
 20
73.8324071279
  0
SEQEND
  0
POLYLINE
  8
0
 62
9
  6
CONTINUOUS
 66
1
 70
0
  0
VERTEX
  8
0
 62
9
  6
CONTINUOUS
 10
55.5237790858
 20
73.8228938731
  0
VERTEX
  8
0
 62
9
  6
CONTINUOUS
 10
55.4195134736
 20
73.8252756383
  0
VERTEX
  8
0
 62
9
  6
CONTINUOUS
 10
55.3157677771
 20
73.8324071279
  0
SEQEND
  0
LINE
  8
0
 62
9
  6
CONTINUOUS
 10
59.6795512059
 20
73.3257519776
 11
59.7785491862
 21
73.3228938731
  0
POLYLINE
  8
0
 62
9
  6
CONTINUOUS
 66
1
 70
0
  0
VERTEX
  8
0
 62
9
  6
CONTINUOUS
 10
81.699141658
 20
73.3228938731
  0
VERTEX
  8
0
 62
9
  6
CONTINUOUS
 10
81.6017831511
 20
73.3257519776
  0
VERTEX
  8
0
 62
9
  6
CONTINUOUS
 10
81.5067305349
 20
73.3343097788
  0
SEQEND
  0
POLYLINE
  8
0
 62
9
  6
CONTINUOUS
 66
1
 70
0
  0
VERTEX
  8
0
 62
9
  6
CONTINUOUS
 10
82.0301925008
 20
73.8228938731
  0
VERTEX
  8
0
 62
9
  6
CONTINUOUS
 10
81.9486630619
 20
73.8252756383
  0
VERTEX
  8
0
 62
9
  6
CONTINUOUS
 10
81.8692786016
 20
73.8324071279
  0
SEQEND
  0
POLYLINE
  8
0
 62
9
  6
CONTINUOUS
 66
1
 70
0
  0
VERTEX
  8
0
 62
9
  6
CONTINUOUS
 10
53.3059284899
 20
74.0113570543
  0
VERTEX
  8
0
 62
9
  6
CONTINUOUS
 10
53.130639489
 20
74.0169821337
  0
VERTEX
  8
0
 62
9
  6
CONTINUOUS
 10
52.6537919621
 20
74.0313977624
  0
SEQEND
  0
LINE
  8
0
 62
7
  6
CONTINUOUS
 10
74.8567609634
 20
73.3241459636
 11
74.8957056474
 21
73.3228941858
  0
POLYLINE
  8
0
 62
9
  6
CONTINUOUS
 66
1
 70
0
  0
VERTEX
  8
0
 62
9
  6
CONTINUOUS
 10
61.6746059982
 20
74.0113570543
  0
VERTEX
  8
0
 62
9
  6
CONTINUOUS
 10
61.4998663899
 20
74.0169821337
  0
VERTEX
  8
0
 62
9
  6
CONTINUOUS
 10
61.1408375371
 20
74.0262520049
  0
SEQEND
  0
POLYLINE
  8
0
 62
9
  6
CONTINUOUS
 66
1
 70
0
  0
VERTEX
  8
0
 62
9
  6
CONTINUOUS
 10
80.5570565099
 20
74.0113570543
  0
VERTEX
  8
0
 62
9
  6
CONTINUOUS
 10
80.4296876311
 20
74.0169821337
  0
VERTEX
  8
0
 62
9
  6
CONTINUOUS
 10
80.2766073781
 20
74.0220321731
  0
VERTEX
  8
0
 62
9
  6
CONTINUOUS
 10
80.1056745863
 20
74.0262520049
  0
VERTEX
  8
0
 62
9
  6
CONTINUOUS
 10
79.9256537518
 20
74.0294263612
  0
VERTEX
  8
0
 62
9
  6
CONTINUOUS
 10
79.7458371732
 20
74.0313977624
  0
VERTEX
  8
0
 62
9
  6
CONTINUOUS
 10
73.9584828413
 20
74.032065938
  0
SEQEND
  0
POLYLINE
  8
0
 62
9
  6
CONTINUOUS
 66
1
 70
0
  0
VERTEX
  8
0
 62
9
  6
CONTINUOUS
 10
105.3142969426
 20
73.8228938731
  0
VERTEX
  8
0
 62
9
  6
CONTINUOUS
 10
105.2803526349
 20
73.8252756383
  0
VERTEX
  8
0
 62
9
  6
CONTINUOUS
 10
105.2485849617
 20
73.8324071279
  0
SEQEND
  0
POLYLINE
  8
0
 62
9
  6
CONTINUOUS
 66
1
 70
0
  0
VERTEX
  8
0
 62
9
  6
CONTINUOUS
 10
104.8402450004
 20
73.3228938731
  0
VERTEX
  8
0
 62
9
  6
CONTINUOUS
 10
104.8054290503
 20
73.3257519776
  0
VERTEX
  8
0
 62
9
  6
CONTINUOUS
 10
104.7729178887
 20
73.3343097788
  0
SEQEND
  0
POLYLINE
  8
0
 62
9
  6
CONTINUOUS
 66
1
 70
0
  0
VERTEX
  8
0
 62
9
  6
CONTINUOUS
 10
104.8937426594
 20
74.0113570543
  0
VERTEX
  8
0
 62
9
  6
CONTINUOUS
 10
104.8478728983
 20
74.0169821337
  0
VERTEX
  8
0
 62
9
  6
CONTINUOUS
 10
104.763747486
 20
74.0220321731
  0
VERTEX
  8
0
 62
9
  6
CONTINUOUS
 10
104.6456946952
 20
74.0262520049
  0
VERTEX
  8
0
 62
9
  6
CONTINUOUS
 10
104.4997752232
 20
74.0294263612
  0
VERTEX
  8
0
 62
9
  6
CONTINUOUS
 10
104.3335384545
 20
74.0313977624
  0
VERTEX
  8
0
 62
9
  6
CONTINUOUS
 10
104.1554479399
 20
74.032065938
  0
SEQEND
  0
POLYLINE
  8
0
 62
9
  6
CONTINUOUS
 66
1
 70
0
  0
VERTEX
  8
0
 62
9
  6
CONTINUOUS
 10
96.9848370525
 20
73.3228938731
  0
VERTEX
  8
0
 62
9
  6
CONTINUOUS
 10
96.862142954
 20
73.3399310807
  0
VERTEX
  8
0
 62
9
  6
CONTINUOUS
 10
96.7478104961
 20
73.3898815275
  0
VERTEX
  8
0
 62
9
  6
CONTINUOUS
 10
96.6496312066
 20
73.4693410129
  0
VERTEX
  8
0
 62
9
  6
CONTINUOUS
 10
96.5742957388
 20
73.572894401
  0
VERTEX
  8
0
 62
9
  6
CONTINUOUS
 10
96.5269379552
 20
73.693484678
  0
VERTEX
  8
0
 62
9
  6
CONTINUOUS
 10
96.5107851102
 20
73.8228938731
  0
SEQEND
  0
POLYLINE
  8
0
 62
9
  6
CONTINUOUS
 66
1
 70
0
  0
VERTEX
  8
0
 62
9
  6
CONTINUOUS
 10
97.4230872541
 20
73.5132597052
  0
VERTEX
  8
0
 62
9
  6
CONTINUOUS
 10
97.2965745911
 20
73.5322104508
  0
VERTEX
  8
0
 62
9
  6
CONTINUOUS
 10
97.1786932787
 20
73.5830476953
  0
VERTEX
  8
0
 62
9
  6
CONTINUOUS
 10
97.0772881441
 20
73.662388295
  0
VERTEX
  8
0
 62
9
  6
CONTINUOUS
 10
96.9991075492
 20
73.7649522504
  0
VERTEX
  8
0
 62
9
  6
CONTINUOUS
 10
96.9493542972
 20
73.8839140815
  0
VERTEX
  8
0
 62
9
  6
CONTINUOUS
 10
96.9313393935
 20
74.0113570543
  0
SEQEND
  0
POLYLINE
  8
0
 62
9
  6
CONTINUOUS
 66
1
 70
0
  0
VERTEX
  8
0
 62
9
  6
CONTINUOUS
 10
97.261259295
 20
73.4160381397
  0
VERTEX
  8
0
 62
9
  6
CONTINUOUS
 10
97.1347899982
 20
73.435035439
  0
VERTEX
  8
0
 62
9
  6
CONTINUOUS
 10
97.0169593515
 20
73.4858979735
  0
VERTEX
  8
0
 62
9
  6
CONTINUOUS
 10
96.9156043433
 20
73.565242845
  0
VERTEX
  8
0
 62
9
  6
CONTINUOUS
 10
96.8374661573
 20
73.6677927773
  0
VERTEX
  8
0
 62
9
  6
CONTINUOUS
 10
96.787741812
 20
73.7867271118
  0
VERTEX
  8
0
 62
9
  6
CONTINUOUS
 10
96.769738504
 20
73.9141354531
  0
SEQEND
  0
POLYLINE
  8
0
 62
9
  6
CONTINUOUS
 66
1
 70
0
  0
VERTEX
  8
0
 62
9
  6
CONTINUOUS
 10
96.3181083514
 20
73.3228938731
  0
VERTEX
  8
0
 62
9
  6
CONTINUOUS
 10
96.2082914555
 20
73.3399312734
  0
VERTEX
  8
0
 62
9
  6
CONTINUOUS
 10
96.1059589365
 20
73.3898821104
  0
VERTEX
  8
0
 62
9
  6
CONTINUOUS
 10
96.0180845224
 20
73.4693418983
  0
VERTEX
  8
0
 62
9
  6
CONTINUOUS
 10
95.9506564802
 20
73.5728952954
  0
VERTEX
  8
0
 62
9
  6
CONTINUOUS
 10
95.9082696187
 20
73.693485238
  0
VERTEX
  8
0
 62
9
  6
CONTINUOUS
 10
95.8938122825
 20
73.8228938731
  0
SEQEND
  0
POLYLINE
  8
0
 62
9
  6
CONTINUOUS
 66
1
 70
0
  0
VERTEX
  8
0
 62
9
  6
CONTINUOUS
 10
97.0521641651
 20
73.3343099046
  0
VERTEX
  8
0
 62
9
  6
CONTINUOUS
 10
96.930641082
 20
73.3546221977
  0
VERTEX
  8
0
 62
9
  6
CONTINUOUS
 10
96.8173108902
 20
73.4061981864
  0
VERTEX
  8
0
 62
9
  6
CONTINUOUS
 10
96.7195893112
 20
73.4856630139
  0
VERTEX
  8
0
 62
9
  6
CONTINUOUS
 10
96.6438707222
 20
73.5878169271
  0
VERTEX
  8
0
 62
9
  6
CONTINUOUS
 10
96.5951097428
 20
73.7059755205
  0
VERTEX
  8
0
 62
9
  6
CONTINUOUS
 10
96.5764970306
 20
73.8324071279
  0
SEQEND
  0
POLYLINE
  8
0
 62
9
  6
CONTINUOUS
 66
1
 70
0
  0
VERTEX
  8
0
 62
9
  6
CONTINUOUS
 10
104.7729178887
 20
73.3343097788
  0
VERTEX
  8
0
 62
9
  6
CONTINUOUS
 10
104.6877021869
 20
73.3611345561
  0
VERTEX
  8
0
 62
9
  6
CONTINUOUS
 10
104.6179893164
 20
73.3883883224
  0
VERTEX
  8
0
 62
9
  6
CONTINUOUS
 10
104.5638227581
 20
73.416038104
  0
SEQEND
  0
POLYLINE
  8
0
 62
9
  6
CONTINUOUS
 66
1
 70
0
  0
VERTEX
  8
0
 62
9
  6
CONTINUOUS
 10
104.4019947988
 20
73.5132597052
  0
VERTEX
  8
0
 62
9
  6
CONTINUOUS
 10
104.3848382847
 20
73.518871387
  0
VERTEX
  8
0
 62
9
  6
CONTINUOUS
 10
104.3532537056
 20
73.5239286228
  0
VERTEX
  8
0
 62
9
  6
CONTINUOUS
 10
104.308909768
 20
73.5281533988
  0
VERTEX
  8
0
 62
9
  6
CONTINUOUS
 10
104.2540828443
 20
73.5313315281
  0
VERTEX
  8
0
 62
9
  6
CONTINUOUS
 10
104.191617807
 20
73.5333026393
  0
VERTEX
  8
0
 62
9
  6
CONTINUOUS
 10
104.1248666491
 20
73.533968589
  0
SEQEND
  0
LINE
  8
0
 62
7
  6
CONTINUOUS
 10
100.9125410264
 20
72.8228938731
 11
100.0465156226
 21
73.3228938731
  0
POLYLINE
  8
0
 62
9
  6
CONTINUOUS
 66
1
 70
0
  0
VERTEX
  8
0
 62
9
  6
CONTINUOUS
 10
97.7002154038
 20
73.533968589
  0
VERTEX
  8
0
 62
9
  6
CONTINUOUS
 10
97.692136304
 20
73.5597817812
  0
VERTEX
  8
0
 62
9
  6
CONTINUOUS
 10
97.6847261645
 20
73.6143210004
  0
VERTEX
  8
0
 62
9
  6
CONTINUOUS
 10
97.6784357061
 20
73.6942693049
  0
VERTEX
  8
0
 62
9
  6
CONTINUOUS
 10
97.6736475558
 20
73.7947641771
  0
VERTEX
  8
0
 62
9
  6
CONTINUOUS
 10
97.6706529703
 20
73.9096932243
  0
VERTEX
  8
0
 62
9
  6
CONTINUOUS
 10
97.6696341139
 20
74.032065938
  0
SEQEND
  0
LINE
  8
1_AXIS
 62
2
  6
CENTER
 10
100.9125410264
 20
63.8228938731
 11
100.9125410264
 21
92.8228938731
  0
LINE
  8
0
 62
9
  6
CONTINUOUS
 10
104.8937426594
 20
82.6344306919
 11
105.0553432549
 21
82.7316522931
  0
LINE
  8
0
 62
9
  6
CONTINUOUS
 10
104.4019947988
 20
83.1325280409
 11
104.5638227581
 21
83.2297496421
  0
POLYLINE
  8
0
 62
9
  6
CONTINUOUS
 66
1
 70
0
  0
VERTEX
  8
0
 62
9
  6
CONTINUOUS
 10
105.0553432549
 20
82.7316522931
  0
VERTEX
  8
0
 62
9
  6
CONTINUOUS
 10
105.1054042648
 20
82.7593046986
  0
VERTEX
  8
0
 62
9
  6
CONTINUOUS
 10
105.1698188459
 20
82.7865530632
  0
VERTEX
  8
0
 62
9
  6
CONTINUOUS
 10
105.2485849617
 20
82.8133806183
  0
SEQEND
  0
POLYLINE
  8
0
 62
9
  6
CONTINUOUS
 66
1
 70
0
  0
VERTEX
  8
0
 62
9
  6
CONTINUOUS
 10
104.5638227581
 20
83.2297496421
  0
VERTEX
  8
0
 62
9
  6
CONTINUOUS
 10
104.6179888344
 20
83.2573992106
  0
VERTEX
  8
0
 62
9
  6
CONTINUOUS
 10
104.6877015014
 20
83.2846529494
  0
VERTEX
  8
0
 62
9
  6
CONTINUOUS
 10
104.7729178887
 20
83.3114779674
  0
SEQEND
  0
POLYLINE
  8
0
 62
9
  6
CONTINUOUS
 66
1
 70
0
  0
VERTEX
  8
0
 62
9
  6
CONTINUOUS
 10
118.8413953156
 20
83.3228938731
  0
VERTEX
  8
0
 62
9
  6
CONTINUOUS
 10
118.7805237578
 20
83.3058567318
  0
VERTEX
  8
0
 62
9
  6
CONTINUOUS
 10
118.7238005509
 20
83.2559064155
  0
VERTEX
  8
0
 62
9
  6
CONTINUOUS
 10
118.6750912772
 20
83.1764470279
  0
VERTEX
  8
0
 62
9
  6
CONTINUOUS
 10
118.6377153699
 20
83.0728936396
  0
VERTEX
  8
0
 62
9
  6
CONTINUOUS
 10
118.6142199077
 20
82.9523032512
  0
VERTEX
  8
0
 62
9
  6
CONTINUOUS
 10
118.6062060459
 20
82.8228938731
  0
SEQEND
  0
POLYLINE
  8
0
 62
9
  6
CONTINUOUS
 66
1
 70
0
  0
VERTEX
  8
0
 62
9
  6
CONTINUOUS
 10
82.9836867372
 20
73.3228938731
  0
VERTEX
  8
0
 62
9
  6
CONTINUOUS
 10
83.0445583488
 20
73.3399310451
  0
VERTEX
  8
0
 62
9
  6
CONTINUOUS
 10
83.1012815754
 20
73.3898814208
  0
VERTEX
  8
0
 62
9
  6
CONTINUOUS
 10
83.1499908386
 20
73.4693408521
  0
VERTEX
  8
0
 62
9
  6
CONTINUOUS
 10
83.1873667191
 20
73.5728942396
  0
VERTEX
  8
0
 62
9
  6
CONTINUOUS
 10
83.2108621555
 20
73.6934845774
  0
VERTEX
  8
0
 62
9
  6
CONTINUOUS
 10
83.218876007
 20
73.8228938731
  0
SEQEND
  0
POLYLINE
  8
0
 62
9
  6
CONTINUOUS
 66
1
 70
0
  0
VERTEX
  8
0
 62
9
  6
CONTINUOUS
 10
81.5067305357
 20
73.3343097996
  0
VERTEX
  8
0
 62
9
  6
CONTINUOUS
 10
81.594810085
 20
73.3546220726
  0
VERTEX
  8
0
 62
9
  6
CONTINUOUS
 10
81.6783380551
 20
73.4061980605
  0
VERTEX
  8
0
 62
9
  6
CONTINUOUS
 10
81.7518488194
 20
73.4856629049
  0
VERTEX
  8
0
 62
9
  6
CONTINUOUS
 10
81.8105322244
 20
73.5878168487
  0
VERTEX
  8
0
 62
9
  6
CONTINUOUS
 10
81.8505483398
 20
73.7059754806
  0
VERTEX
  8
0
 62
9
  6
CONTINUOUS
 10
81.8692787237
 20
73.8324071279
  0
SEQEND
  0
POLYLINE
  8
0
 62
9
  6
CONTINUOUS
 66
1
 70
0
  0
VERTEX
  8
0
 62
9
  6
CONTINUOUS
 10
81.699141658
 20
73.3228938731
  0
VERTEX
  8
0
 62
9
  6
CONTINUOUS
 10
81.7848239291
 20
73.3399309645
  0
VERTEX
  8
0
 62
9
  6
CONTINUOUS
 10
81.8646670908
 20
73.3898811856
  0
VERTEX
  8
0
 62
9
  6
CONTINUOUS
 10
81.9332299634
 20
73.4693405058
  0
VERTEX
  8
0
 62
9
  6
CONTINUOUS
 10
81.9858401023
 20
73.5728938984
  0
VERTEX
  8
0
 62
9
  6
CONTINUOUS
 10
82.0189122168
 20
73.693484368
  0
VERTEX
  8
0
 62
9
  6
CONTINUOUS
 10
82.0301925008
 20
73.8228938731
  0
SEQEND
  0
POLYLINE
  8
0
 62
9
  6
CONTINUOUS
 66
1
 70
0
  0
VERTEX
  8
0
 62
9
  6
CONTINUOUS
 10
80.8484703352
 20
73.416038104
  0
VERTEX
  8
0
 62
9
  6
CONTINUOUS
 10
80.9497456
 20
73.4350354719
  0
VERTEX
  8
0
 62
9
  6
CONTINUOUS
 10
81.0455330362
 20
73.4858980467
  0
VERTEX
  8
0
 62
9
  6
CONTINUOUS
 10
81.129461768
 20
73.5652429299
  0
VERTEX
  8
0
 62
9
  6
CONTINUOUS
 10
81.1959496488
 20
73.6677928494
  0
VERTEX
  8
0
 62
9
  6
CONTINUOUS
 10
81.2405745325
 20
73.7867271527
  0
VERTEX
  8
0
 62
9
  6
CONTINUOUS
 10
81.2603683932
 20
73.9141354531
  0
SEQEND
  0
POLYLINE
  8
0
 62
9
  6
CONTINUOUS
 66
1
 70
0
  0
VERTEX
  8
0
 62
9
  6
CONTINUOUS
 10
80.1449529125
 20
73.5132597022
  0
VERTEX
  8
0
 62
9
  6
CONTINUOUS
 10
80.246259853
 20
73.5322113936
  0
VERTEX
  8
0
 62
9
  6
CONTINUOUS
 10
80.3420872263
 20
73.5830491538
  0
VERTEX
  8
0
 62
9
  6
CONTINUOUS
 10
80.4260579344
 20
73.6623898434
  0
VERTEX
  8
0
 62
9
  6
CONTINUOUS
 10
80.4925839137
 20
73.7649535163
  0
VERTEX
  8
0
 62
9
  6
CONTINUOUS
 10
80.5372380082
 20
73.883914789
  0
VERTEX
  8
0
 62
9
  6
CONTINUOUS
 10
80.5570485869
 20
74.0113570542
  0
SEQEND
  0
POLYLINE
  8
0
 62
9
  6
CONTINUOUS
 66
1
 70
0
  0
VERTEX
  8
0
 62
9
  6
CONTINUOUS
 10
144.4373680402
 20
74.0293923767
  0
VERTEX
  8
0
 62
9
  6
CONTINUOUS
 10
144.416342385
 20
74.0313977624
  0
VERTEX
  8
0
 62
9
  6
CONTINUOUS
 10
144.3554323597
 20
74.032065938
  0
SEQEND
  0
POLYLINE
  8
0
 62
9
  6
CONTINUOUS
 66
1
 70
0
  0
VERTEX
  8
0
 62
9
  6
CONTINUOUS
 10
57.3877140132
 20
82.616393731
  0
VERTEX
  8
0
 62
9
  6
CONTINUOUS
 10
57.4087292993
 20
82.6143899725
  0
VERTEX
  8
0
 62
9
  6
CONTINUOUS
 10
57.4696496931
 20
82.6137218081
  0
SEQEND
  0
POLYLINE
  8
0
 62
9
  6
CONTINUOUS
 66
1
 70
0
  0
VERTEX
  8
0
 62
9
  6
CONTINUOUS
 10
121.6801291402
 20
73.5132597052
  0
VERTEX
  8
0
 62
9
  6
CONTINUOUS
 10
121.578820446
 20
73.5322104508
  0
VERTEX
  8
0
 62
9
  6
CONTINUOUS
 10
121.4829912593
 20
73.5830476953
  0
VERTEX
  8
0
 62
9
  6
CONTINUOUS
 10
121.3990188709
 20
73.662388295
  0
VERTEX
  8
0
 62
9
  6
CONTINUOUS
 10
121.3324915194
 20
73.7649522504
  0
VERTEX
  8
0
 62
9
  6
CONTINUOUS
 10
121.2878365016
 20
73.8839140815
  0
VERTEX
  8
0
 62
9
  6
CONTINUOUS
 10
121.2680255429
 20
74.0113570543
  0
SEQEND
  0
POLYLINE
  8
0
 62
9
  6
CONTINUOUS
 66
1
 70
0
  0
VERTEX
  8
0
 62
9
  6
CONTINUOUS
 10
120.9766117163
 20
73.4160381397
  0
VERTEX
  8
0
 62
9
  6
CONTINUOUS
 10
120.8753364099
 20
73.435035439
  0
VERTEX
  8
0
 62
9
  6
CONTINUOUS
 10
120.7795489227
 20
73.4858979735
  0
VERTEX
  8
0
 62
9
  6
CONTINUOUS
 10
120.695620139
 20
73.565242845
  0
VERTEX
  8
0
 62
9
  6
CONTINUOUS
 10
120.6291322137
 20
73.6677927773
  0
VERTEX
  8
0
 62
9
  6
CONTINUOUS
 10
120.5845072993
 20
73.7867271118
  0
VERTEX
  8
0
 62
9
  6
CONTINUOUS
 10
120.5647134262
 20
73.9141354531
  0
SEQEND
  0
POLYLINE
  8
0
 62
9
  6
CONTINUOUS
 66
1
 70
0
  0
VERTEX
  8
0
 62
9
  6
CONTINUOUS
 10
120.1259403949
 20
73.3228938731
  0
VERTEX
  8
0
 62
9
  6
CONTINUOUS
 10
120.0402580558
 20
73.3399309907
  0
VERTEX
  8
0
 62
9
  6
CONTINUOUS
 10
119.9604148689
 20
73.3898812624
  0
VERTEX
  8
0
 62
9
  6
CONTINUOUS
 10
119.8918520088
 20
73.4693406188
  0
VERTEX
  8
0
 62
9
  6
CONTINUOUS
 10
119.839241903
 20
73.5728940091
  0
VERTEX
  8
0
 62
9
  6
CONTINUOUS
 10
119.806169821
 20
73.6934844351
  0
VERTEX
  8
0
 62
9
  6
CONTINUOUS
 10
119.794889552
 20
73.8228938731
  0
SEQEND
  0
POLYLINE
  8
0
 62
9
  6
CONTINUOUS
 66
1
 70
0
  0
VERTEX
  8
0
 62
9
  6
CONTINUOUS
 10
120.3183515132
 20
73.3343099046
  0
VERTEX
  8
0
 62
9
  6
CONTINUOUS
 10
120.2302719907
 20
73.3546221977
  0
VERTEX
  8
0
 62
9
  6
CONTINUOUS
 10
120.1467440475
 20
73.4061981864
  0
VERTEX
  8
0
 62
9
  6
CONTINUOUS
 10
120.0732333055
 20
73.4856630139
  0
VERTEX
  8
0
 62
9
  6
CONTINUOUS
 10
120.0145499144
 20
73.5878169271
  0
VERTEX
  8
0
 62
9
  6
CONTINUOUS
 10
119.9745338017
 20
73.7059755205
  0
VERTEX
  8
0
 62
9
  6
CONTINUOUS
 10
119.9558034077
 20
73.8324071279
  0
SEQEND
  0
POLYLINE
  8
0
 62
9
  6
CONTINUOUS
 66
1
 70
0
  0
VERTEX
  8
0
 62
9
  6
CONTINUOUS
 10
82.9836867372
 20
83.3228938731
  0
VERTEX
  8
0
 62
9
  6
CONTINUOUS
 10
83.0445585818
 20
83.3058565684
  0
VERTEX
  8
0
 62
9
  6
CONTINUOUS
 10
83.1012819023
 20
83.255905924
  0
VERTEX
  8
0
 62
9
  6
CONTINUOUS
 10
83.1499911251
 20
83.1764462846
  0
VERTEX
  8
0
 62
9
  6
CONTINUOUS
 10
83.187366886
 20
83.0728928912
  0
VERTEX
  8
0
 62
9
  6
CONTINUOUS
 10
83.2108622039
 20
82.9523027836
  0
VERTEX
  8
0
 62
9
  6
CONTINUOUS
 10
83.2188760067
 20
82.8228938731
  0
SEQEND
  0
POLYLINE
  8
0
 62
9
  6
CONTINUOUS
 66
1
 70
0
  0
VERTEX
  8
0
 62
9
  6
CONTINUOUS
 10
118.8413953157
 20
73.3228938731
  0
VERTEX
  8
0
 62
9
  6
CONTINUOUS
 10
118.7805233033
 20
73.3399312734
  0
VERTEX
  8
0
 62
9
  6
CONTINUOUS
 10
118.7237999157
 20
73.3898821104
  0
VERTEX
  8
0
 62
9
  6
CONTINUOUS
 10
118.6750907223
 20
73.4693418983
  0
VERTEX
  8
0
 62
9
  6
CONTINUOUS
 10
118.6377150473
 20
73.5728952954
  0
VERTEX
  8
0
 62
9
  6
CONTINUOUS
 10
118.6142198143
 20
73.693485238
  0
VERTEX
  8
0
 62
9
  6
CONTINUOUS
 10
118.6062060461
 20
73.8228938731
  0
SEQEND
  0
POLYLINE
  8
0
 62
9
  6
CONTINUOUS
 66
1
 70
0
  0
VERTEX
  8
0
 62
9
  6
CONTINUOUS
 10
105.2485849617
 20
73.8324071279
  0
VERTEX
  8
0
 62
9
  6
CONTINUOUS
 10
105.1698190921
 20
73.8592345897
  0
VERTEX
  8
0
 62
9
  6
CONTINUOUS
 10
105.1054046099
 20
73.886482882
  0
VERTEX
  8
0
 62
9
  6
CONTINUOUS
 10
105.0553432549
 20
73.9141354531
  0
SEQEND
  0
LINE
  8
0
 62
9
  6
CONTINUOUS
 10
104.5638227581
 20
73.416038104
 11
104.4019947988
 21
73.5132597052
  0
LINE
  8
0
 62
9
  6
CONTINUOUS
 10
105.0553432549
 20
73.9141354531
 11
104.8937426594
 21
74.0113570543
  0
LINE
  8
0
 62
9
  6
CONTINUOUS
 10
104.1554479399
 20
82.6137218081
 11
104.1554479399
 21
74.032065938
  0
LINE
  8
0
 62
9
  6
CONTINUOUS
 10
96.9313393935
 20
74.0113570543
 11
96.7697387979
 21
73.9141354531
  0
LINE
  8
0
 62
9
  6
CONTINUOUS
 10
97.4230872541
 20
73.5132597052
 11
97.2612592948
 21
73.416038104
  0
POLYLINE
  8
0
 62
9
  6
CONTINUOUS
 66
1
 70
0
  0
VERTEX
  8
0
 62
9
  6
CONTINUOUS
 10
96.7697387979
 20
73.9141354531
  0
VERTEX
  8
0
 62
9
  6
CONTINUOUS
 10
96.7196802454
 20
73.8864842255
  0
VERTEX
  8
0
 62
9
  6
CONTINUOUS
 10
96.6552681254
 20
73.8592365433
  0
VERTEX
  8
0
 62
9
  6
CONTINUOUS
 10
96.5764970911
 20
73.8324071279
  0
SEQEND
  0
POLYLINE
  8
0
 62
9
  6
CONTINUOUS
 66
1
 70
0
  0
VERTEX
  8
0
 62
9
  6
CONTINUOUS
 10
97.2612592948
 20
73.416038104
  0
VERTEX
  8
0
 62
9
  6
CONTINUOUS
 10
97.2070991057
 20
73.388391128
  0
VERTEX
  8
0
 62
9
  6
CONTINUOUS
 10
97.1373870326
 20
73.3611370641
  0
VERTEX
  8
0
 62
9
  6
CONTINUOUS
 10
97.0521641642
 20
73.3343097788
  0
SEQEND
  0
POLYLINE
  8
0
 62
9
  6
CONTINUOUS
 66
1
 70
0
  0
VERTEX
  8
0
 62
9
  6
CONTINUOUS
 10
120.3183515171
 20
83.3114779464
  0
VERTEX
  8
0
 62
9
  6
CONTINUOUS
 10
120.2302719674
 20
83.2911656742
  0
VERTEX
  8
0
 62
9
  6
CONTINUOUS
 10
120.1467439969
 20
83.2395896867
  0
VERTEX
  8
0
 62
9
  6
CONTINUOUS
 10
120.073233232
 20
83.1601248424
  0
VERTEX
  8
0
 62
9
  6
CONTINUOUS
 10
120.0145498266
 20
83.0579708984
  0
VERTEX
  8
0
 62
9
  6
CONTINUOUS
 10
119.9745337109
 20
82.9398122661
  0
VERTEX
  8
0
 62
9
  6
CONTINUOUS
 10
119.9558033268
 20
82.8133806183
  0
SEQEND
  0
POLYLINE
  8
0
 62
9
  6
CONTINUOUS
 66
1
 70
0
  0
VERTEX
  8
0
 62
9
  6
CONTINUOUS
 10
105.2485849617
 20
82.8133806183
  0
VERTEX
  8
0
 62
9
  6
CONTINUOUS
 10
105.280352443
 20
82.82051208
  0
VERTEX
  8
0
 62
9
  6
CONTINUOUS
 10
105.3142969426
 20
82.8228938731
  0
SEQEND
  0
POLYLINE
  8
0
 62
9
  6
CONTINUOUS
 66
1
 70
0
  0
VERTEX
  8
0
 62
9
  6
CONTINUOUS
 10
120.1259403949
 20
83.3228938731
  0
VERTEX
  8
0
 62
9
  6
CONTINUOUS
 10
120.0402581237
 20
83.3058567816
  0
VERTEX
  8
0
 62
9
  6
CONTINUOUS
 10
119.960414962
 20
83.2559065603
  0
VERTEX
  8
0
 62
9
  6
CONTINUOUS
 10
119.8918520894
 20
83.1764472401
  0
VERTEX
  8
0
 62
9
  6
CONTINUOUS
 10
119.8392419505
 20
83.0728938474
  0
VERTEX
  8
0
 62
9
  6
CONTINUOUS
 10
119.8061698361
 20
82.952303378
  0
VERTEX
  8
0
 62
9
  6
CONTINUOUS
 10
119.794889552
 20
82.8228938731
  0
SEQEND
  0
POLYLINE
  8
0
 62
9
  6
CONTINUOUS
 66
1
 70
0
  0
VERTEX
  8
0
 62
9
  6
CONTINUOUS
 10
120.9766117176
 20
83.2297496422
  0
VERTEX
  8
0
 62
9
  6
CONTINUOUS
 10
120.8753364528
 20
83.2107522742
  0
VERTEX
  8
0
 62
9
  6
CONTINUOUS
 10
120.7795490167
 20
83.1598896995
  0
VERTEX
  8
0
 62
9
  6
CONTINUOUS
 10
120.6956202848
 20
83.0805448162
  0
VERTEX
  8
0
 62
9
  6
CONTINUOUS
 10
120.629132404
 20
82.9779948968
  0
VERTEX
  8
0
 62
9
  6
CONTINUOUS
 10
120.5845075204
 20
82.8590605935
  0
VERTEX
  8
0
 62
9
  6
CONTINUOUS
 10
120.5647136597
 20
82.7316522931
  0
SEQEND
  0
POLYLINE
  8
0
 62
9
  6
CONTINUOUS
 66
1
 70
0
  0
VERTEX
  8
0
 62
9
  6
CONTINUOUS
 10
121.6801291404
 20
83.1325280441
  0
VERTEX
  8
0
 62
9
  6
CONTINUOUS
 10
121.5788222614
 20
83.1135763568
  0
VERTEX
  8
0
 62
9
  6
CONTINUOUS
 10
121.4829949491
 20
83.0627385988
  0
VERTEX
  8
0
 62
9
  6
CONTINUOUS
 10
121.3990242977
 20
82.9833979097
  0
VERTEX
  8
0
 62
9
  6
CONTINUOUS
 10
121.3324983666
 20
82.8808342355
  0
VERTEX
  8
0
 62
9
  6
CONTINUOUS
 10
121.2878443085
 20
82.7618729603
  0
VERTEX
  8
0
 62
9
  6
CONTINUOUS
 10
121.268033751
 20
82.6344306919
  0
SEQEND
  0
POLYLINE
  8
0
 62
9
  6
CONTINUOUS
 66
1
 70
0
  0
VERTEX
  8
0
 62
9
  6
CONTINUOUS
 10
143.9457568032
 20
83.1118191572
  0
VERTEX
  8
0
 62
9
  6
CONTINUOUS
 10
143.9686023401
 20
83.1124851069
  0
VERTEX
  8
0
 62
9
  6
CONTINUOUS
 10
143.9765311249
 20
83.1144562181
  0
VERTEX
  8
0
 62
9
  6
CONTINUOUS
 10
143.9690589216
 20
83.1176343474
  0
VERTEX
  8
0
 62
9
  6
CONTINUOUS
 10
143.9465534299
 20
83.1218591234
  0
SEQEND
  0
POLYLINE
  8
0
 62
9
  6
CONTINUOUS
 66
1
 70
0
  0
VERTEX
  8
0
 62
9
  6
CONTINUOUS
 10
80.1449529126
 20
83.132528041
  0
VERTEX
  8
0
 62
9
  6
CONTINUOUS
 10
80.2462616069
 20
83.1135772953
  0
VERTEX
  8
0
 62
9
  6
CONTINUOUS
 10
80.3420907937
 20
83.0627400509
  0
VERTEX
  8
0
 62
9
  6
CONTINUOUS
 10
80.4260631821
 20
82.9833994511
  0
VERTEX
  8
0
 62
9
  6
CONTINUOUS
 10
80.4925905338
 20
82.8808354958
  0
VERTEX
  8
0
 62
9
  6
CONTINUOUS
 10
80.5372455516
 20
82.7618736647
  0
VERTEX
  8
0
 62
9
  6
CONTINUOUS
 10
80.5570565099
 20
82.6344306919
  0
SEQEND
  0
POLYLINE
  8
0
 62
9
  6
CONTINUOUS
 66
1
 70
0
  0
VERTEX
  8
0
 62
9
  6
CONTINUOUS
 10
80.848470336
 20
83.2297496224
  0
VERTEX
  8
0
 62
9
  6
CONTINUOUS
 10
80.9497456249
 20
83.2107522943
  0
VERTEX
  8
0
 62
9
  6
CONTINUOUS
 10
81.0455330908
 20
83.1598897429
  0
VERTEX
  8
0
 62
9
  6
CONTINUOUS
 10
81.1294618527
 20
83.0805448663
  0
VERTEX
  8
0
 62
9
  6
CONTINUOUS
 10
81.1959497594
 20
82.9779949392
  0
VERTEX
  8
0
 62
9
  6
CONTINUOUS
 10
81.2405746609
 20
82.8590606175
  0
VERTEX
  8
0
 62
9
  6
CONTINUOUS
 10
81.2603685289
 20
82.7316522931
  0
SEQEND
  0
POLYLINE
  8
0
 62
9
  6
CONTINUOUS
 66
1
 70
0
  0
VERTEX
  8
0
 62
9
  6
CONTINUOUS
 10
81.699141658
 20
83.3228938731
  0
VERTEX
  8
0
 62
9
  6
CONTINUOUS
 10
81.7848240185
 20
83.3058567468
  0
VERTEX
  8
0
 62
9
  6
CONTINUOUS
 10
81.8646672136
 20
83.255906458
  0
VERTEX
  8
0
 62
9
  6
CONTINUOUS
 10
81.9332300696
 20
83.1764470888
  0
VERTEX
  8
0
 62
9
  6
CONTINUOUS
 10
81.9858401645
 20
83.0728936985
  0
VERTEX
  8
0
 62
9
  6
CONTINUOUS
 10
82.0189122361
 20
82.9523032871
  0
VERTEX
  8
0
 62
9
  6
CONTINUOUS
 10
82.0301925008
 20
82.8228938731
  0
SEQEND
  0
POLYLINE
  8
0
 62
9
  6
CONTINUOUS
 66
1
 70
0
  0
VERTEX
  8
0
 62
9
  6
CONTINUOUS
 10
81.5067305396
 20
83.3114778422
  0
VERTEX
  8
0
 62
9
  6
CONTINUOUS
 10
81.5948100621
 20
83.291165549
  0
VERTEX
  8
0
 62
9
  6
CONTINUOUS
 10
81.6783380053
 20
83.2395895601
  0
VERTEX
  8
0
 62
9
  6
CONTINUOUS
 10
81.7518487472
 20
83.1601247325
  0
VERTEX
  8
0
 62
9
  6
CONTINUOUS
 10
81.8105321382
 20
83.0579708192
  0
VERTEX
  8
0
 62
9
  6
CONTINUOUS
 10
81.8505482508
 20
82.9398122257
  0
VERTEX
  8
0
 62
9
  6
CONTINUOUS
 10
81.8692786446
 20
82.8133806183
  0
SEQEND
  0
POLYLINE
  8
0
 62
9
  6
CONTINUOUS
 66
1
 70
0
  0
VERTEX
  8
0
 62
9
  6
CONTINUOUS
 10
97.0521641642
 20
83.3114779674
  0
VERTEX
  8
0
 62
9
  6
CONTINUOUS
 10
97.1373877505
 20
83.2846504297
  0
VERTEX
  8
0
 62
9
  6
CONTINUOUS
 10
97.2070995855
 20
83.2573964056
  0
VERTEX
  8
0
 62
9
  6
CONTINUOUS
 10
97.2612592948
 20
83.2297496421
  0
SEQEND
  0
POLYLINE
  8
0
 62
9
  6
CONTINUOUS
 66
1
 70
0
  0
VERTEX
  8
0
 62
9
  6
CONTINUOUS
 10
97.4230872541
 20
83.1325280409
  0
VERTEX
  8
0
 62
9
  6
CONTINUOUS
 10
97.4402682217
 20
83.1269110398
  0
VERTEX
  8
0
 62
9
  6
CONTINUOUS
 10
97.4718624422
 20
83.1218549393
  0
VERTEX
  8
0
 62
9
  6
CONTINUOUS
 10
97.5162084719
 20
83.117631647
  0
VERTEX
  8
0
 62
9
  6
CONTINUOUS
 10
97.5710353114
 20
83.1144546428
  0
VERTEX
  8
0
 62
9
  6
CONTINUOUS
 10
97.6335213098
 20
83.1124839327
  0
VERTEX
  8
0
 62
9
  6
CONTINUOUS
 10
97.7002154038
 20
83.1118191572
  0
SEQEND
  0
POLYLINE
  8
0
 62
9
  6
CONTINUOUS
 66
1
 70
0
  0
VERTEX
  8
0
 62
9
  6
CONTINUOUS
 10
96.5764970911
 20
82.8133806183
  0
VERTEX
  8
0
 62
9
  6
CONTINUOUS
 10
96.6552683453
 20
82.7865511194
  0
VERTEX
  8
0
 62
9
  6
CONTINUOUS
 10
96.7196806306
 20
82.7593033359
  0
VERTEX
  8
0
 62
9
  6
CONTINUOUS
 10
96.7697387979
 20
82.7316522931
  0
SEQEND
  0
LINE
  8
0
 62
9
  6
CONTINUOUS
 10
97.2612592948
 20
83.2297496421
 11
97.4230872541
 21
83.1325280409
  0
LINE
  8
0
 62
9
  6
CONTINUOUS
 10
96.7697387979
 20
82.7316522931
 11
96.9313393935
 21
82.6344306919
  0
LINE
  8
0
 62
9
  6
CONTINUOUS
 10
104.8937426594
 20
74.0113570543
 11
104.8937426594
 21
82.6344306919
  0
LINE
  8
0
 62
9
  6
CONTINUOUS
 10
105.0553432549
 20
73.9141354531
 11
105.0553432549
 21
82.7316522931
  0
LINE
  8
0
 62
9
  6
CONTINUOUS
 10
105.9312697704
 20
73.8228938731
 11
105.9312697704
 21
82.8228938731
  0
LINE
  8
0
 62
9
  6
CONTINUOUS
 10
107.3341223704
 20
73.8228938731
 11
107.3341223704
 21
82.8228938731
  0
POLYLINE
  8
0
 62
9
  6
CONTINUOUS
 66
1
 70
0
  0
VERTEX
  8
0
 62
9
  6
CONTINUOUS
 10
104.1248666491
 20
73.533968589
  0
VERTEX
  8
0
 62
9
  6
CONTINUOUS
 10
104.1329458216
 20
73.5597821599
  0
VERTEX
  8
0
 62
9
  6
CONTINUOUS
 10
104.1403559908
 20
73.6143220085
  0
VERTEX
  8
0
 62
9
  6
CONTINUOUS
 10
104.1466464386
 20
73.6942708011
  0
VERTEX
  8
0
 62
9
  6
CONTINUOUS
 10
104.1514345533
 20
73.7947657214
  0
VERTEX
  8
0
 62
9
  6
CONTINUOUS
 10
104.154429101
 20
73.9096942467
  0
VERTEX
  8
0
 62
9
  6
CONTINUOUS
 10
104.1554479399
 20
74.032065938
  0
SEQEND
  0
LINE
  8
0
 62
7
  6
CONTINUOUS
 10
100.9125410264
 20
72.8228938731
 11
101.7785664302
 21
73.3228938731
  0
POLYLINE
  8
0
 62
9
  6
CONTINUOUS
 66
1
 70
0
  0
VERTEX
  8
0
 62
9
  6
CONTINUOUS
 10
104.7729178887
 20
83.3114779674
  0
VERTEX
  8
0
 62
9
  6
CONTINUOUS
 10
104.8054286942
 20
83.3200357078
  0
VERTEX
  8
0
 62
9
  6
CONTINUOUS
 10
104.8402450004
 20
83.3228938731
  0
SEQEND
  0
POLYLINE
  8
0
 62
9
  6
CONTINUOUS
 66
1
 70
0
  0
VERTEX
  8
0
 62
9
  6
CONTINUOUS
 10
97.0521641643
 20
83.3114779464
  0
VERTEX
  8
0
 62
9
  6
CONTINUOUS
 10
96.9306410453
 20
83.2911656742
  0
VERTEX
  8
0
 62
9
  6
CONTINUOUS
 10
96.817310817
 20
83.2395896867
  0
VERTEX
  8
0
 62
9
  6
CONTINUOUS
 10
96.7195892075
 20
83.1601248424
  0
VERTEX
  8
0
 62
9
  6
CONTINUOUS
 10
96.6438705995
 20
83.0579708984
  0
VERTEX
  8
0
 62
9
  6
CONTINUOUS
 10
96.5951096164
 20
82.9398122661
  0
VERTEX
  8
0
 62
9
  6
CONTINUOUS
 10
96.5764969179
 20
82.8133806183
  0
SEQEND
  0
POLYLINE
  8
0
 62
9
  6
CONTINUOUS
 66
1
 70
0
  0
VERTEX
  8
0
 62
9
  6
CONTINUOUS
 10
96.3181083514
 20
83.3228938731
  0
VERTEX
  8
0
 62
9
  6
CONTINUOUS
 10
96.2082923672
 20
83.3058567607
  0
VERTEX
  8
0
 62
9
  6
CONTINUOUS
 10
96.1059602068
 20
83.2559065001
  0
VERTEX
  8
0
 62
9
  6
CONTINUOUS
 10
96.0180856296
 20
83.1764471527
  0
VERTEX
  8
0
 62
9
  6
CONTINUOUS
 10
95.950657123
 20
83.072893763
  0
VERTEX
  8
0
 62
9
  6
CONTINUOUS
 10
95.9082698049
 20
82.9523033274
  0
VERTEX
  8
0
 62
9
  6
CONTINUOUS
 10
95.8938122824
 20
82.8228938731
  0
SEQEND
  0
POLYLINE
  8
0
 62
9
  6
CONTINUOUS
 66
1
 70
0
  0
VERTEX
  8
0
 62
9
  6
CONTINUOUS
 10
97.2612592948
 20
83.2297496422
  0
VERTEX
  8
0
 62
9
  6
CONTINUOUS
 10
97.134790054
 20
83.2107522742
  0
VERTEX
  8
0
 62
9
  6
CONTINUOUS
 10
97.0169594737
 20
83.1598896995
  0
VERTEX
  8
0
 62
9
  6
CONTINUOUS
 10
96.9156045314
 20
83.0805448162
  0
VERTEX
  8
0
 62
9
  6
CONTINUOUS
 10
96.8374664008
 20
82.9779948968
  0
VERTEX
  8
0
 62
9
  6
CONTINUOUS
 10
96.7877420925
 20
82.8590605935
  0
VERTEX
  8
0
 62
9
  6
CONTINUOUS
 10
96.7697387979
 20
82.7316522931
  0
SEQEND
  0
POLYLINE
  8
0
 62
9
  6
CONTINUOUS
 66
1
 70
0
  0
VERTEX
  8
0
 62
9
  6
CONTINUOUS
 10
97.4230872541
 20
83.1325280441
  0
VERTEX
  8
0
 62
9
  6
CONTINUOUS
 10
97.2965769298
 20
83.1135763568
  0
VERTEX
  8
0
 62
9
  6
CONTINUOUS
 10
97.1786980064
 20
83.0627385988
  0
VERTEX
  8
0
 62
9
  6
CONTINUOUS
 10
97.0772950635
 20
82.9833979097
  0
VERTEX
  8
0
 62
9
  6
CONTINUOUS
 10
96.9991162411
 20
82.8808342355
  0
VERTEX
  8
0
 62
9
  6
CONTINUOUS
 10
96.9493641655
 20
82.7618729603
  0
VERTEX
  8
0
 62
9
  6
CONTINUOUS
 10
96.9313497266
 20
82.6344306919
  0
SEQEND
  0
POLYLINE
  8
0
 62
9
  6
CONTINUOUS
 66
1
 70
0
  0
VERTEX
  8
0
 62
9
  6
CONTINUOUS
 10
96.9848370525
 20
83.3228938731
  0
VERTEX
  8
0
 62
9
  6
CONTINUOUS
 10
96.8621433665
 20
83.3058567816
  0
VERTEX
  8
0
 62
9
  6
CONTINUOUS
 10
96.7478110596
 20
83.2559065603
  0
VERTEX
  8
0
 62
9
  6
CONTINUOUS
 10
96.6496316897
 20
83.1764472401
  0
VERTEX
  8
0
 62
9
  6
CONTINUOUS
 10
96.574296016
 20
83.0728938474
  0
VERTEX
  8
0
 62
9
  6
CONTINUOUS
 10
96.5269380353
 20
82.952303378
  0
VERTEX
  8
0
 62
9
  6
CONTINUOUS
 10
96.5107851102
 20
82.8228938731
  0
SEQEND
  0
LINE
  8
0
 62
9
  6
CONTINUOUS
 10
80.5570565099
 20
82.6344306919
 11
81.2603683932
 21
82.7316522931
  0
POLYLINE
  8
0
 62
9
  6
CONTINUOUS
 66
1
 70
0
  0
VERTEX
  8
0
 62
9
  6
CONTINUOUS
 10
81.5067305349
 20
83.3114779674
  0
VERTEX
  8
0
 62
9
  6
CONTINUOUS
 10
81.6017821292
 20
83.3200357078
  0
VERTEX
  8
0
 62
9
  6
CONTINUOUS
 10
81.699141658
 20
83.3228938731
  0
SEQEND
  0
POLYLINE
  8
0
 62
9
  6
CONTINUOUS
 66
1
 70
0
  0
VERTEX
  8
0
 62
9
  6
CONTINUOUS
 10
81.8692786016
 20
82.8133806183
  0
VERTEX
  8
0
 62
9
  6
CONTINUOUS
 10
81.9486625919
 20
82.82051208
  0
VERTEX
  8
0
 62
9
  6
CONTINUOUS
 10
82.0301925008
 20
82.8228938731
  0
SEQEND
  0
POLYLINE
  8
0
 62
9
  6
CONTINUOUS
 66
1
 70
0
  0
VERTEX
  8
0
 62
9
  6
CONTINUOUS
 10
74.896158818
 20
83.3228938731
  0
VERTEX
  8
0
 62
9
  6
CONTINUOUS
 10
74.8591029004
 20
83.3200357078
  0
VERTEX
  8
0
 62
9
  6
CONTINUOUS
 10
74.8203616731
 20
83.3114779674
  0
SEQEND
  0
POLYLINE
  8
0
 62
9
  6
CONTINUOUS
 66
1
 70
0
  0
VERTEX
  8
0
 62
9
  6
CONTINUOUS
 10
63.5925990296
 20
82.8133806183
  0
VERTEX
  8
0
 62
9
  6
CONTINUOUS
 10
63.6983286528
 20
82.82051208
  0
VERTEX
  8
0
 62
9
  6
CONTINUOUS
 10
63.8055980976
 20
82.8228938731
  0
SEQEND
  0
LINE
  8
0
 62
9
  6
CONTINUOUS
 10
59.7785491862
 20
83.3228938731
 11
59.6795501481
 21
83.3200357078
  0
LINE
  8
0
 62
7
  6
CONTINUOUS
 10
74.8957607038
 20
83.3228936081
 11
74.8630555993
 21
83.3220094035
  0
LINE
  8
0
 62
7
  6
CONTINUOUS
 10
55.5483440032
 20
83.3200357078
 11
55.6827594495
 21
83.3228938731
  0
POLYLINE
  8
0
 62
9
  6
CONTINUOUS
 66
1
 70
0
  0
VERTEX
  8
0
 62
9
  6
CONTINUOUS
 10
52.6213041946
 20
82.6137218081
  0
VERTEX
  8
0
 62
9
  6
CONTINUOUS
 10
52.6537919621
 20
82.6143899843
  0
VERTEX
  8
0
 62
9
  6
CONTINUOUS
 10
52.7254945898
 20
82.6163613847
  0
VERTEX
  8
0
 62
9
  6
CONTINUOUS
 10
53.3059284899
 20
82.6344306919
  0
SEQEND
  0
POLYLINE
  8
0
 62
9
  6
CONTINUOUS
 66
1
 70
0
  0
VERTEX
  8
0
 62
9
  6
CONTINUOUS
 10
61.0916508723
 20
83.1118191572
  0
VERTEX
  8
0
 62
9
  6
CONTINUOUS
 10
61.1355564932
 20
83.1124851069
  0
VERTEX
  8
0
 62
9
  6
CONTINUOUS
 10
61.190092746
 20
83.1144562181
  0
VERTEX
  8
0
 62
9
  6
CONTINUOUS
 10
61.2523918727
 20
83.1176343474
  0
VERTEX
  8
0
 62
9
  6
CONTINUOUS
 10
61.3192413021
 20
83.1218591234
  0
VERTEX
  8
0
 62
9
  6
CONTINUOUS
 10
61.3872082769
 20
83.1269163592
  0
VERTEX
  8
0
 62
9
  6
CONTINUOUS
 10
61.4525694903
 20
83.1325280409
  0
SEQEND
  0
POLYLINE
  8
0
 62
7
  6
CONTINUOUS
 66
1
 70
0
  0
VERTEX
  8
0
 62
7
  6
CONTINUOUS
 10
59.7785802072
 20
83.3228937728
  0
VERTEX
  8
0
 62
7
  6
CONTINUOUS
 10
59.7312808937
 20
83.3222765615
  0
VERTEX
  8
0
 62
7
  6
CONTINUOUS
 10
59.6141272016
 20
83.3154831864
  0
SEQEND
  0
POLYLINE
  8
0
 62
9
  6
CONTINUOUS
 66
1
 70
0
  0
VERTEX
  8
0
 62
9
  6
CONTINUOUS
 10
127.6124168022
 20
83.1118191572
  0
VERTEX
  8
0
 62
9
  6
CONTINUOUS
 10
127.664145478
 20
83.1124851069
  0
VERTEX
  8
0
 62
9
  6
CONTINUOUS
 10
127.7047873703
 20
83.1144562181
  0
VERTEX
  8
0
 62
9
  6
CONTINUOUS
 10
127.7321276307
 20
83.1176343474
  0
VERTEX
  8
0
 62
9
  6
CONTINUOUS
 10
127.7447360634
 20
83.1218591234
  0
VERTEX
  8
0
 62
9
  6
CONTINUOUS
 10
127.7419660428
 20
83.1269163592
  0
VERTEX
  8
0
 62
9
  6
CONTINUOUS
 10
127.7240403646
 20
83.1325280409
  0
SEQEND
  0
POLYLINE
  8
0
 62
9
  6
CONTINUOUS
 66
1
 70
0
  0
VERTEX
  8
0
 62
9
  6
CONTINUOUS
 10
104.3335384545
 20
82.6143899843
  0
VERTEX
  8
0
 62
9
  6
CONTINUOUS
 10
104.4997752232
 20
82.6163613847
  0
VERTEX
  8
0
 62
9
  6
CONTINUOUS
 10
104.6456946952
 20
82.6195357414
  0
VERTEX
  8
0
 62
9
  6
CONTINUOUS
 10
104.763747486
 20
82.6237555731
  0
VERTEX
  8
0
 62
9
  6
CONTINUOUS
 10
104.8478728983
 20
82.6288056124
  0
VERTEX
  8
0
 62
9
  6
CONTINUOUS
 10
104.8937426594
 20
82.6344306919
  0
SEQEND
  0
POLYLINE
  8
0
 62
9
  6
CONTINUOUS
 66
1
 70
0
  0
VERTEX
  8
0
 62
9
  6
CONTINUOUS
 10
144.3554323597
 20
82.6137218081
  0
VERTEX
  8
0
 62
9
  6
CONTINUOUS
 10
144.416342385
 20
82.6143899843
  0
VERTEX
  8
0
 62
9
  6
CONTINUOUS
 10
144.4373680402
 20
82.6163953692
  0
SEQEND
  0
POLYLINE
  8
0
 62
9
  6
CONTINUOUS
 66
1
 70
0
  0
VERTEX
  8
0
 62
9
  6
CONTINUOUS
 10
79.7458371732
 20
82.6143899843
  0
VERTEX
  8
0
 62
9
  6
CONTINUOUS
 10
79.9256537518
 20
82.6163613847
  0
VERTEX
  8
0
 62
9
  6
CONTINUOUS
 10
80.1056745863
 20
82.6195357414
  0
VERTEX
  8
0
 62
9
  6
CONTINUOUS
 10
80.2766073781
 20
82.6237555731
  0
VERTEX
  8
0
 62
9
  6
CONTINUOUS
 10
80.4296876311
 20
82.6288056124
  0
VERTEX
  8
0
 62
9
  6
CONTINUOUS
 10
80.5570565099
 20
82.6344306919
  0
SEQEND
  0
POLYLINE
  8
0
 62
9
  6
CONTINUOUS
 66
1
 70
0
  0
VERTEX
  8
0
 62
9
  6
CONTINUOUS
 10
79.7765764395
 20
83.1118191572
  0
VERTEX
  8
0
 62
9
  6
CONTINUOUS
 10
79.8404641605
 20
83.1124851069
  0
VERTEX
  8
0
 62
9
  6
CONTINUOUS
 10
79.908014887
 20
83.1144562181
  0
VERTEX
  8
0
 62
9
  6
CONTINUOUS
 10
79.9756376436
 20
83.1176343474
  0
VERTEX
  8
0
 62
9
  6
CONTINUOUS
 10
80.039835164
 20
83.1218591234
  0
VERTEX
  8
0
 62
9
  6
CONTINUOUS
 10
80.0973112805
 20
83.1269163592
  0
VERTEX
  8
0
 62
9
  6
CONTINUOUS
 10
80.1449529126
 20
83.1325280409
  0
SEQEND
  0
POLYLINE
  8
0
 62
9
  6
CONTINUOUS
 66
1
 70
0
  0
VERTEX
  8
0
 62
9
  6
CONTINUOUS
 10
104.1248666491
 20
83.1118191572
  0
VERTEX
  8
0
 62
9
  6
CONTINUOUS
 10
104.1916178069
 20
83.1124851069
  0
VERTEX
  8
0
 62
9
  6
CONTINUOUS
 10
104.2540828445
 20
83.1144562181
  0
VERTEX
  8
0
 62
9
  6
CONTINUOUS
 10
104.3089097679
 20
83.1176343474
  0
VERTEX
  8
0
 62
9
  6
CONTINUOUS
 10
104.3532537055
 20
83.1218591234
  0
VERTEX
  8
0
 62
9
  6
CONTINUOUS
 10
104.3848382848
 20
83.1269163592
  0
VERTEX
  8
0
 62
9
  6
CONTINUOUS
 10
104.4019947988
 20
83.1325280409
  0
SEQEND
  0
POLYLINE
  8
0
 62
9
  6
CONTINUOUS
 66
1
 70
0
  0
VERTEX
  8
0
 62
9
  6
CONTINUOUS
 10
60.7125566066
 20
82.6137218081
  0
VERTEX
  8
0
 62
9
  6
CONTINUOUS
 10
60.8297370958
 20
82.6143899843
  0
VERTEX
  8
0
 62
9
  6
CONTINUOUS
 10
60.9749517773
 20
82.6163613847
  0
VERTEX
  8
0
 62
9
  6
CONTINUOUS
 10
61.1408375371
 20
82.6195357414
  0
VERTEX
  8
0
 62
9
  6
CONTINUOUS
 10
61.3188490263
 20
82.6237555731
  0
VERTEX
  8
0
 62
9
  6
CONTINUOUS
 10
61.6746059982
 20
82.6344306919
  0
SEQEND
  0
POLYLINE
  8
0
 62
9
  6
CONTINUOUS
 66
1
 70
0
  0
VERTEX
  8
0
 62
9
  6
CONTINUOUS
 10
127.8665992115
 20
82.6137218081
  0
VERTEX
  8
0
 62
9
  6
CONTINUOUS
 10
128.0045862376
 20
82.6143899843
  0
VERTEX
  8
0
 62
9
  6
CONTINUOUS
 10
128.1127001885
 20
82.6163613847
  0
VERTEX
  8
0
 62
9
  6
CONTINUOUS
 10
128.1854192933
 20
82.6195357414
  0
VERTEX
  8
0
 62
9
  6
CONTINUOUS
 10
128.2189599331
 20
82.6237555731
  0
VERTEX
  8
0
 62
9
  6
CONTINUOUS
 10
128.2210775886
 20
82.6252935017
  0
SEQEND
  0
LINE
  8
0
 62
9
  6
CONTINUOUS
 10
149.2037778583
 20
82.6137218081
 11
149.3125410264
 21
82.6137218146
  0
LINE
  8
0
 62
9
  6
CONTINUOUS
 10
52.5125410264
 20
82.6137218085
 11
52.6213041946
 21
82.6137218081
  0
LINE
  8
0
 62
9
  6
CONTINUOUS
 10
57.4696496931
 20
82.6137218081
 11
60.7125566066
 21
82.6137218081
  0
LINE
  8
0
 62
9
  6
CONTINUOUS
 10
73.9584828413
 20
82.6137218081
 11
79.7458371732
 21
82.6143899843
  0
LINE
  8
0
 62
9
  6
CONTINUOUS
 10
97.6696341129
 20
82.6137218081
 11
104.3335384545
 21
82.6143899843
  0
LINE
  8
0
 62
9
  6
CONTINUOUS
 10
141.1125254462
 20
82.6137218081
 11
144.3554323597
 21
82.6137218081
  0
LINE
  8
0
 62
9
  6
CONTINUOUS
 10
55.5237790858
 20
82.8228938731
 11
57.4334312729
 21
82.8228938731
  0
LINE
  8
0
 62
9
  6
CONTINUOUS
 10
63.8055980976
 20
82.8228938731
 11
73.6461865628
 21
82.8228938731
  0
LINE
  8
0
 62
9
  6
CONTINUOUS
 10
82.0301925008
 20
82.8228938731
 11
96.5107851102
 21
82.8228938731
  0
LINE
  8
0
 62
9
  6
CONTINUOUS
 10
105.3142969426
 20
82.8228938731
 11
119.794889552
 21
82.8228938731
  0
LINE
  8
0
 62
9
  6
CONTINUOUS
 10
128.178863404
 20
82.8228938731
 11
138.0194839552
 21
82.8228938731
  0
LINE
  8
0
 62
9
  6
CONTINUOUS
 10
144.391804034
 20
82.8228938731
 11
146.3013029671
 21
82.8228938731
  0
LINE
  8
0
 62
9
  6
CONTINUOUS
 10
148.7483813891
 20
83.1118191572
 11
148.8561153381
 21
83.1118194686
  0
LINE
  8
0
 62
9
  6
CONTINUOUS
 10
52.9689633639
 20
83.1118191755
 11
53.0767006638
 21
83.1118191572
  0
LINE
  8
0
 62
9
  6
CONTINUOUS
 10
57.8793252496
 20
83.1118191572
 11
61.0916508723
 21
83.1118191572
  0
LINE
  8
0
 62
9
  6
CONTINUOUS
 10
74.2126652506
 20
83.1118191572
 11
79.7765764395
 21
83.1118191572
  0
LINE
  8
0
 62
9
  6
CONTINUOUS
 10
97.7002154038
 20
83.1118191572
 11
104.1248666491
 21
83.1118191572
  0
LINE
  8
0
 62
9
  6
CONTINUOUS
 10
122.0485056133
 20
83.1118191572
 11
127.6124168022
 21
83.1118191572
  0
LINE
  8
0
 62
9
  6
CONTINUOUS
 10
140.7334311805
 20
83.1118191572
 11
143.9457568032
 21
83.1118191572
  0
LINE
  8
0
 62
9
  6
CONTINUOUS
 10
146.5740082547
 20
83.3114779674
 11
146.4105308712
 21
83.3114779674
  0
LINE
  8
0
 62
9
  6
CONTINUOUS
 10
142.2451444843
 20
83.3114779674
 11
138.384767622
 21
83.3114779674
  0
LINE
  8
0
 62
9
  6
CONTINUOUS
 10
127.0047203797
 20
83.3114779674
 11
120.3183515179
 21
83.3114779674
  0
LINE
  8
0
 62
9
  6
CONTINUOUS
 10
104.7729178887
 20
83.3114779674
 11
97.0521641642
 21
83.3114779674
  0
LINE
  8
0
 62
9
  6
CONTINUOUS
 10
81.5067305349
 20
83.3114779674
 11
74.8203616731
 21
83.3114779674
  0
LINE
  8
0
 62
9
  6
CONTINUOUS
 10
63.4403144308
 20
83.3114779674
 11
59.5799375686
 21
83.3114779674
  0
LINE
  8
0
 62
9
  6
CONTINUOUS
 10
55.4145511816
 20
83.3114779674
 11
55.2510737982
 21
83.3114779674
  0
LINE
  8
1_AXIS
 62
7
  6
CONTINUOUS
 10
146.283068428
 20
83.3228938731
 11
146.1423226033
 21
83.3228938731
  0
LINE
  8
1_AXIS
 62
7
  6
CONTINUOUS
 10
126.9289232349
 20
83.3228938731
 11
120.1259403949
 21
83.3228938731
  0
LINE
  8
1_AXIS
 62
7
  6
CONTINUOUS
 10
104.8402450004
 20
83.3228938731
 11
96.9848370525
 21
83.3228938731
  0
LINE
  8
1_AXIS
 62
7
  6
CONTINUOUS
 10
63.7062531602
 20
83.3228938731
 11
59.7785491862
 21
83.3228938731
  0
LINE
  8
1_AXIS
 62
7
  6
CONTINUOUS
 10
55.6827594495
 20
83.3228938731
 11
55.5145509092
 21
83.3228938731
  0
LINE
  8
0
 62
7
  6
CONTINUOUS
 10
55.5125608578
 20
83.3228938731
 11
146.3125177645
 21
83.3228938731
  0
LINE
  8
1_AXIS
 62
9
  6
CONTINUOUS
 10
65.9125410264
 20
85.3228938731
 11
135.9125410264
 21
85.3228938731
  0
LINE
  8
0
 62
7
  6
CONTINUOUS
 10
126.9289232349
 20
83.3228938731
 11
126.9293761906
 21
83.3228936595
  0
POLYLINE
  8
0
 62
9
  6
CONTINUOUS
 66
1
 70
0
  0
VERTEX
  8
0
 62
9
  6
CONTINUOUS
 10
140.6841732207
 20
82.619535968
  0
VERTEX
  8
0
 62
9
  6
CONTINUOUS
 10
140.8500480398
 20
82.6163615076
  0
VERTEX
  8
0
 62
9
  6
CONTINUOUS
 10
140.9953117471
 20
82.6143899725
  0
VERTEX
  8
0
 62
9
  6
CONTINUOUS
 10
141.1125254462
 20
82.6137218081
  0
SEQEND
  0
LINE
  8
0
 62
9
  6
CONTINUOUS
 10
149.1712769033
 20
82.6143899725
 11
149.2037778583
 21
82.6137218081
  0
LINE
  8
0
 62
7
  6
CONTINUOUS
 10
146.1423226033
 20
83.3228938731
 11
146.2767380497
 21
83.3200357078
  0
POLYLINE
  8
0
 62
9
  6
CONTINUOUS
 66
1
 70
0
  0
VERTEX
  8
0
 62
9
  6
CONTINUOUS
 10
138.1188288926
 20
83.3228938731
  0
VERTEX
  8
0
 62
9
  6
CONTINUOUS
 10
138.2526442369
 20
83.3200357078
  0
VERTEX
  8
0
 62
9
  6
CONTINUOUS
 10
138.384767622
 20
83.3114779674
  0
SEQEND
  0
POLYLINE
  8
0
 62
9
  6
CONTINUOUS
 66
1
 70
0
  0
VERTEX
  8
0
 62
9
  6
CONTINUOUS
 10
138.0194839552
 20
82.8228938731
  0
VERTEX
  8
0
 62
9
  6
CONTINUOUS
 10
138.1267534001
 20
82.8205120799
  0
VERTEX
  8
0
 62
9
  6
CONTINUOUS
 10
138.2324830233
 20
82.8133806183
  0
SEQEND
  0
POLYLINE
  8
0
 62
9
  6
CONTINUOUS
 66
1
 70
0
  0
VERTEX
  8
0
 62
9
  6
CONTINUOUS
 10
146.3013029671
 20
82.8228938731
  0
VERTEX
  8
0
 62
9
  6
CONTINUOUS
 10
146.4055691867
 20
82.8205120799
  0
VERTEX
  8
0
 62
9
  6
CONTINUOUS
 10
146.5093142757
 20
82.8133806183
  0
SEQEND
  0
LINE
  8
0
 62
9
  6
CONTINUOUS
 10
142.1455319047
 20
83.3200357078
 11
142.0465328666
 21
83.3228938731
  0
POLYLINE
  8
0
 62
9
  6
CONTINUOUS
 66
1
 70
0
  0
VERTEX
  8
0
 62
9
  6
CONTINUOUS
 10
119.794889552
 20
82.8228938731
  0
VERTEX
  8
0
 62
9
  6
CONTINUOUS
 10
119.8764194609
 20
82.8205120799
  0
VERTEX
  8
0
 62
9
  6
CONTINUOUS
 10
119.9558034512
 20
82.8133806183
  0
SEQEND
  0
POLYLINE
  8
0
 62
9
  6
CONTINUOUS
 66
1
 70
0
  0
VERTEX
  8
0
 62
9
  6
CONTINUOUS
 10
120.1259403949
 20
83.3228938731
  0
VERTEX
  8
0
 62
9
  6
CONTINUOUS
 10
120.2232999236
 20
83.3200357078
  0
VERTEX
  8
0
 62
9
  6
CONTINUOUS
 10
120.3183515179
 20
83.3114779674
  0
SEQEND
  0
LINE
  8
0
 62
7
  6
CONTINUOUS
 10
126.9683209147
 20
83.3216417877
 11
126.9293761905
 21
83.3228935595
  0
POLYLINE
  8
0
 62
9
  6
CONTINUOUS
 66
1
 70
0
  0
VERTEX
  8
0
 62
9
  6
CONTINUOUS
 10
148.5191535629
 20
82.6344306919
  0
VERTEX
  8
0
 62
9
  6
CONTINUOUS
 10
148.694416677
 20
82.6288053546
  0
VERTEX
  8
0
 62
9
  6
CONTINUOUS
 10
149.1712769033
 20
82.6143899725
  0
SEQEND
  0
POLYLINE
  8
0
 62
9
  6
CONTINUOUS
 66
1
 70
0
  0
VERTEX
  8
0
 62
9
  6
CONTINUOUS
 10
140.1504760547
 20
82.6344306919
  0
VERTEX
  8
0
 62
9
  6
CONTINUOUS
 10
140.3251882328
 20
82.6288053546
  0
VERTEX
  8
0
 62
9
  6
CONTINUOUS
 10
140.6841732207
 20
82.619535968
  0
SEQEND
  0
POLYLINE
  8
0
 62
9
  6
CONTINUOUS
 66
1
 70
0
  0
VERTEX
  8
0
 62
9
  6
CONTINUOUS
 10
121.2680255429
 20
82.6344306919
  0
VERTEX
  8
0
 62
9
  6
CONTINUOUS
 10
121.3953727981
 20
82.6288053546
  0
VERTEX
  8
0
 62
9
  6
CONTINUOUS
 10
121.5484345063
 20
82.623754523
  0
VERTEX
  8
0
 62
9
  6
CONTINUOUS
 10
121.7193347099
 20
82.619535968
  0
VERTEX
  8
0
 62
9
  6
CONTINUOUS
 10
121.8993331826
 20
82.6163615076
  0
VERTEX
  8
0
 62
9
  6
CONTINUOUS
 10
122.0792005459
 20
82.6143899725
  0
VERTEX
  8
0
 62
9
  6
CONTINUOUS
 10
127.8665992115
 20
82.6137218081
  0
SEQEND
  0
POLYLINE
  8
0
 62
9
  6
CONTINUOUS
 66
1
 70
0
  0
VERTEX
  8
0
 62
9
  6
CONTINUOUS
 10
96.5107851102
 20
82.8228938731
  0
VERTEX
  8
0
 62
9
  6
CONTINUOUS
 10
96.5447296099
 20
82.8205120799
  0
VERTEX
  8
0
 62
9
  6
CONTINUOUS
 10
96.5764970911
 20
82.8133806183
  0
SEQEND
  0
POLYLINE
  8
0
 62
9
  6
CONTINUOUS
 66
1
 70
0
  0
VERTEX
  8
0
 62
9
  6
CONTINUOUS
 10
96.9848370525
 20
83.3228938731
  0
VERTEX
  8
0
 62
9
  6
CONTINUOUS
 10
97.0196533586
 20
83.3200357078
  0
VERTEX
  8
0
 62
9
  6
CONTINUOUS
 10
97.0521641642
 20
83.3114779674
  0
SEQEND
  0
POLYLINE
  8
0
 62
9
  6
CONTINUOUS
 66
1
 70
0
  0
VERTEX
  8
0
 62
9
  6
CONTINUOUS
 10
96.9313393935
 20
82.6344306919
  0
VERTEX
  8
0
 62
9
  6
CONTINUOUS
 10
96.9771991315
 20
82.6288053546
  0
VERTEX
  8
0
 62
9
  6
CONTINUOUS
 10
97.0613095028
 20
82.623754523
  0
VERTEX
  8
0
 62
9
  6
CONTINUOUS
 10
97.1793326346
 20
82.619535968
  0
VERTEX
  8
0
 62
9
  6
CONTINUOUS
 10
97.3252243155
 20
82.6163615076
  0
VERTEX
  8
0
 62
9
  6
CONTINUOUS
 10
97.4915000199
 20
82.6143899725
  0
VERTEX
  8
0
 62
9
  6
CONTINUOUS
 10
97.6696341129
 20
82.6137218081
  0
SEQEND
  0
POLYLINE
  8
0
 62
9
  6
CONTINUOUS
 66
1
 70
0
  0
VERTEX
  8
0
 62
9
  6
CONTINUOUS
 10
119.9558034512
 20
82.8133806183
  0
VERTEX
  8
0
 62
9
  6
CONTINUOUS
 10
120.1696987754
 20
82.7865511194
  0
VERTEX
  8
0
 62
9
  6
CONTINUOUS
 10
120.3726788256
 20
82.7593033359
  0
VERTEX
  8
0
 62
9
  6
CONTINUOUS
 10
120.5647136597
 20
82.7316522931
  0
SEQEND
  0
LINE
  8
0
 62
9
  6
CONTINUOUS
 10
120.5647136597
 20
82.7316522931
 11
121.2680255429
 21
82.6344306919
  0
POLYLINE
  8
0
 62
9
  6
CONTINUOUS
 66
1
 70
0
  0
VERTEX
  8
0
 62
9
  6
CONTINUOUS
 10
104.8402450004
 20
83.3228938731
  0
VERTEX
  8
0
 62
9
  6
CONTINUOUS
 10
104.9629391247
 20
83.3058566581
  0
VERTEX
  8
0
 62
9
  6
CONTINUOUS
 10
105.0772715921
 20
83.2559061971
  0
VERTEX
  8
0
 62
9
  6
CONTINUOUS
 10
105.1754508767
 20
83.1764467012
  0
VERTEX
  8
0
 62
9
  6
CONTINUOUS
 10
105.2507863315
 20
83.0728933133
  0
VERTEX
  8
0
 62
9
  6
CONTINUOUS
 10
105.2981441026
 20
82.9523030483
  0
VERTEX
  8
0
 62
9
  6
CONTINUOUS
 10
105.3142969426
 20
82.8228938731
  0
SEQEND
  0
POLYLINE
  8
0
 62
9
  6
CONTINUOUS
 66
1
 70
0
  0
VERTEX
  8
0
 62
9
  6
CONTINUOUS
 10
104.4019947988
 20
83.132528041
  0
VERTEX
  8
0
 62
9
  6
CONTINUOUS
 10
104.5285074617
 20
83.1135772953
  0
VERTEX
  8
0
 62
9
  6
CONTINUOUS
 10
104.6463887742
 20
83.0627400509
  0
VERTEX
  8
0
 62
9
  6
CONTINUOUS
 10
104.7477939088
 20
82.9833994511
  0
VERTEX
  8
0
 62
9
  6
CONTINUOUS
 10
104.8259745037
 20
82.8808354958
  0
VERTEX
  8
0
 62
9
  6
CONTINUOUS
 10
104.8757277557
 20
82.7618736647
  0
VERTEX
  8
0
 62
9
  6
CONTINUOUS
 10
104.8937426594
 20
82.6344306919
  0
SEQEND
  0
POLYLINE
  8
0
 62
9
  6
CONTINUOUS
 66
1
 70
0
  0
VERTEX
  8
0
 62
9
  6
CONTINUOUS
 10
104.563822758
 20
83.2297496224
  0
VERTEX
  8
0
 62
9
  6
CONTINUOUS
 10
104.6902920313
 20
83.2107522943
  0
VERTEX
  8
0
 62
9
  6
CONTINUOUS
 10
104.8081226502
 20
83.1598897429
  0
VERTEX
  8
0
 62
9
  6
CONTINUOUS
 10
104.9094776308
 20
83.0805448663
  0
VERTEX
  8
0
 62
9
  6
CONTINUOUS
 10
104.9876157936
 20
82.9779949392
  0
VERTEX
  8
0
 62
9
  6
CONTINUOUS
 10
105.0373401234
 20
82.8590606175
  0
VERTEX
  8
0
 62
9
  6
CONTINUOUS
 10
105.0553434257
 20
82.7316522931
  0
SEQEND
  0
POLYLINE
  8
0
 62
9
  6
CONTINUOUS
 66
1
 70
0
  0
VERTEX
  8
0
 62
9
  6
CONTINUOUS
 10
105.5069737014
 20
83.3228938731
  0
VERTEX
  8
0
 62
9
  6
CONTINUOUS
 10
105.6167902947
 20
83.3058565684
  0
VERTEX
  8
0
 62
9
  6
CONTINUOUS
 10
105.7191226927
 20
83.255905924
  0
VERTEX
  8
0
 62
9
  6
CONTINUOUS
 10
105.8069971598
 20
83.1764462846
  0
VERTEX
  8
0
 62
9
  6
CONTINUOUS
 10
105.8744253569
 20
83.0728928912
  0
VERTEX
  8
0
 62
9
  6
CONTINUOUS
 10
105.9168123715
 20
82.9523027836
  0
VERTEX
  8
0
 62
9
  6
CONTINUOUS
 10
105.9312697703
 20
82.8228938731
  0
SEQEND
  0
POLYLINE
  8
0
 62
9
  6
CONTINUOUS
 66
1
 70
0
  0
VERTEX
  8
0
 62
9
  6
CONTINUOUS
 10
104.7729178878
 20
83.3114778422
  0
VERTEX
  8
0
 62
9
  6
CONTINUOUS
 10
104.8944409708
 20
83.291165549
  0
VERTEX
  8
0
 62
9
  6
CONTINUOUS
 10
105.0077711625
 20
83.2395895601
  0
VERTEX
  8
0
 62
9
  6
CONTINUOUS
 10
105.1054927414
 20
83.1601247325
  0
VERTEX
  8
0
 62
9
  6
CONTINUOUS
 10
105.1812113303
 20
83.0579708192
  0
VERTEX
  8
0
 62
9
  6
CONTINUOUS
 10
105.2299723095
 20
82.9398122257
  0
VERTEX
  8
0
 62
9
  6
CONTINUOUS
 10
105.2485850216
 20
82.8133806183
  0
SEQEND
  0
POLYLINE
  8
0
 62
9
  6
CONTINUOUS
 66
1
 70
0
  0
VERTEX
  8
0
 62
9
  6
CONTINUOUS
 10
104.1248666491
 20
83.1118191572
  0
VERTEX
  8
0
 62
9
  6
CONTINUOUS
 10
104.132945745
 20
83.08600598
  0
VERTEX
  8
0
 62
9
  6
CONTINUOUS
 10
104.1403558828
 20
83.031466787
  0
VERTEX
  8
0
 62
9
  6
CONTINUOUS
 10
104.1466463418
 20
82.9515185046
  0
VERTEX
  8
0
 62
9
  6
CONTINUOUS
 10
104.1514344943
 20
82.8510236367
  0
VERTEX
  8
0
 62
9
  6
CONTINUOUS
 10
104.1544290827
 20
82.7360945683
  0
VERTEX
  8
0
 62
9
  6
CONTINUOUS
 10
104.1554479406
 20
82.6137218081
  0
SEQEND
  0
POLYLINE
  8
0
 62
9
  6
CONTINUOUS
 66
1
 70
0
  0
VERTEX
  8
0
 62
9
  6
CONTINUOUS
 10
107.2605394514
 20
73.3228938731
  0
VERTEX
  8
0
 62
9
  6
CONTINUOUS
 10
107.2795842845
 20
73.3399312734
  0
VERTEX
  8
0
 62
9
  6
CONTINUOUS
 10
107.2973311504
 20
73.3898821104
  0
VERTEX
  8
0
 62
9
  6
CONTINUOUS
 10
107.3125706409
 20
73.4693418983
  0
VERTEX
  8
0
 62
9
  6
CONTINUOUS
 10
107.3242642496
 20
73.5728952954
  0
VERTEX
  8
0
 62
9
  6
CONTINUOUS
 10
107.3316151285
 20
73.693485238
  0
VERTEX
  8
0
 62
9
  6
CONTINUOUS
 10
107.3341223707
 20
73.8228938731
  0
SEQEND
  0
POLYLINE
  8
0
 62
9
  6
CONTINUOUS
 66
1
 70
0
  0
VERTEX
  8
0
 62
9
  6
CONTINUOUS
 10
139.3158126019
 20
83.2297496422
  0
VERTEX
  8
0
 62
9
  6
CONTINUOUS
 10
139.2668679385
 20
83.2107522742
  0
VERTEX
  8
0
 62
9
  6
CONTINUOUS
 10
139.2187898126
 20
83.1598896995
  0
VERTEX
  8
0
 62
9
  6
CONTINUOUS
 10
139.1747759271
 20
83.0805448162
  0
VERTEX
  8
0
 62
9
  6
CONTINUOUS
 10
139.1377536702
 20
82.9779948968
  0
VERTEX
  8
0
 62
9
  6
CONTINUOUS
 10
139.1101854127
 20
82.8590605935
  0
VERTEX
  8
0
 62
9
  6
CONTINUOUS
 10
139.0939047348
 20
82.7316522931
  0
SEQEND
  0
POLYLINE
  8
0
 62
9
  6
CONTINUOUS
 66
1
 70
0
  0
VERTEX
  8
0
 62
9
  6
CONTINUOUS
 10
140.3725125628
 20
83.1325280441
  0
VERTEX
  8
0
 62
9
  6
CONTINUOUS
 10
140.3235542256
 20
83.1135763568
  0
VERTEX
  8
0
 62
9
  6
CONTINUOUS
 10
140.2754553754
 20
83.0627385988
  0
VERTEX
  8
0
 62
9
  6
CONTINUOUS
 10
140.2314168835
 20
82.9833979097
  0
VERTEX
  8
0
 62
9
  6
CONTINUOUS
 10
140.1943694134
 20
82.8808342355
  0
VERTEX
  8
0
 62
9
  6
CONTINUOUS
 10
140.1667783915
 20
82.7618729603
  0
VERTEX
  8
0
 62
9
  6
CONTINUOUS
 10
140.1504799384
 20
82.6344306919
  0
SEQEND
  0
POLYLINE
  8
0
 62
9
  6
CONTINUOUS
 66
1
 70
0
  0
VERTEX
  8
0
 62
9
  6
CONTINUOUS
 10
116.7476825628
 20
73.3228938731
  0
VERTEX
  8
0
 62
9
  6
CONTINUOUS
 10
116.7951896417
 20
73.3399309556
  0
VERTEX
  8
0
 62
9
  6
CONTINUOUS
 10
116.8394591952
 20
73.3898811586
  0
VERTEX
  8
0
 62
9
  6
CONTINUOUS
 10
116.8774743256
 20
73.4693404639
  0
VERTEX
  8
0
 62
9
  6
CONTINUOUS
 10
116.9066443631
 20
73.5728938548
  0
VERTEX
  8
0
 62
9
  6
CONTINUOUS
 10
116.9249814161
 20
73.6934843393
  0
VERTEX
  8
0
 62
9
  6
CONTINUOUS
 10
116.9312358436
 20
73.8228938731
  0
SEQEND
  0
POLYLINE
  8
0
 62
9
  6
CONTINUOUS
 66
1
 70
0
  0
VERTEX
  8
0
 62
9
  6
CONTINUOUS
 10
74.8203616737
 20
83.3114779557
  0
VERTEX
  8
0
 62
9
  6
CONTINUOUS
 10
74.6979570238
 20
83.2911656635
  0
VERTEX
  8
0
 62
9
  6
CONTINUOUS
 10
74.680654426
 20
83.2855076648
  0
SEQEND
  0
LINE
  8
0
 62
7
  6
CONTINUOUS
 10
74.8630555993
 20
83.3220094035
 11
74.7445124246
 21
83.3044184881
  0
POLYLINE
  8
0
 62
9
  6
CONTINUOUS
 66
1
 70
0
  0
VERTEX
  8
0
 62
9
  6
CONTINUOUS
 10
81.2603683932
 20
82.7316522931
  0
VERTEX
  8
0
 62
9
  6
CONTINUOUS
 10
81.4524130356
 20
82.7593046986
  0
VERTEX
  8
0
 62
9
  6
CONTINUOUS
 10
81.6553982391
 20
82.7865530632
  0
VERTEX
  8
0
 62
9
  6
CONTINUOUS
 10
81.8692786016
 20
82.8133806183
  0
SEQEND
  0
LINE
  8
0
 62
9
  6
CONTINUOUS
 10
80.1449529126
 20
83.1325280409
 11
80.8484703352
 21
83.2297496421
  0
POLYLINE
  8
0
 62
9
  6
CONTINUOUS
 66
1
 70
0
  0
VERTEX
  8
0
 62
9
  6
CONTINUOUS
 10
80.8484703352
 20
83.2297496421
  0
VERTEX
  8
0
 62
9
  6
CONTINUOUS
 10
81.0560477095
 20
83.2573992106
  0
VERTEX
  8
0
 62
9
  6
CONTINUOUS
 10
81.2755271647
 20
83.2846529494
  0
VERTEX
  8
0
 62
9
  6
CONTINUOUS
 10
81.5067305349
 20
83.3114779674
  0
SEQEND
  0
LINE
  8
0
 62
9
  6
CONTINUOUS
 10
74.5242648632
 20
83.2297496422
 11
74.4371649046
 21
83.2189975598
  0
LINE
  8
0
 62
9
  6
CONTINUOUS
 10
74.1010416881
 20
83.1325280441
 11
74.0138158896
 21
83.1217891593
  0
LINE
  8
0
 62
7
  6
CONTINUOUS
 10
57.929216374
 20
83.1293820678
 11
57.8861677301
 21
83.1242020876
  0
LINE
  8
0
 62
9
  6
CONTINUOUS
 10
59.5799375686
 20
83.3114779674
 11
59.5606687952
 21
83.3092309162
  0
LINE
  8
0
 62
9
  6
CONTINUOUS
 10
57.9631157179
 20
83.1325280409
 11
57.929216374
 21
83.1293820678
  0
LINE
  8
0
 62
7
  6
CONTINUOUS
 10
59.5605893982
 20
83.3099117568
 11
59.0758265768
 21
83.2542915333
  0
LINE
  8
0
 62
9
  6
CONTINUOUS
 10
59.1088364848
 20
83.2573597381
 11
59.0758265768
 21
83.2542915333
  0
LINE
  8
0
 62
7
  6
CONTINUOUS
 10
59.0758265768
 20
83.2542915333
 11
57.929216374
 21
83.1293820678
  0
LINE
  8
0
 62
7
  6
CONTINUOUS
 10
59.6141272016
 20
83.3154831864
 11
59.5605936626
 21
83.3099121501
  0
POLYLINE
  8
0
 62
9
  6
CONTINUOUS
 66
1
 70
0
  0
VERTEX
  8
0
 62
9
  6
CONTINUOUS
 10
62.731177318
 20
82.7316522931
  0
VERTEX
  8
0
 62
9
  6
CONTINUOUS
 10
63.3009134907
 20
82.7865530632
  0
VERTEX
  8
0
 62
9
  6
CONTINUOUS
 10
63.5925990296
 20
82.8133806183
  0
SEQEND
  0
LINE
  8
0
 62
9
  6
CONTINUOUS
 10
61.6746059982
 20
82.6344306919
 11
62.731177318
 21
82.7316522931
  0
LINE
  8
0
 62
9
  6
CONTINUOUS
 10
54.4326518145
 20
82.7316522931
 11
55.3157677771
 21
82.8133806183
  0
LINE
  8
0
 62
9
  6
CONTINUOUS
 10
61.4525694903
 20
83.1325280409
 11
62.8146379333
 21
83.2573992106
  0
LINE
  8
1_AXIS
 62
7
  6
CONTINUOUS
 10
55.2510737982
 20
83.3114779674
 11
52.9689633639
 21
83.1118191754
  0
LINE
  8
0
 62
9
  6
CONTINUOUS
 10
53.3059284899
 20
82.6344306919
 11
54.4326518145
 21
82.7316522931
  0
LINE
  8
0
 62
9
  6
CONTINUOUS
 10
59.6795501481
 20
83.3200357078
 11
59.5799375686
 21
83.3114779674
  0
LINE
  8
0
 62
7
  6
CONTINUOUS
 10
54.460194172
 20
83.2297496421
 11
55.4145511816
 21
83.3114779674
  0
LINE
  8
0
 62
9
  6
CONTINUOUS
 10
62.8146379333
 20
83.2573992106
 11
63.4403144308
 21
83.3114779674
  0
LINE
  8
0
 62
9
  6
CONTINUOUS
 10
59.5799375702
 20
83.3114779463
 11
59.5605936495
 21
83.3099122602
  0
LINE
  8
0
 62
9
  6
CONTINUOUS
 10
58.8579877193
 20
83.2297496422
 11
58.8433524335
 21
83.2287314124
  0
LINE
  8
0
 62
9
  6
CONTINUOUS
 10
57.9631157177
 20
83.1325280441
 11
57.9483469007
 21
83.1315057968
  0
POLYLINE
  8
0
 62
9
  6
CONTINUOUS
 66
1
 70
0
  0
VERTEX
  8
0
 62
9
  6
CONTINUOUS
 10
55.3157677771
 20
82.8133806183
  0
VERTEX
  8
0
 62
9
  6
CONTINUOUS
 10
55.4195128661
 20
82.82051208
  0
VERTEX
  8
0
 62
9
  6
CONTINUOUS
 10
55.5237790858
 20
82.8228938731
  0
SEQEND
  0
POLYLINE
  8
0
 62
9
  6
CONTINUOUS
 66
1
 70
0
  0
VERTEX
  8
0
 62
9
  6
CONTINUOUS
 10
63.4403144308
 20
83.3114779674
  0
VERTEX
  8
0
 62
9
  6
CONTINUOUS
 10
63.5724378159
 20
83.3200357078
  0
VERTEX
  8
0
 62
9
  6
CONTINUOUS
 10
63.7062531602
 20
83.3228938731
  0
SEQEND
  0
LINE
  8
0
 62
7
  6
CONTINUOUS
 10
55.4145511816
 20
83.3114779674
 11
55.5483440032
 21
83.3200357078
  0
POLYLINE
  8
0
 62
9
  6
CONTINUOUS
 66
1
 70
0
  0
VERTEX
  8
0
 62
9
  6
CONTINUOUS
 10
53.0767006638
 20
83.1118191572
  0
VERTEX
  8
0
 62
9
  6
CONTINUOUS
 10
53.0888597089
 20
83.1124851069
  0
VERTEX
  8
0
 62
9
  6
CONTINUOUS
 10
53.1157685432
 20
83.1144562181
  0
VERTEX
  8
0
 62
9
  6
CONTINUOUS
 10
53.1560510393
 20
83.1176343474
  0
VERTEX
  8
0
 62
9
  6
CONTINUOUS
 10
54.460194172
 20
83.2297496421
  0
SEQEND
  0
POLYLINE
  8
0
 62
7
  6
CONTINUOUS
 66
1
 70
0
  0
VERTEX
  8
0
 62
7
  6
CONTINUOUS
 10
142.216739786
 20
83.3149553124
  0
VERTEX
  8
0
 62
7
  6
CONTINUOUS
 10
142.0995486614
 20
83.3221176523
  0
VERTEX
  8
0
 62
7
  6
CONTINUOUS
 10
142.0464967281
 20
83.3228937726
  0
SEQEND
  0
LINE
  8
0
 62
7
  6
CONTINUOUS
 10
146.2767380497
 20
83.3200357078
 11
146.4105308712
 21
83.3114779674
  0
LINE
  8
0
 62
9
  6
CONTINUOUS
 10
143.8619663349
 20
83.132528041
 11
143.8767385117
 21
83.131505665
  0
LINE
  8
0
 62
9
  6
CONTINUOUS
 10
142.9670943313
 20
83.2297496134
 11
142.9817296313
 21
83.2287313953
  0
POLYLINE
  8
0
 62
9
  6
CONTINUOUS
 66
1
 70
0
  0
VERTEX
  8
0
 62
9
  6
CONTINUOUS
 10
148.7093340834
 20
83.1144546428
  0
VERTEX
  8
0
 62
9
  6
CONTINUOUS
 10
148.7362397099
 20
83.1124839327
  0
VERTEX
  8
0
 62
9
  6
CONTINUOUS
 10
148.7483813891
 20
83.1118191572
  0
SEQEND
  0
LINE
  8
0
 62
9
  6
CONTINUOUS
 10
142.2451444744
 20
83.3114778422
 11
142.2644889854
 21
83.3099120796
  0
LINE
  8
0
 62
9
  6
CONTINUOUS
 10
148.6174923328
 20
83.1218549393
 11
148.7093340834
 21
83.1144546428
  0
POLYLINE
  8
0
 62
9
  6
CONTINUOUS
 66
1
 70
0
  0
VERTEX
  8
0
 62
9
  6
CONTINUOUS
 10
140.3725125626
 20
83.1325280409
  0
VERTEX
  8
0
 62
9
  6
CONTINUOUS
 10
140.437940341
 20
83.1269110398
  0
VERTEX
  8
0
 62
9
  6
CONTINUOUS
 10
140.505901452
 20
83.1218549393
  0
VERTEX
  8
0
 62
9
  6
CONTINUOUS
 10
140.5727372997
 20
83.117631647
  0
VERTEX
  8
0
 62
9
  6
CONTINUOUS
 10
140.6350251757
 20
83.1144546428
  0
VERTEX
  8
0
 62
9
  6
CONTINUOUS
 10
140.6895691309
 20
83.1124839327
  0
VERTEX
  8
0
 62
9
  6
CONTINUOUS
 10
140.7334311805
 20
83.1118191572
  0
SEQEND
  0
LINE
  8
0
 62
9
  6
CONTINUOUS
 10
142.2451444843
 20
83.3114779674
 11
142.1455319047
 21
83.3200357078
  0
LINE
  8
0
 62
7
  6
CONTINUOUS
 10
146.4105308712
 20
83.3114779674
 11
147.3648878808
 21
83.2297496421
  0
LINE
  8
0
 62
9
  6
CONTINUOUS
 10
147.3924302384
 20
82.7316522931
 11
148.5191535629
 21
82.6344306919
  0
LINE
  8
0
 62
9
  6
CONTINUOUS
 10
147.3648878808
 20
83.2297496421
 11
148.6174923328
 21
83.1218549393
  0
LINE
  8
1_AXIS
 62
7
  6
CONTINUOUS
 10
146.5740082547
 20
83.3114779674
 11
148.8561153381
 21
83.1118194686
  0
LINE
  8
0
 62
9
  6
CONTINUOUS
 10
138.384767622
 20
83.3114779674
 11
139.0104756006
 21
83.2573964056
  0
LINE
  8
0
 62
9
  6
CONTINUOUS
 10
139.0939047348
 20
82.7316522931
 11
140.1504760547
 21
82.6344306919
  0
LINE
  8
0
 62
9
  6
CONTINUOUS
 10
139.0104756006
 20
83.2573964056
 11
140.3725125626
 21
83.1325280409
  0
LINE
  8
0
 62
9
  6
CONTINUOUS
 10
146.5093142757
 20
82.8133806183
 11
147.3924302384
 21
82.7316522931
  0
POLYLINE
  8
0
 62
9
  6
CONTINUOUS
 66
1
 70
0
  0
VERTEX
  8
0
 62
9
  6
CONTINUOUS
 10
138.2324830233
 20
82.8133806183
  0
VERTEX
  8
0
 62
9
  6
CONTINUOUS
 10
138.8113488128
 20
82.7593033359
  0
VERTEX
  8
0
 62
9
  6
CONTINUOUS
 10
139.0939047348
 20
82.7316522931
  0
SEQEND
  0
LINE
  8
0
 62
7
  6
CONTINUOUS
 10
142.2644889854
 20
83.3099120796
 11
142.216739786
 21
83.3149553124
  0
LINE
  8
0
 62
7
  6
CONTINUOUS
 10
143.8971310901
 20
83.1292381215
 11
142.7545676562
 21
83.2537000351
  0
POLYLINE
  8
0
 62
9
  6
CONTINUOUS
 66
1
 70
0
  0
VERTEX
  8
0
 62
9
  6
CONTINUOUS
 10
120.3183515179
 20
83.3114779674
  0
VERTEX
  8
0
 62
9
  6
CONTINUOUS
 10
120.5495758684
 20
83.2846504297
  0
VERTEX
  8
0
 62
9
  6
CONTINUOUS
 10
120.769056195
 20
83.2573964056
  0
VERTEX
  8
0
 62
9
  6
CONTINUOUS
 10
120.9766117176
 20
83.2297496421
  0
SEQEND
  0
LINE
  8
0
 62
9
  6
CONTINUOUS
 10
143.8971310901
 20
83.1292381215
 11
143.8619663349
 21
83.1325280409
  0
LINE
  8
0
 62
7
  6
CONTINUOUS
 10
142.7545676562
 20
83.2537000351
 11
142.2644925663
 21
83.3099117721
  0
LINE
  8
0
 62
9
  6
CONTINUOUS
 10
142.2644091398
 20
83.3092283273
 11
142.2451444843
 21
83.3114779674
  0
POLYLINE
  8
0
 62
9
  6
CONTINUOUS
 66
1
 70
0
  0
VERTEX
  8
0
 62
9
  6
CONTINUOUS
 10
121.6801291402
 20
83.1325280409
  0
VERTEX
  8
0
 62
9
  6
CONTINUOUS
 10
121.727823322
 20
83.1269110398
  0
VERTEX
  8
0
 62
9
  6
CONTINUOUS
 10
121.7853016195
 20
83.1218549393
  0
VERTEX
  8
0
 62
9
  6
CONTINUOUS
 10
121.8494925063
 20
83.117631647
  0
VERTEX
  8
0
 62
9
  6
CONTINUOUS
 10
121.9171087188
 20
83.1144546428
  0
VERTEX
  8
0
 62
9
  6
CONTINUOUS
 10
121.9846759941
 20
83.1124839327
  0
VERTEX
  8
0
 62
9
  6
CONTINUOUS
 10
122.0485056133
 20
83.1118191572
  0
SEQEND
  0
LINE
  8
0
 62
7
  6
CONTINUOUS
 10
143.9384730007
 20
83.1242586849
 11
143.8971310901
 21
83.1292381215
  0
LINE
  8
0
 62
9
  6
CONTINUOUS
 10
127.7240403646
 20
83.132528041
 11
127.8112233958
 21
83.1218000602
  0
LINE
  8
0
 62
9
  6
CONTINUOUS
 10
127.3008171886
 20
83.2297496224
 11
127.3879142035
 21
83.2189982513
  0
LINE
  8
0
 62
9
  6
CONTINUOUS
 10
120.9766117176
 20
83.2297496421
 11
121.6801291402
 21
83.1325280409
  0
LINE
  8
0
 62
7
  6
CONTINUOUS
 10
127.0859843504
 20
83.3030743959
 11
126.9683209147
 21
83.3216417877
  0
POLYLINE
  8
0
 62
9
  6
CONTINUOUS
 66
1
 70
0
  0
VERTEX
  8
0
 62
9
  6
CONTINUOUS
 10
127.0047203735
 20
83.3114778422
  0
VERTEX
  8
0
 62
9
  6
CONTINUOUS
 10
127.127125005
 20
83.291165549
  0
VERTEX
  8
0
 62
9
  6
CONTINUOUS
 10
127.1444468482
 20
83.2855008409
  0
SEQEND
  0
POLYLINE
  8
0
 62
9
  6
CONTINUOUS
 66
1
 70
0
  0
VERTEX
  8
0
 62
9
  6
CONTINUOUS
 10
116.7476825628
 20
83.3228938731
  0
VERTEX
  8
0
 62
9
  6
CONTINUOUS
 10
116.7951899461
 20
83.3058565684
  0
VERTEX
  8
0
 62
9
  6
CONTINUOUS
 10
116.8394596171
 20
83.255905924
  0
VERTEX
  8
0
 62
9
  6
CONTINUOUS
 10
116.8774746917
 20
83.1764462846
  0
VERTEX
  8
0
 62
9
  6
CONTINUOUS
 10
116.9066445749
 20
83.0728928912
  0
VERTEX
  8
0
 62
9
  6
CONTINUOUS
 10
116.9249814773
 20
82.9523027836
  0
VERTEX
  8
0
 62
9
  6
CONTINUOUS
 10
116.9312358434
 20
82.8228938731
  0
SEQEND
  0
POLYLINE
  8
0
 62
9
  6
CONTINUOUS
 66
1
 70
0
  0
VERTEX
  8
0
 62
9
  6
CONTINUOUS
 10
140.3725125626
 20
73.5132597052
  0
VERTEX
  8
0
 62
9
  6
CONTINUOUS
 10
140.3235534198
 20
73.5322104508
  0
VERTEX
  8
0
 62
9
  6
CONTINUOUS
 10
140.275453712
 20
73.5830476953
  0
VERTEX
  8
0
 62
9
  6
CONTINUOUS
 10
140.2314144036
 20
73.662388295
  0
VERTEX
  8
0
 62
9
  6
CONTINUOUS
 10
140.1943662455
 20
73.7649522504
  0
VERTEX
  8
0
 62
9
  6
CONTINUOUS
 10
140.1667747379
 20
73.8839140815
  0
VERTEX
  8
0
 62
9
  6
CONTINUOUS
 10
140.1504760547
 20
74.0113570543
  0
SEQEND
  0
POLYLINE
  8
0
 62
9
  6
CONTINUOUS
 66
1
 70
0
  0
VERTEX
  8
0
 62
9
  6
CONTINUOUS
 10
139.3158125993
 20
73.4160381397
  0
VERTEX
  8
0
 62
9
  6
CONTINUOUS
 10
139.2668679199
 20
73.435035439
  0
VERTEX
  8
0
 62
9
  6
CONTINUOUS
 10
139.2187897721
 20
73.4858979735
  0
VERTEX
  8
0
 62
9
  6
CONTINUOUS
 10
139.1747758627
 20
73.565242845
  0
VERTEX
  8
0
 62
9
  6
CONTINUOUS
 10
139.137753584
 20
73.6677927773
  0
VERTEX
  8
0
 62
9
  6
CONTINUOUS
 10
139.1101853103
 20
73.7867271118
  0
VERTEX
  8
0
 62
9
  6
CONTINUOUS
 10
139.0939046244
 20
73.9141354531
  0
SEQEND
  0
POLYLINE
  8
0
 62
9
  6
CONTINUOUS
 66
1
 70
0
  0
VERTEX
  8
0
 62
9
  6
CONTINUOUS
 10
107.2605394514
 20
83.3228938731
  0
VERTEX
  8
0
 62
9
  6
CONTINUOUS
 10
107.2795841082
 20
83.3058567936
  0
VERTEX
  8
0
 62
9
  6
CONTINUOUS
 10
107.2973309055
 20
83.2559065963
  0
VERTEX
  8
0
 62
9
  6
CONTINUOUS
 10
107.3125704279
 20
83.176447295
  0
VERTEX
  8
0
 62
9
  6
CONTINUOUS
 10
107.324264126
 20
83.072893904
  0
VERTEX
  8
0
 62
9
  6
CONTINUOUS
 10
107.3316150925
 20
82.9523034147
  0
VERTEX
  8
0
 62
9
  6
CONTINUOUS
 10
107.3341223704
 20
82.8228938731
  0
SEQEND
  0
POLYLINE
  8
0
 62
9
  6
CONTINUOUS
 66
1
 70
0
  0
VERTEX
  8
0
 62
9
  6
CONTINUOUS
 10
122.0485056133
 20
73.533968589
  0
VERTEX
  8
0
 62
9
  6
CONTINUOUS
 10
122.1016632257
 20
73.5597817812
  0
VERTEX
  8
0
 62
9
  6
CONTINUOUS
 10
122.1504193179
 20
73.6143210004
  0
VERTEX
  8
0
 62
9
  6
CONTINUOUS
 10
122.1918083073
 20
73.6942693049
  0
VERTEX
  8
0
 62
9
  6
CONTINUOUS
 10
122.2233126426
 20
73.7947641771
  0
VERTEX
  8
0
 62
9
  6
CONTINUOUS
 10
122.2430159587
 20
73.9096932243
  0
VERTEX
  8
0
 62
9
  6
CONTINUOUS
 10
122.249719674
 20
74.032065938
  0
SEQEND
  0
LINE
  8
0
 62
7
  6
CONTINUOUS
 10
127.1444279526
 20
73.3602801762
 11
127.1449395785
 21
73.3604588566
  0
POLYLINE
  8
0
 62
7
  6
CONTINUOUS
 66
1
 70
0
  0
VERTEX
  8
0
 62
7
  6
CONTINUOUS
 10
127.1449395785
 20
73.3604588566
  0
VERTEX
  8
0
 62
7
  6
CONTINUOUS
 10
127.1915535522
 20
73.3756211548
  0
VERTEX
  8
0
 62
7
  6
CONTINUOUS
 10
127.2841767557
 20
73.4015501153
  0
SEQEND
  0
LINE
  8
0
 62
9
  6
CONTINUOUS
 10
127.0047203797
 20
73.3343097788
 11
127.0883238231
 21
73.3611345561
  0
POLYLINE
  8
0
 62
9
  6
CONTINUOUS
 66
1
 70
0
  0
VERTEX
  8
0
 62
9
  6
CONTINUOUS
 10
127.7240403646
 20
73.5132597052
  0
VERTEX
  8
0
 62
9
  6
CONTINUOUS
 10
127.7419660427
 20
73.518871387
  0
VERTEX
  8
0
 62
9
  6
CONTINUOUS
 10
127.7447360634
 20
73.5239286228
  0
VERTEX
  8
0
 62
9
  6
CONTINUOUS
 10
127.7321276308
 20
73.5281533988
  0
VERTEX
  8
0
 62
9
  6
CONTINUOUS
 10
127.70478737
 20
73.5313315281
  0
VERTEX
  8
0
 62
9
  6
CONTINUOUS
 10
127.6641454783
 20
73.5333026393
  0
VERTEX
  8
0
 62
9
  6
CONTINUOUS
 10
127.6124168022
 20
73.533968589
  0
SEQEND
  0
LINE
  8
0
 62
7
  6
CONTINUOUS
 10
127.0805698239
 20
73.3413693056
 11
127.1444279085
 21
73.3602803029
  0
LINE
  8
0
 62
9
  6
CONTINUOUS
 10
74.7451017809
 20
83.287144949
 11
74.6477437877
 21
83.2599255657
  0
LINE
  8
0
 62
9
  6
CONTINUOUS
 10
74.6477437877
 20
83.2599255657
 11
74.5242648632
 21
83.2297496421
  0
LINE
  8
0
 62
7
  6
CONTINUOUS
 10
74.5409047736
 20
83.2442374947
 11
74.4371648961
 21
83.2189975971
  0
POLYLINE
  8
0
 62
7
  6
CONTINUOUS
 66
1
 70
0
  0
VERTEX
  8
0
 62
7
  6
CONTINUOUS
 10
74.0138158896
 20
83.1217891593
  0
VERTEX
  8
0
 62
7
  6
CONTINUOUS
 10
74.0068806527
 20
83.1201622907
  0
VERTEX
  8
0
 62
7
  6
CONTINUOUS
 10
73.952769824
 20
83.1046462889
  0
VERTEX
  8
0
 62
7
  6
CONTINUOUS
 10
73.8916422864
 20
83.079789564
  0
VERTEX
  8
0
 62
7
  6
CONTINUOUS
 10
73.8301417332
 20
83.0449100471
  0
VERTEX
  8
0
 62
7
  6
CONTINUOUS
 10
73.7709978903
 20
82.9991924033
  0
VERTEX
  8
0
 62
7
  6
CONTINUOUS
 10
73.7170113021
 20
82.9425642632
  0
VERTEX
  8
0
 62
7
  6
CONTINUOUS
 10
73.6709506696
 20
82.8756878994
  0
VERTEX
  8
0
 62
7
  6
CONTINUOUS
 10
73.6352728994
 20
82.7996272865
  0
VERTEX
  8
0
 62
7
  6
CONTINUOUS
 10
73.6122893876
 20
82.7160630684
  0
VERTEX
  8
0
 62
7
  6
CONTINUOUS
 10
73.604009761
 20
82.6253036606
  0
SEQEND
  0
LINE
  8
0
 62
9
  6
CONTINUOUS
 10
74.5242648632
 20
83.2297496421
 11
74.1010416882
 21
83.1325280409
  0
LINE
  8
0
 62
7
  6
CONTINUOUS
 10
74.4371108918
 20
83.2189851686
 11
74.0135760873
 21
83.1217352416
  0
POLYLINE
  8
0
 62
9
  6
CONTINUOUS
 66
1
 70
0
  0
VERTEX
  8
0
 62
9
  6
CONTINUOUS
 10
74.0823436916
 20
83.3228938731
  0
VERTEX
  8
0
 62
9
  6
CONTINUOUS
 10
74.0018497808
 20
83.3058565684
  0
VERTEX
  8
0
 62
9
  6
CONTINUOUS
 10
73.9268416726
 20
83.255905924
  0
VERTEX
  8
0
 62
9
  6
CONTINUOUS
 10
73.8624310102
 20
83.1764462846
  0
VERTEX
  8
0
 62
9
  6
CONTINUOUS
 10
73.8130071562
 20
83.0728928912
  0
VERTEX
  8
0
 62
9
  6
CONTINUOUS
 10
73.7997436966
 20
83.0214126458
  0
SEQEND
  0
POLYLINE
  8
0
 62
7
  6
CONTINUOUS
 66
1
 70
0
  0
VERTEX
  8
0
 62
7
  6
CONTINUOUS
 10
57.8158136977
 20
83.1135800649
  0
VERTEX
  8
0
 62
7
  6
CONTINUOUS
 10
57.7786596384
 20
83.1057641766
  0
VERTEX
  8
0
 62
7
  6
CONTINUOUS
 10
57.7342239731
 20
83.0931350983
  0
VERTEX
  8
0
 62
7
  6
CONTINUOUS
 10
57.6853600793
 20
83.0742170589
  0
VERTEX
  8
0
 62
7
  6
CONTINUOUS
 10
57.6348502387
 20
83.0481717316
  0
VERTEX
  8
0
 62
7
  6
CONTINUOUS
 10
57.5851415767
 20
83.0147715495
  0
VERTEX
  8
0
 62
7
  6
CONTINUOUS
 10
57.5374836563
 20
82.9734784778
  0
VERTEX
  8
0
 62
7
  6
CONTINUOUS
 10
57.4936474201
 20
82.9243221454
  0
VERTEX
  8
0
 62
7
  6
CONTINUOUS
 10
57.4554045307
 20
82.8677309436
  0
VERTEX
  8
0
 62
7
  6
CONTINUOUS
 10
57.424415776
 20
82.8044974899
  0
VERTEX
  8
0
 62
7
  6
CONTINUOUS
 10
57.4021716984
 20
82.735786752
  0
VERTEX
  8
0
 62
7
  6
CONTINUOUS
 10
57.3899062909
 20
82.6631042328
  0
VERTEX
  8
0
 62
7
  6
CONTINUOUS
 10
57.3877216329
 20
82.6163933703
  0
SEQEND
  0
POLYLINE
  8
0
 62
9
  6
CONTINUOUS
 66
1
 70
0
  0
VERTEX
  8
0
 62
9
  6
CONTINUOUS
 10
57.8785020167
 20
83.1218549393
  0
VERTEX
  8
0
 62
9
  6
CONTINUOUS
 10
57.8560121986
 20
83.117631647
  0
VERTEX
  8
0
 62
9
  6
CONTINUOUS
 10
57.8485511621
 20
83.1144546428
  0
VERTEX
  8
0
 62
9
  6
CONTINUOUS
 10
57.8564932053
 20
83.1124839327
  0
VERTEX
  8
0
 62
9
  6
CONTINUOUS
 10
57.8793252496
 20
83.1118191572
  0
SEQEND
  0
POLYLINE
  8
0
 62
9
  6
CONTINUOUS
 66
1
 70
0
  0
VERTEX
  8
0
 62
9
  6
CONTINUOUS
 10
67.1372729154
 20
83.3228938731
  0
VERTEX
  8
0
 62
9
  6
CONTINUOUS
 10
67.0359435913
 20
83.3058567936
  0
VERTEX
  8
0
 62
9
  6
CONTINUOUS
 10
66.9415196807
 20
83.2559065963
  0
VERTEX
  8
0
 62
9
  6
CONTINUOUS
 10
66.8604360196
 20
83.176447295
  0
VERTEX
  8
0
 62
9
  6
CONTINUOUS
 10
66.7982183309
 20
83.072893904
  0
VERTEX
  8
0
 62
9
  6
CONTINUOUS
 10
66.7591066535
 20
82.9523034147
  0
VERTEX
  8
0
 62
9
  6
CONTINUOUS
 10
66.745766388
 20
82.8228938731
  0
SEQEND
  0
LINE
  8
0
 62
9
  6
CONTINUOUS
 10
57.9148689072
 20
83.1269110398
 11
57.8861677301
 21
83.1242020876
  0
POLYLINE
  8
0
 62
7
  6
CONTINUOUS
 66
1
 70
0
  0
VERTEX
  8
0
 62
7
  6
CONTINUOUS
 10
57.8861677301
 20
83.1242020876
  0
VERTEX
  8
0
 62
7
  6
CONTINUOUS
 10
57.8497470775
 20
83.1191765685
  0
VERTEX
  8
0
 62
7
  6
CONTINUOUS
 10
57.8158136977
 20
83.1135800649
  0
SEQEND
  0
POLYLINE
  8
0
 62
9
  6
CONTINUOUS
 66
1
 70
0
  0
VERTEX
  8
0
 62
9
  6
CONTINUOUS
 10
58.2472021552
 20
83.3228938731
  0
VERTEX
  8
0
 62
9
  6
CONTINUOUS
 10
58.1192016924
 20
83.3058567936
  0
VERTEX
  8
0
 62
9
  6
CONTINUOUS
 10
57.9999242338
 20
83.2559065963
  0
SEQEND
  0
LINE
  8
1_AXIS
 62
9
  6
CONTINUOUS
 10
65.9125410264
 20
88.8228938731
 11
135.9125410264
 21
88.8228938731
  0
LINE
  8
1_AXIS
 62
7
  6
CONTINUOUS
 10
133.9125410264
 20
90.8228938731
 11
67.9126474427
 21
90.8228938731
  0
POLYLINE
  8
0
 62
9
  6
CONTINUOUS
 66
1
 70
0
  0
VERTEX
  8
0
 62
9
  6
CONTINUOUS
 10
143.5778798977
 20
83.3228938731
  0
VERTEX
  8
0
 62
9
  6
CONTINUOUS
 10
143.7058811917
 20
83.3058565684
  0
VERTEX
  8
0
 62
9
  6
CONTINUOUS
 10
143.8251589709
 20
83.255905924
  0
SEQEND
  0
LINE
  8
0
 62
9
  6
CONTINUOUS
 10
143.9384730007
 20
83.1242586849
 11
143.9101710343
 21
83.1269163592
  0
POLYLINE
  8
0
 62
9
  6
CONTINUOUS
 66
1
 70
0
  0
VERTEX
  8
0
 62
9
  6
CONTINUOUS
 10
134.6878091375
 20
83.3228938731
  0
VERTEX
  8
0
 62
9
  6
CONTINUOUS
 10
134.7891391196
 20
83.3058565684
  0
VERTEX
  8
0
 62
9
  6
CONTINUOUS
 10
134.883563284
 20
83.255905924
  0
VERTEX
  8
0
 62
9
  6
CONTINUOUS
 10
134.9646468244
 20
83.1764462846
  0
VERTEX
  8
0
 62
9
  6
CONTINUOUS
 10
135.0268641797
 20
83.0728928912
  0
VERTEX
  8
0
 62
9
  6
CONTINUOUS
 10
135.0659755317
 20
82.9523027836
  0
VERTEX
  8
0
 62
9
  6
CONTINUOUS
 10
135.0793156646
 20
82.8228938731
  0
SEQEND
  0
POLYLINE
  8
0
 62
9
  6
CONTINUOUS
 66
1
 70
0
  0
VERTEX
  8
0
 62
9
  6
CONTINUOUS
 10
127.7427383612
 20
83.3228938731
  0
VERTEX
  8
0
 62
9
  6
CONTINUOUS
 10
127.8232317492
 20
83.3058567936
  0
VERTEX
  8
0
 62
9
  6
CONTINUOUS
 10
127.8982396558
 20
83.2559065963
  0
VERTEX
  8
0
 62
9
  6
CONTINUOUS
 10
127.9626504141
 20
83.176447295
  0
VERTEX
  8
0
 62
9
  6
CONTINUOUS
 10
128.0120745329
 20
83.072893904
  0
VERTEX
  8
0
 62
9
  6
CONTINUOUS
 10
128.0253333891
 20
83.0214317911
  0
SEQEND
  0
POLYLINE
  8
0
 62
9
  6
CONTINUOUS
 66
1
 70
0
  0
VERTEX
  8
0
 62
9
  6
CONTINUOUS
 10
127.0047203797
 20
83.3114779674
  0
VERTEX
  8
0
 62
9
  6
CONTINUOUS
 10
126.9659791524
 20
83.3200357078
  0
VERTEX
  8
0
 62
9
  6
CONTINUOUS
 10
126.9289232349
 20
83.3228938731
  0
SEQEND
  0
LINE
  8
0
 62
9
  6
CONTINUOUS
 10
127.7240403646
 20
83.1325280409
 11
127.3008171896
 21
83.2297496421
  0
LINE
  8
0
 62
7
  6
CONTINUOUS
 10
127.8115059663
 20
83.1217352414
 11
127.3879711608
 21
83.2189851687
  0
LINE
  8
0
 62
9
  6
CONTINUOUS
 10
127.3008171896
 20
83.2297496421
 11
127.1870582115
 21
83.2573992106
  0
LINE
  8
0
 62
7
  6
CONTINUOUS
 10
127.3879142035
 20
83.2189982513
 11
127.2861334024
 21
83.2437308304
  0
LINE
  8
0
 62
9
  6
CONTINUOUS
 10
127.1870582115
 20
83.2573992106
 11
127.0883246376
 21
83.2846529494
  0
POLYLINE
  8
0
 62
7
  6
CONTINUOUS
 66
1
 70
0
  0
VERTEX
  8
0
 62
7
  6
CONTINUOUS
 10
127.2861334024
 20
83.2437308304
  0
VERTEX
  8
0
 62
7
  6
CONTINUOUS
 10
127.1930080297
 20
83.2697229059
  0
VERTEX
  8
0
 62
7
  6
CONTINUOUS
 10
127.1449326203
 20
83.285331322
  0
SEQEND
  0
LINE
  8
0
 62
7
  6
CONTINUOUS
 10
127.1444468482
 20
83.2855008409
 11
127.0859843504
 21
83.3030743959
  0
LINE
  8
0
 62
9
  6
CONTINUOUS
 10
127.0883246376
 20
83.2846529494
 11
127.0047203797
 21
83.3114779674
  0
LINE
  8
0
 62
7
  6
CONTINUOUS
 10
127.1444468482
 20
83.2855008409
 11
127.1449325768
 21
83.2853311975
  0
POLYLINE
  8
0
 62
9
  6
CONTINUOUS
 66
1
 70
0
  0
VERTEX
  8
0
 62
9
  6
CONTINUOUS
 10
122.0485056133
 20
83.1118191572
  0
VERTEX
  8
0
 62
9
  6
CONTINUOUS
 10
122.101663702
 20
83.0860055897
  0
VERTEX
  8
0
 62
9
  6
CONTINUOUS
 10
122.1504199882
 20
83.0314657462
  0
VERTEX
  8
0
 62
9
  6
CONTINUOUS
 10
122.1918089072
 20
82.9515169569
  0
VERTEX
  8
0
 62
9
  6
CONTINUOUS
 10
122.223313007
 20
82.8510220361
  0
VERTEX
  8
0
 62
9
  6
CONTINUOUS
 10
122.2430160713
 20
82.7360935064
  0
VERTEX
  8
0
 62
9
  6
CONTINUOUS
 10
122.2497196732
 20
82.6137218081
  0
SEQEND
  0
POLYLINE
  8
0
 62
9
  6
CONTINUOUS
 66
1
 70
0
  0
VERTEX
  8
0
 62
9
  6
CONTINUOUS
 10
128.2210775886
 20
74.0204942444
  0
VERTEX
  8
0
 62
9
  6
CONTINUOUS
 10
128.2189599331
 20
74.0220321731
  0
VERTEX
  8
0
 62
9
  6
CONTINUOUS
 10
128.1854192933
 20
74.0262520049
  0
VERTEX
  8
0
 62
9
  6
CONTINUOUS
 10
128.1127001885
 20
74.0294263612
  0
VERTEX
  8
0
 62
9
  6
CONTINUOUS
 10
128.0045862376
 20
74.0313977624
  0
VERTEX
  8
0
 62
9
  6
CONTINUOUS
 10
127.8665992115
 20
74.032065938
  0
SEQEND
  0
LINE
  8
0
 62
9
  6
CONTINUOUS
 10
116.9312358436
 20
73.8228938731
 11
116.9312358436
 21
82.8228938731
  0
POLYLINE
  8
0
 62
9
  6
CONTINUOUS
 66
1
 70
0
  0
VERTEX
  8
0
 62
9
  6
CONTINUOUS
 10
138.1188288926
 20
83.3228938731
  0
VERTEX
  8
0
 62
9
  6
CONTINUOUS
 10
138.0931165316
 20
83.3058567816
  0
VERTEX
  8
0
 62
9
  6
CONTINUOUS
 10
138.0691564258
 20
83.2559065603
  0
VERTEX
  8
0
 62
9
  6
CONTINUOUS
 10
138.0485814169
 20
83.1764472401
  0
VERTEX
  8
0
 62
9
  6
CONTINUOUS
 10
138.0327936571
 20
83.0728938474
  0
VERTEX
  8
0
 62
9
  6
CONTINUOUS
 10
138.0228690552
 20
82.952303378
  0
VERTEX
  8
0
 62
9
  6
CONTINUOUS
 10
138.0194839552
 20
82.8228938731
  0
SEQEND
  0
POLYLINE
  8
0
 62
9
  6
CONTINUOUS
 66
1
 70
0
  0
VERTEX
  8
0
 62
9
  6
CONTINUOUS
 10
138.3847676205
 20
83.3114779464
  0
VERTEX
  8
0
 62
9
  6
CONTINUOUS
 10
138.3537324844
 20
83.2911656742
  0
VERTEX
  8
0
 62
9
  6
CONTINUOUS
 10
138.3223880238
 20
83.2395896867
  0
VERTEX
  8
0
 62
9
  6
CONTINUOUS
 10
138.2927852536
 20
83.1601248424
  0
VERTEX
  8
0
 62
9
  6
CONTINUOUS
 10
138.2668612219
 20
83.0579708984
  0
VERTEX
  8
0
 62
9
  6
CONTINUOUS
 10
138.2463122594
 20
82.9398122661
  0
VERTEX
  8
0
 62
9
  6
CONTINUOUS
 10
138.2324829812
 20
82.8133806183
  0
SEQEND
  0
POLYLINE
  8
0
 62
9
  6
CONTINUOUS
 66
1
 70
0
  0
VERTEX
  8
0
 62
9
  6
CONTINUOUS
 10
127.6124168022
 20
73.533968589
  0
VERTEX
  8
0
 62
9
  6
CONTINUOUS
 10
127.6795683862
 20
73.559782131
  0
VERTEX
  8
0
 62
9
  6
CONTINUOUS
 10
127.7411594478
 20
73.6143219357
  0
VERTEX
  8
0
 62
9
  6
CONTINUOUS
 10
127.7934437508
 20
73.6942706994
  0
VERTEX
  8
0
 62
9
  6
CONTINUOUS
 10
127.8332411287
 20
73.7947656234
  0
VERTEX
  8
0
 62
9
  6
CONTINUOUS
 10
127.8581309206
 20
73.9096941869
  0
VERTEX
  8
0
 62
9
  6
CONTINUOUS
 10
127.8665992115
 20
74.032065938
  0
SEQEND
  0
POLYLINE
  8
0
 62
9
  6
CONTINUOUS
 66
1
 70
0
  0
VERTEX
  8
0
 62
9
  6
CONTINUOUS
 10
61.0916508723
 20
83.1118191572
  0
VERTEX
  8
0
 62
9
  6
CONTINUOUS
 10
60.9915001223
 20
83.08600598
  0
VERTEX
  8
0
 62
9
  6
CONTINUOUS
 10
60.8996419702
 20
83.031466787
  0
VERTEX
  8
0
 62
9
  6
CONTINUOUS
 10
60.8216636754
 20
82.9515185046
  0
VERTEX
  8
0
 62
9
  6
CONTINUOUS
 10
60.7623083983
 20
82.8510236367
  0
VERTEX
  8
0
 62
9
  6
CONTINUOUS
 10
60.7251866484
 20
82.7360945683
  0
VERTEX
  8
0
 62
9
  6
CONTINUOUS
 10
60.712556607
 20
82.6137218081
  0
SEQEND
  0
POLYLINE
  8
0
 62
9
  6
CONTINUOUS
 66
1
 70
0
  0
VERTEX
  8
0
 62
9
  6
CONTINUOUS
 10
57.0970416229
 20
83.3228938731
  0
VERTEX
  8
0
 62
9
  6
CONTINUOUS
 10
57.028577393
 20
83.3058565684
  0
VERTEX
  8
0
 62
9
  6
CONTINUOUS
 10
56.9647791216
 20
83.255905924
  0
VERTEX
  8
0
 62
9
  6
CONTINUOUS
 10
56.9099945253
 20
83.1764462846
  0
VERTEX
  8
0
 62
9
  6
CONTINUOUS
 10
56.8679569839
 20
83.0728928912
  0
VERTEX
  8
0
 62
9
  6
CONTINUOUS
 10
56.8415311567
 20
82.9523027836
  0
VERTEX
  8
0
 62
9
  6
CONTINUOUS
 10
56.8325178132
 20
82.8228938731
  0
SEQEND
  0
POLYLINE
  8
0
 62
9
  6
CONTINUOUS
 66
1
 70
0
  0
VERTEX
  8
0
 62
9
  6
CONTINUOUS
 10
57.8793252497
 20
83.1118191572
  0
VERTEX
  8
0
 62
9
  6
CONTINUOUS
 10
57.7710949264
 20
83.0860057953
  0
VERTEX
  8
0
 62
9
  6
CONTINUOUS
 10
57.6718263988
 20
83.0314662634
  0
VERTEX
  8
0
 62
9
  6
CONTINUOUS
 10
57.5875576797
 20
82.951517678
  0
VERTEX
  8
0
 62
9
  6
CONTINUOUS
 10
57.5234144912
 20
82.8510227293
  0
VERTEX
  8
0
 62
9
  6
CONTINUOUS
 10
57.4832984475
 20
82.736093929
  0
VERTEX
  8
0
 62
9
  6
CONTINUOUS
 10
57.4696496931
 20
82.6137218081
  0
SEQEND
  0
POLYLINE
  8
0
 62
9
  6
CONTINUOUS
 66
1
 70
0
  0
VERTEX
  8
0
 62
9
  6
CONTINUOUS
 10
53.0767006638
 20
83.1118191572
  0
VERTEX
  8
0
 62
9
  6
CONTINUOUS
 10
52.9563920706
 20
83.08600598
  0
VERTEX
  8
0
 62
9
  6
CONTINUOUS
 10
52.8460451678
 20
83.031466787
  0
VERTEX
  8
0
 62
9
  6
CONTINUOUS
 10
52.7523717906
 20
82.9515185046
  0
VERTEX
  8
0
 62
9
  6
CONTINUOUS
 10
52.6810697792
 20
82.8510236367
  0
VERTEX
  8
0
 62
9
  6
CONTINUOUS
 10
52.6364763481
 20
82.7360945683
  0
VERTEX
  8
0
 62
9
  6
CONTINUOUS
 10
52.6213041946
 20
82.6137218081
  0
SEQEND
  0
POLYLINE
  8
0
 62
9
  6
CONTINUOUS
 66
1
 70
0
  0
VERTEX
  8
0
 62
9
  6
CONTINUOUS
 10
148.7483813891
 20
83.1118191572
  0
VERTEX
  8
0
 62
9
  6
CONTINUOUS
 10
148.8686910758
 20
83.086005599
  0
VERTEX
  8
0
 62
9
  6
CONTINUOUS
 10
148.9790384281
 20
83.0314657698
  0
VERTEX
  8
0
 62
9
  6
CONTINUOUS
 10
149.072711647
 20
82.9515169899
  0
VERTEX
  8
0
 62
9
  6
CONTINUOUS
 10
149.1440131176
 20
82.851022068
  0
VERTEX
  8
0
 62
9
  6
CONTINUOUS
 10
149.1886059674
 20
82.7360935258
  0
VERTEX
  8
0
 62
9
  6
CONTINUOUS
 10
149.2037778583
 20
82.6137218081
  0
SEQEND
  0
POLYLINE
  8
0
 62
9
  6
CONTINUOUS
 66
1
 70
0
  0
VERTEX
  8
0
 62
9
  6
CONTINUOUS
 10
143.9457568032
 20
83.1118191572
  0
VERTEX
  8
0
 62
9
  6
CONTINUOUS
 10
144.0539866491
 20
83.08600598
  0
VERTEX
  8
0
 62
9
  6
CONTINUOUS
 10
144.1532549391
 20
83.031466787
  0
VERTEX
  8
0
 62
9
  6
CONTINUOUS
 10
144.2375236929
 20
82.9515185046
  0
VERTEX
  8
0
 62
9
  6
CONTINUOUS
 10
144.3016671224
 20
82.8510236367
  0
VERTEX
  8
0
 62
9
  6
CONTINUOUS
 10
144.3417834608
 20
82.7360945683
  0
VERTEX
  8
0
 62
9
  6
CONTINUOUS
 10
144.3554323601
 20
82.6137218081
  0
SEQEND
  0
POLYLINE
  8
0
 62
9
  6
CONTINUOUS
 66
1
 70
0
  0
VERTEX
  8
0
 62
9
  6
CONTINUOUS
 10
144.7280404299
 20
83.3228938731
  0
VERTEX
  8
0
 62
9
  6
CONTINUOUS
 10
144.7965042799
 20
83.3058567608
  0
VERTEX
  8
0
 62
9
  6
CONTINUOUS
 10
144.8603024031
 20
83.2559065003
  0
VERTEX
  8
0
 62
9
  6
CONTINUOUS
 10
144.9150870679
 20
83.176447153
  0
VERTEX
  8
0
 62
9
  6
CONTINUOUS
 10
144.9571248024
 20
83.0728937633
  0
VERTEX
  8
0
 62
9
  6
CONTINUOUS
 10
144.9835508188
 20
82.9523033277
  0
VERTEX
  8
0
 62
9
  6
CONTINUOUS
 10
144.9925642394
 20
82.8228938731
  0
SEQEND
  0
POLYLINE
  8
0
 62
9
  6
CONTINUOUS
 66
1
 70
0
  0
VERTEX
  8
0
 62
9
  6
CONTINUOUS
 10
140.7334311805
 20
83.1118191572
  0
VERTEX
  8
0
 62
9
  6
CONTINUOUS
 10
140.8335823821
 20
83.0860057908
  0
VERTEX
  8
0
 62
9
  6
CONTINUOUS
 10
140.9254407574
 20
83.0314662523
  0
VERTEX
  8
0
 62
9
  6
CONTINUOUS
 10
141.003419018
 20
82.9515176624
  0
VERTEX
  8
0
 62
9
  6
CONTINUOUS
 10
141.0627740675
 20
82.8510227144
  0
VERTEX
  8
0
 62
9
  6
CONTINUOUS
 10
141.0998955407
 20
82.7360939199
  0
VERTEX
  8
0
 62
9
  6
CONTINUOUS
 10
141.1125254462
 20
82.6137218081
  0
SEQEND
  0
POLYLINE
  8
0
 62
9
  6
CONTINUOUS
 66
1
 70
0
  0
VERTEX
  8
0
 62
9
  6
CONTINUOUS
 10
127.6124168022
 20
83.1118191572
  0
VERTEX
  8
0
 62
9
  6
CONTINUOUS
 10
127.6795678011
 20
83.08600598
  0
VERTEX
  8
0
 62
9
  6
CONTINUOUS
 10
127.7411586201
 20
83.031466787
  0
VERTEX
  8
0
 62
9
  6
CONTINUOUS
 10
127.793443006
 20
82.9515185046
  0
VERTEX
  8
0
 62
9
  6
CONTINUOUS
 10
127.8332406734
 20
82.8510236367
  0
VERTEX
  8
0
 62
9
  6
CONTINUOUS
 10
127.8581307786
 20
82.7360945683
  0
VERTEX
  8
0
 62
9
  6
CONTINUOUS
 10
127.8665992121
 20
82.6137218081
  0
SEQEND
  0
POLYLINE
  8
0
 62
9
  6
CONTINUOUS
 66
1
 70
0
  0
VERTEX
  8
0
 62
9
  6
CONTINUOUS
 10
138.384767613
 20
73.3343099046
  0
VERTEX
  8
0
 62
9
  6
CONTINUOUS
 10
138.353732488
 20
73.3546221977
  0
VERTEX
  8
0
 62
9
  6
CONTINUOUS
 10
138.3223880383
 20
73.4061981864
  0
VERTEX
  8
0
 62
9
  6
CONTINUOUS
 10
138.2927852772
 20
73.4856630139
  0
VERTEX
  8
0
 62
9
  6
CONTINUOUS
 10
138.2668612513
 20
73.5878169271
  0
VERTEX
  8
0
 62
9
  6
CONTINUOUS
 10
138.2463122903
 20
73.7059755205
  0
VERTEX
  8
0
 62
9
  6
CONTINUOUS
 10
138.2324830086
 20
73.8324071279
  0
SEQEND
  0
POLYLINE
  8
0
 62
9
  6
CONTINUOUS
 66
1
 70
0
  0
VERTEX
  8
0
 62
9
  6
CONTINUOUS
 10
138.1188288926
 20
73.3228938731
  0
VERTEX
  8
0
 62
9
  6
CONTINUOUS
 10
138.093116508
 20
73.3399309907
  0
VERTEX
  8
0
 62
9
  6
CONTINUOUS
 10
138.0691563926
 20
73.3898812624
  0
VERTEX
  8
0
 62
9
  6
CONTINUOUS
 10
138.0485813866
 20
73.4693406188
  0
VERTEX
  8
0
 62
9
  6
CONTINUOUS
 10
138.0327936375
 20
73.5728940091
  0
VERTEX
  8
0
 62
9
  6
CONTINUOUS
 10
138.0228690474
 20
73.6934844351
  0
VERTEX
  8
0
 62
9
  6
CONTINUOUS
 10
138.0194839552
 20
73.8228938731
  0
SEQEND
  0
LINE
  8
0
 62
9
  6
CONTINUOUS
 10
118.6062060459
 20
73.8228938731
 11
118.6062060459
 21
82.8228938731
  0
LINE
  8
0
 62
9
  6
CONTINUOUS
 10
120.5647136597
 20
73.9141354531
 11
120.5647136597
 21
82.7316522931
  0
LINE
  8
0
 62
9
  6
CONTINUOUS
 10
121.2680255429
 20
74.0113570543
 11
121.2680255429
 21
82.6344306919
  0
LINE
  8
0
 62
9
  6
CONTINUOUS
 10
122.2497196732
 20
82.6137218081
 11
122.2497196732
 21
74.032065938
  0
POLYLINE
  8
0
 62
9
  6
CONTINUOUS
 66
1
 70
0
  0
VERTEX
  8
0
 62
9
  6
CONTINUOUS
 10
146.1423226033
 20
73.3228938731
  0
VERTEX
  8
0
 62
9
  6
CONTINUOUS
 10
146.1834698911
 20
73.3399310795
  0
VERTEX
  8
0
 62
9
  6
CONTINUOUS
 10
146.2218129794
 20
73.3898815239
  0
SEQEND
  0
POLYLINE
  8
0
 62
9
  6
CONTINUOUS
 66
1
 70
0
  0
VERTEX
  8
0
 62
9
  6
CONTINUOUS
 10
146.1423226033
 20
83.3228938731
  0
VERTEX
  8
0
 62
9
  6
CONTINUOUS
 10
146.1834697588
 20
83.3058567816
  0
VERTEX
  8
0
 62
9
  6
CONTINUOUS
 10
146.2218127999
 20
83.2559065603
  0
SEQEND
  0
LINE
  8
0
 62
9
  6
CONTINUOUS
 10
127.8665992115
 20
82.6137218081
 11
127.8665992115
 21
74.032065938
  0
POLYLINE
  8
0
 62
7
  6
CONTINUOUS
 66
1
 70
0
  0
VERTEX
  8
0
 62
7
  6
CONTINUOUS
 10
128.2210760906
 20
82.6253036648
  0
VERTEX
  8
0
 62
7
  6
CONTINUOUS
 10
128.2129623998
 20
82.715154981
  0
VERTEX
  8
0
 62
7
  6
CONTINUOUS
 10
128.1902746274
 20
82.7983733602
  0
VERTEX
  8
0
 62
7
  6
CONTINUOUS
 10
128.1549906282
 20
82.8741918527
  0
VERTEX
  8
0
 62
7
  6
CONTINUOUS
 10
128.1093889058
 20
82.9409403968
  0
VERTEX
  8
0
 62
7
  6
CONTINUOUS
 10
128.0558980319
 20
82.9975548341
  0
VERTEX
  8
0
 62
7
  6
CONTINUOUS
 10
127.9972341983
 20
83.0433827485
  0
VERTEX
  8
0
 62
7
  6
CONTINUOUS
 10
127.9361556783
 20
83.0784754741
  0
VERTEX
  8
0
 62
7
  6
CONTINUOUS
 10
127.8752756596
 20
83.1036347188
  0
VERTEX
  8
0
 62
7
  6
CONTINUOUS
 10
127.8211635621
 20
83.119444601
  0
VERTEX
  8
0
 62
7
  6
CONTINUOUS
 10
127.8112231701
 20
83.1217990214
  0
SEQEND
  0
LINE
  8
0
 62
7
  6
CONTINUOUS
 10
128.2210775886
 20
82.6253750169
 11
128.2210775886
 21
74.0204127293
  0
LINE
  8
0
 62
9
  6
CONTINUOUS
 10
143.825157834
 20
73.3898811586
 11
143.9275837212
 21
73.4693404639
  0
POLYLINE
  8
0
 62
9
  6
CONTINUOUS
 66
1
 70
0
  0
VERTEX
  8
0
 62
9
  6
CONTINUOUS
 10
146.4105308603
 20
73.3343099046
  0
VERTEX
  8
0
 62
9
  6
CONTINUOUS
 10
146.4448559694
 20
73.3546221977
  0
VERTEX
  8
0
 62
9
  6
CONTINUOUS
 10
146.4740937332
 20
73.4061981864
  0
VERTEX
  8
0
 62
9
  6
CONTINUOUS
 10
146.4963309891
 20
73.4856630139
  0
VERTEX
  8
0
 62
9
  6
CONTINUOUS
 10
146.5101126501
 20
73.5878169271
  0
VERTEX
  8
0
 62
9
  6
CONTINUOUS
 10
146.5145369184
 20
73.7059755205
  0
VERTEX
  8
0
 62
9
  6
CONTINUOUS
 10
146.5093142937
 20
73.8324071279
  0
SEQEND
  0
POLYLINE
  8
0
 62
9
  6
CONTINUOUS
 66
1
 70
0
  0
VERTEX
  8
0
 62
9
  6
CONTINUOUS
 10
146.4105308694
 20
83.3114779464
  0
VERTEX
  8
0
 62
9
  6
CONTINUOUS
 10
146.4448559865
 20
83.2911656742
  0
VERTEX
  8
0
 62
9
  6
CONTINUOUS
 10
146.4740937587
 20
83.2395896867
  0
VERTEX
  8
0
 62
9
  6
CONTINUOUS
 10
146.4963310216
 20
83.1601248424
  0
VERTEX
  8
0
 62
9
  6
CONTINUOUS
 10
146.5101126869
 20
83.0579708984
  0
VERTEX
  8
0
 62
9
  6
CONTINUOUS
 10
146.5145369556
 20
82.9398122661
  0
VERTEX
  8
0
 62
9
  6
CONTINUOUS
 10
146.5093143271
 20
82.8133806183
  0
SEQEND
  0
LINE
  8
0
 62
9
  6
CONTINUOUS
 10
143.8251589709
 20
83.255905924
 11
143.9275847079
 21
83.1764462846
  0
LINE
  8
0
 62
7
  6
CONTINUOUS
 10
133.44030504
 20
73.3228938731
 11
133.44030504
 21
73.0228938731
  0
LINE
  8
0
 62
7
  6
CONTINUOUS
 10
133.4756966179
 20
73.3228938731
 11
133.4756966179
 21
73.0228938731
  0
LINE
  8
0
 62
7
  6
CONTINUOUS
 10
133.6042429918
 20
73.3228938731
 11
133.6042429918
 21
73.0228938731
  0
LINE
  8
0
 62
7
  6
CONTINUOUS
 10
133.7402465286
 20
73.3228938731
 11
133.7402465286
 21
73.0228938731
  0
LINE
  8
0
 62
7
  6
CONTINUOUS
 10
134.0625596524
 20
73.3228938731
 11
134.0625596524
 21
73.0228938731
  0
LINE
  8
0
 62
9
  6
CONTINUOUS
 10
135.0793156648
 20
73.8228938731
 11
135.0793156648
 21
82.8228938731
  0
LINE
  8
1_AXIS
 62
7
  6
CONTINUOUS
 10
135.9125410264
 20
88.8228938731
 11
135.9125410264
 21
85.3228938731
  0
LINE
  8
1_AXIS
 62
7
  6
CONTINUOUS
 10
135.9125410264
 20
71.3228938731
 11
135.9125410264
 21
67.8228938731
  0
LINE
  8
0
 62
7
  6
CONTINUOUS
 10
135.9256550005
 20
73.3228938731
 11
135.9256550005
 21
73.0228938731
  0
LINE
  8
0
 62
7
  6
CONTINUOUS
 10
136.1771849117
 20
73.3228938731
 11
136.1771849117
 21
73.0228938731
  0
LINE
  8
0
 62
9
  6
CONTINUOUS
 10
136.5775965563
 20
73.8228938731
 11
136.5775965563
 21
82.8228938731
  0
LINE
  8
0
 62
7
  6
CONTINUOUS
 10
137.1833045388
 20
73.3228938731
 11
137.1833045388
 21
73.0228938731
  0
LINE
  8
0
 62
7
  6
CONTINUOUS
 10
137.434834504
 20
73.3228938731
 11
137.434834504
 21
73.0228938731
  0
POLYLINE
  8
0
 62
9
  6
CONTINUOUS
 66
1
 70
0
  0
VERTEX
  8
0
 62
9
  6
CONTINUOUS
 10
136.5606602519
 20
73.3228938731
  0
VERTEX
  8
0
 62
9
  6
CONTINUOUS
 10
136.5650437297
 20
73.3399312734
  0
VERTEX
  8
0
 62
9
  6
CONTINUOUS
 10
136.5691284593
 20
73.3898821104
  0
VERTEX
  8
0
 62
9
  6
CONTINUOUS
 10
136.5726360757
 20
73.4693418983
  0
VERTEX
  8
0
 62
9
  6
CONTINUOUS
 10
136.5753275497
 20
73.5728952954
  0
VERTEX
  8
0
 62
9
  6
CONTINUOUS
 10
136.577019474
 20
73.693485238
  0
VERTEX
  8
0
 62
9
  6
CONTINUOUS
 10
136.5775965565
 20
73.8228938731
  0
SEQEND
  0
POLYLINE
  8
0
 62
9
  6
CONTINUOUS
 66
1
 70
0
  0
VERTEX
  8
0
 62
9
  6
CONTINUOUS
 10
136.5606602518
 20
83.3228938731
  0
VERTEX
  8
0
 62
9
  6
CONTINUOUS
 10
136.5650436969
 20
83.3058567318
  0
VERTEX
  8
0
 62
9
  6
CONTINUOUS
 10
136.5691284134
 20
83.2559064155
  0
VERTEX
  8
0
 62
9
  6
CONTINUOUS
 10
136.5726360355
 20
83.1764470279
  0
VERTEX
  8
0
 62
9
  6
CONTINUOUS
 10
136.5753275263
 20
83.0728936396
  0
VERTEX
  8
0
 62
9
  6
CONTINUOUS
 10
136.577019467
 20
82.9523032512
  0
VERTEX
  8
0
 62
9
  6
CONTINUOUS
 10
136.5775965563
 20
82.8228938731
  0
SEQEND
  0
LINE
  8
0
 62
7
  6
CONTINUOUS
 10
138.046669452
 20
73.3228938731
 11
138.046669452
 21
73.0228938731
  0
LINE
  8
0
 62
7
  6
CONTINUOUS
 10
138.2487480409
 20
73.3228938731
 11
138.2487480409
 21
73.0228938731
  0
LINE
  8
0
 62
7
  6
CONTINUOUS
 10
138.3527772451
 20
73.3228938731
 11
138.3527772451
 21
73.0228938731
  0
LINE
  8
0
 62
7
  6
CONTINUOUS
 10
138.6124894316
 20
73.3228938731
 11
138.6124894316
 21
73.0228938731
  0
LINE
  8
0
 62
7
  6
CONTINUOUS
 10
138.774152349
 20
73.3228938731
 11
138.774152349
 21
73.0228938731
  0
LINE
  8
0
 62
7
  6
CONTINUOUS
 10
138.7973502101
 20
73.3228938731
 11
138.7973502101
 21
73.0228938731
  0
LINE
  8
0
 62
9
  6
CONTINUOUS
 10
139.0939047348
 20
73.9141354531
 11
139.0939047348
 21
82.7316522931
  0
LINE
  8
0
 62
7
  6
CONTINUOUS
 10
139.5199753679
 20
73.3228938731
 11
139.5199753679
 21
73.0228938731
  0
LINE
  8
0
 62
7
  6
CONTINUOUS
 10
139.6889423658
 20
73.3228938731
 11
139.6889423658
 21
73.0228938731
  0
LINE
  8
0
 62
9
  6
CONTINUOUS
 10
140.1504760547
 20
74.0113570543
 11
140.1504760547
 21
82.6344306919
  0
LINE
  8
0
 62
7
  6
CONTINUOUS
 10
140.5262672839
 20
73.3228938731
 11
140.5262672839
 21
73.0228938731
  0
LINE
  8
0
 62
7
  6
CONTINUOUS
 10
141.0294131009
 20
73.3228938731
 11
141.0294131009
 21
73.0228938731
  0
LINE
  8
0
 62
9
  6
CONTINUOUS
 10
141.1125254462
 20
82.6137218081
 11
141.1125254462
 21
74.032065938
  0
LINE
  8
0
 62
7
  6
CONTINUOUS
 10
141.1983800988
 20
73.3228938731
 11
141.1983800988
 21
73.0228938731
  0
LINE
  8
0
 62
7
  6
CONTINUOUS
 10
141.2196972509
 20
73.3228938731
 11
141.2196972509
 21
73.0228938731
  0
LINE
  8
0
 62
9
  6
CONTINUOUS
 10
143.9275837212
 20
73.4693404639
 11
143.9705485907
 21
73.5259497379
  0
POLYLINE
  8
0
 62
9
  6
CONTINUOUS
 66
1
 70
0
  0
VERTEX
  8
0
 62
9
  6
CONTINUOUS
 10
147.3648878777
 20
73.4160381397
  0
VERTEX
  8
0
 62
9
  6
CONTINUOUS
 10
147.3813885126
 20
73.435035439
  0
VERTEX
  8
0
 62
9
  6
CONTINUOUS
 10
147.393902205
 20
73.4858979735
  0
VERTEX
  8
0
 62
9
  6
CONTINUOUS
 10
147.4015966615
 20
73.565242845
  0
VERTEX
  8
0
 62
9
  6
CONTINUOUS
 10
147.403960119
 20
73.6677927773
  0
VERTEX
  8
0
 62
9
  6
CONTINUOUS
 10
147.4008353827
 20
73.7867271118
  0
VERTEX
  8
0
 62
9
  6
CONTINUOUS
 10
147.3924302805
 20
73.9141354531
  0
SEQEND
  0
POLYLINE
  8
0
 62
9
  6
CONTINUOUS
 66
1
 70
0
  0
VERTEX
  8
0
 62
9
  6
CONTINUOUS
 10
148.4916284784
 20
73.5132597052
  0
VERTEX
  8
0
 62
9
  6
CONTINUOUS
 10
148.50813745
 20
73.5322104508
  0
VERTEX
  8
0
 62
9
  6
CONTINUOUS
 10
148.5206554989
 20
73.5830476953
  0
VERTEX
  8
0
 62
9
  6
CONTINUOUS
 10
148.5283495675
 20
73.662388295
  0
VERTEX
  8
0
 62
9
  6
CONTINUOUS
 10
148.5307076269
 20
73.7649522504
  0
VERTEX
  8
0
 62
9
  6
CONTINUOUS
 10
148.5275727517
 20
73.8839140815
  0
VERTEX
  8
0
 62
9
  6
CONTINUOUS
 10
148.5191535629
 20
74.0113570543
  0
SEQEND
  0
POLYLINE
  8
0
 62
9
  6
CONTINUOUS
 66
1
 70
0
  0
VERTEX
  8
0
 62
9
  6
CONTINUOUS
 10
148.4916284787
 20
83.1325280441
  0
VERTEX
  8
0
 62
9
  6
CONTINUOUS
 10
148.5081370301
 20
83.1135763568
  0
VERTEX
  8
0
 62
9
  6
CONTINUOUS
 10
148.5206546901
 20
83.0627385988
  0
VERTEX
  8
0
 62
9
  6
CONTINUOUS
 10
148.5283484362
 20
82.9833979097
  0
VERTEX
  8
0
 62
9
  6
CONTINUOUS
 10
148.5307062667
 20
82.8808342355
  0
VERTEX
  8
0
 62
9
  6
CONTINUOUS
 10
148.527571273
 20
82.7618729603
  0
VERTEX
  8
0
 62
9
  6
CONTINUOUS
 10
148.5191520816
 20
82.6344306919
  0
SEQEND
  0
POLYLINE
  8
0
 62
9
  6
CONTINUOUS
 66
1
 70
0
  0
VERTEX
  8
0
 62
9
  6
CONTINUOUS
 10
147.3648878808
 20
83.2297496422
  0
VERTEX
  8
0
 62
9
  6
CONTINUOUS
 10
147.3813885018
 20
83.2107522742
  0
VERTEX
  8
0
 62
9
  6
CONTINUOUS
 10
147.3939021812
 20
83.1598896995
  0
VERTEX
  8
0
 62
9
  6
CONTINUOUS
 10
147.4015966272
 20
83.0805448162
  0
VERTEX
  8
0
 62
9
  6
CONTINUOUS
 10
147.4039600779
 20
82.9779948968
  0
VERTEX
  8
0
 62
9
  6
CONTINUOUS
 10
147.4008353389
 20
82.8590605935
  0
VERTEX
  8
0
 62
9
  6
CONTINUOUS
 10
147.3924302384
 20
82.7316522931
  0
SEQEND
  0
LINE
  8
0
 62
9
  6
CONTINUOUS
 10
143.9275847079
 20
83.1764462846
 11
143.9705325611
 21
83.1198591303
  0
LINE
  8
0
 62
7
  6
CONTINUOUS
 10
144.437360851
 20
82.6163977772
 11
144.4349159549
 21
82.665804776
  0
LINE
  8
0
 62
7
  6
CONTINUOUS
 10
141.759936869
 20
73.3228938731
 11
141.759936869
 21
73.0228938731
  0
LINE
  8
0
 62
7
  6
CONTINUOUS
 10
142.2061413285
 20
73.3228938731
 11
142.2061413285
 21
73.0228938731
  0
LINE
  8
0
 62
7
  6
CONTINUOUS
 10
142.6757005685
 20
73.3228938731
 11
142.6757005685
 21
73.0228938731
  0
LINE
  8
0
 62
7
  6
CONTINUOUS
 10
142.9338350358
 20
73.3228938731
 11
142.9338350358
 21
73.0228938731
  0
LINE
  8
0
 62
7
  6
CONTINUOUS
 10
143.0979346407
 20
73.3228938731
 11
143.0979346407
 21
73.0228938731
  0
LINE
  8
0
 62
7
  6
CONTINUOUS
 10
143.1913541636
 20
73.3228938731
 11
143.1913541636
 21
73.0228938731
  0
LINE
  8
0
 62
7
  6
CONTINUOUS
 10
143.4469095406
 20
73.3228938731
 11
143.4469095406
 21
73.0228938731
  0
LINE
  8
0
 62
9
  6
CONTINUOUS
 10
144.3554323597
 20
82.6137218081
 11
144.3554323597
 21
74.032065938
  0
LINE
  8
0
 62
7
  6
CONTINUOUS
 10
144.4373680402
 20
82.6164031688
 11
144.4373680402
 21
74.0293845771
  0
LINE
  8
0
 62
7
  6
CONTINUOUS
 10
144.4351682351
 20
73.9825955793
 11
144.43736085
 21
74.0293899765
  0
POLYLINE
  8
0
 62
9
  6
CONTINUOUS
 66
1
 70
0
  0
VERTEX
  8
0
 62
9
  6
CONTINUOUS
 10
146.2218129794
 20
73.3898815239
  0
VERTEX
  8
0
 62
9
  6
CONTINUOUS
 10
146.2547388635
 20
73.4693410074
  0
VERTEX
  8
0
 62
9
  6
CONTINUOUS
 10
146.2800037329
 20
73.5728943955
  0
VERTEX
  8
0
 62
9
  6
CONTINUOUS
 10
146.2958858702
 20
73.6934846746
  0
VERTEX
  8
0
 62
9
  6
CONTINUOUS
 10
146.3013029671
 20
73.8228938731
  0
SEQEND
  0
POLYLINE
  8
0
 62
9
  6
CONTINUOUS
 66
1
 70
0
  0
VERTEX
  8
0
 62
9
  6
CONTINUOUS
 10
146.2218127999
 20
83.2559065603
  0
VERTEX
  8
0
 62
9
  6
CONTINUOUS
 10
146.2547387117
 20
83.1764472401
  0
VERTEX
  8
0
 62
9
  6
CONTINUOUS
 10
146.2800036484
 20
83.0728938474
  0
VERTEX
  8
0
 62
9
  6
CONTINUOUS
 10
146.2958858482
 20
82.952303378
  0
VERTEX
  8
0
 62
9
  6
CONTINUOUS
 10
146.3013029671
 20
82.8228938731
  0
SEQEND
  0
POLYLINE
  8
0
 62
7
  6
CONTINUOUS
 66
1
 70
0
  0
VERTEX
  8
0
 62
7
  6
CONTINUOUS
 10
144.4349159549
 20
82.665804776
  0
VERTEX
  8
0
 62
7
  6
CONTINUOUS
 10
144.4220393103
 20
82.739283075
  0
VERTEX
  8
0
 62
7
  6
CONTINUOUS
 10
144.3990453032
 20
82.8084498223
  0
VERTEX
  8
0
 62
7
  6
CONTINUOUS
 10
144.3672564219
 20
82.8718586258
  0
VERTEX
  8
0
 62
7
  6
CONTINUOUS
 10
144.3282103091
 20
82.928414066
  0
VERTEX
  8
0
 62
7
  6
CONTINUOUS
 10
144.2835778917
 20
82.9773890077
  0
VERTEX
  8
0
 62
7
  6
CONTINUOUS
 10
144.2351103611
 20
83.0184083365
  0
VERTEX
  8
0
 62
7
  6
CONTINUOUS
 10
144.184502359
 20
83.0514964261
  0
VERTEX
  8
0
 62
7
  6
CONTINUOUS
 10
144.1332314545
 20
83.0770635773
  0
VERTEX
  8
0
 62
7
  6
CONTINUOUS
 10
144.0843344128
 20
83.0952442885
  0
VERTEX
  8
0
 62
7
  6
CONTINUOUS
 10
144.041038691
 20
83.1070350294
  0
VERTEX
  8
0
 62
7
  6
CONTINUOUS
 10
144.0057414195
 20
83.1142185204
  0
VERTEX
  8
0
 62
7
  6
CONTINUOUS
 10
143.973300772
 20
83.1194792469
  0
VERTEX
  8
0
 62
7
  6
CONTINUOUS
 10
143.9384730007
 20
83.1242586849
  0
SEQEND
  0
LINE
  8
0
 62
9
  6
CONTINUOUS
 10
144.9925642394
 20
73.8228938731
 11
144.9925642394
 21
82.8228938731
  0
LINE
  8
0
 62
9
  6
CONTINUOUS
 10
147.3924302384
 20
73.9141354531
 11
147.3924302384
 21
82.7316522931
  0
LINE
  8
0
 62
9
  6
CONTINUOUS
 10
148.5191535629
 20
74.0113570543
 11
148.5191535629
 21
82.6344306919
  0
LINE
  8
0
 62
9
  6
CONTINUOUS
 10
149.2037778583
 20
82.6137218081
 11
149.2037778583
 21
74.032065938
  0
LINE
  8
1_AXIS
 62
7
  6
CONTINUOUS
 10
149.3125410264
 20
82.6137218146
 11
149.3125410264
 21
74.0320659315
  0
ARC
  8
0
 62
7
  6
CONTINUOUS
 10
65.0374753215
 20
170.5265411518
 40
6.2
 50
88.058871156
 51
111.838
  0
ARC
  8
0
 62
7
  6
CONTINUOUS
 10
68.32974065
 20
167.2342758233
 40
6.2
 50
338.162
 51
1.941128844
  0
ARC
  8
0
 62
7
  6
CONTINUOUS
 10
65.1797402788
 20
174.7241310176
 40
2.0
 50
38.4627182622
 51
88.058871156
  0
ARC
  8
0
 62
7
  6
CONTINUOUS
 10
72.5273305158
 20
167.3765407806
 40
2.0
 50
1.941128844
 51
51.5372817378
  0
ARC
  8
0
 62
7
  6
CONTINUOUS
 10
61.377019159
 20
176.600804966
 40
0.8
 50
213.8418219687
 51
291.838
  0
ARC
  8
0
 62
7
  6
CONTINUOUS
 10
74.4040044642
 20
163.5738196608
 40
0.8
 50
158.162
 51
236.1581780313
  0
ARC
  8
0
 62
7
  6
CONTINUOUS
 10
53.5524225753
 20
192.8293415282
 40
6.2
 50
58.058871156
 51
81.838
  0
ARC
  8
0
 62
7
  6
CONTINUOUS
 10
54.7574753215
 20
188.3320234536
 40
6.2
 50
308.162
 51
331.941128844
  0
ARC
  8
SQ
 62
2
  6
PHANTOM
 10
73.8170408562
 20
198.8093006138
 40
2.2
 50
45.0
 51
77.7637577589
  0
ARC
  8
0
 62
7
  6
CONTINUOUS
 10
55.7744225753
 20
196.3934285081
 40
2.0
 50
8.4627182622
 51
58.058871156
  0
ARC
  8
0
 62
7
  6
CONTINUOUS
 10
58.4638272587
 20
186.3564335877
 40
2.0
 50
331.941128844
 51
21.5372817378
  0
ARC
  8
0
 62
7
  6
CONTINUOUS
 10
53.4195064563
 20
199.9200363819
 40
0.8
 50
183.8418219687
 51
261.838
  0
ARC
  8
0
 62
7
  6
CONTINUOUS
 10
58.1877140127
 20
182.1248435203
 40
0.8
 50
128.162
 51
206.1581780313
  0
ARC
  8
0
 62
7
  6
CONTINUOUS
 10
86.1352229518
 20
156.9542758233
 40
6.2
 50
118.058871156
 51
141.838
  0
ARC
  8
0
 62
7
  6
CONTINUOUS
 10
90.6325410264
 20
155.7492230771
 40
6.2
 50
8.162
 51
31.941128844
  0
ARC
  8
SQ
 62
2
  6
PHANTOM
 10
96.612500112
 20
176.013841358
 40
2.2
 50
12.2362422411
 51
45.0
  0
ARC
  8
0
 62
7
  6
CONTINUOUS
 10
84.1596330859
 20
160.6606277605
 40
2.0
 50
68.4627182622
 51
118.058871156
  0
ARC
  8
0
 62
7
  6
CONTINUOUS
 10
94.1966280063
 20
157.9712230771
 40
2.0
 50
31.941128844
 51
81.5372817378
  0
ARC
  8
0
 62
7
  6
CONTINUOUS
 10
79.9280430185
 20
160.3845145145
 40
0.8
 50
243.8418219687
 51
321.838
  0
ARC
  8
0
 62
7
  6
CONTINUOUS
 10
97.7232358801
 20
155.6163069581
 40
0.8
 50
188.162
 51
266.1581780313
  0
ARC
  8
SQ
 62
2
  6
PHANTOM
 10
93.0510399813
 20
184.9493130257
 40
3.2
 50
225.0
 51
270.2750868451
  0
ARC
  8
SQ
 62
2
  6
PHANTOM
 10
82.7525125239
 20
195.2478404831
 40
3.2
 50
179.7249131549
 51
225.0
  0
ARC
  8
SQ
 62
2
  6
PHANTOM
 10
93.0769662061
 20
179.5493752639
 40
2.2
 50
45.0
 51
90.2750868451
  0
ARC
  8
SQ
 62
2
  6
PHANTOM
 10
77.3525747621
 20
195.2737667079
 40
2.2
 50
359.7249131549
 51
45.0
  0
ARC
  8
0
 62
7
  6
CONTINUOUS
 10
54.7574753215
 20
217.8866596029
 40
6.2
 50
28.058871156
 51
51.838
  0
ARC
  8
0
 62
7
  6
CONTINUOUS
 10
53.5524225753
 20
213.3893415282
 40
6.2
 50
278.162
 51
301.941128844
  0
ARC
  8
SQ
 62
2
  6
PHANTOM
 10
74.7495901225
 20
203.1093415282
 40
2.2
 50
102.2362422411
 51
257.7637577589
  0
ARC
  8
SQ
 62
2
  6
PHANTOM
 10
73.8170408562
 20
207.4093824427
 40
2.2
 50
282.2362422411
 51
315.0
  0
ARC
  8
0
 62
7
  6
CONTINUOUS
 10
58.4638272587
 20
219.8622494687
 40
2.0
 50
338.4627182622
 51
28.058871156
  0
ARC
  8
0
 62
7
  6
CONTINUOUS
 10
55.7744225753
 20
209.8252545484
 40
2.0
 50
301.941128844
 51
351.5372817378
  0
ARC
  8
0
 62
7
  6
CONTINUOUS
 10
58.1877140127
 20
224.0938395362
 40
0.8
 50
153.8418219687
 51
231.838
  0
ARC
  8
0
 62
7
  6
CONTINUOUS
 10
53.4195064563
 20
206.2986466746
 40
0.8
 50
98.162
 51
176.1581780313
  0
ARC
  8
0
 62
7
  6
CONTINUOUS
 10
68.32974065
 20
238.9844072331
 40
6.2
 50
358.058871156
 51
21.838
  0
ARC
  8
0
 62
7
  6
CONTINUOUS
 10
65.0374753215
 20
235.6921419047
 40
6.2
 50
248.162
 51
271.941128844
  0
ARC
  8
0
 62
7
  6
CONTINUOUS
 10
72.5273305158
 20
238.8421422758
 40
2.0
 50
308.4627182622
 51
358.058871156
  0
ARC
  8
0
 62
7
  6
CONTINUOUS
 10
65.1797402788
 20
231.4945520388
 40
2.0
 50
271.941128844
 51
321.5372817378
  0
ARC
  8
0
 62
7
  6
CONTINUOUS
 10
74.4040044642
 20
242.6448633956
 40
0.8
 50
123.8418219687
 51
201.838
  0
ARC
  8
0
 62
7
  6
CONTINUOUS
 10
61.377019159
 20
229.6178780905
 40
0.8
 50
68.162
 51
146.1581780313
  0
ARC
  8
SQ
 62
2
  6
PHANTOM
 10
82.7525125239
 20
210.9708425733
 40
3.2
 50
135.0
 51
180.2750868451
  0
ARC
  8
SQ
 62
2
  6
PHANTOM
 10
93.0510399813
 20
221.2693700308
 40
3.2
 50
89.7249131549
 51
135.0
  0
ARC
  8
SQ
 62
2
  6
PHANTOM
 10
77.3525747621
 20
210.9449163486
 40
2.2
 50
315.0
 51
0.2750868451
  0
ARC
  8
SQ
 62
2
  6
PHANTOM
 10
93.0769662061
 20
226.6693077925
 40
2.2
 50
269.7249131549
 51
315.0
  0
ARC
  8
0
 62
7
  6
CONTINUOUS
 10
90.6325410264
 20
250.4694599793
 40
6.2
 50
328.058871156
 51
351.838
  0
ARC
  8
0
 62
7
  6
CONTINUOUS
 10
86.1352229518
 20
249.2644072331
 40
6.2
 50
218.162
 51
241.941128844
  0
ARC
  8
SQ
 62
2
  6
PHANTOM
 10
96.612500112
 20
230.2048416985
 40
2.2
 50
315.0
 51
347.7637577589
  0
ARC
  8
0
 62
7
  6
CONTINUOUS
 10
94.1966280063
 20
248.2474599793
 40
2.0
 50
278.4627182622
 51
328.058871156
  0
ARC
  8
0
 62
7
  6
CONTINUOUS
 10
84.1596330859
 20
245.558055296
 40
2.0
 50
241.941128844
 51
291.5372817378
  0
ARC
  8
0
 62
7
  6
CONTINUOUS
 10
97.7232358801
 20
250.6023760984
 40
0.8
 50
93.8418219687
 51
171.838
  0
ARC
  8
0
 62
7
  6
CONTINUOUS
 10
79.9280430185
 20
245.834168542
 40
0.8
 50
38.162
 51
116.1581780313
  0
ARC
  8
0
 62
7
  6
CONTINUOUS
 10
111.1925410264
 20
155.7492230771
 40
6.2
 50
148.058871156
 51
171.838
  0
ARC
  8
0
 62
7
  6
CONTINUOUS
 10
115.6898591011
 20
156.9542758233
 40
6.2
 50
38.162
 51
61.941128844
  0
ARC
  8
SQ
 62
2
  6
PHANTOM
 10
105.2125819409
 20
176.013841358
 40
2.2
 50
135.0
 51
167.7637577589
  0
ARC
  8
SQ
 62
2
  6
PHANTOM
 10
100.9125410264
 20
176.9463906243
 40
2.2
 50
192.2362422411
 51
347.7637577589
  0
ARC
  8
0
 62
7
  6
CONTINUOUS
 10
107.6284540466
 20
157.9712230771
 40
2.0
 50
98.4627182622
 51
148.058871156
  0
ARC
  8
0
 62
7
  6
CONTINUOUS
 10
117.6654489669
 20
160.6606277605
 40
2.0
 50
61.941128844
 51
111.5372817378
  0
ARC
  8
0
 62
7
  6
CONTINUOUS
 10
104.1018461727
 20
155.6163069581
 40
0.8
 50
273.8418219687
 51
351.838
  0
ARC
  8
0
 62
7
  6
CONTINUOUS
 10
121.8970390344
 20
160.3845145145
 40
0.8
 50
218.162
 51
296.1581780313
  0
ARC
  8
SQ
 62
2
  6
PHANTOM
 10
119.072569529
 20
195.2478404831
 40
3.2
 50
315.0
 51
0.2750868451
  0
ARC
  8
SQ
 62
2
  6
PHANTOM
 10
108.7740420715
 20
184.9493130257
 40
3.2
 50
269.7249131549
 51
315.0
  0
ARC
  8
SQ
 62
2
  6
PHANTOM
 10
124.4725072907
 20
195.2737667079
 40
2.2
 50
135.0
 51
180.2750868451
  0
ARC
  8
SQ
 62
2
  6
PHANTOM
 10
108.7481158468
 20
179.5493752639
 40
2.2
 50
89.7249131549
 51
135.0
  0
ARC
  8
0
 62
7
  6
CONTINUOUS
 10
133.4953414029
 20
167.2342758233
 40
6.2
 50
178.058871156
 51
201.838
  0
ARC
  8
0
 62
7
  6
CONTINUOUS
 10
136.7876067313
 20
170.5265411518
 40
6.2
 50
68.162
 51
91.941128844
  0
ARC
  8
0
 62
7
  6
CONTINUOUS
 10
129.297751537
 20
167.3765407806
 40
2.0
 50
128.4627182622
 51
178.058871156
  0
ARC
  8
0
 62
7
  6
CONTINUOUS
 10
136.645341774
 20
174.7241310176
 40
2.0
 50
91.941128844
 51
141.5372817378
  0
ARC
  8
0
 62
7
  6
CONTINUOUS
 10
127.4210775886
 20
163.5738196608
 40
0.8
 50
303.8418219687
 51
21.838
  0
ARC
  8
0
 62
7
  6
CONTINUOUS
 10
140.4480628938
 20
176.600804966
 40
0.8
 50
248.162
 51
326.1581780313
  0
ARC
  8
0
 62
7
  6
CONTINUOUS
 10
147.0676067313
 20
188.3320234536
 40
6.2
 50
208.058871156
 51
231.838
  0
ARC
  8
0
 62
7
  6
CONTINUOUS
 10
148.2726594775
 20
192.8293415282
 40
6.2
 50
98.162
 51
121.941128844
  0
ARC
  8
SQ
 62
2
  6
PHANTOM
 10
128.0080411967
 20
198.8093006138
 40
2.2
 50
102.2362422411
 51
135.0
  0
ARC
  8
0
 62
7
  6
CONTINUOUS
 10
143.3612547942
 20
186.3564335877
 40
2.0
 50
158.4627182622
 51
208.058871156
  0
ARC
  8
0
 62
7
  6
CONTINUOUS
 10
146.0506594775
 20
196.3934285081
 40
2.0
 50
121.941128844
 51
171.5372817378
  0
ARC
  8
0
 62
7
  6
CONTINUOUS
 10
143.6373680402
 20
182.1248435203
 40
0.8
 50
333.8418219687
 51
51.838
  0
ARC
  8
0
 62
7
  6
CONTINUOUS
 10
148.4055755966
 20
199.9200363819
 40
0.8
 50
278.162
 51
356.1581780313
  0
ARC
  8
0
 62
7
  6
CONTINUOUS
 10
100.9125410264
 20
203.1093415282
 40
48.4
 50
86.1581780313
 51
93.8418219687
  0
ARC
  8
0
 62
7
  6
CONTINUOUS
 10
100.9125410264
 20
203.1093415282
 40
48.4
 50
116.1581780313
 51
123.8418219687
  0
ARC
  8
0
 62
7
  6
CONTINUOUS
 10
100.9125410264
 20
203.1093415282
 40
48.4
 50
146.1581780313
 51
153.8418219687
  0
ARC
  8
0
 62
7
  6
CONTINUOUS
 10
100.9125410264
 20
203.1093415282
 40
48.4
 50
176.1581780313
 51
183.8418219687
  0
ARC
  8
0
 62
7
  6
CONTINUOUS
 10
100.9125410264
 20
203.1093415282
 40
48.4
 50
206.1581780313
 51
213.8418219687
  0
ARC
  8
0
 62
7
  6
CONTINUOUS
 10
100.9125410264
 20
203.1093415282
 40
48.4
 50
236.1581780313
 51
243.8418219687
  0
ARC
  8
0
 62
7
  6
CONTINUOUS
 10
100.9125410264
 20
203.1093415282
 40
48.4
 50
266.1581780313
 51
273.8418219687
  0
ARC
  8
0
 62
7
  6
CONTINUOUS
 10
100.9125410264
 20
203.1093415282
 40
48.4
 50
296.1581780313
 51
303.8418219687
  0
ARC
  8
0
 62
7
  6
CONTINUOUS
 10
100.9125410264
 20
203.1093415282
 40
48.4
 50
326.1581780313
 51
333.8418219687
  0
ARC
  8
0
 62
7
  6
CONTINUOUS
 10
100.9125410264
 20
203.1093415282
 40
48.4
 50
356.1581780313
 51
3.8418219687
  0
ARC
  8
0
 62
7
  6
CONTINUOUS
 10
100.9125410264
 20
203.1093415282
 40
48.4
 50
26.1581780313
 51
33.8418219687
  0
ARC
  8
0
 62
7
  6
CONTINUOUS
 10
100.9125410264
 20
203.1093415282
 40
48.4
 50
56.1581780313
 51
63.8418219687
  0
ARC
  8
0
 62
7
  6
CONTINUOUS
 10
100.9125410264
 20
203.1093415282
 40
43.635
 50
98.4627182622
 51
111.5372817378
  0
ARC
  8
0
 62
7
  6
CONTINUOUS
 10
100.9125410264
 20
203.1093415282
 40
43.635
 50
68.4627182622
 51
81.5372817378
  0
ARC
  8
0
 62
7
  6
CONTINUOUS
 10
100.9125410264
 20
203.1093415282
 40
43.635
 50
128.4627182622
 51
141.5372817378
  0
ARC
  8
0
 62
7
  6
CONTINUOUS
 10
100.9125410264
 20
203.1093415282
 40
43.635
 50
158.4627182622
 51
171.5372817378
  0
ARC
  8
0
 62
7
  6
CONTINUOUS
 10
100.9125410264
 20
203.1093415282
 40
43.635
 50
188.4627182622
 51
201.5372817378
  0
ARC
  8
0
 62
7
  6
CONTINUOUS
 10
100.9125410264
 20
203.1093415282
 40
43.635
 50
218.4627182622
 51
231.5372817378
  0
ARC
  8
0
 62
7
  6
CONTINUOUS
 10
100.9125410264
 20
203.1093415282
 40
43.635
 50
248.4627182622
 51
261.5372817378
  0
ARC
  8
0
 62
7
  6
CONTINUOUS
 10
100.9125410264
 20
203.1093415282
 40
43.635
 50
278.4627182622
 51
291.5372817378
  0
ARC
  8
0
 62
7
  6
CONTINUOUS
 10
100.9125410264
 20
203.1093415282
 40
43.635
 50
308.4627182622
 51
321.5372817378
  0
ARC
  8
0
 62
7
  6
CONTINUOUS
 10
100.9125410264
 20
203.1093415282
 40
43.635
 50
338.4627182622
 51
351.5372817378
  0
ARC
  8
0
 62
7
  6
CONTINUOUS
 10
100.9125410264
 20
203.1093415282
 40
43.635
 50
38.4627182622
 51
51.5372817378
  0
ARC
  8
0
 62
7
  6
CONTINUOUS
 10
100.9125410264
 20
203.1093415282
 40
43.635
 50
8.4627182622
 51
21.5372817378
  0
CIRCLE
  8
1_AXIS
 62
7
  6
CONTINUOUS
 10
100.9125410264
 20
203.1093415282
 40
35.0
  0
CIRCLE
  8
SQ
 62
2
  6
PHANTOM
 10
100.9125410264
 20
203.1093415282
 40
8.0
  0
ARC
  8
SQ
 62
2
  6
PHANTOM
 10
108.7740420715
 20
221.2693700308
 40
3.2
 50
45.0
 51
90.2750868451
  0
ARC
  8
SQ
 62
2
  6
PHANTOM
 10
108.7481158468
 20
226.6693077925
 40
2.2
 50
225.0
 51
270.2750868451
  0
ARC
  8
SQ
 62
2
  6
PHANTOM
 10
119.072569529
 20
210.9708425733
 40
3.2
 50
359.7249131549
 51
45.0
  0
ARC
  8
SQ
 62
2
  6
PHANTOM
 10
124.4725072907
 20
210.9449163486
 40
2.2
 50
179.7249131549
 51
225.0
  0
ARC
  8
0
 62
7
  6
CONTINUOUS
 10
111.1925410264
 20
250.4694599793
 40
6.2
 50
188.162
 51
211.941128844
  0
ARC
  8
0
 62
7
  6
CONTINUOUS
 10
115.6898591011
 20
249.2644072331
 40
6.2
 50
298.058871156
 51
321.838
  0
ARC
  8
SQ
 62
2
  6
PHANTOM
 10
100.9125410264
 20
229.2722924321
 40
2.2
 50
12.2362422411
 51
167.7637577589
  0
ARC
  8
SQ
 62
2
  6
PHANTOM
 10
105.2125819409
 20
230.2048416985
 40
2.2
 50
192.2362422411
 51
225.0
  0
ARC
  8
0
 62
7
  6
CONTINUOUS
 10
107.6284540466
 20
248.2474599793
 40
2.0
 50
211.941128844
 51
261.5372817378
  0
ARC
  8
0
 62
7
  6
CONTINUOUS
 10
117.6654489669
 20
245.558055296
 40
2.0
 50
248.4627182622
 51
298.058871156
  0
CIRCLE
  8
0
 62
7
  6
CONTINUOUS
 10
100.9125410264
 20
243.1093415282
 40
0.8660254038
  0
ARC
  8
0
 62
7
  6
CONTINUOUS
 10
104.1018461727
 20
250.6023760984
 40
0.8
 50
8.162
 51
86.1581780313
  0
ARC
  8
0
 62
7
  6
CONTINUOUS
 10
121.8970390344
 20
245.834168542
 40
0.8
 50
63.8418219687
 51
141.838
  0
ARC
  8
0
 62
7
  6
CONTINUOUS
 10
147.0676067313
 20
217.8866596029
 40
6.2
 50
128.162
 51
151.941128844
  0
ARC
  8
0
 62
7
  6
CONTINUOUS
 10
148.2726594775
 20
213.3893415282
 40
6.2
 50
238.058871156
 51
261.838
  0
ARC
  8
SQ
 62
2
  6
PHANTOM
 10
128.0080411967
 20
207.4093824427
 40
2.2
 50
225.0
 51
257.7637577589
  0
ARC
  8
SQ
 62
2
  6
PHANTOM
 10
127.0754919303
 20
203.1093415282
 40
2.2
 50
282.2362422411
 51
77.7637577589
  0
ARC
  8
0
 62
7
  6
CONTINUOUS
 10
143.3612547942
 20
219.8622494687
 40
2.0
 50
151.941128844
 51
201.5372817378
  0
ARC
  8
0
 62
7
  6
CONTINUOUS
 10
146.0506594775
 20
209.8252545484
 40
2.0
 50
188.4627182622
 51
238.058871156
  0
ARC
  8
0
 62
7
  6
CONTINUOUS
 10
143.6373680402
 20
224.0938395362
 40
0.8
 50
308.162
 51
26.1581780313
  0
ARC
  8
0
 62
7
  6
CONTINUOUS
 10
148.4055755966
 20
206.2986466746
 40
0.8
 50
3.8418219687
 51
81.838
  0
ARC
  8
0
 62
7
  6
CONTINUOUS
 10
133.4953414029
 20
238.9844072331
 40
6.2
 50
158.162
 51
181.941128844
  0
ARC
  8
0
 62
7
  6
CONTINUOUS
 10
136.7876067313
 20
235.6921419047
 40
6.2
 50
268.058871156
 51
291.838
  0
ARC
  8
0
 62
7
  6
CONTINUOUS
 10
129.297751537
 20
238.8421422758
 40
2.0
 50
181.941128844
 51
231.5372817378
  0
ARC
  8
0
 62
7
  6
CONTINUOUS
 10
136.645341774
 20
231.4945520388
 40
2.0
 50
218.4627182622
 51
268.058871156
  0
ARC
  8
0
 62
7
  6
CONTINUOUS
 10
127.4210775886
 20
242.6448633956
 40
0.8
 50
338.162
 51
56.1581780313
  0
ARC
  8
0
 62
7
  6
CONTINUOUS
 10
140.4480628938
 20
229.6178780905
 40
0.8
 50
33.8418219687
 51
111.838
  0
ARC
  8
1_AXIS
 62
7
  6
CONTINUOUS
 10
146.3125410264
 20
80.3228938731
 40
3.0
 50
85.0
 51
90.0
  0
ARC
  8
1_AXIS
 62
7
  6
CONTINUOUS
 10
55.5125410264
 20
80.3228938731
 40
3.0
 50
90.0
 51
95.0
  0
ARC
  8
1_AXIS
 62
7
  6
CONTINUOUS
 10
146.3125410264
 20
76.3228938731
 40
3.0
 50
270.0
 51
275.0
  0
ARC
  8
1_AXIS
 62
7
  6
CONTINUOUS
 10
55.5125410264
 20
76.3228938731
 40
3.0
 50
265.0
 51
270.0
  0
ARC
  8
1_AXIS
 62
7
  6
CONTINUOUS
 10
133.9125410264
 20
88.8228938731
 40
2.0
 50
0.0
 51
90.0
  0
ARC
  8
1_AXIS
 62
7
  6
CONTINUOUS
 10
137.9125410264
 20
85.3228938731
 40
2.0
 50
180.0
 51
270.0
  0
ARC
  8
1_AXIS
 62
7
  6
CONTINUOUS
 10
137.9125410264
 20
71.3228938731
 40
2.0
 50
121.6028455496
 51
180.0
  0
ARC
  8
1_AXIS
 62
7
  6
CONTINUOUS
 10
133.9125410264
 20
67.8228938731
 40
2.0
 50
270.0
 51
360.0
  0
ARC
  8
1_AXIS
 62
7
  6
CONTINUOUS
 10
67.9125410264
 20
88.8228938731
 40
2.0
 50
90.0
 51
180.0
  0
ARC
  8
1_AXIS
 62
7
  6
CONTINUOUS
 10
63.9125410264
 20
85.3228938731
 40
2.0
 50
270.0
 51
360.0
  0
ARC
  8
1_AXIS
 62
7
  6
CONTINUOUS
 10
63.9125410264
 20
71.3228938731
 40
2.0
 50
0.0
 51
90.0
  0
ARC
  8
1_AXIS
 62
7
  6
CONTINUOUS
 10
67.9125410264
 20
67.8228938731
 40
2.0
 50
180.0
 51
270.0
  0
ARC
  8
0
 62
7
  6
CONTINUOUS
 10
148.8125410264
 20
74.032065938
 40
0.5
 50
274.9995905352
 51
360.0
  0
ARC
  8
0
 62
7
  6
CONTINUOUS
 10
53.0125410264
 20
74.032065938
 40
0.5
 50
180.0
 51
265.0000240238
  0
ARC
  8
0
 62
7
  6
CONTINUOUS
 10
53.0125410264
 20
82.6137218081
 40
0.5
 50
94.9999759762
 51
180.0
  0
ARC
  8
0
 62
7
  6
CONTINUOUS
 10
148.8125410264
 20
82.6137218081
 40
0.5
 50
0.0
 51
85.0004094648
  0
ENDSEC
  0
EOF
