  0
SECTION
  2
HEADER
  9
$EXTMAX
 10
210.0
 20
297.0
 30
0.0
  9
$EXTMIN
 10
0.0
 20
0.0
 30
0.0
  9
$LIMMIN
 10
0.0
 20
0.0
  9
$LIMMAX
 10
210.0
 20
297.0
  9
$VIEWCTR
 10
105.0
 20
148.5
  9
$VIEWSIZE
 40
297.0
  9
$CLAYER
  8
0
  9
$LTSCALE
 40
19.36
  9
$CELTYPE
  6
BYLAYER
  9
$DIMSCALE
 40
1.0
  9
$DIMASZ
 40
3.5
  9
$DIMEXO
 40
2.2
  9
$DIMDLI
 40
13.376
  9
$DIMEXE
 40
6.336
  9
$DIMCEN
 40
3.168
  9
$DIMLFAC
 40
1.0
  9
$DIMBLK
  1
_FILLED
  9
$DIMTXT
 40
3.5
  9
$PDMODE
 70
3
  9
$PDSIZE
 40
0.3125
  9
$TILEMODE
 70
1
  0
ENDSEC
  0
SECTION
  2
TABLES
  0
TABLE
  2
LTYPE
 70
6
  0
LTYPE
  2
BYBLOCK
 70
0
  3

 72
65
 73
0
 40
0.0
  0
LTYPE
  2
BYLAYER
 70
0
  3

 72
65
 73
0
 40
0.0
  0
LTYPE
  2
CONTINUOUS
 70
64
  3
Solid line
 72
65
 73
0
 40
0.0
  0
LTYPE
  2
CENTER
 70
64
  3
____ _ ____ _ ____ _ ____ _ ____ _ ____ _ ____
 72
65
 73
4
 40
0.6
 49
0.375
 49
-0.075
 49
0.075
 49
-0.075
  0
LTYPE
  2
HIDDEN
 70
64
  3
- - - - - - - - - - - - - - - - - - - -
 72
65
 73
2
 40
0.2
 49
0.1
 49
-0.1
  0
LTYPE
  2
PHANTOM
 70
64
  3
_____ _ _ _____ _ _ _____ _ _ _____
 72
65
 73
6
 40
0.8
 49
0.45
 49
-0.05
 49
0.1
 49
-0.05
 49
0.1
 49
-0.05
  0
LTYPE
  2
DOT
 70
64
  3
. . . . . . . . . . . . . . . . . . . .
 72
65
 73
2
 40
0.2
 49
0.1
 49
-0.1
  0
LTYPE
  2
DASHED
 70
64
  3
- - - - - - - - - - - - - - - - - - - -
 72
65
 73
2
 40
0.2
 49
0.1
 49
-0.1
  0
ENDTAB
  0
TABLE
  2
LAYER
 70
36
  0
LAYER
  2
0
 70
0
 62
7
  6
CONTINUOUS
  0
LAYER
  2
DEFAULT_1
 70
0
 62
7
  6
CENTER
  0
LAYER
  2
DEFAULT_2
 70
0
 62
8
  6
HIDDEN
  0
LAYER
  2
DEFAULT_3
 70
0
 62
7
  6
PHANTOM
  0
LAYER
  2
1_AXIS
 70
0
 62
7
  6
CONTINUOUS
  0
LAYER
  2
1_CSYS
 70
0
 62
7
  6
CONTINUOUS
  0
LAYER
  2
1_DATUM_PLANE
 70
0
 62
7
  6
CONTINUOUS
  0
LAYER
  2
2_FEATURE
 70
0
 62
7
  6
CONTINUOUS
  0
LAYER
  2
6_DIM
 70
0
 62
7
  6
CONTINUOUS
  0
LAYER
  2
AXES
 70
0
 62
7
  6
CONTINUOUS
  0
LAYER
  2
CSYS
 70
0
 62
7
  6
CONTINUOUS
  0
LAYER
  2
PLANES
 70
0
 62
7
  6
CONTINUOUS
  0
LAYER
  2
QUILTS
 70
0
 62
7
  6
CONTINUOUS
  0
LAYER
  2
SQ
 70
0
 62
7
  6
CONTINUOUS
  0
ENDTAB
  0
TABLE
  2
STYLE
 70
1
  0
STYLE
  2
STANDARD
 70
0
 40
0.0
 41
0.8
 50
0.0
 71
0
 42
0.2
  3
txt
  4

  0
STYLE
  2
TEXTSTYLE_1
 70
0
 40
0.0
 41
0.8
 50
0.0
 71
0
 42
0.2
  3
gdt
  4

  0
STYLE
  2
TEXTSTYLE_2
 70
0
 40
0.0
 41
0.6
 50
0.0
 71
0
 42
0.2
  3
txt
  4

  0
STYLE
  2
TEXTSTYLE_3
 70
0
 40
0.0
 41
1.0
 50
0.0
 71
0
 42
0.2
  3
ftb_____.ttf
  4

  0
STYLE
  2
TEXTSTYLE_4
 70
0
 40
0.0
 41
1.0
 50
0.0
 71
0
 42
0.2
  3
fti_____.ttf
  4

  0
STYLE
  2
TEXTSTYLE_5
 70
0
 40
0.0
 41
1.0
 50
0.0
 71
0
 42
0.2
  3
frutiger light.ttf
  4

  0
STYLE
  2
TEXTSTYLE_6
 70
0
 40
0.0
 41
0.7
 50
0.0
 71
0
 42
0.2
  3
txt
  4

  0
STYLE
  2
TEXTSTYLE_7
 70
0
 40
0.0
 41
0.8
 50
0.0
 71
0
 42
0.2
  3
txt
  4

  0
ENDTAB
  0
ENDSEC
  0
SECTION
  2
BLOCKS
  0
BLOCK
  8
0
 62
2
  6
CONTINUOUS
  2
SYMBOL_8_BL1
 70
64
 10
173.5956734183
 20
35.5937998301
  0
TEXT
  8
0
 62
7
  6
CONTINUOUS
 10
164.6539584268
 20
30.6865562072
  7
TEXTSTYLE_4
 40
1.0655737705
  1
The brand for plastic modular belts and chains
 41
1.0
 72
0
  0
LINE
  8
0
 62
7
  6
CONTINUOUS
 10
149.5737418074
 20
36.1675703219
 11
149.5737418074
 21
34.0364227809
  0
LINE
  8
0
 62
7
  6
CONTINUOUS
 10
149.8628043005
 20
31.0454914852
 11
149.8628043005
 21
31.1422825445
  0
LINE
  8
0
 62
7
  6
CONTINUOUS
 10
149.5737418074
 20
31.1100188581
 11
149.6315543091
 21
30.9164367395
  0
LINE
  8
0
 62
7
  6
CONTINUOUS
 10
150.9671844304
 20
33.9544555678
 11
150.9671844304
 21
36.1675703219
  0
LINE
  8
0
 62
7
  6
CONTINUOUS
 10
151.8862417523
 20
32.1101932727
 11
151.8862417523
 21
30.5937998301
  0
LINE
  8
0
 62
7
  6
CONTINUOUS
 10
152.1753043074
 20
30.5937998301
 11
152.1753043074
 21
31.3358647082
  0
LINE
  8
0
 62
7
  6
CONTINUOUS
 10
152.1753043074
 20
31.4649194539
 11
152.1753043074
 21
32.1101932727
  0
LINE
  8
0
 62
7
  6
CONTINUOUS
 10
149.6315543091
 20
31.3036010218
 11
149.5737418074
 21
31.1100188581
  0
LINE
  8
0
 62
7
  6
CONTINUOUS
 10
149.9784292936
 20
30.8841730531
 11
149.8628043005
 21
31.0454914852
  0
LINE
  8
0
 62
7
  6
CONTINUOUS
 10
151.0768668626
 20
31.400392081
 11
151.1346793074
 21
31.3036010218
  0
LINE
  8
0
 62
7
  6
CONTINUOUS
 10
151.4237418626
 20
31.3036010218
 11
151.3659292523
 21
31.4326557675
  0
LINE
  8
0
 62
7
  6
CONTINUOUS
 10
152.852430332
 20
36.1675703219
 11
152.852430332
 21
34.3642916334
  0
LINE
  8
0
 62
7
  6
CONTINUOUS
 10
152.852430332
 20
33.0528162235
 11
152.852430332
 21
32.3970785186
  0
LINE
  8
0
 62
7
  6
CONTINUOUS
 10
153.2159293074
 20
31.2390736489
 11
153.2159293074
 21
30.5937998301
  0
LINE
  8
0
 62
7
  6
CONTINUOUS
 10
153.5049916972
 20
30.5937998301
 11
153.5049916972
 21
31.2390736489
  0
LINE
  8
0
 62
7
  6
CONTINUOUS
 10
149.8628043005
 20
31.1422825445
 11
149.9206168074
 21
31.2713373354
  0
LINE
  8
0
 62
7
  6
CONTINUOUS
 10
149.6315543091
 20
30.9164367395
 11
149.7471793074
 21
30.7873819712
  0
LINE
  8
0
 62
7
  6
CONTINUOUS
 10
153.1581166972
 20
31.3681283946
 11
153.2159293074
 21
31.2390736489
  0
LINE
  8
0
 62
7
  6
CONTINUOUS
 10
153.9674919177
 20
30.8841730531
 11
154.0253041972
 21
30.7551182848
  0
LINE
  8
0
 62
7
  6
CONTINUOUS
 10
153.5049916972
 20
31.2390736489
 11
153.4471794177
 21
31.400392081
  0
LINE
  8
0
 62
7
  6
CONTINUOUS
 10
153.9674919177
 20
31.4326557675
 11
153.9674919177
 21
31.3681283946
  0
LINE
  8
0
 62
7
  6
CONTINUOUS
 10
153.9674919177
 20
30.9809641124
 11
153.9674919177
 21
30.8841730531
  0
LINE
  8
0
 62
7
  6
CONTINUOUS
 10
154.245872955
 20
32.3970785186
 11
154.245872955
 21
36.1675703219
  0
LINE
  8
0
 62
7
  6
CONTINUOUS
 10
154.2565543074
 20
30.8519093441
 11
154.2565543074
 21
30.9164367395
  0
LINE
  8
0
 62
7
  6
CONTINUOUS
 10
154.5737418074
 20
36.1675703219
 11
154.5737418074
 21
32.3970785186
  0
LINE
  8
0
 62
7
  6
CONTINUOUS
 10
151.3659292523
 20
30.7873819712
 11
151.4237418626
 21
30.9164367395
  0
LINE
  8
0
 62
7
  6
CONTINUOUS
 10
155.759679528
 20
30.6905909007
 11
155.7018665869
 21
30.8519093441
  0
LINE
  8
0
 62
7
  6
CONTINUOUS
 10
155.412804528
 20
31.3681283946
 11
155.412804528
 21
31.2713373354
  0
LINE
  8
0
 62
7
  6
CONTINUOUS
 10
155.412804528
 20
31.1422825445
 11
155.412804528
 21
30.9487004259
  0
LINE
  8
0
 62
7
  6
CONTINUOUS
 10
155.7018665869
 20
30.8519093441
 11
155.7018665869
 21
31.3681283946
  0
LINE
  8
0
 62
7
  6
CONTINUOUS
 10
155.9671844304
 20
32.3970785186
 11
155.9671844304
 21
34.2003572071
  0
LINE
  8
0
 62
7
  6
CONTINUOUS
 10
155.9671844304
 20
35.511832617
 11
155.9671844304
 21
36.1675703219
  0
LINE
  8
0
 62
7
  6
CONTINUOUS
 10
156.279992028
 20
32.1101932727
 11
156.279992028
 21
31.9488748406
  0
LINE
  8
0
 62
7
  6
CONTINUOUS
 10
156.279992028
 20
31.626237886
 11
156.279992028
 21
30.5937998301
  0
LINE
  8
0
 62
7
  6
CONTINUOUS
 10
156.5690540869
 20
30.5937998301
 11
156.5690540869
 21
31.626237886
  0
LINE
  8
0
 62
7
  6
CONTINUOUS
 10
156.5690540869
 20
31.9488748406
 11
156.5690540869
 21
32.1101932727
  0
LINE
  8
0
 62
7
  6
CONTINUOUS
 10
151.1346793074
 20
30.9164367395
 11
151.0768668626
 21
30.8196456577
  0
LINE
  8
0
 62
7
  6
CONTINUOUS
 10
153.4471794177
 20
31.400392081
 11
153.3893668074
 21
31.4649194539
  0
LINE
  8
0
 62
7
  6
CONTINUOUS
 10
154.3143669177
 20
30.7873819712
 11
154.2565543074
 21
30.8519093441
  0
LINE
  8
0
 62
7
  6
CONTINUOUS
 10
155.4706168074
 20
30.6583272086
 11
155.5284290869
 21
30.5937998301
  0
LINE
  8
0
 62
7
  6
CONTINUOUS
 10
155.412804528
 20
30.7551182848
 11
155.4706168074
 21
30.6583272086
  0
LINE
  8
0
 62
7
  6
CONTINUOUS
 10
155.8174918074
 20
30.5937998301
 11
155.759679528
 21
30.6905909007
  0
LINE
  8
0
 62
7
  6
CONTINUOUS
 10
155.7018665869
 20
31.3681283946
 11
155.6440543074
 21
31.4649194539
  0
LINE
  8
0
 62
7
  6
CONTINUOUS
 10
157.0315543074
 20
31.626237886
 11
157.0315543074
 21
30.5937998301
  0
LINE
  8
0
 62
7
  6
CONTINUOUS
 10
157.320617028
 20
30.5937998301
 11
157.320617028
 21
31.3358647082
  0
LINE
  8
0
 62
7
  6
CONTINUOUS
 10
157.320617028
 20
31.4649194539
 11
157.320617028
 21
31.626237886
  0
LINE
  8
0
 62
7
  6
CONTINUOUS
 10
157.852430332
 20
34.6101932727
 11
157.852430332
 21
32.3970785186
  0
LINE
  8
0
 62
7
  6
CONTINUOUS
 10
149.7471793074
 20
31.4326557675
 11
149.6315543091
 21
31.3036010218
  0
LINE
  8
0
 62
7
  6
CONTINUOUS
 10
149.9206168074
 20
31.2713373354
 11
149.9784292936
 21
31.3358647082
  0
LINE
  8
0
 62
7
  6
CONTINUOUS
 10
149.7471793074
 20
30.7873819712
 11
149.8628043005
 21
30.7228545871
  0
LINE
  8
0
 62
7
  6
CONTINUOUS
 10
150.1518667936
 20
30.7873819712
 11
149.9784292936
 21
30.8841730531
  0
LINE
  8
0
 62
7
  6
CONTINUOUS
 10
155.3549915869
 20
31.4326557675
 11
155.412804528
 21
31.3681283946
  0
LINE
  8
0
 62
7
  6
CONTINUOUS
 10
158.3034290869
 20
31.3681283946
 11
158.361242028
 21
31.2068099625
  0
LINE
  8
0
 62
7
  6
CONTINUOUS
 10
158.6503040869
 20
31.2068099625
 11
158.5924918074
 21
31.3681283946
  0
LINE
  8
0
 62
7
  6
CONTINUOUS
 10
158.361242028
 20
31.2068099625
 11
158.361242028
 21
30.5937998301
  0
LINE
  8
0
 62
7
  6
CONTINUOUS
 10
158.6503040869
 20
30.5937998301
 11
158.6503040869
 21
31.2068099625
  0
LINE
  8
0
 62
7
  6
CONTINUOUS
 10
159.1128043074
 20
31.4326557675
 11
159.1128043074
 21
31.3681283946
  0
LINE
  8
0
 62
7
  6
CONTINUOUS
 10
159.245872955
 20
32.3970785186
 11
159.245872955
 21
34.5282260596
  0
LINE
  8
0
 62
7
  6
CONTINUOUS
 10
159.5737418074
 20
36.1675703219
 11
159.5737418074
 21
32.3970785186
  0
LINE
  8
0
 62
7
  6
CONTINUOUS
 10
154.2565543074
 20
30.9164367395
 11
154.3143669177
 21
31.0132277988
  0
LINE
  8
0
 62
7
  6
CONTINUOUS
 10
149.8628043005
 20
30.7228545871
 11
150.0362418212
 21
30.6583272086
  0
LINE
  8
0
 62
7
  6
CONTINUOUS
 10
151.3659292523
 20
31.4326557675
 11
151.1924917523
 21
31.5294468267
  0
LINE
  8
0
 62
7
  6
CONTINUOUS
 10
154.0253041972
 20
30.7551182848
 11
154.1987416972
 21
30.6583272086
  0
LINE
  8
0
 62
7
  6
CONTINUOUS
 10
153.0424918074
 20
31.4326557675
 11
153.1581166972
 21
31.3681283946
  0
LINE
  8
0
 62
7
  6
CONTINUOUS
 10
153.3893668074
 20
31.4649194539
 11
153.2737419177
 21
31.5294468267
  0
LINE
  8
0
 62
7
  6
CONTINUOUS
 10
159.1128043074
 20
30.8519093441
 11
159.228429528
 21
30.7228545871
  0
LINE
  8
0
 62
7
  6
CONTINUOUS
 10
159.4596793074
 20
30.7873819712
 11
159.401867028
 21
30.8519093441
  0
LINE
  8
0
 62
7
  6
CONTINUOUS
 10
159.1128043074
 20
31.3681283946
 11
159.228429528
 21
31.2390736489
  0
LINE
  8
0
 62
7
  6
CONTINUOUS
 10
158.5924918074
 20
31.3681283946
 11
158.534679528
 21
31.4649194539
  0
LINE
  8
0
 62
7
  6
CONTINUOUS
 10
160.9628038663
 20
30.7873819712
 11
160.9628038663
 21
30.8519093441
  0
LINE
  8
0
 62
7
  6
CONTINUOUS
 10
160.9671844304
 20
32.3970785186
 11
160.9671844304
 21
36.1675703219
  0
LINE
  8
0
 62
7
  6
CONTINUOUS
 10
154.0253041972
 20
31.4971831403
 11
153.9674919177
 21
31.4326557675
  0
LINE
  8
0
 62
7
  6
CONTINUOUS
 10
150.9034292799
 20
31.4649194539
 11
151.0768668626
 21
31.400392081
  0
LINE
  8
0
 62
7
  6
CONTINUOUS
 10
155.6440543074
 20
31.4649194539
 11
155.5284290869
 21
31.5294468267
  0
LINE
  8
0
 62
7
  6
CONTINUOUS
 10
159.4596793074
 20
31.3036010218
 11
159.401867028
 21
31.3681283946
  0
LINE
  8
0
 62
7
  6
CONTINUOUS
 10
160.615929528
 20
30.9164367395
 11
160.6737418074
 21
30.8519093441
  0
LINE
  8
0
 62
7
  6
CONTINUOUS
 10
160.9628038663
 20
30.8519093441
 11
160.8471793074
 21
30.9809641124
  0
LINE
  8
0
 62
7
  6
CONTINUOUS
 10
160.615929528
 20
31.4326557675
 11
160.6737418074
 21
31.3681283946
  0
LINE
  8
0
 62
7
  6
CONTINUOUS
 10
160.9628038663
 20
31.3681283946
 11
160.8471793074
 21
31.4971831403
  0
LINE
  8
0
 62
7
  6
CONTINUOUS
 10
154.2565543074
 20
31.3681283946
 11
154.3143669177
 21
31.4326557675
  0
LINE
  8
0
 62
7
  6
CONTINUOUS
 10
154.0831168074
 20
31.1100188581
 11
153.9674919177
 21
30.9809641124
  0
LINE
  8
0
 62
7
  6
CONTINUOUS
 10
155.412804528
 20
30.9487004259
 11
155.3549915869
 21
30.8841730531
  0
LINE
  8
0
 62
7
  6
CONTINUOUS
 10
155.3549915869
 20
30.6905909007
 11
155.412804528
 21
30.7551182848
  0
LINE
  8
0
 62
7
  6
CONTINUOUS
 10
154.1987416972
 20
30.6583272086
 11
154.3143669177
 21
30.6260635193
  0
LINE
  8
0
 62
7
  6
CONTINUOUS
 10
151.1924917523
 20
31.5294468267
 11
150.9612418074
 21
31.5939741996
  0
LINE
  8
0
 62
7
  6
CONTINUOUS
 10
154.5456166972
 20
30.7228545871
 11
154.3143669177
 21
30.7873819712
  0
LINE
  8
0
 62
7
  6
CONTINUOUS
 10
153.2737419177
 20
31.5294468267
 11
153.1003044177
 21
31.5939741996
  0
LINE
  8
0
 62
7
  6
CONTINUOUS
 10
155.5284290869
 20
31.5294468267
 11
155.3549915869
 21
31.5939741996
  0
LINE
  8
0
 62
7
  6
CONTINUOUS
 10
158.187804528
 20
31.4326557675
 11
158.3034290869
 21
31.3681283946
  0
LINE
  8
0
 62
7
  6
CONTINUOUS
 10
158.534679528
 20
31.4649194539
 11
158.4190543074
 21
31.5294468267
  0
LINE
  8
0
 62
7
  6
CONTINUOUS
 10
150.0362418212
 20
30.6583272086
 11
150.2096793212
 21
30.6260635193
  0
LINE
  8
0
 62
7
  6
CONTINUOUS
 10
150.498741835
 20
30.7228545871
 11
150.1518667936
 21
30.7873819712
  0
LINE
  8
0
 62
7
  6
CONTINUOUS
 10
152.9268669177
 20
31.4649194539
 11
153.0424918074
 21
31.4326557675
  0
LINE
  8
0
 62
7
  6
CONTINUOUS
 10
155.239367028
 20
31.4649194539
 11
155.3549915869
 21
31.4326557675
  0
LINE
  8
0
 62
7
  6
CONTINUOUS
 10
159.575304528
 20
30.7551182848
 11
159.4596793074
 21
30.7873819712
  0
LINE
  8
0
 62
7
  6
CONTINUOUS
 10
158.0721793074
 20
31.4649194539
 11
158.187804528
 21
31.4326557675
  0
LINE
  8
0
 62
7
  6
CONTINUOUS
 10
159.228429528
 20
30.7228545871
 11
159.401867028
 21
30.6583272086
  0
LINE
  8
0
 62
7
  6
CONTINUOUS
 10
158.4190543074
 20
31.5294468267
 11
158.2456168074
 21
31.5939741996
  0
LINE
  8
0
 62
7
  6
CONTINUOUS
 10
159.6331168074
 20
31.2390736489
 11
159.4596793074
 21
31.3036010218
  0
LINE
  8
0
 62
7
  6
CONTINUOUS
 10
160.442492028
 20
30.9809641124
 11
160.615929528
 21
30.9164367395
  0
LINE
  8
0
 62
7
  6
CONTINUOUS
 10
160.8471793074
 20
31.4971831403
 11
160.6737418074
 21
31.5617105132
  0
LINE
  8
0
 62
7
  6
CONTINUOUS
 10
159.228429528
 20
31.2390736489
 11
159.4596793074
 21
31.1422825445
  0
LINE
  8
0
 62
7
  6
CONTINUOUS
 10
160.8471793074
 20
30.9809641124
 11
160.615929528
 21
31.0777551716
  0
LINE
  8
0
 62
7
  6
CONTINUOUS
 10
159.401867028
 20
31.3681283946
 11
159.4596793074
 21
31.4326557675
  0
LINE
  8
0
 62
7
  6
CONTINUOUS
 10
149.8628043005
 20
31.4971831403
 11
149.7471793074
 21
31.4326557675
  0
LINE
  8
0
 62
7
  6
CONTINUOUS
 10
149.9784292936
 20
31.3358647082
 11
150.1518667936
 21
31.4326557675
  0
LINE
  8
0
 62
7
  6
CONTINUOUS
 10
152.2909293626
 20
31.5294468267
 11
152.1753043074
 21
31.4649194539
  0
LINE
  8
0
 62
7
  6
CONTINUOUS
 10
152.1753043074
 20
31.3358647082
 11
152.2909293626
 21
31.400392081
  0
LINE
  8
0
 62
7
  6
CONTINUOUS
 10
151.1924917523
 20
30.6905909007
 11
151.3659292523
 21
30.7873819712
  0
LINE
  8
0
 62
7
  6
CONTINUOUS
 10
150.2096793212
 20
30.6260635193
 11
150.5565542799
 21
30.5937998301
  0
LINE
  8
0
 62
7
  6
CONTINUOUS
 10
154.3143669177
 20
30.6260635193
 11
154.5456166972
 21
30.5937998301
  0
LINE
  8
0
 62
7
  6
CONTINUOUS
 10
152.6956168074
 20
31.4971831403
 11
152.9268669177
 21
31.4649194539
  0
LINE
  8
0
 62
7
  6
CONTINUOUS
 10
155.0081169177
 20
31.4971831403
 11
155.239367028
 21
31.4649194539
  0
LINE
  8
0
 62
7
  6
CONTINUOUS
 10
159.4596793074
 20
31.1422825445
 11
160.442492028
 21
30.9809641124
  0
LINE
  8
0
 62
7
  6
CONTINUOUS
 10
160.615929528
 20
31.0777551716
 11
159.6331168074
 21
31.2390736489
  0
LINE
  8
0
 62
7
  6
CONTINUOUS
 10
153.1003044177
 20
31.5939741996
 11
152.9268669177
 21
31.626237886
  0
LINE
  8
0
 62
7
  6
CONTINUOUS
 10
159.401867028
 20
30.6583272086
 11
159.575304528
 21
30.6260635193
  0
LINE
  8
0
 62
7
  6
CONTINUOUS
 10
158.2456168074
 20
31.5939741996
 11
158.0721793074
 21
31.626237886
  0
LINE
  8
0
 62
7
  6
CONTINUOUS
 10
160.5003043074
 20
31.4649194539
 11
160.615929528
 21
31.4326557675
  0
LINE
  8
0
 62
7
  6
CONTINUOUS
 10
160.6737418074
 20
30.8519093441
 11
160.615929528
 21
30.7873819712
  0
LINE
  8
0
 62
7
  6
CONTINUOUS
 10
159.228429528
 20
31.5294468267
 11
159.1128043074
 21
31.4326557675
  0
LINE
  8
0
 62
7
  6
CONTINUOUS
 10
154.1409294177
 20
31.5617105132
 11
154.0253041972
 21
31.4971831403
  0
LINE
  8
0
 62
7
  6
CONTINUOUS
 10
154.1987416972
 20
31.1745462761
 11
154.0831168074
 21
31.1100188581
  0
LINE
  8
0
 62
7
  6
CONTINUOUS
 10
154.3143669177
 20
31.0132277988
 11
154.4299918074
 21
31.0777551716
  0
LINE
  8
0
 62
7
  6
CONTINUOUS
 10
151.8862417523
 20
30.5937998301
 11
152.1753043074
 21
30.5937998301
  0
LINE
  8
0
 62
7
  6
CONTINUOUS
 10
153.2159293074
 20
30.5937998301
 11
153.5049916972
 21
30.5937998301
  0
LINE
  8
0
 62
7
  6
CONTINUOUS
 10
154.5456166972
 20
30.5937998301
 11
154.8924916972
 21
30.5937998301
  0
LINE
  8
0
 62
7
  6
CONTINUOUS
 10
155.5284290869
 20
30.5937998301
 11
155.8174918074
 21
30.5937998301
  0
LINE
  8
0
 62
7
  6
CONTINUOUS
 10
156.279992028
 20
30.5937998301
 11
156.5690540869
 21
30.5937998301
  0
LINE
  8
0
 62
7
  6
CONTINUOUS
 10
157.0315543074
 20
30.5937998301
 11
157.320617028
 21
30.5937998301
  0
LINE
  8
0
 62
7
  6
CONTINUOUS
 10
158.361242028
 20
30.5937998301
 11
158.6503040869
 21
30.5937998301
  0
LINE
  8
0
 62
7
  6
CONTINUOUS
 10
159.922179528
 20
30.5937998301
 11
160.269054528
 21
30.5937998301
  0
LINE
  8
0
 62
7
  6
CONTINUOUS
 10
160.269054528
 20
30.7228545871
 11
159.922179528
 21
30.7228545871
  0
LINE
  8
0
 62
7
  6
CONTINUOUS
 10
154.8924916972
 20
30.7228545871
 11
154.5456166972
 21
30.7228545871
  0
LINE
  8
0
 62
7
  6
CONTINUOUS
 10
159.401867028
 20
30.8519093441
 11
159.1128043074
 21
30.8519093441
  0
LINE
  8
0
 62
7
  6
CONTINUOUS
 10
151.4237418626
 20
30.9164367395
 11
151.1346793074
 21
30.9164367395
  0
LINE
  8
0
 62
7
  6
CONTINUOUS
 10
150.498741835
 20
31.4971831403
 11
150.9034292799
 21
31.4649194539
  0
LINE
  8
0
 62
7
  6
CONTINUOUS
 10
150.9612418074
 20
31.5939741996
 11
150.5565542799
 21
31.626237886
  0
LINE
  8
0
 62
7
  6
CONTINUOUS
 10
159.575304528
 20
30.6260635193
 11
159.922179528
 21
30.5937998301
  0
LINE
  8
0
 62
7
  6
CONTINUOUS
 10
159.922179528
 20
30.7228545871
 11
159.575304528
 21
30.7551182848
  0
LINE
  8
0
 62
7
  6
CONTINUOUS
 10
155.3549915869
 20
31.5939741996
 11
155.0081169177
 21
31.626237886
  0
LINE
  8
0
 62
7
  6
CONTINUOUS
 10
160.1534293074
 20
31.4971831403
 11
160.5003043074
 21
31.4649194539
  0
LINE
  8
0
 62
7
  6
CONTINUOUS
 10
160.5003043074
 20
31.5939741996
 11
160.1534293074
 21
31.626237886
  0
LINE
  8
0
 62
7
  6
CONTINUOUS
 10
157.840929528
 20
31.4971831403
 11
158.0721793074
 21
31.4649194539
  0
LINE
  8
0
 62
7
  6
CONTINUOUS
 10
160.6737418074
 20
31.5617105132
 11
160.5003043074
 21
31.5939741996
  0
LINE
  8
0
 62
7
  6
CONTINUOUS
 10
160.8471793074
 20
30.6905909007
 11
160.9628038663
 21
30.7873819712
  0
LINE
  8
0
 62
7
  6
CONTINUOUS
 10
155.3549915869
 20
30.8841730531
 11
155.1815540869
 21
30.7873819712
  0
LINE
  8
0
 62
7
  6
CONTINUOUS
 10
157.4362415869
 20
31.5294468267
 11
157.320617028
 21
31.4649194539
  0
LINE
  8
0
 62
7
  6
CONTINUOUS
 10
157.320617028
 20
31.3358647082
 11
157.4362415869
 21
31.400392081
  0
LINE
  8
0
 62
7
  6
CONTINUOUS
 10
150.0362418212
 20
31.5617105132
 11
149.8628043005
 21
31.4971831403
  0
LINE
  8
0
 62
7
  6
CONTINUOUS
 10
152.4643666972
 20
31.5939741996
 11
152.2909293626
 21
31.5294468267
  0
LINE
  8
0
 62
7
  6
CONTINUOUS
 10
152.2909293626
 20
31.400392081
 11
152.4643666972
 21
31.4649194539
  0
LINE
  8
0
 62
7
  6
CONTINUOUS
 10
151.0768668626
 20
30.8196456577
 11
150.9034292799
 21
30.7551182848
  0
LINE
  8
0
 62
7
  6
CONTINUOUS
 10
160.5003043074
 20
30.7551182848
 11
160.269054528
 21
30.7228545871
  0
LINE
  8
0
 62
7
  6
CONTINUOUS
 10
154.8924916972
 20
30.5937998301
 11
155.1815540869
 21
30.6260635193
  0
LINE
  8
0
 62
7
  6
CONTINUOUS
 10
160.269054528
 20
30.5937998301
 11
160.615929528
 21
30.6260635193
  0
LINE
  8
0
 62
7
  6
CONTINUOUS
 10
150.5565542799
 20
30.5937998301
 11
150.9612418074
 21
30.6260635193
  0
LINE
  8
0
 62
7
  6
CONTINUOUS
 10
150.9034292799
 20
30.7551182848
 11
150.498741835
 21
30.7228545871
  0
LINE
  8
0
 62
7
  6
CONTINUOUS
 10
154.7768668074
 20
31.1422825445
 11
155.412804528
 21
31.1422825445
  0
LINE
  8
0
 62
7
  6
CONTINUOUS
 10
155.412804528
 20
31.2713373354
 11
154.7768668074
 21
31.2713373354
  0
LINE
  8
0
 62
7
  6
CONTINUOUS
 10
151.1346793074
 20
31.3036010218
 11
151.4237418626
 21
31.3036010218
  0
LINE
  8
0
 62
7
  6
CONTINUOUS
 10
153.9674919177
 20
31.3681283946
 11
154.2565543074
 21
31.3681283946
  0
LINE
  8
0
 62
7
  6
CONTINUOUS
 10
160.6737418074
 20
31.3681283946
 11
160.9628038663
 21
31.3681283946
  0
LINE
  8
0
 62
7
  6
CONTINUOUS
 10
154.6612419177
 20
31.4971831403
 11
155.0081169177
 21
31.4971831403
  0
LINE
  8
0
 62
7
  6
CONTINUOUS
 10
159.8065543074
 20
31.4971831403
 11
160.1534293074
 21
31.4971831403
  0
LINE
  8
0
 62
7
  6
CONTINUOUS
 10
160.1534293074
 20
31.626237886
 11
159.8065543074
 21
31.626237886
  0
LINE
  8
0
 62
7
  6
CONTINUOUS
 10
158.0721793074
 20
31.626237886
 11
157.840929528
 21
31.626237886
  0
LINE
  8
0
 62
7
  6
CONTINUOUS
 10
157.320617028
 20
31.626237886
 11
157.0315543074
 21
31.626237886
  0
LINE
  8
0
 62
7
  6
CONTINUOUS
 10
156.5690540869
 20
31.626237886
 11
156.279992028
 21
31.626237886
  0
LINE
  8
0
 62
7
  6
CONTINUOUS
 10
155.0081169177
 20
31.626237886
 11
154.6612419177
 21
31.626237886
  0
LINE
  8
0
 62
7
  6
CONTINUOUS
 10
152.9268669177
 20
31.626237886
 11
152.6956168074
 21
31.626237886
  0
LINE
  8
0
 62
7
  6
CONTINUOUS
 10
156.279992028
 20
31.9488748406
 11
156.5690540869
 21
31.9488748406
  0
LINE
  8
0
 62
7
  6
CONTINUOUS
 10
156.5690540869
 20
32.1101932727
 11
156.279992028
 21
32.1101932727
  0
LINE
  8
0
 62
7
  6
CONTINUOUS
 10
152.1753043074
 20
32.1101932727
 11
151.8862417523
 21
32.1101932727
  0
LINE
  8
0
 62
7
  6
CONTINUOUS
 10
151.2130860697
 20
32.3970785186
 11
151.6256574183
 21
32.3970785186
  0
LINE
  8
0
 62
7
  6
CONTINUOUS
 10
152.852430332
 20
32.3970785186
 11
154.245872955
 21
32.3970785186
  0
LINE
  8
0
 62
7
  6
CONTINUOUS
 10
154.5737418074
 20
32.3970785186
 11
155.9671844304
 21
32.3970785186
  0
LINE
  8
0
 62
7
  6
CONTINUOUS
 10
157.852430332
 20
32.3970785186
 11
159.245872955
 21
32.3970785186
  0
LINE
  8
0
 62
7
  6
CONTINUOUS
 10
159.5737418074
 20
32.3970785186
 11
160.9671844304
 21
32.3970785186
  0
LINE
  8
0
 62
7
  6
CONTINUOUS
 10
157.6096790869
 20
31.5939741996
 11
157.4362415869
 21
31.5294468267
  0
LINE
  8
0
 62
7
  6
CONTINUOUS
 10
155.1815540869
 20
30.6260635193
 11
155.3549915869
 21
30.6905909007
  0
LINE
  8
0
 62
7
  6
CONTINUOUS
 10
160.615929528
 20
30.6260635193
 11
160.8471793074
 21
30.6905909007
  0
LINE
  8
0
 62
7
  6
CONTINUOUS
 10
160.615929528
 20
30.7873819712
 11
160.5003043074
 21
30.7551182848
  0
LINE
  8
0
 62
7
  6
CONTINUOUS
 10
159.575304528
 20
31.4649194539
 11
159.8065543074
 21
31.4971831403
  0
LINE
  8
0
 62
7
  6
CONTINUOUS
 10
157.6096790869
 20
31.4649194539
 11
157.840929528
 21
31.4971831403
  0
LINE
  8
0
 62
7
  6
CONTINUOUS
 10
154.5456166972
 20
31.1100188581
 11
154.7768668074
 21
31.1422825445
  0
LINE
  8
0
 62
7
  6
CONTINUOUS
 10
157.840929528
 20
31.626237886
 11
157.6096790869
 21
31.5939741996
  0
LINE
  8
0
 62
7
  6
CONTINUOUS
 10
154.4299918074
 20
31.4649194539
 11
154.6612419177
 21
31.4971831403
  0
LINE
  8
0
 62
7
  6
CONTINUOUS
 10
159.8065543074
 20
31.626237886
 11
159.4596793074
 21
31.5939741996
  0
LINE
  8
0
 62
7
  6
CONTINUOUS
 10
154.7768668074
 20
31.2713373354
 11
154.4299918074
 21
31.2390736489
  0
LINE
  8
0
 62
7
  6
CONTINUOUS
 10
150.5565542799
 20
31.626237886
 11
150.2096793212
 21
31.5939741996
  0
LINE
  8
0
 62
7
  6
CONTINUOUS
 10
154.6612419177
 20
31.626237886
 11
154.2565543074
 21
31.5939741996
  0
LINE
  8
0
 62
7
  6
CONTINUOUS
 10
152.0327582009
 20
33.5446195022
 11
151.3770204959
 21
33.5446195022
  0
LINE
  8
0
 62
7
  6
CONTINUOUS
 10
157.4362415869
 20
31.400392081
 11
157.6096790869
 21
31.4649194539
  0
LINE
  8
0
 62
7
  6
CONTINUOUS
 10
159.4596793074
 20
31.4326557675
 11
159.575304528
 21
31.4649194539
  0
LINE
  8
0
 62
7
  6
CONTINUOUS
 10
159.4596793074
 20
31.5939741996
 11
159.228429528
 21
31.5294468267
  0
LINE
  8
0
 62
7
  6
CONTINUOUS
 10
155.1815540869
 20
30.7873819712
 11
154.8924916972
 21
30.7228545871
  0
LINE
  8
0
 62
7
  6
CONTINUOUS
 10
152.4643666972
 20
31.4649194539
 11
152.6956168074
 21
31.4971831403
  0
LINE
  8
0
 62
7
  6
CONTINUOUS
 10
152.6956168074
 20
31.626237886
 11
152.4643666972
 21
31.5939741996
  0
LINE
  8
0
 62
7
  6
CONTINUOUS
 10
150.2674918074
 20
31.4649194539
 11
150.498741835
 21
31.4971831403
  0
LINE
  8
0
 62
7
  6
CONTINUOUS
 10
156.7868565615
 20
35.0200293383
 11
157.4425942664
 21
35.0200293383
  0
LINE
  8
0
 62
7
  6
CONTINUOUS
 10
154.4299918074
 20
31.0777551716
 11
154.5456166972
 21
31.1100188581
  0
LINE
  8
0
 62
7
  6
CONTINUOUS
 10
154.4299918074
 20
31.2390736489
 11
154.1987416972
 21
31.1745462761
  0
LINE
  8
0
 62
7
  6
CONTINUOUS
 10
154.3143669177
 20
31.4326557675
 11
154.4299918074
 21
31.4649194539
  0
LINE
  8
0
 62
7
  6
CONTINUOUS
 10
150.9612418074
 20
30.6260635193
 11
151.1924917523
 21
30.6905909007
  0
LINE
  8
0
 62
7
  6
CONTINUOUS
 10
154.2565543074
 20
31.5939741996
 11
154.1409294177
 21
31.5617105132
  0
LINE
  8
0
 62
7
  6
CONTINUOUS
 10
150.2096793212
 20
31.5939741996
 11
150.0362418212
 21
31.5617105132
  0
LINE
  8
0
 62
7
  6
CONTINUOUS
 10
160.9671844304
 20
36.1675703219
 11
159.5737418074
 21
36.1675703219
  0
LINE
  8
0
 62
7
  6
CONTINUOUS
 10
157.6065286927
 20
36.1675703219
 11
157.1939573441
 21
36.1675703219
  0
LINE
  8
0
 62
7
  6
CONTINUOUS
 10
155.9671844304
 20
36.1675703219
 11
154.5737418074
 21
36.1675703219
  0
LINE
  8
0
 62
7
  6
CONTINUOUS
 10
154.245872955
 20
36.1675703219
 11
152.852430332
 21
36.1675703219
  0
LINE
  8
0
 62
7
  6
CONTINUOUS
 10
150.9671844304
 20
36.1675703219
 11
149.5737418074
 21
36.1675703219
  0
LINE
  8
0
 62
7
  6
CONTINUOUS
 10
150.1518667936
 20
31.4326557675
 11
150.2674918074
 21
31.4649194539
  0
CIRCLE
  8
0
 62
7
  6
CONTINUOUS
 10
160.2704631189
 20
38.5036358957
 40
2.0901639344
  0
ARC
  8
0
 62
7
  6
CONTINUOUS
 10
151.2130860697
 20
34.0364227809
 40
1.6393442623
 50
180.0
 51
270.0
  0
ARC
  8
0
 62
7
  6
CONTINUOUS
 10
157.6065286927
 20
34.5282260596
 40
1.6393442623
 50
0.0
 51
90.0
  0
ARC
  8
0
 62
7
  6
CONTINUOUS
 10
151.6256574183
 20
33.8724883547
 40
1.4754098361
 50
270.0
 51
326.2510114041
  0
ARC
  8
0
 62
7
  6
CONTINUOUS
 10
157.1939573441
 20
34.6921604858
 40
1.4754098361
 50
90.0
 51
146.2510114041
  0
ARC
  8
0
 62
7
  6
CONTINUOUS
 10
152.0327582009
 20
34.3642916334
 40
0.8196721311
 50
270.0
 51
360.0
  0
ARC
  8
0
 62
7
  6
CONTINUOUS
 10
156.7868565615
 20
34.2003572071
 40
0.8196721311
 50
90.0
 51
180.0
  0
ARC
  8
0
 62
7
  6
CONTINUOUS
 10
151.3770204959
 20
33.9544555678
 40
0.4098360656
 50
180.0
 51
270.0
  0
ARC
  8
0
 62
7
  6
CONTINUOUS
 10
157.4425942664
 20
34.6101932727
 40
0.4098360656
 50
0.0
 51
90.0
  0
SOLID
  8
0
 62
7
  6
CONTINUOUS
 10
156.279992028
 20
31.9488752009
 11
156.279992028
 21
32.1101936845
 12
156.5690540869
 22
31.9488752009
 13
156.5690540869
 23
32.1101936845
  0
SOLID
  8
0
 62
7
  6
CONTINUOUS
 10
150.5565542799
 20
31.6262382337
 11
150.9612418074
 21
31.5939740028
 12
150.2096793212
 22
31.5939740028
 13
150.2096793212
 23
31.5939740028
  0
SOLID
  8
0
 62
7
  6
CONTINUOUS
 10
150.0362418212
 20
31.5617111435
 11
150.2096793212
 21
31.5939740028
 12
150.9612418074
 22
31.5939740028
 13
150.9612418074
 23
31.5939740028
  0
SOLID
  8
0
 62
7
  6
CONTINUOUS
 10
150.9612418074
 20
31.5939740028
 11
151.1924917523
 21
31.5294468402
 12
150.0362418212
 22
31.5617111435
 13
150.0362418212
 23
31.5617111435
  0
SOLID
  8
0
 62
7
  6
CONTINUOUS
 10
149.8628043005
 20
31.49718259
 11
150.0362418212
 21
31.5617111435
 12
151.1924917523
 22
31.5294468402
 13
151.1924917523
 23
31.5294468402
  0
SOLID
  8
0
 62
7
  6
CONTINUOUS
 10
149.8628043005
 20
31.49718259
 11
151.1924917523
 21
31.5294468402
 12
150.498741835
 22
31.49718259
 13
150.498741835
 23
31.49718259
  0
SOLID
  8
0
 62
7
  6
CONTINUOUS
 10
150.498741835
 20
31.49718259
 11
151.1924917523
 21
31.5294468402
 12
150.9034292799
 22
31.4649197501
 13
150.9034292799
 23
31.4649197501
  0
SOLID
  8
0
 62
7
  6
CONTINUOUS
 10
151.1924917523
 20
31.5294468402
 11
151.3659292523
 21
31.4326554468
 12
150.9034292799
 22
31.4649197501
 13
150.9034292799
 23
31.4649197501
  0
SOLID
  8
0
 62
7
  6
CONTINUOUS
 10
151.0768668626
 20
31.4003926599
 11
150.9034292799
 21
31.4649197501
 12
151.3659292523
 22
31.4326554468
 13
151.3659292523
 23
31.4326554468
  0
SOLID
  8
0
 62
7
  6
CONTINUOUS
 10
151.0768668626
 20
31.4003926599
 11
151.3659292523
 21
31.4326554468
 12
151.1346793074
 22
31.3036013776
 13
151.1346793074
 23
31.3036013776
  0
SOLID
  8
0
 62
7
  6
CONTINUOUS
 10
151.3659292523
 20
31.4326554468
 11
151.4237418626
 21
31.3036013776
 12
151.1346793074
 22
31.3036013776
 13
151.1346793074
 23
31.3036013776
  0
SOLID
  8
0
 62
7
  6
CONTINUOUS
 10
152.4643666972
 20
31.5939739754
 11
152.6956168074
 21
31.6262382787
 12
152.9268669177
 22
31.6262382787
 13
152.9268669177
 23
31.6262382787
  0
SOLID
  8
0
 62
7
  6
CONTINUOUS
 10
152.9268669177
 20
31.6262382787
 11
153.1003044177
 21
31.5939739754
 12
152.4643666972
 22
31.5939739754
 13
152.4643666972
 23
31.5939739754
  0
SOLID
  8
0
 62
7
  6
CONTINUOUS
 10
152.2909293626
 20
31.5294468852
 11
152.4643666972
 21
31.5939739754
 12
153.1003044177
 22
31.5939739754
 13
153.1003044177
 23
31.5939739754
  0
SOLID
  8
0
 62
7
  6
CONTINUOUS
 10
153.1003044177
 20
31.5939739754
 11
153.2737419177
 21
31.5294468852
 12
152.2909293626
 22
31.5294468852
 13
152.2909293626
 23
31.5294468852
  0
SOLID
  8
0
 62
7
  6
CONTINUOUS
 10
153.2737419177
 20
31.5294468852
 11
152.6956168074
 21
31.4971825369
 12
152.2909293626
 22
31.5294468852
 13
152.2909293626
 23
31.5294468852
  0
SOLID
  8
0
 62
7
  6
CONTINUOUS
 10
152.1753043074
 20
31.4649197951
 11
152.2909293626
 21
31.5294468852
 12
152.6956168074
 22
31.4971825369
 13
152.6956168074
 23
31.4971825369
  0
SOLID
  8
0
 62
7
  6
CONTINUOUS
 10
152.6956168074
 20
31.4971825369
 11
152.4643666972
 21
31.4649197951
 12
152.1753043074
 22
31.4649197951
 13
152.1753043074
 23
31.4649197951
  0
SOLID
  8
0
 62
7
  6
CONTINUOUS
 10
152.6956168074
 20
31.4971825369
 11
153.2737419177
 21
31.5294468852
 12
152.9268669177
 22
31.4649197951
 13
152.9268669177
 23
31.4649197951
  0
SOLID
  8
0
 62
7
  6
CONTINUOUS
 10
153.2737419177
 20
31.5294468852
 11
153.3893668074
 21
31.4649197951
 12
152.9268669177
 22
31.4649197951
 13
152.9268669177
 23
31.4649197951
  0
SOLID
  8
0
 62
7
  6
CONTINUOUS
 10
153.0424918074
 20
31.4326554468
 11
152.9268669177
 21
31.4649197951
 12
153.3893668074
 22
31.4649197951
 13
153.3893668074
 23
31.4649197951
  0
SOLID
  8
0
 62
7
  6
CONTINUOUS
 10
153.3893668074
 20
31.4649197951
 11
153.4471794177
 21
31.4003927049
 12
153.0424918074
 22
31.4326554468
 13
153.0424918074
 23
31.4326554468
  0
SOLID
  8
0
 62
7
  6
CONTINUOUS
 10
153.1581166972
 20
31.3681283566
 11
153.0424918074
 21
31.4326554468
 12
153.4471794177
 22
31.4003927049
 13
153.4471794177
 23
31.4003927049
  0
SOLID
  8
0
 62
7
  6
CONTINUOUS
 10
153.1581166972
 20
31.3681283566
 11
153.4471794177
 21
31.4003927049
 12
153.2159293074
 22
31.2390742213
 13
153.2159293074
 23
31.2390742213
  0
SOLID
  8
0
 62
7
  6
CONTINUOUS
 10
153.4471794177
 20
31.4003927049
 11
153.5049916972
 21
31.2390742213
 12
153.2159293074
 22
31.2390742213
 13
153.2159293074
 23
31.2390742213
  0
SOLID
  8
0
 62
7
  6
CONTINUOUS
 10
152.4643666972
 20
31.4649197951
 11
152.2909293626
 21
31.4003927049
 12
152.1753043074
 22
31.4649197951
 13
152.1753043074
 23
31.4649197951
  0
SOLID
  8
0
 62
7
  6
CONTINUOUS
 10
152.2909293626
 20
31.4003927049
 11
152.1753043074
 21
31.3358640533
 12
152.1753043074
 22
31.4649197951
 13
152.1753043074
 23
31.4649197951
  0
SOLID
  8
0
 62
7
  6
CONTINUOUS
 10
152.1753043074
 20
31.3358640533
 11
151.8862417523
 21
30.5938002869
 12
152.1753043074
 22
31.4649197951
 13
152.1753043074
 23
31.4649197951
  0
SOLID
  8
0
 62
7
  6
CONTINUOUS
 10
152.1753043074
 20
31.4649197951
 11
151.8862417523
 21
30.5938002869
 12
152.1753043074
 22
32.1101937295
 13
152.1753043074
 23
32.1101937295
  0
SOLID
  8
0
 62
7
  6
CONTINUOUS
 10
151.8862417523
 20
30.5938002869
 11
151.8862417523
 21
32.1101937295
 12
152.1753043074
 22
32.1101937295
 13
152.1753043074
 23
32.1101937295
  0
SOLID
  8
0
 62
7
  6
CONTINUOUS
 10
152.1753043074
 20
31.3358640533
 11
152.1753043074
 21
30.5938002869
 12
151.8862417523
 22
30.5938002869
 13
151.8862417523
 23
30.5938002869
  0
SOLID
  8
0
 62
7
  6
CONTINUOUS
 10
153.2159293074
 20
30.5938002869
 11
153.2159293074
 21
31.2390742213
 12
153.5049916972
 22
31.2390742213
 13
153.5049916972
 23
31.2390742213
  0
SOLID
  8
0
 62
7
  6
CONTINUOUS
 10
153.5049916972
 20
31.2390742213
 11
153.5049916972
 21
30.5938002869
 12
153.2159293074
 22
30.5938002869
 13
153.2159293074
 23
30.5938002869
  0
SOLID
  8
0
 62
7
  6
CONTINUOUS
 10
154.2565543074
 20
31.5939738288
 11
154.6612419177
 21
31.6262385959
 12
155.0081169177
 22
31.6262385959
 13
155.0081169177
 23
31.6262385959
  0
SOLID
  8
0
 62
7
  6
CONTINUOUS
 10
155.0081169177
 20
31.6262385959
 11
155.3549915869
 21
31.5939738288
 12
154.2565543074
 22
31.5939738288
 13
154.2565543074
 23
31.5939738288
  0
SOLID
  8
0
 62
7
  6
CONTINUOUS
 10
154.1409294177
 20
31.5617111435
 11
154.2565543074
 21
31.5939738288
 12
155.3549915869
 22
31.5939738288
 13
155.3549915869
 23
31.5939738288
  0
SOLID
  8
0
 62
7
  6
CONTINUOUS
 10
155.3549915869
 20
31.5939738288
 11
155.5284290869
 21
31.5294468402
 12
154.1409294177
 22
31.5617111435
 13
154.1409294177
 23
31.5617111435
  0
SOLID
  8
0
 62
7
  6
CONTINUOUS
 10
154.0253041972
 20
31.4971826249
 11
154.1409294177
 21
31.5617111435
 12
155.5284290869
 22
31.5294468402
 13
155.5284290869
 23
31.5294468402
  0
SOLID
  8
0
 62
7
  6
CONTINUOUS
 10
154.0253041972
 20
31.4971826249
 11
155.5284290869
 21
31.5294468402
 12
154.6612419177
 22
31.4971826249
 13
154.6612419177
 23
31.4971826249
  0
SOLID
  8
0
 62
7
  6
CONTINUOUS
 10
154.6612419177
 20
31.4971826249
 11
155.5284290869
 21
31.5294468402
 12
155.0081169177
 22
31.4971826249
 13
155.0081169177
 23
31.4971826249
  0
SOLID
  8
0
 62
7
  6
CONTINUOUS
 10
155.0081169177
 20
31.4971826249
 11
155.5284290869
 21
31.5294468402
 12
155.239367028
 22
31.4649194065
 13
155.239367028
 23
31.4649194065
  0
SOLID
  8
0
 62
7
  6
CONTINUOUS
 10
155.5284290869
 20
31.5294468402
 11
155.6440543074
 21
31.4649194065
 12
155.239367028
 22
31.4649194065
 13
155.239367028
 23
31.4649194065
  0
SOLID
  8
0
 62
7
  6
CONTINUOUS
 10
153.9674919177
 20
31.4326554138
 11
154.0253041972
 21
31.4971826249
 12
154.6612419177
 22
31.4971826249
 13
154.6612419177
 23
31.4971826249
  0
SOLID
  8
0
 62
7
  6
CONTINUOUS
 10
155.3549915869
 20
31.4326554138
 11
155.239367028
 21
31.4649194065
 12
155.6440543074
 22
31.4649194065
 13
155.6440543074
 23
31.4649194065
  0
SOLID
  8
0
 62
7
  6
CONTINUOUS
 10
155.3549915869
 20
31.4326554138
 11
155.6440543074
 21
31.4649194065
 12
155.412804528
 22
31.3681282026
 13
155.412804528
 23
31.3681282026
  0
SOLID
  8
0
 62
7
  6
CONTINUOUS
 10
155.6440543074
 20
31.4649194065
 11
155.7018665869
 21
31.3681282026
 12
155.412804528
 22
31.3681282026
 13
155.412804528
 23
31.3681282026
  0
SOLID
  8
0
 62
7
  6
CONTINUOUS
 10
155.412804528
 20
31.2713369632
 11
155.412804528
 21
31.3681282026
 12
155.7018665869
 22
31.3681282026
 13
155.7018665869
 23
31.3681282026
  0
SOLID
  8
0
 62
7
  6
CONTINUOUS
 10
155.412804528
 20
31.2713369632
 11
155.7018665869
 21
31.3681282026
 12
155.412804528
 22
31.1422827828
 13
155.412804528
 23
31.1422827828
  0
SOLID
  8
0
 62
7
  6
CONTINUOUS
 10
155.412804528
 20
31.1422827828
 11
155.7018665869
 21
31.3681282026
 12
155.412804528
 22
30.9487004259
 13
155.412804528
 23
30.9487004259
  0
SOLID
  8
0
 62
7
  6
CONTINUOUS
 10
155.7018665869
 20
31.3681282026
 11
155.7018665869
 21
30.8519086025
 12
155.412804528
 22
30.9487004259
 13
155.412804528
 23
30.9487004259
  0
SOLID
  8
0
 62
7
  6
CONTINUOUS
 10
157.6096790869
 20
31.5939736268
 11
157.840929528
 21
31.6262383465
 12
158.0721793074
 22
31.6262383465
 13
158.0721793074
 23
31.6262383465
  0
SOLID
  8
0
 62
7
  6
CONTINUOUS
 10
158.0721793074
 20
31.6262383465
 11
158.2456168074
 21
31.5939736268
 12
157.6096790869
 22
31.5939736268
 13
157.6096790869
 23
31.5939736268
  0
SOLID
  8
0
 62
7
  6
CONTINUOUS
 10
157.4362415869
 20
31.5294472848
 11
157.6096790869
 21
31.5939736268
 12
158.2456168074
 22
31.5939736268
 13
158.2456168074
 23
31.5939736268
  0
SOLID
  8
0
 62
7
  6
CONTINUOUS
 10
158.2456168074
 20
31.5939736268
 11
158.4190543074
 21
31.5294472848
 12
157.4362415869
 22
31.5294472848
 13
157.4362415869
 23
31.5294472848
  0
SOLID
  8
0
 62
7
  6
CONTINUOUS
 10
158.4190543074
 20
31.5294472848
 11
157.840929528
 21
31.4971825369
 12
157.4362415869
 22
31.5294472848
 13
157.4362415869
 23
31.5294472848
  0
SOLID
  8
0
 62
7
  6
CONTINUOUS
 10
157.320617028
 20
31.4649199103
 11
157.4362415869
 21
31.5294472848
 12
157.840929528
 22
31.4971825369
 13
157.840929528
 23
31.4971825369
  0
SOLID
  8
0
 62
7
  6
CONTINUOUS
 10
157.840929528
 20
31.4971825369
 11
157.6096790869
 21
31.4649199103
 12
157.320617028
 22
31.4649199103
 13
157.320617028
 23
31.4649199103
  0
SOLID
  8
0
 62
7
  6
CONTINUOUS
 10
157.840929528
 20
31.4971825369
 11
158.4190543074
 21
31.5294472848
 12
158.0721793074
 22
31.4649199103
 13
158.0721793074
 23
31.4649199103
  0
SOLID
  8
0
 62
7
  6
CONTINUOUS
 10
158.4190543074
 20
31.5294472848
 11
158.534679528
 21
31.4649199103
 12
158.0721793074
 22
31.4649199103
 13
158.0721793074
 23
31.4649199103
  0
SOLID
  8
0
 62
7
  6
CONTINUOUS
 10
158.187804528
 20
31.4326554468
 11
158.0721793074
 21
31.4649199103
 12
158.534679528
 22
31.4649199103
 13
158.534679528
 23
31.4649199103
  0
SOLID
  8
0
 62
7
  6
CONTINUOUS
 10
158.187804528
 20
31.4326554468
 11
158.534679528
 21
31.4649199103
 12
158.3034290869
 22
31.3681288486
 13
158.3034290869
 23
31.3681288486
  0
SOLID
  8
0
 62
7
  6
CONTINUOUS
 10
158.534679528
 20
31.4649199103
 11
158.5924918074
 21
31.3681288486
 12
158.3034290869
 22
31.3681288486
 13
158.3034290869
 23
31.3681288486
  0
SOLID
  8
0
 62
7
  6
CONTINUOUS
 10
158.361242028
 20
31.2068093799
 11
158.3034290869
 21
31.3681288486
 12
158.5924918074
 22
31.3681288486
 13
158.5924918074
 23
31.3681288486
  0
SOLID
  8
0
 62
7
  6
CONTINUOUS
 10
158.5924918074
 20
31.3681288486
 11
158.6503040869
 21
31.2068093799
 12
158.361242028
 22
31.2068093799
 13
158.361242028
 23
31.2068093799
  0
SOLID
  8
0
 62
7
  6
CONTINUOUS
 10
157.6096790869
 20
31.4649199103
 11
157.4362415869
 21
31.4003926599
 12
157.320617028
 22
31.4649199103
 13
157.320617028
 23
31.4649199103
  0
SOLID
  8
0
 62
7
  6
CONTINUOUS
 10
157.4362415869
 20
31.4003926599
 11
157.320617028
 21
31.3358640533
 12
157.320617028
 22
31.4649199103
 13
157.320617028
 23
31.4649199103
  0
SOLID
  8
0
 62
7
  6
CONTINUOUS
 10
157.320617028
 20
31.3358640533
 11
157.0315543074
 21
30.5938003547
 12
157.320617028
 22
31.4649199103
 13
157.320617028
 23
31.4649199103
  0
SOLID
  8
0
 62
7
  6
CONTINUOUS
 10
157.320617028
 20
31.4649199103
 11
157.0315543074
 21
30.5938003547
 12
157.320617028
 22
31.6262383465
 13
157.320617028
 23
31.6262383465
  0
SOLID
  8
0
 62
7
  6
CONTINUOUS
 10
157.0315543074
 20
30.5938003547
 11
157.0315543074
 21
31.6262383465
 12
157.320617028
 22
31.6262383465
 13
157.320617028
 23
31.6262383465
  0
SOLID
  8
0
 62
7
  6
CONTINUOUS
 10
157.320617028
 20
31.3358640533
 11
157.320617028
 21
30.5938003547
 12
157.0315543074
 22
30.5938003547
 13
157.0315543074
 23
30.5938003547
  0
SOLID
  8
0
 62
7
  6
CONTINUOUS
 10
158.361242028
 20
30.5938003547
 11
158.361242028
 21
31.2068093799
 12
158.6503040869
 22
31.2068093799
 13
158.6503040869
 23
31.2068093799
  0
SOLID
  8
0
 62
7
  6
CONTINUOUS
 10
158.6503040869
 20
31.2068093799
 11
158.6503040869
 21
30.5938003547
 12
158.361242028
 22
30.5938003547
 13
158.361242028
 23
30.5938003547
  0
SOLID
  8
0
 62
7
  6
CONTINUOUS
 10
159.4596793074
 20
31.5939739474
 11
159.8065543074
 21
31.6262381969
 12
160.1534293074
 22
31.6262381969
 13
160.1534293074
 23
31.6262381969
  0
SOLID
  8
0
 62
7
  6
CONTINUOUS
 10
160.1534293074
 20
31.6262381969
 11
160.5003043074
 21
31.5939739474
 12
159.4596793074
 22
31.5939739474
 13
159.4596793074
 23
31.5939739474
  0
SOLID
  8
0
 62
7
  6
CONTINUOUS
 10
159.228429528
 20
31.5294468402
 11
159.4596793074
 21
31.5939739474
 12
160.5003043074
 22
31.5939739474
 13
160.5003043074
 23
31.5939739474
  0
SOLID
  8
0
 62
7
  6
CONTINUOUS
 10
159.228429528
 20
31.5294468402
 11
160.5003043074
 21
31.5939739304
 12
160.6737418074
 22
31.5617111435
 13
160.6737418074
 23
31.5617111435
  0
SOLID
  8
0
 62
7
  6
CONTINUOUS
 10
159.228429528
 20
31.5294468402
 11
160.6737418074
 21
31.5617111435
 12
159.8065543074
 22
31.4971825592
 13
159.8065543074
 23
31.4971825592
  0
SOLID
  8
0
 62
7
  6
CONTINUOUS
 10
159.8065543074
 20
31.4971825592
 11
160.6737418074
 21
31.5617111435
 12
160.1534293074
 22
31.4971825592
 13
160.1534293074
 23
31.4971825592
  0
SOLID
  8
0
 62
7
  6
CONTINUOUS
 10
160.6737418074
 20
31.5617111435
 11
160.8471793074
 21
31.4971825592
 12
160.1534293074
 22
31.4971825592
 13
160.1534293074
 23
31.4971825592
  0
SOLID
  8
0
 62
7
  6
CONTINUOUS
 10
160.5003043074
 20
31.4649197501
 11
160.1534293074
 21
31.4971825592
 12
160.8471793074
 22
31.4971825592
 13
160.8471793074
 23
31.4971825592
  0
SOLID
  8
0
 62
7
  6
CONTINUOUS
 10
159.1128043074
 20
31.4326555427
 11
159.228429528
 21
31.5294468402
 12
159.8065543074
 22
31.4971825592
 13
159.8065543074
 23
31.4971825592
  0
SOLID
  8
0
 62
7
  6
CONTINUOUS
 10
160.5003043074
 20
31.4649197501
 11
160.8471793074
 21
31.4971825592
 12
160.615929528
 22
31.4326555427
 13
160.615929528
 23
31.4326555427
  0
SOLID
  8
0
 62
7
  6
CONTINUOUS
 10
160.615929528
 20
31.4326555427
 11
160.8471793074
 21
31.4971825592
 12
160.6737418074
 22
31.3681283005
 13
160.6737418074
 23
31.3681283005
  0
SOLID
  8
0
 62
7
  6
CONTINUOUS
 10
160.8471793074
 20
31.4971825592
 11
160.9628038663
 21
31.3681283005
 12
160.6737418074
 22
31.3681283005
 13
160.6737418074
 23
31.3681283005
  0
SOLID
  8
0
 62
7
  6
CONTINUOUS
 10
150.2674918074
 20
31.4649197501
 11
149.7471793074
 21
31.4326554237
 12
150.498741835
 22
31.4971824493
 13
150.498741835
 23
31.4971824493
  0
SOLID
  8
0
 62
7
  6
CONTINUOUS
 10
149.7471793074
 20
31.4326554237
 11
149.8628043005
 21
31.4971824493
 12
150.498741835
 22
31.4971824493
 13
150.498741835
 23
31.4971824493
  0
SOLID
  8
0
 62
7
  6
CONTINUOUS
 10
150.2674918074
 20
31.4649197501
 11
150.1518667936
 21
31.4326554237
 12
149.7471793074
 22
31.4326554237
 13
149.7471793074
 23
31.4326554237
  0
SOLID
  8
0
 62
7
  6
CONTINUOUS
 10
149.6315543091
 20
31.3036012664
 11
149.7471793074
 21
31.4326554237
 12
150.1518667936
 22
31.4326554237
 13
150.1518667936
 23
31.4326554237
  0
SOLID
  8
0
 62
7
  6
CONTINUOUS
 10
153.9674919177
 20
31.4326554237
 11
154.6612419177
 21
31.4971825369
 12
154.4299918074
 22
31.4649197501
 13
154.4299918074
 23
31.4649197501
  0
SOLID
  8
0
 62
7
  6
CONTINUOUS
 10
154.4299918074
 20
31.4649197501
 11
154.3143669177
 21
31.4326554237
 12
153.9674919177
 22
31.4326554237
 13
153.9674919177
 23
31.4326554237
  0
SOLID
  8
0
 62
7
  6
CONTINUOUS
 10
153.9674919177
 20
31.3681283335
 11
153.9674919177
 21
31.4326554237
 12
154.3143669177
 22
31.4326554237
 13
154.3143669177
 23
31.4326554237
  0
SOLID
  8
0
 62
7
  6
CONTINUOUS
 10
154.3143669177
 20
31.4326554237
 11
154.2565543074
 21
31.3681283335
 12
153.9674919177
 22
31.3681283335
 13
153.9674919177
 23
31.3681283335
  0
SOLID
  8
0
 62
7
  6
CONTINUOUS
 10
159.1128043074
 20
31.4326555528
 11
159.8065543074
 21
31.4971825369
 12
159.575304528
 22
31.4649197501
 13
159.575304528
 23
31.4649197501
  0
SOLID
  8
0
 62
7
  6
CONTINUOUS
 10
159.575304528
 20
31.4649197501
 11
159.4596793074
 21
31.4326555528
 12
159.1128043074
 22
31.4326555528
 13
159.1128043074
 23
31.4326555528
  0
SOLID
  8
0
 62
7
  6
CONTINUOUS
 10
159.1128043074
 20
31.3681284626
 11
159.1128043074
 21
31.4326555528
 12
159.4596793074
 22
31.4326555528
 13
159.4596793074
 23
31.4326555528
  0
SOLID
  8
0
 62
7
  6
CONTINUOUS
 10
159.4596793074
 20
31.4326555528
 11
159.401867028
 21
31.3681284626
 12
159.1128043074
 22
31.3681284626
 13
159.1128043074
 23
31.3681284626
  0
SOLID
  8
0
 62
7
  6
CONTINUOUS
 10
159.228429528
 20
31.2390741763
 11
159.1128043074
 21
31.3681284626
 12
159.401867028
 22
31.3681284626
 13
159.401867028
 23
31.3681284626
  0
SOLID
  8
0
 62
7
  6
CONTINUOUS
 10
149.6315543091
 20
31.3036012664
 11
150.1518667936
 21
31.4326554468
 12
149.9784292936
 22
31.3358640533
 13
149.9784292936
 23
31.3358640533
  0
SOLID
  8
0
 62
7
  6
CONTINUOUS
 10
149.9784292936
 20
31.3358640533
 11
149.9206168074
 21
31.2713369632
 12
149.6315543091
 22
31.3036012664
 13
149.6315543091
 23
31.3036012664
  0
SOLID
  8
0
 62
7
  6
CONTINUOUS
 10
149.5737418074
 20
31.1100184796
 11
149.6315543091
 21
31.3036012664
 12
149.9206168074
 22
31.2713369632
 13
149.9206168074
 23
31.2713369632
  0
SOLID
  8
0
 62
7
  6
CONTINUOUS
 10
154.4299918074
 20
31.2390741763
 11
154.7768668074
 21
31.271336924
 12
155.412804528
 22
31.271336924
 13
155.412804528
 23
31.271336924
  0
SOLID
  8
0
 62
7
  6
CONTINUOUS
 10
154.4299918074
 20
31.2390741763
 11
155.412804528
 21
31.271336924
 12
154.1987416972
 22
31.1745462761
 13
154.1987416972
 23
31.1745462761
  0
SOLID
  8
0
 62
7
  6
CONTINUOUS
 10
154.1987416972
 20
31.1745462761
 11
155.412804528
 21
31.271336924
 12
154.7768668074
 22
31.1422827436
 13
154.7768668074
 23
31.1422827436
  0
SOLID
  8
0
 62
7
  6
CONTINUOUS
 10
155.412804528
 20
31.271336924
 11
155.412804528
 21
31.1422827436
 12
154.7768668074
 22
31.1422827436
 13
154.7768668074
 23
31.1422827436
  0
SOLID
  8
0
 62
7
  6
CONTINUOUS
 10
159.228429528
 20
31.2390745501
 11
159.401867028
 21
31.3681283566
 12
159.4596793074
 22
31.3036012664
 13
159.4596793074
 23
31.3036012664
  0
SOLID
  8
0
 62
7
  6
CONTINUOUS
 10
159.4596793074
 20
31.3036012664
 11
159.6331168074
 21
31.2390745501
 12
159.228429528
 22
31.2390745501
 13
159.228429528
 23
31.2390745501
  0
SOLID
  8
0
 62
7
  6
CONTINUOUS
 10
159.4596793074
 20
31.1422827828
 11
159.228429528
 21
31.2390745501
 12
159.6331168074
 22
31.2390745501
 13
159.6331168074
 23
31.2390745501
  0
SOLID
  8
0
 62
7
  6
CONTINUOUS
 10
159.6331168074
 20
31.2390745501
 11
160.615929528
 21
31.0777556927
 12
159.4596793074
 22
31.1422827828
 13
159.4596793074
 23
31.1422827828
  0
SOLID
  8
0
 62
7
  6
CONTINUOUS
 10
160.442492028
 20
30.9809646623
 11
159.4596793074
 21
31.1422827828
 12
160.615929528
 22
31.0777556927
 13
160.615929528
 23
31.0777556927
  0
SOLID
  8
0
 62
7
  6
CONTINUOUS
 10
160.615929528
 20
31.0777556927
 11
160.8471793074
 21
30.9809646623
 12
160.442492028
 22
30.9809646623
 13
160.442492028
 23
30.9809646623
  0
SOLID
  8
0
 62
7
  6
CONTINUOUS
 10
160.615929528
 20
30.9164372091
 11
160.442492028
 21
30.9809646623
 12
160.8471793074
 22
30.9809646623
 13
160.8471793074
 23
30.9809646623
  0
SOLID
  8
0
 62
7
  6
CONTINUOUS
 10
160.615929528
 20
30.9164372091
 11
160.8471793074
 21
30.9809646623
 12
160.6737418074
 22
30.8519089441
 13
160.6737418074
 23
30.8519089441
  0
SOLID
  8
0
 62
7
  6
CONTINUOUS
 10
160.8471793074
 20
30.9809646623
 11
160.9628038663
 21
30.8519089441
 12
160.6737418074
 22
30.8519089441
 13
160.6737418074
 23
30.8519089441
  0
SOLID
  8
0
 62
7
  6
CONTINUOUS
 10
160.615929528
 20
30.7873818593
 11
160.6737418074
 21
30.8519089441
 12
160.9628038663
 22
30.8519089441
 13
160.9628038663
 23
30.8519089441
  0
SOLID
  8
0
 62
7
  6
CONTINUOUS
 10
160.9628038663
 20
30.8519089441
 11
160.9628038663
 21
30.7873818593
 12
160.615929528
 22
30.7873818593
 13
160.615929528
 23
30.7873818593
  0
SOLID
  8
0
 62
7
  6
CONTINUOUS
 10
160.5003043074
 20
30.7551187255
 11
160.615929528
 21
30.7873818593
 12
160.9628038663
 22
30.7873818593
 13
160.9628038663
 23
30.7873818593
  0
SOLID
  8
0
 62
7
  6
CONTINUOUS
 10
160.5003043074
 20
30.7551187255
 11
160.9628038663
 21
30.7873818593
 12
160.269054528
 22
30.7228547745
 13
160.269054528
 23
30.7228547745
  0
SOLID
  8
0
 62
7
  6
CONTINUOUS
 10
160.9628038663
 20
30.7873818593
 11
160.8471793074
 21
30.6905916353
 12
160.269054528
 22
30.7228547745
 13
160.269054528
 23
30.7228547745
  0
SOLID
  8
0
 62
7
  6
CONTINUOUS
 10
160.8471793074
 20
30.6905916353
 11
159.401867028
 21
30.658327332
 12
160.269054528
 22
30.7228547745
 13
160.269054528
 23
30.7228547745
  0
SOLID
  8
0
 62
7
  6
CONTINUOUS
 10
160.269054528
 20
30.7228547745
 11
159.401867028
 21
30.658327332
 12
159.922179528
 22
30.7228547745
 13
159.922179528
 23
30.7228547745
  0
SOLID
  8
0
 62
7
  6
CONTINUOUS
 10
159.401867028
 20
30.658327332
 11
159.228429528
 21
30.7228547745
 12
159.922179528
 22
30.7228547745
 13
159.922179528
 23
30.7228547745
  0
SOLID
  8
0
 62
7
  6
CONTINUOUS
 10
159.401867028
 20
30.658327332
 11
160.8471793074
 21
30.6905916353
 12
159.575304528
 22
30.6260629858
 13
159.575304528
 23
30.6260629858
  0
SOLID
  8
0
 62
7
  6
CONTINUOUS
 10
160.8471793074
 20
30.6905916353
 11
160.615929528
 21
30.6260629858
 12
159.575304528
 22
30.6260629858
 13
159.575304528
 23
30.6260629858
  0
SOLID
  8
0
 62
7
  6
CONTINUOUS
 10
159.922179528
 20
30.5938006049
 11
159.575304528
 21
30.6260629858
 12
160.615929528
 22
30.6260629858
 13
160.615929528
 23
30.6260629858
  0
SOLID
  8
0
 62
7
  6
CONTINUOUS
 10
160.615929528
 20
30.6260629858
 11
160.269054528
 21
30.5938006049
 12
159.922179528
 22
30.5938006049
 13
159.922179528
 23
30.5938006049
  0
SOLID
  8
0
 62
7
  6
CONTINUOUS
 10
149.5737418074
 20
31.1100184796
 11
149.9206168074
 21
31.2713369632
 12
149.8628043005
 22
31.1422827828
 13
149.8628043005
 23
31.1422827828
  0
SOLID
  8
0
 62
7
  6
CONTINUOUS
 10
149.8628043005
 20
31.1422827828
 11
149.8628043005
 21
31.0454914852
 12
149.5737418074
 22
31.1100184796
 13
149.5737418074
 23
31.1100184796
  0
SOLID
  8
0
 62
7
  6
CONTINUOUS
 10
149.6315543091
 20
30.9164372091
 11
149.5737418074
 21
31.1100184796
 12
149.8628043005
 22
31.0454914852
 13
149.8628043005
 23
31.0454914852
  0
SOLID
  8
0
 62
7
  6
CONTINUOUS
 10
149.8628043005
 20
31.0454914852
 11
149.9784292936
 21
30.8841729058
 12
149.6315543091
 22
30.9164372091
 13
149.6315543091
 23
30.9164372091
  0
SOLID
  8
0
 62
7
  6
CONTINUOUS
 10
149.7471793074
 20
30.7873813202
 11
149.6315543091
 21
30.9164372091
 12
149.9784292936
 22
30.8841729058
 13
149.9784292936
 23
30.8841729058
  0
SOLID
  8
0
 62
7
  6
CONTINUOUS
 10
149.9784292936
 20
30.8841729058
 11
150.1518667936
 21
30.7873813202
 12
149.7471793074
 22
30.7873813202
 13
149.7471793074
 23
30.7873813202
  0
SOLID
  8
0
 62
7
  6
CONTINUOUS
 10
149.8628043005
 20
30.7228547004
 11
149.7471793074
 21
30.7873813202
 12
150.1518667936
 22
30.7873813202
 13
150.1518667936
 23
30.7873813202
  0
SOLID
  8
0
 62
7
  6
CONTINUOUS
 10
150.1518667936
 20
30.7873813202
 11
150.498741835
 21
30.7228547004
 12
149.8628043005
 22
30.7228547004
 13
149.8628043005
 23
30.7228547004
  0
SOLID
  8
0
 62
7
  6
CONTINUOUS
 10
150.0362418212
 20
30.658327332
 11
149.8628043005
 21
30.7228547004
 12
150.498741835
 22
30.7228547004
 13
150.498741835
 23
30.7228547004
  0
SOLID
  8
0
 62
7
  6
CONTINUOUS
 10
154.0831168074
 20
31.1100184386
 11
154.1987416972
 21
31.1745462761
 12
154.7768668074
 22
31.1422827828
 13
154.7768668074
 23
31.1422827828
  0
SOLID
  8
0
 62
7
  6
CONTINUOUS
 10
154.7768668074
 20
31.1422827828
 11
154.5456166972
 21
31.1100184386
 12
154.0831168074
 22
31.1100184386
 13
154.0831168074
 23
31.1100184386
  0
SOLID
  8
0
 62
7
  6
CONTINUOUS
 10
153.9674919177
 20
30.9809642992
 11
154.0831168074
 21
31.1100184386
 12
154.5456166972
 22
31.1100184386
 13
154.5456166972
 23
31.1100184386
  0
SOLID
  8
0
 62
7
  6
CONTINUOUS
 10
154.3143669177
 20
31.0132277988
 11
153.9674919177
 21
30.9809642992
 12
154.4299918074
 22
31.0777556927
 13
154.4299918074
 23
31.0777556927
  0
SOLID
  8
0
 62
7
  6
CONTINUOUS
 10
153.9674919177
 20
30.9809642992
 11
154.5456166972
 21
31.1100184796
 12
154.4299918074
 22
31.0777556927
 13
154.4299918074
 23
31.0777556927
  0
SOLID
  8
0
 62
7
  6
CONTINUOUS
 10
154.3143669177
 20
31.0132277988
 11
154.2565543074
 21
30.9164372091
 12
153.9674919177
 22
30.9809642992
 13
153.9674919177
 23
30.9809642992
  0
SOLID
  8
0
 62
7
  6
CONTINUOUS
 10
153.9674919177
 20
30.8841729058
 11
153.9674919177
 21
30.9809642992
 12
154.2565543074
 22
30.9164372091
 13
154.2565543074
 23
30.9164372091
  0
SOLID
  8
0
 62
7
  6
CONTINUOUS
 10
154.2565543074
 20
30.9164372091
 11
154.2565543074
 21
30.8519086025
 12
153.9674919177
 22
30.8841729058
 13
153.9674919177
 23
30.8841729058
  0
SOLID
  8
0
 62
7
  6
CONTINUOUS
 10
154.0253041972
 20
30.7551187255
 11
153.9674919177
 21
30.8841729058
 12
154.2565543074
 22
30.8519086025
 13
154.2565543074
 23
30.8519086025
  0
SOLID
  8
0
 62
7
  6
CONTINUOUS
 10
155.412804528
 20
30.9487004259
 11
155.7018665869
 21
30.8519086025
 12
155.3549915869
 22
30.8841729058
 13
155.3549915869
 23
30.8841729058
  0
SOLID
  8
0
 62
7
  6
CONTINUOUS
 10
155.1815540869
 20
30.7873815123
 11
155.3549915869
 21
30.8841729058
 12
155.7018665869
 22
30.8519086025
 13
155.7018665869
 23
30.8519086025
  0
SOLID
  8
0
 62
7
  6
CONTINUOUS
 10
155.1815540869
 20
30.7873815123
 11
155.7018665869
 21
30.8519086025
 12
155.412804528
 22
30.7551187255
 13
155.412804528
 23
30.7551187255
  0
SOLID
  8
0
 62
7
  6
CONTINUOUS
 10
155.7018665869
 20
30.8519086025
 11
155.759679528
 21
30.6905916353
 12
155.412804528
 22
30.7551187255
 13
155.412804528
 23
30.7551187255
  0
SOLID
  8
0
 62
7
  6
CONTINUOUS
 10
155.4706168074
 20
30.658327332
 11
155.412804528
 21
30.7551187255
 12
155.759679528
 22
30.6905916353
 13
155.759679528
 23
30.6905916353
  0
SOLID
  8
0
 62
7
  6
CONTINUOUS
 10
155.4706168074
 20
30.658327332
 11
155.759679528
 21
30.6905916353
 12
155.5284290869
 22
30.5938002079
 13
155.5284290869
 23
30.5938002079
  0
SOLID
  8
0
 62
7
  6
CONTINUOUS
 10
155.759679528
 20
30.6905916353
 11
155.8174918074
 21
30.5938002079
 12
155.5284290869
 22
30.5938002079
 13
155.5284290869
 23
30.5938002079
  0
SOLID
  8
0
 62
7
  6
CONTINUOUS
 10
151.0768668626
 20
30.8196456577
 11
151.1346793074
 21
30.9164373395
 12
151.4237418626
 22
30.9164373395
 13
151.4237418626
 23
30.9164373395
  0
SOLID
  8
0
 62
7
  6
CONTINUOUS
 10
151.4237418626
 20
30.9164373395
 11
151.3659292523
 21
30.7873815123
 12
151.0768668626
 22
30.8196456577
 13
151.0768668626
 23
30.8196456577
  0
SOLID
  8
0
 62
7
  6
CONTINUOUS
 10
150.9034292799
 20
30.7551187255
 11
151.0768668626
 21
30.8196456577
 12
151.3659292523
 22
30.7873815123
 13
151.3659292523
 23
30.7873815123
  0
SOLID
  8
0
 62
7
  6
CONTINUOUS
 10
150.9034292799
 20
30.7551187255
 11
151.3659292523
 21
30.7873815123
 12
150.498741835
 22
30.7228544222
 13
150.498741835
 23
30.7228544222
  0
SOLID
  8
0
 62
7
  6
CONTINUOUS
 10
151.3659292523
 20
30.7873815123
 11
151.1924917523
 21
30.6905916353
 12
150.498741835
 22
30.7228544222
 13
150.498741835
 23
30.7228544222
  0
SOLID
  8
0
 62
7
  6
CONTINUOUS
 10
150.0362418212
 20
30.658327332
 11
150.498741835
 21
30.7228544222
 12
151.1924917523
 22
30.6905916353
 13
151.1924917523
 23
30.6905916353
  0
SOLID
  8
0
 62
7
  6
CONTINUOUS
 10
150.0362418212
 20
30.658327332
 11
151.1924917523
 21
30.6905916353
 12
150.2096793212
 22
30.6260631011
 13
150.2096793212
 23
30.6260631011
  0
SOLID
  8
0
 62
7
  6
CONTINUOUS
 10
151.1924917523
 20
30.6905916353
 11
150.9612418074
 21
30.6260631011
 12
150.2096793212
 22
30.6260631011
 13
150.2096793212
 23
30.6260631011
  0
SOLID
  8
0
 62
7
  6
CONTINUOUS
 10
150.5565542799
 20
30.5938002419
 11
150.2096793212
 21
30.6260631011
 12
150.9612418074
 22
30.6260631011
 13
150.9612418074
 23
30.6260631011
  0
SOLID
  8
0
 62
7
  6
CONTINUOUS
 10
154.0253041972
 20
30.7551187255
 11
154.2565543074
 21
30.8519086025
 12
154.3143669177
 22
30.7873815123
 13
154.3143669177
 23
30.7873815123
  0
SOLID
  8
0
 62
7
  6
CONTINUOUS
 10
154.3143669177
 20
30.7873815123
 11
154.5456166972
 21
30.7228544222
 12
154.0253041972
 22
30.7551187255
 13
154.0253041972
 23
30.7551187255
  0
SOLID
  8
0
 62
7
  6
CONTINUOUS
 10
154.1987416972
 20
30.658327332
 11
154.0253041972
 21
30.7551187255
 12
154.5456166972
 22
30.7228544222
 13
154.5456166972
 23
30.7228544222
  0
SOLID
  8
0
 62
7
  6
CONTINUOUS
 10
154.8924916972
 20
30.7228544637
 11
155.1815540869
 21
30.7873815123
 12
155.412804528
 22
30.7551187255
 13
155.412804528
 23
30.7551187255
  0
SOLID
  8
0
 62
7
  6
CONTINUOUS
 10
155.412804528
 20
30.7551187255
 11
155.3549915869
 21
30.6905916353
 12
154.8924916972
 22
30.7228544637
 13
154.8924916972
 23
30.7228544637
  0
SOLID
  8
0
 62
7
  6
CONTINUOUS
 10
155.3549915869
 20
30.6905916353
 11
154.1987416972
 21
30.658327332
 12
154.8924916972
 22
30.7228544637
 13
154.8924916972
 23
30.7228544637
  0
SOLID
  8
0
 62
7
  6
CONTINUOUS
 10
154.1987416972
 20
30.658327332
 11
154.5456166972
 21
30.7228544637
 12
154.8924916972
 22
30.7228544637
 13
154.8924916972
 23
30.7228544637
  0
SOLID
  8
0
 62
7
  6
CONTINUOUS
 10
154.1987416972
 20
30.658327332
 11
155.3549915869
 21
30.6905916353
 12
154.3143669177
 22
30.6260630541
 13
154.3143669177
 23
30.6260630541
  0
SOLID
  8
0
 62
7
  6
CONTINUOUS
 10
155.3549915869
 20
30.6905916353
 11
155.1815540869
 21
30.6260630541
 12
154.3143669177
 22
30.6260630541
 13
154.3143669177
 23
30.6260630541
  0
SOLID
  8
0
 62
7
  6
CONTINUOUS
 10
154.5456166972
 20
30.5938002188
 11
154.3143669177
 21
30.6260630541
 12
155.1815540869
 22
30.6260630541
 13
155.1815540869
 23
30.6260630541
  0
SOLID
  8
0
 62
7
  6
CONTINUOUS
 10
155.1815540869
 20
30.6260630541
 11
154.8924916972
 21
30.5938002188
 12
154.5456166972
 22
30.5938002188
 13
154.5456166972
 23
30.5938002188
  0
SOLID
  8
0
 62
7
  6
CONTINUOUS
 10
159.575304528
 20
30.7551187255
 11
159.228429528
 21
30.7228544637
 12
159.4596793074
 22
30.7873815123
 13
159.4596793074
 23
30.7873815123
  0
SOLID
  8
0
 62
7
  6
CONTINUOUS
 10
159.4596793074
 20
30.7873815123
 11
159.228429528
 21
30.7228544637
 12
159.401867028
 22
30.851908644
 13
159.401867028
 23
30.851908644
  0
SOLID
  8
0
 62
7
  6
CONTINUOUS
 10
159.228429528
 20
30.7228544637
 11
159.1128043074
 21
30.851908644
 12
159.401867028
 22
30.851908644
 13
159.401867028
 23
30.851908644
  0
SOLID
  8
0
 62
7
  6
CONTINUOUS
 10
159.575304528
 20
30.7551187255
 11
159.922179528
 21
30.7228544637
 12
159.228429528
 22
30.7228544637
 13
159.228429528
 23
30.7228544637
  0
SOLID
  8
0
 62
7
  6
CONTINUOUS
 10
156.279992028
 20
30.5938002419
 11
156.279992028
 21
31.6262382337
 12
156.5690540869
 22
30.5938002419
 13
156.5690540869
 23
31.6262382337
  0
ENDBLK
  8
0
  6
BYBLOCK
 62
0
  0
BLOCK
  8
0
 62
2
  6
CONTINUOUS
  2
SYMBOL_3_BL0
 70
64
 10
32.1213064866
 20
19.8534310916
  0
TEXT
  8
0
 62
7
  6
CONTINUOUS
 10
18.3860103289
 20
19.2268451992
  7
TEXTSTYLE_3
 40
2.7338706658
  1
Ammeraal Beltech
 41
1.0
 51
15.0
 72
0
  0
TEXT
  8
0
 62
7
  6
CONTINUOUS
 10
29.1868111546
 20
16.9533085264
  7
TEXTSTYLE_4
 40
1.0935482663
  1
Innovation & Service in Belting
 41
1.0
 72
0
  0
LINE
  8
0
 62
7
  6
CONTINUOUS
 10
12.3614696776
 20
19.9934385078
 11
13.1396216709
 21
23.6543558055
  0
LINE
  8
0
 62
7
  6
CONTINUOUS
 10
23.2347899607
 20
27.3177497171
 11
13.6274394139
 21
24.1961322958
  0
LINE
  8
0
 62
7
  6
CONTINUOUS
 10
12.5867530099
 20
19.3000877048
 11
20.093828271
 21
12.5406867788
  0
LINE
  8
0
 62
7
  6
CONTINUOUS
 10
12.8492874206
 20
20.5352149982
 11
23.6575567857
 21
24.0470345971
  0
LINE
  8
0
 62
7
  6
CONTINUOUS
 10
23.6533516486
 20
13.6972460334
 11
15.2078919798
 21
21.3015720751
  0
LINE
  8
0
 62
7
  6
CONTINUOUS
 10
24.1731743684
 20
26.4728246013
 11
23.1966148312
 21
21.8784731989
  0
LINE
  8
0
 62
7
  6
CONTINUOUS
 10
22.4968128835
 20
18.5861638851
 11
21.810364672
 21
15.3566789607
  0
LINE
  8
0
 62
7
  6
CONTINUOUS
 10
24.8542704669
 20
14.087448211
 11
25.8105020025
 21
18.5861638851
  0
LINE
  8
0
 62
7
  6
CONTINUOUS
 10
26.5103039502
 20
21.8784731989
 11
26.9545457526
 21
23.9684665583
  0
LINE
  8
0
 62
7
  6
CONTINUOUS
 10
20.8069293463
 20
12.3891124661
 11
24.3664527239
 21
13.5456717207
  0
LINE
  8
0
 62
7
  6
CONTINUOUS
 10
23.9478910361
 20
27.1661754044
 11
26.7292624203
 21
24.6618173613
  0
ARC
  8
0
 62
7
  6
CONTINUOUS
 10
13.8527227462
 20
23.5027814928
 40
0.7290321776
 50
108.0
 51
168.0
  0
ARC
  8
0
 62
7
  6
CONTINUOUS
 10
23.4600732931
 20
26.624398914
 40
0.7290321776
 50
348.0
 51
108.0
  0
ARC
  8
0
 62
7
  6
CONTINUOUS
 10
26.2414446773
 20
24.120040871
 40
0.7290321776
 50
348.0
 51
48.0
  0
ARC
  8
0
 62
7
  6
CONTINUOUS
 10
20.581646014
 20
13.0824632691
 40
0.7290321776
 50
228.0
 51
288.0
  0
ARC
  8
0
 62
7
  6
CONTINUOUS
 10
13.0745707529
 20
19.8418641951
 40
0.7290321776
 50
108.0
 51
228.0
  0
ARC
  8
0
 62
7
  6
CONTINUOUS
 10
24.1411693916
 20
14.2390225237
 40
0.7290321776
 50
228.0
 51
348.0
  0
ENDBLK
  8
0
  6
BYBLOCK
 62
0
  0
ENDSEC
  0
SECTION
  2
ENTITIES
  0
TEXT
  8
0
 62
5
  6
CONTINUOUS
 10
96.0
 20
25.636
  7
TEXTSTYLE_2
 40
2.8
  1
Scale :
 41
0.6
 51
0.000019
 72
0
  0
TEXT
  8
0
 62
5
  6
CONTINUOUS
 10
116.0
 20
25.636
  7
TEXTSTYLE_2
 40
2.8
  1
Belt type:
 41
0.6
 51
0.000019
 72
0
  0
INSERT
  8
0
 62
2
  6
CONTINUOUS
  2
SYMBOL_3_BL0
 10
32.1213064866
 20
19.8534310916
  0
INSERT
  8
0
 62
2
  6
CONTINUOUS
  2
SYMBOL_8_BL1
 10
173.5956734183
 20
35.5937998301
  0
LINE
  8
0
 62
2
  6
CONTINUOUS
 10
10.0
 20
30.0
 11
200.0
 21
30.0
  0
LINE
  8
0
 62
2
  6
CONTINUOUS
 10
10.0
 20
30.0
 11
10.0
 21
10.0
  0
LINE
  8
0
 62
2
  6
CONTINUOUS
 10
10.0
 20
10.0
 11
200.0
 21
10.0
  0
LINE
  8
0
 62
2
  6
CONTINUOUS
 10
95.0
 20
30.0
 11
95.0
 21
10.0
  0
LINE
  8
0
 62
2
  6
CONTINUOUS
 10
115.0
 20
30.0
 11
115.0
 21
10.0
  0
LINE
  8
0
 62
2
  6
CONTINUOUS
 10
200.0
 20
30.0
 11
200.0
 21
10.0
  0
TEXT
  8
0
 62
5
  6
CONTINUOUS
 10
13.0
 20
23.303
  7
TEXTSTYLE_5
 40
1.52
  1
                                                                     Ammeraal Beltech Modular A/S
 41
1.0
 72
0
  0
TEXT
  8
0
 62
5
  6
CONTINUOUS
 10
13.0
 20
20.595
  7
TEXTSTYLE_5
 40
1.5
  1
                                                                      Hjulmagervej 21,  7100 Vejle,  DK
 41
1.0
 72
0
  0
TEXT
  8
0
 62
5
  6
CONTINUOUS
 10
13.0
 20
17.881
  7
TEXTSTYLE_5
 40
1.495
  1
                                                                      tel: 
 41
1.0
 72
0
  0
TEXT
  8
0
 62
5
  6
CONTINUOUS
 10
57.9869465649
 20
17.881
  7
TEXTSTYLE_5
 40
1.51
  1
+45 75723100     fax: +45 75723348
 41
1.0
 72
0
  0
TEXT
  8
0
 62
5
  6
CONTINUOUS
 10
13.0
 20
15.177
  7
TEXTSTYLE_5
 40
1.5
  1
                                                                      admin@unichains.dk  www.unichains.com
 41
1.0
 72
0
  0
TEXT
  8
0
 62
5
  6
CONTINUOUS
 10
99.75
 20
13.75
  7
TEXTSTYLE_6
 40
5.0
  1
1:1
 41
0.7
 72
1
 11
105.0
 21
13.75
  0
TEXT
  8
0
 62
5
  6
CONTINUOUS
 10
118.0
 20
13.75
  7
TEXTSTYLE_7
 40
7.5
  1
Sprocket Z10
 41
0.6361111111
 72
0
  0
LINE
  8
0
 62
7
  6
CONTINUOUS
 10
210.0
 20
0.0
 11
0.0
 21
0.0
  0
LINE
  8
0
 62
7
  6
CONTINUOUS
 10
10.0
 20
10.0
 11
200.0
 21
10.0
  0
LINE
  8
0
 62
7
  6
CONTINUOUS
 10
10.0
 20
30.0
 11
200.0
 21
30.0
  0
LINE
  8
0
 62
7
  6
CONTINUOUS
 10
0.0
 20
0.0
 11
0.0
 21
297.0
  0
LINE
  8
0
 62
7
  6
CONTINUOUS
 10
10.0
 20
10.0
 11
10.0
 21
287.0
  0
LINE
  8
0
 62
7
  6
CONTINUOUS
 10
200.0
 20
287.0
 11
200.0
 21
10.0
  0
LINE
  8
0
 62
7
  6
CONTINUOUS
 10
210.0
 20
0.0
 11
210.0
 21
297.0
  0
LINE
  8
0
 62
7
  6
CONTINUOUS
 10
10.0
 20
287.0
 11
200.0
 21
287.0
  0
LINE
  8
0
 62
7
  6
CONTINUOUS
 10
0.0
 20
297.0
 11
210.0
 21
297.0
  0
LINE
  8
0
 62
7
  6
CONTINUOUS
 10
92.5709569302
 20
172.7699865126
 11
94.0328786779
 21
172.4341520242
  0
LINE
  8
0
 62
7
  6
CONTINUOUS
 10
93.7388523789
 20
172.8291577896
 11
92.5814958031
 21
173.0950271866
  0
LINE
  8
0
 62
7
  6
CONTINUOUS
 10
86.9663933946
 20
174.7197026402
 11
87.2766160255
 21
174.6455757607
  0
LINE
  8
0
 62
7
  6
CONTINUOUS
 10
89.5720623884
 20
173.6605499897
 11
90.0448405611
 21
173.4978266291
  0
LINE
  8
0
 62
7
  6
CONTINUOUS
 10
92.2806825859
 20
172.9021610327
 11
92.5709569302
 21
172.7699865126
  0
LINE
  8
0
 62
7
  6
CONTINUOUS
 10
86.7397880663
 20
174.8252872881
 11
86.9663933946
 21
174.7197026402
  0
LINE
  8
0
 62
7
  6
CONTINUOUS
 10
87.1578382729
 20
174.9825930473
 11
86.8179250938
 21
175.1409724358
  0
LINE
  8
0
 62
7
  6
CONTINUOUS
 10
86.5264583942
 20
175.6992894813
 11
86.2431939539
 21
175.8312739162
  0
LINE
  8
0
 62
7
  6
CONTINUOUS
 10
87.1414234564
 20
175.8352632638
 11
87.42468271
 21
175.7032812456
  0
LINE
  8
0
 62
7
  6
CONTINUOUS
 10
86.4834818166
 20
175.0151292785
 11
86.7397880663
 21
174.8252872881
  0
LINE
  8
0
 62
7
  6
CONTINUOUS
 10
87.2766160255
 20
174.6455757607
 11
87.6407498509
 21
174.687166409
  0
LINE
  8
0
 62
7
  6
CONTINUOUS
 10
92.5988272109
 20
174.0079386732
 11
92.795858257
 21
174.0281687908
  0
LINE
  8
0
 62
7
  6
CONTINUOUS
 10
92.9425184876
 20
174.387431832
 11
92.6236624882
 21
174.3951874947
  0
LINE
  8
0
 62
7
  6
CONTINUOUS
 10
87.354753053
 20
174.9612609085
 11
87.1578382729
 21
174.9825930473
  0
LINE
  8
0
 62
7
  6
CONTINUOUS
 10
87.8130423684
 20
175.944839514
 11
87.6161275883
 21
175.9661716527
  0
LINE
  8
0
 62
7
  6
CONTINUOUS
 10
87.5618095721
 20
177.3294317818
 11
87.7587243522
 21
177.308099643
  0
LINE
  8
0
 62
7
  6
CONTINUOUS
 10
92.795858257
 20
174.0281687908
 11
93.9532148328
 21
173.7622993937
  0
LINE
  8
0
 62
7
  6
CONTINUOUS
 10
94.0389597984
 20
174.1355559657
 11
92.9425184876
 21
174.387431832
  0
LINE
  8
0
 62
7
  6
CONTINUOUS
 10
94.7045476547
 20
175.3579955196
 11
94.3390672178
 21
175.4419541417
  0
LINE
  8
0
 62
7
  6
CONTINUOUS
 10
87.42468271
 20
175.7032812456
 11
87.7349053409
 21
175.6291543662
  0
LINE
  8
0
 62
7
  6
CONTINUOUS
 10
87.9501692493
 20
177.5709900907
 11
87.6399518028
 21
177.6451145484
  0
LINE
  8
0
 62
7
  6
CONTINUOUS
 10
89.9205482177
 20
175.6332534958
 11
90.9843031642
 21
175.267124538
  0
LINE
  8
0
 62
7
  6
CONTINUOUS
 10
91.1264901411
 20
175.4882048153
 11
89.9445420041
 21
175.8950141478
  0
LINE
  8
0
 62
7
  6
CONTINUOUS
 10
91.9667462047
 20
176.0090579032
 11
91.6121612226
 21
176.1311008891
  0
LINE
  8
0
 62
7
  6
CONTINUOUS
 10
89.9574295023
 20
176.7006354443
 11
89.6028445201
 21
176.8226784303
  0
LINE
  8
0
 62
7
  6
CONTINUOUS
 10
87.6161275883
 20
175.9661716527
 11
87.2195604839
 21
176.1509484116
  0
LINE
  8
0
 62
7
  6
CONTINUOUS
 10
87.7587243522
 20
177.308099643
 11
88.1552914566
 21
177.1233228841
  0
LINE
  8
0
 62
7
  6
CONTINUOUS
 10
88.233428503
 20
177.4390080724
 11
87.9501692493
 21
177.5709900907
  0
LINE
  8
0
 62
7
  6
CONTINUOUS
 10
92.5814958031
 20
173.0950271866
 11
92.4130464122
 21
173.1992159264
  0
LINE
  8
0
 62
7
  6
CONTINUOUS
 10
86.8851223933
 20
176.0251028376
 11
87.1414234564
 21
175.8352632638
  0
LINE
  8
0
 62
7
  6
CONTINUOUS
 10
88.4897347504
 20
177.249166077
 11
88.233428503
 21
177.4390080724
  0
LINE
  8
0
 62
7
  6
CONTINUOUS
 10
86.8179250938
 20
175.1409724358
 11
86.6749266949
 21
175.2780196856
  0
LINE
  8
0
 62
7
  6
CONTINUOUS
 10
87.2195604839
 20
176.1509484116
 11
87.0765620849
 21
176.2879956614
  0
LINE
  8
0
 62
7
  6
CONTINUOUS
 10
88.1552914566
 20
177.1233228841
 11
88.2982898555
 21
176.9862756344
  0
LINE
  8
0
 62
7
  6
CONTINUOUS
 10
86.2810971347
 20
175.3206839632
 11
86.4834818166
 21
175.0151292785
  0
LINE
  8
0
 62
7
  6
CONTINUOUS
 10
122.2979396309
 20
182.4681031695
 11
122.0786951097
 21
182.4099219615
  0
LINE
  8
0
 62
7
  6
CONTINUOUS
 10
121.0181671425
 20
184.4029810787
 11
121.2374116638
 21
184.4611622867
  0
LINE
  8
0
 62
7
  6
CONTINUOUS
 10
87.5786260237
 20
174.9977863252
 11
87.354753053
 21
174.9612609085
  0
LINE
  8
0
 62
7
  6
CONTINUOUS
 10
87.7349053409
 20
175.6291543662
 11
88.1826512823
 21
175.7022051996
  0
LINE
  8
0
 62
7
  6
CONTINUOUS
 10
88.0369153391
 20
175.9813649307
 11
87.8130423684
 21
175.944839514
  0
LINE
  8
0
 62
7
  6
CONTINUOUS
 10
87.3379366014
 20
177.2929063651
 11
87.5618095721
 21
177.3294317818
  0
LINE
  8
0
 62
7
  6
CONTINUOUS
 10
87.6399518028
 20
177.6451145484
 11
87.2758127836
 21
177.6035263016
  0
LINE
  8
0
 62
7
  6
CONTINUOUS
 10
92.0798995852
 20
173.1447621604
 11
92.2806825859
 21
172.9021610327
  0
LINE
  8
0
 62
7
  6
CONTINUOUS
 10
86.6827325247
 20
176.3306599389
 11
86.8851223933
 21
176.0251028376
  0
LINE
  8
0
 62
7
  6
CONTINUOUS
 10
88.6921194252
 20
176.9436113771
 11
88.4897347504
 21
177.249166077
  0
LINE
  8
0
 62
7
  6
CONTINUOUS
 10
86.6749266949
 20
175.2780196856
 11
86.5588864866
 21
175.4729244909
  0
LINE
  8
0
 62
7
  6
CONTINUOUS
 10
87.0765620849
 20
176.2879956614
 11
86.9605218766
 21
176.4829004666
  0
LINE
  8
0
 62
7
  6
CONTINUOUS
 10
88.2982898555
 20
176.9862756344
 11
88.4143300639
 21
176.7913708291
  0
LINE
  8
SQ
 62
2
  6
PHANTOM
 10
79.3118441303
 20
212.5430096039
 11
89.6103715877
 21
222.8415370614
  0
LINE
  8
SQ
 62
2
  6
PHANTOM
 10
96.9902083368
 20
227.9586321107
 11
93.4546744308
 21
224.4230982047
  0
LINE
  8
SQ
 62
2
  6
PHANTOM
 10
74.194749081
 20
205.1631728549
 11
77.7302829869
 21
208.6987067608
  0
LINE
  8
0
 62
7
  6
CONTINUOUS
 10
121.881476471
 20
182.0846466177
 11
122.148975073
 21
182.1010452401
  0
LINE
  8
0
 62
7
  6
CONTINUOUS
 10
121.4346303025
 20
184.7864376305
 11
121.1671316835
 21
184.7700390227
  0
LINE
  8
SQ
 62
2
  6
PHANTOM
 10
79.3118441303
 20
192.2945241141
 11
89.6103715877
 21
181.9959966567
  0
LINE
  8
SQ
 62
2
  6
PHANTOM
 10
93.4546744308
 20
180.4144355133
 11
96.9902083368
 21
176.8789016074
  0
LINE
  8
SQ
 62
2
  6
PHANTOM
 10
77.7302829869
 20
196.1388269573
 11
74.194749081
 21
199.6743608632
  0
LINE
  8
0
 62
7
  6
CONTINUOUS
 10
92.4130464122
 20
173.1992159264
 11
92.319803114
 21
173.351620564
  0
LINE
  8
0
 62
7
  6
CONTINUOUS
 10
91.9543226771
 20
173.4355791861
 11
92.0798995852
 21
173.1447621604
  0
LINE
  8
0
 62
7
  6
CONTINUOUS
 10
86.593650507
 20
176.5834222997
 11
86.6827325247
 21
176.3306599389
  0
LINE
  8
0
 62
7
  6
CONTINUOUS
 10
86.9605218766
 20
176.4829004666
 11
86.9011355936
 21
176.6514079016
  0
LINE
  8
0
 62
7
  6
CONTINUOUS
 10
86.2189733075
 20
175.6313038794
 11
86.2810971347
 21
175.3206839632
  0
LINE
  8
0
 62
7
  6
CONTINUOUS
 10
122.0786951097
 20
182.4099219615
 11
121.6255226345
 21
182.4716231407
  0
LINE
  8
0
 62
7
  6
CONTINUOUS
 10
121.2374116638
 20
184.4611622867
 11
121.6905859103
 21
184.3994633581
  0
LINE
  8
0
 62
7
  6
CONTINUOUS
 10
88.7542432429
 20
176.6329914406
 11
88.6921194252
 21
176.9436113771
  0
LINE
  8
0
 62
7
  6
CONTINUOUS
 10
86.5588864866
 20
175.4729244909
 11
86.5264583942
 21
175.6992894813
  0
LINE
  8
0
 62
7
  6
CONTINUOUS
 10
88.4143300639
 20
176.7913708291
 11
88.4467581374
 21
176.5650057982
  0
LINE
  8
0
 62
7
  6
CONTINUOUS
 10
86.6151387958
 20
176.9255024011
 11
86.593650507
 21
176.5834222997
  0
LINE
  8
0
 62
7
  6
CONTINUOUS
 10
121.6066352838
 20
182.1572786529
 11
121.881476471
 21
182.0846466177
  0
LINE
  8
0
 62
7
  6
CONTINUOUS
 10
121.7094715234
 20
184.7138055661
 11
121.4346303025
 21
184.7864376305
  0
LINE
  8
0
 62
7
  6
CONTINUOUS
 10
91.9362798948
 20
173.6362010028
 11
91.9543226771
 21
173.4355791861
  0
LINE
  8
0
 62
7
  6
CONTINUOUS
 10
92.319803114
 20
173.351620564
 11
92.3017603317
 21
173.5522423807
  0
LINE
  8
0
 62
7
  6
CONTINUOUS
 10
89.6028445201
 20
176.8226784303
 11
89.5720623884
 21
173.6605499897
  0
LINE
  8
0
 62
7
  6
CONTINUOUS
 10
89.891547267
 20
173.8206069118
 11
89.9205482177
 21
175.6332534958
  0
LINE
  8
0
 62
7
  6
CONTINUOUS
 10
89.9445420041
 20
175.8950141478
 11
89.9574295023
 21
176.7006354443
  0
LINE
  8
0
 62
7
  6
CONTINUOUS
 10
88.7327549352
 20
176.2909112986
 11
88.7542432429
 21
176.6329914406
  0
LINE
  8
0
 62
7
  6
CONTINUOUS
 10
86.2431939539
 20
175.8312739162
 11
86.2189733075
 21
175.6313038794
  0
LINE
  8
0
 62
7
  6
CONTINUOUS
 10
86.9011355936
 20
176.6514079016
 11
86.9253562777
 21
176.8513780194
  0
LINE
  8
0
 62
7
  6
CONTINUOUS
 10
88.4467581374
 20
176.5650057982
 11
88.422537491
 21
176.3650357614
  0
LINE
  8
0
 62
7
  6
CONTINUOUS
 10
95.7493356851
 20
241.7525540341
 11
95.5918121041
 21
240.6542567643
  0
LINE
  8
0
 62
7
  6
CONTINUOUS
 10
73.9087598449
 20
173.9206837905
 11
73.3906361611
 21
172.9395525966
  0
LINE
  8
0
 62
7
  6
CONTINUOUS
 10
119.6302761978
 20
236.582957152
 11
118.8572740059
 21
235.7870060337
  0
LINE
  8
0
 62
7
  6
CONTINUOUS
 10
62.0903062115
 20
194.5433897452
 11
61.0944408998
 21
194.0541833958
  0
LINE
  8
0
 62
7
  6
CONTINUOUS
 10
129.4390409866
 20
200.8629792932
 11
129.1822388144
 21
200.8068836892
  0
LINE
  8
0
 62
7
  6
CONTINUOUS
 10
64.6506987974
 20
186.6633116349
 11
63.5574785586
 21
186.4737329418
  0
LINE
  8
0
 62
7
  6
CONTINUOUS
 10
128.4053661686
 20
194.2188824222
 11
128.606220242
 21
194.2341178315
  0
LINE
  8
0
 62
7
  6
CONTINUOUS
 10
128.6332756192
 20
194.6135479928
 11
128.4324213721
 21
194.598312626
  0
LINE
  8
0
 62
7
  6
CONTINUOUS
 10
127.165293925
 20
194.5220619437
 11
127.3661480853
 21
194.5372973317
  0
LINE
  8
0
 62
7
  6
CONTINUOUS
 10
127.3932034625
 20
194.9167274931
 11
127.1923493022
 21
194.901492105
  0
LINE
  8
0
 62
7
  6
CONTINUOUS
 10
135.9117501066
 20
186.4737329418
 11
134.8185298678
 21
186.6633116349
  0
LINE
  8
0
 62
7
  6
CONTINUOUS
 10
121.4209614107
 20
182.2353784545
 11
121.6066352838
 21
182.1572786529
  0
LINE
  8
0
 62
7
  6
CONTINUOUS
 10
121.8951452613
 20
184.6357058815
 11
121.7094715234
 21
184.7138055661
  0
LINE
  8
0
 62
7
  6
CONTINUOUS
 10
62.0903062115
 20
210.2941439729
 11
61.0944408998
 21
210.7833503223
  0
LINE
  8
0
 62
7
  6
CONTINUOUS
 10
119.6302761978
 20
168.254576566
 11
118.8572740059
 21
169.0505276844
  0
LINE
  8
0
 62
7
  6
CONTINUOUS
 10
73.3906361611
 20
231.8979811215
 11
73.9087598449
 21
230.9168499275
  0
LINE
  8
0
 62
7
  6
CONTINUOUS
 10
95.5918121041
 20
164.1832769538
 11
95.7493356851
 21
163.084979684
  0
LINE
  8
0
 62
7
  6
CONTINUOUS
 10
128.0120504642
 20
202.5241829086
 11
128.2688526365
 21
202.5802785126
  0
LINE
  8
0
 62
7
  6
CONTINUOUS
 10
129.1728614123
 20
200.4320009551
 11
129.4934735828
 21
200.4865004012
  0
LINE
  8
0
 62
7
  6
CONTINUOUS
 10
128.2782300386
 20
202.9551612467
 11
127.9576180468
 21
202.9006617961
  0
LINE
  8
0
 62
7
  6
CONTINUOUS
 10
121.1387795113
 20
182.3970433103
 11
121.4209614107
 21
182.2353784545
  0
LINE
  8
0
 62
7
  6
CONTINUOUS
 10
122.1773291012
 20
184.4740431301
 11
121.8951452613
 21
184.6357058815
  0
LINE
  8
0
 62
7
  6
CONTINUOUS
 10
121.6255226345
 20
182.4716231407
 11
121.2950847815
 21
182.6750684192
  0
LINE
  8
0
 62
7
  6
CONTINUOUS
 10
121.6905859103
 20
184.3994633581
 11
122.0210219581
 21
184.1960158583
  0
LINE
  8
0
 62
7
  6
CONTINUOUS
 10
91.9934432452
 20
173.8850388917
 11
91.9362798948
 21
173.6362010028
  0
LINE
  8
0
 62
7
  6
CONTINUOUS
 10
92.3017603317
 20
173.5522423807
 11
92.3446328545
 21
173.7388708409
  0
LINE
  8
0
 62
7
  6
CONTINUOUS
 10
88.6007014888
 20
175.8595109588
 11
88.7327549352
 21
176.2909112986
  0
LINE
  8
0
 62
7
  6
CONTINUOUS
 10
86.7499297864
 20
177.2147902596
 11
86.6151387958
 21
176.9255024011
  0
LINE
  8
0
 62
7
  6
CONTINUOUS
 10
86.9253562777
 20
176.8513780194
 11
87.0062308495
 21
177.0249506859
  0
LINE
  8
0
 62
7
  6
CONTINUOUS
 10
127.7059967292
 20
211.9772297131
 11
126.4847127312
 21
211.6055283126
  0
LINE
  8
0
 62
7
  6
CONTINUOUS
 10
126.5757021388
 20
211.3065681596
 11
127.7969861369
 21
211.6782695601
  0
LINE
  8
0
 62
7
  6
CONTINUOUS
 10
126.8173329146
 20
207.270774604
 11
128.0036871535
 21
207.5224986007
  0
LINE
  8
0
 62
7
  6
CONTINUOUS
 10
127.9388240888
 20
207.8281928242
 11
126.7524698499
 21
207.5764688276
  0
LINE
  8
0
 62
7
  6
CONTINUOUS
 10
126.9355638936
 20
206.466328721
 11
128.9541318538
 21
206.7784291305
  0
LINE
  8
0
 62
7
  6
CONTINUOUS
 10
129.5849344629
 20
206.8759605272
 11
129.9003356791
 21
206.9247262119
  0
LINE
  8
0
 62
7
  6
CONTINUOUS
 10
129.8525859587
 20
207.2335564885
 11
129.5371847425
 21
207.1847908038
  0
LINE
  8
0
 62
7
  6
CONTINUOUS
 10
128.9063821334
 20
207.087259407
 11
126.8878141731
 21
206.7751589975
  0
LINE
  8
0
 62
7
  6
CONTINUOUS
 10
128.2157140308
 20
200.4559432576
 11
129.1728614123
 21
200.4320009551
  0
LINE
  8
0
 62
7
  6
CONTINUOUS
 10
129.1822388144
 20
200.8068836892
 11
128.2250914329
 21
200.8308259917
  0
LINE
  8
0
 62
7
  6
CONTINUOUS
 10
126.8205983594
 20
197.5032842783
 11
129.7936645744
 21
197.1021891755
  0
LINE
  8
0
 62
7
  6
CONTINUOUS
 10
129.8438014622
 20
197.4738224524
 11
127.3135323346
 21
197.8151799878
  0
LINE
  8
0
 62
7
  6
CONTINUOUS
 10
126.8552759292
 20
194.5978568081
 11
127.165293925
 21
194.5220619437
  0
LINE
  8
0
 62
7
  6
CONTINUOUS
 10
128.1573515983
 20
194.2795183562
 11
128.4053661686
 21
194.2188824222
  0
LINE
  8
0
 62
7
  6
CONTINUOUS
 10
128.4324213721
 20
194.598312626
 11
128.3084141738
 21
194.6286305718
  0
LINE
  8
0
 62
7
  6
CONTINUOUS
 10
127.1923493022
 20
194.901492105
 11
127.0063385047
 21
194.9469690237
  0
LINE
  8
0
 62
7
  6
CONTINUOUS
 10
122.3128859692
 20
186.6696668689
 11
122.6366229078
 21
186.4650523619
  0
LINE
  8
0
 62
7
  6
CONTINUOUS
 10
124.4711322764
 20
185.3055701235
 11
124.8488253273
 21
185.0668532264
  0
LINE
  8
0
 62
7
  6
CONTINUOUS
 10
121.5529356281
 20
185.6750671231
 11
123.957576972
 21
183.8812722611
  0
LINE
  8
0
 62
7
  6
CONTINUOUS
 10
123.7725007243
 20
184.4871791777
 11
121.7771599858
 21
185.975647291
  0
LINE
  8
0
 62
7
  6
CONTINUOUS
 10
124.0478876577
 20
184.7495935021
 11
123.6385869089
 21
185.0549203577
  0
LINE
  8
0
 62
7
  6
CONTINUOUS
 10
120.7044927844
 20
182.7730865804
 11
121.1387795113
 21
182.3970433103
  0
LINE
  8
0
 62
7
  6
CONTINUOUS
 10
121.2950847815
 20
182.6750684192
 11
120.9573062162
 21
182.9675465181
  0
LINE
  8
0
 62
7
  6
CONTINUOUS
 10
94.3390672178
 20
175.4419541417
 11
94.0389597984
 21
174.1355559657
  0
LINE
  8
0
 62
7
  6
CONTINUOUS
 10
93.9532148328
 20
173.7622993937
 11
93.7388523789
 21
172.8291577896
  0
LINE
  8
0
 62
7
  6
CONTINUOUS
 10
94.0328786779
 20
172.4341520242
 11
94.7045476547
 21
175.3579955196
  0
LINE
  8
0
 62
7
  6
CONTINUOUS
 10
88.422537491
 20
176.3650357614
 11
88.3416629193
 21
176.1914630949
  0
LINE
  8
0
 62
7
  6
CONTINUOUS
 10
88.1826512823
 20
175.7022051996
 11
88.1287349011
 21
175.5864900886
  0
LINE
  8
0
 62
7
  6
CONTINUOUS
 10
88.4119941547
 20
175.4545080704
 11
88.6007014888
 21
175.8595109588
  0
LINE
  8
0
 62
7
  6
CONTINUOUS
 10
128.1609437609
 20
210.4824289698
 11
126.8175313715
 21
210.0735574318
  0
LINE
  8
0
 62
7
  6
CONTINUOUS
 10
126.6642639734
 20
209.7002569269
 11
128.251933188
 21
210.1834687527
  0
LINE
  8
0
 62
7
  6
CONTINUOUS
 10
126.518962728
 20
208.6769684523
 11
127.9550757172
 21
208.9816869668
  0
LINE
  8
0
 62
7
  6
CONTINUOUS
 10
128.2048344675
 20
209.0346814846
 11
128.5170329054
 21
209.1009246318
  0
LINE
  8
0
 62
7
  6
CONTINUOUS
 10
128.4521698036
 20
209.4066190303
 11
126.4540996262
 21
208.9826628508
  0
LINE
  8
0
 62
7
  6
CONTINUOUS
 10
128.2688526365
 20
202.5802785126
 11
129.226000018
 21
202.5563362101
  0
LINE
  8
0
 62
7
  6
CONTINUOUS
 10
129.2353774201
 20
202.9312189442
 11
128.2782300386
 21
202.9551612467
  0
LINE
  8
0
 62
7
  6
CONTINUOUS
 10
127.1047073587
 20
199.6092059443
 11
129.698233251
 21
199.2593144655
  0
LINE
  8
0
 62
7
  6
CONTINUOUS
 10
130.1279104615
 20
199.5797441183
 11
127.1548442466
 21
199.9808392212
  0
LINE
  8
0
 62
7
  6
CONTINUOUS
 10
127.0053960477
 20
196.5557199534
 11
127.9354501653
 21
196.3283353282
  0
LINE
  8
0
 62
7
  6
CONTINUOUS
 10
128.3074717602
 20
196.2373814908
 11
129.175522322
 21
196.0251558279
  0
LINE
  8
0
 62
7
  6
CONTINUOUS
 10
129.6366028933
 20
196.298473179
 11
126.7224333857
 21
197.0109449898
  0
LINE
  8
0
 62
7
  6
CONTINUOUS
 10
126.1845036174
 20
187.1801364279
 11
125.9147228668
 21
187.3506484972
  0
LINE
  8
0
 62
7
  6
CONTINUOUS
 10
124.0802134982
 20
188.5101307356
 11
123.6485642594
 21
188.7829500703
  0
LINE
  8
0
 62
7
  6
CONTINUOUS
 10
122.0210219581
 20
184.1960158583
 11
122.3588005235
 21
183.9035377593
  0
LINE
  8
0
 62
7
  6
CONTINUOUS
 10
122.6116158281
 20
184.09799986
 11
122.1773291012
 21
184.4740431301
  0
LINE
  8
0
 62
7
  6
CONTINUOUS
 10
120.9573062162
 20
182.9675465181
 11
120.7086950325
 21
183.265492325
  0
LINE
  8
0
 62
7
  6
CONTINUOUS
 10
88.1666328953
 20
175.0759025523
 11
88.4119941547
 21
175.4545080704
  0
LINE
  8
0
 62
7
  6
CONTINUOUS
 10
88.1287349011
 20
175.5864900886
 11
87.9103318322
 21
175.265742126
  0
LINE
  8
0
 62
7
  6
CONTINUOUS
 10
126.4847127312
 20
211.6055283126
 11
126.2586537884
 21
211.4713959909
  0
LINE
  8
0
 62
7
  6
CONTINUOUS
 10
126.4382050234
 20
209.5661246672
 11
126.6642639734
 21
209.7002569269
  0
LINE
  8
0
 62
7
  6
CONTINUOUS
 10
128.238049884
 20
207.9555749562
 11
127.9388240888
 21
207.8281928242
  0
LINE
  8
0
 62
7
  6
CONTINUOUS
 10
128.0036871535
 20
207.5224986007
 11
128.3029130229
 21
207.6498803827
  0
LINE
  8
0
 62
7
  6
CONTINUOUS
 10
127.8982278278
 20
200.5264042417
 11
128.2157140308
 21
200.4559432576
  0
LINE
  8
0
 62
7
  6
CONTINUOUS
 10
129.5528638018
 20
202.8607579556
 11
129.2353774201
 21
202.9312189442
  0
LINE
  8
0
 62
7
  6
CONTINUOUS
 10
128.2250914329
 20
200.8308259917
 11
127.9714150493
 21
200.8996908225
  0
LINE
  8
0
 62
7
  6
CONTINUOUS
 10
129.226000018
 20
202.5563362101
 11
129.4796764015
 21
202.4874713793
  0
LINE
  8
0
 62
7
  6
CONTINUOUS
 10
126.6841083643
 20
194.7040460654
 11
126.8552759292
 21
194.5978568081
  0
LINE
  8
0
 62
7
  6
CONTINUOUS
 10
122.3588005235
 20
183.9035377593
 11
122.6074135124
 21
183.6055941738
  0
LINE
  8
0
 62
7
  6
CONTINUOUS
 10
120.5041338086
 20
183.0292476388
 11
120.7044927844
 21
182.7730865804
  0
LINE
  8
0
 62
7
  6
CONTINUOUS
 10
122.8119728634
 20
183.8418366972
 11
122.6116158281
 21
184.09799986
  0
LINE
  8
0
 62
7
  6
CONTINUOUS
 10
120.400283062
 20
183.2018434676
 11
120.5041338086
 21
183.0292476388
  0
LINE
  8
0
 62
7
  6
CONTINUOUS
 10
103.8774165611
 20
164.1832769538
 11
103.7198929801
 21
163.084979684
  0
LINE
  8
0
 62
7
  6
CONTINUOUS
 10
126.0785925041
 20
231.8979811215
 11
125.5604688203
 21
230.9168499275
  0
LINE
  8
0
 62
7
  6
CONTINUOUS
 10
92.097230993
 20
174.0576736469
 11
91.9934432452
 21
173.8850388917
  0
LINE
  8
0
 62
7
  6
CONTINUOUS
 10
92.3446328545
 20
173.7388708409
 11
92.4484206023
 21
173.9115055962
  0
LINE
  8
0
 62
7
  6
CONTINUOUS
 10
91.6121612226
 20
176.1311008891
 11
91.1264901411
 21
175.4882048153
  0
LINE
  8
0
 62
7
  6
CONTINUOUS
 10
90.9843031642
 20
175.267124538
 11
89.891547267
 21
173.8206069118
  0
LINE
  8
0
 62
7
  6
CONTINUOUS
 10
90.0448405611
 20
173.4978266291
 11
91.9667462047
 21
176.0090579032
  0
LINE
  8
0
 62
7
  6
CONTINUOUS
 10
87.0062308495
 20
177.0249506859
 11
87.1437593466
 21
177.172125982
  0
LINE
  8
0
 62
7
  6
CONTINUOUS
 10
88.3416629193
 20
176.1914630949
 11
88.2041343844
 21
176.0442877177
  0
LINE
  8
0
 62
7
  6
CONTINUOUS
 10
87.9103318322
 20
175.265742126
 11
87.7728032595
 21
175.1185666677
  0
LINE
  8
0
 62
7
  6
CONTINUOUS
 10
80.6119546593
 20
169.0505276844
 11
79.8389524675
 21
168.254576566
  0
LINE
  8
0
 62
7
  6
CONTINUOUS
 10
86.9980234223
 20
177.4512857536
 11
86.7499297864
 21
177.2147902596
  0
LINE
  8
0
 62
7
  6
CONTINUOUS
 10
126.2586537884
 20
211.4713959909
 11
126.1547232796
 21
211.3744338196
  0
LINE
  8
0
 62
7
  6
CONTINUOUS
 10
126.5122103506
 20
209.9806320752
 11
126.243285111
 21
209.7681225976
  0
LINE
  8
0
 62
7
  6
CONTINUOUS
 10
126.410707436
 20
211.1910209143
 11
126.5757021388
 21
211.3065681596
  0
LINE
  8
0
 62
7
  6
CONTINUOUS
 10
128.3029130229
 20
207.6498803827
 11
128.477259443
 21
207.7507652557
  0
LINE
  8
0
 62
7
  6
CONTINUOUS
 10
138.3747877654
 20
210.7833503223
 11
137.3789224537
 21
210.2941439729
  0
LINE
  8
0
 62
7
  6
CONTINUOUS
 10
127.9576180468
 20
202.9006617961
 11
127.6992529176
 21
202.7820852609
  0
LINE
  8
0
 62
7
  6
CONTINUOUS
 10
135.9117501066
 20
218.3638007762
 11
134.8185298678
 21
218.1742220831
  0
LINE
  8
0
 62
7
  6
CONTINUOUS
 10
64.6506987974
 20
218.1742220831
 11
63.5574785586
 21
218.3638007762
  0
LINE
  8
0
 62
7
  6
CONTINUOUS
 10
138.3747877654
 20
194.0541833958
 11
137.3789224537
 21
194.5433897452
  0
LINE
  8
0
 62
7
  6
CONTINUOUS
 10
127.6461143119
 20
200.657750006
 11
127.8982278278
 21
200.5264042417
  0
LINE
  8
0
 62
7
  6
CONTINUOUS
 10
127.0063385047
 20
194.9469690237
 11
126.8351709832
 21
195.0531582703
  0
LINE
  8
0
 62
7
  6
CONTINUOUS
 10
127.9861840768
 20
194.3857076028
 11
128.1573515983
 21
194.2795183562
  0
LINE
  8
0
 62
7
  6
CONTINUOUS
 10
128.3084141738
 20
194.6286305718
 11
128.1372466523
 21
194.7348198184
  0
LINE
  8
0
 62
7
  6
CONTINUOUS
 10
79.8389524675
 20
236.582957152
 11
80.6119546593
 21
235.7870060337
  0
LINE
  8
0
 62
7
  6
CONTINUOUS
 10
122.9158237453
 20
183.6692407513
 11
122.8119728634
 21
183.8418366972
  0
LINE
  8
0
 62
7
  6
CONTINUOUS
 10
125.5604688203
 20
173.9206837905
 11
126.0785925041
 21
172.9395525966
  0
LINE
  8
0
 62
7
  6
CONTINUOUS
 10
120.2890915692
 20
183.4634721462
 11
120.400283062
 21
183.2018434676
  0
LINE
  8
0
 62
7
  6
CONTINUOUS
 10
103.7198929801
 20
241.7525540341
 11
103.8774165611
 21
240.6542567643
  0
LINE
  8
0
 62
7
  6
CONTINUOUS
 10
126.2639105746
 20
211.0156816169
 11
126.410707436
 21
211.1910209143
  0
LINE
  8
0
 62
7
  6
CONTINUOUS
 10
87.9185392027
 20
174.8394069367
 11
88.1666328953
 21
175.0759025523
  0
LINE
  8
0
 62
7
  6
CONTINUOUS
 10
126.3342745382
 20
209.4691623805
 11
126.4382050234
 21
209.5661246672
  0
LINE
  8
0
 62
7
  6
CONTINUOUS
 10
87.1437593466
 20
177.172125982
 11
87.3379366014
 21
177.2929063651
  0
LINE
  8
0
 62
7
  6
CONTINUOUS
 10
127.8174951991
 20
202.404010219
 11
128.0120504642
 21
202.5241829086
  0
LINE
  8
0
 62
7
  6
CONTINUOUS
 10
129.4934735828
 20
200.4865004012
 11
129.7518386674
 21
200.6050769375
  0
LINE
  8
0
 62
7
  6
CONTINUOUS
 10
127.3135323346
 20
197.8151799878
 11
130.0527052254
 21
199.0222949119
  0
LINE
  8
0
 62
7
  6
CONTINUOUS
 10
129.698233251
 20
199.2593144655
 11
126.8958036912
 21
198.0607341936
  0
LINE
  8
0
 62
7
  6
CONTINUOUS
 10
126.8175313715
 20
210.0735574318
 11
126.5979429866
 21
210.1373862482
  0
LINE
  8
0
 62
7
  6
CONTINUOUS
 10
129.8049772731
 20
202.7294121925
 11
129.5528638018
 21
202.8607579556
  0
LINE
  8
0
 62
7
  6
CONTINUOUS
 10
127.9714150493
 20
200.8996908225
 11
127.7831113976
 21
201.0294404323
  0
LINE
  8
0
 62
7
  6
CONTINUOUS
 10
123.0270152042
 20
183.407612102
 11
122.9158237453
 21
183.6692407513
  0
LINE
  8
0
 62
7
  6
CONTINUOUS
 10
120.7086950325
 20
183.265492325
 11
120.5828183695
 21
183.7051823189
  0
LINE
  8
0
 62
7
  6
CONTINUOUS
 10
120.2670656698
 20
183.7305662967
 11
120.2890915692
 21
183.4634721462
  0
LINE
  8
0
 62
7
  6
CONTINUOUS
 10
126.1547232796
 20
211.3744338196
 11
126.026124314
 21
211.1393025216
  0
LINE
  8
0
 62
7
  6
CONTINUOUS
 10
127.6992529176
 20
202.7820852609
 11
127.4377620219
 21
202.5385482905
  0
LINE
  8
0
 62
7
  6
CONTINUOUS
 10
92.3371345218
 20
174.2645320505
 11
92.097230993
 21
174.0576736469
  0
LINE
  8
0
 62
7
  6
CONTINUOUS
 10
87.7728032595
 20
175.1185666677
 11
87.5786260237
 21
174.9977863252
  0
LINE
  8
0
 62
7
  6
CONTINUOUS
 10
129.6335964305
 20
200.9831519784
 11
129.4390409866
 21
200.8629792932
  0
LINE
  8
0
 62
7
  6
CONTINUOUS
 10
87.2758127836
 20
177.6035263016
 11
86.9980234223
 21
177.4512857536
  0
LINE
  8
0
 62
7
  6
CONTINUOUS
 10
87.6407498509
 20
174.687166409
 11
87.9185392027
 21
174.8394069367
  0
LINE
  8
0
 62
7
  6
CONTINUOUS
 10
127.3661480853
 20
194.5372973317
 11
127.65869197
 21
194.6587970344
  0
LINE
  8
0
 62
7
  6
CONTINUOUS
 10
128.606220242
 20
194.2341178315
 11
128.8987641268
 21
194.3556175341
  0
LINE
  8
0
 62
7
  6
CONTINUOUS
 10
126.2744241118
 20
210.1042528698
 11
126.5122103506
 21
209.9806320752
  0
LINE
  8
0
 62
7
  6
CONTINUOUS
 10
129.4796764015
 20
202.4874713793
 11
129.6679802321
 21
202.3577217651
  0
LINE
  8
0
 62
7
  6
CONTINUOUS
 10
127.5216204796
 20
200.7859034624
 11
127.6461143119
 21
200.657750006
  0
LINE
  8
0
 62
7
  6
CONTINUOUS
 10
126.4806234342
 20
194.9468175564
 11
126.6841083643
 21
194.7040460654
  0
LINE
  8
0
 62
7
  6
CONTINUOUS
 10
127.7826991684
 20
194.6284790886
 11
127.9861840768
 21
194.3857076028
  0
LINE
  8
0
 62
7
  6
CONTINUOUS
 10
126.8351709832
 20
195.0531582703
 11
126.7408499537
 21
195.204899493
  0
LINE
  8
0
 62
7
  6
CONTINUOUS
 10
122.6074135124
 20
183.6055941738
 11
122.733288404
 21
183.1659019293
  0
LINE
  8
0
 62
7
  6
CONTINUOUS
 10
123.0490410868
 20
183.1405179662
 11
123.0270152042
 21
183.407612102
  0
LINE
  8
0
 62
7
  6
CONTINUOUS
 10
120.5828183695
 20
183.7051823189
 11
120.6090465677
 21
183.9304938692
  0
LINE
  8
0
 62
7
  6
CONTINUOUS
 10
126.026124314
 20
211.1393025216
 11
125.9585895591
 21
210.9227562619
  0
LINE
  8
0
 62
7
  6
CONTINUOUS
 10
128.3369840482
 20
208.1043498345
 11
128.238049884
 21
207.9555749562
  0
LINE
  8
0
 62
7
  6
CONTINUOUS
 10
128.477259443
 20
207.7507652557
 11
128.5761936072
 21
207.8995401341
  0
LINE
  8
0
 62
7
  6
CONTINUOUS
 10
127.6851868145
 20
202.2197611597
 11
127.8174951991
 21
202.404010219
  0
LINE
  8
SQ
 62
2
  6
PHANTOM
 10
125.2744795842
 20
199.6743608632
 11
121.7389456783
 21
196.1388269573
  0
LINE
  8
SQ
 62
2
  6
PHANTOM
 10
102.4790203284
 20
176.8789016074
 11
106.0145542344
 21
180.4144355133
  0
LINE
  8
SQ
 62
2
  6
PHANTOM
 10
109.8588570775
 20
181.9959966567
 11
120.157384535
 21
192.2945241141
  0
LINE
  8
0
 62
7
  6
CONTINUOUS
 10
127.9886069591
 20
201.5869760734
 11
127.6617433093
 21
201.2825543245
  0
LINE
  8
0
 62
7
  6
CONTINUOUS
 10
127.3348796886
 20
200.9781332903
 11
127.2041342319
 21
200.8563644476
  0
LINE
  8
0
 62
7
  6
CONTINUOUS
 10
127.7831113976
 20
201.0294404323
 11
127.979229557
 21
201.2120933393
  0
LINE
  8
0
 62
7
  6
CONTINUOUS
 10
127.1947568298
 20
200.4814817135
 11
127.5216204796
 21
200.7859034624
  0
LINE
  8
0
 62
7
  6
CONTINUOUS
 10
129.7518386674
 20
200.6050769375
 11
130.0133295407
 21
200.8486139085
  0
LINE
  8
0
 62
7
  6
CONTINUOUS
 10
92.4484206023
 20
173.9115055962
 11
92.5988272109
 21
174.0079386732
  0
LINE
  8
0
 62
7
  6
CONTINUOUS
 10
127.546896873
 20
195.0078328136
 11
127.3932034625
 21
194.9167274931
  0
LINE
  8
0
 62
7
  6
CONTINUOUS
 10
128.7869690297
 20
194.7046533133
 11
128.6332756192
 21
194.6135479928
  0
LINE
  8
0
 62
7
  6
CONTINUOUS
 10
92.6236624882
 20
174.3951874947
 11
92.3371345218
 21
174.2645320505
  0
LINE
  8
0
 62
7
  6
CONTINUOUS
 10
88.2041343844
 20
176.0442877177
 11
88.0369153391
 21
175.9813649307
  0
LINE
  8
0
 62
7
  6
CONTINUOUS
 10
127.9550757172
 20
208.9816869668
 11
128.1059003405
 21
208.8859064313
  0
LINE
  8
0
 62
7
  6
CONTINUOUS
 10
128.3556590908
 20
208.9389009491
 11
128.2048344675
 21
209.0346814846
  0
LINE
  8
0
 62
7
  6
CONTINUOUS
 10
126.5979429866
 20
210.1373862482
 11
126.4212209495
 21
210.2795922068
  0
LINE
  8
SQ
 62
2
  6
PHANTOM
 10
121.7389456783
 20
208.6987067608
 11
125.2744795842
 21
205.1631728549
  0
LINE
  8
SQ
 62
2
  6
PHANTOM
 10
106.0145542344
 20
224.4230982047
 11
102.4790203284
 21
227.9586321107
  0
LINE
  8
SQ
 62
2
  6
PHANTOM
 10
109.8588570775
 20
222.8415370614
 11
120.157384535
 21
212.5430096039
  0
LINE
  8
0
 62
7
  6
CONTINUOUS
 10
130.0539649556
 20
202.4731059947
 11
129.8049772731
 21
202.7294121925
  0
POLYLINE
  8
0
 62
7
  6
CONTINUOUS
 66
1
 70
0
  0
VERTEX
  8
0
 62
7
  6
CONTINUOUS
 10
99.0326128209
 20
236.9116240019
  0
VERTEX
  8
0
 62
7
  6
CONTINUOUS
 10
99.075770705
 20
236.8586306174
  0
VERTEX
  8
0
 62
7
  6
CONTINUOUS
 10
99.1243533447
 20
236.8107375085
  0
VERTEX
  8
0
 62
7
  6
CONTINUOUS
 10
99.177111024
 20
236.7681864569
  0
VERTEX
  8
0
 62
7
  6
CONTINUOUS
 10
99.2335926156
 20
236.7305790328
  0
VERTEX
  8
0
 62
7
  6
CONTINUOUS
 10
99.2950071236
 20
236.696904011
  0
VERTEX
  8
0
 62
7
  6
CONTINUOUS
 10
99.3628616861
 20
236.6667769898
  0
VERTEX
  8
0
 62
7
  6
CONTINUOUS
 10
99.4387200546
 20
236.6404788572
  0
VERTEX
  8
0
 62
7
  6
CONTINUOUS
 10
99.5245908253
 20
236.6188543235
  0
VERTEX
  8
0
 62
7
  6
CONTINUOUS
 10
99.6225232699
 20
236.6036338134
  0
VERTEX
  8
0
 62
7
  6
CONTINUOUS
 10
99.7346143326
 20
236.5976761682
  0
SEQEND
  0
LINE
  8
0
 62
7
  6
CONTINUOUS
 10
128.1372466523
 20
194.7348198184
 11
128.0429256662
 21
194.8865610304
  0
LINE
  8
0
 62
7
  6
CONTINUOUS
 10
126.3539850448
 20
195.2351410117
 11
126.4806234342
 21
194.9468175564
  0
LINE
  8
0
 62
7
  6
CONTINUOUS
 10
123.7719494926
 20
188.2613431435
 11
124.4711322764
 21
185.3055701235
  0
LINE
  8
0
 62
7
  6
CONTINUOUS
 10
123.6385869089
 20
185.0549203577
 11
123.7725007243
 21
184.4871791777
  0
LINE
  8
0
 62
7
  6
CONTINUOUS
 10
124.1818013298
 20
184.1818524291
 11
124.0478876577
 21
184.7495935021
  0
LINE
  8
0
 62
7
  6
CONTINUOUS
 10
124.7460048406
 20
185.5015264517
 11
124.0802134982
 21
188.5101307356
  0
LINE
  8
0
 62
7
  6
CONTINUOUS
 10
126.7408499537
 20
195.204899493
 11
126.7233758427
 21
195.4021940601
  0
LINE
  8
0
 62
7
  6
CONTINUOUS
 10
125.9585895591
 20
210.9227562619
 11
125.9703168816
 21
210.6650030777
  0
LINE
  8
0
 62
7
  6
CONTINUOUS
 10
122.733288404
 20
183.1659019293
 11
122.7070602058
 21
182.940590379
  0
LINE
  8
0
 62
7
  6
CONTINUOUS
 10
120.3268646386
 20
184.0921587505
 11
120.2670656698
 21
183.7305662967
  0
LINE
  8
0
 62
7
  6
CONTINUOUS
 10
122.9892439781
 20
182.7789276861
 11
123.0490410868
 21
183.1405179662
  0
LINE
  8
0
 62
7
  6
CONTINUOUS
 10
126.2145736855
 20
210.7393433591
 11
126.2639105746
 21
211.0156816169
  0
LINE
  8
0
 62
7
  6
CONTINUOUS
 10
128.3734785247
 20
208.2398760834
 11
128.3369840482
 21
208.1043498345
  0
LINE
  8
0
 62
7
  6
CONTINUOUS
 10
128.5761936072
 20
207.8995401341
 11
128.6621551287
 21
208.1094539971
  0
LINE
  8
0
 62
7
  6
CONTINUOUS
 10
127.4377620219
 20
202.5385482905
 11
127.3038907708
 21
202.2918190132
  0
LINE
  8
0
 62
7
  6
CONTINUOUS
 10
129.7659047704
 20
201.1674010387
 11
129.6335964305
 21
200.9831519784
  0
LINE
  8
0
 62
7
  6
CONTINUOUS
 10
127.65869197
 20
194.6587970344
 11
127.7503817814
 21
194.7650613278
  0
LINE
  8
0
 62
7
  6
CONTINUOUS
 10
128.8987641268
 20
194.3556175341
 11
129.1441473487
 21
194.552987148
  0
LINE
  8
0
 62
7
  6
CONTINUOUS
 10
121.1671316835
 20
184.7700390227
 11
120.8178100776
 21
184.6591442671
  0
LINE
  8
0
 62
7
  6
CONTINUOUS
 10
122.148975073
 20
182.1010452401
 11
122.4982985391
 21
182.2119421696
  0
LINE
  8
0
 62
7
  6
CONTINUOUS
 10
128.1059003405
 20
208.8859064313
 11
128.2696975322
 21
208.728987261
  0
LINE
  8
0
 62
7
  6
CONTINUOUS
 10
128.5194562825
 20
208.7819817788
 11
128.3556590908
 21
208.9389009491
  0
LINE
  8
0
 62
7
  6
CONTINUOUS
 10
126.1769641296
 20
210.2052519205
 11
126.2744241118
 21
210.1042528698
  0
LINE
  8
0
 62
7
  6
CONTINUOUS
 10
129.6679802321
 20
202.3577217651
 11
129.79091117
 21
202.1670880913
  0
LINE
  8
0
 62
7
  6
CONTINUOUS
 10
126.0431084181
 20
210.4258349212
 11
126.1769641296
 21
210.2052519205
  0
LINE
  8
0
 62
7
  6
CONTINUOUS
 10
127.2757585646
 20
201.1671708109
 11
127.3348796886
 21
200.9781332903
  0
LINE
  8
0
 62
7
  6
CONTINUOUS
 10
127.6617433093
 20
201.2825543245
 11
127.6026221909
 21
201.4715918449
  0
LINE
  8
0
 62
7
  6
CONTINUOUS
 10
127.7503817814
 20
194.7650613278
 11
127.7826991684
 21
194.6284790886
  0
LINE
  8
0
 62
7
  6
CONTINUOUS
 10
128.0429256662
 20
194.8865610304
 11
128.0254515552
 21
195.0838555976
  0
LINE
  8
0
 62
7
  6
CONTINUOUS
 10
127.232266438
 20
201.9810126499
 11
127.2197632293
 21
201.4811687661
  0
LINE
  8
0
 62
7
  6
CONTINUOUS
 10
127.2041342319
 20
200.8563644476
 11
127.1947568298
 21
200.4814817135
  0
LINE
  8
0
 62
7
  6
CONTINUOUS
 10
127.6026221909
 20
201.4715918449
 11
127.6151253996
 21
201.9714357287
  0
LINE
  8
0
 62
7
  6
CONTINUOUS
 10
127.979229557
 20
201.2120933393
 11
127.9886069591
 21
201.5869760734
  0
LINE
  8
0
 62
7
  6
CONTINUOUS
 10
129.848469394
 20
201.9155703536
 11
129.8359661853
 21
201.4157264697
  0
LINE
  8
0
 62
7
  6
CONTINUOUS
 10
126.3661974804
 20
195.553860236
 11
126.3539850448
 21
195.2351410117
  0
LINE
  8
0
 62
7
  6
CONTINUOUS
 10
128.384027716
 20
208.4976803017
 11
128.3734785247
 21
208.2398760834
  0
LINE
  8
0
 62
7
  6
CONTINUOUS
 10
128.6621551287
 20
208.1094539971
 11
128.6856769626
 21
208.3061192307
  0
LINE
  8
0
 62
7
  6
CONTINUOUS
 10
127.1548442466
 20
199.9808392212
 11
127.1047073587
 21
199.6092059443
  0
LINE
  8
0
 62
7
  6
CONTINUOUS
 10
126.8958036912
 20
198.0607341936
 11
126.8205983594
 21
197.5032842783
  0
LINE
  8
0
 62
7
  6
CONTINUOUS
 10
127.3038907708
 20
202.2918190132
 11
127.232266438
 21
201.9810126499
  0
LINE
  8
0
 62
7
  6
CONTINUOUS
 10
130.1472007929
 20
201.0953439013
 11
130.2188251022
 21
201.4061495496
  0
LINE
  8
0
 62
7
  6
CONTINUOUS
 10
126.7224333857
 20
197.0109449898
 11
126.3661974804
 21
195.553860236
  0
LINE
  8
0
 62
7
  6
CONTINUOUS
 10
126.7233758427
 20
195.4021940601
 11
127.0053960477
 21
196.5557199534
  0
LINE
  8
0
 62
7
  6
CONTINUOUS
 10
127.9354501653
 20
196.3283353282
 11
127.6534299603
 21
195.1748094349
  0
LINE
  8
0
 62
7
  6
CONTINUOUS
 10
128.0254515552
 20
195.0838555976
 11
128.3074717602
 21
196.2373814908
  0
LINE
  8
0
 62
7
  6
CONTINUOUS
 10
129.175522322
 20
196.0251558279
 11
128.893502117
 21
194.8716299346
  0
LINE
  8
0
 62
7
  6
CONTINUOUS
 10
127.6151253996
 20
201.9714357287
 11
127.6851868145
 21
202.2197611597
  0
LINE
  8
0
 62
7
  6
CONTINUOUS
 10
129.8359661853
 20
201.4157264697
 11
129.7659047704
 21
201.1674010387
  0
LINE
  8
0
 62
7
  6
CONTINUOUS
 10
129.1441473487
 20
194.552987148
 11
129.2803669879
 21
194.8413884252
  0
LINE
  8
0
 62
7
  6
CONTINUOUS
 10
130.0133295407
 20
200.8486139085
 11
130.1472007929
 21
201.0953439013
  0
LINE
  8
0
 62
7
  6
CONTINUOUS
 10
120.6090465677
 20
183.9304938692
 11
120.7653537107
 21
184.2085211409
  0
LINE
  8
0
 62
7
  6
CONTINUOUS
 10
122.7070602058
 20
182.940590379
 11
122.5507549355
 21
182.6625652701
  0
LINE
  8
0
 62
7
  6
CONTINUOUS
 10
120.5240832731
 20
184.417434098
 11
120.3268646386
 21
184.0921587505
  0
LINE
  8
0
 62
7
  6
CONTINUOUS
 10
122.7920253394
 20
182.4536523423
 11
122.9892439781
 21
182.7789276861
  0
LINE
  8
0
 62
7
  6
CONTINUOUS
 10
123.6485642594
 20
188.7829500703
 11
122.3128859692
 21
186.6696668689
  0
LINE
  8
0
 62
7
  6
CONTINUOUS
 10
122.6366229078
 20
186.4650523619
 11
123.7719494926
 21
188.2613431435
  0
LINE
  8
0
 62
7
  6
CONTINUOUS
 10
125.9147228668
 20
187.3506484972
 11
124.7460048406
 21
185.5015264517
  0
LINE
  8
0
 62
7
  6
CONTINUOUS
 10
127.6534299603
 20
195.1748094349
 11
127.546896873
 21
195.0078328136
  0
LINE
  8
0
 62
7
  6
CONTINUOUS
 10
128.893502117
 20
194.8716299346
 11
128.7869690297
 21
194.7046533133
  0
LINE
  8
0
 62
7
  6
CONTINUOUS
 10
121.7771599858
 20
185.975647291
 11
121.5529356281
 21
185.6750671231
  0
LINE
  8
0
 62
7
  6
CONTINUOUS
 10
120.8178100776
 20
184.6591442671
 11
120.5240832731
 21
184.417434098
  0
LINE
  8
0
 62
7
  6
CONTINUOUS
 10
122.4982985391
 20
182.2119421696
 11
122.7920253394
 21
182.4536523423
  0
LINE
  8
0
 62
7
  6
CONTINUOUS
 10
120.7653537107
 20
184.2085211409
 11
121.0181671425
 21
184.4029810787
  0
LINE
  8
0
 62
7
  6
CONTINUOUS
 10
122.5507549355
 20
182.6625652701
 11
122.2979396309
 21
182.4681031695
  0
LINE
  8
0
 62
7
  6
CONTINUOUS
 10
126.4212209495
 20
210.2795922068
 11
126.287365222
 21
210.5001752026
  0
LINE
  8
0
 62
7
  6
CONTINUOUS
 10
128.2696975322
 20
208.728987261
 11
128.384027716
 21
208.4976803017
  0
LINE
  8
0
 62
7
  6
CONTINUOUS
 10
128.6337864663
 20
208.5506748195
 11
128.5194562825
 21
208.7819817788
  0
LINE
  8
0
 62
7
  6
CONTINUOUS
 10
130.1753329991
 20
202.2199921036
 11
130.0539649556
 21
202.4731059947
  0
LINE
  8
0
 62
7
  6
CONTINUOUS
 10
125.9703168816
 20
210.6650030777
 11
126.0431084181
 21
210.4258349212
  0
LINE
  8
0
 62
7
  6
CONTINUOUS
 10
126.243285111
 20
209.7681225976
 11
126.3342745382
 21
209.4691623805
  0
LINE
  8
0
 62
7
  6
CONTINUOUS
 10
126.287365222
 20
210.5001752026
 11
126.2145736855
 21
210.7393433591
  0
LINE
  8
0
 62
7
  6
CONTINUOUS
 10
128.251933188
 20
210.1834687527
 11
128.1609437609
 21
210.4824289698
  0
LINE
  8
0
 62
7
  6
CONTINUOUS
 10
127.7969861369
 20
211.6782695601
 11
127.7059967292
 21
211.9772297131
  0
LINE
  8
0
 62
7
  6
CONTINUOUS
 10
129.79091117
 20
202.1670880913
 11
129.848469394
 21
201.9155703536
  0
LINE
  8
0
 62
7
  6
CONTINUOUS
 10
126.4540996262
 20
208.9826628508
 11
126.518962728
 21
208.6769684523
  0
LINE
  8
0
 62
7
  6
CONTINUOUS
 10
126.7524698499
 20
207.5764688276
 11
126.8173329146
 21
207.270774604
  0
LINE
  8
0
 62
7
  6
CONTINUOUS
 10
128.6856769626
 20
208.3061192307
 11
128.6337864663
 21
208.5506748195
  0
LINE
  8
0
 62
7
  6
CONTINUOUS
 10
128.5170329054
 20
209.1009246318
 11
128.4521698036
 21
209.4066190303
  0
LINE
  8
0
 62
7
  6
CONTINUOUS
 10
127.2197632293
 20
201.4811687661
 11
127.2757585646
 21
201.1671708109
  0
LINE
  8
0
 62
7
  6
CONTINUOUS
 10
130.2313283109
 20
201.9059934335
 11
130.1753329991
 21
202.2199921036
  0
LINE
  8
0
 62
7
  6
CONTINUOUS
 10
126.8878141731
 20
206.7751589975
 11
126.9355638936
 21
206.466328721
  0
LINE
  8
0
 62
7
  6
CONTINUOUS
 10
128.9541318538
 20
206.7784291305
 11
128.9063821334
 21
207.087259407
  0
LINE
  8
0
 62
7
  6
CONTINUOUS
 10
129.5371847425
 20
207.1847908038
 11
129.5849344629
 21
206.8759605272
  0
LINE
  8
0
 62
7
  6
CONTINUOUS
 10
130.2188251022
 20
201.4061495496
 11
130.2313283109
 21
201.9059934335
  0
LINE
  8
0
 62
7
  6
CONTINUOUS
 10
129.7936645744
 20
197.1021891755
 11
129.8438014622
 21
197.4738224524
  0
LINE
  8
0
 62
7
  6
CONTINUOUS
 10
130.0527052254
 20
199.0222949119
 11
130.1279104615
 21
199.5797441183
  0
LINE
  8
0
 62
7
  6
CONTINUOUS
 10
129.2803669879
 20
194.8413884252
 11
129.6366028933
 21
196.298473179
  0
LINE
  8
0
 62
7
  6
CONTINUOUS
 10
124.8488253273
 20
185.0668532264
 11
126.1845036174
 21
187.1801364279
  0
LINE
  8
0
 62
7
  6
CONTINUOUS
 10
123.957576972
 20
183.8812722611
 11
124.1818013298
 21
184.1818524291
  0
POLYLINE
  8
0
 62
7
  6
CONTINUOUS
 66
1
 70
0
  0
VERTEX
  8
0
 62
7
  6
CONTINUOUS
 10
99.7346143326
 20
236.5976761682
  0
VERTEX
  8
0
 62
7
  6
CONTINUOUS
 10
99.8623388806
 20
236.6054228211
  0
VERTEX
  8
0
 62
7
  6
CONTINUOUS
 10
99.9726370543
 20
236.6250167265
  0
VERTEX
  8
0
 62
7
  6
CONTINUOUS
 10
100.0695961213
 20
236.653127247
  0
VERTEX
  8
0
 62
7
  6
CONTINUOUS
 10
100.1565278874
 20
236.6883861507
  0
VERTEX
  8
0
 62
7
  6
CONTINUOUS
 10
100.2361153589
 20
236.7308692594
  0
VERTEX
  8
0
 62
7
  6
CONTINUOUS
 10
100.310220812
 20
236.7818704433
  0
VERTEX
  8
0
 62
7
  6
CONTINUOUS
 10
100.3779697454
 20
236.8422521122
  0
VERTEX
  8
0
 62
7
  6
CONTINUOUS
 10
100.4366159465
 20
236.9116241433
  0
SEQEND
  0
LINE
  8
0
 62
7
  6
CONTINUOUS
 10
129.9003356791
 20
206.9247262119
 11
129.8525859587
 21
207.2335564885
  0
POLYLINE
  8
0
 62
7
  6
CONTINUOUS
 66
1
 70
0
  0
VERTEX
  8
0
 62
7
  6
CONTINUOUS
 10
60.6471708541
 20
86.5383639056
  0
VERTEX
  8
0
 62
7
  6
CONTINUOUS
 10
60.6474804956
 20
86.520767995
  0
VERTEX
  8
0
 62
7
  6
CONTINUOUS
 10
60.6533174719
 20
86.4601952413
  0
VERTEX
  8
0
 62
7
  6
CONTINUOUS
 10
60.666216545
 20
86.4016607471
  0
VERTEX
  8
0
 62
7
  6
CONTINUOUS
 10
60.6856269809
 20
86.3460431148
  0
VERTEX
  8
0
 62
7
  6
CONTINUOUS
 10
60.7108789357
 20
86.2940962097
  0
VERTEX
  8
0
 62
7
  6
CONTINUOUS
 10
60.7412101836
 20
86.2464342344
  0
VERTEX
  8
0
 62
7
  6
CONTINUOUS
 10
60.7757956903
 20
86.2035207492
  0
VERTEX
  8
0
 62
7
  6
CONTINUOUS
 10
60.8137716735
 20
86.1656703557
  0
SEQEND
  0
LINE
  8
2_FEATURE
 62
7
  6
CONTINUOUS
 10
60.647169437
 20
95.1214501465
 11
60.647169437
 21
86.538341976
  0
LINE
  8
0
 62
9
  6
CONTINUOUS
 10
60.6687715738
 20
95.1207239963
 11
60.6687715738
 21
86.5390681262
  0
POLYLINE
  8
0
 62
7
  6
CONTINUOUS
 66
1
 70
0
  0
VERTEX
  8
0
 62
7
  6
CONTINUOUS
 10
60.6547069486
 20
95.2079204104
  0
VERTEX
  8
0
 62
7
  6
CONTINUOUS
 10
60.6477183703
 20
95.1448201393
  0
VERTEX
  8
0
 62
7
  6
CONTINUOUS
 10
60.6471709792
 20
95.1214271319
  0
SEQEND
  0
LINE
  8
0
 62
9
  6
CONTINUOUS
 10
62.682514684
 20
95.1207239963
 11
62.682514684
 21
86.5390681262
  0
LINE
  8
0
 62
9
  6
CONTINUOUS
 10
63.5574785586
 20
86.5187389181
 11
63.5574785586
 21
95.1410532044
  0
LINE
  8
0
 62
9
  6
CONTINUOUS
 10
64.6506987974
 20
86.4243218282
 11
64.6506987974
 21
95.2354702943
  0
LINE
  8
0
 62
9
  6
CONTINUOUS
 10
67.2037831731
 20
86.3298960613
 11
67.2037831731
 21
95.3298960613
  0
LINE
  8
1_AXIS
 62
7
  6
CONTINUOUS
 10
67.2346143326
 20
101.3298960613
 11
67.2346143326
 21
97.8298960613
  0
LINE
  8
1_AXIS
 62
7
  6
CONTINUOUS
 10
67.2346143326
 20
83.8298960613
 11
67.2346143326
 21
80.3298960613
  0
POLYLINE
  8
0
 62
9
  6
CONTINUOUS
 66
1
 70
0
  0
VERTEX
  8
0
 62
9
  6
CONTINUOUS
 10
65.8209120514
 20
95.8298960613
  0
VERTEX
  8
0
 62
9
  6
CONTINUOUS
 10
65.8187707548
 20
95.812858947
  0
VERTEX
  8
0
 62
9
  6
CONTINUOUS
 10
65.816775385
 20
95.762908682
  0
VERTEX
  8
0
 62
9
  6
CONTINUOUS
 10
65.8150619229
 20
95.6834493306
  0
VERTEX
  8
0
 62
9
  6
CONTINUOUS
 10
65.8137471379
 20
95.5798959402
  0
VERTEX
  8
0
 62
9
  6
CONTINUOUS
 10
65.8129206297
 20
95.4593055086
  0
VERTEX
  8
0
 62
9
  6
CONTINUOUS
 10
65.8126387232
 20
95.3298960613
  0
SEQEND
  0
POLYLINE
  8
0
 62
9
  6
CONTINUOUS
 66
1
 70
0
  0
VERTEX
  8
0
 62
9
  6
CONTINUOUS
 10
65.542673225
 20
85.8413119882
  0
VERTEX
  8
0
 62
9
  6
CONTINUOUS
 10
65.546727574
 20
85.8618386142
  0
VERTEX
  8
0
 62
9
  6
CONTINUOUS
 10
65.5531164322
 20
85.9135307209
  0
VERTEX
  8
0
 62
9
  6
CONTINUOUS
 10
65.5614228731
 20
85.9930149664
  0
VERTEX
  8
0
 62
9
  6
CONTINUOUS
 10
65.571104832
 20
86.0951043391
  0
VERTEX
  8
0
 62
9
  6
CONTINUOUS
 10
65.5815304802
 20
86.2131366541
  0
VERTEX
  8
0
 62
9
  6
CONTINUOUS
 10
65.592019457
 20
86.339409316
  0
SEQEND
  0
POLYLINE
  8
0
 62
9
  6
CONTINUOUS
 66
1
 70
0
  0
VERTEX
  8
0
 62
9
  6
CONTINUOUS
 10
65.5426732332
 20
95.8184800321
  0
VERTEX
  8
0
 62
9
  6
CONTINUOUS
 10
65.5467275787
 20
95.7979533839
  0
VERTEX
  8
0
 62
9
  6
CONTINUOUS
 10
65.5531164338
 20
95.746261275
  0
VERTEX
  8
0
 62
9
  6
CONTINUOUS
 10
65.5614228722
 20
95.6667770458
  0
VERTEX
  8
0
 62
9
  6
CONTINUOUS
 10
65.5711048295
 20
95.5646877036
  0
VERTEX
  8
0
 62
9
  6
CONTINUOUS
 10
65.5815304772
 20
95.4466554278
  0
VERTEX
  8
0
 62
9
  6
CONTINUOUS
 10
65.5920194547
 20
95.3203828065
  0
SEQEND
  0
POLYLINE
  8
0
 62
9
  6
CONTINUOUS
 66
1
 70
0
  0
VERTEX
  8
0
 62
9
  6
CONTINUOUS
 10
65.8209120514
 20
85.8298960613
  0
VERTEX
  8
0
 62
9
  6
CONTINUOUS
 10
65.8187707518
 20
85.8469331526
  0
VERTEX
  8
0
 62
9
  6
CONTINUOUS
 10
65.8167753797
 20
85.8968833736
  0
VERTEX
  8
0
 62
9
  6
CONTINUOUS
 10
65.8150619164
 20
85.9763426935
  0
VERTEX
  8
0
 62
9
  6
CONTINUOUS
 10
65.8137471315
 20
86.0798960861
  0
VERTEX
  8
0
 62
9
  6
CONTINUOUS
 10
65.8129206255
 20
86.2004865558
  0
VERTEX
  8
0
 62
9
  6
CONTINUOUS
 10
65.8126387232
 20
86.3298960613
  0
SEQEND
  0
LINE
  8
0
 62
9
  6
CONTINUOUS
 10
68.4826098924
 20
86.3298960613
 11
68.4826098924
 21
95.3298960613
  0
LINE
  8
0
 62
7
  6
CONTINUOUS
 10
60.8124962462
 20
86.1668166266
 11
60.8542391368
 21
86.1330645934
  0
POLYLINE
  8
0
 62
7
  6
CONTINUOUS
 66
1
 70
0
  0
VERTEX
  8
0
 62
7
  6
CONTINUOUS
 10
73.2980573258
 20
86.5299866492
  0
VERTEX
  8
0
 62
7
  6
CONTINUOUS
 10
73.3074770933
 20
86.4332560977
  0
VERTEX
  8
0
 62
7
  6
CONTINUOUS
 10
73.3330221517
 20
86.34602788
  0
VERTEX
  8
0
 62
7
  6
CONTINUOUS
 10
73.3723423175
 20
86.2673305514
  0
VERTEX
  8
0
 62
7
  6
CONTINUOUS
 10
73.4227743644
 20
86.1989778283
  0
VERTEX
  8
0
 62
7
  6
CONTINUOUS
 10
73.4815661398
 20
86.1420399723
  0
VERTEX
  8
0
 62
7
  6
CONTINUOUS
 10
73.5453752155
 20
86.0972995078
  0
VERTEX
  8
0
 62
7
  6
CONTINUOUS
 10
73.6110540453
 20
86.0644235304
  0
VERTEX
  8
0
 62
7
  6
CONTINUOUS
 10
73.6742582537
 20
86.0425381379
  0
VERTEX
  8
0
 62
7
  6
CONTINUOUS
 10
73.7273794907
 20
86.0298511075
  0
VERTEX
  8
0
 62
7
  6
CONTINUOUS
 10
73.7436135453
 20
86.026753156
  0
SEQEND
  0
LINE
  8
2_FEATURE
 62
7
  6
CONTINUOUS
 10
73.2980533302
 20
95.1298753284
 11
73.2980533302
 21
86.5299167942
  0
LINE
  8
0
 62
9
  6
CONTINUOUS
 10
73.5768525983
 20
95.1207239963
 11
73.5768525983
 21
86.5390681262
  0
LINE
  8
0
 62
7
  6
CONTINUOUS
 10
60.8527469032
 20
86.1341488705
 11
60.8963330575
 21
86.105714458
  0
LINE
  8
0
 62
9
  6
CONTINUOUS
 10
74.242874113
 20
95.7629081683
 11
74.198631421
 21
95.7159637594
  0
LINE
  8
0
 62
7
  6
CONTINUOUS
 10
60.8946448439
 20
86.1066995775
 11
60.9392240382
 21
86.0834960395
  0
LINE
  8
0
 62
9
  6
CONTINUOUS
 10
74.2428748844
 20
85.8968833384
 11
74.1986313075
 21
85.9438284393
  0
LINE
  8
0
 62
9
  6
CONTINUOUS
 10
78.8489005054
 20
95.1207239963
 11
78.8489005054
 21
86.5390681262
  0
LINE
  8
0
 62
9
  6
CONTINUOUS
 10
79.8389524675
 20
86.5187389181
 11
79.8389524675
 21
95.1410532044
  0
LINE
  8
0
 62
9
  6
CONTINUOUS
 10
80.6119546593
 20
86.4243218282
 11
80.6119546593
 21
95.2354702943
  0
POLYLINE
  8
0
 62
9
  6
CONTINUOUS
 66
1
 70
0
  0
VERTEX
  8
0
 62
9
  6
CONTINUOUS
 10
63.4319572451
 20
86.0206415656
  0
VERTEX
  8
0
 62
9
  6
CONTINUOUS
 10
63.4553341956
 20
86.0397306921
  0
VERTEX
  8
0
 62
9
  6
CONTINUOUS
 10
63.4798214322
 20
86.0906431151
  0
VERTEX
  8
0
 62
9
  6
CONTINUOUS
 10
63.5037921253
 20
86.1699964259
  0
VERTEX
  8
0
 62
9
  6
CONTINUOUS
 10
63.5256537619
 20
86.2725187227
  0
VERTEX
  8
0
 62
9
  6
CONTINUOUS
 10
63.5439539457
 20
86.3913988529
  0
VERTEX
  8
0
 62
9
  6
CONTINUOUS
 10
63.557476888
 20
86.5187389181
  0
SEQEND
  0
POLYLINE
  8
0
 62
9
  6
CONTINUOUS
 66
1
 70
0
  0
VERTEX
  8
0
 62
9
  6
CONTINUOUS
 10
67.3242455698
 20
95.8298960613
  0
VERTEX
  8
0
 62
9
  6
CONTINUOUS
 10
67.2930674284
 20
95.8128587755
  0
VERTEX
  8
0
 62
9
  6
CONTINUOUS
 10
67.2640141232
 20
95.7629081685
  0
VERTEX
  8
0
 62
9
  6
CONTINUOUS
 10
67.2390655766
 20
95.6834485574
  0
VERTEX
  8
0
 62
9
  6
CONTINUOUS
 10
67.2199219491
 20
95.579895164
  0
VERTEX
  8
0
 62
9
  6
CONTINUOUS
 10
67.2078877934
 20
95.4593050245
  0
VERTEX
  8
0
 62
9
  6
CONTINUOUS
 10
67.2037831729
 20
95.3298960613
  0
SEQEND
  0
LINE
  8
0
 62
7
  6
CONTINUOUS
 10
60.9373670832
 20
86.0843522205
 11
60.9819175689
 21
86.0662365926
  0
POLYLINE
  8
0
 62
9
  6
CONTINUOUS
 66
1
 70
0
  0
VERTEX
  8
0
 62
9
  6
CONTINUOUS
 10
67.3242455699
 20
85.8298960613
  0
VERTEX
  8
0
 62
9
  6
CONTINUOUS
 10
67.2930675308
 20
85.8469332332
  0
VERTEX
  8
0
 62
9
  6
CONTINUOUS
 10
67.2640142673
 20
85.896883609
  0
VERTEX
  8
0
 62
9
  6
CONTINUOUS
 10
67.2390657032
 20
85.9763430403
  0
VERTEX
  8
0
 62
9
  6
CONTINUOUS
 10
67.2199220231
 20
86.0798964278
  0
VERTEX
  8
0
 62
9
  6
CONTINUOUS
 10
67.2078878151
 20
86.2004867656
  0
VERTEX
  8
0
 62
9
  6
CONTINUOUS
 10
67.2037831731
 20
86.3298960613
  0
SEQEND
  0
POLYLINE
  8
0
 62
9
  6
CONTINUOUS
 66
1
 70
0
  0
VERTEX
  8
0
 62
9
  6
CONTINUOUS
 10
63.4319572454
 20
95.6391505535
  0
VERTEX
  8
0
 62
9
  6
CONTINUOUS
 10
63.4553345121
 20
95.6200623407
  0
VERTEX
  8
0
 62
9
  6
CONTINUOUS
 10
63.4798221023
 20
95.5691504162
  0
VERTEX
  8
0
 62
9
  6
CONTINUOUS
 10
63.5037931453
 20
95.4897971923
  0
VERTEX
  8
0
 62
9
  6
CONTINUOUS
 10
63.5256550877
 20
95.3872746229
  0
VERTEX
  8
0
 62
9
  6
CONTINUOUS
 10
63.5439554976
 20
95.2683939533
  0
VERTEX
  8
0
 62
9
  6
CONTINUOUS
 10
63.5574785586
 20
95.1410532044
  0
SEQEND
  0
LINE
  8
0
 62
9
  6
CONTINUOUS
 10
82.7311999378
 20
86.3298960613
 11
82.7311999378
 21
95.3298960613
  0
POLYLINE
  8
0
 62
9
  6
CONTINUOUS
 66
1
 70
0
  0
VERTEX
  8
0
 62
9
  6
CONTINUOUS
 10
64.525291615
 20
85.9262244791
  0
VERTEX
  8
0
 62
9
  6
CONTINUOUS
 10
64.5486617316
 20
85.9453714332
  0
VERTEX
  8
0
 62
9
  6
CONTINUOUS
 10
64.5731342693
 20
85.9963152631
  0
VERTEX
  8
0
 62
9
  6
CONTINUOUS
 10
64.5970845288
 20
86.0756738761
  0
VERTEX
  8
0
 62
9
  6
CONTINUOUS
 10
64.6189224847
 20
86.17817876
  0
VERTEX
  8
0
 62
9
  6
CONTINUOUS
 10
64.6371983442
 20
86.2970247529
  0
VERTEX
  8
0
 62
9
  6
CONTINUOUS
 10
64.6506987974
 20
86.4243218282
  0
SEQEND
  0
LINE
  8
0
 62
9
  6
CONTINUOUS
 10
74.3300817263
 20
95.8128587754
 11
74.242874113
 21
95.7629081683
  0
LINE
  8
0
 62
9
  6
CONTINUOUS
 10
74.3300822829
 20
85.8469331409
 11
74.2428748844
 21
85.8968833384
  0
POLYLINE
  8
0
 62
9
  6
CONTINUOUS
 66
1
 70
0
  0
VERTEX
  8
0
 62
9
  6
CONTINUOUS
 10
64.5252916167
 20
95.7335676225
  0
VERTEX
  8
0
 62
9
  6
CONTINUOUS
 10
64.548661736
 20
95.7144207124
  0
VERTEX
  8
0
 62
9
  6
CONTINUOUS
 10
64.5731342789
 20
95.6634769081
  0
VERTEX
  8
0
 62
9
  6
CONTINUOUS
 10
64.5970845452
 20
95.5841183024
  0
VERTEX
  8
0
 62
9
  6
CONTINUOUS
 10
64.618922508
 20
95.4816134098
  0
VERTEX
  8
0
 62
9
  6
CONTINUOUS
 10
64.6371983732
 20
95.3627673964
  0
VERTEX
  8
0
 62
9
  6
CONTINUOUS
 10
64.6506988301
 20
95.2354702943
  0
SEQEND
  0
LINE
  8
0
 62
9
  6
CONTINUOUS
 10
84.3491072166
 20
86.3298960613
 11
84.3491072166
 21
95.3298960613
  0
LINE
  8
0
 62
7
  6
CONTINUOUS
 10
86.2189733075
 20
78.3298960613
 11
86.2189733075
 21
78.1298960613
  0
LINE
  8
0
 62
7
  6
CONTINUOUS
 10
86.2431939539
 20
78.3298960613
 11
86.2431939539
 21
78.1298960613
  0
POLYLINE
  8
0
 62
9
  6
CONTINUOUS
 66
1
 70
0
  0
VERTEX
  8
0
 62
9
  6
CONTINUOUS
 10
73.8742120327
 20
95.6188213454
  0
VERTEX
  8
0
 62
9
  6
CONTINUOUS
 10
73.7805749121
 20
95.5843160014
  0
VERTEX
  8
0
 62
9
  6
CONTINUOUS
 10
73.6976017962
 20
95.509297158
  0
VERTEX
  8
0
 62
9
  6
CONTINUOUS
 10
73.6325437816
 20
95.4003206625
  0
VERTEX
  8
0
 62
9
  6
CONTINUOUS
 10
73.5910863729
 20
95.2669099925
  0
VERTEX
  8
0
 62
9
  6
CONTINUOUS
 10
73.5768525983
 20
95.1207239963
  0
SEQEND
  0
POLYLINE
  8
0
 62
9
  6
CONTINUOUS
 66
1
 70
0
  0
VERTEX
  8
0
 62
9
  6
CONTINUOUS
 10
136.3655085468
 20
86.0409707772
  0
VERTEX
  8
0
 62
9
  6
CONTINUOUS
 10
136.4981432522
 20
86.0754757044
  0
VERTEX
  8
0
 62
9
  6
CONTINUOUS
 10
136.6156732539
 20
86.1504939151
  0
VERTEX
  8
0
 62
9
  6
CONTINUOUS
 10
136.7078273606
 20
86.2594700992
  0
VERTEX
  8
0
 62
9
  6
CONTINUOUS
 10
136.7665517551
 20
86.3928811154
  0
VERTEX
  8
0
 62
9
  6
CONTINUOUS
 10
136.7867139816
 20
86.5390681262
  0
SEQEND
  0
POLYLINE
  8
0
 62
7
  6
CONTINUOUS
 66
1
 70
0
  0
VERTEX
  8
0
 62
7
  6
CONTINUOUS
 10
138.4237986176
 20
86.0483539716
  0
VERTEX
  8
0
 62
7
  6
CONTINUOUS
 10
138.4633231662
 20
86.0584508696
  0
VERTEX
  8
0
 62
7
  6
CONTINUOUS
 10
138.5070443684
 20
86.0736513519
  0
VERTEX
  8
0
 62
7
  6
CONTINUOUS
 10
138.5521564757
 20
86.0943168904
  0
VERTEX
  8
0
 62
7
  6
CONTINUOUS
 10
138.5966307467
 20
86.120395424
  0
VERTEX
  8
0
 62
7
  6
CONTINUOUS
 10
138.6396734239
 20
86.152121178
  0
VERTEX
  8
0
 62
7
  6
CONTINUOUS
 10
138.6803489094
 20
86.1895485574
  0
VERTEX
  8
0
 62
7
  6
CONTINUOUS
 10
138.7176689488
 20
86.2325496252
  0
VERTEX
  8
0
 62
7
  6
CONTINUOUS
 10
138.7506533949
 20
86.2808264836
  0
VERTEX
  8
0
 62
7
  6
CONTINUOUS
 10
138.7783640942
 20
86.3339230159
  0
VERTEX
  8
0
 62
7
  6
CONTINUOUS
 10
138.7999176013
 20
86.39120537
  0
VERTEX
  8
0
 62
7
  6
CONTINUOUS
 10
138.8145222127
 20
86.4518730732
  0
SEQEND
  0
POLYLINE
  8
0
 62
9
  6
CONTINUOUS
 66
1
 70
0
  0
VERTEX
  8
0
 62
9
  6
CONTINUOUS
 10
138.3563595794
 20
86.0409707772
  0
VERTEX
  8
0
 62
9
  6
CONTINUOUS
 10
138.4962039504
 20
86.0754761641
  0
VERTEX
  8
0
 62
9
  6
CONTINUOUS
 10
138.6201218593
 20
86.1504950644
  0
VERTEX
  8
0
 62
9
  6
CONTINUOUS
 10
138.7172840358
 20
86.2594715784
  0
VERTEX
  8
0
 62
9
  6
CONTINUOUS
 10
138.7791993945
 20
86.3928822094
  0
VERTEX
  8
0
 62
9
  6
CONTINUOUS
 10
138.8004570914
 20
86.5390681262
  0
SEQEND
  0
POLYLINE
  8
0
 62
9
  6
CONTINUOUS
 66
1
 70
0
  0
VERTEX
  8
0
 62
9
  6
CONTINUOUS
 10
61.1128690858
 20
86.0409707772
  0
VERTEX
  8
0
 62
9
  6
CONTINUOUS
 10
60.9730258219
 20
86.0754757044
  0
VERTEX
  8
0
 62
9
  6
CONTINUOUS
 10
60.8491081868
 20
86.1504939151
  0
VERTEX
  8
0
 62
9
  6
CONTINUOUS
 10
60.7519456003
 20
86.2594700992
  0
VERTEX
  8
0
 62
9
  6
CONTINUOUS
 10
60.6900295964
 20
86.3928811154
  0
VERTEX
  8
0
 62
9
  6
CONTINUOUS
 10
60.668771574
 20
86.5390681262
  0
SEQEND
  0
POLYLINE
  8
0
 62
9
  6
CONTINUOUS
 66
1
 70
0
  0
VERTEX
  8
0
 62
9
  6
CONTINUOUS
 10
63.1037201184
 20
86.0409707772
  0
VERTEX
  8
0
 62
9
  6
CONTINUOUS
 10
62.9710843122
 20
86.0754761863
  0
VERTEX
  8
0
 62
9
  6
CONTINUOUS
 10
62.8535540427
 20
86.150495116
  0
VERTEX
  8
0
 62
9
  6
CONTINUOUS
 10
62.7614003459
 20
86.2594716396
  0
VERTEX
  8
0
 62
9
  6
CONTINUOUS
 10
62.7026765903
 20
86.3928822504
  0
VERTEX
  8
0
 62
9
  6
CONTINUOUS
 10
62.682514684
 20
86.5390681262
  0
SEQEND
  0
LINE
  8
0
 62
7
  6
CONTINUOUS
 10
60.9799635517
 20
86.0669293214
 11
61.0223853331
 21
86.0538435562
  0
POLYLINE
  8
0
 62
9
  6
CONTINUOUS
 66
1
 70
0
  0
VERTEX
  8
0
 62
9
  6
CONTINUOUS
 10
73.8742120327
 20
86.0409707772
  0
VERTEX
  8
0
 62
9
  6
CONTINUOUS
 10
73.7805755839
 20
86.0754757044
  0
VERTEX
  8
0
 62
9
  6
CONTINUOUS
 10
73.6976026403
 20
86.1504939151
  0
VERTEX
  8
0
 62
9
  6
CONTINUOUS
 10
73.6325443797
 20
86.2594700992
  0
VERTEX
  8
0
 62
9
  6
CONTINUOUS
 10
73.5910865753
 20
86.3928811154
  0
VERTEX
  8
0
 62
9
  6
CONTINUOUS
 10
73.576852599
 20
86.5390681262
  0
SEQEND
  0
LINE
  8
0
 62
7
  6
CONTINUOUS
 10
86.5264583942
 20
78.3298960613
 11
86.5264583942
 21
78.1298960613
  0
LINE
  8
0
 62
7
  6
CONTINUOUS
 10
86.5588864866
 20
78.3298960613
 11
86.5588864866
 21
78.1298960613
  0
LINE
  8
0
 62
7
  6
CONTINUOUS
 10
86.593650507
 20
78.3298960613
 11
86.593650507
 21
78.1298960613
  0
LINE
  8
0
 62
7
  6
CONTINUOUS
 10
86.6151387958
 20
78.3298960613
 11
86.6151387958
 21
78.1298960613
  0
LINE
  8
0
 62
7
  6
CONTINUOUS
 10
86.7499297864
 20
78.3298960613
 11
86.7499297864
 21
78.1298960613
  0
LINE
  8
0
 62
7
  6
CONTINUOUS
 10
86.9980234223
 20
78.3298960613
 11
86.9980234223
 21
78.1298960613
  0
LINE
  8
0
 62
7
  6
CONTINUOUS
 10
87.2758127836
 20
78.3298960613
 11
87.2758127836
 21
78.1298960613
  0
LINE
  8
0
 62
7
  6
CONTINUOUS
 10
87.6399518028
 20
78.3298960613
 11
87.6399518028
 21
78.1298960613
  0
LINE
  8
0
 62
7
  6
CONTINUOUS
 10
87.9501692493
 20
78.3298960613
 11
87.9501692493
 21
78.1298960613
  0
LINE
  8
0
 62
7
  6
CONTINUOUS
 10
88.233428503
 20
78.3298960613
 11
88.233428503
 21
78.1298960613
  0
LINE
  8
0
 62
7
  6
CONTINUOUS
 10
88.4897347504
 20
78.3298960613
 11
88.4897347504
 21
78.1298960613
  0
LINE
  8
0
 62
7
  6
CONTINUOUS
 10
88.6921194252
 20
78.3298960613
 11
88.6921194252
 21
78.1298960613
  0
LINE
  8
0
 62
7
  6
CONTINUOUS
 10
88.7542432429
 20
78.3298960613
 11
88.7542432429
 21
78.1298960613
  0
POLYLINE
  8
0
 62
9
  6
CONTINUOUS
 66
1
 70
0
  0
VERTEX
  8
0
 62
9
  6
CONTINUOUS
 10
79.0863277025
 20
95.6188213454
  0
VERTEX
  8
0
 62
9
  6
CONTINUOUS
 10
79.0115635211
 20
95.5843164313
  0
VERTEX
  8
0
 62
9
  6
CONTINUOUS
 10
78.945313624
 20
95.5092982421
  0
VERTEX
  8
0
 62
9
  6
CONTINUOUS
 10
78.8933677283
 20
95.4003220706
  0
VERTEX
  8
0
 62
9
  6
CONTINUOUS
 10
78.8602656564
 20
95.266911044
  0
VERTEX
  8
0
 62
9
  6
CONTINUOUS
 10
78.848900506
 20
95.1207239963
  0
SEQEND
  0
LINE
  8
0
 62
7
  6
CONTINUOUS
 10
124.8309606745
 20
85.8539039535
 11
124.8311714677
 21
85.8539558909
  0
LINE
  8
0
 62
7
  6
CONTINUOUS
 10
130.2313283109
 20
78.1298960613
 11
128.5194562825
 21
78.1298960613
  0
LINE
  8
0
 62
7
  6
CONTINUOUS
 10
128.5170329054
 20
78.1298960613
 11
120.2670656698
 21
78.1298960613
  0
LINE
  8
0
 62
7
  6
CONTINUOUS
 10
94.7045476547
 20
78.1298960613
 11
89.5720623884
 21
78.1298960613
  0
LINE
  8
0
 62
7
  6
CONTINUOUS
 10
88.7542432429
 20
78.1298960613
 11
86.2189733075
 21
78.1298960613
  0
LINE
  8
1_AXIS
 62
7
  6
CONTINUOUS
 10
130.2346143326
 20
78.3298960613
 11
69.2346143326
 21
78.3298960613
  0
LINE
  8
0
 62
7
  6
CONTINUOUS
 10
69.2347105974
 20
78.3298960613
 11
130.2345514185
 21
78.3298960613
  0
POLYLINE
  8
0
 62
7
  6
CONTINUOUS
 66
1
 70
0
  0
VERTEX
  8
0
 62
7
  6
CONTINUOUS
 10
61.0570840139
 20
86.0459733755
  0
VERTEX
  8
0
 62
7
  6
CONTINUOUS
 10
61.0826911184
 20
86.0415492589
  0
VERTEX
  8
0
 62
7
  6
CONTINUOUS
 10
61.1042111055
 20
86.0384790701
  0
VERTEX
  8
0
 62
7
  6
CONTINUOUS
 10
61.1256667719
 20
86.0357720199
  0
VERTEX
  8
0
 62
7
  6
CONTINUOUS
 10
61.1496373066
 20
86.0329928161
  0
SEQEND
  0
LINE
  8
0
 62
7
  6
CONTINUOUS
 10
61.0204315385
 20
86.054359082
 11
61.0554837287
 21
86.0462853371
  0
LINE
  8
0
 62
7
  6
CONTINUOUS
 10
74.6382620812
 20
85.8539055373
 11
74.638060743
 21
85.8539551457
  0
POLYLINE
  8
0
 62
9
  6
CONTINUOUS
 66
1
 70
0
  0
VERTEX
  8
0
 62
9
  6
CONTINUOUS
 10
79.0863277025
 20
86.0409707772
  0
VERTEX
  8
0
 62
9
  6
CONTINUOUS
 10
79.0115628823
 20
86.0754761879
  0
VERTEX
  8
0
 62
9
  6
CONTINUOUS
 10
78.9453128288
 20
86.1504951198
  0
VERTEX
  8
0
 62
9
  6
CONTINUOUS
 10
78.8933671705
 20
86.259471644
  0
VERTEX
  8
0
 62
9
  6
CONTINUOUS
 10
78.8602654699
 20
86.3928822534
  0
VERTEX
  8
0
 62
9
  6
CONTINUOUS
 10
78.8489005054
 20
86.5390681262
  0
SEQEND
  0
LINE
  8
0
 62
7
  6
CONTINUOUS
 10
89.5720623884
 20
78.3298963237
 11
89.5720623884
 21
78.1298960613
  0
LINE
  8
0
 62
7
  6
CONTINUOUS
 10
89.6028445201
 20
78.3298960613
 11
89.6028445201
 21
78.1298960613
  0
LINE
  8
0
 62
7
  6
CONTINUOUS
 10
89.9574295023
 20
78.3298960613
 11
89.9574295023
 21
78.1298960613
  0
LINE
  8
0
 62
7
  6
CONTINUOUS
 10
91.1264901411
 20
78.3298960613
 11
91.1264901411
 21
78.1298960613
  0
LINE
  8
0
 62
7
  6
CONTINUOUS
 10
91.6121612226
 20
78.3298960613
 11
91.6121612226
 21
78.1298960613
  0
POLYLINE
  8
0
 62
9
  6
CONTINUOUS
 66
1
 70
0
  0
VERTEX
  8
0
 62
9
  6
CONTINUOUS
 10
84.5658045
 20
95.8298960613
  0
VERTEX
  8
0
 62
9
  6
CONTINUOUS
 10
84.5097191359
 20
95.8128589867
  0
VERTEX
  8
0
 62
9
  6
CONTINUOUS
 10
84.457455885
 20
95.7629087987
  0
VERTEX
  8
0
 62
9
  6
CONTINUOUS
 10
84.4125764042
 20
95.683449504
  0
VERTEX
  8
0
 62
9
  6
CONTINUOUS
 10
84.3781391606
 20
95.5798961127
  0
VERTEX
  8
0
 62
9
  6
CONTINUOUS
 10
84.3564910012
 20
95.4593056155
  0
VERTEX
  8
0
 62
9
  6
CONTINUOUS
 10
84.3491072166
 20
95.3298960613
  0
SEQEND
  0
POLYLINE
  8
0
 62
7
  6
CONTINUOUS
 66
1
 70
0
  0
VERTEX
  8
0
 62
7
  6
CONTINUOUS
 10
124.8311714677
 20
85.8539558909
  0
VERTEX
  8
0
 62
7
  6
CONTINUOUS
 10
124.9231677613
 20
85.8754749474
  0
VERTEX
  8
0
 62
7
  6
CONTINUOUS
 10
125.06799737
 20
85.9058534749
  0
SEQEND
  0
LINE
  8
0
 62
9
  6
CONTINUOUS
 10
124.7405702529
 20
85.841311967
 11
124.8586612784
 21
85.8687785321
  0
POLYLINE
  8
0
 62
9
  6
CONTINUOUS
 66
1
 70
0
  0
VERTEX
  8
0
 62
9
  6
CONTINUOUS
 10
125.6650923607
 20
86.0206415691
  0
VERTEX
  8
0
 62
9
  6
CONTINUOUS
 10
125.6895666906
 20
86.0261677285
  0
VERTEX
  8
0
 62
9
  6
CONTINUOUS
 10
125.6995536375
 20
86.0311356074
  0
VERTEX
  8
0
 62
9
  6
CONTINUOUS
 10
125.694449696
 20
86.0352782576
  0
SEQEND
  0
LINE
  8
0
 62
7
  6
CONTINUOUS
 10
124.774989779
 20
85.84208259
 11
124.8309606444
 21
85.8539040753
  0
POLYLINE
  8
0
 62
9
  6
CONTINUOUS
 66
1
 70
0
  0
VERTEX
  8
0
 62
9
  6
CONTINUOUS
 10
124.8586612784
 20
85.8687785321
  0
VERTEX
  8
0
 62
9
  6
CONTINUOUS
 10
124.994243815
 20
85.8971275751
  0
VERTEX
  8
0
 62
9
  6
CONTINUOUS
 10
125.1471858108
 20
85.9262244792
  0
SEQEND
  0
LINE
  8
0
 62
7
  6
CONTINUOUS
 10
125.06799737
 20
85.9058534749
 11
125.2078752259
 21
85.9324049512
  0
POLYLINE
  8
0
 62
7
  6
CONTINUOUS
 66
1
 70
0
  0
VERTEX
  8
0
 62
7
  6
CONTINUOUS
 10
125.7258774106
 20
86.0268007008
  0
VERTEX
  8
0
 62
7
  6
CONTINUOUS
 10
125.7353548452
 20
86.0285754903
  0
VERTEX
  8
0
 62
7
  6
CONTINUOUS
 10
125.7828302256
 20
86.0392405156
  0
VERTEX
  8
0
 62
7
  6
CONTINUOUS
 10
125.8393300602
 20
86.0570011345
  0
VERTEX
  8
0
 62
7
  6
CONTINUOUS
 10
125.8996910846
 20
86.0838410719
  0
VERTEX
  8
0
 62
7
  6
CONTINUOUS
 10
125.9595788076
 20
86.120538041
  0
VERTEX
  8
0
 62
7
  6
CONTINUOUS
 10
126.0164028757
 20
86.1675678739
  0
VERTEX
  8
0
 62
7
  6
CONTINUOUS
 10
126.0675627831
 20
86.2247029761
  0
VERTEX
  8
0
 62
7
  6
CONTINUOUS
 10
126.1106702484
 20
86.291203978
  0
VERTEX
  8
0
 62
7
  6
CONTINUOUS
 10
126.1436143693
 20
86.3660560307
  0
VERTEX
  8
0
 62
7
  6
CONTINUOUS
 10
126.1643687834
 20
86.4476903181
  0
VERTEX
  8
0
 62
7
  6
CONTINUOUS
 10
126.1711684423
 20
86.5299815297
  0
SEQEND
  0
LINE
  8
0
 62
9
  6
CONTINUOUS
 10
125.0455613286
 20
85.8298960613
 11
125.139147166
 21
85.8469334313
  0
LINE
  8
0
 62
7
  6
CONTINUOUS
 10
125.207901717
 20
85.9324097822
 11
125.7261627613
 21
86.0268519029
  0
LINE
  8
0
 62
9
  6
CONTINUOUS
 10
125.1471858108
 20
85.9262244792
 11
125.6650923607
 21
86.0206415691
  0
POLYLINE
  8
0
 62
9
  6
CONTINUOUS
 66
1
 70
0
  0
VERTEX
  8
0
 62
9
  6
CONTINUOUS
 10
130.5464496962
 20
85.8298960613
  0
VERTEX
  8
0
 62
9
  6
CONTINUOUS
 10
130.6603738125
 20
85.8469331409
  0
VERTEX
  8
0
 62
9
  6
CONTINUOUS
 10
130.7665342025
 20
85.8968833384
  0
VERTEX
  8
0
 62
9
  6
CONTINUOUS
 10
130.857696208
 20
85.9763426399
  0
VERTEX
  8
0
 62
9
  6
CONTINUOUS
 10
130.9276472831
 20
86.079896031
  0
VERTEX
  8
0
 62
9
  6
CONTINUOUS
 10
130.9716203708
 20
86.2004865201
  0
VERTEX
  8
0
 62
9
  6
CONTINUOUS
 10
130.9866187728
 20
86.3298960613
  0
SEQEND
  0
POLYLINE
  8
0
 62
9
  6
CONTINUOUS
 66
1
 70
0
  0
VERTEX
  8
0
 62
9
  6
CONTINUOUS
 10
138.3358570886
 20
86.0352782576
  0
VERTEX
  8
0
 62
9
  6
CONTINUOUS
 10
138.3575300354
 20
86.0383905871
  0
VERTEX
  8
0
 62
9
  6
CONTINUOUS
 10
138.3644652234
 20
86.0403193388
  0
VERTEX
  8
0
 62
9
  6
CONTINUOUS
 10
138.3563595794
 20
86.0409707772
  0
SEQEND
  0
LINE
  8
0
 62
9
  6
CONTINUOUS
 10
124.7405702517
 20
85.8413119882
 11
124.8309606745
 21
85.8539039535
  0
LINE
  8
0
 62
9
  6
CONTINUOUS
 10
138.3005263928
 20
86.0311356074
 11
138.3241363623
 21
86.0335051449
  0
POLYLINE
  8
0
 62
7
  6
CONTINUOUS
 66
1
 70
0
  0
VERTEX
  8
0
 62
7
  6
CONTINUOUS
 10
138.2954409146
 20
86.030356905
  0
VERTEX
  8
0
 62
7
  6
CONTINUOUS
 10
138.3241363623
 20
86.0335051449
  0
VERTEX
  8
0
 62
7
  6
CONTINUOUS
 10
138.348461844
 20
86.0363679204
  0
VERTEX
  8
0
 62
7
  6
CONTINUOUS
 10
138.3706529895
 20
86.0392407155
  0
VERTEX
  8
0
 62
7
  6
CONTINUOUS
 10
138.3938653313
 20
86.0427145096
  0
VERTEX
  8
0
 62
7
  6
CONTINUOUS
 10
138.4237986176
 20
86.0483539716
  0
SEQEND
  0
LINE
  8
0
 62
9
  6
CONTINUOUS
 10
138.2533152727
 20
86.0261677285
 11
138.2605792138
 21
86.0267442738
  0
LINE
  8
0
 62
9
  6
CONTINUOUS
 10
138.2954409146
 20
86.030356905
 11
138.3005263928
 21
86.0311356074
  0
LINE
  8
0
 62
7
  6
CONTINUOUS
 10
138.2605792138
 20
86.0267442738
 11
138.2954409146
 21
86.030356905
  0
LINE
  8
0
 62
9
  6
CONTINUOUS
 10
136.3209267594
 20
85.841311967
 11
136.3272180484
 21
85.8419267034
  0
LINE
  8
0
 62
7
  6
CONTINUOUS
 10
138.1968181609
 20
86.0205245482
 11
138.2605792138
 21
86.0267442738
  0
LINE
  8
0
 62
7
  6
CONTINUOUS
 10
136.3272296265
 20
85.8418082125
 11
138.1968181609
 21
86.0205245482
  0
LINE
  8
0
 62
7
  6
CONTINUOUS
 10
136.2689333935
 20
85.8367656243
 11
136.3272292855
 21
85.8418082854
  0
LINE
  8
1_AXIS
 62
9
  6
CONTINUOUS
 10
67.2346143326
 20
80.3298960613
 11
132.2346143326
 21
80.3298960613
  0
LINE
  8
0
 62
7
  6
CONTINUOUS
 10
63.1419991508
 20
85.841808308
 11
63.1939289814
 21
85.8372493324
  0
LINE
  8
0
 62
7
  6
CONTINUOUS
 10
61.2096761069
 20
86.0266405867
 11
63.1419990088
 21
85.8418082165
  0
LINE
  8
0
 62
9
  6
CONTINUOUS
 10
63.1420107185
 20
85.8419266937
 11
63.1483019058
 21
85.841311967
  0
LINE
  8
0
 62
7
  6
CONTINUOUS
 10
61.1758692174
 20
86.0301355871
 11
61.2120669263
 21
86.0263996339
  0
LINE
  8
0
 62
9
  6
CONTINUOUS
 10
61.2120669263
 20
86.0263996339
 11
61.2158609619
 21
86.026173036
  0
LINE
  8
0
 62
7
  6
CONTINUOUS
 10
61.1478951028
 20
86.0331884631
 11
61.1779274703
 21
86.0299174559
  0
LINE
  8
0
 62
9
  6
CONTINUOUS
 10
61.1496373066
 20
86.0329928161
 11
61.1686643247
 21
86.0311397918
  0
LINE
  8
0
 62
9
  6
CONTINUOUS
 10
74.7286584195
 20
85.841312091
 11
74.6382620812
 21
85.8539055373
  0
POLYLINE
  8
0
 62
9
  6
CONTINUOUS
 66
1
 70
0
  0
VERTEX
  8
0
 62
9
  6
CONTINUOUS
 10
68.922778969
 20
85.8298960613
  0
VERTEX
  8
0
 62
9
  6
CONTINUOUS
 10
68.8088538991
 20
85.8469334312
  0
VERTEX
  8
0
 62
9
  6
CONTINUOUS
 10
68.7026931371
 20
85.8968842078
  0
VERTEX
  8
0
 62
9
  6
CONTINUOUS
 10
68.6115313041
 20
85.9763439498
  0
VERTEX
  8
0
 62
9
  6
CONTINUOUS
 10
68.5415807136
 20
86.0798973464
  0
VERTEX
  8
0
 62
9
  6
CONTINUOUS
 10
68.4976081009
 20
86.2004873407
  0
VERTEX
  8
0
 62
9
  6
CONTINUOUS
 10
68.4826098925
 20
86.3298960613
  0
SEQEND
  0
POLYLINE
  8
0
 62
9
  6
CONTINUOUS
 66
1
 70
0
  0
VERTEX
  8
0
 62
9
  6
CONTINUOUS
 10
74.7286584123
 20
85.841311967
  0
VERTEX
  8
0
 62
9
  6
CONTINUOUS
 10
74.7809542045
 20
85.8327544535
  0
VERTEX
  8
0
 62
9
  6
CONTINUOUS
 10
74.8317414994
 20
85.8298960613
  0
SEQEND
  0
LINE
  8
0
 62
9
  6
CONTINUOUS
 10
74.4236673367
 20
85.8298960613
 11
74.3300822829
 21
85.8469331409
  0
LINE
  8
0
 62
9
  6
CONTINUOUS
 10
73.8041363045
 20
86.0206415691
 11
74.3220428544
 21
85.9262244792
  0
LINE
  8
0
 62
7
  6
CONTINUOUS
 10
73.7430659077
 20
86.0268519022
 11
74.261326948
 21
85.9324097823
  0
LINE
  8
0
 62
7
  6
CONTINUOUS
 10
74.261354685
 20
85.9324047203
 11
74.3984002591
 21
85.9064146005
  0
POLYLINE
  8
0
 62
9
  6
CONTINUOUS
 66
1
 70
0
  0
VERTEX
  8
0
 62
9
  6
CONTINUOUS
 10
74.3220428544
 20
85.9262244792
  0
VERTEX
  8
0
 62
9
  6
CONTINUOUS
 10
74.4749874543
 20
85.8971270632
  0
VERTEX
  8
0
 62
9
  6
CONTINUOUS
 10
74.6105768985
 20
85.8687764349
  0
SEQEND
  0
POLYLINE
  8
0
 62
7
  6
CONTINUOUS
 66
1
 70
0
  0
VERTEX
  8
0
 62
7
  6
CONTINUOUS
 10
74.3984002591
 20
85.9064146005
  0
VERTEX
  8
0
 62
7
  6
CONTINUOUS
 10
74.5436676254
 20
85.876007781
  0
VERTEX
  8
0
 62
7
  6
CONTINUOUS
 10
74.6380607125
 20
85.8539550223
  0
SEQEND
  0
LINE
  8
0
 62
7
  6
CONTINUOUS
 10
74.6382620812
 20
85.8539055373
 11
74.6893732646
 21
85.8429540563
  0
LINE
  8
0
 62
9
  6
CONTINUOUS
 10
73.7796446477
 20
86.026173036
 11
73.8041363045
 21
86.0206415691
  0
LINE
  8
0
 62
9
  6
CONTINUOUS
 10
74.6105768985
 20
85.8687764349
 11
74.7286584123
 21
85.841311967
  0
POLYLINE
  8
0
 62
9
  6
CONTINUOUS
 66
1
 70
0
  0
VERTEX
  8
0
 62
9
  6
CONTINUOUS
 10
84.5658045
 20
85.8298960613
  0
VERTEX
  8
0
 62
9
  6
CONTINUOUS
 10
84.5097186583
 20
85.8469334312
  0
VERTEX
  8
0
 62
9
  6
CONTINUOUS
 10
84.4574552215
 20
85.8968842078
  0
VERTEX
  8
0
 62
9
  6
CONTINUOUS
 10
84.4125758272
 20
85.9763439498
  0
VERTEX
  8
0
 62
9
  6
CONTINUOUS
 10
84.3781388262
 20
86.0798973464
  0
VERTEX
  8
0
 62
9
  6
CONTINUOUS
 10
84.3564909045
 20
86.2004873407
  0
VERTEX
  8
0
 62
9
  6
CONTINUOUS
 10
84.3491072168
 20
86.3298960613
  0
SEQEND
  0
LINE
  8
0
 62
7
  6
CONTINUOUS
 10
91.9667462047
 20
78.3298960613
 11
91.9667462047
 21
78.1298960613
  0
LINE
  8
0
 62
7
  6
CONTINUOUS
 10
91.9934432452
 20
78.3298960613
 11
91.9934432452
 21
78.1298960613
  0
LINE
  8
0
 62
7
  6
CONTINUOUS
 10
92.097230993
 20
78.3298960613
 11
92.097230993
 21
78.1298960613
  0
LINE
  8
0
 62
7
  6
CONTINUOUS
 10
92.3371345218
 20
78.3298960613
 11
92.3371345218
 21
78.1298960613
  0
LINE
  8
0
 62
7
  6
CONTINUOUS
 10
92.6236624882
 20
78.3298960613
 11
92.6236624882
 21
78.1298960613
  0
LINE
  8
0
 62
7
  6
CONTINUOUS
 10
92.9425184876
 20
78.3298960613
 11
92.9425184876
 21
78.1298960613
  0
LINE
  8
0
 62
9
  6
CONTINUOUS
 10
93.3768833402
 20
86.3298960613
 11
93.3768833402
 21
95.3298960613
  0
LINE
  8
0
 62
7
  6
CONTINUOUS
 10
94.0389597984
 20
78.3298960613
 11
94.0389597984
 21
78.1298960613
  0
LINE
  8
0
 62
7
  6
CONTINUOUS
 10
94.3390672178
 20
78.3298960613
 11
94.3390672178
 21
78.1298960613
  0
POLYLINE
  8
0
 62
9
  6
CONTINUOUS
 66
1
 70
0
  0
VERTEX
  8
0
 62
9
  6
CONTINUOUS
 10
93.4664288471
 20
95.8298960613
  0
VERTEX
  8
0
 62
9
  6
CONTINUOUS
 10
93.4432526315
 20
95.8128587755
  0
VERTEX
  8
0
 62
9
  6
CONTINUOUS
 10
93.4216559091
 20
95.7629081685
  0
VERTEX
  8
0
 62
9
  6
CONTINUOUS
 10
93.4031104516
 20
95.6834485574
  0
VERTEX
  8
0
 62
9
  6
CONTINUOUS
 10
93.3888800704
 20
95.579895164
  0
VERTEX
  8
0
 62
9
  6
CONTINUOUS
 10
93.3799345024
 20
95.4593050245
  0
VERTEX
  8
0
 62
9
  6
CONTINUOUS
 10
93.37688334
 20
95.3298960613
  0
SEQEND
  0
POLYLINE
  8
0
 62
9
  6
CONTINUOUS
 66
1
 70
0
  0
VERTEX
  8
0
 62
9
  6
CONTINUOUS
 10
103.6087885059
 20
85.8413119882
  0
VERTEX
  8
0
 62
9
  6
CONTINUOUS
 10
103.729877542
 20
85.8618386142
  0
VERTEX
  8
0
 62
9
  6
CONTINUOUS
 10
103.8427700249
 20
85.9135307209
  0
VERTEX
  8
0
 62
9
  6
CONTINUOUS
 10
103.9400987761
 20
85.9930149664
  0
VERTEX
  8
0
 62
9
  6
CONTINUOUS
 10
104.0155122812
 20
86.0951043391
  0
VERTEX
  8
0
 62
9
  6
CONTINUOUS
 10
104.0640891784
 20
86.2131366541
  0
VERTEX
  8
0
 62
9
  6
CONTINUOUS
 10
104.0826594191
 20
86.339409316
  0
SEQEND
  0
POLYLINE
  8
0
 62
9
  6
CONTINUOUS
 66
1
 70
0
  0
VERTEX
  8
0
 62
9
  6
CONTINUOUS
 10
104.3290470076
 20
85.8298960613
  0
VERTEX
  8
0
 62
9
  6
CONTINUOUS
 10
104.4388630569
 20
85.8469331942
  0
VERTEX
  8
0
 62
9
  6
CONTINUOUS
 10
104.5411952412
 20
85.8968834948
  0
VERTEX
  8
0
 62
9
  6
CONTINUOUS
 10
104.6290698059
 20
85.9763428718
  0
VERTEX
  8
0
 62
9
  6
CONTINUOUS
 10
104.69649828
 20
86.079896261
  0
VERTEX
  8
0
 62
9
  6
CONTINUOUS
 10
104.7388855668
 20
86.2004866625
  0
VERTEX
  8
0
 62
9
  6
CONTINUOUS
 10
104.7533430766
 20
86.3298960613
  0
SEQEND
  0
POLYLINE
  8
0
 62
9
  6
CONTINUOUS
 66
1
 70
0
  0
VERTEX
  8
0
 62
9
  6
CONTINUOUS
 10
103.3866276505
 20
85.9262244791
  0
VERTEX
  8
0
 62
9
  6
CONTINUOUS
 10
103.5129572244
 20
85.9453714332
  0
VERTEX
  8
0
 62
9
  6
CONTINUOUS
 10
103.6306246735
 20
85.9963152631
  0
VERTEX
  8
0
 62
9
  6
CONTINUOUS
 10
103.7318182132
 20
86.0756738761
  0
VERTEX
  8
0
 62
9
  6
CONTINUOUS
 10
103.8098197399
 20
86.17817876
  0
VERTEX
  8
0
 62
9
  6
CONTINUOUS
 10
103.8594508366
 20
86.2970247529
  0
VERTEX
  8
0
 62
9
  6
CONTINUOUS
 10
103.8774165611
 20
86.4243218282
  0
SEQEND
  0
POLYLINE
  8
0
 62
9
  6
CONTINUOUS
 66
1
 70
0
  0
VERTEX
  8
0
 62
9
  6
CONTINUOUS
 10
103.2288163988
 20
86.0206415656
  0
VERTEX
  8
0
 62
9
  6
CONTINUOUS
 10
103.3551986995
 20
86.0397306921
  0
VERTEX
  8
0
 62
9
  6
CONTINUOUS
 10
103.4729280382
 20
86.0906431151
  0
VERTEX
  8
0
 62
9
  6
CONTINUOUS
 10
103.5741829703
 20
86.1699964259
  0
VERTEX
  8
0
 62
9
  6
CONTINUOUS
 10
103.6522365415
 20
86.2725187227
  0
VERTEX
  8
0
 62
9
  6
CONTINUOUS
 10
103.701903199
 20
86.3913988529
  0
VERTEX
  8
0
 62
9
  6
CONTINUOUS
 10
103.7198832975
 20
86.5187389181
  0
SEQEND
  0
POLYLINE
  8
0
 62
9
  6
CONTINUOUS
 66
1
 70
0
  0
VERTEX
  8
0
 62
9
  6
CONTINUOUS
 10
103.6776664717
 20
85.8298960613
  0
VERTEX
  8
0
 62
9
  6
CONTINUOUS
 10
103.8000637095
 20
85.8469331526
  0
VERTEX
  8
0
 62
9
  6
CONTINUOUS
 10
103.914119771
 20
85.8968833736
  0
VERTEX
  8
0
 62
9
  6
CONTINUOUS
 10
104.0120619238
 20
85.9763426935
  0
VERTEX
  8
0
 62
9
  6
CONTINUOUS
 10
104.0872155747
 20
86.0798960861
  0
VERTEX
  8
0
 62
9
  6
CONTINUOUS
 10
104.1344591312
 20
86.2004865558
  0
VERTEX
  8
0
 62
9
  6
CONTINUOUS
 10
104.1505730285
 20
86.3298960613
  0
SEQEND
  0
POLYLINE
  8
0
 62
9
  6
CONTINUOUS
 66
1
 70
0
  0
VERTEX
  8
0
 62
9
  6
CONTINUOUS
 10
118.8572740059
 20
86.4243218282
  0
VERTEX
  8
0
 62
9
  6
CONTINUOUS
 10
118.6292773445
 20
86.3952198088
  0
VERTEX
  8
0
 62
9
  6
CONTINUOUS
 10
118.3926147105
 20
86.3668763959
  0
VERTEX
  8
0
 62
9
  6
CONTINUOUS
 10
118.1486588945
 20
86.339409316
  0
SEQEND
  0
LINE
  8
0
 62
9
  6
CONTINUOUS
 10
119.6302761978
 20
86.5187389181
 11
118.8572740059
 21
86.4243218282
  0
POLYLINE
  8
0
 62
9
  6
CONTINUOUS
 66
1
 70
0
  0
VERTEX
  8
0
 62
9
  6
CONTINUOUS
 10
120.011354654
 20
86.0206415691
  0
VERTEX
  8
0
 62
9
  6
CONTINUOUS
 10
118.9916722282
 20
85.8971270632
  0
VERTEX
  8
0
 62
9
  6
CONTINUOUS
 10
118.7357532345
 20
85.8687764349
  0
VERTEX
  8
0
 62
9
  6
CONTINUOUS
 10
118.4720247619
 20
85.841311967
  0
SEQEND
  0
LINE
  8
0
 62
7
  6
CONTINUOUS
 10
124.6706104653
 20
85.8306123827
 11
124.774989779
 21
85.84208259
  0
LINE
  8
0
 62
9
  6
CONTINUOUS
 10
125.1471858108
 20
85.9262244791
 11
125.2078752244
 21
85.9324049593
  0
LINE
  8
0
 62
9
  6
CONTINUOUS
 10
125.6650923609
 20
86.0206415656
 11
125.7258774106
 21
86.0268007008
  0
POLYLINE
  8
0
 62
9
  6
CONTINUOUS
 66
1
 70
0
  0
VERTEX
  8
0
 62
9
  6
CONTINUOUS
 10
134.8185298678
 20
86.4243218282
  0
VERTEX
  8
0
 62
9
  6
CONTINUOUS
 10
134.1887646753
 20
86.3668763959
  0
VERTEX
  8
0
 62
9
  6
CONTINUOUS
 10
133.8772092117
 20
86.339409316
  0
SEQEND
  0
LINE
  8
0
 62
9
  6
CONTINUOUS
 10
135.9117501066
 20
86.5187389181
 11
134.8185298678
 21
86.4243218282
  0
LINE
  8
0
 62
9
  6
CONTINUOUS
 10
134.2632623034
 20
85.8687764349
 11
133.9265554419
 21
85.841311967
  0
POLYLINE
  8
0
 62
9
  6
CONTINUOUS
 66
1
 70
0
  0
VERTEX
  8
0
 62
9
  6
CONTINUOUS
 10
118.1486588945
 20
86.339409316
  0
VERTEX
  8
0
 62
9
  6
CONTINUOUS
 10
118.0605861295
 20
86.3322780668
  0
VERTEX
  8
0
 62
9
  6
CONTINUOUS
 10
117.9703356578
 20
86.3298960613
  0
SEQEND
  0
POLYLINE
  8
0
 62
9
  6
CONTINUOUS
 66
1
 70
0
  0
VERTEX
  8
0
 62
9
  6
CONTINUOUS
 10
118.4720247619
 20
85.841311967
  0
VERTEX
  8
0
 62
9
  6
CONTINUOUS
 10
118.3659284093
 20
85.8327544535
  0
VERTEX
  8
0
 62
9
  6
CONTINUOUS
 10
118.2574947853
 20
85.8298960613
  0
SEQEND
  0
LINE
  8
0
 62
9
  6
CONTINUOUS
 10
136.3209267576
 20
85.8413119882
 11
136.327229296
 21
85.84180818
  0
LINE
  8
0
 62
9
  6
CONTINUOUS
 10
137.201005408
 20
85.9262244791
 11
137.2056224973
 21
85.9265504246
  0
LINE
  8
0
 62
9
  6
CONTINUOUS
 10
138.1968070606
 20
86.0206415656
 11
138.2015586575
 21
86.0209743276
  0
POLYLINE
  8
0
 62
9
  6
CONTINUOUS
 66
1
 70
0
  0
VERTEX
  8
0
 62
9
  6
CONTINUOUS
 10
133.8772092117
 20
86.339409316
  0
VERTEX
  8
0
 62
9
  6
CONTINUOUS
 10
133.7675330504
 20
86.3322780668
  0
VERTEX
  8
0
 62
9
  6
CONTINUOUS
 10
133.656589942
 20
86.3298960613
  0
SEQEND
  0
POLYLINE
  8
0
 62
9
  6
CONTINUOUS
 66
1
 70
0
  0
VERTEX
  8
0
 62
9
  6
CONTINUOUS
 10
133.9265554419
 20
85.841311967
  0
VERTEX
  8
0
 62
9
  6
CONTINUOUS
 10
133.7881385122
 20
85.8327544535
  0
VERTEX
  8
0
 62
9
  6
CONTINUOUS
 10
133.6483166138
 20
85.8298960613
  0
SEQEND
  0
POLYLINE
  8
0
 62
9
  6
CONTINUOUS
 66
1
 70
0
  0
VERTEX
  8
0
 62
9
  6
CONTINUOUS
 10
124.6374871658
 20
85.8298960613
  0
VERTEX
  8
0
 62
9
  6
CONTINUOUS
 10
124.6882744608
 20
85.8327544535
  0
VERTEX
  8
0
 62
9
  6
CONTINUOUS
 10
124.7405702529
 20
85.841311967
  0
SEQEND
  0
POLYLINE
  8
0
 62
9
  6
CONTINUOUS
 66
1
 70
0
  0
VERTEX
  8
0
 62
9
  6
CONTINUOUS
 10
136.0853244873
 20
85.8298960622
  0
VERTEX
  8
0
 62
9
  6
CONTINUOUS
 10
136.2030598152
 20
85.8327544535
  0
VERTEX
  8
0
 62
9
  6
CONTINUOUS
 10
136.3209267594
 20
85.841311967
  0
SEQEND
  0
LINE
  8
0
 62
7
  6
CONTINUOUS
 10
124.6373555412
 20
85.8298961769
 11
124.6706104653
 21
85.8306123827
  0
POLYLINE
  8
0
 62
9
  6
CONTINUOUS
 66
1
 70
0
  0
VERTEX
  8
0
 62
9
  6
CONTINUOUS
 10
136.3655085468
 20
86.0409707772
  0
VERTEX
  8
0
 62
9
  6
CONTINUOUS
 10
136.332912323
 20
86.0403204973
  0
VERTEX
  8
0
 62
9
  6
CONTINUOUS
 10
136.287940077
 20
86.0383921861
  0
VERTEX
  8
0
 62
9
  6
CONTINUOUS
 10
136.2329457534
 20
86.0352809787
  0
VERTEX
  8
0
 62
9
  6
CONTINUOUS
 10
136.1706905962
 20
86.0311397918
  0
VERTEX
  8
0
 62
9
  6
CONTINUOUS
 10
136.1042968057
 20
86.026173036
  0
VERTEX
  8
0
 62
9
  6
CONTINUOUS
 10
134.2632623034
 20
85.8687764349
  0
SEQEND
  0
POLYLINE
  8
0
 62
7
  6
CONTINUOUS
 66
1
 70
0
  0
VERTEX
  8
0
 62
7
  6
CONTINUOUS
 10
136.0853272316
 20
85.8298961578
  0
VERTEX
  8
0
 62
7
  6
CONTINUOUS
 10
136.1393030231
 20
85.830492462
  0
VERTEX
  8
0
 62
7
  6
CONTINUOUS
 10
136.2689333935
 20
85.8367656243
  0
SEQEND
  0
LINE
  8
1_AXIS
 62
9
  6
CONTINUOUS
 10
67.2346143326
 20
83.8298960613
 11
132.2346143326
 21
83.8298960613
  0
POLYLINE
  8
0
 62
9
  6
CONTINUOUS
 66
1
 70
0
  0
VERTEX
  8
0
 62
9
  6
CONTINUOUS
 10
65.8209120514
 20
85.8298960613
  0
VERTEX
  8
0
 62
9
  6
CONTINUOUS
 10
65.6810901531
 20
85.8327544535
  0
VERTEX
  8
0
 62
9
  6
CONTINUOUS
 10
65.5426732233
 20
85.841311967
  0
SEQEND
  0
POLYLINE
  8
0
 62
9
  6
CONTINUOUS
 66
1
 70
0
  0
VERTEX
  8
0
 62
9
  6
CONTINUOUS
 10
65.8126387232
 20
86.3298960613
  0
VERTEX
  8
0
 62
9
  6
CONTINUOUS
 10
65.7016956148
 20
86.3322780669
  0
VERTEX
  8
0
 62
9
  6
CONTINUOUS
 10
65.5920194535
 20
86.339409316
  0
SEQEND
  0
LINE
  8
0
 62
7
  6
CONTINUOUS
 10
74.7934563577
 20
85.830852291
 11
74.8318878906
 21
85.8298961817
  0
POLYLINE
  8
0
 62
9
  6
CONTINUOUS
 66
1
 70
0
  0
VERTEX
  8
0
 62
9
  6
CONTINUOUS
 10
81.2117338799
 20
85.8298960613
  0
VERTEX
  8
0
 62
9
  6
CONTINUOUS
 10
81.103300256
 20
85.8327544535
  0
VERTEX
  8
0
 62
9
  6
CONTINUOUS
 10
80.9972039033
 20
85.841311967
  0
SEQEND
  0
POLYLINE
  8
0
 62
9
  6
CONTINUOUS
 66
1
 70
0
  0
VERTEX
  8
0
 62
9
  6
CONTINUOUS
 10
63.5574785586
 20
86.5187389181
  0
VERTEX
  8
0
 62
9
  6
CONTINUOUS
 10
63.3784852659
 20
86.5242780327
  0
VERTEX
  8
0
 62
9
  6
CONTINUOUS
 10
63.0358217165
 20
86.533376884
  0
SEQEND
  0
POLYLINE
  8
0
 62
7
  6
CONTINUOUS
 66
1
 70
0
  0
VERTEX
  8
0
 62
7
  6
CONTINUOUS
 10
63.1939289814
 20
85.8372493324
  0
VERTEX
  8
0
 62
7
  6
CONTINUOUS
 10
63.3236082875
 20
85.8306399081
  0
VERTEX
  8
0
 62
7
  6
CONTINUOUS
 10
63.3839089736
 20
85.8298961576
  0
SEQEND
  0
LINE
  8
0
 62
9
  6
CONTINUOUS
 10
61.2724216049
 20
86.020641569
 11
61.2676699382
 21
86.0209742379
  0
LINE
  8
0
 62
9
  6
CONTINUOUS
 10
62.2682232606
 20
85.9262245192
 11
62.2636061709
 21
85.9265504567
  0
POLYLINE
  8
0
 62
9
  6
CONTINUOUS
 66
1
 70
0
  0
VERTEX
  8
0
 62
9
  6
CONTINUOUS
 10
63.1483019058
 20
85.841311967
  0
VERTEX
  8
0
 62
9
  6
CONTINUOUS
 10
63.26616885
 20
85.8327544535
  0
VERTEX
  8
0
 62
9
  6
CONTINUOUS
 10
63.3839117078
 20
85.829896062
  0
SEQEND
  0
POLYLINE
  8
0
 62
9
  6
CONTINUOUS
 66
1
 70
0
  0
VERTEX
  8
0
 62
9
  6
CONTINUOUS
 10
63.3649993671
 20
86.0261677285
  0
VERTEX
  8
0
 62
9
  6
CONTINUOUS
 10
63.2985971169
 20
86.0311356074
  0
VERTEX
  8
0
 62
9
  6
CONTINUOUS
 10
63.2363269088
 20
86.0352782576
  0
VERTEX
  8
0
 62
9
  6
CONTINUOUS
 10
63.1813203967
 20
86.0383905871
  0
VERTEX
  8
0
 62
9
  6
CONTINUOUS
 10
63.1363510193
 20
86.0403193388
  0
VERTEX
  8
0
 62
9
  6
CONTINUOUS
 10
63.1037201184
 20
86.0409707772
  0
SEQEND
  0
LINE
  8
0
 62
9
  6
CONTINUOUS
 10
63.1483019164
 20
85.841312091
 11
63.1419991508
 21
85.841808308
  0
LINE
  8
0
 62
9
  6
CONTINUOUS
 10
65.5426732233
 20
85.841311967
 11
64.8662424369
 21
85.8971275751
  0
LINE
  8
0
 62
9
  6
CONTINUOUS
 10
64.8662424369
 20
85.8971275751
 11
63.3649993671
 21
86.0261677285
  0
LINE
  8
0
 62
9
  6
CONTINUOUS
 10
64.6506987974
 20
86.4243218282
 11
63.5574785586
 21
86.5187389181
  0
POLYLINE
  8
0
 62
9
  6
CONTINUOUS
 66
1
 70
0
  0
VERTEX
  8
0
 62
9
  6
CONTINUOUS
 10
65.5920194535
 20
86.339409316
  0
VERTEX
  8
0
 62
9
  6
CONTINUOUS
 10
64.9661992303
 20
86.3952220254
  0
VERTEX
  8
0
 62
9
  6
CONTINUOUS
 10
64.6506987974
 20
86.4243218282
  0
SEQEND
  0
LINE
  8
0
 62
9
  6
CONTINUOUS
 10
73.8041363045
 20
86.020641569
 11
73.7436134358
 21
86.0267524544
  0
LINE
  8
0
 62
9
  6
CONTINUOUS
 10
74.3220428567
 20
85.9262245192
 11
74.261354685
 21
85.9324047203
  0
POLYLINE
  8
0
 62
9
  6
CONTINUOUS
 66
1
 70
0
  0
VERTEX
  8
0
 62
9
  6
CONTINUOUS
 10
80.9972039033
 20
85.841311967
  0
VERTEX
  8
0
 62
9
  6
CONTINUOUS
 10
80.7334558844
 20
85.8687785321
  0
VERTEX
  8
0
 62
9
  6
CONTINUOUS
 10
80.4775520002
 20
85.8971275751
  0
SEQEND
  0
POLYLINE
  8
0
 62
9
  6
CONTINUOUS
 66
1
 70
0
  0
VERTEX
  8
0
 62
9
  6
CONTINUOUS
 10
79.4578740112
 20
86.0206415691
  0
VERTEX
  8
0
 62
9
  6
CONTINUOUS
 10
79.4060421007
 20
86.0261677285
  0
VERTEX
  8
0
 62
9
  6
CONTINUOUS
 10
79.3458121232
 20
86.0311356074
  0
VERTEX
  8
0
 62
9
  6
CONTINUOUS
 10
79.2803875058
 20
86.0352782576
  0
VERTEX
  8
0
 62
9
  6
CONTINUOUS
 10
79.2130580463
 20
86.0383905871
  0
VERTEX
  8
0
 62
9
  6
CONTINUOUS
 10
79.1472312533
 20
86.0403193388
  0
VERTEX
  8
0
 62
9
  6
CONTINUOUS
 10
79.0863277025
 20
86.0409707772
  0
SEQEND
  0
POLYLINE
  8
0
 62
9
  6
CONTINUOUS
 66
1
 70
0
  0
VERTEX
  8
0
 62
9
  6
CONTINUOUS
 10
81.3205697707
 20
86.339409316
  0
VERTEX
  8
0
 62
9
  6
CONTINUOUS
 10
81.0765908597
 20
86.3668790742
  0
VERTEX
  8
0
 62
9
  6
CONTINUOUS
 10
80.8399333924
 20
86.3952220254
  0
VERTEX
  8
0
 62
9
  6
CONTINUOUS
 10
80.6119546593
 20
86.4243218282
  0
SEQEND
  0
LINE
  8
0
 62
7
  6
CONTINUOUS
 10
74.6893732646
 20
85.8429540563
 11
74.7934563577
 21
85.830852291
  0
LINE
  8
0
 62
9
  6
CONTINUOUS
 10
80.4775520002
 20
85.8971275751
 11
79.4578740112
 21
86.0206415691
  0
LINE
  8
0
 62
9
  6
CONTINUOUS
 10
80.6119546593
 20
86.4243218282
 11
79.8389524675
 21
86.5187389181
  0
POLYLINE
  8
0
 62
9
  6
CONTINUOUS
 66
1
 70
0
  0
VERTEX
  8
0
 62
9
  6
CONTINUOUS
 10
95.7915621935
 20
85.8298960613
  0
VERTEX
  8
0
 62
9
  6
CONTINUOUS
 10
95.669164514
 20
85.8469332773
  0
VERTEX
  8
0
 62
9
  6
CONTINUOUS
 10
95.5551082905
 20
85.8968837407
  0
VERTEX
  8
0
 62
9
  6
CONTINUOUS
 10
95.4571662235
 20
85.9763432383
  0
VERTEX
  8
0
 62
9
  6
CONTINUOUS
 10
95.3820127932
 20
86.0798966263
  0
VERTEX
  8
0
 62
9
  6
CONTINUOUS
 10
95.334769448
 20
86.2004868893
  0
VERTEX
  8
0
 62
9
  6
CONTINUOUS
 10
95.3186556367
 20
86.3298960613
  0
SEQEND
  0
POLYLINE
  8
0
 62
9
  6
CONTINUOUS
 66
1
 70
0
  0
VERTEX
  8
0
 62
9
  6
CONTINUOUS
 10
96.2404122664
 20
86.020641569
  0
VERTEX
  8
0
 62
9
  6
CONTINUOUS
 10
96.114027783
 20
86.0397297818
  0
VERTEX
  8
0
 62
9
  6
CONTINUOUS
 10
95.9962962081
 20
86.0906417064
  0
VERTEX
  8
0
 62
9
  6
CONTINUOUS
 10
95.8950392208
 20
86.1699949303
  0
VERTEX
  8
0
 62
9
  6
CONTINUOUS
 10
95.8169839854
 20
86.2725174997
  0
VERTEX
  8
0
 62
9
  6
CONTINUOUS
 10
95.767316222
 20
86.3913981692
  0
VERTEX
  8
0
 62
9
  6
CONTINUOUS
 10
95.7493356851
 20
86.5187389181
  0
SEQEND
  0
POLYLINE
  8
0
 62
9
  6
CONTINUOUS
 66
1
 70
0
  0
VERTEX
  8
0
 62
9
  6
CONTINUOUS
 10
96.0826010151
 20
85.9262245192
  0
VERTEX
  8
0
 62
9
  6
CONTINUOUS
 10
95.9562713748
 20
85.9453713928
  0
VERTEX
  8
0
 62
9
  6
CONTINUOUS
 10
95.8386038474
 20
85.9963151756
  0
VERTEX
  8
0
 62
9
  6
CONTINUOUS
 10
95.7374102302
 20
86.075673775
  0
VERTEX
  8
0
 62
9
  6
CONTINUOUS
 10
95.6594086383
 20
86.1781786745
  0
VERTEX
  8
0
 62
9
  6
CONTINUOUS
 10
95.6097774983
 20
86.2970247044
  0
VERTEX
  8
0
 62
9
  6
CONTINUOUS
 10
95.5918117581
 20
86.4243218282
  0
SEQEND
  0
POLYLINE
  8
0
 62
9
  6
CONTINUOUS
 66
1
 70
0
  0
VERTEX
  8
0
 62
9
  6
CONTINUOUS
 10
95.1401816576
 20
85.8298960613
  0
VERTEX
  8
0
 62
9
  6
CONTINUOUS
 10
95.0303648578
 20
85.8469334312
  0
VERTEX
  8
0
 62
9
  6
CONTINUOUS
 10
94.9280323762
 20
85.8968842078
  0
VERTEX
  8
0
 62
9
  6
CONTINUOUS
 10
94.8401579446
 20
85.9763439498
  0
VERTEX
  8
0
 62
9
  6
CONTINUOUS
 10
94.7727298536
 20
86.0798973464
  0
VERTEX
  8
0
 62
9
  6
CONTINUOUS
 10
94.7303429443
 20
86.2004873407
  0
VERTEX
  8
0
 62
9
  6
CONTINUOUS
 10
94.7158855887
 20
86.3298960613
  0
SEQEND
  0
POLYLINE
  8
0
 62
9
  6
CONTINUOUS
 66
1
 70
0
  0
VERTEX
  8
0
 62
9
  6
CONTINUOUS
 10
95.8604401602
 20
85.841312091
  0
VERTEX
  8
0
 62
9
  6
CONTINUOUS
 10
95.7393511611
 20
85.8618387391
  0
VERTEX
  8
0
 62
9
  6
CONTINUOUS
 10
95.6264587158
 20
85.9135308478
  0
VERTEX
  8
0
 62
9
  6
CONTINUOUS
 10
95.5291299961
 20
85.9930150769
  0
VERTEX
  8
0
 62
9
  6
CONTINUOUS
 10
95.453716511
 20
86.095104419
  0
VERTEX
  8
0
 62
9
  6
CONTINUOUS
 10
95.405139618
 20
86.2131366948
  0
VERTEX
  8
0
 62
9
  6
CONTINUOUS
 10
95.386569364
 20
86.339409316
  0
SEQEND
  0
POLYLINE
  8
0
 62
9
  6
CONTINUOUS
 66
1
 70
0
  0
VERTEX
  8
0
 62
9
  6
CONTINUOUS
 10
93.4664288471
 20
85.8298960613
  0
VERTEX
  8
0
 62
9
  6
CONTINUOUS
 10
93.4432527693
 20
85.8469331409
  0
VERTEX
  8
0
 62
9
  6
CONTINUOUS
 10
93.4216561001
 20
85.8968833384
  0
VERTEX
  8
0
 62
9
  6
CONTINUOUS
 10
93.4031106174
 20
85.9763426399
  0
VERTEX
  8
0
 62
9
  6
CONTINUOUS
 10
93.3888801664
 20
86.079896031
  0
VERTEX
  8
0
 62
9
  6
CONTINUOUS
 10
93.3799345302
 20
86.2004865201
  0
VERTEX
  8
0
 62
9
  6
CONTINUOUS
 10
93.3768833402
 20
86.3298960613
  0
SEQEND
  0
LINE
  8
0
 62
7
  6
CONTINUOUS
 10
94.7045476547
 20
78.3298960613
 11
94.7045476547
 21
78.1298960613
  0
LINE
  8
0
 62
9
  6
CONTINUOUS
 10
94.7158855886
 20
86.3298960613
 11
94.7158855886
 21
95.3298960613
  0
LINE
  8
0
 62
9
  6
CONTINUOUS
 10
95.5918121041
 20
86.4243218282
 11
95.5918121041
 21
95.2354702943
  0
LINE
  8
0
 62
9
  6
CONTINUOUS
 10
95.7493356851
 20
86.5187389181
 11
95.7493356851
 21
95.1410532044
  0
LINE
  8
0
 62
9
  6
CONTINUOUS
 10
96.4763095357
 20
95.1207239963
 11
96.4763095357
 21
86.5390681262
  0
POLYLINE
  8
0
 62
9
  6
CONTINUOUS
 66
1
 70
0
  0
VERTEX
  8
0
 62
9
  6
CONTINUOUS
 10
96.5133496954
 20
95.6188213454
  0
VERTEX
  8
0
 62
9
  6
CONTINUOUS
 10
96.5016859016
 20
95.5843159142
  0
VERTEX
  8
0
 62
9
  6
CONTINUOUS
 10
96.4913504694
 20
95.5092969553
  0
VERTEX
  8
0
 62
9
  6
CONTINUOUS
 10
96.4832466166
 20
95.4003204225
  0
VERTEX
  8
0
 62
9
  6
CONTINUOUS
 10
96.4780825421
 20
95.2669098316
  0
VERTEX
  8
0
 62
9
  6
CONTINUOUS
 10
96.4763095357
 20
95.1207239963
  0
SEQEND
  0
LINE
  8
0
 62
9
  6
CONTINUOUS
 10
103.2288163988
 20
95.6391505534
 11
103.3866276505
 21
95.7335676434
  0
POLYLINE
  8
0
 62
9
  6
CONTINUOUS
 66
1
 70
0
  0
VERTEX
  8
0
 62
9
  6
CONTINUOUS
 10
103.3866276505
 20
95.7335676434
  0
VERTEX
  8
0
 62
9
  6
CONTINUOUS
 10
103.4436880452
 20
95.7623528644
  0
VERTEX
  8
0
 62
9
  6
CONTINUOUS
 10
103.5177571441
 20
95.7906704898
  0
VERTEX
  8
0
 62
9
  6
CONTINUOUS
 10
103.6087885061
 20
95.8184801555
  0
SEQEND
  0
POLYLINE
  8
0
 62
9
  6
CONTINUOUS
 66
1
 70
0
  0
VERTEX
  8
0
 62
9
  6
CONTINUOUS
 10
95.8604401591
 20
85.841311967
  0
VERTEX
  8
0
 62
9
  6
CONTINUOUS
 10
95.8271895842
 20
85.8327544535
  0
VERTEX
  8
0
 62
9
  6
CONTINUOUS
 10
95.7915621935
 20
85.8298960613
  0
SEQEND
  0
POLYLINE
  8
0
 62
9
  6
CONTINUOUS
 66
1
 70
0
  0
VERTEX
  8
0
 62
9
  6
CONTINUOUS
 10
95.386569425
 20
86.339409316
  0
VERTEX
  8
0
 62
9
  6
CONTINUOUS
 10
95.3537408591
 20
86.3322780668
  0
VERTEX
  8
0
 62
9
  6
CONTINUOUS
 10
95.3186556367
 20
86.3298960613
  0
SEQEND
  0
POLYLINE
  8
0
 62
9
  6
CONTINUOUS
 66
1
 70
0
  0
VERTEX
  8
0
 62
9
  6
CONTINUOUS
 10
73.8285012889
 20
86.0403204973
  0
VERTEX
  8
0
 62
9
  6
CONTINUOUS
 10
73.7947351289
 20
86.0383921861
  0
VERTEX
  8
0
 62
9
  6
CONTINUOUS
 10
73.77478837
 20
86.0352809787
  0
VERTEX
  8
0
 62
9
  6
CONTINUOUS
 10
73.7696726749
 20
86.0311397918
  0
VERTEX
  8
0
 62
9
  6
CONTINUOUS
 10
73.7796446477
 20
86.026173036
  0
SEQEND
  0
LINE
  8
0
 62
9
  6
CONTINUOUS
 10
60.6687715738
 20
86.5390681262
 11
60.6471694372
 21
86.5383651656
  0
LINE
  8
0
 62
9
  6
CONTINUOUS
 10
73.8742120327
 20
86.0409707772
 11
73.8285012889
 21
86.0403204973
  0
POLYLINE
  8
0
 62
9
  6
CONTINUOUS
 66
1
 70
0
  0
VERTEX
  8
0
 62
9
  6
CONTINUOUS
 10
96.3004573575
 20
86.5384146015
  0
VERTEX
  8
0
 62
9
  6
CONTINUOUS
 10
96.1366723405
 20
86.5364854803
  0
VERTEX
  8
0
 62
9
  6
CONTINUOUS
 10
95.9931792283
 20
86.5333766934
  0
VERTEX
  8
0
 62
9
  6
CONTINUOUS
 10
95.8771871928
 20
86.5292400325
  0
VERTEX
  8
0
 62
9
  6
CONTINUOUS
 10
95.794514115
 20
86.5242783023
  0
VERTEX
  8
0
 62
9
  6
CONTINUOUS
 10
95.7493356851
 20
86.5187389181
  0
SEQEND
  0
POLYLINE
  8
0
 62
9
  6
CONTINUOUS
 66
1
 70
0
  0
VERTEX
  8
0
 62
9
  6
CONTINUOUS
 10
120.45780918
 20
86.5384146015
  0
VERTEX
  8
0
 62
9
  6
CONTINUOUS
 10
120.2825490293
 20
86.5364854803
  0
VERTEX
  8
0
 62
9
  6
CONTINUOUS
 10
120.1033425487
 20
86.5333766934
  0
VERTEX
  8
0
 62
9
  6
CONTINUOUS
 10
119.9291875167
 20
86.5292400325
  0
VERTEX
  8
0
 62
9
  6
CONTINUOUS
 10
119.7688054033
 20
86.5242783023
  0
VERTEX
  8
0
 62
9
  6
CONTINUOUS
 10
119.6302761978
 20
86.5187389181
  0
SEQEND
  0
POLYLINE
  8
0
 62
9
  6
CONTINUOUS
 66
1
 70
0
  0
VERTEX
  8
0
 62
9
  6
CONTINUOUS
 10
120.3829009627
 20
86.0409707772
  0
VERTEX
  8
0
 62
9
  6
CONTINUOUS
 10
120.3220539456
 20
86.0403204973
  0
VERTEX
  8
0
 62
9
  6
CONTINUOUS
 10
120.256213065
 20
86.0383921861
  0
VERTEX
  8
0
 62
9
  6
CONTINUOUS
 10
120.1888909664
 20
86.0352809787
  0
VERTEX
  8
0
 62
9
  6
CONTINUOUS
 10
120.1234741359
 20
86.0311397918
  0
VERTEX
  8
0
 62
9
  6
CONTINUOUS
 10
120.0632433635
 20
86.026173036
  0
VERTEX
  8
0
 62
9
  6
CONTINUOUS
 10
120.011354654
 20
86.0206415691
  0
SEQEND
  0
POLYLINE
  8
0
 62
9
  6
CONTINUOUS
 66
1
 70
0
  0
VERTEX
  8
0
 62
9
  6
CONTINUOUS
 10
96.5133496954
 20
86.0409707772
  0
VERTEX
  8
0
 62
9
  6
CONTINUOUS
 10
96.4474933773
 20
86.0403204973
  0
VERTEX
  8
0
 62
9
  6
CONTINUOUS
 10
96.3859328408
 20
86.0383921861
  0
VERTEX
  8
0
 62
9
  6
CONTINUOUS
 10
96.3319977206
 20
86.0352809787
  0
VERTEX
  8
0
 62
9
  6
CONTINUOUS
 10
96.2884062225
 20
86.0311397918
  0
VERTEX
  8
0
 62
9
  6
CONTINUOUS
 10
96.2573445761
 20
86.026173036
  0
VERTEX
  8
0
 62
9
  6
CONTINUOUS
 10
96.2404122664
 20
86.0206415691
  0
SEQEND
  0
POLYLINE
  8
0
 62
9
  6
CONTINUOUS
 66
1
 70
0
  0
VERTEX
  8
0
 62
9
  6
CONTINUOUS
 10
136.7867139812
 20
86.5390681262
  0
VERTEX
  8
0
 62
9
  6
CONTINUOUS
 10
136.6996049262
 20
86.5384146015
  0
VERTEX
  8
0
 62
9
  6
CONTINUOUS
 10
136.5798130625
 20
86.5364854803
  0
VERTEX
  8
0
 62
9
  6
CONTINUOUS
 10
136.4333439982
 20
86.5333766934
  0
VERTEX
  8
0
 62
9
  6
CONTINUOUS
 10
136.2675472725
 20
86.5292400325
  0
VERTEX
  8
0
 62
9
  6
CONTINUOUS
 10
135.9117501066
 20
86.5187389181
  0
SEQEND
  0
POLYLINE
  8
0
 62
9
  6
CONTINUOUS
 66
1
 70
0
  0
VERTEX
  8
0
 62
9
  6
CONTINUOUS
 10
73.5768525983
 20
86.5390681262
  0
VERTEX
  8
0
 62
9
  6
CONTINUOUS
 10
73.4548367768
 20
86.5384146015
  0
VERTEX
  8
0
 62
9
  6
CONTINUOUS
 10
73.3650872032
 20
86.5364854803
  0
VERTEX
  8
0
 62
9
  6
CONTINUOUS
 10
73.3121169511
 20
86.5333766934
  0
VERTEX
  8
0
 62
9
  6
CONTINUOUS
 10
73.298053336
 20
86.5299778417
  0
SEQEND
  0
LINE
  8
0
 62
7
  6
CONTINUOUS
 10
136.0853244873
 20
85.8298960622
 11
124.6439359248
 21
85.8298960613
  0
LINE
  8
0
 62
7
  6
CONTINUOUS
 10
124.6374871655
 20
85.8298960613
 11
63.3839718112
 21
85.8298960613
  0
LINE
  8
0
 62
9
  6
CONTINUOUS
 10
63.1483019058
 20
85.841311967
 11
65.5426732233
 21
85.841311967
  0
LINE
  8
0
 62
9
  6
CONTINUOUS
 10
74.7286584123
 20
85.841311967
 11
80.9972039033
 21
85.841311967
  0
LINE
  8
0
 62
9
  6
CONTINUOUS
 10
95.8604401591
 20
85.841311967
 11
103.6087885061
 21
85.841311967
  0
LINE
  8
0
 62
9
  6
CONTINUOUS
 10
118.4720247619
 20
85.841311967
 11
124.7405702529
 21
85.841311967
  0
LINE
  8
0
 62
9
  6
CONTINUOUS
 10
133.9265554419
 20
85.841311967
 11
136.3209267594
 21
85.841311967
  0
LINE
  8
0
 62
9
  6
CONTINUOUS
 10
138.3563595794
 20
86.0409707772
 11
136.3655085468
 21
86.0409707772
  0
LINE
  8
0
 62
9
  6
CONTINUOUS
 10
125.5950166325
 20
86.0409707772
 11
120.3829009627
 21
86.0409707772
  0
LINE
  8
0
 62
9
  6
CONTINUOUS
 10
102.9558789698
 20
86.0409707772
 11
96.5133496954
 21
86.0409707772
  0
LINE
  8
0
 62
9
  6
CONTINUOUS
 10
79.0863277025
 20
86.0409707772
 11
73.8742120327
 21
86.0409707772
  0
LINE
  8
0
 62
9
  6
CONTINUOUS
 10
63.1037201184
 20
86.0409707772
 11
61.1128690858
 21
86.0409707772
  0
LINE
  8
0
 62
9
  6
CONTINUOUS
 10
133.656589942
 20
86.3298960613
 11
126.1276995298
 21
86.3298960613
  0
LINE
  8
0
 62
9
  6
CONTINUOUS
 10
117.9703356578
 20
86.3298960613
 11
104.1505730285
 21
86.3298960613
  0
LINE
  8
0
 62
9
  6
CONTINUOUS
 10
95.3186556367
 20
86.3298960613
 11
81.4988930074
 21
86.3298960613
  0
LINE
  8
0
 62
9
  6
CONTINUOUS
 10
73.3410822193
 20
86.3298960613
 11
65.8126387232
 21
86.3298960613
  0
LINE
  8
0
 62
9
  6
CONTINUOUS
 10
138.8004570914
 20
86.5390681262
 11
136.7867139812
 21
86.5390681262
  0
LINE
  8
0
 62
9
  6
CONTINUOUS
 10
125.8923760669
 20
86.5390681262
 11
120.45780918
 21
86.5384146015
  0
LINE
  8
0
 62
9
  6
CONTINUOUS
 10
102.9929191295
 20
86.5390681262
 11
96.3004573575
 21
86.5384146015
  0
LINE
  8
0
 62
9
  6
CONTINUOUS
 10
62.682514684
 20
86.5390681262
 11
60.6687715738
 21
86.5390681262
  0
LINE
  8
0
 62
9
  6
CONTINUOUS
 10
125.640762741
 20
86.0403193388
 11
125.5950166325
 21
86.0409707772
  0
POLYLINE
  8
0
 62
9
  6
CONTINUOUS
 66
1
 70
0
  0
VERTEX
  8
0
 62
9
  6
CONTINUOUS
 10
63.0358217165
 20
86.533376884
  0
VERTEX
  8
0
 62
9
  6
CONTINUOUS
 10
62.8893472154
 20
86.5364855773
  0
VERTEX
  8
0
 62
9
  6
CONTINUOUS
 10
62.7695976495
 20
86.5384145955
  0
VERTEX
  8
0
 62
9
  6
CONTINUOUS
 10
62.682514684
 20
86.5390681262
  0
SEQEND
  0
POLYLINE
  8
0
 62
9
  6
CONTINUOUS
 66
1
 70
0
  0
VERTEX
  8
0
 62
9
  6
CONTINUOUS
 10
81.4988930074
 20
86.3298960613
  0
VERTEX
  8
0
 62
9
  6
CONTINUOUS
 10
81.4086425357
 20
86.3322780669
  0
VERTEX
  8
0
 62
9
  6
CONTINUOUS
 10
81.3205697707
 20
86.339409316
  0
SEQEND
  0
LINE
  8
0
 62
9
  6
CONTINUOUS
 10
138.8220592282
 20
86.5383646647
 11
138.8004570914
 21
86.5390681262
  0
POLYLINE
  8
0
 62
9
  6
CONTINUOUS
 66
1
 70
0
  0
VERTEX
  8
0
 62
9
  6
CONTINUOUS
 10
79.8389524675
 20
86.5187389181
  0
VERTEX
  8
0
 62
9
  6
CONTINUOUS
 10
79.7004007803
 20
86.5242780327
  0
VERTEX
  8
0
 62
9
  6
CONTINUOUS
 10
79.540000828
 20
86.5292389842
  0
VERTEX
  8
0
 62
9
  6
CONTINUOUS
 10
79.3658148788
 20
86.533376884
  0
VERTEX
  8
0
 62
9
  6
CONTINUOUS
 10
79.1865885888
 20
86.5364855773
  0
VERTEX
  8
0
 62
9
  6
CONTINUOUS
 10
79.0113768908
 20
86.5384145955
  0
VERTEX
  8
0
 62
9
  6
CONTINUOUS
 10
73.5768525983
 20
86.5390681262
  0
SEQEND
  0
POLYLINE
  8
0
 62
9
  6
CONTINUOUS
 66
1
 70
0
  0
VERTEX
  8
0
 62
9
  6
CONTINUOUS
 10
104.1505730285
 20
86.3298960613
  0
VERTEX
  8
0
 62
9
  6
CONTINUOUS
 10
104.1154878061
 20
86.3322780669
  0
VERTEX
  8
0
 62
9
  6
CONTINUOUS
 10
104.0826592402
 20
86.339409316
  0
SEQEND
  0
POLYLINE
  8
0
 62
9
  6
CONTINUOUS
 66
1
 70
0
  0
VERTEX
  8
0
 62
9
  6
CONTINUOUS
 10
103.6776664717
 20
85.8298960613
  0
VERTEX
  8
0
 62
9
  6
CONTINUOUS
 10
103.6420390811
 20
85.8327544535
  0
VERTEX
  8
0
 62
9
  6
CONTINUOUS
 10
103.6087885061
 20
85.841311967
  0
SEQEND
  0
POLYLINE
  8
0
 62
9
  6
CONTINUOUS
 66
1
 70
0
  0
VERTEX
  8
0
 62
9
  6
CONTINUOUS
 10
103.7198929801
 20
86.5187389181
  0
VERTEX
  8
0
 62
9
  6
CONTINUOUS
 10
103.6747049338
 20
86.5242780327
  0
VERTEX
  8
0
 62
9
  6
CONTINUOUS
 10
103.5920175267
 20
86.5292389842
  0
VERTEX
  8
0
 62
9
  6
CONTINUOUS
 10
103.4759971225
 20
86.533376884
  0
VERTEX
  8
0
 62
9
  6
CONTINUOUS
 10
103.3324773947
 20
86.5364855773
  0
VERTEX
  8
0
 62
9
  6
CONTINUOUS
 10
103.1687284779
 20
86.5384145955
  0
VERTEX
  8
0
 62
9
  6
CONTINUOUS
 10
102.9929191295
 20
86.5390681262
  0
SEQEND
  0
POLYLINE
  8
0
 62
9
  6
CONTINUOUS
 66
1
 70
0
  0
VERTEX
  8
0
 62
9
  6
CONTINUOUS
 10
103.6087885061
 20
85.841311967
  0
VERTEX
  8
0
 62
9
  6
CONTINUOUS
 10
103.5187675334
 20
85.8687785321
  0
VERTEX
  8
0
 62
9
  6
CONTINUOUS
 10
103.4444048511
 20
85.8971275751
  0
VERTEX
  8
0
 62
9
  6
CONTINUOUS
 10
103.3866276505
 20
85.9262244792
  0
SEQEND
  0
POLYLINE
  8
0
 62
9
  6
CONTINUOUS
 66
1
 70
0
  0
VERTEX
  8
0
 62
9
  6
CONTINUOUS
 10
103.2288163988
 20
86.0206415691
  0
VERTEX
  8
0
 62
9
  6
CONTINUOUS
 10
103.2119084842
 20
86.0261677285
  0
VERTEX
  8
0
 62
9
  6
CONTINUOUS
 10
103.1808565836
 20
86.0311356074
  0
VERTEX
  8
0
 62
9
  6
CONTINUOUS
 10
103.1372675369
 20
86.0352782576
  0
VERTEX
  8
0
 62
9
  6
CONTINUOUS
 10
103.0833326952
 20
86.0383905871
  0
VERTEX
  8
0
 62
9
  6
CONTINUOUS
 10
103.0217920842
 20
86.0403193388
  0
VERTEX
  8
0
 62
9
  6
CONTINUOUS
 10
102.9558789698
 20
86.0409707772
  0
SEQEND
  0
POLYLINE
  8
0
 62
9
  6
CONTINUOUS
 66
1
 70
0
  0
VERTEX
  8
0
 62
9
  6
CONTINUOUS
 10
104.0826592402
 20
86.339409316
  0
VERTEX
  8
0
 62
9
  6
CONTINUOUS
 10
103.9994785974
 20
86.3668790742
  0
VERTEX
  8
0
 62
9
  6
CONTINUOUS
 10
103.9307934672
 20
86.3952220254
  0
VERTEX
  8
0
 62
9
  6
CONTINUOUS
 10
103.8774165611
 20
86.4243218282
  0
SEQEND
  0
LINE
  8
0
 62
7
  6
CONTINUOUS
 10
99.7346143326
 20
85.3298960613
 11
98.8685889288
 21
85.8298960613
  0
POLYLINE
  8
0
 62
9
  6
CONTINUOUS
 66
1
 70
0
  0
VERTEX
  8
0
 62
9
  6
CONTINUOUS
 10
96.5133496954
 20
86.0409707772
  0
VERTEX
  8
0
 62
9
  6
CONTINUOUS
 10
96.5016860027
 20
86.0754757044
  0
VERTEX
  8
0
 62
9
  6
CONTINUOUS
 10
96.4913505947
 20
86.1504939151
  0
VERTEX
  8
0
 62
9
  6
CONTINUOUS
 10
96.4832467043
 20
86.2594700992
  0
VERTEX
  8
0
 62
9
  6
CONTINUOUS
 10
96.4780825716
 20
86.3928811154
  0
VERTEX
  8
0
 62
9
  6
CONTINUOUS
 10
96.4763095366
 20
86.5390681262
  0
SEQEND
  0
LINE
  8
0
 62
9
  6
CONTINUOUS
 10
103.7198929801
 20
95.1410532044
 11
103.8774165611
 21
95.2354702943
  0
POLYLINE
  8
0
 62
9
  6
CONTINUOUS
 66
1
 70
0
  0
VERTEX
  8
0
 62
9
  6
CONTINUOUS
 10
103.8774165611
 20
95.2354702943
  0
VERTEX
  8
0
 62
9
  6
CONTINUOUS
 10
103.9301316861
 20
95.264258612
  0
VERTEX
  8
0
 62
9
  6
CONTINUOUS
 10
103.9985462309
 20
95.2925703514
  0
VERTEX
  8
0
 62
9
  6
CONTINUOUS
 10
104.0826592402
 20
95.3203828065
  0
SEQEND
  0
POLYLINE
  8
0
 62
9
  6
CONTINUOUS
 66
1
 70
0
  0
VERTEX
  8
0
 62
9
  6
CONTINUOUS
 10
82.5434204015
 20
85.8298960613
  0
VERTEX
  8
0
 62
9
  6
CONTINUOUS
 10
82.5920214411
 20
85.8469332332
  0
VERTEX
  8
0
 62
9
  6
CONTINUOUS
 10
82.637310332
 20
85.896883609
  0
VERTEX
  8
0
 62
9
  6
CONTINUOUS
 10
82.6762007239
 20
85.9763430403
  0
VERTEX
  8
0
 62
9
  6
CONTINUOUS
 10
82.7060423298
 20
86.0798964278
  0
VERTEX
  8
0
 62
9
  6
CONTINUOUS
 10
82.7248015282
 20
86.2004867656
  0
VERTEX
  8
0
 62
9
  6
CONTINUOUS
 10
82.7311999379
 20
86.3298960613
  0
SEQEND
  0
POLYLINE
  8
0
 62
9
  6
CONTINUOUS
 66
1
 70
0
  0
VERTEX
  8
0
 62
9
  6
CONTINUOUS
 10
80.9972039042
 20
85.8413119882
  0
VERTEX
  8
0
 62
9
  6
CONTINUOUS
 10
81.0745467697
 20
85.8618386142
  0
VERTEX
  8
0
 62
9
  6
CONTINUOUS
 10
81.1482666927
 20
85.9135307209
  0
VERTEX
  8
0
 62
9
  6
CONTINUOUS
 10
81.2135528318
 20
85.9930149664
  0
VERTEX
  8
0
 62
9
  6
CONTINUOUS
 10
81.2661447208
 20
86.0951043391
  0
VERTEX
  8
0
 62
9
  6
CONTINUOUS
 10
81.3026102993
 20
86.2131366541
  0
VERTEX
  8
0
 62
9
  6
CONTINUOUS
 10
81.3205698835
 20
86.339409316
  0
SEQEND
  0
POLYLINE
  8
0
 62
9
  6
CONTINUOUS
 66
1
 70
0
  0
VERTEX
  8
0
 62
9
  6
CONTINUOUS
 10
118.472024761
 20
95.8184801343
  0
VERTEX
  8
0
 62
9
  6
CONTINUOUS
 10
118.3946818953
 20
95.7979535089
  0
VERTEX
  8
0
 62
9
  6
CONTINUOUS
 10
118.320961972
 20
95.7462614024
  0
VERTEX
  8
0
 62
9
  6
CONTINUOUS
 10
118.2556758325
 20
95.666777157
  0
VERTEX
  8
0
 62
9
  6
CONTINUOUS
 10
118.2030839432
 20
95.5646877841
  0
VERTEX
  8
0
 62
9
  6
CONTINUOUS
 10
118.1666183646
 20
95.4466554689
  0
VERTEX
  8
0
 62
9
  6
CONTINUOUS
 10
118.1486587803
 20
95.3203828065
  0
SEQEND
  0
POLYLINE
  8
0
 62
9
  6
CONTINUOUS
 66
1
 70
0
  0
VERTEX
  8
0
 62
9
  6
CONTINUOUS
 10
81.2117338799
 20
85.8298960613
  0
VERTEX
  8
0
 62
9
  6
CONTINUOUS
 10
81.286056137
 20
85.8469331526
  0
VERTEX
  8
0
 62
9
  6
CONTINUOUS
 10
81.3553134518
 20
85.8968833736
  0
VERTEX
  8
0
 62
9
  6
CONTINUOUS
 10
81.4147860526
 20
85.9763426935
  0
VERTEX
  8
0
 62
9
  6
CONTINUOUS
 10
81.4604209816
 20
86.0798960861
  0
VERTEX
  8
0
 62
9
  6
CONTINUOUS
 10
81.4891082964
 20
86.2004865558
  0
VERTEX
  8
0
 62
9
  6
CONTINUOUS
 10
81.4988930074
 20
86.3298960613
  0
SEQEND
  0
POLYLINE
  8
0
 62
9
  6
CONTINUOUS
 66
1
 70
0
  0
VERTEX
  8
0
 62
9
  6
CONTINUOUS
 10
80.2311245301
 20
85.9262244791
  0
VERTEX
  8
0
 62
9
  6
CONTINUOUS
 10
80.323644027
 20
85.9453714332
  0
VERTEX
  8
0
 62
9
  6
CONTINUOUS
 10
80.4114913699
 20
85.9963152631
  0
VERTEX
  8
0
 62
9
  6
CONTINUOUS
 10
80.4888344914
 20
86.0756738761
  0
VERTEX
  8
0
 62
9
  6
CONTINUOUS
 10
80.550538685
 20
86.17817876
  0
VERTEX
  8
0
 62
9
  6
CONTINUOUS
 10
80.5925074919
 20
86.2970247529
  0
VERTEX
  8
0
 62
9
  6
CONTINUOUS
 10
80.6119546593
 20
86.4243218282
  0
SEQEND
  0
POLYLINE
  8
0
 62
9
  6
CONTINUOUS
 66
1
 70
0
  0
VERTEX
  8
0
 62
9
  6
CONTINUOUS
 10
79.4578740111
 20
86.0206415656
  0
VERTEX
  8
0
 62
9
  6
CONTINUOUS
 10
79.5504303184
 20
86.0397306921
  0
VERTEX
  8
0
 62
9
  6
CONTINUOUS
 10
79.6383249958
 20
86.0906431151
  0
VERTEX
  8
0
 62
9
  6
CONTINUOUS
 10
79.7157186884
 20
86.1699964259
  0
VERTEX
  8
0
 62
9
  6
CONTINUOUS
 10
79.7774696828
 20
86.2725187227
  0
VERTEX
  8
0
 62
9
  6
CONTINUOUS
 10
79.8194755008
 20
86.3913988529
  0
VERTEX
  8
0
 62
9
  6
CONTINUOUS
 10
79.8389454508
 20
86.5187389181
  0
SEQEND
  0
POLYLINE
  8
0
 62
9
  6
CONTINUOUS
 66
1
 70
0
  0
VERTEX
  8
0
 62
9
  6
CONTINUOUS
 10
61.1128690858
 20
86.0409707772
  0
VERTEX
  8
0
 62
9
  6
CONTINUOUS
 10
61.1047638667
 20
86.0403204973
  0
VERTEX
  8
0
 62
9
  6
CONTINUOUS
 10
61.1116896087
 20
86.0383921861
  0
VERTEX
  8
0
 62
9
  6
CONTINUOUS
 10
61.133350195
 20
86.0352809787
  0
SEQEND
  0
POLYLINE
  8
0
 62
9
  6
CONTINUOUS
 66
1
 70
0
  0
VERTEX
  8
0
 62
9
  6
CONTINUOUS
 10
125.694449696
 20
86.0352782576
  0
VERTEX
  8
0
 62
9
  6
CONTINUOUS
 10
125.6745107484
 20
86.0383905871
  0
VERTEX
  8
0
 62
9
  6
CONTINUOUS
 10
125.640762741
 20
86.0403193388
  0
SEQEND
  0
POLYLINE
  8
0
 62
9
  6
CONTINUOUS
 66
1
 70
0
  0
VERTEX
  8
0
 62
9
  6
CONTINUOUS
 10
120.011354654
 20
86.020641569
  0
VERTEX
  8
0
 62
9
  6
CONTINUOUS
 10
119.9187968022
 20
86.0397297818
  0
VERTEX
  8
0
 62
9
  6
CONTINUOUS
 10
119.8309005244
 20
86.0906417064
  0
VERTEX
  8
0
 62
9
  6
CONTINUOUS
 10
119.7535053454
 20
86.1699949303
  0
VERTEX
  8
0
 62
9
  6
CONTINUOUS
 10
119.6917531336
 20
86.2725174997
  0
VERTEX
  8
0
 62
9
  6
CONTINUOUS
 10
119.6497464924
 20
86.3913981692
  0
VERTEX
  8
0
 62
9
  6
CONTINUOUS
 10
119.6302761978
 20
86.5187389181
  0
SEQEND
  0
POLYLINE
  8
0
 62
9
  6
CONTINUOUS
 66
1
 70
0
  0
VERTEX
  8
0
 62
9
  6
CONTINUOUS
 10
119.2381041333
 20
85.9262245192
  0
VERTEX
  8
0
 62
9
  6
CONTINUOUS
 10
119.1455845925
 20
85.9453713928
  0
VERTEX
  8
0
 62
9
  6
CONTINUOUS
 10
119.0577371951
 20
85.9963151756
  0
VERTEX
  8
0
 62
9
  6
CONTINUOUS
 10
118.9803940182
 20
86.075673775
  0
VERTEX
  8
0
 62
9
  6
CONTINUOUS
 10
118.9186897765
 20
86.1781786745
  0
VERTEX
  8
0
 62
9
  6
CONTINUOUS
 10
118.8767209363
 20
86.2970247044
  0
VERTEX
  8
0
 62
9
  6
CONTINUOUS
 10
118.8572737552
 20
86.4243218282
  0
SEQEND
  0
POLYLINE
  8
0
 62
9
  6
CONTINUOUS
 66
1
 70
0
  0
VERTEX
  8
0
 62
9
  6
CONTINUOUS
 10
118.2574947853
 20
85.8298960613
  0
VERTEX
  8
0
 62
9
  6
CONTINUOUS
 10
118.1831724952
 20
85.8469331663
  0
VERTEX
  8
0
 62
9
  6
CONTINUOUS
 10
118.113915168
 20
85.8968834132
  0
VERTEX
  8
0
 62
9
  6
CONTINUOUS
 10
118.0544425728
 20
85.9763427511
  0
VERTEX
  8
0
 62
9
  6
CONTINUOUS
 10
118.0088076593
 20
86.0798961415
  0
VERTEX
  8
0
 62
9
  6
CONTINUOUS
 10
117.9801203601
 20
86.2004865886
  0
VERTEX
  8
0
 62
9
  6
CONTINUOUS
 10
117.9703356578
 20
86.3298960613
  0
SEQEND
  0
POLYLINE
  8
0
 62
9
  6
CONTINUOUS
 66
1
 70
0
  0
VERTEX
  8
0
 62
9
  6
CONTINUOUS
 10
73.2980533351
 20
95.1298144815
  0
VERTEX
  8
0
 62
9
  6
CONTINUOUS
 10
73.3121169511
 20
95.1264154292
  0
VERTEX
  8
0
 62
9
  6
CONTINUOUS
 10
73.3650872032
 20
95.1233066422
  0
VERTEX
  8
0
 62
9
  6
CONTINUOUS
 10
73.4548367768
 20
95.121377521
  0
VERTEX
  8
0
 62
9
  6
CONTINUOUS
 10
73.5768525983
 20
95.1207239963
  0
SEQEND
  0
POLYLINE
  8
0
 62
9
  6
CONTINUOUS
 66
1
 70
0
  0
VERTEX
  8
0
 62
9
  6
CONTINUOUS
 10
118.4720247565
 20
85.841312091
  0
VERTEX
  8
0
 62
9
  6
CONTINUOUS
 10
118.3946819161
 20
85.8618387391
  0
VERTEX
  8
0
 62
9
  6
CONTINUOUS
 10
118.3209620183
 20
85.9135308478
  0
VERTEX
  8
0
 62
9
  6
CONTINUOUS
 10
118.2556759001
 20
85.9930150769
  0
VERTEX
  8
0
 62
9
  6
CONTINUOUS
 10
118.2030840244
 20
86.095104419
  0
VERTEX
  8
0
 62
9
  6
CONTINUOUS
 10
118.1666184489
 20
86.2131366948
  0
VERTEX
  8
0
 62
9
  6
CONTINUOUS
 10
118.148658856
 20
86.339409316
  0
SEQEND
  0
POLYLINE
  8
0
 62
9
  6
CONTINUOUS
 66
1
 70
0
  0
VERTEX
  8
0
 62
9
  6
CONTINUOUS
 10
80.9972039087
 20
95.8184800321
  0
VERTEX
  8
0
 62
9
  6
CONTINUOUS
 10
81.0745467491
 20
95.7979533839
  0
VERTEX
  8
0
 62
9
  6
CONTINUOUS
 10
81.1482666469
 20
95.746261275
  0
VERTEX
  8
0
 62
9
  6
CONTINUOUS
 10
81.213552765
 20
95.6667770458
  0
VERTEX
  8
0
 62
9
  6
CONTINUOUS
 10
81.2661446406
 20
95.5646877036
  0
VERTEX
  8
0
 62
9
  6
CONTINUOUS
 10
81.302610216
 20
95.4466554278
  0
VERTEX
  8
0
 62
9
  6
CONTINUOUS
 10
81.3205698087
 20
95.3203828065
  0
SEQEND
  0
POLYLINE
  8
0
 62
9
  6
CONTINUOUS
 66
1
 70
0
  0
VERTEX
  8
0
 62
9
  6
CONTINUOUS
 10
82.5434204014
 20
95.8298960613
  0
VERTEX
  8
0
 62
9
  6
CONTINUOUS
 10
82.5920216005
 20
95.8128587755
  0
VERTEX
  8
0
 62
9
  6
CONTINUOUS
 10
82.6373105564
 20
95.7629081685
  0
VERTEX
  8
0
 62
9
  6
CONTINUOUS
 10
82.6762009208
 20
95.6834485574
  0
VERTEX
  8
0
 62
9
  6
CONTINUOUS
 10
82.7060424447
 20
95.579895164
  0
VERTEX
  8
0
 62
9
  6
CONTINUOUS
 10
82.7248015614
 20
95.4593050245
  0
VERTEX
  8
0
 62
9
  6
CONTINUOUS
 10
82.7311999377
 20
95.3298960613
  0
SEQEND
  0
LINE
  8
0
 62
9
  6
CONTINUOUS
 10
103.3866276505
 20
85.9262244792
 11
103.2288163988
 21
86.0206415691
  0
LINE
  8
0
 62
9
  6
CONTINUOUS
 10
103.8774165611
 20
86.4243218282
 11
103.7198929801
 21
86.5187389181
  0
LINE
  8
0
 62
9
  6
CONTINUOUS
 10
95.7493356851
 20
86.5187389181
 11
95.5918121041
 21
86.4243218282
  0
LINE
  8
0
 62
9
  6
CONTINUOUS
 10
96.2404122664
 20
86.0206415691
 11
96.0826010147
 21
85.9262244792
  0
POLYLINE
  8
0
 62
9
  6
CONTINUOUS
 66
1
 70
0
  0
VERTEX
  8
0
 62
9
  6
CONTINUOUS
 10
95.5918121041
 20
86.4243218282
  0
VERTEX
  8
0
 62
9
  6
CONTINUOUS
 10
95.538430483
 20
86.3952198088
  0
VERTEX
  8
0
 62
9
  6
CONTINUOUS
 10
95.4697427634
 20
86.3668763959
  0
VERTEX
  8
0
 62
9
  6
CONTINUOUS
 10
95.386569425
 20
86.339409316
  0
SEQEND
  0
POLYLINE
  8
0
 62
9
  6
CONTINUOUS
 66
1
 70
0
  0
VERTEX
  8
0
 62
9
  6
CONTINUOUS
 10
96.0826010147
 20
85.9262244792
  0
VERTEX
  8
0
 62
9
  6
CONTINUOUS
 10
96.0248226815
 20
85.8971270632
  0
VERTEX
  8
0
 62
9
  6
CONTINUOUS
 10
95.95045493
 20
85.8687764349
  0
VERTEX
  8
0
 62
9
  6
CONTINUOUS
 10
95.8604401591
 20
85.841311967
  0
SEQEND
  0
POLYLINE
  8
0
 62
9
  6
CONTINUOUS
 66
1
 70
0
  0
VERTEX
  8
0
 62
9
  6
CONTINUOUS
 10
116.9258082637
 20
95.8298960613
  0
VERTEX
  8
0
 62
9
  6
CONTINUOUS
 10
116.8772072671
 20
95.8128589199
  0
VERTEX
  8
0
 62
9
  6
CONTINUOUS
 10
116.8319183918
 20
95.7629086037
  0
VERTEX
  8
0
 62
9
  6
CONTINUOUS
 10
116.7930279916
 20
95.6834492161
  0
VERTEX
  8
0
 62
9
  6
CONTINUOUS
 10
116.7631863643
 20
95.5798958278
  0
VERTEX
  8
0
 62
9
  6
CONTINUOUS
 10
116.7444271453
 20
95.4593054394
  0
VERTEX
  8
0
 62
9
  6
CONTINUOUS
 10
116.7380287273
 20
95.3298960613
  0
SEQEND
  0
POLYLINE
  8
0
 62
9
  6
CONTINUOUS
 66
1
 70
0
  0
VERTEX
  8
0
 62
9
  6
CONTINUOUS
 10
118.2574947853
 20
95.8298960613
  0
VERTEX
  8
0
 62
9
  6
CONTINUOUS
 10
118.1831725281
 20
95.8128589699
  0
VERTEX
  8
0
 62
9
  6
CONTINUOUS
 10
118.1139152133
 20
95.7629087488
  0
VERTEX
  8
0
 62
9
  6
CONTINUOUS
 10
118.0544426125
 20
95.6834494288
  0
VERTEX
  8
0
 62
9
  6
CONTINUOUS
 10
118.0088076836
 20
95.5798960361
  0
VERTEX
  8
0
 62
9
  6
CONTINUOUS
 10
117.9801203688
 20
95.4593055665
  0
VERTEX
  8
0
 62
9
  6
CONTINUOUS
 10
117.9703356578
 20
95.3298960613
  0
SEQEND
  0
POLYLINE
  8
0
 62
9
  6
CONTINUOUS
 66
1
 70
0
  0
VERTEX
  8
0
 62
9
  6
CONTINUOUS
 10
119.2381041351
 20
95.7335676434
  0
VERTEX
  8
0
 62
9
  6
CONTINUOUS
 10
119.1455846382
 20
95.7144206893
  0
VERTEX
  8
0
 62
9
  6
CONTINUOUS
 10
119.0577372953
 20
95.6634768594
  0
VERTEX
  8
0
 62
9
  6
CONTINUOUS
 10
118.9803941739
 20
95.5841182464
  0
VERTEX
  8
0
 62
9
  6
CONTINUOUS
 10
118.9186899802
 20
95.4816133625
  0
VERTEX
  8
0
 62
9
  6
CONTINUOUS
 10
118.8767211733
 20
95.3627673696
  0
VERTEX
  8
0
 62
9
  6
CONTINUOUS
 10
118.8572740059
 20
95.2354702943
  0
SEQEND
  0
POLYLINE
  8
0
 62
9
  6
CONTINUOUS
 66
1
 70
0
  0
VERTEX
  8
0
 62
9
  6
CONTINUOUS
 10
120.0113546541
 20
95.6391505571
  0
VERTEX
  8
0
 62
9
  6
CONTINUOUS
 10
119.9187983802
 20
95.6200614447
  0
VERTEX
  8
0
 62
9
  6
CONTINUOUS
 10
119.8309037361
 20
95.5691490296
  0
VERTEX
  8
0
 62
9
  6
CONTINUOUS
 10
119.7535100752
 20
95.4897957202
  0
VERTEX
  8
0
 62
9
  6
CONTINUOUS
 10
119.6917591094
 20
95.3872734191
  0
VERTEX
  8
0
 62
9
  6
CONTINUOUS
 10
119.6497533151
 20
95.2683932804
  0
VERTEX
  8
0
 62
9
  6
CONTINUOUS
 10
119.6302833817
 20
95.1410532044
  0
SEQEND
  0
POLYLINE
  8
0
 62
9
  6
CONTINUOUS
 66
1
 70
0
  0
VERTEX
  8
0
 62
9
  6
CONTINUOUS
 10
138.3563595794
 20
95.6188213454
  0
VERTEX
  8
0
 62
9
  6
CONTINUOUS
 10
138.364465223
 20
95.6194727837
  0
VERTEX
  8
0
 62
9
  6
CONTINUOUS
 10
138.3575300357
 20
95.6214015354
  0
VERTEX
  8
0
 62
9
  6
CONTINUOUS
 10
138.3358570885
 20
95.6245138649
  0
SEQEND
  0
POLYLINE
  8
0
 62
9
  6
CONTINUOUS
 66
1
 70
0
  0
VERTEX
  8
0
 62
9
  6
CONTINUOUS
 10
73.77478837
 20
95.6245111438
  0
VERTEX
  8
0
 62
9
  6
CONTINUOUS
 10
73.7947351288
 20
95.6213999365
  0
VERTEX
  8
0
 62
9
  6
CONTINUOUS
 10
73.8285012889
 20
95.6194716253
  0
SEQEND
  0
POLYLINE
  8
0
 62
9
  6
CONTINUOUS
 66
1
 70
0
  0
VERTEX
  8
0
 62
9
  6
CONTINUOUS
 10
79.4578740112
 20
95.6391505535
  0
VERTEX
  8
0
 62
9
  6
CONTINUOUS
 10
79.550431863
 20
95.6200623407
  0
VERTEX
  8
0
 62
9
  6
CONTINUOUS
 10
79.6383281409
 20
95.5691504162
  0
VERTEX
  8
0
 62
9
  6
CONTINUOUS
 10
79.71572332
 20
95.4897971923
  0
VERTEX
  8
0
 62
9
  6
CONTINUOUS
 10
79.7774755319
 20
95.3872746229
  0
VERTEX
  8
0
 62
9
  6
CONTINUOUS
 10
79.8194821732
 20
95.2683939533
  0
VERTEX
  8
0
 62
9
  6
CONTINUOUS
 10
79.8389524675
 20
95.1410532044
  0
SEQEND
  0
POLYLINE
  8
0
 62
9
  6
CONTINUOUS
 66
1
 70
0
  0
VERTEX
  8
0
 62
9
  6
CONTINUOUS
 10
80.231124531
 20
95.7335676225
  0
VERTEX
  8
0
 62
9
  6
CONTINUOUS
 10
80.323644052
 20
95.7144207124
  0
VERTEX
  8
0
 62
9
  6
CONTINUOUS
 10
80.4114914247
 20
95.6634769081
  0
VERTEX
  8
0
 62
9
  6
CONTINUOUS
 10
80.4888345765
 20
95.5841183024
  0
VERTEX
  8
0
 62
9
  6
CONTINUOUS
 10
80.5505387964
 20
95.4816134098
  0
VERTEX
  8
0
 62
9
  6
CONTINUOUS
 10
80.5925076216
 20
95.3627673964
  0
VERTEX
  8
0
 62
9
  6
CONTINUOUS
 10
80.6119547964
 20
95.2354702943
  0
SEQEND
  0
POLYLINE
  8
0
 62
9
  6
CONTINUOUS
 66
1
 70
0
  0
VERTEX
  8
0
 62
9
  6
CONTINUOUS
 10
81.2117338799
 20
95.8298960613
  0
VERTEX
  8
0
 62
9
  6
CONTINUOUS
 10
81.2860561898
 20
95.812858947
  0
VERTEX
  8
0
 62
9
  6
CONTINUOUS
 10
81.3553135244
 20
95.762908682
  0
VERTEX
  8
0
 62
9
  6
CONTINUOUS
 10
81.4147861159
 20
95.6834493306
  0
VERTEX
  8
0
 62
9
  6
CONTINUOUS
 10
81.4604210194
 20
95.5798959402
  0
VERTEX
  8
0
 62
9
  6
CONTINUOUS
 10
81.489108309
 20
95.4593055086
  0
VERTEX
  8
0
 62
9
  6
CONTINUOUS
 10
81.4988930074
 20
95.3298960613
  0
SEQEND
  0
POLYLINE
  8
0
 62
9
  6
CONTINUOUS
 66
1
 70
0
  0
VERTEX
  8
0
 62
9
  6
CONTINUOUS
 10
126.1711753341
 20
86.5299742787
  0
VERTEX
  8
0
 62
9
  6
CONTINUOUS
 10
126.1570983054
 20
86.533376884
  0
VERTEX
  8
0
 62
9
  6
CONTINUOUS
 10
126.1041047977
 20
86.5364855773
  0
VERTEX
  8
0
 62
9
  6
CONTINUOUS
 10
126.0143651827
 20
86.5384145955
  0
VERTEX
  8
0
 62
9
  6
CONTINUOUS
 10
125.8923760669
 20
86.5390681262
  0
SEQEND
  0
POLYLINE
  8
0
 62
9
  6
CONTINUOUS
 66
1
 70
0
  0
VERTEX
  8
0
 62
9
  6
CONTINUOUS
 10
95.386569425
 20
95.3203828065
  0
VERTEX
  8
0
 62
9
  6
CONTINUOUS
 10
95.4697422212
 20
95.2929159252
  0
VERTEX
  8
0
 62
9
  6
CONTINUOUS
 10
95.5384298772
 20
95.2645725984
  0
VERTEX
  8
0
 62
9
  6
CONTINUOUS
 10
95.5918121041
 20
95.2354702943
  0
SEQEND
  0
POLYLINE
  8
0
 62
9
  6
CONTINUOUS
 66
1
 70
0
  0
VERTEX
  8
0
 62
9
  6
CONTINUOUS
 10
116.9258082638
 20
85.8298960613
  0
VERTEX
  8
0
 62
9
  6
CONTINUOUS
 10
116.8772069468
 20
85.8469334312
  0
VERTEX
  8
0
 62
9
  6
CONTINUOUS
 10
116.8319179437
 20
85.8968842078
  0
VERTEX
  8
0
 62
9
  6
CONTINUOUS
 10
116.7930275999
 20
85.9763439498
  0
VERTEX
  8
0
 62
9
  6
CONTINUOUS
 10
116.7631861364
 20
86.0798973464
  0
VERTEX
  8
0
 62
9
  6
CONTINUOUS
 10
116.7444270794
 20
86.2004873407
  0
VERTEX
  8
0
 62
9
  6
CONTINUOUS
 10
116.7380287275
 20
86.3298960613
  0
SEQEND
  0
LINE
  8
0
 62
9
  6
CONTINUOUS
 10
96.0826010147
 20
95.7335676434
 11
96.2404122664
 21
95.6391505534
  0
LINE
  8
0
 62
9
  6
CONTINUOUS
 10
95.5918121041
 20
95.2354702943
 11
95.7493356851
 21
95.1410532044
  0
LINE
  8
0
 62
9
  6
CONTINUOUS
 10
102.9929191295
 20
95.1207239963
 11
102.9929191295
 21
86.5390681262
  0
LINE
  8
0
 62
9
  6
CONTINUOUS
 10
103.7198929801
 20
86.5187389181
 11
103.7198929801
 21
95.1410532044
  0
LINE
  8
0
 62
9
  6
CONTINUOUS
 10
103.8774165611
 20
86.4243218282
 11
103.8774165611
 21
95.2354702943
  0
LINE
  8
0
 62
9
  6
CONTINUOUS
 10
104.7533430766
 20
86.3298960613
 11
104.7533430766
 21
95.3298960613
  0
POLYLINE
  8
0
 62
9
  6
CONTINUOUS
 66
1
 70
0
  0
VERTEX
  8
0
 62
9
  6
CONTINUOUS
 10
102.9558789698
 20
86.0409707772
  0
VERTEX
  8
0
 62
9
  6
CONTINUOUS
 10
102.9675427578
 20
86.0754761793
  0
VERTEX
  8
0
 62
9
  6
CONTINUOUS
 10
102.9778781892
 20
86.1504951001
  0
VERTEX
  8
0
 62
9
  6
CONTINUOUS
 10
102.9859820446
 20
86.2594716209
  0
VERTEX
  8
0
 62
9
  6
CONTINUOUS
 10
102.9911461224
 20
86.392882238
  0
VERTEX
  8
0
 62
9
  6
CONTINUOUS
 10
102.9929191295
 20
86.5390681262
  0
SEQEND
  0
LINE
  8
0
 62
7
  6
CONTINUOUS
 10
99.7346143326
 20
85.3298960613
 11
100.6006397364
 21
85.8298960613
  0
POLYLINE
  8
0
 62
9
  6
CONTINUOUS
 66
1
 70
0
  0
VERTEX
  8
0
 62
9
  6
CONTINUOUS
 10
103.6087885061
 20
95.8184801555
  0
VERTEX
  8
0
 62
9
  6
CONTINUOUS
 10
103.6420387608
 20
95.8270376156
  0
VERTEX
  8
0
 62
9
  6
CONTINUOUS
 10
103.6776664717
 20
95.8298960613
  0
SEQEND
  0
POLYLINE
  8
0
 62
9
  6
CONTINUOUS
 66
1
 70
0
  0
VERTEX
  8
0
 62
9
  6
CONTINUOUS
 10
104.0826592402
 20
95.3203828065
  0
VERTEX
  8
0
 62
9
  6
CONTINUOUS
 10
104.1154876453
 20
95.327514033
  0
VERTEX
  8
0
 62
9
  6
CONTINUOUS
 10
104.1505730285
 20
95.3298960613
  0
SEQEND
  0
POLYLINE
  8
0
 62
9
  6
CONTINUOUS
 66
1
 70
0
  0
VERTEX
  8
0
 62
9
  6
CONTINUOUS
 10
95.8604401593
 20
95.8184801343
  0
VERTEX
  8
0
 62
9
  6
CONTINUOUS
 10
95.7393511227
 20
95.7979535089
  0
VERTEX
  8
0
 62
9
  6
CONTINUOUS
 10
95.6264586394
 20
95.7462614024
  0
VERTEX
  8
0
 62
9
  6
CONTINUOUS
 10
95.5291298876
 20
95.666777157
  0
VERTEX
  8
0
 62
9
  6
CONTINUOUS
 10
95.4537163822
 20
95.5646877841
  0
VERTEX
  8
0
 62
9
  6
CONTINUOUS
 10
95.4051394847
 20
95.4466554689
  0
VERTEX
  8
0
 62
9
  6
CONTINUOUS
 10
95.3865692438
 20
95.3203828065
  0
SEQEND
  0
POLYLINE
  8
0
 62
9
  6
CONTINUOUS
 66
1
 70
0
  0
VERTEX
  8
0
 62
9
  6
CONTINUOUS
 10
95.1401816576
 20
95.8298960613
  0
VERTEX
  8
0
 62
9
  6
CONTINUOUS
 10
95.0303656738
 20
95.812858949
  0
VERTEX
  8
0
 62
9
  6
CONTINUOUS
 10
94.9280335136
 20
95.7629086886
  0
VERTEX
  8
0
 62
9
  6
CONTINUOUS
 10
94.8401589363
 20
95.6834493414
  0
VERTEX
  8
0
 62
9
  6
CONTINUOUS
 10
94.7727304294
 20
95.5798959517
  0
VERTEX
  8
0
 62
9
  6
CONTINUOUS
 10
94.7303431111
 20
95.459305516
  0
VERTEX
  8
0
 62
9
  6
CONTINUOUS
 10
94.7158855886
 20
95.3298960613
  0
SEQEND
  0
POLYLINE
  8
0
 62
9
  6
CONTINUOUS
 66
1
 70
0
  0
VERTEX
  8
0
 62
9
  6
CONTINUOUS
 10
96.0826010147
 20
95.7335676434
  0
VERTEX
  8
0
 62
9
  6
CONTINUOUS
 10
95.9562714408
 20
95.7144206893
  0
VERTEX
  8
0
 62
9
  6
CONTINUOUS
 10
95.8386039917
 20
95.6634768594
  0
VERTEX
  8
0
 62
9
  6
CONTINUOUS
 10
95.737410452
 20
95.5841182464
  0
VERTEX
  8
0
 62
9
  6
CONTINUOUS
 10
95.6594089253
 20
95.4816133625
  0
VERTEX
  8
0
 62
9
  6
CONTINUOUS
 10
95.6097778287
 20
95.3627673696
  0
VERTEX
  8
0
 62
9
  6
CONTINUOUS
 10
95.5918121041
 20
95.2354702943
  0
SEQEND
  0
POLYLINE
  8
0
 62
9
  6
CONTINUOUS
 66
1
 70
0
  0
VERTEX
  8
0
 62
9
  6
CONTINUOUS
 10
96.2404122664
 20
95.6391505571
  0
VERTEX
  8
0
 62
9
  6
CONTINUOUS
 10
96.1140300246
 20
95.6200614447
  0
VERTEX
  8
0
 62
9
  6
CONTINUOUS
 10
95.9963007392
 20
95.5691490296
  0
VERTEX
  8
0
 62
9
  6
CONTINUOUS
 10
95.8950458528
 20
95.4897957202
  0
VERTEX
  8
0
 62
9
  6
CONTINUOUS
 10
95.8169923175
 20
95.3872734191
  0
VERTEX
  8
0
 62
9
  6
CONTINUOUS
 10
95.7673256844
 20
95.2683932804
  0
VERTEX
  8
0
 62
9
  6
CONTINUOUS
 10
95.7493455974
 20
95.1410532044
  0
SEQEND
  0
POLYLINE
  8
0
 62
9
  6
CONTINUOUS
 66
1
 70
0
  0
VERTEX
  8
0
 62
9
  6
CONTINUOUS
 10
95.7915621935
 20
95.8298960613
  0
VERTEX
  8
0
 62
9
  6
CONTINUOUS
 10
95.6691649555
 20
95.8128589699
  0
VERTEX
  8
0
 62
9
  6
CONTINUOUS
 10
95.555108894
 20
95.7629087488
  0
VERTEX
  8
0
 62
9
  6
CONTINUOUS
 10
95.4571667412
 20
95.6834494288
  0
VERTEX
  8
0
 62
9
  6
CONTINUOUS
 10
95.3820130904
 20
95.5798960361
  0
VERTEX
  8
0
 62
9
  6
CONTINUOUS
 10
95.334769534
 20
95.4593055665
  0
VERTEX
  8
0
 62
9
  6
CONTINUOUS
 10
95.3186556367
 20
95.3298960613
  0
SEQEND
  0
POLYLINE
  8
0
 62
9
  6
CONTINUOUS
 66
1
 70
0
  0
VERTEX
  8
0
 62
9
  6
CONTINUOUS
 10
125.6407627407
 20
95.6194727837
  0
VERTEX
  8
0
 62
9
  6
CONTINUOUS
 10
125.6745107487
 20
95.6214015354
  0
VERTEX
  8
0
 62
9
  6
CONTINUOUS
 10
125.6944496959
 20
95.6245138649
  0
VERTEX
  8
0
 62
9
  6
CONTINUOUS
 10
125.6995536375
 20
95.6286565151
  0
VERTEX
  8
0
 62
9
  6
CONTINUOUS
 10
125.6895666907
 20
95.633624394
  0
SEQEND
  0
LINE
  8
0
 62
9
  6
CONTINUOUS
 10
138.8004570914
 20
95.1207239963
 11
138.8220592282
 21
95.1214274582
  0
LINE
  8
0
 62
9
  6
CONTINUOUS
 10
63.2016400984
 20
95.1305531383
 11
63.5574785586
 21
95.1410532044
  0
LINE
  8
0
 62
7
  6
CONTINUOUS
 10
74.831873446
 20
95.8298959446
 11
74.7986217415
 21
95.8291798869
  0
POLYLINE
  8
0
 62
9
  6
CONTINUOUS
 66
1
 70
0
  0
VERTEX
  8
0
 62
9
  6
CONTINUOUS
 10
63.1037201184
 20
95.6188213454
  0
VERTEX
  8
0
 62
9
  6
CONTINUOUS
 10
63.1363510196
 20
95.6194727837
  0
VERTEX
  8
0
 62
9
  6
CONTINUOUS
 10
63.1813203965
 20
95.6214015354
  0
VERTEX
  8
0
 62
9
  6
CONTINUOUS
 10
63.2363269089
 20
95.6245138649
  0
VERTEX
  8
0
 62
9
  6
CONTINUOUS
 10
63.2985971169
 20
95.6286565151
  0
VERTEX
  8
0
 62
9
  6
CONTINUOUS
 10
63.3649993671
 20
95.633624394
  0
VERTEX
  8
0
 62
9
  6
CONTINUOUS
 10
65.2017832319
 20
95.7906704898
  0
SEQEND
  0
LINE
  8
0
 62
9
  6
CONTINUOUS
 10
125.5950166325
 20
95.6188213454
 11
125.6407627407
 21
95.6194727837
  0
POLYLINE
  8
0
 62
9
  6
CONTINUOUS
 66
1
 70
0
  0
VERTEX
  8
0
 62
9
  6
CONTINUOUS
 10
103.1687284779
 20
95.1213775274
  0
VERTEX
  8
0
 62
9
  6
CONTINUOUS
 10
103.3324773947
 20
95.123306545
  0
VERTEX
  8
0
 62
9
  6
CONTINUOUS
 10
103.4759971225
 20
95.1264152386
  0
VERTEX
  8
0
 62
9
  6
CONTINUOUS
 10
103.5920175267
 20
95.1305531383
  0
VERTEX
  8
0
 62
9
  6
CONTINUOUS
 10
103.6747049338
 20
95.1355140898
  0
VERTEX
  8
0
 62
9
  6
CONTINUOUS
 10
103.7198929801
 20
95.1410532044
  0
SEQEND
  0
POLYLINE
  8
0
 62
9
  6
CONTINUOUS
 66
1
 70
0
  0
VERTEX
  8
0
 62
9
  6
CONTINUOUS
 10
79.0113768908
 20
95.1213775274
  0
VERTEX
  8
0
 62
9
  6
CONTINUOUS
 10
79.1865885888
 20
95.123306545
  0
VERTEX
  8
0
 62
9
  6
CONTINUOUS
 10
79.3658148788
 20
95.1264152386
  0
VERTEX
  8
0
 62
9
  6
CONTINUOUS
 10
79.540000828
 20
95.1305531383
  0
VERTEX
  8
0
 62
9
  6
CONTINUOUS
 10
79.7004007803
 20
95.1355140898
  0
VERTEX
  8
0
 62
9
  6
CONTINUOUS
 10
79.8389524675
 20
95.1410532044
  0
SEQEND
  0
POLYLINE
  8
0
 62
7
  6
CONTINUOUS
 66
1
 70
0
  0
VERTEX
  8
0
 62
7
  6
CONTINUOUS
 10
63.3839521665
 20
95.8298959646
  0
VERTEX
  8
0
 62
7
  6
CONTINUOUS
 10
63.3299299167
 20
95.8292997508
  0
VERTEX
  8
0
 62
7
  6
CONTINUOUS
 10
63.2002996176
 20
95.8230268271
  0
SEQEND
  0
POLYLINE
  8
0
 62
9
  6
CONTINUOUS
 66
1
 70
0
  0
VERTEX
  8
0
 62
9
  6
CONTINUOUS
 10
79.0863277025
 20
95.6188213454
  0
VERTEX
  8
0
 62
9
  6
CONTINUOUS
 10
79.1472312534
 20
95.6194727837
  0
VERTEX
  8
0
 62
9
  6
CONTINUOUS
 10
79.2130580463
 20
95.6214015354
  0
VERTEX
  8
0
 62
9
  6
CONTINUOUS
 10
79.2803875057
 20
95.6245138649
  0
VERTEX
  8
0
 62
9
  6
CONTINUOUS
 10
79.3458121232
 20
95.6286565151
  0
VERTEX
  8
0
 62
9
  6
CONTINUOUS
 10
79.4060421008
 20
95.633624394
  0
VERTEX
  8
0
 62
9
  6
CONTINUOUS
 10
79.4578740112
 20
95.6391505534
  0
SEQEND
  0
POLYLINE
  8
0
 62
9
  6
CONTINUOUS
 66
1
 70
0
  0
VERTEX
  8
0
 62
9
  6
CONTINUOUS
 10
102.9558789698
 20
95.6188213454
  0
VERTEX
  8
0
 62
9
  6
CONTINUOUS
 10
103.021792084
 20
95.6194727837
  0
VERTEX
  8
0
 62
9
  6
CONTINUOUS
 10
103.0833326954
 20
95.6214015354
  0
VERTEX
  8
0
 62
9
  6
CONTINUOUS
 10
103.1372675369
 20
95.6245138649
  0
VERTEX
  8
0
 62
9
  6
CONTINUOUS
 10
103.1808565835
 20
95.6286565151
  0
VERTEX
  8
0
 62
9
  6
CONTINUOUS
 10
103.2119084843
 20
95.633624394
  0
VERTEX
  8
0
 62
9
  6
CONTINUOUS
 10
103.2288163988
 20
95.6391505534
  0
SEQEND
  0
POLYLINE
  8
0
 62
9
  6
CONTINUOUS
 66
1
 70
0
  0
VERTEX
  8
0
 62
9
  6
CONTINUOUS
 10
62.682514684
 20
95.1207239963
  0
VERTEX
  8
0
 62
9
  6
CONTINUOUS
 10
62.7695976495
 20
95.1213775274
  0
VERTEX
  8
0
 62
9
  6
CONTINUOUS
 10
62.8893472154
 20
95.123306545
  0
VERTEX
  8
0
 62
9
  6
CONTINUOUS
 10
63.2016400984
 20
95.1305531383
  0
SEQEND
  0
POLYLINE
  8
0
 62
9
  6
CONTINUOUS
 66
1
 70
0
  0
VERTEX
  8
0
 62
9
  6
CONTINUOUS
 10
125.8923760669
 20
95.1207239963
  0
VERTEX
  8
0
 62
9
  6
CONTINUOUS
 10
126.0143651827
 20
95.1213775274
  0
VERTEX
  8
0
 62
9
  6
CONTINUOUS
 10
126.1041047977
 20
95.123306545
  0
VERTEX
  8
0
 62
9
  6
CONTINUOUS
 10
126.1570983054
 20
95.1264152386
  0
VERTEX
  8
0
 62
9
  6
CONTINUOUS
 10
126.1711753337
 20
95.1298176429
  0
SEQEND
  0
LINE
  8
0
 62
9
  6
CONTINUOUS
 10
60.6687715738
 20
95.1207239963
 11
62.682514684
 21
95.1207239963
  0
LINE
  8
0
 62
9
  6
CONTINUOUS
 10
73.5768525983
 20
95.1207239963
 11
79.0113768908
 21
95.1213775274
  0
LINE
  8
0
 62
9
  6
CONTINUOUS
 10
96.4763095357
 20
95.1207239963
 11
103.1687284779
 21
95.1213775274
  0
LINE
  8
0
 62
9
  6
CONTINUOUS
 10
136.7867139812
 20
95.1207239963
 11
138.8004570914
 21
95.1207239963
  0
LINE
  8
0
 62
9
  6
CONTINUOUS
 10
65.8126387232
 20
95.3298960613
 11
73.3415283804
 21
95.3298960613
  0
LINE
  8
0
 62
9
  6
CONTINUOUS
 10
81.4988930074
 20
95.3298960613
 11
95.3186556367
 21
95.3298960613
  0
LINE
  8
0
 62
9
  6
CONTINUOUS
 10
104.1505730285
 20
95.3298960613
 11
117.9703356578
 21
95.3298960613
  0
LINE
  8
0
 62
9
  6
CONTINUOUS
 10
126.1281451975
 20
95.3298960613
 11
133.656589942
 21
95.3298960613
  0
LINE
  8
0
 62
9
  6
CONTINUOUS
 10
73.8742120327
 20
95.6188213454
 11
79.0863277025
 21
95.6188213454
  0
LINE
  8
0
 62
9
  6
CONTINUOUS
 10
96.5133496954
 20
95.6188213454
 11
102.9558789698
 21
95.6188213454
  0
LINE
  8
0
 62
9
  6
CONTINUOUS
 10
120.3829009627
 20
95.6188213454
 11
125.5950166325
 21
95.6188213454
  0
LINE
  8
0
 62
9
  6
CONTINUOUS
 10
136.3655085468
 20
95.6188213454
 11
138.3563595794
 21
95.6188213454
  0
LINE
  8
0
 62
9
  6
CONTINUOUS
 10
61.1128690858
 20
95.6188213454
 11
63.1037201184
 21
95.6188213454
  0
LINE
  8
0
 62
9
  6
CONTINUOUS
 10
136.3209267594
 20
95.8184801555
 11
133.9265554419
 21
95.8184801555
  0
LINE
  8
0
 62
9
  6
CONTINUOUS
 10
124.7405702529
 20
95.8184801555
 11
118.4720247619
 21
95.8184801555
  0
LINE
  8
0
 62
9
  6
CONTINUOUS
 10
103.6087885061
 20
95.8184801555
 11
95.8604401591
 21
95.8184801555
  0
LINE
  8
0
 62
9
  6
CONTINUOUS
 10
80.9972039033
 20
95.8184801555
 11
74.7286584123
 21
95.8184801555
  0
LINE
  8
0
 62
9
  6
CONTINUOUS
 10
65.5426732233
 20
95.8184801555
 11
63.1483019058
 21
95.8184801555
  0
LINE
  8
1_AXIS
 62
7
  6
CONTINUOUS
 10
124.6374871658
 20
95.8298960613
 11
118.2574947853
 21
95.8298960613
  0
LINE
  8
1_AXIS
 62
7
  6
CONTINUOUS
 10
81.2117338799
 20
95.8298960613
 11
74.8317414994
 21
95.8298960613
  0
LINE
  8
1_AXIS
 62
7
  6
CONTINUOUS
 10
65.8209120514
 20
95.8298960613
 11
63.3839718101
 21
95.8298960613
  0
LINE
  8
0
 62
7
  6
CONTINUOUS
 10
63.3839718112
 20
95.8298960613
 11
74.8243919201
 21
95.8298960613
  0
LINE
  8
0
 62
7
  6
CONTINUOUS
 10
74.8317414998
 20
95.8298960613
 11
124.6374871655
 21
95.8298960613
  0
LINE
  8
0
 62
7
  6
CONTINUOUS
 10
124.6439359181
 20
95.8298960613
 11
136.085256854
 21
95.8298960613
  0
LINE
  8
0
 62
9
  6
CONTINUOUS
 10
73.8285012889
 20
95.6194716253
 11
73.8742120327
 21
95.6188213454
  0
POLYLINE
  8
0
 62
9
  6
CONTINUOUS
 66
1
 70
0
  0
VERTEX
  8
0
 62
9
  6
CONTINUOUS
 10
136.5798130625
 20
95.1233066422
  0
VERTEX
  8
0
 62
9
  6
CONTINUOUS
 10
136.6996049262
 20
95.121377521
  0
VERTEX
  8
0
 62
9
  6
CONTINUOUS
 10
136.7867139812
 20
95.1207239963
  0
SEQEND
  0
POLYLINE
  8
0
 62
9
  6
CONTINUOUS
 66
1
 70
0
  0
VERTEX
  8
0
 62
9
  6
CONTINUOUS
 10
133.6483166138
 20
95.8298960613
  0
VERTEX
  8
0
 62
9
  6
CONTINUOUS
 10
133.7881398136
 20
95.8270376156
  0
VERTEX
  8
0
 62
9
  6
CONTINUOUS
 10
133.9265554419
 20
95.8184801555
  0
SEQEND
  0
POLYLINE
  8
0
 62
9
  6
CONTINUOUS
 66
1
 70
0
  0
VERTEX
  8
0
 62
9
  6
CONTINUOUS
 10
133.656589942
 20
95.3298960613
  0
VERTEX
  8
0
 62
9
  6
CONTINUOUS
 10
133.7675335732
 20
95.3275140329
  0
VERTEX
  8
0
 62
9
  6
CONTINUOUS
 10
133.8772092117
 20
95.3203828065
  0
SEQEND
  0
LINE
  8
0
 62
9
  6
CONTINUOUS
 10
136.2675472725
 20
95.1305520901
 11
136.5798130625
 21
95.1233066422
  0
LINE
  8
0
 62
7
  6
CONTINUOUS
 10
124.6757686628
 20
95.8289400078
 11
124.6373404981
 21
95.8298959398
  0
POLYLINE
  8
0
 62
9
  6
CONTINUOUS
 66
1
 70
0
  0
VERTEX
  8
0
 62
9
  6
CONTINUOUS
 10
117.9703356578
 20
95.3298960613
  0
VERTEX
  8
0
 62
9
  6
CONTINUOUS
 10
118.060586552
 20
95.3275140329
  0
VERTEX
  8
0
 62
9
  6
CONTINUOUS
 10
118.1486588945
 20
95.3203828065
  0
SEQEND
  0
POLYLINE
  8
0
 62
9
  6
CONTINUOUS
 66
1
 70
0
  0
VERTEX
  8
0
 62
9
  6
CONTINUOUS
 10
118.2574947853
 20
95.8298960613
  0
VERTEX
  8
0
 62
9
  6
CONTINUOUS
 10
118.3659294115
 20
95.8270376156
  0
VERTEX
  8
0
 62
9
  6
CONTINUOUS
 10
118.4720247619
 20
95.8184801555
  0
SEQEND
  0
LINE
  8
0
 62
9
  6
CONTINUOUS
 10
135.9117501066
 20
95.1410532044
 11
136.2675472725
 21
95.1305520901
  0
LINE
  8
0
 62
9
  6
CONTINUOUS
 10
60.6471694372
 20
95.1214269582
 11
60.6687715738
 21
95.1207239963
  0
POLYLINE
  8
0
 62
9
  6
CONTINUOUS
 66
1
 70
0
  0
VERTEX
  8
0
 62
9
  6
CONTINUOUS
 10
119.6302761978
 20
95.1410532044
  0
VERTEX
  8
0
 62
9
  6
CONTINUOUS
 10
119.7688054033
 20
95.1355138202
  0
VERTEX
  8
0
 62
9
  6
CONTINUOUS
 10
119.9291875167
 20
95.1305520901
  0
VERTEX
  8
0
 62
9
  6
CONTINUOUS
 10
120.1033425487
 20
95.1264154292
  0
VERTEX
  8
0
 62
9
  6
CONTINUOUS
 10
120.2825490293
 20
95.1233066422
  0
VERTEX
  8
0
 62
9
  6
CONTINUOUS
 10
120.45780918
 20
95.121377521
  0
VERTEX
  8
0
 62
9
  6
CONTINUOUS
 10
125.8923760669
 20
95.1207239963
  0
SEQEND
  0
POLYLINE
  8
0
 62
9
  6
CONTINUOUS
 66
1
 70
0
  0
VERTEX
  8
0
 62
9
  6
CONTINUOUS
 10
95.3186556367
 20
95.3298960613
  0
VERTEX
  8
0
 62
9
  6
CONTINUOUS
 10
95.35374102
 20
95.3275140329
  0
VERTEX
  8
0
 62
9
  6
CONTINUOUS
 10
95.386569425
 20
95.3203828065
  0
SEQEND
  0
POLYLINE
  8
0
 62
9
  6
CONTINUOUS
 66
1
 70
0
  0
VERTEX
  8
0
 62
9
  6
CONTINUOUS
 10
95.7915621935
 20
95.8298960613
  0
VERTEX
  8
0
 62
9
  6
CONTINUOUS
 10
95.8271899044
 20
95.8270376156
  0
VERTEX
  8
0
 62
9
  6
CONTINUOUS
 10
95.8604401591
 20
95.8184801555
  0
SEQEND
  0
POLYLINE
  8
0
 62
9
  6
CONTINUOUS
 66
1
 70
0
  0
VERTEX
  8
0
 62
9
  6
CONTINUOUS
 10
95.7493356851
 20
95.1410532044
  0
VERTEX
  8
0
 62
9
  6
CONTINUOUS
 10
95.794514115
 20
95.1355138202
  0
VERTEX
  8
0
 62
9
  6
CONTINUOUS
 10
95.8771871928
 20
95.1305520901
  0
VERTEX
  8
0
 62
9
  6
CONTINUOUS
 10
95.9931792283
 20
95.1264154292
  0
VERTEX
  8
0
 62
9
  6
CONTINUOUS
 10
96.1366723405
 20
95.1233066422
  0
VERTEX
  8
0
 62
9
  6
CONTINUOUS
 10
96.3004573575
 20
95.121377521
  0
VERTEX
  8
0
 62
9
  6
CONTINUOUS
 10
96.4763095357
 20
95.1207239963
  0
SEQEND
  0
POLYLINE
  8
0
 62
9
  6
CONTINUOUS
 66
1
 70
0
  0
VERTEX
  8
0
 62
9
  6
CONTINUOUS
 10
103.6776664717
 20
95.8298960613
  0
VERTEX
  8
0
 62
9
  6
CONTINUOUS
 10
103.8000641821
 20
95.8128588365
  0
VERTEX
  8
0
 62
9
  6
CONTINUOUS
 10
103.9141204171
 20
95.762908356
  0
VERTEX
  8
0
 62
9
  6
CONTINUOUS
 10
104.0120624781
 20
95.6834488458
  0
VERTEX
  8
0
 62
9
  6
CONTINUOUS
 10
104.087215893
 20
95.5798954579
  0
VERTEX
  8
0
 62
9
  6
CONTINUOUS
 10
104.1344592232
 20
95.4593052094
  0
VERTEX
  8
0
 62
9
  6
CONTINUOUS
 10
104.1505730285
 20
95.3298960613
  0
SEQEND
  0
POLYLINE
  8
0
 62
9
  6
CONTINUOUS
 66
1
 70
0
  0
VERTEX
  8
0
 62
9
  6
CONTINUOUS
 10
103.2288163988
 20
95.6391505535
  0
VERTEX
  8
0
 62
9
  6
CONTINUOUS
 10
103.3552008822
 20
95.6200623407
  0
VERTEX
  8
0
 62
9
  6
CONTINUOUS
 10
103.4729324571
 20
95.5691504162
  0
VERTEX
  8
0
 62
9
  6
CONTINUOUS
 10
103.5741894444
 20
95.4897971923
  0
VERTEX
  8
0
 62
9
  6
CONTINUOUS
 10
103.6522446798
 20
95.3872746229
  0
VERTEX
  8
0
 62
9
  6
CONTINUOUS
 10
103.7019124433
 20
95.2683939533
  0
VERTEX
  8
0
 62
9
  6
CONTINUOUS
 10
103.7198929801
 20
95.1410532044
  0
SEQEND
  0
POLYLINE
  8
0
 62
9
  6
CONTINUOUS
 66
1
 70
0
  0
VERTEX
  8
0
 62
9
  6
CONTINUOUS
 10
103.3866276503
 20
95.7335676225
  0
VERTEX
  8
0
 62
9
  6
CONTINUOUS
 10
103.5129572605
 20
95.7144207124
  0
VERTEX
  8
0
 62
9
  6
CONTINUOUS
 10
103.6306247524
 20
95.6634769081
  0
VERTEX
  8
0
 62
9
  6
CONTINUOUS
 10
103.7318183346
 20
95.5841183024
  0
VERTEX
  8
0
 62
9
  6
CONTINUOUS
 10
103.8098198969
 20
95.4816134098
  0
VERTEX
  8
0
 62
9
  6
CONTINUOUS
 10
103.8594510173
 20
95.3627673964
  0
VERTEX
  8
0
 62
9
  6
CONTINUOUS
 10
103.8774167503
 20
95.2354702943
  0
SEQEND
  0
POLYLINE
  8
0
 62
9
  6
CONTINUOUS
 66
1
 70
0
  0
VERTEX
  8
0
 62
9
  6
CONTINUOUS
 10
104.3290470076
 20
95.8298960613
  0
VERTEX
  8
0
 62
9
  6
CONTINUOUS
 10
104.438863541
 20
95.8128587755
  0
VERTEX
  8
0
 62
9
  6
CONTINUOUS
 10
104.541195916
 20
95.7629081685
  0
VERTEX
  8
0
 62
9
  6
CONTINUOUS
 10
104.6290703942
 20
95.6834485574
  0
VERTEX
  8
0
 62
9
  6
CONTINUOUS
 10
104.6964986216
 20
95.579895164
  0
VERTEX
  8
0
 62
9
  6
CONTINUOUS
 10
104.7388856658
 20
95.4593050245
  0
VERTEX
  8
0
 62
9
  6
CONTINUOUS
 10
104.7533430765
 20
95.3298960613
  0
SEQEND
  0
POLYLINE
  8
0
 62
9
  6
CONTINUOUS
 66
1
 70
0
  0
VERTEX
  8
0
 62
9
  6
CONTINUOUS
 10
103.608788505
 20
95.8184800321
  0
VERTEX
  8
0
 62
9
  6
CONTINUOUS
 10
103.7298775041
 20
95.7979533839
  0
VERTEX
  8
0
 62
9
  6
CONTINUOUS
 10
103.8427699492
 20
95.746261275
  0
VERTEX
  8
0
 62
9
  6
CONTINUOUS
 10
103.9400986689
 20
95.6667770458
  0
VERTEX
  8
0
 62
9
  6
CONTINUOUS
 10
104.0155121538
 20
95.5646877036
  0
VERTEX
  8
0
 62
9
  6
CONTINUOUS
 10
104.0640890466
 20
95.4466554278
  0
VERTEX
  8
0
 62
9
  6
CONTINUOUS
 10
104.0826593006
 20
95.3203828065
  0
SEQEND
  0
POLYLINE
  8
0
 62
9
  6
CONTINUOUS
 66
1
 70
0
  0
VERTEX
  8
0
 62
9
  6
CONTINUOUS
 10
95.8604401591
 20
95.8184801555
  0
VERTEX
  8
0
 62
9
  6
CONTINUOUS
 10
95.9504548932
 20
95.7910156984
  0
VERTEX
  8
0
 62
9
  6
CONTINUOUS
 10
96.0248221176
 20
95.7626653046
  0
VERTEX
  8
0
 62
9
  6
CONTINUOUS
 10
96.0826010147
 20
95.7335676434
  0
SEQEND
  0
POLYLINE
  8
0
 62
9
  6
CONTINUOUS
 66
1
 70
0
  0
VERTEX
  8
0
 62
9
  6
CONTINUOUS
 10
96.2404122664
 20
95.6391505534
  0
VERTEX
  8
0
 62
9
  6
CONTINUOUS
 10
96.2573445762
 20
95.6336190865
  0
VERTEX
  8
0
 62
9
  6
CONTINUOUS
 10
96.2884062225
 20
95.6286523307
  0
VERTEX
  8
0
 62
9
  6
CONTINUOUS
 10
96.3319977207
 20
95.6245111438
  0
VERTEX
  8
0
 62
9
  6
CONTINUOUS
 10
96.3859328407
 20
95.6213999365
  0
VERTEX
  8
0
 62
9
  6
CONTINUOUS
 10
96.4474933773
 20
95.6194716253
  0
VERTEX
  8
0
 62
9
  6
CONTINUOUS
 10
96.5133496954
 20
95.6188213454
  0
SEQEND
  0
POLYLINE
  8
0
 62
9
  6
CONTINUOUS
 66
1
 70
0
  0
VERTEX
  8
0
 62
9
  6
CONTINUOUS
 10
102.9558789698
 20
95.6188213454
  0
VERTEX
  8
0
 62
9
  6
CONTINUOUS
 10
102.967542659
 20
95.5843164313
  0
VERTEX
  8
0
 62
9
  6
CONTINUOUS
 10
102.9778780659
 20
95.5092982421
  0
VERTEX
  8
0
 62
9
  6
CONTINUOUS
 10
102.9859819578
 20
95.4003220706
  0
VERTEX
  8
0
 62
9
  6
CONTINUOUS
 10
102.9911460933
 20
95.266911044
  0
VERTEX
  8
0
 62
9
  6
CONTINUOUS
 10
102.9929191302
 20
95.1207239963
  0
SEQEND
  0
LINE
  8
0
 62
9
  6
CONTINUOUS
 10
106.092345325
 20
86.3298960613
 11
106.092345325
 21
95.3298960613
  0
POLYLINE
  8
0
 62
9
  6
CONTINUOUS
 66
1
 70
0
  0
VERTEX
  8
0
 62
9
  6
CONTINUOUS
 10
106.0027998181
 20
85.8298960613
  0
VERTEX
  8
0
 62
9
  6
CONTINUOUS
 10
106.0259760899
 20
85.8469334312
  0
VERTEX
  8
0
 62
9
  6
CONTINUOUS
 10
106.0475728348
 20
85.8968842078
  0
VERTEX
  8
0
 62
9
  6
CONTINUOUS
 10
106.0661182824
 20
85.9763439498
  0
VERTEX
  8
0
 62
9
  6
CONTINUOUS
 10
106.0803486349
 20
86.0798973464
  0
VERTEX
  8
0
 62
9
  6
CONTINUOUS
 10
106.0892941745
 20
86.2004873407
  0
VERTEX
  8
0
 62
9
  6
CONTINUOUS
 10
106.0923453252
 20
86.3298960613
  0
SEQEND
  0
LINE
  8
0
 62
9
  6
CONTINUOUS
 10
74.7286584135
 20
95.8184801343
 11
74.6382683195
 21
95.8058882505
  0
POLYLINE
  8
0
 62
9
  6
CONTINUOUS
 66
1
 70
0
  0
VERTEX
  8
0
 62
9
  6
CONTINUOUS
 10
80.6119546593
 20
95.2354702943
  0
VERTEX
  8
0
 62
9
  6
CONTINUOUS
 10
80.8374141167
 20
95.264258612
  0
VERTEX
  8
0
 62
9
  6
CONTINUOUS
 10
81.0736399685
 20
95.2925703514
  0
VERTEX
  8
0
 62
9
  6
CONTINUOUS
 10
81.3205697707
 20
95.3203828065
  0
SEQEND
  0
LINE
  8
0
 62
9
  6
CONTINUOUS
 10
79.8389524675
 20
95.1410532044
 11
80.6119546593
 21
95.2354702943
  0
POLYLINE
  8
0
 62
9
  6
CONTINUOUS
 66
1
 70
0
  0
VERTEX
  8
0
 62
9
  6
CONTINUOUS
 10
79.4578740112
 20
95.6391505534
  0
VERTEX
  8
0
 62
9
  6
CONTINUOUS
 10
80.4748267837
 20
95.7623528644
  0
VERTEX
  8
0
 62
9
  6
CONTINUOUS
 10
80.7302618264
 20
95.7906704898
  0
VERTEX
  8
0
 62
9
  6
CONTINUOUS
 10
80.9972039033
 20
95.8184801555
  0
SEQEND
  0
LINE
  8
0
 62
7
  6
CONTINUOUS
 10
74.7986217415
 20
95.8291798869
 11
74.6942423822
 21
95.8177101487
  0
LINE
  8
0
 62
9
  6
CONTINUOUS
 10
74.3220428544
 20
95.7335676434
 11
74.2613532928
 21
95.7273871363
  0
LINE
  8
0
 62
9
  6
CONTINUOUS
 10
73.8041363043
 20
95.6391505571
 11
73.7433631562
 21
95.6329935854
  0
LINE
  8
0
 62
7
  6
CONTINUOUS
 10
62.8840868011
 20
95.7927729626
 11
61.2513956304
 21
95.6372619101
  0
POLYLINE
  8
0
 62
9
  6
CONTINUOUS
 66
1
 70
0
  0
VERTEX
  8
0
 62
9
  6
CONTINUOUS
 10
64.6506987974
 20
95.2354702943
  0
VERTEX
  8
0
 62
9
  6
CONTINUOUS
 10
65.27659165
 20
95.2925703514
  0
VERTEX
  8
0
 62
9
  6
CONTINUOUS
 10
65.5920194535
 20
95.3203828065
  0
SEQEND
  0
LINE
  8
0
 62
7
  6
CONTINUOUS
 10
63.2002996176
 20
95.8230268271
 11
63.1419994469
 21
95.8179838443
  0
LINE
  8
0
 62
9
  6
CONTINUOUS
 10
63.5574785586
 20
95.1410532044
 11
64.6506987974
 21
95.2354702943
  0
LINE
  8
0
 62
9
  6
CONTINUOUS
 10
65.2017832319
 20
95.7906704898
 11
65.5426732233
 21
95.8184801555
  0
POLYLINE
  8
0
 62
9
  6
CONTINUOUS
 66
1
 70
0
  0
VERTEX
  8
0
 62
9
  6
CONTINUOUS
 10
81.3205697707
 20
95.3203828065
  0
VERTEX
  8
0
 62
9
  6
CONTINUOUS
 10
81.4086421132
 20
95.327514033
  0
VERTEX
  8
0
 62
9
  6
CONTINUOUS
 10
81.4988930074
 20
95.3298960613
  0
SEQEND
  0
POLYLINE
  8
0
 62
9
  6
CONTINUOUS
 66
1
 70
0
  0
VERTEX
  8
0
 62
9
  6
CONTINUOUS
 10
80.9972039033
 20
95.8184801555
  0
VERTEX
  8
0
 62
9
  6
CONTINUOUS
 10
81.1032992537
 20
95.8270376156
  0
VERTEX
  8
0
 62
9
  6
CONTINUOUS
 10
81.2117338799
 20
95.8298960613
  0
SEQEND
  0
LINE
  8
0
 62
9
  6
CONTINUOUS
 10
63.1483019076
 20
95.8184801343
 11
63.1419994366
 21
95.8179839492
  0
LINE
  8
0
 62
9
  6
CONTINUOUS
 10
62.2682232572
 20
95.7335676434
 11
62.2636061678
 21
95.7332416979
  0
LINE
  8
0
 62
9
  6
CONTINUOUS
 10
61.2724216046
 20
95.6391505571
 11
61.2676699756
 21
95.638817793
  0
POLYLINE
  8
0
 62
9
  6
CONTINUOUS
 66
1
 70
0
  0
VERTEX
  8
0
 62
9
  6
CONTINUOUS
 10
65.5920194535
 20
95.3203828065
  0
VERTEX
  8
0
 62
9
  6
CONTINUOUS
 10
65.701695092
 20
95.327514033
  0
VERTEX
  8
0
 62
9
  6
CONTINUOUS
 10
65.8126387232
 20
95.3298960613
  0
SEQEND
  0
POLYLINE
  8
0
 62
9
  6
CONTINUOUS
 66
1
 70
0
  0
VERTEX
  8
0
 62
9
  6
CONTINUOUS
 10
65.5426732233
 20
95.8184801555
  0
VERTEX
  8
0
 62
9
  6
CONTINUOUS
 10
65.6810888517
 20
95.8270376156
  0
VERTEX
  8
0
 62
9
  6
CONTINUOUS
 10
65.8209120514
 20
95.8298960613
  0
SEQEND
  0
POLYLINE
  8
0
 62
9
  6
CONTINUOUS
 66
1
 70
0
  0
VERTEX
  8
0
 62
9
  6
CONTINUOUS
 10
74.8317414994
 20
95.8298960613
  0
VERTEX
  8
0
 62
9
  6
CONTINUOUS
 10
74.7809537204
 20
95.8270376156
  0
VERTEX
  8
0
 62
9
  6
CONTINUOUS
 10
74.7286584123
 20
95.8184801555
  0
SEQEND
  0
POLYLINE
  8
0
 62
9
  6
CONTINUOUS
 66
1
 70
0
  0
VERTEX
  8
0
 62
9
  6
CONTINUOUS
 10
63.3839535771
 20
95.8298960612
  0
VERTEX
  8
0
 62
9
  6
CONTINUOUS
 10
63.2661677465
 20
95.8270376156
  0
VERTEX
  8
0
 62
9
  6
CONTINUOUS
 10
63.1483019058
 20
95.8184801555
  0
SEQEND
  0
LINE
  8
1_AXIS
 62
9
  6
CONTINUOUS
 10
67.2346143326
 20
97.8298960613
 11
132.2346143326
 21
97.8298960613
  0
POLYLINE
  8
0
 62
7
  6
CONTINUOUS
 66
1
 70
0
  0
VERTEX
  8
0
 62
7
  6
CONTINUOUS
 10
136.2752952419
 20
95.8225431395
  0
VERTEX
  8
0
 62
7
  6
CONTINUOUS
 10
136.1456159919
 20
95.8291523201
  0
VERTEX
  8
0
 62
7
  6
CONTINUOUS
 10
136.0852687999
 20
95.8298959646
  0
SEQEND
  0
LINE
  8
0
 62
9
  6
CONTINUOUS
 10
138.1968070603
 20
95.6391505535
 11
138.2015586888
 21
95.6388178882
  0
LINE
  8
0
 62
9
  6
CONTINUOUS
 10
137.2010054062
 20
95.7335676225
 11
137.2056224957
 21
95.7332416814
  0
POLYLINE
  8
0
 62
9
  6
CONTINUOUS
 66
1
 70
0
  0
VERTEX
  8
0
 62
9
  6
CONTINUOUS
 10
136.3209267594
 20
95.8184801555
  0
VERTEX
  8
0
 62
9
  6
CONTINUOUS
 10
136.2030609186
 20
95.8270376156
  0
VERTEX
  8
0
 62
9
  6
CONTINUOUS
 10
136.0852674006
 20
95.8298960612
  0
SEQEND
  0
POLYLINE
  8
0
 62
9
  6
CONTINUOUS
 66
1
 70
0
  0
VERTEX
  8
0
 62
9
  6
CONTINUOUS
 10
136.1042968057
 20
95.6336190865
  0
VERTEX
  8
0
 62
9
  6
CONTINUOUS
 10
136.1706905962
 20
95.6286523307
  0
VERTEX
  8
0
 62
9
  6
CONTINUOUS
 10
136.2329457534
 20
95.6245111438
  0
VERTEX
  8
0
 62
9
  6
CONTINUOUS
 10
136.287940077
 20
95.6213999365
  0
VERTEX
  8
0
 62
9
  6
CONTINUOUS
 10
136.3329123229
 20
95.6194716253
  0
VERTEX
  8
0
 62
9
  6
CONTINUOUS
 10
136.3655085468
 20
95.6188213454
  0
SEQEND
  0
LINE
  8
0
 62
9
  6
CONTINUOUS
 10
136.3209267489
 20
95.8184800321
 11
136.3272294536
 21
95.8179838211
  0
LINE
  8
0
 62
9
  6
CONTINUOUS
 10
133.9265554419
 20
95.8184801555
 11
134.6029772768
 21
95.7626653046
  0
LINE
  8
0
 62
9
  6
CONTINUOUS
 10
134.8185298678
 20
95.2354702943
 11
135.9117501066
 21
95.1410532044
  0
LINE
  8
0
 62
9
  6
CONTINUOUS
 10
134.6029772768
 20
95.7626653046
 11
136.1042968057
 21
95.6336190865
  0
LINE
  8
0
 62
7
  6
CONTINUOUS
 10
136.3272294536
 20
95.8179838211
 11
136.2752952419
 21
95.8225431395
  0
POLYLINE
  8
0
 62
9
  6
CONTINUOUS
 66
1
 70
0
  0
VERTEX
  8
0
 62
9
  6
CONTINUOUS
 10
133.8772092117
 20
95.3203828065
  0
VERTEX
  8
0
 62
9
  6
CONTINUOUS
 10
134.5030020198
 20
95.2645725984
  0
VERTEX
  8
0
 62
9
  6
CONTINUOUS
 10
134.8185298678
 20
95.2354702943
  0
SEQEND
  0
POLYLINE
  8
0
 62
7
  6
CONTINUOUS
 66
1
 70
0
  0
VERTEX
  8
0
 62
7
  6
CONTINUOUS
 10
138.2015618606
 20
95.6388175873
  0
VERTEX
  8
0
 62
7
  6
CONTINUOUS
 10
136.5910823192
 20
95.7921956353
  0
VERTEX
  8
0
 62
7
  6
CONTINUOUS
 10
136.3272296471
 20
95.8179839081
  0
SEQEND
  0
LINE
  8
0
 62
9
  6
CONTINUOUS
 10
125.6650923607
 20
95.6391505535
 11
125.7256183025
 21
95.6330391123
  0
LINE
  8
0
 62
9
  6
CONTINUOUS
 10
125.1471858096
 20
95.7335676225
 11
125.2078738101
 21
95.7273874285
  0
POLYLINE
  8
0
 62
9
  6
CONTINUOUS
 66
1
 70
0
  0
VERTEX
  8
0
 62
9
  6
CONTINUOUS
 10
118.4720247619
 20
95.8184801555
  0
VERTEX
  8
0
 62
9
  6
CONTINUOUS
 10
118.7357531296
 20
95.7910156984
  0
VERTEX
  8
0
 62
9
  6
CONTINUOUS
 10
118.9916700841
 20
95.7626653046
  0
SEQEND
  0
POLYLINE
  8
0
 62
9
  6
CONTINUOUS
 66
1
 70
0
  0
VERTEX
  8
0
 62
9
  6
CONTINUOUS
 10
120.011354654
 20
95.6391505534
  0
VERTEX
  8
0
 62
9
  6
CONTINUOUS
 10
120.0632433635
 20
95.6336190865
  0
VERTEX
  8
0
 62
9
  6
CONTINUOUS
 10
120.1234741358
 20
95.6286523307
  0
VERTEX
  8
0
 62
9
  6
CONTINUOUS
 10
120.1888909664
 20
95.6245111438
  0
VERTEX
  8
0
 62
9
  6
CONTINUOUS
 10
120.256213065
 20
95.6213999365
  0
VERTEX
  8
0
 62
9
  6
CONTINUOUS
 10
120.3220539455
 20
95.6194716253
  0
VERTEX
  8
0
 62
9
  6
CONTINUOUS
 10
120.3829009627
 20
95.6188213454
  0
SEQEND
  0
POLYLINE
  8
0
 62
9
  6
CONTINUOUS
 66
1
 70
0
  0
VERTEX
  8
0
 62
9
  6
CONTINUOUS
 10
118.1486588945
 20
95.3203828065
  0
VERTEX
  8
0
 62
9
  6
CONTINUOUS
 10
118.3926129962
 20
95.2929159252
  0
VERTEX
  8
0
 62
9
  6
CONTINUOUS
 10
118.6292750408
 20
95.2645725984
  0
VERTEX
  8
0
 62
9
  6
CONTINUOUS
 10
118.8572740059
 20
95.2354702943
  0
SEQEND
  0
LINE
  8
0
 62
7
  6
CONTINUOUS
 10
124.7798518053
 20
95.816838723
 11
124.6757686628
 21
95.8289400078
  0
LINE
  8
0
 62
9
  6
CONTINUOUS
 10
118.9916700841
 20
95.7626653046
 11
120.011354654
 21
95.6391505534
  0
LINE
  8
0
 62
9
  6
CONTINUOUS
 10
118.8572740059
 20
95.2354702943
 11
119.6302761978
 21
95.1410532044
  0
LINE
  8
0
 62
9
  6
CONTINUOUS
 10
124.7405702457
 20
95.8184800321
 11
124.8309661851
 21
95.8058866839
  0
POLYLINE
  8
0
 62
9
  6
CONTINUOUS
 66
1
 70
0
  0
VERTEX
  8
0
 62
9
  6
CONTINUOUS
 10
106.0027998181
 20
95.8298960613
  0
VERTEX
  8
0
 62
9
  6
CONTINUOUS
 10
106.0259758925
 20
95.8128589867
  0
VERTEX
  8
0
 62
9
  6
CONTINUOUS
 10
106.0475725606
 20
95.7629087987
  0
VERTEX
  8
0
 62
9
  6
CONTINUOUS
 10
106.066118044
 20
95.683449504
  0
VERTEX
  8
0
 62
9
  6
CONTINUOUS
 10
106.0803484966
 20
95.5798961127
  0
VERTEX
  8
0
 62
9
  6
CONTINUOUS
 10
106.0892941344
 20
95.4593056155
  0
VERTEX
  8
0
 62
9
  6
CONTINUOUS
 10
106.092345325
 20
95.3298960613
  0
SEQEND
  0
POLYLINE
  8
0
 62
9
  6
CONTINUOUS
 66
1
 70
0
  0
VERTEX
  8
0
 62
9
  6
CONTINUOUS
 10
114.9034241652
 20
85.8298960613
  0
VERTEX
  8
0
 62
9
  6
CONTINUOUS
 10
114.9595095375
 20
85.8469331409
  0
VERTEX
  8
0
 62
9
  6
CONTINUOUS
 10
115.0117727911
 20
85.8968833384
  0
VERTEX
  8
0
 62
9
  6
CONTINUOUS
 10
115.0566522704
 20
85.9763426399
  0
VERTEX
  8
0
 62
9
  6
CONTINUOUS
 10
115.0910895099
 20
86.079896031
  0
VERTEX
  8
0
 62
9
  6
CONTINUOUS
 10
115.1127376655
 20
86.2004865201
  0
VERTEX
  8
0
 62
9
  6
CONTINUOUS
 10
115.1201214486
 20
86.3298960613
  0
SEQEND
  0
LINE
  8
0
 62
7
  6
CONTINUOUS
 10
74.6382683195
 20
95.8058882505
 11
74.6380572282
 21
95.8058362397
  0
POLYLINE
  8
0
 62
7
  6
CONTINUOUS
 66
1
 70
0
  0
VERTEX
  8
0
 62
7
  6
CONTINUOUS
 10
74.6380572282
 20
95.8058362397
  0
VERTEX
  8
0
 62
7
  6
CONTINUOUS
 10
74.5460690226
 20
95.7843189868
  0
VERTEX
  8
0
 62
7
  6
CONTINUOUS
 10
74.4012408081
 20
95.7539405351
  0
SEQEND
  0
LINE
  8
0
 62
9
  6
CONTINUOUS
 10
74.7286584123
 20
95.8184801555
 11
74.6105769437
 21
95.7910156984
  0
POLYLINE
  8
0
 62
9
  6
CONTINUOUS
 66
1
 70
0
  0
VERTEX
  8
0
 62
9
  6
CONTINUOUS
 10
73.8041363045
 20
95.6391505534
  0
VERTEX
  8
0
 62
9
  6
CONTINUOUS
 10
73.7796446478
 20
95.6336190865
  0
VERTEX
  8
0
 62
9
  6
CONTINUOUS
 10
73.7696726749
 20
95.6286523307
  0
VERTEX
  8
0
 62
9
  6
CONTINUOUS
 10
73.77478837
 20
95.6245111438
  0
SEQEND
  0
LINE
  8
0
 62
7
  6
CONTINUOUS
 10
74.6942423822
 20
95.8177101487
 11
74.6382683496
 21
95.8058881287
  0
POLYLINE
  8
0
 62
9
  6
CONTINUOUS
 66
1
 70
0
  0
VERTEX
  8
0
 62
9
  6
CONTINUOUS
 10
74.6105769437
 20
95.7910156984
  0
VERTEX
  8
0
 62
9
  6
CONTINUOUS
 10
74.474988686
 20
95.7626653046
  0
VERTEX
  8
0
 62
9
  6
CONTINUOUS
 10
74.3220428544
 20
95.7335676434
  0
SEQEND
  0
LINE
  8
0
 62
7
  6
CONTINUOUS
 10
74.4012408081
 20
95.7539405351
 11
74.2613532906
 21
95.7273871483
  0
POLYLINE
  8
0
 62
7
  6
CONTINUOUS
 66
1
 70
0
  0
VERTEX
  8
0
 62
7
  6
CONTINUOUS
 10
73.7433631562
 20
95.6329935854
  0
VERTEX
  8
0
 62
7
  6
CONTINUOUS
 10
73.7338985186
 20
95.6312216505
  0
VERTEX
  8
0
 62
7
  6
CONTINUOUS
 10
73.6864177218
 20
95.6205565032
  0
VERTEX
  8
0
 62
7
  6
CONTINUOUS
 10
73.6299243802
 20
95.6028007732
  0
VERTEX
  8
0
 62
7
  6
CONTINUOUS
 10
73.569547422
 20
95.5759554391
  0
VERTEX
  8
0
 62
7
  6
CONTINUOUS
 10
73.5096605353
 20
95.5392599926
  0
VERTEX
  8
0
 62
7
  6
CONTINUOUS
 10
73.4528353975
 20
95.4922317722
  0
VERTEX
  8
0
 62
7
  6
CONTINUOUS
 10
73.401673835
 20
95.4350985366
  0
VERTEX
  8
0
 62
7
  6
CONTINUOUS
 10
73.3585629424
 20
95.3685970765
  0
VERTEX
  8
0
 62
7
  6
CONTINUOUS
 10
73.3256155531
 20
95.2937435277
  0
VERTEX
  8
0
 62
7
  6
CONTINUOUS
 10
73.3048584903
 20
95.2121066825
  0
VERTEX
  8
0
 62
7
  6
CONTINUOUS
 10
73.2980573257
 20
95.1298057016
  0
SEQEND
  0
LINE
  8
0
 62
9
  6
CONTINUOUS
 10
74.3220428544
 20
95.7335676434
 11
73.8041363045
 21
95.6391505534
  0
LINE
  8
0
 62
7
  6
CONTINUOUS
 10
74.2613269479
 20
95.7273823403
 11
73.7430659082
 21
95.6329402204
  0
LINE
  8
0
 62
9
  6
CONTINUOUS
 10
74.4236673367
 20
95.8298960613
 11
74.3300817263
 21
95.8128587754
  0
POLYLINE
  8
0
 62
9
  6
CONTINUOUS
 66
1
 70
0
  0
VERTEX
  8
0
 62
9
  6
CONTINUOUS
 10
68.922778969
 20
95.8298960613
  0
VERTEX
  8
0
 62
9
  6
CONTINUOUS
 10
68.8088548692
 20
95.8128589867
  0
VERTEX
  8
0
 62
9
  6
CONTINUOUS
 10
68.702694485
 20
95.7629087987
  0
VERTEX
  8
0
 62
9
  6
CONTINUOUS
 10
68.6115324761
 20
95.683449504
  0
VERTEX
  8
0
 62
9
  6
CONTINUOUS
 10
68.5415813929
 20
95.5798961127
  0
VERTEX
  8
0
 62
9
  6
CONTINUOUS
 10
68.4976082975
 20
95.4593056155
  0
VERTEX
  8
0
 62
9
  6
CONTINUOUS
 10
68.4826098924
 20
95.3298960613
  0
SEQEND
  0
LINE
  8
0
 62
7
  6
CONTINUOUS
 10
61.102523983
 20
95.6210876893
 11
61.0763131959
 21
95.617232785
  0
POLYLINE
  8
0
 62
9
  6
CONTINUOUS
 66
1
 70
0
  0
VERTEX
  8
0
 62
9
  6
CONTINUOUS
 10
61.133350195
 20
95.6245111438
  0
VERTEX
  8
0
 62
9
  6
CONTINUOUS
 10
61.1116896087
 20
95.6213999365
  0
VERTEX
  8
0
 62
9
  6
CONTINUOUS
 10
61.1047638668
 20
95.6194716253
  0
VERTEX
  8
0
 62
9
  6
CONTINUOUS
 10
61.1128690858
 20
95.6188213454
  0
SEQEND
  0
LINE
  8
0
 62
7
  6
CONTINUOUS
 10
61.1307088897
 20
95.6246221175
 11
61.0985772534
 21
95.6205516709
  0
LINE
  8
0
 62
7
  6
CONTINUOUS
 10
61.1451049729
 20
95.6262884633
 11
61.1207769339
 21
95.6234254071
  0
LINE
  8
0
 62
9
  6
CONTINUOUS
 10
61.1686643246
 20
95.6286523307
 11
61.1643308236
 21
95.6284186784
  0
LINE
  8
0
 62
7
  6
CONTINUOUS
 10
61.1738124475
 20
95.6294378063
 11
61.1307088897
 21
95.6246221175
  0
LINE
  8
0
 62
9
  6
CONTINUOUS
 10
61.215860962
 20
95.6336190865
 11
61.2086834579
 21
95.6330512817
  0
LINE
  8
0
 62
7
  6
CONTINUOUS
 10
61.2086834579
 20
95.6330512817
 11
61.1643308236
 21
95.6284186784
  0
LINE
  8
0
 62
7
  6
CONTINUOUS
 10
61.2505185221
 20
95.6371773142
 11
61.2045108895
 21
95.6326284498
  0
LINE
  8
0
 62
9
  6
CONTINUOUS
 10
63.1483019058
 20
95.8184801555
 11
63.1419990472
 21
95.8179839109
  0
LINE
  8
0
 62
9
  6
CONTINUOUS
 10
62.8840868011
 20
95.7927729626
 11
62.8672273422
 21
95.7910156984
  0
LINE
  8
0
 62
7
  6
CONTINUOUS
 10
63.1419990472
 20
95.8179839109
 11
62.8840868011
 21
95.7927729626
  0
LINE
  8
0
 62
9
  6
CONTINUOUS
 10
61.2724216049
 20
95.6391505534
 11
61.2505185221
 21
95.6371773142
  0
LINE
  8
1_AXIS
 62
9
  6
CONTINUOUS
 10
67.2346143326
 20
101.3298960613
 11
132.2346143326
 21
101.3298960613
  0
LINE
  8
0
 62
9
  6
CONTINUOUS
 10
136.605556275
 20
95.7906704898
 11
136.5910823192
 21
95.7921956353
  0
LINE
  8
0
 62
9
  6
CONTINUOUS
 10
136.3272296471
 20
95.8179839081
 11
136.3209267594
 21
95.8184801555
  0
LINE
  8
0
 62
7
  6
CONTINUOUS
 10
138.2595856946
 20
95.6331481962
 11
138.2015586834
 21
95.6388177924
  0
LINE
  8
0
 62
9
  6
CONTINUOUS
 10
138.2015490718
 20
95.6386868136
 11
138.1968070603
 21
95.6391505534
  0
LINE
  8
0
 62
7
  6
CONTINUOUS
 10
138.2933837779
 20
95.629653992
 11
138.2595856946
 21
95.6331481962
  0
LINE
  8
0
 62
9
  6
CONTINUOUS
 10
138.2595856946
 20
95.6331481962
 11
138.2533152728
 21
95.633624394
  0
LINE
  8
0
 62
9
  6
CONTINUOUS
 10
138.3213468519
 20
95.6266021216
 11
138.3005263928
 21
95.6286565151
  0
POLYLINE
  8
0
 62
9
  6
CONTINUOUS
 66
1
 70
0
  0
VERTEX
  8
0
 62
9
  6
CONTINUOUS
 10
130.5464496962
 20
95.8298960613
  0
VERTEX
  8
0
 62
9
  6
CONTINUOUS
 10
130.6603744898
 20
95.8128587755
  0
VERTEX
  8
0
 62
9
  6
CONTINUOUS
 10
130.7665351411
 20
95.7629081685
  0
VERTEX
  8
0
 62
9
  6
CONTINUOUS
 10
130.8576970225
 20
95.6834485574
  0
VERTEX
  8
0
 62
9
  6
CONTINUOUS
 10
130.9276477545
 20
95.579895164
  0
VERTEX
  8
0
 62
9
  6
CONTINUOUS
 10
130.9716205071
 20
95.4593050245
  0
VERTEX
  8
0
 62
9
  6
CONTINUOUS
 10
130.9866187727
 20
95.3298960613
  0
SEQEND
  0
POLYLINE
  8
0
 62
9
  6
CONTINUOUS
 66
1
 70
0
  0
VERTEX
  8
0
 62
9
  6
CONTINUOUS
 10
124.7405702529
 20
95.8184801555
  0
VERTEX
  8
0
 62
9
  6
CONTINUOUS
 10
124.6882749448
 20
95.8270376156
  0
VERTEX
  8
0
 62
9
  6
CONTINUOUS
 10
124.6374871658
 20
95.8298960613
  0
SEQEND
  0
LINE
  8
0
 62
9
  6
CONTINUOUS
 10
125.0455613285
 20
95.8298960613
 11
125.1391463688
 21
95.8128589867
  0
LINE
  8
0
 62
9
  6
CONTINUOUS
 10
125.6650923607
 20
95.6391505534
 11
125.1471858108
 21
95.7335676434
  0
LINE
  8
0
 62
7
  6
CONTINUOUS
 10
125.7261627572
 20
95.6329402204
 11
125.2079017169
 21
95.7273823404
  0
LINE
  8
0
 62
7
  6
CONTINUOUS
 10
125.2078738101
 20
95.7273874285
 11
125.0708351116
 21
95.7533761944
  0
POLYLINE
  8
0
 62
9
  6
CONTINUOUS
 66
1
 70
0
  0
VERTEX
  8
0
 62
9
  6
CONTINUOUS
 10
125.1471858108
 20
95.7335676434
  0
VERTEX
  8
0
 62
9
  6
CONTINUOUS
 10
124.9958092153
 20
95.7623528644
  0
VERTEX
  8
0
 62
9
  6
CONTINUOUS
 10
124.860220492
 20
95.7906704898
  0
SEQEND
  0
POLYLINE
  8
0
 62
7
  6
CONTINUOUS
 66
1
 70
0
  0
VERTEX
  8
0
 62
7
  6
CONTINUOUS
 10
125.0708351116
 20
95.7533761944
  0
VERTEX
  8
0
 62
7
  6
CONTINUOUS
 10
124.9255668858
 20
95.783783041
  0
VERTEX
  8
0
 62
7
  6
CONTINUOUS
 10
124.8311679784
 20
95.8058370926
  0
SEQEND
  0
LINE
  8
0
 62
7
  6
CONTINUOUS
 10
124.8309661851
 20
95.8058866839
 11
124.7798518053
 21
95.816838723
  0
LINE
  8
0
 62
9
  6
CONTINUOUS
 10
125.6895666907
 20
95.633624394
 11
125.6650923607
 21
95.6391505534
  0
LINE
  8
0
 62
9
  6
CONTINUOUS
 10
124.860220492
 20
95.7906704898
 11
124.7405702529
 21
95.8184801555
  0
LINE
  8
0
 62
7
  6
CONTINUOUS
 10
124.8309661851
 20
95.8058866839
 11
124.8311679482
 21
95.8058369709
  0
POLYLINE
  8
0
 62
9
  6
CONTINUOUS
 66
1
 70
0
  0
VERTEX
  8
0
 62
9
  6
CONTINUOUS
 10
114.9034241652
 20
95.8298960613
  0
VERTEX
  8
0
 62
9
  6
CONTINUOUS
 10
114.9595098709
 20
95.8128587755
  0
VERTEX
  8
0
 62
9
  6
CONTINUOUS
 10
115.0117732532
 20
95.7629081685
  0
VERTEX
  8
0
 62
9
  6
CONTINUOUS
 10
115.0566526713
 20
95.6834485574
  0
VERTEX
  8
0
 62
9
  6
CONTINUOUS
 10
115.0910897419
 20
95.579895164
  0
VERTEX
  8
0
 62
9
  6
CONTINUOUS
 10
115.1127377325
 20
95.4593050245
  0
VERTEX
  8
0
 62
9
  6
CONTINUOUS
 10
115.1201214484
 20
95.3298960613
  0
SEQEND
  0
POLYLINE
  8
0
 62
9
  6
CONTINUOUS
 66
1
 70
0
  0
VERTEX
  8
0
 62
9
  6
CONTINUOUS
 10
120.3829009627
 20
86.0409707772
  0
VERTEX
  8
0
 62
9
  6
CONTINUOUS
 10
120.4576651602
 20
86.0754757044
  0
VERTEX
  8
0
 62
9
  6
CONTINUOUS
 10
120.5239150625
 20
86.1504939151
  0
VERTEX
  8
0
 62
9
  6
CONTINUOUS
 10
120.575860953
 20
86.2594700992
  0
VERTEX
  8
0
 62
9
  6
CONTINUOUS
 10
120.6089630153
 20
86.3928811154
  0
VERTEX
  8
0
 62
9
  6
CONTINUOUS
 10
120.6203281606
 20
86.5390681262
  0
SEQEND
  0
POLYLINE
  8
0
 62
9
  6
CONTINUOUS
 66
1
 70
0
  0
VERTEX
  8
0
 62
9
  6
CONTINUOUS
 10
125.5950166325
 20
86.0409707772
  0
VERTEX
  8
0
 62
9
  6
CONTINUOUS
 10
125.6886538939
 20
86.0754762084
  0
VERTEX
  8
0
 62
9
  6
CONTINUOUS
 10
125.7716270324
 20
86.1504951674
  0
VERTEX
  8
0
 62
9
  6
CONTINUOUS
 10
125.8366849895
 20
86.2594717003
  0
VERTEX
  8
0
 62
9
  6
CONTINUOUS
 10
125.8781423249
 20
86.3928822911
  0
VERTEX
  8
0
 62
9
  6
CONTINUOUS
 10
125.8923760669
 20
86.5390681262
  0
SEQEND
  0
POLYLINE
  8
0
 62
9
  6
CONTINUOUS
 66
1
 70
0
  0
VERTEX
  8
0
 62
9
  6
CONTINUOUS
 10
63.1037201184
 20
95.6188213454
  0
VERTEX
  8
0
 62
9
  6
CONTINUOUS
 10
62.9710854426
 20
95.5843164313
  0
VERTEX
  8
0
 62
9
  6
CONTINUOUS
 10
62.8535554505
 20
95.5092982421
  0
VERTEX
  8
0
 62
9
  6
CONTINUOUS
 10
62.7614013337
 20
95.4003220706
  0
VERTEX
  8
0
 62
9
  6
CONTINUOUS
 10
62.7026769208
 20
95.266911044
  0
VERTEX
  8
0
 62
9
  6
CONTINUOUS
 10
62.6825146843
 20
95.1207239963
  0
SEQEND
  0
POLYLINE
  8
0
 62
9
  6
CONTINUOUS
 66
1
 70
0
  0
VERTEX
  8
0
 62
9
  6
CONTINUOUS
 10
61.1128690858
 20
95.6188213454
  0
VERTEX
  8
0
 62
9
  6
CONTINUOUS
 10
60.9730248106
 20
95.5843159982
  0
VERTEX
  8
0
 62
9
  6
CONTINUOUS
 10
60.8491069171
 20
95.5092971506
  0
VERTEX
  8
0
 62
9
  6
CONTINUOUS
 10
60.7519447015
 20
95.4003206537
  0
VERTEX
  8
0
 62
9
  6
CONTINUOUS
 10
60.6900292928
 20
95.2669099866
  0
VERTEX
  8
0
 62
9
  6
CONTINUOUS
 10
60.6687715738
 20
95.1207239963
  0
SEQEND
  0
LINE
  8
0
 62
7
  6
CONTINUOUS
 10
61.0753777403
 20
95.6170798852
 11
61.045450596
 21
95.611442801
  0
LINE
  8
1_AXIS
 62
7
  6
CONTINUOUS
 10
130.2346143326
 20
103.3298960613
 11
69.2346143326
 21
103.3298960613
  0
POLYLINE
  8
0
 62
7
  6
CONTINUOUS
 66
1
 70
0
  0
VERTEX
  8
0
 62
7
  6
CONTINUOUS
 10
138.4487942641
 20
95.605433589
  0
VERTEX
  8
0
 62
7
  6
CONTINUOUS
 10
138.4137667699
 20
95.6135023583
  0
VERTEX
  8
0
 62
7
  6
CONTINUOUS
 10
138.3878309728
 20
95.6180423414
  0
VERTEX
  8
0
 62
7
  6
CONTINUOUS
 10
138.3663112237
 20
95.6211404424
  0
VERTEX
  8
0
 62
7
  6
CONTINUOUS
 10
138.345041538
 20
95.6238413408
  0
VERTEX
  8
0
 62
7
  6
CONTINUOUS
 10
138.3213468519
 20
95.6266021216
  0
VERTEX
  8
0
 62
7
  6
CONTINUOUS
 10
138.2933837779
 20
95.629653992
  0
SEQEND
  0
POLYLINE
  8
0
 62
9
  6
CONTINUOUS
 66
1
 70
0
  0
VERTEX
  8
0
 62
9
  6
CONTINUOUS
 10
138.3563595794
 20
95.6188213454
  0
VERTEX
  8
0
 62
9
  6
CONTINUOUS
 10
138.4962028115
 20
95.5843164313
  0
VERTEX
  8
0
 62
9
  6
CONTINUOUS
 10
138.6201204364
 20
95.5092982421
  0
VERTEX
  8
0
 62
9
  6
CONTINUOUS
 10
138.7172830338
 20
95.4003220706
  0
VERTEX
  8
0
 62
9
  6
CONTINUOUS
 10
138.779199058
 20
95.266911044
  0
VERTEX
  8
0
 62
9
  6
CONTINUOUS
 10
138.8004570916
 20
95.1207239963
  0
SEQEND
  0
POLYLINE
  8
0
 62
9
  6
CONTINUOUS
 66
1
 70
0
  0
VERTEX
  8
0
 62
9
  6
CONTINUOUS
 10
136.3655085468
 20
95.6188213454
  0
VERTEX
  8
0
 62
9
  6
CONTINUOUS
 10
136.4981442832
 20
95.5843159669
  0
VERTEX
  8
0
 62
9
  6
CONTINUOUS
 10
136.6156745415
 20
95.5092970777
  0
VERTEX
  8
0
 62
9
  6
CONTINUOUS
 10
136.707828267
 20
95.4003205673
  0
VERTEX
  8
0
 62
9
  6
CONTINUOUS
 10
136.7665520592
 20
95.2669099286
  0
VERTEX
  8
0
 62
9
  6
CONTINUOUS
 10
136.7867139812
 20
95.1207239963
  0
SEQEND
  0
POLYLINE
  8
0
 62
9
  6
CONTINUOUS
 66
1
 70
0
  0
VERTEX
  8
0
 62
9
  6
CONTINUOUS
 10
125.5950166325
 20
95.6188213454
  0
VERTEX
  8
0
 62
9
  6
CONTINUOUS
 10
125.6886530594
 20
95.5843164313
  0
VERTEX
  8
0
 62
9
  6
CONTINUOUS
 10
125.7716259962
 20
95.5092982421
  0
VERTEX
  8
0
 62
9
  6
CONTINUOUS
 10
125.8366842644
 20
95.4003220706
  0
VERTEX
  8
0
 62
9
  6
CONTINUOUS
 10
125.8781420831
 20
95.266911044
  0
VERTEX
  8
0
 62
9
  6
CONTINUOUS
 10
125.8923760675
 20
95.1207239963
  0
SEQEND
  0
POLYLINE
  8
0
 62
9
  6
CONTINUOUS
 66
1
 70
0
  0
VERTEX
  8
0
 62
9
  6
CONTINUOUS
 10
120.3829009627
 20
95.6188213454
  0
VERTEX
  8
0
 62
9
  6
CONTINUOUS
 10
120.4576657624
 20
95.5843159506
  0
VERTEX
  8
0
 62
9
  6
CONTINUOUS
 10
120.5239158129
 20
95.5092970397
  0
VERTEX
  8
0
 62
9
  6
CONTINUOUS
 10
120.5758614798
 20
95.400320522
  0
VERTEX
  8
0
 62
9
  6
CONTINUOUS
 10
120.6089631913
 20
95.2669098981
  0
VERTEX
  8
0
 62
9
  6
CONTINUOUS
 10
120.6203281598
 20
95.1207239963
  0
SEQEND
  0
LINE
  8
0
 62
9
  6
CONTINUOUS
 10
115.1201214486
 20
86.3298960613
 11
115.1201214486
 21
95.3298960613
  0
POLYLINE
  8
0
 62
7
  6
CONTINUOUS
 66
1
 70
0
  0
VERTEX
  8
0
 62
7
  6
CONTINUOUS
 10
61.045450596
 20
95.611442801
  0
VERTEX
  8
0
 62
7
  6
CONTINUOUS
 10
61.0058987682
 20
95.6013393516
  0
VERTEX
  8
0
 62
7
  6
CONTINUOUS
 10
60.9621906924
 20
95.5861431575
  0
VERTEX
  8
0
 62
7
  6
CONTINUOUS
 10
60.917080923
 20
95.5654794388
  0
VERTEX
  8
0
 62
7
  6
CONTINUOUS
 10
60.8726055693
 20
95.5394012862
  0
VERTEX
  8
0
 62
7
  6
CONTINUOUS
 10
60.8295616318
 20
95.5076756594
  0
VERTEX
  8
0
 62
7
  6
CONTINUOUS
 10
60.7888847667
 20
95.4702480764
  0
VERTEX
  8
0
 62
7
  6
CONTINUOUS
 10
60.7515634381
 20
95.4272465807
  0
VERTEX
  8
0
 62
7
  6
CONTINUOUS
 10
60.7185778962
 20
95.3789691759
  0
VERTEX
  8
0
 62
7
  6
CONTINUOUS
 10
60.6908662867
 20
95.3258719826
  0
VERTEX
  8
0
 62
7
  6
CONTINUOUS
 10
60.669312068
 20
95.2685888904
  0
VERTEX
  8
0
 62
7
  6
CONTINUOUS
 10
60.6547069486
 20
95.2079204104
  0
SEQEND
  0
POLYLINE
  8
0
 62
7
  6
CONTINUOUS
 66
1
 70
0
  0
VERTEX
  8
0
 62
7
  6
CONTINUOUS
 10
61.0469384373
 20
95.6117606207
  0
VERTEX
  8
0
 62
7
  6
CONTINUOUS
 10
61.0112930083
 20
95.602912202
  0
VERTEX
  8
0
 62
7
  6
CONTINUOUS
 10
60.973104369
 20
95.5903598343
  0
VERTEX
  8
0
 62
7
  6
CONTINUOUS
 10
60.9338412159
 20
95.5737897021
  0
VERTEX
  8
0
 62
7
  6
CONTINUOUS
 10
60.8943946925
 20
95.5529462703
  0
VERTEX
  8
0
 62
7
  6
CONTINUOUS
 10
60.8552138311
 20
95.5274309163
  0
VERTEX
  8
0
 62
7
  6
CONTINUOUS
 10
60.8171322417
 20
95.4971030491
  0
VERTEX
  8
0
 62
7
  6
CONTINUOUS
 10
60.7811369676
 20
95.4621050925
  0
VERTEX
  8
0
 62
7
  6
CONTINUOUS
 10
60.7481698467
 20
95.4228043341
  0
VERTEX
  8
0
 62
7
  6
CONTINUOUS
 10
60.7189079842
 20
95.3795187328
  0
VERTEX
  8
0
 62
7
  6
CONTINUOUS
 10
60.6939741698
 20
95.3326748701
  0
VERTEX
  8
0
 62
7
  6
CONTINUOUS
 10
60.6739432931
 20
95.2828671195
  0
VERTEX
  8
0
 62
7
  6
CONTINUOUS
 10
60.6592743482
 20
95.2307900263
  0
VERTEX
  8
0
 62
7
  6
CONTINUOUS
 10
60.6502920016
 20
95.1772149294
  0
VERTEX
  8
0
 62
7
  6
CONTINUOUS
 10
60.6471708561
 20
95.1214282248
  0
SEQEND
  0
LINE
  8
0
 62
9
  6
CONTINUOUS
 10
116.7380287274
 20
86.3298960613
 11
116.7380287274
 21
95.3298960613
  0
LINE
  8
0
 62
9
  6
CONTINUOUS
 10
118.8572740059
 20
86.4243218282
 11
118.8572740059
 21
95.2354702943
  0
POLYLINE
  8
0
 62
9
  6
CONTINUOUS
 66
1
 70
0
  0
VERTEX
  8
0
 62
9
  6
CONTINUOUS
 10
134.9439370502
 20
95.7335676434
  0
VERTEX
  8
0
 62
9
  6
CONTINUOUS
 10
134.9205669336
 20
95.7144206893
  0
VERTEX
  8
0
 62
9
  6
CONTINUOUS
 10
134.896094396
 20
95.6634768594
  0
VERTEX
  8
0
 62
9
  6
CONTINUOUS
 10
134.8721441364
 20
95.5841182464
  0
VERTEX
  8
0
 62
9
  6
CONTINUOUS
 10
134.8503061805
 20
95.4816133625
  0
VERTEX
  8
0
 62
9
  6
CONTINUOUS
 10
134.832030321
 20
95.3627673696
  0
VERTEX
  8
0
 62
9
  6
CONTINUOUS
 10
134.8185298678
 20
95.2354702943
  0
SEQEND
  0
POLYLINE
  8
0
 62
9
  6
CONTINUOUS
 66
1
 70
0
  0
VERTEX
  8
0
 62
9
  6
CONTINUOUS
 10
136.0372714201
 20
95.6391505571
  0
VERTEX
  8
0
 62
9
  6
CONTINUOUS
 10
136.0138944648
 20
95.6200614447
  0
VERTEX
  8
0
 62
9
  6
CONTINUOUS
 10
135.9894072286
 20
95.5691490296
  0
VERTEX
  8
0
 62
9
  6
CONTINUOUS
 10
135.9654365413
 20
95.4897957202
  0
VERTEX
  8
0
 62
9
  6
CONTINUOUS
 10
135.9435749151
 20
95.3872734191
  0
VERTEX
  8
0
 62
9
  6
CONTINUOUS
 10
135.9252747452
 20
95.2683932804
  0
VERTEX
  8
0
 62
9
  6
CONTINUOUS
 10
135.9117518182
 20
95.1410532044
  0
SEQEND
  0
LINE
  8
0
 62
9
  6
CONTINUOUS
 10
125.139147166
 20
85.8469334313
 11
125.2263548701
 21
85.896884208
  0
LINE
  8
0
 62
9
  6
CONTINUOUS
 10
125.1391463688
 20
95.8128589867
 11
125.2263537626
 21
95.7629087987
  0
POLYLINE
  8
0
 62
9
  6
CONTINUOUS
 66
1
 70
0
  0
VERTEX
  8
0
 62
9
  6
CONTINUOUS
 10
136.0372714198
 20
86.020641569
  0
VERTEX
  8
0
 62
9
  6
CONTINUOUS
 10
136.0138941532
 20
86.0397297818
  0
VERTEX
  8
0
 62
9
  6
CONTINUOUS
 10
135.989406563
 20
86.0906417064
  0
VERTEX
  8
0
 62
9
  6
CONTINUOUS
 10
135.9654355202
 20
86.1699949303
  0
VERTEX
  8
0
 62
9
  6
CONTINUOUS
 10
135.943573578
 20
86.2725174997
  0
VERTEX
  8
0
 62
9
  6
CONTINUOUS
 10
135.9252731682
 20
86.3913981692
  0
VERTEX
  8
0
 62
9
  6
CONTINUOUS
 10
135.9117501066
 20
86.5187389181
  0
SEQEND
  0
POLYLINE
  8
0
 62
9
  6
CONTINUOUS
 66
1
 70
0
  0
VERTEX
  8
0
 62
9
  6
CONTINUOUS
 10
134.943937047
 20
85.9262245192
  0
VERTEX
  8
0
 62
9
  6
CONTINUOUS
 10
134.9205669254
 20
85.9453713928
  0
VERTEX
  8
0
 62
9
  6
CONTINUOUS
 10
134.8960943781
 20
85.9963151756
  0
VERTEX
  8
0
 62
9
  6
CONTINUOUS
 10
134.8721441063
 20
86.075673775
  0
VERTEX
  8
0
 62
9
  6
CONTINUOUS
 10
134.8503061379
 20
86.1781786745
  0
VERTEX
  8
0
 62
9
  6
CONTINUOUS
 10
134.8320302679
 20
86.2970247044
  0
VERTEX
  8
0
 62
9
  6
CONTINUOUS
 10
134.8185298081
 20
86.4243218282
  0
SEQEND
  0
LINE
  8
0
 62
9
  6
CONTINUOUS
 10
119.6302761978
 20
86.5187389181
 11
119.6302761978
 21
95.1410532044
  0
LINE
  8
0
 62
7
  6
CONTINUOUS
 10
120.2670656698
 20
78.3298960613
 11
120.2670656698
 21
78.1298960613
  0
LINE
  8
0
 62
7
  6
CONTINUOUS
 10
120.3268646386
 20
78.3298960613
 11
120.3268646386
 21
78.1298960613
  0
LINE
  8
0
 62
7
  6
CONTINUOUS
 10
120.5240832731
 20
78.3298960613
 11
120.5240832731
 21
78.1298960613
  0
LINE
  8
0
 62
9
  6
CONTINUOUS
 10
120.6203281598
 20
95.1207239963
 11
120.6203281598
 21
86.5390681262
  0
LINE
  8
0
 62
7
  6
CONTINUOUS
 10
120.8178100776
 20
78.3298960613
 11
120.8178100776
 21
78.1298960613
  0
LINE
  8
0
 62
7
  6
CONTINUOUS
 10
121.1671316835
 20
78.3298960613
 11
121.1671316835
 21
78.1298960613
  0
LINE
  8
0
 62
7
  6
CONTINUOUS
 10
121.4346303025
 20
78.3298960613
 11
121.4346303025
 21
78.1298960613
  0
LINE
  8
0
 62
7
  6
CONTINUOUS
 10
121.5529356281
 20
78.3298960613
 11
121.5529356281
 21
78.1298960613
  0
LINE
  8
0
 62
7
  6
CONTINUOUS
 10
121.7771599858
 20
78.3298960613
 11
121.7771599858
 21
78.1298960613
  0
LINE
  8
0
 62
9
  6
CONTINUOUS
 10
125.2263548701
 20
85.896884208
 11
125.2705972229
 21
85.9438283592
  0
POLYLINE
  8
0
 62
9
  6
CONTINUOUS
 66
1
 70
0
  0
VERTEX
  8
0
 62
9
  6
CONTINUOUS
 10
132.1449830954
 20
85.8298960613
  0
VERTEX
  8
0
 62
9
  6
CONTINUOUS
 10
132.1761613124
 20
85.8469334312
  0
VERTEX
  8
0
 62
9
  6
CONTINUOUS
 10
132.2052146479
 20
85.8968842078
  0
VERTEX
  8
0
 62
9
  6
CONTINUOUS
 10
132.2301631813
 20
85.9763439498
  0
VERTEX
  8
0
 62
9
  6
CONTINUOUS
 10
132.2493067701
 20
86.0798973464
  0
VERTEX
  8
0
 62
9
  6
CONTINUOUS
 10
132.2613408874
 20
86.2004873407
  0
VERTEX
  8
0
 62
9
  6
CONTINUOUS
 10
132.2654454923
 20
86.3298960613
  0
SEQEND
  0
POLYLINE
  8
0
 62
9
  6
CONTINUOUS
 66
1
 70
0
  0
VERTEX
  8
0
 62
9
  6
CONTINUOUS
 10
132.1449830954
 20
95.8298960613
  0
VERTEX
  8
0
 62
9
  6
CONTINUOUS
 10
132.1761611068
 20
95.8128589199
  0
VERTEX
  8
0
 62
9
  6
CONTINUOUS
 10
132.2052143603
 20
95.7629086037
  0
VERTEX
  8
0
 62
9
  6
CONTINUOUS
 10
132.2301629298
 20
95.6834492161
  0
VERTEX
  8
0
 62
9
  6
CONTINUOUS
 10
132.2493066236
 20
95.5798958278
  0
VERTEX
  8
0
 62
9
  6
CONTINUOUS
 10
132.2613408448
 20
95.4593054394
  0
VERTEX
  8
0
 62
9
  6
CONTINUOUS
 10
132.2654454921
 20
95.3298960613
  0
SEQEND
  0
LINE
  8
0
 62
9
  6
CONTINUOUS
 10
125.2263537626
 20
95.7629087987
 11
125.2705973588
 21
95.7159636831
  0
LINE
  8
0
 62
7
  6
CONTINUOUS
 10
122.3128859692
 20
78.3298960613
 11
122.3128859692
 21
78.1298960613
  0
LINE
  8
0
 62
7
  6
CONTINUOUS
 10
123.6485642594
 20
78.3298960613
 11
123.6485642594
 21
78.1298960613
  0
LINE
  8
0
 62
7
  6
CONTINUOUS
 10
124.0802134982
 20
78.3298960613
 11
124.0802134982
 21
78.1298960613
  0
POLYLINE
  8
0
 62
7
  6
CONTINUOUS
 66
1
 70
0
  0
VERTEX
  8
0
 62
7
  6
CONTINUOUS
 10
126.1711684423
 20
95.1298103782
  0
VERTEX
  8
0
 62
7
  6
CONTINUOUS
 10
126.161750486
 20
95.2265310659
  0
VERTEX
  8
0
 62
7
  6
CONTINUOUS
 10
126.1362083262
 20
95.3137569443
  0
VERTEX
  8
0
 62
7
  6
CONTINUOUS
 10
126.0968915732
 20
95.392453155
  0
VERTEX
  8
0
 62
7
  6
CONTINUOUS
 10
126.0464628301
 20
95.4608059458
  0
VERTEX
  8
0
 62
7
  6
CONTINUOUS
 10
125.9876710099
 20
95.5177469532
  0
VERTEX
  8
0
 62
7
  6
CONTINUOUS
 10
125.9238649564
 20
95.5624870663
  0
VERTEX
  8
0
 62
7
  6
CONTINUOUS
 10
125.858190565
 20
95.5953618485
  0
VERTEX
  8
0
 62
7
  6
CONTINUOUS
 10
125.794999485
 20
95.6172458948
  0
VERTEX
  8
0
 62
7
  6
CONTINUOUS
 10
125.7418659391
 20
95.6299372512
  0
VERTEX
  8
0
 62
7
  6
CONTINUOUS
 10
125.725618192
 20
95.6330384085
  0
SEQEND
  0
LINE
  8
0
 62
7
  6
CONTINUOUS
 10
124.7460048406
 20
78.3298960613
 11
124.7460048406
 21
78.1298960613
  0
LINE
  8
0
 62
9
  6
CONTINUOUS
 10
125.8923760669
 20
95.1207239963
 11
125.8923760669
 21
86.5390681262
  0
LINE
  8
0
 62
7
  6
CONTINUOUS
 10
125.9147228668
 20
78.3298960613
 11
125.9147228668
 21
78.1298960613
  0
LINE
  8
0
 62
7
  6
CONTINUOUS
 10
125.9585895591
 20
78.3298960613
 11
125.9585895591
 21
78.1298960613
  0
LINE
  8
0
 62
7
  6
CONTINUOUS
 10
126.026124314
 20
78.3298960613
 11
126.026124314
 21
78.1298960613
  0
LINE
  8
0
 62
7
  6
CONTINUOUS
 10
126.1547232796
 20
78.3298960613
 11
126.1547232796
 21
78.1298960613
  0
LINE
  8
0
 62
7
  6
CONTINUOUS
 10
126.171175335
 20
95.1298772718
 11
126.171175335
 21
86.5299148507
  0
LINE
  8
0
 62
7
  6
CONTINUOUS
 10
126.2586537884
 20
78.3298960613
 11
126.2586537884
 21
78.1298960613
  0
LINE
  8
0
 62
7
  6
CONTINUOUS
 10
126.4847127312
 20
78.3298960613
 11
126.4847127312
 21
78.1298960613
  0
LINE
  8
0
 62
7
  6
CONTINUOUS
 10
127.7059967292
 20
78.3298960613
 11
127.7059967292
 21
78.1298960613
  0
LINE
  8
0
 62
7
  6
CONTINUOUS
 10
127.7969861369
 20
78.3298960613
 11
127.7969861369
 21
78.1298960613
  0
LINE
  8
0
 62
7
  6
CONTINUOUS
 10
128.1609437609
 20
78.3298960613
 11
128.1609437609
 21
78.1298960613
  0
LINE
  8
0
 62
7
  6
CONTINUOUS
 10
128.251933188
 20
78.3298960613
 11
128.251933188
 21
78.1298960613
  0
LINE
  8
0
 62
7
  6
CONTINUOUS
 10
128.4521698036
 20
78.3298960613
 11
128.4521698036
 21
78.1298960613
  0
LINE
  8
0
 62
7
  6
CONTINUOUS
 10
128.5170329054
 20
78.3298960613
 11
128.5170329054
 21
78.1298960613
  0
LINE
  8
0
 62
7
  6
CONTINUOUS
 10
128.5194562825
 20
78.3298960613
 11
128.5194562825
 21
78.1298960613
  0
LINE
  8
0
 62
7
  6
CONTINUOUS
 10
128.6337864663
 20
78.3298960613
 11
128.6337864663
 21
78.1298960613
  0
LINE
  8
0
 62
7
  6
CONTINUOUS
 10
128.6856769626
 20
78.3298960613
 11
128.6856769626
 21
78.1298960613
  0
LINE
  8
0
 62
7
  6
CONTINUOUS
 10
128.9063821334
 20
78.3298960613
 11
128.9063821334
 21
78.1298960613
  0
LINE
  8
0
 62
7
  6
CONTINUOUS
 10
128.9541318538
 20
78.3298960613
 11
128.9541318538
 21
78.1298960613
  0
LINE
  8
0
 62
7
  6
CONTINUOUS
 10
129.2353774201
 20
78.3298960613
 11
129.2353774201
 21
78.1298960613
  0
LINE
  8
0
 62
7
  6
CONTINUOUS
 10
129.5371847425
 20
78.3298960613
 11
129.5371847425
 21
78.1298960613
  0
LINE
  8
0
 62
7
  6
CONTINUOUS
 10
129.8525859587
 20
78.3298960613
 11
129.8525859587
 21
78.1298960613
  0
LINE
  8
0
 62
7
  6
CONTINUOUS
 10
129.9003356791
 20
78.3298961013
 11
129.9003356791
 21
78.1298960613
  0
LINE
  8
0
 62
7
  6
CONTINUOUS
 10
130.0539649556
 20
78.3298960613
 11
130.0539649556
 21
78.1298960613
  0
LINE
  8
0
 62
7
  6
CONTINUOUS
 10
130.1753329991
 20
78.3298960613
 11
130.1753329991
 21
78.1298960613
  0
LINE
  8
0
 62
7
  6
CONTINUOUS
 10
130.2313283109
 20
78.3298963237
 11
130.2313283109
 21
78.1298960613
  0
LINE
  8
0
 62
9
  6
CONTINUOUS
 10
130.9866187728
 20
86.3298960613
 11
130.9866187728
 21
95.3298960613
  0
LINE
  8
1_AXIS
 62
7
  6
CONTINUOUS
 10
132.2346143326
 20
101.3298960613
 11
132.2346143326
 21
97.8298960613
  0
LINE
  8
1_AXIS
 62
7
  6
CONTINUOUS
 10
132.2346143326
 20
83.8298960613
 11
132.2346143326
 21
80.3298960613
  0
LINE
  8
0
 62
9
  6
CONTINUOUS
 10
132.2654454921
 20
86.3298960613
 11
132.2654454921
 21
95.3298960613
  0
POLYLINE
  8
0
 62
9
  6
CONTINUOUS
 66
1
 70
0
  0
VERTEX
  8
0
 62
9
  6
CONTINUOUS
 10
133.9265554402
 20
95.8184801343
  0
VERTEX
  8
0
 62
9
  6
CONTINUOUS
 10
133.9225010912
 20
95.7979535089
  0
VERTEX
  8
0
 62
9
  6
CONTINUOUS
 10
133.9161122331
 20
95.7462614024
  0
VERTEX
  8
0
 62
9
  6
CONTINUOUS
 10
133.9078057922
 20
95.666777157
  0
VERTEX
  8
0
 62
9
  6
CONTINUOUS
 10
133.8981238332
 20
95.5646877841
  0
VERTEX
  8
0
 62
9
  6
CONTINUOUS
 10
133.887698185
 20
95.4466554689
  0
VERTEX
  8
0
 62
9
  6
CONTINUOUS
 10
133.8772092081
 20
95.3203828065
  0
SEQEND
  0
POLYLINE
  8
0
 62
9
  6
CONTINUOUS
 66
1
 70
0
  0
VERTEX
  8
0
 62
9
  6
CONTINUOUS
 10
133.9265554319
 20
85.841312091
  0
VERTEX
  8
0
 62
9
  6
CONTINUOUS
 10
133.9225010865
 20
85.8618387391
  0
VERTEX
  8
0
 62
9
  6
CONTINUOUS
 10
133.9161122315
 20
85.9135308478
  0
VERTEX
  8
0
 62
9
  6
CONTINUOUS
 10
133.9078057931
 20
85.9930150769
  0
VERTEX
  8
0
 62
9
  6
CONTINUOUS
 10
133.8981238358
 20
86.095104419
  0
VERTEX
  8
0
 62
9
  6
CONTINUOUS
 10
133.887698188
 20
86.2131366948
  0
VERTEX
  8
0
 62
9
  6
CONTINUOUS
 10
133.8772092105
 20
86.339409316
  0
SEQEND
  0
LINE
  8
0
 62
9
  6
CONTINUOUS
 10
134.8185298678
 20
86.4243218282
 11
134.8185298678
 21
95.2354702943
  0
POLYLINE
  8
0
 62
9
  6
CONTINUOUS
 66
1
 70
0
  0
VERTEX
  8
0
 62
9
  6
CONTINUOUS
 10
133.6483166138
 20
85.8298960613
  0
VERTEX
  8
0
 62
9
  6
CONTINUOUS
 10
133.6504579098
 20
85.8469331663
  0
VERTEX
  8
0
 62
9
  6
CONTINUOUS
 10
133.6524532794
 20
85.8968834132
  0
VERTEX
  8
0
 62
9
  6
CONTINUOUS
 10
133.6541667416
 20
85.9763427511
  0
VERTEX
  8
0
 62
9
  6
CONTINUOUS
 10
133.655481527
 20
86.0798961415
  0
VERTEX
  8
0
 62
9
  6
CONTINUOUS
 10
133.6563080354
 20
86.2004865886
  0
VERTEX
  8
0
 62
9
  6
CONTINUOUS
 10
133.656589942
 20
86.3298960613
  0
SEQEND
  0
POLYLINE
  8
0
 62
9
  6
CONTINUOUS
 66
1
 70
0
  0
VERTEX
  8
0
 62
9
  6
CONTINUOUS
 10
133.6483166138
 20
95.8298960613
  0
VERTEX
  8
0
 62
9
  6
CONTINUOUS
 10
133.6504579135
 20
95.8128589699
  0
VERTEX
  8
0
 62
9
  6
CONTINUOUS
 10
133.6524532857
 20
95.7629087488
  0
VERTEX
  8
0
 62
9
  6
CONTINUOUS
 10
133.654166749
 20
95.6834494288
  0
VERTEX
  8
0
 62
9
  6
CONTINUOUS
 10
133.6554815338
 20
95.5798960361
  0
VERTEX
  8
0
 62
9
  6
CONTINUOUS
 10
133.6563080398
 20
95.4593055665
  0
VERTEX
  8
0
 62
9
  6
CONTINUOUS
 10
133.656589942
 20
95.3298960613
  0
SEQEND
  0
LINE
  8
0
 62
7
  6
CONTINUOUS
 10
138.8217629252
 20
95.1385998195
 11
138.8160099786
 21
95.1989700309
  0
LINE
  8
0
 62
7
  6
CONTINUOUS
 10
138.8220578091
 20
95.1214282177
 11
138.8217629252
 21
95.1385998195
  0
LINE
  8
0
 62
9
  6
CONTINUOUS
 10
135.9117501066
 20
86.5187389181
 11
135.9117501066
 21
95.1410532044
  0
LINE
  8
0
 62
9
  6
CONTINUOUS
 10
136.7867139812
 20
95.1207239963
 11
136.7867139812
 21
86.5390681262
  0
LINE
  8
0
 62
9
  6
CONTINUOUS
 10
138.8004570914
 20
95.1207239963
 11
138.8004570914
 21
86.5390681262
  0
LINE
  8
0
 62
7
  6
CONTINUOUS
 10
138.8220592282
 20
95.1214506504
 11
138.8220592282
 21
86.5383414725
  0
POLYLINE
  8
0
 62
7
  6
CONTINUOUS
 66
1
 70
0
  0
VERTEX
  8
0
 62
7
  6
CONTINUOUS
 10
138.8145222127
 20
86.4518730732
  0
VERTEX
  8
0
 62
7
  6
CONTINUOUS
 10
138.8215104839
 20
86.5149725694
  0
VERTEX
  8
0
 62
7
  6
CONTINUOUS
 10
138.8220578111
 20
86.5383639047
  0
SEQEND
  0
POLYLINE
  8
0
 62
7
  6
CONTINUOUS
 66
1
 70
0
  0
VERTEX
  8
0
 62
7
  6
CONTINUOUS
 10
138.8160099786
 20
95.1989700309
  0
VERTEX
  8
0
 62
7
  6
CONTINUOUS
 10
138.8032410725
 20
95.2573230602
  0
VERTEX
  8
0
 62
7
  6
CONTINUOUS
 10
138.7840001871
 20
95.3127895571
  0
VERTEX
  8
0
 62
7
  6
CONTINUOUS
 10
138.758948529
 20
95.3646229211
  0
VERTEX
  8
0
 62
7
  6
CONTINUOUS
 10
138.7288383418
 20
95.4122139156
  0
VERTEX
  8
0
 62
7
  6
CONTINUOUS
 10
138.6944841116
 20
95.4551012549
  0
VERTEX
  8
0
 62
7
  6
CONTINUOUS
 10
138.6567379747
 20
95.4929710705
  0
VERTEX
  8
0
 62
7
  6
CONTINUOUS
 10
138.6164880609
 20
95.5256391499
  0
VERTEX
  8
0
 62
7
  6
CONTINUOUS
 10
138.5745904995
 20
95.5530890212
  0
VERTEX
  8
0
 62
7
  6
CONTINUOUS
 10
138.5318679445
 20
95.5754372183
  0
VERTEX
  8
0
 62
7
  6
CONTINUOUS
 10
138.4892665649
 20
95.5928623644
  0
VERTEX
  8
0
 62
7
  6
CONTINUOUS
 10
138.4487942641
 20
95.605433589
  0
SEQEND
  0
ARC
  8
0
 62
7
  6
CONTINUOUS
 10
65.7100494529
 20
180.5544839087
 40
6.2
 50
76.058871156
 51
99.838
  0
ARC
  8
0
 62
7
  6
CONTINUOUS
 10
68.4262767845
 20
176.8159177176
 40
6.2
 50
332.162
 51
355.941128844
  0
ARC
  8
0
 62
7
  6
CONTINUOUS
 10
72.6157425513
 20
176.5186357144
 40
2.0
 50
355.941128844
 51
43.6831815805
  0
ARC
  8
0
 62
7
  6
CONTINUOUS
 10
74.0980533302
 20
172.5659740253
 40
0.8
 50
152.162
 51
229.3451397584
  0
ARC
  8
0
 62
7
  6
CONTINUOUS
 10
59.3566600486
 20
200.1082058837
 40
6.2
 50
296.162
 51
319.941128844
  0
ARC
  8
SQ
 62
2
  6
PHANTOM
 10
76.1746480683
 20
194.5831920387
 40
2.2
 50
359.7249131549
 51
45.0
  0
ARC
  8
SQ
 62
2
  6
PHANTOM
 10
72.6391141624
 20
198.1187259446
 40
2.2
 50
45.0
 51
77.7637577589
  0
ARC
  8
0
 62
7
  6
CONTINUOUS
 10
66.7219335859
 20
184.630767817
 40
2.0
 50
28.3168184195
 51
76.058871156
  0
ARC
  8
0
 62
7
  6
CONTINUOUS
 10
62.571271074
 20
197.4051934984
 40
2.0
 50
319.941128844
 51
7.6831815805
  0
ARC
  8
0
 62
7
  6
CONTINUOUS
 10
63.4207881514
 20
187.2619687775
 40
0.8
 50
202.6548602416
 51
279.838
  0
ARC
  8
0
 62
7
  6
CONTINUOUS
 10
61.447169437
 20
193.3361426037
 40
0.8
 50
116.162
 51
193.3451397584
  0
ARC
  8
0
 62
7
  6
CONTINUOUS
 10
85.0596661889
 20
164.7310529304
 40
6.2
 50
112.058871156
 51
135.838
  0
ARC
  8
0
 62
7
  6
CONTINUOUS
 10
89.4546143326
 20
163.3030477146
 40
6.2
 50
8.162
 51
31.941128844
  0
ARC
  8
SQ
 62
2
  6
PHANTOM
 10
95.4345734182
 20
175.3232666888
 40
2.2
 50
12.2362422411
 51
45.0
  0
ARC
  8
SQ
 62
2
  6
PHANTOM
 10
91.8990395122
 20
178.8588005947
 40
2.2
 50
45.0
 51
90.2750868451
  0
ARC
  8
0
 62
7
  6
CONTINUOUS
 10
83.4823180833
 20
168.6236064566
 40
2.0
 50
64.3168184195
 51
112.058871156
  0
ARC
  8
0
 62
7
  6
CONTINUOUS
 10
93.0187013125
 20
165.5250477146
 40
2.0
 50
31.941128844
 51
79.6831815805
  0
ARC
  8
0
 62
7
  6
CONTINUOUS
 10
79.2650542056
 20
168.8119281471
 40
0.8
 50
238.6548602416
 51
315.838
  0
ARC
  8
0
 62
7
  6
CONTINUOUS
 10
96.5412321717
 20
163.1985576503
 40
0.8
 50
188.162
 51
265.3451397584
  0
ARC
  8
SQ
 62
2
  6
PHANTOM
 10
91.8731132875
 20
184.2587383565
 40
3.2
 50
225.0
 51
270.2750868451
  0
ARC
  8
SQ
 62
2
  6
PHANTOM
 10
81.5745858301
 20
194.5572658139
 40
3.2
 50
179.7249131549
 51
225.0
  0
ARC
  8
0
 62
7
  6
CONTINUOUS
 10
59.3566600486
 20
204.7293278343
 40
6.2
 50
40.058871156
 51
63.838
  0
ARC
  8
SQ
 62
2
  6
PHANTOM
 10
73.5716634287
 20
202.418766859
 40
2.2
 50
102.2362422411
 51
257.7637577589
  0
ARC
  8
SQ
 62
2
  6
PHANTOM
 10
72.6391141624
 20
206.7188077735
 40
2.2
 50
282.2362422411
 51
315.0
  0
ARC
  8
SQ
 62
2
  6
PHANTOM
 10
76.1746480683
 20
210.2543416794
 40
2.2
 50
315.0
 51
0.2750868451
  0
ARC
  8
0
 62
7
  6
CONTINUOUS
 10
62.571271074
 20
207.4323402197
 40
2.0
 50
352.3168184195
 51
40.058871156
  0
ARC
  8
0
 62
7
  6
CONTINUOUS
 10
66.7219335859
 20
220.206765901
 40
2.0
 50
283.941128844
 51
331.6831815805
  0
ARC
  8
0
 62
7
  6
CONTINUOUS
 10
61.447169437
 20
211.5013911143
 40
0.8
 50
166.6548602416
 51
243.838
  0
ARC
  8
0
 62
7
  6
CONTINUOUS
 10
63.4207881514
 20
217.5755649406
 40
0.8
 50
80.162
 51
157.3451397584
  0
ARC
  8
0
 62
7
  6
CONTINUOUS
 10
68.4262767845
 20
228.0216160005
 40
6.2
 50
4.058871156
 51
27.838
  0
ARC
  8
0
 62
7
  6
CONTINUOUS
 10
65.7100494529
 20
224.2830498094
 40
6.2
 50
260.162
 51
283.941128844
  0
ARC
  8
0
 62
7
  6
CONTINUOUS
 10
72.6157425513
 20
228.3188980036
 40
2.0
 50
316.3168184195
 51
4.058871156
  0
ARC
  8
0
 62
7
  6
CONTINUOUS
 10
74.0980533302
 20
232.2715596927
 40
0.8
 50
130.6548602416
 51
207.838
  0
ARC
  8
SQ
 62
2
  6
PHANTOM
 10
81.5745858301
 20
210.2802679041
 40
3.2
 50
135.0
 51
180.2750868451
  0
ARC
  8
SQ
 62
2
  6
PHANTOM
 10
91.8731132875
 20
220.5787953616
 40
3.2
 50
89.7249131549
 51
135.0
  0
ARC
  8
0
 62
7
  6
CONTINUOUS
 10
89.4546143326
 20
241.5344860034
 40
6.2
 50
328.058871156
 51
351.838
  0
ARC
  8
0
 62
7
  6
CONTINUOUS
 10
85.0596661889
 20
240.1064807876
 40
6.2
 50
224.162
 51
247.941128844
  0
ARC
  8
SQ
 62
2
  6
PHANTOM
 10
91.8990395122
 20
225.9787331233
 40
2.2
 50
269.7249131549
 51
315.0
  0
ARC
  8
SQ
 62
2
  6
PHANTOM
 10
95.4345734182
 20
229.5142670293
 40
2.2
 50
315.0
 51
347.7637577589
  0
ARC
  8
0
 62
7
  6
CONTINUOUS
 10
93.0187013125
 20
239.3124860034
 40
2.0
 50
280.3168184195
 51
328.058871156
  0
ARC
  8
0
 62
7
  6
CONTINUOUS
 10
83.4823180833
 20
236.2139272615
 40
2.0
 50
247.941128844
 51
295.6831815805
  0
ARC
  8
0
 62
7
  6
CONTINUOUS
 10
96.5412321717
 20
241.6389760677
 40
0.8
 50
94.6548602416
 51
171.838
  0
ARC
  8
0
 62
7
  6
CONTINUOUS
 10
79.2650542056
 20
236.0256055709
 40
0.8
 50
44.162
 51
121.3451397584
  0
ARC
  8
0
 62
7
  6
CONTINUOUS
 10
110.0146143326
 20
163.3030477146
 40
6.2
 50
148.058871156
 51
171.838
  0
ARC
  8
0
 62
7
  6
CONTINUOUS
 10
114.4095624763
 20
164.7310529304
 40
6.2
 50
44.162
 51
67.941128844
  0
ARC
  8
SQ
 62
2
  6
PHANTOM
 10
107.570189153
 20
178.8588005947
 40
2.2
 50
89.7249131549
 51
135.0
  0
ARC
  8
SQ
 62
2
  6
PHANTOM
 10
104.034655247
 20
175.3232666888
 40
2.2
 50
135.0
 51
167.7637577589
  0
ARC
  8
SQ
 62
2
  6
PHANTOM
 10
99.7346143326
 20
176.2558159551
 40
2.2
 50
192.2362422411
 51
347.7637577589
  0
ARC
  8
0
 62
7
  6
CONTINUOUS
 10
106.4505273527
 20
165.5250477146
 40
2.0
 50
100.3168184195
 51
148.058871156
  0
ARC
  8
0
 62
7
  6
CONTINUOUS
 10
115.9869105819
 20
168.6236064566
 40
2.0
 50
67.941128844
 51
115.6831815805
  0
ARC
  8
0
 62
7
  6
CONTINUOUS
 10
102.9279964935
 20
163.1985576503
 40
0.8
 50
274.6548602416
 51
351.838
  0
ARC
  8
SQ
 62
2
  6
PHANTOM
 10
117.8946428352
 20
194.5572658139
 40
3.2
 50
315.0
 51
0.2750868451
  0
ARC
  8
SQ
 62
2
  6
PHANTOM
 10
107.5961153777
 20
184.2587383565
 40
3.2
 50
269.7249131549
 51
315.0
  0
ARC
  8
0
 62
7
  6
CONTINUOUS
 10
131.0429518807
 20
176.8159177176
 40
6.2
 50
184.058871156
 51
207.838
  0
ARC
  8
0
 62
7
  6
CONTINUOUS
 10
133.7591792123
 20
180.5544839087
 40
6.2
 50
80.162
 51
103.941128844
  0
ARC
  8
0
 62
7
  6
CONTINUOUS
 10
126.8534861139
 20
176.5186357144
 40
2.0
 50
136.3168184195
 51
184.058871156
  0
ARC
  8
0
 62
7
  6
CONTINUOUS
 10
125.371175335
 20
172.5659740253
 40
0.8
 50
310.6548602416
 51
27.838
  0
ARC
  8
0
 62
7
  6
CONTINUOUS
 10
120.2041744596
 20
168.8119281471
 40
0.8
 50
224.162
 51
301.3451397584
  0
ARC
  8
0
 62
7
  6
CONTINUOUS
 10
140.1125686166
 20
200.1082058837
 40
6.2
 50
220.058871156
 51
243.838
  0
ARC
  8
SQ
 62
2
  6
PHANTOM
 10
126.8301145028
 20
198.1187259446
 40
2.2
 50
102.2362422411
 51
135.0
  0
ARC
  8
SQ
 62
2
  6
PHANTOM
 10
123.2945805969
 20
194.5831920387
 40
2.2
 50
135.0
 51
180.2750868451
  0
ARC
  8
0
 62
7
  6
CONTINUOUS
 10
132.7472950793
 20
184.630767817
 40
2.0
 50
103.941128844
 51
151.6831815805
  0
ARC
  8
0
 62
7
  6
CONTINUOUS
 10
136.8979575912
 20
197.4051934984
 40
2.0
 50
172.3168184195
 51
220.058871156
  0
ARC
  8
0
 62
7
  6
CONTINUOUS
 10
138.0220592282
 20
193.3361426037
 40
0.8
 50
346.6548602416
 51
63.838
  0
ARC
  8
0
 62
7
  6
CONTINUOUS
 10
136.0484405138
 20
187.2619687775
 40
0.8
 50
260.162
 51
337.3451397584
  0
ARC
  8
0
 62
7
  6
CONTINUOUS
 10
99.7346143326
 20
202.418766859
 40
40.15
 50
85.3451397584
 51
94.6548602416
  0
ARC
  8
0
 62
7
  6
CONTINUOUS
 10
99.7346143326
 20
202.418766859
 40
40.15
 50
121.3451397584
 51
130.6548602416
  0
ARC
  8
0
 62
7
  6
CONTINUOUS
 10
99.7346143326
 20
202.418766859
 40
40.15
 50
157.3451397584
 51
166.6548602416
  0
ARC
  8
0
 62
7
  6
CONTINUOUS
 10
99.7346143326
 20
202.418766859
 40
40.15
 50
193.3451397584
 51
202.6548602416
  0
ARC
  8
0
 62
7
  6
CONTINUOUS
 10
99.7346143326
 20
202.418766859
 40
40.15
 50
229.3451397584
 51
238.6548602416
  0
ARC
  8
0
 62
7
  6
CONTINUOUS
 10
99.7346143326
 20
202.418766859
 40
40.15
 50
265.3451397584
 51
274.6548602416
  0
ARC
  8
0
 62
7
  6
CONTINUOUS
 10
99.7346143326
 20
202.418766859
 40
40.15
 50
301.3451397584
 51
310.6548602416
  0
ARC
  8
0
 62
7
  6
CONTINUOUS
 10
99.7346143326
 20
202.418766859
 40
40.15
 50
337.3451397584
 51
346.6548602416
  0
ARC
  8
0
 62
7
  6
CONTINUOUS
 10
99.7346143326
 20
202.418766859
 40
40.15
 50
13.3451397584
 51
22.6548602416
  0
ARC
  8
0
 62
7
  6
CONTINUOUS
 10
99.7346143326
 20
202.418766859
 40
40.15
 50
49.3451397584
 51
58.6548602416
  0
ARC
  8
0
 62
7
  6
CONTINUOUS
 10
99.7346143326
 20
202.418766859
 40
35.5
 50
100.3168184195
 51
115.6831815805
  0
ARC
  8
0
 62
7
  6
CONTINUOUS
 10
99.7346143326
 20
202.418766859
 40
35.5
 50
64.3168184195
 51
79.6831815805
  0
ARC
  8
0
 62
7
  6
CONTINUOUS
 10
99.7346143326
 20
202.418766859
 40
35.5
 50
136.3168184195
 51
151.6831815805
  0
ARC
  8
0
 62
7
  6
CONTINUOUS
 10
99.7346143326
 20
202.418766859
 40
35.5
 50
172.3168184195
 51
187.6831815805
  0
ARC
  8
0
 62
7
  6
CONTINUOUS
 10
99.7346143326
 20
202.418766859
 40
35.5
 50
208.3168184195
 51
223.6831815805
  0
ARC
  8
0
 62
7
  6
CONTINUOUS
 10
99.7346143326
 20
202.418766859
 40
35.5
 50
244.3168184195
 51
259.6831815805
  0
ARC
  8
0
 62
7
  6
CONTINUOUS
 10
99.7346143326
 20
202.418766859
 40
35.5
 50
280.3168184195
 51
295.6831815805
  0
ARC
  8
0
 62
7
  6
CONTINUOUS
 10
99.7346143326
 20
202.418766859
 40
35.5
 50
316.3168184195
 51
331.6831815805
  0
ARC
  8
0
 62
7
  6
CONTINUOUS
 10
99.7346143326
 20
202.418766859
 40
35.5
 50
28.3168184195
 51
43.6831815805
  0
ARC
  8
0
 62
7
  6
CONTINUOUS
 10
99.7346143326
 20
202.418766859
 40
35.5
 50
352.3168184195
 51
7.6831815805
  0
CIRCLE
  8
1_AXIS
 62
7
  6
CONTINUOUS
 10
99.7346143326
 20
202.418766859
 40
32.5
  0
CIRCLE
  8
SQ
 62
2
  6
PHANTOM
 10
99.7346143326
 20
202.418766859
 40
8.0
  0
ARC
  8
SQ
 62
2
  6
PHANTOM
 10
107.5961153777
 20
220.5787953616
 40
3.2
 50
45.0
 51
90.2750868451
  0
ARC
  8
SQ
 62
2
  6
PHANTOM
 10
117.8946428352
 20
210.2802679041
 40
3.2
 50
359.7249131549
 51
45.0
  0
ARC
  8
0
 62
7
  6
CONTINUOUS
 10
110.0146143326
 20
241.5344860034
 40
6.2
 50
188.162
 51
211.941128844
  0
ARC
  8
0
 62
7
  6
CONTINUOUS
 10
114.4095624763
 20
240.1064807876
 40
6.2
 50
292.058871156
 51
315.838
  0
ARC
  8
SQ
 62
2
  6
PHANTOM
 10
99.7346143326
 20
228.5817177629
 40
2.2
 50
12.2362422411
 51
167.7637577589
  0
ARC
  8
SQ
 62
2
  6
PHANTOM
 10
104.034655247
 20
229.5142670293
 40
2.2
 50
192.2362422411
 51
225.0
  0
ARC
  8
SQ
 62
2
  6
PHANTOM
 10
107.570189153
 20
225.9787331233
 40
2.2
 50
225.0
 51
270.2750868451
  0
ARC
  8
0
 62
7
  6
CONTINUOUS
 10
106.4505273527
 20
239.3124860034
 40
2.0
 50
211.941128844
 51
259.6831815805
  0
ARC
  8
0
 62
7
  6
CONTINUOUS
 10
115.9869105819
 20
236.2139272615
 40
2.0
 50
244.3168184195
 51
292.058871156
  0
ARC
  8
0
 62
7
  6
CONTINUOUS
 10
99.7346143326
 20
237.418766859
 40
0.8660254038
 50
324.1547435879
 51
215.8452564121
  0
ARC
  8
0
 62
7
  6
CONTINUOUS
 10
102.9279964935
 20
241.6389760677
 40
0.8
 50
8.162
 51
85.3451397584
  0
ARC
  8
0
 62
7
  6
CONTINUOUS
 10
140.1125686166
 20
204.7293278343
 40
6.2
 50
116.162
 51
139.941128844
  0
ARC
  8
SQ
 62
2
  6
PHANTOM
 10
123.2945805969
 20
210.2543416794
 40
2.2
 50
179.7249131549
 51
225.0
  0
ARC
  8
SQ
 62
2
  6
PHANTOM
 10
126.8301145028
 20
206.7188077735
 40
2.2
 50
225.0
 51
257.7637577589
  0
ARC
  8
SQ
 62
2
  6
PHANTOM
 10
125.8975652365
 20
202.418766859
 40
2.2
 50
282.2362422411
 51
306.2711978319
  0
ARC
  8
SQ
 62
2
  6
PHANTOM
 10
125.8975652365
 20
202.418766859
 40
2.2
 50
335.3652632382
 51
3.2130721319
  0
ARC
  8
SQ
 62
2
  6
PHANTOM
 10
125.8975652365
 20
202.418766859
 40
2.2
 50
13.0313696125
 51
77.7637577589
  0
ARC
  8
0
 62
7
  6
CONTINUOUS
 10
136.8979575912
 20
207.4323402197
 40
2.0
 50
139.941128844
 51
187.6831815805
  0
ARC
  8
0
 62
7
  6
CONTINUOUS
 10
132.7472950793
 20
220.206765901
 40
2.0
 50
208.3168184195
 51
256.058871156
  0
ARC
  8
0
 62
7
  6
CONTINUOUS
 10
138.0220592282
 20
211.5013911143
 40
0.8
 50
296.162
 51
13.3451397584
  0
ARC
  8
0
 62
7
  6
CONTINUOUS
 10
136.0484405138
 20
217.5755649406
 40
0.8
 50
22.6548602416
 51
99.838
  0
ARC
  8
0
 62
7
  6
CONTINUOUS
 10
131.0429518807
 20
228.0216160005
 40
6.2
 50
152.162
 51
175.941128844
  0
ARC
  8
0
 62
7
  6
CONTINUOUS
 10
133.7591792123
 20
224.2830498094
 40
6.2
 50
256.058871156
 51
279.838
  0
ARC
  8
0
 62
7
  6
CONTINUOUS
 10
126.8534861139
 20
228.3188980036
 40
2.0
 50
175.941128844
 51
223.6831815805
  0
ARC
  8
0
 62
7
  6
CONTINUOUS
 10
125.371175335
 20
232.2715596927
 40
0.8
 50
332.162
 51
49.3451397584
  0
ARC
  8
0
 62
7
  6
CONTINUOUS
 10
120.2041744596
 20
236.0256055709
 40
0.8
 50
58.6548602416
 51
135.838
  0
ARC
  8
1_AXIS
 62
7
  6
CONTINUOUS
 10
130.2346143326
 20
101.3298960613
 40
2.0
 50
0.0
 51
90.0
  0
ARC
  8
1_AXIS
 62
7
  6
CONTINUOUS
 10
134.2346143326
 20
97.8298960613
 40
2.0
 50
180.0
 51
270.0
  0
ARC
  8
1_AXIS
 62
7
  6
CONTINUOUS
 10
134.2346143326
 20
83.8298960613
 40
2.0
 50
90.0
 51
180.0
  0
ARC
  8
1_AXIS
 62
7
  6
CONTINUOUS
 10
130.2346143326
 20
80.3298960613
 40
2.0
 50
270.0
 51
360.0
  0
ARC
  8
1_AXIS
 62
7
  6
CONTINUOUS
 10
69.2346143326
 20
101.3298960613
 40
2.0
 50
90.0
 51
180.0
  0
ARC
  8
1_AXIS
 62
7
  6
CONTINUOUS
 10
65.2346143326
 20
97.8298960613
 40
2.0
 50
270.0
 51
360.0
  0
ARC
  8
1_AXIS
 62
7
  6
CONTINUOUS
 10
65.2346143326
 20
83.8298960613
 40
2.0
 50
0.0
 51
90.0
  0
ARC
  8
1_AXIS
 62
7
  6
CONTINUOUS
 10
69.2346143326
 20
80.3298960613
 40
2.0
 50
180.0
 51
270.0
  0
ENDSEC
  0
EOF
