  0
SECTION
  2
HEADER
  9
$EXTMAX
 10
210.0
 20
297.0
 30
0.0
  9
$EXTMIN
 10
0.0
 20
0.0
 30
0.0
  9
$LIMMIN
 10
0.0
 20
0.0
  9
$LIMMAX
 10
210.0
 20
297.0
  9
$VIEWCTR
 10
105.0
 20
148.5
  9
$VIEWSIZE
 40
297.0
  9
$CLAYER
  8
0
  9
$LTSCALE
 40
19.36
  9
$CELTYPE
  6
BYLAYER
  9
$DIMSCALE
 40
1.0
  9
$DIMASZ
 40
3.5
  9
$DIMEXO
 40
1.0
  9
$DIMDLI
 40
13.376
  9
$DIMEXE
 40
2.0
  9
$DIMCEN
 40
3.168
  9
$DIMLFAC
 40
1.0
  9
$DIMBLK
  1
_FILLED
  9
$DIMTXT
 40
3.5
  9
$PDMODE
 70
3
  9
$PDSIZE
 40
0.3125
  9
$TILEMODE
 70
1
  0
ENDSEC
  0
SECTION
  2
TABLES
  0
TABLE
  2
LTYPE
 70
6
  0
LTYPE
  2
BYBLOCK
 70
0
  3

 72
65
 73
0
 40
0.0
  0
LTYPE
  2
BYLAYER
 70
0
  3

 72
65
 73
0
 40
0.0
  0
LTYPE
  2
CONTINUOUS
 70
64
  3
Solid line
 72
65
 73
0
 40
0.0
  0
LTYPE
  2
CENTER
 70
64
  3
____ _ ____ _ ____ _ ____ _ ____ _ ____ _ ____
 72
65
 73
4
 40
0.6
 49
0.375
 49
-0.075
 49
0.075
 49
-0.075
  0
LTYPE
  2
HIDDEN
 70
64
  3
- - - - - - - - - - - - - - - - - - - -
 72
65
 73
2
 40
0.2
 49
0.1
 49
-0.1
  0
LTYPE
  2
PHANTOM
 70
64
  3
_____ _ _ _____ _ _ _____ _ _ _____
 72
65
 73
6
 40
0.8
 49
0.45
 49
-0.05
 49
0.1
 49
-0.05
 49
0.1
 49
-0.05
  0
LTYPE
  2
DOT
 70
64
  3
. . . . . . . . . . . . . . . . . . . .
 72
65
 73
2
 40
0.2
 49
0.1
 49
-0.1
  0
LTYPE
  2
DASHED
 70
64
  3
- - - - - - - - - - - - - - - - - - - -
 72
65
 73
2
 40
0.2
 49
0.1
 49
-0.1
  0
ENDTAB
  0
TABLE
  2
LAYER
 70
36
  0
LAYER
  2
0
 70
0
 62
7
  6
CONTINUOUS
  0
LAYER
  2
DEFAULT_1
 70
0
 62
7
  6
CENTER
  0
LAYER
  2
DEFAULT_2
 70
0
 62
8
  6
HIDDEN
  0
LAYER
  2
DEFAULT_3
 70
0
 62
7
  6
PHANTOM
  0
LAYER
  2
BLANK_LUKKEFLADE
 70
0
 62
7
  6
CONTINUOUS
  0
LAYER
  2
BLANK_QUILTS
 70
0
 62
7
  6
CONTINUOUS
  0
LAYER
  2
BLANK_UDST_PLACERING
 70
0
 62
7
  6
CONTINUOUS
  0
ENDTAB
  0
TABLE
  2
STYLE
 70
1
  0
STYLE
  2
STANDARD
 70
0
 40
0.0
 41
0.8
 50
0.0
 71
0
 42
0.2
  3
txt
  4

  0
STYLE
  2
TEXTSTYLE_1
 70
0
 40
0.0
 41
0.8
 50
0.0
 71
0
 42
0.2
  3
gdt
  4

  0
STYLE
  2
TEXTSTYLE_2
 70
0
 40
0.0
 41
0.6
 50
0.0
 71
0
 42
0.2
  3
txt
  4

  0
STYLE
  2
TEXTSTYLE_3
 70
0
 40
0.0
 41
1.0
 50
0.0
 71
0
 42
0.2
  3
ftb_____.ttf
  4

  0
STYLE
  2
TEXTSTYLE_4
 70
0
 40
0.0
 41
1.0
 50
0.0
 71
0
 42
0.2
  3
fti_____.ttf
  4

  0
STYLE
  2
TEXTSTYLE_5
 70
0
 40
0.0
 41
1.0
 50
0.0
 71
0
 42
0.2
  3
frutiger light.ttf
  4

  0
STYLE
  2
TEXTSTYLE_6
 70
0
 40
0.0
 41
0.7
 50
0.0
 71
0
 42
0.2
  3
txt
  4

  0
STYLE
  2
TEXTSTYLE_7
 70
0
 40
0.0
 41
0.45
 50
0.0
 71
0
 42
0.2
  3
txt
  4

  0
ENDTAB
  0
ENDSEC
  0
SECTION
  2
BLOCKS
  0
BLOCK
  8
0
 62
2
  6
CONTINUOUS
  2
SYMBOL_8_BL1
 70
64
 10
173.5956734183
 20
35.5937998301
  0
TEXT
  8
0
 62
7
  6
CONTINUOUS
 10
164.6539584268
 20
30.6865562072
  7
TEXTSTYLE_4
 40
1.0655737705
  1
The brand for plastic modular belts and chains
 41
1.0
 72
0
  0
LINE
  8
0
 62
7
  6
CONTINUOUS
 10
149.5737418074
 20
36.1675703219
 11
149.5737418074
 21
34.0364227809
  0
LINE
  8
0
 62
7
  6
CONTINUOUS
 10
149.8628043005
 20
31.0454914852
 11
149.8628043005
 21
31.1422825445
  0
LINE
  8
0
 62
7
  6
CONTINUOUS
 10
149.5737418074
 20
31.1100188581
 11
149.6315543091
 21
30.9164367395
  0
LINE
  8
0
 62
7
  6
CONTINUOUS
 10
150.9671844304
 20
33.9544555678
 11
150.9671844304
 21
36.1675703219
  0
LINE
  8
0
 62
7
  6
CONTINUOUS
 10
151.8862417523
 20
32.1101932727
 11
151.8862417523
 21
30.5937998301
  0
LINE
  8
0
 62
7
  6
CONTINUOUS
 10
152.1753043074
 20
30.5937998301
 11
152.1753043074
 21
31.3358647082
  0
LINE
  8
0
 62
7
  6
CONTINUOUS
 10
152.1753043074
 20
31.4649194539
 11
152.1753043074
 21
32.1101932727
  0
LINE
  8
0
 62
7
  6
CONTINUOUS
 10
149.6315543091
 20
31.3036010218
 11
149.5737418074
 21
31.1100188581
  0
LINE
  8
0
 62
7
  6
CONTINUOUS
 10
149.9784292936
 20
30.8841730531
 11
149.8628043005
 21
31.0454914852
  0
LINE
  8
0
 62
7
  6
CONTINUOUS
 10
151.0768668626
 20
31.400392081
 11
151.1346793074
 21
31.3036010218
  0
LINE
  8
0
 62
7
  6
CONTINUOUS
 10
151.4237418626
 20
31.3036010218
 11
151.3659292523
 21
31.4326557675
  0
LINE
  8
0
 62
7
  6
CONTINUOUS
 10
152.852430332
 20
36.1675703219
 11
152.852430332
 21
34.3642916334
  0
LINE
  8
0
 62
7
  6
CONTINUOUS
 10
152.852430332
 20
33.0528162235
 11
152.852430332
 21
32.3970785186
  0
LINE
  8
0
 62
7
  6
CONTINUOUS
 10
153.2159293074
 20
31.2390736489
 11
153.2159293074
 21
30.5937998301
  0
LINE
  8
0
 62
7
  6
CONTINUOUS
 10
153.5049916972
 20
30.5937998301
 11
153.5049916972
 21
31.2390736489
  0
LINE
  8
0
 62
7
  6
CONTINUOUS
 10
149.8628043005
 20
31.1422825445
 11
149.9206168074
 21
31.2713373354
  0
LINE
  8
0
 62
7
  6
CONTINUOUS
 10
149.6315543091
 20
30.9164367395
 11
149.7471793074
 21
30.7873819712
  0
LINE
  8
0
 62
7
  6
CONTINUOUS
 10
153.1581166972
 20
31.3681283946
 11
153.2159293074
 21
31.2390736489
  0
LINE
  8
0
 62
7
  6
CONTINUOUS
 10
153.9674919177
 20
30.8841730531
 11
154.0253041972
 21
30.7551182848
  0
LINE
  8
0
 62
7
  6
CONTINUOUS
 10
153.5049916972
 20
31.2390736489
 11
153.4471794177
 21
31.400392081
  0
LINE
  8
0
 62
7
  6
CONTINUOUS
 10
153.9674919177
 20
31.4326557675
 11
153.9674919177
 21
31.3681283946
  0
LINE
  8
0
 62
7
  6
CONTINUOUS
 10
153.9674919177
 20
30.9809641124
 11
153.9674919177
 21
30.8841730531
  0
LINE
  8
0
 62
7
  6
CONTINUOUS
 10
154.245872955
 20
32.3970785186
 11
154.245872955
 21
36.1675703219
  0
LINE
  8
0
 62
7
  6
CONTINUOUS
 10
154.2565543074
 20
30.8519093441
 11
154.2565543074
 21
30.9164367395
  0
LINE
  8
0
 62
7
  6
CONTINUOUS
 10
154.5737418074
 20
36.1675703219
 11
154.5737418074
 21
32.3970785186
  0
LINE
  8
0
 62
7
  6
CONTINUOUS
 10
151.3659292523
 20
30.7873819712
 11
151.4237418626
 21
30.9164367395
  0
LINE
  8
0
 62
7
  6
CONTINUOUS
 10
155.759679528
 20
30.6905909007
 11
155.7018665869
 21
30.8519093441
  0
LINE
  8
0
 62
7
  6
CONTINUOUS
 10
155.412804528
 20
31.3681283946
 11
155.412804528
 21
31.2713373354
  0
LINE
  8
0
 62
7
  6
CONTINUOUS
 10
155.412804528
 20
31.1422825445
 11
155.412804528
 21
30.9487004259
  0
LINE
  8
0
 62
7
  6
CONTINUOUS
 10
155.7018665869
 20
30.8519093441
 11
155.7018665869
 21
31.3681283946
  0
LINE
  8
0
 62
7
  6
CONTINUOUS
 10
155.9671844304
 20
32.3970785186
 11
155.9671844304
 21
34.2003572071
  0
LINE
  8
0
 62
7
  6
CONTINUOUS
 10
155.9671844304
 20
35.511832617
 11
155.9671844304
 21
36.1675703219
  0
LINE
  8
0
 62
7
  6
CONTINUOUS
 10
156.279992028
 20
32.1101932727
 11
156.279992028
 21
31.9488748406
  0
LINE
  8
0
 62
7
  6
CONTINUOUS
 10
156.279992028
 20
31.626237886
 11
156.279992028
 21
30.5937998301
  0
LINE
  8
0
 62
7
  6
CONTINUOUS
 10
156.5690540869
 20
30.5937998301
 11
156.5690540869
 21
31.626237886
  0
LINE
  8
0
 62
7
  6
CONTINUOUS
 10
156.5690540869
 20
31.9488748406
 11
156.5690540869
 21
32.1101932727
  0
LINE
  8
0
 62
7
  6
CONTINUOUS
 10
151.1346793074
 20
30.9164367395
 11
151.0768668626
 21
30.8196456577
  0
LINE
  8
0
 62
7
  6
CONTINUOUS
 10
153.4471794177
 20
31.400392081
 11
153.3893668074
 21
31.4649194539
  0
LINE
  8
0
 62
7
  6
CONTINUOUS
 10
154.3143669177
 20
30.7873819712
 11
154.2565543074
 21
30.8519093441
  0
LINE
  8
0
 62
7
  6
CONTINUOUS
 10
155.4706168074
 20
30.6583272086
 11
155.5284290869
 21
30.5937998301
  0
LINE
  8
0
 62
7
  6
CONTINUOUS
 10
155.412804528
 20
30.7551182848
 11
155.4706168074
 21
30.6583272086
  0
LINE
  8
0
 62
7
  6
CONTINUOUS
 10
155.8174918074
 20
30.5937998301
 11
155.759679528
 21
30.6905909007
  0
LINE
  8
0
 62
7
  6
CONTINUOUS
 10
155.7018665869
 20
31.3681283946
 11
155.6440543074
 21
31.4649194539
  0
LINE
  8
0
 62
7
  6
CONTINUOUS
 10
157.0315543074
 20
31.626237886
 11
157.0315543074
 21
30.5937998301
  0
LINE
  8
0
 62
7
  6
CONTINUOUS
 10
157.320617028
 20
30.5937998301
 11
157.320617028
 21
31.3358647082
  0
LINE
  8
0
 62
7
  6
CONTINUOUS
 10
157.320617028
 20
31.4649194539
 11
157.320617028
 21
31.626237886
  0
LINE
  8
0
 62
7
  6
CONTINUOUS
 10
157.852430332
 20
34.6101932727
 11
157.852430332
 21
32.3970785186
  0
LINE
  8
0
 62
7
  6
CONTINUOUS
 10
149.7471793074
 20
31.4326557675
 11
149.6315543091
 21
31.3036010218
  0
LINE
  8
0
 62
7
  6
CONTINUOUS
 10
149.9206168074
 20
31.2713373354
 11
149.9784292936
 21
31.3358647082
  0
LINE
  8
0
 62
7
  6
CONTINUOUS
 10
149.7471793074
 20
30.7873819712
 11
149.8628043005
 21
30.7228545871
  0
LINE
  8
0
 62
7
  6
CONTINUOUS
 10
150.1518667936
 20
30.7873819712
 11
149.9784292936
 21
30.8841730531
  0
LINE
  8
0
 62
7
  6
CONTINUOUS
 10
155.3549915869
 20
31.4326557675
 11
155.412804528
 21
31.3681283946
  0
LINE
  8
0
 62
7
  6
CONTINUOUS
 10
158.3034290869
 20
31.3681283946
 11
158.361242028
 21
31.2068099625
  0
LINE
  8
0
 62
7
  6
CONTINUOUS
 10
158.6503040869
 20
31.2068099625
 11
158.5924918074
 21
31.3681283946
  0
LINE
  8
0
 62
7
  6
CONTINUOUS
 10
158.361242028
 20
31.2068099625
 11
158.361242028
 21
30.5937998301
  0
LINE
  8
0
 62
7
  6
CONTINUOUS
 10
158.6503040869
 20
30.5937998301
 11
158.6503040869
 21
31.2068099625
  0
LINE
  8
0
 62
7
  6
CONTINUOUS
 10
159.1128043074
 20
31.4326557675
 11
159.1128043074
 21
31.3681283946
  0
LINE
  8
0
 62
7
  6
CONTINUOUS
 10
159.245872955
 20
32.3970785186
 11
159.245872955
 21
34.5282260596
  0
LINE
  8
0
 62
7
  6
CONTINUOUS
 10
159.5737418074
 20
36.1675703219
 11
159.5737418074
 21
32.3970785186
  0
LINE
  8
0
 62
7
  6
CONTINUOUS
 10
154.2565543074
 20
30.9164367395
 11
154.3143669177
 21
31.0132277988
  0
LINE
  8
0
 62
7
  6
CONTINUOUS
 10
149.8628043005
 20
30.7228545871
 11
150.0362418212
 21
30.6583272086
  0
LINE
  8
0
 62
7
  6
CONTINUOUS
 10
151.3659292523
 20
31.4326557675
 11
151.1924917523
 21
31.5294468267
  0
LINE
  8
0
 62
7
  6
CONTINUOUS
 10
154.0253041972
 20
30.7551182848
 11
154.1987416972
 21
30.6583272086
  0
LINE
  8
0
 62
7
  6
CONTINUOUS
 10
153.0424918074
 20
31.4326557675
 11
153.1581166972
 21
31.3681283946
  0
LINE
  8
0
 62
7
  6
CONTINUOUS
 10
153.3893668074
 20
31.4649194539
 11
153.2737419177
 21
31.5294468267
  0
LINE
  8
0
 62
7
  6
CONTINUOUS
 10
159.1128043074
 20
30.8519093441
 11
159.228429528
 21
30.7228545871
  0
LINE
  8
0
 62
7
  6
CONTINUOUS
 10
159.4596793074
 20
30.7873819712
 11
159.401867028
 21
30.8519093441
  0
LINE
  8
0
 62
7
  6
CONTINUOUS
 10
159.1128043074
 20
31.3681283946
 11
159.228429528
 21
31.2390736489
  0
LINE
  8
0
 62
7
  6
CONTINUOUS
 10
158.5924918074
 20
31.3681283946
 11
158.534679528
 21
31.4649194539
  0
LINE
  8
0
 62
7
  6
CONTINUOUS
 10
160.9628038663
 20
30.7873819712
 11
160.9628038663
 21
30.8519093441
  0
LINE
  8
0
 62
7
  6
CONTINUOUS
 10
160.9671844304
 20
32.3970785186
 11
160.9671844304
 21
36.1675703219
  0
LINE
  8
0
 62
7
  6
CONTINUOUS
 10
154.0253041972
 20
31.4971831403
 11
153.9674919177
 21
31.4326557675
  0
LINE
  8
0
 62
7
  6
CONTINUOUS
 10
150.9034292799
 20
31.4649194539
 11
151.0768668626
 21
31.400392081
  0
LINE
  8
0
 62
7
  6
CONTINUOUS
 10
155.6440543074
 20
31.4649194539
 11
155.5284290869
 21
31.5294468267
  0
LINE
  8
0
 62
7
  6
CONTINUOUS
 10
159.4596793074
 20
31.3036010218
 11
159.401867028
 21
31.3681283946
  0
LINE
  8
0
 62
7
  6
CONTINUOUS
 10
160.615929528
 20
30.9164367395
 11
160.6737418074
 21
30.8519093441
  0
LINE
  8
0
 62
7
  6
CONTINUOUS
 10
160.9628038663
 20
30.8519093441
 11
160.8471793074
 21
30.9809641124
  0
LINE
  8
0
 62
7
  6
CONTINUOUS
 10
160.615929528
 20
31.4326557675
 11
160.6737418074
 21
31.3681283946
  0
LINE
  8
0
 62
7
  6
CONTINUOUS
 10
160.9628038663
 20
31.3681283946
 11
160.8471793074
 21
31.4971831403
  0
LINE
  8
0
 62
7
  6
CONTINUOUS
 10
154.2565543074
 20
31.3681283946
 11
154.3143669177
 21
31.4326557675
  0
LINE
  8
0
 62
7
  6
CONTINUOUS
 10
154.0831168074
 20
31.1100188581
 11
153.9674919177
 21
30.9809641124
  0
LINE
  8
0
 62
7
  6
CONTINUOUS
 10
155.412804528
 20
30.9487004259
 11
155.3549915869
 21
30.8841730531
  0
LINE
  8
0
 62
7
  6
CONTINUOUS
 10
155.3549915869
 20
30.6905909007
 11
155.412804528
 21
30.7551182848
  0
LINE
  8
0
 62
7
  6
CONTINUOUS
 10
154.1987416972
 20
30.6583272086
 11
154.3143669177
 21
30.6260635193
  0
LINE
  8
0
 62
7
  6
CONTINUOUS
 10
151.1924917523
 20
31.5294468267
 11
150.9612418074
 21
31.5939741996
  0
LINE
  8
0
 62
7
  6
CONTINUOUS
 10
154.5456166972
 20
30.7228545871
 11
154.3143669177
 21
30.7873819712
  0
LINE
  8
0
 62
7
  6
CONTINUOUS
 10
153.2737419177
 20
31.5294468267
 11
153.1003044177
 21
31.5939741996
  0
LINE
  8
0
 62
7
  6
CONTINUOUS
 10
155.5284290869
 20
31.5294468267
 11
155.3549915869
 21
31.5939741996
  0
LINE
  8
0
 62
7
  6
CONTINUOUS
 10
158.187804528
 20
31.4326557675
 11
158.3034290869
 21
31.3681283946
  0
LINE
  8
0
 62
7
  6
CONTINUOUS
 10
158.534679528
 20
31.4649194539
 11
158.4190543074
 21
31.5294468267
  0
LINE
  8
0
 62
7
  6
CONTINUOUS
 10
150.0362418212
 20
30.6583272086
 11
150.2096793212
 21
30.6260635193
  0
LINE
  8
0
 62
7
  6
CONTINUOUS
 10
150.498741835
 20
30.7228545871
 11
150.1518667936
 21
30.7873819712
  0
LINE
  8
0
 62
7
  6
CONTINUOUS
 10
152.9268669177
 20
31.4649194539
 11
153.0424918074
 21
31.4326557675
  0
LINE
  8
0
 62
7
  6
CONTINUOUS
 10
155.239367028
 20
31.4649194539
 11
155.3549915869
 21
31.4326557675
  0
LINE
  8
0
 62
7
  6
CONTINUOUS
 10
159.575304528
 20
30.7551182848
 11
159.4596793074
 21
30.7873819712
  0
LINE
  8
0
 62
7
  6
CONTINUOUS
 10
158.0721793074
 20
31.4649194539
 11
158.187804528
 21
31.4326557675
  0
LINE
  8
0
 62
7
  6
CONTINUOUS
 10
159.228429528
 20
30.7228545871
 11
159.401867028
 21
30.6583272086
  0
LINE
  8
0
 62
7
  6
CONTINUOUS
 10
158.4190543074
 20
31.5294468267
 11
158.2456168074
 21
31.5939741996
  0
LINE
  8
0
 62
7
  6
CONTINUOUS
 10
159.6331168074
 20
31.2390736489
 11
159.4596793074
 21
31.3036010218
  0
LINE
  8
0
 62
7
  6
CONTINUOUS
 10
160.442492028
 20
30.9809641124
 11
160.615929528
 21
30.9164367395
  0
LINE
  8
0
 62
7
  6
CONTINUOUS
 10
160.8471793074
 20
31.4971831403
 11
160.6737418074
 21
31.5617105132
  0
LINE
  8
0
 62
7
  6
CONTINUOUS
 10
159.228429528
 20
31.2390736489
 11
159.4596793074
 21
31.1422825445
  0
LINE
  8
0
 62
7
  6
CONTINUOUS
 10
160.8471793074
 20
30.9809641124
 11
160.615929528
 21
31.0777551716
  0
LINE
  8
0
 62
7
  6
CONTINUOUS
 10
159.401867028
 20
31.3681283946
 11
159.4596793074
 21
31.4326557675
  0
LINE
  8
0
 62
7
  6
CONTINUOUS
 10
149.8628043005
 20
31.4971831403
 11
149.7471793074
 21
31.4326557675
  0
LINE
  8
0
 62
7
  6
CONTINUOUS
 10
149.9784292936
 20
31.3358647082
 11
150.1518667936
 21
31.4326557675
  0
LINE
  8
0
 62
7
  6
CONTINUOUS
 10
152.2909293626
 20
31.5294468267
 11
152.1753043074
 21
31.4649194539
  0
LINE
  8
0
 62
7
  6
CONTINUOUS
 10
152.1753043074
 20
31.3358647082
 11
152.2909293626
 21
31.400392081
  0
LINE
  8
0
 62
7
  6
CONTINUOUS
 10
151.1924917523
 20
30.6905909007
 11
151.3659292523
 21
30.7873819712
  0
LINE
  8
0
 62
7
  6
CONTINUOUS
 10
150.2096793212
 20
30.6260635193
 11
150.5565542799
 21
30.5937998301
  0
LINE
  8
0
 62
7
  6
CONTINUOUS
 10
154.3143669177
 20
30.6260635193
 11
154.5456166972
 21
30.5937998301
  0
LINE
  8
0
 62
7
  6
CONTINUOUS
 10
152.6956168074
 20
31.4971831403
 11
152.9268669177
 21
31.4649194539
  0
LINE
  8
0
 62
7
  6
CONTINUOUS
 10
155.0081169177
 20
31.4971831403
 11
155.239367028
 21
31.4649194539
  0
LINE
  8
0
 62
7
  6
CONTINUOUS
 10
159.4596793074
 20
31.1422825445
 11
160.442492028
 21
30.9809641124
  0
LINE
  8
0
 62
7
  6
CONTINUOUS
 10
160.615929528
 20
31.0777551716
 11
159.6331168074
 21
31.2390736489
  0
LINE
  8
0
 62
7
  6
CONTINUOUS
 10
153.1003044177
 20
31.5939741996
 11
152.9268669177
 21
31.626237886
  0
LINE
  8
0
 62
7
  6
CONTINUOUS
 10
159.401867028
 20
30.6583272086
 11
159.575304528
 21
30.6260635193
  0
LINE
  8
0
 62
7
  6
CONTINUOUS
 10
158.2456168074
 20
31.5939741996
 11
158.0721793074
 21
31.626237886
  0
LINE
  8
0
 62
7
  6
CONTINUOUS
 10
160.5003043074
 20
31.4649194539
 11
160.615929528
 21
31.4326557675
  0
LINE
  8
0
 62
7
  6
CONTINUOUS
 10
160.6737418074
 20
30.8519093441
 11
160.615929528
 21
30.7873819712
  0
LINE
  8
0
 62
7
  6
CONTINUOUS
 10
159.228429528
 20
31.5294468267
 11
159.1128043074
 21
31.4326557675
  0
LINE
  8
0
 62
7
  6
CONTINUOUS
 10
154.1409294177
 20
31.5617105132
 11
154.0253041972
 21
31.4971831403
  0
LINE
  8
0
 62
7
  6
CONTINUOUS
 10
154.1987416972
 20
31.1745462761
 11
154.0831168074
 21
31.1100188581
  0
LINE
  8
0
 62
7
  6
CONTINUOUS
 10
154.3143669177
 20
31.0132277988
 11
154.4299918074
 21
31.0777551716
  0
LINE
  8
0
 62
7
  6
CONTINUOUS
 10
151.8862417523
 20
30.5937998301
 11
152.1753043074
 21
30.5937998301
  0
LINE
  8
0
 62
7
  6
CONTINUOUS
 10
153.2159293074
 20
30.5937998301
 11
153.5049916972
 21
30.5937998301
  0
LINE
  8
0
 62
7
  6
CONTINUOUS
 10
154.5456166972
 20
30.5937998301
 11
154.8924916972
 21
30.5937998301
  0
LINE
  8
0
 62
7
  6
CONTINUOUS
 10
155.5284290869
 20
30.5937998301
 11
155.8174918074
 21
30.5937998301
  0
LINE
  8
0
 62
7
  6
CONTINUOUS
 10
156.279992028
 20
30.5937998301
 11
156.5690540869
 21
30.5937998301
  0
LINE
  8
0
 62
7
  6
CONTINUOUS
 10
157.0315543074
 20
30.5937998301
 11
157.320617028
 21
30.5937998301
  0
LINE
  8
0
 62
7
  6
CONTINUOUS
 10
158.361242028
 20
30.5937998301
 11
158.6503040869
 21
30.5937998301
  0
LINE
  8
0
 62
7
  6
CONTINUOUS
 10
159.922179528
 20
30.5937998301
 11
160.269054528
 21
30.5937998301
  0
LINE
  8
0
 62
7
  6
CONTINUOUS
 10
160.269054528
 20
30.7228545871
 11
159.922179528
 21
30.7228545871
  0
LINE
  8
0
 62
7
  6
CONTINUOUS
 10
154.8924916972
 20
30.7228545871
 11
154.5456166972
 21
30.7228545871
  0
LINE
  8
0
 62
7
  6
CONTINUOUS
 10
159.401867028
 20
30.8519093441
 11
159.1128043074
 21
30.8519093441
  0
LINE
  8
0
 62
7
  6
CONTINUOUS
 10
151.4237418626
 20
30.9164367395
 11
151.1346793074
 21
30.9164367395
  0
LINE
  8
0
 62
7
  6
CONTINUOUS
 10
150.498741835
 20
31.4971831403
 11
150.9034292799
 21
31.4649194539
  0
LINE
  8
0
 62
7
  6
CONTINUOUS
 10
150.9612418074
 20
31.5939741996
 11
150.5565542799
 21
31.626237886
  0
LINE
  8
0
 62
7
  6
CONTINUOUS
 10
159.575304528
 20
30.6260635193
 11
159.922179528
 21
30.5937998301
  0
LINE
  8
0
 62
7
  6
CONTINUOUS
 10
159.922179528
 20
30.7228545871
 11
159.575304528
 21
30.7551182848
  0
LINE
  8
0
 62
7
  6
CONTINUOUS
 10
155.3549915869
 20
31.5939741996
 11
155.0081169177
 21
31.626237886
  0
LINE
  8
0
 62
7
  6
CONTINUOUS
 10
160.1534293074
 20
31.4971831403
 11
160.5003043074
 21
31.4649194539
  0
LINE
  8
0
 62
7
  6
CONTINUOUS
 10
160.5003043074
 20
31.5939741996
 11
160.1534293074
 21
31.626237886
  0
LINE
  8
0
 62
7
  6
CONTINUOUS
 10
157.840929528
 20
31.4971831403
 11
158.0721793074
 21
31.4649194539
  0
LINE
  8
0
 62
7
  6
CONTINUOUS
 10
160.6737418074
 20
31.5617105132
 11
160.5003043074
 21
31.5939741996
  0
LINE
  8
0
 62
7
  6
CONTINUOUS
 10
160.8471793074
 20
30.6905909007
 11
160.9628038663
 21
30.7873819712
  0
LINE
  8
0
 62
7
  6
CONTINUOUS
 10
155.3549915869
 20
30.8841730531
 11
155.1815540869
 21
30.7873819712
  0
LINE
  8
0
 62
7
  6
CONTINUOUS
 10
157.4362415869
 20
31.5294468267
 11
157.320617028
 21
31.4649194539
  0
LINE
  8
0
 62
7
  6
CONTINUOUS
 10
157.320617028
 20
31.3358647082
 11
157.4362415869
 21
31.400392081
  0
LINE
  8
0
 62
7
  6
CONTINUOUS
 10
150.0362418212
 20
31.5617105132
 11
149.8628043005
 21
31.4971831403
  0
LINE
  8
0
 62
7
  6
CONTINUOUS
 10
152.4643666972
 20
31.5939741996
 11
152.2909293626
 21
31.5294468267
  0
LINE
  8
0
 62
7
  6
CONTINUOUS
 10
152.2909293626
 20
31.400392081
 11
152.4643666972
 21
31.4649194539
  0
LINE
  8
0
 62
7
  6
CONTINUOUS
 10
151.0768668626
 20
30.8196456577
 11
150.9034292799
 21
30.7551182848
  0
LINE
  8
0
 62
7
  6
CONTINUOUS
 10
160.5003043074
 20
30.7551182848
 11
160.269054528
 21
30.7228545871
  0
LINE
  8
0
 62
7
  6
CONTINUOUS
 10
154.8924916972
 20
30.5937998301
 11
155.1815540869
 21
30.6260635193
  0
LINE
  8
0
 62
7
  6
CONTINUOUS
 10
160.269054528
 20
30.5937998301
 11
160.615929528
 21
30.6260635193
  0
LINE
  8
0
 62
7
  6
CONTINUOUS
 10
150.5565542799
 20
30.5937998301
 11
150.9612418074
 21
30.6260635193
  0
LINE
  8
0
 62
7
  6
CONTINUOUS
 10
150.9034292799
 20
30.7551182848
 11
150.498741835
 21
30.7228545871
  0
LINE
  8
0
 62
7
  6
CONTINUOUS
 10
154.7768668074
 20
31.1422825445
 11
155.412804528
 21
31.1422825445
  0
LINE
  8
0
 62
7
  6
CONTINUOUS
 10
155.412804528
 20
31.2713373354
 11
154.7768668074
 21
31.2713373354
  0
LINE
  8
0
 62
7
  6
CONTINUOUS
 10
151.1346793074
 20
31.3036010218
 11
151.4237418626
 21
31.3036010218
  0
LINE
  8
0
 62
7
  6
CONTINUOUS
 10
153.9674919177
 20
31.3681283946
 11
154.2565543074
 21
31.3681283946
  0
LINE
  8
0
 62
7
  6
CONTINUOUS
 10
160.6737418074
 20
31.3681283946
 11
160.9628038663
 21
31.3681283946
  0
LINE
  8
0
 62
7
  6
CONTINUOUS
 10
154.6612419177
 20
31.4971831403
 11
155.0081169177
 21
31.4971831403
  0
LINE
  8
0
 62
7
  6
CONTINUOUS
 10
159.8065543074
 20
31.4971831403
 11
160.1534293074
 21
31.4971831403
  0
LINE
  8
0
 62
7
  6
CONTINUOUS
 10
160.1534293074
 20
31.626237886
 11
159.8065543074
 21
31.626237886
  0
LINE
  8
0
 62
7
  6
CONTINUOUS
 10
158.0721793074
 20
31.626237886
 11
157.840929528
 21
31.626237886
  0
LINE
  8
0
 62
7
  6
CONTINUOUS
 10
157.320617028
 20
31.626237886
 11
157.0315543074
 21
31.626237886
  0
LINE
  8
0
 62
7
  6
CONTINUOUS
 10
156.5690540869
 20
31.626237886
 11
156.279992028
 21
31.626237886
  0
LINE
  8
0
 62
7
  6
CONTINUOUS
 10
155.0081169177
 20
31.626237886
 11
154.6612419177
 21
31.626237886
  0
LINE
  8
0
 62
7
  6
CONTINUOUS
 10
152.9268669177
 20
31.626237886
 11
152.6956168074
 21
31.626237886
  0
LINE
  8
0
 62
7
  6
CONTINUOUS
 10
156.279992028
 20
31.9488748406
 11
156.5690540869
 21
31.9488748406
  0
LINE
  8
0
 62
7
  6
CONTINUOUS
 10
156.5690540869
 20
32.1101932727
 11
156.279992028
 21
32.1101932727
  0
LINE
  8
0
 62
7
  6
CONTINUOUS
 10
152.1753043074
 20
32.1101932727
 11
151.8862417523
 21
32.1101932727
  0
LINE
  8
0
 62
7
  6
CONTINUOUS
 10
151.2130860697
 20
32.3970785186
 11
151.6256574183
 21
32.3970785186
  0
LINE
  8
0
 62
7
  6
CONTINUOUS
 10
152.852430332
 20
32.3970785186
 11
154.245872955
 21
32.3970785186
  0
LINE
  8
0
 62
7
  6
CONTINUOUS
 10
154.5737418074
 20
32.3970785186
 11
155.9671844304
 21
32.3970785186
  0
LINE
  8
0
 62
7
  6
CONTINUOUS
 10
157.852430332
 20
32.3970785186
 11
159.245872955
 21
32.3970785186
  0
LINE
  8
0
 62
7
  6
CONTINUOUS
 10
159.5737418074
 20
32.3970785186
 11
160.9671844304
 21
32.3970785186
  0
LINE
  8
0
 62
7
  6
CONTINUOUS
 10
157.6096790869
 20
31.5939741996
 11
157.4362415869
 21
31.5294468267
  0
LINE
  8
0
 62
7
  6
CONTINUOUS
 10
155.1815540869
 20
30.6260635193
 11
155.3549915869
 21
30.6905909007
  0
LINE
  8
0
 62
7
  6
CONTINUOUS
 10
160.615929528
 20
30.6260635193
 11
160.8471793074
 21
30.6905909007
  0
LINE
  8
0
 62
7
  6
CONTINUOUS
 10
160.615929528
 20
30.7873819712
 11
160.5003043074
 21
30.7551182848
  0
LINE
  8
0
 62
7
  6
CONTINUOUS
 10
159.575304528
 20
31.4649194539
 11
159.8065543074
 21
31.4971831403
  0
LINE
  8
0
 62
7
  6
CONTINUOUS
 10
157.6096790869
 20
31.4649194539
 11
157.840929528
 21
31.4971831403
  0
LINE
  8
0
 62
7
  6
CONTINUOUS
 10
154.5456166972
 20
31.1100188581
 11
154.7768668074
 21
31.1422825445
  0
LINE
  8
0
 62
7
  6
CONTINUOUS
 10
157.840929528
 20
31.626237886
 11
157.6096790869
 21
31.5939741996
  0
LINE
  8
0
 62
7
  6
CONTINUOUS
 10
154.4299918074
 20
31.4649194539
 11
154.6612419177
 21
31.4971831403
  0
LINE
  8
0
 62
7
  6
CONTINUOUS
 10
159.8065543074
 20
31.626237886
 11
159.4596793074
 21
31.5939741996
  0
LINE
  8
0
 62
7
  6
CONTINUOUS
 10
154.7768668074
 20
31.2713373354
 11
154.4299918074
 21
31.2390736489
  0
LINE
  8
0
 62
7
  6
CONTINUOUS
 10
150.5565542799
 20
31.626237886
 11
150.2096793212
 21
31.5939741996
  0
LINE
  8
0
 62
7
  6
CONTINUOUS
 10
154.6612419177
 20
31.626237886
 11
154.2565543074
 21
31.5939741996
  0
LINE
  8
0
 62
7
  6
CONTINUOUS
 10
152.0327582009
 20
33.5446195022
 11
151.3770204959
 21
33.5446195022
  0
LINE
  8
0
 62
7
  6
CONTINUOUS
 10
157.4362415869
 20
31.400392081
 11
157.6096790869
 21
31.4649194539
  0
LINE
  8
0
 62
7
  6
CONTINUOUS
 10
159.4596793074
 20
31.4326557675
 11
159.575304528
 21
31.4649194539
  0
LINE
  8
0
 62
7
  6
CONTINUOUS
 10
159.4596793074
 20
31.5939741996
 11
159.228429528
 21
31.5294468267
  0
LINE
  8
0
 62
7
  6
CONTINUOUS
 10
155.1815540869
 20
30.7873819712
 11
154.8924916972
 21
30.7228545871
  0
LINE
  8
0
 62
7
  6
CONTINUOUS
 10
152.4643666972
 20
31.4649194539
 11
152.6956168074
 21
31.4971831403
  0
LINE
  8
0
 62
7
  6
CONTINUOUS
 10
152.6956168074
 20
31.626237886
 11
152.4643666972
 21
31.5939741996
  0
LINE
  8
0
 62
7
  6
CONTINUOUS
 10
150.2674918074
 20
31.4649194539
 11
150.498741835
 21
31.4971831403
  0
LINE
  8
0
 62
7
  6
CONTINUOUS
 10
156.7868565615
 20
35.0200293383
 11
157.4425942664
 21
35.0200293383
  0
LINE
  8
0
 62
7
  6
CONTINUOUS
 10
154.4299918074
 20
31.0777551716
 11
154.5456166972
 21
31.1100188581
  0
LINE
  8
0
 62
7
  6
CONTINUOUS
 10
154.4299918074
 20
31.2390736489
 11
154.1987416972
 21
31.1745462761
  0
LINE
  8
0
 62
7
  6
CONTINUOUS
 10
154.3143669177
 20
31.4326557675
 11
154.4299918074
 21
31.4649194539
  0
LINE
  8
0
 62
7
  6
CONTINUOUS
 10
150.9612418074
 20
30.6260635193
 11
151.1924917523
 21
30.6905909007
  0
LINE
  8
0
 62
7
  6
CONTINUOUS
 10
154.2565543074
 20
31.5939741996
 11
154.1409294177
 21
31.5617105132
  0
LINE
  8
0
 62
7
  6
CONTINUOUS
 10
150.2096793212
 20
31.5939741996
 11
150.0362418212
 21
31.5617105132
  0
LINE
  8
0
 62
7
  6
CONTINUOUS
 10
160.9671844304
 20
36.1675703219
 11
159.5737418074
 21
36.1675703219
  0
LINE
  8
0
 62
7
  6
CONTINUOUS
 10
157.6065286927
 20
36.1675703219
 11
157.1939573441
 21
36.1675703219
  0
LINE
  8
0
 62
7
  6
CONTINUOUS
 10
155.9671844304
 20
36.1675703219
 11
154.5737418074
 21
36.1675703219
  0
LINE
  8
0
 62
7
  6
CONTINUOUS
 10
154.245872955
 20
36.1675703219
 11
152.852430332
 21
36.1675703219
  0
LINE
  8
0
 62
7
  6
CONTINUOUS
 10
150.9671844304
 20
36.1675703219
 11
149.5737418074
 21
36.1675703219
  0
LINE
  8
0
 62
7
  6
CONTINUOUS
 10
150.1518667936
 20
31.4326557675
 11
150.2674918074
 21
31.4649194539
  0
CIRCLE
  8
0
 62
7
  6
CONTINUOUS
 10
160.2704631189
 20
38.5036358957
 40
2.0901639344
  0
ARC
  8
0
 62
7
  6
CONTINUOUS
 10
151.2130860697
 20
34.0364227809
 40
1.6393442623
 50
180.0
 51
270.0
  0
ARC
  8
0
 62
7
  6
CONTINUOUS
 10
157.6065286927
 20
34.5282260596
 40
1.6393442623
 50
0.0
 51
90.0
  0
ARC
  8
0
 62
7
  6
CONTINUOUS
 10
151.6256574183
 20
33.8724883547
 40
1.4754098361
 50
270.0
 51
326.2510114041
  0
ARC
  8
0
 62
7
  6
CONTINUOUS
 10
157.1939573441
 20
34.6921604858
 40
1.4754098361
 50
90.0
 51
146.2510114041
  0
ARC
  8
0
 62
7
  6
CONTINUOUS
 10
152.0327582009
 20
34.3642916334
 40
0.8196721311
 50
270.0
 51
360.0
  0
ARC
  8
0
 62
7
  6
CONTINUOUS
 10
156.7868565615
 20
34.2003572071
 40
0.8196721311
 50
90.0
 51
180.0
  0
ARC
  8
0
 62
7
  6
CONTINUOUS
 10
151.3770204959
 20
33.9544555678
 40
0.4098360656
 50
180.0
 51
270.0
  0
ARC
  8
0
 62
7
  6
CONTINUOUS
 10
157.4425942664
 20
34.6101932727
 40
0.4098360656
 50
0.0
 51
90.0
  0
SOLID
  8
0
 62
7
  6
CONTINUOUS
 10
156.279992028
 20
31.9488752009
 11
156.279992028
 21
32.1101936845
 12
156.5690540869
 22
31.9488752009
 13
156.5690540869
 23
32.1101936845
  0
SOLID
  8
0
 62
7
  6
CONTINUOUS
 10
150.5565542799
 20
31.6262382337
 11
150.9612418074
 21
31.5939740028
 12
150.2096793212
 22
31.5939740028
 13
150.2096793212
 23
31.5939740028
  0
SOLID
  8
0
 62
7
  6
CONTINUOUS
 10
150.0362418212
 20
31.5617111435
 11
150.2096793212
 21
31.5939740028
 12
150.9612418074
 22
31.5939740028
 13
150.9612418074
 23
31.5939740028
  0
SOLID
  8
0
 62
7
  6
CONTINUOUS
 10
150.9612418074
 20
31.5939740028
 11
151.1924917523
 21
31.5294468402
 12
150.0362418212
 22
31.5617111435
 13
150.0362418212
 23
31.5617111435
  0
SOLID
  8
0
 62
7
  6
CONTINUOUS
 10
149.8628043005
 20
31.49718259
 11
150.0362418212
 21
31.5617111435
 12
151.1924917523
 22
31.5294468402
 13
151.1924917523
 23
31.5294468402
  0
SOLID
  8
0
 62
7
  6
CONTINUOUS
 10
149.8628043005
 20
31.49718259
 11
151.1924917523
 21
31.5294468402
 12
150.498741835
 22
31.49718259
 13
150.498741835
 23
31.49718259
  0
SOLID
  8
0
 62
7
  6
CONTINUOUS
 10
150.498741835
 20
31.49718259
 11
151.1924917523
 21
31.5294468402
 12
150.9034292799
 22
31.4649197501
 13
150.9034292799
 23
31.4649197501
  0
SOLID
  8
0
 62
7
  6
CONTINUOUS
 10
151.1924917523
 20
31.5294468402
 11
151.3659292523
 21
31.4326554468
 12
150.9034292799
 22
31.4649197501
 13
150.9034292799
 23
31.4649197501
  0
SOLID
  8
0
 62
7
  6
CONTINUOUS
 10
151.0768668626
 20
31.4003926599
 11
150.9034292799
 21
31.4649197501
 12
151.3659292523
 22
31.4326554468
 13
151.3659292523
 23
31.4326554468
  0
SOLID
  8
0
 62
7
  6
CONTINUOUS
 10
151.0768668626
 20
31.4003926599
 11
151.3659292523
 21
31.4326554468
 12
151.1346793074
 22
31.3036013776
 13
151.1346793074
 23
31.3036013776
  0
SOLID
  8
0
 62
7
  6
CONTINUOUS
 10
151.3659292523
 20
31.4326554468
 11
151.4237418626
 21
31.3036013776
 12
151.1346793074
 22
31.3036013776
 13
151.1346793074
 23
31.3036013776
  0
SOLID
  8
0
 62
7
  6
CONTINUOUS
 10
152.4643666972
 20
31.5939739754
 11
152.6956168074
 21
31.6262382787
 12
152.9268669177
 22
31.6262382787
 13
152.9268669177
 23
31.6262382787
  0
SOLID
  8
0
 62
7
  6
CONTINUOUS
 10
152.9268669177
 20
31.6262382787
 11
153.1003044177
 21
31.5939739754
 12
152.4643666972
 22
31.5939739754
 13
152.4643666972
 23
31.5939739754
  0
SOLID
  8
0
 62
7
  6
CONTINUOUS
 10
152.2909293626
 20
31.5294468852
 11
152.4643666972
 21
31.5939739754
 12
153.1003044177
 22
31.5939739754
 13
153.1003044177
 23
31.5939739754
  0
SOLID
  8
0
 62
7
  6
CONTINUOUS
 10
153.1003044177
 20
31.5939739754
 11
153.2737419177
 21
31.5294468852
 12
152.2909293626
 22
31.5294468852
 13
152.2909293626
 23
31.5294468852
  0
SOLID
  8
0
 62
7
  6
CONTINUOUS
 10
153.2737419177
 20
31.5294468852
 11
152.6956168074
 21
31.4971825369
 12
152.2909293626
 22
31.5294468852
 13
152.2909293626
 23
31.5294468852
  0
SOLID
  8
0
 62
7
  6
CONTINUOUS
 10
152.1753043074
 20
31.4649197951
 11
152.2909293626
 21
31.5294468852
 12
152.6956168074
 22
31.4971825369
 13
152.6956168074
 23
31.4971825369
  0
SOLID
  8
0
 62
7
  6
CONTINUOUS
 10
152.6956168074
 20
31.4971825369
 11
152.4643666972
 21
31.4649197951
 12
152.1753043074
 22
31.4649197951
 13
152.1753043074
 23
31.4649197951
  0
SOLID
  8
0
 62
7
  6
CONTINUOUS
 10
152.6956168074
 20
31.4971825369
 11
153.2737419177
 21
31.5294468852
 12
152.9268669177
 22
31.4649197951
 13
152.9268669177
 23
31.4649197951
  0
SOLID
  8
0
 62
7
  6
CONTINUOUS
 10
153.2737419177
 20
31.5294468852
 11
153.3893668074
 21
31.4649197951
 12
152.9268669177
 22
31.4649197951
 13
152.9268669177
 23
31.4649197951
  0
SOLID
  8
0
 62
7
  6
CONTINUOUS
 10
153.0424918074
 20
31.4326554468
 11
152.9268669177
 21
31.4649197951
 12
153.3893668074
 22
31.4649197951
 13
153.3893668074
 23
31.4649197951
  0
SOLID
  8
0
 62
7
  6
CONTINUOUS
 10
153.3893668074
 20
31.4649197951
 11
153.4471794177
 21
31.4003927049
 12
153.0424918074
 22
31.4326554468
 13
153.0424918074
 23
31.4326554468
  0
SOLID
  8
0
 62
7
  6
CONTINUOUS
 10
153.1581166972
 20
31.3681283566
 11
153.0424918074
 21
31.4326554468
 12
153.4471794177
 22
31.4003927049
 13
153.4471794177
 23
31.4003927049
  0
SOLID
  8
0
 62
7
  6
CONTINUOUS
 10
153.1581166972
 20
31.3681283566
 11
153.4471794177
 21
31.4003927049
 12
153.2159293074
 22
31.2390742213
 13
153.2159293074
 23
31.2390742213
  0
SOLID
  8
0
 62
7
  6
CONTINUOUS
 10
153.4471794177
 20
31.4003927049
 11
153.5049916972
 21
31.2390742213
 12
153.2159293074
 22
31.2390742213
 13
153.2159293074
 23
31.2390742213
  0
SOLID
  8
0
 62
7
  6
CONTINUOUS
 10
152.4643666972
 20
31.4649197951
 11
152.2909293626
 21
31.4003927049
 12
152.1753043074
 22
31.4649197951
 13
152.1753043074
 23
31.4649197951
  0
SOLID
  8
0
 62
7
  6
CONTINUOUS
 10
152.2909293626
 20
31.4003927049
 11
152.1753043074
 21
31.3358640533
 12
152.1753043074
 22
31.4649197951
 13
152.1753043074
 23
31.4649197951
  0
SOLID
  8
0
 62
7
  6
CONTINUOUS
 10
152.1753043074
 20
31.3358640533
 11
151.8862417523
 21
30.5938002869
 12
152.1753043074
 22
31.4649197951
 13
152.1753043074
 23
31.4649197951
  0
SOLID
  8
0
 62
7
  6
CONTINUOUS
 10
152.1753043074
 20
31.4649197951
 11
151.8862417523
 21
30.5938002869
 12
152.1753043074
 22
32.1101937295
 13
152.1753043074
 23
32.1101937295
  0
SOLID
  8
0
 62
7
  6
CONTINUOUS
 10
151.8862417523
 20
30.5938002869
 11
151.8862417523
 21
32.1101937295
 12
152.1753043074
 22
32.1101937295
 13
152.1753043074
 23
32.1101937295
  0
SOLID
  8
0
 62
7
  6
CONTINUOUS
 10
152.1753043074
 20
31.3358640533
 11
152.1753043074
 21
30.5938002869
 12
151.8862417523
 22
30.5938002869
 13
151.8862417523
 23
30.5938002869
  0
SOLID
  8
0
 62
7
  6
CONTINUOUS
 10
153.2159293074
 20
30.5938002869
 11
153.2159293074
 21
31.2390742213
 12
153.5049916972
 22
31.2390742213
 13
153.5049916972
 23
31.2390742213
  0
SOLID
  8
0
 62
7
  6
CONTINUOUS
 10
153.5049916972
 20
31.2390742213
 11
153.5049916972
 21
30.5938002869
 12
153.2159293074
 22
30.5938002869
 13
153.2159293074
 23
30.5938002869
  0
SOLID
  8
0
 62
7
  6
CONTINUOUS
 10
154.2565543074
 20
31.5939738288
 11
154.6612419177
 21
31.6262385959
 12
155.0081169177
 22
31.6262385959
 13
155.0081169177
 23
31.6262385959
  0
SOLID
  8
0
 62
7
  6
CONTINUOUS
 10
155.0081169177
 20
31.6262385959
 11
155.3549915869
 21
31.5939738288
 12
154.2565543074
 22
31.5939738288
 13
154.2565543074
 23
31.5939738288
  0
SOLID
  8
0
 62
7
  6
CONTINUOUS
 10
154.1409294177
 20
31.5617111435
 11
154.2565543074
 21
31.5939738288
 12
155.3549915869
 22
31.5939738288
 13
155.3549915869
 23
31.5939738288
  0
SOLID
  8
0
 62
7
  6
CONTINUOUS
 10
155.3549915869
 20
31.5939738288
 11
155.5284290869
 21
31.5294468402
 12
154.1409294177
 22
31.5617111435
 13
154.1409294177
 23
31.5617111435
  0
SOLID
  8
0
 62
7
  6
CONTINUOUS
 10
154.0253041972
 20
31.4971826249
 11
154.1409294177
 21
31.5617111435
 12
155.5284290869
 22
31.5294468402
 13
155.5284290869
 23
31.5294468402
  0
SOLID
  8
0
 62
7
  6
CONTINUOUS
 10
154.0253041972
 20
31.4971826249
 11
155.5284290869
 21
31.5294468402
 12
154.6612419177
 22
31.4971826249
 13
154.6612419177
 23
31.4971826249
  0
SOLID
  8
0
 62
7
  6
CONTINUOUS
 10
154.6612419177
 20
31.4971826249
 11
155.5284290869
 21
31.5294468402
 12
155.0081169177
 22
31.4971826249
 13
155.0081169177
 23
31.4971826249
  0
SOLID
  8
0
 62
7
  6
CONTINUOUS
 10
155.0081169177
 20
31.4971826249
 11
155.5284290869
 21
31.5294468402
 12
155.239367028
 22
31.4649194065
 13
155.239367028
 23
31.4649194065
  0
SOLID
  8
0
 62
7
  6
CONTINUOUS
 10
155.5284290869
 20
31.5294468402
 11
155.6440543074
 21
31.4649194065
 12
155.239367028
 22
31.4649194065
 13
155.239367028
 23
31.4649194065
  0
SOLID
  8
0
 62
7
  6
CONTINUOUS
 10
153.9674919177
 20
31.4326554138
 11
154.0253041972
 21
31.4971826249
 12
154.6612419177
 22
31.4971826249
 13
154.6612419177
 23
31.4971826249
  0
SOLID
  8
0
 62
7
  6
CONTINUOUS
 10
155.3549915869
 20
31.4326554138
 11
155.239367028
 21
31.4649194065
 12
155.6440543074
 22
31.4649194065
 13
155.6440543074
 23
31.4649194065
  0
SOLID
  8
0
 62
7
  6
CONTINUOUS
 10
155.3549915869
 20
31.4326554138
 11
155.6440543074
 21
31.4649194065
 12
155.412804528
 22
31.3681282026
 13
155.412804528
 23
31.3681282026
  0
SOLID
  8
0
 62
7
  6
CONTINUOUS
 10
155.6440543074
 20
31.4649194065
 11
155.7018665869
 21
31.3681282026
 12
155.412804528
 22
31.3681282026
 13
155.412804528
 23
31.3681282026
  0
SOLID
  8
0
 62
7
  6
CONTINUOUS
 10
155.412804528
 20
31.2713369632
 11
155.412804528
 21
31.3681282026
 12
155.7018665869
 22
31.3681282026
 13
155.7018665869
 23
31.3681282026
  0
SOLID
  8
0
 62
7
  6
CONTINUOUS
 10
155.412804528
 20
31.2713369632
 11
155.7018665869
 21
31.3681282026
 12
155.412804528
 22
31.1422827828
 13
155.412804528
 23
31.1422827828
  0
SOLID
  8
0
 62
7
  6
CONTINUOUS
 10
155.412804528
 20
31.1422827828
 11
155.7018665869
 21
31.3681282026
 12
155.412804528
 22
30.9487004259
 13
155.412804528
 23
30.9487004259
  0
SOLID
  8
0
 62
7
  6
CONTINUOUS
 10
155.7018665869
 20
31.3681282026
 11
155.7018665869
 21
30.8519086025
 12
155.412804528
 22
30.9487004259
 13
155.412804528
 23
30.9487004259
  0
SOLID
  8
0
 62
7
  6
CONTINUOUS
 10
157.6096790869
 20
31.5939736268
 11
157.840929528
 21
31.6262383465
 12
158.0721793074
 22
31.6262383465
 13
158.0721793074
 23
31.6262383465
  0
SOLID
  8
0
 62
7
  6
CONTINUOUS
 10
158.0721793074
 20
31.6262383465
 11
158.2456168074
 21
31.5939736268
 12
157.6096790869
 22
31.5939736268
 13
157.6096790869
 23
31.5939736268
  0
SOLID
  8
0
 62
7
  6
CONTINUOUS
 10
157.4362415869
 20
31.5294472848
 11
157.6096790869
 21
31.5939736268
 12
158.2456168074
 22
31.5939736268
 13
158.2456168074
 23
31.5939736268
  0
SOLID
  8
0
 62
7
  6
CONTINUOUS
 10
158.2456168074
 20
31.5939736268
 11
158.4190543074
 21
31.5294472848
 12
157.4362415869
 22
31.5294472848
 13
157.4362415869
 23
31.5294472848
  0
SOLID
  8
0
 62
7
  6
CONTINUOUS
 10
158.4190543074
 20
31.5294472848
 11
157.840929528
 21
31.4971825369
 12
157.4362415869
 22
31.5294472848
 13
157.4362415869
 23
31.5294472848
  0
SOLID
  8
0
 62
7
  6
CONTINUOUS
 10
157.320617028
 20
31.4649199103
 11
157.4362415869
 21
31.5294472848
 12
157.840929528
 22
31.4971825369
 13
157.840929528
 23
31.4971825369
  0
SOLID
  8
0
 62
7
  6
CONTINUOUS
 10
157.840929528
 20
31.4971825369
 11
157.6096790869
 21
31.4649199103
 12
157.320617028
 22
31.4649199103
 13
157.320617028
 23
31.4649199103
  0
SOLID
  8
0
 62
7
  6
CONTINUOUS
 10
157.840929528
 20
31.4971825369
 11
158.4190543074
 21
31.5294472848
 12
158.0721793074
 22
31.4649199103
 13
158.0721793074
 23
31.4649199103
  0
SOLID
  8
0
 62
7
  6
CONTINUOUS
 10
158.4190543074
 20
31.5294472848
 11
158.534679528
 21
31.4649199103
 12
158.0721793074
 22
31.4649199103
 13
158.0721793074
 23
31.4649199103
  0
SOLID
  8
0
 62
7
  6
CONTINUOUS
 10
158.187804528
 20
31.4326554468
 11
158.0721793074
 21
31.4649199103
 12
158.534679528
 22
31.4649199103
 13
158.534679528
 23
31.4649199103
  0
SOLID
  8
0
 62
7
  6
CONTINUOUS
 10
158.187804528
 20
31.4326554468
 11
158.534679528
 21
31.4649199103
 12
158.3034290869
 22
31.3681288486
 13
158.3034290869
 23
31.3681288486
  0
SOLID
  8
0
 62
7
  6
CONTINUOUS
 10
158.534679528
 20
31.4649199103
 11
158.5924918074
 21
31.3681288486
 12
158.3034290869
 22
31.3681288486
 13
158.3034290869
 23
31.3681288486
  0
SOLID
  8
0
 62
7
  6
CONTINUOUS
 10
158.361242028
 20
31.2068093799
 11
158.3034290869
 21
31.3681288486
 12
158.5924918074
 22
31.3681288486
 13
158.5924918074
 23
31.3681288486
  0
SOLID
  8
0
 62
7
  6
CONTINUOUS
 10
158.5924918074
 20
31.3681288486
 11
158.6503040869
 21
31.2068093799
 12
158.361242028
 22
31.2068093799
 13
158.361242028
 23
31.2068093799
  0
SOLID
  8
0
 62
7
  6
CONTINUOUS
 10
157.6096790869
 20
31.4649199103
 11
157.4362415869
 21
31.4003926599
 12
157.320617028
 22
31.4649199103
 13
157.320617028
 23
31.4649199103
  0
SOLID
  8
0
 62
7
  6
CONTINUOUS
 10
157.4362415869
 20
31.4003926599
 11
157.320617028
 21
31.3358640533
 12
157.320617028
 22
31.4649199103
 13
157.320617028
 23
31.4649199103
  0
SOLID
  8
0
 62
7
  6
CONTINUOUS
 10
157.320617028
 20
31.3358640533
 11
157.0315543074
 21
30.5938003547
 12
157.320617028
 22
31.4649199103
 13
157.320617028
 23
31.4649199103
  0
SOLID
  8
0
 62
7
  6
CONTINUOUS
 10
157.320617028
 20
31.4649199103
 11
157.0315543074
 21
30.5938003547
 12
157.320617028
 22
31.6262383465
 13
157.320617028
 23
31.6262383465
  0
SOLID
  8
0
 62
7
  6
CONTINUOUS
 10
157.0315543074
 20
30.5938003547
 11
157.0315543074
 21
31.6262383465
 12
157.320617028
 22
31.6262383465
 13
157.320617028
 23
31.6262383465
  0
SOLID
  8
0
 62
7
  6
CONTINUOUS
 10
157.320617028
 20
31.3358640533
 11
157.320617028
 21
30.5938003547
 12
157.0315543074
 22
30.5938003547
 13
157.0315543074
 23
30.5938003547
  0
SOLID
  8
0
 62
7
  6
CONTINUOUS
 10
158.361242028
 20
30.5938003547
 11
158.361242028
 21
31.2068093799
 12
158.6503040869
 22
31.2068093799
 13
158.6503040869
 23
31.2068093799
  0
SOLID
  8
0
 62
7
  6
CONTINUOUS
 10
158.6503040869
 20
31.2068093799
 11
158.6503040869
 21
30.5938003547
 12
158.361242028
 22
30.5938003547
 13
158.361242028
 23
30.5938003547
  0
SOLID
  8
0
 62
7
  6
CONTINUOUS
 10
159.4596793074
 20
31.5939739474
 11
159.8065543074
 21
31.6262381969
 12
160.1534293074
 22
31.6262381969
 13
160.1534293074
 23
31.6262381969
  0
SOLID
  8
0
 62
7
  6
CONTINUOUS
 10
160.1534293074
 20
31.6262381969
 11
160.5003043074
 21
31.5939739474
 12
159.4596793074
 22
31.5939739474
 13
159.4596793074
 23
31.5939739474
  0
SOLID
  8
0
 62
7
  6
CONTINUOUS
 10
159.228429528
 20
31.5294468402
 11
159.4596793074
 21
31.5939739474
 12
160.5003043074
 22
31.5939739474
 13
160.5003043074
 23
31.5939739474
  0
SOLID
  8
0
 62
7
  6
CONTINUOUS
 10
159.228429528
 20
31.5294468402
 11
160.5003043074
 21
31.5939739304
 12
160.6737418074
 22
31.5617111435
 13
160.6737418074
 23
31.5617111435
  0
SOLID
  8
0
 62
7
  6
CONTINUOUS
 10
159.228429528
 20
31.5294468402
 11
160.6737418074
 21
31.5617111435
 12
159.8065543074
 22
31.4971825592
 13
159.8065543074
 23
31.4971825592
  0
SOLID
  8
0
 62
7
  6
CONTINUOUS
 10
159.8065543074
 20
31.4971825592
 11
160.6737418074
 21
31.5617111435
 12
160.1534293074
 22
31.4971825592
 13
160.1534293074
 23
31.4971825592
  0
SOLID
  8
0
 62
7
  6
CONTINUOUS
 10
160.6737418074
 20
31.5617111435
 11
160.8471793074
 21
31.4971825592
 12
160.1534293074
 22
31.4971825592
 13
160.1534293074
 23
31.4971825592
  0
SOLID
  8
0
 62
7
  6
CONTINUOUS
 10
160.5003043074
 20
31.4649197501
 11
160.1534293074
 21
31.4971825592
 12
160.8471793074
 22
31.4971825592
 13
160.8471793074
 23
31.4971825592
  0
SOLID
  8
0
 62
7
  6
CONTINUOUS
 10
159.1128043074
 20
31.4326555427
 11
159.228429528
 21
31.5294468402
 12
159.8065543074
 22
31.4971825592
 13
159.8065543074
 23
31.4971825592
  0
SOLID
  8
0
 62
7
  6
CONTINUOUS
 10
160.5003043074
 20
31.4649197501
 11
160.8471793074
 21
31.4971825592
 12
160.615929528
 22
31.4326555427
 13
160.615929528
 23
31.4326555427
  0
SOLID
  8
0
 62
7
  6
CONTINUOUS
 10
160.615929528
 20
31.4326555427
 11
160.8471793074
 21
31.4971825592
 12
160.6737418074
 22
31.3681283005
 13
160.6737418074
 23
31.3681283005
  0
SOLID
  8
0
 62
7
  6
CONTINUOUS
 10
160.8471793074
 20
31.4971825592
 11
160.9628038663
 21
31.3681283005
 12
160.6737418074
 22
31.3681283005
 13
160.6737418074
 23
31.3681283005
  0
SOLID
  8
0
 62
7
  6
CONTINUOUS
 10
150.2674918074
 20
31.4649197501
 11
149.7471793074
 21
31.4326554237
 12
150.498741835
 22
31.4971824493
 13
150.498741835
 23
31.4971824493
  0
SOLID
  8
0
 62
7
  6
CONTINUOUS
 10
149.7471793074
 20
31.4326554237
 11
149.8628043005
 21
31.4971824493
 12
150.498741835
 22
31.4971824493
 13
150.498741835
 23
31.4971824493
  0
SOLID
  8
0
 62
7
  6
CONTINUOUS
 10
150.2674918074
 20
31.4649197501
 11
150.1518667936
 21
31.4326554237
 12
149.7471793074
 22
31.4326554237
 13
149.7471793074
 23
31.4326554237
  0
SOLID
  8
0
 62
7
  6
CONTINUOUS
 10
149.6315543091
 20
31.3036012664
 11
149.7471793074
 21
31.4326554237
 12
150.1518667936
 22
31.4326554237
 13
150.1518667936
 23
31.4326554237
  0
SOLID
  8
0
 62
7
  6
CONTINUOUS
 10
153.9674919177
 20
31.4326554237
 11
154.6612419177
 21
31.4971825369
 12
154.4299918074
 22
31.4649197501
 13
154.4299918074
 23
31.4649197501
  0
SOLID
  8
0
 62
7
  6
CONTINUOUS
 10
154.4299918074
 20
31.4649197501
 11
154.3143669177
 21
31.4326554237
 12
153.9674919177
 22
31.4326554237
 13
153.9674919177
 23
31.4326554237
  0
SOLID
  8
0
 62
7
  6
CONTINUOUS
 10
153.9674919177
 20
31.3681283335
 11
153.9674919177
 21
31.4326554237
 12
154.3143669177
 22
31.4326554237
 13
154.3143669177
 23
31.4326554237
  0
SOLID
  8
0
 62
7
  6
CONTINUOUS
 10
154.3143669177
 20
31.4326554237
 11
154.2565543074
 21
31.3681283335
 12
153.9674919177
 22
31.3681283335
 13
153.9674919177
 23
31.3681283335
  0
SOLID
  8
0
 62
7
  6
CONTINUOUS
 10
159.1128043074
 20
31.4326555528
 11
159.8065543074
 21
31.4971825369
 12
159.575304528
 22
31.4649197501
 13
159.575304528
 23
31.4649197501
  0
SOLID
  8
0
 62
7
  6
CONTINUOUS
 10
159.575304528
 20
31.4649197501
 11
159.4596793074
 21
31.4326555528
 12
159.1128043074
 22
31.4326555528
 13
159.1128043074
 23
31.4326555528
  0
SOLID
  8
0
 62
7
  6
CONTINUOUS
 10
159.1128043074
 20
31.3681284626
 11
159.1128043074
 21
31.4326555528
 12
159.4596793074
 22
31.4326555528
 13
159.4596793074
 23
31.4326555528
  0
SOLID
  8
0
 62
7
  6
CONTINUOUS
 10
159.4596793074
 20
31.4326555528
 11
159.401867028
 21
31.3681284626
 12
159.1128043074
 22
31.3681284626
 13
159.1128043074
 23
31.3681284626
  0
SOLID
  8
0
 62
7
  6
CONTINUOUS
 10
159.228429528
 20
31.2390741763
 11
159.1128043074
 21
31.3681284626
 12
159.401867028
 22
31.3681284626
 13
159.401867028
 23
31.3681284626
  0
SOLID
  8
0
 62
7
  6
CONTINUOUS
 10
149.6315543091
 20
31.3036012664
 11
150.1518667936
 21
31.4326554468
 12
149.9784292936
 22
31.3358640533
 13
149.9784292936
 23
31.3358640533
  0
SOLID
  8
0
 62
7
  6
CONTINUOUS
 10
149.9784292936
 20
31.3358640533
 11
149.9206168074
 21
31.2713369632
 12
149.6315543091
 22
31.3036012664
 13
149.6315543091
 23
31.3036012664
  0
SOLID
  8
0
 62
7
  6
CONTINUOUS
 10
149.5737418074
 20
31.1100184796
 11
149.6315543091
 21
31.3036012664
 12
149.9206168074
 22
31.2713369632
 13
149.9206168074
 23
31.2713369632
  0
SOLID
  8
0
 62
7
  6
CONTINUOUS
 10
154.4299918074
 20
31.2390741763
 11
154.7768668074
 21
31.271336924
 12
155.412804528
 22
31.271336924
 13
155.412804528
 23
31.271336924
  0
SOLID
  8
0
 62
7
  6
CONTINUOUS
 10
154.4299918074
 20
31.2390741763
 11
155.412804528
 21
31.271336924
 12
154.1987416972
 22
31.1745462761
 13
154.1987416972
 23
31.1745462761
  0
SOLID
  8
0
 62
7
  6
CONTINUOUS
 10
154.1987416972
 20
31.1745462761
 11
155.412804528
 21
31.271336924
 12
154.7768668074
 22
31.1422827436
 13
154.7768668074
 23
31.1422827436
  0
SOLID
  8
0
 62
7
  6
CONTINUOUS
 10
155.412804528
 20
31.271336924
 11
155.412804528
 21
31.1422827436
 12
154.7768668074
 22
31.1422827436
 13
154.7768668074
 23
31.1422827436
  0
SOLID
  8
0
 62
7
  6
CONTINUOUS
 10
159.228429528
 20
31.2390745501
 11
159.401867028
 21
31.3681283566
 12
159.4596793074
 22
31.3036012664
 13
159.4596793074
 23
31.3036012664
  0
SOLID
  8
0
 62
7
  6
CONTINUOUS
 10
159.4596793074
 20
31.3036012664
 11
159.6331168074
 21
31.2390745501
 12
159.228429528
 22
31.2390745501
 13
159.228429528
 23
31.2390745501
  0
SOLID
  8
0
 62
7
  6
CONTINUOUS
 10
159.4596793074
 20
31.1422827828
 11
159.228429528
 21
31.2390745501
 12
159.6331168074
 22
31.2390745501
 13
159.6331168074
 23
31.2390745501
  0
SOLID
  8
0
 62
7
  6
CONTINUOUS
 10
159.6331168074
 20
31.2390745501
 11
160.615929528
 21
31.0777556927
 12
159.4596793074
 22
31.1422827828
 13
159.4596793074
 23
31.1422827828
  0
SOLID
  8
0
 62
7
  6
CONTINUOUS
 10
160.442492028
 20
30.9809646623
 11
159.4596793074
 21
31.1422827828
 12
160.615929528
 22
31.0777556927
 13
160.615929528
 23
31.0777556927
  0
SOLID
  8
0
 62
7
  6
CONTINUOUS
 10
160.615929528
 20
31.0777556927
 11
160.8471793074
 21
30.9809646623
 12
160.442492028
 22
30.9809646623
 13
160.442492028
 23
30.9809646623
  0
SOLID
  8
0
 62
7
  6
CONTINUOUS
 10
160.615929528
 20
30.9164372091
 11
160.442492028
 21
30.9809646623
 12
160.8471793074
 22
30.9809646623
 13
160.8471793074
 23
30.9809646623
  0
SOLID
  8
0
 62
7
  6
CONTINUOUS
 10
160.615929528
 20
30.9164372091
 11
160.8471793074
 21
30.9809646623
 12
160.6737418074
 22
30.8519089441
 13
160.6737418074
 23
30.8519089441
  0
SOLID
  8
0
 62
7
  6
CONTINUOUS
 10
160.8471793074
 20
30.9809646623
 11
160.9628038663
 21
30.8519089441
 12
160.6737418074
 22
30.8519089441
 13
160.6737418074
 23
30.8519089441
  0
SOLID
  8
0
 62
7
  6
CONTINUOUS
 10
160.615929528
 20
30.7873818593
 11
160.6737418074
 21
30.8519089441
 12
160.9628038663
 22
30.8519089441
 13
160.9628038663
 23
30.8519089441
  0
SOLID
  8
0
 62
7
  6
CONTINUOUS
 10
160.9628038663
 20
30.8519089441
 11
160.9628038663
 21
30.7873818593
 12
160.615929528
 22
30.7873818593
 13
160.615929528
 23
30.7873818593
  0
SOLID
  8
0
 62
7
  6
CONTINUOUS
 10
160.5003043074
 20
30.7551187255
 11
160.615929528
 21
30.7873818593
 12
160.9628038663
 22
30.7873818593
 13
160.9628038663
 23
30.7873818593
  0
SOLID
  8
0
 62
7
  6
CONTINUOUS
 10
160.5003043074
 20
30.7551187255
 11
160.9628038663
 21
30.7873818593
 12
160.269054528
 22
30.7228547745
 13
160.269054528
 23
30.7228547745
  0
SOLID
  8
0
 62
7
  6
CONTINUOUS
 10
160.9628038663
 20
30.7873818593
 11
160.8471793074
 21
30.6905916353
 12
160.269054528
 22
30.7228547745
 13
160.269054528
 23
30.7228547745
  0
SOLID
  8
0
 62
7
  6
CONTINUOUS
 10
160.8471793074
 20
30.6905916353
 11
159.401867028
 21
30.658327332
 12
160.269054528
 22
30.7228547745
 13
160.269054528
 23
30.7228547745
  0
SOLID
  8
0
 62
7
  6
CONTINUOUS
 10
160.269054528
 20
30.7228547745
 11
159.401867028
 21
30.658327332
 12
159.922179528
 22
30.7228547745
 13
159.922179528
 23
30.7228547745
  0
SOLID
  8
0
 62
7
  6
CONTINUOUS
 10
159.401867028
 20
30.658327332
 11
159.228429528
 21
30.7228547745
 12
159.922179528
 22
30.7228547745
 13
159.922179528
 23
30.7228547745
  0
SOLID
  8
0
 62
7
  6
CONTINUOUS
 10
159.401867028
 20
30.658327332
 11
160.8471793074
 21
30.6905916353
 12
159.575304528
 22
30.6260629858
 13
159.575304528
 23
30.6260629858
  0
SOLID
  8
0
 62
7
  6
CONTINUOUS
 10
160.8471793074
 20
30.6905916353
 11
160.615929528
 21
30.6260629858
 12
159.575304528
 22
30.6260629858
 13
159.575304528
 23
30.6260629858
  0
SOLID
  8
0
 62
7
  6
CONTINUOUS
 10
159.922179528
 20
30.5938006049
 11
159.575304528
 21
30.6260629858
 12
160.615929528
 22
30.6260629858
 13
160.615929528
 23
30.6260629858
  0
SOLID
  8
0
 62
7
  6
CONTINUOUS
 10
160.615929528
 20
30.6260629858
 11
160.269054528
 21
30.5938006049
 12
159.922179528
 22
30.5938006049
 13
159.922179528
 23
30.5938006049
  0
SOLID
  8
0
 62
7
  6
CONTINUOUS
 10
149.5737418074
 20
31.1100184796
 11
149.9206168074
 21
31.2713369632
 12
149.8628043005
 22
31.1422827828
 13
149.8628043005
 23
31.1422827828
  0
SOLID
  8
0
 62
7
  6
CONTINUOUS
 10
149.8628043005
 20
31.1422827828
 11
149.8628043005
 21
31.0454914852
 12
149.5737418074
 22
31.1100184796
 13
149.5737418074
 23
31.1100184796
  0
SOLID
  8
0
 62
7
  6
CONTINUOUS
 10
149.6315543091
 20
30.9164372091
 11
149.5737418074
 21
31.1100184796
 12
149.8628043005
 22
31.0454914852
 13
149.8628043005
 23
31.0454914852
  0
SOLID
  8
0
 62
7
  6
CONTINUOUS
 10
149.8628043005
 20
31.0454914852
 11
149.9784292936
 21
30.8841729058
 12
149.6315543091
 22
30.9164372091
 13
149.6315543091
 23
30.9164372091
  0
SOLID
  8
0
 62
7
  6
CONTINUOUS
 10
149.7471793074
 20
30.7873813202
 11
149.6315543091
 21
30.9164372091
 12
149.9784292936
 22
30.8841729058
 13
149.9784292936
 23
30.8841729058
  0
SOLID
  8
0
 62
7
  6
CONTINUOUS
 10
149.9784292936
 20
30.8841729058
 11
150.1518667936
 21
30.7873813202
 12
149.7471793074
 22
30.7873813202
 13
149.7471793074
 23
30.7873813202
  0
SOLID
  8
0
 62
7
  6
CONTINUOUS
 10
149.8628043005
 20
30.7228547004
 11
149.7471793074
 21
30.7873813202
 12
150.1518667936
 22
30.7873813202
 13
150.1518667936
 23
30.7873813202
  0
SOLID
  8
0
 62
7
  6
CONTINUOUS
 10
150.1518667936
 20
30.7873813202
 11
150.498741835
 21
30.7228547004
 12
149.8628043005
 22
30.7228547004
 13
149.8628043005
 23
30.7228547004
  0
SOLID
  8
0
 62
7
  6
CONTINUOUS
 10
150.0362418212
 20
30.658327332
 11
149.8628043005
 21
30.7228547004
 12
150.498741835
 22
30.7228547004
 13
150.498741835
 23
30.7228547004
  0
SOLID
  8
0
 62
7
  6
CONTINUOUS
 10
154.0831168074
 20
31.1100184386
 11
154.1987416972
 21
31.1745462761
 12
154.7768668074
 22
31.1422827828
 13
154.7768668074
 23
31.1422827828
  0
SOLID
  8
0
 62
7
  6
CONTINUOUS
 10
154.7768668074
 20
31.1422827828
 11
154.5456166972
 21
31.1100184386
 12
154.0831168074
 22
31.1100184386
 13
154.0831168074
 23
31.1100184386
  0
SOLID
  8
0
 62
7
  6
CONTINUOUS
 10
153.9674919177
 20
30.9809642992
 11
154.0831168074
 21
31.1100184386
 12
154.5456166972
 22
31.1100184386
 13
154.5456166972
 23
31.1100184386
  0
SOLID
  8
0
 62
7
  6
CONTINUOUS
 10
154.3143669177
 20
31.0132277988
 11
153.9674919177
 21
30.9809642992
 12
154.4299918074
 22
31.0777556927
 13
154.4299918074
 23
31.0777556927
  0
SOLID
  8
0
 62
7
  6
CONTINUOUS
 10
153.9674919177
 20
30.9809642992
 11
154.5456166972
 21
31.1100184796
 12
154.4299918074
 22
31.0777556927
 13
154.4299918074
 23
31.0777556927
  0
SOLID
  8
0
 62
7
  6
CONTINUOUS
 10
154.3143669177
 20
31.0132277988
 11
154.2565543074
 21
30.9164372091
 12
153.9674919177
 22
30.9809642992
 13
153.9674919177
 23
30.9809642992
  0
SOLID
  8
0
 62
7
  6
CONTINUOUS
 10
153.9674919177
 20
30.8841729058
 11
153.9674919177
 21
30.9809642992
 12
154.2565543074
 22
30.9164372091
 13
154.2565543074
 23
30.9164372091
  0
SOLID
  8
0
 62
7
  6
CONTINUOUS
 10
154.2565543074
 20
30.9164372091
 11
154.2565543074
 21
30.8519086025
 12
153.9674919177
 22
30.8841729058
 13
153.9674919177
 23
30.8841729058
  0
SOLID
  8
0
 62
7
  6
CONTINUOUS
 10
154.0253041972
 20
30.7551187255
 11
153.9674919177
 21
30.8841729058
 12
154.2565543074
 22
30.8519086025
 13
154.2565543074
 23
30.8519086025
  0
SOLID
  8
0
 62
7
  6
CONTINUOUS
 10
155.412804528
 20
30.9487004259
 11
155.7018665869
 21
30.8519086025
 12
155.3549915869
 22
30.8841729058
 13
155.3549915869
 23
30.8841729058
  0
SOLID
  8
0
 62
7
  6
CONTINUOUS
 10
155.1815540869
 20
30.7873815123
 11
155.3549915869
 21
30.8841729058
 12
155.7018665869
 22
30.8519086025
 13
155.7018665869
 23
30.8519086025
  0
SOLID
  8
0
 62
7
  6
CONTINUOUS
 10
155.1815540869
 20
30.7873815123
 11
155.7018665869
 21
30.8519086025
 12
155.412804528
 22
30.7551187255
 13
155.412804528
 23
30.7551187255
  0
SOLID
  8
0
 62
7
  6
CONTINUOUS
 10
155.7018665869
 20
30.8519086025
 11
155.759679528
 21
30.6905916353
 12
155.412804528
 22
30.7551187255
 13
155.412804528
 23
30.7551187255
  0
SOLID
  8
0
 62
7
  6
CONTINUOUS
 10
155.4706168074
 20
30.658327332
 11
155.412804528
 21
30.7551187255
 12
155.759679528
 22
30.6905916353
 13
155.759679528
 23
30.6905916353
  0
SOLID
  8
0
 62
7
  6
CONTINUOUS
 10
155.4706168074
 20
30.658327332
 11
155.759679528
 21
30.6905916353
 12
155.5284290869
 22
30.5938002079
 13
155.5284290869
 23
30.5938002079
  0
SOLID
  8
0
 62
7
  6
CONTINUOUS
 10
155.759679528
 20
30.6905916353
 11
155.8174918074
 21
30.5938002079
 12
155.5284290869
 22
30.5938002079
 13
155.5284290869
 23
30.5938002079
  0
SOLID
  8
0
 62
7
  6
CONTINUOUS
 10
151.0768668626
 20
30.8196456577
 11
151.1346793074
 21
30.9164373395
 12
151.4237418626
 22
30.9164373395
 13
151.4237418626
 23
30.9164373395
  0
SOLID
  8
0
 62
7
  6
CONTINUOUS
 10
151.4237418626
 20
30.9164373395
 11
151.3659292523
 21
30.7873815123
 12
151.0768668626
 22
30.8196456577
 13
151.0768668626
 23
30.8196456577
  0
SOLID
  8
0
 62
7
  6
CONTINUOUS
 10
150.9034292799
 20
30.7551187255
 11
151.0768668626
 21
30.8196456577
 12
151.3659292523
 22
30.7873815123
 13
151.3659292523
 23
30.7873815123
  0
SOLID
  8
0
 62
7
  6
CONTINUOUS
 10
150.9034292799
 20
30.7551187255
 11
151.3659292523
 21
30.7873815123
 12
150.498741835
 22
30.7228544222
 13
150.498741835
 23
30.7228544222
  0
SOLID
  8
0
 62
7
  6
CONTINUOUS
 10
151.3659292523
 20
30.7873815123
 11
151.1924917523
 21
30.6905916353
 12
150.498741835
 22
30.7228544222
 13
150.498741835
 23
30.7228544222
  0
SOLID
  8
0
 62
7
  6
CONTINUOUS
 10
150.0362418212
 20
30.658327332
 11
150.498741835
 21
30.7228544222
 12
151.1924917523
 22
30.6905916353
 13
151.1924917523
 23
30.6905916353
  0
SOLID
  8
0
 62
7
  6
CONTINUOUS
 10
150.0362418212
 20
30.658327332
 11
151.1924917523
 21
30.6905916353
 12
150.2096793212
 22
30.6260631011
 13
150.2096793212
 23
30.6260631011
  0
SOLID
  8
0
 62
7
  6
CONTINUOUS
 10
151.1924917523
 20
30.6905916353
 11
150.9612418074
 21
30.6260631011
 12
150.2096793212
 22
30.6260631011
 13
150.2096793212
 23
30.6260631011
  0
SOLID
  8
0
 62
7
  6
CONTINUOUS
 10
150.5565542799
 20
30.5938002419
 11
150.2096793212
 21
30.6260631011
 12
150.9612418074
 22
30.6260631011
 13
150.9612418074
 23
30.6260631011
  0
SOLID
  8
0
 62
7
  6
CONTINUOUS
 10
154.0253041972
 20
30.7551187255
 11
154.2565543074
 21
30.8519086025
 12
154.3143669177
 22
30.7873815123
 13
154.3143669177
 23
30.7873815123
  0
SOLID
  8
0
 62
7
  6
CONTINUOUS
 10
154.3143669177
 20
30.7873815123
 11
154.5456166972
 21
30.7228544222
 12
154.0253041972
 22
30.7551187255
 13
154.0253041972
 23
30.7551187255
  0
SOLID
  8
0
 62
7
  6
CONTINUOUS
 10
154.1987416972
 20
30.658327332
 11
154.0253041972
 21
30.7551187255
 12
154.5456166972
 22
30.7228544222
 13
154.5456166972
 23
30.7228544222
  0
SOLID
  8
0
 62
7
  6
CONTINUOUS
 10
154.8924916972
 20
30.7228544637
 11
155.1815540869
 21
30.7873815123
 12
155.412804528
 22
30.7551187255
 13
155.412804528
 23
30.7551187255
  0
SOLID
  8
0
 62
7
  6
CONTINUOUS
 10
155.412804528
 20
30.7551187255
 11
155.3549915869
 21
30.6905916353
 12
154.8924916972
 22
30.7228544637
 13
154.8924916972
 23
30.7228544637
  0
SOLID
  8
0
 62
7
  6
CONTINUOUS
 10
155.3549915869
 20
30.6905916353
 11
154.1987416972
 21
30.658327332
 12
154.8924916972
 22
30.7228544637
 13
154.8924916972
 23
30.7228544637
  0
SOLID
  8
0
 62
7
  6
CONTINUOUS
 10
154.1987416972
 20
30.658327332
 11
154.5456166972
 21
30.7228544637
 12
154.8924916972
 22
30.7228544637
 13
154.8924916972
 23
30.7228544637
  0
SOLID
  8
0
 62
7
  6
CONTINUOUS
 10
154.1987416972
 20
30.658327332
 11
155.3549915869
 21
30.6905916353
 12
154.3143669177
 22
30.6260630541
 13
154.3143669177
 23
30.6260630541
  0
SOLID
  8
0
 62
7
  6
CONTINUOUS
 10
155.3549915869
 20
30.6905916353
 11
155.1815540869
 21
30.6260630541
 12
154.3143669177
 22
30.6260630541
 13
154.3143669177
 23
30.6260630541
  0
SOLID
  8
0
 62
7
  6
CONTINUOUS
 10
154.5456166972
 20
30.5938002188
 11
154.3143669177
 21
30.6260630541
 12
155.1815540869
 22
30.6260630541
 13
155.1815540869
 23
30.6260630541
  0
SOLID
  8
0
 62
7
  6
CONTINUOUS
 10
155.1815540869
 20
30.6260630541
 11
154.8924916972
 21
30.5938002188
 12
154.5456166972
 22
30.5938002188
 13
154.5456166972
 23
30.5938002188
  0
SOLID
  8
0
 62
7
  6
CONTINUOUS
 10
159.575304528
 20
30.7551187255
 11
159.228429528
 21
30.7228544637
 12
159.4596793074
 22
30.7873815123
 13
159.4596793074
 23
30.7873815123
  0
SOLID
  8
0
 62
7
  6
CONTINUOUS
 10
159.4596793074
 20
30.7873815123
 11
159.228429528
 21
30.7228544637
 12
159.401867028
 22
30.851908644
 13
159.401867028
 23
30.851908644
  0
SOLID
  8
0
 62
7
  6
CONTINUOUS
 10
159.228429528
 20
30.7228544637
 11
159.1128043074
 21
30.851908644
 12
159.401867028
 22
30.851908644
 13
159.401867028
 23
30.851908644
  0
SOLID
  8
0
 62
7
  6
CONTINUOUS
 10
159.575304528
 20
30.7551187255
 11
159.922179528
 21
30.7228544637
 12
159.228429528
 22
30.7228544637
 13
159.228429528
 23
30.7228544637
  0
SOLID
  8
0
 62
7
  6
CONTINUOUS
 10
156.279992028
 20
30.5938002419
 11
156.279992028
 21
31.6262382337
 12
156.5690540869
 22
30.5938002419
 13
156.5690540869
 23
31.6262382337
  0
ENDBLK
  8
0
  6
BYBLOCK
 62
0
  0
BLOCK
  8
0
 62
2
  6
CONTINUOUS
  2
SYMBOL_3_BL0
 70
64
 10
32.1213064866
 20
19.8534310916
  0
TEXT
  8
0
 62
7
  6
CONTINUOUS
 10
18.3860103289
 20
19.2268451992
  7
TEXTSTYLE_3
 40
2.7338706658
  1
Ammeraal Beltech
 41
1.0
 51
15.0
 72
0
  0
TEXT
  8
0
 62
7
  6
CONTINUOUS
 10
29.1868111546
 20
16.9533085264
  7
TEXTSTYLE_4
 40
1.0935482663
  1
Innovation & Service in Belting
 41
1.0
 72
0
  0
LINE
  8
0
 62
7
  6
CONTINUOUS
 10
12.3614696776
 20
19.9934385078
 11
13.1396216709
 21
23.6543558055
  0
LINE
  8
0
 62
7
  6
CONTINUOUS
 10
23.2347899607
 20
27.3177497171
 11
13.6274394139
 21
24.1961322958
  0
LINE
  8
0
 62
7
  6
CONTINUOUS
 10
12.5867530099
 20
19.3000877048
 11
20.093828271
 21
12.5406867788
  0
LINE
  8
0
 62
7
  6
CONTINUOUS
 10
12.8492874206
 20
20.5352149982
 11
23.6575567857
 21
24.0470345971
  0
LINE
  8
0
 62
7
  6
CONTINUOUS
 10
23.6533516486
 20
13.6972460334
 11
15.2078919798
 21
21.3015720751
  0
LINE
  8
0
 62
7
  6
CONTINUOUS
 10
24.1731743684
 20
26.4728246013
 11
23.1966148312
 21
21.8784731989
  0
LINE
  8
0
 62
7
  6
CONTINUOUS
 10
22.4968128835
 20
18.5861638851
 11
21.810364672
 21
15.3566789607
  0
LINE
  8
0
 62
7
  6
CONTINUOUS
 10
24.8542704669
 20
14.087448211
 11
25.8105020025
 21
18.5861638851
  0
LINE
  8
0
 62
7
  6
CONTINUOUS
 10
26.5103039502
 20
21.8784731989
 11
26.9545457526
 21
23.9684665583
  0
LINE
  8
0
 62
7
  6
CONTINUOUS
 10
20.8069293463
 20
12.3891124661
 11
24.3664527239
 21
13.5456717207
  0
LINE
  8
0
 62
7
  6
CONTINUOUS
 10
23.9478910361
 20
27.1661754044
 11
26.7292624203
 21
24.6618173613
  0
ARC
  8
0
 62
7
  6
CONTINUOUS
 10
13.8527227462
 20
23.5027814928
 40
0.7290321776
 50
108.0
 51
168.0
  0
ARC
  8
0
 62
7
  6
CONTINUOUS
 10
23.4600732931
 20
26.624398914
 40
0.7290321776
 50
348.0
 51
108.0
  0
ARC
  8
0
 62
7
  6
CONTINUOUS
 10
26.2414446773
 20
24.120040871
 40
0.7290321776
 50
348.0
 51
48.0
  0
ARC
  8
0
 62
7
  6
CONTINUOUS
 10
20.581646014
 20
13.0824632691
 40
0.7290321776
 50
228.0
 51
288.0
  0
ARC
  8
0
 62
7
  6
CONTINUOUS
 10
13.0745707529
 20
19.8418641951
 40
0.7290321776
 50
108.0
 51
228.0
  0
ARC
  8
0
 62
7
  6
CONTINUOUS
 10
24.1411693916
 20
14.2390225237
 40
0.7290321776
 50
228.0
 51
348.0
  0
ENDBLK
  8
0
  6
BYBLOCK
 62
0
  0
ENDSEC
  0
SECTION
  2
ENTITIES
  0
TEXT
  8
0
 62
5
  6
CONTINUOUS
 10
96.0
 20
25.636
  7
TEXTSTYLE_2
 40
2.8
  1
Scale :
 41
0.6
 51
0.000019
 72
0
  0
TEXT
  8
0
 62
5
  6
CONTINUOUS
 10
116.0
 20
25.636
  7
TEXTSTYLE_2
 40
2.8
  1
Belt type:
 41
0.6
 51
0.000019
 72
0
  0
INSERT
  8
0
 62
2
  6
CONTINUOUS
  2
SYMBOL_3_BL0
 10
32.1213064866
 20
19.8534310916
  0
INSERT
  8
0
 62
2
  6
CONTINUOUS
  2
SYMBOL_8_BL1
 10
173.5956734183
 20
35.5937998301
  0
LINE
  8
0
 62
2
  6
CONTINUOUS
 10
10.0
 20
30.0
 11
200.0
 21
30.0
  0
LINE
  8
0
 62
2
  6
CONTINUOUS
 10
10.0
 20
30.0
 11
10.0
 21
10.0
  0
LINE
  8
0
 62
2
  6
CONTINUOUS
 10
10.0
 20
10.0
 11
200.0
 21
10.0
  0
LINE
  8
0
 62
2
  6
CONTINUOUS
 10
95.0
 20
30.0
 11
95.0
 21
10.0
  0
LINE
  8
0
 62
2
  6
CONTINUOUS
 10
115.0
 20
30.0
 11
115.0
 21
10.0
  0
LINE
  8
0
 62
2
  6
CONTINUOUS
 10
200.0
 20
30.0
 11
200.0
 21
10.0
  0
TEXT
  8
0
 62
5
  6
CONTINUOUS
 10
13.0
 20
23.303
  7
TEXTSTYLE_5
 40
1.52
  1
                                                                     Ammeraal Beltech Modular A/S
 41
1.0
 72
0
  0
TEXT
  8
0
 62
5
  6
CONTINUOUS
 10
13.0
 20
20.595
  7
TEXTSTYLE_5
 40
1.5
  1
                                                                      Hjulmagervej 21,  7100 Vejle,  DK
 41
1.0
 72
0
  0
TEXT
  8
0
 62
5
  6
CONTINUOUS
 10
13.0
 20
17.881
  7
TEXTSTYLE_5
 40
1.495
  1
                                                                      tel: 
 41
1.0
 72
0
  0
TEXT
  8
0
 62
5
  6
CONTINUOUS
 10
57.9869465649
 20
17.881
  7
TEXTSTYLE_5
 40
1.51
  1
+45 75723100     fax: +45 75723348
 41
1.0
 72
0
  0
TEXT
  8
0
 62
5
  6
CONTINUOUS
 10
13.0
 20
15.177
  7
TEXTSTYLE_5
 40
1.5
  1
                                                                      admin@unichains.dk  www.unichains.com
 41
1.0
 72
0
  0
TEXT
  8
0
 62
5
  6
CONTINUOUS
 10
99.75
 20
13.75
  7
TEXTSTYLE_6
 40
5.0
  1
1:1
 41
0.7
 72
1
 11
105.0
 21
13.75
  0
TEXT
  8
0
 62
5
  6
CONTINUOUS
 10
118.0
 20
13.75
  7
TEXTSTYLE_7
 40
7.5
  1
uni JCB-Y K300 Chain Version
 41
0.3606026786
 72
0
  0
LINE
  8
0
 62
7
  6
CONTINUOUS
 10
210.0
 20
0.0
 11
0.0
 21
0.0
  0
LINE
  8
0
 62
7
  6
CONTINUOUS
 10
10.0
 20
10.0
 11
200.0
 21
10.0
  0
LINE
  8
0
 62
7
  6
CONTINUOUS
 10
10.0
 20
30.0
 11
200.0
 21
30.0
  0
LINE
  8
0
 62
7
  6
CONTINUOUS
 10
0.0
 20
0.0
 11
0.0
 21
297.0
  0
LINE
  8
0
 62
7
  6
CONTINUOUS
 10
10.0
 20
10.0
 11
10.0
 21
287.0
  0
LINE
  8
0
 62
7
  6
CONTINUOUS
 10
200.0
 20
287.0
 11
200.0
 21
10.0
  0
LINE
  8
0
 62
7
  6
CONTINUOUS
 10
210.0
 20
0.0
 11
210.0
 21
297.0
  0
LINE
  8
0
 62
7
  6
CONTINUOUS
 10
10.0
 20
287.0
 11
200.0
 21
287.0
  0
LINE
  8
0
 62
7
  6
CONTINUOUS
 10
0.0
 20
297.0
 11
210.0
 21
297.0
  0
LINE
  8
0
 62
7
  6
CONTINUOUS
 10
32.893276658
 20
171.0987190713
 11
32.893276658
 21
196.0900944687
  0
LINE
  8
0
 62
7
  6
CONTINUOUS
 10
36.0212886803
 20
163.1605354239
 11
36.005776658
 21
163.3068163267
  0
LINE
  8
0
 62
7
  6
CONTINUOUS
 10
35.758276658
 20
188.2735231373
 11
35.758276658
 21
195.9681560322
  0
LINE
  8
0
 62
7
  6
CONTINUOUS
 10
35.9885364458
 20
170.2115340438
 11
36.0061410304
 21
170.076083859
  0
POLYLINE
  8
0
 62
7
  6
CONTINUOUS
 66
1
 70
0
  0
VERTEX
  8
0
 62
7
  6
CONTINUOUS
 10
35.762097739
 20
188.2735231492
  0
VERTEX
  8
0
 62
7
  6
CONTINUOUS
 10
35.760277126
 20
188.2964774795
  0
VERTEX
  8
0
 62
7
  6
CONTINUOUS
 10
35.7585779351
 20
188.3337213347
  0
VERTEX
  8
0
 62
7
  6
CONTINUOUS
 10
35.7582766431
 20
188.3576142918
  0
SEQEND
  0
LINE
  8
0
 62
7
  6
CONTINUOUS
 10
36.005776658
 20
163.3068163267
 11
36.005776658
 21
170.3084059343
  0
LINE
  8
0
 62
7
  6
CONTINUOUS
 10
36.008276658
 20
163.2832409186
 11
36.008276658
 21
162.4120397671
  0
LINE
  8
0
 62
7
  6
CONTINUOUS
 10
38.933276658
 20
170.0150202592
 11
38.933276658
 21
162.4120397671
  0
POLYLINE
  8
0
 62
7
  6
CONTINUOUS
 66
1
 70
0
  0
VERTEX
  8
0
 62
7
  6
CONTINUOUS
 10
36.3819978847
 20
173.436215555
  0
VERTEX
  8
0
 62
7
  6
CONTINUOUS
 10
36.3859911678
 20
173.5655777174
  0
VERTEX
  8
0
 62
7
  6
CONTINUOUS
 10
36.3972389202
 20
173.6949012669
  0
VERTEX
  8
0
 62
7
  6
CONTINUOUS
 10
36.4103118925
 20
173.824446055
  0
SEQEND
  0
POLYLINE
  8
0
 62
7
  6
CONTINUOUS
 66
1
 70
0
  0
VERTEX
  8
0
 62
7
  6
CONTINUOUS
 10
36.005776658
 20
170.3084059343
  0
VERTEX
  8
0
 62
7
  6
CONTINUOUS
 10
36.0072999597
 20
170.3446463178
  0
VERTEX
  8
0
 62
7
  6
CONTINUOUS
 10
36.018732431
 20
170.4005486383
  0
VERTEX
  8
0
 62
7
  6
CONTINUOUS
 10
36.0276515835
 20
170.4221772401
  0
VERTEX
  8
0
 62
7
  6
CONTINUOUS
 10
36.0494385009
 20
170.4564203248
  0
VERTEX
  8
0
 62
7
  6
CONTINUOUS
 10
36.061471697
 20
170.46972389
  0
SEQEND
  0
LINE
  8
0
 62
7
  6
CONTINUOUS
 10
39.180776658
 20
188.2936941427
 11
39.181601631
 21
188.3065598545
  0
POLYLINE
  8
0
 62
7
  6
CONTINUOUS
 66
1
 70
0
  0
VERTEX
  8
0
 62
7
  6
CONTINUOUS
 10
39.180776658
 20
195.0733794727
  0
VERTEX
  8
0
 62
7
  6
CONTINUOUS
 10
39.1962995597
 20
195.2197100885
  0
VERTEX
  8
0
 62
7
  6
CONTINUOUS
 10
39.2383078954
 20
195.344888153
  0
VERTEX
  8
0
 62
7
  6
CONTINUOUS
 10
39.2999557741
 20
195.4449401222
  0
VERTEX
  8
0
 62
7
  6
CONTINUOUS
 10
39.3357691047
 20
195.4846874445
  0
VERTEX
  8
0
 62
7
  6
CONTINUOUS
 10
39.4134312553
 20
195.5441177146
  0
VERTEX
  8
0
 62
7
  6
CONTINUOUS
 10
39.4960960969
 20
195.5787578463
  0
VERTEX
  8
0
 62
7
  6
CONTINUOUS
 10
39.5807766959
 20
195.5900930171
  0
SEQEND
  0
POLYLINE
  8
0
 62
7
  6
CONTINUOUS
 66
1
 70
0
  0
VERTEX
  8
0
 62
7
  6
CONTINUOUS
 10
39.181601631
 20
188.3065598545
  0
VERTEX
  8
0
 62
7
  6
CONTINUOUS
 10
39.1631811662
 20
188.1669731356
  0
VERTEX
  8
0
 62
7
  6
CONTINUOUS
 10
39.1256669587
 20
188.0406424067
  0
VERTEX
  8
0
 62
7
  6
CONTINUOUS
 10
39.0717692222
 20
187.9327660161
  0
VERTEX
  8
0
 62
7
  6
CONTINUOUS
 10
39.0399362875
 20
187.8871626852
  0
VERTEX
  8
0
 62
7
  6
CONTINUOUS
 10
38.9688672378
 20
187.8138753566
  0
VERTEX
  8
0
 62
7
  6
CONTINUOUS
 10
38.8910121124
 20
187.7657032191
  0
VERTEX
  8
0
 62
7
  6
CONTINUOUS
 10
38.8118921971
 20
187.7439563589
  0
VERTEX
  8
0
 62
7
  6
CONTINUOUS
 10
38.7832766574
 20
187.742326644
  0
SEQEND
  0
POLYLINE
  8
0
 62
7
  6
CONTINUOUS
 66
1
 70
0
  0
VERTEX
  8
0
 62
7
  6
CONTINUOUS
 10
36.4103118925
 20
173.824446055
  0
VERTEX
  8
0
 62
7
  6
CONTINUOUS
 10
36.521720385
 20
174.5621332291
  0
VERTEX
  8
0
 62
7
  6
CONTINUOUS
 10
36.6801101578
 20
175.3699514334
  0
VERTEX
  8
0
 62
7
  6
CONTINUOUS
 10
36.8681915529
 20
176.2285033471
  0
VERTEX
  8
0
 62
7
  6
CONTINUOUS
 10
36.9758583957
 20
176.6935617992
  0
VERTEX
  8
0
 62
7
  6
CONTINUOUS
 10
37.2325486428
 20
177.7520815383
  0
VERTEX
  8
0
 62
7
  6
CONTINUOUS
 10
37.5587021053
 20
179.0241008913
  0
VERTEX
  8
0
 62
7
  6
CONTINUOUS
 10
37.9673557253
 20
180.5320880301
  0
SEQEND
  0
LINE
  8
0
 62
7
  6
CONTINUOUS
 10
39.180776658
 20
195.0733794727
 11
39.180776658
 21
185.2954785973
  0
LINE
  8
0
 62
7
  6
CONTINUOUS
 10
39.183276658
 20
195.096946364
 11
39.183276658
 21
195.9681560322
  0
LINE
  8
0
 62
7
  6
CONTINUOUS
 10
41.358276658
 20
188.147326114
 11
41.358276658
 21
195.990097224
  0
LINE
  8
0
 62
7
  6
CONTINUOUS
 10
42.105776658
 20
185.7495048905
 11
42.105776658
 21
187.3923633666
  0
POLYLINE
  8
0
 62
7
  6
CONTINUOUS
 66
1
 70
0
  0
VERTEX
  8
0
 62
7
  6
CONTINUOUS
 10
38.933276603
 20
170.01499967
  0
VERTEX
  8
0
 62
7
  6
CONTINUOUS
 10
38.9349516922
 20
170.0736361816
  0
VERTEX
  8
0
 62
7
  6
CONTINUOUS
 10
38.9533721956
 20
170.213222972
  0
VERTEX
  8
0
 62
7
  6
CONTINUOUS
 10
38.9908864146
 20
170.3395535288
  0
VERTEX
  8
0
 62
7
  6
CONTINUOUS
 10
39.0447841659
 20
170.4474298853
  0
VERTEX
  8
0
 62
7
  6
CONTINUOUS
 10
39.0766170591
 20
170.4930331614
  0
VERTEX
  8
0
 62
7
  6
CONTINUOUS
 10
39.1476861726
 20
170.5663205144
  0
VERTEX
  8
0
 62
7
  6
CONTINUOUS
 10
39.2255413453
 20
170.6144926273
  0
VERTEX
  8
0
 62
7
  6
CONTINUOUS
 10
39.3046614929
 20
170.6362394868
  0
VERTEX
  8
0
 62
7
  6
CONTINUOUS
 10
39.3332766617
 20
170.63786914
  0
SEQEND
  0
LINE
  8
0
 62
7
  6
CONTINUOUS
 10
36.3932504216
 20
174.8851608806
 11
36.3763509284
 21
174.8244371042
  0
LINE
  8
0
 62
7
  6
CONTINUOUS
 10
39.0706050626
 20
184.4899403972
 11
37.9673557253
 21
180.5320880301
  0
LINE
  8
0
 62
7
  6
CONTINUOUS
 10
35.8122176991
 20
188.0501854005
 11
35.814477642
 21
188.0442572837
  0
POLYLINE
  8
0
 62
7
  6
CONTINUOUS
 66
1
 70
0
  0
VERTEX
  8
0
 62
7
  6
CONTINUOUS
 10
35.8121867396
 20
188.0502690143
  0
VERTEX
  8
0
 62
7
  6
CONTINUOUS
 10
35.7905542044
 20
188.1166569738
  0
VERTEX
  8
0
 62
7
  6
CONTINUOUS
 10
35.7620988041
 20
188.2735231373
  0
SEQEND
  0
LINE
  8
0
 62
7
  6
CONTINUOUS
 10
40.8490958644
 20
179.3408560852
 11
42.2759711114
 21
174.2190800555
  0
LINE
  8
0
 62
7
  6
CONTINUOUS
 10
42.355776658
 20
172.6744141449
 11
42.355776658
 21
170.987864397
  0
LINE
  8
0
 62
7
  6
CONTINUOUS
 10
43.108276658
 20
162.3900985753
 11
43.108276658
 21
170.2328685361
  0
POLYLINE
  8
0
 62
7
  6
CONTINUOUS
 66
1
 70
0
  0
VERTEX
  8
0
 62
7
  6
CONTINUOUS
 10
42.3759731017
 20
173.1662973018
  0
VERTEX
  8
0
 62
7
  6
CONTINUOUS
 10
42.3808071642
 20
173.5912332004
  0
VERTEX
  8
0
 62
7
  6
CONTINUOUS
 10
42.3607117053
 20
173.8028515025
  0
VERTEX
  8
0
 62
7
  6
CONTINUOUS
 10
42.2759711114
 20
174.2190800555
  0
SEQEND
  0
LINE
  8
0
 62
7
  6
CONTINUOUS
 10
42.355776658
 20
172.6744141449
 11
42.3759731017
 21
173.1662973018
  0
LINE
  8
0
 62
7
  6
CONTINUOUS
 10
45.530776658
 20
188.2936941427
 11
45.531601631
 21
188.3065598545
  0
POLYLINE
  8
0
 62
7
  6
CONTINUOUS
 66
1
 70
0
  0
VERTEX
  8
0
 62
7
  6
CONTINUOUS
 10
45.530776658
 20
195.0733794727
  0
VERTEX
  8
0
 62
7
  6
CONTINUOUS
 10
45.5462995597
 20
195.2197100885
  0
VERTEX
  8
0
 62
7
  6
CONTINUOUS
 10
45.5883078954
 20
195.344888153
  0
VERTEX
  8
0
 62
7
  6
CONTINUOUS
 10
45.6499557741
 20
195.4449401222
  0
VERTEX
  8
0
 62
7
  6
CONTINUOUS
 10
45.6857691047
 20
195.4846874445
  0
VERTEX
  8
0
 62
7
  6
CONTINUOUS
 10
45.7634312553
 20
195.5441177146
  0
VERTEX
  8
0
 62
7
  6
CONTINUOUS
 10
45.8460960969
 20
195.5787578463
  0
VERTEX
  8
0
 62
7
  6
CONTINUOUS
 10
45.9307766959
 20
195.5900930171
  0
SEQEND
  0
POLYLINE
  8
0
 62
7
  6
CONTINUOUS
 66
1
 70
0
  0
VERTEX
  8
0
 62
7
  6
CONTINUOUS
 10
45.531601631
 20
188.3065598545
  0
VERTEX
  8
0
 62
7
  6
CONTINUOUS
 10
45.5131811662
 20
188.1669731356
  0
VERTEX
  8
0
 62
7
  6
CONTINUOUS
 10
45.4756669587
 20
188.0406424067
  0
VERTEX
  8
0
 62
7
  6
CONTINUOUS
 10
45.4217692222
 20
187.9327660161
  0
VERTEX
  8
0
 62
7
  6
CONTINUOUS
 10
45.3899362875
 20
187.8871626852
  0
VERTEX
  8
0
 62
7
  6
CONTINUOUS
 10
45.3188672378
 20
187.8138753566
  0
VERTEX
  8
0
 62
7
  6
CONTINUOUS
 10
45.2410121124
 20
187.7657032191
  0
VERTEX
  8
0
 62
7
  6
CONTINUOUS
 10
45.1618921971
 20
187.7439563589
  0
VERTEX
  8
0
 62
7
  6
CONTINUOUS
 10
45.1332766574
 20
187.742326644
  0
SEQEND
  0
LINE
  8
0
 62
7
  6
CONTINUOUS
 10
38.530776658
 20
163.2706208258
 11
38.533276658
 21
163.2817417449
  0
LINE
  8
0
 62
7
  6
CONTINUOUS
 10
39.0409482534
 20
173.8902554022
 11
40.5601413757
 21
179.3402856542
  0
POLYLINE
  8
0
 62
7
  6
CONTINUOUS
 66
1
 70
0
  0
VERTEX
  8
0
 62
7
  6
CONTINUOUS
 10
40.8490958644
 20
179.3408560852
  0
VERTEX
  8
0
 62
7
  6
CONTINUOUS
 10
40.8274803614
 20
179.3869044959
  0
VERTEX
  8
0
 62
7
  6
CONTINUOUS
 10
40.7925836158
 20
179.4232422328
  0
VERTEX
  8
0
 62
7
  6
CONTINUOUS
 10
40.7494961991
 20
179.4463216798
  0
VERTEX
  8
0
 62
7
  6
CONTINUOUS
 10
40.7031489859
 20
179.4536551931
  0
VERTEX
  8
0
 62
7
  6
CONTINUOUS
 10
40.6571377754
 20
179.4446058143
  0
VERTEX
  8
0
 62
7
  6
CONTINUOUS
 10
40.614347686
 20
179.4205347281
  0
VERTEX
  8
0
 62
7
  6
CONTINUOUS
 10
40.580703528
 20
179.3846605908
  0
VERTEX
  8
0
 62
7
  6
CONTINUOUS
 10
40.5601413757
 20
179.3402856542
  0
SEQEND
  0
LINE
  8
0
 62
7
  6
CONTINUOUS
 10
43.73650621
 20
179.4843584923
 11
42.2161049493
 21
184.9418466208
  0
POLYLINE
  8
0
 62
7
  6
CONTINUOUS
 66
1
 70
0
  0
VERTEX
  8
0
 62
7
  6
CONTINUOUS
 10
42.2161049493
 20
184.9418466208
  0
VERTEX
  8
0
 62
7
  6
CONTINUOUS
 10
42.1335149323
 20
185.3416290045
  0
VERTEX
  8
0
 62
7
  6
CONTINUOUS
 10
42.105776658
 20
185.7495048905
  0
SEQEND
  0
LINE
  8
0
 62
7
  6
CONTINUOUS
 10
48.7212886803
 20
163.1605354239
 11
48.705776658
 21
163.3068163267
  0
LINE
  8
0
 62
7
  6
CONTINUOUS
 10
45.283276658
 20
170.0150202592
 11
45.283276658
 21
162.4120397671
  0
LINE
  8
0
 62
7
  6
CONTINUOUS
 10
45.530776658
 20
195.0733794727
 11
45.530776658
 21
185.2954785973
  0
LINE
  8
0
 62
7
  6
CONTINUOUS
 10
45.533276658
 20
195.096946364
 11
45.533276658
 21
195.9681560322
  0
POLYLINE
  8
0
 62
7
  6
CONTINUOUS
 66
1
 70
0
  0
VERTEX
  8
0
 62
7
  6
CONTINUOUS
 10
45.283276603
 20
170.01499967
  0
VERTEX
  8
0
 62
7
  6
CONTINUOUS
 10
45.2849516922
 20
170.0736361816
  0
VERTEX
  8
0
 62
7
  6
CONTINUOUS
 10
45.3033721956
 20
170.213222972
  0
VERTEX
  8
0
 62
7
  6
CONTINUOUS
 10
45.3408864146
 20
170.3395535288
  0
VERTEX
  8
0
 62
7
  6
CONTINUOUS
 10
45.3947841659
 20
170.4474298853
  0
VERTEX
  8
0
 62
7
  6
CONTINUOUS
 10
45.4266170591
 20
170.4930331614
  0
VERTEX
  8
0
 62
7
  6
CONTINUOUS
 10
45.4976861726
 20
170.5663205144
  0
VERTEX
  8
0
 62
7
  6
CONTINUOUS
 10
45.5755413453
 20
170.6144926273
  0
VERTEX
  8
0
 62
7
  6
CONTINUOUS
 10
45.6546614929
 20
170.6362394868
  0
VERTEX
  8
0
 62
7
  6
CONTINUOUS
 10
45.6832766617
 20
170.63786914
  0
SEQEND
  0
LINE
  8
0
 62
7
  6
CONTINUOUS
 10
45.4206050626
 20
184.4899403972
 11
44.0254606987
 21
179.4849289233
  0
POLYLINE
  8
0
 62
7
  6
CONTINUOUS
 66
1
 70
0
  0
VERTEX
  8
0
 62
7
  6
CONTINUOUS
 10
38.533276658
 20
163.2817417449
  0
VERTEX
  8
0
 62
7
  6
CONTINUOUS
 10
38.5378535352
 20
163.2946988479
  0
VERTEX
  8
0
 62
7
  6
CONTINUOUS
 10
38.5589763995
 20
163.3231972051
  0
VERTEX
  8
0
 62
7
  6
CONTINUOUS
 10
38.5956425494
 20
163.3545620021
  0
VERTEX
  8
0
 62
7
  6
CONTINUOUS
 10
38.6460113589
 20
163.3913693488
  0
VERTEX
  8
0
 62
7
  6
CONTINUOUS
 10
38.7093916049
 20
163.4398563362
  0
VERTEX
  8
0
 62
7
  6
CONTINUOUS
 10
38.7832138414
 20
163.51010527
  0
VERTEX
  8
0
 62
7
  6
CONTINUOUS
 10
38.819550746
 20
163.5554655901
  0
VERTEX
  8
0
 62
7
  6
CONTINUOUS
 10
38.8768236377
 20
163.6612550652
  0
VERTEX
  8
0
 62
7
  6
CONTINUOUS
 10
38.9088693189
 20
163.7791351464
  0
VERTEX
  8
0
 62
7
  6
CONTINUOUS
 10
38.923976558
 20
163.9224854816
  0
VERTEX
  8
0
 62
7
  6
CONTINUOUS
 10
38.9291114641
 20
164.0838901091
  0
VERTEX
  8
0
 62
7
  6
CONTINUOUS
 10
38.9306244854
 20
164.2714915931
  0
VERTEX
  8
0
 62
7
  6
CONTINUOUS
 10
38.930776658
 20
173.084717202
  0
SEQEND
  0
POLYLINE
  8
0
 62
7
  6
CONTINUOUS
 66
1
 70
0
  0
VERTEX
  8
0
 62
7
  6
CONTINUOUS
 10
36.3782136888
 20
162.0131710946
  0
VERTEX
  8
0
 62
7
  6
CONTINUOUS
 10
36.3248977809
 20
162.0208263179
  0
VERTEX
  8
0
 62
7
  6
CONTINUOUS
 10
36.2230266107
 20
162.0575226025
  0
VERTEX
  8
0
 62
7
  6
CONTINUOUS
 10
36.1341828446
 20
162.1207107753
  0
VERTEX
  8
0
 62
7
  6
CONTINUOUS
 10
36.0657516909
 20
162.2054564984
  0
VERTEX
  8
0
 62
7
  6
CONTINUOUS
 10
36.022709487
 20
162.3055599256
  0
VERTEX
  8
0
 62
7
  6
CONTINUOUS
 10
36.008276658
 20
162.4120397671
  0
SEQEND
  0
POLYLINE
  8
0
 62
7
  6
CONTINUOUS
 66
1
 70
0
  0
VERTEX
  8
0
 62
7
  6
CONTINUOUS
 10
43.73650621
 20
179.4843584923
  0
VERTEX
  8
0
 62
7
  6
CONTINUOUS
 10
43.758121713
 20
179.4383100816
  0
VERTEX
  8
0
 62
7
  6
CONTINUOUS
 10
43.7930184585
 20
179.4019723448
  0
VERTEX
  8
0
 62
7
  6
CONTINUOUS
 10
43.8361058751
 20
179.3788928978
  0
VERTEX
  8
0
 62
7
  6
CONTINUOUS
 10
43.8824530883
 20
179.3715593844
  0
VERTEX
  8
0
 62
7
  6
CONTINUOUS
 10
43.9284642988
 20
179.3806087632
  0
VERTEX
  8
0
 62
7
  6
CONTINUOUS
 10
43.9712543883
 20
179.4046798494
  0
VERTEX
  8
0
 62
7
  6
CONTINUOUS
 10
44.0048985464
 20
179.4405539867
  0
VERTEX
  8
0
 62
7
  6
CONTINUOUS
 10
44.0254606987
 20
179.4849289233
  0
SEQEND
  0
LINE
  8
0
 62
7
  6
CONTINUOUS
 10
47.1990958644
 20
179.3408560852
 11
48.6259711114
 21
174.2190800555
  0
POLYLINE
  8
0
 62
7
  6
CONTINUOUS
 66
1
 70
0
  0
VERTEX
  8
0
 62
7
  6
CONTINUOUS
 10
48.68818112
 20
170.2132229738
  0
VERTEX
  8
0
 62
7
  6
CONTINUOUS
 10
48.7066016237
 20
170.0736361838
  0
VERTEX
  8
0
 62
7
  6
CONTINUOUS
 10
48.705776658
 20
170.0865017553
  0
SEQEND
  0
POLYLINE
  8
0
 62
7
  6
CONTINUOUS
 66
1
 70
0
  0
VERTEX
  8
0
 62
7
  6
CONTINUOUS
 10
48.4556350927
 20
194.1051184907
  0
VERTEX
  8
0
 62
7
  6
CONTINUOUS
 10
48.4542562705
 20
194.2867601586
  0
VERTEX
  8
0
 62
7
  6
CONTINUOUS
 10
48.4498459282
 20
194.4413061515
  0
VERTEX
  8
0
 62
7
  6
CONTINUOUS
 10
48.4374607351
 20
194.578687466
  0
VERTEX
  8
0
 62
7
  6
CONTINUOUS
 10
48.4091686476
 20
194.6989840921
  0
VERTEX
  8
0
 62
7
  6
CONTINUOUS
 10
48.3588898974
 20
194.8034864818
  0
VERTEX
  8
0
 62
7
  6
CONTINUOUS
 10
48.3251813571
 20
194.8501706044
  0
VERTEX
  8
0
 62
7
  6
CONTINUOUS
 10
48.2496865544
 20
194.9274051667
  0
VERTEX
  8
0
 62
7
  6
CONTINUOUS
 10
48.1815353854
 20
194.9811559909
  0
VERTEX
  8
0
 62
7
  6
CONTINUOUS
 10
48.1265808568
 20
195.0211490048
  0
VERTEX
  8
0
 62
7
  6
CONTINUOUS
 10
48.0862110912
 20
195.0547563224
  0
VERTEX
  8
0
 62
7
  6
CONTINUOUS
 10
48.0632305241
 20
195.0847246492
  0
VERTEX
  8
0
 62
7
  6
CONTINUOUS
 10
48.058276658
 20
195.0984540545
  0
SEQEND
  0
LINE
  8
0
 62
7
  6
CONTINUOUS
 10
48.455776658
 20
185.7495048905
 11
48.4556350927
 21
194.1051184907
  0
LINE
  8
0
 62
7
  6
CONTINUOUS
 10
48.458276658
 20
188.3651755402
 11
48.458276658
 21
195.9681560322
  0
LINE
  8
0
 62
7
  6
CONTINUOUS
 10
48.705776658
 20
172.6744141449
 11
48.705776658
 21
163.3068163267
  0
LINE
  8
0
 62
7
  6
CONTINUOUS
 10
48.708276658
 20
163.2832409186
 11
48.708276658
 21
162.4120397671
  0
POLYLINE
  8
0
 62
7
  6
CONTINUOUS
 66
1
 70
0
  0
VERTEX
  8
0
 62
7
  6
CONTINUOUS
 10
48.7259731017
 20
173.1662973018
  0
VERTEX
  8
0
 62
7
  6
CONTINUOUS
 10
48.7308071642
 20
173.5912332003
  0
VERTEX
  8
0
 62
7
  6
CONTINUOUS
 10
48.7107117053
 20
173.8028515025
  0
VERTEX
  8
0
 62
7
  6
CONTINUOUS
 10
48.6259711114
 20
174.2190800555
  0
SEQEND
  0
LINE
  8
0
 62
7
  6
CONTINUOUS
 10
48.705776658
 20
172.6744141449
 11
48.7259731017
 21
173.1662973018
  0
POLYLINE
  8
0
 62
7
  6
CONTINUOUS
 66
1
 70
0
  0
VERTEX
  8
0
 62
7
  6
CONTINUOUS
 10
51.880776658
 20
195.0733794727
  0
VERTEX
  8
0
 62
7
  6
CONTINUOUS
 10
51.8962995597
 20
195.2197100885
  0
VERTEX
  8
0
 62
7
  6
CONTINUOUS
 10
51.9383078954
 20
195.344888153
  0
VERTEX
  8
0
 62
7
  6
CONTINUOUS
 10
51.9999557741
 20
195.4449401222
  0
VERTEX
  8
0
 62
7
  6
CONTINUOUS
 10
52.0357691047
 20
195.4846874445
  0
VERTEX
  8
0
 62
7
  6
CONTINUOUS
 10
52.1134312553
 20
195.5441177146
  0
VERTEX
  8
0
 62
7
  6
CONTINUOUS
 10
52.1960960969
 20
195.5787578463
  0
VERTEX
  8
0
 62
7
  6
CONTINUOUS
 10
52.2807766959
 20
195.5900930171
  0
SEQEND
  0
POLYLINE
  8
0
 62
7
  6
CONTINUOUS
 66
1
 70
0
  0
VERTEX
  8
0
 62
7
  6
CONTINUOUS
 10
51.881601631
 20
188.3065598545
  0
VERTEX
  8
0
 62
7
  6
CONTINUOUS
 10
51.8631811662
 20
188.1669731356
  0
VERTEX
  8
0
 62
7
  6
CONTINUOUS
 10
51.8256669587
 20
188.0406424067
  0
VERTEX
  8
0
 62
7
  6
CONTINUOUS
 10
51.7717692222
 20
187.9327660161
  0
VERTEX
  8
0
 62
7
  6
CONTINUOUS
 10
51.7399362875
 20
187.8871626852
  0
VERTEX
  8
0
 62
7
  6
CONTINUOUS
 10
51.6688672378
 20
187.8138753566
  0
VERTEX
  8
0
 62
7
  6
CONTINUOUS
 10
51.5910121124
 20
187.7657032191
  0
VERTEX
  8
0
 62
7
  6
CONTINUOUS
 10
51.5118921971
 20
187.7439563589
  0
VERTEX
  8
0
 62
7
  6
CONTINUOUS
 10
51.4832766574
 20
187.742326644
  0
SEQEND
  0
LINE
  8
0
 62
7
  6
CONTINUOUS
 10
44.880776658
 20
163.2706208258
 11
44.883276658
 21
163.2817417449
  0
LINE
  8
0
 62
7
  6
CONTINUOUS
 10
45.3909482534
 20
173.8902554022
 11
46.9101413757
 21
179.3402856542
  0
POLYLINE
  8
0
 62
7
  6
CONTINUOUS
 66
1
 70
0
  0
VERTEX
  8
0
 62
7
  6
CONTINUOUS
 10
102.0633396271
 20
162.0131710946
  0
VERTEX
  8
0
 62
7
  6
CONTINUOUS
 10
102.1166555351
 20
162.0208263179
  0
VERTEX
  8
0
 62
7
  6
CONTINUOUS
 10
102.2185267052
 20
162.0575226025
  0
VERTEX
  8
0
 62
7
  6
CONTINUOUS
 10
102.3073704714
 20
162.1207107753
  0
VERTEX
  8
0
 62
7
  6
CONTINUOUS
 10
102.3758016251
 20
162.2054564984
  0
VERTEX
  8
0
 62
7
  6
CONTINUOUS
 10
102.418843829
 20
162.3055599256
  0
VERTEX
  8
0
 62
7
  6
CONTINUOUS
 10
102.433276658
 20
162.4120397671
  0
SEQEND
  0
POLYLINE
  8
0
 62
7
  6
CONTINUOUS
 66
1
 70
0
  0
VERTEX
  8
0
 62
7
  6
CONTINUOUS
 10
95.7133396271
 20
162.0131710946
  0
VERTEX
  8
0
 62
7
  6
CONTINUOUS
 10
95.7666555351
 20
162.0208263179
  0
VERTEX
  8
0
 62
7
  6
CONTINUOUS
 10
95.8685267052
 20
162.0575226025
  0
VERTEX
  8
0
 62
7
  6
CONTINUOUS
 10
95.9573704714
 20
162.1207107753
  0
VERTEX
  8
0
 62
7
  6
CONTINUOUS
 10
96.0258016251
 20
162.2054564984
  0
VERTEX
  8
0
 62
7
  6
CONTINUOUS
 10
96.068843829
 20
162.3055599256
  0
VERTEX
  8
0
 62
7
  6
CONTINUOUS
 10
96.083276658
 20
162.4120397671
  0
SEQEND
  0
POLYLINE
  8
0
 62
7
  6
CONTINUOUS
 66
1
 70
0
  0
VERTEX
  8
0
 62
7
  6
CONTINUOUS
 10
89.3633396271
 20
162.0131710946
  0
VERTEX
  8
0
 62
7
  6
CONTINUOUS
 10
89.4166555351
 20
162.0208263179
  0
VERTEX
  8
0
 62
7
  6
CONTINUOUS
 10
89.5185267052
 20
162.0575226025
  0
VERTEX
  8
0
 62
7
  6
CONTINUOUS
 10
89.6073704714
 20
162.1207107753
  0
VERTEX
  8
0
 62
7
  6
CONTINUOUS
 10
89.6758016251
 20
162.2054564984
  0
VERTEX
  8
0
 62
7
  6
CONTINUOUS
 10
89.718843829
 20
162.3055599256
  0
VERTEX
  8
0
 62
7
  6
CONTINUOUS
 10
89.733276658
 20
162.4120397671
  0
SEQEND
  0
POLYLINE
  8
0
 62
7
  6
CONTINUOUS
 66
1
 70
0
  0
VERTEX
  8
0
 62
7
  6
CONTINUOUS
 10
83.0133396271
 20
162.0131710946
  0
VERTEX
  8
0
 62
7
  6
CONTINUOUS
 10
83.0666555351
 20
162.0208263179
  0
VERTEX
  8
0
 62
7
  6
CONTINUOUS
 10
83.1685267052
 20
162.0575226025
  0
VERTEX
  8
0
 62
7
  6
CONTINUOUS
 10
83.2573704714
 20
162.1207107753
  0
VERTEX
  8
0
 62
7
  6
CONTINUOUS
 10
83.3258016251
 20
162.2054564984
  0
VERTEX
  8
0
 62
7
  6
CONTINUOUS
 10
83.368843829
 20
162.3055599256
  0
VERTEX
  8
0
 62
7
  6
CONTINUOUS
 10
83.383276658
 20
162.4120397671
  0
SEQEND
  0
LINE
  8
0
 62
7
  6
CONTINUOUS
 10
101.8868387303
 20
161.9987647282
 11
102.0633872252
 21
162.0131751745
  0
LINE
  8
0
 62
7
  6
CONTINUOUS
 10
95.5368387303
 20
161.9987647282
 11
95.7133872252
 21
162.0131751745
  0
LINE
  8
0
 62
7
  6
CONTINUOUS
 10
89.1868387303
 20
161.9987647282
 11
89.3633872252
 21
162.0131751745
  0
POLYLINE
  8
0
 62
7
  6
CONTINUOUS
 66
1
 70
0
  0
VERTEX
  8
0
 62
7
  6
CONTINUOUS
 10
36.3781659841
 20
162.0131751825
  0
VERTEX
  8
0
 62
7
  6
CONTINUOUS
 10
36.5553298199
 20
161.9987146605
  0
VERTEX
  8
0
 62
7
  6
CONTINUOUS
 10
36.6253393259
 20
161.993476403
  0
VERTEX
  8
0
 62
7
  6
CONTINUOUS
 10
36.6838932629
 20
161.9905614574
  0
SEQEND
  0
POLYLINE
  8
0
 62
7
  6
CONTINUOUS
 66
1
 70
0
  0
VERTEX
  8
0
 62
7
  6
CONTINUOUS
 10
49.0781659841
 20
162.0131751825
  0
VERTEX
  8
0
 62
7
  6
CONTINUOUS
 10
49.2553298199
 20
161.9987146605
  0
VERTEX
  8
0
 62
7
  6
CONTINUOUS
 10
49.3253393259
 20
161.993476403
  0
VERTEX
  8
0
 62
7
  6
CONTINUOUS
 10
49.3838932629
 20
161.9905614574
  0
SEQEND
  0
POLYLINE
  8
0
 62
7
  6
CONTINUOUS
 66
1
 70
0
  0
VERTEX
  8
0
 62
7
  6
CONTINUOUS
 10
55.4281659841
 20
162.0131751825
  0
VERTEX
  8
0
 62
7
  6
CONTINUOUS
 10
55.6053298199
 20
161.9987146605
  0
VERTEX
  8
0
 62
7
  6
CONTINUOUS
 10
55.6753393259
 20
161.993476403
  0
VERTEX
  8
0
 62
7
  6
CONTINUOUS
 10
55.7338932629
 20
161.9905614574
  0
SEQEND
  0
POLYLINE
  8
0
 62
7
  6
CONTINUOUS
 66
1
 70
0
  0
VERTEX
  8
0
 62
7
  6
CONTINUOUS
 10
36.4057766959
 20
162.7901027823
  0
VERTEX
  8
0
 62
7
  6
CONTINUOUS
 10
36.3210977757
 20
162.801437498
  0
VERTEX
  8
0
 62
7
  6
CONTINUOUS
 10
36.2384352036
 20
162.8360757995
  0
VERTEX
  8
0
 62
7
  6
CONTINUOUS
 10
36.1607718634
 20
162.8955056497
  0
VERTEX
  8
0
 62
7
  6
CONTINUOUS
 10
36.1249603161
 20
162.9352499829
  0
VERTEX
  8
0
 62
7
  6
CONTINUOUS
 10
36.0633149671
 20
163.0352925505
  0
VERTEX
  8
0
 62
7
  6
CONTINUOUS
 10
36.0212886803
 20
163.1605354239
  0
SEQEND
  0
POLYLINE
  8
0
 62
7
  6
CONTINUOUS
 66
1
 70
0
  0
VERTEX
  8
0
 62
7
  6
CONTINUOUS
 10
49.1057766959
 20
162.7901027823
  0
VERTEX
  8
0
 62
7
  6
CONTINUOUS
 10
49.0210977757
 20
162.801437498
  0
VERTEX
  8
0
 62
7
  6
CONTINUOUS
 10
48.9384352036
 20
162.8360757995
  0
VERTEX
  8
0
 62
7
  6
CONTINUOUS
 10
48.8607718634
 20
162.8955056497
  0
VERTEX
  8
0
 62
7
  6
CONTINUOUS
 10
48.8249603161
 20
162.9352499829
  0
VERTEX
  8
0
 62
7
  6
CONTINUOUS
 10
48.7633149671
 20
163.0352925505
  0
VERTEX
  8
0
 62
7
  6
CONTINUOUS
 10
48.7212886803
 20
163.1605354239
  0
SEQEND
  0
POLYLINE
  8
0
 62
7
  6
CONTINUOUS
 66
1
 70
0
  0
VERTEX
  8
0
 62
7
  6
CONTINUOUS
 10
55.4557766959
 20
162.7901027823
  0
VERTEX
  8
0
 62
7
  6
CONTINUOUS
 10
55.3710977757
 20
162.801437498
  0
VERTEX
  8
0
 62
7
  6
CONTINUOUS
 10
55.2884352036
 20
162.8360757995
  0
VERTEX
  8
0
 62
7
  6
CONTINUOUS
 10
55.2107718634
 20
162.8955056497
  0
VERTEX
  8
0
 62
7
  6
CONTINUOUS
 10
55.1749603161
 20
162.9352499829
  0
VERTEX
  8
0
 62
7
  6
CONTINUOUS
 10
55.1133149671
 20
163.0352925505
  0
VERTEX
  8
0
 62
7
  6
CONTINUOUS
 10
55.0712886803
 20
163.1605354239
  0
SEQEND
  0
POLYLINE
  8
0
 62
7
  6
CONTINUOUS
 66
1
 70
0
  0
VERTEX
  8
0
 62
7
  6
CONTINUOUS
 10
49.0782136888
 20
162.0131710946
  0
VERTEX
  8
0
 62
7
  6
CONTINUOUS
 10
49.0248977809
 20
162.0208263179
  0
VERTEX
  8
0
 62
7
  6
CONTINUOUS
 10
48.9230266107
 20
162.0575226025
  0
VERTEX
  8
0
 62
7
  6
CONTINUOUS
 10
48.8341828446
 20
162.1207107753
  0
VERTEX
  8
0
 62
7
  6
CONTINUOUS
 10
48.7657516909
 20
162.2054564984
  0
VERTEX
  8
0
 62
7
  6
CONTINUOUS
 10
48.722709487
 20
162.3055599256
  0
VERTEX
  8
0
 62
7
  6
CONTINUOUS
 10
48.708276658
 20
162.4120397671
  0
SEQEND
  0
POLYLINE
  8
0
 62
7
  6
CONTINUOUS
 66
1
 70
0
  0
VERTEX
  8
0
 62
7
  6
CONTINUOUS
 10
55.4282136888
 20
162.0131710946
  0
VERTEX
  8
0
 62
7
  6
CONTINUOUS
 10
55.3748977809
 20
162.0208263179
  0
VERTEX
  8
0
 62
7
  6
CONTINUOUS
 10
55.2730266107
 20
162.0575226025
  0
VERTEX
  8
0
 62
7
  6
CONTINUOUS
 10
55.1841828446
 20
162.1207107753
  0
VERTEX
  8
0
 62
7
  6
CONTINUOUS
 10
55.1157516909
 20
162.2054564984
  0
VERTEX
  8
0
 62
7
  6
CONTINUOUS
 10
55.072709487
 20
162.3055599256
  0
VERTEX
  8
0
 62
7
  6
CONTINUOUS
 10
55.058276658
 20
162.4120397671
  0
SEQEND
  0
POLYLINE
  8
0
 62
7
  6
CONTINUOUS
 66
1
 70
0
  0
VERTEX
  8
0
 62
7
  6
CONTINUOUS
 10
61.7782136888
 20
162.0131710946
  0
VERTEX
  8
0
 62
7
  6
CONTINUOUS
 10
61.7248977809
 20
162.0208263179
  0
VERTEX
  8
0
 62
7
  6
CONTINUOUS
 10
61.6230266107
 20
162.0575226025
  0
VERTEX
  8
0
 62
7
  6
CONTINUOUS
 10
61.5341828446
 20
162.1207107753
  0
VERTEX
  8
0
 62
7
  6
CONTINUOUS
 10
61.4657516909
 20
162.2054564984
  0
VERTEX
  8
0
 62
7
  6
CONTINUOUS
 10
61.422709487
 20
162.3055599256
  0
VERTEX
  8
0
 62
7
  6
CONTINUOUS
 10
61.408276658
 20
162.4120397671
  0
SEQEND
  0
POLYLINE
  8
0
 62
7
  6
CONTINUOUS
 66
1
 70
0
  0
VERTEX
  8
0
 62
7
  6
CONTINUOUS
 10
43.458276658
 20
162.7900978997
  0
VERTEX
  8
0
 62
7
  6
CONTINUOUS
 10
43.3772831839
 20
162.8019812158
  0
VERTEX
  8
0
 62
7
  6
CONTINUOUS
 10
43.2976550508
 20
162.8390246808
  0
VERTEX
  8
0
 62
7
  6
CONTINUOUS
 10
43.2256983099
 20
162.9013753331
  0
VERTEX
  8
0
 62
7
  6
CONTINUOUS
 10
43.1652670391
 20
162.9906674861
  0
VERTEX
  8
0
 62
7
  6
CONTINUOUS
 10
43.1237784559
 20
163.1047764009
  0
VERTEX
  8
0
 62
7
  6
CONTINUOUS
 10
43.108276658
 20
163.2400978997
  0
SEQEND
  0
POLYLINE
  8
0
 62
7
  6
CONTINUOUS
 66
1
 70
0
  0
VERTEX
  8
0
 62
7
  6
CONTINUOUS
 10
47.1990958644
 20
179.3408560852
  0
VERTEX
  8
0
 62
7
  6
CONTINUOUS
 10
47.1774803614
 20
179.3869044959
  0
VERTEX
  8
0
 62
7
  6
CONTINUOUS
 10
47.1425836159
 20
179.4232422327
  0
VERTEX
  8
0
 62
7
  6
CONTINUOUS
 10
47.0994961993
 20
179.4463216797
  0
VERTEX
  8
0
 62
7
  6
CONTINUOUS
 10
47.0531489861
 20
179.4536551931
  0
VERTEX
  8
0
 62
7
  6
CONTINUOUS
 10
47.0071377756
 20
179.4446058144
  0
VERTEX
  8
0
 62
7
  6
CONTINUOUS
 10
46.9643476861
 20
179.4205347282
  0
VERTEX
  8
0
 62
7
  6
CONTINUOUS
 10
46.930703528
 20
179.3846605908
  0
VERTEX
  8
0
 62
7
  6
CONTINUOUS
 10
46.9101413757
 20
179.3402856542
  0
SEQEND
  0
POLYLINE
  8
0
 62
7
  6
CONTINUOUS
 66
1
 70
0
  0
VERTEX
  8
0
 62
7
  6
CONTINUOUS
 10
50.08650621
 20
179.4843584923
  0
VERTEX
  8
0
 62
7
  6
CONTINUOUS
 10
50.108121713
 20
179.4383100816
  0
VERTEX
  8
0
 62
7
  6
CONTINUOUS
 10
50.1430184585
 20
179.4019723448
  0
VERTEX
  8
0
 62
7
  6
CONTINUOUS
 10
50.1861058751
 20
179.3788928978
  0
VERTEX
  8
0
 62
7
  6
CONTINUOUS
 10
50.2324530883
 20
179.3715593844
  0
VERTEX
  8
0
 62
7
  6
CONTINUOUS
 10
50.2784642987
 20
179.3806087631
  0
VERTEX
  8
0
 62
7
  6
CONTINUOUS
 10
50.3212543882
 20
179.4046798494
  0
VERTEX
  8
0
 62
7
  6
CONTINUOUS
 10
50.3548985464
 20
179.4405539867
  0
VERTEX
  8
0
 62
7
  6
CONTINUOUS
 10
50.3754606987
 20
179.4849289233
  0
SEQEND
  0
LINE
  8
0
 62
7
  6
CONTINUOUS
 10
50.08650621
 20
179.4843584923
 11
48.5661049493
 21
184.9418466208
  0
POLYLINE
  8
0
 62
7
  6
CONTINUOUS
 66
1
 70
0
  0
VERTEX
  8
0
 62
7
  6
CONTINUOUS
 10
48.5661049493
 20
184.9418466208
  0
VERTEX
  8
0
 62
7
  6
CONTINUOUS
 10
48.4835149362
 20
185.3416289756
  0
VERTEX
  8
0
 62
7
  6
CONTINUOUS
 10
48.455776658
 20
185.7495048905
  0
SEQEND
  0
LINE
  8
0
 62
7
  6
CONTINUOUS
 10
55.0712886803
 20
163.1605354239
 11
55.055776658
 21
163.3068163267
  0
LINE
  8
0
 62
7
  6
CONTINUOUS
 10
51.633276658
 20
170.0150202592
 11
51.633276658
 21
162.4120397671
  0
LINE
  8
0
 62
7
  6
CONTINUOUS
 10
51.880776658
 20
195.0733794727
 11
51.880776658
 21
185.2954785973
  0
LINE
  8
0
 62
7
  6
CONTINUOUS
 10
51.883276658
 20
195.096946364
 11
51.883276658
 21
195.9681560322
  0
POLYLINE
  8
0
 62
7
  6
CONTINUOUS
 66
1
 70
0
  0
VERTEX
  8
0
 62
7
  6
CONTINUOUS
 10
51.633276603
 20
170.01499967
  0
VERTEX
  8
0
 62
7
  6
CONTINUOUS
 10
51.6349516922
 20
170.0736361816
  0
VERTEX
  8
0
 62
7
  6
CONTINUOUS
 10
51.6533721956
 20
170.213222972
  0
VERTEX
  8
0
 62
7
  6
CONTINUOUS
 10
51.6908864146
 20
170.3395535288
  0
VERTEX
  8
0
 62
7
  6
CONTINUOUS
 10
51.7447841659
 20
170.4474298853
  0
VERTEX
  8
0
 62
7
  6
CONTINUOUS
 10
51.7766170591
 20
170.4930331614
  0
VERTEX
  8
0
 62
7
  6
CONTINUOUS
 10
51.8476861726
 20
170.5663205144
  0
VERTEX
  8
0
 62
7
  6
CONTINUOUS
 10
51.9255413453
 20
170.6144926273
  0
VERTEX
  8
0
 62
7
  6
CONTINUOUS
 10
52.0046614929
 20
170.6362394868
  0
VERTEX
  8
0
 62
7
  6
CONTINUOUS
 10
52.0332766617
 20
170.63786914
  0
SEQEND
  0
LINE
  8
0
 62
7
  6
CONTINUOUS
 10
51.880776658
 20
188.2936941427
 11
51.881601631
 21
188.3065598545
  0
LINE
  8
0
 62
7
  6
CONTINUOUS
 10
51.7706050626
 20
184.4899403972
 11
50.3754606987
 21
179.4849289233
  0
POLYLINE
  8
0
 62
7
  6
CONTINUOUS
 66
1
 70
0
  0
VERTEX
  8
0
 62
7
  6
CONTINUOUS
 10
44.883276658
 20
163.2817417449
  0
VERTEX
  8
0
 62
7
  6
CONTINUOUS
 10
44.8878535352
 20
163.2946988479
  0
VERTEX
  8
0
 62
7
  6
CONTINUOUS
 10
44.9089763995
 20
163.3231972051
  0
VERTEX
  8
0
 62
7
  6
CONTINUOUS
 10
44.9456425494
 20
163.3545620021
  0
VERTEX
  8
0
 62
7
  6
CONTINUOUS
 10
44.9960113589
 20
163.3913693489
  0
VERTEX
  8
0
 62
7
  6
CONTINUOUS
 10
45.0593916049
 20
163.4398563363
  0
VERTEX
  8
0
 62
7
  6
CONTINUOUS
 10
45.1332138415
 20
163.5101052701
  0
VERTEX
  8
0
 62
7
  6
CONTINUOUS
 10
45.169550746
 20
163.5554655902
  0
VERTEX
  8
0
 62
7
  6
CONTINUOUS
 10
45.2268236377
 20
163.6612550653
  0
VERTEX
  8
0
 62
7
  6
CONTINUOUS
 10
45.2588693189
 20
163.7791351464
  0
VERTEX
  8
0
 62
7
  6
CONTINUOUS
 10
45.273976558
 20
163.9224854817
  0
VERTEX
  8
0
 62
7
  6
CONTINUOUS
 10
45.2791114641
 20
164.0838901091
  0
VERTEX
  8
0
 62
7
  6
CONTINUOUS
 10
45.2806244854
 20
164.2714915931
  0
VERTEX
  8
0
 62
7
  6
CONTINUOUS
 10
45.280776658
 20
173.084717202
  0
SEQEND
  0
POLYLINE
  8
0
 62
7
  6
CONTINUOUS
 66
1
 70
0
  0
VERTEX
  8
0
 62
7
  6
CONTINUOUS
 10
76.6633396271
 20
162.0131710946
  0
VERTEX
  8
0
 62
7
  6
CONTINUOUS
 10
76.7166555351
 20
162.0208263179
  0
VERTEX
  8
0
 62
7
  6
CONTINUOUS
 10
76.8185267052
 20
162.0575226025
  0
VERTEX
  8
0
 62
7
  6
CONTINUOUS
 10
76.9073704714
 20
162.1207107753
  0
VERTEX
  8
0
 62
7
  6
CONTINUOUS
 10
76.9758016251
 20
162.2054564984
  0
VERTEX
  8
0
 62
7
  6
CONTINUOUS
 10
77.018843829
 20
162.3055599256
  0
VERTEX
  8
0
 62
7
  6
CONTINUOUS
 10
77.033276658
 20
162.4120397671
  0
SEQEND
  0
POLYLINE
  8
0
 62
7
  6
CONTINUOUS
 66
1
 70
0
  0
VERTEX
  8
0
 62
7
  6
CONTINUOUS
 10
70.3133396271
 20
162.0131710946
  0
VERTEX
  8
0
 62
7
  6
CONTINUOUS
 10
70.3666555351
 20
162.0208263179
  0
VERTEX
  8
0
 62
7
  6
CONTINUOUS
 10
70.4685267052
 20
162.0575226025
  0
VERTEX
  8
0
 62
7
  6
CONTINUOUS
 10
70.5573704714
 20
162.1207107753
  0
VERTEX
  8
0
 62
7
  6
CONTINUOUS
 10
70.6258016251
 20
162.2054564984
  0
VERTEX
  8
0
 62
7
  6
CONTINUOUS
 10
70.668843829
 20
162.3055599256
  0
VERTEX
  8
0
 62
7
  6
CONTINUOUS
 10
70.683276658
 20
162.4120397671
  0
SEQEND
  0
POLYLINE
  8
0
 62
7
  6
CONTINUOUS
 66
1
 70
0
  0
VERTEX
  8
0
 62
7
  6
CONTINUOUS
 10
63.9633396271
 20
162.0131710946
  0
VERTEX
  8
0
 62
7
  6
CONTINUOUS
 10
64.0166555351
 20
162.0208263179
  0
VERTEX
  8
0
 62
7
  6
CONTINUOUS
 10
64.1185267052
 20
162.0575226025
  0
VERTEX
  8
0
 62
7
  6
CONTINUOUS
 10
64.2073704714
 20
162.1207107753
  0
VERTEX
  8
0
 62
7
  6
CONTINUOUS
 10
64.2758016251
 20
162.2054564984
  0
VERTEX
  8
0
 62
7
  6
CONTINUOUS
 10
64.318843829
 20
162.3055599256
  0
VERTEX
  8
0
 62
7
  6
CONTINUOUS
 10
64.333276658
 20
162.4120397671
  0
SEQEND
  0
LINE
  8
0
 62
7
  6
CONTINUOUS
 10
82.8368387303
 20
161.9987647282
 11
83.0133872252
 21
162.0131751745
  0
LINE
  8
0
 62
7
  6
CONTINUOUS
 10
76.4868387303
 20
161.9987647282
 11
76.6633872252
 21
162.0131751745
  0
LINE
  8
0
 62
7
  6
CONTINUOUS
 10
70.1368387303
 20
161.9987647282
 11
70.3133872252
 21
162.0131751745
  0
LINE
  8
0
 62
7
  6
CONTINUOUS
 10
63.7868387303
 20
161.9987647282
 11
63.9633872252
 21
162.0131751745
  0
LINE
  8
0
 62
7
  6
CONTINUOUS
 10
57.4368387303
 20
161.9987647282
 11
57.6133872252
 21
162.0131751745
  0
LINE
  8
0
 62
7
  6
CONTINUOUS
 10
51.1736313324
 20
162.00600313
 11
51.2633872252
 21
162.0131751745
  0
POLYLINE
  8
0
 62
7
  6
CONTINUOUS
 66
1
 70
0
  0
VERTEX
  8
0
 62
7
  6
CONTINUOUS
 10
101.7284671749
 20
161.9900985843
  0
VERTEX
  8
0
 62
7
  6
CONTINUOUS
 10
101.7585497666
 20
161.9905884557
  0
VERTEX
  8
0
 62
7
  6
CONTINUOUS
 10
101.8169655118
 20
161.9935254633
  0
VERTEX
  8
0
 62
7
  6
CONTINUOUS
 10
101.8868387303
 20
161.9987647282
  0
SEQEND
  0
POLYLINE
  8
0
 62
7
  6
CONTINUOUS
 66
1
 70
0
  0
VERTEX
  8
0
 62
7
  6
CONTINUOUS
 10
95.3784671749
 20
161.9900985843
  0
VERTEX
  8
0
 62
7
  6
CONTINUOUS
 10
95.4085497666
 20
161.9905884557
  0
VERTEX
  8
0
 62
7
  6
CONTINUOUS
 10
95.4669655118
 20
161.9935254633
  0
VERTEX
  8
0
 62
7
  6
CONTINUOUS
 10
95.5368387303
 20
161.9987647282
  0
SEQEND
  0
POLYLINE
  8
0
 62
7
  6
CONTINUOUS
 66
1
 70
0
  0
VERTEX
  8
0
 62
7
  6
CONTINUOUS
 10
89.0284671749
 20
161.9900985843
  0
VERTEX
  8
0
 62
7
  6
CONTINUOUS
 10
89.0585497666
 20
161.9905884557
  0
VERTEX
  8
0
 62
7
  6
CONTINUOUS
 10
89.1169655118
 20
161.9935254633
  0
VERTEX
  8
0
 62
7
  6
CONTINUOUS
 10
89.1868387303
 20
161.9987647282
  0
SEQEND
  0
POLYLINE
  8
0
 62
7
  6
CONTINUOUS
 66
1
 70
0
  0
VERTEX
  8
0
 62
7
  6
CONTINUOUS
 10
82.6784671749
 20
161.9900985843
  0
VERTEX
  8
0
 62
7
  6
CONTINUOUS
 10
82.7085497666
 20
161.9905884557
  0
VERTEX
  8
0
 62
7
  6
CONTINUOUS
 10
82.7669655118
 20
161.9935254633
  0
VERTEX
  8
0
 62
7
  6
CONTINUOUS
 10
82.8368387303
 20
161.9987647282
  0
SEQEND
  0
POLYLINE
  8
0
 62
7
  6
CONTINUOUS
 66
1
 70
0
  0
VERTEX
  8
0
 62
7
  6
CONTINUOUS
 10
76.3284671749
 20
161.9900985843
  0
VERTEX
  8
0
 62
7
  6
CONTINUOUS
 10
76.3585497666
 20
161.9905884557
  0
VERTEX
  8
0
 62
7
  6
CONTINUOUS
 10
76.4169655118
 20
161.9935254633
  0
VERTEX
  8
0
 62
7
  6
CONTINUOUS
 10
76.4868387303
 20
161.9987647282
  0
SEQEND
  0
POLYLINE
  8
0
 62
7
  6
CONTINUOUS
 66
1
 70
0
  0
VERTEX
  8
0
 62
7
  6
CONTINUOUS
 10
69.9784671749
 20
161.9900985843
  0
VERTEX
  8
0
 62
7
  6
CONTINUOUS
 10
70.0085497666
 20
161.9905884557
  0
VERTEX
  8
0
 62
7
  6
CONTINUOUS
 10
70.0669655118
 20
161.9935254633
  0
VERTEX
  8
0
 62
7
  6
CONTINUOUS
 10
70.1368387303
 20
161.9987647282
  0
SEQEND
  0
POLYLINE
  8
0
 62
7
  6
CONTINUOUS
 66
1
 70
0
  0
VERTEX
  8
0
 62
7
  6
CONTINUOUS
 10
63.628467175
 20
161.9900985843
  0
VERTEX
  8
0
 62
7
  6
CONTINUOUS
 10
63.6585497666
 20
161.9905884557
  0
VERTEX
  8
0
 62
7
  6
CONTINUOUS
 10
63.7169655118
 20
161.9935254633
  0
VERTEX
  8
0
 62
7
  6
CONTINUOUS
 10
63.7868387303
 20
161.9987647282
  0
SEQEND
  0
POLYLINE
  8
0
 62
7
  6
CONTINUOUS
 66
1
 70
0
  0
VERTEX
  8
0
 62
7
  6
CONTINUOUS
 10
57.278467175
 20
161.9900985843
  0
VERTEX
  8
0
 62
7
  6
CONTINUOUS
 10
57.3085497666
 20
161.9905884557
  0
VERTEX
  8
0
 62
7
  6
CONTINUOUS
 10
57.3669655118
 20
161.9935254633
  0
VERTEX
  8
0
 62
7
  6
CONTINUOUS
 10
57.4368387303
 20
161.9987647282
  0
SEQEND
  0
POLYLINE
  8
0
 62
7
  6
CONTINUOUS
 66
1
 70
0
  0
VERTEX
  8
0
 62
7
  6
CONTINUOUS
 10
50.928467175
 20
161.9900985843
  0
VERTEX
  8
0
 62
7
  6
CONTINUOUS
 10
50.9585497666
 20
161.9905884557
  0
VERTEX
  8
0
 62
7
  6
CONTINUOUS
 10
51.0169655118
 20
161.9935254633
  0
VERTEX
  8
0
 62
7
  6
CONTINUOUS
 10
51.0868387303
 20
161.9987647282
  0
VERTEX
  8
0
 62
7
  6
CONTINUOUS
 10
51.1736313324
 20
162.00600313
  0
SEQEND
  0
POLYLINE
  8
0
 62
7
  6
CONTINUOUS
 66
1
 70
0
  0
VERTEX
  8
0
 62
7
  6
CONTINUOUS
 10
44.578467175
 20
161.9900985843
  0
VERTEX
  8
0
 62
7
  6
CONTINUOUS
 10
44.6085497666
 20
161.9905884557
  0
VERTEX
  8
0
 62
7
  6
CONTINUOUS
 10
44.6669655118
 20
161.9935254633
  0
VERTEX
  8
0
 62
7
  6
CONTINUOUS
 10
44.7368387303
 20
161.9987647282
  0
SEQEND
  0
POLYLINE
  8
0
 62
7
  6
CONTINUOUS
 66
1
 70
0
  0
VERTEX
  8
0
 62
7
  6
CONTINUOUS
 10
38.228467175
 20
161.9900985843
  0
VERTEX
  8
0
 62
7
  6
CONTINUOUS
 10
38.2585497666
 20
161.9905884557
  0
VERTEX
  8
0
 62
7
  6
CONTINUOUS
 10
38.3169655118
 20
161.9935254633
  0
VERTEX
  8
0
 62
7
  6
CONTINUOUS
 10
38.3868387303
 20
161.9987647282
  0
SEQEND
  0
LINE
  8
0
 62
7
  6
CONTINUOUS
 10
102.033276658
 20
162.7900978997
 11
102.035776658
 21
162.7901014153
  0
LINE
  8
0
 62
7
  6
CONTINUOUS
 10
95.683276658
 20
162.7900978997
 11
95.685776658
 21
162.7901014153
  0
LINE
  8
0
 62
7
  6
CONTINUOUS
 10
89.333276658
 20
162.7900978997
 11
89.335776658
 21
162.7901014153
  0
LINE
  8
0
 62
7
  6
CONTINUOUS
 10
82.983276658
 20
162.7900978997
 11
82.985776658
 21
162.7901014153
  0
LINE
  8
0
 62
7
  6
CONTINUOUS
 10
76.633276658
 20
162.7900978997
 11
76.635776658
 21
162.7901014153
  0
LINE
  8
0
 62
7
  6
CONTINUOUS
 10
101.7296064864
 20
161.9900978997
 11
100.658276658
 21
161.9900978997
  0
LINE
  8
0
 62
7
  6
CONTINUOUS
 10
95.3796064864
 20
161.9900978997
 11
93.8619468296
 21
161.9900978997
  0
LINE
  8
0
 62
7
  6
CONTINUOUS
 10
89.0296064864
 20
161.9900978997
 11
87.5119468296
 21
161.9900978997
  0
LINE
  8
0
 62
7
  6
CONTINUOUS
 10
82.6796064864
 20
161.9900978997
 11
81.1619468296
 21
161.9900978997
  0
LINE
  8
0
 62
7
  6
CONTINUOUS
 10
76.3296064864
 20
161.9900978997
 11
74.8119468296
 21
161.9900978997
  0
LINE
  8
0
 62
7
  6
CONTINUOUS
 10
69.9796064864
 20
161.9900978997
 11
68.4619468296
 21
161.9900978997
  0
LINE
  8
0
 62
7
  6
CONTINUOUS
 10
36.7119468296
 20
161.9900978997
 11
38.2296064864
 21
161.9900978997
  0
LINE
  8
0
 62
7
  6
CONTINUOUS
 10
43.508276658
 20
161.9900978997
 11
44.5796064864
 21
161.9900978997
  0
LINE
  8
0
 62
7
  6
CONTINUOUS
 10
49.4119468296
 20
161.9900978997
 11
50.9296064864
 21
161.9900978997
  0
LINE
  8
0
 62
7
  6
CONTINUOUS
 10
55.7619468296
 20
161.9900978997
 11
57.2796064864
 21
161.9900978997
  0
LINE
  8
0
 62
7
  6
CONTINUOUS
 10
62.1119468296
 20
161.9900978997
 11
63.6296064864
 21
161.9900978997
  0
LINE
  8
0
 62
7
  6
CONTINUOUS
 10
106.5619468296
 20
161.9900978997
 11
108.423276658
 21
161.9900978997
  0
LINE
  8
0
 62
7
  6
CONTINUOUS
 10
100.658276658
 20
162.7900978997
 11
100.608276658
 21
162.7900978997
  0
LINE
  8
0
 62
7
  6
CONTINUOUS
 10
43.458276658
 20
162.7900978997
 11
43.5082766579
 21
162.7900978997
  0
LINE
  8
0
 62
7
  6
CONTINUOUS
 10
36.405776658
 20
162.7901014153
 11
36.408276658
 21
162.7900978997
  0
LINE
  8
0
 62
7
  6
CONTINUOUS
 10
49.105776658
 20
162.7901014153
 11
49.108276658
 21
162.7900978997
  0
LINE
  8
0
 62
7
  6
CONTINUOUS
 10
55.455776658
 20
162.7901014153
 11
55.458276658
 21
162.7900978997
  0
LINE
  8
0
 62
7
  6
CONTINUOUS
 10
61.805776658
 20
162.7901014153
 11
61.808276658
 21
162.7900978997
  0
LINE
  8
0
 62
7
  6
CONTINUOUS
 10
68.155776658
 20
162.7901014153
 11
68.158276658
 21
162.7900978997
  0
LINE
  8
0
 62
7
  6
CONTINUOUS
 10
36.6838932629
 20
161.9905614574
 11
36.7130869678
 21
161.9900985842
  0
LINE
  8
0
 62
7
  6
CONTINUOUS
 10
49.3838932629
 20
161.9905614574
 11
49.4130869678
 21
161.9900985842
  0
LINE
  8
0
 62
7
  6
CONTINUOUS
 10
55.7338932629
 20
161.9905614574
 11
55.7630869678
 21
161.9900985842
  0
LINE
  8
0
 62
7
  6
CONTINUOUS
 10
62.0838932629
 20
161.9905614574
 11
62.1130869678
 21
161.9900985842
  0
LINE
  8
0
 62
7
  6
CONTINUOUS
 10
68.4338932629
 20
161.9905614574
 11
68.4630869678
 21
161.9900985842
  0
LINE
  8
0
 62
7
  6
CONTINUOUS
 10
74.7838932629
 20
161.9905614574
 11
74.8130869678
 21
161.9900985842
  0
LINE
  8
0
 62
7
  6
CONTINUOUS
 10
81.1338932629
 20
161.9905614574
 11
81.1630869678
 21
161.9900985842
  0
LINE
  8
0
 62
7
  6
CONTINUOUS
 10
87.4838932629
 20
161.9905614574
 11
87.5130869678
 21
161.9900985842
  0
LINE
  8
0
 62
7
  6
CONTINUOUS
 10
93.8338932629
 20
161.9905614574
 11
93.8630869678
 21
161.9900985842
  0
LINE
  8
0
 62
7
  6
CONTINUOUS
 10
106.5338932629
 20
161.9905614574
 11
106.5630869678
 21
161.9900985842
  0
POLYLINE
  8
0
 62
7
  6
CONTINUOUS
 66
1
 70
0
  0
VERTEX
  8
0
 62
7
  6
CONTINUOUS
 10
93.5281659841
 20
162.0131751825
  0
VERTEX
  8
0
 62
7
  6
CONTINUOUS
 10
93.6183111766
 20
162.0059707332
  0
VERTEX
  8
0
 62
7
  6
CONTINUOUS
 10
93.7053298199
 20
161.9987146605
  0
VERTEX
  8
0
 62
7
  6
CONTINUOUS
 10
93.7753393259
 20
161.993476403
  0
VERTEX
  8
0
 62
7
  6
CONTINUOUS
 10
93.8338932629
 20
161.9905614574
  0
SEQEND
  0
POLYLINE
  8
0
 62
7
  6
CONTINUOUS
 66
1
 70
0
  0
VERTEX
  8
0
 62
7
  6
CONTINUOUS
 10
61.7781659841
 20
162.0131751825
  0
VERTEX
  8
0
 62
7
  6
CONTINUOUS
 10
61.9553298199
 20
161.9987146605
  0
VERTEX
  8
0
 62
7
  6
CONTINUOUS
 10
62.0253393259
 20
161.993476403
  0
VERTEX
  8
0
 62
7
  6
CONTINUOUS
 10
62.0838932629
 20
161.9905614574
  0
SEQEND
  0
POLYLINE
  8
0
 62
7
  6
CONTINUOUS
 66
1
 70
0
  0
VERTEX
  8
0
 62
7
  6
CONTINUOUS
 10
68.1281659841
 20
162.0131751825
  0
VERTEX
  8
0
 62
7
  6
CONTINUOUS
 10
68.3053298199
 20
161.9987146605
  0
VERTEX
  8
0
 62
7
  6
CONTINUOUS
 10
68.3753393259
 20
161.993476403
  0
VERTEX
  8
0
 62
7
  6
CONTINUOUS
 10
68.4338932629
 20
161.9905614574
  0
SEQEND
  0
POLYLINE
  8
0
 62
7
  6
CONTINUOUS
 66
1
 70
0
  0
VERTEX
  8
0
 62
7
  6
CONTINUOUS
 10
74.4781659841
 20
162.0131751825
  0
VERTEX
  8
0
 62
7
  6
CONTINUOUS
 10
74.6553298199
 20
161.9987146605
  0
VERTEX
  8
0
 62
7
  6
CONTINUOUS
 10
74.7253393259
 20
161.993476403
  0
VERTEX
  8
0
 62
7
  6
CONTINUOUS
 10
74.7838932629
 20
161.9905614574
  0
SEQEND
  0
POLYLINE
  8
0
 62
7
  6
CONTINUOUS
 66
1
 70
0
  0
VERTEX
  8
0
 62
7
  6
CONTINUOUS
 10
80.8281659841
 20
162.0131751825
  0
VERTEX
  8
0
 62
7
  6
CONTINUOUS
 10
81.0053298199
 20
161.9987146605
  0
VERTEX
  8
0
 62
7
  6
CONTINUOUS
 10
81.0753393259
 20
161.993476403
  0
VERTEX
  8
0
 62
7
  6
CONTINUOUS
 10
81.1338932629
 20
161.9905614574
  0
SEQEND
  0
POLYLINE
  8
0
 62
7
  6
CONTINUOUS
 66
1
 70
0
  0
VERTEX
  8
0
 62
7
  6
CONTINUOUS
 10
87.1781659841
 20
162.0131751825
  0
VERTEX
  8
0
 62
7
  6
CONTINUOUS
 10
87.3553298199
 20
161.9987146605
  0
VERTEX
  8
0
 62
7
  6
CONTINUOUS
 10
87.4253393259
 20
161.993476403
  0
VERTEX
  8
0
 62
7
  6
CONTINUOUS
 10
87.4838932629
 20
161.9905614574
  0
SEQEND
  0
POLYLINE
  8
0
 62
7
  6
CONTINUOUS
 66
1
 70
0
  0
VERTEX
  8
0
 62
7
  6
CONTINUOUS
 10
61.8057766959
 20
162.7901027823
  0
VERTEX
  8
0
 62
7
  6
CONTINUOUS
 10
61.7210977757
 20
162.801437498
  0
VERTEX
  8
0
 62
7
  6
CONTINUOUS
 10
61.6384352036
 20
162.8360757995
  0
VERTEX
  8
0
 62
7
  6
CONTINUOUS
 10
61.5607718634
 20
162.8955056497
  0
VERTEX
  8
0
 62
7
  6
CONTINUOUS
 10
61.5249603161
 20
162.9352499829
  0
VERTEX
  8
0
 62
7
  6
CONTINUOUS
 10
61.4633149671
 20
163.0352925505
  0
VERTEX
  8
0
 62
7
  6
CONTINUOUS
 10
61.4212886803
 20
163.1605354239
  0
SEQEND
  0
POLYLINE
  8
0
 62
7
  6
CONTINUOUS
 66
1
 70
0
  0
VERTEX
  8
0
 62
7
  6
CONTINUOUS
 10
68.1557766959
 20
162.7901027823
  0
VERTEX
  8
0
 62
7
  6
CONTINUOUS
 10
68.0710977757
 20
162.801437498
  0
VERTEX
  8
0
 62
7
  6
CONTINUOUS
 10
67.9884352036
 20
162.8360757995
  0
VERTEX
  8
0
 62
7
  6
CONTINUOUS
 10
67.9107718634
 20
162.8955056497
  0
VERTEX
  8
0
 62
7
  6
CONTINUOUS
 10
67.8749603161
 20
162.9352499829
  0
VERTEX
  8
0
 62
7
  6
CONTINUOUS
 10
67.8133149671
 20
163.0352925505
  0
VERTEX
  8
0
 62
7
  6
CONTINUOUS
 10
67.7712886803
 20
163.1605354239
  0
SEQEND
  0
POLYLINE
  8
0
 62
7
  6
CONTINUOUS
 66
1
 70
0
  0
VERTEX
  8
0
 62
7
  6
CONTINUOUS
 10
68.1282136888
 20
162.0131710946
  0
VERTEX
  8
0
 62
7
  6
CONTINUOUS
 10
68.0748977809
 20
162.0208263179
  0
VERTEX
  8
0
 62
7
  6
CONTINUOUS
 10
67.9730266107
 20
162.0575226025
  0
VERTEX
  8
0
 62
7
  6
CONTINUOUS
 10
67.8841828446
 20
162.1207107753
  0
VERTEX
  8
0
 62
7
  6
CONTINUOUS
 10
67.8157516909
 20
162.2054564984
  0
VERTEX
  8
0
 62
7
  6
CONTINUOUS
 10
67.772709487
 20
162.3055599256
  0
VERTEX
  8
0
 62
7
  6
CONTINUOUS
 10
67.758276658
 20
162.4120397671
  0
SEQEND
  0
POLYLINE
  8
0
 62
7
  6
CONTINUOUS
 66
1
 70
0
  0
VERTEX
  8
0
 62
7
  6
CONTINUOUS
 10
74.4782136888
 20
162.0131710946
  0
VERTEX
  8
0
 62
7
  6
CONTINUOUS
 10
74.4248977809
 20
162.0208263179
  0
VERTEX
  8
0
 62
7
  6
CONTINUOUS
 10
74.3230266107
 20
162.0575226025
  0
VERTEX
  8
0
 62
7
  6
CONTINUOUS
 10
74.2341828446
 20
162.1207107753
  0
VERTEX
  8
0
 62
7
  6
CONTINUOUS
 10
74.1657516909
 20
162.2054564984
  0
VERTEX
  8
0
 62
7
  6
CONTINUOUS
 10
74.122709487
 20
162.3055599256
  0
VERTEX
  8
0
 62
7
  6
CONTINUOUS
 10
74.108276658
 20
162.4120397671
  0
SEQEND
  0
POLYLINE
  8
0
 62
7
  6
CONTINUOUS
 66
1
 70
0
  0
VERTEX
  8
0
 62
7
  6
CONTINUOUS
 10
80.8282136888
 20
162.0131710946
  0
VERTEX
  8
0
 62
7
  6
CONTINUOUS
 10
80.7748977809
 20
162.0208263179
  0
VERTEX
  8
0
 62
7
  6
CONTINUOUS
 10
80.6730266107
 20
162.0575226025
  0
VERTEX
  8
0
 62
7
  6
CONTINUOUS
 10
80.5841828446
 20
162.1207107753
  0
VERTEX
  8
0
 62
7
  6
CONTINUOUS
 10
80.5157516909
 20
162.2054564984
  0
VERTEX
  8
0
 62
7
  6
CONTINUOUS
 10
80.472709487
 20
162.3055599256
  0
VERTEX
  8
0
 62
7
  6
CONTINUOUS
 10
80.458276658
 20
162.4120397671
  0
SEQEND
  0
POLYLINE
  8
0
 62
7
  6
CONTINUOUS
 66
1
 70
0
  0
VERTEX
  8
0
 62
7
  6
CONTINUOUS
 10
53.5490958644
 20
179.3408560852
  0
VERTEX
  8
0
 62
7
  6
CONTINUOUS
 10
53.5274803614
 20
179.3869044959
  0
VERTEX
  8
0
 62
7
  6
CONTINUOUS
 10
53.4925836159
 20
179.4232422327
  0
VERTEX
  8
0
 62
7
  6
CONTINUOUS
 10
53.4494961993
 20
179.4463216797
  0
VERTEX
  8
0
 62
7
  6
CONTINUOUS
 10
53.4031489861
 20
179.4536551931
  0
VERTEX
  8
0
 62
7
  6
CONTINUOUS
 10
53.3571377756
 20
179.4446058144
  0
VERTEX
  8
0
 62
7
  6
CONTINUOUS
 10
53.3143476861
 20
179.4205347282
  0
VERTEX
  8
0
 62
7
  6
CONTINUOUS
 10
53.280703528
 20
179.3846605908
  0
VERTEX
  8
0
 62
7
  6
CONTINUOUS
 10
53.2601413757
 20
179.3402856542
  0
SEQEND
  0
LINE
  8
0
 62
7
  6
CONTINUOUS
 10
53.5490958644
 20
179.3408560852
 11
54.9759711114
 21
174.2190800555
  0
LINE
  8
0
 62
7
  6
CONTINUOUS
 10
48.058276658
 20
195.0984540545
 11
48.055776658
 21
195.1095749735
  0
POLYLINE
  8
0
 62
7
  6
CONTINUOUS
 66
1
 70
0
  0
VERTEX
  8
0
 62
7
  6
CONTINUOUS
 10
55.03818112
 20
170.2132229738
  0
VERTEX
  8
0
 62
7
  6
CONTINUOUS
 10
55.0566016237
 20
170.0736361838
  0
VERTEX
  8
0
 62
7
  6
CONTINUOUS
 10
55.055776658
 20
170.0865017553
  0
SEQEND
  0
POLYLINE
  8
0
 62
7
  6
CONTINUOUS
 66
1
 70
0
  0
VERTEX
  8
0
 62
7
  6
CONTINUOUS
 10
54.8056350927
 20
194.1051184907
  0
VERTEX
  8
0
 62
7
  6
CONTINUOUS
 10
54.8042562705
 20
194.2867601586
  0
VERTEX
  8
0
 62
7
  6
CONTINUOUS
 10
54.7998459282
 20
194.4413061515
  0
VERTEX
  8
0
 62
7
  6
CONTINUOUS
 10
54.7874607351
 20
194.578687466
  0
VERTEX
  8
0
 62
7
  6
CONTINUOUS
 10
54.7591686476
 20
194.6989840921
  0
VERTEX
  8
0
 62
7
  6
CONTINUOUS
 10
54.7088898974
 20
194.8034864818
  0
VERTEX
  8
0
 62
7
  6
CONTINUOUS
 10
54.6751813571
 20
194.8501706044
  0
VERTEX
  8
0
 62
7
  6
CONTINUOUS
 10
54.5996865544
 20
194.9274051667
  0
VERTEX
  8
0
 62
7
  6
CONTINUOUS
 10
54.5315353854
 20
194.9811559909
  0
VERTEX
  8
0
 62
7
  6
CONTINUOUS
 10
54.4765808568
 20
195.0211490048
  0
VERTEX
  8
0
 62
7
  6
CONTINUOUS
 10
54.4362110912
 20
195.0547563224
  0
VERTEX
  8
0
 62
7
  6
CONTINUOUS
 10
54.4132305241
 20
195.0847246492
  0
VERTEX
  8
0
 62
7
  6
CONTINUOUS
 10
54.408276658
 20
195.0984540545
  0
SEQEND
  0
LINE
  8
0
 62
7
  6
CONTINUOUS
 10
54.805776658
 20
185.7495048905
 11
54.8056350927
 21
194.1051184907
  0
LINE
  8
0
 62
7
  6
CONTINUOUS
 10
54.808276658
 20
188.3651755402
 11
54.808276658
 21
195.9681560322
  0
LINE
  8
0
 62
7
  6
CONTINUOUS
 10
55.055776658
 20
172.6744141449
 11
55.055776658
 21
163.3068163267
  0
LINE
  8
0
 62
7
  6
CONTINUOUS
 10
55.058276658
 20
163.2832409186
 11
55.058276658
 21
162.4120397671
  0
POLYLINE
  8
0
 62
7
  6
CONTINUOUS
 66
1
 70
0
  0
VERTEX
  8
0
 62
7
  6
CONTINUOUS
 10
55.0759731017
 20
173.1662973018
  0
VERTEX
  8
0
 62
7
  6
CONTINUOUS
 10
55.0808071642
 20
173.5912332003
  0
VERTEX
  8
0
 62
7
  6
CONTINUOUS
 10
55.0607117053
 20
173.8028515025
  0
VERTEX
  8
0
 62
7
  6
CONTINUOUS
 10
54.9759711114
 20
174.2190800555
  0
SEQEND
  0
LINE
  8
0
 62
7
  6
CONTINUOUS
 10
55.055776658
 20
172.6744141449
 11
55.0759731017
 21
173.1662973018
  0
POLYLINE
  8
0
 62
7
  6
CONTINUOUS
 66
1
 70
0
  0
VERTEX
  8
0
 62
7
  6
CONTINUOUS
 10
58.230776658
 20
195.0733794727
  0
VERTEX
  8
0
 62
7
  6
CONTINUOUS
 10
58.2462995597
 20
195.2197100885
  0
VERTEX
  8
0
 62
7
  6
CONTINUOUS
 10
58.2883078954
 20
195.344888153
  0
VERTEX
  8
0
 62
7
  6
CONTINUOUS
 10
58.3499557741
 20
195.4449401222
  0
VERTEX
  8
0
 62
7
  6
CONTINUOUS
 10
58.3857691047
 20
195.4846874445
  0
VERTEX
  8
0
 62
7
  6
CONTINUOUS
 10
58.4634312553
 20
195.5441177146
  0
VERTEX
  8
0
 62
7
  6
CONTINUOUS
 10
58.5460960969
 20
195.5787578463
  0
VERTEX
  8
0
 62
7
  6
CONTINUOUS
 10
58.6307766959
 20
195.5900930171
  0
SEQEND
  0
LINE
  8
0
 62
7
  6
CONTINUOUS
 10
51.230776658
 20
163.2706208258
 11
51.233276658
 21
163.2817417449
  0
LINE
  8
0
 62
7
  6
CONTINUOUS
 10
51.7409482534
 20
173.8902554022
 11
53.2601413757
 21
179.3402856542
  0
POLYLINE
  8
0
 62
7
  6
CONTINUOUS
 66
1
 70
0
  0
VERTEX
  8
0
 62
7
  6
CONTINUOUS
 10
36.061471697
 20
170.46972389
  0
VERTEX
  8
0
 62
7
  6
CONTINUOUS
 10
36.1047388568
 20
170.5080492312
  0
VERTEX
  8
0
 62
7
  6
CONTINUOUS
 10
36.1295587374
 20
170.5275348061
  0
VERTEX
  8
0
 62
7
  6
CONTINUOUS
 10
36.1831360152
 20
170.5668619748
  0
SEQEND
  0
POLYLINE
  8
0
 62
7
  6
CONTINUOUS
 66
1
 70
0
  0
VERTEX
  8
0
 62
7
  6
CONTINUOUS
 10
57.6133396271
 20
162.0131710946
  0
VERTEX
  8
0
 62
7
  6
CONTINUOUS
 10
57.6666555351
 20
162.0208263179
  0
VERTEX
  8
0
 62
7
  6
CONTINUOUS
 10
57.7685267052
 20
162.0575226025
  0
VERTEX
  8
0
 62
7
  6
CONTINUOUS
 10
57.8573704714
 20
162.1207107753
  0
VERTEX
  8
0
 62
7
  6
CONTINUOUS
 10
57.9258016251
 20
162.2054564984
  0
VERTEX
  8
0
 62
7
  6
CONTINUOUS
 10
57.968843829
 20
162.3055599256
  0
VERTEX
  8
0
 62
7
  6
CONTINUOUS
 10
57.983276658
 20
162.4120397671
  0
SEQEND
  0
POLYLINE
  8
0
 62
7
  6
CONTINUOUS
 66
1
 70
0
  0
VERTEX
  8
0
 62
7
  6
CONTINUOUS
 10
51.2633396271
 20
162.0131710946
  0
VERTEX
  8
0
 62
7
  6
CONTINUOUS
 10
51.3166555351
 20
162.0208263179
  0
VERTEX
  8
0
 62
7
  6
CONTINUOUS
 10
51.4185267052
 20
162.0575226025
  0
VERTEX
  8
0
 62
7
  6
CONTINUOUS
 10
51.5073704714
 20
162.1207107753
  0
VERTEX
  8
0
 62
7
  6
CONTINUOUS
 10
51.5758016251
 20
162.2054564984
  0
VERTEX
  8
0
 62
7
  6
CONTINUOUS
 10
51.618843829
 20
162.3055599256
  0
VERTEX
  8
0
 62
7
  6
CONTINUOUS
 10
51.633276658
 20
162.4120397671
  0
SEQEND
  0
POLYLINE
  8
0
 62
7
  6
CONTINUOUS
 66
1
 70
0
  0
VERTEX
  8
0
 62
7
  6
CONTINUOUS
 10
44.9133396271
 20
162.0131710946
  0
VERTEX
  8
0
 62
7
  6
CONTINUOUS
 10
44.9666555351
 20
162.0208263179
  0
VERTEX
  8
0
 62
7
  6
CONTINUOUS
 10
45.0685267052
 20
162.0575226025
  0
VERTEX
  8
0
 62
7
  6
CONTINUOUS
 10
45.1573704714
 20
162.1207107753
  0
VERTEX
  8
0
 62
7
  6
CONTINUOUS
 10
45.2258016251
 20
162.2054564984
  0
VERTEX
  8
0
 62
7
  6
CONTINUOUS
 10
45.268843829
 20
162.3055599256
  0
VERTEX
  8
0
 62
7
  6
CONTINUOUS
 10
45.283276658
 20
162.4120397671
  0
SEQEND
  0
LINE
  8
0
 62
7
  6
CONTINUOUS
 10
44.7368387303
 20
161.9987647282
 11
44.9133872252
 21
162.0131751745
  0
LINE
  8
0
 62
7
  6
CONTINUOUS
 10
38.3868387303
 20
161.9987647282
 11
38.5633872252
 21
162.0131751745
  0
LINE
  8
DEFAULT_1
 62
2
  6
CENTER
 10
34.008276658
 20
166.4900978997
 11
110.723276658
 21
166.4900978997
  0
POLYLINE
  8
0
 62
7
  6
CONTINUOUS
 66
1
 70
0
  0
VERTEX
  8
0
 62
7
  6
CONTINUOUS
 10
106.2281659841
 20
162.0131751825
  0
VERTEX
  8
0
 62
7
  6
CONTINUOUS
 10
106.4053298199
 20
161.9987146605
  0
VERTEX
  8
0
 62
7
  6
CONTINUOUS
 10
106.4753393259
 20
161.993476403
  0
VERTEX
  8
0
 62
7
  6
CONTINUOUS
 10
106.5338932629
 20
161.9905614574
  0
SEQEND
  0
POLYLINE
  8
0
 62
7
  6
CONTINUOUS
 66
1
 70
0
  0
VERTEX
  8
0
 62
7
  6
CONTINUOUS
 10
87.1782136888
 20
162.0131710946
  0
VERTEX
  8
0
 62
7
  6
CONTINUOUS
 10
87.1248977809
 20
162.0208263179
  0
VERTEX
  8
0
 62
7
  6
CONTINUOUS
 10
87.0230266107
 20
162.0575226025
  0
VERTEX
  8
0
 62
7
  6
CONTINUOUS
 10
86.9341828446
 20
162.1207107753
  0
VERTEX
  8
0
 62
7
  6
CONTINUOUS
 10
86.8657516909
 20
162.2054564984
  0
VERTEX
  8
0
 62
7
  6
CONTINUOUS
 10
86.822709487
 20
162.3055599256
  0
VERTEX
  8
0
 62
7
  6
CONTINUOUS
 10
86.808276658
 20
162.4120397671
  0
SEQEND
  0
POLYLINE
  8
0
 62
7
  6
CONTINUOUS
 66
1
 70
0
  0
VERTEX
  8
0
 62
7
  6
CONTINUOUS
 10
93.5282136888
 20
162.0131710946
  0
VERTEX
  8
0
 62
7
  6
CONTINUOUS
 10
93.4748977809
 20
162.0208263179
  0
VERTEX
  8
0
 62
7
  6
CONTINUOUS
 10
93.3730266107
 20
162.0575226025
  0
VERTEX
  8
0
 62
7
  6
CONTINUOUS
 10
93.2841828446
 20
162.1207107753
  0
VERTEX
  8
0
 62
7
  6
CONTINUOUS
 10
93.2157516909
 20
162.2054564984
  0
VERTEX
  8
0
 62
7
  6
CONTINUOUS
 10
93.172709487
 20
162.3055599256
  0
VERTEX
  8
0
 62
7
  6
CONTINUOUS
 10
93.158276658
 20
162.4120397671
  0
SEQEND
  0
POLYLINE
  8
0
 62
7
  6
CONTINUOUS
 66
1
 70
0
  0
VERTEX
  8
0
 62
7
  6
CONTINUOUS
 10
33.1710345515
 20
170.7995447337
  0
VERTEX
  8
0
 62
7
  6
CONTINUOUS
 10
33.1301505348
 20
170.8054357812
  0
VERTEX
  8
0
 62
7
  6
CONTINUOUS
 10
33.0540376282
 20
170.8329889664
  0
VERTEX
  8
0
 62
7
  6
CONTINUOUS
 10
32.9880781888
 20
170.879873041
  0
VERTEX
  8
0
 62
7
  6
CONTINUOUS
 10
32.9606384715
 20
170.9093002988
  0
VERTEX
  8
0
 62
7
  6
CONTINUOUS
 10
32.9183202461
 20
170.9787233639
  0
VERTEX
  8
0
 62
7
  6
CONTINUOUS
 10
32.8961274857
 20
171.0574592988
  0
VERTEX
  8
0
 62
7
  6
CONTINUOUS
 10
32.893276658
 20
171.0987190787
  0
SEQEND
  0
POLYLINE
  8
0
 62
7
  6
CONTINUOUS
 66
1
 70
0
  0
VERTEX
  8
0
 62
7
  6
CONTINUOUS
 10
56.43650621
 20
179.4843584923
  0
VERTEX
  8
0
 62
7
  6
CONTINUOUS
 10
56.458121713
 20
179.4383100816
  0
VERTEX
  8
0
 62
7
  6
CONTINUOUS
 10
56.4930184586
 20
179.4019723447
  0
VERTEX
  8
0
 62
7
  6
CONTINUOUS
 10
56.5361058753
 20
179.3788928978
  0
VERTEX
  8
0
 62
7
  6
CONTINUOUS
 10
56.5824530886
 20
179.3715593844
  0
VERTEX
  8
0
 62
7
  6
CONTINUOUS
 10
56.628464299
 20
179.3806087633
  0
VERTEX
  8
0
 62
7
  6
CONTINUOUS
 10
56.6712543884
 20
179.4046798495
  0
VERTEX
  8
0
 62
7
  6
CONTINUOUS
 10
56.7048985464
 20
179.4405539868
  0
VERTEX
  8
0
 62
7
  6
CONTINUOUS
 10
56.7254606987
 20
179.4849289233
  0
SEQEND
  0
LINE
  8
0
 62
7
  6
CONTINUOUS
 10
56.43650621
 20
179.4843584923
 11
54.9161049493
 21
184.9418466208
  0
POLYLINE
  8
0
 62
7
  6
CONTINUOUS
 66
1
 70
0
  0
VERTEX
  8
0
 62
7
  6
CONTINUOUS
 10
54.9161049493
 20
184.9418466208
  0
VERTEX
  8
0
 62
7
  6
CONTINUOUS
 10
54.8335149323
 20
185.3416290045
  0
VERTEX
  8
0
 62
7
  6
CONTINUOUS
 10
54.805776658
 20
185.7495048905
  0
SEQEND
  0
LINE
  8
0
 62
7
  6
CONTINUOUS
 10
61.4212886803
 20
163.1605354239
 11
61.405776658
 21
163.3068163267
  0
LINE
  8
0
 62
7
  6
CONTINUOUS
 10
57.983276658
 20
170.0150202592
 11
57.983276658
 21
162.4120397671
  0
LINE
  8
0
 62
7
  6
CONTINUOUS
 10
58.230776658
 20
195.0733794727
 11
58.230776658
 21
185.2954785973
  0
LINE
  8
0
 62
7
  6
CONTINUOUS
 10
58.233276658
 20
195.096946364
 11
58.233276658
 21
195.9681560322
  0
POLYLINE
  8
0
 62
7
  6
CONTINUOUS
 66
1
 70
0
  0
VERTEX
  8
0
 62
7
  6
CONTINUOUS
 10
57.983276603
 20
170.01499967
  0
VERTEX
  8
0
 62
7
  6
CONTINUOUS
 10
57.9849516922
 20
170.0736361816
  0
VERTEX
  8
0
 62
7
  6
CONTINUOUS
 10
58.0033721956
 20
170.213222972
  0
VERTEX
  8
0
 62
7
  6
CONTINUOUS
 10
58.0408864146
 20
170.3395535288
  0
VERTEX
  8
0
 62
7
  6
CONTINUOUS
 10
58.0947841659
 20
170.4474298853
  0
VERTEX
  8
0
 62
7
  6
CONTINUOUS
 10
58.1266170591
 20
170.4930331614
  0
VERTEX
  8
0
 62
7
  6
CONTINUOUS
 10
58.1976861726
 20
170.5663205144
  0
VERTEX
  8
0
 62
7
  6
CONTINUOUS
 10
58.2755413453
 20
170.6144926273
  0
VERTEX
  8
0
 62
7
  6
CONTINUOUS
 10
58.3546614929
 20
170.6362394868
  0
VERTEX
  8
0
 62
7
  6
CONTINUOUS
 10
58.3832766617
 20
170.63786914
  0
SEQEND
  0
LINE
  8
0
 62
7
  6
CONTINUOUS
 10
58.230776658
 20
188.2936941427
 11
58.231601631
 21
188.3065598545
  0
POLYLINE
  8
0
 62
7
  6
CONTINUOUS
 66
1
 70
0
  0
VERTEX
  8
0
 62
7
  6
CONTINUOUS
 10
58.231601631
 20
188.3065598545
  0
VERTEX
  8
0
 62
7
  6
CONTINUOUS
 10
58.2131811662
 20
188.1669731356
  0
VERTEX
  8
0
 62
7
  6
CONTINUOUS
 10
58.1756669587
 20
188.0406424067
  0
VERTEX
  8
0
 62
7
  6
CONTINUOUS
 10
58.1217692222
 20
187.9327660161
  0
VERTEX
  8
0
 62
7
  6
CONTINUOUS
 10
58.0899362875
 20
187.8871626852
  0
VERTEX
  8
0
 62
7
  6
CONTINUOUS
 10
58.0188672378
 20
187.8138753566
  0
VERTEX
  8
0
 62
7
  6
CONTINUOUS
 10
57.9410121124
 20
187.7657032191
  0
VERTEX
  8
0
 62
7
  6
CONTINUOUS
 10
57.8618921971
 20
187.7439563589
  0
VERTEX
  8
0
 62
7
  6
CONTINUOUS
 10
57.8332766574
 20
187.742326644
  0
SEQEND
  0
LINE
  8
0
 62
7
  6
CONTINUOUS
 10
58.1206050626
 20
184.4899403972
 11
56.7254606987
 21
179.4849289233
  0
POLYLINE
  8
0
 62
7
  6
CONTINUOUS
 66
1
 70
0
  0
VERTEX
  8
0
 62
7
  6
CONTINUOUS
 10
51.233276658
 20
163.2817417449
  0
VERTEX
  8
0
 62
7
  6
CONTINUOUS
 10
51.2378535352
 20
163.2946988479
  0
VERTEX
  8
0
 62
7
  6
CONTINUOUS
 10
51.2589763995
 20
163.3231972051
  0
VERTEX
  8
0
 62
7
  6
CONTINUOUS
 10
51.2956425494
 20
163.3545620021
  0
VERTEX
  8
0
 62
7
  6
CONTINUOUS
 10
51.3460113589
 20
163.3913693489
  0
VERTEX
  8
0
 62
7
  6
CONTINUOUS
 10
51.4093916049
 20
163.4398563362
  0
VERTEX
  8
0
 62
7
  6
CONTINUOUS
 10
51.4832138415
 20
163.5101052701
  0
VERTEX
  8
0
 62
7
  6
CONTINUOUS
 10
51.519550746
 20
163.5554655902
  0
VERTEX
  8
0
 62
7
  6
CONTINUOUS
 10
51.5768236377
 20
163.6612550653
  0
VERTEX
  8
0
 62
7
  6
CONTINUOUS
 10
51.6088693189
 20
163.7791351465
  0
VERTEX
  8
0
 62
7
  6
CONTINUOUS
 10
51.623976558
 20
163.9224854817
  0
VERTEX
  8
0
 62
7
  6
CONTINUOUS
 10
51.6291114641
 20
164.0838901091
  0
VERTEX
  8
0
 62
7
  6
CONTINUOUS
 10
51.6306244854
 20
164.2714915931
  0
VERTEX
  8
0
 62
7
  6
CONTINUOUS
 10
51.630776658
 20
173.084717202
  0
SEQEND
  0
POLYLINE
  8
0
 62
7
  6
CONTINUOUS
 66
1
 70
0
  0
VERTEX
  8
0
 62
7
  6
CONTINUOUS
 10
38.5633396271
 20
162.0131710946
  0
VERTEX
  8
0
 62
7
  6
CONTINUOUS
 10
38.6166555351
 20
162.0208263179
  0
VERTEX
  8
0
 62
7
  6
CONTINUOUS
 10
38.7185267052
 20
162.0575226025
  0
VERTEX
  8
0
 62
7
  6
CONTINUOUS
 10
38.8073704714
 20
162.1207107753
  0
VERTEX
  8
0
 62
7
  6
CONTINUOUS
 10
38.8758016251
 20
162.2054564984
  0
VERTEX
  8
0
 62
7
  6
CONTINUOUS
 10
38.918843829
 20
162.3055599256
  0
VERTEX
  8
0
 62
7
  6
CONTINUOUS
 10
38.933276658
 20
162.4120397671
  0
SEQEND
  0
POLYLINE
  8
0
 62
7
  6
CONTINUOUS
 66
1
 70
0
  0
VERTEX
  8
0
 62
7
  6
CONTINUOUS
 10
35.6082766543
 20
170.63786914
  0
VERTEX
  8
0
 62
7
  6
CONTINUOUS
 10
35.6358586018
 20
170.636355168
  0
VERTEX
  8
0
 62
7
  6
CONTINUOUS
 10
35.7150949693
 20
170.6148941722
  0
VERTEX
  8
0
 62
7
  6
CONTINUOUS
 10
35.7932094743
 20
170.5668532952
  0
VERTEX
  8
0
 62
7
  6
CONTINUOUS
 10
35.8648335591
 20
170.4931650668
  0
VERTEX
  8
0
 62
7
  6
CONTINUOUS
 10
35.8969403896
 20
170.4471563057
  0
VERTEX
  8
0
 62
7
  6
CONTINUOUS
 10
35.951091823
 20
170.338468269
  0
VERTEX
  8
0
 62
7
  6
CONTINUOUS
 10
35.9885364458
 20
170.2115340438
  0
SEQEND
  0
POLYLINE
  8
0
 62
7
  6
CONTINUOUS
 66
1
 70
0
  0
VERTEX
  8
0
 62
7
  6
CONTINUOUS
 10
48.3082766543
 20
170.63786914
  0
VERTEX
  8
0
 62
7
  6
CONTINUOUS
 10
48.3368918229
 20
170.6362394868
  0
VERTEX
  8
0
 62
7
  6
CONTINUOUS
 10
48.4160119703
 20
170.6144926275
  0
VERTEX
  8
0
 62
7
  6
CONTINUOUS
 10
48.4938671429
 20
170.5663205148
  0
VERTEX
  8
0
 62
7
  6
CONTINUOUS
 10
48.5649362562
 20
170.4930331622
  0
VERTEX
  8
0
 62
7
  6
CONTINUOUS
 10
48.5967691495
 20
170.4474298862
  0
VERTEX
  8
0
 62
7
  6
CONTINUOUS
 10
48.6506669008
 20
170.3395535301
  0
VERTEX
  8
0
 62
7
  6
CONTINUOUS
 10
48.68818112
 20
170.2132229738
  0
SEQEND
  0
POLYLINE
  8
0
 62
7
  6
CONTINUOUS
 66
1
 70
0
  0
VERTEX
  8
0
 62
7
  6
CONTINUOUS
 10
54.6582766543
 20
170.63786914
  0
VERTEX
  8
0
 62
7
  6
CONTINUOUS
 10
54.6868918229
 20
170.6362394868
  0
VERTEX
  8
0
 62
7
  6
CONTINUOUS
 10
54.7660119703
 20
170.6144926275
  0
VERTEX
  8
0
 62
7
  6
CONTINUOUS
 10
54.8438671429
 20
170.5663205148
  0
VERTEX
  8
0
 62
7
  6
CONTINUOUS
 10
54.9149362562
 20
170.4930331622
  0
VERTEX
  8
0
 62
7
  6
CONTINUOUS
 10
54.9467691495
 20
170.4474298862
  0
VERTEX
  8
0
 62
7
  6
CONTINUOUS
 10
55.0006669008
 20
170.3395535301
  0
VERTEX
  8
0
 62
7
  6
CONTINUOUS
 10
55.03818112
 20
170.2132229738
  0
SEQEND
  0
POLYLINE
  8
0
 62
7
  6
CONTINUOUS
 66
1
 70
0
  0
VERTEX
  8
0
 62
7
  6
CONTINUOUS
 10
34.9986992207
 20
170.6574381365
  0
VERTEX
  8
0
 62
7
  6
CONTINUOUS
 10
35.1779555689
 20
170.6460348463
  0
VERTEX
  8
0
 62
7
  6
CONTINUOUS
 10
35.3925600458
 20
170.6391014024
  0
VERTEX
  8
0
 62
7
  6
CONTINUOUS
 10
35.5326031041
 20
170.6378683289
  0
SEQEND
  0
POLYLINE
  8
0
 62
7
  6
CONTINUOUS
 66
1
 70
0
  0
VERTEX
  8
0
 62
7
  6
CONTINUOUS
 10
33.1710345516
 20
170.7995447336
  0
VERTEX
  8
0
 62
7
  6
CONTINUOUS
 10
33.7846435381
 20
170.7532369671
  0
VERTEX
  8
0
 62
7
  6
CONTINUOUS
 10
34.4040686215
 20
170.7050664186
  0
VERTEX
  8
0
 62
7
  6
CONTINUOUS
 10
34.9987003379
 20
170.6574395503
  0
SEQEND
  0
POLYLINE
  8
0
 62
7
  6
CONTINUOUS
 66
1
 70
0
  0
VERTEX
  8
0
 62
7
  6
CONTINUOUS
 10
106.2282136888
 20
162.0131710946
  0
VERTEX
  8
0
 62
7
  6
CONTINUOUS
 10
106.1748977809
 20
162.0208263179
  0
VERTEX
  8
0
 62
7
  6
CONTINUOUS
 10
106.0730266107
 20
162.0575226025
  0
VERTEX
  8
0
 62
7
  6
CONTINUOUS
 10
105.9841828446
 20
162.1207107753
  0
VERTEX
  8
0
 62
7
  6
CONTINUOUS
 10
105.9157516909
 20
162.2054564984
  0
VERTEX
  8
0
 62
7
  6
CONTINUOUS
 10
105.872709487
 20
162.3055599256
  0
VERTEX
  8
0
 62
7
  6
CONTINUOUS
 10
105.858276658
 20
162.4120397671
  0
SEQEND
  0
POLYLINE
  8
0
 62
7
  6
CONTINUOUS
 66
1
 70
0
  0
VERTEX
  8
0
 62
7
  6
CONTINUOUS
 10
100.608276658
 20
162.7900978997
  0
VERTEX
  8
0
 62
7
  6
CONTINUOUS
 10
100.5272852111
 20
162.8019806122
  0
VERTEX
  8
0
 62
7
  6
CONTINUOUS
 10
100.4476348662
 20
162.8390377873
  0
VERTEX
  8
0
 62
7
  6
CONTINUOUS
 10
100.3756874005
 20
162.9013876189
  0
VERTEX
  8
0
 62
7
  6
CONTINUOUS
 10
100.3152620846
 20
162.9906771986
  0
VERTEX
  8
0
 62
7
  6
CONTINUOUS
 10
100.27377561
 20
163.104788422
  0
VERTEX
  8
0
 62
7
  6
CONTINUOUS
 10
100.258276658
 20
163.2400978997
  0
SEQEND
  0
POLYLINE
  8
0
 62
7
  6
CONTINUOUS
 66
1
 70
0
  0
VERTEX
  8
0
 62
7
  6
CONTINUOUS
 10
59.8990958644
 20
179.3408560852
  0
VERTEX
  8
0
 62
7
  6
CONTINUOUS
 10
59.8774803613
 20
179.386904496
  0
VERTEX
  8
0
 62
7
  6
CONTINUOUS
 10
59.8425836157
 20
179.4232422329
  0
VERTEX
  8
0
 62
7
  6
CONTINUOUS
 10
59.799496199
 20
179.4463216798
  0
VERTEX
  8
0
 62
7
  6
CONTINUOUS
 10
59.7531489857
 20
179.4536551931
  0
VERTEX
  8
0
 62
7
  6
CONTINUOUS
 10
59.7071377752
 20
179.4446058142
  0
VERTEX
  8
0
 62
7
  6
CONTINUOUS
 10
59.6643476859
 20
179.420534728
  0
VERTEX
  8
0
 62
7
  6
CONTINUOUS
 10
59.630703528
 20
179.3846605907
  0
VERTEX
  8
0
 62
7
  6
CONTINUOUS
 10
59.6101413757
 20
179.3402856542
  0
SEQEND
  0
LINE
  8
0
 62
7
  6
CONTINUOUS
 10
59.8990958644
 20
179.3408560852
 11
61.3259711114
 21
174.2190800555
  0
LINE
  8
0
 62
7
  6
CONTINUOUS
 10
54.408276658
 20
195.0984540545
 11
54.405776658
 21
195.1095749735
  0
POLYLINE
  8
0
 62
7
  6
CONTINUOUS
 66
1
 70
0
  0
VERTEX
  8
0
 62
7
  6
CONTINUOUS
 10
61.38818112
 20
170.2132229738
  0
VERTEX
  8
0
 62
7
  6
CONTINUOUS
 10
61.4066016237
 20
170.0736361838
  0
VERTEX
  8
0
 62
7
  6
CONTINUOUS
 10
61.405776658
 20
170.0865017553
  0
SEQEND
  0
POLYLINE
  8
0
 62
7
  6
CONTINUOUS
 66
1
 70
0
  0
VERTEX
  8
0
 62
7
  6
CONTINUOUS
 10
61.1556350927
 20
194.1051184907
  0
VERTEX
  8
0
 62
7
  6
CONTINUOUS
 10
61.1542562705
 20
194.2867601586
  0
VERTEX
  8
0
 62
7
  6
CONTINUOUS
 10
61.1498459282
 20
194.4413061515
  0
VERTEX
  8
0
 62
7
  6
CONTINUOUS
 10
61.1374607351
 20
194.578687466
  0
VERTEX
  8
0
 62
7
  6
CONTINUOUS
 10
61.1091686476
 20
194.6989840921
  0
VERTEX
  8
0
 62
7
  6
CONTINUOUS
 10
61.0588898974
 20
194.8034864818
  0
VERTEX
  8
0
 62
7
  6
CONTINUOUS
 10
61.0251813571
 20
194.8501706044
  0
VERTEX
  8
0
 62
7
  6
CONTINUOUS
 10
60.9496865544
 20
194.9274051667
  0
VERTEX
  8
0
 62
7
  6
CONTINUOUS
 10
60.8815353854
 20
194.9811559909
  0
VERTEX
  8
0
 62
7
  6
CONTINUOUS
 10
60.8265808568
 20
195.0211490048
  0
VERTEX
  8
0
 62
7
  6
CONTINUOUS
 10
60.7862110912
 20
195.0547563224
  0
VERTEX
  8
0
 62
7
  6
CONTINUOUS
 10
60.7632305241
 20
195.0847246492
  0
VERTEX
  8
0
 62
7
  6
CONTINUOUS
 10
60.758276658
 20
195.0984540545
  0
SEQEND
  0
LINE
  8
0
 62
7
  6
CONTINUOUS
 10
61.155776658
 20
185.7495048905
 11
61.1556350927
 21
194.1051184907
  0
LINE
  8
0
 62
7
  6
CONTINUOUS
 10
61.158276658
 20
188.3651755402
 11
61.158276658
 21
195.9681560322
  0
LINE
  8
0
 62
7
  6
CONTINUOUS
 10
61.405776658
 20
172.6744141449
 11
61.405776658
 21
163.3068163267
  0
LINE
  8
0
 62
7
  6
CONTINUOUS
 10
61.408276658
 20
163.2832409186
 11
61.408276658
 21
162.4120397671
  0
POLYLINE
  8
0
 62
7
  6
CONTINUOUS
 66
1
 70
0
  0
VERTEX
  8
0
 62
7
  6
CONTINUOUS
 10
61.4259731017
 20
173.1662973018
  0
VERTEX
  8
0
 62
7
  6
CONTINUOUS
 10
61.4308071642
 20
173.5912332003
  0
VERTEX
  8
0
 62
7
  6
CONTINUOUS
 10
61.4107117053
 20
173.8028515025
  0
VERTEX
  8
0
 62
7
  6
CONTINUOUS
 10
61.3259711114
 20
174.2190800555
  0
SEQEND
  0
LINE
  8
0
 62
7
  6
CONTINUOUS
 10
61.405776658
 20
172.6744141449
 11
61.4259731017
 21
173.1662973018
  0
POLYLINE
  8
0
 62
7
  6
CONTINUOUS
 66
1
 70
0
  0
VERTEX
  8
0
 62
7
  6
CONTINUOUS
 10
64.580776658
 20
195.0733794727
  0
VERTEX
  8
0
 62
7
  6
CONTINUOUS
 10
64.5962995597
 20
195.2197100885
  0
VERTEX
  8
0
 62
7
  6
CONTINUOUS
 10
64.6383078954
 20
195.344888153
  0
VERTEX
  8
0
 62
7
  6
CONTINUOUS
 10
64.6999557741
 20
195.4449401222
  0
VERTEX
  8
0
 62
7
  6
CONTINUOUS
 10
64.7357691047
 20
195.4846874445
  0
VERTEX
  8
0
 62
7
  6
CONTINUOUS
 10
64.8134312553
 20
195.5441177146
  0
VERTEX
  8
0
 62
7
  6
CONTINUOUS
 10
64.8960960969
 20
195.5787578463
  0
VERTEX
  8
0
 62
7
  6
CONTINUOUS
 10
64.9807766959
 20
195.5900930171
  0
SEQEND
  0
LINE
  8
0
 62
7
  6
CONTINUOUS
 10
57.580776658
 20
163.2706208258
 11
57.583276658
 21
163.2817417449
  0
LINE
  8
0
 62
7
  6
CONTINUOUS
 10
58.0909482534
 20
173.8902554022
 11
59.6101413757
 21
179.3402856542
  0
LINE
  8
0
 62
7
  6
CONTINUOUS
 10
105.4582766574
 20
170.6378696853
 11
102.8332766586
 21
170.6378696853
  0
LINE
  8
0
 62
7
  6
CONTINUOUS
 10
99.8545348019
 20
170.6378685361
 11
96.4832766586
 21
170.6378696853
  0
LINE
  8
0
 62
7
  6
CONTINUOUS
 10
92.7582766574
 20
170.6378696853
 11
90.1332766586
 21
170.6378696853
  0
LINE
  8
0
 62
7
  6
CONTINUOUS
 10
86.4082766574
 20
170.6378696853
 11
83.7832766586
 21
170.6378696853
  0
LINE
  8
0
 62
7
  6
CONTINUOUS
 10
80.0582766574
 20
170.6378696853
 11
77.4332766586
 21
170.6378696853
  0
LINE
  8
0
 62
7
  6
CONTINUOUS
 10
73.7082766574
 20
170.6378696853
 11
71.0832766586
 21
170.6378696853
  0
LINE
  8
0
 62
7
  6
CONTINUOUS
 10
67.3582766543
 20
170.6378696853
 11
64.7332766616
 21
170.6378696853
  0
LINE
  8
0
 62
7
  6
CONTINUOUS
 10
61.0082766543
 20
170.6378696853
 11
58.3832766616
 21
170.6378696853
  0
LINE
  8
0
 62
7
  6
CONTINUOUS
 10
54.6582766543
 20
170.6378696853
 11
52.0332766616
 21
170.6378696853
  0
LINE
  8
0
 62
7
  6
CONTINUOUS
 10
48.3082766543
 20
170.6378696853
 11
45.6832766616
 21
170.6378696853
  0
LINE
  8
0
 62
7
  6
CONTINUOUS
 10
35.6082766543
 20
170.6378696853
 11
35.5315101052
 21
170.6378698401
  0
LINE
  8
0
 62
7
  6
CONTINUOUS
 10
39.3332766616
 20
170.6378696853
 11
42.7046177176
 21
170.6378663158
  0
POLYLINE
  8
0
 62
7
  6
CONTINUOUS
 66
1
 70
0
  0
VERTEX
  8
0
 62
7
  6
CONTINUOUS
 10
105.4582766574
 20
170.6378691561
  0
VERTEX
  8
0
 62
7
  6
CONTINUOUS
 10
105.483658485
 20
170.6365872581
  0
VERTEX
  8
0
 62
7
  6
CONTINUOUS
 10
105.5608281853
 20
170.6167149214
  0
VERTEX
  8
0
 62
7
  6
CONTINUOUS
 10
105.6372189957
 20
170.5715988686
  0
VERTEX
  8
0
 62
7
  6
CONTINUOUS
 10
105.7059739053
 20
170.5042189704
  0
VERTEX
  8
0
 62
7
  6
CONTINUOUS
 10
105.7362741453
 20
170.4635772295
  0
VERTEX
  8
0
 62
7
  6
CONTINUOUS
 10
105.7875235853
 20
170.370829206
  0
VERTEX
  8
0
 62
7
  6
CONTINUOUS
 10
105.8019979868
 20
170.3361366056
  0
SEQEND
  0
POLYLINE
  8
0
 62
7
  6
CONTINUOUS
 66
1
 70
0
  0
VERTEX
  8
0
 62
7
  6
CONTINUOUS
 10
61.0082766543
 20
170.63786914
  0
VERTEX
  8
0
 62
7
  6
CONTINUOUS
 10
61.0368918229
 20
170.6362394868
  0
VERTEX
  8
0
 62
7
  6
CONTINUOUS
 10
61.1160119703
 20
170.6144926275
  0
VERTEX
  8
0
 62
7
  6
CONTINUOUS
 10
61.1938671429
 20
170.5663205148
  0
VERTEX
  8
0
 62
7
  6
CONTINUOUS
 10
61.2649362562
 20
170.4930331622
  0
VERTEX
  8
0
 62
7
  6
CONTINUOUS
 10
61.2967691495
 20
170.4474298862
  0
VERTEX
  8
0
 62
7
  6
CONTINUOUS
 10
61.3506669008
 20
170.3395535301
  0
VERTEX
  8
0
 62
7
  6
CONTINUOUS
 10
61.38818112
 20
170.2132229738
  0
SEQEND
  0
POLYLINE
  8
0
 62
7
  6
CONTINUOUS
 66
1
 70
0
  0
VERTEX
  8
0
 62
7
  6
CONTINUOUS
 10
67.3582766543
 20
170.63786914
  0
VERTEX
  8
0
 62
7
  6
CONTINUOUS
 10
67.3868918229
 20
170.6362394868
  0
VERTEX
  8
0
 62
7
  6
CONTINUOUS
 10
67.4660119703
 20
170.6144926275
  0
VERTEX
  8
0
 62
7
  6
CONTINUOUS
 10
67.5438671429
 20
170.5663205148
  0
VERTEX
  8
0
 62
7
  6
CONTINUOUS
 10
67.6149362562
 20
170.4930331622
  0
VERTEX
  8
0
 62
7
  6
CONTINUOUS
 10
67.6467691495
 20
170.4474298862
  0
VERTEX
  8
0
 62
7
  6
CONTINUOUS
 10
67.7006669008
 20
170.3395535301
  0
VERTEX
  8
0
 62
7
  6
CONTINUOUS
 10
67.73818112
 20
170.2132229738
  0
SEQEND
  0
POLYLINE
  8
0
 62
7
  6
CONTINUOUS
 66
1
 70
0
  0
VERTEX
  8
0
 62
7
  6
CONTINUOUS
 10
73.7082766574
 20
170.6378691553
  0
VERTEX
  8
0
 62
7
  6
CONTINUOUS
 10
73.7368921973
 20
170.6362394404
  0
VERTEX
  8
0
 62
7
  6
CONTINUOUS
 10
73.8160121128
 20
170.6144925801
  0
VERTEX
  8
0
 62
7
  6
CONTINUOUS
 10
73.8938672383
 20
170.5663204423
  0
VERTEX
  8
0
 62
7
  6
CONTINUOUS
 10
73.9649362881
 20
170.4930331134
  0
VERTEX
  8
0
 62
7
  6
CONTINUOUS
 10
73.9967692228
 20
170.4474297823
  0
VERTEX
  8
0
 62
7
  6
CONTINUOUS
 10
74.0506669592
 20
170.3395533913
  0
VERTEX
  8
0
 62
7
  6
CONTINUOUS
 10
74.0881811665
 20
170.2132226619
  0
VERTEX
  8
0
 62
7
  6
CONTINUOUS
 10
74.1066016311
 20
170.0736359427
  0
VERTEX
  8
0
 62
7
  6
CONTINUOUS
 10
74.1082767219
 20
170.0149994306
  0
SEQEND
  0
POLYLINE
  8
0
 62
7
  6
CONTINUOUS
 66
1
 70
0
  0
VERTEX
  8
0
 62
7
  6
CONTINUOUS
 10
80.0582766574
 20
170.6378691553
  0
VERTEX
  8
0
 62
7
  6
CONTINUOUS
 10
80.0868921973
 20
170.6362394404
  0
VERTEX
  8
0
 62
7
  6
CONTINUOUS
 10
80.1660121128
 20
170.6144925801
  0
VERTEX
  8
0
 62
7
  6
CONTINUOUS
 10
80.2438672383
 20
170.5663204423
  0
VERTEX
  8
0
 62
7
  6
CONTINUOUS
 10
80.3149362881
 20
170.4930331134
  0
VERTEX
  8
0
 62
7
  6
CONTINUOUS
 10
80.3467692228
 20
170.4474297823
  0
VERTEX
  8
0
 62
7
  6
CONTINUOUS
 10
80.4006669592
 20
170.3395533913
  0
VERTEX
  8
0
 62
7
  6
CONTINUOUS
 10
80.4381811665
 20
170.2132226619
  0
VERTEX
  8
0
 62
7
  6
CONTINUOUS
 10
80.4566016311
 20
170.0736359427
  0
VERTEX
  8
0
 62
7
  6
CONTINUOUS
 10
80.4582767219
 20
170.0149994306
  0
SEQEND
  0
POLYLINE
  8
0
 62
7
  6
CONTINUOUS
 66
1
 70
0
  0
VERTEX
  8
0
 62
7
  6
CONTINUOUS
 10
86.4082766574
 20
170.6378691553
  0
VERTEX
  8
0
 62
7
  6
CONTINUOUS
 10
86.4368921973
 20
170.6362394404
  0
VERTEX
  8
0
 62
7
  6
CONTINUOUS
 10
86.5160121128
 20
170.6144925801
  0
VERTEX
  8
0
 62
7
  6
CONTINUOUS
 10
86.5938672383
 20
170.5663204423
  0
VERTEX
  8
0
 62
7
  6
CONTINUOUS
 10
86.6649362881
 20
170.4930331134
  0
VERTEX
  8
0
 62
7
  6
CONTINUOUS
 10
86.6967692228
 20
170.4474297823
  0
VERTEX
  8
0
 62
7
  6
CONTINUOUS
 10
86.7506669592
 20
170.3395533913
  0
VERTEX
  8
0
 62
7
  6
CONTINUOUS
 10
86.7881811665
 20
170.2132226619
  0
VERTEX
  8
0
 62
7
  6
CONTINUOUS
 10
86.8066016311
 20
170.0736359427
  0
VERTEX
  8
0
 62
7
  6
CONTINUOUS
 10
86.8082767219
 20
170.0149994306
  0
SEQEND
  0
POLYLINE
  8
0
 62
7
  6
CONTINUOUS
 66
1
 70
0
  0
VERTEX
  8
0
 62
7
  6
CONTINUOUS
 10
92.7582766574
 20
170.6378691553
  0
VERTEX
  8
0
 62
7
  6
CONTINUOUS
 10
92.7868921973
 20
170.6362394404
  0
VERTEX
  8
0
 62
7
  6
CONTINUOUS
 10
92.8660121128
 20
170.6144925801
  0
VERTEX
  8
0
 62
7
  6
CONTINUOUS
 10
92.9438672383
 20
170.5663204423
  0
VERTEX
  8
0
 62
7
  6
CONTINUOUS
 10
93.0149362881
 20
170.4930331134
  0
VERTEX
  8
0
 62
7
  6
CONTINUOUS
 10
93.0467692228
 20
170.4474297823
  0
VERTEX
  8
0
 62
7
  6
CONTINUOUS
 10
93.1006669592
 20
170.3395533913
  0
VERTEX
  8
0
 62
7
  6
CONTINUOUS
 10
93.1381811665
 20
170.2132226619
  0
VERTEX
  8
0
 62
7
  6
CONTINUOUS
 10
93.1566016311
 20
170.0736359427
  0
VERTEX
  8
0
 62
7
  6
CONTINUOUS
 10
93.1582767219
 20
170.0149994306
  0
SEQEND
  0
POLYLINE
  8
0
 62
7
  6
CONTINUOUS
 66
1
 70
0
  0
VERTEX
  8
0
 62
7
  6
CONTINUOUS
 10
62.78650621
 20
179.4843584923
  0
VERTEX
  8
0
 62
7
  6
CONTINUOUS
 10
62.808121713
 20
179.4383100816
  0
VERTEX
  8
0
 62
7
  6
CONTINUOUS
 10
62.8430184587
 20
179.4019723447
  0
VERTEX
  8
0
 62
7
  6
CONTINUOUS
 10
62.8861058754
 20
179.3788928977
  0
VERTEX
  8
0
 62
7
  6
CONTINUOUS
 10
62.9324530886
 20
179.3715593844
  0
VERTEX
  8
0
 62
7
  6
CONTINUOUS
 10
62.9784642991
 20
179.3806087633
  0
VERTEX
  8
0
 62
7
  6
CONTINUOUS
 10
63.0212543885
 20
179.4046798495
  0
VERTEX
  8
0
 62
7
  6
CONTINUOUS
 10
63.0548985464
 20
179.4405539868
  0
VERTEX
  8
0
 62
7
  6
CONTINUOUS
 10
63.0754606987
 20
179.4849289233
  0
SEQEND
  0
LINE
  8
0
 62
7
  6
CONTINUOUS
 10
62.78650621
 20
179.4843584923
 11
61.2661049493
 21
184.9418466208
  0
POLYLINE
  8
0
 62
7
  6
CONTINUOUS
 66
1
 70
0
  0
VERTEX
  8
0
 62
7
  6
CONTINUOUS
 10
61.2661049493
 20
184.9418466208
  0
VERTEX
  8
0
 62
7
  6
CONTINUOUS
 10
61.1835149323
 20
185.3416290045
  0
VERTEX
  8
0
 62
7
  6
CONTINUOUS
 10
61.155776658
 20
185.7495048905
  0
SEQEND
  0
LINE
  8
0
 62
7
  6
CONTINUOUS
 10
67.7712886803
 20
163.1605354239
 11
67.755776658
 21
163.3068163267
  0
LINE
  8
0
 62
7
  6
CONTINUOUS
 10
64.333276658
 20
170.0150202592
 11
64.333276658
 21
162.4120397671
  0
LINE
  8
0
 62
7
  6
CONTINUOUS
 10
64.580776658
 20
195.0733794727
 11
64.580776658
 21
185.2954785973
  0
LINE
  8
0
 62
7
  6
CONTINUOUS
 10
64.583276658
 20
195.096946364
 11
64.583276658
 21
195.9681560322
  0
POLYLINE
  8
0
 62
7
  6
CONTINUOUS
 66
1
 70
0
  0
VERTEX
  8
0
 62
7
  6
CONTINUOUS
 10
64.333276603
 20
170.01499967
  0
VERTEX
  8
0
 62
7
  6
CONTINUOUS
 10
64.3349516922
 20
170.0736361816
  0
VERTEX
  8
0
 62
7
  6
CONTINUOUS
 10
64.3533721956
 20
170.213222972
  0
VERTEX
  8
0
 62
7
  6
CONTINUOUS
 10
64.3908864146
 20
170.3395535288
  0
VERTEX
  8
0
 62
7
  6
CONTINUOUS
 10
64.4447841659
 20
170.4474298853
  0
VERTEX
  8
0
 62
7
  6
CONTINUOUS
 10
64.4766170591
 20
170.4930331614
  0
VERTEX
  8
0
 62
7
  6
CONTINUOUS
 10
64.5476861726
 20
170.5663205144
  0
VERTEX
  8
0
 62
7
  6
CONTINUOUS
 10
64.6255413453
 20
170.6144926273
  0
VERTEX
  8
0
 62
7
  6
CONTINUOUS
 10
64.7046614929
 20
170.6362394868
  0
VERTEX
  8
0
 62
7
  6
CONTINUOUS
 10
64.7332766617
 20
170.63786914
  0
SEQEND
  0
LINE
  8
0
 62
7
  6
CONTINUOUS
 10
64.580776658
 20
188.2936941427
 11
64.581601631
 21
188.3065598545
  0
POLYLINE
  8
0
 62
7
  6
CONTINUOUS
 66
1
 70
0
  0
VERTEX
  8
0
 62
7
  6
CONTINUOUS
 10
64.581601631
 20
188.3065598545
  0
VERTEX
  8
0
 62
7
  6
CONTINUOUS
 10
64.5631811662
 20
188.1669731356
  0
VERTEX
  8
0
 62
7
  6
CONTINUOUS
 10
64.5256669587
 20
188.0406424067
  0
VERTEX
  8
0
 62
7
  6
CONTINUOUS
 10
64.4717692222
 20
187.9327660161
  0
VERTEX
  8
0
 62
7
  6
CONTINUOUS
 10
64.4399362875
 20
187.8871626852
  0
VERTEX
  8
0
 62
7
  6
CONTINUOUS
 10
64.3688672378
 20
187.8138753566
  0
VERTEX
  8
0
 62
7
  6
CONTINUOUS
 10
64.2910121124
 20
187.7657032191
  0
VERTEX
  8
0
 62
7
  6
CONTINUOUS
 10
64.2118921971
 20
187.7439563589
  0
VERTEX
  8
0
 62
7
  6
CONTINUOUS
 10
64.1832766574
 20
187.742326644
  0
SEQEND
  0
LINE
  8
0
 62
7
  6
CONTINUOUS
 10
64.4706050626
 20
184.4899403972
 11
63.0754606987
 21
179.4849289233
  0
POLYLINE
  8
0
 62
7
  6
CONTINUOUS
 66
1
 70
0
  0
VERTEX
  8
0
 62
7
  6
CONTINUOUS
 10
57.583276658
 20
163.2817417449
  0
VERTEX
  8
0
 62
7
  6
CONTINUOUS
 10
57.5878535352
 20
163.2946988479
  0
VERTEX
  8
0
 62
7
  6
CONTINUOUS
 10
57.6089763995
 20
163.3231972051
  0
VERTEX
  8
0
 62
7
  6
CONTINUOUS
 10
57.6456425494
 20
163.3545620021
  0
VERTEX
  8
0
 62
7
  6
CONTINUOUS
 10
57.6960113589
 20
163.3913693488
  0
VERTEX
  8
0
 62
7
  6
CONTINUOUS
 10
57.7593916049
 20
163.4398563362
  0
VERTEX
  8
0
 62
7
  6
CONTINUOUS
 10
57.8332138414
 20
163.51010527
  0
VERTEX
  8
0
 62
7
  6
CONTINUOUS
 10
57.869550746
 20
163.5554655901
  0
VERTEX
  8
0
 62
7
  6
CONTINUOUS
 10
57.9268236377
 20
163.6612550652
  0
VERTEX
  8
0
 62
7
  6
CONTINUOUS
 10
57.9588693189
 20
163.7791351464
  0
VERTEX
  8
0
 62
7
  6
CONTINUOUS
 10
57.973976558
 20
163.9224854816
  0
VERTEX
  8
0
 62
7
  6
CONTINUOUS
 10
57.9791114641
 20
164.0838901091
  0
VERTEX
  8
0
 62
7
  6
CONTINUOUS
 10
57.9806244854
 20
164.2714915931
  0
VERTEX
  8
0
 62
7
  6
CONTINUOUS
 10
57.980776658
 20
173.084717202
  0
SEQEND
  0
POLYLINE
  8
0
 62
7
  6
CONTINUOUS
 66
1
 70
0
  0
VERTEX
  8
0
 62
7
  6
CONTINUOUS
 10
66.2490958644
 20
179.3408560852
  0
VERTEX
  8
0
 62
7
  6
CONTINUOUS
 10
66.2274803614
 20
179.3869044959
  0
VERTEX
  8
0
 62
7
  6
CONTINUOUS
 10
66.1925836158
 20
179.4232422328
  0
VERTEX
  8
0
 62
7
  6
CONTINUOUS
 10
66.1494961992
 20
179.4463216798
  0
VERTEX
  8
0
 62
7
  6
CONTINUOUS
 10
66.1031489859
 20
179.4536551931
  0
VERTEX
  8
0
 62
7
  6
CONTINUOUS
 10
66.0571377754
 20
179.4446058143
  0
VERTEX
  8
0
 62
7
  6
CONTINUOUS
 10
66.014347686
 20
179.4205347281
  0
VERTEX
  8
0
 62
7
  6
CONTINUOUS
 10
65.980703528
 20
179.3846605908
  0
VERTEX
  8
0
 62
7
  6
CONTINUOUS
 10
65.9601413757
 20
179.3402856542
  0
SEQEND
  0
LINE
  8
0
 62
7
  6
CONTINUOUS
 10
66.2490958644
 20
179.3408560852
 11
67.6759711114
 21
174.2190800555
  0
LINE
  8
0
 62
7
  6
CONTINUOUS
 10
60.758276658
 20
195.0984540545
 11
60.755776658
 21
195.1095749735
  0
POLYLINE
  8
0
 62
7
  6
CONTINUOUS
 66
1
 70
0
  0
VERTEX
  8
0
 62
7
  6
CONTINUOUS
 10
67.73818112
 20
170.2132229738
  0
VERTEX
  8
0
 62
7
  6
CONTINUOUS
 10
67.7566016237
 20
170.0736361838
  0
VERTEX
  8
0
 62
7
  6
CONTINUOUS
 10
67.755776658
 20
170.0865017553
  0
SEQEND
  0
POLYLINE
  8
0
 62
7
  6
CONTINUOUS
 66
1
 70
0
  0
VERTEX
  8
0
 62
7
  6
CONTINUOUS
 10
67.5056350927
 20
194.1051184907
  0
VERTEX
  8
0
 62
7
  6
CONTINUOUS
 10
67.5042562705
 20
194.2867601586
  0
VERTEX
  8
0
 62
7
  6
CONTINUOUS
 10
67.4998459282
 20
194.4413061515
  0
VERTEX
  8
0
 62
7
  6
CONTINUOUS
 10
67.4874607351
 20
194.578687466
  0
VERTEX
  8
0
 62
7
  6
CONTINUOUS
 10
67.4591686476
 20
194.6989840921
  0
VERTEX
  8
0
 62
7
  6
CONTINUOUS
 10
67.4088898974
 20
194.8034864818
  0
VERTEX
  8
0
 62
7
  6
CONTINUOUS
 10
67.3751813571
 20
194.8501706044
  0
VERTEX
  8
0
 62
7
  6
CONTINUOUS
 10
67.2996865544
 20
194.9274051667
  0
VERTEX
  8
0
 62
7
  6
CONTINUOUS
 10
67.2315353854
 20
194.9811559909
  0
VERTEX
  8
0
 62
7
  6
CONTINUOUS
 10
67.1765808568
 20
195.0211490048
  0
VERTEX
  8
0
 62
7
  6
CONTINUOUS
 10
67.1362110912
 20
195.0547563224
  0
VERTEX
  8
0
 62
7
  6
CONTINUOUS
 10
67.1132305241
 20
195.0847246492
  0
VERTEX
  8
0
 62
7
  6
CONTINUOUS
 10
67.108276658
 20
195.0984540545
  0
SEQEND
  0
LINE
  8
0
 62
7
  6
CONTINUOUS
 10
67.505776658
 20
185.7495048905
 11
67.5056350927
 21
194.1051184907
  0
LINE
  8
0
 62
7
  6
CONTINUOUS
 10
67.508276658
 20
188.3651755402
 11
67.508276658
 21
195.9681560322
  0
LINE
  8
0
 62
7
  6
CONTINUOUS
 10
67.755776658
 20
172.6744141449
 11
67.755776658
 21
163.3068163267
  0
LINE
  8
0
 62
7
  6
CONTINUOUS
 10
67.758276658
 20
163.2832409186
 11
67.758276658
 21
162.4120397671
  0
POLYLINE
  8
0
 62
7
  6
CONTINUOUS
 66
1
 70
0
  0
VERTEX
  8
0
 62
7
  6
CONTINUOUS
 10
67.7759731018
 20
173.1662973033
  0
VERTEX
  8
0
 62
7
  6
CONTINUOUS
 10
67.7807812536
 20
173.5916689475
  0
VERTEX
  8
0
 62
7
  6
CONTINUOUS
 10
67.760654872
 20
173.8032858161
  0
VERTEX
  8
0
 62
7
  6
CONTINUOUS
 10
67.6759711114
 20
174.2190800555
  0
SEQEND
  0
LINE
  8
0
 62
7
  6
CONTINUOUS
 10
67.755776658
 20
172.6744141449
 11
67.7759731018
 21
173.1662973033
  0
LINE
  8
0
 62
7
  6
CONTINUOUS
 10
63.930776658
 20
163.2706208258
 11
63.933276658
 21
163.2817417449
  0
LINE
  8
0
 62
7
  6
CONTINUOUS
 10
71.335776658
 20
195.1095749735
 11
71.333276658
 21
195.0984540545
  0
LINE
  8
0
 62
7
  6
CONTINUOUS
 10
64.4409482534
 20
173.8902554022
 11
65.9601413757
 21
179.3402856542
  0
POLYLINE
  8
0
 62
7
  6
CONTINUOUS
 66
1
 70
0
  0
VERTEX
  8
0
 62
7
  6
CONTINUOUS
 10
71.333276658
 20
195.0984540545
  0
VERTEX
  8
0
 62
7
  6
CONTINUOUS
 10
71.3286997808
 20
195.0854969514
  0
VERTEX
  8
0
 62
7
  6
CONTINUOUS
 10
71.3075769164
 20
195.0569985942
  0
VERTEX
  8
0
 62
7
  6
CONTINUOUS
 10
71.2709107666
 20
195.0256337972
  0
VERTEX
  8
0
 62
7
  6
CONTINUOUS
 10
71.2205419571
 20
194.9888264505
  0
VERTEX
  8
0
 62
7
  6
CONTINUOUS
 10
71.157161711
 20
194.9403394631
  0
VERTEX
  8
0
 62
7
  6
CONTINUOUS
 10
71.0833394745
 20
194.8700905293
  0
VERTEX
  8
0
 62
7
  6
CONTINUOUS
 10
71.0470025699
 20
194.8247302092
  0
VERTEX
  8
0
 62
7
  6
CONTINUOUS
 10
70.9897296783
 20
194.7189407341
  0
VERTEX
  8
0
 62
7
  6
CONTINUOUS
 10
70.9576839971
 20
194.6010606529
  0
VERTEX
  8
0
 62
7
  6
CONTINUOUS
 10
70.9425767579
 20
194.4577103177
  0
VERTEX
  8
0
 62
7
  6
CONTINUOUS
 10
70.9374418518
 20
194.2963056902
  0
VERTEX
  8
0
 62
7
  6
CONTINUOUS
 10
70.9359288305
 20
194.1087042062
  0
VERTEX
  8
0
 62
7
  6
CONTINUOUS
 10
70.935776658
 20
185.2954785973
  0
SEQEND
  0
POLYLINE
  8
0
 62
7
  6
CONTINUOUS
 66
1
 70
0
  0
VERTEX
  8
0
 62
7
  6
CONTINUOUS
 10
70.8082753971
 20
187.9122180971
  0
VERTEX
  8
0
 62
7
  6
CONTINUOUS
 10
70.7546954365
 20
187.8466591902
  0
VERTEX
  8
0
 62
7
  6
CONTINUOUS
 10
70.6820207105
 20
187.7874780687
  0
VERTEX
  8
0
 62
7
  6
CONTINUOUS
 10
70.6019441448
 20
187.7517511395
  0
VERTEX
  8
0
 62
7
  6
CONTINUOUS
 10
70.5332766574
 20
187.7423266443
  0
SEQEND
  0
POLYLINE
  8
0
 62
7
  6
CONTINUOUS
 66
1
 70
0
  0
VERTEX
  8
0
 62
7
  6
CONTINUOUS
 10
69.13650621
 20
179.4843584923
  0
VERTEX
  8
0
 62
7
  6
CONTINUOUS
 10
69.158121713
 20
179.4383100816
  0
VERTEX
  8
0
 62
7
  6
CONTINUOUS
 10
69.1930184585
 20
179.4019723448
  0
VERTEX
  8
0
 62
7
  6
CONTINUOUS
 10
69.236105875
 20
179.3788928978
  0
VERTEX
  8
0
 62
7
  6
CONTINUOUS
 10
69.2824530882
 20
179.3715593844
  0
VERTEX
  8
0
 62
7
  6
CONTINUOUS
 10
69.3284642987
 20
179.3806087631
  0
VERTEX
  8
0
 62
7
  6
CONTINUOUS
 10
69.3712543882
 20
179.4046798494
  0
VERTEX
  8
0
 62
7
  6
CONTINUOUS
 10
69.4048985463
 20
179.4405539867
  0
VERTEX
  8
0
 62
7
  6
CONTINUOUS
 10
69.4254606987
 20
179.4849289233
  0
SEQEND
  0
LINE
  8
0
 62
7
  6
CONTINUOUS
 10
69.13650621
 20
179.4843584923
 11
67.6161049493
 21
184.9418466208
  0
POLYLINE
  8
0
 62
7
  6
CONTINUOUS
 66
1
 70
0
  0
VERTEX
  8
0
 62
7
  6
CONTINUOUS
 10
67.6161049493
 20
184.9418466208
  0
VERTEX
  8
0
 62
7
  6
CONTINUOUS
 10
67.5335149323
 20
185.3416290045
  0
VERTEX
  8
0
 62
7
  6
CONTINUOUS
 10
67.505776658
 20
185.7495048905
  0
SEQEND
  0
LINE
  8
0
 62
7
  6
CONTINUOUS
 10
70.683276658
 20
170.0150202781
 11
70.683276658
 21
162.4120397671
  0
LINE
  8
DEFAULT_1
 62
2
  6
CENTER
 10
70.808276658
 20
182.9380883365
 11
70.808276658
 21
181.1901978997
  0
LINE
  8
0
 62
2
  6
CONTINUOUS
 10
70.808276658
 20
180.0700978997
 11
70.808276658
 21
178.3100978997
  0
LINE
  8
0
 62
7
  6
CONTINUOUS
 10
70.808276658
 20
175.4421074628
 11
70.808276658
 21
173.9344829432
  0
LINE
  8
DEFAULT_1
 62
2
  6
CENTER
 10
70.808276658
 20
175.4421074628
 11
70.808276658
 21
177.1899978997
  0
LINE
  8
0
 62
7
  6
CONTINUOUS
 10
70.808276658
 20
182.9380883365
 11
70.808276658
 21
184.4457128561
  0
LINE
  8
0
 62
7
  6
CONTINUOUS
 10
70.933276658
 20
188.3651755213
 11
70.933276658
 21
195.9681560322
  0
POLYLINE
  8
0
 62
7
  6
CONTINUOUS
 66
1
 70
0
  0
VERTEX
  8
0
 62
7
  6
CONTINUOUS
 10
70.9332767131
 20
188.365193119
  0
VERTEX
  8
0
 62
7
  6
CONTINUOUS
 10
70.9240109406
 20
188.2289538756
  0
VERTEX
  8
0
 62
7
  6
CONTINUOUS
 10
70.8948080428
 20
188.0956241838
  0
VERTEX
  8
0
 62
7
  6
CONTINUOUS
 10
70.8486614038
 20
187.980376098
  0
VERTEX
  8
0
 62
7
  6
CONTINUOUS
 10
70.8082753845
 20
187.9122180814
  0
SEQEND
  0
POLYLINE
  8
0
 62
7
  6
CONTINUOUS
 66
1
 70
0
  0
VERTEX
  8
0
 62
7
  6
CONTINUOUS
 10
70.6832766029
 20
170.0150026804
  0
VERTEX
  8
0
 62
7
  6
CONTINUOUS
 10
70.6925423758
 20
170.151241927
  0
VERTEX
  8
0
 62
7
  6
CONTINUOUS
 10
70.721745275
 20
170.2845716218
  0
VERTEX
  8
0
 62
7
  6
CONTINUOUS
 10
70.7678919164
 20
170.3998197098
  0
VERTEX
  8
0
 62
7
  6
CONTINUOUS
 10
70.8082764387
 20
170.4679755498
  0
SEQEND
  0
LINE
  8
0
 62
7
  6
CONTINUOUS
 10
70.808276658
 20
184.4457128561
 11
69.4254606987
 21
179.4849289233
  0
LINE
  8
0
 62
7
  6
CONTINUOUS
 10
70.8256050626
 20
184.4899403972
 11
70.808276658
 21
184.4277756037
  0
POLYLINE
  8
0
 62
7
  6
CONTINUOUS
 66
1
 70
0
  0
VERTEX
  8
0
 62
7
  6
CONTINUOUS
 10
63.933276658
 20
163.2817417449
  0
VERTEX
  8
0
 62
7
  6
CONTINUOUS
 10
63.9378535352
 20
163.2946988479
  0
VERTEX
  8
0
 62
7
  6
CONTINUOUS
 10
63.9589763995
 20
163.3231972051
  0
VERTEX
  8
0
 62
7
  6
CONTINUOUS
 10
63.9956425494
 20
163.3545620021
  0
VERTEX
  8
0
 62
7
  6
CONTINUOUS
 10
64.0460113589
 20
163.3913693488
  0
VERTEX
  8
0
 62
7
  6
CONTINUOUS
 10
64.1093916049
 20
163.4398563362
  0
VERTEX
  8
0
 62
7
  6
CONTINUOUS
 10
64.1832138415
 20
163.5101052701
  0
VERTEX
  8
0
 62
7
  6
CONTINUOUS
 10
64.219550746
 20
163.5554655902
  0
VERTEX
  8
0
 62
7
  6
CONTINUOUS
 10
64.2768236377
 20
163.6612550652
  0
VERTEX
  8
0
 62
7
  6
CONTINUOUS
 10
64.3088693189
 20
163.7791351464
  0
VERTEX
  8
0
 62
7
  6
CONTINUOUS
 10
64.323976558
 20
163.9224854816
  0
VERTEX
  8
0
 62
7
  6
CONTINUOUS
 10
64.3291114641
 20
164.0838901091
  0
VERTEX
  8
0
 62
7
  6
CONTINUOUS
 10
64.3306244854
 20
164.2714915931
  0
VERTEX
  8
0
 62
7
  6
CONTINUOUS
 10
64.330776658
 20
173.084717202
  0
SEQEND
  0
LINE
  8
DEFAULT_1
 62
2
  6
CENTER
 10
75.208276658
 20
179.1900978997
 11
72.808376658
 21
179.1900978997
  0
LINE
  8
0
 62
2
  6
CONTINUOUS
 10
71.688276658
 20
179.1900978997
 11
69.928276658
 21
179.1900978997
  0
LINE
  8
DEFAULT_1
 62
2
  6
CENTER
 10
66.408276658
 20
179.1900978997
 11
68.808176658
 21
179.1900978997
  0
POLYLINE
  8
0
 62
7
  6
CONTINUOUS
 66
1
 70
0
  0
VERTEX
  8
0
 62
7
  6
CONTINUOUS
 10
72.6015951487
 20
179.3318848914
  0
VERTEX
  8
0
 62
7
  6
CONTINUOUS
 10
72.5799796457
 20
179.3779333021
  0
VERTEX
  8
0
 62
7
  6
CONTINUOUS
 10
72.5450829002
 20
179.414271039
  0
VERTEX
  8
0
 62
7
  6
CONTINUOUS
 10
72.5019954836
 20
179.4373504859
  0
VERTEX
  8
0
 62
7
  6
CONTINUOUS
 10
72.4556482704
 20
179.4446839994
  0
VERTEX
  8
0
 62
7
  6
CONTINUOUS
 10
72.40963706
 20
179.4356346206
  0
VERTEX
  8
0
 62
7
  6
CONTINUOUS
 10
72.3668469704
 20
179.4115635344
  0
VERTEX
  8
0
 62
7
  6
CONTINUOUS
 10
72.3332028123
 20
179.375689397
  0
VERTEX
  8
0
 62
7
  6
CONTINUOUS
 10
72.31264066
 20
179.3313144604
  0
SEQEND
  0
LINE
  8
0
 62
7
  6
CONTINUOUS
 10
72.6015951487
 20
179.3318848914
 11
74.029836196
 21
174.2052063142
  0
LINE
  8
0
 62
7
  6
CONTINUOUS
 10
67.108276658
 20
195.0984540545
 11
67.105776658
 21
195.1095749735
  0
LINE
  8
0
 62
7
  6
CONTINUOUS
 10
74.508276658
 20
163.2817417449
 11
74.510776658
 21
163.2706208258
  0
LINE
  8
0
 62
7
  6
CONTINUOUS
 10
73.8452646357
 20
195.2196603754
 11
73.860776658
 21
195.0733794726
  0
POLYLINE
  8
0
 62
7
  6
CONTINUOUS
 66
1
 70
0
  0
VERTEX
  8
0
 62
7
  6
CONTINUOUS
 10
74.1109182233
 20
164.2750773087
  0
VERTEX
  8
0
 62
7
  6
CONTINUOUS
 10
74.1122970455
 20
164.0934356408
  0
VERTEX
  8
0
 62
7
  6
CONTINUOUS
 10
74.1167073877
 20
163.9388896478
  0
VERTEX
  8
0
 62
7
  6
CONTINUOUS
 10
74.1290925809
 20
163.8015083333
  0
VERTEX
  8
0
 62
7
  6
CONTINUOUS
 10
74.1573846684
 20
163.6812117073
  0
VERTEX
  8
0
 62
7
  6
CONTINUOUS
 10
74.2076634186
 20
163.5767093175
  0
VERTEX
  8
0
 62
7
  6
CONTINUOUS
 10
74.2413719588
 20
163.5300251949
  0
VERTEX
  8
0
 62
7
  6
CONTINUOUS
 10
74.3168667616
 20
163.4527906326
  0
VERTEX
  8
0
 62
7
  6
CONTINUOUS
 10
74.3850179306
 20
163.3990398084
  0
VERTEX
  8
0
 62
7
  6
CONTINUOUS
 10
74.4399724591
 20
163.3590467945
  0
VERTEX
  8
0
 62
7
  6
CONTINUOUS
 10
74.4803422248
 20
163.3254394769
  0
VERTEX
  8
0
 62
7
  6
CONTINUOUS
 10
74.5033227919
 20
163.2954711501
  0
VERTEX
  8
0
 62
7
  6
CONTINUOUS
 10
74.508276658
 20
163.2817417449
  0
SEQEND
  0
LINE
  8
0
 62
7
  6
CONTINUOUS
 10
73.858276658
 20
195.0969548807
 11
73.858276658
 21
195.9681560322
  0
LINE
  8
0
 62
7
  6
CONTINUOUS
 10
73.860776658
 20
185.7315573649
 11
73.860776658
 21
195.0733794726
  0
LINE
  8
0
 62
7
  6
CONTINUOUS
 10
74.108276658
 20
170.0150202783
 11
74.108276658
 21
162.4120397671
  0
LINE
  8
0
 62
7
  6
CONTINUOUS
 10
74.110776658
 20
172.6744141449
 11
74.1109182233
 21
164.2750773087
  0
POLYLINE
  8
0
 62
7
  6
CONTINUOUS
 66
1
 70
0
  0
VERTEX
  8
0
 62
7
  6
CONTINUOUS
 10
74.130218817
 20
173.1570398025
  0
VERTEX
  8
0
 62
7
  6
CONTINUOUS
 10
74.1344941228
 20
173.5803596403
  0
VERTEX
  8
0
 62
7
  6
CONTINUOUS
 10
74.1143160956
 20
173.7909706856
  0
VERTEX
  8
0
 62
7
  6
CONTINUOUS
 10
74.029836196
 20
174.2052063142
  0
SEQEND
  0
LINE
  8
0
 62
7
  6
CONTINUOUS
 10
74.110776658
 20
172.6744141449
 11
74.130218817
 21
173.1570398025
  0
LINE
  8
0
 62
7
  6
CONTINUOUS
 10
70.280776658
 20
163.2706208258
 11
70.283276658
 21
163.2817417449
  0
LINE
  8
0
 62
7
  6
CONTINUOUS
 10
77.685776658
 20
195.1095749735
 11
77.683276658
 21
195.0984540545
  0
LINE
  8
0
 62
7
  6
CONTINUOUS
 10
70.7909482534
 20
173.8902554022
 11
70.808276658
 21
173.9524201956
  0
LINE
  8
0
 62
7
  6
CONTINUOUS
 10
70.808276658
 20
173.9344829432
 11
72.31264066
 21
179.3313144604
  0
POLYLINE
  8
0
 62
7
  6
CONTINUOUS
 66
1
 70
0
  0
VERTEX
  8
0
 62
7
  6
CONTINUOUS
 10
77.683276658
 20
195.0984540545
  0
VERTEX
  8
0
 62
7
  6
CONTINUOUS
 10
77.6786997808
 20
195.0854969514
  0
VERTEX
  8
0
 62
7
  6
CONTINUOUS
 10
77.6575769164
 20
195.0569985942
  0
VERTEX
  8
0
 62
7
  6
CONTINUOUS
 10
77.6209107666
 20
195.0256337972
  0
VERTEX
  8
0
 62
7
  6
CONTINUOUS
 10
77.5705419571
 20
194.9888264505
  0
VERTEX
  8
0
 62
7
  6
CONTINUOUS
 10
77.507161711
 20
194.9403394631
  0
VERTEX
  8
0
 62
7
  6
CONTINUOUS
 10
77.4333394745
 20
194.8700905293
  0
VERTEX
  8
0
 62
7
  6
CONTINUOUS
 10
77.3970025699
 20
194.8247302092
  0
VERTEX
  8
0
 62
7
  6
CONTINUOUS
 10
77.3397296783
 20
194.7189407341
  0
VERTEX
  8
0
 62
7
  6
CONTINUOUS
 10
77.3076839971
 20
194.6010606529
  0
VERTEX
  8
0
 62
7
  6
CONTINUOUS
 10
77.2925767579
 20
194.4577103177
  0
VERTEX
  8
0
 62
7
  6
CONTINUOUS
 10
77.2874418518
 20
194.2963056902
  0
VERTEX
  8
0
 62
7
  6
CONTINUOUS
 10
77.2859288305
 20
194.1087042062
  0
VERTEX
  8
0
 62
7
  6
CONTINUOUS
 10
77.285776658
 20
185.2954785973
  0
SEQEND
  0
POLYLINE
  8
0
 62
7
  6
CONTINUOUS
 66
1
 70
0
  0
VERTEX
  8
0
 62
7
  6
CONTINUOUS
 10
75.4890054943
 20
179.4753872986
  0
VERTEX
  8
0
 62
7
  6
CONTINUOUS
 10
75.5106209973
 20
179.4293388879
  0
VERTEX
  8
0
 62
7
  6
CONTINUOUS
 10
75.5455177428
 20
179.393001151
  0
VERTEX
  8
0
 62
7
  6
CONTINUOUS
 10
75.5886051593
 20
179.369921704
  0
VERTEX
  8
0
 62
7
  6
CONTINUOUS
 10
75.6349523725
 20
179.3625881906
  0
VERTEX
  8
0
 62
7
  6
CONTINUOUS
 10
75.680963583
 20
179.3716375694
  0
VERTEX
  8
0
 62
7
  6
CONTINUOUS
 10
75.7237536725
 20
179.3957086556
  0
VERTEX
  8
0
 62
7
  6
CONTINUOUS
 10
75.7573978306
 20
179.4315827929
  0
VERTEX
  8
0
 62
7
  6
CONTINUOUS
 10
75.777959983
 20
179.4759577295
  0
SEQEND
  0
LINE
  8
0
 62
7
  6
CONTINUOUS
 10
75.4890054943
 20
179.4753872986
 11
73.9711049421
 21
184.9238991248
  0
POLYLINE
  8
0
 62
7
  6
CONTINUOUS
 66
1
 70
0
  0
VERTEX
  8
0
 62
7
  6
CONTINUOUS
 10
73.9711049421
 20
184.9238991248
  0
VERTEX
  8
0
 62
7
  6
CONTINUOUS
 10
73.8885149361
 20
185.3236815289
  0
VERTEX
  8
0
 62
7
  6
CONTINUOUS
 10
73.860776658
 20
185.7315573649
  0
SEQEND
  0
POLYLINE
  8
0
 62
7
  6
CONTINUOUS
 66
1
 70
0
  0
VERTEX
  8
0
 62
7
  6
CONTINUOUS
 10
73.8783721959
 20
188.1669728256
  0
VERTEX
  8
0
 62
7
  6
CONTINUOUS
 10
73.8599516923
 20
188.3065596155
  0
VERTEX
  8
0
 62
7
  6
CONTINUOUS
 10
73.860776658
 20
188.2936940441
  0
SEQEND
  0
LINE
  8
0
 62
7
  6
CONTINUOUS
 10
77.033276658
 20
163.2832494353
 11
77.033276658
 21
162.4120397671
  0
LINE
  8
0
 62
7
  6
CONTINUOUS
 10
77.035776658
 20
163.3068163267
 11
77.035776658
 21
173.084717202
  0
LINE
  8
0
 62
7
  6
CONTINUOUS
 10
77.283276658
 20
188.3651755402
 11
77.283276658
 21
195.9681560322
  0
POLYLINE
  8
0
 62
7
  6
CONTINUOUS
 66
1
 70
0
  0
VERTEX
  8
0
 62
7
  6
CONTINUOUS
 10
77.283276713
 20
188.3651961293
  0
VERTEX
  8
0
 62
7
  6
CONTINUOUS
 10
77.2816016238
 20
188.3065596177
  0
VERTEX
  8
0
 62
7
  6
CONTINUOUS
 10
77.2631811204
 20
188.1669728273
  0
VERTEX
  8
0
 62
7
  6
CONTINUOUS
 10
77.2256669014
 20
188.0406422705
  0
VERTEX
  8
0
 62
7
  6
CONTINUOUS
 10
77.1717691501
 20
187.9327659141
  0
VERTEX
  8
0
 62
7
  6
CONTINUOUS
 10
77.1399362568
 20
187.8871626379
  0
VERTEX
  8
0
 62
7
  6
CONTINUOUS
 10
77.0688671434
 20
187.813875285
  0
VERTEX
  8
0
 62
7
  6
CONTINUOUS
 10
76.9910119707
 20
187.765703172
  0
VERTEX
  8
0
 62
7
  6
CONTINUOUS
 10
76.9118918231
 20
187.7439563126
  0
VERTEX
  8
0
 62
7
  6
CONTINUOUS
 10
76.8832766543
 20
187.7423266594
  0
SEQEND
  0
LINE
  8
0
 62
7
  6
CONTINUOUS
 10
77.035776658
 20
170.0865016566
 11
77.034951685
 21
170.0736359448
  0
POLYLINE
  8
0
 62
7
  6
CONTINUOUS
 66
1
 70
0
  0
VERTEX
  8
0
 62
7
  6
CONTINUOUS
 10
77.034951685
 20
170.0736359448
  0
VERTEX
  8
0
 62
7
  6
CONTINUOUS
 10
77.0533721498
 20
170.2132226637
  0
VERTEX
  8
0
 62
7
  6
CONTINUOUS
 10
77.0908863572
 20
170.3395533926
  0
VERTEX
  8
0
 62
7
  6
CONTINUOUS
 10
77.1447840938
 20
170.4474297832
  0
VERTEX
  8
0
 62
7
  6
CONTINUOUS
 10
77.1766170285
 20
170.4930331141
  0
VERTEX
  8
0
 62
7
  6
CONTINUOUS
 10
77.2476860782
 20
170.5663204427
  0
VERTEX
  8
0
 62
7
  6
CONTINUOUS
 10
77.3255412036
 20
170.6144925803
  0
VERTEX
  8
0
 62
7
  6
CONTINUOUS
 10
77.4046611189
 20
170.6362394404
  0
VERTEX
  8
0
 62
7
  6
CONTINUOUS
 10
77.4332766586
 20
170.6378691553
  0
SEQEND
  0
LINE
  8
0
 62
7
  6
CONTINUOUS
 10
77.1756050626
 20
184.4899403972
 11
75.777959983
 21
179.4759577295
  0
POLYLINE
  8
0
 62
7
  6
CONTINUOUS
 66
1
 70
0
  0
VERTEX
  8
0
 62
7
  6
CONTINUOUS
 10
70.283276658
 20
163.2817417449
  0
VERTEX
  8
0
 62
7
  6
CONTINUOUS
 10
70.2878535352
 20
163.2946988479
  0
VERTEX
  8
0
 62
7
  6
CONTINUOUS
 10
70.3089763995
 20
163.3231972051
  0
VERTEX
  8
0
 62
7
  6
CONTINUOUS
 10
70.3456425494
 20
163.3545620021
  0
VERTEX
  8
0
 62
7
  6
CONTINUOUS
 10
70.3960113589
 20
163.3913693488
  0
VERTEX
  8
0
 62
7
  6
CONTINUOUS
 10
70.4593916049
 20
163.4398563362
  0
VERTEX
  8
0
 62
7
  6
CONTINUOUS
 10
70.5332138415
 20
163.5101052701
  0
VERTEX
  8
0
 62
7
  6
CONTINUOUS
 10
70.569550746
 20
163.5554655901
  0
VERTEX
  8
0
 62
7
  6
CONTINUOUS
 10
70.6268236377
 20
163.6612550652
  0
VERTEX
  8
0
 62
7
  6
CONTINUOUS
 10
70.6588693189
 20
163.7791351464
  0
VERTEX
  8
0
 62
7
  6
CONTINUOUS
 10
70.673976558
 20
163.9224854816
  0
VERTEX
  8
0
 62
7
  6
CONTINUOUS
 10
70.6791114641
 20
164.0838901091
  0
VERTEX
  8
0
 62
7
  6
CONTINUOUS
 10
70.6806244854
 20
164.2714915931
  0
VERTEX
  8
0
 62
7
  6
CONTINUOUS
 10
70.680776658
 20
173.084717202
  0
SEQEND
  0
POLYLINE
  8
0
 62
7
  6
CONTINUOUS
 66
1
 70
0
  0
VERTEX
  8
0
 62
7
  6
CONTINUOUS
 10
70.8082764592
 20
170.4679755823
  0
VERTEX
  8
0
 62
7
  6
CONTINUOUS
 10
70.8619202234
 20
170.5336004774
  0
VERTEX
  8
0
 62
7
  6
CONTINUOUS
 10
70.9345814749
 20
170.5927482754
  0
VERTEX
  8
0
 62
7
  6
CONTINUOUS
 10
71.0146359813
 20
170.628452055
  0
VERTEX
  8
0
 62
7
  6
CONTINUOUS
 10
71.0832766586
 20
170.6378691551
  0
SEQEND
  0
LINE
  8
0
 62
7
  6
CONTINUOUS
 10
36.1582766586
 20
187.742326114
 11
38.7832766574
 21
187.742326114
  0
LINE
  8
0
 62
7
  6
CONTINUOUS
 10
48.8582766586
 20
187.742326114
 11
51.4832766574
 21
187.742326114
  0
LINE
  8
0
 62
7
  6
CONTINUOUS
 10
55.2082766586
 20
187.742326114
 11
57.8332766574
 21
187.742326114
  0
LINE
  8
0
 62
7
  6
CONTINUOUS
 10
61.5582766586
 20
187.742326114
 11
64.1832766574
 21
187.742326114
  0
LINE
  8
0
 62
7
  6
CONTINUOUS
 10
67.9082766586
 20
187.742326114
 11
70.5332766574
 21
187.742326114
  0
LINE
  8
0
 62
7
  6
CONTINUOUS
 10
74.2582766616
 20
187.742326114
 11
76.8832766543
 21
187.742326114
  0
LINE
  8
0
 62
7
  6
CONTINUOUS
 10
80.6082766616
 20
187.742326114
 11
83.2332766543
 21
187.742326114
  0
LINE
  8
0
 62
7
  6
CONTINUOUS
 10
86.9582766616
 20
187.742326114
 11
89.5832766543
 21
187.742326114
  0
LINE
  8
0
 62
7
  6
CONTINUOUS
 10
93.3082766616
 20
187.742326114
 11
95.9332766543
 21
187.742326114
  0
LINE
  8
0
 62
7
  6
CONTINUOUS
 10
41.7620185141
 20
187.7423272632
 11
45.1332766574
 21
187.742326114
  0
LINE
  8
0
 62
7
  6
CONTINUOUS
 10
106.0082766617
 20
187.742326114
 11
106.0850432108
 21
187.7423259592
  0
LINE
  8
0
 62
7
  6
CONTINUOUS
 10
102.2832766543
 20
187.742326114
 11
98.9119355984
 21
187.7423294835
  0
POLYLINE
  8
0
 62
7
  6
CONTINUOUS
 66
1
 70
0
  0
VERTEX
  8
0
 62
7
  6
CONTINUOUS
 10
36.1582766586
 20
187.7423266433
  0
VERTEX
  8
0
 62
7
  6
CONTINUOUS
 10
36.1328948309
 20
187.7436085412
  0
VERTEX
  8
0
 62
7
  6
CONTINUOUS
 10
36.0557251307
 20
187.7634808779
  0
VERTEX
  8
0
 62
7
  6
CONTINUOUS
 10
35.9793343203
 20
187.8085969308
  0
VERTEX
  8
0
 62
7
  6
CONTINUOUS
 10
35.9105794107
 20
187.875976829
  0
VERTEX
  8
0
 62
7
  6
CONTINUOUS
 10
35.8802791707
 20
187.9166185699
  0
VERTEX
  8
0
 62
7
  6
CONTINUOUS
 10
35.8290297306
 20
188.0093665934
  0
VERTEX
  8
0
 62
7
  6
CONTINUOUS
 10
35.8145553292
 20
188.0440591938
  0
SEQEND
  0
POLYLINE
  8
0
 62
7
  6
CONTINUOUS
 66
1
 70
0
  0
VERTEX
  8
0
 62
7
  6
CONTINUOUS
 10
48.8582766586
 20
187.742326644
  0
VERTEX
  8
0
 62
7
  6
CONTINUOUS
 10
48.8296611187
 20
187.7439563589
  0
VERTEX
  8
0
 62
7
  6
CONTINUOUS
 10
48.7505412032
 20
187.7657032192
  0
VERTEX
  8
0
 62
7
  6
CONTINUOUS
 10
48.6726860777
 20
187.8138753571
  0
VERTEX
  8
0
 62
7
  6
CONTINUOUS
 10
48.6016170279
 20
187.8871626859
  0
VERTEX
  8
0
 62
7
  6
CONTINUOUS
 10
48.5697840932
 20
187.932766017
  0
VERTEX
  8
0
 62
7
  6
CONTINUOUS
 10
48.5158863567
 20
188.0406424081
  0
VERTEX
  8
0
 62
7
  6
CONTINUOUS
 10
48.4783721494
 20
188.1669731374
  0
VERTEX
  8
0
 62
7
  6
CONTINUOUS
 10
48.4599516848
 20
188.3065598567
  0
VERTEX
  8
0
 62
7
  6
CONTINUOUS
 10
48.4582765941
 20
188.3651963688
  0
SEQEND
  0
POLYLINE
  8
0
 62
7
  6
CONTINUOUS
 66
1
 70
0
  0
VERTEX
  8
0
 62
7
  6
CONTINUOUS
 10
55.2082766586
 20
187.742326644
  0
VERTEX
  8
0
 62
7
  6
CONTINUOUS
 10
55.1796611187
 20
187.7439563589
  0
VERTEX
  8
0
 62
7
  6
CONTINUOUS
 10
55.1005412032
 20
187.7657032192
  0
VERTEX
  8
0
 62
7
  6
CONTINUOUS
 10
55.0226860777
 20
187.8138753571
  0
VERTEX
  8
0
 62
7
  6
CONTINUOUS
 10
54.9516170279
 20
187.8871626859
  0
VERTEX
  8
0
 62
7
  6
CONTINUOUS
 10
54.9197840932
 20
187.932766017
  0
VERTEX
  8
0
 62
7
  6
CONTINUOUS
 10
54.8658863567
 20
188.0406424081
  0
VERTEX
  8
0
 62
7
  6
CONTINUOUS
 10
54.8283721494
 20
188.1669731374
  0
VERTEX
  8
0
 62
7
  6
CONTINUOUS
 10
54.8099516848
 20
188.3065598567
  0
VERTEX
  8
0
 62
7
  6
CONTINUOUS
 10
54.8082765941
 20
188.3651963688
  0
SEQEND
  0
POLYLINE
  8
0
 62
7
  6
CONTINUOUS
 66
1
 70
0
  0
VERTEX
  8
0
 62
7
  6
CONTINUOUS
 10
61.5582766586
 20
187.742326644
  0
VERTEX
  8
0
 62
7
  6
CONTINUOUS
 10
61.5296611187
 20
187.7439563589
  0
VERTEX
  8
0
 62
7
  6
CONTINUOUS
 10
61.4505412032
 20
187.7657032192
  0
VERTEX
  8
0
 62
7
  6
CONTINUOUS
 10
61.3726860777
 20
187.8138753571
  0
VERTEX
  8
0
 62
7
  6
CONTINUOUS
 10
61.3016170279
 20
187.8871626859
  0
VERTEX
  8
0
 62
7
  6
CONTINUOUS
 10
61.2697840932
 20
187.932766017
  0
VERTEX
  8
0
 62
7
  6
CONTINUOUS
 10
61.2158863567
 20
188.0406424081
  0
VERTEX
  8
0
 62
7
  6
CONTINUOUS
 10
61.1783721494
 20
188.1669731374
  0
VERTEX
  8
0
 62
7
  6
CONTINUOUS
 10
61.1599516848
 20
188.3065598567
  0
VERTEX
  8
0
 62
7
  6
CONTINUOUS
 10
61.1582765941
 20
188.3651963688
  0
SEQEND
  0
POLYLINE
  8
0
 62
7
  6
CONTINUOUS
 66
1
 70
0
  0
VERTEX
  8
0
 62
7
  6
CONTINUOUS
 10
67.9082766586
 20
187.742326644
  0
VERTEX
  8
0
 62
7
  6
CONTINUOUS
 10
67.8796611187
 20
187.7439563589
  0
VERTEX
  8
0
 62
7
  6
CONTINUOUS
 10
67.8005412032
 20
187.7657032192
  0
VERTEX
  8
0
 62
7
  6
CONTINUOUS
 10
67.7226860777
 20
187.8138753571
  0
VERTEX
  8
0
 62
7
  6
CONTINUOUS
 10
67.6516170279
 20
187.8871626859
  0
VERTEX
  8
0
 62
7
  6
CONTINUOUS
 10
67.6197840932
 20
187.932766017
  0
VERTEX
  8
0
 62
7
  6
CONTINUOUS
 10
67.5658863567
 20
188.0406424081
  0
VERTEX
  8
0
 62
7
  6
CONTINUOUS
 10
67.5283721494
 20
188.1669731374
  0
VERTEX
  8
0
 62
7
  6
CONTINUOUS
 10
67.5099516848
 20
188.3065598567
  0
VERTEX
  8
0
 62
7
  6
CONTINUOUS
 10
67.5082765941
 20
188.3651963688
  0
SEQEND
  0
POLYLINE
  8
0
 62
7
  6
CONTINUOUS
 66
1
 70
0
  0
VERTEX
  8
0
 62
7
  6
CONTINUOUS
 10
74.2582766617
 20
187.7423266594
  0
VERTEX
  8
0
 62
7
  6
CONTINUOUS
 10
74.2296614931
 20
187.7439563125
  0
VERTEX
  8
0
 62
7
  6
CONTINUOUS
 10
74.1505413457
 20
187.7657031718
  0
VERTEX
  8
0
 62
7
  6
CONTINUOUS
 10
74.0726861731
 20
187.8138752845
  0
VERTEX
  8
0
 62
7
  6
CONTINUOUS
 10
74.0016170597
 20
187.8871626372
  0
VERTEX
  8
0
 62
7
  6
CONTINUOUS
 10
73.9697841665
 20
187.9327659131
  0
VERTEX
  8
0
 62
7
  6
CONTINUOUS
 10
73.9158864151
 20
188.0406422692
  0
VERTEX
  8
0
 62
7
  6
CONTINUOUS
 10
73.8783721959
 20
188.1669728256
  0
SEQEND
  0
POLYLINE
  8
0
 62
7
  6
CONTINUOUS
 66
1
 70
0
  0
VERTEX
  8
0
 62
7
  6
CONTINUOUS
 10
80.6082766617
 20
187.7423266594
  0
VERTEX
  8
0
 62
7
  6
CONTINUOUS
 10
80.5796614931
 20
187.7439563125
  0
VERTEX
  8
0
 62
7
  6
CONTINUOUS
 10
80.5005413457
 20
187.7657031718
  0
VERTEX
  8
0
 62
7
  6
CONTINUOUS
 10
80.4226861731
 20
187.8138752845
  0
VERTEX
  8
0
 62
7
  6
CONTINUOUS
 10
80.3516170597
 20
187.8871626372
  0
VERTEX
  8
0
 62
7
  6
CONTINUOUS
 10
80.3197841665
 20
187.9327659131
  0
VERTEX
  8
0
 62
7
  6
CONTINUOUS
 10
80.2658864151
 20
188.0406422692
  0
VERTEX
  8
0
 62
7
  6
CONTINUOUS
 10
80.2283721959
 20
188.1669728256
  0
SEQEND
  0
POLYLINE
  8
0
 62
7
  6
CONTINUOUS
 66
1
 70
0
  0
VERTEX
  8
0
 62
7
  6
CONTINUOUS
 10
78.9515951487
 20
179.3318848914
  0
VERTEX
  8
0
 62
7
  6
CONTINUOUS
 10
78.9299796456
 20
179.3779333022
  0
VERTEX
  8
0
 62
7
  6
CONTINUOUS
 10
78.8950829
 20
179.4142710391
  0
VERTEX
  8
0
 62
7
  6
CONTINUOUS
 10
78.8519954834
 20
179.437350486
  0
VERTEX
  8
0
 62
7
  6
CONTINUOUS
 10
78.8056482701
 20
179.4446839994
  0
VERTEX
  8
0
 62
7
  6
CONTINUOUS
 10
78.7596370596
 20
179.4356346205
  0
VERTEX
  8
0
 62
7
  6
CONTINUOUS
 10
78.7168469703
 20
179.4115635343
  0
VERTEX
  8
0
 62
7
  6
CONTINUOUS
 10
78.6832028123
 20
179.375689397
  0
VERTEX
  8
0
 62
7
  6
CONTINUOUS
 10
78.66264066
 20
179.3313144604
  0
SEQEND
  0
LINE
  8
0
 62
7
  6
CONTINUOUS
 10
78.9515951487
 20
179.3318848914
 11
80.379836196
 21
174.2052063142
  0
LINE
  8
0
 62
7
  6
CONTINUOUS
 10
80.858276658
 20
163.2817417449
 11
80.860776658
 21
163.2706208258
  0
LINE
  8
0
 62
7
  6
CONTINUOUS
 10
80.1952646357
 20
195.2196603754
 11
80.210776658
 21
195.0733794726
  0
POLYLINE
  8
0
 62
7
  6
CONTINUOUS
 66
1
 70
0
  0
VERTEX
  8
0
 62
7
  6
CONTINUOUS
 10
80.4609182233
 20
164.2750773086
  0
VERTEX
  8
0
 62
7
  6
CONTINUOUS
 10
80.4622970455
 20
164.0934356408
  0
VERTEX
  8
0
 62
7
  6
CONTINUOUS
 10
80.4667073877
 20
163.9388896478
  0
VERTEX
  8
0
 62
7
  6
CONTINUOUS
 10
80.4790925809
 20
163.8015083333
  0
VERTEX
  8
0
 62
7
  6
CONTINUOUS
 10
80.5073846684
 20
163.6812117073
  0
VERTEX
  8
0
 62
7
  6
CONTINUOUS
 10
80.5576634186
 20
163.5767093175
  0
VERTEX
  8
0
 62
7
  6
CONTINUOUS
 10
80.5913719588
 20
163.5300251949
  0
VERTEX
  8
0
 62
7
  6
CONTINUOUS
 10
80.6668667616
 20
163.4527906326
  0
VERTEX
  8
0
 62
7
  6
CONTINUOUS
 10
80.7350179306
 20
163.3990398084
  0
VERTEX
  8
0
 62
7
  6
CONTINUOUS
 10
80.7899724591
 20
163.3590467945
  0
VERTEX
  8
0
 62
7
  6
CONTINUOUS
 10
80.8303422248
 20
163.3254394769
  0
VERTEX
  8
0
 62
7
  6
CONTINUOUS
 10
80.8533227919
 20
163.2954711501
  0
VERTEX
  8
0
 62
7
  6
CONTINUOUS
 10
80.858276658
 20
163.2817417449
  0
SEQEND
  0
LINE
  8
0
 62
7
  6
CONTINUOUS
 10
80.208276658
 20
195.0969548807
 11
80.208276658
 21
195.9681560322
  0
LINE
  8
0
 62
7
  6
CONTINUOUS
 10
80.210776658
 20
185.7315573649
 11
80.210776658
 21
195.0733794726
  0
LINE
  8
0
 62
7
  6
CONTINUOUS
 10
80.458276658
 20
170.0150202783
 11
80.458276658
 21
162.4120397671
  0
LINE
  8
0
 62
7
  6
CONTINUOUS
 10
80.460776658
 20
172.6744141449
 11
80.4609182233
 21
164.2750773086
  0
POLYLINE
  8
0
 62
7
  6
CONTINUOUS
 66
1
 70
0
  0
VERTEX
  8
0
 62
7
  6
CONTINUOUS
 10
80.480218817
 20
173.1570398021
  0
VERTEX
  8
0
 62
7
  6
CONTINUOUS
 10
80.4845076714
 20
173.5801351786
  0
VERTEX
  8
0
 62
7
  6
CONTINUOUS
 10
80.4643364567
 20
173.7908157789
  0
VERTEX
  8
0
 62
7
  6
CONTINUOUS
 10
80.379836196
 20
174.2052063142
  0
SEQEND
  0
LINE
  8
0
 62
7
  6
CONTINUOUS
 10
80.460776658
 20
172.6744141449
 11
80.480218817
 21
173.1570398021
  0
POLYLINE
  8
0
 62
7
  6
CONTINUOUS
 66
1
 70
0
  0
VERTEX
  8
0
 62
7
  6
CONTINUOUS
 10
77.035776658
 20
163.3068163267
  0
VERTEX
  8
0
 62
7
  6
CONTINUOUS
 10
77.0202537562
 20
163.1604857108
  0
VERTEX
  8
0
 62
7
  6
CONTINUOUS
 10
76.9782454206
 20
163.0353076464
  0
VERTEX
  8
0
 62
7
  6
CONTINUOUS
 10
76.9165975418
 20
162.9352556771
  0
VERTEX
  8
0
 62
7
  6
CONTINUOUS
 10
76.8807842112
 20
162.8955083548
  0
VERTEX
  8
0
 62
7
  6
CONTINUOUS
 10
76.8031220607
 20
162.8360780847
  0
VERTEX
  8
0
 62
7
  6
CONTINUOUS
 10
76.720457219
 20
162.8014379531
  0
VERTEX
  8
0
 62
7
  6
CONTINUOUS
 10
76.6357766201
 20
162.7901027822
  0
SEQEND
  0
LINE
  8
0
 62
7
  6
CONTINUOUS
 10
84.035776658
 20
195.1095749735
 11
84.033276658
 21
195.0984540545
  0
LINE
  8
0
 62
7
  6
CONTINUOUS
 10
77.1459482534
 20
173.8902554022
 11
78.66264066
 21
179.3313144604
  0
POLYLINE
  8
0
 62
7
  6
CONTINUOUS
 66
1
 70
0
  0
VERTEX
  8
0
 62
7
  6
CONTINUOUS
 10
84.033276658
 20
195.0984540545
  0
VERTEX
  8
0
 62
7
  6
CONTINUOUS
 10
84.0286997808
 20
195.0854969514
  0
VERTEX
  8
0
 62
7
  6
CONTINUOUS
 10
84.0075769164
 20
195.0569985942
  0
VERTEX
  8
0
 62
7
  6
CONTINUOUS
 10
83.9709107666
 20
195.0256337972
  0
VERTEX
  8
0
 62
7
  6
CONTINUOUS
 10
83.9205419571
 20
194.9888264505
  0
VERTEX
  8
0
 62
7
  6
CONTINUOUS
 10
83.8571617111
 20
194.9403394631
  0
VERTEX
  8
0
 62
7
  6
CONTINUOUS
 10
83.7833394745
 20
194.8700905293
  0
VERTEX
  8
0
 62
7
  6
CONTINUOUS
 10
83.74700257
 20
194.8247302092
  0
VERTEX
  8
0
 62
7
  6
CONTINUOUS
 10
83.6897296783
 20
194.7189407341
  0
VERTEX
  8
0
 62
7
  6
CONTINUOUS
 10
83.6576839971
 20
194.601060653
  0
VERTEX
  8
0
 62
7
  6
CONTINUOUS
 10
83.6425767579
 20
194.4577103177
  0
VERTEX
  8
0
 62
7
  6
CONTINUOUS
 10
83.6374418518
 20
194.2963056903
  0
VERTEX
  8
0
 62
7
  6
CONTINUOUS
 10
83.6359288305
 20
194.1087042062
  0
VERTEX
  8
0
 62
7
  6
CONTINUOUS
 10
83.635776658
 20
185.2954785973
  0
SEQEND
  0
POLYLINE
  8
0
 62
7
  6
CONTINUOUS
 66
1
 70
0
  0
VERTEX
  8
0
 62
7
  6
CONTINUOUS
 10
106.0082766617
 20
187.7423266594
  0
VERTEX
  8
0
 62
7
  6
CONTINUOUS
 10
105.9806947142
 20
187.7438406313
  0
VERTEX
  8
0
 62
7
  6
CONTINUOUS
 10
105.9014583467
 20
187.7653016271
  0
VERTEX
  8
0
 62
7
  6
CONTINUOUS
 10
105.8233438417
 20
187.8133425041
  0
VERTEX
  8
0
 62
7
  6
CONTINUOUS
 10
105.7517197569
 20
187.8870307325
  0
VERTEX
  8
0
 62
7
  6
CONTINUOUS
 10
105.7196129263
 20
187.9330394936
  0
VERTEX
  8
0
 62
7
  6
CONTINUOUS
 10
105.6654614929
 20
188.0417275303
  0
VERTEX
  8
0
 62
7
  6
CONTINUOUS
 10
105.6280168702
 20
188.1686617555
  0
SEQEND
  0
POLYLINE
  8
0
 62
7
  6
CONTINUOUS
 66
1
 70
0
  0
VERTEX
  8
0
 62
7
  6
CONTINUOUS
 10
86.9582766617
 20
187.7423266594
  0
VERTEX
  8
0
 62
7
  6
CONTINUOUS
 10
86.9296614931
 20
187.7439563125
  0
VERTEX
  8
0
 62
7
  6
CONTINUOUS
 10
86.8505413457
 20
187.7657031718
  0
VERTEX
  8
0
 62
7
  6
CONTINUOUS
 10
86.7726861731
 20
187.8138752845
  0
VERTEX
  8
0
 62
7
  6
CONTINUOUS
 10
86.7016170597
 20
187.8871626372
  0
VERTEX
  8
0
 62
7
  6
CONTINUOUS
 10
86.6697841665
 20
187.9327659131
  0
VERTEX
  8
0
 62
7
  6
CONTINUOUS
 10
86.6158864151
 20
188.0406422692
  0
VERTEX
  8
0
 62
7
  6
CONTINUOUS
 10
86.5783721959
 20
188.1669728256
  0
SEQEND
  0
POLYLINE
  8
0
 62
7
  6
CONTINUOUS
 66
1
 70
0
  0
VERTEX
  8
0
 62
7
  6
CONTINUOUS
 10
93.3082766617
 20
187.7423266594
  0
VERTEX
  8
0
 62
7
  6
CONTINUOUS
 10
93.2796614931
 20
187.7439563125
  0
VERTEX
  8
0
 62
7
  6
CONTINUOUS
 10
93.2005413457
 20
187.7657031718
  0
VERTEX
  8
0
 62
7
  6
CONTINUOUS
 10
93.1226861731
 20
187.8138752845
  0
VERTEX
  8
0
 62
7
  6
CONTINUOUS
 10
93.0516170597
 20
187.8871626372
  0
VERTEX
  8
0
 62
7
  6
CONTINUOUS
 10
93.0197841665
 20
187.9327659131
  0
VERTEX
  8
0
 62
7
  6
CONTINUOUS
 10
92.9658864151
 20
188.0406422692
  0
VERTEX
  8
0
 62
7
  6
CONTINUOUS
 10
92.9283721959
 20
188.1669728256
  0
SEQEND
  0
POLYLINE
  8
0
 62
7
  6
CONTINUOUS
 66
1
 70
0
  0
VERTEX
  8
0
 62
7
  6
CONTINUOUS
 10
106.6178540953
 20
187.7227576629
  0
VERTEX
  8
0
 62
7
  6
CONTINUOUS
 10
106.4385977471
 20
187.734160953
  0
VERTEX
  8
0
 62
7
  6
CONTINUOUS
 10
106.2239932701
 20
187.7410943969
  0
VERTEX
  8
0
 62
7
  6
CONTINUOUS
 10
106.0839502118
 20
187.7423274704
  0
SEQEND
  0
POLYLINE
  8
0
 62
7
  6
CONTINUOUS
 66
1
 70
0
  0
VERTEX
  8
0
 62
7
  6
CONTINUOUS
 10
108.4455187643
 20
187.5806510658
  0
VERTEX
  8
0
 62
7
  6
CONTINUOUS
 10
107.8319097778
 20
187.6269588322
  0
VERTEX
  8
0
 62
7
  6
CONTINUOUS
 10
107.2124846945
 20
187.6751293807
  0
VERTEX
  8
0
 62
7
  6
CONTINUOUS
 10
106.6178529781
 20
187.722756249
  0
SEQEND
  0
POLYLINE
  8
0
 62
7
  6
CONTINUOUS
 66
1
 70
0
  0
VERTEX
  8
0
 62
7
  6
CONTINUOUS
 10
35.3883396271
 20
196.3670247047
  0
VERTEX
  8
0
 62
7
  6
CONTINUOUS
 10
35.4416555351
 20
196.3593694815
  0
VERTEX
  8
0
 62
7
  6
CONTINUOUS
 10
35.5435267052
 20
196.3226731968
  0
VERTEX
  8
0
 62
7
  6
CONTINUOUS
 10
35.6323704714
 20
196.259485024
  0
VERTEX
  8
0
 62
7
  6
CONTINUOUS
 10
35.7008016251
 20
196.1747393009
  0
VERTEX
  8
0
 62
7
  6
CONTINUOUS
 10
35.743843829
 20
196.0746358737
  0
VERTEX
  8
0
 62
7
  6
CONTINUOUS
 10
35.758276658
 20
195.9681560322
  0
SEQEND
  0
POLYLINE
  8
0
 62
7
  6
CONTINUOUS
 66
1
 70
0
  0
VERTEX
  8
0
 62
7
  6
CONTINUOUS
 10
41.008276658
 20
195.5900978997
  0
VERTEX
  8
0
 62
7
  6
CONTINUOUS
 10
41.0892681048
 20
195.5782151871
  0
VERTEX
  8
0
 62
7
  6
CONTINUOUS
 10
41.1689184498
 20
195.5411580121
  0
VERTEX
  8
0
 62
7
  6
CONTINUOUS
 10
41.2408659154
 20
195.4788081804
  0
VERTEX
  8
0
 62
7
  6
CONTINUOUS
 10
41.3012912313
 20
195.3895186007
  0
VERTEX
  8
0
 62
7
  6
CONTINUOUS
 10
41.342777706
 20
195.2754073773
  0
VERTEX
  8
0
 62
7
  6
CONTINUOUS
 10
41.358276658
 20
195.1400978997
  0
SEQEND
  0
POLYLINE
  8
0
 62
7
  6
CONTINUOUS
 66
1
 70
0
  0
VERTEX
  8
0
 62
7
  6
CONTINUOUS
 10
81.8390054943
 20
179.4753872986
  0
VERTEX
  8
0
 62
7
  6
CONTINUOUS
 10
81.8606209973
 20
179.4293388878
  0
VERTEX
  8
0
 62
7
  6
CONTINUOUS
 10
81.895517743
 20
179.3930011509
  0
VERTEX
  8
0
 62
7
  6
CONTINUOUS
 10
81.9386051597
 20
179.3699217039
  0
VERTEX
  8
0
 62
7
  6
CONTINUOUS
 10
81.984952373
 20
179.3625881906
  0
VERTEX
  8
0
 62
7
  6
CONTINUOUS
 10
82.0309635835
 20
179.3716375695
  0
VERTEX
  8
0
 62
7
  6
CONTINUOUS
 10
82.0737536728
 20
179.3957086558
  0
VERTEX
  8
0
 62
7
  6
CONTINUOUS
 10
82.1073978307
 20
179.431582793
  0
VERTEX
  8
0
 62
7
  6
CONTINUOUS
 10
82.127959983
 20
179.4759577295
  0
SEQEND
  0
LINE
  8
0
 62
7
  6
CONTINUOUS
 10
81.8390054943
 20
179.4753872986
 11
80.3211049421
 21
184.9238991248
  0
POLYLINE
  8
0
 62
7
  6
CONTINUOUS
 66
1
 70
0
  0
VERTEX
  8
0
 62
7
  6
CONTINUOUS
 10
80.3211049421
 20
184.9238991248
  0
VERTEX
  8
0
 62
7
  6
CONTINUOUS
 10
80.2385149361
 20
185.3236815289
  0
VERTEX
  8
0
 62
7
  6
CONTINUOUS
 10
80.210776658
 20
185.7315573649
  0
SEQEND
  0
POLYLINE
  8
0
 62
7
  6
CONTINUOUS
 66
1
 70
0
  0
VERTEX
  8
0
 62
7
  6
CONTINUOUS
 10
80.2283721959
 20
188.1669728256
  0
VERTEX
  8
0
 62
7
  6
CONTINUOUS
 10
80.2099516923
 20
188.3065596155
  0
VERTEX
  8
0
 62
7
  6
CONTINUOUS
 10
80.210776658
 20
188.2936940441
  0
SEQEND
  0
LINE
  8
0
 62
7
  6
CONTINUOUS
 10
83.383276658
 20
163.2832494353
 11
83.383276658
 21
162.4120397671
  0
LINE
  8
0
 62
7
  6
CONTINUOUS
 10
83.385776658
 20
163.3068163267
 11
83.385776658
 21
173.084717202
  0
LINE
  8
0
 62
7
  6
CONTINUOUS
 10
83.633276658
 20
188.3651755402
 11
83.633276658
 21
195.9681560322
  0
POLYLINE
  8
0
 62
7
  6
CONTINUOUS
 66
1
 70
0
  0
VERTEX
  8
0
 62
7
  6
CONTINUOUS
 10
83.633276713
 20
188.3651961293
  0
VERTEX
  8
0
 62
7
  6
CONTINUOUS
 10
83.6316016238
 20
188.3065596177
  0
VERTEX
  8
0
 62
7
  6
CONTINUOUS
 10
83.6131811204
 20
188.1669728273
  0
VERTEX
  8
0
 62
7
  6
CONTINUOUS
 10
83.5756669014
 20
188.0406422705
  0
VERTEX
  8
0
 62
7
  6
CONTINUOUS
 10
83.5217691501
 20
187.9327659141
  0
VERTEX
  8
0
 62
7
  6
CONTINUOUS
 10
83.4899362568
 20
187.8871626379
  0
VERTEX
  8
0
 62
7
  6
CONTINUOUS
 10
83.4188671434
 20
187.813875285
  0
VERTEX
  8
0
 62
7
  6
CONTINUOUS
 10
83.3410119707
 20
187.765703172
  0
VERTEX
  8
0
 62
7
  6
CONTINUOUS
 10
83.2618918231
 20
187.7439563126
  0
VERTEX
  8
0
 62
7
  6
CONTINUOUS
 10
83.2332766543
 20
187.7423266594
  0
SEQEND
  0
LINE
  8
0
 62
7
  6
CONTINUOUS
 10
83.385776658
 20
170.0865016566
 11
83.384951685
 21
170.0736359448
  0
POLYLINE
  8
0
 62
7
  6
CONTINUOUS
 66
1
 70
0
  0
VERTEX
  8
0
 62
7
  6
CONTINUOUS
 10
83.384951685
 20
170.0736359448
  0
VERTEX
  8
0
 62
7
  6
CONTINUOUS
 10
83.4033721498
 20
170.2132226637
  0
VERTEX
  8
0
 62
7
  6
CONTINUOUS
 10
83.4408863572
 20
170.3395533926
  0
VERTEX
  8
0
 62
7
  6
CONTINUOUS
 10
83.4947840938
 20
170.4474297832
  0
VERTEX
  8
0
 62
7
  6
CONTINUOUS
 10
83.5266170285
 20
170.4930331141
  0
VERTEX
  8
0
 62
7
  6
CONTINUOUS
 10
83.5976860782
 20
170.5663204427
  0
VERTEX
  8
0
 62
7
  6
CONTINUOUS
 10
83.6755412036
 20
170.6144925803
  0
VERTEX
  8
0
 62
7
  6
CONTINUOUS
 10
83.7546611189
 20
170.6362394404
  0
VERTEX
  8
0
 62
7
  6
CONTINUOUS
 10
83.7832766586
 20
170.6378691553
  0
SEQEND
  0
LINE
  8
0
 62
7
  6
CONTINUOUS
 10
83.5256050626
 20
184.4899403972
 11
82.127959983
 21
179.4759577295
  0
POLYLINE
  8
0
 62
7
  6
CONTINUOUS
 66
1
 70
0
  0
VERTEX
  8
0
 62
7
  6
CONTINUOUS
 10
90.383276658
 20
195.0984540545
  0
VERTEX
  8
0
 62
7
  6
CONTINUOUS
 10
90.3786997808
 20
195.0854969514
  0
VERTEX
  8
0
 62
7
  6
CONTINUOUS
 10
90.3575769164
 20
195.0569985942
  0
VERTEX
  8
0
 62
7
  6
CONTINUOUS
 10
90.3209107665
 20
195.0256337972
  0
VERTEX
  8
0
 62
7
  6
CONTINUOUS
 10
90.270541957
 20
194.9888264505
  0
VERTEX
  8
0
 62
7
  6
CONTINUOUS
 10
90.207161711
 20
194.9403394631
  0
VERTEX
  8
0
 62
7
  6
CONTINUOUS
 10
90.1333394745
 20
194.8700905292
  0
VERTEX
  8
0
 62
7
  6
CONTINUOUS
 10
90.0970025699
 20
194.8247302091
  0
VERTEX
  8
0
 62
7
  6
CONTINUOUS
 10
90.0397296782
 20
194.7189407341
  0
VERTEX
  8
0
 62
7
  6
CONTINUOUS
 10
90.0076839971
 20
194.6010606529
  0
VERTEX
  8
0
 62
7
  6
CONTINUOUS
 10
89.9925767579
 20
194.4577103177
  0
VERTEX
  8
0
 62
7
  6
CONTINUOUS
 10
89.9874418518
 20
194.2963056902
  0
VERTEX
  8
0
 62
7
  6
CONTINUOUS
 10
89.9859288305
 20
194.1087042062
  0
VERTEX
  8
0
 62
7
  6
CONTINUOUS
 10
89.985776658
 20
185.2954785973
  0
SEQEND
  0
POLYLINE
  8
0
 62
7
  6
CONTINUOUS
 66
1
 70
0
  0
VERTEX
  8
0
 62
7
  6
CONTINUOUS
 10
103.0532136888
 20
196.3670247047
  0
VERTEX
  8
0
 62
7
  6
CONTINUOUS
 10
102.9998977809
 20
196.3593694815
  0
VERTEX
  8
0
 62
7
  6
CONTINUOUS
 10
102.8980266107
 20
196.3226731968
  0
VERTEX
  8
0
 62
7
  6
CONTINUOUS
 10
102.8091828446
 20
196.259485024
  0
VERTEX
  8
0
 62
7
  6
CONTINUOUS
 10
102.7407516909
 20
196.1747393009
  0
VERTEX
  8
0
 62
7
  6
CONTINUOUS
 10
102.697709487
 20
196.0746358737
  0
VERTEX
  8
0
 62
7
  6
CONTINUOUS
 10
102.683276658
 20
195.9681560322
  0
SEQEND
  0
POLYLINE
  8
0
 62
7
  6
CONTINUOUS
 66
1
 70
0
  0
VERTEX
  8
0
 62
7
  6
CONTINUOUS
 10
96.7032136888
 20
196.3670247047
  0
VERTEX
  8
0
 62
7
  6
CONTINUOUS
 10
96.6498977809
 20
196.3593694815
  0
VERTEX
  8
0
 62
7
  6
CONTINUOUS
 10
96.5480266107
 20
196.3226731968
  0
VERTEX
  8
0
 62
7
  6
CONTINUOUS
 10
96.4591828446
 20
196.259485024
  0
VERTEX
  8
0
 62
7
  6
CONTINUOUS
 10
96.3907516909
 20
196.1747393009
  0
VERTEX
  8
0
 62
7
  6
CONTINUOUS
 10
96.347709487
 20
196.0746358737
  0
VERTEX
  8
0
 62
7
  6
CONTINUOUS
 10
96.333276658
 20
195.9681560322
  0
SEQEND
  0
POLYLINE
  8
0
 62
7
  6
CONTINUOUS
 66
1
 70
0
  0
VERTEX
  8
0
 62
7
  6
CONTINUOUS
 10
90.3532136888
 20
196.3670247047
  0
VERTEX
  8
0
 62
7
  6
CONTINUOUS
 10
90.2998977809
 20
196.3593694815
  0
VERTEX
  8
0
 62
7
  6
CONTINUOUS
 10
90.1980266107
 20
196.3226731968
  0
VERTEX
  8
0
 62
7
  6
CONTINUOUS
 10
90.1091828446
 20
196.259485024
  0
VERTEX
  8
0
 62
7
  6
CONTINUOUS
 10
90.0407516909
 20
196.1747393009
  0
VERTEX
  8
0
 62
7
  6
CONTINUOUS
 10
89.997709487
 20
196.0746358737
  0
VERTEX
  8
0
 62
7
  6
CONTINUOUS
 10
89.983276658
 20
195.9681560322
  0
SEQEND
  0
LINE
  8
0
 62
7
  6
CONTINUOUS
 10
103.2297145857
 20
196.3814310711
 11
103.0531660908
 21
196.3670206248
  0
LINE
  8
0
 62
7
  6
CONTINUOUS
 10
96.8797145857
 20
196.3814310711
 11
96.7031660908
 21
196.3670206248
  0
LINE
  8
DEFAULT_1
 62
2
  6
CENTER
 10
30.893276658
 20
191.8900978997
 11
107.608276658
 21
191.8900978997
  0
POLYLINE
  8
0
 62
7
  6
CONTINUOUS
 66
1
 70
0
  0
VERTEX
  8
0
 62
7
  6
CONTINUOUS
 10
35.3883873319
 20
196.3670206168
  0
VERTEX
  8
0
 62
7
  6
CONTINUOUS
 10
35.2112234961
 20
196.3814811389
  0
VERTEX
  8
0
 62
7
  6
CONTINUOUS
 10
35.1412139901
 20
196.3867193964
  0
VERTEX
  8
0
 62
7
  6
CONTINUOUS
 10
35.082660053
 20
196.3896343419
  0
SEQEND
  0
POLYLINE
  8
0
 62
7
  6
CONTINUOUS
 66
1
 70
0
  0
VERTEX
  8
0
 62
7
  6
CONTINUOUS
 10
48.0883873319
 20
196.3670206168
  0
VERTEX
  8
0
 62
7
  6
CONTINUOUS
 10
47.9112234961
 20
196.3814811389
  0
VERTEX
  8
0
 62
7
  6
CONTINUOUS
 10
47.8412139901
 20
196.3867193964
  0
VERTEX
  8
0
 62
7
  6
CONTINUOUS
 10
47.782660053
 20
196.3896343419
  0
SEQEND
  0
POLYLINE
  8
0
 62
7
  6
CONTINUOUS
 66
1
 70
0
  0
VERTEX
  8
0
 62
7
  6
CONTINUOUS
 10
48.0883396271
 20
196.3670247047
  0
VERTEX
  8
0
 62
7
  6
CONTINUOUS
 10
48.1416555351
 20
196.3593694815
  0
VERTEX
  8
0
 62
7
  6
CONTINUOUS
 10
48.2435267052
 20
196.3226731968
  0
VERTEX
  8
0
 62
7
  6
CONTINUOUS
 10
48.3323704714
 20
196.259485024
  0
VERTEX
  8
0
 62
7
  6
CONTINUOUS
 10
48.4008016251
 20
196.1747393009
  0
VERTEX
  8
0
 62
7
  6
CONTINUOUS
 10
48.443843829
 20
196.0746358737
  0
VERTEX
  8
0
 62
7
  6
CONTINUOUS
 10
48.458276658
 20
195.9681560322
  0
SEQEND
  0
POLYLINE
  8
0
 62
7
  6
CONTINUOUS
 66
1
 70
0
  0
VERTEX
  8
0
 62
7
  6
CONTINUOUS
 10
54.4383396271
 20
196.3670247047
  0
VERTEX
  8
0
 62
7
  6
CONTINUOUS
 10
54.4916555351
 20
196.3593694815
  0
VERTEX
  8
0
 62
7
  6
CONTINUOUS
 10
54.5935267052
 20
196.3226731968
  0
VERTEX
  8
0
 62
7
  6
CONTINUOUS
 10
54.6823704714
 20
196.259485024
  0
VERTEX
  8
0
 62
7
  6
CONTINUOUS
 10
54.7508016251
 20
196.1747393009
  0
VERTEX
  8
0
 62
7
  6
CONTINUOUS
 10
54.793843829
 20
196.0746358737
  0
VERTEX
  8
0
 62
7
  6
CONTINUOUS
 10
54.808276658
 20
195.9681560322
  0
SEQEND
  0
POLYLINE
  8
0
 62
7
  6
CONTINUOUS
 66
1
 70
0
  0
VERTEX
  8
0
 62
7
  6
CONTINUOUS
 10
108.4455187645
 20
187.5806510656
  0
VERTEX
  8
0
 62
7
  6
CONTINUOUS
 10
108.4864027811
 20
187.5747600181
  0
VERTEX
  8
0
 62
7
  6
CONTINUOUS
 10
108.5625156877
 20
187.5472068329
  0
VERTEX
  8
0
 62
7
  6
CONTINUOUS
 10
108.6284751272
 20
187.5003227583
  0
VERTEX
  8
0
 62
7
  6
CONTINUOUS
 10
108.6559148445
 20
187.4708955005
  0
VERTEX
  8
0
 62
7
  6
CONTINUOUS
 10
108.6982330699
 20
187.4014724354
  0
VERTEX
  8
0
 62
7
  6
CONTINUOUS
 10
108.7204258302
 20
187.3227365006
  0
VERTEX
  8
0
 62
7
  6
CONTINUOUS
 10
108.723276658
 20
187.2814767206
  0
SEQEND
  0
POLYLINE
  8
0
 62
7
  6
CONTINUOUS
 66
1
 70
0
  0
VERTEX
  8
0
 62
7
  6
CONTINUOUS
 10
85.3015951487
 20
179.3318848914
  0
VERTEX
  8
0
 62
7
  6
CONTINUOUS
 10
85.2799796456
 20
179.3779333022
  0
VERTEX
  8
0
 62
7
  6
CONTINUOUS
 10
85.2450829
 20
179.4142710391
  0
VERTEX
  8
0
 62
7
  6
CONTINUOUS
 10
85.2019954833
 20
179.437350486
  0
VERTEX
  8
0
 62
7
  6
CONTINUOUS
 10
85.15564827
 20
179.4446839994
  0
VERTEX
  8
0
 62
7
  6
CONTINUOUS
 10
85.1096370595
 20
179.4356346205
  0
VERTEX
  8
0
 62
7
  6
CONTINUOUS
 10
85.0668469702
 20
179.4115635342
  0
VERTEX
  8
0
 62
7
  6
CONTINUOUS
 10
85.0332028123
 20
179.375689397
  0
VERTEX
  8
0
 62
7
  6
CONTINUOUS
 10
85.01264066
 20
179.3313144604
  0
SEQEND
  0
LINE
  8
0
 62
7
  6
CONTINUOUS
 10
85.3015951487
 20
179.3318848914
 11
86.729836196
 21
174.2052063142
  0
LINE
  8
0
 62
7
  6
CONTINUOUS
 10
87.208276658
 20
163.2817417449
 11
87.210776658
 21
163.2706208258
  0
LINE
  8
0
 62
7
  6
CONTINUOUS
 10
86.5452646357
 20
195.2196603754
 11
86.560776658
 21
195.0733794726
  0
POLYLINE
  8
0
 62
7
  6
CONTINUOUS
 66
1
 70
0
  0
VERTEX
  8
0
 62
7
  6
CONTINUOUS
 10
86.8109182233
 20
164.2750773086
  0
VERTEX
  8
0
 62
7
  6
CONTINUOUS
 10
86.8122970455
 20
164.0934356408
  0
VERTEX
  8
0
 62
7
  6
CONTINUOUS
 10
86.8167073877
 20
163.9388896478
  0
VERTEX
  8
0
 62
7
  6
CONTINUOUS
 10
86.8290925809
 20
163.8015083333
  0
VERTEX
  8
0
 62
7
  6
CONTINUOUS
 10
86.8573846684
 20
163.6812117073
  0
VERTEX
  8
0
 62
7
  6
CONTINUOUS
 10
86.9076634186
 20
163.5767093175
  0
VERTEX
  8
0
 62
7
  6
CONTINUOUS
 10
86.9413719588
 20
163.5300251949
  0
VERTEX
  8
0
 62
7
  6
CONTINUOUS
 10
87.0168667616
 20
163.4527906326
  0
VERTEX
  8
0
 62
7
  6
CONTINUOUS
 10
87.0850179306
 20
163.3990398084
  0
VERTEX
  8
0
 62
7
  6
CONTINUOUS
 10
87.1399724591
 20
163.3590467945
  0
VERTEX
  8
0
 62
7
  6
CONTINUOUS
 10
87.1803422248
 20
163.3254394769
  0
VERTEX
  8
0
 62
7
  6
CONTINUOUS
 10
87.2033227919
 20
163.2954711501
  0
VERTEX
  8
0
 62
7
  6
CONTINUOUS
 10
87.208276658
 20
163.2817417449
  0
SEQEND
  0
LINE
  8
0
 62
7
  6
CONTINUOUS
 10
86.558276658
 20
195.0969548807
 11
86.558276658
 21
195.9681560322
  0
LINE
  8
0
 62
7
  6
CONTINUOUS
 10
86.560776658
 20
185.7315573649
 11
86.560776658
 21
195.0733794726
  0
LINE
  8
0
 62
7
  6
CONTINUOUS
 10
86.808276658
 20
170.0150202783
 11
86.808276658
 21
162.4120397671
  0
LINE
  8
0
 62
7
  6
CONTINUOUS
 10
86.810776658
 20
172.6744141449
 11
86.8109182233
 21
164.2750773086
  0
POLYLINE
  8
0
 62
7
  6
CONTINUOUS
 66
1
 70
0
  0
VERTEX
  8
0
 62
7
  6
CONTINUOUS
 10
86.830218817
 20
173.1570398021
  0
VERTEX
  8
0
 62
7
  6
CONTINUOUS
 10
86.8345076714
 20
173.5801351786
  0
VERTEX
  8
0
 62
7
  6
CONTINUOUS
 10
86.8143364567
 20
173.7908157789
  0
VERTEX
  8
0
 62
7
  6
CONTINUOUS
 10
86.729836196
 20
174.2052063142
  0
SEQEND
  0
LINE
  8
0
 62
7
  6
CONTINUOUS
 10
86.810776658
 20
172.6744141449
 11
86.830218817
 21
173.1570398021
  0
POLYLINE
  8
0
 62
7
  6
CONTINUOUS
 66
1
 70
0
  0
VERTEX
  8
0
 62
7
  6
CONTINUOUS
 10
83.385776658
 20
163.3068163267
  0
VERTEX
  8
0
 62
7
  6
CONTINUOUS
 10
83.3702537562
 20
163.1604857108
  0
VERTEX
  8
0
 62
7
  6
CONTINUOUS
 10
83.3282454206
 20
163.0353076464
  0
VERTEX
  8
0
 62
7
  6
CONTINUOUS
 10
83.2665975418
 20
162.9352556771
  0
VERTEX
  8
0
 62
7
  6
CONTINUOUS
 10
83.2307842112
 20
162.8955083548
  0
VERTEX
  8
0
 62
7
  6
CONTINUOUS
 10
83.1531220607
 20
162.8360780847
  0
VERTEX
  8
0
 62
7
  6
CONTINUOUS
 10
83.070457219
 20
162.8014379531
  0
VERTEX
  8
0
 62
7
  6
CONTINUOUS
 10
82.9857766201
 20
162.7901027822
  0
SEQEND
  0
LINE
  8
0
 62
7
  6
CONTINUOUS
 10
90.385776658
 20
195.1095749735
 11
90.383276658
 21
195.0984540545
  0
LINE
  8
0
 62
7
  6
CONTINUOUS
 10
83.4959482534
 20
173.8902554022
 11
85.01264066
 21
179.3313144604
  0
POLYLINE
  8
0
 62
7
  6
CONTINUOUS
 66
1
 70
0
  0
VERTEX
  8
0
 62
7
  6
CONTINUOUS
 10
84.0032136888
 20
196.3670247047
  0
VERTEX
  8
0
 62
7
  6
CONTINUOUS
 10
83.9498977809
 20
196.3593694815
  0
VERTEX
  8
0
 62
7
  6
CONTINUOUS
 10
83.8480266107
 20
196.3226731968
  0
VERTEX
  8
0
 62
7
  6
CONTINUOUS
 10
83.7591828446
 20
196.259485024
  0
VERTEX
  8
0
 62
7
  6
CONTINUOUS
 10
83.6907516909
 20
196.1747393009
  0
VERTEX
  8
0
 62
7
  6
CONTINUOUS
 10
83.647709487
 20
196.0746358737
  0
VERTEX
  8
0
 62
7
  6
CONTINUOUS
 10
83.633276658
 20
195.9681560322
  0
SEQEND
  0
POLYLINE
  8
0
 62
7
  6
CONTINUOUS
 66
1
 70
0
  0
VERTEX
  8
0
 62
7
  6
CONTINUOUS
 10
77.6532136888
 20
196.3670247047
  0
VERTEX
  8
0
 62
7
  6
CONTINUOUS
 10
77.5998977809
 20
196.3593694815
  0
VERTEX
  8
0
 62
7
  6
CONTINUOUS
 10
77.4980266107
 20
196.3226731968
  0
VERTEX
  8
0
 62
7
  6
CONTINUOUS
 10
77.4091828446
 20
196.259485024
  0
VERTEX
  8
0
 62
7
  6
CONTINUOUS
 10
77.3407516909
 20
196.1747393009
  0
VERTEX
  8
0
 62
7
  6
CONTINUOUS
 10
77.297709487
 20
196.0746358737
  0
VERTEX
  8
0
 62
7
  6
CONTINUOUS
 10
77.283276658
 20
195.9681560322
  0
SEQEND
  0
POLYLINE
  8
0
 62
7
  6
CONTINUOUS
 66
1
 70
0
  0
VERTEX
  8
0
 62
7
  6
CONTINUOUS
 10
71.3032136888
 20
196.3670247047
  0
VERTEX
  8
0
 62
7
  6
CONTINUOUS
 10
71.2498977809
 20
196.3593694815
  0
VERTEX
  8
0
 62
7
  6
CONTINUOUS
 10
71.1480266107
 20
196.3226731968
  0
VERTEX
  8
0
 62
7
  6
CONTINUOUS
 10
71.0591828446
 20
196.259485024
  0
VERTEX
  8
0
 62
7
  6
CONTINUOUS
 10
70.9907516909
 20
196.1747393009
  0
VERTEX
  8
0
 62
7
  6
CONTINUOUS
 10
70.947709487
 20
196.0746358737
  0
VERTEX
  8
0
 62
7
  6
CONTINUOUS
 10
70.933276658
 20
195.9681560322
  0
SEQEND
  0
POLYLINE
  8
0
 62
7
  6
CONTINUOUS
 66
1
 70
0
  0
VERTEX
  8
0
 62
7
  6
CONTINUOUS
 10
64.9532136888
 20
196.3670247047
  0
VERTEX
  8
0
 62
7
  6
CONTINUOUS
 10
64.8998977809
 20
196.3593694815
  0
VERTEX
  8
0
 62
7
  6
CONTINUOUS
 10
64.7980266107
 20
196.3226731968
  0
VERTEX
  8
0
 62
7
  6
CONTINUOUS
 10
64.7091828446
 20
196.259485024
  0
VERTEX
  8
0
 62
7
  6
CONTINUOUS
 10
64.6407516909
 20
196.1747393009
  0
VERTEX
  8
0
 62
7
  6
CONTINUOUS
 10
64.597709487
 20
196.0746358737
  0
VERTEX
  8
0
 62
7
  6
CONTINUOUS
 10
64.583276658
 20
195.9681560322
  0
SEQEND
  0
LINE
  8
0
 62
7
  6
CONTINUOUS
 10
90.5297145857
 20
196.3814310711
 11
90.3531660908
 21
196.3670206248
  0
LINE
  8
0
 62
7
  6
CONTINUOUS
 10
84.1797145857
 20
196.3814310711
 11
84.0031660908
 21
196.3670206248
  0
LINE
  8
0
 62
7
  6
CONTINUOUS
 10
77.8297145857
 20
196.3814310711
 11
77.6531660908
 21
196.3670206248
  0
LINE
  8
0
 62
7
  6
CONTINUOUS
 10
71.4797145857
 20
196.3814310711
 11
71.3031660908
 21
196.3670206248
  0
LINE
  8
0
 62
7
  6
CONTINUOUS
 10
65.1297145857
 20
196.3814310711
 11
64.9531660908
 21
196.3670206248
  0
LINE
  8
0
 62
7
  6
CONTINUOUS
 10
58.7797145857
 20
196.3814310711
 11
58.6031660908
 21
196.3670206248
  0
POLYLINE
  8
0
 62
7
  6
CONTINUOUS
 66
1
 70
0
  0
VERTEX
  8
0
 62
7
  6
CONTINUOUS
 10
103.388086141
 20
196.390097215
  0
VERTEX
  8
0
 62
7
  6
CONTINUOUS
 10
103.3580035494
 20
196.3896073436
  0
VERTEX
  8
0
 62
7
  6
CONTINUOUS
 10
103.2995878042
 20
196.386670336
  0
VERTEX
  8
0
 62
7
  6
CONTINUOUS
 10
103.2297145857
 20
196.3814310711
  0
SEQEND
  0
POLYLINE
  8
0
 62
7
  6
CONTINUOUS
 66
1
 70
0
  0
VERTEX
  8
0
 62
7
  6
CONTINUOUS
 10
97.038086141
 20
196.390097215
  0
VERTEX
  8
0
 62
7
  6
CONTINUOUS
 10
97.0080035494
 20
196.3896073436
  0
VERTEX
  8
0
 62
7
  6
CONTINUOUS
 10
96.9495878042
 20
196.386670336
  0
VERTEX
  8
0
 62
7
  6
CONTINUOUS
 10
96.8797145857
 20
196.3814310711
  0
SEQEND
  0
POLYLINE
  8
0
 62
7
  6
CONTINUOUS
 66
1
 70
0
  0
VERTEX
  8
0
 62
7
  6
CONTINUOUS
 10
90.688086141
 20
196.390097215
  0
VERTEX
  8
0
 62
7
  6
CONTINUOUS
 10
90.6580035494
 20
196.3896073436
  0
VERTEX
  8
0
 62
7
  6
CONTINUOUS
 10
90.5995878042
 20
196.386670336
  0
VERTEX
  8
0
 62
7
  6
CONTINUOUS
 10
90.5297145857
 20
196.3814310711
  0
SEQEND
  0
POLYLINE
  8
0
 62
7
  6
CONTINUOUS
 66
1
 70
0
  0
VERTEX
  8
0
 62
7
  6
CONTINUOUS
 10
84.338086141
 20
196.390097215
  0
VERTEX
  8
0
 62
7
  6
CONTINUOUS
 10
84.3080035494
 20
196.3896073436
  0
VERTEX
  8
0
 62
7
  6
CONTINUOUS
 10
84.2495878042
 20
196.386670336
  0
VERTEX
  8
0
 62
7
  6
CONTINUOUS
 10
84.1797145857
 20
196.3814310711
  0
SEQEND
  0
POLYLINE
  8
0
 62
7
  6
CONTINUOUS
 66
1
 70
0
  0
VERTEX
  8
0
 62
7
  6
CONTINUOUS
 10
77.988086141
 20
196.390097215
  0
VERTEX
  8
0
 62
7
  6
CONTINUOUS
 10
77.9580035494
 20
196.3896073436
  0
VERTEX
  8
0
 62
7
  6
CONTINUOUS
 10
77.8995878042
 20
196.386670336
  0
VERTEX
  8
0
 62
7
  6
CONTINUOUS
 10
77.8297145857
 20
196.3814310711
  0
SEQEND
  0
POLYLINE
  8
0
 62
7
  6
CONTINUOUS
 66
1
 70
0
  0
VERTEX
  8
0
 62
7
  6
CONTINUOUS
 10
71.638086141
 20
196.390097215
  0
VERTEX
  8
0
 62
7
  6
CONTINUOUS
 10
71.6080035494
 20
196.3896073436
  0
VERTEX
  8
0
 62
7
  6
CONTINUOUS
 10
71.5495878042
 20
196.386670336
  0
VERTEX
  8
0
 62
7
  6
CONTINUOUS
 10
71.4797145857
 20
196.3814310711
  0
SEQEND
  0
POLYLINE
  8
0
 62
7
  6
CONTINUOUS
 66
1
 70
0
  0
VERTEX
  8
0
 62
7
  6
CONTINUOUS
 10
65.288086141
 20
196.390097215
  0
VERTEX
  8
0
 62
7
  6
CONTINUOUS
 10
65.2580035494
 20
196.3896073436
  0
VERTEX
  8
0
 62
7
  6
CONTINUOUS
 10
65.1995878042
 20
196.386670336
  0
VERTEX
  8
0
 62
7
  6
CONTINUOUS
 10
65.1297145857
 20
196.3814310711
  0
SEQEND
  0
POLYLINE
  8
0
 62
7
  6
CONTINUOUS
 66
1
 70
0
  0
VERTEX
  8
0
 62
7
  6
CONTINUOUS
 10
58.938086141
 20
196.390097215
  0
VERTEX
  8
0
 62
7
  6
CONTINUOUS
 10
58.9080035494
 20
196.3896073436
  0
VERTEX
  8
0
 62
7
  6
CONTINUOUS
 10
58.8495878042
 20
196.386670336
  0
VERTEX
  8
0
 62
7
  6
CONTINUOUS
 10
58.7797145857
 20
196.3814310711
  0
SEQEND
  0
POLYLINE
  8
0
 62
7
  6
CONTINUOUS
 66
1
 70
0
  0
VERTEX
  8
0
 62
7
  6
CONTINUOUS
 10
52.588086141
 20
196.390097215
  0
VERTEX
  8
0
 62
7
  6
CONTINUOUS
 10
52.5580035494
 20
196.3896073436
  0
VERTEX
  8
0
 62
7
  6
CONTINUOUS
 10
52.4995878042
 20
196.386670336
  0
VERTEX
  8
0
 62
7
  6
CONTINUOUS
 10
52.4297145857
 20
196.3814310711
  0
SEQEND
  0
POLYLINE
  8
0
 62
7
  6
CONTINUOUS
 66
1
 70
0
  0
VERTEX
  8
0
 62
7
  6
CONTINUOUS
 10
46.238086141
 20
196.390097215
  0
VERTEX
  8
0
 62
7
  6
CONTINUOUS
 10
46.2080035494
 20
196.3896073436
  0
VERTEX
  8
0
 62
7
  6
CONTINUOUS
 10
46.1495878042
 20
196.386670336
  0
VERTEX
  8
0
 62
7
  6
CONTINUOUS
 10
46.0797145857
 20
196.3814310711
  0
SEQEND
  0
POLYLINE
  8
0
 62
7
  6
CONTINUOUS
 66
1
 70
0
  0
VERTEX
  8
0
 62
7
  6
CONTINUOUS
 10
39.888086141
 20
196.390097215
  0
VERTEX
  8
0
 62
7
  6
CONTINUOUS
 10
39.8580035494
 20
196.3896073436
  0
VERTEX
  8
0
 62
7
  6
CONTINUOUS
 10
39.7995878042
 20
196.386670336
  0
VERTEX
  8
0
 62
7
  6
CONTINUOUS
 10
39.7297145857
 20
196.3814310711
  0
SEQEND
  0
LINE
  8
0
 62
7
  6
CONTINUOUS
 10
64.983276658
 20
195.5900978997
 11
64.980776658
 21
195.590094384
  0
LINE
  8
0
 62
7
  6
CONTINUOUS
 10
58.633276658
 20
195.5900978997
 11
58.630776658
 21
195.590094384
  0
LINE
  8
0
 62
7
  6
CONTINUOUS
 10
52.283276658
 20
195.5900978997
 11
52.280776658
 21
195.590094384
  0
LINE
  8
0
 62
7
  6
CONTINUOUS
 10
45.933276658
 20
195.5900978997
 11
45.930776658
 21
195.590094384
  0
LINE
  8
0
 62
7
  6
CONTINUOUS
 10
39.583276658
 20
195.5900978997
 11
39.580776658
 21
195.590094384
  0
LINE
  8
0
 62
7
  6
CONTINUOUS
 10
98.158276658
 20
195.5900978996
 11
98.1082766581
 21
195.5900978996
  0
LINE
  8
0
 62
7
  6
CONTINUOUS
 10
40.958276658
 20
195.5900978997
 11
41.008276658
 21
195.5900978997
  0
LINE
  8
0
 62
7
  6
CONTINUOUS
 10
104.9046064864
 20
196.3900978997
 11
103.3869468296
 21
196.3900978997
  0
LINE
  8
0
 62
7
  6
CONTINUOUS
 10
98.108276658
 20
196.3900978997
 11
97.0369468296
 21
196.3900978997
  0
LINE
  8
0
 62
7
  6
CONTINUOUS
 10
92.2046064864
 20
196.3900978997
 11
90.6869468296
 21
196.3900978997
  0
LINE
  8
0
 62
7
  6
CONTINUOUS
 10
85.8546064864
 20
196.3900978997
 11
84.3369468296
 21
196.3900978997
  0
LINE
  8
0
 62
7
  6
CONTINUOUS
 10
79.5046064864
 20
196.3900978997
 11
77.9869468296
 21
196.3900978997
  0
LINE
  8
0
 62
7
  6
CONTINUOUS
 10
35.0546064864
 20
196.3900978997
 11
33.193276658
 21
196.3900978997
  0
LINE
  8
0
 62
7
  6
CONTINUOUS
 10
39.8869468296
 20
196.3900978997
 11
40.958276658
 21
196.3900978997
  0
LINE
  8
0
 62
7
  6
CONTINUOUS
 10
46.2369468296
 20
196.3900978997
 11
47.7546064864
 21
196.3900978997
  0
LINE
  8
0
 62
7
  6
CONTINUOUS
 10
52.5869468296
 20
196.3900978997
 11
54.1046064864
 21
196.3900978997
  0
LINE
  8
0
 62
7
  6
CONTINUOUS
 10
58.9369468296
 20
196.3900978997
 11
60.4546064864
 21
196.3900978997
  0
LINE
  8
0
 62
7
  6
CONTINUOUS
 10
65.2869468296
 20
196.3900978997
 11
66.8046064864
 21
196.3900978997
  0
LINE
  8
0
 62
7
  6
CONTINUOUS
 10
71.6369468296
 20
196.3900978997
 11
73.1546064864
 21
196.3900978997
  0
LINE
  8
0
 62
7
  6
CONTINUOUS
 10
73.460776658
 20
195.590094384
 11
73.458276658
 21
195.5900978996
  0
LINE
  8
0
 62
7
  6
CONTINUOUS
 10
79.810776658
 20
195.590094384
 11
79.808276658
 21
195.5900978996
  0
LINE
  8
0
 62
7
  6
CONTINUOUS
 10
86.160776658
 20
195.590094384
 11
86.158276658
 21
195.5900978996
  0
LINE
  8
0
 62
7
  6
CONTINUOUS
 10
92.510776658
 20
195.590094384
 11
92.508276658
 21
195.5900978996
  0
LINE
  8
0
 62
7
  6
CONTINUOUS
 10
105.210776658
 20
195.590094384
 11
105.208276658
 21
195.5900978996
  0
LINE
  8
0
 62
7
  6
CONTINUOUS
 10
35.082660053
 20
196.3896343419
 11
35.0534663481
 21
196.3900972151
  0
LINE
  8
0
 62
7
  6
CONTINUOUS
 10
47.782660053
 20
196.3896343419
 11
47.7534663481
 21
196.3900972151
  0
LINE
  8
0
 62
7
  6
CONTINUOUS
 10
54.132660053
 20
196.3896343419
 11
54.1034663481
 21
196.3900972151
  0
LINE
  8
0
 62
7
  6
CONTINUOUS
 10
60.482660053
 20
196.3896343419
 11
60.4534663481
 21
196.3900972151
  0
LINE
  8
0
 62
7
  6
CONTINUOUS
 10
66.832660053
 20
196.3896343419
 11
66.8034663481
 21
196.3900972151
  0
LINE
  8
0
 62
7
  6
CONTINUOUS
 10
73.182660053
 20
196.3896343419
 11
73.1534663481
 21
196.3900972151
  0
LINE
  8
0
 62
7
  6
CONTINUOUS
 10
79.532660053
 20
196.3896343419
 11
79.5034663482
 21
196.3900972151
  0
LINE
  8
0
 62
7
  6
CONTINUOUS
 10
85.882660053
 20
196.3896343419
 11
85.8534663482
 21
196.3900972151
  0
LINE
  8
0
 62
7
  6
CONTINUOUS
 10
92.232660053
 20
196.3896343419
 11
92.2034663482
 21
196.3900972151
  0
LINE
  8
0
 62
7
  6
CONTINUOUS
 10
104.932660053
 20
196.3896343419
 11
104.9034663482
 21
196.3900972151
  0
POLYLINE
  8
0
 62
7
  6
CONTINUOUS
 66
1
 70
0
  0
VERTEX
  8
0
 62
7
  6
CONTINUOUS
 10
54.4383873319
 20
196.3670206168
  0
VERTEX
  8
0
 62
7
  6
CONTINUOUS
 10
54.2612234961
 20
196.3814811389
  0
VERTEX
  8
0
 62
7
  6
CONTINUOUS
 10
54.1912139901
 20
196.3867193964
  0
VERTEX
  8
0
 62
7
  6
CONTINUOUS
 10
54.132660053
 20
196.3896343419
  0
SEQEND
  0
POLYLINE
  8
0
 62
7
  6
CONTINUOUS
 66
1
 70
0
  0
VERTEX
  8
0
 62
7
  6
CONTINUOUS
 10
60.7883873319
 20
196.3670206168
  0
VERTEX
  8
0
 62
7
  6
CONTINUOUS
 10
60.6112234961
 20
196.3814811389
  0
VERTEX
  8
0
 62
7
  6
CONTINUOUS
 10
60.5412139901
 20
196.3867193964
  0
VERTEX
  8
0
 62
7
  6
CONTINUOUS
 10
60.482660053
 20
196.3896343419
  0
SEQEND
  0
POLYLINE
  8
0
 62
7
  6
CONTINUOUS
 66
1
 70
0
  0
VERTEX
  8
0
 62
7
  6
CONTINUOUS
 10
67.1383873319
 20
196.3670206168
  0
VERTEX
  8
0
 62
7
  6
CONTINUOUS
 10
66.9612234961
 20
196.3814811389
  0
VERTEX
  8
0
 62
7
  6
CONTINUOUS
 10
66.8912139901
 20
196.3867193964
  0
VERTEX
  8
0
 62
7
  6
CONTINUOUS
 10
66.832660053
 20
196.3896343419
  0
SEQEND
  0
POLYLINE
  8
0
 62
7
  6
CONTINUOUS
 66
1
 70
0
  0
VERTEX
  8
0
 62
7
  6
CONTINUOUS
 10
73.4883873319
 20
196.3670206168
  0
VERTEX
  8
0
 62
7
  6
CONTINUOUS
 10
73.3112234961
 20
196.3814811389
  0
VERTEX
  8
0
 62
7
  6
CONTINUOUS
 10
73.2412139901
 20
196.3867193964
  0
VERTEX
  8
0
 62
7
  6
CONTINUOUS
 10
73.182660053
 20
196.3896343419
  0
SEQEND
  0
POLYLINE
  8
0
 62
7
  6
CONTINUOUS
 66
1
 70
0
  0
VERTEX
  8
0
 62
7
  6
CONTINUOUS
 10
79.8383873319
 20
196.3670206168
  0
VERTEX
  8
0
 62
7
  6
CONTINUOUS
 10
79.6612234961
 20
196.3814811389
  0
VERTEX
  8
0
 62
7
  6
CONTINUOUS
 10
79.5912139901
 20
196.3867193964
  0
VERTEX
  8
0
 62
7
  6
CONTINUOUS
 10
79.532660053
 20
196.3896343419
  0
SEQEND
  0
POLYLINE
  8
0
 62
7
  6
CONTINUOUS
 66
1
 70
0
  0
VERTEX
  8
0
 62
7
  6
CONTINUOUS
 10
86.1883873319
 20
196.3670206168
  0
VERTEX
  8
0
 62
7
  6
CONTINUOUS
 10
86.0112234961
 20
196.3814811389
  0
VERTEX
  8
0
 62
7
  6
CONTINUOUS
 10
85.9412139901
 20
196.3867193964
  0
VERTEX
  8
0
 62
7
  6
CONTINUOUS
 10
85.882660053
 20
196.3896343419
  0
SEQEND
  0
POLYLINE
  8
0
 62
7
  6
CONTINUOUS
 66
1
 70
0
  0
VERTEX
  8
0
 62
7
  6
CONTINUOUS
 10
73.4607766201
 20
195.5900930171
  0
VERTEX
  8
0
 62
7
  6
CONTINUOUS
 10
73.5454555403
 20
195.5787583013
  0
VERTEX
  8
0
 62
7
  6
CONTINUOUS
 10
73.6281181124
 20
195.5441199998
  0
VERTEX
  8
0
 62
7
  6
CONTINUOUS
 10
73.7057814526
 20
195.4846901497
  0
VERTEX
  8
0
 62
7
  6
CONTINUOUS
 10
73.7415929999
 20
195.4449458164
  0
VERTEX
  8
0
 62
7
  6
CONTINUOUS
 10
73.8032383488
 20
195.3449032489
  0
VERTEX
  8
0
 62
7
  6
CONTINUOUS
 10
73.8452646357
 20
195.2196603754
  0
SEQEND
  0
POLYLINE
  8
0
 62
7
  6
CONTINUOUS
 66
1
 70
0
  0
VERTEX
  8
0
 62
7
  6
CONTINUOUS
 10
79.8107766201
 20
195.5900930171
  0
VERTEX
  8
0
 62
7
  6
CONTINUOUS
 10
79.8954555403
 20
195.5787583013
  0
VERTEX
  8
0
 62
7
  6
CONTINUOUS
 10
79.9781181124
 20
195.5441199998
  0
VERTEX
  8
0
 62
7
  6
CONTINUOUS
 10
80.0557814526
 20
195.4846901497
  0
VERTEX
  8
0
 62
7
  6
CONTINUOUS
 10
80.0915929999
 20
195.4449458164
  0
VERTEX
  8
0
 62
7
  6
CONTINUOUS
 10
80.1532383488
 20
195.3449032489
  0
VERTEX
  8
0
 62
7
  6
CONTINUOUS
 10
80.1952646357
 20
195.2196603754
  0
SEQEND
  0
POLYLINE
  8
0
 62
7
  6
CONTINUOUS
 66
1
 70
0
  0
VERTEX
  8
0
 62
7
  6
CONTINUOUS
 10
86.1607766201
 20
195.5900930171
  0
VERTEX
  8
0
 62
7
  6
CONTINUOUS
 10
86.2454555403
 20
195.5787583013
  0
VERTEX
  8
0
 62
7
  6
CONTINUOUS
 10
86.3281181124
 20
195.5441199998
  0
VERTEX
  8
0
 62
7
  6
CONTINUOUS
 10
86.4057814526
 20
195.4846901497
  0
VERTEX
  8
0
 62
7
  6
CONTINUOUS
 10
86.4415929999
 20
195.4449458164
  0
VERTEX
  8
0
 62
7
  6
CONTINUOUS
 10
86.5032383488
 20
195.3449032489
  0
VERTEX
  8
0
 62
7
  6
CONTINUOUS
 10
86.5452646357
 20
195.2196603754
  0
SEQEND
  0
POLYLINE
  8
0
 62
7
  6
CONTINUOUS
 66
1
 70
0
  0
VERTEX
  8
0
 62
7
  6
CONTINUOUS
 10
60.7883396271
 20
196.3670247047
  0
VERTEX
  8
0
 62
7
  6
CONTINUOUS
 10
60.8416555351
 20
196.3593694815
  0
VERTEX
  8
0
 62
7
  6
CONTINUOUS
 10
60.9435267052
 20
196.3226731968
  0
VERTEX
  8
0
 62
7
  6
CONTINUOUS
 10
61.0323704714
 20
196.259485024
  0
VERTEX
  8
0
 62
7
  6
CONTINUOUS
 10
61.1008016251
 20
196.1747393009
  0
VERTEX
  8
0
 62
7
  6
CONTINUOUS
 10
61.143843829
 20
196.0746358737
  0
VERTEX
  8
0
 62
7
  6
CONTINUOUS
 10
61.158276658
 20
195.9681560322
  0
SEQEND
  0
POLYLINE
  8
0
 62
7
  6
CONTINUOUS
 66
1
 70
0
  0
VERTEX
  8
0
 62
7
  6
CONTINUOUS
 10
67.1383396271
 20
196.3670247047
  0
VERTEX
  8
0
 62
7
  6
CONTINUOUS
 10
67.1916555351
 20
196.3593694815
  0
VERTEX
  8
0
 62
7
  6
CONTINUOUS
 10
67.2935267052
 20
196.3226731968
  0
VERTEX
  8
0
 62
7
  6
CONTINUOUS
 10
67.3823704714
 20
196.259485024
  0
VERTEX
  8
0
 62
7
  6
CONTINUOUS
 10
67.4508016251
 20
196.1747393009
  0
VERTEX
  8
0
 62
7
  6
CONTINUOUS
 10
67.493843829
 20
196.0746358737
  0
VERTEX
  8
0
 62
7
  6
CONTINUOUS
 10
67.508276658
 20
195.9681560322
  0
SEQEND
  0
POLYLINE
  8
0
 62
7
  6
CONTINUOUS
 66
1
 70
0
  0
VERTEX
  8
0
 62
7
  6
CONTINUOUS
 10
73.4883396271
 20
196.3670247047
  0
VERTEX
  8
0
 62
7
  6
CONTINUOUS
 10
73.5416555351
 20
196.3593694815
  0
VERTEX
  8
0
 62
7
  6
CONTINUOUS
 10
73.6435267052
 20
196.3226731968
  0
VERTEX
  8
0
 62
7
  6
CONTINUOUS
 10
73.7323704714
 20
196.259485024
  0
VERTEX
  8
0
 62
7
  6
CONTINUOUS
 10
73.8008016251
 20
196.1747393009
  0
VERTEX
  8
0
 62
7
  6
CONTINUOUS
 10
73.843843829
 20
196.0746358737
  0
VERTEX
  8
0
 62
7
  6
CONTINUOUS
 10
73.858276658
 20
195.9681560322
  0
SEQEND
  0
POLYLINE
  8
0
 62
7
  6
CONTINUOUS
 66
1
 70
0
  0
VERTEX
  8
0
 62
7
  6
CONTINUOUS
 10
79.8383396271
 20
196.3670247047
  0
VERTEX
  8
0
 62
7
  6
CONTINUOUS
 10
79.8916555351
 20
196.3593694815
  0
VERTEX
  8
0
 62
7
  6
CONTINUOUS
 10
79.9935267052
 20
196.3226731968
  0
VERTEX
  8
0
 62
7
  6
CONTINUOUS
 10
80.0823704714
 20
196.259485024
  0
VERTEX
  8
0
 62
7
  6
CONTINUOUS
 10
80.1508016251
 20
196.1747393009
  0
VERTEX
  8
0
 62
7
  6
CONTINUOUS
 10
80.193843829
 20
196.0746358737
  0
VERTEX
  8
0
 62
7
  6
CONTINUOUS
 10
80.208276658
 20
195.9681560322
  0
SEQEND
  0
POLYLINE
  8
0
 62
7
  6
CONTINUOUS
 66
1
 70
0
  0
VERTEX
  8
0
 62
7
  6
CONTINUOUS
 10
88.1890054943
 20
179.4753872986
  0
VERTEX
  8
0
 62
7
  6
CONTINUOUS
 10
88.2106209973
 20
179.4293388878
  0
VERTEX
  8
0
 62
7
  6
CONTINUOUS
 10
88.2455177428
 20
179.393001151
  0
VERTEX
  8
0
 62
7
  6
CONTINUOUS
 10
88.2886051594
 20
179.369921704
  0
VERTEX
  8
0
 62
7
  6
CONTINUOUS
 10
88.3349523727
 20
179.3625881906
  0
VERTEX
  8
0
 62
7
  6
CONTINUOUS
 10
88.3809635831
 20
179.3716375694
  0
VERTEX
  8
0
 62
7
  6
CONTINUOUS
 10
88.4237536726
 20
179.3957086556
  0
VERTEX
  8
0
 62
7
  6
CONTINUOUS
 10
88.4573978307
 20
179.431582793
  0
VERTEX
  8
0
 62
7
  6
CONTINUOUS
 10
88.477959983
 20
179.4759577295
  0
SEQEND
  0
LINE
  8
0
 62
7
  6
CONTINUOUS
 10
88.1890054943
 20
179.4753872986
 11
86.6711049421
 21
184.9238991248
  0
POLYLINE
  8
0
 62
7
  6
CONTINUOUS
 66
1
 70
0
  0
VERTEX
  8
0
 62
7
  6
CONTINUOUS
 10
86.6711049421
 20
184.9238991248
  0
VERTEX
  8
0
 62
7
  6
CONTINUOUS
 10
86.588514932
 20
185.3236815587
  0
VERTEX
  8
0
 62
7
  6
CONTINUOUS
 10
86.560776658
 20
185.7315573649
  0
SEQEND
  0
POLYLINE
  8
0
 62
7
  6
CONTINUOUS
 66
1
 70
0
  0
VERTEX
  8
0
 62
7
  6
CONTINUOUS
 10
86.5783721959
 20
188.1669728256
  0
VERTEX
  8
0
 62
7
  6
CONTINUOUS
 10
86.5599516923
 20
188.3065596155
  0
VERTEX
  8
0
 62
7
  6
CONTINUOUS
 10
86.560776658
 20
188.2936940441
  0
SEQEND
  0
LINE
  8
0
 62
7
  6
CONTINUOUS
 10
89.733276658
 20
163.2832494353
 11
89.733276658
 21
162.4120397671
  0
LINE
  8
0
 62
7
  6
CONTINUOUS
 10
89.735776658
 20
163.3068163267
 11
89.735776658
 21
173.084717202
  0
LINE
  8
0
 62
7
  6
CONTINUOUS
 10
89.983276658
 20
188.3651755402
 11
89.983276658
 21
195.9681560322
  0
POLYLINE
  8
0
 62
7
  6
CONTINUOUS
 66
1
 70
0
  0
VERTEX
  8
0
 62
7
  6
CONTINUOUS
 10
89.983276713
 20
188.3651961293
  0
VERTEX
  8
0
 62
7
  6
CONTINUOUS
 10
89.9816016238
 20
188.3065596177
  0
VERTEX
  8
0
 62
7
  6
CONTINUOUS
 10
89.9631811204
 20
188.1669728273
  0
VERTEX
  8
0
 62
7
  6
CONTINUOUS
 10
89.9256669014
 20
188.0406422705
  0
VERTEX
  8
0
 62
7
  6
CONTINUOUS
 10
89.8717691501
 20
187.9327659141
  0
VERTEX
  8
0
 62
7
  6
CONTINUOUS
 10
89.8399362568
 20
187.8871626379
  0
VERTEX
  8
0
 62
7
  6
CONTINUOUS
 10
89.7688671434
 20
187.813875285
  0
VERTEX
  8
0
 62
7
  6
CONTINUOUS
 10
89.6910119707
 20
187.765703172
  0
VERTEX
  8
0
 62
7
  6
CONTINUOUS
 10
89.6118918231
 20
187.7439563126
  0
VERTEX
  8
0
 62
7
  6
CONTINUOUS
 10
89.5832766543
 20
187.7423266594
  0
SEQEND
  0
LINE
  8
0
 62
7
  6
CONTINUOUS
 10
89.735776658
 20
170.0865016566
 11
89.734951685
 21
170.0736359448
  0
POLYLINE
  8
0
 62
7
  6
CONTINUOUS
 66
1
 70
0
  0
VERTEX
  8
0
 62
7
  6
CONTINUOUS
 10
89.734951685
 20
170.0736359448
  0
VERTEX
  8
0
 62
7
  6
CONTINUOUS
 10
89.7533721498
 20
170.2132226637
  0
VERTEX
  8
0
 62
7
  6
CONTINUOUS
 10
89.7908863572
 20
170.3395533926
  0
VERTEX
  8
0
 62
7
  6
CONTINUOUS
 10
89.8447840938
 20
170.4474297832
  0
VERTEX
  8
0
 62
7
  6
CONTINUOUS
 10
89.8766170285
 20
170.4930331141
  0
VERTEX
  8
0
 62
7
  6
CONTINUOUS
 10
89.9476860782
 20
170.5663204427
  0
VERTEX
  8
0
 62
7
  6
CONTINUOUS
 10
90.0255412036
 20
170.6144925803
  0
VERTEX
  8
0
 62
7
  6
CONTINUOUS
 10
90.1046611189
 20
170.6362394404
  0
VERTEX
  8
0
 62
7
  6
CONTINUOUS
 10
90.1332766586
 20
170.6378691553
  0
SEQEND
  0
LINE
  8
0
 62
7
  6
CONTINUOUS
 10
89.8756050626
 20
184.4899403972
 11
88.477959983
 21
179.4759577295
  0
POLYLINE
  8
0
 62
7
  6
CONTINUOUS
 66
1
 70
0
  0
VERTEX
  8
0
 62
7
  6
CONTINUOUS
 10
96.733276658
 20
195.0984540545
  0
VERTEX
  8
0
 62
7
  6
CONTINUOUS
 10
96.7286997808
 20
195.0854969514
  0
VERTEX
  8
0
 62
7
  6
CONTINUOUS
 10
96.7075769164
 20
195.0569985942
  0
VERTEX
  8
0
 62
7
  6
CONTINUOUS
 10
96.6709107665
 20
195.0256337972
  0
VERTEX
  8
0
 62
7
  6
CONTINUOUS
 10
96.620541957
 20
194.9888264505
  0
VERTEX
  8
0
 62
7
  6
CONTINUOUS
 10
96.557161711
 20
194.9403394631
  0
VERTEX
  8
0
 62
7
  6
CONTINUOUS
 10
96.4833394745
 20
194.8700905292
  0
VERTEX
  8
0
 62
7
  6
CONTINUOUS
 10
96.4470025699
 20
194.8247302091
  0
VERTEX
  8
0
 62
7
  6
CONTINUOUS
 10
96.3897296783
 20
194.7189407341
  0
VERTEX
  8
0
 62
7
  6
CONTINUOUS
 10
96.3576839971
 20
194.6010606529
  0
VERTEX
  8
0
 62
7
  6
CONTINUOUS
 10
96.3425767579
 20
194.4577103177
  0
VERTEX
  8
0
 62
7
  6
CONTINUOUS
 10
96.3374418518
 20
194.2963056902
  0
VERTEX
  8
0
 62
7
  6
CONTINUOUS
 10
96.3359288305
 20
194.1087042062
  0
VERTEX
  8
0
 62
7
  6
CONTINUOUS
 10
96.335776658
 20
185.2954785973
  0
SEQEND
  0
POLYLINE
  8
0
 62
7
  6
CONTINUOUS
 66
1
 70
0
  0
VERTEX
  8
0
 62
7
  6
CONTINUOUS
 10
105.5550816189
 20
187.9104719093
  0
VERTEX
  8
0
 62
7
  6
CONTINUOUS
 10
105.5118144592
 20
187.8721465681
  0
VERTEX
  8
0
 62
7
  6
CONTINUOUS
 10
105.4869945785
 20
187.8526609932
  0
VERTEX
  8
0
 62
7
  6
CONTINUOUS
 10
105.4334173007
 20
187.8133338245
  0
SEQEND
  0
POLYLINE
  8
0
 62
7
  6
CONTINUOUS
 66
1
 70
0
  0
VERTEX
  8
0
 62
7
  6
CONTINUOUS
 10
58.6032136888
 20
196.3670247047
  0
VERTEX
  8
0
 62
7
  6
CONTINUOUS
 10
58.5498977809
 20
196.3593694815
  0
VERTEX
  8
0
 62
7
  6
CONTINUOUS
 10
58.4480266107
 20
196.3226731968
  0
VERTEX
  8
0
 62
7
  6
CONTINUOUS
 10
58.3591828446
 20
196.259485024
  0
VERTEX
  8
0
 62
7
  6
CONTINUOUS
 10
58.2907516909
 20
196.1747393009
  0
VERTEX
  8
0
 62
7
  6
CONTINUOUS
 10
58.247709487
 20
196.0746358737
  0
VERTEX
  8
0
 62
7
  6
CONTINUOUS
 10
58.233276658
 20
195.9681560322
  0
SEQEND
  0
POLYLINE
  8
0
 62
7
  6
CONTINUOUS
 66
1
 70
0
  0
VERTEX
  8
0
 62
7
  6
CONTINUOUS
 10
52.2532136888
 20
196.3670247047
  0
VERTEX
  8
0
 62
7
  6
CONTINUOUS
 10
52.1998977809
 20
196.3593694815
  0
VERTEX
  8
0
 62
7
  6
CONTINUOUS
 10
52.0980266107
 20
196.3226731968
  0
VERTEX
  8
0
 62
7
  6
CONTINUOUS
 10
52.0091828446
 20
196.259485024
  0
VERTEX
  8
0
 62
7
  6
CONTINUOUS
 10
51.9407516909
 20
196.1747393009
  0
VERTEX
  8
0
 62
7
  6
CONTINUOUS
 10
51.897709487
 20
196.0746358737
  0
VERTEX
  8
0
 62
7
  6
CONTINUOUS
 10
51.883276658
 20
195.9681560322
  0
SEQEND
  0
POLYLINE
  8
0
 62
7
  6
CONTINUOUS
 66
1
 70
0
  0
VERTEX
  8
0
 62
7
  6
CONTINUOUS
 10
45.9032136888
 20
196.3670247047
  0
VERTEX
  8
0
 62
7
  6
CONTINUOUS
 10
45.8498977809
 20
196.3593694815
  0
VERTEX
  8
0
 62
7
  6
CONTINUOUS
 10
45.7480266107
 20
196.3226731968
  0
VERTEX
  8
0
 62
7
  6
CONTINUOUS
 10
45.6591828446
 20
196.259485024
  0
VERTEX
  8
0
 62
7
  6
CONTINUOUS
 10
45.5907516909
 20
196.1747393009
  0
VERTEX
  8
0
 62
7
  6
CONTINUOUS
 10
45.547709487
 20
196.0746358737
  0
VERTEX
  8
0
 62
7
  6
CONTINUOUS
 10
45.533276658
 20
195.9681560322
  0
SEQEND
  0
LINE
  8
0
 62
7
  6
CONTINUOUS
 10
52.4297145857
 20
196.3814310711
 11
52.2531660908
 21
196.3670206248
  0
LINE
  8
0
 62
7
  6
CONTINUOUS
 10
46.0797145857
 20
196.3814310711
 11
45.9031660908
 21
196.3670206248
  0
LINE
  8
0
 62
7
  6
CONTINUOUS
 10
39.7297145857
 20
196.3814310711
 11
39.5531660908
 21
196.3670206248
  0
POLYLINE
  8
0
 62
7
  6
CONTINUOUS
 66
1
 70
0
  0
VERTEX
  8
0
 62
7
  6
CONTINUOUS
 10
92.5383873319
 20
196.3670206168
  0
VERTEX
  8
0
 62
7
  6
CONTINUOUS
 10
92.3612234961
 20
196.3814811389
  0
VERTEX
  8
0
 62
7
  6
CONTINUOUS
 10
92.2912139901
 20
196.3867193964
  0
VERTEX
  8
0
 62
7
  6
CONTINUOUS
 10
92.232660053
 20
196.3896343419
  0
SEQEND
  0
POLYLINE
  8
0
 62
7
  6
CONTINUOUS
 66
1
 70
0
  0
VERTEX
  8
0
 62
7
  6
CONTINUOUS
 10
105.2383873319
 20
196.3670206168
  0
VERTEX
  8
0
 62
7
  6
CONTINUOUS
 10
105.0612234961
 20
196.3814811389
  0
VERTEX
  8
0
 62
7
  6
CONTINUOUS
 10
104.9912139901
 20
196.3867193964
  0
VERTEX
  8
0
 62
7
  6
CONTINUOUS
 10
104.932660053
 20
196.3896343419
  0
SEQEND
  0
POLYLINE
  8
0
 62
7
  6
CONTINUOUS
 66
1
 70
0
  0
VERTEX
  8
0
 62
7
  6
CONTINUOUS
 10
92.5107766201
 20
195.5900930171
  0
VERTEX
  8
0
 62
7
  6
CONTINUOUS
 10
92.5954555403
 20
195.5787583013
  0
VERTEX
  8
0
 62
7
  6
CONTINUOUS
 10
92.6781181124
 20
195.5441199998
  0
VERTEX
  8
0
 62
7
  6
CONTINUOUS
 10
92.7557814526
 20
195.4846901497
  0
VERTEX
  8
0
 62
7
  6
CONTINUOUS
 10
92.7915929999
 20
195.4449458164
  0
VERTEX
  8
0
 62
7
  6
CONTINUOUS
 10
92.8532383488
 20
195.3449032489
  0
VERTEX
  8
0
 62
7
  6
CONTINUOUS
 10
92.8952646357
 20
195.2196603754
  0
SEQEND
  0
POLYLINE
  8
0
 62
7
  6
CONTINUOUS
 66
1
 70
0
  0
VERTEX
  8
0
 62
7
  6
CONTINUOUS
 10
105.2107766201
 20
195.5900930171
  0
VERTEX
  8
0
 62
7
  6
CONTINUOUS
 10
105.2954555403
 20
195.5787583013
  0
VERTEX
  8
0
 62
7
  6
CONTINUOUS
 10
105.3781181124
 20
195.5441199998
  0
VERTEX
  8
0
 62
7
  6
CONTINUOUS
 10
105.4557814526
 20
195.4846901497
  0
VERTEX
  8
0
 62
7
  6
CONTINUOUS
 10
105.4915929999
 20
195.4449458164
  0
VERTEX
  8
0
 62
7
  6
CONTINUOUS
 10
105.5532383488
 20
195.3449032489
  0
VERTEX
  8
0
 62
7
  6
CONTINUOUS
 10
105.5952646357
 20
195.2196603754
  0
SEQEND
  0
POLYLINE
  8
0
 62
7
  6
CONTINUOUS
 66
1
 70
0
  0
VERTEX
  8
0
 62
7
  6
CONTINUOUS
 10
86.1883396271
 20
196.3670247047
  0
VERTEX
  8
0
 62
7
  6
CONTINUOUS
 10
86.2416555351
 20
196.3593694815
  0
VERTEX
  8
0
 62
7
  6
CONTINUOUS
 10
86.3435267052
 20
196.3226731968
  0
VERTEX
  8
0
 62
7
  6
CONTINUOUS
 10
86.4323704714
 20
196.259485024
  0
VERTEX
  8
0
 62
7
  6
CONTINUOUS
 10
86.5008016251
 20
196.1747393009
  0
VERTEX
  8
0
 62
7
  6
CONTINUOUS
 10
86.543843829
 20
196.0746358737
  0
VERTEX
  8
0
 62
7
  6
CONTINUOUS
 10
86.558276658
 20
195.9681560322
  0
SEQEND
  0
POLYLINE
  8
0
 62
7
  6
CONTINUOUS
 66
1
 70
0
  0
VERTEX
  8
0
 62
7
  6
CONTINUOUS
 10
92.5383396271
 20
196.3670247047
  0
VERTEX
  8
0
 62
7
  6
CONTINUOUS
 10
92.5916555351
 20
196.3593694815
  0
VERTEX
  8
0
 62
7
  6
CONTINUOUS
 10
92.6935267052
 20
196.3226731968
  0
VERTEX
  8
0
 62
7
  6
CONTINUOUS
 10
92.7823704714
 20
196.259485024
  0
VERTEX
  8
0
 62
7
  6
CONTINUOUS
 10
92.8508016251
 20
196.1747393009
  0
VERTEX
  8
0
 62
7
  6
CONTINUOUS
 10
92.893843829
 20
196.0746358737
  0
VERTEX
  8
0
 62
7
  6
CONTINUOUS
 10
92.908276658
 20
195.9681560322
  0
SEQEND
  0
POLYLINE
  8
0
 62
7
  6
CONTINUOUS
 66
1
 70
0
  0
VERTEX
  8
0
 62
7
  6
CONTINUOUS
 10
98.158276658
 20
195.5900978996
  0
VERTEX
  8
0
 62
7
  6
CONTINUOUS
 10
98.2392701321
 20
195.5782145835
  0
VERTEX
  8
0
 62
7
  6
CONTINUOUS
 10
98.3188982652
 20
195.5411711186
  0
VERTEX
  8
0
 62
7
  6
CONTINUOUS
 10
98.3908550061
 20
195.4788204662
  0
VERTEX
  8
0
 62
7
  6
CONTINUOUS
 10
98.4512862769
 20
195.3895283132
  0
VERTEX
  8
0
 62
7
  6
CONTINUOUS
 10
98.49277486
 20
195.2754193984
  0
VERTEX
  8
0
 62
7
  6
CONTINUOUS
 10
98.508276658
 20
195.1400978996
  0
SEQEND
  0
POLYLINE
  8
0
 62
7
  6
CONTINUOUS
 66
1
 70
0
  0
VERTEX
  8
0
 62
7
  6
CONTINUOUS
 10
91.6515951487
 20
179.3318848914
  0
VERTEX
  8
0
 62
7
  6
CONTINUOUS
 10
91.6299796457
 20
179.3779333021
  0
VERTEX
  8
0
 62
7
  6
CONTINUOUS
 10
91.5950829002
 20
179.4142710389
  0
VERTEX
  8
0
 62
7
  6
CONTINUOUS
 10
91.5519954836
 20
179.4373504859
  0
VERTEX
  8
0
 62
7
  6
CONTINUOUS
 10
91.5056482704
 20
179.4446839994
  0
VERTEX
  8
0
 62
7
  6
CONTINUOUS
 10
91.45963706
 20
179.4356346206
  0
VERTEX
  8
0
 62
7
  6
CONTINUOUS
 10
91.4168469704
 20
179.4115635344
  0
VERTEX
  8
0
 62
7
  6
CONTINUOUS
 10
91.3832028123
 20
179.375689397
  0
VERTEX
  8
0
 62
7
  6
CONTINUOUS
 10
91.36264066
 20
179.3313144604
  0
SEQEND
  0
LINE
  8
0
 62
7
  6
CONTINUOUS
 10
91.6515951487
 20
179.3318848914
 11
93.079836196
 21
174.2052063142
  0
LINE
  8
0
 62
7
  6
CONTINUOUS
 10
93.558276658
 20
163.2817417449
 11
93.560776658
 21
163.2706208258
  0
LINE
  8
0
 62
7
  6
CONTINUOUS
 10
92.8952646357
 20
195.2196603754
 11
92.910776658
 21
195.0733794726
  0
POLYLINE
  8
0
 62
7
  6
CONTINUOUS
 66
1
 70
0
  0
VERTEX
  8
0
 62
7
  6
CONTINUOUS
 10
93.1609182233
 20
164.2750773086
  0
VERTEX
  8
0
 62
7
  6
CONTINUOUS
 10
93.1622970455
 20
164.0934356408
  0
VERTEX
  8
0
 62
7
  6
CONTINUOUS
 10
93.1667073877
 20
163.9388896478
  0
VERTEX
  8
0
 62
7
  6
CONTINUOUS
 10
93.1790925809
 20
163.8015083333
  0
VERTEX
  8
0
 62
7
  6
CONTINUOUS
 10
93.2073846684
 20
163.6812117073
  0
VERTEX
  8
0
 62
7
  6
CONTINUOUS
 10
93.2576634186
 20
163.5767093175
  0
VERTEX
  8
0
 62
7
  6
CONTINUOUS
 10
93.2913719588
 20
163.5300251949
  0
VERTEX
  8
0
 62
7
  6
CONTINUOUS
 10
93.3668667616
 20
163.4527906326
  0
VERTEX
  8
0
 62
7
  6
CONTINUOUS
 10
93.4350179306
 20
163.3990398084
  0
VERTEX
  8
0
 62
7
  6
CONTINUOUS
 10
93.4899724591
 20
163.3590467945
  0
VERTEX
  8
0
 62
7
  6
CONTINUOUS
 10
93.5303422248
 20
163.3254394769
  0
VERTEX
  8
0
 62
7
  6
CONTINUOUS
 10
93.5533227919
 20
163.2954711501
  0
VERTEX
  8
0
 62
7
  6
CONTINUOUS
 10
93.558276658
 20
163.2817417449
  0
SEQEND
  0
LINE
  8
0
 62
7
  6
CONTINUOUS
 10
92.908276658
 20
195.0969548807
 11
92.908276658
 21
195.9681560322
  0
LINE
  8
0
 62
7
  6
CONTINUOUS
 10
92.910776658
 20
185.7315573649
 11
92.910776658
 21
195.0733794726
  0
LINE
  8
0
 62
7
  6
CONTINUOUS
 10
93.158276658
 20
170.0150202783
 11
93.158276658
 21
162.4120397671
  0
LINE
  8
0
 62
7
  6
CONTINUOUS
 10
93.160776658
 20
172.6744141449
 11
93.1609182233
 21
164.2750773086
  0
POLYLINE
  8
0
 62
7
  6
CONTINUOUS
 66
1
 70
0
  0
VERTEX
  8
0
 62
7
  6
CONTINUOUS
 10
93.180218817
 20
173.1570398021
  0
VERTEX
  8
0
 62
7
  6
CONTINUOUS
 10
93.1845076714
 20
173.5801351786
  0
VERTEX
  8
0
 62
7
  6
CONTINUOUS
 10
93.1643364567
 20
173.7908157789
  0
VERTEX
  8
0
 62
7
  6
CONTINUOUS
 10
93.079836196
 20
174.2052063142
  0
SEQEND
  0
LINE
  8
0
 62
7
  6
CONTINUOUS
 10
93.160776658
 20
172.6744141449
 11
93.180218817
 21
173.1570398021
  0
POLYLINE
  8
0
 62
7
  6
CONTINUOUS
 66
1
 70
0
  0
VERTEX
  8
0
 62
7
  6
CONTINUOUS
 10
89.735776658
 20
163.3068163267
  0
VERTEX
  8
0
 62
7
  6
CONTINUOUS
 10
89.7202537562
 20
163.1604857108
  0
VERTEX
  8
0
 62
7
  6
CONTINUOUS
 10
89.6782454206
 20
163.0353076464
  0
VERTEX
  8
0
 62
7
  6
CONTINUOUS
 10
89.6165975418
 20
162.9352556771
  0
VERTEX
  8
0
 62
7
  6
CONTINUOUS
 10
89.5807842112
 20
162.8955083548
  0
VERTEX
  8
0
 62
7
  6
CONTINUOUS
 10
89.5031220607
 20
162.8360780847
  0
VERTEX
  8
0
 62
7
  6
CONTINUOUS
 10
89.420457219
 20
162.8014379531
  0
VERTEX
  8
0
 62
7
  6
CONTINUOUS
 10
89.3357766201
 20
162.7901027822
  0
SEQEND
  0
LINE
  8
0
 62
7
  6
CONTINUOUS
 10
96.735776658
 20
195.1095749735
 11
96.733276658
 21
195.0984540545
  0
LINE
  8
0
 62
7
  6
CONTINUOUS
 10
89.8459482534
 20
173.8902554022
 11
91.36264066
 21
179.3313144604
  0
POLYLINE
  8
0
 62
7
  6
CONTINUOUS
 66
1
 70
0
  0
VERTEX
  8
0
 62
7
  6
CONTINUOUS
 10
39.5532136888
 20
196.3670247047
  0
VERTEX
  8
0
 62
7
  6
CONTINUOUS
 10
39.4998977809
 20
196.3593694815
  0
VERTEX
  8
0
 62
7
  6
CONTINUOUS
 10
39.3980266107
 20
196.3226731968
  0
VERTEX
  8
0
 62
7
  6
CONTINUOUS
 10
39.3091828446
 20
196.259485024
  0
VERTEX
  8
0
 62
7
  6
CONTINUOUS
 10
39.2407516909
 20
196.1747393009
  0
VERTEX
  8
0
 62
7
  6
CONTINUOUS
 10
39.197709487
 20
196.0746358737
  0
VERTEX
  8
0
 62
7
  6
CONTINUOUS
 10
39.183276658
 20
195.9681560322
  0
SEQEND
  0
POLYLINE
  8
0
 62
7
  6
CONTINUOUS
 66
1
 70
0
  0
VERTEX
  8
0
 62
7
  6
CONTINUOUS
 10
105.2383396271
 20
196.3670247047
  0
VERTEX
  8
0
 62
7
  6
CONTINUOUS
 10
105.2916555351
 20
196.3593694815
  0
VERTEX
  8
0
 62
7
  6
CONTINUOUS
 10
105.3935267052
 20
196.3226731968
  0
VERTEX
  8
0
 62
7
  6
CONTINUOUS
 10
105.4823704714
 20
196.259485024
  0
VERTEX
  8
0
 62
7
  6
CONTINUOUS
 10
105.5508016251
 20
196.1747393009
  0
VERTEX
  8
0
 62
7
  6
CONTINUOUS
 10
105.593843829
 20
196.0746358737
  0
VERTEX
  8
0
 62
7
  6
CONTINUOUS
 10
105.608276658
 20
195.9681560322
  0
SEQEND
  0
POLYLINE
  8
0
 62
7
  6
CONTINUOUS
 66
1
 70
0
  0
VERTEX
  8
0
 62
7
  6
CONTINUOUS
 10
94.5390054943
 20
179.4753872986
  0
VERTEX
  8
0
 62
7
  6
CONTINUOUS
 10
94.5606209973
 20
179.4293388879
  0
VERTEX
  8
0
 62
7
  6
CONTINUOUS
 10
94.5955177428
 20
179.393001151
  0
VERTEX
  8
0
 62
7
  6
CONTINUOUS
 10
94.6386051593
 20
179.3699217041
  0
VERTEX
  8
0
 62
7
  6
CONTINUOUS
 10
94.6849523725
 20
179.3625881906
  0
VERTEX
  8
0
 62
7
  6
CONTINUOUS
 10
94.730963583
 20
179.3716375693
  0
VERTEX
  8
0
 62
7
  6
CONTINUOUS
 10
94.7737536725
 20
179.3957086556
  0
VERTEX
  8
0
 62
7
  6
CONTINUOUS
 10
94.8073978306
 20
179.4315827929
  0
VERTEX
  8
0
 62
7
  6
CONTINUOUS
 10
94.827959983
 20
179.4759577295
  0
SEQEND
  0
LINE
  8
0
 62
7
  6
CONTINUOUS
 10
94.5390054943
 20
179.4753872986
 11
93.0211049421
 21
184.9238991248
  0
POLYLINE
  8
0
 62
7
  6
CONTINUOUS
 66
1
 70
0
  0
VERTEX
  8
0
 62
7
  6
CONTINUOUS
 10
93.0211049421
 20
184.9238991248
  0
VERTEX
  8
0
 62
7
  6
CONTINUOUS
 10
92.9385149361
 20
185.3236815289
  0
VERTEX
  8
0
 62
7
  6
CONTINUOUS
 10
92.910776658
 20
185.7315573649
  0
SEQEND
  0
POLYLINE
  8
0
 62
7
  6
CONTINUOUS
 66
1
 70
0
  0
VERTEX
  8
0
 62
7
  6
CONTINUOUS
 10
92.9283721959
 20
188.1669728256
  0
VERTEX
  8
0
 62
7
  6
CONTINUOUS
 10
92.9099516923
 20
188.3065596155
  0
VERTEX
  8
0
 62
7
  6
CONTINUOUS
 10
92.910776658
 20
188.2936940441
  0
SEQEND
  0
LINE
  8
0
 62
7
  6
CONTINUOUS
 10
96.083276658
 20
163.2832494353
 11
96.083276658
 21
162.4120397671
  0
LINE
  8
0
 62
7
  6
CONTINUOUS
 10
96.085776658
 20
163.3068163267
 11
96.085776658
 21
173.084717202
  0
LINE
  8
0
 62
7
  6
CONTINUOUS
 10
96.333276658
 20
188.3651755402
 11
96.333276658
 21
195.9681560322
  0
POLYLINE
  8
0
 62
7
  6
CONTINUOUS
 66
1
 70
0
  0
VERTEX
  8
0
 62
7
  6
CONTINUOUS
 10
96.333276713
 20
188.3651961293
  0
VERTEX
  8
0
 62
7
  6
CONTINUOUS
 10
96.3316016238
 20
188.3065596177
  0
VERTEX
  8
0
 62
7
  6
CONTINUOUS
 10
96.3131811204
 20
188.1669728273
  0
VERTEX
  8
0
 62
7
  6
CONTINUOUS
 10
96.2756669014
 20
188.0406422705
  0
VERTEX
  8
0
 62
7
  6
CONTINUOUS
 10
96.2217691501
 20
187.9327659141
  0
VERTEX
  8
0
 62
7
  6
CONTINUOUS
 10
96.1899362568
 20
187.8871626379
  0
VERTEX
  8
0
 62
7
  6
CONTINUOUS
 10
96.1188671434
 20
187.813875285
  0
VERTEX
  8
0
 62
7
  6
CONTINUOUS
 10
96.0410119707
 20
187.765703172
  0
VERTEX
  8
0
 62
7
  6
CONTINUOUS
 10
95.9618918231
 20
187.7439563126
  0
VERTEX
  8
0
 62
7
  6
CONTINUOUS
 10
95.9332766543
 20
187.7423266594
  0
SEQEND
  0
LINE
  8
0
 62
7
  6
CONTINUOUS
 10
96.085776658
 20
170.0865016566
 11
96.084951685
 21
170.0736359448
  0
LINE
  8
0
 62
7
  6
CONTINUOUS
 10
96.2256050626
 20
184.4899403972
 11
94.827959983
 21
179.4759577295
  0
POLYLINE
  8
0
 62
7
  6
CONTINUOUS
 66
1
 70
0
  0
VERTEX
  8
0
 62
7
  6
CONTINUOUS
 10
103.083276658
 20
195.0984540545
  0
VERTEX
  8
0
 62
7
  6
CONTINUOUS
 10
103.0786997808
 20
195.0854969514
  0
VERTEX
  8
0
 62
7
  6
CONTINUOUS
 10
103.0575769164
 20
195.0569985942
  0
VERTEX
  8
0
 62
7
  6
CONTINUOUS
 10
103.0209107666
 20
195.0256337972
  0
VERTEX
  8
0
 62
7
  6
CONTINUOUS
 10
102.9705419571
 20
194.9888264505
  0
VERTEX
  8
0
 62
7
  6
CONTINUOUS
 10
102.9071617111
 20
194.9403394631
  0
VERTEX
  8
0
 62
7
  6
CONTINUOUS
 10
102.8333394745
 20
194.8700905293
  0
VERTEX
  8
0
 62
7
  6
CONTINUOUS
 10
102.79700257
 20
194.8247302092
  0
VERTEX
  8
0
 62
7
  6
CONTINUOUS
 10
102.7397296783
 20
194.7189407341
  0
VERTEX
  8
0
 62
7
  6
CONTINUOUS
 10
102.7076839971
 20
194.6010606529
  0
VERTEX
  8
0
 62
7
  6
CONTINUOUS
 10
102.6925767579
 20
194.4577103177
  0
VERTEX
  8
0
 62
7
  6
CONTINUOUS
 10
102.6874418518
 20
194.2963056902
  0
VERTEX
  8
0
 62
7
  6
CONTINUOUS
 10
102.6859288305
 20
194.1087042062
  0
VERTEX
  8
0
 62
7
  6
CONTINUOUS
 10
102.685776658
 20
185.2954785973
  0
SEQEND
  0
POLYLINE
  8
0
 62
7
  6
CONTINUOUS
 66
1
 70
0
  0
VERTEX
  8
0
 62
7
  6
CONTINUOUS
 10
98.0015951487
 20
179.3318848914
  0
VERTEX
  8
0
 62
7
  6
CONTINUOUS
 10
97.9799796457
 20
179.3779333021
  0
VERTEX
  8
0
 62
7
  6
CONTINUOUS
 10
97.9450829002
 20
179.414271039
  0
VERTEX
  8
0
 62
7
  6
CONTINUOUS
 10
97.9019954836
 20
179.4373504859
  0
VERTEX
  8
0
 62
7
  6
CONTINUOUS
 10
97.8556482704
 20
179.4446839994
  0
VERTEX
  8
0
 62
7
  6
CONTINUOUS
 10
97.8096370599
 20
179.4356346206
  0
VERTEX
  8
0
 62
7
  6
CONTINUOUS
 10
97.7668469704
 20
179.4115635344
  0
VERTEX
  8
0
 62
7
  6
CONTINUOUS
 10
97.7332028123
 20
179.375689397
  0
VERTEX
  8
0
 62
7
  6
CONTINUOUS
 10
97.71264066
 20
179.3313144604
  0
SEQEND
  0
POLYLINE
  8
0
 62
7
  6
CONTINUOUS
 66
1
 70
0
  0
VERTEX
  8
0
 62
7
  6
CONTINUOUS
 10
100.8890054943
 20
179.4753872986
  0
VERTEX
  8
0
 62
7
  6
CONTINUOUS
 10
100.9106209973
 20
179.4293388878
  0
VERTEX
  8
0
 62
7
  6
CONTINUOUS
 10
100.9455177429
 20
179.393001151
  0
VERTEX
  8
0
 62
7
  6
CONTINUOUS
 10
100.9886051595
 20
179.369921704
  0
VERTEX
  8
0
 62
7
  6
CONTINUOUS
 10
101.0349523727
 20
179.3625881906
  0
VERTEX
  8
0
 62
7
  6
CONTINUOUS
 10
101.0809635832
 20
179.3716375694
  0
VERTEX
  8
0
 62
7
  6
CONTINUOUS
 10
101.1237536726
 20
179.3957086557
  0
VERTEX
  8
0
 62
7
  6
CONTINUOUS
 10
101.1573978307
 20
179.431582793
  0
VERTEX
  8
0
 62
7
  6
CONTINUOUS
 10
101.177959983
 20
179.4759577295
  0
SEQEND
  0
LINE
  8
0
 62
7
  6
CONTINUOUS
 10
98.0015951487
 20
179.3318848914
 11
99.429836196
 21
174.2052063142
  0
LINE
  8
0
 62
7
  6
CONTINUOUS
 10
98.508276658
 20
188.1473272632
 11
98.508276658
 21
195.990097224
  0
LINE
  8
0
 62
7
  6
CONTINUOUS
 10
99.260776658
 20
185.7315573649
 11
99.260776658
 21
187.3923314023
  0
LINE
  8
0
 62
7
  6
CONTINUOUS
 10
99.510776658
 20
172.6744141449
 11
99.510776658
 21
170.9878324327
  0
LINE
  8
0
 62
7
  6
CONTINUOUS
 10
100.258276658
 20
162.3900985753
 11
100.258276658
 21
170.2328696853
  0
POLYLINE
  8
0
 62
7
  6
CONTINUOUS
 66
1
 70
0
  0
VERTEX
  8
0
 62
7
  6
CONTINUOUS
 10
99.530218817
 20
173.1570398021
  0
VERTEX
  8
0
 62
7
  6
CONTINUOUS
 10
99.5345076714
 20
173.5801351786
  0
VERTEX
  8
0
 62
7
  6
CONTINUOUS
 10
99.5143364567
 20
173.7908157789
  0
VERTEX
  8
0
 62
7
  6
CONTINUOUS
 10
99.429836196
 20
174.2052063142
  0
SEQEND
  0
LINE
  8
0
 62
7
  6
CONTINUOUS
 10
99.510776658
 20
172.6744141449
 11
99.530218817
 21
173.1570398021
  0
POLYLINE
  8
0
 62
7
  6
CONTINUOUS
 66
1
 70
0
  0
VERTEX
  8
0
 62
7
  6
CONTINUOUS
 10
96.085776658
 20
163.3068163267
  0
VERTEX
  8
0
 62
7
  6
CONTINUOUS
 10
96.0702537562
 20
163.1604857108
  0
VERTEX
  8
0
 62
7
  6
CONTINUOUS
 10
96.0282454206
 20
163.0353076464
  0
VERTEX
  8
0
 62
7
  6
CONTINUOUS
 10
95.9665975418
 20
162.9352556771
  0
VERTEX
  8
0
 62
7
  6
CONTINUOUS
 10
95.9307842112
 20
162.8955083548
  0
VERTEX
  8
0
 62
7
  6
CONTINUOUS
 10
95.8531220607
 20
162.8360780847
  0
VERTEX
  8
0
 62
7
  6
CONTINUOUS
 10
95.770457219
 20
162.8014379531
  0
VERTEX
  8
0
 62
7
  6
CONTINUOUS
 10
95.6857766201
 20
162.7901027822
  0
SEQEND
  0
POLYLINE
  8
0
 62
7
  6
CONTINUOUS
 66
1
 70
0
  0
VERTEX
  8
0
 62
7
  6
CONTINUOUS
 10
96.084951685
 20
170.0736359448
  0
VERTEX
  8
0
 62
7
  6
CONTINUOUS
 10
96.1033721498
 20
170.2132226637
  0
VERTEX
  8
0
 62
7
  6
CONTINUOUS
 10
96.1408863572
 20
170.3395533926
  0
VERTEX
  8
0
 62
7
  6
CONTINUOUS
 10
96.1947840938
 20
170.4474297832
  0
VERTEX
  8
0
 62
7
  6
CONTINUOUS
 10
96.2266170285
 20
170.4930331141
  0
VERTEX
  8
0
 62
7
  6
CONTINUOUS
 10
96.2976860782
 20
170.5663204427
  0
VERTEX
  8
0
 62
7
  6
CONTINUOUS
 10
96.3755412036
 20
170.6144925803
  0
VERTEX
  8
0
 62
7
  6
CONTINUOUS
 10
96.4546611189
 20
170.6362394404
  0
VERTEX
  8
0
 62
7
  6
CONTINUOUS
 10
96.4832766586
 20
170.6378691553
  0
SEQEND
  0
LINE
  8
0
 62
7
  6
CONTINUOUS
 10
103.085776658
 20
195.1095749735
 11
103.083276658
 21
195.0984540545
  0
LINE
  8
0
 62
7
  6
CONTINUOUS
 10
96.1959482534
 20
173.8902554022
 11
97.71264066
 21
179.3313144604
  0
LINE
  8
0
 62
7
  6
CONTINUOUS
 10
105.8043356169
 20
170.3300103988
 11
105.8020756739
 21
170.3359385157
  0
LINE
  8
0
 62
7
  6
CONTINUOUS
 10
100.8890054943
 20
179.4753872986
 11
99.3711049421
 21
184.9238991248
  0
POLYLINE
  8
0
 62
7
  6
CONTINUOUS
 66
1
 70
0
  0
VERTEX
  8
0
 62
7
  6
CONTINUOUS
 10
99.3711049421
 20
184.9238991248
  0
VERTEX
  8
0
 62
7
  6
CONTINUOUS
 10
99.2885149361
 20
185.3236815289
  0
VERTEX
  8
0
 62
7
  6
CONTINUOUS
 10
99.260776658
 20
185.7315573649
  0
SEQEND
  0
LINE
  8
0
 62
7
  6
CONTINUOUS
 10
102.433276658
 20
163.2832494353
 11
102.433276658
 21
162.4120397671
  0
LINE
  8
0
 62
7
  6
CONTINUOUS
 10
102.435776658
 20
163.3068163267
 11
102.435776658
 21
173.084717202
  0
LINE
  8
0
 62
7
  6
CONTINUOUS
 10
102.683276658
 20
188.3651755402
 11
102.683276658
 21
195.9681560322
  0
POLYLINE
  8
0
 62
7
  6
CONTINUOUS
 66
1
 70
0
  0
VERTEX
  8
0
 62
7
  6
CONTINUOUS
 10
102.683276713
 20
188.3651961293
  0
VERTEX
  8
0
 62
7
  6
CONTINUOUS
 10
102.6816016238
 20
188.3065596177
  0
VERTEX
  8
0
 62
7
  6
CONTINUOUS
 10
102.6631811204
 20
188.1669728273
  0
VERTEX
  8
0
 62
7
  6
CONTINUOUS
 10
102.6256669014
 20
188.0406422705
  0
VERTEX
  8
0
 62
7
  6
CONTINUOUS
 10
102.5717691501
 20
187.9327659141
  0
VERTEX
  8
0
 62
7
  6
CONTINUOUS
 10
102.5399362568
 20
187.8871626379
  0
VERTEX
  8
0
 62
7
  6
CONTINUOUS
 10
102.4688671434
 20
187.813875285
  0
VERTEX
  8
0
 62
7
  6
CONTINUOUS
 10
102.3910119707
 20
187.765703172
  0
VERTEX
  8
0
 62
7
  6
CONTINUOUS
 10
102.3118918231
 20
187.7439563126
  0
VERTEX
  8
0
 62
7
  6
CONTINUOUS
 10
102.2832766543
 20
187.7423266594
  0
SEQEND
  0
LINE
  8
0
 62
7
  6
CONTINUOUS
 10
102.435776658
 20
170.0865016566
 11
102.434951685
 21
170.0736359448
  0
LINE
  8
0
 62
7
  6
CONTINUOUS
 10
102.5756050626
 20
184.4899403972
 11
101.177959983
 21
179.4759577295
  0
POLYLINE
  8
0
 62
7
  6
CONTINUOUS
 66
1
 70
0
  0
VERTEX
  8
0
 62
7
  6
CONTINUOUS
 10
105.8043665764
 20
170.3299267851
  0
VERTEX
  8
0
 62
7
  6
CONTINUOUS
 10
105.8259991116
 20
170.2635388255
  0
VERTEX
  8
0
 62
7
  6
CONTINUOUS
 10
105.8544545119
 20
170.1066726621
  0
SEQEND
  0
POLYLINE
  8
0
 62
7
  6
CONTINUOUS
 66
1
 70
0
  0
VERTEX
  8
0
 62
7
  6
CONTINUOUS
 10
105.854455577
 20
170.1066726501
  0
VERTEX
  8
0
 62
7
  6
CONTINUOUS
 10
105.85627619
 20
170.0837183199
  0
VERTEX
  8
0
 62
7
  6
CONTINUOUS
 10
105.8579753808
 20
170.0464744646
  0
VERTEX
  8
0
 62
7
  6
CONTINUOUS
 10
105.8582766729
 20
170.0225815076
  0
SEQEND
  0
LINE
  8
0
 62
7
  6
CONTINUOUS
 10
105.608276658
 20
195.0969548807
 11
105.608276658
 21
195.9681560322
  0
LINE
  8
0
 62
7
  6
CONTINUOUS
 10
105.610776658
 20
188.0717898651
 11
105.610776658
 21
195.0733794726
  0
LINE
  8
0
 62
7
  6
CONTINUOUS
 10
105.858276658
 20
162.4120397671
 11
105.858276658
 21
170.1066726621
  0
POLYLINE
  8
0
 62
7
  6
CONTINUOUS
 66
1
 70
0
  0
VERTEX
  8
0
 62
7
  6
CONTINUOUS
 10
105.2345554312
 20
184.9439802443
  0
VERTEX
  8
0
 62
7
  6
CONTINUOUS
 10
105.2305621482
 20
184.8146180819
  0
VERTEX
  8
0
 62
7
  6
CONTINUOUS
 10
105.2193143958
 20
184.6852945325
  0
VERTEX
  8
0
 62
7
  6
CONTINUOUS
 10
105.2062414234
 20
184.5557497443
  0
SEQEND
  0
POLYLINE
  8
0
 62
7
  6
CONTINUOUS
 66
1
 70
0
  0
VERTEX
  8
0
 62
7
  6
CONTINUOUS
 10
105.610776658
 20
188.0717898651
  0
VERTEX
  8
0
 62
7
  6
CONTINUOUS
 10
105.6092533562
 20
188.0355494815
  0
VERTEX
  8
0
 62
7
  6
CONTINUOUS
 10
105.597820885
 20
187.979647161
  0
VERTEX
  8
0
 62
7
  6
CONTINUOUS
 10
105.5889017325
 20
187.9580185593
  0
VERTEX
  8
0
 62
7
  6
CONTINUOUS
 10
105.5671148151
 20
187.9237754745
  0
VERTEX
  8
0
 62
7
  6
CONTINUOUS
 10
105.5550816189
 20
187.9104719093
  0
SEQEND
  0
POLYLINE
  8
0
 62
7
  6
CONTINUOUS
 66
1
 70
0
  0
VERTEX
  8
0
 62
7
  6
CONTINUOUS
 10
102.435776658
 20
163.3068163267
  0
VERTEX
  8
0
 62
7
  6
CONTINUOUS
 10
102.4202537562
 20
163.1604857108
  0
VERTEX
  8
0
 62
7
  6
CONTINUOUS
 10
102.3782454206
 20
163.0353076464
  0
VERTEX
  8
0
 62
7
  6
CONTINUOUS
 10
102.3165975418
 20
162.9352556771
  0
VERTEX
  8
0
 62
7
  6
CONTINUOUS
 10
102.2807842112
 20
162.8955083548
  0
VERTEX
  8
0
 62
7
  6
CONTINUOUS
 10
102.2031220607
 20
162.8360780847
  0
VERTEX
  8
0
 62
7
  6
CONTINUOUS
 10
102.120457219
 20
162.8014379531
  0
VERTEX
  8
0
 62
7
  6
CONTINUOUS
 10
102.0357766201
 20
162.7901027822
  0
SEQEND
  0
POLYLINE
  8
0
 62
7
  6
CONTINUOUS
 66
1
 70
0
  0
VERTEX
  8
0
 62
7
  6
CONTINUOUS
 10
102.434951685
 20
170.0736359448
  0
VERTEX
  8
0
 62
7
  6
CONTINUOUS
 10
102.4533721498
 20
170.2132226637
  0
VERTEX
  8
0
 62
7
  6
CONTINUOUS
 10
102.4908863572
 20
170.3395533926
  0
VERTEX
  8
0
 62
7
  6
CONTINUOUS
 10
102.5447840938
 20
170.4474297832
  0
VERTEX
  8
0
 62
7
  6
CONTINUOUS
 10
102.5766170285
 20
170.4930331141
  0
VERTEX
  8
0
 62
7
  6
CONTINUOUS
 10
102.6476860782
 20
170.5663204427
  0
VERTEX
  8
0
 62
7
  6
CONTINUOUS
 10
102.7255412036
 20
170.6144925803
  0
VERTEX
  8
0
 62
7
  6
CONTINUOUS
 10
102.8046611189
 20
170.6362394404
  0
VERTEX
  8
0
 62
7
  6
CONTINUOUS
 10
102.8332766586
 20
170.6378691553
  0
SEQEND
  0
POLYLINE
  8
0
 62
7
  6
CONTINUOUS
 66
1
 70
0
  0
VERTEX
  8
0
 62
7
  6
CONTINUOUS
 10
105.2062414234
 20
184.5557497443
  0
VERTEX
  8
0
 62
7
  6
CONTINUOUS
 10
105.0948329309
 20
183.8180625702
  0
VERTEX
  8
0
 62
7
  6
CONTINUOUS
 10
104.9364431581
 20
183.010244366
  0
VERTEX
  8
0
 62
7
  6
CONTINUOUS
 10
104.748361763
 20
182.1516924523
  0
VERTEX
  8
0
 62
7
  6
CONTINUOUS
 10
104.6406949202
 20
181.6866340001
  0
VERTEX
  8
0
 62
7
  6
CONTINUOUS
 10
104.3840046732
 20
180.628114261
  0
VERTEX
  8
0
 62
7
  6
CONTINUOUS
 10
104.0578512106
 20
179.356094908
  0
VERTEX
  8
0
 62
7
  6
CONTINUOUS
 10
103.6491975907
 20
177.8481077692
  0
SEQEND
  0
LINE
  8
0
 62
7
  6
CONTINUOUS
 10
105.2233028943
 20
183.4950349188
 11
105.2402023876
 21
183.5557586951
  0
LINE
  8
0
 62
7
  6
CONTINUOUS
 10
102.5459482534
 20
173.8902554022
 11
103.6491975907
 21
177.8481077692
  0
LINE
  8
0
 62
7
  6
CONTINUOUS
 10
105.6280168702
 20
188.1686617555
 11
105.6104122855
 21
188.3041119404
  0
LINE
  8
0
 62
7
  6
CONTINUOUS
 10
105.5952646357
 20
195.2196603754
 11
105.610776658
 21
195.0733794726
  0
LINE
  8
0
 62
7
  6
CONTINUOUS
 10
108.723276658
 20
187.281476728
 11
108.723276658
 21
162.2901013307
  0
LINE
  8
0
 62
7
  6
CONTINUOUS
 10
32.893276658
 20
114.0202848664
 11
32.893276658
 21
121.05375
  0
LINE
  8
0
 62
7
  6
CONTINUOUS
 10
35.408276658
 20
117.6183251311
 11
35.408276658
 21
120.95375
  0
LINE
  8
0
 62
7
  6
CONTINUOUS
 10
35.758276658
 20
113.7622207136
 11
35.758276658
 21
119.9568862075
  0
LINE
  8
0
 62
7
  6
CONTINUOUS
 10
39.180776658
 20
114.95375
 11
39.180776658
 21
113.35375
  0
LINE
  8
0
 62
7
  6
CONTINUOUS
 10
39.183276658
 20
114.95375
 11
39.183276658
 21
119.9568862075
  0
LINE
  8
0
 62
7
  6
CONTINUOUS
 10
39.533276658
 20
117.6183251311
 11
39.533276658
 21
120.95375
  0
LINE
  8
0
 62
7
  6
CONTINUOUS
 10
41.358276658
 20
113.30375
 11
41.358276658
 21
120.95375
  0
LINE
  8
0
 62
7
  6
CONTINUOUS
 10
42.105776658
 20
113.35375
 11
42.105776658
 21
113.356892586
  0
POLYLINE
  8
0
 62
7
  6
CONTINUOUS
 66
1
 70
0
  0
VERTEX
  8
0
 62
7
  6
CONTINUOUS
 10
41.763276658
 20
113.7597004914
  0
VERTEX
  8
0
 62
7
  6
CONTINUOUS
 10
41.7666062856
 20
113.7434948981
  0
VERTEX
  8
0
 62
7
  6
CONTINUOUS
 10
41.7794684694
 20
113.7289961588
  0
VERTEX
  8
0
 62
7
  6
CONTINUOUS
 10
41.7949536993
 20
113.7122040513
  0
SEQEND
  0
LINE
  8
0
 62
7
  6
CONTINUOUS
 10
44.233276658
 20
116.6601574031
 11
44.233276658
 21
121.3535449039
  0
LINE
  8
0
 62
7
  6
CONTINUOUS
 10
45.530776658
 20
114.95375
 11
45.530776658
 21
113.35375
  0
LINE
  8
0
 62
7
  6
CONTINUOUS
 10
45.533276658
 20
114.95375
 11
45.533276658
 21
119.9568862075
  0
LINE
  8
0
 62
7
  6
CONTINUOUS
 10
45.883276658
 20
117.6183251311
 11
45.883276658
 21
120.95375
  0
POLYLINE
  8
0
 62
7
  6
CONTINUOUS
 66
1
 70
0
  0
VERTEX
  8
0
 62
7
  6
CONTINUOUS
 10
48.4556350927
 20
114.136414358
  0
VERTEX
  8
0
 62
7
  6
CONTINUOUS
 10
48.4542562705
 20
114.2275421931
  0
VERTEX
  8
0
 62
7
  6
CONTINUOUS
 10
48.4498459282
 20
114.2963986539
  0
VERTEX
  8
0
 62
7
  6
CONTINUOUS
 10
48.4374607351
 20
114.336589896
  0
VERTEX
  8
0
 62
7
  6
CONTINUOUS
 10
48.4091686476
 20
114.3456738597
  0
VERTEX
  8
0
 62
7
  6
CONTINUOUS
 10
48.3588898974
 20
114.3362825283
  0
VERTEX
  8
0
 62
7
  6
CONTINUOUS
 10
48.3251813571
 20
114.3301932707
  0
VERTEX
  8
0
 62
7
  6
CONTINUOUS
 10
48.2496865544
 20
114.3248413838
  0
VERTEX
  8
0
 62
7
  6
CONTINUOUS
 10
48.1815353854
 20
114.3319821339
  0
VERTEX
  8
0
 62
7
  6
CONTINUOUS
 10
48.1265808568
 20
114.3486535276
  0
VERTEX
  8
0
 62
7
  6
CONTINUOUS
 10
48.0862110912
 20
114.371840615
  0
VERTEX
  8
0
 62
7
  6
CONTINUOUS
 10
48.0632305241
 20
114.3976137947
  0
VERTEX
  8
0
 62
7
  6
CONTINUOUS
 10
48.058276658
 20
114.4101455872
  0
SEQEND
  0
LINE
  8
0
 62
7
  6
CONTINUOUS
 10
48.108276658
 20
117.6183251311
 11
48.108276658
 21
120.95375
  0
LINE
  8
0
 62
7
  6
CONTINUOUS
 10
48.455776658
 20
113.35375
 11
48.4556350927
 21
114.136414358
  0
LINE
  8
0
 62
7
  6
CONTINUOUS
 10
48.458276658
 20
113.75375
 11
48.458276658
 21
119.9568862075
  0
LINE
  8
0
 62
7
  6
CONTINUOUS
 10
48.458276658
 20
113.75375
 11
48.455776658
 21
113.7090985723
  0
POLYLINE
  8
0
 62
7
  6
CONTINUOUS
 66
1
 70
0
  0
VERTEX
  8
0
 62
7
  6
CONTINUOUS
 10
41.7592534751
 20
113.75375
  0
VERTEX
  8
0
 62
7
  6
CONTINUOUS
 10
41.7604952386
 20
113.7558006332
  0
VERTEX
  8
0
 62
7
  6
CONTINUOUS
 10
41.7619051568
 20
113.7577377355
  0
VERTEX
  8
0
 62
7
  6
CONTINUOUS
 10
41.763276658
 20
113.7597004914
  0
SEQEND
  0
POLYLINE
  8
0
 62
7
  6
CONTINUOUS
 66
1
 70
0
  0
VERTEX
  8
0
 62
7
  6
CONTINUOUS
 10
41.7949536993
 20
113.7122040513
  0
VERTEX
  8
0
 62
7
  6
CONTINUOUS
 10
41.9270457458
 20
113.5699454264
  0
VERTEX
  8
0
 62
7
  6
CONTINUOUS
 10
41.9693962083
 20
113.5237832233
  0
VERTEX
  8
0
 62
7
  6
CONTINUOUS
 10
42.0182789456
 20
113.4696076728
  0
VERTEX
  8
0
 62
7
  6
CONTINUOUS
 10
42.0676438483
 20
113.412635646
  0
VERTEX
  8
0
 62
7
  6
CONTINUOUS
 10
42.0966636821
 20
113.3752537442
  0
VERTEX
  8
0
 62
7
  6
CONTINUOUS
 10
42.105776658
 20
113.356892586
  0
SEQEND
  0
LINE
  8
0
 62
7
  6
CONTINUOUS
 10
48.058276658
 20
114.4101455872
 11
48.055776658
 21
114.4204166666
  0
LINE
  8
0
 62
7
  6
CONTINUOUS
 10
51.880776658
 20
114.95375
 11
51.880776658
 21
113.35375
  0
LINE
  8
0
 62
7
  6
CONTINUOUS
 10
51.883276658
 20
114.95375
 11
51.883276658
 21
119.9568862075
  0
LINE
  8
0
 62
7
  6
CONTINUOUS
 10
52.233276658
 20
117.6183251311
 11
52.233276658
 21
120.95375
  0
POLYLINE
  8
0
 62
7
  6
CONTINUOUS
 66
1
 70
0
  0
VERTEX
  8
0
 62
7
  6
CONTINUOUS
 10
54.8056350927
 20
114.136414358
  0
VERTEX
  8
0
 62
7
  6
CONTINUOUS
 10
54.8042562705
 20
114.2275421931
  0
VERTEX
  8
0
 62
7
  6
CONTINUOUS
 10
54.7998459282
 20
114.2963986539
  0
VERTEX
  8
0
 62
7
  6
CONTINUOUS
 10
54.7874607351
 20
114.336589896
  0
VERTEX
  8
0
 62
7
  6
CONTINUOUS
 10
54.7591686476
 20
114.3456738597
  0
VERTEX
  8
0
 62
7
  6
CONTINUOUS
 10
54.7088898974
 20
114.3362825283
  0
VERTEX
  8
0
 62
7
  6
CONTINUOUS
 10
54.6751813571
 20
114.3301932707
  0
VERTEX
  8
0
 62
7
  6
CONTINUOUS
 10
54.5996865544
 20
114.3248413838
  0
VERTEX
  8
0
 62
7
  6
CONTINUOUS
 10
54.5315353854
 20
114.3319821339
  0
VERTEX
  8
0
 62
7
  6
CONTINUOUS
 10
54.4765808568
 20
114.3486535276
  0
VERTEX
  8
0
 62
7
  6
CONTINUOUS
 10
54.4362110912
 20
114.371840615
  0
VERTEX
  8
0
 62
7
  6
CONTINUOUS
 10
54.4132305241
 20
114.3976137947
  0
VERTEX
  8
0
 62
7
  6
CONTINUOUS
 10
54.408276658
 20
114.4101455872
  0
SEQEND
  0
LINE
  8
0
 62
7
  6
CONTINUOUS
 10
54.458276658
 20
117.6183251311
 11
54.458276658
 21
120.95375
  0
LINE
  8
0
 62
7
  6
CONTINUOUS
 10
54.805776658
 20
113.35375
 11
54.8056350927
 21
114.136414358
  0
LINE
  8
0
 62
7
  6
CONTINUOUS
 10
54.808276658
 20
113.75375
 11
54.808276658
 21
119.9568862075
  0
LINE
  8
0
 62
7
  6
CONTINUOUS
 10
54.808276658
 20
113.75375
 11
54.805776658
 21
113.7090985723
  0
LINE
  8
0
 62
7
  6
CONTINUOUS
 10
54.408276658
 20
114.4101455873
 11
54.405776658
 21
114.4204166666
  0
LINE
  8
0
 62
7
  6
CONTINUOUS
 10
58.230776658
 20
114.95375
 11
58.230776658
 21
113.35375
  0
LINE
  8
0
 62
7
  6
CONTINUOUS
 10
58.233276658
 20
114.95375
 11
58.233276658
 21
119.9568862075
  0
LINE
  8
0
 62
7
  6
CONTINUOUS
 10
58.583276658
 20
117.6183251311
 11
58.583276658
 21
120.95375
  0
POLYLINE
  8
0
 62
7
  6
CONTINUOUS
 66
1
 70
0
  0
VERTEX
  8
0
 62
7
  6
CONTINUOUS
 10
61.1556350927
 20
114.136414358
  0
VERTEX
  8
0
 62
7
  6
CONTINUOUS
 10
61.1542562705
 20
114.2275421931
  0
VERTEX
  8
0
 62
7
  6
CONTINUOUS
 10
61.1498459282
 20
114.2963986539
  0
VERTEX
  8
0
 62
7
  6
CONTINUOUS
 10
61.1374607351
 20
114.336589896
  0
VERTEX
  8
0
 62
7
  6
CONTINUOUS
 10
61.1091686476
 20
114.3456738597
  0
VERTEX
  8
0
 62
7
  6
CONTINUOUS
 10
61.0588898974
 20
114.3362825283
  0
VERTEX
  8
0
 62
7
  6
CONTINUOUS
 10
61.0251813571
 20
114.3301932707
  0
VERTEX
  8
0
 62
7
  6
CONTINUOUS
 10
60.9496865544
 20
114.3248413838
  0
VERTEX
  8
0
 62
7
  6
CONTINUOUS
 10
60.8815353854
 20
114.3319821339
  0
VERTEX
  8
0
 62
7
  6
CONTINUOUS
 10
60.8265808568
 20
114.3486535276
  0
VERTEX
  8
0
 62
7
  6
CONTINUOUS
 10
60.7862110912
 20
114.371840615
  0
VERTEX
  8
0
 62
7
  6
CONTINUOUS
 10
60.7632305241
 20
114.3976137947
  0
VERTEX
  8
0
 62
7
  6
CONTINUOUS
 10
60.758276658
 20
114.4101455872
  0
SEQEND
  0
LINE
  8
0
 62
7
  6
CONTINUOUS
 10
60.808276658
 20
117.6183251311
 11
60.808276658
 21
120.95375
  0
LINE
  8
0
 62
7
  6
CONTINUOUS
 10
61.155776658
 20
113.35375
 11
61.1556350927
 21
114.136414358
  0
LINE
  8
0
 62
7
  6
CONTINUOUS
 10
61.158276658
 20
113.75375
 11
61.158276658
 21
119.9568862075
  0
LINE
  8
0
 62
7
  6
CONTINUOUS
 10
61.158276658
 20
113.75375
 11
61.155776658
 21
113.7090985723
  0
LINE
  8
0
 62
7
  6
CONTINUOUS
 10
60.758276658
 20
114.4101455873
 11
60.755776658
 21
114.4204166666
  0
LINE
  8
0
 62
7
  6
CONTINUOUS
 10
64.580776658
 20
114.95375
 11
64.580776658
 21
113.35375
  0
LINE
  8
0
 62
7
  6
CONTINUOUS
 10
64.583276658
 20
114.95375
 11
64.583276658
 21
119.9568862075
  0
LINE
  8
0
 62
7
  6
CONTINUOUS
 10
33.1593156938
 20
113.7222133097
 11
39.7911934035
 21
112.9666062886
  0
LINE
  8
0
 62
7
  6
CONTINUOUS
 10
64.933276658
 20
117.6183251311
 11
64.933276658
 21
120.95375
  0
LINE
  8
0
 62
7
  6
CONTINUOUS
 10
67.158276658
 20
117.6183251311
 11
67.158276658
 21
120.95375
  0
LINE
  8
0
 62
7
  6
CONTINUOUS
 10
101.8253599125
 20
112.9666062886
 11
108.4572376222
 21
113.7222133097
  0
LINE
  8
0
 62
7
  6
CONTINUOUS
 10
67.108276658
 20
114.4101455873
 11
67.105776658
 21
114.4204166666
  0
POLYLINE
  8
0
 62
7
  6
CONTINUOUS
 66
1
 70
0
  0
VERTEX
  8
0
 62
7
  6
CONTINUOUS
 10
67.5056350927
 20
114.136414358
  0
VERTEX
  8
0
 62
7
  6
CONTINUOUS
 10
67.5042562705
 20
114.2275421931
  0
VERTEX
  8
0
 62
7
  6
CONTINUOUS
 10
67.4998459282
 20
114.2963986539
  0
VERTEX
  8
0
 62
7
  6
CONTINUOUS
 10
67.4874607351
 20
114.336589896
  0
VERTEX
  8
0
 62
7
  6
CONTINUOUS
 10
67.4591686476
 20
114.3456738597
  0
VERTEX
  8
0
 62
7
  6
CONTINUOUS
 10
67.4088898974
 20
114.3362825283
  0
VERTEX
  8
0
 62
7
  6
CONTINUOUS
 10
67.3751813571
 20
114.3301932707
  0
VERTEX
  8
0
 62
7
  6
CONTINUOUS
 10
67.2996865544
 20
114.3248413838
  0
VERTEX
  8
0
 62
7
  6
CONTINUOUS
 10
67.2315353854
 20
114.3319821339
  0
VERTEX
  8
0
 62
7
  6
CONTINUOUS
 10
67.1765808568
 20
114.3486535276
  0
VERTEX
  8
0
 62
7
  6
CONTINUOUS
 10
67.1362110912
 20
114.371840615
  0
VERTEX
  8
0
 62
7
  6
CONTINUOUS
 10
67.1132305241
 20
114.3976137947
  0
VERTEX
  8
0
 62
7
  6
CONTINUOUS
 10
67.108276658
 20
114.4101455872
  0
SEQEND
  0
LINE
  8
0
 62
7
  6
CONTINUOUS
 10
67.505776658
 20
113.35375
 11
67.5056350927
 21
114.136414358
  0
LINE
  8
0
 62
7
  6
CONTINUOUS
 10
67.508276658
 20
113.75375
 11
67.508276658
 21
119.9568862075
  0
LINE
  8
0
 62
7
  6
CONTINUOUS
 10
67.508276658
 20
113.75375
 11
67.505776658
 21
113.7090985723
  0
LINE
  8
0
 62
7
  6
CONTINUOUS
 10
40.017599831
 20
112.95375
 11
101.598953485
 21
112.95375
  0
LINE
  8
0
 62
7
  6
CONTINUOUS
 10
36.4103118925
 20
113.35375
 11
39.180776658
 21
113.35375
  0
LINE
  8
0
 62
7
  6
CONTINUOUS
 10
42.105776658
 20
113.35375
 11
45.530776658
 21
113.35375
  0
LINE
  8
0
 62
7
  6
CONTINUOUS
 10
48.455776658
 20
113.35375
 11
51.880776658
 21
113.35375
  0
LINE
  8
0
 62
7
  6
CONTINUOUS
 10
54.805776658
 20
113.35375
 11
58.230776658
 21
113.35375
  0
LINE
  8
0
 62
7
  6
CONTINUOUS
 10
61.155776658
 20
113.35375
 11
64.580776658
 21
113.35375
  0
LINE
  8
0
 62
7
  6
CONTINUOUS
 10
67.505776658
 20
113.35375
 11
70.935776658
 21
113.35375
  0
LINE
  8
0
 62
7
  6
CONTINUOUS
 10
73.860776658
 20
113.35375
 11
77.285776658
 21
113.35375
  0
LINE
  8
0
 62
7
  6
CONTINUOUS
 10
80.210776658
 20
113.35375
 11
83.635776658
 21
113.35375
  0
LINE
  8
0
 62
7
  6
CONTINUOUS
 10
86.560776658
 20
113.35375
 11
89.985776658
 21
113.35375
  0
LINE
  8
0
 62
7
  6
CONTINUOUS
 10
92.910776658
 20
113.35375
 11
96.335776658
 21
113.35375
  0
LINE
  8
0
 62
7
  6
CONTINUOUS
 10
99.260776658
 20
113.35375
 11
102.685776658
 21
113.35375
  0
LINE
  8
0
 62
7
  6
CONTINUOUS
 10
42.508276658
 20
113.9861632652
 11
41.763276658
 21
113.9863184695
  0
LINE
  8
0
 62
7
  6
CONTINUOUS
 10
99.658276658
 20
113.9861632652
 11
98.913276658
 21
113.9863184695
  0
LINE
  8
0
 62
7
  6
CONTINUOUS
 10
70.933276658
 20
113.75375
 11
70.935776658
 21
113.7090985723
  0
LINE
  8
0
 62
7
  6
CONTINUOUS
 10
70.808276658
 20
112.9537644986
 11
70.808276658
 21
113.35375
  0
LINE
  8
0
 62
7
  6
CONTINUOUS
 10
70.933276658
 20
113.75375
 11
70.933276658
 21
119.9568862075
  0
LINE
  8
0
 62
7
  6
CONTINUOUS
 10
71.283276658
 20
117.6183251311
 11
71.283276658
 21
120.95375
  0
LINE
  8
0
 62
7
  6
CONTINUOUS
 10
71.335776658
 20
114.4204166666
 11
71.333276658
 21
114.4101455872
  0
POLYLINE
  8
0
 62
7
  6
CONTINUOUS
 66
1
 70
0
  0
VERTEX
  8
0
 62
7
  6
CONTINUOUS
 10
71.333276658
 20
114.4101455873
  0
VERTEX
  8
0
 62
7
  6
CONTINUOUS
 10
71.3286997808
 20
114.3983118823
  0
VERTEX
  8
0
 62
7
  6
CONTINUOUS
 10
71.3075769164
 20
114.3736443356
  0
VERTEX
  8
0
 62
7
  6
CONTINUOUS
 10
71.2709107666
 20
114.3512776651
  0
VERTEX
  8
0
 62
7
  6
CONTINUOUS
 10
71.2205419571
 20
114.3342877233
  0
VERTEX
  8
0
 62
7
  6
CONTINUOUS
 10
71.157161711
 20
114.3253709947
  0
VERTEX
  8
0
 62
7
  6
CONTINUOUS
 10
71.0833394745
 20
114.3279064351
  0
VERTEX
  8
0
 62
7
  6
CONTINUOUS
 10
71.0470025699
 20
114.3334733802
  0
VERTEX
  8
0
 62
7
  6
CONTINUOUS
 10
70.9897296783
 20
114.344830506
  0
VERTEX
  8
0
 62
7
  6
CONTINUOUS
 10
70.9576839971
 20
114.3402471403
  0
VERTEX
  8
0
 62
7
  6
CONTINUOUS
 10
70.9425767579
 20
114.3025609625
  0
VERTEX
  8
0
 62
7
  6
CONTINUOUS
 10
70.9374418518
 20
114.2321763562
  0
VERTEX
  8
0
 62
7
  6
CONTINUOUS
 10
70.9359288305
 20
114.1382242844
  0
VERTEX
  8
0
 62
7
  6
CONTINUOUS
 10
70.935776658
 20
113.3537500001
  0
SEQEND
  0
LINE
  8
0
 62
7
  6
CONTINUOUS
 10
39.180776658
 20
114.95375
 11
39.583276658
 21
114.95375
  0
LINE
  8
0
 62
7
  6
CONTINUOUS
 10
40.958276658
 20
114.95375
 11
41.358276658
 21
114.95375
  0
LINE
  8
0
 62
7
  6
CONTINUOUS
 10
45.530776658
 20
114.95375
 11
45.933276658
 21
114.95375
  0
LINE
  8
0
 62
7
  6
CONTINUOUS
 10
51.880776658
 20
114.95375
 11
52.283276658
 21
114.95375
  0
LINE
  8
0
 62
7
  6
CONTINUOUS
 10
58.230776658
 20
114.95375
 11
58.633276658
 21
114.95375
  0
LINE
  8
0
 62
7
  6
CONTINUOUS
 10
64.580776658
 20
114.95375
 11
64.983276658
 21
114.95375
  0
LINE
  8
0
 62
7
  6
CONTINUOUS
 10
98.1082766581
 20
114.95375
 11
98.508276658
 21
114.95375
  0
LINE
  8
DEFAULT_1
 62
2
  6
CENTER
 10
34.008276658
 20
116.95375
 11
110.723276658
 21
116.95375
  0
LINE
  8
0
 62
7
  6
CONTINUOUS
 10
73.860776658
 20
114.95375
 11
73.458276658
 21
114.95375
  0
LINE
  8
0
 62
7
  6
CONTINUOUS
 10
80.210776658
 20
114.95375
 11
79.808276658
 21
114.95375
  0
LINE
  8
0
 62
7
  6
CONTINUOUS
 10
86.560776658
 20
114.95375
 11
86.158276658
 21
114.95375
  0
LINE
  8
0
 62
7
  6
CONTINUOUS
 10
92.910776658
 20
114.95375
 11
92.508276658
 21
114.95375
  0
LINE
  8
0
 62
7
  6
CONTINUOUS
 10
105.610776658
 20
114.95375
 11
105.208276658
 21
114.95375
  0
LINE
  8
0
 62
7
  6
CONTINUOUS
 10
73.508276658
 20
117.6183251311
 11
73.508276658
 21
120.95375
  0
LINE
  8
0
 62
7
  6
CONTINUOUS
 10
73.858276658
 20
114.9537500003
 11
73.858276658
 21
119.9568862075
  0
LINE
  8
0
 62
7
  6
CONTINUOUS
 10
73.860776658
 20
113.3537500001
 11
73.860776658
 21
114.95375
  0
LINE
  8
0
 62
7
  6
CONTINUOUS
 10
77.283276658
 20
113.75375
 11
77.285776658
 21
113.7090985723
  0
LINE
  8
0
 62
7
  6
CONTINUOUS
 10
77.283276658
 20
113.75375
 11
77.283276658
 21
119.9568862075
  0
LINE
  8
0
 62
7
  6
CONTINUOUS
 10
77.633276658
 20
117.6183251311
 11
77.633276658
 21
120.95375
  0
LINE
  8
0
 62
7
  6
CONTINUOUS
 10
33.193276658
 20
121.35375
 11
108.423276658
 21
121.35375
  0
LINE
  8
0
 62
7
  6
CONTINUOUS
 10
79.858276658
 20
117.6183251311
 11
79.858276658
 21
120.95375
  0
LINE
  8
0
 62
7
  6
CONTINUOUS
 10
80.208276658
 20
114.9537500003
 11
80.208276658
 21
119.9568862075
  0
LINE
  8
0
 62
7
  6
CONTINUOUS
 10
80.210776658
 20
113.3537500001
 11
80.210776658
 21
114.95375
  0
LINE
  8
0
 62
7
  6
CONTINUOUS
 10
77.685776658
 20
114.4204166667
 11
77.683276658
 21
114.4101455873
  0
POLYLINE
  8
0
 62
7
  6
CONTINUOUS
 66
1
 70
0
  0
VERTEX
  8
0
 62
7
  6
CONTINUOUS
 10
77.683276658
 20
114.4101455872
  0
VERTEX
  8
0
 62
7
  6
CONTINUOUS
 10
77.6786997808
 20
114.3983118823
  0
VERTEX
  8
0
 62
7
  6
CONTINUOUS
 10
77.6575769164
 20
114.3736443356
  0
VERTEX
  8
0
 62
7
  6
CONTINUOUS
 10
77.6209107666
 20
114.3512776651
  0
VERTEX
  8
0
 62
7
  6
CONTINUOUS
 10
77.5705419571
 20
114.3342877233
  0
VERTEX
  8
0
 62
7
  6
CONTINUOUS
 10
77.507161711
 20
114.3253709947
  0
VERTEX
  8
0
 62
7
  6
CONTINUOUS
 10
77.4333394745
 20
114.3279064351
  0
VERTEX
  8
0
 62
7
  6
CONTINUOUS
 10
77.3970025699
 20
114.3334733802
  0
VERTEX
  8
0
 62
7
  6
CONTINUOUS
 10
77.3397296783
 20
114.344830506
  0
VERTEX
  8
0
 62
7
  6
CONTINUOUS
 10
77.3076839971
 20
114.3402471403
  0
VERTEX
  8
0
 62
7
  6
CONTINUOUS
 10
77.2925767579
 20
114.3025609625
  0
VERTEX
  8
0
 62
7
  6
CONTINUOUS
 10
77.2874418518
 20
114.2321763562
  0
VERTEX
  8
0
 62
7
  6
CONTINUOUS
 10
77.2859288305
 20
114.1382242844
  0
VERTEX
  8
0
 62
7
  6
CONTINUOUS
 10
77.285776658
 20
113.3537500001
  0
SEQEND
  0
LINE
  8
0
 62
7
  6
CONTINUOUS
 10
83.633276658
 20
113.75375
 11
83.635776658
 21
113.7090985723
  0
LINE
  8
0
 62
7
  6
CONTINUOUS
 10
83.633276658
 20
113.75375
 11
83.633276658
 21
119.9568862075
  0
LINE
  8
0
 62
7
  6
CONTINUOUS
 10
83.983276658
 20
117.6183251311
 11
83.983276658
 21
120.95375
  0
LINE
  8
0
 62
7
  6
CONTINUOUS
 10
84.035776658
 20
114.4204166667
 11
84.033276658
 21
114.4101455873
  0
POLYLINE
  8
0
 62
7
  6
CONTINUOUS
 66
1
 70
0
  0
VERTEX
  8
0
 62
7
  6
CONTINUOUS
 10
84.033276658
 20
114.4101455873
  0
VERTEX
  8
0
 62
7
  6
CONTINUOUS
 10
84.0286997808
 20
114.3983118823
  0
VERTEX
  8
0
 62
7
  6
CONTINUOUS
 10
84.0075769164
 20
114.3736443356
  0
VERTEX
  8
0
 62
7
  6
CONTINUOUS
 10
83.9709107666
 20
114.3512776651
  0
VERTEX
  8
0
 62
7
  6
CONTINUOUS
 10
83.9205419571
 20
114.3342877233
  0
VERTEX
  8
0
 62
7
  6
CONTINUOUS
 10
83.8571617111
 20
114.3253709947
  0
VERTEX
  8
0
 62
7
  6
CONTINUOUS
 10
83.7833394745
 20
114.3279064351
  0
VERTEX
  8
0
 62
7
  6
CONTINUOUS
 10
83.74700257
 20
114.3334733802
  0
VERTEX
  8
0
 62
7
  6
CONTINUOUS
 10
83.6897296783
 20
114.344830506
  0
VERTEX
  8
0
 62
7
  6
CONTINUOUS
 10
83.6576839971
 20
114.3402471403
  0
VERTEX
  8
0
 62
7
  6
CONTINUOUS
 10
83.6425767579
 20
114.3025609625
  0
VERTEX
  8
0
 62
7
  6
CONTINUOUS
 10
83.6374418518
 20
114.2321763562
  0
VERTEX
  8
0
 62
7
  6
CONTINUOUS
 10
83.6359288305
 20
114.1382242844
  0
VERTEX
  8
0
 62
7
  6
CONTINUOUS
 10
83.635776658
 20
113.3537500001
  0
SEQEND
  0
LINE
  8
0
 62
7
  6
CONTINUOUS
 10
86.208276658
 20
117.6183251311
 11
86.208276658
 21
120.95375
  0
LINE
  8
0
 62
7
  6
CONTINUOUS
 10
86.558276658
 20
114.9537500003
 11
86.558276658
 21
119.9568862075
  0
LINE
  8
0
 62
7
  6
CONTINUOUS
 10
86.560776658
 20
113.3537500001
 11
86.560776658
 21
114.95375
  0
LINE
  8
0
 62
7
  6
CONTINUOUS
 10
89.983276658
 20
113.75375
 11
89.985776658
 21
113.7090985723
  0
LINE
  8
0
 62
7
  6
CONTINUOUS
 10
89.983276658
 20
113.75375
 11
89.983276658
 21
119.9568862075
  0
LINE
  8
0
 62
7
  6
CONTINUOUS
 10
90.333276658
 20
117.6183251311
 11
90.333276658
 21
120.95375
  0
LINE
  8
0
 62
7
  6
CONTINUOUS
 10
90.385776658
 20
114.4204166667
 11
90.383276658
 21
114.4101455873
  0
POLYLINE
  8
0
 62
7
  6
CONTINUOUS
 66
1
 70
0
  0
VERTEX
  8
0
 62
7
  6
CONTINUOUS
 10
90.383276658
 20
114.4101455872
  0
VERTEX
  8
0
 62
7
  6
CONTINUOUS
 10
90.3786997808
 20
114.3983118823
  0
VERTEX
  8
0
 62
7
  6
CONTINUOUS
 10
90.3575769164
 20
114.3736443356
  0
VERTEX
  8
0
 62
7
  6
CONTINUOUS
 10
90.3209107665
 20
114.3512776651
  0
VERTEX
  8
0
 62
7
  6
CONTINUOUS
 10
90.270541957
 20
114.3342877233
  0
VERTEX
  8
0
 62
7
  6
CONTINUOUS
 10
90.207161711
 20
114.3253709947
  0
VERTEX
  8
0
 62
7
  6
CONTINUOUS
 10
90.1333394745
 20
114.3279064351
  0
VERTEX
  8
0
 62
7
  6
CONTINUOUS
 10
90.0970025699
 20
114.3334733802
  0
VERTEX
  8
0
 62
7
  6
CONTINUOUS
 10
90.0397296782
 20
114.344830506
  0
VERTEX
  8
0
 62
7
  6
CONTINUOUS
 10
90.0076839971
 20
114.3402471403
  0
VERTEX
  8
0
 62
7
  6
CONTINUOUS
 10
89.9925767579
 20
114.3025609625
  0
VERTEX
  8
0
 62
7
  6
CONTINUOUS
 10
89.9874418518
 20
114.2321763562
  0
VERTEX
  8
0
 62
7
  6
CONTINUOUS
 10
89.9859288305
 20
114.1382242844
  0
VERTEX
  8
0
 62
7
  6
CONTINUOUS
 10
89.985776658
 20
113.3537500001
  0
SEQEND
  0
POLYLINE
  8
0
 62
7
  6
CONTINUOUS
 66
1
 70
0
  0
VERTEX
  8
0
 62
7
  6
CONTINUOUS
 10
98.9699091251
 20
113.6905320571
  0
VERTEX
  8
0
 62
7
  6
CONTINUOUS
 10
99.0829255344
 20
113.5689298081
  0
VERTEX
  8
0
 62
7
  6
CONTINUOUS
 10
99.135436335
 20
113.5116112772
  0
VERTEX
  8
0
 62
7
  6
CONTINUOUS
 10
99.1826971288
 20
113.4589583383
  0
VERTEX
  8
0
 62
7
  6
CONTINUOUS
 10
99.2221277805
 20
113.4132359423
  0
VERTEX
  8
0
 62
7
  6
CONTINUOUS
 10
99.2499881021
 20
113.3776651058
  0
VERTEX
  8
0
 62
7
  6
CONTINUOUS
 10
99.260776658
 20
113.3568885573
  0
SEQEND
  0
LINE
  8
0
 62
7
  6
CONTINUOUS
 10
98.913276658
 20
113.7517925456
 11
98.9699091251
 21
113.6905320571
  0
LINE
  8
0
 62
7
  6
CONTINUOUS
 10
92.558276658
 20
117.6183251311
 11
92.558276658
 21
120.95375
  0
LINE
  8
0
 62
7
  6
CONTINUOUS
 10
92.908276658
 20
114.9537500003
 11
92.908276658
 21
119.9568862075
  0
LINE
  8
0
 62
7
  6
CONTINUOUS
 10
92.910776658
 20
113.3537500001
 11
92.910776658
 21
114.95375
  0
LINE
  8
0
 62
7
  6
CONTINUOUS
 10
98.9119355984
 20
113.75375
 11
98.913276658
 21
113.7517925456
  0
LINE
  8
0
 62
7
  6
CONTINUOUS
 10
96.333276658
 20
113.75375
 11
96.335776658
 21
113.7090985723
  0
LINE
  8
0
 62
7
  6
CONTINUOUS
 10
96.333276658
 20
113.75375
 11
96.333276658
 21
119.9568862075
  0
POLYLINE
  8
0
 62
7
  6
CONTINUOUS
 66
1
 70
0
  0
VERTEX
  8
0
 62
7
  6
CONTINUOUS
 10
96.733276658
 20
114.4101455873
  0
VERTEX
  8
0
 62
7
  6
CONTINUOUS
 10
96.7286997808
 20
114.3983118823
  0
VERTEX
  8
0
 62
7
  6
CONTINUOUS
 10
96.7075769164
 20
114.3736443356
  0
VERTEX
  8
0
 62
7
  6
CONTINUOUS
 10
96.6709107665
 20
114.3512776651
  0
VERTEX
  8
0
 62
7
  6
CONTINUOUS
 10
96.620541957
 20
114.3342877233
  0
VERTEX
  8
0
 62
7
  6
CONTINUOUS
 10
96.557161711
 20
114.3253709947
  0
VERTEX
  8
0
 62
7
  6
CONTINUOUS
 10
96.4833394745
 20
114.3279064351
  0
VERTEX
  8
0
 62
7
  6
CONTINUOUS
 10
96.4470025699
 20
114.3334733802
  0
VERTEX
  8
0
 62
7
  6
CONTINUOUS
 10
96.3897296783
 20
114.344830506
  0
VERTEX
  8
0
 62
7
  6
CONTINUOUS
 10
96.3576839971
 20
114.3402471403
  0
VERTEX
  8
0
 62
7
  6
CONTINUOUS
 10
96.3425767579
 20
114.3025609625
  0
VERTEX
  8
0
 62
7
  6
CONTINUOUS
 10
96.3374418518
 20
114.2321763562
  0
VERTEX
  8
0
 62
7
  6
CONTINUOUS
 10
96.3359288305
 20
114.1382242844
  0
VERTEX
  8
0
 62
7
  6
CONTINUOUS
 10
96.335776658
 20
113.3537500001
  0
SEQEND
  0
LINE
  8
0
 62
7
  6
CONTINUOUS
 10
96.683276658
 20
117.6183251311
 11
96.683276658
 21
120.95375
  0
LINE
  8
0
 62
7
  6
CONTINUOUS
 10
98.508276658
 20
113.3037500001
 11
98.508276658
 21
120.95375
  0
LINE
  8
0
 62
7
  6
CONTINUOUS
 10
96.735776658
 20
114.4204166667
 11
96.733276658
 21
114.4101455873
  0
LINE
  8
0
 62
7
  6
CONTINUOUS
 10
99.260776658
 20
113.35375
 11
99.260776658
 21
113.3568885573
  0
LINE
  8
0
 62
7
  6
CONTINUOUS
 10
101.383276658
 20
116.6601574031
 11
101.383276658
 21
121.3535449039
  0
LINE
  8
0
 62
7
  6
CONTINUOUS
 10
102.683276658
 20
113.75375
 11
102.685776658
 21
113.7090985723
  0
LINE
  8
0
 62
7
  6
CONTINUOUS
 10
102.683276658
 20
113.75375
 11
102.683276658
 21
119.9568862075
  0
LINE
  8
0
 62
7
  6
CONTINUOUS
 10
103.033276658
 20
117.6183251311
 11
103.033276658
 21
120.95375
  0
LINE
  8
0
 62
7
  6
CONTINUOUS
 10
103.085776658
 20
114.4204166667
 11
103.083276658
 21
114.4101455873
  0
POLYLINE
  8
0
 62
7
  6
CONTINUOUS
 66
1
 70
0
  0
VERTEX
  8
0
 62
7
  6
CONTINUOUS
 10
103.083276658
 20
114.4101455873
  0
VERTEX
  8
0
 62
7
  6
CONTINUOUS
 10
103.0786997808
 20
114.3983118823
  0
VERTEX
  8
0
 62
7
  6
CONTINUOUS
 10
103.0575769164
 20
114.3736443356
  0
VERTEX
  8
0
 62
7
  6
CONTINUOUS
 10
103.0209107666
 20
114.3512776651
  0
VERTEX
  8
0
 62
7
  6
CONTINUOUS
 10
102.9705419571
 20
114.3342877233
  0
VERTEX
  8
0
 62
7
  6
CONTINUOUS
 10
102.9071617111
 20
114.3253709947
  0
VERTEX
  8
0
 62
7
  6
CONTINUOUS
 10
102.8333394745
 20
114.3279064351
  0
VERTEX
  8
0
 62
7
  6
CONTINUOUS
 10
102.79700257
 20
114.3334733802
  0
VERTEX
  8
0
 62
7
  6
CONTINUOUS
 10
102.7397296783
 20
114.344830506
  0
VERTEX
  8
0
 62
7
  6
CONTINUOUS
 10
102.7076839971
 20
114.3402471403
  0
VERTEX
  8
0
 62
7
  6
CONTINUOUS
 10
102.6925767579
 20
114.3025609625
  0
VERTEX
  8
0
 62
7
  6
CONTINUOUS
 10
102.6874418518
 20
114.2321763562
  0
VERTEX
  8
0
 62
7
  6
CONTINUOUS
 10
102.6859288305
 20
114.1382242844
  0
VERTEX
  8
0
 62
7
  6
CONTINUOUS
 10
102.685776658
 20
113.3537500001
  0
SEQEND
  0
LINE
  8
0
 62
7
  6
CONTINUOUS
 10
105.258276658
 20
117.6183251311
 11
105.258276658
 21
120.95375
  0
LINE
  8
0
 62
7
  6
CONTINUOUS
 10
105.608276658
 20
114.9537500003
 11
105.608276658
 21
119.9568862075
  0
LINE
  8
0
 62
7
  6
CONTINUOUS
 10
105.610776658
 20
113.5764068731
 11
105.610776658
 21
114.95375
  0
LINE
  8
0
 62
7
  6
CONTINUOUS
 10
107.223276658
 20
121.35375
 11
107.223276658
 21
117.3023273389
  0
LINE
  8
0
 62
7
  6
CONTINUOUS
 10
108.723276658
 20
121.05375
 11
108.723276658
 21
114.020284866
  0
LINE
  8
DEFAULT_1
 62
2
  6
CENTER
 10
157.274375
 20
166.4900978997
 11
156.9905167323
 21
166.4900978997
  0
LINE
  8
0
 62
2
  6
CONTINUOUS
 10
153.754375
 20
166.4900978997
 11
151.994375
 21
166.4900978997
  0
LINE
  8
DEFAULT_1
 62
2
  6
CENTER
 10
148.474375
 20
166.4900978997
 11
148.7582332677
 21
166.4900978997
  0
LINE
  8
0
 62
7
  6
CONTINUOUS
 10
156.074375
 20
170.6378663158
 11
156.076006225
 21
170.6378718006
  0
LINE
  8
0
 62
7
  6
CONTINUOUS
 10
148.874375
 20
171.7900978997
 11
152.474375
 21
171.7900978997
  0
LINE
  8
0
 62
7
  6
CONTINUOUS
 10
148.474375
 20
165.9900978997
 11
148.474375
 21
172.6587669828
  0
LINE
  8
0
 62
7
  6
CONTINUOUS
 10
148.474375
 20
185.7214288165
 11
148.474375
 21
192.3900978997
  0
LINE
  8
0
 62
7
  6
CONTINUOUS
 10
148.4799396982
 20
185.6592651386
 11
149.0063920325
 21
182.7423092574
  0
LINE
  8
0
 62
7
  6
CONTINUOUS
 10
149.0063920325
 20
175.6378865419
 11
148.4799396982
 21
172.7209306608
  0
LINE
  8
DEFAULT_1
 62
2
  6
CENTER
 10
152.874375
 20
196.2900978997
 11
152.874375
 21
196.006239632
  0
LINE
  8
0
 62
2
  6
CONTINUOUS
 10
152.874375
 20
192.7700978997
 11
152.874375
 21
191.0100978997
  0
LINE
  8
DEFAULT_1
 62
2
  6
CENTER
 10
152.874375
 20
170.8900978997
 11
152.874375
 21
170.606239632
  0
LINE
  8
0
 62
2
  6
CONTINUOUS
 10
152.874375
 20
167.3700978997
 11
152.874375
 21
165.6100978997
  0
LINE
  8
DEFAULT_1
 62
2
  6
CENTER
 10
152.874375
 20
162.0900978997
 11
152.874375
 21
162.3739561674
  0
LINE
  8
DEFAULT_1
 62
2
  6
CENTER
 10
152.874375
 20
187.4900978997
 11
152.874375
 21
187.7739561674
  0
LINE
  8
0
 62
7
  6
CONTINUOUS
 10
154.874375
 20
162.7901027823
 11
154.874375
 21
163.3068163267
  0
POLYLINE
  8
0
 62
7
  6
CONTINUOUS
 66
1
 70
0
  0
VERTEX
  8
0
 62
7
  6
CONTINUOUS
 10
156.3567636628
 20
193.3195834401
  0
VERTEX
  8
0
 62
7
  6
CONTINUOUS
 10
156.3542758056
 20
193.3472626408
  0
VERTEX
  8
0
 62
7
  6
CONTINUOUS
 10
156.350779399
 20
193.3721916576
  0
VERTEX
  8
0
 62
7
  6
CONTINUOUS
 10
156.3447851806
 20
193.400006805
  0
SEQEND
  0
POLYLINE
  8
0
 62
7
  6
CONTINUOUS
 66
1
 70
0
  0
VERTEX
  8
0
 62
7
  6
CONTINUOUS
 10
156.3634167984
 20
193.1217665268
  0
VERTEX
  8
0
 62
7
  6
CONTINUOUS
 10
156.3625206739
 20
193.1694363861
  0
VERTEX
  8
0
 62
7
  6
CONTINUOUS
 10
156.3614445201
 20
193.2132382433
  0
VERTEX
  8
0
 62
7
  6
CONTINUOUS
 10
156.3601582964
 20
193.253125769
  0
VERTEX
  8
0
 62
7
  6
CONTINUOUS
 10
156.3586295309
 20
193.2885569278
  0
VERTEX
  8
0
 62
7
  6
CONTINUOUS
 10
156.3567636628
 20
193.3195834401
  0
SEQEND
  0
LINE
  8
0
 62
7
  6
CONTINUOUS
 10
156.3647334999
 20
193.0153046026
 11
156.3634167984
 21
193.1217665268
  0
LINE
  8
0
 62
7
  6
CONTINUOUS
 10
156.3670199938
 20
188.2054055592
 11
156.3661997459
 21
188.2787474209
  0
LINE
  8
0
 62
7
  6
CONTINUOUS
 10
156.3657104362
 20
192.8319595408
 11
156.3647334999
 21
193.0153046026
  0
LINE
  8
0
 62
7
  6
CONTINUOUS
 10
156.3661997459
 20
188.2787474209
 11
156.3659043754
 21
188.3576151186
  0
LINE
  8
0
 62
7
  6
CONTINUOUS
 10
156.0743749999
 20
165.9900978997
 11
156.074375
 21
170.0865017552
  0
LINE
  8
0
 62
7
  6
CONTINUOUS
 10
156.3657104362
 20
192.8319595408
 11
156.3659042864
 21
188.3576151186
  0
LINE
  8
0
 62
7
  6
CONTINUOUS
 10
156.8743749999
 20
167.0099018024
 11
156.874375
 21
191.3702939969
  0
POLYLINE
  8
0
 62
7
  6
CONTINUOUS
 66
1
 70
0
  0
VERTEX
  8
0
 62
7
  6
CONTINUOUS
 10
156.4730358728
 20
173.436215555
  0
VERTEX
  8
0
 62
7
  6
CONTINUOUS
 10
156.4733875455
 20
173.5655777174
  0
VERTEX
  8
0
 62
7
  6
CONTINUOUS
 10
156.474090027
 20
173.6949012669
  0
VERTEX
  8
0
 62
7
  6
CONTINUOUS
 10
156.474375
 20
187.4727833199
  0
SEQEND
  0
LINE
  8
0
 62
7
  6
CONTINUOUS
 10
156.7375824291
 20
166.6133449689
 11
156.7382135397
 21
173.084717202
  0
LINE
  8
0
 62
7
  6
CONTINUOUS
 10
156.7361983873
 20
166.3613426963
 11
156.7375824291
 21
166.6133449689
  0
POLYLINE
  8
0
 62
7
  6
CONTINUOUS
 66
1
 70
0
  0
VERTEX
  8
0
 62
7
  6
CONTINUOUS
 10
156.7382135468
 20
173.084717202
  0
VERTEX
  8
0
 62
7
  6
CONTINUOUS
 10
156.7414159387
 20
173.5154374397
  0
VERTEX
  8
0
 62
7
  6
CONTINUOUS
 10
156.7510231497
 20
173.942016553
  0
SEQEND
  0
LINE
  8
0
 62
7
  6
CONTINUOUS
 10
156.7340235302
 20
166.1591341757
 11
156.7361983873
 21
166.3613426963
  0
LINE
  8
0
 62
7
  6
CONTINUOUS
 10
156.7321511736
 20
166.048020032
 11
156.7340235302
 21
166.1591341757
  0
POLYLINE
  8
0
 62
7
  6
CONTINUOUS
 66
1
 70
0
  0
VERTEX
  8
0
 62
7
  6
CONTINUOUS
 10
156.8627476422
 20
177.8981941102
  0
VERTEX
  8
0
 62
7
  6
CONTINUOUS
 10
156.8690633129
 20
178.2157924238
  0
VERTEX
  8
0
 62
7
  6
CONTINUOUS
 10
156.873088279
 20
178.5543725754
  0
VERTEX
  8
0
 62
7
  6
CONTINUOUS
 10
156.8743749997
 20
178.8834773924
  0
SEQEND
  0
POLYLINE
  8
0
 62
7
  6
CONTINUOUS
 66
1
 70
0
  0
VERTEX
  8
0
 62
7
  6
CONTINUOUS
 10
156.7510231506
 20
173.9420168384
  0
VERTEX
  8
0
 62
7
  6
CONTINUOUS
 10
156.8132975496
 20
176.0551510619
  0
VERTEX
  8
0
 62
7
  6
CONTINUOUS
 10
156.8627480804
 20
177.8981935082
  0
SEQEND
  0
LINE
  8
0
 62
7
  6
CONTINUOUS
 10
156.4743720107
 20
174.8851608806
 11
156.4724465567
 21
174.8244371042
  0
POLYLINE
  8
0
 62
7
  6
CONTINUOUS
 66
1
 70
0
  0
VERTEX
  8
0
 62
7
  6
CONTINUOUS
 10
156.7199115788
 20
165.738729534
  0
VERTEX
  8
0
 62
7
  6
CONTINUOUS
 10
156.7221519498
 20
165.7670905416
  0
VERTEX
  8
0
 62
7
  6
CONTINUOUS
 10
156.7240762659
 20
165.7985400265
  0
VERTEX
  8
0
 62
7
  6
CONTINUOUS
 10
156.7257712325
 20
165.8328134365
  0
VERTEX
  8
0
 62
7
  6
CONTINUOUS
 10
156.7272908378
 20
165.8698409252
  0
VERTEX
  8
0
 62
7
  6
CONTINUOUS
 10
156.7286668112
 20
165.9095985217
  0
VERTEX
  8
0
 62
7
  6
CONTINUOUS
 10
156.7299207653
 20
165.9521598071
  0
VERTEX
  8
0
 62
7
  6
CONTINUOUS
 10
156.7321511736
 20
166.048020032
  0
SEQEND
  0
POLYLINE
  8
0
 62
7
  6
CONTINUOUS
 66
1
 70
0
  0
VERTEX
  8
0
 62
7
  6
CONTINUOUS
 10
156.3803827795
 20
187.8373457379
  0
VERTEX
  8
0
 62
7
  6
CONTINUOUS
 10
156.4157304171
 20
187.756668187
  0
VERTEX
  8
0
 62
7
  6
CONTINUOUS
 10
156.457413611
 20
187.6208586559
  0
VERTEX
  8
0
 62
7
  6
CONTINUOUS
 10
156.474375
 20
187.4727833198
  0
SEQEND
  0
POLYLINE
  8
0
 62
7
  6
CONTINUOUS
 66
1
 70
0
  0
VERTEX
  8
0
 62
7
  6
CONTINUOUS
 10
156.4137577566
 20
187.539522776
  0
VERTEX
  8
0
 62
7
  6
CONTINUOUS
 10
156.413776633
 20
187.5394627367
  0
VERTEX
  8
0
 62
7
  6
CONTINUOUS
 10
156.4114211866
 20
187.5490358115
  0
VERTEX
  8
0
 62
7
  6
CONTINUOUS
 10
156.4062356993
 20
187.5760507188
  0
VERTEX
  8
0
 62
7
  6
CONTINUOUS
 10
156.3999039832
 20
187.6184973713
  0
VERTEX
  8
0
 62
7
  6
CONTINUOUS
 10
156.3965918754
 20
187.6450589909
  0
VERTEX
  8
0
 62
7
  6
CONTINUOUS
 10
156.3899968529
 20
187.7083304326
  0
VERTEX
  8
0
 62
7
  6
CONTINUOUS
 10
156.3836997853
 20
187.7851202213
  0
VERTEX
  8
0
 62
7
  6
CONTINUOUS
 10
156.3780154054
 20
187.8746195145
  0
VERTEX
  8
0
 62
7
  6
CONTINUOUS
 10
156.3732094988
 20
187.9755444428
  0
VERTEX
  8
0
 62
7
  6
CONTINUOUS
 10
156.3694909976
 20
188.0863618949
  0
VERTEX
  8
0
 62
7
  6
CONTINUOUS
 10
156.3670199938
 20
188.2054055592
  0
SEQEND
  0
POLYLINE
  8
0
 62
7
  6
CONTINUOUS
 66
1
 70
0
  0
VERTEX
  8
0
 62
7
  6
CONTINUOUS
 10
156.7106650271
 20
165.6779847679
  0
VERTEX
  8
0
 62
7
  6
CONTINUOUS
 10
156.7134431729
 20
165.6904307625
  0
VERTEX
  8
0
 62
7
  6
CONTINUOUS
 10
156.7171556176
 20
165.7134155331
  0
VERTEX
  8
0
 62
7
  6
CONTINUOUS
 10
156.7199115788
 20
165.738729534
  0
SEQEND
  0
POLYLINE
  8
0
 62
7
  6
CONTINUOUS
 66
1
 70
0
  0
VERTEX
  8
0
 62
7
  6
CONTINUOUS
 10
156.2517181269
 20
170.3084059343
  0
VERTEX
  8
0
 62
7
  6
CONTINUOUS
 10
156.223746359
 20
170.2640658963
  0
VERTEX
  8
0
 62
7
  6
CONTINUOUS
 10
156.199050507
 20
170.2261112092
  0
VERTEX
  8
0
 62
7
  6
CONTINUOUS
 10
156.1759243912
 20
170.1916956178
  0
VERTEX
  8
0
 62
7
  6
CONTINUOUS
 10
156.1554720968
 20
170.1624800471
  0
VERTEX
  8
0
 62
7
  6
CONTINUOUS
 10
156.1377196231
 20
170.1385519999
  0
VERTEX
  8
0
 62
7
  6
CONTINUOUS
 10
156.1218757702
 20
170.1190422981
  0
VERTEX
  8
0
 62
7
  6
CONTINUOUS
 10
156.1066625765
 20
170.1030551205
  0
VERTEX
  8
0
 62
7
  6
CONTINUOUS
 10
156.0912354336
 20
170.0913755283
  0
VERTEX
  8
0
 62
7
  6
CONTINUOUS
 10
156.074375
 20
170.0865017552
  0
SEQEND
  0
POLYLINE
  8
0
 62
7
  6
CONTINUOUS
 66
1
 70
0
  0
VERTEX
  8
0
 62
7
  6
CONTINUOUS
 10
156.2517181269
 20
170.3084059343
  0
VERTEX
  8
0
 62
7
  6
CONTINUOUS
 10
156.2763555019
 20
170.3446463178
  0
VERTEX
  8
0
 62
7
  6
CONTINUOUS
 10
156.3225309588
 20
170.4005486383
  0
VERTEX
  8
0
 62
7
  6
CONTINUOUS
 10
156.3426656824
 20
170.4221772401
  0
VERTEX
  8
0
 62
7
  6
CONTINUOUS
 10
156.3764513648
 20
170.4564203248
  0
VERTEX
  8
0
 62
7
  6
CONTINUOUS
 10
156.3901958444
 20
170.46972389
  0
SEQEND
  0
POLYLINE
  8
0
 62
7
  6
CONTINUOUS
 66
1
 70
0
  0
VERTEX
  8
0
 62
7
  6
CONTINUOUS
 10
156.3901958444
 20
170.46972389
  0
VERTEX
  8
0
 62
7
  6
CONTINUOUS
 10
156.4243198729
 20
170.5080492312
  0
VERTEX
  8
0
 62
7
  6
CONTINUOUS
 10
156.4366257487
 20
170.5275348061
  0
VERTEX
  8
0
 62
7
  6
CONTINUOUS
 10
156.450432498
 20
170.5668619748
  0
SEQEND
  0
LINE
  8
DEFAULT_1
 62
2
  6
CENTER
 10
157.274375
 20
191.8900978997
 11
156.9905167323
 21
191.8900978997
  0
LINE
  8
0
 62
2
  6
CONTINUOUS
 10
153.754375
 20
191.8900978997
 11
151.994375
 21
191.8900978997
  0
LINE
  8
DEFAULT_1
 62
2
  6
CENTER
 10
148.474375
 20
191.8900978997
 11
148.7582332677
 21
191.8900978997
  0
LINE
  8
0
 62
7
  6
CONTINUOUS
 10
155.1143749999
 20
163.5425685331
 11
154.874375
 21
163.3068163267
  0
ARC
  8
0
 62
7
  6
CONTINUOUS
 10
41.930776658
 20
173.084717202
 40
3.0
 50
164.424215024
 51
180.0
  0
ARC
  8
0
 62
7
  6
CONTINUOUS
 10
48.280776658
 20
173.084717202
 40
3.0
 50
164.424215024
 51
180.0
  0
ARC
  8
0
 62
7
  6
CONTINUOUS
 10
54.630776658
 20
173.084717202
 40
3.0
 50
164.424215024
 51
180.0
  0
ARC
  8
0
 62
7
  6
CONTINUOUS
 10
60.980776658
 20
173.084717202
 40
3.0
 50
164.424215024
 51
180.0
  0
ARC
  8
0
 62
7
  6
CONTINUOUS
 10
67.330776658
 20
173.084717202
 40
3.0
 50
164.424215024
 51
180.0
  0
ARC
  8
0
 62
7
  6
CONTINUOUS
 10
42.703276658
 20
170.2328685361
 40
0.405
 50
0.0
 51
89.8102785291
  0
ARC
  8
0
 62
7
  6
CONTINUOUS
 10
43.508276658
 20
162.3900978997
 40
0.4
 50
180.0
 51
270.0
  0
ARC
  8
0
 62
7
  6
CONTINUOUS
 10
42.705776658
 20
170.987864397
 40
0.35
 50
180.0
 51
269.8102785291
  0
ARC
  8
0
 62
7
  6
CONTINUOUS
 10
36.180776658
 20
185.2954785973
 40
3.0
 50
344.424215024
 51
360.0
  0
ARC
  8
0
 62
7
  6
CONTINUOUS
 10
42.530776658
 20
185.2954785973
 40
3.0
 50
344.424215024
 51
360.0
  0
ARC
  8
0
 62
7
  6
CONTINUOUS
 10
48.880776658
 20
185.2954785973
 40
3.0
 50
344.424215024
 51
360.0
  0
ARC
  8
0
 62
7
  6
CONTINUOUS
 10
55.230776658
 20
185.2954785973
 40
3.0
 50
344.424215024
 51
360.0
  0
ARC
  8
0
 62
7
  6
CONTINUOUS
 10
61.580776658
 20
185.2954785973
 40
3.0
 50
344.424215024
 51
360.0
  0
ARC
  8
0
 62
7
  6
CONTINUOUS
 10
67.935776658
 20
185.2954785973
 40
3.0
 50
344.424215024
 51
360.0
  0
ARC
  8
0
 62
7
  6
CONTINUOUS
 10
41.763276658
 20
188.147326114
 40
0.405
 50
180.0
 51
269.4308272661
  0
ARC
  8
0
 62
7
  6
CONTINUOUS
 10
40.958276658
 20
195.9900978997
 40
0.4
 50
0.0
 51
90.0
  0
ARC
  8
0
 62
7
  6
CONTINUOUS
 10
41.755776658
 20
187.3923633666
 40
0.35
 50
0.0
 51
89.4308272661
  0
ARC
  8
0
 62
7
  6
CONTINUOUS
 10
33.193276658
 20
196.0900978997
 40
0.3
 50
90.0
 51
180.0
  0
ARC
  8
0
 62
7
  6
CONTINUOUS
 10
105.435776658
 20
173.084717202
 40
3.0
 50
164.424215024
 51
180.0
  0
ARC
  8
0
 62
7
  6
CONTINUOUS
 10
80.035776658
 20
173.084717202
 40
3.0
 50
164.424215024
 51
180.0
  0
ARC
  8
0
 62
7
  6
CONTINUOUS
 10
86.385776658
 20
173.084717202
 40
3.0
 50
164.424215024
 51
180.0
  0
ARC
  8
0
 62
7
  6
CONTINUOUS
 10
92.735776658
 20
173.084717202
 40
3.0
 50
164.424215024
 51
180.0
  0
ARC
  8
0
 62
7
  6
CONTINUOUS
 10
99.085776658
 20
173.084717202
 40
3.0
 50
164.424215024
 51
180.0
  0
ARC
  8
0
 62
7
  6
CONTINUOUS
 10
73.680776658
 20
173.084717202
 40
3.0
 50
164.424215024
 51
180.0
  0
ARC
  8
0
 62
7
  6
CONTINUOUS
 10
99.853276658
 20
170.2328696853
 40
0.405
 50
0.0
 51
89.4308272661
  0
ARC
  8
0
 62
7
  6
CONTINUOUS
 10
100.658276658
 20
162.3900978997
 40
0.4
 50
180.0
 51
270.0
  0
ARC
  8
0
 62
7
  6
CONTINUOUS
 10
99.860776658
 20
170.9878324327
 40
0.35
 50
180.0
 51
269.4308272661
  0
ARC
  8
0
 62
7
  6
CONTINUOUS
 10
108.423276658
 20
162.2900978997
 40
0.3
 50
270.0
 51
360.0
  0
ARC
  8
0
 62
7
  6
CONTINUOUS
 10
74.285776658
 20
185.2954785973
 40
3.0
 50
344.424215024
 51
360.0
  0
ARC
  8
0
 62
7
  6
CONTINUOUS
 10
80.635776658
 20
185.2954785973
 40
3.0
 50
344.424215024
 51
360.0
  0
ARC
  8
0
 62
7
  6
CONTINUOUS
 10
86.985776658
 20
185.2954785973
 40
3.0
 50
344.424215024
 51
360.0
  0
ARC
  8
0
 62
7
  6
CONTINUOUS
 10
93.335776658
 20
185.2954785973
 40
3.0
 50
344.424215024
 51
360.0
  0
ARC
  8
0
 62
7
  6
CONTINUOUS
 10
99.685776658
 20
185.2954785973
 40
3.0
 50
344.424215024
 51
360.0
  0
ARC
  8
0
 62
7
  6
CONTINUOUS
 10
98.913276658
 20
188.1473272632
 40
0.405
 50
180.0
 51
269.8102785291
  0
ARC
  8
0
 62
7
  6
CONTINUOUS
 10
98.108276658
 20
195.9900978997
 40
0.4
 50
0.0
 51
90.0
  0
ARC
  8
0
 62
7
  6
CONTINUOUS
 10
98.910776658
 20
187.3923314023
 40
0.35
 50
0.0
 51
89.8102785291
  0
ARC
  8
0
 62
7
  6
CONTINUOUS
 10
39.580776658
 20
113.3537500001
 40
0.4
 50
180.0000000039
 51
227.0307731408
  0
ARC
  8
0
 62
7
  6
CONTINUOUS
 10
36.4103118925
 20
113.65375
 40
0.3
 50
263.5
 51
270.0
  0
ARC
  8
0
 62
7
  6
CONTINUOUS
 10
33.193276658
 20
114.0202848664
 40
0.3
 50
180.0000000651
 51
263.4999999885
  0
ARC
  8
0
 62
7
  6
CONTINUOUS
 10
35.458276658
 20
113.7622207136
 40
0.3
 50
263.5
 51
360.0
  0
ARC
  8
0
 62
7
  6
CONTINUOUS
 10
39.4444555317
 20
113.2074060255
 40
0.2
 50
227.0307812331
 51
263.5000100672
  0
ARC
  8
0
 62
7
  6
CONTINUOUS
 10
40.017599831
 20
114.95375
 40
2.0
 50
263.5
 51
270.0
  0
ARC
  8
0
 62
7
  6
CONTINUOUS
 10
41.705776658
 20
113.35375
 40
0.4
 50
270.0
 51
360.0
  0
ARC
  8
0
 62
7
  6
CONTINUOUS
 10
45.930776658
 20
113.3537500001
 40
0.4
 50
180.0000000039
 51
270.0
  0
ARC
  8
0
 62
7
  6
CONTINUOUS
 10
48.055776658
 20
113.3537500001
 40
0.4
 50
270.0
 51
359.9999999961
  0
ARC
  8
0
 62
7
  6
CONTINUOUS
 10
41.008276658
 20
113.30375
 40
0.35
 50
270.0
 51
360.0
  0
ARC
  8
0
 62
7
  6
CONTINUOUS
 10
35.358276658
 20
116.9568873033
 40
0.4
 50
0.0
 51
55.7711336722
  0
ARC
  8
0
 62
7
  6
CONTINUOUS
 10
48.058276658
 20
116.9568873033
 40
0.4
 50
0.0
 51
55.7711336722
  0
ARC
  8
0
 62
7
  6
CONTINUOUS
 10
39.583276658
 20
116.9568873033
 40
0.4
 50
124.2288663278
 51
180.0
  0
ARC
  8
0
 62
7
  6
CONTINUOUS
 10
45.933276658
 20
116.9568873033
 40
0.4
 50
124.2288663278
 51
180.0
  0
ARC
  8
0
 62
7
  6
CONTINUOUS
 10
52.280776658
 20
113.3537500001
 40
0.4
 50
180.0000000039
 51
270.0
  0
ARC
  8
0
 62
7
  6
CONTINUOUS
 10
54.405776658
 20
113.3537500001
 40
0.4
 50
270.0
 51
359.9999999961
  0
ARC
  8
0
 62
7
  6
CONTINUOUS
 10
58.630776658
 20
113.3537500001
 40
0.4
 50
180.0000000039
 51
270.0
  0
ARC
  8
0
 62
7
  6
CONTINUOUS
 10
60.755776658
 20
113.3537500001
 40
0.4
 50
270.0
 51
359.9999999961
  0
ARC
  8
0
 62
7
  6
CONTINUOUS
 10
64.980776658
 20
113.3537500001
 40
0.4
 50
180.0000000039
 51
270.0
  0
ARC
  8
0
 62
7
  6
CONTINUOUS
 10
67.105776658
 20
113.3537500001
 40
0.4
 50
270.0
 51
359.9999999961
  0
ARC
  8
0
 62
7
  6
CONTINUOUS
 10
54.408276658
 20
116.9568873033
 40
0.4
 50
0.0
 51
55.7711336722
  0
ARC
  8
0
 62
7
  6
CONTINUOUS
 10
60.758276658
 20
116.9568873033
 40
0.4
 50
0.0
 51
55.7711336722
  0
ARC
  8
0
 62
7
  6
CONTINUOUS
 10
52.283276658
 20
116.9568873033
 40
0.4
 50
124.2288663278
 51
180.0
  0
ARC
  8
0
 62
7
  6
CONTINUOUS
 10
58.633276658
 20
116.9568873033
 40
0.4
 50
124.2288663278
 51
180.0
  0
ARC
  8
0
 62
7
  6
CONTINUOUS
 10
64.983276658
 20
116.9568873033
 40
0.4
 50
124.2288663278
 51
180.0
  0
ARC
  8
0
 62
7
  6
CONTINUOUS
 10
67.108276658
 20
116.9568873033
 40
0.4
 50
0.0
 51
55.7711336722
  0
ARC
  8
0
 62
7
  6
CONTINUOUS
 10
35.808276658
 20
117.6183251311
 40
0.4
 50
180.0000000001
 51
235.7711336722
  0
ARC
  8
0
 62
7
  6
CONTINUOUS
 10
39.133276658
 20
117.6183251311
 40
0.4
 50
304.2288663278
 51
359.9999999999
  0
ARC
  8
0
 62
7
  6
CONTINUOUS
 10
45.483276658
 20
117.6183251311
 40
0.4
 50
304.2288663278
 51
359.9999999999
  0
ARC
  8
0
 62
7
  6
CONTINUOUS
 10
48.508276658
 20
117.6183251311
 40
0.4
 50
180.0000000001
 51
235.7711336722
  0
ARC
  8
0
 62
7
  6
CONTINUOUS
 10
35.358276658
 20
119.9568873033
 40
0.4
 50
0.0
 51
55.7711336722
  0
ARC
  8
0
 62
7
  6
CONTINUOUS
 10
39.583276658
 20
119.9568873033
 40
0.4
 50
124.2288663278
 51
180.0
  0
ARC
  8
0
 62
7
  6
CONTINUOUS
 10
35.808276658
 20
120.6183251311
 40
0.4
 50
180.0
 51
235.7711336722
  0
ARC
  8
0
 62
7
  6
CONTINUOUS
 10
39.133276658
 20
120.6183251311
 40
0.4
 50
304.2288663278
 51
360.0
  0
ARC
  8
0
 62
7
  6
CONTINUOUS
 10
39.933276658
 20
120.95375
 40
0.4
 50
90.0
 51
180.0
  0
ARC
  8
0
 62
7
  6
CONTINUOUS
 10
35.008276658
 20
120.95375
 40
0.4
 50
0.0
 51
90.0
  0
ARC
  8
0
 62
7
  6
CONTINUOUS
 10
33.193276658
 20
121.05375
 40
0.3
 50
90.0
 51
180.0
  0
ARC
  8
0
 62
7
  6
CONTINUOUS
 10
48.058276658
 20
119.9568873033
 40
0.4
 50
0.0
 51
55.7711336722
  0
ARC
  8
0
 62
7
  6
CONTINUOUS
 10
45.933276658
 20
119.9568873033
 40
0.4
 50
124.2288663278
 51
180.0
  0
ARC
  8
0
 62
7
  6
CONTINUOUS
 10
45.483276658
 20
120.6183251311
 40
0.4
 50
304.2288663278
 51
360.0
  0
ARC
  8
0
 62
7
  6
CONTINUOUS
 10
48.508276658
 20
120.6183251311
 40
0.4
 50
180.0
 51
235.7711336722
  0
ARC
  8
0
 62
7
  6
CONTINUOUS
 10
47.708276658
 20
120.95375
 40
0.4
 50
0.0
 51
90.0
  0
ARC
  8
0
 62
7
  6
CONTINUOUS
 10
46.283276658
 20
120.95375
 40
0.4
 50
90.0
 51
180.0
  0
ARC
  8
0
 62
7
  6
CONTINUOUS
 10
40.958276658
 20
120.95375
 40
0.4
 50
0.0
 51
90.0
  0
ARC
  8
0
 62
7
  6
CONTINUOUS
 10
51.833276658
 20
117.6183251311
 40
0.4
 50
304.2288663278
 51
359.9999999999
  0
ARC
  8
0
 62
7
  6
CONTINUOUS
 10
54.858276658
 20
117.6183251311
 40
0.4
 50
180.0000000001
 51
235.7711336722
  0
ARC
  8
0
 62
7
  6
CONTINUOUS
 10
58.183276658
 20
117.6183251311
 40
0.4
 50
304.2288663278
 51
359.9999999999
  0
ARC
  8
0
 62
7
  6
CONTINUOUS
 10
61.208276658
 20
117.6183251311
 40
0.4
 50
180.0000000001
 51
235.7711336722
  0
ARC
  8
0
 62
7
  6
CONTINUOUS
 10
64.533276658
 20
117.6183251311
 40
0.4
 50
304.2288663278
 51
359.9999999999
  0
ARC
  8
0
 62
7
  6
CONTINUOUS
 10
67.558276658
 20
117.6183251311
 40
0.4
 50
180.0000000001
 51
235.7711336722
  0
ARC
  8
0
 62
7
  6
CONTINUOUS
 10
51.833276658
 20
120.6183251311
 40
0.4
 50
304.2288663278
 51
360.0
  0
ARC
  8
0
 62
7
  6
CONTINUOUS
 10
54.858276658
 20
120.6183251311
 40
0.4
 50
180.0
 51
235.7711336722
  0
ARC
  8
0
 62
7
  6
CONTINUOUS
 10
58.183276658
 20
120.6183251311
 40
0.4
 50
304.2288663278
 51
360.0
  0
ARC
  8
0
 62
7
  6
CONTINUOUS
 10
54.408276658
 20
119.9568873033
 40
0.4
 50
0.0
 51
55.7711336722
  0
ARC
  8
0
 62
7
  6
CONTINUOUS
 10
61.208276658
 20
120.6183251311
 40
0.4
 50
180.0
 51
235.7711336722
  0
ARC
  8
0
 62
7
  6
CONTINUOUS
 10
64.533276658
 20
120.6183251311
 40
0.4
 50
304.2288663278
 51
360.0
  0
ARC
  8
0
 62
7
  6
CONTINUOUS
 10
60.758276658
 20
119.9568873033
 40
0.4
 50
0.0
 51
55.7711336722
  0
ARC
  8
0
 62
7
  6
CONTINUOUS
 10
67.558276658
 20
120.6183251311
 40
0.4
 50
180.0
 51
235.7711336722
  0
ARC
  8
0
 62
7
  6
CONTINUOUS
 10
52.283276658
 20
119.9568873033
 40
0.4
 50
124.2288663278
 51
180.0
  0
ARC
  8
0
 62
7
  6
CONTINUOUS
 10
58.633276658
 20
119.9568873033
 40
0.4
 50
124.2288663278
 51
180.0
  0
ARC
  8
0
 62
7
  6
CONTINUOUS
 10
64.983276658
 20
119.9568873033
 40
0.4
 50
124.2288663278
 51
180.0
  0
ARC
  8
0
 62
7
  6
CONTINUOUS
 10
67.108276658
 20
119.9568873033
 40
0.4
 50
0.0
 51
55.7711336722
  0
ARC
  8
0
 62
7
  6
CONTINUOUS
 10
66.758276658
 20
120.95375
 40
0.4
 50
0.0
 51
90.0
  0
ARC
  8
0
 62
7
  6
CONTINUOUS
 10
65.333276658
 20
120.95375
 40
0.4
 50
90.0
 51
180.0
  0
ARC
  8
0
 62
7
  6
CONTINUOUS
 10
60.408276658
 20
120.95375
 40
0.4
 50
0.0
 51
90.0
  0
ARC
  8
0
 62
7
  6
CONTINUOUS
 10
58.983276658
 20
120.95375
 40
0.4
 50
90.0
 51
180.0
  0
ARC
  8
0
 62
7
  6
CONTINUOUS
 10
54.058276658
 20
120.95375
 40
0.4
 50
0.0
 51
90.0
  0
ARC
  8
0
 62
7
  6
CONTINUOUS
 10
52.633276658
 20
120.95375
 40
0.4
 50
90.0
 51
180.0
  0
ARC
  8
0
 62
7
  6
CONTINUOUS
 10
71.335776658
 20
113.3537500001
 40
0.4
 50
180.0
 51
270.0
  0
ARC
  8
0
 62
7
  6
CONTINUOUS
 10
73.460776658
 20
113.3537500001
 40
0.4
 50
270.0
 51
360.0
  0
ARC
  8
0
 62
7
  6
CONTINUOUS
 10
77.685776658
 20
113.3537500001
 40
0.4
 50
180.0
 51
270.0
  0
ARC
  8
0
 62
7
  6
CONTINUOUS
 10
79.810776658
 20
113.3537500001
 40
0.4
 50
270.0
 51
360.0
  0
ARC
  8
0
 62
7
  6
CONTINUOUS
 10
84.035776658
 20
113.3537500001
 40
0.4
 50
180.0
 51
270.0
  0
ARC
  8
0
 62
7
  6
CONTINUOUS
 10
86.160776658
 20
113.3537500001
 40
0.4
 50
270.0
 51
360.0
  0
ARC
  8
0
 62
7
  6
CONTINUOUS
 10
71.333276658
 20
116.9568873033
 40
0.4
 50
124.2288663278
 51
180.0
  0
ARC
  8
0
 62
7
  6
CONTINUOUS
 10
73.458276658
 20
116.9568873033
 40
0.4
 50
0.0
 51
55.7711336722
  0
ARC
  8
0
 62
7
  6
CONTINUOUS
 10
77.683276658
 20
116.9568873033
 40
0.4
 50
124.2288663278
 51
180.0
  0
ARC
  8
0
 62
7
  6
CONTINUOUS
 10
86.158276658
 20
116.9568873033
 40
0.4
 50
0.0
 51
55.7711336722
  0
ARC
  8
0
 62
7
  6
CONTINUOUS
 10
84.033276658
 20
116.9568873033
 40
0.4
 50
124.2288663278
 51
180.0
  0
ARC
  8
0
 62
7
  6
CONTINUOUS
 10
79.808276658
 20
116.9568873033
 40
0.4
 50
0.0
 51
55.7711336722
  0
ARC
  8
0
 62
7
  6
CONTINUOUS
 10
101.598953485
 20
114.95375
 40
2.0
 50
270.0
 51
276.5
  0
ARC
  8
0
 62
7
  6
CONTINUOUS
 10
90.385776658
 20
113.3537500001
 40
0.4
 50
180.0
 51
270.0
  0
ARC
  8
0
 62
7
  6
CONTINUOUS
 10
92.510776658
 20
113.3537500001
 40
0.4
 50
270.0
 51
360.0
  0
ARC
  8
0
 62
7
  6
CONTINUOUS
 10
96.735776658
 20
113.3537500001
 40
0.4
 50
180.0
 51
270.0
  0
ARC
  8
0
 62
7
  6
CONTINUOUS
 10
103.085776658
 20
113.3537500001
 40
0.4
 50
180.0
 51
198.6141097741
  0
ARC
  8
0
 62
7
  6
CONTINUOUS
 10
98.860776658
 20
113.35375
 40
0.4
 50
270.0
 51
359.9999999995
  0
ARC
  8
0
 62
7
  6
CONTINUOUS
 10
98.158276658
 20
113.3037500001
 40
0.35
 50
270.0
 51
360.0
  0
ARC
  8
0
 62
7
  6
CONTINUOUS
 10
108.423276658
 20
114.0202848664
 40
0.3
 50
276.5000000115
 51
359.9999999349
  0
ARC
  8
0
 62
7
  6
CONTINUOUS
 10
105.410776658
 20
113.5764068731
 40
0.2
 50
276.5
 51
360.0
  0
ARC
  8
0
 62
7
  6
CONTINUOUS
 10
102.8962386912
 20
113.2899114603
 40
0.2
 50
198.6141155204
 51
276.5
  0
ARC
  8
0
 62
7
  6
CONTINUOUS
 10
105.208276658
 20
116.9568873033
 40
0.4
 50
0.0
 51
55.7711336722
  0
ARC
  8
0
 62
7
  6
CONTINUOUS
 10
92.508276658
 20
116.9568873033
 40
0.4
 50
0.0
 51
55.7711336722
  0
ARC
  8
0
 62
7
  6
CONTINUOUS
 10
90.383276658
 20
116.9568873033
 40
0.4
 50
124.2288663278
 51
180.0
  0
ARC
  8
0
 62
7
  6
CONTINUOUS
 10
96.733276658
 20
116.9568873033
 40
0.4
 50
124.2288663278
 51
180.0
  0
ARC
  8
0
 62
7
  6
CONTINUOUS
 10
103.083276658
 20
116.9568873033
 40
0.4
 50
124.2288663278
 51
180.0
  0
ARC
  8
0
 62
7
  6
CONTINUOUS
 10
86.608276658
 20
117.6183251311
 40
0.4
 50
180.0000000001
 51
235.7711336722
  0
ARC
  8
0
 62
7
  6
CONTINUOUS
 10
83.583276658
 20
117.6183251311
 40
0.4
 50
304.2288663278
 51
359.9999999999
  0
ARC
  8
0
 62
7
  6
CONTINUOUS
 10
80.258276658
 20
117.6183251311
 40
0.4
 50
180.0000000001
 51
235.7711336723
  0
ARC
  8
0
 62
7
  6
CONTINUOUS
 10
77.233276658
 20
117.6183251311
 40
0.4
 50
304.2288663278
 51
359.9999999999
  0
ARC
  8
0
 62
7
  6
CONTINUOUS
 10
70.883276658
 20
117.6183251311
 40
0.4
 50
304.2288663278
 51
359.9999999999
  0
ARC
  8
0
 62
7
  6
CONTINUOUS
 10
73.908276658
 20
117.6183251311
 40
0.4
 50
180.0000000001
 51
235.7711336723
  0
ARC
  8
0
 62
7
  6
CONTINUOUS
 10
77.683276658
 20
119.9568873033
 40
0.4
 50
124.2288663278
 51
180.0
  0
ARC
  8
0
 62
7
  6
CONTINUOUS
 10
73.458276658
 20
119.9568873033
 40
0.4
 50
0.0
 51
55.7711336722
  0
ARC
  8
0
 62
7
  6
CONTINUOUS
 10
71.333276658
 20
119.9568873033
 40
0.4
 50
124.2288663278
 51
180.0
  0
ARC
  8
0
 62
7
  6
CONTINUOUS
 10
73.908276658
 20
120.6183251311
 40
0.4
 50
180.0
 51
235.7711336722
  0
ARC
  8
0
 62
7
  6
CONTINUOUS
 10
70.883276658
 20
120.6183251311
 40
0.4
 50
304.2288663278
 51
360.0
  0
ARC
  8
0
 62
7
  6
CONTINUOUS
 10
73.108276658
 20
120.95375
 40
0.4
 50
0.0
 51
90.0
  0
ARC
  8
0
 62
7
  6
CONTINUOUS
 10
71.683276658
 20
120.95375
 40
0.4
 50
90.0
 51
180.0
  0
ARC
  8
0
 62
7
  6
CONTINUOUS
 10
77.233276658
 20
120.6183251311
 40
0.4
 50
304.2288663278
 51
360.0
  0
ARC
  8
0
 62
7
  6
CONTINUOUS
 10
78.033276658
 20
120.95375
 40
0.4
 50
90.0
 51
180.0
  0
ARC
  8
0
 62
7
  6
CONTINUOUS
 10
86.158276658
 20
119.9568873033
 40
0.4
 50
0.0
 51
55.7711336722
  0
ARC
  8
0
 62
7
  6
CONTINUOUS
 10
79.808276658
 20
119.9568873033
 40
0.4
 50
0.0
 51
55.7711336722
  0
ARC
  8
0
 62
7
  6
CONTINUOUS
 10
84.033276658
 20
119.9568873033
 40
0.4
 50
124.2288663278
 51
180.0
  0
ARC
  8
0
 62
7
  6
CONTINUOUS
 10
80.258276658
 20
120.6183251311
 40
0.4
 50
180.0
 51
235.7711336722
  0
ARC
  8
0
 62
7
  6
CONTINUOUS
 10
79.458276658
 20
120.95375
 40
0.4
 50
0.0
 51
90.0
  0
ARC
  8
0
 62
7
  6
CONTINUOUS
 10
86.608276658
 20
120.6183251311
 40
0.4
 50
180.0
 51
235.7711336722
  0
ARC
  8
0
 62
7
  6
CONTINUOUS
 10
83.583276658
 20
120.6183251311
 40
0.4
 50
304.2288663278
 51
360.0
  0
ARC
  8
0
 62
7
  6
CONTINUOUS
 10
84.383276658
 20
120.95375
 40
0.4
 50
90.0
 51
180.0
  0
ARC
  8
0
 62
7
  6
CONTINUOUS
 10
85.808276658
 20
120.95375
 40
0.4
 50
0.0
 51
90.0
  0
ARC
  8
0
 62
7
  6
CONTINUOUS
 10
105.658276658
 20
117.6183251311
 40
0.4
 50
180.0000000001
 51
235.7711336723
  0
ARC
  8
0
 62
7
  6
CONTINUOUS
 10
102.633276658
 20
117.6183251311
 40
0.4
 50
304.2288663278
 51
359.9999999999
  0
ARC
  8
0
 62
7
  6
CONTINUOUS
 10
96.283276658
 20
117.6183251311
 40
0.4
 50
304.2288663278
 51
359.9999999999
  0
ARC
  8
0
 62
7
  6
CONTINUOUS
 10
92.958276658
 20
117.6183251311
 40
0.4
 50
180.0000000001
 51
235.7711336723
  0
ARC
  8
0
 62
7
  6
CONTINUOUS
 10
89.933276658
 20
117.6183251311
 40
0.4
 50
304.2288663278
 51
359.9999999999
  0
ARC
  8
0
 62
7
  6
CONTINUOUS
 10
92.508276658
 20
119.9568873033
 40
0.4
 50
0.0
 51
55.7711336722
  0
ARC
  8
0
 62
7
  6
CONTINUOUS
 10
96.733276658
 20
119.9568873033
 40
0.4
 50
124.2288663278
 51
180.0
  0
ARC
  8
0
 62
7
  6
CONTINUOUS
 10
90.383276658
 20
119.9568873033
 40
0.4
 50
124.2288663278
 51
180.0
  0
ARC
  8
0
 62
7
  6
CONTINUOUS
 10
92.958276658
 20
120.6183251311
 40
0.4
 50
180.0
 51
235.7711336722
  0
ARC
  8
0
 62
7
  6
CONTINUOUS
 10
89.933276658
 20
120.6183251311
 40
0.4
 50
304.2288663278
 51
360.0
  0
ARC
  8
0
 62
7
  6
CONTINUOUS
 10
90.733276658
 20
120.95375
 40
0.4
 50
90.0
 51
180.0
  0
ARC
  8
0
 62
7
  6
CONTINUOUS
 10
92.158276658
 20
120.95375
 40
0.4
 50
0.0
 51
90.0
  0
ARC
  8
0
 62
7
  6
CONTINUOUS
 10
96.283276658
 20
120.6183251311
 40
0.4
 50
304.2288663278
 51
360.0
  0
ARC
  8
0
 62
7
  6
CONTINUOUS
 10
97.083276658
 20
120.95375
 40
0.4
 50
90.0
 51
180.0
  0
ARC
  8
0
 62
7
  6
CONTINUOUS
 10
98.108276658
 20
120.95375
 40
0.4
 50
0.0
 51
90.0
  0
ARC
  8
0
 62
7
  6
CONTINUOUS
 10
105.208276658
 20
119.9568873033
 40
0.4
 50
0.0
 51
55.7711336722
  0
ARC
  8
0
 62
7
  6
CONTINUOUS
 10
103.083276658
 20
119.9568873033
 40
0.4
 50
124.2288663278
 51
180.0
  0
ARC
  8
0
 62
7
  6
CONTINUOUS
 10
105.658276658
 20
120.6183251311
 40
0.4
 50
180.0
 51
235.7711336722
  0
ARC
  8
0
 62
7
  6
CONTINUOUS
 10
102.633276658
 20
120.6183251311
 40
0.4
 50
304.2288663278
 51
360.0
  0
ARC
  8
0
 62
7
  6
CONTINUOUS
 10
103.433276658
 20
120.95375
 40
0.4
 50
90.0
 51
180.0
  0
ARC
  8
0
 62
7
  6
CONTINUOUS
 10
104.858276658
 20
120.95375
 40
0.4
 50
0.0
 51
90.0
  0
ARC
  8
0
 62
7
  6
CONTINUOUS
 10
108.423276658
 20
121.05375
 40
0.3
 50
0.0
 51
90.0
  0
ARC
  8
0
 62
7
  6
CONTINUOUS
 10
129.324375
 20
179.1900978997
 40
20.0
 50
349.7693870305
 51
10.2306129695
  0
ARC
  8
0
 62
7
  6
CONTINUOUS
 10
151.3743749999
 20
167.0099018024
 40
5.5
 50
317.1665719339
 51
359.9999999999
  0
ARC
  8
0
 62
7
  6
CONTINUOUS
 10
148.874375
 20
172.1900978997
 40
0.4
 50
180.0
 51
270.0
  0
ARC
  8
0
 62
7
  6
CONTINUOUS
 10
148.824375
 20
172.6587669828
 40
0.35
 50
169.7693870305
 51
180.0
  0
ARC
  8
0
 62
7
  6
CONTINUOUS
 10
152.474375
 20
165.9900978997
 40
5.8
 50
54.5040673497
 51
90.0
  0
ARC
  8
0
 62
7
  6
CONTINUOUS
 10
152.4743749999
 20
165.9900978997
 40
4.0
 50
180.0
 51
317.1665719339
  0
ARC
  8
0
 62
7
  6
CONTINUOUS
 10
152.4743749999
 20
165.9900978997
 40
3.6
 50
317.1665719339
 51
359.9999999999
  0
CIRCLE
  8
0
 62
7
  6
CONTINUOUS
 10
152.874375
 20
166.4900978997
 40
2.1161417323
  0
ARC
  8
0
 62
7
  6
CONTINUOUS
 10
156.074375
 20
171.0378696853
 40
0.4
 50
234.5040673498
 51
274.9452733185
  0
ARC
  8
0
 62
7
  6
CONTINUOUS
 10
148.824375
 20
185.7214288165
 40
0.35
 50
180.0
 51
190.2306129695
  0
ARC
  8
0
 62
7
  6
CONTINUOUS
 10
151.3743749999
 20
191.3702939969
 40
5.5
 50
0.0
 51
42.8334280647
  0
ARC
  8
0
 62
7
  6
CONTINUOUS
 10
156.074375
 20
187.3423280937
 40
0.3999991695
 50
359.9997164338
 51
35.6718115757
  0
ARC
  8
0
 62
7
  6
CONTINUOUS
 10
152.474375
 20
192.3900978997
 40
4.0
 50
14.6238295379
 51
180.0
  0
CIRCLE
  8
0
 62
7
  6
CONTINUOUS
 10
152.874375
 20
191.8900978997
 40
2.1161417323
  0
ENDSEC
  0
EOF
