  0
SECTION
  2
HEADER
  9
$EXTMAX
 10
210.0
 20
297.0
 30
0.0
  9
$EXTMIN
 10
0.0
 20
0.0
 30
0.0
  9
$LIMMIN
 10
0.0
 20
0.0
  9
$LIMMAX
 10
210.0
 20
297.0
  9
$VIEWCTR
 10
105.0
 20
148.5
  9
$VIEWSIZE
 40
297.0
  9
$CLAYER
  8
0
  9
$LTSCALE
 40
19.36
  9
$CELTYPE
  6
BYLAYER
  9
$DIMSCALE
 40
1.0
  9
$DIMASZ
 40
3.5
  9
$DIMEXO
 40
1.0
  9
$DIMDLI
 40
13.376
  9
$DIMEXE
 40
2.0
  9
$DIMCEN
 40
3.168
  9
$DIMLFAC
 40
1.0
  9
$DIMBLK
  1
_FILLED
  9
$DIMTXT
 40
3.5
  9
$PDMODE
 70
3
  9
$PDSIZE
 40
0.3125
  9
$TILEMODE
 70
1
  0
ENDSEC
  0
SECTION
  2
TABLES
  0
TABLE
  2
LTYPE
 70
6
  0
LTYPE
  2
BYBLOCK
 70
0
  3

 72
65
 73
0
 40
0.0
  0
LTYPE
  2
BYLAYER
 70
0
  3

 72
65
 73
0
 40
0.0
  0
LTYPE
  2
CONTINUOUS
 70
64
  3
Solid line
 72
65
 73
0
 40
0.0
  0
LTYPE
  2
CENTER
 70
64
  3
____ _ ____ _ ____ _ ____ _ ____ _ ____ _ ____
 72
65
 73
4
 40
0.6
 49
0.375
 49
-0.075
 49
0.075
 49
-0.075
  0
LTYPE
  2
HIDDEN
 70
64
  3
- - - - - - - - - - - - - - - - - - - -
 72
65
 73
2
 40
0.2
 49
0.1
 49
-0.1
  0
LTYPE
  2
PHANTOM
 70
64
  3
_____ _ _ _____ _ _ _____ _ _ _____
 72
65
 73
6
 40
0.8
 49
0.45
 49
-0.05
 49
0.1
 49
-0.05
 49
0.1
 49
-0.05
  0
LTYPE
  2
DOT
 70
64
  3
. . . . . . . . . . . . . . . . . . . .
 72
65
 73
2
 40
0.2
 49
0.1
 49
-0.1
  0
LTYPE
  2
DASHED
 70
64
  3
- - - - - - - - - - - - - - - - - - - -
 72
65
 73
2
 40
0.2
 49
0.1
 49
-0.1
  0
ENDTAB
  0
TABLE
  2
LAYER
 70
36
  0
LAYER
  2
0
 70
0
 62
7
  6
CONTINUOUS
  0
LAYER
  2
DEFAULT_1
 70
0
 62
7
  6
CENTER
  0
LAYER
  2
DEFAULT_2
 70
0
 62
8
  6
HIDDEN
  0
LAYER
  2
DEFAULT_3
 70
0
 62
7
  6
PHANTOM
  0
LAYER
  2
BLANK_LUKKEFLADE
 70
0
 62
7
  6
CONTINUOUS
  0
LAYER
  2
BLANK_QUILTS
 70
0
 62
7
  6
CONTINUOUS
  0
LAYER
  2
BLANK_UDST_PLACERING
 70
0
 62
7
  6
CONTINUOUS
  0
ENDTAB
  0
TABLE
  2
STYLE
 70
1
  0
STYLE
  2
STANDARD
 70
0
 40
0.0
 41
0.8
 50
0.0
 71
0
 42
0.2
  3
txt
  4

  0
STYLE
  2
TEXTSTYLE_1
 70
0
 40
0.0
 41
0.8
 50
0.0
 71
0
 42
0.2
  3
gdt
  4

  0
STYLE
  2
TEXTSTYLE_2
 70
0
 40
0.0
 41
0.6
 50
0.0
 71
0
 42
0.2
  3
txt
  4

  0
STYLE
  2
TEXTSTYLE_3
 70
0
 40
0.0
 41
1.0
 50
0.0
 71
0
 42
0.2
  3
ftb_____.ttf
  4

  0
STYLE
  2
TEXTSTYLE_4
 70
0
 40
0.0
 41
1.0
 50
0.0
 71
0
 42
0.2
  3
fti_____.ttf
  4

  0
STYLE
  2
TEXTSTYLE_5
 70
0
 40
0.0
 41
1.0
 50
0.0
 71
0
 42
0.2
  3
frutiger light.ttf
  4

  0
STYLE
  2
TEXTSTYLE_6
 70
0
 40
0.0
 41
0.7
 50
0.0
 71
0
 42
0.2
  3
txt
  4

  0
STYLE
  2
TEXTSTYLE_7
 70
0
 40
0.0
 41
0.8
 50
0.0
 71
0
 42
0.2
  3
txt
  4

  0
ENDTAB
  0
ENDSEC
  0
SECTION
  2
BLOCKS
  0
BLOCK
  8
0
 62
2
  6
CONTINUOUS
  2
SYMBOL_8_BL1
 70
64
 10
173.5956734183
 20
35.5937998301
  0
TEXT
  8
0
 62
7
  6
CONTINUOUS
 10
164.6539584268
 20
30.6865562072
  7
TEXTSTYLE_4
 40
1.0655737705
  1
The brand for plastic modular belts and chains
 41
1.0
 72
0
  0
LINE
  8
0
 62
7
  6
CONTINUOUS
 10
149.5737418074
 20
36.1675703219
 11
149.5737418074
 21
34.0364227809
  0
LINE
  8
0
 62
7
  6
CONTINUOUS
 10
149.8628043005
 20
31.0454914852
 11
149.8628043005
 21
31.1422825445
  0
LINE
  8
0
 62
7
  6
CONTINUOUS
 10
149.5737418074
 20
31.1100188581
 11
149.6315543091
 21
30.9164367395
  0
LINE
  8
0
 62
7
  6
CONTINUOUS
 10
150.9671844304
 20
33.9544555678
 11
150.9671844304
 21
36.1675703219
  0
LINE
  8
0
 62
7
  6
CONTINUOUS
 10
151.8862417523
 20
32.1101932727
 11
151.8862417523
 21
30.5937998301
  0
LINE
  8
0
 62
7
  6
CONTINUOUS
 10
152.1753043074
 20
30.5937998301
 11
152.1753043074
 21
31.3358647082
  0
LINE
  8
0
 62
7
  6
CONTINUOUS
 10
152.1753043074
 20
31.4649194539
 11
152.1753043074
 21
32.1101932727
  0
LINE
  8
0
 62
7
  6
CONTINUOUS
 10
149.6315543091
 20
31.3036010218
 11
149.5737418074
 21
31.1100188581
  0
LINE
  8
0
 62
7
  6
CONTINUOUS
 10
149.9784292936
 20
30.8841730531
 11
149.8628043005
 21
31.0454914852
  0
LINE
  8
0
 62
7
  6
CONTINUOUS
 10
151.0768668626
 20
31.400392081
 11
151.1346793074
 21
31.3036010218
  0
LINE
  8
0
 62
7
  6
CONTINUOUS
 10
151.4237418626
 20
31.3036010218
 11
151.3659292523
 21
31.4326557675
  0
LINE
  8
0
 62
7
  6
CONTINUOUS
 10
152.852430332
 20
36.1675703219
 11
152.852430332
 21
34.3642916334
  0
LINE
  8
0
 62
7
  6
CONTINUOUS
 10
152.852430332
 20
33.0528162235
 11
152.852430332
 21
32.3970785186
  0
LINE
  8
0
 62
7
  6
CONTINUOUS
 10
153.2159293074
 20
31.2390736489
 11
153.2159293074
 21
30.5937998301
  0
LINE
  8
0
 62
7
  6
CONTINUOUS
 10
153.5049916972
 20
30.5937998301
 11
153.5049916972
 21
31.2390736489
  0
LINE
  8
0
 62
7
  6
CONTINUOUS
 10
149.8628043005
 20
31.1422825445
 11
149.9206168074
 21
31.2713373354
  0
LINE
  8
0
 62
7
  6
CONTINUOUS
 10
149.6315543091
 20
30.9164367395
 11
149.7471793074
 21
30.7873819712
  0
LINE
  8
0
 62
7
  6
CONTINUOUS
 10
153.1581166972
 20
31.3681283946
 11
153.2159293074
 21
31.2390736489
  0
LINE
  8
0
 62
7
  6
CONTINUOUS
 10
153.9674919177
 20
30.8841730531
 11
154.0253041972
 21
30.7551182848
  0
LINE
  8
0
 62
7
  6
CONTINUOUS
 10
153.5049916972
 20
31.2390736489
 11
153.4471794177
 21
31.400392081
  0
LINE
  8
0
 62
7
  6
CONTINUOUS
 10
153.9674919177
 20
31.4326557675
 11
153.9674919177
 21
31.3681283946
  0
LINE
  8
0
 62
7
  6
CONTINUOUS
 10
153.9674919177
 20
30.9809641124
 11
153.9674919177
 21
30.8841730531
  0
LINE
  8
0
 62
7
  6
CONTINUOUS
 10
154.245872955
 20
32.3970785186
 11
154.245872955
 21
36.1675703219
  0
LINE
  8
0
 62
7
  6
CONTINUOUS
 10
154.2565543074
 20
30.8519093441
 11
154.2565543074
 21
30.9164367395
  0
LINE
  8
0
 62
7
  6
CONTINUOUS
 10
154.5737418074
 20
36.1675703219
 11
154.5737418074
 21
32.3970785186
  0
LINE
  8
0
 62
7
  6
CONTINUOUS
 10
151.3659292523
 20
30.7873819712
 11
151.4237418626
 21
30.9164367395
  0
LINE
  8
0
 62
7
  6
CONTINUOUS
 10
155.759679528
 20
30.6905909007
 11
155.7018665869
 21
30.8519093441
  0
LINE
  8
0
 62
7
  6
CONTINUOUS
 10
155.412804528
 20
31.3681283946
 11
155.412804528
 21
31.2713373354
  0
LINE
  8
0
 62
7
  6
CONTINUOUS
 10
155.412804528
 20
31.1422825445
 11
155.412804528
 21
30.9487004259
  0
LINE
  8
0
 62
7
  6
CONTINUOUS
 10
155.7018665869
 20
30.8519093441
 11
155.7018665869
 21
31.3681283946
  0
LINE
  8
0
 62
7
  6
CONTINUOUS
 10
155.9671844304
 20
32.3970785186
 11
155.9671844304
 21
34.2003572071
  0
LINE
  8
0
 62
7
  6
CONTINUOUS
 10
155.9671844304
 20
35.511832617
 11
155.9671844304
 21
36.1675703219
  0
LINE
  8
0
 62
7
  6
CONTINUOUS
 10
156.279992028
 20
32.1101932727
 11
156.279992028
 21
31.9488748406
  0
LINE
  8
0
 62
7
  6
CONTINUOUS
 10
156.279992028
 20
31.626237886
 11
156.279992028
 21
30.5937998301
  0
LINE
  8
0
 62
7
  6
CONTINUOUS
 10
156.5690540869
 20
30.5937998301
 11
156.5690540869
 21
31.626237886
  0
LINE
  8
0
 62
7
  6
CONTINUOUS
 10
156.5690540869
 20
31.9488748406
 11
156.5690540869
 21
32.1101932727
  0
LINE
  8
0
 62
7
  6
CONTINUOUS
 10
151.1346793074
 20
30.9164367395
 11
151.0768668626
 21
30.8196456577
  0
LINE
  8
0
 62
7
  6
CONTINUOUS
 10
153.4471794177
 20
31.400392081
 11
153.3893668074
 21
31.4649194539
  0
LINE
  8
0
 62
7
  6
CONTINUOUS
 10
154.3143669177
 20
30.7873819712
 11
154.2565543074
 21
30.8519093441
  0
LINE
  8
0
 62
7
  6
CONTINUOUS
 10
155.4706168074
 20
30.6583272086
 11
155.5284290869
 21
30.5937998301
  0
LINE
  8
0
 62
7
  6
CONTINUOUS
 10
155.412804528
 20
30.7551182848
 11
155.4706168074
 21
30.6583272086
  0
LINE
  8
0
 62
7
  6
CONTINUOUS
 10
155.8174918074
 20
30.5937998301
 11
155.759679528
 21
30.6905909007
  0
LINE
  8
0
 62
7
  6
CONTINUOUS
 10
155.7018665869
 20
31.3681283946
 11
155.6440543074
 21
31.4649194539
  0
LINE
  8
0
 62
7
  6
CONTINUOUS
 10
157.0315543074
 20
31.626237886
 11
157.0315543074
 21
30.5937998301
  0
LINE
  8
0
 62
7
  6
CONTINUOUS
 10
157.320617028
 20
30.5937998301
 11
157.320617028
 21
31.3358647082
  0
LINE
  8
0
 62
7
  6
CONTINUOUS
 10
157.320617028
 20
31.4649194539
 11
157.320617028
 21
31.626237886
  0
LINE
  8
0
 62
7
  6
CONTINUOUS
 10
157.852430332
 20
34.6101932727
 11
157.852430332
 21
32.3970785186
  0
LINE
  8
0
 62
7
  6
CONTINUOUS
 10
149.7471793074
 20
31.4326557675
 11
149.6315543091
 21
31.3036010218
  0
LINE
  8
0
 62
7
  6
CONTINUOUS
 10
149.9206168074
 20
31.2713373354
 11
149.9784292936
 21
31.3358647082
  0
LINE
  8
0
 62
7
  6
CONTINUOUS
 10
149.7471793074
 20
30.7873819712
 11
149.8628043005
 21
30.7228545871
  0
LINE
  8
0
 62
7
  6
CONTINUOUS
 10
150.1518667936
 20
30.7873819712
 11
149.9784292936
 21
30.8841730531
  0
LINE
  8
0
 62
7
  6
CONTINUOUS
 10
155.3549915869
 20
31.4326557675
 11
155.412804528
 21
31.3681283946
  0
LINE
  8
0
 62
7
  6
CONTINUOUS
 10
158.3034290869
 20
31.3681283946
 11
158.361242028
 21
31.2068099625
  0
LINE
  8
0
 62
7
  6
CONTINUOUS
 10
158.6503040869
 20
31.2068099625
 11
158.5924918074
 21
31.3681283946
  0
LINE
  8
0
 62
7
  6
CONTINUOUS
 10
158.361242028
 20
31.2068099625
 11
158.361242028
 21
30.5937998301
  0
LINE
  8
0
 62
7
  6
CONTINUOUS
 10
158.6503040869
 20
30.5937998301
 11
158.6503040869
 21
31.2068099625
  0
LINE
  8
0
 62
7
  6
CONTINUOUS
 10
159.1128043074
 20
31.4326557675
 11
159.1128043074
 21
31.3681283946
  0
LINE
  8
0
 62
7
  6
CONTINUOUS
 10
159.245872955
 20
32.3970785186
 11
159.245872955
 21
34.5282260596
  0
LINE
  8
0
 62
7
  6
CONTINUOUS
 10
159.5737418074
 20
36.1675703219
 11
159.5737418074
 21
32.3970785186
  0
LINE
  8
0
 62
7
  6
CONTINUOUS
 10
154.2565543074
 20
30.9164367395
 11
154.3143669177
 21
31.0132277988
  0
LINE
  8
0
 62
7
  6
CONTINUOUS
 10
149.8628043005
 20
30.7228545871
 11
150.0362418212
 21
30.6583272086
  0
LINE
  8
0
 62
7
  6
CONTINUOUS
 10
151.3659292523
 20
31.4326557675
 11
151.1924917523
 21
31.5294468267
  0
LINE
  8
0
 62
7
  6
CONTINUOUS
 10
154.0253041972
 20
30.7551182848
 11
154.1987416972
 21
30.6583272086
  0
LINE
  8
0
 62
7
  6
CONTINUOUS
 10
153.0424918074
 20
31.4326557675
 11
153.1581166972
 21
31.3681283946
  0
LINE
  8
0
 62
7
  6
CONTINUOUS
 10
153.3893668074
 20
31.4649194539
 11
153.2737419177
 21
31.5294468267
  0
LINE
  8
0
 62
7
  6
CONTINUOUS
 10
159.1128043074
 20
30.8519093441
 11
159.228429528
 21
30.7228545871
  0
LINE
  8
0
 62
7
  6
CONTINUOUS
 10
159.4596793074
 20
30.7873819712
 11
159.401867028
 21
30.8519093441
  0
LINE
  8
0
 62
7
  6
CONTINUOUS
 10
159.1128043074
 20
31.3681283946
 11
159.228429528
 21
31.2390736489
  0
LINE
  8
0
 62
7
  6
CONTINUOUS
 10
158.5924918074
 20
31.3681283946
 11
158.534679528
 21
31.4649194539
  0
LINE
  8
0
 62
7
  6
CONTINUOUS
 10
160.9628038663
 20
30.7873819712
 11
160.9628038663
 21
30.8519093441
  0
LINE
  8
0
 62
7
  6
CONTINUOUS
 10
160.9671844304
 20
32.3970785186
 11
160.9671844304
 21
36.1675703219
  0
LINE
  8
0
 62
7
  6
CONTINUOUS
 10
154.0253041972
 20
31.4971831403
 11
153.9674919177
 21
31.4326557675
  0
LINE
  8
0
 62
7
  6
CONTINUOUS
 10
150.9034292799
 20
31.4649194539
 11
151.0768668626
 21
31.400392081
  0
LINE
  8
0
 62
7
  6
CONTINUOUS
 10
155.6440543074
 20
31.4649194539
 11
155.5284290869
 21
31.5294468267
  0
LINE
  8
0
 62
7
  6
CONTINUOUS
 10
159.4596793074
 20
31.3036010218
 11
159.401867028
 21
31.3681283946
  0
LINE
  8
0
 62
7
  6
CONTINUOUS
 10
160.615929528
 20
30.9164367395
 11
160.6737418074
 21
30.8519093441
  0
LINE
  8
0
 62
7
  6
CONTINUOUS
 10
160.9628038663
 20
30.8519093441
 11
160.8471793074
 21
30.9809641124
  0
LINE
  8
0
 62
7
  6
CONTINUOUS
 10
160.615929528
 20
31.4326557675
 11
160.6737418074
 21
31.3681283946
  0
LINE
  8
0
 62
7
  6
CONTINUOUS
 10
160.9628038663
 20
31.3681283946
 11
160.8471793074
 21
31.4971831403
  0
LINE
  8
0
 62
7
  6
CONTINUOUS
 10
154.2565543074
 20
31.3681283946
 11
154.3143669177
 21
31.4326557675
  0
LINE
  8
0
 62
7
  6
CONTINUOUS
 10
154.0831168074
 20
31.1100188581
 11
153.9674919177
 21
30.9809641124
  0
LINE
  8
0
 62
7
  6
CONTINUOUS
 10
155.412804528
 20
30.9487004259
 11
155.3549915869
 21
30.8841730531
  0
LINE
  8
0
 62
7
  6
CONTINUOUS
 10
155.3549915869
 20
30.6905909007
 11
155.412804528
 21
30.7551182848
  0
LINE
  8
0
 62
7
  6
CONTINUOUS
 10
154.1987416972
 20
30.6583272086
 11
154.3143669177
 21
30.6260635193
  0
LINE
  8
0
 62
7
  6
CONTINUOUS
 10
151.1924917523
 20
31.5294468267
 11
150.9612418074
 21
31.5939741996
  0
LINE
  8
0
 62
7
  6
CONTINUOUS
 10
154.5456166972
 20
30.7228545871
 11
154.3143669177
 21
30.7873819712
  0
LINE
  8
0
 62
7
  6
CONTINUOUS
 10
153.2737419177
 20
31.5294468267
 11
153.1003044177
 21
31.5939741996
  0
LINE
  8
0
 62
7
  6
CONTINUOUS
 10
155.5284290869
 20
31.5294468267
 11
155.3549915869
 21
31.5939741996
  0
LINE
  8
0
 62
7
  6
CONTINUOUS
 10
158.187804528
 20
31.4326557675
 11
158.3034290869
 21
31.3681283946
  0
LINE
  8
0
 62
7
  6
CONTINUOUS
 10
158.534679528
 20
31.4649194539
 11
158.4190543074
 21
31.5294468267
  0
LINE
  8
0
 62
7
  6
CONTINUOUS
 10
150.0362418212
 20
30.6583272086
 11
150.2096793212
 21
30.6260635193
  0
LINE
  8
0
 62
7
  6
CONTINUOUS
 10
150.498741835
 20
30.7228545871
 11
150.1518667936
 21
30.7873819712
  0
LINE
  8
0
 62
7
  6
CONTINUOUS
 10
152.9268669177
 20
31.4649194539
 11
153.0424918074
 21
31.4326557675
  0
LINE
  8
0
 62
7
  6
CONTINUOUS
 10
155.239367028
 20
31.4649194539
 11
155.3549915869
 21
31.4326557675
  0
LINE
  8
0
 62
7
  6
CONTINUOUS
 10
159.575304528
 20
30.7551182848
 11
159.4596793074
 21
30.7873819712
  0
LINE
  8
0
 62
7
  6
CONTINUOUS
 10
158.0721793074
 20
31.4649194539
 11
158.187804528
 21
31.4326557675
  0
LINE
  8
0
 62
7
  6
CONTINUOUS
 10
159.228429528
 20
30.7228545871
 11
159.401867028
 21
30.6583272086
  0
LINE
  8
0
 62
7
  6
CONTINUOUS
 10
158.4190543074
 20
31.5294468267
 11
158.2456168074
 21
31.5939741996
  0
LINE
  8
0
 62
7
  6
CONTINUOUS
 10
159.6331168074
 20
31.2390736489
 11
159.4596793074
 21
31.3036010218
  0
LINE
  8
0
 62
7
  6
CONTINUOUS
 10
160.442492028
 20
30.9809641124
 11
160.615929528
 21
30.9164367395
  0
LINE
  8
0
 62
7
  6
CONTINUOUS
 10
160.8471793074
 20
31.4971831403
 11
160.6737418074
 21
31.5617105132
  0
LINE
  8
0
 62
7
  6
CONTINUOUS
 10
159.228429528
 20
31.2390736489
 11
159.4596793074
 21
31.1422825445
  0
LINE
  8
0
 62
7
  6
CONTINUOUS
 10
160.8471793074
 20
30.9809641124
 11
160.615929528
 21
31.0777551716
  0
LINE
  8
0
 62
7
  6
CONTINUOUS
 10
159.401867028
 20
31.3681283946
 11
159.4596793074
 21
31.4326557675
  0
LINE
  8
0
 62
7
  6
CONTINUOUS
 10
149.8628043005
 20
31.4971831403
 11
149.7471793074
 21
31.4326557675
  0
LINE
  8
0
 62
7
  6
CONTINUOUS
 10
149.9784292936
 20
31.3358647082
 11
150.1518667936
 21
31.4326557675
  0
LINE
  8
0
 62
7
  6
CONTINUOUS
 10
152.2909293626
 20
31.5294468267
 11
152.1753043074
 21
31.4649194539
  0
LINE
  8
0
 62
7
  6
CONTINUOUS
 10
152.1753043074
 20
31.3358647082
 11
152.2909293626
 21
31.400392081
  0
LINE
  8
0
 62
7
  6
CONTINUOUS
 10
151.1924917523
 20
30.6905909007
 11
151.3659292523
 21
30.7873819712
  0
LINE
  8
0
 62
7
  6
CONTINUOUS
 10
150.2096793212
 20
30.6260635193
 11
150.5565542799
 21
30.5937998301
  0
LINE
  8
0
 62
7
  6
CONTINUOUS
 10
154.3143669177
 20
30.6260635193
 11
154.5456166972
 21
30.5937998301
  0
LINE
  8
0
 62
7
  6
CONTINUOUS
 10
152.6956168074
 20
31.4971831403
 11
152.9268669177
 21
31.4649194539
  0
LINE
  8
0
 62
7
  6
CONTINUOUS
 10
155.0081169177
 20
31.4971831403
 11
155.239367028
 21
31.4649194539
  0
LINE
  8
0
 62
7
  6
CONTINUOUS
 10
159.4596793074
 20
31.1422825445
 11
160.442492028
 21
30.9809641124
  0
LINE
  8
0
 62
7
  6
CONTINUOUS
 10
160.615929528
 20
31.0777551716
 11
159.6331168074
 21
31.2390736489
  0
LINE
  8
0
 62
7
  6
CONTINUOUS
 10
153.1003044177
 20
31.5939741996
 11
152.9268669177
 21
31.626237886
  0
LINE
  8
0
 62
7
  6
CONTINUOUS
 10
159.401867028
 20
30.6583272086
 11
159.575304528
 21
30.6260635193
  0
LINE
  8
0
 62
7
  6
CONTINUOUS
 10
158.2456168074
 20
31.5939741996
 11
158.0721793074
 21
31.626237886
  0
LINE
  8
0
 62
7
  6
CONTINUOUS
 10
160.5003043074
 20
31.4649194539
 11
160.615929528
 21
31.4326557675
  0
LINE
  8
0
 62
7
  6
CONTINUOUS
 10
160.6737418074
 20
30.8519093441
 11
160.615929528
 21
30.7873819712
  0
LINE
  8
0
 62
7
  6
CONTINUOUS
 10
159.228429528
 20
31.5294468267
 11
159.1128043074
 21
31.4326557675
  0
LINE
  8
0
 62
7
  6
CONTINUOUS
 10
154.1409294177
 20
31.5617105132
 11
154.0253041972
 21
31.4971831403
  0
LINE
  8
0
 62
7
  6
CONTINUOUS
 10
154.1987416972
 20
31.1745462761
 11
154.0831168074
 21
31.1100188581
  0
LINE
  8
0
 62
7
  6
CONTINUOUS
 10
154.3143669177
 20
31.0132277988
 11
154.4299918074
 21
31.0777551716
  0
LINE
  8
0
 62
7
  6
CONTINUOUS
 10
151.8862417523
 20
30.5937998301
 11
152.1753043074
 21
30.5937998301
  0
LINE
  8
0
 62
7
  6
CONTINUOUS
 10
153.2159293074
 20
30.5937998301
 11
153.5049916972
 21
30.5937998301
  0
LINE
  8
0
 62
7
  6
CONTINUOUS
 10
154.5456166972
 20
30.5937998301
 11
154.8924916972
 21
30.5937998301
  0
LINE
  8
0
 62
7
  6
CONTINUOUS
 10
155.5284290869
 20
30.5937998301
 11
155.8174918074
 21
30.5937998301
  0
LINE
  8
0
 62
7
  6
CONTINUOUS
 10
156.279992028
 20
30.5937998301
 11
156.5690540869
 21
30.5937998301
  0
LINE
  8
0
 62
7
  6
CONTINUOUS
 10
157.0315543074
 20
30.5937998301
 11
157.320617028
 21
30.5937998301
  0
LINE
  8
0
 62
7
  6
CONTINUOUS
 10
158.361242028
 20
30.5937998301
 11
158.6503040869
 21
30.5937998301
  0
LINE
  8
0
 62
7
  6
CONTINUOUS
 10
159.922179528
 20
30.5937998301
 11
160.269054528
 21
30.5937998301
  0
LINE
  8
0
 62
7
  6
CONTINUOUS
 10
160.269054528
 20
30.7228545871
 11
159.922179528
 21
30.7228545871
  0
LINE
  8
0
 62
7
  6
CONTINUOUS
 10
154.8924916972
 20
30.7228545871
 11
154.5456166972
 21
30.7228545871
  0
LINE
  8
0
 62
7
  6
CONTINUOUS
 10
159.401867028
 20
30.8519093441
 11
159.1128043074
 21
30.8519093441
  0
LINE
  8
0
 62
7
  6
CONTINUOUS
 10
151.4237418626
 20
30.9164367395
 11
151.1346793074
 21
30.9164367395
  0
LINE
  8
0
 62
7
  6
CONTINUOUS
 10
150.498741835
 20
31.4971831403
 11
150.9034292799
 21
31.4649194539
  0
LINE
  8
0
 62
7
  6
CONTINUOUS
 10
150.9612418074
 20
31.5939741996
 11
150.5565542799
 21
31.626237886
  0
LINE
  8
0
 62
7
  6
CONTINUOUS
 10
159.575304528
 20
30.6260635193
 11
159.922179528
 21
30.5937998301
  0
LINE
  8
0
 62
7
  6
CONTINUOUS
 10
159.922179528
 20
30.7228545871
 11
159.575304528
 21
30.7551182848
  0
LINE
  8
0
 62
7
  6
CONTINUOUS
 10
155.3549915869
 20
31.5939741996
 11
155.0081169177
 21
31.626237886
  0
LINE
  8
0
 62
7
  6
CONTINUOUS
 10
160.1534293074
 20
31.4971831403
 11
160.5003043074
 21
31.4649194539
  0
LINE
  8
0
 62
7
  6
CONTINUOUS
 10
160.5003043074
 20
31.5939741996
 11
160.1534293074
 21
31.626237886
  0
LINE
  8
0
 62
7
  6
CONTINUOUS
 10
157.840929528
 20
31.4971831403
 11
158.0721793074
 21
31.4649194539
  0
LINE
  8
0
 62
7
  6
CONTINUOUS
 10
160.6737418074
 20
31.5617105132
 11
160.5003043074
 21
31.5939741996
  0
LINE
  8
0
 62
7
  6
CONTINUOUS
 10
160.8471793074
 20
30.6905909007
 11
160.9628038663
 21
30.7873819712
  0
LINE
  8
0
 62
7
  6
CONTINUOUS
 10
155.3549915869
 20
30.8841730531
 11
155.1815540869
 21
30.7873819712
  0
LINE
  8
0
 62
7
  6
CONTINUOUS
 10
157.4362415869
 20
31.5294468267
 11
157.320617028
 21
31.4649194539
  0
LINE
  8
0
 62
7
  6
CONTINUOUS
 10
157.320617028
 20
31.3358647082
 11
157.4362415869
 21
31.400392081
  0
LINE
  8
0
 62
7
  6
CONTINUOUS
 10
150.0362418212
 20
31.5617105132
 11
149.8628043005
 21
31.4971831403
  0
LINE
  8
0
 62
7
  6
CONTINUOUS
 10
152.4643666972
 20
31.5939741996
 11
152.2909293626
 21
31.5294468267
  0
LINE
  8
0
 62
7
  6
CONTINUOUS
 10
152.2909293626
 20
31.400392081
 11
152.4643666972
 21
31.4649194539
  0
LINE
  8
0
 62
7
  6
CONTINUOUS
 10
151.0768668626
 20
30.8196456577
 11
150.9034292799
 21
30.7551182848
  0
LINE
  8
0
 62
7
  6
CONTINUOUS
 10
160.5003043074
 20
30.7551182848
 11
160.269054528
 21
30.7228545871
  0
LINE
  8
0
 62
7
  6
CONTINUOUS
 10
154.8924916972
 20
30.5937998301
 11
155.1815540869
 21
30.6260635193
  0
LINE
  8
0
 62
7
  6
CONTINUOUS
 10
160.269054528
 20
30.5937998301
 11
160.615929528
 21
30.6260635193
  0
LINE
  8
0
 62
7
  6
CONTINUOUS
 10
150.5565542799
 20
30.5937998301
 11
150.9612418074
 21
30.6260635193
  0
LINE
  8
0
 62
7
  6
CONTINUOUS
 10
150.9034292799
 20
30.7551182848
 11
150.498741835
 21
30.7228545871
  0
LINE
  8
0
 62
7
  6
CONTINUOUS
 10
154.7768668074
 20
31.1422825445
 11
155.412804528
 21
31.1422825445
  0
LINE
  8
0
 62
7
  6
CONTINUOUS
 10
155.412804528
 20
31.2713373354
 11
154.7768668074
 21
31.2713373354
  0
LINE
  8
0
 62
7
  6
CONTINUOUS
 10
151.1346793074
 20
31.3036010218
 11
151.4237418626
 21
31.3036010218
  0
LINE
  8
0
 62
7
  6
CONTINUOUS
 10
153.9674919177
 20
31.3681283946
 11
154.2565543074
 21
31.3681283946
  0
LINE
  8
0
 62
7
  6
CONTINUOUS
 10
160.6737418074
 20
31.3681283946
 11
160.9628038663
 21
31.3681283946
  0
LINE
  8
0
 62
7
  6
CONTINUOUS
 10
154.6612419177
 20
31.4971831403
 11
155.0081169177
 21
31.4971831403
  0
LINE
  8
0
 62
7
  6
CONTINUOUS
 10
159.8065543074
 20
31.4971831403
 11
160.1534293074
 21
31.4971831403
  0
LINE
  8
0
 62
7
  6
CONTINUOUS
 10
160.1534293074
 20
31.626237886
 11
159.8065543074
 21
31.626237886
  0
LINE
  8
0
 62
7
  6
CONTINUOUS
 10
158.0721793074
 20
31.626237886
 11
157.840929528
 21
31.626237886
  0
LINE
  8
0
 62
7
  6
CONTINUOUS
 10
157.320617028
 20
31.626237886
 11
157.0315543074
 21
31.626237886
  0
LINE
  8
0
 62
7
  6
CONTINUOUS
 10
156.5690540869
 20
31.626237886
 11
156.279992028
 21
31.626237886
  0
LINE
  8
0
 62
7
  6
CONTINUOUS
 10
155.0081169177
 20
31.626237886
 11
154.6612419177
 21
31.626237886
  0
LINE
  8
0
 62
7
  6
CONTINUOUS
 10
152.9268669177
 20
31.626237886
 11
152.6956168074
 21
31.626237886
  0
LINE
  8
0
 62
7
  6
CONTINUOUS
 10
156.279992028
 20
31.9488748406
 11
156.5690540869
 21
31.9488748406
  0
LINE
  8
0
 62
7
  6
CONTINUOUS
 10
156.5690540869
 20
32.1101932727
 11
156.279992028
 21
32.1101932727
  0
LINE
  8
0
 62
7
  6
CONTINUOUS
 10
152.1753043074
 20
32.1101932727
 11
151.8862417523
 21
32.1101932727
  0
LINE
  8
0
 62
7
  6
CONTINUOUS
 10
151.2130860697
 20
32.3970785186
 11
151.6256574183
 21
32.3970785186
  0
LINE
  8
0
 62
7
  6
CONTINUOUS
 10
152.852430332
 20
32.3970785186
 11
154.245872955
 21
32.3970785186
  0
LINE
  8
0
 62
7
  6
CONTINUOUS
 10
154.5737418074
 20
32.3970785186
 11
155.9671844304
 21
32.3970785186
  0
LINE
  8
0
 62
7
  6
CONTINUOUS
 10
157.852430332
 20
32.3970785186
 11
159.245872955
 21
32.3970785186
  0
LINE
  8
0
 62
7
  6
CONTINUOUS
 10
159.5737418074
 20
32.3970785186
 11
160.9671844304
 21
32.3970785186
  0
LINE
  8
0
 62
7
  6
CONTINUOUS
 10
157.6096790869
 20
31.5939741996
 11
157.4362415869
 21
31.5294468267
  0
LINE
  8
0
 62
7
  6
CONTINUOUS
 10
155.1815540869
 20
30.6260635193
 11
155.3549915869
 21
30.6905909007
  0
LINE
  8
0
 62
7
  6
CONTINUOUS
 10
160.615929528
 20
30.6260635193
 11
160.8471793074
 21
30.6905909007
  0
LINE
  8
0
 62
7
  6
CONTINUOUS
 10
160.615929528
 20
30.7873819712
 11
160.5003043074
 21
30.7551182848
  0
LINE
  8
0
 62
7
  6
CONTINUOUS
 10
159.575304528
 20
31.4649194539
 11
159.8065543074
 21
31.4971831403
  0
LINE
  8
0
 62
7
  6
CONTINUOUS
 10
157.6096790869
 20
31.4649194539
 11
157.840929528
 21
31.4971831403
  0
LINE
  8
0
 62
7
  6
CONTINUOUS
 10
154.5456166972
 20
31.1100188581
 11
154.7768668074
 21
31.1422825445
  0
LINE
  8
0
 62
7
  6
CONTINUOUS
 10
157.840929528
 20
31.626237886
 11
157.6096790869
 21
31.5939741996
  0
LINE
  8
0
 62
7
  6
CONTINUOUS
 10
154.4299918074
 20
31.4649194539
 11
154.6612419177
 21
31.4971831403
  0
LINE
  8
0
 62
7
  6
CONTINUOUS
 10
159.8065543074
 20
31.626237886
 11
159.4596793074
 21
31.5939741996
  0
LINE
  8
0
 62
7
  6
CONTINUOUS
 10
154.7768668074
 20
31.2713373354
 11
154.4299918074
 21
31.2390736489
  0
LINE
  8
0
 62
7
  6
CONTINUOUS
 10
150.5565542799
 20
31.626237886
 11
150.2096793212
 21
31.5939741996
  0
LINE
  8
0
 62
7
  6
CONTINUOUS
 10
154.6612419177
 20
31.626237886
 11
154.2565543074
 21
31.5939741996
  0
LINE
  8
0
 62
7
  6
CONTINUOUS
 10
152.0327582009
 20
33.5446195022
 11
151.3770204959
 21
33.5446195022
  0
LINE
  8
0
 62
7
  6
CONTINUOUS
 10
157.4362415869
 20
31.400392081
 11
157.6096790869
 21
31.4649194539
  0
LINE
  8
0
 62
7
  6
CONTINUOUS
 10
159.4596793074
 20
31.4326557675
 11
159.575304528
 21
31.4649194539
  0
LINE
  8
0
 62
7
  6
CONTINUOUS
 10
159.4596793074
 20
31.5939741996
 11
159.228429528
 21
31.5294468267
  0
LINE
  8
0
 62
7
  6
CONTINUOUS
 10
155.1815540869
 20
30.7873819712
 11
154.8924916972
 21
30.7228545871
  0
LINE
  8
0
 62
7
  6
CONTINUOUS
 10
152.4643666972
 20
31.4649194539
 11
152.6956168074
 21
31.4971831403
  0
LINE
  8
0
 62
7
  6
CONTINUOUS
 10
152.6956168074
 20
31.626237886
 11
152.4643666972
 21
31.5939741996
  0
LINE
  8
0
 62
7
  6
CONTINUOUS
 10
150.2674918074
 20
31.4649194539
 11
150.498741835
 21
31.4971831403
  0
LINE
  8
0
 62
7
  6
CONTINUOUS
 10
156.7868565615
 20
35.0200293383
 11
157.4425942664
 21
35.0200293383
  0
LINE
  8
0
 62
7
  6
CONTINUOUS
 10
154.4299918074
 20
31.0777551716
 11
154.5456166972
 21
31.1100188581
  0
LINE
  8
0
 62
7
  6
CONTINUOUS
 10
154.4299918074
 20
31.2390736489
 11
154.1987416972
 21
31.1745462761
  0
LINE
  8
0
 62
7
  6
CONTINUOUS
 10
154.3143669177
 20
31.4326557675
 11
154.4299918074
 21
31.4649194539
  0
LINE
  8
0
 62
7
  6
CONTINUOUS
 10
150.9612418074
 20
30.6260635193
 11
151.1924917523
 21
30.6905909007
  0
LINE
  8
0
 62
7
  6
CONTINUOUS
 10
154.2565543074
 20
31.5939741996
 11
154.1409294177
 21
31.5617105132
  0
LINE
  8
0
 62
7
  6
CONTINUOUS
 10
150.2096793212
 20
31.5939741996
 11
150.0362418212
 21
31.5617105132
  0
LINE
  8
0
 62
7
  6
CONTINUOUS
 10
160.9671844304
 20
36.1675703219
 11
159.5737418074
 21
36.1675703219
  0
LINE
  8
0
 62
7
  6
CONTINUOUS
 10
157.6065286927
 20
36.1675703219
 11
157.1939573441
 21
36.1675703219
  0
LINE
  8
0
 62
7
  6
CONTINUOUS
 10
155.9671844304
 20
36.1675703219
 11
154.5737418074
 21
36.1675703219
  0
LINE
  8
0
 62
7
  6
CONTINUOUS
 10
154.245872955
 20
36.1675703219
 11
152.852430332
 21
36.1675703219
  0
LINE
  8
0
 62
7
  6
CONTINUOUS
 10
150.9671844304
 20
36.1675703219
 11
149.5737418074
 21
36.1675703219
  0
LINE
  8
0
 62
7
  6
CONTINUOUS
 10
150.1518667936
 20
31.4326557675
 11
150.2674918074
 21
31.4649194539
  0
CIRCLE
  8
0
 62
7
  6
CONTINUOUS
 10
160.2704631189
 20
38.5036358957
 40
2.0901639344
  0
ARC
  8
0
 62
7
  6
CONTINUOUS
 10
151.2130860697
 20
34.0364227809
 40
1.6393442623
 50
180.0
 51
270.0
  0
ARC
  8
0
 62
7
  6
CONTINUOUS
 10
157.6065286927
 20
34.5282260596
 40
1.6393442623
 50
0.0
 51
90.0
  0
ARC
  8
0
 62
7
  6
CONTINUOUS
 10
151.6256574183
 20
33.8724883547
 40
1.4754098361
 50
270.0
 51
326.2510114041
  0
ARC
  8
0
 62
7
  6
CONTINUOUS
 10
157.1939573441
 20
34.6921604858
 40
1.4754098361
 50
90.0
 51
146.2510114041
  0
ARC
  8
0
 62
7
  6
CONTINUOUS
 10
152.0327582009
 20
34.3642916334
 40
0.8196721311
 50
270.0
 51
360.0
  0
ARC
  8
0
 62
7
  6
CONTINUOUS
 10
156.7868565615
 20
34.2003572071
 40
0.8196721311
 50
90.0
 51
180.0
  0
ARC
  8
0
 62
7
  6
CONTINUOUS
 10
151.3770204959
 20
33.9544555678
 40
0.4098360656
 50
180.0
 51
270.0
  0
ARC
  8
0
 62
7
  6
CONTINUOUS
 10
157.4425942664
 20
34.6101932727
 40
0.4098360656
 50
0.0
 51
90.0
  0
SOLID
  8
0
 62
7
  6
CONTINUOUS
 10
156.279992028
 20
31.9488752009
 11
156.279992028
 21
32.1101936845
 12
156.5690540869
 22
31.9488752009
 13
156.5690540869
 23
32.1101936845
  0
SOLID
  8
0
 62
7
  6
CONTINUOUS
 10
150.5565542799
 20
31.6262382337
 11
150.9612418074
 21
31.5939740028
 12
150.2096793212
 22
31.5939740028
 13
150.2096793212
 23
31.5939740028
  0
SOLID
  8
0
 62
7
  6
CONTINUOUS
 10
150.0362418212
 20
31.5617111435
 11
150.2096793212
 21
31.5939740028
 12
150.9612418074
 22
31.5939740028
 13
150.9612418074
 23
31.5939740028
  0
SOLID
  8
0
 62
7
  6
CONTINUOUS
 10
150.9612418074
 20
31.5939740028
 11
151.1924917523
 21
31.5294468402
 12
150.0362418212
 22
31.5617111435
 13
150.0362418212
 23
31.5617111435
  0
SOLID
  8
0
 62
7
  6
CONTINUOUS
 10
149.8628043005
 20
31.49718259
 11
150.0362418212
 21
31.5617111435
 12
151.1924917523
 22
31.5294468402
 13
151.1924917523
 23
31.5294468402
  0
SOLID
  8
0
 62
7
  6
CONTINUOUS
 10
149.8628043005
 20
31.49718259
 11
151.1924917523
 21
31.5294468402
 12
150.498741835
 22
31.49718259
 13
150.498741835
 23
31.49718259
  0
SOLID
  8
0
 62
7
  6
CONTINUOUS
 10
150.498741835
 20
31.49718259
 11
151.1924917523
 21
31.5294468402
 12
150.9034292799
 22
31.4649197501
 13
150.9034292799
 23
31.4649197501
  0
SOLID
  8
0
 62
7
  6
CONTINUOUS
 10
151.1924917523
 20
31.5294468402
 11
151.3659292523
 21
31.4326554468
 12
150.9034292799
 22
31.4649197501
 13
150.9034292799
 23
31.4649197501
  0
SOLID
  8
0
 62
7
  6
CONTINUOUS
 10
151.0768668626
 20
31.4003926599
 11
150.9034292799
 21
31.4649197501
 12
151.3659292523
 22
31.4326554468
 13
151.3659292523
 23
31.4326554468
  0
SOLID
  8
0
 62
7
  6
CONTINUOUS
 10
151.0768668626
 20
31.4003926599
 11
151.3659292523
 21
31.4326554468
 12
151.1346793074
 22
31.3036013776
 13
151.1346793074
 23
31.3036013776
  0
SOLID
  8
0
 62
7
  6
CONTINUOUS
 10
151.3659292523
 20
31.4326554468
 11
151.4237418626
 21
31.3036013776
 12
151.1346793074
 22
31.3036013776
 13
151.1346793074
 23
31.3036013776
  0
SOLID
  8
0
 62
7
  6
CONTINUOUS
 10
152.4643666972
 20
31.5939739754
 11
152.6956168074
 21
31.6262382787
 12
152.9268669177
 22
31.6262382787
 13
152.9268669177
 23
31.6262382787
  0
SOLID
  8
0
 62
7
  6
CONTINUOUS
 10
152.9268669177
 20
31.6262382787
 11
153.1003044177
 21
31.5939739754
 12
152.4643666972
 22
31.5939739754
 13
152.4643666972
 23
31.5939739754
  0
SOLID
  8
0
 62
7
  6
CONTINUOUS
 10
152.2909293626
 20
31.5294468852
 11
152.4643666972
 21
31.5939739754
 12
153.1003044177
 22
31.5939739754
 13
153.1003044177
 23
31.5939739754
  0
SOLID
  8
0
 62
7
  6
CONTINUOUS
 10
153.1003044177
 20
31.5939739754
 11
153.2737419177
 21
31.5294468852
 12
152.2909293626
 22
31.5294468852
 13
152.2909293626
 23
31.5294468852
  0
SOLID
  8
0
 62
7
  6
CONTINUOUS
 10
153.2737419177
 20
31.5294468852
 11
152.6956168074
 21
31.4971825369
 12
152.2909293626
 22
31.5294468852
 13
152.2909293626
 23
31.5294468852
  0
SOLID
  8
0
 62
7
  6
CONTINUOUS
 10
152.1753043074
 20
31.4649197951
 11
152.2909293626
 21
31.5294468852
 12
152.6956168074
 22
31.4971825369
 13
152.6956168074
 23
31.4971825369
  0
SOLID
  8
0
 62
7
  6
CONTINUOUS
 10
152.6956168074
 20
31.4971825369
 11
152.4643666972
 21
31.4649197951
 12
152.1753043074
 22
31.4649197951
 13
152.1753043074
 23
31.4649197951
  0
SOLID
  8
0
 62
7
  6
CONTINUOUS
 10
152.6956168074
 20
31.4971825369
 11
153.2737419177
 21
31.5294468852
 12
152.9268669177
 22
31.4649197951
 13
152.9268669177
 23
31.4649197951
  0
SOLID
  8
0
 62
7
  6
CONTINUOUS
 10
153.2737419177
 20
31.5294468852
 11
153.3893668074
 21
31.4649197951
 12
152.9268669177
 22
31.4649197951
 13
152.9268669177
 23
31.4649197951
  0
SOLID
  8
0
 62
7
  6
CONTINUOUS
 10
153.0424918074
 20
31.4326554468
 11
152.9268669177
 21
31.4649197951
 12
153.3893668074
 22
31.4649197951
 13
153.3893668074
 23
31.4649197951
  0
SOLID
  8
0
 62
7
  6
CONTINUOUS
 10
153.3893668074
 20
31.4649197951
 11
153.4471794177
 21
31.4003927049
 12
153.0424918074
 22
31.4326554468
 13
153.0424918074
 23
31.4326554468
  0
SOLID
  8
0
 62
7
  6
CONTINUOUS
 10
153.1581166972
 20
31.3681283566
 11
153.0424918074
 21
31.4326554468
 12
153.4471794177
 22
31.4003927049
 13
153.4471794177
 23
31.4003927049
  0
SOLID
  8
0
 62
7
  6
CONTINUOUS
 10
153.1581166972
 20
31.3681283566
 11
153.4471794177
 21
31.4003927049
 12
153.2159293074
 22
31.2390742213
 13
153.2159293074
 23
31.2390742213
  0
SOLID
  8
0
 62
7
  6
CONTINUOUS
 10
153.4471794177
 20
31.4003927049
 11
153.5049916972
 21
31.2390742213
 12
153.2159293074
 22
31.2390742213
 13
153.2159293074
 23
31.2390742213
  0
SOLID
  8
0
 62
7
  6
CONTINUOUS
 10
152.4643666972
 20
31.4649197951
 11
152.2909293626
 21
31.4003927049
 12
152.1753043074
 22
31.4649197951
 13
152.1753043074
 23
31.4649197951
  0
SOLID
  8
0
 62
7
  6
CONTINUOUS
 10
152.2909293626
 20
31.4003927049
 11
152.1753043074
 21
31.3358640533
 12
152.1753043074
 22
31.4649197951
 13
152.1753043074
 23
31.4649197951
  0
SOLID
  8
0
 62
7
  6
CONTINUOUS
 10
152.1753043074
 20
31.3358640533
 11
151.8862417523
 21
30.5938002869
 12
152.1753043074
 22
31.4649197951
 13
152.1753043074
 23
31.4649197951
  0
SOLID
  8
0
 62
7
  6
CONTINUOUS
 10
152.1753043074
 20
31.4649197951
 11
151.8862417523
 21
30.5938002869
 12
152.1753043074
 22
32.1101937295
 13
152.1753043074
 23
32.1101937295
  0
SOLID
  8
0
 62
7
  6
CONTINUOUS
 10
151.8862417523
 20
30.5938002869
 11
151.8862417523
 21
32.1101937295
 12
152.1753043074
 22
32.1101937295
 13
152.1753043074
 23
32.1101937295
  0
SOLID
  8
0
 62
7
  6
CONTINUOUS
 10
152.1753043074
 20
31.3358640533
 11
152.1753043074
 21
30.5938002869
 12
151.8862417523
 22
30.5938002869
 13
151.8862417523
 23
30.5938002869
  0
SOLID
  8
0
 62
7
  6
CONTINUOUS
 10
153.2159293074
 20
30.5938002869
 11
153.2159293074
 21
31.2390742213
 12
153.5049916972
 22
31.2390742213
 13
153.5049916972
 23
31.2390742213
  0
SOLID
  8
0
 62
7
  6
CONTINUOUS
 10
153.5049916972
 20
31.2390742213
 11
153.5049916972
 21
30.5938002869
 12
153.2159293074
 22
30.5938002869
 13
153.2159293074
 23
30.5938002869
  0
SOLID
  8
0
 62
7
  6
CONTINUOUS
 10
154.2565543074
 20
31.5939738288
 11
154.6612419177
 21
31.6262385959
 12
155.0081169177
 22
31.6262385959
 13
155.0081169177
 23
31.6262385959
  0
SOLID
  8
0
 62
7
  6
CONTINUOUS
 10
155.0081169177
 20
31.6262385959
 11
155.3549915869
 21
31.5939738288
 12
154.2565543074
 22
31.5939738288
 13
154.2565543074
 23
31.5939738288
  0
SOLID
  8
0
 62
7
  6
CONTINUOUS
 10
154.1409294177
 20
31.5617111435
 11
154.2565543074
 21
31.5939738288
 12
155.3549915869
 22
31.5939738288
 13
155.3549915869
 23
31.5939738288
  0
SOLID
  8
0
 62
7
  6
CONTINUOUS
 10
155.3549915869
 20
31.5939738288
 11
155.5284290869
 21
31.5294468402
 12
154.1409294177
 22
31.5617111435
 13
154.1409294177
 23
31.5617111435
  0
SOLID
  8
0
 62
7
  6
CONTINUOUS
 10
154.0253041972
 20
31.4971826249
 11
154.1409294177
 21
31.5617111435
 12
155.5284290869
 22
31.5294468402
 13
155.5284290869
 23
31.5294468402
  0
SOLID
  8
0
 62
7
  6
CONTINUOUS
 10
154.0253041972
 20
31.4971826249
 11
155.5284290869
 21
31.5294468402
 12
154.6612419177
 22
31.4971826249
 13
154.6612419177
 23
31.4971826249
  0
SOLID
  8
0
 62
7
  6
CONTINUOUS
 10
154.6612419177
 20
31.4971826249
 11
155.5284290869
 21
31.5294468402
 12
155.0081169177
 22
31.4971826249
 13
155.0081169177
 23
31.4971826249
  0
SOLID
  8
0
 62
7
  6
CONTINUOUS
 10
155.0081169177
 20
31.4971826249
 11
155.5284290869
 21
31.5294468402
 12
155.239367028
 22
31.4649194065
 13
155.239367028
 23
31.4649194065
  0
SOLID
  8
0
 62
7
  6
CONTINUOUS
 10
155.5284290869
 20
31.5294468402
 11
155.6440543074
 21
31.4649194065
 12
155.239367028
 22
31.4649194065
 13
155.239367028
 23
31.4649194065
  0
SOLID
  8
0
 62
7
  6
CONTINUOUS
 10
153.9674919177
 20
31.4326554138
 11
154.0253041972
 21
31.4971826249
 12
154.6612419177
 22
31.4971826249
 13
154.6612419177
 23
31.4971826249
  0
SOLID
  8
0
 62
7
  6
CONTINUOUS
 10
155.3549915869
 20
31.4326554138
 11
155.239367028
 21
31.4649194065
 12
155.6440543074
 22
31.4649194065
 13
155.6440543074
 23
31.4649194065
  0
SOLID
  8
0
 62
7
  6
CONTINUOUS
 10
155.3549915869
 20
31.4326554138
 11
155.6440543074
 21
31.4649194065
 12
155.412804528
 22
31.3681282026
 13
155.412804528
 23
31.3681282026
  0
SOLID
  8
0
 62
7
  6
CONTINUOUS
 10
155.6440543074
 20
31.4649194065
 11
155.7018665869
 21
31.3681282026
 12
155.412804528
 22
31.3681282026
 13
155.412804528
 23
31.3681282026
  0
SOLID
  8
0
 62
7
  6
CONTINUOUS
 10
155.412804528
 20
31.2713369632
 11
155.412804528
 21
31.3681282026
 12
155.7018665869
 22
31.3681282026
 13
155.7018665869
 23
31.3681282026
  0
SOLID
  8
0
 62
7
  6
CONTINUOUS
 10
155.412804528
 20
31.2713369632
 11
155.7018665869
 21
31.3681282026
 12
155.412804528
 22
31.1422827828
 13
155.412804528
 23
31.1422827828
  0
SOLID
  8
0
 62
7
  6
CONTINUOUS
 10
155.412804528
 20
31.1422827828
 11
155.7018665869
 21
31.3681282026
 12
155.412804528
 22
30.9487004259
 13
155.412804528
 23
30.9487004259
  0
SOLID
  8
0
 62
7
  6
CONTINUOUS
 10
155.7018665869
 20
31.3681282026
 11
155.7018665869
 21
30.8519086025
 12
155.412804528
 22
30.9487004259
 13
155.412804528
 23
30.9487004259
  0
SOLID
  8
0
 62
7
  6
CONTINUOUS
 10
157.6096790869
 20
31.5939736268
 11
157.840929528
 21
31.6262383465
 12
158.0721793074
 22
31.6262383465
 13
158.0721793074
 23
31.6262383465
  0
SOLID
  8
0
 62
7
  6
CONTINUOUS
 10
158.0721793074
 20
31.6262383465
 11
158.2456168074
 21
31.5939736268
 12
157.6096790869
 22
31.5939736268
 13
157.6096790869
 23
31.5939736268
  0
SOLID
  8
0
 62
7
  6
CONTINUOUS
 10
157.4362415869
 20
31.5294472848
 11
157.6096790869
 21
31.5939736268
 12
158.2456168074
 22
31.5939736268
 13
158.2456168074
 23
31.5939736268
  0
SOLID
  8
0
 62
7
  6
CONTINUOUS
 10
158.2456168074
 20
31.5939736268
 11
158.4190543074
 21
31.5294472848
 12
157.4362415869
 22
31.5294472848
 13
157.4362415869
 23
31.5294472848
  0
SOLID
  8
0
 62
7
  6
CONTINUOUS
 10
158.4190543074
 20
31.5294472848
 11
157.840929528
 21
31.4971825369
 12
157.4362415869
 22
31.5294472848
 13
157.4362415869
 23
31.5294472848
  0
SOLID
  8
0
 62
7
  6
CONTINUOUS
 10
157.320617028
 20
31.4649199103
 11
157.4362415869
 21
31.5294472848
 12
157.840929528
 22
31.4971825369
 13
157.840929528
 23
31.4971825369
  0
SOLID
  8
0
 62
7
  6
CONTINUOUS
 10
157.840929528
 20
31.4971825369
 11
157.6096790869
 21
31.4649199103
 12
157.320617028
 22
31.4649199103
 13
157.320617028
 23
31.4649199103
  0
SOLID
  8
0
 62
7
  6
CONTINUOUS
 10
157.840929528
 20
31.4971825369
 11
158.4190543074
 21
31.5294472848
 12
158.0721793074
 22
31.4649199103
 13
158.0721793074
 23
31.4649199103
  0
SOLID
  8
0
 62
7
  6
CONTINUOUS
 10
158.4190543074
 20
31.5294472848
 11
158.534679528
 21
31.4649199103
 12
158.0721793074
 22
31.4649199103
 13
158.0721793074
 23
31.4649199103
  0
SOLID
  8
0
 62
7
  6
CONTINUOUS
 10
158.187804528
 20
31.4326554468
 11
158.0721793074
 21
31.4649199103
 12
158.534679528
 22
31.4649199103
 13
158.534679528
 23
31.4649199103
  0
SOLID
  8
0
 62
7
  6
CONTINUOUS
 10
158.187804528
 20
31.4326554468
 11
158.534679528
 21
31.4649199103
 12
158.3034290869
 22
31.3681288486
 13
158.3034290869
 23
31.3681288486
  0
SOLID
  8
0
 62
7
  6
CONTINUOUS
 10
158.534679528
 20
31.4649199103
 11
158.5924918074
 21
31.3681288486
 12
158.3034290869
 22
31.3681288486
 13
158.3034290869
 23
31.3681288486
  0
SOLID
  8
0
 62
7
  6
CONTINUOUS
 10
158.361242028
 20
31.2068093799
 11
158.3034290869
 21
31.3681288486
 12
158.5924918074
 22
31.3681288486
 13
158.5924918074
 23
31.3681288486
  0
SOLID
  8
0
 62
7
  6
CONTINUOUS
 10
158.5924918074
 20
31.3681288486
 11
158.6503040869
 21
31.2068093799
 12
158.361242028
 22
31.2068093799
 13
158.361242028
 23
31.2068093799
  0
SOLID
  8
0
 62
7
  6
CONTINUOUS
 10
157.6096790869
 20
31.4649199103
 11
157.4362415869
 21
31.4003926599
 12
157.320617028
 22
31.4649199103
 13
157.320617028
 23
31.4649199103
  0
SOLID
  8
0
 62
7
  6
CONTINUOUS
 10
157.4362415869
 20
31.4003926599
 11
157.320617028
 21
31.3358640533
 12
157.320617028
 22
31.4649199103
 13
157.320617028
 23
31.4649199103
  0
SOLID
  8
0
 62
7
  6
CONTINUOUS
 10
157.320617028
 20
31.3358640533
 11
157.0315543074
 21
30.5938003547
 12
157.320617028
 22
31.4649199103
 13
157.320617028
 23
31.4649199103
  0
SOLID
  8
0
 62
7
  6
CONTINUOUS
 10
157.320617028
 20
31.4649199103
 11
157.0315543074
 21
30.5938003547
 12
157.320617028
 22
31.6262383465
 13
157.320617028
 23
31.6262383465
  0
SOLID
  8
0
 62
7
  6
CONTINUOUS
 10
157.0315543074
 20
30.5938003547
 11
157.0315543074
 21
31.6262383465
 12
157.320617028
 22
31.6262383465
 13
157.320617028
 23
31.6262383465
  0
SOLID
  8
0
 62
7
  6
CONTINUOUS
 10
157.320617028
 20
31.3358640533
 11
157.320617028
 21
30.5938003547
 12
157.0315543074
 22
30.5938003547
 13
157.0315543074
 23
30.5938003547
  0
SOLID
  8
0
 62
7
  6
CONTINUOUS
 10
158.361242028
 20
30.5938003547
 11
158.361242028
 21
31.2068093799
 12
158.6503040869
 22
31.2068093799
 13
158.6503040869
 23
31.2068093799
  0
SOLID
  8
0
 62
7
  6
CONTINUOUS
 10
158.6503040869
 20
31.2068093799
 11
158.6503040869
 21
30.5938003547
 12
158.361242028
 22
30.5938003547
 13
158.361242028
 23
30.5938003547
  0
SOLID
  8
0
 62
7
  6
CONTINUOUS
 10
159.4596793074
 20
31.5939739474
 11
159.8065543074
 21
31.6262381969
 12
160.1534293074
 22
31.6262381969
 13
160.1534293074
 23
31.6262381969
  0
SOLID
  8
0
 62
7
  6
CONTINUOUS
 10
160.1534293074
 20
31.6262381969
 11
160.5003043074
 21
31.5939739474
 12
159.4596793074
 22
31.5939739474
 13
159.4596793074
 23
31.5939739474
  0
SOLID
  8
0
 62
7
  6
CONTINUOUS
 10
159.228429528
 20
31.5294468402
 11
159.4596793074
 21
31.5939739474
 12
160.5003043074
 22
31.5939739474
 13
160.5003043074
 23
31.5939739474
  0
SOLID
  8
0
 62
7
  6
CONTINUOUS
 10
159.228429528
 20
31.5294468402
 11
160.5003043074
 21
31.5939739304
 12
160.6737418074
 22
31.5617111435
 13
160.6737418074
 23
31.5617111435
  0
SOLID
  8
0
 62
7
  6
CONTINUOUS
 10
159.228429528
 20
31.5294468402
 11
160.6737418074
 21
31.5617111435
 12
159.8065543074
 22
31.4971825592
 13
159.8065543074
 23
31.4971825592
  0
SOLID
  8
0
 62
7
  6
CONTINUOUS
 10
159.8065543074
 20
31.4971825592
 11
160.6737418074
 21
31.5617111435
 12
160.1534293074
 22
31.4971825592
 13
160.1534293074
 23
31.4971825592
  0
SOLID
  8
0
 62
7
  6
CONTINUOUS
 10
160.6737418074
 20
31.5617111435
 11
160.8471793074
 21
31.4971825592
 12
160.1534293074
 22
31.4971825592
 13
160.1534293074
 23
31.4971825592
  0
SOLID
  8
0
 62
7
  6
CONTINUOUS
 10
160.5003043074
 20
31.4649197501
 11
160.1534293074
 21
31.4971825592
 12
160.8471793074
 22
31.4971825592
 13
160.8471793074
 23
31.4971825592
  0
SOLID
  8
0
 62
7
  6
CONTINUOUS
 10
159.1128043074
 20
31.4326555427
 11
159.228429528
 21
31.5294468402
 12
159.8065543074
 22
31.4971825592
 13
159.8065543074
 23
31.4971825592
  0
SOLID
  8
0
 62
7
  6
CONTINUOUS
 10
160.5003043074
 20
31.4649197501
 11
160.8471793074
 21
31.4971825592
 12
160.615929528
 22
31.4326555427
 13
160.615929528
 23
31.4326555427
  0
SOLID
  8
0
 62
7
  6
CONTINUOUS
 10
160.615929528
 20
31.4326555427
 11
160.8471793074
 21
31.4971825592
 12
160.6737418074
 22
31.3681283005
 13
160.6737418074
 23
31.3681283005
  0
SOLID
  8
0
 62
7
  6
CONTINUOUS
 10
160.8471793074
 20
31.4971825592
 11
160.9628038663
 21
31.3681283005
 12
160.6737418074
 22
31.3681283005
 13
160.6737418074
 23
31.3681283005
  0
SOLID
  8
0
 62
7
  6
CONTINUOUS
 10
150.2674918074
 20
31.4649197501
 11
149.7471793074
 21
31.4326554237
 12
150.498741835
 22
31.4971824493
 13
150.498741835
 23
31.4971824493
  0
SOLID
  8
0
 62
7
  6
CONTINUOUS
 10
149.7471793074
 20
31.4326554237
 11
149.8628043005
 21
31.4971824493
 12
150.498741835
 22
31.4971824493
 13
150.498741835
 23
31.4971824493
  0
SOLID
  8
0
 62
7
  6
CONTINUOUS
 10
150.2674918074
 20
31.4649197501
 11
150.1518667936
 21
31.4326554237
 12
149.7471793074
 22
31.4326554237
 13
149.7471793074
 23
31.4326554237
  0
SOLID
  8
0
 62
7
  6
CONTINUOUS
 10
149.6315543091
 20
31.3036012664
 11
149.7471793074
 21
31.4326554237
 12
150.1518667936
 22
31.4326554237
 13
150.1518667936
 23
31.4326554237
  0
SOLID
  8
0
 62
7
  6
CONTINUOUS
 10
153.9674919177
 20
31.4326554237
 11
154.6612419177
 21
31.4971825369
 12
154.4299918074
 22
31.4649197501
 13
154.4299918074
 23
31.4649197501
  0
SOLID
  8
0
 62
7
  6
CONTINUOUS
 10
154.4299918074
 20
31.4649197501
 11
154.3143669177
 21
31.4326554237
 12
153.9674919177
 22
31.4326554237
 13
153.9674919177
 23
31.4326554237
  0
SOLID
  8
0
 62
7
  6
CONTINUOUS
 10
153.9674919177
 20
31.3681283335
 11
153.9674919177
 21
31.4326554237
 12
154.3143669177
 22
31.4326554237
 13
154.3143669177
 23
31.4326554237
  0
SOLID
  8
0
 62
7
  6
CONTINUOUS
 10
154.3143669177
 20
31.4326554237
 11
154.2565543074
 21
31.3681283335
 12
153.9674919177
 22
31.3681283335
 13
153.9674919177
 23
31.3681283335
  0
SOLID
  8
0
 62
7
  6
CONTINUOUS
 10
159.1128043074
 20
31.4326555528
 11
159.8065543074
 21
31.4971825369
 12
159.575304528
 22
31.4649197501
 13
159.575304528
 23
31.4649197501
  0
SOLID
  8
0
 62
7
  6
CONTINUOUS
 10
159.575304528
 20
31.4649197501
 11
159.4596793074
 21
31.4326555528
 12
159.1128043074
 22
31.4326555528
 13
159.1128043074
 23
31.4326555528
  0
SOLID
  8
0
 62
7
  6
CONTINUOUS
 10
159.1128043074
 20
31.3681284626
 11
159.1128043074
 21
31.4326555528
 12
159.4596793074
 22
31.4326555528
 13
159.4596793074
 23
31.4326555528
  0
SOLID
  8
0
 62
7
  6
CONTINUOUS
 10
159.4596793074
 20
31.4326555528
 11
159.401867028
 21
31.3681284626
 12
159.1128043074
 22
31.3681284626
 13
159.1128043074
 23
31.3681284626
  0
SOLID
  8
0
 62
7
  6
CONTINUOUS
 10
159.228429528
 20
31.2390741763
 11
159.1128043074
 21
31.3681284626
 12
159.401867028
 22
31.3681284626
 13
159.401867028
 23
31.3681284626
  0
SOLID
  8
0
 62
7
  6
CONTINUOUS
 10
149.6315543091
 20
31.3036012664
 11
150.1518667936
 21
31.4326554468
 12
149.9784292936
 22
31.3358640533
 13
149.9784292936
 23
31.3358640533
  0
SOLID
  8
0
 62
7
  6
CONTINUOUS
 10
149.9784292936
 20
31.3358640533
 11
149.9206168074
 21
31.2713369632
 12
149.6315543091
 22
31.3036012664
 13
149.6315543091
 23
31.3036012664
  0
SOLID
  8
0
 62
7
  6
CONTINUOUS
 10
149.5737418074
 20
31.1100184796
 11
149.6315543091
 21
31.3036012664
 12
149.9206168074
 22
31.2713369632
 13
149.9206168074
 23
31.2713369632
  0
SOLID
  8
0
 62
7
  6
CONTINUOUS
 10
154.4299918074
 20
31.2390741763
 11
154.7768668074
 21
31.271336924
 12
155.412804528
 22
31.271336924
 13
155.412804528
 23
31.271336924
  0
SOLID
  8
0
 62
7
  6
CONTINUOUS
 10
154.4299918074
 20
31.2390741763
 11
155.412804528
 21
31.271336924
 12
154.1987416972
 22
31.1745462761
 13
154.1987416972
 23
31.1745462761
  0
SOLID
  8
0
 62
7
  6
CONTINUOUS
 10
154.1987416972
 20
31.1745462761
 11
155.412804528
 21
31.271336924
 12
154.7768668074
 22
31.1422827436
 13
154.7768668074
 23
31.1422827436
  0
SOLID
  8
0
 62
7
  6
CONTINUOUS
 10
155.412804528
 20
31.271336924
 11
155.412804528
 21
31.1422827436
 12
154.7768668074
 22
31.1422827436
 13
154.7768668074
 23
31.1422827436
  0
SOLID
  8
0
 62
7
  6
CONTINUOUS
 10
159.228429528
 20
31.2390745501
 11
159.401867028
 21
31.3681283566
 12
159.4596793074
 22
31.3036012664
 13
159.4596793074
 23
31.3036012664
  0
SOLID
  8
0
 62
7
  6
CONTINUOUS
 10
159.4596793074
 20
31.3036012664
 11
159.6331168074
 21
31.2390745501
 12
159.228429528
 22
31.2390745501
 13
159.228429528
 23
31.2390745501
  0
SOLID
  8
0
 62
7
  6
CONTINUOUS
 10
159.4596793074
 20
31.1422827828
 11
159.228429528
 21
31.2390745501
 12
159.6331168074
 22
31.2390745501
 13
159.6331168074
 23
31.2390745501
  0
SOLID
  8
0
 62
7
  6
CONTINUOUS
 10
159.6331168074
 20
31.2390745501
 11
160.615929528
 21
31.0777556927
 12
159.4596793074
 22
31.1422827828
 13
159.4596793074
 23
31.1422827828
  0
SOLID
  8
0
 62
7
  6
CONTINUOUS
 10
160.442492028
 20
30.9809646623
 11
159.4596793074
 21
31.1422827828
 12
160.615929528
 22
31.0777556927
 13
160.615929528
 23
31.0777556927
  0
SOLID
  8
0
 62
7
  6
CONTINUOUS
 10
160.615929528
 20
31.0777556927
 11
160.8471793074
 21
30.9809646623
 12
160.442492028
 22
30.9809646623
 13
160.442492028
 23
30.9809646623
  0
SOLID
  8
0
 62
7
  6
CONTINUOUS
 10
160.615929528
 20
30.9164372091
 11
160.442492028
 21
30.9809646623
 12
160.8471793074
 22
30.9809646623
 13
160.8471793074
 23
30.9809646623
  0
SOLID
  8
0
 62
7
  6
CONTINUOUS
 10
160.615929528
 20
30.9164372091
 11
160.8471793074
 21
30.9809646623
 12
160.6737418074
 22
30.8519089441
 13
160.6737418074
 23
30.8519089441
  0
SOLID
  8
0
 62
7
  6
CONTINUOUS
 10
160.8471793074
 20
30.9809646623
 11
160.9628038663
 21
30.8519089441
 12
160.6737418074
 22
30.8519089441
 13
160.6737418074
 23
30.8519089441
  0
SOLID
  8
0
 62
7
  6
CONTINUOUS
 10
160.615929528
 20
30.7873818593
 11
160.6737418074
 21
30.8519089441
 12
160.9628038663
 22
30.8519089441
 13
160.9628038663
 23
30.8519089441
  0
SOLID
  8
0
 62
7
  6
CONTINUOUS
 10
160.9628038663
 20
30.8519089441
 11
160.9628038663
 21
30.7873818593
 12
160.615929528
 22
30.7873818593
 13
160.615929528
 23
30.7873818593
  0
SOLID
  8
0
 62
7
  6
CONTINUOUS
 10
160.5003043074
 20
30.7551187255
 11
160.615929528
 21
30.7873818593
 12
160.9628038663
 22
30.7873818593
 13
160.9628038663
 23
30.7873818593
  0
SOLID
  8
0
 62
7
  6
CONTINUOUS
 10
160.5003043074
 20
30.7551187255
 11
160.9628038663
 21
30.7873818593
 12
160.269054528
 22
30.7228547745
 13
160.269054528
 23
30.7228547745
  0
SOLID
  8
0
 62
7
  6
CONTINUOUS
 10
160.9628038663
 20
30.7873818593
 11
160.8471793074
 21
30.6905916353
 12
160.269054528
 22
30.7228547745
 13
160.269054528
 23
30.7228547745
  0
SOLID
  8
0
 62
7
  6
CONTINUOUS
 10
160.8471793074
 20
30.6905916353
 11
159.401867028
 21
30.658327332
 12
160.269054528
 22
30.7228547745
 13
160.269054528
 23
30.7228547745
  0
SOLID
  8
0
 62
7
  6
CONTINUOUS
 10
160.269054528
 20
30.7228547745
 11
159.401867028
 21
30.658327332
 12
159.922179528
 22
30.7228547745
 13
159.922179528
 23
30.7228547745
  0
SOLID
  8
0
 62
7
  6
CONTINUOUS
 10
159.401867028
 20
30.658327332
 11
159.228429528
 21
30.7228547745
 12
159.922179528
 22
30.7228547745
 13
159.922179528
 23
30.7228547745
  0
SOLID
  8
0
 62
7
  6
CONTINUOUS
 10
159.401867028
 20
30.658327332
 11
160.8471793074
 21
30.6905916353
 12
159.575304528
 22
30.6260629858
 13
159.575304528
 23
30.6260629858
  0
SOLID
  8
0
 62
7
  6
CONTINUOUS
 10
160.8471793074
 20
30.6905916353
 11
160.615929528
 21
30.6260629858
 12
159.575304528
 22
30.6260629858
 13
159.575304528
 23
30.6260629858
  0
SOLID
  8
0
 62
7
  6
CONTINUOUS
 10
159.922179528
 20
30.5938006049
 11
159.575304528
 21
30.6260629858
 12
160.615929528
 22
30.6260629858
 13
160.615929528
 23
30.6260629858
  0
SOLID
  8
0
 62
7
  6
CONTINUOUS
 10
160.615929528
 20
30.6260629858
 11
160.269054528
 21
30.5938006049
 12
159.922179528
 22
30.5938006049
 13
159.922179528
 23
30.5938006049
  0
SOLID
  8
0
 62
7
  6
CONTINUOUS
 10
149.5737418074
 20
31.1100184796
 11
149.9206168074
 21
31.2713369632
 12
149.8628043005
 22
31.1422827828
 13
149.8628043005
 23
31.1422827828
  0
SOLID
  8
0
 62
7
  6
CONTINUOUS
 10
149.8628043005
 20
31.1422827828
 11
149.8628043005
 21
31.0454914852
 12
149.5737418074
 22
31.1100184796
 13
149.5737418074
 23
31.1100184796
  0
SOLID
  8
0
 62
7
  6
CONTINUOUS
 10
149.6315543091
 20
30.9164372091
 11
149.5737418074
 21
31.1100184796
 12
149.8628043005
 22
31.0454914852
 13
149.8628043005
 23
31.0454914852
  0
SOLID
  8
0
 62
7
  6
CONTINUOUS
 10
149.8628043005
 20
31.0454914852
 11
149.9784292936
 21
30.8841729058
 12
149.6315543091
 22
30.9164372091
 13
149.6315543091
 23
30.9164372091
  0
SOLID
  8
0
 62
7
  6
CONTINUOUS
 10
149.7471793074
 20
30.7873813202
 11
149.6315543091
 21
30.9164372091
 12
149.9784292936
 22
30.8841729058
 13
149.9784292936
 23
30.8841729058
  0
SOLID
  8
0
 62
7
  6
CONTINUOUS
 10
149.9784292936
 20
30.8841729058
 11
150.1518667936
 21
30.7873813202
 12
149.7471793074
 22
30.7873813202
 13
149.7471793074
 23
30.7873813202
  0
SOLID
  8
0
 62
7
  6
CONTINUOUS
 10
149.8628043005
 20
30.7228547004
 11
149.7471793074
 21
30.7873813202
 12
150.1518667936
 22
30.7873813202
 13
150.1518667936
 23
30.7873813202
  0
SOLID
  8
0
 62
7
  6
CONTINUOUS
 10
150.1518667936
 20
30.7873813202
 11
150.498741835
 21
30.7228547004
 12
149.8628043005
 22
30.7228547004
 13
149.8628043005
 23
30.7228547004
  0
SOLID
  8
0
 62
7
  6
CONTINUOUS
 10
150.0362418212
 20
30.658327332
 11
149.8628043005
 21
30.7228547004
 12
150.498741835
 22
30.7228547004
 13
150.498741835
 23
30.7228547004
  0
SOLID
  8
0
 62
7
  6
CONTINUOUS
 10
154.0831168074
 20
31.1100184386
 11
154.1987416972
 21
31.1745462761
 12
154.7768668074
 22
31.1422827828
 13
154.7768668074
 23
31.1422827828
  0
SOLID
  8
0
 62
7
  6
CONTINUOUS
 10
154.7768668074
 20
31.1422827828
 11
154.5456166972
 21
31.1100184386
 12
154.0831168074
 22
31.1100184386
 13
154.0831168074
 23
31.1100184386
  0
SOLID
  8
0
 62
7
  6
CONTINUOUS
 10
153.9674919177
 20
30.9809642992
 11
154.0831168074
 21
31.1100184386
 12
154.5456166972
 22
31.1100184386
 13
154.5456166972
 23
31.1100184386
  0
SOLID
  8
0
 62
7
  6
CONTINUOUS
 10
154.3143669177
 20
31.0132277988
 11
153.9674919177
 21
30.9809642992
 12
154.4299918074
 22
31.0777556927
 13
154.4299918074
 23
31.0777556927
  0
SOLID
  8
0
 62
7
  6
CONTINUOUS
 10
153.9674919177
 20
30.9809642992
 11
154.5456166972
 21
31.1100184796
 12
154.4299918074
 22
31.0777556927
 13
154.4299918074
 23
31.0777556927
  0
SOLID
  8
0
 62
7
  6
CONTINUOUS
 10
154.3143669177
 20
31.0132277988
 11
154.2565543074
 21
30.9164372091
 12
153.9674919177
 22
30.9809642992
 13
153.9674919177
 23
30.9809642992
  0
SOLID
  8
0
 62
7
  6
CONTINUOUS
 10
153.9674919177
 20
30.8841729058
 11
153.9674919177
 21
30.9809642992
 12
154.2565543074
 22
30.9164372091
 13
154.2565543074
 23
30.9164372091
  0
SOLID
  8
0
 62
7
  6
CONTINUOUS
 10
154.2565543074
 20
30.9164372091
 11
154.2565543074
 21
30.8519086025
 12
153.9674919177
 22
30.8841729058
 13
153.9674919177
 23
30.8841729058
  0
SOLID
  8
0
 62
7
  6
CONTINUOUS
 10
154.0253041972
 20
30.7551187255
 11
153.9674919177
 21
30.8841729058
 12
154.2565543074
 22
30.8519086025
 13
154.2565543074
 23
30.8519086025
  0
SOLID
  8
0
 62
7
  6
CONTINUOUS
 10
155.412804528
 20
30.9487004259
 11
155.7018665869
 21
30.8519086025
 12
155.3549915869
 22
30.8841729058
 13
155.3549915869
 23
30.8841729058
  0
SOLID
  8
0
 62
7
  6
CONTINUOUS
 10
155.1815540869
 20
30.7873815123
 11
155.3549915869
 21
30.8841729058
 12
155.7018665869
 22
30.8519086025
 13
155.7018665869
 23
30.8519086025
  0
SOLID
  8
0
 62
7
  6
CONTINUOUS
 10
155.1815540869
 20
30.7873815123
 11
155.7018665869
 21
30.8519086025
 12
155.412804528
 22
30.7551187255
 13
155.412804528
 23
30.7551187255
  0
SOLID
  8
0
 62
7
  6
CONTINUOUS
 10
155.7018665869
 20
30.8519086025
 11
155.759679528
 21
30.6905916353
 12
155.412804528
 22
30.7551187255
 13
155.412804528
 23
30.7551187255
  0
SOLID
  8
0
 62
7
  6
CONTINUOUS
 10
155.4706168074
 20
30.658327332
 11
155.412804528
 21
30.7551187255
 12
155.759679528
 22
30.6905916353
 13
155.759679528
 23
30.6905916353
  0
SOLID
  8
0
 62
7
  6
CONTINUOUS
 10
155.4706168074
 20
30.658327332
 11
155.759679528
 21
30.6905916353
 12
155.5284290869
 22
30.5938002079
 13
155.5284290869
 23
30.5938002079
  0
SOLID
  8
0
 62
7
  6
CONTINUOUS
 10
155.759679528
 20
30.6905916353
 11
155.8174918074
 21
30.5938002079
 12
155.5284290869
 22
30.5938002079
 13
155.5284290869
 23
30.5938002079
  0
SOLID
  8
0
 62
7
  6
CONTINUOUS
 10
151.0768668626
 20
30.8196456577
 11
151.1346793074
 21
30.9164373395
 12
151.4237418626
 22
30.9164373395
 13
151.4237418626
 23
30.9164373395
  0
SOLID
  8
0
 62
7
  6
CONTINUOUS
 10
151.4237418626
 20
30.9164373395
 11
151.3659292523
 21
30.7873815123
 12
151.0768668626
 22
30.8196456577
 13
151.0768668626
 23
30.8196456577
  0
SOLID
  8
0
 62
7
  6
CONTINUOUS
 10
150.9034292799
 20
30.7551187255
 11
151.0768668626
 21
30.8196456577
 12
151.3659292523
 22
30.7873815123
 13
151.3659292523
 23
30.7873815123
  0
SOLID
  8
0
 62
7
  6
CONTINUOUS
 10
150.9034292799
 20
30.7551187255
 11
151.3659292523
 21
30.7873815123
 12
150.498741835
 22
30.7228544222
 13
150.498741835
 23
30.7228544222
  0
SOLID
  8
0
 62
7
  6
CONTINUOUS
 10
151.3659292523
 20
30.7873815123
 11
151.1924917523
 21
30.6905916353
 12
150.498741835
 22
30.7228544222
 13
150.498741835
 23
30.7228544222
  0
SOLID
  8
0
 62
7
  6
CONTINUOUS
 10
150.0362418212
 20
30.658327332
 11
150.498741835
 21
30.7228544222
 12
151.1924917523
 22
30.6905916353
 13
151.1924917523
 23
30.6905916353
  0
SOLID
  8
0
 62
7
  6
CONTINUOUS
 10
150.0362418212
 20
30.658327332
 11
151.1924917523
 21
30.6905916353
 12
150.2096793212
 22
30.6260631011
 13
150.2096793212
 23
30.6260631011
  0
SOLID
  8
0
 62
7
  6
CONTINUOUS
 10
151.1924917523
 20
30.6905916353
 11
150.9612418074
 21
30.6260631011
 12
150.2096793212
 22
30.6260631011
 13
150.2096793212
 23
30.6260631011
  0
SOLID
  8
0
 62
7
  6
CONTINUOUS
 10
150.5565542799
 20
30.5938002419
 11
150.2096793212
 21
30.6260631011
 12
150.9612418074
 22
30.6260631011
 13
150.9612418074
 23
30.6260631011
  0
SOLID
  8
0
 62
7
  6
CONTINUOUS
 10
154.0253041972
 20
30.7551187255
 11
154.2565543074
 21
30.8519086025
 12
154.3143669177
 22
30.7873815123
 13
154.3143669177
 23
30.7873815123
  0
SOLID
  8
0
 62
7
  6
CONTINUOUS
 10
154.3143669177
 20
30.7873815123
 11
154.5456166972
 21
30.7228544222
 12
154.0253041972
 22
30.7551187255
 13
154.0253041972
 23
30.7551187255
  0
SOLID
  8
0
 62
7
  6
CONTINUOUS
 10
154.1987416972
 20
30.658327332
 11
154.0253041972
 21
30.7551187255
 12
154.5456166972
 22
30.7228544222
 13
154.5456166972
 23
30.7228544222
  0
SOLID
  8
0
 62
7
  6
CONTINUOUS
 10
154.8924916972
 20
30.7228544637
 11
155.1815540869
 21
30.7873815123
 12
155.412804528
 22
30.7551187255
 13
155.412804528
 23
30.7551187255
  0
SOLID
  8
0
 62
7
  6
CONTINUOUS
 10
155.412804528
 20
30.7551187255
 11
155.3549915869
 21
30.6905916353
 12
154.8924916972
 22
30.7228544637
 13
154.8924916972
 23
30.7228544637
  0
SOLID
  8
0
 62
7
  6
CONTINUOUS
 10
155.3549915869
 20
30.6905916353
 11
154.1987416972
 21
30.658327332
 12
154.8924916972
 22
30.7228544637
 13
154.8924916972
 23
30.7228544637
  0
SOLID
  8
0
 62
7
  6
CONTINUOUS
 10
154.1987416972
 20
30.658327332
 11
154.5456166972
 21
30.7228544637
 12
154.8924916972
 22
30.7228544637
 13
154.8924916972
 23
30.7228544637
  0
SOLID
  8
0
 62
7
  6
CONTINUOUS
 10
154.1987416972
 20
30.658327332
 11
155.3549915869
 21
30.6905916353
 12
154.3143669177
 22
30.6260630541
 13
154.3143669177
 23
30.6260630541
  0
SOLID
  8
0
 62
7
  6
CONTINUOUS
 10
155.3549915869
 20
30.6905916353
 11
155.1815540869
 21
30.6260630541
 12
154.3143669177
 22
30.6260630541
 13
154.3143669177
 23
30.6260630541
  0
SOLID
  8
0
 62
7
  6
CONTINUOUS
 10
154.5456166972
 20
30.5938002188
 11
154.3143669177
 21
30.6260630541
 12
155.1815540869
 22
30.6260630541
 13
155.1815540869
 23
30.6260630541
  0
SOLID
  8
0
 62
7
  6
CONTINUOUS
 10
155.1815540869
 20
30.6260630541
 11
154.8924916972
 21
30.5938002188
 12
154.5456166972
 22
30.5938002188
 13
154.5456166972
 23
30.5938002188
  0
SOLID
  8
0
 62
7
  6
CONTINUOUS
 10
159.575304528
 20
30.7551187255
 11
159.228429528
 21
30.7228544637
 12
159.4596793074
 22
30.7873815123
 13
159.4596793074
 23
30.7873815123
  0
SOLID
  8
0
 62
7
  6
CONTINUOUS
 10
159.4596793074
 20
30.7873815123
 11
159.228429528
 21
30.7228544637
 12
159.401867028
 22
30.851908644
 13
159.401867028
 23
30.851908644
  0
SOLID
  8
0
 62
7
  6
CONTINUOUS
 10
159.228429528
 20
30.7228544637
 11
159.1128043074
 21
30.851908644
 12
159.401867028
 22
30.851908644
 13
159.401867028
 23
30.851908644
  0
SOLID
  8
0
 62
7
  6
CONTINUOUS
 10
159.575304528
 20
30.7551187255
 11
159.922179528
 21
30.7228544637
 12
159.228429528
 22
30.7228544637
 13
159.228429528
 23
30.7228544637
  0
SOLID
  8
0
 62
7
  6
CONTINUOUS
 10
156.279992028
 20
30.5938002419
 11
156.279992028
 21
31.6262382337
 12
156.5690540869
 22
30.5938002419
 13
156.5690540869
 23
31.6262382337
  0
ENDBLK
  8
0
  6
BYBLOCK
 62
0
  0
BLOCK
  8
0
 62
2
  6
CONTINUOUS
  2
SYMBOL_3_BL0
 70
64
 10
32.1213064866
 20
19.8534310916
  0
TEXT
  8
0
 62
7
  6
CONTINUOUS
 10
18.3860103289
 20
19.2268451992
  7
TEXTSTYLE_3
 40
2.7338706658
  1
Ammeraal Beltech
 41
1.0
 51
15.0
 72
0
  0
TEXT
  8
0
 62
7
  6
CONTINUOUS
 10
29.1868111546
 20
16.9533085264
  7
TEXTSTYLE_4
 40
1.0935482663
  1
Innovation & Service in Belting
 41
1.0
 72
0
  0
LINE
  8
0
 62
7
  6
CONTINUOUS
 10
12.3614696776
 20
19.9934385078
 11
13.1396216709
 21
23.6543558055
  0
LINE
  8
0
 62
7
  6
CONTINUOUS
 10
23.2347899607
 20
27.3177497171
 11
13.6274394139
 21
24.1961322958
  0
LINE
  8
0
 62
7
  6
CONTINUOUS
 10
12.5867530099
 20
19.3000877048
 11
20.093828271
 21
12.5406867788
  0
LINE
  8
0
 62
7
  6
CONTINUOUS
 10
12.8492874206
 20
20.5352149982
 11
23.6575567857
 21
24.0470345971
  0
LINE
  8
0
 62
7
  6
CONTINUOUS
 10
23.6533516486
 20
13.6972460334
 11
15.2078919798
 21
21.3015720751
  0
LINE
  8
0
 62
7
  6
CONTINUOUS
 10
24.1731743684
 20
26.4728246013
 11
23.1966148312
 21
21.8784731989
  0
LINE
  8
0
 62
7
  6
CONTINUOUS
 10
22.4968128835
 20
18.5861638851
 11
21.810364672
 21
15.3566789607
  0
LINE
  8
0
 62
7
  6
CONTINUOUS
 10
24.8542704669
 20
14.087448211
 11
25.8105020025
 21
18.5861638851
  0
LINE
  8
0
 62
7
  6
CONTINUOUS
 10
26.5103039502
 20
21.8784731989
 11
26.9545457526
 21
23.9684665583
  0
LINE
  8
0
 62
7
  6
CONTINUOUS
 10
20.8069293463
 20
12.3891124661
 11
24.3664527239
 21
13.5456717207
  0
LINE
  8
0
 62
7
  6
CONTINUOUS
 10
23.9478910361
 20
27.1661754044
 11
26.7292624203
 21
24.6618173613
  0
ARC
  8
0
 62
7
  6
CONTINUOUS
 10
13.8527227462
 20
23.5027814928
 40
0.7290321776
 50
108.0
 51
168.0
  0
ARC
  8
0
 62
7
  6
CONTINUOUS
 10
23.4600732931
 20
26.624398914
 40
0.7290321776
 50
348.0
 51
108.0
  0
ARC
  8
0
 62
7
  6
CONTINUOUS
 10
26.2414446773
 20
24.120040871
 40
0.7290321776
 50
348.0
 51
48.0
  0
ARC
  8
0
 62
7
  6
CONTINUOUS
 10
20.581646014
 20
13.0824632691
 40
0.7290321776
 50
228.0
 51
288.0
  0
ARC
  8
0
 62
7
  6
CONTINUOUS
 10
13.0745707529
 20
19.8418641951
 40
0.7290321776
 50
108.0
 51
228.0
  0
ARC
  8
0
 62
7
  6
CONTINUOUS
 10
24.1411693916
 20
14.2390225237
 40
0.7290321776
 50
228.0
 51
348.0
  0
ENDBLK
  8
0
  6
BYBLOCK
 62
0
  0
ENDSEC
  0
SECTION
  2
ENTITIES
  0
TEXT
  8
0
 62
5
  6
CONTINUOUS
 10
96.0
 20
25.636
  7
TEXTSTYLE_2
 40
2.8
  1
Scale :
 41
0.6
 51
0.000019
 72
0
  0
TEXT
  8
0
 62
5
  6
CONTINUOUS
 10
116.0
 20
25.636
  7
TEXTSTYLE_2
 40
2.8
  1
Belt type:
 41
0.6
 51
0.000019
 72
0
  0
INSERT
  8
0
 62
2
  6
CONTINUOUS
  2
SYMBOL_3_BL0
 10
32.1213064866
 20
19.8534310916
  0
INSERT
  8
0
 62
2
  6
CONTINUOUS
  2
SYMBOL_8_BL1
 10
173.5956734183
 20
35.5937998301
  0
LINE
  8
0
 62
2
  6
CONTINUOUS
 10
10.0
 20
30.0
 11
200.0
 21
30.0
  0
LINE
  8
0
 62
2
  6
CONTINUOUS
 10
10.0
 20
30.0
 11
10.0
 21
10.0
  0
LINE
  8
0
 62
2
  6
CONTINUOUS
 10
10.0
 20
10.0
 11
200.0
 21
10.0
  0
LINE
  8
0
 62
2
  6
CONTINUOUS
 10
95.0
 20
30.0
 11
95.0
 21
10.0
  0
LINE
  8
0
 62
2
  6
CONTINUOUS
 10
115.0
 20
30.0
 11
115.0
 21
10.0
  0
LINE
  8
0
 62
2
  6
CONTINUOUS
 10
200.0
 20
30.0
 11
200.0
 21
10.0
  0
TEXT
  8
0
 62
5
  6
CONTINUOUS
 10
13.0
 20
23.303
  7
TEXTSTYLE_5
 40
1.52
  1
                                                                     Ammeraal Beltech Modular A/S
 41
1.0
 72
0
  0
TEXT
  8
0
 62
5
  6
CONTINUOUS
 10
13.0
 20
20.595
  7
TEXTSTYLE_5
 40
1.5
  1
                                                                      Hjulmagervej 21,  7100 Vejle,  DK
 41
1.0
 72
0
  0
TEXT
  8
0
 62
5
  6
CONTINUOUS
 10
13.0
 20
17.881
  7
TEXTSTYLE_5
 40
1.495
  1
                                                                      tel: 
 41
1.0
 72
0
  0
TEXT
  8
0
 62
5
  6
CONTINUOUS
 10
57.9869465649
 20
17.881
  7
TEXTSTYLE_5
 40
1.51
  1
+45 75723100     fax: +45 75723348
 41
1.0
 72
0
  0
TEXT
  8
0
 62
5
  6
CONTINUOUS
 10
13.0
 20
15.177
  7
TEXTSTYLE_5
 40
1.5
  1
                                                                      admin@unichains.dk  www.unichains.com
 41
1.0
 72
0
  0
TEXT
  8
0
 62
5
  6
CONTINUOUS
 10
99.75
 20
13.75
  7
TEXTSTYLE_6
 40
5.0
  1
1:1
 41
0.7
 72
1
 11
105.0
 21
13.75
  0
TEXT
  8
0
 62
5
  6
CONTINUOUS
 10
118.0
 20
13.75
  7
TEXTSTYLE_7
 40
7.5
  1
uni JCB-Y K200
 41
0.6726190476
 72
0
  0
LINE
  8
0
 62
7
  6
CONTINUOUS
 10
210.0
 20
0.0
 11
0.0
 21
0.0
  0
LINE
  8
0
 62
7
  6
CONTINUOUS
 10
10.0
 20
10.0
 11
200.0
 21
10.0
  0
LINE
  8
0
 62
7
  6
CONTINUOUS
 10
10.0
 20
30.0
 11
200.0
 21
30.0
  0
LINE
  8
0
 62
7
  6
CONTINUOUS
 10
0.0
 20
0.0
 11
0.0
 21
297.0
  0
LINE
  8
0
 62
7
  6
CONTINUOUS
 10
10.0
 20
10.0
 11
10.0
 21
287.0
  0
LINE
  8
0
 62
7
  6
CONTINUOUS
 10
200.0
 20
287.0
 11
200.0
 21
10.0
  0
LINE
  8
0
 62
7
  6
CONTINUOUS
 10
210.0
 20
0.0
 11
210.0
 21
297.0
  0
LINE
  8
0
 62
7
  6
CONTINUOUS
 10
10.0
 20
287.0
 11
200.0
 21
287.0
  0
LINE
  8
0
 62
7
  6
CONTINUOUS
 10
0.0
 20
297.0
 11
210.0
 21
297.0
  0
LINE
  8
0
 62
7
  6
CONTINUOUS
 10
36.9344951457
 20
174.8708388233
 11
36.9344951457
 21
199.8622142207
  0
LINE
  8
0
 62
7
  6
CONTINUOUS
 10
40.062507168
 20
166.9326551759
 11
40.0469951457
 21
167.0789360787
  0
LINE
  8
0
 62
7
  6
CONTINUOUS
 10
40.0297549335
 20
173.9836537958
 11
40.0473595181
 21
173.848203611
  0
POLYLINE
  8
0
 62
7
  6
CONTINUOUS
 66
1
 70
0
  0
VERTEX
  8
0
 62
7
  6
CONTINUOUS
 10
39.8033162267
 20
192.0456429012
  0
VERTEX
  8
0
 62
7
  6
CONTINUOUS
 10
39.8014956137
 20
192.0685972315
  0
VERTEX
  8
0
 62
7
  6
CONTINUOUS
 10
39.7997964228
 20
192.1058410867
  0
VERTEX
  8
0
 62
7
  6
CONTINUOUS
 10
39.7994951308
 20
192.1297340438
  0
SEQEND
  0
LINE
  8
0
 62
7
  6
CONTINUOUS
 10
39.7994951457
 20
192.0456428893
 11
39.7994951457
 21
199.7402757842
  0
LINE
  8
0
 62
7
  6
CONTINUOUS
 10
40.0469951457
 20
167.0789360787
 11
40.0469951457
 21
174.0805256863
  0
LINE
  8
0
 62
7
  6
CONTINUOUS
 10
40.0494951457
 20
167.0553606706
 11
40.0494951457
 21
166.1841595191
  0
POLYLINE
  8
0
 62
7
  6
CONTINUOUS
 66
1
 70
0
  0
VERTEX
  8
0
 62
7
  6
CONTINUOUS
 10
40.4232163724
 20
177.208335307
  0
VERTEX
  8
0
 62
7
  6
CONTINUOUS
 10
40.4272096555
 20
177.3376974694
  0
VERTEX
  8
0
 62
7
  6
CONTINUOUS
 10
40.4384574079
 20
177.4670210189
  0
VERTEX
  8
0
 62
7
  6
CONTINUOUS
 10
40.4515303802
 20
177.596565807
  0
SEQEND
  0
POLYLINE
  8
0
 62
7
  6
CONTINUOUS
 66
1
 70
0
  0
VERTEX
  8
0
 62
7
  6
CONTINUOUS
 10
40.0469951457
 20
174.0805256863
  0
VERTEX
  8
0
 62
7
  6
CONTINUOUS
 10
40.0485184474
 20
174.1167660698
  0
VERTEX
  8
0
 62
7
  6
CONTINUOUS
 10
40.0599509187
 20
174.1726683903
  0
VERTEX
  8
0
 62
7
  6
CONTINUOUS
 10
40.0688700712
 20
174.1942969921
  0
VERTEX
  8
0
 62
7
  6
CONTINUOUS
 10
40.0906569886
 20
174.2285400769
  0
VERTEX
  8
0
 62
7
  6
CONTINUOUS
 10
40.1026901847
 20
174.241843642
  0
SEQEND
  0
POLYLINE
  8
0
 62
7
  6
CONTINUOUS
 66
1
 70
0
  0
VERTEX
  8
0
 62
7
  6
CONTINUOUS
 10
43.2219951457
 20
198.8454992247
  0
VERTEX
  8
0
 62
7
  6
CONTINUOUS
 10
43.2375180474
 20
198.9918298405
  0
VERTEX
  8
0
 62
7
  6
CONTINUOUS
 10
43.279526383
 20
199.117007905
  0
VERTEX
  8
0
 62
7
  6
CONTINUOUS
 10
43.3411742618
 20
199.2170598742
  0
VERTEX
  8
0
 62
7
  6
CONTINUOUS
 10
43.3769875924
 20
199.2568071965
  0
VERTEX
  8
0
 62
7
  6
CONTINUOUS
 10
43.454649743
 20
199.3162374666
  0
VERTEX
  8
0
 62
7
  6
CONTINUOUS
 10
43.5373145846
 20
199.3508775983
  0
VERTEX
  8
0
 62
7
  6
CONTINUOUS
 10
43.6219951836
 20
199.3622127691
  0
SEQEND
  0
POLYLINE
  8
0
 62
7
  6
CONTINUOUS
 66
1
 70
0
  0
VERTEX
  8
0
 62
7
  6
CONTINUOUS
 10
40.4515303802
 20
177.596565807
  0
VERTEX
  8
0
 62
7
  6
CONTINUOUS
 10
40.5629388727
 20
178.3342529811
  0
VERTEX
  8
0
 62
7
  6
CONTINUOUS
 10
40.7213286455
 20
179.1420711853
  0
VERTEX
  8
0
 62
7
  6
CONTINUOUS
 10
40.9094100406
 20
180.0006230991
  0
VERTEX
  8
0
 62
7
  6
CONTINUOUS
 10
41.0170768834
 20
180.4656815512
  0
VERTEX
  8
0
 62
7
  6
CONTINUOUS
 10
41.2737671305
 20
181.5242012903
  0
VERTEX
  8
0
 62
7
  6
CONTINUOUS
 10
41.599920593
 20
182.7962206433
  0
VERTEX
  8
0
 62
7
  6
CONTINUOUS
 10
42.008574213
 20
184.3042077821
  0
SEQEND
  0
POLYLINE
  8
0
 62
7
  6
CONTINUOUS
 66
1
 70
0
  0
VERTEX
  8
0
 62
7
  6
CONTINUOUS
 10
80.6945581148
 20
165.7852908466
  0
VERTEX
  8
0
 62
7
  6
CONTINUOUS
 10
80.7478740228
 20
165.7929460699
  0
VERTEX
  8
0
 62
7
  6
CONTINUOUS
 10
80.8497451929
 20
165.8296423545
  0
VERTEX
  8
0
 62
7
  6
CONTINUOUS
 10
80.9385889591
 20
165.8928305273
  0
VERTEX
  8
0
 62
7
  6
CONTINUOUS
 10
81.0070201128
 20
165.9775762504
  0
VERTEX
  8
0
 62
7
  6
CONTINUOUS
 10
81.0500623167
 20
166.0776796776
  0
VERTEX
  8
0
 62
7
  6
CONTINUOUS
 10
81.0644951457
 20
166.1841595191
  0
SEQEND
  0
POLYLINE
  8
0
 62
7
  6
CONTINUOUS
 66
1
 70
0
  0
VERTEX
  8
0
 62
7
  6
CONTINUOUS
 10
74.3445581148
 20
165.7852908466
  0
VERTEX
  8
0
 62
7
  6
CONTINUOUS
 10
74.3978740228
 20
165.7929460699
  0
VERTEX
  8
0
 62
7
  6
CONTINUOUS
 10
74.4997451929
 20
165.8296423545
  0
VERTEX
  8
0
 62
7
  6
CONTINUOUS
 10
74.5885889591
 20
165.8928305273
  0
VERTEX
  8
0
 62
7
  6
CONTINUOUS
 10
74.6570201128
 20
165.9775762504
  0
VERTEX
  8
0
 62
7
  6
CONTINUOUS
 10
74.7000623167
 20
166.0776796776
  0
VERTEX
  8
0
 62
7
  6
CONTINUOUS
 10
74.7144951457
 20
166.1841595191
  0
SEQEND
  0
LINE
  8
0
 62
7
  6
CONTINUOUS
 10
80.518057218
 20
165.7708844803
 11
80.6946057129
 21
165.7852949265
  0
POLYLINE
  8
0
 62
7
  6
CONTINUOUS
 66
1
 70
0
  0
VERTEX
  8
0
 62
7
  6
CONTINUOUS
 10
40.4193844718
 20
165.7852949346
  0
VERTEX
  8
0
 62
7
  6
CONTINUOUS
 10
40.5965483076
 20
165.7708344125
  0
VERTEX
  8
0
 62
7
  6
CONTINUOUS
 10
40.6665578136
 20
165.765596155
  0
VERTEX
  8
0
 62
7
  6
CONTINUOUS
 10
40.7251117506
 20
165.7626812094
  0
SEQEND
  0
POLYLINE
  8
0
 62
7
  6
CONTINUOUS
 66
1
 70
0
  0
VERTEX
  8
0
 62
7
  6
CONTINUOUS
 10
40.4469951836
 20
166.5622225343
  0
VERTEX
  8
0
 62
7
  6
CONTINUOUS
 10
40.3623162634
 20
166.57355725
  0
VERTEX
  8
0
 62
7
  6
CONTINUOUS
 10
40.2796536913
 20
166.6081955515
  0
VERTEX
  8
0
 62
7
  6
CONTINUOUS
 10
40.2019903511
 20
166.6676254017
  0
VERTEX
  8
0
 62
7
  6
CONTINUOUS
 10
40.1661788038
 20
166.7073697349
  0
VERTEX
  8
0
 62
7
  6
CONTINUOUS
 10
40.1045334548
 20
166.8074123025
  0
VERTEX
  8
0
 62
7
  6
CONTINUOUS
 10
40.062507168
 20
166.9326551759
  0
SEQEND
  0
POLYLINE
  8
0
 62
7
  6
CONTINUOUS
 66
1
 70
0
  0
VERTEX
  8
0
 62
7
  6
CONTINUOUS
 10
40.4194321765
 20
165.7852908466
  0
VERTEX
  8
0
 62
7
  6
CONTINUOUS
 10
40.3661162686
 20
165.7929460699
  0
VERTEX
  8
0
 62
7
  6
CONTINUOUS
 10
40.2642450984
 20
165.8296423545
  0
VERTEX
  8
0
 62
7
  6
CONTINUOUS
 10
40.1754013323
 20
165.8928305273
  0
VERTEX
  8
0
 62
7
  6
CONTINUOUS
 10
40.1069701786
 20
165.9775762504
  0
VERTEX
  8
0
 62
7
  6
CONTINUOUS
 10
40.0639279747
 20
166.0776796776
  0
VERTEX
  8
0
 62
7
  6
CONTINUOUS
 10
40.0494951457
 20
166.1841595191
  0
SEQEND
  0
LINE
  8
0
 62
7
  6
CONTINUOUS
 10
42.9744951457
 20
173.7871400112
 11
42.9744951457
 21
166.1841595191
  0
LINE
  8
0
 62
7
  6
CONTINUOUS
 10
43.2219951457
 20
198.8454992247
 11
43.2219951457
 21
189.0675983493
  0
LINE
  8
0
 62
7
  6
CONTINUOUS
 10
43.2244951457
 20
198.8690661161
 11
43.2244951457
 21
199.7402757842
  0
POLYLINE
  8
0
 62
7
  6
CONTINUOUS
 66
1
 70
0
  0
VERTEX
  8
0
 62
7
  6
CONTINUOUS
 10
42.9744950907
 20
173.7871185938
  0
VERTEX
  8
0
 62
7
  6
CONTINUOUS
 10
42.9842524834
 20
173.9268430277
  0
VERTEX
  8
0
 62
7
  6
CONTINUOUS
 10
43.0166563878
 20
174.0684222372
  0
VERTEX
  8
0
 62
7
  6
CONTINUOUS
 10
43.0691439085
 20
174.1908788733
  0
VERTEX
  8
0
 62
7
  6
CONTINUOUS
 10
43.1372169593
 20
174.288555212
  0
VERTEX
  8
0
 62
7
  6
CONTINUOUS
 10
43.216185055
 20
174.3586375043
  0
VERTEX
  8
0
 62
7
  6
CONTINUOUS
 10
43.3009294273
 20
174.3991638185
  0
VERTEX
  8
0
 62
7
  6
CONTINUOUS
 10
43.3744951494
 20
174.409988892
  0
SEQEND
  0
POLYLINE
  8
0
 62
7
  6
CONTINUOUS
 66
1
 70
0
  0
VERTEX
  8
0
 62
7
  6
CONTINUOUS
 10
43.2219951457
 20
192.0658138947
  0
VERTEX
  8
0
 62
7
  6
CONTINUOUS
 10
43.2147378734
 20
191.9975926471
  0
VERTEX
  8
0
 62
7
  6
CONTINUOUS
 10
43.1823339469
 20
191.8560132105
  0
VERTEX
  8
0
 62
7
  6
CONTINUOUS
 10
43.1298464388
 20
191.7335565414
  0
VERTEX
  8
0
 62
7
  6
CONTINUOUS
 10
43.0617734051
 20
191.6358801564
  0
VERTEX
  8
0
 62
7
  6
CONTINUOUS
 10
42.9828053469
 20
191.5657978624
  0
VERTEX
  8
0
 62
7
  6
CONTINUOUS
 10
42.8980610998
 20
191.5252715455
  0
VERTEX
  8
0
 62
7
  6
CONTINUOUS
 10
42.8244951451
 20
191.514446396
  0
SEQEND
  0
LINE
  8
0
 62
7
  6
CONTINUOUS
 10
40.4344689093
 20
178.6572806326
 11
40.4175694161
 21
178.5965568562
  0
LINE
  8
0
 62
7
  6
CONTINUOUS
 10
43.1118235503
 20
188.2620601492
 11
42.008574213
 21
184.3042077821
  0
POLYLINE
  8
0
 62
7
  6
CONTINUOUS
 66
1
 70
0
  0
VERTEX
  8
0
 62
7
  6
CONTINUOUS
 10
67.9945581148
 20
165.7852908466
  0
VERTEX
  8
0
 62
7
  6
CONTINUOUS
 10
68.0478740228
 20
165.7929460699
  0
VERTEX
  8
0
 62
7
  6
CONTINUOUS
 10
68.1497451929
 20
165.8296423545
  0
VERTEX
  8
0
 62
7
  6
CONTINUOUS
 10
68.2385889591
 20
165.8928305273
  0
VERTEX
  8
0
 62
7
  6
CONTINUOUS
 10
68.3070201128
 20
165.9775762504
  0
VERTEX
  8
0
 62
7
  6
CONTINUOUS
 10
68.3500623167
 20
166.0776796776
  0
VERTEX
  8
0
 62
7
  6
CONTINUOUS
 10
68.3644951457
 20
166.1841595191
  0
SEQEND
  0
POLYLINE
  8
0
 62
7
  6
CONTINUOUS
 66
1
 70
0
  0
VERTEX
  8
0
 62
7
  6
CONTINUOUS
 10
61.6545581148
 20
165.7852908466
  0
VERTEX
  8
0
 62
7
  6
CONTINUOUS
 10
61.7078740228
 20
165.7929460699
  0
VERTEX
  8
0
 62
7
  6
CONTINUOUS
 10
61.8097451929
 20
165.8296423545
  0
VERTEX
  8
0
 62
7
  6
CONTINUOUS
 10
61.8985889591
 20
165.8928305273
  0
VERTEX
  8
0
 62
7
  6
CONTINUOUS
 10
61.9670201128
 20
165.9775762504
  0
VERTEX
  8
0
 62
7
  6
CONTINUOUS
 10
62.0100623167
 20
166.0776796776
  0
VERTEX
  8
0
 62
7
  6
CONTINUOUS
 10
62.0244951457
 20
166.1841595191
  0
SEQEND
  0
POLYLINE
  8
0
 62
7
  6
CONTINUOUS
 66
1
 70
0
  0
VERTEX
  8
0
 62
7
  6
CONTINUOUS
 10
55.3045581148
 20
165.7852908466
  0
VERTEX
  8
0
 62
7
  6
CONTINUOUS
 10
55.3578740228
 20
165.7929460699
  0
VERTEX
  8
0
 62
7
  6
CONTINUOUS
 10
55.4597451929
 20
165.8296423545
  0
VERTEX
  8
0
 62
7
  6
CONTINUOUS
 10
55.5485889591
 20
165.8928305273
  0
VERTEX
  8
0
 62
7
  6
CONTINUOUS
 10
55.6170201128
 20
165.9775762504
  0
VERTEX
  8
0
 62
7
  6
CONTINUOUS
 10
55.6600623167
 20
166.0776796776
  0
VERTEX
  8
0
 62
7
  6
CONTINUOUS
 10
55.6744951457
 20
166.1841595191
  0
SEQEND
  0
LINE
  8
0
 62
7
  6
CONTINUOUS
 10
74.168057218
 20
165.7708844803
 11
74.3446057129
 21
165.7852949265
  0
LINE
  8
0
 62
7
  6
CONTINUOUS
 10
67.818057218
 20
165.7708844803
 11
67.9946057129
 21
165.7852949265
  0
LINE
  8
0
 62
7
  6
CONTINUOUS
 10
61.478057218
 20
165.7708844803
 11
61.6546057129
 21
165.7852949265
  0
LINE
  8
0
 62
7
  6
CONTINUOUS
 10
55.128057218
 20
165.7708844803
 11
55.3046057129
 21
165.7852949265
  0
LINE
  8
0
 62
7
  6
CONTINUOUS
 10
48.778057218
 20
165.7708844803
 11
48.9546057129
 21
165.7852949265
  0
POLYLINE
  8
0
 62
7
  6
CONTINUOUS
 66
1
 70
0
  0
VERTEX
  8
0
 62
7
  6
CONTINUOUS
 10
80.3596856626
 20
165.7622183363
  0
VERTEX
  8
0
 62
7
  6
CONTINUOUS
 10
80.3897682543
 20
165.7627082078
  0
VERTEX
  8
0
 62
7
  6
CONTINUOUS
 10
80.4481839995
 20
165.7656452153
  0
VERTEX
  8
0
 62
7
  6
CONTINUOUS
 10
80.518057218
 20
165.7708844803
  0
SEQEND
  0
POLYLINE
  8
0
 62
7
  6
CONTINUOUS
 66
1
 70
0
  0
VERTEX
  8
0
 62
7
  6
CONTINUOUS
 10
74.0096856626
 20
165.7622183363
  0
VERTEX
  8
0
 62
7
  6
CONTINUOUS
 10
74.0397682543
 20
165.7627082078
  0
VERTEX
  8
0
 62
7
  6
CONTINUOUS
 10
74.0981839995
 20
165.7656452153
  0
VERTEX
  8
0
 62
7
  6
CONTINUOUS
 10
74.168057218
 20
165.7708844803
  0
SEQEND
  0
POLYLINE
  8
0
 62
7
  6
CONTINUOUS
 66
1
 70
0
  0
VERTEX
  8
0
 62
7
  6
CONTINUOUS
 10
67.6596856626
 20
165.7622183363
  0
VERTEX
  8
0
 62
7
  6
CONTINUOUS
 10
67.6897682543
 20
165.7627082078
  0
VERTEX
  8
0
 62
7
  6
CONTINUOUS
 10
67.7481839995
 20
165.7656452153
  0
VERTEX
  8
0
 62
7
  6
CONTINUOUS
 10
67.818057218
 20
165.7708844803
  0
SEQEND
  0
POLYLINE
  8
0
 62
7
  6
CONTINUOUS
 66
1
 70
0
  0
VERTEX
  8
0
 62
7
  6
CONTINUOUS
 10
61.3196856627
 20
165.7622183363
  0
VERTEX
  8
0
 62
7
  6
CONTINUOUS
 10
61.3497682543
 20
165.7627082078
  0
VERTEX
  8
0
 62
7
  6
CONTINUOUS
 10
61.4081839995
 20
165.7656452153
  0
VERTEX
  8
0
 62
7
  6
CONTINUOUS
 10
61.478057218
 20
165.7708844803
  0
SEQEND
  0
POLYLINE
  8
0
 62
7
  6
CONTINUOUS
 66
1
 70
0
  0
VERTEX
  8
0
 62
7
  6
CONTINUOUS
 10
54.9696856627
 20
165.7622183363
  0
VERTEX
  8
0
 62
7
  6
CONTINUOUS
 10
54.9997682543
 20
165.7627082078
  0
VERTEX
  8
0
 62
7
  6
CONTINUOUS
 10
55.0581839995
 20
165.7656452153
  0
VERTEX
  8
0
 62
7
  6
CONTINUOUS
 10
55.128057218
 20
165.7708844803
  0
SEQEND
  0
POLYLINE
  8
0
 62
7
  6
CONTINUOUS
 66
1
 70
0
  0
VERTEX
  8
0
 62
7
  6
CONTINUOUS
 10
48.6196856627
 20
165.7622183363
  0
VERTEX
  8
0
 62
7
  6
CONTINUOUS
 10
48.6497682543
 20
165.7627082078
  0
VERTEX
  8
0
 62
7
  6
CONTINUOUS
 10
48.7081839995
 20
165.7656452153
  0
VERTEX
  8
0
 62
7
  6
CONTINUOUS
 10
48.778057218
 20
165.7708844803
  0
SEQEND
  0
POLYLINE
  8
0
 62
7
  6
CONTINUOUS
 66
1
 70
0
  0
VERTEX
  8
0
 62
7
  6
CONTINUOUS
 10
42.2696856627
 20
165.7622183363
  0
VERTEX
  8
0
 62
7
  6
CONTINUOUS
 10
42.2997682543
 20
165.7627082078
  0
VERTEX
  8
0
 62
7
  6
CONTINUOUS
 10
42.3581839995
 20
165.7656452153
  0
VERTEX
  8
0
 62
7
  6
CONTINUOUS
 10
42.428057218
 20
165.7708844803
  0
SEQEND
  0
LINE
  8
0
 62
7
  6
CONTINUOUS
 10
80.6644951457
 20
166.5622176517
 11
80.6669951457
 21
166.5622211673
  0
LINE
  8
0
 62
7
  6
CONTINUOUS
 10
74.3144951457
 20
166.5622176517
 11
74.3169951457
 21
166.5622211673
  0
LINE
  8
0
 62
7
  6
CONTINUOUS
 10
67.9644951457
 20
166.5622176517
 11
67.9669951457
 21
166.5622211673
  0
LINE
  8
0
 62
7
  6
CONTINUOUS
 10
80.3608249741
 20
165.7622176517
 11
79.2894951457
 21
165.7622176517
  0
LINE
  8
0
 62
7
  6
CONTINUOUS
 10
74.0108249741
 20
165.7622176517
 11
72.4931653173
 21
165.7622176517
  0
LINE
  8
0
 62
7
  6
CONTINUOUS
 10
67.6608249741
 20
165.7622176517
 11
66.1431653173
 21
165.7622176517
  0
LINE
  8
0
 62
7
  6
CONTINUOUS
 10
40.7531653173
 20
165.7622176517
 11
42.2708249741
 21
165.7622176517
  0
LINE
  8
0
 62
7
  6
CONTINUOUS
 10
47.5494951457
 20
165.7622176517
 11
48.6208249741
 21
165.7622176517
  0
LINE
  8
0
 62
7
  6
CONTINUOUS
 10
53.4531653173
 20
165.7622176517
 11
54.9708249741
 21
165.7622176517
  0
LINE
  8
0
 62
7
  6
CONTINUOUS
 10
59.8031653173
 20
165.7622176517
 11
61.3208249741
 21
165.7622176517
  0
LINE
  8
0
 62
7
  6
CONTINUOUS
 10
85.1931653173
 20
165.7622176517
 11
87.0544951457
 21
165.7622176517
  0
LINE
  8
0
 62
7
  6
CONTINUOUS
 10
79.2894951457
 20
166.5622176517
 11
79.2394951457
 21
166.5622176517
  0
LINE
  8
0
 62
7
  6
CONTINUOUS
 10
47.4994951457
 20
166.5622176517
 11
47.5494951456
 21
166.5622176517
  0
LINE
  8
0
 62
7
  6
CONTINUOUS
 10
40.4469951457
 20
166.5622211673
 11
40.4494951457
 21
166.5622176517
  0
LINE
  8
0
 62
7
  6
CONTINUOUS
 10
53.1469951457
 20
166.5622211673
 11
53.1494951457
 21
166.5622176517
  0
LINE
  8
0
 62
7
  6
CONTINUOUS
 10
59.4969951457
 20
166.5622211673
 11
59.4994951457
 21
166.5622176517
  0
LINE
  8
0
 62
7
  6
CONTINUOUS
 10
40.7251117506
 20
165.7626812094
 11
40.7543054555
 21
165.7622183362
  0
LINE
  8
0
 62
7
  6
CONTINUOUS
 10
53.4251117506
 20
165.7626812094
 11
53.4543054555
 21
165.7622183362
  0
LINE
  8
0
 62
7
  6
CONTINUOUS
 10
59.7751117506
 20
165.7626812094
 11
59.8043054555
 21
165.7622183362
  0
LINE
  8
0
 62
7
  6
CONTINUOUS
 10
66.1151117506
 20
165.7626812094
 11
66.1443054555
 21
165.7622183362
  0
LINE
  8
0
 62
7
  6
CONTINUOUS
 10
72.4651117506
 20
165.7626812094
 11
72.4943054555
 21
165.7622183362
  0
LINE
  8
0
 62
7
  6
CONTINUOUS
 10
85.1651117506
 20
165.7626812094
 11
85.1943054555
 21
165.7622183362
  0
POLYLINE
  8
0
 62
7
  6
CONTINUOUS
 66
1
 70
0
  0
VERTEX
  8
0
 62
7
  6
CONTINUOUS
 10
53.1193844718
 20
165.7852949346
  0
VERTEX
  8
0
 62
7
  6
CONTINUOUS
 10
53.2965483076
 20
165.7708344125
  0
VERTEX
  8
0
 62
7
  6
CONTINUOUS
 10
53.3665578136
 20
165.765596155
  0
VERTEX
  8
0
 62
7
  6
CONTINUOUS
 10
53.4251117506
 20
165.7626812094
  0
SEQEND
  0
POLYLINE
  8
0
 62
7
  6
CONTINUOUS
 66
1
 70
0
  0
VERTEX
  8
0
 62
7
  6
CONTINUOUS
 10
59.4693844718
 20
165.7852949346
  0
VERTEX
  8
0
 62
7
  6
CONTINUOUS
 10
59.6465483076
 20
165.7708344125
  0
VERTEX
  8
0
 62
7
  6
CONTINUOUS
 10
59.7165578136
 20
165.765596155
  0
VERTEX
  8
0
 62
7
  6
CONTINUOUS
 10
59.7751117506
 20
165.7626812094
  0
SEQEND
  0
POLYLINE
  8
0
 62
7
  6
CONTINUOUS
 66
1
 70
0
  0
VERTEX
  8
0
 62
7
  6
CONTINUOUS
 10
65.8093844718
 20
165.7852949346
  0
VERTEX
  8
0
 62
7
  6
CONTINUOUS
 10
65.9865483076
 20
165.7708344125
  0
VERTEX
  8
0
 62
7
  6
CONTINUOUS
 10
66.0565578136
 20
165.765596155
  0
VERTEX
  8
0
 62
7
  6
CONTINUOUS
 10
66.1151117506
 20
165.7626812094
  0
SEQEND
  0
POLYLINE
  8
0
 62
7
  6
CONTINUOUS
 66
1
 70
0
  0
VERTEX
  8
0
 62
7
  6
CONTINUOUS
 10
72.1593844718
 20
165.7852949346
  0
VERTEX
  8
0
 62
7
  6
CONTINUOUS
 10
72.3365483076
 20
165.7708344125
  0
VERTEX
  8
0
 62
7
  6
CONTINUOUS
 10
72.4065578136
 20
165.765596155
  0
VERTEX
  8
0
 62
7
  6
CONTINUOUS
 10
72.4651117506
 20
165.7626812094
  0
SEQEND
  0
POLYLINE
  8
0
 62
7
  6
CONTINUOUS
 66
1
 70
0
  0
VERTEX
  8
0
 62
7
  6
CONTINUOUS
 10
53.1469951836
 20
166.5622225343
  0
VERTEX
  8
0
 62
7
  6
CONTINUOUS
 10
53.0623162634
 20
166.57355725
  0
VERTEX
  8
0
 62
7
  6
CONTINUOUS
 10
52.9796536913
 20
166.6081955515
  0
VERTEX
  8
0
 62
7
  6
CONTINUOUS
 10
52.9019903511
 20
166.6676254017
  0
VERTEX
  8
0
 62
7
  6
CONTINUOUS
 10
52.8661788038
 20
166.7073697349
  0
VERTEX
  8
0
 62
7
  6
CONTINUOUS
 10
52.8045334548
 20
166.8074123025
  0
VERTEX
  8
0
 62
7
  6
CONTINUOUS
 10
52.762507168
 20
166.9326551759
  0
SEQEND
  0
POLYLINE
  8
0
 62
7
  6
CONTINUOUS
 66
1
 70
0
  0
VERTEX
  8
0
 62
7
  6
CONTINUOUS
 10
59.4969951836
 20
166.5622225343
  0
VERTEX
  8
0
 62
7
  6
CONTINUOUS
 10
59.4123162634
 20
166.57355725
  0
VERTEX
  8
0
 62
7
  6
CONTINUOUS
 10
59.3296536913
 20
166.6081955515
  0
VERTEX
  8
0
 62
7
  6
CONTINUOUS
 10
59.2519903511
 20
166.6676254017
  0
VERTEX
  8
0
 62
7
  6
CONTINUOUS
 10
59.2161788038
 20
166.7073697349
  0
VERTEX
  8
0
 62
7
  6
CONTINUOUS
 10
59.1545334548
 20
166.8074123025
  0
VERTEX
  8
0
 62
7
  6
CONTINUOUS
 10
59.112507168
 20
166.9326551759
  0
SEQEND
  0
POLYLINE
  8
0
 62
7
  6
CONTINUOUS
 66
1
 70
0
  0
VERTEX
  8
0
 62
7
  6
CONTINUOUS
 10
53.1194321765
 20
165.7852908466
  0
VERTEX
  8
0
 62
7
  6
CONTINUOUS
 10
53.0661162686
 20
165.7929460699
  0
VERTEX
  8
0
 62
7
  6
CONTINUOUS
 10
52.9642450984
 20
165.8296423545
  0
VERTEX
  8
0
 62
7
  6
CONTINUOUS
 10
52.8754013323
 20
165.8928305273
  0
VERTEX
  8
0
 62
7
  6
CONTINUOUS
 10
52.8069701786
 20
165.9775762504
  0
VERTEX
  8
0
 62
7
  6
CONTINUOUS
 10
52.7639279747
 20
166.0776796776
  0
VERTEX
  8
0
 62
7
  6
CONTINUOUS
 10
52.7494951457
 20
166.1841595191
  0
SEQEND
  0
POLYLINE
  8
0
 62
7
  6
CONTINUOUS
 66
1
 70
0
  0
VERTEX
  8
0
 62
7
  6
CONTINUOUS
 10
59.4694321765
 20
165.7852908466
  0
VERTEX
  8
0
 62
7
  6
CONTINUOUS
 10
59.4161162686
 20
165.7929460699
  0
VERTEX
  8
0
 62
7
  6
CONTINUOUS
 10
59.3142450984
 20
165.8296423545
  0
VERTEX
  8
0
 62
7
  6
CONTINUOUS
 10
59.2254013323
 20
165.8928305273
  0
VERTEX
  8
0
 62
7
  6
CONTINUOUS
 10
59.1569701786
 20
165.9775762504
  0
VERTEX
  8
0
 62
7
  6
CONTINUOUS
 10
59.1139279747
 20
166.0776796776
  0
VERTEX
  8
0
 62
7
  6
CONTINUOUS
 10
59.0994951457
 20
166.1841595191
  0
SEQEND
  0
POLYLINE
  8
0
 62
7
  6
CONTINUOUS
 66
1
 70
0
  0
VERTEX
  8
0
 62
7
  6
CONTINUOUS
 10
65.8094321765
 20
165.7852908466
  0
VERTEX
  8
0
 62
7
  6
CONTINUOUS
 10
65.7561162686
 20
165.7929460699
  0
VERTEX
  8
0
 62
7
  6
CONTINUOUS
 10
65.6542450984
 20
165.8296423545
  0
VERTEX
  8
0
 62
7
  6
CONTINUOUS
 10
65.5654013323
 20
165.8928305273
  0
VERTEX
  8
0
 62
7
  6
CONTINUOUS
 10
65.4969701786
 20
165.9775762504
  0
VERTEX
  8
0
 62
7
  6
CONTINUOUS
 10
65.4539279747
 20
166.0776796776
  0
VERTEX
  8
0
 62
7
  6
CONTINUOUS
 10
65.4394951457
 20
166.1841595191
  0
SEQEND
  0
POLYLINE
  8
0
 62
7
  6
CONTINUOUS
 66
1
 70
0
  0
VERTEX
  8
0
 62
7
  6
CONTINUOUS
 10
47.4994951457
 20
166.5622176517
  0
VERTEX
  8
0
 62
7
  6
CONTINUOUS
 10
47.4185016716
 20
166.5741009679
  0
VERTEX
  8
0
 62
7
  6
CONTINUOUS
 10
47.3388735385
 20
166.6111444328
  0
VERTEX
  8
0
 62
7
  6
CONTINUOUS
 10
47.2669167976
 20
166.6734950851
  0
VERTEX
  8
0
 62
7
  6
CONTINUOUS
 10
47.2064855268
 20
166.7627872381
  0
VERTEX
  8
0
 62
7
  6
CONTINUOUS
 10
47.1649969436
 20
166.8768961529
  0
VERTEX
  8
0
 62
7
  6
CONTINUOUS
 10
47.1494951457
 20
167.0122176517
  0
SEQEND
  0
LINE
  8
0
 62
7
  6
CONTINUOUS
 10
39.8534361868
 20
191.8223051525
 11
39.8542713793
 21
191.8200980742
  0
POLYLINE
  8
0
 62
7
  6
CONTINUOUS
 66
1
 70
0
  0
VERTEX
  8
0
 62
7
  6
CONTINUOUS
 10
39.8534052273
 20
191.8223887663
  0
VERTEX
  8
0
 62
7
  6
CONTINUOUS
 10
39.8317726921
 20
191.8887767259
  0
VERTEX
  8
0
 62
7
  6
CONTINUOUS
 10
39.8033172918
 20
192.0456428893
  0
SEQEND
  0
LINE
  8
0
 62
7
  6
CONTINUOUS
 10
45.3994951457
 20
191.919445866
 11
45.3994951457
 21
199.7622169761
  0
LINE
  8
0
 62
7
  6
CONTINUOUS
 10
46.1469951457
 20
189.4779014065
 11
46.1469951457
 21
191.1644831186
  0
LINE
  8
0
 62
7
  6
CONTINUOUS
 10
46.3969951457
 20
176.4207581865
 11
46.3969951457
 21
174.759984149
  0
LINE
  8
0
 62
7
  6
CONTINUOUS
 10
47.1494951457
 20
166.1622183273
 11
47.1494951457
 21
174.0049882881
  0
POLYLINE
  8
0
 62
7
  6
CONTINUOUS
 66
1
 70
0
  0
VERTEX
  8
0
 62
7
  6
CONTINUOUS
 10
46.1275529867
 20
188.9952757493
  0
VERTEX
  8
0
 62
7
  6
CONTINUOUS
 10
46.1232641322
 20
188.5721803727
  0
VERTEX
  8
0
 62
7
  6
CONTINUOUS
 10
46.143435347
 20
188.3614997725
  0
VERTEX
  8
0
 62
7
  6
CONTINUOUS
 10
46.2279356076
 20
187.9471092371
  0
SEQEND
  0
LINE
  8
0
 62
7
  6
CONTINUOUS
 10
46.1469951457
 20
189.4779014065
 11
46.1275529867
 21
188.9952757493
  0
LINE
  8
0
 62
7
  6
CONTINUOUS
 10
42.5719951457
 20
167.0427405778
 11
42.5744951457
 21
167.0538614969
  0
LINE
  8
0
 62
7
  6
CONTINUOUS
 10
43.0821667411
 20
177.6623751542
 11
44.4798118207
 21
182.6763578218
  0
POLYLINE
  8
0
 62
7
  6
CONTINUOUS
 66
1
 70
0
  0
VERTEX
  8
0
 62
7
  6
CONTINUOUS
 10
48.9545581148
 20
165.7852908466
  0
VERTEX
  8
0
 62
7
  6
CONTINUOUS
 10
49.0078740228
 20
165.7929460699
  0
VERTEX
  8
0
 62
7
  6
CONTINUOUS
 10
49.1097451929
 20
165.8296423545
  0
VERTEX
  8
0
 62
7
  6
CONTINUOUS
 10
49.1985889591
 20
165.8928305273
  0
VERTEX
  8
0
 62
7
  6
CONTINUOUS
 10
49.2670201128
 20
165.9775762504
  0
VERTEX
  8
0
 62
7
  6
CONTINUOUS
 10
49.3100623167
 20
166.0776796776
  0
VERTEX
  8
0
 62
7
  6
CONTINUOUS
 10
49.3244951457
 20
166.1841595191
  0
SEQEND
  0
POLYLINE
  8
0
 62
7
  6
CONTINUOUS
 66
1
 70
0
  0
VERTEX
  8
0
 62
7
  6
CONTINUOUS
 10
42.6045581148
 20
165.7852908466
  0
VERTEX
  8
0
 62
7
  6
CONTINUOUS
 10
42.6578740228
 20
165.7929460699
  0
VERTEX
  8
0
 62
7
  6
CONTINUOUS
 10
42.7597451929
 20
165.8296423545
  0
VERTEX
  8
0
 62
7
  6
CONTINUOUS
 10
42.8485889591
 20
165.8928305273
  0
VERTEX
  8
0
 62
7
  6
CONTINUOUS
 10
42.9170201128
 20
165.9775762504
  0
VERTEX
  8
0
 62
7
  6
CONTINUOUS
 10
42.9600623167
 20
166.0776796776
  0
VERTEX
  8
0
 62
7
  6
CONTINUOUS
 10
42.9744951457
 20
166.1841595191
  0
SEQEND
  0
LINE
  8
0
 62
7
  6
CONTINUOUS
 10
42.428057218
 20
165.7708844803
 11
42.6046057129
 21
165.7852949265
  0
POLYLINE
  8
0
 62
7
  6
CONTINUOUS
 66
1
 70
0
  0
VERTEX
  8
0
 62
7
  6
CONTINUOUS
 10
84.8593844718
 20
165.7852949346
  0
VERTEX
  8
0
 62
7
  6
CONTINUOUS
 10
85.0365483076
 20
165.7708344125
  0
VERTEX
  8
0
 62
7
  6
CONTINUOUS
 10
85.1065578136
 20
165.765596155
  0
VERTEX
  8
0
 62
7
  6
CONTINUOUS
 10
85.1651117506
 20
165.7626812094
  0
SEQEND
  0
POLYLINE
  8
0
 62
7
  6
CONTINUOUS
 66
1
 70
0
  0
VERTEX
  8
0
 62
7
  6
CONTINUOUS
 10
72.1594321765
 20
165.7852908466
  0
VERTEX
  8
0
 62
7
  6
CONTINUOUS
 10
72.1061162686
 20
165.7929460699
  0
VERTEX
  8
0
 62
7
  6
CONTINUOUS
 10
72.0042450984
 20
165.8296423545
  0
VERTEX
  8
0
 62
7
  6
CONTINUOUS
 10
71.9154013323
 20
165.8928305273
  0
VERTEX
  8
0
 62
7
  6
CONTINUOUS
 10
71.8469701786
 20
165.9775762504
  0
VERTEX
  8
0
 62
7
  6
CONTINUOUS
 10
71.8039279747
 20
166.0776796776
  0
VERTEX
  8
0
 62
7
  6
CONTINUOUS
 10
71.7894951457
 20
166.1841595191
  0
SEQEND
  0
POLYLINE
  8
0
 62
7
  6
CONTINUOUS
 66
1
 70
0
  0
VERTEX
  8
0
 62
7
  6
CONTINUOUS
 10
84.8594321765
 20
165.7852908466
  0
VERTEX
  8
0
 62
7
  6
CONTINUOUS
 10
84.8061162686
 20
165.7929460699
  0
VERTEX
  8
0
 62
7
  6
CONTINUOUS
 10
84.7042450984
 20
165.8296423545
  0
VERTEX
  8
0
 62
7
  6
CONTINUOUS
 10
84.6154013323
 20
165.8928305273
  0
VERTEX
  8
0
 62
7
  6
CONTINUOUS
 10
84.5469701786
 20
165.9775762504
  0
VERTEX
  8
0
 62
7
  6
CONTINUOUS
 10
84.5039279747
 20
166.0776796776
  0
VERTEX
  8
0
 62
7
  6
CONTINUOUS
 10
84.4894951457
 20
166.1841595191
  0
SEQEND
  0
POLYLINE
  8
0
 62
7
  6
CONTINUOUS
 66
1
 70
0
  0
VERTEX
  8
0
 62
7
  6
CONTINUOUS
 10
79.2394951457
 20
166.5622176517
  0
VERTEX
  8
0
 62
7
  6
CONTINUOUS
 10
79.1585036988
 20
166.5741003642
  0
VERTEX
  8
0
 62
7
  6
CONTINUOUS
 10
79.0788533539
 20
166.6111575393
  0
VERTEX
  8
0
 62
7
  6
CONTINUOUS
 10
79.0069058882
 20
166.6735073709
  0
VERTEX
  8
0
 62
7
  6
CONTINUOUS
 10
78.9464805723
 20
166.7627969506
  0
VERTEX
  8
0
 62
7
  6
CONTINUOUS
 10
78.9049940977
 20
166.876908174
  0
VERTEX
  8
0
 62
7
  6
CONTINUOUS
 10
78.8894951457
 20
167.0122176517
  0
SEQEND
  0
POLYLINE
  8
0
 62
7
  6
CONTINUOUS
 66
1
 70
0
  0
VERTEX
  8
0
 62
7
  6
CONTINUOUS
 10
37.2122530392
 20
174.5716644857
  0
VERTEX
  8
0
 62
7
  6
CONTINUOUS
 10
37.1246256501
 20
174.5916817174
  0
VERTEX
  8
0
 62
7
  6
CONTINUOUS
 10
37.0478463566
 20
174.6359724229
  0
VERTEX
  8
0
 62
7
  6
CONTINUOUS
 10
36.9871483157
 20
174.7010756259
  0
VERTEX
  8
0
 62
7
  6
CONTINUOUS
 10
36.9481511489
 20
174.7813563435
  0
VERTEX
  8
0
 62
7
  6
CONTINUOUS
 10
36.9344951457
 20
174.8708388307
  0
SEQEND
  0
POLYLINE
  8
0
 62
7
  6
CONTINUOUS
 66
1
 70
0
  0
VERTEX
  8
0
 62
7
  6
CONTINUOUS
 10
44.7687663094
 20
182.6769282528
  0
VERTEX
  8
0
 62
7
  6
CONTINUOUS
 10
44.7471508064
 20
182.7229766635
  0
VERTEX
  8
0
 62
7
  6
CONTINUOUS
 10
44.7122540608
 20
182.7593144004
  0
VERTEX
  8
0
 62
7
  6
CONTINUOUS
 10
44.6691666442
 20
182.7823938473
  0
VERTEX
  8
0
 62
7
  6
CONTINUOUS
 10
44.6228194309
 20
182.7897273607
  0
VERTEX
  8
0
 62
7
  6
CONTINUOUS
 10
44.5768082205
 20
182.7806779819
  0
VERTEX
  8
0
 62
7
  6
CONTINUOUS
 10
44.534018131
 20
182.7566068957
  0
VERTEX
  8
0
 62
7
  6
CONTINUOUS
 10
44.500373973
 20
182.7207327584
  0
VERTEX
  8
0
 62
7
  6
CONTINUOUS
 10
44.4798118207
 20
182.6763578218
  0
SEQEND
  0
LINE
  8
0
 62
7
  6
CONTINUOUS
 10
44.7687663094
 20
182.6769282528
 11
46.2866668615
 21
177.2284164265
  0
POLYLINE
  8
0
 62
7
  6
CONTINUOUS
 66
1
 70
0
  0
VERTEX
  8
0
 62
7
  6
CONTINUOUS
 10
46.2866668615
 20
177.2284164265
  0
VERTEX
  8
0
 62
7
  6
CONTINUOUS
 10
46.3692568676
 20
176.8286340224
  0
VERTEX
  8
0
 62
7
  6
CONTINUOUS
 10
46.3969951457
 20
176.4207581865
  0
SEQEND
  0
LINE
  8
0
 62
7
  6
CONTINUOUS
 10
49.3244951457
 20
173.7871400112
 11
49.3244951457
 21
166.1841595191
  0
LINE
  8
0
 62
7
  6
CONTINUOUS
 10
49.5719951457
 20
198.8454992247
 11
49.5719951457
 21
189.0675983493
  0
LINE
  8
0
 62
7
  6
CONTINUOUS
 10
49.5744951457
 20
198.8690661161
 11
49.5744951457
 21
199.7402757842
  0
POLYLINE
  8
0
 62
7
  6
CONTINUOUS
 66
1
 70
0
  0
VERTEX
  8
0
 62
7
  6
CONTINUOUS
 10
49.5719951457
 20
198.8454992247
  0
VERTEX
  8
0
 62
7
  6
CONTINUOUS
 10
49.5875180474
 20
198.9918298405
  0
VERTEX
  8
0
 62
7
  6
CONTINUOUS
 10
49.629526383
 20
199.117007905
  0
VERTEX
  8
0
 62
7
  6
CONTINUOUS
 10
49.6911742618
 20
199.2170598742
  0
VERTEX
  8
0
 62
7
  6
CONTINUOUS
 10
49.7269875924
 20
199.2568071965
  0
VERTEX
  8
0
 62
7
  6
CONTINUOUS
 10
49.804649743
 20
199.3162374666
  0
VERTEX
  8
0
 62
7
  6
CONTINUOUS
 10
49.8873145846
 20
199.3508775983
  0
VERTEX
  8
0
 62
7
  6
CONTINUOUS
 10
49.9719951836
 20
199.3622127691
  0
SEQEND
  0
POLYLINE
  8
0
 62
7
  6
CONTINUOUS
 66
1
 70
0
  0
VERTEX
  8
0
 62
7
  6
CONTINUOUS
 10
49.5719951457
 20
192.0658138947
  0
VERTEX
  8
0
 62
7
  6
CONTINUOUS
 10
49.5647378734
 20
191.9975926471
  0
VERTEX
  8
0
 62
7
  6
CONTINUOUS
 10
49.5323339469
 20
191.8560132105
  0
VERTEX
  8
0
 62
7
  6
CONTINUOUS
 10
49.4798464388
 20
191.7335565414
  0
VERTEX
  8
0
 62
7
  6
CONTINUOUS
 10
49.4117734051
 20
191.6358801564
  0
VERTEX
  8
0
 62
7
  6
CONTINUOUS
 10
49.3328053469
 20
191.5657978624
  0
VERTEX
  8
0
 62
7
  6
CONTINUOUS
 10
49.2480610998
 20
191.5252715455
  0
VERTEX
  8
0
 62
7
  6
CONTINUOUS
 10
49.1744951451
 20
191.514446396
  0
SEQEND
  0
LINE
  8
0
 62
7
  6
CONTINUOUS
 10
49.4618235503
 20
188.2620601492
 11
47.9451311437
 21
182.8210010909
  0
POLYLINE
  8
0
 62
7
  6
CONTINUOUS
 66
1
 70
0
  0
VERTEX
  8
0
 62
7
  6
CONTINUOUS
 10
42.5744951457
 20
167.0538614969
  0
VERTEX
  8
0
 62
7
  6
CONTINUOUS
 10
42.5790720229
 20
167.0668185999
  0
VERTEX
  8
0
 62
7
  6
CONTINUOUS
 10
42.6001948872
 20
167.0953169571
  0
VERTEX
  8
0
 62
7
  6
CONTINUOUS
 10
42.6368610371
 20
167.1266817541
  0
VERTEX
  8
0
 62
7
  6
CONTINUOUS
 10
42.6872298465
 20
167.1634891008
  0
VERTEX
  8
0
 62
7
  6
CONTINUOUS
 10
42.7506100925
 20
167.2119760882
  0
VERTEX
  8
0
 62
7
  6
CONTINUOUS
 10
42.824432329
 20
167.282225022
  0
VERTEX
  8
0
 62
7
  6
CONTINUOUS
 10
42.8607692336
 20
167.327585342
  0
VERTEX
  8
0
 62
7
  6
CONTINUOUS
 10
42.9180421253
 20
167.4333748171
  0
VERTEX
  8
0
 62
7
  6
CONTINUOUS
 10
42.9500878065
 20
167.5512548983
  0
VERTEX
  8
0
 62
7
  6
CONTINUOUS
 10
42.9651950457
 20
167.6946052335
  0
VERTEX
  8
0
 62
7
  6
CONTINUOUS
 10
42.9703299518
 20
167.856009861
  0
VERTEX
  8
0
 62
7
  6
CONTINUOUS
 10
42.9718429731
 20
168.0436113451
  0
VERTEX
  8
0
 62
7
  6
CONTINUOUS
 10
42.9719951457
 20
176.856836954
  0
SEQEND
  0
LINE
  8
DEFAULT_1
 62
2
  6
CENTER
 10
38.0494951457
 20
170.2622176517
 11
89.3544951457
 21
170.2622176517
  0
POLYLINE
  8
0
 62
7
  6
CONTINUOUS
 66
1
 70
0
  0
VERTEX
  8
0
 62
7
  6
CONTINUOUS
 10
47.656176655
 20
182.8204306599
  0
VERTEX
  8
0
 62
7
  6
CONTINUOUS
 10
47.677792158
 20
182.7743822492
  0
VERTEX
  8
0
 62
7
  6
CONTINUOUS
 10
47.7126889035
 20
182.7380445124
  0
VERTEX
  8
0
 62
7
  6
CONTINUOUS
 10
47.7557763201
 20
182.7149650654
  0
VERTEX
  8
0
 62
7
  6
CONTINUOUS
 10
47.8021235333
 20
182.707631552
  0
VERTEX
  8
0
 62
7
  6
CONTINUOUS
 10
47.8481347437
 20
182.7166809307
  0
VERTEX
  8
0
 62
7
  6
CONTINUOUS
 10
47.8909248332
 20
182.740752017
  0
VERTEX
  8
0
 62
7
  6
CONTINUOUS
 10
47.9245689913
 20
182.7766261543
  0
VERTEX
  8
0
 62
7
  6
CONTINUOUS
 10
47.9451311437
 20
182.8210010909
  0
SEQEND
  0
LINE
  8
0
 62
7
  6
CONTINUOUS
 10
47.656176655
 20
182.8204306599
 11
46.2279356076
 21
187.9471092371
  0
LINE
  8
0
 62
7
  6
CONTINUOUS
 10
52.762507168
 20
166.9326551759
 11
52.7469951457
 21
167.0789360787
  0
POLYLINE
  8
0
 62
7
  6
CONTINUOUS
 66
1
 70
0
  0
VERTEX
  8
0
 62
7
  6
CONTINUOUS
 10
49.3244950907
 20
173.7871185938
  0
VERTEX
  8
0
 62
7
  6
CONTINUOUS
 10
49.3342524834
 20
173.9268430277
  0
VERTEX
  8
0
 62
7
  6
CONTINUOUS
 10
49.3666563878
 20
174.0684222372
  0
VERTEX
  8
0
 62
7
  6
CONTINUOUS
 10
49.4191439085
 20
174.1908788733
  0
VERTEX
  8
0
 62
7
  6
CONTINUOUS
 10
49.4872169593
 20
174.288555212
  0
VERTEX
  8
0
 62
7
  6
CONTINUOUS
 10
49.566185055
 20
174.3586375043
  0
VERTEX
  8
0
 62
7
  6
CONTINUOUS
 10
49.6509294273
 20
174.3991638185
  0
VERTEX
  8
0
 62
7
  6
CONTINUOUS
 10
49.7244951494
 20
174.409988892
  0
SEQEND
  0
LINE
  8
0
 62
7
  6
CONTINUOUS
 10
49.4321667411
 20
177.6623751542
 11
50.8298118207
 21
182.6763578218
  0
LINE
  8
0
 62
7
  6
CONTINUOUS
 10
84.0894951451
 20
174.4099894373
 11
81.4644951463
 21
174.4099894373
  0
LINE
  8
0
 62
7
  6
CONTINUOUS
 10
78.4857532896
 20
174.4099882881
 11
75.1144951463
 21
174.4099894373
  0
LINE
  8
0
 62
7
  6
CONTINUOUS
 10
71.3894951451
 20
174.4099894373
 11
68.7644951463
 21
174.4099894373
  0
LINE
  8
0
 62
7
  6
CONTINUOUS
 10
65.0394951451
 20
174.4099894373
 11
62.4144951463
 21
174.4099894373
  0
LINE
  8
0
 62
7
  6
CONTINUOUS
 10
58.699495142
 20
174.4099894373
 11
56.0744951493
 21
174.4099894373
  0
LINE
  8
0
 62
7
  6
CONTINUOUS
 10
52.349495142
 20
174.4099894373
 11
49.7244951493
 21
174.4099894373
  0
LINE
  8
0
 62
7
  6
CONTINUOUS
 10
39.649495142
 20
174.4099894373
 11
39.5727285929
 21
174.4099895921
  0
LINE
  8
0
 62
7
  6
CONTINUOUS
 10
43.3744951493
 20
174.4099894373
 11
46.7458362053
 21
174.4099860678
  0
POLYLINE
  8
0
 62
7
  6
CONTINUOUS
 66
1
 70
0
  0
VERTEX
  8
0
 62
7
  6
CONTINUOUS
 10
39.649495142
 20
174.409988892
  0
VERTEX
  8
0
 62
7
  6
CONTINUOUS
 10
39.6770770895
 20
174.40847492
  0
VERTEX
  8
0
 62
7
  6
CONTINUOUS
 10
39.756313457
 20
174.3870139242
  0
VERTEX
  8
0
 62
7
  6
CONTINUOUS
 10
39.834427962
 20
174.3389730473
  0
VERTEX
  8
0
 62
7
  6
CONTINUOUS
 10
39.9060520468
 20
174.2652848188
  0
VERTEX
  8
0
 62
7
  6
CONTINUOUS
 10
39.9381588773
 20
174.2192760577
  0
VERTEX
  8
0
 62
7
  6
CONTINUOUS
 10
39.9923103107
 20
174.110588021
  0
VERTEX
  8
0
 62
7
  6
CONTINUOUS
 10
40.0297549335
 20
173.9836537958
  0
SEQEND
  0
POLYLINE
  8
0
 62
7
  6
CONTINUOUS
 66
1
 70
0
  0
VERTEX
  8
0
 62
7
  6
CONTINUOUS
 10
39.0399177084
 20
174.4295578885
  0
VERTEX
  8
0
 62
7
  6
CONTINUOUS
 10
39.2191740566
 20
174.4181545983
  0
VERTEX
  8
0
 62
7
  6
CONTINUOUS
 10
39.4337785335
 20
174.4112211544
  0
VERTEX
  8
0
 62
7
  6
CONTINUOUS
 10
39.5738215918
 20
174.4099880809
  0
SEQEND
  0
POLYLINE
  8
0
 62
7
  6
CONTINUOUS
 66
1
 70
0
  0
VERTEX
  8
0
 62
7
  6
CONTINUOUS
 10
37.2122530393
 20
174.5716644856
  0
VERTEX
  8
0
 62
7
  6
CONTINUOUS
 10
37.8258620258
 20
174.5253567191
  0
VERTEX
  8
0
 62
7
  6
CONTINUOUS
 10
38.4452871092
 20
174.4771861706
  0
VERTEX
  8
0
 62
7
  6
CONTINUOUS
 10
39.0399188256
 20
174.4295593023
  0
SEQEND
  0
POLYLINE
  8
0
 62
7
  6
CONTINUOUS
 66
1
 70
0
  0
VERTEX
  8
0
 62
7
  6
CONTINUOUS
 10
52.349495142
 20
174.409988892
  0
VERTEX
  8
0
 62
7
  6
CONTINUOUS
 10
52.4230608638
 20
174.3991638186
  0
VERTEX
  8
0
 62
7
  6
CONTINUOUS
 10
52.5078052359
 20
174.3586375046
  0
VERTEX
  8
0
 62
7
  6
CONTINUOUS
 10
52.5867733315
 20
174.2885552126
  0
VERTEX
  8
0
 62
7
  6
CONTINUOUS
 10
52.6548463822
 20
174.1908788743
  0
VERTEX
  8
0
 62
7
  6
CONTINUOUS
 10
52.7073339031
 20
174.0684222387
  0
VERTEX
  8
0
 62
7
  6
CONTINUOUS
 10
52.7397378077
 20
173.9268430297
  0
VERTEX
  8
0
 62
7
  6
CONTINUOUS
 10
52.7469951457
 20
173.8586215073
  0
SEQEND
  0
POLYLINE
  8
0
 62
7
  6
CONTINUOUS
 66
1
 70
0
  0
VERTEX
  8
0
 62
7
  6
CONTINUOUS
 10
58.699495142
 20
174.409988892
  0
VERTEX
  8
0
 62
7
  6
CONTINUOUS
 10
58.7730608638
 20
174.3991638186
  0
VERTEX
  8
0
 62
7
  6
CONTINUOUS
 10
58.8578052359
 20
174.3586375046
  0
VERTEX
  8
0
 62
7
  6
CONTINUOUS
 10
58.9367733315
 20
174.2885552126
  0
VERTEX
  8
0
 62
7
  6
CONTINUOUS
 10
59.0048463822
 20
174.1908788743
  0
VERTEX
  8
0
 62
7
  6
CONTINUOUS
 10
59.0573339031
 20
174.0684222387
  0
VERTEX
  8
0
 62
7
  6
CONTINUOUS
 10
59.0897378077
 20
173.9268430297
  0
VERTEX
  8
0
 62
7
  6
CONTINUOUS
 10
59.0969951457
 20
173.8586215073
  0
SEQEND
  0
POLYLINE
  8
0
 62
7
  6
CONTINUOUS
 66
1
 70
0
  0
VERTEX
  8
0
 62
7
  6
CONTINUOUS
 10
51.1187663094
 20
182.6769282528
  0
VERTEX
  8
0
 62
7
  6
CONTINUOUS
 10
51.0971508064
 20
182.7229766635
  0
VERTEX
  8
0
 62
7
  6
CONTINUOUS
 10
51.0622540609
 20
182.7593144003
  0
VERTEX
  8
0
 62
7
  6
CONTINUOUS
 10
51.0191666443
 20
182.7823938473
  0
VERTEX
  8
0
 62
7
  6
CONTINUOUS
 10
50.9728194311
 20
182.7897273607
  0
VERTEX
  8
0
 62
7
  6
CONTINUOUS
 10
50.9268082207
 20
182.780677982
  0
VERTEX
  8
0
 62
7
  6
CONTINUOUS
 10
50.8840181311
 20
182.7566068958
  0
VERTEX
  8
0
 62
7
  6
CONTINUOUS
 10
50.850373973
 20
182.7207327584
  0
VERTEX
  8
0
 62
7
  6
CONTINUOUS
 10
50.8298118207
 20
182.6763578218
  0
SEQEND
  0
LINE
  8
0
 62
7
  6
CONTINUOUS
 10
51.1187663094
 20
182.6769282528
 11
52.6366668615
 21
177.2284164265
  0
POLYLINE
  8
0
 62
7
  6
CONTINUOUS
 66
1
 70
0
  0
VERTEX
  8
0
 62
7
  6
CONTINUOUS
 10
52.6366668615
 20
177.2284164265
  0
VERTEX
  8
0
 62
7
  6
CONTINUOUS
 10
52.7192568676
 20
176.8286340224
  0
VERTEX
  8
0
 62
7
  6
CONTINUOUS
 10
52.7469951457
 20
176.4207581865
  0
SEQEND
  0
POLYLINE
  8
0
 62
7
  6
CONTINUOUS
 66
1
 70
0
  0
VERTEX
  8
0
 62
7
  6
CONTINUOUS
 10
52.4968535804
 20
197.8772382427
  0
VERTEX
  8
0
 62
7
  6
CONTINUOUS
 10
52.4954747581
 20
198.0588799106
  0
VERTEX
  8
0
 62
7
  6
CONTINUOUS
 10
52.4910644159
 20
198.2134259035
  0
VERTEX
  8
0
 62
7
  6
CONTINUOUS
 10
52.4786792228
 20
198.350807218
  0
VERTEX
  8
0
 62
7
  6
CONTINUOUS
 10
52.4503871352
 20
198.4711038441
  0
VERTEX
  8
0
 62
7
  6
CONTINUOUS
 10
52.4001083851
 20
198.5756062338
  0
VERTEX
  8
0
 62
7
  6
CONTINUOUS
 10
52.3663998448
 20
198.6222903564
  0
VERTEX
  8
0
 62
7
  6
CONTINUOUS
 10
52.2909050421
 20
198.6995249187
  0
VERTEX
  8
0
 62
7
  6
CONTINUOUS
 10
52.2227538731
 20
198.7532757429
  0
VERTEX
  8
0
 62
7
  6
CONTINUOUS
 10
52.1677993445
 20
198.7932687568
  0
VERTEX
  8
0
 62
7
  6
CONTINUOUS
 10
52.1274295789
 20
198.8268760744
  0
VERTEX
  8
0
 62
7
  6
CONTINUOUS
 10
52.1044490117
 20
198.8568444013
  0
VERTEX
  8
0
 62
7
  6
CONTINUOUS
 10
52.0994951457
 20
198.8705738065
  0
SEQEND
  0
LINE
  8
0
 62
7
  6
CONTINUOUS
 10
52.4969951457
 20
189.4779014065
 11
52.4968535804
 21
197.8772382427
  0
LINE
  8
0
 62
7
  6
CONTINUOUS
 10
52.4994951457
 20
192.1372952922
 11
52.4994951457
 21
199.7402757842
  0
LINE
  8
0
 62
7
  6
CONTINUOUS
 10
52.7469951457
 20
176.4207581865
 11
52.7469951457
 21
167.0789360787
  0
LINE
  8
0
 62
7
  6
CONTINUOUS
 10
52.7494951457
 20
167.0553606706
 11
52.7494951457
 21
166.1841595191
  0
POLYLINE
  8
0
 62
7
  6
CONTINUOUS
 66
1
 70
0
  0
VERTEX
  8
0
 62
7
  6
CONTINUOUS
 10
52.4775529867
 20
188.9952757493
  0
VERTEX
  8
0
 62
7
  6
CONTINUOUS
 10
52.4732641322
 20
188.5721803727
  0
VERTEX
  8
0
 62
7
  6
CONTINUOUS
 10
52.493435347
 20
188.3614997725
  0
VERTEX
  8
0
 62
7
  6
CONTINUOUS
 10
52.5779356076
 20
187.9471092371
  0
SEQEND
  0
LINE
  8
0
 62
7
  6
CONTINUOUS
 10
52.4969951457
 20
189.4779014065
 11
52.4775529867
 21
188.9952757493
  0
POLYLINE
  8
0
 62
7
  6
CONTINUOUS
 66
1
 70
0
  0
VERTEX
  8
0
 62
7
  6
CONTINUOUS
 10
55.9219951457
 20
198.8454992247
  0
VERTEX
  8
0
 62
7
  6
CONTINUOUS
 10
55.9375180474
 20
198.9918298405
  0
VERTEX
  8
0
 62
7
  6
CONTINUOUS
 10
55.979526383
 20
199.117007905
  0
VERTEX
  8
0
 62
7
  6
CONTINUOUS
 10
56.0411742618
 20
199.2170598742
  0
VERTEX
  8
0
 62
7
  6
CONTINUOUS
 10
56.0769875924
 20
199.2568071965
  0
VERTEX
  8
0
 62
7
  6
CONTINUOUS
 10
56.154649743
 20
199.3162374666
  0
VERTEX
  8
0
 62
7
  6
CONTINUOUS
 10
56.2373145846
 20
199.3508775983
  0
VERTEX
  8
0
 62
7
  6
CONTINUOUS
 10
56.3219951836
 20
199.3622127691
  0
SEQEND
  0
LINE
  8
0
 62
7
  6
CONTINUOUS
 10
48.9219951457
 20
167.0427405778
 11
48.9244951457
 21
167.0538614969
  0
POLYLINE
  8
0
 62
7
  6
CONTINUOUS
 66
1
 70
0
  0
VERTEX
  8
0
 62
7
  6
CONTINUOUS
 10
65.0394951451
 20
174.4099889074
  0
VERTEX
  8
0
 62
7
  6
CONTINUOUS
 10
65.1130611001
 20
174.3991637577
  0
VERTEX
  8
0
 62
7
  6
CONTINUOUS
 10
65.1978053474
 20
174.3586374407
  0
VERTEX
  8
0
 62
7
  6
CONTINUOUS
 10
65.2767734057
 20
174.2885551463
  0
VERTEX
  8
0
 62
7
  6
CONTINUOUS
 10
65.3448464394
 20
174.1908787609
  0
VERTEX
  8
0
 62
7
  6
CONTINUOUS
 10
65.3973339473
 20
174.0684220913
  0
VERTEX
  8
0
 62
7
  6
CONTINUOUS
 10
65.4297378737
 20
173.9268426543
  0
VERTEX
  8
0
 62
7
  6
CONTINUOUS
 10
65.4394952096
 20
173.7871183581
  0
SEQEND
  0
POLYLINE
  8
0
 62
7
  6
CONTINUOUS
 66
1
 70
0
  0
VERTEX
  8
0
 62
7
  6
CONTINUOUS
 10
71.3894951451
 20
174.4099889074
  0
VERTEX
  8
0
 62
7
  6
CONTINUOUS
 10
71.4630611001
 20
174.3991637577
  0
VERTEX
  8
0
 62
7
  6
CONTINUOUS
 10
71.5478053474
 20
174.3586374407
  0
VERTEX
  8
0
 62
7
  6
CONTINUOUS
 10
71.6267734057
 20
174.2885551463
  0
VERTEX
  8
0
 62
7
  6
CONTINUOUS
 10
71.6948464394
 20
174.1908787609
  0
VERTEX
  8
0
 62
7
  6
CONTINUOUS
 10
71.7473339473
 20
174.0684220913
  0
VERTEX
  8
0
 62
7
  6
CONTINUOUS
 10
71.7797378737
 20
173.9268426543
  0
VERTEX
  8
0
 62
7
  6
CONTINUOUS
 10
71.7894952096
 20
173.7871183581
  0
SEQEND
  0
POLYLINE
  8
0
 62
7
  6
CONTINUOUS
 66
1
 70
0
  0
VERTEX
  8
0
 62
7
  6
CONTINUOUS
 10
54.006176655
 20
182.8204306599
  0
VERTEX
  8
0
 62
7
  6
CONTINUOUS
 10
54.027792158
 20
182.7743822492
  0
VERTEX
  8
0
 62
7
  6
CONTINUOUS
 10
54.0626889035
 20
182.7380445124
  0
VERTEX
  8
0
 62
7
  6
CONTINUOUS
 10
54.10577632
 20
182.7149650654
  0
VERTEX
  8
0
 62
7
  6
CONTINUOUS
 10
54.1521235332
 20
182.707631552
  0
VERTEX
  8
0
 62
7
  6
CONTINUOUS
 10
54.1981347437
 20
182.7166809307
  0
VERTEX
  8
0
 62
7
  6
CONTINUOUS
 10
54.2409248332
 20
182.7407520169
  0
VERTEX
  8
0
 62
7
  6
CONTINUOUS
 10
54.2745689913
 20
182.7766261543
  0
VERTEX
  8
0
 62
7
  6
CONTINUOUS
 10
54.2951311437
 20
182.8210010909
  0
SEQEND
  0
LINE
  8
0
 62
7
  6
CONTINUOUS
 10
54.006176655
 20
182.8204306599
 11
52.5779356076
 21
187.9471092371
  0
LINE
  8
0
 62
7
  6
CONTINUOUS
 10
55.6744951457
 20
173.7871400112
 11
55.6744951457
 21
166.1841595191
  0
LINE
  8
0
 62
7
  6
CONTINUOUS
 10
55.9219951457
 20
198.8454992247
 11
55.9219951457
 21
189.0675983493
  0
LINE
  8
0
 62
7
  6
CONTINUOUS
 10
55.9244951457
 20
198.8690661161
 11
55.9244951457
 21
199.7402757842
  0
POLYLINE
  8
0
 62
7
  6
CONTINUOUS
 66
1
 70
0
  0
VERTEX
  8
0
 62
7
  6
CONTINUOUS
 10
55.6744950907
 20
173.7871185938
  0
VERTEX
  8
0
 62
7
  6
CONTINUOUS
 10
55.6842524834
 20
173.9268430277
  0
VERTEX
  8
0
 62
7
  6
CONTINUOUS
 10
55.7166563878
 20
174.0684222372
  0
VERTEX
  8
0
 62
7
  6
CONTINUOUS
 10
55.7691439085
 20
174.1908788733
  0
VERTEX
  8
0
 62
7
  6
CONTINUOUS
 10
55.8372169593
 20
174.288555212
  0
VERTEX
  8
0
 62
7
  6
CONTINUOUS
 10
55.916185055
 20
174.3586375043
  0
VERTEX
  8
0
 62
7
  6
CONTINUOUS
 10
56.0009294273
 20
174.3991638185
  0
VERTEX
  8
0
 62
7
  6
CONTINUOUS
 10
56.0744951494
 20
174.409988892
  0
SEQEND
  0
POLYLINE
  8
0
 62
7
  6
CONTINUOUS
 66
1
 70
0
  0
VERTEX
  8
0
 62
7
  6
CONTINUOUS
 10
55.9219951457
 20
192.0658138947
  0
VERTEX
  8
0
 62
7
  6
CONTINUOUS
 10
55.9147378734
 20
191.9975926471
  0
VERTEX
  8
0
 62
7
  6
CONTINUOUS
 10
55.8823339469
 20
191.8560132105
  0
VERTEX
  8
0
 62
7
  6
CONTINUOUS
 10
55.8298464388
 20
191.7335565414
  0
VERTEX
  8
0
 62
7
  6
CONTINUOUS
 10
55.7617734051
 20
191.6358801564
  0
VERTEX
  8
0
 62
7
  6
CONTINUOUS
 10
55.6828053469
 20
191.5657978624
  0
VERTEX
  8
0
 62
7
  6
CONTINUOUS
 10
55.5980610998
 20
191.5252715455
  0
VERTEX
  8
0
 62
7
  6
CONTINUOUS
 10
55.5244951451
 20
191.514446396
  0
SEQEND
  0
LINE
  8
0
 62
7
  6
CONTINUOUS
 10
55.8118235503
 20
188.2620601492
 11
54.2951311437
 21
182.8210010909
  0
POLYLINE
  8
0
 62
7
  6
CONTINUOUS
 66
1
 70
0
  0
VERTEX
  8
0
 62
7
  6
CONTINUOUS
 10
48.9244951457
 20
167.0538614969
  0
VERTEX
  8
0
 62
7
  6
CONTINUOUS
 10
48.9290720229
 20
167.0668185999
  0
VERTEX
  8
0
 62
7
  6
CONTINUOUS
 10
48.9501948872
 20
167.0953169571
  0
VERTEX
  8
0
 62
7
  6
CONTINUOUS
 10
48.9868610371
 20
167.1266817541
  0
VERTEX
  8
0
 62
7
  6
CONTINUOUS
 10
49.0372298466
 20
167.1634891009
  0
VERTEX
  8
0
 62
7
  6
CONTINUOUS
 10
49.1006100926
 20
167.2119760883
  0
VERTEX
  8
0
 62
7
  6
CONTINUOUS
 10
49.1744323292
 20
167.2822250221
  0
VERTEX
  8
0
 62
7
  6
CONTINUOUS
 10
49.2107692337
 20
167.3275853422
  0
VERTEX
  8
0
 62
7
  6
CONTINUOUS
 10
49.2680421254
 20
167.4333748173
  0
VERTEX
  8
0
 62
7
  6
CONTINUOUS
 10
49.3000878066
 20
167.5512548984
  0
VERTEX
  8
0
 62
7
  6
CONTINUOUS
 10
49.3151950457
 20
167.6946052337
  0
VERTEX
  8
0
 62
7
  6
CONTINUOUS
 10
49.3203299518
 20
167.8560098611
  0
VERTEX
  8
0
 62
7
  6
CONTINUOUS
 10
49.3218429731
 20
168.0436113451
  0
VERTEX
  8
0
 62
7
  6
CONTINUOUS
 10
49.3219951457
 20
176.856836954
  0
SEQEND
  0
POLYLINE
  8
0
 62
7
  6
CONTINUOUS
 66
1
 70
0
  0
VERTEX
  8
0
 62
7
  6
CONTINUOUS
 10
40.1026901847
 20
174.241843642
  0
VERTEX
  8
0
 62
7
  6
CONTINUOUS
 10
40.1459573445
 20
174.2801689832
  0
VERTEX
  8
0
 62
7
  6
CONTINUOUS
 10
40.1707772251
 20
174.2996545581
  0
VERTEX
  8
0
 62
7
  6
CONTINUOUS
 10
40.2243545029
 20
174.3389817268
  0
SEQEND
  0
POLYLINE
  8
0
 62
7
  6
CONTINUOUS
 66
1
 70
0
  0
VERTEX
  8
0
 62
7
  6
CONTINUOUS
 10
84.0894951451
 20
174.4099889083
  0
VERTEX
  8
0
 62
7
  6
CONTINUOUS
 10
84.15854501
 20
174.4004586195
  0
VERTEX
  8
0
 62
7
  6
CONTINUOUS
 10
84.2417561258
 20
174.3626093585
  0
VERTEX
  8
0
 62
7
  6
CONTINUOUS
 10
84.3185821237
 20
174.2976037283
  0
VERTEX
  8
0
 62
7
  6
CONTINUOUS
 10
84.3834360946
 20
174.2106758136
  0
VERTEX
  8
0
 62
7
  6
CONTINUOUS
 10
84.434718912
 20
174.1043372291
  0
SEQEND
  0
POLYLINE
  8
0
 62
7
  6
CONTINUOUS
 66
1
 70
0
  0
VERTEX
  8
0
 62
7
  6
CONTINUOUS
 10
57.4687663094
 20
182.6769282528
  0
VERTEX
  8
0
 62
7
  6
CONTINUOUS
 10
57.4471508064
 20
182.7229766635
  0
VERTEX
  8
0
 62
7
  6
CONTINUOUS
 10
57.4122540608
 20
182.7593144004
  0
VERTEX
  8
0
 62
7
  6
CONTINUOUS
 10
57.3691666442
 20
182.7823938473
  0
VERTEX
  8
0
 62
7
  6
CONTINUOUS
 10
57.322819431
 20
182.7897273607
  0
VERTEX
  8
0
 62
7
  6
CONTINUOUS
 10
57.2768082205
 20
182.7806779819
  0
VERTEX
  8
0
 62
7
  6
CONTINUOUS
 10
57.2340181311
 20
182.7566068957
  0
VERTEX
  8
0
 62
7
  6
CONTINUOUS
 10
57.200373973
 20
182.7207327584
  0
VERTEX
  8
0
 62
7
  6
CONTINUOUS
 10
57.1798118207
 20
182.6763578218
  0
SEQEND
  0
LINE
  8
0
 62
7
  6
CONTINUOUS
 10
57.4687663094
 20
182.6769282528
 11
58.9866668615
 21
177.2284164265
  0
LINE
  8
0
 62
7
  6
CONTINUOUS
 10
52.0994951457
 20
198.8705738065
 11
52.0969951457
 21
198.8816947255
  0
LINE
  8
0
 62
7
  6
CONTINUOUS
 10
59.112507168
 20
166.9326551759
 11
59.0969951457
 21
167.0789360787
  0
POLYLINE
  8
0
 62
7
  6
CONTINUOUS
 66
1
 70
0
  0
VERTEX
  8
0
 62
7
  6
CONTINUOUS
 10
58.8468535804
 20
197.8772382427
  0
VERTEX
  8
0
 62
7
  6
CONTINUOUS
 10
58.8454747581
 20
198.0588799106
  0
VERTEX
  8
0
 62
7
  6
CONTINUOUS
 10
58.8410644159
 20
198.2134259035
  0
VERTEX
  8
0
 62
7
  6
CONTINUOUS
 10
58.8286792228
 20
198.350807218
  0
VERTEX
  8
0
 62
7
  6
CONTINUOUS
 10
58.8003871352
 20
198.4711038441
  0
VERTEX
  8
0
 62
7
  6
CONTINUOUS
 10
58.7501083851
 20
198.5756062338
  0
VERTEX
  8
0
 62
7
  6
CONTINUOUS
 10
58.7163998448
 20
198.6222903564
  0
VERTEX
  8
0
 62
7
  6
CONTINUOUS
 10
58.6409050421
 20
198.6995249187
  0
VERTEX
  8
0
 62
7
  6
CONTINUOUS
 10
58.5727538731
 20
198.7532757429
  0
VERTEX
  8
0
 62
7
  6
CONTINUOUS
 10
58.5177993445
 20
198.7932687568
  0
VERTEX
  8
0
 62
7
  6
CONTINUOUS
 10
58.4774295789
 20
198.8268760744
  0
VERTEX
  8
0
 62
7
  6
CONTINUOUS
 10
58.4544490117
 20
198.8568444013
  0
VERTEX
  8
0
 62
7
  6
CONTINUOUS
 10
58.4494951457
 20
198.8705738065
  0
SEQEND
  0
LINE
  8
0
 62
7
  6
CONTINUOUS
 10
58.8469951457
 20
189.4779014065
 11
58.8468535804
 21
197.8772382427
  0
LINE
  8
0
 62
7
  6
CONTINUOUS
 10
58.8494951457
 20
192.1372952922
 11
58.8494951457
 21
199.7402757842
  0
LINE
  8
0
 62
7
  6
CONTINUOUS
 10
59.0969951457
 20
176.4207581865
 11
59.0969951457
 21
167.0789360787
  0
LINE
  8
0
 62
7
  6
CONTINUOUS
 10
59.0994951457
 20
167.0553606706
 11
59.0994951457
 21
166.1841595191
  0
POLYLINE
  8
0
 62
7
  6
CONTINUOUS
 66
1
 70
0
  0
VERTEX
  8
0
 62
7
  6
CONTINUOUS
 10
58.8275529867
 20
188.9952757493
  0
VERTEX
  8
0
 62
7
  6
CONTINUOUS
 10
58.8232641322
 20
188.5721803727
  0
VERTEX
  8
0
 62
7
  6
CONTINUOUS
 10
58.843435347
 20
188.3614997725
  0
VERTEX
  8
0
 62
7
  6
CONTINUOUS
 10
58.9279356076
 20
187.9471092371
  0
SEQEND
  0
LINE
  8
0
 62
7
  6
CONTINUOUS
 10
58.8469951457
 20
189.4779014065
 11
58.8275529867
 21
188.9952757493
  0
LINE
  8
0
 62
7
  6
CONTINUOUS
 10
55.2719951457
 20
167.0427405778
 11
55.2744951457
 21
167.0538614969
  0
LINE
  8
0
 62
7
  6
CONTINUOUS
 10
62.6669951457
 20
198.8816947255
 11
62.6644951457
 21
198.8705738065
  0
LINE
  8
0
 62
7
  6
CONTINUOUS
 10
55.7821667411
 20
177.6623751542
 11
57.1798118207
 21
182.6763578218
  0
POLYLINE
  8
0
 62
7
  6
CONTINUOUS
 66
1
 70
0
  0
VERTEX
  8
0
 62
7
  6
CONTINUOUS
 10
62.6644951457
 20
198.8705738065
  0
VERTEX
  8
0
 62
7
  6
CONTINUOUS
 10
62.6599182685
 20
198.8576167035
  0
VERTEX
  8
0
 62
7
  6
CONTINUOUS
 10
62.6387954041
 20
198.8291183462
  0
VERTEX
  8
0
 62
7
  6
CONTINUOUS
 10
62.6021292543
 20
198.7977535493
  0
VERTEX
  8
0
 62
7
  6
CONTINUOUS
 10
62.5517604448
 20
198.7609462026
  0
VERTEX
  8
0
 62
7
  6
CONTINUOUS
 10
62.4883801989
 20
198.7124592152
  0
VERTEX
  8
0
 62
7
  6
CONTINUOUS
 10
62.4145579623
 20
198.6422102814
  0
VERTEX
  8
0
 62
7
  6
CONTINUOUS
 10
62.3782210578
 20
198.5968499614
  0
VERTEX
  8
0
 62
7
  6
CONTINUOUS
 10
62.320948166
 20
198.4910604863
  0
VERTEX
  8
0
 62
7
  6
CONTINUOUS
 10
62.2889024848
 20
198.3731804051
  0
VERTEX
  8
0
 62
7
  6
CONTINUOUS
 10
62.2737952456
 20
198.2298300698
  0
VERTEX
  8
0
 62
7
  6
CONTINUOUS
 10
62.2686603395
 20
198.0684254423
  0
VERTEX
  8
0
 62
7
  6
CONTINUOUS
 10
62.2671473182
 20
197.8808239583
  0
VERTEX
  8
0
 62
7
  6
CONTINUOUS
 10
62.2669951457
 20
189.0675983493
  0
SEQEND
  0
POLYLINE
  8
0
 62
7
  6
CONTINUOUS
 66
1
 70
0
  0
VERTEX
  8
0
 62
7
  6
CONTINUOUS
 10
62.1444951457
 20
191.6772002278
  0
VERTEX
  8
0
 62
7
  6
CONTINUOUS
 10
62.0914275567
 20
191.6142471702
  0
VERTEX
  8
0
 62
7
  6
CONTINUOUS
 10
62.0197344306
 20
191.5574359714
  0
VERTEX
  8
0
 62
7
  6
CONTINUOUS
 10
61.9412442578
 20
191.5233491752
  0
VERTEX
  8
0
 62
7
  6
CONTINUOUS
 10
61.8744951451
 20
191.5144463962
  0
SEQEND
  0
POLYLINE
  8
0
 62
7
  6
CONTINUOUS
 66
1
 70
0
  0
VERTEX
  8
0
 62
7
  6
CONTINUOUS
 10
58.9866668615
 20
177.2284164265
  0
VERTEX
  8
0
 62
7
  6
CONTINUOUS
 10
59.0692568716
 20
176.8286339926
  0
VERTEX
  8
0
 62
7
  6
CONTINUOUS
 10
59.0969951457
 20
176.4207581865
  0
SEQEND
  0
LINE
  8
0
 62
7
  6
CONTINUOUS
 10
62.0244951457
 20
173.7871400112
 11
62.0244951457
 21
166.1841595191
  0
LINE
  8
0
 62
7
  6
CONTINUOUS
 10
62.1444951457
 20
191.6917269868
 11
62.1444951457
 21
191.1767140017
  0
LINE
  8
DEFAULT_1
 62
2
  6
CENTER
 10
62.1444951457
 20
186.7102080885
 11
62.1444951457
 21
184.9623176517
  0
LINE
  8
0
 62
2
  6
CONTINUOUS
 10
62.1444951457
 20
183.8422176517
 11
62.1444951457
 21
182.0822176517
  0
LINE
  8
0
 62
7
  6
CONTINUOUS
 10
62.1444951457
 20
179.2142272148
 11
62.1444951457
 21
177.7066026952
  0
LINE
  8
0
 62
7
  6
CONTINUOUS
 10
62.1444951457
 20
174.2327083166
 11
62.1444951457
 21
174.7477212484
  0
LINE
  8
DEFAULT_1
 62
2
  6
CENTER
 10
62.1444951457
 20
179.2142272148
 11
62.1444951457
 21
180.9621176517
  0
LINE
  8
0
 62
7
  6
CONTINUOUS
 10
62.1444951457
 20
186.7102080885
 11
62.1444951457
 21
188.2178326081
  0
LINE
  8
0
 62
7
  6
CONTINUOUS
 10
62.2644951457
 20
192.1372952733
 11
62.2644951457
 21
199.7402757842
  0
POLYLINE
  8
0
 62
7
  6
CONTINUOUS
 66
1
 70
0
  0
VERTEX
  8
0
 62
7
  6
CONTINUOUS
 10
62.2644952008
 20
192.1373132256
  0
VERTEX
  8
0
 62
7
  6
CONTINUOUS
 10
62.2621170422
 20
192.0675609812
  0
VERTEX
  8
0
 62
7
  6
CONTINUOUS
 10
62.2389269095
 20
191.9149299034
  0
VERTEX
  8
0
 62
7
  6
CONTINUOUS
 10
62.1944931425
 20
191.7831646701
  0
VERTEX
  8
0
 62
7
  6
CONTINUOUS
 10
62.1654185453
 20
191.7256686111
  0
VERTEX
  8
0
 62
7
  6
CONTINUOUS
 10
62.1444951457
 20
191.6917281098
  0
SEQEND
  0
LINE
  8
0
 62
7
  6
CONTINUOUS
 10
62.1568235503
 20
188.2620601492
 11
62.1444951457
 21
188.2178326081
  0
LINE
  8
0
 62
7
  6
CONTINUOUS
 10
62.1444951457
 20
188.1998953557
 11
60.6451311437
 21
182.8210010909
  0
POLYLINE
  8
0
 62
7
  6
CONTINUOUS
 66
1
 70
0
  0
VERTEX
  8
0
 62
7
  6
CONTINUOUS
 10
55.2744951457
 20
167.0538614969
  0
VERTEX
  8
0
 62
7
  6
CONTINUOUS
 10
55.2790720229
 20
167.0668185999
  0
VERTEX
  8
0
 62
7
  6
CONTINUOUS
 10
55.3001948872
 20
167.0953169571
  0
VERTEX
  8
0
 62
7
  6
CONTINUOUS
 10
55.3368610371
 20
167.1266817541
  0
VERTEX
  8
0
 62
7
  6
CONTINUOUS
 10
55.3872298466
 20
167.1634891009
  0
VERTEX
  8
0
 62
7
  6
CONTINUOUS
 10
55.4506100926
 20
167.2119760883
  0
VERTEX
  8
0
 62
7
  6
CONTINUOUS
 10
55.5244323292
 20
167.2822250221
  0
VERTEX
  8
0
 62
7
  6
CONTINUOUS
 10
55.5607692337
 20
167.3275853422
  0
VERTEX
  8
0
 62
7
  6
CONTINUOUS
 10
55.6180421254
 20
167.4333748173
  0
VERTEX
  8
0
 62
7
  6
CONTINUOUS
 10
55.6500878066
 20
167.5512548985
  0
VERTEX
  8
0
 62
7
  6
CONTINUOUS
 10
55.6651950457
 20
167.6946052337
  0
VERTEX
  8
0
 62
7
  6
CONTINUOUS
 10
55.6703299518
 20
167.8560098611
  0
VERTEX
  8
0
 62
7
  6
CONTINUOUS
 10
55.6718429731
 20
168.0436113451
  0
VERTEX
  8
0
 62
7
  6
CONTINUOUS
 10
55.6719951457
 20
176.856836954
  0
SEQEND
  0
LINE
  8
DEFAULT_1
 62
2
  6
CENTER
 10
31.4394951457
 20
182.9622176517
 11
92.4371606633
 21
182.9622176517
  0
POLYLINE
  8
0
 62
7
  6
CONTINUOUS
 66
1
 70
0
  0
VERTEX
  8
0
 62
7
  6
CONTINUOUS
 10
60.356176655
 20
182.8204306599
  0
VERTEX
  8
0
 62
7
  6
CONTINUOUS
 10
60.377792158
 20
182.7743822492
  0
VERTEX
  8
0
 62
7
  6
CONTINUOUS
 10
60.4126889037
 20
182.7380445122
  0
VERTEX
  8
0
 62
7
  6
CONTINUOUS
 10
60.4557763204
 20
182.7149650653
  0
VERTEX
  8
0
 62
7
  6
CONTINUOUS
 10
60.5021235336
 20
182.707631552
  0
VERTEX
  8
0
 62
7
  6
CONTINUOUS
 10
60.5481347441
 20
182.7166809309
  0
VERTEX
  8
0
 62
7
  6
CONTINUOUS
 10
60.5909248335
 20
182.7407520171
  0
VERTEX
  8
0
 62
7
  6
CONTINUOUS
 10
60.6245689914
 20
182.7766261544
  0
VERTEX
  8
0
 62
7
  6
CONTINUOUS
 10
60.6451311437
 20
182.8210010909
  0
SEQEND
  0
LINE
  8
0
 62
7
  6
CONTINUOUS
 10
60.356176655
 20
182.8204306599
 11
58.9279356076
 21
187.9471092371
  0
LINE
  8
0
 62
7
  6
CONTINUOUS
 10
58.4494951457
 20
198.8705738065
 11
58.4469951457
 21
198.8816947255
  0
LINE
  8
0
 62
7
  6
CONTINUOUS
 10
65.8394951457
 20
167.0538614969
 11
65.8419951457
 21
167.0427405778
  0
POLYLINE
  8
0
 62
7
  6
CONTINUOUS
 66
1
 70
0
  0
VERTEX
  8
0
 62
7
  6
CONTINUOUS
 10
62.0244950906
 20
173.7871220777
  0
VERTEX
  8
0
 62
7
  6
CONTINUOUS
 10
62.0268732492
 20
173.8568743222
  0
VERTEX
  8
0
 62
7
  6
CONTINUOUS
 10
62.0500633818
 20
174.0095054
  0
VERTEX
  8
0
 62
7
  6
CONTINUOUS
 10
62.0944971488
 20
174.1412706332
  0
VERTEX
  8
0
 62
7
  6
CONTINUOUS
 10
62.1235717461
 20
174.1987666923
  0
VERTEX
  8
0
 62
7
  6
CONTINUOUS
 10
62.1444951457
 20
174.2327071935
  0
SEQEND
  0
LINE
  8
0
 62
7
  6
CONTINUOUS
 10
62.1444951457
 20
177.7245399477
 11
63.6438591477
 21
183.1034342124
  0
LINE
  8
0
 62
7
  6
CONTINUOUS
 10
62.1321667411
 20
177.6623751542
 11
62.1444951457
 21
177.7066026952
  0
POLYLINE
  8
0
 62
7
  6
CONTINUOUS
 66
1
 70
0
  0
VERTEX
  8
0
 62
7
  6
CONTINUOUS
 10
69.0144951457
 20
198.8705738065
  0
VERTEX
  8
0
 62
7
  6
CONTINUOUS
 10
69.0099182685
 20
198.8576167035
  0
VERTEX
  8
0
 62
7
  6
CONTINUOUS
 10
68.9887954041
 20
198.8291183462
  0
VERTEX
  8
0
 62
7
  6
CONTINUOUS
 10
68.9521292542
 20
198.7977535492
  0
VERTEX
  8
0
 62
7
  6
CONTINUOUS
 10
68.9017604447
 20
198.7609462025
  0
VERTEX
  8
0
 62
7
  6
CONTINUOUS
 10
68.8383801987
 20
198.7124592151
  0
VERTEX
  8
0
 62
7
  6
CONTINUOUS
 10
68.7645579622
 20
198.6422102812
  0
VERTEX
  8
0
 62
7
  6
CONTINUOUS
 10
68.7282210576
 20
198.5968499612
  0
VERTEX
  8
0
 62
7
  6
CONTINUOUS
 10
68.6709481659
 20
198.4910604861
  0
VERTEX
  8
0
 62
7
  6
CONTINUOUS
 10
68.6389024848
 20
198.3731804049
  0
VERTEX
  8
0
 62
7
  6
CONTINUOUS
 10
68.6237952456
 20
198.2298300697
  0
VERTEX
  8
0
 62
7
  6
CONTINUOUS
 10
68.6186603395
 20
198.0684254422
  0
VERTEX
  8
0
 62
7
  6
CONTINUOUS
 10
68.6171473182
 20
197.8808239582
  0
VERTEX
  8
0
 62
7
  6
CONTINUOUS
 10
68.6169951457
 20
189.0675983493
  0
SEQEND
  0
POLYLINE
  8
0
 62
7
  6
CONTINUOUS
 66
1
 70
0
  0
VERTEX
  8
0
 62
7
  6
CONTINUOUS
 10
63.9328136364
 20
183.1040046434
  0
VERTEX
  8
0
 62
7
  6
CONTINUOUS
 10
63.9111981333
 20
183.1500530542
  0
VERTEX
  8
0
 62
7
  6
CONTINUOUS
 10
63.8763013877
 20
183.1863907911
  0
VERTEX
  8
0
 62
7
  6
CONTINUOUS
 10
63.833213971
 20
183.209470238
  0
VERTEX
  8
0
 62
7
  6
CONTINUOUS
 10
63.7868667577
 20
183.2168037514
  0
VERTEX
  8
0
 62
7
  6
CONTINUOUS
 10
63.7408555472
 20
183.2077543725
  0
VERTEX
  8
0
 62
7
  6
CONTINUOUS
 10
63.6980654579
 20
183.1836832862
  0
VERTEX
  8
0
 62
7
  6
CONTINUOUS
 10
63.6644213
 20
183.147809149
  0
VERTEX
  8
0
 62
7
  6
CONTINUOUS
 10
63.6438591477
 20
183.1034342124
  0
SEQEND
  0
LINE
  8
0
 62
7
  6
CONTINUOUS
 10
63.9328136364
 20
183.1040046434
 11
65.3610546837
 21
177.9773260662
  0
LINE
  8
0
 62
7
  6
CONTINUOUS
 10
65.1764831233
 20
198.9917801274
 11
65.1919951457
 21
198.8454992246
  0
POLYLINE
  8
0
 62
7
  6
CONTINUOUS
 66
1
 70
0
  0
VERTEX
  8
0
 62
7
  6
CONTINUOUS
 10
65.442136711
 20
168.0471970607
  0
VERTEX
  8
0
 62
7
  6
CONTINUOUS
 10
65.4435155332
 20
167.8655553928
  0
VERTEX
  8
0
 62
7
  6
CONTINUOUS
 10
65.4479258754
 20
167.7110093999
  0
VERTEX
  8
0
 62
7
  6
CONTINUOUS
 10
65.4603110686
 20
167.5736280853
  0
VERTEX
  8
0
 62
7
  6
CONTINUOUS
 10
65.4886031561
 20
167.4533314593
  0
VERTEX
  8
0
 62
7
  6
CONTINUOUS
 10
65.5388819063
 20
167.3488290695
  0
VERTEX
  8
0
 62
7
  6
CONTINUOUS
 10
65.5725904465
 20
167.3021449469
  0
VERTEX
  8
0
 62
7
  6
CONTINUOUS
 10
65.6480852492
 20
167.2249103846
  0
VERTEX
  8
0
 62
7
  6
CONTINUOUS
 10
65.7162364182
 20
167.1711595604
  0
VERTEX
  8
0
 62
7
  6
CONTINUOUS
 10
65.7711909468
 20
167.1311665465
  0
VERTEX
  8
0
 62
7
  6
CONTINUOUS
 10
65.8115607125
 20
167.0975592289
  0
VERTEX
  8
0
 62
7
  6
CONTINUOUS
 10
65.8345412796
 20
167.0675909021
  0
VERTEX
  8
0
 62
7
  6
CONTINUOUS
 10
65.8394951457
 20
167.0538614969
  0
SEQEND
  0
LINE
  8
0
 62
7
  6
CONTINUOUS
 10
65.1894951457
 20
198.8690746327
 11
65.1894951457
 21
199.7402757842
  0
LINE
  8
0
 62
7
  6
CONTINUOUS
 10
65.1919951457
 20
189.5036771169
 11
65.1919951457
 21
198.8454992246
  0
LINE
  8
0
 62
7
  6
CONTINUOUS
 10
65.4394951457
 20
173.7871400304
 11
65.4394951457
 21
166.1841595191
  0
LINE
  8
0
 62
7
  6
CONTINUOUS
 10
65.4419951457
 20
176.4465338969
 11
65.442136711
 21
168.0471970607
  0
POLYLINE
  8
0
 62
7
  6
CONTINUOUS
 66
1
 70
0
  0
VERTEX
  8
0
 62
7
  6
CONTINUOUS
 10
65.4614373047
 20
176.9291595541
  0
VERTEX
  8
0
 62
7
  6
CONTINUOUS
 10
65.4657261591
 20
177.3522549306
  0
VERTEX
  8
0
 62
7
  6
CONTINUOUS
 10
65.4455549443
 20
177.5629355309
  0
VERTEX
  8
0
 62
7
  6
CONTINUOUS
 10
65.3610546837
 20
177.9773260662
  0
SEQEND
  0
LINE
  8
0
 62
7
  6
CONTINUOUS
 10
65.4419951457
 20
176.4465338969
 11
65.4614373047
 21
176.9291595541
  0
LINE
  8
0
 62
7
  6
CONTINUOUS
 10
61.6219951457
 20
167.0427405778
 11
61.6244951457
 21
167.0538614969
  0
LINE
  8
0
 62
7
  6
CONTINUOUS
 10
69.0169951457
 20
198.8816947255
 11
69.0144951457
 21
198.8705738065
  0
LINE
  8
0
 62
7
  6
CONTINUOUS
 10
68.5068235503
 20
188.2620601492
 11
67.1091784707
 21
183.2480774816
  0
POLYLINE
  8
0
 62
7
  6
CONTINUOUS
 66
1
 70
0
  0
VERTEX
  8
0
 62
7
  6
CONTINUOUS
 10
40.1994951463
 20
191.5144463951
  0
VERTEX
  8
0
 62
7
  6
CONTINUOUS
 10
40.1304452813
 20
191.5239766838
  0
VERTEX
  8
0
 62
7
  6
CONTINUOUS
 10
40.0472341655
 20
191.5618259449
  0
VERTEX
  8
0
 62
7
  6
CONTINUOUS
 10
39.9704081676
 20
191.6268315751
  0
VERTEX
  8
0
 62
7
  6
CONTINUOUS
 10
39.9055541967
 20
191.7137594898
  0
VERTEX
  8
0
 62
7
  6
CONTINUOUS
 10
39.8542713793
 20
191.8200980742
  0
SEQEND
  0
POLYLINE
  8
0
 62
7
  6
CONTINUOUS
 66
1
 70
0
  0
VERTEX
  8
0
 62
7
  6
CONTINUOUS
 10
66.820223982
 20
183.2475070506
  0
VERTEX
  8
0
 62
7
  6
CONTINUOUS
 10
66.841839485
 20
183.2014586398
  0
VERTEX
  8
0
 62
7
  6
CONTINUOUS
 10
66.8767362305
 20
183.165120903
  0
VERTEX
  8
0
 62
7
  6
CONTINUOUS
 10
66.9198236471
 20
183.142041456
  0
VERTEX
  8
0
 62
7
  6
CONTINUOUS
 10
66.9661708604
 20
183.1347079426
  0
VERTEX
  8
0
 62
7
  6
CONTINUOUS
 10
67.0121820708
 20
183.1437573214
  0
VERTEX
  8
0
 62
7
  6
CONTINUOUS
 10
67.0549721603
 20
183.1678284076
  0
VERTEX
  8
0
 62
7
  6
CONTINUOUS
 10
67.0886163184
 20
183.203702545
  0
VERTEX
  8
0
 62
7
  6
CONTINUOUS
 10
67.1091784707
 20
183.2480774816
  0
SEQEND
  0
LINE
  8
0
 62
7
  6
CONTINUOUS
 10
66.820223982
 20
183.2475070506
 11
65.3023234298
 21
188.6960188769
  0
POLYLINE
  8
0
 62
7
  6
CONTINUOUS
 66
1
 70
0
  0
VERTEX
  8
0
 62
7
  6
CONTINUOUS
 10
65.3023234298
 20
188.6960188769
  0
VERTEX
  8
0
 62
7
  6
CONTINUOUS
 10
65.2197334197
 20
189.0958013108
  0
VERTEX
  8
0
 62
7
  6
CONTINUOUS
 10
65.1919951457
 20
189.5036771169
  0
SEQEND
  0
LINE
  8
0
 62
7
  6
CONTINUOUS
 10
68.3644951457
 20
167.0553691873
 11
68.3644951457
 21
166.1841595191
  0
LINE
  8
0
 62
7
  6
CONTINUOUS
 10
68.3669951457
 20
167.0789360787
 11
68.3669951457
 21
176.856836954
  0
LINE
  8
0
 62
7
  6
CONTINUOUS
 10
68.6144951457
 20
192.1372952733
 11
68.6144951457
 21
199.7402757842
  0
POLYLINE
  8
0
 62
7
  6
CONTINUOUS
 66
1
 70
0
  0
VERTEX
  8
0
 62
7
  6
CONTINUOUS
 10
68.6144952007
 20
192.1373167095
  0
VERTEX
  8
0
 62
7
  6
CONTINUOUS
 10
68.6047378079
 20
191.9975922756
  0
VERTEX
  8
0
 62
7
  6
CONTINUOUS
 10
68.5723339036
 20
191.8560130661
  0
VERTEX
  8
0
 62
7
  6
CONTINUOUS
 10
68.5198463828
 20
191.7335564301
  0
VERTEX
  8
0
 62
7
  6
CONTINUOUS
 10
68.4517733321
 20
191.6358800914
  0
VERTEX
  8
0
 62
7
  6
CONTINUOUS
 10
68.3728052363
 20
191.565797799
  0
VERTEX
  8
0
 62
7
  6
CONTINUOUS
 10
68.2880608641
 20
191.5252714848
  0
VERTEX
  8
0
 62
7
  6
CONTINUOUS
 10
68.214495142
 20
191.5144464114
  0
SEQEND
  0
POLYLINE
  8
0
 62
7
  6
CONTINUOUS
 66
1
 70
0
  0
VERTEX
  8
0
 62
7
  6
CONTINUOUS
 10
68.3669951457
 20
173.8586214086
  0
VERTEX
  8
0
 62
7
  6
CONTINUOUS
 10
68.3742524179
 20
173.9268426562
  0
VERTEX
  8
0
 62
7
  6
CONTINUOUS
 10
68.4066563445
 20
174.0684220928
  0
VERTEX
  8
0
 62
7
  6
CONTINUOUS
 10
68.4591438525
 20
174.1908787619
  0
VERTEX
  8
0
 62
7
  6
CONTINUOUS
 10
68.5272168863
 20
174.2885551469
  0
VERTEX
  8
0
 62
7
  6
CONTINUOUS
 10
68.6061849444
 20
174.358637441
  0
VERTEX
  8
0
 62
7
  6
CONTINUOUS
 10
68.6909291916
 20
174.3991637578
  0
VERTEX
  8
0
 62
7
  6
CONTINUOUS
 10
68.7644951463
 20
174.4099889074
  0
SEQEND
  0
POLYLINE
  8
0
 62
7
  6
CONTINUOUS
 66
1
 70
0
  0
VERTEX
  8
0
 62
7
  6
CONTINUOUS
 10
61.6244951457
 20
167.0538614969
  0
VERTEX
  8
0
 62
7
  6
CONTINUOUS
 10
61.6290720229
 20
167.0668185999
  0
VERTEX
  8
0
 62
7
  6
CONTINUOUS
 10
61.6501948872
 20
167.0953169571
  0
VERTEX
  8
0
 62
7
  6
CONTINUOUS
 10
61.6868610371
 20
167.1266817541
  0
VERTEX
  8
0
 62
7
  6
CONTINUOUS
 10
61.7372298465
 20
167.1634891008
  0
VERTEX
  8
0
 62
7
  6
CONTINUOUS
 10
61.8006100925
 20
167.2119760881
  0
VERTEX
  8
0
 62
7
  6
CONTINUOUS
 10
61.874432329
 20
167.2822250219
  0
VERTEX
  8
0
 62
7
  6
CONTINUOUS
 10
61.9107692336
 20
167.327585342
  0
VERTEX
  8
0
 62
7
  6
CONTINUOUS
 10
61.9680421253
 20
167.4333748171
  0
VERTEX
  8
0
 62
7
  6
CONTINUOUS
 10
62.0000878065
 20
167.5512548983
  0
VERTEX
  8
0
 62
7
  6
CONTINUOUS
 10
62.0151950457
 20
167.6946052335
  0
VERTEX
  8
0
 62
7
  6
CONTINUOUS
 10
62.0203299518
 20
167.856009861
  0
VERTEX
  8
0
 62
7
  6
CONTINUOUS
 10
62.0218429731
 20
168.0436113451
  0
VERTEX
  8
0
 62
7
  6
CONTINUOUS
 10
62.0219951457
 20
176.856836954
  0
SEQEND
  0
POLYLINE
  8
0
 62
7
  6
CONTINUOUS
 66
1
 70
0
  0
VERTEX
  8
0
 62
7
  6
CONTINUOUS
 10
75.3644951457
 20
198.8705738065
  0
VERTEX
  8
0
 62
7
  6
CONTINUOUS
 10
75.3599182685
 20
198.8576167035
  0
VERTEX
  8
0
 62
7
  6
CONTINUOUS
 10
75.3387954041
 20
198.8291183462
  0
VERTEX
  8
0
 62
7
  6
CONTINUOUS
 10
75.3021292542
 20
198.7977535492
  0
VERTEX
  8
0
 62
7
  6
CONTINUOUS
 10
75.2517604447
 20
198.7609462025
  0
VERTEX
  8
0
 62
7
  6
CONTINUOUS
 10
75.1883801987
 20
198.7124592151
  0
VERTEX
  8
0
 62
7
  6
CONTINUOUS
 10
75.1145579622
 20
198.6422102812
  0
VERTEX
  8
0
 62
7
  6
CONTINUOUS
 10
75.0782210576
 20
198.5968499612
  0
VERTEX
  8
0
 62
7
  6
CONTINUOUS
 10
75.020948166
 20
198.4910604861
  0
VERTEX
  8
0
 62
7
  6
CONTINUOUS
 10
74.9889024848
 20
198.3731804049
  0
VERTEX
  8
0
 62
7
  6
CONTINUOUS
 10
74.9737952456
 20
198.2298300697
  0
VERTEX
  8
0
 62
7
  6
CONTINUOUS
 10
74.9686603395
 20
198.0684254422
  0
VERTEX
  8
0
 62
7
  6
CONTINUOUS
 10
74.9671473182
 20
197.8808239582
  0
VERTEX
  8
0
 62
7
  6
CONTINUOUS
 10
74.9669951457
 20
189.0675983493
  0
SEQEND
  0
POLYLINE
  8
0
 62
7
  6
CONTINUOUS
 66
1
 70
0
  0
VERTEX
  8
0
 62
7
  6
CONTINUOUS
 10
62.1444951457
 20
174.2472350756
  0
VERTEX
  8
0
 62
7
  6
CONTINUOUS
 10
62.1975638463
 20
174.31018924
  0
VERTEX
  8
0
 62
7
  6
CONTINUOUS
 10
62.2692567262
 20
174.3669998586
  0
VERTEX
  8
0
 62
7
  6
CONTINUOUS
 10
62.3477465062
 20
174.4010862548
  0
VERTEX
  8
0
 62
7
  6
CONTINUOUS
 10
62.4144951463
 20
174.4099889071
  0
SEQEND
  0
LINE
  8
0
 62
7
  6
CONTINUOUS
 10
40.1994951463
 20
191.514445866
 11
42.8244951451
 21
191.514445866
  0
LINE
  8
0
 62
7
  6
CONTINUOUS
 10
52.8994951463
 20
191.514445866
 11
55.5244951451
 21
191.514445866
  0
LINE
  8
0
 62
7
  6
CONTINUOUS
 10
59.2494951463
 20
191.514445866
 11
61.8744951451
 21
191.514445866
  0
LINE
  8
0
 62
7
  6
CONTINUOUS
 10
65.5894951493
 20
191.514445866
 11
68.214495142
 21
191.514445866
  0
LINE
  8
0
 62
7
  6
CONTINUOUS
 10
71.9394951493
 20
191.514445866
 11
74.564495142
 21
191.514445866
  0
LINE
  8
0
 62
7
  6
CONTINUOUS
 10
45.8032370018
 20
191.5144470152
 11
49.1744951451
 21
191.514445866
  0
LINE
  8
0
 62
7
  6
CONTINUOUS
 10
84.6394951493
 20
191.514445866
 11
84.7162616985
 21
191.5144457112
  0
LINE
  8
0
 62
7
  6
CONTINUOUS
 10
80.914495142
 20
191.514445866
 11
77.5431540861
 21
191.5144492355
  0
POLYLINE
  8
0
 62
7
  6
CONTINUOUS
 66
1
 70
0
  0
VERTEX
  8
0
 62
7
  6
CONTINUOUS
 10
52.8994951463
 20
191.514446396
  0
VERTEX
  8
0
 62
7
  6
CONTINUOUS
 10
52.8259291913
 20
191.5252715456
  0
VERTEX
  8
0
 62
7
  6
CONTINUOUS
 10
52.7411849439
 20
191.5657978627
  0
VERTEX
  8
0
 62
7
  6
CONTINUOUS
 10
52.6622168857
 20
191.6358801571
  0
VERTEX
  8
0
 62
7
  6
CONTINUOUS
 10
52.5941438519
 20
191.7335565424
  0
VERTEX
  8
0
 62
7
  6
CONTINUOUS
 10
52.541656344
 20
191.856013212
  0
VERTEX
  8
0
 62
7
  6
CONTINUOUS
 10
52.5092524177
 20
191.997592649
  0
VERTEX
  8
0
 62
7
  6
CONTINUOUS
 10
52.4994950818
 20
192.1373169452
  0
SEQEND
  0
POLYLINE
  8
0
 62
7
  6
CONTINUOUS
 66
1
 70
0
  0
VERTEX
  8
0
 62
7
  6
CONTINUOUS
 10
59.2494951463
 20
191.514446396
  0
VERTEX
  8
0
 62
7
  6
CONTINUOUS
 10
59.1759291913
 20
191.5252715456
  0
VERTEX
  8
0
 62
7
  6
CONTINUOUS
 10
59.0911849439
 20
191.5657978627
  0
VERTEX
  8
0
 62
7
  6
CONTINUOUS
 10
59.0122168857
 20
191.6358801571
  0
VERTEX
  8
0
 62
7
  6
CONTINUOUS
 10
58.9441438519
 20
191.7335565424
  0
VERTEX
  8
0
 62
7
  6
CONTINUOUS
 10
58.891656344
 20
191.856013212
  0
VERTEX
  8
0
 62
7
  6
CONTINUOUS
 10
58.8592524177
 20
191.997592649
  0
VERTEX
  8
0
 62
7
  6
CONTINUOUS
 10
58.8494950818
 20
192.1373169452
  0
SEQEND
  0
POLYLINE
  8
0
 62
7
  6
CONTINUOUS
 66
1
 70
0
  0
VERTEX
  8
0
 62
7
  6
CONTINUOUS
 10
65.5894951494
 20
191.5144464114
  0
VERTEX
  8
0
 62
7
  6
CONTINUOUS
 10
65.5159294276
 20
191.5252714847
  0
VERTEX
  8
0
 62
7
  6
CONTINUOUS
 10
65.4311850555
 20
191.5657977987
  0
VERTEX
  8
0
 62
7
  6
CONTINUOUS
 10
65.3522169599
 20
191.6358800907
  0
VERTEX
  8
0
 62
7
  6
CONTINUOUS
 10
65.2841439091
 20
191.733556429
  0
VERTEX
  8
0
 62
7
  6
CONTINUOUS
 10
65.2316563882
 20
191.8560130647
  0
VERTEX
  8
0
 62
7
  6
CONTINUOUS
 10
65.1992524837
 20
191.9975922737
  0
VERTEX
  8
0
 62
7
  6
CONTINUOUS
 10
65.1919951457
 20
192.0658137961
  0
SEQEND
  0
POLYLINE
  8
0
 62
7
  6
CONTINUOUS
 66
1
 70
0
  0
VERTEX
  8
0
 62
7
  6
CONTINUOUS
 10
70.2828136364
 20
183.1040046434
  0
VERTEX
  8
0
 62
7
  6
CONTINUOUS
 10
70.2611981334
 20
183.1500530541
  0
VERTEX
  8
0
 62
7
  6
CONTINUOUS
 10
70.2263013879
 20
183.186390791
  0
VERTEX
  8
0
 62
7
  6
CONTINUOUS
 10
70.1832139713
 20
183.2094702379
  0
VERTEX
  8
0
 62
7
  6
CONTINUOUS
 10
70.1368667581
 20
183.2168037514
  0
VERTEX
  8
0
 62
7
  6
CONTINUOUS
 10
70.0908555477
 20
183.2077543726
  0
VERTEX
  8
0
 62
7
  6
CONTINUOUS
 10
70.0480654581
 20
183.1836832864
  0
VERTEX
  8
0
 62
7
  6
CONTINUOUS
 10
70.0144213
 20
183.1478091491
  0
VERTEX
  8
0
 62
7
  6
CONTINUOUS
 10
69.9938591477
 20
183.1034342124
  0
SEQEND
  0
LINE
  8
0
 62
7
  6
CONTINUOUS
 10
70.2828136364
 20
183.1040046434
 11
71.7110546837
 21
177.9773260662
  0
LINE
  8
0
 62
7
  6
CONTINUOUS
 10
72.1894951457
 20
167.0538614969
 11
72.1919951457
 21
167.0427405778
  0
POLYLINE
  8
0
 62
7
  6
CONTINUOUS
 66
1
 70
0
  0
VERTEX
  8
0
 62
7
  6
CONTINUOUS
 10
71.792136711
 20
168.0471970607
  0
VERTEX
  8
0
 62
7
  6
CONTINUOUS
 10
71.7935155332
 20
167.8655553928
  0
VERTEX
  8
0
 62
7
  6
CONTINUOUS
 10
71.7979258754
 20
167.7110093999
  0
VERTEX
  8
0
 62
7
  6
CONTINUOUS
 10
71.8103110686
 20
167.5736280853
  0
VERTEX
  8
0
 62
7
  6
CONTINUOUS
 10
71.8386031561
 20
167.4533314593
  0
VERTEX
  8
0
 62
7
  6
CONTINUOUS
 10
71.8888819063
 20
167.3488290695
  0
VERTEX
  8
0
 62
7
  6
CONTINUOUS
 10
71.9225904465
 20
167.3021449469
  0
VERTEX
  8
0
 62
7
  6
CONTINUOUS
 10
71.9980852492
 20
167.2249103846
  0
VERTEX
  8
0
 62
7
  6
CONTINUOUS
 10
72.0662364182
 20
167.1711595604
  0
VERTEX
  8
0
 62
7
  6
CONTINUOUS
 10
72.1211909468
 20
167.1311665465
  0
VERTEX
  8
0
 62
7
  6
CONTINUOUS
 10
72.1615607125
 20
167.0975592289
  0
VERTEX
  8
0
 62
7
  6
CONTINUOUS
 10
72.1845412796
 20
167.0675909021
  0
VERTEX
  8
0
 62
7
  6
CONTINUOUS
 10
72.1894951457
 20
167.0538614969
  0
SEQEND
  0
LINE
  8
0
 62
7
  6
CONTINUOUS
 10
71.5394951457
 20
198.8690746327
 11
71.5394951457
 21
199.7402757842
  0
LINE
  8
0
 62
7
  6
CONTINUOUS
 10
71.5419951457
 20
189.5036771169
 11
71.5419951457
 21
198.8454992246
  0
LINE
  8
0
 62
7
  6
CONTINUOUS
 10
71.7894951457
 20
173.7871400304
 11
71.7894951457
 21
166.1841595191
  0
LINE
  8
0
 62
7
  6
CONTINUOUS
 10
71.7919951457
 20
176.4465338969
 11
71.792136711
 21
168.0471970607
  0
POLYLINE
  8
0
 62
7
  6
CONTINUOUS
 66
1
 70
0
  0
VERTEX
  8
0
 62
7
  6
CONTINUOUS
 10
71.8114373047
 20
176.9291595541
  0
VERTEX
  8
0
 62
7
  6
CONTINUOUS
 10
71.8157261591
 20
177.3522549306
  0
VERTEX
  8
0
 62
7
  6
CONTINUOUS
 10
71.7955549443
 20
177.5629355309
  0
VERTEX
  8
0
 62
7
  6
CONTINUOUS
 10
71.7110546837
 20
177.9773260662
  0
SEQEND
  0
LINE
  8
0
 62
7
  6
CONTINUOUS
 10
71.7919951457
 20
176.4465338969
 11
71.8114373047
 21
176.9291595541
  0
POLYLINE
  8
0
 62
7
  6
CONTINUOUS
 66
1
 70
0
  0
VERTEX
  8
0
 62
7
  6
CONTINUOUS
 10
68.3669951457
 20
167.0789360787
  0
VERTEX
  8
0
 62
7
  6
CONTINUOUS
 10
68.3514722439
 20
166.9326054629
  0
VERTEX
  8
0
 62
7
  6
CONTINUOUS
 10
68.3094639083
 20
166.8074273984
  0
VERTEX
  8
0
 62
7
  6
CONTINUOUS
 10
68.2478160295
 20
166.7073754291
  0
VERTEX
  8
0
 62
7
  6
CONTINUOUS
 10
68.2120026989
 20
166.6676281068
  0
VERTEX
  8
0
 62
7
  6
CONTINUOUS
 10
68.1343405484
 20
166.6081978367
  0
VERTEX
  8
0
 62
7
  6
CONTINUOUS
 10
68.0516757067
 20
166.5735577051
  0
VERTEX
  8
0
 62
7
  6
CONTINUOUS
 10
67.9669951078
 20
166.5622225342
  0
SEQEND
  0
LINE
  8
0
 62
7
  6
CONTINUOUS
 10
75.3669951457
 20
198.8816947255
 11
75.3644951457
 21
198.8705738065
  0
LINE
  8
0
 62
7
  6
CONTINUOUS
 10
68.4771667411
 20
177.6623751542
 11
69.9938591477
 21
183.1034342124
  0
POLYLINE
  8
0
 62
7
  6
CONTINUOUS
 66
1
 70
0
  0
VERTEX
  8
0
 62
7
  6
CONTINUOUS
 10
84.1863001066
 20
191.6825916613
  0
VERTEX
  8
0
 62
7
  6
CONTINUOUS
 10
84.1430329469
 20
191.6442663201
  0
VERTEX
  8
0
 62
7
  6
CONTINUOUS
 10
84.1182130662
 20
191.6247807452
  0
VERTEX
  8
0
 62
7
  6
CONTINUOUS
 10
84.0646357884
 20
191.5854535765
  0
SEQEND
  0
POLYLINE
  8
0
 62
7
  6
CONTINUOUS
 66
1
 70
0
  0
VERTEX
  8
0
 62
7
  6
CONTINUOUS
 10
84.6394951494
 20
191.5144464114
  0
VERTEX
  8
0
 62
7
  6
CONTINUOUS
 10
84.6119132018
 20
191.5159603834
  0
VERTEX
  8
0
 62
7
  6
CONTINUOUS
 10
84.5326768344
 20
191.5374213792
  0
VERTEX
  8
0
 62
7
  6
CONTINUOUS
 10
84.4545623294
 20
191.5854622561
  0
VERTEX
  8
0
 62
7
  6
CONTINUOUS
 10
84.3829382446
 20
191.6591504846
  0
VERTEX
  8
0
 62
7
  6
CONTINUOUS
 10
84.350831414
 20
191.7051592456
  0
VERTEX
  8
0
 62
7
  6
CONTINUOUS
 10
84.2966799806
 20
191.8138472824
  0
VERTEX
  8
0
 62
7
  6
CONTINUOUS
 10
84.2592353579
 20
191.9407815075
  0
SEQEND
  0
POLYLINE
  8
0
 62
7
  6
CONTINUOUS
 66
1
 70
0
  0
VERTEX
  8
0
 62
7
  6
CONTINUOUS
 10
85.249072583
 20
191.4948774149
  0
VERTEX
  8
0
 62
7
  6
CONTINUOUS
 10
85.0698162348
 20
191.506280705
  0
VERTEX
  8
0
 62
7
  6
CONTINUOUS
 10
84.8552117578
 20
191.513214149
  0
VERTEX
  8
0
 62
7
  6
CONTINUOUS
 10
84.7151686995
 20
191.5144472224
  0
SEQEND
  0
POLYLINE
  8
0
 62
7
  6
CONTINUOUS
 66
1
 70
0
  0
VERTEX
  8
0
 62
7
  6
CONTINUOUS
 10
87.076737252
 20
191.3527708178
  0
VERTEX
  8
0
 62
7
  6
CONTINUOUS
 10
86.4631282655
 20
191.3990785842
  0
VERTEX
  8
0
 62
7
  6
CONTINUOUS
 10
85.8437031821
 20
191.4472491328
  0
VERTEX
  8
0
 62
7
  6
CONTINUOUS
 10
85.2490714657
 20
191.494876001
  0
SEQEND
  0
POLYLINE
  8
0
 62
7
  6
CONTINUOUS
 66
1
 70
0
  0
VERTEX
  8
0
 62
7
  6
CONTINUOUS
 10
71.9394951494
 20
191.5144464114
  0
VERTEX
  8
0
 62
7
  6
CONTINUOUS
 10
71.8659294276
 20
191.5252714847
  0
VERTEX
  8
0
 62
7
  6
CONTINUOUS
 10
71.7811850555
 20
191.5657977987
  0
VERTEX
  8
0
 62
7
  6
CONTINUOUS
 10
71.7022169599
 20
191.6358800907
  0
VERTEX
  8
0
 62
7
  6
CONTINUOUS
 10
71.6341439091
 20
191.733556429
  0
VERTEX
  8
0
 62
7
  6
CONTINUOUS
 10
71.5816563882
 20
191.8560130647
  0
VERTEX
  8
0
 62
7
  6
CONTINUOUS
 10
71.5492524837
 20
191.9975922737
  0
VERTEX
  8
0
 62
7
  6
CONTINUOUS
 10
71.5419951457
 20
192.0658137961
  0
SEQEND
  0
POLYLINE
  8
0
 62
7
  6
CONTINUOUS
 66
1
 70
0
  0
VERTEX
  8
0
 62
7
  6
CONTINUOUS
 10
73.170223982
 20
183.2475070506
  0
VERTEX
  8
0
 62
7
  6
CONTINUOUS
 10
73.191839485
 20
183.2014586399
  0
VERTEX
  8
0
 62
7
  6
CONTINUOUS
 10
73.2267362305
 20
183.165120903
  0
VERTEX
  8
0
 62
7
  6
CONTINUOUS
 10
73.269823647
 20
183.1420414561
  0
VERTEX
  8
0
 62
7
  6
CONTINUOUS
 10
73.3161708602
 20
183.1347079426
  0
VERTEX
  8
0
 62
7
  6
CONTINUOUS
 10
73.3621820707
 20
183.1437573214
  0
VERTEX
  8
0
 62
7
  6
CONTINUOUS
 10
73.4049721602
 20
183.1678284076
  0
VERTEX
  8
0
 62
7
  6
CONTINUOUS
 10
73.4386163183
 20
183.2037025449
  0
VERTEX
  8
0
 62
7
  6
CONTINUOUS
 10
73.4591784707
 20
183.2480774816
  0
SEQEND
  0
POLYLINE
  8
0
 62
7
  6
CONTINUOUS
 66
1
 70
0
  0
VERTEX
  8
0
 62
7
  6
CONTINUOUS
 10
71.6523234298
 20
188.6960188769
  0
VERTEX
  8
0
 62
7
  6
CONTINUOUS
 10
71.5697334238
 20
189.0958012809
  0
VERTEX
  8
0
 62
7
  6
CONTINUOUS
 10
71.5419951457
 20
189.5036771169
  0
SEQEND
  0
LINE
  8
0
 62
7
  6
CONTINUOUS
 10
71.5264831233
 20
198.9917801274
 11
71.5419951457
 21
198.8454992246
  0
LINE
  8
0
 62
7
  6
CONTINUOUS
 10
74.7144951457
 20
167.0553691873
 11
74.7144951457
 21
166.1841595191
  0
LINE
  8
0
 62
7
  6
CONTINUOUS
 10
74.7169951457
 20
167.0789360787
 11
74.7169951457
 21
176.856836954
  0
POLYLINE
  8
0
 62
7
  6
CONTINUOUS
 66
1
 70
0
  0
VERTEX
  8
0
 62
7
  6
CONTINUOUS
 10
74.9644952007
 20
192.1373167095
  0
VERTEX
  8
0
 62
7
  6
CONTINUOUS
 10
74.9547378079
 20
191.9975922756
  0
VERTEX
  8
0
 62
7
  6
CONTINUOUS
 10
74.9223339036
 20
191.8560130661
  0
VERTEX
  8
0
 62
7
  6
CONTINUOUS
 10
74.8698463828
 20
191.7335564301
  0
VERTEX
  8
0
 62
7
  6
CONTINUOUS
 10
74.8017733321
 20
191.6358800914
  0
VERTEX
  8
0
 62
7
  6
CONTINUOUS
 10
74.7228052363
 20
191.565797799
  0
VERTEX
  8
0
 62
7
  6
CONTINUOUS
 10
74.6380608641
 20
191.5252714848
  0
VERTEX
  8
0
 62
7
  6
CONTINUOUS
 10
74.564495142
 20
191.5144464114
  0
SEQEND
  0
LINE
  8
0
 62
7
  6
CONTINUOUS
 10
74.8568235503
 20
188.2620601492
 11
73.4591784707
 21
183.2480774816
  0
POLYLINE
  8
0
 62
7
  6
CONTINUOUS
 66
1
 70
0
  0
VERTEX
  8
0
 62
7
  6
CONTINUOUS
 10
81.6844321765
 20
200.1391444567
  0
VERTEX
  8
0
 62
7
  6
CONTINUOUS
 10
81.6311162686
 20
200.1314892335
  0
VERTEX
  8
0
 62
7
  6
CONTINUOUS
 10
81.5292450984
 20
200.0947929488
  0
VERTEX
  8
0
 62
7
  6
CONTINUOUS
 10
81.4404013323
 20
200.031604776
  0
VERTEX
  8
0
 62
7
  6
CONTINUOUS
 10
81.3719701786
 20
199.9468590529
  0
VERTEX
  8
0
 62
7
  6
CONTINUOUS
 10
81.3289279747
 20
199.8467556257
  0
VERTEX
  8
0
 62
7
  6
CONTINUOUS
 10
81.3144951457
 20
199.7402757842
  0
SEQEND
  0
LINE
  8
DEFAULT_1
 62
2
  6
CENTER
 10
34.9344951457
 20
195.6622176517
 11
86.2394951457
 21
195.6622176517
  0
POLYLINE
  8
0
 62
7
  6
CONTINUOUS
 66
1
 70
0
  0
VERTEX
  8
0
 62
7
  6
CONTINUOUS
 10
39.4295581148
 20
200.1391444567
  0
VERTEX
  8
0
 62
7
  6
CONTINUOUS
 10
39.4828740228
 20
200.1314892335
  0
VERTEX
  8
0
 62
7
  6
CONTINUOUS
 10
39.5847451929
 20
200.0947929488
  0
VERTEX
  8
0
 62
7
  6
CONTINUOUS
 10
39.6735889591
 20
200.031604776
  0
VERTEX
  8
0
 62
7
  6
CONTINUOUS
 10
39.7420201128
 20
199.9468590529
  0
VERTEX
  8
0
 62
7
  6
CONTINUOUS
 10
39.7850623167
 20
199.8467556257
  0
VERTEX
  8
0
 62
7
  6
CONTINUOUS
 10
39.7994951457
 20
199.7402757842
  0
SEQEND
  0
POLYLINE
  8
0
 62
7
  6
CONTINUOUS
 66
1
 70
0
  0
VERTEX
  8
0
 62
7
  6
CONTINUOUS
 10
45.0494951457
 20
199.3622176517
  0
VERTEX
  8
0
 62
7
  6
CONTINUOUS
 10
45.1304865925
 20
199.3503349391
  0
VERTEX
  8
0
 62
7
  6
CONTINUOUS
 10
45.2101369375
 20
199.3132777641
  0
VERTEX
  8
0
 62
7
  6
CONTINUOUS
 10
45.2820844031
 20
199.2509279324
  0
VERTEX
  8
0
 62
7
  6
CONTINUOUS
 10
45.342509719
 20
199.1616383527
  0
VERTEX
  8
0
 62
7
  6
CONTINUOUS
 10
45.3839961937
 20
199.0475271293
  0
VERTEX
  8
0
 62
7
  6
CONTINUOUS
 10
45.3994951457
 20
198.9122176517
  0
SEQEND
  0
POLYLINE
  8
0
 62
7
  6
CONTINUOUS
 66
1
 70
0
  0
VERTEX
  8
0
 62
7
  6
CONTINUOUS
 10
87.0767372522
 20
191.3527708176
  0
VERTEX
  8
0
 62
7
  6
CONTINUOUS
 10
87.1643646412
 20
191.332753586
  0
VERTEX
  8
0
 62
7
  6
CONTINUOUS
 10
87.2411439348
 20
191.2884628805
  0
VERTEX
  8
0
 62
7
  6
CONTINUOUS
 10
87.3018419756
 20
191.2233596775
  0
VERTEX
  8
0
 62
7
  6
CONTINUOUS
 10
87.3408391424
 20
191.1430789599
  0
VERTEX
  8
0
 62
7
  6
CONTINUOUS
 10
87.3544951457
 20
191.0535964726
  0
SEQEND
  0
POLYLINE
  8
0
 62
7
  6
CONTINUOUS
 66
1
 70
0
  0
VERTEX
  8
0
 62
7
  6
CONTINUOUS
 10
76.6328136364
 20
183.1040046434
  0
VERTEX
  8
0
 62
7
  6
CONTINUOUS
 10
76.6111981334
 20
183.1500530541
  0
VERTEX
  8
0
 62
7
  6
CONTINUOUS
 10
76.5763013879
 20
183.186390791
  0
VERTEX
  8
0
 62
7
  6
CONTINUOUS
 10
76.5332139713
 20
183.2094702379
  0
VERTEX
  8
0
 62
7
  6
CONTINUOUS
 10
76.4868667581
 20
183.2168037514
  0
VERTEX
  8
0
 62
7
  6
CONTINUOUS
 10
76.4408555476
 20
183.2077543726
  0
VERTEX
  8
0
 62
7
  6
CONTINUOUS
 10
76.3980654581
 20
183.1836832864
  0
VERTEX
  8
0
 62
7
  6
CONTINUOUS
 10
76.3644213
 20
183.147809149
  0
VERTEX
  8
0
 62
7
  6
CONTINUOUS
 10
76.3438591477
 20
183.1034342124
  0
SEQEND
  0
LINE
  8
0
 62
7
  6
CONTINUOUS
 10
73.170223982
 20
183.2475070506
 11
71.6523234298
 21
188.6960188769
  0
LINE
  8
0
 62
7
  6
CONTINUOUS
 10
74.9644951457
 20
192.1372952922
 11
74.9644951457
 21
199.7402757842
  0
LINE
  8
0
 62
7
  6
CONTINUOUS
 10
77.1394951457
 20
191.9194470152
 11
77.1394951457
 21
199.7622169761
  0
POLYLINE
  8
0
 62
7
  6
CONTINUOUS
 66
1
 70
0
  0
VERTEX
  8
0
 62
7
  6
CONTINUOUS
 10
74.7169951457
 20
167.0789360787
  0
VERTEX
  8
0
 62
7
  6
CONTINUOUS
 10
74.7014722439
 20
166.9326054629
  0
VERTEX
  8
0
 62
7
  6
CONTINUOUS
 10
74.6594639083
 20
166.8074273984
  0
VERTEX
  8
0
 62
7
  6
CONTINUOUS
 10
74.5978160295
 20
166.7073754291
  0
VERTEX
  8
0
 62
7
  6
CONTINUOUS
 10
74.5620026989
 20
166.6676281068
  0
VERTEX
  8
0
 62
7
  6
CONTINUOUS
 10
74.4843405484
 20
166.6081978367
  0
VERTEX
  8
0
 62
7
  6
CONTINUOUS
 10
74.4016757067
 20
166.5735577051
  0
VERTEX
  8
0
 62
7
  6
CONTINUOUS
 10
74.3169951078
 20
166.5622225342
  0
SEQEND
  0
POLYLINE
  8
0
 62
7
  6
CONTINUOUS
 66
1
 70
0
  0
VERTEX
  8
0
 62
7
  6
CONTINUOUS
 10
74.7169951457
 20
173.8586214086
  0
VERTEX
  8
0
 62
7
  6
CONTINUOUS
 10
74.7242524179
 20
173.9268426562
  0
VERTEX
  8
0
 62
7
  6
CONTINUOUS
 10
74.7566563445
 20
174.0684220928
  0
VERTEX
  8
0
 62
7
  6
CONTINUOUS
 10
74.8091438525
 20
174.1908787619
  0
VERTEX
  8
0
 62
7
  6
CONTINUOUS
 10
74.8772168863
 20
174.2885551469
  0
VERTEX
  8
0
 62
7
  6
CONTINUOUS
 10
74.9561849444
 20
174.358637441
  0
VERTEX
  8
0
 62
7
  6
CONTINUOUS
 10
75.0409291916
 20
174.3991637578
  0
VERTEX
  8
0
 62
7
  6
CONTINUOUS
 10
75.1144951463
 20
174.4099889074
  0
SEQEND
  0
LINE
  8
0
 62
7
  6
CONTINUOUS
 10
74.8271667411
 20
177.6623751542
 11
76.3438591477
 21
183.1034342124
  0
POLYLINE
  8
0
 62
7
  6
CONTINUOUS
 66
1
 70
0
  0
VERTEX
  8
0
 62
7
  6
CONTINUOUS
 10
81.7144951457
 20
198.8705738065
  0
VERTEX
  8
0
 62
7
  6
CONTINUOUS
 10
81.7099182685
 20
198.8576167035
  0
VERTEX
  8
0
 62
7
  6
CONTINUOUS
 10
81.6887954041
 20
198.8291183462
  0
VERTEX
  8
0
 62
7
  6
CONTINUOUS
 10
81.6521292543
 20
198.7977535493
  0
VERTEX
  8
0
 62
7
  6
CONTINUOUS
 10
81.6017604448
 20
198.7609462026
  0
VERTEX
  8
0
 62
7
  6
CONTINUOUS
 10
81.5383801988
 20
198.7124592152
  0
VERTEX
  8
0
 62
7
  6
CONTINUOUS
 10
81.4645579623
 20
198.6422102814
  0
VERTEX
  8
0
 62
7
  6
CONTINUOUS
 10
81.4282210577
 20
198.5968499613
  0
VERTEX
  8
0
 62
7
  6
CONTINUOUS
 10
81.370948166
 20
198.4910604862
  0
VERTEX
  8
0
 62
7
  6
CONTINUOUS
 10
81.3389024848
 20
198.373180405
  0
VERTEX
  8
0
 62
7
  6
CONTINUOUS
 10
81.3237952456
 20
198.2298300698
  0
VERTEX
  8
0
 62
7
  6
CONTINUOUS
 10
81.3186603395
 20
198.0684254423
  0
VERTEX
  8
0
 62
7
  6
CONTINUOUS
 10
81.3171473182
 20
197.8808239583
  0
VERTEX
  8
0
 62
7
  6
CONTINUOUS
 10
81.3169951457
 20
189.0675983493
  0
SEQEND
  0
POLYLINE
  8
0
 62
7
  6
CONTINUOUS
 66
1
 70
0
  0
VERTEX
  8
0
 62
7
  6
CONTINUOUS
 10
75.3344321765
 20
200.1391444567
  0
VERTEX
  8
0
 62
7
  6
CONTINUOUS
 10
75.2811162686
 20
200.1314892335
  0
VERTEX
  8
0
 62
7
  6
CONTINUOUS
 10
75.1792450984
 20
200.0947929488
  0
VERTEX
  8
0
 62
7
  6
CONTINUOUS
 10
75.0904013323
 20
200.031604776
  0
VERTEX
  8
0
 62
7
  6
CONTINUOUS
 10
75.0219701786
 20
199.9468590529
  0
VERTEX
  8
0
 62
7
  6
CONTINUOUS
 10
74.9789279747
 20
199.8467556257
  0
VERTEX
  8
0
 62
7
  6
CONTINUOUS
 10
74.9644951457
 20
199.7402757842
  0
SEQEND
  0
POLYLINE
  8
0
 62
7
  6
CONTINUOUS
 66
1
 70
0
  0
VERTEX
  8
0
 62
7
  6
CONTINUOUS
 10
68.9844321765
 20
200.1391444567
  0
VERTEX
  8
0
 62
7
  6
CONTINUOUS
 10
68.9311162686
 20
200.1314892335
  0
VERTEX
  8
0
 62
7
  6
CONTINUOUS
 10
68.8292450984
 20
200.0947929488
  0
VERTEX
  8
0
 62
7
  6
CONTINUOUS
 10
68.7404013323
 20
200.031604776
  0
VERTEX
  8
0
 62
7
  6
CONTINUOUS
 10
68.6719701786
 20
199.9468590529
  0
VERTEX
  8
0
 62
7
  6
CONTINUOUS
 10
68.6289279747
 20
199.8467556257
  0
VERTEX
  8
0
 62
7
  6
CONTINUOUS
 10
68.6144951457
 20
199.7402757842
  0
SEQEND
  0
LINE
  8
0
 62
7
  6
CONTINUOUS
 10
81.8609330733
 20
200.1535508231
 11
81.6843845785
 21
200.1391403769
  0
LINE
  8
0
 62
7
  6
CONTINUOUS
 10
75.5109330733
 20
200.1535508231
 11
75.3343845785
 21
200.1391403769
  0
LINE
  8
0
 62
7
  6
CONTINUOUS
 10
69.1609330733
 20
200.1535508231
 11
68.9843845785
 21
200.1391403769
  0
LINE
  8
0
 62
7
  6
CONTINUOUS
 10
56.3244951457
 20
199.3622176517
 11
56.3219951457
 21
199.3622141361
  0
LINE
  8
0
 62
7
  6
CONTINUOUS
 10
49.9744951457
 20
199.3622176517
 11
49.9719951457
 21
199.3622141361
  0
LINE
  8
0
 62
7
  6
CONTINUOUS
 10
43.6244951457
 20
199.3622176517
 11
43.6219951457
 21
199.3622141361
  0
LINE
  8
0
 62
7
  6
CONTINUOUS
 10
76.7894951457
 20
199.3622176516
 11
76.7394951458
 21
199.3622176516
  0
LINE
  8
0
 62
7
  6
CONTINUOUS
 10
44.9994951457
 20
199.3622176517
 11
45.0494951457
 21
199.3622176517
  0
LINE
  8
0
 62
7
  6
CONTINUOUS
 10
64.7919951457
 20
199.362214136
 11
64.7894951457
 21
199.3622176516
  0
LINE
  8
0
 62
7
  6
CONTINUOUS
 10
71.1419951457
 20
199.362214136
 11
71.1394951457
 21
199.3622176516
  0
LINE
  8
0
 62
7
  6
CONTINUOUS
 10
83.8419951457
 20
199.362214136
 11
83.8394951457
 21
199.3622176516
  0
POLYLINE
  8
0
 62
7
  6
CONTINUOUS
 66
1
 70
0
  0
VERTEX
  8
0
 62
7
  6
CONTINUOUS
 10
39.4296058196
 20
200.1391403688
  0
VERTEX
  8
0
 62
7
  6
CONTINUOUS
 10
39.2524419838
 20
200.1536008909
  0
VERTEX
  8
0
 62
7
  6
CONTINUOUS
 10
39.1824324777
 20
200.1588391484
  0
VERTEX
  8
0
 62
7
  6
CONTINUOUS
 10
39.1238785407
 20
200.1617540939
  0
SEQEND
  0
POLYLINE
  8
0
 62
7
  6
CONTINUOUS
 66
1
 70
0
  0
VERTEX
  8
0
 62
7
  6
CONTINUOUS
 10
52.1296058196
 20
200.1391403688
  0
VERTEX
  8
0
 62
7
  6
CONTINUOUS
 10
51.9524419838
 20
200.1536008909
  0
VERTEX
  8
0
 62
7
  6
CONTINUOUS
 10
51.8824324777
 20
200.1588391484
  0
VERTEX
  8
0
 62
7
  6
CONTINUOUS
 10
51.8238785407
 20
200.1617540939
  0
SEQEND
  0
POLYLINE
  8
0
 62
7
  6
CONTINUOUS
 66
1
 70
0
  0
VERTEX
  8
0
 62
7
  6
CONTINUOUS
 10
64.7919951078
 20
199.3622127691
  0
VERTEX
  8
0
 62
7
  6
CONTINUOUS
 10
64.8766740279
 20
199.3508780534
  0
VERTEX
  8
0
 62
7
  6
CONTINUOUS
 10
64.9593366001
 20
199.3162397518
  0
VERTEX
  8
0
 62
7
  6
CONTINUOUS
 10
65.0369999403
 20
199.2568099017
  0
VERTEX
  8
0
 62
7
  6
CONTINUOUS
 10
65.0728114876
 20
199.2170655684
  0
VERTEX
  8
0
 62
7
  6
CONTINUOUS
 10
65.1344568365
 20
199.1170230009
  0
VERTEX
  8
0
 62
7
  6
CONTINUOUS
 10
65.1764831233
 20
198.9917801274
  0
SEQEND
  0
POLYLINE
  8
0
 62
7
  6
CONTINUOUS
 66
1
 70
0
  0
VERTEX
  8
0
 62
7
  6
CONTINUOUS
 10
52.1295581148
 20
200.1391444567
  0
VERTEX
  8
0
 62
7
  6
CONTINUOUS
 10
52.1828740228
 20
200.1314892335
  0
VERTEX
  8
0
 62
7
  6
CONTINUOUS
 10
52.2847451929
 20
200.0947929488
  0
VERTEX
  8
0
 62
7
  6
CONTINUOUS
 10
52.3735889591
 20
200.031604776
  0
VERTEX
  8
0
 62
7
  6
CONTINUOUS
 10
52.4420201128
 20
199.9468590529
  0
VERTEX
  8
0
 62
7
  6
CONTINUOUS
 10
52.4850623167
 20
199.8467556257
  0
VERTEX
  8
0
 62
7
  6
CONTINUOUS
 10
52.4994951457
 20
199.7402757842
  0
SEQEND
  0
POLYLINE
  8
0
 62
7
  6
CONTINUOUS
 66
1
 70
0
  0
VERTEX
  8
0
 62
7
  6
CONTINUOUS
 10
58.4795581148
 20
200.1391444567
  0
VERTEX
  8
0
 62
7
  6
CONTINUOUS
 10
58.5328740228
 20
200.1314892335
  0
VERTEX
  8
0
 62
7
  6
CONTINUOUS
 10
58.6347451929
 20
200.0947929488
  0
VERTEX
  8
0
 62
7
  6
CONTINUOUS
 10
58.7235889591
 20
200.031604776
  0
VERTEX
  8
0
 62
7
  6
CONTINUOUS
 10
58.7920201128
 20
199.9468590529
  0
VERTEX
  8
0
 62
7
  6
CONTINUOUS
 10
58.8350623167
 20
199.8467556257
  0
VERTEX
  8
0
 62
7
  6
CONTINUOUS
 10
58.8494951457
 20
199.7402757842
  0
SEQEND
  0
LINE
  8
0
 62
7
  6
CONTINUOUS
 10
76.6328136364
 20
183.1040046434
 11
78.0610546837
 21
177.9773260662
  0
LINE
  8
0
 62
7
  6
CONTINUOUS
 10
77.8919951457
 20
189.5036771169
 11
77.8919951457
 21
191.1644511543
  0
LINE
  8
0
 62
7
  6
CONTINUOUS
 10
78.1419951457
 20
176.4465338969
 11
78.1419951457
 21
174.7599521848
  0
LINE
  8
0
 62
7
  6
CONTINUOUS
 10
78.8894951457
 20
166.1622183273
 11
78.8894951457
 21
174.0049894373
  0
POLYLINE
  8
0
 62
7
  6
CONTINUOUS
 66
1
 70
0
  0
VERTEX
  8
0
 62
7
  6
CONTINUOUS
 10
78.1614373047
 20
176.9291595541
  0
VERTEX
  8
0
 62
7
  6
CONTINUOUS
 10
78.1657261591
 20
177.3522549306
  0
VERTEX
  8
0
 62
7
  6
CONTINUOUS
 10
78.1455549443
 20
177.5629355309
  0
VERTEX
  8
0
 62
7
  6
CONTINUOUS
 10
78.0610546837
 20
177.9773260662
  0
SEQEND
  0
LINE
  8
0
 62
7
  6
CONTINUOUS
 10
78.1419951457
 20
176.4465338969
 11
78.1614373047
 21
176.9291595541
  0
LINE
  8
0
 62
7
  6
CONTINUOUS
 10
81.7169951457
 20
198.8816947255
 11
81.7144951457
 21
198.8705738065
  0
LINE
  8
0
 62
7
  6
CONTINUOUS
 10
81.2068235503
 20
188.2620601492
 11
79.8091784707
 21
183.2480774816
  0
POLYLINE
  8
0
 62
7
  6
CONTINUOUS
 66
1
 70
0
  0
VERTEX
  8
0
 62
7
  6
CONTINUOUS
 10
62.6344321765
 20
200.1391444567
  0
VERTEX
  8
0
 62
7
  6
CONTINUOUS
 10
62.5811162686
 20
200.1314892335
  0
VERTEX
  8
0
 62
7
  6
CONTINUOUS
 10
62.4792450984
 20
200.0947929488
  0
VERTEX
  8
0
 62
7
  6
CONTINUOUS
 10
62.3904013323
 20
200.031604776
  0
VERTEX
  8
0
 62
7
  6
CONTINUOUS
 10
62.3219701786
 20
199.9468590529
  0
VERTEX
  8
0
 62
7
  6
CONTINUOUS
 10
62.2789279747
 20
199.8467556257
  0
VERTEX
  8
0
 62
7
  6
CONTINUOUS
 10
62.2644951457
 20
199.7402757842
  0
SEQEND
  0
POLYLINE
  8
0
 62
7
  6
CONTINUOUS
 66
1
 70
0
  0
VERTEX
  8
0
 62
7
  6
CONTINUOUS
 10
56.2944321765
 20
200.1391444567
  0
VERTEX
  8
0
 62
7
  6
CONTINUOUS
 10
56.2411162686
 20
200.1314892335
  0
VERTEX
  8
0
 62
7
  6
CONTINUOUS
 10
56.1392450984
 20
200.0947929488
  0
VERTEX
  8
0
 62
7
  6
CONTINUOUS
 10
56.0504013323
 20
200.031604776
  0
VERTEX
  8
0
 62
7
  6
CONTINUOUS
 10
55.9819701786
 20
199.9468590529
  0
VERTEX
  8
0
 62
7
  6
CONTINUOUS
 10
55.9389279747
 20
199.8467556257
  0
VERTEX
  8
0
 62
7
  6
CONTINUOUS
 10
55.9244951457
 20
199.7402757842
  0
SEQEND
  0
POLYLINE
  8
0
 62
7
  6
CONTINUOUS
 66
1
 70
0
  0
VERTEX
  8
0
 62
7
  6
CONTINUOUS
 10
49.9444321765
 20
200.1391444567
  0
VERTEX
  8
0
 62
7
  6
CONTINUOUS
 10
49.8911162686
 20
200.1314892335
  0
VERTEX
  8
0
 62
7
  6
CONTINUOUS
 10
49.7892450984
 20
200.0947929488
  0
VERTEX
  8
0
 62
7
  6
CONTINUOUS
 10
49.7004013323
 20
200.031604776
  0
VERTEX
  8
0
 62
7
  6
CONTINUOUS
 10
49.6319701786
 20
199.9468590529
  0
VERTEX
  8
0
 62
7
  6
CONTINUOUS
 10
49.5889279747
 20
199.8467556257
  0
VERTEX
  8
0
 62
7
  6
CONTINUOUS
 10
49.5744951457
 20
199.7402757842
  0
SEQEND
  0
LINE
  8
0
 62
7
  6
CONTINUOUS
 10
62.8109330733
 20
200.1535508231
 11
62.6343845785
 21
200.1391403769
  0
LINE
  8
0
 62
7
  6
CONTINUOUS
 10
56.4709330733
 20
200.1535508231
 11
56.2943845785
 21
200.1391403769
  0
LINE
  8
0
 62
7
  6
CONTINUOUS
 10
50.1209330733
 20
200.1535508231
 11
49.9443845785
 21
200.1391403769
  0
LINE
  8
0
 62
7
  6
CONTINUOUS
 10
43.7709330733
 20
200.1535508231
 11
43.5943845785
 21
200.1391403769
  0
POLYLINE
  8
0
 62
7
  6
CONTINUOUS
 66
1
 70
0
  0
VERTEX
  8
0
 62
7
  6
CONTINUOUS
 10
82.0193046287
 20
200.162216967
  0
VERTEX
  8
0
 62
7
  6
CONTINUOUS
 10
81.9892220371
 20
200.1617270956
  0
VERTEX
  8
0
 62
7
  6
CONTINUOUS
 10
81.9308062919
 20
200.158790088
  0
VERTEX
  8
0
 62
7
  6
CONTINUOUS
 10
81.8609330733
 20
200.1535508231
  0
SEQEND
  0
POLYLINE
  8
0
 62
7
  6
CONTINUOUS
 66
1
 70
0
  0
VERTEX
  8
0
 62
7
  6
CONTINUOUS
 10
75.6693046287
 20
200.162216967
  0
VERTEX
  8
0
 62
7
  6
CONTINUOUS
 10
75.6392220371
 20
200.1617270956
  0
VERTEX
  8
0
 62
7
  6
CONTINUOUS
 10
75.5808062919
 20
200.158790088
  0
VERTEX
  8
0
 62
7
  6
CONTINUOUS
 10
75.5109330733
 20
200.1535508231
  0
SEQEND
  0
POLYLINE
  8
0
 62
7
  6
CONTINUOUS
 66
1
 70
0
  0
VERTEX
  8
0
 62
7
  6
CONTINUOUS
 10
69.3193046287
 20
200.162216967
  0
VERTEX
  8
0
 62
7
  6
CONTINUOUS
 10
69.2892220371
 20
200.1617270956
  0
VERTEX
  8
0
 62
7
  6
CONTINUOUS
 10
69.2308062919
 20
200.158790088
  0
VERTEX
  8
0
 62
7
  6
CONTINUOUS
 10
69.1609330733
 20
200.1535508231
  0
SEQEND
  0
POLYLINE
  8
0
 62
7
  6
CONTINUOUS
 66
1
 70
0
  0
VERTEX
  8
0
 62
7
  6
CONTINUOUS
 10
62.9693046287
 20
200.162216967
  0
VERTEX
  8
0
 62
7
  6
CONTINUOUS
 10
62.9392220371
 20
200.1617270956
  0
VERTEX
  8
0
 62
7
  6
CONTINUOUS
 10
62.8808062919
 20
200.158790088
  0
VERTEX
  8
0
 62
7
  6
CONTINUOUS
 10
62.8109330733
 20
200.1535508231
  0
SEQEND
  0
POLYLINE
  8
0
 62
7
  6
CONTINUOUS
 66
1
 70
0
  0
VERTEX
  8
0
 62
7
  6
CONTINUOUS
 10
56.6293046287
 20
200.162216967
  0
VERTEX
  8
0
 62
7
  6
CONTINUOUS
 10
56.5992220371
 20
200.1617270956
  0
VERTEX
  8
0
 62
7
  6
CONTINUOUS
 10
56.5408062919
 20
200.158790088
  0
VERTEX
  8
0
 62
7
  6
CONTINUOUS
 10
56.4709330733
 20
200.1535508231
  0
SEQEND
  0
POLYLINE
  8
0
 62
7
  6
CONTINUOUS
 66
1
 70
0
  0
VERTEX
  8
0
 62
7
  6
CONTINUOUS
 10
50.2793046287
 20
200.162216967
  0
VERTEX
  8
0
 62
7
  6
CONTINUOUS
 10
50.2492220371
 20
200.1617270956
  0
VERTEX
  8
0
 62
7
  6
CONTINUOUS
 10
50.1908062919
 20
200.158790088
  0
VERTEX
  8
0
 62
7
  6
CONTINUOUS
 10
50.1209330733
 20
200.1535508231
  0
SEQEND
  0
POLYLINE
  8
0
 62
7
  6
CONTINUOUS
 66
1
 70
0
  0
VERTEX
  8
0
 62
7
  6
CONTINUOUS
 10
43.9293046287
 20
200.162216967
  0
VERTEX
  8
0
 62
7
  6
CONTINUOUS
 10
43.8992220371
 20
200.1617270956
  0
VERTEX
  8
0
 62
7
  6
CONTINUOUS
 10
43.8408062919
 20
200.158790088
  0
VERTEX
  8
0
 62
7
  6
CONTINUOUS
 10
43.7709330733
 20
200.1535508231
  0
SEQEND
  0
LINE
  8
0
 62
7
  6
CONTINUOUS
 10
83.5358249741
 20
200.1622176517
 11
82.0181653173
 21
200.1622176517
  0
LINE
  8
0
 62
7
  6
CONTINUOUS
 10
76.7394951457
 20
200.1622176517
 11
75.6681653173
 21
200.1622176517
  0
LINE
  8
0
 62
7
  6
CONTINUOUS
 10
70.8358249741
 20
200.1622176517
 11
69.3181653173
 21
200.1622176517
  0
LINE
  8
0
 62
7
  6
CONTINUOUS
 10
64.4858249741
 20
200.1622176517
 11
62.9681653173
 21
200.1622176517
  0
LINE
  8
0
 62
7
  6
CONTINUOUS
 10
39.0958249741
 20
200.1622176517
 11
37.2344951457
 21
200.1622176517
  0
LINE
  8
0
 62
7
  6
CONTINUOUS
 10
43.9281653173
 20
200.1622176517
 11
44.9994951457
 21
200.1622176517
  0
LINE
  8
0
 62
7
  6
CONTINUOUS
 10
50.2781653173
 20
200.1622176517
 11
51.7958249741
 21
200.1622176517
  0
LINE
  8
0
 62
7
  6
CONTINUOUS
 10
56.6281653173
 20
200.1622176517
 11
58.1458249741
 21
200.1622176517
  0
LINE
  8
0
 62
7
  6
CONTINUOUS
 10
39.1238785407
 20
200.1617540939
 11
39.0946848358
 21
200.1622169671
  0
LINE
  8
0
 62
7
  6
CONTINUOUS
 10
51.8238785407
 20
200.1617540939
 11
51.7946848358
 21
200.1622169671
  0
LINE
  8
0
 62
7
  6
CONTINUOUS
 10
58.1738785407
 20
200.1617540939
 11
58.1446848358
 21
200.1622169671
  0
LINE
  8
0
 62
7
  6
CONTINUOUS
 10
64.5138785407
 20
200.1617540939
 11
64.4846848359
 21
200.1622169671
  0
LINE
  8
0
 62
7
  6
CONTINUOUS
 10
70.8638785407
 20
200.1617540939
 11
70.8346848359
 21
200.1622169671
  0
LINE
  8
0
 62
7
  6
CONTINUOUS
 10
83.5638785407
 20
200.1617540939
 11
83.5346848359
 21
200.1622169671
  0
POLYLINE
  8
0
 62
7
  6
CONTINUOUS
 66
1
 70
0
  0
VERTEX
  8
0
 62
7
  6
CONTINUOUS
 10
58.4796058196
 20
200.1391403688
  0
VERTEX
  8
0
 62
7
  6
CONTINUOUS
 10
58.3024419838
 20
200.1536008909
  0
VERTEX
  8
0
 62
7
  6
CONTINUOUS
 10
58.2324324777
 20
200.1588391484
  0
VERTEX
  8
0
 62
7
  6
CONTINUOUS
 10
58.1738785407
 20
200.1617540939
  0
SEQEND
  0
POLYLINE
  8
0
 62
7
  6
CONTINUOUS
 66
1
 70
0
  0
VERTEX
  8
0
 62
7
  6
CONTINUOUS
 10
64.8196058196
 20
200.1391403688
  0
VERTEX
  8
0
 62
7
  6
CONTINUOUS
 10
64.6424419838
 20
200.1536008909
  0
VERTEX
  8
0
 62
7
  6
CONTINUOUS
 10
64.5724324777
 20
200.1588391484
  0
VERTEX
  8
0
 62
7
  6
CONTINUOUS
 10
64.5138785407
 20
200.1617540939
  0
SEQEND
  0
POLYLINE
  8
0
 62
7
  6
CONTINUOUS
 66
1
 70
0
  0
VERTEX
  8
0
 62
7
  6
CONTINUOUS
 10
71.1696058196
 20
200.1391403688
  0
VERTEX
  8
0
 62
7
  6
CONTINUOUS
 10
70.9924419838
 20
200.1536008909
  0
VERTEX
  8
0
 62
7
  6
CONTINUOUS
 10
70.9224324777
 20
200.1588391484
  0
VERTEX
  8
0
 62
7
  6
CONTINUOUS
 10
70.8638785407
 20
200.1617540939
  0
SEQEND
  0
POLYLINE
  8
0
 62
7
  6
CONTINUOUS
 66
1
 70
0
  0
VERTEX
  8
0
 62
7
  6
CONTINUOUS
 10
83.8696058196
 20
200.1391403688
  0
VERTEX
  8
0
 62
7
  6
CONTINUOUS
 10
83.6924419838
 20
200.1536008909
  0
VERTEX
  8
0
 62
7
  6
CONTINUOUS
 10
83.6224324777
 20
200.1588391484
  0
VERTEX
  8
0
 62
7
  6
CONTINUOUS
 10
83.5638785407
 20
200.1617540939
  0
SEQEND
  0
POLYLINE
  8
0
 62
7
  6
CONTINUOUS
 66
1
 70
0
  0
VERTEX
  8
0
 62
7
  6
CONTINUOUS
 10
71.1419951078
 20
199.3622127691
  0
VERTEX
  8
0
 62
7
  6
CONTINUOUS
 10
71.2266740279
 20
199.3508780534
  0
VERTEX
  8
0
 62
7
  6
CONTINUOUS
 10
71.3093366001
 20
199.3162397518
  0
VERTEX
  8
0
 62
7
  6
CONTINUOUS
 10
71.3869999403
 20
199.2568099017
  0
VERTEX
  8
0
 62
7
  6
CONTINUOUS
 10
71.4228114876
 20
199.2170655684
  0
VERTEX
  8
0
 62
7
  6
CONTINUOUS
 10
71.4844568365
 20
199.1170230009
  0
VERTEX
  8
0
 62
7
  6
CONTINUOUS
 10
71.5264831233
 20
198.9917801274
  0
SEQEND
  0
POLYLINE
  8
0
 62
7
  6
CONTINUOUS
 66
1
 70
0
  0
VERTEX
  8
0
 62
7
  6
CONTINUOUS
 10
83.8419951078
 20
199.3622127691
  0
VERTEX
  8
0
 62
7
  6
CONTINUOUS
 10
83.9266740279
 20
199.3508780534
  0
VERTEX
  8
0
 62
7
  6
CONTINUOUS
 10
84.0093366001
 20
199.3162397518
  0
VERTEX
  8
0
 62
7
  6
CONTINUOUS
 10
84.0869999403
 20
199.2568099017
  0
VERTEX
  8
0
 62
7
  6
CONTINUOUS
 10
84.1228114876
 20
199.2170655684
  0
VERTEX
  8
0
 62
7
  6
CONTINUOUS
 10
84.1844568365
 20
199.1170230009
  0
VERTEX
  8
0
 62
7
  6
CONTINUOUS
 10
84.2264831233
 20
198.9917801274
  0
SEQEND
  0
POLYLINE
  8
0
 62
7
  6
CONTINUOUS
 66
1
 70
0
  0
VERTEX
  8
0
 62
7
  6
CONTINUOUS
 10
64.8195581148
 20
200.1391444567
  0
VERTEX
  8
0
 62
7
  6
CONTINUOUS
 10
64.8728740228
 20
200.1314892335
  0
VERTEX
  8
0
 62
7
  6
CONTINUOUS
 10
64.9747451929
 20
200.0947929488
  0
VERTEX
  8
0
 62
7
  6
CONTINUOUS
 10
65.0635889591
 20
200.031604776
  0
VERTEX
  8
0
 62
7
  6
CONTINUOUS
 10
65.1320201128
 20
199.9468590529
  0
VERTEX
  8
0
 62
7
  6
CONTINUOUS
 10
65.1750623167
 20
199.8467556257
  0
VERTEX
  8
0
 62
7
  6
CONTINUOUS
 10
65.1894951457
 20
199.7402757842
  0
SEQEND
  0
POLYLINE
  8
0
 62
7
  6
CONTINUOUS
 66
1
 70
0
  0
VERTEX
  8
0
 62
7
  6
CONTINUOUS
 10
71.1695581148
 20
200.1391444567
  0
VERTEX
  8
0
 62
7
  6
CONTINUOUS
 10
71.2228740228
 20
200.1314892335
  0
VERTEX
  8
0
 62
7
  6
CONTINUOUS
 10
71.3247451929
 20
200.0947929488
  0
VERTEX
  8
0
 62
7
  6
CONTINUOUS
 10
71.4135889591
 20
200.031604776
  0
VERTEX
  8
0
 62
7
  6
CONTINUOUS
 10
71.4820201128
 20
199.9468590529
  0
VERTEX
  8
0
 62
7
  6
CONTINUOUS
 10
71.5250623167
 20
199.8467556257
  0
VERTEX
  8
0
 62
7
  6
CONTINUOUS
 10
71.5394951457
 20
199.7402757842
  0
SEQEND
  0
POLYLINE
  8
0
 62
7
  6
CONTINUOUS
 66
1
 70
0
  0
VERTEX
  8
0
 62
7
  6
CONTINUOUS
 10
76.7894951457
 20
199.3622176516
  0
VERTEX
  8
0
 62
7
  6
CONTINUOUS
 10
76.8704886198
 20
199.3503343355
  0
VERTEX
  8
0
 62
7
  6
CONTINUOUS
 10
76.9501167529
 20
199.3132908706
  0
VERTEX
  8
0
 62
7
  6
CONTINUOUS
 10
77.0220734938
 20
199.2509402182
  0
VERTEX
  8
0
 62
7
  6
CONTINUOUS
 10
77.0825047646
 20
199.1616480652
  0
VERTEX
  8
0
 62
7
  6
CONTINUOUS
 10
77.1239933477
 20
199.0475391504
  0
VERTEX
  8
0
 62
7
  6
CONTINUOUS
 10
77.1394951457
 20
198.9122176516
  0
SEQEND
  0
POLYLINE
  8
0
 62
7
  6
CONTINUOUS
 66
1
 70
0
  0
VERTEX
  8
0
 62
7
  6
CONTINUOUS
 10
79.520223982
 20
183.2475070506
  0
VERTEX
  8
0
 62
7
  6
CONTINUOUS
 10
79.541839485
 20
183.2014586398
  0
VERTEX
  8
0
 62
7
  6
CONTINUOUS
 10
79.5767362306
 20
183.165120903
  0
VERTEX
  8
0
 62
7
  6
CONTINUOUS
 10
79.6198236472
 20
183.142041456
  0
VERTEX
  8
0
 62
7
  6
CONTINUOUS
 10
79.6661708604
 20
183.1347079426
  0
VERTEX
  8
0
 62
7
  6
CONTINUOUS
 10
79.7121820709
 20
183.1437573214
  0
VERTEX
  8
0
 62
7
  6
CONTINUOUS
 10
79.7549721603
 20
183.1678284077
  0
VERTEX
  8
0
 62
7
  6
CONTINUOUS
 10
79.7886163184
 20
183.203702545
  0
VERTEX
  8
0
 62
7
  6
CONTINUOUS
 10
79.8091784707
 20
183.2480774816
  0
SEQEND
  0
LINE
  8
0
 62
7
  6
CONTINUOUS
 10
84.4355541046
 20
174.1021301508
 11
84.434718912
 21
174.1043372291
  0
LINE
  8
0
 62
7
  6
CONTINUOUS
 10
79.520223982
 20
183.2475070506
 11
78.0023234298
 21
188.6960188769
  0
POLYLINE
  8
0
 62
7
  6
CONTINUOUS
 66
1
 70
0
  0
VERTEX
  8
0
 62
7
  6
CONTINUOUS
 10
78.0023234298
 20
188.6960188769
  0
VERTEX
  8
0
 62
7
  6
CONTINUOUS
 10
77.9197334238
 20
189.0958012809
  0
VERTEX
  8
0
 62
7
  6
CONTINUOUS
 10
77.8919951457
 20
189.5036771169
  0
SEQEND
  0
LINE
  8
0
 62
7
  6
CONTINUOUS
 10
81.0644951457
 20
167.0553691873
 11
81.0644951457
 21
166.1841595191
  0
LINE
  8
0
 62
7
  6
CONTINUOUS
 10
81.0669951457
 20
167.0789360787
 11
81.0669951457
 21
176.856836954
  0
LINE
  8
0
 62
7
  6
CONTINUOUS
 10
81.3144951457
 20
192.1372952922
 11
81.3144951457
 21
199.7402757842
  0
POLYLINE
  8
0
 62
7
  6
CONTINUOUS
 66
1
 70
0
  0
VERTEX
  8
0
 62
7
  6
CONTINUOUS
 10
81.3144952007
 20
192.1373167095
  0
VERTEX
  8
0
 62
7
  6
CONTINUOUS
 10
81.3047378079
 20
191.9975922756
  0
VERTEX
  8
0
 62
7
  6
CONTINUOUS
 10
81.2723339036
 20
191.8560130661
  0
VERTEX
  8
0
 62
7
  6
CONTINUOUS
 10
81.2198463828
 20
191.7335564301
  0
VERTEX
  8
0
 62
7
  6
CONTINUOUS
 10
81.1517733321
 20
191.6358800914
  0
VERTEX
  8
0
 62
7
  6
CONTINUOUS
 10
81.0728052363
 20
191.565797799
  0
VERTEX
  8
0
 62
7
  6
CONTINUOUS
 10
80.9880608641
 20
191.5252714848
  0
VERTEX
  8
0
 62
7
  6
CONTINUOUS
 10
80.914495142
 20
191.5144464114
  0
SEQEND
  0
POLYLINE
  8
0
 62
7
  6
CONTINUOUS
 66
1
 70
0
  0
VERTEX
  8
0
 62
7
  6
CONTINUOUS
 10
81.0669951457
 20
173.8586214086
  0
VERTEX
  8
0
 62
7
  6
CONTINUOUS
 10
81.0742524179
 20
173.9268426562
  0
VERTEX
  8
0
 62
7
  6
CONTINUOUS
 10
81.1066563445
 20
174.0684220928
  0
VERTEX
  8
0
 62
7
  6
CONTINUOUS
 10
81.1591438525
 20
174.1908787619
  0
VERTEX
  8
0
 62
7
  6
CONTINUOUS
 10
81.2272168863
 20
174.2885551469
  0
VERTEX
  8
0
 62
7
  6
CONTINUOUS
 10
81.3061849444
 20
174.358637441
  0
VERTEX
  8
0
 62
7
  6
CONTINUOUS
 10
81.3909291916
 20
174.3991637578
  0
VERTEX
  8
0
 62
7
  6
CONTINUOUS
 10
81.4644951463
 20
174.4099889074
  0
SEQEND
  0
LINE
  8
0
 62
7
  6
CONTINUOUS
 10
83.854521382
 20
187.2671546708
 11
83.8714208753
 21
187.3278784471
  0
LINE
  8
0
 62
7
  6
CONTINUOUS
 10
81.1771667411
 20
177.6623751542
 11
82.2804160784
 21
181.6202275212
  0
POLYLINE
  8
0
 62
7
  6
CONTINUOUS
 66
1
 70
0
  0
VERTEX
  8
0
 62
7
  6
CONTINUOUS
 10
43.5944321765
 20
200.1391444567
  0
VERTEX
  8
0
 62
7
  6
CONTINUOUS
 10
43.5411162686
 20
200.1314892335
  0
VERTEX
  8
0
 62
7
  6
CONTINUOUS
 10
43.4392450984
 20
200.0947929488
  0
VERTEX
  8
0
 62
7
  6
CONTINUOUS
 10
43.3504013323
 20
200.031604776
  0
VERTEX
  8
0
 62
7
  6
CONTINUOUS
 10
43.2819701786
 20
199.9468590529
  0
VERTEX
  8
0
 62
7
  6
CONTINUOUS
 10
43.2389279747
 20
199.8467556257
  0
VERTEX
  8
0
 62
7
  6
CONTINUOUS
 10
43.2244951457
 20
199.7402757842
  0
SEQEND
  0
POLYLINE
  8
0
 62
7
  6
CONTINUOUS
 66
1
 70
0
  0
VERTEX
  8
0
 62
7
  6
CONTINUOUS
 10
83.8695581148
 20
200.1391444567
  0
VERTEX
  8
0
 62
7
  6
CONTINUOUS
 10
83.9228740228
 20
200.1314892335
  0
VERTEX
  8
0
 62
7
  6
CONTINUOUS
 10
84.0247451929
 20
200.0947929488
  0
VERTEX
  8
0
 62
7
  6
CONTINUOUS
 10
84.1135889591
 20
200.031604776
  0
VERTEX
  8
0
 62
7
  6
CONTINUOUS
 10
84.1820201128
 20
199.9468590529
  0
VERTEX
  8
0
 62
7
  6
CONTINUOUS
 10
84.2250623167
 20
199.8467556257
  0
VERTEX
  8
0
 62
7
  6
CONTINUOUS
 10
84.2394951457
 20
199.7402757842
  0
SEQEND
  0
POLYLINE
  8
0
 62
7
  6
CONTINUOUS
 66
1
 70
0
  0
VERTEX
  8
0
 62
7
  6
CONTINUOUS
 10
84.4355850641
 20
174.1020465371
  0
VERTEX
  8
0
 62
7
  6
CONTINUOUS
 10
84.4572175993
 20
174.0356585775
  0
VERTEX
  8
0
 62
7
  6
CONTINUOUS
 10
84.4856729996
 20
173.8787924141
  0
SEQEND
  0
POLYLINE
  8
0
 62
7
  6
CONTINUOUS
 66
1
 70
0
  0
VERTEX
  8
0
 62
7
  6
CONTINUOUS
 10
84.4856740647
 20
173.8787924022
  0
VERTEX
  8
0
 62
7
  6
CONTINUOUS
 10
84.4874946777
 20
173.8558380719
  0
VERTEX
  8
0
 62
7
  6
CONTINUOUS
 10
84.4891938685
 20
173.8185942167
  0
VERTEX
  8
0
 62
7
  6
CONTINUOUS
 10
84.4894951606
 20
173.7947012596
  0
SEQEND
  0
LINE
  8
0
 62
7
  6
CONTINUOUS
 10
84.2394951457
 20
198.8690746327
 11
84.2394951457
 21
199.7402757842
  0
LINE
  8
0
 62
7
  6
CONTINUOUS
 10
84.2419951457
 20
191.8439096171
 11
84.2419951457
 21
198.8454992246
  0
LINE
  8
0
 62
7
  6
CONTINUOUS
 10
84.4894951457
 20
166.1841595191
 11
84.4894951457
 21
173.8787924141
  0
POLYLINE
  8
0
 62
7
  6
CONTINUOUS
 66
1
 70
0
  0
VERTEX
  8
0
 62
7
  6
CONTINUOUS
 10
83.8657739189
 20
188.7160999963
  0
VERTEX
  8
0
 62
7
  6
CONTINUOUS
 10
83.8617806359
 20
188.5867378339
  0
VERTEX
  8
0
 62
7
  6
CONTINUOUS
 10
83.8505328835
 20
188.4574142845
  0
VERTEX
  8
0
 62
7
  6
CONTINUOUS
 10
83.8374599111
 20
188.3278694963
  0
SEQEND
  0
POLYLINE
  8
0
 62
7
  6
CONTINUOUS
 66
1
 70
0
  0
VERTEX
  8
0
 62
7
  6
CONTINUOUS
 10
84.2419951457
 20
191.8439096171
  0
VERTEX
  8
0
 62
7
  6
CONTINUOUS
 10
84.2404718439
 20
191.8076692335
  0
VERTEX
  8
0
 62
7
  6
CONTINUOUS
 10
84.2290393727
 20
191.751766913
  0
VERTEX
  8
0
 62
7
  6
CONTINUOUS
 10
84.2201202202
 20
191.7301383113
  0
VERTEX
  8
0
 62
7
  6
CONTINUOUS
 10
84.1983333028
 20
191.6958952265
  0
VERTEX
  8
0
 62
7
  6
CONTINUOUS
 10
84.1863001066
 20
191.6825916613
  0
SEQEND
  0
POLYLINE
  8
0
 62
7
  6
CONTINUOUS
 66
1
 70
0
  0
VERTEX
  8
0
 62
7
  6
CONTINUOUS
 10
81.0669951457
 20
167.0789360787
  0
VERTEX
  8
0
 62
7
  6
CONTINUOUS
 10
81.0514722439
 20
166.9326054629
  0
VERTEX
  8
0
 62
7
  6
CONTINUOUS
 10
81.0094639083
 20
166.8074273984
  0
VERTEX
  8
0
 62
7
  6
CONTINUOUS
 10
80.9478160295
 20
166.7073754291
  0
VERTEX
  8
0
 62
7
  6
CONTINUOUS
 10
80.9120026989
 20
166.6676281068
  0
VERTEX
  8
0
 62
7
  6
CONTINUOUS
 10
80.8343405484
 20
166.6081978367
  0
VERTEX
  8
0
 62
7
  6
CONTINUOUS
 10
80.7516757067
 20
166.5735577051
  0
VERTEX
  8
0
 62
7
  6
CONTINUOUS
 10
80.6669951078
 20
166.5622225342
  0
SEQEND
  0
POLYLINE
  8
0
 62
7
  6
CONTINUOUS
 66
1
 70
0
  0
VERTEX
  8
0
 62
7
  6
CONTINUOUS
 10
83.8374599111
 20
188.3278694963
  0
VERTEX
  8
0
 62
7
  6
CONTINUOUS
 10
83.7260514186
 20
187.5901823223
  0
VERTEX
  8
0
 62
7
  6
CONTINUOUS
 10
83.5676616458
 20
186.782364118
  0
VERTEX
  8
0
 62
7
  6
CONTINUOUS
 10
83.3795802507
 20
185.9238122043
  0
VERTEX
  8
0
 62
7
  6
CONTINUOUS
 10
83.2719134079
 20
185.4587537522
  0
VERTEX
  8
0
 62
7
  6
CONTINUOUS
 10
83.0152231609
 20
184.400234013
  0
VERTEX
  8
0
 62
7
  6
CONTINUOUS
 10
82.6890696983
 20
183.12821466
  0
VERTEX
  8
0
 62
7
  6
CONTINUOUS
 10
82.2804160784
 20
181.6202275212
  0
SEQEND
  0
LINE
  8
0
 62
7
  6
CONTINUOUS
 10
84.2264831233
 20
198.9917801274
 11
84.2419951457
 21
198.8454992246
  0
LINE
  8
0
 62
7
  6
CONTINUOUS
 10
87.3544951457
 20
191.05359648
 11
87.3544951457
 21
166.0622210827
  0
LINE
  8
0
 62
7
  6
CONTINUOUS
 10
84.2592353579
 20
191.9407815075
 11
84.2416307732
 21
192.0762316924
  0
LINE
  8
0
 62
7
  6
CONTINUOUS
 10
36.9344951457
 20
101.6452848664
 11
36.9344951457
 21
108.67875
  0
LINE
  8
0
 62
7
  6
CONTINUOUS
 10
39.4494951457
 20
105.2433251311
 11
39.4494951457
 21
108.57875
  0
LINE
  8
0
 62
7
  6
CONTINUOUS
 10
39.7994951457
 20
101.3872207136
 11
39.7994951457
 21
107.5818862075
  0
LINE
  8
0
 62
7
  6
CONTINUOUS
 10
43.2219951457
 20
102.57875
 11
43.2219951457
 21
100.97875
  0
LINE
  8
0
 62
7
  6
CONTINUOUS
 10
43.2244951457
 20
102.57875
 11
43.2244951457
 21
107.5818862075
  0
LINE
  8
0
 62
7
  6
CONTINUOUS
 10
43.5744951457
 20
105.2433251311
 11
43.5744951457
 21
108.57875
  0
LINE
  8
0
 62
7
  6
CONTINUOUS
 10
45.3994951457
 20
100.92875
 11
45.3994951457
 21
108.57875
  0
LINE
  8
0
 62
7
  6
CONTINUOUS
 10
46.1469951457
 20
100.97875
 11
46.1469951457
 21
100.981892586
  0
POLYLINE
  8
0
 62
7
  6
CONTINUOUS
 66
1
 70
0
  0
VERTEX
  8
0
 62
7
  6
CONTINUOUS
 10
45.8044951457
 20
101.3847004914
  0
VERTEX
  8
0
 62
7
  6
CONTINUOUS
 10
45.8078247733
 20
101.3684948981
  0
VERTEX
  8
0
 62
7
  6
CONTINUOUS
 10
45.8206869571
 20
101.3539961588
  0
VERTEX
  8
0
 62
7
  6
CONTINUOUS
 10
45.836172187
 20
101.3372040513
  0
SEQEND
  0
LINE
  8
0
 62
7
  6
CONTINUOUS
 10
48.2744951457
 20
104.2851574031
 11
48.2744951457
 21
108.9785449039
  0
POLYLINE
  8
0
 62
7
  6
CONTINUOUS
 66
1
 70
0
  0
VERTEX
  8
0
 62
7
  6
CONTINUOUS
 10
45.836172187
 20
101.3372040513
  0
VERTEX
  8
0
 62
7
  6
CONTINUOUS
 10
45.9682642335
 20
101.1949454264
  0
VERTEX
  8
0
 62
7
  6
CONTINUOUS
 10
46.010614696
 20
101.1487832233
  0
VERTEX
  8
0
 62
7
  6
CONTINUOUS
 10
46.0594974333
 20
101.0946076728
  0
VERTEX
  8
0
 62
7
  6
CONTINUOUS
 10
46.108862336
 20
101.037635646
  0
VERTEX
  8
0
 62
7
  6
CONTINUOUS
 10
46.1378821698
 20
101.0002537442
  0
VERTEX
  8
0
 62
7
  6
CONTINUOUS
 10
46.1469951457
 20
100.981892586
  0
SEQEND
  0
LINE
  8
0
 62
7
  6
CONTINUOUS
 10
49.5719951457
 20
102.57875
 11
49.5719951457
 21
100.97875
  0
LINE
  8
0
 62
7
  6
CONTINUOUS
 10
49.5744951457
 20
102.57875
 11
49.5744951457
 21
107.5818862075
  0
LINE
  8
0
 62
7
  6
CONTINUOUS
 10
49.9244951457
 20
105.2433251311
 11
49.9244951457
 21
108.57875
  0
POLYLINE
  8
0
 62
7
  6
CONTINUOUS
 66
1
 70
0
  0
VERTEX
  8
0
 62
7
  6
CONTINUOUS
 10
45.8004719628
 20
101.37875
  0
VERTEX
  8
0
 62
7
  6
CONTINUOUS
 10
45.8017137262
 20
101.3808006332
  0
VERTEX
  8
0
 62
7
  6
CONTINUOUS
 10
45.8031236445
 20
101.3827377355
  0
VERTEX
  8
0
 62
7
  6
CONTINUOUS
 10
45.8044951457
 20
101.3847004914
  0
SEQEND
  0
POLYLINE
  8
0
 62
7
  6
CONTINUOUS
 66
1
 70
0
  0
VERTEX
  8
0
 62
7
  6
CONTINUOUS
 10
52.4968535804
 20
101.761414358
  0
VERTEX
  8
0
 62
7
  6
CONTINUOUS
 10
52.4954747581
 20
101.8525421931
  0
VERTEX
  8
0
 62
7
  6
CONTINUOUS
 10
52.4910644159
 20
101.9213986539
  0
VERTEX
  8
0
 62
7
  6
CONTINUOUS
 10
52.4786792228
 20
101.961589896
  0
VERTEX
  8
0
 62
7
  6
CONTINUOUS
 10
52.4503871352
 20
101.9706738597
  0
VERTEX
  8
0
 62
7
  6
CONTINUOUS
 10
52.4001083851
 20
101.9612825283
  0
VERTEX
  8
0
 62
7
  6
CONTINUOUS
 10
52.3663998448
 20
101.9551932707
  0
VERTEX
  8
0
 62
7
  6
CONTINUOUS
 10
52.2909050421
 20
101.9498413838
  0
VERTEX
  8
0
 62
7
  6
CONTINUOUS
 10
52.2227538731
 20
101.9569821339
  0
VERTEX
  8
0
 62
7
  6
CONTINUOUS
 10
52.1677993445
 20
101.9736535276
  0
VERTEX
  8
0
 62
7
  6
CONTINUOUS
 10
52.1274295789
 20
101.996840615
  0
VERTEX
  8
0
 62
7
  6
CONTINUOUS
 10
52.1044490117
 20
102.0226137947
  0
VERTEX
  8
0
 62
7
  6
CONTINUOUS
 10
52.0994951457
 20
102.0351455872
  0
SEQEND
  0
LINE
  8
0
 62
7
  6
CONTINUOUS
 10
52.1494951457
 20
105.2433251311
 11
52.1494951457
 21
108.57875
  0
LINE
  8
0
 62
7
  6
CONTINUOUS
 10
52.4969951457
 20
100.97875
 11
52.4968535804
 21
101.761414358
  0
LINE
  8
0
 62
7
  6
CONTINUOUS
 10
52.4994951457
 20
101.37875
 11
52.4994951457
 21
107.5818862075
  0
LINE
  8
0
 62
7
  6
CONTINUOUS
 10
52.0994951457
 20
102.0351455873
 11
52.0969951457
 21
102.0454166666
  0
LINE
  8
0
 62
7
  6
CONTINUOUS
 10
52.4994951457
 20
101.37875
 11
52.4969951457
 21
101.3340985723
  0
LINE
  8
0
 62
7
  6
CONTINUOUS
 10
55.9219951457
 20
102.57875
 11
55.9219951457
 21
100.97875
  0
LINE
  8
0
 62
7
  6
CONTINUOUS
 10
55.9244951457
 20
102.57875
 11
55.9244951457
 21
107.5818862075
  0
LINE
  8
0
 62
7
  6
CONTINUOUS
 10
56.2744951457
 20
105.2433251311
 11
56.2744951457
 21
108.57875
  0
LINE
  8
0
 62
7
  6
CONTINUOUS
 10
80.4565784002
 20
100.5916062886
 11
87.0884561099
 21
101.3472133097
  0
LINE
  8
0
 62
7
  6
CONTINUOUS
 10
37.2005341815
 20
101.3472133097
 11
43.8324118911
 21
100.5916062886
  0
LINE
  8
0
 62
7
  6
CONTINUOUS
 10
44.0588183187
 20
100.57875
 11
80.2301719727
 21
100.57875
  0
LINE
  8
0
 62
7
  6
CONTINUOUS
 10
40.4515303802
 20
100.97875
 11
43.2219951457
 21
100.97875
  0
LINE
  8
0
 62
7
  6
CONTINUOUS
 10
46.1469951457
 20
100.97875
 11
49.5719951457
 21
100.97875
  0
LINE
  8
0
 62
7
  6
CONTINUOUS
 10
52.4969951457
 20
100.97875
 11
55.9219951457
 21
100.97875
  0
LINE
  8
0
 62
7
  6
CONTINUOUS
 10
58.8469951457
 20
100.97875
 11
62.2669951457
 21
100.97875
  0
LINE
  8
0
 62
7
  6
CONTINUOUS
 10
65.1919951457
 20
100.97875
 11
68.6169951457
 21
100.97875
  0
LINE
  8
0
 62
7
  6
CONTINUOUS
 10
71.5419951457
 20
100.97875
 11
74.9669951457
 21
100.97875
  0
LINE
  8
0
 62
7
  6
CONTINUOUS
 10
77.8919951457
 20
100.97875
 11
81.3169951457
 21
100.97875
  0
LINE
  8
0
 62
7
  6
CONTINUOUS
 10
58.4494951457
 20
102.0351455873
 11
58.4469951457
 21
102.0454166666
  0
POLYLINE
  8
0
 62
7
  6
CONTINUOUS
 66
1
 70
0
  0
VERTEX
  8
0
 62
7
  6
CONTINUOUS
 10
58.8468535804
 20
101.761414358
  0
VERTEX
  8
0
 62
7
  6
CONTINUOUS
 10
58.8454747581
 20
101.8525421931
  0
VERTEX
  8
0
 62
7
  6
CONTINUOUS
 10
58.8410644159
 20
101.9213986539
  0
VERTEX
  8
0
 62
7
  6
CONTINUOUS
 10
58.8286792228
 20
101.961589896
  0
VERTEX
  8
0
 62
7
  6
CONTINUOUS
 10
58.8003871352
 20
101.9706738597
  0
VERTEX
  8
0
 62
7
  6
CONTINUOUS
 10
58.7501083851
 20
101.9612825283
  0
VERTEX
  8
0
 62
7
  6
CONTINUOUS
 10
58.7163998448
 20
101.9551932707
  0
VERTEX
  8
0
 62
7
  6
CONTINUOUS
 10
58.6409050421
 20
101.9498413838
  0
VERTEX
  8
0
 62
7
  6
CONTINUOUS
 10
58.5727538731
 20
101.9569821339
  0
VERTEX
  8
0
 62
7
  6
CONTINUOUS
 10
58.5177993445
 20
101.9736535276
  0
VERTEX
  8
0
 62
7
  6
CONTINUOUS
 10
58.4774295789
 20
101.996840615
  0
VERTEX
  8
0
 62
7
  6
CONTINUOUS
 10
58.4544490117
 20
102.0226137947
  0
VERTEX
  8
0
 62
7
  6
CONTINUOUS
 10
58.4494951457
 20
102.0351455872
  0
SEQEND
  0
LINE
  8
0
 62
7
  6
CONTINUOUS
 10
58.4994951457
 20
105.2433251311
 11
58.4994951457
 21
108.57875
  0
LINE
  8
0
 62
7
  6
CONTINUOUS
 10
58.8469951457
 20
100.97875
 11
58.8468535804
 21
101.761414358
  0
LINE
  8
0
 62
7
  6
CONTINUOUS
 10
58.8494951457
 20
101.37875
 11
58.8494951457
 21
107.5818862075
  0
LINE
  8
0
 62
7
  6
CONTINUOUS
 10
58.8494951457
 20
101.37875
 11
58.8469951457
 21
101.3340985723
  0
LINE
  8
0
 62
7
  6
CONTINUOUS
 10
43.2219951457
 20
102.57875
 11
43.6244951457
 21
102.57875
  0
LINE
  8
0
 62
7
  6
CONTINUOUS
 10
44.9994951457
 20
102.57875
 11
45.3994951457
 21
102.57875
  0
LINE
  8
0
 62
7
  6
CONTINUOUS
 10
49.5719951457
 20
102.57875
 11
49.9744951457
 21
102.57875
  0
LINE
  8
0
 62
7
  6
CONTINUOUS
 10
55.9219951457
 20
102.57875
 11
56.3244951457
 21
102.57875
  0
LINE
  8
0
 62
7
  6
CONTINUOUS
 10
76.7394951458
 20
102.57875
 11
77.1394951457
 21
102.57875
  0
LINE
  8
0
 62
7
  6
CONTINUOUS
 10
46.5494951457
 20
101.6111632652
 11
45.8044951457
 21
101.6113184695
  0
LINE
  8
0
 62
7
  6
CONTINUOUS
 10
78.2894951457
 20
101.6111632652
 11
77.5444951457
 21
101.6113184695
  0
LINE
  8
0
 62
7
  6
CONTINUOUS
 10
65.1919951457
 20
102.57875
 11
64.7894951457
 21
102.57875
  0
LINE
  8
0
 62
7
  6
CONTINUOUS
 10
71.5419951457
 20
102.57875
 11
71.1394951457
 21
102.57875
  0
LINE
  8
0
 62
7
  6
CONTINUOUS
 10
84.2419951457
 20
102.57875
 11
83.8394951457
 21
102.57875
  0
LINE
  8
0
 62
7
  6
CONTINUOUS
 10
62.2644951457
 20
101.37875
 11
62.2669951457
 21
101.3340985723
  0
LINE
  8
0
 62
7
  6
CONTINUOUS
 10
62.1444951457
 20
100.5787644986
 11
62.1444951457
 21
108.9787247007
  0
LINE
  8
DEFAULT_1
 62
2
  6
CENTER
 10
38.0494951457
 20
104.57875
 11
89.3544951457
 21
104.57875
  0
LINE
  8
0
 62
7
  6
CONTINUOUS
 10
62.2644951457
 20
101.37875
 11
62.2644951457
 21
107.5818862075
  0
LINE
  8
0
 62
7
  6
CONTINUOUS
 10
62.6144951457
 20
105.2433251311
 11
62.6144951457
 21
108.57875
  0
LINE
  8
0
 62
7
  6
CONTINUOUS
 10
62.6669951457
 20
102.0454166667
 11
62.6644951457
 21
102.0351455873
  0
POLYLINE
  8
0
 62
7
  6
CONTINUOUS
 66
1
 70
0
  0
VERTEX
  8
0
 62
7
  6
CONTINUOUS
 10
62.6644951457
 20
102.0351455873
  0
VERTEX
  8
0
 62
7
  6
CONTINUOUS
 10
62.6599182685
 20
102.0233118823
  0
VERTEX
  8
0
 62
7
  6
CONTINUOUS
 10
62.6387954041
 20
101.9986443356
  0
VERTEX
  8
0
 62
7
  6
CONTINUOUS
 10
62.6021292543
 20
101.9762776651
  0
VERTEX
  8
0
 62
7
  6
CONTINUOUS
 10
62.5517604448
 20
101.9592877233
  0
VERTEX
  8
0
 62
7
  6
CONTINUOUS
 10
62.4883801989
 20
101.9503709947
  0
VERTEX
  8
0
 62
7
  6
CONTINUOUS
 10
62.4145579623
 20
101.9529064351
  0
VERTEX
  8
0
 62
7
  6
CONTINUOUS
 10
62.3782210578
 20
101.9584733801
  0
VERTEX
  8
0
 62
7
  6
CONTINUOUS
 10
62.320948166
 20
101.969830506
  0
VERTEX
  8
0
 62
7
  6
CONTINUOUS
 10
62.2889024848
 20
101.9652471403
  0
VERTEX
  8
0
 62
7
  6
CONTINUOUS
 10
62.2737952456
 20
101.9275609625
  0
VERTEX
  8
0
 62
7
  6
CONTINUOUS
 10
62.2686603395
 20
101.8571763563
  0
VERTEX
  8
0
 62
7
  6
CONTINUOUS
 10
62.2671473182
 20
101.7632242844
  0
VERTEX
  8
0
 62
7
  6
CONTINUOUS
 10
62.2669951457
 20
100.9787500001
  0
SEQEND
  0
LINE
  8
0
 62
7
  6
CONTINUOUS
 10
64.8394951457
 20
105.2433251311
 11
64.8394951457
 21
108.57875
  0
LINE
  8
0
 62
7
  6
CONTINUOUS
 10
65.1894951457
 20
102.5787500003
 11
65.1894951457
 21
107.5818862075
  0
LINE
  8
0
 62
7
  6
CONTINUOUS
 10
65.1919951457
 20
100.9787500001
 11
65.1919951457
 21
102.57875
  0
LINE
  8
0
 62
7
  6
CONTINUOUS
 10
37.2344951457
 20
108.97875
 11
87.0544951457
 21
108.97875
  0
LINE
  8
0
 62
7
  6
CONTINUOUS
 10
68.6144951457
 20
101.37875
 11
68.6169951457
 21
101.3340985723
  0
LINE
  8
0
 62
7
  6
CONTINUOUS
 10
68.6144951457
 20
101.37875
 11
68.6144951457
 21
107.5818862075
  0
LINE
  8
0
 62
7
  6
CONTINUOUS
 10
68.9644951457
 20
105.2433251311
 11
68.9644951457
 21
108.57875
  0
LINE
  8
0
 62
7
  6
CONTINUOUS
 10
69.0169951457
 20
102.0454166667
 11
69.0144951457
 21
102.0351455873
  0
POLYLINE
  8
0
 62
7
  6
CONTINUOUS
 66
1
 70
0
  0
VERTEX
  8
0
 62
7
  6
CONTINUOUS
 10
69.0144951457
 20
102.0351455873
  0
VERTEX
  8
0
 62
7
  6
CONTINUOUS
 10
69.0099182685
 20
102.0233118823
  0
VERTEX
  8
0
 62
7
  6
CONTINUOUS
 10
68.9887954041
 20
101.9986443356
  0
VERTEX
  8
0
 62
7
  6
CONTINUOUS
 10
68.9521292542
 20
101.9762776651
  0
VERTEX
  8
0
 62
7
  6
CONTINUOUS
 10
68.9017604447
 20
101.9592877233
  0
VERTEX
  8
0
 62
7
  6
CONTINUOUS
 10
68.8383801987
 20
101.9503709947
  0
VERTEX
  8
0
 62
7
  6
CONTINUOUS
 10
68.7645579622
 20
101.9529064351
  0
VERTEX
  8
0
 62
7
  6
CONTINUOUS
 10
68.7282210576
 20
101.9584733802
  0
VERTEX
  8
0
 62
7
  6
CONTINUOUS
 10
68.6709481659
 20
101.969830506
  0
VERTEX
  8
0
 62
7
  6
CONTINUOUS
 10
68.6389024848
 20
101.9652471403
  0
VERTEX
  8
0
 62
7
  6
CONTINUOUS
 10
68.6237952456
 20
101.9275609625
  0
VERTEX
  8
0
 62
7
  6
CONTINUOUS
 10
68.6186603395
 20
101.8571763562
  0
VERTEX
  8
0
 62
7
  6
CONTINUOUS
 10
68.6171473182
 20
101.7632242844
  0
VERTEX
  8
0
 62
7
  6
CONTINUOUS
 10
68.6169951457
 20
100.9787500001
  0
SEQEND
  0
LINE
  8
0
 62
7
  6
CONTINUOUS
 10
71.1894951457
 20
105.2433251311
 11
71.1894951457
 21
108.57875
  0
LINE
  8
0
 62
7
  6
CONTINUOUS
 10
71.5394951457
 20
102.5787500003
 11
71.5394951457
 21
107.5818862075
  0
LINE
  8
0
 62
7
  6
CONTINUOUS
 10
71.5419951457
 20
100.9787500001
 11
71.5419951457
 21
102.57875
  0
POLYLINE
  8
0
 62
7
  6
CONTINUOUS
 66
1
 70
0
  0
VERTEX
  8
0
 62
7
  6
CONTINUOUS
 10
77.6011276128
 20
101.3155320571
  0
VERTEX
  8
0
 62
7
  6
CONTINUOUS
 10
77.7141440221
 20
101.1939298081
  0
VERTEX
  8
0
 62
7
  6
CONTINUOUS
 10
77.7666548227
 20
101.1366112772
  0
VERTEX
  8
0
 62
7
  6
CONTINUOUS
 10
77.8139156165
 20
101.0839583383
  0
VERTEX
  8
0
 62
7
  6
CONTINUOUS
 10
77.8533462682
 20
101.0382359423
  0
VERTEX
  8
0
 62
7
  6
CONTINUOUS
 10
77.8812065898
 20
101.0026651058
  0
VERTEX
  8
0
 62
7
  6
CONTINUOUS
 10
77.8919951457
 20
100.9818885573
  0
SEQEND
  0
LINE
  8
0
 62
7
  6
CONTINUOUS
 10
77.5444951457
 20
101.3767925456
 11
77.6011276128
 21
101.3155320571
  0
LINE
  8
0
 62
7
  6
CONTINUOUS
 10
77.5431540861
 20
101.37875
 11
77.5444951457
 21
101.3767925456
  0
LINE
  8
0
 62
7
  6
CONTINUOUS
 10
74.9644951457
 20
101.37875
 11
74.9669951457
 21
101.3340985723
  0
LINE
  8
0
 62
7
  6
CONTINUOUS
 10
74.9644951457
 20
101.37875
 11
74.9644951457
 21
107.5818862075
  0
LINE
  8
0
 62
7
  6
CONTINUOUS
 10
75.3144951457
 20
105.2433251311
 11
75.3144951457
 21
108.57875
  0
LINE
  8
0
 62
7
  6
CONTINUOUS
 10
75.3669951457
 20
102.0454166667
 11
75.3644951457
 21
102.0351455873
  0
POLYLINE
  8
0
 62
7
  6
CONTINUOUS
 66
1
 70
0
  0
VERTEX
  8
0
 62
7
  6
CONTINUOUS
 10
75.3644951457
 20
102.0351455873
  0
VERTEX
  8
0
 62
7
  6
CONTINUOUS
 10
75.3599182685
 20
102.0233118823
  0
VERTEX
  8
0
 62
7
  6
CONTINUOUS
 10
75.3387954041
 20
101.9986443356
  0
VERTEX
  8
0
 62
7
  6
CONTINUOUS
 10
75.3021292542
 20
101.9762776651
  0
VERTEX
  8
0
 62
7
  6
CONTINUOUS
 10
75.2517604447
 20
101.9592877233
  0
VERTEX
  8
0
 62
7
  6
CONTINUOUS
 10
75.1883801987
 20
101.9503709947
  0
VERTEX
  8
0
 62
7
  6
CONTINUOUS
 10
75.1145579622
 20
101.9529064351
  0
VERTEX
  8
0
 62
7
  6
CONTINUOUS
 10
75.0782210576
 20
101.9584733802
  0
VERTEX
  8
0
 62
7
  6
CONTINUOUS
 10
75.020948166
 20
101.969830506
  0
VERTEX
  8
0
 62
7
  6
CONTINUOUS
 10
74.9889024848
 20
101.9652471403
  0
VERTEX
  8
0
 62
7
  6
CONTINUOUS
 10
74.9737952456
 20
101.9275609625
  0
VERTEX
  8
0
 62
7
  6
CONTINUOUS
 10
74.9686603395
 20
101.8571763562
  0
VERTEX
  8
0
 62
7
  6
CONTINUOUS
 10
74.9671473182
 20
101.7632242844
  0
VERTEX
  8
0
 62
7
  6
CONTINUOUS
 10
74.9669951457
 20
100.9787500001
  0
SEQEND
  0
LINE
  8
0
 62
7
  6
CONTINUOUS
 10
77.1394951457
 20
100.9287500001
 11
77.1394951457
 21
108.57875
  0
LINE
  8
0
 62
7
  6
CONTINUOUS
 10
77.8919951457
 20
100.97875
 11
77.8919951457
 21
100.9818885573
  0
LINE
  8
0
 62
7
  6
CONTINUOUS
 10
81.3144951457
 20
101.37875
 11
81.3169951457
 21
101.3340985723
  0
LINE
  8
0
 62
7
  6
CONTINUOUS
 10
80.0144951457
 20
104.2851574031
 11
80.0144951457
 21
108.9785449039
  0
LINE
  8
0
 62
7
  6
CONTINUOUS
 10
81.3144951457
 20
101.37875
 11
81.3144951457
 21
107.5818862075
  0
POLYLINE
  8
0
 62
7
  6
CONTINUOUS
 66
1
 70
0
  0
VERTEX
  8
0
 62
7
  6
CONTINUOUS
 10
81.7144951457
 20
102.0351455873
  0
VERTEX
  8
0
 62
7
  6
CONTINUOUS
 10
81.7099182685
 20
102.0233118823
  0
VERTEX
  8
0
 62
7
  6
CONTINUOUS
 10
81.6887954041
 20
101.9986443356
  0
VERTEX
  8
0
 62
7
  6
CONTINUOUS
 10
81.6521292543
 20
101.9762776651
  0
VERTEX
  8
0
 62
7
  6
CONTINUOUS
 10
81.6017604448
 20
101.9592877233
  0
VERTEX
  8
0
 62
7
  6
CONTINUOUS
 10
81.5383801988
 20
101.9503709947
  0
VERTEX
  8
0
 62
7
  6
CONTINUOUS
 10
81.4645579623
 20
101.9529064351
  0
VERTEX
  8
0
 62
7
  6
CONTINUOUS
 10
81.4282210577
 20
101.9584733802
  0
VERTEX
  8
0
 62
7
  6
CONTINUOUS
 10
81.370948166
 20
101.969830506
  0
VERTEX
  8
0
 62
7
  6
CONTINUOUS
 10
81.3389024848
 20
101.9652471403
  0
VERTEX
  8
0
 62
7
  6
CONTINUOUS
 10
81.3237952456
 20
101.9275609625
  0
VERTEX
  8
0
 62
7
  6
CONTINUOUS
 10
81.3186603395
 20
101.8571763563
  0
VERTEX
  8
0
 62
7
  6
CONTINUOUS
 10
81.3171473182
 20
101.7632242844
  0
VERTEX
  8
0
 62
7
  6
CONTINUOUS
 10
81.3169951457
 20
100.9787500001
  0
SEQEND
  0
LINE
  8
0
 62
7
  6
CONTINUOUS
 10
81.6644951457
 20
105.2433251311
 11
81.6644951457
 21
108.57875
  0
LINE
  8
0
 62
7
  6
CONTINUOUS
 10
81.7169951457
 20
102.0454166667
 11
81.7144951457
 21
102.0351455873
  0
LINE
  8
0
 62
7
  6
CONTINUOUS
 10
83.8894951457
 20
105.2433251311
 11
83.8894951457
 21
108.57875
  0
LINE
  8
0
 62
7
  6
CONTINUOUS
 10
84.2394951457
 20
102.5787500003
 11
84.2394951457
 21
107.5818862075
  0
LINE
  8
0
 62
7
  6
CONTINUOUS
 10
84.2419951457
 20
101.2014068731
 11
84.2419951457
 21
102.57875
  0
LINE
  8
0
 62
7
  6
CONTINUOUS
 10
85.8544951457
 20
108.97875
 11
85.8544951457
 21
104.9273273389
  0
LINE
  8
0
 62
7
  6
CONTINUOUS
 10
87.3544951457
 20
108.67875
 11
87.3544951457
 21
101.645284866
  0
LINE
  8
DEFAULT_1
 62
2
  6
CENTER
 10
150.399375
 20
170.2622176517
 11
150.1155167323
 21
170.2622176517
  0
LINE
  8
0
 62
2
  6
CONTINUOUS
 10
146.879375
 20
170.2622176517
 11
145.119375
 21
170.2622176517
  0
LINE
  8
DEFAULT_1
 62
2
  6
CENTER
 10
141.599375
 20
170.2622176517
 11
141.8832332677
 21
170.2622176517
  0
LINE
  8
0
 62
7
  6
CONTINUOUS
 10
141.999375
 20
175.5622176517
 11
145.599375
 21
175.5622176517
  0
LINE
  8
0
 62
7
  6
CONTINUOUS
 10
141.599375
 20
169.7622176517
 11
141.599375
 21
176.4308867348
  0
LINE
  8
0
 62
7
  6
CONTINUOUS
 10
141.599375
 20
189.4935485685
 11
141.599375
 21
196.1622176517
  0
LINE
  8
0
 62
7
  6
CONTINUOUS
 10
141.6049396982
 20
189.4313848907
 11
142.1313920325
 21
186.5144290094
  0
LINE
  8
0
 62
7
  6
CONTINUOUS
 10
142.1313920325
 20
179.4100062939
 11
141.6049396982
 21
176.4930504128
  0
LINE
  8
DEFAULT_1
 62
2
  6
CENTER
 10
145.999375
 20
200.0622176517
 11
145.999375
 21
199.778359384
  0
LINE
  8
0
 62
2
  6
CONTINUOUS
 10
145.999375
 20
196.5422176517
 11
145.999375
 21
194.7822176517
  0
LINE
  8
DEFAULT_1
 62
2
  6
CENTER
 10
145.999375
 20
174.6622176517
 11
145.999375
 21
174.378359384
  0
LINE
  8
0
 62
2
  6
CONTINUOUS
 10
145.999375
 20
171.1422176517
 11
145.999375
 21
169.3822176517
  0
LINE
  8
DEFAULT_1
 62
2
  6
CENTER
 10
145.999375
 20
165.8622176517
 11
145.999375
 21
166.1460759194
  0
LINE
  8
DEFAULT_1
 62
2
  6
CENTER
 10
145.999375
 20
191.2622176517
 11
145.999375
 21
191.5460759194
  0
LINE
  8
0
 62
7
  6
CONTINUOUS
 10
147.999375
 20
166.5622225343
 11
147.999375
 21
167.0789360787
  0
LINE
  8
0
 62
7
  6
CONTINUOUS
 10
149.1993749999
 20
169.7622176517
 11
149.199375
 21
173.8586215073
  0
LINE
  8
0
 62
7
  6
CONTINUOUS
 10
149.4821552728
 20
197.0860824709
 11
149.479724357
 21
197.1152292736
  0
POLYLINE
  8
0
 62
7
  6
CONTINUOUS
 66
1
 70
0
  0
VERTEX
  8
0
 62
7
  6
CONTINUOUS
 10
149.4882616208
 20
196.9031143941
  0
VERTEX
  8
0
 62
7
  6
CONTINUOUS
 10
149.4873099308
 20
196.9510967024
  0
VERTEX
  8
0
 62
7
  6
CONTINUOUS
 10
149.4867630116
 20
196.9735765046
  0
VERTEX
  8
0
 62
7
  6
CONTINUOUS
 10
149.4855059502
 20
197.0155289604
  0
VERTEX
  8
0
 62
7
  6
CONTINUOUS
 10
149.4839969116
 20
197.0531227675
  0
VERTEX
  8
0
 62
7
  6
CONTINUOUS
 10
149.4821552728
 20
197.0860824709
  0
SEQEND
  0
LINE
  8
0
 62
7
  6
CONTINUOUS
 10
149.4931878218
 20
191.9125032564
 11
149.4914699992
 21
192.0211652889
  0
LINE
  8
0
 62
7
  6
CONTINUOUS
 10
149.4896604291
 20
196.7953388752
 11
149.4882616208
 21
196.9031143941
  0
LINE
  8
0
 62
7
  6
CONTINUOUS
 10
149.4904717764
 20
196.6740250732
 11
149.4896604291
 21
196.7953388752
  0
LINE
  8
0
 62
7
  6
CONTINUOUS
 10
149.4914683776
 20
192.0211652079
 11
149.490948776
 21
192.0989543642
  0
LINE
  8
0
 62
7
  6
CONTINUOUS
 10
149.4904717764
 20
196.6740250732
 11
149.490948776
 21
192.0989543642
  0
LINE
  8
0
 62
7
  6
CONTINUOUS
 10
149.9993749999
 20
170.7820215544
 11
149.999375
 21
195.142413749
  0
POLYLINE
  8
0
 62
7
  6
CONTINUOUS
 66
1
 70
0
  0
VERTEX
  8
0
 62
7
  6
CONTINUOUS
 10
149.5980358728
 20
177.208335307
  0
VERTEX
  8
0
 62
7
  6
CONTINUOUS
 10
149.5983875455
 20
177.3376974694
  0
VERTEX
  8
0
 62
7
  6
CONTINUOUS
 10
149.599090027
 20
177.4670210189
  0
VERTEX
  8
0
 62
7
  6
CONTINUOUS
 10
149.599375
 20
191.2449030719
  0
SEQEND
  0
LINE
  8
0
 62
7
  6
CONTINUOUS
 10
149.8625238215
 20
170.3693612991
 11
149.8632135397
 21
176.856836954
  0
POLYLINE
  8
0
 62
7
  6
CONTINUOUS
 66
1
 70
0
  0
VERTEX
  8
0
 62
7
  6
CONTINUOUS
 10
149.8632135468
 20
176.856836954
  0
VERTEX
  8
0
 62
7
  6
CONTINUOUS
 10
149.8664159387
 20
177.2875571917
  0
VERTEX
  8
0
 62
7
  6
CONTINUOUS
 10
149.8760231497
 20
177.714136305
  0
SEQEND
  0
LINE
  8
0
 62
7
  6
CONTINUOUS
 10
149.8610124347
 20
170.1106928768
 11
149.8625238215
 21
170.3693612991
  0
LINE
  8
0
 62
7
  6
CONTINUOUS
 10
149.8595233335
 20
169.9683304356
 11
149.8610124347
 21
170.1106928768
  0
LINE
  8
0
 62
7
  6
CONTINUOUS
 10
149.8576739674
 20
169.8476083742
 11
149.8595233335
 21
169.9683304356
  0
POLYLINE
  8
0
 62
7
  6
CONTINUOUS
 66
1
 70
0
  0
VERTEX
  8
0
 62
7
  6
CONTINUOUS
 10
149.9877476421
 20
181.6703138579
  0
VERTEX
  8
0
 62
7
  6
CONTINUOUS
 10
149.9940975522
 20
181.990058283
  0
VERTEX
  8
0
 62
7
  6
CONTINUOUS
 10
149.998105022
 20
182.3286389316
  0
VERTEX
  8
0
 62
7
  6
CONTINUOUS
 10
149.9993749997
 20
182.6555973369
  0
SEQEND
  0
POLYLINE
  8
0
 62
7
  6
CONTINUOUS
 66
1
 70
0
  0
VERTEX
  8
0
 62
7
  6
CONTINUOUS
 10
149.8760231506
 20
177.7141365904
  0
VERTEX
  8
0
 62
7
  6
CONTINUOUS
 10
149.9382975496
 20
179.8272708139
  0
VERTEX
  8
0
 62
7
  6
CONTINUOUS
 10
149.9877480804
 20
181.6703132602
  0
SEQEND
  0
LINE
  8
0
 62
7
  6
CONTINUOUS
 10
149.5993720107
 20
178.6572806326
 11
149.5974465567
 21
178.5965568562
  0
POLYLINE
  8
0
 62
7
  6
CONTINUOUS
 66
1
 70
0
  0
VERTEX
  8
0
 62
7
  6
CONTINUOUS
 10
149.8453054865
 20
169.5152690347
  0
VERTEX
  8
0
 62
7
  6
CONTINUOUS
 10
149.8475644381
 20
169.5453531894
  0
VERTEX
  8
0
 62
7
  6
CONTINUOUS
 10
149.8495126308
 20
169.578846171
  0
VERTEX
  8
0
 62
7
  6
CONTINUOUS
 10
149.8512312507
 20
169.6154583488
  0
VERTEX
  8
0
 62
7
  6
CONTINUOUS
 10
149.8527717591
 20
169.6551189628
  0
VERTEX
  8
0
 62
7
  6
CONTINUOUS
 10
149.8541633215
 20
169.6977724366
  0
VERTEX
  8
0
 62
7
  6
CONTINUOUS
 10
149.8554317347
 20
169.7436875164
  0
VERTEX
  8
0
 62
7
  6
CONTINUOUS
 10
149.8576739674
 20
169.8476083742
  0
SEQEND
  0
LINE
  8
0
 62
7
  6
CONTINUOUS
 10
149.5993642188
 20
191.1767140017
 11
149.5899558288
 21
191.2472267362
  0
LINE
  8
0
 62
7
  6
CONTINUOUS
 10
149.8425456566
 20
169.4885907919
 11
149.8453054865
 21
169.5152690347
  0
POLYLINE
  8
0
 62
7
  6
CONTINUOUS
 66
1
 70
0
  0
VERTEX
  8
0
 62
7
  6
CONTINUOUS
 10
149.5053428925
 20
191.6095565282
  0
VERTEX
  8
0
 62
7
  6
CONTINUOUS
 10
149.5407304171
 20
191.528787939
  0
VERTEX
  8
0
 62
7
  6
CONTINUOUS
 10
149.582413611
 20
191.3929784079
  0
VERTEX
  8
0
 62
7
  6
CONTINUOUS
 10
149.599375
 20
191.2449030718
  0
SEQEND
  0
POLYLINE
  8
0
 62
7
  6
CONTINUOUS
 66
1
 70
0
  0
VERTEX
  8
0
 62
7
  6
CONTINUOUS
 10
149.5387743432
 20
191.31159013
  0
VERTEX
  8
0
 62
7
  6
CONTINUOUS
 10
149.5376793854
 20
191.3157456931
  0
VERTEX
  8
0
 62
7
  6
CONTINUOUS
 10
149.532999834
 20
191.3381728394
  0
VERTEX
  8
0
 62
7
  6
CONTINUOUS
 10
149.5266581337
 20
191.37779447
  0
VERTEX
  8
0
 62
7
  6
CONTINUOUS
 10
149.519803492
 20
191.4328788712
  0
VERTEX
  8
0
 62
7
  6
CONTINUOUS
 10
149.5130119489
 20
191.5026599163
  0
VERTEX
  8
0
 62
7
  6
CONTINUOUS
 10
149.5066468273
 20
191.5868560944
  0
VERTEX
  8
0
 62
7
  6
CONTINUOUS
 10
149.5010502744
 20
191.6842874812
  0
VERTEX
  8
0
 62
7
  6
CONTINUOUS
 10
149.4964933807
 20
191.7934423581
  0
VERTEX
  8
0
 62
7
  6
CONTINUOUS
 10
149.4931878218
 20
191.9125032564
  0
SEQEND
  0
POLYLINE
  8
0
 62
7
  6
CONTINUOUS
 66
1
 70
0
  0
VERTEX
  8
0
 62
7
  6
CONTINUOUS
 10
149.479724357
 20
197.1152292736
  0
VERTEX
  8
0
 62
7
  6
CONTINUOUS
 10
149.4763287357
 20
197.1410431899
  0
VERTEX
  8
0
 62
7
  6
CONTINUOUS
 10
149.4710613385
 20
197.1670688712
  0
VERTEX
  8
0
 62
7
  6
CONTINUOUS
 10
149.4697852815
 20
197.1721261706
  0
SEQEND
  0
POLYLINE
  8
0
 62
7
  6
CONTINUOUS
 66
1
 70
0
  0
VERTEX
  8
0
 62
7
  6
CONTINUOUS
 10
149.8356650102
 20
169.4501044524
  0
VERTEX
  8
0
 62
7
  6
CONTINUOUS
 10
149.8388582697
 20
169.4646853154
  0
VERTEX
  8
0
 62
7
  6
CONTINUOUS
 10
149.8425456566
 20
169.4885907919
  0
SEQEND
  0
POLYLINE
  8
0
 62
7
  6
CONTINUOUS
 66
1
 70
0
  0
VERTEX
  8
0
 62
7
  6
CONTINUOUS
 10
149.3767181269
 20
174.0805256863
  0
VERTEX
  8
0
 62
7
  6
CONTINUOUS
 10
149.348746359
 20
174.0361856483
  0
VERTEX
  8
0
 62
7
  6
CONTINUOUS
 10
149.324050507
 20
173.9982309612
  0
VERTEX
  8
0
 62
7
  6
CONTINUOUS
 10
149.3009243912
 20
173.9638153698
  0
VERTEX
  8
0
 62
7
  6
CONTINUOUS
 10
149.2804720968
 20
173.9345997991
  0
VERTEX
  8
0
 62
7
  6
CONTINUOUS
 10
149.2627196231
 20
173.9106717519
  0
VERTEX
  8
0
 62
7
  6
CONTINUOUS
 10
149.2468757702
 20
173.8911620501
  0
VERTEX
  8
0
 62
7
  6
CONTINUOUS
 10
149.2316625765
 20
173.8751748725
  0
VERTEX
  8
0
 62
7
  6
CONTINUOUS
 10
149.2162354336
 20
173.8634952803
  0
VERTEX
  8
0
 62
7
  6
CONTINUOUS
 10
149.199375
 20
173.8586215073
  0
SEQEND
  0
POLYLINE
  8
0
 62
7
  6
CONTINUOUS
 66
1
 70
0
  0
VERTEX
  8
0
 62
7
  6
CONTINUOUS
 10
149.3767181269
 20
174.0805256863
  0
VERTEX
  8
0
 62
7
  6
CONTINUOUS
 10
149.4013555019
 20
174.1167660698
  0
VERTEX
  8
0
 62
7
  6
CONTINUOUS
 10
149.4475309588
 20
174.1726683903
  0
VERTEX
  8
0
 62
7
  6
CONTINUOUS
 10
149.4676656824
 20
174.1942969921
  0
VERTEX
  8
0
 62
7
  6
CONTINUOUS
 10
149.5014513648
 20
174.2285400769
  0
VERTEX
  8
0
 62
7
  6
CONTINUOUS
 10
149.5151958444
 20
174.241843642
  0
SEQEND
  0
POLYLINE
  8
0
 62
7
  6
CONTINUOUS
 66
1
 70
0
  0
VERTEX
  8
0
 62
7
  6
CONTINUOUS
 10
149.5151958444
 20
174.241843642
  0
VERTEX
  8
0
 62
7
  6
CONTINUOUS
 10
149.5493198729
 20
174.2801689832
  0
VERTEX
  8
0
 62
7
  6
CONTINUOUS
 10
149.5616257487
 20
174.2996545581
  0
VERTEX
  8
0
 62
7
  6
CONTINUOUS
 10
149.575432498
 20
174.3389817268
  0
SEQEND
  0
LINE
  8
DEFAULT_1
 62
2
  6
CENTER
 10
150.399375
 20
195.6622176517
 11
150.1155167323
 21
195.6622176517
  0
LINE
  8
0
 62
2
  6
CONTINUOUS
 10
146.879375
 20
195.6622176517
 11
145.119375
 21
195.6622176517
  0
LINE
  8
DEFAULT_1
 62
2
  6
CENTER
 10
141.599375
 20
195.6622176517
 11
141.8832332677
 21
195.6622176517
  0
LINE
  8
0
 62
7
  6
CONTINUOUS
 10
148.2393749999
 20
167.3146882851
 11
147.999375
 21
167.0789360787
  0
ARC
  8
0
 62
7
  6
CONTINUOUS
 10
45.9719951457
 20
176.856836954
 40
3.0
 50
164.424215024
 51
180.0
  0
ARC
  8
0
 62
7
  6
CONTINUOUS
 10
52.3219951457
 20
176.856836954
 40
3.0
 50
164.424215024
 51
180.0
  0
ARC
  8
0
 62
7
  6
CONTINUOUS
 10
58.6719951457
 20
176.856836954
 40
3.0
 50
164.424215024
 51
180.0
  0
ARC
  8
0
 62
7
  6
CONTINUOUS
 10
46.7444951457
 20
174.0049882881
 40
0.405
 50
0.0
 51
89.8102785291
  0
ARC
  8
0
 62
7
  6
CONTINUOUS
 10
47.5494951457
 20
166.1622176517
 40
0.4
 50
180.0
 51
270.0
  0
ARC
  8
0
 62
7
  6
CONTINUOUS
 10
46.7469951457
 20
174.759984149
 40
0.35
 50
180.0
 51
269.8102785291
  0
ARC
  8
0
 62
7
  6
CONTINUOUS
 10
46.5719951457
 20
189.0675983493
 40
3.0
 50
344.424215024
 51
360.0
  0
ARC
  8
0
 62
7
  6
CONTINUOUS
 10
52.9219951457
 20
189.0675983493
 40
3.0
 50
344.424215024
 51
360.0
  0
ARC
  8
0
 62
7
  6
CONTINUOUS
 10
40.2219951457
 20
189.0675983493
 40
3.0
 50
344.424215024
 51
360.0
  0
ARC
  8
0
 62
7
  6
CONTINUOUS
 10
59.2669951457
 20
189.0675983493
 40
3.0
 50
344.424215024
 51
360.0
  0
ARC
  8
0
 62
7
  6
CONTINUOUS
 10
45.8044951457
 20
191.919445866
 40
0.405
 50
180.0
 51
269.4308272661
  0
ARC
  8
0
 62
7
  6
CONTINUOUS
 10
44.9994951457
 20
199.7622176517
 40
0.4
 50
0.0
 51
90.0
  0
ARC
  8
0
 62
7
  6
CONTINUOUS
 10
45.7969951457
 20
191.1644831186
 40
0.35
 50
0.0
 51
89.4308272661
  0
ARC
  8
0
 62
7
  6
CONTINUOUS
 10
37.2344951457
 20
199.8622176517
 40
0.3
 50
90.0
 51
180.0
  0
ARC
  8
0
 62
7
  6
CONTINUOUS
 10
84.0669951457
 20
176.856836954
 40
3.0
 50
164.424215024
 51
180.0
  0
ARC
  8
0
 62
7
  6
CONTINUOUS
 10
71.3669951457
 20
176.856836954
 40
3.0
 50
164.424215024
 51
180.0
  0
ARC
  8
0
 62
7
  6
CONTINUOUS
 10
77.7169951457
 20
176.856836954
 40
3.0
 50
164.424215024
 51
180.0
  0
ARC
  8
0
 62
7
  6
CONTINUOUS
 10
65.0219951457
 20
176.856836954
 40
3.0
 50
164.424215024
 51
180.0
  0
ARC
  8
0
 62
7
  6
CONTINUOUS
 10
78.4844951457
 20
174.0049894373
 40
0.405
 50
0.0
 51
89.4308272661
  0
ARC
  8
0
 62
7
  6
CONTINUOUS
 10
79.2894951457
 20
166.1622176517
 40
0.4
 50
180.0
 51
270.0
  0
ARC
  8
0
 62
7
  6
CONTINUOUS
 10
78.4919951457
 20
174.7599521848
 40
0.35
 50
180.0
 51
269.4308272661
  0
ARC
  8
0
 62
7
  6
CONTINUOUS
 10
87.0544951457
 20
166.0622176517
 40
0.3
 50
270.0
 51
360.0
  0
ARC
  8
0
 62
7
  6
CONTINUOUS
 10
65.6169951457
 20
189.0675983493
 40
3.0
 50
344.424215024
 51
360.0
  0
ARC
  8
0
 62
7
  6
CONTINUOUS
 10
71.9669951457
 20
189.0675983493
 40
3.0
 50
344.424215024
 51
360.0
  0
ARC
  8
0
 62
7
  6
CONTINUOUS
 10
78.3169951457
 20
189.0675983493
 40
3.0
 50
344.424215024
 51
360.0
  0
ARC
  8
0
 62
7
  6
CONTINUOUS
 10
77.5444951457
 20
191.9194470152
 40
0.405
 50
180.0
 51
269.8102785291
  0
ARC
  8
0
 62
7
  6
CONTINUOUS
 10
76.7394951457
 20
199.7622176517
 40
0.4
 50
0.0
 51
90.0
  0
ARC
  8
0
 62
7
  6
CONTINUOUS
 10
77.5419951457
 20
191.1644511543
 40
0.35
 50
0.0
 51
89.8102785291
  0
ARC
  8
0
 62
7
  6
CONTINUOUS
 10
39.4994951457
 20
101.3872207136
 40
0.3
 50
263.5
 51
360.0
  0
ARC
  8
0
 62
7
  6
CONTINUOUS
 10
37.2344951457
 20
101.6452848664
 40
0.3
 50
180.0
 51
263.5
  0
ARC
  8
0
 62
7
  6
CONTINUOUS
 10
40.4515303802
 20
101.27875
 40
0.3
 50
263.5
 51
270.0
  0
ARC
  8
0
 62
7
  6
CONTINUOUS
 10
43.4856740193
 20
100.8324060255
 40
0.2
 50
227.0307812331
 51
263.5000100672
  0
ARC
  8
0
 62
7
  6
CONTINUOUS
 10
43.6219951457
 20
100.97875
 40
0.4
 50
179.9999999961
 51
227.0307731349
  0
ARC
  8
0
 62
7
  6
CONTINUOUS
 10
45.7469951457
 20
100.97875
 40
0.4
 50
270.0
 51
360.0
  0
ARC
  8
0
 62
7
  6
CONTINUOUS
 10
45.0494951457
 20
100.92875
 40
0.35
 50
270.0
 51
360.0
  0
ARC
  8
0
 62
7
  6
CONTINUOUS
 10
44.0588183187
 20
102.57875
 40
2.0
 50
263.5
 51
270.0
  0
ARC
  8
0
 62
7
  6
CONTINUOUS
 10
39.3994951457
 20
104.5818873033
 40
0.4
 50
0.0
 51
55.7711336722
  0
ARC
  8
0
 62
7
  6
CONTINUOUS
 10
43.6244951457
 20
104.5818873033
 40
0.4
 50
124.2288663278
 51
180.0
  0
ARC
  8
0
 62
7
  6
CONTINUOUS
 10
58.4469951457
 20
100.9787500001
 40
0.4
 50
270.0
 51
359.9999999961
  0
ARC
  8
0
 62
7
  6
CONTINUOUS
 10
56.3219951457
 20
100.97875
 40
0.4
 50
179.9999999961
 51
270.0
  0
ARC
  8
0
 62
7
  6
CONTINUOUS
 10
52.0969951457
 20
100.9787500001
 40
0.4
 50
270.0
 51
359.9999999961
  0
ARC
  8
0
 62
7
  6
CONTINUOUS
 10
49.9719951457
 20
100.97875
 40
0.4
 50
179.9999999961
 51
270.0
  0
ARC
  8
0
 62
7
  6
CONTINUOUS
 10
52.0994951457
 20
104.5818873033
 40
0.4
 50
0.0
 51
55.7711336722
  0
ARC
  8
0
 62
7
  6
CONTINUOUS
 10
58.4494951457
 20
104.5818873033
 40
0.4
 50
0.0
 51
55.7711336722
  0
ARC
  8
0
 62
7
  6
CONTINUOUS
 10
49.9744951457
 20
104.5818873033
 40
0.4
 50
124.2288663278
 51
180.0
  0
ARC
  8
0
 62
7
  6
CONTINUOUS
 10
56.3244951457
 20
104.5818873033
 40
0.4
 50
124.2288663278
 51
180.0
  0
ARC
  8
0
 62
7
  6
CONTINUOUS
 10
39.8494951457
 20
105.2433251311
 40
0.4
 50
180.0000000001
 51
235.7711336722
  0
ARC
  8
0
 62
7
  6
CONTINUOUS
 10
43.1744951457
 20
105.2433251311
 40
0.4
 50
304.2288663278
 51
359.9999999999
  0
ARC
  8
0
 62
7
  6
CONTINUOUS
 10
39.8494951457
 20
108.2433251311
 40
0.4
 50
180.0
 51
235.7711336722
  0
ARC
  8
0
 62
7
  6
CONTINUOUS
 10
43.1744951457
 20
108.2433251311
 40
0.4
 50
304.2288663278
 51
360.0
  0
ARC
  8
0
 62
7
  6
CONTINUOUS
 10
39.3994951457
 20
107.5818873033
 40
0.4
 50
0.0
 51
55.7711336722
  0
ARC
  8
0
 62
7
  6
CONTINUOUS
 10
43.6244951457
 20
107.5818873033
 40
0.4
 50
124.2288663278
 51
180.0
  0
ARC
  8
0
 62
7
  6
CONTINUOUS
 10
44.9994951457
 20
108.57875
 40
0.4
 50
0.0
 51
90.0
  0
ARC
  8
0
 62
7
  6
CONTINUOUS
 10
39.0494951457
 20
108.57875
 40
0.4
 50
0.0
 51
90.0
  0
ARC
  8
0
 62
7
  6
CONTINUOUS
 10
43.9744951457
 20
108.57875
 40
0.4
 50
90.0
 51
180.0
  0
ARC
  8
0
 62
7
  6
CONTINUOUS
 10
37.2344951457
 20
108.67875
 40
0.3
 50
90.0
 51
180.0
  0
ARC
  8
0
 62
7
  6
CONTINUOUS
 10
49.5244951457
 20
105.2433251311
 40
0.4
 50
304.2288663278
 51
359.9999999999
  0
ARC
  8
0
 62
7
  6
CONTINUOUS
 10
52.5494951457
 20
105.2433251311
 40
0.4
 50
180.0000000001
 51
235.7711336722
  0
ARC
  8
0
 62
7
  6
CONTINUOUS
 10
55.8744951457
 20
105.2433251311
 40
0.4
 50
304.2288663278
 51
359.9999999999
  0
ARC
  8
0
 62
7
  6
CONTINUOUS
 10
58.8994951457
 20
105.2433251311
 40
0.4
 50
180.0000000001
 51
235.7711336722
  0
ARC
  8
0
 62
7
  6
CONTINUOUS
 10
49.5244951457
 20
108.2433251311
 40
0.4
 50
304.2288663278
 51
360.0
  0
ARC
  8
0
 62
7
  6
CONTINUOUS
 10
52.5494951457
 20
108.2433251311
 40
0.4
 50
180.0
 51
235.7711336722
  0
ARC
  8
0
 62
7
  6
CONTINUOUS
 10
55.8744951457
 20
108.2433251311
 40
0.4
 50
304.2288663278
 51
360.0
  0
ARC
  8
0
 62
7
  6
CONTINUOUS
 10
52.0994951457
 20
107.5818873033
 40
0.4
 50
0.0
 51
55.7711336722
  0
ARC
  8
0
 62
7
  6
CONTINUOUS
 10
58.8994951457
 20
108.2433251311
 40
0.4
 50
180.0
 51
235.7711336722
  0
ARC
  8
0
 62
7
  6
CONTINUOUS
 10
58.4494951457
 20
107.5818873033
 40
0.4
 50
0.0
 51
55.7711336722
  0
ARC
  8
0
 62
7
  6
CONTINUOUS
 10
49.9744951457
 20
107.5818873033
 40
0.4
 50
124.2288663278
 51
180.0
  0
ARC
  8
0
 62
7
  6
CONTINUOUS
 10
56.3244951457
 20
107.5818873033
 40
0.4
 50
124.2288663278
 51
180.0
  0
ARC
  8
0
 62
7
  6
CONTINUOUS
 10
50.3244951457
 20
108.57875
 40
0.4
 50
90.0
 51
180.0
  0
ARC
  8
0
 62
7
  6
CONTINUOUS
 10
51.7494951457
 20
108.57875
 40
0.4
 50
0.0
 51
90.0
  0
ARC
  8
0
 62
7
  6
CONTINUOUS
 10
56.6744951457
 20
108.57875
 40
0.4
 50
90.0
 51
180.0
  0
ARC
  8
0
 62
7
  6
CONTINUOUS
 10
58.0994951457
 20
108.57875
 40
0.4
 50
0.0
 51
90.0
  0
ARC
  8
0
 62
7
  6
CONTINUOUS
 10
62.6669951457
 20
100.9787500001
 40
0.4
 50
180.0
 51
270.0
  0
ARC
  8
0
 62
7
  6
CONTINUOUS
 10
64.7919951457
 20
100.9787500001
 40
0.4
 50
270.0
 51
360.0
  0
ARC
  8
0
 62
7
  6
CONTINUOUS
 10
69.0169951457
 20
100.9787500001
 40
0.4
 50
180.0
 51
270.0
  0
ARC
  8
0
 62
7
  6
CONTINUOUS
 10
71.1419951457
 20
100.9787500001
 40
0.4
 50
270.0
 51
360.0
  0
ARC
  8
0
 62
7
  6
CONTINUOUS
 10
62.6644951457
 20
104.5818873033
 40
0.4
 50
124.2288663278
 51
180.0
  0
ARC
  8
0
 62
7
  6
CONTINUOUS
 10
69.0144951457
 20
104.5818873033
 40
0.4
 50
124.2288663278
 51
180.0
  0
ARC
  8
0
 62
7
  6
CONTINUOUS
 10
64.7894951457
 20
104.5818873033
 40
0.4
 50
0.0
 51
55.7711336722
  0
ARC
  8
0
 62
7
  6
CONTINUOUS
 10
71.1394951457
 20
104.5818873033
 40
0.4
 50
0.0
 51
55.7711336722
  0
ARC
  8
0
 62
7
  6
CONTINUOUS
 10
80.2301719727
 20
102.57875
 40
2.0
 50
270.0
 51
276.5
  0
ARC
  8
0
 62
7
  6
CONTINUOUS
 10
75.3669951457
 20
100.9787500001
 40
0.4
 50
180.0
 51
270.0
  0
ARC
  8
0
 62
7
  6
CONTINUOUS
 10
81.7169951457
 20
100.9787500001
 40
0.4
 50
180.0
 51
198.6141097741
  0
ARC
  8
0
 62
7
  6
CONTINUOUS
 10
77.4919951457
 20
100.97875
 40
0.4
 50
270.0
 51
359.9999999995
  0
ARC
  8
0
 62
7
  6
CONTINUOUS
 10
76.7894951457
 20
100.9287500001
 40
0.35
 50
270.0
 51
360.0
  0
ARC
  8
0
 62
7
  6
CONTINUOUS
 10
87.0544951457
 20
101.6452848664
 40
0.3
 50
276.5000000115
 51
359.9999999349
  0
ARC
  8
0
 62
7
  6
CONTINUOUS
 10
84.0419951457
 20
101.2014068731
 40
0.2
 50
276.5
 51
360.0
  0
ARC
  8
0
 62
7
  6
CONTINUOUS
 10
81.5274571789
 20
100.9149114603
 40
0.2
 50
198.6141155204
 51
276.5
  0
ARC
  8
0
 62
7
  6
CONTINUOUS
 10
75.3644951457
 20
104.5818873033
 40
0.4
 50
124.2288663278
 51
180.0
  0
ARC
  8
0
 62
7
  6
CONTINUOUS
 10
81.7144951457
 20
104.5818873033
 40
0.4
 50
124.2288663278
 51
180.0
  0
ARC
  8
0
 62
7
  6
CONTINUOUS
 10
83.8394951457
 20
104.5818873033
 40
0.4
 50
0.0
 51
55.7711336722
  0
ARC
  8
0
 62
7
  6
CONTINUOUS
 10
62.2144951457
 20
105.2433251311
 40
0.4
 50
304.2288663278
 51
359.9999999999
  0
ARC
  8
0
 62
7
  6
CONTINUOUS
 10
65.2394951457
 20
105.2433251311
 40
0.4
 50
180.0000000001
 51
235.7711336722
  0
ARC
  8
0
 62
7
  6
CONTINUOUS
 10
68.5644951457
 20
105.2433251311
 40
0.4
 50
304.2288663278
 51
359.9999999999
  0
ARC
  8
0
 62
7
  6
CONTINUOUS
 10
71.5894951457
 20
105.2433251311
 40
0.4
 50
180.0000000001
 51
235.7711336722
  0
ARC
  8
0
 62
7
  6
CONTINUOUS
 10
64.7894951457
 20
107.5818873033
 40
0.4
 50
0.0
 51
55.7711336722
  0
ARC
  8
0
 62
7
  6
CONTINUOUS
 10
62.6644951457
 20
107.5818873033
 40
0.4
 50
124.2288663278
 51
180.0
  0
ARC
  8
0
 62
7
  6
CONTINUOUS
 10
65.2394951457
 20
108.2433251311
 40
0.4
 50
180.0
 51
235.7711336722
  0
ARC
  8
0
 62
7
  6
CONTINUOUS
 10
62.2144951457
 20
108.2433251311
 40
0.4
 50
304.2288663278
 51
360.0
  0
ARC
  8
0
 62
7
  6
CONTINUOUS
 10
64.4394951457
 20
108.57875
 40
0.4
 50
0.0
 51
90.0
  0
ARC
  8
0
 62
7
  6
CONTINUOUS
 10
63.0144951457
 20
108.57875
 40
0.4
 50
90.0
 51
180.0
  0
ARC
  8
0
 62
7
  6
CONTINUOUS
 10
71.1394951457
 20
107.5818873033
 40
0.4
 50
0.0
 51
55.7711336722
  0
ARC
  8
0
 62
7
  6
CONTINUOUS
 10
69.0144951457
 20
107.5818873033
 40
0.4
 50
124.2288663278
 51
180.0
  0
ARC
  8
0
 62
7
  6
CONTINUOUS
 10
71.5894951457
 20
108.2433251311
 40
0.4
 50
180.0
 51
235.7711336722
  0
ARC
  8
0
 62
7
  6
CONTINUOUS
 10
68.5644951457
 20
108.2433251311
 40
0.4
 50
304.2288663278
 51
360.0
  0
ARC
  8
0
 62
7
  6
CONTINUOUS
 10
70.7894951457
 20
108.57875
 40
0.4
 50
0.0
 51
90.0
  0
ARC
  8
0
 62
7
  6
CONTINUOUS
 10
69.3644951457
 20
108.57875
 40
0.4
 50
90.0
 51
180.0
  0
ARC
  8
0
 62
7
  6
CONTINUOUS
 10
74.9144951457
 20
105.2433251311
 40
0.4
 50
304.2288663278
 51
359.9999999999
  0
ARC
  8
0
 62
7
  6
CONTINUOUS
 10
81.2644951457
 20
105.2433251311
 40
0.4
 50
304.2288663278
 51
359.9999999999
  0
ARC
  8
0
 62
7
  6
CONTINUOUS
 10
84.2894951457
 20
105.2433251311
 40
0.4
 50
180.0000000001
 51
235.7711336722
  0
ARC
  8
0
 62
7
  6
CONTINUOUS
 10
75.3644951457
 20
107.5818873033
 40
0.4
 50
124.2288663278
 51
180.0
  0
ARC
  8
0
 62
7
  6
CONTINUOUS
 10
74.9144951457
 20
108.2433251311
 40
0.4
 50
304.2288663278
 51
360.0
  0
ARC
  8
0
 62
7
  6
CONTINUOUS
 10
75.7144951457
 20
108.57875
 40
0.4
 50
90.0
 51
180.0
  0
ARC
  8
0
 62
7
  6
CONTINUOUS
 10
76.7394951457
 20
108.57875
 40
0.4
 50
0.0
 51
90.0
  0
ARC
  8
0
 62
7
  6
CONTINUOUS
 10
83.8394951457
 20
107.5818873033
 40
0.4
 50
0.0
 51
55.7711336722
  0
ARC
  8
0
 62
7
  6
CONTINUOUS
 10
81.7144951457
 20
107.5818873033
 40
0.4
 50
124.2288663278
 51
180.0
  0
ARC
  8
0
 62
7
  6
CONTINUOUS
 10
84.2894951457
 20
108.2433251311
 40
0.4
 50
180.0
 51
235.7711336722
  0
ARC
  8
0
 62
7
  6
CONTINUOUS
 10
81.2644951457
 20
108.2433251311
 40
0.4
 50
304.2288663278
 51
360.0
  0
ARC
  8
0
 62
7
  6
CONTINUOUS
 10
82.0644951457
 20
108.57875
 40
0.4
 50
90.0
 51
180.0
  0
ARC
  8
0
 62
7
  6
CONTINUOUS
 10
83.4894951457
 20
108.57875
 40
0.4
 50
0.0
 51
90.0
  0
ARC
  8
0
 62
7
  6
CONTINUOUS
 10
87.0544951457
 20
108.67875
 40
0.3
 50
0.0
 51
90.0
  0
ARC
  8
0
 62
7
  6
CONTINUOUS
 10
122.449375
 20
182.9622176517
 40
20.0
 50
349.7693870305
 51
10.2306129695
  0
ARC
  8
0
 62
7
  6
CONTINUOUS
 10
144.4993749999
 20
170.7820215544
 40
5.5
 50
317.1665719339
 51
359.9999999999
  0
ARC
  8
0
 62
7
  6
CONTINUOUS
 10
141.999375
 20
175.9622176517
 40
0.4
 50
180.0
 51
270.0
  0
ARC
  8
0
 62
7
  6
CONTINUOUS
 10
141.949375
 20
176.4308867348
 40
0.35
 50
169.7693870305
 51
180.0
  0
ARC
  8
0
 62
7
  6
CONTINUOUS
 10
145.599375
 20
169.7622176517
 40
5.8
 50
54.5040673497
 51
90.0
  0
ARC
  8
0
 62
7
  6
CONTINUOUS
 10
145.5993749999
 20
169.7622176517
 40
4.0
 50
180.0
 51
317.539660968
  0
ARC
  8
0
 62
7
  6
CONTINUOUS
 10
145.5993749999
 20
169.7622176517
 40
3.6
 50
317.1665719339
 51
359.9999999999
  0
CIRCLE
  8
0
 62
7
  6
CONTINUOUS
 10
145.999375
 20
170.2622176517
 40
2.1161417323
  0
ARC
  8
0
 62
7
  6
CONTINUOUS
 10
149.199375
 20
174.8099894373
 40
0.4
 50
234.5040673498
 51
274.9452733185
  0
ARC
  8
0
 62
7
  6
CONTINUOUS
 10
141.949375
 20
189.4935485685
 40
0.35
 50
180.0
 51
190.2306129695
  0
ARC
  8
0
 62
7
  6
CONTINUOUS
 10
144.4993749999
 20
195.142413749
 40
5.5
 50
0.0
 51
42.8334280647
  0
ARC
  8
0
 62
7
  6
CONTINUOUS
 10
149.199375
 20
191.1144478457
 40
0.3999991695
 50
359.9997164338
 51
35.6718115757
  0
ARC
  8
0
 62
7
  6
CONTINUOUS
 10
145.599375
 20
196.1622176517
 40
4.0
 50
14.6238295379
 51
180.0
  0
CIRCLE
  8
0
 62
7
  6
CONTINUOUS
 10
145.999375
 20
195.6622176517
 40
2.1161417323
  0
ENDSEC
  0
EOF
