  0
SECTION
  2
HEADER
  9
$EXTMAX
 10
210.0
 20
297.0
 30
0.0
  9
$EXTMIN
 10
0.0
 20
0.0
 30
0.0
  9
$LIMMIN
 10
0.0
 20
0.0
  9
$LIMMAX
 10
210.0
 20
297.0
  9
$VIEWCTR
 10
105.0
 20
148.5
  9
$VIEWSIZE
 40
297.0
  9
$CLAYER
  8
0
  9
$LTSCALE
 40
19.36
  9
$CELTYPE
  6
BYLAYER
  9
$DIMSCALE
 40
1.0
  9
$DIMASZ
 40
3.5
  9
$DIMEXO
 40
2.2
  9
$DIMDLI
 40
13.376
  9
$DIMEXE
 40
6.336
  9
$DIMCEN
 40
3.168
  9
$DIMLFAC
 40
1.0
  9
$DIMBLK
  1
_FILLED
  9
$DIMTXT
 40
3.5
  9
$PDMODE
 70
3
  9
$PDSIZE
 40
0.3125
  9
$TILEMODE
 70
1
  0
ENDSEC
  0
SECTION
  2
TABLES
  0
TABLE
  2
LTYPE
 70
6
  0
LTYPE
  2
BYBLOCK
 70
0
  3

 72
65
 73
0
 40
0.0
  0
LTYPE
  2
BYLAYER
 70
0
  3

 72
65
 73
0
 40
0.0
  0
LTYPE
  2
CONTINUOUS
 70
64
  3
Solid line
 72
65
 73
0
 40
0.0
  0
LTYPE
  2
CENTER
 70
64
  3
____ _ ____ _ ____ _ ____ _ ____ _ ____ _ ____
 72
65
 73
4
 40
0.6
 49
0.375
 49
-0.075
 49
0.075
 49
-0.075
  0
LTYPE
  2
HIDDEN
 70
64
  3
- - - - - - - - - - - - - - - - - - - -
 72
65
 73
2
 40
0.2
 49
0.1
 49
-0.1
  0
LTYPE
  2
PHANTOM
 70
64
  3
_____ _ _ _____ _ _ _____ _ _ _____
 72
65
 73
6
 40
0.8
 49
0.45
 49
-0.05
 49
0.1
 49
-0.05
 49
0.1
 49
-0.05
  0
LTYPE
  2
DOT
 70
64
  3
. . . . . . . . . . . . . . . . . . . .
 72
65
 73
2
 40
0.2
 49
0.1
 49
-0.1
  0
LTYPE
  2
DASHED
 70
64
  3
- - - - - - - - - - - - - - - - - - - -
 72
65
 73
2
 40
0.2
 49
0.1
 49
-0.1
  0
ENDTAB
  0
TABLE
  2
LAYER
 70
36
  0
LAYER
  2
0
 70
0
 62
7
  6
CONTINUOUS
  0
LAYER
  2
DEFAULT_1
 70
0
 62
7
  6
CENTER
  0
LAYER
  2
DEFAULT_2
 70
0
 62
8
  6
HIDDEN
  0
LAYER
  2
DEFAULT_3
 70
0
 62
7
  6
PHANTOM
  0
LAYER
  2
CURVE
 70
0
 62
7
  6
CONTINUOUS
  0
LAYER
  2
SURFACE
 70
0
 62
7
  6
CONTINUOUS
  0
ENDTAB
  0
TABLE
  2
STYLE
 70
1
  0
STYLE
  2
STANDARD
 70
0
 40
0.0
 41
0.8
 50
0.0
 71
0
 42
0.2
  3
txt
  4

  0
STYLE
  2
TEXTSTYLE_1
 70
0
 40
0.0
 41
0.8
 50
0.0
 71
0
 42
0.2
  3
gdt
  4

  0
STYLE
  2
TEXTSTYLE_2
 70
0
 40
0.0
 41
0.6
 50
0.0
 71
0
 42
0.2
  3
txt
  4

  0
STYLE
  2
TEXTSTYLE_3
 70
0
 40
0.0
 41
1.0
 50
0.0
 71
0
 42
0.2
  3
ftb_____.ttf
  4

  0
STYLE
  2
TEXTSTYLE_4
 70
0
 40
0.0
 41
1.0
 50
0.0
 71
0
 42
0.2
  3
fti_____.ttf
  4

  0
STYLE
  2
TEXTSTYLE_5
 70
0
 40
0.0
 41
1.0
 50
0.0
 71
0
 42
0.2
  3
frutiger light.ttf
  4

  0
STYLE
  2
TEXTSTYLE_6
 70
0
 40
0.0
 41
0.7
 50
0.0
 71
0
 42
0.2
  3
txt
  4

  0
STYLE
  2
TEXTSTYLE_7
 70
0
 40
0.0
 41
0.8
 50
0.0
 71
0
 42
0.2
  3
txt
  4

  0
ENDTAB
  0
ENDSEC
  0
SECTION
  2
BLOCKS
  0
BLOCK
  8
0
 62
2
  6
CONTINUOUS
  2
SYMBOL_8_BL1
 70
64
 10
173.5956734183
 20
35.5937998301
  0
TEXT
  8
0
 62
7
  6
CONTINUOUS
 10
164.6539584268
 20
30.6865562072
  7
TEXTSTYLE_4
 40
1.0655737705
  1
The brand for plastic modular belts and chains
 41
1.0
 72
0
  0
LINE
  8
0
 62
7
  6
CONTINUOUS
 10
149.5737418074
 20
36.1675703219
 11
149.5737418074
 21
34.0364227809
  0
LINE
  8
0
 62
7
  6
CONTINUOUS
 10
149.8628043005
 20
31.0454914852
 11
149.8628043005
 21
31.1422825445
  0
LINE
  8
0
 62
7
  6
CONTINUOUS
 10
149.5737418074
 20
31.1100188581
 11
149.6315543091
 21
30.9164367395
  0
LINE
  8
0
 62
7
  6
CONTINUOUS
 10
150.9671844304
 20
33.9544555678
 11
150.9671844304
 21
36.1675703219
  0
LINE
  8
0
 62
7
  6
CONTINUOUS
 10
151.8862417523
 20
32.1101932727
 11
151.8862417523
 21
30.5937998301
  0
LINE
  8
0
 62
7
  6
CONTINUOUS
 10
152.1753043074
 20
30.5937998301
 11
152.1753043074
 21
31.3358647082
  0
LINE
  8
0
 62
7
  6
CONTINUOUS
 10
152.1753043074
 20
31.4649194539
 11
152.1753043074
 21
32.1101932727
  0
LINE
  8
0
 62
7
  6
CONTINUOUS
 10
149.6315543091
 20
31.3036010218
 11
149.5737418074
 21
31.1100188581
  0
LINE
  8
0
 62
7
  6
CONTINUOUS
 10
149.9784292936
 20
30.8841730531
 11
149.8628043005
 21
31.0454914852
  0
LINE
  8
0
 62
7
  6
CONTINUOUS
 10
151.0768668626
 20
31.400392081
 11
151.1346793074
 21
31.3036010218
  0
LINE
  8
0
 62
7
  6
CONTINUOUS
 10
151.4237418626
 20
31.3036010218
 11
151.3659292523
 21
31.4326557675
  0
LINE
  8
0
 62
7
  6
CONTINUOUS
 10
152.852430332
 20
36.1675703219
 11
152.852430332
 21
34.3642916334
  0
LINE
  8
0
 62
7
  6
CONTINUOUS
 10
152.852430332
 20
33.0528162235
 11
152.852430332
 21
32.3970785186
  0
LINE
  8
0
 62
7
  6
CONTINUOUS
 10
153.2159293074
 20
31.2390736489
 11
153.2159293074
 21
30.5937998301
  0
LINE
  8
0
 62
7
  6
CONTINUOUS
 10
153.5049916972
 20
30.5937998301
 11
153.5049916972
 21
31.2390736489
  0
LINE
  8
0
 62
7
  6
CONTINUOUS
 10
149.8628043005
 20
31.1422825445
 11
149.9206168074
 21
31.2713373354
  0
LINE
  8
0
 62
7
  6
CONTINUOUS
 10
149.6315543091
 20
30.9164367395
 11
149.7471793074
 21
30.7873819712
  0
LINE
  8
0
 62
7
  6
CONTINUOUS
 10
153.1581166972
 20
31.3681283946
 11
153.2159293074
 21
31.2390736489
  0
LINE
  8
0
 62
7
  6
CONTINUOUS
 10
153.9674919177
 20
30.8841730531
 11
154.0253041972
 21
30.7551182848
  0
LINE
  8
0
 62
7
  6
CONTINUOUS
 10
153.5049916972
 20
31.2390736489
 11
153.4471794177
 21
31.400392081
  0
LINE
  8
0
 62
7
  6
CONTINUOUS
 10
153.9674919177
 20
31.4326557675
 11
153.9674919177
 21
31.3681283946
  0
LINE
  8
0
 62
7
  6
CONTINUOUS
 10
153.9674919177
 20
30.9809641124
 11
153.9674919177
 21
30.8841730531
  0
LINE
  8
0
 62
7
  6
CONTINUOUS
 10
154.245872955
 20
32.3970785186
 11
154.245872955
 21
36.1675703219
  0
LINE
  8
0
 62
7
  6
CONTINUOUS
 10
154.2565543074
 20
30.8519093441
 11
154.2565543074
 21
30.9164367395
  0
LINE
  8
0
 62
7
  6
CONTINUOUS
 10
154.5737418074
 20
36.1675703219
 11
154.5737418074
 21
32.3970785186
  0
LINE
  8
0
 62
7
  6
CONTINUOUS
 10
151.3659292523
 20
30.7873819712
 11
151.4237418626
 21
30.9164367395
  0
LINE
  8
0
 62
7
  6
CONTINUOUS
 10
155.759679528
 20
30.6905909007
 11
155.7018665869
 21
30.8519093441
  0
LINE
  8
0
 62
7
  6
CONTINUOUS
 10
155.412804528
 20
31.3681283946
 11
155.412804528
 21
31.2713373354
  0
LINE
  8
0
 62
7
  6
CONTINUOUS
 10
155.412804528
 20
31.1422825445
 11
155.412804528
 21
30.9487004259
  0
LINE
  8
0
 62
7
  6
CONTINUOUS
 10
155.7018665869
 20
30.8519093441
 11
155.7018665869
 21
31.3681283946
  0
LINE
  8
0
 62
7
  6
CONTINUOUS
 10
155.9671844304
 20
32.3970785186
 11
155.9671844304
 21
34.2003572071
  0
LINE
  8
0
 62
7
  6
CONTINUOUS
 10
155.9671844304
 20
35.511832617
 11
155.9671844304
 21
36.1675703219
  0
LINE
  8
0
 62
7
  6
CONTINUOUS
 10
156.279992028
 20
32.1101932727
 11
156.279992028
 21
31.9488748406
  0
LINE
  8
0
 62
7
  6
CONTINUOUS
 10
156.279992028
 20
31.626237886
 11
156.279992028
 21
30.5937998301
  0
LINE
  8
0
 62
7
  6
CONTINUOUS
 10
156.5690540869
 20
30.5937998301
 11
156.5690540869
 21
31.626237886
  0
LINE
  8
0
 62
7
  6
CONTINUOUS
 10
156.5690540869
 20
31.9488748406
 11
156.5690540869
 21
32.1101932727
  0
LINE
  8
0
 62
7
  6
CONTINUOUS
 10
151.1346793074
 20
30.9164367395
 11
151.0768668626
 21
30.8196456577
  0
LINE
  8
0
 62
7
  6
CONTINUOUS
 10
153.4471794177
 20
31.400392081
 11
153.3893668074
 21
31.4649194539
  0
LINE
  8
0
 62
7
  6
CONTINUOUS
 10
154.3143669177
 20
30.7873819712
 11
154.2565543074
 21
30.8519093441
  0
LINE
  8
0
 62
7
  6
CONTINUOUS
 10
155.4706168074
 20
30.6583272086
 11
155.5284290869
 21
30.5937998301
  0
LINE
  8
0
 62
7
  6
CONTINUOUS
 10
155.412804528
 20
30.7551182848
 11
155.4706168074
 21
30.6583272086
  0
LINE
  8
0
 62
7
  6
CONTINUOUS
 10
155.8174918074
 20
30.5937998301
 11
155.759679528
 21
30.6905909007
  0
LINE
  8
0
 62
7
  6
CONTINUOUS
 10
155.7018665869
 20
31.3681283946
 11
155.6440543074
 21
31.4649194539
  0
LINE
  8
0
 62
7
  6
CONTINUOUS
 10
157.0315543074
 20
31.626237886
 11
157.0315543074
 21
30.5937998301
  0
LINE
  8
0
 62
7
  6
CONTINUOUS
 10
157.320617028
 20
30.5937998301
 11
157.320617028
 21
31.3358647082
  0
LINE
  8
0
 62
7
  6
CONTINUOUS
 10
157.320617028
 20
31.4649194539
 11
157.320617028
 21
31.626237886
  0
LINE
  8
0
 62
7
  6
CONTINUOUS
 10
157.852430332
 20
34.6101932727
 11
157.852430332
 21
32.3970785186
  0
LINE
  8
0
 62
7
  6
CONTINUOUS
 10
149.7471793074
 20
31.4326557675
 11
149.6315543091
 21
31.3036010218
  0
LINE
  8
0
 62
7
  6
CONTINUOUS
 10
149.9206168074
 20
31.2713373354
 11
149.9784292936
 21
31.3358647082
  0
LINE
  8
0
 62
7
  6
CONTINUOUS
 10
149.7471793074
 20
30.7873819712
 11
149.8628043005
 21
30.7228545871
  0
LINE
  8
0
 62
7
  6
CONTINUOUS
 10
150.1518667936
 20
30.7873819712
 11
149.9784292936
 21
30.8841730531
  0
LINE
  8
0
 62
7
  6
CONTINUOUS
 10
155.3549915869
 20
31.4326557675
 11
155.412804528
 21
31.3681283946
  0
LINE
  8
0
 62
7
  6
CONTINUOUS
 10
158.3034290869
 20
31.3681283946
 11
158.361242028
 21
31.2068099625
  0
LINE
  8
0
 62
7
  6
CONTINUOUS
 10
158.6503040869
 20
31.2068099625
 11
158.5924918074
 21
31.3681283946
  0
LINE
  8
0
 62
7
  6
CONTINUOUS
 10
158.361242028
 20
31.2068099625
 11
158.361242028
 21
30.5937998301
  0
LINE
  8
0
 62
7
  6
CONTINUOUS
 10
158.6503040869
 20
30.5937998301
 11
158.6503040869
 21
31.2068099625
  0
LINE
  8
0
 62
7
  6
CONTINUOUS
 10
159.1128043074
 20
31.4326557675
 11
159.1128043074
 21
31.3681283946
  0
LINE
  8
0
 62
7
  6
CONTINUOUS
 10
159.245872955
 20
32.3970785186
 11
159.245872955
 21
34.5282260596
  0
LINE
  8
0
 62
7
  6
CONTINUOUS
 10
159.5737418074
 20
36.1675703219
 11
159.5737418074
 21
32.3970785186
  0
LINE
  8
0
 62
7
  6
CONTINUOUS
 10
154.2565543074
 20
30.9164367395
 11
154.3143669177
 21
31.0132277988
  0
LINE
  8
0
 62
7
  6
CONTINUOUS
 10
149.8628043005
 20
30.7228545871
 11
150.0362418212
 21
30.6583272086
  0
LINE
  8
0
 62
7
  6
CONTINUOUS
 10
151.3659292523
 20
31.4326557675
 11
151.1924917523
 21
31.5294468267
  0
LINE
  8
0
 62
7
  6
CONTINUOUS
 10
154.0253041972
 20
30.7551182848
 11
154.1987416972
 21
30.6583272086
  0
LINE
  8
0
 62
7
  6
CONTINUOUS
 10
153.0424918074
 20
31.4326557675
 11
153.1581166972
 21
31.3681283946
  0
LINE
  8
0
 62
7
  6
CONTINUOUS
 10
153.3893668074
 20
31.4649194539
 11
153.2737419177
 21
31.5294468267
  0
LINE
  8
0
 62
7
  6
CONTINUOUS
 10
159.1128043074
 20
30.8519093441
 11
159.228429528
 21
30.7228545871
  0
LINE
  8
0
 62
7
  6
CONTINUOUS
 10
159.4596793074
 20
30.7873819712
 11
159.401867028
 21
30.8519093441
  0
LINE
  8
0
 62
7
  6
CONTINUOUS
 10
159.1128043074
 20
31.3681283946
 11
159.228429528
 21
31.2390736489
  0
LINE
  8
0
 62
7
  6
CONTINUOUS
 10
158.5924918074
 20
31.3681283946
 11
158.534679528
 21
31.4649194539
  0
LINE
  8
0
 62
7
  6
CONTINUOUS
 10
160.9628038663
 20
30.7873819712
 11
160.9628038663
 21
30.8519093441
  0
LINE
  8
0
 62
7
  6
CONTINUOUS
 10
160.9671844304
 20
32.3970785186
 11
160.9671844304
 21
36.1675703219
  0
LINE
  8
0
 62
7
  6
CONTINUOUS
 10
154.0253041972
 20
31.4971831403
 11
153.9674919177
 21
31.4326557675
  0
LINE
  8
0
 62
7
  6
CONTINUOUS
 10
150.9034292799
 20
31.4649194539
 11
151.0768668626
 21
31.400392081
  0
LINE
  8
0
 62
7
  6
CONTINUOUS
 10
155.6440543074
 20
31.4649194539
 11
155.5284290869
 21
31.5294468267
  0
LINE
  8
0
 62
7
  6
CONTINUOUS
 10
159.4596793074
 20
31.3036010218
 11
159.401867028
 21
31.3681283946
  0
LINE
  8
0
 62
7
  6
CONTINUOUS
 10
160.615929528
 20
30.9164367395
 11
160.6737418074
 21
30.8519093441
  0
LINE
  8
0
 62
7
  6
CONTINUOUS
 10
160.9628038663
 20
30.8519093441
 11
160.8471793074
 21
30.9809641124
  0
LINE
  8
0
 62
7
  6
CONTINUOUS
 10
160.615929528
 20
31.4326557675
 11
160.6737418074
 21
31.3681283946
  0
LINE
  8
0
 62
7
  6
CONTINUOUS
 10
160.9628038663
 20
31.3681283946
 11
160.8471793074
 21
31.4971831403
  0
LINE
  8
0
 62
7
  6
CONTINUOUS
 10
154.2565543074
 20
31.3681283946
 11
154.3143669177
 21
31.4326557675
  0
LINE
  8
0
 62
7
  6
CONTINUOUS
 10
154.0831168074
 20
31.1100188581
 11
153.9674919177
 21
30.9809641124
  0
LINE
  8
0
 62
7
  6
CONTINUOUS
 10
155.412804528
 20
30.9487004259
 11
155.3549915869
 21
30.8841730531
  0
LINE
  8
0
 62
7
  6
CONTINUOUS
 10
155.3549915869
 20
30.6905909007
 11
155.412804528
 21
30.7551182848
  0
LINE
  8
0
 62
7
  6
CONTINUOUS
 10
154.1987416972
 20
30.6583272086
 11
154.3143669177
 21
30.6260635193
  0
LINE
  8
0
 62
7
  6
CONTINUOUS
 10
151.1924917523
 20
31.5294468267
 11
150.9612418074
 21
31.5939741996
  0
LINE
  8
0
 62
7
  6
CONTINUOUS
 10
154.5456166972
 20
30.7228545871
 11
154.3143669177
 21
30.7873819712
  0
LINE
  8
0
 62
7
  6
CONTINUOUS
 10
153.2737419177
 20
31.5294468267
 11
153.1003044177
 21
31.5939741996
  0
LINE
  8
0
 62
7
  6
CONTINUOUS
 10
155.5284290869
 20
31.5294468267
 11
155.3549915869
 21
31.5939741996
  0
LINE
  8
0
 62
7
  6
CONTINUOUS
 10
158.187804528
 20
31.4326557675
 11
158.3034290869
 21
31.3681283946
  0
LINE
  8
0
 62
7
  6
CONTINUOUS
 10
158.534679528
 20
31.4649194539
 11
158.4190543074
 21
31.5294468267
  0
LINE
  8
0
 62
7
  6
CONTINUOUS
 10
150.0362418212
 20
30.6583272086
 11
150.2096793212
 21
30.6260635193
  0
LINE
  8
0
 62
7
  6
CONTINUOUS
 10
150.498741835
 20
30.7228545871
 11
150.1518667936
 21
30.7873819712
  0
LINE
  8
0
 62
7
  6
CONTINUOUS
 10
152.9268669177
 20
31.4649194539
 11
153.0424918074
 21
31.4326557675
  0
LINE
  8
0
 62
7
  6
CONTINUOUS
 10
155.239367028
 20
31.4649194539
 11
155.3549915869
 21
31.4326557675
  0
LINE
  8
0
 62
7
  6
CONTINUOUS
 10
159.575304528
 20
30.7551182848
 11
159.4596793074
 21
30.7873819712
  0
LINE
  8
0
 62
7
  6
CONTINUOUS
 10
158.0721793074
 20
31.4649194539
 11
158.187804528
 21
31.4326557675
  0
LINE
  8
0
 62
7
  6
CONTINUOUS
 10
159.228429528
 20
30.7228545871
 11
159.401867028
 21
30.6583272086
  0
LINE
  8
0
 62
7
  6
CONTINUOUS
 10
158.4190543074
 20
31.5294468267
 11
158.2456168074
 21
31.5939741996
  0
LINE
  8
0
 62
7
  6
CONTINUOUS
 10
159.6331168074
 20
31.2390736489
 11
159.4596793074
 21
31.3036010218
  0
LINE
  8
0
 62
7
  6
CONTINUOUS
 10
160.442492028
 20
30.9809641124
 11
160.615929528
 21
30.9164367395
  0
LINE
  8
0
 62
7
  6
CONTINUOUS
 10
160.8471793074
 20
31.4971831403
 11
160.6737418074
 21
31.5617105132
  0
LINE
  8
0
 62
7
  6
CONTINUOUS
 10
159.228429528
 20
31.2390736489
 11
159.4596793074
 21
31.1422825445
  0
LINE
  8
0
 62
7
  6
CONTINUOUS
 10
160.8471793074
 20
30.9809641124
 11
160.615929528
 21
31.0777551716
  0
LINE
  8
0
 62
7
  6
CONTINUOUS
 10
159.401867028
 20
31.3681283946
 11
159.4596793074
 21
31.4326557675
  0
LINE
  8
0
 62
7
  6
CONTINUOUS
 10
149.8628043005
 20
31.4971831403
 11
149.7471793074
 21
31.4326557675
  0
LINE
  8
0
 62
7
  6
CONTINUOUS
 10
149.9784292936
 20
31.3358647082
 11
150.1518667936
 21
31.4326557675
  0
LINE
  8
0
 62
7
  6
CONTINUOUS
 10
152.2909293626
 20
31.5294468267
 11
152.1753043074
 21
31.4649194539
  0
LINE
  8
0
 62
7
  6
CONTINUOUS
 10
152.1753043074
 20
31.3358647082
 11
152.2909293626
 21
31.400392081
  0
LINE
  8
0
 62
7
  6
CONTINUOUS
 10
151.1924917523
 20
30.6905909007
 11
151.3659292523
 21
30.7873819712
  0
LINE
  8
0
 62
7
  6
CONTINUOUS
 10
150.2096793212
 20
30.6260635193
 11
150.5565542799
 21
30.5937998301
  0
LINE
  8
0
 62
7
  6
CONTINUOUS
 10
154.3143669177
 20
30.6260635193
 11
154.5456166972
 21
30.5937998301
  0
LINE
  8
0
 62
7
  6
CONTINUOUS
 10
152.6956168074
 20
31.4971831403
 11
152.9268669177
 21
31.4649194539
  0
LINE
  8
0
 62
7
  6
CONTINUOUS
 10
155.0081169177
 20
31.4971831403
 11
155.239367028
 21
31.4649194539
  0
LINE
  8
0
 62
7
  6
CONTINUOUS
 10
159.4596793074
 20
31.1422825445
 11
160.442492028
 21
30.9809641124
  0
LINE
  8
0
 62
7
  6
CONTINUOUS
 10
160.615929528
 20
31.0777551716
 11
159.6331168074
 21
31.2390736489
  0
LINE
  8
0
 62
7
  6
CONTINUOUS
 10
153.1003044177
 20
31.5939741996
 11
152.9268669177
 21
31.626237886
  0
LINE
  8
0
 62
7
  6
CONTINUOUS
 10
159.401867028
 20
30.6583272086
 11
159.575304528
 21
30.6260635193
  0
LINE
  8
0
 62
7
  6
CONTINUOUS
 10
158.2456168074
 20
31.5939741996
 11
158.0721793074
 21
31.626237886
  0
LINE
  8
0
 62
7
  6
CONTINUOUS
 10
160.5003043074
 20
31.4649194539
 11
160.615929528
 21
31.4326557675
  0
LINE
  8
0
 62
7
  6
CONTINUOUS
 10
160.6737418074
 20
30.8519093441
 11
160.615929528
 21
30.7873819712
  0
LINE
  8
0
 62
7
  6
CONTINUOUS
 10
159.228429528
 20
31.5294468267
 11
159.1128043074
 21
31.4326557675
  0
LINE
  8
0
 62
7
  6
CONTINUOUS
 10
154.1409294177
 20
31.5617105132
 11
154.0253041972
 21
31.4971831403
  0
LINE
  8
0
 62
7
  6
CONTINUOUS
 10
154.1987416972
 20
31.1745462761
 11
154.0831168074
 21
31.1100188581
  0
LINE
  8
0
 62
7
  6
CONTINUOUS
 10
154.3143669177
 20
31.0132277988
 11
154.4299918074
 21
31.0777551716
  0
LINE
  8
0
 62
7
  6
CONTINUOUS
 10
151.8862417523
 20
30.5937998301
 11
152.1753043074
 21
30.5937998301
  0
LINE
  8
0
 62
7
  6
CONTINUOUS
 10
153.2159293074
 20
30.5937998301
 11
153.5049916972
 21
30.5937998301
  0
LINE
  8
0
 62
7
  6
CONTINUOUS
 10
154.5456166972
 20
30.5937998301
 11
154.8924916972
 21
30.5937998301
  0
LINE
  8
0
 62
7
  6
CONTINUOUS
 10
155.5284290869
 20
30.5937998301
 11
155.8174918074
 21
30.5937998301
  0
LINE
  8
0
 62
7
  6
CONTINUOUS
 10
156.279992028
 20
30.5937998301
 11
156.5690540869
 21
30.5937998301
  0
LINE
  8
0
 62
7
  6
CONTINUOUS
 10
157.0315543074
 20
30.5937998301
 11
157.320617028
 21
30.5937998301
  0
LINE
  8
0
 62
7
  6
CONTINUOUS
 10
158.361242028
 20
30.5937998301
 11
158.6503040869
 21
30.5937998301
  0
LINE
  8
0
 62
7
  6
CONTINUOUS
 10
159.922179528
 20
30.5937998301
 11
160.269054528
 21
30.5937998301
  0
LINE
  8
0
 62
7
  6
CONTINUOUS
 10
160.269054528
 20
30.7228545871
 11
159.922179528
 21
30.7228545871
  0
LINE
  8
0
 62
7
  6
CONTINUOUS
 10
154.8924916972
 20
30.7228545871
 11
154.5456166972
 21
30.7228545871
  0
LINE
  8
0
 62
7
  6
CONTINUOUS
 10
159.401867028
 20
30.8519093441
 11
159.1128043074
 21
30.8519093441
  0
LINE
  8
0
 62
7
  6
CONTINUOUS
 10
151.4237418626
 20
30.9164367395
 11
151.1346793074
 21
30.9164367395
  0
LINE
  8
0
 62
7
  6
CONTINUOUS
 10
150.498741835
 20
31.4971831403
 11
150.9034292799
 21
31.4649194539
  0
LINE
  8
0
 62
7
  6
CONTINUOUS
 10
150.9612418074
 20
31.5939741996
 11
150.5565542799
 21
31.626237886
  0
LINE
  8
0
 62
7
  6
CONTINUOUS
 10
159.575304528
 20
30.6260635193
 11
159.922179528
 21
30.5937998301
  0
LINE
  8
0
 62
7
  6
CONTINUOUS
 10
159.922179528
 20
30.7228545871
 11
159.575304528
 21
30.7551182848
  0
LINE
  8
0
 62
7
  6
CONTINUOUS
 10
155.3549915869
 20
31.5939741996
 11
155.0081169177
 21
31.626237886
  0
LINE
  8
0
 62
7
  6
CONTINUOUS
 10
160.1534293074
 20
31.4971831403
 11
160.5003043074
 21
31.4649194539
  0
LINE
  8
0
 62
7
  6
CONTINUOUS
 10
160.5003043074
 20
31.5939741996
 11
160.1534293074
 21
31.626237886
  0
LINE
  8
0
 62
7
  6
CONTINUOUS
 10
157.840929528
 20
31.4971831403
 11
158.0721793074
 21
31.4649194539
  0
LINE
  8
0
 62
7
  6
CONTINUOUS
 10
160.6737418074
 20
31.5617105132
 11
160.5003043074
 21
31.5939741996
  0
LINE
  8
0
 62
7
  6
CONTINUOUS
 10
160.8471793074
 20
30.6905909007
 11
160.9628038663
 21
30.7873819712
  0
LINE
  8
0
 62
7
  6
CONTINUOUS
 10
155.3549915869
 20
30.8841730531
 11
155.1815540869
 21
30.7873819712
  0
LINE
  8
0
 62
7
  6
CONTINUOUS
 10
157.4362415869
 20
31.5294468267
 11
157.320617028
 21
31.4649194539
  0
LINE
  8
0
 62
7
  6
CONTINUOUS
 10
157.320617028
 20
31.3358647082
 11
157.4362415869
 21
31.400392081
  0
LINE
  8
0
 62
7
  6
CONTINUOUS
 10
150.0362418212
 20
31.5617105132
 11
149.8628043005
 21
31.4971831403
  0
LINE
  8
0
 62
7
  6
CONTINUOUS
 10
152.4643666972
 20
31.5939741996
 11
152.2909293626
 21
31.5294468267
  0
LINE
  8
0
 62
7
  6
CONTINUOUS
 10
152.2909293626
 20
31.400392081
 11
152.4643666972
 21
31.4649194539
  0
LINE
  8
0
 62
7
  6
CONTINUOUS
 10
151.0768668626
 20
30.8196456577
 11
150.9034292799
 21
30.7551182848
  0
LINE
  8
0
 62
7
  6
CONTINUOUS
 10
160.5003043074
 20
30.7551182848
 11
160.269054528
 21
30.7228545871
  0
LINE
  8
0
 62
7
  6
CONTINUOUS
 10
154.8924916972
 20
30.5937998301
 11
155.1815540869
 21
30.6260635193
  0
LINE
  8
0
 62
7
  6
CONTINUOUS
 10
160.269054528
 20
30.5937998301
 11
160.615929528
 21
30.6260635193
  0
LINE
  8
0
 62
7
  6
CONTINUOUS
 10
150.5565542799
 20
30.5937998301
 11
150.9612418074
 21
30.6260635193
  0
LINE
  8
0
 62
7
  6
CONTINUOUS
 10
150.9034292799
 20
30.7551182848
 11
150.498741835
 21
30.7228545871
  0
LINE
  8
0
 62
7
  6
CONTINUOUS
 10
154.7768668074
 20
31.1422825445
 11
155.412804528
 21
31.1422825445
  0
LINE
  8
0
 62
7
  6
CONTINUOUS
 10
155.412804528
 20
31.2713373354
 11
154.7768668074
 21
31.2713373354
  0
LINE
  8
0
 62
7
  6
CONTINUOUS
 10
151.1346793074
 20
31.3036010218
 11
151.4237418626
 21
31.3036010218
  0
LINE
  8
0
 62
7
  6
CONTINUOUS
 10
153.9674919177
 20
31.3681283946
 11
154.2565543074
 21
31.3681283946
  0
LINE
  8
0
 62
7
  6
CONTINUOUS
 10
160.6737418074
 20
31.3681283946
 11
160.9628038663
 21
31.3681283946
  0
LINE
  8
0
 62
7
  6
CONTINUOUS
 10
154.6612419177
 20
31.4971831403
 11
155.0081169177
 21
31.4971831403
  0
LINE
  8
0
 62
7
  6
CONTINUOUS
 10
159.8065543074
 20
31.4971831403
 11
160.1534293074
 21
31.4971831403
  0
LINE
  8
0
 62
7
  6
CONTINUOUS
 10
160.1534293074
 20
31.626237886
 11
159.8065543074
 21
31.626237886
  0
LINE
  8
0
 62
7
  6
CONTINUOUS
 10
158.0721793074
 20
31.626237886
 11
157.840929528
 21
31.626237886
  0
LINE
  8
0
 62
7
  6
CONTINUOUS
 10
157.320617028
 20
31.626237886
 11
157.0315543074
 21
31.626237886
  0
LINE
  8
0
 62
7
  6
CONTINUOUS
 10
156.5690540869
 20
31.626237886
 11
156.279992028
 21
31.626237886
  0
LINE
  8
0
 62
7
  6
CONTINUOUS
 10
155.0081169177
 20
31.626237886
 11
154.6612419177
 21
31.626237886
  0
LINE
  8
0
 62
7
  6
CONTINUOUS
 10
152.9268669177
 20
31.626237886
 11
152.6956168074
 21
31.626237886
  0
LINE
  8
0
 62
7
  6
CONTINUOUS
 10
156.279992028
 20
31.9488748406
 11
156.5690540869
 21
31.9488748406
  0
LINE
  8
0
 62
7
  6
CONTINUOUS
 10
156.5690540869
 20
32.1101932727
 11
156.279992028
 21
32.1101932727
  0
LINE
  8
0
 62
7
  6
CONTINUOUS
 10
152.1753043074
 20
32.1101932727
 11
151.8862417523
 21
32.1101932727
  0
LINE
  8
0
 62
7
  6
CONTINUOUS
 10
151.2130860697
 20
32.3970785186
 11
151.6256574183
 21
32.3970785186
  0
LINE
  8
0
 62
7
  6
CONTINUOUS
 10
152.852430332
 20
32.3970785186
 11
154.245872955
 21
32.3970785186
  0
LINE
  8
0
 62
7
  6
CONTINUOUS
 10
154.5737418074
 20
32.3970785186
 11
155.9671844304
 21
32.3970785186
  0
LINE
  8
0
 62
7
  6
CONTINUOUS
 10
157.852430332
 20
32.3970785186
 11
159.245872955
 21
32.3970785186
  0
LINE
  8
0
 62
7
  6
CONTINUOUS
 10
159.5737418074
 20
32.3970785186
 11
160.9671844304
 21
32.3970785186
  0
LINE
  8
0
 62
7
  6
CONTINUOUS
 10
157.6096790869
 20
31.5939741996
 11
157.4362415869
 21
31.5294468267
  0
LINE
  8
0
 62
7
  6
CONTINUOUS
 10
155.1815540869
 20
30.6260635193
 11
155.3549915869
 21
30.6905909007
  0
LINE
  8
0
 62
7
  6
CONTINUOUS
 10
160.615929528
 20
30.6260635193
 11
160.8471793074
 21
30.6905909007
  0
LINE
  8
0
 62
7
  6
CONTINUOUS
 10
160.615929528
 20
30.7873819712
 11
160.5003043074
 21
30.7551182848
  0
LINE
  8
0
 62
7
  6
CONTINUOUS
 10
159.575304528
 20
31.4649194539
 11
159.8065543074
 21
31.4971831403
  0
LINE
  8
0
 62
7
  6
CONTINUOUS
 10
157.6096790869
 20
31.4649194539
 11
157.840929528
 21
31.4971831403
  0
LINE
  8
0
 62
7
  6
CONTINUOUS
 10
154.5456166972
 20
31.1100188581
 11
154.7768668074
 21
31.1422825445
  0
LINE
  8
0
 62
7
  6
CONTINUOUS
 10
157.840929528
 20
31.626237886
 11
157.6096790869
 21
31.5939741996
  0
LINE
  8
0
 62
7
  6
CONTINUOUS
 10
154.4299918074
 20
31.4649194539
 11
154.6612419177
 21
31.4971831403
  0
LINE
  8
0
 62
7
  6
CONTINUOUS
 10
159.8065543074
 20
31.626237886
 11
159.4596793074
 21
31.5939741996
  0
LINE
  8
0
 62
7
  6
CONTINUOUS
 10
154.7768668074
 20
31.2713373354
 11
154.4299918074
 21
31.2390736489
  0
LINE
  8
0
 62
7
  6
CONTINUOUS
 10
150.5565542799
 20
31.626237886
 11
150.2096793212
 21
31.5939741996
  0
LINE
  8
0
 62
7
  6
CONTINUOUS
 10
154.6612419177
 20
31.626237886
 11
154.2565543074
 21
31.5939741996
  0
LINE
  8
0
 62
7
  6
CONTINUOUS
 10
152.0327582009
 20
33.5446195022
 11
151.3770204959
 21
33.5446195022
  0
LINE
  8
0
 62
7
  6
CONTINUOUS
 10
157.4362415869
 20
31.400392081
 11
157.6096790869
 21
31.4649194539
  0
LINE
  8
0
 62
7
  6
CONTINUOUS
 10
159.4596793074
 20
31.4326557675
 11
159.575304528
 21
31.4649194539
  0
LINE
  8
0
 62
7
  6
CONTINUOUS
 10
159.4596793074
 20
31.5939741996
 11
159.228429528
 21
31.5294468267
  0
LINE
  8
0
 62
7
  6
CONTINUOUS
 10
155.1815540869
 20
30.7873819712
 11
154.8924916972
 21
30.7228545871
  0
LINE
  8
0
 62
7
  6
CONTINUOUS
 10
152.4643666972
 20
31.4649194539
 11
152.6956168074
 21
31.4971831403
  0
LINE
  8
0
 62
7
  6
CONTINUOUS
 10
152.6956168074
 20
31.626237886
 11
152.4643666972
 21
31.5939741996
  0
LINE
  8
0
 62
7
  6
CONTINUOUS
 10
150.2674918074
 20
31.4649194539
 11
150.498741835
 21
31.4971831403
  0
LINE
  8
0
 62
7
  6
CONTINUOUS
 10
156.7868565615
 20
35.0200293383
 11
157.4425942664
 21
35.0200293383
  0
LINE
  8
0
 62
7
  6
CONTINUOUS
 10
154.4299918074
 20
31.0777551716
 11
154.5456166972
 21
31.1100188581
  0
LINE
  8
0
 62
7
  6
CONTINUOUS
 10
154.4299918074
 20
31.2390736489
 11
154.1987416972
 21
31.1745462761
  0
LINE
  8
0
 62
7
  6
CONTINUOUS
 10
154.3143669177
 20
31.4326557675
 11
154.4299918074
 21
31.4649194539
  0
LINE
  8
0
 62
7
  6
CONTINUOUS
 10
150.9612418074
 20
30.6260635193
 11
151.1924917523
 21
30.6905909007
  0
LINE
  8
0
 62
7
  6
CONTINUOUS
 10
154.2565543074
 20
31.5939741996
 11
154.1409294177
 21
31.5617105132
  0
LINE
  8
0
 62
7
  6
CONTINUOUS
 10
150.2096793212
 20
31.5939741996
 11
150.0362418212
 21
31.5617105132
  0
LINE
  8
0
 62
7
  6
CONTINUOUS
 10
160.9671844304
 20
36.1675703219
 11
159.5737418074
 21
36.1675703219
  0
LINE
  8
0
 62
7
  6
CONTINUOUS
 10
157.6065286927
 20
36.1675703219
 11
157.1939573441
 21
36.1675703219
  0
LINE
  8
0
 62
7
  6
CONTINUOUS
 10
155.9671844304
 20
36.1675703219
 11
154.5737418074
 21
36.1675703219
  0
LINE
  8
0
 62
7
  6
CONTINUOUS
 10
154.245872955
 20
36.1675703219
 11
152.852430332
 21
36.1675703219
  0
LINE
  8
0
 62
7
  6
CONTINUOUS
 10
150.9671844304
 20
36.1675703219
 11
149.5737418074
 21
36.1675703219
  0
LINE
  8
0
 62
7
  6
CONTINUOUS
 10
150.1518667936
 20
31.4326557675
 11
150.2674918074
 21
31.4649194539
  0
CIRCLE
  8
0
 62
7
  6
CONTINUOUS
 10
160.2704631189
 20
38.5036358957
 40
2.0901639344
  0
ARC
  8
0
 62
7
  6
CONTINUOUS
 10
151.2130860697
 20
34.0364227809
 40
1.6393442623
 50
180.0
 51
270.0
  0
ARC
  8
0
 62
7
  6
CONTINUOUS
 10
157.6065286927
 20
34.5282260596
 40
1.6393442623
 50
0.0
 51
90.0
  0
ARC
  8
0
 62
7
  6
CONTINUOUS
 10
151.6256574183
 20
33.8724883547
 40
1.4754098361
 50
270.0
 51
326.2510114041
  0
ARC
  8
0
 62
7
  6
CONTINUOUS
 10
157.1939573441
 20
34.6921604858
 40
1.4754098361
 50
90.0
 51
146.2510114041
  0
ARC
  8
0
 62
7
  6
CONTINUOUS
 10
152.0327582009
 20
34.3642916334
 40
0.8196721311
 50
270.0
 51
360.0
  0
ARC
  8
0
 62
7
  6
CONTINUOUS
 10
156.7868565615
 20
34.2003572071
 40
0.8196721311
 50
90.0
 51
180.0
  0
ARC
  8
0
 62
7
  6
CONTINUOUS
 10
151.3770204959
 20
33.9544555678
 40
0.4098360656
 50
180.0
 51
270.0
  0
ARC
  8
0
 62
7
  6
CONTINUOUS
 10
157.4425942664
 20
34.6101932727
 40
0.4098360656
 50
0.0
 51
90.0
  0
SOLID
  8
0
 62
7
  6
CONTINUOUS
 10
156.279992028
 20
31.9488752009
 11
156.279992028
 21
32.1101936845
 12
156.5690540869
 22
31.9488752009
 13
156.5690540869
 23
32.1101936845
  0
SOLID
  8
0
 62
7
  6
CONTINUOUS
 10
150.5565542799
 20
31.6262382337
 11
150.9612418074
 21
31.5939740028
 12
150.2096793212
 22
31.5939740028
 13
150.2096793212
 23
31.5939740028
  0
SOLID
  8
0
 62
7
  6
CONTINUOUS
 10
150.0362418212
 20
31.5617111435
 11
150.2096793212
 21
31.5939740028
 12
150.9612418074
 22
31.5939740028
 13
150.9612418074
 23
31.5939740028
  0
SOLID
  8
0
 62
7
  6
CONTINUOUS
 10
150.9612418074
 20
31.5939740028
 11
151.1924917523
 21
31.5294468402
 12
150.0362418212
 22
31.5617111435
 13
150.0362418212
 23
31.5617111435
  0
SOLID
  8
0
 62
7
  6
CONTINUOUS
 10
149.8628043005
 20
31.49718259
 11
150.0362418212
 21
31.5617111435
 12
151.1924917523
 22
31.5294468402
 13
151.1924917523
 23
31.5294468402
  0
SOLID
  8
0
 62
7
  6
CONTINUOUS
 10
149.8628043005
 20
31.49718259
 11
151.1924917523
 21
31.5294468402
 12
150.498741835
 22
31.49718259
 13
150.498741835
 23
31.49718259
  0
SOLID
  8
0
 62
7
  6
CONTINUOUS
 10
150.498741835
 20
31.49718259
 11
151.1924917523
 21
31.5294468402
 12
150.9034292799
 22
31.4649197501
 13
150.9034292799
 23
31.4649197501
  0
SOLID
  8
0
 62
7
  6
CONTINUOUS
 10
151.1924917523
 20
31.5294468402
 11
151.3659292523
 21
31.4326554468
 12
150.9034292799
 22
31.4649197501
 13
150.9034292799
 23
31.4649197501
  0
SOLID
  8
0
 62
7
  6
CONTINUOUS
 10
151.0768668626
 20
31.4003926599
 11
150.9034292799
 21
31.4649197501
 12
151.3659292523
 22
31.4326554468
 13
151.3659292523
 23
31.4326554468
  0
SOLID
  8
0
 62
7
  6
CONTINUOUS
 10
151.0768668626
 20
31.4003926599
 11
151.3659292523
 21
31.4326554468
 12
151.1346793074
 22
31.3036013776
 13
151.1346793074
 23
31.3036013776
  0
SOLID
  8
0
 62
7
  6
CONTINUOUS
 10
151.3659292523
 20
31.4326554468
 11
151.4237418626
 21
31.3036013776
 12
151.1346793074
 22
31.3036013776
 13
151.1346793074
 23
31.3036013776
  0
SOLID
  8
0
 62
7
  6
CONTINUOUS
 10
152.4643666972
 20
31.5939739754
 11
152.6956168074
 21
31.6262382787
 12
152.9268669177
 22
31.6262382787
 13
152.9268669177
 23
31.6262382787
  0
SOLID
  8
0
 62
7
  6
CONTINUOUS
 10
152.9268669177
 20
31.6262382787
 11
153.1003044177
 21
31.5939739754
 12
152.4643666972
 22
31.5939739754
 13
152.4643666972
 23
31.5939739754
  0
SOLID
  8
0
 62
7
  6
CONTINUOUS
 10
152.2909293626
 20
31.5294468852
 11
152.4643666972
 21
31.5939739754
 12
153.1003044177
 22
31.5939739754
 13
153.1003044177
 23
31.5939739754
  0
SOLID
  8
0
 62
7
  6
CONTINUOUS
 10
153.1003044177
 20
31.5939739754
 11
153.2737419177
 21
31.5294468852
 12
152.2909293626
 22
31.5294468852
 13
152.2909293626
 23
31.5294468852
  0
SOLID
  8
0
 62
7
  6
CONTINUOUS
 10
153.2737419177
 20
31.5294468852
 11
152.6956168074
 21
31.4971825369
 12
152.2909293626
 22
31.5294468852
 13
152.2909293626
 23
31.5294468852
  0
SOLID
  8
0
 62
7
  6
CONTINUOUS
 10
152.1753043074
 20
31.4649197951
 11
152.2909293626
 21
31.5294468852
 12
152.6956168074
 22
31.4971825369
 13
152.6956168074
 23
31.4971825369
  0
SOLID
  8
0
 62
7
  6
CONTINUOUS
 10
152.6956168074
 20
31.4971825369
 11
152.4643666972
 21
31.4649197951
 12
152.1753043074
 22
31.4649197951
 13
152.1753043074
 23
31.4649197951
  0
SOLID
  8
0
 62
7
  6
CONTINUOUS
 10
152.6956168074
 20
31.4971825369
 11
153.2737419177
 21
31.5294468852
 12
152.9268669177
 22
31.4649197951
 13
152.9268669177
 23
31.4649197951
  0
SOLID
  8
0
 62
7
  6
CONTINUOUS
 10
153.2737419177
 20
31.5294468852
 11
153.3893668074
 21
31.4649197951
 12
152.9268669177
 22
31.4649197951
 13
152.9268669177
 23
31.4649197951
  0
SOLID
  8
0
 62
7
  6
CONTINUOUS
 10
153.0424918074
 20
31.4326554468
 11
152.9268669177
 21
31.4649197951
 12
153.3893668074
 22
31.4649197951
 13
153.3893668074
 23
31.4649197951
  0
SOLID
  8
0
 62
7
  6
CONTINUOUS
 10
153.3893668074
 20
31.4649197951
 11
153.4471794177
 21
31.4003927049
 12
153.0424918074
 22
31.4326554468
 13
153.0424918074
 23
31.4326554468
  0
SOLID
  8
0
 62
7
  6
CONTINUOUS
 10
153.1581166972
 20
31.3681283566
 11
153.0424918074
 21
31.4326554468
 12
153.4471794177
 22
31.4003927049
 13
153.4471794177
 23
31.4003927049
  0
SOLID
  8
0
 62
7
  6
CONTINUOUS
 10
153.1581166972
 20
31.3681283566
 11
153.4471794177
 21
31.4003927049
 12
153.2159293074
 22
31.2390742213
 13
153.2159293074
 23
31.2390742213
  0
SOLID
  8
0
 62
7
  6
CONTINUOUS
 10
153.4471794177
 20
31.4003927049
 11
153.5049916972
 21
31.2390742213
 12
153.2159293074
 22
31.2390742213
 13
153.2159293074
 23
31.2390742213
  0
SOLID
  8
0
 62
7
  6
CONTINUOUS
 10
152.4643666972
 20
31.4649197951
 11
152.2909293626
 21
31.4003927049
 12
152.1753043074
 22
31.4649197951
 13
152.1753043074
 23
31.4649197951
  0
SOLID
  8
0
 62
7
  6
CONTINUOUS
 10
152.2909293626
 20
31.4003927049
 11
152.1753043074
 21
31.3358640533
 12
152.1753043074
 22
31.4649197951
 13
152.1753043074
 23
31.4649197951
  0
SOLID
  8
0
 62
7
  6
CONTINUOUS
 10
152.1753043074
 20
31.3358640533
 11
151.8862417523
 21
30.5938002869
 12
152.1753043074
 22
31.4649197951
 13
152.1753043074
 23
31.4649197951
  0
SOLID
  8
0
 62
7
  6
CONTINUOUS
 10
152.1753043074
 20
31.4649197951
 11
151.8862417523
 21
30.5938002869
 12
152.1753043074
 22
32.1101937295
 13
152.1753043074
 23
32.1101937295
  0
SOLID
  8
0
 62
7
  6
CONTINUOUS
 10
151.8862417523
 20
30.5938002869
 11
151.8862417523
 21
32.1101937295
 12
152.1753043074
 22
32.1101937295
 13
152.1753043074
 23
32.1101937295
  0
SOLID
  8
0
 62
7
  6
CONTINUOUS
 10
152.1753043074
 20
31.3358640533
 11
152.1753043074
 21
30.5938002869
 12
151.8862417523
 22
30.5938002869
 13
151.8862417523
 23
30.5938002869
  0
SOLID
  8
0
 62
7
  6
CONTINUOUS
 10
153.2159293074
 20
30.5938002869
 11
153.2159293074
 21
31.2390742213
 12
153.5049916972
 22
31.2390742213
 13
153.5049916972
 23
31.2390742213
  0
SOLID
  8
0
 62
7
  6
CONTINUOUS
 10
153.5049916972
 20
31.2390742213
 11
153.5049916972
 21
30.5938002869
 12
153.2159293074
 22
30.5938002869
 13
153.2159293074
 23
30.5938002869
  0
SOLID
  8
0
 62
7
  6
CONTINUOUS
 10
154.2565543074
 20
31.5939738288
 11
154.6612419177
 21
31.6262385959
 12
155.0081169177
 22
31.6262385959
 13
155.0081169177
 23
31.6262385959
  0
SOLID
  8
0
 62
7
  6
CONTINUOUS
 10
155.0081169177
 20
31.6262385959
 11
155.3549915869
 21
31.5939738288
 12
154.2565543074
 22
31.5939738288
 13
154.2565543074
 23
31.5939738288
  0
SOLID
  8
0
 62
7
  6
CONTINUOUS
 10
154.1409294177
 20
31.5617111435
 11
154.2565543074
 21
31.5939738288
 12
155.3549915869
 22
31.5939738288
 13
155.3549915869
 23
31.5939738288
  0
SOLID
  8
0
 62
7
  6
CONTINUOUS
 10
155.3549915869
 20
31.5939738288
 11
155.5284290869
 21
31.5294468402
 12
154.1409294177
 22
31.5617111435
 13
154.1409294177
 23
31.5617111435
  0
SOLID
  8
0
 62
7
  6
CONTINUOUS
 10
154.0253041972
 20
31.4971826249
 11
154.1409294177
 21
31.5617111435
 12
155.5284290869
 22
31.5294468402
 13
155.5284290869
 23
31.5294468402
  0
SOLID
  8
0
 62
7
  6
CONTINUOUS
 10
154.0253041972
 20
31.4971826249
 11
155.5284290869
 21
31.5294468402
 12
154.6612419177
 22
31.4971826249
 13
154.6612419177
 23
31.4971826249
  0
SOLID
  8
0
 62
7
  6
CONTINUOUS
 10
154.6612419177
 20
31.4971826249
 11
155.5284290869
 21
31.5294468402
 12
155.0081169177
 22
31.4971826249
 13
155.0081169177
 23
31.4971826249
  0
SOLID
  8
0
 62
7
  6
CONTINUOUS
 10
155.0081169177
 20
31.4971826249
 11
155.5284290869
 21
31.5294468402
 12
155.239367028
 22
31.4649194065
 13
155.239367028
 23
31.4649194065
  0
SOLID
  8
0
 62
7
  6
CONTINUOUS
 10
155.5284290869
 20
31.5294468402
 11
155.6440543074
 21
31.4649194065
 12
155.239367028
 22
31.4649194065
 13
155.239367028
 23
31.4649194065
  0
SOLID
  8
0
 62
7
  6
CONTINUOUS
 10
153.9674919177
 20
31.4326554138
 11
154.0253041972
 21
31.4971826249
 12
154.6612419177
 22
31.4971826249
 13
154.6612419177
 23
31.4971826249
  0
SOLID
  8
0
 62
7
  6
CONTINUOUS
 10
155.3549915869
 20
31.4326554138
 11
155.239367028
 21
31.4649194065
 12
155.6440543074
 22
31.4649194065
 13
155.6440543074
 23
31.4649194065
  0
SOLID
  8
0
 62
7
  6
CONTINUOUS
 10
155.3549915869
 20
31.4326554138
 11
155.6440543074
 21
31.4649194065
 12
155.412804528
 22
31.3681282026
 13
155.412804528
 23
31.3681282026
  0
SOLID
  8
0
 62
7
  6
CONTINUOUS
 10
155.6440543074
 20
31.4649194065
 11
155.7018665869
 21
31.3681282026
 12
155.412804528
 22
31.3681282026
 13
155.412804528
 23
31.3681282026
  0
SOLID
  8
0
 62
7
  6
CONTINUOUS
 10
155.412804528
 20
31.2713369632
 11
155.412804528
 21
31.3681282026
 12
155.7018665869
 22
31.3681282026
 13
155.7018665869
 23
31.3681282026
  0
SOLID
  8
0
 62
7
  6
CONTINUOUS
 10
155.412804528
 20
31.2713369632
 11
155.7018665869
 21
31.3681282026
 12
155.412804528
 22
31.1422827828
 13
155.412804528
 23
31.1422827828
  0
SOLID
  8
0
 62
7
  6
CONTINUOUS
 10
155.412804528
 20
31.1422827828
 11
155.7018665869
 21
31.3681282026
 12
155.412804528
 22
30.9487004259
 13
155.412804528
 23
30.9487004259
  0
SOLID
  8
0
 62
7
  6
CONTINUOUS
 10
155.7018665869
 20
31.3681282026
 11
155.7018665869
 21
30.8519086025
 12
155.412804528
 22
30.9487004259
 13
155.412804528
 23
30.9487004259
  0
SOLID
  8
0
 62
7
  6
CONTINUOUS
 10
157.6096790869
 20
31.5939736268
 11
157.840929528
 21
31.6262383465
 12
158.0721793074
 22
31.6262383465
 13
158.0721793074
 23
31.6262383465
  0
SOLID
  8
0
 62
7
  6
CONTINUOUS
 10
158.0721793074
 20
31.6262383465
 11
158.2456168074
 21
31.5939736268
 12
157.6096790869
 22
31.5939736268
 13
157.6096790869
 23
31.5939736268
  0
SOLID
  8
0
 62
7
  6
CONTINUOUS
 10
157.4362415869
 20
31.5294472848
 11
157.6096790869
 21
31.5939736268
 12
158.2456168074
 22
31.5939736268
 13
158.2456168074
 23
31.5939736268
  0
SOLID
  8
0
 62
7
  6
CONTINUOUS
 10
158.2456168074
 20
31.5939736268
 11
158.4190543074
 21
31.5294472848
 12
157.4362415869
 22
31.5294472848
 13
157.4362415869
 23
31.5294472848
  0
SOLID
  8
0
 62
7
  6
CONTINUOUS
 10
158.4190543074
 20
31.5294472848
 11
157.840929528
 21
31.4971825369
 12
157.4362415869
 22
31.5294472848
 13
157.4362415869
 23
31.5294472848
  0
SOLID
  8
0
 62
7
  6
CONTINUOUS
 10
157.320617028
 20
31.4649199103
 11
157.4362415869
 21
31.5294472848
 12
157.840929528
 22
31.4971825369
 13
157.840929528
 23
31.4971825369
  0
SOLID
  8
0
 62
7
  6
CONTINUOUS
 10
157.840929528
 20
31.4971825369
 11
157.6096790869
 21
31.4649199103
 12
157.320617028
 22
31.4649199103
 13
157.320617028
 23
31.4649199103
  0
SOLID
  8
0
 62
7
  6
CONTINUOUS
 10
157.840929528
 20
31.4971825369
 11
158.4190543074
 21
31.5294472848
 12
158.0721793074
 22
31.4649199103
 13
158.0721793074
 23
31.4649199103
  0
SOLID
  8
0
 62
7
  6
CONTINUOUS
 10
158.4190543074
 20
31.5294472848
 11
158.534679528
 21
31.4649199103
 12
158.0721793074
 22
31.4649199103
 13
158.0721793074
 23
31.4649199103
  0
SOLID
  8
0
 62
7
  6
CONTINUOUS
 10
158.187804528
 20
31.4326554468
 11
158.0721793074
 21
31.4649199103
 12
158.534679528
 22
31.4649199103
 13
158.534679528
 23
31.4649199103
  0
SOLID
  8
0
 62
7
  6
CONTINUOUS
 10
158.187804528
 20
31.4326554468
 11
158.534679528
 21
31.4649199103
 12
158.3034290869
 22
31.3681288486
 13
158.3034290869
 23
31.3681288486
  0
SOLID
  8
0
 62
7
  6
CONTINUOUS
 10
158.534679528
 20
31.4649199103
 11
158.5924918074
 21
31.3681288486
 12
158.3034290869
 22
31.3681288486
 13
158.3034290869
 23
31.3681288486
  0
SOLID
  8
0
 62
7
  6
CONTINUOUS
 10
158.361242028
 20
31.2068093799
 11
158.3034290869
 21
31.3681288486
 12
158.5924918074
 22
31.3681288486
 13
158.5924918074
 23
31.3681288486
  0
SOLID
  8
0
 62
7
  6
CONTINUOUS
 10
158.5924918074
 20
31.3681288486
 11
158.6503040869
 21
31.2068093799
 12
158.361242028
 22
31.2068093799
 13
158.361242028
 23
31.2068093799
  0
SOLID
  8
0
 62
7
  6
CONTINUOUS
 10
157.6096790869
 20
31.4649199103
 11
157.4362415869
 21
31.4003926599
 12
157.320617028
 22
31.4649199103
 13
157.320617028
 23
31.4649199103
  0
SOLID
  8
0
 62
7
  6
CONTINUOUS
 10
157.4362415869
 20
31.4003926599
 11
157.320617028
 21
31.3358640533
 12
157.320617028
 22
31.4649199103
 13
157.320617028
 23
31.4649199103
  0
SOLID
  8
0
 62
7
  6
CONTINUOUS
 10
157.320617028
 20
31.3358640533
 11
157.0315543074
 21
30.5938003547
 12
157.320617028
 22
31.4649199103
 13
157.320617028
 23
31.4649199103
  0
SOLID
  8
0
 62
7
  6
CONTINUOUS
 10
157.320617028
 20
31.4649199103
 11
157.0315543074
 21
30.5938003547
 12
157.320617028
 22
31.6262383465
 13
157.320617028
 23
31.6262383465
  0
SOLID
  8
0
 62
7
  6
CONTINUOUS
 10
157.0315543074
 20
30.5938003547
 11
157.0315543074
 21
31.6262383465
 12
157.320617028
 22
31.6262383465
 13
157.320617028
 23
31.6262383465
  0
SOLID
  8
0
 62
7
  6
CONTINUOUS
 10
157.320617028
 20
31.3358640533
 11
157.320617028
 21
30.5938003547
 12
157.0315543074
 22
30.5938003547
 13
157.0315543074
 23
30.5938003547
  0
SOLID
  8
0
 62
7
  6
CONTINUOUS
 10
158.361242028
 20
30.5938003547
 11
158.361242028
 21
31.2068093799
 12
158.6503040869
 22
31.2068093799
 13
158.6503040869
 23
31.2068093799
  0
SOLID
  8
0
 62
7
  6
CONTINUOUS
 10
158.6503040869
 20
31.2068093799
 11
158.6503040869
 21
30.5938003547
 12
158.361242028
 22
30.5938003547
 13
158.361242028
 23
30.5938003547
  0
SOLID
  8
0
 62
7
  6
CONTINUOUS
 10
159.4596793074
 20
31.5939739474
 11
159.8065543074
 21
31.6262381969
 12
160.1534293074
 22
31.6262381969
 13
160.1534293074
 23
31.6262381969
  0
SOLID
  8
0
 62
7
  6
CONTINUOUS
 10
160.1534293074
 20
31.6262381969
 11
160.5003043074
 21
31.5939739474
 12
159.4596793074
 22
31.5939739474
 13
159.4596793074
 23
31.5939739474
  0
SOLID
  8
0
 62
7
  6
CONTINUOUS
 10
159.228429528
 20
31.5294468402
 11
159.4596793074
 21
31.5939739474
 12
160.5003043074
 22
31.5939739474
 13
160.5003043074
 23
31.5939739474
  0
SOLID
  8
0
 62
7
  6
CONTINUOUS
 10
159.228429528
 20
31.5294468402
 11
160.5003043074
 21
31.5939739304
 12
160.6737418074
 22
31.5617111435
 13
160.6737418074
 23
31.5617111435
  0
SOLID
  8
0
 62
7
  6
CONTINUOUS
 10
159.228429528
 20
31.5294468402
 11
160.6737418074
 21
31.5617111435
 12
159.8065543074
 22
31.4971825592
 13
159.8065543074
 23
31.4971825592
  0
SOLID
  8
0
 62
7
  6
CONTINUOUS
 10
159.8065543074
 20
31.4971825592
 11
160.6737418074
 21
31.5617111435
 12
160.1534293074
 22
31.4971825592
 13
160.1534293074
 23
31.4971825592
  0
SOLID
  8
0
 62
7
  6
CONTINUOUS
 10
160.6737418074
 20
31.5617111435
 11
160.8471793074
 21
31.4971825592
 12
160.1534293074
 22
31.4971825592
 13
160.1534293074
 23
31.4971825592
  0
SOLID
  8
0
 62
7
  6
CONTINUOUS
 10
160.5003043074
 20
31.4649197501
 11
160.1534293074
 21
31.4971825592
 12
160.8471793074
 22
31.4971825592
 13
160.8471793074
 23
31.4971825592
  0
SOLID
  8
0
 62
7
  6
CONTINUOUS
 10
159.1128043074
 20
31.4326555427
 11
159.228429528
 21
31.5294468402
 12
159.8065543074
 22
31.4971825592
 13
159.8065543074
 23
31.4971825592
  0
SOLID
  8
0
 62
7
  6
CONTINUOUS
 10
160.5003043074
 20
31.4649197501
 11
160.8471793074
 21
31.4971825592
 12
160.615929528
 22
31.4326555427
 13
160.615929528
 23
31.4326555427
  0
SOLID
  8
0
 62
7
  6
CONTINUOUS
 10
160.615929528
 20
31.4326555427
 11
160.8471793074
 21
31.4971825592
 12
160.6737418074
 22
31.3681283005
 13
160.6737418074
 23
31.3681283005
  0
SOLID
  8
0
 62
7
  6
CONTINUOUS
 10
160.8471793074
 20
31.4971825592
 11
160.9628038663
 21
31.3681283005
 12
160.6737418074
 22
31.3681283005
 13
160.6737418074
 23
31.3681283005
  0
SOLID
  8
0
 62
7
  6
CONTINUOUS
 10
150.2674918074
 20
31.4649197501
 11
149.7471793074
 21
31.4326554237
 12
150.498741835
 22
31.4971824493
 13
150.498741835
 23
31.4971824493
  0
SOLID
  8
0
 62
7
  6
CONTINUOUS
 10
149.7471793074
 20
31.4326554237
 11
149.8628043005
 21
31.4971824493
 12
150.498741835
 22
31.4971824493
 13
150.498741835
 23
31.4971824493
  0
SOLID
  8
0
 62
7
  6
CONTINUOUS
 10
150.2674918074
 20
31.4649197501
 11
150.1518667936
 21
31.4326554237
 12
149.7471793074
 22
31.4326554237
 13
149.7471793074
 23
31.4326554237
  0
SOLID
  8
0
 62
7
  6
CONTINUOUS
 10
149.6315543091
 20
31.3036012664
 11
149.7471793074
 21
31.4326554237
 12
150.1518667936
 22
31.4326554237
 13
150.1518667936
 23
31.4326554237
  0
SOLID
  8
0
 62
7
  6
CONTINUOUS
 10
153.9674919177
 20
31.4326554237
 11
154.6612419177
 21
31.4971825369
 12
154.4299918074
 22
31.4649197501
 13
154.4299918074
 23
31.4649197501
  0
SOLID
  8
0
 62
7
  6
CONTINUOUS
 10
154.4299918074
 20
31.4649197501
 11
154.3143669177
 21
31.4326554237
 12
153.9674919177
 22
31.4326554237
 13
153.9674919177
 23
31.4326554237
  0
SOLID
  8
0
 62
7
  6
CONTINUOUS
 10
153.9674919177
 20
31.3681283335
 11
153.9674919177
 21
31.4326554237
 12
154.3143669177
 22
31.4326554237
 13
154.3143669177
 23
31.4326554237
  0
SOLID
  8
0
 62
7
  6
CONTINUOUS
 10
154.3143669177
 20
31.4326554237
 11
154.2565543074
 21
31.3681283335
 12
153.9674919177
 22
31.3681283335
 13
153.9674919177
 23
31.3681283335
  0
SOLID
  8
0
 62
7
  6
CONTINUOUS
 10
159.1128043074
 20
31.4326555528
 11
159.8065543074
 21
31.4971825369
 12
159.575304528
 22
31.4649197501
 13
159.575304528
 23
31.4649197501
  0
SOLID
  8
0
 62
7
  6
CONTINUOUS
 10
159.575304528
 20
31.4649197501
 11
159.4596793074
 21
31.4326555528
 12
159.1128043074
 22
31.4326555528
 13
159.1128043074
 23
31.4326555528
  0
SOLID
  8
0
 62
7
  6
CONTINUOUS
 10
159.1128043074
 20
31.3681284626
 11
159.1128043074
 21
31.4326555528
 12
159.4596793074
 22
31.4326555528
 13
159.4596793074
 23
31.4326555528
  0
SOLID
  8
0
 62
7
  6
CONTINUOUS
 10
159.4596793074
 20
31.4326555528
 11
159.401867028
 21
31.3681284626
 12
159.1128043074
 22
31.3681284626
 13
159.1128043074
 23
31.3681284626
  0
SOLID
  8
0
 62
7
  6
CONTINUOUS
 10
159.228429528
 20
31.2390741763
 11
159.1128043074
 21
31.3681284626
 12
159.401867028
 22
31.3681284626
 13
159.401867028
 23
31.3681284626
  0
SOLID
  8
0
 62
7
  6
CONTINUOUS
 10
149.6315543091
 20
31.3036012664
 11
150.1518667936
 21
31.4326554468
 12
149.9784292936
 22
31.3358640533
 13
149.9784292936
 23
31.3358640533
  0
SOLID
  8
0
 62
7
  6
CONTINUOUS
 10
149.9784292936
 20
31.3358640533
 11
149.9206168074
 21
31.2713369632
 12
149.6315543091
 22
31.3036012664
 13
149.6315543091
 23
31.3036012664
  0
SOLID
  8
0
 62
7
  6
CONTINUOUS
 10
149.5737418074
 20
31.1100184796
 11
149.6315543091
 21
31.3036012664
 12
149.9206168074
 22
31.2713369632
 13
149.9206168074
 23
31.2713369632
  0
SOLID
  8
0
 62
7
  6
CONTINUOUS
 10
154.4299918074
 20
31.2390741763
 11
154.7768668074
 21
31.271336924
 12
155.412804528
 22
31.271336924
 13
155.412804528
 23
31.271336924
  0
SOLID
  8
0
 62
7
  6
CONTINUOUS
 10
154.4299918074
 20
31.2390741763
 11
155.412804528
 21
31.271336924
 12
154.1987416972
 22
31.1745462761
 13
154.1987416972
 23
31.1745462761
  0
SOLID
  8
0
 62
7
  6
CONTINUOUS
 10
154.1987416972
 20
31.1745462761
 11
155.412804528
 21
31.271336924
 12
154.7768668074
 22
31.1422827436
 13
154.7768668074
 23
31.1422827436
  0
SOLID
  8
0
 62
7
  6
CONTINUOUS
 10
155.412804528
 20
31.271336924
 11
155.412804528
 21
31.1422827436
 12
154.7768668074
 22
31.1422827436
 13
154.7768668074
 23
31.1422827436
  0
SOLID
  8
0
 62
7
  6
CONTINUOUS
 10
159.228429528
 20
31.2390745501
 11
159.401867028
 21
31.3681283566
 12
159.4596793074
 22
31.3036012664
 13
159.4596793074
 23
31.3036012664
  0
SOLID
  8
0
 62
7
  6
CONTINUOUS
 10
159.4596793074
 20
31.3036012664
 11
159.6331168074
 21
31.2390745501
 12
159.228429528
 22
31.2390745501
 13
159.228429528
 23
31.2390745501
  0
SOLID
  8
0
 62
7
  6
CONTINUOUS
 10
159.4596793074
 20
31.1422827828
 11
159.228429528
 21
31.2390745501
 12
159.6331168074
 22
31.2390745501
 13
159.6331168074
 23
31.2390745501
  0
SOLID
  8
0
 62
7
  6
CONTINUOUS
 10
159.6331168074
 20
31.2390745501
 11
160.615929528
 21
31.0777556927
 12
159.4596793074
 22
31.1422827828
 13
159.4596793074
 23
31.1422827828
  0
SOLID
  8
0
 62
7
  6
CONTINUOUS
 10
160.442492028
 20
30.9809646623
 11
159.4596793074
 21
31.1422827828
 12
160.615929528
 22
31.0777556927
 13
160.615929528
 23
31.0777556927
  0
SOLID
  8
0
 62
7
  6
CONTINUOUS
 10
160.615929528
 20
31.0777556927
 11
160.8471793074
 21
30.9809646623
 12
160.442492028
 22
30.9809646623
 13
160.442492028
 23
30.9809646623
  0
SOLID
  8
0
 62
7
  6
CONTINUOUS
 10
160.615929528
 20
30.9164372091
 11
160.442492028
 21
30.9809646623
 12
160.8471793074
 22
30.9809646623
 13
160.8471793074
 23
30.9809646623
  0
SOLID
  8
0
 62
7
  6
CONTINUOUS
 10
160.615929528
 20
30.9164372091
 11
160.8471793074
 21
30.9809646623
 12
160.6737418074
 22
30.8519089441
 13
160.6737418074
 23
30.8519089441
  0
SOLID
  8
0
 62
7
  6
CONTINUOUS
 10
160.8471793074
 20
30.9809646623
 11
160.9628038663
 21
30.8519089441
 12
160.6737418074
 22
30.8519089441
 13
160.6737418074
 23
30.8519089441
  0
SOLID
  8
0
 62
7
  6
CONTINUOUS
 10
160.615929528
 20
30.7873818593
 11
160.6737418074
 21
30.8519089441
 12
160.9628038663
 22
30.8519089441
 13
160.9628038663
 23
30.8519089441
  0
SOLID
  8
0
 62
7
  6
CONTINUOUS
 10
160.9628038663
 20
30.8519089441
 11
160.9628038663
 21
30.7873818593
 12
160.615929528
 22
30.7873818593
 13
160.615929528
 23
30.7873818593
  0
SOLID
  8
0
 62
7
  6
CONTINUOUS
 10
160.5003043074
 20
30.7551187255
 11
160.615929528
 21
30.7873818593
 12
160.9628038663
 22
30.7873818593
 13
160.9628038663
 23
30.7873818593
  0
SOLID
  8
0
 62
7
  6
CONTINUOUS
 10
160.5003043074
 20
30.7551187255
 11
160.9628038663
 21
30.7873818593
 12
160.269054528
 22
30.7228547745
 13
160.269054528
 23
30.7228547745
  0
SOLID
  8
0
 62
7
  6
CONTINUOUS
 10
160.9628038663
 20
30.7873818593
 11
160.8471793074
 21
30.6905916353
 12
160.269054528
 22
30.7228547745
 13
160.269054528
 23
30.7228547745
  0
SOLID
  8
0
 62
7
  6
CONTINUOUS
 10
160.8471793074
 20
30.6905916353
 11
159.401867028
 21
30.658327332
 12
160.269054528
 22
30.7228547745
 13
160.269054528
 23
30.7228547745
  0
SOLID
  8
0
 62
7
  6
CONTINUOUS
 10
160.269054528
 20
30.7228547745
 11
159.401867028
 21
30.658327332
 12
159.922179528
 22
30.7228547745
 13
159.922179528
 23
30.7228547745
  0
SOLID
  8
0
 62
7
  6
CONTINUOUS
 10
159.401867028
 20
30.658327332
 11
159.228429528
 21
30.7228547745
 12
159.922179528
 22
30.7228547745
 13
159.922179528
 23
30.7228547745
  0
SOLID
  8
0
 62
7
  6
CONTINUOUS
 10
159.401867028
 20
30.658327332
 11
160.8471793074
 21
30.6905916353
 12
159.575304528
 22
30.6260629858
 13
159.575304528
 23
30.6260629858
  0
SOLID
  8
0
 62
7
  6
CONTINUOUS
 10
160.8471793074
 20
30.6905916353
 11
160.615929528
 21
30.6260629858
 12
159.575304528
 22
30.6260629858
 13
159.575304528
 23
30.6260629858
  0
SOLID
  8
0
 62
7
  6
CONTINUOUS
 10
159.922179528
 20
30.5938006049
 11
159.575304528
 21
30.6260629858
 12
160.615929528
 22
30.6260629858
 13
160.615929528
 23
30.6260629858
  0
SOLID
  8
0
 62
7
  6
CONTINUOUS
 10
160.615929528
 20
30.6260629858
 11
160.269054528
 21
30.5938006049
 12
159.922179528
 22
30.5938006049
 13
159.922179528
 23
30.5938006049
  0
SOLID
  8
0
 62
7
  6
CONTINUOUS
 10
149.5737418074
 20
31.1100184796
 11
149.9206168074
 21
31.2713369632
 12
149.8628043005
 22
31.1422827828
 13
149.8628043005
 23
31.1422827828
  0
SOLID
  8
0
 62
7
  6
CONTINUOUS
 10
149.8628043005
 20
31.1422827828
 11
149.8628043005
 21
31.0454914852
 12
149.5737418074
 22
31.1100184796
 13
149.5737418074
 23
31.1100184796
  0
SOLID
  8
0
 62
7
  6
CONTINUOUS
 10
149.6315543091
 20
30.9164372091
 11
149.5737418074
 21
31.1100184796
 12
149.8628043005
 22
31.0454914852
 13
149.8628043005
 23
31.0454914852
  0
SOLID
  8
0
 62
7
  6
CONTINUOUS
 10
149.8628043005
 20
31.0454914852
 11
149.9784292936
 21
30.8841729058
 12
149.6315543091
 22
30.9164372091
 13
149.6315543091
 23
30.9164372091
  0
SOLID
  8
0
 62
7
  6
CONTINUOUS
 10
149.7471793074
 20
30.7873813202
 11
149.6315543091
 21
30.9164372091
 12
149.9784292936
 22
30.8841729058
 13
149.9784292936
 23
30.8841729058
  0
SOLID
  8
0
 62
7
  6
CONTINUOUS
 10
149.9784292936
 20
30.8841729058
 11
150.1518667936
 21
30.7873813202
 12
149.7471793074
 22
30.7873813202
 13
149.7471793074
 23
30.7873813202
  0
SOLID
  8
0
 62
7
  6
CONTINUOUS
 10
149.8628043005
 20
30.7228547004
 11
149.7471793074
 21
30.7873813202
 12
150.1518667936
 22
30.7873813202
 13
150.1518667936
 23
30.7873813202
  0
SOLID
  8
0
 62
7
  6
CONTINUOUS
 10
150.1518667936
 20
30.7873813202
 11
150.498741835
 21
30.7228547004
 12
149.8628043005
 22
30.7228547004
 13
149.8628043005
 23
30.7228547004
  0
SOLID
  8
0
 62
7
  6
CONTINUOUS
 10
150.0362418212
 20
30.658327332
 11
149.8628043005
 21
30.7228547004
 12
150.498741835
 22
30.7228547004
 13
150.498741835
 23
30.7228547004
  0
SOLID
  8
0
 62
7
  6
CONTINUOUS
 10
154.0831168074
 20
31.1100184386
 11
154.1987416972
 21
31.1745462761
 12
154.7768668074
 22
31.1422827828
 13
154.7768668074
 23
31.1422827828
  0
SOLID
  8
0
 62
7
  6
CONTINUOUS
 10
154.7768668074
 20
31.1422827828
 11
154.5456166972
 21
31.1100184386
 12
154.0831168074
 22
31.1100184386
 13
154.0831168074
 23
31.1100184386
  0
SOLID
  8
0
 62
7
  6
CONTINUOUS
 10
153.9674919177
 20
30.9809642992
 11
154.0831168074
 21
31.1100184386
 12
154.5456166972
 22
31.1100184386
 13
154.5456166972
 23
31.1100184386
  0
SOLID
  8
0
 62
7
  6
CONTINUOUS
 10
154.3143669177
 20
31.0132277988
 11
153.9674919177
 21
30.9809642992
 12
154.4299918074
 22
31.0777556927
 13
154.4299918074
 23
31.0777556927
  0
SOLID
  8
0
 62
7
  6
CONTINUOUS
 10
153.9674919177
 20
30.9809642992
 11
154.5456166972
 21
31.1100184796
 12
154.4299918074
 22
31.0777556927
 13
154.4299918074
 23
31.0777556927
  0
SOLID
  8
0
 62
7
  6
CONTINUOUS
 10
154.3143669177
 20
31.0132277988
 11
154.2565543074
 21
30.9164372091
 12
153.9674919177
 22
30.9809642992
 13
153.9674919177
 23
30.9809642992
  0
SOLID
  8
0
 62
7
  6
CONTINUOUS
 10
153.9674919177
 20
30.8841729058
 11
153.9674919177
 21
30.9809642992
 12
154.2565543074
 22
30.9164372091
 13
154.2565543074
 23
30.9164372091
  0
SOLID
  8
0
 62
7
  6
CONTINUOUS
 10
154.2565543074
 20
30.9164372091
 11
154.2565543074
 21
30.8519086025
 12
153.9674919177
 22
30.8841729058
 13
153.9674919177
 23
30.8841729058
  0
SOLID
  8
0
 62
7
  6
CONTINUOUS
 10
154.0253041972
 20
30.7551187255
 11
153.9674919177
 21
30.8841729058
 12
154.2565543074
 22
30.8519086025
 13
154.2565543074
 23
30.8519086025
  0
SOLID
  8
0
 62
7
  6
CONTINUOUS
 10
155.412804528
 20
30.9487004259
 11
155.7018665869
 21
30.8519086025
 12
155.3549915869
 22
30.8841729058
 13
155.3549915869
 23
30.8841729058
  0
SOLID
  8
0
 62
7
  6
CONTINUOUS
 10
155.1815540869
 20
30.7873815123
 11
155.3549915869
 21
30.8841729058
 12
155.7018665869
 22
30.8519086025
 13
155.7018665869
 23
30.8519086025
  0
SOLID
  8
0
 62
7
  6
CONTINUOUS
 10
155.1815540869
 20
30.7873815123
 11
155.7018665869
 21
30.8519086025
 12
155.412804528
 22
30.7551187255
 13
155.412804528
 23
30.7551187255
  0
SOLID
  8
0
 62
7
  6
CONTINUOUS
 10
155.7018665869
 20
30.8519086025
 11
155.759679528
 21
30.6905916353
 12
155.412804528
 22
30.7551187255
 13
155.412804528
 23
30.7551187255
  0
SOLID
  8
0
 62
7
  6
CONTINUOUS
 10
155.4706168074
 20
30.658327332
 11
155.412804528
 21
30.7551187255
 12
155.759679528
 22
30.6905916353
 13
155.759679528
 23
30.6905916353
  0
SOLID
  8
0
 62
7
  6
CONTINUOUS
 10
155.4706168074
 20
30.658327332
 11
155.759679528
 21
30.6905916353
 12
155.5284290869
 22
30.5938002079
 13
155.5284290869
 23
30.5938002079
  0
SOLID
  8
0
 62
7
  6
CONTINUOUS
 10
155.759679528
 20
30.6905916353
 11
155.8174918074
 21
30.5938002079
 12
155.5284290869
 22
30.5938002079
 13
155.5284290869
 23
30.5938002079
  0
SOLID
  8
0
 62
7
  6
CONTINUOUS
 10
151.0768668626
 20
30.8196456577
 11
151.1346793074
 21
30.9164373395
 12
151.4237418626
 22
30.9164373395
 13
151.4237418626
 23
30.9164373395
  0
SOLID
  8
0
 62
7
  6
CONTINUOUS
 10
151.4237418626
 20
30.9164373395
 11
151.3659292523
 21
30.7873815123
 12
151.0768668626
 22
30.8196456577
 13
151.0768668626
 23
30.8196456577
  0
SOLID
  8
0
 62
7
  6
CONTINUOUS
 10
150.9034292799
 20
30.7551187255
 11
151.0768668626
 21
30.8196456577
 12
151.3659292523
 22
30.7873815123
 13
151.3659292523
 23
30.7873815123
  0
SOLID
  8
0
 62
7
  6
CONTINUOUS
 10
150.9034292799
 20
30.7551187255
 11
151.3659292523
 21
30.7873815123
 12
150.498741835
 22
30.7228544222
 13
150.498741835
 23
30.7228544222
  0
SOLID
  8
0
 62
7
  6
CONTINUOUS
 10
151.3659292523
 20
30.7873815123
 11
151.1924917523
 21
30.6905916353
 12
150.498741835
 22
30.7228544222
 13
150.498741835
 23
30.7228544222
  0
SOLID
  8
0
 62
7
  6
CONTINUOUS
 10
150.0362418212
 20
30.658327332
 11
150.498741835
 21
30.7228544222
 12
151.1924917523
 22
30.6905916353
 13
151.1924917523
 23
30.6905916353
  0
SOLID
  8
0
 62
7
  6
CONTINUOUS
 10
150.0362418212
 20
30.658327332
 11
151.1924917523
 21
30.6905916353
 12
150.2096793212
 22
30.6260631011
 13
150.2096793212
 23
30.6260631011
  0
SOLID
  8
0
 62
7
  6
CONTINUOUS
 10
151.1924917523
 20
30.6905916353
 11
150.9612418074
 21
30.6260631011
 12
150.2096793212
 22
30.6260631011
 13
150.2096793212
 23
30.6260631011
  0
SOLID
  8
0
 62
7
  6
CONTINUOUS
 10
150.5565542799
 20
30.5938002419
 11
150.2096793212
 21
30.6260631011
 12
150.9612418074
 22
30.6260631011
 13
150.9612418074
 23
30.6260631011
  0
SOLID
  8
0
 62
7
  6
CONTINUOUS
 10
154.0253041972
 20
30.7551187255
 11
154.2565543074
 21
30.8519086025
 12
154.3143669177
 22
30.7873815123
 13
154.3143669177
 23
30.7873815123
  0
SOLID
  8
0
 62
7
  6
CONTINUOUS
 10
154.3143669177
 20
30.7873815123
 11
154.5456166972
 21
30.7228544222
 12
154.0253041972
 22
30.7551187255
 13
154.0253041972
 23
30.7551187255
  0
SOLID
  8
0
 62
7
  6
CONTINUOUS
 10
154.1987416972
 20
30.658327332
 11
154.0253041972
 21
30.7551187255
 12
154.5456166972
 22
30.7228544222
 13
154.5456166972
 23
30.7228544222
  0
SOLID
  8
0
 62
7
  6
CONTINUOUS
 10
154.8924916972
 20
30.7228544637
 11
155.1815540869
 21
30.7873815123
 12
155.412804528
 22
30.7551187255
 13
155.412804528
 23
30.7551187255
  0
SOLID
  8
0
 62
7
  6
CONTINUOUS
 10
155.412804528
 20
30.7551187255
 11
155.3549915869
 21
30.6905916353
 12
154.8924916972
 22
30.7228544637
 13
154.8924916972
 23
30.7228544637
  0
SOLID
  8
0
 62
7
  6
CONTINUOUS
 10
155.3549915869
 20
30.6905916353
 11
154.1987416972
 21
30.658327332
 12
154.8924916972
 22
30.7228544637
 13
154.8924916972
 23
30.7228544637
  0
SOLID
  8
0
 62
7
  6
CONTINUOUS
 10
154.1987416972
 20
30.658327332
 11
154.5456166972
 21
30.7228544637
 12
154.8924916972
 22
30.7228544637
 13
154.8924916972
 23
30.7228544637
  0
SOLID
  8
0
 62
7
  6
CONTINUOUS
 10
154.1987416972
 20
30.658327332
 11
155.3549915869
 21
30.6905916353
 12
154.3143669177
 22
30.6260630541
 13
154.3143669177
 23
30.6260630541
  0
SOLID
  8
0
 62
7
  6
CONTINUOUS
 10
155.3549915869
 20
30.6905916353
 11
155.1815540869
 21
30.6260630541
 12
154.3143669177
 22
30.6260630541
 13
154.3143669177
 23
30.6260630541
  0
SOLID
  8
0
 62
7
  6
CONTINUOUS
 10
154.5456166972
 20
30.5938002188
 11
154.3143669177
 21
30.6260630541
 12
155.1815540869
 22
30.6260630541
 13
155.1815540869
 23
30.6260630541
  0
SOLID
  8
0
 62
7
  6
CONTINUOUS
 10
155.1815540869
 20
30.6260630541
 11
154.8924916972
 21
30.5938002188
 12
154.5456166972
 22
30.5938002188
 13
154.5456166972
 23
30.5938002188
  0
SOLID
  8
0
 62
7
  6
CONTINUOUS
 10
159.575304528
 20
30.7551187255
 11
159.228429528
 21
30.7228544637
 12
159.4596793074
 22
30.7873815123
 13
159.4596793074
 23
30.7873815123
  0
SOLID
  8
0
 62
7
  6
CONTINUOUS
 10
159.4596793074
 20
30.7873815123
 11
159.228429528
 21
30.7228544637
 12
159.401867028
 22
30.851908644
 13
159.401867028
 23
30.851908644
  0
SOLID
  8
0
 62
7
  6
CONTINUOUS
 10
159.228429528
 20
30.7228544637
 11
159.1128043074
 21
30.851908644
 12
159.401867028
 22
30.851908644
 13
159.401867028
 23
30.851908644
  0
SOLID
  8
0
 62
7
  6
CONTINUOUS
 10
159.575304528
 20
30.7551187255
 11
159.922179528
 21
30.7228544637
 12
159.228429528
 22
30.7228544637
 13
159.228429528
 23
30.7228544637
  0
SOLID
  8
0
 62
7
  6
CONTINUOUS
 10
156.279992028
 20
30.5938002419
 11
156.279992028
 21
31.6262382337
 12
156.5690540869
 22
30.5938002419
 13
156.5690540869
 23
31.6262382337
  0
ENDBLK
  8
0
  6
BYBLOCK
 62
0
  0
BLOCK
  8
0
 62
2
  6
CONTINUOUS
  2
SYMBOL_3_BL0
 70
64
 10
32.1213064866
 20
19.8534310916
  0
TEXT
  8
0
 62
7
  6
CONTINUOUS
 10
18.3860103289
 20
19.2268451992
  7
TEXTSTYLE_3
 40
2.7338706658
  1
Ammeraal Beltech
 41
1.0
 51
15.0
 72
0
  0
TEXT
  8
0
 62
7
  6
CONTINUOUS
 10
29.1868111546
 20
16.9533085264
  7
TEXTSTYLE_4
 40
1.0935482663
  1
Innovation & Service in Belting
 41
1.0
 72
0
  0
LINE
  8
0
 62
7
  6
CONTINUOUS
 10
12.3614696776
 20
19.9934385078
 11
13.1396216709
 21
23.6543558055
  0
LINE
  8
0
 62
7
  6
CONTINUOUS
 10
23.2347899607
 20
27.3177497171
 11
13.6274394139
 21
24.1961322958
  0
LINE
  8
0
 62
7
  6
CONTINUOUS
 10
12.5867530099
 20
19.3000877048
 11
20.093828271
 21
12.5406867788
  0
LINE
  8
0
 62
7
  6
CONTINUOUS
 10
12.8492874206
 20
20.5352149982
 11
23.6575567857
 21
24.0470345971
  0
LINE
  8
0
 62
7
  6
CONTINUOUS
 10
23.6533516486
 20
13.6972460334
 11
15.2078919798
 21
21.3015720751
  0
LINE
  8
0
 62
7
  6
CONTINUOUS
 10
24.1731743684
 20
26.4728246013
 11
23.1966148312
 21
21.8784731989
  0
LINE
  8
0
 62
7
  6
CONTINUOUS
 10
22.4968128835
 20
18.5861638851
 11
21.810364672
 21
15.3566789607
  0
LINE
  8
0
 62
7
  6
CONTINUOUS
 10
24.8542704669
 20
14.087448211
 11
25.8105020025
 21
18.5861638851
  0
LINE
  8
0
 62
7
  6
CONTINUOUS
 10
26.5103039502
 20
21.8784731989
 11
26.9545457526
 21
23.9684665583
  0
LINE
  8
0
 62
7
  6
CONTINUOUS
 10
20.8069293463
 20
12.3891124661
 11
24.3664527239
 21
13.5456717207
  0
LINE
  8
0
 62
7
  6
CONTINUOUS
 10
23.9478910361
 20
27.1661754044
 11
26.7292624203
 21
24.6618173613
  0
ARC
  8
0
 62
7
  6
CONTINUOUS
 10
13.8527227462
 20
23.5027814928
 40
0.7290321776
 50
108.0
 51
168.0
  0
ARC
  8
0
 62
7
  6
CONTINUOUS
 10
23.4600732931
 20
26.624398914
 40
0.7290321776
 50
348.0
 51
108.0
  0
ARC
  8
0
 62
7
  6
CONTINUOUS
 10
26.2414446773
 20
24.120040871
 40
0.7290321776
 50
348.0
 51
48.0
  0
ARC
  8
0
 62
7
  6
CONTINUOUS
 10
20.581646014
 20
13.0824632691
 40
0.7290321776
 50
228.0
 51
288.0
  0
ARC
  8
0
 62
7
  6
CONTINUOUS
 10
13.0745707529
 20
19.8418641951
 40
0.7290321776
 50
108.0
 51
228.0
  0
ARC
  8
0
 62
7
  6
CONTINUOUS
 10
24.1411693916
 20
14.2390225237
 40
0.7290321776
 50
228.0
 51
348.0
  0
ENDBLK
  8
0
  6
BYBLOCK
 62
0
  0
ENDSEC
  0
SECTION
  2
ENTITIES
  0
TEXT
  8
0
 62
5
  6
CONTINUOUS
 10
96.0
 20
25.636
  7
TEXTSTYLE_2
 40
2.8
  1
Scale :
 41
0.6
 51
0.000019
 72
0
  0
TEXT
  8
0
 62
5
  6
CONTINUOUS
 10
116.0
 20
25.636
  7
TEXTSTYLE_2
 40
2.8
  1
Belt type:
 41
0.6
 51
0.000019
 72
0
  0
INSERT
  8
0
 62
2
  6
CONTINUOUS
  2
SYMBOL_3_BL0
 10
32.1213064866
 20
19.8534310916
  0
INSERT
  8
0
 62
2
  6
CONTINUOUS
  2
SYMBOL_8_BL1
 10
173.5956734183
 20
35.5937998301
  0
LINE
  8
0
 62
2
  6
CONTINUOUS
 10
10.0
 20
30.0
 11
200.0
 21
30.0
  0
LINE
  8
0
 62
2
  6
CONTINUOUS
 10
10.0
 20
30.0
 11
10.0
 21
10.0
  0
LINE
  8
0
 62
2
  6
CONTINUOUS
 10
10.0
 20
10.0
 11
200.0
 21
10.0
  0
LINE
  8
0
 62
2
  6
CONTINUOUS
 10
95.0
 20
30.0
 11
95.0
 21
10.0
  0
LINE
  8
0
 62
2
  6
CONTINUOUS
 10
115.0
 20
30.0
 11
115.0
 21
10.0
  0
LINE
  8
0
 62
2
  6
CONTINUOUS
 10
200.0
 20
30.0
 11
200.0
 21
10.0
  0
TEXT
  8
0
 62
5
  6
CONTINUOUS
 10
13.0
 20
23.303
  7
TEXTSTYLE_5
 40
1.52
  1
                                                                     Ammeraal Beltech Modular A/S
 41
1.0
 72
0
  0
TEXT
  8
0
 62
5
  6
CONTINUOUS
 10
13.0
 20
20.595
  7
TEXTSTYLE_5
 40
1.5
  1
                                                                      Hjulmagervej 21,  7100 Vejle,  DK
 41
1.0
 72
0
  0
TEXT
  8
0
 62
5
  6
CONTINUOUS
 10
13.0
 20
17.881
  7
TEXTSTYLE_5
 40
1.495
  1
                                                                      tel: 
 41
1.0
 72
0
  0
TEXT
  8
0
 62
5
  6
CONTINUOUS
 10
57.9869465649
 20
17.881
  7
TEXTSTYLE_5
 40
1.51
  1
+45 75723100     fax: +45 75723348
 41
1.0
 72
0
  0
TEXT
  8
0
 62
5
  6
CONTINUOUS
 10
13.0
 20
15.177
  7
TEXTSTYLE_5
 40
1.5
  1
                                                                      admin@unichains.dk  www.unichains.com
 41
1.0
 72
0
  0
TEXT
  8
0
 62
5
  6
CONTINUOUS
 10
99.75
 20
13.75
  7
TEXTSTYLE_6
 40
5.0
  1
1:1
 41
0.7
 72
1
 11
105.0
 21
13.75
  0
TEXT
  8
0
 62
5
  6
CONTINUOUS
 10
118.0
 20
13.75
  7
TEXTSTYLE_7
 40
7.5
  1
Sprocket Z09
 41
0.6694444444
 72
0
  0
LINE
  8
0
 62
7
  6
CONTINUOUS
 10
210.0
 20
0.0
 11
0.0
 21
0.0
  0
LINE
  8
0
 62
7
  6
CONTINUOUS
 10
10.0
 20
10.0
 11
200.0
 21
10.0
  0
LINE
  8
0
 62
7
  6
CONTINUOUS
 10
10.0
 20
30.0
 11
200.0
 21
30.0
  0
LINE
  8
0
 62
7
  6
CONTINUOUS
 10
0.0
 20
0.0
 11
0.0
 21
297.0
  0
LINE
  8
0
 62
7
  6
CONTINUOUS
 10
10.0
 20
10.0
 11
10.0
 21
287.0
  0
LINE
  8
0
 62
7
  6
CONTINUOUS
 10
200.0
 20
287.0
 11
200.0
 21
10.0
  0
LINE
  8
0
 62
7
  6
CONTINUOUS
 10
210.0
 20
0.0
 11
210.0
 21
297.0
  0
LINE
  8
0
 62
7
  6
CONTINUOUS
 10
10.0
 20
287.0
 11
200.0
 21
287.0
  0
LINE
  8
0
 62
7
  6
CONTINUOUS
 10
0.0
 20
297.0
 11
210.0
 21
297.0
  0
LINE
  8
0
 62
7
  6
CONTINUOUS
 10
88.0701217819
 20
163.6208852332
 11
88.5726625296
 21
163.4379753596
  0
LINE
  8
0
 62
7
  6
CONTINUOUS
 10
68.8576477485
 20
179.980836991
 11
69.1250440953
 21
179.5176929327
  0
LINE
  8
0
 62
7
  6
CONTINUOUS
 10
64.6560130617
 20
204.8628273848
 11
64.563147285
 21
204.336159394
  0
LINE
  8
0
 62
7
  6
CONTINUOUS
 10
77.4312092873
 20
226.6242965769
 11
77.0215343162
 21
226.2805384597
  0
LINE
  8
0
 62
7
  6
CONTINUOUS
 10
95.2561604913
 20
172.7914751889
 11
97.7192624504
 21
172.363545322
  0
LINE
  8
0
 62
7
  6
CONTINUOUS
 10
90.3032511413
 20
174.467975175
 11
90.5890285081
 21
174.3415238766
  0
LINE
  8
0
 62
7
  6
CONTINUOUS
 10
76.0954153835
 20
204.455510563
 11
76.0822396336
 21
204.6531387249
  0
LINE
  8
0
 62
7
  6
CONTINUOUS
 10
77.1436180044
 20
204.1749268226
 11
77.1304422544
 21
204.3725549845
  0
LINE
  8
0
 62
7
  6
CONTINUOUS
 10
74.9430365351
 20
198.8024550878
 11
74.9277514989
 21
197.3025329673
  0
LINE
  8
0
 62
7
  6
CONTINUOUS
 10
75.250705086
 20
197.6742613624
 11
75.2628057007
 21
198.8616958933
  0
LINE
  8
0
 62
7
  6
CONTINUOUS
 10
76.2202028636
 20
198.8519394866
 11
76.2081022489
 21
197.6645049557
  0
LINE
  8
0
 62
7
  6
CONTINUOUS
 10
76.5910610425
 20
197.6606023938
 11
76.6025248196
 21
198.7855439842
  0
LINE
  8
0
 62
7
  6
CONTINUOUS
 10
75.7901048821
 20
204.7960340688
 11
75.7709589801
 21
204.4776589235
  0
LINE
  8
0
 62
7
  6
CONTINUOUS
 10
76.8383075029
 20
204.5154503284
 11
76.8191616009
 21
204.1970751832
  0
LINE
  8
0
 62
7
  6
CONTINUOUS
 10
75.2142316992
 20
201.9807039663
 11
75.1461687039
 21
201.4853543489
  0
LINE
  8
0
 62
7
  6
CONTINUOUS
 10
77.2170753254
 20
202.0209395923
 11
77.0639347542
 21
200.9064114566
  0
LINE
  8
0
 62
7
  6
CONTINUOUS
 10
77.3083692105
 20
200.8097360344
 11
77.47852592
 21
202.0481044089
  0
LINE
  8
0
 62
7
  6
CONTINUOUS
 10
75.0100473638
 20
199.1142865287
 11
74.9430365351
 21
198.8024550878
  0
LINE
  8
0
 62
7
  6
CONTINUOUS
 10
75.8547496654
 20
205.0375335629
 11
75.7901048821
 21
204.7960340688
  0
LINE
  8
0
 62
7
  6
CONTINUOUS
 10
76.0822396336
 20
204.6531387249
 11
76.1792060689
 21
205.0153852024
  0
LINE
  8
0
 62
7
  6
CONTINUOUS
 10
76.6784479612
 20
205.3993491241
 11
76.7592528307
 21
205.7012193461
  0
LINE
  8
0
 62
7
  6
CONTINUOUS
 10
76.919113852
 20
204.8173260779
 11
76.8383075029
 21
204.5154503284
  0
LINE
  8
0
 62
7
  6
CONTINUOUS
 10
77.1304422544
 20
204.3725549845
 11
77.2435687759
 21
204.7951721899
  0
LINE
  8
0
 62
7
  6
CONTINUOUS
 10
75.2628057007
 20
198.8616958933
 11
75.3285427959
 21
199.0485357314
  0
LINE
  8
0
 62
7
  6
CONTINUOUS
 10
75.9972135025
 20
205.3228988618
 11
75.8547496654
 21
205.0375335629
  0
LINE
  8
0
 62
7
  6
CONTINUOUS
 10
77.0615776891
 20
205.1026913768
 11
76.919113852
 21
204.8173260779
  0
LINE
  8
0
 62
7
  6
CONTINUOUS
 10
76.1792060689
 20
205.0153852024
 11
76.289348254
 21
205.1800035179
  0
LINE
  8
0
 62
7
  6
CONTINUOUS
 10
90.9726123139
 20
174.5905905828
 11
90.775319955
 21
174.608089608
  0
LINE
  8
0
 62
7
  6
CONTINUOUS
 10
90.6945083664
 20
175.9700334649
 11
90.8918007253
 21
175.9525344397
  0
LINE
  8
0
 62
7
  6
CONTINUOUS
 10
93.7396377092
 20
173.6069877541
 11
93.422139052
 21
173.6374128992
  0
LINE
  8
0
 62
7
  6
CONTINUOUS
 10
93.7958452639
 20
175.9261278655
 11
94.1133411855
 21
175.8957035578
  0
LINE
  8
0
 62
7
  6
CONTINUOUS
 10
93.3287333706
 20
173.3322385263
 11
93.7059944378
 21
173.2835217122
  0
LINE
  8
0
 62
7
  6
CONTINUOUS
 10
94.2067468799
 20
176.2008779734
 11
93.8294858111
 21
176.2495947822
  0
LINE
  8
0
 62
7
  6
CONTINUOUS
 10
97.7738918094
 20
172.6779839524
 11
95.6186758335
 21
173.052422892
  0
LINE
  8
0
 62
7
  6
CONTINUOUS
 10
95.704121289
 20
175.3698722667
 11
97.7977578132
 21
175.0061319043
  0
LINE
  8
0
 62
7
  6
CONTINUOUS
 10
98.2327784865
 20
175.3192688004
 11
95.7696765275
 21
175.7471986673
  0
LINE
  8
0
 62
7
  6
CONTINUOUS
 10
90.5890285081
 20
174.3415238766
 11
90.900628674
 21
174.2734457213
  0
LINE
  8
0
 62
7
  6
CONTINUOUS
 10
91.0780922085
 20
176.2191002529
 11
90.7664920063
 21
176.2871783264
  0
LINE
  8
0
 62
7
  6
CONTINUOUS
 10
91.5171687878
 20
177.2114044064
 11
91.2055686196
 21
177.2794825566
  0
LINE
  8
0
 62
7
  6
CONTINUOUS
 10
90.775319955
 20
174.608089608
 11
90.3752400139
 21
174.7851177212
  0
LINE
  8
0
 62
7
  6
CONTINUOUS
 10
90.8918007253
 20
175.9525344397
 11
91.2918806664
 21
175.7755063265
  0
LINE
  8
0
 62
7
  6
CONTINUOUS
 10
91.3638695752
 20
176.0926489545
 11
91.0780922085
 21
176.2191002529
  0
LINE
  8
0
 62
7
  6
CONTINUOUS
 10
91.9760742279
 20
176.240555085
 11
92.2618463619
 21
176.1141061019
  0
LINE
  8
0
 62
7
  6
CONTINUOUS
 10
91.3308773228
 20
176.9448386342
 11
91.6738059767
 21
176.7930989284
  0
LINE
  8
0
 62
7
  6
CONTINUOUS
 10
91.7457896347
 20
177.1102438307
 11
91.5171687878
 21
177.2114044064
  0
LINE
  8
0
 62
7
  6
CONTINUOUS
 10
92.988834576
 20
173.5030250896
 11
93.3287333706
 21
173.3322385263
  0
LINE
  8
0
 62
7
  6
CONTINUOUS
 10
94.5466456729
 20
176.0300914049
 11
94.2067468799
 21
176.2008779734
  0
LINE
  8
0
 62
7
  6
CONTINUOUS
 10
93.422139052
 20
173.6374128992
 11
93.142005403
 21
173.7899069561
  0
LINE
  8
0
 62
7
  6
CONTINUOUS
 10
94.1133411855
 20
175.8957035578
 11
94.3934775702
 21
175.7432086636
  0
LINE
  8
0
 62
7
  6
CONTINUOUS
 10
90.0433070392
 20
174.6527949859
 11
90.3032511413
 21
174.467975175
  0
LINE
  8
0
 62
7
  6
CONTINUOUS
 10
91.6238136411
 20
175.9078290619
 11
91.3638695752
 21
176.0926489545
  0
LINE
  8
0
 62
7
  6
CONTINUOUS
 10
90.3752400139
 20
174.7851177212
 11
90.2296037189
 21
174.9193584019
  0
LINE
  8
0
 62
7
  6
CONTINUOUS
 10
91.2918806664
 20
175.7755063265
 11
91.4375169614
 21
175.6412656459
  0
LINE
  8
0
 62
7
  6
CONTINUOUS
 10
76.1582870275
 20
199.0400801787
 11
76.2202028636
 21
198.8519394866
  0
LINE
  8
0
 62
7
  6
CONTINUOUS
 10
76.6025248196
 20
198.7855439842
 11
76.5418827171
 21
199.098676279
  0
LINE
  8
0
 62
7
  6
CONTINUOUS
 10
78.4635725062
 20
204.6627018535
 11
78.4767482561
 21
204.4650736916
  0
LINE
  8
0
 62
7
  6
CONTINUOUS
 10
77.92759574
 20
197.271962895
 11
77.931416999
 21
197.6469434251
  0
LINE
  8
0
 62
7
  6
CONTINUOUS
 10
78.7688830509
 20
204.3221783362
 11
78.7880289474
 21
204.6405534829
  0
LINE
  8
0
 62
7
  6
CONTINUOUS
 10
77.9821192997
 20
200.0862915954
 11
78.0331661568
 21
200.457800974
  0
LINE
  8
0
 62
7
  6
CONTINUOUS
 10
78.2713843038
 20
202.1915076282
 11
78.3224311609
 21
202.5630170068
  0
LINE
  8
0
 62
7
  6
CONTINUOUS
 10
78.4767482561
 20
204.4650736916
 11
78.3636217347
 21
204.0424564862
  0
LINE
  8
0
 62
7
  6
CONTINUOUS
 10
78.6880767017
 20
204.0203025867
 11
78.7688830509
 21
204.3221783362
  0
LINE
  8
0
 62
7
  6
CONTINUOUS
 10
78.5456128593
 20
203.7349372892
 11
78.6880767017
 21
204.0203025867
  0
LINE
  8
0
 62
7
  6
CONTINUOUS
 10
77.2435687759
 20
204.7951721899
 11
77.353710961
 21
204.9597905055
  0
LINE
  8
0
 62
7
  6
CONTINUOUS
 10
78.3636217347
 20
204.0424564862
 11
78.2534795496
 21
203.8778381706
  0
LINE
  8
0
 62
7
  6
CONTINUOUS
 10
75.2040742861
 20
199.362324175
 11
75.0100473638
 21
199.1142865287
  0
LINE
  8
0
 62
7
  6
CONTINUOUS
 10
76.2629967542
 20
205.5752598417
 11
75.9972135025
 21
205.3228988618
  0
LINE
  8
0
 62
7
  6
CONTINUOUS
 10
77.3273594612
 20
205.3550468293
 11
77.0615776891
 21
205.1026913768
  0
LINE
  8
0
 62
7
  6
CONTINUOUS
 10
76.289348254
 20
205.1800035179
 11
76.4611494067
 21
205.3281169103
  0
LINE
  8
0
 62
7
  6
CONTINUOUS
 10
118.7986076486
 20
181.9270338711
 11
119.0177306867
 21
181.9856709517
  0
LINE
  8
0
 62
7
  6
CONTINUOUS
 10
120.1541590151
 20
182.3261894149
 11
119.935035977
 21
182.2675523343
  0
LINE
  8
0
 62
7
  6
CONTINUOUS
 10
93.7059944378
 20
173.2835217122
 11
94.0608553676
 21
173.3751663163
  0
LINE
  8
0
 62
7
  6
CONTINUOUS
 10
93.8294858111
 20
176.2495947822
 11
93.4746276121
 21
176.1579493247
  0
LINE
  8
0
 62
7
  6
CONTINUOUS
 10
120.2745936611
 20
180.9019353679
 11
119.9663156727
 21
180.8376462771
  0
LINE
  8
0
 62
7
  6
CONTINUOUS
 10
91.1957327048
 20
174.6314623854
 11
90.9726123139
 21
174.5905905828
  0
LINE
  8
0
 62
7
  6
CONTINUOUS
 10
90.4713879755
 20
175.9291616623
 11
90.6945083664
 21
175.9700334649
  0
LINE
  8
0
 62
7
  6
CONTINUOUS
 10
90.7664920063
 20
176.2871783264
 11
90.3202512246
 21
176.2054347212
  0
LINE
  8
0
 62
7
  6
CONTINUOUS
 10
90.910464573
 20
176.9214658567
 11
91.1335849639
 21
176.9623376593
  0
LINE
  8
0
 62
7
  6
CONTINUOUS
 10
114.2796231093
 20
177.5920524226
 11
114.1405339085
 21
177.5732462162
  0
LINE
  8
0
 62
7
  6
CONTINUOUS
 10
90.900628674
 20
174.2734457213
 11
91.2638849039
 21
174.3221092215
  0
LINE
  8
0
 62
7
  6
CONTINUOUS
 10
91.2055686196
 20
177.2794825566
 11
90.8423123829
 21
177.2308190411
  0
LINE
  8
0
 62
7
  6
CONTINUOUS
 10
115.1827609359
 20
176.5095092951
 11
114.86820151
 21
176.5243436349
  0
LINE
  8
0
 62
7
  6
CONTINUOUS
 10
91.1335849639
 20
176.9623376593
 11
91.3308773228
 21
176.9448386342
  0
LINE
  8
0
 62
7
  6
CONTINUOUS
 10
92.0057337345
 20
176.9254240148
 11
91.7457896347
 21
177.1102438307
  0
LINE
  8
0
 62
7
  6
CONTINUOUS
 10
91.6738059767
 20
176.7930989284
 11
91.8194422717
 21
176.6588582477
  0
LINE
  8
0
 62
7
  6
CONTINUOUS
 10
92.7460631996
 20
173.7775888956
 11
92.988834576
 21
173.5030250896
  0
LINE
  8
0
 62
7
  6
CONTINUOUS
 10
94.7894197801
 20
175.7555267454
 11
94.5466456729
 21
176.0300914049
  0
LINE
  8
0
 62
7
  6
CONTINUOUS
 10
93.142005403
 20
173.7899069561
 11
93.0000777101
 21
173.9668525496
  0
LINE
  8
0
 62
7
  6
CONTINUOUS
 10
89.8350190011
 20
174.9543564522
 11
90.0433070392
 21
174.6527949859
  0
LINE
  8
0
 62
7
  6
CONTINUOUS
 10
91.8321016793
 20
175.6062675956
 11
91.6238136411
 21
175.9078290619
  0
LINE
  8
0
 62
7
  6
CONTINUOUS
 10
92.2140269986
 20
176.6238602178
 11
92.0057337345
 21
176.9254240148
  0
LINE
  8
0
 62
7
  6
CONTINUOUS
 10
90.2296037189
 20
174.9193584019
 11
90.1097954558
 21
175.1119699103
  0
LINE
  8
0
 62
7
  6
CONTINUOUS
 10
91.4375169614
 20
175.6412656459
 11
91.5573252245
 21
175.4486541375
  0
LINE
  8
0
 62
7
  6
CONTINUOUS
 10
76.1702501009
 20
204.2413774779
 11
76.0954153835
 21
204.455510563
  0
LINE
  8
0
 62
7
  6
CONTINUOUS
 10
76.8191616009
 20
204.1970751832
 11
76.9688310358
 21
203.768809013
  0
LINE
  8
0
 62
7
  6
CONTINUOUS
 10
77.2184527218
 20
203.9607937375
 11
77.1436180044
 21
204.1749268226
  0
LINE
  8
0
 62
7
  6
CONTINUOUS
 10
75.7709589801
 20
204.4776589235
 11
75.8751310132
 21
204.1262739319
  0
LINE
  8
0
 62
7
  6
CONTINUOUS
 10
75.3285427959
 20
199.0485357314
 11
75.457469519
 21
199.172232202
  0
LINE
  8
0
 62
7
  6
CONTINUOUS
 10
78.279831071
 20
203.482581841
 11
78.5456128593
 21
203.7349372892
  0
LINE
  8
0
 62
7
  6
CONTINUOUS
 10
77.353710961
 20
204.9597905055
 11
77.5255121137
 21
205.1079038979
  0
LINE
  8
0
 62
7
  6
CONTINUOUS
 10
78.2534795496
 20
203.8778381706
 11
78.0816783969
 21
203.7297247783
  0
LINE
  8
0
 62
7
  6
CONTINUOUS
 10
77.5608195815
 20
205.4866552985
 11
77.3273594612
 21
205.3550468293
  0
LINE
  8
0
 62
7
  6
CONTINUOUS
 10
77.5255121137
 20
205.1079038979
 11
77.6811531803
 21
205.1956465623
  0
LINE
  8
0
 62
7
  6
CONTINUOUS
 10
122.3475018579
 20
187.2989199922
 11
121.0429681151
 21
186.9720802734
  0
LINE
  8
0
 62
7
  6
CONTINUOUS
 10
119.8470525619
 20
181.1880582911
 11
120.0253615283
 21
181.1993612282
  0
LINE
  8
0
 62
7
  6
CONTINUOUS
 10
119.0070247755
 20
181.5822727839
 11
118.6504068428
 21
181.5596669098
  0
LINE
  8
0
 62
7
  6
CONTINUOUS
 10
119.9457418882
 20
182.6709505021
 11
120.3023598209
 21
182.6935563761
  0
LINE
  8
0
 62
7
  6
CONTINUOUS
 10
119.3097826602
 20
183.3018334875
 11
119.0423187098
 21
183.2848785694
  0
LINE
  8
0
 62
7
  6
CONTINUOUS
 10
119.9663156727
 20
180.8376462771
 11
119.6505108777
 21
180.8623734632
  0
LINE
  8
0
 62
7
  6
CONTINUOUS
 10
114.8403421985
 20
176.8934454203
 11
115.0158147743
 21
176.8598065049
  0
LINE
  8
0
 62
7
  6
CONTINUOUS
 10
114.112674597
 20
177.9423480016
 11
114.2881471729
 21
177.9087090862
  0
LINE
  8
0
 62
7
  6
CONTINUOUS
 10
114.86820151
 20
176.5243436349
 11
114.5686104467
 21
176.6272479451
  0
LINE
  8
0
 62
7
  6
CONTINUOUS
 10
76.0319078882
 20
199.1663783572
 11
76.1582870275
 21
199.0400801787
  0
LINE
  8
0
 62
4
  6
CONTINUOUS
 10
91.26696878
 20
184.3890502701
 11
87.1334536529
 21
188.5225653972
  0
LINE
  8
0
 62
7
  6
CONTINUOUS
 10
94.3934775702
 20
175.7432086636
 11
94.5354052631
 21
175.5662630701
  0
LINE
  8
0
 62
7
  6
CONTINUOUS
 10
76.5418827171
 20
199.098676279
 11
76.3529508458
 21
199.3506164873
  0
LINE
  8
0
 62
7
  6
CONTINUOUS
 10
91.8194422717
 20
176.6588582477
 11
91.9392505348
 21
176.4662467393
  0
LINE
  8
0
 62
7
  6
CONTINUOUS
 10
77.3094475254
 20
203.8070313804
 11
77.2184527218
 21
203.9607937375
  0
LINE
  8
0
 62
7
  6
CONTINUOUS
 10
92.6228166429
 20
174.0155693637
 11
92.7460631996
 21
173.7775888956
  0
LINE
  8
0
 62
7
  6
CONTINUOUS
 10
78.3887377888
 20
204.8768349386
 11
78.4635725062
 21
204.6627018535
  0
LINE
  8
0
 62
7
  6
CONTINUOUS
 10
78.7880289474
 20
204.6405534829
 11
78.6838568982
 21
204.9919384788
  0
LINE
  8
0
 62
4
  6
CONTINUOUS
 10
91.26696878
 20
211.9985105326
 11
87.1334536529
 21
207.8649954055
  0
LINE
  8
0
 62
4
  6
CONTINUOUS
 10
85.2714985934
 20
203.7402986462
 11
83.857285031
 21
202.3260850838
  0
LINE
  8
0
 62
4
  6
CONTINUOUS
 10
95.3916655393
 20
213.8604655921
 11
96.8058791017
 21
215.2746791545
  0
LINE
  8
0
 62
7
  6
CONTINUOUS
 10
75.461290778
 20
199.5472127321
 11
75.2040742861
 21
199.362324175
  0
LINE
  8
0
 62
7
  6
CONTINUOUS
 10
76.558115842
 20
205.6903633877
 11
76.2629967542
 21
205.5752598417
  0
LINE
  8
0
 62
7
  6
CONTINUOUS
 10
76.4611494067
 20
205.3281169103
 11
76.6784479612
 21
205.3993491241
  0
LINE
  8
0
 62
7
  6
CONTINUOUS
 10
122.5149642631
 20
187.6344514257
 11
123.8194973671
 21
187.9612898646
  0
LINE
  8
0
 62
7
  6
CONTINUOUS
 10
123.6520349619
 20
187.6257584311
 11
122.6025683201
 21
187.3811729617
  0
LINE
  8
0
 62
7
  6
CONTINUOUS
 10
121.2104305203
 20
187.3076117069
 11
122.2598978809
 21
187.5521984163
  0
LINE
  8
0
 62
7
  6
CONTINUOUS
 10
123.6134861748
 20
189.1455211584
 11
123.8363060577
 21
189.1969443776
  0
LINE
  8
0
 62
7
  6
CONTINUOUS
 10
118.5719568019
 20
181.9574120424
 11
118.7986076486
 21
181.9270338711
  0
LINE
  8
0
 62
7
  6
CONTINUOUS
 10
118.843358143
 20
179.3290676611
 11
115.97391802
 21
180.1814193932
  0
LINE
  8
0
 62
7
  6
CONTINUOUS
 10
115.8143604232
 20
180.6389513165
 11
118.7265031559
 21
179.7391576873
  0
LINE
  8
0
 62
7
  6
CONTINUOUS
 10
114.1405339085
 20
177.5732462162
 11
113.8409428452
 21
177.6761505264
  0
LINE
  8
0
 62
7
  6
CONTINUOUS
 10
76.3529508458
 20
199.3506164873
 11
76.0995556129
 21
199.5407084604
  0
LINE
  8
0
 62
4
  6
CONTINUOUS
 10
83.857285031
 20
194.0614757189
 11
85.2714985934
 21
192.6472621565
  0
LINE
  8
0
 62
4
  6
CONTINUOUS
 10
96.8058791017
 20
181.1128816482
 11
95.3916655393
 21
182.5270952106
  0
LINE
  8
0
 62
7
  6
CONTINUOUS
 10
76.3229038721
 20
204.0711101976
 11
76.1702501009
 21
204.2413774779
  0
LINE
  8
0
 62
7
  6
CONTINUOUS
 10
75.8751310132
 20
204.1262739319
 11
76.0732836657
 21
203.8791310004
  0
LINE
  8
0
 62
7
  6
CONTINUOUS
 10
78.6838568982
 20
204.9919384788
 11
78.4857042241
 21
205.2390814161
  0
LINE
  8
0
 62
7
  6
CONTINUOUS
 10
94.9126663302
 20
175.517546256
 11
94.7894197801
 21
175.7555267454
  0
LINE
  8
0
 62
7
  6
CONTINUOUS
 10
93.0000777101
 20
173.9668525496
 11
92.8731094689
 21
174.4062303187
  0
LINE
  8
0
 62
7
  6
CONTINUOUS
 10
89.7668668019
 20
175.2637096161
 11
89.8350190011
 21
174.9543564522
  0
LINE
  8
0
 62
7
  6
CONTINUOUS
 10
91.9002538784
 20
175.2969144317
 11
91.8321016793
 21
175.6062675956
  0
LINE
  8
0
 62
7
  6
CONTINUOUS
 10
92.2821791887
 20
176.3145070335
 11
92.2140269986
 21
176.6238602178
  0
LINE
  8
0
 62
7
  6
CONTINUOUS
 10
90.1097954558
 20
175.1119699103
 11
90.0729665119
 21
175.337663839
  0
LINE
  8
0
 62
7
  6
CONTINUOUS
 10
89.7816939943
 20
175.6061453639
 11
89.7668668019
 21
175.2637096161
  0
LINE
  8
0
 62
7
  6
CONTINUOUS
 10
77.9847119616
 20
203.3674783008
 11
78.279831071
 21
203.482581841
  0
LINE
  8
0
 62
7
  6
CONTINUOUS
 10
78.0816783969
 20
203.7297247783
 11
77.8643783196
 21
203.6584870486
  0
LINE
  8
0
 62
7
  6
CONTINUOUS
 10
123.4062071227
 20
190.6195207863
 11
123.2648335295
 21
190.6047973416
  0
LINE
  8
0
 62
7
  6
CONTINUOUS
 10
123.1711324479
 20
190.9054441939
 11
123.4538791837
 21
190.9348897248
  0
LINE
  8
0
 62
7
  6
CONTINUOUS
 10
119.1421786202
 20
183.6939276786
 11
119.5063243444
 21
183.6275183154
  0
LINE
  8
0
 62
7
  6
CONTINUOUS
 10
119.7095567333
 20
181.2240884142
 11
119.8470525619
 21
181.1880582911
  0
LINE
  8
0
 62
7
  6
CONTINUOUS
 10
118.6504068428
 20
181.5596669098
 11
118.3754151178
 21
181.6317272144
  0
LINE
  8
0
 62
7
  6
CONTINUOUS
 10
76.0732836657
 20
203.8791310004
 11
76.3492555446
 21
203.6758538275
  0
LINE
  8
0
 62
7
  6
CONTINUOUS
 10
78.2360839745
 20
205.0471022305
 11
78.3887377888
 21
204.8768349386
  0
LINE
  8
0
 62
7
  6
CONTINUOUS
 10
94.5354052631
 20
175.5662630701
 11
94.6623708077
 21
175.1268862665
  0
LINE
  8
0
 62
7
  6
CONTINUOUS
 10
91.5573252245
 20
175.4486541375
 11
91.5941541684
 21
175.2229602087
  0
LINE
  8
0
 62
7
  6
CONTINUOUS
 10
91.9392505348
 20
176.4662467393
 11
91.9760742279
 21
176.240555085
  0
LINE
  8
0
 62
7
  6
CONTINUOUS
 10
92.5780108967
 20
174.2962938746
 11
92.6228166429
 21
174.0155693637
  0
LINE
  8
0
 62
7
  6
CONTINUOUS
 10
94.9611883287
 20
175.0354262469
 11
94.9574665919
 21
175.236823377
  0
LINE
  8
0
 62
7
  6
CONTINUOUS
 10
92.5742946837
 20
174.497689501
 11
92.5780108967
 21
174.2962938746
  0
LINE
  8
0
 62
7
  6
CONTINUOUS
 10
91.8854267584
 20
174.9544788474
 11
91.9002538784
 21
175.2969144317
  0
LINE
  8
0
 62
7
  6
CONTINUOUS
 10
90.0729665119
 20
175.337663839
 11
90.093299393
 21
175.5380648932
  0
LINE
  8
0
 62
7
  6
CONTINUOUS
 10
91.5941541684
 20
175.2229602087
 11
91.5738213597
 21
175.0225593181
  0
LINE
  8
0
 62
7
  6
CONTINUOUS
 10
75.6534070125
 20
199.6077543917
 11
75.461290778
 21
199.5472127321
  0
LINE
  8
0
 62
7
  6
CONTINUOUS
 10
75.457469519
 20
199.172232202
 11
75.6495857534
 21
199.2327738615
  0
LINE
  8
0
 62
7
  6
CONTINUOUS
 10
125.4646033231
 20
199.1580155114
 11
125.1508117064
 21
199.0725926771
  0
LINE
  8
0
 62
7
  6
CONTINUOUS
 10
123.6075070342
 20
190.6122652151
 11
123.4062071227
 21
190.6195207863
  0
LINE
  8
0
 62
7
  6
CONTINUOUS
 10
123.6472604035
 20
188.8668519945
 11
123.3860331885
 21
188.8960838955
  0
LINE
  8
0
 62
7
  6
CONTINUOUS
 10
75.841065329
 20
199.2308225787
 11
76.0319078882
 21
199.1663783572
  0
LINE
  8
0
 62
7
  6
CONTINUOUS
 10
76.0995556129
 20
199.5407084604
 11
75.9087130537
 21
199.6051526819
  0
LINE
  8
0
 62
7
  6
CONTINUOUS
 10
119.6505108777
 20
180.8623734632
 11
119.4646741707
 21
180.9400857196
  0
LINE
  8
0
 62
7
  6
CONTINUOUS
 10
120.3399957222
 20
182.2484771584
 11
120.1541590151
 21
182.3261894149
  0
LINE
  8
0
 62
7
  6
CONTINUOUS
 10
119.4956193673
 20
183.224121231
 11
119.3097826602
 21
183.3018334875
  0
LINE
  8
0
 62
7
  6
CONTINUOUS
 10
77.0639347542
 20
200.9064114566
 11
75.433142727
 21
201.6982738548
  0
LINE
  8
0
 62
7
  6
CONTINUOUS
 10
78.0331661568
 20
200.457800974
 11
77.3083692105
 21
200.8097360344
  0
LINE
  8
0
 62
7
  6
CONTINUOUS
 10
75.1461687039
 20
201.4853543489
 11
77.9821192997
 21
200.0862915954
  0
LINE
  8
0
 62
7
  6
CONTINUOUS
 10
76.4917208613
 20
203.9612246538
 11
76.3229038721
 21
204.0711101976
  0
LINE
  8
0
 62
7
  6
CONTINUOUS
 10
77.4782644282
 20
203.6971458598
 11
77.3094475254
 21
203.8070313804
  0
LINE
  8
0
 62
7
  6
CONTINUOUS
 10
78.067267158
 20
205.156987728
 11
78.2360839745
 21
205.0471022305
  0
LINE
  8
0
 62
7
  6
CONTINUOUS
 10
78.4857042241
 20
205.2390814161
 11
78.2097324747
 21
205.4423585543
  0
LINE
  8
0
 62
7
  6
CONTINUOUS
 10
114.5686104467
 20
176.6272479451
 11
114.4081085842
 21
176.7489584616
  0
LINE
  8
0
 62
7
  6
CONTINUOUS
 10
114.6798402341
 20
177.0151560837
 11
114.8403421985
 21
176.8934454203
  0
LINE
  8
0
 62
7
  6
CONTINUOUS
 10
113.8409428452
 20
177.6761505264
 11
113.6804409317
 21
177.7978611164
  0
LINE
  8
0
 62
7
  6
CONTINUOUS
 10
113.9521726836
 20
178.0640585916
 11
114.112674597
 21
177.9423480016
  0
LINE
  8
0
 62
7
  6
CONTINUOUS
 10
94.9574665919
 20
175.236823377
 11
94.9126663302
 21
175.517546256
  0
LINE
  8
0
 62
7
  6
CONTINUOUS
 10
98.2929723851
 20
232.8344076723
 11
97.9904565411
 21
228.0526917436
  0
LINE
  8
0
 62
7
  6
CONTINUOUS
 10
92.2618463619
 20
176.1141061019
 11
92.2821791887
 21
176.3145070335
  0
LINE
  8
0
 62
7
  6
CONTINUOUS
 10
92.6079352194
 20
174.8211563802
 11
92.5742946837
 21
174.497689501
  0
LINE
  8
0
 62
7
  6
CONTINUOUS
 10
94.9275450311
 20
174.7119601195
 11
94.9611883287
 21
175.0354262469
  0
LINE
  8
0
 62
7
  6
CONTINUOUS
 10
92.8731094689
 20
174.4062303187
 11
92.9254311409
 21
174.7907320725
  0
LINE
  8
0
 62
7
  6
CONTINUOUS
 10
94.6623708077
 20
175.1268862665
 11
94.6100463739
 21
174.7423852646
  0
LINE
  8
0
 62
7
  6
CONTINUOUS
 10
89.9053389307
 20
176.0400295655
 11
89.7816939943
 21
175.6061453639
  0
LINE
  8
0
 62
7
  6
CONTINUOUS
 10
87.9558771089
 20
171.1437638426
 11
86.6047058479
 21
166.5469541573
  0
LINE
  8
0
 62
7
  6
CONTINUOUS
 10
121.1784002926
 20
226.4303495407
 11
117.8730319592
 21
222.9617960612
  0
LINE
  8
0
 62
7
  6
CONTINUOUS
 10
73.6057444109
 20
185.8171314062
 11
69.6159148649
 21
183.1642870358
  0
LINE
  8
0
 62
7
  6
CONTINUOUS
 10
125.1282058733
 20
199.3842738472
 11
125.4419974642
 21
199.4696970382
  0
LINE
  8
0
 62
7
  6
CONTINUOUS
 10
130.8553386345
 20
200.4757813003
 11
135.5118782288
 21
201.6040375061
  0
LINE
  8
0
 62
7
  6
CONTINUOUS
 10
123.4538791837
 20
190.9348897248
 11
123.8349600205
 21
190.8617024781
  0
LINE
  8
0
 62
7
  6
CONTINUOUS
 10
66.3644893395
 20
201.6040375061
 11
71.0210289338
 21
200.4757813003
  0
LINE
  8
0
 62
7
  6
CONTINUOUS
 10
76.3492555446
 20
203.6758538275
 11
76.7647082312
 21
203.4999486373
  0
LINE
  8
0
 62
7
  6
CONTINUOUS
 10
76.8455131007
 20
203.8018188593
 11
76.4917208613
 21
203.9612246538
  0
LINE
  8
0
 62
7
  6
CONTINUOUS
 10
125.3228959143
 20
180.7115180543
 11
129.6152413043
 21
178.5826464959
  0
LINE
  8
0
 62
7
  6
CONTINUOUS
 10
120.3023598209
 20
182.6935563761
 11
120.5365374064
 21
182.5741619863
  0
LINE
  8
0
 62
7
  6
CONTINUOUS
 10
119.5063243444
 20
183.6275183154
 11
119.7405019299
 21
183.5081239256
  0
LINE
  8
0
 62
7
  6
CONTINUOUS
 10
76.6452682895
 20
223.0297313161
 11
79.4871554603
 21
219.1722709641
  0
LINE
  8
0
 62
7
  6
CONTINUOUS
 10
108.3805753825
 20
169.1273996542
 11
110.3002904561
 21
164.7375229936
  0
LINE
  8
0
 62
2
  6
CONTINUOUS
 10
100.9381837841
 20
199.0737804014
 11
100.9381837841
 21
197.3137804014
  0
LINE
  8
DEFAULT_1
 62
2
  6
CENTER
 10
100.9381837841
 20
193.7937804014
 11
100.9381837841
 21
159.3037804014
  0
LINE
  8
DEFAULT_1
 62
2
  6
CENTER
 10
100.9381837841
 20
202.5937804014
 11
100.9381837841
 21
237.0837804014
  0
LINE
  8
0
 62
7
  6
CONTINUOUS
 10
95.7696765275
 20
175.7471986673
 11
95.704121289
 21
175.3698722667
  0
LINE
  8
0
 62
7
  6
CONTINUOUS
 10
95.332641594
 20
173.2316892715
 11
95.2561604913
 21
172.7914751889
  0
LINE
  8
0
 62
7
  6
CONTINUOUS
 10
92.7760654458
 20
175.3704702514
 11
92.6079352194
 21
174.8211563802
  0
LINE
  8
0
 62
7
  6
CONTINUOUS
 10
92.9254311409
 20
174.7907320725
 11
93.0561990948
 21
175.2179761945
  0
LINE
  8
0
 62
7
  6
CONTINUOUS
 10
90.0861351544
 20
176.4486253598
 11
89.9053389307
 21
176.0400295655
  0
LINE
  8
0
 62
7
  6
CONTINUOUS
 10
90.3202512246
 20
176.2054347212
 11
90.3719072885
 21
176.3221763767
  0
LINE
  8
0
 62
7
  6
CONTINUOUS
 10
90.093299393
 20
175.5380648932
 11
90.1449554569
 21
175.6548065487
  0
LINE
  8
0
 62
7
  6
CONTINUOUS
 10
125.7482708362
 20
201.7087018126
 11
124.114235748
 21
201.418673307
  0
LINE
  8
0
 62
7
  6
CONTINUOUS
 10
124.3110130333
 20
201.7709840538
 11
125.6936580842
 21
202.0163927851
  0
LINE
  8
0
 62
7
  6
CONTINUOUS
 10
125.4752071272
 20
203.2471563892
 11
124.2182570728
 21
203.0240575411
  0
LINE
  8
0
 62
7
  6
CONTINUOUS
 10
124.1636443326
 20
203.3317484476
 11
125.4205943869
 21
203.5548472957
  0
LINE
  8
0
 62
7
  6
CONTINUOUS
 10
125.1508117064
 20
199.0725926771
 11
123.9412230102
 21
198.9848627699
  0
LINE
  8
0
 62
7
  6
CONTINUOUS
 10
123.9186171771
 20
199.29654394
 11
125.1282058733
 21
199.3842738472
  0
LINE
  8
0
 62
7
  6
CONTINUOUS
 10
125.8744380397
 20
200.5663522048
 11
125.5561252718
 21
200.5432653905
  0
LINE
  8
0
 62
7
  6
CONTINUOUS
 10
125.3014750575
 20
200.5247959391
 11
123.837236147
 21
200.4185965804
  0
LINE
  8
0
 62
7
  6
CONTINUOUS
 10
123.814630301
 20
200.7302779289
 11
125.8518321937
 21
200.8780335533
  0
LINE
  8
0
 62
7
  6
CONTINUOUS
 10
126.938652842
 20
198.1890040701
 11
126.6195093599
 21
198.1871447705
  0
LINE
  8
0
 62
7
  6
CONTINUOUS
 10
125.9812222169
 20
198.1834261703
 11
123.9387037525
 21
198.1715266519
  0
LINE
  8
0
 62
7
  6
CONTINUOUS
 10
123.9368831888
 20
198.4840212295
 11
125.9794016532
 21
198.4959207479
  0
LINE
  8
0
 62
7
  6
CONTINUOUS
 10
126.6176887962
 20
198.4996393481
 11
126.9368322783
 21
198.5014986477
  0
LINE
  8
DEFAULT_1
 62
2
  6
CENTER
 10
62.0481837841
 20
198.1937804014
 11
139.8281837841
 21
198.1937804014
  0
LINE
  8
0
 62
7
  6
CONTINUOUS
 10
74.9277514989
 20
197.3025329673
 11
77.92759574
 21
197.271962895
  0
LINE
  8
0
 62
7
  6
CONTINUOUS
 10
77.931416999
 20
197.6469434251
 11
76.5910610425
 21
197.6606023938
  0
LINE
  8
0
 62
7
  6
CONTINUOUS
 10
76.2081022489
 20
197.6645049557
 11
75.250705086
 21
197.6742613624
  0
LINE
  8
0
 62
7
  6
CONTINUOUS
 10
75.6495857534
 20
199.2327738615
 11
75.841065329
 21
199.2308225787
  0
LINE
  8
0
 62
7
  6
CONTINUOUS
 10
75.9087130537
 20
199.6051526819
 11
75.6534070125
 21
199.6077543917
  0
LINE
  8
0
 62
7
  6
CONTINUOUS
 10
126.1834802987
 20
191.8739205221
 11
125.8082928155
 21
191.950777663
  0
LINE
  8
0
 62
7
  6
CONTINUOUS
 10
125.0455571621
 20
192.3622160518
 11
124.670369679
 21
192.4390731927
  0
LINE
  8
0
 62
7
  6
CONTINUOUS
 10
126.1845726124
 20
193.7876332682
 11
125.3716662237
 21
193.9541571092
  0
LINE
  8
0
 62
7
  6
CONTINUOUS
 10
124.9964787405
 20
194.0310142501
 11
123.6207911271
 21
194.3128238023
  0
LINE
  8
0
 62
7
  6
CONTINUOUS
 10
123.6960470865
 20
194.6801949234
 11
126.6350160549
 21
194.0781472484
  0
LINE
  8
0
 62
7
  6
CONTINUOUS
 10
76.7647082312
 20
203.4999486373
 11
77.196321004
 21
203.384414175
  0
LINE
  8
0
 62
7
  6
CONTINUOUS
 10
76.9688310358
 20
203.768809013
 11
76.8455131007
 21
203.8018188593
  0
LINE
  8
0
 62
7
  6
CONTINUOUS
 10
77.6632413308
 20
203.6476310902
 11
77.4782644282
 21
203.6971458598
  0
LINE
  8
0
 62
7
  6
CONTINUOUS
 10
77.8822902554
 20
205.2065024976
 11
78.067267158
 21
205.156987728
  0
LINE
  8
0
 62
7
  6
CONTINUOUS
 10
78.2097324747
 20
205.4423585543
 11
77.9014375506
 21
205.5248831934
  0
LINE
  8
0
 62
7
  6
CONTINUOUS
 10
125.8861074062
 20
190.870835567
 11
123.002527117
 21
191.6984615185
  0
LINE
  8
0
 62
7
  6
CONTINUOUS
 10
123.0887382194
 20
191.9988346945
 11
125.9723185086
 21
191.171208743
  0
LINE
  8
0
 62
7
  6
CONTINUOUS
 10
123.3860331885
 20
188.8960838955
 11
123.146325861
 21
188.9839946176
  0
LINE
  8
0
 62
7
  6
CONTINUOUS
 10
123.493632553
 20
189.1894765041
 11
123.6134861748
 21
189.1455211584
  0
LINE
  8
0
 62
7
  6
CONTINUOUS
 10
124.0054753155
 20
190.3997440271
 11
123.9455485046
 21
190.4217217
  0
LINE
  8
0
 62
7
  6
CONTINUOUS
 10
123.727360656
 20
190.5683098694
 11
123.6075070342
 21
190.6122652151
  0
LINE
  8
0
 62
7
  6
CONTINUOUS
 10
118.3754151178
 20
181.6317272144
 11
118.1337107257
 21
181.8401378812
  0
LINE
  8
0
 62
7
  6
CONTINUOUS
 10
118.4269341667
 20
182.0824584424
 11
118.5719568019
 21
181.9574120424
  0
LINE
  8
0
 62
7
  6
CONTINUOUS
 10
120.436677479
 20
182.1651128917
 11
120.3399957222
 21
182.2484771584
  0
LINE
  8
0
 62
7
  6
CONTINUOUS
 10
120.5365374064
 20
182.5741619863
 11
120.7299010555
 21
182.4074333362
  0
LINE
  8
0
 62
7
  6
CONTINUOUS
 10
117.4033004378
 20
178.0328669204
 11
115.3962789482
 21
180.2626347872
  0
LINE
  8
0
 62
7
  6
CONTINUOUS
 10
115.97391802
 20
180.1814193932
 11
117.6820214212
 21
178.2837446066
  0
LINE
  8
0
 62
7
  6
CONTINUOUS
 10
118.7265031559
 20
179.7391576873
 11
116.975697145
 21
181.684274371
  0
LINE
  8
0
 62
7
  6
CONTINUOUS
 10
114.4081085842
 20
176.7489584616
 11
114.2625749823
 21
176.9587390954
  0
LINE
  8
0
 62
7
  6
CONTINUOUS
 10
113.6804409317
 20
177.7978611164
 11
113.4985240568
 21
178.060086725
  0
LINE
  8
0
 62
7
  6
CONTINUOUS
 10
113.8430225587
 20
178.2213939567
 11
113.9521726836
 21
178.0640585916
  0
LINE
  8
0
 62
7
  6
CONTINUOUS
 10
114.6070734841
 20
177.1200463271
 11
114.6798402341
 21
177.0151560837
  0
LINE
  8
0
 62
7
  6
CONTINUOUS
 10
116.1819528308
 20
177.591119469
 11
115.6725854792
 21
178.32535132
  0
LINE
  8
0
 62
7
  6
CONTINUOUS
 10
115.4542852293
 20
178.6400220503
 11
114.9085345282
 21
179.4266989863
  0
LINE
  8
0
 62
7
  6
CONTINUOUS
 10
97.7192624504
 20
172.363545322
 11
97.7738918094
 21
172.6779839524
  0
LINE
  8
0
 62
7
  6
CONTINUOUS
 10
98.1453715044
 20
174.8161669476
 11
98.2327784865
 21
175.3192688004
  0
LINE
  8
0
 62
7
  6
CONTINUOUS
 10
94.6100463739
 20
174.7423852646
 11
94.47927842
 21
174.3151411425
  0
LINE
  8
0
 62
7
  6
CONTINUOUS
 10
94.7594148047
 20
174.1626462483
 11
94.9275450311
 21
174.7119601195
  0
LINE
  8
0
 62
7
  6
CONTINUOUS
 10
91.5738213597
 20
175.0225593181
 11
91.5221652958
 21
174.9058176626
  0
LINE
  8
0
 62
7
  6
CONTINUOUS
 10
91.7821146306
 20
174.7209955364
 11
91.8854267584
 21
174.9544788474
  0
LINE
  8
0
 62
7
  6
CONTINUOUS
 10
93.0561990948
 20
175.2179761945
 11
93.2280510842
 21
175.5658930212
  0
LINE
  8
0
 62
7
  6
CONTINUOUS
 10
90.3240827015
 20
176.8319328284
 11
90.0861351544
 21
176.4486253598
  0
LINE
  8
0
 62
7
  6
CONTINUOUS
 10
90.3719072885
 20
176.3221763767
 11
90.5840320362
 21
176.6471107022
  0
LINE
  8
0
 62
7
  6
CONTINUOUS
 10
134.5932059508
 20
206.8140868943
 11
129.8316037064
 21
206.2816705858
  0
LINE
  8
0
 62
7
  6
CONTINUOUS
 10
72.0447638619
 20
206.2816705858
 11
67.2831616175
 21
206.8140868943
  0
LINE
  8
0
 62
7
  6
CONTINUOUS
 10
77.196321004
 20
203.384414175
 11
77.6440939492
 21
203.3292504175
  0
LINE
  8
0
 62
7
  6
CONTINUOUS
 10
122.7867649957
 20
189.1158606547
 11
122.5685776815
 21
189.2624501517
  0
LINE
  8
0
 62
7
  6
CONTINUOUS
 10
117.2544181284
 20
181.9351520572
 11
119.261439618
 21
179.7053841904
  0
LINE
  8
0
 62
7
  6
CONTINUOUS
 10
114.9983493797
 20
179.9551221068
 11
116.7083682075
 21
177.4902010921
  0
LINE
  8
0
 62
7
  6
CONTINUOUS
 10
103.8859110272
 20
228.0526917436
 11
103.5833951832
 21
232.8344076723
  0
LINE
  8
0
 62
7
  6
CONTINUOUS
 10
91.5760771121
 20
164.7375229936
 11
93.4957921857
 21
169.1273996542
  0
LINE
  8
0
 62
7
  6
CONTINUOUS
 10
94.47927842
 20
174.3151411425
 11
94.3074291925
 21
173.9672235641
  0
LINE
  8
0
 62
7
  6
CONTINUOUS
 10
92.9292362989
 20
175.6573522035
 11
92.7760654458
 21
175.3704702514
  0
LINE
  8
0
 62
7
  6
CONTINUOUS
 10
94.6062467135
 20
173.8757635444
 11
94.7594148047
 21
174.1626462483
  0
LINE
  8
0
 62
7
  6
CONTINUOUS
 10
93.0450393819
 20
175.8221659956
 11
92.9292362989
 21
175.6573522035
  0
LINE
  8
0
 62
7
  6
CONTINUOUS
 10
122.389212108
 20
219.1722709641
 11
125.2310992788
 21
223.0297313161
  0
LINE
  8
0
 62
7
  6
CONTINUOUS
 10
72.261126264
 20
178.5826464959
 11
76.553471654
 21
180.7115180543
  0
LINE
  8
0
 62
7
  6
CONTINUOUS
 10
123.923176844
 20
203.2255904887
 11
124.1636443326
 21
203.3317484476
  0
LINE
  8
0
 62
7
  6
CONTINUOUS
 10
77.47852592
 20
202.0481044089
 11
78.2713843038
 21
202.1915076282
  0
LINE
  8
0
 62
7
  6
CONTINUOUS
 10
75.433142727
 20
201.6982738548
 11
77.2170753254
 21
202.0209395923
  0
LINE
  8
0
 62
7
  6
CONTINUOUS
 10
77.6440939492
 20
203.3292504175
 11
77.9847119616
 21
203.3674783008
  0
LINE
  8
0
 62
7
  6
CONTINUOUS
 10
77.8643783196
 20
203.6584870486
 11
77.6632413308
 21
203.6476310902
  0
LINE
  8
0
 62
7
  6
CONTINUOUS
 10
77.6811531803
 20
205.1956465623
 11
77.8822902554
 21
205.2065024976
  0
LINE
  8
0
 62
7
  6
CONTINUOUS
 10
123.8349600205
 20
190.8617024781
 11
124.1730009983
 21
190.6711576199
  0
LINE
  8
0
 62
7
  6
CONTINUOUS
 10
132.2604527033
 20
183.1642870358
 11
128.2706231574
 21
185.8171314062
  0
LINE
  8
0
 62
7
  6
CONTINUOUS
 10
122.7361033644
 20
189.5338637445
 11
122.8943643601
 21
189.4092532633
  0
LINE
  8
0
 62
7
  6
CONTINUOUS
 10
84.003335609
 20
222.9617960612
 11
80.6979672757
 21
226.4303495407
  0
LINE
  8
0
 62
7
  6
CONTINUOUS
 10
120.7299010555
 20
182.4074333362
 11
120.8824504974
 21
182.1933706592
  0
LINE
  8
0
 62
7
  6
CONTINUOUS
 10
113.4985240568
 20
178.060086725
 11
113.440725644
 21
178.2530469755
  0
LINE
  8
0
 62
7
  6
CONTINUOUS
 10
113.7852241713
 20
178.4143541705
 11
113.8430225587
 21
178.2213939567
  0
LINE
  8
0
 62
7
  6
CONTINUOUS
 10
114.2625749823
 20
176.9587390954
 11
114.204776595
 21
177.1516993092
  0
LINE
  8
0
 62
7
  6
CONTINUOUS
 10
114.5492750968
 20
177.3130065409
 11
114.6070734841
 21
177.1200463271
  0
LINE
  8
0
 62
7
  6
CONTINUOUS
 10
115.2716617203
 20
166.5469541573
 11
113.9204904593
 21
171.1437638426
  0
LINE
  8
0
 62
7
  6
CONTINUOUS
 10
94.4904381067
 20
173.710951256
 11
94.6062467135
 21
173.8757635444
  0
LINE
  8
0
 62
7
  6
CONTINUOUS
 10
90.5840320362
 20
176.6471107022
 11
90.7186674193
 21
176.7969347781
  0
LINE
  8
0
 62
7
  6
CONTINUOUS
 10
90.1449554569
 20
175.6548065487
 11
90.2795908399
 21
175.8046306246
  0
LINE
  8
0
 62
7
  6
CONTINUOUS
 10
91.5221652958
 20
174.9058176626
 11
91.3875298404
 21
174.7559934232
  0
LINE
  8
0
 62
7
  6
CONTINUOUS
 10
93.2392942313
 20
176.029720524
 11
93.0450393819
 21
175.8221659956
  0
LINE
  8
0
 62
7
  6
CONTINUOUS
 10
90.5675359191
 20
177.0732055625
 11
90.3240827015
 21
176.8319328284
  0
LINE
  8
0
 62
7
  6
CONTINUOUS
 10
123.808404396
 20
203.1417424208
 11
123.923176844
 21
203.2255904887
  0
LINE
  8
0
 62
7
  6
CONTINUOUS
 10
123.7043830691
 20
201.5363581977
 11
123.9967754977
 21
201.7152093379
  0
LINE
  8
0
 62
7
  6
CONTINUOUS
 10
124.2182570728
 20
203.0240575411
 11
124.0406371275
 21
202.9290545261
  0
LINE
  8
0
 62
7
  6
CONTINUOUS
 10
124.114235748
 20
201.418673307
 11
123.8737682596
 21
201.3125154105
  0
LINE
  8
0
 62
7
  6
CONTINUOUS
 10
125.6510698069
 20
199.2342039767
 11
125.4646033231
 21
199.1580155114
  0
LINE
  8
0
 62
7
  6
CONTINUOUS
 10
78.3224311609
 20
202.5630170068
 11
75.2142316992
 21
201.9807039663
  0
LINE
  8
0
 62
7
  6
CONTINUOUS
 10
77.9014375506
 20
205.5248831934
 11
77.5608195815
 21
205.4866552985
  0
LINE
  8
0
 62
7
  6
CONTINUOUS
 10
76.7592528307
 20
205.7012193461
 11
76.558115842
 21
205.6903633877
  0
LINE
  8
0
 62
7
  6
CONTINUOUS
 10
124.1038089659
 20
190.2971098911
 11
124.0054753155
 21
190.3997440271
  0
LINE
  8
0
 62
7
  6
CONTINUOUS
 10
120.5408861779
 20
181.9927322313
 11
120.436677479
 21
182.1651128917
  0
LINE
  8
0
 62
7
  6
CONTINUOUS
 10
118.1337107257
 20
181.8401378812
 11
118.0219753217
 21
182.1015347309
  0
LINE
  8
0
 62
7
  6
CONTINUOUS
 10
113.440725644
 20
178.2530469755
 11
113.4492496948
 21
178.5697036575
  0
LINE
  8
0
 62
7
  6
CONTINUOUS
 10
114.204776595
 20
177.1516993092
 11
114.2133006585
 21
177.4683559728
  0
LINE
  8
0
 62
7
  6
CONTINUOUS
 10
94.2961887418
 20
173.5033950957
 11
94.4904381067
 21
173.710951256
  0
LINE
  8
0
 62
7
  6
CONTINUOUS
 10
91.5386613587
 20
174.4797226796
 11
91.7821146306
 21
174.7209955364
  0
LINE
  8
0
 62
7
  6
CONTINUOUS
 10
124.0406371275
 20
202.9290545261
 11
123.8739396878
 21
202.7725133132
  0
LINE
  8
0
 62
7
  6
CONTINUOUS
 10
93.2280510842
 20
175.5658930212
 11
93.579193026
 21
175.8589339607
  0
LINE
  8
0
 62
7
  6
CONTINUOUS
 10
123.8737682596
 20
201.3125154105
 11
123.7589958211
 21
201.2286672252
  0
LINE
  8
0
 62
7
  6
CONTINUOUS
 10
90.7186674193
 20
176.7969347781
 11
90.910464573
 21
176.9214658567
  0
LINE
  8
0
 62
7
  6
CONTINUOUS
 10
90.2795908399
 20
175.8046306246
 11
90.4713879755
 21
175.9291616623
  0
LINE
  8
0
 62
7
  6
CONTINUOUS
 10
90.8423123829
 20
177.2308190411
 11
90.5675359191
 21
177.0732055625
  0
LINE
  8
0
 62
7
  6
CONTINUOUS
 10
124.1006254029
 20
201.8605955573
 11
124.3110130333
 21
201.7709840538
  0
LINE
  8
0
 62
7
  6
CONTINUOUS
 10
124.1730009983
 20
190.6711576199
 11
124.3696687916
 21
190.4658906909
  0
LINE
  8
0
 62
7
  6
CONTINUOUS
 10
118.363539675
 20
182.3021731296
 11
118.4269341667
 21
182.0824584424
  0
LINE
  8
0
 62
7
  6
CONTINUOUS
 10
118.0219753217
 20
182.1015347309
 11
117.9918662101
 21
182.4575976863
  0
LINE
  8
0
 62
7
  6
CONTINUOUS
 10
113.8151632217
 20
178.5904957788
 11
113.7852241713
 21
178.4143541705
  0
LINE
  8
0
 62
7
  6
CONTINUOUS
 10
114.5792141727
 20
177.4891481125
 11
114.5492750968
 21
177.3130065409
  0
LINE
  8
0
 62
7
  6
CONTINUOUS
 10
123.652629522
 20
202.9236630547
 11
123.808404396
 21
203.1417424208
  0
LINE
  8
0
 62
4
  6
CONTINUOUS
 10
106.484702029
 20
182.5270952106
 11
105.0704884666
 21
181.1128816482
  0
LINE
  8
0
 62
4
  6
CONTINUOUS
 10
116.6048689749
 20
192.6472621565
 11
118.0190825373
 21
194.0614757189
  0
LINE
  8
0
 62
4
  6
CONTINUOUS
 10
114.7429139154
 20
188.5225653972
 11
110.6093987883
 21
184.3890502701
  0
LINE
  8
0
 62
7
  6
CONTINUOUS
 10
94.3074291925
 20
173.9672235641
 11
93.9562899472
 21
173.674181659
  0
LINE
  8
0
 62
7
  6
CONTINUOUS
 10
91.3875298404
 20
174.7559934232
 11
91.1957327048
 21
174.6314623854
  0
LINE
  8
0
 62
7
  6
CONTINUOUS
 10
91.2638849039
 20
174.3221092215
 11
91.5386613587
 21
174.4797226796
  0
LINE
  8
0
 62
7
  6
CONTINUOUS
 10
93.4746276121
 20
176.1579493247
 11
93.2392942313
 21
176.029720524
  0
LINE
  8
0
 62
7
  6
CONTINUOUS
 10
123.0082388623
 20
190.8320419666
 11
123.1711324479
 21
190.9054441939
  0
LINE
  8
0
 62
7
  6
CONTINUOUS
 10
123.2648335295
 20
190.6047973416
 11
123.0204936332
 21
190.4946953476
  0
LINE
  8
0
 62
7
  6
CONTINUOUS
 10
123.9515270687
 20
188.9549763311
 11
123.6472604035
 21
188.8668519945
  0
LINE
  8
0
 62
7
  6
CONTINUOUS
 10
123.9967754977
 20
201.7152093379
 11
123.7754653404
 21
201.8663589674
  0
LINE
  8
0
 62
7
  6
CONTINUOUS
 10
125.4378425056
 20
200.4093580897
 11
125.3014750575
 21
200.5247959391
  0
LINE
  8
0
 62
7
  6
CONTINUOUS
 10
125.5561252718
 20
200.5432653905
 11
125.6924927199
 21
200.4278275412
  0
LINE
  8
0
 62
4
  6
CONTINUOUS
 10
105.0704884666
 20
215.2746791545
 11
106.484702029
 21
213.8604655921
  0
LINE
  8
0
 62
4
  6
CONTINUOUS
 10
118.0190825373
 20
202.3260850838
 11
116.6048689749
 21
203.7402986462
  0
LINE
  8
0
 62
4
  6
CONTINUOUS
 10
114.7429139154
 20
207.8649954055
 11
110.6093987883
 21
211.9985105326
  0
LINE
  8
0
 62
7
  6
CONTINUOUS
 10
122.5685776815
 20
189.2624501517
 11
122.4533566495
 21
189.5044182059
  0
LINE
  8
0
 62
7
  6
CONTINUOUS
 10
124.2190299769
 20
190.0551418446
 11
124.1038089659
 21
190.2971098911
  0
LINE
  8
0
 62
7
  6
CONTINUOUS
 10
124.3696687916
 20
190.4658906909
 11
124.4464824706
 21
190.3045777645
  0
LINE
  8
0
 62
7
  6
CONTINUOUS
 10
122.2598978809
 20
187.5521984163
 11
121.8244595524
 21
188.5378940562
  0
LINE
  8
0
 62
7
  6
CONTINUOUS
 10
122.6025683201
 20
187.3811729617
 11
123.0380059298
 21
186.3954760818
  0
LINE
  8
0
 62
7
  6
CONTINUOUS
 10
122.8705435246
 20
186.0599446483
 11
122.3475018579
 21
187.2989199922
  0
LINE
  8
0
 62
7
  6
CONTINUOUS
 10
121.9919219576
 20
188.8734254897
 11
122.5149642631
 21
187.6344514257
  0
LINE
  8
0
 62
7
  6
CONTINUOUS
 10
120.8824504974
 20
182.1933706592
 11
120.9125595921
 21
181.8373077184
  0
LINE
  8
0
 62
7
  6
CONTINUOUS
 10
118.3892991656
 20
182.5275387727
 11
118.363539675
 21
182.3021731296
  0
LINE
  8
0
 62
7
  6
CONTINUOUS
 10
117.9918662101
 20
182.4575976863
 11
118.0584397937
 21
182.7302974548
  0
LINE
  8
0
 62
7
  6
CONTINUOUS
 10
123.8739396878
 20
202.7725133132
 11
123.7919348598
 21
202.5040507096
  0
LINE
  8
0
 62
7
  6
CONTINUOUS
 10
113.4492496948
 20
178.5697036575
 11
113.5455088613
 21
178.8695400618
  0
LINE
  8
0
 62
7
  6
CONTINUOUS
 10
123.5597021577
 20
202.7167385982
 11
123.652629522
 21
202.9236630547
  0
LINE
  8
0
 62
7
  6
CONTINUOUS
 10
125.4419974642
 20
199.4696970382
 11
125.5602802433
 21
199.6036041606
  0
LINE
  8
0
 62
7
  6
CONTINUOUS
 10
125.769352586
 20
199.3681110991
 11
125.6510698069
 21
199.2342039767
  0
LINE
  8
0
 62
7
  6
CONTINUOUS
 10
97.7977578132
 20
175.0061319043
 11
95.332641594
 21
173.2316892715
  0
LINE
  8
0
 62
7
  6
CONTINUOUS
 10
122.8238258084
 20
190.6999622881
 11
123.0082388623
 21
190.8320419666
  0
LINE
  8
0
 62
7
  6
CONTINUOUS
 10
95.6186758335
 20
173.052422892
 11
98.1453715044
 21
174.8161669476
  0
LINE
  8
0
 62
7
  6
CONTINUOUS
 10
94.0608553676
 20
173.3751663163
 11
94.2961887418
 21
173.5033950957
  0
LINE
  8
0
 62
7
  6
CONTINUOUS
 10
118.7930874815
 20
183.5823055386
 11
119.1421786202
 21
183.6939276786
  0
LINE
  8
0
 62
7
  6
CONTINUOUS
 10
93.579193026
 20
175.8589339607
 11
93.7958452639
 21
175.9261278655
  0
LINE
  8
0
 62
7
  6
CONTINUOUS
 10
123.9421627614
 20
202.0229002224
 11
124.1006254029
 21
201.8605955573
  0
LINE
  8
0
 62
7
  6
CONTINUOUS
 10
125.5787311049
 20
200.2315842204
 11
125.4378425056
 21
200.4093580897
  0
LINE
  8
0
 62
7
  6
CONTINUOUS
 10
125.6924927199
 20
200.4278275412
 11
125.8333813191
 21
200.2500536718
  0
LINE
  8
0
 62
7
  6
CONTINUOUS
 10
123.7754653404
 20
201.8663589674
 11
123.6907727296
 21
201.978280449
  0
LINE
  8
0
 62
7
  6
CONTINUOUS
 10
122.6808091642
 20
189.7538541182
 11
122.7361033644
 21
189.5338637445
  0
LINE
  8
0
 62
7
  6
CONTINUOUS
 10
124.4464824706
 20
190.3045777645
 11
124.5017766707
 21
190.0845873909
  0
LINE
  8
0
 62
7
  6
CONTINUOUS
 10
122.4533566495
 20
189.5044182059
 11
122.4195824051
 21
189.7830873757
  0
LINE
  8
0
 62
7
  6
CONTINUOUS
 10
123.9412230102
 20
198.9848627699
 11
123.9186171771
 21
199.29654394
  0
LINE
  8
0
 62
7
  6
CONTINUOUS
 10
123.837236147
 20
200.4185965804
 11
123.814630301
 21
200.7302779289
  0
LINE
  8
0
 62
7
  6
CONTINUOUS
 10
123.9387037525
 20
198.1715266519
 11
123.9368831888
 21
198.4840212295
  0
LINE
  8
0
 62
7
  6
CONTINUOUS
 10
124.5017766707
 20
190.0845873909
 11
124.49714406
 21
189.8865746901
  0
LINE
  8
0
 62
7
  6
CONTINUOUS
 10
123.5405448445
 20
202.4594309392
 11
123.5597021577
 21
202.7167385982
  0
LINE
  8
0
 62
7
  6
CONTINUOUS
 10
124.2097647554
 20
189.659116443
 11
124.2359173375
 21
189.9158079341
  0
LINE
  8
0
 62
7
  6
CONTINUOUS
 10
120.5151266535
 20
181.7673666173
 11
120.5408861779
 21
181.9927322313
  0
LINE
  8
0
 62
7
  6
CONTINUOUS
 10
125.6149004688
 20
199.7328939202
 11
125.6604783404
 21
199.9868564331
  0
LINE
  8
0
 62
7
  6
CONTINUOUS
 10
123.6207911271
 20
194.3128238023
 11
123.6960470865
 21
194.6801949234
  0
LINE
  8
0
 62
7
  6
CONTINUOUS
 10
122.4195824051
 20
189.7830873757
 11
122.5102939111
 21
190.2158125537
  0
LINE
  8
0
 62
7
  6
CONTINUOUS
 10
122.7715211471
 20
190.186580645
 11
122.6808091642
 21
189.7538541182
  0
LINE
  8
0
 62
7
  6
CONTINUOUS
 10
120.9125595921
 20
181.8373077184
 11
120.8459859958
 21
181.5646079608
  0
LINE
  8
0
 62
7
  6
CONTINUOUS
 10
125.9332132367
 20
199.7559807345
 11
125.8831141881
 21
199.5643545982
  0
LINE
  8
0
 62
7
  6
CONTINUOUS
 10
123.002527117
 20
191.6984615185
 11
123.0887382194
 21
191.9988346945
  0
LINE
  8
0
 62
7
  6
CONTINUOUS
 10
122.8943643601
 20
189.4092532633
 11
122.7867649957
 21
189.1158606547
  0
LINE
  8
0
 62
7
  6
CONTINUOUS
 10
125.5602802433
 20
199.6036041606
 11
125.6149004688
 21
199.7328939202
  0
LINE
  8
0
 62
7
  6
CONTINUOUS
 10
118.5042127062
 20
182.7585553136
 11
118.3892991656
 21
182.5275387727
  0
LINE
  8
0
 62
7
  6
CONTINUOUS
 10
121.0429681151
 20
186.9720802734
 11
121.2104305203
 21
187.3076117069
  0
LINE
  8
0
 62
7
  6
CONTINUOUS
 10
121.8244595524
 20
188.5378940562
 11
121.9919219576
 21
188.8734254897
  0
LINE
  8
0
 62
7
  6
CONTINUOUS
 10
114.2133006585
 20
177.4683559728
 11
114.2796231093
 21
177.5920524226
  0
LINE
  8
0
 62
7
  6
CONTINUOUS
 10
118.0584397937
 20
182.7302974548
 11
118.2141674018
 21
183.0086481428
  0
LINE
  8
0
 62
7
  6
CONTINUOUS
 10
122.5102939111
 20
190.2158125537
 11
122.6993395706
 21
190.5459049349
  0
LINE
  8
0
 62
7
  6
CONTINUOUS
 10
125.8831141881
 20
199.5643545982
 11
125.769352586
 21
199.3681110991
  0
LINE
  8
0
 62
7
  6
CONTINUOUS
 10
122.917527372
 20
190.3993167828
 11
122.7715211471
 21
190.186580645
  0
LINE
  8
0
 62
7
  6
CONTINUOUS
 10
113.9328374102
 20
178.7498170772
 11
113.8151632217
 21
178.5904957788
  0
LINE
  8
0
 62
7
  6
CONTINUOUS
 10
114.6968883611
 20
177.6484694109
 11
114.5792141727
 21
177.4891481125
  0
LINE
  8
0
 62
7
  6
CONTINUOUS
 10
122.6993395706
 20
190.5459049349
 11
122.8238258084
 21
190.6999622881
  0
LINE
  8
0
 62
7
  6
CONTINUOUS
 10
118.2141674018
 20
183.0086481428
 11
118.540678108
 21
183.3873191245
  0
LINE
  8
0
 62
7
  6
CONTINUOUS
 10
118.8307234124
 20
183.1372262953
 11
118.5042127062
 21
182.7585553136
  0
LINE
  8
0
 62
7
  6
CONTINUOUS
 10
113.5455088613
 20
178.8695400618
 11
113.7658888724
 21
179.1001126929
  0
LINE
  8
0
 62
7
  6
CONTINUOUS
 10
123.0204936332
 20
190.4946953476
 11
122.917527372
 21
190.3993167828
  0
LINE
  8
0
 62
7
  6
CONTINUOUS
 10
115.3962789482
 20
180.2626347872
 11
115.8143604232
 21
180.6389513165
  0
LINE
  8
0
 62
7
  6
CONTINUOUS
 10
116.975697145
 20
181.684274371
 11
117.2544181284
 21
181.9351520572
  0
LINE
  8
0
 62
7
  6
CONTINUOUS
 10
124.2389063733
 20
189.1824345782
 11
123.9515270687
 21
188.9549763311
  0
LINE
  8
0
 62
7
  6
CONTINUOUS
 10
118.540678108
 20
183.3873191245
 11
118.7930874815
 21
183.5823055386
  0
LINE
  8
0
 62
7
  6
CONTINUOUS
 10
123.8363060577
 20
189.1969443776
 11
124.0207191011
 21
189.3290240599
  0
LINE
  8
0
 62
7
  6
CONTINUOUS
 10
119.0423187098
 20
183.2848785694
 11
118.8307234124
 21
183.1372262953
  0
LINE
  8
0
 62
7
  6
CONTINUOUS
 10
113.7658888724
 20
179.1001126929
 11
114.9983493797
 21
179.9551221068
  0
LINE
  8
0
 62
7
  6
CONTINUOUS
 10
114.9085345282
 20
179.4266989863
 11
113.9328374102
 21
178.7498170772
  0
LINE
  8
0
 62
7
  6
CONTINUOUS
 10
119.935035977
 20
182.2675523343
 11
119.7642538172
 21
182.1672331203
  0
LINE
  8
0
 62
7
  6
CONTINUOUS
 10
119.6858047782
 20
182.5649792779
 11
119.9457418882
 21
182.6709505021
  0
LINE
  8
0
 62
7
  6
CONTINUOUS
 10
119.2669618854
 20
181.688244008
 11
119.0070247755
 21
181.5822727839
  0
LINE
  8
0
 62
7
  6
CONTINUOUS
 10
93.9562899472
 20
173.674181659
 11
93.7396377092
 21
173.6069877541
  0
LINE
  8
0
 62
7
  6
CONTINUOUS
 10
114.2881471729
 20
177.9087090862
 11
114.4785881113
 21
177.9631401412
  0
LINE
  8
0
 62
7
  6
CONTINUOUS
 10
123.6907727296
 20
201.978280449
 11
123.5842350429
 21
202.2132781788
  0
LINE
  8
0
 62
7
  6
CONTINUOUS
 10
123.8356250582
 20
202.2578979492
 11
123.9421627614
 21
202.0229002224
  0
LINE
  8
0
 62
7
  6
CONTINUOUS
 10
125.6604783404
 20
199.9868564331
 11
125.5787311049
 21
200.2315842204
  0
LINE
  8
0
 62
7
  6
CONTINUOUS
 10
125.8333813191
 20
200.2500536718
 11
125.9151285547
 21
200.0053258846
  0
LINE
  8
0
 62
7
  6
CONTINUOUS
 10
123.7589958211
 20
201.2286672252
 11
123.7043830691
 21
201.5363581977
  0
LINE
  8
0
 62
7
  6
CONTINUOUS
 10
123.5842350429
 20
202.2132781788
 11
123.5405448445
 21
202.4594309392
  0
LINE
  8
0
 62
7
  6
CONTINUOUS
 10
123.7919348598
 20
202.5040507096
 11
123.8356250582
 21
202.2578979492
  0
LINE
  8
0
 62
7
  6
CONTINUOUS
 10
124.2359173375
 20
189.9158079341
 11
124.2190299769
 21
190.0551418446
  0
LINE
  8
0
 62
7
  6
CONTINUOUS
 10
125.8518321937
 20
200.8780335533
 11
125.8744380397
 21
200.5663522048
  0
LINE
  8
0
 62
7
  6
CONTINUOUS
 10
125.9151285547
 20
200.0053258846
 11
125.9332132367
 21
199.7559807345
  0
LINE
  8
0
 62
7
  6
CONTINUOUS
 10
125.9794016532
 20
198.4959207479
 11
125.9812222169
 21
198.1834261703
  0
LINE
  8
0
 62
7
  6
CONTINUOUS
 10
126.6195093599
 20
198.1871447705
 11
126.6176887962
 21
198.4996393481
  0
LINE
  8
0
 62
7
  6
CONTINUOUS
 10
126.9368322783
 20
198.5014986477
 11
126.938652842
 21
198.1890040701
  0
LINE
  8
0
 62
7
  6
CONTINUOUS
 10
124.49714406
 20
189.8865746901
 11
124.4279520275
 21
189.5125269613
  0
LINE
  8
0
 62
7
  6
CONTINUOUS
 10
124.670369679
 20
192.4390731927
 11
124.9964787405
 21
194.0310142501
  0
LINE
  8
0
 62
7
  6
CONTINUOUS
 10
125.3716662237
 20
193.9541571092
 11
125.0455571621
 21
192.3622160518
  0
LINE
  8
0
 62
7
  6
CONTINUOUS
 10
125.8082928155
 20
191.950777663
 11
126.1845726124
 21
193.7876332682
  0
LINE
  8
0
 62
7
  6
CONTINUOUS
 10
126.6350160549
 20
194.0781472484
 11
126.1834802987
 21
191.8739205221
  0
LINE
  8
0
 62
7
  6
CONTINUOUS
 10
125.9723185086
 20
191.171208743
 11
125.8861074062
 21
190.870835567
  0
LINE
  8
0
 62
7
  6
CONTINUOUS
 10
123.146325861
 20
188.9839946176
 11
123.727360656
 21
190.5683098694
  0
LINE
  8
0
 62
7
  6
CONTINUOUS
 10
123.9455485046
 20
190.4217217
 11
123.493632553
 21
189.1894765041
  0
LINE
  8
0
 62
7
  6
CONTINUOUS
 10
120.4410262506
 20
181.5836831367
 11
120.5151266535
 21
181.7673666173
  0
LINE
  8
0
 62
7
  6
CONTINUOUS
 10
120.8459859958
 20
181.5646079608
 11
120.7310715211
 21
181.3335903366
  0
LINE
  8
0
 62
7
  6
CONTINUOUS
 10
123.8194973671
 20
187.9612898646
 11
123.6520349619
 21
187.6257584311
  0
LINE
  8
0
 62
7
  6
CONTINUOUS
 10
123.0380059298
 20
186.3954760818
 11
122.8705435246
 21
186.0599446483
  0
LINE
  8
0
 62
7
  6
CONTINUOUS
 10
124.0207191011
 20
189.3290240599
 11
124.2097647554
 21
189.659116443
  0
LINE
  8
0
 62
7
  6
CONTINUOUS
 10
124.4279520275
 20
189.5125269613
 11
124.2389063733
 21
189.1824345782
  0
LINE
  8
0
 62
7
  6
CONTINUOUS
 10
119.7405019299
 20
183.5081239256
 11
119.4956193673
 21
183.224121231
  0
LINE
  8
0
 62
7
  6
CONTINUOUS
 10
119.2293259841
 20
182.1333232258
 11
119.4742085467
 21
182.4173259204
  0
LINE
  8
0
 62
7
  6
CONTINUOUS
 10
119.7642538172
 20
182.1672331203
 11
119.5193712546
 21
181.8832304257
  0
LINE
  8
0
 62
7
  6
CONTINUOUS
 10
119.4646741707
 20
180.9400857196
 11
119.7095567333
 21
181.2240884142
  0
LINE
  8
0
 62
7
  6
CONTINUOUS
 10
120.196143688
 20
181.2996804421
 11
120.4410262506
 21
181.5836831367
  0
LINE
  8
0
 62
7
  6
CONTINUOUS
 10
120.7310715211
 20
181.3335903366
 11
120.5270030303
 21
181.0969217856
  0
LINE
  8
0
 62
7
  6
CONTINUOUS
 10
119.261439618
 20
179.7053841904
 11
118.843358143
 21
179.3290676611
  0
LINE
  8
0
 62
7
  6
CONTINUOUS
 10
117.6820214212
 20
178.2837446066
 11
117.4033004378
 21
178.0328669204
  0
LINE
  8
0
 62
7
  6
CONTINUOUS
 10
119.5193712546
 20
181.8832304257
 11
119.2669618854
 21
181.688244008
  0
LINE
  8
0
 62
7
  6
CONTINUOUS
 10
120.5270030303
 20
181.0969217856
 11
120.2745936611
 21
180.9019353679
  0
LINE
  8
0
 62
7
  6
CONTINUOUS
 10
119.4742085467
 20
182.4173259204
 11
119.6858047782
 21
182.5649792779
  0
LINE
  8
0
 62
7
  6
CONTINUOUS
 10
119.0177306867
 20
181.9856709517
 11
119.2293259841
 21
182.1333232258
  0
LINE
  8
0
 62
7
  6
CONTINUOUS
 10
114.4785881113
 20
177.9631401412
 11
115.4542852293
 21
178.6400220503
  0
LINE
  8
0
 62
7
  6
CONTINUOUS
 10
115.6725854792
 20
178.32535132
 11
114.6968883611
 21
177.6484694109
  0
LINE
  8
0
 62
7
  6
CONTINUOUS
 10
115.2062557127
 20
176.9142375599
 11
116.1819528308
 21
177.591119469
  0
LINE
  8
0
 62
7
  6
CONTINUOUS
 10
116.7083682075
 20
177.4902010921
 11
115.4759077001
 21
176.6351916782
  0
LINE
  8
0
 62
7
  6
CONTINUOUS
 10
120.0253615283
 20
181.1993612282
 11
120.196143688
 21
181.2996804421
  0
LINE
  8
0
 62
7
  6
CONTINUOUS
 10
115.4759077001
 20
176.6351916782
 11
115.1827609359
 21
176.5095092951
  0
LINE
  8
0
 62
7
  6
CONTINUOUS
 10
115.0158147743
 20
176.8598065049
 11
115.2062557127
 21
176.9142375599
  0
LINE
  8
0
 62
7
  6
CONTINUOUS
 10
125.4205943869
 20
203.5548472957
 11
125.4752071272
 21
203.2471563892
  0
LINE
  8
0
 62
7
  6
CONTINUOUS
 10
125.6936580842
 20
202.0163927851
 11
125.7482708362
 21
201.7087018126
  0
LINE
  8
0
 62
7
  6
CONTINUOUS
 10
132.751323473
 20
179.5176929327
 11
133.0187198197
 21
179.980836991
  0
LINE
  8
0
 62
7
  6
CONTINUOUS
 10
113.3037050386
 20
163.4379753595
 11
113.8062457864
 21
163.6208852332
  0
LINE
  8
0
 62
7
  6
CONTINUOUS
 10
101.2055801309
 20
235.0828112804
 11
100.6707874374
 21
235.0828112804
  0
LINE
  8
0
 62
7
  6
CONTINUOUS
 10
124.8548332521
 20
226.2805384597
 11
124.445158281
 21
226.6242965768
  0
LINE
  8
0
 62
7
  6
CONTINUOUS
 10
137.3132202832
 20
204.336159394
 11
137.2203545066
 21
204.8628273848
  0
LINE
  8
0
 62
7
  6
CONTINUOUS
 10
64.5296446447
 20
105.5820568928
 11
64.5296446447
 21
108.5820568928
  0
LINE
  8
0
 62
7
  6
CONTINUOUS
 10
72.5481837841
 20
117.5820568928
 11
72.5481837841
 21
109.3080113134
  0
LINE
  8
0
 62
7
  6
CONTINUOUS
 10
72.5481837841
 20
104.8562103695
 11
72.5481837841
 21
96.5820568928
  0
POLYLINE
  8
0
 62
7
  6
CONTINUOUS
 66
1
 70
0
  0
VERTEX
  8
0
 62
7
  6
CONTINUOUS
 10
72.5927923299
 20
109.4057872786
  0
VERTEX
  8
0
 62
7
  6
CONTINUOUS
 10
72.5930055361
 20
109.4067804794
  0
VERTEX
  8
0
 62
7
  6
CONTINUOUS
 10
72.5914173088
 20
109.4008178146
  0
VERTEX
  8
0
 62
7
  6
CONTINUOUS
 10
72.5861921775
 20
109.3846558875
  0
VERTEX
  8
0
 62
7
  6
CONTINUOUS
 10
72.5760270575
 20
109.3592791604
  0
VERTEX
  8
0
 62
7
  6
CONTINUOUS
 10
72.5597460842
 20
109.3266152898
  0
VERTEX
  8
0
 62
7
  6
CONTINUOUS
 10
72.53620662
 20
109.2887398123
  0
VERTEX
  8
0
 62
7
  6
CONTINUOUS
 10
72.5043038782
 20
109.2477800481
  0
VERTEX
  8
0
 62
7
  6
CONTINUOUS
 10
72.4630048191
 20
109.2059718158
  0
VERTEX
  8
0
 62
7
  6
CONTINUOUS
 10
72.4120278522
 20
109.1661836837
  0
VERTEX
  8
0
 62
7
  6
CONTINUOUS
 10
72.3518537125
 20
109.1313913205
  0
VERTEX
  8
0
 62
7
  6
CONTINUOUS
 10
72.2837010646
 20
109.104350616
  0
VERTEX
  8
0
 62
7
  6
CONTINUOUS
 10
72.2089890435
 20
109.087294097
  0
VERTEX
  8
0
 62
7
  6
CONTINUOUS
 10
72.1374619702
 20
109.082055964
  0
SEQEND
  0
LINE
  8
0
 62
7
  6
CONTINUOUS
 10
74.9277514989
 20
94.5820568928
 11
74.9277514989
 21
94.2820568928
  0
LINE
  8
0
 62
7
  6
CONTINUOUS
 10
74.9430365351
 20
94.5820568928
 11
74.9430365351
 21
94.2820568928
  0
LINE
  8
0
 62
7
  6
CONTINUOUS
 10
75.0100473638
 20
94.5820568928
 11
75.0100473638
 21
94.2820568928
  0
LINE
  8
0
 62
7
  6
CONTINUOUS
 10
75.1461687039
 20
94.5820568928
 11
75.1461687039
 21
94.2820568928
  0
LINE
  8
0
 62
7
  6
CONTINUOUS
 10
75.2142316992
 20
94.5820568928
 11
75.2142316992
 21
94.2820568928
  0
LINE
  8
0
 62
7
  6
CONTINUOUS
 10
75.7709589801
 20
94.5820568928
 11
75.7709589801
 21
94.2820568928
  0
LINE
  8
0
 62
7
  6
CONTINUOUS
 10
75.7901048821
 20
94.5820568928
 11
75.7901048821
 21
94.2820568928
  0
LINE
  8
0
 62
7
  6
CONTINUOUS
 10
75.8547496654
 20
94.5820568928
 11
75.8547496654
 21
94.2820568928
  0
LINE
  8
0
 62
7
  6
CONTINUOUS
 10
75.9972135025
 20
94.5820568928
 11
75.9972135025
 21
94.2820568928
  0
LINE
  8
0
 62
7
  6
CONTINUOUS
 10
76.1775104269
 20
105.5820568928
 11
76.1775104269
 21
108.5820568928
  0
LINE
  8
0
 62
7
  6
CONTINUOUS
 10
76.2629967542
 20
94.5820568928
 11
76.2629967542
 21
94.2820568928
  0
LINE
  8
0
 62
7
  6
CONTINUOUS
 10
76.558115842
 20
94.5820568928
 11
76.558115842
 21
94.2820568928
  0
LINE
  8
0
 62
7
  6
CONTINUOUS
 10
76.7592528307
 20
94.5820568928
 11
76.7592528307
 21
94.2820568928
  0
LINE
  8
0
 62
7
  6
CONTINUOUS
 10
76.8191616009
 20
94.5820568928
 11
76.8191616009
 21
94.2820568928
  0
LINE
  8
0
 62
7
  6
CONTINUOUS
 10
76.8383075029
 20
94.5820568928
 11
76.8383075029
 21
94.2820568928
  0
LINE
  8
0
 62
7
  6
CONTINUOUS
 10
76.919113852
 20
94.5820568928
 11
76.919113852
 21
94.2820568928
  0
LINE
  8
0
 62
7
  6
CONTINUOUS
 10
77.0615776891
 20
94.5820568928
 11
77.0615776891
 21
94.2820568928
  0
LINE
  8
0
 62
7
  6
CONTINUOUS
 10
77.3273594612
 20
94.5820568928
 11
77.3273594612
 21
94.2820568928
  0
LINE
  8
0
 62
7
  6
CONTINUOUS
 10
77.5608195815
 20
94.5820568928
 11
77.5608195815
 21
94.2820568928
  0
LINE
  8
0
 62
7
  6
CONTINUOUS
 10
77.9014375506
 20
94.5820568928
 11
77.9014375506
 21
94.2820568928
  0
LINE
  8
0
 62
7
  6
CONTINUOUS
 10
78.2097324747
 20
94.5820568928
 11
78.2097324747
 21
94.2820568928
  0
LINE
  8
0
 62
7
  6
CONTINUOUS
 10
78.4857042241
 20
94.5820568928
 11
78.4857042241
 21
94.2820568928
  0
LINE
  8
0
 62
7
  6
CONTINUOUS
 10
78.6838568982
 20
94.5820568928
 11
78.6838568982
 21
94.2820568928
  0
LINE
  8
0
 62
7
  6
CONTINUOUS
 10
78.7880289474
 20
94.5820568928
 11
78.7880289474
 21
94.2820568928
  0
LINE
  8
0
 62
7
  6
CONTINUOUS
 10
89.7668668019
 20
94.5820568928
 11
89.7668668019
 21
94.2820568928
  0
LINE
  8
0
 62
7
  6
CONTINUOUS
 10
89.7816939943
 20
94.5820568928
 11
89.7816939943
 21
94.2820568928
  0
LINE
  8
0
 62
7
  6
CONTINUOUS
 10
89.9053389307
 20
94.5820568928
 11
89.9053389307
 21
94.2820568928
  0
LINE
  8
0
 62
7
  6
CONTINUOUS
 10
90.0861351544
 20
94.5820568928
 11
90.0861351544
 21
94.2820568928
  0
LINE
  8
0
 62
7
  6
CONTINUOUS
 10
90.3240827015
 20
94.5820568928
 11
90.3240827015
 21
94.2820568928
  0
LINE
  8
0
 62
7
  6
CONTINUOUS
 10
90.5675359191
 20
94.5820568928
 11
90.5675359191
 21
94.2820568928
  0
LINE
  8
0
 62
7
  6
CONTINUOUS
 10
90.8423123829
 20
94.5820568928
 11
90.8423123829
 21
94.2820568928
  0
LINE
  8
0
 62
7
  6
CONTINUOUS
 10
98.2327784865
 20
94.2820568928
 11
95.2561604913
 21
94.2820568928
  0
LINE
  8
0
 62
7
  6
CONTINUOUS
 10
94.9611883287
 20
94.2820568928
 11
92.5742946837
 21
94.2820568928
  0
LINE
  8
0
 62
7
  6
CONTINUOUS
 10
92.2821791887
 20
94.2820568928
 11
89.7668668019
 21
94.2820568928
  0
LINE
  8
0
 62
7
  6
CONTINUOUS
 10
78.7880289474
 20
94.2820568928
 11
74.9277514989
 21
94.2820568928
  0
LINE
  8
0
 62
7
  6
CONTINUOUS
 10
113.440725644
 20
94.2820568928
 11
120.9125595921
 21
94.2820568928
  0
LINE
  8
0
 62
7
  6
CONTINUOUS
 10
121.0429681151
 20
94.2820568928
 11
125.9794016532
 21
94.2820568928
  0
LINE
  8
0
 62
7
  6
CONTINUOUS
 10
125.9812222169
 20
94.2820568928
 11
126.9368322783
 21
94.2820568928
  0
LINE
  8
0
 62
7
  6
CONTINUOUS
 10
127.3281837841
 20
94.5820568928
 11
74.5481837841
 21
94.5820568928
  0
LINE
  8
0
 62
7
  6
CONTINUOUS
 10
99.2061329766
 20
94.5820568928
 11
100.9381837841
 21
93.5820568928
  0
LINE
  8
0
 62
7
  6
CONTINUOUS
 10
91.2055686196
 20
94.5820568928
 11
91.2055686196
 21
94.2820568928
  0
LINE
  8
0
 62
7
  6
CONTINUOUS
 10
91.5171687878
 20
94.5820568928
 11
91.5171687878
 21
94.2820568928
  0
LINE
  8
0
 62
7
  6
CONTINUOUS
 10
91.7457896347
 20
94.5820568928
 11
91.7457896347
 21
94.2820568928
  0
LINE
  8
0
 62
7
  6
CONTINUOUS
 10
92.0057337345
 20
94.5820568928
 11
92.0057337345
 21
94.2820568928
  0
LINE
  8
0
 62
7
  6
CONTINUOUS
 10
92.2140269986
 20
94.5820568928
 11
92.2140269986
 21
94.2820568928
  0
LINE
  8
0
 62
7
  6
CONTINUOUS
 10
92.2821791887
 20
94.5820568928
 11
92.2821791887
 21
94.2820568928
  0
LINE
  8
0
 62
7
  6
CONTINUOUS
 10
92.5742946837
 20
94.5820568928
 11
92.5742946837
 21
94.2820568928
  0
LINE
  8
0
 62
7
  6
CONTINUOUS
 10
92.6079352194
 20
94.5820568928
 11
92.6079352194
 21
94.2820568928
  0
LINE
  8
0
 62
7
  6
CONTINUOUS
 10
92.7760654458
 20
94.5820568928
 11
92.7760654458
 21
94.2820568928
  0
LINE
  8
0
 62
7
  6
CONTINUOUS
 10
92.9292362989
 20
94.5820568928
 11
92.9292362989
 21
94.2820568928
  0
LINE
  8
0
 62
7
  6
CONTINUOUS
 10
93.0450393819
 20
94.5820568928
 11
93.0450393819
 21
94.2820568928
  0
LINE
  8
0
 62
7
  6
CONTINUOUS
 10
93.2392942313
 20
94.5820568928
 11
93.2392942313
 21
94.2820568928
  0
LINE
  8
0
 62
7
  6
CONTINUOUS
 10
93.4746276121
 20
94.5820568928
 11
93.4746276121
 21
94.2820568928
  0
LINE
  8
0
 62
7
  6
CONTINUOUS
 10
93.8294858111
 20
94.5820568928
 11
93.8294858111
 21
94.2820568928
  0
LINE
  8
0
 62
7
  6
CONTINUOUS
 10
94.2067468799
 20
94.5820568928
 11
94.2067468799
 21
94.2820568928
  0
LINE
  8
0
 62
7
  6
CONTINUOUS
 10
94.5466456729
 20
94.5820568928
 11
94.5466456729
 21
94.2820568928
  0
LINE
  8
0
 62
7
  6
CONTINUOUS
 10
94.7894197801
 20
94.5820568928
 11
94.7894197801
 21
94.2820568928
  0
LINE
  8
0
 62
7
  6
CONTINUOUS
 10
94.9126663302
 20
94.5820568928
 11
94.9126663302
 21
94.2820568928
  0
LINE
  8
0
 62
7
  6
CONTINUOUS
 10
94.9574665919
 20
94.5820568928
 11
94.9574665919
 21
94.2820568928
  0
LINE
  8
0
 62
7
  6
CONTINUOUS
 10
94.9611883287
 20
94.5820568928
 11
94.9611883287
 21
94.2820568928
  0
LINE
  8
0
 62
7
  6
CONTINUOUS
 10
95.2561604913
 20
94.5820568928
 11
95.2561604913
 21
94.2820568928
  0
LINE
  8
0
 62
7
  6
CONTINUOUS
 10
95.332641594
 20
94.5820568928
 11
95.332641594
 21
94.2820568928
  0
LINE
  8
0
 62
7
  6
CONTINUOUS
 10
95.704121289
 20
94.5820568928
 11
95.704121289
 21
94.2820568928
  0
LINE
  8
0
 62
7
  6
CONTINUOUS
 10
95.7696765275
 20
94.5820568928
 11
95.7696765275
 21
94.2820568928
  0
LINE
  8
0
 62
7
  6
CONTINUOUS
 10
98.2327784865
 20
94.5820568928
 11
98.2327784865
 21
94.2820568928
  0
POLYLINE
  8
0
 62
7
  6
CONTINUOUS
 66
1
 70
0
  0
VERTEX
  8
0
 62
7
  6
CONTINUOUS
 10
72.1374687063
 20
105.0820577964
  0
VERTEX
  8
0
 62
7
  6
CONTINUOUS
 10
72.2107988907
 20
105.0765492303
  0
VERTEX
  8
0
 62
7
  6
CONTINUOUS
 10
72.2868687401
 20
105.0587611587
  0
VERTEX
  8
0
 62
7
  6
CONTINUOUS
 10
72.3559412938
 20
105.0307088483
  0
VERTEX
  8
0
 62
7
  6
CONTINUOUS
 10
72.4166336586
 20
104.9947674687
  0
VERTEX
  8
0
 62
7
  6
CONTINUOUS
 10
72.467749309
 20
104.9538391773
  0
VERTEX
  8
0
 62
7
  6
CONTINUOUS
 10
72.5088793058
 20
104.9110100168
  0
VERTEX
  8
0
 62
7
  6
CONTINUOUS
 10
72.5403515212
 20
104.869283637
  0
VERTEX
  8
0
 62
7
  6
CONTINUOUS
 10
72.5631368841
 20
104.8312513154
  0
VERTEX
  8
0
 62
7
  6
CONTINUOUS
 10
72.5784575196
 20
104.7992349645
  0
VERTEX
  8
0
 62
7
  6
CONTINUOUS
 10
72.5875148788
 20
104.7756660704
  0
VERTEX
  8
0
 62
7
  6
CONTINUOUS
 10
72.5918166356
 20
104.7618856245
  0
VERTEX
  8
0
 62
7
  6
CONTINUOUS
 10
72.5928239065
 20
104.7580773698
  0
SEQEND
  0
LINE
  8
DEFAULT_1
 62
2
  6
CENTER
 10
100.9381837841
 20
97.0820568928
 11
100.9381837841
 21
117.0820568928
  0
LINE
  8
0
 62
7
  6
CONTINUOUS
 10
136.8467139403
 20
105.0820568928
 11
128.7782495893
 21
105.0820568928
  0
LINE
  8
0
 62
7
  6
CONTINUOUS
 10
125.1988492293
 20
105.0820568928
 11
117.304071939
 21
105.0820568928
  0
LINE
  8
0
 62
7
  6
CONTINUOUS
 10
103.7042542335
 20
105.0820568928
 11
98.1721133342
 21
105.0820568928
  0
LINE
  8
0
 62
7
  6
CONTINUOUS
 10
84.5722956289
 20
105.0820568928
 11
76.677518336
 21
105.0820568928
  0
LINE
  8
0
 62
7
  6
CONTINUOUS
 10
73.098117979
 20
105.0820568928
 11
65.0296541229
 21
105.0820568928
  0
LINE
  8
0
 62
7
  6
CONTINUOUS
 10
65.0296541229
 20
109.0820568928
 11
73.0981179412
 21
109.0820568928
  0
LINE
  8
0
 62
7
  6
CONTINUOUS
 10
76.677518336
 20
109.0820568928
 11
84.5722955036
 21
109.0820568928
  0
LINE
  8
0
 62
7
  6
CONTINUOUS
 10
98.17211349
 20
109.0820568928
 11
103.7042540798
 21
109.0820568928
  0
LINE
  8
0
 62
7
  6
CONTINUOUS
 10
117.3040720355
 20
109.0820568928
 11
125.1987659428
 21
109.0820568928
  0
LINE
  8
0
 62
7
  6
CONTINUOUS
 10
128.7782496276
 20
109.0820568928
 11
136.8467139403
 21
109.0820568928
  0
POLYLINE
  8
0
 62
7
  6
CONTINUOUS
 66
1
 70
0
  0
VERTEX
  8
0
 62
7
  6
CONTINUOUS
 10
129.7389055801
 20
109.0820559747
  0
VERTEX
  8
0
 62
7
  6
CONTINUOUS
 10
129.666104672
 20
109.0874834502
  0
VERTEX
  8
0
 62
7
  6
CONTINUOUS
 10
129.5904368168
 20
109.1050528406
  0
VERTEX
  8
0
 62
7
  6
CONTINUOUS
 10
129.5216405744
 20
109.1328009646
  0
VERTEX
  8
0
 62
7
  6
CONTINUOUS
 10
129.4611084319
 20
109.1683935959
  0
VERTEX
  8
0
 62
7
  6
CONTINUOUS
 10
129.4100338805
 20
109.2089785984
  0
VERTEX
  8
0
 62
7
  6
CONTINUOUS
 10
129.3688387266
 20
109.2515163981
  0
VERTEX
  8
0
 62
7
  6
CONTINUOUS
 10
129.3372133769
 20
109.2930494266
  0
VERTEX
  8
0
 62
7
  6
CONTINUOUS
 10
129.3141887379
 20
109.3310705896
  0
VERTEX
  8
0
 62
7
  6
CONTINUOUS
 10
129.2985873399
 20
109.3632904378
  0
VERTEX
  8
0
 62
7
  6
CONTINUOUS
 10
129.2892310016
 20
109.3873482429
  0
VERTEX
  8
0
 62
7
  6
CONTINUOUS
 10
129.2846538033
 20
109.401862644
  0
VERTEX
  8
0
 62
7
  6
CONTINUOUS
 10
129.2835678113
 20
109.405933254
  0
SEQEND
  0
LINE
  8
0
 62
7
  6
CONTINUOUS
 10
113.440725644
 20
94.2820568928
 11
113.440725644
 21
94.5820568928
  0
LINE
  8
0
 62
7
  6
CONTINUOUS
 10
113.4492496948
 20
94.2820568928
 11
113.4492496948
 21
94.5820568928
  0
LINE
  8
0
 62
7
  6
CONTINUOUS
 10
113.5455088613
 20
94.2820568928
 11
113.5455088613
 21
94.5820568928
  0
LINE
  8
0
 62
7
  6
CONTINUOUS
 10
113.7658888724
 20
94.2820568928
 11
113.7658888724
 21
94.5820568928
  0
LINE
  8
0
 62
7
  6
CONTINUOUS
 10
102.6702345917
 20
94.5820568928
 11
100.9381837841
 21
93.5820568928
  0
LINE
  8
0
 62
7
  6
CONTINUOUS
 10
127.3281837841
 20
119.5820568928
 11
74.5481837841
 21
119.5820568928
  0
LINE
  8
0
 62
7
  6
CONTINUOUS
 10
114.9983493797
 20
94.2820568928
 11
114.9983493797
 21
94.5820568928
  0
LINE
  8
0
 62
7
  6
CONTINUOUS
 10
115.3962789482
 20
94.2820568928
 11
115.3962789482
 21
94.5820568928
  0
LINE
  8
0
 62
7
  6
CONTINUOUS
 10
115.8143604232
 20
94.2820568928
 11
115.8143604232
 21
94.5820568928
  0
LINE
  8
0
 62
7
  6
CONTINUOUS
 10
116.975697145
 20
94.2820568928
 11
116.975697145
 21
94.5820568928
  0
LINE
  8
0
 62
7
  6
CONTINUOUS
 10
117.2544181284
 20
94.2820568928
 11
117.2544181284
 21
94.5820568928
  0
LINE
  8
0
 62
7
  6
CONTINUOUS
 10
117.9918662101
 20
94.2820568928
 11
117.9918662101
 21
94.5820568928
  0
LINE
  8
0
 62
7
  6
CONTINUOUS
 10
118.0584397937
 20
94.2820568928
 11
118.0584397937
 21
94.5820568928
  0
LINE
  8
0
 62
7
  6
CONTINUOUS
 10
118.2141674018
 20
94.2820568928
 11
118.2141674018
 21
94.5820568928
  0
LINE
  8
0
 62
7
  6
CONTINUOUS
 10
118.540678108
 20
94.2820568928
 11
118.540678108
 21
94.5820568928
  0
LINE
  8
0
 62
7
  6
CONTINUOUS
 10
118.7930874815
 20
94.2820568928
 11
118.7930874815
 21
94.5820568928
  0
LINE
  8
0
 62
7
  6
CONTINUOUS
 10
119.1421786202
 20
94.2820568928
 11
119.1421786202
 21
94.5820568928
  0
LINE
  8
0
 62
7
  6
CONTINUOUS
 10
119.5063243444
 20
94.2820568928
 11
119.5063243444
 21
94.5820568928
  0
LINE
  8
0
 62
7
  6
CONTINUOUS
 10
119.7405019299
 20
94.2820568928
 11
119.7405019299
 21
94.5820568928
  0
LINE
  8
0
 62
7
  6
CONTINUOUS
 10
119.9457418882
 20
94.2820568928
 11
119.9457418882
 21
94.5820568928
  0
LINE
  8
0
 62
7
  6
CONTINUOUS
 10
120.3023598209
 20
94.2820568928
 11
120.3023598209
 21
94.5820568928
  0
LINE
  8
0
 62
7
  6
CONTINUOUS
 10
120.5365374064
 20
94.2820568928
 11
120.5365374064
 21
94.5820568928
  0
LINE
  8
0
 62
7
  6
CONTINUOUS
 10
120.7299010555
 20
94.2820568928
 11
120.7299010555
 21
94.5820568928
  0
LINE
  8
0
 62
7
  6
CONTINUOUS
 10
120.8824504974
 20
94.2820568928
 11
120.8824504974
 21
94.5820568928
  0
LINE
  8
0
 62
7
  6
CONTINUOUS
 10
120.9125595921
 20
94.2820568928
 11
120.9125595921
 21
94.5820568928
  0
LINE
  8
0
 62
7
  6
CONTINUOUS
 10
121.0429681151
 20
94.2820568928
 11
121.0429681151
 21
94.5820568928
  0
LINE
  8
0
 62
7
  6
CONTINUOUS
 10
121.2104305203
 20
94.2820568928
 11
121.2104305203
 21
94.5820568928
  0
LINE
  8
0
 62
7
  6
CONTINUOUS
 10
121.8244595524
 20
94.2820568928
 11
121.8244595524
 21
94.5820568928
  0
LINE
  8
0
 62
7
  6
CONTINUOUS
 10
121.9919219576
 20
94.2820568928
 11
121.9919219576
 21
94.5820568928
  0
LINE
  8
0
 62
7
  6
CONTINUOUS
 10
122.4195824051
 20
94.2820568928
 11
122.4195824051
 21
94.5820568928
  0
LINE
  8
0
 62
7
  6
CONTINUOUS
 10
122.5102939111
 20
94.2820568928
 11
122.5102939111
 21
94.5820568928
  0
LINE
  8
0
 62
7
  6
CONTINUOUS
 10
122.6993395706
 20
94.2820568928
 11
122.6993395706
 21
94.5820568928
  0
LINE
  8
0
 62
7
  6
CONTINUOUS
 10
122.8238258084
 20
94.2820568928
 11
122.8238258084
 21
94.5820568928
  0
LINE
  8
0
 62
7
  6
CONTINUOUS
 10
123.002527117
 20
94.2820568928
 11
123.002527117
 21
94.5820568928
  0
LINE
  8
0
 62
7
  6
CONTINUOUS
 10
123.0887382194
 20
94.2820568928
 11
123.0887382194
 21
94.5820568928
  0
LINE
  8
0
 62
7
  6
CONTINUOUS
 10
123.5405448445
 20
94.2820568928
 11
123.5405448445
 21
94.5820568928
  0
LINE
  8
0
 62
7
  6
CONTINUOUS
 10
123.5597021577
 20
94.2820568928
 11
123.5597021577
 21
94.5820568928
  0
LINE
  8
0
 62
7
  6
CONTINUOUS
 10
123.652629522
 20
94.2820568928
 11
123.652629522
 21
94.5820568928
  0
LINE
  8
0
 62
7
  6
CONTINUOUS
 10
123.808404396
 20
94.2820568928
 11
123.808404396
 21
94.5820568928
  0
LINE
  8
0
 62
7
  6
CONTINUOUS
 10
123.923176844
 20
94.2820568928
 11
123.923176844
 21
94.5820568928
  0
LINE
  8
0
 62
7
  6
CONTINUOUS
 10
124.1636443326
 20
94.2820568928
 11
124.1636443326
 21
94.5820568928
  0
LINE
  8
0
 62
7
  6
CONTINUOUS
 10
125.4205943869
 20
94.2820568928
 11
125.4205943869
 21
94.5820568928
  0
LINE
  8
0
 62
7
  6
CONTINUOUS
 10
125.4752071272
 20
94.2820568928
 11
125.4752071272
 21
94.5820568928
  0
LINE
  8
0
 62
7
  6
CONTINUOUS
 10
125.6936580842
 20
94.2820568928
 11
125.6936580842
 21
94.5820568928
  0
LINE
  8
0
 62
7
  6
CONTINUOUS
 10
125.6988571414
 20
105.5820568928
 11
125.6988571414
 21
108.5820568928
  0
LINE
  8
0
 62
7
  6
CONTINUOUS
 10
125.7482708362
 20
94.2820568928
 11
125.7482708362
 21
94.5820568928
  0
LINE
  8
0
 62
7
  6
CONTINUOUS
 10
125.8518321937
 20
94.2820568928
 11
125.8518321937
 21
94.5820568928
  0
LINE
  8
0
 62
7
  6
CONTINUOUS
 10
125.8744380397
 20
94.2820568928
 11
125.8744380397
 21
94.5820568928
  0
LINE
  8
0
 62
7
  6
CONTINUOUS
 10
125.9151285547
 20
94.2820568928
 11
125.9151285547
 21
94.5820568928
  0
LINE
  8
0
 62
7
  6
CONTINUOUS
 10
125.9332132367
 20
94.2820568928
 11
125.9332132367
 21
94.5820568928
  0
LINE
  8
0
 62
7
  6
CONTINUOUS
 10
125.9794016532
 20
94.2820568928
 11
125.9794016532
 21
94.5820568928
  0
LINE
  8
0
 62
7
  6
CONTINUOUS
 10
126.6176887962
 20
94.2820568928
 11
126.6176887962
 21
94.5820568928
  0
LINE
  8
0
 62
7
  6
CONTINUOUS
 10
126.9368322783
 20
94.2820568928
 11
126.9368322783
 21
94.5820568928
  0
LINE
  8
0
 62
7
  6
CONTINUOUS
 10
129.3281837841
 20
117.5820568928
 11
129.3281837841
 21
109.3079602192
  0
LINE
  8
0
 62
7
  6
CONTINUOUS
 10
129.3281837841
 20
104.8561089524
 11
129.3281837841
 21
96.5820568928
  0
POLYLINE
  8
0
 62
7
  6
CONTINUOUS
 66
1
 70
0
  0
VERTEX
  8
0
 62
7
  6
CONTINUOUS
 10
129.2836094876
 20
104.7584830422
  0
VERTEX
  8
0
 62
7
  6
CONTINUOUS
 10
129.2833650784
 20
104.7573360872
  0
VERTEX
  8
0
 62
7
  6
CONTINUOUS
 10
129.2848109675
 20
104.7628111314
  0
VERTEX
  8
0
 62
7
  6
CONTINUOUS
 10
129.2897357993
 20
104.7782147108
  0
VERTEX
  8
0
 62
7
  6
CONTINUOUS
 10
129.2996138276
 20
104.8031819507
  0
VERTEX
  8
0
 62
7
  6
CONTINUOUS
 10
129.3156379138
 20
104.8357102858
  0
VERTEX
  8
0
 62
7
  6
CONTINUOUS
 10
129.3389680491
 20
104.8736433777
  0
VERTEX
  8
0
 62
7
  6
CONTINUOUS
 10
129.3707384997
 20
104.9148089604
  0
VERTEX
  8
0
 62
7
  6
CONTINUOUS
 10
129.4119833221
 20
104.9569026786
  0
VERTEX
  8
0
 62
7
  6
CONTINUOUS
 10
129.4630042696
 20
104.9970203546
  0
VERTEX
  8
0
 62
7
  6
CONTINUOUS
 10
129.5233343753
 20
105.0321454219
  0
VERTEX
  8
0
 62
7
  6
CONTINUOUS
 10
129.5917532205
 20
105.059476058
  0
VERTEX
  8
0
 62
7
  6
CONTINUOUS
 10
129.6668547691
 20
105.0767418212
  0
VERTEX
  8
0
 62
7
  6
CONTINUOUS
 10
129.7388987158
 20
105.0820577923
  0
SEQEND
  0
LINE
  8
0
 62
7
  6
CONTINUOUS
 10
137.3467229236
 20
105.5820568928
 11
137.3467229236
 21
108.5820568928
  0
ARC
  8
0
 62
4
  6
CONTINUOUS
 10
81.8463006921
 20
198.1937804014
 40
3.2
 50
92.2544307753
 51
267.7455692247
  0
ARC
  8
0
 62
4
  6
CONTINUOUS
 10
83.0087568936
 20
190.3845204567
 40
3.2
 50
3.5903778907
 51
45.0
  0
ARC
  8
0
 62
4
  6
CONTINUOUS
 10
81.5945433312
 20
191.7987340191
 40
3.2
 50
45.0
 51
87.7455692247
  0
ARC
  8
0
 62
4
  6
CONTINUOUS
 10
93.1289238395
 20
180.2643535108
 40
3.2
 50
45.0
 51
86.4096221093
  0
ARC
  8
0
 62
4
  6
CONTINUOUS
 10
89.3961953527
 20
190.785307097
 40
3.2
 50
183.5903778907
 51
225.0
  0
ARC
  8
0
 62
4
  6
CONTINUOUS
 10
94.5431374019
 20
178.8501399484
 40
3.2
 50
2.2544307753
 51
45.0
  0
ARC
  8
0
 62
4
  6
CONTINUOUS
 10
93.5297104798
 20
186.6517919699
 40
3.2
 50
225.0
 51
266.4096221093
  0
ARC
  8
0
 62
7
  6
CONTINUOUS
 10
71.1947522887
 20
180.7327270862
 40
2.4
 50
210.4153108238
 51
296.38
  0
ARC
  8
0
 62
7
  6
CONTINUOUS
 10
70.9447522887
 20
181.1657397881
 40
2.4
 50
123.62
 51
209.5846891762
  0
ARC
  8
0
 62
7
  6
CONTINUOUS
 10
89.3771420908
 20
165.6991283034
 40
2.4
 50
250.4153108238
 51
336.38
  0
ARC
  8
0
 62
7
  6
CONTINUOUS
 10
88.9072957804
 20
165.8701383751
 40
2.4
 50
163.62
 51
249.5846891762
  0
ARC
  8
0
 62
7
  6
CONTINUOUS
 10
70.5500661795
 20
198.5320235777
 40
2.0
 50
359.362280138
 51
76.38
  0
ARC
  8
0
 62
7
  6
CONTINUOUS
 10
77.4421166334
 20
178.9197842291
 40
2.0
 50
39.362280138
 51
116.38
  0
ARC
  8
0
 62
7
  6
CONTINUOUS
 10
72.4983798911
 20
187.4825874459
 40
2.0
 50
303.62
 51
20.637719862
  0
ARC
  8
0
 62
7
  6
CONTINUOUS
 10
95.3282380368
 20
168.326061896
 40
2.0
 50
79.362280138
 51
156.38
  0
ARC
  8
0
 62
7
  6
CONTINUOUS
 10
86.0370521652
 20
171.7077769944
 40
2.0
 50
343.62
 51
60.637719862
  0
ARC
  8
0
 62
4
  6
CONTINUOUS
 10
81.5945433312
 20
204.5888267836
 40
3.2
 50
272.2544307753
 51
315.0
  0
ARC
  8
0
 62
4
  6
CONTINUOUS
 10
94.5431374019
 20
217.5374208543
 40
3.2
 50
315.0
 51
357.7455692247
  0
ARC
  8
0
 62
4
  6
CONTINUOUS
 10
93.1289238395
 20
216.1232072919
 40
3.2
 50
273.5903778907
 51
315.0
  0
ARC
  8
0
 62
4
  6
CONTINUOUS
 10
93.5297104798
 20
209.7357688328
 40
3.2
 50
93.5903778907
 51
135.0
  0
ARC
  8
0
 62
4
  6
CONTINUOUS
 10
89.3961953527
 20
205.6022537057
 40
3.2
 50
135.0
 51
176.4096221093
  0
ARC
  8
0
 62
4
  6
CONTINUOUS
 10
83.0087568936
 20
206.003040346
 40
3.2
 50
315.0
 51
356.4096221093
  0
ARC
  8
0
 62
7
  6
CONTINUOUS
 10
100.6881837841
 20
232.6828743297
 40
2.4
 50
90.4153108238
 51
176.38
  0
ARC
  8
0
 62
7
  6
CONTINUOUS
 10
78.5775104269
 20
224.453262251
 40
2.4
 50
130.4153108238
 51
216.38
  0
ARC
  8
0
 62
7
  6
CONTINUOUS
 10
78.9605326484
 20
224.7746560558
 40
2.4
 50
43.62
 51
129.5846891762
  0
ARC
  8
0
 62
7
  6
CONTINUOUS
 10
66.9296446447
 20
203.9365467731
 40
2.4
 50
170.4153108238
 51
256.38
  0
ARC
  8
0
 62
7
  6
CONTINUOUS
 10
67.0164687335
 20
204.4289506497
 40
2.4
 50
83.62
 51
169.5846891762
  0
ARC
  8
0
 62
7
  6
CONTINUOUS
 10
95.9944470419
 20
228.178969529
 40
2.0
 50
279.362280138
 51
356.38
  0
ARC
  8
0
 62
7
  6
CONTINUOUS
 10
77.8769536791
 20
217.985995185
 40
2.0
 50
319.362280138
 51
36.38
  0
ARC
  8
0
 62
7
  6
CONTINUOUS
 10
85.4511977984
 20
224.341540632
 40
2.0
 50
223.62
 51
300.637719862
  0
ARC
  8
0
 62
7
  6
CONTINUOUS
 10
72.2670079318
 20
208.269284123
 40
2.0
 50
263.62
 51
340.637719862
  0
ARC
  8
0
 62
4
  6
CONTINUOUS
 10
100.9381837841
 20
179.1018973093
 40
3.2
 50
182.2544307753
 51
357.7455692247
  0
ARC
  8
0
 62
4
  6
CONTINUOUS
 10
107.3332301664
 20
178.8501399484
 40
3.2
 50
135.0
 51
177.7455692247
  0
ARC
  8
0
 62
4
  6
CONTINUOUS
 10
108.7474437288
 20
180.2643535108
 40
3.2
 50
93.5903778907
 51
135.0
  0
ARC
  8
0
 62
7
  6
CONTINUOUS
 10
112.9690717879
 20
165.8701383751
 40
2.4
 50
290.4153108238
 51
16.38
  0
ARC
  8
0
 62
7
  6
CONTINUOUS
 10
112.4992254775
 20
165.6991283034
 40
2.4
 50
203.62
 51
289.5846891762
  0
ARC
  8
0
 62
7
  6
CONTINUOUS
 10
115.839315403
 20
171.7077769944
 40
2.0
 50
119.362280138
 51
196.38
  0
ARC
  8
0
 62
7
  6
CONTINUOUS
 10
106.5481295314
 20
168.326061896
 40
2.0
 50
23.62
 51
100.637719862
  0
ARC
  8
0
 62
7
  6
CONTINUOUS
 10
100.9381837841
 20
198.1937804014
 40
36.89
 50
89.5846891762
 51
90.4153108238
  0
ARC
  8
0
 62
7
  6
CONTINUOUS
 10
100.9381837841
 20
198.1937804014
 40
36.89
 50
129.5846891762
 51
130.4153108238
  0
ARC
  8
0
 62
7
  6
CONTINUOUS
 10
100.9381837841
 20
198.1937804014
 40
36.89
 50
169.5846891762
 51
170.4153108238
  0
ARC
  8
0
 62
7
  6
CONTINUOUS
 10
100.9381837841
 20
198.1937804014
 40
36.89
 50
209.5846891762
 51
210.4153108238
  0
ARC
  8
0
 62
7
  6
CONTINUOUS
 10
100.9381837841
 20
198.1937804014
 40
36.89
 50
249.5846891762
 51
250.4153108238
  0
ARC
  8
0
 62
7
  6
CONTINUOUS
 10
100.9381837841
 20
198.1937804014
 40
36.89
 50
289.5846891762
 51
290.4153108238
  0
ARC
  8
0
 62
7
  6
CONTINUOUS
 10
100.9381837841
 20
198.1937804014
 40
36.89
 50
329.5846891762
 51
330.4153108238
  0
ARC
  8
0
 62
7
  6
CONTINUOUS
 10
100.9381837841
 20
198.1937804014
 40
36.89
 50
9.5846891762
 51
10.4153108238
  0
ARC
  8
0
 62
7
  6
CONTINUOUS
 10
100.9381837841
 20
198.1937804014
 40
36.89
 50
49.5846891762
 51
50.4153108238
  0
CIRCLE
  8
0
 62
7
  6
CONTINUOUS
 10
100.9381837841
 20
198.1937804014
 40
28.39
  0
CIRCLE
  8
0
 62
4
  6
CONTINUOUS
 10
100.9381837841
 20
198.1937804014
 40
8.5934513786
  0
ARC
  8
0
 62
4
  6
CONTINUOUS
 10
108.3466570885
 20
186.6517919699
 40
3.2
 50
273.5903778907
 51
315.0
  0
ARC
  8
0
 62
4
  6
CONTINUOUS
 10
112.4801722156
 20
190.785307097
 40
3.2
 50
315.0
 51
356.4096221093
  0
ARC
  8
0
 62
7
  6
CONTINUOUS
 10
130.9316152796
 20
181.1657397881
 40
2.4
 50
330.4153108238
 51
56.38
  0
ARC
  8
0
 62
7
  6
CONTINUOUS
 10
130.6816152796
 20
180.7327270862
 40
2.4
 50
243.62
 51
329.5846891762
  0
ARC
  8
0
 62
7
  6
CONTINUOUS
 10
124.4342509349
 20
178.9197842291
 40
2.0
 50
63.62
 51
140.637719862
  0
ARC
  8
0
 62
4
  6
CONTINUOUS
 10
118.8676106747
 20
190.3845204567
 40
3.2
 50
135.0
 51
176.4096221093
  0
ARC
  8
0
 62
4
  6
CONTINUOUS
 10
120.2818242371
 20
191.7987340191
 40
3.2
 50
92.2544307753
 51
135.0
  0
ARC
  8
0
 62
4
  6
CONTINUOUS
 10
120.0300668762
 20
198.1937804014
 40
3.2
 50
272.2544307753
 51
87.7455692247
  0
ARC
  8
0
 62
7
  6
CONTINUOUS
 10
129.3779876771
 20
187.4825874459
 40
2.0
 50
159.362280138
 51
236.38
  0
ARC
  8
0
 62
7
  6
CONTINUOUS
 10
131.3263013888
 20
198.5320235777
 40
2.0
 50
103.62
 51
180.637719862
  0
ARC
  8
0
 62
4
  6
CONTINUOUS
 10
120.2818242371
 20
204.5888267836
 40
3.2
 50
225.0
 51
267.7455692247
  0
ARC
  8
0
 62
4
  6
CONTINUOUS
 10
118.8676106747
 20
206.003040346
 40
3.2
 50
183.5903778907
 51
225.0
  0
ARC
  8
0
 62
4
  6
CONTINUOUS
 10
112.4801722156
 20
205.6022537057
 40
3.2
 50
3.5903778907
 51
45.0
  0
ARC
  8
0
 62
4
  6
CONTINUOUS
 10
108.3466570885
 20
209.7357688328
 40
3.2
 50
45.0
 51
86.4096221093
  0
ARC
  8
0
 62
4
  6
CONTINUOUS
 10
108.7474437288
 20
216.1232072919
 40
3.2
 50
225.0
 51
266.4096221093
  0
ARC
  8
0
 62
4
  6
CONTINUOUS
 10
107.3332301664
 20
217.5374208543
 40
3.2
 50
182.2544307753
 51
225.0
  0
ARC
  8
0
 62
4
  6
CONTINUOUS
 10
100.9381837841
 20
217.2856634934
 40
3.2
 50
2.2544307753
 51
177.7455692247
  0
ARC
  8
0
 62
7
  6
CONTINUOUS
 10
101.1881837841
 20
232.6828743297
 40
2.4
 50
3.62
 51
89.5846891762
  0
ARC
  8
0
 62
7
  6
CONTINUOUS
 10
134.8598988347
 20
204.4289506497
 40
2.4
 50
10.4153108238
 51
96.38
  0
ARC
  8
0
 62
7
  6
CONTINUOUS
 10
134.9467229236
 20
203.9365467731
 40
2.4
 50
283.62
 51
9.5846891762
  0
ARC
  8
0
 62
7
  6
CONTINUOUS
 10
122.9158349198
 20
224.7746560558
 40
2.4
 50
50.4153108238
 51
136.38
  0
ARC
  8
0
 62
7
  6
CONTINUOUS
 10
123.2988571414
 20
224.453262251
 40
2.4
 50
323.62
 51
49.5846891762
  0
ARC
  8
0
 62
7
  6
CONTINUOUS
 10
105.8819205264
 20
228.178969529
 40
2.0
 50
183.62
 51
260.637719862
  0
ARC
  8
0
 62
7
  6
CONTINUOUS
 10
129.6093596365
 20
208.269284123
 40
2.0
 50
199.362280138
 51
276.38
  0
ARC
  8
0
 62
7
  6
CONTINUOUS
 10
116.4251697699
 20
224.341540632
 40
2.0
 50
239.362280138
 51
316.38
  0
ARC
  8
0
 62
7
  6
CONTINUOUS
 10
123.9994138892
 20
217.985995185
 40
2.0
 50
143.62
 51
220.637719862
  0
CIRCLE
  8
0
 62
7
  6
CONTINUOUS
 10
100.9381837841
 20
222.1937804014
 40
1.7320508076
  0
ARC
  8
0
 62
7
  6
CONTINUOUS
 10
127.3281837841
 20
96.5820568928
 40
2.0
 50
270.0
 51
360.0
  0
ARC
  8
0
 62
7
  6
CONTINUOUS
 10
127.3281837841
 20
117.5820568928
 40
2.0
 50
0.0
 51
90.0
  0
ARC
  8
0
 62
7
  6
CONTINUOUS
 10
74.5481837841
 20
96.5820568928
 40
2.0
 50
180.0
 51
270.0
  0
ARC
  8
0
 62
7
  6
CONTINUOUS
 10
74.5481837841
 20
117.5820568928
 40
2.0
 50
90.0
 51
180.0
  0
ARC
  8
0
 62
7
  6
CONTINUOUS
 10
125.1988571414
 20
108.5820568928
 40
0.5
 50
0.0
 51
90.0000029206
  0
ARC
  8
0
 62
7
  6
CONTINUOUS
 10
125.1988571414
 20
105.5820568928
 40
0.5
 50
269.9999970794
 51
360.0
  0
ARC
  8
0
 62
7
  6
CONTINUOUS
 10
136.8467229236
 20
108.5820568928
 40
0.5
 50
0.0
 51
89.9999966438
  0
ARC
  8
0
 62
7
  6
CONTINUOUS
 10
136.8467229236
 20
105.5820568928
 40
0.5
 50
270.0000033562
 51
360.0
  0
ARC
  8
0
 62
7
  6
CONTINUOUS
 10
65.0296446447
 20
108.5820568928
 40
0.5
 50
89.9999967111
 51
180.0
  0
ARC
  8
0
 62
7
  6
CONTINUOUS
 10
65.0296446447
 20
105.5820568928
 40
0.5
 50
180.0
 51
270.0000032889
  0
ARC
  8
0
 62
7
  6
CONTINUOUS
 10
76.6775104269
 20
108.5820568928
 40
0.5
 50
89.9999998698
 51
180.0
  0
ARC
  8
0
 62
7
  6
CONTINUOUS
 10
76.6775104269
 20
105.5820568928
 40
0.5
 50
180.0
 51
270.0000001302
  0
ENDSEC
  0
EOF
