  0
SECTION
  2
HEADER
  9
$EXTMAX
 10
210.0
 20
297.0
 30
0.0
  9
$EXTMIN
 10
0.0
 20
0.0
 30
0.0
  9
$LIMMIN
 10
0.0
 20
0.0
  9
$LIMMAX
 10
210.0
 20
297.0
  9
$VIEWCTR
 10
105.0
 20
148.5
  9
$VIEWSIZE
 40
297.0
  9
$CLAYER
  8
0
  9
$LTSCALE
 40
19.36
  9
$CELTYPE
  6
BYLAYER
  9
$DIMSCALE
 40
1.0
  9
$DIMASZ
 40
3.5
  9
$DIMEXO
 40
2.2
  9
$DIMDLI
 40
13.376
  9
$DIMEXE
 40
6.336
  9
$DIMCEN
 40
3.168
  9
$DIMLFAC
 40
1.0
  9
$DIMBLK
  1
_FILLED
  9
$DIMTXT
 40
3.5
  9
$PDMODE
 70
3
  9
$PDSIZE
 40
0.3125
  9
$TILEMODE
 70
1
  0
ENDSEC
  0
SECTION
  2
TABLES
  0
TABLE
  2
LTYPE
 70
6
  0
LTYPE
  2
BYBLOCK
 70
0
  3

 72
65
 73
0
 40
0.0
  0
LTYPE
  2
BYLAYER
 70
0
  3

 72
65
 73
0
 40
0.0
  0
LTYPE
  2
CONTINUOUS
 70
64
  3
Solid line
 72
65
 73
0
 40
0.0
  0
LTYPE
  2
CENTER
 70
64
  3
____ _ ____ _ ____ _ ____ _ ____ _ ____ _ ____
 72
65
 73
4
 40
0.6
 49
0.375
 49
-0.075
 49
0.075
 49
-0.075
  0
LTYPE
  2
HIDDEN
 70
64
  3
- - - - - - - - - - - - - - - - - - - -
 72
65
 73
2
 40
0.2
 49
0.1
 49
-0.1
  0
LTYPE
  2
PHANTOM
 70
64
  3
_____ _ _ _____ _ _ _____ _ _ _____
 72
65
 73
6
 40
0.8
 49
0.45
 49
-0.05
 49
0.1
 49
-0.05
 49
0.1
 49
-0.05
  0
LTYPE
  2
DOT
 70
64
  3
. . . . . . . . . . . . . . . . . . . .
 72
65
 73
2
 40
0.2
 49
0.1
 49
-0.1
  0
LTYPE
  2
DASHED
 70
64
  3
- - - - - - - - - - - - - - - - - - - -
 72
65
 73
2
 40
0.2
 49
0.1
 49
-0.1
  0
ENDTAB
  0
TABLE
  2
LAYER
 70
36
  0
LAYER
  2
0
 70
0
 62
7
  6
CONTINUOUS
  0
LAYER
  2
DEFAULT_1
 70
0
 62
7
  6
CENTER
  0
LAYER
  2
DEFAULT_2
 70
0
 62
8
  6
HIDDEN
  0
LAYER
  2
DEFAULT_3
 70
0
 62
7
  6
PHANTOM
  0
LAYER
  2
CURVE
 70
0
 62
7
  6
CONTINUOUS
  0
LAYER
  2
SURFACE
 70
0
 62
7
  6
CONTINUOUS
  0
ENDTAB
  0
TABLE
  2
STYLE
 70
1
  0
STYLE
  2
STANDARD
 70
0
 40
0.0
 41
0.8
 50
0.0
 71
0
 42
0.2
  3
txt
  4

  0
STYLE
  2
TEXTSTYLE_1
 70
0
 40
0.0
 41
0.8
 50
0.0
 71
0
 42
0.2
  3
gdt
  4

  0
STYLE
  2
TEXTSTYLE_2
 70
0
 40
0.0
 41
0.6
 50
0.0
 71
0
 42
0.2
  3
txt
  4

  0
STYLE
  2
TEXTSTYLE_3
 70
0
 40
0.0
 41
1.0
 50
0.0
 71
0
 42
0.2
  3
ftb_____.ttf
  4

  0
STYLE
  2
TEXTSTYLE_4
 70
0
 40
0.0
 41
1.0
 50
0.0
 71
0
 42
0.2
  3
fti_____.ttf
  4

  0
STYLE
  2
TEXTSTYLE_5
 70
0
 40
0.0
 41
1.0
 50
0.0
 71
0
 42
0.2
  3
frutiger light.ttf
  4

  0
STYLE
  2
TEXTSTYLE_6
 70
0
 40
0.0
 41
0.7
 50
0.0
 71
0
 42
0.2
  3
txt
  4

  0
STYLE
  2
TEXTSTYLE_7
 70
0
 40
0.0
 41
0.6
 50
0.0
 71
0
 42
0.2
  3
txt
  4

  0
ENDTAB
  0
ENDSEC
  0
SECTION
  2
BLOCKS
  0
BLOCK
  8
0
 62
2
  6
CONTINUOUS
  2
SYMBOL_8_BL1
 70
64
 10
173.5956734183
 20
35.5937998301
  0
TEXT
  8
0
 62
7
  6
CONTINUOUS
 10
164.6539584268
 20
30.6865562072
  7
TEXTSTYLE_4
 40
1.0655737705
  1
The brand for plastic modular belts and chains
 41
1.0
 72
0
  0
LINE
  8
0
 62
7
  6
CONTINUOUS
 10
149.5737418074
 20
36.1675703219
 11
149.5737418074
 21
34.0364227809
  0
LINE
  8
0
 62
7
  6
CONTINUOUS
 10
149.8628043005
 20
31.0454914852
 11
149.8628043005
 21
31.1422825445
  0
LINE
  8
0
 62
7
  6
CONTINUOUS
 10
149.5737418074
 20
31.1100188581
 11
149.6315543091
 21
30.9164367395
  0
LINE
  8
0
 62
7
  6
CONTINUOUS
 10
150.9671844304
 20
33.9544555678
 11
150.9671844304
 21
36.1675703219
  0
LINE
  8
0
 62
7
  6
CONTINUOUS
 10
151.8862417523
 20
32.1101932727
 11
151.8862417523
 21
30.5937998301
  0
LINE
  8
0
 62
7
  6
CONTINUOUS
 10
152.1753043074
 20
30.5937998301
 11
152.1753043074
 21
31.3358647082
  0
LINE
  8
0
 62
7
  6
CONTINUOUS
 10
152.1753043074
 20
31.4649194539
 11
152.1753043074
 21
32.1101932727
  0
LINE
  8
0
 62
7
  6
CONTINUOUS
 10
149.6315543091
 20
31.3036010218
 11
149.5737418074
 21
31.1100188581
  0
LINE
  8
0
 62
7
  6
CONTINUOUS
 10
149.9784292936
 20
30.8841730531
 11
149.8628043005
 21
31.0454914852
  0
LINE
  8
0
 62
7
  6
CONTINUOUS
 10
151.0768668626
 20
31.400392081
 11
151.1346793074
 21
31.3036010218
  0
LINE
  8
0
 62
7
  6
CONTINUOUS
 10
151.4237418626
 20
31.3036010218
 11
151.3659292523
 21
31.4326557675
  0
LINE
  8
0
 62
7
  6
CONTINUOUS
 10
152.852430332
 20
36.1675703219
 11
152.852430332
 21
34.3642916334
  0
LINE
  8
0
 62
7
  6
CONTINUOUS
 10
152.852430332
 20
33.0528162235
 11
152.852430332
 21
32.3970785186
  0
LINE
  8
0
 62
7
  6
CONTINUOUS
 10
153.2159293074
 20
31.2390736489
 11
153.2159293074
 21
30.5937998301
  0
LINE
  8
0
 62
7
  6
CONTINUOUS
 10
153.5049916972
 20
30.5937998301
 11
153.5049916972
 21
31.2390736489
  0
LINE
  8
0
 62
7
  6
CONTINUOUS
 10
149.8628043005
 20
31.1422825445
 11
149.9206168074
 21
31.2713373354
  0
LINE
  8
0
 62
7
  6
CONTINUOUS
 10
149.6315543091
 20
30.9164367395
 11
149.7471793074
 21
30.7873819712
  0
LINE
  8
0
 62
7
  6
CONTINUOUS
 10
153.1581166972
 20
31.3681283946
 11
153.2159293074
 21
31.2390736489
  0
LINE
  8
0
 62
7
  6
CONTINUOUS
 10
153.9674919177
 20
30.8841730531
 11
154.0253041972
 21
30.7551182848
  0
LINE
  8
0
 62
7
  6
CONTINUOUS
 10
153.5049916972
 20
31.2390736489
 11
153.4471794177
 21
31.400392081
  0
LINE
  8
0
 62
7
  6
CONTINUOUS
 10
153.9674919177
 20
31.4326557675
 11
153.9674919177
 21
31.3681283946
  0
LINE
  8
0
 62
7
  6
CONTINUOUS
 10
153.9674919177
 20
30.9809641124
 11
153.9674919177
 21
30.8841730531
  0
LINE
  8
0
 62
7
  6
CONTINUOUS
 10
154.245872955
 20
32.3970785186
 11
154.245872955
 21
36.1675703219
  0
LINE
  8
0
 62
7
  6
CONTINUOUS
 10
154.2565543074
 20
30.8519093441
 11
154.2565543074
 21
30.9164367395
  0
LINE
  8
0
 62
7
  6
CONTINUOUS
 10
154.5737418074
 20
36.1675703219
 11
154.5737418074
 21
32.3970785186
  0
LINE
  8
0
 62
7
  6
CONTINUOUS
 10
151.3659292523
 20
30.7873819712
 11
151.4237418626
 21
30.9164367395
  0
LINE
  8
0
 62
7
  6
CONTINUOUS
 10
155.759679528
 20
30.6905909007
 11
155.7018665869
 21
30.8519093441
  0
LINE
  8
0
 62
7
  6
CONTINUOUS
 10
155.412804528
 20
31.3681283946
 11
155.412804528
 21
31.2713373354
  0
LINE
  8
0
 62
7
  6
CONTINUOUS
 10
155.412804528
 20
31.1422825445
 11
155.412804528
 21
30.9487004259
  0
LINE
  8
0
 62
7
  6
CONTINUOUS
 10
155.7018665869
 20
30.8519093441
 11
155.7018665869
 21
31.3681283946
  0
LINE
  8
0
 62
7
  6
CONTINUOUS
 10
155.9671844304
 20
32.3970785186
 11
155.9671844304
 21
34.2003572071
  0
LINE
  8
0
 62
7
  6
CONTINUOUS
 10
155.9671844304
 20
35.511832617
 11
155.9671844304
 21
36.1675703219
  0
LINE
  8
0
 62
7
  6
CONTINUOUS
 10
156.279992028
 20
32.1101932727
 11
156.279992028
 21
31.9488748406
  0
LINE
  8
0
 62
7
  6
CONTINUOUS
 10
156.279992028
 20
31.626237886
 11
156.279992028
 21
30.5937998301
  0
LINE
  8
0
 62
7
  6
CONTINUOUS
 10
156.5690540869
 20
30.5937998301
 11
156.5690540869
 21
31.626237886
  0
LINE
  8
0
 62
7
  6
CONTINUOUS
 10
156.5690540869
 20
31.9488748406
 11
156.5690540869
 21
32.1101932727
  0
LINE
  8
0
 62
7
  6
CONTINUOUS
 10
151.1346793074
 20
30.9164367395
 11
151.0768668626
 21
30.8196456577
  0
LINE
  8
0
 62
7
  6
CONTINUOUS
 10
153.4471794177
 20
31.400392081
 11
153.3893668074
 21
31.4649194539
  0
LINE
  8
0
 62
7
  6
CONTINUOUS
 10
154.3143669177
 20
30.7873819712
 11
154.2565543074
 21
30.8519093441
  0
LINE
  8
0
 62
7
  6
CONTINUOUS
 10
155.4706168074
 20
30.6583272086
 11
155.5284290869
 21
30.5937998301
  0
LINE
  8
0
 62
7
  6
CONTINUOUS
 10
155.412804528
 20
30.7551182848
 11
155.4706168074
 21
30.6583272086
  0
LINE
  8
0
 62
7
  6
CONTINUOUS
 10
155.8174918074
 20
30.5937998301
 11
155.759679528
 21
30.6905909007
  0
LINE
  8
0
 62
7
  6
CONTINUOUS
 10
155.7018665869
 20
31.3681283946
 11
155.6440543074
 21
31.4649194539
  0
LINE
  8
0
 62
7
  6
CONTINUOUS
 10
157.0315543074
 20
31.626237886
 11
157.0315543074
 21
30.5937998301
  0
LINE
  8
0
 62
7
  6
CONTINUOUS
 10
157.320617028
 20
30.5937998301
 11
157.320617028
 21
31.3358647082
  0
LINE
  8
0
 62
7
  6
CONTINUOUS
 10
157.320617028
 20
31.4649194539
 11
157.320617028
 21
31.626237886
  0
LINE
  8
0
 62
7
  6
CONTINUOUS
 10
157.852430332
 20
34.6101932727
 11
157.852430332
 21
32.3970785186
  0
LINE
  8
0
 62
7
  6
CONTINUOUS
 10
149.7471793074
 20
31.4326557675
 11
149.6315543091
 21
31.3036010218
  0
LINE
  8
0
 62
7
  6
CONTINUOUS
 10
149.9206168074
 20
31.2713373354
 11
149.9784292936
 21
31.3358647082
  0
LINE
  8
0
 62
7
  6
CONTINUOUS
 10
149.7471793074
 20
30.7873819712
 11
149.8628043005
 21
30.7228545871
  0
LINE
  8
0
 62
7
  6
CONTINUOUS
 10
150.1518667936
 20
30.7873819712
 11
149.9784292936
 21
30.8841730531
  0
LINE
  8
0
 62
7
  6
CONTINUOUS
 10
155.3549915869
 20
31.4326557675
 11
155.412804528
 21
31.3681283946
  0
LINE
  8
0
 62
7
  6
CONTINUOUS
 10
158.3034290869
 20
31.3681283946
 11
158.361242028
 21
31.2068099625
  0
LINE
  8
0
 62
7
  6
CONTINUOUS
 10
158.6503040869
 20
31.2068099625
 11
158.5924918074
 21
31.3681283946
  0
LINE
  8
0
 62
7
  6
CONTINUOUS
 10
158.361242028
 20
31.2068099625
 11
158.361242028
 21
30.5937998301
  0
LINE
  8
0
 62
7
  6
CONTINUOUS
 10
158.6503040869
 20
30.5937998301
 11
158.6503040869
 21
31.2068099625
  0
LINE
  8
0
 62
7
  6
CONTINUOUS
 10
159.1128043074
 20
31.4326557675
 11
159.1128043074
 21
31.3681283946
  0
LINE
  8
0
 62
7
  6
CONTINUOUS
 10
159.245872955
 20
32.3970785186
 11
159.245872955
 21
34.5282260596
  0
LINE
  8
0
 62
7
  6
CONTINUOUS
 10
159.5737418074
 20
36.1675703219
 11
159.5737418074
 21
32.3970785186
  0
LINE
  8
0
 62
7
  6
CONTINUOUS
 10
154.2565543074
 20
30.9164367395
 11
154.3143669177
 21
31.0132277988
  0
LINE
  8
0
 62
7
  6
CONTINUOUS
 10
149.8628043005
 20
30.7228545871
 11
150.0362418212
 21
30.6583272086
  0
LINE
  8
0
 62
7
  6
CONTINUOUS
 10
151.3659292523
 20
31.4326557675
 11
151.1924917523
 21
31.5294468267
  0
LINE
  8
0
 62
7
  6
CONTINUOUS
 10
154.0253041972
 20
30.7551182848
 11
154.1987416972
 21
30.6583272086
  0
LINE
  8
0
 62
7
  6
CONTINUOUS
 10
153.0424918074
 20
31.4326557675
 11
153.1581166972
 21
31.3681283946
  0
LINE
  8
0
 62
7
  6
CONTINUOUS
 10
153.3893668074
 20
31.4649194539
 11
153.2737419177
 21
31.5294468267
  0
LINE
  8
0
 62
7
  6
CONTINUOUS
 10
159.1128043074
 20
30.8519093441
 11
159.228429528
 21
30.7228545871
  0
LINE
  8
0
 62
7
  6
CONTINUOUS
 10
159.4596793074
 20
30.7873819712
 11
159.401867028
 21
30.8519093441
  0
LINE
  8
0
 62
7
  6
CONTINUOUS
 10
159.1128043074
 20
31.3681283946
 11
159.228429528
 21
31.2390736489
  0
LINE
  8
0
 62
7
  6
CONTINUOUS
 10
158.5924918074
 20
31.3681283946
 11
158.534679528
 21
31.4649194539
  0
LINE
  8
0
 62
7
  6
CONTINUOUS
 10
160.9628038663
 20
30.7873819712
 11
160.9628038663
 21
30.8519093441
  0
LINE
  8
0
 62
7
  6
CONTINUOUS
 10
160.9671844304
 20
32.3970785186
 11
160.9671844304
 21
36.1675703219
  0
LINE
  8
0
 62
7
  6
CONTINUOUS
 10
154.0253041972
 20
31.4971831403
 11
153.9674919177
 21
31.4326557675
  0
LINE
  8
0
 62
7
  6
CONTINUOUS
 10
150.9034292799
 20
31.4649194539
 11
151.0768668626
 21
31.400392081
  0
LINE
  8
0
 62
7
  6
CONTINUOUS
 10
155.6440543074
 20
31.4649194539
 11
155.5284290869
 21
31.5294468267
  0
LINE
  8
0
 62
7
  6
CONTINUOUS
 10
159.4596793074
 20
31.3036010218
 11
159.401867028
 21
31.3681283946
  0
LINE
  8
0
 62
7
  6
CONTINUOUS
 10
160.615929528
 20
30.9164367395
 11
160.6737418074
 21
30.8519093441
  0
LINE
  8
0
 62
7
  6
CONTINUOUS
 10
160.9628038663
 20
30.8519093441
 11
160.8471793074
 21
30.9809641124
  0
LINE
  8
0
 62
7
  6
CONTINUOUS
 10
160.615929528
 20
31.4326557675
 11
160.6737418074
 21
31.3681283946
  0
LINE
  8
0
 62
7
  6
CONTINUOUS
 10
160.9628038663
 20
31.3681283946
 11
160.8471793074
 21
31.4971831403
  0
LINE
  8
0
 62
7
  6
CONTINUOUS
 10
154.2565543074
 20
31.3681283946
 11
154.3143669177
 21
31.4326557675
  0
LINE
  8
0
 62
7
  6
CONTINUOUS
 10
154.0831168074
 20
31.1100188581
 11
153.9674919177
 21
30.9809641124
  0
LINE
  8
0
 62
7
  6
CONTINUOUS
 10
155.412804528
 20
30.9487004259
 11
155.3549915869
 21
30.8841730531
  0
LINE
  8
0
 62
7
  6
CONTINUOUS
 10
155.3549915869
 20
30.6905909007
 11
155.412804528
 21
30.7551182848
  0
LINE
  8
0
 62
7
  6
CONTINUOUS
 10
154.1987416972
 20
30.6583272086
 11
154.3143669177
 21
30.6260635193
  0
LINE
  8
0
 62
7
  6
CONTINUOUS
 10
151.1924917523
 20
31.5294468267
 11
150.9612418074
 21
31.5939741996
  0
LINE
  8
0
 62
7
  6
CONTINUOUS
 10
154.5456166972
 20
30.7228545871
 11
154.3143669177
 21
30.7873819712
  0
LINE
  8
0
 62
7
  6
CONTINUOUS
 10
153.2737419177
 20
31.5294468267
 11
153.1003044177
 21
31.5939741996
  0
LINE
  8
0
 62
7
  6
CONTINUOUS
 10
155.5284290869
 20
31.5294468267
 11
155.3549915869
 21
31.5939741996
  0
LINE
  8
0
 62
7
  6
CONTINUOUS
 10
158.187804528
 20
31.4326557675
 11
158.3034290869
 21
31.3681283946
  0
LINE
  8
0
 62
7
  6
CONTINUOUS
 10
158.534679528
 20
31.4649194539
 11
158.4190543074
 21
31.5294468267
  0
LINE
  8
0
 62
7
  6
CONTINUOUS
 10
150.0362418212
 20
30.6583272086
 11
150.2096793212
 21
30.6260635193
  0
LINE
  8
0
 62
7
  6
CONTINUOUS
 10
150.498741835
 20
30.7228545871
 11
150.1518667936
 21
30.7873819712
  0
LINE
  8
0
 62
7
  6
CONTINUOUS
 10
152.9268669177
 20
31.4649194539
 11
153.0424918074
 21
31.4326557675
  0
LINE
  8
0
 62
7
  6
CONTINUOUS
 10
155.239367028
 20
31.4649194539
 11
155.3549915869
 21
31.4326557675
  0
LINE
  8
0
 62
7
  6
CONTINUOUS
 10
159.575304528
 20
30.7551182848
 11
159.4596793074
 21
30.7873819712
  0
LINE
  8
0
 62
7
  6
CONTINUOUS
 10
158.0721793074
 20
31.4649194539
 11
158.187804528
 21
31.4326557675
  0
LINE
  8
0
 62
7
  6
CONTINUOUS
 10
159.228429528
 20
30.7228545871
 11
159.401867028
 21
30.6583272086
  0
LINE
  8
0
 62
7
  6
CONTINUOUS
 10
158.4190543074
 20
31.5294468267
 11
158.2456168074
 21
31.5939741996
  0
LINE
  8
0
 62
7
  6
CONTINUOUS
 10
159.6331168074
 20
31.2390736489
 11
159.4596793074
 21
31.3036010218
  0
LINE
  8
0
 62
7
  6
CONTINUOUS
 10
160.442492028
 20
30.9809641124
 11
160.615929528
 21
30.9164367395
  0
LINE
  8
0
 62
7
  6
CONTINUOUS
 10
160.8471793074
 20
31.4971831403
 11
160.6737418074
 21
31.5617105132
  0
LINE
  8
0
 62
7
  6
CONTINUOUS
 10
159.228429528
 20
31.2390736489
 11
159.4596793074
 21
31.1422825445
  0
LINE
  8
0
 62
7
  6
CONTINUOUS
 10
160.8471793074
 20
30.9809641124
 11
160.615929528
 21
31.0777551716
  0
LINE
  8
0
 62
7
  6
CONTINUOUS
 10
159.401867028
 20
31.3681283946
 11
159.4596793074
 21
31.4326557675
  0
LINE
  8
0
 62
7
  6
CONTINUOUS
 10
149.8628043005
 20
31.4971831403
 11
149.7471793074
 21
31.4326557675
  0
LINE
  8
0
 62
7
  6
CONTINUOUS
 10
149.9784292936
 20
31.3358647082
 11
150.1518667936
 21
31.4326557675
  0
LINE
  8
0
 62
7
  6
CONTINUOUS
 10
152.2909293626
 20
31.5294468267
 11
152.1753043074
 21
31.4649194539
  0
LINE
  8
0
 62
7
  6
CONTINUOUS
 10
152.1753043074
 20
31.3358647082
 11
152.2909293626
 21
31.400392081
  0
LINE
  8
0
 62
7
  6
CONTINUOUS
 10
151.1924917523
 20
30.6905909007
 11
151.3659292523
 21
30.7873819712
  0
LINE
  8
0
 62
7
  6
CONTINUOUS
 10
150.2096793212
 20
30.6260635193
 11
150.5565542799
 21
30.5937998301
  0
LINE
  8
0
 62
7
  6
CONTINUOUS
 10
154.3143669177
 20
30.6260635193
 11
154.5456166972
 21
30.5937998301
  0
LINE
  8
0
 62
7
  6
CONTINUOUS
 10
152.6956168074
 20
31.4971831403
 11
152.9268669177
 21
31.4649194539
  0
LINE
  8
0
 62
7
  6
CONTINUOUS
 10
155.0081169177
 20
31.4971831403
 11
155.239367028
 21
31.4649194539
  0
LINE
  8
0
 62
7
  6
CONTINUOUS
 10
159.4596793074
 20
31.1422825445
 11
160.442492028
 21
30.9809641124
  0
LINE
  8
0
 62
7
  6
CONTINUOUS
 10
160.615929528
 20
31.0777551716
 11
159.6331168074
 21
31.2390736489
  0
LINE
  8
0
 62
7
  6
CONTINUOUS
 10
153.1003044177
 20
31.5939741996
 11
152.9268669177
 21
31.626237886
  0
LINE
  8
0
 62
7
  6
CONTINUOUS
 10
159.401867028
 20
30.6583272086
 11
159.575304528
 21
30.6260635193
  0
LINE
  8
0
 62
7
  6
CONTINUOUS
 10
158.2456168074
 20
31.5939741996
 11
158.0721793074
 21
31.626237886
  0
LINE
  8
0
 62
7
  6
CONTINUOUS
 10
160.5003043074
 20
31.4649194539
 11
160.615929528
 21
31.4326557675
  0
LINE
  8
0
 62
7
  6
CONTINUOUS
 10
160.6737418074
 20
30.8519093441
 11
160.615929528
 21
30.7873819712
  0
LINE
  8
0
 62
7
  6
CONTINUOUS
 10
159.228429528
 20
31.5294468267
 11
159.1128043074
 21
31.4326557675
  0
LINE
  8
0
 62
7
  6
CONTINUOUS
 10
154.1409294177
 20
31.5617105132
 11
154.0253041972
 21
31.4971831403
  0
LINE
  8
0
 62
7
  6
CONTINUOUS
 10
154.1987416972
 20
31.1745462761
 11
154.0831168074
 21
31.1100188581
  0
LINE
  8
0
 62
7
  6
CONTINUOUS
 10
154.3143669177
 20
31.0132277988
 11
154.4299918074
 21
31.0777551716
  0
LINE
  8
0
 62
7
  6
CONTINUOUS
 10
151.8862417523
 20
30.5937998301
 11
152.1753043074
 21
30.5937998301
  0
LINE
  8
0
 62
7
  6
CONTINUOUS
 10
153.2159293074
 20
30.5937998301
 11
153.5049916972
 21
30.5937998301
  0
LINE
  8
0
 62
7
  6
CONTINUOUS
 10
154.5456166972
 20
30.5937998301
 11
154.8924916972
 21
30.5937998301
  0
LINE
  8
0
 62
7
  6
CONTINUOUS
 10
155.5284290869
 20
30.5937998301
 11
155.8174918074
 21
30.5937998301
  0
LINE
  8
0
 62
7
  6
CONTINUOUS
 10
156.279992028
 20
30.5937998301
 11
156.5690540869
 21
30.5937998301
  0
LINE
  8
0
 62
7
  6
CONTINUOUS
 10
157.0315543074
 20
30.5937998301
 11
157.320617028
 21
30.5937998301
  0
LINE
  8
0
 62
7
  6
CONTINUOUS
 10
158.361242028
 20
30.5937998301
 11
158.6503040869
 21
30.5937998301
  0
LINE
  8
0
 62
7
  6
CONTINUOUS
 10
159.922179528
 20
30.5937998301
 11
160.269054528
 21
30.5937998301
  0
LINE
  8
0
 62
7
  6
CONTINUOUS
 10
160.269054528
 20
30.7228545871
 11
159.922179528
 21
30.7228545871
  0
LINE
  8
0
 62
7
  6
CONTINUOUS
 10
154.8924916972
 20
30.7228545871
 11
154.5456166972
 21
30.7228545871
  0
LINE
  8
0
 62
7
  6
CONTINUOUS
 10
159.401867028
 20
30.8519093441
 11
159.1128043074
 21
30.8519093441
  0
LINE
  8
0
 62
7
  6
CONTINUOUS
 10
151.4237418626
 20
30.9164367395
 11
151.1346793074
 21
30.9164367395
  0
LINE
  8
0
 62
7
  6
CONTINUOUS
 10
150.498741835
 20
31.4971831403
 11
150.9034292799
 21
31.4649194539
  0
LINE
  8
0
 62
7
  6
CONTINUOUS
 10
150.9612418074
 20
31.5939741996
 11
150.5565542799
 21
31.626237886
  0
LINE
  8
0
 62
7
  6
CONTINUOUS
 10
159.575304528
 20
30.6260635193
 11
159.922179528
 21
30.5937998301
  0
LINE
  8
0
 62
7
  6
CONTINUOUS
 10
159.922179528
 20
30.7228545871
 11
159.575304528
 21
30.7551182848
  0
LINE
  8
0
 62
7
  6
CONTINUOUS
 10
155.3549915869
 20
31.5939741996
 11
155.0081169177
 21
31.626237886
  0
LINE
  8
0
 62
7
  6
CONTINUOUS
 10
160.1534293074
 20
31.4971831403
 11
160.5003043074
 21
31.4649194539
  0
LINE
  8
0
 62
7
  6
CONTINUOUS
 10
160.5003043074
 20
31.5939741996
 11
160.1534293074
 21
31.626237886
  0
LINE
  8
0
 62
7
  6
CONTINUOUS
 10
157.840929528
 20
31.4971831403
 11
158.0721793074
 21
31.4649194539
  0
LINE
  8
0
 62
7
  6
CONTINUOUS
 10
160.6737418074
 20
31.5617105132
 11
160.5003043074
 21
31.5939741996
  0
LINE
  8
0
 62
7
  6
CONTINUOUS
 10
160.8471793074
 20
30.6905909007
 11
160.9628038663
 21
30.7873819712
  0
LINE
  8
0
 62
7
  6
CONTINUOUS
 10
155.3549915869
 20
30.8841730531
 11
155.1815540869
 21
30.7873819712
  0
LINE
  8
0
 62
7
  6
CONTINUOUS
 10
157.4362415869
 20
31.5294468267
 11
157.320617028
 21
31.4649194539
  0
LINE
  8
0
 62
7
  6
CONTINUOUS
 10
157.320617028
 20
31.3358647082
 11
157.4362415869
 21
31.400392081
  0
LINE
  8
0
 62
7
  6
CONTINUOUS
 10
150.0362418212
 20
31.5617105132
 11
149.8628043005
 21
31.4971831403
  0
LINE
  8
0
 62
7
  6
CONTINUOUS
 10
152.4643666972
 20
31.5939741996
 11
152.2909293626
 21
31.5294468267
  0
LINE
  8
0
 62
7
  6
CONTINUOUS
 10
152.2909293626
 20
31.400392081
 11
152.4643666972
 21
31.4649194539
  0
LINE
  8
0
 62
7
  6
CONTINUOUS
 10
151.0768668626
 20
30.8196456577
 11
150.9034292799
 21
30.7551182848
  0
LINE
  8
0
 62
7
  6
CONTINUOUS
 10
160.5003043074
 20
30.7551182848
 11
160.269054528
 21
30.7228545871
  0
LINE
  8
0
 62
7
  6
CONTINUOUS
 10
154.8924916972
 20
30.5937998301
 11
155.1815540869
 21
30.6260635193
  0
LINE
  8
0
 62
7
  6
CONTINUOUS
 10
160.269054528
 20
30.5937998301
 11
160.615929528
 21
30.6260635193
  0
LINE
  8
0
 62
7
  6
CONTINUOUS
 10
150.5565542799
 20
30.5937998301
 11
150.9612418074
 21
30.6260635193
  0
LINE
  8
0
 62
7
  6
CONTINUOUS
 10
150.9034292799
 20
30.7551182848
 11
150.498741835
 21
30.7228545871
  0
LINE
  8
0
 62
7
  6
CONTINUOUS
 10
154.7768668074
 20
31.1422825445
 11
155.412804528
 21
31.1422825445
  0
LINE
  8
0
 62
7
  6
CONTINUOUS
 10
155.412804528
 20
31.2713373354
 11
154.7768668074
 21
31.2713373354
  0
LINE
  8
0
 62
7
  6
CONTINUOUS
 10
151.1346793074
 20
31.3036010218
 11
151.4237418626
 21
31.3036010218
  0
LINE
  8
0
 62
7
  6
CONTINUOUS
 10
153.9674919177
 20
31.3681283946
 11
154.2565543074
 21
31.3681283946
  0
LINE
  8
0
 62
7
  6
CONTINUOUS
 10
160.6737418074
 20
31.3681283946
 11
160.9628038663
 21
31.3681283946
  0
LINE
  8
0
 62
7
  6
CONTINUOUS
 10
154.6612419177
 20
31.4971831403
 11
155.0081169177
 21
31.4971831403
  0
LINE
  8
0
 62
7
  6
CONTINUOUS
 10
159.8065543074
 20
31.4971831403
 11
160.1534293074
 21
31.4971831403
  0
LINE
  8
0
 62
7
  6
CONTINUOUS
 10
160.1534293074
 20
31.626237886
 11
159.8065543074
 21
31.626237886
  0
LINE
  8
0
 62
7
  6
CONTINUOUS
 10
158.0721793074
 20
31.626237886
 11
157.840929528
 21
31.626237886
  0
LINE
  8
0
 62
7
  6
CONTINUOUS
 10
157.320617028
 20
31.626237886
 11
157.0315543074
 21
31.626237886
  0
LINE
  8
0
 62
7
  6
CONTINUOUS
 10
156.5690540869
 20
31.626237886
 11
156.279992028
 21
31.626237886
  0
LINE
  8
0
 62
7
  6
CONTINUOUS
 10
155.0081169177
 20
31.626237886
 11
154.6612419177
 21
31.626237886
  0
LINE
  8
0
 62
7
  6
CONTINUOUS
 10
152.9268669177
 20
31.626237886
 11
152.6956168074
 21
31.626237886
  0
LINE
  8
0
 62
7
  6
CONTINUOUS
 10
156.279992028
 20
31.9488748406
 11
156.5690540869
 21
31.9488748406
  0
LINE
  8
0
 62
7
  6
CONTINUOUS
 10
156.5690540869
 20
32.1101932727
 11
156.279992028
 21
32.1101932727
  0
LINE
  8
0
 62
7
  6
CONTINUOUS
 10
152.1753043074
 20
32.1101932727
 11
151.8862417523
 21
32.1101932727
  0
LINE
  8
0
 62
7
  6
CONTINUOUS
 10
151.2130860697
 20
32.3970785186
 11
151.6256574183
 21
32.3970785186
  0
LINE
  8
0
 62
7
  6
CONTINUOUS
 10
152.852430332
 20
32.3970785186
 11
154.245872955
 21
32.3970785186
  0
LINE
  8
0
 62
7
  6
CONTINUOUS
 10
154.5737418074
 20
32.3970785186
 11
155.9671844304
 21
32.3970785186
  0
LINE
  8
0
 62
7
  6
CONTINUOUS
 10
157.852430332
 20
32.3970785186
 11
159.245872955
 21
32.3970785186
  0
LINE
  8
0
 62
7
  6
CONTINUOUS
 10
159.5737418074
 20
32.3970785186
 11
160.9671844304
 21
32.3970785186
  0
LINE
  8
0
 62
7
  6
CONTINUOUS
 10
157.6096790869
 20
31.5939741996
 11
157.4362415869
 21
31.5294468267
  0
LINE
  8
0
 62
7
  6
CONTINUOUS
 10
155.1815540869
 20
30.6260635193
 11
155.3549915869
 21
30.6905909007
  0
LINE
  8
0
 62
7
  6
CONTINUOUS
 10
160.615929528
 20
30.6260635193
 11
160.8471793074
 21
30.6905909007
  0
LINE
  8
0
 62
7
  6
CONTINUOUS
 10
160.615929528
 20
30.7873819712
 11
160.5003043074
 21
30.7551182848
  0
LINE
  8
0
 62
7
  6
CONTINUOUS
 10
159.575304528
 20
31.4649194539
 11
159.8065543074
 21
31.4971831403
  0
LINE
  8
0
 62
7
  6
CONTINUOUS
 10
157.6096790869
 20
31.4649194539
 11
157.840929528
 21
31.4971831403
  0
LINE
  8
0
 62
7
  6
CONTINUOUS
 10
154.5456166972
 20
31.1100188581
 11
154.7768668074
 21
31.1422825445
  0
LINE
  8
0
 62
7
  6
CONTINUOUS
 10
157.840929528
 20
31.626237886
 11
157.6096790869
 21
31.5939741996
  0
LINE
  8
0
 62
7
  6
CONTINUOUS
 10
154.4299918074
 20
31.4649194539
 11
154.6612419177
 21
31.4971831403
  0
LINE
  8
0
 62
7
  6
CONTINUOUS
 10
159.8065543074
 20
31.626237886
 11
159.4596793074
 21
31.5939741996
  0
LINE
  8
0
 62
7
  6
CONTINUOUS
 10
154.7768668074
 20
31.2713373354
 11
154.4299918074
 21
31.2390736489
  0
LINE
  8
0
 62
7
  6
CONTINUOUS
 10
150.5565542799
 20
31.626237886
 11
150.2096793212
 21
31.5939741996
  0
LINE
  8
0
 62
7
  6
CONTINUOUS
 10
154.6612419177
 20
31.626237886
 11
154.2565543074
 21
31.5939741996
  0
LINE
  8
0
 62
7
  6
CONTINUOUS
 10
152.0327582009
 20
33.5446195022
 11
151.3770204959
 21
33.5446195022
  0
LINE
  8
0
 62
7
  6
CONTINUOUS
 10
157.4362415869
 20
31.400392081
 11
157.6096790869
 21
31.4649194539
  0
LINE
  8
0
 62
7
  6
CONTINUOUS
 10
159.4596793074
 20
31.4326557675
 11
159.575304528
 21
31.4649194539
  0
LINE
  8
0
 62
7
  6
CONTINUOUS
 10
159.4596793074
 20
31.5939741996
 11
159.228429528
 21
31.5294468267
  0
LINE
  8
0
 62
7
  6
CONTINUOUS
 10
155.1815540869
 20
30.7873819712
 11
154.8924916972
 21
30.7228545871
  0
LINE
  8
0
 62
7
  6
CONTINUOUS
 10
152.4643666972
 20
31.4649194539
 11
152.6956168074
 21
31.4971831403
  0
LINE
  8
0
 62
7
  6
CONTINUOUS
 10
152.6956168074
 20
31.626237886
 11
152.4643666972
 21
31.5939741996
  0
LINE
  8
0
 62
7
  6
CONTINUOUS
 10
150.2674918074
 20
31.4649194539
 11
150.498741835
 21
31.4971831403
  0
LINE
  8
0
 62
7
  6
CONTINUOUS
 10
156.7868565615
 20
35.0200293383
 11
157.4425942664
 21
35.0200293383
  0
LINE
  8
0
 62
7
  6
CONTINUOUS
 10
154.4299918074
 20
31.0777551716
 11
154.5456166972
 21
31.1100188581
  0
LINE
  8
0
 62
7
  6
CONTINUOUS
 10
154.4299918074
 20
31.2390736489
 11
154.1987416972
 21
31.1745462761
  0
LINE
  8
0
 62
7
  6
CONTINUOUS
 10
154.3143669177
 20
31.4326557675
 11
154.4299918074
 21
31.4649194539
  0
LINE
  8
0
 62
7
  6
CONTINUOUS
 10
150.9612418074
 20
30.6260635193
 11
151.1924917523
 21
30.6905909007
  0
LINE
  8
0
 62
7
  6
CONTINUOUS
 10
154.2565543074
 20
31.5939741996
 11
154.1409294177
 21
31.5617105132
  0
LINE
  8
0
 62
7
  6
CONTINUOUS
 10
150.2096793212
 20
31.5939741996
 11
150.0362418212
 21
31.5617105132
  0
LINE
  8
0
 62
7
  6
CONTINUOUS
 10
160.9671844304
 20
36.1675703219
 11
159.5737418074
 21
36.1675703219
  0
LINE
  8
0
 62
7
  6
CONTINUOUS
 10
157.6065286927
 20
36.1675703219
 11
157.1939573441
 21
36.1675703219
  0
LINE
  8
0
 62
7
  6
CONTINUOUS
 10
155.9671844304
 20
36.1675703219
 11
154.5737418074
 21
36.1675703219
  0
LINE
  8
0
 62
7
  6
CONTINUOUS
 10
154.245872955
 20
36.1675703219
 11
152.852430332
 21
36.1675703219
  0
LINE
  8
0
 62
7
  6
CONTINUOUS
 10
150.9671844304
 20
36.1675703219
 11
149.5737418074
 21
36.1675703219
  0
LINE
  8
0
 62
7
  6
CONTINUOUS
 10
150.1518667936
 20
31.4326557675
 11
150.2674918074
 21
31.4649194539
  0
CIRCLE
  8
0
 62
7
  6
CONTINUOUS
 10
160.2704631189
 20
38.5036358957
 40
2.0901639344
  0
ARC
  8
0
 62
7
  6
CONTINUOUS
 10
151.2130860697
 20
34.0364227809
 40
1.6393442623
 50
180.0
 51
270.0
  0
ARC
  8
0
 62
7
  6
CONTINUOUS
 10
157.6065286927
 20
34.5282260596
 40
1.6393442623
 50
0.0
 51
90.0
  0
ARC
  8
0
 62
7
  6
CONTINUOUS
 10
151.6256574183
 20
33.8724883547
 40
1.4754098361
 50
270.0
 51
326.2510114041
  0
ARC
  8
0
 62
7
  6
CONTINUOUS
 10
157.1939573441
 20
34.6921604858
 40
1.4754098361
 50
90.0
 51
146.2510114041
  0
ARC
  8
0
 62
7
  6
CONTINUOUS
 10
152.0327582009
 20
34.3642916334
 40
0.8196721311
 50
270.0
 51
360.0
  0
ARC
  8
0
 62
7
  6
CONTINUOUS
 10
156.7868565615
 20
34.2003572071
 40
0.8196721311
 50
90.0
 51
180.0
  0
ARC
  8
0
 62
7
  6
CONTINUOUS
 10
151.3770204959
 20
33.9544555678
 40
0.4098360656
 50
180.0
 51
270.0
  0
ARC
  8
0
 62
7
  6
CONTINUOUS
 10
157.4425942664
 20
34.6101932727
 40
0.4098360656
 50
0.0
 51
90.0
  0
SOLID
  8
0
 62
7
  6
CONTINUOUS
 10
156.279992028
 20
31.9488752009
 11
156.279992028
 21
32.1101936845
 12
156.5690540869
 22
31.9488752009
 13
156.5690540869
 23
32.1101936845
  0
SOLID
  8
0
 62
7
  6
CONTINUOUS
 10
150.5565542799
 20
31.6262382337
 11
150.9612418074
 21
31.5939740028
 12
150.2096793212
 22
31.5939740028
 13
150.2096793212
 23
31.5939740028
  0
SOLID
  8
0
 62
7
  6
CONTINUOUS
 10
150.0362418212
 20
31.5617111435
 11
150.2096793212
 21
31.5939740028
 12
150.9612418074
 22
31.5939740028
 13
150.9612418074
 23
31.5939740028
  0
SOLID
  8
0
 62
7
  6
CONTINUOUS
 10
150.9612418074
 20
31.5939740028
 11
151.1924917523
 21
31.5294468402
 12
150.0362418212
 22
31.5617111435
 13
150.0362418212
 23
31.5617111435
  0
SOLID
  8
0
 62
7
  6
CONTINUOUS
 10
149.8628043005
 20
31.49718259
 11
150.0362418212
 21
31.5617111435
 12
151.1924917523
 22
31.5294468402
 13
151.1924917523
 23
31.5294468402
  0
SOLID
  8
0
 62
7
  6
CONTINUOUS
 10
149.8628043005
 20
31.49718259
 11
151.1924917523
 21
31.5294468402
 12
150.498741835
 22
31.49718259
 13
150.498741835
 23
31.49718259
  0
SOLID
  8
0
 62
7
  6
CONTINUOUS
 10
150.498741835
 20
31.49718259
 11
151.1924917523
 21
31.5294468402
 12
150.9034292799
 22
31.4649197501
 13
150.9034292799
 23
31.4649197501
  0
SOLID
  8
0
 62
7
  6
CONTINUOUS
 10
151.1924917523
 20
31.5294468402
 11
151.3659292523
 21
31.4326554468
 12
150.9034292799
 22
31.4649197501
 13
150.9034292799
 23
31.4649197501
  0
SOLID
  8
0
 62
7
  6
CONTINUOUS
 10
151.0768668626
 20
31.4003926599
 11
150.9034292799
 21
31.4649197501
 12
151.3659292523
 22
31.4326554468
 13
151.3659292523
 23
31.4326554468
  0
SOLID
  8
0
 62
7
  6
CONTINUOUS
 10
151.0768668626
 20
31.4003926599
 11
151.3659292523
 21
31.4326554468
 12
151.1346793074
 22
31.3036013776
 13
151.1346793074
 23
31.3036013776
  0
SOLID
  8
0
 62
7
  6
CONTINUOUS
 10
151.3659292523
 20
31.4326554468
 11
151.4237418626
 21
31.3036013776
 12
151.1346793074
 22
31.3036013776
 13
151.1346793074
 23
31.3036013776
  0
SOLID
  8
0
 62
7
  6
CONTINUOUS
 10
152.4643666972
 20
31.5939739754
 11
152.6956168074
 21
31.6262382787
 12
152.9268669177
 22
31.6262382787
 13
152.9268669177
 23
31.6262382787
  0
SOLID
  8
0
 62
7
  6
CONTINUOUS
 10
152.9268669177
 20
31.6262382787
 11
153.1003044177
 21
31.5939739754
 12
152.4643666972
 22
31.5939739754
 13
152.4643666972
 23
31.5939739754
  0
SOLID
  8
0
 62
7
  6
CONTINUOUS
 10
152.2909293626
 20
31.5294468852
 11
152.4643666972
 21
31.5939739754
 12
153.1003044177
 22
31.5939739754
 13
153.1003044177
 23
31.5939739754
  0
SOLID
  8
0
 62
7
  6
CONTINUOUS
 10
153.1003044177
 20
31.5939739754
 11
153.2737419177
 21
31.5294468852
 12
152.2909293626
 22
31.5294468852
 13
152.2909293626
 23
31.5294468852
  0
SOLID
  8
0
 62
7
  6
CONTINUOUS
 10
153.2737419177
 20
31.5294468852
 11
152.6956168074
 21
31.4971825369
 12
152.2909293626
 22
31.5294468852
 13
152.2909293626
 23
31.5294468852
  0
SOLID
  8
0
 62
7
  6
CONTINUOUS
 10
152.1753043074
 20
31.4649197951
 11
152.2909293626
 21
31.5294468852
 12
152.6956168074
 22
31.4971825369
 13
152.6956168074
 23
31.4971825369
  0
SOLID
  8
0
 62
7
  6
CONTINUOUS
 10
152.6956168074
 20
31.4971825369
 11
152.4643666972
 21
31.4649197951
 12
152.1753043074
 22
31.4649197951
 13
152.1753043074
 23
31.4649197951
  0
SOLID
  8
0
 62
7
  6
CONTINUOUS
 10
152.6956168074
 20
31.4971825369
 11
153.2737419177
 21
31.5294468852
 12
152.9268669177
 22
31.4649197951
 13
152.9268669177
 23
31.4649197951
  0
SOLID
  8
0
 62
7
  6
CONTINUOUS
 10
153.2737419177
 20
31.5294468852
 11
153.3893668074
 21
31.4649197951
 12
152.9268669177
 22
31.4649197951
 13
152.9268669177
 23
31.4649197951
  0
SOLID
  8
0
 62
7
  6
CONTINUOUS
 10
153.0424918074
 20
31.4326554468
 11
152.9268669177
 21
31.4649197951
 12
153.3893668074
 22
31.4649197951
 13
153.3893668074
 23
31.4649197951
  0
SOLID
  8
0
 62
7
  6
CONTINUOUS
 10
153.3893668074
 20
31.4649197951
 11
153.4471794177
 21
31.4003927049
 12
153.0424918074
 22
31.4326554468
 13
153.0424918074
 23
31.4326554468
  0
SOLID
  8
0
 62
7
  6
CONTINUOUS
 10
153.1581166972
 20
31.3681283566
 11
153.0424918074
 21
31.4326554468
 12
153.4471794177
 22
31.4003927049
 13
153.4471794177
 23
31.4003927049
  0
SOLID
  8
0
 62
7
  6
CONTINUOUS
 10
153.1581166972
 20
31.3681283566
 11
153.4471794177
 21
31.4003927049
 12
153.2159293074
 22
31.2390742213
 13
153.2159293074
 23
31.2390742213
  0
SOLID
  8
0
 62
7
  6
CONTINUOUS
 10
153.4471794177
 20
31.4003927049
 11
153.5049916972
 21
31.2390742213
 12
153.2159293074
 22
31.2390742213
 13
153.2159293074
 23
31.2390742213
  0
SOLID
  8
0
 62
7
  6
CONTINUOUS
 10
152.4643666972
 20
31.4649197951
 11
152.2909293626
 21
31.4003927049
 12
152.1753043074
 22
31.4649197951
 13
152.1753043074
 23
31.4649197951
  0
SOLID
  8
0
 62
7
  6
CONTINUOUS
 10
152.2909293626
 20
31.4003927049
 11
152.1753043074
 21
31.3358640533
 12
152.1753043074
 22
31.4649197951
 13
152.1753043074
 23
31.4649197951
  0
SOLID
  8
0
 62
7
  6
CONTINUOUS
 10
152.1753043074
 20
31.3358640533
 11
151.8862417523
 21
30.5938002869
 12
152.1753043074
 22
31.4649197951
 13
152.1753043074
 23
31.4649197951
  0
SOLID
  8
0
 62
7
  6
CONTINUOUS
 10
152.1753043074
 20
31.4649197951
 11
151.8862417523
 21
30.5938002869
 12
152.1753043074
 22
32.1101937295
 13
152.1753043074
 23
32.1101937295
  0
SOLID
  8
0
 62
7
  6
CONTINUOUS
 10
151.8862417523
 20
30.5938002869
 11
151.8862417523
 21
32.1101937295
 12
152.1753043074
 22
32.1101937295
 13
152.1753043074
 23
32.1101937295
  0
SOLID
  8
0
 62
7
  6
CONTINUOUS
 10
152.1753043074
 20
31.3358640533
 11
152.1753043074
 21
30.5938002869
 12
151.8862417523
 22
30.5938002869
 13
151.8862417523
 23
30.5938002869
  0
SOLID
  8
0
 62
7
  6
CONTINUOUS
 10
153.2159293074
 20
30.5938002869
 11
153.2159293074
 21
31.2390742213
 12
153.5049916972
 22
31.2390742213
 13
153.5049916972
 23
31.2390742213
  0
SOLID
  8
0
 62
7
  6
CONTINUOUS
 10
153.5049916972
 20
31.2390742213
 11
153.5049916972
 21
30.5938002869
 12
153.2159293074
 22
30.5938002869
 13
153.2159293074
 23
30.5938002869
  0
SOLID
  8
0
 62
7
  6
CONTINUOUS
 10
154.2565543074
 20
31.5939738288
 11
154.6612419177
 21
31.6262385959
 12
155.0081169177
 22
31.6262385959
 13
155.0081169177
 23
31.6262385959
  0
SOLID
  8
0
 62
7
  6
CONTINUOUS
 10
155.0081169177
 20
31.6262385959
 11
155.3549915869
 21
31.5939738288
 12
154.2565543074
 22
31.5939738288
 13
154.2565543074
 23
31.5939738288
  0
SOLID
  8
0
 62
7
  6
CONTINUOUS
 10
154.1409294177
 20
31.5617111435
 11
154.2565543074
 21
31.5939738288
 12
155.3549915869
 22
31.5939738288
 13
155.3549915869
 23
31.5939738288
  0
SOLID
  8
0
 62
7
  6
CONTINUOUS
 10
155.3549915869
 20
31.5939738288
 11
155.5284290869
 21
31.5294468402
 12
154.1409294177
 22
31.5617111435
 13
154.1409294177
 23
31.5617111435
  0
SOLID
  8
0
 62
7
  6
CONTINUOUS
 10
154.0253041972
 20
31.4971826249
 11
154.1409294177
 21
31.5617111435
 12
155.5284290869
 22
31.5294468402
 13
155.5284290869
 23
31.5294468402
  0
SOLID
  8
0
 62
7
  6
CONTINUOUS
 10
154.0253041972
 20
31.4971826249
 11
155.5284290869
 21
31.5294468402
 12
154.6612419177
 22
31.4971826249
 13
154.6612419177
 23
31.4971826249
  0
SOLID
  8
0
 62
7
  6
CONTINUOUS
 10
154.6612419177
 20
31.4971826249
 11
155.5284290869
 21
31.5294468402
 12
155.0081169177
 22
31.4971826249
 13
155.0081169177
 23
31.4971826249
  0
SOLID
  8
0
 62
7
  6
CONTINUOUS
 10
155.0081169177
 20
31.4971826249
 11
155.5284290869
 21
31.5294468402
 12
155.239367028
 22
31.4649194065
 13
155.239367028
 23
31.4649194065
  0
SOLID
  8
0
 62
7
  6
CONTINUOUS
 10
155.5284290869
 20
31.5294468402
 11
155.6440543074
 21
31.4649194065
 12
155.239367028
 22
31.4649194065
 13
155.239367028
 23
31.4649194065
  0
SOLID
  8
0
 62
7
  6
CONTINUOUS
 10
153.9674919177
 20
31.4326554138
 11
154.0253041972
 21
31.4971826249
 12
154.6612419177
 22
31.4971826249
 13
154.6612419177
 23
31.4971826249
  0
SOLID
  8
0
 62
7
  6
CONTINUOUS
 10
155.3549915869
 20
31.4326554138
 11
155.239367028
 21
31.4649194065
 12
155.6440543074
 22
31.4649194065
 13
155.6440543074
 23
31.4649194065
  0
SOLID
  8
0
 62
7
  6
CONTINUOUS
 10
155.3549915869
 20
31.4326554138
 11
155.6440543074
 21
31.4649194065
 12
155.412804528
 22
31.3681282026
 13
155.412804528
 23
31.3681282026
  0
SOLID
  8
0
 62
7
  6
CONTINUOUS
 10
155.6440543074
 20
31.4649194065
 11
155.7018665869
 21
31.3681282026
 12
155.412804528
 22
31.3681282026
 13
155.412804528
 23
31.3681282026
  0
SOLID
  8
0
 62
7
  6
CONTINUOUS
 10
155.412804528
 20
31.2713369632
 11
155.412804528
 21
31.3681282026
 12
155.7018665869
 22
31.3681282026
 13
155.7018665869
 23
31.3681282026
  0
SOLID
  8
0
 62
7
  6
CONTINUOUS
 10
155.412804528
 20
31.2713369632
 11
155.7018665869
 21
31.3681282026
 12
155.412804528
 22
31.1422827828
 13
155.412804528
 23
31.1422827828
  0
SOLID
  8
0
 62
7
  6
CONTINUOUS
 10
155.412804528
 20
31.1422827828
 11
155.7018665869
 21
31.3681282026
 12
155.412804528
 22
30.9487004259
 13
155.412804528
 23
30.9487004259
  0
SOLID
  8
0
 62
7
  6
CONTINUOUS
 10
155.7018665869
 20
31.3681282026
 11
155.7018665869
 21
30.8519086025
 12
155.412804528
 22
30.9487004259
 13
155.412804528
 23
30.9487004259
  0
SOLID
  8
0
 62
7
  6
CONTINUOUS
 10
157.6096790869
 20
31.5939736268
 11
157.840929528
 21
31.6262383465
 12
158.0721793074
 22
31.6262383465
 13
158.0721793074
 23
31.6262383465
  0
SOLID
  8
0
 62
7
  6
CONTINUOUS
 10
158.0721793074
 20
31.6262383465
 11
158.2456168074
 21
31.5939736268
 12
157.6096790869
 22
31.5939736268
 13
157.6096790869
 23
31.5939736268
  0
SOLID
  8
0
 62
7
  6
CONTINUOUS
 10
157.4362415869
 20
31.5294472848
 11
157.6096790869
 21
31.5939736268
 12
158.2456168074
 22
31.5939736268
 13
158.2456168074
 23
31.5939736268
  0
SOLID
  8
0
 62
7
  6
CONTINUOUS
 10
158.2456168074
 20
31.5939736268
 11
158.4190543074
 21
31.5294472848
 12
157.4362415869
 22
31.5294472848
 13
157.4362415869
 23
31.5294472848
  0
SOLID
  8
0
 62
7
  6
CONTINUOUS
 10
158.4190543074
 20
31.5294472848
 11
157.840929528
 21
31.4971825369
 12
157.4362415869
 22
31.5294472848
 13
157.4362415869
 23
31.5294472848
  0
SOLID
  8
0
 62
7
  6
CONTINUOUS
 10
157.320617028
 20
31.4649199103
 11
157.4362415869
 21
31.5294472848
 12
157.840929528
 22
31.4971825369
 13
157.840929528
 23
31.4971825369
  0
SOLID
  8
0
 62
7
  6
CONTINUOUS
 10
157.840929528
 20
31.4971825369
 11
157.6096790869
 21
31.4649199103
 12
157.320617028
 22
31.4649199103
 13
157.320617028
 23
31.4649199103
  0
SOLID
  8
0
 62
7
  6
CONTINUOUS
 10
157.840929528
 20
31.4971825369
 11
158.4190543074
 21
31.5294472848
 12
158.0721793074
 22
31.4649199103
 13
158.0721793074
 23
31.4649199103
  0
SOLID
  8
0
 62
7
  6
CONTINUOUS
 10
158.4190543074
 20
31.5294472848
 11
158.534679528
 21
31.4649199103
 12
158.0721793074
 22
31.4649199103
 13
158.0721793074
 23
31.4649199103
  0
SOLID
  8
0
 62
7
  6
CONTINUOUS
 10
158.187804528
 20
31.4326554468
 11
158.0721793074
 21
31.4649199103
 12
158.534679528
 22
31.4649199103
 13
158.534679528
 23
31.4649199103
  0
SOLID
  8
0
 62
7
  6
CONTINUOUS
 10
158.187804528
 20
31.4326554468
 11
158.534679528
 21
31.4649199103
 12
158.3034290869
 22
31.3681288486
 13
158.3034290869
 23
31.3681288486
  0
SOLID
  8
0
 62
7
  6
CONTINUOUS
 10
158.534679528
 20
31.4649199103
 11
158.5924918074
 21
31.3681288486
 12
158.3034290869
 22
31.3681288486
 13
158.3034290869
 23
31.3681288486
  0
SOLID
  8
0
 62
7
  6
CONTINUOUS
 10
158.361242028
 20
31.2068093799
 11
158.3034290869
 21
31.3681288486
 12
158.5924918074
 22
31.3681288486
 13
158.5924918074
 23
31.3681288486
  0
SOLID
  8
0
 62
7
  6
CONTINUOUS
 10
158.5924918074
 20
31.3681288486
 11
158.6503040869
 21
31.2068093799
 12
158.361242028
 22
31.2068093799
 13
158.361242028
 23
31.2068093799
  0
SOLID
  8
0
 62
7
  6
CONTINUOUS
 10
157.6096790869
 20
31.4649199103
 11
157.4362415869
 21
31.4003926599
 12
157.320617028
 22
31.4649199103
 13
157.320617028
 23
31.4649199103
  0
SOLID
  8
0
 62
7
  6
CONTINUOUS
 10
157.4362415869
 20
31.4003926599
 11
157.320617028
 21
31.3358640533
 12
157.320617028
 22
31.4649199103
 13
157.320617028
 23
31.4649199103
  0
SOLID
  8
0
 62
7
  6
CONTINUOUS
 10
157.320617028
 20
31.3358640533
 11
157.0315543074
 21
30.5938003547
 12
157.320617028
 22
31.4649199103
 13
157.320617028
 23
31.4649199103
  0
SOLID
  8
0
 62
7
  6
CONTINUOUS
 10
157.320617028
 20
31.4649199103
 11
157.0315543074
 21
30.5938003547
 12
157.320617028
 22
31.6262383465
 13
157.320617028
 23
31.6262383465
  0
SOLID
  8
0
 62
7
  6
CONTINUOUS
 10
157.0315543074
 20
30.5938003547
 11
157.0315543074
 21
31.6262383465
 12
157.320617028
 22
31.6262383465
 13
157.320617028
 23
31.6262383465
  0
SOLID
  8
0
 62
7
  6
CONTINUOUS
 10
157.320617028
 20
31.3358640533
 11
157.320617028
 21
30.5938003547
 12
157.0315543074
 22
30.5938003547
 13
157.0315543074
 23
30.5938003547
  0
SOLID
  8
0
 62
7
  6
CONTINUOUS
 10
158.361242028
 20
30.5938003547
 11
158.361242028
 21
31.2068093799
 12
158.6503040869
 22
31.2068093799
 13
158.6503040869
 23
31.2068093799
  0
SOLID
  8
0
 62
7
  6
CONTINUOUS
 10
158.6503040869
 20
31.2068093799
 11
158.6503040869
 21
30.5938003547
 12
158.361242028
 22
30.5938003547
 13
158.361242028
 23
30.5938003547
  0
SOLID
  8
0
 62
7
  6
CONTINUOUS
 10
159.4596793074
 20
31.5939739474
 11
159.8065543074
 21
31.6262381969
 12
160.1534293074
 22
31.6262381969
 13
160.1534293074
 23
31.6262381969
  0
SOLID
  8
0
 62
7
  6
CONTINUOUS
 10
160.1534293074
 20
31.6262381969
 11
160.5003043074
 21
31.5939739474
 12
159.4596793074
 22
31.5939739474
 13
159.4596793074
 23
31.5939739474
  0
SOLID
  8
0
 62
7
  6
CONTINUOUS
 10
159.228429528
 20
31.5294468402
 11
159.4596793074
 21
31.5939739474
 12
160.5003043074
 22
31.5939739474
 13
160.5003043074
 23
31.5939739474
  0
SOLID
  8
0
 62
7
  6
CONTINUOUS
 10
159.228429528
 20
31.5294468402
 11
160.5003043074
 21
31.5939739304
 12
160.6737418074
 22
31.5617111435
 13
160.6737418074
 23
31.5617111435
  0
SOLID
  8
0
 62
7
  6
CONTINUOUS
 10
159.228429528
 20
31.5294468402
 11
160.6737418074
 21
31.5617111435
 12
159.8065543074
 22
31.4971825592
 13
159.8065543074
 23
31.4971825592
  0
SOLID
  8
0
 62
7
  6
CONTINUOUS
 10
159.8065543074
 20
31.4971825592
 11
160.6737418074
 21
31.5617111435
 12
160.1534293074
 22
31.4971825592
 13
160.1534293074
 23
31.4971825592
  0
SOLID
  8
0
 62
7
  6
CONTINUOUS
 10
160.6737418074
 20
31.5617111435
 11
160.8471793074
 21
31.4971825592
 12
160.1534293074
 22
31.4971825592
 13
160.1534293074
 23
31.4971825592
  0
SOLID
  8
0
 62
7
  6
CONTINUOUS
 10
160.5003043074
 20
31.4649197501
 11
160.1534293074
 21
31.4971825592
 12
160.8471793074
 22
31.4971825592
 13
160.8471793074
 23
31.4971825592
  0
SOLID
  8
0
 62
7
  6
CONTINUOUS
 10
159.1128043074
 20
31.4326555427
 11
159.228429528
 21
31.5294468402
 12
159.8065543074
 22
31.4971825592
 13
159.8065543074
 23
31.4971825592
  0
SOLID
  8
0
 62
7
  6
CONTINUOUS
 10
160.5003043074
 20
31.4649197501
 11
160.8471793074
 21
31.4971825592
 12
160.615929528
 22
31.4326555427
 13
160.615929528
 23
31.4326555427
  0
SOLID
  8
0
 62
7
  6
CONTINUOUS
 10
160.615929528
 20
31.4326555427
 11
160.8471793074
 21
31.4971825592
 12
160.6737418074
 22
31.3681283005
 13
160.6737418074
 23
31.3681283005
  0
SOLID
  8
0
 62
7
  6
CONTINUOUS
 10
160.8471793074
 20
31.4971825592
 11
160.9628038663
 21
31.3681283005
 12
160.6737418074
 22
31.3681283005
 13
160.6737418074
 23
31.3681283005
  0
SOLID
  8
0
 62
7
  6
CONTINUOUS
 10
150.2674918074
 20
31.4649197501
 11
149.7471793074
 21
31.4326554237
 12
150.498741835
 22
31.4971824493
 13
150.498741835
 23
31.4971824493
  0
SOLID
  8
0
 62
7
  6
CONTINUOUS
 10
149.7471793074
 20
31.4326554237
 11
149.8628043005
 21
31.4971824493
 12
150.498741835
 22
31.4971824493
 13
150.498741835
 23
31.4971824493
  0
SOLID
  8
0
 62
7
  6
CONTINUOUS
 10
150.2674918074
 20
31.4649197501
 11
150.1518667936
 21
31.4326554237
 12
149.7471793074
 22
31.4326554237
 13
149.7471793074
 23
31.4326554237
  0
SOLID
  8
0
 62
7
  6
CONTINUOUS
 10
149.6315543091
 20
31.3036012664
 11
149.7471793074
 21
31.4326554237
 12
150.1518667936
 22
31.4326554237
 13
150.1518667936
 23
31.4326554237
  0
SOLID
  8
0
 62
7
  6
CONTINUOUS
 10
153.9674919177
 20
31.4326554237
 11
154.6612419177
 21
31.4971825369
 12
154.4299918074
 22
31.4649197501
 13
154.4299918074
 23
31.4649197501
  0
SOLID
  8
0
 62
7
  6
CONTINUOUS
 10
154.4299918074
 20
31.4649197501
 11
154.3143669177
 21
31.4326554237
 12
153.9674919177
 22
31.4326554237
 13
153.9674919177
 23
31.4326554237
  0
SOLID
  8
0
 62
7
  6
CONTINUOUS
 10
153.9674919177
 20
31.3681283335
 11
153.9674919177
 21
31.4326554237
 12
154.3143669177
 22
31.4326554237
 13
154.3143669177
 23
31.4326554237
  0
SOLID
  8
0
 62
7
  6
CONTINUOUS
 10
154.3143669177
 20
31.4326554237
 11
154.2565543074
 21
31.3681283335
 12
153.9674919177
 22
31.3681283335
 13
153.9674919177
 23
31.3681283335
  0
SOLID
  8
0
 62
7
  6
CONTINUOUS
 10
159.1128043074
 20
31.4326555528
 11
159.8065543074
 21
31.4971825369
 12
159.575304528
 22
31.4649197501
 13
159.575304528
 23
31.4649197501
  0
SOLID
  8
0
 62
7
  6
CONTINUOUS
 10
159.575304528
 20
31.4649197501
 11
159.4596793074
 21
31.4326555528
 12
159.1128043074
 22
31.4326555528
 13
159.1128043074
 23
31.4326555528
  0
SOLID
  8
0
 62
7
  6
CONTINUOUS
 10
159.1128043074
 20
31.3681284626
 11
159.1128043074
 21
31.4326555528
 12
159.4596793074
 22
31.4326555528
 13
159.4596793074
 23
31.4326555528
  0
SOLID
  8
0
 62
7
  6
CONTINUOUS
 10
159.4596793074
 20
31.4326555528
 11
159.401867028
 21
31.3681284626
 12
159.1128043074
 22
31.3681284626
 13
159.1128043074
 23
31.3681284626
  0
SOLID
  8
0
 62
7
  6
CONTINUOUS
 10
159.228429528
 20
31.2390741763
 11
159.1128043074
 21
31.3681284626
 12
159.401867028
 22
31.3681284626
 13
159.401867028
 23
31.3681284626
  0
SOLID
  8
0
 62
7
  6
CONTINUOUS
 10
149.6315543091
 20
31.3036012664
 11
150.1518667936
 21
31.4326554468
 12
149.9784292936
 22
31.3358640533
 13
149.9784292936
 23
31.3358640533
  0
SOLID
  8
0
 62
7
  6
CONTINUOUS
 10
149.9784292936
 20
31.3358640533
 11
149.9206168074
 21
31.2713369632
 12
149.6315543091
 22
31.3036012664
 13
149.6315543091
 23
31.3036012664
  0
SOLID
  8
0
 62
7
  6
CONTINUOUS
 10
149.5737418074
 20
31.1100184796
 11
149.6315543091
 21
31.3036012664
 12
149.9206168074
 22
31.2713369632
 13
149.9206168074
 23
31.2713369632
  0
SOLID
  8
0
 62
7
  6
CONTINUOUS
 10
154.4299918074
 20
31.2390741763
 11
154.7768668074
 21
31.271336924
 12
155.412804528
 22
31.271336924
 13
155.412804528
 23
31.271336924
  0
SOLID
  8
0
 62
7
  6
CONTINUOUS
 10
154.4299918074
 20
31.2390741763
 11
155.412804528
 21
31.271336924
 12
154.1987416972
 22
31.1745462761
 13
154.1987416972
 23
31.1745462761
  0
SOLID
  8
0
 62
7
  6
CONTINUOUS
 10
154.1987416972
 20
31.1745462761
 11
155.412804528
 21
31.271336924
 12
154.7768668074
 22
31.1422827436
 13
154.7768668074
 23
31.1422827436
  0
SOLID
  8
0
 62
7
  6
CONTINUOUS
 10
155.412804528
 20
31.271336924
 11
155.412804528
 21
31.1422827436
 12
154.7768668074
 22
31.1422827436
 13
154.7768668074
 23
31.1422827436
  0
SOLID
  8
0
 62
7
  6
CONTINUOUS
 10
159.228429528
 20
31.2390745501
 11
159.401867028
 21
31.3681283566
 12
159.4596793074
 22
31.3036012664
 13
159.4596793074
 23
31.3036012664
  0
SOLID
  8
0
 62
7
  6
CONTINUOUS
 10
159.4596793074
 20
31.3036012664
 11
159.6331168074
 21
31.2390745501
 12
159.228429528
 22
31.2390745501
 13
159.228429528
 23
31.2390745501
  0
SOLID
  8
0
 62
7
  6
CONTINUOUS
 10
159.4596793074
 20
31.1422827828
 11
159.228429528
 21
31.2390745501
 12
159.6331168074
 22
31.2390745501
 13
159.6331168074
 23
31.2390745501
  0
SOLID
  8
0
 62
7
  6
CONTINUOUS
 10
159.6331168074
 20
31.2390745501
 11
160.615929528
 21
31.0777556927
 12
159.4596793074
 22
31.1422827828
 13
159.4596793074
 23
31.1422827828
  0
SOLID
  8
0
 62
7
  6
CONTINUOUS
 10
160.442492028
 20
30.9809646623
 11
159.4596793074
 21
31.1422827828
 12
160.615929528
 22
31.0777556927
 13
160.615929528
 23
31.0777556927
  0
SOLID
  8
0
 62
7
  6
CONTINUOUS
 10
160.615929528
 20
31.0777556927
 11
160.8471793074
 21
30.9809646623
 12
160.442492028
 22
30.9809646623
 13
160.442492028
 23
30.9809646623
  0
SOLID
  8
0
 62
7
  6
CONTINUOUS
 10
160.615929528
 20
30.9164372091
 11
160.442492028
 21
30.9809646623
 12
160.8471793074
 22
30.9809646623
 13
160.8471793074
 23
30.9809646623
  0
SOLID
  8
0
 62
7
  6
CONTINUOUS
 10
160.615929528
 20
30.9164372091
 11
160.8471793074
 21
30.9809646623
 12
160.6737418074
 22
30.8519089441
 13
160.6737418074
 23
30.8519089441
  0
SOLID
  8
0
 62
7
  6
CONTINUOUS
 10
160.8471793074
 20
30.9809646623
 11
160.9628038663
 21
30.8519089441
 12
160.6737418074
 22
30.8519089441
 13
160.6737418074
 23
30.8519089441
  0
SOLID
  8
0
 62
7
  6
CONTINUOUS
 10
160.615929528
 20
30.7873818593
 11
160.6737418074
 21
30.8519089441
 12
160.9628038663
 22
30.8519089441
 13
160.9628038663
 23
30.8519089441
  0
SOLID
  8
0
 62
7
  6
CONTINUOUS
 10
160.9628038663
 20
30.8519089441
 11
160.9628038663
 21
30.7873818593
 12
160.615929528
 22
30.7873818593
 13
160.615929528
 23
30.7873818593
  0
SOLID
  8
0
 62
7
  6
CONTINUOUS
 10
160.5003043074
 20
30.7551187255
 11
160.615929528
 21
30.7873818593
 12
160.9628038663
 22
30.7873818593
 13
160.9628038663
 23
30.7873818593
  0
SOLID
  8
0
 62
7
  6
CONTINUOUS
 10
160.5003043074
 20
30.7551187255
 11
160.9628038663
 21
30.7873818593
 12
160.269054528
 22
30.7228547745
 13
160.269054528
 23
30.7228547745
  0
SOLID
  8
0
 62
7
  6
CONTINUOUS
 10
160.9628038663
 20
30.7873818593
 11
160.8471793074
 21
30.6905916353
 12
160.269054528
 22
30.7228547745
 13
160.269054528
 23
30.7228547745
  0
SOLID
  8
0
 62
7
  6
CONTINUOUS
 10
160.8471793074
 20
30.6905916353
 11
159.401867028
 21
30.658327332
 12
160.269054528
 22
30.7228547745
 13
160.269054528
 23
30.7228547745
  0
SOLID
  8
0
 62
7
  6
CONTINUOUS
 10
160.269054528
 20
30.7228547745
 11
159.401867028
 21
30.658327332
 12
159.922179528
 22
30.7228547745
 13
159.922179528
 23
30.7228547745
  0
SOLID
  8
0
 62
7
  6
CONTINUOUS
 10
159.401867028
 20
30.658327332
 11
159.228429528
 21
30.7228547745
 12
159.922179528
 22
30.7228547745
 13
159.922179528
 23
30.7228547745
  0
SOLID
  8
0
 62
7
  6
CONTINUOUS
 10
159.401867028
 20
30.658327332
 11
160.8471793074
 21
30.6905916353
 12
159.575304528
 22
30.6260629858
 13
159.575304528
 23
30.6260629858
  0
SOLID
  8
0
 62
7
  6
CONTINUOUS
 10
160.8471793074
 20
30.6905916353
 11
160.615929528
 21
30.6260629858
 12
159.575304528
 22
30.6260629858
 13
159.575304528
 23
30.6260629858
  0
SOLID
  8
0
 62
7
  6
CONTINUOUS
 10
159.922179528
 20
30.5938006049
 11
159.575304528
 21
30.6260629858
 12
160.615929528
 22
30.6260629858
 13
160.615929528
 23
30.6260629858
  0
SOLID
  8
0
 62
7
  6
CONTINUOUS
 10
160.615929528
 20
30.6260629858
 11
160.269054528
 21
30.5938006049
 12
159.922179528
 22
30.5938006049
 13
159.922179528
 23
30.5938006049
  0
SOLID
  8
0
 62
7
  6
CONTINUOUS
 10
149.5737418074
 20
31.1100184796
 11
149.9206168074
 21
31.2713369632
 12
149.8628043005
 22
31.1422827828
 13
149.8628043005
 23
31.1422827828
  0
SOLID
  8
0
 62
7
  6
CONTINUOUS
 10
149.8628043005
 20
31.1422827828
 11
149.8628043005
 21
31.0454914852
 12
149.5737418074
 22
31.1100184796
 13
149.5737418074
 23
31.1100184796
  0
SOLID
  8
0
 62
7
  6
CONTINUOUS
 10
149.6315543091
 20
30.9164372091
 11
149.5737418074
 21
31.1100184796
 12
149.8628043005
 22
31.0454914852
 13
149.8628043005
 23
31.0454914852
  0
SOLID
  8
0
 62
7
  6
CONTINUOUS
 10
149.8628043005
 20
31.0454914852
 11
149.9784292936
 21
30.8841729058
 12
149.6315543091
 22
30.9164372091
 13
149.6315543091
 23
30.9164372091
  0
SOLID
  8
0
 62
7
  6
CONTINUOUS
 10
149.7471793074
 20
30.7873813202
 11
149.6315543091
 21
30.9164372091
 12
149.9784292936
 22
30.8841729058
 13
149.9784292936
 23
30.8841729058
  0
SOLID
  8
0
 62
7
  6
CONTINUOUS
 10
149.9784292936
 20
30.8841729058
 11
150.1518667936
 21
30.7873813202
 12
149.7471793074
 22
30.7873813202
 13
149.7471793074
 23
30.7873813202
  0
SOLID
  8
0
 62
7
  6
CONTINUOUS
 10
149.8628043005
 20
30.7228547004
 11
149.7471793074
 21
30.7873813202
 12
150.1518667936
 22
30.7873813202
 13
150.1518667936
 23
30.7873813202
  0
SOLID
  8
0
 62
7
  6
CONTINUOUS
 10
150.1518667936
 20
30.7873813202
 11
150.498741835
 21
30.7228547004
 12
149.8628043005
 22
30.7228547004
 13
149.8628043005
 23
30.7228547004
  0
SOLID
  8
0
 62
7
  6
CONTINUOUS
 10
150.0362418212
 20
30.658327332
 11
149.8628043005
 21
30.7228547004
 12
150.498741835
 22
30.7228547004
 13
150.498741835
 23
30.7228547004
  0
SOLID
  8
0
 62
7
  6
CONTINUOUS
 10
154.0831168074
 20
31.1100184386
 11
154.1987416972
 21
31.1745462761
 12
154.7768668074
 22
31.1422827828
 13
154.7768668074
 23
31.1422827828
  0
SOLID
  8
0
 62
7
  6
CONTINUOUS
 10
154.7768668074
 20
31.1422827828
 11
154.5456166972
 21
31.1100184386
 12
154.0831168074
 22
31.1100184386
 13
154.0831168074
 23
31.1100184386
  0
SOLID
  8
0
 62
7
  6
CONTINUOUS
 10
153.9674919177
 20
30.9809642992
 11
154.0831168074
 21
31.1100184386
 12
154.5456166972
 22
31.1100184386
 13
154.5456166972
 23
31.1100184386
  0
SOLID
  8
0
 62
7
  6
CONTINUOUS
 10
154.3143669177
 20
31.0132277988
 11
153.9674919177
 21
30.9809642992
 12
154.4299918074
 22
31.0777556927
 13
154.4299918074
 23
31.0777556927
  0
SOLID
  8
0
 62
7
  6
CONTINUOUS
 10
153.9674919177
 20
30.9809642992
 11
154.5456166972
 21
31.1100184796
 12
154.4299918074
 22
31.0777556927
 13
154.4299918074
 23
31.0777556927
  0
SOLID
  8
0
 62
7
  6
CONTINUOUS
 10
154.3143669177
 20
31.0132277988
 11
154.2565543074
 21
30.9164372091
 12
153.9674919177
 22
30.9809642992
 13
153.9674919177
 23
30.9809642992
  0
SOLID
  8
0
 62
7
  6
CONTINUOUS
 10
153.9674919177
 20
30.8841729058
 11
153.9674919177
 21
30.9809642992
 12
154.2565543074
 22
30.9164372091
 13
154.2565543074
 23
30.9164372091
  0
SOLID
  8
0
 62
7
  6
CONTINUOUS
 10
154.2565543074
 20
30.9164372091
 11
154.2565543074
 21
30.8519086025
 12
153.9674919177
 22
30.8841729058
 13
153.9674919177
 23
30.8841729058
  0
SOLID
  8
0
 62
7
  6
CONTINUOUS
 10
154.0253041972
 20
30.7551187255
 11
153.9674919177
 21
30.8841729058
 12
154.2565543074
 22
30.8519086025
 13
154.2565543074
 23
30.8519086025
  0
SOLID
  8
0
 62
7
  6
CONTINUOUS
 10
155.412804528
 20
30.9487004259
 11
155.7018665869
 21
30.8519086025
 12
155.3549915869
 22
30.8841729058
 13
155.3549915869
 23
30.8841729058
  0
SOLID
  8
0
 62
7
  6
CONTINUOUS
 10
155.1815540869
 20
30.7873815123
 11
155.3549915869
 21
30.8841729058
 12
155.7018665869
 22
30.8519086025
 13
155.7018665869
 23
30.8519086025
  0
SOLID
  8
0
 62
7
  6
CONTINUOUS
 10
155.1815540869
 20
30.7873815123
 11
155.7018665869
 21
30.8519086025
 12
155.412804528
 22
30.7551187255
 13
155.412804528
 23
30.7551187255
  0
SOLID
  8
0
 62
7
  6
CONTINUOUS
 10
155.7018665869
 20
30.8519086025
 11
155.759679528
 21
30.6905916353
 12
155.412804528
 22
30.7551187255
 13
155.412804528
 23
30.7551187255
  0
SOLID
  8
0
 62
7
  6
CONTINUOUS
 10
155.4706168074
 20
30.658327332
 11
155.412804528
 21
30.7551187255
 12
155.759679528
 22
30.6905916353
 13
155.759679528
 23
30.6905916353
  0
SOLID
  8
0
 62
7
  6
CONTINUOUS
 10
155.4706168074
 20
30.658327332
 11
155.759679528
 21
30.6905916353
 12
155.5284290869
 22
30.5938002079
 13
155.5284290869
 23
30.5938002079
  0
SOLID
  8
0
 62
7
  6
CONTINUOUS
 10
155.759679528
 20
30.6905916353
 11
155.8174918074
 21
30.5938002079
 12
155.5284290869
 22
30.5938002079
 13
155.5284290869
 23
30.5938002079
  0
SOLID
  8
0
 62
7
  6
CONTINUOUS
 10
151.0768668626
 20
30.8196456577
 11
151.1346793074
 21
30.9164373395
 12
151.4237418626
 22
30.9164373395
 13
151.4237418626
 23
30.9164373395
  0
SOLID
  8
0
 62
7
  6
CONTINUOUS
 10
151.4237418626
 20
30.9164373395
 11
151.3659292523
 21
30.7873815123
 12
151.0768668626
 22
30.8196456577
 13
151.0768668626
 23
30.8196456577
  0
SOLID
  8
0
 62
7
  6
CONTINUOUS
 10
150.9034292799
 20
30.7551187255
 11
151.0768668626
 21
30.8196456577
 12
151.3659292523
 22
30.7873815123
 13
151.3659292523
 23
30.7873815123
  0
SOLID
  8
0
 62
7
  6
CONTINUOUS
 10
150.9034292799
 20
30.7551187255
 11
151.3659292523
 21
30.7873815123
 12
150.498741835
 22
30.7228544222
 13
150.498741835
 23
30.7228544222
  0
SOLID
  8
0
 62
7
  6
CONTINUOUS
 10
151.3659292523
 20
30.7873815123
 11
151.1924917523
 21
30.6905916353
 12
150.498741835
 22
30.7228544222
 13
150.498741835
 23
30.7228544222
  0
SOLID
  8
0
 62
7
  6
CONTINUOUS
 10
150.0362418212
 20
30.658327332
 11
150.498741835
 21
30.7228544222
 12
151.1924917523
 22
30.6905916353
 13
151.1924917523
 23
30.6905916353
  0
SOLID
  8
0
 62
7
  6
CONTINUOUS
 10
150.0362418212
 20
30.658327332
 11
151.1924917523
 21
30.6905916353
 12
150.2096793212
 22
30.6260631011
 13
150.2096793212
 23
30.6260631011
  0
SOLID
  8
0
 62
7
  6
CONTINUOUS
 10
151.1924917523
 20
30.6905916353
 11
150.9612418074
 21
30.6260631011
 12
150.2096793212
 22
30.6260631011
 13
150.2096793212
 23
30.6260631011
  0
SOLID
  8
0
 62
7
  6
CONTINUOUS
 10
150.5565542799
 20
30.5938002419
 11
150.2096793212
 21
30.6260631011
 12
150.9612418074
 22
30.6260631011
 13
150.9612418074
 23
30.6260631011
  0
SOLID
  8
0
 62
7
  6
CONTINUOUS
 10
154.0253041972
 20
30.7551187255
 11
154.2565543074
 21
30.8519086025
 12
154.3143669177
 22
30.7873815123
 13
154.3143669177
 23
30.7873815123
  0
SOLID
  8
0
 62
7
  6
CONTINUOUS
 10
154.3143669177
 20
30.7873815123
 11
154.5456166972
 21
30.7228544222
 12
154.0253041972
 22
30.7551187255
 13
154.0253041972
 23
30.7551187255
  0
SOLID
  8
0
 62
7
  6
CONTINUOUS
 10
154.1987416972
 20
30.658327332
 11
154.0253041972
 21
30.7551187255
 12
154.5456166972
 22
30.7228544222
 13
154.5456166972
 23
30.7228544222
  0
SOLID
  8
0
 62
7
  6
CONTINUOUS
 10
154.8924916972
 20
30.7228544637
 11
155.1815540869
 21
30.7873815123
 12
155.412804528
 22
30.7551187255
 13
155.412804528
 23
30.7551187255
  0
SOLID
  8
0
 62
7
  6
CONTINUOUS
 10
155.412804528
 20
30.7551187255
 11
155.3549915869
 21
30.6905916353
 12
154.8924916972
 22
30.7228544637
 13
154.8924916972
 23
30.7228544637
  0
SOLID
  8
0
 62
7
  6
CONTINUOUS
 10
155.3549915869
 20
30.6905916353
 11
154.1987416972
 21
30.658327332
 12
154.8924916972
 22
30.7228544637
 13
154.8924916972
 23
30.7228544637
  0
SOLID
  8
0
 62
7
  6
CONTINUOUS
 10
154.1987416972
 20
30.658327332
 11
154.5456166972
 21
30.7228544637
 12
154.8924916972
 22
30.7228544637
 13
154.8924916972
 23
30.7228544637
  0
SOLID
  8
0
 62
7
  6
CONTINUOUS
 10
154.1987416972
 20
30.658327332
 11
155.3549915869
 21
30.6905916353
 12
154.3143669177
 22
30.6260630541
 13
154.3143669177
 23
30.6260630541
  0
SOLID
  8
0
 62
7
  6
CONTINUOUS
 10
155.3549915869
 20
30.6905916353
 11
155.1815540869
 21
30.6260630541
 12
154.3143669177
 22
30.6260630541
 13
154.3143669177
 23
30.6260630541
  0
SOLID
  8
0
 62
7
  6
CONTINUOUS
 10
154.5456166972
 20
30.5938002188
 11
154.3143669177
 21
30.6260630541
 12
155.1815540869
 22
30.6260630541
 13
155.1815540869
 23
30.6260630541
  0
SOLID
  8
0
 62
7
  6
CONTINUOUS
 10
155.1815540869
 20
30.6260630541
 11
154.8924916972
 21
30.5938002188
 12
154.5456166972
 22
30.5938002188
 13
154.5456166972
 23
30.5938002188
  0
SOLID
  8
0
 62
7
  6
CONTINUOUS
 10
159.575304528
 20
30.7551187255
 11
159.228429528
 21
30.7228544637
 12
159.4596793074
 22
30.7873815123
 13
159.4596793074
 23
30.7873815123
  0
SOLID
  8
0
 62
7
  6
CONTINUOUS
 10
159.4596793074
 20
30.7873815123
 11
159.228429528
 21
30.7228544637
 12
159.401867028
 22
30.851908644
 13
159.401867028
 23
30.851908644
  0
SOLID
  8
0
 62
7
  6
CONTINUOUS
 10
159.228429528
 20
30.7228544637
 11
159.1128043074
 21
30.851908644
 12
159.401867028
 22
30.851908644
 13
159.401867028
 23
30.851908644
  0
SOLID
  8
0
 62
7
  6
CONTINUOUS
 10
159.575304528
 20
30.7551187255
 11
159.922179528
 21
30.7228544637
 12
159.228429528
 22
30.7228544637
 13
159.228429528
 23
30.7228544637
  0
SOLID
  8
0
 62
7
  6
CONTINUOUS
 10
156.279992028
 20
30.5938002419
 11
156.279992028
 21
31.6262382337
 12
156.5690540869
 22
30.5938002419
 13
156.5690540869
 23
31.6262382337
  0
ENDBLK
  8
0
  6
BYBLOCK
 62
0
  0
BLOCK
  8
0
 62
2
  6
CONTINUOUS
  2
SYMBOL_3_BL0
 70
64
 10
32.1213064866
 20
19.8534310916
  0
TEXT
  8
0
 62
7
  6
CONTINUOUS
 10
18.3860103289
 20
19.2268451992
  7
TEXTSTYLE_3
 40
2.7338706658
  1
Ammeraal Beltech
 41
1.0
 51
15.0
 72
0
  0
TEXT
  8
0
 62
7
  6
CONTINUOUS
 10
29.1868111546
 20
16.9533085264
  7
TEXTSTYLE_4
 40
1.0935482663
  1
Innovation & Service in Belting
 41
1.0
 72
0
  0
LINE
  8
0
 62
7
  6
CONTINUOUS
 10
12.3614696776
 20
19.9934385078
 11
13.1396216709
 21
23.6543558055
  0
LINE
  8
0
 62
7
  6
CONTINUOUS
 10
23.2347899607
 20
27.3177497171
 11
13.6274394139
 21
24.1961322958
  0
LINE
  8
0
 62
7
  6
CONTINUOUS
 10
12.5867530099
 20
19.3000877048
 11
20.093828271
 21
12.5406867788
  0
LINE
  8
0
 62
7
  6
CONTINUOUS
 10
12.8492874206
 20
20.5352149982
 11
23.6575567857
 21
24.0470345971
  0
LINE
  8
0
 62
7
  6
CONTINUOUS
 10
23.6533516486
 20
13.6972460334
 11
15.2078919798
 21
21.3015720751
  0
LINE
  8
0
 62
7
  6
CONTINUOUS
 10
24.1731743684
 20
26.4728246013
 11
23.1966148312
 21
21.8784731989
  0
LINE
  8
0
 62
7
  6
CONTINUOUS
 10
22.4968128835
 20
18.5861638851
 11
21.810364672
 21
15.3566789607
  0
LINE
  8
0
 62
7
  6
CONTINUOUS
 10
24.8542704669
 20
14.087448211
 11
25.8105020025
 21
18.5861638851
  0
LINE
  8
0
 62
7
  6
CONTINUOUS
 10
26.5103039502
 20
21.8784731989
 11
26.9545457526
 21
23.9684665583
  0
LINE
  8
0
 62
7
  6
CONTINUOUS
 10
20.8069293463
 20
12.3891124661
 11
24.3664527239
 21
13.5456717207
  0
LINE
  8
0
 62
7
  6
CONTINUOUS
 10
23.9478910361
 20
27.1661754044
 11
26.7292624203
 21
24.6618173613
  0
ARC
  8
0
 62
7
  6
CONTINUOUS
 10
13.8527227462
 20
23.5027814928
 40
0.7290321776
 50
108.0
 51
168.0
  0
ARC
  8
0
 62
7
  6
CONTINUOUS
 10
23.4600732931
 20
26.624398914
 40
0.7290321776
 50
348.0
 51
108.0
  0
ARC
  8
0
 62
7
  6
CONTINUOUS
 10
26.2414446773
 20
24.120040871
 40
0.7290321776
 50
348.0
 51
48.0
  0
ARC
  8
0
 62
7
  6
CONTINUOUS
 10
20.581646014
 20
13.0824632691
 40
0.7290321776
 50
228.0
 51
288.0
  0
ARC
  8
0
 62
7
  6
CONTINUOUS
 10
13.0745707529
 20
19.8418641951
 40
0.7290321776
 50
108.0
 51
228.0
  0
ARC
  8
0
 62
7
  6
CONTINUOUS
 10
24.1411693916
 20
14.2390225237
 40
0.7290321776
 50
228.0
 51
348.0
  0
ENDBLK
  8
0
  6
BYBLOCK
 62
0
  0
ENDSEC
  0
SECTION
  2
ENTITIES
  0
TEXT
  8
0
 62
5
  6
CONTINUOUS
 10
96.0
 20
25.636
  7
TEXTSTYLE_2
 40
2.8
  1
Scale :
 41
0.6
 51
0.000019
 72
0
  0
TEXT
  8
0
 62
5
  6
CONTINUOUS
 10
116.0
 20
25.636
  7
TEXTSTYLE_2
 40
2.8
  1
Belt type:
 41
0.6
 51
0.000019
 72
0
  0
INSERT
  8
0
 62
2
  6
CONTINUOUS
  2
SYMBOL_3_BL0
 10
32.1213064866
 20
19.8534310916
  0
INSERT
  8
0
 62
2
  6
CONTINUOUS
  2
SYMBOL_8_BL1
 10
173.5956734183
 20
35.5937998301
  0
LINE
  8
0
 62
2
  6
CONTINUOUS
 10
10.0
 20
30.0
 11
200.0
 21
30.0
  0
LINE
  8
0
 62
2
  6
CONTINUOUS
 10
10.0
 20
30.0
 11
10.0
 21
10.0
  0
LINE
  8
0
 62
2
  6
CONTINUOUS
 10
10.0
 20
10.0
 11
200.0
 21
10.0
  0
LINE
  8
0
 62
2
  6
CONTINUOUS
 10
95.0
 20
30.0
 11
95.0
 21
10.0
  0
LINE
  8
0
 62
2
  6
CONTINUOUS
 10
115.0
 20
30.0
 11
115.0
 21
10.0
  0
LINE
  8
0
 62
2
  6
CONTINUOUS
 10
200.0
 20
30.0
 11
200.0
 21
10.0
  0
TEXT
  8
0
 62
5
  6
CONTINUOUS
 10
13.0
 20
23.303
  7
TEXTSTYLE_5
 40
1.52
  1
                                                                     Ammeraal Beltech Modular A/S
 41
1.0
 72
0
  0
TEXT
  8
0
 62
5
  6
CONTINUOUS
 10
13.0
 20
20.595
  7
TEXTSTYLE_5
 40
1.5
  1
                                                                      Hjulmagervej 21,  7100 Vejle,  DK
 41
1.0
 72
0
  0
TEXT
  8
0
 62
5
  6
CONTINUOUS
 10
13.0
 20
17.881
  7
TEXTSTYLE_5
 40
1.495
  1
                                                                      tel: 
 41
1.0
 72
0
  0
TEXT
  8
0
 62
5
  6
CONTINUOUS
 10
57.9869465649
 20
17.881
  7
TEXTSTYLE_5
 40
1.51
  1
+45 75723100     fax: +45 75723348
 41
1.0
 72
0
  0
TEXT
  8
0
 62
5
  6
CONTINUOUS
 10
13.0
 20
15.177
  7
TEXTSTYLE_5
 40
1.5
  1
                                                                      admin@unichains.dk  www.unichains.com
 41
1.0
 72
0
  0
TEXT
  8
0
 62
5
  6
CONTINUOUS
 10
99.75
 20
13.75
  7
TEXTSTYLE_6
 40
5.0
  1
1:1
 41
0.7
 72
1
 11
105.0
 21
13.75
  0
TEXT
  8
0
 62
5
  6
CONTINUOUS
 10
118.0
 20
13.75
  7
TEXTSTYLE_7
 40
7.5
  1
Sprocket Z12 1,5" SQ
 41
0.47375
 72
0
  0
LINE
  8
0
 62
7
  6
CONTINUOUS
 10
210.0
 20
0.0
 11
0.0
 21
0.0
  0
LINE
  8
0
 62
7
  6
CONTINUOUS
 10
10.0
 20
10.0
 11
200.0
 21
10.0
  0
LINE
  8
0
 62
7
  6
CONTINUOUS
 10
10.0
 20
30.0
 11
200.0
 21
30.0
  0
LINE
  8
0
 62
7
  6
CONTINUOUS
 10
0.0
 20
0.0
 11
0.0
 21
297.0
  0
LINE
  8
0
 62
7
  6
CONTINUOUS
 10
10.0
 20
10.0
 11
10.0
 21
287.0
  0
LINE
  8
0
 62
7
  6
CONTINUOUS
 10
200.0
 20
287.0
 11
200.0
 21
10.0
  0
LINE
  8
0
 62
7
  6
CONTINUOUS
 10
210.0
 20
0.0
 11
210.0
 21
297.0
  0
LINE
  8
0
 62
7
  6
CONTINUOUS
 10
10.0
 20
287.0
 11
200.0
 21
287.0
  0
LINE
  8
0
 62
7
  6
CONTINUOUS
 10
0.0
 20
297.0
 11
210.0
 21
297.0
  0
LINE
  8
0
 62
9
  6
CONTINUOUS
 10
51.8692130371
 20
210.7610886741
 11
51.8376435908
 21
211.2600910489
  0
LINE
  8
0
 62
7
  6
CONTINUOUS
 10
49.5892108856
 20
208.8776456073
 11
49.5892108856
 21
208.3521136925
  0
LINE
  8
0
 62
9
  6
CONTINUOUS
 10
51.8692130371
 20
206.4686706257
 11
51.8376435907
 21
205.9696682509
  0
LINE
  8
0
 62
9
  6
CONTINUOUS
 10
59.2551066064
 20
234.0332006857
 11
59.4772678513
 21
234.481134142
  0
LINE
  8
0
 62
7
  6
CONTINUOUS
 10
56.3388452891
 20
233.542092219
 11
56.0760793317
 21
233.0869682302
  0
LINE
  8
0
 62
9
  6
CONTINUOUS
 10
57.1088975822
 20
230.315857612
 11
56.8320564523
 21
229.8994936021
  0
LINE
  8
0
 62
9
  6
CONTINUOUS
 10
77.2875340729
 20
250.4944941027
 11
77.7038980828
 21
250.7713352326
  0
LINE
  8
0
 62
7
  6
CONTINUOUS
 10
74.5164234547
 20
251.5273123532
 11
74.0612994659
 21
251.2645463958
  0
LINE
  8
0
 62
9
  6
CONTINUOUS
 10
73.5701909992
 20
248.3482850785
 11
73.1222575429
 21
248.1261238336
  0
LINE
  8
0
 62
9
  6
CONTINUOUS
 10
96.8423030108
 20
161.495580652
 11
96.343300636
 21
161.4640112056
  0
LINE
  8
0
 62
7
  6
CONTINUOUS
 10
98.7257460776
 20
159.2155785005
 11
99.2512779924
 21
159.2155785005
  0
LINE
  8
0
 62
9
  6
CONTINUOUS
 10
101.1347210592
 20
161.495580652
 11
101.633723434
 21
161.4640112056
  0
LINE
  8
0
 62
9
  6
CONTINUOUS
 10
73.5701909992
 20
168.8814742213
 11
73.1222575429
 21
169.1036354662
  0
LINE
  8
0
 62
7
  6
CONTINUOUS
 10
74.0612994659
 20
165.965212904
 11
74.5164234547
 21
165.7024469466
  0
LINE
  8
0
 62
9
  6
CONTINUOUS
 10
77.2875340729
 20
166.7352651971
 11
77.7038980828
 21
166.4584240671
  0
LINE
  8
0
 62
9
  6
CONTINUOUS
 10
57.1088975822
 20
186.9139016878
 11
56.8320564523
 21
187.3302656977
  0
LINE
  8
0
 62
7
  6
CONTINUOUS
 10
56.0760793317
 20
184.1427910696
 11
56.3388452891
 21
183.6876670808
  0
LINE
  8
0
 62
9
  6
CONTINUOUS
 10
59.2551066064
 20
183.1965586141
 11
59.4772678513
 21
182.7486251578
  0
LINE
  8
0
 62
9
  6
CONTINUOUS
 10
56.5312885918
 20
211.0560354552
 11
56.4997191454
 21
211.55503783
  0
LINE
  8
0
 62
9
  6
CONTINUOUS
 10
56.5312885918
 20
206.1737238445
 11
56.4997191454
 21
205.6747214698
  0
LINE
  8
0
 62
9
  6
CONTINUOUS
 10
63.4400558617
 20
231.9575943135
 11
63.6622171066
 21
232.4055277698
  0
LINE
  8
0
 62
9
  6
CONTINUOUS
 10
60.9989000564
 20
227.7293884295
 11
60.7220589264
 21
227.3130244195
  0
LINE
  8
0
 62
9
  6
CONTINUOUS
 10
79.8740032554
 20
246.6044916285
 11
80.2903672654
 21
246.8813327585
  0
LINE
  8
0
 62
9
  6
CONTINUOUS
 10
75.6457973714
 20
244.1633358232
 11
75.1978639151
 21
243.9411745783
  0
LINE
  8
0
 62
9
  6
CONTINUOUS
 10
96.5473562297
 20
166.1576562067
 11
96.0483538549
 21
166.1260867603
  0
LINE
  8
0
 62
9
  6
CONTINUOUS
 10
101.4296678404
 20
166.1576562067
 11
101.9286702152
 21
166.1260867603
  0
LINE
  8
0
 62
9
  6
CONTINUOUS
 10
75.6457973714
 20
173.0664234766
 11
75.1978639151
 21
173.2885847214
  0
LINE
  8
0
 62
9
  6
CONTINUOUS
 10
79.8740032554
 20
170.6252676712
 11
80.2903672654
 21
170.3484265413
  0
LINE
  8
0
 62
9
  6
CONTINUOUS
 10
60.9989000564
 20
189.5003708703
 11
60.7220589264
 21
189.9167348802
  0
LINE
  8
0
 62
9
  6
CONTINUOUS
 10
63.4400558617
 20
185.2721649863
 11
63.6622171066
 21
184.82423153
  0
POLYLINE
  8
0
 62
9
  6
CONTINUOUS
 66
1
 70
0
  0
VERTEX
  8
0
 62
9
  6
CONTINUOUS
 10
61.8140287502
 20
190.3935242529
  0
VERTEX
  8
0
 62
9
  6
CONTINUOUS
 10
61.8004637974
 20
190.5188384476
  0
VERTEX
  8
0
 62
9
  6
CONTINUOUS
 10
61.7870797781
 20
190.6605895212
  0
VERTEX
  8
0
 62
9
  6
CONTINUOUS
 10
61.7565422766
 20
191.0150677248
  0
SEQEND
  0
POLYLINE
  8
0
 62
9
  6
CONTINUOUS
 66
1
 70
0
  0
VERTEX
  8
0
 62
9
  6
CONTINUOUS
 10
61.7565422766
 20
191.0150677248
  0
VERTEX
  8
0
 62
9
  6
CONTINUOUS
 10
61.734212714
 20
191.2367206099
  0
VERTEX
  8
0
 62
9
  6
CONTINUOUS
 10
61.6997571543
 20
191.4926482245
  0
VERTEX
  8
0
 62
9
  6
CONTINUOUS
 10
61.6441614699
 20
191.7809955734
  0
VERTEX
  8
0
 62
9
  6
CONTINUOUS
 10
61.5606664327
 20
192.0837375255
  0
VERTEX
  8
0
 62
9
  6
CONTINUOUS
 10
61.4503036201
 20
192.3762556627
  0
SEQEND
  0
POLYLINE
  8
0
 62
9
  6
CONTINUOUS
 66
1
 70
0
  0
VERTEX
  8
0
 62
9
  6
CONTINUOUS
 10
61.7870765239
 20
226.5691332762
  0
VERTEX
  8
0
 62
9
  6
CONTINUOUS
 10
61.800460002
 20
226.7108831854
  0
VERTEX
  8
0
 62
9
  6
CONTINUOUS
 10
61.8140287502
 20
226.8362350469
  0
SEQEND
  0
POLYLINE
  8
0
 62
9
  6
CONTINUOUS
 66
1
 70
0
  0
VERTEX
  8
0
 62
9
  6
CONTINUOUS
 10
61.4503036201
 20
224.8535036371
  0
VERTEX
  8
0
 62
9
  6
CONTINUOUS
 10
61.5607032437
 20
225.1461351827
  0
VERTEX
  8
0
 62
9
  6
CONTINUOUS
 10
61.6441762809
 20
225.4488281786
  0
VERTEX
  8
0
 62
9
  6
CONTINUOUS
 10
61.6998283005
 20
225.7375589025
  0
VERTEX
  8
0
 62
9
  6
CONTINUOUS
 10
61.734249249
 20
225.9933606995
  0
VERTEX
  8
0
 62
9
  6
CONTINUOUS
 10
61.7565434081
 20
226.2147040307
  0
VERTEX
  8
0
 62
9
  6
CONTINUOUS
 10
61.7870765239
 20
226.5691332762
  0
SEQEND
  0
POLYLINE
  8
0
 62
9
  6
CONTINUOUS
 66
1
 70
0
  0
VERTEX
  8
0
 62
9
  6
CONTINUOUS
 10
57.6837874393
 20
211.4219646271
  0
VERTEX
  8
0
 62
9
  6
CONTINUOUS
 10
57.7346969429
 20
211.5372723796
  0
VERTEX
  8
0
 62
9
  6
CONTINUOUS
 10
57.7939815791
 20
211.66672442
  0
VERTEX
  8
0
 62
9
  6
CONTINUOUS
 10
57.9447744287
 20
211.9889803001
  0
SEQEND
  0
POLYLINE
  8
0
 62
9
  6
CONTINUOUS
 66
1
 70
0
  0
VERTEX
  8
0
 62
9
  6
CONTINUOUS
 10
57.9447744287
 20
211.9889803001
  0
VERTEX
  8
0
 62
9
  6
CONTINUOUS
 10
58.0362629028
 20
212.1921021107
  0
VERTEX
  8
0
 62
9
  6
CONTINUOUS
 10
58.1343873201
 20
212.4309697064
  0
VERTEX
  8
0
 62
9
  6
CONTINUOUS
 10
58.2304137196
 20
212.7084836779
  0
VERTEX
  8
0
 62
9
  6
CONTINUOUS
 10
58.3094758723
 20
213.0124134177
  0
VERTEX
  8
0
 62
9
  6
CONTINUOUS
 10
58.3601579415
 20
213.3209229619
  0
SEQEND
  0
POLYLINE
  8
0
 62
9
  6
CONTINUOUS
 66
1
 70
0
  0
VERTEX
  8
0
 62
9
  6
CONTINUOUS
 10
75.7482506383
 20
242.7644371518
  0
VERTEX
  8
0
 62
9
  6
CONTINUOUS
 10
75.8307160249
 20
242.8805044351
  0
VERTEX
  8
0
 62
9
  6
CONTINUOUS
 10
75.9051428363
 20
242.9822779575
  0
SEQEND
  0
POLYLINE
  8
0
 62
9
  6
CONTINUOUS
 66
1
 70
0
  0
VERTEX
  8
0
 62
9
  6
CONTINUOUS
 10
74.5987819288
 20
241.4470447528
  0
VERTEX
  8
0
 62
9
  6
CONTINUOUS
 10
74.8407065801
 20
241.6452712933
  0
VERTEX
  8
0
 62
9
  6
CONTINUOUS
 10
75.0643428488
 20
241.8656745988
  0
VERTEX
  8
0
 62
9
  6
CONTINUOUS
 10
75.2569042735
 20
242.0878967307
  0
VERTEX
  8
0
 62
9
  6
CONTINUOUS
 10
75.4146145879
 20
242.292217111
  0
VERTEX
  8
0
 62
9
  6
CONTINUOUS
 10
75.5445935616
 20
242.4727589792
  0
VERTEX
  8
0
 62
9
  6
CONTINUOUS
 10
75.7482506383
 20
242.7644371518
  0
SEQEND
  0
POLYLINE
  8
0
 62
9
  6
CONTINUOUS
 66
1
 70
0
  0
VERTEX
  8
0
 62
9
  6
CONTINUOUS
 10
64.6211137274
 20
231.6982488486
  0
VERTEX
  8
0
 62
9
  6
CONTINUOUS
 10
64.7228565271
 20
231.7726535397
  0
VERTEX
  8
0
 62
9
  6
CONTINUOUS
 10
64.8389245482
 20
231.8551199772
  0
VERTEX
  8
0
 62
9
  6
CONTINUOUS
 10
65.1306429268
 20
232.0588053311
  0
SEQEND
  0
POLYLINE
  8
0
 62
9
  6
CONTINUOUS
 66
1
 70
0
  0
VERTEX
  8
0
 62
9
  6
CONTINUOUS
 10
65.1306429268
 20
232.0588053311
  0
VERTEX
  8
0
 62
9
  6
CONTINUOUS
 10
65.3114351749
 20
232.1889697421
  0
VERTEX
  8
0
 62
9
  6
CONTINUOUS
 10
65.5158472108
 20
232.3467729394
  0
VERTEX
  8
0
 62
9
  6
CONTINUOUS
 10
65.7377654979
 20
232.5390938889
  0
VERTEX
  8
0
 62
9
  6
CONTINUOUS
 10
65.9582002006
 20
232.7627736882
  0
VERTEX
  8
0
 62
9
  6
CONTINUOUS
 10
66.1563469321
 20
233.0046097561
  0
SEQEND
  0
POLYLINE
  8
0
 62
9
  6
CONTINUOUS
 66
1
 70
0
  0
VERTEX
  8
0
 62
9
  6
CONTINUOUS
 10
95.9366340258
 20
249.8093946729
  0
VERTEX
  8
0
 62
9
  6
CONTINUOUS
 10
96.0660847872
 20
249.8686791955
  0
VERTEX
  8
0
 62
9
  6
CONTINUOUS
 10
96.1814270578
 20
249.9196042456
  0
SEQEND
  0
POLYLINE
  8
0
 62
9
  6
CONTINUOUS
 66
1
 70
0
  0
VERTEX
  8
0
 62
9
  6
CONTINUOUS
 10
103.694555347
 20
167.9865255564
  0
VERTEX
  8
0
 62
9
  6
CONTINUOUS
 10
103.3859291829
 20
167.9358186623
  0
VERTEX
  8
0
 62
9
  6
CONTINUOUS
 10
103.0820528403
 20
167.856761935
  0
VERTEX
  8
0
 62
9
  6
CONTINUOUS
 10
102.8041786887
 20
167.7605926358
  0
VERTEX
  8
0
 62
9
  6
CONTINUOUS
 10
102.5654373599
 20
167.6625011532
  0
VERTEX
  8
0
 62
9
  6
CONTINUOUS
 10
102.3626013325
 20
167.5711367957
  0
VERTEX
  8
0
 62
9
  6
CONTINUOUS
 10
102.0403900442
 20
167.4203646269
  0
SEQEND
  0
POLYLINE
  8
0
 62
9
  6
CONTINUOUS
 66
1
 70
0
  0
VERTEX
  8
0
 62
9
  6
CONTINUOUS
 10
117.209867432
 20
171.440396365
  0
VERTEX
  8
0
 62
9
  6
CONTINUOUS
 10
117.0845532373
 20
171.4268314122
  0
VERTEX
  8
0
 62
9
  6
CONTINUOUS
 10
116.9428021637
 20
171.413447393
  0
VERTEX
  8
0
 62
9
  6
CONTINUOUS
 10
116.5883239601
 20
171.3829098914
  0
SEQEND
  0
POLYLINE
  8
0
 62
9
  6
CONTINUOUS
 66
1
 70
0
  0
VERTEX
  8
0
 62
9
  6
CONTINUOUS
 10
116.5883239601
 20
171.3829098914
  0
VERTEX
  8
0
 62
9
  6
CONTINUOUS
 10
116.366671075
 20
171.3605803289
  0
VERTEX
  8
0
 62
9
  6
CONTINUOUS
 10
116.1107434604
 20
171.3261247692
  0
VERTEX
  8
0
 62
9
  6
CONTINUOUS
 10
115.8223961115
 20
171.2705290848
  0
VERTEX
  8
0
 62
9
  6
CONTINUOUS
 10
115.5196541594
 20
171.1870340476
  0
VERTEX
  8
0
 62
9
  6
CONTINUOUS
 10
115.2271360222
 20
171.076671235
  0
SEQEND
  0
POLYLINE
  8
0
 62
9
  6
CONTINUOUS
 66
1
 70
0
  0
VERTEX
  8
0
 62
9
  6
CONTINUOUS
 10
81.0342584087
 20
171.4134441388
  0
VERTEX
  8
0
 62
9
  6
CONTINUOUS
 10
80.8925084995
 20
171.4268276169
  0
VERTEX
  8
0
 62
9
  6
CONTINUOUS
 10
80.767156638
 20
171.440396365
  0
SEQEND
  0
POLYLINE
  8
0
 62
9
  6
CONTINUOUS
 66
1
 70
0
  0
VERTEX
  8
0
 62
9
  6
CONTINUOUS
 10
82.7498880478
 20
171.076671235
  0
VERTEX
  8
0
 62
9
  6
CONTINUOUS
 10
82.4572565024
 20
171.1870708586
  0
VERTEX
  8
0
 62
9
  6
CONTINUOUS
 10
82.1545635065
 20
171.2705438957
  0
VERTEX
  8
0
 62
9
  6
CONTINUOUS
 10
81.8658327825
 20
171.3261959153
  0
VERTEX
  8
0
 62
9
  6
CONTINUOUS
 10
81.6100309855
 20
171.3606168639
  0
VERTEX
  8
0
 62
9
  6
CONTINUOUS
 10
81.3886876543
 20
171.382911023
  0
VERTEX
  8
0
 62
9
  6
CONTINUOUS
 10
81.0342584087
 20
171.4134441388
  0
SEQEND
  0
POLYLINE
  8
0
 62
9
  6
CONTINUOUS
 66
1
 70
0
  0
VERTEX
  8
0
 62
9
  6
CONTINUOUS
 10
96.1814270578
 20
167.3101550541
  0
VERTEX
  8
0
 62
9
  6
CONTINUOUS
 10
96.0661193053
 20
167.3610645578
  0
VERTEX
  8
0
 62
9
  6
CONTINUOUS
 10
95.9366672649
 20
167.4203491939
  0
VERTEX
  8
0
 62
9
  6
CONTINUOUS
 10
95.6144113848
 20
167.5711420436
  0
SEQEND
  0
POLYLINE
  8
0
 62
9
  6
CONTINUOUS
 66
1
 70
0
  0
VERTEX
  8
0
 62
9
  6
CONTINUOUS
 10
95.6144113848
 20
167.5711420436
  0
VERTEX
  8
0
 62
9
  6
CONTINUOUS
 10
95.4112895742
 20
167.6626305177
  0
VERTEX
  8
0
 62
9
  6
CONTINUOUS
 10
95.1724219785
 20
167.760754935
  0
VERTEX
  8
0
 62
9
  6
CONTINUOUS
 10
94.894908007
 20
167.8567813345
  0
VERTEX
  8
0
 62
9
  6
CONTINUOUS
 10
94.5909782672
 20
167.9358434872
  0
VERTEX
  8
0
 62
9
  6
CONTINUOUS
 10
94.282468723
 20
167.9865255564
  0
SEQEND
  0
POLYLINE
  8
0
 62
9
  6
CONTINUOUS
 66
1
 70
0
  0
VERTEX
  8
0
 62
9
  6
CONTINUOUS
 10
64.8389545331
 20
185.3746182532
  0
VERTEX
  8
0
 62
9
  6
CONTINUOUS
 10
64.7228872498
 20
185.4570836398
  0
VERTEX
  8
0
 62
9
  6
CONTINUOUS
 10
64.6211137274
 20
185.5315104511
  0
SEQEND
  0
POLYLINE
  8
0
 62
9
  6
CONTINUOUS
 66
1
 70
0
  0
VERTEX
  8
0
 62
9
  6
CONTINUOUS
 10
66.1563469321
 20
184.2251495436
  0
VERTEX
  8
0
 62
9
  6
CONTINUOUS
 10
65.9581203916
 20
184.467074195
  0
VERTEX
  8
0
 62
9
  6
CONTINUOUS
 10
65.7377170861
 20
184.6907104637
  0
VERTEX
  8
0
 62
9
  6
CONTINUOUS
 10
65.5154949541
 20
184.8832718884
  0
VERTEX
  8
0
 62
9
  6
CONTINUOUS
 10
65.3111745739
 20
185.0409822028
  0
VERTEX
  8
0
 62
9
  6
CONTINUOUS
 10
65.1306327057
 20
185.1709611765
  0
VERTEX
  8
0
 62
9
  6
CONTINUOUS
 10
64.8389545331
 20
185.3746182532
  0
SEQEND
  0
POLYLINE
  8
0
 62
9
  6
CONTINUOUS
 66
1
 70
0
  0
VERTEX
  8
0
 62
9
  6
CONTINUOUS
 10
75.9051428363
 20
174.2474813423
  0
VERTEX
  8
0
 62
9
  6
CONTINUOUS
 10
75.8307381452
 20
174.3492241419
  0
VERTEX
  8
0
 62
9
  6
CONTINUOUS
 10
75.7482717077
 20
174.4652921631
  0
VERTEX
  8
0
 62
9
  6
CONTINUOUS
 10
75.5445863538
 20
174.7570105417
  0
SEQEND
  0
POLYLINE
  8
0
 62
9
  6
CONTINUOUS
 66
1
 70
0
  0
VERTEX
  8
0
 62
9
  6
CONTINUOUS
 10
75.5445863538
 20
174.7570105417
  0
VERTEX
  8
0
 62
9
  6
CONTINUOUS
 10
75.4144219428
 20
174.9378027897
  0
VERTEX
  8
0
 62
9
  6
CONTINUOUS
 10
75.2566187455
 20
175.1422148257
  0
VERTEX
  8
0
 62
9
  6
CONTINUOUS
 10
75.064297796
 20
175.3641331128
  0
VERTEX
  8
0
 62
9
  6
CONTINUOUS
 10
74.8406179967
 20
175.5845678155
  0
VERTEX
  8
0
 62
9
  6
CONTINUOUS
 10
74.5987819288
 20
175.782714547
  0
SEQEND
  0
POLYLINE
  8
0
 62
9
  6
CONTINUOUS
 66
1
 70
0
  0
VERTEX
  8
0
 62
9
  6
CONTINUOUS
 10
57.793997012
 20
205.5630016407
  0
VERTEX
  8
0
 62
9
  6
CONTINUOUS
 10
57.7347124894
 20
205.6924524021
  0
VERTEX
  8
0
 62
9
  6
CONTINUOUS
 10
57.6837874393
 20
205.8077946727
  0
SEQEND
  0
POLYLINE
  8
0
 62
9
  6
CONTINUOUS
 66
1
 70
0
  0
VERTEX
  8
0
 62
9
  6
CONTINUOUS
 10
58.3601579415
 20
203.9088363379
  0
VERTEX
  8
0
 62
9
  6
CONTINUOUS
 10
58.3094510474
 20
204.2174625021
  0
VERTEX
  8
0
 62
9
  6
CONTINUOUS
 10
58.2303943201
 20
204.5213388446
  0
VERTEX
  8
0
 62
9
  6
CONTINUOUS
 10
58.1342250209
 20
204.7992129962
  0
VERTEX
  8
0
 62
9
  6
CONTINUOUS
 10
58.0361335383
 20
205.0379543251
  0
VERTEX
  8
0
 62
9
  6
CONTINUOUS
 10
57.9447691808
 20
205.2407903524
  0
VERTEX
  8
0
 62
9
  6
CONTINUOUS
 10
57.793997012
 20
205.5630016407
  0
SEQEND
  0
POLYLINE
  8
0
 62
7
  6
CONTINUOUS
 66
1
 70
0
  0
VERTEX
  8
0
 62
7
  6
CONTINUOUS
 10
63.7456884928
 20
212.9566750216
  0
VERTEX
  8
0
 62
7
  6
CONTINUOUS
 10
63.4633840523
 20
212.2790089653
  0
VERTEX
  8
0
 62
7
  6
CONTINUOUS
 10
63.2159423886
 20
211.548833015
  0
VERTEX
  8
0
 62
7
  6
CONTINUOUS
 10
63.0211507759
 20
210.7999235311
  0
VERTEX
  8
0
 62
7
  6
CONTINUOUS
 10
62.885281334
 20
210.0567529373
  0
VERTEX
  8
0
 62
7
  6
CONTINUOUS
 10
62.8066518294
 20
209.3297871141
  0
VERTEX
  8
0
 62
7
  6
CONTINUOUS
 10
62.7810844616
 20
208.6148852208
  0
VERTEX
  8
0
 62
7
  6
CONTINUOUS
 10
62.806651085
 20
207.8999825861
  0
VERTEX
  8
0
 62
7
  6
CONTINUOUS
 10
62.8852798299
 20
207.1730167433
  0
VERTEX
  8
0
 62
7
  6
CONTINUOUS
 10
63.0211484512
 20
206.4298462872
  0
VERTEX
  8
0
 62
7
  6
CONTINUOUS
 10
63.2159389837
 20
205.6809376511
  0
VERTEX
  8
0
 62
7
  6
CONTINUOUS
 10
63.4633802829
 20
204.9507602887
  0
VERTEX
  8
0
 62
7
  6
CONTINUOUS
 10
63.7456884928
 20
204.2730842782
  0
SEQEND
  0
LINE
  8
0
 62
7
  6
CONTINUOUS
 10
70.6554610785
 20
223.4755215548
 11
70.5448450862
 21
223.2746366225
  0
LINE
  8
0
 62
7
  6
CONTINUOUS
 10
85.2871169977
 20
239.3709428873
 11
85.0472939485
 21
239.2213887781
  0
LINE
  8
0
 62
7
  6
CONTINUOUS
 10
81.5491067926
 20
235.6329326822
 11
81.3092846346
 21
235.4833794642
  0
LINE
  8
0
 62
7
  6
CONTINUOUS
 10
85.3570377714
 20
238.9895189609
 11
85.5189850325
 21
239.0611972819
  0
LINE
  8
0
 62
7
  6
CONTINUOUS
 10
86.2597272982
 20
238.0868294342
 11
86.4216745592
 21
238.1585077552
  0
POLYLINE
  8
0
 62
7
  6
CONTINUOUS
 66
1
 70
0
  0
VERTEX
  8
0
 62
7
  6
CONTINUOUS
 10
98.988512035
 20
172.4074520764
  0
VERTEX
  8
0
 62
7
  6
CONTINUOUS
 10
99.713173539
 20
172.4337223146
  0
VERTEX
  8
0
 62
7
  6
CONTINUOUS
 10
100.4457201604
 20
172.5138827501
  0
VERTEX
  8
0
 62
7
  6
CONTINUOUS
 10
101.1931632121
 20
172.6518716223
  0
VERTEX
  8
0
 62
7
  6
CONTINUOUS
 10
101.9428810345
 20
172.8484480019
  0
VERTEX
  8
0
 62
7
  6
CONTINUOUS
 10
102.6645942269
 20
173.0942857864
  0
VERTEX
  8
0
 62
7
  6
CONTINUOUS
 10
103.3303074067
 20
173.3720561076
  0
SEQEND
  0
POLYLINE
  8
0
 62
7
  6
CONTINUOUS
 66
1
 70
0
  0
VERTEX
  8
0
 62
7
  6
CONTINUOUS
 10
94.6467166633
 20
173.3720561076
  0
VERTEX
  8
0
 62
7
  6
CONTINUOUS
 10
95.3129076196
 20
173.0941042473
  0
VERTEX
  8
0
 62
7
  6
CONTINUOUS
 10
96.0346499598
 20
172.8482950567
  0
VERTEX
  8
0
 62
7
  6
CONTINUOUS
 10
96.7842249682
 20
172.6517904194
  0
VERTEX
  8
0
 62
7
  6
CONTINUOUS
 10
97.5315613686
 20
172.5138450494
  0
VERTEX
  8
0
 62
7
  6
CONTINUOUS
 10
98.2640431299
 20
172.4337083436
  0
VERTEX
  8
0
 62
7
  6
CONTINUOUS
 10
98.988512035
 20
172.4074520764
  0
SEQEND
  0
LINE
  8
0
 62
7
  6
CONTINUOUS
 10
70.5183013466
 20
223.0675550028
 11
70.5306950554
 21
222.8994108316
  0
LINE
  8
0
 62
7
  6
CONTINUOUS
 10
70.5448450862
 20
223.2746366225
 11
70.5183013466
 21
223.0675550028
  0
LINE
  8
0
 62
7
  6
CONTINUOUS
 10
70.6988392266
 20
222.8870171227
 11
70.7253829662
 21
223.0940987424
  0
LINE
  8
0
 62
7
  6
CONTINUOUS
 10
70.5767573975
 20
221.1400941835
 11
70.5502135465
 21
220.9330124524
  0
LINE
  8
0
 62
7
  6
CONTINUOUS
 10
70.7307514542
 20
220.7524745447
 11
70.7634922114
 21
220.8754842498
  0
LINE
  8
0
 62
7
  6
CONTINUOUS
 10
76.5801729956
 20
229.3099645319
 11
76.5084946745
 21
229.1480172708
  0
LINE
  8
0
 62
7
  6
CONTINUOUS
 10
70.7253829662
 20
223.0940987424
 11
70.8359989586
 21
223.2949836748
  0
LINE
  8
0
 62
7
  6
CONTINUOUS
 10
70.5502135465
 20
220.9330124524
 11
70.4395976814
 21
220.7321276156
  0
LINE
  8
0
 62
7
  6
CONTINUOUS
 10
70.6201355772
 20
220.5515897198
 11
70.7307514542
 21
220.7524745447
  0
LINE
  8
0
 62
7
  6
CONTINUOUS
 10
76.7996478785
 20
229.1683636547
 11
76.9102640936
 21
229.3692488098
  0
LINE
  8
0
 62
7
  6
CONTINUOUS
 10
81.1145969466
 20
235.2886917762
 11
81.0039807314
 21
235.087806621
  0
LINE
  8
0
 62
7
  6
CONTINUOUS
 10
76.7686641077
 20
229.588724584
 11
76.5801729956
 21
229.3099645319
  0
LINE
  8
0
 62
7
  6
CONTINUOUS
 10
78.220920475
 20
228.6037193809
 11
77.9934914846
 21
228.2860214189
  0
LINE
  8
0
 62
7
  6
CONTINUOUS
 10
78.2129672746
 20
228.1444214171
 11
78.4403953856
 21
228.4621184761
  0
LINE
  8
0
 62
7
  6
CONTINUOUS
 10
85.0472939485
 20
239.2213887781
 11
84.11279162
 21
238.2868864496
  0
LINE
  8
0
 62
7
  6
CONTINUOUS
 10
83.8012902497
 20
237.9753850793
 11
83.5676646676
 21
237.7417594972
  0
LINE
  8
0
 62
7
  6
CONTINUOUS
 10
82.5942253362
 20
236.7683201659
 11
82.2437869631
 21
236.4178817927
  0
LINE
  8
0
 62
7
  6
CONTINUOUS
 10
81.3092846346
 20
235.4833794642
 11
81.1145969466
 21
235.2886917762
  0
LINE
  8
0
 62
7
  6
CONTINUOUS
 10
75.1182067085
 20
229.2923015381
 11
74.9235185748
 21
229.0976134045
  0
LINE
  8
0
 62
7
  6
CONTINUOUS
 10
74.6120180957
 20
228.7861129254
 11
73.210264603
 21
227.3843594327
  0
LINE
  8
0
 62
7
  6
CONTINUOUS
 10
71.0297590214
 20
225.203853851
 11
70.8350711106
 21
225.0091659402
  0
LINE
  8
0
 62
7
  6
CONTINUOUS
 10
71.0607434606
 20
224.7834935901
 11
71.2554313715
 21
224.978181501
  0
LINE
  8
0
 62
7
  6
CONTINUOUS
 10
73.7146970052
 20
227.3471781947
 11
74.8828249158
 21
228.5153061053
  0
LINE
  8
0
 62
7
  6
CONTINUOUS
 10
81.3854037666
 20
235.0178849561
 11
81.6190293488
 21
235.2515105382
  0
LINE
  8
0
 62
7
  6
CONTINUOUS
 10
84.6172240222
 20
238.2497052117
 11
85.3570377714
 21
238.9895189609
  0
LINE
  8
0
 62
7
  6
CONTINUOUS
 10
82.078327281
 20
235.2594637703
 11
82.3119528631
 21
235.4930893524
  0
LINE
  8
0
 62
7
  6
CONTINUOUS
 10
78.9881071378
 20
231.8081676141
 11
78.7544815557
 21
231.574542032
  0
LINE
  8
0
 62
7
  6
CONTINUOUS
 10
77.8978541242
 20
230.7179146005
 11
77.6642285421
 21
230.4842890184
  0
LINE
  8
0
 62
7
  6
CONTINUOUS
 10
71.7067761981
 20
224.5268366744
 11
71.5120882872
 21
224.3321487635
  0
LINE
  8
0
 62
7
  6
CONTINUOUS
 10
70.8112115409
 20
223.6312720172
 11
70.6554610785
 21
223.4755215548
  0
LINE
  8
0
 62
7
  6
CONTINUOUS
 10
70.3050227053
 20
223.1250831817
 11
70.1103346831
 21
222.9303951594
  0
LINE
  8
0
 62
7
  6
CONTINUOUS
 10
69.72095875
 20
222.5410192264
 11
69.5262707278
 21
222.3463312041
  0
LINE
  8
0
 62
7
  6
CONTINUOUS
 10
68.7475188199
 20
221.5675792962
 11
68.5528308395
 21
221.3728913158
  0
LINE
  8
0
 62
7
  6
CONTINUOUS
 10
75.3138224673
 20
227.7728071835
 11
74.3014452419
 21
226.7604299581
  0
LINE
  8
0
 62
7
  6
CONTINUOUS
 10
85.9889204781
 20
238.3576362543
 11
85.2491067288
 21
237.617822505
  0
LINE
  8
0
 62
7
  6
CONTINUOUS
 10
82.2509120554
 20
234.6196278316
 11
82.0172864733
 21
234.3860022495
  0
LINE
  8
0
 62
7
  6
CONTINUOUS
 10
74.572252062
 20
226.489623138
 11
75.5846292874
 21
227.5020003634
  0
LINE
  8
0
 62
7
  6
CONTINUOUS
 10
82.2880932934
 20
234.1151954294
 11
82.5217188755
 21
234.3488210115
  0
LINE
  8
0
 62
7
  6
CONTINUOUS
 10
85.5199135489
 20
237.3470156849
 11
86.2597272982
 21
238.0868294342
  0
LINE
  8
0
 62
7
  6
CONTINUOUS
 10
77.6996531239
 20
229.4364863199
 11
76.8819635865
 21
228.6187967825
  0
LINE
  8
0
 62
7
  6
CONTINUOUS
 10
77.0235645269
 20
228.3993218363
 11
78.0748796464
 21
229.4506369558
  0
LINE
  8
0
 62
7
  6
CONTINUOUS
 10
82.2597928494
 20
233.3647433388
 11
82.0261672673
 21
233.1311177567
  0
LINE
  8
0
 62
7
  6
CONTINUOUS
 10
78.3456864665
 20
229.1798301358
 11
78.1509978873
 21
228.9851415565
  0
LINE
  8
0
 62
7
  6
CONTINUOUS
 10
86.9367444432
 20
237.4098122891
 11
86.196930694
 21
236.6699985399
  0
LINE
  8
0
 62
7
  6
CONTINUOUS
 10
83.1987360205
 20
233.6718038664
 11
82.8872346502
 21
233.3603024961
  0
LINE
  8
0
 62
7
  6
CONTINUOUS
 10
70.4395976814
 20
220.7321276156
 11
70.2838472747
 21
220.576377209
  0
LINE
  8
0
 62
7
  6
CONTINUOUS
 10
70.4643851706
 20
220.3958393131
 11
70.6201355772
 21
220.5515897198
  0
LINE
  8
0
 62
7
  6
CONTINUOUS
 10
71.0484491259
 20
220.9799032684
 11
71.2431371481
 21
221.1745912906
  0
LINE
  8
0
 62
7
  6
CONTINUOUS
 10
71.55463785
 20
221.4860919925
 11
71.7493258722
 21
221.6807800148
  0
LINE
  8
0
 62
7
  6
CONTINUOUS
 10
72.4502026186
 20
222.3816567611
 11
72.6448905294
 21
222.5763446719
  0
LINE
  8
0
 62
7
  6
CONTINUOUS
 10
72.9563914541
 20
222.8878455966
 11
73.151079365
 21
223.0825335075
  0
LINE
  8
0
 62
7
  6
CONTINUOUS
 10
75.3315849466
 20
225.2630390891
 11
75.5652105287
 21
225.4966646712
  0
LINE
  8
0
 62
7
  6
CONTINUOUS
 10
77.0448389184
 20
226.9762930609
 11
77.239527052
 21
227.1709811945
  0
LINE
  8
0
 62
7
  6
CONTINUOUS
 10
79.108531709
 20
229.0399858515
 11
79.3421572911
 21
229.2736114336
  0
LINE
  8
0
 62
7
  6
CONTINUOUS
 10
80.1987847226
 20
230.1302388651
 11
80.4324103047
 21
230.3638644472
  0
LINE
  8
0
 62
7
  6
CONTINUOUS
 10
83.1580415019
 20
233.0894956444
 11
83.4695428722
 21
233.4009970147
  0
LINE
  8
0
 62
7
  6
CONTINUOUS
 10
84.3651073066
 20
234.2965614491
 11
84.5987328887
 21
234.5301870312
  0
LINE
  8
0
 62
7
  6
CONTINUOUS
 10
85.5721722201
 20
235.5036263626
 11
85.9226105933
 21
235.8540647358
  0
LINE
  8
0
 62
7
  6
CONTINUOUS
 10
86.2341119636
 20
236.1655661061
 11
87.168614292
 21
237.1000684345
  0
LINE
  8
0
 62
9
  6
CONTINUOUS
 10
92.2709974461
 20
241.4953448074
 11
63.9867263663
 21
213.2110737276
  0
LINE
  8
0
 62
7
  6
CONTINUOUS
 10
77.0474241598
 20
229.7772156961
 11
76.7686641077
 21
229.588724584
  0
LINE
  8
0
 62
7
  6
CONTINUOUS
 10
76.9102640936
 20
229.3692488098
 11
77.1890241458
 21
229.557739922
  0
LINE
  8
0
 62
7
  6
CONTINUOUS
 10
77.9342072185
 20
227.9559303089
 11
78.2129672746
 21
228.1444214171
  0
LINE
  8
0
 62
7
  6
CONTINUOUS
 10
82.4907342134
 20
234.7691810496
 11
82.2509120554
 21
234.6196278316
  0
LINE
  8
0
 62
7
  6
CONTINUOUS
 10
82.9182193399
 20
232.9399424304
 11
83.1580415019
 21
233.0894956444
  0
LINE
  8
0
 62
7
  6
CONTINUOUS
 10
82.5217188755
 20
234.3488210115
 11
82.7226031394
 21
234.4594363354
  0
LINE
  8
0
 62
7
  6
CONTINUOUS
 10
82.0872081382
 20
234.0045792142
 11
82.2880932934
 21
234.1151954294
  0
LINE
  8
0
 62
7
  6
CONTINUOUS
 10
82.8872346502
 20
233.3603024961
 11
82.6863503863
 21
233.2496871722
  0
LINE
  8
0
 62
7
  6
CONTINUOUS
 10
77.9934914846
 20
228.2860214189
 11
77.7926063137
 21
228.1754052195
  0
LINE
  8
0
 62
7
  6
CONTINUOUS
 10
81.6190293488
 20
235.2515105382
 11
81.7809766098
 21
235.3231888593
  0
LINE
  8
0
 62
7
  6
CONTINUOUS
 10
82.0172864733
 20
234.3860022495
 11
81.8553392122
 21
234.3143239284
  0
LINE
  8
0
 62
9
  6
CONTINUOUS
 10
63.9867263663
 20
204.0186855722
 11
94.3923179573
 21
173.6130939812
  0
LINE
  8
0
 62
7
  6
CONTINUOUS
 10
70.7634922114
 20
220.8754842498
 11
70.744901513
 21
221.1277004189
  0
LINE
  8
0
 62
7
  6
CONTINUOUS
 10
70.7112329355
 20
222.7188729515
 11
70.6988392266
 21
222.8870171227
  0
LINE
  8
0
 62
7
  6
CONTINUOUS
 10
76.5084946745
 20
229.1480172708
 11
76.4819508235
 21
228.9409355397
  0
LINE
  8
0
 62
7
  6
CONTINUOUS
 10
78.247464326
 20
228.810801112
 11
78.220920475
 21
228.6037193809
  0
LINE
  8
0
 62
7
  6
CONTINUOUS
 10
76.7669074516
 20
229.0453542877
 11
76.7996478785
 21
229.1683636547
  0
LINE
  8
0
 62
7
  6
CONTINUOUS
 10
78.4403953856
 20
228.4621184761
 11
78.5058771189
 21
228.7081381131
  0
LINE
  8
0
 62
7
  6
CONTINUOUS
 10
81.0039807314
 20
235.087806621
 11
80.9384989863
 21
234.8417869958
  0
LINE
  8
0
 62
7
  6
CONTINUOUS
 10
81.3137254456
 20
234.855937695
 11
81.3854037666
 21
235.0178849561
  0
LINE
  8
0
 62
7
  6
CONTINUOUS
 10
86.0605987991
 20
238.5195835153
 11
85.9889204781
 21
238.3576362543
  0
LINE
  8
0
 62
7
  6
CONTINUOUS
 10
87.0084227643
 20
237.5717595502
 11
86.9367444432
 21
237.4098122891
  0
LINE
  8
0
 62
7
  6
CONTINUOUS
 10
83.3093513445
 20
233.8726881304
 11
83.1987360205
 21
233.6718038664
  0
LINE
  8
0
 62
7
  6
CONTINUOUS
 10
83.4695428722
 20
233.4009970147
 11
83.6190960863
 21
233.6408191767
  0
LINE
  8
0
 62
7
  6
CONTINUOUS
 10
87.168614292
 20
237.1000684345
 11
87.3181683973
 21
237.3398914877
  0
LINE
  8
0
 62
9
  6
CONTINUOUS
 10
96.5136383009
 20
243.6669176827
 11
95.5136383009
 21
242.6669176827
  0
LINE
  8
0
 62
7
  6
CONTINUOUS
 10
93.3316576179
 20
240.4346846356
 11
65.0473865381
 21
212.1504135558
  0
LINE
  8
0
 62
7
  6
CONTINUOUS
 10
97.5742984726
 20
242.6062575109
 11
96.5742984726
 21
241.6062575109
  0
LINE
  8
0
 62
9
  6
CONTINUOUS
 10
94.3923177896
 20
239.3740244638
 11
66.1080467098
 21
211.089753384
  0
LINE
  8
0
 62
9
  6
CONTINUOUS
 10
98.6349586444
 20
241.5455973391
 11
97.6349586444
 21
240.5455973391
  0
LINE
  8
0
 62
9
  6
CONTINUOUS
 10
99.3420654256
 20
241.5455973391
 11
101.4633857692
 21
243.6669176827
  0
LINE
  8
0
 62
7
  6
CONTINUOUS
 10
70.8359989586
 20
223.2949836748
 11
71.0368838909
 21
223.4055996671
  0
LINE
  8
0
 62
7
  6
CONTINUOUS
 10
70.2635003178
 20
220.2852234083
 11
70.4643851706
 21
220.3958393131
  0
LINE
  8
0
 62
7
  6
CONTINUOUS
 10
77.7722599535
 20
227.8842519918
 11
77.9342072185
 21
227.9559303089
  0
LINE
  8
0
 62
7
  6
CONTINUOUS
 10
70.9731588019
 20
223.7029503382
 11
70.8112115409
 21
223.6312720172
  0
LINE
  8
0
 62
7
  6
CONTINUOUS
 10
118.6921916647
 20
186.6962983233
 11
118.7698978082
 21
186.7183386204
  0
LINE
  8
0
 62
7
  6
CONTINUOUS
 10
118.8278945786
 20
186.8598341604
 11
118.7501887205
 21
186.8377941486
  0
LINE
  8
0
 62
7
  6
CONTINUOUS
 10
119.9390198889
 20
187.9431265474
 11
120.0167260323
 21
187.9651668446
  0
LINE
  8
0
 62
7
  6
CONTINUOUS
 10
120.9115458295
 20
188.9156524881
 11
120.9892518303
 21
188.9376926425
  0
LINE
  8
0
 62
7
  6
CONTINUOUS
 10
121.0472487434
 20
189.0791883251
 11
120.9695427426
 21
189.0571481707
  0
LINE
  8
0
 62
7
  6
CONTINUOUS
 10
120.3310815045
 20
188.9475125314
 11
120.2145224247
 21
188.9144522358
  0
LINE
  8
0
 62
7
  6
CONTINUOUS
 10
121.770409082
 20
189.8023486638
 11
121.8869681545
 21
189.8354089667
  0
LINE
  8
0
 62
7
  6
CONTINUOUS
 10
122.0157476173
 20
190.6043457211
 11
122.1323066996
 21
190.6374060143
  0
LINE
  8
0
 62
7
  6
CONTINUOUS
 10
122.1903035495
 20
190.7789016532
 11
122.1125974992
 21
190.7568614591
  0
LINE
  8
0
 62
7
  6
CONTINUOUS
 10
65.0473865381
 20
205.079345744
 11
95.4529781291
 21
174.6737541529
  0
LINE
  8
0
 62
9
  6
CONTINUOUS
 10
66.1080467098
 20
206.1400059157
 11
96.5136383009
 21
175.7344143247
  0
LINE
  8
0
 62
7
  6
CONTINUOUS
 10
70.5192291314
 20
221.3533728006
 11
70.5767573975
 21
221.1400941835
  0
LINE
  8
0
 62
7
  6
CONTINUOUS
 10
76.4819508235
 20
228.9409355397
 11
76.4943439753
 21
228.7727908115
  0
LINE
  8
0
 62
7
  6
CONTINUOUS
 10
76.7854980705
 20
228.7931380866
 11
76.7669074516
 21
229.0453542877
  0
LINE
  8
0
 62
7
  6
CONTINUOUS
 10
78.5058771189
 20
228.7081381131
 11
78.4872864841
 21
228.96035433
  0
LINE
  8
0
 62
7
  6
CONTINUOUS
 10
81.2871815946
 20
234.6488559639
 11
81.3137254456
 21
234.855937695
  0
LINE
  8
0
 62
7
  6
CONTINUOUS
 10
83.3358951639
 20
234.0797698931
 11
83.3093513445
 21
233.8726881304
  0
LINE
  8
0
 62
7
  6
CONTINUOUS
 10
83.6190960863
 20
233.6408191767
 11
83.6845778196
 21
233.8868388138
  0
LINE
  8
0
 62
7
  6
CONTINUOUS
 10
86.3579494702
 20
238.4558584263
 11
86.3906907884
 21
238.5788686845
  0
LINE
  8
0
 62
9
  6
CONTINUOUS
 10
100.3420654256
 20
240.5455973391
 11
102.4633857692
 21
242.6669176827
  0
LINE
  8
0
 62
7
  6
CONTINUOUS
 10
78.8198208731
 20
218.9932014352
 11
88.6101902497
 21
228.7835708118
  0
LINE
  8
0
 62
9
  6
CONTINUOUS
 10
63.9867263663
 20
204.0186855722
 11
66.1080467098
 21
206.1400059157
  0
LINE
  8
0
 62
7
  6
CONTINUOUS
 10
74.83654547
 20
212.7471843324
 11
76.9578658136
 21
214.8685046759
  0
LINE
  8
0
 62
7
  6
CONTINUOUS
 10
92.734887009
 20
230.6455258713
 11
94.8562073525
 21
232.7668462149
  0
LINE
  8
0
 62
9
  6
CONTINUOUS
 10
103.5847062804
 20
239.3740244638
 11
105.7060266239
 21
241.4953448074
  0
LINE
  8
0
 62
7
  6
CONTINUOUS
 10
117.603106937
 20
185.6907123651
 11
117.7086457182
 21
185.6849194536
  0
LINE
  8
0
 62
7
  6
CONTINUOUS
 10
117.7805589502
 20
185.812498532
 11
117.7277895596
 21
185.8153949877
  0
LINE
  8
0
 62
7
  6
CONTINUOUS
 10
117.3804435223
 20
185.9133757797
 11
117.4859823133
 21
185.9075828585
  0
LINE
  8
0
 62
7
  6
CONTINUOUS
 10
117.5578955453
 20
186.0351619369
 11
117.505126145
 21
186.0380584024
  0
LINE
  8
0
 62
7
  6
CONTINUOUS
 10
118.2236244506
 20
186.3668957251
 11
118.2763938412
 21
186.3639992694
  0
LINE
  8
0
 62
7
  6
CONTINUOUS
 10
118.4010767493
 20
186.4886821774
 11
118.2955376826
 21
186.4944748035
  0
LINE
  8
0
 62
7
  6
CONTINUOUS
 10
118.000961036
 20
186.5895591397
 11
118.0537304266
 21
186.586662684
  0
LINE
  8
0
 62
7
  6
CONTINUOUS
 10
118.1784133346
 20
186.711345592
 11
118.0728742631
 21
186.717138223
  0
LINE
  8
0
 62
7
  6
CONTINUOUS
 10
120.0497863353
 20
188.0817259171
 11
119.9970166593
 21
188.0846220874
  0
LINE
  8
0
 62
7
  6
CONTINUOUS
 10
119.6659180004
 20
188.3658478114
 11
119.6131486073
 21
188.3687442696
  0
LINE
  8
0
 62
7
  6
CONTINUOUS
 10
120.2203150581
 20
188.8089131618
 11
120.2730845914
 21
188.8060168488
  0
LINE
  8
0
 62
7
  6
CONTINUOUS
 10
120.8587762962
 20
188.9185488011
 11
120.9115458295
 21
188.9156524881
  0
LINE
  8
0
 62
7
  6
CONTINUOUS
 10
88.6101902497
 20
188.446188488
 11
78.8198208731
 21
198.2365578646
  0
LINE
  8
0
 62
9
  6
CONTINUOUS
 10
103.5847061127
 20
173.6130939812
 11
101.4633857692
 21
175.7344143247
  0
LINE
  8
0
 62
9
  6
CONTINUOUS
 10
66.1080467098
 20
211.089753384
 11
63.9867263663
 21
213.2110737276
  0
LINE
  8
0
 62
7
  6
CONTINUOUS
 10
94.8562073525
 20
184.4629130849
 11
92.734887009
 21
186.5842334284
  0
LINE
  8
0
 62
7
  6
CONTINUOUS
 10
76.9578658136
 20
202.3612546239
 11
74.83654547
 21
204.4825749674
  0
LINE
  8
0
 62
7
  6
CONTINUOUS
 10
80.9384989863
 20
234.8417869958
 11
80.9632870724
 21
234.5054993219
  0
LINE
  8
0
 62
7
  6
CONTINUOUS
 10
83.6845778196
 20
233.8868388138
 11
83.6597897176
 21
234.2231265036
  0
LINE
  8
0
 62
7
  6
CONTINUOUS
 10
87.3181683973
 20
237.3398914877
 11
87.3385147693
 21
237.6310447036
  0
LINE
  8
0
 62
7
  6
CONTINUOUS
 10
118.4001626108
 20
232.5774598156
 11
118.1217550986
 21
232.4947915677
  0
LINE
  8
0
 62
7
  6
CONTINUOUS
 10
122.29584253
 20
190.7731089215
 11
122.1903035495
 21
190.7789016532
  0
LINE
  8
0
 62
7
  6
CONTINUOUS
 10
122.1323066996
 20
190.6374060143
 11
122.2517621297
 21
190.6176968286
  0
LINE
  8
0
 62
7
  6
CONTINUOUS
 10
118.6255058125
 20
186.7131112406
 11
118.6921916647
 21
186.6962983233
  0
LINE
  8
0
 62
7
  6
CONTINUOUS
 10
119.8723340366
 20
187.9599394647
 11
119.9390198889
 21
187.9431265474
  0
LINE
  8
0
 62
7
  6
CONTINUOUS
 10
119.4884656993
 20
188.2440613616
 11
119.5551515564
 21
188.2272484394
  0
LINE
  8
0
 62
7
  6
CONTINUOUS
 10
119.7326038599
 20
188.3490348868
 11
119.6659180004
 21
188.3658478114
  0
LINE
  8
0
 62
7
  6
CONTINUOUS
 10
76.4943439753
 20
228.7727908115
 11
76.5970069584
 21
228.5143780345
  0
LINE
  8
0
 62
7
  6
CONTINUOUS
 10
78.7544815557
 20
231.574542032
 11
78.9129155045
 21
230.5594797605
  0
LINE
  8
0
 62
7
  6
CONTINUOUS
 10
79.3421572911
 20
229.2736114336
 11
79.1837223878
 21
230.2886728771
  0
LINE
  8
0
 62
7
  6
CONTINUOUS
 10
78.9315061867
 20
230.3072634961
 11
79.108531709
 21
229.0399858515
  0
LINE
  8
0
 62
7
  6
CONTINUOUS
 10
79.1651317688
 20
230.5408890782
 11
78.9881071378
 21
231.8081676141
  0
LINE
  8
0
 62
7
  6
CONTINUOUS
 10
86.0482056473
 20
238.6877282435
 11
86.0605987991
 21
238.5195835153
  0
LINE
  8
0
 62
7
  6
CONTINUOUS
 10
86.9960295808
 20
237.73990431
 11
87.0084227643
 21
237.5717595502
  0
LINE
  8
0
 62
7
  6
CONTINUOUS
 10
114.1913078305
 20
237.9598110691
 11
113.9656354804
 21
237.7341387191
  0
LINE
  8
0
 62
7
  6
CONTINUOUS
 10
112.4310632787
 20
236.1995665173
 11
112.069987487
 21
235.8384907256
  0
LINE
  8
0
 62
7
  6
CONTINUOUS
 10
117.3007972268
 20
234.2184390926
 11
117.0713245307
 21
234.0868360287
  0
LINE
  8
0
 62
7
  6
CONTINUOUS
 10
118.4642979712
 20
232.152248695
 11
118.6937709474
 21
232.283851479
  0
LINE
  8
0
 62
7
  6
CONTINUOUS
 10
121.8811753857
 20
189.9409478907
 11
121.8144894622
 21
189.9577607366
  0
LINE
  8
0
 62
7
  6
CONTINUOUS
 10
120.411683828
 20
188.9167831428
 11
120.3310815045
 21
188.9475125314
  0
LINE
  8
0
 62
7
  6
CONTINUOUS
 10
120.9695427426
 20
189.0571481707
 11
120.8889402861
 21
189.0878774069
  0
LINE
  8
0
 62
7
  6
CONTINUOUS
 10
121.6898066255
 20
189.8330779
 11
121.770409082
 21
189.8023486638
  0
LINE
  8
0
 62
7
  6
CONTINUOUS
 10
118.5309870371
 20
186.7577570811
 11
118.6255058125
 21
186.7131112406
  0
LINE
  8
0
 62
7
  6
CONTINUOUS
 10
118.7501887205
 20
186.8377941486
 11
118.6556696598
 21
186.8824397037
  0
LINE
  8
0
 62
7
  6
CONTINUOUS
 10
119.5551515564
 20
188.2272484394
 11
119.649670622
 21
188.1826028794
  0
LINE
  8
0
 62
7
  6
CONTINUOUS
 10
68.5528308395
 20
221.3728913158
 11
69.455520303
 21
220.4702018523
  0
LINE
  8
0
 62
7
  6
CONTINUOUS
 10
69.6502082834
 20
220.6648898327
 11
68.7475188199
 21
221.5675792962
  0
LINE
  8
0
 62
7
  6
CONTINUOUS
 10
69.5262707278
 20
222.3463312041
 11
70.5192291314
 21
221.3533728006
  0
LINE
  8
0
 62
7
  6
CONTINUOUS
 10
70.8944550653
 20
221.3675229112
 11
69.72095875
 21
222.5410192264
  0
LINE
  8
0
 62
7
  6
CONTINUOUS
 10
70.1103346831
 20
222.9303951594
 11
71.55463785
 21
221.4860919925
  0
LINE
  8
0
 62
7
  6
CONTINUOUS
 10
71.7493258722
 20
221.6807800148
 11
70.7112329355
 21
222.7188729515
  0
LINE
  8
0
 62
7
  6
CONTINUOUS
 10
70.5306950554
 20
222.8994108316
 11
70.3050227053
 21
223.1250831817
  0
LINE
  8
0
 62
7
  6
CONTINUOUS
 10
71.5926475619
 20
223.2392118178
 11
72.4502026186
 21
222.3816567611
  0
LINE
  8
0
 62
7
  6
CONTINUOUS
 10
72.6448905294
 20
222.5763446719
 11
71.7873354727
 21
223.4338997287
  0
LINE
  8
0
 62
7
  6
CONTINUOUS
 10
76.8368291165
 20
228.6639312525
 11
76.7854980705
 21
228.7931380866
  0
LINE
  8
0
 62
7
  6
CONTINUOUS
 10
96.0483538549
 20
166.1260867603
 11
96.343300636
 21
161.4640112056
  0
LINE
  8
0
 62
9
  6
CONTINUOUS
 10
96.5473562297
 20
166.1576562067
 11
96.8423030108
 21
161.495580652
  0
LINE
  8
0
 62
9
  6
CONTINUOUS
 10
94.7458711802
 20
239.5204710733
 11
94.7458711802
 21
242.5204710733
  0
LINE
  8
0
 62
7
  6
CONTINUOUS
 10
96.343300636
 20
255.7657480942
 11
96.0483538549
 21
251.1036725395
  0
LINE
  8
0
 62
9
  6
CONTINUOUS
 10
96.8423030108
 20
255.7341786478
 11
96.5473562297
 21
251.0721030931
  0
LINE
  8
0
 62
7
  6
CONTINUOUS
 10
75.1978639151
 20
173.2885847214
 11
73.1222575429
 21
169.1036354662
  0
LINE
  8
0
 62
9
  6
CONTINUOUS
 10
75.6457973714
 20
173.0664234766
 11
73.5701909992
 21
168.8814742213
  0
LINE
  8
0
 62
7
  6
CONTINUOUS
 10
120.2731259872
 20
250.7713352326
 11
117.6866568047
 21
246.8813327585
  0
LINE
  8
0
 62
9
  6
CONTINUOUS
 10
120.6894899971
 20
250.4944941027
 11
118.1030208146
 21
246.6044916285
  0
LINE
  8
0
 62
7
  6
CONTINUOUS
 10
114.0273763506
 20
233.8811018619
 11
114.2981832023
 21
234.1519087136
  0
LINE
  8
0
 62
7
  6
CONTINUOUS
 10
115.8327554041
 20
235.6864809154
 11
116.1486966942
 21
236.0024222055
  0
LINE
  8
0
 62
7
  6
CONTINUOUS
 10
116.2242332328
 20
235.2950030866
 11
115.8631573462
 21
234.9339272001
  0
LINE
  8
0
 62
7
  6
CONTINUOUS
 10
116.4727070993
 20
234.9562602801
 11
114.7124625159
 21
233.1960156966
  0
LINE
  8
0
 62
7
  6
CONTINUOUS
 10
115.0060708524
 20
232.9024073601
 11
117.127391196
 21
235.0237277037
  0
LINE
  8
0
 62
7
  6
CONTINUOUS
 10
115.6232209228
 20
232.7366020531
 11
115.3975485412
 21
232.5109296714
  0
LINE
  8
0
 62
7
  6
CONTINUOUS
 10
60.7220589264
 20
189.9167348802
 11
56.8320564523
 21
187.3302656977
  0
LINE
  8
0
 62
9
  6
CONTINUOUS
 10
60.9989000564
 20
189.5003708703
 11
57.1088975822
 21
186.9139016878
  0
LINE
  8
0
 62
7
  6
CONTINUOUS
 10
138.4997562187
 20
234.481134142
 11
134.3148069635
 21
232.4055277698
  0
LINE
  8
0
 62
9
  6
CONTINUOUS
 10
138.7219174636
 20
234.0332006857
 11
134.5369682083
 21
231.9575943135
  0
LINE
  8
0
 62
7
  6
CONTINUOUS
 10
122.9059573573
 20
227.9813961291
 11
122.7216188512
 21
227.8949278151
  0
LINE
  8
0
 62
7
  6
CONTINUOUS
 10
122.9700932777
 20
227.5561844485
 11
123.1544306638
 21
227.6426538825
  0
LINE
  8
0
 62
7
  6
CONTINUOUS
 10
123.3620391861
 20
225.9907421933
 11
125.021082571
 21
226.7689605685
  0
LINE
  8
0
 62
7
  6
CONTINUOUS
 10
122.3952143622
 20
225.5132638503
 11
123.13256621
 21
225.8591394094
  0
LINE
  8
0
 62
7
  6
CONTINUOUS
 10
125.0058811867
 20
227.145237713
 11
122.1016060257
 21
225.8068721869
  0
LINE
  8
0
 62
7
  6
CONTINUOUS
 10
126.3575214698
 20
225.0714459096
 11
126.0339788011
 21
224.9436436253
  0
LINE
  8
0
 62
7
  6
CONTINUOUS
 10
141.4773049246
 20
205.6747214698
 11
146.1393804793
 21
205.9696682509
  0
LINE
  8
0
 62
9
  6
CONTINUOUS
 10
141.4457354782
 20
206.1737238445
 11
146.1078110329
 21
206.4686706257
  0
LINE
  8
0
 62
7
  6
CONTINUOUS
 10
51.8376435907
 20
205.9696682509
 11
56.4997191454
 21
205.6747214698
  0
LINE
  8
0
 62
9
  6
CONTINUOUS
 10
51.8692130371
 20
206.4686706257
 11
56.5312885918
 21
206.1737238445
  0
LINE
  8
0
 62
7
  6
CONTINUOUS
 10
120.7642575208
 20
188.9631946416
 11
120.8587762962
 21
188.9185488011
  0
LINE
  8
0
 62
7
  6
CONTINUOUS
 10
134.3148069635
 20
184.82423153
 11
138.4997562187
 21
182.7486251578
  0
LINE
  8
0
 62
9
  6
CONTINUOUS
 10
134.5369682083
 20
185.2721649863
 11
138.7219174636
 21
183.1965586141
  0
LINE
  8
0
 62
7
  6
CONTINUOUS
 10
122.4042778628
 20
190.7145467153
 11
122.29584253
 21
190.7731089215
  0
LINE
  8
0
 62
7
  6
CONTINUOUS
 10
69.455520303
 20
220.4702018523
 11
69.6749958128
 21
220.3286015388
  0
LINE
  8
0
 62
7
  6
CONTINUOUS
 10
71.1139305289
 20
221.2259225673
 11
70.8944550653
 21
221.3675229112
  0
LINE
  8
0
 62
7
  6
CONTINUOUS
 10
56.8320564523
 20
229.8994936021
 11
60.7220589264
 21
227.3130244195
  0
LINE
  8
0
 62
9
  6
CONTINUOUS
 10
57.1088975822
 20
230.315857612
 11
60.9989000564
 21
227.7293884295
  0
LINE
  8
0
 62
7
  6
CONTINUOUS
 10
70.8350711106
 20
225.0091659402
 11
71.0607434606
 21
224.7834935901
  0
LINE
  8
0
 62
7
  6
CONTINUOUS
 10
71.5120882872
 20
224.3321487635
 11
72.9563914541
 21
222.8878455966
  0
LINE
  8
0
 62
7
  6
CONTINUOUS
 10
73.151079365
 20
223.0825335075
 11
71.7067761981
 21
224.5268366744
  0
LINE
  8
0
 62
7
  6
CONTINUOUS
 10
71.2554313715
 20
224.978181501
 11
71.0297590214
 21
225.203853851
  0
LINE
  8
0
 62
7
  6
CONTINUOUS
 10
73.210264603
 20
227.3843594327
 11
75.3315849466
 21
225.2630390891
  0
LINE
  8
0
 62
7
  6
CONTINUOUS
 10
75.5652105287
 20
225.4966646712
 11
74.572252062
 21
226.489623138
  0
LINE
  8
0
 62
7
  6
CONTINUOUS
 10
74.3014452419
 20
226.7604299581
 11
73.7146970052
 21
227.3471781947
  0
LINE
  8
0
 62
7
  6
CONTINUOUS
 10
76.5970069584
 20
228.5143780345
 11
76.8288759477
 21
228.2046332571
  0
LINE
  8
0
 62
7
  6
CONTINUOUS
 10
117.6866568047
 20
170.3484265413
 11
120.2731259872
 21
166.4584240671
  0
LINE
  8
0
 62
9
  6
CONTINUOUS
 10
118.1030208146
 20
170.6252676712
 11
120.6894899971
 21
166.7352651971
  0
LINE
  8
0
 62
7
  6
CONTINUOUS
 10
78.4872864841
 20
228.96035433
 11
78.3456864665
 21
229.1798301358
  0
LINE
  8
0
 62
7
  6
CONTINUOUS
 10
78.1509978873
 20
228.9851415565
 11
78.247464326
 21
228.810801112
  0
LINE
  8
0
 62
7
  6
CONTINUOUS
 10
73.1222575429
 20
248.1261238336
 11
75.1978639151
 21
243.9411745783
  0
LINE
  8
0
 62
9
  6
CONTINUOUS
 10
73.5701909992
 20
248.3482850785
 11
75.6457973714
 21
244.1633358232
  0
LINE
  8
0
 62
7
  6
CONTINUOUS
 10
83.6597897176
 20
234.2231265036
 11
83.5571275942
 21
234.4815402034
  0
LINE
  8
0
 62
7
  6
CONTINUOUS
 10
83.278367542
 20
234.2930490913
 11
83.3358951639
 21
234.0797698931
  0
LINE
  8
0
 62
7
  6
CONTINUOUS
 10
86.3906907884
 20
238.5788686845
 11
86.3269656994
 21
238.8762193556
  0
LINE
  8
0
 62
7
  6
CONTINUOUS
 10
87.3385147693
 20
237.6310447036
 11
87.2747896645
 21
237.9283953905
  0
LINE
  8
0
 62
9
  6
CONTINUOUS
 10
101.7616950198
 20
167.809004385
 11
101.7955970122
 21
167.3101550541
  0
LINE
  8
0
 62
9
  6
CONTINUOUS
 10
96.2153290503
 20
249.4207549148
 11
96.1814270578
 21
249.9196042456
  0
LINE
  8
0
 62
9
  6
CONTINUOUS
 10
98.728405652
 20
257.5141878727
 11
98.7257460776
 21
258.0141807993
  0
LINE
  8
0
 62
9
  6
CONTINUOUS
 10
99.248618418
 20
159.7155714271
 11
99.2512779924
 21
159.2155785005
  0
LINE
  8
0
 62
9
  6
CONTINUOUS
 10
95.1600849103
 20
239.5204710733
 11
95.1600849103
 21
242.5204710733
  0
LINE
  8
0
 62
2
  6
CONTINUOUS
 10
98.988512035
 20
209.4948796499
 11
98.988512035
 21
207.7348796499
  0
LINE
  8
DEFAULT_1
 62
2
  6
CENTER
 10
98.988512035
 20
204.2148796499
 11
98.988512035
 21
157.2148796499
  0
LINE
  8
DEFAULT_1
 62
2
  6
CENTER
 10
98.988512035
 20
213.0148796499
 11
98.988512035
 21
260.0148796499
  0
LINE
  8
0
 62
9
  6
CONTINUOUS
 10
98.728405652
 20
159.7155714271
 11
98.7257460776
 21
159.2155785005
  0
LINE
  8
0
 62
9
  6
CONTINUOUS
 10
99.248618418
 20
257.5141878727
 11
99.2512779925
 21
258.0141807993
  0
LINE
  8
0
 62
9
  6
CONTINUOUS
 10
96.2153290503
 20
167.809004385
 11
96.1814270578
 21
167.3101550541
  0
LINE
  8
0
 62
9
  6
CONTINUOUS
 10
101.7616950198
 20
249.4207549148
 11
101.7955970122
 21
249.9196042456
  0
LINE
  8
0
 62
9
  6
CONTINUOUS
 10
80.9872213167
 20
171.8893635545
 11
80.767156638
 21
171.440396365
  0
LINE
  8
0
 62
9
  6
CONTINUOUS
 10
116.9898027533
 20
245.3403957453
 11
117.209867432
 21
245.7893629347
  0
LINE
  8
0
 62
9
  6
CONTINUOUS
 10
123.2129074111
 20
251.0929759898
 11
123.4606006153
 21
251.5273123532
  0
LINE
  8
0
 62
9
  6
CONTINUOUS
 10
74.764116659
 20
166.13678331
 11
74.5164234547
 21
165.7024469466
  0
LINE
  8
0
 62
9
  6
CONTINUOUS
 10
74.3135991883
 20
166.3968896929
 11
74.0612994659
 21
165.965212904
  0
LINE
  8
0
 62
9
  6
CONTINUOUS
 10
123.6634248818
 20
250.8328696068
 11
123.9157246041
 21
251.2645463958
  0
LINE
  8
0
 62
9
  6
CONTINUOUS
 10
76.1839274884
 20
174.6625465392
 11
75.9051428363
 21
174.2474813423
  0
LINE
  8
0
 62
9
  6
CONTINUOUS
 10
121.7930965816
 20
242.5672127606
 11
122.0718812338
 21
242.9822779575
  0
LINE
  8
0
 62
7
  6
CONTINUOUS
 10
118.4904316773
 20
232.667728882
 11
118.4001626108
 21
232.5774598156
  0
LINE
  8
0
 62
7
  6
CONTINUOUS
 10
117.1591988405
 20
230.7492793721
 11
117.3848712221
 21
230.9749517538
  0
LINE
  8
0
 62
7
  6
CONTINUOUS
 10
118.6937709474
 20
232.283851479
 11
118.7840400139
 21
232.3741205455
  0
LINE
  8
0
 62
9
  6
CONTINUOUS
 10
65.0361789243
 20
185.8102951033
 11
64.6211137274
 21
185.5315104511
  0
LINE
  8
0
 62
9
  6
CONTINUOUS
 10
132.9408451457
 20
231.4194641965
 11
133.3559103426
 21
231.6982488486
  0
LINE
  8
0
 62
9
  6
CONTINUOUS
 10
141.206501992
 20
233.2897924966
 11
141.6381787809
 21
233.542092219
  0
LINE
  8
0
 62
9
  6
CONTINUOUS
 10
56.7705220781
 20
183.9399668031
 11
56.3388452891
 21
183.6876670808
  0
LINE
  8
0
 62
9
  6
CONTINUOUS
 10
56.5104156951
 20
184.3904842738
 11
56.0760793317
 21
184.1427910696
  0
LINE
  8
0
 62
9
  6
CONTINUOUS
 10
141.4666083749
 20
232.839275026
 11
141.9009447383
 21
233.0869682302
  0
LINE
  8
0
 62
9
  6
CONTINUOUS
 10
62.2629959396
 20
190.6135889316
 11
61.8140287502
 21
190.3935242529
  0
LINE
  8
0
 62
9
  6
CONTINUOUS
 10
135.7140281304
 20
226.6161703682
 11
136.1629953199
 21
226.8362350469
  0
LINE
  8
0
 62
7
  6
CONTINUOUS
 10
126.2335186915
 20
224.6538347948
 11
126.4178562041
 21
224.7403043552
  0
LINE
  8
0
 62
7
  6
CONTINUOUS
 10
125.5113671081
 20
223.9316832114
 11
125.6957045574
 21
224.0181527086
  0
LINE
  8
0
 62
7
  6
CONTINUOUS
 10
126.5993310203
 20
222.5729124791
 11
126.4149936342
 21
222.4864430451
  0
LINE
  8
0
 62
7
  6
CONTINUOUS
 10
126.4753283369
 20
222.1553014591
 11
126.7988709108
 21
222.2831036486
  0
LINE
  8
0
 62
9
  6
CONTINUOUS
 10
58.1826367701
 20
205.8416966651
 11
57.6837874393
 21
205.8077946727
  0
LINE
  8
0
 62
9
  6
CONTINUOUS
 10
139.7943872999
 20
211.3880626346
 11
140.2932366308
 21
211.4219646271
  0
LINE
  8
0
 62
9
  6
CONTINUOUS
 10
50.0892038122
 20
208.3547732669
 11
49.5892108856
 21
208.3521136925
  0
LINE
  8
0
 62
9
  6
CONTINUOUS
 10
147.8878202578
 20
208.8749860329
 11
148.3878131844
 21
208.8776456073
  0
LINE
  8
0
 62
2
  6
CONTINUOUS
 10
99.868512035
 20
208.6148796499
 11
98.108512035
 21
208.6148796499
  0
LINE
  8
DEFAULT_1
 62
2
  6
CENTER
 10
94.588512035
 20
208.6148796499
 11
47.588512035
 21
208.6148796499
  0
LINE
  8
DEFAULT_1
 62
2
  6
CENTER
 10
103.388512035
 20
208.6148796499
 11
150.388512035
 21
208.6148796499
  0
LINE
  8
0
 62
9
  6
CONTINUOUS
 10
50.0892038122
 20
208.8749860329
 11
49.5892108856
 21
208.8776456073
  0
LINE
  8
0
 62
9
  6
CONTINUOUS
 10
147.8878202578
 20
208.3547732669
 11
148.3878131844
 21
208.3521136924
  0
LINE
  8
0
 62
9
  6
CONTINUOUS
 10
58.1826367701
 20
211.3880626346
 11
57.6837874393
 21
211.4219646271
  0
LINE
  8
0
 62
9
  6
CONTINUOUS
 10
139.7943872999
 20
205.8416966651
 11
140.2932366308
 21
205.8077946727
  0
LINE
  8
0
 62
7
  6
CONTINUOUS
 10
69.6749958128
 20
220.3286015388
 11
69.804202351
 21
220.2772701969
  0
LINE
  8
0
 62
7
  6
CONTINUOUS
 10
70.744901513
 20
221.1277004189
 11
71.0484491259
 21
220.9799032684
  0
LINE
  8
0
 62
9
  6
CONTINUOUS
 10
62.2629959396
 20
226.6161703682
 11
61.8140287502
 21
226.8362350469
  0
LINE
  8
0
 62
9
  6
CONTINUOUS
 10
135.7140281304
 20
190.6135889316
 11
136.1629953199
 21
190.3935242529
  0
LINE
  8
0
 62
7
  6
CONTINUOUS
 10
69.8245492951
 20
220.5684240243
 11
69.6502082834
 21
220.6648898327
  0
LINE
  8
0
 62
7
  6
CONTINUOUS
 10
71.5227256742
 20
223.6206346302
 11
71.3483845928
 21
223.717100369
  0
LINE
  8
0
 62
9
  6
CONTINUOUS
 10
56.5104156951
 20
232.839275026
 11
56.0760793317
 21
233.0869682302
  0
LINE
  8
0
 62
9
  6
CONTINUOUS
 10
141.4666083749
 20
184.3904842738
 11
141.9009447383
 21
184.1427910696
  0
LINE
  8
0
 62
9
  6
CONTINUOUS
 10
56.7705220781
 20
233.2897924966
 11
56.3388452891
 21
233.542092219
  0
LINE
  8
0
 62
9
  6
CONTINUOUS
 10
141.206501992
 20
183.9399668031
 11
141.6381787809
 21
183.6876670808
  0
LINE
  8
0
 62
9
  6
CONTINUOUS
 10
65.0361789243
 20
231.4194641965
 11
64.6211137274
 21
231.6982488486
  0
LINE
  8
0
 62
9
  6
CONTINUOUS
 10
132.9408451457
 20
185.8102951033
 11
133.3559103426
 21
185.5315104511
  0
LINE
  8
0
 62
7
  6
CONTINUOUS
 10
71.3280375405
 20
223.4259464966
 11
71.5926475619
 21
223.2392118178
  0
LINE
  8
0
 62
7
  6
CONTINUOUS
 10
71.7873354727
 20
223.4338997287
 11
71.5227256742
 21
223.6206346302
  0
LINE
  8
0
 62
7
  6
CONTINUOUS
 10
75.5846292874
 20
227.5020003634
 11
75.3138224673
 21
227.7728071835
  0
LINE
  8
0
 62
7
  6
CONTINUOUS
 10
118.045039788
 20
185.2450005317
 11
119.6713853847
 21
183.6186549349
  0
LINE
  8
0
 62
7
  6
CONTINUOUS
 10
117.3526105991
 20
185.9412087029
 11
117.3804435223
 21
185.9133757797
  0
LINE
  8
0
 62
7
  6
CONTINUOUS
 10
74.8828249158
 20
228.5153061053
 11
74.6120180957
 21
228.7861129254
  0
LINE
  8
0
 62
7
  6
CONTINUOUS
 10
74.9235185748
 20
229.0976134045
 11
77.0448389184
 21
226.9762930609
  0
LINE
  8
0
 62
7
  6
CONTINUOUS
 10
77.239527052
 20
227.1709811945
 11
75.1182067085
 21
229.2923015381
  0
LINE
  8
0
 62
7
  6
CONTINUOUS
 10
120.2724261487
 20
184.219695699
 11
118.646080552
 21
185.8460412957
  0
LINE
  8
0
 62
7
  6
CONTINUOUS
 10
118.7875019082
 20
185.9874626519
 11
119.7067407238
 21
185.0682238364
  0
LINE
  8
0
 62
7
  6
CONTINUOUS
 10
118.4289096725
 20
186.4608492542
 11
118.4010767493
 21
186.4886821774
  0
LINE
  8
0
 62
7
  6
CONTINUOUS
 10
118.266574228
 20
187.0221698902
 11
118.5309870371
 21
186.7577570811
  0
LINE
  8
0
 62
7
  6
CONTINUOUS
 10
77.1138334669
 20
228.3090528963
 11
77.0235645269
 21
228.3993218363
  0
LINE
  8
0
 62
7
  6
CONTINUOUS
 10
76.8819635865
 20
228.6187967825
 11
76.8368291165
 21
228.6639312525
  0
LINE
  8
0
 62
7
  6
CONTINUOUS
 10
118.6556696598
 20
186.8824397037
 11
118.3912568506
 21
187.1468525129
  0
LINE
  8
0
 62
7
  6
CONTINUOUS
 10
120.3431368268
 20
185.6339092613
 11
119.3885426722
 21
186.5885034159
  0
LINE
  8
0
 62
7
  6
CONTINUOUS
 10
118.840114977
 20
187.5957106393
 11
119.1601936326
 21
187.2756319838
  0
LINE
  8
0
 62
7
  6
CONTINUOUS
 10
119.2158594789
 20
187.2199661375
 11
119.2854417868
 21
187.1503838295
  0
LINE
  8
0
 62
7
  6
CONTINUOUS
 10
119.4101246949
 20
187.2750667376
 11
118.9647978851
 21
187.7203935474
  0
LINE
  8
0
 62
7
  6
CONTINUOUS
 10
119.1642904808
 20
187.9198861431
 11
119.6096172906
 21
187.4745593333
  0
LINE
  8
0
 62
7
  6
CONTINUOUS
 10
119.7487819455
 20
187.3353946785
 11
119.8183642534
 21
187.2658123705
  0
LINE
  8
0
 62
7
  6
CONTINUOUS
 10
77.6093841839
 20
229.5267552599
 11
77.6996531239
 21
229.4364863199
  0
LINE
  8
0
 62
7
  6
CONTINUOUS
 10
119.9430468761
 20
187.3904949932
 11
119.8734645682
 21
187.4600773011
  0
LINE
  8
0
 62
7
  6
CONTINUOUS
 10
119.7342999133
 20
187.599241956
 11
119.2889731035
 21
188.0445687658
  0
LINE
  8
0
 62
7
  6
CONTINUOUS
 10
78.0748796464
 20
229.4506369558
 11
77.8943417031
 21
229.6311748991
  0
LINE
  8
0
 62
7
  6
CONTINUOUS
 10
120.2017154706
 20
187.4016762143
 11
120.9795329299
 21
186.623858755
  0
LINE
  8
0
 62
7
  6
CONTINUOUS
 10
121.5452183549
 20
186.05817333
 11
121.8280610673
 21
185.7753306176
  0
LINE
  8
0
 62
7
  6
CONTINUOUS
 10
119.649670622
 20
188.1826028794
 11
119.8723340366
 21
187.9599394647
  0
LINE
  8
0
 62
7
  6
CONTINUOUS
 10
119.8996014087
 20
188.182037338
 11
119.8161026392
 21
188.2655361075
  0
LINE
  8
0
 62
7
  6
CONTINUOUS
 10
119.9970166593
 20
188.0846220874
 11
119.9552672745
 21
188.1263714722
  0
LINE
  8
0
 62
9
  6
CONTINUOUS
 10
121.7930965816
 20
174.6625465392
 11
122.0718812338
 21
174.2474813423
  0
LINE
  8
0
 62
9
  6
CONTINUOUS
 10
76.1839274884
 20
242.5672127606
 11
75.9051428363
 21
242.9822779575
  0
LINE
  8
0
 62
7
  6
CONTINUOUS
 10
80.9632870724
 20
234.5054993219
 11
81.1048870584
 21
234.2860235477
  0
LINE
  8
0
 62
9
  6
CONTINUOUS
 10
74.3135991883
 20
250.8328696068
 11
74.0612994659
 21
251.2645463958
  0
LINE
  8
0
 62
9
  6
CONTINUOUS
 10
123.6634248818
 20
166.3968896929
 11
123.9157246041
 21
165.965212904
  0
LINE
  8
0
 62
9
  6
CONTINUOUS
 10
123.2129074111
 20
166.13678331
 11
123.4606006153
 21
165.7024469466
  0
LINE
  8
0
 62
9
  6
CONTINUOUS
 10
74.764116659
 20
251.0929759898
 11
74.5164234547
 21
251.5273123532
  0
LINE
  8
0
 62
7
  6
CONTINUOUS
 10
81.383647237
 20
234.4745145334
 11
81.2871815946
 21
234.6488559639
  0
LINE
  8
0
 62
9
  6
CONTINUOUS
 10
116.9898027533
 20
171.8893635545
 11
117.209867432
 21
171.440396365
  0
LINE
  8
0
 62
9
  6
CONTINUOUS
 10
80.9872213167
 20
245.3403957453
 11
80.767156638
 21
245.7893629347
  0
LINE
  8
0
 62
9
  6
CONTINUOUS
 10
101.4296678404
 20
251.0721030931
 11
101.1347210592
 21
255.7341786478
  0
LINE
  8
0
 62
9
  6
CONTINUOUS
 10
102.8169391598
 20
239.5204710733
 11
102.8169391598
 21
242.5204710733
  0
LINE
  8
0
 62
9
  6
CONTINUOUS
 10
103.2311528898
 20
239.5204710733
 11
103.2311528898
 21
242.5204710733
  0
LINE
  8
0
 62
9
  6
CONTINUOUS
 10
101.1347210592
 20
161.495580652
 11
101.4296678404
 21
166.1576562067
  0
LINE
  8
0
 62
9
  6
CONTINUOUS
 10
122.3312266986
 20
244.1633358232
 11
124.4068330708
 21
248.3482850785
  0
LINE
  8
0
 62
9
  6
CONTINUOUS
 10
77.2875340729
 20
166.7352651971
 11
79.8740032554
 21
170.6252676712
  0
LINE
  8
0
 62
7
  6
CONTINUOUS
 10
122.0208632851
 20
230.1302556145
 11
119.8995429416
 21
228.008935271
  0
LINE
  8
0
 62
7
  6
CONTINUOUS
 10
120.1931512781
 20
227.7153269344
 11
121.1409752749
 21
228.6631509312
  0
LINE
  8
0
 62
7
  6
CONTINUOUS
 10
121.4117820949
 20
228.9339577513
 11
122.0887992716
 21
229.6109749279
  0
LINE
  8
0
 62
7
  6
CONTINUOUS
 10
123.0413608938
 20
228.1167996655
 11
122.9059573573
 21
227.9813961291
  0
LINE
  8
0
 62
7
  6
CONTINUOUS
 10
123.1544306638
 20
227.6426538825
 11
123.3349686703
 21
227.823191889
  0
LINE
  8
0
 62
7
  6
CONTINUOUS
 10
126.0339788011
 20
224.9436436253
 11
125.6691035349
 21
224.6766363113
  0
LINE
  8
0
 62
7
  6
CONTINUOUS
 10
125.9137767753
 20
224.4319630709
 11
126.2335186915
 21
224.6538347948
  0
LINE
  8
0
 62
9
  6
CONTINUOUS
 10
136.9781240137
 20
227.7293884295
 11
140.8681264878
 21
230.315857612
  0
LINE
  8
0
 62
9
  6
CONTINUOUS
 10
59.2551066064
 20
183.1965586141
 11
63.4400558617
 21
185.2721649863
  0
LINE
  8
0
 62
9
  6
CONTINUOUS
 10
56.5312885918
 20
211.0560354552
 11
51.8692130371
 21
210.7610886741
  0
LINE
  8
0
 62
9
  6
CONTINUOUS
 10
146.1078110329
 20
210.7610886741
 11
141.4457354782
 21
211.0560354552
  0
LINE
  8
0
 62
7
  6
CONTINUOUS
 10
70.0378279401
 20
220.510895786
 11
69.8245492951
 21
220.5684240243
  0
LINE
  8
0
 62
7
  6
CONTINUOUS
 10
71.2431371481
 20
221.1745912906
 11
71.1139305289
 21
221.2259225673
  0
LINE
  8
0
 62
9
  6
CONTINUOUS
 10
63.4400558617
 20
231.9575943135
 11
59.2551066064
 21
234.0332006857
  0
LINE
  8
0
 62
9
  6
CONTINUOUS
 10
140.8681264878
 20
186.9139016878
 11
136.9781240137
 21
189.5003708703
  0
LINE
  8
0
 62
7
  6
CONTINUOUS
 10
76.8288759477
 20
228.2046332571
 11
77.1386206618
 21
227.9727643311
  0
LINE
  8
0
 62
7
  6
CONTINUOUS
 10
122.4291018313
 20
186.3763713816
 11
120.8027562346
 21
188.0027169783
  0
LINE
  8
0
 62
7
  6
CONTINUOUS
 10
120.2730845914
 20
188.8060168488
 11
120.3009175243
 21
188.7781839159
  0
LINE
  8
0
 62
7
  6
CONTINUOUS
 10
120.9441775909
 20
188.1441383345
 11
122.5705231876
 21
186.5177927378
  0
LINE
  8
0
 62
7
  6
CONTINUOUS
 10
120.6482636945
 20
188.6802032763
 11
120.6204307714
 21
188.7080361995
  0
LINE
  8
0
 62
7
  6
CONTINUOUS
 10
120.4534332128
 20
188.875033758
 11
120.411683828
 21
188.9167831428
  0
LINE
  8
0
 62
7
  6
CONTINUOUS
 10
120.48592825
 20
189.2415239123
 11
120.7642575208
 21
188.9631946416
  0
LINE
  8
0
 62
7
  6
CONTINUOUS
 10
120.8889402861
 20
189.0878774069
 11
120.6106110154
 21
189.3662066777
  0
LINE
  8
0
 62
7
  6
CONTINUOUS
 10
123.1715639516
 20
187.1188335018
 11
122.3937464923
 21
187.8966509611
  0
LINE
  8
0
 62
7
  6
CONTINUOUS
 10
121.8280610673
 20
188.4623363861
 11
121.5452183549
 21
188.7451790985
  0
LINE
  8
0
 62
7
  6
CONTINUOUS
 10
121.0594691418
 20
189.8150648041
 11
121.3795477973
 21
189.4949861486
  0
LINE
  8
0
 62
7
  6
CONTINUOUS
 10
121.4352136437
 20
189.4393203023
 11
121.7135429144
 21
189.1609910315
  0
LINE
  8
0
 62
7
  6
CONTINUOUS
 10
121.8382257511
 20
189.2856738682
 11
121.1841519785
 21
189.9397476408
  0
LINE
  8
0
 62
7
  6
CONTINUOUS
 10
123.0301425954
 20
188.8866004548
 11
123.98473675
 21
187.9320063002
  0
LINE
  8
0
 62
7
  6
CONTINUOUS
 10
122.2517621297
 20
190.6176968286
 11
122.2935115145
 21
190.5759474438
  0
LINE
  8
0
 62
7
  6
CONTINUOUS
 10
124.585777514
 20
188.5330470642
 11
123.6665386984
 21
189.4522858797
  0
LINE
  8
0
 62
9
  6
CONTINUOUS
 10
79.8740032554
 20
246.6044916285
 11
77.2875340729
 21
250.4944941027
  0
LINE
  8
0
 62
7
  6
CONTINUOUS
 10
85.9517392401
 20
238.8620686565
 11
86.0482056473
 21
238.6877282435
  0
LINE
  8
0
 62
7
  6
CONTINUOUS
 10
86.3269656994
 20
238.8762193556
 11
86.2304992922
 21
239.0505597686
  0
LINE
  8
0
 62
7
  6
CONTINUOUS
 10
86.8995631736
 20
237.9142447229
 11
86.9960295808
 21
237.73990431
  0
LINE
  8
0
 62
7
  6
CONTINUOUS
 10
87.2747896645
 20
237.9283953905
 11
87.1783232258
 21
238.102735835
  0
LINE
  8
0
 62
9
  6
CONTINUOUS
 10
124.4068330708
 20
168.8814742213
 11
122.3312266986
 21
173.0664234766
  0
LINE
  8
0
 62
7
  6
CONTINUOUS
 10
101.9286702152
 20
251.1036725395
 11
101.633723434
 21
255.7657480942
  0
LINE
  8
0
 62
7
  6
CONTINUOUS
 10
101.633723434
 20
161.4640112056
 11
101.9286702152
 21
166.1260867603
  0
LINE
  8
0
 62
7
  6
CONTINUOUS
 10
122.7791601549
 20
243.9411745783
 11
124.8547665271
 21
248.1261238336
  0
LINE
  8
0
 62
7
  6
CONTINUOUS
 10
118.7840400139
 20
232.3741205455
 11
118.9156427978
 21
232.6035935216
  0
LINE
  8
0
 62
7
  6
CONTINUOUS
 10
77.7038980828
 20
166.4584240671
 11
80.2903672654
 21
170.3484265413
  0
LINE
  8
0
 62
7
  6
CONTINUOUS
 10
125.6691035349
 20
224.6766363113
 11
125.3531622448
 21
224.3606950212
  0
LINE
  8
0
 62
7
  6
CONTINUOUS
 10
125.8235078353
 20
224.3416941308
 11
125.9137767753
 21
224.4319630709
  0
LINE
  8
0
 62
7
  6
CONTINUOUS
 10
125.375963698
 20
223.7962798013
 11
125.5113671081
 21
223.9316832114
  0
LINE
  8
0
 62
7
  6
CONTINUOUS
 10
126.7347344303
 20
222.7083158891
 11
126.5993310203
 21
222.5729124791
  0
LINE
  8
0
 62
7
  6
CONTINUOUS
 10
137.2549651436
 20
227.3130244195
 11
141.1449676178
 21
229.8994936021
  0
LINE
  8
0
 62
7
  6
CONTINUOUS
 10
59.4772678513
 20
182.7486251578
 11
63.6622171066
 21
184.82423153
  0
LINE
  8
0
 62
7
  6
CONTINUOUS
 10
126.4149936342
 20
222.4864430451
 11
126.1817200003
 21
222.4489097957
  0
LINE
  8
0
 62
7
  6
CONTINUOUS
 10
56.4997191454
 20
211.55503783
 11
51.8376435907
 21
211.2600910489
  0
LINE
  8
0
 62
7
  6
CONTINUOUS
 10
146.1393804793
 20
211.2600910489
 11
141.4773049246
 21
211.55503783
  0
LINE
  8
0
 62
7
  6
CONTINUOUS
 10
69.804202351
 20
220.2772701969
 11
70.056418561
 21
220.2586795552
  0
LINE
  8
0
 62
7
  6
CONTINUOUS
 10
77.1386206618
 20
227.9727643311
 11
77.3970334705
 21
227.8701013164
  0
LINE
  8
0
 62
7
  6
CONTINUOUS
 10
63.6622171066
 20
232.4055277698
 11
59.4772678513
 21
234.481134142
  0
LINE
  8
0
 62
7
  6
CONTINUOUS
 10
77.2881738798
 20
228.2125864891
 11
77.1138334669
 21
228.3090528963
  0
LINE
  8
0
 62
7
  6
CONTINUOUS
 10
77.8943417031
 20
229.6311748991
 11
77.674865929
 21
229.7727748851
  0
LINE
  8
0
 62
7
  6
CONTINUOUS
 10
141.1449676178
 20
187.3302656977
 11
137.2549651436
 21
189.9167348802
  0
LINE
  8
0
 62
7
  6
CONTINUOUS
 10
81.1048870584
 20
234.2860235477
 11
81.2854250649
 21
234.1054855412
  0
LINE
  8
0
 62
7
  6
CONTINUOUS
 10
81.473916177
 20
234.3842455933
 11
81.383647237
 21
234.4745145334
  0
LINE
  8
0
 62
7
  6
CONTINUOUS
 10
83.142964132
 20
234.4284525014
 11
83.278367542
 21
234.2930490913
  0
LINE
  8
0
 62
7
  6
CONTINUOUS
 10
83.5571275942
 20
234.4815402034
 11
83.3314552441
 21
234.7072125535
  0
LINE
  8
0
 62
7
  6
CONTINUOUS
 10
82.2437869631
 20
236.4178817927
 11
84.3651073066
 21
234.2965614491
  0
LINE
  8
0
 62
7
  6
CONTINUOUS
 10
84.5987328887
 20
234.5301870312
 11
82.7482193653
 21
236.3807005547
  0
LINE
  8
0
 62
7
  6
CONTINUOUS
 10
83.5676646676
 20
237.7417594972
 11
85.3730436894
 21
235.9363804754
  0
LINE
  8
0
 62
7
  6
CONTINUOUS
 10
80.2903672654
 20
246.8813327585
 11
77.7038980828
 21
250.7713352326
  0
LINE
  8
0
 62
7
  6
CONTINUOUS
 10
124.8547665271
 20
169.1036354662
 11
122.7791601549
 21
173.2885847214
  0
LINE
  8
0
 62
7
  6
CONTINUOUS
 10
123.1278292077
 20
228.3011381717
 11
123.0413608938
 21
228.1167996655
  0
LINE
  8
0
 62
7
  6
CONTINUOUS
 10
123.3349686703
 20
227.823191889
 11
123.4214381043
 21
228.0075292751
  0
LINE
  8
0
 62
7
  6
CONTINUOUS
 10
125.3531622448
 20
224.3606950212
 11
125.0861548675
 21
223.9958196918
  0
LINE
  8
0
 62
7
  6
CONTINUOUS
 10
126.7988709108
 20
222.2831036486
 11
127.0245433241
 21
222.5087760619
  0
LINE
  8
0
 62
7
  6
CONTINUOUS
 10
126.4178562041
 20
224.7403043552
 11
126.6511298063
 21
224.7778375731
  0
LINE
  8
0
 62
7
  6
CONTINUOUS
 10
126.1479862727
 20
222.1215677315
 11
126.4753283369
 21
222.1553014591
  0
LINE
  8
0
 62
7
  6
CONTINUOUS
 10
126.6848635181
 20
225.1051796214
 11
126.3575214698
 21
225.0714459096
  0
LINE
  8
0
 62
7
  6
CONTINUOUS
 10
71.1598934807
 20
223.4383403169
 11
71.3280375405
 21
223.4259464966
  0
LINE
  8
0
 62
7
  6
CONTINUOUS
 10
71.3483845928
 20
223.717100369
 11
71.180240533
 21
223.7294941893
  0
LINE
  8
0
 62
7
  6
CONTINUOUS
 10
77.417380714
 20
228.1612554432
 11
77.2881738798
 21
228.2125864891
  0
LINE
  8
0
 62
7
  6
CONTINUOUS
 10
82.4341341536
 20
233.2682778228
 11
82.2597928494
 21
233.3647433388
  0
LINE
  8
0
 62
7
  6
CONTINUOUS
 10
81.6482574811
 20
234.2877800774
 11
81.473916177
 21
234.3842455933
  0
LINE
  8
0
 62
7
  6
CONTINUOUS
 10
82.0261672673
 20
233.1311177567
 11
82.2456430415
 21
232.9895177707
  0
LINE
  8
0
 62
7
  6
CONTINUOUS
 10
81.2854250649
 20
234.1054855412
 11
81.504900839
 21
233.9638855552
  0
LINE
  8
0
 62
7
  6
CONTINUOUS
 10
85.9226105933
 20
235.8540647358
 11
83.8012902497
 21
237.9753850793
  0
LINE
  8
0
 62
7
  6
CONTINUOUS
 10
84.11279162
 20
238.2868864496
 11
86.2341119636
 21
236.1655661061
  0
LINE
  8
0
 62
7
  6
CONTINUOUS
 10
86.196930694
 20
236.6699985399
 11
85.5199135489
 21
237.3470156849
  0
LINE
  8
0
 62
7
  6
CONTINUOUS
 10
85.2491067288
 20
237.617822505
 11
84.6172240222
 21
238.2497052117
  0
LINE
  8
0
 62
7
  6
CONTINUOUS
 10
85.8614703001
 20
238.9523375965
 11
85.9517392401
 21
238.8620686565
  0
LINE
  8
0
 62
7
  6
CONTINUOUS
 10
86.7641597636
 20
238.049648133
 11
86.8995631736
 21
237.9142447229
  0
LINE
  8
0
 62
7
  6
CONTINUOUS
 10
87.1783232258
 20
238.102735835
 11
86.9526508757
 21
238.3284081851
  0
LINE
  8
0
 62
7
  6
CONTINUOUS
 10
86.2304992922
 20
239.0505597686
 11
86.0499612857
 21
239.2310977751
  0
LINE
  8
0
 62
7
  6
CONTINUOUS
 10
122.4628400885
 20
190.606111363
 11
122.4042778628
 21
190.7145467153
  0
LINE
  8
0
 62
7
  6
CONTINUOUS
 10
121.492079821
 20
190.0806779247
 11
121.522809067
 21
190.0000754585
  0
LINE
  8
0
 62
7
  6
CONTINUOUS
 10
117.505126145
 20
186.0380584024
 11
117.5022296892
 21
186.090827793
  0
LINE
  8
0
 62
7
  6
CONTINUOUS
 10
118.2763938412
 20
186.3639992694
 11
118.279290297
 21
186.3112298787
  0
LINE
  8
0
 62
7
  6
CONTINUOUS
 10
118.5279654552
 20
232.9010019243
 11
118.4904316773
 21
232.667728882
  0
LINE
  8
0
 62
7
  6
CONTINUOUS
 10
125.0861548675
 20
223.9958196918
 11
124.9583526781
 21
223.6722771179
  0
LINE
  8
0
 62
7
  6
CONTINUOUS
 10
124.0589941893
 20
223.8494840232
 11
125.3973597154
 21
226.7537591842
  0
LINE
  8
0
 62
7
  6
CONTINUOUS
 10
124.1112614118
 20
224.8804442075
 11
123.7653858528
 21
224.1430923598
  0
LINE
  8
0
 62
7
  6
CONTINUOUS
 10
125.021082571
 20
226.7689605685
 11
124.2428641958
 21
225.1099171837
  0
LINE
  8
0
 62
7
  6
CONTINUOUS
 10
125.2894942641
 20
223.6119424152
 11
125.375963698
 21
223.7962798013
  0
LINE
  8
0
 62
7
  6
CONTINUOUS
 10
126.8212039275
 20
222.8926533385
 11
126.7347344303
 21
222.7083158891
  0
LINE
  8
0
 62
7
  6
CONTINUOUS
 10
70.2838472747
 20
220.576377209
 11
70.0378279401
 21
220.510895786
  0
LINE
  8
0
 62
7
  6
CONTINUOUS
 10
70.056418561
 20
220.2586795552
 11
70.2635003178
 21
220.2852234083
  0
LINE
  8
0
 62
7
  6
CONTINUOUS
 10
71.180240533
 20
223.7294941893
 11
70.9731588019
 21
223.7029503382
  0
LINE
  8
0
 62
7
  6
CONTINUOUS
 10
122.6427512294
 20
227.5224507367
 11
122.9700932777
 21
227.5561844485
  0
LINE
  8
0
 62
7
  6
CONTINUOUS
 10
125.6957045574
 20
224.0181527086
 11
125.8838436896
 21
224.0105514564
  0
LINE
  8
0
 62
7
  6
CONTINUOUS
 10
77.3970334705
 20
227.8701013164
 11
77.5651782145
 21
227.8577081487
  0
LINE
  8
0
 62
7
  6
CONTINUOUS
 10
77.6695969467
 20
228.1426647926
 11
77.417380714
 21
228.1612554432
  0
LINE
  8
0
 62
7
  6
CONTINUOUS
 10
77.6642285421
 20
230.4842890184
 11
78.9315061867
 21
230.3072634961
  0
LINE
  8
0
 62
7
  6
CONTINUOUS
 10
80.4324103047
 20
230.3638644472
 11
79.1651317688
 21
230.5408890782
  0
LINE
  8
0
 62
7
  6
CONTINUOUS
 10
79.1837223878
 20
230.2886728771
 11
80.1987847226
 21
230.1302388651
  0
LINE
  8
0
 62
7
  6
CONTINUOUS
 10
78.9129155045
 20
230.5594797605
 11
77.8978541242
 21
230.7179146005
  0
LINE
  8
0
 62
7
  6
CONTINUOUS
 10
77.674865929
 20
229.7727748851
 11
77.3775152579
 21
229.8364999741
  0
LINE
  8
0
 62
7
  6
CONTINUOUS
 10
77.3961058769
 20
229.584283773
 11
77.6093841839
 21
229.5267552599
  0
LINE
  8
0
 62
7
  6
CONTINUOUS
 10
82.2456430415
 20
232.9895177707
 11
82.58812823
 21
232.8806581643
  0
LINE
  8
0
 62
7
  6
CONTINUOUS
 10
83.3314552441
 20
234.7072125535
 11
83.0730415126
 21
234.8098747086
  0
LINE
  8
0
 62
7
  6
CONTINUOUS
 10
81.9491204468
 20
235.3107948162
 11
82.078327281
 21
235.2594637703
  0
LINE
  8
0
 62
7
  6
CONTINUOUS
 10
82.3119528631
 20
235.4930893524
 11
82.1376115589
 21
235.5895548683
  0
LINE
  8
0
 62
9
  6
CONTINUOUS
 10
94.3923177896
 20
239.3740244638
 11
92.2709974461
 21
241.4953448074
  0
LINE
  8
0
 62
7
  6
CONTINUOUS
 10
122.2935115145
 20
190.5759474438
 11
122.3242408148
 21
190.4953450124
  0
LINE
  8
0
 62
7
  6
CONTINUOUS
 10
120.3009175243
 20
188.7781839159
 11
120.3177302989
 21
188.7114979209
  0
LINE
  8
0
 62
7
  6
CONTINUOUS
 10
121.6474919036
 20
190.1247582952
 11
121.6306790479
 21
190.1914442285
  0
LINE
  8
0
 62
7
  6
CONTINUOUS
 10
119.7297076847
 20
188.4018045677
 11
119.7326038599
 21
188.3490348868
  0
LINE
  8
0
 62
7
  6
CONTINUOUS
 10
119.8161026392
 20
188.2655361075
 11
119.8132064688
 21
188.3183057835
  0
LINE
  8
0
 62
7
  6
CONTINUOUS
 10
120.4592259816
 20
188.7694948341
 11
120.4534332128
 21
188.875033758
  0
LINE
  8
0
 62
7
  6
CONTINUOUS
 10
120.495748006
 20
188.5833534341
 11
120.4986443191
 21
188.5305839008
  0
LINE
  8
0
 62
7
  6
CONTINUOUS
 10
120.6511601503
 20
188.6274338857
 11
120.6482636945
 21
188.6802032763
  0
LINE
  8
0
 62
7
  6
CONTINUOUS
 10
122.3242408148
 20
190.4953450124
 11
122.3271371813
 21
190.4425755326
  0
LINE
  8
0
 62
7
  6
CONTINUOUS
 10
122.4686328105
 20
190.5005723922
 11
122.4628400885
 21
190.606111363
  0
LINE
  8
0
 62
7
  6
CONTINUOUS
 10
118.9156427978
 20
232.6035935216
 11
118.9004419735
 21
232.9798701061
  0
LINE
  8
0
 62
7
  6
CONTINUOUS
 10
117.3607341444
 20
186.0328310274
 11
117.3526105991
 21
185.9412087029
  0
LINE
  8
0
 62
7
  6
CONTINUOUS
 10
118.4207858369
 20
186.3692266492
 11
118.4289096725
 21
186.4608492542
  0
LINE
  8
0
 62
7
  6
CONTINUOUS
 10
123.4214381043
 20
228.0075292751
 11
123.4551718161
 21
228.3348713234
  0
LINE
  8
0
 62
7
  6
CONTINUOUS
 10
125.2519610146
 20
223.3786687814
 11
125.2894942641
 21
223.6119424152
  0
LINE
  8
0
 62
7
  6
CONTINUOUS
 10
127.0245433241
 20
222.5087760619
 11
127.1523454819
 21
222.8323186042
  0
LINE
  8
0
 62
7
  6
CONTINUOUS
 10
127.7390937186
 20
223.4190668408
 11
127.8255631525
 21
223.6034042269
  0
LINE
  8
0
 62
7
  6
CONTINUOUS
 10
123.1404786
 20
204.4825749674
 11
121.0191582565
 21
202.3612546239
  0
LINE
  8
0
 62
7
  6
CONTINUOUS
 10
105.242137061
 20
186.5842334284
 11
103.1208167175
 21
184.4629130849
  0
LINE
  8
0
 62
9
  6
CONTINUOUS
 10
94.3923179573
 20
173.6130939812
 11
96.5136383009
 21
175.7344143247
  0
LINE
  8
0
 62
9
  6
CONTINUOUS
 10
131.8689773602
 20
211.089753384
 11
133.9902977037
 21
213.2110737276
  0
LINE
  8
0
 62
7
  6
CONTINUOUS
 10
119.1572031969
 20
198.2365578646
 11
109.3668338203
 21
188.446188488
  0
LINE
  8
0
 62
7
  6
CONTINUOUS
 10
71.0368838909
 20
223.4055996671
 11
71.1598934807
 21
223.4383403169
  0
LINE
  8
0
 62
7
  6
CONTINUOUS
 10
118.231025489
 20
232.1147143572
 11
118.4642979712
 21
232.152248695
  0
LINE
  8
0
 62
7
  6
CONTINUOUS
 10
117.3159980511
 20
233.8421625082
 11
117.5492710933
 21
233.8796962861
  0
LINE
  8
0
 62
7
  6
CONTINUOUS
 10
77.5651782145
 20
227.8577081487
 11
77.7722599535
 21
227.8842519918
  0
LINE
  8
0
 62
7
  6
CONTINUOUS
 10
77.1890241458
 20
229.557739922
 11
77.3961058769
 21
229.584283773
  0
LINE
  8
0
 62
7
  6
CONTINUOUS
 10
122.7216188512
 20
227.8949278151
 11
122.533480839
 21
227.9025279473
  0
LINE
  8
0
 62
7
  6
CONTINUOUS
 10
82.6863503863
 20
233.2496871722
 11
82.4341341536
 21
233.2682778228
  0
LINE
  8
0
 62
7
  6
CONTINUOUS
 10
122.311608555
 20
227.5827865911
 11
122.6427512294
 21
227.5224507367
  0
LINE
  8
0
 62
7
  6
CONTINUOUS
 10
82.1376115589
 20
235.5895548683
 11
81.8402608878
 21
235.6532799573
  0
LINE
  8
0
 62
7
  6
CONTINUOUS
 10
126.1817200003
 20
222.4489097957
 11
125.944646892
 21
222.5054450239
  0
LINE
  8
0
 62
7
  6
CONTINUOUS
 10
125.8838436896
 20
224.0105514564
 11
126.1209167979
 21
223.9540162282
  0
LINE
  8
0
 62
7
  6
CONTINUOUS
 10
126.2976540519
 20
224.2286236743
 11
125.8235078353
 21
224.3416941308
  0
LINE
  8
0
 62
7
  6
CONTINUOUS
 10
126.6511298063
 20
224.7778375731
 11
126.8882029146
 21
224.7213023448
  0
LINE
  8
0
 62
7
  6
CONTINUOUS
 10
82.9296848705
 20
234.4859801864
 11
83.142964132
 21
234.4284525014
  0
LINE
  8
0
 62
7
  6
CONTINUOUS
 10
125.7679096104
 20
222.2308375501
 11
126.1479862727
 21
222.1215677315
  0
LINE
  8
0
 62
7
  6
CONTINUOUS
 10
127.0649401686
 20
224.995909791
 11
126.6848635181
 21
225.1051796214
  0
LINE
  8
0
 62
7
  6
CONTINUOUS
 10
85.3730436894
 20
235.9363804754
 11
82.5942253362
 21
236.7683201659
  0
LINE
  8
0
 62
7
  6
CONTINUOUS
 10
82.7482193653
 20
236.3807005547
 11
85.5721722201
 21
235.5036263626
  0
LINE
  8
0
 62
7
  6
CONTINUOUS
 10
86.5898192874
 20
238.1461146034
 11
86.7641597636
 21
238.049648133
  0
LINE
  8
0
 62
7
  6
CONTINUOUS
 10
86.9526508757
 20
238.3284081851
 11
86.7783103996
 21
238.4248746555
  0
LINE
  8
0
 62
7
  6
CONTINUOUS
 10
85.6871297607
 20
239.0488041301
 11
85.8614703001
 21
238.9523375965
  0
LINE
  8
0
 62
7
  6
CONTINUOUS
 10
86.0499612857
 20
239.2310977751
 11
85.8756208728
 21
239.3275641822
  0
LINE
  8
0
 62
7
  6
CONTINUOUS
 10
103.1208167175
 20
232.7668462149
 11
105.242137061
 21
230.6455258713
  0
LINE
  8
0
 62
7
  6
CONTINUOUS
 10
121.0191582565
 20
214.8685046759
 11
123.1404786
 21
212.7471843324
  0
LINE
  8
0
 62
9
  6
CONTINUOUS
 10
133.9902977037
 20
204.0186855722
 11
131.8689773602
 21
206.1400059157
  0
LINE
  8
0
 62
7
  6
CONTINUOUS
 10
109.3668338203
 20
228.7835708118
 11
119.1572031969
 21
218.9932014352
  0
LINE
  8
0
 62
9
  6
CONTINUOUS
 10
97.6349586444
 20
240.5455973391
 11
95.5136383009
 21
242.6669176827
  0
LINE
  8
0
 62
9
  6
CONTINUOUS
 10
98.6349586444
 20
241.5455973391
 11
96.5136383009
 21
243.6669176827
  0
LINE
  8
0
 62
9
  6
CONTINUOUS
 10
100.3420654256
 20
240.5455973391
 11
99.3420654256
 21
241.5455973391
  0
LINE
  8
0
 62
7
  6
CONTINUOUS
 10
123.1202290756
 20
228.4892761839
 11
123.1278292077
 21
228.3011381717
  0
LINE
  8
0
 62
7
  6
CONTINUOUS
 10
126.8136026754
 20
223.0807924707
 11
126.8212039275
 21
222.8926533385
  0
LINE
  8
0
 62
7
  6
CONTINUOUS
 10
124.9583526781
 20
223.6722771179
 11
124.9246189505
 21
223.3449350538
  0
LINE
  8
0
 62
7
  6
CONTINUOUS
 10
127.8255631525
 20
223.6034042269
 11
127.8592968643
 21
223.9307462752
  0
LINE
  8
0
 62
7
  6
CONTINUOUS
 10
127.531954816
 20
223.8970125634
 11
127.4944204781
 21
223.6637400812
  0
LINE
  8
0
 62
7
  6
CONTINUOUS
 10
119.1601936326
 20
187.2756319838
 11
119.1381536208
 21
187.1979261258
  0
LINE
  8
0
 62
7
  6
CONTINUOUS
 10
119.1938194672
 20
187.1422602794
 11
119.2158594789
 21
187.2199661375
  0
LINE
  8
0
 62
7
  6
CONTINUOUS
 10
119.8132064688
 20
188.3183057835
 11
119.846266762
 21
188.4348648658
  0
LINE
  8
0
 62
7
  6
CONTINUOUS
 10
120.3177302989
 20
188.7114979209
 11
120.2956901445
 21
188.6337919202
  0
LINE
  8
0
 62
7
  6
CONTINUOUS
 10
120.4371858466
 20
188.6917888138
 11
120.4592259816
 21
188.7694948341
  0
LINE
  8
0
 62
7
  6
CONTINUOUS
 10
120.6291198531
 20
188.5497277422
 11
120.6511601503
 21
188.6274338857
  0
LINE
  8
0
 62
7
  6
CONTINUOUS
 10
121.5251401191
 20
190.1972370021
 11
121.492079821
 21
190.0806779247
  0
LINE
  8
0
 62
7
  6
CONTINUOUS
 10
121.3795477973
 20
189.4949861486
 11
121.3575075716
 21
189.4172800765
  0
LINE
  8
0
 62
7
  6
CONTINUOUS
 10
121.4131734179
 20
189.3616142301
 11
121.4352136437
 21
189.4393203023
  0
LINE
  8
0
 62
7
  6
CONTINUOUS
 10
122.3271371813
 20
190.4425755326
 11
122.2940768783
 21
190.3260164601
  0
LINE
  8
0
 62
7
  6
CONTINUOUS
 10
122.4465926114
 20
190.4228663469
 11
122.4686328105
 21
190.5005723922
  0
LINE
  8
0
 62
7
  6
CONTINUOUS
 10
119.1381536208
 20
187.1979261258
 11
119.0911768563
 21
187.0952835148
  0
LINE
  8
0
 62
7
  6
CONTINUOUS
 10
119.7766844456
 20
188.5044471823
 11
119.7297076847
 21
188.4018045677
  0
LINE
  8
0
 62
7
  6
CONTINUOUS
 10
119.1468427026
 20
187.0396176685
 11
119.1938194672
 21
187.1422602794
  0
LINE
  8
0
 62
7
  6
CONTINUOUS
 10
121.6306790479
 20
190.1914442285
 11
121.6776558482
 21
190.2940868751
  0
LINE
  8
0
 62
7
  6
CONTINUOUS
 10
121.3575075716
 20
189.4172800765
 11
121.3105308783
 21
189.3146375369
  0
LINE
  8
0
 62
7
  6
CONTINUOUS
 10
121.3661967247
 20
189.2589716906
 11
121.4131734179
 21
189.3616142301
  0
LINE
  8
0
 62
7
  6
CONTINUOUS
 10
117.4326473728
 20
186.1604101095
 11
117.3607341444
 21
186.0328310274
  0
LINE
  8
0
 62
7
  6
CONTINUOUS
 10
117.5022296892
 20
186.090827793
 11
117.5381864479
 21
186.1546174749
  0
LINE
  8
0
 62
7
  6
CONTINUOUS
 10
118.279290297
 20
186.3112298787
 11
118.2433335383
 21
186.2474401969
  0
LINE
  8
0
 62
7
  6
CONTINUOUS
 10
118.3488726049
 20
186.2416475708
 11
118.4207858369
 21
186.3692266492
  0
LINE
  8
0
 62
7
  6
CONTINUOUS
 10
120.2956901445
 20
188.6337919202
 11
120.2597335285
 21
188.570002381
  0
LINE
  8
0
 62
7
  6
CONTINUOUS
 10
120.3652724719
 20
188.5642095927
 11
120.4371858466
 21
188.6917888138
  0
LINE
  8
0
 62
7
  6
CONTINUOUS
 10
119.846266762
 20
188.4348648658
 11
119.9431165993
 21
188.5873805592
  0
LINE
  8
0
 62
7
  6
CONTINUOUS
 10
117.5381864479
 20
186.1546174749
 11
117.6240161367
 21
186.2682800965
  0
LINE
  8
0
 62
7
  6
CONTINUOUS
 10
117.5683502855
 20
186.3239459477
 11
117.4326473728
 21
186.1604101095
  0
LINE
  8
0
 62
9
  6
CONTINUOUS
 10
101.4633857692
 20
175.7344143247
 11
131.8689773602
 21
206.1400059157
  0
LINE
  8
0
 62
7
  6
CONTINUOUS
 10
102.5240459409
 20
174.6737541529
 11
132.929637532
 21
205.079345744
  0
LINE
  8
0
 62
9
  6
CONTINUOUS
 10
103.5847061127
 20
173.6130939812
 11
133.9902977037
 21
204.0186855722
  0
LINE
  8
0
 62
7
  6
CONTINUOUS
 10
121.9212287264
 20
190.6489914631
 11
121.757692906
 21
190.5132885683
  0
LINE
  8
0
 62
7
  6
CONTINUOUS
 10
120.1507327416
 20
188.8784954783
 11
120.0370701236
 21
188.7926657859
  0
LINE
  8
0
 62
7
  6
CONTINUOUS
 10
122.009954877
 20
190.709884688
 11
121.9212287264
 21
190.6489914631
  0
LINE
  8
0
 62
7
  6
CONTINUOUS
 10
121.838295296
 20
190.4825592558
 11
122.0157476173
 21
190.6043457211
  0
LINE
  8
0
 62
7
  6
CONTINUOUS
 10
120.2145224247
 20
188.9144522358
 11
120.1507327416
 21
188.8784954783
  0
LINE
  8
0
 62
7
  6
CONTINUOUS
 10
121.8869681545
 20
189.8354089667
 11
122.0145473042
 21
189.9073222701
  0
LINE
  8
0
 62
7
  6
CONTINUOUS
 10
120.0927359748
 20
188.7369999347
 11
120.2203150581
 21
188.8089131618
  0
LINE
  8
0
 62
7
  6
CONTINUOUS
 10
121.1110382826
 20
189.1151449412
 11
121.0472487434
 21
189.0791883251
  0
LINE
  8
0
 62
7
  6
CONTINUOUS
 10
120.1135757318
 20
188.1176823904
 11
120.0497863353
 21
188.0817259171
  0
LINE
  8
0
 62
7
  6
CONTINUOUS
 10
117.9371713541
 20
186.553602381
 11
118.000961036
 21
186.5895591397
  0
LINE
  8
0
 62
7
  6
CONTINUOUS
 10
122.1125974992
 20
190.7568614591
 11
122.009954877
 21
190.709884688
  0
LINE
  8
0
 62
7
  6
CONTINUOUS
 10
121.9838180323
 20
189.9879246909
 11
121.8811753857
 21
189.9409478907
  0
LINE
  8
0
 62
7
  6
CONTINUOUS
 10
120.9892518303
 20
188.9376926425
 11
121.0918944412
 21
188.9846694071
  0
LINE
  8
0
 62
7
  6
CONTINUOUS
 10
120.0167260323
 20
187.9651668446
 11
120.1193686432
 21
188.0121436091
  0
LINE
  8
0
 62
7
  6
CONTINUOUS
 10
118.0728742631
 20
186.717138223
 11
117.9702316498
 21
186.6701614608
  0
LINE
  8
0
 62
7
  6
CONTINUOUS
 10
118.7698978082
 20
186.7183386204
 11
118.8725404191
 21
186.765315385
  0
LINE
  8
0
 62
7
  6
CONTINUOUS
 10
118.1209818397
 20
186.3199189605
 11
118.2236244506
 21
186.3668957251
  0
LINE
  8
0
 62
7
  6
CONTINUOUS
 10
117.6605381563
 20
186.0821387015
 11
117.5578955453
 21
186.0351619369
  0
LINE
  8
0
 62
7
  6
CONTINUOUS
 10
118.2955376826
 20
186.4944748035
 11
118.1540421232
 21
186.4364780525
  0
LINE
  8
0
 62
7
  6
CONTINUOUS
 10
117.4859823133
 20
185.9075828585
 11
117.6274778533
 21
185.965579629
  0
LINE
  8
0
 62
7
  6
CONTINUOUS
 10
77.7926063137
 20
228.1754052195
 11
77.6695969467
 21
228.1426647926
  0
LINE
  8
0
 62
7
  6
CONTINUOUS
 10
77.3775152579
 20
229.8364999741
 11
77.0474241598
 21
229.7772156961
  0
LINE
  8
0
 62
7
  6
CONTINUOUS
 10
82.58812823
 20
232.8806581643
 11
82.9182193399
 21
232.9399424304
  0
LINE
  8
0
 62
7
  6
CONTINUOUS
 10
81.8553392122
 20
234.3143239284
 11
81.6482574811
 21
234.2877800774
  0
LINE
  8
0
 62
7
  6
CONTINUOUS
 10
82.7226031394
 20
234.4594363354
 11
82.9296848705
 21
234.4859801864
  0
LINE
  8
0
 62
7
  6
CONTINUOUS
 10
81.8402608878
 20
235.6532799573
 11
81.5491067926
 21
235.6329326822
  0
LINE
  8
0
 62
7
  6
CONTINUOUS
 10
115.8631573462
 20
234.9339272001
 11
116.4727070993
 21
234.9562602801
  0
LINE
  8
0
 62
7
  6
CONTINUOUS
 10
116.8337828595
 20
235.3173360402
 11
116.2242332328
 21
235.2950030866
  0
LINE
  8
0
 62
7
  6
CONTINUOUS
 10
117.6770738112
 20
234.2032382683
 11
117.3007972268
 21
234.2184390926
  0
LINE
  8
0
 62
7
  6
CONTINUOUS
 10
112.6344026752
 20
235.8156892407
 11
115.8327554041
 21
235.6864809154
  0
LINE
  8
0
 62
7
  6
CONTINUOUS
 10
115.6783508236
 20
236.0214233759
 11
112.4310632787
 21
236.1995665173
  0
LINE
  8
0
 62
7
  6
CONTINUOUS
 10
81.504900839
 20
233.9638855552
 11
81.841188513
 21
233.9390974691
  0
LINE
  8
0
 62
7
  6
CONTINUOUS
 10
83.0730415126
 20
234.8098747086
 11
82.7367538386
 21
234.8346627947
  0
LINE
  8
0
 62
7
  6
CONTINUOUS
 10
81.7809766098
 20
235.3231888593
 11
81.9491204468
 21
235.3107948162
  0
LINE
  8
0
 62
7
  6
CONTINUOUS
 10
86.4216745592
 20
238.1585077552
 11
86.5898192874
 21
238.1461146034
  0
LINE
  8
0
 62
7
  6
CONTINUOUS
 10
118.1217550986
 20
232.4947915677
 11
115.6232209228
 21
232.7366020531
  0
LINE
  8
0
 62
7
  6
CONTINUOUS
 10
116.0146988916
 20
232.3451240843
 11
118.231025489
 21
232.1147143572
  0
LINE
  8
0
 62
7
  6
CONTINUOUS
 10
86.7783103996
 20
238.4248746555
 11
86.4809597284
 21
238.4885997445
  0
LINE
  8
0
 62
7
  6
CONTINUOUS
 10
85.8756208728
 20
239.3275641822
 11
85.5782702017
 21
239.3912892712
  0
LINE
  8
0
 62
7
  6
CONTINUOUS
 10
125.944646892
 20
222.5054450239
 11
125.7527082537
 21
222.6071147222
  0
LINE
  8
0
 62
7
  6
CONTINUOUS
 10
126.1209167979
 20
223.9540162282
 11
126.3128554362
 21
223.8523465299
  0
LINE
  8
0
 62
7
  6
CONTINUOUS
 10
126.8882029146
 20
224.7213023448
 11
127.0801415529
 21
224.6196326466
  0
LINE
  8
0
 62
7
  6
CONTINUOUS
 10
122.533480839
 20
227.9025279473
 11
122.3415422007
 21
228.0041976455
  0
LINE
  8
0
 62
7
  6
CONTINUOUS
 10
125.478101896
 20
222.4303763166
 11
125.7679096104
 21
222.2308375501
  0
LINE
  8
0
 62
7
  6
CONTINUOUS
 10
126.5874617624
 20
224.0290849039
 11
126.2976540519
 21
224.2286236743
  0
LINE
  8
0
 62
9
  6
CONTINUOUS
 10
131.8689773602
 20
211.089753384
 11
103.5847062804
 21
239.3740244638
  0
LINE
  8
0
 62
7
  6
CONTINUOUS
 10
101.4027255974
 20
241.6062575109
 11
100.4027255974
 21
242.6062575109
  0
LINE
  8
0
 62
7
  6
CONTINUOUS
 10
132.929637532
 20
212.1504135558
 11
104.6453664522
 21
240.4346846356
  0
LINE
  8
0
 62
9
  6
CONTINUOUS
 10
102.4633857692
 20
242.6669176827
 11
101.4633857692
 21
243.6669176827
  0
LINE
  8
0
 62
9
  6
CONTINUOUS
 10
133.9902977037
 20
213.2110737276
 11
105.7060266239
 21
241.4953448074
  0
LINE
  8
0
 62
7
  6
CONTINUOUS
 10
112.069987487
 20
235.8384907256
 11
114.0273763506
 21
233.8811018619
  0
LINE
  8
0
 62
7
  6
CONTINUOUS
 10
114.7124625159
 20
233.1960156966
 11
115.0060708524
 21
232.9024073601
  0
LINE
  8
0
 62
7
  6
CONTINUOUS
 10
115.3975485412
 20
232.5109296714
 11
117.1591988405
 21
230.7492793721
  0
LINE
  8
0
 62
7
  6
CONTINUOUS
 10
119.8995429416
 20
228.008935271
 11
120.1931512781
 21
227.7153269344
  0
LINE
  8
0
 62
7
  6
CONTINUOUS
 10
122.1016060257
 20
225.8068721869
 11
122.3952143622
 21
225.5132638503
  0
LINE
  8
0
 62
7
  6
CONTINUOUS
 10
123.7653858528
 20
224.1430923598
 11
124.0589941893
 21
223.8494840232
  0
LINE
  8
0
 62
7
  6
CONTINUOUS
 10
125.2334275355
 20
222.675050677
 11
125.478101896
 21
222.4303763166
  0
LINE
  8
0
 62
7
  6
CONTINUOUS
 10
118.9004419735
 20
232.9798701061
 11
118.7949719292
 21
233.2658780304
  0
LINE
  8
0
 62
7
  6
CONTINUOUS
 10
118.4714302269
 20
233.1380750326
 11
118.5279654552
 21
232.9010019243
  0
LINE
  8
0
 62
7
  6
CONTINUOUS
 10
123.4551718161
 20
228.3348713234
 11
123.3948359618
 21
228.6660139979
  0
LINE
  8
0
 62
7
  6
CONTINUOUS
 10
127.1523454819
 20
222.8323186042
 11
127.1409447237
 21
223.1145261825
  0
LINE
  8
0
 62
7
  6
CONTINUOUS
 10
122.399615838
 20
190.320223727
 11
122.4465926114
 21
190.4228663469
  0
LINE
  8
0
 62
7
  6
CONTINUOUS
 10
120.4986443191
 20
188.5305839008
 11
120.462687703
 21
188.4667943616
  0
LINE
  8
0
 62
7
  6
CONTINUOUS
 10
121.5970534188
 20
190.3248161555
 11
121.5251401191
 21
190.1972370021
  0
LINE
  8
0
 62
7
  6
CONTINUOUS
 10
120.5931632371
 20
188.485938203
 11
120.6291198531
 21
188.5497277422
  0
LINE
  8
0
 62
7
  6
CONTINUOUS
 10
122.2940768783
 20
190.3260164601
 11
122.2581202088
 21
190.2622268674
  0
LINE
  8
0
 62
7
  6
CONTINUOUS
 10
122.3387226118
 20
190.2314975777
 11
122.399615838
 21
190.320223727
  0
LINE
  8
0
 62
7
  6
CONTINUOUS
 10
118.2433335383
 20
186.2474401969
 11
118.1575038447
 21
186.1337775801
  0
LINE
  8
0
 62
7
  6
CONTINUOUS
 10
119.0911768563
 20
187.0952835148
 11
119.0053468773
 21
186.9816206127
  0
LINE
  8
0
 62
7
  6
CONTINUOUS
 10
120.2597335285
 20
188.570002381
 11
120.1739036922
 21
188.4563396215
  0
LINE
  8
0
 62
7
  6
CONTINUOUS
 10
119.0610127236
 20
186.9259547663
 11
119.1468427026
 21
187.0396176685
  0
LINE
  8
0
 62
7
  6
CONTINUOUS
 10
120.462687703
 20
188.4667943616
 11
120.3768578667
 21
188.3531316022
  0
LINE
  8
0
 62
7
  6
CONTINUOUS
 10
121.3105308783
 20
189.3146375369
 11
121.224701042
 21
189.2009747774
  0
LINE
  8
0
 62
7
  6
CONTINUOUS
 10
121.2803668884
 20
189.1453089311
 11
121.3661967247
 21
189.2589716906
  0
LINE
  8
0
 62
7
  6
CONTINUOUS
 10
122.2581202088
 20
190.2622268674
 11
122.1722904082
 21
190.1485641436
  0
LINE
  8
0
 62
7
  6
CONTINUOUS
 10
119.8874507481
 20
188.6430464104
 11
119.7766844456
 21
188.5044471823
  0
LINE
  8
0
 62
7
  6
CONTINUOUS
 10
118.213169691
 20
186.0781117337
 11
118.3488726049
 21
186.2416475708
  0
LINE
  8
0
 62
7
  6
CONTINUOUS
 10
120.229569558
 20
188.4006737557
 11
120.3652724719
 21
188.5642095927
  0
LINE
  8
0
 62
7
  6
CONTINUOUS
 10
122.2030197158
 20
190.0679617585
 11
122.3387226118
 21
190.2314975777
  0
LINE
  8
0
 62
7
  6
CONTINUOUS
 10
121.757692906
 20
190.5132885683
 11
121.5970534188
 21
190.3248161555
  0
LINE
  8
0
 62
7
  6
CONTINUOUS
 10
121.6776558482
 20
190.2940868751
 11
121.838295296
 21
190.4825592558
  0
LINE
  8
0
 62
7
  6
CONTINUOUS
 10
120.4325237131
 20
188.2974657558
 11
120.5931632371
 21
188.485938203
  0
LINE
  8
0
 62
7
  6
CONTINUOUS
 10
121.1841519785
 20
189.9397476408
 11
121.0594691418
 21
189.8150648041
  0
LINE
  8
0
 62
7
  6
CONTINUOUS
 10
120.6106110154
 20
189.3662066777
 11
120.48592825
 21
189.2415239123
  0
LINE
  8
0
 62
7
  6
CONTINUOUS
 10
120.0370701236
 20
188.7926657859
 11
119.8874507481
 21
188.6430464104
  0
LINE
  8
0
 62
7
  6
CONTINUOUS
 10
119.6131486073
 20
188.3687442696
 11
119.4884656993
 21
188.2440613616
  0
LINE
  8
0
 62
7
  6
CONTINUOUS
 10
119.2889731035
 20
188.0445687658
 11
119.1642904808
 21
187.9198861431
  0
LINE
  8
0
 62
7
  6
CONTINUOUS
 10
118.9647978851
 20
187.7203935474
 11
118.840114977
 21
187.5957106393
  0
LINE
  8
0
 62
7
  6
CONTINUOUS
 10
118.3912568506
 20
187.1468525129
 11
118.266574228
 21
187.0221698902
  0
LINE
  8
0
 62
7
  6
CONTINUOUS
 10
117.7179696609
 20
186.4735653232
 11
117.5683502855
 21
186.3239459477
  0
LINE
  8
0
 62
7
  6
CONTINUOUS
 10
117.6240161367
 20
186.2682800965
 11
117.7736355122
 21
186.417899472
  0
LINE
  8
0
 62
7
  6
CONTINUOUS
 10
119.9431165993
 20
188.5873805592
 11
120.0927359748
 21
188.7369999347
  0
LINE
  8
0
 62
7
  6
CONTINUOUS
 10
118.0537304266
 20
186.586662684
 11
118.1784133346
 21
186.711345592
  0
LINE
  8
0
 62
7
  6
CONTINUOUS
 10
121.522809067
 20
190.0000754585
 11
121.6474919036
 21
190.1247582952
  0
LINE
  8
0
 62
7
  6
CONTINUOUS
 10
120.1739036922
 20
188.4563396215
 11
119.8996014087
 21
188.182037338
  0
LINE
  8
0
 62
7
  6
CONTINUOUS
 10
119.9552672745
 20
188.1263714722
 11
120.229569558
 21
188.4006737557
  0
LINE
  8
0
 62
7
  6
CONTINUOUS
 10
121.8144894622
 20
189.9577607366
 11
121.6898066255
 21
189.8330779
  0
LINE
  8
0
 62
7
  6
CONTINUOUS
 10
120.6204307714
 20
188.7080361995
 11
120.495748006
 21
188.5833534341
  0
LINE
  8
0
 62
7
  6
CONTINUOUS
 10
117.7277895596
 20
185.8153949877
 11
117.603106937
 21
185.6907123651
  0
LINE
  8
0
 62
7
  6
CONTINUOUS
 10
120.3768578667
 20
188.3531316022
 11
120.2272384913
 21
188.2035122267
  0
LINE
  8
0
 62
7
  6
CONTINUOUS
 10
118.1575038447
 20
186.1337775801
 11
118.0078844692
 21
185.9841582046
  0
LINE
  8
0
 62
7
  6
CONTINUOUS
 10
118.0635503155
 20
185.9284923582
 11
118.213169691
 21
186.0781117337
  0
LINE
  8
0
 62
7
  6
CONTINUOUS
 10
118.9612665684
 20
186.8262086111
 11
119.0610127236
 21
186.9259547663
  0
LINE
  8
0
 62
7
  6
CONTINUOUS
 10
119.2854417868
 20
187.1503838295
 11
119.4101246949
 21
187.2750667376
  0
LINE
  8
0
 62
7
  6
CONTINUOUS
 10
119.6096172906
 20
187.4745593333
 11
119.7342999133
 21
187.599241956
  0
LINE
  8
0
 62
7
  6
CONTINUOUS
 10
120.2829043376
 20
188.1478463803
 11
120.4325237131
 21
188.2974657558
  0
LINE
  8
0
 62
7
  6
CONTINUOUS
 10
121.1806205905
 20
189.0455626332
 11
121.2803668884
 21
189.1453089311
  0
LINE
  8
0
 62
7
  6
CONTINUOUS
 10
119.8734645682
 20
187.4600773011
 11
119.7487819455
 21
187.3353946785
  0
LINE
  8
0
 62
7
  6
CONTINUOUS
 10
119.8183642534
 20
187.2658123705
 11
119.9430468761
 21
187.3904949932
  0
LINE
  8
0
 62
7
  6
CONTINUOUS
 10
121.7135429144
 20
189.1609910315
 11
121.8382257511
 21
189.2856738682
  0
LINE
  8
0
 62
7
  6
CONTINUOUS
 10
122.252325136
 20
189.4522858797
 11
122.0743686171
 21
189.2743293608
  0
LINE
  8
0
 62
7
  6
CONTINUOUS
 10
121.5452183549
 20
188.7451790985
 11
120.9441775909
 21
188.1441383345
  0
LINE
  8
0
 62
7
  6
CONTINUOUS
 10
120.8027562346
 20
188.0027169783
 11
120.2017154706
 21
187.4016762143
  0
LINE
  8
0
 62
7
  6
CONTINUOUS
 10
119.3885426722
 20
186.5885034159
 11
118.7875019082
 21
185.9874626519
  0
LINE
  8
0
 62
7
  6
CONTINUOUS
 10
118.646080552
 20
185.8460412957
 11
118.045039788
 21
185.2450005317
  0
LINE
  8
0
 62
7
  6
CONTINUOUS
 10
122.3937464923
 20
188.6037577423
 11
122.6765892048
 21
188.8866004548
  0
LINE
  8
0
 62
7
  6
CONTINUOUS
 10
120.9795329299
 20
185.9167519738
 11
120.6966902174
 21
185.6339092613
  0
LINE
  8
0
 62
7
  6
CONTINUOUS
 10
119.6713853847
 20
183.6186549349
 11
120.2724261487
 21
184.219695699
  0
LINE
  8
0
 62
7
  6
CONTINUOUS
 10
121.1209542861
 20
185.0682238364
 11
121.2989108051
 21
185.2461803554
  0
LINE
  8
0
 62
7
  6
CONTINUOUS
 10
121.8280610673
 20
185.7753306176
 11
122.4291018313
 21
186.3763713816
  0
LINE
  8
0
 62
7
  6
CONTINUOUS
 10
122.5705231876
 20
186.5177927378
 11
123.1715639516
 21
187.1188335018
  0
LINE
  8
0
 62
7
  6
CONTINUOUS
 10
123.98473675
 20
187.9320063002
 11
124.585777514
 21
188.5330470642
  0
LINE
  8
0
 62
7
  6
CONTINUOUS
 10
122.1722904082
 20
190.1485641436
 11
121.9838180323
 21
189.9879246909
  0
LINE
  8
0
 62
7
  6
CONTINUOUS
 10
122.0145473042
 20
189.9073222701
 11
122.2030197158
 21
190.0679617585
  0
LINE
  8
0
 62
7
  6
CONTINUOUS
 10
117.8815054992
 20
186.6092682359
 11
117.7179696609
 21
186.4735653232
  0
LINE
  8
0
 62
7
  6
CONTINUOUS
 10
117.7736355122
 20
186.417899472
 11
117.9371713541
 21
186.553602381
  0
LINE
  8
0
 62
7
  6
CONTINUOUS
 10
120.1193686432
 20
188.0121436091
 11
120.2829043376
 21
188.1478463803
  0
LINE
  8
0
 62
7
  6
CONTINUOUS
 10
118.0078844692
 20
185.9841582046
 11
117.8443486321
 21
185.8484552907
  0
LINE
  8
0
 62
7
  6
CONTINUOUS
 10
117.9000144785
 20
185.7927894443
 11
118.0635503155
 21
185.9284923582
  0
LINE
  8
0
 62
7
  6
CONTINUOUS
 10
121.224701042
 20
189.2009747774
 11
121.1110382826
 21
189.1151449412
  0
LINE
  8
0
 62
7
  6
CONTINUOUS
 10
120.2272384913
 20
188.2035122267
 11
120.1135757318
 21
188.1176823904
  0
LINE
  8
0
 62
7
  6
CONTINUOUS
 10
119.0053468773
 20
186.9816206127
 11
118.8916842605
 21
186.8957909191
  0
LINE
  8
0
 62
7
  6
CONTINUOUS
 10
118.1540421232
 20
186.4364780525
 11
117.6605381563
 21
186.0821387015
  0
LINE
  8
0
 62
7
  6
CONTINUOUS
 10
117.6274778533
 20
185.965579629
 11
118.1209818397
 21
186.3199189605
  0
LINE
  8
0
 62
7
  6
CONTINUOUS
 10
121.0918944412
 20
188.9846694071
 11
121.1806205905
 21
189.0455626332
  0
LINE
  8
0
 62
7
  6
CONTINUOUS
 10
117.9702316498
 20
186.6701614608
 11
117.8815054992
 21
186.6092682359
  0
LINE
  8
0
 62
7
  6
CONTINUOUS
 10
118.8725404191
 20
186.765315385
 11
118.9612665684
 21
186.8262086111
  0
LINE
  8
0
 62
7
  6
CONTINUOUS
 10
117.8112883291
 20
185.7318962182
 11
117.9000144785
 21
185.7927894443
  0
LINE
  8
0
 62
7
  6
CONTINUOUS
 10
118.8916842605
 20
186.8957909191
 11
118.8278945786
 21
186.8598341604
  0
LINE
  8
0
 62
7
  6
CONTINUOUS
 10
117.8443486321
 20
185.8484552907
 11
117.7805589502
 21
185.812498532
  0
LINE
  8
0
 62
7
  6
CONTINUOUS
 10
117.7086457182
 20
185.6849194536
 11
117.8112883291
 21
185.7318962182
  0
LINE
  8
0
 62
7
  6
CONTINUOUS
 10
81.841188513
 20
233.9390974691
 11
82.0872081382
 21
234.0045792142
  0
LINE
  8
0
 62
7
  6
CONTINUOUS
 10
82.7367538386
 20
234.8346627947
 11
82.4907342134
 21
234.7691810496
  0
LINE
  8
0
 62
7
  6
CONTINUOUS
 10
86.4809597284
 20
238.4885997445
 11
86.3579494702
 21
238.4558584263
  0
LINE
  8
0
 62
7
  6
CONTINUOUS
 10
85.5782702017
 20
239.3912892712
 11
85.2871169977
 21
239.3709428873
  0
LINE
  8
0
 62
9
  6
CONTINUOUS
 10
103.2311528898
 20
239.5204710733
 11
102.8169391598
 21
239.5204710733
  0
LINE
  8
0
 62
9
  6
CONTINUOUS
 10
95.1600849103
 20
239.5204710733
 11
94.7458711802
 21
239.5204710733
  0
LINE
  8
0
 62
7
  6
CONTINUOUS
 10
103.2311528898
 20
241.0204710733
 11
102.8169391598
 21
241.0204710733
  0
LINE
  8
0
 62
7
  6
CONTINUOUS
 10
95.1600849103
 20
241.0204710733
 11
94.7458711802
 21
241.0204710733
  0
LINE
  8
0
 62
7
  6
CONTINUOUS
 10
85.5189850325
 20
239.0611972819
 11
85.6871297607
 21
239.0488041301
  0
LINE
  8
0
 62
7
  6
CONTINUOUS
 10
117.5492710933
 20
233.8796962861
 11
117.7863442016
 21
233.8231610578
  0
LINE
  8
0
 62
7
  6
CONTINUOUS
 10
117.9630817356
 20
234.097768224
 11
117.6770738112
 21
234.2032382683
  0
LINE
  8
0
 62
7
  6
CONTINUOUS
 10
122.0218002845
 20
227.7823259215
 11
122.311608555
 21
227.5827865911
  0
LINE
  8
0
 62
7
  6
CONTINUOUS
 10
127.3547478791
 20
224.7963710206
 11
127.0649401686
 21
224.995909791
  0
LINE
  8
0
 62
7
  6
CONTINUOUS
 10
117.7863442016
 20
233.8231610578
 11
118.0761521921
 21
233.6236220074
  0
LINE
  8
0
 62
7
  6
CONTINUOUS
 10
118.3507593583
 20
233.8003595414
 11
117.9630817356
 21
234.097768224
  0
LINE
  8
0
 62
7
  6
CONTINUOUS
 10
125.7527082537
 20
222.6071147222
 11
125.4101659411
 21
222.9496570348
  0
LINE
  8
0
 62
7
  6
CONTINUOUS
 10
117.3848712221
 20
230.9749517538
 11
116.0146988916
 21
232.3451240843
  0
LINE
  8
0
 62
7
  6
CONTINUOUS
 10
114.2981832023
 20
234.1519087136
 11
112.6344026752
 21
235.8156892407
  0
LINE
  8
0
 62
7
  6
CONTINUOUS
 10
123.13256621
 20
225.8591394094
 11
124.1112614118
 21
224.8804442075
  0
LINE
  8
0
 62
7
  6
CONTINUOUS
 10
124.2428641958
 20
225.1099171837
 11
123.3620391861
 21
225.9907421933
  0
LINE
  8
0
 62
7
  6
CONTINUOUS
 10
121.1409752749
 20
228.6631509312
 11
122.0218002845
 21
227.7823259215
  0
LINE
  8
0
 62
7
  6
CONTINUOUS
 10
126.3128554362
 20
223.8523465299
 11
126.6553977489
 21
223.5098042173
  0
LINE
  8
0
 62
7
  6
CONTINUOUS
 10
122.3415422007
 20
228.0041976455
 11
121.4117820949
 21
228.9339577513
  0
LINE
  8
0
 62
7
  6
CONTINUOUS
 10
126.8321361229
 20
223.7844105434
 11
126.5874617624
 21
224.0290849039
  0
LINE
  8
0
 62
7
  6
CONTINUOUS
 10
117.0713245307
 20
234.0868360287
 11
117.3159980511
 21
233.8421625082
  0
LINE
  8
0
 62
7
  6
CONTINUOUS
 10
127.4944204781
 20
223.6637400812
 11
127.7390937186
 21
223.4190668408
  0
LINE
  8
0
 62
7
  6
CONTINUOUS
 10
113.9656354804
 20
237.7341387191
 11
115.6783508236
 21
236.0214233759
  0
LINE
  8
0
 62
7
  6
CONTINUOUS
 10
118.0761521921
 20
233.6236220074
 11
118.2718911765
 21
233.427883023
  0
LINE
  8
0
 62
7
  6
CONTINUOUS
 10
122.0887992716
 20
229.6109749279
 11
123.0185593773
 21
228.6812148222
  0
LINE
  8
0
 62
7
  6
CONTINUOUS
 10
127.0801415529
 20
224.6196326466
 11
127.3737498895
 21
224.32602431
  0
LINE
  8
0
 62
7
  6
CONTINUOUS
 10
127.5504871434
 20
224.6006317562
 11
127.3547478791
 21
224.7963710206
  0
LINE
  8
0
 62
7
  6
CONTINUOUS
 10
125.3973597154
 20
226.7537591842
 11
125.0058811867
 21
227.145237713
  0
LINE
  8
0
 62
7
  6
CONTINUOUS
 10
123.1952966313
 20
228.9558222683
 11
122.0208632851
 21
230.1302556145
  0
LINE
  8
0
 62
7
  6
CONTINUOUS
 10
118.5464980626
 20
233.604620837
 11
118.3507593583
 21
233.8003595414
  0
LINE
  8
0
 62
7
  6
CONTINUOUS
 10
117.127391196
 20
235.0237277037
 11
116.8337828595
 21
235.3173360402
  0
LINE
  8
0
 62
7
  6
CONTINUOUS
 10
116.1486966942
 20
236.0024222055
 11
114.1913078305
 21
237.9598110691
  0
LINE
  8
0
 62
7
  6
CONTINUOUS
 10
118.7949719292
 20
233.2658780304
 11
118.5464980626
 21
233.604620837
  0
LINE
  8
0
 62
7
  6
CONTINUOUS
 10
125.033888769
 20
222.9648583914
 11
125.2334275355
 21
222.675050677
  0
LINE
  8
0
 62
7
  6
CONTINUOUS
 10
118.2718911765
 20
233.427883023
 11
118.4714302269
 21
233.1380750326
  0
LINE
  8
0
 62
7
  6
CONTINUOUS
 10
123.3948359618
 20
228.6660139979
 11
123.1952966313
 21
228.9558222683
  0
LINE
  8
0
 62
7
  6
CONTINUOUS
 10
127.0316748933
 20
223.494602833
 11
126.8321361229
 21
223.7844105434
  0
LINE
  8
0
 62
7
  6
CONTINUOUS
 10
127.7500259139
 20
224.3108240458
 11
127.5504871434
 21
224.6006317562
  0
LINE
  8
0
 62
7
  6
CONTINUOUS
 10
125.4101659411
 20
222.9496570348
 11
125.3084962429
 21
223.1415956731
  0
LINE
  8
0
 62
7
  6
CONTINUOUS
 10
123.0185593773
 20
228.6812148222
 11
123.1202290756
 21
228.4892761839
  0
LINE
  8
0
 62
7
  6
CONTINUOUS
 10
126.6553977489
 20
223.5098042173
 11
126.7570674471
 21
223.317865579
  0
LINE
  8
0
 62
7
  6
CONTINUOUS
 10
127.3737498895
 20
224.32602431
 11
127.4754195877
 21
224.1340856718
  0
LINE
  8
0
 62
7
  6
CONTINUOUS
 10
124.9246189505
 20
223.3449350538
 11
125.033888769
 21
222.9648583914
  0
LINE
  8
0
 62
7
  6
CONTINUOUS
 10
127.1409447237
 20
223.1145261825
 11
127.0316748933
 21
223.494602833
  0
LINE
  8
0
 62
7
  6
CONTINUOUS
 10
127.8592968643
 20
223.9307462752
 11
127.7500259139
 21
224.3108240458
  0
LINE
  8
0
 62
7
  6
CONTINUOUS
 10
125.3084962429
 20
223.1415956731
 11
125.2519610146
 21
223.3786687814
  0
LINE
  8
0
 62
7
  6
CONTINUOUS
 10
126.7570674471
 20
223.317865579
 11
126.8136026754
 21
223.0807924707
  0
LINE
  8
0
 62
7
  6
CONTINUOUS
 10
127.4754195877
 20
224.1340856718
 11
127.531954816
 21
223.8970125634
  0
POLYLINE
  8
0
 62
7
  6
CONTINUOUS
 66
1
 70
0
  0
VERTEX
  8
0
 62
7
  6
CONTINUOUS
 10
134.2313355773
 20
204.2730842782
  0
VERTEX
  8
0
 62
7
  6
CONTINUOUS
 10
134.5136400178
 20
204.9507503345
  0
VERTEX
  8
0
 62
7
  6
CONTINUOUS
 10
134.7610816814
 20
205.6809262848
  0
VERTEX
  8
0
 62
7
  6
CONTINUOUS
 10
134.9558732942
 20
206.4298357687
  0
VERTEX
  8
0
 62
7
  6
CONTINUOUS
 10
135.0917427361
 20
207.1730063625
  0
VERTEX
  8
0
 62
7
  6
CONTINUOUS
 10
135.1703722406
 20
207.8999721857
  0
VERTEX
  8
0
 62
7
  6
CONTINUOUS
 10
135.1959396085
 20
208.614874079
  0
VERTEX
  8
0
 62
7
  6
CONTINUOUS
 10
135.170372985
 20
209.3297767137
  0
VERTEX
  8
0
 62
7
  6
CONTINUOUS
 10
135.0917442401
 20
210.0567425565
  0
VERTEX
  8
0
 62
7
  6
CONTINUOUS
 10
134.9558756188
 20
210.7999130126
  0
VERTEX
  8
0
 62
7
  6
CONTINUOUS
 10
134.7610850864
 20
211.5488216487
  0
VERTEX
  8
0
 62
7
  6
CONTINUOUS
 10
134.5136437871
 20
212.2789990111
  0
VERTEX
  8
0
 62
7
  6
CONTINUOUS
 10
134.2313355773
 20
212.9566750216
  0
SEQEND
  0
POLYLINE
  8
0
 62
7
  6
CONTINUOUS
 66
1
 70
0
  0
VERTEX
  8
0
 62
7
  6
CONTINUOUS
 10
98.988512035
 20
244.4080935771
  0
VERTEX
  8
0
 62
7
  6
CONTINUOUS
 10
98.4909097675
 20
244.3871050118
  0
VERTEX
  8
0
 62
7
  6
CONTINUOUS
 10
97.9878716411
 20
244.3230800802
  0
VERTEX
  8
0
 62
7
  6
CONTINUOUS
 10
97.4871380682
 20
244.2161807762
  0
VERTEX
  8
0
 62
7
  6
CONTINUOUS
 10
96.9939144364
 20
244.0680794871
  0
SEQEND
  0
LINE
  8
0
 62
9
  6
CONTINUOUS
 10
103.2311528898
 20
242.5204710733
 11
102.8169391598
 21
242.5204710733
  0
LINE
  8
0
 62
9
  6
CONTINUOUS
 10
95.1600849103
 20
242.5204710733
 11
94.7458711802
 21
242.5204710733
  0
POLYLINE
  8
0
 62
7
  6
CONTINUOUS
 66
1
 70
0
  0
VERTEX
  8
0
 62
7
  6
CONTINUOUS
 10
100.9831096337
 20
244.0680794871
  0
VERTEX
  8
0
 62
7
  6
CONTINUOUS
 10
100.4902146984
 20
244.2160963182
  0
VERTEX
  8
0
 62
7
  6
CONTINUOUS
 10
99.9895526525
 20
244.3230119123
  0
VERTEX
  8
0
 62
7
  6
CONTINUOUS
 10
99.4863931097
 20
244.3870814726
  0
VERTEX
  8
0
 62
7
  6
CONTINUOUS
 10
98.988512035
 20
244.4080935771
  0
SEQEND
  0
POLYLINE
  8
0
 62
9
  6
CONTINUOUS
 66
1
 70
0
  0
VERTEX
  8
0
 62
9
  6
CONTINUOUS
 10
136.1629953199
 20
226.8362350469
  0
VERTEX
  8
0
 62
9
  6
CONTINUOUS
 10
136.1765602727
 20
226.7109208522
  0
VERTEX
  8
0
 62
9
  6
CONTINUOUS
 10
136.1899442919
 20
226.5691697785
  0
VERTEX
  8
0
 62
9
  6
CONTINUOUS
 10
136.2204817935
 20
226.214691575
  0
SEQEND
  0
POLYLINE
  8
0
 62
9
  6
CONTINUOUS
 66
1
 70
0
  0
VERTEX
  8
0
 62
9
  6
CONTINUOUS
 10
136.2204817935
 20
226.214691575
  0
VERTEX
  8
0
 62
9
  6
CONTINUOUS
 10
136.242811356
 20
225.9930386899
  0
VERTEX
  8
0
 62
9
  6
CONTINUOUS
 10
136.2772669157
 20
225.7371110753
  0
VERTEX
  8
0
 62
9
  6
CONTINUOUS
 10
136.3328626001
 20
225.4487637263
  0
VERTEX
  8
0
 62
9
  6
CONTINUOUS
 10
136.4163576373
 20
225.1460217743
  0
VERTEX
  8
0
 62
9
  6
CONTINUOUS
 10
136.5267204499
 20
224.8535036371
  0
SEQEND
  0
LINE
  8
0
 62
9
  6
CONTINUOUS
 10
141.4457354782
 20
206.1737238445
 11
141.4773049246
 21
205.6747214698
  0
LINE
  8
0
 62
9
  6
CONTINUOUS
 10
141.4457354782
 20
211.0560354552
 11
141.4773049246
 21
211.55503783
  0
POLYLINE
  8
0
 62
9
  6
CONTINUOUS
 66
1
 70
0
  0
VERTEX
  8
0
 62
9
  6
CONTINUOUS
 10
136.1899475461
 20
190.6606260236
  0
VERTEX
  8
0
 62
9
  6
CONTINUOUS
 10
136.176564068
 20
190.5188761144
  0
VERTEX
  8
0
 62
9
  6
CONTINUOUS
 10
136.1629953199
 20
190.3935242529
  0
SEQEND
  0
POLYLINE
  8
0
 62
9
  6
CONTINUOUS
 66
1
 70
0
  0
VERTEX
  8
0
 62
9
  6
CONTINUOUS
 10
136.5267204499
 20
192.3762556627
  0
VERTEX
  8
0
 62
9
  6
CONTINUOUS
 10
136.4163208263
 20
192.0836241171
  0
VERTEX
  8
0
 62
9
  6
CONTINUOUS
 10
136.3328477891
 20
191.7809311212
  0
VERTEX
  8
0
 62
9
  6
CONTINUOUS
 10
136.2771957695
 20
191.4922003973
  0
VERTEX
  8
0
 62
9
  6
CONTINUOUS
 10
136.242774821
 20
191.2363986003
  0
VERTEX
  8
0
 62
9
  6
CONTINUOUS
 10
136.2204806619
 20
191.0150552691
  0
VERTEX
  8
0
 62
9
  6
CONTINUOUS
 10
136.1899475461
 20
190.6606260236
  0
SEQEND
  0
POLYLINE
  8
0
 62
9
  6
CONTINUOUS
 66
1
 70
0
  0
VERTEX
  8
0
 62
9
  6
CONTINUOUS
 10
140.2932366308
 20
205.8077946727
  0
VERTEX
  8
0
 62
9
  6
CONTINUOUS
 10
140.2423271271
 20
205.6924869202
  0
VERTEX
  8
0
 62
9
  6
CONTINUOUS
 10
140.183042491
 20
205.5630348798
  0
VERTEX
  8
0
 62
9
  6
CONTINUOUS
 10
140.0322496413
 20
205.2407789997
  0
SEQEND
  0
POLYLINE
  8
0
 62
9
  6
CONTINUOUS
 66
1
 70
0
  0
VERTEX
  8
0
 62
9
  6
CONTINUOUS
 10
140.0322496413
 20
205.2407789997
  0
VERTEX
  8
0
 62
9
  6
CONTINUOUS
 10
139.9407611672
 20
205.037657189
  0
VERTEX
  8
0
 62
9
  6
CONTINUOUS
 10
139.8426367499
 20
204.7987895934
  0
VERTEX
  8
0
 62
9
  6
CONTINUOUS
 10
139.7466103504
 20
204.5212756219
  0
VERTEX
  8
0
 62
9
  6
CONTINUOUS
 10
139.6675481977
 20
204.217345882
  0
VERTEX
  8
0
 62
9
  6
CONTINUOUS
 10
139.6168661285
 20
203.9088363379
  0
SEQEND
  0
LINE
  8
0
 62
9
  6
CONTINUOUS
 10
134.5369682083
 20
185.2721649863
 11
134.3148069635
 21
184.82423153
  0
LINE
  8
0
 62
9
  6
CONTINUOUS
 10
136.9781240137
 20
189.5003708703
 11
137.2549651436
 21
189.9167348802
  0
POLYLINE
  8
0
 62
9
  6
CONTINUOUS
 66
1
 70
0
  0
VERTEX
  8
0
 62
9
  6
CONTINUOUS
 10
122.2287734317
 20
174.465322148
  0
VERTEX
  8
0
 62
9
  6
CONTINUOUS
 10
122.1463080451
 20
174.3492548647
  0
VERTEX
  8
0
 62
9
  6
CONTINUOUS
 10
122.0718812338
 20
174.2474813423
  0
SEQEND
  0
POLYLINE
  8
0
 62
9
  6
CONTINUOUS
 66
1
 70
0
  0
VERTEX
  8
0
 62
9
  6
CONTINUOUS
 10
123.3782421413
 20
175.782714547
  0
VERTEX
  8
0
 62
9
  6
CONTINUOUS
 10
123.1363174898
 20
175.5844880064
  0
VERTEX
  8
0
 62
9
  6
CONTINUOUS
 10
122.9126812212
 20
175.364084701
  0
VERTEX
  8
0
 62
9
  6
CONTINUOUS
 10
122.7201197965
 20
175.141862569
  0
VERTEX
  8
0
 62
9
  6
CONTINUOUS
 10
122.5624094821
 20
174.9375421887
  0
VERTEX
  8
0
 62
9
  6
CONTINUOUS
 10
122.4324305084
 20
174.7570003205
  0
VERTEX
  8
0
 62
9
  6
CONTINUOUS
 10
122.2287734317
 20
174.465322148
  0
SEQEND
  0
POLYLINE
  8
0
 62
9
  6
CONTINUOUS
 66
1
 70
0
  0
VERTEX
  8
0
 62
9
  6
CONTINUOUS
 10
133.3559103426
 20
185.5315104511
  0
VERTEX
  8
0
 62
9
  6
CONTINUOUS
 10
133.254167543
 20
185.4571057601
  0
VERTEX
  8
0
 62
9
  6
CONTINUOUS
 10
133.1380995218
 20
185.3746393226
  0
VERTEX
  8
0
 62
9
  6
CONTINUOUS
 10
132.8463811432
 20
185.1709539687
  0
SEQEND
  0
POLYLINE
  8
0
 62
9
  6
CONTINUOUS
 66
1
 70
0
  0
VERTEX
  8
0
 62
9
  6
CONTINUOUS
 10
132.8463811432
 20
185.1709539687
  0
VERTEX
  8
0
 62
9
  6
CONTINUOUS
 10
132.6655888952
 20
185.0407895577
  0
VERTEX
  8
0
 62
9
  6
CONTINUOUS
 10
132.4611768592
 20
184.8829863604
  0
VERTEX
  8
0
 62
9
  6
CONTINUOUS
 10
132.2392585721
 20
184.6906654109
  0
VERTEX
  8
0
 62
9
  6
CONTINUOUS
 10
132.0188238694
 20
184.4669856116
  0
VERTEX
  8
0
 62
9
  6
CONTINUOUS
 10
131.8206771379
 20
184.2251495436
  0
SEQEND
  0
LINE
  8
0
 62
9
  6
CONTINUOUS
 10
118.1030208146
 20
170.6252676712
 11
117.6866568047
 21
170.3484265413
  0
LINE
  8
0
 62
9
  6
CONTINUOUS
 10
122.3312266986
 20
173.0664234766
 11
122.779160155
 21
173.2885847214
  0
POLYLINE
  8
0
 62
9
  6
CONTINUOUS
 66
1
 70
0
  0
VERTEX
  8
0
 62
9
  6
CONTINUOUS
 10
102.0403900442
 20
167.4203646269
  0
VERTEX
  8
0
 62
9
  6
CONTINUOUS
 10
101.9109392828
 20
167.3610801043
  0
VERTEX
  8
0
 62
9
  6
CONTINUOUS
 10
101.7955970122
 20
167.3101550541
  0
SEQEND
  0
POLYLINE
  8
0
 62
9
  6
CONTINUOUS
 66
1
 70
0
  0
VERTEX
  8
0
 62
9
  6
CONTINUOUS
 10
94.282468723
 20
249.2432337434
  0
VERTEX
  8
0
 62
9
  6
CONTINUOUS
 10
94.5910948871
 20
249.2939406375
  0
VERTEX
  8
0
 62
9
  6
CONTINUOUS
 10
94.8949712297
 20
249.3729973647
  0
VERTEX
  8
0
 62
9
  6
CONTINUOUS
 10
95.1728453813
 20
249.469166664
  0
VERTEX
  8
0
 62
9
  6
CONTINUOUS
 10
95.4115867102
 20
249.5672581466
  0
VERTEX
  8
0
 62
9
  6
CONTINUOUS
 10
95.6144227375
 20
249.6586225041
  0
VERTEX
  8
0
 62
9
  6
CONTINUOUS
 10
95.9366340258
 20
249.8093946729
  0
SEQEND
  0
POLYLINE
  8
0
 62
9
  6
CONTINUOUS
 66
1
 70
0
  0
VERTEX
  8
0
 62
9
  6
CONTINUOUS
 10
80.767156638
 20
245.7893629347
  0
VERTEX
  8
0
 62
9
  6
CONTINUOUS
 10
80.8924708327
 20
245.8029278875
  0
VERTEX
  8
0
 62
9
  6
CONTINUOUS
 10
81.0342219064
 20
245.8163119068
  0
VERTEX
  8
0
 62
9
  6
CONTINUOUS
 10
81.3887001099
 20
245.8468494083
  0
SEQEND
  0
POLYLINE
  8
0
 62
9
  6
CONTINUOUS
 66
1
 70
0
  0
VERTEX
  8
0
 62
9
  6
CONTINUOUS
 10
81.3887001099
 20
245.8468494083
  0
VERTEX
  8
0
 62
9
  6
CONTINUOUS
 10
81.610352995
 20
245.8691789709
  0
VERTEX
  8
0
 62
9
  6
CONTINUOUS
 10
81.8662806096
 20
245.9036345306
  0
VERTEX
  8
0
 62
9
  6
CONTINUOUS
 10
82.1546279586
 20
245.959230215
  0
VERTEX
  8
0
 62
9
  6
CONTINUOUS
 10
82.4573699106
 20
246.0427252522
  0
VERTEX
  8
0
 62
9
  6
CONTINUOUS
 10
82.7498880478
 20
246.1530880648
  0
SEQEND
  0
LINE
  8
0
 62
9
  6
CONTINUOUS
 10
101.4296678404
 20
251.0721030931
 11
101.9286702152
 21
251.1036725395
  0
LINE
  8
0
 62
9
  6
CONTINUOUS
 10
96.5473562297
 20
251.0721030931
 11
96.0483538549
 21
251.1036725395
  0
POLYLINE
  8
0
 62
9
  6
CONTINUOUS
 66
1
 70
0
  0
VERTEX
  8
0
 62
9
  6
CONTINUOUS
 10
116.9427656613
 20
245.816315161
  0
VERTEX
  8
0
 62
9
  6
CONTINUOUS
 10
117.0845155705
 20
245.8029316829
  0
VERTEX
  8
0
 62
9
  6
CONTINUOUS
 10
117.209867432
 20
245.7893629347
  0
SEQEND
  0
POLYLINE
  8
0
 62
9
  6
CONTINUOUS
 66
1
 70
0
  0
VERTEX
  8
0
 62
9
  6
CONTINUOUS
 10
115.2271360222
 20
246.1530880648
  0
VERTEX
  8
0
 62
9
  6
CONTINUOUS
 10
115.5197675678
 20
246.0426884412
  0
VERTEX
  8
0
 62
9
  6
CONTINUOUS
 10
115.8224605637
 20
245.959215404
  0
VERTEX
  8
0
 62
9
  6
CONTINUOUS
 10
116.1111912876
 20
245.9035633844
  0
VERTEX
  8
0
 62
9
  6
CONTINUOUS
 10
116.3669930846
 20
245.8691424359
  0
VERTEX
  8
0
 62
9
  6
CONTINUOUS
 10
116.5883364158
 20
245.8468482768
  0
VERTEX
  8
0
 62
9
  6
CONTINUOUS
 10
116.9427656613
 20
245.816315161
  0
SEQEND
  0
POLYLINE
  8
0
 62
9
  6
CONTINUOUS
 66
1
 70
0
  0
VERTEX
  8
0
 62
9
  6
CONTINUOUS
 10
101.7955970122
 20
249.9196042456
  0
VERTEX
  8
0
 62
9
  6
CONTINUOUS
 10
101.9109047647
 20
249.868694742
  0
VERTEX
  8
0
 62
9
  6
CONTINUOUS
 10
102.0403568051
 20
249.8094101058
  0
VERTEX
  8
0
 62
9
  6
CONTINUOUS
 10
102.3626126852
 20
249.6586172562
  0
SEQEND
  0
POLYLINE
  8
0
 62
9
  6
CONTINUOUS
 66
1
 70
0
  0
VERTEX
  8
0
 62
9
  6
CONTINUOUS
 10
102.3626126852
 20
249.6586172562
  0
VERTEX
  8
0
 62
9
  6
CONTINUOUS
 10
102.5657344959
 20
249.5671287821
  0
VERTEX
  8
0
 62
9
  6
CONTINUOUS
 10
102.8046020915
 20
249.4690043648
  0
VERTEX
  8
0
 62
9
  6
CONTINUOUS
 10
103.082116063
 20
249.3729779653
  0
VERTEX
  8
0
 62
9
  6
CONTINUOUS
 10
103.3860458028
 20
249.2939158126
  0
VERTEX
  8
0
 62
9
  6
CONTINUOUS
 10
103.694555347
 20
249.2432337434
  0
SEQEND
  0
LINE
  8
0
 62
9
  6
CONTINUOUS
 10
122.3312266986
 20
244.1633358232
 11
122.7791601549
 21
243.9411745783
  0
LINE
  8
0
 62
9
  6
CONTINUOUS
 10
118.1030208146
 20
246.6044916285
 11
117.6866568047
 21
246.8813327585
  0
POLYLINE
  8
0
 62
9
  6
CONTINUOUS
 66
1
 70
0
  0
VERTEX
  8
0
 62
9
  6
CONTINUOUS
 10
133.1380695369
 20
231.8551410466
  0
VERTEX
  8
0
 62
9
  6
CONTINUOUS
 10
133.2541368202
 20
231.77267566
  0
VERTEX
  8
0
 62
9
  6
CONTINUOUS
 10
133.3559103426
 20
231.6982488486
  0
SEQEND
  0
POLYLINE
  8
0
 62
9
  6
CONTINUOUS
 66
1
 70
0
  0
VERTEX
  8
0
 62
9
  6
CONTINUOUS
 10
131.8206771379
 20
233.0046097561
  0
VERTEX
  8
0
 62
9
  6
CONTINUOUS
 10
132.0189036785
 20
232.7626851047
  0
VERTEX
  8
0
 62
9
  6
CONTINUOUS
 10
132.2393069839
 20
232.5390488361
  0
VERTEX
  8
0
 62
9
  6
CONTINUOUS
 10
132.4615291159
 20
232.3464874114
  0
VERTEX
  8
0
 62
9
  6
CONTINUOUS
 10
132.6658494962
 20
232.188777097
  0
VERTEX
  8
0
 62
9
  6
CONTINUOUS
 10
132.8463913644
 20
232.0587981233
  0
VERTEX
  8
0
 62
9
  6
CONTINUOUS
 10
133.1380695369
 20
231.8551410466
  0
SEQEND
  0
POLYLINE
  8
0
 62
9
  6
CONTINUOUS
 66
1
 70
0
  0
VERTEX
  8
0
 62
9
  6
CONTINUOUS
 10
122.0718812338
 20
242.9822779575
  0
VERTEX
  8
0
 62
9
  6
CONTINUOUS
 10
122.1462859248
 20
242.8805351578
  0
VERTEX
  8
0
 62
9
  6
CONTINUOUS
 10
122.2287523623
 20
242.7644671367
  0
VERTEX
  8
0
 62
9
  6
CONTINUOUS
 10
122.4324377162
 20
242.4727487581
  0
SEQEND
  0
POLYLINE
  8
0
 62
9
  6
CONTINUOUS
 66
1
 70
0
  0
VERTEX
  8
0
 62
9
  6
CONTINUOUS
 10
122.4324377162
 20
242.4727487581
  0
VERTEX
  8
0
 62
9
  6
CONTINUOUS
 10
122.5626021272
 20
242.29195651
  0
VERTEX
  8
0
 62
9
  6
CONTINUOUS
 10
122.7204053245
 20
242.0875444741
  0
VERTEX
  8
0
 62
9
  6
CONTINUOUS
 10
122.912726274
 20
241.865626187
  0
VERTEX
  8
0
 62
9
  6
CONTINUOUS
 10
123.1364060733
 20
241.6451914843
  0
VERTEX
  8
0
 62
9
  6
CONTINUOUS
 10
123.3782421413
 20
241.4470447528
  0
SEQEND
  0
LINE
  8
0
 62
9
  6
CONTINUOUS
 10
136.9781240137
 20
227.7293884295
 11
137.2549651436
 21
227.3130244195
  0
LINE
  8
0
 62
9
  6
CONTINUOUS
 10
134.5369682083
 20
231.9575943135
 11
134.3148069635
 21
232.4055277698
  0
POLYLINE
  8
0
 62
9
  6
CONTINUOUS
 66
1
 70
0
  0
VERTEX
  8
0
 62
9
  6
CONTINUOUS
 10
140.183027058
 20
211.6667576591
  0
VERTEX
  8
0
 62
9
  6
CONTINUOUS
 10
140.2423115806
 20
211.5373068977
  0
VERTEX
  8
0
 62
9
  6
CONTINUOUS
 10
140.2932366308
 20
211.4219646271
  0
SEQEND
  0
POLYLINE
  8
0
 62
9
  6
CONTINUOUS
 66
1
 70
0
  0
VERTEX
  8
0
 62
9
  6
CONTINUOUS
 10
139.6168661285
 20
213.3209229619
  0
VERTEX
  8
0
 62
9
  6
CONTINUOUS
 10
139.6675730226
 20
213.0122967978
  0
VERTEX
  8
0
 62
9
  6
CONTINUOUS
 10
139.7466297499
 20
212.7084204552
  0
VERTEX
  8
0
 62
9
  6
CONTINUOUS
 10
139.8427990491
 20
212.4305463036
  0
VERTEX
  8
0
 62
9
  6
CONTINUOUS
 10
139.9408905317
 20
212.1918049747
  0
VERTEX
  8
0
 62
9
  6
CONTINUOUS
 10
140.0322548892
 20
211.9889689474
  0
VERTEX
  8
0
 62
9
  6
CONTINUOUS
 10
140.183027058
 20
211.6667576591
  0
SEQEND
  0
LINE
  8
0
 62
9
  6
CONTINUOUS
 10
146.1078110329
 20
206.4686706257
 11
146.1393804793
 21
205.9696682509
  0
LINE
  8
0
 62
9
  6
CONTINUOUS
 10
146.1078110329
 20
210.7610886741
 11
146.1393804793
 21
211.2600910489
  0
LINE
  8
0
 62
9
  6
CONTINUOUS
 10
138.7219174636
 20
183.1965586141
 11
138.4997562187
 21
182.7486251578
  0
LINE
  8
0
 62
9
  6
CONTINUOUS
 10
140.8681264878
 20
186.9139016878
 11
141.1449676178
 21
187.3302656977
  0
LINE
  8
0
 62
9
  6
CONTINUOUS
 10
120.6894899971
 20
166.7352651971
 11
120.2731259872
 21
166.4584240671
  0
LINE
  8
0
 62
9
  6
CONTINUOUS
 10
124.4068330708
 20
168.8814742213
 11
124.8547665271
 21
169.1036354662
  0
LINE
  8
0
 62
9
  6
CONTINUOUS
 10
101.1347210592
 20
255.7341786478
 11
101.6337234341
 21
255.7657480941
  0
LINE
  8
0
 62
9
  6
CONTINUOUS
 10
96.8423030108
 20
255.7341786478
 11
96.343300636
 21
255.7657480942
  0
LINE
  8
0
 62
9
  6
CONTINUOUS
 10
124.4068330708
 20
248.3482850785
 11
124.8547665271
 21
248.1261238336
  0
LINE
  8
0
 62
9
  6
CONTINUOUS
 10
120.6894899971
 20
250.4944941027
 11
120.2731259872
 21
250.7713352326
  0
LINE
  8
0
 62
9
  6
CONTINUOUS
 10
140.8681264878
 20
230.315857612
 11
141.1449676178
 21
229.8994936021
  0
LINE
  8
0
 62
9
  6
CONTINUOUS
 10
138.7219174636
 20
234.0332006857
 11
138.4997562187
 21
234.481134142
  0
LINE
  8
0
 62
7
  6
CONTINUOUS
 10
148.3878131844
 20
208.3521136924
 11
148.3878131844
 21
208.8776456073
  0
LINE
  8
0
 62
7
  6
CONTINUOUS
 10
141.6381787809
 20
183.6876670808
 11
141.9009447383
 21
184.1427910696
  0
LINE
  8
0
 62
7
  6
CONTINUOUS
 10
123.4606006153
 20
165.7024469466
 11
123.9157246041
 21
165.965212904
  0
LINE
  8
0
 62
7
  6
CONTINUOUS
 10
99.2512779925
 20
258.0141807993
 11
98.7257460776
 21
258.0141807993
  0
LINE
  8
0
 62
7
  6
CONTINUOUS
 10
123.9157246041
 20
251.2645463958
 11
123.4606006153
 21
251.5273123532
  0
LINE
  8
0
 62
7
  6
CONTINUOUS
 10
141.9009447383
 20
233.0869682302
 11
141.6381787809
 21
233.542092219
  0
LINE
  8
0
 62
7
  6
CONTINUOUS
 10
49.588512035
 20
105.8074398249
 11
49.588512035
 21
102.8074398249
  0
LINE
  8
0
 62
7
  6
CONTINUOUS
 10
55.760893876
 20
102.8074398249
 11
55.760893876
 21
105.8074398249
  0
LINE
  8
0
 62
7
  6
CONTINUOUS
 10
58.088512035
 20
111.3074398249
 11
58.088512035
 21
106.8074398249
  0
LINE
  8
0
 62
7
  6
CONTINUOUS
 10
58.088512035
 20
101.8074398249
 11
58.088512035
 21
97.3074398249
  0
LINE
  8
0
 62
7
  6
CONTINUOUS
 10
63.582920444
 20
93.3074398249
 11
63.582920444
 21
96.3074398249
  0
LINE
  8
0
 62
7
  6
CONTINUOUS
 10
63.582920444
 20
112.3074398249
 11
63.582920444
 21
115.3074398249
  0
LINE
  8
0
 62
7
  6
CONTINUOUS
 10
72.8723381332
 20
102.8074398249
 11
72.8723381332
 21
105.8074398249
  0
POLYLINE
  8
0
 62
7
  6
CONTINUOUS
 66
1
 70
0
  0
VERTEX
  8
0
 62
7
  6
CONTINUOUS
 10
61.8820917981
 20
106.3198409284
  0
VERTEX
  8
0
 62
7
  6
CONTINUOUS
 10
61.8854274325
 20
106.322063955
  0
VERTEX
  8
0
 62
7
  6
CONTINUOUS
 10
61.8748735469
 20
106.3174093455
  0
VERTEX
  8
0
 62
7
  6
CONTINUOUS
 10
61.8453375403
 20
106.3098809398
  0
VERTEX
  8
0
 62
7
  6
CONTINUOUS
 10
61.8144177775
 20
106.3074393846
  0
SEQEND
  0
LINE
  8
0
 62
7
  6
CONTINUOUS
 10
132.8941036242
 20
91.8074398249
 11
65.0829204458
 21
91.8074398249
  0
LINE
  8
0
 62
7
  6
CONTINUOUS
 10
138.888512035
 20
96.3074398249
 11
59.088512035
 21
96.3074398249
  0
POLYLINE
  8
0
 62
7
  6
CONTINUOUS
 66
1
 70
0
  0
VERTEX
  8
0
 62
7
  6
CONTINUOUS
 10
61.8143952482
 20
102.3074405552
  0
VERTEX
  8
0
 62
7
  6
CONTINUOUS
 10
61.8460152984
 20
102.3048885711
  0
VERTEX
  8
0
 62
7
  6
CONTINUOUS
 10
61.8751973653
 20
102.2973500998
  0
VERTEX
  8
0
 62
7
  6
CONTINUOUS
 10
61.8844643792
 20
102.2933365012
  0
SEQEND
  0
LINE
  8
DEFAULT_1
 62
2
  6
CENTER
 10
98.988512035
 20
94.3074398249
 11
98.988512035
 21
114.3074398249
  0
LINE
  8
0
 62
7
  6
CONTINUOUS
 10
147.8885111586
 20
102.3074398249
 11
133.3559103217
 21
102.3074398249
  0
LINE
  8
0
 62
7
  6
CONTINUOUS
 10
124.6046818461
 20
102.3074398249
 11
117.2098673975
 21
102.3074398249
  0
LINE
  8
0
 62
7
  6
CONTINUOUS
 10
101.7955970511
 20
102.3074398249
 11
96.181427019
 21
102.3074398249
  0
LINE
  8
0
 62
7
  6
CONTINUOUS
 10
80.7671566725
 20
102.3074398249
 11
73.3723421624
 21
102.3074398249
  0
LINE
  8
0
 62
7
  6
CONTINUOUS
 10
64.6211137483
 20
102.3074398249
 11
50.0885128657
 21
102.3074398249
  0
LINE
  8
0
 62
7
  6
CONTINUOUS
 10
50.0885128657
 20
106.3074398249
 11
64.6211136977
 21
106.3074398249
  0
LINE
  8
0
 62
7
  6
CONTINUOUS
 10
73.3723421624
 20
106.3074398249
 11
80.767156589
 21
106.3074398249
  0
LINE
  8
0
 62
7
  6
CONTINUOUS
 10
96.1814271141
 20
106.3074398249
 11
101.7955969571
 21
106.3074398249
  0
LINE
  8
0
 62
7
  6
CONTINUOUS
 10
117.2098674821
 20
106.3074398249
 11
124.6046818461
 21
106.3074398249
  0
LINE
  8
0
 62
7
  6
CONTINUOUS
 10
133.355910373
 20
106.3074398249
 11
147.8885111586
 21
106.3074398249
  0
POLYLINE
  8
0
 62
7
  6
CONTINUOUS
 66
1
 70
0
  0
VERTEX
  8
0
 62
7
  6
CONTINUOUS
 10
136.162626741
 20
106.3074393696
  0
VERTEX
  8
0
 62
7
  6
CONTINUOUS
 10
136.1310196678
 20
106.309988938
  0
VERTEX
  8
0
 62
7
  6
CONTINUOUS
 10
136.1018253754
 20
106.3175300719
  0
VERTEX
  8
0
 62
7
  6
CONTINUOUS
 10
136.092556703
 20
106.3215449032
  0
SEQEND
  0
LINE
  8
0
 62
7
  6
CONTINUOUS
 10
138.888512035
 20
112.3074398249
 11
59.088512035
 21
112.3074398249
  0
LINE
  8
0
 62
7
  6
CONTINUOUS
 10
65.0829204458
 20
116.8074398249
 11
132.894103626
 21
116.8074398249
  0
POLYLINE
  8
0
 62
7
  6
CONTINUOUS
 66
1
 70
0
  0
VERTEX
  8
0
 62
7
  6
CONTINUOUS
 10
136.0949309134
 20
102.2950375218
  0
VERTEX
  8
0
 62
7
  6
CONTINUOUS
 10
136.0916003672
 20
102.2928179259
  0
VERTEX
  8
0
 62
7
  6
CONTINUOUS
 10
136.1021521138
 20
102.297470928
  0
VERTEX
  8
0
 62
7
  6
CONTINUOUS
 10
136.1316752062
 20
102.3049965093
  0
VERTEX
  8
0
 62
7
  6
CONTINUOUS
 10
136.1626069186
 20
102.3074405352
  0
SEQEND
  0
LINE
  8
0
 62
7
  6
CONTINUOUS
 10
125.1046859368
 20
102.8074398249
 11
125.1046859368
 21
105.8074398249
  0
LINE
  8
0
 62
7
  6
CONTINUOUS
 10
134.394103626
 20
93.3074398249
 11
134.394103626
 21
96.3074398249
  0
LINE
  8
0
 62
7
  6
CONTINUOUS
 10
134.394103626
 20
112.3074398249
 11
134.394103626
 21
115.3074398249
  0
LINE
  8
0
 62
7
  6
CONTINUOUS
 10
139.888512035
 20
111.3074398249
 11
139.888512035
 21
106.8074398249
  0
LINE
  8
0
 62
7
  6
CONTINUOUS
 10
139.888512035
 20
101.8074398249
 11
139.888512035
 21
97.3074398249
  0
LINE
  8
0
 62
7
  6
CONTINUOUS
 10
142.216130194
 20
102.8074398249
 11
142.216130194
 21
105.8074398249
  0
LINE
  8
0
 62
7
  6
CONTINUOUS
 10
148.388512035
 20
105.8074398249
 11
148.388512035
 21
102.8074398249
  0
ARC
  8
0
 62
9
  6
CONTINUOUS
 10
73.4061300898
 20
174.1772297009
 40
2.5
 50
333.62
 51
1.610261494
  0
ARC
  8
0
 62
9
  6
CONTINUOUS
 10
64.550862086
 20
183.0324977047
 40
2.5
 50
88.389738507
 51
116.38
  0
ARC
  8
0
 62
7
  6
CONTINUOUS
 10
58.410893876
 20
184.8987057481
 40
2.4
 50
210.3047662218
 51
296.38
  0
ARC
  8
0
 62
7
  6
CONTINUOUS
 10
75.2723381332
 20
168.0372614909
 40
2.4
 50
153.62
 51
239.6952337782
  0
ARC
  8
0
 62
7
  6
CONTINUOUS
 10
64.550862086
 20
183.0324977047
 40
2.0
 50
36.6072117191
 51
116.38
  0
ARC
  8
0
 62
7
  6
CONTINUOUS
 10
73.4061300898
 20
174.1772297009
 40
2.0
 50
333.62
 51
53.3927882809
  0
ARC
  8
0
 62
9
  6
CONTINUOUS
 10
75.2723381332
 20
168.0372614909
 40
1.8999999735
 50
153.62
 51
239.6952337782
  0
ARC
  8
0
 62
9
  6
CONTINUOUS
 10
58.410893876
 20
184.8987057481
 40
1.8999999735
 50
210.3047662218
 51
296.38
  0
ARC
  8
0
 62
7
  6
CONTINUOUS
 10
72.5738037702
 20
202.2198332676
 40
3.2
 50
45.0
 51
87.7455692247
  0
ARC
  8
0
 62
7
  6
CONTINUOUS
 10
74.6951241138
 20
200.0985129241
 40
3.2
 50
3.5903778907
 51
45.0
  0
ARC
  8
0
 62
9
  6
CONTINUOUS
 10
59.6146944067
 20
191.58219092
 40
2.5
 50
303.62
 51
331.6102614938
  0
ARC
  8
0
 62
9
  6
CONTINUOUS
 10
56.3734413599
 20
203.6787119706
 40
2.5
 50
58.3897385068
 51
86.38
  0
ARC
  8
0
 62
7
  6
CONTINUOUS
 10
51.9891769333
 20
208.3648796499
 40
2.4
 50
180.3047662218
 51
266.38
  0
ARC
  8
0
 62
7
  6
CONTINUOUS
 10
58.160893876
 20
185.33171845
 40
2.4
 50
123.62
 51
209.6952337782
  0
ARC
  8
0
 62
7
  6
CONTINUOUS
 10
56.3734413599
 20
203.6787119706
 40
2.0
 50
6.6072117191
 51
86.38
  0
ARC
  8
0
 62
7
  6
CONTINUOUS
 10
59.6146944067
 20
191.58219092
 40
2.0
 50
303.62
 51
23.3927882809
  0
ARC
  8
0
 62
9
  6
CONTINUOUS
 10
58.160893876
 20
185.33171845
 40
1.8999999735
 50
123.62
 51
209.6952337782
  0
ARC
  8
0
 62
9
  6
CONTINUOUS
 10
51.9891769333
 20
208.3648796499
 40
1.8999999735
 50
180.3047662218
 51
266.38
  0
ARC
  8
0
 62
7
  6
CONTINUOUS
 10
90.4721453092
 20
184.3214917287
 40
3.2
 50
45.0
 51
86.4096221093
  0
ARC
  8
0
 62
7
  6
CONTINUOUS
 10
92.5934656528
 20
182.2001713851
 40
3.2
 50
2.2544307753
 51
45.0
  0
ARC
  8
0
 62
9
  6
CONTINUOUS
 10
94.0523443557
 20
165.9998089748
 40
2.5
 50
3.62
 51
31.6102614938
  0
ARC
  8
0
 62
9
  6
CONTINUOUS
 10
81.9558233051
 20
169.2410620215
 40
2.5
 50
118.3897385067
 51
146.38
  0
ARC
  8
0
 62
7
  6
CONTINUOUS
 10
75.7053508351
 20
167.7872614909
 40
2.4
 50
240.3047662218
 51
326.38
  0
ARC
  8
0
 62
7
  6
CONTINUOUS
 10
98.738512035
 20
161.6155445482
 40
2.4
 50
183.62
 51
269.6952337782
  0
ARC
  8
0
 62
7
  6
CONTINUOUS
 10
81.9558233051
 20
169.2410620215
 40
2.0
 50
66.6072117191
 51
146.38
  0
ARC
  8
0
 62
7
  6
CONTINUOUS
 10
94.0523443557
 20
165.9998089748
 40
2.0
 50
3.62
 51
83.3927882809
  0
ARC
  8
0
 62
9
  6
CONTINUOUS
 10
98.738512035
 20
161.6155445482
 40
1.8999999735
 50
183.62
 51
269.6952337782
  0
ARC
  8
0
 62
9
  6
CONTINUOUS
 10
75.7053508351
 20
167.7872614909
 40
1.8999999735
 50
240.3047662218
 51
326.38
  0
ARC
  8
0
 62
7
  6
CONTINUOUS
 10
81.0825625729
 20
200.4992995643
 40
3.2
 50
183.5903778907
 51
225.0
  0
ARC
  8
0
 62
7
  6
CONTINUOUS
 10
90.8729319495
 20
190.7089301878
 40
3.2
 50
225.0
 51
266.4096221093
  0
ARC
  8
0
 62
9
  6
CONTINUOUS
 10
68.582920444
 20
208.6148796499
 40
6.5
 50
135.0
 51
138.0890938971
  0
ARC
  8
0
 62
9
  6
CONTINUOUS
 10
68.582920444
 20
208.6148796499
 40
6.5
 50
221.9109047033
 51
225.0
  0
ARC
  8
0
 62
7
  6
CONTINUOUS
 10
68.582920444
 20
208.6148796499
 40
5.0
 50
135.0
 51
225.0
  0
ARC
  8
0
 62
9
  6
CONTINUOUS
 10
68.582920444
 20
208.6148796499
 40
3.4999999939
 50
135.0
 51
225.0
  0
ARC
  8
0
 62
7
  6
CONTINUOUS
 10
74.6951241138
 20
217.1312463757
 40
3.2
 50
315.0
 51
356.4096221093
  0
ARC
  8
0
 62
7
  6
CONTINUOUS
 10
72.5738037702
 20
215.0099260321
 40
3.2
 50
272.2544307753
 51
315.0
  0
ARC
  8
0
 62
7
  6
CONTINUOUS
 10
72.8255611311
 20
208.6148796499
 40
3.2
 50
92.2544307753
 51
267.7455692247
  0
ARC
  8
0
 62
9
  6
CONTINUOUS
 10
56.3734413599
 20
213.5510473292
 40
2.5
 50
273.62
 51
301.6102614941
  0
ARC
  8
0
 62
9
  6
CONTINUOUS
 10
59.6146944067
 20
225.6475683798
 40
2.5
 50
28.3897385066
 51
56.38
  0
ARC
  8
0
 62
7
  6
CONTINUOUS
 10
58.160893876
 20
231.8980408498
 40
2.4
 50
150.3047662218
 51
236.38
  0
ARC
  8
0
 62
7
  6
CONTINUOUS
 10
51.9891769333
 20
208.8648796499
 40
2.4
 50
93.62
 51
179.6952337782
  0
ARC
  8
0
 62
7
  6
CONTINUOUS
 10
59.6146944067
 20
225.6475683798
 40
2.0
 50
336.6072117191
 51
56.38
  0
ARC
  8
0
 62
7
  6
CONTINUOUS
 10
56.3734413599
 20
213.5510473292
 40
2.0
 50
273.62
 51
353.3927882809
  0
ARC
  8
0
 62
9
  6
CONTINUOUS
 10
51.9891769333
 20
208.8648796499
 40
1.8999999735
 50
93.62
 51
179.6952337782
  0
ARC
  8
0
 62
9
  6
CONTINUOUS
 10
58.160893876
 20
231.8980408498
 40
1.8999999735
 50
150.3047662218
 51
236.38
  0
ARC
  8
0
 62
9
  6
CONTINUOUS
 10
64.550862086
 20
234.1972615951
 40
2.5
 50
243.62
 51
271.6102614939
  0
ARC
  8
0
 62
9
  6
CONTINUOUS
 10
73.4061300898
 20
243.0525295989
 40
2.5
 50
358.3897385068
 51
26.38
  0
ARC
  8
0
 62
7
  6
CONTINUOUS
 10
75.2723381332
 20
249.1924978089
 40
2.4
 50
120.3047662218
 51
206.38
  0
ARC
  8
0
 62
7
  6
CONTINUOUS
 10
58.410893876
 20
232.3310535517
 40
2.4
 50
63.62
 51
149.6952337782
  0
ARC
  8
0
 62
7
  6
CONTINUOUS
 10
73.4061300898
 20
243.0525295989
 40
2.0
 50
306.6072117191
 51
26.38
  0
ARC
  8
0
 62
7
  6
CONTINUOUS
 10
64.550862086
 20
234.1972615951
 40
2.0
 50
243.62
 51
323.3927882809
  0
ARC
  8
0
 62
9
  6
CONTINUOUS
 10
58.410893876
 20
232.3310535517
 40
1.8999999735
 50
63.62
 51
149.6952337782
  0
ARC
  8
0
 62
9
  6
CONTINUOUS
 10
75.2723381332
 20
249.1924978089
 40
1.8999999735
 50
120.3047662218
 51
206.38
  0
ARC
  8
0
 62
7
  6
CONTINUOUS
 10
90.8729319495
 20
226.520829112
 40
3.2
 50
93.5903778907
 51
135.0
  0
ARC
  8
0
 62
7
  6
CONTINUOUS
 10
81.0825625729
 20
216.7304597354
 40
3.2
 50
135.0
 51
176.4096221093
  0
ARC
  8
0
 62
9
  6
CONTINUOUS
 10
81.9558233051
 20
247.9886972782
 40
2.5
 50
213.62
 51
241.6102614939
  0
ARC
  8
0
 62
7
  6
CONTINUOUS
 10
75.7053508351
 20
249.4424978089
 40
2.4
 50
33.62
 51
119.6952337782
  0
ARC
  8
0
 62
7
  6
CONTINUOUS
 10
81.9558233051
 20
247.9886972782
 40
2.0
 50
213.62
 51
293.3927882809
  0
ARC
  8
0
 62
9
  6
CONTINUOUS
 10
75.7053508351
 20
249.4424978089
 40
1.8999999735
 50
33.62
 51
119.6952337782
  0
ARC
  8
0
 62
9
  6
CONTINUOUS
 10
95.1600849103
 20
243.0204710733
 40
3.4999999647
 50
270.0
 51
315.0
  0
ARC
  8
0
 62
9
  6
CONTINUOUS
 10
94.7458711802
 20
239.0204710733
 40
3.4999999647
 50
90.0
 51
135.0
  0
ARC
  8
0
 62
7
  6
CONTINUOUS
 10
92.5934656528
 20
235.0295879147
 40
3.2
 50
315.0
 51
357.7455692247
  0
ARC
  8
0
 62
7
  6
CONTINUOUS
 10
90.4721453092
 20
232.9082675711
 40
3.2
 50
273.5903778907
 51
315.0
  0
ARC
  8
0
 62
7
  6
CONTINUOUS
 10
94.7458711802
 20
239.0204710733
 40
2.0
 50
90.0
 51
135.0
  0
ARC
  8
0
 62
7
  6
CONTINUOUS
 10
95.1600849103
 20
243.0204710733
 40
2.0
 50
270.0
 51
315.0
  0
ARC
  8
0
 62
9
  6
CONTINUOUS
 10
94.7458711802
 20
239.0204710733
 40
0.4999999972
 50
90.0
 51
135.0
  0
ARC
  8
0
 62
9
  6
CONTINUOUS
 10
95.1600849103
 20
243.0204710733
 40
0.4999999972
 50
270.0
 51
315.0
  0
ARC
  8
0
 62
9
  6
CONTINUOUS
 10
94.0523443557
 20
251.229950325
 40
2.5
 50
328.3897385067
 51
356.38
  0
ARC
  8
0
 62
7
  6
CONTINUOUS
 10
98.738512035
 20
255.6142147516
 40
2.4
 50
90.3047662218
 51
176.38
  0
ARC
  8
0
 62
7
  6
CONTINUOUS
 10
94.0523443557
 20
251.229950325
 40
2.0
 50
276.6072117191
 51
356.38
  0
ARC
  8
0
 62
9
  6
CONTINUOUS
 10
98.738512035
 20
255.6142147516
 40
1.8999999735
 50
90.3047662218
 51
176.38
  0
ARC
  8
0
 62
9
  6
CONTINUOUS
 10
98.988512035
 20
178.2092880589
 40
6.5
 50
225.0
 51
228.0890351351
  0
ARC
  8
0
 62
9
  6
CONTINUOUS
 10
98.988512035
 20
178.2092880589
 40
6.5
 50
311.9109633806
 51
315.0
  0
ARC
  8
0
 62
7
  6
CONTINUOUS
 10
98.988512035
 20
178.2092880589
 40
5.0
 50
225.0
 51
315.0
  0
ARC
  8
0
 62
9
  6
CONTINUOUS
 10
98.988512035
 20
178.2092880589
 40
3.4999999939
 50
225.0
 51
315.0
  0
ARC
  8
0
 62
7
  6
CONTINUOUS
 10
98.988512035
 20
182.451928746
 40
3.2
 50
182.2544307753
 51
357.7455692247
  0
ARC
  8
0
 62
7
  6
CONTINUOUS
 10
105.3835584173
 20
182.2001713851
 40
3.2
 50
135.0
 51
177.7455692247
  0
ARC
  8
0
 62
7
  6
CONTINUOUS
 10
107.5048787608
 20
184.3214917287
 40
3.2
 50
93.5903778907
 51
135.0
  0
ARC
  8
0
 62
9
  6
CONTINUOUS
 10
116.0212007649
 20
169.2410620215
 40
2.5
 50
33.62
 51
61.6102614939
  0
ARC
  8
0
 62
9
  6
CONTINUOUS
 10
103.9246797143
 20
165.9998089748
 40
2.5
 50
148.3897385067
 51
176.38
  0
ARC
  8
0
 62
7
  6
CONTINUOUS
 10
99.238512035
 20
161.6155445482
 40
2.4
 50
270.3047662218
 51
356.38
  0
ARC
  8
0
 62
7
  6
CONTINUOUS
 10
122.2716732349
 20
167.7872614909
 40
2.4
 50
213.62
 51
299.6952337782
  0
ARC
  8
0
 62
7
  6
CONTINUOUS
 10
103.9246797143
 20
165.9998089748
 40
2.0
 50
96.6072117191
 51
176.38
  0
ARC
  8
0
 62
7
  6
CONTINUOUS
 10
116.0212007649
 20
169.2410620215
 40
2.0
 50
33.62
 51
113.3927882809
  0
ARC
  8
0
 62
9
  6
CONTINUOUS
 10
99.238512035
 20
161.6155445482
 40
1.8999999735
 50
270.3047662218
 51
356.38
  0
ARC
  8
0
 62
9
  6
CONTINUOUS
 10
122.2716732349
 20
167.7872614909
 40
1.8999999735
 50
213.62
 51
299.6952337782
  0
CIRCLE
  8
0
 62
7
  6
CONTINUOUS
 10
120.9795329299
 20
182.9115481538
 40
1.275
  0
ARC
  8
0
 62
7
  6
CONTINUOUS
 10
107.1040921206
 20
190.7089301878
 40
3.2
 50
273.5903778907
 51
315.0
  0
ARC
  8
0
 62
7
  6
CONTINUOUS
 10
116.8944614971
 20
200.4992995643
 40
3.2
 50
315.0
 51
356.4096221093
  0
ARC
  8
0
 62
7
  6
CONTINUOUS
 10
120.413847505
 20
185.7753306176
 40
1.0
 50
225.0
 51
315.0
  0
ARC
  8
0
 62
7
  6
CONTINUOUS
 10
120.6625147021
 20
185.8825764584
 40
0.9
 50
315.0
 51
11.2510114041
  0
ARC
  8
0
 62
7
  6
CONTINUOUS
 10
120.6259795393
 20
186.2703053644
 40
0.5
 50
315.0
 51
45.0
  0
ARC
  8
0
 62
7
  6
CONTINUOUS
 10
120.5199135221
 20
185.8106859566
 40
0.25
 50
225.0
 51
315.0
  0
ARC
  8
0
 62
9
  6
CONTINUOUS
 10
133.426161984
 20
183.0324977047
 40
2.5
 50
63.62
 51
91.6102614939
  0
ARC
  8
0
 62
9
  6
CONTINUOUS
 10
124.5708939802
 20
174.1772297009
 40
2.5
 50
178.3897385068
 51
206.38
  0
ARC
  8
0
 62
7
  6
CONTINUOUS
 10
122.7046859368
 20
168.0372614909
 40
2.4
 50
300.3047662218
 51
26.38
  0
ARC
  8
0
 62
7
  6
CONTINUOUS
 10
139.566130194
 20
184.8987057481
 40
2.4
 50
243.62
 51
329.6952337782
  0
ARC
  8
0
 62
7
  6
CONTINUOUS
 10
124.5708939802
 20
174.1772297009
 40
2.0
 50
126.6072117191
 51
206.38
  0
ARC
  8
0
 62
7
  6
CONTINUOUS
 10
133.426161984
 20
183.0324977047
 40
2.0
 50
63.62
 51
143.3927882809
  0
ARC
  8
0
 62
9
  6
CONTINUOUS
 10
139.566130194
 20
184.8987057481
 40
1.8999999735
 50
243.62
 51
329.6952337782
  0
ARC
  8
0
 62
9
  6
CONTINUOUS
 10
122.7046859368
 20
168.0372614909
 40
1.8999999735
 50
300.3047662218
 51
26.38
  0
ARC
  8
0
 62
7
  6
CONTINUOUS
 10
123.2818999562
 20
200.0985129241
 40
3.2
 50
135.0
 51
176.4096221093
  0
ARC
  8
0
 62
7
  6
CONTINUOUS
 10
125.4032202998
 20
202.2198332676
 40
3.2
 50
92.2544307753
 51
135.0
  0
ARC
  8
0
 62
9
  6
CONTINUOUS
 10
138.3623296634
 20
191.58219092
 40
2.5
 50
208.3897385066
 51
236.38
  0
ARC
  8
0
 62
9
  6
CONTINUOUS
 10
141.6035827101
 20
203.6787119706
 40
2.5
 50
93.62
 51
121.6102614941
  0
ARC
  8
0
 62
7
  6
CONTINUOUS
 10
139.816130194
 20
185.33171845
 40
2.4
 50
330.3047662218
 51
56.38
  0
ARC
  8
0
 62
7
  6
CONTINUOUS
 10
145.9878471367
 20
208.3648796499
 40
2.4
 50
273.62
 51
359.6952337782
  0
ARC
  8
0
 62
7
  6
CONTINUOUS
 10
138.3623296634
 20
191.58219092
 40
2.0
 50
156.6072117191
 51
236.38
  0
ARC
  8
0
 62
7
  6
CONTINUOUS
 10
141.6035827101
 20
203.6787119706
 40
2.0
 50
93.62
 51
173.3927882809
  0
ARC
  8
0
 62
9
  6
CONTINUOUS
 10
139.816130194
 20
185.33171845
 40
1.8999999735
 50
330.3047662218
 51
56.38
  0
ARC
  8
0
 62
9
  6
CONTINUOUS
 10
145.9878471367
 20
208.3648796499
 40
1.8999999735
 50
273.62
 51
359.6952337782
  0
ARC
  8
0
 62
7
  6
CONTINUOUS
 10
122.9594319172
 20
188.7451790985
 40
1.0
 50
45.0
 51
135.0
  0
ARC
  8
0
 62
7
  6
CONTINUOUS
 10
122.7107647201
 20
188.6379332577
 40
0.9
 50
135.0
 51
191.2510114041
  0
ARC
  8
0
 62
7
  6
CONTINUOUS
 10
122.7472998829
 20
188.2502043517
 40
0.5
 50
135.0
 51
225.0
  0
ARC
  8
0
 62
7
  6
CONTINUOUS
 10
122.8533659001
 20
188.7098237595
 40
0.25
 50
45.0
 51
135.0
  0
ARC
  8
0
 62
7
  6
CONTINUOUS
 10
98.988512035
 20
208.6148796499
 40
49.4
 50
89.6952337782
 51
90.3047662218
  0
ARC
  8
0
 62
7
  6
CONTINUOUS
 10
98.988512035
 20
208.6148796499
 40
49.4
 50
119.6952337782
 51
120.3047662218
  0
ARC
  8
0
 62
7
  6
CONTINUOUS
 10
98.988512035
 20
208.6148796499
 40
49.4
 50
149.6952337782
 51
150.3047662218
  0
ARC
  8
0
 62
7
  6
CONTINUOUS
 10
98.988512035
 20
208.6148796499
 40
49.4
 50
179.6952337782
 51
180.3047662218
  0
ARC
  8
0
 62
7
  6
CONTINUOUS
 10
98.988512035
 20
208.6148796499
 40
49.4
 50
209.6952337782
 51
210.3047662218
  0
ARC
  8
0
 62
7
  6
CONTINUOUS
 10
98.988512035
 20
208.6148796499
 40
49.4
 50
239.6952337782
 51
240.3047662218
  0
ARC
  8
0
 62
7
  6
CONTINUOUS
 10
98.988512035
 20
208.6148796499
 40
49.4
 50
269.6952337782
 51
270.3047662218
  0
ARC
  8
0
 62
7
  6
CONTINUOUS
 10
98.988512035
 20
208.6148796499
 40
49.4
 50
299.6952337782
 51
300.3047662218
  0
ARC
  8
0
 62
7
  6
CONTINUOUS
 10
98.988512035
 20
208.6148796499
 40
49.4
 50
329.6952337782
 51
330.3047662218
  0
ARC
  8
0
 62
7
  6
CONTINUOUS
 10
98.988512035
 20
208.6148796499
 40
49.4
 50
359.6952337782
 51
0.3047662218
  0
ARC
  8
0
 62
7
  6
CONTINUOUS
 10
98.988512035
 20
208.6148796499
 40
49.4
 50
29.6952337782
 51
30.3047662218
  0
ARC
  8
0
 62
7
  6
CONTINUOUS
 10
98.988512035
 20
208.6148796499
 40
49.4
 50
59.6952337782
 51
60.3047662218
  0
ARC
  8
0
 62
9
  6
CONTINUOUS
 10
98.988512035
 20
208.6148796499
 40
48.8999999269
 50
269.6952337782
 51
270.3047662218
  0
ARC
  8
0
 62
9
  6
CONTINUOUS
 10
98.988512035
 20
208.6148796499
 40
48.8999999179
 50
239.6952337782
 51
240.3047662218
  0
ARC
  8
0
 62
9
  6
CONTINUOUS
 10
98.988512035
 20
208.6148796499
 40
48.8999995332
 50
89.6952337782
 51
90.3047662218
  0
ARC
  8
0
 62
9
  6
CONTINUOUS
 10
98.988512035
 20
208.6148796499
 40
48.89999953
 50
299.6952337782
 51
300.3047662218
  0
ARC
  8
0
 62
9
  6
CONTINUOUS
 10
98.988512035
 20
208.6148796499
 40
48.8999995161
 50
209.6952337782
 51
210.3047662218
  0
ARC
  8
0
 62
9
  6
CONTINUOUS
 10
98.988512035
 20
208.6148796499
 40
48.8999995055
 50
59.6952337782
 51
60.3047662218
  0
ARC
  8
0
 62
9
  6
CONTINUOUS
 10
98.988512035
 20
208.6148796499
 40
48.8999994177
 50
119.6952337782
 51
120.3047662218
  0
ARC
  8
0
 62
9
  6
CONTINUOUS
 10
98.988512035
 20
208.6148796499
 40
48.8999994048
 50
29.6952337782
 51
30.3047662218
  0
ARC
  8
0
 62
9
  6
CONTINUOUS
 10
98.988512035
 20
208.6148796499
 40
48.8999991764
 50
329.6952337782
 51
330.3047662218
  0
ARC
  8
0
 62
9
  6
CONTINUOUS
 10
98.988512035
 20
208.6148796499
 40
48.8999991693
 50
179.6952337782
 51
180.3047662218
  0
ARC
  8
0
 62
9
  6
CONTINUOUS
 10
98.988512035
 20
208.6148796499
 40
48.8999991278
 50
149.6952337782
 51
150.3047662218
  0
ARC
  8
0
 62
9
  6
CONTINUOUS
 10
98.988512035
 20
208.6148796499
 40
48.8999991236
 50
359.6952337782
 51
0.3047662218
  0
ARC
  8
0
 62
9
  6
CONTINUOUS
 10
98.988512035
 20
208.6148796499
 40
41.4
 50
296.1121348852
 51
303.8878651147
  0
ARC
  8
0
 62
9
  6
CONTINUOUS
 10
98.988512035
 20
208.6148796499
 40
41.4
 50
326.1121348852
 51
333.8878651147
  0
ARC
  8
0
 62
9
  6
CONTINUOUS
 10
98.988512035
 20
208.6148796499
 40
41.4
 50
236.1121348852
 51
243.8878651147
  0
ARC
  8
0
 62
9
  6
CONTINUOUS
 10
98.988512035
 20
208.6148796499
 40
41.4
 50
266.1121348852
 51
273.8878651147
  0
ARC
  8
0
 62
9
  6
CONTINUOUS
 10
98.988512035
 20
208.6148796499
 40
41.4
 50
206.1121348852
 51
213.8878651147
  0
ARC
  8
0
 62
9
  6
CONTINUOUS
 10
98.988512035
 20
208.6148796499
 40
41.4
 50
176.1121348852
 51
183.8878651147
  0
ARC
  8
0
 62
9
  6
CONTINUOUS
 10
98.988512035
 20
208.6148796499
 40
41.4
 50
86.1121348852
 51
93.8878651147
  0
ARC
  8
0
 62
9
  6
CONTINUOUS
 10
98.988512035
 20
208.6148796499
 40
41.4
 50
146.1121348852
 51
153.8878651147
  0
ARC
  8
0
 62
9
  6
CONTINUOUS
 10
98.988512035
 20
208.6148796499
 40
41.4
 50
116.1121348852
 51
123.8878651147
  0
ARC
  8
0
 62
9
  6
CONTINUOUS
 10
98.988512035
 20
208.6148796499
 40
41.4
 50
56.1121348852
 51
63.8878651147
  0
ARC
  8
0
 62
9
  6
CONTINUOUS
 10
98.988512035
 20
208.6148796499
 40
41.4
 50
26.1121348852
 51
33.8878651147
  0
ARC
  8
0
 62
9
  6
CONTINUOUS
 10
98.988512035
 20
208.6148796499
 40
41.4
 50
356.1121348852
 51
3.8878651147
  0
CIRCLE
  8
0
 62
7
  6
CONTINUOUS
 10
98.988512035
 20
208.6148796499
 40
40.9
  0
CIRCLE
  8
0
 62
9
  6
CONTINUOUS
 10
98.988512035
 20
208.6148796499
 40
39.9
  0
CIRCLE
  8
0
 62
9
  6
CONTINUOUS
 10
98.988512035
 20
208.6148796499
 40
39.1509904816
  0
CIRCLE
  8
0
 62
9
  6
CONTINUOUS
 10
98.988512035
 20
208.6148796499
 40
37.7021017425
  0
CIRCLE
  8
0
 62
9
  6
CONTINUOUS
 10
98.988512035
 20
208.6148796499
 40
36.9581522953
  0
ARC
  8
0
 62
9
  6
CONTINUOUS
 10
98.988512035
 20
208.6148796499
 40
35.5092635559
 50
93.2200727262
 51
172.976651379
  0
ARC
  8
0
 62
9
  6
CONTINUOUS
 10
98.988512035
 20
208.6148796499
 40
35.5092635559
 50
187.0233483057
 51
262.9766426396
  0
ARC
  8
0
 62
9
  6
CONTINUOUS
 10
98.988512035
 20
208.6148796499
 40
35.5092635559
 50
277.0233570325
 51
352.9766513605
  0
ARC
  8
0
 62
9
  6
CONTINUOUS
 10
98.988512035
 20
208.6148796499
 40
35.5092635559
 50
7.0233482871
 51
86.7799263196
  0
ARC
  8
0
 62
7
  6
CONTINUOUS
 10
107.1040921206
 20
226.520829112
 40
3.2
 50
45.0
 51
86.4096221093
  0
ARC
  8
0
 62
7
  6
CONTINUOUS
 10
116.8944614971
 20
216.7304597354
 40
3.2
 50
3.5903778907
 51
45.0
  0
ARC
  8
0
 62
7
  6
CONTINUOUS
 10
98.988512035
 20
234.7778305538
 40
3.2
 50
2.2544307753
 51
177.7455692247
  0
ARC
  8
0
 62
9
  6
CONTINUOUS
 10
98.988512035
 20
241.1920439485
 40
3.5
 50
124.7422637227
 51
135.0
  0
ARC
  8
0
 62
9
  6
CONTINUOUS
 10
98.988512035
 20
241.1920439485
 40
3.5
 50
45.0
 51
55.2577278753
  0
ARC
  8
0
 62
9
  6
CONTINUOUS
 10
102.8169391598
 20
243.0204710733
 40
3.4999999647
 50
225.0
 51
270.0
  0
ARC
  8
0
 62
9
  6
CONTINUOUS
 10
103.2311528898
 20
239.0204710733
 40
3.4999999647
 50
45.0
 51
90.0
  0
ARC
  8
0
 62
7
  6
CONTINUOUS
 10
103.2311528898
 20
239.0204710733
 40
2.0
 50
45.0
 51
90.0
  0
ARC
  8
0
 62
7
  6
CONTINUOUS
 10
98.988512035
 20
241.1920439485
 40
2.0
 50
45.0
 51
135.0
  0
ARC
  8
0
 62
7
  6
CONTINUOUS
 10
102.8169391598
 20
243.0204710733
 40
2.0
 50
225.0
 51
270.0
  0
ARC
  8
0
 62
9
  6
CONTINUOUS
 10
103.2311528898
 20
239.0204710733
 40
0.4999999972
 50
45.0
 51
90.0
  0
ARC
  8
0
 62
9
  6
CONTINUOUS
 10
102.8169391598
 20
243.0204710733
 40
0.4999999972
 50
225.0
 51
270.0
  0
ARC
  8
0
 62
9
  6
CONTINUOUS
 10
98.988512035
 20
241.1920439485
 40
0.4999999879
 50
45.0
 51
135.0
  0
ARC
  8
0
 62
7
  6
CONTINUOUS
 10
107.5048787608
 20
232.9082675711
 40
3.2
 50
225.0
 51
266.4096221093
  0
ARC
  8
0
 62
7
  6
CONTINUOUS
 10
105.3835584173
 20
235.0295879147
 40
3.2
 50
182.2544307753
 51
225.0
  0
ARC
  8
0
 62
9
  6
CONTINUOUS
 10
103.9246797143
 20
251.229950325
 40
2.5
 50
183.62
 51
211.6102614938
  0
ARC
  8
0
 62
7
  6
CONTINUOUS
 10
99.238512035
 20
255.6142147516
 40
2.4
 50
3.62
 51
89.6952337782
  0
ARC
  8
0
 62
7
  6
CONTINUOUS
 10
103.9246797143
 20
251.229950325
 40
2.0
 50
183.62
 51
263.3927882809
  0
ARC
  8
0
 62
9
  6
CONTINUOUS
 10
99.238512035
 20
255.6142147516
 40
1.8999999735
 50
3.62
 51
89.6952337782
  0
ARC
  8
0
 62
9
  6
CONTINUOUS
 10
116.0212007649
 20
247.9886972782
 40
2.5
 50
298.3897385067
 51
326.38
  0
ARC
  8
0
 62
7
  6
CONTINUOUS
 10
122.2716732349
 20
249.4424978089
 40
2.4
 50
60.3047662218
 51
146.38
  0
ARC
  8
0
 62
7
  6
CONTINUOUS
 10
116.0212007649
 20
247.9886972782
 40
2.0
 50
246.6072117191
 51
326.38
  0
ARC
  8
0
 62
9
  6
CONTINUOUS
 10
122.2716732349
 20
249.4424978089
 40
1.8999999735
 50
60.3047662218
 51
146.38
  0
ARC
  8
0
 62
9
  6
CONTINUOUS
 10
129.394103626
 20
208.6148796499
 40
6.5
 50
315.0
 51
318.0890937726
  0
ARC
  8
0
 62
9
  6
CONTINUOUS
 10
129.394103626
 20
208.6148796499
 40
6.5
 50
41.9109045779
 51
45.0
  0
ARC
  8
0
 62
7
  6
CONTINUOUS
 10
129.394103626
 20
208.6148796499
 40
5.0
 50
315.0
 51
45.0
  0
ARC
  8
0
 62
9
  6
CONTINUOUS
 10
129.394103626
 20
208.6148796499
 40
3.4999999939
 50
315.0
 51
45.0
  0
ARC
  8
0
 62
7
  6
CONTINUOUS
 10
125.1514629389
 20
208.6148796499
 40
3.2
 50
272.2544307753
 51
87.7455692247
  0
ARC
  8
0
 62
7
  6
CONTINUOUS
 10
125.4032202998
 20
215.0099260321
 40
3.2
 50
225.0
 51
267.7455692247
  0
ARC
  8
0
 62
7
  6
CONTINUOUS
 10
123.2818999562
 20
217.1312463757
 40
3.2
 50
183.5903778907
 51
225.0
  0
ARC
  8
0
 62
9
  6
CONTINUOUS
 10
138.3623296634
 20
225.6475683798
 40
2.5
 50
123.62
 51
151.6102614938
  0
ARC
  8
0
 62
9
  6
CONTINUOUS
 10
141.6035827101
 20
213.5510473292
 40
2.5
 50
238.3897385068
 51
266.38
  0
ARC
  8
0
 62
7
  6
CONTINUOUS
 10
145.9878471367
 20
208.8648796499
 40
2.4
 50
0.3047662218
 51
86.38
  0
ARC
  8
0
 62
7
  6
CONTINUOUS
 10
139.816130194
 20
231.8980408498
 40
2.4
 50
303.62
 51
29.6952337782
  0
ARC
  8
0
 62
7
  6
CONTINUOUS
 10
141.6035827101
 20
213.5510473292
 40
2.0
 50
186.6072117191
 51
266.38
  0
ARC
  8
0
 62
7
  6
CONTINUOUS
 10
138.3623296634
 20
225.6475683798
 40
2.0
 50
123.62
 51
203.3927882809
  0
ARC
  8
0
 62
9
  6
CONTINUOUS
 10
139.816130194
 20
231.8980408498
 40
1.8999999735
 50
303.62
 51
29.6952337782
  0
ARC
  8
0
 62
9
  6
CONTINUOUS
 10
145.9878471367
 20
208.8648796499
 40
1.8999999735
 50
0.3047662218
 51
86.38
  0
ARC
  8
0
 62
9
  6
CONTINUOUS
 10
124.5708939802
 20
243.0525295989
 40
2.5
 50
153.62
 51
181.610261494
  0
ARC
  8
0
 62
9
  6
CONTINUOUS
 10
133.426161984
 20
234.1972615951
 40
2.5
 50
268.389738507
 51
296.38
  0
ARC
  8
0
 62
7
  6
CONTINUOUS
 10
139.566130194
 20
232.3310535517
 40
2.4
 50
30.3047662218
 51
116.38
  0
ARC
  8
0
 62
7
  6
CONTINUOUS
 10
122.7046859368
 20
249.1924978089
 40
2.4
 50
333.62
 51
59.6952337782
  0
ARC
  8
0
 62
7
  6
CONTINUOUS
 10
133.426161984
 20
234.1972615951
 40
2.0
 50
216.6072117191
 51
296.38
  0
ARC
  8
0
 62
7
  6
CONTINUOUS
 10
124.5708939802
 20
243.0525295989
 40
2.0
 50
153.62
 51
233.3927882809
  0
ARC
  8
0
 62
9
  6
CONTINUOUS
 10
122.7046859368
 20
249.1924978089
 40
1.8999999735
 50
333.62
 51
59.6952337782
  0
ARC
  8
0
 62
9
  6
CONTINUOUS
 10
139.566130194
 20
232.3310535517
 40
1.8999999735
 50
30.3047662218
 51
116.38
  0
ARC
  8
0
 62
7
  6
CONTINUOUS
 10
65.082920444
 20
115.3074398249
 40
1.5
 50
89.9999999301
 51
180.0
  0
ARC
  8
0
 62
7
  6
CONTINUOUS
 10
132.894103626
 20
115.3074398249
 40
1.5
 50
0.0
 51
90.0000000699
  0
ARC
  8
0
 62
7
  6
CONTINUOUS
 10
65.082920444
 20
93.3074398249
 40
1.5
 50
180.0
 51
270.0000000699
  0
ARC
  8
0
 62
7
  6
CONTINUOUS
 10
132.894103626
 20
93.3074398249
 40
1.5
 50
269.9999999301
 51
360.0
  0
ARC
  8
0
 62
7
  6
CONTINUOUS
 10
138.888512035
 20
97.3074398249
 40
1.0
 50
270.0
 51
360.0
  0
ARC
  8
0
 62
7
  6
CONTINUOUS
 10
138.888512035
 20
111.3074398249
 40
1.0
 50
0.0
 51
90.0
  0
ARC
  8
0
 62
7
  6
CONTINUOUS
 10
59.088512035
 20
97.3074398249
 40
1.0
 50
180.0
 51
270.0
  0
ARC
  8
0
 62
7
  6
CONTINUOUS
 10
59.088512035
 20
111.3074398249
 40
1.0
 50
90.0
 51
180.0
  0
ARC
  8
0
 62
7
  6
CONTINUOUS
 10
57.588512035
 20
106.8074398249
 40
0.5
 50
270.0
 51
360.0
  0
ARC
  8
0
 62
7
  6
CONTINUOUS
 10
140.388512035
 20
106.8074398249
 40
0.5
 50
180.0
 51
270.0
  0
ARC
  8
0
 62
7
  6
CONTINUOUS
 10
140.388512035
 20
101.8074398249
 40
0.5
 50
99.0
 51
180.0
  0
ARC
  8
0
 62
7
  6
CONTINUOUS
 10
57.588512035
 20
101.8074398249
 40
0.5
 50
0.0
 51
81.0
  0
ARC
  8
0
 62
7
  6
CONTINUOUS
 10
124.6046859368
 20
105.8074398249
 40
0.5
 50
0.0
 51
90.0000079394
  0
ARC
  8
0
 62
7
  6
CONTINUOUS
 10
124.6046859368
 20
102.8074398249
 40
0.5
 50
269.9999920606
 51
360.0
  0
ARC
  8
0
 62
7
  6
CONTINUOUS
 10
141.716130194
 20
105.8074398249
 40
0.5
 50
0.0
 51
90.0000005606
  0
ARC
  8
0
 62
7
  6
CONTINUOUS
 10
141.716130194
 20
102.8074398249
 40
0.5
 50
269.9999994394
 51
360.0
  0
ARC
  8
0
 62
7
  6
CONTINUOUS
 10
147.888512035
 20
105.8074398249
 40
0.5
 50
0.0
 51
90.0001004311
  0
ARC
  8
0
 62
7
  6
CONTINUOUS
 10
147.888512035
 20
102.8074398249
 40
0.5
 50
269.9998995689
 51
360.0
  0
ARC
  8
0
 62
7
  6
CONTINUOUS
 10
50.088512035
 20
105.8074398249
 40
0.5
 50
89.9999048119
 51
180.0
  0
ARC
  8
0
 62
7
  6
CONTINUOUS
 10
50.088512035
 20
102.8074398249
 40
0.5
 50
180.0
 51
270.0000951881
  0
ARC
  8
0
 62
7
  6
CONTINUOUS
 10
56.260893876
 20
105.8074398249
 40
0.5
 50
89.9999947339
 51
180.0
  0
ARC
  8
0
 62
7
  6
CONTINUOUS
 10
56.260893876
 20
102.8074398249
 40
0.5
 50
180.0
 51
270.0000052661
  0
ARC
  8
0
 62
7
  6
CONTINUOUS
 10
73.3723381332
 20
105.8074398249
 40
0.5
 50
89.9999983451
 51
180.0
  0
ARC
  8
0
 62
7
  6
CONTINUOUS
 10
73.3723381332
 20
102.8074398249
 40
0.5
 50
180.0
 51
270.0000016549
  0
ENDSEC
  0
EOF
