  0
SECTION
  2
HEADER
  9
$EXTMAX
 10
210.0
 20
297.0
 30
0.0
  9
$EXTMIN
 10
0.0
 20
0.0
 30
0.0
  9
$LIMMIN
 10
0.0
 20
0.0
  9
$LIMMAX
 10
210.0
 20
297.0
  9
$VIEWCTR
 10
105.0
 20
148.5
  9
$VIEWSIZE
 40
297.0
  9
$CLAYER
  8
0
  9
$LTSCALE
 40
19.36
  9
$CELTYPE
  6
BYLAYER
  9
$DIMSCALE
 40
1.0
  9
$DIMASZ
 40
3.5
  9
$DIMEXO
 40
2.2
  9
$DIMDLI
 40
13.376
  9
$DIMEXE
 40
6.336
  9
$DIMCEN
 40
3.168
  9
$DIMLFAC
 40
1.0
  9
$DIMBLK
  1
_FILLED
  9
$DIMTXT
 40
3.5
  9
$PDMODE
 70
3
  9
$PDSIZE
 40
0.3125
  9
$TILEMODE
 70
1
  0
ENDSEC
  0
SECTION
  2
TABLES
  0
TABLE
  2
LTYPE
 70
6
  0
LTYPE
  2
BYBLOCK
 70
0
  3

 72
65
 73
0
 40
0.0
  0
LTYPE
  2
BYLAYER
 70
0
  3

 72
65
 73
0
 40
0.0
  0
LTYPE
  2
CONTINUOUS
 70
64
  3
Solid line
 72
65
 73
0
 40
0.0
  0
LTYPE
  2
CENTER
 70
64
  3
____ _ ____ _ ____ _ ____ _ ____ _ ____ _ ____
 72
65
 73
4
 40
0.6
 49
0.375
 49
-0.075
 49
0.075
 49
-0.075
  0
LTYPE
  2
HIDDEN
 70
64
  3
- - - - - - - - - - - - - - - - - - - -
 72
65
 73
2
 40
0.2
 49
0.1
 49
-0.1
  0
LTYPE
  2
PHANTOM
 70
64
  3
_____ _ _ _____ _ _ _____ _ _ _____
 72
65
 73
6
 40
0.8
 49
0.45
 49
-0.05
 49
0.1
 49
-0.05
 49
0.1
 49
-0.05
  0
LTYPE
  2
DOT
 70
64
  3
. . . . . . . . . . . . . . . . . . . .
 72
65
 73
2
 40
0.2
 49
0.1
 49
-0.1
  0
LTYPE
  2
DASHED
 70
64
  3
- - - - - - - - - - - - - - - - - - - -
 72
65
 73
2
 40
0.2
 49
0.1
 49
-0.1
  0
ENDTAB
  0
TABLE
  2
LAYER
 70
36
  0
LAYER
  2
0
 70
0
 62
7
  6
CONTINUOUS
  0
LAYER
  2
DEFAULT_1
 70
0
 62
7
  6
CENTER
  0
LAYER
  2
DEFAULT_2
 70
0
 62
8
  6
HIDDEN
  0
LAYER
  2
DEFAULT_3
 70
0
 62
7
  6
PHANTOM
  0
LAYER
  2
CURVE
 70
0
 62
7
  6
CONTINUOUS
  0
LAYER
  2
SURFACE
 70
0
 62
7
  6
CONTINUOUS
  0
ENDTAB
  0
TABLE
  2
STYLE
 70
1
  0
STYLE
  2
STANDARD
 70
0
 40
0.0
 41
0.8
 50
0.0
 71
0
 42
0.2
  3
txt
  4

  0
STYLE
  2
TEXTSTYLE_1
 70
0
 40
0.0
 41
0.8
 50
0.0
 71
0
 42
0.2
  3
gdt
  4

  0
STYLE
  2
TEXTSTYLE_2
 70
0
 40
0.0
 41
0.6
 50
0.0
 71
0
 42
0.2
  3
txt
  4

  0
STYLE
  2
TEXTSTYLE_3
 70
0
 40
0.0
 41
1.0
 50
0.0
 71
0
 42
0.2
  3
ftb_____.ttf
  4

  0
STYLE
  2
TEXTSTYLE_4
 70
0
 40
0.0
 41
1.0
 50
0.0
 71
0
 42
0.2
  3
fti_____.ttf
  4

  0
STYLE
  2
TEXTSTYLE_5
 70
0
 40
0.0
 41
1.0
 50
0.0
 71
0
 42
0.2
  3
frutiger light.ttf
  4

  0
STYLE
  2
TEXTSTYLE_6
 70
0
 40
0.0
 41
0.7
 50
0.0
 71
0
 42
0.2
  3
txt
  4

  0
STYLE
  2
TEXTSTYLE_7
 70
0
 40
0.0
 41
0.8
 50
0.0
 71
0
 42
0.2
  3
txt
  4

  0
ENDTAB
  0
ENDSEC
  0
SECTION
  2
BLOCKS
  0
BLOCK
  8
0
 62
2
  6
CONTINUOUS
  2
SYMBOL_8_BL1
 70
64
 10
173.5956734183
 20
35.5937998301
  0
TEXT
  8
0
 62
7
  6
CONTINUOUS
 10
164.6539584268
 20
30.6865562072
  7
TEXTSTYLE_4
 40
1.0655737705
  1
The brand for plastic modular belts and chains
 41
1.0
 72
0
  0
LINE
  8
0
 62
7
  6
CONTINUOUS
 10
149.5737418074
 20
36.1675703219
 11
149.5737418074
 21
34.0364227809
  0
LINE
  8
0
 62
7
  6
CONTINUOUS
 10
149.8628043005
 20
31.0454914852
 11
149.8628043005
 21
31.1422825445
  0
LINE
  8
0
 62
7
  6
CONTINUOUS
 10
149.5737418074
 20
31.1100188581
 11
149.6315543091
 21
30.9164367395
  0
LINE
  8
0
 62
7
  6
CONTINUOUS
 10
150.9671844304
 20
33.9544555678
 11
150.9671844304
 21
36.1675703219
  0
LINE
  8
0
 62
7
  6
CONTINUOUS
 10
151.8862417523
 20
32.1101932727
 11
151.8862417523
 21
30.5937998301
  0
LINE
  8
0
 62
7
  6
CONTINUOUS
 10
152.1753043074
 20
30.5937998301
 11
152.1753043074
 21
31.3358647082
  0
LINE
  8
0
 62
7
  6
CONTINUOUS
 10
152.1753043074
 20
31.4649194539
 11
152.1753043074
 21
32.1101932727
  0
LINE
  8
0
 62
7
  6
CONTINUOUS
 10
149.6315543091
 20
31.3036010218
 11
149.5737418074
 21
31.1100188581
  0
LINE
  8
0
 62
7
  6
CONTINUOUS
 10
149.9784292936
 20
30.8841730531
 11
149.8628043005
 21
31.0454914852
  0
LINE
  8
0
 62
7
  6
CONTINUOUS
 10
151.0768668626
 20
31.400392081
 11
151.1346793074
 21
31.3036010218
  0
LINE
  8
0
 62
7
  6
CONTINUOUS
 10
151.4237418626
 20
31.3036010218
 11
151.3659292523
 21
31.4326557675
  0
LINE
  8
0
 62
7
  6
CONTINUOUS
 10
152.852430332
 20
36.1675703219
 11
152.852430332
 21
34.3642916334
  0
LINE
  8
0
 62
7
  6
CONTINUOUS
 10
152.852430332
 20
33.0528162235
 11
152.852430332
 21
32.3970785186
  0
LINE
  8
0
 62
7
  6
CONTINUOUS
 10
153.2159293074
 20
31.2390736489
 11
153.2159293074
 21
30.5937998301
  0
LINE
  8
0
 62
7
  6
CONTINUOUS
 10
153.5049916972
 20
30.5937998301
 11
153.5049916972
 21
31.2390736489
  0
LINE
  8
0
 62
7
  6
CONTINUOUS
 10
149.8628043005
 20
31.1422825445
 11
149.9206168074
 21
31.2713373354
  0
LINE
  8
0
 62
7
  6
CONTINUOUS
 10
149.6315543091
 20
30.9164367395
 11
149.7471793074
 21
30.7873819712
  0
LINE
  8
0
 62
7
  6
CONTINUOUS
 10
153.1581166972
 20
31.3681283946
 11
153.2159293074
 21
31.2390736489
  0
LINE
  8
0
 62
7
  6
CONTINUOUS
 10
153.9674919177
 20
30.8841730531
 11
154.0253041972
 21
30.7551182848
  0
LINE
  8
0
 62
7
  6
CONTINUOUS
 10
153.5049916972
 20
31.2390736489
 11
153.4471794177
 21
31.400392081
  0
LINE
  8
0
 62
7
  6
CONTINUOUS
 10
153.9674919177
 20
31.4326557675
 11
153.9674919177
 21
31.3681283946
  0
LINE
  8
0
 62
7
  6
CONTINUOUS
 10
153.9674919177
 20
30.9809641124
 11
153.9674919177
 21
30.8841730531
  0
LINE
  8
0
 62
7
  6
CONTINUOUS
 10
154.245872955
 20
32.3970785186
 11
154.245872955
 21
36.1675703219
  0
LINE
  8
0
 62
7
  6
CONTINUOUS
 10
154.2565543074
 20
30.8519093441
 11
154.2565543074
 21
30.9164367395
  0
LINE
  8
0
 62
7
  6
CONTINUOUS
 10
154.5737418074
 20
36.1675703219
 11
154.5737418074
 21
32.3970785186
  0
LINE
  8
0
 62
7
  6
CONTINUOUS
 10
151.3659292523
 20
30.7873819712
 11
151.4237418626
 21
30.9164367395
  0
LINE
  8
0
 62
7
  6
CONTINUOUS
 10
155.759679528
 20
30.6905909007
 11
155.7018665869
 21
30.8519093441
  0
LINE
  8
0
 62
7
  6
CONTINUOUS
 10
155.412804528
 20
31.3681283946
 11
155.412804528
 21
31.2713373354
  0
LINE
  8
0
 62
7
  6
CONTINUOUS
 10
155.412804528
 20
31.1422825445
 11
155.412804528
 21
30.9487004259
  0
LINE
  8
0
 62
7
  6
CONTINUOUS
 10
155.7018665869
 20
30.8519093441
 11
155.7018665869
 21
31.3681283946
  0
LINE
  8
0
 62
7
  6
CONTINUOUS
 10
155.9671844304
 20
32.3970785186
 11
155.9671844304
 21
34.2003572071
  0
LINE
  8
0
 62
7
  6
CONTINUOUS
 10
155.9671844304
 20
35.511832617
 11
155.9671844304
 21
36.1675703219
  0
LINE
  8
0
 62
7
  6
CONTINUOUS
 10
156.279992028
 20
32.1101932727
 11
156.279992028
 21
31.9488748406
  0
LINE
  8
0
 62
7
  6
CONTINUOUS
 10
156.279992028
 20
31.626237886
 11
156.279992028
 21
30.5937998301
  0
LINE
  8
0
 62
7
  6
CONTINUOUS
 10
156.5690540869
 20
30.5937998301
 11
156.5690540869
 21
31.626237886
  0
LINE
  8
0
 62
7
  6
CONTINUOUS
 10
156.5690540869
 20
31.9488748406
 11
156.5690540869
 21
32.1101932727
  0
LINE
  8
0
 62
7
  6
CONTINUOUS
 10
151.1346793074
 20
30.9164367395
 11
151.0768668626
 21
30.8196456577
  0
LINE
  8
0
 62
7
  6
CONTINUOUS
 10
153.4471794177
 20
31.400392081
 11
153.3893668074
 21
31.4649194539
  0
LINE
  8
0
 62
7
  6
CONTINUOUS
 10
154.3143669177
 20
30.7873819712
 11
154.2565543074
 21
30.8519093441
  0
LINE
  8
0
 62
7
  6
CONTINUOUS
 10
155.4706168074
 20
30.6583272086
 11
155.5284290869
 21
30.5937998301
  0
LINE
  8
0
 62
7
  6
CONTINUOUS
 10
155.412804528
 20
30.7551182848
 11
155.4706168074
 21
30.6583272086
  0
LINE
  8
0
 62
7
  6
CONTINUOUS
 10
155.8174918074
 20
30.5937998301
 11
155.759679528
 21
30.6905909007
  0
LINE
  8
0
 62
7
  6
CONTINUOUS
 10
155.7018665869
 20
31.3681283946
 11
155.6440543074
 21
31.4649194539
  0
LINE
  8
0
 62
7
  6
CONTINUOUS
 10
157.0315543074
 20
31.626237886
 11
157.0315543074
 21
30.5937998301
  0
LINE
  8
0
 62
7
  6
CONTINUOUS
 10
157.320617028
 20
30.5937998301
 11
157.320617028
 21
31.3358647082
  0
LINE
  8
0
 62
7
  6
CONTINUOUS
 10
157.320617028
 20
31.4649194539
 11
157.320617028
 21
31.626237886
  0
LINE
  8
0
 62
7
  6
CONTINUOUS
 10
157.852430332
 20
34.6101932727
 11
157.852430332
 21
32.3970785186
  0
LINE
  8
0
 62
7
  6
CONTINUOUS
 10
149.7471793074
 20
31.4326557675
 11
149.6315543091
 21
31.3036010218
  0
LINE
  8
0
 62
7
  6
CONTINUOUS
 10
149.9206168074
 20
31.2713373354
 11
149.9784292936
 21
31.3358647082
  0
LINE
  8
0
 62
7
  6
CONTINUOUS
 10
149.7471793074
 20
30.7873819712
 11
149.8628043005
 21
30.7228545871
  0
LINE
  8
0
 62
7
  6
CONTINUOUS
 10
150.1518667936
 20
30.7873819712
 11
149.9784292936
 21
30.8841730531
  0
LINE
  8
0
 62
7
  6
CONTINUOUS
 10
155.3549915869
 20
31.4326557675
 11
155.412804528
 21
31.3681283946
  0
LINE
  8
0
 62
7
  6
CONTINUOUS
 10
158.3034290869
 20
31.3681283946
 11
158.361242028
 21
31.2068099625
  0
LINE
  8
0
 62
7
  6
CONTINUOUS
 10
158.6503040869
 20
31.2068099625
 11
158.5924918074
 21
31.3681283946
  0
LINE
  8
0
 62
7
  6
CONTINUOUS
 10
158.361242028
 20
31.2068099625
 11
158.361242028
 21
30.5937998301
  0
LINE
  8
0
 62
7
  6
CONTINUOUS
 10
158.6503040869
 20
30.5937998301
 11
158.6503040869
 21
31.2068099625
  0
LINE
  8
0
 62
7
  6
CONTINUOUS
 10
159.1128043074
 20
31.4326557675
 11
159.1128043074
 21
31.3681283946
  0
LINE
  8
0
 62
7
  6
CONTINUOUS
 10
159.245872955
 20
32.3970785186
 11
159.245872955
 21
34.5282260596
  0
LINE
  8
0
 62
7
  6
CONTINUOUS
 10
159.5737418074
 20
36.1675703219
 11
159.5737418074
 21
32.3970785186
  0
LINE
  8
0
 62
7
  6
CONTINUOUS
 10
154.2565543074
 20
30.9164367395
 11
154.3143669177
 21
31.0132277988
  0
LINE
  8
0
 62
7
  6
CONTINUOUS
 10
149.8628043005
 20
30.7228545871
 11
150.0362418212
 21
30.6583272086
  0
LINE
  8
0
 62
7
  6
CONTINUOUS
 10
151.3659292523
 20
31.4326557675
 11
151.1924917523
 21
31.5294468267
  0
LINE
  8
0
 62
7
  6
CONTINUOUS
 10
154.0253041972
 20
30.7551182848
 11
154.1987416972
 21
30.6583272086
  0
LINE
  8
0
 62
7
  6
CONTINUOUS
 10
153.0424918074
 20
31.4326557675
 11
153.1581166972
 21
31.3681283946
  0
LINE
  8
0
 62
7
  6
CONTINUOUS
 10
153.3893668074
 20
31.4649194539
 11
153.2737419177
 21
31.5294468267
  0
LINE
  8
0
 62
7
  6
CONTINUOUS
 10
159.1128043074
 20
30.8519093441
 11
159.228429528
 21
30.7228545871
  0
LINE
  8
0
 62
7
  6
CONTINUOUS
 10
159.4596793074
 20
30.7873819712
 11
159.401867028
 21
30.8519093441
  0
LINE
  8
0
 62
7
  6
CONTINUOUS
 10
159.1128043074
 20
31.3681283946
 11
159.228429528
 21
31.2390736489
  0
LINE
  8
0
 62
7
  6
CONTINUOUS
 10
158.5924918074
 20
31.3681283946
 11
158.534679528
 21
31.4649194539
  0
LINE
  8
0
 62
7
  6
CONTINUOUS
 10
160.9628038663
 20
30.7873819712
 11
160.9628038663
 21
30.8519093441
  0
LINE
  8
0
 62
7
  6
CONTINUOUS
 10
160.9671844304
 20
32.3970785186
 11
160.9671844304
 21
36.1675703219
  0
LINE
  8
0
 62
7
  6
CONTINUOUS
 10
154.0253041972
 20
31.4971831403
 11
153.9674919177
 21
31.4326557675
  0
LINE
  8
0
 62
7
  6
CONTINUOUS
 10
150.9034292799
 20
31.4649194539
 11
151.0768668626
 21
31.400392081
  0
LINE
  8
0
 62
7
  6
CONTINUOUS
 10
155.6440543074
 20
31.4649194539
 11
155.5284290869
 21
31.5294468267
  0
LINE
  8
0
 62
7
  6
CONTINUOUS
 10
159.4596793074
 20
31.3036010218
 11
159.401867028
 21
31.3681283946
  0
LINE
  8
0
 62
7
  6
CONTINUOUS
 10
160.615929528
 20
30.9164367395
 11
160.6737418074
 21
30.8519093441
  0
LINE
  8
0
 62
7
  6
CONTINUOUS
 10
160.9628038663
 20
30.8519093441
 11
160.8471793074
 21
30.9809641124
  0
LINE
  8
0
 62
7
  6
CONTINUOUS
 10
160.615929528
 20
31.4326557675
 11
160.6737418074
 21
31.3681283946
  0
LINE
  8
0
 62
7
  6
CONTINUOUS
 10
160.9628038663
 20
31.3681283946
 11
160.8471793074
 21
31.4971831403
  0
LINE
  8
0
 62
7
  6
CONTINUOUS
 10
154.2565543074
 20
31.3681283946
 11
154.3143669177
 21
31.4326557675
  0
LINE
  8
0
 62
7
  6
CONTINUOUS
 10
154.0831168074
 20
31.1100188581
 11
153.9674919177
 21
30.9809641124
  0
LINE
  8
0
 62
7
  6
CONTINUOUS
 10
155.412804528
 20
30.9487004259
 11
155.3549915869
 21
30.8841730531
  0
LINE
  8
0
 62
7
  6
CONTINUOUS
 10
155.3549915869
 20
30.6905909007
 11
155.412804528
 21
30.7551182848
  0
LINE
  8
0
 62
7
  6
CONTINUOUS
 10
154.1987416972
 20
30.6583272086
 11
154.3143669177
 21
30.6260635193
  0
LINE
  8
0
 62
7
  6
CONTINUOUS
 10
151.1924917523
 20
31.5294468267
 11
150.9612418074
 21
31.5939741996
  0
LINE
  8
0
 62
7
  6
CONTINUOUS
 10
154.5456166972
 20
30.7228545871
 11
154.3143669177
 21
30.7873819712
  0
LINE
  8
0
 62
7
  6
CONTINUOUS
 10
153.2737419177
 20
31.5294468267
 11
153.1003044177
 21
31.5939741996
  0
LINE
  8
0
 62
7
  6
CONTINUOUS
 10
155.5284290869
 20
31.5294468267
 11
155.3549915869
 21
31.5939741996
  0
LINE
  8
0
 62
7
  6
CONTINUOUS
 10
158.187804528
 20
31.4326557675
 11
158.3034290869
 21
31.3681283946
  0
LINE
  8
0
 62
7
  6
CONTINUOUS
 10
158.534679528
 20
31.4649194539
 11
158.4190543074
 21
31.5294468267
  0
LINE
  8
0
 62
7
  6
CONTINUOUS
 10
150.0362418212
 20
30.6583272086
 11
150.2096793212
 21
30.6260635193
  0
LINE
  8
0
 62
7
  6
CONTINUOUS
 10
150.498741835
 20
30.7228545871
 11
150.1518667936
 21
30.7873819712
  0
LINE
  8
0
 62
7
  6
CONTINUOUS
 10
152.9268669177
 20
31.4649194539
 11
153.0424918074
 21
31.4326557675
  0
LINE
  8
0
 62
7
  6
CONTINUOUS
 10
155.239367028
 20
31.4649194539
 11
155.3549915869
 21
31.4326557675
  0
LINE
  8
0
 62
7
  6
CONTINUOUS
 10
159.575304528
 20
30.7551182848
 11
159.4596793074
 21
30.7873819712
  0
LINE
  8
0
 62
7
  6
CONTINUOUS
 10
158.0721793074
 20
31.4649194539
 11
158.187804528
 21
31.4326557675
  0
LINE
  8
0
 62
7
  6
CONTINUOUS
 10
159.228429528
 20
30.7228545871
 11
159.401867028
 21
30.6583272086
  0
LINE
  8
0
 62
7
  6
CONTINUOUS
 10
158.4190543074
 20
31.5294468267
 11
158.2456168074
 21
31.5939741996
  0
LINE
  8
0
 62
7
  6
CONTINUOUS
 10
159.6331168074
 20
31.2390736489
 11
159.4596793074
 21
31.3036010218
  0
LINE
  8
0
 62
7
  6
CONTINUOUS
 10
160.442492028
 20
30.9809641124
 11
160.615929528
 21
30.9164367395
  0
LINE
  8
0
 62
7
  6
CONTINUOUS
 10
160.8471793074
 20
31.4971831403
 11
160.6737418074
 21
31.5617105132
  0
LINE
  8
0
 62
7
  6
CONTINUOUS
 10
159.228429528
 20
31.2390736489
 11
159.4596793074
 21
31.1422825445
  0
LINE
  8
0
 62
7
  6
CONTINUOUS
 10
160.8471793074
 20
30.9809641124
 11
160.615929528
 21
31.0777551716
  0
LINE
  8
0
 62
7
  6
CONTINUOUS
 10
159.401867028
 20
31.3681283946
 11
159.4596793074
 21
31.4326557675
  0
LINE
  8
0
 62
7
  6
CONTINUOUS
 10
149.8628043005
 20
31.4971831403
 11
149.7471793074
 21
31.4326557675
  0
LINE
  8
0
 62
7
  6
CONTINUOUS
 10
149.9784292936
 20
31.3358647082
 11
150.1518667936
 21
31.4326557675
  0
LINE
  8
0
 62
7
  6
CONTINUOUS
 10
152.2909293626
 20
31.5294468267
 11
152.1753043074
 21
31.4649194539
  0
LINE
  8
0
 62
7
  6
CONTINUOUS
 10
152.1753043074
 20
31.3358647082
 11
152.2909293626
 21
31.400392081
  0
LINE
  8
0
 62
7
  6
CONTINUOUS
 10
151.1924917523
 20
30.6905909007
 11
151.3659292523
 21
30.7873819712
  0
LINE
  8
0
 62
7
  6
CONTINUOUS
 10
150.2096793212
 20
30.6260635193
 11
150.5565542799
 21
30.5937998301
  0
LINE
  8
0
 62
7
  6
CONTINUOUS
 10
154.3143669177
 20
30.6260635193
 11
154.5456166972
 21
30.5937998301
  0
LINE
  8
0
 62
7
  6
CONTINUOUS
 10
152.6956168074
 20
31.4971831403
 11
152.9268669177
 21
31.4649194539
  0
LINE
  8
0
 62
7
  6
CONTINUOUS
 10
155.0081169177
 20
31.4971831403
 11
155.239367028
 21
31.4649194539
  0
LINE
  8
0
 62
7
  6
CONTINUOUS
 10
159.4596793074
 20
31.1422825445
 11
160.442492028
 21
30.9809641124
  0
LINE
  8
0
 62
7
  6
CONTINUOUS
 10
160.615929528
 20
31.0777551716
 11
159.6331168074
 21
31.2390736489
  0
LINE
  8
0
 62
7
  6
CONTINUOUS
 10
153.1003044177
 20
31.5939741996
 11
152.9268669177
 21
31.626237886
  0
LINE
  8
0
 62
7
  6
CONTINUOUS
 10
159.401867028
 20
30.6583272086
 11
159.575304528
 21
30.6260635193
  0
LINE
  8
0
 62
7
  6
CONTINUOUS
 10
158.2456168074
 20
31.5939741996
 11
158.0721793074
 21
31.626237886
  0
LINE
  8
0
 62
7
  6
CONTINUOUS
 10
160.5003043074
 20
31.4649194539
 11
160.615929528
 21
31.4326557675
  0
LINE
  8
0
 62
7
  6
CONTINUOUS
 10
160.6737418074
 20
30.8519093441
 11
160.615929528
 21
30.7873819712
  0
LINE
  8
0
 62
7
  6
CONTINUOUS
 10
159.228429528
 20
31.5294468267
 11
159.1128043074
 21
31.4326557675
  0
LINE
  8
0
 62
7
  6
CONTINUOUS
 10
154.1409294177
 20
31.5617105132
 11
154.0253041972
 21
31.4971831403
  0
LINE
  8
0
 62
7
  6
CONTINUOUS
 10
154.1987416972
 20
31.1745462761
 11
154.0831168074
 21
31.1100188581
  0
LINE
  8
0
 62
7
  6
CONTINUOUS
 10
154.3143669177
 20
31.0132277988
 11
154.4299918074
 21
31.0777551716
  0
LINE
  8
0
 62
7
  6
CONTINUOUS
 10
151.8862417523
 20
30.5937998301
 11
152.1753043074
 21
30.5937998301
  0
LINE
  8
0
 62
7
  6
CONTINUOUS
 10
153.2159293074
 20
30.5937998301
 11
153.5049916972
 21
30.5937998301
  0
LINE
  8
0
 62
7
  6
CONTINUOUS
 10
154.5456166972
 20
30.5937998301
 11
154.8924916972
 21
30.5937998301
  0
LINE
  8
0
 62
7
  6
CONTINUOUS
 10
155.5284290869
 20
30.5937998301
 11
155.8174918074
 21
30.5937998301
  0
LINE
  8
0
 62
7
  6
CONTINUOUS
 10
156.279992028
 20
30.5937998301
 11
156.5690540869
 21
30.5937998301
  0
LINE
  8
0
 62
7
  6
CONTINUOUS
 10
157.0315543074
 20
30.5937998301
 11
157.320617028
 21
30.5937998301
  0
LINE
  8
0
 62
7
  6
CONTINUOUS
 10
158.361242028
 20
30.5937998301
 11
158.6503040869
 21
30.5937998301
  0
LINE
  8
0
 62
7
  6
CONTINUOUS
 10
159.922179528
 20
30.5937998301
 11
160.269054528
 21
30.5937998301
  0
LINE
  8
0
 62
7
  6
CONTINUOUS
 10
160.269054528
 20
30.7228545871
 11
159.922179528
 21
30.7228545871
  0
LINE
  8
0
 62
7
  6
CONTINUOUS
 10
154.8924916972
 20
30.7228545871
 11
154.5456166972
 21
30.7228545871
  0
LINE
  8
0
 62
7
  6
CONTINUOUS
 10
159.401867028
 20
30.8519093441
 11
159.1128043074
 21
30.8519093441
  0
LINE
  8
0
 62
7
  6
CONTINUOUS
 10
151.4237418626
 20
30.9164367395
 11
151.1346793074
 21
30.9164367395
  0
LINE
  8
0
 62
7
  6
CONTINUOUS
 10
150.498741835
 20
31.4971831403
 11
150.9034292799
 21
31.4649194539
  0
LINE
  8
0
 62
7
  6
CONTINUOUS
 10
150.9612418074
 20
31.5939741996
 11
150.5565542799
 21
31.626237886
  0
LINE
  8
0
 62
7
  6
CONTINUOUS
 10
159.575304528
 20
30.6260635193
 11
159.922179528
 21
30.5937998301
  0
LINE
  8
0
 62
7
  6
CONTINUOUS
 10
159.922179528
 20
30.7228545871
 11
159.575304528
 21
30.7551182848
  0
LINE
  8
0
 62
7
  6
CONTINUOUS
 10
155.3549915869
 20
31.5939741996
 11
155.0081169177
 21
31.626237886
  0
LINE
  8
0
 62
7
  6
CONTINUOUS
 10
160.1534293074
 20
31.4971831403
 11
160.5003043074
 21
31.4649194539
  0
LINE
  8
0
 62
7
  6
CONTINUOUS
 10
160.5003043074
 20
31.5939741996
 11
160.1534293074
 21
31.626237886
  0
LINE
  8
0
 62
7
  6
CONTINUOUS
 10
157.840929528
 20
31.4971831403
 11
158.0721793074
 21
31.4649194539
  0
LINE
  8
0
 62
7
  6
CONTINUOUS
 10
160.6737418074
 20
31.5617105132
 11
160.5003043074
 21
31.5939741996
  0
LINE
  8
0
 62
7
  6
CONTINUOUS
 10
160.8471793074
 20
30.6905909007
 11
160.9628038663
 21
30.7873819712
  0
LINE
  8
0
 62
7
  6
CONTINUOUS
 10
155.3549915869
 20
30.8841730531
 11
155.1815540869
 21
30.7873819712
  0
LINE
  8
0
 62
7
  6
CONTINUOUS
 10
157.4362415869
 20
31.5294468267
 11
157.320617028
 21
31.4649194539
  0
LINE
  8
0
 62
7
  6
CONTINUOUS
 10
157.320617028
 20
31.3358647082
 11
157.4362415869
 21
31.400392081
  0
LINE
  8
0
 62
7
  6
CONTINUOUS
 10
150.0362418212
 20
31.5617105132
 11
149.8628043005
 21
31.4971831403
  0
LINE
  8
0
 62
7
  6
CONTINUOUS
 10
152.4643666972
 20
31.5939741996
 11
152.2909293626
 21
31.5294468267
  0
LINE
  8
0
 62
7
  6
CONTINUOUS
 10
152.2909293626
 20
31.400392081
 11
152.4643666972
 21
31.4649194539
  0
LINE
  8
0
 62
7
  6
CONTINUOUS
 10
151.0768668626
 20
30.8196456577
 11
150.9034292799
 21
30.7551182848
  0
LINE
  8
0
 62
7
  6
CONTINUOUS
 10
160.5003043074
 20
30.7551182848
 11
160.269054528
 21
30.7228545871
  0
LINE
  8
0
 62
7
  6
CONTINUOUS
 10
154.8924916972
 20
30.5937998301
 11
155.1815540869
 21
30.6260635193
  0
LINE
  8
0
 62
7
  6
CONTINUOUS
 10
160.269054528
 20
30.5937998301
 11
160.615929528
 21
30.6260635193
  0
LINE
  8
0
 62
7
  6
CONTINUOUS
 10
150.5565542799
 20
30.5937998301
 11
150.9612418074
 21
30.6260635193
  0
LINE
  8
0
 62
7
  6
CONTINUOUS
 10
150.9034292799
 20
30.7551182848
 11
150.498741835
 21
30.7228545871
  0
LINE
  8
0
 62
7
  6
CONTINUOUS
 10
154.7768668074
 20
31.1422825445
 11
155.412804528
 21
31.1422825445
  0
LINE
  8
0
 62
7
  6
CONTINUOUS
 10
155.412804528
 20
31.2713373354
 11
154.7768668074
 21
31.2713373354
  0
LINE
  8
0
 62
7
  6
CONTINUOUS
 10
151.1346793074
 20
31.3036010218
 11
151.4237418626
 21
31.3036010218
  0
LINE
  8
0
 62
7
  6
CONTINUOUS
 10
153.9674919177
 20
31.3681283946
 11
154.2565543074
 21
31.3681283946
  0
LINE
  8
0
 62
7
  6
CONTINUOUS
 10
160.6737418074
 20
31.3681283946
 11
160.9628038663
 21
31.3681283946
  0
LINE
  8
0
 62
7
  6
CONTINUOUS
 10
154.6612419177
 20
31.4971831403
 11
155.0081169177
 21
31.4971831403
  0
LINE
  8
0
 62
7
  6
CONTINUOUS
 10
159.8065543074
 20
31.4971831403
 11
160.1534293074
 21
31.4971831403
  0
LINE
  8
0
 62
7
  6
CONTINUOUS
 10
160.1534293074
 20
31.626237886
 11
159.8065543074
 21
31.626237886
  0
LINE
  8
0
 62
7
  6
CONTINUOUS
 10
158.0721793074
 20
31.626237886
 11
157.840929528
 21
31.626237886
  0
LINE
  8
0
 62
7
  6
CONTINUOUS
 10
157.320617028
 20
31.626237886
 11
157.0315543074
 21
31.626237886
  0
LINE
  8
0
 62
7
  6
CONTINUOUS
 10
156.5690540869
 20
31.626237886
 11
156.279992028
 21
31.626237886
  0
LINE
  8
0
 62
7
  6
CONTINUOUS
 10
155.0081169177
 20
31.626237886
 11
154.6612419177
 21
31.626237886
  0
LINE
  8
0
 62
7
  6
CONTINUOUS
 10
152.9268669177
 20
31.626237886
 11
152.6956168074
 21
31.626237886
  0
LINE
  8
0
 62
7
  6
CONTINUOUS
 10
156.279992028
 20
31.9488748406
 11
156.5690540869
 21
31.9488748406
  0
LINE
  8
0
 62
7
  6
CONTINUOUS
 10
156.5690540869
 20
32.1101932727
 11
156.279992028
 21
32.1101932727
  0
LINE
  8
0
 62
7
  6
CONTINUOUS
 10
152.1753043074
 20
32.1101932727
 11
151.8862417523
 21
32.1101932727
  0
LINE
  8
0
 62
7
  6
CONTINUOUS
 10
151.2130860697
 20
32.3970785186
 11
151.6256574183
 21
32.3970785186
  0
LINE
  8
0
 62
7
  6
CONTINUOUS
 10
152.852430332
 20
32.3970785186
 11
154.245872955
 21
32.3970785186
  0
LINE
  8
0
 62
7
  6
CONTINUOUS
 10
154.5737418074
 20
32.3970785186
 11
155.9671844304
 21
32.3970785186
  0
LINE
  8
0
 62
7
  6
CONTINUOUS
 10
157.852430332
 20
32.3970785186
 11
159.245872955
 21
32.3970785186
  0
LINE
  8
0
 62
7
  6
CONTINUOUS
 10
159.5737418074
 20
32.3970785186
 11
160.9671844304
 21
32.3970785186
  0
LINE
  8
0
 62
7
  6
CONTINUOUS
 10
157.6096790869
 20
31.5939741996
 11
157.4362415869
 21
31.5294468267
  0
LINE
  8
0
 62
7
  6
CONTINUOUS
 10
155.1815540869
 20
30.6260635193
 11
155.3549915869
 21
30.6905909007
  0
LINE
  8
0
 62
7
  6
CONTINUOUS
 10
160.615929528
 20
30.6260635193
 11
160.8471793074
 21
30.6905909007
  0
LINE
  8
0
 62
7
  6
CONTINUOUS
 10
160.615929528
 20
30.7873819712
 11
160.5003043074
 21
30.7551182848
  0
LINE
  8
0
 62
7
  6
CONTINUOUS
 10
159.575304528
 20
31.4649194539
 11
159.8065543074
 21
31.4971831403
  0
LINE
  8
0
 62
7
  6
CONTINUOUS
 10
157.6096790869
 20
31.4649194539
 11
157.840929528
 21
31.4971831403
  0
LINE
  8
0
 62
7
  6
CONTINUOUS
 10
154.5456166972
 20
31.1100188581
 11
154.7768668074
 21
31.1422825445
  0
LINE
  8
0
 62
7
  6
CONTINUOUS
 10
157.840929528
 20
31.626237886
 11
157.6096790869
 21
31.5939741996
  0
LINE
  8
0
 62
7
  6
CONTINUOUS
 10
154.4299918074
 20
31.4649194539
 11
154.6612419177
 21
31.4971831403
  0
LINE
  8
0
 62
7
  6
CONTINUOUS
 10
159.8065543074
 20
31.626237886
 11
159.4596793074
 21
31.5939741996
  0
LINE
  8
0
 62
7
  6
CONTINUOUS
 10
154.7768668074
 20
31.2713373354
 11
154.4299918074
 21
31.2390736489
  0
LINE
  8
0
 62
7
  6
CONTINUOUS
 10
150.5565542799
 20
31.626237886
 11
150.2096793212
 21
31.5939741996
  0
LINE
  8
0
 62
7
  6
CONTINUOUS
 10
154.6612419177
 20
31.626237886
 11
154.2565543074
 21
31.5939741996
  0
LINE
  8
0
 62
7
  6
CONTINUOUS
 10
152.0327582009
 20
33.5446195022
 11
151.3770204959
 21
33.5446195022
  0
LINE
  8
0
 62
7
  6
CONTINUOUS
 10
157.4362415869
 20
31.400392081
 11
157.6096790869
 21
31.4649194539
  0
LINE
  8
0
 62
7
  6
CONTINUOUS
 10
159.4596793074
 20
31.4326557675
 11
159.575304528
 21
31.4649194539
  0
LINE
  8
0
 62
7
  6
CONTINUOUS
 10
159.4596793074
 20
31.5939741996
 11
159.228429528
 21
31.5294468267
  0
LINE
  8
0
 62
7
  6
CONTINUOUS
 10
155.1815540869
 20
30.7873819712
 11
154.8924916972
 21
30.7228545871
  0
LINE
  8
0
 62
7
  6
CONTINUOUS
 10
152.4643666972
 20
31.4649194539
 11
152.6956168074
 21
31.4971831403
  0
LINE
  8
0
 62
7
  6
CONTINUOUS
 10
152.6956168074
 20
31.626237886
 11
152.4643666972
 21
31.5939741996
  0
LINE
  8
0
 62
7
  6
CONTINUOUS
 10
150.2674918074
 20
31.4649194539
 11
150.498741835
 21
31.4971831403
  0
LINE
  8
0
 62
7
  6
CONTINUOUS
 10
156.7868565615
 20
35.0200293383
 11
157.4425942664
 21
35.0200293383
  0
LINE
  8
0
 62
7
  6
CONTINUOUS
 10
154.4299918074
 20
31.0777551716
 11
154.5456166972
 21
31.1100188581
  0
LINE
  8
0
 62
7
  6
CONTINUOUS
 10
154.4299918074
 20
31.2390736489
 11
154.1987416972
 21
31.1745462761
  0
LINE
  8
0
 62
7
  6
CONTINUOUS
 10
154.3143669177
 20
31.4326557675
 11
154.4299918074
 21
31.4649194539
  0
LINE
  8
0
 62
7
  6
CONTINUOUS
 10
150.9612418074
 20
30.6260635193
 11
151.1924917523
 21
30.6905909007
  0
LINE
  8
0
 62
7
  6
CONTINUOUS
 10
154.2565543074
 20
31.5939741996
 11
154.1409294177
 21
31.5617105132
  0
LINE
  8
0
 62
7
  6
CONTINUOUS
 10
150.2096793212
 20
31.5939741996
 11
150.0362418212
 21
31.5617105132
  0
LINE
  8
0
 62
7
  6
CONTINUOUS
 10
160.9671844304
 20
36.1675703219
 11
159.5737418074
 21
36.1675703219
  0
LINE
  8
0
 62
7
  6
CONTINUOUS
 10
157.6065286927
 20
36.1675703219
 11
157.1939573441
 21
36.1675703219
  0
LINE
  8
0
 62
7
  6
CONTINUOUS
 10
155.9671844304
 20
36.1675703219
 11
154.5737418074
 21
36.1675703219
  0
LINE
  8
0
 62
7
  6
CONTINUOUS
 10
154.245872955
 20
36.1675703219
 11
152.852430332
 21
36.1675703219
  0
LINE
  8
0
 62
7
  6
CONTINUOUS
 10
150.9671844304
 20
36.1675703219
 11
149.5737418074
 21
36.1675703219
  0
LINE
  8
0
 62
7
  6
CONTINUOUS
 10
150.1518667936
 20
31.4326557675
 11
150.2674918074
 21
31.4649194539
  0
CIRCLE
  8
0
 62
7
  6
CONTINUOUS
 10
160.2704631189
 20
38.5036358957
 40
2.0901639344
  0
ARC
  8
0
 62
7
  6
CONTINUOUS
 10
151.2130860697
 20
34.0364227809
 40
1.6393442623
 50
180.0
 51
270.0
  0
ARC
  8
0
 62
7
  6
CONTINUOUS
 10
157.6065286927
 20
34.5282260596
 40
1.6393442623
 50
0.0
 51
90.0
  0
ARC
  8
0
 62
7
  6
CONTINUOUS
 10
151.6256574183
 20
33.8724883547
 40
1.4754098361
 50
270.0
 51
326.2510114041
  0
ARC
  8
0
 62
7
  6
CONTINUOUS
 10
157.1939573441
 20
34.6921604858
 40
1.4754098361
 50
90.0
 51
146.2510114041
  0
ARC
  8
0
 62
7
  6
CONTINUOUS
 10
152.0327582009
 20
34.3642916334
 40
0.8196721311
 50
270.0
 51
360.0
  0
ARC
  8
0
 62
7
  6
CONTINUOUS
 10
156.7868565615
 20
34.2003572071
 40
0.8196721311
 50
90.0
 51
180.0
  0
ARC
  8
0
 62
7
  6
CONTINUOUS
 10
151.3770204959
 20
33.9544555678
 40
0.4098360656
 50
180.0
 51
270.0
  0
ARC
  8
0
 62
7
  6
CONTINUOUS
 10
157.4425942664
 20
34.6101932727
 40
0.4098360656
 50
0.0
 51
90.0
  0
SOLID
  8
0
 62
7
  6
CONTINUOUS
 10
156.279992028
 20
31.9488752009
 11
156.279992028
 21
32.1101936845
 12
156.5690540869
 22
31.9488752009
 13
156.5690540869
 23
32.1101936845
  0
SOLID
  8
0
 62
7
  6
CONTINUOUS
 10
150.5565542799
 20
31.6262382337
 11
150.9612418074
 21
31.5939740028
 12
150.2096793212
 22
31.5939740028
 13
150.2096793212
 23
31.5939740028
  0
SOLID
  8
0
 62
7
  6
CONTINUOUS
 10
150.0362418212
 20
31.5617111435
 11
150.2096793212
 21
31.5939740028
 12
150.9612418074
 22
31.5939740028
 13
150.9612418074
 23
31.5939740028
  0
SOLID
  8
0
 62
7
  6
CONTINUOUS
 10
150.9612418074
 20
31.5939740028
 11
151.1924917523
 21
31.5294468402
 12
150.0362418212
 22
31.5617111435
 13
150.0362418212
 23
31.5617111435
  0
SOLID
  8
0
 62
7
  6
CONTINUOUS
 10
149.8628043005
 20
31.49718259
 11
150.0362418212
 21
31.5617111435
 12
151.1924917523
 22
31.5294468402
 13
151.1924917523
 23
31.5294468402
  0
SOLID
  8
0
 62
7
  6
CONTINUOUS
 10
149.8628043005
 20
31.49718259
 11
151.1924917523
 21
31.5294468402
 12
150.498741835
 22
31.49718259
 13
150.498741835
 23
31.49718259
  0
SOLID
  8
0
 62
7
  6
CONTINUOUS
 10
150.498741835
 20
31.49718259
 11
151.1924917523
 21
31.5294468402
 12
150.9034292799
 22
31.4649197501
 13
150.9034292799
 23
31.4649197501
  0
SOLID
  8
0
 62
7
  6
CONTINUOUS
 10
151.1924917523
 20
31.5294468402
 11
151.3659292523
 21
31.4326554468
 12
150.9034292799
 22
31.4649197501
 13
150.9034292799
 23
31.4649197501
  0
SOLID
  8
0
 62
7
  6
CONTINUOUS
 10
151.0768668626
 20
31.4003926599
 11
150.9034292799
 21
31.4649197501
 12
151.3659292523
 22
31.4326554468
 13
151.3659292523
 23
31.4326554468
  0
SOLID
  8
0
 62
7
  6
CONTINUOUS
 10
151.0768668626
 20
31.4003926599
 11
151.3659292523
 21
31.4326554468
 12
151.1346793074
 22
31.3036013776
 13
151.1346793074
 23
31.3036013776
  0
SOLID
  8
0
 62
7
  6
CONTINUOUS
 10
151.3659292523
 20
31.4326554468
 11
151.4237418626
 21
31.3036013776
 12
151.1346793074
 22
31.3036013776
 13
151.1346793074
 23
31.3036013776
  0
SOLID
  8
0
 62
7
  6
CONTINUOUS
 10
152.4643666972
 20
31.5939739754
 11
152.6956168074
 21
31.6262382787
 12
152.9268669177
 22
31.6262382787
 13
152.9268669177
 23
31.6262382787
  0
SOLID
  8
0
 62
7
  6
CONTINUOUS
 10
152.9268669177
 20
31.6262382787
 11
153.1003044177
 21
31.5939739754
 12
152.4643666972
 22
31.5939739754
 13
152.4643666972
 23
31.5939739754
  0
SOLID
  8
0
 62
7
  6
CONTINUOUS
 10
152.2909293626
 20
31.5294468852
 11
152.4643666972
 21
31.5939739754
 12
153.1003044177
 22
31.5939739754
 13
153.1003044177
 23
31.5939739754
  0
SOLID
  8
0
 62
7
  6
CONTINUOUS
 10
153.1003044177
 20
31.5939739754
 11
153.2737419177
 21
31.5294468852
 12
152.2909293626
 22
31.5294468852
 13
152.2909293626
 23
31.5294468852
  0
SOLID
  8
0
 62
7
  6
CONTINUOUS
 10
153.2737419177
 20
31.5294468852
 11
152.6956168074
 21
31.4971825369
 12
152.2909293626
 22
31.5294468852
 13
152.2909293626
 23
31.5294468852
  0
SOLID
  8
0
 62
7
  6
CONTINUOUS
 10
152.1753043074
 20
31.4649197951
 11
152.2909293626
 21
31.5294468852
 12
152.6956168074
 22
31.4971825369
 13
152.6956168074
 23
31.4971825369
  0
SOLID
  8
0
 62
7
  6
CONTINUOUS
 10
152.6956168074
 20
31.4971825369
 11
152.4643666972
 21
31.4649197951
 12
152.1753043074
 22
31.4649197951
 13
152.1753043074
 23
31.4649197951
  0
SOLID
  8
0
 62
7
  6
CONTINUOUS
 10
152.6956168074
 20
31.4971825369
 11
153.2737419177
 21
31.5294468852
 12
152.9268669177
 22
31.4649197951
 13
152.9268669177
 23
31.4649197951
  0
SOLID
  8
0
 62
7
  6
CONTINUOUS
 10
153.2737419177
 20
31.5294468852
 11
153.3893668074
 21
31.4649197951
 12
152.9268669177
 22
31.4649197951
 13
152.9268669177
 23
31.4649197951
  0
SOLID
  8
0
 62
7
  6
CONTINUOUS
 10
153.0424918074
 20
31.4326554468
 11
152.9268669177
 21
31.4649197951
 12
153.3893668074
 22
31.4649197951
 13
153.3893668074
 23
31.4649197951
  0
SOLID
  8
0
 62
7
  6
CONTINUOUS
 10
153.3893668074
 20
31.4649197951
 11
153.4471794177
 21
31.4003927049
 12
153.0424918074
 22
31.4326554468
 13
153.0424918074
 23
31.4326554468
  0
SOLID
  8
0
 62
7
  6
CONTINUOUS
 10
153.1581166972
 20
31.3681283566
 11
153.0424918074
 21
31.4326554468
 12
153.4471794177
 22
31.4003927049
 13
153.4471794177
 23
31.4003927049
  0
SOLID
  8
0
 62
7
  6
CONTINUOUS
 10
153.1581166972
 20
31.3681283566
 11
153.4471794177
 21
31.4003927049
 12
153.2159293074
 22
31.2390742213
 13
153.2159293074
 23
31.2390742213
  0
SOLID
  8
0
 62
7
  6
CONTINUOUS
 10
153.4471794177
 20
31.4003927049
 11
153.5049916972
 21
31.2390742213
 12
153.2159293074
 22
31.2390742213
 13
153.2159293074
 23
31.2390742213
  0
SOLID
  8
0
 62
7
  6
CONTINUOUS
 10
152.4643666972
 20
31.4649197951
 11
152.2909293626
 21
31.4003927049
 12
152.1753043074
 22
31.4649197951
 13
152.1753043074
 23
31.4649197951
  0
SOLID
  8
0
 62
7
  6
CONTINUOUS
 10
152.2909293626
 20
31.4003927049
 11
152.1753043074
 21
31.3358640533
 12
152.1753043074
 22
31.4649197951
 13
152.1753043074
 23
31.4649197951
  0
SOLID
  8
0
 62
7
  6
CONTINUOUS
 10
152.1753043074
 20
31.3358640533
 11
151.8862417523
 21
30.5938002869
 12
152.1753043074
 22
31.4649197951
 13
152.1753043074
 23
31.4649197951
  0
SOLID
  8
0
 62
7
  6
CONTINUOUS
 10
152.1753043074
 20
31.4649197951
 11
151.8862417523
 21
30.5938002869
 12
152.1753043074
 22
32.1101937295
 13
152.1753043074
 23
32.1101937295
  0
SOLID
  8
0
 62
7
  6
CONTINUOUS
 10
151.8862417523
 20
30.5938002869
 11
151.8862417523
 21
32.1101937295
 12
152.1753043074
 22
32.1101937295
 13
152.1753043074
 23
32.1101937295
  0
SOLID
  8
0
 62
7
  6
CONTINUOUS
 10
152.1753043074
 20
31.3358640533
 11
152.1753043074
 21
30.5938002869
 12
151.8862417523
 22
30.5938002869
 13
151.8862417523
 23
30.5938002869
  0
SOLID
  8
0
 62
7
  6
CONTINUOUS
 10
153.2159293074
 20
30.5938002869
 11
153.2159293074
 21
31.2390742213
 12
153.5049916972
 22
31.2390742213
 13
153.5049916972
 23
31.2390742213
  0
SOLID
  8
0
 62
7
  6
CONTINUOUS
 10
153.5049916972
 20
31.2390742213
 11
153.5049916972
 21
30.5938002869
 12
153.2159293074
 22
30.5938002869
 13
153.2159293074
 23
30.5938002869
  0
SOLID
  8
0
 62
7
  6
CONTINUOUS
 10
154.2565543074
 20
31.5939738288
 11
154.6612419177
 21
31.6262385959
 12
155.0081169177
 22
31.6262385959
 13
155.0081169177
 23
31.6262385959
  0
SOLID
  8
0
 62
7
  6
CONTINUOUS
 10
155.0081169177
 20
31.6262385959
 11
155.3549915869
 21
31.5939738288
 12
154.2565543074
 22
31.5939738288
 13
154.2565543074
 23
31.5939738288
  0
SOLID
  8
0
 62
7
  6
CONTINUOUS
 10
154.1409294177
 20
31.5617111435
 11
154.2565543074
 21
31.5939738288
 12
155.3549915869
 22
31.5939738288
 13
155.3549915869
 23
31.5939738288
  0
SOLID
  8
0
 62
7
  6
CONTINUOUS
 10
155.3549915869
 20
31.5939738288
 11
155.5284290869
 21
31.5294468402
 12
154.1409294177
 22
31.5617111435
 13
154.1409294177
 23
31.5617111435
  0
SOLID
  8
0
 62
7
  6
CONTINUOUS
 10
154.0253041972
 20
31.4971826249
 11
154.1409294177
 21
31.5617111435
 12
155.5284290869
 22
31.5294468402
 13
155.5284290869
 23
31.5294468402
  0
SOLID
  8
0
 62
7
  6
CONTINUOUS
 10
154.0253041972
 20
31.4971826249
 11
155.5284290869
 21
31.5294468402
 12
154.6612419177
 22
31.4971826249
 13
154.6612419177
 23
31.4971826249
  0
SOLID
  8
0
 62
7
  6
CONTINUOUS
 10
154.6612419177
 20
31.4971826249
 11
155.5284290869
 21
31.5294468402
 12
155.0081169177
 22
31.4971826249
 13
155.0081169177
 23
31.4971826249
  0
SOLID
  8
0
 62
7
  6
CONTINUOUS
 10
155.0081169177
 20
31.4971826249
 11
155.5284290869
 21
31.5294468402
 12
155.239367028
 22
31.4649194065
 13
155.239367028
 23
31.4649194065
  0
SOLID
  8
0
 62
7
  6
CONTINUOUS
 10
155.5284290869
 20
31.5294468402
 11
155.6440543074
 21
31.4649194065
 12
155.239367028
 22
31.4649194065
 13
155.239367028
 23
31.4649194065
  0
SOLID
  8
0
 62
7
  6
CONTINUOUS
 10
153.9674919177
 20
31.4326554138
 11
154.0253041972
 21
31.4971826249
 12
154.6612419177
 22
31.4971826249
 13
154.6612419177
 23
31.4971826249
  0
SOLID
  8
0
 62
7
  6
CONTINUOUS
 10
155.3549915869
 20
31.4326554138
 11
155.239367028
 21
31.4649194065
 12
155.6440543074
 22
31.4649194065
 13
155.6440543074
 23
31.4649194065
  0
SOLID
  8
0
 62
7
  6
CONTINUOUS
 10
155.3549915869
 20
31.4326554138
 11
155.6440543074
 21
31.4649194065
 12
155.412804528
 22
31.3681282026
 13
155.412804528
 23
31.3681282026
  0
SOLID
  8
0
 62
7
  6
CONTINUOUS
 10
155.6440543074
 20
31.4649194065
 11
155.7018665869
 21
31.3681282026
 12
155.412804528
 22
31.3681282026
 13
155.412804528
 23
31.3681282026
  0
SOLID
  8
0
 62
7
  6
CONTINUOUS
 10
155.412804528
 20
31.2713369632
 11
155.412804528
 21
31.3681282026
 12
155.7018665869
 22
31.3681282026
 13
155.7018665869
 23
31.3681282026
  0
SOLID
  8
0
 62
7
  6
CONTINUOUS
 10
155.412804528
 20
31.2713369632
 11
155.7018665869
 21
31.3681282026
 12
155.412804528
 22
31.1422827828
 13
155.412804528
 23
31.1422827828
  0
SOLID
  8
0
 62
7
  6
CONTINUOUS
 10
155.412804528
 20
31.1422827828
 11
155.7018665869
 21
31.3681282026
 12
155.412804528
 22
30.9487004259
 13
155.412804528
 23
30.9487004259
  0
SOLID
  8
0
 62
7
  6
CONTINUOUS
 10
155.7018665869
 20
31.3681282026
 11
155.7018665869
 21
30.8519086025
 12
155.412804528
 22
30.9487004259
 13
155.412804528
 23
30.9487004259
  0
SOLID
  8
0
 62
7
  6
CONTINUOUS
 10
157.6096790869
 20
31.5939736268
 11
157.840929528
 21
31.6262383465
 12
158.0721793074
 22
31.6262383465
 13
158.0721793074
 23
31.6262383465
  0
SOLID
  8
0
 62
7
  6
CONTINUOUS
 10
158.0721793074
 20
31.6262383465
 11
158.2456168074
 21
31.5939736268
 12
157.6096790869
 22
31.5939736268
 13
157.6096790869
 23
31.5939736268
  0
SOLID
  8
0
 62
7
  6
CONTINUOUS
 10
157.4362415869
 20
31.5294472848
 11
157.6096790869
 21
31.5939736268
 12
158.2456168074
 22
31.5939736268
 13
158.2456168074
 23
31.5939736268
  0
SOLID
  8
0
 62
7
  6
CONTINUOUS
 10
158.2456168074
 20
31.5939736268
 11
158.4190543074
 21
31.5294472848
 12
157.4362415869
 22
31.5294472848
 13
157.4362415869
 23
31.5294472848
  0
SOLID
  8
0
 62
7
  6
CONTINUOUS
 10
158.4190543074
 20
31.5294472848
 11
157.840929528
 21
31.4971825369
 12
157.4362415869
 22
31.5294472848
 13
157.4362415869
 23
31.5294472848
  0
SOLID
  8
0
 62
7
  6
CONTINUOUS
 10
157.320617028
 20
31.4649199103
 11
157.4362415869
 21
31.5294472848
 12
157.840929528
 22
31.4971825369
 13
157.840929528
 23
31.4971825369
  0
SOLID
  8
0
 62
7
  6
CONTINUOUS
 10
157.840929528
 20
31.4971825369
 11
157.6096790869
 21
31.4649199103
 12
157.320617028
 22
31.4649199103
 13
157.320617028
 23
31.4649199103
  0
SOLID
  8
0
 62
7
  6
CONTINUOUS
 10
157.840929528
 20
31.4971825369
 11
158.4190543074
 21
31.5294472848
 12
158.0721793074
 22
31.4649199103
 13
158.0721793074
 23
31.4649199103
  0
SOLID
  8
0
 62
7
  6
CONTINUOUS
 10
158.4190543074
 20
31.5294472848
 11
158.534679528
 21
31.4649199103
 12
158.0721793074
 22
31.4649199103
 13
158.0721793074
 23
31.4649199103
  0
SOLID
  8
0
 62
7
  6
CONTINUOUS
 10
158.187804528
 20
31.4326554468
 11
158.0721793074
 21
31.4649199103
 12
158.534679528
 22
31.4649199103
 13
158.534679528
 23
31.4649199103
  0
SOLID
  8
0
 62
7
  6
CONTINUOUS
 10
158.187804528
 20
31.4326554468
 11
158.534679528
 21
31.4649199103
 12
158.3034290869
 22
31.3681288486
 13
158.3034290869
 23
31.3681288486
  0
SOLID
  8
0
 62
7
  6
CONTINUOUS
 10
158.534679528
 20
31.4649199103
 11
158.5924918074
 21
31.3681288486
 12
158.3034290869
 22
31.3681288486
 13
158.3034290869
 23
31.3681288486
  0
SOLID
  8
0
 62
7
  6
CONTINUOUS
 10
158.361242028
 20
31.2068093799
 11
158.3034290869
 21
31.3681288486
 12
158.5924918074
 22
31.3681288486
 13
158.5924918074
 23
31.3681288486
  0
SOLID
  8
0
 62
7
  6
CONTINUOUS
 10
158.5924918074
 20
31.3681288486
 11
158.6503040869
 21
31.2068093799
 12
158.361242028
 22
31.2068093799
 13
158.361242028
 23
31.2068093799
  0
SOLID
  8
0
 62
7
  6
CONTINUOUS
 10
157.6096790869
 20
31.4649199103
 11
157.4362415869
 21
31.4003926599
 12
157.320617028
 22
31.4649199103
 13
157.320617028
 23
31.4649199103
  0
SOLID
  8
0
 62
7
  6
CONTINUOUS
 10
157.4362415869
 20
31.4003926599
 11
157.320617028
 21
31.3358640533
 12
157.320617028
 22
31.4649199103
 13
157.320617028
 23
31.4649199103
  0
SOLID
  8
0
 62
7
  6
CONTINUOUS
 10
157.320617028
 20
31.3358640533
 11
157.0315543074
 21
30.5938003547
 12
157.320617028
 22
31.4649199103
 13
157.320617028
 23
31.4649199103
  0
SOLID
  8
0
 62
7
  6
CONTINUOUS
 10
157.320617028
 20
31.4649199103
 11
157.0315543074
 21
30.5938003547
 12
157.320617028
 22
31.6262383465
 13
157.320617028
 23
31.6262383465
  0
SOLID
  8
0
 62
7
  6
CONTINUOUS
 10
157.0315543074
 20
30.5938003547
 11
157.0315543074
 21
31.6262383465
 12
157.320617028
 22
31.6262383465
 13
157.320617028
 23
31.6262383465
  0
SOLID
  8
0
 62
7
  6
CONTINUOUS
 10
157.320617028
 20
31.3358640533
 11
157.320617028
 21
30.5938003547
 12
157.0315543074
 22
30.5938003547
 13
157.0315543074
 23
30.5938003547
  0
SOLID
  8
0
 62
7
  6
CONTINUOUS
 10
158.361242028
 20
30.5938003547
 11
158.361242028
 21
31.2068093799
 12
158.6503040869
 22
31.2068093799
 13
158.6503040869
 23
31.2068093799
  0
SOLID
  8
0
 62
7
  6
CONTINUOUS
 10
158.6503040869
 20
31.2068093799
 11
158.6503040869
 21
30.5938003547
 12
158.361242028
 22
30.5938003547
 13
158.361242028
 23
30.5938003547
  0
SOLID
  8
0
 62
7
  6
CONTINUOUS
 10
159.4596793074
 20
31.5939739474
 11
159.8065543074
 21
31.6262381969
 12
160.1534293074
 22
31.6262381969
 13
160.1534293074
 23
31.6262381969
  0
SOLID
  8
0
 62
7
  6
CONTINUOUS
 10
160.1534293074
 20
31.6262381969
 11
160.5003043074
 21
31.5939739474
 12
159.4596793074
 22
31.5939739474
 13
159.4596793074
 23
31.5939739474
  0
SOLID
  8
0
 62
7
  6
CONTINUOUS
 10
159.228429528
 20
31.5294468402
 11
159.4596793074
 21
31.5939739474
 12
160.5003043074
 22
31.5939739474
 13
160.5003043074
 23
31.5939739474
  0
SOLID
  8
0
 62
7
  6
CONTINUOUS
 10
159.228429528
 20
31.5294468402
 11
160.5003043074
 21
31.5939739304
 12
160.6737418074
 22
31.5617111435
 13
160.6737418074
 23
31.5617111435
  0
SOLID
  8
0
 62
7
  6
CONTINUOUS
 10
159.228429528
 20
31.5294468402
 11
160.6737418074
 21
31.5617111435
 12
159.8065543074
 22
31.4971825592
 13
159.8065543074
 23
31.4971825592
  0
SOLID
  8
0
 62
7
  6
CONTINUOUS
 10
159.8065543074
 20
31.4971825592
 11
160.6737418074
 21
31.5617111435
 12
160.1534293074
 22
31.4971825592
 13
160.1534293074
 23
31.4971825592
  0
SOLID
  8
0
 62
7
  6
CONTINUOUS
 10
160.6737418074
 20
31.5617111435
 11
160.8471793074
 21
31.4971825592
 12
160.1534293074
 22
31.4971825592
 13
160.1534293074
 23
31.4971825592
  0
SOLID
  8
0
 62
7
  6
CONTINUOUS
 10
160.5003043074
 20
31.4649197501
 11
160.1534293074
 21
31.4971825592
 12
160.8471793074
 22
31.4971825592
 13
160.8471793074
 23
31.4971825592
  0
SOLID
  8
0
 62
7
  6
CONTINUOUS
 10
159.1128043074
 20
31.4326555427
 11
159.228429528
 21
31.5294468402
 12
159.8065543074
 22
31.4971825592
 13
159.8065543074
 23
31.4971825592
  0
SOLID
  8
0
 62
7
  6
CONTINUOUS
 10
160.5003043074
 20
31.4649197501
 11
160.8471793074
 21
31.4971825592
 12
160.615929528
 22
31.4326555427
 13
160.615929528
 23
31.4326555427
  0
SOLID
  8
0
 62
7
  6
CONTINUOUS
 10
160.615929528
 20
31.4326555427
 11
160.8471793074
 21
31.4971825592
 12
160.6737418074
 22
31.3681283005
 13
160.6737418074
 23
31.3681283005
  0
SOLID
  8
0
 62
7
  6
CONTINUOUS
 10
160.8471793074
 20
31.4971825592
 11
160.9628038663
 21
31.3681283005
 12
160.6737418074
 22
31.3681283005
 13
160.6737418074
 23
31.3681283005
  0
SOLID
  8
0
 62
7
  6
CONTINUOUS
 10
150.2674918074
 20
31.4649197501
 11
149.7471793074
 21
31.4326554237
 12
150.498741835
 22
31.4971824493
 13
150.498741835
 23
31.4971824493
  0
SOLID
  8
0
 62
7
  6
CONTINUOUS
 10
149.7471793074
 20
31.4326554237
 11
149.8628043005
 21
31.4971824493
 12
150.498741835
 22
31.4971824493
 13
150.498741835
 23
31.4971824493
  0
SOLID
  8
0
 62
7
  6
CONTINUOUS
 10
150.2674918074
 20
31.4649197501
 11
150.1518667936
 21
31.4326554237
 12
149.7471793074
 22
31.4326554237
 13
149.7471793074
 23
31.4326554237
  0
SOLID
  8
0
 62
7
  6
CONTINUOUS
 10
149.6315543091
 20
31.3036012664
 11
149.7471793074
 21
31.4326554237
 12
150.1518667936
 22
31.4326554237
 13
150.1518667936
 23
31.4326554237
  0
SOLID
  8
0
 62
7
  6
CONTINUOUS
 10
153.9674919177
 20
31.4326554237
 11
154.6612419177
 21
31.4971825369
 12
154.4299918074
 22
31.4649197501
 13
154.4299918074
 23
31.4649197501
  0
SOLID
  8
0
 62
7
  6
CONTINUOUS
 10
154.4299918074
 20
31.4649197501
 11
154.3143669177
 21
31.4326554237
 12
153.9674919177
 22
31.4326554237
 13
153.9674919177
 23
31.4326554237
  0
SOLID
  8
0
 62
7
  6
CONTINUOUS
 10
153.9674919177
 20
31.3681283335
 11
153.9674919177
 21
31.4326554237
 12
154.3143669177
 22
31.4326554237
 13
154.3143669177
 23
31.4326554237
  0
SOLID
  8
0
 62
7
  6
CONTINUOUS
 10
154.3143669177
 20
31.4326554237
 11
154.2565543074
 21
31.3681283335
 12
153.9674919177
 22
31.3681283335
 13
153.9674919177
 23
31.3681283335
  0
SOLID
  8
0
 62
7
  6
CONTINUOUS
 10
159.1128043074
 20
31.4326555528
 11
159.8065543074
 21
31.4971825369
 12
159.575304528
 22
31.4649197501
 13
159.575304528
 23
31.4649197501
  0
SOLID
  8
0
 62
7
  6
CONTINUOUS
 10
159.575304528
 20
31.4649197501
 11
159.4596793074
 21
31.4326555528
 12
159.1128043074
 22
31.4326555528
 13
159.1128043074
 23
31.4326555528
  0
SOLID
  8
0
 62
7
  6
CONTINUOUS
 10
159.1128043074
 20
31.3681284626
 11
159.1128043074
 21
31.4326555528
 12
159.4596793074
 22
31.4326555528
 13
159.4596793074
 23
31.4326555528
  0
SOLID
  8
0
 62
7
  6
CONTINUOUS
 10
159.4596793074
 20
31.4326555528
 11
159.401867028
 21
31.3681284626
 12
159.1128043074
 22
31.3681284626
 13
159.1128043074
 23
31.3681284626
  0
SOLID
  8
0
 62
7
  6
CONTINUOUS
 10
159.228429528
 20
31.2390741763
 11
159.1128043074
 21
31.3681284626
 12
159.401867028
 22
31.3681284626
 13
159.401867028
 23
31.3681284626
  0
SOLID
  8
0
 62
7
  6
CONTINUOUS
 10
149.6315543091
 20
31.3036012664
 11
150.1518667936
 21
31.4326554468
 12
149.9784292936
 22
31.3358640533
 13
149.9784292936
 23
31.3358640533
  0
SOLID
  8
0
 62
7
  6
CONTINUOUS
 10
149.9784292936
 20
31.3358640533
 11
149.9206168074
 21
31.2713369632
 12
149.6315543091
 22
31.3036012664
 13
149.6315543091
 23
31.3036012664
  0
SOLID
  8
0
 62
7
  6
CONTINUOUS
 10
149.5737418074
 20
31.1100184796
 11
149.6315543091
 21
31.3036012664
 12
149.9206168074
 22
31.2713369632
 13
149.9206168074
 23
31.2713369632
  0
SOLID
  8
0
 62
7
  6
CONTINUOUS
 10
154.4299918074
 20
31.2390741763
 11
154.7768668074
 21
31.271336924
 12
155.412804528
 22
31.271336924
 13
155.412804528
 23
31.271336924
  0
SOLID
  8
0
 62
7
  6
CONTINUOUS
 10
154.4299918074
 20
31.2390741763
 11
155.412804528
 21
31.271336924
 12
154.1987416972
 22
31.1745462761
 13
154.1987416972
 23
31.1745462761
  0
SOLID
  8
0
 62
7
  6
CONTINUOUS
 10
154.1987416972
 20
31.1745462761
 11
155.412804528
 21
31.271336924
 12
154.7768668074
 22
31.1422827436
 13
154.7768668074
 23
31.1422827436
  0
SOLID
  8
0
 62
7
  6
CONTINUOUS
 10
155.412804528
 20
31.271336924
 11
155.412804528
 21
31.1422827436
 12
154.7768668074
 22
31.1422827436
 13
154.7768668074
 23
31.1422827436
  0
SOLID
  8
0
 62
7
  6
CONTINUOUS
 10
159.228429528
 20
31.2390745501
 11
159.401867028
 21
31.3681283566
 12
159.4596793074
 22
31.3036012664
 13
159.4596793074
 23
31.3036012664
  0
SOLID
  8
0
 62
7
  6
CONTINUOUS
 10
159.4596793074
 20
31.3036012664
 11
159.6331168074
 21
31.2390745501
 12
159.228429528
 22
31.2390745501
 13
159.228429528
 23
31.2390745501
  0
SOLID
  8
0
 62
7
  6
CONTINUOUS
 10
159.4596793074
 20
31.1422827828
 11
159.228429528
 21
31.2390745501
 12
159.6331168074
 22
31.2390745501
 13
159.6331168074
 23
31.2390745501
  0
SOLID
  8
0
 62
7
  6
CONTINUOUS
 10
159.6331168074
 20
31.2390745501
 11
160.615929528
 21
31.0777556927
 12
159.4596793074
 22
31.1422827828
 13
159.4596793074
 23
31.1422827828
  0
SOLID
  8
0
 62
7
  6
CONTINUOUS
 10
160.442492028
 20
30.9809646623
 11
159.4596793074
 21
31.1422827828
 12
160.615929528
 22
31.0777556927
 13
160.615929528
 23
31.0777556927
  0
SOLID
  8
0
 62
7
  6
CONTINUOUS
 10
160.615929528
 20
31.0777556927
 11
160.8471793074
 21
30.9809646623
 12
160.442492028
 22
30.9809646623
 13
160.442492028
 23
30.9809646623
  0
SOLID
  8
0
 62
7
  6
CONTINUOUS
 10
160.615929528
 20
30.9164372091
 11
160.442492028
 21
30.9809646623
 12
160.8471793074
 22
30.9809646623
 13
160.8471793074
 23
30.9809646623
  0
SOLID
  8
0
 62
7
  6
CONTINUOUS
 10
160.615929528
 20
30.9164372091
 11
160.8471793074
 21
30.9809646623
 12
160.6737418074
 22
30.8519089441
 13
160.6737418074
 23
30.8519089441
  0
SOLID
  8
0
 62
7
  6
CONTINUOUS
 10
160.8471793074
 20
30.9809646623
 11
160.9628038663
 21
30.8519089441
 12
160.6737418074
 22
30.8519089441
 13
160.6737418074
 23
30.8519089441
  0
SOLID
  8
0
 62
7
  6
CONTINUOUS
 10
160.615929528
 20
30.7873818593
 11
160.6737418074
 21
30.8519089441
 12
160.9628038663
 22
30.8519089441
 13
160.9628038663
 23
30.8519089441
  0
SOLID
  8
0
 62
7
  6
CONTINUOUS
 10
160.9628038663
 20
30.8519089441
 11
160.9628038663
 21
30.7873818593
 12
160.615929528
 22
30.7873818593
 13
160.615929528
 23
30.7873818593
  0
SOLID
  8
0
 62
7
  6
CONTINUOUS
 10
160.5003043074
 20
30.7551187255
 11
160.615929528
 21
30.7873818593
 12
160.9628038663
 22
30.7873818593
 13
160.9628038663
 23
30.7873818593
  0
SOLID
  8
0
 62
7
  6
CONTINUOUS
 10
160.5003043074
 20
30.7551187255
 11
160.9628038663
 21
30.7873818593
 12
160.269054528
 22
30.7228547745
 13
160.269054528
 23
30.7228547745
  0
SOLID
  8
0
 62
7
  6
CONTINUOUS
 10
160.9628038663
 20
30.7873818593
 11
160.8471793074
 21
30.6905916353
 12
160.269054528
 22
30.7228547745
 13
160.269054528
 23
30.7228547745
  0
SOLID
  8
0
 62
7
  6
CONTINUOUS
 10
160.8471793074
 20
30.6905916353
 11
159.401867028
 21
30.658327332
 12
160.269054528
 22
30.7228547745
 13
160.269054528
 23
30.7228547745
  0
SOLID
  8
0
 62
7
  6
CONTINUOUS
 10
160.269054528
 20
30.7228547745
 11
159.401867028
 21
30.658327332
 12
159.922179528
 22
30.7228547745
 13
159.922179528
 23
30.7228547745
  0
SOLID
  8
0
 62
7
  6
CONTINUOUS
 10
159.401867028
 20
30.658327332
 11
159.228429528
 21
30.7228547745
 12
159.922179528
 22
30.7228547745
 13
159.922179528
 23
30.7228547745
  0
SOLID
  8
0
 62
7
  6
CONTINUOUS
 10
159.401867028
 20
30.658327332
 11
160.8471793074
 21
30.6905916353
 12
159.575304528
 22
30.6260629858
 13
159.575304528
 23
30.6260629858
  0
SOLID
  8
0
 62
7
  6
CONTINUOUS
 10
160.8471793074
 20
30.6905916353
 11
160.615929528
 21
30.6260629858
 12
159.575304528
 22
30.6260629858
 13
159.575304528
 23
30.6260629858
  0
SOLID
  8
0
 62
7
  6
CONTINUOUS
 10
159.922179528
 20
30.5938006049
 11
159.575304528
 21
30.6260629858
 12
160.615929528
 22
30.6260629858
 13
160.615929528
 23
30.6260629858
  0
SOLID
  8
0
 62
7
  6
CONTINUOUS
 10
160.615929528
 20
30.6260629858
 11
160.269054528
 21
30.5938006049
 12
159.922179528
 22
30.5938006049
 13
159.922179528
 23
30.5938006049
  0
SOLID
  8
0
 62
7
  6
CONTINUOUS
 10
149.5737418074
 20
31.1100184796
 11
149.9206168074
 21
31.2713369632
 12
149.8628043005
 22
31.1422827828
 13
149.8628043005
 23
31.1422827828
  0
SOLID
  8
0
 62
7
  6
CONTINUOUS
 10
149.8628043005
 20
31.1422827828
 11
149.8628043005
 21
31.0454914852
 12
149.5737418074
 22
31.1100184796
 13
149.5737418074
 23
31.1100184796
  0
SOLID
  8
0
 62
7
  6
CONTINUOUS
 10
149.6315543091
 20
30.9164372091
 11
149.5737418074
 21
31.1100184796
 12
149.8628043005
 22
31.0454914852
 13
149.8628043005
 23
31.0454914852
  0
SOLID
  8
0
 62
7
  6
CONTINUOUS
 10
149.8628043005
 20
31.0454914852
 11
149.9784292936
 21
30.8841729058
 12
149.6315543091
 22
30.9164372091
 13
149.6315543091
 23
30.9164372091
  0
SOLID
  8
0
 62
7
  6
CONTINUOUS
 10
149.7471793074
 20
30.7873813202
 11
149.6315543091
 21
30.9164372091
 12
149.9784292936
 22
30.8841729058
 13
149.9784292936
 23
30.8841729058
  0
SOLID
  8
0
 62
7
  6
CONTINUOUS
 10
149.9784292936
 20
30.8841729058
 11
150.1518667936
 21
30.7873813202
 12
149.7471793074
 22
30.7873813202
 13
149.7471793074
 23
30.7873813202
  0
SOLID
  8
0
 62
7
  6
CONTINUOUS
 10
149.8628043005
 20
30.7228547004
 11
149.7471793074
 21
30.7873813202
 12
150.1518667936
 22
30.7873813202
 13
150.1518667936
 23
30.7873813202
  0
SOLID
  8
0
 62
7
  6
CONTINUOUS
 10
150.1518667936
 20
30.7873813202
 11
150.498741835
 21
30.7228547004
 12
149.8628043005
 22
30.7228547004
 13
149.8628043005
 23
30.7228547004
  0
SOLID
  8
0
 62
7
  6
CONTINUOUS
 10
150.0362418212
 20
30.658327332
 11
149.8628043005
 21
30.7228547004
 12
150.498741835
 22
30.7228547004
 13
150.498741835
 23
30.7228547004
  0
SOLID
  8
0
 62
7
  6
CONTINUOUS
 10
154.0831168074
 20
31.1100184386
 11
154.1987416972
 21
31.1745462761
 12
154.7768668074
 22
31.1422827828
 13
154.7768668074
 23
31.1422827828
  0
SOLID
  8
0
 62
7
  6
CONTINUOUS
 10
154.7768668074
 20
31.1422827828
 11
154.5456166972
 21
31.1100184386
 12
154.0831168074
 22
31.1100184386
 13
154.0831168074
 23
31.1100184386
  0
SOLID
  8
0
 62
7
  6
CONTINUOUS
 10
153.9674919177
 20
30.9809642992
 11
154.0831168074
 21
31.1100184386
 12
154.5456166972
 22
31.1100184386
 13
154.5456166972
 23
31.1100184386
  0
SOLID
  8
0
 62
7
  6
CONTINUOUS
 10
154.3143669177
 20
31.0132277988
 11
153.9674919177
 21
30.9809642992
 12
154.4299918074
 22
31.0777556927
 13
154.4299918074
 23
31.0777556927
  0
SOLID
  8
0
 62
7
  6
CONTINUOUS
 10
153.9674919177
 20
30.9809642992
 11
154.5456166972
 21
31.1100184796
 12
154.4299918074
 22
31.0777556927
 13
154.4299918074
 23
31.0777556927
  0
SOLID
  8
0
 62
7
  6
CONTINUOUS
 10
154.3143669177
 20
31.0132277988
 11
154.2565543074
 21
30.9164372091
 12
153.9674919177
 22
30.9809642992
 13
153.9674919177
 23
30.9809642992
  0
SOLID
  8
0
 62
7
  6
CONTINUOUS
 10
153.9674919177
 20
30.8841729058
 11
153.9674919177
 21
30.9809642992
 12
154.2565543074
 22
30.9164372091
 13
154.2565543074
 23
30.9164372091
  0
SOLID
  8
0
 62
7
  6
CONTINUOUS
 10
154.2565543074
 20
30.9164372091
 11
154.2565543074
 21
30.8519086025
 12
153.9674919177
 22
30.8841729058
 13
153.9674919177
 23
30.8841729058
  0
SOLID
  8
0
 62
7
  6
CONTINUOUS
 10
154.0253041972
 20
30.7551187255
 11
153.9674919177
 21
30.8841729058
 12
154.2565543074
 22
30.8519086025
 13
154.2565543074
 23
30.8519086025
  0
SOLID
  8
0
 62
7
  6
CONTINUOUS
 10
155.412804528
 20
30.9487004259
 11
155.7018665869
 21
30.8519086025
 12
155.3549915869
 22
30.8841729058
 13
155.3549915869
 23
30.8841729058
  0
SOLID
  8
0
 62
7
  6
CONTINUOUS
 10
155.1815540869
 20
30.7873815123
 11
155.3549915869
 21
30.8841729058
 12
155.7018665869
 22
30.8519086025
 13
155.7018665869
 23
30.8519086025
  0
SOLID
  8
0
 62
7
  6
CONTINUOUS
 10
155.1815540869
 20
30.7873815123
 11
155.7018665869
 21
30.8519086025
 12
155.412804528
 22
30.7551187255
 13
155.412804528
 23
30.7551187255
  0
SOLID
  8
0
 62
7
  6
CONTINUOUS
 10
155.7018665869
 20
30.8519086025
 11
155.759679528
 21
30.6905916353
 12
155.412804528
 22
30.7551187255
 13
155.412804528
 23
30.7551187255
  0
SOLID
  8
0
 62
7
  6
CONTINUOUS
 10
155.4706168074
 20
30.658327332
 11
155.412804528
 21
30.7551187255
 12
155.759679528
 22
30.6905916353
 13
155.759679528
 23
30.6905916353
  0
SOLID
  8
0
 62
7
  6
CONTINUOUS
 10
155.4706168074
 20
30.658327332
 11
155.759679528
 21
30.6905916353
 12
155.5284290869
 22
30.5938002079
 13
155.5284290869
 23
30.5938002079
  0
SOLID
  8
0
 62
7
  6
CONTINUOUS
 10
155.759679528
 20
30.6905916353
 11
155.8174918074
 21
30.5938002079
 12
155.5284290869
 22
30.5938002079
 13
155.5284290869
 23
30.5938002079
  0
SOLID
  8
0
 62
7
  6
CONTINUOUS
 10
151.0768668626
 20
30.8196456577
 11
151.1346793074
 21
30.9164373395
 12
151.4237418626
 22
30.9164373395
 13
151.4237418626
 23
30.9164373395
  0
SOLID
  8
0
 62
7
  6
CONTINUOUS
 10
151.4237418626
 20
30.9164373395
 11
151.3659292523
 21
30.7873815123
 12
151.0768668626
 22
30.8196456577
 13
151.0768668626
 23
30.8196456577
  0
SOLID
  8
0
 62
7
  6
CONTINUOUS
 10
150.9034292799
 20
30.7551187255
 11
151.0768668626
 21
30.8196456577
 12
151.3659292523
 22
30.7873815123
 13
151.3659292523
 23
30.7873815123
  0
SOLID
  8
0
 62
7
  6
CONTINUOUS
 10
150.9034292799
 20
30.7551187255
 11
151.3659292523
 21
30.7873815123
 12
150.498741835
 22
30.7228544222
 13
150.498741835
 23
30.7228544222
  0
SOLID
  8
0
 62
7
  6
CONTINUOUS
 10
151.3659292523
 20
30.7873815123
 11
151.1924917523
 21
30.6905916353
 12
150.498741835
 22
30.7228544222
 13
150.498741835
 23
30.7228544222
  0
SOLID
  8
0
 62
7
  6
CONTINUOUS
 10
150.0362418212
 20
30.658327332
 11
150.498741835
 21
30.7228544222
 12
151.1924917523
 22
30.6905916353
 13
151.1924917523
 23
30.6905916353
  0
SOLID
  8
0
 62
7
  6
CONTINUOUS
 10
150.0362418212
 20
30.658327332
 11
151.1924917523
 21
30.6905916353
 12
150.2096793212
 22
30.6260631011
 13
150.2096793212
 23
30.6260631011
  0
SOLID
  8
0
 62
7
  6
CONTINUOUS
 10
151.1924917523
 20
30.6905916353
 11
150.9612418074
 21
30.6260631011
 12
150.2096793212
 22
30.6260631011
 13
150.2096793212
 23
30.6260631011
  0
SOLID
  8
0
 62
7
  6
CONTINUOUS
 10
150.5565542799
 20
30.5938002419
 11
150.2096793212
 21
30.6260631011
 12
150.9612418074
 22
30.6260631011
 13
150.9612418074
 23
30.6260631011
  0
SOLID
  8
0
 62
7
  6
CONTINUOUS
 10
154.0253041972
 20
30.7551187255
 11
154.2565543074
 21
30.8519086025
 12
154.3143669177
 22
30.7873815123
 13
154.3143669177
 23
30.7873815123
  0
SOLID
  8
0
 62
7
  6
CONTINUOUS
 10
154.3143669177
 20
30.7873815123
 11
154.5456166972
 21
30.7228544222
 12
154.0253041972
 22
30.7551187255
 13
154.0253041972
 23
30.7551187255
  0
SOLID
  8
0
 62
7
  6
CONTINUOUS
 10
154.1987416972
 20
30.658327332
 11
154.0253041972
 21
30.7551187255
 12
154.5456166972
 22
30.7228544222
 13
154.5456166972
 23
30.7228544222
  0
SOLID
  8
0
 62
7
  6
CONTINUOUS
 10
154.8924916972
 20
30.7228544637
 11
155.1815540869
 21
30.7873815123
 12
155.412804528
 22
30.7551187255
 13
155.412804528
 23
30.7551187255
  0
SOLID
  8
0
 62
7
  6
CONTINUOUS
 10
155.412804528
 20
30.7551187255
 11
155.3549915869
 21
30.6905916353
 12
154.8924916972
 22
30.7228544637
 13
154.8924916972
 23
30.7228544637
  0
SOLID
  8
0
 62
7
  6
CONTINUOUS
 10
155.3549915869
 20
30.6905916353
 11
154.1987416972
 21
30.658327332
 12
154.8924916972
 22
30.7228544637
 13
154.8924916972
 23
30.7228544637
  0
SOLID
  8
0
 62
7
  6
CONTINUOUS
 10
154.1987416972
 20
30.658327332
 11
154.5456166972
 21
30.7228544637
 12
154.8924916972
 22
30.7228544637
 13
154.8924916972
 23
30.7228544637
  0
SOLID
  8
0
 62
7
  6
CONTINUOUS
 10
154.1987416972
 20
30.658327332
 11
155.3549915869
 21
30.6905916353
 12
154.3143669177
 22
30.6260630541
 13
154.3143669177
 23
30.6260630541
  0
SOLID
  8
0
 62
7
  6
CONTINUOUS
 10
155.3549915869
 20
30.6905916353
 11
155.1815540869
 21
30.6260630541
 12
154.3143669177
 22
30.6260630541
 13
154.3143669177
 23
30.6260630541
  0
SOLID
  8
0
 62
7
  6
CONTINUOUS
 10
154.5456166972
 20
30.5938002188
 11
154.3143669177
 21
30.6260630541
 12
155.1815540869
 22
30.6260630541
 13
155.1815540869
 23
30.6260630541
  0
SOLID
  8
0
 62
7
  6
CONTINUOUS
 10
155.1815540869
 20
30.6260630541
 11
154.8924916972
 21
30.5938002188
 12
154.5456166972
 22
30.5938002188
 13
154.5456166972
 23
30.5938002188
  0
SOLID
  8
0
 62
7
  6
CONTINUOUS
 10
159.575304528
 20
30.7551187255
 11
159.228429528
 21
30.7228544637
 12
159.4596793074
 22
30.7873815123
 13
159.4596793074
 23
30.7873815123
  0
SOLID
  8
0
 62
7
  6
CONTINUOUS
 10
159.4596793074
 20
30.7873815123
 11
159.228429528
 21
30.7228544637
 12
159.401867028
 22
30.851908644
 13
159.401867028
 23
30.851908644
  0
SOLID
  8
0
 62
7
  6
CONTINUOUS
 10
159.228429528
 20
30.7228544637
 11
159.1128043074
 21
30.851908644
 12
159.401867028
 22
30.851908644
 13
159.401867028
 23
30.851908644
  0
SOLID
  8
0
 62
7
  6
CONTINUOUS
 10
159.575304528
 20
30.7551187255
 11
159.922179528
 21
30.7228544637
 12
159.228429528
 22
30.7228544637
 13
159.228429528
 23
30.7228544637
  0
SOLID
  8
0
 62
7
  6
CONTINUOUS
 10
156.279992028
 20
30.5938002419
 11
156.279992028
 21
31.6262382337
 12
156.5690540869
 22
30.5938002419
 13
156.5690540869
 23
31.6262382337
  0
ENDBLK
  8
0
  6
BYBLOCK
 62
0
  0
BLOCK
  8
0
 62
2
  6
CONTINUOUS
  2
SYMBOL_3_BL0
 70
64
 10
32.1213064866
 20
19.8534310916
  0
TEXT
  8
0
 62
7
  6
CONTINUOUS
 10
18.3860103289
 20
19.2268451992
  7
TEXTSTYLE_3
 40
2.7338706658
  1
Ammeraal Beltech
 41
1.0
 51
15.0
 72
0
  0
TEXT
  8
0
 62
7
  6
CONTINUOUS
 10
29.1868111546
 20
16.9533085264
  7
TEXTSTYLE_4
 40
1.0935482663
  1
Innovation & Service in Belting
 41
1.0
 72
0
  0
LINE
  8
0
 62
7
  6
CONTINUOUS
 10
12.3614696776
 20
19.9934385078
 11
13.1396216709
 21
23.6543558055
  0
LINE
  8
0
 62
7
  6
CONTINUOUS
 10
23.2347899607
 20
27.3177497171
 11
13.6274394139
 21
24.1961322958
  0
LINE
  8
0
 62
7
  6
CONTINUOUS
 10
12.5867530099
 20
19.3000877048
 11
20.093828271
 21
12.5406867788
  0
LINE
  8
0
 62
7
  6
CONTINUOUS
 10
12.8492874206
 20
20.5352149982
 11
23.6575567857
 21
24.0470345971
  0
LINE
  8
0
 62
7
  6
CONTINUOUS
 10
23.6533516486
 20
13.6972460334
 11
15.2078919798
 21
21.3015720751
  0
LINE
  8
0
 62
7
  6
CONTINUOUS
 10
24.1731743684
 20
26.4728246013
 11
23.1966148312
 21
21.8784731989
  0
LINE
  8
0
 62
7
  6
CONTINUOUS
 10
22.4968128835
 20
18.5861638851
 11
21.810364672
 21
15.3566789607
  0
LINE
  8
0
 62
7
  6
CONTINUOUS
 10
24.8542704669
 20
14.087448211
 11
25.8105020025
 21
18.5861638851
  0
LINE
  8
0
 62
7
  6
CONTINUOUS
 10
26.5103039502
 20
21.8784731989
 11
26.9545457526
 21
23.9684665583
  0
LINE
  8
0
 62
7
  6
CONTINUOUS
 10
20.8069293463
 20
12.3891124661
 11
24.3664527239
 21
13.5456717207
  0
LINE
  8
0
 62
7
  6
CONTINUOUS
 10
23.9478910361
 20
27.1661754044
 11
26.7292624203
 21
24.6618173613
  0
ARC
  8
0
 62
7
  6
CONTINUOUS
 10
13.8527227462
 20
23.5027814928
 40
0.7290321776
 50
108.0
 51
168.0
  0
ARC
  8
0
 62
7
  6
CONTINUOUS
 10
23.4600732931
 20
26.624398914
 40
0.7290321776
 50
348.0
 51
108.0
  0
ARC
  8
0
 62
7
  6
CONTINUOUS
 10
26.2414446773
 20
24.120040871
 40
0.7290321776
 50
348.0
 51
48.0
  0
ARC
  8
0
 62
7
  6
CONTINUOUS
 10
20.581646014
 20
13.0824632691
 40
0.7290321776
 50
228.0
 51
288.0
  0
ARC
  8
0
 62
7
  6
CONTINUOUS
 10
13.0745707529
 20
19.8418641951
 40
0.7290321776
 50
108.0
 51
228.0
  0
ARC
  8
0
 62
7
  6
CONTINUOUS
 10
24.1411693916
 20
14.2390225237
 40
0.7290321776
 50
228.0
 51
348.0
  0
ENDBLK
  8
0
  6
BYBLOCK
 62
0
  0
ENDSEC
  0
SECTION
  2
ENTITIES
  0
TEXT
  8
0
 62
5
  6
CONTINUOUS
 10
96.0
 20
25.636
  7
TEXTSTYLE_2
 40
2.8
  1
Scale :
 41
0.6
 51
0.000019
 72
0
  0
TEXT
  8
0
 62
5
  6
CONTINUOUS
 10
116.0
 20
25.636
  7
TEXTSTYLE_2
 40
2.8
  1
Belt type:
 41
0.6
 51
0.000019
 72
0
  0
INSERT
  8
0
 62
2
  6
CONTINUOUS
  2
SYMBOL_3_BL0
 10
32.1213064866
 20
19.8534310916
  0
INSERT
  8
0
 62
2
  6
CONTINUOUS
  2
SYMBOL_8_BL1
 10
173.5956734183
 20
35.5937998301
  0
LINE
  8
0
 62
2
  6
CONTINUOUS
 10
10.0
 20
30.0
 11
200.0
 21
30.0
  0
LINE
  8
0
 62
2
  6
CONTINUOUS
 10
10.0
 20
30.0
 11
10.0
 21
10.0
  0
LINE
  8
0
 62
2
  6
CONTINUOUS
 10
10.0
 20
10.0
 11
200.0
 21
10.0
  0
LINE
  8
0
 62
2
  6
CONTINUOUS
 10
95.0
 20
30.0
 11
95.0
 21
10.0
  0
LINE
  8
0
 62
2
  6
CONTINUOUS
 10
115.0
 20
30.0
 11
115.0
 21
10.0
  0
LINE
  8
0
 62
2
  6
CONTINUOUS
 10
200.0
 20
30.0
 11
200.0
 21
10.0
  0
TEXT
  8
0
 62
5
  6
CONTINUOUS
 10
13.0
 20
23.303
  7
TEXTSTYLE_5
 40
1.52
  1
                                                                     Ammeraal Beltech Modular A/S
 41
1.0
 72
0
  0
TEXT
  8
0
 62
5
  6
CONTINUOUS
 10
13.0
 20
20.595
  7
TEXTSTYLE_5
 40
1.5
  1
                                                                      Hjulmagervej 21,  7100 Vejle,  DK
 41
1.0
 72
0
  0
TEXT
  8
0
 62
5
  6
CONTINUOUS
 10
13.0
 20
17.881
  7
TEXTSTYLE_5
 40
1.495
  1
                                                                      tel: 
 41
1.0
 72
0
  0
TEXT
  8
0
 62
5
  6
CONTINUOUS
 10
57.9869465649
 20
17.881
  7
TEXTSTYLE_5
 40
1.51
  1
+45 75723100     fax: +45 75723348
 41
1.0
 72
0
  0
TEXT
  8
0
 62
5
  6
CONTINUOUS
 10
13.0
 20
15.177
  7
TEXTSTYLE_5
 40
1.5
  1
                                                                      admin@unichains.dk  www.unichains.com
 41
1.0
 72
0
  0
TEXT
  8
0
 62
5
  6
CONTINUOUS
 10
99.75
 20
13.75
  7
TEXTSTYLE_6
 40
5.0
  1
1:1
 41
0.7
 72
1
 11
105.0
 21
13.75
  0
TEXT
  8
0
 62
5
  6
CONTINUOUS
 10
118.0
 20
13.75
  7
TEXTSTYLE_7
 40
7.5
  1
Sprocket Z12
 41
0.6361111111
 72
0
  0
LINE
  8
0
 62
7
  6
CONTINUOUS
 10
210.0
 20
0.0
 11
0.0
 21
0.0
  0
LINE
  8
0
 62
7
  6
CONTINUOUS
 10
10.0
 20
10.0
 11
200.0
 21
10.0
  0
LINE
  8
0
 62
7
  6
CONTINUOUS
 10
10.0
 20
30.0
 11
200.0
 21
30.0
  0
LINE
  8
0
 62
7
  6
CONTINUOUS
 10
0.0
 20
0.0
 11
0.0
 21
297.0
  0
LINE
  8
0
 62
7
  6
CONTINUOUS
 10
10.0
 20
10.0
 11
10.0
 21
287.0
  0
LINE
  8
0
 62
7
  6
CONTINUOUS
 10
200.0
 20
287.0
 11
200.0
 21
10.0
  0
LINE
  8
0
 62
7
  6
CONTINUOUS
 10
210.0
 20
0.0
 11
210.0
 21
297.0
  0
LINE
  8
0
 62
7
  6
CONTINUOUS
 10
10.0
 20
287.0
 11
200.0
 21
287.0
  0
LINE
  8
0
 62
7
  6
CONTINUOUS
 10
0.0
 20
297.0
 11
210.0
 21
297.0
  0
LINE
  8
0
 62
7
  6
CONTINUOUS
 10
50.5199411919
 20
209.9743359793
 11
50.5199411919
 21
209.4488040644
  0
LINE
  8
0
 62
7
  6
CONTINUOUS
 10
57.2695755955
 20
234.638782591
 11
57.006809638
 21
234.1836586022
  0
LINE
  8
0
 62
7
  6
CONTINUOUS
 10
75.447153761
 20
252.6240027252
 11
74.9920297723
 21
252.3612367678
  0
LINE
  8
0
 62
7
  6
CONTINUOUS
 10
99.6564763839
 20
160.3122688725
 11
100.1820082988
 21
160.3122688725
  0
LINE
  8
0
 62
7
  6
CONTINUOUS
 10
74.9920297722
 20
167.061903276
 11
75.447153761
 21
166.7991373186
  0
LINE
  8
0
 62
7
  6
CONTINUOUS
 10
57.006809638
 20
185.2394814416
 11
57.2695755955
 21
184.7843574528
  0
LINE
  8
0
 62
7
  6
CONTINUOUS
 10
68.4521503918
 20
217.8529578652
 11
67.9785449723
 21
215.9098423497
  0
LINE
  8
0
 62
7
  6
CONTINUOUS
 10
68.510375111
 20
216.29485413
 11
68.8853115303
 21
217.8331489715
  0
LINE
  8
0
 62
7
  6
CONTINUOUS
 10
69.8003072272
 20
221.9267597624
 11
69.5560997667
 21
221.3064260277
  0
LINE
  8
0
 62
7
  6
CONTINUOUS
 10
71.6290702527
 20
225.7098180548
 11
71.4664766476
 21
225.4188264293
  0
LINE
  8
0
 62
7
  6
CONTINUOUS
 10
71.7973068298
 20
225.138518822
 11
72.0411953768
 21
225.5750029302
  0
LINE
  8
0
 62
7
  6
CONTINUOUS
 10
86.7923753283
 20
179.933841128
 11
89.9073515911
 21
178.7472386184
  0
LINE
  8
0
 62
7
  6
CONTINUOUS
 10
90.0588328023
 20
179.1448952669
 11
87.3332263443
 21
180.1831733115
  0
LINE
  8
0
 62
7
  6
CONTINUOUS
 10
82.8106036368
 20
182.0791357232
 11
83.3507688764
 21
181.8430311841
  0
LINE
  8
0
 62
7
  6
CONTINUOUS
 10
84.9453432543
 20
180.8622659379
 11
85.3926169563
 21
180.6387793935
  0
LINE
  8
0
 62
7
  6
CONTINUOUS
 10
82.5276501358
 20
182.2553317407
 11
82.8106036368
 21
182.0791357232
  0
LINE
  8
0
 62
7
  6
CONTINUOUS
 10
83.1062797418
 20
182.3963074064
 11
82.8233197644
 21
182.5725074568
  0
LINE
  8
0
 62
7
  6
CONTINUOUS
 10
82.1482003063
 20
182.5918743406
 11
82.5276501358
 21
182.2553317407
  0
LINE
  8
0
 62
7
  6
CONTINUOUS
 10
70.102113034
 20
217.7938904787
 11
70.1255981134
 21
217.5308476195
  0
LINE
  8
0
 62
7
  6
CONTINUOUS
 10
71.3375325908
 20
225.0135789534
 11
71.357178851
 21
224.525305599
  0
LINE
  8
0
 62
7
  6
CONTINUOUS
 10
70.6019802992
 20
217.3289688964
 11
70.617961736
 21
217.7539355777
  0
LINE
  8
0
 62
7
  6
CONTINUOUS
 10
71.7496577149
 20
224.8787638288
 11
71.7973068298
 21
225.138518822
  0
LINE
  8
0
 62
7
  6
CONTINUOUS
 10
73.0126756173
 20
224.1730437459
 11
73.0603247323
 21
224.4327987392
  0
LINE
  8
0
 62
7
  6
CONTINUOUS
 10
70.1255981134
 20
217.5308476195
 11
69.750661694
 21
215.992552778
  0
LINE
  8
0
 62
7
  6
CONTINUOUS
 10
70.2467762346
 20
215.8716322598
 11
70.6019802992
 21
217.3289688964
  0
LINE
  8
0
 62
7
  6
CONTINUOUS
 10
71.8647760033
 20
214.9626315107
 11
71.9831773582
 21
215.4484103895
  0
LINE
  8
0
 62
7
  6
CONTINUOUS
 10
71.4664766476
 20
225.4188264293
 11
71.3375325908
 21
225.0135789534
  0
LINE
  8
0
 62
7
  6
CONTINUOUS
 10
72.72949455
 20
224.7131063465
 11
72.6005504932
 21
224.3078588705
  0
LINE
  8
0
 62
7
  6
CONTINUOUS
 10
75.1615924496
 20
223.8314592508
 11
75.2905364999
 21
224.2367067304
  0
LINE
  8
0
 62
7
  6
CONTINUOUS
 10
72.4078538631
 20
221.3480323444
 11
71.8583912689
 21
219.95229209
  0
LINE
  8
0
 62
7
  6
CONTINUOUS
 10
72.1446283456
 20
219.7500478827
 11
72.7551442022
 21
221.3008751203
  0
LINE
  8
0
 62
7
  6
CONTINUOUS
 10
72.7896644466
 20
218.6005391722
 11
72.9728186447
 21
219.0657859236
  0
LINE
  8
0
 62
7
  6
CONTINUOUS
 10
73.8275363724
 20
221.2369326977
 11
74.0106905705
 21
221.7021794491
  0
LINE
  8
0
 62
7
  6
CONTINUOUS
 10
68.6335033421
 20
218.2376177071
 11
68.4521503918
 21
217.8529578652
  0
LINE
  8
0
 62
7
  6
CONTINUOUS
 10
72.8121498165
 20
225.9079018858
 11
73.0153890318
 21
226.2716364225
  0
LINE
  8
0
 62
7
  6
CONTINUOUS
 10
72.9327374868
 20
225.0768475434
 11
72.72949455
 21
224.7131063465
  0
LINE
  8
0
 62
7
  6
CONTINUOUS
 10
73.0603247323
 20
224.4327987392
 11
73.3448588894
 21
224.9420257586
  0
LINE
  8
0
 62
7
  6
CONTINUOUS
 10
74.8307622153
 20
224.1117668872
 11
74.5462280582
 21
223.6025398678
  0
LINE
  8
0
 62
7
  6
CONTINUOUS
 10
74.9583495129
 20
223.4677180539
 11
75.1615924496
 21
223.8314592508
  0
LINE
  8
0
 62
7
  6
CONTINUOUS
 10
68.8853115303
 20
217.8331489715
 11
69.0271979645
 21
218.0558849913
  0
LINE
  8
0
 62
7
  6
CONTINUOUS
 10
71.9066046265
 20
226.0320396523
 11
71.6290702527
 21
225.7098180548
  0
LINE
  8
0
 62
7
  6
CONTINUOUS
 10
73.2102718606
 20
225.3990691409
 11
72.9327374868
 21
225.0768475434
  0
LINE
  8
0
 62
7
  6
CONTINUOUS
 10
74.6808151326
 20
223.14549646
 11
74.9583495129
 21
223.4677180539
  0
LINE
  8
0
 62
7
  6
CONTINUOUS
 10
72.0411953768
 20
225.5750029302
 11
72.2374348087
 21
225.7517320451
  0
LINE
  8
0
 62
7
  6
CONTINUOUS
 10
73.3448588894
 20
224.9420257586
 11
73.5410983214
 21
225.1187548734
  0
LINE
  8
0
 62
7
  6
CONTINUOUS
 10
72.3327330387
 20
226.2712420317
 11
71.9066046265
 21
226.0320396523
  0
LINE
  8
0
 62
7
  6
CONTINUOUS
 10
120.2367474423
 20
186.6686814587
 11
119.8763874701
 21
186.5675646736
  0
LINE
  8
0
 62
7
  6
CONTINUOUS
 10
114.3389167375
 20
180.5819792191
 11
113.9293119464
 21
180.4676149737
  0
LINE
  8
0
 62
7
  6
CONTINUOUS
 10
113.7704999828
 20
180.9600325177
 11
114.0317934662
 21
180.9983575781
  0
LINE
  8
0
 62
7
  6
CONTINUOUS
 10
112.9939354915
 20
182.4746896674
 11
113.2552289749
 21
182.5130147278
  0
LINE
  8
0
 62
7
  6
CONTINUOUS
 10
112.9267831038
 20
182.0577003726
 11
112.739643577
 21
182.0573940345
  0
LINE
  8
0
 62
7
  6
CONTINUOUS
 10
83.3507688764
 20
181.8430311841
 11
83.7237026504
 21
181.8113202153
  0
LINE
  8
0
 62
7
  6
CONTINUOUS
 10
83.5049617545
 20
182.2483049089
 11
83.1062797418
 21
182.3963074064
  0
LINE
  8
0
 62
7
  6
CONTINUOUS
 10
88.0345214083
 20
183.1946260355
 11
90.6822510535
 21
182.1860139702
  0
LINE
  8
0
 62
7
  6
CONTINUOUS
 10
91.3312751458
 20
182.4852115598
 11
88.2162988829
 21
183.6718140694
  0
LINE
  8
0
 62
7
  6
CONTINUOUS
 10
87.1805093113
 20
184.2169690093
 11
86.7332356094
 21
184.4404555537
  0
LINE
  8
0
 62
7
  6
CONTINUOUS
 10
84.4372929513
 20
182.1690295035
 11
84.0835978369
 21
182.3892765418
  0
LINE
  8
0
 62
7
  6
CONTINUOUS
 10
83.3560082659
 20
185.9503479566
 11
85.3367086783
 21
184.7169597027
  0
LINE
  8
0
 62
7
  6
CONTINUOUS
 10
86.1275631561
 20
184.7257823567
 11
83.580942789
 21
186.3115707113
  0
LINE
  8
0
 62
7
  6
CONTINUOUS
 10
82.8233197644
 20
182.5725074568
 11
82.5146115483
 21
182.8649990359
  0
LINE
  8
0
 62
7
  6
CONTINUOUS
 10
81.9552141255
 20
182.9125634725
 11
82.1482003063
 21
182.5918743406
  0
LINE
  8
0
 62
7
  6
CONTINUOUS
 10
71.7763037584
 20
224.5774958963
 11
71.7496577149
 21
224.8787638288
  0
LINE
  8
0
 62
7
  6
CONTINUOUS
 10
72.6005504932
 20
224.3078588705
 11
72.6538425803
 21
223.7053230055
  0
LINE
  8
0
 62
7
  6
CONTINUOUS
 10
73.0393216608
 20
223.8717758134
 11
73.0126756173
 21
224.1730437459
  0
LINE
  8
0
 62
7
  6
CONTINUOUS
 10
74.8517652868
 20
224.672789813
 11
74.8784113303
 21
224.3715218805
  0
LINE
  8
0
 62
7
  6
CONTINUOUS
 10
75.2905364999
 20
224.2367067304
 11
75.2708902202
 21
224.7249800957
  0
LINE
  8
0
 62
7
  6
CONTINUOUS
 10
74.8784113303
 20
224.3715218805
 11
74.8307622153
 21
224.1117668872
  0
LINE
  8
0
 62
7
  6
CONTINUOUS
 10
74.5462280582
 20
223.6025398678
 11
74.3499886262
 21
223.4258107529
  0
LINE
  8
0
 62
7
  6
CONTINUOUS
 10
68.9604954512
 20
218.5010125047
 11
68.6335033421
 21
218.2376177071
  0
LINE
  8
0
 62
7
  6
CONTINUOUS
 10
69.0271979645
 20
218.0558849913
 11
69.2320378008
 21
218.1775093864
  0
LINE
  8
0
 62
7
  6
CONTINUOUS
 10
73.6363965513
 20
225.63826486
 11
73.2102718606
 21
225.3990691409
  0
LINE
  8
0
 62
7
  6
CONTINUOUS
 10
74.2546904223
 20
222.9063007518
 11
74.6808151326
 21
223.14549646
  0
LINE
  8
0
 62
7
  6
CONTINUOUS
 10
72.2374348087
 20
225.7517320451
 11
72.5079693992
 21
225.8869482207
  0
LINE
  8
0
 62
7
  6
CONTINUOUS
 10
73.5410983214
 20
225.1187548734
 11
73.8116329118
 21
225.2539710491
  0
LINE
  8
0
 62
7
  6
CONTINUOUS
 10
74.3499886262
 20
223.4258107529
 11
74.0794540358
 21
223.2905945773
  0
LINE
  8
0
 62
7
  6
CONTINUOUS
 10
120.9240557013
 20
187.7668603477
 11
121.2844156735
 21
187.8679771328
  0
LINE
  8
0
 62
7
  6
CONTINUOUS
 10
83.7237026504
 20
181.8113202153
 11
84.1866037446
 21
181.9241023611
  0
LINE
  8
0
 62
7
  6
CONTINUOUS
 10
119.8951167028
 20
189.2494223613
 11
120.3744369316
 21
189.3445568095
  0
LINE
  8
0
 62
7
  6
CONTINUOUS
 10
119.6523699659
 20
187.0557713599
 11
119.9515108941
 21
187.100348079
  0
LINE
  8
0
 62
7
  6
CONTINUOUS
 10
121.5084331777
 20
187.3797704465
 11
121.2092922495
 21
187.3351937274
  0
LINE
  8
0
 62
7
  6
CONTINUOUS
 10
121.4528186219
 20
185.4747995019
 11
121.0347160511
 21
185.4362038092
  0
LINE
  8
0
 62
7
  6
CONTINUOUS
 10
83.8071539151
 20
182.260644961
 11
83.5049617545
 21
182.2483049089
  0
LINE
  8
0
 62
7
  6
CONTINUOUS
 10
120.9296587884
 20
185.918428175
 11
121.1675806725
 21
185.9064648281
  0
LINE
  8
0
 62
7
  6
CONTINUOUS
 10
113.9293119464
 20
180.4676149737
 11
113.5162080683
 21
180.5427368848
  0
LINE
  8
0
 62
7
  6
CONTINUOUS
 10
113.5445322369
 20
181.0354590265
 11
113.7704999828
 21
180.9600325177
  0
LINE
  8
0
 62
7
  6
CONTINUOUS
 10
82.5146115483
 20
182.8649990359
 11
82.392366981
 21
183.141637147
  0
LINE
  8
0
 62
7
  6
CONTINUOUS
 10
70.617961736
 20
217.7539355777
 11
70.4488393045
 21
218.1382508935
  0
LINE
  8
0
 62
7
  6
CONTINUOUS
 10
81.8522017414
 20
183.3777416861
 11
81.9552141255
 21
182.9125634725
  0
LINE
  8
0
 62
7
  6
CONTINUOUS
 10
82.392366981
 20
183.141637147
 11
82.3858509255
 21
183.4464687782
  0
POLYLINE
  8
0
 62
7
  6
CONTINUOUS
 66
1
 70
0
  0
VERTEX
  8
0
 62
7
  6
CONTINUOUS
 10
101.3139521627
 20
245.6845429949
  0
VERTEX
  8
0
 62
7
  6
CONTINUOUS
 10
101.2641706742
 20
245.6253050736
  0
VERTEX
  8
0
 62
7
  6
CONTINUOUS
 10
101.2016393742
 20
245.5666605049
  0
VERTEX
  8
0
 62
7
  6
CONTINUOUS
 10
101.1258501189
 20
245.5094896415
  0
VERTEX
  8
0
 62
7
  6
CONTINUOUS
 10
101.0361951785
 20
245.4545164366
  0
VERTEX
  8
0
 62
7
  6
CONTINUOUS
 10
100.9321304077
 20
245.402534523
  0
VERTEX
  8
0
 62
7
  6
CONTINUOUS
 10
100.8124301384
 20
245.3541499736
  0
VERTEX
  8
0
 62
7
  6
CONTINUOUS
 10
100.675942
 20
245.3103074038
  0
VERTEX
  8
0
 62
7
  6
CONTINUOUS
 10
100.5207894792
 20
245.2720995
  0
VERTEX
  8
0
 62
7
  6
CONTINUOUS
 10
100.3447471901
 20
245.241133043
  0
VERTEX
  8
0
 62
7
  6
CONTINUOUS
 10
100.1448346257
 20
245.2197443554
  0
VERTEX
  8
0
 62
7
  6
CONTINUOUS
 10
99.9192423414
 20
245.2115717354
  0
SEQEND
  0
LINE
  8
0
 62
4
  6
CONTINUOUS
 10
88.8338137748
 20
229.1731544026
 11
80.4576579606
 21
220.7969985884
  0
LINE
  8
0
 62
4
  6
CONTINUOUS
 10
78.5957029011
 20
216.6723018291
 11
75.7672757764
 21
213.8438747043
  0
LINE
  8
0
 62
4
  6
CONTINUOUS
 10
92.9585105341
 20
231.0351094621
 11
95.7869376589
 21
233.8635365869
  0
LINE
  8
0
 62
7
  6
CONTINUOUS
 10
69.3504391556
 20
218.6632882653
 11
68.9604954512
 21
218.5010125047
  0
LINE
  8
0
 62
7
  6
CONTINUOUS
 10
127.4672184563
 20
195.7163071098
 11
127.0529222156
 21
195.6341600461
  0
LINE
  8
0
 62
7
  6
CONTINUOUS
 10
82.7972491919
 20
183.7918382167
 11
85.902628633
 21
184.364559602
  0
LINE
  8
0
 62
7
  6
CONTINUOUS
 10
85.3367086783
 20
184.7169597027
 11
82.5785147724
 21
184.2288188775
  0
LINE
  8
0
 62
7
  6
CONTINUOUS
 10
125.1259612438
 20
193.6989164915
 11
123.3531846715
 21
193.4294543051
  0
LINE
  8
0
 62
7
  6
CONTINUOUS
 10
125.3905228222
 20
194.1231890114
 11
127.1632983853
 21
194.3926495793
  0
LINE
  8
0
 62
7
  6
CONTINUOUS
 10
126.8987368068
 20
193.9683770594
 11
125.4748919058
 21
193.7759574304
  0
LINE
  8
0
 62
7
  6
CONTINUOUS
 10
123.61774625
 20
193.8537268251
 11
125.0415922614
 21
194.0461480095
  0
LINE
  8
0
 62
7
  6
CONTINUOUS
 10
119.8763874701
 20
186.5675646736
 11
119.4005437018
 21
186.5914913673
  0
LINE
  8
0
 62
7
  6
CONTINUOUS
 10
121.2844156735
 20
187.8679771328
 11
121.7602594418
 21
187.8440504391
  0
LINE
  8
0
 62
7
  6
CONTINUOUS
 10
120.5372368536
 20
188.7998112856
 11
120.1803532863
 21
188.8177557027
  0
LINE
  8
0
 62
7
  6
CONTINUOUS
 10
121.0347160511
 20
185.4362038092
 11
120.6200899255
 21
185.5166692748
  0
LINE
  8
0
 62
7
  6
CONTINUOUS
 10
112.7679677456
 20
182.5501161762
 11
112.9939354915
 21
182.4746896674
  0
LINE
  8
0
 62
7
  6
CONTINUOUS
 10
113.5162080683
 20
180.5427368848
 11
113.1384299276
 21
180.731610365
  0
LINE
  8
0
 62
7
  6
CONTINUOUS
 10
112.739643577
 20
182.0573940345
 11
112.3618654363
 21
182.2462675147
  0
LINE
  8
0
 62
4
  6
CONTINUOUS
 10
88.8338137748
 20
190.2499856411
 11
80.4576579606
 21
198.6261414554
  0
LINE
  8
0
 62
4
  6
CONTINUOUS
 10
75.7672757764
 20
205.5792653394
 11
78.5957029011
 21
202.7508382147
  0
LINE
  8
0
 62
4
  6
CONTINUOUS
 10
95.7869376589
 20
185.5596034569
 11
92.9585105341
 21
188.3880305816
  0
LINE
  8
0
 62
7
  6
CONTINUOUS
 10
69.9762098433
 20
217.9961285526
 11
70.102113034
 21
217.7938904787
  0
LINE
  8
0
 62
7
  6
CONTINUOUS
 10
71.9178905706
 20
224.3074579358
 11
71.7763037584
 21
224.5774958963
  0
LINE
  8
0
 62
7
  6
CONTINUOUS
 10
71.357178851
 20
224.525305599
 11
71.5324152115
 21
224.1410117881
  0
LINE
  8
0
 62
7
  6
CONTINUOUS
 10
73.1066133146
 20
223.6432507921
 11
73.0393216608
 21
223.8717758134
  0
LINE
  8
0
 62
7
  6
CONTINUOUS
 10
127.0400356328
 20
196.0082159907
 11
127.3419274862
 21
196.0509562172
  0
LINE
  8
0
 62
7
  6
CONTINUOUS
 10
119.356704001
 20
187.1302545926
 11
119.6523699659
 21
187.0557713599
  0
LINE
  8
0
 62
7
  6
CONTINUOUS
 10
120.3744369316
 20
189.3445568095
 11
120.8468057165
 21
189.2015701858
  0
LINE
  8
0
 62
7
  6
CONTINUOUS
 10
120.752954547
 20
185.9869302938
 11
120.9296587884
 21
185.918428175
  0
LINE
  8
0
 62
7
  6
CONTINUOUS
 10
119.4005437018
 20
186.5914913673
 11
119.0471351381
 21
186.7284956925
  0
LINE
  8
0
 62
7
  6
CONTINUOUS
 10
119.281484187
 20
183.5927287895
 11
115.624144213
 21
185.1905683152
  0
LINE
  8
0
 62
7
  6
CONTINUOUS
 10
115.4879498668
 20
185.8221241807
 11
119.1940250618
 21
184.1545137221
  0
LINE
  8
0
 62
7
  6
CONTINUOUS
 10
70.4488393045
 20
218.1382508935
 11
70.1772969549
 21
218.4617540118
  0
LINE
  8
0
 62
7
  6
CONTINUOUS
 10
74.7101784225
 20
224.9428278025
 11
74.8517652868
 21
224.672789813
  0
LINE
  8
0
 62
7
  6
CONTINUOUS
 10
75.2708902202
 20
224.7249800957
 11
75.0956538337
 21
225.1092739211
  0
LINE
  8
0
 62
7
  6
CONTINUOUS
 10
81.9614141976
 20
183.7107668373
 11
81.8522017414
 21
183.3777416861
  0
LINE
  8
0
 62
7
  6
CONTINUOUS
 10
126.9338376069
 20
197.9900425878
 11
126.7443493323
 21
197.9867074711
  0
LINE
  8
0
 62
7
  6
CONTINUOUS
 10
126.6543788083
 20
198.3968351615
 11
127.033354603
 21
198.4035036422
  0
LINE
  8
0
 62
7
  6
CONTINUOUS
 10
120.6200899255
 20
185.5166692748
 11
120.3856430855
 21
185.647692486
  0
LINE
  8
0
 62
7
  6
CONTINUOUS
 10
121.7428800177
 20
187.2487472354
 11
121.5084331777
 21
187.3797704465
  0
LINE
  8
0
 62
7
  6
CONTINUOUS
 10
69.7478849277
 20
218.1375470166
 11
69.9762098433
 21
217.9961285526
  0
LINE
  8
0
 62
7
  6
CONTINUOUS
 10
71.8583912689
 20
219.95229209
 11
69.9949672048
 21
221.4918921793
  0
LINE
  8
0
 62
7
  6
CONTINUOUS
 10
72.9728186447
 20
219.0657859236
 11
72.1446283456
 21
219.7500478827
  0
LINE
  8
0
 62
7
  6
CONTINUOUS
 10
69.5560997667
 20
221.3064260277
 11
72.7896644466
 21
218.6005391722
  0
LINE
  8
0
 62
7
  6
CONTINUOUS
 10
113.1384299276
 20
180.731610365
 11
112.9477913136
 21
180.9207901834
  0
LINE
  8
0
 62
7
  6
CONTINUOUS
 10
113.3538935142
 20
181.2246390569
 11
113.5445322369
 21
181.0354590265
  0
LINE
  8
0
 62
7
  6
CONTINUOUS
 10
112.3618654363
 20
182.2462675147
 11
112.1712267679
 21
182.4354474392
  0
LINE
  8
0
 62
7
  6
CONTINUOUS
 10
112.5773290773
 20
182.7392961006
 11
112.7679677456
 21
182.5501161762
  0
LINE
  8
0
 62
7
  6
CONTINUOUS
 10
72.100130644
 20
224.1101760906
 11
71.9178905706
 21
224.3074579358
  0
LINE
  8
0
 62
7
  6
CONTINUOUS
 10
73.2888532839
 20
223.4459690051
 11
73.1066133146
 21
223.6432507921
  0
LINE
  8
0
 62
7
  6
CONTINUOUS
 10
71.5324152115
 20
224.1410117881
 11
71.8225925488
 21
223.7879478329
  0
LINE
  8
0
 62
7
  6
CONTINUOUS
 10
75.0956538337
 20
225.1092739211
 11
74.8054766525
 21
225.4623377891
  0
LINE
  8
0
 62
7
  6
CONTINUOUS
 10
96.9790841612
 20
167.2227771323
 11
97.2740309423
 21
162.5607015776
  0
LINE
  8
0
 62
7
  6
CONTINUOUS
 10
97.2740309423
 20
256.8624384662
 11
96.9790841612
 21
252.2003629115
  0
LINE
  8
0
 62
7
  6
CONTINUOUS
 10
76.1285942214
 20
174.3852750934
 11
74.0529878493
 21
170.2003258382
  0
LINE
  8
0
 62
7
  6
CONTINUOUS
 10
121.2038562935
 20
251.8680256046
 11
118.617387111
 21
247.9780231305
  0
LINE
  8
0
 62
7
  6
CONTINUOUS
 10
61.6527892328
 20
191.0134252522
 11
57.7627867586
 21
188.4269560697
  0
LINE
  8
0
 62
7
  6
CONTINUOUS
 10
139.4304865251
 20
235.577824514
 11
135.2455372698
 21
233.5022181418
  0
LINE
  8
0
 62
7
  6
CONTINUOUS
 10
130.4765870554
 20
209.1920982816
 11
130.0526656169
 21
209.100926066
  0
LINE
  8
0
 62
7
  6
CONTINUOUS
 10
130.0449758381
 20
209.5175216084
 11
130.4688972678
 21
209.6086943007
  0
LINE
  8
0
 62
7
  6
CONTINUOUS
 10
142.4080352309
 20
206.7714118417
 11
147.0701107856
 21
207.0663586228
  0
LINE
  8
0
 62
7
  6
CONTINUOUS
 10
52.7683738971
 20
207.0663586228
 11
57.4304494518
 21
206.7714118417
  0
LINE
  8
0
 62
7
  6
CONTINUOUS
 10
127.2004089603
 20
197.9573042564
 11
126.9338376069
 21
197.9900425878
  0
LINE
  8
0
 62
7
  6
CONTINUOUS
 10
127.0529222156
 20
195.6341600461
 11
126.7092661665
 21
195.7029683704
  0
LINE
  8
0
 62
7
  6
CONTINUOUS
 10
135.2455372698
 20
185.9209219019
 11
139.4304865251
 21
183.8453155298
  0
LINE
  8
0
 62
7
  6
CONTINUOUS
 10
120.7716836937
 20
188.6687880745
 11
120.5372368536
 21
188.7998112856
  0
LINE
  8
0
 62
7
  6
CONTINUOUS
 10
70.1772969549
 20
218.4617540118
 11
69.9489720393
 21
218.6031724758
  0
LINE
  8
0
 62
7
  6
CONTINUOUS
 10
121.7602594418
 20
187.8440504391
 11
122.0524488806
 21
187.6505061355
  0
LINE
  8
0
 62
7
  6
CONTINUOUS
 10
120.8468057165
 20
189.2015701858
 11
121.1389951552
 21
189.0080258823
  0
LINE
  8
0
 62
7
  6
CONTINUOUS
 10
57.7627867586
 20
230.9961839741
 11
61.6527892328
 21
228.4097147915
  0
LINE
  8
0
 62
7
  6
CONTINUOUS
 10
71.8225925488
 20
223.7879478329
 11
72.302013048
 21
223.4246143472
  0
LINE
  8
0
 62
7
  6
CONTINUOUS
 10
72.5052522633
 20
223.7883488839
 11
72.100130644
 21
224.1101760906
  0
LINE
  8
0
 62
7
  6
CONTINUOUS
 10
74.5279385573
 20
225.1401095314
 11
74.7101784225
 21
224.9428278025
  0
LINE
  8
0
 62
7
  6
CONTINUOUS
 10
118.617387111
 20
171.4451169133
 11
121.2038562935
 21
167.5551144391
  0
LINE
  8
0
 62
7
  6
CONTINUOUS
 10
74.0529878493
 20
249.2228142056
 11
76.1285942214
 21
245.0378649503
  0
LINE
  8
0
 62
2
  6
CONTINUOUS
 10
99.9192423414
 20
210.5915700219
 11
99.9192423414
 21
208.8315700219
  0
LINE
  8
DEFAULT_1
 62
2
  6
CENTER
 10
99.9192423414
 20
205.3115700219
 11
99.9192423414
 21
158.3115700219
  0
LINE
  8
DEFAULT_1
 62
2
  6
CENTER
 10
99.9192423414
 20
214.1115700219
 11
99.9192423414
 21
261.1115700219
  0
LINE
  8
0
 62
7
  6
CONTINUOUS
 10
88.2162988829
 20
183.6718140694
 11
88.0345214083
 21
183.1946260355
  0
LINE
  8
0
 62
7
  6
CONTINUOUS
 10
87.0044490239
 20
180.4905604359
 11
86.7923753283
 21
179.933841128
  0
LINE
  8
0
 62
7
  6
CONTINUOUS
 10
86.7332356094
 20
184.4404555537
 11
84.9453432543
 21
180.8622659379
  0
LINE
  8
0
 62
7
  6
CONTINUOUS
 10
85.696939023
 20
181.2478328725
 11
87.1805093113
 21
184.2169690093
  0
LINE
  8
0
 62
7
  6
CONTINUOUS
 10
86.1061724666
 20
180.9482146433
 11
86.4104946399
 21
181.5572683356
  0
LINE
  8
0
 62
7
  6
CONTINUOUS
 10
83.580942789
 20
186.3115707113
 11
83.3560082659
 21
185.9503479566
  0
LINE
  8
0
 62
7
  6
CONTINUOUS
 10
82.0513881203
 20
183.8552561213
 11
81.9614141976
 21
183.7107668373
  0
LINE
  8
0
 62
7
  6
CONTINUOUS
 10
82.3858509255
 20
183.4464687782
 11
82.4758248481
 21
183.5909580622
  0
LINE
  8
0
 62
7
  6
CONTINUOUS
 10
131.0316669227
 20
212.5889152557
 11
128.8374487834
 21
212.3030139375
  0
LINE
  8
0
 62
7
  6
CONTINUOUS
 10
129.1211852396
 20
212.7601729432
 11
130.9778313256
 21
213.0020894391
  0
LINE
  8
0
 62
7
  6
CONTINUOUS
 10
130.0526656169
 20
209.100926066
 11
128.4359197005
 21
209.0710831676
  0
LINE
  8
0
 62
7
  6
CONTINUOUS
 10
128.4282299218
 20
209.48767871
 11
130.0449758381
 21
209.5175216084
  0
LINE
  8
0
 62
2
  6
CONTINUOUS
 10
100.7992423414
 20
209.7115700219
 11
99.0392423414
 21
209.7115700219
  0
LINE
  8
DEFAULT_1
 62
2
  6
CENTER
 10
95.5192423414
 20
209.7115700219
 11
48.5192423414
 21
209.7115700219
  0
LINE
  8
DEFAULT_1
 62
2
  6
CENTER
 10
104.3192423414
 20
209.7115700219
 11
151.3192423414
 21
209.7115700219
  0
LINE
  8
0
 62
7
  6
CONTINUOUS
 10
132.3622206426
 20
207.7759663194
 11
131.9372903831
 21
207.7985858255
  0
LINE
  8
0
 62
7
  6
CONTINUOUS
 10
131.0874296262
 20
207.8438248504
 11
128.3678757279
 21
207.9885897021
  0
LINE
  8
0
 62
7
  6
CONTINUOUS
 10
128.3900239885
 20
208.4046671387
 11
131.1095778868
 21
208.259902287
  0
LINE
  8
0
 62
7
  6
CONTINUOUS
 10
131.9594386437
 20
208.2146632621
 11
132.3843689031
 21
208.192043756
  0
LINE
  8
0
 62
7
  6
CONTINUOUS
 10
67.9785449723
 20
215.9098423497
 11
71.8647760033
 21
214.9626315107
  0
LINE
  8
0
 62
7
  6
CONTINUOUS
 10
71.9831773582
 20
215.4484103895
 11
70.2467762346
 21
215.8716322598
  0
LINE
  8
0
 62
7
  6
CONTINUOUS
 10
69.750661694
 20
215.992552778
 11
68.510375111
 21
216.29485413
  0
LINE
  8
0
 62
7
  6
CONTINUOUS
 10
127.033354603
 20
198.4035036422
 11
127.5311784265
 21
198.2625518768
  0
LINE
  8
0
 62
7
  6
CONTINUOUS
 10
130.7715343277
 20
199.3850953479
 11
130.2803426991
 21
199.524673975
  0
LINE
  8
0
 62
7
  6
CONTINUOUS
 10
129.3072079519
 20
200.1477340283
 11
128.8160163233
 21
200.2873126553
  0
LINE
  8
0
 62
7
  6
CONTINUOUS
 10
130.2601873155
 20
198.0616575363
 11
126.5168797233
 21
199.4714973393
  0
LINE
  8
0
 62
7
  6
CONTINUOUS
 10
126.6637381481
 20
199.861425511
 11
130.4070457403
 21
198.4515857079
  0
LINE
  8
0
 62
7
  6
CONTINUOUS
 10
126.7092661665
 20
195.7029683704
 11
126.4009305095
 21
195.8472553031
  0
LINE
  8
0
 62
7
  6
CONTINUOUS
 10
126.8858678583
 20
196.0803594318
 11
127.0400356328
 21
196.0082159907
  0
LINE
  8
0
 62
7
  6
CONTINUOUS
 10
72.302013048
 20
223.4246143472
 11
72.8220791574
 21
223.1340237727
  0
LINE
  8
0
 62
7
  6
CONTINUOUS
 10
72.6538425803
 20
223.7053230055
 11
72.5052522633
 21
223.7883488839
  0
LINE
  8
0
 62
7
  6
CONTINUOUS
 10
73.5117387594
 20
223.3214301875
 11
73.2888532839
 21
223.4459690051
  0
LINE
  8
0
 62
7
  6
CONTINUOUS
 10
119.0471351381
 20
186.7284956925
 11
118.7584221447
 21
187.0411011544
  0
LINE
  8
0
 62
7
  6
CONTINUOUS
 10
119.1834762049
 20
187.3178178698
 11
119.356704001
 21
187.1302545926
  0
LINE
  8
0
 62
7
  6
CONTINUOUS
 10
117.1636479353
 20
182.1134133557
 11
114.8730938782
 21
185.392645295
  0
LINE
  8
0
 62
7
  6
CONTINUOUS
 10
115.624144213
 20
185.1905683152
 11
117.5735519277
 21
182.3997326129
  0
LINE
  8
0
 62
7
  6
CONTINUOUS
 10
112.9477913136
 20
180.9207901834
 11
112.7924783283
 21
181.223721783
  0
LINE
  8
0
 62
7
  6
CONTINUOUS
 10
112.1712267679
 20
182.4354474392
 11
111.9770856723
 21
182.8141116736
  0
LINE
  8
0
 62
7
  6
CONTINUOUS
 10
112.4608444199
 20
182.9664946412
 11
112.5773290773
 21
182.7392961006
  0
LINE
  8
0
 62
7
  6
CONTINUOUS
 10
113.2762370759
 20
181.3761047507
 11
113.3538935142
 21
181.2246390569
  0
LINE
  8
0
 62
7
  6
CONTINUOUS
 10
89.9073515911
 20
178.7472386184
 11
90.0588328023
 21
179.1448952669
  0
LINE
  8
0
 62
7
  6
CONTINUOUS
 10
91.0889051867
 20
181.8489608665
 11
91.3312751458
 21
182.4852115598
  0
LINE
  8
0
 62
7
  6
CONTINUOUS
 10
85.902628633
 20
184.364559602
 11
86.1275631561
 21
184.7257823567
  0
LINE
  8
0
 62
7
  6
CONTINUOUS
 10
130.7624889873
 20
214.6547857885
 11
129.0746288983
 21
214.4348616999
  0
LINE
  8
0
 62
7
  6
CONTINUOUS
 10
129.0207933128
 20
214.8480357946
 11
130.7086534017
 21
215.0679598832
  0
LINE
  8
0
 62
7
  6
CONTINUOUS
 10
131.1234870351
 20
211.0376849554
 11
130.6980276462
 21
211.0298315623
  0
LINE
  8
0
 62
7
  6
CONTINUOUS
 10
130.3576601351
 20
211.0235488477
 11
128.4005467076
 21
210.9874232348
  0
LINE
  8
0
 62
7
  6
CONTINUOUS
 10
128.3928569244
 20
211.4040190156
 11
131.115797252
 21
211.4542807362
  0
LINE
  8
0
 62
7
  6
CONTINUOUS
 10
69.4998274258
 20
218.1980073322
 11
69.7478849277
 21
218.1375470166
  0
LINE
  8
0
 62
7
  6
CONTINUOUS
 10
69.9489720393
 20
218.6031724758
 11
69.6182287806
 21
218.6837862111
  0
LINE
  8
0
 62
7
  6
CONTINUOUS
 10
130.9636964755
 20
201.9294666097
 11
129.8994477176
 21
202.2318870335
  0
LINE
  8
0
 62
7
  6
CONTINUOUS
 10
129.4082560891
 20
202.3714656606
 11
127.6072198884
 21
202.8832540249
  0
LINE
  8
0
 62
7
  6
CONTINUOUS
 10
127.7438906437
 20
203.3642125519
 11
131.5915588593
 21
202.2708465096
  0
LINE
  8
0
 62
7
  6
CONTINUOUS
 10
72.8220791574
 20
223.1340237727
 11
73.3827909811
 21
222.9161760513
  0
LINE
  8
0
 62
7
  6
CONTINUOUS
 10
127.7046765874
 20
197.629325332
 11
127.6275927002
 21
197.6653970525
  0
LINE
  8
0
 62
7
  6
CONTINUOUS
 10
127.3545767348
 20
197.8851608154
 11
127.2004089603
 21
197.9573042564
  0
LINE
  8
0
 62
7
  6
CONTINUOUS
 10
74.3050530818
 20
225.264648349
 11
74.5279385573
 21
225.1401095314
  0
LINE
  8
0
 62
7
  6
CONTINUOUS
 10
74.8054766525
 20
225.4623377891
 11
74.434000756
 21
225.6699025433
  0
LINE
  8
0
 62
7
  6
CONTINUOUS
 10
121.8583652151
 20
187.1237050506
 11
121.7428800177
 21
187.2487472354
  0
LINE
  8
0
 62
7
  6
CONTINUOUS
 10
122.0524488806
 20
187.6505061355
 11
122.2834194371
 21
187.4004215909
  0
LINE
  8
0
 62
7
  6
CONTINUOUS
 10
119.1940250618
 20
184.1545137221
 11
117.1958821261
 21
187.0151203573
  0
LINE
  8
0
 62
7
  6
CONTINUOUS
 10
117.6057861185
 20
187.3014396144
 11
119.8963401756
 21
184.0222076752
  0
LINE
  8
0
 62
7
  6
CONTINUOUS
 10
115.4407390081
 20
181.720723744
 11
114.8971438315
 21
182.7809838125
  0
LINE
  8
0
 62
7
  6
CONTINUOUS
 10
114.6641745168
 20
183.2353808938
 11
114.0817511483
 21
184.3713737561
  0
LINE
  8
0
 62
7
  6
CONTINUOUS
 10
114.2937123348
 20
185.0538867049
 11
116.1186388513
 21
181.4944424773
  0
LINE
  8
0
 62
7
  6
CONTINUOUS
 10
102.8594005215
 20
252.2003629115
 11
102.5644537404
 21
256.8624384662
  0
LINE
  8
0
 62
7
  6
CONTINUOUS
 10
102.5644537404
 20
162.5607015776
 11
102.8594005215
 21
167.2227771323
  0
LINE
  8
0
 62
7
  6
CONTINUOUS
 10
123.7098904613
 20
245.0378649503
 11
125.7854968334
 21
249.2228142056
  0
LINE
  8
0
 62
7
  6
CONTINUOUS
 10
78.6346283892
 20
167.5551144391
 11
81.2210975717
 21
171.4451169133
  0
LINE
  8
0
 62
7
  6
CONTINUOUS
 10
82.3020708506
 20
184.1001872966
 11
82.0513881203
 21
183.8552561213
  0
LINE
  8
0
 62
7
  6
CONTINUOUS
 10
84.1866037446
 20
181.9241023611
 11
84.4372929513
 21
182.1690295035
  0
LINE
  8
0
 62
7
  6
CONTINUOUS
 10
138.1856954499
 20
228.4097147915
 11
142.0756979241
 21
230.9961839741
  0
LINE
  8
0
 62
7
  6
CONTINUOUS
 10
60.4079981576
 20
183.8453155298
 11
64.5929474129
 21
185.9209219019
  0
LINE
  8
0
 62
7
  6
CONTINUOUS
 10
129.0746288983
 20
214.4348616999
 11
128.8322170214
 21
214.3192382581
  0
LINE
  8
0
 62
7
  6
CONTINUOUS
 10
128.6939883772
 20
214.7214161489
 11
129.0207933128
 21
214.8480357946
  0
LINE
  8
0
 62
7
  6
CONTINUOUS
 10
128.8374487834
 20
212.3030139375
 11
128.5106438521
 21
212.1763943749
  0
LINE
  8
0
 62
7
  6
CONTINUOUS
 10
57.4304494518
 20
212.651728202
 11
52.7683738971
 21
212.3567814209
  0
LINE
  8
0
 62
7
  6
CONTINUOUS
 10
147.0701107856
 20
212.3567814209
 11
142.4080352309
 21
212.651728202
  0
LINE
  8
0
 62
7
  6
CONTINUOUS
 10
73.3827909811
 20
222.9161760513
 11
73.8355654889
 21
222.8541104691
  0
LINE
  8
0
 62
7
  6
CONTINUOUS
 10
73.775269845
 20
223.2696342811
 11
73.5117387594
 21
223.3214301875
  0
LINE
  8
0
 62
7
  6
CONTINUOUS
 10
64.5929474129
 20
233.5022181418
 11
60.4079981576
 21
235.577824514
  0
LINE
  8
0
 62
7
  6
CONTINUOUS
 10
142.0756979241
 20
188.4269560697
 11
138.1856954499
 21
191.0134252522
  0
LINE
  8
0
 62
7
  6
CONTINUOUS
 10
127.5311784265
 20
198.2625518768
 11
127.958361358
 21
197.9706429453
  0
LINE
  8
0
 62
7
  6
CONTINUOUS
 10
125.938427186
 20
196.0636856263
 11
125.665412083
 21
196.2834510914
  0
LINE
  8
0
 62
7
  6
CONTINUOUS
 10
125.9190968536
 20
196.6247687047
 11
126.1150288778
 21
196.4410766876
  0
LINE
  8
0
 62
7
  6
CONTINUOUS
 10
81.2210975717
 20
247.9780231305
 11
78.6346283892
 21
251.8680256046
  0
LINE
  8
0
 62
7
  6
CONTINUOUS
 10
122.2834194371
 20
187.4004215909
 11
122.4531707879
 21
187.0937971553
  0
LINE
  8
0
 62
7
  6
CONTINUOUS
 10
125.7854968334
 20
170.2003258382
 11
123.7098904613
 21
174.3852750934
  0
LINE
  8
0
 62
7
  6
CONTINUOUS
 10
111.9770856723
 20
182.8141116736
 11
111.9347549443
 21
183.0793289895
  0
LINE
  8
0
 62
7
  6
CONTINUOUS
 10
112.4185137191
 20
183.2317119042
 11
112.4608444199
 21
182.9664946412
  0
LINE
  8
0
 62
7
  6
CONTINUOUS
 10
112.7924783283
 20
181.223721783
 11
112.7501476275
 21
181.488939046
  0
LINE
  8
0
 62
7
  6
CONTINUOUS
 10
113.2339063751
 20
181.6413220136
 11
113.2762370759
 21
181.3761047507
  0
LINE
  8
0
 62
7
  6
CONTINUOUS
 10
128.5359694978
 20
214.6167889182
 11
128.6939883772
 21
214.7214161489
  0
LINE
  8
0
 62
7
  6
CONTINUOUS
 10
128.5106438521
 20
212.1763943749
 11
128.3526249781
 21
212.0717669872
  0
LINE
  8
0
 62
7
  6
CONTINUOUS
 10
82.4758248481
 20
183.5909580622
 11
82.7972491919
 21
183.7918382167
  0
LINE
  8
0
 62
7
  6
CONTINUOUS
 10
128.298789381
 20
212.4849411705
 11
128.6992201878
 21
212.7051919172
  0
LINE
  8
0
 62
7
  6
CONTINUOUS
 10
130.7303247294
 20
209.2801296167
 11
130.4765870554
 21
209.1920982816
  0
LINE
  8
0
 62
7
  6
CONTINUOUS
 10
69.2320378008
 20
218.1775093864
 11
69.4998274258
 21
218.1980073322
  0
LINE
  8
0
 62
7
  6
CONTINUOUS
 10
69.6182287806
 20
218.6837862111
 11
69.3504391556
 21
218.6632882653
  0
LINE
  8
0
 62
7
  6
CONTINUOUS
 10
74.0106905705
 20
221.7021794491
 11
69.8003072272
 21
221.9267597624
  0
LINE
  8
0
 62
7
  6
CONTINUOUS
 10
72.7551442022
 20
221.3008751203
 11
73.8275363724
 21
221.2369326977
  0
LINE
  8
0
 62
7
  6
CONTINUOUS
 10
69.9949672048
 20
221.4918921793
 11
72.4078538631
 21
221.3480323444
  0
LINE
  8
0
 62
7
  6
CONTINUOUS
 10
74.434000756
 20
225.6699025433
 11
73.9812263003
 21
225.7319680965
  0
LINE
  8
0
 62
7
  6
CONTINUOUS
 10
74.0415218921
 20
225.3164443135
 11
74.3050530818
 21
225.264648349
  0
LINE
  8
0
 62
7
  6
CONTINUOUS
 10
73.0153890318
 20
226.2716364225
 11
72.7518579461
 21
226.3234323289
  0
LINE
  8
0
 62
7
  6
CONTINUOUS
 10
127.8235238619
 20
197.4817033331
 11
127.7046765874
 21
197.629325332
  0
LINE
  8
0
 62
7
  6
CONTINUOUS
 10
127.958361358
 20
197.9706429453
 11
128.1960567154
 21
197.6754006751
  0
LINE
  8
0
 62
7
  6
CONTINUOUS
 10
121.970374129
 20
186.8796015323
 11
121.8583652151
 21
187.1237050506
  0
LINE
  8
0
 62
7
  6
CONTINUOUS
 10
118.7584221447
 20
187.0411011544
 11
118.6498897974
 21
187.4042656997
  0
LINE
  8
0
 62
7
  6
CONTINUOUS
 10
111.9347549443
 20
183.0793289895
 11
112.0019073184
 21
183.4963183108
  0
LINE
  8
0
 62
7
  6
CONTINUOUS
 10
112.7501476275
 20
181.488939046
 11
112.8173000152
 21
181.9059283408
  0
LINE
  8
0
 62
7
  6
CONTINUOUS
 10
128.8322170214
 20
214.3192382581
 11
128.6005722039
 21
214.1209799779
  0
LINE
  8
0
 62
7
  6
CONTINUOUS
 10
82.5785147724
 20
184.2288188775
 11
82.3020708506
 21
184.1001872966
  0
LINE
  8
0
 62
7
  6
CONTINUOUS
 10
84.0835978369
 20
182.3892765418
 11
83.8071539151
 21
182.260644961
  0
LINE
  8
0
 62
7
  6
CONTINUOUS
 10
73.8355654889
 20
222.8541104691
 11
74.2546904223
 21
222.9063007518
  0
LINE
  8
0
 62
7
  6
CONTINUOUS
 10
74.0794540358
 20
223.2905945773
 11
73.775269845
 21
223.2696342811
  0
LINE
  8
0
 62
7
  6
CONTINUOUS
 10
72.5079693992
 20
225.8869482207
 11
72.8121498165
 21
225.9079018858
  0
LINE
  8
0
 62
7
  6
CONTINUOUS
 10
128.8464719553
 20
212.8924539269
 11
129.1211852396
 21
212.7601729432
  0
LINE
  8
0
 62
7
  6
CONTINUOUS
 10
125.0415922614
 20
194.0461480095
 11
124.5878057075
 21
195.4093932711
  0
LINE
  8
0
 62
7
  6
CONTINUOUS
 10
125.4748919058
 20
193.7759574304
 11
125.9286773493
 21
192.4127106134
  0
LINE
  8
0
 62
7
  6
CONTINUOUS
 10
125.6641157708
 20
191.9884380935
 11
125.1259612438
 21
193.6989164915
  0
LINE
  8
0
 62
7
  6
CONTINUOUS
 10
119.1326864968
 20
187.6184612789
 11
119.1834762049
 21
187.3178178698
  0
LINE
  8
0
 62
7
  6
CONTINUOUS
 10
118.6498897974
 20
187.4042656997
 11
118.663792756
 21
187.8805077669
  0
LINE
  8
0
 62
7
  6
CONTINUOUS
 10
122.4531707879
 20
187.0937971553
 11
122.4392678091
 21
186.61755511
  0
LINE
  8
0
 62
7
  6
CONTINUOUS
 10
119.2008569897
 20
187.9131224113
 11
119.1326864968
 21
187.6184612789
  0
LINE
  8
0
 62
7
  6
CONTINUOUS
 10
112.4891685613
 20
183.4592168359
 11
112.4185137191
 21
183.2317119042
  0
LINE
  8
0
 62
7
  6
CONTINUOUS
 10
113.3045612445
 20
181.8688268924
 11
113.2339063751
 21
181.6413220136
  0
LINE
  8
0
 62
7
  6
CONTINUOUS
 10
112.0019073184
 20
183.4963183108
 11
112.1820418716
 21
183.8755935009
  0
LINE
  8
0
 62
7
  6
CONTINUOUS
 10
128.1786071596
 20
214.0659989529
 11
128.3150918228
 21
214.3358958554
  0
LINE
  8
0
 62
7
  6
CONTINUOUS
 10
128.3150918228
 20
214.3358958554
 11
128.5359694978
 21
214.6167889182
  0
LINE
  8
0
 62
7
  6
CONTINUOUS
 10
130.4688972678
 20
209.6086943007
 11
130.6360051136
 21
209.7784737796
  0
LINE
  8
0
 62
7
  6
CONTINUOUS
 10
130.8974325753
 20
209.4499090955
 11
130.7303247294
 21
209.2801296167
  0
LINE
  8
0
 62
4
  6
CONTINUOUS
 10
106.8799741486
 20
188.3880305816
 11
104.0515470238
 21
185.5596034569
  0
LINE
  8
0
 62
4
  6
CONTINUOUS
 10
121.2427817816
 20
202.7508382147
 11
124.0712089064
 21
205.5792653394
  0
LINE
  8
0
 62
4
  6
CONTINUOUS
 10
119.3808267221
 20
198.6261414554
 11
111.0046709079
 21
190.2499856411
  0
LINE
  8
0
 62
7
  6
CONTINUOUS
 10
126.169441527
 20
198.1637310012
 11
126.4295700067
 21
198.3180214996
  0
LINE
  8
0
 62
7
  6
CONTINUOUS
 10
90.6822510535
 20
182.1860139702
 11
87.0044490239
 21
180.4905604359
  0
LINE
  8
0
 62
7
  6
CONTINUOUS
 10
87.3332263443
 20
180.1831733115
 11
91.0889051867
 21
181.8489608665
  0
LINE
  8
0
 62
7
  6
CONTINUOUS
 10
86.4104946399
 20
181.5572683356
 11
85.696939023
 21
181.2478328725
  0
LINE
  8
0
 62
7
  6
CONTINUOUS
 10
85.3926169563
 20
180.6387793935
 11
86.1061724666
 21
180.9482146433
  0
LINE
  8
0
 62
7
  6
CONTINUOUS
 10
126.4295700067
 20
198.3180214996
 11
126.6543788083
 21
198.3968351615
  0
LINE
  8
0
 62
7
  6
CONTINUOUS
 10
126.7443493323
 20
197.9867074711
 11
126.4071369249
 21
197.8684887121
  0
LINE
  8
0
 62
7
  6
CONTINUOUS
 10
73.8116329118
 20
225.2539710491
 11
74.0415218921
 21
225.3164443135
  0
LINE
  8
0
 62
7
  6
CONTINUOUS
 10
73.9812263003
 20
225.7319680965
 11
73.6363965513
 21
225.63826486
  0
LINE
  8
0
 62
7
  6
CONTINUOUS
 10
72.7518579461
 20
226.3234323289
 11
72.3327330387
 21
226.2712420317
  0
LINE
  8
0
 62
7
  6
CONTINUOUS
 10
128.6992201878
 20
212.7051919172
 11
128.4137398112
 21
212.920107645
  0
LINE
  8
0
 62
7
  6
CONTINUOUS
 10
130.5309198048
 20
210.860051845
 11
130.3576601351
 21
211.0235488477
  0
LINE
  8
0
 62
7
  6
CONTINUOUS
 10
130.6980276462
 20
211.0298315623
 11
130.8712873159
 21
210.8663345595
  0
LINE
  8
0
 62
4
  6
CONTINUOUS
 10
104.0515470238
 20
233.8635365869
 11
106.8799741486
 21
231.0351094621
  0
LINE
  8
0
 62
4
  6
CONTINUOUS
 10
124.0712089064
 20
213.8438747043
 11
121.2427817816
 21
216.6723018291
  0
LINE
  8
0
 62
4
  6
CONTINUOUS
 10
119.3808267221
 20
220.7969985884
 11
111.0046709079
 21
229.1731544026
  0
LINE
  8
0
 62
7
  6
CONTINUOUS
 10
128.6453846061
 20
213.1183659824
 11
128.8464719553
 21
212.8924539269
  0
LINE
  8
0
 62
7
  6
CONTINUOUS
 10
125.665412083
 20
196.2834510914
 11
125.5401210859
 21
196.6181002115
  0
LINE
  8
0
 62
7
  6
CONTINUOUS
 10
127.948814832
 20
197.1470542257
 11
127.8235238619
 21
197.4817033331
  0
LINE
  8
0
 62
7
  6
CONTINUOUS
 10
128.1960567154
 20
197.6754006751
 11
128.2795834898
 21
197.4523001185
  0
LINE
  8
0
 62
7
  6
CONTINUOUS
 10
124.852367286
 20
195.833665791
 11
125.3905228222
 21
194.1231890114
  0
LINE
  8
0
 62
7
  6
CONTINUOUS
 10
125.8708897708
 20
196.9233460916
 11
125.9190968536
 21
196.6247687047
  0
LINE
  8
0
 62
7
  6
CONTINUOUS
 10
125.5401210859
 20
196.6181002115
 11
125.5272344829
 21
196.9921561656
  0
LINE
  8
0
 62
7
  6
CONTINUOUS
 10
127.9552585276
 20
196.9600271171
 11
127.948814832
 21
197.1470542257
  0
LINE
  8
0
 62
7
  6
CONTINUOUS
 10
128.4359197005
 20
209.0710831676
 11
128.4282299218
 21
209.48767871
  0
LINE
  8
0
 62
7
  6
CONTINUOUS
 10
128.4005467076
 20
210.9874232348
 11
128.3928569244
 21
211.4040190156
  0
LINE
  8
0
 62
7
  6
CONTINUOUS
 10
128.3678757279
 20
207.9885897021
 11
128.3900239885
 21
208.4046671387
  0
LINE
  8
0
 62
7
  6
CONTINUOUS
 10
128.1372826205
 20
213.7244634843
 11
128.1786071596
 21
214.0659989529
  0
LINE
  8
0
 62
7
  6
CONTINUOUS
 10
121.9022035956
 20
186.5849404437
 11
121.970374129
 21
186.8796015323
  0
LINE
  8
0
 62
7
  6
CONTINUOUS
 10
127.6072198884
 20
202.8832540249
 11
127.7438906437
 21
203.3642125519
  0
LINE
  8
0
 62
7
  6
CONTINUOUS
 10
125.5272344829
 20
196.9921561656
 11
125.6973916639
 21
197.5565726112
  0
LINE
  8
0
 62
7
  6
CONTINUOUS
 10
126.04104774
 20
197.4877642742
 11
125.8708897708
 21
196.9233460916
  0
LINE
  8
0
 62
7
  6
CONTINUOUS
 10
128.6005722039
 20
214.1209799779
 11
128.4748546442
 21
213.7684483028
  0
LINE
  8
0
 62
7
  6
CONTINUOUS
 10
118.663792756
 20
187.8805077669
 11
118.7931823182
 21
188.231708938
  0
LINE
  8
0
 62
7
  6
CONTINUOUS
 10
126.5168797233
 20
199.4714973393
 11
126.6637381481
 21
199.861425511
  0
LINE
  8
0
 62
7
  6
CONTINUOUS
 10
130.6360051136
 20
209.7784737796
 11
130.7180210816
 21
209.9466825799
  0
LINE
  8
0
 62
7
  6
CONTINUOUS
 10
123.3531846715
 20
193.4294543051
 11
123.61774625
 21
193.8537268251
  0
LINE
  8
0
 62
7
  6
CONTINUOUS
 10
124.5878057075
 20
195.4093932711
 11
124.852367286
 21
195.833665791
  0
LINE
  8
0
 62
7
  6
CONTINUOUS
 10
119.3879877646
 20
188.2018011795
 11
119.2008569897
 21
187.9131224113
  0
LINE
  8
0
 62
7
  6
CONTINUOUS
 10
131.0630024618
 20
209.7030078736
 11
130.8974325753
 21
209.4499090955
  0
LINE
  8
0
 62
7
  6
CONTINUOUS
 10
125.6973916639
 20
197.5565726112
 11
125.9863969413
 21
197.9733687791
  0
LINE
  8
0
 62
7
  6
CONTINUOUS
 10
118.7931823182
 20
188.231708938
 11
119.041532132
 21
188.5769277776
  0
LINE
  8
0
 62
7
  6
CONTINUOUS
 10
112.8173000152
 20
181.9059283408
 11
112.9267831038
 21
182.0577003726
  0
LINE
  8
0
 62
7
  6
CONTINUOUS
 10
126.2594128459
 20
197.7536050446
 11
126.04104774
 21
197.4877642742
  0
LINE
  8
0
 62
7
  6
CONTINUOUS
 10
125.9863969413
 20
197.9733687791
 11
126.169441527
 21
198.1637310012
  0
LINE
  8
0
 62
7
  6
CONTINUOUS
 10
112.6728056064
 20
183.6490075901
 11
112.4891685613
 21
183.4592168359
  0
LINE
  8
0
 62
7
  6
CONTINUOUS
 10
119.041532132
 20
188.5769277776
 11
119.5312816815
 21
189.0292457174
  0
LINE
  8
0
 62
7
  6
CONTINUOUS
 10
112.1820418716
 20
183.8755935009
 11
112.513990221
 21
184.1414234467
  0
LINE
  8
0
 62
7
  6
CONTINUOUS
 10
126.4071369249
 20
197.8684887121
 11
126.2594128459
 21
197.7536050446
  0
LINE
  8
0
 62
7
  6
CONTINUOUS
 10
114.8730938782
 20
185.392645295
 11
115.4879498668
 21
185.8221241807
  0
LINE
  8
0
 62
7
  6
CONTINUOUS
 10
117.1958821261
 20
187.0151203573
 11
117.6057861185
 21
187.3014396144
  0
LINE
  8
0
 62
7
  6
CONTINUOUS
 10
127.8750710014
 20
195.985481282
 11
127.4672184563
 21
195.7163071098
  0
LINE
  8
0
 62
7
  6
CONTINUOUS
 10
119.5312816815
 20
189.0292457174
 11
119.8951167028
 21
189.2494223613
  0
LINE
  8
0
 62
7
  6
CONTINUOUS
 10
127.3419274862
 20
196.0509562172
 11
127.6020559525
 21
196.2052467219
  0
LINE
  8
0
 62
7
  6
CONTINUOUS
 10
120.1803532863
 20
188.8177557027
 11
119.8777373141
 21
188.6541191193
  0
LINE
  8
0
 62
7
  6
CONTINUOUS
 10
112.513990221
 20
184.1414234467
 11
114.2937123348
 21
185.0538867049
  0
LINE
  8
0
 62
7
  6
CONTINUOUS
 10
130.705717425
 20
210.6132360198
 11
130.5309198048
 21
210.860051845
  0
LINE
  8
0
 62
7
  6
CONTINUOUS
 10
130.8712873159
 20
210.8663345595
 11
131.0460849361
 21
210.6195187344
  0
LINE
  8
0
 62
7
  6
CONTINUOUS
 10
128.4137398112
 20
212.920107645
 11
128.3078125602
 21
213.074381161
  0
LINE
  8
0
 62
7
  6
CONTINUOUS
 10
128.3078125602
 20
213.074381161
 11
128.1803510951
 21
213.3939241612
  0
LINE
  8
0
 62
7
  6
CONTINUOUS
 10
128.5179231188
 20
213.4379089797
 11
128.6453846061
 21
213.1183659824
  0
LINE
  8
0
 62
7
  6
CONTINUOUS
 10
128.2795834898
 20
197.4523001185
 11
128.3277905727
 21
197.1537227316
  0
LINE
  8
0
 62
7
  6
CONTINUOUS
 10
128.3526249781
 20
212.0717669872
 11
128.298789381
 21
212.4849411705
  0
LINE
  8
0
 62
7
  6
CONTINUOUS
 10
128.1803510951
 20
213.3939241612
 11
128.1372826205
 21
213.7244634843
  0
LINE
  8
0
 62
7
  6
CONTINUOUS
 10
131.115797252
 20
211.4542807362
 11
131.1234870351
 21
211.0376849554
  0
LINE
  8
0
 62
7
  6
CONTINUOUS
 10
131.1373286422
 20
210.287812693
 11
131.1434804706
 21
209.954535973
  0
LINE
  8
0
 62
7
  6
CONTINUOUS
 10
131.1095778868
 20
208.259902287
 11
131.0874296262
 21
207.8438248504
  0
LINE
  8
0
 62
7
  6
CONTINUOUS
 10
131.9372903831
 20
207.7985858255
 11
131.9594386437
 21
208.2146632621
  0
LINE
  8
0
 62
7
  6
CONTINUOUS
 10
132.3843689031
 20
208.192043756
 11
132.3622206426
 21
207.7759663194
  0
LINE
  8
0
 62
7
  6
CONTINUOUS
 10
128.3277905727
 20
197.1537227316
 11
128.2989137682
 21
196.8912170653
  0
LINE
  8
0
 62
7
  6
CONTINUOUS
 10
127.8910612231
 20
196.622042893
 11
127.9552585276
 21
196.9600271171
  0
LINE
  8
0
 62
7
  6
CONTINUOUS
 10
130.7180210816
 20
209.9466825799
 11
130.7969611311
 21
210.2815299785
  0
LINE
  8
0
 62
7
  6
CONTINUOUS
 10
128.2989137682
 20
196.8912170653
 11
128.1640762721
 21
196.4022774531
  0
LINE
  8
0
 62
7
  6
CONTINUOUS
 10
128.8160163233
 20
200.2873126553
 11
129.4082560891
 21
202.3714656606
  0
LINE
  8
0
 62
7
  6
CONTINUOUS
 10
129.8994477176
 20
202.2318870335
 11
129.3072079519
 21
200.1477340283
  0
LINE
  8
0
 62
7
  6
CONTINUOUS
 10
130.2803426991
 20
199.524673975
 11
130.9636964755
 21
201.9294666097
  0
LINE
  8
0
 62
7
  6
CONTINUOUS
 10
131.5915588593
 20
202.2708465096
 11
130.7715343277
 21
199.3850953479
  0
LINE
  8
0
 62
7
  6
CONTINUOUS
 10
131.1434804706
 20
209.954535973
 11
131.0630024618
 21
209.7030078736
  0
LINE
  8
0
 62
7
  6
CONTINUOUS
 10
122.4392678091
 20
186.61755511
 11
122.3098782318
 21
186.2663539554
  0
LINE
  8
0
 62
7
  6
CONTINUOUS
 10
130.4070457403
 20
198.4515857079
 11
130.2601873155
 21
198.0616575363
  0
LINE
  8
0
 62
7
  6
CONTINUOUS
 10
126.1150288778
 20
196.4410766876
 11
125.938427186
 21
196.0636856263
  0
LINE
  8
0
 62
7
  6
CONTINUOUS
 10
126.4009305095
 20
195.8472553031
 11
127.3545767348
 21
197.8851608154
  0
LINE
  8
0
 62
7
  6
CONTINUOUS
 10
127.6275927002
 20
197.6653970525
 11
126.8858678583
 21
196.0803594318
  0
LINE
  8
0
 62
7
  6
CONTINUOUS
 10
121.7762904635
 20
186.3528004474
 11
121.9022035956
 21
186.5849404437
  0
LINE
  8
0
 62
7
  6
CONTINUOUS
 10
127.1632983853
 20
194.3926495793
 11
126.8987368068
 21
193.9683770594
  0
LINE
  8
0
 62
7
  6
CONTINUOUS
 10
125.9286773493
 20
192.4127106134
 11
125.6641157708
 21
191.9884380935
  0
LINE
  8
0
 62
7
  6
CONTINUOUS
 10
122.3098782318
 20
186.2663539554
 11
122.1227460557
 21
185.9776738931
  0
LINE
  8
0
 62
7
  6
CONTINUOUS
 10
127.6020559525
 20
196.2052467219
 11
127.8910612231
 21
196.622042893
  0
LINE
  8
0
 62
7
  6
CONTINUOUS
 10
128.1640762721
 20
196.4022774531
 11
127.8750710014
 21
195.985481282
  0
LINE
  8
0
 62
7
  6
CONTINUOUS
 10
113.4881982896
 20
182.0586176465
 11
113.3045612445
 21
181.8688268924
  0
LINE
  8
0
 62
7
  6
CONTINUOUS
 10
119.8777373141
 20
188.6541191193
 11
119.3879877646
 21
188.2018011795
  0
LINE
  8
0
 62
7
  6
CONTINUOUS
 10
121.1389951552
 20
189.0080258823
 11
120.7716836937
 21
188.6687880745
  0
LINE
  8
0
 62
7
  6
CONTINUOUS
 10
120.2541268663
 20
187.2639846624
 11
120.6214383279
 21
187.6032224702
  0
LINE
  8
0
 62
7
  6
CONTINUOUS
 10
120.96789392
 20
187.2280959159
 11
120.6005824585
 21
186.8888581081
  0
LINE
  8
0
 62
7
  6
CONTINUOUS
 10
120.3856430855
 20
185.647692486
 11
120.752954547
 21
185.9869302938
  0
LINE
  8
0
 62
7
  6
CONTINUOUS
 10
121.408979002
 20
186.0135626396
 11
121.7762904635
 21
186.3528004474
  0
LINE
  8
0
 62
7
  6
CONTINUOUS
 10
122.1227460557
 20
185.9776738931
 11
121.8166536382
 21
185.6949761513
  0
LINE
  8
0
 62
7
  6
CONTINUOUS
 10
119.8963401756
 20
184.0222076752
 11
119.281484187
 21
183.5927287895
  0
LINE
  8
0
 62
7
  6
CONTINUOUS
 10
117.5735519277
 20
182.3997326129
 11
117.1636479353
 21
182.1134133557
  0
LINE
  8
0
 62
7
  6
CONTINUOUS
 10
120.6005824585
 20
186.8888581081
 11
120.2367474423
 21
186.6686814587
  0
LINE
  8
0
 62
7
  6
CONTINUOUS
 10
121.8166536382
 20
185.6949761513
 11
121.4528186219
 21
185.4747995019
  0
LINE
  8
0
 62
7
  6
CONTINUOUS
 10
120.6214383279
 20
187.6032224702
 11
120.9240557013
 21
187.7668603477
  0
LINE
  8
0
 62
7
  6
CONTINUOUS
 10
119.9515108941
 20
187.100348079
 11
120.2541268663
 21
187.2639846624
  0
LINE
  8
0
 62
7
  6
CONTINUOUS
 10
114.0817511483
 20
184.3713737561
 11
112.6728056064
 21
183.6490075901
  0
LINE
  8
0
 62
7
  6
CONTINUOUS
 10
113.2552289749
 20
182.5130147278
 11
114.6641745168
 21
183.2353808938
  0
LINE
  8
0
 62
7
  6
CONTINUOUS
 10
114.8971438315
 20
182.7809838125
 11
113.4881982896
 21
182.0586176465
  0
LINE
  8
0
 62
7
  6
CONTINUOUS
 10
114.0317934662
 20
180.9983575781
 11
115.4407390081
 21
181.720723744
  0
LINE
  8
0
 62
7
  6
CONTINUOUS
 10
116.1186388513
 20
181.4944424773
 11
114.3389167375
 21
180.5819792191
  0
LINE
  8
0
 62
7
  6
CONTINUOUS
 10
121.2092922495
 20
187.3351937274
 11
120.96789392
 21
187.2280959159
  0
LINE
  8
0
 62
7
  6
CONTINUOUS
 10
121.1675806725
 20
185.9064648281
 11
121.408979002
 21
186.0135626396
  0
LINE
  8
0
 62
7
  6
CONTINUOUS
 10
130.7969611311
 20
210.2815299785
 11
130.705717425
 21
210.6132360198
  0
LINE
  8
0
 62
7
  6
CONTINUOUS
 10
131.0460849361
 20
210.6195187344
 11
131.1373286422
 21
210.287812693
  0
LINE
  8
0
 62
7
  6
CONTINUOUS
 10
128.4748546442
 20
213.7684483028
 11
128.5179231188
 21
213.4379089797
  0
LINE
  8
0
 62
7
  6
CONTINUOUS
 10
130.7086534017
 20
215.0679598832
 11
130.7624889873
 21
214.6547857885
  0
LINE
  8
0
 62
7
  6
CONTINUOUS
 10
130.9778313256
 20
213.0020894391
 11
131.0316669227
 21
212.5889152557
  0
POLYLINE
  8
0
 62
7
  6
CONTINUOUS
 66
1
 70
0
  0
VERTEX
  8
0
 62
7
  6
CONTINUOUS
 10
99.9192423414
 20
245.2115700219
  0
VERTEX
  8
0
 62
7
  6
CONTINUOUS
 10
99.6937637167
 20
245.2197360689
  0
VERTEX
  8
0
 62
7
  6
CONTINUOUS
 10
99.4937969363
 20
245.2411245906
  0
VERTEX
  8
0
 62
7
  6
CONTINUOUS
 10
99.3177334195
 20
245.2720914248
  0
VERTEX
  8
0
 62
7
  6
CONTINUOUS
 10
99.1625672992
 20
245.310300425
  0
VERTEX
  8
0
 62
7
  6
CONTINUOUS
 10
99.0260702678
 20
245.3541442825
  0
VERTEX
  8
0
 62
7
  6
CONTINUOUS
 10
98.9063640765
 20
245.4025301074
  0
VERTEX
  8
0
 62
7
  6
CONTINUOUS
 10
98.8022962143
 20
245.454512719
  0
VERTEX
  8
0
 62
7
  6
CONTINUOUS
 10
98.7126377575
 20
245.5094874694
  0
VERTEX
  8
0
 62
7
  6
CONTINUOUS
 10
98.6368473644
 20
245.5666587775
  0
VERTEX
  8
0
 62
7
  6
CONTINUOUS
 10
98.5743149157
 20
245.6253041174
  0
VERTEX
  8
0
 62
7
  6
CONTINUOUS
 10
98.52453252
 20
245.6845429949
  0
SEQEND
  0
LINE
  8
0
 62
7
  6
CONTINUOUS
 10
149.3185434908
 20
209.4488040644
 11
149.3185434908
 21
209.9743359793
  0
LINE
  8
0
 62
7
  6
CONTINUOUS
 10
142.5689090872
 20
184.7843574528
 11
142.8316750447
 21
185.2394814416
  0
LINE
  8
0
 62
7
  6
CONTINUOUS
 10
124.3913309217
 20
166.7991373186
 11
124.8464549105
 21
167.061903276
  0
LINE
  8
0
 62
7
  6
CONTINUOUS
 10
100.1820082988
 20
259.1108711713
 11
99.6564763839
 21
259.1108711713
  0
LINE
  8
0
 62
7
  6
CONTINUOUS
 10
124.8464549105
 20
252.3612367678
 11
124.3913309217
 21
252.6240027252
  0
LINE
  8
0
 62
7
  6
CONTINUOUS
 10
142.8316750447
 20
234.1836586022
 11
142.5689090872
 21
234.638782591
  0
LINE
  8
0
 62
7
  6
CONTINUOUS
 10
50.5192423414
 20
94.9092997812
 11
50.5192423414
 21
91.9092997812
  0
LINE
  8
0
 62
7
  6
CONTINUOUS
 10
56.6916241823
 20
91.9092997812
 11
56.6916241823
 21
94.9092997812
  0
LINE
  8
0
 62
7
  6
CONTINUOUS
 10
59.0192423414
 20
100.4092997812
 11
59.0192423414
 21
95.9092997812
  0
LINE
  8
0
 62
7
  6
CONTINUOUS
 10
59.0192423414
 20
90.9092997812
 11
59.0192423414
 21
86.4092997812
  0
LINE
  8
0
 62
7
  6
CONTINUOUS
 10
64.9192423414
 20
103.9092997812
 11
64.9192423414
 21
102.4092997812
  0
LINE
  8
0
 62
7
  6
CONTINUOUS
 10
64.9192423414
 20
84.4092997812
 11
64.9192423414
 21
82.9092997812
  0
LINE
  8
0
 62
7
  6
CONTINUOUS
 10
67.9785449723
 20
80.9092997812
 11
67.9785449723
 21
80.6092997812
  0
LINE
  8
0
 62
7
  6
CONTINUOUS
 10
68.4521503918
 20
80.9092997812
 11
68.4521503918
 21
80.6092997812
  0
LINE
  8
0
 62
7
  6
CONTINUOUS
 10
68.6335033421
 20
80.9092997812
 11
68.6335033421
 21
80.6092997812
  0
LINE
  8
0
 62
7
  6
CONTINUOUS
 10
68.9604954512
 20
80.9092997812
 11
68.9604954512
 21
80.6092997812
  0
LINE
  8
0
 62
7
  6
CONTINUOUS
 10
69.3504391556
 20
80.9092997812
 11
69.3504391556
 21
80.6092997812
  0
LINE
  8
0
 62
7
  6
CONTINUOUS
 10
69.5560997667
 20
80.9092997812
 11
69.5560997667
 21
80.6092997812
  0
LINE
  8
0
 62
7
  6
CONTINUOUS
 10
69.8003072272
 20
80.9092997812
 11
69.8003072272
 21
80.6092997812
  0
LINE
  8
0
 62
7
  6
CONTINUOUS
 10
71.3375325908
 20
80.9092997812
 11
71.3375325908
 21
80.6092997812
  0
LINE
  8
0
 62
7
  6
CONTINUOUS
 10
71.4664766476
 20
80.9092997812
 11
71.4664766476
 21
80.6092997812
  0
LINE
  8
0
 62
7
  6
CONTINUOUS
 10
71.6290702527
 20
80.9092997812
 11
71.6290702527
 21
80.6092997812
  0
LINE
  8
0
 62
7
  6
CONTINUOUS
 10
71.9066046265
 20
80.9092997812
 11
71.9066046265
 21
80.6092997812
  0
LINE
  8
0
 62
7
  6
CONTINUOUS
 10
72.3327330387
 20
80.9092997812
 11
72.3327330387
 21
80.6092997812
  0
LINE
  8
0
 62
7
  6
CONTINUOUS
 10
72.7518579461
 20
80.9092997812
 11
72.7518579461
 21
80.6092997812
  0
LINE
  8
0
 62
7
  6
CONTINUOUS
 10
73.0153890318
 20
80.9092997812
 11
73.0153890318
 21
80.6092997812
  0
LINE
  8
0
 62
7
  6
CONTINUOUS
 10
73.2102718606
 20
80.9092997812
 11
73.2102718606
 21
80.6092997812
  0
LINE
  8
0
 62
7
  6
CONTINUOUS
 10
73.6363965513
 20
80.9092997812
 11
73.6363965513
 21
80.6092997812
  0
LINE
  8
0
 62
7
  6
CONTINUOUS
 10
73.8030684396
 20
91.9092997812
 11
73.8030684396
 21
94.9092997812
  0
LINE
  8
0
 62
7
  6
CONTINUOUS
 10
73.9812263003
 20
80.9092997812
 11
73.9812263003
 21
80.6092997812
  0
LINE
  8
0
 62
7
  6
CONTINUOUS
 10
74.434000756
 20
80.9092997812
 11
74.434000756
 21
80.6092997812
  0
LINE
  8
0
 62
7
  6
CONTINUOUS
 10
74.8054766525
 20
80.9092997812
 11
74.8054766525
 21
80.6092997812
  0
LINE
  8
0
 62
7
  6
CONTINUOUS
 10
75.0956538337
 20
80.9092997812
 11
75.0956538337
 21
80.6092997812
  0
LINE
  8
0
 62
7
  6
CONTINUOUS
 10
75.2708902202
 20
80.9092997812
 11
75.2708902202
 21
80.6092997812
  0
LINE
  8
0
 62
7
  6
CONTINUOUS
 10
75.2905364999
 20
80.9092997812
 11
75.2905364999
 21
80.6092997812
  0
POLYLINE
  8
0
 62
7
  6
CONTINUOUS
 66
1
 70
0
  0
VERTEX
  8
0
 62
7
  6
CONTINUOUS
 10
62.8128221044
 20
95.4217008847
  0
VERTEX
  8
0
 62
7
  6
CONTINUOUS
 10
62.8161577388
 20
95.4239239113
  0
VERTEX
  8
0
 62
7
  6
CONTINUOUS
 10
62.8056038533
 20
95.4192693017
  0
VERTEX
  8
0
 62
7
  6
CONTINUOUS
 10
62.7760678466
 20
95.4117408961
  0
VERTEX
  8
0
 62
7
  6
CONTINUOUS
 10
62.7451480838
 20
95.4092993409
  0
SEQEND
  0
LINE
  8
0
 62
7
  6
CONTINUOUS
 10
81.8522017414
 20
80.9092997812
 11
81.8522017414
 21
80.6092997812
  0
LINE
  8
0
 62
7
  6
CONTINUOUS
 10
81.9614141976
 20
80.9092997812
 11
81.9614141976
 21
80.6092997812
  0
LINE
  8
0
 62
7
  6
CONTINUOUS
 10
82.0513881203
 20
80.9092997812
 11
82.0513881203
 21
80.6092997812
  0
LINE
  8
0
 62
7
  6
CONTINUOUS
 10
82.3020708506
 20
80.9092997812
 11
82.3020708506
 21
80.6092997812
  0
LINE
  8
0
 62
7
  6
CONTINUOUS
 10
82.5785147724
 20
80.9092997812
 11
82.5785147724
 21
80.6092997812
  0
LINE
  8
0
 62
7
  6
CONTINUOUS
 10
83.3560082659
 20
80.9092997812
 11
83.3560082659
 21
80.6092997812
  0
LINE
  8
0
 62
7
  6
CONTINUOUS
 10
83.580942789
 20
80.9092997812
 11
83.580942789
 21
80.6092997812
  0
LINE
  8
0
 62
7
  6
CONTINUOUS
 10
86.1275631561
 20
80.9092997812
 11
86.1275631561
 21
80.6092997812
  0
LINE
  8
0
 62
7
  6
CONTINUOUS
 10
86.7332356094
 20
80.9092997812
 11
86.7332356094
 21
80.6092997812
  0
LINE
  8
0
 62
7
  6
CONTINUOUS
 10
87.1805093113
 20
80.9092997812
 11
87.1805093113
 21
80.6092997812
  0
LINE
  8
0
 62
7
  6
CONTINUOUS
 10
88.0345214083
 20
80.9092997812
 11
88.0345214083
 21
80.6092997812
  0
LINE
  8
0
 62
7
  6
CONTINUOUS
 10
88.2162988829
 20
80.9092997812
 11
88.2162988829
 21
80.6092997812
  0
LINE
  8
0
 62
7
  6
CONTINUOUS
 10
91.3312751458
 20
80.6092997812
 11
81.8522017414
 21
80.6092997812
  0
LINE
  8
0
 62
7
  6
CONTINUOUS
 10
75.2905364999
 20
80.6092997812
 11
67.9785449723
 21
80.6092997812
  0
LINE
  8
0
 62
7
  6
CONTINUOUS
 10
111.9347549443
 20
80.6092997812
 11
122.4531707879
 21
80.6092997812
  0
LINE
  8
0
 62
7
  6
CONTINUOUS
 10
123.3531846715
 20
80.6092997812
 11
131.5915588593
 21
80.6092997812
  0
LINE
  8
0
 62
7
  6
CONTINUOUS
 10
131.9372903831
 20
80.6092997812
 11
132.3843689031
 21
80.6092997812
  0
LINE
  8
0
 62
7
  6
CONTINUOUS
 10
132.9192423414
 20
80.9092997812
 11
66.9192423414
 21
80.9092997812
  0
LINE
  8
0
 62
7
  6
CONTINUOUS
 10
91.3312751458
 20
80.9092997812
 11
91.3312751458
 21
80.6092997812
  0
LINE
  8
0
 62
7
  6
CONTINUOUS
 10
139.8192423414
 20
85.4092997812
 11
60.0192423414
 21
85.4092997812
  0
LINE
  8
0
 62
7
  6
CONTINUOUS
 10
98.1871915338
 20
85.4092997812
 11
99.9192423414
 21
84.4092997812
  0
POLYLINE
  8
0
 62
7
  6
CONTINUOUS
 66
1
 70
0
  0
VERTEX
  8
0
 62
7
  6
CONTINUOUS
 10
62.7451255546
 20
91.4093005114
  0
VERTEX
  8
0
 62
7
  6
CONTINUOUS
 10
62.7767456048
 20
91.4067485273
  0
VERTEX
  8
0
 62
7
  6
CONTINUOUS
 10
62.8059276716
 20
91.399210056
  0
VERTEX
  8
0
 62
7
  6
CONTINUOUS
 10
62.8151946855
 20
91.3951964574
  0
SEQEND
  0
LINE
  8
DEFAULT_1
 62
2
  6
CENTER
 10
99.9192423414
 20
83.4092997812
 11
99.9192423414
 21
103.4092997812
  0
LINE
  8
0
 62
7
  6
CONTINUOUS
 10
148.8192414649
 20
91.4092997812
 11
134.2866406281
 21
91.4092997812
  0
LINE
  8
0
 62
7
  6
CONTINUOUS
 10
125.5354121525
 20
91.4092997812
 11
118.1405977039
 21
91.4092997812
  0
LINE
  8
0
 62
7
  6
CONTINUOUS
 10
102.7263273575
 20
91.4092997812
 11
97.1121573253
 21
91.4092997812
  0
LINE
  8
0
 62
7
  6
CONTINUOUS
 10
81.6978869789
 20
91.4092997812
 11
74.3030724687
 21
91.4092997812
  0
LINE
  8
0
 62
7
  6
CONTINUOUS
 10
65.5518440547
 20
91.4092997812
 11
51.0192431721
 21
91.4092997812
  0
LINE
  8
0
 62
7
  6
CONTINUOUS
 10
51.0192431721
 20
95.4092997812
 11
65.551844004
 21
95.4092997812
  0
LINE
  8
0
 62
7
  6
CONTINUOUS
 10
74.3030724687
 20
95.4092997812
 11
81.6978868954
 21
95.4092997812
  0
LINE
  8
0
 62
7
  6
CONTINUOUS
 10
97.1121574205
 20
95.4092997812
 11
102.7263272635
 21
95.4092997812
  0
LINE
  8
0
 62
7
  6
CONTINUOUS
 10
118.1405977884
 20
95.4092997812
 11
125.5354121525
 21
95.4092997812
  0
LINE
  8
0
 62
7
  6
CONTINUOUS
 10
134.2866406793
 20
95.4092997812
 11
148.8192414649
 21
95.4092997812
  0
POLYLINE
  8
0
 62
7
  6
CONTINUOUS
 66
1
 70
0
  0
VERTEX
  8
0
 62
7
  6
CONTINUOUS
 10
137.0933570473
 20
95.4092993258
  0
VERTEX
  8
0
 62
7
  6
CONTINUOUS
 10
137.0617499741
 20
95.4118488942
  0
VERTEX
  8
0
 62
7
  6
CONTINUOUS
 10
137.0325556817
 20
95.4193900281
  0
VERTEX
  8
0
 62
7
  6
CONTINUOUS
 10
137.0232870094
 20
95.4234048595
  0
SEQEND
  0
LINE
  8
0
 62
7
  6
CONTINUOUS
 10
101.6512931489
 20
85.4092997812
 11
99.9192423414
 21
84.4092997812
  0
LINE
  8
0
 62
7
  6
CONTINUOUS
 10
139.8192423414
 20
101.4092997812
 11
60.0192423414
 21
101.4092997812
  0
LINE
  8
0
 62
7
  6
CONTINUOUS
 10
111.9347549443
 20
80.6092997812
 11
111.9347549443
 21
80.9092997812
  0
LINE
  8
0
 62
7
  6
CONTINUOUS
 10
112.0019073184
 20
80.6092997812
 11
112.0019073184
 21
80.9092997812
  0
LINE
  8
0
 62
7
  6
CONTINUOUS
 10
112.1820418716
 20
80.6092997812
 11
112.1820418716
 21
80.9092997812
  0
LINE
  8
0
 62
7
  6
CONTINUOUS
 10
112.513990221
 20
80.6092997812
 11
112.513990221
 21
80.9092997812
  0
LINE
  8
0
 62
7
  6
CONTINUOUS
 10
132.9192423414
 20
105.9092997812
 11
66.9192423414
 21
105.9092997812
  0
LINE
  8
0
 62
7
  6
CONTINUOUS
 10
114.2937123348
 20
80.6092997812
 11
114.2937123348
 21
80.9092997812
  0
LINE
  8
0
 62
7
  6
CONTINUOUS
 10
114.8730938782
 20
80.6092997812
 11
114.8730938782
 21
80.9092997812
  0
LINE
  8
0
 62
7
  6
CONTINUOUS
 10
115.4879498668
 20
80.6092997812
 11
115.4879498668
 21
80.9092997812
  0
LINE
  8
0
 62
7
  6
CONTINUOUS
 10
117.1958821261
 20
80.6092997812
 11
117.1958821261
 21
80.9092997812
  0
LINE
  8
0
 62
7
  6
CONTINUOUS
 10
117.6057861185
 20
80.6092997812
 11
117.6057861185
 21
80.9092997812
  0
LINE
  8
0
 62
7
  6
CONTINUOUS
 10
118.6498897974
 20
80.6092997812
 11
118.6498897974
 21
80.9092997812
  0
LINE
  8
0
 62
7
  6
CONTINUOUS
 10
118.663792756
 20
80.6092997812
 11
118.663792756
 21
80.9092997812
  0
LINE
  8
0
 62
7
  6
CONTINUOUS
 10
118.7931823182
 20
80.6092997812
 11
118.7931823182
 21
80.9092997812
  0
LINE
  8
0
 62
7
  6
CONTINUOUS
 10
119.041532132
 20
80.6092997812
 11
119.041532132
 21
80.9092997812
  0
LINE
  8
0
 62
7
  6
CONTINUOUS
 10
119.5312816815
 20
80.6092997812
 11
119.5312816815
 21
80.9092997812
  0
LINE
  8
0
 62
7
  6
CONTINUOUS
 10
119.8951167028
 20
80.6092997812
 11
119.8951167028
 21
80.9092997812
  0
LINE
  8
0
 62
7
  6
CONTINUOUS
 10
120.3744369316
 20
80.6092997812
 11
120.3744369316
 21
80.9092997812
  0
LINE
  8
0
 62
7
  6
CONTINUOUS
 10
120.8468057165
 20
80.6092997812
 11
120.8468057165
 21
80.9092997812
  0
LINE
  8
0
 62
7
  6
CONTINUOUS
 10
121.1389951552
 20
80.6092997812
 11
121.1389951552
 21
80.9092997812
  0
LINE
  8
0
 62
7
  6
CONTINUOUS
 10
121.2844156735
 20
80.6092997812
 11
121.2844156735
 21
80.9092997812
  0
LINE
  8
0
 62
7
  6
CONTINUOUS
 10
121.7602594418
 20
80.6092997812
 11
121.7602594418
 21
80.9092997812
  0
LINE
  8
0
 62
7
  6
CONTINUOUS
 10
122.0524488806
 20
80.6092997812
 11
122.0524488806
 21
80.9092997812
  0
LINE
  8
0
 62
7
  6
CONTINUOUS
 10
122.2834194371
 20
80.6092997812
 11
122.2834194371
 21
80.9092997812
  0
LINE
  8
0
 62
7
  6
CONTINUOUS
 10
122.4531707879
 20
80.6092997812
 11
122.4531707879
 21
80.9092997812
  0
LINE
  8
0
 62
7
  6
CONTINUOUS
 10
123.3531846715
 20
80.6092997812
 11
123.3531846715
 21
80.9092997812
  0
LINE
  8
0
 62
7
  6
CONTINUOUS
 10
123.61774625
 20
80.6092997812
 11
123.61774625
 21
80.9092997812
  0
POLYLINE
  8
0
 62
7
  6
CONTINUOUS
 66
1
 70
0
  0
VERTEX
  8
0
 62
7
  6
CONTINUOUS
 10
137.0256612198
 20
91.3968974781
  0
VERTEX
  8
0
 62
7
  6
CONTINUOUS
 10
137.0223306736
 20
91.3946778821
  0
VERTEX
  8
0
 62
7
  6
CONTINUOUS
 10
137.0328824201
 20
91.3993308842
  0
VERTEX
  8
0
 62
7
  6
CONTINUOUS
 10
137.0624055126
 20
91.4068564655
  0
VERTEX
  8
0
 62
7
  6
CONTINUOUS
 10
137.0933372249
 20
91.4093004914
  0
SEQEND
  0
LINE
  8
0
 62
7
  6
CONTINUOUS
 10
124.5878057075
 20
80.6092997812
 11
124.5878057075
 21
80.9092997812
  0
LINE
  8
0
 62
7
  6
CONTINUOUS
 10
124.852367286
 20
80.6092997812
 11
124.852367286
 21
80.9092997812
  0
LINE
  8
0
 62
7
  6
CONTINUOUS
 10
125.3905228222
 20
80.6092997812
 11
125.3905228222
 21
80.9092997812
  0
LINE
  8
0
 62
7
  6
CONTINUOUS
 10
125.5272344829
 20
80.6092997812
 11
125.5272344829
 21
80.9092997812
  0
LINE
  8
0
 62
7
  6
CONTINUOUS
 10
125.6973916639
 20
80.6092997812
 11
125.6973916639
 21
80.9092997812
  0
LINE
  8
0
 62
7
  6
CONTINUOUS
 10
125.9863969413
 20
80.6092997812
 11
125.9863969413
 21
80.9092997812
  0
LINE
  8
0
 62
7
  6
CONTINUOUS
 10
126.0354162431
 20
91.9092997812
 11
126.0354162431
 21
94.9092997812
  0
LINE
  8
0
 62
7
  6
CONTINUOUS
 10
126.169441527
 20
80.6092997812
 11
126.169441527
 21
80.9092997812
  0
LINE
  8
0
 62
7
  6
CONTINUOUS
 10
126.4295700067
 20
80.6092997812
 11
126.4295700067
 21
80.9092997812
  0
LINE
  8
0
 62
7
  6
CONTINUOUS
 10
126.5168797233
 20
80.6092997812
 11
126.5168797233
 21
80.9092997812
  0
LINE
  8
0
 62
7
  6
CONTINUOUS
 10
126.6637381481
 20
80.6092997812
 11
126.6637381481
 21
80.9092997812
  0
LINE
  8
0
 62
7
  6
CONTINUOUS
 10
127.6072198884
 20
80.6092997812
 11
127.6072198884
 21
80.9092997812
  0
LINE
  8
0
 62
7
  6
CONTINUOUS
 10
127.7438906437
 20
80.6092997812
 11
127.7438906437
 21
80.9092997812
  0
LINE
  8
0
 62
7
  6
CONTINUOUS
 10
128.1372826205
 20
80.6092997812
 11
128.1372826205
 21
80.9092997812
  0
LINE
  8
0
 62
7
  6
CONTINUOUS
 10
128.1786071596
 20
80.6092997812
 11
128.1786071596
 21
80.9092997812
  0
LINE
  8
0
 62
7
  6
CONTINUOUS
 10
128.3150918228
 20
80.6092997812
 11
128.3150918228
 21
80.9092997812
  0
LINE
  8
0
 62
7
  6
CONTINUOUS
 10
128.5359694978
 20
80.6092997812
 11
128.5359694978
 21
80.9092997812
  0
LINE
  8
0
 62
7
  6
CONTINUOUS
 10
128.6939883772
 20
80.6092997812
 11
128.6939883772
 21
80.9092997812
  0
LINE
  8
0
 62
7
  6
CONTINUOUS
 10
129.0207933128
 20
80.6092997812
 11
129.0207933128
 21
80.9092997812
  0
LINE
  8
0
 62
7
  6
CONTINUOUS
 10
130.7086534017
 20
80.6092997812
 11
130.7086534017
 21
80.9092997812
  0
LINE
  8
0
 62
7
  6
CONTINUOUS
 10
130.7624889873
 20
80.6092997812
 11
130.7624889873
 21
80.9092997812
  0
LINE
  8
0
 62
7
  6
CONTINUOUS
 10
130.9778313256
 20
80.6092997812
 11
130.9778313256
 21
80.9092997812
  0
LINE
  8
0
 62
7
  6
CONTINUOUS
 10
131.0316669227
 20
80.6092997812
 11
131.0316669227
 21
80.9092997812
  0
LINE
  8
0
 62
7
  6
CONTINUOUS
 10
131.115797252
 20
80.6092997812
 11
131.115797252
 21
80.9092997812
  0
LINE
  8
0
 62
7
  6
CONTINUOUS
 10
131.1234870351
 20
80.6092997812
 11
131.1234870351
 21
80.9092997812
  0
LINE
  8
0
 62
7
  6
CONTINUOUS
 10
131.1373286422
 20
80.6092997812
 11
131.1373286422
 21
80.9092997812
  0
LINE
  8
0
 62
7
  6
CONTINUOUS
 10
131.1434804706
 20
80.6092997812
 11
131.1434804706
 21
80.9092997812
  0
LINE
  8
0
 62
7
  6
CONTINUOUS
 10
131.5915588593
 20
80.6092997812
 11
131.5915588593
 21
80.9092997812
  0
LINE
  8
0
 62
7
  6
CONTINUOUS
 10
131.9372903831
 20
80.6092997812
 11
131.9372903831
 21
80.9092997812
  0
LINE
  8
0
 62
7
  6
CONTINUOUS
 10
131.9594386437
 20
80.6092997812
 11
131.9594386437
 21
80.9092997812
  0
LINE
  8
0
 62
7
  6
CONTINUOUS
 10
132.3843689031
 20
80.6092997812
 11
132.3843689031
 21
80.9092997812
  0
LINE
  8
0
 62
7
  6
CONTINUOUS
 10
134.9192423414
 20
103.9092997812
 11
134.9192423414
 21
102.4092997812
  0
LINE
  8
0
 62
7
  6
CONTINUOUS
 10
134.9192423414
 20
84.4092997812
 11
134.9192423414
 21
82.9092997812
  0
LINE
  8
0
 62
7
  6
CONTINUOUS
 10
140.8192423414
 20
100.4092997812
 11
140.8192423414
 21
95.9092997812
  0
LINE
  8
0
 62
7
  6
CONTINUOUS
 10
140.8192423414
 20
90.9092997812
 11
140.8192423414
 21
86.4092997812
  0
LINE
  8
0
 62
7
  6
CONTINUOUS
 10
143.1468605004
 20
91.9092997812
 11
143.1468605004
 21
94.9092997812
  0
LINE
  8
0
 62
7
  6
CONTINUOUS
 10
149.3192423414
 20
94.9092997812
 11
149.3192423414
 21
91.9092997812
  0
ARC
  8
0
 62
4
  6
CONTINUOUS
 10
73.5045340766
 20
203.3165236396
 40
3.2
 50
45.0
 51
87.7455692247
  0
ARC
  8
0
 62
4
  6
CONTINUOUS
 10
76.3329612013
 20
200.4880965149
 40
3.2
 50
3.5903778907
 51
45.0
  0
ARC
  8
0
 62
4
  6
CONTINUOUS
 10
82.7203996604
 20
200.8888831552
 40
3.2
 50
183.5903778907
 51
225.0
  0
ARC
  8
0
 62
4
  6
CONTINUOUS
 10
91.0965554746
 20
192.5127273409
 40
3.2
 50
225.0
 51
266.4096221093
  0
ARC
  8
0
 62
4
  6
CONTINUOUS
 10
90.6957688344
 20
186.1252888818
 40
3.2
 50
45.0
 51
86.4096221093
  0
ARC
  8
0
 62
4
  6
CONTINUOUS
 10
93.5241959591
 20
183.2968617571
 40
3.2
 50
2.2544307753
 51
45.0
  0
ARC
  8
0
 62
7
  6
CONTINUOUS
 10
52.9199072397
 20
209.4615700219
 40
2.4
 50
180.3047662218
 51
266.38
  0
ARC
  8
0
 62
7
  6
CONTINUOUS
 10
59.3416241823
 20
185.9953961201
 40
2.4
 50
210.3047662218
 51
296.38
  0
ARC
  8
0
 62
7
  6
CONTINUOUS
 10
59.0916241823
 20
186.428408822
 40
2.4
 50
123.62
 51
209.6952337782
  0
ARC
  8
0
 62
7
  6
CONTINUOUS
 10
76.6360811415
 20
168.8839518628
 40
2.4
 50
240.3047662218
 51
326.38
  0
ARC
  8
0
 62
7
  6
CONTINUOUS
 10
76.2030684396
 20
169.1339518628
 40
2.4
 50
153.62
 51
239.6952337782
  0
ARC
  8
0
 62
7
  6
CONTINUOUS
 10
99.6692423414
 20
162.7122349202
 40
2.4
 50
183.62
 51
269.6952337782
  0
ARC
  8
0
 62
7
  6
CONTINUOUS
 10
57.3041716663
 20
204.7754023425
 40
2.0
 50
6.6072117191
 51
86.38
  0
ARC
  8
0
 62
7
  6
CONTINUOUS
 10
65.4815923923
 20
184.1291880767
 40
2.0
 50
36.6072117191
 51
116.38
  0
ARC
  8
0
 62
7
  6
CONTINUOUS
 10
60.545424713
 20
192.678881292
 40
2.0
 50
303.62
 51
23.3927882809
  0
ARC
  8
0
 62
7
  6
CONTINUOUS
 10
82.8865536115
 20
170.3377523935
 40
2.0
 50
66.6072117191
 51
146.38
  0
ARC
  8
0
 62
7
  6
CONTINUOUS
 10
74.3368603962
 20
175.2739200729
 40
2.0
 50
333.62
 51
53.3927882809
  0
ARC
  8
0
 62
7
  6
CONTINUOUS
 10
94.983074662
 20
167.0964993468
 40
2.0
 50
3.62
 51
83.3927882809
  0
ARC
  8
0
 62
4
  6
CONTINUOUS
 10
73.5045340766
 20
216.1066164041
 40
3.2
 50
272.2544307753
 51
315.0
  0
ARC
  8
0
 62
4
  6
CONTINUOUS
 10
73.7562914375
 20
209.7115700219
 40
3.2
 50
92.2544307753
 51
267.7455692247
  0
ARC
  8
0
 62
4
  6
CONTINUOUS
 10
93.5241959591
 20
236.1262782867
 40
3.2
 50
315.0
 51
357.7455692247
  0
ARC
  8
0
 62
4
  6
CONTINUOUS
 10
90.6957688344
 20
233.2978511619
 40
3.2
 50
273.5903778907
 51
315.0
  0
ARC
  8
0
 62
4
  6
CONTINUOUS
 10
91.0965554746
 20
226.9104127028
 40
3.2
 50
93.5903778907
 51
135.0
  0
ARC
  8
0
 62
4
  6
CONTINUOUS
 10
82.7203996604
 20
218.5342568886
 40
3.2
 50
135.0
 51
176.4096221093
  0
ARC
  8
0
 62
4
  6
CONTINUOUS
 10
76.3329612013
 20
218.9350435289
 40
3.2
 50
315.0
 51
356.4096221093
  0
ARC
  8
0
 62
7
  6
CONTINUOUS
 10
99.6692423414
 20
256.7109051236
 40
2.4
 50
90.3047662218
 51
176.38
  0
ARC
  8
0
 62
7
  6
CONTINUOUS
 10
76.2030684396
 20
250.2891881809
 40
2.4
 50
120.3047662218
 51
206.38
  0
ARC
  8
0
 62
7
  6
CONTINUOUS
 10
76.6360811415
 20
250.5391881809
 40
2.4
 50
33.62
 51
119.6952337782
  0
ARC
  8
0
 62
7
  6
CONTINUOUS
 10
59.0916241823
 20
232.9947312218
 40
2.4
 50
150.3047662218
 51
236.38
  0
ARC
  8
0
 62
7
  6
CONTINUOUS
 10
59.3416241823
 20
233.4277439237
 40
2.4
 50
63.62
 51
149.6952337782
  0
ARC
  8
0
 62
7
  6
CONTINUOUS
 10
52.9199072397
 20
209.9615700219
 40
2.4
 50
93.62
 51
179.6952337782
  0
ARC
  8
0
 62
7
  6
CONTINUOUS
 10
94.983074662
 20
252.326640697
 40
2.0
 50
276.6072117191
 51
356.38
  0
ARC
  8
0
 62
7
  6
CONTINUOUS
 10
74.3368603962
 20
244.1492199709
 40
2.0
 50
306.6072117191
 51
26.38
  0
ARC
  8
0
 62
7
  6
CONTINUOUS
 10
82.8865536115
 20
249.0853876502
 40
2.0
 50
213.62
 51
293.3927882809
  0
ARC
  8
0
 62
7
  6
CONTINUOUS
 10
60.545424713
 20
226.7442587518
 40
2.0
 50
336.6072117191
 51
56.38
  0
ARC
  8
0
 62
7
  6
CONTINUOUS
 10
65.4815923923
 20
235.2939519671
 40
2.0
 50
243.62
 51
323.3927882809
  0
ARC
  8
0
 62
7
  6
CONTINUOUS
 10
57.3041716663
 20
214.6477377012
 40
2.0
 50
273.62
 51
353.3927882809
  0
ARC
  8
0
 62
4
  6
CONTINUOUS
 10
99.9192423414
 20
183.548619118
 40
3.2
 50
182.2544307753
 51
357.7455692247
  0
ARC
  8
0
 62
4
  6
CONTINUOUS
 10
106.3142887236
 20
183.2968617571
 40
3.2
 50
135.0
 51
177.7455692247
  0
ARC
  8
0
 62
4
  6
CONTINUOUS
 10
109.1427158484
 20
186.1252888818
 40
3.2
 50
93.5903778907
 51
135.0
  0
ARC
  8
0
 62
4
  6
CONTINUOUS
 10
108.7419292081
 20
192.5127273409
 40
3.2
 50
273.5903778907
 51
315.0
  0
ARC
  8
0
 62
4
  6
CONTINUOUS
 10
117.1180850223
 20
200.8888831552
 40
3.2
 50
315.0
 51
356.4096221093
  0
ARC
  8
0
 62
4
  6
CONTINUOUS
 10
123.5055234814
 20
200.4880965149
 40
3.2
 50
135.0
 51
176.4096221093
  0
ARC
  8
0
 62
4
  6
CONTINUOUS
 10
126.3339506062
 20
203.3165236396
 40
3.2
 50
92.2544307753
 51
135.0
  0
ARC
  8
0
 62
7
  6
CONTINUOUS
 10
100.1692423414
 20
162.7122349202
 40
2.4
 50
270.3047662218
 51
356.38
  0
ARC
  8
0
 62
7
  6
CONTINUOUS
 10
123.6354162431
 20
169.1339518628
 40
2.4
 50
300.3047662218
 51
26.38
  0
ARC
  8
0
 62
7
  6
CONTINUOUS
 10
123.2024035413
 20
168.8839518628
 40
2.4
 50
213.62
 51
299.6952337782
  0
ARC
  8
0
 62
7
  6
CONTINUOUS
 10
140.7468605004
 20
186.428408822
 40
2.4
 50
330.3047662218
 51
56.38
  0
ARC
  8
0
 62
7
  6
CONTINUOUS
 10
140.4968605004
 20
185.9953961201
 40
2.4
 50
243.62
 51
329.6952337782
  0
ARC
  8
0
 62
7
  6
CONTINUOUS
 10
146.918577443
 20
209.4615700219
 40
2.4
 50
273.62
 51
359.6952337782
  0
ARC
  8
0
 62
7
  6
CONTINUOUS
 10
104.8554100207
 20
167.0964993468
 40
2.0
 50
96.6072117191
 51
176.38
  0
ARC
  8
0
 62
7
  6
CONTINUOUS
 10
125.5016242865
 20
175.2739200729
 40
2.0
 50
126.6072117191
 51
206.38
  0
ARC
  8
0
 62
7
  6
CONTINUOUS
 10
116.9519310712
 20
170.3377523935
 40
2.0
 50
33.62
 51
113.3927882809
  0
ARC
  8
0
 62
7
  6
CONTINUOUS
 10
139.2930599697
 20
192.678881292
 40
2.0
 50
156.6072117191
 51
236.38
  0
ARC
  8
0
 62
7
  6
CONTINUOUS
 10
134.3568922904
 20
184.1291880767
 40
2.0
 50
63.62
 51
143.3927882809
  0
ARC
  8
0
 62
7
  6
CONTINUOUS
 10
142.5343130164
 20
204.7754023425
 40
2.0
 50
93.62
 51
173.3927882809
  0
ARC
  8
0
 62
7
  6
CONTINUOUS
 10
99.9192423414
 20
209.7115700219
 40
49.4
 50
89.6952337782
 51
90.3047662218
  0
ARC
  8
0
 62
7
  6
CONTINUOUS
 10
99.9192423414
 20
209.7115700219
 40
49.4
 50
119.6952337782
 51
120.3047662218
  0
ARC
  8
0
 62
7
  6
CONTINUOUS
 10
99.9192423414
 20
209.7115700219
 40
49.4
 50
149.6952337782
 51
150.3047662218
  0
ARC
  8
0
 62
7
  6
CONTINUOUS
 10
99.9192423414
 20
209.7115700219
 40
49.4
 50
179.6952337782
 51
180.3047662218
  0
ARC
  8
0
 62
7
  6
CONTINUOUS
 10
99.9192423414
 20
209.7115700219
 40
49.4
 50
209.6952337782
 51
210.3047662218
  0
ARC
  8
0
 62
7
  6
CONTINUOUS
 10
99.9192423414
 20
209.7115700219
 40
49.4
 50
239.6952337782
 51
240.3047662218
  0
ARC
  8
0
 62
7
  6
CONTINUOUS
 10
99.9192423414
 20
209.7115700219
 40
49.4
 50
269.6952337782
 51
270.3047662218
  0
ARC
  8
0
 62
7
  6
CONTINUOUS
 10
99.9192423414
 20
209.7115700219
 40
49.4
 50
299.6952337782
 51
300.3047662218
  0
ARC
  8
0
 62
7
  6
CONTINUOUS
 10
99.9192423414
 20
209.7115700219
 40
49.4
 50
329.6952337782
 51
330.3047662218
  0
ARC
  8
0
 62
7
  6
CONTINUOUS
 10
99.9192423414
 20
209.7115700219
 40
49.4
 50
359.6952337782
 51
0.3047662218
  0
ARC
  8
0
 62
7
  6
CONTINUOUS
 10
99.9192423414
 20
209.7115700219
 40
49.4
 50
29.6952337782
 51
30.3047662218
  0
ARC
  8
0
 62
7
  6
CONTINUOUS
 10
99.9192423414
 20
209.7115700219
 40
49.4
 50
59.6952337782
 51
60.3047662218
  0
CIRCLE
  8
0
 62
7
  6
CONTINUOUS
 10
99.9192423414
 20
209.7115700219
 40
40.9
  0
CIRCLE
  8
0
 62
7
  6
CONTINUOUS
 10
99.9192423414
 20
209.7115700219
 40
35.0
  0
CIRCLE
  8
0
 62
4
  6
CONTINUOUS
 10
99.9192423414
 20
209.7115700219
 40
8.5934513786
  0
ARC
  8
0
 62
4
  6
CONTINUOUS
 10
117.1180850223
 20
218.5342568886
 40
3.2
 50
3.5903778907
 51
45.0
  0
ARC
  8
0
 62
4
  6
CONTINUOUS
 10
108.7419292081
 20
226.9104127028
 40
3.2
 50
45.0
 51
86.4096221093
  0
ARC
  8
0
 62
4
  6
CONTINUOUS
 10
109.1427158484
 20
233.2978511619
 40
3.2
 50
225.0
 51
266.4096221093
  0
ARC
  8
0
 62
4
  6
CONTINUOUS
 10
106.3142887236
 20
236.1262782867
 40
3.2
 50
182.2544307753
 51
225.0
  0
ARC
  8
0
 62
4
  6
CONTINUOUS
 10
99.9192423414
 20
235.8745209258
 40
3.2
 50
2.2544307753
 51
177.7455692247
  0
ARC
  8
0
 62
7
  6
CONTINUOUS
 10
100.1692423414
 20
256.7109051236
 40
2.4
 50
3.62
 51
89.6952337782
  0
ARC
  8
0
 62
7
  6
CONTINUOUS
 10
123.2024035413
 20
250.5391881809
 40
2.4
 50
60.3047662218
 51
146.38
  0
ARC
  8
0
 62
7
  6
CONTINUOUS
 10
104.8554100207
 20
252.326640697
 40
2.0
 50
183.62
 51
263.3927882809
  0
ARC
  8
0
 62
7
  6
CONTINUOUS
 10
116.9519310712
 20
249.0853876502
 40
2.0
 50
246.6072117191
 51
326.38
  0
ARC
  8
0
 62
7
  6
CONTINUOUS
 10
99.9192423414
 20
246.7115700219
 40
1.7320508076
 50
323.6349162078
 51
216.3650944078
  0
ARC
  8
0
 62
4
  6
CONTINUOUS
 10
126.0821932453
 20
209.7115700219
 40
3.2
 50
32.0904442294
 51
87.7455692247
  0
ARC
  8
0
 62
4
  6
CONTINUOUS
 10
126.0821932453
 20
209.7115700219
 40
3.2
 50
356.2683569419
 51
23.7226460257
  0
ARC
  8
0
 62
4
  6
CONTINUOUS
 10
126.0821932453
 20
209.7115700219
 40
3.2
 50
335.2652787289
 51
348.7168444598
  0
ARC
  8
0
 62
4
  6
CONTINUOUS
 10
126.0821932453
 20
209.7115700219
 40
3.2
 50
272.2544307753
 51
326.9672723555
  0
ARC
  8
0
 62
4
  6
CONTINUOUS
 10
126.3339506062
 20
216.1066164041
 40
3.2
 50
225.0
 51
267.7455692247
  0
ARC
  8
0
 62
4
  6
CONTINUOUS
 10
123.5055234814
 20
218.9350435289
 40
3.2
 50
183.5903778907
 51
225.0
  0
ARC
  8
0
 62
7
  6
CONTINUOUS
 10
146.918577443
 20
209.9615700219
 40
2.4
 50
0.3047662218
 51
86.38
  0
ARC
  8
0
 62
7
  6
CONTINUOUS
 10
140.7468605004
 20
232.9947312218
 40
2.4
 50
303.62
 51
29.6952337782
  0
ARC
  8
0
 62
7
  6
CONTINUOUS
 10
142.5343130164
 20
214.6477377012
 40
2.0
 50
186.6072117191
 51
266.38
  0
ARC
  8
0
 62
7
  6
CONTINUOUS
 10
139.2930599697
 20
226.7442587518
 40
2.0
 50
123.62
 51
203.3927882809
  0
ARC
  8
0
 62
7
  6
CONTINUOUS
 10
140.4968605004
 20
233.4277439237
 40
2.4
 50
30.3047662218
 51
116.38
  0
ARC
  8
0
 62
7
  6
CONTINUOUS
 10
123.6354162431
 20
250.2891881809
 40
2.4
 50
333.62
 51
59.6952337782
  0
ARC
  8
0
 62
7
  6
CONTINUOUS
 10
134.3568922904
 20
235.2939519671
 40
2.0
 50
216.6072117191
 51
296.38
  0
ARC
  8
0
 62
7
  6
CONTINUOUS
 10
125.5016242865
 20
244.1492199709
 40
2.0
 50
153.62
 51
233.3927882809
  0
ARC
  8
0
 62
7
  6
CONTINUOUS
 10
132.9192423414
 20
82.9092997812
 40
2.0
 50
270.0
 51
360.0
  0
ARC
  8
0
 62
7
  6
CONTINUOUS
 10
132.9192423414
 20
103.9092997812
 40
2.0
 50
0.0
 51
90.0
  0
ARC
  8
0
 62
7
  6
CONTINUOUS
 10
66.9192423414
 20
82.9092997812
 40
2.0
 50
180.0
 51
270.0
  0
ARC
  8
0
 62
7
  6
CONTINUOUS
 10
66.9192423414
 20
103.9092997812
 40
2.0
 50
90.0
 51
180.0
  0
ARC
  8
0
 62
7
  6
CONTINUOUS
 10
135.9192423414
 20
84.4092997812
 40
1.0
 50
90.0
 51
180.0
  0
ARC
  8
0
 62
7
  6
CONTINUOUS
 10
63.9192423414
 20
84.4092997812
 40
1.0
 50
0.0
 51
90.0
  0
ARC
  8
0
 62
7
  6
CONTINUOUS
 10
135.9192423414
 20
102.4092997812
 40
1.0
 50
180.0
 51
269.9999999907
  0
ARC
  8
0
 62
7
  6
CONTINUOUS
 10
63.9192423414
 20
102.4092997812
 40
1.0
 50
270.0000000093
 51
360.0
  0
ARC
  8
0
 62
7
  6
CONTINUOUS
 10
139.8192423414
 20
86.4092997812
 40
1.0
 50
270.0
 51
360.0
  0
ARC
  8
0
 62
7
  6
CONTINUOUS
 10
139.8192423414
 20
100.4092997812
 40
1.0
 50
0.0
 51
90.0
  0
ARC
  8
0
 62
7
  6
CONTINUOUS
 10
60.0192423414
 20
86.4092997812
 40
1.0
 50
180.0
 51
270.0
  0
ARC
  8
0
 62
7
  6
CONTINUOUS
 10
60.0192423414
 20
100.4092997812
 40
1.0
 50
90.0
 51
180.0
  0
ARC
  8
0
 62
7
  6
CONTINUOUS
 10
58.5192423414
 20
95.9092997812
 40
0.5
 50
270.0
 51
360.0
  0
ARC
  8
0
 62
7
  6
CONTINUOUS
 10
141.3192423414
 20
95.9092997812
 40
0.5
 50
180.0
 51
270.0
  0
ARC
  8
0
 62
7
  6
CONTINUOUS
 10
141.3192423414
 20
90.9092997812
 40
0.5
 50
99.0
 51
180.0
  0
ARC
  8
0
 62
7
  6
CONTINUOUS
 10
58.5192423414
 20
90.9092997812
 40
0.5
 50
0.0
 51
81.0
  0
ARC
  8
0
 62
7
  6
CONTINUOUS
 10
125.5354162431
 20
94.9092997812
 40
0.5
 50
0.0
 51
90.0000079394
  0
ARC
  8
0
 62
7
  6
CONTINUOUS
 10
125.5354162431
 20
91.9092997812
 40
0.5
 50
269.9999920606
 51
360.0
  0
ARC
  8
0
 62
7
  6
CONTINUOUS
 10
142.6468605004
 20
94.9092997812
 40
0.5
 50
0.0
 51
90.0000005606
  0
ARC
  8
0
 62
7
  6
CONTINUOUS
 10
142.6468605004
 20
91.9092997812
 40
0.5
 50
269.9999994394
 51
360.0
  0
ARC
  8
0
 62
7
  6
CONTINUOUS
 10
148.8192423414
 20
94.9092997812
 40
0.5
 50
0.0
 51
90.0001004311
  0
ARC
  8
0
 62
7
  6
CONTINUOUS
 10
148.8192423414
 20
91.9092997812
 40
0.5
 50
269.9998995689
 51
360.0
  0
ARC
  8
0
 62
7
  6
CONTINUOUS
 10
51.0192423414
 20
94.9092997812
 40
0.5
 50
89.9999048119
 51
180.0
  0
ARC
  8
0
 62
7
  6
CONTINUOUS
 10
51.0192423414
 20
91.9092997812
 40
0.5
 50
180.0
 51
270.0000951881
  0
ARC
  8
0
 62
7
  6
CONTINUOUS
 10
57.1916241823
 20
94.9092997812
 40
0.5
 50
89.9999947339
 51
180.0
  0
ARC
  8
0
 62
7
  6
CONTINUOUS
 10
57.1916241823
 20
91.9092997812
 40
0.5
 50
180.0
 51
270.0000052661
  0
ARC
  8
0
 62
7
  6
CONTINUOUS
 10
74.3030684396
 20
94.9092997812
 40
0.5
 50
89.9999983451
 51
180.0
  0
ARC
  8
0
 62
7
  6
CONTINUOUS
 10
74.3030684396
 20
91.9092997812
 40
0.5
 50
180.0
 51
270.0000016549
  0
ENDSEC
  0
EOF
