  0
SECTION
  2
HEADER
  9
$EXTMAX
 10
210.0
 20
297.0
 30
0.0
  9
$EXTMIN
 10
0.0
 20
0.0
 30
0.0
  9
$LIMMIN
 10
0.0
 20
0.0
  9
$LIMMAX
 10
210.0
 20
297.0
  9
$VIEWCTR
 10
105.0
 20
148.5
  9
$VIEWSIZE
 40
297.0
  9
$CLAYER
  8
0
  9
$LTSCALE
 40
19.36
  9
$CELTYPE
  6
BYLAYER
  9
$DIMSCALE
 40
1.0
  9
$DIMASZ
 40
3.5
  9
$DIMEXO
 40
2.2
  9
$DIMDLI
 40
13.376
  9
$DIMEXE
 40
6.336
  9
$DIMCEN
 40
3.168
  9
$DIMLFAC
 40
1.0
  9
$DIMBLK
  1
_FILLED
  9
$DIMTXT
 40
3.5
  9
$PDMODE
 70
3
  9
$PDSIZE
 40
0.3125
  9
$TILEMODE
 70
1
  0
ENDSEC
  0
SECTION
  2
TABLES
  0
TABLE
  2
LTYPE
 70
6
  0
LTYPE
  2
BYBLOCK
 70
0
  3

 72
65
 73
0
 40
0.0
  0
LTYPE
  2
BYLAYER
 70
0
  3

 72
65
 73
0
 40
0.0
  0
LTYPE
  2
CONTINUOUS
 70
64
  3
Solid line
 72
65
 73
0
 40
0.0
  0
LTYPE
  2
CENTER
 70
64
  3
____ _ ____ _ ____ _ ____ _ ____ _ ____ _ ____
 72
65
 73
4
 40
0.6
 49
0.375
 49
-0.075
 49
0.075
 49
-0.075
  0
LTYPE
  2
HIDDEN
 70
64
  3
- - - - - - - - - - - - - - - - - - - -
 72
65
 73
2
 40
0.2
 49
0.1
 49
-0.1
  0
LTYPE
  2
PHANTOM
 70
64
  3
_____ _ _ _____ _ _ _____ _ _ _____
 72
65
 73
6
 40
0.8
 49
0.45
 49
-0.05
 49
0.1
 49
-0.05
 49
0.1
 49
-0.05
  0
LTYPE
  2
DOT
 70
64
  3
. . . . . . . . . . . . . . . . . . . .
 72
65
 73
2
 40
0.2
 49
0.1
 49
-0.1
  0
LTYPE
  2
DASHED
 70
64
  3
- - - - - - - - - - - - - - - - - - - -
 72
65
 73
2
 40
0.2
 49
0.1
 49
-0.1
  0
ENDTAB
  0
TABLE
  2
LAYER
 70
36
  0
LAYER
  2
0
 70
0
 62
7
  6
CONTINUOUS
  0
LAYER
  2
DEFAULT_1
 70
0
 62
7
  6
CENTER
  0
LAYER
  2
DEFAULT_2
 70
0
 62
8
  6
HIDDEN
  0
LAYER
  2
DEFAULT_3
 70
0
 62
7
  6
PHANTOM
  0
LAYER
  2
CURVE
 70
0
 62
7
  6
CONTINUOUS
  0
LAYER
  2
SURFACE
 70
0
 62
7
  6
CONTINUOUS
  0
ENDTAB
  0
TABLE
  2
STYLE
 70
1
  0
STYLE
  2
STANDARD
 70
0
 40
0.0
 41
0.8
 50
0.0
 71
0
 42
0.2
  3
txt
  4

  0
STYLE
  2
TEXTSTYLE_1
 70
0
 40
0.0
 41
0.8
 50
0.0
 71
0
 42
0.2
  3
gdt
  4

  0
STYLE
  2
TEXTSTYLE_2
 70
0
 40
0.0
 41
0.6
 50
0.0
 71
0
 42
0.2
  3
txt
  4

  0
STYLE
  2
TEXTSTYLE_3
 70
0
 40
0.0
 41
1.0
 50
0.0
 71
0
 42
0.2
  3
ftb_____.ttf
  4

  0
STYLE
  2
TEXTSTYLE_4
 70
0
 40
0.0
 41
1.0
 50
0.0
 71
0
 42
0.2
  3
fti_____.ttf
  4

  0
STYLE
  2
TEXTSTYLE_5
 70
0
 40
0.0
 41
1.0
 50
0.0
 71
0
 42
0.2
  3
frutiger light.ttf
  4

  0
STYLE
  2
TEXTSTYLE_6
 70
0
 40
0.0
 41
0.7
 50
0.0
 71
0
 42
0.2
  3
txt
  4

  0
STYLE
  2
TEXTSTYLE_7
 70
0
 40
0.0
 41
0.8
 50
0.0
 71
0
 42
0.2
  3
txt
  4

  0
ENDTAB
  0
ENDSEC
  0
SECTION
  2
BLOCKS
  0
BLOCK
  8
0
 62
2
  6
CONTINUOUS
  2
SYMBOL_8_BL1
 70
64
 10
173.5956734183
 20
35.5937998301
  0
TEXT
  8
0
 62
7
  6
CONTINUOUS
 10
164.6539584268
 20
30.6865562072
  7
TEXTSTYLE_4
 40
1.0655737705
  1
The brand for plastic modular belts and chains
 41
1.0
 72
0
  0
LINE
  8
0
 62
7
  6
CONTINUOUS
 10
149.5737418074
 20
36.1675703219
 11
149.5737418074
 21
34.0364227809
  0
LINE
  8
0
 62
7
  6
CONTINUOUS
 10
149.8628043005
 20
31.0454914852
 11
149.8628043005
 21
31.1422825445
  0
LINE
  8
0
 62
7
  6
CONTINUOUS
 10
149.5737418074
 20
31.1100188581
 11
149.6315543091
 21
30.9164367395
  0
LINE
  8
0
 62
7
  6
CONTINUOUS
 10
150.9671844304
 20
33.9544555678
 11
150.9671844304
 21
36.1675703219
  0
LINE
  8
0
 62
7
  6
CONTINUOUS
 10
151.8862417523
 20
32.1101932727
 11
151.8862417523
 21
30.5937998301
  0
LINE
  8
0
 62
7
  6
CONTINUOUS
 10
152.1753043074
 20
30.5937998301
 11
152.1753043074
 21
31.3358647082
  0
LINE
  8
0
 62
7
  6
CONTINUOUS
 10
152.1753043074
 20
31.4649194539
 11
152.1753043074
 21
32.1101932727
  0
LINE
  8
0
 62
7
  6
CONTINUOUS
 10
149.6315543091
 20
31.3036010218
 11
149.5737418074
 21
31.1100188581
  0
LINE
  8
0
 62
7
  6
CONTINUOUS
 10
149.9784292936
 20
30.8841730531
 11
149.8628043005
 21
31.0454914852
  0
LINE
  8
0
 62
7
  6
CONTINUOUS
 10
151.0768668626
 20
31.400392081
 11
151.1346793074
 21
31.3036010218
  0
LINE
  8
0
 62
7
  6
CONTINUOUS
 10
151.4237418626
 20
31.3036010218
 11
151.3659292523
 21
31.4326557675
  0
LINE
  8
0
 62
7
  6
CONTINUOUS
 10
152.852430332
 20
36.1675703219
 11
152.852430332
 21
34.3642916334
  0
LINE
  8
0
 62
7
  6
CONTINUOUS
 10
152.852430332
 20
33.0528162235
 11
152.852430332
 21
32.3970785186
  0
LINE
  8
0
 62
7
  6
CONTINUOUS
 10
153.2159293074
 20
31.2390736489
 11
153.2159293074
 21
30.5937998301
  0
LINE
  8
0
 62
7
  6
CONTINUOUS
 10
153.5049916972
 20
30.5937998301
 11
153.5049916972
 21
31.2390736489
  0
LINE
  8
0
 62
7
  6
CONTINUOUS
 10
149.8628043005
 20
31.1422825445
 11
149.9206168074
 21
31.2713373354
  0
LINE
  8
0
 62
7
  6
CONTINUOUS
 10
149.6315543091
 20
30.9164367395
 11
149.7471793074
 21
30.7873819712
  0
LINE
  8
0
 62
7
  6
CONTINUOUS
 10
153.1581166972
 20
31.3681283946
 11
153.2159293074
 21
31.2390736489
  0
LINE
  8
0
 62
7
  6
CONTINUOUS
 10
153.9674919177
 20
30.8841730531
 11
154.0253041972
 21
30.7551182848
  0
LINE
  8
0
 62
7
  6
CONTINUOUS
 10
153.5049916972
 20
31.2390736489
 11
153.4471794177
 21
31.400392081
  0
LINE
  8
0
 62
7
  6
CONTINUOUS
 10
153.9674919177
 20
31.4326557675
 11
153.9674919177
 21
31.3681283946
  0
LINE
  8
0
 62
7
  6
CONTINUOUS
 10
153.9674919177
 20
30.9809641124
 11
153.9674919177
 21
30.8841730531
  0
LINE
  8
0
 62
7
  6
CONTINUOUS
 10
154.245872955
 20
32.3970785186
 11
154.245872955
 21
36.1675703219
  0
LINE
  8
0
 62
7
  6
CONTINUOUS
 10
154.2565543074
 20
30.8519093441
 11
154.2565543074
 21
30.9164367395
  0
LINE
  8
0
 62
7
  6
CONTINUOUS
 10
154.5737418074
 20
36.1675703219
 11
154.5737418074
 21
32.3970785186
  0
LINE
  8
0
 62
7
  6
CONTINUOUS
 10
151.3659292523
 20
30.7873819712
 11
151.4237418626
 21
30.9164367395
  0
LINE
  8
0
 62
7
  6
CONTINUOUS
 10
155.759679528
 20
30.6905909007
 11
155.7018665869
 21
30.8519093441
  0
LINE
  8
0
 62
7
  6
CONTINUOUS
 10
155.412804528
 20
31.3681283946
 11
155.412804528
 21
31.2713373354
  0
LINE
  8
0
 62
7
  6
CONTINUOUS
 10
155.412804528
 20
31.1422825445
 11
155.412804528
 21
30.9487004259
  0
LINE
  8
0
 62
7
  6
CONTINUOUS
 10
155.7018665869
 20
30.8519093441
 11
155.7018665869
 21
31.3681283946
  0
LINE
  8
0
 62
7
  6
CONTINUOUS
 10
155.9671844304
 20
32.3970785186
 11
155.9671844304
 21
34.2003572071
  0
LINE
  8
0
 62
7
  6
CONTINUOUS
 10
155.9671844304
 20
35.511832617
 11
155.9671844304
 21
36.1675703219
  0
LINE
  8
0
 62
7
  6
CONTINUOUS
 10
156.279992028
 20
32.1101932727
 11
156.279992028
 21
31.9488748406
  0
LINE
  8
0
 62
7
  6
CONTINUOUS
 10
156.279992028
 20
31.626237886
 11
156.279992028
 21
30.5937998301
  0
LINE
  8
0
 62
7
  6
CONTINUOUS
 10
156.5690540869
 20
30.5937998301
 11
156.5690540869
 21
31.626237886
  0
LINE
  8
0
 62
7
  6
CONTINUOUS
 10
156.5690540869
 20
31.9488748406
 11
156.5690540869
 21
32.1101932727
  0
LINE
  8
0
 62
7
  6
CONTINUOUS
 10
151.1346793074
 20
30.9164367395
 11
151.0768668626
 21
30.8196456577
  0
LINE
  8
0
 62
7
  6
CONTINUOUS
 10
153.4471794177
 20
31.400392081
 11
153.3893668074
 21
31.4649194539
  0
LINE
  8
0
 62
7
  6
CONTINUOUS
 10
154.3143669177
 20
30.7873819712
 11
154.2565543074
 21
30.8519093441
  0
LINE
  8
0
 62
7
  6
CONTINUOUS
 10
155.4706168074
 20
30.6583272086
 11
155.5284290869
 21
30.5937998301
  0
LINE
  8
0
 62
7
  6
CONTINUOUS
 10
155.412804528
 20
30.7551182848
 11
155.4706168074
 21
30.6583272086
  0
LINE
  8
0
 62
7
  6
CONTINUOUS
 10
155.8174918074
 20
30.5937998301
 11
155.759679528
 21
30.6905909007
  0
LINE
  8
0
 62
7
  6
CONTINUOUS
 10
155.7018665869
 20
31.3681283946
 11
155.6440543074
 21
31.4649194539
  0
LINE
  8
0
 62
7
  6
CONTINUOUS
 10
157.0315543074
 20
31.626237886
 11
157.0315543074
 21
30.5937998301
  0
LINE
  8
0
 62
7
  6
CONTINUOUS
 10
157.320617028
 20
30.5937998301
 11
157.320617028
 21
31.3358647082
  0
LINE
  8
0
 62
7
  6
CONTINUOUS
 10
157.320617028
 20
31.4649194539
 11
157.320617028
 21
31.626237886
  0
LINE
  8
0
 62
7
  6
CONTINUOUS
 10
157.852430332
 20
34.6101932727
 11
157.852430332
 21
32.3970785186
  0
LINE
  8
0
 62
7
  6
CONTINUOUS
 10
149.7471793074
 20
31.4326557675
 11
149.6315543091
 21
31.3036010218
  0
LINE
  8
0
 62
7
  6
CONTINUOUS
 10
149.9206168074
 20
31.2713373354
 11
149.9784292936
 21
31.3358647082
  0
LINE
  8
0
 62
7
  6
CONTINUOUS
 10
149.7471793074
 20
30.7873819712
 11
149.8628043005
 21
30.7228545871
  0
LINE
  8
0
 62
7
  6
CONTINUOUS
 10
150.1518667936
 20
30.7873819712
 11
149.9784292936
 21
30.8841730531
  0
LINE
  8
0
 62
7
  6
CONTINUOUS
 10
155.3549915869
 20
31.4326557675
 11
155.412804528
 21
31.3681283946
  0
LINE
  8
0
 62
7
  6
CONTINUOUS
 10
158.3034290869
 20
31.3681283946
 11
158.361242028
 21
31.2068099625
  0
LINE
  8
0
 62
7
  6
CONTINUOUS
 10
158.6503040869
 20
31.2068099625
 11
158.5924918074
 21
31.3681283946
  0
LINE
  8
0
 62
7
  6
CONTINUOUS
 10
158.361242028
 20
31.2068099625
 11
158.361242028
 21
30.5937998301
  0
LINE
  8
0
 62
7
  6
CONTINUOUS
 10
158.6503040869
 20
30.5937998301
 11
158.6503040869
 21
31.2068099625
  0
LINE
  8
0
 62
7
  6
CONTINUOUS
 10
159.1128043074
 20
31.4326557675
 11
159.1128043074
 21
31.3681283946
  0
LINE
  8
0
 62
7
  6
CONTINUOUS
 10
159.245872955
 20
32.3970785186
 11
159.245872955
 21
34.5282260596
  0
LINE
  8
0
 62
7
  6
CONTINUOUS
 10
159.5737418074
 20
36.1675703219
 11
159.5737418074
 21
32.3970785186
  0
LINE
  8
0
 62
7
  6
CONTINUOUS
 10
154.2565543074
 20
30.9164367395
 11
154.3143669177
 21
31.0132277988
  0
LINE
  8
0
 62
7
  6
CONTINUOUS
 10
149.8628043005
 20
30.7228545871
 11
150.0362418212
 21
30.6583272086
  0
LINE
  8
0
 62
7
  6
CONTINUOUS
 10
151.3659292523
 20
31.4326557675
 11
151.1924917523
 21
31.5294468267
  0
LINE
  8
0
 62
7
  6
CONTINUOUS
 10
154.0253041972
 20
30.7551182848
 11
154.1987416972
 21
30.6583272086
  0
LINE
  8
0
 62
7
  6
CONTINUOUS
 10
153.0424918074
 20
31.4326557675
 11
153.1581166972
 21
31.3681283946
  0
LINE
  8
0
 62
7
  6
CONTINUOUS
 10
153.3893668074
 20
31.4649194539
 11
153.2737419177
 21
31.5294468267
  0
LINE
  8
0
 62
7
  6
CONTINUOUS
 10
159.1128043074
 20
30.8519093441
 11
159.228429528
 21
30.7228545871
  0
LINE
  8
0
 62
7
  6
CONTINUOUS
 10
159.4596793074
 20
30.7873819712
 11
159.401867028
 21
30.8519093441
  0
LINE
  8
0
 62
7
  6
CONTINUOUS
 10
159.1128043074
 20
31.3681283946
 11
159.228429528
 21
31.2390736489
  0
LINE
  8
0
 62
7
  6
CONTINUOUS
 10
158.5924918074
 20
31.3681283946
 11
158.534679528
 21
31.4649194539
  0
LINE
  8
0
 62
7
  6
CONTINUOUS
 10
160.9628038663
 20
30.7873819712
 11
160.9628038663
 21
30.8519093441
  0
LINE
  8
0
 62
7
  6
CONTINUOUS
 10
160.9671844304
 20
32.3970785186
 11
160.9671844304
 21
36.1675703219
  0
LINE
  8
0
 62
7
  6
CONTINUOUS
 10
154.0253041972
 20
31.4971831403
 11
153.9674919177
 21
31.4326557675
  0
LINE
  8
0
 62
7
  6
CONTINUOUS
 10
150.9034292799
 20
31.4649194539
 11
151.0768668626
 21
31.400392081
  0
LINE
  8
0
 62
7
  6
CONTINUOUS
 10
155.6440543074
 20
31.4649194539
 11
155.5284290869
 21
31.5294468267
  0
LINE
  8
0
 62
7
  6
CONTINUOUS
 10
159.4596793074
 20
31.3036010218
 11
159.401867028
 21
31.3681283946
  0
LINE
  8
0
 62
7
  6
CONTINUOUS
 10
160.615929528
 20
30.9164367395
 11
160.6737418074
 21
30.8519093441
  0
LINE
  8
0
 62
7
  6
CONTINUOUS
 10
160.9628038663
 20
30.8519093441
 11
160.8471793074
 21
30.9809641124
  0
LINE
  8
0
 62
7
  6
CONTINUOUS
 10
160.615929528
 20
31.4326557675
 11
160.6737418074
 21
31.3681283946
  0
LINE
  8
0
 62
7
  6
CONTINUOUS
 10
160.9628038663
 20
31.3681283946
 11
160.8471793074
 21
31.4971831403
  0
LINE
  8
0
 62
7
  6
CONTINUOUS
 10
154.2565543074
 20
31.3681283946
 11
154.3143669177
 21
31.4326557675
  0
LINE
  8
0
 62
7
  6
CONTINUOUS
 10
154.0831168074
 20
31.1100188581
 11
153.9674919177
 21
30.9809641124
  0
LINE
  8
0
 62
7
  6
CONTINUOUS
 10
155.412804528
 20
30.9487004259
 11
155.3549915869
 21
30.8841730531
  0
LINE
  8
0
 62
7
  6
CONTINUOUS
 10
155.3549915869
 20
30.6905909007
 11
155.412804528
 21
30.7551182848
  0
LINE
  8
0
 62
7
  6
CONTINUOUS
 10
154.1987416972
 20
30.6583272086
 11
154.3143669177
 21
30.6260635193
  0
LINE
  8
0
 62
7
  6
CONTINUOUS
 10
151.1924917523
 20
31.5294468267
 11
150.9612418074
 21
31.5939741996
  0
LINE
  8
0
 62
7
  6
CONTINUOUS
 10
154.5456166972
 20
30.7228545871
 11
154.3143669177
 21
30.7873819712
  0
LINE
  8
0
 62
7
  6
CONTINUOUS
 10
153.2737419177
 20
31.5294468267
 11
153.1003044177
 21
31.5939741996
  0
LINE
  8
0
 62
7
  6
CONTINUOUS
 10
155.5284290869
 20
31.5294468267
 11
155.3549915869
 21
31.5939741996
  0
LINE
  8
0
 62
7
  6
CONTINUOUS
 10
158.187804528
 20
31.4326557675
 11
158.3034290869
 21
31.3681283946
  0
LINE
  8
0
 62
7
  6
CONTINUOUS
 10
158.534679528
 20
31.4649194539
 11
158.4190543074
 21
31.5294468267
  0
LINE
  8
0
 62
7
  6
CONTINUOUS
 10
150.0362418212
 20
30.6583272086
 11
150.2096793212
 21
30.6260635193
  0
LINE
  8
0
 62
7
  6
CONTINUOUS
 10
150.498741835
 20
30.7228545871
 11
150.1518667936
 21
30.7873819712
  0
LINE
  8
0
 62
7
  6
CONTINUOUS
 10
152.9268669177
 20
31.4649194539
 11
153.0424918074
 21
31.4326557675
  0
LINE
  8
0
 62
7
  6
CONTINUOUS
 10
155.239367028
 20
31.4649194539
 11
155.3549915869
 21
31.4326557675
  0
LINE
  8
0
 62
7
  6
CONTINUOUS
 10
159.575304528
 20
30.7551182848
 11
159.4596793074
 21
30.7873819712
  0
LINE
  8
0
 62
7
  6
CONTINUOUS
 10
158.0721793074
 20
31.4649194539
 11
158.187804528
 21
31.4326557675
  0
LINE
  8
0
 62
7
  6
CONTINUOUS
 10
159.228429528
 20
30.7228545871
 11
159.401867028
 21
30.6583272086
  0
LINE
  8
0
 62
7
  6
CONTINUOUS
 10
158.4190543074
 20
31.5294468267
 11
158.2456168074
 21
31.5939741996
  0
LINE
  8
0
 62
7
  6
CONTINUOUS
 10
159.6331168074
 20
31.2390736489
 11
159.4596793074
 21
31.3036010218
  0
LINE
  8
0
 62
7
  6
CONTINUOUS
 10
160.442492028
 20
30.9809641124
 11
160.615929528
 21
30.9164367395
  0
LINE
  8
0
 62
7
  6
CONTINUOUS
 10
160.8471793074
 20
31.4971831403
 11
160.6737418074
 21
31.5617105132
  0
LINE
  8
0
 62
7
  6
CONTINUOUS
 10
159.228429528
 20
31.2390736489
 11
159.4596793074
 21
31.1422825445
  0
LINE
  8
0
 62
7
  6
CONTINUOUS
 10
160.8471793074
 20
30.9809641124
 11
160.615929528
 21
31.0777551716
  0
LINE
  8
0
 62
7
  6
CONTINUOUS
 10
159.401867028
 20
31.3681283946
 11
159.4596793074
 21
31.4326557675
  0
LINE
  8
0
 62
7
  6
CONTINUOUS
 10
149.8628043005
 20
31.4971831403
 11
149.7471793074
 21
31.4326557675
  0
LINE
  8
0
 62
7
  6
CONTINUOUS
 10
149.9784292936
 20
31.3358647082
 11
150.1518667936
 21
31.4326557675
  0
LINE
  8
0
 62
7
  6
CONTINUOUS
 10
152.2909293626
 20
31.5294468267
 11
152.1753043074
 21
31.4649194539
  0
LINE
  8
0
 62
7
  6
CONTINUOUS
 10
152.1753043074
 20
31.3358647082
 11
152.2909293626
 21
31.400392081
  0
LINE
  8
0
 62
7
  6
CONTINUOUS
 10
151.1924917523
 20
30.6905909007
 11
151.3659292523
 21
30.7873819712
  0
LINE
  8
0
 62
7
  6
CONTINUOUS
 10
150.2096793212
 20
30.6260635193
 11
150.5565542799
 21
30.5937998301
  0
LINE
  8
0
 62
7
  6
CONTINUOUS
 10
154.3143669177
 20
30.6260635193
 11
154.5456166972
 21
30.5937998301
  0
LINE
  8
0
 62
7
  6
CONTINUOUS
 10
152.6956168074
 20
31.4971831403
 11
152.9268669177
 21
31.4649194539
  0
LINE
  8
0
 62
7
  6
CONTINUOUS
 10
155.0081169177
 20
31.4971831403
 11
155.239367028
 21
31.4649194539
  0
LINE
  8
0
 62
7
  6
CONTINUOUS
 10
159.4596793074
 20
31.1422825445
 11
160.442492028
 21
30.9809641124
  0
LINE
  8
0
 62
7
  6
CONTINUOUS
 10
160.615929528
 20
31.0777551716
 11
159.6331168074
 21
31.2390736489
  0
LINE
  8
0
 62
7
  6
CONTINUOUS
 10
153.1003044177
 20
31.5939741996
 11
152.9268669177
 21
31.626237886
  0
LINE
  8
0
 62
7
  6
CONTINUOUS
 10
159.401867028
 20
30.6583272086
 11
159.575304528
 21
30.6260635193
  0
LINE
  8
0
 62
7
  6
CONTINUOUS
 10
158.2456168074
 20
31.5939741996
 11
158.0721793074
 21
31.626237886
  0
LINE
  8
0
 62
7
  6
CONTINUOUS
 10
160.5003043074
 20
31.4649194539
 11
160.615929528
 21
31.4326557675
  0
LINE
  8
0
 62
7
  6
CONTINUOUS
 10
160.6737418074
 20
30.8519093441
 11
160.615929528
 21
30.7873819712
  0
LINE
  8
0
 62
7
  6
CONTINUOUS
 10
159.228429528
 20
31.5294468267
 11
159.1128043074
 21
31.4326557675
  0
LINE
  8
0
 62
7
  6
CONTINUOUS
 10
154.1409294177
 20
31.5617105132
 11
154.0253041972
 21
31.4971831403
  0
LINE
  8
0
 62
7
  6
CONTINUOUS
 10
154.1987416972
 20
31.1745462761
 11
154.0831168074
 21
31.1100188581
  0
LINE
  8
0
 62
7
  6
CONTINUOUS
 10
154.3143669177
 20
31.0132277988
 11
154.4299918074
 21
31.0777551716
  0
LINE
  8
0
 62
7
  6
CONTINUOUS
 10
151.8862417523
 20
30.5937998301
 11
152.1753043074
 21
30.5937998301
  0
LINE
  8
0
 62
7
  6
CONTINUOUS
 10
153.2159293074
 20
30.5937998301
 11
153.5049916972
 21
30.5937998301
  0
LINE
  8
0
 62
7
  6
CONTINUOUS
 10
154.5456166972
 20
30.5937998301
 11
154.8924916972
 21
30.5937998301
  0
LINE
  8
0
 62
7
  6
CONTINUOUS
 10
155.5284290869
 20
30.5937998301
 11
155.8174918074
 21
30.5937998301
  0
LINE
  8
0
 62
7
  6
CONTINUOUS
 10
156.279992028
 20
30.5937998301
 11
156.5690540869
 21
30.5937998301
  0
LINE
  8
0
 62
7
  6
CONTINUOUS
 10
157.0315543074
 20
30.5937998301
 11
157.320617028
 21
30.5937998301
  0
LINE
  8
0
 62
7
  6
CONTINUOUS
 10
158.361242028
 20
30.5937998301
 11
158.6503040869
 21
30.5937998301
  0
LINE
  8
0
 62
7
  6
CONTINUOUS
 10
159.922179528
 20
30.5937998301
 11
160.269054528
 21
30.5937998301
  0
LINE
  8
0
 62
7
  6
CONTINUOUS
 10
160.269054528
 20
30.7228545871
 11
159.922179528
 21
30.7228545871
  0
LINE
  8
0
 62
7
  6
CONTINUOUS
 10
154.8924916972
 20
30.7228545871
 11
154.5456166972
 21
30.7228545871
  0
LINE
  8
0
 62
7
  6
CONTINUOUS
 10
159.401867028
 20
30.8519093441
 11
159.1128043074
 21
30.8519093441
  0
LINE
  8
0
 62
7
  6
CONTINUOUS
 10
151.4237418626
 20
30.9164367395
 11
151.1346793074
 21
30.9164367395
  0
LINE
  8
0
 62
7
  6
CONTINUOUS
 10
150.498741835
 20
31.4971831403
 11
150.9034292799
 21
31.4649194539
  0
LINE
  8
0
 62
7
  6
CONTINUOUS
 10
150.9612418074
 20
31.5939741996
 11
150.5565542799
 21
31.626237886
  0
LINE
  8
0
 62
7
  6
CONTINUOUS
 10
159.575304528
 20
30.6260635193
 11
159.922179528
 21
30.5937998301
  0
LINE
  8
0
 62
7
  6
CONTINUOUS
 10
159.922179528
 20
30.7228545871
 11
159.575304528
 21
30.7551182848
  0
LINE
  8
0
 62
7
  6
CONTINUOUS
 10
155.3549915869
 20
31.5939741996
 11
155.0081169177
 21
31.626237886
  0
LINE
  8
0
 62
7
  6
CONTINUOUS
 10
160.1534293074
 20
31.4971831403
 11
160.5003043074
 21
31.4649194539
  0
LINE
  8
0
 62
7
  6
CONTINUOUS
 10
160.5003043074
 20
31.5939741996
 11
160.1534293074
 21
31.626237886
  0
LINE
  8
0
 62
7
  6
CONTINUOUS
 10
157.840929528
 20
31.4971831403
 11
158.0721793074
 21
31.4649194539
  0
LINE
  8
0
 62
7
  6
CONTINUOUS
 10
160.6737418074
 20
31.5617105132
 11
160.5003043074
 21
31.5939741996
  0
LINE
  8
0
 62
7
  6
CONTINUOUS
 10
160.8471793074
 20
30.6905909007
 11
160.9628038663
 21
30.7873819712
  0
LINE
  8
0
 62
7
  6
CONTINUOUS
 10
155.3549915869
 20
30.8841730531
 11
155.1815540869
 21
30.7873819712
  0
LINE
  8
0
 62
7
  6
CONTINUOUS
 10
157.4362415869
 20
31.5294468267
 11
157.320617028
 21
31.4649194539
  0
LINE
  8
0
 62
7
  6
CONTINUOUS
 10
157.320617028
 20
31.3358647082
 11
157.4362415869
 21
31.400392081
  0
LINE
  8
0
 62
7
  6
CONTINUOUS
 10
150.0362418212
 20
31.5617105132
 11
149.8628043005
 21
31.4971831403
  0
LINE
  8
0
 62
7
  6
CONTINUOUS
 10
152.4643666972
 20
31.5939741996
 11
152.2909293626
 21
31.5294468267
  0
LINE
  8
0
 62
7
  6
CONTINUOUS
 10
152.2909293626
 20
31.400392081
 11
152.4643666972
 21
31.4649194539
  0
LINE
  8
0
 62
7
  6
CONTINUOUS
 10
151.0768668626
 20
30.8196456577
 11
150.9034292799
 21
30.7551182848
  0
LINE
  8
0
 62
7
  6
CONTINUOUS
 10
160.5003043074
 20
30.7551182848
 11
160.269054528
 21
30.7228545871
  0
LINE
  8
0
 62
7
  6
CONTINUOUS
 10
154.8924916972
 20
30.5937998301
 11
155.1815540869
 21
30.6260635193
  0
LINE
  8
0
 62
7
  6
CONTINUOUS
 10
160.269054528
 20
30.5937998301
 11
160.615929528
 21
30.6260635193
  0
LINE
  8
0
 62
7
  6
CONTINUOUS
 10
150.5565542799
 20
30.5937998301
 11
150.9612418074
 21
30.6260635193
  0
LINE
  8
0
 62
7
  6
CONTINUOUS
 10
150.9034292799
 20
30.7551182848
 11
150.498741835
 21
30.7228545871
  0
LINE
  8
0
 62
7
  6
CONTINUOUS
 10
154.7768668074
 20
31.1422825445
 11
155.412804528
 21
31.1422825445
  0
LINE
  8
0
 62
7
  6
CONTINUOUS
 10
155.412804528
 20
31.2713373354
 11
154.7768668074
 21
31.2713373354
  0
LINE
  8
0
 62
7
  6
CONTINUOUS
 10
151.1346793074
 20
31.3036010218
 11
151.4237418626
 21
31.3036010218
  0
LINE
  8
0
 62
7
  6
CONTINUOUS
 10
153.9674919177
 20
31.3681283946
 11
154.2565543074
 21
31.3681283946
  0
LINE
  8
0
 62
7
  6
CONTINUOUS
 10
160.6737418074
 20
31.3681283946
 11
160.9628038663
 21
31.3681283946
  0
LINE
  8
0
 62
7
  6
CONTINUOUS
 10
154.6612419177
 20
31.4971831403
 11
155.0081169177
 21
31.4971831403
  0
LINE
  8
0
 62
7
  6
CONTINUOUS
 10
159.8065543074
 20
31.4971831403
 11
160.1534293074
 21
31.4971831403
  0
LINE
  8
0
 62
7
  6
CONTINUOUS
 10
160.1534293074
 20
31.626237886
 11
159.8065543074
 21
31.626237886
  0
LINE
  8
0
 62
7
  6
CONTINUOUS
 10
158.0721793074
 20
31.626237886
 11
157.840929528
 21
31.626237886
  0
LINE
  8
0
 62
7
  6
CONTINUOUS
 10
157.320617028
 20
31.626237886
 11
157.0315543074
 21
31.626237886
  0
LINE
  8
0
 62
7
  6
CONTINUOUS
 10
156.5690540869
 20
31.626237886
 11
156.279992028
 21
31.626237886
  0
LINE
  8
0
 62
7
  6
CONTINUOUS
 10
155.0081169177
 20
31.626237886
 11
154.6612419177
 21
31.626237886
  0
LINE
  8
0
 62
7
  6
CONTINUOUS
 10
152.9268669177
 20
31.626237886
 11
152.6956168074
 21
31.626237886
  0
LINE
  8
0
 62
7
  6
CONTINUOUS
 10
156.279992028
 20
31.9488748406
 11
156.5690540869
 21
31.9488748406
  0
LINE
  8
0
 62
7
  6
CONTINUOUS
 10
156.5690540869
 20
32.1101932727
 11
156.279992028
 21
32.1101932727
  0
LINE
  8
0
 62
7
  6
CONTINUOUS
 10
152.1753043074
 20
32.1101932727
 11
151.8862417523
 21
32.1101932727
  0
LINE
  8
0
 62
7
  6
CONTINUOUS
 10
151.2130860697
 20
32.3970785186
 11
151.6256574183
 21
32.3970785186
  0
LINE
  8
0
 62
7
  6
CONTINUOUS
 10
152.852430332
 20
32.3970785186
 11
154.245872955
 21
32.3970785186
  0
LINE
  8
0
 62
7
  6
CONTINUOUS
 10
154.5737418074
 20
32.3970785186
 11
155.9671844304
 21
32.3970785186
  0
LINE
  8
0
 62
7
  6
CONTINUOUS
 10
157.852430332
 20
32.3970785186
 11
159.245872955
 21
32.3970785186
  0
LINE
  8
0
 62
7
  6
CONTINUOUS
 10
159.5737418074
 20
32.3970785186
 11
160.9671844304
 21
32.3970785186
  0
LINE
  8
0
 62
7
  6
CONTINUOUS
 10
157.6096790869
 20
31.5939741996
 11
157.4362415869
 21
31.5294468267
  0
LINE
  8
0
 62
7
  6
CONTINUOUS
 10
155.1815540869
 20
30.6260635193
 11
155.3549915869
 21
30.6905909007
  0
LINE
  8
0
 62
7
  6
CONTINUOUS
 10
160.615929528
 20
30.6260635193
 11
160.8471793074
 21
30.6905909007
  0
LINE
  8
0
 62
7
  6
CONTINUOUS
 10
160.615929528
 20
30.7873819712
 11
160.5003043074
 21
30.7551182848
  0
LINE
  8
0
 62
7
  6
CONTINUOUS
 10
159.575304528
 20
31.4649194539
 11
159.8065543074
 21
31.4971831403
  0
LINE
  8
0
 62
7
  6
CONTINUOUS
 10
157.6096790869
 20
31.4649194539
 11
157.840929528
 21
31.4971831403
  0
LINE
  8
0
 62
7
  6
CONTINUOUS
 10
154.5456166972
 20
31.1100188581
 11
154.7768668074
 21
31.1422825445
  0
LINE
  8
0
 62
7
  6
CONTINUOUS
 10
157.840929528
 20
31.626237886
 11
157.6096790869
 21
31.5939741996
  0
LINE
  8
0
 62
7
  6
CONTINUOUS
 10
154.4299918074
 20
31.4649194539
 11
154.6612419177
 21
31.4971831403
  0
LINE
  8
0
 62
7
  6
CONTINUOUS
 10
159.8065543074
 20
31.626237886
 11
159.4596793074
 21
31.5939741996
  0
LINE
  8
0
 62
7
  6
CONTINUOUS
 10
154.7768668074
 20
31.2713373354
 11
154.4299918074
 21
31.2390736489
  0
LINE
  8
0
 62
7
  6
CONTINUOUS
 10
150.5565542799
 20
31.626237886
 11
150.2096793212
 21
31.5939741996
  0
LINE
  8
0
 62
7
  6
CONTINUOUS
 10
154.6612419177
 20
31.626237886
 11
154.2565543074
 21
31.5939741996
  0
LINE
  8
0
 62
7
  6
CONTINUOUS
 10
152.0327582009
 20
33.5446195022
 11
151.3770204959
 21
33.5446195022
  0
LINE
  8
0
 62
7
  6
CONTINUOUS
 10
157.4362415869
 20
31.400392081
 11
157.6096790869
 21
31.4649194539
  0
LINE
  8
0
 62
7
  6
CONTINUOUS
 10
159.4596793074
 20
31.4326557675
 11
159.575304528
 21
31.4649194539
  0
LINE
  8
0
 62
7
  6
CONTINUOUS
 10
159.4596793074
 20
31.5939741996
 11
159.228429528
 21
31.5294468267
  0
LINE
  8
0
 62
7
  6
CONTINUOUS
 10
155.1815540869
 20
30.7873819712
 11
154.8924916972
 21
30.7228545871
  0
LINE
  8
0
 62
7
  6
CONTINUOUS
 10
152.4643666972
 20
31.4649194539
 11
152.6956168074
 21
31.4971831403
  0
LINE
  8
0
 62
7
  6
CONTINUOUS
 10
152.6956168074
 20
31.626237886
 11
152.4643666972
 21
31.5939741996
  0
LINE
  8
0
 62
7
  6
CONTINUOUS
 10
150.2674918074
 20
31.4649194539
 11
150.498741835
 21
31.4971831403
  0
LINE
  8
0
 62
7
  6
CONTINUOUS
 10
156.7868565615
 20
35.0200293383
 11
157.4425942664
 21
35.0200293383
  0
LINE
  8
0
 62
7
  6
CONTINUOUS
 10
154.4299918074
 20
31.0777551716
 11
154.5456166972
 21
31.1100188581
  0
LINE
  8
0
 62
7
  6
CONTINUOUS
 10
154.4299918074
 20
31.2390736489
 11
154.1987416972
 21
31.1745462761
  0
LINE
  8
0
 62
7
  6
CONTINUOUS
 10
154.3143669177
 20
31.4326557675
 11
154.4299918074
 21
31.4649194539
  0
LINE
  8
0
 62
7
  6
CONTINUOUS
 10
150.9612418074
 20
30.6260635193
 11
151.1924917523
 21
30.6905909007
  0
LINE
  8
0
 62
7
  6
CONTINUOUS
 10
154.2565543074
 20
31.5939741996
 11
154.1409294177
 21
31.5617105132
  0
LINE
  8
0
 62
7
  6
CONTINUOUS
 10
150.2096793212
 20
31.5939741996
 11
150.0362418212
 21
31.5617105132
  0
LINE
  8
0
 62
7
  6
CONTINUOUS
 10
160.9671844304
 20
36.1675703219
 11
159.5737418074
 21
36.1675703219
  0
LINE
  8
0
 62
7
  6
CONTINUOUS
 10
157.6065286927
 20
36.1675703219
 11
157.1939573441
 21
36.1675703219
  0
LINE
  8
0
 62
7
  6
CONTINUOUS
 10
155.9671844304
 20
36.1675703219
 11
154.5737418074
 21
36.1675703219
  0
LINE
  8
0
 62
7
  6
CONTINUOUS
 10
154.245872955
 20
36.1675703219
 11
152.852430332
 21
36.1675703219
  0
LINE
  8
0
 62
7
  6
CONTINUOUS
 10
150.9671844304
 20
36.1675703219
 11
149.5737418074
 21
36.1675703219
  0
LINE
  8
0
 62
7
  6
CONTINUOUS
 10
150.1518667936
 20
31.4326557675
 11
150.2674918074
 21
31.4649194539
  0
CIRCLE
  8
0
 62
7
  6
CONTINUOUS
 10
160.2704631189
 20
38.5036358957
 40
2.0901639344
  0
ARC
  8
0
 62
7
  6
CONTINUOUS
 10
151.2130860697
 20
34.0364227809
 40
1.6393442623
 50
180.0
 51
270.0
  0
ARC
  8
0
 62
7
  6
CONTINUOUS
 10
157.6065286927
 20
34.5282260596
 40
1.6393442623
 50
0.0
 51
90.0
  0
ARC
  8
0
 62
7
  6
CONTINUOUS
 10
151.6256574183
 20
33.8724883547
 40
1.4754098361
 50
270.0
 51
326.2510114041
  0
ARC
  8
0
 62
7
  6
CONTINUOUS
 10
157.1939573441
 20
34.6921604858
 40
1.4754098361
 50
90.0
 51
146.2510114041
  0
ARC
  8
0
 62
7
  6
CONTINUOUS
 10
152.0327582009
 20
34.3642916334
 40
0.8196721311
 50
270.0
 51
360.0
  0
ARC
  8
0
 62
7
  6
CONTINUOUS
 10
156.7868565615
 20
34.2003572071
 40
0.8196721311
 50
90.0
 51
180.0
  0
ARC
  8
0
 62
7
  6
CONTINUOUS
 10
151.3770204959
 20
33.9544555678
 40
0.4098360656
 50
180.0
 51
270.0
  0
ARC
  8
0
 62
7
  6
CONTINUOUS
 10
157.4425942664
 20
34.6101932727
 40
0.4098360656
 50
0.0
 51
90.0
  0
SOLID
  8
0
 62
7
  6
CONTINUOUS
 10
156.279992028
 20
31.9488752009
 11
156.279992028
 21
32.1101936845
 12
156.5690540869
 22
31.9488752009
 13
156.5690540869
 23
32.1101936845
  0
SOLID
  8
0
 62
7
  6
CONTINUOUS
 10
150.5565542799
 20
31.6262382337
 11
150.9612418074
 21
31.5939740028
 12
150.2096793212
 22
31.5939740028
 13
150.2096793212
 23
31.5939740028
  0
SOLID
  8
0
 62
7
  6
CONTINUOUS
 10
150.0362418212
 20
31.5617111435
 11
150.2096793212
 21
31.5939740028
 12
150.9612418074
 22
31.5939740028
 13
150.9612418074
 23
31.5939740028
  0
SOLID
  8
0
 62
7
  6
CONTINUOUS
 10
150.9612418074
 20
31.5939740028
 11
151.1924917523
 21
31.5294468402
 12
150.0362418212
 22
31.5617111435
 13
150.0362418212
 23
31.5617111435
  0
SOLID
  8
0
 62
7
  6
CONTINUOUS
 10
149.8628043005
 20
31.49718259
 11
150.0362418212
 21
31.5617111435
 12
151.1924917523
 22
31.5294468402
 13
151.1924917523
 23
31.5294468402
  0
SOLID
  8
0
 62
7
  6
CONTINUOUS
 10
149.8628043005
 20
31.49718259
 11
151.1924917523
 21
31.5294468402
 12
150.498741835
 22
31.49718259
 13
150.498741835
 23
31.49718259
  0
SOLID
  8
0
 62
7
  6
CONTINUOUS
 10
150.498741835
 20
31.49718259
 11
151.1924917523
 21
31.5294468402
 12
150.9034292799
 22
31.4649197501
 13
150.9034292799
 23
31.4649197501
  0
SOLID
  8
0
 62
7
  6
CONTINUOUS
 10
151.1924917523
 20
31.5294468402
 11
151.3659292523
 21
31.4326554468
 12
150.9034292799
 22
31.4649197501
 13
150.9034292799
 23
31.4649197501
  0
SOLID
  8
0
 62
7
  6
CONTINUOUS
 10
151.0768668626
 20
31.4003926599
 11
150.9034292799
 21
31.4649197501
 12
151.3659292523
 22
31.4326554468
 13
151.3659292523
 23
31.4326554468
  0
SOLID
  8
0
 62
7
  6
CONTINUOUS
 10
151.0768668626
 20
31.4003926599
 11
151.3659292523
 21
31.4326554468
 12
151.1346793074
 22
31.3036013776
 13
151.1346793074
 23
31.3036013776
  0
SOLID
  8
0
 62
7
  6
CONTINUOUS
 10
151.3659292523
 20
31.4326554468
 11
151.4237418626
 21
31.3036013776
 12
151.1346793074
 22
31.3036013776
 13
151.1346793074
 23
31.3036013776
  0
SOLID
  8
0
 62
7
  6
CONTINUOUS
 10
152.4643666972
 20
31.5939739754
 11
152.6956168074
 21
31.6262382787
 12
152.9268669177
 22
31.6262382787
 13
152.9268669177
 23
31.6262382787
  0
SOLID
  8
0
 62
7
  6
CONTINUOUS
 10
152.9268669177
 20
31.6262382787
 11
153.1003044177
 21
31.5939739754
 12
152.4643666972
 22
31.5939739754
 13
152.4643666972
 23
31.5939739754
  0
SOLID
  8
0
 62
7
  6
CONTINUOUS
 10
152.2909293626
 20
31.5294468852
 11
152.4643666972
 21
31.5939739754
 12
153.1003044177
 22
31.5939739754
 13
153.1003044177
 23
31.5939739754
  0
SOLID
  8
0
 62
7
  6
CONTINUOUS
 10
153.1003044177
 20
31.5939739754
 11
153.2737419177
 21
31.5294468852
 12
152.2909293626
 22
31.5294468852
 13
152.2909293626
 23
31.5294468852
  0
SOLID
  8
0
 62
7
  6
CONTINUOUS
 10
153.2737419177
 20
31.5294468852
 11
152.6956168074
 21
31.4971825369
 12
152.2909293626
 22
31.5294468852
 13
152.2909293626
 23
31.5294468852
  0
SOLID
  8
0
 62
7
  6
CONTINUOUS
 10
152.1753043074
 20
31.4649197951
 11
152.2909293626
 21
31.5294468852
 12
152.6956168074
 22
31.4971825369
 13
152.6956168074
 23
31.4971825369
  0
SOLID
  8
0
 62
7
  6
CONTINUOUS
 10
152.6956168074
 20
31.4971825369
 11
152.4643666972
 21
31.4649197951
 12
152.1753043074
 22
31.4649197951
 13
152.1753043074
 23
31.4649197951
  0
SOLID
  8
0
 62
7
  6
CONTINUOUS
 10
152.6956168074
 20
31.4971825369
 11
153.2737419177
 21
31.5294468852
 12
152.9268669177
 22
31.4649197951
 13
152.9268669177
 23
31.4649197951
  0
SOLID
  8
0
 62
7
  6
CONTINUOUS
 10
153.2737419177
 20
31.5294468852
 11
153.3893668074
 21
31.4649197951
 12
152.9268669177
 22
31.4649197951
 13
152.9268669177
 23
31.4649197951
  0
SOLID
  8
0
 62
7
  6
CONTINUOUS
 10
153.0424918074
 20
31.4326554468
 11
152.9268669177
 21
31.4649197951
 12
153.3893668074
 22
31.4649197951
 13
153.3893668074
 23
31.4649197951
  0
SOLID
  8
0
 62
7
  6
CONTINUOUS
 10
153.3893668074
 20
31.4649197951
 11
153.4471794177
 21
31.4003927049
 12
153.0424918074
 22
31.4326554468
 13
153.0424918074
 23
31.4326554468
  0
SOLID
  8
0
 62
7
  6
CONTINUOUS
 10
153.1581166972
 20
31.3681283566
 11
153.0424918074
 21
31.4326554468
 12
153.4471794177
 22
31.4003927049
 13
153.4471794177
 23
31.4003927049
  0
SOLID
  8
0
 62
7
  6
CONTINUOUS
 10
153.1581166972
 20
31.3681283566
 11
153.4471794177
 21
31.4003927049
 12
153.2159293074
 22
31.2390742213
 13
153.2159293074
 23
31.2390742213
  0
SOLID
  8
0
 62
7
  6
CONTINUOUS
 10
153.4471794177
 20
31.4003927049
 11
153.5049916972
 21
31.2390742213
 12
153.2159293074
 22
31.2390742213
 13
153.2159293074
 23
31.2390742213
  0
SOLID
  8
0
 62
7
  6
CONTINUOUS
 10
152.4643666972
 20
31.4649197951
 11
152.2909293626
 21
31.4003927049
 12
152.1753043074
 22
31.4649197951
 13
152.1753043074
 23
31.4649197951
  0
SOLID
  8
0
 62
7
  6
CONTINUOUS
 10
152.2909293626
 20
31.4003927049
 11
152.1753043074
 21
31.3358640533
 12
152.1753043074
 22
31.4649197951
 13
152.1753043074
 23
31.4649197951
  0
SOLID
  8
0
 62
7
  6
CONTINUOUS
 10
152.1753043074
 20
31.3358640533
 11
151.8862417523
 21
30.5938002869
 12
152.1753043074
 22
31.4649197951
 13
152.1753043074
 23
31.4649197951
  0
SOLID
  8
0
 62
7
  6
CONTINUOUS
 10
152.1753043074
 20
31.4649197951
 11
151.8862417523
 21
30.5938002869
 12
152.1753043074
 22
32.1101937295
 13
152.1753043074
 23
32.1101937295
  0
SOLID
  8
0
 62
7
  6
CONTINUOUS
 10
151.8862417523
 20
30.5938002869
 11
151.8862417523
 21
32.1101937295
 12
152.1753043074
 22
32.1101937295
 13
152.1753043074
 23
32.1101937295
  0
SOLID
  8
0
 62
7
  6
CONTINUOUS
 10
152.1753043074
 20
31.3358640533
 11
152.1753043074
 21
30.5938002869
 12
151.8862417523
 22
30.5938002869
 13
151.8862417523
 23
30.5938002869
  0
SOLID
  8
0
 62
7
  6
CONTINUOUS
 10
153.2159293074
 20
30.5938002869
 11
153.2159293074
 21
31.2390742213
 12
153.5049916972
 22
31.2390742213
 13
153.5049916972
 23
31.2390742213
  0
SOLID
  8
0
 62
7
  6
CONTINUOUS
 10
153.5049916972
 20
31.2390742213
 11
153.5049916972
 21
30.5938002869
 12
153.2159293074
 22
30.5938002869
 13
153.2159293074
 23
30.5938002869
  0
SOLID
  8
0
 62
7
  6
CONTINUOUS
 10
154.2565543074
 20
31.5939738288
 11
154.6612419177
 21
31.6262385959
 12
155.0081169177
 22
31.6262385959
 13
155.0081169177
 23
31.6262385959
  0
SOLID
  8
0
 62
7
  6
CONTINUOUS
 10
155.0081169177
 20
31.6262385959
 11
155.3549915869
 21
31.5939738288
 12
154.2565543074
 22
31.5939738288
 13
154.2565543074
 23
31.5939738288
  0
SOLID
  8
0
 62
7
  6
CONTINUOUS
 10
154.1409294177
 20
31.5617111435
 11
154.2565543074
 21
31.5939738288
 12
155.3549915869
 22
31.5939738288
 13
155.3549915869
 23
31.5939738288
  0
SOLID
  8
0
 62
7
  6
CONTINUOUS
 10
155.3549915869
 20
31.5939738288
 11
155.5284290869
 21
31.5294468402
 12
154.1409294177
 22
31.5617111435
 13
154.1409294177
 23
31.5617111435
  0
SOLID
  8
0
 62
7
  6
CONTINUOUS
 10
154.0253041972
 20
31.4971826249
 11
154.1409294177
 21
31.5617111435
 12
155.5284290869
 22
31.5294468402
 13
155.5284290869
 23
31.5294468402
  0
SOLID
  8
0
 62
7
  6
CONTINUOUS
 10
154.0253041972
 20
31.4971826249
 11
155.5284290869
 21
31.5294468402
 12
154.6612419177
 22
31.4971826249
 13
154.6612419177
 23
31.4971826249
  0
SOLID
  8
0
 62
7
  6
CONTINUOUS
 10
154.6612419177
 20
31.4971826249
 11
155.5284290869
 21
31.5294468402
 12
155.0081169177
 22
31.4971826249
 13
155.0081169177
 23
31.4971826249
  0
SOLID
  8
0
 62
7
  6
CONTINUOUS
 10
155.0081169177
 20
31.4971826249
 11
155.5284290869
 21
31.5294468402
 12
155.239367028
 22
31.4649194065
 13
155.239367028
 23
31.4649194065
  0
SOLID
  8
0
 62
7
  6
CONTINUOUS
 10
155.5284290869
 20
31.5294468402
 11
155.6440543074
 21
31.4649194065
 12
155.239367028
 22
31.4649194065
 13
155.239367028
 23
31.4649194065
  0
SOLID
  8
0
 62
7
  6
CONTINUOUS
 10
153.9674919177
 20
31.4326554138
 11
154.0253041972
 21
31.4971826249
 12
154.6612419177
 22
31.4971826249
 13
154.6612419177
 23
31.4971826249
  0
SOLID
  8
0
 62
7
  6
CONTINUOUS
 10
155.3549915869
 20
31.4326554138
 11
155.239367028
 21
31.4649194065
 12
155.6440543074
 22
31.4649194065
 13
155.6440543074
 23
31.4649194065
  0
SOLID
  8
0
 62
7
  6
CONTINUOUS
 10
155.3549915869
 20
31.4326554138
 11
155.6440543074
 21
31.4649194065
 12
155.412804528
 22
31.3681282026
 13
155.412804528
 23
31.3681282026
  0
SOLID
  8
0
 62
7
  6
CONTINUOUS
 10
155.6440543074
 20
31.4649194065
 11
155.7018665869
 21
31.3681282026
 12
155.412804528
 22
31.3681282026
 13
155.412804528
 23
31.3681282026
  0
SOLID
  8
0
 62
7
  6
CONTINUOUS
 10
155.412804528
 20
31.2713369632
 11
155.412804528
 21
31.3681282026
 12
155.7018665869
 22
31.3681282026
 13
155.7018665869
 23
31.3681282026
  0
SOLID
  8
0
 62
7
  6
CONTINUOUS
 10
155.412804528
 20
31.2713369632
 11
155.7018665869
 21
31.3681282026
 12
155.412804528
 22
31.1422827828
 13
155.412804528
 23
31.1422827828
  0
SOLID
  8
0
 62
7
  6
CONTINUOUS
 10
155.412804528
 20
31.1422827828
 11
155.7018665869
 21
31.3681282026
 12
155.412804528
 22
30.9487004259
 13
155.412804528
 23
30.9487004259
  0
SOLID
  8
0
 62
7
  6
CONTINUOUS
 10
155.7018665869
 20
31.3681282026
 11
155.7018665869
 21
30.8519086025
 12
155.412804528
 22
30.9487004259
 13
155.412804528
 23
30.9487004259
  0
SOLID
  8
0
 62
7
  6
CONTINUOUS
 10
157.6096790869
 20
31.5939736268
 11
157.840929528
 21
31.6262383465
 12
158.0721793074
 22
31.6262383465
 13
158.0721793074
 23
31.6262383465
  0
SOLID
  8
0
 62
7
  6
CONTINUOUS
 10
158.0721793074
 20
31.6262383465
 11
158.2456168074
 21
31.5939736268
 12
157.6096790869
 22
31.5939736268
 13
157.6096790869
 23
31.5939736268
  0
SOLID
  8
0
 62
7
  6
CONTINUOUS
 10
157.4362415869
 20
31.5294472848
 11
157.6096790869
 21
31.5939736268
 12
158.2456168074
 22
31.5939736268
 13
158.2456168074
 23
31.5939736268
  0
SOLID
  8
0
 62
7
  6
CONTINUOUS
 10
158.2456168074
 20
31.5939736268
 11
158.4190543074
 21
31.5294472848
 12
157.4362415869
 22
31.5294472848
 13
157.4362415869
 23
31.5294472848
  0
SOLID
  8
0
 62
7
  6
CONTINUOUS
 10
158.4190543074
 20
31.5294472848
 11
157.840929528
 21
31.4971825369
 12
157.4362415869
 22
31.5294472848
 13
157.4362415869
 23
31.5294472848
  0
SOLID
  8
0
 62
7
  6
CONTINUOUS
 10
157.320617028
 20
31.4649199103
 11
157.4362415869
 21
31.5294472848
 12
157.840929528
 22
31.4971825369
 13
157.840929528
 23
31.4971825369
  0
SOLID
  8
0
 62
7
  6
CONTINUOUS
 10
157.840929528
 20
31.4971825369
 11
157.6096790869
 21
31.4649199103
 12
157.320617028
 22
31.4649199103
 13
157.320617028
 23
31.4649199103
  0
SOLID
  8
0
 62
7
  6
CONTINUOUS
 10
157.840929528
 20
31.4971825369
 11
158.4190543074
 21
31.5294472848
 12
158.0721793074
 22
31.4649199103
 13
158.0721793074
 23
31.4649199103
  0
SOLID
  8
0
 62
7
  6
CONTINUOUS
 10
158.4190543074
 20
31.5294472848
 11
158.534679528
 21
31.4649199103
 12
158.0721793074
 22
31.4649199103
 13
158.0721793074
 23
31.4649199103
  0
SOLID
  8
0
 62
7
  6
CONTINUOUS
 10
158.187804528
 20
31.4326554468
 11
158.0721793074
 21
31.4649199103
 12
158.534679528
 22
31.4649199103
 13
158.534679528
 23
31.4649199103
  0
SOLID
  8
0
 62
7
  6
CONTINUOUS
 10
158.187804528
 20
31.4326554468
 11
158.534679528
 21
31.4649199103
 12
158.3034290869
 22
31.3681288486
 13
158.3034290869
 23
31.3681288486
  0
SOLID
  8
0
 62
7
  6
CONTINUOUS
 10
158.534679528
 20
31.4649199103
 11
158.5924918074
 21
31.3681288486
 12
158.3034290869
 22
31.3681288486
 13
158.3034290869
 23
31.3681288486
  0
SOLID
  8
0
 62
7
  6
CONTINUOUS
 10
158.361242028
 20
31.2068093799
 11
158.3034290869
 21
31.3681288486
 12
158.5924918074
 22
31.3681288486
 13
158.5924918074
 23
31.3681288486
  0
SOLID
  8
0
 62
7
  6
CONTINUOUS
 10
158.5924918074
 20
31.3681288486
 11
158.6503040869
 21
31.2068093799
 12
158.361242028
 22
31.2068093799
 13
158.361242028
 23
31.2068093799
  0
SOLID
  8
0
 62
7
  6
CONTINUOUS
 10
157.6096790869
 20
31.4649199103
 11
157.4362415869
 21
31.4003926599
 12
157.320617028
 22
31.4649199103
 13
157.320617028
 23
31.4649199103
  0
SOLID
  8
0
 62
7
  6
CONTINUOUS
 10
157.4362415869
 20
31.4003926599
 11
157.320617028
 21
31.3358640533
 12
157.320617028
 22
31.4649199103
 13
157.320617028
 23
31.4649199103
  0
SOLID
  8
0
 62
7
  6
CONTINUOUS
 10
157.320617028
 20
31.3358640533
 11
157.0315543074
 21
30.5938003547
 12
157.320617028
 22
31.4649199103
 13
157.320617028
 23
31.4649199103
  0
SOLID
  8
0
 62
7
  6
CONTINUOUS
 10
157.320617028
 20
31.4649199103
 11
157.0315543074
 21
30.5938003547
 12
157.320617028
 22
31.6262383465
 13
157.320617028
 23
31.6262383465
  0
SOLID
  8
0
 62
7
  6
CONTINUOUS
 10
157.0315543074
 20
30.5938003547
 11
157.0315543074
 21
31.6262383465
 12
157.320617028
 22
31.6262383465
 13
157.320617028
 23
31.6262383465
  0
SOLID
  8
0
 62
7
  6
CONTINUOUS
 10
157.320617028
 20
31.3358640533
 11
157.320617028
 21
30.5938003547
 12
157.0315543074
 22
30.5938003547
 13
157.0315543074
 23
30.5938003547
  0
SOLID
  8
0
 62
7
  6
CONTINUOUS
 10
158.361242028
 20
30.5938003547
 11
158.361242028
 21
31.2068093799
 12
158.6503040869
 22
31.2068093799
 13
158.6503040869
 23
31.2068093799
  0
SOLID
  8
0
 62
7
  6
CONTINUOUS
 10
158.6503040869
 20
31.2068093799
 11
158.6503040869
 21
30.5938003547
 12
158.361242028
 22
30.5938003547
 13
158.361242028
 23
30.5938003547
  0
SOLID
  8
0
 62
7
  6
CONTINUOUS
 10
159.4596793074
 20
31.5939739474
 11
159.8065543074
 21
31.6262381969
 12
160.1534293074
 22
31.6262381969
 13
160.1534293074
 23
31.6262381969
  0
SOLID
  8
0
 62
7
  6
CONTINUOUS
 10
160.1534293074
 20
31.6262381969
 11
160.5003043074
 21
31.5939739474
 12
159.4596793074
 22
31.5939739474
 13
159.4596793074
 23
31.5939739474
  0
SOLID
  8
0
 62
7
  6
CONTINUOUS
 10
159.228429528
 20
31.5294468402
 11
159.4596793074
 21
31.5939739474
 12
160.5003043074
 22
31.5939739474
 13
160.5003043074
 23
31.5939739474
  0
SOLID
  8
0
 62
7
  6
CONTINUOUS
 10
159.228429528
 20
31.5294468402
 11
160.5003043074
 21
31.5939739304
 12
160.6737418074
 22
31.5617111435
 13
160.6737418074
 23
31.5617111435
  0
SOLID
  8
0
 62
7
  6
CONTINUOUS
 10
159.228429528
 20
31.5294468402
 11
160.6737418074
 21
31.5617111435
 12
159.8065543074
 22
31.4971825592
 13
159.8065543074
 23
31.4971825592
  0
SOLID
  8
0
 62
7
  6
CONTINUOUS
 10
159.8065543074
 20
31.4971825592
 11
160.6737418074
 21
31.5617111435
 12
160.1534293074
 22
31.4971825592
 13
160.1534293074
 23
31.4971825592
  0
SOLID
  8
0
 62
7
  6
CONTINUOUS
 10
160.6737418074
 20
31.5617111435
 11
160.8471793074
 21
31.4971825592
 12
160.1534293074
 22
31.4971825592
 13
160.1534293074
 23
31.4971825592
  0
SOLID
  8
0
 62
7
  6
CONTINUOUS
 10
160.5003043074
 20
31.4649197501
 11
160.1534293074
 21
31.4971825592
 12
160.8471793074
 22
31.4971825592
 13
160.8471793074
 23
31.4971825592
  0
SOLID
  8
0
 62
7
  6
CONTINUOUS
 10
159.1128043074
 20
31.4326555427
 11
159.228429528
 21
31.5294468402
 12
159.8065543074
 22
31.4971825592
 13
159.8065543074
 23
31.4971825592
  0
SOLID
  8
0
 62
7
  6
CONTINUOUS
 10
160.5003043074
 20
31.4649197501
 11
160.8471793074
 21
31.4971825592
 12
160.615929528
 22
31.4326555427
 13
160.615929528
 23
31.4326555427
  0
SOLID
  8
0
 62
7
  6
CONTINUOUS
 10
160.615929528
 20
31.4326555427
 11
160.8471793074
 21
31.4971825592
 12
160.6737418074
 22
31.3681283005
 13
160.6737418074
 23
31.3681283005
  0
SOLID
  8
0
 62
7
  6
CONTINUOUS
 10
160.8471793074
 20
31.4971825592
 11
160.9628038663
 21
31.3681283005
 12
160.6737418074
 22
31.3681283005
 13
160.6737418074
 23
31.3681283005
  0
SOLID
  8
0
 62
7
  6
CONTINUOUS
 10
150.2674918074
 20
31.4649197501
 11
149.7471793074
 21
31.4326554237
 12
150.498741835
 22
31.4971824493
 13
150.498741835
 23
31.4971824493
  0
SOLID
  8
0
 62
7
  6
CONTINUOUS
 10
149.7471793074
 20
31.4326554237
 11
149.8628043005
 21
31.4971824493
 12
150.498741835
 22
31.4971824493
 13
150.498741835
 23
31.4971824493
  0
SOLID
  8
0
 62
7
  6
CONTINUOUS
 10
150.2674918074
 20
31.4649197501
 11
150.1518667936
 21
31.4326554237
 12
149.7471793074
 22
31.4326554237
 13
149.7471793074
 23
31.4326554237
  0
SOLID
  8
0
 62
7
  6
CONTINUOUS
 10
149.6315543091
 20
31.3036012664
 11
149.7471793074
 21
31.4326554237
 12
150.1518667936
 22
31.4326554237
 13
150.1518667936
 23
31.4326554237
  0
SOLID
  8
0
 62
7
  6
CONTINUOUS
 10
153.9674919177
 20
31.4326554237
 11
154.6612419177
 21
31.4971825369
 12
154.4299918074
 22
31.4649197501
 13
154.4299918074
 23
31.4649197501
  0
SOLID
  8
0
 62
7
  6
CONTINUOUS
 10
154.4299918074
 20
31.4649197501
 11
154.3143669177
 21
31.4326554237
 12
153.9674919177
 22
31.4326554237
 13
153.9674919177
 23
31.4326554237
  0
SOLID
  8
0
 62
7
  6
CONTINUOUS
 10
153.9674919177
 20
31.3681283335
 11
153.9674919177
 21
31.4326554237
 12
154.3143669177
 22
31.4326554237
 13
154.3143669177
 23
31.4326554237
  0
SOLID
  8
0
 62
7
  6
CONTINUOUS
 10
154.3143669177
 20
31.4326554237
 11
154.2565543074
 21
31.3681283335
 12
153.9674919177
 22
31.3681283335
 13
153.9674919177
 23
31.3681283335
  0
SOLID
  8
0
 62
7
  6
CONTINUOUS
 10
159.1128043074
 20
31.4326555528
 11
159.8065543074
 21
31.4971825369
 12
159.575304528
 22
31.4649197501
 13
159.575304528
 23
31.4649197501
  0
SOLID
  8
0
 62
7
  6
CONTINUOUS
 10
159.575304528
 20
31.4649197501
 11
159.4596793074
 21
31.4326555528
 12
159.1128043074
 22
31.4326555528
 13
159.1128043074
 23
31.4326555528
  0
SOLID
  8
0
 62
7
  6
CONTINUOUS
 10
159.1128043074
 20
31.3681284626
 11
159.1128043074
 21
31.4326555528
 12
159.4596793074
 22
31.4326555528
 13
159.4596793074
 23
31.4326555528
  0
SOLID
  8
0
 62
7
  6
CONTINUOUS
 10
159.4596793074
 20
31.4326555528
 11
159.401867028
 21
31.3681284626
 12
159.1128043074
 22
31.3681284626
 13
159.1128043074
 23
31.3681284626
  0
SOLID
  8
0
 62
7
  6
CONTINUOUS
 10
159.228429528
 20
31.2390741763
 11
159.1128043074
 21
31.3681284626
 12
159.401867028
 22
31.3681284626
 13
159.401867028
 23
31.3681284626
  0
SOLID
  8
0
 62
7
  6
CONTINUOUS
 10
149.6315543091
 20
31.3036012664
 11
150.1518667936
 21
31.4326554468
 12
149.9784292936
 22
31.3358640533
 13
149.9784292936
 23
31.3358640533
  0
SOLID
  8
0
 62
7
  6
CONTINUOUS
 10
149.9784292936
 20
31.3358640533
 11
149.9206168074
 21
31.2713369632
 12
149.6315543091
 22
31.3036012664
 13
149.6315543091
 23
31.3036012664
  0
SOLID
  8
0
 62
7
  6
CONTINUOUS
 10
149.5737418074
 20
31.1100184796
 11
149.6315543091
 21
31.3036012664
 12
149.9206168074
 22
31.2713369632
 13
149.9206168074
 23
31.2713369632
  0
SOLID
  8
0
 62
7
  6
CONTINUOUS
 10
154.4299918074
 20
31.2390741763
 11
154.7768668074
 21
31.271336924
 12
155.412804528
 22
31.271336924
 13
155.412804528
 23
31.271336924
  0
SOLID
  8
0
 62
7
  6
CONTINUOUS
 10
154.4299918074
 20
31.2390741763
 11
155.412804528
 21
31.271336924
 12
154.1987416972
 22
31.1745462761
 13
154.1987416972
 23
31.1745462761
  0
SOLID
  8
0
 62
7
  6
CONTINUOUS
 10
154.1987416972
 20
31.1745462761
 11
155.412804528
 21
31.271336924
 12
154.7768668074
 22
31.1422827436
 13
154.7768668074
 23
31.1422827436
  0
SOLID
  8
0
 62
7
  6
CONTINUOUS
 10
155.412804528
 20
31.271336924
 11
155.412804528
 21
31.1422827436
 12
154.7768668074
 22
31.1422827436
 13
154.7768668074
 23
31.1422827436
  0
SOLID
  8
0
 62
7
  6
CONTINUOUS
 10
159.228429528
 20
31.2390745501
 11
159.401867028
 21
31.3681283566
 12
159.4596793074
 22
31.3036012664
 13
159.4596793074
 23
31.3036012664
  0
SOLID
  8
0
 62
7
  6
CONTINUOUS
 10
159.4596793074
 20
31.3036012664
 11
159.6331168074
 21
31.2390745501
 12
159.228429528
 22
31.2390745501
 13
159.228429528
 23
31.2390745501
  0
SOLID
  8
0
 62
7
  6
CONTINUOUS
 10
159.4596793074
 20
31.1422827828
 11
159.228429528
 21
31.2390745501
 12
159.6331168074
 22
31.2390745501
 13
159.6331168074
 23
31.2390745501
  0
SOLID
  8
0
 62
7
  6
CONTINUOUS
 10
159.6331168074
 20
31.2390745501
 11
160.615929528
 21
31.0777556927
 12
159.4596793074
 22
31.1422827828
 13
159.4596793074
 23
31.1422827828
  0
SOLID
  8
0
 62
7
  6
CONTINUOUS
 10
160.442492028
 20
30.9809646623
 11
159.4596793074
 21
31.1422827828
 12
160.615929528
 22
31.0777556927
 13
160.615929528
 23
31.0777556927
  0
SOLID
  8
0
 62
7
  6
CONTINUOUS
 10
160.615929528
 20
31.0777556927
 11
160.8471793074
 21
30.9809646623
 12
160.442492028
 22
30.9809646623
 13
160.442492028
 23
30.9809646623
  0
SOLID
  8
0
 62
7
  6
CONTINUOUS
 10
160.615929528
 20
30.9164372091
 11
160.442492028
 21
30.9809646623
 12
160.8471793074
 22
30.9809646623
 13
160.8471793074
 23
30.9809646623
  0
SOLID
  8
0
 62
7
  6
CONTINUOUS
 10
160.615929528
 20
30.9164372091
 11
160.8471793074
 21
30.9809646623
 12
160.6737418074
 22
30.8519089441
 13
160.6737418074
 23
30.8519089441
  0
SOLID
  8
0
 62
7
  6
CONTINUOUS
 10
160.8471793074
 20
30.9809646623
 11
160.9628038663
 21
30.8519089441
 12
160.6737418074
 22
30.8519089441
 13
160.6737418074
 23
30.8519089441
  0
SOLID
  8
0
 62
7
  6
CONTINUOUS
 10
160.615929528
 20
30.7873818593
 11
160.6737418074
 21
30.8519089441
 12
160.9628038663
 22
30.8519089441
 13
160.9628038663
 23
30.8519089441
  0
SOLID
  8
0
 62
7
  6
CONTINUOUS
 10
160.9628038663
 20
30.8519089441
 11
160.9628038663
 21
30.7873818593
 12
160.615929528
 22
30.7873818593
 13
160.615929528
 23
30.7873818593
  0
SOLID
  8
0
 62
7
  6
CONTINUOUS
 10
160.5003043074
 20
30.7551187255
 11
160.615929528
 21
30.7873818593
 12
160.9628038663
 22
30.7873818593
 13
160.9628038663
 23
30.7873818593
  0
SOLID
  8
0
 62
7
  6
CONTINUOUS
 10
160.5003043074
 20
30.7551187255
 11
160.9628038663
 21
30.7873818593
 12
160.269054528
 22
30.7228547745
 13
160.269054528
 23
30.7228547745
  0
SOLID
  8
0
 62
7
  6
CONTINUOUS
 10
160.9628038663
 20
30.7873818593
 11
160.8471793074
 21
30.6905916353
 12
160.269054528
 22
30.7228547745
 13
160.269054528
 23
30.7228547745
  0
SOLID
  8
0
 62
7
  6
CONTINUOUS
 10
160.8471793074
 20
30.6905916353
 11
159.401867028
 21
30.658327332
 12
160.269054528
 22
30.7228547745
 13
160.269054528
 23
30.7228547745
  0
SOLID
  8
0
 62
7
  6
CONTINUOUS
 10
160.269054528
 20
30.7228547745
 11
159.401867028
 21
30.658327332
 12
159.922179528
 22
30.7228547745
 13
159.922179528
 23
30.7228547745
  0
SOLID
  8
0
 62
7
  6
CONTINUOUS
 10
159.401867028
 20
30.658327332
 11
159.228429528
 21
30.7228547745
 12
159.922179528
 22
30.7228547745
 13
159.922179528
 23
30.7228547745
  0
SOLID
  8
0
 62
7
  6
CONTINUOUS
 10
159.401867028
 20
30.658327332
 11
160.8471793074
 21
30.6905916353
 12
159.575304528
 22
30.6260629858
 13
159.575304528
 23
30.6260629858
  0
SOLID
  8
0
 62
7
  6
CONTINUOUS
 10
160.8471793074
 20
30.6905916353
 11
160.615929528
 21
30.6260629858
 12
159.575304528
 22
30.6260629858
 13
159.575304528
 23
30.6260629858
  0
SOLID
  8
0
 62
7
  6
CONTINUOUS
 10
159.922179528
 20
30.5938006049
 11
159.575304528
 21
30.6260629858
 12
160.615929528
 22
30.6260629858
 13
160.615929528
 23
30.6260629858
  0
SOLID
  8
0
 62
7
  6
CONTINUOUS
 10
160.615929528
 20
30.6260629858
 11
160.269054528
 21
30.5938006049
 12
159.922179528
 22
30.5938006049
 13
159.922179528
 23
30.5938006049
  0
SOLID
  8
0
 62
7
  6
CONTINUOUS
 10
149.5737418074
 20
31.1100184796
 11
149.9206168074
 21
31.2713369632
 12
149.8628043005
 22
31.1422827828
 13
149.8628043005
 23
31.1422827828
  0
SOLID
  8
0
 62
7
  6
CONTINUOUS
 10
149.8628043005
 20
31.1422827828
 11
149.8628043005
 21
31.0454914852
 12
149.5737418074
 22
31.1100184796
 13
149.5737418074
 23
31.1100184796
  0
SOLID
  8
0
 62
7
  6
CONTINUOUS
 10
149.6315543091
 20
30.9164372091
 11
149.5737418074
 21
31.1100184796
 12
149.8628043005
 22
31.0454914852
 13
149.8628043005
 23
31.0454914852
  0
SOLID
  8
0
 62
7
  6
CONTINUOUS
 10
149.8628043005
 20
31.0454914852
 11
149.9784292936
 21
30.8841729058
 12
149.6315543091
 22
30.9164372091
 13
149.6315543091
 23
30.9164372091
  0
SOLID
  8
0
 62
7
  6
CONTINUOUS
 10
149.7471793074
 20
30.7873813202
 11
149.6315543091
 21
30.9164372091
 12
149.9784292936
 22
30.8841729058
 13
149.9784292936
 23
30.8841729058
  0
SOLID
  8
0
 62
7
  6
CONTINUOUS
 10
149.9784292936
 20
30.8841729058
 11
150.1518667936
 21
30.7873813202
 12
149.7471793074
 22
30.7873813202
 13
149.7471793074
 23
30.7873813202
  0
SOLID
  8
0
 62
7
  6
CONTINUOUS
 10
149.8628043005
 20
30.7228547004
 11
149.7471793074
 21
30.7873813202
 12
150.1518667936
 22
30.7873813202
 13
150.1518667936
 23
30.7873813202
  0
SOLID
  8
0
 62
7
  6
CONTINUOUS
 10
150.1518667936
 20
30.7873813202
 11
150.498741835
 21
30.7228547004
 12
149.8628043005
 22
30.7228547004
 13
149.8628043005
 23
30.7228547004
  0
SOLID
  8
0
 62
7
  6
CONTINUOUS
 10
150.0362418212
 20
30.658327332
 11
149.8628043005
 21
30.7228547004
 12
150.498741835
 22
30.7228547004
 13
150.498741835
 23
30.7228547004
  0
SOLID
  8
0
 62
7
  6
CONTINUOUS
 10
154.0831168074
 20
31.1100184386
 11
154.1987416972
 21
31.1745462761
 12
154.7768668074
 22
31.1422827828
 13
154.7768668074
 23
31.1422827828
  0
SOLID
  8
0
 62
7
  6
CONTINUOUS
 10
154.7768668074
 20
31.1422827828
 11
154.5456166972
 21
31.1100184386
 12
154.0831168074
 22
31.1100184386
 13
154.0831168074
 23
31.1100184386
  0
SOLID
  8
0
 62
7
  6
CONTINUOUS
 10
153.9674919177
 20
30.9809642992
 11
154.0831168074
 21
31.1100184386
 12
154.5456166972
 22
31.1100184386
 13
154.5456166972
 23
31.1100184386
  0
SOLID
  8
0
 62
7
  6
CONTINUOUS
 10
154.3143669177
 20
31.0132277988
 11
153.9674919177
 21
30.9809642992
 12
154.4299918074
 22
31.0777556927
 13
154.4299918074
 23
31.0777556927
  0
SOLID
  8
0
 62
7
  6
CONTINUOUS
 10
153.9674919177
 20
30.9809642992
 11
154.5456166972
 21
31.1100184796
 12
154.4299918074
 22
31.0777556927
 13
154.4299918074
 23
31.0777556927
  0
SOLID
  8
0
 62
7
  6
CONTINUOUS
 10
154.3143669177
 20
31.0132277988
 11
154.2565543074
 21
30.9164372091
 12
153.9674919177
 22
30.9809642992
 13
153.9674919177
 23
30.9809642992
  0
SOLID
  8
0
 62
7
  6
CONTINUOUS
 10
153.9674919177
 20
30.8841729058
 11
153.9674919177
 21
30.9809642992
 12
154.2565543074
 22
30.9164372091
 13
154.2565543074
 23
30.9164372091
  0
SOLID
  8
0
 62
7
  6
CONTINUOUS
 10
154.2565543074
 20
30.9164372091
 11
154.2565543074
 21
30.8519086025
 12
153.9674919177
 22
30.8841729058
 13
153.9674919177
 23
30.8841729058
  0
SOLID
  8
0
 62
7
  6
CONTINUOUS
 10
154.0253041972
 20
30.7551187255
 11
153.9674919177
 21
30.8841729058
 12
154.2565543074
 22
30.8519086025
 13
154.2565543074
 23
30.8519086025
  0
SOLID
  8
0
 62
7
  6
CONTINUOUS
 10
155.412804528
 20
30.9487004259
 11
155.7018665869
 21
30.8519086025
 12
155.3549915869
 22
30.8841729058
 13
155.3549915869
 23
30.8841729058
  0
SOLID
  8
0
 62
7
  6
CONTINUOUS
 10
155.1815540869
 20
30.7873815123
 11
155.3549915869
 21
30.8841729058
 12
155.7018665869
 22
30.8519086025
 13
155.7018665869
 23
30.8519086025
  0
SOLID
  8
0
 62
7
  6
CONTINUOUS
 10
155.1815540869
 20
30.7873815123
 11
155.7018665869
 21
30.8519086025
 12
155.412804528
 22
30.7551187255
 13
155.412804528
 23
30.7551187255
  0
SOLID
  8
0
 62
7
  6
CONTINUOUS
 10
155.7018665869
 20
30.8519086025
 11
155.759679528
 21
30.6905916353
 12
155.412804528
 22
30.7551187255
 13
155.412804528
 23
30.7551187255
  0
SOLID
  8
0
 62
7
  6
CONTINUOUS
 10
155.4706168074
 20
30.658327332
 11
155.412804528
 21
30.7551187255
 12
155.759679528
 22
30.6905916353
 13
155.759679528
 23
30.6905916353
  0
SOLID
  8
0
 62
7
  6
CONTINUOUS
 10
155.4706168074
 20
30.658327332
 11
155.759679528
 21
30.6905916353
 12
155.5284290869
 22
30.5938002079
 13
155.5284290869
 23
30.5938002079
  0
SOLID
  8
0
 62
7
  6
CONTINUOUS
 10
155.759679528
 20
30.6905916353
 11
155.8174918074
 21
30.5938002079
 12
155.5284290869
 22
30.5938002079
 13
155.5284290869
 23
30.5938002079
  0
SOLID
  8
0
 62
7
  6
CONTINUOUS
 10
151.0768668626
 20
30.8196456577
 11
151.1346793074
 21
30.9164373395
 12
151.4237418626
 22
30.9164373395
 13
151.4237418626
 23
30.9164373395
  0
SOLID
  8
0
 62
7
  6
CONTINUOUS
 10
151.4237418626
 20
30.9164373395
 11
151.3659292523
 21
30.7873815123
 12
151.0768668626
 22
30.8196456577
 13
151.0768668626
 23
30.8196456577
  0
SOLID
  8
0
 62
7
  6
CONTINUOUS
 10
150.9034292799
 20
30.7551187255
 11
151.0768668626
 21
30.8196456577
 12
151.3659292523
 22
30.7873815123
 13
151.3659292523
 23
30.7873815123
  0
SOLID
  8
0
 62
7
  6
CONTINUOUS
 10
150.9034292799
 20
30.7551187255
 11
151.3659292523
 21
30.7873815123
 12
150.498741835
 22
30.7228544222
 13
150.498741835
 23
30.7228544222
  0
SOLID
  8
0
 62
7
  6
CONTINUOUS
 10
151.3659292523
 20
30.7873815123
 11
151.1924917523
 21
30.6905916353
 12
150.498741835
 22
30.7228544222
 13
150.498741835
 23
30.7228544222
  0
SOLID
  8
0
 62
7
  6
CONTINUOUS
 10
150.0362418212
 20
30.658327332
 11
150.498741835
 21
30.7228544222
 12
151.1924917523
 22
30.6905916353
 13
151.1924917523
 23
30.6905916353
  0
SOLID
  8
0
 62
7
  6
CONTINUOUS
 10
150.0362418212
 20
30.658327332
 11
151.1924917523
 21
30.6905916353
 12
150.2096793212
 22
30.6260631011
 13
150.2096793212
 23
30.6260631011
  0
SOLID
  8
0
 62
7
  6
CONTINUOUS
 10
151.1924917523
 20
30.6905916353
 11
150.9612418074
 21
30.6260631011
 12
150.2096793212
 22
30.6260631011
 13
150.2096793212
 23
30.6260631011
  0
SOLID
  8
0
 62
7
  6
CONTINUOUS
 10
150.5565542799
 20
30.5938002419
 11
150.2096793212
 21
30.6260631011
 12
150.9612418074
 22
30.6260631011
 13
150.9612418074
 23
30.6260631011
  0
SOLID
  8
0
 62
7
  6
CONTINUOUS
 10
154.0253041972
 20
30.7551187255
 11
154.2565543074
 21
30.8519086025
 12
154.3143669177
 22
30.7873815123
 13
154.3143669177
 23
30.7873815123
  0
SOLID
  8
0
 62
7
  6
CONTINUOUS
 10
154.3143669177
 20
30.7873815123
 11
154.5456166972
 21
30.7228544222
 12
154.0253041972
 22
30.7551187255
 13
154.0253041972
 23
30.7551187255
  0
SOLID
  8
0
 62
7
  6
CONTINUOUS
 10
154.1987416972
 20
30.658327332
 11
154.0253041972
 21
30.7551187255
 12
154.5456166972
 22
30.7228544222
 13
154.5456166972
 23
30.7228544222
  0
SOLID
  8
0
 62
7
  6
CONTINUOUS
 10
154.8924916972
 20
30.7228544637
 11
155.1815540869
 21
30.7873815123
 12
155.412804528
 22
30.7551187255
 13
155.412804528
 23
30.7551187255
  0
SOLID
  8
0
 62
7
  6
CONTINUOUS
 10
155.412804528
 20
30.7551187255
 11
155.3549915869
 21
30.6905916353
 12
154.8924916972
 22
30.7228544637
 13
154.8924916972
 23
30.7228544637
  0
SOLID
  8
0
 62
7
  6
CONTINUOUS
 10
155.3549915869
 20
30.6905916353
 11
154.1987416972
 21
30.658327332
 12
154.8924916972
 22
30.7228544637
 13
154.8924916972
 23
30.7228544637
  0
SOLID
  8
0
 62
7
  6
CONTINUOUS
 10
154.1987416972
 20
30.658327332
 11
154.5456166972
 21
30.7228544637
 12
154.8924916972
 22
30.7228544637
 13
154.8924916972
 23
30.7228544637
  0
SOLID
  8
0
 62
7
  6
CONTINUOUS
 10
154.1987416972
 20
30.658327332
 11
155.3549915869
 21
30.6905916353
 12
154.3143669177
 22
30.6260630541
 13
154.3143669177
 23
30.6260630541
  0
SOLID
  8
0
 62
7
  6
CONTINUOUS
 10
155.3549915869
 20
30.6905916353
 11
155.1815540869
 21
30.6260630541
 12
154.3143669177
 22
30.6260630541
 13
154.3143669177
 23
30.6260630541
  0
SOLID
  8
0
 62
7
  6
CONTINUOUS
 10
154.5456166972
 20
30.5938002188
 11
154.3143669177
 21
30.6260630541
 12
155.1815540869
 22
30.6260630541
 13
155.1815540869
 23
30.6260630541
  0
SOLID
  8
0
 62
7
  6
CONTINUOUS
 10
155.1815540869
 20
30.6260630541
 11
154.8924916972
 21
30.5938002188
 12
154.5456166972
 22
30.5938002188
 13
154.5456166972
 23
30.5938002188
  0
SOLID
  8
0
 62
7
  6
CONTINUOUS
 10
159.575304528
 20
30.7551187255
 11
159.228429528
 21
30.7228544637
 12
159.4596793074
 22
30.7873815123
 13
159.4596793074
 23
30.7873815123
  0
SOLID
  8
0
 62
7
  6
CONTINUOUS
 10
159.4596793074
 20
30.7873815123
 11
159.228429528
 21
30.7228544637
 12
159.401867028
 22
30.851908644
 13
159.401867028
 23
30.851908644
  0
SOLID
  8
0
 62
7
  6
CONTINUOUS
 10
159.228429528
 20
30.7228544637
 11
159.1128043074
 21
30.851908644
 12
159.401867028
 22
30.851908644
 13
159.401867028
 23
30.851908644
  0
SOLID
  8
0
 62
7
  6
CONTINUOUS
 10
159.575304528
 20
30.7551187255
 11
159.922179528
 21
30.7228544637
 12
159.228429528
 22
30.7228544637
 13
159.228429528
 23
30.7228544637
  0
SOLID
  8
0
 62
7
  6
CONTINUOUS
 10
156.279992028
 20
30.5938002419
 11
156.279992028
 21
31.6262382337
 12
156.5690540869
 22
30.5938002419
 13
156.5690540869
 23
31.6262382337
  0
ENDBLK
  8
0
  6
BYBLOCK
 62
0
  0
BLOCK
  8
0
 62
2
  6
CONTINUOUS
  2
SYMBOL_3_BL0
 70
64
 10
32.1213064866
 20
19.8534310916
  0
TEXT
  8
0
 62
7
  6
CONTINUOUS
 10
18.3860103289
 20
19.2268451992
  7
TEXTSTYLE_3
 40
2.7338706658
  1
Ammeraal Beltech
 41
1.0
 51
15.0
 72
0
  0
TEXT
  8
0
 62
7
  6
CONTINUOUS
 10
29.1868111546
 20
16.9533085264
  7
TEXTSTYLE_4
 40
1.0935482663
  1
Innovation & Service in Belting
 41
1.0
 72
0
  0
LINE
  8
0
 62
7
  6
CONTINUOUS
 10
12.3614696776
 20
19.9934385078
 11
13.1396216709
 21
23.6543558055
  0
LINE
  8
0
 62
7
  6
CONTINUOUS
 10
23.2347899607
 20
27.3177497171
 11
13.6274394139
 21
24.1961322958
  0
LINE
  8
0
 62
7
  6
CONTINUOUS
 10
12.5867530099
 20
19.3000877048
 11
20.093828271
 21
12.5406867788
  0
LINE
  8
0
 62
7
  6
CONTINUOUS
 10
12.8492874206
 20
20.5352149982
 11
23.6575567857
 21
24.0470345971
  0
LINE
  8
0
 62
7
  6
CONTINUOUS
 10
23.6533516486
 20
13.6972460334
 11
15.2078919798
 21
21.3015720751
  0
LINE
  8
0
 62
7
  6
CONTINUOUS
 10
24.1731743684
 20
26.4728246013
 11
23.1966148312
 21
21.8784731989
  0
LINE
  8
0
 62
7
  6
CONTINUOUS
 10
22.4968128835
 20
18.5861638851
 11
21.810364672
 21
15.3566789607
  0
LINE
  8
0
 62
7
  6
CONTINUOUS
 10
24.8542704669
 20
14.087448211
 11
25.8105020025
 21
18.5861638851
  0
LINE
  8
0
 62
7
  6
CONTINUOUS
 10
26.5103039502
 20
21.8784731989
 11
26.9545457526
 21
23.9684665583
  0
LINE
  8
0
 62
7
  6
CONTINUOUS
 10
20.8069293463
 20
12.3891124661
 11
24.3664527239
 21
13.5456717207
  0
LINE
  8
0
 62
7
  6
CONTINUOUS
 10
23.9478910361
 20
27.1661754044
 11
26.7292624203
 21
24.6618173613
  0
ARC
  8
0
 62
7
  6
CONTINUOUS
 10
13.8527227462
 20
23.5027814928
 40
0.7290321776
 50
108.0
 51
168.0
  0
ARC
  8
0
 62
7
  6
CONTINUOUS
 10
23.4600732931
 20
26.624398914
 40
0.7290321776
 50
348.0
 51
108.0
  0
ARC
  8
0
 62
7
  6
CONTINUOUS
 10
26.2414446773
 20
24.120040871
 40
0.7290321776
 50
348.0
 51
48.0
  0
ARC
  8
0
 62
7
  6
CONTINUOUS
 10
20.581646014
 20
13.0824632691
 40
0.7290321776
 50
228.0
 51
288.0
  0
ARC
  8
0
 62
7
  6
CONTINUOUS
 10
13.0745707529
 20
19.8418641951
 40
0.7290321776
 50
108.0
 51
228.0
  0
ARC
  8
0
 62
7
  6
CONTINUOUS
 10
24.1411693916
 20
14.2390225237
 40
0.7290321776
 50
228.0
 51
348.0
  0
ENDBLK
  8
0
  6
BYBLOCK
 62
0
  0
ENDSEC
  0
SECTION
  2
ENTITIES
  0
TEXT
  8
0
 62
5
  6
CONTINUOUS
 10
96.0
 20
25.636
  7
TEXTSTYLE_2
 40
2.8
  1
Scale :
 41
0.6
 51
0.000019
 72
0
  0
TEXT
  8
0
 62
5
  6
CONTINUOUS
 10
116.0
 20
25.636
  7
TEXTSTYLE_2
 40
2.8
  1
Belt type:
 41
0.6
 51
0.000019
 72
0
  0
INSERT
  8
0
 62
2
  6
CONTINUOUS
  2
SYMBOL_3_BL0
 10
32.1213064866
 20
19.8534310916
  0
INSERT
  8
0
 62
2
  6
CONTINUOUS
  2
SYMBOL_8_BL1
 10
173.5956734183
 20
35.5937998301
  0
LINE
  8
0
 62
2
  6
CONTINUOUS
 10
10.0
 20
30.0
 11
200.0
 21
30.0
  0
LINE
  8
0
 62
2
  6
CONTINUOUS
 10
10.0
 20
30.0
 11
10.0
 21
10.0
  0
LINE
  8
0
 62
2
  6
CONTINUOUS
 10
10.0
 20
10.0
 11
200.0
 21
10.0
  0
LINE
  8
0
 62
2
  6
CONTINUOUS
 10
95.0
 20
30.0
 11
95.0
 21
10.0
  0
LINE
  8
0
 62
2
  6
CONTINUOUS
 10
115.0
 20
30.0
 11
115.0
 21
10.0
  0
LINE
  8
0
 62
2
  6
CONTINUOUS
 10
200.0
 20
30.0
 11
200.0
 21
10.0
  0
TEXT
  8
0
 62
5
  6
CONTINUOUS
 10
13.0
 20
23.303
  7
TEXTSTYLE_5
 40
1.52
  1
                                                                     Ammeraal Beltech Modular A/S
 41
1.0
 72
0
  0
TEXT
  8
0
 62
5
  6
CONTINUOUS
 10
13.0
 20
20.595
  7
TEXTSTYLE_5
 40
1.5
  1
                                                                      Hjulmagervej 21,  7100 Vejle,  DK
 41
1.0
 72
0
  0
TEXT
  8
0
 62
5
  6
CONTINUOUS
 10
13.0
 20
17.881
  7
TEXTSTYLE_5
 40
1.495
  1
                                                                      tel: 
 41
1.0
 72
0
  0
TEXT
  8
0
 62
5
  6
CONTINUOUS
 10
57.9869465649
 20
17.881
  7
TEXTSTYLE_5
 40
1.51
  1
+45 75723100     fax: +45 75723348
 41
1.0
 72
0
  0
TEXT
  8
0
 62
5
  6
CONTINUOUS
 10
13.0
 20
15.177
  7
TEXTSTYLE_5
 40
1.5
  1
                                                                      admin@unichains.dk  www.unichains.com
 41
1.0
 72
0
  0
TEXT
  8
0
 62
5
  6
CONTINUOUS
 10
99.75
 20
13.75
  7
TEXTSTYLE_6
 40
5.0
  1
1:1
 41
0.7
 72
1
 11
105.0
 21
13.75
  0
TEXT
  8
0
 62
5
  6
CONTINUOUS
 10
118.0
 20
13.75
  7
TEXTSTYLE_7
 40
7.5
  1
Sprocket Z19
 41
0.6361111111
 72
0
  0
LINE
  8
0
 62
7
  6
CONTINUOUS
 10
210.0
 20
0.0
 11
0.0
 21
0.0
  0
LINE
  8
0
 62
7
  6
CONTINUOUS
 10
10.0
 20
10.0
 11
200.0
 21
10.0
  0
LINE
  8
0
 62
7
  6
CONTINUOUS
 10
10.0
 20
30.0
 11
200.0
 21
30.0
  0
LINE
  8
0
 62
7
  6
CONTINUOUS
 10
0.0
 20
0.0
 11
0.0
 21
297.0
  0
LINE
  8
0
 62
7
  6
CONTINUOUS
 10
10.0
 20
10.0
 11
10.0
 21
287.0
  0
LINE
  8
0
 62
7
  6
CONTINUOUS
 10
200.0
 20
287.0
 11
200.0
 21
10.0
  0
LINE
  8
0
 62
7
  6
CONTINUOUS
 10
210.0
 20
0.0
 11
210.0
 21
297.0
  0
LINE
  8
0
 62
7
  6
CONTINUOUS
 10
10.0
 20
287.0
 11
200.0
 21
287.0
  0
LINE
  8
0
 62
7
  6
CONTINUOUS
 10
0.0
 20
297.0
 11
210.0
 21
297.0
  0
LINE
  8
0
 62
7
  6
CONTINUOUS
 10
27.9618101172
 20
196.6421432696
 11
28.0044088416
 21
196.1280531183
  0
LINE
  8
0
 62
7
  6
CONTINUOUS
 10
30.1695031311
 20
222.2568554534
 11
30.0428689399
 21
221.7567883413
  0
LINE
  8
0
 62
7
  6
CONTINUOUS
 10
40.574660698
 20
245.7668551282
 11
40.2925163707
 21
245.3350010862
  0
LINE
  8
0
 62
7
  6
CONTINUOUS
 10
58.0497225428
 20
264.624469034
 11
57.6426427952
 21
264.3076261486
  0
LINE
  8
0
 62
7
  6
CONTINUOUS
 10
80.700994561
 20
276.7861820982
 11
80.2130928003
 21
276.6186852122
  0
LINE
  8
0
 62
7
  6
CONTINUOUS
 10
118.4162930858
 20
125.7576589746
 11
118.9251095837
 21
125.842565431
  0
LINE
  8
0
 62
7
  6
CONTINUOUS
 10
92.7067582865
 20
125.8425654311
 11
93.2155747845
 21
125.7576589746
  0
LINE
  8
0
 62
7
  6
CONTINUOUS
 10
68.4178060786
 20
134.2707437243
 11
68.8714844139
 21
134.0252252871
  0
LINE
  8
0
 62
7
  6
CONTINUOUS
 10
48.1815213157
 20
150.1288699596
 11
48.5308984012
 21
149.7493452738
  0
LINE
  8
0
 62
7
  6
CONTINUOUS
 10
34.1908194501
 20
171.6984700952
 11
34.3980348574
 21
171.2260665496
  0
LINE
  8
0
 62
7
  6
CONTINUOUS
 10
57.6559603
 20
152.5873513833
 11
57.6578885497
 21
152.5855033009
  0
LINE
  8
0
 62
7
  6
CONTINUOUS
 10
77.8672551066
 20
220.0052614933
 11
77.8178788533
 21
219.8054370067
  0
LINE
  8
0
 62
7
  6
CONTINUOUS
 10
78.1187753201
 20
219.5045405399
 11
78.1681515733
 21
219.7043650266
  0
LINE
  8
0
 62
7
  6
CONTINUOUS
 10
78.839203761
 20
216.9151075304
 11
78.7898276233
 21
216.7152831065
  0
LINE
  8
0
 62
7
  6
CONTINUOUS
 10
79.0907241164
 20
216.4143866134
 11
79.1401002739
 21
216.6142110175
  0
LINE
  8
0
 62
7
  6
CONTINUOUS
 10
82.7578175319
 20
224.8958239187
 11
82.6461411829
 21
224.6336993362
  0
LINE
  8
0
 62
7
  6
CONTINUOUS
 10
88.7939731878
 20
233.1887034968
 11
88.0463713247
 21
232.4411016337
  0
LINE
  8
0
 62
7
  6
CONTINUOUS
 10
87.7971702284
 20
232.1919005373
 11
87.6102697626
 21
232.0050000716
  0
LINE
  8
0
 62
7
  6
CONTINUOUS
 10
86.8315182972
 20
231.2262486061
 11
86.5511675985
 21
230.9458979075
  0
LINE
  8
0
 62
7
  6
CONTINUOUS
 10
85.8035657355
 20
230.1982960444
 11
85.647815585
 21
230.0425458939
  0
LINE
  8
0
 62
7
  6
CONTINUOUS
 10
80.8507033925
 20
225.2454337014
 11
80.6949528855
 21
225.0896831944
  0
LINE
  8
0
 62
7
  6
CONTINUOUS
 10
80.4457525021
 20
224.8404828111
 11
79.3243497075
 21
223.7190800164
  0
LINE
  8
0
 62
7
  6
CONTINUOUS
 10
77.5799452414
 20
221.9746755504
 11
77.4241949127
 21
221.8189252217
  0
LINE
  8
0
 62
7
  6
CONTINUOUS
 10
77.8003154962
 20
221.4428046382
 11
77.9560658249
 21
221.5985549669
  0
LINE
  8
0
 62
7
  6
CONTINUOUS
 10
79.9625948734
 20
223.4546357821
 11
80.8970972023
 21
224.3891381109
  0
LINE
  8
0
 62
7
  6
CONTINUOUS
 10
86.0991602851
 20
229.5912011938
 11
86.2860607509
 21
229.7781016595
  0
LINE
  8
0
 62
7
  6
CONTINUOUS
 10
88.6846164906
 20
232.1766573993
 11
89.2764674903
 21
232.7685083989
  0
LINE
  8
0
 62
7
  6
CONTINUOUS
 10
86.8490818001
 20
229.5888815419
 11
87.0359822659
 21
229.7757820076
  0
LINE
  8
0
 62
7
  6
CONTINUOUS
 10
84.5333719568
 20
226.6713783435
 11
84.346471491
 21
226.4844778778
  0
LINE
  8
0
 62
7
  6
CONTINUOUS
 10
83.6611695455
 20
225.7991759323
 11
83.4742690797
 21
225.6122754665
  0
LINE
  8
0
 62
7
  6
CONTINUOUS
 10
78.7083072025
 20
220.8463135893
 11
78.5525568738
 21
220.6905632606
  0
LINE
  8
0
 62
7
  6
CONTINUOUS
 10
77.9918554765
 20
220.1298618632
 11
77.8672551066
 21
220.0052614933
  0
LINE
  8
0
 62
7
  6
CONTINUOUS
 10
77.5869044079
 20
219.7249107947
 11
77.4311539901
 21
219.5691603768
  0
LINE
  8
0
 62
7
  6
CONTINUOUS
 10
77.1196532435
 20
219.2576596302
 11
76.9639028256
 21
219.1019092124
  0
LINE
  8
0
 62
7
  6
CONTINUOUS
 10
76.340901299
 20
218.4789076858
 11
76.1851509146
 21
218.3231573014
  0
LINE
  8
0
 62
7
  6
CONTINUOUS
 10
81.7504103818
 20
223.286623835
 11
80.9405086011
 21
222.4767220543
  0
LINE
  8
0
 62
7
  6
CONTINUOUS
 10
90.3296053347
 20
231.7153705545
 11
89.737754335
 21
231.1235195549
  0
LINE
  8
0
 62
7
  6
CONTINUOUS
 10
87.3391985953
 20
228.7249638151
 11
87.1522981295
 21
228.5380633494
  0
LINE
  8
0
 62
7
  6
CONTINUOUS
 10
81.3918533013
 20
222.0253773542
 11
82.201755082
 21
222.8352791349
  0
LINE
  8
0
 62
7
  6
CONTINUOUS
 10
87.6036428297
 20
228.0867186492
 11
87.7905432954
 21
228.273619115
  0
LINE
  8
0
 62
7
  6
CONTINUOUS
 10
90.1890990352
 20
230.6721748547
 11
90.7809500348
 21
231.2640258544
  0
LINE
  8
0
 62
7
  6
CONTINUOUS
 10
83.9720072332
 20
224.3046348194
 11
83.317855603
 21
223.6504831892
  0
LINE
  8
0
 62
7
  6
CONTINUOUS
 10
83.5876025728
 20
223.3184370147
 11
84.4286546688
 21
224.1594891107
  0
LINE
  8
0
 62
7
  6
CONTINUOUS
 10
87.8939348546
 20
227.1734245964
 11
87.7070343888
 21
226.9865241306
  0
LINE
  8
0
 62
7
  6
CONTINUOUS
 10
84.8799993689
 20
223.7081444106
 11
84.7242485055
 21
223.5523935471
  0
LINE
  8
0
 62
7
  6
CONTINUOUS
 10
91.9093119432
 20
230.135663946
 11
91.3174609436
 21
229.5438129463
  0
LINE
  8
0
 62
7
  6
CONTINUOUS
 10
88.9189052038
 20
227.1452572066
 11
88.6697041075
 21
226.8960561102
  0
LINE
  8
0
 62
7
  6
CONTINUOUS
 10
78.7898276233
 20
216.7152831065
 11
78.6652272979
 21
216.5906827812
  0
LINE
  8
0
 62
7
  6
CONTINUOUS
 10
83.0199421144
 20
225.0075002678
 11
82.7578175319
 21
224.8958239187
  0
LINE
  8
0
 62
7
  6
CONTINUOUS
 10
83.0275636834
 20
224.5637771366
 11
83.2896882659
 21
224.6754534857
  0
LINE
  8
0
 62
7
  6
CONTINUOUS
 10
89.024948168
 20
233.2692302435
 11
88.7939731878
 21
233.1887034968
  0
LINE
  8
0
 62
7
  6
CONTINUOUS
 10
86.0345400026
 20
230.2788220782
 11
85.8035657355
 21
230.1982960444
  0
LINE
  8
0
 62
7
  6
CONTINUOUS
 10
87.5701728625
 20
228.8054898489
 11
87.3391985953
 21
228.7249638151
  0
LINE
  8
0
 62
7
  6
CONTINUOUS
 10
79.1401002739
 20
216.6142110175
 11
79.1271763356
 21
216.7517353258
  0
LINE
  8
0
 62
7
  6
CONTINUOUS
 10
82.6461411829
 20
224.6336993362
 11
82.6279150667
 21
224.4650249867
  0
LINE
  8
0
 62
7
  6
CONTINUOUS
 10
86.0809341689
 20
229.4225268442
 11
86.0991602851
 21
229.5912011938
  0
LINE
  8
0
 62
7
  6
CONTINUOUS
 10
82.9781872519
 20
224.3639524718
 11
83.0275636834
 21
224.5637771366
  0
LINE
  8
0
 62
7
  6
CONTINUOUS
 10
85.647815585
 20
230.0425458939
 11
85.5984391535
 21
229.842721229
  0
LINE
  8
0
 62
7
  6
CONTINUOUS
 10
88.9682809224
 20
227.3450811585
 11
88.9189052038
 21
227.1452572066
  0
LINE
  8
0
 62
7
  6
CONTINUOUS
 10
89.3702499567
 20
226.6939124537
 11
89.4507759839
 21
226.9248867275
  0
LINE
  8
0
 62
7
  6
CONTINUOUS
 10
92.3295070938
 20
229.6531695908
 11
92.4100338339
 21
229.8841445776
  0
LINE
  8
0
 62
7
  6
CONTINUOUS
 10
84.9757693064
 20
223.0516730758
 11
84.8329426684
 21
222.7583981517
  0
LINE
  8
0
 62
7
  6
CONTINUOUS
 10
85.1649894768
 20
222.4886519739
 11
85.3078154216
 21
222.7819261652
  0
LINE
  8
0
 62
7
  6
CONTINUOUS
 10
78.966123791
 20
216.2897862881
 11
79.0907241164
 21
216.4143866134
  0
LINE
  8
0
 62
7
  6
CONTINUOUS
 10
79.4333749554
 20
216.7570374525
 11
79.5891253733
 21
216.9127878704
  0
LINE
  8
0
 62
7
  6
CONTINUOUS
 10
79.8383259349
 20
217.161988432
 11
79.9940763527
 21
217.3177388498
  0
LINE
  8
0
 62
7
  6
CONTINUOUS
 10
80.5547777501
 20
217.8784402471
 11
80.7105280788
 21
218.0341905759
  0
LINE
  8
0
 62
7
  6
CONTINUOUS
 10
80.9597288186
 20
218.2833913157
 11
81.1154791474
 21
218.4391416445
  0
LINE
  8
0
 62
7
  6
CONTINUOUS
 10
82.8598836134
 20
220.1835461105
 11
83.0467840792
 21
220.3704465763
  0
LINE
  8
0
 62
7
  6
CONTINUOUS
 10
84.2304867914
 20
221.5541492885
 11
84.3862372984
 21
221.7098997955
  0
LINE
  8
0
 62
7
  6
CONTINUOUS
 10
85.8814410246
 20
223.2051035217
 11
86.0683414904
 21
223.3920039874
  0
LINE
  8
0
 62
7
  6
CONTINUOUS
 10
86.7536434358
 20
224.0773059329
 11
86.9405439016
 21
224.2642063987
  0
LINE
  8
0
 62
7
  6
CONTINUOUS
 10
89.1210488603
 20
226.4447113574
 11
89.3702499567
 21
226.6939124537
  0
LINE
  8
0
 62
7
  6
CONTINUOUS
 10
90.0867015045
 20
227.4103640016
 11
90.2736019702
 21
227.5972644673
  0
LINE
  8
0
 62
7
  6
CONTINUOUS
 10
91.0523534357
 20
228.3760159327
 11
91.3327041343
 21
228.6563666314
  0
LINE
  8
0
 62
7
  6
CONTINUOUS
 10
91.5819052307
 20
228.9055677277
 11
92.3295070938
 21
229.6531695908
  0
LINE
  8
0
 62
7
  6
CONTINUOUS
 10
100.159079518
 20
234.6543148903
 11
71.8748084382
 21
206.3700438105
  0
LINE
  8
0
 62
7
  6
CONTINUOUS
 10
104.4017203728
 20
236.8258877656
 11
103.4017203728
 21
235.8258877656
  0
LINE
  8
0
 62
7
  6
CONTINUOUS
 10
85.6472427732
 20
213.2128316899
 11
95.4376121498
 21
223.0032010665
  0
LINE
  8
0
 62
7
  6
CONTINUOUS
 10
84.9028648877
 20
222.3769756314
 11
85.1649894768
 21
222.4886519739
  0
LINE
  8
0
 62
7
  6
CONTINUOUS
 10
88.8900745866
 20
226.3641853302
 11
89.1210488603
 21
226.4447113574
  0
LINE
  8
0
 62
7
  6
CONTINUOUS
 10
125.5196135648
 20
180.915928578
 11
125.5973197083
 21
180.9379688751
  0
LINE
  8
0
 62
7
  6
CONTINUOUS
 10
125.6553164787
 20
181.0794644151
 11
125.5776106206
 21
181.0574244033
  0
LINE
  8
0
 62
7
  6
CONTINUOUS
 10
126.766441789
 20
182.1627568021
 11
126.8441479324
 21
182.1847970992
  0
LINE
  8
0
 62
7
  6
CONTINUOUS
 10
127.7389677296
 20
183.1352827428
 11
127.8166737304
 21
183.1573228972
  0
LINE
  8
0
 62
7
  6
CONTINUOUS
 10
127.8746706435
 20
183.2988185798
 11
127.7969646427
 21
183.2767784254
  0
LINE
  8
0
 62
7
  6
CONTINUOUS
 10
127.1585034046
 20
183.1671427861
 11
127.0419443248
 21
183.1340824904
  0
LINE
  8
0
 62
7
  6
CONTINUOUS
 10
128.5978309821
 20
184.0219789184
 11
128.7143900546
 21
184.0550392214
  0
LINE
  8
0
 62
7
  6
CONTINUOUS
 10
128.8431695175
 20
184.8239759758
 11
128.9597285997
 21
184.857036269
  0
LINE
  8
0
 62
7
  6
CONTINUOUS
 10
129.0177254496
 20
184.9985319079
 11
128.9400193993
 21
184.9764917138
  0
LINE
  8
0
 62
7
  6
CONTINUOUS
 10
124.4305288371
 20
179.9103426197
 11
124.5360676183
 21
179.9045497083
  0
LINE
  8
0
 62
7
  6
CONTINUOUS
 10
124.6079808504
 20
180.0321287867
 11
124.5552114597
 21
180.0350252424
  0
LINE
  8
0
 62
7
  6
CONTINUOUS
 10
124.2078654224
 20
180.1330060344
 11
124.3134042134
 21
180.1272131132
  0
LINE
  8
0
 62
7
  6
CONTINUOUS
 10
124.3853174455
 20
180.2547921916
 11
124.3325480451
 21
180.257688657
  0
LINE
  8
0
 62
7
  6
CONTINUOUS
 10
125.0510463507
 20
180.5865259798
 11
125.1038157414
 21
180.583629524
  0
LINE
  8
0
 62
7
  6
CONTINUOUS
 10
125.2284986494
 20
180.7083124321
 11
125.1229595828
 21
180.7141050581
  0
LINE
  8
0
 62
7
  6
CONTINUOUS
 10
124.8283829361
 20
180.8091893944
 11
124.8811523267
 21
180.8062929387
  0
LINE
  8
0
 62
7
  6
CONTINUOUS
 10
125.0058352347
 20
180.9309758467
 11
124.9002961632
 21
180.9367684776
  0
LINE
  8
0
 62
7
  6
CONTINUOUS
 10
71.8748084382
 20
199.2989759986
 11
102.2804000292
 21
168.8933844076
  0
LINE
  8
0
 62
7
  6
CONTINUOUS
 10
95.4376121498
 20
182.6658187426
 11
85.6472427732
 21
192.4561881192
  0
LINE
  8
0
 62
7
  6
CONTINUOUS
 10
77.8178788533
 20
219.8054370067
 11
77.8748769429
 21
219.5615386295
  0
LINE
  8
0
 62
7
  6
CONTINUOUS
 10
78.1757734097
 20
219.2606421628
 11
78.1187753201
 21
219.5045405399
  0
LINE
  8
0
 62
7
  6
CONTINUOUS
 10
78.7822057605
 20
217.1590059966
 11
78.839203761
 21
216.9151075304
  0
LINE
  8
0
 62
7
  6
CONTINUOUS
 10
82.991111451
 20
224.2264284375
 11
82.9781872519
 21
224.3639524718
  0
LINE
  8
0
 62
7
  6
CONTINUOUS
 10
85.3078154216
 20
222.7819261652
 11
85.2819677166
 21
223.0569749665
  0
LINE
  8
0
 62
7
  6
CONTINUOUS
 10
85.5984391535
 20
229.842721229
 11
85.6242868387
 21
229.5676724475
  0
LINE
  8
0
 62
7
  6
CONTINUOUS
 10
89.4507759839
 20
226.9248867275
 11
89.4249282789
 21
227.1999355288
  0
LINE
  8
0
 62
7
  6
CONTINUOUS
 10
90.3478314509
 20
231.8840449041
 11
90.3296053347
 21
231.7153705545
  0
LINE
  8
0
 62
7
  6
CONTINUOUS
 10
91.9275380594
 20
230.3043382955
 11
91.9093119432
 21
230.135663946
  0
LINE
  8
0
 62
7
  6
CONTINUOUS
 10
81.6639673701
 20
206.966814587
 11
83.7852877137
 21
209.0881349306
  0
LINE
  8
0
 62
7
  6
CONTINUOUS
 10
99.5623089091
 20
224.865156126
 11
101.6836292527
 21
226.9864764696
  0
LINE
  8
0
 62
7
  6
CONTINUOUS
 10
126.5789902031
 20
228.8458150425
 11
126.1679905985
 21
228.6550217136
  0
LINE
  8
0
 62
7
  6
CONTINUOUS
 10
126.182566727
 20
229.8440314522
 11
125.4357916345
 21
229.5376689111
  0
LINE
  8
0
 62
7
  6
CONTINUOUS
 10
124.8339984902
 20
228.9358757668
 11
125.5807737934
 21
229.2422385187
  0
LINE
  8
0
 62
7
  6
CONTINUOUS
 10
121.3367273685
 20
228.5214925044
 11
125.1421832319
 21
229.8312773136
  0
LINE
  8
0
 62
7
  6
CONTINUOUS
 10
125.1091263056
 20
230.1652307067
 11
121.2669693263
 21
228.8921470135
  0
LINE
  8
0
 62
7
  6
CONTINUOUS
 10
126.8772082354
 20
182.3013561717
 11
126.8244385594
 21
182.3042523421
  0
LINE
  8
0
 62
7
  6
CONTINUOUS
 10
126.4933399005
 20
182.5854780661
 11
126.4405705074
 21
182.5883745243
  0
LINE
  8
0
 62
7
  6
CONTINUOUS
 10
127.0477369582
 20
183.0285434165
 11
127.1005064915
 21
183.0256471035
  0
LINE
  8
0
 62
7
  6
CONTINUOUS
 10
127.6861981963
 20
183.1381790558
 11
127.7389677296
 21
183.1352827428
  0
LINE
  8
0
 62
7
  6
CONTINUOUS
 10
129.1232644301
 20
184.9927391762
 11
129.0177254496
 21
184.9985319079
  0
LINE
  8
0
 62
7
  6
CONTINUOUS
 10
128.9597285997
 20
184.857036269
 11
129.0791840298
 21
184.8373270833
  0
LINE
  8
0
 62
7
  6
CONTINUOUS
 10
125.4529277126
 20
180.9327414953
 11
125.5196135648
 21
180.915928578
  0
LINE
  8
0
 62
7
  6
CONTINUOUS
 10
126.6997559368
 20
182.1795697194
 11
126.766441789
 21
182.1627568021
  0
LINE
  8
0
 62
7
  6
CONTINUOUS
 10
126.3158875994
 20
182.4636916162
 11
126.3825734565
 21
182.4468786941
  0
LINE
  8
0
 62
7
  6
CONTINUOUS
 10
126.56002576
 20
182.5686651415
 11
126.4933399005
 21
182.5854780661
  0
LINE
  8
0
 62
7
  6
CONTINUOUS
 10
101.6836292527
 20
178.6825433396
 11
99.5623089091
 21
180.8038636831
  0
LINE
  8
0
 62
7
  6
CONTINUOUS
 10
83.7852877137
 20
196.5808848785
 11
81.6639673701
 21
198.7022052221
  0
LINE
  8
0
 62
7
  6
CONTINUOUS
 10
78.6188334982
 20
217.4469785398
 11
78.7822057605
 21
217.1590059966
  0
LINE
  8
0
 62
7
  6
CONTINUOUS
 10
77.8748769429
 20
219.5615386295
 11
77.9630249914
 21
219.3487902112
  0
LINE
  8
0
 62
7
  6
CONTINUOUS
 10
79.1271763356
 20
216.7517353258
 11
78.9949541343
 21
217.0708579037
  0
LINE
  8
0
 62
7
  6
CONTINUOUS
 10
78.2639214581
 20
219.0478937444
 11
78.1757734097
 21
219.2606421628
  0
LINE
  8
0
 62
7
  6
CONTINUOUS
 10
82.6279150667
 20
224.4650249867
 11
82.6849130672
 21
224.2211265204
  0
LINE
  8
0
 62
7
  6
CONTINUOUS
 10
84.9187713059
 20
223.295571542
 11
84.9757693064
 21
223.0516730758
  0
LINE
  8
0
 62
7
  6
CONTINUOUS
 10
90.7421781505
 20
231.6765986702
 11
90.7292546644
 21
231.8141234175
  0
LINE
  8
0
 62
7
  6
CONTINUOUS
 10
103.1707225361
 20
278.6856304323
 11
102.8830401299
 21
274.1383792015
  0
LINE
  8
0
 62
7
  6
CONTINUOUS
 10
91.1868098263
 20
132.9858709014
 11
90.7221156662
 21
128.4532872827
  0
LINE
  8
0
 62
7
  6
CONTINUOUS
 10
127.9428659599
 20
275.4347062392
 11
126.194280919
 21
271.2272479474
  0
LINE
  8
0
 62
7
  6
CONTINUOUS
 10
69.299640113
 20
141.5205316591
 11
67.3883968692
 21
137.3844218702
  0
LINE
  8
0
 62
7
  6
CONTINUOUS
 10
150.3172129641
 20
264.3164242651
 11
147.2972116098
 21
260.9047023036
  0
LINE
  8
0
 62
7
  6
CONTINUOUS
 10
51.3695774441
 20
156.6995133441
 11
48.2188979779
 21
153.408089059
  0
LINE
  8
0
 62
7
  6
CONTINUOUS
 10
124.200710246
 20
231.8258879332
 11
123.8245896625
 21
231.4497673498
  0
LINE
  8
0
 62
7
  6
CONTINUOUS
 10
121.2669693263
 20
228.8921470135
 11
120.66517634
 21
228.2903540273
  0
LINE
  8
0
 62
7
  6
CONTINUOUS
 10
125.8267488255
 20
228.0935736649
 11
126.0891222922
 21
228.2825453198
  0
LINE
  8
0
 62
7
  6
CONTINUOUS
 10
126.5938268107
 20
227.0255992129
 11
126.3314531347
 21
226.8366281888
  0
LINE
  8
0
 62
7
  6
CONTINUOUS
 10
125.3150167216
 20
225.7467891238
 11
125.0526430456
 21
225.5578180997
  0
LINE
  8
0
 62
7
  6
CONTINUOUS
 10
126.1679905985
 20
228.6550217136
 11
125.7184675725
 21
228.3523031513
  0
LINE
  8
0
 62
7
  6
CONTINUOUS
 10
124.9737751066
 20
225.1853412331
 11
125.4232975546
 21
225.4880600574
  0
LINE
  8
0
 62
7
  6
CONTINUOUS
 10
167.869155877
 20
246.5356228799
 11
163.9050022162
 21
244.2893502616
  0
LINE
  8
0
 62
7
  6
CONTINUOUS
 10
39.3396223232
 20
176.8779377647
 11
35.2909316427
 21
174.7878758764
  0
LINE
  8
0
 62
7
  6
CONTINUOUS
 10
126.0891222922
 20
228.2825453198
 11
126.3881968742
 21
228.4348154379
  0
LINE
  8
0
 62
7
  6
CONTINUOUS
 10
126.3314531347
 20
226.8366281888
 11
126.0323787627
 21
226.6843578606
  0
LINE
  8
0
 62
7
  6
CONTINUOUS
 10
125.0526430456
 20
225.5578180997
 11
124.7535686209
 21
225.4055477188
  0
LINE
  8
0
 62
7
  6
CONTINUOUS
 10
124.5627754757
 20
224.9945478779
 11
124.9737751066
 21
225.1853412331
  0
LINE
  8
0
 62
7
  6
CONTINUOUS
 10
129.6290816152
 20
223.0876550081
 11
130.0400812198
 21
223.278448337
  0
LINE
  8
0
 62
7
  6
CONTINUOUS
 10
129.8950986409
 20
223.5738791494
 11
129.6712485956
 21
223.4968327279
  0
LINE
  8
0
 62
7
  6
CONTINUOUS
 10
131.71193055
 20
220.2525649064
 11
131.9357814353
 21
220.3296104879
  0
LINE
  8
0
 62
7
  6
CONTINUOUS
 10
30.442323266
 20
193.934597357
 11
34.9977999532
 21
194.0234065625
  0
LINE
  8
0
 62
7
  6
CONTINUOUS
 10
176.634067917
 20
194.0234065625
 11
181.1895446043
 21
193.934597357
  0
LINE
  8
0
 62
7
  6
CONTINUOUS
 10
128.7085972859
 20
184.1605781454
 11
128.6419113623
 21
184.1773909913
  0
LINE
  8
0
 62
7
  6
CONTINUOUS
 10
31.6364765149
 20
218.8905905438
 11
35.9739612117
 21
217.4954269592
  0
LINE
  8
0
 62
7
  6
CONTINUOUS
 10
169.935985502
 20
171.5062059312
 11
174.2157975951
 21
169.9430477912
  0
LINE
  8
0
 62
7
  6
CONTINUOUS
 10
127.2391057282
 20
183.1364133975
 11
127.1585034046
 21
183.1671427861
  0
LINE
  8
0
 62
7
  6
CONTINUOUS
 10
127.7969646427
 20
183.2767784254
 11
127.7163621862
 21
183.3075076616
  0
LINE
  8
0
 62
7
  6
CONTINUOUS
 10
128.5172285256
 20
184.0527081546
 11
128.5978309821
 21
184.0219789184
  0
LINE
  8
0
 62
7
  6
CONTINUOUS
 10
125.3584089372
 20
180.9773873358
 11
125.4529277126
 21
180.9327414953
  0
LINE
  8
0
 62
7
  6
CONTINUOUS
 10
125.5776106206
 20
181.0574244033
 11
125.4830915599
 21
181.1020699584
  0
LINE
  8
0
 62
7
  6
CONTINUOUS
 10
126.3825734565
 20
182.4468786941
 11
126.4770925221
 21
182.4022331341
  0
LINE
  8
0
 62
7
  6
CONTINUOUS
 10
127.5916794209
 20
183.1828248963
 11
127.6861981963
 21
183.1381790558
  0
LINE
  8
0
 62
7
  6
CONTINUOUS
 10
40.8691249881
 20
242.1066582575
 11
44.5185839246
 21
239.3787095055
  0
LINE
  8
0
 62
7
  6
CONTINUOUS
 10
156.2895005746
 20
152.3839131442
 11
159.8298640251
 21
149.5157985089
  0
LINE
  8
0
 62
7
  6
CONTINUOUS
 10
77.6896333538
 20
216.8186748622
 11
78.0216799518
 21
216.5489284213
  0
LINE
  8
0
 62
7
  6
CONTINUOUS
 10
76.1851509146
 20
218.3231573014
 11
77.6896333538
 21
216.8186748622
  0
LINE
  8
0
 62
7
  6
CONTINUOUS
 10
77.8453837382
 20
216.9744252466
 11
76.340901299
 21
218.4789076858
  0
LINE
  8
0
 62
7
  6
CONTINUOUS
 10
76.9639028256
 20
219.1019092124
 11
78.6188334982
 21
217.4469785398
  0
LINE
  8
0
 62
7
  6
CONTINUOUS
 10
79.0754804355
 20
217.3018324382
 11
77.1196532435
 21
219.2576596302
  0
LINE
  8
0
 62
7
  6
CONTINUOUS
 10
77.4311539901
 20
219.5691603768
 11
79.8383259349
 21
217.161988432
  0
LINE
  8
0
 62
7
  6
CONTINUOUS
 10
79.9940763527
 20
217.3177388498
 11
78.2639214581
 21
219.0478937444
  0
LINE
  8
0
 62
7
  6
CONTINUOUS
 10
77.9630249914
 20
219.3487902112
 11
77.5869044079
 21
219.7249107947
  0
LINE
  8
0
 62
7
  6
CONTINUOUS
 10
79.1255193222
 20
219.307698675
 11
80.5547777501
 21
217.8784402471
  0
LINE
  8
0
 62
7
  6
CONTINUOUS
 10
80.7105280788
 20
218.0341905759
 11
79.2812696509
 21
219.4634490037
  0
LINE
  8
0
 62
7
  6
CONTINUOUS
 10
77.4241949127
 20
221.8189252217
 11
77.8003154962
 21
221.4428046382
  0
LINE
  8
0
 62
7
  6
CONTINUOUS
 10
78.5525568738
 20
220.6905632606
 11
80.9597288186
 21
218.2833913157
  0
LINE
  8
0
 62
7
  6
CONTINUOUS
 10
81.1154791474
 20
218.4391416445
 11
78.7083072025
 21
220.8463135893
  0
LINE
  8
0
 62
7
  6
CONTINUOUS
 10
77.9560658249
 20
221.5985549669
 11
77.5799452414
 21
221.9746755504
  0
LINE
  8
0
 62
7
  6
CONTINUOUS
 10
57.1397679643
 20
261.0669793271
 11
59.7057256375
 21
257.3018609833
  0
LINE
  8
0
 62
7
  6
CONTINUOUS
 10
82.77306067
 20
224.0083776564
 11
83.0116572191
 21
223.6451812721
  0
LINE
  8
0
 62
7
  6
CONTINUOUS
 10
83.2426314863
 20
223.7257073059
 11
83.1233335682
 21
223.9073058545
  0
LINE
  8
0
 62
7
  6
CONTINUOUS
 10
137.1734215237
 20
138.7287253378
 11
139.5906830174
 21
134.8664589314
  0
LINE
  8
0
 62
7
  6
CONTINUOUS
 10
84.346471491
 20
226.4844778778
 11
84.9817336788
 21
225.1639130316
  0
LINE
  8
0
 62
7
  6
CONTINUOUS
 10
86.0683414904
 20
223.3920039874
 11
85.4330784843
 21
224.712568226
  0
LINE
  8
0
 62
7
  6
CONTINUOUS
 10
85.1139559013
 20
224.8447903432
 11
85.8814410246
 21
223.2051035217
  0
LINE
  8
0
 62
7
  6
CONTINUOUS
 10
85.3008563671
 20
225.031690809
 11
84.5333719568
 21
226.6713783435
  0
LINE
  8
0
 62
7
  6
CONTINUOUS
 10
82.6849130672
 20
224.2211265204
 11
82.77306067
 21
224.0083776564
  0
LINE
  8
0
 62
7
  6
CONTINUOUS
 10
83.1233335682
 20
223.9073058545
 11
82.991111451
 21
224.2264284375
  0
LINE
  8
0
 62
7
  6
CONTINUOUS
 10
85.2819677166
 20
223.0569749665
 11
85.1497455731
 21
223.3760975758
  0
LINE
  8
0
 62
7
  6
CONTINUOUS
 10
85.6242868387
 20
229.5676724475
 11
85.8005834703
 21
229.1421761455
  0
LINE
  8
0
 62
7
  6
CONTINUOUS
 10
78.685228812
 20
273.7169087648
 11
79.8896238931
 21
269.3226298238
  0
LINE
  8
0
 62
7
  6
CONTINUOUS
 10
86.1379321694
 20
229.1786283779
 11
86.0809341689
 21
229.4225268442
  0
LINE
  8
0
 62
7
  6
CONTINUOUS
 10
88.9112828692
 20
227.5889796774
 11
88.9682809224
 21
227.3450811585
  0
LINE
  8
0
 62
7
  6
CONTINUOUS
 10
114.659272131
 20
132.020393993
 11
115.6914838774
 21
127.5825123099
  0
LINE
  8
0
 62
7
  6
CONTINUOUS
 10
126.5131366196
 20
226.5044964705
 11
127.0030041105
 21
227.0677666133
  0
LINE
  8
0
 62
7
  6
CONTINUOUS
 10
122.1332181428
 20
226.8223122245
 11
122.5845628956
 21
227.2736569774
  0
LINE
  8
0
 62
7
  6
CONTINUOUS
 10
125.1421832319
 20
229.8312773136
 11
125.6687520487
 21
230.3578461305
  0
LINE
  8
0
 62
7
  6
CONTINUOUS
 10
125.4357916345
 20
229.5376689111
 11
124.8339984902
 21
228.9358757668
  0
LINE
  8
0
 62
7
  6
CONTINUOUS
 10
125.5807737934
 20
229.2422385187
 11
122.647032821
 21
226.3084975463
  0
LINE
  8
0
 62
7
  6
CONTINUOUS
 10
122.8672390967
 20
226.0882912706
 11
126.4027730026
 21
229.6238251766
  0
LINE
  8
0
 62
7
  6
CONTINUOUS
 10
125.7184675725
 20
228.3523031513
 11
125.4175711057
 21
228.0514066846
  0
LINE
  8
0
 62
7
  6
CONTINUOUS
 10
125.6763005921
 20
227.9431254315
 11
125.8267488255
 21
228.0935736649
  0
LINE
  8
0
 62
7
  6
CONTINUOUS
 10
126.7442750441
 20
227.1760474463
 11
126.5938268107
 21
227.0255992129
  0
LINE
  8
0
 62
7
  6
CONTINUOUS
 10
125.9535106664
 20
226.3118812568
 11
125.803062433
 21
226.1614330234
  0
LINE
  8
0
 62
7
  6
CONTINUOUS
 10
125.9865678028
 20
225.9779276537
 11
126.5131366196
 21
226.5044964705
  0
LINE
  8
0
 62
7
  6
CONTINUOUS
 10
125.4232975546
 20
225.4880600574
 11
125.9865678028
 21
225.9779276537
  0
LINE
  8
0
 62
7
  6
CONTINUOUS
 10
125.803062433
 20
226.1614330234
 11
125.3150167216
 21
225.7467891238
  0
LINE
  8
0
 62
7
  6
CONTINUOUS
 10
130.1574723169
 20
223.7628501735
 11
129.8950986409
 21
223.5738791494
  0
LINE
  8
0
 62
7
  6
CONTINUOUS
 10
130.0400812198
 20
223.278448337
 11
130.3024540558
 21
223.4674202012
  0
LINE
  8
0
 62
7
  6
CONTINUOUS
 10
129.7961882364
 20
221.5665140758
 11
132.1575491166
 21
223.2672561291
  0
LINE
  8
0
 62
7
  6
CONTINUOUS
 10
128.4090973142
 20
220.5464330531
 11
129.4585904436
 21
221.302318935
  0
LINE
  8
0
 62
7
  6
CONTINUOUS
 10
132.3116411196
 20
223.7149570596
 11
128.1888910386
 21
220.7666393288
  0
LINE
  8
0
 62
7
  6
CONTINUOUS
 10
132.9943853541
 20
221.828626958
 11
132.544861908
 21
221.5259088157
  0
LINE
  8
0
 62
7
  6
CONTINUOUS
 10
132.9155166278
 20
221.4561509842
 11
133.2145916298
 21
221.6084206824
  0
LINE
  8
0
 62
7
  6
CONTINUOUS
 10
131.8790380112
 20
218.7314231341
 11
131.5799629565
 21
218.5791533832
  0
LINE
  8
0
 62
7
  6
CONTINUOUS
 10
133.4053849587
 20
222.019420287
 11
132.9943853541
 21
221.828626958
  0
LINE
  8
0
 62
7
  6
CONTINUOUS
 10
131.3891696012
 20
218.1681537523
 11
131.8001692322
 21
218.3589471076
  0
LINE
  8
0
 62
7
  6
CONTINUOUS
 10
129.2316997629
 20
184.93417697
 11
129.1232644301
 21
184.9927391762
  0
LINE
  8
0
 62
7
  6
CONTINUOUS
 10
78.3901787351
 20
216.6165307378
 11
78.1022061696
 21
216.7799029779
  0
LINE
  8
0
 62
7
  6
CONTINUOUS
 10
78.0216799518
 20
216.5489284213
 11
78.2032782637
 21
216.4296302665
  0
LINE
  8
0
 62
7
  6
CONTINUOUS
 10
79.5891253733
 20
216.9127878704
 11
79.4075269897
 21
217.0320859799
  0
LINE
  8
0
 62
7
  6
CONTINUOUS
 10
78.9949541343
 20
217.0708579037
 11
79.4333749554
 21
216.7570374525
  0
LINE
  8
0
 62
7
  6
CONTINUOUS
 10
78.1022061696
 20
216.7799029779
 11
77.8453837382
 21
216.9744252466
  0
LINE
  8
0
 62
7
  6
CONTINUOUS
 10
78.8739991087
 20
219.8084196284
 11
78.6171766216
 21
220.0029418414
  0
LINE
  8
0
 62
7
  6
CONTINUOUS
 10
79.4075269897
 20
217.0320859799
 11
79.0754804355
 21
217.3018324382
  0
LINE
  8
0
 62
7
  6
CONTINUOUS
 10
78.7182486017
 20
219.6526691214
 11
79.1255193222
 21
219.307698675
  0
LINE
  8
0
 62
7
  6
CONTINUOUS
 10
79.2812696509
 20
219.4634490037
 11
78.8739991087
 21
219.8084196284
  0
LINE
  8
0
 62
7
  6
CONTINUOUS
 10
83.4318517094
 20
223.1626861513
 11
83.9143467248
 21
222.7424917664
  0
LINE
  8
0
 62
7
  6
CONTINUOUS
 10
79.3243497075
 20
223.7190800164
 11
82.8598836134
 21
220.1835461105
  0
LINE
  8
0
 62
7
  6
CONTINUOUS
 10
83.0467840792
 20
220.3704465763
 11
81.3918533013
 21
222.0253773542
  0
LINE
  8
0
 62
7
  6
CONTINUOUS
 10
80.9405086011
 20
222.4767220543
 11
79.9625948734
 21
223.4546357821
  0
LINE
  8
0
 62
7
  6
CONTINUOUS
 10
124.8724616881
 20
179.4646307864
 11
126.4988072848
 21
177.8382851896
  0
LINE
  8
0
 62
7
  6
CONTINUOUS
 10
124.1800324993
 20
180.1608389576
 11
124.2078654224
 21
180.1330060344
  0
LINE
  8
0
 62
7
  6
CONTINUOUS
 10
82.201755082
 20
222.8352791349
 11
81.7504103818
 21
223.286623835
  0
LINE
  8
0
 62
7
  6
CONTINUOUS
 10
80.8970972023
 20
224.3891381109
 11
80.4457525021
 21
224.8404828111
  0
LINE
  8
0
 62
7
  6
CONTINUOUS
 10
127.0998480488
 20
178.4393259536
 11
125.4735024521
 21
180.0656715504
  0
LINE
  8
0
 62
7
  6
CONTINUOUS
 10
80.6949528855
 20
225.0896831944
 11
84.2304867914
 21
221.5541492885
  0
LINE
  8
0
 62
7
  6
CONTINUOUS
 10
125.6149238083
 20
180.2070929066
 11
126.5341626239
 21
179.2878540911
  0
LINE
  8
0
 62
7
  6
CONTINUOUS
 10
125.2563315726
 20
180.6804795089
 11
125.2284986494
 21
180.7083124321
  0
LINE
  8
0
 62
7
  6
CONTINUOUS
 10
84.3862372984
 20
221.7098997955
 11
80.8507033925
 21
225.2454337014
  0
LINE
  8
0
 62
7
  6
CONTINUOUS
 10
125.0939961281
 20
181.2418001449
 11
125.3584089372
 21
180.9773873358
  0
LINE
  8
0
 62
7
  6
CONTINUOUS
 10
125.4830915599
 20
181.1020699584
 11
125.2186787507
 21
181.3664827676
  0
LINE
  8
0
 62
7
  6
CONTINUOUS
 10
83.7380508062
 20
223.1679887813
 11
83.5876025728
 21
223.3184370147
  0
LINE
  8
0
 62
7
  6
CONTINUOUS
 10
83.317855603
 20
223.6504831892
 11
83.2426314863
 21
223.7257073059
  0
LINE
  8
0
 62
7
  6
CONTINUOUS
 10
127.170558727
 20
179.853539516
 11
126.2159645724
 21
180.8081336706
  0
LINE
  8
0
 62
7
  6
CONTINUOUS
 10
125.6675368772
 20
181.815340894
 11
125.9876155327
 21
181.4952622385
  0
LINE
  8
0
 62
7
  6
CONTINUOUS
 10
126.043281379
 20
181.4395963922
 11
126.112863687
 21
181.3700140842
  0
LINE
  8
0
 62
7
  6
CONTINUOUS
 10
126.237546595
 20
181.4946969923
 11
125.7922197852
 21
181.940023802
  0
LINE
  8
0
 62
7
  6
CONTINUOUS
 10
125.991712381
 20
182.1395163978
 11
126.4370391908
 21
181.694189588
  0
LINE
  8
0
 62
7
  6
CONTINUOUS
 10
126.5762038456
 20
181.5550249332
 11
126.6457861536
 21
181.4854426252
  0
LINE
  8
0
 62
7
  6
CONTINUOUS
 10
83.8215589998
 20
224.4550830528
 11
83.9720072332
 21
224.3046348194
  0
LINE
  8
0
 62
7
  6
CONTINUOUS
 10
126.7704687762
 20
181.6101252479
 11
126.7008864683
 21
181.6797075558
  0
LINE
  8
0
 62
7
  6
CONTINUOUS
 10
126.5617218134
 20
181.8188722107
 11
126.1163950036
 21
182.2641990205
  0
LINE
  8
0
 62
7
  6
CONTINUOUS
 10
84.4286546688
 20
224.1594891107
 11
84.1277580967
 21
224.4603856828
  0
LINE
  8
0
 62
7
  6
CONTINUOUS
 10
127.0291373707
 20
181.621306469
 11
127.80695483
 21
180.8434890097
  0
LINE
  8
0
 62
7
  6
CONTINUOUS
 10
128.372640255
 20
180.2778035847
 11
128.6554829675
 21
179.9949608722
  0
LINE
  8
0
 62
7
  6
CONTINUOUS
 10
126.4770925221
 20
182.4022331341
 11
126.6997559368
 21
182.1795697194
  0
LINE
  8
0
 62
7
  6
CONTINUOUS
 10
126.8244385594
 20
182.3042523421
 11
126.7826891746
 21
182.3460017268
  0
LINE
  8
0
 62
7
  6
CONTINUOUS
 10
126.7270233088
 20
182.4016675927
 11
126.6435245393
 21
182.4851663622
  0
LINE
  8
0
 62
7
  6
CONTINUOUS
 10
129.2565237315
 20
180.5960016363
 11
127.6301781347
 21
182.222347233
  0
LINE
  8
0
 62
7
  6
CONTINUOUS
 10
127.1005064915
 20
183.0256471035
 11
127.1283394244
 21
182.9978141705
  0
LINE
  8
0
 62
7
  6
CONTINUOUS
 10
127.771599491
 20
182.3637685892
 11
129.3979450877
 21
180.7374229925
  0
LINE
  8
0
 62
7
  6
CONTINUOUS
 10
127.4756855946
 20
182.899833531
 11
127.4478526715
 21
182.9276664541
  0
LINE
  8
0
 62
7
  6
CONTINUOUS
 10
127.2808551129
 20
183.0946640127
 11
127.2391057282
 21
183.1364133975
  0
LINE
  8
0
 62
7
  6
CONTINUOUS
 10
83.0116572191
 20
223.6451812721
 11
83.4318517094
 21
223.1626861513
  0
LINE
  8
0
 62
7
  6
CONTINUOUS
 10
85.1497455731
 20
223.3760975758
 11
84.8799993689
 21
223.7081444106
  0
LINE
  8
0
 62
7
  6
CONTINUOUS
 10
85.8005834703
 20
229.1421761455
 11
86.0703296217
 21
228.8101293635
  0
LINE
  8
0
 62
7
  6
CONTINUOUS
 10
84.7242485055
 20
223.5523935471
 11
84.9187713059
 21
223.295571542
  0
LINE
  8
0
 62
7
  6
CONTINUOUS
 10
86.3324544149
 20
228.9218055018
 11
86.1379321694
 21
229.1786283779
  0
LINE
  8
0
 62
7
  6
CONTINUOUS
 10
89.248631621
 20
227.6254318571
 11
89.0100357321
 21
227.9886290071
  0
LINE
  8
0
 62
7
  6
CONTINUOUS
 10
88.7479111497
 20
227.8769526581
 11
88.9112828692
 21
227.5889796774
  0
LINE
  8
0
 62
7
  6
CONTINUOUS
 10
90.7292546644
 20
231.8141234175
 11
90.5218084305
 21
232.2084701171
  0
LINE
  8
0
 62
7
  6
CONTINUOUS
 10
92.3089612993
 20
230.2344167826
 11
92.1015150391
 21
230.6287635086
  0
LINE
  8
0
 62
7
  6
CONTINUOUS
 10
89.4249282789
 20
227.1999355288
 11
89.248631621
 21
227.6254318571
  0
LINE
  8
0
 62
7
  6
CONTINUOUS
 10
90.2596838481
 20
232.0967937681
 11
90.3478314509
 21
231.8840449041
  0
LINE
  8
0
 62
7
  6
CONTINUOUS
 10
91.8393904039
 20
230.5170872122
 11
91.9275380594
 21
230.3043382955
  0
LINE
  8
0
 62
7
  6
CONTINUOUS
 10
92.4100338339
 20
229.8841445776
 11
92.3089612993
 21
230.2344167826
  0
LINE
  8
0
 62
7
  6
CONTINUOUS
 10
120.9097522041
 20
128.4532872827
 11
120.4450580439
 21
132.9858709014
  0
LINE
  8
0
 62
7
  6
CONTINUOUS
 10
108.7488277403
 20
274.1383792015
 11
108.4611453342
 21
278.6856304323
  0
LINE
  8
0
 62
7
  6
CONTINUOUS
 10
95.9403839929
 20
127.5825123099
 11
96.9725957392
 21
132.020393993
  0
LINE
  8
0
 62
7
  6
CONTINUOUS
 10
131.7422439771
 20
269.3226298238
 11
132.9466390582
 21
273.7169087648
  0
LINE
  8
0
 62
7
  6
CONTINUOUS
 10
123.8727435183
 20
226.2863728215
 11
123.681950163
 21
225.8753731905
  0
LINE
  8
0
 62
7
  6
CONTINUOUS
 10
125.1148527541
 20
227.6018838692
 11
124.9240594252
 21
227.1908842646
  0
LINE
  8
0
 62
7
  6
CONTINUOUS
 10
124.0929497939
 20
226.0661665458
 11
124.2452201748
 21
226.3652409705
  0
LINE
  8
0
 62
7
  6
CONTINUOUS
 10
125.3350590298
 20
227.3816775935
 11
125.487329148
 21
227.6807521755
  0
LINE
  8
0
 62
7
  6
CONTINUOUS
 10
127.0855166071
 20
227.737495705
 11
126.9332462789
 21
227.4384213331
  0
LINE
  8
0
 62
7
  6
CONTINUOUS
 10
72.0411848529
 20
134.8664589314
 11
74.4584463466
 21
138.7287253378
  0
LINE
  8
0
 62
7
  6
CONTINUOUS
 10
125.4175711057
 20
228.0514066846
 11
125.1148527541
 21
227.6018838692
  0
LINE
  8
0
 62
7
  6
CONTINUOUS
 10
127.0030041105
 20
227.0677666133
 11
127.3057230928
 21
227.5172892193
  0
LINE
  8
0
 62
7
  6
CONTINUOUS
 10
151.9261422327
 20
257.3018609833
 11
154.4920999059
 21
261.0669793271
  0
LINE
  8
0
 62
7
  6
CONTINUOUS
 10
124.0617150151
 20
226.5487461302
 11
123.8727435183
 21
226.2863728215
  0
LINE
  8
0
 62
7
  6
CONTINUOUS
 10
125.487329148
 20
227.6807521755
 11
125.6763005921
 21
227.9431254315
  0
LINE
  8
0
 62
7
  6
CONTINUOUS
 10
126.9332462789
 20
227.4384213331
 11
126.7442750441
 21
227.1760474463
  0
LINE
  8
0
 62
7
  6
CONTINUOUS
 10
130.5721159018
 20
224.2508964103
 11
130.3831448777
 21
223.9885227343
  0
LINE
  8
0
 62
7
  6
CONTINUOUS
 10
130.6033507333
 20
223.7683168787
 11
130.7923225975
 21
224.0306897147
  0
LINE
  8
0
 62
7
  6
CONTINUOUS
 10
131.4550237884
 20
220.509471668
 11
130.9651553522
 21
219.9462022599
  0
LINE
  8
0
 62
7
  6
CONTINUOUS
 10
130.072877457
 20
225.9537207222
 11
126.5373435511
 21
222.4181868163
  0
LINE
  8
0
 62
7
  6
CONTINUOUS
 10
126.7575498267
 20
222.1979805406
 11
128.337256488
 21
223.7776872018
  0
LINE
  8
0
 62
7
  6
CONTINUOUS
 10
128.7886011881
 20
224.229031902
 11
129.9169631492
 21
225.3573938631
  0
LINE
  8
0
 62
7
  6
CONTINUOUS
 10
130.3831448777
 20
223.9885227343
 11
130.1574723169
 21
223.7628501735
  0
LINE
  8
0
 62
7
  6
CONTINUOUS
 10
130.3024540558
 20
223.4674202012
 11
130.6033507333
 21
223.7683168787
  0
LINE
  8
0
 62
7
  6
CONTINUOUS
 10
131.9815926053
 20
221.0360404848
 11
131.4550237884
 21
220.509471668
  0
LINE
  8
0
 62
7
  6
CONTINUOUS
 10
132.0146493216
 20
220.7020873017
 11
132.165097555
 21
220.8525355351
  0
LINE
  8
0
 62
7
  6
CONTINUOUS
 10
131.2238852586
 20
219.8379205868
 11
131.4495576087
 21
220.0635929369
  0
LINE
  8
0
 62
7
  6
CONTINUOUS
 10
132.3670831972
 20
219.1460673483
 11
132.1414108472
 21
218.9203949982
  0
LINE
  8
0
 62
7
  6
CONTINUOUS
 10
132.2496925202
 20
218.6616650918
 11
132.625813209
 21
219.0377857806
  0
LINE
  8
0
 62
7
  6
CONTINUOUS
 10
132.544861908
 20
221.5259088157
 11
131.9815926053
 21
221.0360404848
  0
LINE
  8
0
 62
7
  6
CONTINUOUS
 10
132.165097555
 20
220.8525355351
 11
132.6531435811
 21
221.2671789093
  0
LINE
  8
0
 62
7
  6
CONTINUOUS
 10
51.8020038452
 20
149.5157985089
 11
55.3423672957
 21
152.3839131442
  0
LINE
  8
0
 62
7
  6
CONTINUOUS
 10
167.1132839457
 20
239.3787095055
 11
170.7627428821
 21
242.1066582575
  0
LINE
  8
0
 62
7
  6
CONTINUOUS
 10
132.6531435811
 20
221.2671789093
 11
132.9155166278
 21
221.4561509842
  0
LINE
  8
0
 62
7
  6
CONTINUOUS
 10
131.4495576087
 20
220.0635929369
 11
131.71193055
 21
220.2525649064
  0
LINE
  8
0
 62
7
  6
CONTINUOUS
 10
132.1414108472
 20
218.9203949982
 11
131.8790380112
 21
218.7314231341
  0
LINE
  8
0
 62
7
  6
CONTINUOUS
 10
131.8001692322
 20
218.3589471076
 11
132.2496925202
 21
218.6616650918
  0
LINE
  8
0
 62
7
  6
CONTINUOUS
 10
37.4160702752
 20
169.9430477912
 11
41.6958823683
 21
171.5062059312
  0
LINE
  8
0
 62
7
  6
CONTINUOUS
 10
175.6579066586
 20
217.4954269592
 11
179.9953913554
 21
218.8905905438
  0
LINE
  8
0
 62
7
  6
CONTINUOUS
 10
178.6966693376
 20
224.0191278112
 11
174.2179409296
 21
223.1817230287
  0
LINE
  8
0
 62
7
  6
CONTINUOUS
 10
34.5134070517
 20
199.8691595343
 11
30.0054436141
 21
199.2069506791
  0
LINE
  8
0
 62
7
  6
CONTINUOUS
 10
181.6264242562
 20
199.2069506791
 11
177.1184608186
 21
199.8691595343
  0
LINE
  8
0
 62
7
  6
CONTINUOUS
 10
37.4139269407
 20
223.1817230287
 11
32.9351985326
 21
224.0191278112
  0
LINE
  8
0
 62
7
  6
CONTINUOUS
 10
78.5224008675
 20
216.2974081174
 11
78.7662993646
 21
216.2404101083
  0
LINE
  8
0
 62
7
  6
CONTINUOUS
 10
78.2032782637
 20
216.4296302665
 11
78.5224008675
 21
216.2974081174
  0
LINE
  8
0
 62
7
  6
CONTINUOUS
 10
78.5055002725
 20
219.7408172589
 11
78.7182486017
 21
219.6526691214
  0
LINE
  8
0
 62
7
  6
CONTINUOUS
 10
78.6171766216
 20
220.0029418414
 11
78.4044282923
 21
220.0910899789
  0
LINE
  8
0
 62
7
  6
CONTINUOUS
 10
176.3409362275
 20
174.7878758764
 11
172.2922455471
 21
176.8779377647
  0
LINE
  8
0
 62
7
  6
CONTINUOUS
 10
47.7268656541
 20
244.2893502616
 11
43.7627119932
 21
246.5356228799
  0
LINE
  8
0
 62
7
  6
CONTINUOUS
 10
83.5335867322
 20
224.6184554852
 11
83.8215589998
 21
224.4550830528
  0
LINE
  8
0
 62
7
  6
CONTINUOUS
 10
83.9143467248
 20
222.7424917664
 11
84.2775431618
 21
222.5038951646
  0
LINE
  8
0
 62
7
  6
CONTINUOUS
 10
84.1764713073
 20
222.8541681155
 11
83.9948727586
 21
222.9734660336
  0
LINE
  8
0
 62
7
  6
CONTINUOUS
 10
83.9948727586
 20
222.9734660336
 11
83.7380508062
 21
223.1679887813
  0
LINE
  8
0
 62
7
  6
CONTINUOUS
 10
88.15075752
 20
226.9789025616
 11
87.8939348546
 21
227.1734245964
  0
LINE
  8
0
 62
7
  6
CONTINUOUS
 10
84.1277580967
 20
224.4603856828
 11
83.7957113146
 21
224.7301318343
  0
LINE
  8
0
 62
7
  6
CONTINUOUS
 10
87.7070343888
 20
226.9865241306
 11
88.0390811709
 21
226.7167779791
  0
LINE
  8
0
 62
7
  6
CONTINUOUS
 10
86.3712262992
 20
228.509232686
 11
86.7032730813
 21
228.2394865345
  0
LINE
  8
0
 62
7
  6
CONTINUOUS
 10
127.3133501501
 20
183.461154167
 11
127.5916794209
 21
183.1828248963
  0
LINE
  8
0
 62
7
  6
CONTINUOUS
 10
127.7163621862
 20
183.3075076616
 11
127.4380329155
 21
183.5858369323
  0
LINE
  8
0
 62
7
  6
CONTINUOUS
 10
129.9989858517
 20
181.3384637565
 11
129.2211683924
 21
182.1162812158
  0
LINE
  8
0
 62
7
  6
CONTINUOUS
 10
128.6554829675
 20
182.6819666408
 11
128.372640255
 21
182.9648093532
  0
LINE
  8
0
 62
7
  6
CONTINUOUS
 10
127.8868910419
 20
184.0346950588
 11
128.2069696974
 21
183.7146164033
  0
LINE
  8
0
 62
7
  6
CONTINUOUS
 10
128.2626355438
 20
183.6589505569
 11
128.5409648145
 21
183.3806212862
  0
LINE
  8
0
 62
7
  6
CONTINUOUS
 10
128.6656476512
 20
183.5053041229
 11
128.0115738786
 21
184.1593778955
  0
LINE
  8
0
 62
7
  6
CONTINUOUS
 10
129.8575644955
 20
183.1062307095
 11
130.8121586501
 21
182.1516365549
  0
LINE
  8
0
 62
7
  6
CONTINUOUS
 10
129.0791840298
 20
184.8373270833
 11
129.1209334146
 21
184.7955776985
  0
LINE
  8
0
 62
7
  6
CONTINUOUS
 10
131.4131994141
 20
182.7526773189
 11
130.4939605985
 21
183.6719161344
  0
LINE
  8
0
 62
7
  6
CONTINUOUS
 10
86.0703296217
 20
228.8101293635
 11
86.3712262992
 21
228.509232686
  0
LINE
  8
0
 62
7
  6
CONTINUOUS
 10
86.4829026483
 20
228.7713572684
 11
86.3324544149
 21
228.9218055018
  0
LINE
  8
0
 62
7
  6
CONTINUOUS
 10
88.5222387996
 20
228.1026250081
 11
88.7479111497
 21
227.8769526581
  0
LINE
  8
0
 62
7
  6
CONTINUOUS
 10
89.0100357321
 20
227.9886290071
 11
88.6339151487
 21
228.3647495906
  0
LINE
  8
0
 62
7
  6
CONTINUOUS
 10
86.5511675985
 20
230.9458979075
 11
90.0867015045
 21
227.4103640016
  0
LINE
  8
0
 62
7
  6
CONTINUOUS
 10
90.2736019702
 20
227.5972644673
 11
87.1894127645
 21
230.6814536731
  0
LINE
  8
0
 62
7
  6
CONTINUOUS
 10
87.6102697626
 20
232.0050000716
 11
90.619234799
 21
228.9960350351
  0
LINE
  8
0
 62
7
  6
CONTINUOUS
 10
91.3327041343
 20
228.6563666314
 11
87.7971702284
 21
232.1919005373
  0
LINE
  8
0
 62
7
  6
CONTINUOUS
 10
88.0463713247
 20
232.4411016337
 11
91.5819052307
 21
228.9055677277
  0
LINE
  8
0
 62
7
  6
CONTINUOUS
 10
91.3174609436
 20
229.5438129463
 11
90.1890990352
 21
230.6721748547
  0
LINE
  8
0
 62
7
  6
CONTINUOUS
 10
89.737754335
 20
231.1235195549
 11
88.6846164906
 21
232.1766573993
  0
LINE
  8
0
 62
7
  6
CONTINUOUS
 10
163.4129698923
 20
153.408089059
 11
160.2622904262
 21
156.6995133441
  0
LINE
  8
0
 62
7
  6
CONTINUOUS
 10
64.3346562605
 20
260.9047023036
 11
61.3146549061
 21
264.3164242651
  0
LINE
  8
0
 62
7
  6
CONTINUOUS
 10
90.0651611003
 20
232.3536157204
 11
90.2596838481
 21
232.0967937681
  0
LINE
  8
0
 62
7
  6
CONTINUOUS
 10
90.5218084305
 20
232.2084701171
 11
90.3272856828
 21
232.4652920695
  0
LINE
  8
0
 62
7
  6
CONTINUOUS
 10
91.6448676562
 20
230.7739091646
 11
91.8393904039
 21
230.5170872122
  0
LINE
  8
0
 62
7
  6
CONTINUOUS
 10
92.1015150391
 20
230.6287635086
 11
91.9069922386
 21
230.8855855137
  0
LINE
  8
0
 62
7
  6
CONTINUOUS
 10
144.2434710011
 20
137.3844218702
 11
142.3322277572
 21
141.5205316591
  0
LINE
  8
0
 62
7
  6
CONTINUOUS
 10
85.4375869512
 20
271.2272479474
 11
83.6890019103
 21
275.4347062392
  0
LINE
  8
0
 62
7
  6
CONTINUOUS
 10
123.681950163
 20
225.8753731905
 11
123.6397831629
 21
225.466195451
  0
LINE
  8
0
 62
7
  6
CONTINUOUS
 10
124.0526046984
 20
225.8056151746
 11
124.0929497939
 21
226.0661665458
  0
LINE
  8
0
 62
7
  6
CONTINUOUS
 10
125.2947139342
 20
227.1211262223
 11
125.3350590298
 21
227.3816775935
  0
LINE
  8
0
 62
7
  6
CONTINUOUS
 10
127.3057230928
 20
227.5172892193
 11
127.4965164217
 21
227.9282888239
  0
LINE
  8
0
 62
7
  6
CONTINUOUS
 10
130.7923225975
 20
224.0306897147
 11
130.9831159264
 21
224.4416893193
  0
LINE
  8
0
 62
7
  6
CONTINUOUS
 10
130.8826436436
 20
219.2764726962
 11
131.0349133944
 21
219.5755477508
  0
LINE
  8
0
 62
7
  6
CONTINUOUS
 10
130.9651553522
 20
219.9462022599
 11
130.6624373679
 21
219.4966789718
  0
LINE
  8
0
 62
7
  6
CONTINUOUS
 10
132.625813209
 20
219.0377857806
 11
132.9285311406
 21
219.487309016
  0
LINE
  8
0
 62
7
  6
CONTINUOUS
 10
129.6569323163
 20
219.298598051
 11
132.6052500472
 21
223.421348132
  0
LINE
  8
0
 62
7
  6
CONTINUOUS
 10
130.1926119225
 20
220.5682974561
 11
129.4367260406
 21
219.5188043267
  0
LINE
  8
0
 62
7
  6
CONTINUOUS
 10
132.1575491166
 20
223.2672561291
 11
130.4568070634
 21
220.9058952488
  0
LINE
  8
0
 62
7
  6
CONTINUOUS
 10
131.0349133944
 20
219.5755477508
 11
131.2238852586
 21
219.8379205868
  0
LINE
  8
0
 62
7
  6
CONTINUOUS
 10
132.5560551667
 20
219.4084402897
 11
132.3670831972
 21
219.1460673483
  0
LINE
  8
0
 62
7
  6
CONTINUOUS
 10
133.9064448683
 20
220.4652227437
 11
134.0954167324
 21
220.7275955797
  0
LINE
  8
0
 62
7
  6
CONTINUOUS
 10
129.2566048014
 20
223.0087871218
 11
129.6290816152
 21
223.0876550081
  0
LINE
  8
0
 62
7
  6
CONTINUOUS
 10
131.5799629565
 20
218.5791533832
 11
131.3194115853
 21
218.5388082877
  0
LINE
  8
0
 62
7
  6
CONTINUOUS
 10
131.9357814353
 20
220.3296104879
 11
132.1963328065
 21
220.3699555834
  0
LINE
  8
0
 62
7
  6
CONTINUOUS
 10
132.535752064
 20
220.7827774928
 11
132.0146493216
 21
220.7020873017
  0
LINE
  8
0
 62
7
  6
CONTINUOUS
 10
133.2145916298
 20
221.6084206824
 11
133.475143001
 21
221.6487657779
  0
LINE
  8
0
 62
7
  6
CONTINUOUS
 10
130.9799922817
 20
218.1259863322
 11
131.3891696012
 21
218.1681537523
  0
LINE
  8
0
 62
7
  6
CONTINUOUS
 10
78.6652272979
 20
216.5906827812
 11
78.3901787351
 21
216.6165307378
  0
LINE
  8
0
 62
7
  6
CONTINUOUS
 10
78.3679760599
 20
219.7537412798
 11
78.5055002725
 21
219.7408172589
  0
LINE
  8
0
 62
7
  6
CONTINUOUS
 10
78.4044282923
 20
220.0910899789
 11
78.1605298261
 21
220.1480879794
  0
LINE
  8
0
 62
7
  6
CONTINUOUS
 10
84.4902920521
 20
222.4157475354
 11
84.7341905316
 21
222.3587495217
  0
LINE
  8
0
 62
7
  6
CONTINUOUS
 10
84.2775431618
 20
222.5038951646
 11
84.4902920521
 21
222.4157475354
  0
LINE
  8
0
 62
7
  6
CONTINUOUS
 10
84.4955939429
 20
222.7219459456
 11
84.1764713073
 21
222.8541681155
  0
LINE
  8
0
 62
7
  6
CONTINUOUS
 10
88.4698801556
 20
226.8466803917
 11
88.15075752
 21
226.9789025616
  0
LINE
  8
0
 62
7
  6
CONTINUOUS
 10
83.4742690797
 20
225.6122754665
 11
85.1139559013
 21
224.8447903432
  0
LINE
  8
0
 62
7
  6
CONTINUOUS
 10
86.9405439016
 20
224.2642063987
 11
85.3008563671
 21
225.031690809
  0
LINE
  8
0
 62
7
  6
CONTINUOUS
 10
85.4330784843
 20
224.712568226
 11
86.7536434358
 21
224.0773059329
  0
LINE
  8
0
 62
7
  6
CONTINUOUS
 10
84.9817336788
 20
225.1639130316
 11
83.6611695455
 21
225.7991759323
  0
LINE
  8
0
 62
7
  6
CONTINUOUS
 10
83.7957113146
 20
224.7301318343
 11
83.401364615
 21
224.9375780682
  0
LINE
  8
0
 62
7
  6
CONTINUOUS
 10
86.7791596005
 20
229.9703040424
 11
86.3848129009
 21
230.1777502763
  0
LINE
  8
0
 62
7
  6
CONTINUOUS
 10
88.2342657136
 20
228.265996833
 11
88.5222387996
 21
228.1026250081
  0
LINE
  8
0
 62
7
  6
CONTINUOUS
 10
90.619234799
 20
228.9960350351
 11
86.8315182972
 21
231.2262486061
  0
LINE
  8
0
 62
7
  6
CONTINUOUS
 10
87.1894127645
 20
230.6814536731
 11
91.0523534357
 21
228.3760159327
  0
LINE
  8
0
 62
7
  6
CONTINUOUS
 10
88.0390811709
 20
226.7167779791
 11
88.5086520662
 21
226.4341075495
  0
LINE
  8
0
 62
7
  6
CONTINUOUS
 10
88.6339151487
 20
228.3647495906
 11
88.270717946
 21
228.6033455322
  0
LINE
  8
0
 62
7
  6
CONTINUOUS
 10
86.6674832514
 20
229.70817946
 11
86.8490818001
 21
229.5888815419
  0
LINE
  8
0
 62
7
  6
CONTINUOUS
 10
86.7397253137
 20
228.5768352337
 11
86.4829026483
 21
228.7713572684
  0
LINE
  8
0
 62
7
  6
CONTINUOUS
 10
87.0359822659
 20
229.7757820076
 11
86.7791596005
 21
229.9703040424
  0
LINE
  8
0
 62
7
  6
CONTINUOUS
 10
91.1623732484
 20
231.1941043678
 11
91.4191953061
 21
230.9995815146
  0
LINE
  8
0
 62
7
  6
CONTINUOUS
 10
91.5308716552
 20
231.2617060971
 11
91.2740495974
 21
231.4562289502
  0
LINE
  8
0
 62
7
  6
CONTINUOUS
 10
89.6578907038
 20
232.6985869123
 11
89.9147128669
 21
232.5040639538
  0
LINE
  8
0
 62
7
  6
CONTINUOUS
 10
90.0263890053
 20
232.766188747
 11
89.7695670529
 21
232.9607114948
  0
LINE
  8
0
 62
7
  6
CONTINUOUS
 10
89.9147128669
 20
232.5040639538
 11
90.0651611003
 21
232.3536157204
  0
LINE
  8
0
 62
7
  6
CONTINUOUS
 10
91.4191953061
 20
230.9995815146
 11
91.6448676562
 21
230.7739091646
  0
LINE
  8
0
 62
7
  6
CONTINUOUS
 10
91.9069922386
 20
230.8855855137
 11
91.5308716552
 21
231.2617060971
  0
LINE
  8
0
 62
7
  6
CONTINUOUS
 10
90.3272856828
 20
232.4652920695
 11
90.0263890053
 21
232.766188747
  0
LINE
  8
0
 62
7
  6
CONTINUOUS
 10
129.2902619886
 20
184.8257416177
 11
129.2316997629
 21
184.93417697
  0
LINE
  8
0
 62
7
  6
CONTINUOUS
 10
128.3195017211
 20
184.3003081794
 11
128.3502309671
 21
184.2197057132
  0
LINE
  8
0
 62
7
  6
CONTINUOUS
 10
129.1209334146
 20
184.7955776985
 11
129.1516627149
 21
184.7149752671
  0
LINE
  8
0
 62
7
  6
CONTINUOUS
 10
124.3325480451
 20
180.257688657
 11
124.3296515894
 21
180.3104580477
  0
LINE
  8
0
 62
7
  6
CONTINUOUS
 10
125.1038157414
 20
180.583629524
 11
125.1067121971
 21
180.5308601334
  0
LINE
  8
0
 62
7
  6
CONTINUOUS
 10
126.5571295848
 20
182.6214348224
 11
126.56002576
 21
182.5686651415
  0
LINE
  8
0
 62
7
  6
CONTINUOUS
 10
126.6435245393
 20
182.4851663622
 11
126.6406283689
 21
182.5379360382
  0
LINE
  8
0
 62
7
  6
CONTINUOUS
 10
127.2866478817
 20
182.9891250887
 11
127.2808551129
 21
183.0946640127
  0
LINE
  8
0
 62
7
  6
CONTINUOUS
 10
127.3231699061
 20
182.8029836888
 11
127.3260662192
 21
182.7502141555
  0
LINE
  8
0
 62
7
  6
CONTINUOUS
 10
127.4785820504
 20
182.8470641403
 11
127.4756855946
 21
182.899833531
  0
LINE
  8
0
 62
7
  6
CONTINUOUS
 10
129.1516627149
 20
184.7149752671
 11
129.1545590814
 21
184.6622057873
  0
LINE
  8
0
 62
7
  6
CONTINUOUS
 10
129.2960547106
 20
184.7202026469
 11
129.2902619886
 21
184.8257416177
  0
LINE
  8
0
 62
7
  6
CONTINUOUS
 10
124.1881560445
 20
180.2524612821
 11
124.1800324993
 21
180.1608389576
  0
LINE
  8
0
 62
7
  6
CONTINUOUS
 10
125.248207737
 20
180.5888569038
 11
125.2563315726
 21
180.6804795089
  0
LINE
  8
0
 62
7
  6
CONTINUOUS
 10
124.9240594252
 20
227.1908842646
 11
124.8818922348
 21
226.7817067548
  0
LINE
  8
0
 62
7
  6
CONTINUOUS
 10
127.4965164217
 20
227.9282888239
 11
127.5386834021
 21
228.3374665437
  0
LINE
  8
0
 62
7
  6
CONTINUOUS
 10
130.4716440126
 20
219.0856793409
 11
130.4294765925
 21
218.6765020213
  0
LINE
  8
0
 62
7
  6
CONTINUOUS
 10
127.1258617027
 20
227.9980470762
 11
127.0855166071
 21
227.737495705
  0
LINE
  8
0
 62
7
  6
CONTINUOUS
 10
130.842298548
 20
219.015921325
 11
130.8826436436
 21
219.2764726962
  0
LINE
  8
0
 62
7
  6
CONTINUOUS
 10
130.9831159264
 20
224.4416893193
 11
131.0619838127
 21
224.8141661331
  0
LINE
  8
0
 62
7
  6
CONTINUOUS
 10
132.6331007482
 20
219.632291175
 11
132.5560551667
 21
219.4084402897
  0
LINE
  8
0
 62
7
  6
CONTINUOUS
 10
130.6491623233
 20
224.4747464556
 11
130.5721159018
 21
224.2508964103
  0
LINE
  8
0
 62
7
  6
CONTINUOUS
 10
132.9285311406
 20
219.487309016
 11
133.0441003528
 21
219.8230845039
  0
LINE
  8
0
 62
7
  6
CONTINUOUS
 10
130.6624373679
 20
219.4966789718
 11
130.4716440126
 21
219.0856793409
  0
LINE
  8
0
 62
7
  6
CONTINUOUS
 10
134.0954167324
 20
220.7275955797
 11
134.2862100614
 21
221.1385951843
  0
LINE
  8
0
 62
7
  6
CONTINUOUS
 10
133.8752104568
 20
220.9478018554
 11
133.7229399186
 21
220.6487276934
  0
LINE
  8
0
 62
7
  6
CONTINUOUS
 10
129.9679005001
 20
198.7022052221
 11
127.8465801566
 21
196.5808848785
  0
LINE
  8
0
 62
7
  6
CONTINUOUS
 10
112.0695589611
 20
180.8038636831
 11
109.9482386176
 21
178.6825433396
  0
LINE
  8
0
 62
7
  6
CONTINUOUS
 10
125.984625097
 20
192.4561881192
 11
116.1942557205
 21
182.6658187426
  0
LINE
  8
0
 62
7
  6
CONTINUOUS
 10
78.7662993646
 20
216.2404101083
 11
78.966123791
 21
216.2897862881
  0
LINE
  8
0
 62
7
  6
CONTINUOUS
 10
78.1681515733
 20
219.7043650266
 11
78.3679760599
 21
219.7537412798
  0
LINE
  8
0
 62
7
  6
CONTINUOUS
 10
124.7535686209
 20
225.4055477188
 11
124.4930172497
 21
225.3652026233
  0
LINE
  8
0
 62
7
  6
CONTINUOUS
 10
125.432407924
 20
226.2311910657
 11
125.9535106664
 21
226.3118812568
  0
LINE
  8
0
 62
7
  6
CONTINUOUS
 10
126.0323787627
 20
226.6843578606
 11
125.7718273915
 21
226.6440127651
  0
LINE
  8
0
 62
7
  6
CONTINUOUS
 10
126.3881968742
 20
228.4348154379
 11
126.6487482454
 21
228.4751605335
  0
LINE
  8
0
 62
7
  6
CONTINUOUS
 10
78.1605298261
 20
220.1480879794
 11
77.9918554765
 21
220.1298618632
  0
LINE
  8
0
 62
7
  6
CONTINUOUS
 10
84.7341905316
 20
222.3587495217
 11
84.9028648877
 21
222.3769756314
  0
LINE
  8
0
 62
7
  6
CONTINUOUS
 10
133.8145622585
 20
222.0615876873
 11
133.4053849587
 21
222.019420287
  0
LINE
  8
0
 62
7
  6
CONTINUOUS
 10
124.1535977361
 20
224.9523808778
 11
124.5627754757
 21
224.9945478779
  0
LINE
  8
0
 62
7
  6
CONTINUOUS
 10
84.6331179772
 20
222.7090217465
 11
84.4955939429
 21
222.7219459456
  0
LINE
  8
0
 62
7
  6
CONTINUOUS
 10
87.1287693832
 20
228.0631899029
 11
87.4038181648
 21
228.0373422177
  0
LINE
  8
0
 62
7
  6
CONTINUOUS
 10
83.401364615
 20
224.9375780682
 11
83.0199421144
 21
225.0075002678
  0
LINE
  8
0
 62
7
  6
CONTINUOUS
 10
88.5086520662
 20
226.4341075495
 11
88.8900745866
 21
226.3641853302
  0
LINE
  8
0
 62
7
  6
CONTINUOUS
 10
131.3194115853
 20
218.5388082877
 11
131.1340843308
 21
218.5736873088
  0
LINE
  8
0
 62
7
  6
CONTINUOUS
 10
132.1963328065
 20
220.3699555834
 11
132.381660061
 21
220.3350765623
  0
LINE
  8
0
 62
7
  6
CONTINUOUS
 10
83.2896882659
 20
224.6754534857
 11
83.5335867322
 21
224.6184554852
  0
LINE
  8
0
 62
7
  6
CONTINUOUS
 10
86.9836237799
 20
228.5198372332
 11
86.7397253137
 21
228.5768352337
  0
LINE
  8
0
 62
7
  6
CONTINUOUS
 10
87.9903672473
 20
228.3229948335
 11
88.2342657136
 21
228.265996833
  0
LINE
  8
0
 62
7
  6
CONTINUOUS
 10
86.3848129009
 20
230.1777502763
 11
86.0345400026
 21
230.2788220782
  0
LINE
  8
0
 62
7
  6
CONTINUOUS
 10
86.7032730813
 20
228.2394865345
 11
87.1287693832
 21
228.0631899029
  0
LINE
  8
0
 62
7
  6
CONTINUOUS
 10
88.270717946
 20
228.6033455322
 11
87.845221644
 21
228.7796421637
  0
LINE
  8
0
 62
7
  6
CONTINUOUS
 10
86.4547351005
 20
229.7963277757
 11
86.6674832514
 21
229.70817946
  0
LINE
  8
0
 62
7
  6
CONTINUOUS
 10
90.9496243844
 20
231.2822519706
 11
91.1623732484
 21
231.1941043678
  0
LINE
  8
0
 62
7
  6
CONTINUOUS
 10
89.4451418399
 20
232.7867345151
 11
89.6578907038
 21
232.6985869123
  0
LINE
  8
0
 62
7
  6
CONTINUOUS
 10
91.2740495974
 20
231.4562289502
 11
90.8797028978
 21
231.6636751841
  0
LINE
  8
0
 62
7
  6
CONTINUOUS
 10
89.7695670529
 20
232.9607114948
 11
89.3752203532
 21
233.1681577287
  0
LINE
  8
0
 62
7
  6
CONTINUOUS
 10
109.9482386176
 20
226.9864764696
 11
112.0695589611
 21
224.865156126
  0
LINE
  8
0
 62
7
  6
CONTINUOUS
 10
127.8465801566
 20
209.0881349306
 11
129.9679005001
 21
206.966814587
  0
LINE
  8
0
 62
7
  6
CONTINUOUS
 10
116.1942557205
 20
223.0032010665
 11
125.984625097
 21
213.2128316899
  0
LINE
  8
0
 62
7
  6
CONTINUOUS
 10
127.1283394244
 20
182.9978141705
 11
127.145152199
 21
182.9311281756
  0
LINE
  8
0
 62
7
  6
CONTINUOUS
 10
128.4749138037
 20
184.3443885499
 11
128.458100948
 21
184.4110744832
  0
LINE
  8
0
 62
7
  6
CONTINUOUS
 10
124.0874837195
 20
225.6202879201
 11
124.0526046984
 21
225.8056151746
  0
LINE
  8
0
 62
7
  6
CONTINUOUS
 10
133.0441003528
 20
219.8230845039
 11
133.0862677532
 21
220.2322618037
  0
LINE
  8
0
 62
7
  6
CONTINUOUS
 10
134.2862100614
 20
221.1385951843
 11
134.3283766217
 21
221.5477733241
  0
LINE
  8
0
 62
7
  6
CONTINUOUS
 10
132.6734458438
 20
219.8928425462
 11
132.6331007482
 21
219.632291175
  0
LINE
  8
0
 62
7
  6
CONTINUOUS
 10
133.9155555523
 20
221.2083532266
 11
133.8752104568
 21
220.9478018554
  0
LINE
  8
0
 62
7
  6
CONTINUOUS
 10
125.9876155327
 20
181.4952622385
 11
125.9655755209
 21
181.4175563804
  0
LINE
  8
0
 62
7
  6
CONTINUOUS
 10
126.0212413673
 20
181.3618905341
 11
126.043281379
 21
181.4395963922
  0
LINE
  8
0
 62
7
  6
CONTINUOUS
 10
126.6406283689
 20
182.5379360382
 11
126.6736886622
 21
182.6544951205
  0
LINE
  8
0
 62
7
  6
CONTINUOUS
 10
127.145152199
 20
182.9311281756
 11
127.1231120446
 21
182.8534221749
  0
LINE
  8
0
 62
7
  6
CONTINUOUS
 10
127.2646077468
 20
182.9114190685
 11
127.2866478817
 21
182.9891250887
  0
LINE
  8
0
 62
7
  6
CONTINUOUS
 10
127.4565417533
 20
182.7693579969
 11
127.4785820504
 21
182.8470641403
  0
LINE
  8
0
 62
7
  6
CONTINUOUS
 10
128.3525620192
 20
184.4168672568
 11
128.3195017211
 21
184.3003081794
  0
LINE
  8
0
 62
7
  6
CONTINUOUS
 10
128.2069696974
 20
183.7146164033
 11
128.1849294717
 21
183.6369103312
  0
LINE
  8
0
 62
7
  6
CONTINUOUS
 10
128.240595318
 20
183.5812444848
 11
128.2626355438
 21
183.6589505569
  0
LINE
  8
0
 62
7
  6
CONTINUOUS
 10
129.1545590814
 20
184.6622057873
 11
129.1214987785
 21
184.5456467148
  0
LINE
  8
0
 62
7
  6
CONTINUOUS
 10
129.2740145116
 20
184.6424966015
 11
129.2960547106
 21
184.7202026469
  0
LINE
  8
0
 62
7
  6
CONTINUOUS
 10
125.9655755209
 20
181.4175563804
 11
125.9185987564
 21
181.3149137695
  0
LINE
  8
0
 62
7
  6
CONTINUOUS
 10
126.6041063457
 20
182.7240774369
 11
126.5571295848
 21
182.6214348224
  0
LINE
  8
0
 62
7
  6
CONTINUOUS
 10
125.9742646027
 20
181.2592479232
 11
126.0212413673
 21
181.3618905341
  0
LINE
  8
0
 62
7
  6
CONTINUOUS
 10
128.458100948
 20
184.4110744832
 11
128.5050777483
 21
184.5137171298
  0
LINE
  8
0
 62
7
  6
CONTINUOUS
 10
128.1849294717
 20
183.6369103312
 11
128.1379527784
 21
183.5342677916
  0
LINE
  8
0
 62
7
  6
CONTINUOUS
 10
128.1936186248
 20
183.4786019452
 11
128.240595318
 21
183.5812444848
  0
LINE
  8
0
 62
7
  6
CONTINUOUS
 10
129.2270377381
 20
184.5398539817
 11
129.2740145116
 21
184.6424966015
  0
LINE
  8
0
 62
7
  6
CONTINUOUS
 10
124.2600692729
 20
180.3800403641
 11
124.1881560445
 21
180.2524612821
  0
LINE
  8
0
 62
7
  6
CONTINUOUS
 10
124.3296515894
 20
180.3104580477
 11
124.3656083481
 21
180.3742477295
  0
LINE
  8
0
 62
7
  6
CONTINUOUS
 10
125.1067121971
 20
180.5308601334
 11
125.0707554384
 21
180.4670704515
  0
LINE
  8
0
 62
7
  6
CONTINUOUS
 10
125.176294505
 20
180.4612778255
 11
125.248207737
 21
180.5888569038
  0
LINE
  8
0
 62
7
  6
CONTINUOUS
 10
127.1231120446
 20
182.8534221749
 11
127.0871554286
 21
182.7896326357
  0
LINE
  8
0
 62
7
  6
CONTINUOUS
 10
127.192694372
 20
182.7838398474
 11
127.2646077468
 21
182.9114190685
  0
LINE
  8
0
 62
7
  6
CONTINUOUS
 10
127.3260662192
 20
182.7502141555
 11
127.2901096032
 21
182.6864246163
  0
LINE
  8
0
 62
7
  6
CONTINUOUS
 10
128.4244753189
 20
184.5444464102
 11
128.3525620192
 21
184.4168672568
  0
LINE
  8
0
 62
7
  6
CONTINUOUS
 10
127.4205851372
 20
182.7055684577
 11
127.4565417533
 21
182.7693579969
  0
LINE
  8
0
 62
7
  6
CONTINUOUS
 10
129.1214987785
 20
184.5456467148
 11
129.0855421089
 21
184.4818571221
  0
LINE
  8
0
 62
7
  6
CONTINUOUS
 10
126.6736886622
 20
182.6544951205
 11
126.7705384994
 21
182.8070108139
  0
LINE
  8
0
 62
7
  6
CONTINUOUS
 10
129.1661445119
 20
184.4511278324
 11
129.2270377381
 21
184.5398539817
  0
LINE
  8
0
 62
7
  6
CONTINUOUS
 10
124.3656083481
 20
180.3742477295
 11
124.4514380368
 21
180.4879103512
  0
LINE
  8
0
 62
7
  6
CONTINUOUS
 10
125.0707554384
 20
180.4670704515
 11
124.9849257448
 21
180.3534078348
  0
LINE
  8
0
 62
7
  6
CONTINUOUS
 10
125.9185987564
 20
181.3149137695
 11
125.8327687774
 21
181.2012508674
  0
LINE
  8
0
 62
7
  6
CONTINUOUS
 10
127.0871554286
 20
182.7896326357
 11
127.0013255923
 21
182.6759698762
  0
LINE
  8
0
 62
7
  6
CONTINUOUS
 10
125.8884346237
 20
181.145585021
 11
125.9742646027
 21
181.2592479232
  0
LINE
  8
0
 62
7
  6
CONTINUOUS
 10
127.2901096032
 20
182.6864246163
 11
127.2042797669
 21
182.5727618568
  0
LINE
  8
0
 62
7
  6
CONTINUOUS
 10
128.1379527784
 20
183.5342677916
 11
128.0521229422
 21
183.4206050321
  0
LINE
  8
0
 62
7
  6
CONTINUOUS
 10
128.1077887885
 20
183.3649391858
 11
128.1936186248
 21
183.4786019452
  0
LINE
  8
0
 62
7
  6
CONTINUOUS
 10
129.0855421089
 20
184.4818571221
 11
128.9997123083
 21
184.3681943983
  0
LINE
  8
0
 62
7
  6
CONTINUOUS
 10
126.7148726482
 20
182.8626766651
 11
126.6041063457
 21
182.7240774369
  0
LINE
  8
0
 62
7
  6
CONTINUOUS
 10
124.3957721856
 20
180.5435762024
 11
124.2600692729
 21
180.3800403641
  0
LINE
  8
0
 62
7
  6
CONTINUOUS
 10
125.0405915911
 20
180.2977419884
 11
125.176294505
 21
180.4612778255
  0
LINE
  8
0
 62
7
  6
CONTINUOUS
 10
127.0569914581
 20
182.6203040104
 11
127.192694372
 21
182.7838398474
  0
LINE
  8
0
 62
7
  6
CONTINUOUS
 10
129.0304416159
 20
184.2875920131
 11
129.1661445119
 21
184.4511278324
  0
LINE
  8
0
 62
7
  6
CONTINUOUS
 10
128.5851148061
 20
184.7329188229
 11
128.4244753189
 21
184.5444464102
  0
LINE
  8
0
 62
7
  6
CONTINUOUS
 10
128.5050777483
 20
184.5137171298
 11
128.6657171961
 21
184.7021895105
  0
LINE
  8
0
 62
7
  6
CONTINUOUS
 10
127.2599456132
 20
182.5170960105
 11
127.4205851372
 21
182.7055684577
  0
LINE
  8
0
 62
7
  6
CONTINUOUS
 10
109.3514678411
 20
168.8933844076
 11
139.7570594321
 21
199.2989759986
  0
LINE
  8
0
 62
7
  6
CONTINUOUS
 10
128.0115738786
 20
184.1593778955
 11
127.8868910419
 21
184.0346950588
  0
LINE
  8
0
 62
7
  6
CONTINUOUS
 10
127.4380329155
 20
183.5858369323
 11
127.3133501501
 21
183.461154167
  0
LINE
  8
0
 62
7
  6
CONTINUOUS
 10
126.8644920237
 20
183.0122960406
 11
126.7148726482
 21
182.8626766651
  0
LINE
  8
0
 62
7
  6
CONTINUOUS
 10
126.4405705074
 20
182.5883745243
 11
126.3158875994
 21
182.4636916162
  0
LINE
  8
0
 62
7
  6
CONTINUOUS
 10
126.1163950036
 20
182.2641990205
 11
125.991712381
 21
182.1395163978
  0
LINE
  8
0
 62
7
  6
CONTINUOUS
 10
125.7922197852
 20
181.940023802
 11
125.6675368772
 21
181.815340894
  0
LINE
  8
0
 62
7
  6
CONTINUOUS
 10
125.2186787507
 20
181.3664827676
 11
125.0939961281
 21
181.2418001449
  0
LINE
  8
0
 62
7
  6
CONTINUOUS
 10
124.545391561
 20
180.6931955779
 11
124.3957721856
 21
180.5435762024
  0
LINE
  8
0
 62
7
  6
CONTINUOUS
 10
124.4514380368
 20
180.4879103512
 11
124.6010574123
 21
180.6375297267
  0
LINE
  8
0
 62
7
  6
CONTINUOUS
 10
126.7705384994
 20
182.8070108139
 11
126.9201578749
 21
182.9566301893
  0
LINE
  8
0
 62
7
  6
CONTINUOUS
 10
124.8811523267
 20
180.8062929387
 11
125.0058352347
 21
180.9309758467
  0
LINE
  8
0
 62
7
  6
CONTINUOUS
 10
128.3502309671
 20
184.2197057132
 11
128.4749138037
 21
184.3443885499
  0
LINE
  8
0
 62
7
  6
CONTINUOUS
 10
127.0013255923
 20
182.6759698762
 11
126.7270233088
 21
182.4016675927
  0
LINE
  8
0
 62
7
  6
CONTINUOUS
 10
126.7826891746
 20
182.3460017268
 11
127.0569914581
 21
182.6203040104
  0
LINE
  8
0
 62
7
  6
CONTINUOUS
 10
128.6419113623
 20
184.1773909913
 11
128.5172285256
 21
184.0527081546
  0
LINE
  8
0
 62
7
  6
CONTINUOUS
 10
127.4478526715
 20
182.9276664541
 11
127.3231699061
 21
182.8029836888
  0
LINE
  8
0
 62
7
  6
CONTINUOUS
 10
124.5552114597
 20
180.0350252424
 11
124.4305288371
 21
179.9103426197
  0
LINE
  8
0
 62
7
  6
CONTINUOUS
 10
127.2042797669
 20
182.5727618568
 11
127.0546603914
 21
182.4231424814
  0
LINE
  8
0
 62
7
  6
CONTINUOUS
 10
124.9849257448
 20
180.3534078348
 11
124.8353063693
 21
180.2037884593
  0
LINE
  8
0
 62
7
  6
CONTINUOUS
 10
124.8909722156
 20
180.1481226129
 11
125.0405915911
 21
180.2977419884
  0
LINE
  8
0
 62
7
  6
CONTINUOUS
 10
125.7886884685
 20
181.0458388658
 11
125.8884346237
 21
181.145585021
  0
LINE
  8
0
 62
7
  6
CONTINUOUS
 10
126.112863687
 20
181.3700140842
 11
126.237546595
 21
181.4946969923
  0
LINE
  8
0
 62
7
  6
CONTINUOUS
 10
126.4370391908
 20
181.694189588
 11
126.5617218134
 21
181.8188722107
  0
LINE
  8
0
 62
7
  6
CONTINUOUS
 10
127.1103262377
 20
182.367476635
 11
127.2599456132
 21
182.5170960105
  0
LINE
  8
0
 62
7
  6
CONTINUOUS
 10
128.0080424906
 20
183.2651928879
 11
128.1077887885
 21
183.3649391858
  0
LINE
  8
0
 62
7
  6
CONTINUOUS
 10
126.7008864683
 20
181.6797075558
 11
126.5762038456
 21
181.5550249332
  0
LINE
  8
0
 62
7
  6
CONTINUOUS
 10
126.6457861536
 20
181.4854426252
 11
126.7704687762
 21
181.6101252479
  0
LINE
  8
0
 62
7
  6
CONTINUOUS
 10
128.5409648145
 20
183.3806212862
 11
128.6656476512
 21
183.5053041229
  0
LINE
  8
0
 62
7
  6
CONTINUOUS
 10
128.9997123083
 20
184.3681943983
 11
128.8112399324
 21
184.2075549456
  0
LINE
  8
0
 62
7
  6
CONTINUOUS
 10
128.8419692043
 20
184.1269525248
 11
129.0304416159
 21
184.2875920131
  0
LINE
  8
0
 62
7
  6
CONTINUOUS
 10
128.7486506265
 20
184.8686217178
 11
128.5851148061
 21
184.7329188229
  0
LINE
  8
0
 62
7
  6
CONTINUOUS
 10
124.7089273993
 20
180.8288984906
 11
124.545391561
 21
180.6931955779
  0
LINE
  8
0
 62
7
  6
CONTINUOUS
 10
124.6010574123
 20
180.6375297267
 11
124.7645932542
 21
180.7732326357
  0
LINE
  8
0
 62
7
  6
CONTINUOUS
 10
126.9467905433
 20
182.2317738638
 11
127.1103262377
 21
182.367476635
  0
LINE
  8
0
 62
7
  6
CONTINUOUS
 10
124.8353063693
 20
180.2037884593
 11
124.6717705322
 21
180.0680855454
  0
LINE
  8
0
 62
7
  6
CONTINUOUS
 10
124.7274363786
 20
180.012419699
 11
124.8909722156
 21
180.1481226129
  0
LINE
  8
0
 62
7
  6
CONTINUOUS
 10
126.9781546417
 20
183.098125733
 11
126.8644920237
 21
183.0122960406
  0
LINE
  8
0
 62
7
  6
CONTINUOUS
 10
128.0521229422
 20
183.4206050321
 11
127.9384601827
 21
183.3347751958
  0
LINE
  8
0
 62
7
  6
CONTINUOUS
 10
127.0546603914
 20
182.4231424814
 11
126.9409976319
 21
182.3373126451
  0
LINE
  8
0
 62
7
  6
CONTINUOUS
 10
125.8327687774
 20
181.2012508674
 11
125.7191061606
 21
181.1154211737
  0
LINE
  8
0
 62
7
  6
CONTINUOUS
 10
124.9814640233
 20
180.6561083072
 11
124.4879600564
 21
180.3017689561
  0
LINE
  8
0
 62
7
  6
CONTINUOUS
 10
124.4548997534
 20
180.1852098836
 11
124.9484037398
 21
180.5395492152
  0
LINE
  8
0
 62
7
  6
CONTINUOUS
 10
128.8373767771
 20
184.9295149427
 11
128.7486506265
 21
184.8686217178
  0
LINE
  8
0
 62
7
  6
CONTINUOUS
 10
128.6657171961
 20
184.7021895105
 11
128.8431695175
 21
184.8239759758
  0
LINE
  8
0
 62
7
  6
CONTINUOUS
 10
127.9193163413
 20
183.2042996617
 11
128.0080424906
 21
183.2651928879
  0
LINE
  8
0
 62
7
  6
CONTINUOUS
 10
124.7976535499
 20
180.8897917155
 11
124.7089273993
 21
180.8288984906
  0
LINE
  8
0
 62
7
  6
CONTINUOUS
 10
125.6999623192
 20
180.9849456397
 11
125.7886884685
 21
181.0458388658
  0
LINE
  8
0
 62
7
  6
CONTINUOUS
 10
124.6387102292
 20
179.9515264729
 11
124.7274363786
 21
180.012419699
  0
LINE
  8
0
 62
7
  6
CONTINUOUS
 10
127.0419443248
 20
183.1340824904
 11
126.9781546417
 21
183.098125733
  0
LINE
  8
0
 62
7
  6
CONTINUOUS
 10
128.7143900546
 20
184.0550392214
 11
128.8419692043
 21
184.1269525248
  0
LINE
  8
0
 62
7
  6
CONTINUOUS
 10
126.9201578749
 20
182.9566301893
 11
127.0477369582
 21
183.0285434165
  0
LINE
  8
0
 62
7
  6
CONTINUOUS
 10
127.9384601827
 20
183.3347751958
 11
127.8746706435
 21
183.2988185798
  0
LINE
  8
0
 62
7
  6
CONTINUOUS
 10
126.9409976319
 20
182.3373126451
 11
126.8772082354
 21
182.3013561717
  0
LINE
  8
0
 62
7
  6
CONTINUOUS
 10
124.7645932542
 20
180.7732326357
 11
124.8283829361
 21
180.8091893944
  0
LINE
  8
0
 62
7
  6
CONTINUOUS
 10
125.7191061606
 20
181.1154211737
 11
125.6553164787
 21
181.0794644151
  0
LINE
  8
0
 62
7
  6
CONTINUOUS
 10
124.6717705322
 20
180.0680855454
 11
124.6079808504
 21
180.0321287867
  0
LINE
  8
0
 62
7
  6
CONTINUOUS
 10
128.9400193993
 20
184.9764917138
 11
128.8373767771
 21
184.9295149427
  0
LINE
  8
0
 62
7
  6
CONTINUOUS
 10
128.8112399324
 20
184.2075549456
 11
128.7085972859
 21
184.1605781454
  0
LINE
  8
0
 62
7
  6
CONTINUOUS
 10
127.8166737304
 20
183.1573228972
 11
127.9193163413
 21
183.2042996617
  0
LINE
  8
0
 62
7
  6
CONTINUOUS
 10
126.8441479324
 20
182.1847970992
 11
126.9467905433
 21
182.2317738638
  0
LINE
  8
0
 62
7
  6
CONTINUOUS
 10
124.9002961632
 20
180.9367684776
 11
124.7976535499
 21
180.8897917155
  0
LINE
  8
0
 62
7
  6
CONTINUOUS
 10
125.5973197083
 20
180.9379688751
 11
125.6999623192
 21
180.9849456397
  0
LINE
  8
0
 62
7
  6
CONTINUOUS
 10
124.9484037398
 20
180.5395492152
 11
125.0510463507
 21
180.5865259798
  0
LINE
  8
0
 62
7
  6
CONTINUOUS
 10
124.4879600564
 20
180.3017689561
 11
124.3853174455
 21
180.2547921916
  0
LINE
  8
0
 62
7
  6
CONTINUOUS
 10
124.5360676183
 20
179.9045497083
 11
124.6387102292
 21
179.9515264729
  0
LINE
  8
0
 62
7
  6
CONTINUOUS
 10
125.1229595828
 20
180.7141050581
 11
124.9814640233
 21
180.6561083072
  0
LINE
  8
0
 62
7
  6
CONTINUOUS
 10
124.3134042134
 20
180.1272131132
 11
124.4548997534
 21
180.1852098836
  0
LINE
  8
0
 62
7
  6
CONTINUOUS
 10
84.8329426684
 20
222.7583981517
 11
84.6331179772
 21
222.7090217465
  0
LINE
  8
0
 62
7
  6
CONTINUOUS
 10
88.6697041075
 20
226.8960561102
 11
88.4698801556
 21
226.8466803917
  0
LINE
  8
0
 62
7
  6
CONTINUOUS
 10
87.4038181648
 20
228.0373422177
 11
87.6036428297
 21
228.0867186492
  0
LINE
  8
0
 62
7
  6
CONTINUOUS
 10
87.7905432954
 20
228.273619115
 11
87.9903672473
 21
228.3229948335
  0
LINE
  8
0
 62
7
  6
CONTINUOUS
 10
87.1522981295
 20
228.5380633494
 11
86.9836237799
 21
228.5198372332
  0
LINE
  8
0
 62
7
  6
CONTINUOUS
 10
86.2860607509
 20
229.7781016595
 11
86.4547351005
 21
229.7963277757
  0
LINE
  8
0
 62
7
  6
CONTINUOUS
 10
90.7809500348
 20
231.2640258544
 11
90.9496243844
 21
231.2822519706
  0
LINE
  8
0
 62
7
  6
CONTINUOUS
 10
126.9881677129
 20
228.8879822329
 11
126.5789902031
 21
228.8458150425
  0
LINE
  8
0
 62
7
  6
CONTINUOUS
 10
87.845221644
 20
228.7796421637
 11
87.5701728625
 21
228.8054898489
  0
LINE
  8
0
 62
7
  6
CONTINUOUS
 10
90.8797028978
 20
231.6636751841
 11
90.7421781505
 21
231.6765986702
  0
LINE
  8
0
 62
7
  6
CONTINUOUS
 10
133.475143001
 20
221.6487657779
 11
133.6604702555
 21
221.6138867568
  0
LINE
  8
0
 62
7
  6
CONTINUOUS
 10
129.6712485956
 20
223.4968327279
 11
129.4859213411
 21
223.531711749
  0
LINE
  8
0
 62
7
  6
CONTINUOUS
 10
124.4930172497
 20
225.3652026233
 11
124.3076899952
 21
225.4000816444
  0
LINE
  8
0
 62
7
  6
CONTINUOUS
 10
125.7718273915
 20
226.6440127651
 11
125.586500137
 21
226.6788917862
  0
LINE
  8
0
 62
7
  6
CONTINUOUS
 10
126.6487482454
 20
228.4751605335
 11
126.8340754999
 21
228.4402815124
  0
LINE
  8
0
 62
7
  6
CONTINUOUS
 10
89.3752203532
 20
233.1681577287
 11
89.024948168
 21
233.2692302435
  0
LINE
  8
0
 62
7
  6
CONTINUOUS
 10
130.7212632087
 20
218.2342671586
 11
130.9799922817
 21
218.1259863322
  0
LINE
  8
0
 62
7
  6
CONTINUOUS
 10
132.7944811304
 20
220.6744966598
 11
132.535752064
 21
220.7827774928
  0
LINE
  8
0
 62
7
  6
CONTINUOUS
 10
123.8948684531
 20
225.0606619142
 11
124.1535977361
 21
224.9523808778
  0
LINE
  8
0
 62
7
  6
CONTINUOUS
 10
128.997875315
 20
223.1170683748
 11
129.2566048014
 21
223.0087871218
  0
LINE
  8
0
 62
7
  6
CONTINUOUS
 10
134.0732913249
 20
221.9533068543
 11
133.8145622585
 21
222.0615876873
  0
LINE
  8
0
 62
7
  6
CONTINUOUS
 10
125.1736785422
 20
226.3394720033
 11
125.432407924
 21
226.2311910657
  0
LINE
  8
0
 62
7
  6
CONTINUOUS
 10
108.2301474975
 20
235.8258877656
 11
107.2301474975
 21
236.8258877656
  0
LINE
  8
0
 62
7
  6
CONTINUOUS
 10
139.7570594321
 20
206.3700438105
 11
111.4727883523
 21
234.6543148903
  0
LINE
  8
0
 62
7
  6
CONTINUOUS
 10
120.66517634
 20
228.2903540273
 11
122.1332181428
 21
226.8223122245
  0
LINE
  8
0
 62
7
  6
CONTINUOUS
 10
122.647032821
 20
226.3084975463
 11
122.8672390967
 21
226.0882912706
  0
LINE
  8
0
 62
7
  6
CONTINUOUS
 10
123.7480641993
 20
225.207466168
 11
123.8948684531
 21
225.0606619142
  0
LINE
  8
0
 62
7
  6
CONTINUOUS
 10
126.5373435511
 20
222.4181868163
 11
126.7575498267
 21
222.1979805406
  0
LINE
  8
0
 62
7
  6
CONTINUOUS
 10
128.1888910386
 20
220.7666393288
 11
128.4090973142
 21
220.5464330531
  0
LINE
  8
0
 62
7
  6
CONTINUOUS
 10
129.4367260406
 20
219.5188043267
 11
129.6569323163
 21
219.298598051
  0
LINE
  8
0
 62
7
  6
CONTINUOUS
 10
130.537757419
 20
218.4177729484
 11
130.7212632087
 21
218.2342671586
  0
LINE
  8
0
 62
7
  6
CONTINUOUS
 10
131.1340843308
 20
218.5736873088
 11
130.8771775692
 21
218.8305940704
  0
LINE
  8
0
 62
7
  6
CONTINUOUS
 10
124.3076899952
 20
225.4000816444
 11
124.0874837195
 21
225.6202879201
  0
LINE
  8
0
 62
7
  6
CONTINUOUS
 10
122.5845628956
 20
227.2736569774
 11
121.3367273685
 21
228.5214925044
  0
LINE
  8
0
 62
7
  6
CONTINUOUS
 10
124.2452201748
 20
226.3652409705
 11
124.0617150151
 21
226.5487461302
  0
LINE
  8
0
 62
7
  6
CONTINUOUS
 10
129.4585904436
 20
221.302318935
 11
130.1926119225
 21
220.5682974561
  0
LINE
  8
0
 62
7
  6
CONTINUOUS
 10
130.4568070634
 20
220.9058952488
 11
129.7961882364
 21
221.5665140758
  0
LINE
  8
0
 62
7
  6
CONTINUOUS
 10
124.9901731725
 20
226.522977373
 11
125.1736785422
 21
226.3394720033
  0
LINE
  8
0
 62
7
  6
CONTINUOUS
 10
123.6397831629
 20
225.466195451
 11
123.7480641993
 21
225.207466168
  0
LINE
  8
0
 62
7
  6
CONTINUOUS
 10
124.8818922348
 20
226.7817067548
 11
124.9901731725
 21
226.522977373
  0
LINE
  8
0
 62
7
  6
CONTINUOUS
 10
130.4294765925
 20
218.6765020213
 11
130.537757419
 21
218.4177729484
  0
LINE
  8
0
 62
7
  6
CONTINUOUS
 10
127.5386834021
 20
228.3374665437
 11
127.430402359
 21
228.5961958201
  0
LINE
  8
0
 62
7
  6
CONTINUOUS
 10
125.3295929554
 20
226.9357989678
 11
125.2947139342
 21
227.1211262223
  0
LINE
  8
0
 62
7
  6
CONTINUOUS
 10
127.0909826815
 20
228.1833743308
 11
127.1258617027
 21
227.9980470762
  0
LINE
  8
0
 62
7
  6
CONTINUOUS
 10
130.8771775692
 20
218.8305940704
 11
130.842298548
 21
219.015921325
  0
LINE
  8
0
 62
7
  6
CONTINUOUS
 10
130.6142833022
 20
224.6600737101
 11
130.6491623233
 21
224.4747464556
  0
LINE
  8
0
 62
7
  6
CONTINUOUS
 10
132.6385668226
 20
220.0781698007
 11
132.6734458438
 21
219.8928425462
  0
LINE
  8
0
 62
7
  6
CONTINUOUS
 10
129.0797470362
 20
183.6719161344
 11
128.9017905172
 21
183.4939596154
  0
LINE
  8
0
 62
7
  6
CONTINUOUS
 10
128.372640255
 20
182.9648093532
 11
127.771599491
 21
182.3637685892
  0
LINE
  8
0
 62
7
  6
CONTINUOUS
 10
127.6301781347
 20
182.222347233
 11
127.0291373707
 21
181.621306469
  0
LINE
  8
0
 62
7
  6
CONTINUOUS
 10
126.2159645724
 20
180.8081336706
 11
125.6149238083
 21
180.2070929066
  0
LINE
  8
0
 62
7
  6
CONTINUOUS
 10
125.4735024521
 20
180.0656715504
 11
124.8724616881
 21
179.4646307864
  0
LINE
  8
0
 62
7
  6
CONTINUOUS
 10
129.2211683924
 20
182.823387997
 11
129.5040111049
 21
183.1062307095
  0
LINE
  8
0
 62
7
  6
CONTINUOUS
 10
127.80695483
 20
180.1363822285
 11
127.5241121176
 21
179.853539516
  0
LINE
  8
0
 62
7
  6
CONTINUOUS
 10
126.4988072848
 20
177.8382851896
 11
127.0998480488
 21
178.4393259536
  0
LINE
  8
0
 62
7
  6
CONTINUOUS
 10
127.9483761863
 20
179.2878540911
 11
128.1263327052
 21
179.46581061
  0
LINE
  8
0
 62
7
  6
CONTINUOUS
 10
128.6554829675
 20
179.9949608722
 11
129.2565237315
 21
180.5960016363
  0
LINE
  8
0
 62
7
  6
CONTINUOUS
 10
129.3979450877
 20
180.7374229925
 11
129.9989858517
 21
181.3384637565
  0
LINE
  8
0
 62
7
  6
CONTINUOUS
 10
130.8121586501
 20
182.1516365549
 11
131.4131994141
 21
182.7526773189
  0
LINE
  8
0
 62
7
  6
CONTINUOUS
 10
89.2764674903
 20
232.7685083989
 11
89.4451418399
 21
232.7867345151
  0
LINE
  8
0
 62
7
  6
CONTINUOUS
 10
110.0585747899
 20
235.2401013279
 11
109.6443610599
 21
235.2401013279
  0
LINE
  8
0
 62
7
  6
CONTINUOUS
 10
101.9875068104
 20
235.2401013279
 11
101.5732930803
 21
235.2401013279
  0
LINE
  8
0
 62
7
  6
CONTINUOUS
 10
127.2468969893
 20
228.7797011899
 11
126.9881677129
 21
228.8879822329
  0
LINE
  8
0
 62
7
  6
CONTINUOUS
 10
128.337256488
 20
223.7776872018
 11
128.997875315
 21
223.1170683748
  0
LINE
  8
0
 62
7
  6
CONTINUOUS
 10
125.586500137
 20
226.6788917862
 11
125.3295929554
 21
226.9357989678
  0
LINE
  8
0
 62
7
  6
CONTINUOUS
 10
132.381660061
 20
220.3350765623
 11
132.6385668226
 21
220.0781698007
  0
LINE
  8
0
 62
7
  6
CONTINUOUS
 10
129.4859213411
 20
223.531711749
 11
128.7886011881
 21
224.229031902
  0
LINE
  8
0
 62
7
  6
CONTINUOUS
 10
132.9779869202
 20
220.4909908701
 11
132.7944811304
 21
220.6744966598
  0
LINE
  8
0
 62
7
  6
CONTINUOUS
 10
133.7229399186
 20
220.6487276934
 11
133.9064448683
 21
220.4652227437
  0
LINE
  8
0
 62
7
  6
CONTINUOUS
 10
123.8245896625
 20
231.4497673498
 11
125.1091263056
 21
230.1652307067
  0
LINE
  8
0
 62
7
  6
CONTINUOUS
 10
126.8340754999
 20
228.4402815124
 11
127.0909826815
 21
228.1833743308
  0
LINE
  8
0
 62
7
  6
CONTINUOUS
 10
129.9169631492
 20
225.3573938631
 11
130.6142833022
 21
224.6600737101
  0
LINE
  8
0
 62
7
  6
CONTINUOUS
 10
133.6604702555
 20
221.6138867568
 11
133.8806765312
 21
221.3936804811
  0
LINE
  8
0
 62
7
  6
CONTINUOUS
 10
134.2200957887
 20
221.8065023905
 11
134.0732913249
 21
221.9533068543
  0
LINE
  8
0
 62
7
  6
CONTINUOUS
 10
132.6052500472
 20
223.421348132
 11
132.3116411196
 21
223.7149570596
  0
LINE
  8
0
 62
7
  6
CONTINUOUS
 10
130.9537025597
 20
225.0728956195
 11
130.072877457
 21
225.9537207222
  0
LINE
  8
0
 62
7
  6
CONTINUOUS
 10
127.430402359
 20
228.5961958201
 11
127.2468969893
 21
228.7797011899
  0
LINE
  8
0
 62
7
  6
CONTINUOUS
 10
126.4027730026
 20
229.6238251766
 11
126.182566727
 21
229.8440314522
  0
LINE
  8
0
 62
7
  6
CONTINUOUS
 10
125.6687520487
 20
230.3578461305
 11
124.200710246
 21
231.8258879332
  0
LINE
  8
0
 62
7
  6
CONTINUOUS
 10
131.0619838127
 20
224.8141661331
 11
130.9537025597
 21
225.0728956195
  0
LINE
  8
0
 62
7
  6
CONTINUOUS
 10
133.0862677532
 20
220.2322618037
 11
132.9779869202
 21
220.4909908701
  0
LINE
  8
0
 62
7
  6
CONTINUOUS
 10
134.3283766217
 20
221.5477733241
 11
134.2200957887
 21
221.8065023905
  0
LINE
  8
0
 62
7
  6
CONTINUOUS
 10
133.8806765312
 20
221.3936804811
 11
133.9155555523
 21
221.2083532266
  0
LINE
  8
0
 62
7
  6
CONTINUOUS
 10
183.6274590286
 20
196.1280531183
 11
183.6700577531
 21
196.6421432696
  0
LINE
  8
0
 62
7
  6
CONTINUOUS
 10
177.2338330128
 20
171.2260665495
 11
177.4410484201
 21
171.6984700952
  0
LINE
  8
0
 62
7
  6
CONTINUOUS
 10
163.1009694691
 20
149.7493452738
 11
163.4503465546
 21
150.1288699596
  0
LINE
  8
0
 62
7
  6
CONTINUOUS
 10
142.7603834563
 20
134.0252252871
 11
143.2140617917
 21
134.2707437243
  0
LINE
  8
0
 62
7
  6
CONTINUOUS
 10
106.0738599589
 20
280.9340840018
 11
105.5580079114
 21
280.9340840018
  0
LINE
  8
0
 62
7
  6
CONTINUOUS
 10
131.41877507
 20
276.6186852122
 11
130.9308733092
 21
276.7861820982
  0
LINE
  8
0
 62
7
  6
CONTINUOUS
 10
153.9892250751
 20
264.3076261485
 11
153.5821453275
 21
264.624469034
  0
LINE
  8
0
 62
7
  6
CONTINUOUS
 10
171.3393514995
 20
245.3350010862
 11
171.0572071723
 21
245.7668551282
  0
LINE
  8
0
 62
7
  6
CONTINUOUS
 10
181.5889989303
 20
221.7567883413
 11
181.4623647391
 21
222.2568554533
  0
LINE
  8
0
 62
7
  6
CONTINUOUS
 10
27.954254383
 20
87.2736263736
 11
27.954254383
 21
90.2736263736
  0
LINE
  8
0
 62
7
  6
CONTINUOUS
 10
29.9713626146
 20
87.2736263736
 11
29.9713626146
 21
90.2736263736
  0
LINE
  8
0
 62
7
  6
CONTINUOUS
 10
36.2159339351
 20
95.7736263736
 11
36.2159339351
 21
90.7736263736
  0
LINE
  8
0
 62
7
  6
CONTINUOUS
 10
36.2159339351
 20
86.7736263736
 11
36.2159339351
 21
81.7736263736
  0
LINE
  8
0
 62
7
  6
CONTINUOUS
 10
39.9060400859
 20
87.2736263736
 11
39.9060400859
 21
90.2736263736
  0
POLYLINE
  8
0
 62
7
  6
CONTINUOUS
 66
1
 70
0
  0
VERTEX
  8
0
 62
7
  6
CONTINUOUS
 10
36.2159339351
 20
91.0380420285
  0
VERTEX
  8
0
 62
7
  6
CONTINUOUS
 10
36.2092933161
 20
91.0250719745
  0
VERTEX
  8
0
 62
7
  6
CONTINUOUS
 10
36.1883242743
 20
90.9910493698
  0
VERTEX
  8
0
 62
7
  6
CONTINUOUS
 10
36.1622759094
 20
90.9559591273
  0
VERTEX
  8
0
 62
7
  6
CONTINUOUS
 10
36.1309515091
 20
90.9210363406
  0
VERTEX
  8
0
 62
7
  6
CONTINUOUS
 10
36.0944013975
 20
90.8875516448
  0
VERTEX
  8
0
 62
7
  6
CONTINUOUS
 10
36.0529069755
 20
90.8567115817
  0
VERTEX
  8
0
 62
7
  6
CONTINUOUS
 10
36.0063830366
 20
90.8293005766
  0
VERTEX
  8
0
 62
7
  6
CONTINUOUS
 10
35.9547286451
 20
90.806175714
  0
VERTEX
  8
0
 62
7
  6
CONTINUOUS
 10
35.8979822217
 20
90.7883714054
  0
VERTEX
  8
0
 62
7
  6
CONTINUOUS
 10
35.8363240792
 20
90.7770834685
  0
VERTEX
  8
0
 62
7
  6
CONTINUOUS
 10
35.7777811141
 20
90.7736259791
  0
SEQEND
  0
POLYLINE
  8
0
 62
7
  6
CONTINUOUS
 66
1
 70
0
  0
VERTEX
  8
0
 62
7
  6
CONTINUOUS
 10
37.5322903186
 20
90.9200993479
  0
VERTEX
  8
0
 62
7
  6
CONTINUOUS
 10
37.5321044848
 20
90.9198134435
  0
VERTEX
  8
0
 62
7
  6
CONTINUOUS
 10
37.5273021911
 20
90.9129494801
  0
VERTEX
  8
0
 62
7
  6
CONTINUOUS
 10
37.5158741597
 20
90.8989344678
  0
VERTEX
  8
0
 62
7
  6
CONTINUOUS
 10
37.4966410496
 20
90.8791515247
  0
VERTEX
  8
0
 62
7
  6
CONTINUOUS
 10
37.4684046224
 20
90.8553959139
  0
VERTEX
  8
0
 62
7
  6
CONTINUOUS
 10
37.4304209351
 20
90.8301619035
  0
VERTEX
  8
0
 62
7
  6
CONTINUOUS
 10
37.3825944031
 20
90.8064166659
  0
VERTEX
  8
0
 62
7
  6
CONTINUOUS
 10
37.3254271983
 20
90.7872515888
  0
SEQEND
  0
LINE
  8
0
 62
7
  6
CONTINUOUS
 10
56.7230000133
 20
87.2736263736
 11
56.7230000133
 21
90.2736263736
  0
LINE
  8
0
 62
7
  6
CONTINUOUS
 10
70.4103423441
 20
77.7736263736
 11
70.4103423441
 21
80.7736263736
  0
LINE
  8
0
 62
7
  6
CONTINUOUS
 10
70.4103423441
 20
96.7736263736
 11
70.4103423441
 21
99.7736263736
  0
LINE
  8
0
 62
7
  6
CONTINUOUS
 10
78.5998638467
 20
87.2736263736
 11
78.5998638467
 21
90.2736263736
  0
POLYLINE
  8
0
 62
7
  6
CONTINUOUS
 66
1
 70
0
  0
VERTEX
  8
0
 62
7
  6
CONTINUOUS
 10
37.3243081757
 20
86.7602876557
  0
VERTEX
  8
0
 62
7
  6
CONTINUOUS
 10
37.3806200358
 20
86.7416543781
  0
VERTEX
  8
0
 62
7
  6
CONTINUOUS
 10
37.4277611967
 20
86.7186256979
  0
VERTEX
  8
0
 62
7
  6
CONTINUOUS
 10
37.4655757538
 20
86.6939728914
  0
VERTEX
  8
0
 62
7
  6
CONTINUOUS
 10
37.4941353718
 20
86.6704299014
  0
VERTEX
  8
0
 62
7
  6
CONTINUOUS
 10
37.5140314083
 20
86.6503860953
  0
VERTEX
  8
0
 62
7
  6
CONTINUOUS
 10
37.5261813779
 20
86.6357920236
  0
VERTEX
  8
0
 62
7
  6
CONTINUOUS
 10
37.5317179747
 20
86.628036749
  0
VERTEX
  8
0
 62
7
  6
CONTINUOUS
 10
37.5323964159
 20
86.6269745531
  0
SEQEND
  0
POLYLINE
  8
0
 62
7
  6
CONTINUOUS
 66
1
 70
0
  0
VERTEX
  8
0
 62
7
  6
CONTINUOUS
 10
174.3063838698
 20
86.7599862902
  0
VERTEX
  8
0
 62
7
  6
CONTINUOUS
 10
174.3722486881
 20
86.7715907327
  0
VERTEX
  8
0
 62
7
  6
CONTINUOUS
 10
174.4142905453
 20
86.7736268024
  0
SEQEND
  0
LINE
  8
0
 62
7
  6
CONTINUOUS
 10
139.7215255247
 20
76.2736263736
 11
71.9103423456
 21
76.2736263736
  0
LINE
  8
0
 62
7
  6
CONTINUOUS
 10
37.2592041582
 20
86.7716308611
 11
37.3243081757
 21
86.7602876557
  0
LINE
  8
0
 62
7
  6
CONTINUOUS
 10
174.4159339351
 20
80.7736263736
 11
37.2159339351
 21
80.7736263736
  0
LINE
  8
0
 62
7
  6
CONTINUOUS
 10
37.217578107
 20
86.7736267984
 11
37.2592041582
 21
86.7716308611
  0
POLYLINE
  8
0
 62
7
  6
CONTINUOUS
 66
1
 70
0
  0
VERTEX
  8
0
 62
7
  6
CONTINUOUS
 10
35.7777856997
 20
86.773626797
  0
VERTEX
  8
0
 62
7
  6
CONTINUOUS
 10
35.8374850904
 20
86.770030208
  0
VERTEX
  8
0
 62
7
  6
CONTINUOUS
 10
35.900158501
 20
86.7583337999
  0
VERTEX
  8
0
 62
7
  6
CONTINUOUS
 10
35.9577413028
 20
86.7399181086
  0
VERTEX
  8
0
 62
7
  6
CONTINUOUS
 10
36.0100304071
 20
86.7160431827
  0
VERTEX
  8
0
 62
7
  6
CONTINUOUS
 10
36.0569786746
 20
86.6878035367
  0
VERTEX
  8
0
 62
7
  6
CONTINUOUS
 10
36.0986942031
 20
86.6561062723
  0
VERTEX
  8
0
 62
7
  6
CONTINUOUS
 10
36.1352433361
 20
86.6218133944
  0
VERTEX
  8
0
 62
7
  6
CONTINUOUS
 10
36.1663790418
 20
86.5861848386
  0
VERTEX
  8
0
 62
7
  6
CONTINUOUS
 10
36.1921197571
 20
86.5504938628
  0
VERTEX
  8
0
 62
7
  6
CONTINUOUS
 10
36.2126973396
 20
86.5160006608
  0
VERTEX
  8
0
 62
7
  6
CONTINUOUS
 10
36.2159339351
 20
86.5094414743
  0
SEQEND
  0
LINE
  8
0
 62
7
  6
CONTINUOUS
 10
183.1776138543
 20
86.7736263736
 11
173.0151665496
 21
86.7736263736
  0
LINE
  8
0
 62
7
  6
CONTINUOUS
 10
171.2258271591
 20
86.7736263736
 11
162.8941703434
 21
86.7736263736
  0
LINE
  8
0
 62
7
  6
CONTINUOUS
 10
154.4088648571
 20
86.7736263736
 11
146.5878615623
 21
86.7736263736
  0
LINE
  8
0
 62
7
  6
CONTINUOUS
 10
132.5320029857
 20
86.7736263736
 11
125.8632817812
 21
86.7736263736
  0
LINE
  8
0
 62
7
  6
CONTINUOUS
 10
108.6656070759
 20
86.7736263736
 11
102.9662607943
 21
86.7736263736
  0
LINE
  8
0
 62
7
  6
CONTINUOUS
 10
85.7685860889
 20
86.7736263736
 11
79.0998648382
 21
86.7736263736
  0
LINE
  8
0
 62
7
  6
CONTINUOUS
 10
65.0440063079
 20
86.7736263736
 11
57.2230029969
 21
86.7736263736
  0
LINE
  8
0
 62
7
  6
CONTINUOUS
 10
48.7376975268
 20
86.7736263736
 11
40.4060407366
 21
86.7736263736
  0
LINE
  8
0
 62
7
  6
CONTINUOUS
 10
38.6167013207
 20
86.7736263736
 11
28.4544573098
 21
86.7736263736
  0
LINE
  8
0
 62
7
  6
CONTINUOUS
 10
28.4544582313
 20
90.7736263736
 11
38.6167012991
 21
90.7736263736
  0
LINE
  8
0
 62
7
  6
CONTINUOUS
 10
40.406697815
 20
90.7736263736
 11
48.7376974817
 21
90.7736263736
  0
LINE
  8
0
 62
7
  6
CONTINUOUS
 10
57.2230029969
 20
90.7736263736
 11
65.044006244
 21
90.7736263736
  0
LINE
  8
0
 62
7
  6
CONTINUOUS
 10
79.0998648382
 20
90.7736263736
 11
85.7685860124
 21
90.7736263736
  0
LINE
  8
0
 62
7
  6
CONTINUOUS
 10
102.9662608739
 20
90.7736263736
 11
108.6656069967
 21
90.7736263736
  0
LINE
  8
0
 62
7
  6
CONTINUOUS
 10
125.8632818572
 20
90.7736263736
 11
132.5320029857
 21
90.7736263736
  0
LINE
  8
0
 62
7
  6
CONTINUOUS
 10
146.5878616265
 20
90.7736263736
 11
154.4088648571
 21
90.7736263736
  0
LINE
  8
0
 62
7
  6
CONTINUOUS
 10
162.8941703888
 20
90.7736263736
 11
171.2258271591
 21
90.7736263736
  0
LINE
  8
0
 62
7
  6
CONTINUOUS
 10
173.0151665712
 20
90.7736263736
 11
183.1774110826
 21
90.7736263736
  0
LINE
  8
0
 62
7
  6
CONTINUOUS
 10
174.4142890716
 20
90.7736259745
 11
174.3726469845
 21
90.7756232182
  0
LINE
  8
0
 62
7
  6
CONTINUOUS
 10
174.4159339351
 20
96.7736263736
 11
37.2159339351
 21
96.7736263736
  0
POLYLINE
  8
0
 62
7
  6
CONTINUOUS
 66
1
 70
0
  0
VERTEX
  8
0
 62
7
  6
CONTINUOUS
 10
175.8540868211
 20
90.7736259811
  0
VERTEX
  8
0
 62
7
  6
CONTINUOUS
 10
175.7948235258
 20
90.7771693841
  0
VERTEX
  8
0
 62
7
  6
CONTINUOUS
 10
175.7325290275
 20
90.7887114001
  0
VERTEX
  8
0
 62
7
  6
CONTINUOUS
 10
175.6752559907
 20
90.8068973731
  0
VERTEX
  8
0
 62
7
  6
CONTINUOUS
 10
175.6232012567
 20
90.8304910519
  0
VERTEX
  8
0
 62
7
  6
CONTINUOUS
 10
175.576410623
 20
90.8584191938
  0
VERTEX
  8
0
 62
7
  6
CONTINUOUS
 10
175.5347800711
 20
90.8897913914
  0
VERTEX
  8
0
 62
7
  6
CONTINUOUS
 10
175.4982341108
 20
90.9237751429
  0
VERTEX
  8
0
 62
7
  6
CONTINUOUS
 10
175.4670278941
 20
90.9591353962
  0
VERTEX
  8
0
 62
7
  6
CONTINUOUS
 10
175.44116402
 20
90.9946088857
  0
VERTEX
  8
0
 62
7
  6
CONTINUOUS
 10
175.4204232866
 20
91.0289529769
  0
VERTEX
  8
0
 62
7
  6
CONTINUOUS
 10
175.4159339351
 20
91.0379268616
  0
SEQEND
  0
POLYLINE
  8
0
 62
7
  6
CONTINUOUS
 66
1
 70
0
  0
VERTEX
  8
0
 62
7
  6
CONTINUOUS
 10
37.3254271983
 20
90.7872515888
  0
VERTEX
  8
0
 62
7
  6
CONTINUOUS
 10
37.2595998594
 20
90.7756598607
  0
VERTEX
  8
0
 62
7
  6
CONTINUOUS
 10
37.2175780787
 20
90.7736259761
  0
SEQEND
  0
LINE
  8
0
 62
7
  6
CONTINUOUS
 10
71.9103423456
 20
101.2736263736
 11
139.7215255261
 21
101.2736263736
  0
LINE
  8
0
 62
7
  6
CONTINUOUS
 10
174.3726469845
 20
90.7756232182
 11
174.3075299139
 21
90.7869724458
  0
POLYLINE
  8
0
 62
7
  6
CONTINUOUS
 66
1
 70
0
  0
VERTEX
  8
0
 62
7
  6
CONTINUOUS
 10
174.3075299139
 20
90.7869724458
  0
VERTEX
  8
0
 62
7
  6
CONTINUOUS
 10
174.2511837124
 20
90.8056248298
  0
VERTEX
  8
0
 62
7
  6
CONTINUOUS
 10
174.2040219625
 20
90.8286754882
  0
VERTEX
  8
0
 62
7
  6
CONTINUOUS
 10
174.166217611
 20
90.8533351096
  0
VERTEX
  8
0
 62
7
  6
CONTINUOUS
 10
174.1376590562
 20
90.876890629
  0
VERTEX
  8
0
 62
7
  6
CONTINUOUS
 10
174.117788818
 20
90.8969192703
  0
VERTEX
  8
0
 62
7
  6
CONTINUOUS
 10
174.1056708591
 20
90.9114816479
  0
VERTEX
  8
0
 62
7
  6
CONTINUOUS
 10
174.1001369941
 20
90.9192357734
  0
VERTEX
  8
0
 62
7
  6
CONTINUOUS
 10
174.0994726778
 20
90.9202755966
  0
SEQEND
  0
LINE
  8
0
 62
7
  6
CONTINUOUS
 10
133.0320040236
 20
87.2736263736
 11
133.0320040236
 21
90.2736263736
  0
LINE
  8
0
 62
7
  6
CONTINUOUS
 10
141.2215255261
 20
77.7736263736
 11
141.2215255261
 21
80.7736263736
  0
LINE
  8
0
 62
7
  6
CONTINUOUS
 10
141.2215255261
 20
96.7736263736
 11
141.2215255261
 21
99.7736263736
  0
LINE
  8
0
 62
7
  6
CONTINUOUS
 10
154.9088678569
 20
87.2736263736
 11
154.9088678569
 21
90.2736263736
  0
POLYLINE
  8
0
 62
7
  6
CONTINUOUS
 66
1
 70
0
  0
VERTEX
  8
0
 62
7
  6
CONTINUOUS
 10
174.0995785116
 20
86.6271544364
  0
VERTEX
  8
0
 62
7
  6
CONTINUOUS
 10
174.0997654777
 20
86.6274424498
  0
VERTEX
  8
0
 62
7
  6
CONTINUOUS
 10
174.1045424921
 20
86.6342726131
  0
VERTEX
  8
0
 62
7
  6
CONTINUOUS
 10
174.1159542746
 20
86.6482731906
  0
VERTEX
  8
0
 62
7
  6
CONTINUOUS
 10
174.1351697529
 20
86.6680477969
  0
VERTEX
  8
0
 62
7
  6
CONTINUOUS
 10
174.1633761092
 20
86.6917910851
  0
VERTEX
  8
0
 62
7
  6
CONTINUOUS
 10
174.2013677493
 20
86.7170446924
  0
VERTEX
  8
0
 62
7
  6
CONTINUOUS
 10
174.2492029637
 20
86.7408067196
  0
VERTEX
  8
0
 62
7
  6
CONTINUOUS
 10
174.3063838698
 20
86.7599862902
  0
SEQEND
  0
POLYLINE
  8
0
 62
7
  6
CONTINUOUS
 66
1
 70
0
  0
VERTEX
  8
0
 62
7
  6
CONTINUOUS
 10
175.4159339351
 20
86.5092633895
  0
VERTEX
  8
0
 62
7
  6
CONTINUOUS
 10
175.4213817205
 20
86.5200402093
  0
VERTEX
  8
0
 62
7
  6
CONTINUOUS
 10
175.4422077687
 20
86.5542142669
  0
VERTEX
  8
0
 62
7
  6
CONTINUOUS
 10
175.468145485
 20
86.5895087574
  0
VERTEX
  8
0
 62
7
  6
CONTINUOUS
 10
175.4994064968
 20
86.6246798952
  0
VERTEX
  8
0
 62
7
  6
CONTINUOUS
 10
175.535962309
 20
86.658450718
  0
VERTEX
  8
0
 62
7
  6
CONTINUOUS
 10
175.5775385369
 20
86.6895912504
  0
VERTEX
  8
0
 62
7
  6
CONTINUOUS
 10
175.6242127081
 20
86.7172905154
  0
VERTEX
  8
0
 62
7
  6
CONTINUOUS
 10
175.6760886226
 20
86.740675266
  0
VERTEX
  8
0
 62
7
  6
CONTINUOUS
 10
175.7331255326
 20
86.7586911819
  0
VERTEX
  8
0
 62
7
  6
CONTINUOUS
 10
175.7951363475
 20
86.7701207486
  0
VERTEX
  8
0
 62
7
  6
CONTINUOUS
 10
175.8540821214
 20
86.7736267935
  0
SEQEND
  0
LINE
  8
0
 62
7
  6
CONTINUOUS
 10
171.7258277844
 20
87.2736263736
 11
171.7258277844
 21
90.2736263736
  0
LINE
  8
0
 62
7
  6
CONTINUOUS
 10
175.4159339351
 20
95.7736263736
 11
175.4159339351
 21
90.7736263736
  0
LINE
  8
0
 62
7
  6
CONTINUOUS
 10
175.4159339351
 20
86.7736263736
 11
175.4159339351
 21
81.7736263736
  0
LINE
  8
0
 62
7
  6
CONTINUOUS
 10
181.6605052557
 20
87.2736263736
 11
181.6605052557
 21
90.2736263736
  0
LINE
  8
0
 62
7
  6
CONTINUOUS
 10
183.6776134872
 20
87.2736263736
 11
183.6776134872
 21
90.2736263736
  0
ARC
  8
0
 62
7
  6
CONTINUOUS
 10
50.2912580078
 20
151.3806435467
 40
2.4
 50
222.8207991708
 51
309.0115789474
  0
ARC
  8
0
 62
7
  6
CONTINUOUS
 10
49.952617222
 20
151.7485055021
 40
2.4
 50
136.2515789474
 51
222.4423587239
  0
ARC
  8
0
 62
7
  6
CONTINUOUS
 10
56.6013221601
 20
150.8298756127
 40
2.0
 50
46.578909686
 51
129.0115789474
  0
ARC
  8
0
 62
7
  6
CONTINUOUS
 10
49.9248114073
 20
158.0824996416
 40
2.0
 50
316.2515789474
 51
38.6842482088
  0
ARC
  8
0
 62
7
  6
CONTINUOUS
 10
30.3955440558
 20
196.334141419
 40
2.4
 50
184.9260623287
 51
271.1168421053
  0
ARC
  8
0
 62
7
  6
CONTINUOUS
 10
30.354254383
 20
196.8324336655
 40
2.4
 50
98.3568421053
 51
184.5476218818
  0
ARC
  8
0
 62
7
  6
CONTINUOUS
 10
36.5926950083
 20
172.1973887525
 40
2.4
 50
203.8734307498
 51
290.0642105263
  0
ARC
  8
0
 62
7
  6
CONTINUOUS
 10
36.391847296
 20
172.6552754158
 40
2.4
 50
117.3042105263
 51
203.4949903029
  0
ARC
  8
0
 62
7
  6
CONTINUOUS
 10
35.0367826284
 20
192.0237865108
 40
2.0
 50
8.6841728439
 51
91.1168421053
  0
ARC
  8
0
 62
7
  6
CONTINUOUS
 10
34.2227314108
 20
201.8479237122
 40
2.0
 50
278.3568421053
 51
0.7895113667
  0
ARC
  8
0
 62
7
  6
CONTINUOUS
 10
42.3820284239
 20
169.6275884634
 40
2.0
 50
27.6315412649
 51
110.0642105263
  0
ARC
  8
0
 62
7
  6
CONTINUOUS
 10
38.4221926121
 20
178.6551048151
 40
2.0
 50
297.3042105263
 51
19.7368797877
  0
ARC
  8
0
 62
7
  6
CONTINUOUS
 10
70.0067811982
 20
136.1397231498
 40
2.4
 50
241.7681675919
 51
327.9589473684
  0
ARC
  8
0
 62
7
  6
CONTINUOUS
 10
69.5670443226
 20
136.3776968463
 40
2.4
 50
155.1989473684
 51
241.389727145
  0
ARC
  8
0
 62
7
  6
CONTINUOUS
 10
93.6027817238
 20
128.126217774
 40
2.4
 50
260.7155360129
 51
346.9063157895
  0
ARC
  8
0
 62
7
  6
CONTINUOUS
 10
93.1096010721
 20
128.2085150692
 40
2.4
 50
174.1463157895
 51
260.337095566
  0
ARC
  8
0
 62
7
  6
CONTINUOUS
 10
76.1537827255
 20
137.6676718225
 40
2.0
 50
65.526278107
 51
147.9589473684
  0
ARC
  8
0
 62
7
  6
CONTINUOUS
 10
67.4841005685
 20
142.359469179
 40
2.0
 50
335.1989473684
 51
57.6316166298
  0
ARC
  8
0
 62
7
  6
CONTINUOUS
 10
98.9205976301
 20
131.5673061062
 40
2.0
 50
84.4736465281
 51
166.9063157895
  0
ARC
  8
0
 62
7
  6
CONTINUOUS
 10
89.1972386547
 20
133.189847746
 40
2.0
 50
354.1463157895
 51
76.5789850509
  0
ARC
  8
0
 62
7
  6
CONTINUOUS
 10
75.4103423441
 20
202.8345099046
 40
5.0
 50
135.0
 51
225.0
  0
ARC
  8
0
 62
7
  6
CONTINUOUS
 10
79.6529830312
 20
202.8345099046
 40
3.2
 50
92.2544307753
 51
267.7455692247
  0
ARC
  8
0
 62
7
  6
CONTINUOUS
 10
79.4012256703
 20
196.4394635223
 40
3.2
 50
45.0
 51
87.7455692247
  0
ARC
  8
0
 62
7
  6
CONTINUOUS
 10
81.5225460139
 20
194.3181431788
 40
3.2
 50
3.5903778907
 51
45.0
  0
ARC
  8
0
 62
7
  6
CONTINUOUS
 10
87.909984473
 20
194.718929819
 40
3.2
 50
183.5903778907
 51
225.0
  0
ARC
  8
0
 62
7
  6
CONTINUOUS
 10
97.7003538496
 20
184.9285604424
 40
3.2
 50
225.0
 51
266.4096221093
  0
ARC
  8
0
 62
7
  6
CONTINUOUS
 10
97.2995672093
 20
178.5411219833
 40
3.2
 50
45.0
 51
86.4096221093
  0
ARC
  8
0
 62
7
  6
CONTINUOUS
 10
99.4208875529
 20
176.4198016398
 40
3.2
 50
2.2544307753
 51
45.0
  0
ARC
  8
0
 62
7
  6
CONTINUOUS
 10
32.3713626146
 20
221.1753098746
 40
2.4
 50
165.9786939077
 51
252.1694736842
  0
ARC
  8
0
 62
7
  6
CONTINUOUS
 10
32.4941053581
 20
221.6600100076
 40
2.4
 50
79.4094736842
 51
165.6002534608
  0
ARC
  8
0
 62
7
  6
CONTINUOUS
 10
43.3211546764
 20
237.7767846647
 40
2.0
 50
330.7894360018
 51
53.2221052632
  0
ARC
  8
0
 62
7
  6
CONTINUOUS
 10
35.3615561286
 20
215.5914941835
 40
2.0
 50
349.7368044228
 51
72.1694736842
  0
ARC
  8
0
 62
7
  6
CONTINUOUS
 10
37.7815045861
 20
225.1476545317
 40
2.0
 50
259.4094736842
 51
341.8421429456
  0
ARC
  8
0
 62
7
  6
CONTINUOUS
 10
59.1230000133
 20
262.4185675188
 40
2.4
 50
128.0839570656
 51
214.2747368421
  0
ARC
  8
0
 62
7
  6
CONTINUOUS
 10
59.517570268
 20
262.7256738751
 40
2.4
 50
41.5147368421
 51
127.7055166186
  0
ARC
  8
0
 62
7
  6
CONTINUOUS
 10
42.3060400859
 20
244.0289680665
 40
2.4
 50
147.0313254866
 51
233.2221052632
  0
ARC
  8
0
 62
7
  6
CONTINUOUS
 10
42.5795141649
 20
244.4475513057
 40
2.4
 50
60.4621052632
 51
146.6528850397
  0
ARC
  8
0
 62
7
  6
CONTINUOUS
 10
58.0530322634
 20
256.1755374903
 40
2.0
 50
311.8420675807
 51
34.2747368421
  0
ARC
  8
0
 62
7
  6
CONTINUOUS
 10
65.8322267922
 20
262.2303276286
 40
2.0
 50
221.5147368421
 51
303.9474061035
  0
ARC
  8
0
 62
7
  6
CONTINUOUS
 10
48.7128638443
 20
246.0294099068
 40
2.0
 50
240.4621052632
 51
322.8947745246
  0
ARC
  8
0
 62
7
  6
CONTINUOUS
 10
99.4208875529
 20
229.2492181694
 40
3.2
 50
315.0
 51
357.7455692247
  0
ARC
  8
0
 62
7
  6
CONTINUOUS
 10
97.2995672093
 20
227.1278978258
 40
3.2
 50
273.5903778907
 51
315.0
  0
ARC
  8
0
 62
7
  6
CONTINUOUS
 10
97.7003538496
 20
220.7404593667
 40
3.2
 50
93.5903778907
 51
135.0
  0
ARC
  8
0
 62
7
  6
CONTINUOUS
 10
87.909984473
 20
210.9500899901
 40
3.2
 50
135.0
 51
176.4096221093
  0
ARC
  8
0
 62
7
  6
CONTINUOUS
 10
81.5225460139
 20
211.3508766304
 40
3.2
 50
315.0
 51
356.4096221093
  0
ARC
  8
0
 62
7
  6
CONTINUOUS
 10
79.4012256703
 20
209.2295562868
 40
3.2
 50
272.2544307753
 51
315.0
  0
ARC
  8
0
 62
7
  6
CONTINUOUS
 10
101.5732930803
 20
233.2401013279
 40
2.0
 50
90.0
 51
135.0
  0
ARC
  8
0
 62
7
  6
CONTINUOUS
 10
101.9875068104
 20
237.2401013279
 40
2.0
 50
270.0
 51
315.0
  0
ARC
  8
0
 62
7
  6
CONTINUOUS
 10
105.5659339351
 20
278.5340970897
 40
2.4
 50
90.1892202235
 51
176.38
  0
ARC
  8
0
 62
7
  6
CONTINUOUS
 10
80.9998638467
 20
274.3513097866
 40
2.4
 50
109.1365886445
 51
195.3273684211
  0
ARC
  8
0
 62
7
  6
CONTINUOUS
 10
81.4727724675
 20
274.5136595212
 40
2.4
 50
22.5673684211
 51
108.7581481976
  0
ARC
  8
0
 62
7
  6
CONTINUOUS
 10
100.8870306307
 20
274.264656987
 40
2.0
 50
273.9473307386
 51
356.38
  0
ARC
  8
0
 62
7
  6
CONTINUOUS
 10
77.9607613643
 20
268.7939623056
 40
2.0
 50
292.8946991597
 51
15.3273684211
  0
ARC
  8
0
 62
7
  6
CONTINUOUS
 10
87.2844448202
 20
271.994786879
 40
2.0
 50
202.5673684211
 51
285.0000376825
  0
ARC
  8
0
 62
7
  6
CONTINUOUS
 10
118.5222667981
 20
128.2085150692
 40
2.4
 50
279.662904434
 51
5.8536842105
  0
ARC
  8
0
 62
7
  6
CONTINUOUS
 10
118.0290861464
 20
128.126217774
 40
2.4
 50
193.0936842105
 51
279.2844639871
  0
ARC
  8
0
 62
7
  6
CONTINUOUS
 10
142.0648235477
 20
136.3776968463
 40
2.4
 50
298.610272855
 51
24.8010526316
  0
ARC
  8
0
 62
7
  6
CONTINUOUS
 10
141.6250866721
 20
136.1397231498
 40
2.4
 50
212.0410526316
 51
298.2318324081
  0
ARC
  8
0
 62
7
  6
CONTINUOUS
 10
122.4346292155
 20
133.189847746
 40
2.0
 50
103.4210149491
 51
185.8536842105
  0
ARC
  8
0
 62
7
  6
CONTINUOUS
 10
112.7112702402
 20
131.5673061062
 40
2.0
 50
13.0936842105
 51
95.5263534719
  0
ARC
  8
0
 62
7
  6
CONTINUOUS
 10
135.4780851448
 20
137.6676718225
 40
2.0
 50
32.0410526316
 51
114.473721893
  0
ARC
  8
0
 62
7
  6
CONTINUOUS
 10
105.8159339351
 20
172.4289183135
 40
5.0
 50
225.0
 51
315.0
  0
ARC
  8
0
 62
7
  6
CONTINUOUS
 10
105.8159339351
 20
176.6715590007
 40
3.2
 50
182.2544307753
 51
357.7455692247
  0
ARC
  8
0
 62
7
  6
CONTINUOUS
 10
112.2109803174
 20
176.4198016398
 40
3.2
 50
135.0
 51
177.7455692247
  0
ARC
  8
0
 62
7
  6
CONTINUOUS
 10
114.3323006609
 20
178.5411219833
 40
3.2
 50
93.5903778907
 51
135.0
  0
ARC
  8
0
 62
7
  6
CONTINUOUS
 10
113.9315140207
 20
184.9285604424
 40
3.2
 50
273.5903778907
 51
315.0
  0
ARC
  8
0
 62
7
  6
CONTINUOUS
 10
105.8159339351
 20
202.8345099046
 40
78.1
 50
89.8107797765
 51
90.1892202235
  0
ARC
  8
0
 62
7
  6
CONTINUOUS
 10
105.8159339351
 20
202.8345099046
 40
78.1
 50
108.7581481976
 51
109.1365886445
  0
ARC
  8
0
 62
7
  6
CONTINUOUS
 10
105.8159339351
 20
202.8345099046
 40
78.1
 50
127.7055166186
 51
128.0839570656
  0
ARC
  8
0
 62
7
  6
CONTINUOUS
 10
105.8159339351
 20
202.8345099046
 40
78.1
 50
146.6528850397
 51
147.0313254866
  0
ARC
  8
0
 62
7
  6
CONTINUOUS
 10
105.8159339351
 20
202.8345099046
 40
78.1
 50
165.6002534608
 51
165.9786939077
  0
ARC
  8
0
 62
7
  6
CONTINUOUS
 10
105.8159339351
 20
202.8345099046
 40
78.1
 50
184.5476218818
 51
184.9260623287
  0
ARC
  8
0
 62
7
  6
CONTINUOUS
 10
105.8159339351
 20
202.8345099046
 40
78.1
 50
203.4949903029
 51
203.8734307498
  0
ARC
  8
0
 62
7
  6
CONTINUOUS
 10
105.8159339351
 20
202.8345099046
 40
78.1
 50
222.4423587239
 51
222.8207991708
  0
ARC
  8
0
 62
7
  6
CONTINUOUS
 10
105.8159339351
 20
202.8345099046
 40
78.1
 50
241.389727145
 51
241.7681675919
  0
ARC
  8
0
 62
7
  6
CONTINUOUS
 10
105.8159339351
 20
202.8345099046
 40
78.1
 50
260.337095566
 51
260.7155360129
  0
ARC
  8
0
 62
7
  6
CONTINUOUS
 10
105.8159339351
 20
202.8345099046
 40
78.1
 50
279.2844639871
 51
279.662904434
  0
ARC
  8
0
 62
7
  6
CONTINUOUS
 10
105.8159339351
 20
202.8345099046
 40
78.1
 50
298.2318324081
 51
298.610272855
  0
ARC
  8
0
 62
7
  6
CONTINUOUS
 10
105.8159339351
 20
202.8345099046
 40
78.1
 50
317.1792008292
 51
317.5576412761
  0
ARC
  8
0
 62
7
  6
CONTINUOUS
 10
105.8159339351
 20
202.8345099046
 40
78.1
 50
336.1265692502
 51
336.5050096971
  0
ARC
  8
0
 62
7
  6
CONTINUOUS
 10
105.8159339351
 20
202.8345099046
 40
78.1
 50
355.0739376713
 51
355.4523781182
  0
ARC
  8
0
 62
7
  6
CONTINUOUS
 10
105.8159339351
 20
202.8345099046
 40
78.1
 50
14.0213060923
 51
14.3997465392
  0
ARC
  8
0
 62
7
  6
CONTINUOUS
 10
105.8159339351
 20
202.8345099046
 40
78.1
 50
32.9686745134
 51
33.3471149603
  0
ARC
  8
0
 62
7
  6
CONTINUOUS
 10
105.8159339351
 20
202.8345099046
 40
78.1
 50
51.9160429344
 51
52.2944833814
  0
ARC
  8
0
 62
7
  6
CONTINUOUS
 10
105.8159339351
 20
202.8345099046
 40
78.1
 50
70.8634113555
 51
71.2418518024
  0
CIRCLE
  8
0
 62
7
  6
CONTINUOUS
 10
105.8159339351
 20
202.8345099046
 40
69.6
  0
CIRCLE
  8
0
 62
7
  6
CONTINUOUS
 10
127.80695483
 20
177.1311784084
 40
1.275
  0
ARC
  8
0
 62
7
  6
CONTINUOUS
 10
127.2412694051
 20
179.9949608722
 40
1.0
 50
225.0
 51
315.0
  0
ARC
  8
0
 62
7
  6
CONTINUOUS
 10
129.7868538173
 20
182.9648093532
 40
1.0
 50
45.0
 51
135.0
  0
ARC
  8
0
 62
7
  6
CONTINUOUS
 10
127.4899366022
 20
180.1022067131
 40
0.9
 50
315.0
 51
11.2510114041
  0
ARC
  8
0
 62
7
  6
CONTINUOUS
 10
129.5381866203
 20
182.8575635124
 40
0.9
 50
135.0
 51
191.2510114041
  0
ARC
  8
0
 62
7
  6
CONTINUOUS
 10
127.4534014394
 20
180.4899356191
 40
0.5
 50
315.0
 51
45.0
  0
ARC
  8
0
 62
7
  6
CONTINUOUS
 10
129.574721783
 20
182.4698346064
 40
0.5
 50
135.0
 51
225.0
  0
ARC
  8
0
 62
7
  6
CONTINUOUS
 10
127.3473354223
 20
180.0303162113
 40
0.25
 50
225.0
 51
315.0
  0
ARC
  8
0
 62
7
  6
CONTINUOUS
 10
129.6807878002
 20
182.9294540142
 40
0.25
 50
45.0
 51
135.0
  0
ARC
  8
0
 62
7
  6
CONTINUOUS
 10
136.2215255261
 20
202.8345099046
 40
5.0
 50
315.0
 51
45.0
  0
ARC
  8
0
 62
7
  6
CONTINUOUS
 10
123.7218833972
 20
194.718929819
 40
3.2
 50
315.0
 51
356.4096221093
  0
ARC
  8
0
 62
7
  6
CONTINUOUS
 10
130.1093218564
 20
194.3181431788
 40
3.2
 50
135.0
 51
176.4096221093
  0
ARC
  8
0
 62
7
  6
CONTINUOUS
 10
132.2306421999
 20
196.4394635223
 40
3.2
 50
92.2544307753
 51
135.0
  0
ARC
  8
0
 62
7
  6
CONTINUOUS
 10
131.978884839
 20
202.8345099046
 40
3.2
 50
272.2544307753
 51
87.7455692247
  0
ARC
  8
0
 62
7
  6
CONTINUOUS
 10
161.6792506482
 20
151.7485055021
 40
2.4
 50
317.5576412761
 51
43.7484210526
  0
ARC
  8
0
 62
7
  6
CONTINUOUS
 10
161.3406098624
 20
151.3806435467
 40
2.4
 50
230.9884210526
 51
317.1792008292
  0
ARC
  8
0
 62
7
  6
CONTINUOUS
 10
144.1477673017
 20
142.359469179
 40
2.0
 50
122.3683833702
 51
204.8010526316
  0
ARC
  8
0
 62
7
  6
CONTINUOUS
 10
161.707056463
 20
158.0824996416
 40
2.0
 50
141.3157517912
 51
223.7484210526
  0
ARC
  8
0
 62
7
  6
CONTINUOUS
 10
155.0305457101
 20
150.8298756127
 40
2.0
 50
50.9884210526
 51
133.421090314
  0
ARC
  8
0
 62
7
  6
CONTINUOUS
 10
175.2400205742
 20
172.6552754158
 40
2.4
 50
336.5050096971
 51
62.6957894737
  0
ARC
  8
0
 62
7
  6
CONTINUOUS
 10
175.0391728619
 20
172.1973887525
 40
2.4
 50
249.9357894737
 51
336.1265692502
  0
ARC
  8
0
 62
7
  6
CONTINUOUS
 10
181.2776134872
 20
196.8324336655
 40
2.4
 50
355.4523781182
 51
81.6431578947
  0
ARC
  8
0
 62
7
  6
CONTINUOUS
 10
181.2363238145
 20
196.334141419
 40
2.4
 50
268.8831578947
 51
355.0739376713
  0
ARC
  8
0
 62
7
  6
CONTINUOUS
 10
173.2096752582
 20
178.6551048151
 40
2.0
 50
160.2631202123
 51
242.6957894737
  0
ARC
  8
0
 62
7
  6
CONTINUOUS
 10
169.2498394463
 20
169.6275884634
 40
2.0
 50
69.9357894737
 51
152.3684587351
  0
ARC
  8
0
 62
7
  6
CONTINUOUS
 10
177.4091364594
 20
201.8479237122
 40
2.0
 50
179.2104886333
 51
261.6431578947
  0
ARC
  8
0
 62
7
  6
CONTINUOUS
 10
176.5950852419
 20
192.0237865108
 40
2.0
 50
88.8831578947
 51
171.3158271561
  0
ARC
  8
0
 62
7
  6
CONTINUOUS
 10
114.3323006609
 20
227.1278978258
 40
3.2
 50
225.0
 51
266.4096221093
  0
ARC
  8
0
 62
7
  6
CONTINUOUS
 10
112.2109803174
 20
229.2492181694
 40
3.2
 50
182.2544307753
 51
225.0
  0
ARC
  8
0
 62
7
  6
CONTINUOUS
 10
105.8159339351
 20
228.9974608085
 40
3.2
 50
2.2544307753
 51
177.7455692247
  0
ARC
  8
0
 62
7
  6
CONTINUOUS
 10
132.2306421999
 20
209.2295562868
 40
3.2
 50
225.0
 51
267.7455692247
  0
ARC
  8
0
 62
7
  6
CONTINUOUS
 10
130.1093218564
 20
211.3508766304
 40
3.2
 50
183.5903778907
 51
225.0
  0
ARC
  8
0
 62
7
  6
CONTINUOUS
 10
123.7218833972
 20
210.9500899901
 40
3.2
 50
3.5903778907
 51
45.0
  0
ARC
  8
0
 62
7
  6
CONTINUOUS
 10
113.9315140207
 20
220.7404593667
 40
3.2
 50
45.0
 51
86.4096221093
  0
ARC
  8
0
 62
7
  6
CONTINUOUS
 10
110.0585747899
 20
233.2401013279
 40
2.0
 50
45.0
 51
90.0
  0
ARC
  8
0
 62
7
  6
CONTINUOUS
 10
105.8159339351
 20
235.4116742032
 40
2.0
 50
45.0
 51
135.0
  0
ARC
  8
0
 62
7
  6
CONTINUOUS
 10
109.6443610599
 20
237.2401013279
 40
2.0
 50
225.0
 51
270.0
  0
ARC
  8
0
 62
7
  6
CONTINUOUS
 10
106.0659339351
 20
278.5340970897
 40
2.4
 50
3.62
 51
89.8107797765
  0
ARC
  8
0
 62
7
  6
CONTINUOUS
 10
130.1590954027
 20
274.5136595212
 40
2.4
 50
71.2418518024
 51
157.4326315789
  0
ARC
  8
0
 62
7
  6
CONTINUOUS
 10
130.6320040236
 20
274.3513097866
 40
2.4
 50
344.6726315789
 51
70.8634113555
  0
ARC
  8
0
 62
7
  6
CONTINUOUS
 10
110.7448372395
 20
274.264656987
 40
2.0
 50
183.62
 51
266.0526692614
  0
ARC
  8
0
 62
7
  6
CONTINUOUS
 10
124.34742305
 20
271.994786879
 40
2.0
 50
254.9999623175
 51
337.4326315789
  0
ARC
  8
0
 62
7
  6
CONTINUOUS
 10
133.671106506
 20
268.7939623056
 40
2.0
 50
164.6726315789
 51
247.1053008403
  0
ARC
  8
0
 62
7
  6
CONTINUOUS
 10
179.1377625121
 20
221.6600100076
 40
2.4
 50
14.3997465392
 51
100.5905263158
  0
ARC
  8
0
 62
7
  6
CONTINUOUS
 10
179.2605052557
 20
221.1753098746
 40
2.4
 50
287.8305263158
 51
14.0213060923
  0
ARC
  8
0
 62
7
  6
CONTINUOUS
 10
173.8503632842
 20
225.1476545317
 40
2.0
 50
198.1578570544
 51
280.5905263158
  0
ARC
  8
0
 62
7
  6
CONTINUOUS
 10
176.2703117417
 20
215.5914941835
 40
2.0
 50
107.8305263158
 51
190.2631955772
  0
ARC
  8
0
 62
7
  6
CONTINUOUS
 10
168.3107131938
 20
237.7767846647
 40
2.0
 50
126.7778947368
 51
209.2105639982
  0
ARC
  8
0
 62
7
  6
CONTINUOUS
 10
169.0523537053
 20
244.4475513057
 40
2.4
 50
33.3471149603
 51
119.5378947368
  0
ARC
  8
0
 62
7
  6
CONTINUOUS
 10
169.3258277844
 20
244.0289680665
 40
2.4
 50
306.7778947368
 51
32.9686745134
  0
ARC
  8
0
 62
7
  6
CONTINUOUS
 10
152.1142976022
 20
262.7256738751
 40
2.4
 50
52.2944833814
 51
138.4852631579
  0
ARC
  8
0
 62
7
  6
CONTINUOUS
 10
152.5088678569
 20
262.4185675188
 40
2.4
 50
325.7252631579
 51
51.9160429344
  0
ARC
  8
0
 62
7
  6
CONTINUOUS
 10
162.919004026
 20
246.0294099068
 40
2.0
 50
217.1052254754
 51
299.5378947368
  0
ARC
  8
0
 62
7
  6
CONTINUOUS
 10
145.799641078
 20
262.2303276286
 40
2.0
 50
236.0525938965
 51
318.4852631579
  0
ARC
  8
0
 62
7
  6
CONTINUOUS
 10
153.5788356069
 20
256.1755374903
 40
2.0
 50
145.7252631579
 51
228.1579324193
  0
ARC
  8
0
 62
7
  6
CONTINUOUS
 10
71.9103423441
 20
99.7736263736
 40
1.5
 50
89.9999999435
 51
180.0
  0
ARC
  8
0
 62
7
  6
CONTINUOUS
 10
139.7215255261
 20
99.7736263736
 40
1.5
 50
0.0
 51
90.0000000565
  0
ARC
  8
0
 62
7
  6
CONTINUOUS
 10
71.9103423441
 20
77.7736263736
 40
1.5
 50
180.0
 51
270.0000000565
  0
ARC
  8
0
 62
7
  6
CONTINUOUS
 10
139.7215255261
 20
77.7736263736
 40
1.5
 50
269.9999999435
 51
360.0
  0
ARC
  8
0
 62
7
  6
CONTINUOUS
 10
174.4159339351
 20
81.7736263736
 40
1.0
 50
270.0
 51
360.0
  0
ARC
  8
0
 62
7
  6
CONTINUOUS
 10
174.4159339351
 20
95.7736263736
 40
1.0
 50
0.0
 51
90.0
  0
ARC
  8
0
 62
7
  6
CONTINUOUS
 10
37.2159339351
 20
81.7736263736
 40
1.0
 50
180.0
 51
270.0
  0
ARC
  8
0
 62
7
  6
CONTINUOUS
 10
37.2159339351
 20
95.7736263736
 40
1.0
 50
90.0
 51
180.0
  0
ARC
  8
0
 62
7
  6
CONTINUOUS
 10
132.5320040236
 20
90.2736263736
 40
0.5
 50
0.0
 51
90.000008692
  0
ARC
  8
0
 62
7
  6
CONTINUOUS
 10
132.5320040236
 20
87.2736263736
 40
0.5
 50
269.999991308
 51
360.0
  0
ARC
  8
0
 62
7
  6
CONTINUOUS
 10
154.4088678569
 20
90.2736263736
 40
0.5
 50
0.0
 51
90.0000026137
  0
ARC
  8
0
 62
7
  6
CONTINUOUS
 10
154.4088678569
 20
87.2736263736
 40
0.5
 50
269.9999973863
 51
360.0
  0
ARC
  8
0
 62
7
  6
CONTINUOUS
 10
171.2258277844
 20
90.2736263736
 40
0.5
 50
0.0
 51
90.0000001181
  0
ARC
  8
0
 62
7
  6
CONTINUOUS
 10
171.2258277844
 20
87.2736263736
 40
0.5
 50
269.9999998819
 51
360.0
  0
ARC
  8
0
 62
7
  6
CONTINUOUS
 10
181.1605052557
 20
90.2736263736
 40
0.5
 50
0.0
 51
90.0000058066
  0
ARC
  8
0
 62
7
  6
CONTINUOUS
 10
181.1605052557
 20
87.2736263736
 40
0.5
 50
269.9999941934
 51
360.0
  0
ARC
  8
0
 62
7
  6
CONTINUOUS
 10
183.1776134872
 20
90.2736263736
 40
0.5
 50
0.0
 51
89.9999912609
  0
ARC
  8
0
 62
7
  6
CONTINUOUS
 10
183.1776134872
 20
87.2736263736
 40
0.5
 50
270.000008739
 51
360.0
  0
ARC
  8
0
 62
7
  6
CONTINUOUS
 10
28.454254383
 20
90.2736263736
 40
0.5
 50
90.0000089494
 51
180.0
  0
ARC
  8
0
 62
7
  6
CONTINUOUS
 10
28.454254383
 20
87.2736263736
 40
0.5
 50
180.0
 51
269.9999910504
  0
ARC
  8
0
 62
7
  6
CONTINUOUS
 10
30.4713626146
 20
90.2736263736
 40
0.5
 50
89.9999871939
 51
180.0
  0
ARC
  8
0
 62
7
  6
CONTINUOUS
 10
30.4713626146
 20
87.2736263736
 40
0.5
 50
180.0
 51
270.0000128061
  0
ARC
  8
0
 62
7
  6
CONTINUOUS
 10
40.4060400859
 20
90.2736263736
 40
0.5
 50
89.9999970013
 51
180.0
  0
ARC
  8
0
 62
7
  6
CONTINUOUS
 10
40.4060400859
 20
87.2736263736
 40
0.5
 50
180.0
 51
270.0000029987
  0
ARC
  8
0
 62
7
  6
CONTINUOUS
 10
57.2230000133
 20
90.2736263736
 40
0.5
 50
89.9999999008
 51
180.0
  0
ARC
  8
0
 62
7
  6
CONTINUOUS
 10
57.2230000133
 20
87.2736263736
 40
0.5
 50
180.0
 51
270.0000000992
  0
ARC
  8
0
 62
7
  6
CONTINUOUS
 10
79.0998638467
 20
90.2736263736
 40
0.5
 50
89.9999969678
 51
180.0
  0
ARC
  8
0
 62
7
  6
CONTINUOUS
 10
79.0998638467
 20
87.2736263736
 40
0.5
 50
180.0
 51
270.0000030322
  0
ENDSEC
  0
EOF
