  0
SECTION
  2
HEADER
  9
$EXTMAX
 10
210.0
 20
297.0
 30
0.0
  9
$EXTMIN
 10
0.0
 20
0.0
 30
0.0
  9
$LIMMIN
 10
0.0
 20
0.0
  9
$LIMMAX
 10
210.0
 20
297.0
  9
$VIEWCTR
 10
105.0
 20
148.5
  9
$VIEWSIZE
 40
297.0
  9
$CLAYER
  8
0
  9
$LTSCALE
 40
19.36
  9
$CELTYPE
  6
BYLAYER
  9
$DIMSCALE
 40
1.0
  9
$DIMASZ
 40
3.5
  9
$DIMEXO
 40
2.2
  9
$DIMDLI
 40
13.376
  9
$DIMEXE
 40
6.336
  9
$DIMCEN
 40
3.168
  9
$DIMLFAC
 40
1.0
  9
$DIMBLK
  1
_FILLED
  9
$DIMTXT
 40
3.5
  9
$PDMODE
 70
3
  9
$PDSIZE
 40
0.3125
  9
$TILEMODE
 70
1
  0
ENDSEC
  0
SECTION
  2
TABLES
  0
TABLE
  2
LTYPE
 70
6
  0
LTYPE
  2
BYBLOCK
 70
0
  3

 72
65
 73
0
 40
0.0
  0
LTYPE
  2
BYLAYER
 70
0
  3

 72
65
 73
0
 40
0.0
  0
LTYPE
  2
CONTINUOUS
 70
64
  3
Solid line
 72
65
 73
0
 40
0.0
  0
LTYPE
  2
CENTER
 70
64
  3
____ _ ____ _ ____ _ ____ _ ____ _ ____ _ ____
 72
65
 73
4
 40
0.6
 49
0.375
 49
-0.075
 49
0.075
 49
-0.075
  0
LTYPE
  2
HIDDEN
 70
64
  3
- - - - - - - - - - - - - - - - - - - -
 72
65
 73
2
 40
0.2
 49
0.1
 49
-0.1
  0
LTYPE
  2
PHANTOM
 70
64
  3
_____ _ _ _____ _ _ _____ _ _ _____
 72
65
 73
6
 40
0.8
 49
0.45
 49
-0.05
 49
0.1
 49
-0.05
 49
0.1
 49
-0.05
  0
LTYPE
  2
DOT
 70
64
  3
. . . . . . . . . . . . . . . . . . . .
 72
65
 73
2
 40
0.2
 49
0.1
 49
-0.1
  0
LTYPE
  2
DASHED
 70
64
  3
- - - - - - - - - - - - - - - - - - - -
 72
65
 73
2
 40
0.2
 49
0.1
 49
-0.1
  0
ENDTAB
  0
TABLE
  2
LAYER
 70
36
  0
LAYER
  2
0
 70
0
 62
7
  6
CONTINUOUS
  0
LAYER
  2
DEFAULT_1
 70
0
 62
7
  6
CENTER
  0
LAYER
  2
DEFAULT_2
 70
0
 62
8
  6
HIDDEN
  0
LAYER
  2
DEFAULT_3
 70
0
 62
7
  6
PHANTOM
  0
LAYER
  2
CURVE
 70
0
 62
7
  6
CONTINUOUS
  0
LAYER
  2
SURFACE
 70
0
 62
7
  6
CONTINUOUS
  0
ENDTAB
  0
TABLE
  2
STYLE
 70
1
  0
STYLE
  2
STANDARD
 70
0
 40
0.0
 41
0.8
 50
0.0
 71
0
 42
0.2
  3
txt
  4

  0
STYLE
  2
TEXTSTYLE_1
 70
0
 40
0.0
 41
0.8
 50
0.0
 71
0
 42
0.2
  3
gdt
  4

  0
STYLE
  2
TEXTSTYLE_2
 70
0
 40
0.0
 41
0.6
 50
0.0
 71
0
 42
0.2
  3
txt
  4

  0
STYLE
  2
TEXTSTYLE_3
 70
0
 40
0.0
 41
1.0
 50
0.0
 71
0
 42
0.2
  3
ftb_____.ttf
  4

  0
STYLE
  2
TEXTSTYLE_4
 70
0
 40
0.0
 41
1.0
 50
0.0
 71
0
 42
0.2
  3
fti_____.ttf
  4

  0
STYLE
  2
TEXTSTYLE_5
 70
0
 40
0.0
 41
1.0
 50
0.0
 71
0
 42
0.2
  3
frutiger light.ttf
  4

  0
STYLE
  2
TEXTSTYLE_6
 70
0
 40
0.0
 41
0.7
 50
0.0
 71
0
 42
0.2
  3
txt
  4

  0
STYLE
  2
TEXTSTYLE_7
 70
0
 40
0.0
 41
0.8
 50
0.0
 71
0
 42
0.2
  3
txt
  4

  0
ENDTAB
  0
ENDSEC
  0
SECTION
  2
BLOCKS
  0
BLOCK
  8
0
 62
2
  6
CONTINUOUS
  2
SYMBOL_8_BL1
 70
64
 10
173.5956734183
 20
35.5937998301
  0
TEXT
  8
0
 62
7
  6
CONTINUOUS
 10
164.6539584268
 20
30.6865562072
  7
TEXTSTYLE_4
 40
1.0655737705
  1
The brand for plastic modular belts and chains
 41
1.0
 72
0
  0
LINE
  8
0
 62
7
  6
CONTINUOUS
 10
149.5737418074
 20
36.1675703219
 11
149.5737418074
 21
34.0364227809
  0
LINE
  8
0
 62
7
  6
CONTINUOUS
 10
149.8628043005
 20
31.0454914852
 11
149.8628043005
 21
31.1422825445
  0
LINE
  8
0
 62
7
  6
CONTINUOUS
 10
149.5737418074
 20
31.1100188581
 11
149.6315543091
 21
30.9164367395
  0
LINE
  8
0
 62
7
  6
CONTINUOUS
 10
150.9671844304
 20
33.9544555678
 11
150.9671844304
 21
36.1675703219
  0
LINE
  8
0
 62
7
  6
CONTINUOUS
 10
151.8862417523
 20
32.1101932727
 11
151.8862417523
 21
30.5937998301
  0
LINE
  8
0
 62
7
  6
CONTINUOUS
 10
152.1753043074
 20
30.5937998301
 11
152.1753043074
 21
31.3358647082
  0
LINE
  8
0
 62
7
  6
CONTINUOUS
 10
152.1753043074
 20
31.4649194539
 11
152.1753043074
 21
32.1101932727
  0
LINE
  8
0
 62
7
  6
CONTINUOUS
 10
149.6315543091
 20
31.3036010218
 11
149.5737418074
 21
31.1100188581
  0
LINE
  8
0
 62
7
  6
CONTINUOUS
 10
149.9784292936
 20
30.8841730531
 11
149.8628043005
 21
31.0454914852
  0
LINE
  8
0
 62
7
  6
CONTINUOUS
 10
151.0768668626
 20
31.400392081
 11
151.1346793074
 21
31.3036010218
  0
LINE
  8
0
 62
7
  6
CONTINUOUS
 10
151.4237418626
 20
31.3036010218
 11
151.3659292523
 21
31.4326557675
  0
LINE
  8
0
 62
7
  6
CONTINUOUS
 10
152.852430332
 20
36.1675703219
 11
152.852430332
 21
34.3642916334
  0
LINE
  8
0
 62
7
  6
CONTINUOUS
 10
152.852430332
 20
33.0528162235
 11
152.852430332
 21
32.3970785186
  0
LINE
  8
0
 62
7
  6
CONTINUOUS
 10
153.2159293074
 20
31.2390736489
 11
153.2159293074
 21
30.5937998301
  0
LINE
  8
0
 62
7
  6
CONTINUOUS
 10
153.5049916972
 20
30.5937998301
 11
153.5049916972
 21
31.2390736489
  0
LINE
  8
0
 62
7
  6
CONTINUOUS
 10
149.8628043005
 20
31.1422825445
 11
149.9206168074
 21
31.2713373354
  0
LINE
  8
0
 62
7
  6
CONTINUOUS
 10
149.6315543091
 20
30.9164367395
 11
149.7471793074
 21
30.7873819712
  0
LINE
  8
0
 62
7
  6
CONTINUOUS
 10
153.1581166972
 20
31.3681283946
 11
153.2159293074
 21
31.2390736489
  0
LINE
  8
0
 62
7
  6
CONTINUOUS
 10
153.9674919177
 20
30.8841730531
 11
154.0253041972
 21
30.7551182848
  0
LINE
  8
0
 62
7
  6
CONTINUOUS
 10
153.5049916972
 20
31.2390736489
 11
153.4471794177
 21
31.400392081
  0
LINE
  8
0
 62
7
  6
CONTINUOUS
 10
153.9674919177
 20
31.4326557675
 11
153.9674919177
 21
31.3681283946
  0
LINE
  8
0
 62
7
  6
CONTINUOUS
 10
153.9674919177
 20
30.9809641124
 11
153.9674919177
 21
30.8841730531
  0
LINE
  8
0
 62
7
  6
CONTINUOUS
 10
154.245872955
 20
32.3970785186
 11
154.245872955
 21
36.1675703219
  0
LINE
  8
0
 62
7
  6
CONTINUOUS
 10
154.2565543074
 20
30.8519093441
 11
154.2565543074
 21
30.9164367395
  0
LINE
  8
0
 62
7
  6
CONTINUOUS
 10
154.5737418074
 20
36.1675703219
 11
154.5737418074
 21
32.3970785186
  0
LINE
  8
0
 62
7
  6
CONTINUOUS
 10
151.3659292523
 20
30.7873819712
 11
151.4237418626
 21
30.9164367395
  0
LINE
  8
0
 62
7
  6
CONTINUOUS
 10
155.759679528
 20
30.6905909007
 11
155.7018665869
 21
30.8519093441
  0
LINE
  8
0
 62
7
  6
CONTINUOUS
 10
155.412804528
 20
31.3681283946
 11
155.412804528
 21
31.2713373354
  0
LINE
  8
0
 62
7
  6
CONTINUOUS
 10
155.412804528
 20
31.1422825445
 11
155.412804528
 21
30.9487004259
  0
LINE
  8
0
 62
7
  6
CONTINUOUS
 10
155.7018665869
 20
30.8519093441
 11
155.7018665869
 21
31.3681283946
  0
LINE
  8
0
 62
7
  6
CONTINUOUS
 10
155.9671844304
 20
32.3970785186
 11
155.9671844304
 21
34.2003572071
  0
LINE
  8
0
 62
7
  6
CONTINUOUS
 10
155.9671844304
 20
35.511832617
 11
155.9671844304
 21
36.1675703219
  0
LINE
  8
0
 62
7
  6
CONTINUOUS
 10
156.279992028
 20
32.1101932727
 11
156.279992028
 21
31.9488748406
  0
LINE
  8
0
 62
7
  6
CONTINUOUS
 10
156.279992028
 20
31.626237886
 11
156.279992028
 21
30.5937998301
  0
LINE
  8
0
 62
7
  6
CONTINUOUS
 10
156.5690540869
 20
30.5937998301
 11
156.5690540869
 21
31.626237886
  0
LINE
  8
0
 62
7
  6
CONTINUOUS
 10
156.5690540869
 20
31.9488748406
 11
156.5690540869
 21
32.1101932727
  0
LINE
  8
0
 62
7
  6
CONTINUOUS
 10
151.1346793074
 20
30.9164367395
 11
151.0768668626
 21
30.8196456577
  0
LINE
  8
0
 62
7
  6
CONTINUOUS
 10
153.4471794177
 20
31.400392081
 11
153.3893668074
 21
31.4649194539
  0
LINE
  8
0
 62
7
  6
CONTINUOUS
 10
154.3143669177
 20
30.7873819712
 11
154.2565543074
 21
30.8519093441
  0
LINE
  8
0
 62
7
  6
CONTINUOUS
 10
155.4706168074
 20
30.6583272086
 11
155.5284290869
 21
30.5937998301
  0
LINE
  8
0
 62
7
  6
CONTINUOUS
 10
155.412804528
 20
30.7551182848
 11
155.4706168074
 21
30.6583272086
  0
LINE
  8
0
 62
7
  6
CONTINUOUS
 10
155.8174918074
 20
30.5937998301
 11
155.759679528
 21
30.6905909007
  0
LINE
  8
0
 62
7
  6
CONTINUOUS
 10
155.7018665869
 20
31.3681283946
 11
155.6440543074
 21
31.4649194539
  0
LINE
  8
0
 62
7
  6
CONTINUOUS
 10
157.0315543074
 20
31.626237886
 11
157.0315543074
 21
30.5937998301
  0
LINE
  8
0
 62
7
  6
CONTINUOUS
 10
157.320617028
 20
30.5937998301
 11
157.320617028
 21
31.3358647082
  0
LINE
  8
0
 62
7
  6
CONTINUOUS
 10
157.320617028
 20
31.4649194539
 11
157.320617028
 21
31.626237886
  0
LINE
  8
0
 62
7
  6
CONTINUOUS
 10
157.852430332
 20
34.6101932727
 11
157.852430332
 21
32.3970785186
  0
LINE
  8
0
 62
7
  6
CONTINUOUS
 10
149.7471793074
 20
31.4326557675
 11
149.6315543091
 21
31.3036010218
  0
LINE
  8
0
 62
7
  6
CONTINUOUS
 10
149.9206168074
 20
31.2713373354
 11
149.9784292936
 21
31.3358647082
  0
LINE
  8
0
 62
7
  6
CONTINUOUS
 10
149.7471793074
 20
30.7873819712
 11
149.8628043005
 21
30.7228545871
  0
LINE
  8
0
 62
7
  6
CONTINUOUS
 10
150.1518667936
 20
30.7873819712
 11
149.9784292936
 21
30.8841730531
  0
LINE
  8
0
 62
7
  6
CONTINUOUS
 10
155.3549915869
 20
31.4326557675
 11
155.412804528
 21
31.3681283946
  0
LINE
  8
0
 62
7
  6
CONTINUOUS
 10
158.3034290869
 20
31.3681283946
 11
158.361242028
 21
31.2068099625
  0
LINE
  8
0
 62
7
  6
CONTINUOUS
 10
158.6503040869
 20
31.2068099625
 11
158.5924918074
 21
31.3681283946
  0
LINE
  8
0
 62
7
  6
CONTINUOUS
 10
158.361242028
 20
31.2068099625
 11
158.361242028
 21
30.5937998301
  0
LINE
  8
0
 62
7
  6
CONTINUOUS
 10
158.6503040869
 20
30.5937998301
 11
158.6503040869
 21
31.2068099625
  0
LINE
  8
0
 62
7
  6
CONTINUOUS
 10
159.1128043074
 20
31.4326557675
 11
159.1128043074
 21
31.3681283946
  0
LINE
  8
0
 62
7
  6
CONTINUOUS
 10
159.245872955
 20
32.3970785186
 11
159.245872955
 21
34.5282260596
  0
LINE
  8
0
 62
7
  6
CONTINUOUS
 10
159.5737418074
 20
36.1675703219
 11
159.5737418074
 21
32.3970785186
  0
LINE
  8
0
 62
7
  6
CONTINUOUS
 10
154.2565543074
 20
30.9164367395
 11
154.3143669177
 21
31.0132277988
  0
LINE
  8
0
 62
7
  6
CONTINUOUS
 10
149.8628043005
 20
30.7228545871
 11
150.0362418212
 21
30.6583272086
  0
LINE
  8
0
 62
7
  6
CONTINUOUS
 10
151.3659292523
 20
31.4326557675
 11
151.1924917523
 21
31.5294468267
  0
LINE
  8
0
 62
7
  6
CONTINUOUS
 10
154.0253041972
 20
30.7551182848
 11
154.1987416972
 21
30.6583272086
  0
LINE
  8
0
 62
7
  6
CONTINUOUS
 10
153.0424918074
 20
31.4326557675
 11
153.1581166972
 21
31.3681283946
  0
LINE
  8
0
 62
7
  6
CONTINUOUS
 10
153.3893668074
 20
31.4649194539
 11
153.2737419177
 21
31.5294468267
  0
LINE
  8
0
 62
7
  6
CONTINUOUS
 10
159.1128043074
 20
30.8519093441
 11
159.228429528
 21
30.7228545871
  0
LINE
  8
0
 62
7
  6
CONTINUOUS
 10
159.4596793074
 20
30.7873819712
 11
159.401867028
 21
30.8519093441
  0
LINE
  8
0
 62
7
  6
CONTINUOUS
 10
159.1128043074
 20
31.3681283946
 11
159.228429528
 21
31.2390736489
  0
LINE
  8
0
 62
7
  6
CONTINUOUS
 10
158.5924918074
 20
31.3681283946
 11
158.534679528
 21
31.4649194539
  0
LINE
  8
0
 62
7
  6
CONTINUOUS
 10
160.9628038663
 20
30.7873819712
 11
160.9628038663
 21
30.8519093441
  0
LINE
  8
0
 62
7
  6
CONTINUOUS
 10
160.9671844304
 20
32.3970785186
 11
160.9671844304
 21
36.1675703219
  0
LINE
  8
0
 62
7
  6
CONTINUOUS
 10
154.0253041972
 20
31.4971831403
 11
153.9674919177
 21
31.4326557675
  0
LINE
  8
0
 62
7
  6
CONTINUOUS
 10
150.9034292799
 20
31.4649194539
 11
151.0768668626
 21
31.400392081
  0
LINE
  8
0
 62
7
  6
CONTINUOUS
 10
155.6440543074
 20
31.4649194539
 11
155.5284290869
 21
31.5294468267
  0
LINE
  8
0
 62
7
  6
CONTINUOUS
 10
159.4596793074
 20
31.3036010218
 11
159.401867028
 21
31.3681283946
  0
LINE
  8
0
 62
7
  6
CONTINUOUS
 10
160.615929528
 20
30.9164367395
 11
160.6737418074
 21
30.8519093441
  0
LINE
  8
0
 62
7
  6
CONTINUOUS
 10
160.9628038663
 20
30.8519093441
 11
160.8471793074
 21
30.9809641124
  0
LINE
  8
0
 62
7
  6
CONTINUOUS
 10
160.615929528
 20
31.4326557675
 11
160.6737418074
 21
31.3681283946
  0
LINE
  8
0
 62
7
  6
CONTINUOUS
 10
160.9628038663
 20
31.3681283946
 11
160.8471793074
 21
31.4971831403
  0
LINE
  8
0
 62
7
  6
CONTINUOUS
 10
154.2565543074
 20
31.3681283946
 11
154.3143669177
 21
31.4326557675
  0
LINE
  8
0
 62
7
  6
CONTINUOUS
 10
154.0831168074
 20
31.1100188581
 11
153.9674919177
 21
30.9809641124
  0
LINE
  8
0
 62
7
  6
CONTINUOUS
 10
155.412804528
 20
30.9487004259
 11
155.3549915869
 21
30.8841730531
  0
LINE
  8
0
 62
7
  6
CONTINUOUS
 10
155.3549915869
 20
30.6905909007
 11
155.412804528
 21
30.7551182848
  0
LINE
  8
0
 62
7
  6
CONTINUOUS
 10
154.1987416972
 20
30.6583272086
 11
154.3143669177
 21
30.6260635193
  0
LINE
  8
0
 62
7
  6
CONTINUOUS
 10
151.1924917523
 20
31.5294468267
 11
150.9612418074
 21
31.5939741996
  0
LINE
  8
0
 62
7
  6
CONTINUOUS
 10
154.5456166972
 20
30.7228545871
 11
154.3143669177
 21
30.7873819712
  0
LINE
  8
0
 62
7
  6
CONTINUOUS
 10
153.2737419177
 20
31.5294468267
 11
153.1003044177
 21
31.5939741996
  0
LINE
  8
0
 62
7
  6
CONTINUOUS
 10
155.5284290869
 20
31.5294468267
 11
155.3549915869
 21
31.5939741996
  0
LINE
  8
0
 62
7
  6
CONTINUOUS
 10
158.187804528
 20
31.4326557675
 11
158.3034290869
 21
31.3681283946
  0
LINE
  8
0
 62
7
  6
CONTINUOUS
 10
158.534679528
 20
31.4649194539
 11
158.4190543074
 21
31.5294468267
  0
LINE
  8
0
 62
7
  6
CONTINUOUS
 10
150.0362418212
 20
30.6583272086
 11
150.2096793212
 21
30.6260635193
  0
LINE
  8
0
 62
7
  6
CONTINUOUS
 10
150.498741835
 20
30.7228545871
 11
150.1518667936
 21
30.7873819712
  0
LINE
  8
0
 62
7
  6
CONTINUOUS
 10
152.9268669177
 20
31.4649194539
 11
153.0424918074
 21
31.4326557675
  0
LINE
  8
0
 62
7
  6
CONTINUOUS
 10
155.239367028
 20
31.4649194539
 11
155.3549915869
 21
31.4326557675
  0
LINE
  8
0
 62
7
  6
CONTINUOUS
 10
159.575304528
 20
30.7551182848
 11
159.4596793074
 21
30.7873819712
  0
LINE
  8
0
 62
7
  6
CONTINUOUS
 10
158.0721793074
 20
31.4649194539
 11
158.187804528
 21
31.4326557675
  0
LINE
  8
0
 62
7
  6
CONTINUOUS
 10
159.228429528
 20
30.7228545871
 11
159.401867028
 21
30.6583272086
  0
LINE
  8
0
 62
7
  6
CONTINUOUS
 10
158.4190543074
 20
31.5294468267
 11
158.2456168074
 21
31.5939741996
  0
LINE
  8
0
 62
7
  6
CONTINUOUS
 10
159.6331168074
 20
31.2390736489
 11
159.4596793074
 21
31.3036010218
  0
LINE
  8
0
 62
7
  6
CONTINUOUS
 10
160.442492028
 20
30.9809641124
 11
160.615929528
 21
30.9164367395
  0
LINE
  8
0
 62
7
  6
CONTINUOUS
 10
160.8471793074
 20
31.4971831403
 11
160.6737418074
 21
31.5617105132
  0
LINE
  8
0
 62
7
  6
CONTINUOUS
 10
159.228429528
 20
31.2390736489
 11
159.4596793074
 21
31.1422825445
  0
LINE
  8
0
 62
7
  6
CONTINUOUS
 10
160.8471793074
 20
30.9809641124
 11
160.615929528
 21
31.0777551716
  0
LINE
  8
0
 62
7
  6
CONTINUOUS
 10
159.401867028
 20
31.3681283946
 11
159.4596793074
 21
31.4326557675
  0
LINE
  8
0
 62
7
  6
CONTINUOUS
 10
149.8628043005
 20
31.4971831403
 11
149.7471793074
 21
31.4326557675
  0
LINE
  8
0
 62
7
  6
CONTINUOUS
 10
149.9784292936
 20
31.3358647082
 11
150.1518667936
 21
31.4326557675
  0
LINE
  8
0
 62
7
  6
CONTINUOUS
 10
152.2909293626
 20
31.5294468267
 11
152.1753043074
 21
31.4649194539
  0
LINE
  8
0
 62
7
  6
CONTINUOUS
 10
152.1753043074
 20
31.3358647082
 11
152.2909293626
 21
31.400392081
  0
LINE
  8
0
 62
7
  6
CONTINUOUS
 10
151.1924917523
 20
30.6905909007
 11
151.3659292523
 21
30.7873819712
  0
LINE
  8
0
 62
7
  6
CONTINUOUS
 10
150.2096793212
 20
30.6260635193
 11
150.5565542799
 21
30.5937998301
  0
LINE
  8
0
 62
7
  6
CONTINUOUS
 10
154.3143669177
 20
30.6260635193
 11
154.5456166972
 21
30.5937998301
  0
LINE
  8
0
 62
7
  6
CONTINUOUS
 10
152.6956168074
 20
31.4971831403
 11
152.9268669177
 21
31.4649194539
  0
LINE
  8
0
 62
7
  6
CONTINUOUS
 10
155.0081169177
 20
31.4971831403
 11
155.239367028
 21
31.4649194539
  0
LINE
  8
0
 62
7
  6
CONTINUOUS
 10
159.4596793074
 20
31.1422825445
 11
160.442492028
 21
30.9809641124
  0
LINE
  8
0
 62
7
  6
CONTINUOUS
 10
160.615929528
 20
31.0777551716
 11
159.6331168074
 21
31.2390736489
  0
LINE
  8
0
 62
7
  6
CONTINUOUS
 10
153.1003044177
 20
31.5939741996
 11
152.9268669177
 21
31.626237886
  0
LINE
  8
0
 62
7
  6
CONTINUOUS
 10
159.401867028
 20
30.6583272086
 11
159.575304528
 21
30.6260635193
  0
LINE
  8
0
 62
7
  6
CONTINUOUS
 10
158.2456168074
 20
31.5939741996
 11
158.0721793074
 21
31.626237886
  0
LINE
  8
0
 62
7
  6
CONTINUOUS
 10
160.5003043074
 20
31.4649194539
 11
160.615929528
 21
31.4326557675
  0
LINE
  8
0
 62
7
  6
CONTINUOUS
 10
160.6737418074
 20
30.8519093441
 11
160.615929528
 21
30.7873819712
  0
LINE
  8
0
 62
7
  6
CONTINUOUS
 10
159.228429528
 20
31.5294468267
 11
159.1128043074
 21
31.4326557675
  0
LINE
  8
0
 62
7
  6
CONTINUOUS
 10
154.1409294177
 20
31.5617105132
 11
154.0253041972
 21
31.4971831403
  0
LINE
  8
0
 62
7
  6
CONTINUOUS
 10
154.1987416972
 20
31.1745462761
 11
154.0831168074
 21
31.1100188581
  0
LINE
  8
0
 62
7
  6
CONTINUOUS
 10
154.3143669177
 20
31.0132277988
 11
154.4299918074
 21
31.0777551716
  0
LINE
  8
0
 62
7
  6
CONTINUOUS
 10
151.8862417523
 20
30.5937998301
 11
152.1753043074
 21
30.5937998301
  0
LINE
  8
0
 62
7
  6
CONTINUOUS
 10
153.2159293074
 20
30.5937998301
 11
153.5049916972
 21
30.5937998301
  0
LINE
  8
0
 62
7
  6
CONTINUOUS
 10
154.5456166972
 20
30.5937998301
 11
154.8924916972
 21
30.5937998301
  0
LINE
  8
0
 62
7
  6
CONTINUOUS
 10
155.5284290869
 20
30.5937998301
 11
155.8174918074
 21
30.5937998301
  0
LINE
  8
0
 62
7
  6
CONTINUOUS
 10
156.279992028
 20
30.5937998301
 11
156.5690540869
 21
30.5937998301
  0
LINE
  8
0
 62
7
  6
CONTINUOUS
 10
157.0315543074
 20
30.5937998301
 11
157.320617028
 21
30.5937998301
  0
LINE
  8
0
 62
7
  6
CONTINUOUS
 10
158.361242028
 20
30.5937998301
 11
158.6503040869
 21
30.5937998301
  0
LINE
  8
0
 62
7
  6
CONTINUOUS
 10
159.922179528
 20
30.5937998301
 11
160.269054528
 21
30.5937998301
  0
LINE
  8
0
 62
7
  6
CONTINUOUS
 10
160.269054528
 20
30.7228545871
 11
159.922179528
 21
30.7228545871
  0
LINE
  8
0
 62
7
  6
CONTINUOUS
 10
154.8924916972
 20
30.7228545871
 11
154.5456166972
 21
30.7228545871
  0
LINE
  8
0
 62
7
  6
CONTINUOUS
 10
159.401867028
 20
30.8519093441
 11
159.1128043074
 21
30.8519093441
  0
LINE
  8
0
 62
7
  6
CONTINUOUS
 10
151.4237418626
 20
30.9164367395
 11
151.1346793074
 21
30.9164367395
  0
LINE
  8
0
 62
7
  6
CONTINUOUS
 10
150.498741835
 20
31.4971831403
 11
150.9034292799
 21
31.4649194539
  0
LINE
  8
0
 62
7
  6
CONTINUOUS
 10
150.9612418074
 20
31.5939741996
 11
150.5565542799
 21
31.626237886
  0
LINE
  8
0
 62
7
  6
CONTINUOUS
 10
159.575304528
 20
30.6260635193
 11
159.922179528
 21
30.5937998301
  0
LINE
  8
0
 62
7
  6
CONTINUOUS
 10
159.922179528
 20
30.7228545871
 11
159.575304528
 21
30.7551182848
  0
LINE
  8
0
 62
7
  6
CONTINUOUS
 10
155.3549915869
 20
31.5939741996
 11
155.0081169177
 21
31.626237886
  0
LINE
  8
0
 62
7
  6
CONTINUOUS
 10
160.1534293074
 20
31.4971831403
 11
160.5003043074
 21
31.4649194539
  0
LINE
  8
0
 62
7
  6
CONTINUOUS
 10
160.5003043074
 20
31.5939741996
 11
160.1534293074
 21
31.626237886
  0
LINE
  8
0
 62
7
  6
CONTINUOUS
 10
157.840929528
 20
31.4971831403
 11
158.0721793074
 21
31.4649194539
  0
LINE
  8
0
 62
7
  6
CONTINUOUS
 10
160.6737418074
 20
31.5617105132
 11
160.5003043074
 21
31.5939741996
  0
LINE
  8
0
 62
7
  6
CONTINUOUS
 10
160.8471793074
 20
30.6905909007
 11
160.9628038663
 21
30.7873819712
  0
LINE
  8
0
 62
7
  6
CONTINUOUS
 10
155.3549915869
 20
30.8841730531
 11
155.1815540869
 21
30.7873819712
  0
LINE
  8
0
 62
7
  6
CONTINUOUS
 10
157.4362415869
 20
31.5294468267
 11
157.320617028
 21
31.4649194539
  0
LINE
  8
0
 62
7
  6
CONTINUOUS
 10
157.320617028
 20
31.3358647082
 11
157.4362415869
 21
31.400392081
  0
LINE
  8
0
 62
7
  6
CONTINUOUS
 10
150.0362418212
 20
31.5617105132
 11
149.8628043005
 21
31.4971831403
  0
LINE
  8
0
 62
7
  6
CONTINUOUS
 10
152.4643666972
 20
31.5939741996
 11
152.2909293626
 21
31.5294468267
  0
LINE
  8
0
 62
7
  6
CONTINUOUS
 10
152.2909293626
 20
31.400392081
 11
152.4643666972
 21
31.4649194539
  0
LINE
  8
0
 62
7
  6
CONTINUOUS
 10
151.0768668626
 20
30.8196456577
 11
150.9034292799
 21
30.7551182848
  0
LINE
  8
0
 62
7
  6
CONTINUOUS
 10
160.5003043074
 20
30.7551182848
 11
160.269054528
 21
30.7228545871
  0
LINE
  8
0
 62
7
  6
CONTINUOUS
 10
154.8924916972
 20
30.5937998301
 11
155.1815540869
 21
30.6260635193
  0
LINE
  8
0
 62
7
  6
CONTINUOUS
 10
160.269054528
 20
30.5937998301
 11
160.615929528
 21
30.6260635193
  0
LINE
  8
0
 62
7
  6
CONTINUOUS
 10
150.5565542799
 20
30.5937998301
 11
150.9612418074
 21
30.6260635193
  0
LINE
  8
0
 62
7
  6
CONTINUOUS
 10
150.9034292799
 20
30.7551182848
 11
150.498741835
 21
30.7228545871
  0
LINE
  8
0
 62
7
  6
CONTINUOUS
 10
154.7768668074
 20
31.1422825445
 11
155.412804528
 21
31.1422825445
  0
LINE
  8
0
 62
7
  6
CONTINUOUS
 10
155.412804528
 20
31.2713373354
 11
154.7768668074
 21
31.2713373354
  0
LINE
  8
0
 62
7
  6
CONTINUOUS
 10
151.1346793074
 20
31.3036010218
 11
151.4237418626
 21
31.3036010218
  0
LINE
  8
0
 62
7
  6
CONTINUOUS
 10
153.9674919177
 20
31.3681283946
 11
154.2565543074
 21
31.3681283946
  0
LINE
  8
0
 62
7
  6
CONTINUOUS
 10
160.6737418074
 20
31.3681283946
 11
160.9628038663
 21
31.3681283946
  0
LINE
  8
0
 62
7
  6
CONTINUOUS
 10
154.6612419177
 20
31.4971831403
 11
155.0081169177
 21
31.4971831403
  0
LINE
  8
0
 62
7
  6
CONTINUOUS
 10
159.8065543074
 20
31.4971831403
 11
160.1534293074
 21
31.4971831403
  0
LINE
  8
0
 62
7
  6
CONTINUOUS
 10
160.1534293074
 20
31.626237886
 11
159.8065543074
 21
31.626237886
  0
LINE
  8
0
 62
7
  6
CONTINUOUS
 10
158.0721793074
 20
31.626237886
 11
157.840929528
 21
31.626237886
  0
LINE
  8
0
 62
7
  6
CONTINUOUS
 10
157.320617028
 20
31.626237886
 11
157.0315543074
 21
31.626237886
  0
LINE
  8
0
 62
7
  6
CONTINUOUS
 10
156.5690540869
 20
31.626237886
 11
156.279992028
 21
31.626237886
  0
LINE
  8
0
 62
7
  6
CONTINUOUS
 10
155.0081169177
 20
31.626237886
 11
154.6612419177
 21
31.626237886
  0
LINE
  8
0
 62
7
  6
CONTINUOUS
 10
152.9268669177
 20
31.626237886
 11
152.6956168074
 21
31.626237886
  0
LINE
  8
0
 62
7
  6
CONTINUOUS
 10
156.279992028
 20
31.9488748406
 11
156.5690540869
 21
31.9488748406
  0
LINE
  8
0
 62
7
  6
CONTINUOUS
 10
156.5690540869
 20
32.1101932727
 11
156.279992028
 21
32.1101932727
  0
LINE
  8
0
 62
7
  6
CONTINUOUS
 10
152.1753043074
 20
32.1101932727
 11
151.8862417523
 21
32.1101932727
  0
LINE
  8
0
 62
7
  6
CONTINUOUS
 10
151.2130860697
 20
32.3970785186
 11
151.6256574183
 21
32.3970785186
  0
LINE
  8
0
 62
7
  6
CONTINUOUS
 10
152.852430332
 20
32.3970785186
 11
154.245872955
 21
32.3970785186
  0
LINE
  8
0
 62
7
  6
CONTINUOUS
 10
154.5737418074
 20
32.3970785186
 11
155.9671844304
 21
32.3970785186
  0
LINE
  8
0
 62
7
  6
CONTINUOUS
 10
157.852430332
 20
32.3970785186
 11
159.245872955
 21
32.3970785186
  0
LINE
  8
0
 62
7
  6
CONTINUOUS
 10
159.5737418074
 20
32.3970785186
 11
160.9671844304
 21
32.3970785186
  0
LINE
  8
0
 62
7
  6
CONTINUOUS
 10
157.6096790869
 20
31.5939741996
 11
157.4362415869
 21
31.5294468267
  0
LINE
  8
0
 62
7
  6
CONTINUOUS
 10
155.1815540869
 20
30.6260635193
 11
155.3549915869
 21
30.6905909007
  0
LINE
  8
0
 62
7
  6
CONTINUOUS
 10
160.615929528
 20
30.6260635193
 11
160.8471793074
 21
30.6905909007
  0
LINE
  8
0
 62
7
  6
CONTINUOUS
 10
160.615929528
 20
30.7873819712
 11
160.5003043074
 21
30.7551182848
  0
LINE
  8
0
 62
7
  6
CONTINUOUS
 10
159.575304528
 20
31.4649194539
 11
159.8065543074
 21
31.4971831403
  0
LINE
  8
0
 62
7
  6
CONTINUOUS
 10
157.6096790869
 20
31.4649194539
 11
157.840929528
 21
31.4971831403
  0
LINE
  8
0
 62
7
  6
CONTINUOUS
 10
154.5456166972
 20
31.1100188581
 11
154.7768668074
 21
31.1422825445
  0
LINE
  8
0
 62
7
  6
CONTINUOUS
 10
157.840929528
 20
31.626237886
 11
157.6096790869
 21
31.5939741996
  0
LINE
  8
0
 62
7
  6
CONTINUOUS
 10
154.4299918074
 20
31.4649194539
 11
154.6612419177
 21
31.4971831403
  0
LINE
  8
0
 62
7
  6
CONTINUOUS
 10
159.8065543074
 20
31.626237886
 11
159.4596793074
 21
31.5939741996
  0
LINE
  8
0
 62
7
  6
CONTINUOUS
 10
154.7768668074
 20
31.2713373354
 11
154.4299918074
 21
31.2390736489
  0
LINE
  8
0
 62
7
  6
CONTINUOUS
 10
150.5565542799
 20
31.626237886
 11
150.2096793212
 21
31.5939741996
  0
LINE
  8
0
 62
7
  6
CONTINUOUS
 10
154.6612419177
 20
31.626237886
 11
154.2565543074
 21
31.5939741996
  0
LINE
  8
0
 62
7
  6
CONTINUOUS
 10
152.0327582009
 20
33.5446195022
 11
151.3770204959
 21
33.5446195022
  0
LINE
  8
0
 62
7
  6
CONTINUOUS
 10
157.4362415869
 20
31.400392081
 11
157.6096790869
 21
31.4649194539
  0
LINE
  8
0
 62
7
  6
CONTINUOUS
 10
159.4596793074
 20
31.4326557675
 11
159.575304528
 21
31.4649194539
  0
LINE
  8
0
 62
7
  6
CONTINUOUS
 10
159.4596793074
 20
31.5939741996
 11
159.228429528
 21
31.5294468267
  0
LINE
  8
0
 62
7
  6
CONTINUOUS
 10
155.1815540869
 20
30.7873819712
 11
154.8924916972
 21
30.7228545871
  0
LINE
  8
0
 62
7
  6
CONTINUOUS
 10
152.4643666972
 20
31.4649194539
 11
152.6956168074
 21
31.4971831403
  0
LINE
  8
0
 62
7
  6
CONTINUOUS
 10
152.6956168074
 20
31.626237886
 11
152.4643666972
 21
31.5939741996
  0
LINE
  8
0
 62
7
  6
CONTINUOUS
 10
150.2674918074
 20
31.4649194539
 11
150.498741835
 21
31.4971831403
  0
LINE
  8
0
 62
7
  6
CONTINUOUS
 10
156.7868565615
 20
35.0200293383
 11
157.4425942664
 21
35.0200293383
  0
LINE
  8
0
 62
7
  6
CONTINUOUS
 10
154.4299918074
 20
31.0777551716
 11
154.5456166972
 21
31.1100188581
  0
LINE
  8
0
 62
7
  6
CONTINUOUS
 10
154.4299918074
 20
31.2390736489
 11
154.1987416972
 21
31.1745462761
  0
LINE
  8
0
 62
7
  6
CONTINUOUS
 10
154.3143669177
 20
31.4326557675
 11
154.4299918074
 21
31.4649194539
  0
LINE
  8
0
 62
7
  6
CONTINUOUS
 10
150.9612418074
 20
30.6260635193
 11
151.1924917523
 21
30.6905909007
  0
LINE
  8
0
 62
7
  6
CONTINUOUS
 10
154.2565543074
 20
31.5939741996
 11
154.1409294177
 21
31.5617105132
  0
LINE
  8
0
 62
7
  6
CONTINUOUS
 10
150.2096793212
 20
31.5939741996
 11
150.0362418212
 21
31.5617105132
  0
LINE
  8
0
 62
7
  6
CONTINUOUS
 10
160.9671844304
 20
36.1675703219
 11
159.5737418074
 21
36.1675703219
  0
LINE
  8
0
 62
7
  6
CONTINUOUS
 10
157.6065286927
 20
36.1675703219
 11
157.1939573441
 21
36.1675703219
  0
LINE
  8
0
 62
7
  6
CONTINUOUS
 10
155.9671844304
 20
36.1675703219
 11
154.5737418074
 21
36.1675703219
  0
LINE
  8
0
 62
7
  6
CONTINUOUS
 10
154.245872955
 20
36.1675703219
 11
152.852430332
 21
36.1675703219
  0
LINE
  8
0
 62
7
  6
CONTINUOUS
 10
150.9671844304
 20
36.1675703219
 11
149.5737418074
 21
36.1675703219
  0
LINE
  8
0
 62
7
  6
CONTINUOUS
 10
150.1518667936
 20
31.4326557675
 11
150.2674918074
 21
31.4649194539
  0
CIRCLE
  8
0
 62
7
  6
CONTINUOUS
 10
160.2704631189
 20
38.5036358957
 40
2.0901639344
  0
ARC
  8
0
 62
7
  6
CONTINUOUS
 10
151.2130860697
 20
34.0364227809
 40
1.6393442623
 50
180.0
 51
270.0
  0
ARC
  8
0
 62
7
  6
CONTINUOUS
 10
157.6065286927
 20
34.5282260596
 40
1.6393442623
 50
0.0
 51
90.0
  0
ARC
  8
0
 62
7
  6
CONTINUOUS
 10
151.6256574183
 20
33.8724883547
 40
1.4754098361
 50
270.0
 51
326.2510114041
  0
ARC
  8
0
 62
7
  6
CONTINUOUS
 10
157.1939573441
 20
34.6921604858
 40
1.4754098361
 50
90.0
 51
146.2510114041
  0
ARC
  8
0
 62
7
  6
CONTINUOUS
 10
152.0327582009
 20
34.3642916334
 40
0.8196721311
 50
270.0
 51
360.0
  0
ARC
  8
0
 62
7
  6
CONTINUOUS
 10
156.7868565615
 20
34.2003572071
 40
0.8196721311
 50
90.0
 51
180.0
  0
ARC
  8
0
 62
7
  6
CONTINUOUS
 10
151.3770204959
 20
33.9544555678
 40
0.4098360656
 50
180.0
 51
270.0
  0
ARC
  8
0
 62
7
  6
CONTINUOUS
 10
157.4425942664
 20
34.6101932727
 40
0.4098360656
 50
0.0
 51
90.0
  0
SOLID
  8
0
 62
7
  6
CONTINUOUS
 10
156.279992028
 20
31.9488752009
 11
156.279992028
 21
32.1101936845
 12
156.5690540869
 22
31.9488752009
 13
156.5690540869
 23
32.1101936845
  0
SOLID
  8
0
 62
7
  6
CONTINUOUS
 10
150.5565542799
 20
31.6262382337
 11
150.9612418074
 21
31.5939740028
 12
150.2096793212
 22
31.5939740028
 13
150.2096793212
 23
31.5939740028
  0
SOLID
  8
0
 62
7
  6
CONTINUOUS
 10
150.0362418212
 20
31.5617111435
 11
150.2096793212
 21
31.5939740028
 12
150.9612418074
 22
31.5939740028
 13
150.9612418074
 23
31.5939740028
  0
SOLID
  8
0
 62
7
  6
CONTINUOUS
 10
150.9612418074
 20
31.5939740028
 11
151.1924917523
 21
31.5294468402
 12
150.0362418212
 22
31.5617111435
 13
150.0362418212
 23
31.5617111435
  0
SOLID
  8
0
 62
7
  6
CONTINUOUS
 10
149.8628043005
 20
31.49718259
 11
150.0362418212
 21
31.5617111435
 12
151.1924917523
 22
31.5294468402
 13
151.1924917523
 23
31.5294468402
  0
SOLID
  8
0
 62
7
  6
CONTINUOUS
 10
149.8628043005
 20
31.49718259
 11
151.1924917523
 21
31.5294468402
 12
150.498741835
 22
31.49718259
 13
150.498741835
 23
31.49718259
  0
SOLID
  8
0
 62
7
  6
CONTINUOUS
 10
150.498741835
 20
31.49718259
 11
151.1924917523
 21
31.5294468402
 12
150.9034292799
 22
31.4649197501
 13
150.9034292799
 23
31.4649197501
  0
SOLID
  8
0
 62
7
  6
CONTINUOUS
 10
151.1924917523
 20
31.5294468402
 11
151.3659292523
 21
31.4326554468
 12
150.9034292799
 22
31.4649197501
 13
150.9034292799
 23
31.4649197501
  0
SOLID
  8
0
 62
7
  6
CONTINUOUS
 10
151.0768668626
 20
31.4003926599
 11
150.9034292799
 21
31.4649197501
 12
151.3659292523
 22
31.4326554468
 13
151.3659292523
 23
31.4326554468
  0
SOLID
  8
0
 62
7
  6
CONTINUOUS
 10
151.0768668626
 20
31.4003926599
 11
151.3659292523
 21
31.4326554468
 12
151.1346793074
 22
31.3036013776
 13
151.1346793074
 23
31.3036013776
  0
SOLID
  8
0
 62
7
  6
CONTINUOUS
 10
151.3659292523
 20
31.4326554468
 11
151.4237418626
 21
31.3036013776
 12
151.1346793074
 22
31.3036013776
 13
151.1346793074
 23
31.3036013776
  0
SOLID
  8
0
 62
7
  6
CONTINUOUS
 10
152.4643666972
 20
31.5939739754
 11
152.6956168074
 21
31.6262382787
 12
152.9268669177
 22
31.6262382787
 13
152.9268669177
 23
31.6262382787
  0
SOLID
  8
0
 62
7
  6
CONTINUOUS
 10
152.9268669177
 20
31.6262382787
 11
153.1003044177
 21
31.5939739754
 12
152.4643666972
 22
31.5939739754
 13
152.4643666972
 23
31.5939739754
  0
SOLID
  8
0
 62
7
  6
CONTINUOUS
 10
152.2909293626
 20
31.5294468852
 11
152.4643666972
 21
31.5939739754
 12
153.1003044177
 22
31.5939739754
 13
153.1003044177
 23
31.5939739754
  0
SOLID
  8
0
 62
7
  6
CONTINUOUS
 10
153.1003044177
 20
31.5939739754
 11
153.2737419177
 21
31.5294468852
 12
152.2909293626
 22
31.5294468852
 13
152.2909293626
 23
31.5294468852
  0
SOLID
  8
0
 62
7
  6
CONTINUOUS
 10
153.2737419177
 20
31.5294468852
 11
152.6956168074
 21
31.4971825369
 12
152.2909293626
 22
31.5294468852
 13
152.2909293626
 23
31.5294468852
  0
SOLID
  8
0
 62
7
  6
CONTINUOUS
 10
152.1753043074
 20
31.4649197951
 11
152.2909293626
 21
31.5294468852
 12
152.6956168074
 22
31.4971825369
 13
152.6956168074
 23
31.4971825369
  0
SOLID
  8
0
 62
7
  6
CONTINUOUS
 10
152.6956168074
 20
31.4971825369
 11
152.4643666972
 21
31.4649197951
 12
152.1753043074
 22
31.4649197951
 13
152.1753043074
 23
31.4649197951
  0
SOLID
  8
0
 62
7
  6
CONTINUOUS
 10
152.6956168074
 20
31.4971825369
 11
153.2737419177
 21
31.5294468852
 12
152.9268669177
 22
31.4649197951
 13
152.9268669177
 23
31.4649197951
  0
SOLID
  8
0
 62
7
  6
CONTINUOUS
 10
153.2737419177
 20
31.5294468852
 11
153.3893668074
 21
31.4649197951
 12
152.9268669177
 22
31.4649197951
 13
152.9268669177
 23
31.4649197951
  0
SOLID
  8
0
 62
7
  6
CONTINUOUS
 10
153.0424918074
 20
31.4326554468
 11
152.9268669177
 21
31.4649197951
 12
153.3893668074
 22
31.4649197951
 13
153.3893668074
 23
31.4649197951
  0
SOLID
  8
0
 62
7
  6
CONTINUOUS
 10
153.3893668074
 20
31.4649197951
 11
153.4471794177
 21
31.4003927049
 12
153.0424918074
 22
31.4326554468
 13
153.0424918074
 23
31.4326554468
  0
SOLID
  8
0
 62
7
  6
CONTINUOUS
 10
153.1581166972
 20
31.3681283566
 11
153.0424918074
 21
31.4326554468
 12
153.4471794177
 22
31.4003927049
 13
153.4471794177
 23
31.4003927049
  0
SOLID
  8
0
 62
7
  6
CONTINUOUS
 10
153.1581166972
 20
31.3681283566
 11
153.4471794177
 21
31.4003927049
 12
153.2159293074
 22
31.2390742213
 13
153.2159293074
 23
31.2390742213
  0
SOLID
  8
0
 62
7
  6
CONTINUOUS
 10
153.4471794177
 20
31.4003927049
 11
153.5049916972
 21
31.2390742213
 12
153.2159293074
 22
31.2390742213
 13
153.2159293074
 23
31.2390742213
  0
SOLID
  8
0
 62
7
  6
CONTINUOUS
 10
152.4643666972
 20
31.4649197951
 11
152.2909293626
 21
31.4003927049
 12
152.1753043074
 22
31.4649197951
 13
152.1753043074
 23
31.4649197951
  0
SOLID
  8
0
 62
7
  6
CONTINUOUS
 10
152.2909293626
 20
31.4003927049
 11
152.1753043074
 21
31.3358640533
 12
152.1753043074
 22
31.4649197951
 13
152.1753043074
 23
31.4649197951
  0
SOLID
  8
0
 62
7
  6
CONTINUOUS
 10
152.1753043074
 20
31.3358640533
 11
151.8862417523
 21
30.5938002869
 12
152.1753043074
 22
31.4649197951
 13
152.1753043074
 23
31.4649197951
  0
SOLID
  8
0
 62
7
  6
CONTINUOUS
 10
152.1753043074
 20
31.4649197951
 11
151.8862417523
 21
30.5938002869
 12
152.1753043074
 22
32.1101937295
 13
152.1753043074
 23
32.1101937295
  0
SOLID
  8
0
 62
7
  6
CONTINUOUS
 10
151.8862417523
 20
30.5938002869
 11
151.8862417523
 21
32.1101937295
 12
152.1753043074
 22
32.1101937295
 13
152.1753043074
 23
32.1101937295
  0
SOLID
  8
0
 62
7
  6
CONTINUOUS
 10
152.1753043074
 20
31.3358640533
 11
152.1753043074
 21
30.5938002869
 12
151.8862417523
 22
30.5938002869
 13
151.8862417523
 23
30.5938002869
  0
SOLID
  8
0
 62
7
  6
CONTINUOUS
 10
153.2159293074
 20
30.5938002869
 11
153.2159293074
 21
31.2390742213
 12
153.5049916972
 22
31.2390742213
 13
153.5049916972
 23
31.2390742213
  0
SOLID
  8
0
 62
7
  6
CONTINUOUS
 10
153.5049916972
 20
31.2390742213
 11
153.5049916972
 21
30.5938002869
 12
153.2159293074
 22
30.5938002869
 13
153.2159293074
 23
30.5938002869
  0
SOLID
  8
0
 62
7
  6
CONTINUOUS
 10
154.2565543074
 20
31.5939738288
 11
154.6612419177
 21
31.6262385959
 12
155.0081169177
 22
31.6262385959
 13
155.0081169177
 23
31.6262385959
  0
SOLID
  8
0
 62
7
  6
CONTINUOUS
 10
155.0081169177
 20
31.6262385959
 11
155.3549915869
 21
31.5939738288
 12
154.2565543074
 22
31.5939738288
 13
154.2565543074
 23
31.5939738288
  0
SOLID
  8
0
 62
7
  6
CONTINUOUS
 10
154.1409294177
 20
31.5617111435
 11
154.2565543074
 21
31.5939738288
 12
155.3549915869
 22
31.5939738288
 13
155.3549915869
 23
31.5939738288
  0
SOLID
  8
0
 62
7
  6
CONTINUOUS
 10
155.3549915869
 20
31.5939738288
 11
155.5284290869
 21
31.5294468402
 12
154.1409294177
 22
31.5617111435
 13
154.1409294177
 23
31.5617111435
  0
SOLID
  8
0
 62
7
  6
CONTINUOUS
 10
154.0253041972
 20
31.4971826249
 11
154.1409294177
 21
31.5617111435
 12
155.5284290869
 22
31.5294468402
 13
155.5284290869
 23
31.5294468402
  0
SOLID
  8
0
 62
7
  6
CONTINUOUS
 10
154.0253041972
 20
31.4971826249
 11
155.5284290869
 21
31.5294468402
 12
154.6612419177
 22
31.4971826249
 13
154.6612419177
 23
31.4971826249
  0
SOLID
  8
0
 62
7
  6
CONTINUOUS
 10
154.6612419177
 20
31.4971826249
 11
155.5284290869
 21
31.5294468402
 12
155.0081169177
 22
31.4971826249
 13
155.0081169177
 23
31.4971826249
  0
SOLID
  8
0
 62
7
  6
CONTINUOUS
 10
155.0081169177
 20
31.4971826249
 11
155.5284290869
 21
31.5294468402
 12
155.239367028
 22
31.4649194065
 13
155.239367028
 23
31.4649194065
  0
SOLID
  8
0
 62
7
  6
CONTINUOUS
 10
155.5284290869
 20
31.5294468402
 11
155.6440543074
 21
31.4649194065
 12
155.239367028
 22
31.4649194065
 13
155.239367028
 23
31.4649194065
  0
SOLID
  8
0
 62
7
  6
CONTINUOUS
 10
153.9674919177
 20
31.4326554138
 11
154.0253041972
 21
31.4971826249
 12
154.6612419177
 22
31.4971826249
 13
154.6612419177
 23
31.4971826249
  0
SOLID
  8
0
 62
7
  6
CONTINUOUS
 10
155.3549915869
 20
31.4326554138
 11
155.239367028
 21
31.4649194065
 12
155.6440543074
 22
31.4649194065
 13
155.6440543074
 23
31.4649194065
  0
SOLID
  8
0
 62
7
  6
CONTINUOUS
 10
155.3549915869
 20
31.4326554138
 11
155.6440543074
 21
31.4649194065
 12
155.412804528
 22
31.3681282026
 13
155.412804528
 23
31.3681282026
  0
SOLID
  8
0
 62
7
  6
CONTINUOUS
 10
155.6440543074
 20
31.4649194065
 11
155.7018665869
 21
31.3681282026
 12
155.412804528
 22
31.3681282026
 13
155.412804528
 23
31.3681282026
  0
SOLID
  8
0
 62
7
  6
CONTINUOUS
 10
155.412804528
 20
31.2713369632
 11
155.412804528
 21
31.3681282026
 12
155.7018665869
 22
31.3681282026
 13
155.7018665869
 23
31.3681282026
  0
SOLID
  8
0
 62
7
  6
CONTINUOUS
 10
155.412804528
 20
31.2713369632
 11
155.7018665869
 21
31.3681282026
 12
155.412804528
 22
31.1422827828
 13
155.412804528
 23
31.1422827828
  0
SOLID
  8
0
 62
7
  6
CONTINUOUS
 10
155.412804528
 20
31.1422827828
 11
155.7018665869
 21
31.3681282026
 12
155.412804528
 22
30.9487004259
 13
155.412804528
 23
30.9487004259
  0
SOLID
  8
0
 62
7
  6
CONTINUOUS
 10
155.7018665869
 20
31.3681282026
 11
155.7018665869
 21
30.8519086025
 12
155.412804528
 22
30.9487004259
 13
155.412804528
 23
30.9487004259
  0
SOLID
  8
0
 62
7
  6
CONTINUOUS
 10
157.6096790869
 20
31.5939736268
 11
157.840929528
 21
31.6262383465
 12
158.0721793074
 22
31.6262383465
 13
158.0721793074
 23
31.6262383465
  0
SOLID
  8
0
 62
7
  6
CONTINUOUS
 10
158.0721793074
 20
31.6262383465
 11
158.2456168074
 21
31.5939736268
 12
157.6096790869
 22
31.5939736268
 13
157.6096790869
 23
31.5939736268
  0
SOLID
  8
0
 62
7
  6
CONTINUOUS
 10
157.4362415869
 20
31.5294472848
 11
157.6096790869
 21
31.5939736268
 12
158.2456168074
 22
31.5939736268
 13
158.2456168074
 23
31.5939736268
  0
SOLID
  8
0
 62
7
  6
CONTINUOUS
 10
158.2456168074
 20
31.5939736268
 11
158.4190543074
 21
31.5294472848
 12
157.4362415869
 22
31.5294472848
 13
157.4362415869
 23
31.5294472848
  0
SOLID
  8
0
 62
7
  6
CONTINUOUS
 10
158.4190543074
 20
31.5294472848
 11
157.840929528
 21
31.4971825369
 12
157.4362415869
 22
31.5294472848
 13
157.4362415869
 23
31.5294472848
  0
SOLID
  8
0
 62
7
  6
CONTINUOUS
 10
157.320617028
 20
31.4649199103
 11
157.4362415869
 21
31.5294472848
 12
157.840929528
 22
31.4971825369
 13
157.840929528
 23
31.4971825369
  0
SOLID
  8
0
 62
7
  6
CONTINUOUS
 10
157.840929528
 20
31.4971825369
 11
157.6096790869
 21
31.4649199103
 12
157.320617028
 22
31.4649199103
 13
157.320617028
 23
31.4649199103
  0
SOLID
  8
0
 62
7
  6
CONTINUOUS
 10
157.840929528
 20
31.4971825369
 11
158.4190543074
 21
31.5294472848
 12
158.0721793074
 22
31.4649199103
 13
158.0721793074
 23
31.4649199103
  0
SOLID
  8
0
 62
7
  6
CONTINUOUS
 10
158.4190543074
 20
31.5294472848
 11
158.534679528
 21
31.4649199103
 12
158.0721793074
 22
31.4649199103
 13
158.0721793074
 23
31.4649199103
  0
SOLID
  8
0
 62
7
  6
CONTINUOUS
 10
158.187804528
 20
31.4326554468
 11
158.0721793074
 21
31.4649199103
 12
158.534679528
 22
31.4649199103
 13
158.534679528
 23
31.4649199103
  0
SOLID
  8
0
 62
7
  6
CONTINUOUS
 10
158.187804528
 20
31.4326554468
 11
158.534679528
 21
31.4649199103
 12
158.3034290869
 22
31.3681288486
 13
158.3034290869
 23
31.3681288486
  0
SOLID
  8
0
 62
7
  6
CONTINUOUS
 10
158.534679528
 20
31.4649199103
 11
158.5924918074
 21
31.3681288486
 12
158.3034290869
 22
31.3681288486
 13
158.3034290869
 23
31.3681288486
  0
SOLID
  8
0
 62
7
  6
CONTINUOUS
 10
158.361242028
 20
31.2068093799
 11
158.3034290869
 21
31.3681288486
 12
158.5924918074
 22
31.3681288486
 13
158.5924918074
 23
31.3681288486
  0
SOLID
  8
0
 62
7
  6
CONTINUOUS
 10
158.5924918074
 20
31.3681288486
 11
158.6503040869
 21
31.2068093799
 12
158.361242028
 22
31.2068093799
 13
158.361242028
 23
31.2068093799
  0
SOLID
  8
0
 62
7
  6
CONTINUOUS
 10
157.6096790869
 20
31.4649199103
 11
157.4362415869
 21
31.4003926599
 12
157.320617028
 22
31.4649199103
 13
157.320617028
 23
31.4649199103
  0
SOLID
  8
0
 62
7
  6
CONTINUOUS
 10
157.4362415869
 20
31.4003926599
 11
157.320617028
 21
31.3358640533
 12
157.320617028
 22
31.4649199103
 13
157.320617028
 23
31.4649199103
  0
SOLID
  8
0
 62
7
  6
CONTINUOUS
 10
157.320617028
 20
31.3358640533
 11
157.0315543074
 21
30.5938003547
 12
157.320617028
 22
31.4649199103
 13
157.320617028
 23
31.4649199103
  0
SOLID
  8
0
 62
7
  6
CONTINUOUS
 10
157.320617028
 20
31.4649199103
 11
157.0315543074
 21
30.5938003547
 12
157.320617028
 22
31.6262383465
 13
157.320617028
 23
31.6262383465
  0
SOLID
  8
0
 62
7
  6
CONTINUOUS
 10
157.0315543074
 20
30.5938003547
 11
157.0315543074
 21
31.6262383465
 12
157.320617028
 22
31.6262383465
 13
157.320617028
 23
31.6262383465
  0
SOLID
  8
0
 62
7
  6
CONTINUOUS
 10
157.320617028
 20
31.3358640533
 11
157.320617028
 21
30.5938003547
 12
157.0315543074
 22
30.5938003547
 13
157.0315543074
 23
30.5938003547
  0
SOLID
  8
0
 62
7
  6
CONTINUOUS
 10
158.361242028
 20
30.5938003547
 11
158.361242028
 21
31.2068093799
 12
158.6503040869
 22
31.2068093799
 13
158.6503040869
 23
31.2068093799
  0
SOLID
  8
0
 62
7
  6
CONTINUOUS
 10
158.6503040869
 20
31.2068093799
 11
158.6503040869
 21
30.5938003547
 12
158.361242028
 22
30.5938003547
 13
158.361242028
 23
30.5938003547
  0
SOLID
  8
0
 62
7
  6
CONTINUOUS
 10
159.4596793074
 20
31.5939739474
 11
159.8065543074
 21
31.6262381969
 12
160.1534293074
 22
31.6262381969
 13
160.1534293074
 23
31.6262381969
  0
SOLID
  8
0
 62
7
  6
CONTINUOUS
 10
160.1534293074
 20
31.6262381969
 11
160.5003043074
 21
31.5939739474
 12
159.4596793074
 22
31.5939739474
 13
159.4596793074
 23
31.5939739474
  0
SOLID
  8
0
 62
7
  6
CONTINUOUS
 10
159.228429528
 20
31.5294468402
 11
159.4596793074
 21
31.5939739474
 12
160.5003043074
 22
31.5939739474
 13
160.5003043074
 23
31.5939739474
  0
SOLID
  8
0
 62
7
  6
CONTINUOUS
 10
159.228429528
 20
31.5294468402
 11
160.5003043074
 21
31.5939739304
 12
160.6737418074
 22
31.5617111435
 13
160.6737418074
 23
31.5617111435
  0
SOLID
  8
0
 62
7
  6
CONTINUOUS
 10
159.228429528
 20
31.5294468402
 11
160.6737418074
 21
31.5617111435
 12
159.8065543074
 22
31.4971825592
 13
159.8065543074
 23
31.4971825592
  0
SOLID
  8
0
 62
7
  6
CONTINUOUS
 10
159.8065543074
 20
31.4971825592
 11
160.6737418074
 21
31.5617111435
 12
160.1534293074
 22
31.4971825592
 13
160.1534293074
 23
31.4971825592
  0
SOLID
  8
0
 62
7
  6
CONTINUOUS
 10
160.6737418074
 20
31.5617111435
 11
160.8471793074
 21
31.4971825592
 12
160.1534293074
 22
31.4971825592
 13
160.1534293074
 23
31.4971825592
  0
SOLID
  8
0
 62
7
  6
CONTINUOUS
 10
160.5003043074
 20
31.4649197501
 11
160.1534293074
 21
31.4971825592
 12
160.8471793074
 22
31.4971825592
 13
160.8471793074
 23
31.4971825592
  0
SOLID
  8
0
 62
7
  6
CONTINUOUS
 10
159.1128043074
 20
31.4326555427
 11
159.228429528
 21
31.5294468402
 12
159.8065543074
 22
31.4971825592
 13
159.8065543074
 23
31.4971825592
  0
SOLID
  8
0
 62
7
  6
CONTINUOUS
 10
160.5003043074
 20
31.4649197501
 11
160.8471793074
 21
31.4971825592
 12
160.615929528
 22
31.4326555427
 13
160.615929528
 23
31.4326555427
  0
SOLID
  8
0
 62
7
  6
CONTINUOUS
 10
160.615929528
 20
31.4326555427
 11
160.8471793074
 21
31.4971825592
 12
160.6737418074
 22
31.3681283005
 13
160.6737418074
 23
31.3681283005
  0
SOLID
  8
0
 62
7
  6
CONTINUOUS
 10
160.8471793074
 20
31.4971825592
 11
160.9628038663
 21
31.3681283005
 12
160.6737418074
 22
31.3681283005
 13
160.6737418074
 23
31.3681283005
  0
SOLID
  8
0
 62
7
  6
CONTINUOUS
 10
150.2674918074
 20
31.4649197501
 11
149.7471793074
 21
31.4326554237
 12
150.498741835
 22
31.4971824493
 13
150.498741835
 23
31.4971824493
  0
SOLID
  8
0
 62
7
  6
CONTINUOUS
 10
149.7471793074
 20
31.4326554237
 11
149.8628043005
 21
31.4971824493
 12
150.498741835
 22
31.4971824493
 13
150.498741835
 23
31.4971824493
  0
SOLID
  8
0
 62
7
  6
CONTINUOUS
 10
150.2674918074
 20
31.4649197501
 11
150.1518667936
 21
31.4326554237
 12
149.7471793074
 22
31.4326554237
 13
149.7471793074
 23
31.4326554237
  0
SOLID
  8
0
 62
7
  6
CONTINUOUS
 10
149.6315543091
 20
31.3036012664
 11
149.7471793074
 21
31.4326554237
 12
150.1518667936
 22
31.4326554237
 13
150.1518667936
 23
31.4326554237
  0
SOLID
  8
0
 62
7
  6
CONTINUOUS
 10
153.9674919177
 20
31.4326554237
 11
154.6612419177
 21
31.4971825369
 12
154.4299918074
 22
31.4649197501
 13
154.4299918074
 23
31.4649197501
  0
SOLID
  8
0
 62
7
  6
CONTINUOUS
 10
154.4299918074
 20
31.4649197501
 11
154.3143669177
 21
31.4326554237
 12
153.9674919177
 22
31.4326554237
 13
153.9674919177
 23
31.4326554237
  0
SOLID
  8
0
 62
7
  6
CONTINUOUS
 10
153.9674919177
 20
31.3681283335
 11
153.9674919177
 21
31.4326554237
 12
154.3143669177
 22
31.4326554237
 13
154.3143669177
 23
31.4326554237
  0
SOLID
  8
0
 62
7
  6
CONTINUOUS
 10
154.3143669177
 20
31.4326554237
 11
154.2565543074
 21
31.3681283335
 12
153.9674919177
 22
31.3681283335
 13
153.9674919177
 23
31.3681283335
  0
SOLID
  8
0
 62
7
  6
CONTINUOUS
 10
159.1128043074
 20
31.4326555528
 11
159.8065543074
 21
31.4971825369
 12
159.575304528
 22
31.4649197501
 13
159.575304528
 23
31.4649197501
  0
SOLID
  8
0
 62
7
  6
CONTINUOUS
 10
159.575304528
 20
31.4649197501
 11
159.4596793074
 21
31.4326555528
 12
159.1128043074
 22
31.4326555528
 13
159.1128043074
 23
31.4326555528
  0
SOLID
  8
0
 62
7
  6
CONTINUOUS
 10
159.1128043074
 20
31.3681284626
 11
159.1128043074
 21
31.4326555528
 12
159.4596793074
 22
31.4326555528
 13
159.4596793074
 23
31.4326555528
  0
SOLID
  8
0
 62
7
  6
CONTINUOUS
 10
159.4596793074
 20
31.4326555528
 11
159.401867028
 21
31.3681284626
 12
159.1128043074
 22
31.3681284626
 13
159.1128043074
 23
31.3681284626
  0
SOLID
  8
0
 62
7
  6
CONTINUOUS
 10
159.228429528
 20
31.2390741763
 11
159.1128043074
 21
31.3681284626
 12
159.401867028
 22
31.3681284626
 13
159.401867028
 23
31.3681284626
  0
SOLID
  8
0
 62
7
  6
CONTINUOUS
 10
149.6315543091
 20
31.3036012664
 11
150.1518667936
 21
31.4326554468
 12
149.9784292936
 22
31.3358640533
 13
149.9784292936
 23
31.3358640533
  0
SOLID
  8
0
 62
7
  6
CONTINUOUS
 10
149.9784292936
 20
31.3358640533
 11
149.9206168074
 21
31.2713369632
 12
149.6315543091
 22
31.3036012664
 13
149.6315543091
 23
31.3036012664
  0
SOLID
  8
0
 62
7
  6
CONTINUOUS
 10
149.5737418074
 20
31.1100184796
 11
149.6315543091
 21
31.3036012664
 12
149.9206168074
 22
31.2713369632
 13
149.9206168074
 23
31.2713369632
  0
SOLID
  8
0
 62
7
  6
CONTINUOUS
 10
154.4299918074
 20
31.2390741763
 11
154.7768668074
 21
31.271336924
 12
155.412804528
 22
31.271336924
 13
155.412804528
 23
31.271336924
  0
SOLID
  8
0
 62
7
  6
CONTINUOUS
 10
154.4299918074
 20
31.2390741763
 11
155.412804528
 21
31.271336924
 12
154.1987416972
 22
31.1745462761
 13
154.1987416972
 23
31.1745462761
  0
SOLID
  8
0
 62
7
  6
CONTINUOUS
 10
154.1987416972
 20
31.1745462761
 11
155.412804528
 21
31.271336924
 12
154.7768668074
 22
31.1422827436
 13
154.7768668074
 23
31.1422827436
  0
SOLID
  8
0
 62
7
  6
CONTINUOUS
 10
155.412804528
 20
31.271336924
 11
155.412804528
 21
31.1422827436
 12
154.7768668074
 22
31.1422827436
 13
154.7768668074
 23
31.1422827436
  0
SOLID
  8
0
 62
7
  6
CONTINUOUS
 10
159.228429528
 20
31.2390745501
 11
159.401867028
 21
31.3681283566
 12
159.4596793074
 22
31.3036012664
 13
159.4596793074
 23
31.3036012664
  0
SOLID
  8
0
 62
7
  6
CONTINUOUS
 10
159.4596793074
 20
31.3036012664
 11
159.6331168074
 21
31.2390745501
 12
159.228429528
 22
31.2390745501
 13
159.228429528
 23
31.2390745501
  0
SOLID
  8
0
 62
7
  6
CONTINUOUS
 10
159.4596793074
 20
31.1422827828
 11
159.228429528
 21
31.2390745501
 12
159.6331168074
 22
31.2390745501
 13
159.6331168074
 23
31.2390745501
  0
SOLID
  8
0
 62
7
  6
CONTINUOUS
 10
159.6331168074
 20
31.2390745501
 11
160.615929528
 21
31.0777556927
 12
159.4596793074
 22
31.1422827828
 13
159.4596793074
 23
31.1422827828
  0
SOLID
  8
0
 62
7
  6
CONTINUOUS
 10
160.442492028
 20
30.9809646623
 11
159.4596793074
 21
31.1422827828
 12
160.615929528
 22
31.0777556927
 13
160.615929528
 23
31.0777556927
  0
SOLID
  8
0
 62
7
  6
CONTINUOUS
 10
160.615929528
 20
31.0777556927
 11
160.8471793074
 21
30.9809646623
 12
160.442492028
 22
30.9809646623
 13
160.442492028
 23
30.9809646623
  0
SOLID
  8
0
 62
7
  6
CONTINUOUS
 10
160.615929528
 20
30.9164372091
 11
160.442492028
 21
30.9809646623
 12
160.8471793074
 22
30.9809646623
 13
160.8471793074
 23
30.9809646623
  0
SOLID
  8
0
 62
7
  6
CONTINUOUS
 10
160.615929528
 20
30.9164372091
 11
160.8471793074
 21
30.9809646623
 12
160.6737418074
 22
30.8519089441
 13
160.6737418074
 23
30.8519089441
  0
SOLID
  8
0
 62
7
  6
CONTINUOUS
 10
160.8471793074
 20
30.9809646623
 11
160.9628038663
 21
30.8519089441
 12
160.6737418074
 22
30.8519089441
 13
160.6737418074
 23
30.8519089441
  0
SOLID
  8
0
 62
7
  6
CONTINUOUS
 10
160.615929528
 20
30.7873818593
 11
160.6737418074
 21
30.8519089441
 12
160.9628038663
 22
30.8519089441
 13
160.9628038663
 23
30.8519089441
  0
SOLID
  8
0
 62
7
  6
CONTINUOUS
 10
160.9628038663
 20
30.8519089441
 11
160.9628038663
 21
30.7873818593
 12
160.615929528
 22
30.7873818593
 13
160.615929528
 23
30.7873818593
  0
SOLID
  8
0
 62
7
  6
CONTINUOUS
 10
160.5003043074
 20
30.7551187255
 11
160.615929528
 21
30.7873818593
 12
160.9628038663
 22
30.7873818593
 13
160.9628038663
 23
30.7873818593
  0
SOLID
  8
0
 62
7
  6
CONTINUOUS
 10
160.5003043074
 20
30.7551187255
 11
160.9628038663
 21
30.7873818593
 12
160.269054528
 22
30.7228547745
 13
160.269054528
 23
30.7228547745
  0
SOLID
  8
0
 62
7
  6
CONTINUOUS
 10
160.9628038663
 20
30.7873818593
 11
160.8471793074
 21
30.6905916353
 12
160.269054528
 22
30.7228547745
 13
160.269054528
 23
30.7228547745
  0
SOLID
  8
0
 62
7
  6
CONTINUOUS
 10
160.8471793074
 20
30.6905916353
 11
159.401867028
 21
30.658327332
 12
160.269054528
 22
30.7228547745
 13
160.269054528
 23
30.7228547745
  0
SOLID
  8
0
 62
7
  6
CONTINUOUS
 10
160.269054528
 20
30.7228547745
 11
159.401867028
 21
30.658327332
 12
159.922179528
 22
30.7228547745
 13
159.922179528
 23
30.7228547745
  0
SOLID
  8
0
 62
7
  6
CONTINUOUS
 10
159.401867028
 20
30.658327332
 11
159.228429528
 21
30.7228547745
 12
159.922179528
 22
30.7228547745
 13
159.922179528
 23
30.7228547745
  0
SOLID
  8
0
 62
7
  6
CONTINUOUS
 10
159.401867028
 20
30.658327332
 11
160.8471793074
 21
30.6905916353
 12
159.575304528
 22
30.6260629858
 13
159.575304528
 23
30.6260629858
  0
SOLID
  8
0
 62
7
  6
CONTINUOUS
 10
160.8471793074
 20
30.6905916353
 11
160.615929528
 21
30.6260629858
 12
159.575304528
 22
30.6260629858
 13
159.575304528
 23
30.6260629858
  0
SOLID
  8
0
 62
7
  6
CONTINUOUS
 10
159.922179528
 20
30.5938006049
 11
159.575304528
 21
30.6260629858
 12
160.615929528
 22
30.6260629858
 13
160.615929528
 23
30.6260629858
  0
SOLID
  8
0
 62
7
  6
CONTINUOUS
 10
160.615929528
 20
30.6260629858
 11
160.269054528
 21
30.5938006049
 12
159.922179528
 22
30.5938006049
 13
159.922179528
 23
30.5938006049
  0
SOLID
  8
0
 62
7
  6
CONTINUOUS
 10
149.5737418074
 20
31.1100184796
 11
149.9206168074
 21
31.2713369632
 12
149.8628043005
 22
31.1422827828
 13
149.8628043005
 23
31.1422827828
  0
SOLID
  8
0
 62
7
  6
CONTINUOUS
 10
149.8628043005
 20
31.1422827828
 11
149.8628043005
 21
31.0454914852
 12
149.5737418074
 22
31.1100184796
 13
149.5737418074
 23
31.1100184796
  0
SOLID
  8
0
 62
7
  6
CONTINUOUS
 10
149.6315543091
 20
30.9164372091
 11
149.5737418074
 21
31.1100184796
 12
149.8628043005
 22
31.0454914852
 13
149.8628043005
 23
31.0454914852
  0
SOLID
  8
0
 62
7
  6
CONTINUOUS
 10
149.8628043005
 20
31.0454914852
 11
149.9784292936
 21
30.8841729058
 12
149.6315543091
 22
30.9164372091
 13
149.6315543091
 23
30.9164372091
  0
SOLID
  8
0
 62
7
  6
CONTINUOUS
 10
149.7471793074
 20
30.7873813202
 11
149.6315543091
 21
30.9164372091
 12
149.9784292936
 22
30.8841729058
 13
149.9784292936
 23
30.8841729058
  0
SOLID
  8
0
 62
7
  6
CONTINUOUS
 10
149.9784292936
 20
30.8841729058
 11
150.1518667936
 21
30.7873813202
 12
149.7471793074
 22
30.7873813202
 13
149.7471793074
 23
30.7873813202
  0
SOLID
  8
0
 62
7
  6
CONTINUOUS
 10
149.8628043005
 20
30.7228547004
 11
149.7471793074
 21
30.7873813202
 12
150.1518667936
 22
30.7873813202
 13
150.1518667936
 23
30.7873813202
  0
SOLID
  8
0
 62
7
  6
CONTINUOUS
 10
150.1518667936
 20
30.7873813202
 11
150.498741835
 21
30.7228547004
 12
149.8628043005
 22
30.7228547004
 13
149.8628043005
 23
30.7228547004
  0
SOLID
  8
0
 62
7
  6
CONTINUOUS
 10
150.0362418212
 20
30.658327332
 11
149.8628043005
 21
30.7228547004
 12
150.498741835
 22
30.7228547004
 13
150.498741835
 23
30.7228547004
  0
SOLID
  8
0
 62
7
  6
CONTINUOUS
 10
154.0831168074
 20
31.1100184386
 11
154.1987416972
 21
31.1745462761
 12
154.7768668074
 22
31.1422827828
 13
154.7768668074
 23
31.1422827828
  0
SOLID
  8
0
 62
7
  6
CONTINUOUS
 10
154.7768668074
 20
31.1422827828
 11
154.5456166972
 21
31.1100184386
 12
154.0831168074
 22
31.1100184386
 13
154.0831168074
 23
31.1100184386
  0
SOLID
  8
0
 62
7
  6
CONTINUOUS
 10
153.9674919177
 20
30.9809642992
 11
154.0831168074
 21
31.1100184386
 12
154.5456166972
 22
31.1100184386
 13
154.5456166972
 23
31.1100184386
  0
SOLID
  8
0
 62
7
  6
CONTINUOUS
 10
154.3143669177
 20
31.0132277988
 11
153.9674919177
 21
30.9809642992
 12
154.4299918074
 22
31.0777556927
 13
154.4299918074
 23
31.0777556927
  0
SOLID
  8
0
 62
7
  6
CONTINUOUS
 10
153.9674919177
 20
30.9809642992
 11
154.5456166972
 21
31.1100184796
 12
154.4299918074
 22
31.0777556927
 13
154.4299918074
 23
31.0777556927
  0
SOLID
  8
0
 62
7
  6
CONTINUOUS
 10
154.3143669177
 20
31.0132277988
 11
154.2565543074
 21
30.9164372091
 12
153.9674919177
 22
30.9809642992
 13
153.9674919177
 23
30.9809642992
  0
SOLID
  8
0
 62
7
  6
CONTINUOUS
 10
153.9674919177
 20
30.8841729058
 11
153.9674919177
 21
30.9809642992
 12
154.2565543074
 22
30.9164372091
 13
154.2565543074
 23
30.9164372091
  0
SOLID
  8
0
 62
7
  6
CONTINUOUS
 10
154.2565543074
 20
30.9164372091
 11
154.2565543074
 21
30.8519086025
 12
153.9674919177
 22
30.8841729058
 13
153.9674919177
 23
30.8841729058
  0
SOLID
  8
0
 62
7
  6
CONTINUOUS
 10
154.0253041972
 20
30.7551187255
 11
153.9674919177
 21
30.8841729058
 12
154.2565543074
 22
30.8519086025
 13
154.2565543074
 23
30.8519086025
  0
SOLID
  8
0
 62
7
  6
CONTINUOUS
 10
155.412804528
 20
30.9487004259
 11
155.7018665869
 21
30.8519086025
 12
155.3549915869
 22
30.8841729058
 13
155.3549915869
 23
30.8841729058
  0
SOLID
  8
0
 62
7
  6
CONTINUOUS
 10
155.1815540869
 20
30.7873815123
 11
155.3549915869
 21
30.8841729058
 12
155.7018665869
 22
30.8519086025
 13
155.7018665869
 23
30.8519086025
  0
SOLID
  8
0
 62
7
  6
CONTINUOUS
 10
155.1815540869
 20
30.7873815123
 11
155.7018665869
 21
30.8519086025
 12
155.412804528
 22
30.7551187255
 13
155.412804528
 23
30.7551187255
  0
SOLID
  8
0
 62
7
  6
CONTINUOUS
 10
155.7018665869
 20
30.8519086025
 11
155.759679528
 21
30.6905916353
 12
155.412804528
 22
30.7551187255
 13
155.412804528
 23
30.7551187255
  0
SOLID
  8
0
 62
7
  6
CONTINUOUS
 10
155.4706168074
 20
30.658327332
 11
155.412804528
 21
30.7551187255
 12
155.759679528
 22
30.6905916353
 13
155.759679528
 23
30.6905916353
  0
SOLID
  8
0
 62
7
  6
CONTINUOUS
 10
155.4706168074
 20
30.658327332
 11
155.759679528
 21
30.6905916353
 12
155.5284290869
 22
30.5938002079
 13
155.5284290869
 23
30.5938002079
  0
SOLID
  8
0
 62
7
  6
CONTINUOUS
 10
155.759679528
 20
30.6905916353
 11
155.8174918074
 21
30.5938002079
 12
155.5284290869
 22
30.5938002079
 13
155.5284290869
 23
30.5938002079
  0
SOLID
  8
0
 62
7
  6
CONTINUOUS
 10
151.0768668626
 20
30.8196456577
 11
151.1346793074
 21
30.9164373395
 12
151.4237418626
 22
30.9164373395
 13
151.4237418626
 23
30.9164373395
  0
SOLID
  8
0
 62
7
  6
CONTINUOUS
 10
151.4237418626
 20
30.9164373395
 11
151.3659292523
 21
30.7873815123
 12
151.0768668626
 22
30.8196456577
 13
151.0768668626
 23
30.8196456577
  0
SOLID
  8
0
 62
7
  6
CONTINUOUS
 10
150.9034292799
 20
30.7551187255
 11
151.0768668626
 21
30.8196456577
 12
151.3659292523
 22
30.7873815123
 13
151.3659292523
 23
30.7873815123
  0
SOLID
  8
0
 62
7
  6
CONTINUOUS
 10
150.9034292799
 20
30.7551187255
 11
151.3659292523
 21
30.7873815123
 12
150.498741835
 22
30.7228544222
 13
150.498741835
 23
30.7228544222
  0
SOLID
  8
0
 62
7
  6
CONTINUOUS
 10
151.3659292523
 20
30.7873815123
 11
151.1924917523
 21
30.6905916353
 12
150.498741835
 22
30.7228544222
 13
150.498741835
 23
30.7228544222
  0
SOLID
  8
0
 62
7
  6
CONTINUOUS
 10
150.0362418212
 20
30.658327332
 11
150.498741835
 21
30.7228544222
 12
151.1924917523
 22
30.6905916353
 13
151.1924917523
 23
30.6905916353
  0
SOLID
  8
0
 62
7
  6
CONTINUOUS
 10
150.0362418212
 20
30.658327332
 11
151.1924917523
 21
30.6905916353
 12
150.2096793212
 22
30.6260631011
 13
150.2096793212
 23
30.6260631011
  0
SOLID
  8
0
 62
7
  6
CONTINUOUS
 10
151.1924917523
 20
30.6905916353
 11
150.9612418074
 21
30.6260631011
 12
150.2096793212
 22
30.6260631011
 13
150.2096793212
 23
30.6260631011
  0
SOLID
  8
0
 62
7
  6
CONTINUOUS
 10
150.5565542799
 20
30.5938002419
 11
150.2096793212
 21
30.6260631011
 12
150.9612418074
 22
30.6260631011
 13
150.9612418074
 23
30.6260631011
  0
SOLID
  8
0
 62
7
  6
CONTINUOUS
 10
154.0253041972
 20
30.7551187255
 11
154.2565543074
 21
30.8519086025
 12
154.3143669177
 22
30.7873815123
 13
154.3143669177
 23
30.7873815123
  0
SOLID
  8
0
 62
7
  6
CONTINUOUS
 10
154.3143669177
 20
30.7873815123
 11
154.5456166972
 21
30.7228544222
 12
154.0253041972
 22
30.7551187255
 13
154.0253041972
 23
30.7551187255
  0
SOLID
  8
0
 62
7
  6
CONTINUOUS
 10
154.1987416972
 20
30.658327332
 11
154.0253041972
 21
30.7551187255
 12
154.5456166972
 22
30.7228544222
 13
154.5456166972
 23
30.7228544222
  0
SOLID
  8
0
 62
7
  6
CONTINUOUS
 10
154.8924916972
 20
30.7228544637
 11
155.1815540869
 21
30.7873815123
 12
155.412804528
 22
30.7551187255
 13
155.412804528
 23
30.7551187255
  0
SOLID
  8
0
 62
7
  6
CONTINUOUS
 10
155.412804528
 20
30.7551187255
 11
155.3549915869
 21
30.6905916353
 12
154.8924916972
 22
30.7228544637
 13
154.8924916972
 23
30.7228544637
  0
SOLID
  8
0
 62
7
  6
CONTINUOUS
 10
155.3549915869
 20
30.6905916353
 11
154.1987416972
 21
30.658327332
 12
154.8924916972
 22
30.7228544637
 13
154.8924916972
 23
30.7228544637
  0
SOLID
  8
0
 62
7
  6
CONTINUOUS
 10
154.1987416972
 20
30.658327332
 11
154.5456166972
 21
30.7228544637
 12
154.8924916972
 22
30.7228544637
 13
154.8924916972
 23
30.7228544637
  0
SOLID
  8
0
 62
7
  6
CONTINUOUS
 10
154.1987416972
 20
30.658327332
 11
155.3549915869
 21
30.6905916353
 12
154.3143669177
 22
30.6260630541
 13
154.3143669177
 23
30.6260630541
  0
SOLID
  8
0
 62
7
  6
CONTINUOUS
 10
155.3549915869
 20
30.6905916353
 11
155.1815540869
 21
30.6260630541
 12
154.3143669177
 22
30.6260630541
 13
154.3143669177
 23
30.6260630541
  0
SOLID
  8
0
 62
7
  6
CONTINUOUS
 10
154.5456166972
 20
30.5938002188
 11
154.3143669177
 21
30.6260630541
 12
155.1815540869
 22
30.6260630541
 13
155.1815540869
 23
30.6260630541
  0
SOLID
  8
0
 62
7
  6
CONTINUOUS
 10
155.1815540869
 20
30.6260630541
 11
154.8924916972
 21
30.5938002188
 12
154.5456166972
 22
30.5938002188
 13
154.5456166972
 23
30.5938002188
  0
SOLID
  8
0
 62
7
  6
CONTINUOUS
 10
159.575304528
 20
30.7551187255
 11
159.228429528
 21
30.7228544637
 12
159.4596793074
 22
30.7873815123
 13
159.4596793074
 23
30.7873815123
  0
SOLID
  8
0
 62
7
  6
CONTINUOUS
 10
159.4596793074
 20
30.7873815123
 11
159.228429528
 21
30.7228544637
 12
159.401867028
 22
30.851908644
 13
159.401867028
 23
30.851908644
  0
SOLID
  8
0
 62
7
  6
CONTINUOUS
 10
159.228429528
 20
30.7228544637
 11
159.1128043074
 21
30.851908644
 12
159.401867028
 22
30.851908644
 13
159.401867028
 23
30.851908644
  0
SOLID
  8
0
 62
7
  6
CONTINUOUS
 10
159.575304528
 20
30.7551187255
 11
159.922179528
 21
30.7228544637
 12
159.228429528
 22
30.7228544637
 13
159.228429528
 23
30.7228544637
  0
SOLID
  8
0
 62
7
  6
CONTINUOUS
 10
156.279992028
 20
30.5938002419
 11
156.279992028
 21
31.6262382337
 12
156.5690540869
 22
30.5938002419
 13
156.5690540869
 23
31.6262382337
  0
ENDBLK
  8
0
  6
BYBLOCK
 62
0
  0
BLOCK
  8
0
 62
2
  6
CONTINUOUS
  2
SYMBOL_3_BL0
 70
64
 10
32.1213064866
 20
19.8534310916
  0
TEXT
  8
0
 62
7
  6
CONTINUOUS
 10
18.3860103289
 20
19.2268451992
  7
TEXTSTYLE_3
 40
2.7338706658
  1
Ammeraal Beltech
 41
1.0
 51
15.0
 72
0
  0
TEXT
  8
0
 62
7
  6
CONTINUOUS
 10
29.1868111546
 20
16.9533085264
  7
TEXTSTYLE_4
 40
1.0935482663
  1
Innovation & Service in Belting
 41
1.0
 72
0
  0
LINE
  8
0
 62
7
  6
CONTINUOUS
 10
12.3614696776
 20
19.9934385078
 11
13.1396216709
 21
23.6543558055
  0
LINE
  8
0
 62
7
  6
CONTINUOUS
 10
23.2347899607
 20
27.3177497171
 11
13.6274394139
 21
24.1961322958
  0
LINE
  8
0
 62
7
  6
CONTINUOUS
 10
12.5867530099
 20
19.3000877048
 11
20.093828271
 21
12.5406867788
  0
LINE
  8
0
 62
7
  6
CONTINUOUS
 10
12.8492874206
 20
20.5352149982
 11
23.6575567857
 21
24.0470345971
  0
LINE
  8
0
 62
7
  6
CONTINUOUS
 10
23.6533516486
 20
13.6972460334
 11
15.2078919798
 21
21.3015720751
  0
LINE
  8
0
 62
7
  6
CONTINUOUS
 10
24.1731743684
 20
26.4728246013
 11
23.1966148312
 21
21.8784731989
  0
LINE
  8
0
 62
7
  6
CONTINUOUS
 10
22.4968128835
 20
18.5861638851
 11
21.810364672
 21
15.3566789607
  0
LINE
  8
0
 62
7
  6
CONTINUOUS
 10
24.8542704669
 20
14.087448211
 11
25.8105020025
 21
18.5861638851
  0
LINE
  8
0
 62
7
  6
CONTINUOUS
 10
26.5103039502
 20
21.8784731989
 11
26.9545457526
 21
23.9684665583
  0
LINE
  8
0
 62
7
  6
CONTINUOUS
 10
20.8069293463
 20
12.3891124661
 11
24.3664527239
 21
13.5456717207
  0
LINE
  8
0
 62
7
  6
CONTINUOUS
 10
23.9478910361
 20
27.1661754044
 11
26.7292624203
 21
24.6618173613
  0
ARC
  8
0
 62
7
  6
CONTINUOUS
 10
13.8527227462
 20
23.5027814928
 40
0.7290321776
 50
108.0
 51
168.0
  0
ARC
  8
0
 62
7
  6
CONTINUOUS
 10
23.4600732931
 20
26.624398914
 40
0.7290321776
 50
348.0
 51
108.0
  0
ARC
  8
0
 62
7
  6
CONTINUOUS
 10
26.2414446773
 20
24.120040871
 40
0.7290321776
 50
348.0
 51
48.0
  0
ARC
  8
0
 62
7
  6
CONTINUOUS
 10
20.581646014
 20
13.0824632691
 40
0.7290321776
 50
228.0
 51
288.0
  0
ARC
  8
0
 62
7
  6
CONTINUOUS
 10
13.0745707529
 20
19.8418641951
 40
0.7290321776
 50
108.0
 51
228.0
  0
ARC
  8
0
 62
7
  6
CONTINUOUS
 10
24.1411693916
 20
14.2390225237
 40
0.7290321776
 50
228.0
 51
348.0
  0
ENDBLK
  8
0
  6
BYBLOCK
 62
0
  0
ENDSEC
  0
SECTION
  2
ENTITIES
  0
TEXT
  8
0
 62
5
  6
CONTINUOUS
 10
96.0
 20
25.636
  7
TEXTSTYLE_2
 40
2.8
  1
Scale :
 41
0.6
 51
0.000019
 72
0
  0
TEXT
  8
0
 62
5
  6
CONTINUOUS
 10
116.0
 20
25.636
  7
TEXTSTYLE_2
 40
2.8
  1
Belt type:
 41
0.6
 51
0.000019
 72
0
  0
INSERT
  8
0
 62
2
  6
CONTINUOUS
  2
SYMBOL_3_BL0
 10
32.1213064866
 20
19.8534310916
  0
INSERT
  8
0
 62
2
  6
CONTINUOUS
  2
SYMBOL_8_BL1
 10
173.5956734183
 20
35.5937998301
  0
LINE
  8
0
 62
2
  6
CONTINUOUS
 10
10.0
 20
30.0
 11
200.0
 21
30.0
  0
LINE
  8
0
 62
2
  6
CONTINUOUS
 10
10.0
 20
30.0
 11
10.0
 21
10.0
  0
LINE
  8
0
 62
2
  6
CONTINUOUS
 10
10.0
 20
10.0
 11
200.0
 21
10.0
  0
LINE
  8
0
 62
2
  6
CONTINUOUS
 10
95.0
 20
30.0
 11
95.0
 21
10.0
  0
LINE
  8
0
 62
2
  6
CONTINUOUS
 10
115.0
 20
30.0
 11
115.0
 21
10.0
  0
LINE
  8
0
 62
2
  6
CONTINUOUS
 10
200.0
 20
30.0
 11
200.0
 21
10.0
  0
TEXT
  8
0
 62
5
  6
CONTINUOUS
 10
13.0
 20
23.303
  7
TEXTSTYLE_5
 40
1.52
  1
                                                                     Ammeraal Beltech Modular A/S
 41
1.0
 72
0
  0
TEXT
  8
0
 62
5
  6
CONTINUOUS
 10
13.0
 20
20.595
  7
TEXTSTYLE_5
 40
1.5
  1
                                                                      Hjulmagervej 21,  7100 Vejle,  DK
 41
1.0
 72
0
  0
TEXT
  8
0
 62
5
  6
CONTINUOUS
 10
13.0
 20
17.881
  7
TEXTSTYLE_5
 40
1.495
  1
                                                                      tel: 
 41
1.0
 72
0
  0
TEXT
  8
0
 62
5
  6
CONTINUOUS
 10
57.9869465649
 20
17.881
  7
TEXTSTYLE_5
 40
1.51
  1
+45 75723100     fax: +45 75723348
 41
1.0
 72
0
  0
TEXT
  8
0
 62
5
  6
CONTINUOUS
 10
13.0
 20
15.177
  7
TEXTSTYLE_5
 40
1.5
  1
                                                                      admin@unichains.dk  www.unichains.com
 41
1.0
 72
0
  0
TEXT
  8
0
 62
5
  6
CONTINUOUS
 10
99.75
 20
13.75
  7
TEXTSTYLE_6
 40
5.0
  1
1:1
 41
0.7
 72
1
 11
105.0
 21
13.75
  0
TEXT
  8
0
 62
5
  6
CONTINUOUS
 10
118.0
 20
13.75
  7
TEXTSTYLE_7
 40
7.5
  1
Sprocket Z19
 41
0.6361111111
 72
0
  0
LINE
  8
0
 62
7
  6
CONTINUOUS
 10
210.0
 20
0.0
 11
0.0
 21
0.0
  0
LINE
  8
0
 62
7
  6
CONTINUOUS
 10
10.0
 20
10.0
 11
200.0
 21
10.0
  0
LINE
  8
0
 62
7
  6
CONTINUOUS
 10
10.0
 20
30.0
 11
200.0
 21
30.0
  0
LINE
  8
0
 62
7
  6
CONTINUOUS
 10
0.0
 20
0.0
 11
0.0
 21
297.0
  0
LINE
  8
0
 62
7
  6
CONTINUOUS
 10
10.0
 20
10.0
 11
10.0
 21
287.0
  0
LINE
  8
0
 62
7
  6
CONTINUOUS
 10
200.0
 20
287.0
 11
200.0
 21
10.0
  0
LINE
  8
0
 62
7
  6
CONTINUOUS
 10
210.0
 20
0.0
 11
210.0
 21
297.0
  0
LINE
  8
0
 62
7
  6
CONTINUOUS
 10
10.0
 20
287.0
 11
200.0
 21
287.0
  0
LINE
  8
0
 62
7
  6
CONTINUOUS
 10
0.0
 20
297.0
 11
210.0
 21
297.0
  0
LINE
  8
0
 62
7
  6
CONTINUOUS
 10
21.914236281
 20
195.7563959207
 11
21.9568350055
 21
195.2423057694
  0
LINE
  8
0
 62
7
  6
CONTINUOUS
 10
24.121929295
 20
221.3711081044
 11
23.9952951038
 21
220.8710409923
  0
LINE
  8
0
 62
7
  6
CONTINUOUS
 10
34.5270868618
 20
244.8811077792
 11
34.2449425345
 21
244.4492537373
  0
LINE
  8
0
 62
7
  6
CONTINUOUS
 10
52.0021487066
 20
263.7387216851
 11
51.595068959
 21
263.4218787996
  0
LINE
  8
0
 62
7
  6
CONTINUOUS
 10
74.6534207248
 20
275.9004347493
 11
74.1655189641
 21
275.7329378632
  0
LINE
  8
0
 62
7
  6
CONTINUOUS
 10
112.3687192496
 20
124.8719116257
 11
112.8775357476
 21
124.9568180821
  0
LINE
  8
0
 62
7
  6
CONTINUOUS
 10
86.6591844503
 20
124.9568180821
 11
87.1680009483
 21
124.8719116257
  0
LINE
  8
0
 62
7
  6
CONTINUOUS
 10
62.3702322424
 20
133.3849963753
 11
62.8239105777
 21
133.1394779381
  0
LINE
  8
0
 62
7
  6
CONTINUOUS
 10
42.1339474795
 20
149.2431226107
 11
42.483324565
 21
148.8635979249
  0
LINE
  8
0
 62
7
  6
CONTINUOUS
 10
28.143245614
 20
170.8127227463
 11
28.3504610212
 21
170.3403192006
  0
LINE
  8
0
 62
7
  6
CONTINUOUS
 10
51.6083864638
 20
151.7016040344
 11
51.6103147136
 21
151.6997559519
  0
LINE
  8
0
 62
7
  6
CONTINUOUS
 10
84.772313595
 20
145.8822050222
 11
88.8335430037
 21
144.9507796133
  0
LINE
  8
0
 62
7
  6
CONTINUOUS
 10
88.9524482701
 20
145.4692339741
 11
85.3988783472
 21
146.2842298744
  0
LINE
  8
0
 62
7
  6
CONTINUOUS
 10
82.4584764274
 20
146.5885010653
 11
83.0569714825
 21
146.4084214466
  0
LINE
  8
0
 62
7
  6
CONTINUOUS
 10
79.4038771938
 20
147.6410168702
 11
79.8922110512
 21
147.4598980484
  0
LINE
  8
0
 62
7
  6
CONTINUOUS
 10
80.1748408032
 20
147.9223947293
 11
79.4911877093
 21
148.1759557736
  0
LINE
  8
0
 62
7
  6
CONTINUOUS
 10
65.0743981316
 20
155.4658921606
 11
67.0925449583
 21
153.9903978753
  0
LINE
  8
0
 62
7
  6
CONTINUOUS
 10
66.9019431685
 20
154.7886643373
 11
65.3042487298
 21
155.9567602275
  0
LINE
  8
0
 62
7
  6
CONTINUOUS
 10
61.094149447
 20
158.7228554604
 11
61.7191757113
 21
158.1716774403
  0
LINE
  8
0
 62
7
  6
CONTINUOUS
 10
57.4925960018
 20
162.2397815633
 11
57.7789510385
 21
161.9371026028
  0
LINE
  8
0
 62
7
  6
CONTINUOUS
 10
58.2369305611
 20
162.2269948473
 11
57.807401283
 21
162.6810098242
  0
LINE
  8
0
 62
7
  6
CONTINUOUS
 10
80.5048315678
 20
147.9134683213
 11
80.1748408032
 21
147.9223947293
  0
LINE
  8
0
 62
7
  6
CONTINUOUS
 10
79.9010775833
 20
150.1797536298
 11
80.2310683478
 21
150.1708272217
  0
LINE
  8
0
 62
7
  6
CONTINUOUS
 10
80.5299761157
 20
151.8753943328
 11
80.8599668802
 21
151.8664679247
  0
LINE
  8
0
 62
7
  6
CONTINUOUS
 10
79.8922110512
 20
147.4598980484
 11
80.4175299938
 21
147.3785261015
  0
LINE
  8
0
 62
7
  6
CONTINUOUS
 10
80.5136981516
 20
150.6333240424
 11
79.9883791572
 21
150.7146958496
  0
LINE
  8
0
 62
7
  6
CONTINUOUS
 10
81.1425966581
 20
152.3289646754
 11
80.6172777123
 21
152.4103366137
  0
LINE
  8
0
 62
7
  6
CONTINUOUS
 10
85.7473368965
 20
150.1335312889
 11
89.1993823586
 21
149.3418195847
  0
LINE
  8
0
 62
7
  6
CONTINUOUS
 10
89.9512526416
 20
149.8242511855
 11
85.8900232329
 21
150.7556765944
  0
LINE
  8
0
 62
7
  6
CONTINUOUS
 10
84.4976084322
 20
151.196381887
 11
83.8991133771
 21
151.3764615057
  0
LINE
  8
0
 62
7
  6
CONTINUOUS
 10
65.9309983197
 20
157.3434973475
 11
66.2460536564
 21
157.24493914
  0
LINE
  8
0
 62
7
  6
CONTINUOUS
 10
80.2310683478
 20
150.1708272217
 11
80.9147214417
 21
149.9172661774
  0
LINE
  8
0
 62
7
  6
CONTINUOUS
 10
81.002032009
 20
150.4522052206
 11
80.5136981516
 21
150.6333240424
  0
LINE
  8
0
 62
7
  6
CONTINUOUS
 10
82.0053178232
 20
150.7608810993
 11
82.493642739
 21
150.5797655939
  0
LINE
  8
0
 62
7
  6
CONTINUOUS
 10
80.8599668802
 20
151.8664679247
 11
81.4459603559
 21
151.6491279917
  0
LINE
  8
0
 62
7
  6
CONTINUOUS
 10
81.5332619557
 20
152.1840702813
 11
81.1425966581
 21
152.3289646754
  0
LINE
  8
0
 62
7
  6
CONTINUOUS
 10
66.7068598754
 20
157.6987354326
 11
66.2236282027
 21
157.9202496211
  0
LINE
  8
0
 62
7
  6
CONTINUOUS
 10
58.528974336
 20
162.0730987166
 11
58.2369305611
 21
162.2269948473
  0
LINE
  8
0
 62
7
  6
CONTINUOUS
 10
59.8427198609
 20
163.3159920036
 11
59.550676086
 21
163.4698881342
  0
LINE
  8
0
 62
7
  6
CONTINUOUS
 10
60.3031020677
 20
165.6156910952
 11
60.5951458425
 21
165.4617949645
  0
LINE
  8
0
 62
7
  6
CONTINUOUS
 10
78.9525463047
 20
147.9218759341
 11
79.4038771938
 21
147.6410168702
  0
LINE
  8
0
 62
7
  6
CONTINUOUS
 10
81.4533628463
 20
150.171346017
 11
81.002032009
 21
150.4522052206
  0
LINE
  8
0
 62
7
  6
CONTINUOUS
 10
81.9845928416
 20
151.9032112087
 11
81.5332619557
 21
152.1840702813
  0
LINE
  8
0
 62
7
  6
CONTINUOUS
 10
57.7789510385
 20
161.9371026028
 11
58.2141690547
 21
161.6318704557
  0
LINE
  8
0
 62
7
  6
CONTINUOUS
 10
59.0926965635
 20
163.1799958897
 11
59.5279145797
 21
162.8747637426
  0
LINE
  8
0
 62
7
  6
CONTINUOUS
 10
61.0531254192
 20
165.7516872602
 11
60.6179073962
 21
166.0569194009
  0
LINE
  8
0
 62
7
  6
CONTINUOUS
 10
66.2460536564
 20
157.24493914
 11
67.8437480951
 21
156.0768432498
  0
LINE
  8
0
 62
7
  6
CONTINUOUS
 10
68.2204699954
 20
156.5921147186
 11
66.7068598754
 21
157.6987354326
  0
LINE
  8
0
 62
7
  6
CONTINUOUS
 10
70.043533529
 20
158.0266915286
 11
69.5389968223
 21
158.3955650999
  0
LINE
  8
0
 62
7
  6
CONTINUOUS
 10
79.4911877093
 20
148.1759557736
 11
79.2351849982
 21
148.3843692986
  0
LINE
  8
0
 62
7
  6
CONTINUOUS
 10
80.9147214417
 20
149.9172661774
 11
81.1707241528
 21
149.7088526525
  0
LINE
  8
0
 62
7
  6
CONTINUOUS
 10
81.4459603559
 20
151.6491279917
 11
81.701963067
 21
151.4407144667
  0
LINE
  8
0
 62
7
  6
CONTINUOUS
 10
62.8847544869
 20
161.5408263562
 11
64.2910528524
 21
160.3006852726
  0
LINE
  8
0
 62
7
  6
CONTINUOUS
 10
64.6506333488
 20
160.5509463179
 11
63.0880748409
 21
161.9288850603
  0
LINE
  8
0
 62
7
  6
CONTINUOUS
 10
66.276256824
 20
160.8194629901
 11
65.8074907021
 21
161.2328433513
  0
LINE
  8
0
 62
7
  6
CONTINUOUS
 10
63.6199202355
 20
163.1619474985
 11
63.1511541137
 21
163.5753278597
  0
LINE
  8
0
 62
7
  6
CONTINUOUS
 10
57.6983725783
 20
163.7250289641
 11
57.3404336979
 21
164.1033724689
  0
LINE
  8
0
 62
7
  6
CONTINUOUS
 10
58.734751129
 20
163.5583463223
 11
59.0926965635
 21
163.1799958897
  0
LINE
  8
0
 62
7
  6
CONTINUOUS
 10
59.550676086
 20
163.4698881342
 11
59.0495629643
 21
163.9995676555
  0
LINE
  8
0
 62
7
  6
CONTINUOUS
 10
60.5951458425
 20
165.4617949645
 11
61.0962589642
 21
164.9321154433
  0
LINE
  8
0
 62
7
  6
CONTINUOUS
 10
61.4110708537
 20
165.3733368277
 11
61.0531254192
 21
165.7516872602
  0
LINE
  8
0
 62
7
  6
CONTINUOUS
 10
64.7167404256
 20
155.8591635054
 11
65.0743981316
 21
155.4658921606
  0
LINE
  8
0
 62
7
  6
CONTINUOUS
 10
65.3042487298
 20
155.9567602275
 11
65.1147673599
 21
156.2270755913
  0
LINE
  8
0
 62
7
  6
CONTINUOUS
 10
57.2119362572
 20
162.6912364259
 11
57.4925960018
 21
162.2397815633
  0
LINE
  8
0
 62
7
  6
CONTINUOUS
 10
58.4540913844
 20
164.0098011849
 11
58.734751129
 21
163.5583463223
  0
LINE
  8
0
 62
7
  6
CONTINUOUS
 10
61.6917305915
 20
164.9218819587
 11
61.4110708537
 21
165.3733368277
  0
LINE
  8
0
 62
7
  6
CONTINUOUS
 10
57.807401283
 20
162.6810098242
 11
57.6699157797
 21
162.9811286704
  0
LINE
  8
0
 62
7
  6
CONTINUOUS
 10
59.0495629643
 20
163.9995676555
 11
58.912077461
 21
164.2996865017
  0
LINE
  8
0
 62
7
  6
CONTINUOUS
 10
61.0962589642
 20
164.9321154433
 11
61.2337444675
 21
164.6319965971
  0
LINE
  8
0
 62
7
  6
CONTINUOUS
 10
80.8718163591
 20
148.0042854716
 11
80.5048315678
 21
147.9134683213
  0
LINE
  8
0
 62
7
  6
CONTINUOUS
 10
79.5340927919
 20
150.0889364795
 11
79.9010775833
 21
150.1797536298
  0
LINE
  8
0
 62
7
  6
CONTINUOUS
 10
79.9883791572
 20
150.7146958496
 11
79.2544095746
 21
150.5330615489
  0
LINE
  8
0
 62
7
  6
CONTINUOUS
 10
80.1629913243
 20
151.7845771824
 11
80.5299761157
 21
151.8753943328
  0
LINE
  8
0
 62
7
  6
CONTINUOUS
 10
80.4175299938
 20
147.3785261015
 11
81.0168369899
 21
147.4966412714
  0
LINE
  8
0
 62
7
  6
CONTINUOUS
 10
80.6172777123
 20
152.4103366137
 11
80.0179707064
 21
152.2922214176
  0
LINE
  8
0
 62
7
  6
CONTINUOUS
 10
140.9189843166
 20
161.2118835141
 11
140.4004851904
 21
161.1304927174
  0
LINE
  8
0
 62
7
  6
CONTINUOUS
 10
66.2236282027
 20
157.9202496211
 11
65.6989068819
 21
157.9085314771
  0
LINE
  8
0
 62
7
  6
CONTINUOUS
 10
58.8982972466
 20
161.9923139437
 11
58.528974336
 21
162.0730987166
  0
LINE
  8
0
 62
7
  6
CONTINUOUS
 10
59.5279145797
 20
162.8747637426
 11
60.2665604009
 21
162.7131941968
  0
LINE
  8
0
 62
7
  6
CONTINUOUS
 10
60.2120427715
 20
163.2352072306
 11
59.8427198609
 21
163.3159920036
  0
LINE
  8
0
 62
7
  6
CONTINUOUS
 10
59.933779157
 20
165.6964758681
 11
60.3031020677
 21
165.6156910952
  0
LINE
  8
0
 62
7
  6
CONTINUOUS
 10
58.2141690547
 20
161.6318704557
 11
58.8039453425
 21
161.4728610242
  0
LINE
  8
0
 62
7
  6
CONTINUOUS
 10
60.6179073962
 20
166.0569194009
 11
60.0281310882
 21
166.2159288132
  0
LINE
  8
0
 62
7
  6
CONTINUOUS
 10
78.5752034691
 20
148.4022221148
 11
78.9525463047
 21
147.9218759341
  0
LINE
  8
0
 62
7
  6
CONTINUOUS
 10
81.830705682
 20
149.6909998363
 11
81.4533628463
 21
150.171346017
  0
LINE
  8
0
 62
7
  6
CONTINUOUS
 10
82.3619446091
 20
151.4228616855
 11
81.9845928416
 21
151.9032112087
  0
LINE
  8
0
 62
7
  6
CONTINUOUS
 10
79.2351849982
 20
148.3843692986
 11
79.0161763139
 21
148.692526382
  0
LINE
  8
0
 62
7
  6
CONTINUOUS
 10
81.1707241528
 20
149.7088526525
 11
81.3897328372
 21
149.4006955691
  0
LINE
  8
0
 62
7
  6
CONTINUOUS
 10
81.701963067
 20
151.4407144667
 11
81.9209717513
 21
151.1325573833
  0
LINE
  8
0
 62
7
  6
CONTINUOUS
 10
64.5687410051
 20
156.3627168302
 11
64.7167404256
 21
155.8591635054
  0
LINE
  8
0
 62
7
  6
CONTINUOUS
 10
57.08582823
 20
163.2889209318
 11
57.2119362572
 21
162.6912364259
  0
LINE
  8
0
 62
7
  6
CONTINUOUS
 10
58.3279899114
 20
164.607478763
 11
58.4540913844
 21
164.0098011849
  0
LINE
  8
0
 62
7
  6
CONTINUOUS
 10
61.8178320443
 20
164.3242043613
 11
61.6917305915
 21
164.9218819587
  0
LINE
  8
0
 62
7
  6
CONTINUOUS
 10
57.6699157797
 20
162.9811286704
 11
57.6097094123
 21
163.3543588744
  0
LINE
  8
0
 62
7
  6
CONTINUOUS
 10
58.912077461
 20
164.2996865017
 11
58.8518710936
 21
164.6729167057
  0
LINE
  8
0
 62
7
  6
CONTINUOUS
 10
61.2337444675
 20
164.6319965971
 11
61.293950835
 21
164.2587663931
  0
LINE
  8
0
 62
7
  6
CONTINUOUS
 10
58.3450626797
 20
165.0538203248
 11
58.3279899114
 21
164.607478763
  0
LINE
  8
0
 62
7
  6
CONTINUOUS
 10
58.8518710936
 20
164.6729167057
 11
58.8632485697
 21
164.9704823653
  0
LINE
  8
0
 62
7
  6
CONTINUOUS
 10
147.0395393617
 20
170.0101893141
 11
147.3316045261
 21
170.0682386742
  0
LINE
  8
0
 62
7
  6
CONTINUOUS
 10
145.564780491
 20
170.4759109965
 11
144.9806501622
 21
170.3598122762
  0
LINE
  8
0
 62
7
  6
CONTINUOUS
 10
146.8750936768
 20
172.4816787629
 11
147.4592240056
 21
172.5977774832
  0
LINE
  8
0
 62
7
  6
CONTINUOUS
 10
145.6851849998
 20
173.3834358802
 11
145.2470865388
 21
173.2963608827
  0
LINE
  8
0
 62
7
  6
CONTINUOUS
 10
65.6372403183
 20
157.2947018008
 11
65.9309983197
 21
157.3434973475
  0
LINE
  8
0
 62
7
  6
CONTINUOUS
 10
140.2310852888
 20
161.7236986765
 11
140.5288382259
 21
161.7276949731
  0
LINE
  8
0
 62
7
  6
CONTINUOUS
 10
138.6910159179
 20
163.1917319821
 11
138.9887688549
 21
163.1957282787
  0
LINE
  8
0
 62
7
  6
CONTINUOUS
 10
60.5097818385
 20
163.2300870021
 11
60.2120427715
 21
163.2352072306
  0
LINE
  8
0
 62
7
  6
CONTINUOUS
 10
140.4004851904
 20
161.1304927174
 11
139.876853972
 21
161.1979016533
  0
LINE
  8
0
 62
7
  6
CONTINUOUS
 10
65.1147673599
 20
156.2270755913
 11
65.072157292
 21
156.521794357
  0
LINE
  8
0
 62
7
  6
CONTINUOUS
 10
64.5676205853
 20
156.8906679284
 11
64.5687410051
 21
156.3627168302
  0
LINE
  8
0
 62
7
  6
CONTINUOUS
 10
57.1801801341
 20
163.8083738513
 11
57.08582823
 21
163.2889209318
  0
LINE
  8
0
 62
7
  6
CONTINUOUS
 10
61.7234801131
 20
163.8047514162
 11
61.8178320443
 21
164.3242043613
  0
LINE
  8
0
 62
7
  6
CONTINUOUS
 10
57.6097094123
 20
163.3543588744
 11
57.6983725783
 21
163.7250289641
  0
LINE
  8
0
 62
7
  6
CONTINUOUS
 10
61.293950835
 20
164.2587663931
 11
61.2052941689
 21
163.8880893244
  0
LINE
  8
0
 62
7
  6
CONTINUOUS
 10
151.9711940329
 20
183.5438783768
 11
152.3395055325
 21
183.6418840148
  0
LINE
  8
0
 62
7
  6
CONTINUOUS
 10
59.2733154494
 20
162.0603050729
 11
58.8982972466
 21
161.9923139437
  0
LINE
  8
0
 62
7
  6
CONTINUOUS
 10
59.5587609001
 20
165.6284846877
 11
59.933779157
 21
165.6964758681
  0
LINE
  8
0
 62
7
  6
CONTINUOUS
 10
58.8039453425
 20
161.4728610242
 11
59.3278265247
 21
161.5382989668
  0
LINE
  8
0
 62
7
  6
CONTINUOUS
 10
60.0281310882
 20
166.2159288132
 11
59.5042498789
 21
166.150490845
  0
LINE
  8
0
 62
7
  6
CONTINUOUS
 10
147.3139425537
 20
169.4576564872
 11
146.7867814562
 21
169.4287636725
  0
LINE
  8
0
 62
7
  6
CONTINUOUS
 10
144.7632160768
 20
170.9995510902
 11
145.1443453688
 21
170.9994201414
  0
LINE
  8
0
 62
7
  6
CONTINUOUS
 10
145.9393189054
 20
166.826753856
 11
140.9867959544
 21
167.4283628234
  0
LINE
  8
0
 62
7
  6
CONTINUOUS
 10
138.8604158194
 20
162.598526023
 11
138.3367846011
 21
162.6659349589
  0
LINE
  8
0
 62
7
  6
CONTINUOUS
 10
140.5972022949
 20
168.1357683501
 11
145.6331063572
 21
167.4680916781
  0
LINE
  8
0
 62
7
  6
CONTINUOUS
 10
78.4301828382
 20
148.909866315
 11
78.5752034691
 21
148.4022221148
  0
LINE
  8
0
 62
7
  6
CONTINUOUS
 10
81.9757263128
 20
149.1833556361
 11
81.830705682
 21
149.6909998363
  0
LINE
  8
0
 62
7
  6
CONTINUOUS
 10
82.506965227
 20
150.9152174503
 11
82.3619446091
 21
151.4228616855
  0
LINE
  8
0
 62
7
  6
CONTINUOUS
 10
79.0161763139
 20
148.692526382
 11
78.9318212745
 21
149.0642059125
  0
LINE
  8
0
 62
7
  6
CONTINUOUS
 10
81.3897328372
 20
149.4006955691
 11
81.4740878765
 21
149.0290160386
  0
LINE
  8
0
 62
7
  6
CONTINUOUS
 10
81.9209717513
 20
151.1325573833
 11
82.0053178232
 21
150.7608810993
  0
LINE
  8
0
 62
7
  6
CONTINUOUS
 10
78.419815956
 20
149.4810332419
 11
78.4301828382
 21
148.909866315
  0
LINE
  8
0
 62
7
  6
CONTINUOUS
 10
58.5882775632
 20
165.5707200578
 11
58.3450626797
 21
165.0538203248
  0
LINE
  8
0
 62
4
  6
CONTINUOUS
 10
88.6829315324
 20
221.4103469364
 11
80.3067757182
 21
213.0341911222
  0
LINE
  8
0
 62
7
  6
CONTINUOUS
 10
151.5442376308
 20
185.9876996511
 11
151.3095611596
 21
185.9553398658
  0
LINE
  8
0
 62
7
  6
CONTINUOUS
 10
151.1368185621
 20
186.4509484162
 11
151.6061708294
 21
186.5156656989
  0
LINE
  8
0
 62
7
  6
CONTINUOUS
 10
145.3217190154
 20
173.9941509918
 11
145.9379429052
 21
173.9648615218
  0
LINE
  8
0
 62
7
  6
CONTINUOUS
 10
146.8044434287
 20
170.0393458596
 11
147.0395393617
 21
170.0101893141
  0
LINE
  8
0
 62
7
  6
CONTINUOUS
 10
144.9806501622
 20
170.3598122762
 11
144.5104581714
 21
170.4181254487
  0
LINE
  8
0
 62
4
  6
CONTINUOUS
 10
88.6829315324
 20
182.4871781749
 11
80.3067757182
 21
190.8633339891
  0
LINE
  8
0
 62
7
  6
CONTINUOUS
 10
81.9860932987
 20
148.6121889887
 11
81.9757263128
 21
149.1833556361
  0
LINE
  8
0
 62
7
  6
CONTINUOUS
 10
78.9318212745
 20
149.0642059125
 11
78.9451438402
 21
149.3996579785
  0
LINE
  8
0
 62
7
  6
CONTINUOUS
 10
81.4740878765
 20
149.0290160386
 11
81.4607654145
 21
148.693564252
  0
LINE
  8
0
 62
7
  6
CONTINUOUS
 10
82.493642739
 20
150.5797655939
 11
82.506965227
 21
150.9152174503
  0
LINE
  8
0
 62
7
  6
CONTINUOUS
 10
64.6718972168
 20
157.2097788389
 11
64.5676205853
 21
156.8906679284
  0
LINE
  8
0
 62
7
  6
CONTINUOUS
 10
65.072157292
 20
156.521794357
 11
65.1764339234
 21
156.8409052676
  0
LINE
  8
0
 62
7
  6
CONTINUOUS
 10
63.1511541137
 20
163.5753278597
 11
61.094149447
 21
158.7228554604
  0
LINE
  8
0
 62
7
  6
CONTINUOUS
 10
61.6881130043
 20
158.766426325
 11
62.8847544869
 21
161.5408263562
  0
LINE
  8
0
 62
7
  6
CONTINUOUS
 10
63.0880748409
 20
161.9288850603
 11
63.6199202355
 21
163.1619474985
  0
LINE
  8
0
 62
7
  6
CONTINUOUS
 10
61.4802651754
 20
163.287851632
 11
61.7234801131
 21
163.8047514162
  0
LINE
  8
0
 62
7
  6
CONTINUOUS
 10
57.3404336979
 20
164.1033724689
 11
57.1801801341
 21
163.8083738513
  0
LINE
  8
0
 62
7
  6
CONTINUOUS
 10
58.8632485697
 20
164.9704823653
 11
59.0235022417
 21
165.2654810854
  0
LINE
  8
0
 62
7
  6
CONTINUOUS
 10
61.2052941689
 20
163.8880893244
 11
61.0450406052
 21
163.5930907068
  0
LINE
  8
0
 62
4
  6
CONTINUOUS
 10
78.4448206587
 20
208.9094943628
 11
75.616393534
 21
206.0810672381
  0
LINE
  8
0
 62
4
  6
CONTINUOUS
 10
92.8076282917
 20
223.2723019959
 11
95.6360554165
 21
226.1007291206
  0
LINE
  8
0
 62
7
  6
CONTINUOUS
 10
151.879954053
 20
185.9867688401
 11
151.5442376308
 21
185.9876996511
  0
LINE
  8
0
 62
7
  6
CONTINUOUS
 10
152.0428958627
 20
183.0815581817
 11
151.6061379976
 21
183.1157750601
  0
LINE
  8
0
 62
7
  6
CONTINUOUS
 10
146.7867814562
 20
169.4287636725
 11
146.4626228244
 21
169.5161024416
  0
LINE
  8
0
 62
7
  6
CONTINUOUS
 10
147.6196874309
 20
171.870830849
 11
147.295528799
 21
171.9581696181
  0
LINE
  8
0
 62
7
  6
CONTINUOUS
 10
146.0093436316
 20
173.2960971111
 11
145.6851849998
 21
173.3834358802
  0
LINE
  8
0
 62
7
  6
CONTINUOUS
 10
139.876853972
 20
161.1979016533
 11
139.573972233
 21
161.3427085407
  0
LINE
  8
0
 62
7
  6
CONTINUOUS
 10
139.9282033341
 20
161.8685057696
 11
140.2310852888
 21
161.7236986765
  0
LINE
  8
0
 62
7
  6
CONTINUOUS
 10
138.3367846011
 20
162.6659349589
 11
138.0339027542
 21
162.8107419491
  0
LINE
  8
0
 62
7
  6
CONTINUOUS
 10
138.388134071
 20
163.3365389724
 11
138.6910159179
 21
163.1917319821
  0
LINE
  8
0
 62
4
  6
CONTINUOUS
 10
75.616393534
 20
197.8164578732
 11
78.4448206587
 21
194.9880307484
  0
LINE
  8
0
 62
4
  6
CONTINUOUS
 10
95.6360554165
 20
177.7967959906
 11
92.8076282917
 21
180.6252231154
  0
LINE
  8
0
 62
7
  6
CONTINUOUS
 10
97.1231486999
 20
277.7998830834
 11
96.8354662937
 21
273.2526318526
  0
LINE
  8
0
 62
7
  6
CONTINUOUS
 10
85.1392359901
 20
132.1001235525
 11
84.67454183
 21
127.5675399338
  0
LINE
  8
0
 62
7
  6
CONTINUOUS
 10
78.581114525
 20
150.2154592622
 11
78.419815956
 21
149.4810332419
  0
LINE
  8
0
 62
7
  6
CONTINUOUS
 10
121.8952921237
 20
274.5489588903
 11
120.1467070828
 21
270.3415005984
  0
LINE
  8
0
 62
7
  6
CONTINUOUS
 10
63.2520662769
 20
140.6347843102
 11
61.340823033
 21
136.4986745213
  0
LINE
  8
0
 62
7
  6
CONTINUOUS
 10
144.2696391279
 20
263.4306769162
 11
141.2496377736
 21
260.0189549547
  0
LINE
  8
0
 62
7
  6
CONTINUOUS
 10
45.3220036079
 20
155.8137659952
 11
42.1713241417
 21
152.5223417101
  0
LINE
  8
0
 62
7
  6
CONTINUOUS
 10
161.8215820409
 20
245.649875531
 11
157.85742838
 21
243.4036029126
  0
LINE
  8
0
 62
7
  6
CONTINUOUS
 10
33.292048487
 20
175.9921904157
 11
29.2433578065
 21
173.9021285275
  0
LINE
  8
0
 62
7
  6
CONTINUOUS
 10
155.3020021241
 20
199.9473991018
 11
154.7689096893
 21
199.8494376084
  0
LINE
  8
0
 62
7
  6
CONTINUOUS
 10
154.7749782736
 20
200.3702353872
 11
155.3080707154
 21
200.4681974766
  0
LINE
  8
0
 62
7
  6
CONTINUOUS
 10
24.3947494298
 20
193.0488500081
 11
28.950226117
 21
193.1376592135
  0
LINE
  8
0
 62
7
  6
CONTINUOUS
 10
170.5864940809
 20
193.1376592135
 11
175.1419707681
 21
193.0488500081
  0
LINE
  8
0
 62
7
  6
CONTINUOUS
 10
151.6061708294
 20
186.5156656989
 11
152.2450100882
 21
186.4148721568
  0
LINE
  8
0
 62
7
  6
CONTINUOUS
 10
25.5889026787
 20
218.0048431949
 11
29.9263873755
 21
216.6096796103
  0
LINE
  8
0
 62
7
  6
CONTINUOUS
 10
147.4592240056
 20
172.5977774832
 11
147.8724453363
 21
172.4522564906
  0
LINE
  8
0
 62
7
  6
CONTINUOUS
 10
145.9379429052
 20
173.9648615218
 11
146.3511642359
 21
173.8193405291
  0
LINE
  8
0
 62
7
  6
CONTINUOUS
 10
163.8884116658
 20
170.6204585823
 11
168.1682237589
 21
169.0573004422
  0
LINE
  8
0
 62
7
  6
CONTINUOUS
 10
34.8215511519
 20
241.2209109086
 11
38.4710100884
 21
238.4929621566
  0
LINE
  8
0
 62
7
  6
CONTINUOUS
 10
150.2419267384
 20
151.4981657953
 11
153.7822901889
 21
148.63005116
  0
LINE
  8
0
 62
7
  6
CONTINUOUS
 10
51.0921941282
 20
260.1812319781
 11
53.6581518014
 21
256.4161136344
  0
LINE
  8
0
 62
7
  6
CONTINUOUS
 10
131.1258476875
 20
137.8429779889
 11
133.5431091812
 21
133.9807115825
  0
LINE
  8
0
 62
7
  6
CONTINUOUS
 10
72.6376549759
 20
272.8311614159
 11
73.8420500569
 21
268.4368824748
  0
LINE
  8
0
 62
7
  6
CONTINUOUS
 10
108.6116982948
 20
131.1346466441
 11
109.6439100412
 21
126.6967649609
  0
LINE
  8
0
 62
2
  6
CONTINUOUS
 10
99.768360099
 20
202.8287625556
 11
99.768360099
 21
201.0687625556
  0
LINE
  8
DEFAULT_1
 62
2
  6
CENTER
 10
99.768360099
 20
197.5487625556
 11
99.768360099
 21
121.8487625556
  0
LINE
  8
DEFAULT_1
 62
2
  6
CENTER
 10
99.768360099
 20
206.3487625556
 11
99.768360099
 21
282.0487625556
  0
LINE
  8
0
 62
7
  6
CONTINUOUS
 10
85.8900232329
 20
150.7556765944
 11
85.7473368965
 21
150.1335312889
  0
LINE
  8
0
 62
7
  6
CONTINUOUS
 10
84.938780968
 20
146.6080411273
 11
84.772313595
 21
145.8822050222
  0
LINE
  8
0
 62
7
  6
CONTINUOUS
 10
83.8991133771
 20
151.3764615057
 11
82.4584764274
 21
146.5885010653
  0
LINE
  8
0
 62
7
  6
CONTINUOUS
 10
83.3021862532
 20
147.2233933393
 11
84.4976084322
 21
151.196381887
  0
LINE
  8
0
 62
7
  6
CONTINUOUS
 10
83.8700294619
 20
146.941442234
 11
84.1152443185
 21
147.7564144121
  0
LINE
  8
0
 62
7
  6
CONTINUOUS
 10
78.8400727122
 20
150.9136641712
 11
78.581114525
 21
150.2154592622
  0
LINE
  8
0
 62
7
  6
CONTINUOUS
 10
79.2544095746
 20
150.5330615489
 11
79.3283976281
 21
150.7325486658
  0
LINE
  8
0
 62
7
  6
CONTINUOUS
 10
78.9451438402
 20
149.3996579785
 11
79.0191318937
 21
149.5991450954
  0
LINE
  8
0
 62
7
  6
CONTINUOUS
 10
64.9230453262
 20
157.553293392
 11
64.6718972168
 21
157.2097788389
  0
LINE
  8
0
 62
7
  6
CONTINUOUS
 10
65.1764339234
 20
156.8409052676
 11
65.3647950495
 21
157.0985412426
  0
LINE
  8
0
 62
7
  6
CONTINUOUS
 10
61.0108949603
 20
162.7004074808
 11
61.4802651754
 21
163.287851632
  0
LINE
  8
0
 62
7
  6
CONTINUOUS
 10
58.9746733504
 20
165.936276949
 11
58.5882775632
 21
165.5707200578
  0
LINE
  8
0
 62
7
  6
CONTINUOUS
 10
59.0235022417
 20
165.2654810854
 11
59.2553396491
 21
165.4848151587
  0
LINE
  8
0
 62
7
  6
CONTINUOUS
 10
156.1524619105
 20
204.0463337274
 11
153.3919976463
 21
203.8721009633
  0
LINE
  8
0
 62
7
  6
CONTINUOUS
 10
153.7838762358
 20
204.4187050856
 11
156.1196536501
 21
204.5661328065
  0
LINE
  8
0
 62
7
  6
CONTINUOUS
 10
155.9884206391
 20
206.6453286397
 11
153.8649866126
 21
206.5113034379
  0
LINE
  8
0
 62
2
  6
CONTINUOUS
 10
100.648360099
 20
201.9487625556
 11
98.888360099
 21
201.9487625556
  0
LINE
  8
DEFAULT_1
 62
2
  6
CENTER
 10
95.368360099
 20
201.9487625556
 11
19.668360099
 21
201.9487625556
  0
LINE
  8
DEFAULT_1
 62
2
  6
CENTER
 10
104.168360099
 20
201.9487625556
 11
179.868360099
 21
201.9487625556
  0
LINE
  8
0
 62
7
  6
CONTINUOUS
 10
154.7689096893
 20
199.8494376084
 11
152.7477702472
 21
199.87298889
  0
LINE
  8
0
 62
7
  6
CONTINUOUS
 10
152.7538388315
 20
200.3937866689
 11
154.7749782736
 21
200.3702353872
  0
LINE
  8
0
 62
7
  6
CONTINUOUS
 10
156.1797098631
 20
202.2289940738
 11
155.647831141
 21
202.2351917786
  0
LINE
  8
0
 62
7
  6
CONTINUOUS
 10
155.2223281633
 20
202.2401499424
 11
152.7756857435
 21
202.2686593879
  0
LINE
  8
0
 62
7
  6
CONTINUOUS
 10
152.7817543313
 20
202.7894574647
 11
156.1857784509
 21
202.7497921506
  0
LINE
  8
0
 62
7
  6
CONTINUOUS
 10
157.6491055502
 20
198.2222195465
 11
157.1181416531
 21
198.2540114723
  0
LINE
  8
0
 62
7
  6
CONTINUOUS
 10
156.0562135613
 20
198.3175953417
 11
152.6580443222
 21
198.5210636847
  0
LINE
  8
0
 62
7
  6
CONTINUOUS
 10
152.6891739081
 20
199.0409656976
 11
156.0873431472
 21
198.8374973547
  0
LINE
  8
0
 62
7
  6
CONTINUOUS
 10
157.1492712389
 20
198.7739134852
 11
157.680235136
 21
198.7421215594
  0
LINE
  8
0
 62
7
  6
CONTINUOUS
 10
156.1010865908
 20
188.0153655903
 11
155.4768326777
 21
188.1485238746
  0
LINE
  8
0
 62
7
  6
CONTINUOUS
 10
154.2112051863
 20
188.8445334608
 11
153.5869512732
 21
188.9776917451
  0
LINE
  8
0
 62
7
  6
CONTINUOUS
 10
156.1287535224
 20
191.2047673552
 11
154.7762030859
 21
191.4932770334
  0
LINE
  8
0
 62
7
  6
CONTINUOUS
 10
154.1519491728
 20
191.6264353177
 11
151.8630178666
 21
192.1146824223
  0
LINE
  8
0
 62
7
  6
CONTINUOUS
 10
155.6573770301
 20
186.441164308
 11
150.8334531399
 21
187.7563670684
  0
LINE
  8
0
 62
7
  6
CONTINUOUS
 10
150.9704535319
 20
188.2588595237
 11
155.7943774222
 21
186.9436567633
  0
LINE
  8
0
 62
7
  6
CONTINUOUS
 10
151.6061379976
 20
183.1157750601
 11
151.2019750686
 21
183.2489284341
  0
LINE
  8
0
 62
7
  6
CONTINUOUS
 10
151.7691126391
 20
183.6104550405
 11
151.9711940329
 21
183.5438783768
  0
LINE
  8
0
 62
7
  6
CONTINUOUS
 10
152.5546447412
 20
185.654816286
 11
152.4536040443
 21
185.6881046179
  0
LINE
  8
0
 62
7
  6
CONTINUOUS
 10
152.0820354467
 20
185.9201921764
 11
151.879954053
 21
185.9867688401
  0
LINE
  8
0
 62
7
  6
CONTINUOUS
 10
144.5104581714
 20
170.4181254487
 11
144.0651446772
 21
170.7090365666
  0
LINE
  8
0
 62
7
  6
CONTINUOUS
 10
144.4960279803
 20
171.174097761
 11
144.7632160768
 21
170.9995510902
  0
LINE
  8
0
 62
7
  6
CONTINUOUS
 10
147.7978128285
 20
171.7544664018
 11
147.6196874309
 21
171.870830849
  0
LINE
  8
0
 62
7
  6
CONTINUOUS
 10
143.9338909416
 20
164.2957924224
 11
140.0149809866
 21
167.4009727335
  0
LINE
  8
0
 62
7
  6
CONTINUOUS
 10
140.9867959544
 20
167.4283628234
 11
144.3220384805
 21
164.7856561668
  0
LINE
  8
0
 62
7
  6
CONTINUOUS
 10
139.573972233
 20
161.3427085407
 11
139.2659581863
 21
161.6363153663
  0
LINE
  8
0
 62
7
  6
CONTINUOUS
 10
138.0339027542
 20
162.8107419491
 11
137.6488854654
 21
163.1777502241
  0
LINE
  8
0
 62
7
  6
CONTINUOUS
 10
138.1571236977
 20
163.5567439374
 11
138.388134071
 21
163.3365389724
  0
LINE
  8
0
 62
7
  6
CONTINUOUS
 10
139.7741964186
 20
162.0153090796
 11
139.9282033341
 21
161.8685057696
  0
LINE
  8
0
 62
7
  6
CONTINUOUS
 10
142.1870347602
 20
163.3130751846
 11
141.1089861358
 21
164.3406985602
  0
LINE
  8
0
 62
7
  6
CONTINUOUS
 10
140.6469653893
 20
164.7811084902
 11
139.4919133611
 21
165.8821334695
  0
LINE
  8
0
 62
7
  6
CONTINUOUS
 10
114.8621783679
 20
127.5675399338
 11
114.3974842078
 21
132.1001235525
  0
LINE
  8
0
 62
7
  6
CONTINUOUS
 10
102.7012539042
 20
273.2526318526
 11
102.413571498
 21
277.7998830834
  0
LINE
  8
0
 62
7
  6
CONTINUOUS
 10
88.8335430037
 20
144.9507796133
 11
88.9524482701
 21
145.4692339741
  0
LINE
  8
0
 62
7
  6
CONTINUOUS
 10
89.7610041986
 20
148.9947241357
 11
89.9512526416
 21
149.8242511855
  0
LINE
  8
0
 62
7
  6
CONTINUOUS
 10
89.8928101567
 20
126.6967649609
 11
90.9250219031
 21
131.1346466441
  0
LINE
  8
0
 62
7
  6
CONTINUOUS
 10
125.694670141
 20
268.4368824748
 11
126.899065222
 21
272.8311614159
  0
LINE
  8
0
 62
7
  6
CONTINUOUS
 10
81.4607654145
 20
148.693564252
 11
81.386777361
 21
148.4940771351
  0
LINE
  8
0
 62
7
  6
CONTINUOUS
 10
81.8381171917
 20
148.2132147549
 11
81.9860932987
 21
148.6121889887
  0
LINE
  8
0
 62
7
  6
CONTINUOUS
 10
79.1966905695
 20
151.5756481087
 11
78.8400727122
 21
150.9136641712
  0
LINE
  8
0
 62
7
  6
CONTINUOUS
 10
79.3283976281
 20
150.7325486658
 11
79.6480304001
 21
151.2947857285
  0
LINE
  8
0
 62
7
  6
CONTINUOUS
 10
65.9936110167
 20
133.9807115825
 11
68.4108725104
 21
137.8429779889
  0
LINE
  8
0
 62
7
  6
CONTINUOUS
 10
145.8785683965
 20
256.4161136344
 11
148.4445260697
 21
260.1812319781
  0
LINE
  8
0
 62
7
  6
CONTINUOUS
 10
69.5389968223
 20
158.3955650999
 11
68.2204699954
 21
156.5921147186
  0
LINE
  8
0
 62
7
  6
CONTINUOUS
 10
67.8437480951
 20
156.0768432498
 11
66.9019431685
 21
154.7886643373
  0
LINE
  8
0
 62
7
  6
CONTINUOUS
 10
67.0925449583
 20
153.9903978753
 11
70.043533529
 21
158.0266915286
  0
LINE
  8
0
 62
7
  6
CONTINUOUS
 10
61.0450406052
 20
163.5930907068
 11
60.8132031978
 21
163.3737566335
  0
LINE
  8
0
 62
7
  6
CONTINUOUS
 10
60.2665604009
 20
162.7131941968
 11
60.1120021293
 21
162.5669714813
  0
LINE
  8
0
 62
7
  6
CONTINUOUS
 10
60.4699410097
 20
162.1886279764
 11
61.0108949603
 21
162.7004074808
  0
LINE
  8
0
 62
7
  6
CONTINUOUS
 10
45.754430009
 20
148.63005116
 11
49.2947934595
 21
151.4981657953
  0
LINE
  8
0
 62
7
  6
CONTINUOUS
 10
161.0657101095
 20
238.4929621566
 11
164.715169046
 21
241.2209109086
  0
LINE
  8
0
 62
7
  6
CONTINUOUS
 10
31.368496439
 20
169.0573004422
 11
35.6483085321
 21
170.6204585823
  0
LINE
  8
0
 62
7
  6
CONTINUOUS
 10
169.6103328224
 20
216.6096796103
 11
173.9478175192
 21
218.0048431949
  0
LINE
  8
0
 62
7
  6
CONTINUOUS
 10
172.6490955014
 20
223.1333804623
 11
168.1703670934
 21
222.2959756798
  0
LINE
  8
0
 62
7
  6
CONTINUOUS
 10
28.4658332155
 20
198.9834121854
 11
23.9578697779
 21
198.3212033301
  0
LINE
  8
0
 62
7
  6
CONTINUOUS
 10
153.8321783592
 20
207.0311024055
 11
155.9556123857
 21
207.1651276072
  0
LINE
  8
0
 62
7
  6
CONTINUOUS
 10
175.57885042
 20
198.3212033301
 11
171.0708869824
 21
198.9834121854
  0
LINE
  8
0
 62
7
  6
CONTINUOUS
 10
31.3663531045
 20
222.2959756798
 11
26.8876246965
 21
223.1333804623
  0
LINE
  8
0
 62
7
  6
CONTINUOUS
 10
151.9934020356
 20
192.7259311184
 11
156.8833916044
 21
191.682857767
  0
LINE
  8
0
 62
7
  6
CONTINUOUS
 10
170.2933623914
 20
173.9021285275
 11
166.2446717109
 21
175.9921904157
  0
LINE
  8
0
 62
7
  6
CONTINUOUS
 10
41.6792918179
 20
243.4036029126
 11
37.715138157
 21
245.649875531
  0
LINE
  8
0
 62
7
  6
CONTINUOUS
 10
147.8724453363
 20
172.4522564906
 11
148.2286963812
 21
172.2195274333
  0
LINE
  8
0
 62
7
  6
CONTINUOUS
 10
145.6331063572
 20
167.4680916781
 11
142.2144827198
 21
170.1768660392
  0
LINE
  8
0
 62
7
  6
CONTINUOUS
 10
142.6026302587
 20
170.6667297836
 11
146.5215402137
 21
167.5615494725
  0
LINE
  8
0
 62
7
  6
CONTINUOUS
 10
139.4611273351
 20
166.7749388191
 11
143.0802902813
 21
163.3250606229
  0
LINE
  8
0
 62
7
  6
CONTINUOUS
 10
157.3653960562
 20
152.5223417101
 11
154.21471659
 21
155.8137659952
  0
LINE
  8
0
 62
7
  6
CONTINUOUS
 10
58.2870824243
 20
260.0189549547
 11
55.26708107
 21
263.4306769162
  0
LINE
  8
0
 62
7
  6
CONTINUOUS
 10
138.1958971649
 20
136.4986745213
 11
136.2846539211
 21
140.6347843102
  0
LINE
  8
0
 62
7
  6
CONTINUOUS
 10
79.3900131151
 20
270.3415005984
 11
77.6414280742
 21
274.5489588903
  0
LINE
  8
0
 62
7
  6
CONTINUOUS
 10
59.8574032156
 20
161.7525130164
 11
60.4699410097
 21
162.1886279764
  0
LINE
  8
0
 62
7
  6
CONTINUOUS
 10
60.1120021293
 20
162.5669714813
 11
59.5767369169
 21
162.2039748067
  0
LINE
  8
0
 62
7
  6
CONTINUOUS
 10
153.4140531603
 20
206.9003375632
 11
153.8321783592
 21
207.0311024055
  0
LINE
  8
0
 62
7
  6
CONTINUOUS
 10
153.3919976463
 20
203.8721009633
 11
152.9738724595
 21
203.7413362245
  0
LINE
  8
0
 62
7
  6
CONTINUOUS
 10
152.2450100882
 20
186.4148721568
 11
152.8186593335
 21
186.1162056701
  0
LINE
  8
0
 62
7
  6
CONTINUOUS
 10
150.5957308873
 20
183.4486584252
 11
150.2241631065
 21
183.6807482249
  0
LINE
  8
0
 62
7
  6
CONTINUOUS
 10
150.4881776988
 20
184.142137609
 11
150.7587055287
 21
183.9433384057
  0
LINE
  8
0
 62
7
  6
CONTINUOUS
 10
148.2286963812
 20
172.2195274333
 11
148.5279766411
 21
171.8995906373
  0
LINE
  8
0
 62
7
  6
CONTINUOUS
 10
137.6488854654
 20
163.1777502241
 11
137.489746404
 21
163.4733533181
  0
LINE
  8
0
 62
7
  6
CONTINUOUS
 10
137.9979846902
 20
163.85234698
 11
138.1571236977
 21
163.5567439374
  0
LINE
  8
0
 62
7
  6
CONTINUOUS
 10
139.2659581863
 20
161.6363153663
 11
139.1068191787
 21
161.9319184089
  0
LINE
  8
0
 62
7
  6
CONTINUOUS
 10
79.6480304001
 20
151.2947857285
 11
79.8566720986
 21
151.5577952925
  0
LINE
  8
0
 62
7
  6
CONTINUOUS
 10
79.0191318937
 20
149.5991450954
 11
79.2277735921
 21
149.8621546594
  0
LINE
  8
0
 62
7
  6
CONTINUOUS
 10
81.386777361
 20
148.4940771351
 11
81.1781355589
 21
148.2310672917
  0
LINE
  8
0
 62
7
  6
CONTINUOUS
 10
79.5769978487
 20
152.0019171155
 11
79.1966905695
 21
151.5756481087
  0
LINE
  8
0
 62
7
  6
CONTINUOUS
 10
81.4578098347
 20
147.7869455386
 11
81.8381171917
 21
148.2132147549
  0
LINE
  8
0
 62
4
  6
CONTINUOUS
 10
106.7290919062
 20
180.6252231154
 11
103.9006647814
 21
177.7967959906
  0
LINE
  8
0
 62
4
  6
CONTINUOUS
 10
121.0918995392
 20
194.9880307484
 11
123.920326664
 21
197.8164578732
  0
LINE
  8
0
 62
4
  6
CONTINUOUS
 10
119.2299444797
 20
190.8633339891
 11
110.8537886655
 21
182.4871781749
  0
LINE
  8
0
 62
7
  6
CONTINUOUS
 10
65.195490595
 20
157.7494539502
 11
64.9230453262
 21
157.553293392
  0
LINE
  8
0
 62
7
  6
CONTINUOUS
 10
65.3647950495
 20
157.0985412426
 11
65.6372403183
 21
157.2947018008
  0
LINE
  8
0
 62
7
  6
CONTINUOUS
 10
65.8074907021
 20
161.2328433513
 11
64.6506333488
 21
160.5509463179
  0
LINE
  8
0
 62
7
  6
CONTINUOUS
 10
64.2910528524
 20
160.3006852726
 11
61.6881130043
 21
158.766426325
  0
LINE
  8
0
 62
7
  6
CONTINUOUS
 10
61.7191757113
 20
158.1716774403
 11
66.276256824
 21
160.8194629901
  0
LINE
  8
0
 62
7
  6
CONTINUOUS
 10
153.2082714236
 20
206.7829752449
 11
153.4140531603
 21
206.9003375632
  0
LINE
  8
0
 62
7
  6
CONTINUOUS
 10
59.2553396491
 20
165.4848151587
 11
59.5587609001
 21
165.6284846877
  0
LINE
  8
0
 62
7
  6
CONTINUOUS
 10
60.8132031978
 20
163.3737566335
 11
60.5097818385
 21
163.2300870021
  0
LINE
  8
0
 62
7
  6
CONTINUOUS
 10
59.5767369169
 20
162.2039748067
 11
59.2733154494
 21
162.0603050729
  0
LINE
  8
0
 62
7
  6
CONTINUOUS
 10
152.7352824561
 20
204.1437727889
 11
153.253017692
 21
204.3851987828
  0
LINE
  8
0
 62
7
  6
CONTINUOUS
 10
59.5042498789
 20
166.150490845
 11
58.9746733504
 21
165.936276949
  0
LINE
  8
0
 62
7
  6
CONTINUOUS
 10
59.3278265247
 20
161.5382989668
 11
59.8574032156
 21
161.7525130164
  0
LINE
  8
0
 62
7
  6
CONTINUOUS
 10
153.8649866126
 20
206.5113034379
 11
153.5530331825
 21
206.3872398507
  0
LINE
  8
0
 62
7
  6
CONTINUOUS
 10
155.622343077
 20
200.0478402731
 11
155.3020021241
 21
199.9473991018
  0
LINE
  8
0
 62
4
  6
CONTINUOUS
 10
103.9006647814
 20
226.1007291206
 11
106.7290919062
 21
223.2723019959
  0
LINE
  8
0
 62
4
  6
CONTINUOUS
 10
123.920326664
 20
206.0810672381
 11
121.0918995392
 21
208.9094943628
  0
LINE
  8
0
 62
4
  6
CONTINUOUS
 10
119.2299444797
 20
213.0341911222
 11
110.8537886655
 21
221.4103469364
  0
LINE
  8
0
 62
7
  6
CONTINUOUS
 10
148.0080306392
 20
171.4927116664
 11
147.7978128285
 21
171.7544664018
  0
LINE
  8
0
 62
7
  6
CONTINUOUS
 10
144.0651446772
 20
170.7090365666
 11
143.8228348902
 21
171.116181305
  0
LINE
  8
0
 62
7
  6
CONTINUOUS
 10
139.615057411
 20
162.3109121222
 11
139.7741964186
 21
162.0153090796
  0
LINE
  8
0
 62
7
  6
CONTINUOUS
 10
153.5530331825
 20
206.3872398507
 11
153.2476413297
 21
206.1592164504
  0
LINE
  8
0
 62
7
  6
CONTINUOUS
 10
79.8566720986
 20
151.5577952925
 11
80.1629913243
 21
151.7845771824
  0
LINE
  8
0
 62
7
  6
CONTINUOUS
 10
79.2277735921
 20
149.8621546594
 11
79.5340927919
 21
150.0889364795
  0
LINE
  8
0
 62
7
  6
CONTINUOUS
 10
152.9738724595
 20
203.7413362245
 11
152.7680907165
 21
203.6239737098
  0
LINE
  8
0
 62
7
  6
CONTINUOUS
 10
153.4522377813
 20
204.6065208444
 11
153.7838762358
 21
204.4187050856
  0
LINE
  8
0
 62
7
  6
CONTINUOUS
 10
152.7241310575
 20
185.4893031733
 11
152.5546447412
 21
185.654816286
  0
LINE
  8
0
 62
7
  6
CONTINUOUS
 10
152.8186593335
 20
186.1162056701
 11
153.1576327121
 21
185.7851817092
  0
LINE
  8
0
 62
7
  6
CONTINUOUS
 10
144.3427809545
 20
171.5230602351
 11
144.4960279803
 21
171.174097761
  0
LINE
  8
0
 62
7
  6
CONTINUOUS
 10
137.9877237423
 20
164.149949948
 11
137.9979846902
 21
163.85234698
  0
LINE
  8
0
 62
7
  6
CONTINUOUS
 10
152.909441256
 20
206.4509920943
 11
153.2082714236
 21
206.7829752449
  0
LINE
  8
0
 62
7
  6
CONTINUOUS
 10
81.1781355589
 20
148.2310672917
 11
80.8718163591
 21
148.0042854716
  0
LINE
  8
0
 62
7
  6
CONTINUOUS
 10
80.0179707064
 20
152.2922214176
 11
79.5769978487
 21
152.0019171155
  0
LINE
  8
0
 62
7
  6
CONTINUOUS
 10
81.0168369899
 20
147.4966412714
 11
81.4578098347
 21
147.7869455386
  0
LINE
  8
0
 62
7
  6
CONTINUOUS
 10
84.1152443185
 20
147.7564144121
 11
83.3021862532
 21
147.2233933393
  0
LINE
  8
0
 62
7
  6
CONTINUOUS
 10
150.869546978
 20
186.3196521936
 11
151.1368185621
 21
186.4509484162
  0
LINE
  8
0
 62
7
  6
CONTINUOUS
 10
151.3095611596
 20
185.9553398658
 11
150.9086545117
 21
185.7583978022
  0
LINE
  8
0
 62
7
  6
CONTINUOUS
 10
152.5448431366
 20
183.2452119368
 11
152.0428958627
 21
183.0815581817
  0
LINE
  8
0
 62
7
  6
CONTINUOUS
 10
150.0557276903
 20
180.4173649972
 11
147.9208543609
 21
179.7345070323
  0
LINE
  8
0
 62
7
  6
CONTINUOUS
 10
150.2984447787
 20
180.9933106674
 11
152.4333171822
 21
181.6761664352
  0
LINE
  8
0
 62
7
  6
CONTINUOUS
 10
65.6989068819
 20
157.9085314771
 11
65.195490595
 21
157.7494539502
  0
LINE
  8
0
 62
7
  6
CONTINUOUS
 10
148.1635714492
 20
180.3104527025
 11
149.8829863529
 21
180.8292784583
  0
LINE
  8
0
 62
7
  6
CONTINUOUS
 10
152.1906000939
 20
181.100220765
 11
150.4711862535
 21
180.5813971483
  0
LINE
  8
0
 62
7
  6
CONTINUOUS
 10
153.253017692
 20
204.3851987828
 11
152.9148176115
 21
204.6769742397
  0
LINE
  8
0
 62
7
  6
CONTINUOUS
 10
149.8829863529
 20
180.8292784583
 11
149.0535344151
 21
182.4222542256
  0
LINE
  8
0
 62
7
  6
CONTINUOUS
 10
150.4711862535
 20
180.5813971483
 11
151.300637128
 21
178.9884192419
  0
LINE
  8
0
 62
7
  6
CONTINUOUS
 10
150.2241631065
 20
183.6807482249
 11
150.0188254669
 21
184.0774203146
  0
LINE
  8
0
 62
7
  6
CONTINUOUS
 10
151.0579200397
 20
178.4124735717
 11
150.0557276903
 21
180.4173649972
  0
LINE
  8
0
 62
7
  6
CONTINUOUS
 10
149.2962515035
 20
182.9981998958
 11
150.2984447787
 21
180.9933106674
  0
LINE
  8
0
 62
7
  6
CONTINUOUS
 10
143.8228348902
 20
171.116181305
 11
143.6944635973
 21
171.6977378343
  0
LINE
  8
0
 62
7
  6
CONTINUOUS
 10
137.489746404
 20
163.4733533181
 11
137.3973499332
 21
163.9931576479
  0
LINE
  8
0
 62
7
  6
CONTINUOUS
 10
139.1068191787
 20
161.9319184089
 11
139.0144227349
 21
162.451722713
  0
LINE
  8
0
 62
7
  6
CONTINUOUS
 10
139.604796517
 20
162.6085150387
 11
139.615057411
 21
162.3109121222
  0
LINE
  8
0
 62
7
  6
CONTINUOUS
 10
144.3355657967
 20
171.901046432
 11
144.3427809545
 21
171.5230602351
  0
LINE
  8
0
 62
7
  6
CONTINUOUS
 10
137.3973499332
 20
163.9931576479
 11
137.4538282927
 21
164.5149583939
  0
LINE
  8
0
 62
7
  6
CONTINUOUS
 10
152.7167827952
 20
206.1257101482
 11
152.909441256
 21
206.4509920943
  0
LINE
  8
0
 62
7
  6
CONTINUOUS
 10
155.3080707154
 20
200.4681974766
 11
155.5232496366
 21
200.674037387
  0
LINE
  8
0
 62
7
  6
CONTINUOUS
 10
155.8375219982
 20
200.2536801835
 11
155.622343077
 21
200.0478402731
  0
LINE
  8
0
 62
7
  6
CONTINUOUS
 10
150.5696810801
 20
186.0894217806
 11
150.869546978
 21
186.3196521936
  0
LINE
  8
0
 62
7
  6
CONTINUOUS
 10
83.0569714825
 20
146.4084214466
 11
83.8700294619
 21
146.941442234
  0
LINE
  8
0
 62
7
  6
CONTINUOUS
 10
89.1993823586
 20
149.3418195847
 11
84.938780968
 21
146.6080411273
  0
LINE
  8
0
 62
7
  6
CONTINUOUS
 10
85.3988783472
 20
146.2842298744
 11
89.7610041986
 21
148.9947241357
  0
LINE
  8
0
 62
7
  6
CONTINUOUS
 10
155.4326522163
 20
202.0293515701
 11
155.2223281633
 21
202.2401499424
  0
LINE
  8
0
 62
7
  6
CONTINUOUS
 10
155.647831141
 20
202.2351917786
 11
155.858155194
 21
202.0243934063
  0
LINE
  8
0
 62
7
  6
CONTINUOUS
 10
153.220209441
 20
204.9049977132
 11
153.4522377813
 21
204.6065208444
  0
LINE
  8
0
 62
7
  6
CONTINUOUS
 10
152.9294686617
 20
185.0926310953
 11
152.7241310575
 21
185.4893031733
  0
LINE
  8
0
 62
7
  6
CONTINUOUS
 10
153.1576327121
 20
185.7851817092
 11
153.2945239508
 21
185.5207321476
  0
LINE
  8
0
 62
7
  6
CONTINUOUS
 10
150.3838807915
 20
184.5055213552
 11
150.4881776988
 21
184.142137609
  0
LINE
  8
0
 62
7
  6
CONTINUOUS
 10
148.5279766411
 20
171.8995906373
 11
148.6563479029
 21
171.3180341283
  0
LINE
  8
0
 62
7
  6
CONTINUOUS
 10
148.0152457347
 20
171.1147255103
 11
148.0080306392
 21
171.4927116664
  0
LINE
  8
0
 62
7
  6
CONTINUOUS
 10
143.6944635973
 20
171.6977378343
 11
143.7442190137
 21
172.1629319075
  0
LINE
  8
0
 62
7
  6
CONTINUOUS
 10
148.6563479029
 20
171.3180341283
 11
148.606592463
 21
170.8528400704
  0
LINE
  8
0
 62
7
  6
CONTINUOUS
 10
152.6368576937
 20
205.7031697288
 11
152.7167827952
 21
206.1257101482
  0
LINE
  8
0
 62
7
  6
CONTINUOUS
 10
139.0144227349
 20
162.451722713
 11
139.0811652987
 21
162.6759239746
  0
LINE
  8
0
 62
7
  6
CONTINUOUS
 10
144.4743826314
 20
172.3080562702
 11
144.3355657967
 21
171.901046432
  0
LINE
  8
0
 62
7
  6
CONTINUOUS
 10
143.7442190137
 20
172.1629319075
 11
143.940006376
 21
172.6571496525
  0
LINE
  8
0
 62
7
  6
CONTINUOUS
 10
153.2476413297
 20
206.1592164504
 11
153.0615445065
 21
205.7299747696
  0
LINE
  8
0
 62
7
  6
CONTINUOUS
 10
138.1263376718
 20
164.4495492871
 11
137.9877237423
 21
164.149949948
  0
LINE
  8
0
 62
7
  6
CONTINUOUS
 10
155.5232496366
 20
200.674037387
 11
155.6320528134
 21
200.8811168384
  0
LINE
  8
0
 62
7
  6
CONTINUOUS
 10
137.4538282927
 20
164.5149583939
 11
137.736188237
 21
164.965357346
  0
LINE
  8
0
 62
7
  6
CONTINUOUS
 10
150.7424244059
 20
185.5938155006
 11
150.5110041096
 21
185.2313603126
  0
LINE
  8
0
 62
7
  6
CONTINUOUS
 10
156.0539146391
 20
200.5636798881
 11
155.8375219982
 21
200.2536801835
  0
LINE
  8
0
 62
7
  6
CONTINUOUS
 10
150.3708558879
 20
185.8259030329
 11
150.5696810801
 21
186.0894217806
  0
LINE
  8
0
 62
7
  6
CONTINUOUS
 10
144.395768051
 20
173.3548088738
 11
144.7696808266
 21
173.7326621615
  0
LINE
  8
0
 62
7
  6
CONTINUOUS
 10
150.9086545117
 20
185.7583978022
 11
150.7424244059
 21
185.5938155006
  0
LINE
  8
0
 62
7
  6
CONTINUOUS
 10
145.2470865388
 20
173.2963608827
 11
144.9301443064
 21
173.0057154916
  0
LINE
  8
0
 62
7
  6
CONTINUOUS
 10
153.0109391227
 20
183.6400246572
 11
152.5448431366
 21
183.2452119368
  0
LINE
  8
0
 62
7
  6
CONTINUOUS
 10
152.3395055325
 20
183.6418840148
 11
152.6393714127
 21
183.8721144336
  0
LINE
  8
0
 62
7
  6
CONTINUOUS
 10
146.4690874416
 20
172.2492135994
 11
146.8750936768
 21
172.4816787629
  0
LINE
  8
0
 62
7
  6
CONTINUOUS
 10
145.9707867262
 20
170.70837616
 11
145.564780491
 21
170.4759109965
  0
LINE
  8
0
 62
7
  6
CONTINUOUS
 10
144.7696808266
 20
173.7326621615
 11
145.3217190154
 21
173.9941509918
  0
LINE
  8
0
 62
7
  6
CONTINUOUS
 10
147.295528799
 20
171.9581696181
 11
146.9464930992
 21
171.8129123562
  0
LINE
  8
0
 62
7
  6
CONTINUOUS
 10
145.1443453688
 20
170.9994201414
 11
145.4933810686
 21
171.1446774032
  0
LINE
  8
0
 62
7
  6
CONTINUOUS
 10
147.8090114877
 20
169.6319394271
 11
147.3139425537
 21
169.4576564872
  0
LINE
  8
0
 62
7
  6
CONTINUOUS
 10
139.0811652987
 20
162.6759239746
 11
138.8604158194
 21
162.598526023
  0
LINE
  8
0
 62
7
  6
CONTINUOUS
 10
155.6417625566
 20
201.7143939997
 11
155.4326522163
 21
202.0293515701
  0
LINE
  8
0
 62
7
  6
CONTINUOUS
 10
155.858155194
 20
202.0243934063
 11
156.0672655343
 21
201.7094358359
  0
LINE
  8
0
 62
7
  6
CONTINUOUS
 10
152.9148176115
 20
204.6769742397
 11
152.7955226004
 21
204.8781926706
  0
LINE
  8
0
 62
7
  6
CONTINUOUS
 10
152.7955226004
 20
204.8781926706
 11
152.6631043002
 21
205.2873304952
  0
LINE
  8
0
 62
7
  6
CONTINUOUS
 10
153.0877911129
 20
205.314135536
 11
153.220209441
 21
204.9049977132
  0
LINE
  8
0
 62
7
  6
CONTINUOUS
 10
153.2945239508
 20
185.5207321476
 11
153.3988208581
 21
185.1573484014
  0
LINE
  8
0
 62
7
  6
CONTINUOUS
 10
150.0188254669
 20
184.0774203146
 11
149.9471236106
 21
184.5397405185
  0
LINE
  8
0
 62
7
  6
CONTINUOUS
 10
152.9653199496
 20
184.86147213
 11
152.9294686617
 21
185.0926310953
  0
LINE
  8
0
 62
7
  6
CONTINUOUS
 10
152.7680907165
 20
203.6239737098
 11
152.7352824561
 21
204.1437727889
  0
LINE
  8
0
 62
7
  6
CONTINUOUS
 10
152.6631043002
 20
205.2873304952
 11
152.6368576937
 21
205.7031697288
  0
LINE
  8
0
 62
7
  6
CONTINUOUS
 10
153.0615445065
 20
205.7299747696
 11
153.0877911129
 21
205.314135536
  0
LINE
  8
0
 62
7
  6
CONTINUOUS
 10
155.9556123857
 20
207.1651276072
 11
155.9884206391
 21
206.6453286397
  0
LINE
  8
0
 62
7
  6
CONTINUOUS
 10
156.1196536501
 20
204.5661328065
 11
156.1524619105
 21
204.0463337274
  0
LINE
  8
0
 62
7
  6
CONTINUOUS
 10
153.3988208581
 20
185.1573484014
 11
153.4020770686
 21
184.8272529871
  0
LINE
  8
0
 62
7
  6
CONTINUOUS
 10
152.7477702472
 20
199.87298889
 11
152.7538388315
 21
200.3937866689
  0
LINE
  8
0
 62
7
  6
CONTINUOUS
 10
152.7756857435
 20
202.2686593879
 11
152.7817543313
 21
202.7894574647
  0
LINE
  8
0
 62
7
  6
CONTINUOUS
 10
156.1857784509
 20
202.7497921506
 11
156.1797098631
 21
202.2289940738
  0
LINE
  8
0
 62
7
  6
CONTINUOUS
 10
156.1687864071
 20
201.2915577143
 11
156.1639315355
 21
200.8749191336
  0
LINE
  8
0
 62
7
  6
CONTINUOUS
 10
152.6580443222
 20
198.5210636847
 11
152.6891739081
 21
199.0409656976
  0
LINE
  8
0
 62
7
  6
CONTINUOUS
 10
156.0873431472
 20
198.8374973547
 11
156.0562135613
 21
198.3175953417
  0
LINE
  8
0
 62
7
  6
CONTINUOUS
 10
157.1181416531
 20
198.2540114723
 11
157.1492712389
 21
198.7739134852
  0
LINE
  8
0
 62
7
  6
CONTINUOUS
 10
157.680235136
 20
198.7421215594
 11
157.6491055502
 21
198.2222195465
  0
LINE
  8
0
 62
7
  6
CONTINUOUS
 10
152.9359810825
 20
184.4324402667
 11
152.9653199496
 21
184.86147213
  0
LINE
  8
0
 62
7
  6
CONTINUOUS
 10
153.4020770686
 20
184.8272529871
 11
153.3075487925
 21
184.2003504903
  0
LINE
  8
0
 62
7
  6
CONTINUOUS
 10
149.9471236106
 20
184.5397405185
 11
150.0742462092
 21
185.2655772027
  0
LINE
  8
0
 62
7
  6
CONTINUOUS
 10
150.5110041096
 20
185.2313603126
 11
150.3838807915
 21
184.5055213552
  0
LINE
  8
0
 62
7
  6
CONTINUOUS
 10
151.8630178666
 20
192.1146824223
 11
151.9934020356
 21
192.7259311184
  0
LINE
  8
0
 62
7
  6
CONTINUOUS
 10
153.5869512732
 20
188.9776917451
 11
154.1519491728
 21
191.6264353177
  0
LINE
  8
0
 62
7
  6
CONTINUOUS
 10
154.7762030859
 20
191.4932770334
 11
154.2112051863
 21
188.8445334608
  0
LINE
  8
0
 62
7
  6
CONTINUOUS
 10
155.4768326777
 20
188.1485238746
 11
156.1287535224
 21
191.2047673552
  0
LINE
  8
0
 62
7
  6
CONTINUOUS
 10
156.8833916044
 20
191.682857767
 11
156.1010865908
 21
188.0153655903
  0
LINE
  8
0
 62
7
  6
CONTINUOUS
 10
147.9333981314
 20
170.7949215777
 11
148.0152457347
 21
171.1147255103
  0
LINE
  8
0
 62
7
  6
CONTINUOUS
 10
155.6320528134
 20
200.8811168384
 11
155.7432834294
 21
201.2965158781
  0
LINE
  8
0
 62
7
  6
CONTINUOUS
 10
150.8334531399
 20
187.7563670684
 11
150.9704535319
 21
188.2588595237
  0
LINE
  8
0
 62
7
  6
CONTINUOUS
 10
155.7943774222
 20
186.9436567633
 11
155.6573770301
 21
186.441164308
  0
LINE
  8
0
 62
7
  6
CONTINUOUS
 10
150.7587055287
 20
183.9433384057
 11
150.5957308873
 21
183.4486584252
  0
LINE
  8
0
 62
7
  6
CONTINUOUS
 10
151.2019750686
 20
183.2489284341
 11
152.0820354467
 21
185.9201921764
  0
LINE
  8
0
 62
7
  6
CONTINUOUS
 10
152.4536040443
 20
185.6881046179
 11
151.7691126391
 21
183.6104550405
  0
LINE
  8
0
 62
7
  6
CONTINUOUS
 10
148.606592463
 20
170.8528400704
 11
148.4677743244
 21
170.4458282362
  0
LINE
  8
0
 62
7
  6
CONTINUOUS
 10
156.1639315355
 20
200.8749191336
 11
156.0539146391
 21
200.5636798881
  0
LINE
  8
0
 62
7
  6
CONTINUOUS
 10
147.9208543609
 20
179.7345070323
 11
148.1635714492
 21
180.3104527025
  0
LINE
  8
0
 62
7
  6
CONTINUOUS
 10
149.0535344151
 20
182.4222542256
 11
149.2962515035
 21
182.9981998958
  0
LINE
  8
0
 62
7
  6
CONTINUOUS
 10
152.4333171822
 20
181.6761664352
 11
152.1906000939
 21
181.100220765
  0
LINE
  8
0
 62
7
  6
CONTINUOUS
 10
151.300637128
 20
178.9884192419
 11
151.0579200397
 21
178.4124735717
  0
LINE
  8
0
 62
7
  6
CONTINUOUS
 10
139.7434104465
 20
162.9081143779
 11
139.604796517
 21
162.6085150387
  0
LINE
  8
0
 62
7
  6
CONTINUOUS
 10
150.0742462092
 20
185.2655772027
 11
150.3708558879
 21
185.8259030329
  0
LINE
  8
0
 62
7
  6
CONTINUOUS
 10
152.6393714127
 20
183.8721144336
 11
152.9359810825
 21
184.4324402667
  0
LINE
  8
0
 62
7
  6
CONTINUOUS
 10
153.3075487925
 20
184.2003504903
 11
153.0109391227
 21
183.6400246572
  0
LINE
  8
0
 62
7
  6
CONTINUOUS
 10
143.940006376
 20
172.6571496525
 11
144.395768051
 21
173.3548088738
  0
LINE
  8
0
 62
7
  6
CONTINUOUS
 10
144.9301443064
 20
173.0057154916
 11
144.4743826314
 21
172.3080562702
  0
LINE
  8
0
 62
7
  6
CONTINUOUS
 10
146.3511642359
 20
173.8193405291
 11
146.0093436316
 21
173.2960971111
  0
LINE
  8
0
 62
7
  6
CONTINUOUS
 10
145.810323301
 20
171.4353227943
 11
146.1521439053
 21
171.9585662123
  0
LINE
  8
0
 62
7
  6
CONTINUOUS
 10
146.6865200982
 20
171.6094728708
 11
146.344699494
 21
171.0862294528
  0
LINE
  8
0
 62
7
  6
CONTINUOUS
 10
146.4626228244
 20
169.5161024416
 11
146.8044434287
 21
170.0393458596
  0
LINE
  8
0
 62
7
  6
CONTINUOUS
 10
147.5915775271
 20
170.2716781597
 11
147.9333981314
 21
170.7949215777
  0
LINE
  8
0
 62
7
  6
CONTINUOUS
 10
148.4677743244
 20
170.4458282362
 11
148.1829242554
 21
170.0097927199
  0
LINE
  8
0
 62
7
  6
CONTINUOUS
 10
140.0149809866
 20
167.4009727335
 11
140.5972022949
 21
168.1357683501
  0
LINE
  8
0
 62
7
  6
CONTINUOUS
 10
142.2144827198
 20
170.1768660392
 11
142.6026302587
 21
170.6667297836
  0
LINE
  8
0
 62
7
  6
CONTINUOUS
 10
146.5215402137
 20
167.5615494725
 11
145.9393189054
 21
166.826753856
  0
LINE
  8
0
 62
7
  6
CONTINUOUS
 10
144.3220384805
 20
164.7856561668
 11
143.9338909416
 21
164.2957924224
  0
LINE
  8
0
 62
7
  6
CONTINUOUS
 10
137.736188237
 20
164.965357346
 11
139.4611273351
 21
166.7749388191
  0
LINE
  8
0
 62
7
  6
CONTINUOUS
 10
139.4919133611
 20
165.8821334695
 11
138.1263376718
 21
164.4495492871
  0
LINE
  8
0
 62
7
  6
CONTINUOUS
 10
139.2813897
 20
163.3485243079
 11
140.6469653893
 21
164.7811084902
  0
LINE
  8
0
 62
7
  6
CONTINUOUS
 10
141.1089861358
 20
164.3406985602
 11
139.7434104465
 21
162.9081143779
  0
LINE
  8
0
 62
7
  6
CONTINUOUS
 10
140.8214590709
 20
161.8804910023
 11
142.1870347602
 21
163.3130751846
  0
LINE
  8
0
 62
7
  6
CONTINUOUS
 10
143.0802902813
 20
163.3250606229
 11
141.3553511832
 21
161.5154791498
  0
LINE
  8
0
 62
7
  6
CONTINUOUS
 10
146.344699494
 20
171.0862294528
 11
145.9707867262
 21
170.70837616
  0
LINE
  8
0
 62
7
  6
CONTINUOUS
 10
148.1829242554
 20
170.0097927199
 11
147.8090114877
 21
169.6319394271
  0
LINE
  8
0
 62
7
  6
CONTINUOUS
 10
146.1521439053
 20
171.9585662123
 11
146.4690874416
 21
172.2492135994
  0
LINE
  8
0
 62
7
  6
CONTINUOUS
 10
145.4933810686
 20
171.1446774032
 11
145.810323301
 21
171.4353227943
  0
LINE
  8
0
 62
7
  6
CONTINUOUS
 10
146.9464930992
 20
171.8129123562
 11
146.6865200982
 21
171.6094728708
  0
LINE
  8
0
 62
7
  6
CONTINUOUS
 10
147.3316045261
 20
170.0682386742
 11
147.5915775271
 21
170.2716781597
  0
LINE
  8
0
 62
7
  6
CONTINUOUS
 10
141.3553511832
 20
161.5154791498
 11
140.9189843166
 21
161.2118835141
  0
LINE
  8
0
 62
7
  6
CONTINUOUS
 10
138.9887688549
 20
163.1957282787
 11
139.2813897
 21
163.3485243079
  0
LINE
  8
0
 62
7
  6
CONTINUOUS
 10
140.5288382259
 20
161.7276949731
 11
140.8214590709
 21
161.8804910023
  0
LINE
  8
0
 62
7
  6
CONTINUOUS
 10
155.7432834294
 20
201.2965158781
 11
155.6417625566
 21
201.7143939997
  0
LINE
  8
0
 62
7
  6
CONTINUOUS
 10
156.0672655343
 20
201.7094358359
 11
156.1687864071
 21
201.2915577143
  0
LINE
  8
0
 62
7
  6
CONTINUOUS
 10
147.9264463733
 20
151.6997951395
 11
147.9282874123
 21
151.7015596367
  0
LINE
  8
0
 62
7
  6
CONTINUOUS
 10
177.5798851924
 20
195.2423057694
 11
177.6224839169
 21
195.7563959207
  0
LINE
  8
0
 62
7
  6
CONTINUOUS
 10
171.1862591766
 20
170.3403192006
 11
171.3934745839
 21
170.8127227463
  0
LINE
  8
0
 62
7
  6
CONTINUOUS
 10
157.0533956329
 20
148.8635979249
 11
157.4027727184
 21
149.2431226106
  0
LINE
  8
0
 62
7
  6
CONTINUOUS
 10
136.7128096202
 20
133.1394779381
 11
137.1664879555
 21
133.3849963753
  0
LINE
  8
0
 62
7
  6
CONTINUOUS
 10
100.0262861227
 20
280.0483366529
 11
99.5104340752
 21
280.0483366529
  0
LINE
  8
0
 62
7
  6
CONTINUOUS
 10
125.3712012338
 20
275.7329378632
 11
124.8832994731
 21
275.9004347493
  0
LINE
  8
0
 62
7
  6
CONTINUOUS
 10
147.9416512389
 20
263.4218787996
 11
147.5345714913
 21
263.7387216851
  0
LINE
  8
0
 62
7
  6
CONTINUOUS
 10
165.2917776634
 20
244.4492537373
 11
165.0096333361
 21
244.8811077792
  0
LINE
  8
0
 62
7
  6
CONTINUOUS
 10
175.5414250941
 20
220.8710409923
 11
175.4147909029
 21
221.3711081044
  0
LINE
  8
0
 62
7
  6
CONTINUOUS
 10
21.9066805469
 20
76.8118161926
 11
21.9066805469
 21
79.8118161926
  0
LINE
  8
0
 62
7
  6
CONTINUOUS
 10
23.9237887784
 20
76.8118161926
 11
23.9237887784
 21
79.8118161926
  0
LINE
  8
0
 62
7
  6
CONTINUOUS
 10
30.168360099
 20
85.3118161926
 11
30.168360099
 21
80.3118161926
  0
LINE
  8
0
 62
7
  6
CONTINUOUS
 10
30.168360099
 20
76.3118161926
 11
30.168360099
 21
71.3118161926
  0
LINE
  8
0
 62
7
  6
CONTINUOUS
 10
33.8584662497
 20
76.8118161926
 11
33.8584662497
 21
79.8118161926
  0
POLYLINE
  8
0
 62
7
  6
CONTINUOUS
 66
1
 70
0
  0
VERTEX
  8
0
 62
7
  6
CONTINUOUS
 10
30.168360099
 20
80.5762318474
  0
VERTEX
  8
0
 62
7
  6
CONTINUOUS
 10
30.1617194799
 20
80.5632617935
  0
VERTEX
  8
0
 62
7
  6
CONTINUOUS
 10
30.1407504381
 20
80.5292391887
  0
VERTEX
  8
0
 62
7
  6
CONTINUOUS
 10
30.1147020732
 20
80.4941489462
  0
VERTEX
  8
0
 62
7
  6
CONTINUOUS
 10
30.0833776729
 20
80.4592261595
  0
VERTEX
  8
0
 62
7
  6
CONTINUOUS
 10
30.0468275614
 20
80.4257414638
  0
VERTEX
  8
0
 62
7
  6
CONTINUOUS
 10
30.0053331393
 20
80.3949014006
  0
VERTEX
  8
0
 62
7
  6
CONTINUOUS
 10
29.9588092005
 20
80.3674903955
  0
VERTEX
  8
0
 62
7
  6
CONTINUOUS
 10
29.9071548089
 20
80.344365533
  0
VERTEX
  8
0
 62
7
  6
CONTINUOUS
 10
29.8504083855
 20
80.3265612243
  0
VERTEX
  8
0
 62
7
  6
CONTINUOUS
 10
29.788750243
 20
80.3152732874
  0
VERTEX
  8
0
 62
7
  6
CONTINUOUS
 10
29.7302072779
 20
80.3118157981
  0
SEQEND
  0
POLYLINE
  8
0
 62
7
  6
CONTINUOUS
 66
1
 70
0
  0
VERTEX
  8
0
 62
7
  6
CONTINUOUS
 10
31.4847164824
 20
80.4582891669
  0
VERTEX
  8
0
 62
7
  6
CONTINUOUS
 10
31.4845306487
 20
80.4580032624
  0
VERTEX
  8
0
 62
7
  6
CONTINUOUS
 10
31.4797283549
 20
80.451139299
  0
VERTEX
  8
0
 62
7
  6
CONTINUOUS
 10
31.4683003235
 20
80.4371242868
  0
VERTEX
  8
0
 62
7
  6
CONTINUOUS
 10
31.4490672134
 20
80.4173413436
  0
VERTEX
  8
0
 62
7
  6
CONTINUOUS
 10
31.4208307862
 20
80.3935857329
  0
VERTEX
  8
0
 62
7
  6
CONTINUOUS
 10
31.3828470989
 20
80.3683517224
  0
VERTEX
  8
0
 62
7
  6
CONTINUOUS
 10
31.3350205669
 20
80.3446064849
  0
VERTEX
  8
0
 62
7
  6
CONTINUOUS
 10
31.2778533621
 20
80.3254414077
  0
SEQEND
  0
LINE
  8
0
 62
7
  6
CONTINUOUS
 10
50.6754261771
 20
76.8118161926
 11
50.6754261771
 21
79.8118161926
  0
LINE
  8
0
 62
7
  6
CONTINUOUS
 10
64.768360099
 20
88.8118161926
 11
64.768360099
 21
86.3118161926
  0
LINE
  8
0
 62
7
  6
CONTINUOUS
 10
64.768360099
 20
70.3118161926
 11
64.768360099
 21
67.8118161926
  0
LINE
  8
0
 62
7
  6
CONTINUOUS
 10
72.5522900105
 20
76.8118161926
 11
72.5522900105
 21
79.8118161926
  0
POLYLINE
  8
0
 62
7
  6
CONTINUOUS
 66
1
 70
0
  0
VERTEX
  8
0
 62
7
  6
CONTINUOUS
 10
31.2767343396
 20
76.2984774747
  0
VERTEX
  8
0
 62
7
  6
CONTINUOUS
 10
31.3330461997
 20
76.2798441971
  0
VERTEX
  8
0
 62
7
  6
CONTINUOUS
 10
31.3801873605
 20
76.2568155169
  0
VERTEX
  8
0
 62
7
  6
CONTINUOUS
 10
31.4180019176
 20
76.2321627104
  0
VERTEX
  8
0
 62
7
  6
CONTINUOUS
 10
31.4465615356
 20
76.2086197203
  0
VERTEX
  8
0
 62
7
  6
CONTINUOUS
 10
31.4664575721
 20
76.1885759143
  0
VERTEX
  8
0
 62
7
  6
CONTINUOUS
 10
31.4786075417
 20
76.1739818425
  0
VERTEX
  8
0
 62
7
  6
CONTINUOUS
 10
31.4841441385
 20
76.166226568
  0
VERTEX
  8
0
 62
7
  6
CONTINUOUS
 10
31.4848225798
 20
76.165164372
  0
SEQEND
  0
POLYLINE
  8
0
 62
7
  6
CONTINUOUS
 66
1
 70
0
  0
VERTEX
  8
0
 62
7
  6
CONTINUOUS
 10
168.2588100337
 20
76.2981761092
  0
VERTEX
  8
0
 62
7
  6
CONTINUOUS
 10
168.3246748519
 20
76.3097805517
  0
VERTEX
  8
0
 62
7
  6
CONTINUOUS
 10
168.3667167092
 20
76.3118166213
  0
SEQEND
  0
LINE
  8
0
 62
7
  6
CONTINUOUS
 10
132.768360099
 20
65.8118161926
 11
66.7683655391
 21
65.8118161926
  0
LINE
  8
0
 62
7
  6
CONTINUOUS
 10
31.211630322
 20
76.30982068
 11
31.2767343396
 21
76.2984774747
  0
LINE
  8
0
 62
7
  6
CONTINUOUS
 10
168.368360099
 20
70.3118161926
 11
31.168360099
 21
70.3118161926
  0
LINE
  8
0
 62
7
  6
CONTINUOUS
 10
31.1700042709
 20
76.3118166173
 11
31.211630322
 21
76.30982068
  0
POLYLINE
  8
0
 62
7
  6
CONTINUOUS
 66
1
 70
0
  0
VERTEX
  8
0
 62
7
  6
CONTINUOUS
 10
29.7302118635
 20
76.3118166159
  0
VERTEX
  8
0
 62
7
  6
CONTINUOUS
 10
29.7899112542
 20
76.3082200269
  0
VERTEX
  8
0
 62
7
  6
CONTINUOUS
 10
29.8525846648
 20
76.2965236189
  0
VERTEX
  8
0
 62
7
  6
CONTINUOUS
 10
29.9101674667
 20
76.2781079276
  0
VERTEX
  8
0
 62
7
  6
CONTINUOUS
 10
29.9624565709
 20
76.2542330017
  0
VERTEX
  8
0
 62
7
  6
CONTINUOUS
 10
30.0094048384
 20
76.2259933556
  0
VERTEX
  8
0
 62
7
  6
CONTINUOUS
 10
30.0511203669
 20
76.1942960912
  0
VERTEX
  8
0
 62
7
  6
CONTINUOUS
 10
30.0876694999
 20
76.1600032134
  0
VERTEX
  8
0
 62
7
  6
CONTINUOUS
 10
30.1188052056
 20
76.1243746576
  0
VERTEX
  8
0
 62
7
  6
CONTINUOUS
 10
30.1445459209
 20
76.0886836817
  0
VERTEX
  8
0
 62
7
  6
CONTINUOUS
 10
30.1651235035
 20
76.0541904797
  0
VERTEX
  8
0
 62
7
  6
CONTINUOUS
 10
30.168360099
 20
76.0476312932
  0
SEQEND
  0
LINE
  8
DEFAULT_1
 62
2
  6
CENTER
 10
99.768360099
 20
63.8118161926
 11
99.768360099
 21
92.8118161926
  0
LINE
  8
0
 62
7
  6
CONTINUOUS
 10
177.1300400181
 20
76.3118161926
 11
166.9675927134
 21
76.3118161926
  0
LINE
  8
0
 62
7
  6
CONTINUOUS
 10
165.1782533229
 20
76.3118161926
 11
156.8465965073
 21
76.3118161926
  0
LINE
  8
0
 62
7
  6
CONTINUOUS
 10
148.3612910209
 20
76.3118161926
 11
140.5402877262
 21
76.3118161926
  0
LINE
  8
0
 62
7
  6
CONTINUOUS
 10
126.4844291496
 20
76.3118161926
 11
119.815707945
 21
76.3118161926
  0
LINE
  8
0
 62
7
  6
CONTINUOUS
 10
102.6180332397
 20
76.3118161926
 11
96.9186869581
 21
76.3118161926
  0
LINE
  8
0
 62
7
  6
CONTINUOUS
 10
79.7210122527
 20
76.3118161926
 11
73.052291002
 21
76.3118161926
  0
LINE
  8
0
 62
7
  6
CONTINUOUS
 10
58.9964324717
 20
76.3118161926
 11
51.1754291607
 21
76.3118161926
  0
LINE
  8
0
 62
7
  6
CONTINUOUS
 10
42.6901236906
 20
76.3118161926
 11
34.3584669005
 21
76.3118161926
  0
LINE
  8
0
 62
7
  6
CONTINUOUS
 10
32.5691274845
 20
76.3118161926
 11
22.4068834737
 21
76.3118161926
  0
LINE
  8
0
 62
7
  6
CONTINUOUS
 10
22.4068843951
 20
80.3118161926
 11
32.569127463
 21
80.3118161926
  0
LINE
  8
0
 62
7
  6
CONTINUOUS
 10
34.3591239789
 20
80.3118161926
 11
42.6901236455
 21
80.3118161926
  0
LINE
  8
0
 62
7
  6
CONTINUOUS
 10
51.1754291607
 20
80.3118161926
 11
58.9964324079
 21
80.3118161926
  0
LINE
  8
0
 62
7
  6
CONTINUOUS
 10
73.052291002
 20
80.3118161926
 11
79.7210121763
 21
80.3118161926
  0
LINE
  8
0
 62
7
  6
CONTINUOUS
 10
96.9186870378
 20
80.3118161926
 11
102.6180331605
 21
80.3118161926
  0
LINE
  8
0
 62
7
  6
CONTINUOUS
 10
119.815708021
 20
80.3118161926
 11
126.4844291496
 21
80.3118161926
  0
LINE
  8
0
 62
7
  6
CONTINUOUS
 10
140.5402877903
 20
80.3118161926
 11
148.3612822623
 21
80.3118161926
  0
LINE
  8
0
 62
7
  6
CONTINUOUS
 10
156.8465965526
 20
80.3118161926
 11
165.1782533229
 21
80.3118161926
  0
LINE
  8
0
 62
7
  6
CONTINUOUS
 10
166.967592735
 20
80.3118161926
 11
177.1298372464
 21
80.3118161926
  0
LINE
  8
0
 62
7
  6
CONTINUOUS
 10
168.3667152355
 20
80.3118157934
 11
168.3250731483
 21
80.3138130372
  0
LINE
  8
0
 62
7
  6
CONTINUOUS
 10
168.368360099
 20
86.3118161926
 11
31.168360099
 21
86.3118161926
  0
POLYLINE
  8
0
 62
7
  6
CONTINUOUS
 66
1
 70
0
  0
VERTEX
  8
0
 62
7
  6
CONTINUOUS
 10
169.8065129849
 20
80.3118158001
  0
VERTEX
  8
0
 62
7
  6
CONTINUOUS
 10
169.7472496896
 20
80.3153592031
  0
VERTEX
  8
0
 62
7
  6
CONTINUOUS
 10
169.6849551913
 20
80.326901219
  0
VERTEX
  8
0
 62
7
  6
CONTINUOUS
 10
169.6276821545
 20
80.3450871921
  0
VERTEX
  8
0
 62
7
  6
CONTINUOUS
 10
169.5756274205
 20
80.3686808708
  0
VERTEX
  8
0
 62
7
  6
CONTINUOUS
 10
169.5288367868
 20
80.3966090127
  0
VERTEX
  8
0
 62
7
  6
CONTINUOUS
 10
169.4872062349
 20
80.4279812103
  0
VERTEX
  8
0
 62
7
  6
CONTINUOUS
 10
169.4506602746
 20
80.4619649618
  0
VERTEX
  8
0
 62
7
  6
CONTINUOUS
 10
169.419454058
 20
80.4973252151
  0
VERTEX
  8
0
 62
7
  6
CONTINUOUS
 10
169.3935901838
 20
80.5327987046
  0
VERTEX
  8
0
 62
7
  6
CONTINUOUS
 10
169.3728494504
 20
80.5671427959
  0
VERTEX
  8
0
 62
7
  6
CONTINUOUS
 10
169.368360099
 20
80.5761166806
  0
SEQEND
  0
POLYLINE
  8
0
 62
7
  6
CONTINUOUS
 66
1
 70
0
  0
VERTEX
  8
0
 62
7
  6
CONTINUOUS
 10
31.2778533621
 20
80.3254414077
  0
VERTEX
  8
0
 62
7
  6
CONTINUOUS
 10
31.2120260233
 20
80.3138496796
  0
VERTEX
  8
0
 62
7
  6
CONTINUOUS
 10
31.1700042426
 20
80.311815795
  0
SEQEND
  0
LINE
  8
0
 62
7
  6
CONTINUOUS
 10
132.7683546588
 20
90.8118161926
 11
66.7683655391
 21
90.8118161926
  0
LINE
  8
0
 62
7
  6
CONTINUOUS
 10
168.3250731483
 20
80.3138130372
 11
168.2599560777
 21
80.3251622648
  0
POLYLINE
  8
0
 62
7
  6
CONTINUOUS
 66
1
 70
0
  0
VERTEX
  8
0
 62
7
  6
CONTINUOUS
 10
168.2599560777
 20
80.3251622648
  0
VERTEX
  8
0
 62
7
  6
CONTINUOUS
 10
168.2036098763
 20
80.3438146487
  0
VERTEX
  8
0
 62
7
  6
CONTINUOUS
 10
168.1564481263
 20
80.3668653071
  0
VERTEX
  8
0
 62
7
  6
CONTINUOUS
 10
168.1186437748
 20
80.3915249285
  0
VERTEX
  8
0
 62
7
  6
CONTINUOUS
 10
168.09008522
 20
80.4150804479
  0
VERTEX
  8
0
 62
7
  6
CONTINUOUS
 10
168.0702149819
 20
80.4351090893
  0
VERTEX
  8
0
 62
7
  6
CONTINUOUS
 10
168.0580970229
 20
80.4496714669
  0
VERTEX
  8
0
 62
7
  6
CONTINUOUS
 10
168.052563158
 20
80.4574255924
  0
VERTEX
  8
0
 62
7
  6
CONTINUOUS
 10
168.0518988416
 20
80.4584654155
  0
SEQEND
  0
LINE
  8
0
 62
7
  6
CONTINUOUS
 10
126.9844301874
 20
76.8118161926
 11
126.9844301874
 21
79.8118161926
  0
LINE
  8
0
 62
7
  6
CONTINUOUS
 10
134.768360099
 20
88.8118161926
 11
134.768360099
 21
86.3118161926
  0
LINE
  8
0
 62
7
  6
CONTINUOUS
 10
134.768360099
 20
70.3118161926
 11
134.768360099
 21
67.8118161926
  0
LINE
  8
0
 62
7
  6
CONTINUOUS
 10
148.8612940208
 20
76.8118161926
 11
148.8612940208
 21
79.8118161926
  0
POLYLINE
  8
0
 62
7
  6
CONTINUOUS
 66
1
 70
0
  0
VERTEX
  8
0
 62
7
  6
CONTINUOUS
 10
168.0520046754
 20
76.1653442553
  0
VERTEX
  8
0
 62
7
  6
CONTINUOUS
 10
168.0521916416
 20
76.1656322688
  0
VERTEX
  8
0
 62
7
  6
CONTINUOUS
 10
168.0569686559
 20
76.172462432
  0
VERTEX
  8
0
 62
7
  6
CONTINUOUS
 10
168.0683804384
 20
76.1864630096
  0
VERTEX
  8
0
 62
7
  6
CONTINUOUS
 10
168.0875959167
 20
76.2062376158
  0
VERTEX
  8
0
 62
7
  6
CONTINUOUS
 10
168.115802273
 20
76.2299809041
  0
VERTEX
  8
0
 62
7
  6
CONTINUOUS
 10
168.1537939131
 20
76.2552345113
  0
VERTEX
  8
0
 62
7
  6
CONTINUOUS
 10
168.2016291275
 20
76.2789965385
  0
VERTEX
  8
0
 62
7
  6
CONTINUOUS
 10
168.2588100337
 20
76.2981761092
  0
SEQEND
  0
POLYLINE
  8
0
 62
7
  6
CONTINUOUS
 66
1
 70
0
  0
VERTEX
  8
0
 62
7
  6
CONTINUOUS
 10
169.368360099
 20
76.0474532085
  0
VERTEX
  8
0
 62
7
  6
CONTINUOUS
 10
169.3738078843
 20
76.0582300282
  0
VERTEX
  8
0
 62
7
  6
CONTINUOUS
 10
169.3946339325
 20
76.0924040858
  0
VERTEX
  8
0
 62
7
  6
CONTINUOUS
 10
169.4205716488
 20
76.1276985764
  0
VERTEX
  8
0
 62
7
  6
CONTINUOUS
 10
169.4518326607
 20
76.1628697141
  0
VERTEX
  8
0
 62
7
  6
CONTINUOUS
 10
169.4883884729
 20
76.1966405369
  0
VERTEX
  8
0
 62
7
  6
CONTINUOUS
 10
169.5299647007
 20
76.2277810694
  0
VERTEX
  8
0
 62
7
  6
CONTINUOUS
 10
169.5766388719
 20
76.2554803344
  0
VERTEX
  8
0
 62
7
  6
CONTINUOUS
 10
169.6285147864
 20
76.278865085
  0
VERTEX
  8
0
 62
7
  6
CONTINUOUS
 10
169.6855516965
 20
76.2968810008
  0
VERTEX
  8
0
 62
7
  6
CONTINUOUS
 10
169.7475625114
 20
76.3083105675
  0
VERTEX
  8
0
 62
7
  6
CONTINUOUS
 10
169.8065082852
 20
76.3118166125
  0
SEQEND
  0
LINE
  8
0
 62
7
  6
CONTINUOUS
 10
165.6782539482
 20
76.8118161926
 11
165.6782539482
 21
79.8118161926
  0
LINE
  8
0
 62
7
  6
CONTINUOUS
 10
169.368360099
 20
85.3118161926
 11
169.368360099
 21
80.3118161926
  0
LINE
  8
0
 62
7
  6
CONTINUOUS
 10
169.368360099
 20
76.3118161926
 11
169.368360099
 21
71.3118161926
  0
LINE
  8
0
 62
7
  6
CONTINUOUS
 10
175.6129314195
 20
76.8118161926
 11
175.6129314195
 21
79.8118161926
  0
LINE
  8
0
 62
7
  6
CONTINUOUS
 10
177.630039651
 20
76.8118161926
 11
177.630039651
 21
79.8118161926
  0
ARC
  8
0
 62
7
  6
CONTINUOUS
 10
44.2436841717
 20
150.4948961978
 40
2.4
 50
222.8207991708
 51
309.0115789474
  0
ARC
  8
0
 62
7
  6
CONTINUOUS
 10
43.9050433859
 20
150.8627581531
 40
2.4
 50
136.2515789474
 51
222.4423587239
  0
ARC
  8
0
 62
7
  6
CONTINUOUS
 10
50.5537483239
 20
149.9441282637
 40
2.0
 50
46.578909686
 51
129.0115789474
  0
ARC
  8
0
 62
7
  6
CONTINUOUS
 10
43.8772375711
 20
157.1967522927
 40
2.0
 50
316.2515789474
 51
38.6842482088
  0
ARC
  8
0
 62
7
  6
CONTINUOUS
 10
24.3479702196
 20
195.4483940701
 40
2.4
 50
184.9260623287
 51
271.1168421053
  0
ARC
  8
0
 62
7
  6
CONTINUOUS
 10
24.3066805469
 20
195.9466863166
 40
2.4
 50
98.3568421053
 51
184.5476218818
  0
ARC
  8
0
 62
7
  6
CONTINUOUS
 10
30.5451211722
 20
171.3116414036
 40
2.4
 50
203.8734307498
 51
290.0642105263
  0
ARC
  8
0
 62
7
  6
CONTINUOUS
 10
30.3442734598
 20
171.7695280669
 40
2.4
 50
117.3042105263
 51
203.4949903029
  0
ARC
  8
0
 62
7
  6
CONTINUOUS
 10
28.9892087922
 20
191.1380391619
 40
2.0
 50
8.6841728439
 51
91.1168421053
  0
ARC
  8
0
 62
7
  6
CONTINUOUS
 10
28.1751575747
 20
200.9621763633
 40
2.0
 50
278.3568421053
 51
0.7895113667
  0
ARC
  8
0
 62
7
  6
CONTINUOUS
 10
36.3344545878
 20
168.7418411145
 40
2.0
 50
27.6315412649
 51
110.0642105263
  0
ARC
  8
0
 62
7
  6
CONTINUOUS
 10
32.3746187759
 20
177.7693574662
 40
2.0
 50
297.3042105263
 51
19.7368797877
  0
ARC
  8
0
 62
7
  6
CONTINUOUS
 10
63.959207362
 20
135.2539758009
 40
2.4
 50
241.7681675919
 51
327.9589473684
  0
ARC
  8
0
 62
7
  6
CONTINUOUS
 10
63.5194704864
 20
135.4919494974
 40
2.4
 50
155.1989473684
 51
241.389727145
  0
ARC
  8
0
 62
7
  6
CONTINUOUS
 10
87.5552078876
 20
127.2404704251
 40
2.4
 50
260.7155360129
 51
346.9063157895
  0
ARC
  8
0
 62
7
  6
CONTINUOUS
 10
87.0620272359
 20
127.3227677202
 40
2.4
 50
174.1463157895
 51
260.337095566
  0
ARC
  8
0
 62
7
  6
CONTINUOUS
 10
70.1062088893
 20
136.7819244736
 40
2.0
 50
65.526278107
 51
147.9589473684
  0
ARC
  8
0
 62
7
  6
CONTINUOUS
 10
61.4365267323
 20
141.4737218301
 40
2.0
 50
335.1989473684
 51
57.6316166298
  0
ARC
  8
0
 62
7
  6
CONTINUOUS
 10
92.8730237939
 20
130.6815587573
 40
2.0
 50
84.4736465281
 51
166.9063157895
  0
ARC
  8
0
 62
7
  6
CONTINUOUS
 10
83.1496648185
 20
132.3041003971
 40
2.0
 50
354.1463157895
 51
76.5789850509
  0
ARC
  8
0
 62
4
  6
CONTINUOUS
 10
90.9456732322
 20
184.7499198747
 40
3.2
 50
225.0
 51
266.4096221093
  0
ARC
  8
0
 62
4
  6
CONTINUOUS
 10
90.5448865919
 20
178.3624814156
 40
3.2
 50
45.0
 51
86.4096221093
  0
ARC
  8
0
 62
4
  6
CONTINUOUS
 10
73.3536518342
 20
195.5537161734
 40
3.2
 50
45.0
 51
87.7455692247
  0
ARC
  8
0
 62
4
  6
CONTINUOUS
 10
73.605409195
 20
201.9487625556
 40
3.2
 50
92.2544307753
 51
267.7455692247
  0
ARC
  8
0
 62
4
  6
CONTINUOUS
 10
76.1820789589
 20
192.7252890486
 40
3.2
 50
3.5903778907
 51
45.0
  0
ARC
  8
0
 62
4
  6
CONTINUOUS
 10
82.569517418
 20
193.1260756889
 40
3.2
 50
183.5903778907
 51
225.0
  0
ARC
  8
0
 62
4
  6
CONTINUOUS
 10
93.3733137167
 20
175.5340542908
 40
3.2
 50
2.2544307753
 51
45.0
  0
ARC
  8
0
 62
4
  6
CONTINUOUS
 10
73.3536518342
 20
208.3438089379
 40
3.2
 50
272.2544307753
 51
315.0
  0
ARC
  8
0
 62
4
  6
CONTINUOUS
 10
93.3733137167
 20
228.3634708204
 40
3.2
 50
315.0
 51
357.7455692247
  0
ARC
  8
0
 62
4
  6
CONTINUOUS
 10
90.5448865919
 20
225.5350436957
 40
3.2
 50
273.5903778907
 51
315.0
  0
ARC
  8
0
 62
4
  6
CONTINUOUS
 10
90.9456732322
 20
219.1476052366
 40
3.2
 50
93.5903778907
 51
135.0
  0
ARC
  8
0
 62
4
  6
CONTINUOUS
 10
82.569517418
 20
210.7714494224
 40
3.2
 50
135.0
 51
176.4096221093
  0
ARC
  8
0
 62
4
  6
CONTINUOUS
 10
76.1820789589
 20
211.1722360626
 40
3.2
 50
315.0
 51
356.4096221093
  0
ARC
  8
0
 62
7
  6
CONTINUOUS
 10
99.518360099
 20
277.6483497408
 40
2.4
 50
90.1892202235
 51
176.38
  0
ARC
  8
0
 62
7
  6
CONTINUOUS
 10
74.9522900105
 20
273.4655624377
 40
2.4
 50
109.1365886445
 51
195.3273684211
  0
ARC
  8
0
 62
7
  6
CONTINUOUS
 10
75.4251986313
 20
273.6279121723
 40
2.4
 50
22.5673684211
 51
108.7581481976
  0
ARC
  8
0
 62
7
  6
CONTINUOUS
 10
53.0754261771
 20
261.5328201698
 40
2.4
 50
128.0839570656
 51
214.2747368421
  0
ARC
  8
0
 62
7
  6
CONTINUOUS
 10
53.4699964318
 20
261.8399265262
 40
2.4
 50
41.5147368421
 51
127.7055166186
  0
ARC
  8
0
 62
7
  6
CONTINUOUS
 10
36.2584662497
 20
243.1432207176
 40
2.4
 50
147.0313254866
 51
233.2221052632
  0
ARC
  8
0
 62
7
  6
CONTINUOUS
 10
36.5319403288
 20
243.5618039567
 40
2.4
 50
60.4621052632
 51
146.6528850397
  0
ARC
  8
0
 62
7
  6
CONTINUOUS
 10
26.3237887784
 20
220.2895625257
 40
2.4
 50
165.9786939077
 51
252.1694736842
  0
ARC
  8
0
 62
7
  6
CONTINUOUS
 10
26.446531522
 20
220.7742626586
 40
2.4
 50
79.4094736842
 51
165.6002534608
  0
ARC
  8
0
 62
7
  6
CONTINUOUS
 10
94.8394567945
 20
273.3789096381
 40
2.0
 50
273.9473307386
 51
356.38
  0
ARC
  8
0
 62
7
  6
CONTINUOUS
 10
71.9131875281
 20
267.9082149567
 40
2.0
 50
292.8946991597
 51
15.3273684211
  0
ARC
  8
0
 62
7
  6
CONTINUOUS
 10
81.2368709841
 20
271.1090395301
 40
2.0
 50
202.5673684211
 51
285.0000376825
  0
ARC
  8
0
 62
7
  6
CONTINUOUS
 10
52.0054584272
 20
255.2897901413
 40
2.0
 50
311.8420675807
 51
34.2747368421
  0
ARC
  8
0
 62
7
  6
CONTINUOUS
 10
59.7846529561
 20
261.3445802797
 40
2.0
 50
221.5147368421
 51
303.9474061035
  0
ARC
  8
0
 62
7
  6
CONTINUOUS
 10
37.2735808403
 20
236.8910373157
 40
2.0
 50
330.7894360018
 51
53.2221052632
  0
ARC
  8
0
 62
7
  6
CONTINUOUS
 10
42.6652900081
 20
245.1436625578
 40
2.0
 50
240.4621052632
 51
322.8947745246
  0
ARC
  8
0
 62
7
  6
CONTINUOUS
 10
29.3139822924
 20
214.7057468346
 40
2.0
 50
349.7368044228
 51
72.1694736842
  0
ARC
  8
0
 62
7
  6
CONTINUOUS
 10
31.7339307499
 20
224.2619071828
 40
2.0
 50
259.4094736842
 51
341.8421429456
  0
ARC
  8
0
 62
7
  6
CONTINUOUS
 10
112.474692962
 20
127.3227677202
 40
2.4
 50
279.662904434
 51
5.8536842105
  0
ARC
  8
0
 62
7
  6
CONTINUOUS
 10
111.9815123103
 20
127.2404704251
 40
2.4
 50
193.0936842105
 51
279.2844639871
  0
ARC
  8
0
 62
7
  6
CONTINUOUS
 10
136.0172497115
 20
135.4919494974
 40
2.4
 50
298.610272855
 51
24.8010526316
  0
ARC
  8
0
 62
7
  6
CONTINUOUS
 10
135.5775128359
 20
135.2539758009
 40
2.4
 50
212.0410526316
 51
298.2318324081
  0
ARC
  8
0
 62
7
  6
CONTINUOUS
 10
116.3870553794
 20
132.3041003971
 40
2.0
 50
103.4210149491
 51
185.8536842105
  0
ARC
  8
0
 62
7
  6
CONTINUOUS
 10
106.663696404
 20
130.6815587573
 40
2.0
 50
13.0936842105
 51
95.5263534719
  0
ARC
  8
0
 62
7
  6
CONTINUOUS
 10
129.4305113086
 20
136.7819244736
 40
2.0
 50
32.0410526316
 51
114.473721893
  0
ARC
  8
0
 62
4
  6
CONTINUOUS
 10
108.5910469657
 20
184.7499198747
 40
3.2
 50
273.5903778907
 51
315.0
  0
ARC
  8
0
 62
4
  6
CONTINUOUS
 10
99.768360099
 20
175.7858116517
 40
3.2
 50
182.2544307753
 51
357.7455692247
  0
ARC
  8
0
 62
4
  6
CONTINUOUS
 10
106.1634064812
 20
175.5340542908
 40
3.2
 50
135.0
 51
177.7455692247
  0
ARC
  8
0
 62
4
  6
CONTINUOUS
 10
108.991833606
 20
178.3624814156
 40
3.2
 50
93.5903778907
 51
135.0
  0
ARC
  8
0
 62
7
  6
CONTINUOUS
 10
99.768360099
 20
201.9487625556
 40
78.1
 50
89.8107797765
 51
90.1892202235
  0
ARC
  8
0
 62
7
  6
CONTINUOUS
 10
99.768360099
 20
201.9487625556
 40
78.1
 50
108.7581481976
 51
109.1365886445
  0
ARC
  8
0
 62
7
  6
CONTINUOUS
 10
99.768360099
 20
201.9487625556
 40
78.1
 50
127.7055166186
 51
128.0839570656
  0
ARC
  8
0
 62
7
  6
CONTINUOUS
 10
99.768360099
 20
201.9487625556
 40
78.1
 50
146.6528850397
 51
147.0313254866
  0
ARC
  8
0
 62
7
  6
CONTINUOUS
 10
99.768360099
 20
201.9487625556
 40
78.1
 50
165.6002534608
 51
165.9786939077
  0
ARC
  8
0
 62
7
  6
CONTINUOUS
 10
99.768360099
 20
201.9487625556
 40
78.1
 50
184.5476218818
 51
184.9260623287
  0
ARC
  8
0
 62
7
  6
CONTINUOUS
 10
99.768360099
 20
201.9487625556
 40
78.1
 50
203.4949903029
 51
203.8734307498
  0
ARC
  8
0
 62
7
  6
CONTINUOUS
 10
99.768360099
 20
201.9487625556
 40
78.1
 50
222.4423587239
 51
222.8207991708
  0
ARC
  8
0
 62
7
  6
CONTINUOUS
 10
99.768360099
 20
201.9487625556
 40
78.1
 50
241.389727145
 51
241.7681675919
  0
ARC
  8
0
 62
7
  6
CONTINUOUS
 10
99.768360099
 20
201.9487625556
 40
78.1
 50
260.337095566
 51
260.7155360129
  0
ARC
  8
0
 62
7
  6
CONTINUOUS
 10
99.768360099
 20
201.9487625556
 40
78.1
 50
279.2844639871
 51
279.662904434
  0
ARC
  8
0
 62
7
  6
CONTINUOUS
 10
99.768360099
 20
201.9487625556
 40
78.1
 50
298.2318324081
 51
298.610272855
  0
ARC
  8
0
 62
7
  6
CONTINUOUS
 10
99.768360099
 20
201.9487625556
 40
78.1
 50
317.1792008292
 51
317.5576412761
  0
ARC
  8
0
 62
7
  6
CONTINUOUS
 10
99.768360099
 20
201.9487625556
 40
78.1
 50
336.1265692502
 51
336.5050096971
  0
ARC
  8
0
 62
7
  6
CONTINUOUS
 10
99.768360099
 20
201.9487625556
 40
78.1
 50
355.0739376713
 51
355.4523781182
  0
ARC
  8
0
 62
7
  6
CONTINUOUS
 10
99.768360099
 20
201.9487625556
 40
78.1
 50
14.0213060923
 51
14.3997465392
  0
ARC
  8
0
 62
7
  6
CONTINUOUS
 10
99.768360099
 20
201.9487625556
 40
78.1
 50
32.9686745134
 51
33.3471149603
  0
ARC
  8
0
 62
7
  6
CONTINUOUS
 10
99.768360099
 20
201.9487625556
 40
78.1
 50
51.9160429344
 51
52.2944833814
  0
ARC
  8
0
 62
7
  6
CONTINUOUS
 10
99.768360099
 20
201.9487625556
 40
78.1
 50
70.8634113555
 51
71.2418518024
  0
CIRCLE
  8
0
 62
7
  6
CONTINUOUS
 10
99.768360099
 20
201.9487625556
 40
69.6
  0
CIRCLE
  8
0
 62
7
  6
CONTINUOUS
 10
99.768360099
 20
201.9487625556
 40
35.0
  0
CIRCLE
  8
0
 62
4
  6
CONTINUOUS
 10
99.768360099
 20
201.9487625556
 40
8.5934513786
  0
ARC
  8
0
 62
4
  6
CONTINUOUS
 10
125.9313110029
 20
201.9487625556
 40
3.2
 50
272.2544307753
 51
87.7455692247
  0
ARC
  8
0
 62
4
  6
CONTINUOUS
 10
116.9672027799
 20
193.1260756889
 40
3.2
 50
315.0
 51
356.4096221093
  0
ARC
  8
0
 62
4
  6
CONTINUOUS
 10
123.354641239
 20
192.7252890486
 40
3.2
 50
135.0
 51
176.4096221093
  0
ARC
  8
0
 62
4
  6
CONTINUOUS
 10
126.1830683637
 20
195.5537161734
 40
3.2
 50
92.2544307753
 51
135.0
  0
ARC
  8
0
 62
7
  6
CONTINUOUS
 10
155.631676812
 20
150.8627581531
 40
2.4
 50
317.5576412761
 51
43.7484210526
  0
ARC
  8
0
 62
7
  6
CONTINUOUS
 10
155.2930360262
 20
150.4948961978
 40
2.4
 50
230.9884210526
 51
317.1792008292
  0
ARC
  8
0
 62
7
  6
CONTINUOUS
 10
138.1001934656
 20
141.4737218301
 40
2.0
 50
122.3683833702
 51
204.8010526316
  0
ARC
  8
0
 62
7
  6
CONTINUOUS
 10
155.6594826268
 20
157.1967522927
 40
2.0
 50
141.3157517912
 51
223.7484210526
  0
ARC
  8
0
 62
7
  6
CONTINUOUS
 10
148.982971874
 20
149.9441282637
 40
2.0
 50
50.9884210526
 51
133.421090314
  0
ARC
  8
0
 62
7
  6
CONTINUOUS
 10
169.1924467381
 20
171.7695280669
 40
2.4
 50
336.5050096971
 51
62.6957894737
  0
ARC
  8
0
 62
7
  6
CONTINUOUS
 10
168.9915990257
 20
171.3116414036
 40
2.4
 50
249.9357894737
 51
336.1265692502
  0
ARC
  8
0
 62
7
  6
CONTINUOUS
 10
175.230039651
 20
195.9466863166
 40
2.4
 50
355.4523781182
 51
81.6431578947
  0
ARC
  8
0
 62
7
  6
CONTINUOUS
 10
175.1887499783
 20
195.4483940701
 40
2.4
 50
268.8831578947
 51
355.0739376713
  0
ARC
  8
0
 62
7
  6
CONTINUOUS
 10
167.162101422
 20
177.7693574662
 40
2.0
 50
160.2631202123
 51
242.6957894737
  0
ARC
  8
0
 62
7
  6
CONTINUOUS
 10
163.2022656101
 20
168.7418411145
 40
2.0
 50
69.9357894737
 51
152.3684587351
  0
ARC
  8
0
 62
7
  6
CONTINUOUS
 10
171.3615626232
 20
200.9621763633
 40
2.0
 50
179.2104886333
 51
261.6431578947
  0
ARC
  8
0
 62
7
  6
CONTINUOUS
 10
170.5475114057
 20
191.1380391619
 40
2.0
 50
88.8831578947
 51
171.3158271561
  0
ARC
  8
0
 62
4
  6
CONTINUOUS
 10
126.1830683637
 20
208.3438089379
 40
3.2
 50
225.0
 51
267.7455692247
  0
ARC
  8
0
 62
4
  6
CONTINUOUS
 10
123.354641239
 20
211.1722360626
 40
3.2
 50
183.5903778907
 51
225.0
  0
ARC
  8
0
 62
4
  6
CONTINUOUS
 10
116.9672027799
 20
210.7714494224
 40
3.2
 50
3.5903778907
 51
45.0
  0
ARC
  8
0
 62
4
  6
CONTINUOUS
 10
108.5910469657
 20
219.1476052366
 40
3.2
 50
45.0
 51
86.4096221093
  0
ARC
  8
0
 62
4
  6
CONTINUOUS
 10
108.991833606
 20
225.5350436957
 40
3.2
 50
225.0
 51
266.4096221093
  0
ARC
  8
0
 62
4
  6
CONTINUOUS
 10
106.1634064812
 20
228.3634708204
 40
3.2
 50
182.2544307753
 51
225.0
  0
ARC
  8
0
 62
4
  6
CONTINUOUS
 10
99.768360099
 20
228.1117134595
 40
3.2
 50
2.2544307753
 51
177.7455692247
  0
ARC
  8
0
 62
7
  6
CONTINUOUS
 10
100.018360099
 20
277.6483497408
 40
2.4
 50
3.62
 51
89.8107797765
  0
ARC
  8
0
 62
7
  6
CONTINUOUS
 10
124.1115215666
 20
273.6279121723
 40
2.4
 50
71.2418518024
 51
157.4326315789
  0
ARC
  8
0
 62
7
  6
CONTINUOUS
 10
124.5844301874
 20
273.4655624377
 40
2.4
 50
344.6726315789
 51
70.8634113555
  0
ARC
  8
0
 62
7
  6
CONTINUOUS
 10
104.6972634034
 20
273.3789096381
 40
2.0
 50
183.62
 51
266.0526692614
  0
ARC
  8
0
 62
7
  6
CONTINUOUS
 10
118.2998492138
 20
271.1090395301
 40
2.0
 50
254.9999623175
 51
337.4326315789
  0
ARC
  8
0
 62
7
  6
CONTINUOUS
 10
127.6235326698
 20
267.9082149567
 40
2.0
 50
164.6726315789
 51
247.1053008403
  0
CIRCLE
  8
0
 62
7
  6
CONTINUOUS
 10
99.768360099
 20
256.9487625556
 40
1.7320508076
  0
ARC
  8
0
 62
7
  6
CONTINUOUS
 10
173.0901886759
 20
220.7742626586
 40
2.4
 50
14.3997465392
 51
100.5905263158
  0
ARC
  8
0
 62
7
  6
CONTINUOUS
 10
173.2129314195
 20
220.2895625257
 40
2.4
 50
287.8305263158
 51
14.0213060923
  0
ARC
  8
0
 62
7
  6
CONTINUOUS
 10
167.802789448
 20
224.2619071828
 40
2.0
 50
198.1578570544
 51
280.5905263158
  0
ARC
  8
0
 62
7
  6
CONTINUOUS
 10
170.2227379055
 20
214.7057468346
 40
2.0
 50
107.8305263158
 51
190.2631955772
  0
ARC
  8
0
 62
7
  6
CONTINUOUS
 10
162.2631393576
 20
236.8910373157
 40
2.0
 50
126.7778947368
 51
209.2105639982
  0
ARC
  8
0
 62
7
  6
CONTINUOUS
 10
163.0047798691
 20
243.5618039567
 40
2.4
 50
33.3471149603
 51
119.5378947368
  0
ARC
  8
0
 62
7
  6
CONTINUOUS
 10
163.2782539482
 20
243.1432207176
 40
2.4
 50
306.7778947368
 51
32.9686745134
  0
ARC
  8
0
 62
7
  6
CONTINUOUS
 10
146.0667237661
 20
261.8399265262
 40
2.4
 50
52.2944833814
 51
138.4852631579
  0
ARC
  8
0
 62
7
  6
CONTINUOUS
 10
146.4612940208
 20
261.5328201698
 40
2.4
 50
325.7252631579
 51
51.9160429344
  0
ARC
  8
0
 62
7
  6
CONTINUOUS
 10
156.8714301898
 20
245.1436625578
 40
2.0
 50
217.1052254754
 51
299.5378947368
  0
ARC
  8
0
 62
7
  6
CONTINUOUS
 10
139.7520672418
 20
261.3445802797
 40
2.0
 50
236.0525938965
 51
318.4852631579
  0
ARC
  8
0
 62
7
  6
CONTINUOUS
 10
147.5312617707
 20
255.2897901413
 40
2.0
 50
145.7252631579
 51
228.1579324193
  0
ARC
  8
0
 62
7
  6
CONTINUOUS
 10
132.768360099
 20
67.8118161926
 40
2.0
 50
270.0
 51
360.0
  0
ARC
  8
0
 62
7
  6
CONTINUOUS
 10
132.768360099
 20
88.8118161926
 40
2.0
 50
0.0
 51
90.0
  0
ARC
  8
0
 62
7
  6
CONTINUOUS
 10
66.768360099
 20
67.8118161926
 40
2.0
 50
180.0
 51
270.0
  0
ARC
  8
0
 62
7
  6
CONTINUOUS
 10
66.768360099
 20
88.8118161926
 40
2.0
 50
90.0
 51
180.0
  0
ARC
  8
0
 62
7
  6
CONTINUOUS
 10
168.368360099
 20
71.3118161926
 40
1.0
 50
270.0
 51
360.0
  0
ARC
  8
0
 62
7
  6
CONTINUOUS
 10
168.368360099
 20
85.3118161926
 40
1.0
 50
0.0
 51
90.0
  0
ARC
  8
0
 62
7
  6
CONTINUOUS
 10
31.168360099
 20
71.3118161926
 40
1.0
 50
180.0
 51
270.0
  0
ARC
  8
0
 62
7
  6
CONTINUOUS
 10
31.168360099
 20
85.3118161926
 40
1.0
 50
90.0
 51
180.0
  0
ARC
  8
0
 62
7
  6
CONTINUOUS
 10
126.4844301874
 20
79.8118161926
 40
0.5
 50
0.0
 51
90.000008692
  0
ARC
  8
0
 62
7
  6
CONTINUOUS
 10
126.4844301874
 20
76.8118161926
 40
0.5
 50
269.999991308
 51
360.0
  0
ARC
  8
0
 62
7
  6
CONTINUOUS
 10
148.3612940208
 20
79.8118161926
 40
0.5
 50
0.0
 51
90.0000026137
  0
ARC
  8
0
 62
7
  6
CONTINUOUS
 10
148.3612940208
 20
76.8118161926
 40
0.5
 50
269.9999973863
 51
360.0
  0
ARC
  8
0
 62
7
  6
CONTINUOUS
 10
165.1782539482
 20
79.8118161926
 40
0.5
 50
0.0
 51
90.0000001181
  0
ARC
  8
0
 62
7
  6
CONTINUOUS
 10
165.1782539482
 20
76.8118161926
 40
0.5
 50
269.9999998819
 51
360.0
  0
ARC
  8
0
 62
7
  6
CONTINUOUS
 10
175.1129314195
 20
79.8118161926
 40
0.5
 50
0.0
 51
90.0000058066
  0
ARC
  8
0
 62
7
  6
CONTINUOUS
 10
175.1129314195
 20
76.8118161926
 40
0.5
 50
269.9999941934
 51
360.0
  0
ARC
  8
0
 62
7
  6
CONTINUOUS
 10
177.130039651
 20
79.8118161926
 40
0.5
 50
0.0
 51
89.9999912609
  0
ARC
  8
0
 62
7
  6
CONTINUOUS
 10
177.130039651
 20
76.8118161926
 40
0.5
 50
270.000008739
 51
360.0
  0
ARC
  8
0
 62
7
  6
CONTINUOUS
 10
22.4066805469
 20
79.8118161926
 40
0.5
 50
90.0000089494
 51
180.0
  0
ARC
  8
0
 62
7
  6
CONTINUOUS
 10
22.4066805469
 20
76.8118161926
 40
0.5
 50
180.0
 51
269.9999910504
  0
ARC
  8
0
 62
7
  6
CONTINUOUS
 10
24.4237887784
 20
79.8118161926
 40
0.5
 50
89.9999871939
 51
180.0
  0
ARC
  8
0
 62
7
  6
CONTINUOUS
 10
24.4237887784
 20
76.8118161926
 40
0.5
 50
180.0
 51
270.0000128061
  0
ARC
  8
0
 62
7
  6
CONTINUOUS
 10
34.3584662497
 20
79.8118161926
 40
0.5
 50
89.9999970013
 51
180.0
  0
ARC
  8
0
 62
7
  6
CONTINUOUS
 10
34.3584662497
 20
76.8118161926
 40
0.5
 50
180.0
 51
270.0000029987
  0
ARC
  8
0
 62
7
  6
CONTINUOUS
 10
51.1754261771
 20
79.8118161926
 40
0.5
 50
89.9999999008
 51
180.0
  0
ARC
  8
0
 62
7
  6
CONTINUOUS
 10
51.1754261771
 20
76.8118161926
 40
0.5
 50
180.0
 51
270.0000000992
  0
ARC
  8
0
 62
7
  6
CONTINUOUS
 10
73.0522900105
 20
79.8118161926
 40
0.5
 50
89.9999969678
 51
180.0
  0
ARC
  8
0
 62
7
  6
CONTINUOUS
 10
73.0522900105
 20
76.8118161926
 40
0.5
 50
180.0
 51
270.0000030322
  0
ENDSEC
  0
EOF
