  0
SECTION
  2
HEADER
  9
$EXTMAX
 10
210.0
 20
297.0
 30
0.0
  9
$EXTMIN
 10
0.0
 20
0.0
 30
0.0
  9
$LIMMIN
 10
0.0
 20
0.0
  9
$LIMMAX
 10
210.0
 20
297.0
  9
$VIEWCTR
 10
105.0
 20
148.5
  9
$VIEWSIZE
 40
297.0
  9
$CLAYER
  8
0
  9
$LTSCALE
 40
19.36
  9
$CELTYPE
  6
BYLAYER
  9
$DIMSCALE
 40
1.0
  9
$DIMASZ
 40
3.5
  9
$DIMEXO
 40
2.2
  9
$DIMDLI
 40
13.376
  9
$DIMEXE
 40
6.336
  9
$DIMCEN
 40
3.168
  9
$DIMLFAC
 40
1.0
  9
$DIMBLK
  1
_FILLED
  9
$DIMTXT
 40
3.5
  9
$PDMODE
 70
3
  9
$PDSIZE
 40
0.3125
  9
$TILEMODE
 70
1
  0
ENDSEC
  0
SECTION
  2
TABLES
  0
TABLE
  2
LTYPE
 70
6
  0
LTYPE
  2
BYBLOCK
 70
0
  3

 72
65
 73
0
 40
0.0
  0
LTYPE
  2
BYLAYER
 70
0
  3

 72
65
 73
0
 40
0.0
  0
LTYPE
  2
CONTINUOUS
 70
64
  3
Solid line
 72
65
 73
0
 40
0.0
  0
LTYPE
  2
CENTER
 70
64
  3
____ _ ____ _ ____ _ ____ _ ____ _ ____ _ ____
 72
65
 73
4
 40
0.6
 49
0.375
 49
-0.075
 49
0.075
 49
-0.075
  0
LTYPE
  2
HIDDEN
 70
64
  3
- - - - - - - - - - - - - - - - - - - -
 72
65
 73
2
 40
0.2
 49
0.1
 49
-0.1
  0
LTYPE
  2
PHANTOM
 70
64
  3
_____ _ _ _____ _ _ _____ _ _ _____
 72
65
 73
6
 40
0.8
 49
0.45
 49
-0.05
 49
0.1
 49
-0.05
 49
0.1
 49
-0.05
  0
LTYPE
  2
DOT
 70
64
  3
. . . . . . . . . . . . . . . . . . . .
 72
65
 73
2
 40
0.2
 49
0.1
 49
-0.1
  0
LTYPE
  2
DASHED
 70
64
  3
- - - - - - - - - - - - - - - - - - - -
 72
65
 73
2
 40
0.2
 49
0.1
 49
-0.1
  0
ENDTAB
  0
TABLE
  2
LAYER
 70
36
  0
LAYER
  2
0
 70
0
 62
7
  6
CONTINUOUS
  0
LAYER
  2
DEFAULT_1
 70
0
 62
7
  6
CENTER
  0
LAYER
  2
DEFAULT_2
 70
0
 62
8
  6
HIDDEN
  0
LAYER
  2
DEFAULT_3
 70
0
 62
7
  6
PHANTOM
  0
LAYER
  2
1_DATUMPLANE
 70
0
 62
7
  6
CONTINUOUS
  0
LAYER
  2
CURVE
 70
0
 62
7
  6
CONTINUOUS
  0
LAYER
  2
NOTES
 70
0
 62
7
  6
CONTINUOUS
  0
LAYER
  2
SURFACE
 70
0
 62
7
  6
CONTINUOUS
  0
ENDTAB
  0
TABLE
  2
STYLE
 70
1
  0
STYLE
  2
STANDARD
 70
0
 40
0.0
 41
0.8
 50
0.0
 71
0
 42
0.2
  3
txt
  4

  0
STYLE
  2
TEXTSTYLE_1
 70
0
 40
0.0
 41
0.8
 50
0.0
 71
0
 42
0.2
  3
gdt
  4

  0
STYLE
  2
TEXTSTYLE_2
 70
0
 40
0.0
 41
0.6
 50
0.0
 71
0
 42
0.2
  3
txt
  4

  0
STYLE
  2
TEXTSTYLE_3
 70
0
 40
0.0
 41
1.0
 50
0.0
 71
0
 42
0.2
  3
ftb_____.ttf
  4

  0
STYLE
  2
TEXTSTYLE_4
 70
0
 40
0.0
 41
1.0
 50
0.0
 71
0
 42
0.2
  3
fti_____.ttf
  4

  0
STYLE
  2
TEXTSTYLE_5
 70
0
 40
0.0
 41
1.0
 50
0.0
 71
0
 42
0.2
  3
frutiger light.ttf
  4

  0
STYLE
  2
TEXTSTYLE_6
 70
0
 40
0.0
 41
0.7
 50
0.0
 71
0
 42
0.2
  3
txt
  4

  0
STYLE
  2
TEXTSTYLE_7
 70
0
 40
0.0
 41
0.6
 50
0.0
 71
0
 42
0.2
  3
txt
  4

  0
ENDTAB
  0
ENDSEC
  0
SECTION
  2
BLOCKS
  0
BLOCK
  8
0
 62
2
  6
CONTINUOUS
  2
SYMBOL_8_BL1
 70
64
 10
173.5956734183
 20
35.5937998301
  0
TEXT
  8
0
 62
7
  6
CONTINUOUS
 10
164.6539584268
 20
30.6865562072
  7
TEXTSTYLE_4
 40
1.0655737705
  1
The brand for plastic modular belts and chains
 41
1.0
 72
0
  0
LINE
  8
0
 62
7
  6
CONTINUOUS
 10
149.5737418074
 20
36.1675703219
 11
149.5737418074
 21
34.0364227809
  0
LINE
  8
0
 62
7
  6
CONTINUOUS
 10
149.8628043005
 20
31.0454914852
 11
149.8628043005
 21
31.1422825445
  0
LINE
  8
0
 62
7
  6
CONTINUOUS
 10
149.5737418074
 20
31.1100188581
 11
149.6315543091
 21
30.9164367395
  0
LINE
  8
0
 62
7
  6
CONTINUOUS
 10
150.9671844304
 20
33.9544555678
 11
150.9671844304
 21
36.1675703219
  0
LINE
  8
0
 62
7
  6
CONTINUOUS
 10
151.8862417523
 20
32.1101932727
 11
151.8862417523
 21
30.5937998301
  0
LINE
  8
0
 62
7
  6
CONTINUOUS
 10
152.1753043074
 20
30.5937998301
 11
152.1753043074
 21
31.3358647082
  0
LINE
  8
0
 62
7
  6
CONTINUOUS
 10
152.1753043074
 20
31.4649194539
 11
152.1753043074
 21
32.1101932727
  0
LINE
  8
0
 62
7
  6
CONTINUOUS
 10
149.6315543091
 20
31.3036010218
 11
149.5737418074
 21
31.1100188581
  0
LINE
  8
0
 62
7
  6
CONTINUOUS
 10
149.9784292936
 20
30.8841730531
 11
149.8628043005
 21
31.0454914852
  0
LINE
  8
0
 62
7
  6
CONTINUOUS
 10
151.0768668626
 20
31.400392081
 11
151.1346793074
 21
31.3036010218
  0
LINE
  8
0
 62
7
  6
CONTINUOUS
 10
151.4237418626
 20
31.3036010218
 11
151.3659292523
 21
31.4326557675
  0
LINE
  8
0
 62
7
  6
CONTINUOUS
 10
152.852430332
 20
36.1675703219
 11
152.852430332
 21
34.3642916334
  0
LINE
  8
0
 62
7
  6
CONTINUOUS
 10
152.852430332
 20
33.0528162235
 11
152.852430332
 21
32.3970785186
  0
LINE
  8
0
 62
7
  6
CONTINUOUS
 10
153.2159293074
 20
31.2390736489
 11
153.2159293074
 21
30.5937998301
  0
LINE
  8
0
 62
7
  6
CONTINUOUS
 10
153.5049916972
 20
30.5937998301
 11
153.5049916972
 21
31.2390736489
  0
LINE
  8
0
 62
7
  6
CONTINUOUS
 10
149.8628043005
 20
31.1422825445
 11
149.9206168074
 21
31.2713373354
  0
LINE
  8
0
 62
7
  6
CONTINUOUS
 10
149.6315543091
 20
30.9164367395
 11
149.7471793074
 21
30.7873819712
  0
LINE
  8
0
 62
7
  6
CONTINUOUS
 10
153.1581166972
 20
31.3681283946
 11
153.2159293074
 21
31.2390736489
  0
LINE
  8
0
 62
7
  6
CONTINUOUS
 10
153.9674919177
 20
30.8841730531
 11
154.0253041972
 21
30.7551182848
  0
LINE
  8
0
 62
7
  6
CONTINUOUS
 10
153.5049916972
 20
31.2390736489
 11
153.4471794177
 21
31.400392081
  0
LINE
  8
0
 62
7
  6
CONTINUOUS
 10
153.9674919177
 20
31.4326557675
 11
153.9674919177
 21
31.3681283946
  0
LINE
  8
0
 62
7
  6
CONTINUOUS
 10
153.9674919177
 20
30.9809641124
 11
153.9674919177
 21
30.8841730531
  0
LINE
  8
0
 62
7
  6
CONTINUOUS
 10
154.245872955
 20
32.3970785186
 11
154.245872955
 21
36.1675703219
  0
LINE
  8
0
 62
7
  6
CONTINUOUS
 10
154.2565543074
 20
30.8519093441
 11
154.2565543074
 21
30.9164367395
  0
LINE
  8
0
 62
7
  6
CONTINUOUS
 10
154.5737418074
 20
36.1675703219
 11
154.5737418074
 21
32.3970785186
  0
LINE
  8
0
 62
7
  6
CONTINUOUS
 10
151.3659292523
 20
30.7873819712
 11
151.4237418626
 21
30.9164367395
  0
LINE
  8
0
 62
7
  6
CONTINUOUS
 10
155.759679528
 20
30.6905909007
 11
155.7018665869
 21
30.8519093441
  0
LINE
  8
0
 62
7
  6
CONTINUOUS
 10
155.412804528
 20
31.3681283946
 11
155.412804528
 21
31.2713373354
  0
LINE
  8
0
 62
7
  6
CONTINUOUS
 10
155.412804528
 20
31.1422825445
 11
155.412804528
 21
30.9487004259
  0
LINE
  8
0
 62
7
  6
CONTINUOUS
 10
155.7018665869
 20
30.8519093441
 11
155.7018665869
 21
31.3681283946
  0
LINE
  8
0
 62
7
  6
CONTINUOUS
 10
155.9671844304
 20
32.3970785186
 11
155.9671844304
 21
34.2003572071
  0
LINE
  8
0
 62
7
  6
CONTINUOUS
 10
155.9671844304
 20
35.511832617
 11
155.9671844304
 21
36.1675703219
  0
LINE
  8
0
 62
7
  6
CONTINUOUS
 10
156.279992028
 20
32.1101932727
 11
156.279992028
 21
31.9488748406
  0
LINE
  8
0
 62
7
  6
CONTINUOUS
 10
156.279992028
 20
31.626237886
 11
156.279992028
 21
30.5937998301
  0
LINE
  8
0
 62
7
  6
CONTINUOUS
 10
156.5690540869
 20
30.5937998301
 11
156.5690540869
 21
31.626237886
  0
LINE
  8
0
 62
7
  6
CONTINUOUS
 10
156.5690540869
 20
31.9488748406
 11
156.5690540869
 21
32.1101932727
  0
LINE
  8
0
 62
7
  6
CONTINUOUS
 10
151.1346793074
 20
30.9164367395
 11
151.0768668626
 21
30.8196456577
  0
LINE
  8
0
 62
7
  6
CONTINUOUS
 10
153.4471794177
 20
31.400392081
 11
153.3893668074
 21
31.4649194539
  0
LINE
  8
0
 62
7
  6
CONTINUOUS
 10
154.3143669177
 20
30.7873819712
 11
154.2565543074
 21
30.8519093441
  0
LINE
  8
0
 62
7
  6
CONTINUOUS
 10
155.4706168074
 20
30.6583272086
 11
155.5284290869
 21
30.5937998301
  0
LINE
  8
0
 62
7
  6
CONTINUOUS
 10
155.412804528
 20
30.7551182848
 11
155.4706168074
 21
30.6583272086
  0
LINE
  8
0
 62
7
  6
CONTINUOUS
 10
155.8174918074
 20
30.5937998301
 11
155.759679528
 21
30.6905909007
  0
LINE
  8
0
 62
7
  6
CONTINUOUS
 10
155.7018665869
 20
31.3681283946
 11
155.6440543074
 21
31.4649194539
  0
LINE
  8
0
 62
7
  6
CONTINUOUS
 10
157.0315543074
 20
31.626237886
 11
157.0315543074
 21
30.5937998301
  0
LINE
  8
0
 62
7
  6
CONTINUOUS
 10
157.320617028
 20
30.5937998301
 11
157.320617028
 21
31.3358647082
  0
LINE
  8
0
 62
7
  6
CONTINUOUS
 10
157.320617028
 20
31.4649194539
 11
157.320617028
 21
31.626237886
  0
LINE
  8
0
 62
7
  6
CONTINUOUS
 10
157.852430332
 20
34.6101932727
 11
157.852430332
 21
32.3970785186
  0
LINE
  8
0
 62
7
  6
CONTINUOUS
 10
149.7471793074
 20
31.4326557675
 11
149.6315543091
 21
31.3036010218
  0
LINE
  8
0
 62
7
  6
CONTINUOUS
 10
149.9206168074
 20
31.2713373354
 11
149.9784292936
 21
31.3358647082
  0
LINE
  8
0
 62
7
  6
CONTINUOUS
 10
149.7471793074
 20
30.7873819712
 11
149.8628043005
 21
30.7228545871
  0
LINE
  8
0
 62
7
  6
CONTINUOUS
 10
150.1518667936
 20
30.7873819712
 11
149.9784292936
 21
30.8841730531
  0
LINE
  8
0
 62
7
  6
CONTINUOUS
 10
155.3549915869
 20
31.4326557675
 11
155.412804528
 21
31.3681283946
  0
LINE
  8
0
 62
7
  6
CONTINUOUS
 10
158.3034290869
 20
31.3681283946
 11
158.361242028
 21
31.2068099625
  0
LINE
  8
0
 62
7
  6
CONTINUOUS
 10
158.6503040869
 20
31.2068099625
 11
158.5924918074
 21
31.3681283946
  0
LINE
  8
0
 62
7
  6
CONTINUOUS
 10
158.361242028
 20
31.2068099625
 11
158.361242028
 21
30.5937998301
  0
LINE
  8
0
 62
7
  6
CONTINUOUS
 10
158.6503040869
 20
30.5937998301
 11
158.6503040869
 21
31.2068099625
  0
LINE
  8
0
 62
7
  6
CONTINUOUS
 10
159.1128043074
 20
31.4326557675
 11
159.1128043074
 21
31.3681283946
  0
LINE
  8
0
 62
7
  6
CONTINUOUS
 10
159.245872955
 20
32.3970785186
 11
159.245872955
 21
34.5282260596
  0
LINE
  8
0
 62
7
  6
CONTINUOUS
 10
159.5737418074
 20
36.1675703219
 11
159.5737418074
 21
32.3970785186
  0
LINE
  8
0
 62
7
  6
CONTINUOUS
 10
154.2565543074
 20
30.9164367395
 11
154.3143669177
 21
31.0132277988
  0
LINE
  8
0
 62
7
  6
CONTINUOUS
 10
149.8628043005
 20
30.7228545871
 11
150.0362418212
 21
30.6583272086
  0
LINE
  8
0
 62
7
  6
CONTINUOUS
 10
151.3659292523
 20
31.4326557675
 11
151.1924917523
 21
31.5294468267
  0
LINE
  8
0
 62
7
  6
CONTINUOUS
 10
154.0253041972
 20
30.7551182848
 11
154.1987416972
 21
30.6583272086
  0
LINE
  8
0
 62
7
  6
CONTINUOUS
 10
153.0424918074
 20
31.4326557675
 11
153.1581166972
 21
31.3681283946
  0
LINE
  8
0
 62
7
  6
CONTINUOUS
 10
153.3893668074
 20
31.4649194539
 11
153.2737419177
 21
31.5294468267
  0
LINE
  8
0
 62
7
  6
CONTINUOUS
 10
159.1128043074
 20
30.8519093441
 11
159.228429528
 21
30.7228545871
  0
LINE
  8
0
 62
7
  6
CONTINUOUS
 10
159.4596793074
 20
30.7873819712
 11
159.401867028
 21
30.8519093441
  0
LINE
  8
0
 62
7
  6
CONTINUOUS
 10
159.1128043074
 20
31.3681283946
 11
159.228429528
 21
31.2390736489
  0
LINE
  8
0
 62
7
  6
CONTINUOUS
 10
158.5924918074
 20
31.3681283946
 11
158.534679528
 21
31.4649194539
  0
LINE
  8
0
 62
7
  6
CONTINUOUS
 10
160.9628038663
 20
30.7873819712
 11
160.9628038663
 21
30.8519093441
  0
LINE
  8
0
 62
7
  6
CONTINUOUS
 10
160.9671844304
 20
32.3970785186
 11
160.9671844304
 21
36.1675703219
  0
LINE
  8
0
 62
7
  6
CONTINUOUS
 10
154.0253041972
 20
31.4971831403
 11
153.9674919177
 21
31.4326557675
  0
LINE
  8
0
 62
7
  6
CONTINUOUS
 10
150.9034292799
 20
31.4649194539
 11
151.0768668626
 21
31.400392081
  0
LINE
  8
0
 62
7
  6
CONTINUOUS
 10
155.6440543074
 20
31.4649194539
 11
155.5284290869
 21
31.5294468267
  0
LINE
  8
0
 62
7
  6
CONTINUOUS
 10
159.4596793074
 20
31.3036010218
 11
159.401867028
 21
31.3681283946
  0
LINE
  8
0
 62
7
  6
CONTINUOUS
 10
160.615929528
 20
30.9164367395
 11
160.6737418074
 21
30.8519093441
  0
LINE
  8
0
 62
7
  6
CONTINUOUS
 10
160.9628038663
 20
30.8519093441
 11
160.8471793074
 21
30.9809641124
  0
LINE
  8
0
 62
7
  6
CONTINUOUS
 10
160.615929528
 20
31.4326557675
 11
160.6737418074
 21
31.3681283946
  0
LINE
  8
0
 62
7
  6
CONTINUOUS
 10
160.9628038663
 20
31.3681283946
 11
160.8471793074
 21
31.4971831403
  0
LINE
  8
0
 62
7
  6
CONTINUOUS
 10
154.2565543074
 20
31.3681283946
 11
154.3143669177
 21
31.4326557675
  0
LINE
  8
0
 62
7
  6
CONTINUOUS
 10
154.0831168074
 20
31.1100188581
 11
153.9674919177
 21
30.9809641124
  0
LINE
  8
0
 62
7
  6
CONTINUOUS
 10
155.412804528
 20
30.9487004259
 11
155.3549915869
 21
30.8841730531
  0
LINE
  8
0
 62
7
  6
CONTINUOUS
 10
155.3549915869
 20
30.6905909007
 11
155.412804528
 21
30.7551182848
  0
LINE
  8
0
 62
7
  6
CONTINUOUS
 10
154.1987416972
 20
30.6583272086
 11
154.3143669177
 21
30.6260635193
  0
LINE
  8
0
 62
7
  6
CONTINUOUS
 10
151.1924917523
 20
31.5294468267
 11
150.9612418074
 21
31.5939741996
  0
LINE
  8
0
 62
7
  6
CONTINUOUS
 10
154.5456166972
 20
30.7228545871
 11
154.3143669177
 21
30.7873819712
  0
LINE
  8
0
 62
7
  6
CONTINUOUS
 10
153.2737419177
 20
31.5294468267
 11
153.1003044177
 21
31.5939741996
  0
LINE
  8
0
 62
7
  6
CONTINUOUS
 10
155.5284290869
 20
31.5294468267
 11
155.3549915869
 21
31.5939741996
  0
LINE
  8
0
 62
7
  6
CONTINUOUS
 10
158.187804528
 20
31.4326557675
 11
158.3034290869
 21
31.3681283946
  0
LINE
  8
0
 62
7
  6
CONTINUOUS
 10
158.534679528
 20
31.4649194539
 11
158.4190543074
 21
31.5294468267
  0
LINE
  8
0
 62
7
  6
CONTINUOUS
 10
150.0362418212
 20
30.6583272086
 11
150.2096793212
 21
30.6260635193
  0
LINE
  8
0
 62
7
  6
CONTINUOUS
 10
150.498741835
 20
30.7228545871
 11
150.1518667936
 21
30.7873819712
  0
LINE
  8
0
 62
7
  6
CONTINUOUS
 10
152.9268669177
 20
31.4649194539
 11
153.0424918074
 21
31.4326557675
  0
LINE
  8
0
 62
7
  6
CONTINUOUS
 10
155.239367028
 20
31.4649194539
 11
155.3549915869
 21
31.4326557675
  0
LINE
  8
0
 62
7
  6
CONTINUOUS
 10
159.575304528
 20
30.7551182848
 11
159.4596793074
 21
30.7873819712
  0
LINE
  8
0
 62
7
  6
CONTINUOUS
 10
158.0721793074
 20
31.4649194539
 11
158.187804528
 21
31.4326557675
  0
LINE
  8
0
 62
7
  6
CONTINUOUS
 10
159.228429528
 20
30.7228545871
 11
159.401867028
 21
30.6583272086
  0
LINE
  8
0
 62
7
  6
CONTINUOUS
 10
158.4190543074
 20
31.5294468267
 11
158.2456168074
 21
31.5939741996
  0
LINE
  8
0
 62
7
  6
CONTINUOUS
 10
159.6331168074
 20
31.2390736489
 11
159.4596793074
 21
31.3036010218
  0
LINE
  8
0
 62
7
  6
CONTINUOUS
 10
160.442492028
 20
30.9809641124
 11
160.615929528
 21
30.9164367395
  0
LINE
  8
0
 62
7
  6
CONTINUOUS
 10
160.8471793074
 20
31.4971831403
 11
160.6737418074
 21
31.5617105132
  0
LINE
  8
0
 62
7
  6
CONTINUOUS
 10
159.228429528
 20
31.2390736489
 11
159.4596793074
 21
31.1422825445
  0
LINE
  8
0
 62
7
  6
CONTINUOUS
 10
160.8471793074
 20
30.9809641124
 11
160.615929528
 21
31.0777551716
  0
LINE
  8
0
 62
7
  6
CONTINUOUS
 10
159.401867028
 20
31.3681283946
 11
159.4596793074
 21
31.4326557675
  0
LINE
  8
0
 62
7
  6
CONTINUOUS
 10
149.8628043005
 20
31.4971831403
 11
149.7471793074
 21
31.4326557675
  0
LINE
  8
0
 62
7
  6
CONTINUOUS
 10
149.9784292936
 20
31.3358647082
 11
150.1518667936
 21
31.4326557675
  0
LINE
  8
0
 62
7
  6
CONTINUOUS
 10
152.2909293626
 20
31.5294468267
 11
152.1753043074
 21
31.4649194539
  0
LINE
  8
0
 62
7
  6
CONTINUOUS
 10
152.1753043074
 20
31.3358647082
 11
152.2909293626
 21
31.400392081
  0
LINE
  8
0
 62
7
  6
CONTINUOUS
 10
151.1924917523
 20
30.6905909007
 11
151.3659292523
 21
30.7873819712
  0
LINE
  8
0
 62
7
  6
CONTINUOUS
 10
150.2096793212
 20
30.6260635193
 11
150.5565542799
 21
30.5937998301
  0
LINE
  8
0
 62
7
  6
CONTINUOUS
 10
154.3143669177
 20
30.6260635193
 11
154.5456166972
 21
30.5937998301
  0
LINE
  8
0
 62
7
  6
CONTINUOUS
 10
152.6956168074
 20
31.4971831403
 11
152.9268669177
 21
31.4649194539
  0
LINE
  8
0
 62
7
  6
CONTINUOUS
 10
155.0081169177
 20
31.4971831403
 11
155.239367028
 21
31.4649194539
  0
LINE
  8
0
 62
7
  6
CONTINUOUS
 10
159.4596793074
 20
31.1422825445
 11
160.442492028
 21
30.9809641124
  0
LINE
  8
0
 62
7
  6
CONTINUOUS
 10
160.615929528
 20
31.0777551716
 11
159.6331168074
 21
31.2390736489
  0
LINE
  8
0
 62
7
  6
CONTINUOUS
 10
153.1003044177
 20
31.5939741996
 11
152.9268669177
 21
31.626237886
  0
LINE
  8
0
 62
7
  6
CONTINUOUS
 10
159.401867028
 20
30.6583272086
 11
159.575304528
 21
30.6260635193
  0
LINE
  8
0
 62
7
  6
CONTINUOUS
 10
158.2456168074
 20
31.5939741996
 11
158.0721793074
 21
31.626237886
  0
LINE
  8
0
 62
7
  6
CONTINUOUS
 10
160.5003043074
 20
31.4649194539
 11
160.615929528
 21
31.4326557675
  0
LINE
  8
0
 62
7
  6
CONTINUOUS
 10
160.6737418074
 20
30.8519093441
 11
160.615929528
 21
30.7873819712
  0
LINE
  8
0
 62
7
  6
CONTINUOUS
 10
159.228429528
 20
31.5294468267
 11
159.1128043074
 21
31.4326557675
  0
LINE
  8
0
 62
7
  6
CONTINUOUS
 10
154.1409294177
 20
31.5617105132
 11
154.0253041972
 21
31.4971831403
  0
LINE
  8
0
 62
7
  6
CONTINUOUS
 10
154.1987416972
 20
31.1745462761
 11
154.0831168074
 21
31.1100188581
  0
LINE
  8
0
 62
7
  6
CONTINUOUS
 10
154.3143669177
 20
31.0132277988
 11
154.4299918074
 21
31.0777551716
  0
LINE
  8
0
 62
7
  6
CONTINUOUS
 10
151.8862417523
 20
30.5937998301
 11
152.1753043074
 21
30.5937998301
  0
LINE
  8
0
 62
7
  6
CONTINUOUS
 10
153.2159293074
 20
30.5937998301
 11
153.5049916972
 21
30.5937998301
  0
LINE
  8
0
 62
7
  6
CONTINUOUS
 10
154.5456166972
 20
30.5937998301
 11
154.8924916972
 21
30.5937998301
  0
LINE
  8
0
 62
7
  6
CONTINUOUS
 10
155.5284290869
 20
30.5937998301
 11
155.8174918074
 21
30.5937998301
  0
LINE
  8
0
 62
7
  6
CONTINUOUS
 10
156.279992028
 20
30.5937998301
 11
156.5690540869
 21
30.5937998301
  0
LINE
  8
0
 62
7
  6
CONTINUOUS
 10
157.0315543074
 20
30.5937998301
 11
157.320617028
 21
30.5937998301
  0
LINE
  8
0
 62
7
  6
CONTINUOUS
 10
158.361242028
 20
30.5937998301
 11
158.6503040869
 21
30.5937998301
  0
LINE
  8
0
 62
7
  6
CONTINUOUS
 10
159.922179528
 20
30.5937998301
 11
160.269054528
 21
30.5937998301
  0
LINE
  8
0
 62
7
  6
CONTINUOUS
 10
160.269054528
 20
30.7228545871
 11
159.922179528
 21
30.7228545871
  0
LINE
  8
0
 62
7
  6
CONTINUOUS
 10
154.8924916972
 20
30.7228545871
 11
154.5456166972
 21
30.7228545871
  0
LINE
  8
0
 62
7
  6
CONTINUOUS
 10
159.401867028
 20
30.8519093441
 11
159.1128043074
 21
30.8519093441
  0
LINE
  8
0
 62
7
  6
CONTINUOUS
 10
151.4237418626
 20
30.9164367395
 11
151.1346793074
 21
30.9164367395
  0
LINE
  8
0
 62
7
  6
CONTINUOUS
 10
150.498741835
 20
31.4971831403
 11
150.9034292799
 21
31.4649194539
  0
LINE
  8
0
 62
7
  6
CONTINUOUS
 10
150.9612418074
 20
31.5939741996
 11
150.5565542799
 21
31.626237886
  0
LINE
  8
0
 62
7
  6
CONTINUOUS
 10
159.575304528
 20
30.6260635193
 11
159.922179528
 21
30.5937998301
  0
LINE
  8
0
 62
7
  6
CONTINUOUS
 10
159.922179528
 20
30.7228545871
 11
159.575304528
 21
30.7551182848
  0
LINE
  8
0
 62
7
  6
CONTINUOUS
 10
155.3549915869
 20
31.5939741996
 11
155.0081169177
 21
31.626237886
  0
LINE
  8
0
 62
7
  6
CONTINUOUS
 10
160.1534293074
 20
31.4971831403
 11
160.5003043074
 21
31.4649194539
  0
LINE
  8
0
 62
7
  6
CONTINUOUS
 10
160.5003043074
 20
31.5939741996
 11
160.1534293074
 21
31.626237886
  0
LINE
  8
0
 62
7
  6
CONTINUOUS
 10
157.840929528
 20
31.4971831403
 11
158.0721793074
 21
31.4649194539
  0
LINE
  8
0
 62
7
  6
CONTINUOUS
 10
160.6737418074
 20
31.5617105132
 11
160.5003043074
 21
31.5939741996
  0
LINE
  8
0
 62
7
  6
CONTINUOUS
 10
160.8471793074
 20
30.6905909007
 11
160.9628038663
 21
30.7873819712
  0
LINE
  8
0
 62
7
  6
CONTINUOUS
 10
155.3549915869
 20
30.8841730531
 11
155.1815540869
 21
30.7873819712
  0
LINE
  8
0
 62
7
  6
CONTINUOUS
 10
157.4362415869
 20
31.5294468267
 11
157.320617028
 21
31.4649194539
  0
LINE
  8
0
 62
7
  6
CONTINUOUS
 10
157.320617028
 20
31.3358647082
 11
157.4362415869
 21
31.400392081
  0
LINE
  8
0
 62
7
  6
CONTINUOUS
 10
150.0362418212
 20
31.5617105132
 11
149.8628043005
 21
31.4971831403
  0
LINE
  8
0
 62
7
  6
CONTINUOUS
 10
152.4643666972
 20
31.5939741996
 11
152.2909293626
 21
31.5294468267
  0
LINE
  8
0
 62
7
  6
CONTINUOUS
 10
152.2909293626
 20
31.400392081
 11
152.4643666972
 21
31.4649194539
  0
LINE
  8
0
 62
7
  6
CONTINUOUS
 10
151.0768668626
 20
30.8196456577
 11
150.9034292799
 21
30.7551182848
  0
LINE
  8
0
 62
7
  6
CONTINUOUS
 10
160.5003043074
 20
30.7551182848
 11
160.269054528
 21
30.7228545871
  0
LINE
  8
0
 62
7
  6
CONTINUOUS
 10
154.8924916972
 20
30.5937998301
 11
155.1815540869
 21
30.6260635193
  0
LINE
  8
0
 62
7
  6
CONTINUOUS
 10
160.269054528
 20
30.5937998301
 11
160.615929528
 21
30.6260635193
  0
LINE
  8
0
 62
7
  6
CONTINUOUS
 10
150.5565542799
 20
30.5937998301
 11
150.9612418074
 21
30.6260635193
  0
LINE
  8
0
 62
7
  6
CONTINUOUS
 10
150.9034292799
 20
30.7551182848
 11
150.498741835
 21
30.7228545871
  0
LINE
  8
0
 62
7
  6
CONTINUOUS
 10
154.7768668074
 20
31.1422825445
 11
155.412804528
 21
31.1422825445
  0
LINE
  8
0
 62
7
  6
CONTINUOUS
 10
155.412804528
 20
31.2713373354
 11
154.7768668074
 21
31.2713373354
  0
LINE
  8
0
 62
7
  6
CONTINUOUS
 10
151.1346793074
 20
31.3036010218
 11
151.4237418626
 21
31.3036010218
  0
LINE
  8
0
 62
7
  6
CONTINUOUS
 10
153.9674919177
 20
31.3681283946
 11
154.2565543074
 21
31.3681283946
  0
LINE
  8
0
 62
7
  6
CONTINUOUS
 10
160.6737418074
 20
31.3681283946
 11
160.9628038663
 21
31.3681283946
  0
LINE
  8
0
 62
7
  6
CONTINUOUS
 10
154.6612419177
 20
31.4971831403
 11
155.0081169177
 21
31.4971831403
  0
LINE
  8
0
 62
7
  6
CONTINUOUS
 10
159.8065543074
 20
31.4971831403
 11
160.1534293074
 21
31.4971831403
  0
LINE
  8
0
 62
7
  6
CONTINUOUS
 10
160.1534293074
 20
31.626237886
 11
159.8065543074
 21
31.626237886
  0
LINE
  8
0
 62
7
  6
CONTINUOUS
 10
158.0721793074
 20
31.626237886
 11
157.840929528
 21
31.626237886
  0
LINE
  8
0
 62
7
  6
CONTINUOUS
 10
157.320617028
 20
31.626237886
 11
157.0315543074
 21
31.626237886
  0
LINE
  8
0
 62
7
  6
CONTINUOUS
 10
156.5690540869
 20
31.626237886
 11
156.279992028
 21
31.626237886
  0
LINE
  8
0
 62
7
  6
CONTINUOUS
 10
155.0081169177
 20
31.626237886
 11
154.6612419177
 21
31.626237886
  0
LINE
  8
0
 62
7
  6
CONTINUOUS
 10
152.9268669177
 20
31.626237886
 11
152.6956168074
 21
31.626237886
  0
LINE
  8
0
 62
7
  6
CONTINUOUS
 10
156.279992028
 20
31.9488748406
 11
156.5690540869
 21
31.9488748406
  0
LINE
  8
0
 62
7
  6
CONTINUOUS
 10
156.5690540869
 20
32.1101932727
 11
156.279992028
 21
32.1101932727
  0
LINE
  8
0
 62
7
  6
CONTINUOUS
 10
152.1753043074
 20
32.1101932727
 11
151.8862417523
 21
32.1101932727
  0
LINE
  8
0
 62
7
  6
CONTINUOUS
 10
151.2130860697
 20
32.3970785186
 11
151.6256574183
 21
32.3970785186
  0
LINE
  8
0
 62
7
  6
CONTINUOUS
 10
152.852430332
 20
32.3970785186
 11
154.245872955
 21
32.3970785186
  0
LINE
  8
0
 62
7
  6
CONTINUOUS
 10
154.5737418074
 20
32.3970785186
 11
155.9671844304
 21
32.3970785186
  0
LINE
  8
0
 62
7
  6
CONTINUOUS
 10
157.852430332
 20
32.3970785186
 11
159.245872955
 21
32.3970785186
  0
LINE
  8
0
 62
7
  6
CONTINUOUS
 10
159.5737418074
 20
32.3970785186
 11
160.9671844304
 21
32.3970785186
  0
LINE
  8
0
 62
7
  6
CONTINUOUS
 10
157.6096790869
 20
31.5939741996
 11
157.4362415869
 21
31.5294468267
  0
LINE
  8
0
 62
7
  6
CONTINUOUS
 10
155.1815540869
 20
30.6260635193
 11
155.3549915869
 21
30.6905909007
  0
LINE
  8
0
 62
7
  6
CONTINUOUS
 10
160.615929528
 20
30.6260635193
 11
160.8471793074
 21
30.6905909007
  0
LINE
  8
0
 62
7
  6
CONTINUOUS
 10
160.615929528
 20
30.7873819712
 11
160.5003043074
 21
30.7551182848
  0
LINE
  8
0
 62
7
  6
CONTINUOUS
 10
159.575304528
 20
31.4649194539
 11
159.8065543074
 21
31.4971831403
  0
LINE
  8
0
 62
7
  6
CONTINUOUS
 10
157.6096790869
 20
31.4649194539
 11
157.840929528
 21
31.4971831403
  0
LINE
  8
0
 62
7
  6
CONTINUOUS
 10
154.5456166972
 20
31.1100188581
 11
154.7768668074
 21
31.1422825445
  0
LINE
  8
0
 62
7
  6
CONTINUOUS
 10
157.840929528
 20
31.626237886
 11
157.6096790869
 21
31.5939741996
  0
LINE
  8
0
 62
7
  6
CONTINUOUS
 10
154.4299918074
 20
31.4649194539
 11
154.6612419177
 21
31.4971831403
  0
LINE
  8
0
 62
7
  6
CONTINUOUS
 10
159.8065543074
 20
31.626237886
 11
159.4596793074
 21
31.5939741996
  0
LINE
  8
0
 62
7
  6
CONTINUOUS
 10
154.7768668074
 20
31.2713373354
 11
154.4299918074
 21
31.2390736489
  0
LINE
  8
0
 62
7
  6
CONTINUOUS
 10
150.5565542799
 20
31.626237886
 11
150.2096793212
 21
31.5939741996
  0
LINE
  8
0
 62
7
  6
CONTINUOUS
 10
154.6612419177
 20
31.626237886
 11
154.2565543074
 21
31.5939741996
  0
LINE
  8
0
 62
7
  6
CONTINUOUS
 10
152.0327582009
 20
33.5446195022
 11
151.3770204959
 21
33.5446195022
  0
LINE
  8
0
 62
7
  6
CONTINUOUS
 10
157.4362415869
 20
31.400392081
 11
157.6096790869
 21
31.4649194539
  0
LINE
  8
0
 62
7
  6
CONTINUOUS
 10
159.4596793074
 20
31.4326557675
 11
159.575304528
 21
31.4649194539
  0
LINE
  8
0
 62
7
  6
CONTINUOUS
 10
159.4596793074
 20
31.5939741996
 11
159.228429528
 21
31.5294468267
  0
LINE
  8
0
 62
7
  6
CONTINUOUS
 10
155.1815540869
 20
30.7873819712
 11
154.8924916972
 21
30.7228545871
  0
LINE
  8
0
 62
7
  6
CONTINUOUS
 10
152.4643666972
 20
31.4649194539
 11
152.6956168074
 21
31.4971831403
  0
LINE
  8
0
 62
7
  6
CONTINUOUS
 10
152.6956168074
 20
31.626237886
 11
152.4643666972
 21
31.5939741996
  0
LINE
  8
0
 62
7
  6
CONTINUOUS
 10
150.2674918074
 20
31.4649194539
 11
150.498741835
 21
31.4971831403
  0
LINE
  8
0
 62
7
  6
CONTINUOUS
 10
156.7868565615
 20
35.0200293383
 11
157.4425942664
 21
35.0200293383
  0
LINE
  8
0
 62
7
  6
CONTINUOUS
 10
154.4299918074
 20
31.0777551716
 11
154.5456166972
 21
31.1100188581
  0
LINE
  8
0
 62
7
  6
CONTINUOUS
 10
154.4299918074
 20
31.2390736489
 11
154.1987416972
 21
31.1745462761
  0
LINE
  8
0
 62
7
  6
CONTINUOUS
 10
154.3143669177
 20
31.4326557675
 11
154.4299918074
 21
31.4649194539
  0
LINE
  8
0
 62
7
  6
CONTINUOUS
 10
150.9612418074
 20
30.6260635193
 11
151.1924917523
 21
30.6905909007
  0
LINE
  8
0
 62
7
  6
CONTINUOUS
 10
154.2565543074
 20
31.5939741996
 11
154.1409294177
 21
31.5617105132
  0
LINE
  8
0
 62
7
  6
CONTINUOUS
 10
150.2096793212
 20
31.5939741996
 11
150.0362418212
 21
31.5617105132
  0
LINE
  8
0
 62
7
  6
CONTINUOUS
 10
160.9671844304
 20
36.1675703219
 11
159.5737418074
 21
36.1675703219
  0
LINE
  8
0
 62
7
  6
CONTINUOUS
 10
157.6065286927
 20
36.1675703219
 11
157.1939573441
 21
36.1675703219
  0
LINE
  8
0
 62
7
  6
CONTINUOUS
 10
155.9671844304
 20
36.1675703219
 11
154.5737418074
 21
36.1675703219
  0
LINE
  8
0
 62
7
  6
CONTINUOUS
 10
154.245872955
 20
36.1675703219
 11
152.852430332
 21
36.1675703219
  0
LINE
  8
0
 62
7
  6
CONTINUOUS
 10
150.9671844304
 20
36.1675703219
 11
149.5737418074
 21
36.1675703219
  0
LINE
  8
0
 62
7
  6
CONTINUOUS
 10
150.1518667936
 20
31.4326557675
 11
150.2674918074
 21
31.4649194539
  0
CIRCLE
  8
0
 62
7
  6
CONTINUOUS
 10
160.2704631189
 20
38.5036358957
 40
2.0901639344
  0
ARC
  8
0
 62
7
  6
CONTINUOUS
 10
151.2130860697
 20
34.0364227809
 40
1.6393442623
 50
180.0
 51
270.0
  0
ARC
  8
0
 62
7
  6
CONTINUOUS
 10
157.6065286927
 20
34.5282260596
 40
1.6393442623
 50
0.0
 51
90.0
  0
ARC
  8
0
 62
7
  6
CONTINUOUS
 10
151.6256574183
 20
33.8724883547
 40
1.4754098361
 50
270.0
 51
326.2510114041
  0
ARC
  8
0
 62
7
  6
CONTINUOUS
 10
157.1939573441
 20
34.6921604858
 40
1.4754098361
 50
90.0
 51
146.2510114041
  0
ARC
  8
0
 62
7
  6
CONTINUOUS
 10
152.0327582009
 20
34.3642916334
 40
0.8196721311
 50
270.0
 51
360.0
  0
ARC
  8
0
 62
7
  6
CONTINUOUS
 10
156.7868565615
 20
34.2003572071
 40
0.8196721311
 50
90.0
 51
180.0
  0
ARC
  8
0
 62
7
  6
CONTINUOUS
 10
151.3770204959
 20
33.9544555678
 40
0.4098360656
 50
180.0
 51
270.0
  0
ARC
  8
0
 62
7
  6
CONTINUOUS
 10
157.4425942664
 20
34.6101932727
 40
0.4098360656
 50
0.0
 51
90.0
  0
SOLID
  8
0
 62
7
  6
CONTINUOUS
 10
156.279992028
 20
31.9488752009
 11
156.279992028
 21
32.1101936845
 12
156.5690540869
 22
31.9488752009
 13
156.5690540869
 23
32.1101936845
  0
SOLID
  8
0
 62
7
  6
CONTINUOUS
 10
150.5565542799
 20
31.6262382337
 11
150.9612418074
 21
31.5939740028
 12
150.2096793212
 22
31.5939740028
 13
150.2096793212
 23
31.5939740028
  0
SOLID
  8
0
 62
7
  6
CONTINUOUS
 10
150.0362418212
 20
31.5617111435
 11
150.2096793212
 21
31.5939740028
 12
150.9612418074
 22
31.5939740028
 13
150.9612418074
 23
31.5939740028
  0
SOLID
  8
0
 62
7
  6
CONTINUOUS
 10
150.9612418074
 20
31.5939740028
 11
151.1924917523
 21
31.5294468402
 12
150.0362418212
 22
31.5617111435
 13
150.0362418212
 23
31.5617111435
  0
SOLID
  8
0
 62
7
  6
CONTINUOUS
 10
149.8628043005
 20
31.49718259
 11
150.0362418212
 21
31.5617111435
 12
151.1924917523
 22
31.5294468402
 13
151.1924917523
 23
31.5294468402
  0
SOLID
  8
0
 62
7
  6
CONTINUOUS
 10
149.8628043005
 20
31.49718259
 11
151.1924917523
 21
31.5294468402
 12
150.498741835
 22
31.49718259
 13
150.498741835
 23
31.49718259
  0
SOLID
  8
0
 62
7
  6
CONTINUOUS
 10
150.498741835
 20
31.49718259
 11
151.1924917523
 21
31.5294468402
 12
150.9034292799
 22
31.4649197501
 13
150.9034292799
 23
31.4649197501
  0
SOLID
  8
0
 62
7
  6
CONTINUOUS
 10
151.1924917523
 20
31.5294468402
 11
151.3659292523
 21
31.4326554468
 12
150.9034292799
 22
31.4649197501
 13
150.9034292799
 23
31.4649197501
  0
SOLID
  8
0
 62
7
  6
CONTINUOUS
 10
151.0768668626
 20
31.4003926599
 11
150.9034292799
 21
31.4649197501
 12
151.3659292523
 22
31.4326554468
 13
151.3659292523
 23
31.4326554468
  0
SOLID
  8
0
 62
7
  6
CONTINUOUS
 10
151.0768668626
 20
31.4003926599
 11
151.3659292523
 21
31.4326554468
 12
151.1346793074
 22
31.3036013776
 13
151.1346793074
 23
31.3036013776
  0
SOLID
  8
0
 62
7
  6
CONTINUOUS
 10
151.3659292523
 20
31.4326554468
 11
151.4237418626
 21
31.3036013776
 12
151.1346793074
 22
31.3036013776
 13
151.1346793074
 23
31.3036013776
  0
SOLID
  8
0
 62
7
  6
CONTINUOUS
 10
152.4643666972
 20
31.5939739754
 11
152.6956168074
 21
31.6262382787
 12
152.9268669177
 22
31.6262382787
 13
152.9268669177
 23
31.6262382787
  0
SOLID
  8
0
 62
7
  6
CONTINUOUS
 10
152.9268669177
 20
31.6262382787
 11
153.1003044177
 21
31.5939739754
 12
152.4643666972
 22
31.5939739754
 13
152.4643666972
 23
31.5939739754
  0
SOLID
  8
0
 62
7
  6
CONTINUOUS
 10
152.2909293626
 20
31.5294468852
 11
152.4643666972
 21
31.5939739754
 12
153.1003044177
 22
31.5939739754
 13
153.1003044177
 23
31.5939739754
  0
SOLID
  8
0
 62
7
  6
CONTINUOUS
 10
153.1003044177
 20
31.5939739754
 11
153.2737419177
 21
31.5294468852
 12
152.2909293626
 22
31.5294468852
 13
152.2909293626
 23
31.5294468852
  0
SOLID
  8
0
 62
7
  6
CONTINUOUS
 10
153.2737419177
 20
31.5294468852
 11
152.6956168074
 21
31.4971825369
 12
152.2909293626
 22
31.5294468852
 13
152.2909293626
 23
31.5294468852
  0
SOLID
  8
0
 62
7
  6
CONTINUOUS
 10
152.1753043074
 20
31.4649197951
 11
152.2909293626
 21
31.5294468852
 12
152.6956168074
 22
31.4971825369
 13
152.6956168074
 23
31.4971825369
  0
SOLID
  8
0
 62
7
  6
CONTINUOUS
 10
152.6956168074
 20
31.4971825369
 11
152.4643666972
 21
31.4649197951
 12
152.1753043074
 22
31.4649197951
 13
152.1753043074
 23
31.4649197951
  0
SOLID
  8
0
 62
7
  6
CONTINUOUS
 10
152.6956168074
 20
31.4971825369
 11
153.2737419177
 21
31.5294468852
 12
152.9268669177
 22
31.4649197951
 13
152.9268669177
 23
31.4649197951
  0
SOLID
  8
0
 62
7
  6
CONTINUOUS
 10
153.2737419177
 20
31.5294468852
 11
153.3893668074
 21
31.4649197951
 12
152.9268669177
 22
31.4649197951
 13
152.9268669177
 23
31.4649197951
  0
SOLID
  8
0
 62
7
  6
CONTINUOUS
 10
153.0424918074
 20
31.4326554468
 11
152.9268669177
 21
31.4649197951
 12
153.3893668074
 22
31.4649197951
 13
153.3893668074
 23
31.4649197951
  0
SOLID
  8
0
 62
7
  6
CONTINUOUS
 10
153.3893668074
 20
31.4649197951
 11
153.4471794177
 21
31.4003927049
 12
153.0424918074
 22
31.4326554468
 13
153.0424918074
 23
31.4326554468
  0
SOLID
  8
0
 62
7
  6
CONTINUOUS
 10
153.1581166972
 20
31.3681283566
 11
153.0424918074
 21
31.4326554468
 12
153.4471794177
 22
31.4003927049
 13
153.4471794177
 23
31.4003927049
  0
SOLID
  8
0
 62
7
  6
CONTINUOUS
 10
153.1581166972
 20
31.3681283566
 11
153.4471794177
 21
31.4003927049
 12
153.2159293074
 22
31.2390742213
 13
153.2159293074
 23
31.2390742213
  0
SOLID
  8
0
 62
7
  6
CONTINUOUS
 10
153.4471794177
 20
31.4003927049
 11
153.5049916972
 21
31.2390742213
 12
153.2159293074
 22
31.2390742213
 13
153.2159293074
 23
31.2390742213
  0
SOLID
  8
0
 62
7
  6
CONTINUOUS
 10
152.4643666972
 20
31.4649197951
 11
152.2909293626
 21
31.4003927049
 12
152.1753043074
 22
31.4649197951
 13
152.1753043074
 23
31.4649197951
  0
SOLID
  8
0
 62
7
  6
CONTINUOUS
 10
152.2909293626
 20
31.4003927049
 11
152.1753043074
 21
31.3358640533
 12
152.1753043074
 22
31.4649197951
 13
152.1753043074
 23
31.4649197951
  0
SOLID
  8
0
 62
7
  6
CONTINUOUS
 10
152.1753043074
 20
31.3358640533
 11
151.8862417523
 21
30.5938002869
 12
152.1753043074
 22
31.4649197951
 13
152.1753043074
 23
31.4649197951
  0
SOLID
  8
0
 62
7
  6
CONTINUOUS
 10
152.1753043074
 20
31.4649197951
 11
151.8862417523
 21
30.5938002869
 12
152.1753043074
 22
32.1101937295
 13
152.1753043074
 23
32.1101937295
  0
SOLID
  8
0
 62
7
  6
CONTINUOUS
 10
151.8862417523
 20
30.5938002869
 11
151.8862417523
 21
32.1101937295
 12
152.1753043074
 22
32.1101937295
 13
152.1753043074
 23
32.1101937295
  0
SOLID
  8
0
 62
7
  6
CONTINUOUS
 10
152.1753043074
 20
31.3358640533
 11
152.1753043074
 21
30.5938002869
 12
151.8862417523
 22
30.5938002869
 13
151.8862417523
 23
30.5938002869
  0
SOLID
  8
0
 62
7
  6
CONTINUOUS
 10
153.2159293074
 20
30.5938002869
 11
153.2159293074
 21
31.2390742213
 12
153.5049916972
 22
31.2390742213
 13
153.5049916972
 23
31.2390742213
  0
SOLID
  8
0
 62
7
  6
CONTINUOUS
 10
153.5049916972
 20
31.2390742213
 11
153.5049916972
 21
30.5938002869
 12
153.2159293074
 22
30.5938002869
 13
153.2159293074
 23
30.5938002869
  0
SOLID
  8
0
 62
7
  6
CONTINUOUS
 10
154.2565543074
 20
31.5939738288
 11
154.6612419177
 21
31.6262385959
 12
155.0081169177
 22
31.6262385959
 13
155.0081169177
 23
31.6262385959
  0
SOLID
  8
0
 62
7
  6
CONTINUOUS
 10
155.0081169177
 20
31.6262385959
 11
155.3549915869
 21
31.5939738288
 12
154.2565543074
 22
31.5939738288
 13
154.2565543074
 23
31.5939738288
  0
SOLID
  8
0
 62
7
  6
CONTINUOUS
 10
154.1409294177
 20
31.5617111435
 11
154.2565543074
 21
31.5939738288
 12
155.3549915869
 22
31.5939738288
 13
155.3549915869
 23
31.5939738288
  0
SOLID
  8
0
 62
7
  6
CONTINUOUS
 10
155.3549915869
 20
31.5939738288
 11
155.5284290869
 21
31.5294468402
 12
154.1409294177
 22
31.5617111435
 13
154.1409294177
 23
31.5617111435
  0
SOLID
  8
0
 62
7
  6
CONTINUOUS
 10
154.0253041972
 20
31.4971826249
 11
154.1409294177
 21
31.5617111435
 12
155.5284290869
 22
31.5294468402
 13
155.5284290869
 23
31.5294468402
  0
SOLID
  8
0
 62
7
  6
CONTINUOUS
 10
154.0253041972
 20
31.4971826249
 11
155.5284290869
 21
31.5294468402
 12
154.6612419177
 22
31.4971826249
 13
154.6612419177
 23
31.4971826249
  0
SOLID
  8
0
 62
7
  6
CONTINUOUS
 10
154.6612419177
 20
31.4971826249
 11
155.5284290869
 21
31.5294468402
 12
155.0081169177
 22
31.4971826249
 13
155.0081169177
 23
31.4971826249
  0
SOLID
  8
0
 62
7
  6
CONTINUOUS
 10
155.0081169177
 20
31.4971826249
 11
155.5284290869
 21
31.5294468402
 12
155.239367028
 22
31.4649194065
 13
155.239367028
 23
31.4649194065
  0
SOLID
  8
0
 62
7
  6
CONTINUOUS
 10
155.5284290869
 20
31.5294468402
 11
155.6440543074
 21
31.4649194065
 12
155.239367028
 22
31.4649194065
 13
155.239367028
 23
31.4649194065
  0
SOLID
  8
0
 62
7
  6
CONTINUOUS
 10
153.9674919177
 20
31.4326554138
 11
154.0253041972
 21
31.4971826249
 12
154.6612419177
 22
31.4971826249
 13
154.6612419177
 23
31.4971826249
  0
SOLID
  8
0
 62
7
  6
CONTINUOUS
 10
155.3549915869
 20
31.4326554138
 11
155.239367028
 21
31.4649194065
 12
155.6440543074
 22
31.4649194065
 13
155.6440543074
 23
31.4649194065
  0
SOLID
  8
0
 62
7
  6
CONTINUOUS
 10
155.3549915869
 20
31.4326554138
 11
155.6440543074
 21
31.4649194065
 12
155.412804528
 22
31.3681282026
 13
155.412804528
 23
31.3681282026
  0
SOLID
  8
0
 62
7
  6
CONTINUOUS
 10
155.6440543074
 20
31.4649194065
 11
155.7018665869
 21
31.3681282026
 12
155.412804528
 22
31.3681282026
 13
155.412804528
 23
31.3681282026
  0
SOLID
  8
0
 62
7
  6
CONTINUOUS
 10
155.412804528
 20
31.2713369632
 11
155.412804528
 21
31.3681282026
 12
155.7018665869
 22
31.3681282026
 13
155.7018665869
 23
31.3681282026
  0
SOLID
  8
0
 62
7
  6
CONTINUOUS
 10
155.412804528
 20
31.2713369632
 11
155.7018665869
 21
31.3681282026
 12
155.412804528
 22
31.1422827828
 13
155.412804528
 23
31.1422827828
  0
SOLID
  8
0
 62
7
  6
CONTINUOUS
 10
155.412804528
 20
31.1422827828
 11
155.7018665869
 21
31.3681282026
 12
155.412804528
 22
30.9487004259
 13
155.412804528
 23
30.9487004259
  0
SOLID
  8
0
 62
7
  6
CONTINUOUS
 10
155.7018665869
 20
31.3681282026
 11
155.7018665869
 21
30.8519086025
 12
155.412804528
 22
30.9487004259
 13
155.412804528
 23
30.9487004259
  0
SOLID
  8
0
 62
7
  6
CONTINUOUS
 10
157.6096790869
 20
31.5939736268
 11
157.840929528
 21
31.6262383465
 12
158.0721793074
 22
31.6262383465
 13
158.0721793074
 23
31.6262383465
  0
SOLID
  8
0
 62
7
  6
CONTINUOUS
 10
158.0721793074
 20
31.6262383465
 11
158.2456168074
 21
31.5939736268
 12
157.6096790869
 22
31.5939736268
 13
157.6096790869
 23
31.5939736268
  0
SOLID
  8
0
 62
7
  6
CONTINUOUS
 10
157.4362415869
 20
31.5294472848
 11
157.6096790869
 21
31.5939736268
 12
158.2456168074
 22
31.5939736268
 13
158.2456168074
 23
31.5939736268
  0
SOLID
  8
0
 62
7
  6
CONTINUOUS
 10
158.2456168074
 20
31.5939736268
 11
158.4190543074
 21
31.5294472848
 12
157.4362415869
 22
31.5294472848
 13
157.4362415869
 23
31.5294472848
  0
SOLID
  8
0
 62
7
  6
CONTINUOUS
 10
158.4190543074
 20
31.5294472848
 11
157.840929528
 21
31.4971825369
 12
157.4362415869
 22
31.5294472848
 13
157.4362415869
 23
31.5294472848
  0
SOLID
  8
0
 62
7
  6
CONTINUOUS
 10
157.320617028
 20
31.4649199103
 11
157.4362415869
 21
31.5294472848
 12
157.840929528
 22
31.4971825369
 13
157.840929528
 23
31.4971825369
  0
SOLID
  8
0
 62
7
  6
CONTINUOUS
 10
157.840929528
 20
31.4971825369
 11
157.6096790869
 21
31.4649199103
 12
157.320617028
 22
31.4649199103
 13
157.320617028
 23
31.4649199103
  0
SOLID
  8
0
 62
7
  6
CONTINUOUS
 10
157.840929528
 20
31.4971825369
 11
158.4190543074
 21
31.5294472848
 12
158.0721793074
 22
31.4649199103
 13
158.0721793074
 23
31.4649199103
  0
SOLID
  8
0
 62
7
  6
CONTINUOUS
 10
158.4190543074
 20
31.5294472848
 11
158.534679528
 21
31.4649199103
 12
158.0721793074
 22
31.4649199103
 13
158.0721793074
 23
31.4649199103
  0
SOLID
  8
0
 62
7
  6
CONTINUOUS
 10
158.187804528
 20
31.4326554468
 11
158.0721793074
 21
31.4649199103
 12
158.534679528
 22
31.4649199103
 13
158.534679528
 23
31.4649199103
  0
SOLID
  8
0
 62
7
  6
CONTINUOUS
 10
158.187804528
 20
31.4326554468
 11
158.534679528
 21
31.4649199103
 12
158.3034290869
 22
31.3681288486
 13
158.3034290869
 23
31.3681288486
  0
SOLID
  8
0
 62
7
  6
CONTINUOUS
 10
158.534679528
 20
31.4649199103
 11
158.5924918074
 21
31.3681288486
 12
158.3034290869
 22
31.3681288486
 13
158.3034290869
 23
31.3681288486
  0
SOLID
  8
0
 62
7
  6
CONTINUOUS
 10
158.361242028
 20
31.2068093799
 11
158.3034290869
 21
31.3681288486
 12
158.5924918074
 22
31.3681288486
 13
158.5924918074
 23
31.3681288486
  0
SOLID
  8
0
 62
7
  6
CONTINUOUS
 10
158.5924918074
 20
31.3681288486
 11
158.6503040869
 21
31.2068093799
 12
158.361242028
 22
31.2068093799
 13
158.361242028
 23
31.2068093799
  0
SOLID
  8
0
 62
7
  6
CONTINUOUS
 10
157.6096790869
 20
31.4649199103
 11
157.4362415869
 21
31.4003926599
 12
157.320617028
 22
31.4649199103
 13
157.320617028
 23
31.4649199103
  0
SOLID
  8
0
 62
7
  6
CONTINUOUS
 10
157.4362415869
 20
31.4003926599
 11
157.320617028
 21
31.3358640533
 12
157.320617028
 22
31.4649199103
 13
157.320617028
 23
31.4649199103
  0
SOLID
  8
0
 62
7
  6
CONTINUOUS
 10
157.320617028
 20
31.3358640533
 11
157.0315543074
 21
30.5938003547
 12
157.320617028
 22
31.4649199103
 13
157.320617028
 23
31.4649199103
  0
SOLID
  8
0
 62
7
  6
CONTINUOUS
 10
157.320617028
 20
31.4649199103
 11
157.0315543074
 21
30.5938003547
 12
157.320617028
 22
31.6262383465
 13
157.320617028
 23
31.6262383465
  0
SOLID
  8
0
 62
7
  6
CONTINUOUS
 10
157.0315543074
 20
30.5938003547
 11
157.0315543074
 21
31.6262383465
 12
157.320617028
 22
31.6262383465
 13
157.320617028
 23
31.6262383465
  0
SOLID
  8
0
 62
7
  6
CONTINUOUS
 10
157.320617028
 20
31.3358640533
 11
157.320617028
 21
30.5938003547
 12
157.0315543074
 22
30.5938003547
 13
157.0315543074
 23
30.5938003547
  0
SOLID
  8
0
 62
7
  6
CONTINUOUS
 10
158.361242028
 20
30.5938003547
 11
158.361242028
 21
31.2068093799
 12
158.6503040869
 22
31.2068093799
 13
158.6503040869
 23
31.2068093799
  0
SOLID
  8
0
 62
7
  6
CONTINUOUS
 10
158.6503040869
 20
31.2068093799
 11
158.6503040869
 21
30.5938003547
 12
158.361242028
 22
30.5938003547
 13
158.361242028
 23
30.5938003547
  0
SOLID
  8
0
 62
7
  6
CONTINUOUS
 10
159.4596793074
 20
31.5939739474
 11
159.8065543074
 21
31.6262381969
 12
160.1534293074
 22
31.6262381969
 13
160.1534293074
 23
31.6262381969
  0
SOLID
  8
0
 62
7
  6
CONTINUOUS
 10
160.1534293074
 20
31.6262381969
 11
160.5003043074
 21
31.5939739474
 12
159.4596793074
 22
31.5939739474
 13
159.4596793074
 23
31.5939739474
  0
SOLID
  8
0
 62
7
  6
CONTINUOUS
 10
159.228429528
 20
31.5294468402
 11
159.4596793074
 21
31.5939739474
 12
160.5003043074
 22
31.5939739474
 13
160.5003043074
 23
31.5939739474
  0
SOLID
  8
0
 62
7
  6
CONTINUOUS
 10
159.228429528
 20
31.5294468402
 11
160.5003043074
 21
31.5939739304
 12
160.6737418074
 22
31.5617111435
 13
160.6737418074
 23
31.5617111435
  0
SOLID
  8
0
 62
7
  6
CONTINUOUS
 10
159.228429528
 20
31.5294468402
 11
160.6737418074
 21
31.5617111435
 12
159.8065543074
 22
31.4971825592
 13
159.8065543074
 23
31.4971825592
  0
SOLID
  8
0
 62
7
  6
CONTINUOUS
 10
159.8065543074
 20
31.4971825592
 11
160.6737418074
 21
31.5617111435
 12
160.1534293074
 22
31.4971825592
 13
160.1534293074
 23
31.4971825592
  0
SOLID
  8
0
 62
7
  6
CONTINUOUS
 10
160.6737418074
 20
31.5617111435
 11
160.8471793074
 21
31.4971825592
 12
160.1534293074
 22
31.4971825592
 13
160.1534293074
 23
31.4971825592
  0
SOLID
  8
0
 62
7
  6
CONTINUOUS
 10
160.5003043074
 20
31.4649197501
 11
160.1534293074
 21
31.4971825592
 12
160.8471793074
 22
31.4971825592
 13
160.8471793074
 23
31.4971825592
  0
SOLID
  8
0
 62
7
  6
CONTINUOUS
 10
159.1128043074
 20
31.4326555427
 11
159.228429528
 21
31.5294468402
 12
159.8065543074
 22
31.4971825592
 13
159.8065543074
 23
31.4971825592
  0
SOLID
  8
0
 62
7
  6
CONTINUOUS
 10
160.5003043074
 20
31.4649197501
 11
160.8471793074
 21
31.4971825592
 12
160.615929528
 22
31.4326555427
 13
160.615929528
 23
31.4326555427
  0
SOLID
  8
0
 62
7
  6
CONTINUOUS
 10
160.615929528
 20
31.4326555427
 11
160.8471793074
 21
31.4971825592
 12
160.6737418074
 22
31.3681283005
 13
160.6737418074
 23
31.3681283005
  0
SOLID
  8
0
 62
7
  6
CONTINUOUS
 10
160.8471793074
 20
31.4971825592
 11
160.9628038663
 21
31.3681283005
 12
160.6737418074
 22
31.3681283005
 13
160.6737418074
 23
31.3681283005
  0
SOLID
  8
0
 62
7
  6
CONTINUOUS
 10
150.2674918074
 20
31.4649197501
 11
149.7471793074
 21
31.4326554237
 12
150.498741835
 22
31.4971824493
 13
150.498741835
 23
31.4971824493
  0
SOLID
  8
0
 62
7
  6
CONTINUOUS
 10
149.7471793074
 20
31.4326554237
 11
149.8628043005
 21
31.4971824493
 12
150.498741835
 22
31.4971824493
 13
150.498741835
 23
31.4971824493
  0
SOLID
  8
0
 62
7
  6
CONTINUOUS
 10
150.2674918074
 20
31.4649197501
 11
150.1518667936
 21
31.4326554237
 12
149.7471793074
 22
31.4326554237
 13
149.7471793074
 23
31.4326554237
  0
SOLID
  8
0
 62
7
  6
CONTINUOUS
 10
149.6315543091
 20
31.3036012664
 11
149.7471793074
 21
31.4326554237
 12
150.1518667936
 22
31.4326554237
 13
150.1518667936
 23
31.4326554237
  0
SOLID
  8
0
 62
7
  6
CONTINUOUS
 10
153.9674919177
 20
31.4326554237
 11
154.6612419177
 21
31.4971825369
 12
154.4299918074
 22
31.4649197501
 13
154.4299918074
 23
31.4649197501
  0
SOLID
  8
0
 62
7
  6
CONTINUOUS
 10
154.4299918074
 20
31.4649197501
 11
154.3143669177
 21
31.4326554237
 12
153.9674919177
 22
31.4326554237
 13
153.9674919177
 23
31.4326554237
  0
SOLID
  8
0
 62
7
  6
CONTINUOUS
 10
153.9674919177
 20
31.3681283335
 11
153.9674919177
 21
31.4326554237
 12
154.3143669177
 22
31.4326554237
 13
154.3143669177
 23
31.4326554237
  0
SOLID
  8
0
 62
7
  6
CONTINUOUS
 10
154.3143669177
 20
31.4326554237
 11
154.2565543074
 21
31.3681283335
 12
153.9674919177
 22
31.3681283335
 13
153.9674919177
 23
31.3681283335
  0
SOLID
  8
0
 62
7
  6
CONTINUOUS
 10
159.1128043074
 20
31.4326555528
 11
159.8065543074
 21
31.4971825369
 12
159.575304528
 22
31.4649197501
 13
159.575304528
 23
31.4649197501
  0
SOLID
  8
0
 62
7
  6
CONTINUOUS
 10
159.575304528
 20
31.4649197501
 11
159.4596793074
 21
31.4326555528
 12
159.1128043074
 22
31.4326555528
 13
159.1128043074
 23
31.4326555528
  0
SOLID
  8
0
 62
7
  6
CONTINUOUS
 10
159.1128043074
 20
31.3681284626
 11
159.1128043074
 21
31.4326555528
 12
159.4596793074
 22
31.4326555528
 13
159.4596793074
 23
31.4326555528
  0
SOLID
  8
0
 62
7
  6
CONTINUOUS
 10
159.4596793074
 20
31.4326555528
 11
159.401867028
 21
31.3681284626
 12
159.1128043074
 22
31.3681284626
 13
159.1128043074
 23
31.3681284626
  0
SOLID
  8
0
 62
7
  6
CONTINUOUS
 10
159.228429528
 20
31.2390741763
 11
159.1128043074
 21
31.3681284626
 12
159.401867028
 22
31.3681284626
 13
159.401867028
 23
31.3681284626
  0
SOLID
  8
0
 62
7
  6
CONTINUOUS
 10
149.6315543091
 20
31.3036012664
 11
150.1518667936
 21
31.4326554468
 12
149.9784292936
 22
31.3358640533
 13
149.9784292936
 23
31.3358640533
  0
SOLID
  8
0
 62
7
  6
CONTINUOUS
 10
149.9784292936
 20
31.3358640533
 11
149.9206168074
 21
31.2713369632
 12
149.6315543091
 22
31.3036012664
 13
149.6315543091
 23
31.3036012664
  0
SOLID
  8
0
 62
7
  6
CONTINUOUS
 10
149.5737418074
 20
31.1100184796
 11
149.6315543091
 21
31.3036012664
 12
149.9206168074
 22
31.2713369632
 13
149.9206168074
 23
31.2713369632
  0
SOLID
  8
0
 62
7
  6
CONTINUOUS
 10
154.4299918074
 20
31.2390741763
 11
154.7768668074
 21
31.271336924
 12
155.412804528
 22
31.271336924
 13
155.412804528
 23
31.271336924
  0
SOLID
  8
0
 62
7
  6
CONTINUOUS
 10
154.4299918074
 20
31.2390741763
 11
155.412804528
 21
31.271336924
 12
154.1987416972
 22
31.1745462761
 13
154.1987416972
 23
31.1745462761
  0
SOLID
  8
0
 62
7
  6
CONTINUOUS
 10
154.1987416972
 20
31.1745462761
 11
155.412804528
 21
31.271336924
 12
154.7768668074
 22
31.1422827436
 13
154.7768668074
 23
31.1422827436
  0
SOLID
  8
0
 62
7
  6
CONTINUOUS
 10
155.412804528
 20
31.271336924
 11
155.412804528
 21
31.1422827436
 12
154.7768668074
 22
31.1422827436
 13
154.7768668074
 23
31.1422827436
  0
SOLID
  8
0
 62
7
  6
CONTINUOUS
 10
159.228429528
 20
31.2390745501
 11
159.401867028
 21
31.3681283566
 12
159.4596793074
 22
31.3036012664
 13
159.4596793074
 23
31.3036012664
  0
SOLID
  8
0
 62
7
  6
CONTINUOUS
 10
159.4596793074
 20
31.3036012664
 11
159.6331168074
 21
31.2390745501
 12
159.228429528
 22
31.2390745501
 13
159.228429528
 23
31.2390745501
  0
SOLID
  8
0
 62
7
  6
CONTINUOUS
 10
159.4596793074
 20
31.1422827828
 11
159.228429528
 21
31.2390745501
 12
159.6331168074
 22
31.2390745501
 13
159.6331168074
 23
31.2390745501
  0
SOLID
  8
0
 62
7
  6
CONTINUOUS
 10
159.6331168074
 20
31.2390745501
 11
160.615929528
 21
31.0777556927
 12
159.4596793074
 22
31.1422827828
 13
159.4596793074
 23
31.1422827828
  0
SOLID
  8
0
 62
7
  6
CONTINUOUS
 10
160.442492028
 20
30.9809646623
 11
159.4596793074
 21
31.1422827828
 12
160.615929528
 22
31.0777556927
 13
160.615929528
 23
31.0777556927
  0
SOLID
  8
0
 62
7
  6
CONTINUOUS
 10
160.615929528
 20
31.0777556927
 11
160.8471793074
 21
30.9809646623
 12
160.442492028
 22
30.9809646623
 13
160.442492028
 23
30.9809646623
  0
SOLID
  8
0
 62
7
  6
CONTINUOUS
 10
160.615929528
 20
30.9164372091
 11
160.442492028
 21
30.9809646623
 12
160.8471793074
 22
30.9809646623
 13
160.8471793074
 23
30.9809646623
  0
SOLID
  8
0
 62
7
  6
CONTINUOUS
 10
160.615929528
 20
30.9164372091
 11
160.8471793074
 21
30.9809646623
 12
160.6737418074
 22
30.8519089441
 13
160.6737418074
 23
30.8519089441
  0
SOLID
  8
0
 62
7
  6
CONTINUOUS
 10
160.8471793074
 20
30.9809646623
 11
160.9628038663
 21
30.8519089441
 12
160.6737418074
 22
30.8519089441
 13
160.6737418074
 23
30.8519089441
  0
SOLID
  8
0
 62
7
  6
CONTINUOUS
 10
160.615929528
 20
30.7873818593
 11
160.6737418074
 21
30.8519089441
 12
160.9628038663
 22
30.8519089441
 13
160.9628038663
 23
30.8519089441
  0
SOLID
  8
0
 62
7
  6
CONTINUOUS
 10
160.9628038663
 20
30.8519089441
 11
160.9628038663
 21
30.7873818593
 12
160.615929528
 22
30.7873818593
 13
160.615929528
 23
30.7873818593
  0
SOLID
  8
0
 62
7
  6
CONTINUOUS
 10
160.5003043074
 20
30.7551187255
 11
160.615929528
 21
30.7873818593
 12
160.9628038663
 22
30.7873818593
 13
160.9628038663
 23
30.7873818593
  0
SOLID
  8
0
 62
7
  6
CONTINUOUS
 10
160.5003043074
 20
30.7551187255
 11
160.9628038663
 21
30.7873818593
 12
160.269054528
 22
30.7228547745
 13
160.269054528
 23
30.7228547745
  0
SOLID
  8
0
 62
7
  6
CONTINUOUS
 10
160.9628038663
 20
30.7873818593
 11
160.8471793074
 21
30.6905916353
 12
160.269054528
 22
30.7228547745
 13
160.269054528
 23
30.7228547745
  0
SOLID
  8
0
 62
7
  6
CONTINUOUS
 10
160.8471793074
 20
30.6905916353
 11
159.401867028
 21
30.658327332
 12
160.269054528
 22
30.7228547745
 13
160.269054528
 23
30.7228547745
  0
SOLID
  8
0
 62
7
  6
CONTINUOUS
 10
160.269054528
 20
30.7228547745
 11
159.401867028
 21
30.658327332
 12
159.922179528
 22
30.7228547745
 13
159.922179528
 23
30.7228547745
  0
SOLID
  8
0
 62
7
  6
CONTINUOUS
 10
159.401867028
 20
30.658327332
 11
159.228429528
 21
30.7228547745
 12
159.922179528
 22
30.7228547745
 13
159.922179528
 23
30.7228547745
  0
SOLID
  8
0
 62
7
  6
CONTINUOUS
 10
159.401867028
 20
30.658327332
 11
160.8471793074
 21
30.6905916353
 12
159.575304528
 22
30.6260629858
 13
159.575304528
 23
30.6260629858
  0
SOLID
  8
0
 62
7
  6
CONTINUOUS
 10
160.8471793074
 20
30.6905916353
 11
160.615929528
 21
30.6260629858
 12
159.575304528
 22
30.6260629858
 13
159.575304528
 23
30.6260629858
  0
SOLID
  8
0
 62
7
  6
CONTINUOUS
 10
159.922179528
 20
30.5938006049
 11
159.575304528
 21
30.6260629858
 12
160.615929528
 22
30.6260629858
 13
160.615929528
 23
30.6260629858
  0
SOLID
  8
0
 62
7
  6
CONTINUOUS
 10
160.615929528
 20
30.6260629858
 11
160.269054528
 21
30.5938006049
 12
159.922179528
 22
30.5938006049
 13
159.922179528
 23
30.5938006049
  0
SOLID
  8
0
 62
7
  6
CONTINUOUS
 10
149.5737418074
 20
31.1100184796
 11
149.9206168074
 21
31.2713369632
 12
149.8628043005
 22
31.1422827828
 13
149.8628043005
 23
31.1422827828
  0
SOLID
  8
0
 62
7
  6
CONTINUOUS
 10
149.8628043005
 20
31.1422827828
 11
149.8628043005
 21
31.0454914852
 12
149.5737418074
 22
31.1100184796
 13
149.5737418074
 23
31.1100184796
  0
SOLID
  8
0
 62
7
  6
CONTINUOUS
 10
149.6315543091
 20
30.9164372091
 11
149.5737418074
 21
31.1100184796
 12
149.8628043005
 22
31.0454914852
 13
149.8628043005
 23
31.0454914852
  0
SOLID
  8
0
 62
7
  6
CONTINUOUS
 10
149.8628043005
 20
31.0454914852
 11
149.9784292936
 21
30.8841729058
 12
149.6315543091
 22
30.9164372091
 13
149.6315543091
 23
30.9164372091
  0
SOLID
  8
0
 62
7
  6
CONTINUOUS
 10
149.7471793074
 20
30.7873813202
 11
149.6315543091
 21
30.9164372091
 12
149.9784292936
 22
30.8841729058
 13
149.9784292936
 23
30.8841729058
  0
SOLID
  8
0
 62
7
  6
CONTINUOUS
 10
149.9784292936
 20
30.8841729058
 11
150.1518667936
 21
30.7873813202
 12
149.7471793074
 22
30.7873813202
 13
149.7471793074
 23
30.7873813202
  0
SOLID
  8
0
 62
7
  6
CONTINUOUS
 10
149.8628043005
 20
30.7228547004
 11
149.7471793074
 21
30.7873813202
 12
150.1518667936
 22
30.7873813202
 13
150.1518667936
 23
30.7873813202
  0
SOLID
  8
0
 62
7
  6
CONTINUOUS
 10
150.1518667936
 20
30.7873813202
 11
150.498741835
 21
30.7228547004
 12
149.8628043005
 22
30.7228547004
 13
149.8628043005
 23
30.7228547004
  0
SOLID
  8
0
 62
7
  6
CONTINUOUS
 10
150.0362418212
 20
30.658327332
 11
149.8628043005
 21
30.7228547004
 12
150.498741835
 22
30.7228547004
 13
150.498741835
 23
30.7228547004
  0
SOLID
  8
0
 62
7
  6
CONTINUOUS
 10
154.0831168074
 20
31.1100184386
 11
154.1987416972
 21
31.1745462761
 12
154.7768668074
 22
31.1422827828
 13
154.7768668074
 23
31.1422827828
  0
SOLID
  8
0
 62
7
  6
CONTINUOUS
 10
154.7768668074
 20
31.1422827828
 11
154.5456166972
 21
31.1100184386
 12
154.0831168074
 22
31.1100184386
 13
154.0831168074
 23
31.1100184386
  0
SOLID
  8
0
 62
7
  6
CONTINUOUS
 10
153.9674919177
 20
30.9809642992
 11
154.0831168074
 21
31.1100184386
 12
154.5456166972
 22
31.1100184386
 13
154.5456166972
 23
31.1100184386
  0
SOLID
  8
0
 62
7
  6
CONTINUOUS
 10
154.3143669177
 20
31.0132277988
 11
153.9674919177
 21
30.9809642992
 12
154.4299918074
 22
31.0777556927
 13
154.4299918074
 23
31.0777556927
  0
SOLID
  8
0
 62
7
  6
CONTINUOUS
 10
153.9674919177
 20
30.9809642992
 11
154.5456166972
 21
31.1100184796
 12
154.4299918074
 22
31.0777556927
 13
154.4299918074
 23
31.0777556927
  0
SOLID
  8
0
 62
7
  6
CONTINUOUS
 10
154.3143669177
 20
31.0132277988
 11
154.2565543074
 21
30.9164372091
 12
153.9674919177
 22
30.9809642992
 13
153.9674919177
 23
30.9809642992
  0
SOLID
  8
0
 62
7
  6
CONTINUOUS
 10
153.9674919177
 20
30.8841729058
 11
153.9674919177
 21
30.9809642992
 12
154.2565543074
 22
30.9164372091
 13
154.2565543074
 23
30.9164372091
  0
SOLID
  8
0
 62
7
  6
CONTINUOUS
 10
154.2565543074
 20
30.9164372091
 11
154.2565543074
 21
30.8519086025
 12
153.9674919177
 22
30.8841729058
 13
153.9674919177
 23
30.8841729058
  0
SOLID
  8
0
 62
7
  6
CONTINUOUS
 10
154.0253041972
 20
30.7551187255
 11
153.9674919177
 21
30.8841729058
 12
154.2565543074
 22
30.8519086025
 13
154.2565543074
 23
30.8519086025
  0
SOLID
  8
0
 62
7
  6
CONTINUOUS
 10
155.412804528
 20
30.9487004259
 11
155.7018665869
 21
30.8519086025
 12
155.3549915869
 22
30.8841729058
 13
155.3549915869
 23
30.8841729058
  0
SOLID
  8
0
 62
7
  6
CONTINUOUS
 10
155.1815540869
 20
30.7873815123
 11
155.3549915869
 21
30.8841729058
 12
155.7018665869
 22
30.8519086025
 13
155.7018665869
 23
30.8519086025
  0
SOLID
  8
0
 62
7
  6
CONTINUOUS
 10
155.1815540869
 20
30.7873815123
 11
155.7018665869
 21
30.8519086025
 12
155.412804528
 22
30.7551187255
 13
155.412804528
 23
30.7551187255
  0
SOLID
  8
0
 62
7
  6
CONTINUOUS
 10
155.7018665869
 20
30.8519086025
 11
155.759679528
 21
30.6905916353
 12
155.412804528
 22
30.7551187255
 13
155.412804528
 23
30.7551187255
  0
SOLID
  8
0
 62
7
  6
CONTINUOUS
 10
155.4706168074
 20
30.658327332
 11
155.412804528
 21
30.7551187255
 12
155.759679528
 22
30.6905916353
 13
155.759679528
 23
30.6905916353
  0
SOLID
  8
0
 62
7
  6
CONTINUOUS
 10
155.4706168074
 20
30.658327332
 11
155.759679528
 21
30.6905916353
 12
155.5284290869
 22
30.5938002079
 13
155.5284290869
 23
30.5938002079
  0
SOLID
  8
0
 62
7
  6
CONTINUOUS
 10
155.759679528
 20
30.6905916353
 11
155.8174918074
 21
30.5938002079
 12
155.5284290869
 22
30.5938002079
 13
155.5284290869
 23
30.5938002079
  0
SOLID
  8
0
 62
7
  6
CONTINUOUS
 10
151.0768668626
 20
30.8196456577
 11
151.1346793074
 21
30.9164373395
 12
151.4237418626
 22
30.9164373395
 13
151.4237418626
 23
30.9164373395
  0
SOLID
  8
0
 62
7
  6
CONTINUOUS
 10
151.4237418626
 20
30.9164373395
 11
151.3659292523
 21
30.7873815123
 12
151.0768668626
 22
30.8196456577
 13
151.0768668626
 23
30.8196456577
  0
SOLID
  8
0
 62
7
  6
CONTINUOUS
 10
150.9034292799
 20
30.7551187255
 11
151.0768668626
 21
30.8196456577
 12
151.3659292523
 22
30.7873815123
 13
151.3659292523
 23
30.7873815123
  0
SOLID
  8
0
 62
7
  6
CONTINUOUS
 10
150.9034292799
 20
30.7551187255
 11
151.3659292523
 21
30.7873815123
 12
150.498741835
 22
30.7228544222
 13
150.498741835
 23
30.7228544222
  0
SOLID
  8
0
 62
7
  6
CONTINUOUS
 10
151.3659292523
 20
30.7873815123
 11
151.1924917523
 21
30.6905916353
 12
150.498741835
 22
30.7228544222
 13
150.498741835
 23
30.7228544222
  0
SOLID
  8
0
 62
7
  6
CONTINUOUS
 10
150.0362418212
 20
30.658327332
 11
150.498741835
 21
30.7228544222
 12
151.1924917523
 22
30.6905916353
 13
151.1924917523
 23
30.6905916353
  0
SOLID
  8
0
 62
7
  6
CONTINUOUS
 10
150.0362418212
 20
30.658327332
 11
151.1924917523
 21
30.6905916353
 12
150.2096793212
 22
30.6260631011
 13
150.2096793212
 23
30.6260631011
  0
SOLID
  8
0
 62
7
  6
CONTINUOUS
 10
151.1924917523
 20
30.6905916353
 11
150.9612418074
 21
30.6260631011
 12
150.2096793212
 22
30.6260631011
 13
150.2096793212
 23
30.6260631011
  0
SOLID
  8
0
 62
7
  6
CONTINUOUS
 10
150.5565542799
 20
30.5938002419
 11
150.2096793212
 21
30.6260631011
 12
150.9612418074
 22
30.6260631011
 13
150.9612418074
 23
30.6260631011
  0
SOLID
  8
0
 62
7
  6
CONTINUOUS
 10
154.0253041972
 20
30.7551187255
 11
154.2565543074
 21
30.8519086025
 12
154.3143669177
 22
30.7873815123
 13
154.3143669177
 23
30.7873815123
  0
SOLID
  8
0
 62
7
  6
CONTINUOUS
 10
154.3143669177
 20
30.7873815123
 11
154.5456166972
 21
30.7228544222
 12
154.0253041972
 22
30.7551187255
 13
154.0253041972
 23
30.7551187255
  0
SOLID
  8
0
 62
7
  6
CONTINUOUS
 10
154.1987416972
 20
30.658327332
 11
154.0253041972
 21
30.7551187255
 12
154.5456166972
 22
30.7228544222
 13
154.5456166972
 23
30.7228544222
  0
SOLID
  8
0
 62
7
  6
CONTINUOUS
 10
154.8924916972
 20
30.7228544637
 11
155.1815540869
 21
30.7873815123
 12
155.412804528
 22
30.7551187255
 13
155.412804528
 23
30.7551187255
  0
SOLID
  8
0
 62
7
  6
CONTINUOUS
 10
155.412804528
 20
30.7551187255
 11
155.3549915869
 21
30.6905916353
 12
154.8924916972
 22
30.7228544637
 13
154.8924916972
 23
30.7228544637
  0
SOLID
  8
0
 62
7
  6
CONTINUOUS
 10
155.3549915869
 20
30.6905916353
 11
154.1987416972
 21
30.658327332
 12
154.8924916972
 22
30.7228544637
 13
154.8924916972
 23
30.7228544637
  0
SOLID
  8
0
 62
7
  6
CONTINUOUS
 10
154.1987416972
 20
30.658327332
 11
154.5456166972
 21
30.7228544637
 12
154.8924916972
 22
30.7228544637
 13
154.8924916972
 23
30.7228544637
  0
SOLID
  8
0
 62
7
  6
CONTINUOUS
 10
154.1987416972
 20
30.658327332
 11
155.3549915869
 21
30.6905916353
 12
154.3143669177
 22
30.6260630541
 13
154.3143669177
 23
30.6260630541
  0
SOLID
  8
0
 62
7
  6
CONTINUOUS
 10
155.3549915869
 20
30.6905916353
 11
155.1815540869
 21
30.6260630541
 12
154.3143669177
 22
30.6260630541
 13
154.3143669177
 23
30.6260630541
  0
SOLID
  8
0
 62
7
  6
CONTINUOUS
 10
154.5456166972
 20
30.5938002188
 11
154.3143669177
 21
30.6260630541
 12
155.1815540869
 22
30.6260630541
 13
155.1815540869
 23
30.6260630541
  0
SOLID
  8
0
 62
7
  6
CONTINUOUS
 10
155.1815540869
 20
30.6260630541
 11
154.8924916972
 21
30.5938002188
 12
154.5456166972
 22
30.5938002188
 13
154.5456166972
 23
30.5938002188
  0
SOLID
  8
0
 62
7
  6
CONTINUOUS
 10
159.575304528
 20
30.7551187255
 11
159.228429528
 21
30.7228544637
 12
159.4596793074
 22
30.7873815123
 13
159.4596793074
 23
30.7873815123
  0
SOLID
  8
0
 62
7
  6
CONTINUOUS
 10
159.4596793074
 20
30.7873815123
 11
159.228429528
 21
30.7228544637
 12
159.401867028
 22
30.851908644
 13
159.401867028
 23
30.851908644
  0
SOLID
  8
0
 62
7
  6
CONTINUOUS
 10
159.228429528
 20
30.7228544637
 11
159.1128043074
 21
30.851908644
 12
159.401867028
 22
30.851908644
 13
159.401867028
 23
30.851908644
  0
SOLID
  8
0
 62
7
  6
CONTINUOUS
 10
159.575304528
 20
30.7551187255
 11
159.922179528
 21
30.7228544637
 12
159.228429528
 22
30.7228544637
 13
159.228429528
 23
30.7228544637
  0
SOLID
  8
0
 62
7
  6
CONTINUOUS
 10
156.279992028
 20
30.5938002419
 11
156.279992028
 21
31.6262382337
 12
156.5690540869
 22
30.5938002419
 13
156.5690540869
 23
31.6262382337
  0
ENDBLK
  8
0
  6
BYBLOCK
 62
0
  0
BLOCK
  8
0
 62
2
  6
CONTINUOUS
  2
SYMBOL_3_BL0
 70
64
 10
32.1213064866
 20
19.8534310916
  0
TEXT
  8
0
 62
7
  6
CONTINUOUS
 10
18.3860103289
 20
19.2268451992
  7
TEXTSTYLE_3
 40
2.7338706658
  1
Ammeraal Beltech
 41
1.0
 51
15.0
 72
0
  0
TEXT
  8
0
 62
7
  6
CONTINUOUS
 10
29.1868111546
 20
16.9533085264
  7
TEXTSTYLE_4
 40
1.0935482663
  1
Innovation & Service in Belting
 41
1.0
 72
0
  0
LINE
  8
0
 62
7
  6
CONTINUOUS
 10
12.3614696776
 20
19.9934385078
 11
13.1396216709
 21
23.6543558055
  0
LINE
  8
0
 62
7
  6
CONTINUOUS
 10
23.2347899607
 20
27.3177497171
 11
13.6274394139
 21
24.1961322958
  0
LINE
  8
0
 62
7
  6
CONTINUOUS
 10
12.5867530099
 20
19.3000877048
 11
20.093828271
 21
12.5406867788
  0
LINE
  8
0
 62
7
  6
CONTINUOUS
 10
12.8492874206
 20
20.5352149982
 11
23.6575567857
 21
24.0470345971
  0
LINE
  8
0
 62
7
  6
CONTINUOUS
 10
23.6533516486
 20
13.6972460334
 11
15.2078919798
 21
21.3015720751
  0
LINE
  8
0
 62
7
  6
CONTINUOUS
 10
24.1731743684
 20
26.4728246013
 11
23.1966148312
 21
21.8784731989
  0
LINE
  8
0
 62
7
  6
CONTINUOUS
 10
22.4968128835
 20
18.5861638851
 11
21.810364672
 21
15.3566789607
  0
LINE
  8
0
 62
7
  6
CONTINUOUS
 10
24.8542704669
 20
14.087448211
 11
25.8105020025
 21
18.5861638851
  0
LINE
  8
0
 62
7
  6
CONTINUOUS
 10
26.5103039502
 20
21.8784731989
 11
26.9545457526
 21
23.9684665583
  0
LINE
  8
0
 62
7
  6
CONTINUOUS
 10
20.8069293463
 20
12.3891124661
 11
24.3664527239
 21
13.5456717207
  0
LINE
  8
0
 62
7
  6
CONTINUOUS
 10
23.9478910361
 20
27.1661754044
 11
26.7292624203
 21
24.6618173613
  0
ARC
  8
0
 62
7
  6
CONTINUOUS
 10
13.8527227462
 20
23.5027814928
 40
0.7290321776
 50
108.0
 51
168.0
  0
ARC
  8
0
 62
7
  6
CONTINUOUS
 10
23.4600732931
 20
26.624398914
 40
0.7290321776
 50
348.0
 51
108.0
  0
ARC
  8
0
 62
7
  6
CONTINUOUS
 10
26.2414446773
 20
24.120040871
 40
0.7290321776
 50
348.0
 51
48.0
  0
ARC
  8
0
 62
7
  6
CONTINUOUS
 10
20.581646014
 20
13.0824632691
 40
0.7290321776
 50
228.0
 51
288.0
  0
ARC
  8
0
 62
7
  6
CONTINUOUS
 10
13.0745707529
 20
19.8418641951
 40
0.7290321776
 50
108.0
 51
228.0
  0
ARC
  8
0
 62
7
  6
CONTINUOUS
 10
24.1411693916
 20
14.2390225237
 40
0.7290321776
 50
228.0
 51
348.0
  0
ENDBLK
  8
0
  6
BYBLOCK
 62
0
  0
ENDSEC
  0
SECTION
  2
ENTITIES
  0
TEXT
  8
0
 62
5
  6
CONTINUOUS
 10
96.0
 20
25.636
  7
TEXTSTYLE_2
 40
2.8
  1
Scale :
 41
0.6
 51
0.000019
 72
0
  0
TEXT
  8
0
 62
5
  6
CONTINUOUS
 10
116.0
 20
25.636
  7
TEXTSTYLE_2
 40
2.8
  1
Belt type:
 41
0.6
 51
0.000019
 72
0
  0
INSERT
  8
0
 62
2
  6
CONTINUOUS
  2
SYMBOL_3_BL0
 10
32.1213064866
 20
19.8534310916
  0
INSERT
  8
0
 62
2
  6
CONTINUOUS
  2
SYMBOL_8_BL1
 10
173.5956734183
 20
35.5937998301
  0
LINE
  8
0
 62
2
  6
CONTINUOUS
 10
10.0
 20
30.0
 11
200.0
 21
30.0
  0
LINE
  8
0
 62
2
  6
CONTINUOUS
 10
10.0
 20
30.0
 11
10.0
 21
10.0
  0
LINE
  8
0
 62
2
  6
CONTINUOUS
 10
10.0
 20
10.0
 11
200.0
 21
10.0
  0
LINE
  8
0
 62
2
  6
CONTINUOUS
 10
95.0
 20
30.0
 11
95.0
 21
10.0
  0
LINE
  8
0
 62
2
  6
CONTINUOUS
 10
115.0
 20
30.0
 11
115.0
 21
10.0
  0
LINE
  8
0
 62
2
  6
CONTINUOUS
 10
200.0
 20
30.0
 11
200.0
 21
10.0
  0
TEXT
  8
0
 62
5
  6
CONTINUOUS
 10
13.0
 20
23.303
  7
TEXTSTYLE_5
 40
1.52
  1
                                                                     Ammeraal Beltech Modular A/S
 41
1.0
 72
0
  0
TEXT
  8
0
 62
5
  6
CONTINUOUS
 10
13.0
 20
20.595
  7
TEXTSTYLE_5
 40
1.5
  1
                                                                      Hjulmagervej 21,  7100 Vejle,  DK
 41
1.0
 72
0
  0
TEXT
  8
0
 62
5
  6
CONTINUOUS
 10
13.0
 20
17.881
  7
TEXTSTYLE_5
 40
1.495
  1
                                                                      tel: 
 41
1.0
 72
0
  0
TEXT
  8
0
 62
5
  6
CONTINUOUS
 10
57.9869465649
 20
17.881
  7
TEXTSTYLE_5
 40
1.51
  1
+45 75723100     fax: +45 75723348
 41
1.0
 72
0
  0
TEXT
  8
0
 62
5
  6
CONTINUOUS
 10
13.0
 20
15.177
  7
TEXTSTYLE_5
 40
1.5
  1
                                                                      admin@unichains.dk  www.unichains.com
 41
1.0
 72
0
  0
TEXT
  8
0
 62
5
  6
CONTINUOUS
 10
99.75
 20
13.75
  7
TEXTSTYLE_6
 40
5.0
  1
1:1
 41
0.7
 72
1
 11
105.0
 21
13.75
  0
TEXT
  8
0
 62
5
  6
CONTINUOUS
 10
118.0
 20
13.75
  7
TEXTSTYLE_7
 40
7.5
  1
uni FLEX SNB CR K500
 41
0.541875
 72
0
  0
LINE
  8
0
 62
7
  6
CONTINUOUS
 10
210.0
 20
0.0
 11
0.0
 21
0.0
  0
LINE
  8
0
 62
7
  6
CONTINUOUS
 10
10.0
 20
10.0
 11
200.0
 21
10.0
  0
LINE
  8
0
 62
7
  6
CONTINUOUS
 10
10.0
 20
30.0
 11
200.0
 21
30.0
  0
LINE
  8
0
 62
7
  6
CONTINUOUS
 10
0.0
 20
0.0
 11
0.0
 21
297.0
  0
LINE
  8
0
 62
7
  6
CONTINUOUS
 10
10.0
 20
10.0
 11
10.0
 21
287.0
  0
LINE
  8
0
 62
7
  6
CONTINUOUS
 10
200.0
 20
287.0
 11
200.0
 21
10.0
  0
LINE
  8
0
 62
7
  6
CONTINUOUS
 10
210.0
 20
0.0
 11
210.0
 21
297.0
  0
LINE
  8
0
 62
7
  6
CONTINUOUS
 10
10.0
 20
287.0
 11
200.0
 21
287.0
  0
LINE
  8
0
 62
7
  6
CONTINUOUS
 10
0.0
 20
297.0
 11
210.0
 21
297.0
  0
POLYLINE
  8
0
 62
7
  6
CONTINUOUS
 66
1
 70
0
  0
VERTEX
  8
0
 62
7
  6
CONTINUOUS
 10
25.45
 20
197.1555800077
  0
VERTEX
  8
0
 62
7
  6
CONTINUOUS
 10
25.4526360137
 20
197.1123680968
  0
VERTEX
  8
0
 62
7
  6
CONTINUOUS
 10
25.4604673679
 20
197.0589086192
  0
VERTEX
  8
0
 62
7
  6
CONTINUOUS
 10
25.4733399844
 20
196.9949786733
  0
VERTEX
  8
0
 62
7
  6
CONTINUOUS
 10
25.4909865762
 20
196.9205636367
  0
VERTEX
  8
0
 62
7
  6
CONTINUOUS
 10
25.5131035164
 20
196.8354646807
  0
VERTEX
  8
0
 62
7
  6
CONTINUOUS
 10
25.5392409896
 20
196.7397538889
  0
SEQEND
  0
POLYLINE
  8
0
 62
7
  6
CONTINUOUS
 66
1
 70
0
  0
VERTEX
  8
0
 62
7
  6
CONTINUOUS
 10
25.45
 20
196.9559613352
  0
VERTEX
  8
0
 62
7
  6
CONTINUOUS
 10
25.4538579
 20
196.8803202857
  0
VERTEX
  8
0
 62
7
  6
CONTINUOUS
 10
25.4653905543
 20
196.7933476943
  0
VERTEX
  8
0
 62
7
  6
CONTINUOUS
 10
25.4843513227
 20
196.6948206466
  0
VERTEX
  8
0
 62
7
  6
CONTINUOUS
 10
25.5104040671
 20
196.5840194068
  0
VERTEX
  8
0
 62
7
  6
CONTINUOUS
 10
25.5429369222
 20
196.4606552965
  0
VERTEX
  8
0
 62
7
  6
CONTINUOUS
 10
25.5810095864
 20
196.324736831
  0
VERTEX
  8
0
 62
7
  6
CONTINUOUS
 10
25.6232698973
 20
196.1767637993
  0
VERTEX
  8
0
 62
7
  6
CONTINUOUS
 10
25.6675437773
 20
196.0192586135
  0
VERTEX
  8
0
 62
7
  6
CONTINUOUS
 10
25.7115367479
 20
195.8548563547
  0
VERTEX
  8
0
 62
7
  6
CONTINUOUS
 10
25.7530490386
 20
195.6862513273
  0
VERTEX
  8
0
 62
7
  6
CONTINUOUS
 10
25.7552596975
 20
195.6761185819
  0
SEQEND
  0
POLYLINE
  8
0
 62
7
  6
CONTINUOUS
 66
1
 70
0
  0
VERTEX
  8
0
 62
7
  6
CONTINUOUS
 10
25.809207226
 20
194.6799999999
  0
VERTEX
  8
0
 62
7
  6
CONTINUOUS
 10
25.8077080868
 20
194.8494183345
  0
VERTEX
  8
0
 62
7
  6
CONTINUOUS
 10
25.803215232
 20
195.0181459314
  0
VERTEX
  8
0
 62
7
  6
CONTINUOUS
 10
25.7957417078
 20
195.1855050147
  0
VERTEX
  8
0
 62
7
  6
CONTINUOUS
 10
25.7853095673
 20
195.3508091123
  0
VERTEX
  8
0
 62
7
  6
CONTINUOUS
 10
25.7719500738
 20
195.5133722322
  0
VERTEX
  8
0
 62
7
  6
CONTINUOUS
 10
25.7557042701
 20
195.6725067366
  0
VERTEX
  8
0
 62
7
  6
CONTINUOUS
 10
25.7366235133
 20
195.8275247298
  0
VERTEX
  8
0
 62
7
  6
CONTINUOUS
 10
25.7147702165
 20
195.9777385844
  0
VERTEX
  8
0
 62
7
  6
CONTINUOUS
 10
25.6902185451
 20
196.1224631493
  0
VERTEX
  8
0
 62
7
  6
CONTINUOUS
 10
25.6630550777
 20
196.2610186891
  0
VERTEX
  8
0
 62
7
  6
CONTINUOUS
 10
25.6333795807
 20
196.392733743
  0
VERTEX
  8
0
 62
7
  6
CONTINUOUS
 10
25.6013076431
 20
196.5169420816
  0
SEQEND
  0
LINE
  8
0
 62
7
  6
CONTINUOUS
 10
25.45
 20
197.1394003186
 11
25.45
 21
196.9559613352
  0
LINE
  8
0
 62
7
  6
CONTINUOUS
 10
25.45
 20
192.2040386645
 11
25.45
 21
192.0205996812
  0
LINE
  8
0
 62
7
  6
CONTINUOUS
 10
25.45
 20
188.8299999999
 11
25.45
 21
192.0044199921
  0
LINE
  8
0
 62
7
  6
CONTINUOUS
 10
25.45
 20
197.1555800077
 11
25.45
 21
200.3299999999
  0
LINE
  8
0
 62
7
  6
CONTINUOUS
 10
25.809207226
 20
194.4799999999
 11
25.809207226
 21
194.6799999999
  0
LINE
  8
0
 62
7
  6
CONTINUOUS
 10
30.790792774
 20
194.4799999999
 11
30.790792774
 21
194.6799999999
  0
POLYLINE
  8
0
 62
7
  6
CONTINUOUS
 66
1
 70
0
  0
VERTEX
  8
0
 62
7
  6
CONTINUOUS
 10
30.790792774
 20
194.6799999999
  0
VERTEX
  8
0
 62
7
  6
CONTINUOUS
 10
30.7922919132
 20
194.8494183345
  0
VERTEX
  8
0
 62
7
  6
CONTINUOUS
 10
30.796784768
 20
195.0181459314
  0
VERTEX
  8
0
 62
7
  6
CONTINUOUS
 10
30.8042582921
 20
195.1855050145
  0
VERTEX
  8
0
 62
7
  6
CONTINUOUS
 10
30.8146904326
 20
195.350809112
  0
VERTEX
  8
0
 62
7
  6
CONTINUOUS
 10
30.8280499262
 20
195.5133722318
  0
VERTEX
  8
0
 62
7
  6
CONTINUOUS
 10
30.8442957299
 20
195.6725067361
  0
VERTEX
  8
0
 62
7
  6
CONTINUOUS
 10
30.8633764866
 20
195.8275247292
  0
VERTEX
  8
0
 62
7
  6
CONTINUOUS
 10
30.8852297834
 20
195.9777385838
  0
VERTEX
  8
0
 62
7
  6
CONTINUOUS
 10
30.9097814548
 20
196.1224631486
  0
VERTEX
  8
0
 62
7
  6
CONTINUOUS
 10
30.9369449221
 20
196.2610186884
  0
VERTEX
  8
0
 62
7
  6
CONTINUOUS
 10
30.9666204191
 20
196.3927337424
  0
VERTEX
  8
0
 62
7
  6
CONTINUOUS
 10
30.9986923569
 20
196.5169420816
  0
SEQEND
  0
POLYLINE
  8
0
 62
7
  6
CONTINUOUS
 66
1
 70
0
  0
VERTEX
  8
0
 62
7
  6
CONTINUOUS
 10
25.7552596493
 20
193.4838811018
  0
VERTEX
  8
0
 62
7
  6
CONTINUOUS
 10
25.7530493595
 20
193.4737500485
  0
VERTEX
  8
0
 62
7
  6
CONTINUOUS
 10
25.7115378513
 20
193.3051479193
  0
VERTEX
  8
0
 62
7
  6
CONTINUOUS
 10
25.6675444972
 20
193.1407439967
  0
VERTEX
  8
0
 62
7
  6
CONTINUOUS
 10
25.6232706652
 20
192.9832388953
  0
VERTEX
  8
0
 62
7
  6
CONTINUOUS
 10
25.5810108377
 20
192.8352675665
  0
VERTEX
  8
0
 62
7
  6
CONTINUOUS
 10
25.5429384829
 20
192.6993504055
  0
VERTEX
  8
0
 62
7
  6
CONTINUOUS
 10
25.5104054251
 20
192.5759859963
  0
VERTEX
  8
0
 62
7
  6
CONTINUOUS
 10
25.4843522821
 20
192.4651837965
  0
VERTEX
  8
0
 62
7
  6
CONTINUOUS
 10
25.4653907446
 20
192.3666534581
  0
VERTEX
  8
0
 62
7
  6
CONTINUOUS
 10
25.4538577639
 20
192.2796782809
  0
VERTEX
  8
0
 62
7
  6
CONTINUOUS
 10
25.45
 20
192.2040386645
  0
SEQEND
  0
POLYLINE
  8
0
 62
7
  6
CONTINUOUS
 66
1
 70
0
  0
VERTEX
  8
0
 62
7
  6
CONTINUOUS
 10
25.6013076431
 20
192.6430579181
  0
VERTEX
  8
0
 62
7
  6
CONTINUOUS
 10
25.6333795777
 20
192.7672662445
  0
VERTEX
  8
0
 62
7
  6
CONTINUOUS
 10
25.6630550993
 20
192.8989814135
  0
VERTEX
  8
0
 62
7
  6
CONTINUOUS
 10
25.6902186017
 20
193.0375371605
  0
VERTEX
  8
0
 62
7
  6
CONTINUOUS
 10
25.7147703033
 20
193.1822619672
  0
VERTEX
  8
0
 62
7
  6
CONTINUOUS
 10
25.7366236157
 20
193.3324760339
  0
VERTEX
  8
0
 62
7
  6
CONTINUOUS
 10
25.7557043725
 20
193.4874941741
  0
VERTEX
  8
0
 62
7
  6
CONTINUOUS
 10
25.7719501649
 20
193.6466287582
  0
VERTEX
  8
0
 62
7
  6
CONTINUOUS
 10
25.7853096398
 20
193.8091918865
  0
VERTEX
  8
0
 62
7
  6
CONTINUOUS
 10
25.7957417572
 20
193.9744959015
  0
VERTEX
  8
0
 62
7
  6
CONTINUOUS
 10
25.8032152581
 20
194.1418547999
  0
VERTEX
  8
0
 62
7
  6
CONTINUOUS
 10
25.8077080943
 20
194.3105820933
  0
VERTEX
  8
0
 62
7
  6
CONTINUOUS
 10
25.809207226
 20
194.4799999999
  0
SEQEND
  0
POLYLINE
  8
0
 62
7
  6
CONTINUOUS
 66
1
 70
0
  0
VERTEX
  8
0
 62
7
  6
CONTINUOUS
 10
25.6013076431
 20
192.6430579181
  0
VERTEX
  8
0
 62
7
  6
CONTINUOUS
 10
25.539240083
 20
192.4202428384
  0
VERTEX
  8
0
 62
7
  6
CONTINUOUS
 10
25.513100074
 20
192.3245224625
  0
VERTEX
  8
0
 62
7
  6
CONTINUOUS
 10
25.4909827174
 20
192.2394209332
  0
VERTEX
  8
0
 62
7
  6
CONTINUOUS
 10
25.4733374629
 20
192.1650099357
  0
VERTEX
  8
0
 62
7
  6
CONTINUOUS
 10
25.4604666808
 20
192.1010874987
  0
VERTEX
  8
0
 62
7
  6
CONTINUOUS
 10
25.4526362452
 20
192.0476340303
  0
VERTEX
  8
0
 62
7
  6
CONTINUOUS
 10
25.45
 20
192.0044199921
  0
SEQEND
  0
LINE
  8
0
 62
7
  6
CONTINUOUS
 10
25.5392409896
 20
196.7397538889
 11
25.6013076431
 21
196.5169420816
  0
POLYLINE
  8
0
 62
7
  6
CONTINUOUS
 66
1
 70
0
  0
VERTEX
  8
0
 62
7
  6
CONTINUOUS
 10
31.15
 20
192.0044199921
  0
VERTEX
  8
0
 62
7
  6
CONTINUOUS
 10
31.1473638318
 20
192.0476333224
  0
VERTEX
  8
0
 62
7
  6
CONTINUOUS
 10
31.1395333315
 20
192.1010874289
  0
VERTEX
  8
0
 62
7
  6
CONTINUOUS
 10
31.126662141
 20
192.1650117251
  0
VERTEX
  8
0
 62
7
  6
CONTINUOUS
 10
31.1090164023
 20
192.2394244531
  0
VERTEX
  8
0
 62
7
  6
CONTINUOUS
 10
31.08689879
 20
192.3245267053
  0
VERTEX
  8
0
 62
7
  6
CONTINUOUS
 10
31.0607589034
 20
192.4202464973
  0
SEQEND
  0
LINE
  8
0
 62
7
  6
CONTINUOUS
 10
31.15
 20
188.8299999999
 11
31.15
 21
192.0044199921
  0
LINE
  8
0
 62
7
  6
CONTINUOUS
 10
31.15
 20
197.1555800077
 11
31.15
 21
200.3299999999
  0
LINE
  8
0
 62
7
  6
CONTINUOUS
 10
31.8684144521
 20
194.6799999999
 11
31.8684144521
 21
194.4799999999
  0
POLYLINE
  8
0
 62
7
  6
CONTINUOUS
 66
1
 70
0
  0
VERTEX
  8
0
 62
7
  6
CONTINUOUS
 10
31.8684144521
 20
194.4799999999
  0
VERTEX
  8
0
 62
7
  6
CONTINUOUS
 10
31.8668567806
 20
194.3073096916
  0
VERTEX
  8
0
 62
7
  6
CONTINUOUS
 10
31.862188467
 20
194.1353447446
  0
VERTEX
  8
0
 62
7
  6
CONTINUOUS
 10
31.8544235523
 20
193.9648285048
  0
VERTEX
  8
0
 62
7
  6
CONTINUOUS
 10
31.8435857365
 20
193.7964871375
  0
VERTEX
  8
0
 62
7
  6
CONTINUOUS
 10
31.8297088242
 20
193.6310486614
  0
VERTEX
  8
0
 62
7
  6
CONTINUOUS
 10
31.8128371528
 20
193.4692413673
  0
VERTEX
  8
0
 62
7
  6
CONTINUOUS
 10
31.7930263604
 20
193.3117946093
  0
VERTEX
  8
0
 62
7
  6
CONTINUOUS
 10
31.7703441226
 20
193.1594369811
  0
VERTEX
  8
0
 62
7
  6
CONTINUOUS
 10
31.7448710839
 20
193.0128947935
  0
VERTEX
  8
0
 62
7
  6
CONTINUOUS
 10
31.7167013375
 20
192.8728870668
  0
VERTEX
  8
0
 62
7
  6
CONTINUOUS
 10
31.6859433305
 20
192.7401229372
  0
VERTEX
  8
0
 62
7
  6
CONTINUOUS
 10
31.652720517
 20
192.6152968732
  0
VERTEX
  8
0
 62
7
  6
CONTINUOUS
 10
31.6171719451
 20
192.499083336
  0
VERTEX
  8
0
 62
7
  6
CONTINUOUS
 10
31.579452203
 20
192.3921293363
  0
VERTEX
  8
0
 62
7
  6
CONTINUOUS
 10
31.539731506
 20
192.2950481015
  0
VERTEX
  8
0
 62
7
  6
CONTINUOUS
 10
31.4981955359
 20
192.2084121804
  0
VERTEX
  8
0
 62
7
  6
CONTINUOUS
 10
31.4550448447
 20
192.1327459163
  0
VERTEX
  8
0
 62
7
  6
CONTINUOUS
 10
31.410493716
 20
192.0685177163
  0
VERTEX
  8
0
 62
7
  6
CONTINUOUS
 10
31.3647688026
 20
192.0161331042
  0
VERTEX
  8
0
 62
7
  6
CONTINUOUS
 10
31.3181196034
 20
191.9759372426
  0
SEQEND
  0
POLYLINE
  8
0
 62
7
  6
CONTINUOUS
 66
1
 70
0
  0
VERTEX
  8
0
 62
7
  6
CONTINUOUS
 10
30.9986923569
 20
196.5169420816
  0
VERTEX
  8
0
 62
7
  6
CONTINUOUS
 10
31.0607579467
 20
196.7397500488
  0
VERTEX
  8
0
 62
7
  6
CONTINUOUS
 10
31.0868953278
 20
196.835460364
  0
VERTEX
  8
0
 62
7
  6
CONTINUOUS
 10
31.1090125257
 20
196.9205600454
  0
VERTEX
  8
0
 62
7
  6
CONTINUOUS
 10
31.1266596101
 20
196.9949768412
  0
VERTEX
  8
0
 62
7
  6
CONTINUOUS
 10
31.1395326405
 20
197.0589086665
  0
VERTEX
  8
0
 62
7
  6
CONTINUOUS
 10
31.1473640687
 20
197.1123688546
  0
VERTEX
  8
0
 62
7
  6
CONTINUOUS
 10
31.15
 20
197.1555800077
  0
SEQEND
  0
LINE
  8
0
 62
7
  6
CONTINUOUS
 10
31.0607589034
 20
192.4202464973
 11
30.9986923569
 21
192.6430579181
  0
POLYLINE
  8
0
 62
7
  6
CONTINUOUS
 66
1
 70
0
  0
VERTEX
  8
0
 62
7
  6
CONTINUOUS
 10
30.9986923569
 20
192.6430579181
  0
VERTEX
  8
0
 62
7
  6
CONTINUOUS
 10
30.9666204221
 20
192.7672662451
  0
VERTEX
  8
0
 62
7
  6
CONTINUOUS
 10
30.9369449005
 20
192.8989814141
  0
VERTEX
  8
0
 62
7
  6
CONTINUOUS
 10
30.9097813982
 20
193.0375371612
  0
VERTEX
  8
0
 62
7
  6
CONTINUOUS
 10
30.8852296966
 20
193.1822619679
  0
VERTEX
  8
0
 62
7
  6
CONTINUOUS
 10
30.8633763842
 20
193.3324760345
  0
VERTEX
  8
0
 62
7
  6
CONTINUOUS
 10
30.8442956275
 20
193.4874941746
  0
VERTEX
  8
0
 62
7
  6
CONTINUOUS
 10
30.828049835
 20
193.6466287586
  0
VERTEX
  8
0
 62
7
  6
CONTINUOUS
 10
30.8146903602
 20
193.8091918868
  0
VERTEX
  8
0
 62
7
  6
CONTINUOUS
 10
30.8042582428
 20
193.9744959016
  0
VERTEX
  8
0
 62
7
  6
CONTINUOUS
 10
30.7967847419
 20
194.1418548
  0
VERTEX
  8
0
 62
7
  6
CONTINUOUS
 10
30.7922919057
 20
194.3105820933
  0
VERTEX
  8
0
 62
7
  6
CONTINUOUS
 10
30.790792774
 20
194.4799999999
  0
SEQEND
  0
POLYLINE
  8
0
 62
7
  6
CONTINUOUS
 66
1
 70
0
  0
VERTEX
  8
0
 62
7
  6
CONTINUOUS
 10
38.15
 20
197.1555800077
  0
VERTEX
  8
0
 62
7
  6
CONTINUOUS
 10
38.1526360137
 20
197.1123680968
  0
VERTEX
  8
0
 62
7
  6
CONTINUOUS
 10
38.1604673679
 20
197.0589086192
  0
VERTEX
  8
0
 62
7
  6
CONTINUOUS
 10
38.1733399844
 20
196.9949786733
  0
VERTEX
  8
0
 62
7
  6
CONTINUOUS
 10
38.1909865762
 20
196.9205636367
  0
VERTEX
  8
0
 62
7
  6
CONTINUOUS
 10
38.2131035164
 20
196.8354646807
  0
VERTEX
  8
0
 62
7
  6
CONTINUOUS
 10
38.2392409896
 20
196.7397538889
  0
SEQEND
  0
POLYLINE
  8
0
 62
7
  6
CONTINUOUS
 66
1
 70
0
  0
VERTEX
  8
0
 62
7
  6
CONTINUOUS
 10
37.4315855479
 20
194.4799999999
  0
VERTEX
  8
0
 62
7
  6
CONTINUOUS
 10
37.4331432194
 20
194.3073096916
  0
VERTEX
  8
0
 62
7
  6
CONTINUOUS
 10
37.437811533
 20
194.1353447446
  0
VERTEX
  8
0
 62
7
  6
CONTINUOUS
 10
37.4455764477
 20
193.9648285048
  0
VERTEX
  8
0
 62
7
  6
CONTINUOUS
 10
37.4564142635
 20
193.7964871375
  0
VERTEX
  8
0
 62
7
  6
CONTINUOUS
 10
37.4702911758
 20
193.6310486614
  0
VERTEX
  8
0
 62
7
  6
CONTINUOUS
 10
37.4871628472
 20
193.4692413673
  0
VERTEX
  8
0
 62
7
  6
CONTINUOUS
 10
37.5069736396
 20
193.3117946093
  0
VERTEX
  8
0
 62
7
  6
CONTINUOUS
 10
37.5296558774
 20
193.1594369811
  0
VERTEX
  8
0
 62
7
  6
CONTINUOUS
 10
37.5551289161
 20
193.0128947935
  0
VERTEX
  8
0
 62
7
  6
CONTINUOUS
 10
37.5832986625
 20
192.8728870668
  0
VERTEX
  8
0
 62
7
  6
CONTINUOUS
 10
37.6140566695
 20
192.7401229372
  0
VERTEX
  8
0
 62
7
  6
CONTINUOUS
 10
37.647279483
 20
192.6152968732
  0
VERTEX
  8
0
 62
7
  6
CONTINUOUS
 10
37.6828280549
 20
192.499083336
  0
VERTEX
  8
0
 62
7
  6
CONTINUOUS
 10
37.720547797
 20
192.3921293363
  0
VERTEX
  8
0
 62
7
  6
CONTINUOUS
 10
37.760268494
 20
192.2950481015
  0
VERTEX
  8
0
 62
7
  6
CONTINUOUS
 10
37.8018044641
 20
192.2084121804
  0
VERTEX
  8
0
 62
7
  6
CONTINUOUS
 10
37.8449551553
 20
192.1327459163
  0
VERTEX
  8
0
 62
7
  6
CONTINUOUS
 10
37.889506284
 20
192.0685177163
  0
VERTEX
  8
0
 62
7
  6
CONTINUOUS
 10
37.9352311974
 20
192.0161331042
  0
VERTEX
  8
0
 62
7
  6
CONTINUOUS
 10
37.9818803966
 20
191.9759372426
  0
SEQEND
  0
POLYLINE
  8
0
 62
7
  6
CONTINUOUS
 66
1
 70
0
  0
VERTEX
  8
0
 62
7
  6
CONTINUOUS
 10
38.509207226
 20
194.6799999999
  0
VERTEX
  8
0
 62
7
  6
CONTINUOUS
 10
38.5077080868
 20
194.8494183345
  0
VERTEX
  8
0
 62
7
  6
CONTINUOUS
 10
38.503215232
 20
195.0181459314
  0
VERTEX
  8
0
 62
7
  6
CONTINUOUS
 10
38.4957417078
 20
195.1855050147
  0
VERTEX
  8
0
 62
7
  6
CONTINUOUS
 10
38.4853095673
 20
195.3508091123
  0
VERTEX
  8
0
 62
7
  6
CONTINUOUS
 10
38.4719500738
 20
195.5133722322
  0
VERTEX
  8
0
 62
7
  6
CONTINUOUS
 10
38.4557042701
 20
195.6725067366
  0
VERTEX
  8
0
 62
7
  6
CONTINUOUS
 10
38.4366235133
 20
195.8275247298
  0
VERTEX
  8
0
 62
7
  6
CONTINUOUS
 10
38.4147702165
 20
195.9777385844
  0
VERTEX
  8
0
 62
7
  6
CONTINUOUS
 10
38.3902185451
 20
196.1224631493
  0
VERTEX
  8
0
 62
7
  6
CONTINUOUS
 10
38.3630550777
 20
196.2610186891
  0
VERTEX
  8
0
 62
7
  6
CONTINUOUS
 10
38.3333795807
 20
196.392733743
  0
VERTEX
  8
0
 62
7
  6
CONTINUOUS
 10
38.3013076431
 20
196.5169420816
  0
SEQEND
  0
LINE
  8
0
 62
7
  6
CONTINUOUS
 10
37.4315855479
 20
194.6799999999
 11
37.4315855479
 21
194.4799999999
  0
LINE
  8
0
 62
7
  6
CONTINUOUS
 10
38.15
 20
188.8299999999
 11
38.15
 21
192.0044199921
  0
LINE
  8
0
 62
7
  6
CONTINUOUS
 10
38.15
 20
197.1555800077
 11
38.15
 21
200.3299999999
  0
LINE
  8
0
 62
7
  6
CONTINUOUS
 10
38.509207226
 20
194.4799999999
 11
38.509207226
 21
194.6799999999
  0
POLYLINE
  8
0
 62
7
  6
CONTINUOUS
 66
1
 70
0
  0
VERTEX
  8
0
 62
7
  6
CONTINUOUS
 10
38.3013076431
 20
192.6430579181
  0
VERTEX
  8
0
 62
7
  6
CONTINUOUS
 10
38.3333795777
 20
192.7672662445
  0
VERTEX
  8
0
 62
7
  6
CONTINUOUS
 10
38.3630550993
 20
192.8989814135
  0
VERTEX
  8
0
 62
7
  6
CONTINUOUS
 10
38.3902186017
 20
193.0375371605
  0
VERTEX
  8
0
 62
7
  6
CONTINUOUS
 10
38.4147703033
 20
193.1822619672
  0
VERTEX
  8
0
 62
7
  6
CONTINUOUS
 10
38.4366236157
 20
193.3324760339
  0
VERTEX
  8
0
 62
7
  6
CONTINUOUS
 10
38.4557043725
 20
193.4874941741
  0
VERTEX
  8
0
 62
7
  6
CONTINUOUS
 10
38.4719501649
 20
193.6466287582
  0
VERTEX
  8
0
 62
7
  6
CONTINUOUS
 10
38.4853096398
 20
193.8091918865
  0
VERTEX
  8
0
 62
7
  6
CONTINUOUS
 10
38.4957417572
 20
193.9744959015
  0
VERTEX
  8
0
 62
7
  6
CONTINUOUS
 10
38.5032152581
 20
194.1418547999
  0
VERTEX
  8
0
 62
7
  6
CONTINUOUS
 10
38.5077080943
 20
194.3105820933
  0
VERTEX
  8
0
 62
7
  6
CONTINUOUS
 10
38.509207226
 20
194.4799999999
  0
SEQEND
  0
POLYLINE
  8
0
 62
7
  6
CONTINUOUS
 66
1
 70
0
  0
VERTEX
  8
0
 62
7
  6
CONTINUOUS
 10
38.3013076431
 20
192.6430579181
  0
VERTEX
  8
0
 62
7
  6
CONTINUOUS
 10
38.239240083
 20
192.4202428384
  0
VERTEX
  8
0
 62
7
  6
CONTINUOUS
 10
38.213100074
 20
192.3245224625
  0
VERTEX
  8
0
 62
7
  6
CONTINUOUS
 10
38.1909827174
 20
192.2394209332
  0
VERTEX
  8
0
 62
7
  6
CONTINUOUS
 10
38.1733374629
 20
192.1650099357
  0
VERTEX
  8
0
 62
7
  6
CONTINUOUS
 10
38.1604666808
 20
192.1010874987
  0
VERTEX
  8
0
 62
7
  6
CONTINUOUS
 10
38.1526362452
 20
192.0476340303
  0
VERTEX
  8
0
 62
7
  6
CONTINUOUS
 10
38.15
 20
192.0044199921
  0
SEQEND
  0
LINE
  8
0
 62
7
  6
CONTINUOUS
 10
38.2392409896
 20
196.7397538889
 11
38.3013076431
 21
196.5169420816
  0
POLYLINE
  8
0
 62
7
  6
CONTINUOUS
 66
1
 70
0
  0
VERTEX
  8
0
 62
7
  6
CONTINUOUS
 10
43.85
 20
192.0044199921
  0
VERTEX
  8
0
 62
7
  6
CONTINUOUS
 10
43.8473638318
 20
192.0476333224
  0
VERTEX
  8
0
 62
7
  6
CONTINUOUS
 10
43.8395333315
 20
192.1010874289
  0
VERTEX
  8
0
 62
7
  6
CONTINUOUS
 10
43.826662141
 20
192.1650117251
  0
VERTEX
  8
0
 62
7
  6
CONTINUOUS
 10
43.8090164023
 20
192.2394244531
  0
VERTEX
  8
0
 62
7
  6
CONTINUOUS
 10
43.78689879
 20
192.3245267053
  0
VERTEX
  8
0
 62
7
  6
CONTINUOUS
 10
43.7607589034
 20
192.4202464973
  0
SEQEND
  0
LINE
  8
0
 62
7
  6
CONTINUOUS
 10
43.490792774
 20
194.4799999999
 11
43.490792774
 21
194.6799999999
  0
LINE
  8
0
 62
7
  6
CONTINUOUS
 10
43.85
 20
188.8299999999
 11
43.85
 21
192.0044199921
  0
LINE
  8
0
 62
7
  6
CONTINUOUS
 10
43.85
 20
197.1555800077
 11
43.85
 21
200.3299999999
  0
LINE
  8
0
 62
7
  6
CONTINUOUS
 10
44.5684144521
 20
194.6799999999
 11
44.5684144521
 21
194.4799999999
  0
POLYLINE
  8
0
 62
7
  6
CONTINUOUS
 66
1
 70
0
  0
VERTEX
  8
0
 62
7
  6
CONTINUOUS
 10
43.490792774
 20
194.6799999999
  0
VERTEX
  8
0
 62
7
  6
CONTINUOUS
 10
43.4922919132
 20
194.8494183345
  0
VERTEX
  8
0
 62
7
  6
CONTINUOUS
 10
43.496784768
 20
195.0181459314
  0
VERTEX
  8
0
 62
7
  6
CONTINUOUS
 10
43.5042582921
 20
195.1855050145
  0
VERTEX
  8
0
 62
7
  6
CONTINUOUS
 10
43.5146904326
 20
195.350809112
  0
VERTEX
  8
0
 62
7
  6
CONTINUOUS
 10
43.5280499262
 20
195.5133722318
  0
VERTEX
  8
0
 62
7
  6
CONTINUOUS
 10
43.5442957299
 20
195.6725067361
  0
VERTEX
  8
0
 62
7
  6
CONTINUOUS
 10
43.5633764866
 20
195.8275247292
  0
VERTEX
  8
0
 62
7
  6
CONTINUOUS
 10
43.5852297834
 20
195.9777385838
  0
VERTEX
  8
0
 62
7
  6
CONTINUOUS
 10
43.6097814548
 20
196.1224631486
  0
VERTEX
  8
0
 62
7
  6
CONTINUOUS
 10
43.6369449221
 20
196.2610186884
  0
VERTEX
  8
0
 62
7
  6
CONTINUOUS
 10
43.6666204191
 20
196.3927337424
  0
VERTEX
  8
0
 62
7
  6
CONTINUOUS
 10
43.6986923569
 20
196.5169420816
  0
SEQEND
  0
POLYLINE
  8
0
 62
7
  6
CONTINUOUS
 66
1
 70
0
  0
VERTEX
  8
0
 62
7
  6
CONTINUOUS
 10
44.5684144521
 20
194.4799999999
  0
VERTEX
  8
0
 62
7
  6
CONTINUOUS
 10
44.5668567806
 20
194.3073096916
  0
VERTEX
  8
0
 62
7
  6
CONTINUOUS
 10
44.562188467
 20
194.1353447446
  0
VERTEX
  8
0
 62
7
  6
CONTINUOUS
 10
44.5544235523
 20
193.9648285048
  0
VERTEX
  8
0
 62
7
  6
CONTINUOUS
 10
44.5435857365
 20
193.7964871375
  0
VERTEX
  8
0
 62
7
  6
CONTINUOUS
 10
44.5297088242
 20
193.6310486614
  0
VERTEX
  8
0
 62
7
  6
CONTINUOUS
 10
44.5128371528
 20
193.4692413673
  0
VERTEX
  8
0
 62
7
  6
CONTINUOUS
 10
44.4930263604
 20
193.3117946093
  0
VERTEX
  8
0
 62
7
  6
CONTINUOUS
 10
44.4703441226
 20
193.1594369811
  0
VERTEX
  8
0
 62
7
  6
CONTINUOUS
 10
44.4448710839
 20
193.0128947935
  0
VERTEX
  8
0
 62
7
  6
CONTINUOUS
 10
44.4167013375
 20
192.8728870668
  0
VERTEX
  8
0
 62
7
  6
CONTINUOUS
 10
44.3859433305
 20
192.7401229372
  0
VERTEX
  8
0
 62
7
  6
CONTINUOUS
 10
44.352720517
 20
192.6152968732
  0
VERTEX
  8
0
 62
7
  6
CONTINUOUS
 10
44.3171719451
 20
192.499083336
  0
VERTEX
  8
0
 62
7
  6
CONTINUOUS
 10
44.279452203
 20
192.3921293363
  0
VERTEX
  8
0
 62
7
  6
CONTINUOUS
 10
44.239731506
 20
192.2950481015
  0
VERTEX
  8
0
 62
7
  6
CONTINUOUS
 10
44.1981955359
 20
192.2084121804
  0
VERTEX
  8
0
 62
7
  6
CONTINUOUS
 10
44.1550448447
 20
192.1327459163
  0
VERTEX
  8
0
 62
7
  6
CONTINUOUS
 10
44.110493716
 20
192.0685177163
  0
VERTEX
  8
0
 62
7
  6
CONTINUOUS
 10
44.0647688026
 20
192.0161331042
  0
VERTEX
  8
0
 62
7
  6
CONTINUOUS
 10
44.0181196034
 20
191.9759372426
  0
SEQEND
  0
POLYLINE
  8
0
 62
7
  6
CONTINUOUS
 66
1
 70
0
  0
VERTEX
  8
0
 62
7
  6
CONTINUOUS
 10
43.6986923569
 20
196.5169420816
  0
VERTEX
  8
0
 62
7
  6
CONTINUOUS
 10
43.7607579467
 20
196.7397500488
  0
VERTEX
  8
0
 62
7
  6
CONTINUOUS
 10
43.7868953278
 20
196.835460364
  0
VERTEX
  8
0
 62
7
  6
CONTINUOUS
 10
43.8090125257
 20
196.9205600454
  0
VERTEX
  8
0
 62
7
  6
CONTINUOUS
 10
43.8266596101
 20
196.9949768412
  0
VERTEX
  8
0
 62
7
  6
CONTINUOUS
 10
43.8395326405
 20
197.0589086665
  0
VERTEX
  8
0
 62
7
  6
CONTINUOUS
 10
43.8473640687
 20
197.1123688546
  0
VERTEX
  8
0
 62
7
  6
CONTINUOUS
 10
43.85
 20
197.1555800077
  0
SEQEND
  0
LINE
  8
0
 62
7
  6
CONTINUOUS
 10
43.7607589034
 20
192.4202464973
 11
43.6986923569
 21
192.6430579181
  0
POLYLINE
  8
0
 62
7
  6
CONTINUOUS
 66
1
 70
0
  0
VERTEX
  8
0
 62
7
  6
CONTINUOUS
 10
43.6986923569
 20
192.6430579181
  0
VERTEX
  8
0
 62
7
  6
CONTINUOUS
 10
43.6666204221
 20
192.7672662451
  0
VERTEX
  8
0
 62
7
  6
CONTINUOUS
 10
43.6369449005
 20
192.8989814141
  0
VERTEX
  8
0
 62
7
  6
CONTINUOUS
 10
43.6097813982
 20
193.0375371612
  0
VERTEX
  8
0
 62
7
  6
CONTINUOUS
 10
43.5852296966
 20
193.1822619679
  0
VERTEX
  8
0
 62
7
  6
CONTINUOUS
 10
43.5633763842
 20
193.3324760345
  0
VERTEX
  8
0
 62
7
  6
CONTINUOUS
 10
43.5442956275
 20
193.4874941746
  0
VERTEX
  8
0
 62
7
  6
CONTINUOUS
 10
43.528049835
 20
193.6466287586
  0
VERTEX
  8
0
 62
7
  6
CONTINUOUS
 10
43.5146903602
 20
193.8091918868
  0
VERTEX
  8
0
 62
7
  6
CONTINUOUS
 10
43.5042582428
 20
193.9744959016
  0
VERTEX
  8
0
 62
7
  6
CONTINUOUS
 10
43.4967847419
 20
194.1418548
  0
VERTEX
  8
0
 62
7
  6
CONTINUOUS
 10
43.4922919057
 20
194.3105820933
  0
VERTEX
  8
0
 62
7
  6
CONTINUOUS
 10
43.490792774
 20
194.4799999999
  0
SEQEND
  0
POLYLINE
  8
0
 62
7
  6
CONTINUOUS
 66
1
 70
0
  0
VERTEX
  8
0
 62
7
  6
CONTINUOUS
 10
50.85
 20
197.1555800077
  0
VERTEX
  8
0
 62
7
  6
CONTINUOUS
 10
50.8526360137
 20
197.1123680968
  0
VERTEX
  8
0
 62
7
  6
CONTINUOUS
 10
50.8604673679
 20
197.0589086192
  0
VERTEX
  8
0
 62
7
  6
CONTINUOUS
 10
50.8733399844
 20
196.9949786733
  0
VERTEX
  8
0
 62
7
  6
CONTINUOUS
 10
50.8909865762
 20
196.9205636367
  0
VERTEX
  8
0
 62
7
  6
CONTINUOUS
 10
50.9131035164
 20
196.8354646807
  0
VERTEX
  8
0
 62
7
  6
CONTINUOUS
 10
50.9392409896
 20
196.7397538889
  0
SEQEND
  0
POLYLINE
  8
0
 62
7
  6
CONTINUOUS
 66
1
 70
0
  0
VERTEX
  8
0
 62
7
  6
CONTINUOUS
 10
50.1315855479
 20
194.4799999999
  0
VERTEX
  8
0
 62
7
  6
CONTINUOUS
 10
50.1331432194
 20
194.3073096916
  0
VERTEX
  8
0
 62
7
  6
CONTINUOUS
 10
50.137811533
 20
194.1353447446
  0
VERTEX
  8
0
 62
7
  6
CONTINUOUS
 10
50.1455764477
 20
193.9648285048
  0
VERTEX
  8
0
 62
7
  6
CONTINUOUS
 10
50.1564142635
 20
193.7964871375
  0
VERTEX
  8
0
 62
7
  6
CONTINUOUS
 10
50.1702911758
 20
193.6310486614
  0
VERTEX
  8
0
 62
7
  6
CONTINUOUS
 10
50.1871628472
 20
193.4692413673
  0
VERTEX
  8
0
 62
7
  6
CONTINUOUS
 10
50.2069736396
 20
193.3117946093
  0
VERTEX
  8
0
 62
7
  6
CONTINUOUS
 10
50.2296558774
 20
193.1594369811
  0
VERTEX
  8
0
 62
7
  6
CONTINUOUS
 10
50.2551289161
 20
193.0128947935
  0
VERTEX
  8
0
 62
7
  6
CONTINUOUS
 10
50.2832986625
 20
192.8728870668
  0
VERTEX
  8
0
 62
7
  6
CONTINUOUS
 10
50.3140566695
 20
192.7401229372
  0
VERTEX
  8
0
 62
7
  6
CONTINUOUS
 10
50.347279483
 20
192.6152968732
  0
VERTEX
  8
0
 62
7
  6
CONTINUOUS
 10
50.3828280549
 20
192.499083336
  0
VERTEX
  8
0
 62
7
  6
CONTINUOUS
 10
50.420547797
 20
192.3921293363
  0
VERTEX
  8
0
 62
7
  6
CONTINUOUS
 10
50.460268494
 20
192.2950481015
  0
VERTEX
  8
0
 62
7
  6
CONTINUOUS
 10
50.5018044641
 20
192.2084121804
  0
VERTEX
  8
0
 62
7
  6
CONTINUOUS
 10
50.5449551553
 20
192.1327459163
  0
VERTEX
  8
0
 62
7
  6
CONTINUOUS
 10
50.589506284
 20
192.0685177163
  0
VERTEX
  8
0
 62
7
  6
CONTINUOUS
 10
50.6352311974
 20
192.0161331042
  0
VERTEX
  8
0
 62
7
  6
CONTINUOUS
 10
50.6818803966
 20
191.9759372426
  0
SEQEND
  0
POLYLINE
  8
0
 62
7
  6
CONTINUOUS
 66
1
 70
0
  0
VERTEX
  8
0
 62
7
  6
CONTINUOUS
 10
51.209207226
 20
194.6799999999
  0
VERTEX
  8
0
 62
7
  6
CONTINUOUS
 10
51.2077080868
 20
194.8494183345
  0
VERTEX
  8
0
 62
7
  6
CONTINUOUS
 10
51.203215232
 20
195.0181459314
  0
VERTEX
  8
0
 62
7
  6
CONTINUOUS
 10
51.1957417078
 20
195.1855050147
  0
VERTEX
  8
0
 62
7
  6
CONTINUOUS
 10
51.1853095673
 20
195.3508091123
  0
VERTEX
  8
0
 62
7
  6
CONTINUOUS
 10
51.1719500738
 20
195.5133722322
  0
VERTEX
  8
0
 62
7
  6
CONTINUOUS
 10
51.1557042701
 20
195.6725067366
  0
VERTEX
  8
0
 62
7
  6
CONTINUOUS
 10
51.1366235133
 20
195.8275247298
  0
VERTEX
  8
0
 62
7
  6
CONTINUOUS
 10
51.1147702165
 20
195.9777385844
  0
VERTEX
  8
0
 62
7
  6
CONTINUOUS
 10
51.0902185451
 20
196.1224631493
  0
VERTEX
  8
0
 62
7
  6
CONTINUOUS
 10
51.0630550777
 20
196.2610186891
  0
VERTEX
  8
0
 62
7
  6
CONTINUOUS
 10
51.0333795807
 20
196.392733743
  0
VERTEX
  8
0
 62
7
  6
CONTINUOUS
 10
51.0013076431
 20
196.5169420816
  0
SEQEND
  0
LINE
  8
0
 62
7
  6
CONTINUOUS
 10
50.1315855479
 20
194.6799999999
 11
50.1315855479
 21
194.4799999999
  0
LINE
  8
0
 62
7
  6
CONTINUOUS
 10
50.85
 20
188.8299999999
 11
50.85
 21
192.0044199921
  0
LINE
  8
0
 62
7
  6
CONTINUOUS
 10
50.85
 20
197.1555800077
 11
50.85
 21
200.3299999999
  0
LINE
  8
0
 62
7
  6
CONTINUOUS
 10
51.209207226
 20
194.4799999999
 11
51.209207226
 21
194.6799999999
  0
POLYLINE
  8
0
 62
7
  6
CONTINUOUS
 66
1
 70
0
  0
VERTEX
  8
0
 62
7
  6
CONTINUOUS
 10
37.9818803966
 20
197.1840627572
  0
VERTEX
  8
0
 62
7
  6
CONTINUOUS
 10
37.9352312905
 20
197.1438669889
  0
VERTEX
  8
0
 62
7
  6
CONTINUOUS
 10
37.8895064265
 20
197.0914824675
  0
VERTEX
  8
0
 62
7
  6
CONTINUOUS
 10
37.844955311
 20
197.027254332
  0
VERTEX
  8
0
 62
7
  6
CONTINUOUS
 10
37.8018046044
 20
196.9515880883
  0
VERTEX
  8
0
 62
7
  6
CONTINUOUS
 10
37.7602685961
 20
196.8649521294
  0
VERTEX
  8
0
 62
7
  6
CONTINUOUS
 10
37.7205478449
 20
196.76787079
  0
VERTEX
  8
0
 62
7
  6
CONTINUOUS
 10
37.6828280416
 20
196.660916623
  0
VERTEX
  8
0
 62
7
  6
CONTINUOUS
 10
37.6472794078
 20
196.5447028631
  0
VERTEX
  8
0
 62
7
  6
CONTINUOUS
 10
37.6140565371
 20
196.4198765294
  0
VERTEX
  8
0
 62
7
  6
CONTINUOUS
 10
37.5832984833
 20
196.2871121032
  0
VERTEX
  8
0
 62
7
  6
CONTINUOUS
 10
37.555128704
 20
196.1471040733
  0
VERTEX
  8
0
 62
7
  6
CONTINUOUS
 10
37.5296556476
 20
196.0005615926
  0
VERTEX
  8
0
 62
7
  6
CONTINUOUS
 10
37.5069734089
 20
195.848203708
  0
VERTEX
  8
0
 62
7
  6
CONTINUOUS
 10
37.487162633
 20
195.6907567676
  0
VERTEX
  8
0
 62
7
  6
CONTINUOUS
 10
37.4702909929
 20
195.5289493921
  0
VERTEX
  8
0
 62
7
  6
CONTINUOUS
 10
37.4564141222
 20
195.3635109545
  0
VERTEX
  8
0
 62
7
  6
CONTINUOUS
 10
37.4455763535
 20
195.1951697794
  0
VERTEX
  8
0
 62
7
  6
CONTINUOUS
 10
37.4378114842
 20
195.0246539106
  0
VERTEX
  8
0
 62
7
  6
CONTINUOUS
 10
37.4331432053
 20
194.8526895324
  0
VERTEX
  8
0
 62
7
  6
CONTINUOUS
 10
37.4315855479
 20
194.6799999999
  0
SEQEND
  0
POLYLINE
  8
0
 62
7
  6
CONTINUOUS
 66
1
 70
0
  0
VERTEX
  8
0
 62
7
  6
CONTINUOUS
 10
31.3181196034
 20
197.1840627572
  0
VERTEX
  8
0
 62
7
  6
CONTINUOUS
 10
31.3647687095
 20
197.1438669889
  0
VERTEX
  8
0
 62
7
  6
CONTINUOUS
 10
31.4104935735
 20
197.0914824675
  0
VERTEX
  8
0
 62
7
  6
CONTINUOUS
 10
31.455044689
 20
197.027254332
  0
VERTEX
  8
0
 62
7
  6
CONTINUOUS
 10
31.4981953956
 20
196.9515880883
  0
VERTEX
  8
0
 62
7
  6
CONTINUOUS
 10
31.5397314039
 20
196.8649521294
  0
VERTEX
  8
0
 62
7
  6
CONTINUOUS
 10
31.5794521551
 20
196.76787079
  0
VERTEX
  8
0
 62
7
  6
CONTINUOUS
 10
31.6171719584
 20
196.660916623
  0
VERTEX
  8
0
 62
7
  6
CONTINUOUS
 10
31.6527205922
 20
196.5447028631
  0
VERTEX
  8
0
 62
7
  6
CONTINUOUS
 10
31.6859434629
 20
196.4198765294
  0
VERTEX
  8
0
 62
7
  6
CONTINUOUS
 10
31.7167015167
 20
196.2871121032
  0
VERTEX
  8
0
 62
7
  6
CONTINUOUS
 10
31.744871296
 20
196.1471040733
  0
VERTEX
  8
0
 62
7
  6
CONTINUOUS
 10
31.7703443524
 20
196.0005615926
  0
VERTEX
  8
0
 62
7
  6
CONTINUOUS
 10
31.7930265911
 20
195.848203708
  0
VERTEX
  8
0
 62
7
  6
CONTINUOUS
 10
31.812837367
 20
195.6907567676
  0
VERTEX
  8
0
 62
7
  6
CONTINUOUS
 10
31.8297090071
 20
195.5289493921
  0
VERTEX
  8
0
 62
7
  6
CONTINUOUS
 10
31.8435858778
 20
195.3635109545
  0
VERTEX
  8
0
 62
7
  6
CONTINUOUS
 10
31.8544236465
 20
195.1951697794
  0
VERTEX
  8
0
 62
7
  6
CONTINUOUS
 10
31.8621885158
 20
195.0246539106
  0
VERTEX
  8
0
 62
7
  6
CONTINUOUS
 10
31.8668567947
 20
194.8526895324
  0
VERTEX
  8
0
 62
7
  6
CONTINUOUS
 10
31.8684144521
 20
194.6799999999
  0
SEQEND
  0
POLYLINE
  8
0
 62
7
  6
CONTINUOUS
 66
1
 70
0
  0
VERTEX
  8
0
 62
7
  6
CONTINUOUS
 10
56.55
 20
192.0044199921
  0
VERTEX
  8
0
 62
7
  6
CONTINUOUS
 10
56.5473638318
 20
192.0476333224
  0
VERTEX
  8
0
 62
7
  6
CONTINUOUS
 10
56.5395333315
 20
192.1010874289
  0
VERTEX
  8
0
 62
7
  6
CONTINUOUS
 10
56.526662141
 20
192.1650117251
  0
VERTEX
  8
0
 62
7
  6
CONTINUOUS
 10
56.5090164023
 20
192.2394244531
  0
VERTEX
  8
0
 62
7
  6
CONTINUOUS
 10
56.48689879
 20
192.3245267053
  0
VERTEX
  8
0
 62
7
  6
CONTINUOUS
 10
56.4607589034
 20
192.4202464973
  0
SEQEND
  0
LINE
  8
0
 62
7
  6
CONTINUOUS
 10
56.190792774
 20
194.4799999999
 11
56.190792774
 21
194.6799999999
  0
POLYLINE
  8
0
 62
7
  6
CONTINUOUS
 66
1
 70
0
  0
VERTEX
  8
0
 62
7
  6
CONTINUOUS
 10
56.190792774
 20
194.6799999999
  0
VERTEX
  8
0
 62
7
  6
CONTINUOUS
 10
56.1922919132
 20
194.8494183345
  0
VERTEX
  8
0
 62
7
  6
CONTINUOUS
 10
56.196784768
 20
195.0181459314
  0
VERTEX
  8
0
 62
7
  6
CONTINUOUS
 10
56.2042582921
 20
195.1855050145
  0
VERTEX
  8
0
 62
7
  6
CONTINUOUS
 10
56.2146904326
 20
195.350809112
  0
VERTEX
  8
0
 62
7
  6
CONTINUOUS
 10
56.2280499262
 20
195.5133722318
  0
VERTEX
  8
0
 62
7
  6
CONTINUOUS
 10
56.2442957299
 20
195.6725067361
  0
VERTEX
  8
0
 62
7
  6
CONTINUOUS
 10
56.2633764866
 20
195.8275247292
  0
VERTEX
  8
0
 62
7
  6
CONTINUOUS
 10
56.2852297834
 20
195.9777385838
  0
VERTEX
  8
0
 62
7
  6
CONTINUOUS
 10
56.3097814548
 20
196.1224631486
  0
VERTEX
  8
0
 62
7
  6
CONTINUOUS
 10
56.3369449221
 20
196.2610186884
  0
VERTEX
  8
0
 62
7
  6
CONTINUOUS
 10
56.3666204191
 20
196.3927337424
  0
VERTEX
  8
0
 62
7
  6
CONTINUOUS
 10
56.3986923569
 20
196.5169420816
  0
SEQEND
  0
POLYLINE
  8
0
 62
7
  6
CONTINUOUS
 66
1
 70
0
  0
VERTEX
  8
0
 62
7
  6
CONTINUOUS
 10
51.0013076431
 20
192.6430579181
  0
VERTEX
  8
0
 62
7
  6
CONTINUOUS
 10
51.0333795777
 20
192.7672662445
  0
VERTEX
  8
0
 62
7
  6
CONTINUOUS
 10
51.0630550993
 20
192.8989814135
  0
VERTEX
  8
0
 62
7
  6
CONTINUOUS
 10
51.0902186017
 20
193.0375371605
  0
VERTEX
  8
0
 62
7
  6
CONTINUOUS
 10
51.1147703033
 20
193.1822619672
  0
VERTEX
  8
0
 62
7
  6
CONTINUOUS
 10
51.1366236157
 20
193.3324760339
  0
VERTEX
  8
0
 62
7
  6
CONTINUOUS
 10
51.1557043725
 20
193.4874941741
  0
VERTEX
  8
0
 62
7
  6
CONTINUOUS
 10
51.1719501649
 20
193.6466287582
  0
VERTEX
  8
0
 62
7
  6
CONTINUOUS
 10
51.1853096398
 20
193.8091918865
  0
VERTEX
  8
0
 62
7
  6
CONTINUOUS
 10
51.1957417572
 20
193.9744959015
  0
VERTEX
  8
0
 62
7
  6
CONTINUOUS
 10
51.2032152581
 20
194.1418547999
  0
VERTEX
  8
0
 62
7
  6
CONTINUOUS
 10
51.2077080943
 20
194.3105820933
  0
VERTEX
  8
0
 62
7
  6
CONTINUOUS
 10
51.209207226
 20
194.4799999999
  0
SEQEND
  0
POLYLINE
  8
0
 62
7
  6
CONTINUOUS
 66
1
 70
0
  0
VERTEX
  8
0
 62
7
  6
CONTINUOUS
 10
51.0013076431
 20
192.6430579181
  0
VERTEX
  8
0
 62
7
  6
CONTINUOUS
 10
50.939240083
 20
192.4202428384
  0
VERTEX
  8
0
 62
7
  6
CONTINUOUS
 10
50.913100074
 20
192.3245224625
  0
VERTEX
  8
0
 62
7
  6
CONTINUOUS
 10
50.8909827174
 20
192.2394209332
  0
VERTEX
  8
0
 62
7
  6
CONTINUOUS
 10
50.8733374629
 20
192.1650099357
  0
VERTEX
  8
0
 62
7
  6
CONTINUOUS
 10
50.8604666808
 20
192.1010874987
  0
VERTEX
  8
0
 62
7
  6
CONTINUOUS
 10
50.8526362452
 20
192.0476340303
  0
VERTEX
  8
0
 62
7
  6
CONTINUOUS
 10
50.85
 20
192.0044199921
  0
SEQEND
  0
POLYLINE
  8
0
 62
7
  6
CONTINUOUS
 66
1
 70
0
  0
VERTEX
  8
0
 62
7
  6
CONTINUOUS
 10
37.9818803966
 20
197.1840627572
  0
VERTEX
  8
0
 62
7
  6
CONTINUOUS
 10
38.0218132795
 20
197.2097035674
  0
VERTEX
  8
0
 62
7
  6
CONTINUOUS
 10
38.0561854149
 20
197.2249627847
  0
VERTEX
  8
0
 62
7
  6
CONTINUOUS
 10
38.0849637184
 20
197.2299999999
  0
SEQEND
  0
POLYLINE
  8
0
 62
7
  6
CONTINUOUS
 66
1
 70
0
  0
VERTEX
  8
0
 62
7
  6
CONTINUOUS
 10
31.3181196034
 20
191.9759372426
  0
VERTEX
  8
0
 62
7
  6
CONTINUOUS
 10
31.2781888178
 20
191.9502975853
  0
VERTEX
  8
0
 62
7
  6
CONTINUOUS
 10
31.2438158086
 20
191.9350376071
  0
VERTEX
  8
0
 62
7
  6
CONTINUOUS
 10
31.2150362816
 20
191.9299999999
  0
SEQEND
  0
LINE
  8
0
 62
7
  6
CONTINUOUS
 10
50.9392409896
 20
196.7397538889
 11
51.0013076431
 21
196.5169420816
  0
LINE
  8
0
 62
7
  6
CONTINUOUS
 10
56.55
 20
188.8299999999
 11
56.55
 21
192.0044199921
  0
LINE
  8
0
 62
7
  6
CONTINUOUS
 10
56.55
 20
197.1555800077
 11
56.55
 21
200.3299999999
  0
LINE
  8
0
 62
7
  6
CONTINUOUS
 10
57.2684144521
 20
194.6799999999
 11
57.2684144521
 21
194.4799999999
  0
POLYLINE
  8
0
 62
7
  6
CONTINUOUS
 66
1
 70
0
  0
VERTEX
  8
0
 62
7
  6
CONTINUOUS
 10
57.2684144521
 20
194.4799999999
  0
VERTEX
  8
0
 62
7
  6
CONTINUOUS
 10
57.2668567806
 20
194.3073096916
  0
VERTEX
  8
0
 62
7
  6
CONTINUOUS
 10
57.262188467
 20
194.1353447446
  0
VERTEX
  8
0
 62
7
  6
CONTINUOUS
 10
57.2544235523
 20
193.9648285048
  0
VERTEX
  8
0
 62
7
  6
CONTINUOUS
 10
57.2435857365
 20
193.7964871375
  0
VERTEX
  8
0
 62
7
  6
CONTINUOUS
 10
57.2297088242
 20
193.6310486614
  0
VERTEX
  8
0
 62
7
  6
CONTINUOUS
 10
57.2128371528
 20
193.4692413673
  0
VERTEX
  8
0
 62
7
  6
CONTINUOUS
 10
57.1930263604
 20
193.3117946093
  0
VERTEX
  8
0
 62
7
  6
CONTINUOUS
 10
57.1703441226
 20
193.1594369811
  0
VERTEX
  8
0
 62
7
  6
CONTINUOUS
 10
57.1448710839
 20
193.0128947935
  0
VERTEX
  8
0
 62
7
  6
CONTINUOUS
 10
57.1167013375
 20
192.8728870668
  0
VERTEX
  8
0
 62
7
  6
CONTINUOUS
 10
57.0859433305
 20
192.7401229372
  0
VERTEX
  8
0
 62
7
  6
CONTINUOUS
 10
57.052720517
 20
192.6152968732
  0
VERTEX
  8
0
 62
7
  6
CONTINUOUS
 10
57.0171719451
 20
192.499083336
  0
VERTEX
  8
0
 62
7
  6
CONTINUOUS
 10
56.979452203
 20
192.3921293363
  0
VERTEX
  8
0
 62
7
  6
CONTINUOUS
 10
56.939731506
 20
192.2950481015
  0
VERTEX
  8
0
 62
7
  6
CONTINUOUS
 10
56.8981955359
 20
192.2084121804
  0
VERTEX
  8
0
 62
7
  6
CONTINUOUS
 10
56.8550448447
 20
192.1327459163
  0
VERTEX
  8
0
 62
7
  6
CONTINUOUS
 10
56.810493716
 20
192.0685177163
  0
VERTEX
  8
0
 62
7
  6
CONTINUOUS
 10
56.7647688026
 20
192.0161331042
  0
VERTEX
  8
0
 62
7
  6
CONTINUOUS
 10
56.7181196034
 20
191.9759372426
  0
SEQEND
  0
POLYLINE
  8
0
 62
7
  6
CONTINUOUS
 66
1
 70
0
  0
VERTEX
  8
0
 62
7
  6
CONTINUOUS
 10
56.3986923569
 20
196.5169420816
  0
VERTEX
  8
0
 62
7
  6
CONTINUOUS
 10
56.4607579467
 20
196.7397500488
  0
VERTEX
  8
0
 62
7
  6
CONTINUOUS
 10
56.4868953278
 20
196.835460364
  0
VERTEX
  8
0
 62
7
  6
CONTINUOUS
 10
56.5090125257
 20
196.9205600454
  0
VERTEX
  8
0
 62
7
  6
CONTINUOUS
 10
56.5266596101
 20
196.9949768412
  0
VERTEX
  8
0
 62
7
  6
CONTINUOUS
 10
56.5395326405
 20
197.0589086665
  0
VERTEX
  8
0
 62
7
  6
CONTINUOUS
 10
56.5473640687
 20
197.1123688546
  0
VERTEX
  8
0
 62
7
  6
CONTINUOUS
 10
56.55
 20
197.1555800077
  0
SEQEND
  0
POLYLINE
  8
0
 62
7
  6
CONTINUOUS
 66
1
 70
0
  0
VERTEX
  8
0
 62
7
  6
CONTINUOUS
 10
50.6818803966
 20
197.1840627572
  0
VERTEX
  8
0
 62
7
  6
CONTINUOUS
 10
50.6352312905
 20
197.1438669889
  0
VERTEX
  8
0
 62
7
  6
CONTINUOUS
 10
50.5895064265
 20
197.0914824675
  0
VERTEX
  8
0
 62
7
  6
CONTINUOUS
 10
50.544955311
 20
197.027254332
  0
VERTEX
  8
0
 62
7
  6
CONTINUOUS
 10
50.5018046044
 20
196.9515880883
  0
VERTEX
  8
0
 62
7
  6
CONTINUOUS
 10
50.4602685961
 20
196.8649521294
  0
VERTEX
  8
0
 62
7
  6
CONTINUOUS
 10
50.4205478449
 20
196.76787079
  0
VERTEX
  8
0
 62
7
  6
CONTINUOUS
 10
50.3828280416
 20
196.660916623
  0
VERTEX
  8
0
 62
7
  6
CONTINUOUS
 10
50.3472794078
 20
196.5447028631
  0
VERTEX
  8
0
 62
7
  6
CONTINUOUS
 10
50.3140565371
 20
196.4198765294
  0
VERTEX
  8
0
 62
7
  6
CONTINUOUS
 10
50.2832984833
 20
196.2871121032
  0
VERTEX
  8
0
 62
7
  6
CONTINUOUS
 10
50.255128704
 20
196.1471040733
  0
VERTEX
  8
0
 62
7
  6
CONTINUOUS
 10
50.2296556476
 20
196.0005615926
  0
VERTEX
  8
0
 62
7
  6
CONTINUOUS
 10
50.2069734089
 20
195.848203708
  0
VERTEX
  8
0
 62
7
  6
CONTINUOUS
 10
50.187162633
 20
195.6907567676
  0
VERTEX
  8
0
 62
7
  6
CONTINUOUS
 10
50.1702909929
 20
195.5289493921
  0
VERTEX
  8
0
 62
7
  6
CONTINUOUS
 10
50.1564141222
 20
195.3635109545
  0
VERTEX
  8
0
 62
7
  6
CONTINUOUS
 10
50.1455763535
 20
195.1951697794
  0
VERTEX
  8
0
 62
7
  6
CONTINUOUS
 10
50.1378114842
 20
195.0246539106
  0
VERTEX
  8
0
 62
7
  6
CONTINUOUS
 10
50.1331432053
 20
194.8526895324
  0
VERTEX
  8
0
 62
7
  6
CONTINUOUS
 10
50.1315855479
 20
194.6799999999
  0
SEQEND
  0
POLYLINE
  8
0
 62
7
  6
CONTINUOUS
 66
1
 70
0
  0
VERTEX
  8
0
 62
7
  6
CONTINUOUS
 10
50.6818803966
 20
197.1840627572
  0
VERTEX
  8
0
 62
7
  6
CONTINUOUS
 10
50.7218132795
 20
197.2097035674
  0
VERTEX
  8
0
 62
7
  6
CONTINUOUS
 10
50.7561854149
 20
197.2249627847
  0
VERTEX
  8
0
 62
7
  6
CONTINUOUS
 10
50.7849637184
 20
197.2299999999
  0
SEQEND
  0
POLYLINE
  8
0
 62
7
  6
CONTINUOUS
 66
1
 70
0
  0
VERTEX
  8
0
 62
7
  6
CONTINUOUS
 10
44.0181196034
 20
191.9759372426
  0
VERTEX
  8
0
 62
7
  6
CONTINUOUS
 10
43.9781888178
 20
191.9502975853
  0
VERTEX
  8
0
 62
7
  6
CONTINUOUS
 10
43.9438158086
 20
191.9350376071
  0
VERTEX
  8
0
 62
7
  6
CONTINUOUS
 10
43.9150362816
 20
191.9299999999
  0
SEQEND
  0
POLYLINE
  8
0
 62
7
  6
CONTINUOUS
 66
1
 70
0
  0
VERTEX
  8
0
 62
7
  6
CONTINUOUS
 10
44.0181196034
 20
197.1840627572
  0
VERTEX
  8
0
 62
7
  6
CONTINUOUS
 10
44.0647687095
 20
197.1438669889
  0
VERTEX
  8
0
 62
7
  6
CONTINUOUS
 10
44.1104935735
 20
197.0914824675
  0
VERTEX
  8
0
 62
7
  6
CONTINUOUS
 10
44.155044689
 20
197.027254332
  0
VERTEX
  8
0
 62
7
  6
CONTINUOUS
 10
44.1981953956
 20
196.9515880883
  0
VERTEX
  8
0
 62
7
  6
CONTINUOUS
 10
44.2397314039
 20
196.8649521294
  0
VERTEX
  8
0
 62
7
  6
CONTINUOUS
 10
44.2794521551
 20
196.76787079
  0
VERTEX
  8
0
 62
7
  6
CONTINUOUS
 10
44.3171719584
 20
196.660916623
  0
VERTEX
  8
0
 62
7
  6
CONTINUOUS
 10
44.3527205922
 20
196.5447028631
  0
VERTEX
  8
0
 62
7
  6
CONTINUOUS
 10
44.3859434629
 20
196.4198765294
  0
VERTEX
  8
0
 62
7
  6
CONTINUOUS
 10
44.4167015167
 20
196.2871121032
  0
VERTEX
  8
0
 62
7
  6
CONTINUOUS
 10
44.444871296
 20
196.1471040733
  0
VERTEX
  8
0
 62
7
  6
CONTINUOUS
 10
44.4703443524
 20
196.0005615926
  0
VERTEX
  8
0
 62
7
  6
CONTINUOUS
 10
44.4930265911
 20
195.848203708
  0
VERTEX
  8
0
 62
7
  6
CONTINUOUS
 10
44.512837367
 20
195.6907567676
  0
VERTEX
  8
0
 62
7
  6
CONTINUOUS
 10
44.5297090071
 20
195.5289493921
  0
VERTEX
  8
0
 62
7
  6
CONTINUOUS
 10
44.5435858778
 20
195.3635109545
  0
VERTEX
  8
0
 62
7
  6
CONTINUOUS
 10
44.5544236465
 20
195.1951697794
  0
VERTEX
  8
0
 62
7
  6
CONTINUOUS
 10
44.5621885158
 20
195.0246539106
  0
VERTEX
  8
0
 62
7
  6
CONTINUOUS
 10
44.5668567947
 20
194.8526895324
  0
VERTEX
  8
0
 62
7
  6
CONTINUOUS
 10
44.5684144521
 20
194.6799999999
  0
SEQEND
  0
LINE
  8
0
 62
7
  6
CONTINUOUS
 10
56.4607589034
 20
192.4202464973
 11
56.3986923569
 21
192.6430579181
  0
POLYLINE
  8
0
 62
7
  6
CONTINUOUS
 66
1
 70
0
  0
VERTEX
  8
0
 62
7
  6
CONTINUOUS
 10
56.3986923569
 20
192.6430579181
  0
VERTEX
  8
0
 62
7
  6
CONTINUOUS
 10
56.3666204221
 20
192.7672662451
  0
VERTEX
  8
0
 62
7
  6
CONTINUOUS
 10
56.3369449005
 20
192.8989814141
  0
VERTEX
  8
0
 62
7
  6
CONTINUOUS
 10
56.3097813982
 20
193.0375371612
  0
VERTEX
  8
0
 62
7
  6
CONTINUOUS
 10
56.2852296966
 20
193.1822619679
  0
VERTEX
  8
0
 62
7
  6
CONTINUOUS
 10
56.2633763842
 20
193.3324760345
  0
VERTEX
  8
0
 62
7
  6
CONTINUOUS
 10
56.2442956275
 20
193.4874941746
  0
VERTEX
  8
0
 62
7
  6
CONTINUOUS
 10
56.228049835
 20
193.6466287586
  0
VERTEX
  8
0
 62
7
  6
CONTINUOUS
 10
56.2146903602
 20
193.8091918868
  0
VERTEX
  8
0
 62
7
  6
CONTINUOUS
 10
56.2042582428
 20
193.9744959016
  0
VERTEX
  8
0
 62
7
  6
CONTINUOUS
 10
56.1967847419
 20
194.1418548
  0
VERTEX
  8
0
 62
7
  6
CONTINUOUS
 10
56.1922919057
 20
194.3105820933
  0
VERTEX
  8
0
 62
7
  6
CONTINUOUS
 10
56.190792774
 20
194.4799999999
  0
SEQEND
  0
POLYLINE
  8
0
 62
7
  6
CONTINUOUS
 66
1
 70
0
  0
VERTEX
  8
0
 62
7
  6
CONTINUOUS
 10
63.55
 20
197.1555800077
  0
VERTEX
  8
0
 62
7
  6
CONTINUOUS
 10
63.5526360137
 20
197.1123680968
  0
VERTEX
  8
0
 62
7
  6
CONTINUOUS
 10
63.5604673679
 20
197.0589086192
  0
VERTEX
  8
0
 62
7
  6
CONTINUOUS
 10
63.5733399844
 20
196.9949786733
  0
VERTEX
  8
0
 62
7
  6
CONTINUOUS
 10
63.5909865762
 20
196.9205636367
  0
VERTEX
  8
0
 62
7
  6
CONTINUOUS
 10
63.6131035164
 20
196.8354646807
  0
VERTEX
  8
0
 62
7
  6
CONTINUOUS
 10
63.6392409896
 20
196.7397538889
  0
SEQEND
  0
POLYLINE
  8
0
 62
7
  6
CONTINUOUS
 66
1
 70
0
  0
VERTEX
  8
0
 62
7
  6
CONTINUOUS
 10
62.8315855479
 20
194.4799999999
  0
VERTEX
  8
0
 62
7
  6
CONTINUOUS
 10
62.8331432194
 20
194.3073096916
  0
VERTEX
  8
0
 62
7
  6
CONTINUOUS
 10
62.837811533
 20
194.1353447446
  0
VERTEX
  8
0
 62
7
  6
CONTINUOUS
 10
62.8455764477
 20
193.9648285048
  0
VERTEX
  8
0
 62
7
  6
CONTINUOUS
 10
62.8564142635
 20
193.7964871375
  0
VERTEX
  8
0
 62
7
  6
CONTINUOUS
 10
62.8702911758
 20
193.6310486614
  0
VERTEX
  8
0
 62
7
  6
CONTINUOUS
 10
62.8871628472
 20
193.4692413673
  0
VERTEX
  8
0
 62
7
  6
CONTINUOUS
 10
62.9069736396
 20
193.3117946093
  0
VERTEX
  8
0
 62
7
  6
CONTINUOUS
 10
62.9296558774
 20
193.1594369811
  0
VERTEX
  8
0
 62
7
  6
CONTINUOUS
 10
62.9551289161
 20
193.0128947935
  0
VERTEX
  8
0
 62
7
  6
CONTINUOUS
 10
62.9832986625
 20
192.8728870668
  0
VERTEX
  8
0
 62
7
  6
CONTINUOUS
 10
63.0140566695
 20
192.7401229372
  0
VERTEX
  8
0
 62
7
  6
CONTINUOUS
 10
63.047279483
 20
192.6152968732
  0
VERTEX
  8
0
 62
7
  6
CONTINUOUS
 10
63.0828280549
 20
192.499083336
  0
VERTEX
  8
0
 62
7
  6
CONTINUOUS
 10
63.120547797
 20
192.3921293363
  0
VERTEX
  8
0
 62
7
  6
CONTINUOUS
 10
63.160268494
 20
192.2950481015
  0
VERTEX
  8
0
 62
7
  6
CONTINUOUS
 10
63.2018044641
 20
192.2084121804
  0
VERTEX
  8
0
 62
7
  6
CONTINUOUS
 10
63.2449551553
 20
192.1327459163
  0
VERTEX
  8
0
 62
7
  6
CONTINUOUS
 10
63.289506284
 20
192.0685177163
  0
VERTEX
  8
0
 62
7
  6
CONTINUOUS
 10
63.3352311974
 20
192.0161331042
  0
VERTEX
  8
0
 62
7
  6
CONTINUOUS
 10
63.3818803966
 20
191.9759372426
  0
SEQEND
  0
POLYLINE
  8
0
 62
7
  6
CONTINUOUS
 66
1
 70
0
  0
VERTEX
  8
0
 62
7
  6
CONTINUOUS
 10
63.909207226
 20
194.6799999999
  0
VERTEX
  8
0
 62
7
  6
CONTINUOUS
 10
63.9077080868
 20
194.8494183345
  0
VERTEX
  8
0
 62
7
  6
CONTINUOUS
 10
63.903215232
 20
195.0181459314
  0
VERTEX
  8
0
 62
7
  6
CONTINUOUS
 10
63.8957417078
 20
195.1855050147
  0
VERTEX
  8
0
 62
7
  6
CONTINUOUS
 10
63.8853095673
 20
195.3508091123
  0
VERTEX
  8
0
 62
7
  6
CONTINUOUS
 10
63.8719500738
 20
195.5133722322
  0
VERTEX
  8
0
 62
7
  6
CONTINUOUS
 10
63.8557042701
 20
195.6725067366
  0
VERTEX
  8
0
 62
7
  6
CONTINUOUS
 10
63.8366235133
 20
195.8275247298
  0
VERTEX
  8
0
 62
7
  6
CONTINUOUS
 10
63.8147702165
 20
195.9777385844
  0
VERTEX
  8
0
 62
7
  6
CONTINUOUS
 10
63.7902185451
 20
196.1224631493
  0
VERTEX
  8
0
 62
7
  6
CONTINUOUS
 10
63.7630550777
 20
196.2610186891
  0
VERTEX
  8
0
 62
7
  6
CONTINUOUS
 10
63.7333795807
 20
196.392733743
  0
VERTEX
  8
0
 62
7
  6
CONTINUOUS
 10
63.7013076431
 20
196.5169420816
  0
SEQEND
  0
LINE
  8
0
 62
7
  6
CONTINUOUS
 10
62.8315855479
 20
194.6799999999
 11
62.8315855479
 21
194.4799999999
  0
LINE
  8
0
 62
7
  6
CONTINUOUS
 10
63.55
 20
188.8299999999
 11
63.55
 21
192.0044199921
  0
LINE
  8
0
 62
7
  6
CONTINUOUS
 10
63.55
 20
197.1555800077
 11
63.55
 21
200.3299999999
  0
LINE
  8
0
 62
7
  6
CONTINUOUS
 10
63.909207226
 20
194.4799999999
 11
63.909207226
 21
194.6799999999
  0
POLYLINE
  8
0
 62
7
  6
CONTINUOUS
 66
1
 70
0
  0
VERTEX
  8
0
 62
7
  6
CONTINUOUS
 10
63.7013076431
 20
192.6430579181
  0
VERTEX
  8
0
 62
7
  6
CONTINUOUS
 10
63.7333795777
 20
192.7672662445
  0
VERTEX
  8
0
 62
7
  6
CONTINUOUS
 10
63.7630550993
 20
192.8989814135
  0
VERTEX
  8
0
 62
7
  6
CONTINUOUS
 10
63.7902186017
 20
193.0375371605
  0
VERTEX
  8
0
 62
7
  6
CONTINUOUS
 10
63.8147703033
 20
193.1822619672
  0
VERTEX
  8
0
 62
7
  6
CONTINUOUS
 10
63.8366236157
 20
193.3324760339
  0
VERTEX
  8
0
 62
7
  6
CONTINUOUS
 10
63.8557043725
 20
193.4874941741
  0
VERTEX
  8
0
 62
7
  6
CONTINUOUS
 10
63.8719501649
 20
193.6466287582
  0
VERTEX
  8
0
 62
7
  6
CONTINUOUS
 10
63.8853096398
 20
193.8091918865
  0
VERTEX
  8
0
 62
7
  6
CONTINUOUS
 10
63.8957417572
 20
193.9744959015
  0
VERTEX
  8
0
 62
7
  6
CONTINUOUS
 10
63.9032152581
 20
194.1418547999
  0
VERTEX
  8
0
 62
7
  6
CONTINUOUS
 10
63.9077080943
 20
194.3105820933
  0
VERTEX
  8
0
 62
7
  6
CONTINUOUS
 10
63.909207226
 20
194.4799999999
  0
SEQEND
  0
POLYLINE
  8
0
 62
7
  6
CONTINUOUS
 66
1
 70
0
  0
VERTEX
  8
0
 62
7
  6
CONTINUOUS
 10
63.7013076431
 20
192.6430579181
  0
VERTEX
  8
0
 62
7
  6
CONTINUOUS
 10
63.639240083
 20
192.4202428384
  0
VERTEX
  8
0
 62
7
  6
CONTINUOUS
 10
63.613100074
 20
192.3245224625
  0
VERTEX
  8
0
 62
7
  6
CONTINUOUS
 10
63.5909827174
 20
192.2394209332
  0
VERTEX
  8
0
 62
7
  6
CONTINUOUS
 10
63.5733374629
 20
192.1650099357
  0
VERTEX
  8
0
 62
7
  6
CONTINUOUS
 10
63.5604666808
 20
192.1010874987
  0
VERTEX
  8
0
 62
7
  6
CONTINUOUS
 10
63.5526362452
 20
192.0476340303
  0
VERTEX
  8
0
 62
7
  6
CONTINUOUS
 10
63.55
 20
192.0044199921
  0
SEQEND
  0
POLYLINE
  8
0
 62
7
  6
CONTINUOUS
 66
1
 70
0
  0
VERTEX
  8
0
 62
7
  6
CONTINUOUS
 10
63.3818803966
 20
197.1840627572
  0
VERTEX
  8
0
 62
7
  6
CONTINUOUS
 10
63.3352312905
 20
197.1438669889
  0
VERTEX
  8
0
 62
7
  6
CONTINUOUS
 10
63.2895064265
 20
197.0914824675
  0
VERTEX
  8
0
 62
7
  6
CONTINUOUS
 10
63.244955311
 20
197.027254332
  0
VERTEX
  8
0
 62
7
  6
CONTINUOUS
 10
63.2018046044
 20
196.9515880883
  0
VERTEX
  8
0
 62
7
  6
CONTINUOUS
 10
63.1602685961
 20
196.8649521294
  0
VERTEX
  8
0
 62
7
  6
CONTINUOUS
 10
63.1205478449
 20
196.76787079
  0
VERTEX
  8
0
 62
7
  6
CONTINUOUS
 10
63.0828280416
 20
196.660916623
  0
VERTEX
  8
0
 62
7
  6
CONTINUOUS
 10
63.0472794078
 20
196.5447028631
  0
VERTEX
  8
0
 62
7
  6
CONTINUOUS
 10
63.0140565371
 20
196.4198765294
  0
VERTEX
  8
0
 62
7
  6
CONTINUOUS
 10
62.9832984833
 20
196.2871121032
  0
VERTEX
  8
0
 62
7
  6
CONTINUOUS
 10
62.955128704
 20
196.1471040733
  0
VERTEX
  8
0
 62
7
  6
CONTINUOUS
 10
62.9296556476
 20
196.0005615926
  0
VERTEX
  8
0
 62
7
  6
CONTINUOUS
 10
62.9069734089
 20
195.848203708
  0
VERTEX
  8
0
 62
7
  6
CONTINUOUS
 10
62.887162633
 20
195.6907567676
  0
VERTEX
  8
0
 62
7
  6
CONTINUOUS
 10
62.8702909929
 20
195.5289493921
  0
VERTEX
  8
0
 62
7
  6
CONTINUOUS
 10
62.8564141222
 20
195.3635109545
  0
VERTEX
  8
0
 62
7
  6
CONTINUOUS
 10
62.8455763535
 20
195.1951697794
  0
VERTEX
  8
0
 62
7
  6
CONTINUOUS
 10
62.8378114842
 20
195.0246539106
  0
VERTEX
  8
0
 62
7
  6
CONTINUOUS
 10
62.8331432053
 20
194.8526895324
  0
VERTEX
  8
0
 62
7
  6
CONTINUOUS
 10
62.8315855479
 20
194.6799999999
  0
SEQEND
  0
POLYLINE
  8
0
 62
7
  6
CONTINUOUS
 66
1
 70
0
  0
VERTEX
  8
0
 62
7
  6
CONTINUOUS
 10
56.7181196034
 20
197.1840627572
  0
VERTEX
  8
0
 62
7
  6
CONTINUOUS
 10
56.7647687095
 20
197.1438669889
  0
VERTEX
  8
0
 62
7
  6
CONTINUOUS
 10
56.8104935735
 20
197.0914824675
  0
VERTEX
  8
0
 62
7
  6
CONTINUOUS
 10
56.855044689
 20
197.027254332
  0
VERTEX
  8
0
 62
7
  6
CONTINUOUS
 10
56.8981953956
 20
196.9515880883
  0
VERTEX
  8
0
 62
7
  6
CONTINUOUS
 10
56.9397314039
 20
196.8649521294
  0
VERTEX
  8
0
 62
7
  6
CONTINUOUS
 10
56.9794521551
 20
196.76787079
  0
VERTEX
  8
0
 62
7
  6
CONTINUOUS
 10
57.0171719584
 20
196.660916623
  0
VERTEX
  8
0
 62
7
  6
CONTINUOUS
 10
57.0527205922
 20
196.5447028631
  0
VERTEX
  8
0
 62
7
  6
CONTINUOUS
 10
57.0859434629
 20
196.4198765294
  0
VERTEX
  8
0
 62
7
  6
CONTINUOUS
 10
57.1167015167
 20
196.2871121032
  0
VERTEX
  8
0
 62
7
  6
CONTINUOUS
 10
57.144871296
 20
196.1471040733
  0
VERTEX
  8
0
 62
7
  6
CONTINUOUS
 10
57.1703443524
 20
196.0005615926
  0
VERTEX
  8
0
 62
7
  6
CONTINUOUS
 10
57.1930265911
 20
195.848203708
  0
VERTEX
  8
0
 62
7
  6
CONTINUOUS
 10
57.212837367
 20
195.6907567676
  0
VERTEX
  8
0
 62
7
  6
CONTINUOUS
 10
57.2297090071
 20
195.5289493921
  0
VERTEX
  8
0
 62
7
  6
CONTINUOUS
 10
57.2435858778
 20
195.3635109545
  0
VERTEX
  8
0
 62
7
  6
CONTINUOUS
 10
57.2544236465
 20
195.1951697794
  0
VERTEX
  8
0
 62
7
  6
CONTINUOUS
 10
57.2621885158
 20
195.0246539106
  0
VERTEX
  8
0
 62
7
  6
CONTINUOUS
 10
57.2668567947
 20
194.8526895324
  0
VERTEX
  8
0
 62
7
  6
CONTINUOUS
 10
57.2684144521
 20
194.6799999999
  0
SEQEND
  0
LINE
  8
0
 62
7
  6
CONTINUOUS
 10
63.6392409896
 20
196.7397538889
 11
63.7013076431
 21
196.5169420816
  0
POLYLINE
  8
0
 62
7
  6
CONTINUOUS
 66
1
 70
0
  0
VERTEX
  8
0
 62
7
  6
CONTINUOUS
 10
69.25
 20
192.0044199921
  0
VERTEX
  8
0
 62
7
  6
CONTINUOUS
 10
69.2473638318
 20
192.0476333224
  0
VERTEX
  8
0
 62
7
  6
CONTINUOUS
 10
69.2395333315
 20
192.1010874289
  0
VERTEX
  8
0
 62
7
  6
CONTINUOUS
 10
69.226662141
 20
192.1650117251
  0
VERTEX
  8
0
 62
7
  6
CONTINUOUS
 10
69.2090164023
 20
192.2394244531
  0
VERTEX
  8
0
 62
7
  6
CONTINUOUS
 10
69.18689879
 20
192.3245267053
  0
VERTEX
  8
0
 62
7
  6
CONTINUOUS
 10
69.1607589034
 20
192.4202464973
  0
SEQEND
  0
LINE
  8
0
 62
7
  6
CONTINUOUS
 10
68.890792774
 20
194.4799999999
 11
68.890792774
 21
194.6799999999
  0
LINE
  8
0
 62
7
  6
CONTINUOUS
 10
69.25
 20
188.8299999999
 11
69.25
 21
192.0044199921
  0
LINE
  8
0
 62
7
  6
CONTINUOUS
 10
69.25
 20
197.1555800077
 11
69.25
 21
200.3299999999
  0
LINE
  8
0
 62
7
  6
CONTINUOUS
 10
69.9684144521
 20
194.6799999999
 11
69.9684144521
 21
194.4799999999
  0
POLYLINE
  8
0
 62
7
  6
CONTINUOUS
 66
1
 70
0
  0
VERTEX
  8
0
 62
7
  6
CONTINUOUS
 10
68.890792774
 20
194.6799999999
  0
VERTEX
  8
0
 62
7
  6
CONTINUOUS
 10
68.8922919132
 20
194.8494183345
  0
VERTEX
  8
0
 62
7
  6
CONTINUOUS
 10
68.896784768
 20
195.0181459314
  0
VERTEX
  8
0
 62
7
  6
CONTINUOUS
 10
68.9042582921
 20
195.1855050145
  0
VERTEX
  8
0
 62
7
  6
CONTINUOUS
 10
68.9146904326
 20
195.350809112
  0
VERTEX
  8
0
 62
7
  6
CONTINUOUS
 10
68.9280499262
 20
195.5133722318
  0
VERTEX
  8
0
 62
7
  6
CONTINUOUS
 10
68.9442957299
 20
195.6725067361
  0
VERTEX
  8
0
 62
7
  6
CONTINUOUS
 10
68.9633764866
 20
195.8275247292
  0
VERTEX
  8
0
 62
7
  6
CONTINUOUS
 10
68.9852297834
 20
195.9777385838
  0
VERTEX
  8
0
 62
7
  6
CONTINUOUS
 10
69.0097814548
 20
196.1224631486
  0
VERTEX
  8
0
 62
7
  6
CONTINUOUS
 10
69.0369449221
 20
196.2610186884
  0
VERTEX
  8
0
 62
7
  6
CONTINUOUS
 10
69.0666204191
 20
196.3927337424
  0
VERTEX
  8
0
 62
7
  6
CONTINUOUS
 10
69.0986923569
 20
196.5169420816
  0
SEQEND
  0
POLYLINE
  8
0
 62
7
  6
CONTINUOUS
 66
1
 70
0
  0
VERTEX
  8
0
 62
7
  6
CONTINUOUS
 10
69.9684144521
 20
194.4799999999
  0
VERTEX
  8
0
 62
7
  6
CONTINUOUS
 10
69.9668567806
 20
194.3073096916
  0
VERTEX
  8
0
 62
7
  6
CONTINUOUS
 10
69.962188467
 20
194.1353447446
  0
VERTEX
  8
0
 62
7
  6
CONTINUOUS
 10
69.9544235523
 20
193.9648285048
  0
VERTEX
  8
0
 62
7
  6
CONTINUOUS
 10
69.9435857365
 20
193.7964871375
  0
VERTEX
  8
0
 62
7
  6
CONTINUOUS
 10
69.9297088242
 20
193.6310486614
  0
VERTEX
  8
0
 62
7
  6
CONTINUOUS
 10
69.9128371528
 20
193.4692413673
  0
VERTEX
  8
0
 62
7
  6
CONTINUOUS
 10
69.8930263604
 20
193.3117946093
  0
VERTEX
  8
0
 62
7
  6
CONTINUOUS
 10
69.8703441226
 20
193.1594369811
  0
VERTEX
  8
0
 62
7
  6
CONTINUOUS
 10
69.8448710839
 20
193.0128947935
  0
VERTEX
  8
0
 62
7
  6
CONTINUOUS
 10
69.8167013375
 20
192.8728870668
  0
VERTEX
  8
0
 62
7
  6
CONTINUOUS
 10
69.7859433305
 20
192.7401229372
  0
VERTEX
  8
0
 62
7
  6
CONTINUOUS
 10
69.752720517
 20
192.6152968732
  0
VERTEX
  8
0
 62
7
  6
CONTINUOUS
 10
69.7171719451
 20
192.499083336
  0
VERTEX
  8
0
 62
7
  6
CONTINUOUS
 10
69.679452203
 20
192.3921293363
  0
VERTEX
  8
0
 62
7
  6
CONTINUOUS
 10
69.639731506
 20
192.2950481015
  0
VERTEX
  8
0
 62
7
  6
CONTINUOUS
 10
69.5981955359
 20
192.2084121804
  0
VERTEX
  8
0
 62
7
  6
CONTINUOUS
 10
69.5550448447
 20
192.1327459163
  0
VERTEX
  8
0
 62
7
  6
CONTINUOUS
 10
69.510493716
 20
192.0685177163
  0
VERTEX
  8
0
 62
7
  6
CONTINUOUS
 10
69.4647688026
 20
192.0161331042
  0
VERTEX
  8
0
 62
7
  6
CONTINUOUS
 10
69.4181196034
 20
191.9759372426
  0
SEQEND
  0
POLYLINE
  8
0
 62
7
  6
CONTINUOUS
 66
1
 70
0
  0
VERTEX
  8
0
 62
7
  6
CONTINUOUS
 10
69.0986923569
 20
196.5169420816
  0
VERTEX
  8
0
 62
7
  6
CONTINUOUS
 10
69.1607579467
 20
196.7397500488
  0
VERTEX
  8
0
 62
7
  6
CONTINUOUS
 10
69.1868953278
 20
196.835460364
  0
VERTEX
  8
0
 62
7
  6
CONTINUOUS
 10
69.2090125257
 20
196.9205600454
  0
VERTEX
  8
0
 62
7
  6
CONTINUOUS
 10
69.2266596101
 20
196.9949768412
  0
VERTEX
  8
0
 62
7
  6
CONTINUOUS
 10
69.2395326405
 20
197.0589086665
  0
VERTEX
  8
0
 62
7
  6
CONTINUOUS
 10
69.2473640687
 20
197.1123688546
  0
VERTEX
  8
0
 62
7
  6
CONTINUOUS
 10
69.25
 20
197.1555800077
  0
SEQEND
  0
POLYLINE
  8
0
 62
7
  6
CONTINUOUS
 66
1
 70
0
  0
VERTEX
  8
0
 62
7
  6
CONTINUOUS
 10
63.3818803966
 20
197.1840627572
  0
VERTEX
  8
0
 62
7
  6
CONTINUOUS
 10
63.4218132795
 20
197.2097035674
  0
VERTEX
  8
0
 62
7
  6
CONTINUOUS
 10
63.4561854149
 20
197.2249627847
  0
VERTEX
  8
0
 62
7
  6
CONTINUOUS
 10
63.4849637184
 20
197.2299999999
  0
SEQEND
  0
POLYLINE
  8
0
 62
7
  6
CONTINUOUS
 66
1
 70
0
  0
VERTEX
  8
0
 62
7
  6
CONTINUOUS
 10
56.7181196034
 20
191.9759372426
  0
VERTEX
  8
0
 62
7
  6
CONTINUOUS
 10
56.6781888178
 20
191.9502975853
  0
VERTEX
  8
0
 62
7
  6
CONTINUOUS
 10
56.6438158086
 20
191.9350376071
  0
VERTEX
  8
0
 62
7
  6
CONTINUOUS
 10
56.6150362816
 20
191.9299999999
  0
SEQEND
  0
LINE
  8
0
 62
7
  6
CONTINUOUS
 10
26.2
 20
188.0799999999
 11
151.6
 21
188.0799999999
  0
POLYLINE
  8
0
 62
7
  6
CONTINUOUS
 66
1
 70
0
  0
VERTEX
  8
0
 62
7
  6
CONTINUOUS
 10
38.0849637184
 20
191.9299999999
  0
VERTEX
  8
0
 62
7
  6
CONTINUOUS
 10
38.0561844594
 20
191.9350375212
  0
VERTEX
  8
0
 62
7
  6
CONTINUOUS
 10
38.0218112941
 20
191.9502975238
  0
VERTEX
  8
0
 62
7
  6
CONTINUOUS
 10
37.9818803966
 20
191.9759372426
  0
SEQEND
  0
POLYLINE
  8
0
 62
7
  6
CONTINUOUS
 66
1
 70
0
  0
VERTEX
  8
0
 62
7
  6
CONTINUOUS
 10
50.7849637184
 20
191.9299999999
  0
VERTEX
  8
0
 62
7
  6
CONTINUOUS
 10
50.7561844594
 20
191.9350375212
  0
VERTEX
  8
0
 62
7
  6
CONTINUOUS
 10
50.7218112941
 20
191.9502975238
  0
VERTEX
  8
0
 62
7
  6
CONTINUOUS
 10
50.6818803966
 20
191.9759372426
  0
SEQEND
  0
POLYLINE
  8
0
 62
7
  6
CONTINUOUS
 66
1
 70
0
  0
VERTEX
  8
0
 62
7
  6
CONTINUOUS
 10
31.2150362816
 20
197.2299999999
  0
VERTEX
  8
0
 62
7
  6
CONTINUOUS
 10
31.2438148402
 20
197.2249627029
  0
VERTEX
  8
0
 62
7
  6
CONTINUOUS
 10
31.2781868473
 20
197.2097034977
  0
VERTEX
  8
0
 62
7
  6
CONTINUOUS
 10
31.3181196034
 20
197.1840627572
  0
SEQEND
  0
POLYLINE
  8
0
 62
7
  6
CONTINUOUS
 66
1
 70
0
  0
VERTEX
  8
0
 62
7
  6
CONTINUOUS
 10
63.4849637184
 20
191.9299999999
  0
VERTEX
  8
0
 62
7
  6
CONTINUOUS
 10
63.4561844594
 20
191.9350375212
  0
VERTEX
  8
0
 62
7
  6
CONTINUOUS
 10
63.4218112941
 20
191.9502975238
  0
VERTEX
  8
0
 62
7
  6
CONTINUOUS
 10
63.3818803966
 20
191.9759372426
  0
SEQEND
  0
LINE
  8
0
 62
7
  6
CONTINUOUS
 10
69.1607589034
 20
192.4202464973
 11
69.0986923569
 21
192.6430579181
  0
POLYLINE
  8
0
 62
7
  6
CONTINUOUS
 66
1
 70
0
  0
VERTEX
  8
0
 62
7
  6
CONTINUOUS
 10
69.0986923569
 20
192.6430579181
  0
VERTEX
  8
0
 62
7
  6
CONTINUOUS
 10
69.0666204221
 20
192.7672662451
  0
VERTEX
  8
0
 62
7
  6
CONTINUOUS
 10
69.0369449005
 20
192.8989814141
  0
VERTEX
  8
0
 62
7
  6
CONTINUOUS
 10
69.0097813982
 20
193.0375371612
  0
VERTEX
  8
0
 62
7
  6
CONTINUOUS
 10
68.9852296966
 20
193.1822619679
  0
VERTEX
  8
0
 62
7
  6
CONTINUOUS
 10
68.9633763842
 20
193.3324760345
  0
VERTEX
  8
0
 62
7
  6
CONTINUOUS
 10
68.9442956275
 20
193.4874941746
  0
VERTEX
  8
0
 62
7
  6
CONTINUOUS
 10
68.928049835
 20
193.6466287586
  0
VERTEX
  8
0
 62
7
  6
CONTINUOUS
 10
68.9146903602
 20
193.8091918868
  0
VERTEX
  8
0
 62
7
  6
CONTINUOUS
 10
68.9042582428
 20
193.9744959016
  0
VERTEX
  8
0
 62
7
  6
CONTINUOUS
 10
68.8967847419
 20
194.1418548
  0
VERTEX
  8
0
 62
7
  6
CONTINUOUS
 10
68.8922919057
 20
194.3105820933
  0
VERTEX
  8
0
 62
7
  6
CONTINUOUS
 10
68.890792774
 20
194.4799999999
  0
SEQEND
  0
POLYLINE
  8
0
 62
7
  6
CONTINUOUS
 66
1
 70
0
  0
VERTEX
  8
0
 62
7
  6
CONTINUOUS
 10
76.25
 20
197.1555800077
  0
VERTEX
  8
0
 62
7
  6
CONTINUOUS
 10
76.2526360137
 20
197.1123680968
  0
VERTEX
  8
0
 62
7
  6
CONTINUOUS
 10
76.2604673679
 20
197.0589086192
  0
VERTEX
  8
0
 62
7
  6
CONTINUOUS
 10
76.2733399844
 20
196.9949786733
  0
VERTEX
  8
0
 62
7
  6
CONTINUOUS
 10
76.2909865762
 20
196.9205636367
  0
VERTEX
  8
0
 62
7
  6
CONTINUOUS
 10
76.3131035164
 20
196.8354646807
  0
VERTEX
  8
0
 62
7
  6
CONTINUOUS
 10
76.3392409896
 20
196.7397538889
  0
SEQEND
  0
POLYLINE
  8
0
 62
7
  6
CONTINUOUS
 66
1
 70
0
  0
VERTEX
  8
0
 62
7
  6
CONTINUOUS
 10
75.5315855479
 20
194.4799999999
  0
VERTEX
  8
0
 62
7
  6
CONTINUOUS
 10
75.5331432194
 20
194.3073096916
  0
VERTEX
  8
0
 62
7
  6
CONTINUOUS
 10
75.537811533
 20
194.1353447446
  0
VERTEX
  8
0
 62
7
  6
CONTINUOUS
 10
75.5455764477
 20
193.9648285048
  0
VERTEX
  8
0
 62
7
  6
CONTINUOUS
 10
75.5564142635
 20
193.7964871375
  0
VERTEX
  8
0
 62
7
  6
CONTINUOUS
 10
75.5702911758
 20
193.6310486614
  0
VERTEX
  8
0
 62
7
  6
CONTINUOUS
 10
75.5871628472
 20
193.4692413673
  0
VERTEX
  8
0
 62
7
  6
CONTINUOUS
 10
75.6069736396
 20
193.3117946093
  0
VERTEX
  8
0
 62
7
  6
CONTINUOUS
 10
75.6296558774
 20
193.1594369811
  0
VERTEX
  8
0
 62
7
  6
CONTINUOUS
 10
75.6551289161
 20
193.0128947935
  0
VERTEX
  8
0
 62
7
  6
CONTINUOUS
 10
75.6832986625
 20
192.8728870668
  0
VERTEX
  8
0
 62
7
  6
CONTINUOUS
 10
75.7140566695
 20
192.7401229372
  0
VERTEX
  8
0
 62
7
  6
CONTINUOUS
 10
75.747279483
 20
192.6152968732
  0
VERTEX
  8
0
 62
7
  6
CONTINUOUS
 10
75.7828280549
 20
192.499083336
  0
VERTEX
  8
0
 62
7
  6
CONTINUOUS
 10
75.820547797
 20
192.3921293363
  0
VERTEX
  8
0
 62
7
  6
CONTINUOUS
 10
75.860268494
 20
192.2950481015
  0
VERTEX
  8
0
 62
7
  6
CONTINUOUS
 10
75.9018044641
 20
192.2084121804
  0
VERTEX
  8
0
 62
7
  6
CONTINUOUS
 10
75.9449551553
 20
192.1327459163
  0
VERTEX
  8
0
 62
7
  6
CONTINUOUS
 10
75.989506284
 20
192.0685177163
  0
VERTEX
  8
0
 62
7
  6
CONTINUOUS
 10
76.0352311974
 20
192.0161331042
  0
VERTEX
  8
0
 62
7
  6
CONTINUOUS
 10
76.0818803966
 20
191.9759372426
  0
SEQEND
  0
POLYLINE
  8
0
 62
7
  6
CONTINUOUS
 66
1
 70
0
  0
VERTEX
  8
0
 62
7
  6
CONTINUOUS
 10
76.609207226
 20
194.6799999999
  0
VERTEX
  8
0
 62
7
  6
CONTINUOUS
 10
76.6077080868
 20
194.8494183345
  0
VERTEX
  8
0
 62
7
  6
CONTINUOUS
 10
76.603215232
 20
195.0181459314
  0
VERTEX
  8
0
 62
7
  6
CONTINUOUS
 10
76.5957417078
 20
195.1855050147
  0
VERTEX
  8
0
 62
7
  6
CONTINUOUS
 10
76.5853095673
 20
195.3508091123
  0
VERTEX
  8
0
 62
7
  6
CONTINUOUS
 10
76.5719500738
 20
195.5133722322
  0
VERTEX
  8
0
 62
7
  6
CONTINUOUS
 10
76.5557042701
 20
195.6725067366
  0
VERTEX
  8
0
 62
7
  6
CONTINUOUS
 10
76.5366235133
 20
195.8275247298
  0
VERTEX
  8
0
 62
7
  6
CONTINUOUS
 10
76.5147702165
 20
195.9777385844
  0
VERTEX
  8
0
 62
7
  6
CONTINUOUS
 10
76.4902185451
 20
196.1224631493
  0
VERTEX
  8
0
 62
7
  6
CONTINUOUS
 10
76.4630550777
 20
196.2610186891
  0
VERTEX
  8
0
 62
7
  6
CONTINUOUS
 10
76.4333795807
 20
196.392733743
  0
VERTEX
  8
0
 62
7
  6
CONTINUOUS
 10
76.4013076431
 20
196.5169420816
  0
SEQEND
  0
LINE
  8
0
 62
7
  6
CONTINUOUS
 10
75.5315855479
 20
194.6799999999
 11
75.5315855479
 21
194.4799999999
  0
LINE
  8
0
 62
7
  6
CONTINUOUS
 10
76.25
 20
188.8299999999
 11
76.25
 21
192.0044199921
  0
LINE
  8
0
 62
7
  6
CONTINUOUS
 10
76.25
 20
197.1555800077
 11
76.25
 21
200.3299999999
  0
LINE
  8
0
 62
7
  6
CONTINUOUS
 10
76.609207226
 20
194.4799999999
 11
76.609207226
 21
194.6799999999
  0
POLYLINE
  8
0
 62
7
  6
CONTINUOUS
 66
1
 70
0
  0
VERTEX
  8
0
 62
7
  6
CONTINUOUS
 10
76.4013076431
 20
192.6430579181
  0
VERTEX
  8
0
 62
7
  6
CONTINUOUS
 10
76.4333795777
 20
192.7672662445
  0
VERTEX
  8
0
 62
7
  6
CONTINUOUS
 10
76.4630550993
 20
192.8989814135
  0
VERTEX
  8
0
 62
7
  6
CONTINUOUS
 10
76.4902186017
 20
193.0375371605
  0
VERTEX
  8
0
 62
7
  6
CONTINUOUS
 10
76.5147703033
 20
193.1822619672
  0
VERTEX
  8
0
 62
7
  6
CONTINUOUS
 10
76.5366236157
 20
193.3324760339
  0
VERTEX
  8
0
 62
7
  6
CONTINUOUS
 10
76.5557043725
 20
193.4874941741
  0
VERTEX
  8
0
 62
7
  6
CONTINUOUS
 10
76.5719501649
 20
193.6466287582
  0
VERTEX
  8
0
 62
7
  6
CONTINUOUS
 10
76.5853096398
 20
193.8091918865
  0
VERTEX
  8
0
 62
7
  6
CONTINUOUS
 10
76.5957417572
 20
193.9744959015
  0
VERTEX
  8
0
 62
7
  6
CONTINUOUS
 10
76.6032152581
 20
194.1418547999
  0
VERTEX
  8
0
 62
7
  6
CONTINUOUS
 10
76.6077080943
 20
194.3105820933
  0
VERTEX
  8
0
 62
7
  6
CONTINUOUS
 10
76.609207226
 20
194.4799999999
  0
SEQEND
  0
POLYLINE
  8
0
 62
7
  6
CONTINUOUS
 66
1
 70
0
  0
VERTEX
  8
0
 62
7
  6
CONTINUOUS
 10
76.0818803966
 20
197.1840627572
  0
VERTEX
  8
0
 62
7
  6
CONTINUOUS
 10
76.0352312905
 20
197.1438669889
  0
VERTEX
  8
0
 62
7
  6
CONTINUOUS
 10
75.9895064265
 20
197.0914824675
  0
VERTEX
  8
0
 62
7
  6
CONTINUOUS
 10
75.944955311
 20
197.027254332
  0
VERTEX
  8
0
 62
7
  6
CONTINUOUS
 10
75.9018046044
 20
196.9515880883
  0
VERTEX
  8
0
 62
7
  6
CONTINUOUS
 10
75.8602685961
 20
196.8649521294
  0
VERTEX
  8
0
 62
7
  6
CONTINUOUS
 10
75.8205478449
 20
196.76787079
  0
VERTEX
  8
0
 62
7
  6
CONTINUOUS
 10
75.7828280416
 20
196.660916623
  0
VERTEX
  8
0
 62
7
  6
CONTINUOUS
 10
75.7472794078
 20
196.5447028631
  0
VERTEX
  8
0
 62
7
  6
CONTINUOUS
 10
75.7140565371
 20
196.4198765294
  0
VERTEX
  8
0
 62
7
  6
CONTINUOUS
 10
75.6832984833
 20
196.2871121032
  0
VERTEX
  8
0
 62
7
  6
CONTINUOUS
 10
75.655128704
 20
196.1471040733
  0
VERTEX
  8
0
 62
7
  6
CONTINUOUS
 10
75.6296556476
 20
196.0005615926
  0
VERTEX
  8
0
 62
7
  6
CONTINUOUS
 10
75.6069734089
 20
195.848203708
  0
VERTEX
  8
0
 62
7
  6
CONTINUOUS
 10
75.587162633
 20
195.6907567676
  0
VERTEX
  8
0
 62
7
  6
CONTINUOUS
 10
75.5702909929
 20
195.5289493921
  0
VERTEX
  8
0
 62
7
  6
CONTINUOUS
 10
75.5564141222
 20
195.3635109545
  0
VERTEX
  8
0
 62
7
  6
CONTINUOUS
 10
75.5455763535
 20
195.1951697794
  0
VERTEX
  8
0
 62
7
  6
CONTINUOUS
 10
75.5378114842
 20
195.0246539106
  0
VERTEX
  8
0
 62
7
  6
CONTINUOUS
 10
75.5331432053
 20
194.8526895324
  0
VERTEX
  8
0
 62
7
  6
CONTINUOUS
 10
75.5315855479
 20
194.6799999999
  0
SEQEND
  0
POLYLINE
  8
0
 62
7
  6
CONTINUOUS
 66
1
 70
0
  0
VERTEX
  8
0
 62
7
  6
CONTINUOUS
 10
76.0818803966
 20
197.1840627572
  0
VERTEX
  8
0
 62
7
  6
CONTINUOUS
 10
76.1218132795
 20
197.2097035674
  0
VERTEX
  8
0
 62
7
  6
CONTINUOUS
 10
76.1561854149
 20
197.2249627847
  0
VERTEX
  8
0
 62
7
  6
CONTINUOUS
 10
76.1849637184
 20
197.2299999999
  0
SEQEND
  0
POLYLINE
  8
0
 62
7
  6
CONTINUOUS
 66
1
 70
0
  0
VERTEX
  8
0
 62
7
  6
CONTINUOUS
 10
69.4181196034
 20
191.9759372426
  0
VERTEX
  8
0
 62
7
  6
CONTINUOUS
 10
69.3781888178
 20
191.9502975853
  0
VERTEX
  8
0
 62
7
  6
CONTINUOUS
 10
69.3438158086
 20
191.9350376071
  0
VERTEX
  8
0
 62
7
  6
CONTINUOUS
 10
69.3150362816
 20
191.9299999999
  0
SEQEND
  0
LINE
  8
0
 62
7
  6
CONTINUOUS
 10
31.15
 20
191.9299999999
 11
31.2150362816
 21
191.9299999999
  0
LINE
  8
0
 62
7
  6
CONTINUOUS
 10
38.0849637184
 20
191.9299999999
 11
38.15
 21
191.9299999999
  0
LINE
  8
0
 62
7
  6
CONTINUOUS
 10
43.85
 20
191.9299999999
 11
43.9150362816
 21
191.9299999999
  0
LINE
  8
0
 62
7
  6
CONTINUOUS
 10
50.7849637184
 20
191.9299999999
 11
50.85
 21
191.9299999999
  0
LINE
  8
0
 62
7
  6
CONTINUOUS
 10
56.55
 20
191.9299999999
 11
56.6150362816
 21
191.9299999999
  0
LINE
  8
0
 62
7
  6
CONTINUOUS
 10
63.4849637184
 20
191.9299999999
 11
63.55
 21
191.9299999999
  0
LINE
  8
0
 62
7
  6
CONTINUOUS
 10
69.25
 20
191.9299999999
 11
69.3150362816
 21
191.9299999999
  0
LINE
  8
0
 62
7
  6
CONTINUOUS
 10
76.1849637184
 20
191.9299999999
 11
76.25
 21
191.9299999999
  0
LINE
  8
0
 62
7
  6
CONTINUOUS
 10
81.95
 20
191.9299999999
 11
82.0150362816
 21
191.9299999999
  0
LINE
  8
0
 62
7
  6
CONTINUOUS
 10
88.8849637184
 20
191.9299999999
 11
88.95
 21
191.9299999999
  0
LINE
  8
0
 62
7
  6
CONTINUOUS
 10
94.65
 20
191.9299999999
 11
94.7150362816
 21
191.9299999999
  0
LINE
  8
0
 62
7
  6
CONTINUOUS
 10
101.5849637184
 20
191.9299999999
 11
101.65
 21
191.9299999999
  0
LINE
  8
0
 62
7
  6
CONTINUOUS
 10
107.35
 20
191.9299999999
 11
107.4150362816
 21
191.9299999999
  0
LINE
  8
0
 62
7
  6
CONTINUOUS
 10
113.9776264868
 20
191.9299999999
 11
114.1242581605
 21
191.9299999999
  0
LINE
  8
0
 62
7
  6
CONTINUOUS
 10
120.2757418395
 20
191.9299999999
 11
120.3
 21
191.9299999999
  0
LINE
  8
0
 62
7
  6
CONTINUOUS
 10
127.0
 20
191.9299999999
 11
127.0148073373
 21
191.9299999999
  0
LINE
  8
0
 62
7
  6
CONTINUOUS
 10
132.7851926627
 20
191.9299999999
 11
132.8
 21
191.9299999999
  0
LINE
  8
0
 62
7
  6
CONTINUOUS
 10
139.6
 20
191.9299999999
 11
139.6907127476
 21
191.9299999999
  0
LINE
  8
0
 62
7
  6
CONTINUOUS
 10
145.8692893783
 20
191.9299999999
 11
146.0
 21
191.9299999999
  0
LINE
  8
DEFAULT_1
 62
7
  6
CENTER
 10
19.825040625
 20
194.5799999999
 11
154.35
 21
194.5799999999
  0
POLYLINE
  8
0
 62
7
  6
CONTINUOUS
 66
1
 70
0
  0
VERTEX
  8
0
 62
7
  6
CONTINUOUS
 10
43.9150362816
 20
197.2299999999
  0
VERTEX
  8
0
 62
7
  6
CONTINUOUS
 10
43.9438148402
 20
197.2249627029
  0
VERTEX
  8
0
 62
7
  6
CONTINUOUS
 10
43.9781868473
 20
197.2097034977
  0
VERTEX
  8
0
 62
7
  6
CONTINUOUS
 10
44.0181196034
 20
197.1840627572
  0
SEQEND
  0
POLYLINE
  8
0
 62
7
  6
CONTINUOUS
 66
1
 70
0
  0
VERTEX
  8
0
 62
7
  6
CONTINUOUS
 10
76.1849637184
 20
191.9299999999
  0
VERTEX
  8
0
 62
7
  6
CONTINUOUS
 10
76.1561844594
 20
191.9350375212
  0
VERTEX
  8
0
 62
7
  6
CONTINUOUS
 10
76.1218112941
 20
191.9502975238
  0
VERTEX
  8
0
 62
7
  6
CONTINUOUS
 10
76.0818803966
 20
191.9759372426
  0
SEQEND
  0
POLYLINE
  8
0
 62
7
  6
CONTINUOUS
 66
1
 70
0
  0
VERTEX
  8
0
 62
7
  6
CONTINUOUS
 10
56.6150362816
 20
197.2299999999
  0
VERTEX
  8
0
 62
7
  6
CONTINUOUS
 10
56.6438148402
 20
197.2249627029
  0
VERTEX
  8
0
 62
7
  6
CONTINUOUS
 10
56.6781868473
 20
197.2097034977
  0
VERTEX
  8
0
 62
7
  6
CONTINUOUS
 10
56.7181196034
 20
197.1840627572
  0
SEQEND
  0
POLYLINE
  8
0
 62
7
  6
CONTINUOUS
 66
1
 70
0
  0
VERTEX
  8
0
 62
7
  6
CONTINUOUS
 10
88.8849637184
 20
191.9299999999
  0
VERTEX
  8
0
 62
7
  6
CONTINUOUS
 10
88.8561844594
 20
191.9350375212
  0
VERTEX
  8
0
 62
7
  6
CONTINUOUS
 10
88.8218112941
 20
191.9502975238
  0
VERTEX
  8
0
 62
7
  6
CONTINUOUS
 10
88.7818803966
 20
191.9759372426
  0
SEQEND
  0
POLYLINE
  8
0
 62
7
  6
CONTINUOUS
 66
1
 70
0
  0
VERTEX
  8
0
 62
7
  6
CONTINUOUS
 10
69.4181196034
 20
197.1840627572
  0
VERTEX
  8
0
 62
7
  6
CONTINUOUS
 10
69.4647687095
 20
197.1438669889
  0
VERTEX
  8
0
 62
7
  6
CONTINUOUS
 10
69.5104935735
 20
197.0914824675
  0
VERTEX
  8
0
 62
7
  6
CONTINUOUS
 10
69.555044689
 20
197.027254332
  0
VERTEX
  8
0
 62
7
  6
CONTINUOUS
 10
69.5981953956
 20
196.9515880883
  0
VERTEX
  8
0
 62
7
  6
CONTINUOUS
 10
69.6397314039
 20
196.8649521294
  0
VERTEX
  8
0
 62
7
  6
CONTINUOUS
 10
69.6794521551
 20
196.76787079
  0
VERTEX
  8
0
 62
7
  6
CONTINUOUS
 10
69.7171719584
 20
196.660916623
  0
VERTEX
  8
0
 62
7
  6
CONTINUOUS
 10
69.7527205922
 20
196.5447028631
  0
VERTEX
  8
0
 62
7
  6
CONTINUOUS
 10
69.7859434629
 20
196.4198765294
  0
VERTEX
  8
0
 62
7
  6
CONTINUOUS
 10
69.8167015167
 20
196.2871121032
  0
VERTEX
  8
0
 62
7
  6
CONTINUOUS
 10
69.844871296
 20
196.1471040733
  0
VERTEX
  8
0
 62
7
  6
CONTINUOUS
 10
69.8703443524
 20
196.0005615926
  0
VERTEX
  8
0
 62
7
  6
CONTINUOUS
 10
69.8930265911
 20
195.848203708
  0
VERTEX
  8
0
 62
7
  6
CONTINUOUS
 10
69.912837367
 20
195.6907567676
  0
VERTEX
  8
0
 62
7
  6
CONTINUOUS
 10
69.9297090071
 20
195.5289493921
  0
VERTEX
  8
0
 62
7
  6
CONTINUOUS
 10
69.9435858778
 20
195.3635109545
  0
VERTEX
  8
0
 62
7
  6
CONTINUOUS
 10
69.9544236465
 20
195.1951697794
  0
VERTEX
  8
0
 62
7
  6
CONTINUOUS
 10
69.9621885158
 20
195.0246539106
  0
VERTEX
  8
0
 62
7
  6
CONTINUOUS
 10
69.9668567947
 20
194.8526895324
  0
VERTEX
  8
0
 62
7
  6
CONTINUOUS
 10
69.9684144521
 20
194.6799999999
  0
SEQEND
  0
POLYLINE
  8
0
 62
7
  6
CONTINUOUS
 66
1
 70
0
  0
VERTEX
  8
0
 62
7
  6
CONTINUOUS
 10
81.95
 20
192.0044199921
  0
VERTEX
  8
0
 62
7
  6
CONTINUOUS
 10
81.9473638318
 20
192.0476333224
  0
VERTEX
  8
0
 62
7
  6
CONTINUOUS
 10
81.9395333315
 20
192.1010874289
  0
VERTEX
  8
0
 62
7
  6
CONTINUOUS
 10
81.926662141
 20
192.1650117251
  0
VERTEX
  8
0
 62
7
  6
CONTINUOUS
 10
81.9090164023
 20
192.2394244531
  0
VERTEX
  8
0
 62
7
  6
CONTINUOUS
 10
81.88689879
 20
192.3245267053
  0
VERTEX
  8
0
 62
7
  6
CONTINUOUS
 10
81.8607589034
 20
192.4202464973
  0
SEQEND
  0
LINE
  8
0
 62
7
  6
CONTINUOUS
 10
81.590792774
 20
194.4799999999
 11
81.590792774
 21
194.6799999999
  0
LINE
  8
0
 62
7
  6
CONTINUOUS
 10
81.95
 20
188.8299999999
 11
81.95
 21
192.0044199921
  0
LINE
  8
0
 62
7
  6
CONTINUOUS
 10
81.95
 20
197.1555800077
 11
81.95
 21
200.3299999999
  0
POLYLINE
  8
0
 62
7
  6
CONTINUOUS
 66
1
 70
0
  0
VERTEX
  8
0
 62
7
  6
CONTINUOUS
 10
81.590792774
 20
194.6799999999
  0
VERTEX
  8
0
 62
7
  6
CONTINUOUS
 10
81.5922919132
 20
194.8494183345
  0
VERTEX
  8
0
 62
7
  6
CONTINUOUS
 10
81.596784768
 20
195.0181459314
  0
VERTEX
  8
0
 62
7
  6
CONTINUOUS
 10
81.6042582921
 20
195.1855050145
  0
VERTEX
  8
0
 62
7
  6
CONTINUOUS
 10
81.6146904326
 20
195.350809112
  0
VERTEX
  8
0
 62
7
  6
CONTINUOUS
 10
81.6280499262
 20
195.5133722318
  0
VERTEX
  8
0
 62
7
  6
CONTINUOUS
 10
81.6442957299
 20
195.6725067361
  0
VERTEX
  8
0
 62
7
  6
CONTINUOUS
 10
81.6633764866
 20
195.8275247292
  0
VERTEX
  8
0
 62
7
  6
CONTINUOUS
 10
81.6852297834
 20
195.9777385838
  0
VERTEX
  8
0
 62
7
  6
CONTINUOUS
 10
81.7097814548
 20
196.1224631486
  0
VERTEX
  8
0
 62
7
  6
CONTINUOUS
 10
81.7369449221
 20
196.2610186884
  0
VERTEX
  8
0
 62
7
  6
CONTINUOUS
 10
81.7666204191
 20
196.3927337424
  0
VERTEX
  8
0
 62
7
  6
CONTINUOUS
 10
81.7986923569
 20
196.5169420816
  0
SEQEND
  0
POLYLINE
  8
0
 62
7
  6
CONTINUOUS
 66
1
 70
0
  0
VERTEX
  8
0
 62
7
  6
CONTINUOUS
 10
76.4013076431
 20
192.6430579181
  0
VERTEX
  8
0
 62
7
  6
CONTINUOUS
 10
76.339240083
 20
192.4202428384
  0
VERTEX
  8
0
 62
7
  6
CONTINUOUS
 10
76.313100074
 20
192.3245224625
  0
VERTEX
  8
0
 62
7
  6
CONTINUOUS
 10
76.2909827174
 20
192.2394209332
  0
VERTEX
  8
0
 62
7
  6
CONTINUOUS
 10
76.2733374629
 20
192.1650099357
  0
VERTEX
  8
0
 62
7
  6
CONTINUOUS
 10
76.2604666808
 20
192.1010874987
  0
VERTEX
  8
0
 62
7
  6
CONTINUOUS
 10
76.2526362452
 20
192.0476340303
  0
VERTEX
  8
0
 62
7
  6
CONTINUOUS
 10
76.25
 20
192.0044199921
  0
SEQEND
  0
POLYLINE
  8
0
 62
7
  6
CONTINUOUS
 66
1
 70
0
  0
VERTEX
  8
0
 62
7
  6
CONTINUOUS
 10
81.7986923569
 20
196.5169420816
  0
VERTEX
  8
0
 62
7
  6
CONTINUOUS
 10
81.8607579467
 20
196.7397500488
  0
VERTEX
  8
0
 62
7
  6
CONTINUOUS
 10
81.8868953278
 20
196.835460364
  0
VERTEX
  8
0
 62
7
  6
CONTINUOUS
 10
81.9090125257
 20
196.9205600454
  0
VERTEX
  8
0
 62
7
  6
CONTINUOUS
 10
81.9266596101
 20
196.9949768412
  0
VERTEX
  8
0
 62
7
  6
CONTINUOUS
 10
81.9395326405
 20
197.0589086665
  0
VERTEX
  8
0
 62
7
  6
CONTINUOUS
 10
81.9473640687
 20
197.1123688546
  0
VERTEX
  8
0
 62
7
  6
CONTINUOUS
 10
81.95
 20
197.1555800077
  0
SEQEND
  0
POLYLINE
  8
0
 62
7
  6
CONTINUOUS
 66
1
 70
0
  0
VERTEX
  8
0
 62
7
  6
CONTINUOUS
 10
88.7818803966
 20
197.1840627572
  0
VERTEX
  8
0
 62
7
  6
CONTINUOUS
 10
88.8218132795
 20
197.2097035674
  0
VERTEX
  8
0
 62
7
  6
CONTINUOUS
 10
88.8561854149
 20
197.2249627847
  0
VERTEX
  8
0
 62
7
  6
CONTINUOUS
 10
88.8849637184
 20
197.2299999999
  0
SEQEND
  0
POLYLINE
  8
0
 62
7
  6
CONTINUOUS
 66
1
 70
0
  0
VERTEX
  8
0
 62
7
  6
CONTINUOUS
 10
82.1181196034
 20
191.9759372426
  0
VERTEX
  8
0
 62
7
  6
CONTINUOUS
 10
82.0781888178
 20
191.9502975853
  0
VERTEX
  8
0
 62
7
  6
CONTINUOUS
 10
82.0438158086
 20
191.9350376071
  0
VERTEX
  8
0
 62
7
  6
CONTINUOUS
 10
82.0150362816
 20
191.9299999999
  0
SEQEND
  0
LINE
  8
0
 62
7
  6
CONTINUOUS
 10
31.15
 20
197.2299999999
 11
31.2150362816
 21
197.2299999999
  0
LINE
  8
0
 62
7
  6
CONTINUOUS
 10
38.0849637184
 20
197.2299999999
 11
38.15
 21
197.2299999999
  0
LINE
  8
0
 62
7
  6
CONTINUOUS
 10
43.85
 20
197.2299999999
 11
43.9150362816
 21
197.2299999999
  0
LINE
  8
0
 62
7
  6
CONTINUOUS
 10
50.7849637184
 20
197.2299999999
 11
50.85
 21
197.2299999999
  0
LINE
  8
0
 62
7
  6
CONTINUOUS
 10
56.55
 20
197.2299999999
 11
56.6150362816
 21
197.2299999999
  0
LINE
  8
0
 62
7
  6
CONTINUOUS
 10
63.4849637184
 20
197.2299999999
 11
63.55
 21
197.2299999999
  0
LINE
  8
0
 62
7
  6
CONTINUOUS
 10
69.25
 20
197.2299999999
 11
69.3150362816
 21
197.2299999999
  0
LINE
  8
0
 62
7
  6
CONTINUOUS
 10
76.1849637184
 20
197.2299999999
 11
76.25
 21
197.2299999999
  0
LINE
  8
0
 62
7
  6
CONTINUOUS
 10
81.95
 20
197.2299999999
 11
82.0150362816
 21
197.2299999999
  0
LINE
  8
0
 62
7
  6
CONTINUOUS
 10
88.8849637184
 20
197.2299999999
 11
88.95
 21
197.2299999999
  0
LINE
  8
0
 62
7
  6
CONTINUOUS
 10
94.65
 20
197.2299999999
 11
94.7150362816
 21
197.2299999999
  0
LINE
  8
0
 62
7
  6
CONTINUOUS
 10
101.5849637184
 20
197.2299999999
 11
101.65
 21
197.2299999999
  0
LINE
  8
0
 62
7
  6
CONTINUOUS
 10
107.35
 20
197.2299999999
 11
107.4150362816
 21
197.2299999999
  0
LINE
  8
0
 62
7
  6
CONTINUOUS
 10
113.9776264868
 20
197.2299999999
 11
114.1242581605
 21
197.2299999999
  0
LINE
  8
0
 62
7
  6
CONTINUOUS
 10
120.2757418395
 20
197.2299999999
 11
120.3
 21
197.2299999999
  0
LINE
  8
0
 62
7
  6
CONTINUOUS
 10
127.0
 20
197.2299999999
 11
127.0148073373
 21
197.2299999999
  0
LINE
  8
0
 62
7
  6
CONTINUOUS
 10
132.7851926627
 20
197.2299999999
 11
132.8
 21
197.2299999999
  0
LINE
  8
0
 62
7
  6
CONTINUOUS
 10
139.6
 20
197.2299999999
 11
139.6907127476
 21
197.2299999999
  0
LINE
  8
0
 62
7
  6
CONTINUOUS
 10
145.8692893783
 20
197.2299999999
 11
146.0
 21
197.2299999999
  0
LINE
  8
0
 62
7
  6
CONTINUOUS
 10
140.35
 20
199.4799999999
 11
145.2478475168
 21
199.4799999999
  0
LINE
  8
0
 62
7
  6
CONTINUOUS
 10
133.55
 20
199.8799999999
 11
138.85
 21
199.8799999999
  0
POLYLINE
  8
0
 62
7
  6
CONTINUOUS
 66
1
 70
0
  0
VERTEX
  8
0
 62
7
  6
CONTINUOUS
 10
145.8692893783
 20
191.9299999999
  0
VERTEX
  8
0
 62
7
  6
CONTINUOUS
 10
145.8276296904
 20
191.9348270845
  0
VERTEX
  8
0
 62
7
  6
CONTINUOUS
 10
145.7795502532
 20
191.9494674455
  0
VERTEX
  8
0
 62
7
  6
CONTINUOUS
 10
145.7249363343
 20
191.9741491209
  0
VERTEX
  8
0
 62
7
  6
CONTINUOUS
 10
145.6634773684
 20
192.0092421416
  0
VERTEX
  8
0
 62
7
  6
CONTINUOUS
 10
145.595089461
 20
192.0550772451
  0
SEQEND
  0
POLYLINE
  8
0
 62
7
  6
CONTINUOUS
 66
1
 70
0
  0
VERTEX
  8
0
 62
7
  6
CONTINUOUS
 10
113.9776264868
 20
191.9299999999
  0
VERTEX
  8
0
 62
7
  6
CONTINUOUS
 10
113.9410336885
 20
191.9344937573
  0
VERTEX
  8
0
 62
7
  6
CONTINUOUS
 10
113.8991801373
 20
191.9481102744
  0
VERTEX
  8
0
 62
7
  6
CONTINUOUS
 10
113.8520459056
 20
191.9710258246
  0
VERTEX
  8
0
 62
7
  6
CONTINUOUS
 10
113.7994669071
 20
192.0035201216
  0
VERTEX
  8
0
 62
7
  6
CONTINUOUS
 10
113.7414599098
 20
192.0458334403
  0
VERTEX
  8
0
 62
7
  6
CONTINUOUS
 10
113.6780610336
 20
192.0982351276
  0
SEQEND
  0
POLYLINE
  8
0
 62
7
  6
CONTINUOUS
 66
1
 70
0
  0
VERTEX
  8
0
 62
7
  6
CONTINUOUS
 10
69.3150362816
 20
197.2299999999
  0
VERTEX
  8
0
 62
7
  6
CONTINUOUS
 10
69.3438148402
 20
197.2249627029
  0
VERTEX
  8
0
 62
7
  6
CONTINUOUS
 10
69.3781868473
 20
197.2097034977
  0
VERTEX
  8
0
 62
7
  6
CONTINUOUS
 10
69.4181196034
 20
197.1840627572
  0
SEQEND
  0
POLYLINE
  8
0
 62
7
  6
CONTINUOUS
 66
1
 70
0
  0
VERTEX
  8
0
 62
7
  6
CONTINUOUS
 10
101.5849637184
 20
191.9299999999
  0
VERTEX
  8
0
 62
7
  6
CONTINUOUS
 10
101.5561844594
 20
191.9350375212
  0
VERTEX
  8
0
 62
7
  6
CONTINUOUS
 10
101.5218112941
 20
191.9502975238
  0
VERTEX
  8
0
 62
7
  6
CONTINUOUS
 10
101.4818803966
 20
191.9759372426
  0
SEQEND
  0
POLYLINE
  8
0
 62
7
  6
CONTINUOUS
 66
1
 70
0
  0
VERTEX
  8
0
 62
7
  6
CONTINUOUS
 10
82.0150362816
 20
197.2299999999
  0
VERTEX
  8
0
 62
7
  6
CONTINUOUS
 10
82.0438148402
 20
197.2249627029
  0
VERTEX
  8
0
 62
7
  6
CONTINUOUS
 10
82.0781868473
 20
197.2097034977
  0
VERTEX
  8
0
 62
7
  6
CONTINUOUS
 10
82.1181196034
 20
197.1840627572
  0
SEQEND
  0
LINE
  8
0
 62
7
  6
CONTINUOUS
 10
76.3392409896
 20
196.7397538889
 11
76.4013076431
 21
196.5169420816
  0
LINE
  8
0
 62
7
  6
CONTINUOUS
 10
81.8607589034
 20
192.4202464973
 11
81.7986923569
 21
192.6430579181
  0
POLYLINE
  8
0
 62
7
  6
CONTINUOUS
 66
1
 70
0
  0
VERTEX
  8
0
 62
7
  6
CONTINUOUS
 10
81.7986923569
 20
192.6430579181
  0
VERTEX
  8
0
 62
7
  6
CONTINUOUS
 10
81.7666204221
 20
192.7672662451
  0
VERTEX
  8
0
 62
7
  6
CONTINUOUS
 10
81.7369449005
 20
192.8989814141
  0
VERTEX
  8
0
 62
7
  6
CONTINUOUS
 10
81.7097813982
 20
193.0375371612
  0
VERTEX
  8
0
 62
7
  6
CONTINUOUS
 10
81.6852296966
 20
193.1822619679
  0
VERTEX
  8
0
 62
7
  6
CONTINUOUS
 10
81.6633763842
 20
193.3324760345
  0
VERTEX
  8
0
 62
7
  6
CONTINUOUS
 10
81.6442956275
 20
193.4874941746
  0
VERTEX
  8
0
 62
7
  6
CONTINUOUS
 10
81.628049835
 20
193.6466287586
  0
VERTEX
  8
0
 62
7
  6
CONTINUOUS
 10
81.6146903602
 20
193.8091918868
  0
VERTEX
  8
0
 62
7
  6
CONTINUOUS
 10
81.6042582428
 20
193.9744959016
  0
VERTEX
  8
0
 62
7
  6
CONTINUOUS
 10
81.5967847419
 20
194.1418548
  0
VERTEX
  8
0
 62
7
  6
CONTINUOUS
 10
81.5922919057
 20
194.3105820933
  0
VERTEX
  8
0
 62
7
  6
CONTINUOUS
 10
81.590792774
 20
194.4799999999
  0
SEQEND
  0
LINE
  8
0
 62
7
  6
CONTINUOUS
 10
82.6684144521
 20
194.6799999999
 11
82.6684144521
 21
194.4799999999
  0
POLYLINE
  8
0
 62
7
  6
CONTINUOUS
 66
1
 70
0
  0
VERTEX
  8
0
 62
7
  6
CONTINUOUS
 10
82.6684144521
 20
194.4799999999
  0
VERTEX
  8
0
 62
7
  6
CONTINUOUS
 10
82.6668567806
 20
194.3073096916
  0
VERTEX
  8
0
 62
7
  6
CONTINUOUS
 10
82.662188467
 20
194.1353447446
  0
VERTEX
  8
0
 62
7
  6
CONTINUOUS
 10
82.6544235523
 20
193.9648285048
  0
VERTEX
  8
0
 62
7
  6
CONTINUOUS
 10
82.6435857365
 20
193.7964871375
  0
VERTEX
  8
0
 62
7
  6
CONTINUOUS
 10
82.6297088242
 20
193.6310486614
  0
VERTEX
  8
0
 62
7
  6
CONTINUOUS
 10
82.6128371528
 20
193.4692413673
  0
VERTEX
  8
0
 62
7
  6
CONTINUOUS
 10
82.5930263604
 20
193.3117946093
  0
VERTEX
  8
0
 62
7
  6
CONTINUOUS
 10
82.5703441226
 20
193.1594369811
  0
VERTEX
  8
0
 62
7
  6
CONTINUOUS
 10
82.5448710839
 20
193.0128947935
  0
VERTEX
  8
0
 62
7
  6
CONTINUOUS
 10
82.5167013375
 20
192.8728870668
  0
VERTEX
  8
0
 62
7
  6
CONTINUOUS
 10
82.4859433305
 20
192.7401229372
  0
VERTEX
  8
0
 62
7
  6
CONTINUOUS
 10
82.452720517
 20
192.6152968732
  0
VERTEX
  8
0
 62
7
  6
CONTINUOUS
 10
82.4171719451
 20
192.499083336
  0
VERTEX
  8
0
 62
7
  6
CONTINUOUS
 10
82.379452203
 20
192.3921293363
  0
VERTEX
  8
0
 62
7
  6
CONTINUOUS
 10
82.339731506
 20
192.2950481015
  0
VERTEX
  8
0
 62
7
  6
CONTINUOUS
 10
82.2981955359
 20
192.2084121804
  0
VERTEX
  8
0
 62
7
  6
CONTINUOUS
 10
82.2550448447
 20
192.1327459163
  0
VERTEX
  8
0
 62
7
  6
CONTINUOUS
 10
82.210493716
 20
192.0685177163
  0
VERTEX
  8
0
 62
7
  6
CONTINUOUS
 10
82.1647688026
 20
192.0161331042
  0
VERTEX
  8
0
 62
7
  6
CONTINUOUS
 10
82.1181196034
 20
191.9759372426
  0
SEQEND
  0
POLYLINE
  8
0
 62
7
  6
CONTINUOUS
 66
1
 70
0
  0
VERTEX
  8
0
 62
7
  6
CONTINUOUS
 10
88.7818803966
 20
197.1840627572
  0
VERTEX
  8
0
 62
7
  6
CONTINUOUS
 10
88.7352312905
 20
197.1438669889
  0
VERTEX
  8
0
 62
7
  6
CONTINUOUS
 10
88.6895064265
 20
197.0914824675
  0
VERTEX
  8
0
 62
7
  6
CONTINUOUS
 10
88.644955311
 20
197.027254332
  0
VERTEX
  8
0
 62
7
  6
CONTINUOUS
 10
88.6018046044
 20
196.9515880883
  0
VERTEX
  8
0
 62
7
  6
CONTINUOUS
 10
88.5602685961
 20
196.8649521294
  0
VERTEX
  8
0
 62
7
  6
CONTINUOUS
 10
88.5205478449
 20
196.76787079
  0
VERTEX
  8
0
 62
7
  6
CONTINUOUS
 10
88.4828280416
 20
196.660916623
  0
VERTEX
  8
0
 62
7
  6
CONTINUOUS
 10
88.4472794078
 20
196.5447028631
  0
VERTEX
  8
0
 62
7
  6
CONTINUOUS
 10
88.4140565371
 20
196.4198765294
  0
VERTEX
  8
0
 62
7
  6
CONTINUOUS
 10
88.3832984833
 20
196.2871121032
  0
VERTEX
  8
0
 62
7
  6
CONTINUOUS
 10
88.355128704
 20
196.1471040733
  0
VERTEX
  8
0
 62
7
  6
CONTINUOUS
 10
88.3296556476
 20
196.0005615926
  0
VERTEX
  8
0
 62
7
  6
CONTINUOUS
 10
88.3069734089
 20
195.848203708
  0
VERTEX
  8
0
 62
7
  6
CONTINUOUS
 10
88.287162633
 20
195.6907567676
  0
VERTEX
  8
0
 62
7
  6
CONTINUOUS
 10
88.2702909929
 20
195.5289493921
  0
VERTEX
  8
0
 62
7
  6
CONTINUOUS
 10
88.2564141222
 20
195.3635109545
  0
VERTEX
  8
0
 62
7
  6
CONTINUOUS
 10
88.2455763535
 20
195.1951697794
  0
VERTEX
  8
0
 62
7
  6
CONTINUOUS
 10
88.2378114842
 20
195.0246539106
  0
VERTEX
  8
0
 62
7
  6
CONTINUOUS
 10
88.2331432053
 20
194.8526895324
  0
VERTEX
  8
0
 62
7
  6
CONTINUOUS
 10
88.2315855479
 20
194.6799999999
  0
SEQEND
  0
LINE
  8
0
 62
7
  6
CONTINUOUS
 10
26.2
 20
201.0799999999
 11
151.6
 21
201.0799999999
  0
POLYLINE
  8
0
 62
7
  6
CONTINUOUS
 66
1
 70
0
  0
VERTEX
  8
0
 62
7
  6
CONTINUOUS
 10
94.7150362816
 20
197.2299999999
  0
VERTEX
  8
0
 62
7
  6
CONTINUOUS
 10
94.7438148402
 20
197.2249627029
  0
VERTEX
  8
0
 62
7
  6
CONTINUOUS
 10
94.7781868473
 20
197.2097034977
  0
VERTEX
  8
0
 62
7
  6
CONTINUOUS
 10
94.8181196034
 20
197.1840627572
  0
SEQEND
  0
POLYLINE
  8
0
 62
7
  6
CONTINUOUS
 66
1
 70
0
  0
VERTEX
  8
0
 62
7
  6
CONTINUOUS
 10
107.4150362816
 20
197.2299999999
  0
VERTEX
  8
0
 62
7
  6
CONTINUOUS
 10
107.4438148402
 20
197.2249627029
  0
VERTEX
  8
0
 62
7
  6
CONTINUOUS
 10
107.4781868473
 20
197.2097034977
  0
VERTEX
  8
0
 62
7
  6
CONTINUOUS
 10
107.5181196034
 20
197.1840627572
  0
SEQEND
  0
POLYLINE
  8
0
 62
7
  6
CONTINUOUS
 66
1
 70
0
  0
VERTEX
  8
0
 62
7
  6
CONTINUOUS
 10
120.2757418395
 20
191.9299999999
  0
VERTEX
  8
0
 62
7
  6
CONTINUOUS
 10
120.2573464556
 20
191.934503901
  0
VERTEX
  8
0
 62
7
  6
CONTINUOUS
 10
120.2336220997
 20
191.9481185634
  0
VERTEX
  8
0
 62
7
  6
CONTINUOUS
 10
120.2045536759
 20
191.9709728465
  0
VERTEX
  8
0
 62
7
  6
CONTINUOUS
 10
120.1700395838
 20
192.0033089069
  0
VERTEX
  8
0
 62
7
  6
CONTINUOUS
 10
120.1301071933
 20
192.0453251479
  0
VERTEX
  8
0
 62
7
  6
CONTINUOUS
 10
120.084787356
 20
192.0972777021
  0
VERTEX
  8
0
 62
7
  6
CONTINUOUS
 10
120.034060008
 20
192.1595822886
  0
VERTEX
  8
0
 62
7
  6
CONTINUOUS
 10
119.978145109
 20
192.2324793326
  0
SEQEND
  0
POLYLINE
  8
0
 62
7
  6
CONTINUOUS
 66
1
 70
0
  0
VERTEX
  8
0
 62
7
  6
CONTINUOUS
 10
82.1181196034
 20
197.1840627572
  0
VERTEX
  8
0
 62
7
  6
CONTINUOUS
 10
82.1647687095
 20
197.1438669889
  0
VERTEX
  8
0
 62
7
  6
CONTINUOUS
 10
82.2104935735
 20
197.0914824675
  0
VERTEX
  8
0
 62
7
  6
CONTINUOUS
 10
82.255044689
 20
197.027254332
  0
VERTEX
  8
0
 62
7
  6
CONTINUOUS
 10
82.2981953956
 20
196.9515880883
  0
VERTEX
  8
0
 62
7
  6
CONTINUOUS
 10
82.3397314039
 20
196.8649521294
  0
VERTEX
  8
0
 62
7
  6
CONTINUOUS
 10
82.3794521551
 20
196.76787079
  0
VERTEX
  8
0
 62
7
  6
CONTINUOUS
 10
82.4171719584
 20
196.660916623
  0
VERTEX
  8
0
 62
7
  6
CONTINUOUS
 10
82.4527205922
 20
196.5447028631
  0
VERTEX
  8
0
 62
7
  6
CONTINUOUS
 10
82.4859434629
 20
196.4198765294
  0
VERTEX
  8
0
 62
7
  6
CONTINUOUS
 10
82.5167015167
 20
196.2871121032
  0
VERTEX
  8
0
 62
7
  6
CONTINUOUS
 10
82.544871296
 20
196.1471040733
  0
VERTEX
  8
0
 62
7
  6
CONTINUOUS
 10
82.5703443524
 20
196.0005615926
  0
VERTEX
  8
0
 62
7
  6
CONTINUOUS
 10
82.5930265911
 20
195.848203708
  0
VERTEX
  8
0
 62
7
  6
CONTINUOUS
 10
82.612837367
 20
195.6907567676
  0
VERTEX
  8
0
 62
7
  6
CONTINUOUS
 10
82.6297090071
 20
195.5289493921
  0
VERTEX
  8
0
 62
7
  6
CONTINUOUS
 10
82.6435858778
 20
195.3635109545
  0
VERTEX
  8
0
 62
7
  6
CONTINUOUS
 10
82.6544236465
 20
195.1951697794
  0
VERTEX
  8
0
 62
7
  6
CONTINUOUS
 10
82.6621885158
 20
195.0246539106
  0
VERTEX
  8
0
 62
7
  6
CONTINUOUS
 10
82.6668567947
 20
194.8526895324
  0
VERTEX
  8
0
 62
7
  6
CONTINUOUS
 10
82.6684144521
 20
194.6799999999
  0
SEQEND
  0
POLYLINE
  8
0
 62
7
  6
CONTINUOUS
 66
1
 70
0
  0
VERTEX
  8
0
 62
7
  6
CONTINUOUS
 10
88.95
 20
197.1555800077
  0
VERTEX
  8
0
 62
7
  6
CONTINUOUS
 10
88.9526360137
 20
197.1123680968
  0
VERTEX
  8
0
 62
7
  6
CONTINUOUS
 10
88.9604673679
 20
197.0589086192
  0
VERTEX
  8
0
 62
7
  6
CONTINUOUS
 10
88.9733399844
 20
196.9949786733
  0
VERTEX
  8
0
 62
7
  6
CONTINUOUS
 10
88.9909865762
 20
196.9205636367
  0
VERTEX
  8
0
 62
7
  6
CONTINUOUS
 10
89.0131035164
 20
196.8354646807
  0
VERTEX
  8
0
 62
7
  6
CONTINUOUS
 10
89.0392409896
 20
196.7397538889
  0
SEQEND
  0
POLYLINE
  8
0
 62
7
  6
CONTINUOUS
 66
1
 70
0
  0
VERTEX
  8
0
 62
7
  6
CONTINUOUS
 10
88.2315855479
 20
194.4799999999
  0
VERTEX
  8
0
 62
7
  6
CONTINUOUS
 10
88.2331432194
 20
194.3073096916
  0
VERTEX
  8
0
 62
7
  6
CONTINUOUS
 10
88.237811533
 20
194.1353447446
  0
VERTEX
  8
0
 62
7
  6
CONTINUOUS
 10
88.2455764477
 20
193.9648285048
  0
VERTEX
  8
0
 62
7
  6
CONTINUOUS
 10
88.2564142635
 20
193.7964871375
  0
VERTEX
  8
0
 62
7
  6
CONTINUOUS
 10
88.2702911758
 20
193.6310486614
  0
VERTEX
  8
0
 62
7
  6
CONTINUOUS
 10
88.2871628472
 20
193.4692413673
  0
VERTEX
  8
0
 62
7
  6
CONTINUOUS
 10
88.3069736396
 20
193.3117946093
  0
VERTEX
  8
0
 62
7
  6
CONTINUOUS
 10
88.3296558774
 20
193.1594369811
  0
VERTEX
  8
0
 62
7
  6
CONTINUOUS
 10
88.3551289161
 20
193.0128947935
  0
VERTEX
  8
0
 62
7
  6
CONTINUOUS
 10
88.3832986625
 20
192.8728870668
  0
VERTEX
  8
0
 62
7
  6
CONTINUOUS
 10
88.4140566695
 20
192.7401229372
  0
VERTEX
  8
0
 62
7
  6
CONTINUOUS
 10
88.447279483
 20
192.6152968732
  0
VERTEX
  8
0
 62
7
  6
CONTINUOUS
 10
88.4828280549
 20
192.499083336
  0
VERTEX
  8
0
 62
7
  6
CONTINUOUS
 10
88.520547797
 20
192.3921293363
  0
VERTEX
  8
0
 62
7
  6
CONTINUOUS
 10
88.560268494
 20
192.2950481015
  0
VERTEX
  8
0
 62
7
  6
CONTINUOUS
 10
88.6018044641
 20
192.2084121804
  0
VERTEX
  8
0
 62
7
  6
CONTINUOUS
 10
88.6449551553
 20
192.1327459163
  0
VERTEX
  8
0
 62
7
  6
CONTINUOUS
 10
88.689506284
 20
192.0685177163
  0
VERTEX
  8
0
 62
7
  6
CONTINUOUS
 10
88.7352311974
 20
192.0161331042
  0
VERTEX
  8
0
 62
7
  6
CONTINUOUS
 10
88.7818803966
 20
191.9759372426
  0
SEQEND
  0
POLYLINE
  8
0
 62
7
  6
CONTINUOUS
 66
1
 70
0
  0
VERTEX
  8
0
 62
7
  6
CONTINUOUS
 10
89.309207226
 20
194.6799999999
  0
VERTEX
  8
0
 62
7
  6
CONTINUOUS
 10
89.3077080868
 20
194.8494183345
  0
VERTEX
  8
0
 62
7
  6
CONTINUOUS
 10
89.303215232
 20
195.0181459314
  0
VERTEX
  8
0
 62
7
  6
CONTINUOUS
 10
89.2957417078
 20
195.1855050147
  0
VERTEX
  8
0
 62
7
  6
CONTINUOUS
 10
89.2853095673
 20
195.3508091123
  0
VERTEX
  8
0
 62
7
  6
CONTINUOUS
 10
89.2719500738
 20
195.5133722322
  0
VERTEX
  8
0
 62
7
  6
CONTINUOUS
 10
89.2557042701
 20
195.6725067366
  0
VERTEX
  8
0
 62
7
  6
CONTINUOUS
 10
89.2366235133
 20
195.8275247298
  0
VERTEX
  8
0
 62
7
  6
CONTINUOUS
 10
89.2147702165
 20
195.9777385844
  0
VERTEX
  8
0
 62
7
  6
CONTINUOUS
 10
89.1902185451
 20
196.1224631493
  0
VERTEX
  8
0
 62
7
  6
CONTINUOUS
 10
89.1630550777
 20
196.2610186891
  0
VERTEX
  8
0
 62
7
  6
CONTINUOUS
 10
89.1333795807
 20
196.392733743
  0
VERTEX
  8
0
 62
7
  6
CONTINUOUS
 10
89.1013076431
 20
196.5169420816
  0
SEQEND
  0
LINE
  8
0
 62
7
  6
CONTINUOUS
 10
88.2315855479
 20
194.6799999999
 11
88.2315855479
 21
194.4799999999
  0
LINE
  8
0
 62
7
  6
CONTINUOUS
 10
88.95
 20
188.8299999999
 11
88.95
 21
192.0044199921
  0
LINE
  8
0
 62
7
  6
CONTINUOUS
 10
88.95
 20
197.1555800077
 11
88.95
 21
200.3299999999
  0
LINE
  8
0
 62
7
  6
CONTINUOUS
 10
89.309207226
 20
194.4799999999
 11
89.309207226
 21
194.6799999999
  0
POLYLINE
  8
0
 62
7
  6
CONTINUOUS
 66
1
 70
0
  0
VERTEX
  8
0
 62
7
  6
CONTINUOUS
 10
89.1013076431
 20
192.6430579181
  0
VERTEX
  8
0
 62
7
  6
CONTINUOUS
 10
89.1333795777
 20
192.7672662445
  0
VERTEX
  8
0
 62
7
  6
CONTINUOUS
 10
89.1630550993
 20
192.8989814135
  0
VERTEX
  8
0
 62
7
  6
CONTINUOUS
 10
89.1902186017
 20
193.0375371605
  0
VERTEX
  8
0
 62
7
  6
CONTINUOUS
 10
89.2147703033
 20
193.1822619672
  0
VERTEX
  8
0
 62
7
  6
CONTINUOUS
 10
89.2366236157
 20
193.3324760339
  0
VERTEX
  8
0
 62
7
  6
CONTINUOUS
 10
89.2557043725
 20
193.4874941741
  0
VERTEX
  8
0
 62
7
  6
CONTINUOUS
 10
89.2719501649
 20
193.6466287582
  0
VERTEX
  8
0
 62
7
  6
CONTINUOUS
 10
89.2853096398
 20
193.8091918865
  0
VERTEX
  8
0
 62
7
  6
CONTINUOUS
 10
89.2957417572
 20
193.9744959015
  0
VERTEX
  8
0
 62
7
  6
CONTINUOUS
 10
89.3032152581
 20
194.1418547999
  0
VERTEX
  8
0
 62
7
  6
CONTINUOUS
 10
89.3077080943
 20
194.3105820933
  0
VERTEX
  8
0
 62
7
  6
CONTINUOUS
 10
89.309207226
 20
194.4799999999
  0
SEQEND
  0
POLYLINE
  8
0
 62
7
  6
CONTINUOUS
 66
1
 70
0
  0
VERTEX
  8
0
 62
7
  6
CONTINUOUS
 10
89.1013076431
 20
192.6430579181
  0
VERTEX
  8
0
 62
7
  6
CONTINUOUS
 10
89.039240083
 20
192.4202428384
  0
VERTEX
  8
0
 62
7
  6
CONTINUOUS
 10
89.013100074
 20
192.3245224625
  0
VERTEX
  8
0
 62
7
  6
CONTINUOUS
 10
88.9909827174
 20
192.2394209332
  0
VERTEX
  8
0
 62
7
  6
CONTINUOUS
 10
88.9733374629
 20
192.1650099357
  0
VERTEX
  8
0
 62
7
  6
CONTINUOUS
 10
88.9604666808
 20
192.1010874987
  0
VERTEX
  8
0
 62
7
  6
CONTINUOUS
 10
88.9526362452
 20
192.0476340303
  0
VERTEX
  8
0
 62
7
  6
CONTINUOUS
 10
88.95
 20
192.0044199921
  0
SEQEND
  0
POLYLINE
  8
0
 62
7
  6
CONTINUOUS
 66
1
 70
0
  0
VERTEX
  8
0
 62
7
  6
CONTINUOUS
 10
101.4818803966
 20
197.1840627572
  0
VERTEX
  8
0
 62
7
  6
CONTINUOUS
 10
101.4352312905
 20
197.1438669889
  0
VERTEX
  8
0
 62
7
  6
CONTINUOUS
 10
101.3895064265
 20
197.0914824675
  0
VERTEX
  8
0
 62
7
  6
CONTINUOUS
 10
101.344955311
 20
197.027254332
  0
VERTEX
  8
0
 62
7
  6
CONTINUOUS
 10
101.3018046044
 20
196.9515880883
  0
VERTEX
  8
0
 62
7
  6
CONTINUOUS
 10
101.2602685961
 20
196.8649521294
  0
VERTEX
  8
0
 62
7
  6
CONTINUOUS
 10
101.2205478449
 20
196.76787079
  0
VERTEX
  8
0
 62
7
  6
CONTINUOUS
 10
101.1828280416
 20
196.660916623
  0
VERTEX
  8
0
 62
7
  6
CONTINUOUS
 10
101.1472794078
 20
196.5447028631
  0
VERTEX
  8
0
 62
7
  6
CONTINUOUS
 10
101.1140565371
 20
196.4198765294
  0
VERTEX
  8
0
 62
7
  6
CONTINUOUS
 10
101.0832984833
 20
196.2871121032
  0
VERTEX
  8
0
 62
7
  6
CONTINUOUS
 10
101.055128704
 20
196.1471040733
  0
VERTEX
  8
0
 62
7
  6
CONTINUOUS
 10
101.0296556476
 20
196.0005615926
  0
VERTEX
  8
0
 62
7
  6
CONTINUOUS
 10
101.0069734089
 20
195.848203708
  0
VERTEX
  8
0
 62
7
  6
CONTINUOUS
 10
100.987162633
 20
195.6907567676
  0
VERTEX
  8
0
 62
7
  6
CONTINUOUS
 10
100.9702909929
 20
195.5289493921
  0
VERTEX
  8
0
 62
7
  6
CONTINUOUS
 10
100.9564141222
 20
195.3635109545
  0
VERTEX
  8
0
 62
7
  6
CONTINUOUS
 10
100.9455763535
 20
195.1951697794
  0
VERTEX
  8
0
 62
7
  6
CONTINUOUS
 10
100.9378114842
 20
195.0246539106
  0
VERTEX
  8
0
 62
7
  6
CONTINUOUS
 10
100.9331432053
 20
194.8526895324
  0
VERTEX
  8
0
 62
7
  6
CONTINUOUS
 10
100.9315855479
 20
194.6799999999
  0
SEQEND
  0
POLYLINE
  8
0
 62
7
  6
CONTINUOUS
 66
1
 70
0
  0
VERTEX
  8
0
 62
7
  6
CONTINUOUS
 10
101.4818803966
 20
197.1840627572
  0
VERTEX
  8
0
 62
7
  6
CONTINUOUS
 10
101.5218132795
 20
197.2097035674
  0
VERTEX
  8
0
 62
7
  6
CONTINUOUS
 10
101.5561854149
 20
197.2249627847
  0
VERTEX
  8
0
 62
7
  6
CONTINUOUS
 10
101.5849637184
 20
197.2299999999
  0
SEQEND
  0
POLYLINE
  8
0
 62
7
  6
CONTINUOUS
 66
1
 70
0
  0
VERTEX
  8
0
 62
7
  6
CONTINUOUS
 10
94.8181196034
 20
191.9759372426
  0
VERTEX
  8
0
 62
7
  6
CONTINUOUS
 10
94.7781888178
 20
191.9502975853
  0
VERTEX
  8
0
 62
7
  6
CONTINUOUS
 10
94.7438158086
 20
191.9350376071
  0
VERTEX
  8
0
 62
7
  6
CONTINUOUS
 10
94.7150362816
 20
191.9299999999
  0
SEQEND
  0
POLYLINE
  8
0
 62
7
  6
CONTINUOUS
 66
1
 70
0
  0
VERTEX
  8
0
 62
7
  6
CONTINUOUS
 10
139.6907127476
 20
197.2299999999
  0
VERTEX
  8
0
 62
7
  6
CONTINUOUS
 10
139.7267517891
 20
197.2248789705
  0
VERTEX
  8
0
 62
7
  6
CONTINUOUS
 10
139.7694878285
 20
197.2092826379
  0
VERTEX
  8
0
 62
7
  6
CONTINUOUS
 10
139.8189419319
 20
197.1829541481
  0
VERTEX
  8
0
 62
7
  6
CONTINUOUS
 10
139.8750565785
 20
197.1457249196
  0
SEQEND
  0
POLYLINE
  8
0
 62
7
  6
CONTINUOUS
 66
1
 70
0
  0
VERTEX
  8
0
 62
7
  6
CONTINUOUS
 10
114.1242581605
 20
197.2299999999
  0
VERTEX
  8
0
 62
7
  6
CONTINUOUS
 10
114.1426572868
 20
197.2254944925
  0
VERTEX
  8
0
 62
7
  6
CONTINUOUS
 10
114.1663841546
 20
197.2118771206
  0
VERTEX
  8
0
 62
7
  6
CONTINUOUS
 10
114.1954530024
 20
197.1890213634
  0
VERTEX
  8
0
 62
7
  6
CONTINUOUS
 10
114.229963398
 20
197.1566881181
  0
VERTEX
  8
0
 62
7
  6
CONTINUOUS
 10
114.2698896232
 20
197.1146783567
  0
VERTEX
  8
0
 62
7
  6
CONTINUOUS
 10
114.3152083723
 20
197.0627273725
  0
VERTEX
  8
0
 62
7
  6
CONTINUOUS
 10
114.3659373279
 20
197.0004210839
  0
VERTEX
  8
0
 62
7
  6
CONTINUOUS
 10
114.421854891
 20
196.9275206672
  0
SEQEND
  0
POLYLINE
  8
0
 62
7
  6
CONTINUOUS
 66
1
 70
0
  0
VERTEX
  8
0
 62
7
  6
CONTINUOUS
 10
132.7851926627
 20
191.9299999999
  0
VERTEX
  8
0
 62
7
  6
CONTINUOUS
 10
132.769155609
 20
191.9351014086
  0
VERTEX
  8
0
 62
7
  6
CONTINUOUS
 10
132.7471645998
 20
191.9505133045
  0
VERTEX
  8
0
 62
7
  6
CONTINUOUS
 10
132.7192073863
 20
191.976378881
  0
VERTEX
  8
0
 62
7
  6
CONTINUOUS
 10
132.6851938264
 20
192.0129824079
  0
VERTEX
  8
0
 62
7
  6
CONTINUOUS
 10
132.6451930915
 20
192.0605354921
  0
VERTEX
  8
0
 62
7
  6
CONTINUOUS
 10
132.5992081399
 20
192.1194236521
  0
VERTEX
  8
0
 62
7
  6
CONTINUOUS
 10
132.5473626036
 20
192.1900180465
  0
SEQEND
  0
POLYLINE
  8
0
 62
7
  6
CONTINUOUS
 66
1
 70
0
  0
VERTEX
  8
0
 62
7
  6
CONTINUOUS
 10
94.8181196034
 20
197.1840627572
  0
VERTEX
  8
0
 62
7
  6
CONTINUOUS
 10
94.8647687095
 20
197.1438669889
  0
VERTEX
  8
0
 62
7
  6
CONTINUOUS
 10
94.9104935735
 20
197.0914824675
  0
VERTEX
  8
0
 62
7
  6
CONTINUOUS
 10
94.955044689
 20
197.027254332
  0
VERTEX
  8
0
 62
7
  6
CONTINUOUS
 10
94.9981953956
 20
196.9515880883
  0
VERTEX
  8
0
 62
7
  6
CONTINUOUS
 10
95.0397314039
 20
196.8649521294
  0
VERTEX
  8
0
 62
7
  6
CONTINUOUS
 10
95.0794521551
 20
196.76787079
  0
VERTEX
  8
0
 62
7
  6
CONTINUOUS
 10
95.1171719584
 20
196.660916623
  0
VERTEX
  8
0
 62
7
  6
CONTINUOUS
 10
95.1527205922
 20
196.5447028631
  0
VERTEX
  8
0
 62
7
  6
CONTINUOUS
 10
95.1859434629
 20
196.4198765294
  0
VERTEX
  8
0
 62
7
  6
CONTINUOUS
 10
95.2167015167
 20
196.2871121032
  0
VERTEX
  8
0
 62
7
  6
CONTINUOUS
 10
95.244871296
 20
196.1471040733
  0
VERTEX
  8
0
 62
7
  6
CONTINUOUS
 10
95.2703443524
 20
196.0005615926
  0
VERTEX
  8
0
 62
7
  6
CONTINUOUS
 10
95.2930265911
 20
195.848203708
  0
VERTEX
  8
0
 62
7
  6
CONTINUOUS
 10
95.312837367
 20
195.6907567676
  0
VERTEX
  8
0
 62
7
  6
CONTINUOUS
 10
95.3297090071
 20
195.5289493921
  0
VERTEX
  8
0
 62
7
  6
CONTINUOUS
 10
95.3435858778
 20
195.3635109545
  0
VERTEX
  8
0
 62
7
  6
CONTINUOUS
 10
95.3544236465
 20
195.1951697794
  0
VERTEX
  8
0
 62
7
  6
CONTINUOUS
 10
95.3621885158
 20
195.0246539106
  0
VERTEX
  8
0
 62
7
  6
CONTINUOUS
 10
95.3668567947
 20
194.8526895324
  0
VERTEX
  8
0
 62
7
  6
CONTINUOUS
 10
95.3684144521
 20
194.6799999999
  0
SEQEND
  0
LINE
  8
0
 62
7
  6
CONTINUOUS
 10
89.0392409896
 20
196.7397538889
 11
89.1013076431
 21
196.5169420816
  0
POLYLINE
  8
0
 62
7
  6
CONTINUOUS
 66
1
 70
0
  0
VERTEX
  8
0
 62
7
  6
CONTINUOUS
 10
94.65
 20
192.0044199921
  0
VERTEX
  8
0
 62
7
  6
CONTINUOUS
 10
94.6473638318
 20
192.0476333224
  0
VERTEX
  8
0
 62
7
  6
CONTINUOUS
 10
94.6395333315
 20
192.1010874289
  0
VERTEX
  8
0
 62
7
  6
CONTINUOUS
 10
94.626662141
 20
192.1650117251
  0
VERTEX
  8
0
 62
7
  6
CONTINUOUS
 10
94.6090164023
 20
192.2394244531
  0
VERTEX
  8
0
 62
7
  6
CONTINUOUS
 10
94.58689879
 20
192.3245267053
  0
VERTEX
  8
0
 62
7
  6
CONTINUOUS
 10
94.5607589034
 20
192.4202464973
  0
SEQEND
  0
LINE
  8
0
 62
7
  6
CONTINUOUS
 10
94.290792774
 20
194.4799999999
 11
94.290792774
 21
194.6799999999
  0
LINE
  8
0
 62
7
  6
CONTINUOUS
 10
94.65
 20
188.8299999999
 11
94.65
 21
192.0044199921
  0
LINE
  8
0
 62
7
  6
CONTINUOUS
 10
94.65
 20
197.1555800077
 11
94.65
 21
200.3299999999
  0
LINE
  8
0
 62
7
  6
CONTINUOUS
 10
95.3684144521
 20
194.6799999999
 11
95.3684144521
 21
194.4799999999
  0
POLYLINE
  8
0
 62
7
  6
CONTINUOUS
 66
1
 70
0
  0
VERTEX
  8
0
 62
7
  6
CONTINUOUS
 10
94.290792774
 20
194.6799999999
  0
VERTEX
  8
0
 62
7
  6
CONTINUOUS
 10
94.2922919132
 20
194.8494183345
  0
VERTEX
  8
0
 62
7
  6
CONTINUOUS
 10
94.296784768
 20
195.0181459314
  0
VERTEX
  8
0
 62
7
  6
CONTINUOUS
 10
94.3042582921
 20
195.1855050145
  0
VERTEX
  8
0
 62
7
  6
CONTINUOUS
 10
94.3146904326
 20
195.350809112
  0
VERTEX
  8
0
 62
7
  6
CONTINUOUS
 10
94.3280499262
 20
195.5133722318
  0
VERTEX
  8
0
 62
7
  6
CONTINUOUS
 10
94.3442957299
 20
195.6725067361
  0
VERTEX
  8
0
 62
7
  6
CONTINUOUS
 10
94.3633764866
 20
195.8275247292
  0
VERTEX
  8
0
 62
7
  6
CONTINUOUS
 10
94.3852297834
 20
195.9777385838
  0
VERTEX
  8
0
 62
7
  6
CONTINUOUS
 10
94.4097814548
 20
196.1224631486
  0
VERTEX
  8
0
 62
7
  6
CONTINUOUS
 10
94.4369449221
 20
196.2610186884
  0
VERTEX
  8
0
 62
7
  6
CONTINUOUS
 10
94.4666204191
 20
196.3927337424
  0
VERTEX
  8
0
 62
7
  6
CONTINUOUS
 10
94.4986923569
 20
196.5169420816
  0
SEQEND
  0
POLYLINE
  8
0
 62
7
  6
CONTINUOUS
 66
1
 70
0
  0
VERTEX
  8
0
 62
7
  6
CONTINUOUS
 10
95.3684144521
 20
194.4799999999
  0
VERTEX
  8
0
 62
7
  6
CONTINUOUS
 10
95.3668567806
 20
194.3073096916
  0
VERTEX
  8
0
 62
7
  6
CONTINUOUS
 10
95.362188467
 20
194.1353447446
  0
VERTEX
  8
0
 62
7
  6
CONTINUOUS
 10
95.3544235523
 20
193.9648285048
  0
VERTEX
  8
0
 62
7
  6
CONTINUOUS
 10
95.3435857365
 20
193.7964871375
  0
VERTEX
  8
0
 62
7
  6
CONTINUOUS
 10
95.3297088242
 20
193.6310486614
  0
VERTEX
  8
0
 62
7
  6
CONTINUOUS
 10
95.3128371528
 20
193.4692413673
  0
VERTEX
  8
0
 62
7
  6
CONTINUOUS
 10
95.2930263604
 20
193.3117946093
  0
VERTEX
  8
0
 62
7
  6
CONTINUOUS
 10
95.2703441226
 20
193.1594369811
  0
VERTEX
  8
0
 62
7
  6
CONTINUOUS
 10
95.2448710839
 20
193.0128947935
  0
VERTEX
  8
0
 62
7
  6
CONTINUOUS
 10
95.2167013375
 20
192.8728870668
  0
VERTEX
  8
0
 62
7
  6
CONTINUOUS
 10
95.1859433305
 20
192.7401229372
  0
VERTEX
  8
0
 62
7
  6
CONTINUOUS
 10
95.152720517
 20
192.6152968732
  0
VERTEX
  8
0
 62
7
  6
CONTINUOUS
 10
95.1171719451
 20
192.499083336
  0
VERTEX
  8
0
 62
7
  6
CONTINUOUS
 10
95.079452203
 20
192.3921293363
  0
VERTEX
  8
0
 62
7
  6
CONTINUOUS
 10
95.039731506
 20
192.2950481015
  0
VERTEX
  8
0
 62
7
  6
CONTINUOUS
 10
94.9981955359
 20
192.2084121804
  0
VERTEX
  8
0
 62
7
  6
CONTINUOUS
 10
94.9550448447
 20
192.1327459163
  0
VERTEX
  8
0
 62
7
  6
CONTINUOUS
 10
94.910493716
 20
192.0685177163
  0
VERTEX
  8
0
 62
7
  6
CONTINUOUS
 10
94.8647688026
 20
192.0161331042
  0
VERTEX
  8
0
 62
7
  6
CONTINUOUS
 10
94.8181196034
 20
191.9759372426
  0
SEQEND
  0
POLYLINE
  8
0
 62
7
  6
CONTINUOUS
 66
1
 70
0
  0
VERTEX
  8
0
 62
7
  6
CONTINUOUS
 10
94.4986923569
 20
196.5169420816
  0
VERTEX
  8
0
 62
7
  6
CONTINUOUS
 10
94.5607579467
 20
196.7397500488
  0
VERTEX
  8
0
 62
7
  6
CONTINUOUS
 10
94.5868953278
 20
196.835460364
  0
VERTEX
  8
0
 62
7
  6
CONTINUOUS
 10
94.6090125257
 20
196.9205600454
  0
VERTEX
  8
0
 62
7
  6
CONTINUOUS
 10
94.6266596101
 20
196.9949768412
  0
VERTEX
  8
0
 62
7
  6
CONTINUOUS
 10
94.6395326405
 20
197.0589086665
  0
VERTEX
  8
0
 62
7
  6
CONTINUOUS
 10
94.6473640687
 20
197.1123688546
  0
VERTEX
  8
0
 62
7
  6
CONTINUOUS
 10
94.65
 20
197.1555800077
  0
SEQEND
  0
POLYLINE
  8
0
 62
7
  6
CONTINUOUS
 66
1
 70
0
  0
VERTEX
  8
0
 62
7
  6
CONTINUOUS
 10
107.5181196034
 20
191.9759372426
  0
VERTEX
  8
0
 62
7
  6
CONTINUOUS
 10
107.4781888178
 20
191.9502975853
  0
VERTEX
  8
0
 62
7
  6
CONTINUOUS
 10
107.4438158086
 20
191.9350376071
  0
VERTEX
  8
0
 62
7
  6
CONTINUOUS
 10
107.4150362816
 20
191.9299999999
  0
SEQEND
  0
POLYLINE
  8
0
 62
7
  6
CONTINUOUS
 66
1
 70
0
  0
VERTEX
  8
0
 62
7
  6
CONTINUOUS
 10
127.0148073373
 20
197.2299999999
  0
VERTEX
  8
0
 62
7
  6
CONTINUOUS
 10
127.0308476704
 20
197.2248968259
  0
VERTEX
  8
0
 62
7
  6
CONTINUOUS
 10
127.0528412034
 20
197.2094819052
  0
VERTEX
  8
0
 62
7
  6
CONTINUOUS
 10
127.0807983569
 20
197.1836153372
  0
VERTEX
  8
0
 62
7
  6
CONTINUOUS
 10
127.1148082402
 20
197.1470152452
  0
VERTEX
  8
0
 62
7
  6
CONTINUOUS
 10
127.1548041145
 20
197.0994679614
  0
VERTEX
  8
0
 62
7
  6
CONTINUOUS
 10
127.2007895244
 20
197.0405794342
  0
VERTEX
  8
0
 62
7
  6
CONTINUOUS
 10
127.2526373964
 20
196.9699819533
  0
SEQEND
  0
LINE
  8
0
 62
7
  6
CONTINUOUS
 10
94.5607589034
 20
192.4202464973
 11
94.4986923569
 21
192.6430579181
  0
POLYLINE
  8
0
 62
7
  6
CONTINUOUS
 66
1
 70
0
  0
VERTEX
  8
0
 62
7
  6
CONTINUOUS
 10
94.4986923569
 20
192.6430579181
  0
VERTEX
  8
0
 62
7
  6
CONTINUOUS
 10
94.4666204221
 20
192.7672662451
  0
VERTEX
  8
0
 62
7
  6
CONTINUOUS
 10
94.4369449005
 20
192.8989814141
  0
VERTEX
  8
0
 62
7
  6
CONTINUOUS
 10
94.4097813982
 20
193.0375371612
  0
VERTEX
  8
0
 62
7
  6
CONTINUOUS
 10
94.3852296966
 20
193.1822619679
  0
VERTEX
  8
0
 62
7
  6
CONTINUOUS
 10
94.3633763842
 20
193.3324760345
  0
VERTEX
  8
0
 62
7
  6
CONTINUOUS
 10
94.3442956275
 20
193.4874941746
  0
VERTEX
  8
0
 62
7
  6
CONTINUOUS
 10
94.328049835
 20
193.6466287586
  0
VERTEX
  8
0
 62
7
  6
CONTINUOUS
 10
94.3146903602
 20
193.8091918868
  0
VERTEX
  8
0
 62
7
  6
CONTINUOUS
 10
94.3042582428
 20
193.9744959016
  0
VERTEX
  8
0
 62
7
  6
CONTINUOUS
 10
94.2967847419
 20
194.1418548
  0
VERTEX
  8
0
 62
7
  6
CONTINUOUS
 10
94.2922919057
 20
194.3105820933
  0
VERTEX
  8
0
 62
7
  6
CONTINUOUS
 10
94.290792774
 20
194.4799999999
  0
SEQEND
  0
POLYLINE
  8
0
 62
7
  6
CONTINUOUS
 66
1
 70
0
  0
VERTEX
  8
0
 62
7
  6
CONTINUOUS
 10
101.65
 20
197.1555800077
  0
VERTEX
  8
0
 62
7
  6
CONTINUOUS
 10
101.6526360137
 20
197.1123680968
  0
VERTEX
  8
0
 62
7
  6
CONTINUOUS
 10
101.6604673679
 20
197.0589086192
  0
VERTEX
  8
0
 62
7
  6
CONTINUOUS
 10
101.6733399844
 20
196.9949786733
  0
VERTEX
  8
0
 62
7
  6
CONTINUOUS
 10
101.6909865762
 20
196.9205636367
  0
VERTEX
  8
0
 62
7
  6
CONTINUOUS
 10
101.7131035164
 20
196.8354646807
  0
VERTEX
  8
0
 62
7
  6
CONTINUOUS
 10
101.7392409896
 20
196.7397538889
  0
SEQEND
  0
POLYLINE
  8
0
 62
7
  6
CONTINUOUS
 66
1
 70
0
  0
VERTEX
  8
0
 62
7
  6
CONTINUOUS
 10
100.9315855479
 20
194.4799999999
  0
VERTEX
  8
0
 62
7
  6
CONTINUOUS
 10
100.9331432194
 20
194.3073096916
  0
VERTEX
  8
0
 62
7
  6
CONTINUOUS
 10
100.937811533
 20
194.1353447446
  0
VERTEX
  8
0
 62
7
  6
CONTINUOUS
 10
100.9455764477
 20
193.9648285048
  0
VERTEX
  8
0
 62
7
  6
CONTINUOUS
 10
100.9564142635
 20
193.7964871375
  0
VERTEX
  8
0
 62
7
  6
CONTINUOUS
 10
100.9702911758
 20
193.6310486614
  0
VERTEX
  8
0
 62
7
  6
CONTINUOUS
 10
100.9871628472
 20
193.4692413673
  0
VERTEX
  8
0
 62
7
  6
CONTINUOUS
 10
101.0069736396
 20
193.3117946093
  0
VERTEX
  8
0
 62
7
  6
CONTINUOUS
 10
101.0296558774
 20
193.1594369811
  0
VERTEX
  8
0
 62
7
  6
CONTINUOUS
 10
101.0551289161
 20
193.0128947935
  0
VERTEX
  8
0
 62
7
  6
CONTINUOUS
 10
101.0832986625
 20
192.8728870668
  0
VERTEX
  8
0
 62
7
  6
CONTINUOUS
 10
101.1140566695
 20
192.7401229372
  0
VERTEX
  8
0
 62
7
  6
CONTINUOUS
 10
101.147279483
 20
192.6152968732
  0
VERTEX
  8
0
 62
7
  6
CONTINUOUS
 10
101.1828280549
 20
192.499083336
  0
VERTEX
  8
0
 62
7
  6
CONTINUOUS
 10
101.220547797
 20
192.3921293363
  0
VERTEX
  8
0
 62
7
  6
CONTINUOUS
 10
101.260268494
 20
192.2950481015
  0
VERTEX
  8
0
 62
7
  6
CONTINUOUS
 10
101.3018044641
 20
192.2084121804
  0
VERTEX
  8
0
 62
7
  6
CONTINUOUS
 10
101.3449551553
 20
192.1327459163
  0
VERTEX
  8
0
 62
7
  6
CONTINUOUS
 10
101.389506284
 20
192.0685177163
  0
VERTEX
  8
0
 62
7
  6
CONTINUOUS
 10
101.4352311974
 20
192.0161331042
  0
VERTEX
  8
0
 62
7
  6
CONTINUOUS
 10
101.4818803966
 20
191.9759372426
  0
SEQEND
  0
POLYLINE
  8
0
 62
7
  6
CONTINUOUS
 66
1
 70
0
  0
VERTEX
  8
0
 62
7
  6
CONTINUOUS
 10
102.009207226
 20
194.6799999999
  0
VERTEX
  8
0
 62
7
  6
CONTINUOUS
 10
102.0077080868
 20
194.8494183345
  0
VERTEX
  8
0
 62
7
  6
CONTINUOUS
 10
102.003215232
 20
195.0181459314
  0
VERTEX
  8
0
 62
7
  6
CONTINUOUS
 10
101.9957417078
 20
195.1855050147
  0
VERTEX
  8
0
 62
7
  6
CONTINUOUS
 10
101.9853095673
 20
195.3508091123
  0
VERTEX
  8
0
 62
7
  6
CONTINUOUS
 10
101.9719500738
 20
195.5133722322
  0
VERTEX
  8
0
 62
7
  6
CONTINUOUS
 10
101.9557042701
 20
195.6725067366
  0
VERTEX
  8
0
 62
7
  6
CONTINUOUS
 10
101.9366235133
 20
195.8275247298
  0
VERTEX
  8
0
 62
7
  6
CONTINUOUS
 10
101.9147702165
 20
195.9777385844
  0
VERTEX
  8
0
 62
7
  6
CONTINUOUS
 10
101.8902185451
 20
196.1224631493
  0
VERTEX
  8
0
 62
7
  6
CONTINUOUS
 10
101.8630550777
 20
196.2610186891
  0
VERTEX
  8
0
 62
7
  6
CONTINUOUS
 10
101.8333795807
 20
196.392733743
  0
VERTEX
  8
0
 62
7
  6
CONTINUOUS
 10
101.8013076431
 20
196.5169420816
  0
SEQEND
  0
LINE
  8
0
 62
7
  6
CONTINUOUS
 10
100.9315855479
 20
194.6799999999
 11
100.9315855479
 21
194.4799999999
  0
LINE
  8
0
 62
7
  6
CONTINUOUS
 10
101.65
 20
188.8299999999
 11
101.65
 21
192.0044199921
  0
LINE
  8
0
 62
7
  6
CONTINUOUS
 10
101.65
 20
197.1555800077
 11
101.65
 21
200.3299999999
  0
LINE
  8
0
 62
7
  6
CONTINUOUS
 10
102.009207226
 20
194.4799999999
 11
102.009207226
 21
194.6799999999
  0
POLYLINE
  8
0
 62
7
  6
CONTINUOUS
 66
1
 70
0
  0
VERTEX
  8
0
 62
7
  6
CONTINUOUS
 10
101.8013076431
 20
192.6430579181
  0
VERTEX
  8
0
 62
7
  6
CONTINUOUS
 10
101.8333795777
 20
192.7672662445
  0
VERTEX
  8
0
 62
7
  6
CONTINUOUS
 10
101.8630550993
 20
192.8989814135
  0
VERTEX
  8
0
 62
7
  6
CONTINUOUS
 10
101.8902186017
 20
193.0375371605
  0
VERTEX
  8
0
 62
7
  6
CONTINUOUS
 10
101.9147703033
 20
193.1822619672
  0
VERTEX
  8
0
 62
7
  6
CONTINUOUS
 10
101.9366236157
 20
193.3324760339
  0
VERTEX
  8
0
 62
7
  6
CONTINUOUS
 10
101.9557043725
 20
193.4874941741
  0
VERTEX
  8
0
 62
7
  6
CONTINUOUS
 10
101.9719501649
 20
193.6466287582
  0
VERTEX
  8
0
 62
7
  6
CONTINUOUS
 10
101.9853096398
 20
193.8091918865
  0
VERTEX
  8
0
 62
7
  6
CONTINUOUS
 10
101.9957417572
 20
193.9744959015
  0
VERTEX
  8
0
 62
7
  6
CONTINUOUS
 10
102.0032152581
 20
194.1418547999
  0
VERTEX
  8
0
 62
7
  6
CONTINUOUS
 10
102.0077080943
 20
194.3105820933
  0
VERTEX
  8
0
 62
7
  6
CONTINUOUS
 10
102.009207226
 20
194.4799999999
  0
SEQEND
  0
POLYLINE
  8
0
 62
7
  6
CONTINUOUS
 66
1
 70
0
  0
VERTEX
  8
0
 62
7
  6
CONTINUOUS
 10
101.8013076431
 20
192.6430579181
  0
VERTEX
  8
0
 62
7
  6
CONTINUOUS
 10
101.739240083
 20
192.4202428384
  0
VERTEX
  8
0
 62
7
  6
CONTINUOUS
 10
101.713100074
 20
192.3245224625
  0
VERTEX
  8
0
 62
7
  6
CONTINUOUS
 10
101.6909827174
 20
192.2394209332
  0
VERTEX
  8
0
 62
7
  6
CONTINUOUS
 10
101.6733374629
 20
192.1650099357
  0
VERTEX
  8
0
 62
7
  6
CONTINUOUS
 10
101.6604666808
 20
192.1010874987
  0
VERTEX
  8
0
 62
7
  6
CONTINUOUS
 10
101.6526362452
 20
192.0476340303
  0
VERTEX
  8
0
 62
7
  6
CONTINUOUS
 10
101.65
 20
192.0044199921
  0
SEQEND
  0
POLYLINE
  8
0
 62
7
  6
CONTINUOUS
 66
1
 70
0
  0
VERTEX
  8
0
 62
7
  6
CONTINUOUS
 10
113.6780610336
 20
197.0617648722
  0
VERTEX
  8
0
 62
7
  6
CONTINUOUS
 10
113.6052376735
 20
196.991532386
  0
VERTEX
  8
0
 62
7
  6
CONTINUOUS
 10
113.5351387633
 20
196.9102319185
  0
VERTEX
  8
0
 62
7
  6
CONTINUOUS
 10
113.4681278582
 20
196.8185285609
  0
VERTEX
  8
0
 62
7
  6
CONTINUOUS
 10
113.4045081247
 20
196.7171178736
  0
VERTEX
  8
0
 62
7
  6
CONTINUOUS
 10
113.344542661
 20
196.6067288514
  0
VERTEX
  8
0
 62
7
  6
CONTINUOUS
 10
113.2884550811
 20
196.4881092343
  0
VERTEX
  8
0
 62
7
  6
CONTINUOUS
 10
113.2364314712
 20
196.3620126141
  0
VERTEX
  8
0
 62
7
  6
CONTINUOUS
 10
113.1886233068
 20
196.2291877005
  0
VERTEX
  8
0
 62
7
  6
CONTINUOUS
 10
113.1451507917
 20
196.0903692462
  0
VERTEX
  8
0
 62
7
  6
CONTINUOUS
 10
113.1061065145
 20
195.946270643
  0
VERTEX
  8
0
 62
7
  6
CONTINUOUS
 10
113.0715594414
 20
195.7975787337
  0
VERTEX
  8
0
 62
7
  6
CONTINUOUS
 10
113.0415592489
 20
195.6449520756
  0
VERTEX
  8
0
 62
7
  6
CONTINUOUS
 10
113.0161402768
 20
195.4890209507
  0
VERTEX
  8
0
 62
7
  6
CONTINUOUS
 10
112.9953247102
 20
195.3303860589
  0
VERTEX
  8
0
 62
7
  6
CONTINUOUS
 10
112.9791260563
 20
195.1696217736
  0
VERTEX
  8
0
 62
7
  6
CONTINUOUS
 10
112.9675519922
 20
195.007280929
  0
VERTEX
  8
0
 62
7
  6
CONTINUOUS
 10
112.9606064505
 20
194.8438996255
  0
VERTEX
  8
0
 62
7
  6
CONTINUOUS
 10
112.9582910985
 20
194.6799999999
  0
SEQEND
  0
POLYLINE
  8
0
 62
7
  6
CONTINUOUS
 66
1
 70
0
  0
VERTEX
  8
0
 62
7
  6
CONTINUOUS
 10
113.6780610336
 20
197.0617648722
  0
VERTEX
  8
0
 62
7
  6
CONTINUOUS
 10
113.7414596585
 20
197.1141663637
  0
VERTEX
  8
0
 62
7
  6
CONTINUOUS
 10
113.7994701516
 20
197.1564820704
  0
VERTEX
  8
0
 62
7
  6
CONTINUOUS
 10
113.8520479107
 20
197.1889752878
  0
VERTEX
  8
0
 62
7
  6
CONTINUOUS
 10
113.8991824496
 20
197.2118906732
  0
VERTEX
  8
0
 62
7
  6
CONTINUOUS
 10
113.9410361422
 20
197.225506807
  0
VERTEX
  8
0
 62
7
  6
CONTINUOUS
 10
113.9776264868
 20
197.2299999999
  0
SEQEND
  0
POLYLINE
  8
0
 62
7
  6
CONTINUOUS
 66
1
 70
0
  0
VERTEX
  8
0
 62
7
  6
CONTINUOUS
 10
107.5181196034
 20
197.1840627572
  0
VERTEX
  8
0
 62
7
  6
CONTINUOUS
 10
107.5647687095
 20
197.1438669889
  0
VERTEX
  8
0
 62
7
  6
CONTINUOUS
 10
107.6104935735
 20
197.0914824675
  0
VERTEX
  8
0
 62
7
  6
CONTINUOUS
 10
107.655044689
 20
197.027254332
  0
VERTEX
  8
0
 62
7
  6
CONTINUOUS
 10
107.6981953956
 20
196.9515880883
  0
VERTEX
  8
0
 62
7
  6
CONTINUOUS
 10
107.7397314039
 20
196.8649521294
  0
VERTEX
  8
0
 62
7
  6
CONTINUOUS
 10
107.7794521551
 20
196.76787079
  0
VERTEX
  8
0
 62
7
  6
CONTINUOUS
 10
107.8171719584
 20
196.660916623
  0
VERTEX
  8
0
 62
7
  6
CONTINUOUS
 10
107.8527205922
 20
196.5447028631
  0
VERTEX
  8
0
 62
7
  6
CONTINUOUS
 10
107.8859434629
 20
196.4198765294
  0
VERTEX
  8
0
 62
7
  6
CONTINUOUS
 10
107.9167015167
 20
196.2871121032
  0
VERTEX
  8
0
 62
7
  6
CONTINUOUS
 10
107.944871296
 20
196.1471040733
  0
VERTEX
  8
0
 62
7
  6
CONTINUOUS
 10
107.9703443524
 20
196.0005615926
  0
VERTEX
  8
0
 62
7
  6
CONTINUOUS
 10
107.9930265911
 20
195.848203708
  0
VERTEX
  8
0
 62
7
  6
CONTINUOUS
 10
108.012837367
 20
195.6907567676
  0
VERTEX
  8
0
 62
7
  6
CONTINUOUS
 10
108.0297090071
 20
195.5289493921
  0
VERTEX
  8
0
 62
7
  6
CONTINUOUS
 10
108.0435858778
 20
195.3635109545
  0
VERTEX
  8
0
 62
7
  6
CONTINUOUS
 10
108.0544236465
 20
195.1951697794
  0
VERTEX
  8
0
 62
7
  6
CONTINUOUS
 10
108.0621885158
 20
195.0246539106
  0
VERTEX
  8
0
 62
7
  6
CONTINUOUS
 10
108.0668567947
 20
194.8526895324
  0
VERTEX
  8
0
 62
7
  6
CONTINUOUS
 10
108.0684144521
 20
194.6799999999
  0
SEQEND
  0
LINE
  8
0
 62
7
  6
CONTINUOUS
 10
101.7392409896
 20
196.7397538889
 11
101.8013076431
 21
196.5169420816
  0
POLYLINE
  8
0
 62
7
  6
CONTINUOUS
 66
1
 70
0
  0
VERTEX
  8
0
 62
7
  6
CONTINUOUS
 10
107.35
 20
192.0044199921
  0
VERTEX
  8
0
 62
7
  6
CONTINUOUS
 10
107.3473638318
 20
192.0476333224
  0
VERTEX
  8
0
 62
7
  6
CONTINUOUS
 10
107.3395333315
 20
192.1010874289
  0
VERTEX
  8
0
 62
7
  6
CONTINUOUS
 10
107.326662141
 20
192.1650117251
  0
VERTEX
  8
0
 62
7
  6
CONTINUOUS
 10
107.3090164023
 20
192.2394244531
  0
VERTEX
  8
0
 62
7
  6
CONTINUOUS
 10
107.28689879
 20
192.3245267053
  0
VERTEX
  8
0
 62
7
  6
CONTINUOUS
 10
107.2607589034
 20
192.4202464973
  0
SEQEND
  0
LINE
  8
0
 62
7
  6
CONTINUOUS
 10
106.990792774
 20
194.4799999999
 11
106.990792774
 21
194.6799999999
  0
LINE
  8
0
 62
7
  6
CONTINUOUS
 10
107.35
 20
188.8299999999
 11
107.35
 21
192.0044199921
  0
LINE
  8
0
 62
7
  6
CONTINUOUS
 10
107.35
 20
197.1555800077
 11
107.35
 21
200.3299999999
  0
POLYLINE
  8
0
 62
7
  6
CONTINUOUS
 66
1
 70
0
  0
VERTEX
  8
0
 62
7
  6
CONTINUOUS
 10
106.990792774
 20
194.6799999999
  0
VERTEX
  8
0
 62
7
  6
CONTINUOUS
 10
106.9922919132
 20
194.8494183345
  0
VERTEX
  8
0
 62
7
  6
CONTINUOUS
 10
106.996784768
 20
195.0181459314
  0
VERTEX
  8
0
 62
7
  6
CONTINUOUS
 10
107.0042582921
 20
195.1855050145
  0
VERTEX
  8
0
 62
7
  6
CONTINUOUS
 10
107.0146904326
 20
195.350809112
  0
VERTEX
  8
0
 62
7
  6
CONTINUOUS
 10
107.0280499262
 20
195.5133722318
  0
VERTEX
  8
0
 62
7
  6
CONTINUOUS
 10
107.0442957299
 20
195.6725067361
  0
VERTEX
  8
0
 62
7
  6
CONTINUOUS
 10
107.0633764866
 20
195.8275247292
  0
VERTEX
  8
0
 62
7
  6
CONTINUOUS
 10
107.0852297834
 20
195.9777385838
  0
VERTEX
  8
0
 62
7
  6
CONTINUOUS
 10
107.1097814548
 20
196.1224631486
  0
VERTEX
  8
0
 62
7
  6
CONTINUOUS
 10
107.1369449221
 20
196.2610186884
  0
VERTEX
  8
0
 62
7
  6
CONTINUOUS
 10
107.1666204191
 20
196.3927337424
  0
VERTEX
  8
0
 62
7
  6
CONTINUOUS
 10
107.1986923569
 20
196.5169420816
  0
SEQEND
  0
POLYLINE
  8
0
 62
7
  6
CONTINUOUS
 66
1
 70
0
  0
VERTEX
  8
0
 62
7
  6
CONTINUOUS
 10
107.1986923569
 20
196.5169420816
  0
VERTEX
  8
0
 62
7
  6
CONTINUOUS
 10
107.2607579467
 20
196.7397500488
  0
VERTEX
  8
0
 62
7
  6
CONTINUOUS
 10
107.2868953278
 20
196.835460364
  0
VERTEX
  8
0
 62
7
  6
CONTINUOUS
 10
107.3090125257
 20
196.9205600454
  0
VERTEX
  8
0
 62
7
  6
CONTINUOUS
 10
107.3266596101
 20
196.9949768412
  0
VERTEX
  8
0
 62
7
  6
CONTINUOUS
 10
107.3395326405
 20
197.0589086665
  0
VERTEX
  8
0
 62
7
  6
CONTINUOUS
 10
107.3473640687
 20
197.1123688546
  0
VERTEX
  8
0
 62
7
  6
CONTINUOUS
 10
107.35
 20
197.1555800077
  0
SEQEND
  0
LINE
  8
0
 62
7
  6
CONTINUOUS
 10
107.2607589034
 20
192.4202464973
 11
107.1986923569
 21
192.6430579181
  0
POLYLINE
  8
0
 62
7
  6
CONTINUOUS
 66
1
 70
0
  0
VERTEX
  8
0
 62
7
  6
CONTINUOUS
 10
107.1986923569
 20
192.6430579181
  0
VERTEX
  8
0
 62
7
  6
CONTINUOUS
 10
107.1666204221
 20
192.7672662451
  0
VERTEX
  8
0
 62
7
  6
CONTINUOUS
 10
107.1369449005
 20
192.8989814141
  0
VERTEX
  8
0
 62
7
  6
CONTINUOUS
 10
107.1097813982
 20
193.0375371612
  0
VERTEX
  8
0
 62
7
  6
CONTINUOUS
 10
107.0852296966
 20
193.1822619679
  0
VERTEX
  8
0
 62
7
  6
CONTINUOUS
 10
107.0633763842
 20
193.3324760345
  0
VERTEX
  8
0
 62
7
  6
CONTINUOUS
 10
107.0442956275
 20
193.4874941746
  0
VERTEX
  8
0
 62
7
  6
CONTINUOUS
 10
107.028049835
 20
193.6466287586
  0
VERTEX
  8
0
 62
7
  6
CONTINUOUS
 10
107.0146903602
 20
193.8091918868
  0
VERTEX
  8
0
 62
7
  6
CONTINUOUS
 10
107.0042582428
 20
193.9744959016
  0
VERTEX
  8
0
 62
7
  6
CONTINUOUS
 10
106.9967847419
 20
194.1418548
  0
VERTEX
  8
0
 62
7
  6
CONTINUOUS
 10
106.9922919057
 20
194.3105820933
  0
VERTEX
  8
0
 62
7
  6
CONTINUOUS
 10
106.990792774
 20
194.4799999999
  0
SEQEND
  0
LINE
  8
0
 62
7
  6
CONTINUOUS
 10
108.0684144521
 20
194.6799999999
 11
108.0684144521
 21
194.4799999999
  0
POLYLINE
  8
0
 62
7
  6
CONTINUOUS
 66
1
 70
0
  0
VERTEX
  8
0
 62
7
  6
CONTINUOUS
 10
108.0684144521
 20
194.4799999999
  0
VERTEX
  8
0
 62
7
  6
CONTINUOUS
 10
108.0668567806
 20
194.3073096916
  0
VERTEX
  8
0
 62
7
  6
CONTINUOUS
 10
108.062188467
 20
194.1353447446
  0
VERTEX
  8
0
 62
7
  6
CONTINUOUS
 10
108.0544235523
 20
193.9648285048
  0
VERTEX
  8
0
 62
7
  6
CONTINUOUS
 10
108.0435857365
 20
193.7964871375
  0
VERTEX
  8
0
 62
7
  6
CONTINUOUS
 10
108.0297088242
 20
193.6310486614
  0
VERTEX
  8
0
 62
7
  6
CONTINUOUS
 10
108.0128371528
 20
193.4692413673
  0
VERTEX
  8
0
 62
7
  6
CONTINUOUS
 10
107.9930263604
 20
193.3117946093
  0
VERTEX
  8
0
 62
7
  6
CONTINUOUS
 10
107.9703441226
 20
193.1594369811
  0
VERTEX
  8
0
 62
7
  6
CONTINUOUS
 10
107.9448710839
 20
193.0128947935
  0
VERTEX
  8
0
 62
7
  6
CONTINUOUS
 10
107.9167013375
 20
192.8728870668
  0
VERTEX
  8
0
 62
7
  6
CONTINUOUS
 10
107.8859433305
 20
192.7401229372
  0
VERTEX
  8
0
 62
7
  6
CONTINUOUS
 10
107.852720517
 20
192.6152968732
  0
VERTEX
  8
0
 62
7
  6
CONTINUOUS
 10
107.8171719451
 20
192.499083336
  0
VERTEX
  8
0
 62
7
  6
CONTINUOUS
 10
107.779452203
 20
192.3921293363
  0
VERTEX
  8
0
 62
7
  6
CONTINUOUS
 10
107.739731506
 20
192.2950481015
  0
VERTEX
  8
0
 62
7
  6
CONTINUOUS
 10
107.6981955359
 20
192.2084121804
  0
VERTEX
  8
0
 62
7
  6
CONTINUOUS
 10
107.6550448447
 20
192.1327459163
  0
VERTEX
  8
0
 62
7
  6
CONTINUOUS
 10
107.610493716
 20
192.0685177163
  0
VERTEX
  8
0
 62
7
  6
CONTINUOUS
 10
107.5647688026
 20
192.0161331042
  0
VERTEX
  8
0
 62
7
  6
CONTINUOUS
 10
107.5181196034
 20
191.9759372426
  0
SEQEND
  0
POLYLINE
  8
0
 62
7
  6
CONTINUOUS
 66
1
 70
0
  0
VERTEX
  8
0
 62
7
  6
CONTINUOUS
 10
114.421854891
 20
192.2324793326
  0
VERTEX
  8
0
 62
7
  6
CONTINUOUS
 10
114.4837599124
 20
192.3225635037
  0
VERTEX
  8
0
 62
7
  6
CONTINUOUS
 10
114.5426712444
 20
192.4227151218
  0
VERTEX
  8
0
 62
7
  6
CONTINUOUS
 10
114.5983179557
 20
192.5322168543
  0
VERTEX
  8
0
 62
7
  6
CONTINUOUS
 10
114.6504768257
 20
192.6503438161
  0
VERTEX
  8
0
 62
7
  6
CONTINUOUS
 10
114.6989568803
 20
192.7763560122
  0
VERTEX
  8
0
 62
7
  6
CONTINUOUS
 10
114.7435981828
 20
192.9095105051
  0
VERTEX
  8
0
 62
7
  6
CONTINUOUS
 10
114.784268924
 20
193.0490693936
  0
VERTEX
  8
0
 62
7
  6
CONTINUOUS
 10
114.8208623615
 20
193.194305878
  0
VERTEX
  8
0
 62
7
  6
CONTINUOUS
 10
114.8532942924
 20
193.3445112962
  0
VERTEX
  8
0
 62
7
  6
CONTINUOUS
 10
114.8814997373
 20
193.4989984558
  0
VERTEX
  8
0
 62
7
  6
CONTINUOUS
 10
114.9054294821
 20
193.6571014827
  0
VERTEX
  8
0
 62
7
  6
CONTINUOUS
 10
114.9250473805
 20
193.818176486
  0
VERTEX
  8
0
 62
7
  6
CONTINUOUS
 10
114.9403278531
 20
193.9816013998
  0
VERTEX
  8
0
 62
7
  6
CONTINUOUS
 10
114.9512534223
 20
194.1467722627
  0
VERTEX
  8
0
 62
7
  6
CONTINUOUS
 10
114.9578128452
 20
194.3130978544
  0
VERTEX
  8
0
 62
7
  6
CONTINUOUS
 10
114.96
 20
194.4799999999
  0
SEQEND
  0
POLYLINE
  8
0
 62
7
  6
CONTINUOUS
 66
1
 70
0
  0
VERTEX
  8
0
 62
7
  6
CONTINUOUS
 10
114.421854891
 20
192.2324793326
  0
VERTEX
  8
0
 62
7
  6
CONTINUOUS
 10
114.3659399754
 20
192.1595822677
  0
VERTEX
  8
0
 62
7
  6
CONTINUOUS
 10
114.3152125314
 20
192.0972775682
  0
VERTEX
  8
0
 62
7
  6
CONTINUOUS
 10
114.2698925961
 20
192.0453249161
  0
VERTEX
  8
0
 62
7
  6
CONTINUOUS
 10
114.2299594067
 20
192.0033078998
  0
VERTEX
  8
0
 62
7
  6
CONTINUOUS
 10
114.1954448364
 20
191.9709715567
  0
VERTEX
  8
0
 62
7
  6
CONTINUOUS
 10
114.166376722
 20
191.9481177504
  0
VERTEX
  8
0
 62
7
  6
CONTINUOUS
 10
114.1426530842
 20
191.9345037035
  0
VERTEX
  8
0
 62
7
  6
CONTINUOUS
 10
114.1242581605
 20
191.9299999999
  0
SEQEND
  0
POLYLINE
  8
0
 62
7
  6
CONTINUOUS
 66
1
 70
0
  0
VERTEX
  8
0
 62
7
  6
CONTINUOUS
 10
119.978145109
 20
196.9275206672
  0
VERTEX
  8
0
 62
7
  6
CONTINUOUS
 10
120.034062624
 20
197.000421023
  0
VERTEX
  8
0
 62
7
  6
CONTINUOUS
 10
120.0847914803
 20
197.0627271975
  0
VERTEX
  8
0
 62
7
  6
CONTINUOUS
 10
120.1301101404
 20
197.1146780965
  0
VERTEX
  8
0
 62
7
  6
CONTINUOUS
 10
120.1700355619
 20
197.1566870805
  0
VERTEX
  8
0
 62
7
  6
CONTINUOUS
 10
120.2045454841
 20
197.1890200513
  0
VERTEX
  8
0
 62
7
  6
CONTINUOUS
 10
120.2336146559
 20
197.2118762997
  0
VERTEX
  8
0
 62
7
  6
CONTINUOUS
 10
120.2573422496
 20
197.2254942935
  0
VERTEX
  8
0
 62
7
  6
CONTINUOUS
 10
120.2757418395
 20
197.2299999999
  0
SEQEND
  0
POLYLINE
  8
0
 62
7
  6
CONTINUOUS
 66
1
 70
0
  0
VERTEX
  8
0
 62
7
  6
CONTINUOUS
 10
119.978145109
 20
192.2324793326
  0
VERTEX
  8
0
 62
7
  6
CONTINUOUS
 10
119.9162400872
 20
192.3225635043
  0
VERTEX
  8
0
 62
7
  6
CONTINUOUS
 10
119.8573287552
 20
192.4227151224
  0
VERTEX
  8
0
 62
7
  6
CONTINUOUS
 10
119.801682044
 20
192.5322168549
  0
VERTEX
  8
0
 62
7
  6
CONTINUOUS
 10
119.7495231741
 20
192.6503438167
  0
VERTEX
  8
0
 62
7
  6
CONTINUOUS
 10
119.7010431195
 20
192.7763560128
  0
VERTEX
  8
0
 62
7
  6
CONTINUOUS
 10
119.656401817
 20
192.9095105055
  0
VERTEX
  8
0
 62
7
  6
CONTINUOUS
 10
119.6157310759
 20
193.0490693939
  0
VERTEX
  8
0
 62
7
  6
CONTINUOUS
 10
119.5791376384
 20
193.1943058783
  0
VERTEX
  8
0
 62
7
  6
CONTINUOUS
 10
119.5467057075
 20
193.3445112964
  0
VERTEX
  8
0
 62
7
  6
CONTINUOUS
 10
119.5185002627
 20
193.498998456
  0
VERTEX
  8
0
 62
7
  6
CONTINUOUS
 10
119.4945705179
 20
193.6571014828
  0
VERTEX
  8
0
 62
7
  6
CONTINUOUS
 10
119.4749526195
 20
193.818176486
  0
VERTEX
  8
0
 62
7
  6
CONTINUOUS
 10
119.4596721469
 20
193.9816013998
  0
VERTEX
  8
0
 62
7
  6
CONTINUOUS
 10
119.4487465777
 20
194.1467722627
  0
VERTEX
  8
0
 62
7
  6
CONTINUOUS
 10
119.4421871548
 20
194.3130978544
  0
VERTEX
  8
0
 62
7
  6
CONTINUOUS
 10
119.44
 20
194.4799999999
  0
SEQEND
  0
POLYLINE
  8
0
 62
7
  6
CONTINUOUS
 66
1
 70
0
  0
VERTEX
  8
0
 62
7
  6
CONTINUOUS
 10
112.9582910985
 20
194.4799999999
  0
VERTEX
  8
0
 62
7
  6
CONTINUOUS
 10
112.9606063698
 20
194.3161032266
  0
VERTEX
  8
0
 62
7
  6
CONTINUOUS
 10
112.9675516731
 20
194.1527246848
  0
VERTEX
  8
0
 62
7
  6
CONTINUOUS
 10
112.9791253628
 20
193.9903862981
  0
VERTEX
  8
0
 62
7
  6
CONTINUOUS
 10
112.9953235621
 20
193.8296238523
  0
VERTEX
  8
0
 62
7
  6
CONTINUOUS
 10
113.0161385714
 20
193.6709906581
  0
VERTEX
  8
0
 62
7
  6
CONTINUOUS
 10
113.0415569752
 20
193.5150605901
  0
VERTEX
  8
0
 62
7
  6
CONTINUOUS
 10
113.0715566467
 20
193.3624343188
  0
VERTEX
  8
0
 62
7
  6
CONTINUOUS
 10
113.1061032548
 20
193.2137423321
  0
VERTEX
  8
0
 62
7
  6
CONTINUOUS
 10
113.1451471413
 20
193.0696432756
  0
VERTEX
  8
0
 62
7
  6
CONTINUOUS
 10
113.1886194279
 20
192.9308238485
  0
VERTEX
  8
0
 62
7
  6
CONTINUOUS
 10
113.2364276746
 20
192.7979972377
  0
VERTEX
  8
0
 62
7
  6
CONTINUOUS
 10
113.2884513418
 20
192.6718992341
  0
VERTEX
  8
0
 62
7
  6
CONTINUOUS
 10
113.3445390959
 20
192.553278187
  0
VERTEX
  8
0
 62
7
  6
CONTINUOUS
 10
113.4045050466
 20
192.4428874041
  0
VERTEX
  8
0
 62
7
  6
CONTINUOUS
 10
113.4681253779
 20
192.3414751074
  0
VERTEX
  8
0
 62
7
  6
CONTINUOUS
 10
113.5351369213
 20
192.2497704066
  0
VERTEX
  8
0
 62
7
  6
CONTINUOUS
 10
113.6052366682
 20
192.1684686802
  0
VERTEX
  8
0
 62
7
  6
CONTINUOUS
 10
113.6780610336
 20
192.0982351276
  0
SEQEND
  0
POLYLINE
  8
0
 62
7
  6
CONTINUOUS
 66
1
 70
0
  0
VERTEX
  8
0
 62
7
  6
CONTINUOUS
 10
114.96
 20
194.6799999999
  0
VERTEX
  8
0
 62
7
  6
CONTINUOUS
 10
114.9578128052
 20
194.8469036678
  0
VERTEX
  8
0
 62
7
  6
CONTINUOUS
 10
114.9512532838
 20
195.013230364
  0
VERTEX
  8
0
 62
7
  6
CONTINUOUS
 10
114.9403275873
 20
195.1784019344
  0
VERTEX
  8
0
 62
7
  6
CONTINUOUS
 10
114.9250469859
 20
195.3418271841
  0
VERTEX
  8
0
 62
7
  6
CONTINUOUS
 10
114.905428974
 20
195.5029022423
  0
VERTEX
  8
0
 62
7
  6
CONTINUOUS
 10
114.8814991475
 20
195.6610050814
  0
VERTEX
  8
0
 62
7
  6
CONTINUOUS
 10
114.853293667
 20
195.8154918475
  0
VERTEX
  8
0
 62
7
  6
CONTINUOUS
 10
114.8208617395
 20
195.9656967853
  0
VERTEX
  8
0
 62
7
  6
CONTINUOUS
 10
114.7842683537
 20
196.1109327091
  0
VERTEX
  8
0
 62
7
  6
CONTINUOUS
 10
114.7435977196
 20
196.2504909763
  0
VERTEX
  8
0
 62
7
  6
CONTINUOUS
 10
114.6989565612
 20
196.3836448759
  0
VERTEX
  8
0
 62
7
  6
CONTINUOUS
 10
114.650476666
 20
196.5096565712
  0
VERTEX
  8
0
 62
7
  6
CONTINUOUS
 10
114.5983179385
 20
196.6277831818
  0
VERTEX
  8
0
 62
7
  6
CONTINUOUS
 10
114.5426713179
 20
196.7372847434
  0
VERTEX
  8
0
 62
7
  6
CONTINUOUS
 10
114.4837600033
 20
196.837436353
  0
VERTEX
  8
0
 62
7
  6
CONTINUOUS
 10
114.421854891
 20
196.9275206672
  0
SEQEND
  0
LINE
  8
0
 62
7
  6
CONTINUOUS
 10
112.9582910985
 20
194.6799999999
 11
112.9582910985
 21
194.4799999999
  0
LINE
  8
0
 62
7
  6
CONTINUOUS
 10
114.1
 20
188.8299999999
 11
114.1
 21
191.9299999999
  0
LINE
  8
0
 62
7
  6
CONTINUOUS
 10
114.1
 20
197.2299999999
 11
114.1
 21
200.3299999999
  0
LINE
  8
0
 62
7
  6
CONTINUOUS
 10
114.96
 20
194.4799999999
 11
114.96
 21
194.6799999999
  0
POLYLINE
  8
0
 62
7
  6
CONTINUOUS
 66
1
 70
0
  0
VERTEX
  8
0
 62
7
  6
CONTINUOUS
 10
145.595089461
 20
197.1049227547
  0
VERTEX
  8
0
 62
7
  6
CONTINUOUS
 10
145.663473461
 20
197.1507554258
  0
VERTEX
  8
0
 62
7
  6
CONTINUOUS
 10
145.7249339737
 20
197.1858496651
  0
VERTEX
  8
0
 62
7
  6
CONTINUOUS
 10
145.7795479342
 20
197.2105316677
  0
VERTEX
  8
0
 62
7
  6
CONTINUOUS
 10
145.8276270241
 20
197.2251723388
  0
VERTEX
  8
0
 62
7
  6
CONTINUOUS
 10
145.8692893783
 20
197.2299999999
  0
SEQEND
  0
POLYLINE
  8
0
 62
7
  6
CONTINUOUS
 66
1
 70
0
  0
VERTEX
  8
0
 62
7
  6
CONTINUOUS
 10
139.8750565785
 20
192.0142750802
  0
VERTEX
  8
0
 62
7
  6
CONTINUOUS
 10
139.8189349674
 20
191.977041663
  0
VERTEX
  8
0
 62
7
  6
CONTINUOUS
 10
139.769480015
 20
191.9507138148
  0
VERTEX
  8
0
 62
7
  6
CONTINUOUS
 10
139.726747552
 20
191.9351199204
  0
VERTEX
  8
0
 62
7
  6
CONTINUOUS
 10
139.6907127476
 20
191.9299999999
  0
SEQEND
  0
POLYLINE
  8
0
 62
7
  6
CONTINUOUS
 66
1
 70
0
  0
VERTEX
  8
0
 62
7
  6
CONTINUOUS
 10
120.3
 20
197.2071006388
  0
VERTEX
  8
0
 62
7
  6
CONTINUOUS
 10
120.3029752475
 20
197.1777756919
  0
VERTEX
  8
0
 62
7
  6
CONTINUOUS
 10
120.3118518936
 20
197.1362629915
  0
VERTEX
  8
0
 62
7
  6
CONTINUOUS
 10
120.3264556893
 20
197.0825165365
  0
VERTEX
  8
0
 62
7
  6
CONTINUOUS
 10
120.3466028291
 20
197.0162210081
  0
VERTEX
  8
0
 62
7
  6
CONTINUOUS
 10
120.3719693311
 20
196.9372733389
  0
VERTEX
  8
0
 62
7
  6
CONTINUOUS
 10
120.4363995938
 20
196.7415167639
  0
SEQEND
  0
LINE
  8
0
 62
7
  6
CONTINUOUS
 10
119.44
 20
194.4799999999
 11
119.44
 21
194.6799999999
  0
LINE
  8
0
 62
7
  6
CONTINUOUS
 10
120.3
 20
188.8299999999
 11
120.3
 21
191.952899361
  0
LINE
  8
0
 62
7
  6
CONTINUOUS
 10
120.3
 20
197.2071006388
 11
120.3
 21
200.3299999999
  0
LINE
  8
0
 62
7
  6
CONTINUOUS
 10
120.8144456029
 20
194.6799999999
 11
120.8144456029
 21
194.4799999999
  0
POLYLINE
  8
0
 62
7
  6
CONTINUOUS
 66
1
 70
0
  0
VERTEX
  8
0
 62
7
  6
CONTINUOUS
 10
119.44
 20
194.6799999999
  0
VERTEX
  8
0
 62
7
  6
CONTINUOUS
 10
119.4421871948
 20
194.8469036678
  0
VERTEX
  8
0
 62
7
  6
CONTINUOUS
 10
119.4487467162
 20
195.0132303641
  0
VERTEX
  8
0
 62
7
  6
CONTINUOUS
 10
119.4596724127
 20
195.1784019344
  0
VERTEX
  8
0
 62
7
  6
CONTINUOUS
 10
119.4749530141
 20
195.3418271841
  0
VERTEX
  8
0
 62
7
  6
CONTINUOUS
 10
119.4945710259
 20
195.5029022422
  0
VERTEX
  8
0
 62
7
  6
CONTINUOUS
 10
119.5185008524
 20
195.6610050812
  0
VERTEX
  8
0
 62
7
  6
CONTINUOUS
 10
119.5467063329
 20
195.8154918472
  0
VERTEX
  8
0
 62
7
  6
CONTINUOUS
 10
119.5791382604
 20
195.965696785
  0
VERTEX
  8
0
 62
7
  6
CONTINUOUS
 10
119.6157316462
 20
196.1109327087
  0
VERTEX
  8
0
 62
7
  6
CONTINUOUS
 10
119.6564022803
 20
196.2504909758
  0
VERTEX
  8
0
 62
7
  6
CONTINUOUS
 10
119.7010434386
 20
196.3836448754
  0
VERTEX
  8
0
 62
7
  6
CONTINUOUS
 10
119.7495233337
 20
196.5096565706
  0
VERTEX
  8
0
 62
7
  6
CONTINUOUS
 10
119.8016820612
 20
196.6277831812
  0
VERTEX
  8
0
 62
7
  6
CONTINUOUS
 10
119.8573286818
 20
196.7372847428
  0
VERTEX
  8
0
 62
7
  6
CONTINUOUS
 10
119.9162399963
 20
196.8374363524
  0
VERTEX
  8
0
 62
7
  6
CONTINUOUS
 10
119.978145109
 20
196.9275206672
  0
SEQEND
  0
POLYLINE
  8
0
 62
7
  6
CONTINUOUS
 66
1
 70
0
  0
VERTEX
  8
0
 62
7
  6
CONTINUOUS
 10
120.8144456029
 20
194.4799999999
  0
VERTEX
  8
0
 62
7
  6
CONTINUOUS
 10
120.8114906345
 20
194.3050233525
  0
VERTEX
  8
0
 62
7
  6
CONTINUOUS
 10
120.8026306393
 20
194.1298499799
  0
VERTEX
  8
0
 62
7
  6
CONTINUOUS
 10
120.7879690661
 20
193.9551609844
  0
VERTEX
  8
0
 62
7
  6
CONTINUOUS
 10
120.7676664575
 20
193.7811188603
  0
VERTEX
  8
0
 62
7
  6
CONTINUOUS
 10
120.7420478391
 20
193.6085481936
  0
VERTEX
  8
0
 62
7
  6
CONTINUOUS
 10
120.7114825667
 20
193.4378094034
  0
VERTEX
  8
0
 62
7
  6
CONTINUOUS
 10
120.6766451142
 20
193.2703156203
  0
VERTEX
  8
0
 62
7
  6
CONTINUOUS
 10
120.6384132669
 20
193.1075821253
  0
VERTEX
  8
0
 62
7
  6
CONTINUOUS
 10
120.5977877763
 20
192.950983718
  0
VERTEX
  8
0
 62
7
  6
CONTINUOUS
 10
120.556024575
 20
192.8023723944
  0
VERTEX
  8
0
 62
7
  6
CONTINUOUS
 10
120.514428328
 20
192.6633821594
  0
VERTEX
  8
0
 62
7
  6
CONTINUOUS
 10
120.4741791822
 20
192.535097416
  0
VERTEX
  8
0
 62
7
  6
CONTINUOUS
 10
120.4363995813
 20
192.4184831975
  0
VERTEX
  8
0
 62
7
  6
CONTINUOUS
 10
120.3719689868
 20
192.222725606
  0
SEQEND
  0
POLYLINE
  8
0
 62
7
  6
CONTINUOUS
 66
1
 70
0
  0
VERTEX
  8
0
 62
7
  6
CONTINUOUS
 10
120.3719689868
 20
192.222725606
  0
VERTEX
  8
0
 62
7
  6
CONTINUOUS
 10
120.346600571
 20
192.1437718069
  0
VERTEX
  8
0
 62
7
  6
CONTINUOUS
 10
120.3264517019
 20
192.0774697294
  0
VERTEX
  8
0
 62
7
  6
CONTINUOUS
 10
120.3118493904
 20
192.023726887
  0
VERTEX
  8
0
 62
7
  6
CONTINUOUS
 10
120.3029746823
 20
191.9822209412
  0
VERTEX
  8
0
 62
7
  6
CONTINUOUS
 10
120.3
 20
191.952899361
  0
SEQEND
  0
POLYLINE
  8
0
 62
7
  6
CONTINUOUS
 66
1
 70
0
  0
VERTEX
  8
0
 62
7
  6
CONTINUOUS
 10
126.9516829326
 20
197.1325417096
  0
VERTEX
  8
0
 62
7
  6
CONTINUOUS
 10
126.9969686466
 20
197.2237168688
  0
VERTEX
  8
0
 62
7
  6
CONTINUOUS
 10
127.0
 20
197.229995451
  0
SEQEND
  0
POLYLINE
  8
0
 62
7
  6
CONTINUOUS
 66
1
 70
0
  0
VERTEX
  8
0
 62
7
  6
CONTINUOUS
 10
127.2526373964
 20
192.1900180465
  0
VERTEX
  8
0
 62
7
  6
CONTINUOUS
 10
127.3092928986
 20
192.2766775712
  0
VERTEX
  8
0
 62
7
  6
CONTINUOUS
 10
127.3634012587
 20
192.3743352928
  0
VERTEX
  8
0
 62
7
  6
CONTINUOUS
 10
127.4146867487
 20
192.4822893494
  0
VERTEX
  8
0
 62
7
  6
CONTINUOUS
 10
127.4629164874
 20
192.5998177264
  0
VERTEX
  8
0
 62
7
  6
CONTINUOUS
 10
127.5078856007
 20
192.7261692111
  0
VERTEX
  8
0
 62
7
  6
CONTINUOUS
 10
127.5494168783
 20
192.8605755167
  0
VERTEX
  8
0
 62
7
  6
CONTINUOUS
 10
127.5873590077
 20
193.002260071
  0
VERTEX
  8
0
 62
7
  6
CONTINUOUS
 10
127.6215845218
 20
193.1504450146
  0
VERTEX
  8
0
 62
7
  6
CONTINUOUS
 10
127.6519880608
 20
193.3043589277
  0
VERTEX
  8
0
 62
7
  6
CONTINUOUS
 10
127.678483979
 20
193.4632415408
  0
VERTEX
  8
0
 62
7
  6
CONTINUOUS
 10
127.7010037147
 20
193.6263451831
  0
VERTEX
  8
0
 62
7
  6
CONTINUOUS
 10
127.7194936641
 20
193.7929364973
  0
VERTEX
  8
0
 62
7
  6
CONTINUOUS
 10
127.7339132192
 20
193.9622975769
  0
VERTEX
  8
0
 62
7
  6
CONTINUOUS
 10
127.7442327814
 20
194.1337237361
  0
VERTEX
  8
0
 62
7
  6
CONTINUOUS
 10
127.7504322272
 20
194.306519452
  0
VERTEX
  8
0
 62
7
  6
CONTINUOUS
 10
127.7525
 20
194.4799999999
  0
SEQEND
  0
POLYLINE
  8
0
 62
7
  6
CONTINUOUS
 66
1
 70
0
  0
VERTEX
  8
0
 62
7
  6
CONTINUOUS
 10
127.2526373964
 20
192.1900180465
  0
VERTEX
  8
0
 62
7
  6
CONTINUOUS
 10
127.20079182
 20
192.1194235991
  0
VERTEX
  8
0
 62
7
  6
CONTINUOUS
 10
127.1548069324
 20
192.0605355216
  0
VERTEX
  8
0
 62
7
  6
CONTINUOUS
 10
127.1148054657
 20
192.012981604
  0
VERTEX
  8
0
 62
7
  6
CONTINUOUS
 10
127.0807913555
 20
191.9763776145
  0
VERTEX
  8
0
 62
7
  6
CONTINUOUS
 10
127.0528342654
 20
191.9505123678
  0
VERTEX
  8
0
 62
7
  6
CONTINUOUS
 10
127.0308439393
 20
191.9351011654
  0
VERTEX
  8
0
 62
7
  6
CONTINUOUS
 10
127.0148073373
 20
191.9299999999
  0
SEQEND
  0
POLYLINE
  8
0
 62
7
  6
CONTINUOUS
 66
1
 70
0
  0
VERTEX
  8
0
 62
7
  6
CONTINUOUS
 10
132.5473626036
 20
196.9699819533
  0
VERTEX
  8
0
 62
7
  6
CONTINUOUS
 10
132.5992104138
 20
197.0405793526
  0
VERTEX
  8
0
 62
7
  6
CONTINUOUS
 10
132.6451958697
 20
197.0994679419
  0
VERTEX
  8
0
 62
7
  6
CONTINUOUS
 10
132.6851910241
 20
197.1470144096
  0
VERTEX
  8
0
 62
7
  6
CONTINUOUS
 10
132.7192003718
 20
197.1836140574
  0
VERTEX
  8
0
 62
7
  6
CONTINUOUS
 10
132.7471576569
 20
197.2094809644
  0
VERTEX
  8
0
 62
7
  6
CONTINUOUS
 10
132.7691518769
 20
197.2248965822
  0
VERTEX
  8
0
 62
7
  6
CONTINUOUS
 10
132.7851926627
 20
197.2299999999
  0
SEQEND
  0
POLYLINE
  8
0
 62
7
  6
CONTINUOUS
 66
1
 70
0
  0
VERTEX
  8
0
 62
7
  6
CONTINUOUS
 10
139.8750565785
 20
192.0142750802
  0
VERTEX
  8
0
 62
7
  6
CONTINUOUS
 10
139.9393921117
 20
192.0673541247
  0
VERTEX
  8
0
 62
7
  6
CONTINUOUS
 10
140.0019787061
 20
192.1326876588
  0
VERTEX
  8
0
 62
7
  6
CONTINUOUS
 10
140.0624585137
 20
192.2097583178
  0
VERTEX
  8
0
 62
7
  6
CONTINUOUS
 10
140.1205190551
 20
192.2979911454
  0
VERTEX
  8
0
 62
7
  6
CONTINUOUS
 10
140.1758755879
 20
192.3967514532
  0
VERTEX
  8
0
 62
7
  6
CONTINUOUS
 10
140.2282724744
 20
192.5053574202
  0
VERTEX
  8
0
 62
7
  6
CONTINUOUS
 10
140.2774839278
 20
192.6230932722
  0
VERTEX
  8
0
 62
7
  6
CONTINUOUS
 10
140.323313277
 20
192.7492205708
  0
VERTEX
  8
0
 62
7
  6
CONTINUOUS
 10
140.3655915273
 20
192.882987829
  0
VERTEX
  8
0
 62
7
  6
CONTINUOUS
 10
140.4041759343
 20
193.0236401323
  0
VERTEX
  8
0
 62
7
  6
CONTINUOUS
 10
140.4389480926
 20
193.1704276068
  0
VERTEX
  8
0
 62
7
  6
CONTINUOUS
 10
140.4698113272
 20
193.3226109562
  0
VERTEX
  8
0
 62
7
  6
CONTINUOUS
 10
140.4966876757
 20
193.4794630463
  0
VERTEX
  8
0
 62
7
  6
CONTINUOUS
 10
140.5195159261
 20
193.6402737235
  0
VERTEX
  8
0
 62
7
  6
CONTINUOUS
 10
140.53824905
 20
193.8043504167
  0
VERTEX
  8
0
 62
7
  6
CONTINUOUS
 10
140.5528519435
 20
193.9710179936
  0
VERTEX
  8
0
 62
7
  6
CONTINUOUS
 10
140.5632992246
 20
194.1396138278
  0
VERTEX
  8
0
 62
7
  6
CONTINUOUS
 10
140.5695740102
 20
194.3094879001
  0
VERTEX
  8
0
 62
7
  6
CONTINUOUS
 10
140.5716666667
 20
194.4799999999
  0
SEQEND
  0
POLYLINE
  8
0
 62
7
  6
CONTINUOUS
 66
1
 70
0
  0
VERTEX
  8
0
 62
7
  6
CONTINUOUS
 10
145.595089461
 20
192.0550772451
  0
VERTEX
  8
0
 62
7
  6
CONTINUOUS
 10
145.5144233936
 20
192.120013253
  0
VERTEX
  8
0
 62
7
  6
CONTINUOUS
 10
145.436571943
 20
192.1974135278
  0
VERTEX
  8
0
 62
7
  6
CONTINUOUS
 10
145.3619983259
 20
192.2865502259
  0
VERTEX
  8
0
 62
7
  6
CONTINUOUS
 10
145.2910866827
 20
192.3866477295
  0
VERTEX
  8
0
 62
7
  6
CONTINUOUS
 10
145.2241703329
 20
192.4968811407
  0
VERTEX
  8
0
 62
7
  6
CONTINUOUS
 10
145.1615317621
 20
192.6163958605
  0
VERTEX
  8
0
 62
7
  6
CONTINUOUS
 10
145.1034040587
 20
192.7443264894
  0
VERTEX
  8
0
 62
7
  6
CONTINUOUS
 10
145.0499749201
 20
192.8798113166
  0
VERTEX
  8
0
 62
7
  6
CONTINUOUS
 10
145.0013916387
 20
193.0220030506
  0
VERTEX
  8
0
 62
7
  6
CONTINUOUS
 10
144.9577646874
 20
193.170082414
  0
VERTEX
  8
0
 62
7
  6
CONTINUOUS
 10
144.9191738219
 20
193.3232640749
  0
VERTEX
  8
0
 62
7
  6
CONTINUOUS
 10
144.8856741148
 20
193.4807988443
  0
VERTEX
  8
0
 62
7
  6
CONTINUOUS
 10
144.8573011982
 20
193.6419745923
  0
VERTEX
  8
0
 62
7
  6
CONTINUOUS
 10
144.8340756536
 20
193.8061182361
  0
VERTEX
  8
0
 62
7
  6
CONTINUOUS
 10
144.816007802
 20
193.9725921803
  0
VERTEX
  8
0
 62
7
  6
CONTINUOUS
 10
144.8031019168
 20
194.1407856206
  0
VERTEX
  8
0
 62
7
  6
CONTINUOUS
 10
144.7953587453
 20
194.3101113659
  0
VERTEX
  8
0
 62
7
  6
CONTINUOUS
 10
144.7927777778
 20
194.4799999999
  0
SEQEND
  0
POLYLINE
  8
0
 62
7
  6
CONTINUOUS
 66
1
 70
0
  0
VERTEX
  8
0
 62
7
  6
CONTINUOUS
 10
132.5473626036
 20
192.1900180465
  0
VERTEX
  8
0
 62
7
  6
CONTINUOUS
 10
132.4907071015
 20
192.2766775711
  0
VERTEX
  8
0
 62
7
  6
CONTINUOUS
 10
132.4365987413
 20
192.3743352927
  0
VERTEX
  8
0
 62
7
  6
CONTINUOUS
 10
132.3853132513
 20
192.4822893493
  0
VERTEX
  8
0
 62
7
  6
CONTINUOUS
 10
132.3370835127
 20
192.5998177263
  0
VERTEX
  8
0
 62
7
  6
CONTINUOUS
 10
132.2921143993
 20
192.726169211
  0
VERTEX
  8
0
 62
7
  6
CONTINUOUS
 10
132.2505831217
 20
192.8605755167
  0
VERTEX
  8
0
 62
7
  6
CONTINUOUS
 10
132.2126409923
 20
193.002260071
  0
VERTEX
  8
0
 62
7
  6
CONTINUOUS
 10
132.1784154783
 20
193.1504450145
  0
VERTEX
  8
0
 62
7
  6
CONTINUOUS
 10
132.1480119392
 20
193.3043589277
  0
VERTEX
  8
0
 62
7
  6
CONTINUOUS
 10
132.121516021
 20
193.4632415407
  0
VERTEX
  8
0
 62
7
  6
CONTINUOUS
 10
132.0989962853
 20
193.6263451831
  0
VERTEX
  8
0
 62
7
  6
CONTINUOUS
 10
132.0805063359
 20
193.7929364973
  0
VERTEX
  8
0
 62
7
  6
CONTINUOUS
 10
132.0660867808
 20
193.9622975768
  0
VERTEX
  8
0
 62
7
  6
CONTINUOUS
 10
132.0557672186
 20
194.1337237361
  0
VERTEX
  8
0
 62
7
  6
CONTINUOUS
 10
132.0495677728
 20
194.306519452
  0
VERTEX
  8
0
 62
7
  6
CONTINUOUS
 10
132.0475
 20
194.4799999999
  0
SEQEND
  0
POLYLINE
  8
0
 62
7
  6
CONTINUOUS
 66
1
 70
0
  0
VERTEX
  8
0
 62
7
  6
CONTINUOUS
 10
126.9969687523
 20
191.9362829176
  0
VERTEX
  8
0
 62
7
  6
CONTINUOUS
 10
126.9516866146
 20
192.0274508047
  0
VERTEX
  8
0
 62
7
  6
CONTINUOUS
 10
126.9248313491
 20
192.0824762419
  0
VERTEX
  8
0
 62
7
  6
CONTINUOUS
 10
126.8923493985
 20
192.1502750031
  0
VERTEX
  8
0
 62
7
  6
CONTINUOUS
 10
126.8544873824
 20
192.2312249759
  0
VERTEX
  8
0
 62
7
  6
CONTINUOUS
 10
126.8118339391
 20
192.3252068598
  0
VERTEX
  8
0
 62
7
  6
CONTINUOUS
 10
126.7651925101
 20
192.4318423998
  0
VERTEX
  8
0
 62
7
  6
CONTINUOUS
 10
126.7153423981
 20
192.5510337151
  0
VERTEX
  8
0
 62
7
  6
CONTINUOUS
 10
126.6634406426
 20
192.6820058729
  0
VERTEX
  8
0
 62
7
  6
CONTINUOUS
 10
126.6108766862
 20
192.8234881481
  0
VERTEX
  8
0
 62
7
  6
CONTINUOUS
 10
126.559092483
 20
192.974003786
  0
VERTEX
  8
0
 62
7
  6
CONTINUOUS
 10
126.5096060833
 20
193.1315857141
  0
VERTEX
  8
0
 62
7
  6
CONTINUOUS
 10
126.4637095718
 20
193.2944714023
  0
VERTEX
  8
0
 62
7
  6
CONTINUOUS
 10
126.4225133954
 20
193.4608677217
  0
VERTEX
  8
0
 62
7
  6
CONTINUOUS
 10
126.3867800701
 20
193.6295857395
  0
VERTEX
  8
0
 62
7
  6
CONTINUOUS
 10
126.3571278958
 20
193.7992550039
  0
VERTEX
  8
0
 62
7
  6
CONTINUOUS
 10
126.3338365406
 20
193.9695147673
  0
VERTEX
  8
0
 62
7
  6
CONTINUOUS
 10
126.3171292383
 20
194.1397305553
  0
VERTEX
  8
0
 62
7
  6
CONTINUOUS
 10
126.3070723514
 20
194.3100423079
  0
VERTEX
  8
0
 62
7
  6
CONTINUOUS
 10
126.3037241135
 20
194.4799999999
  0
SEQEND
  0
LINE
  8
0
 62
7
  6
CONTINUOUS
 10
127.0
 20
191.9300045488
 11
126.9969687523
 21
191.9362829176
  0
POLYLINE
  8
0
 62
7
  6
CONTINUOUS
 66
1
 70
0
  0
VERTEX
  8
0
 62
7
  6
CONTINUOUS
 10
120.4363995938
 20
196.7415167639
  0
VERTEX
  8
0
 62
7
  6
CONTINUOUS
 10
120.4741783321
 20
196.6249052429
  0
VERTEX
  8
0
 62
7
  6
CONTINUOUS
 10
120.514429239
 20
196.4966148757
  0
VERTEX
  8
0
 62
7
  6
CONTINUOUS
 10
120.5560234415
 20
196.3576315026
  0
VERTEX
  8
0
 62
7
  6
CONTINUOUS
 10
120.5977857972
 20
196.209023589
  0
VERTEX
  8
0
 62
7
  6
CONTINUOUS
 10
120.6384116405
 20
196.0524244404
  0
VERTEX
  8
0
 62
7
  6
CONTINUOUS
 10
120.6766436243
 20
195.8896910937
  0
VERTEX
  8
0
 62
7
  6
CONTINUOUS
 10
120.7114816101
 20
195.7221955309
  0
VERTEX
  8
0
 62
7
  6
CONTINUOUS
 10
120.7420479313
 20
195.5514512442
  0
VERTEX
  8
0
 62
7
  6
CONTINUOUS
 10
120.7676665578
 20
195.3788803841
  0
VERTEX
  8
0
 62
7
  6
CONTINUOUS
 10
120.7879683165
 20
195.2048464798
  0
VERTEX
  8
0
 62
7
  6
CONTINUOUS
 10
120.8026299614
 20
195.030160085
  0
VERTEX
  8
0
 62
7
  6
CONTINUOUS
 10
120.8114901876
 20
194.8549898828
  0
VERTEX
  8
0
 62
7
  6
CONTINUOUS
 10
120.8144456029
 20
194.6799999999
  0
SEQEND
  0
POLYLINE
  8
0
 62
7
  6
CONTINUOUS
 66
1
 70
0
  0
VERTEX
  8
0
 62
7
  6
CONTINUOUS
 10
127.7525
 20
194.6799999999
  0
VERTEX
  8
0
 62
7
  6
CONTINUOUS
 10
127.7504321971
 20
194.853481807
  0
VERTEX
  8
0
 62
7
  6
CONTINUOUS
 10
127.7442326774
 20
195.0262784325
  0
VERTEX
  8
0
 62
7
  6
CONTINUOUS
 10
127.7339130199
 20
195.197705169
  0
VERTEX
  8
0
 62
7
  6
CONTINUOUS
 10
127.7194933686
 20
195.3670665193
  0
VERTEX
  8
0
 62
7
  6
CONTINUOUS
 10
127.7010033354
 20
195.5336578672
  0
VERTEX
  8
0
 62
7
  6
CONTINUOUS
 10
127.6784835406
 20
195.69676134
  0
VERTEX
  8
0
 62
7
  6
CONTINUOUS
 10
127.6519875979
 20
195.8556436177
  0
VERTEX
  8
0
 62
7
  6
CONTINUOUS
 10
127.6215840657
 20
196.0095571175
  0
VERTEX
  8
0
 62
7
  6
CONTINUOUS
 10
127.587358596
 20
196.1577415829
  0
VERTEX
  8
0
 62
7
  6
CONTINUOUS
 10
127.5494165516
 20
196.2994256183
  0
VERTEX
  8
0
 62
7
  6
CONTINUOUS
 10
127.5078853875
 20
196.4338314317
  0
VERTEX
  8
0
 62
7
  6
CONTINUOUS
 10
127.4629163987
 20
196.5601825055
  0
VERTEX
  8
0
 62
7
  6
CONTINUOUS
 10
127.4146867694
 20
196.6777106036
  0
VERTEX
  8
0
 62
7
  6
CONTINUOUS
 10
127.363401346
 20
196.7856645368
  0
VERTEX
  8
0
 62
7
  6
CONTINUOUS
 10
127.3092929891
 20
196.8833222779
  0
VERTEX
  8
0
 62
7
  6
CONTINUOUS
 10
127.2526373964
 20
196.9699819533
  0
SEQEND
  0
LINE
  8
0
 62
7
  6
CONTINUOUS
 10
126.3037241135
 20
194.6799999999
 11
126.3037241135
 21
194.4799999999
  0
LINE
  8
0
 62
7
  6
CONTINUOUS
 10
127.0
 20
188.8299999999
 11
127.0
 21
191.9299999999
  0
LINE
  8
0
 62
7
  6
CONTINUOUS
 10
127.0
 20
197.2299999999
 11
127.0
 21
200.3299999999
  0
LINE
  8
0
 62
7
  6
CONTINUOUS
 10
127.7525
 20
194.4799999999
 11
127.7525
 21
194.6799999999
  0
POLYLINE
  8
0
 62
7
  6
CONTINUOUS
 66
1
 70
0
  0
VERTEX
  8
0
 62
7
  6
CONTINUOUS
 10
126.3037241135
 20
194.6799999999
  0
VERTEX
  8
0
 62
7
  6
CONTINUOUS
 10
126.3070728808
 20
194.8499711315
  0
VERTEX
  8
0
 62
7
  6
CONTINUOUS
 10
126.3171297129
 20
195.0202754773
  0
VERTEX
  8
0
 62
7
  6
CONTINUOUS
 10
126.3338367921
 20
195.1904873721
  0
VERTEX
  8
0
 62
7
  6
CONTINUOUS
 10
126.3571271354
 20
195.3607401194
  0
VERTEX
  8
0
 62
7
  6
CONTINUOUS
 10
126.3867786255
 20
195.5304067932
  0
VERTEX
  8
0
 62
7
  6
CONTINUOUS
 10
126.4225103598
 20
195.6991190782
  0
VERTEX
  8
0
 62
7
  6
CONTINUOUS
 10
126.4637050548
 20
195.8655115539
  0
VERTEX
  8
0
 62
7
  6
CONTINUOUS
 10
126.5096017212
 20
196.0283996648
  0
VERTEX
  8
0
 62
7
  6
CONTINUOUS
 10
126.5590848365
 20
196.185973011
  0
VERTEX
  8
0
 62
7
  6
CONTINUOUS
 10
126.6108647314
 20
196.3364784927
  0
VERTEX
  8
0
 62
7
  6
CONTINUOUS
 10
126.6634274464
 20
196.4779598085
  0
VERTEX
  8
0
 62
7
  6
CONTINUOUS
 10
126.715330604
 20
196.6089373704
  0
VERTEX
  8
0
 62
7
  6
CONTINUOUS
 10
126.7651814966
 20
196.7281318946
  0
VERTEX
  8
0
 62
7
  6
CONTINUOUS
 10
126.8118262527
 20
196.8347759146
  0
VERTEX
  8
0
 62
7
  6
CONTINUOUS
 10
126.8544819551
 20
196.9287632606
  0
VERTEX
  8
0
 62
7
  6
CONTINUOUS
 10
126.8923442456
 20
197.0097141253
  0
VERTEX
  8
0
 62
7
  6
CONTINUOUS
 10
126.9248260479
 20
197.0775128078
  0
VERTEX
  8
0
 62
7
  6
CONTINUOUS
 10
126.9516829326
 20
197.1325417096
  0
SEQEND
  0
LINE
  8
0
 62
7
  6
CONTINUOUS
 10
132.0475
 20
194.4799999999
 11
132.0475
 21
194.6799999999
  0
LINE
  8
0
 62
7
  6
CONTINUOUS
 10
132.8
 20
188.8299999999
 11
132.8
 21
191.9299999999
  0
LINE
  8
0
 62
7
  6
CONTINUOUS
 10
132.8
 20
197.2299999999
 11
132.8
 21
200.3299999999
  0
POLYLINE
  8
0
 62
7
  6
CONTINUOUS
 66
1
 70
0
  0
VERTEX
  8
0
 62
7
  6
CONTINUOUS
 10
132.0475
 20
194.6799999999
  0
VERTEX
  8
0
 62
7
  6
CONTINUOUS
 10
132.0495678029
 20
194.853481807
  0
VERTEX
  8
0
 62
7
  6
CONTINUOUS
 10
132.0557673226
 20
195.0262784325
  0
VERTEX
  8
0
 62
7
  6
CONTINUOUS
 10
132.0660869801
 20
195.197705169
  0
VERTEX
  8
0
 62
7
  6
CONTINUOUS
 10
132.0805066314
 20
195.3670665193
  0
VERTEX
  8
0
 62
7
  6
CONTINUOUS
 10
132.0989966646
 20
195.5336578672
  0
VERTEX
  8
0
 62
7
  6
CONTINUOUS
 10
132.1215164594
 20
195.6967613401
  0
VERTEX
  8
0
 62
7
  6
CONTINUOUS
 10
132.1480124021
 20
195.8556436177
  0
VERTEX
  8
0
 62
7
  6
CONTINUOUS
 10
132.1784159343
 20
196.0095571175
  0
VERTEX
  8
0
 62
7
  6
CONTINUOUS
 10
132.212641404
 20
196.157741583
  0
VERTEX
  8
0
 62
7
  6
CONTINUOUS
 10
132.2505834484
 20
196.2994256184
  0
VERTEX
  8
0
 62
7
  6
CONTINUOUS
 10
132.2921146125
 20
196.4338314318
  0
VERTEX
  8
0
 62
7
  6
CONTINUOUS
 10
132.3370836013
 20
196.5601825056
  0
VERTEX
  8
0
 62
7
  6
CONTINUOUS
 10
132.3853132307
 20
196.6777106037
  0
VERTEX
  8
0
 62
7
  6
CONTINUOUS
 10
132.4365986541
 20
196.7856645369
  0
VERTEX
  8
0
 62
7
  6
CONTINUOUS
 10
132.490707011
 20
196.883322278
  0
VERTEX
  8
0
 62
7
  6
CONTINUOUS
 10
132.5473626036
 20
196.9699819533
  0
SEQEND
  0
POLYLINE
  8
0
 62
7
  6
CONTINUOUS
 66
1
 70
0
  0
VERTEX
  8
0
 62
7
  6
CONTINUOUS
 10
132.848314027
 20
192.0274521091
  0
VERTEX
  8
0
 62
7
  6
CONTINUOUS
 10
132.8030313141
 20
191.9362830515
  0
VERTEX
  8
0
 62
7
  6
CONTINUOUS
 10
132.8
 20
191.9300045488
  0
SEQEND
  0
POLYLINE
  8
0
 62
7
  6
CONTINUOUS
 66
1
 70
0
  0
VERTEX
  8
0
 62
7
  6
CONTINUOUS
 10
132.803031422
 20
197.2237167303
  0
VERTEX
  8
0
 62
7
  6
CONTINUOUS
 10
132.8483177261
 20
197.1325403703
  0
VERTEX
  8
0
 62
7
  6
CONTINUOUS
 10
132.875174708
 20
197.0775112463
  0
VERTEX
  8
0
 62
7
  6
CONTINUOUS
 10
132.9076567832
 20
197.0097119548
  0
VERTEX
  8
0
 62
7
  6
CONTINUOUS
 10
132.9455195002
 20
196.9287601064
  0
VERTEX
  8
0
 62
7
  6
CONTINUOUS
 10
132.9881754358
 20
196.8347721308
  0
VERTEX
  8
0
 62
7
  6
CONTINUOUS
 10
133.0348209287
 20
196.728126234
  0
VERTEX
  8
0
 62
7
  6
CONTINUOUS
 10
133.0846723934
 20
196.608930022
  0
VERTEX
  8
0
 62
7
  6
CONTINUOUS
 10
133.1365758888
 20
196.4779511348
  0
VERTEX
  8
0
 62
7
  6
CONTINUOUS
 10
133.1891383539
 20
196.3364698831
  0
VERTEX
  8
0
 62
7
  6
CONTINUOUS
 10
133.2409172476
 20
196.1859666869
  0
VERTEX
  8
0
 62
7
  6
CONTINUOUS
 10
133.2903995209
 20
196.0283955015
  0
VERTEX
  8
0
 62
7
  6
CONTINUOUS
 10
133.3362962874
 20
195.8655064892
  0
VERTEX
  8
0
 62
7
  6
CONTINUOUS
 10
133.37749071
 20
195.6991144259
  0
VERTEX
  8
0
 62
7
  6
CONTINUOUS
 10
133.413222158
 20
195.5304027435
  0
VERTEX
  8
0
 62
7
  6
CONTINUOUS
 10
133.4428733229
 20
195.3607371804
  0
VERTEX
  8
0
 62
7
  6
CONTINUOUS
 10
133.4661634737
 20
195.1904851113
  0
VERTEX
  8
0
 62
7
  6
CONTINUOUS
 10
133.4828704119
 20
195.0202738911
  0
VERTEX
  8
0
 62
7
  6
CONTINUOUS
 10
133.492927155
 20
194.8499702233
  0
VERTEX
  8
0
 62
7
  6
CONTINUOUS
 10
133.4962758865
 20
194.6799999999
  0
SEQEND
  0
LINE
  8
0
 62
7
  6
CONTINUOUS
 10
132.8
 20
197.229995451
 11
132.803031422
 21
197.2237167303
  0
LINE
  8
0
 62
7
  6
CONTINUOUS
 10
133.4962758865
 20
194.6799999999
 11
133.4962758865
 21
194.4799999999
  0
POLYLINE
  8
0
 62
7
  6
CONTINUOUS
 66
1
 70
0
  0
VERTEX
  8
0
 62
7
  6
CONTINUOUS
 10
133.4962758865
 20
194.4799999999
  0
VERTEX
  8
0
 62
7
  6
CONTINUOUS
 10
133.4929276843
 20
194.3100432148
  0
VERTEX
  8
0
 62
7
  6
CONTINUOUS
 10
133.4828708885
 20
194.1397321676
  0
VERTEX
  8
0
 62
7
  6
CONTINUOUS
 10
133.4661637253
 20
193.9695170283
  0
VERTEX
  8
0
 62
7
  6
CONTINUOUS
 10
133.4428725643
 20
193.7992579545
  0
VERTEX
  8
0
 62
7
  6
CONTINUOUS
 10
133.4132207037
 20
193.6295897392
  0
VERTEX
  8
0
 62
7
  6
CONTINUOUS
 10
133.3774876676
 20
193.4608723439
  0
VERTEX
  8
0
 62
7
  6
CONTINUOUS
 10
133.336291762
 20
193.2944764349
  0
VERTEX
  8
0
 62
7
  6
CONTINUOUS
 10
133.2903951358
 20
193.1315898002
  0
VERTEX
  8
0
 62
7
  6
CONTINUOUS
 10
133.2409095355
 20
192.974009911
  0
VERTEX
  8
0
 62
7
  6
CONTINUOUS
 10
133.1891263179
 20
192.8234965307
  0
VERTEX
  8
0
 62
7
  6
CONTINUOUS
 10
133.1365625927
 20
192.6820142866
  0
VERTEX
  8
0
 62
7
  6
CONTINUOUS
 10
133.0846605223
 20
192.5510408747
  0
VERTEX
  8
0
 62
7
  6
CONTINUOUS
 10
133.0348098538
 20
192.4318479171
  0
VERTEX
  8
0
 62
7
  6
CONTINUOUS
 10
132.9881676795
 20
192.3252104872
  0
VERTEX
  8
0
 62
7
  6
CONTINUOUS
 10
132.9455140205
 20
192.2312280167
  0
VERTEX
  8
0
 62
7
  6
CONTINUOUS
 10
132.9076515885
 20
192.1502770855
  0
VERTEX
  8
0
 62
7
  6
CONTINUOUS
 10
132.8751693637
 20
192.0824777142
  0
VERTEX
  8
0
 62
7
  6
CONTINUOUS
 10
132.848314027
 20
192.0274521091
  0
SEQEND
  0
POLYLINE
  8
0
 62
7
  6
CONTINUOUS
 66
1
 70
0
  0
VERTEX
  8
0
 62
7
  6
CONTINUOUS
 10
139.5558373684
 20
197.0941299451
  0
VERTEX
  8
0
 62
7
  6
CONTINUOUS
 10
139.5749710946
 20
197.1436836713
  0
VERTEX
  8
0
 62
7
  6
CONTINUOUS
 10
139.5888232534
 20
197.1820245434
  0
VERTEX
  8
0
 62
7
  6
CONTINUOUS
 10
139.5972006205
 20
197.2091433871
  0
VERTEX
  8
0
 62
7
  6
CONTINUOUS
 10
139.6
 20
197.2250889256
  0
SEQEND
  0
LINE
  8
0
 62
7
  6
CONTINUOUS
 10
139.4686284688
 20
196.8756312029
 11
139.5558373684
 21
197.0941299451
  0
POLYLINE
  8
0
 62
7
  6
CONTINUOUS
 66
1
 70
0
  0
VERTEX
  8
0
 62
7
  6
CONTINUOUS
 10
139.4932153231
 20
192.2225991266
  0
VERTEX
  8
0
 62
7
  6
CONTINUOUS
 10
139.456458314
 20
192.3152005012
  0
VERTEX
  8
0
 62
7
  6
CONTINUOUS
 10
139.4156071513
 20
192.4204060578
  0
VERTEX
  8
0
 62
7
  6
CONTINUOUS
 10
139.371474388
 20
192.5379174835
  0
VERTEX
  8
0
 62
7
  6
CONTINUOUS
 10
139.3250082939
 20
192.6673186195
  0
VERTEX
  8
0
 62
7
  6
CONTINUOUS
 10
139.2774464268
 20
192.8075677843
  0
VERTEX
  8
0
 62
7
  6
CONTINUOUS
 10
139.2300988064
 20
192.9574411949
  0
VERTEX
  8
0
 62
7
  6
CONTINUOUS
 10
139.1844313155
 20
193.1150470136
  0
VERTEX
  8
0
 62
7
  6
CONTINUOUS
 10
139.141808331
 20
193.2783362986
  0
VERTEX
  8
0
 62
7
  6
CONTINUOUS
 10
139.1032910374
 20
193.4457122495
  0
VERTEX
  8
0
 62
7
  6
CONTINUOUS
 10
139.0696640574
 20
193.6160615823
  0
VERTEX
  8
0
 62
7
  6
CONTINUOUS
 10
139.0416207109
 20
193.7878571128
  0
VERTEX
  8
0
 62
7
  6
CONTINUOUS
 10
139.0195098833
 20
193.9606157995
  0
VERTEX
  8
0
 62
7
  6
CONTINUOUS
 10
139.0036026035
 20
194.1336274766
  0
VERTEX
  8
0
 62
7
  6
CONTINUOUS
 10
138.9940087737
 20
194.3069264875
  0
VERTEX
  8
0
 62
7
  6
CONTINUOUS
 10
138.9908107425
 20
194.4799999999
  0
SEQEND
  0
POLYLINE
  8
0
 62
7
  6
CONTINUOUS
 66
1
 70
0
  0
VERTEX
  8
0
 62
7
  6
CONTINUOUS
 10
140.5716666667
 20
194.6799999999
  0
VERTEX
  8
0
 62
7
  6
CONTINUOUS
 10
140.569573972
 20
194.8505136564
  0
VERTEX
  8
0
 62
7
  6
CONTINUOUS
 10
140.5632990918
 20
195.0203888621
  0
VERTEX
  8
0
 62
7
  6
CONTINUOUS
 10
140.5528516883
 20
195.188985423
  0
VERTEX
  8
0
 62
7
  6
CONTINUOUS
 10
140.5382486724
 20
195.3556533303
  0
VERTEX
  8
0
 62
7
  6
CONTINUOUS
 10
140.519515437
 20
195.5197301017
  0
VERTEX
  8
0
 62
7
  6
CONTINUOUS
 10
140.4966871048
 20
195.6805406033
  0
VERTEX
  8
0
 62
7
  6
CONTINUOUS
 10
140.4698107154
 20
195.8373923192
  0
VERTEX
  8
0
 62
7
  6
CONTINUOUS
 10
140.4389474904
 20
195.9895751374
  0
VERTEX
  8
0
 62
7
  6
CONTINUOUS
 10
140.4041753721
 20
196.1363620712
  0
VERTEX
  8
0
 62
7
  6
CONTINUOUS
 10
140.3655910427
 20
196.2770138162
  0
VERTEX
  8
0
 62
7
  6
CONTINUOUS
 10
140.3233129056
 20
196.4107805249
  0
VERTEX
  8
0
 62
7
  6
CONTINUOUS
 10
140.277483691
 20
196.5369073356
  0
VERTEX
  8
0
 62
7
  6
CONTINUOUS
 10
140.2282723801
 20
196.6546427898
  0
VERTEX
  8
0
 62
7
  6
CONTINUOUS
 10
140.1758756299
 20
196.7632484657
  0
VERTEX
  8
0
 62
7
  6
CONTINUOUS
 10
140.1205192059
 20
196.8620086057
  0
VERTEX
  8
0
 62
7
  6
CONTINUOUS
 10
140.062458727
 20
196.9502413844
  0
VERTEX
  8
0
 62
7
  6
CONTINUOUS
 10
140.0019789249
 20
197.0273120878
  0
VERTEX
  8
0
 62
7
  6
CONTINUOUS
 10
139.9393922668
 20
197.0926457303
  0
VERTEX
  8
0
 62
7
  6
CONTINUOUS
 10
139.8750565785
 20
197.1457249196
  0
SEQEND
  0
LINE
  8
0
 62
7
  6
CONTINUOUS
 10
138.9908107425
 20
194.6799999999
 11
138.9908107425
 21
194.4799999999
  0
LINE
  8
0
 62
7
  6
CONTINUOUS
 10
139.6
 20
188.8299999999
 11
139.6
 21
191.9349110741
  0
LINE
  8
0
 62
7
  6
CONTINUOUS
 10
139.6
 20
197.2250889256
 11
139.6
 21
200.3299999999
  0
LINE
  8
0
 62
7
  6
CONTINUOUS
 10
140.5716666667
 20
194.4799999999
 11
140.5716666667
 21
194.6799999999
  0
POLYLINE
  8
0
 62
7
  6
CONTINUOUS
 66
1
 70
0
  0
VERTEX
  8
0
 62
7
  6
CONTINUOUS
 10
138.9908107425
 20
194.6799999999
  0
VERTEX
  8
0
 62
7
  6
CONTINUOUS
 10
138.9937246909
 20
194.8452044302
  0
VERTEX
  8
0
 62
7
  6
CONTINUOUS
 10
139.0024676789
 20
195.0106242932
  0
VERTEX
  8
0
 62
7
  6
CONTINUOUS
 10
139.0169697668
 20
195.1757796057
  0
VERTEX
  8
0
 62
7
  6
CONTINUOUS
 10
139.0371463552
 20
195.3407595989
  0
VERTEX
  8
0
 62
7
  6
CONTINUOUS
 10
139.0627777736
 20
195.5049543064
  0
VERTEX
  8
0
 62
7
  6
CONTINUOUS
 10
139.0935924046
 20
195.6680130436
  0
VERTEX
  8
0
 62
7
  6
CONTINUOUS
 10
139.1290595252
 20
195.8287651274
  0
VERTEX
  8
0
 62
7
  6
CONTINUOUS
 10
139.1685017364
 20
195.986078753
  0
VERTEX
  8
0
 62
7
  6
CONTINUOUS
 10
139.2111113082
 20
196.1388311622
  0
VERTEX
  8
0
 62
7
  6
CONTINUOUS
 10
139.2558014014
 20
196.2853682984
  0
VERTEX
  8
0
 62
7
  6
CONTINUOUS
 10
139.3012615264
 20
196.4237755372
  0
VERTEX
  8
0
 62
7
  6
CONTINUOUS
 10
139.346322352
 20
196.5528578237
  0
VERTEX
  8
0
 62
7
  6
CONTINUOUS
 10
139.3898584526
 20
196.671594588
  0
VERTEX
  8
0
 62
7
  6
CONTINUOUS
 10
139.4308587056
 20
196.7792179969
  0
VERTEX
  8
0
 62
7
  6
CONTINUOUS
 10
139.4686284688
 20
196.8756312029
  0
SEQEND
  0
POLYLINE
  8
0
 62
7
  6
CONTINUOUS
 66
1
 70
0
  0
VERTEX
  8
0
 62
7
  6
CONTINUOUS
 10
152.1421077183
 20
196.6258167067
  0
VERTEX
  8
0
 62
7
  6
CONTINUOUS
 10
152.197769472
 20
196.7355407349
  0
VERTEX
  8
0
 62
7
  6
CONTINUOUS
 10
152.2447474878
 20
196.8321438043
  0
VERTEX
  8
0
 62
7
  6
CONTINUOUS
 10
152.2829821019
 20
196.9165000169
  0
VERTEX
  8
0
 62
7
  6
CONTINUOUS
 10
152.312479616
 20
196.9892970816
  0
VERTEX
  8
0
 62
7
  6
CONTINUOUS
 10
152.3334142102
 20
197.0514134059
  0
VERTEX
  8
0
 62
7
  6
CONTINUOUS
 10
152.345875719
 20
197.1033841213
  0
VERTEX
  8
0
 62
7
  6
CONTINUOUS
 10
152.35
 20
197.1457656011
  0
SEQEND
  0
POLYLINE
  8
0
 62
7
  6
CONTINUOUS
 66
1
 70
0
  0
VERTEX
  8
0
 62
7
  6
CONTINUOUS
 10
152.0078292627
 20
192.7932736445
  0
VERTEX
  8
0
 62
7
  6
CONTINUOUS
 10
151.9317228292
 20
192.9424979594
  0
VERTEX
  8
0
 62
7
  6
CONTINUOUS
 10
151.8529712679
 20
193.1026638925
  0
VERTEX
  8
0
 62
7
  6
CONTINUOUS
 10
151.777101438
 20
193.2661719196
  0
VERTEX
  8
0
 62
7
  6
CONTINUOUS
 10
151.7070268605
 20
193.4299195117
  0
VERTEX
  8
0
 62
7
  6
CONTINUOUS
 10
151.6447748711
 20
193.5918700008
  0
VERTEX
  8
0
 62
7
  6
CONTINUOUS
 10
151.5918172519
 20
193.750216622
  0
VERTEX
  8
0
 62
7
  6
CONTINUOUS
 10
151.5487300244
 20
193.9044878398
  0
VERTEX
  8
0
 62
7
  6
CONTINUOUS
 10
151.5157335827
 20
194.0543510942
  0
VERTEX
  8
0
 62
7
  6
CONTINUOUS
 10
151.4926636296
 20
194.2000270989
  0
VERTEX
  8
0
 62
7
  6
CONTINUOUS
 10
151.4791689593
 20
194.3419736801
  0
VERTEX
  8
0
 62
7
  6
CONTINUOUS
 10
151.4748076809
 20
194.4799999999
  0
SEQEND
  0
POLYLINE
  8
0
 62
7
  6
CONTINUOUS
 66
1
 70
0
  0
VERTEX
  8
0
 62
7
  6
CONTINUOUS
 10
139.6
 20
191.9349110741
  0
VERTEX
  8
0
 62
7
  6
CONTINUOUS
 10
139.5969286894
 20
191.9518903708
  0
VERTEX
  8
0
 62
7
  6
CONTINUOUS
 10
139.587741235
 20
191.9811323818
  0
VERTEX
  8
0
 62
7
  6
CONTINUOUS
 10
139.5725640971
 20
192.0226870578
  0
VERTEX
  8
0
 62
7
  6
CONTINUOUS
 10
139.5516201386
 20
192.0765649538
  0
VERTEX
  8
0
 62
7
  6
CONTINUOUS
 10
139.4932153231
 20
192.2225991266
  0
SEQEND
  0
POLYLINE
  8
0
 62
7
  6
CONTINUOUS
 66
1
 70
0
  0
VERTEX
  8
0
 62
7
  6
CONTINUOUS
 10
152.35
 20
192.0142343987
  0
VERTEX
  8
0
 62
7
  6
CONTINUOUS
 10
152.3458767389
 20
192.0566100714
  0
VERTEX
  8
0
 62
7
  6
CONTINUOUS
 10
152.3334151644
 20
192.1085833356
  0
VERTEX
  8
0
 62
7
  6
CONTINUOUS
 10
152.3124820641
 20
192.1706963754
  0
VERTEX
  8
0
 62
7
  6
CONTINUOUS
 10
152.282988001
 20
192.2434863106
  0
VERTEX
  8
0
 62
7
  6
CONTINUOUS
 10
152.2447586933
 20
192.327832435
  0
VERTEX
  8
0
 62
7
  6
CONTINUOUS
 10
152.1977882426
 20
192.4244216036
  0
VERTEX
  8
0
 62
7
  6
CONTINUOUS
 10
152.1421378134
 20
192.5341247552
  0
VERTEX
  8
0
 62
7
  6
CONTINUOUS
 10
152.0078292627
 20
192.7932736445
  0
SEQEND
  0
POLYLINE
  8
0
 62
7
  6
CONTINUOUS
 66
1
 70
0
  0
VERTEX
  8
0
 62
7
  6
CONTINUOUS
 10
146.0
 20
197.1412634145
  0
VERTEX
  8
0
 62
7
  6
CONTINUOUS
 10
146.002564666
 20
197.0921816035
  0
VERTEX
  8
0
 62
7
  6
CONTINUOUS
 10
146.0101499182
 20
197.0319646266
  0
VERTEX
  8
0
 62
7
  6
CONTINUOUS
 10
146.022515624
 20
196.9605781562
  0
VERTEX
  8
0
 62
7
  6
CONTINUOUS
 10
146.03933697
 20
196.8779905403
  0
VERTEX
  8
0
 62
7
  6
CONTINUOUS
 10
146.0602349196
 20
196.7840737515
  0
VERTEX
  8
0
 62
7
  6
CONTINUOUS
 10
146.0846702756
 20
196.6790687669
  0
SEQEND
  0
POLYLINE
  8
0
 62
7
  6
CONTINUOUS
 66
1
 70
0
  0
VERTEX
  8
0
 62
7
  6
CONTINUOUS
 10
152.0241666667
 20
194.4799999999
  0
VERTEX
  8
0
 62
7
  6
CONTINUOUS
 10
152.025757945
 20
194.3108507559
  0
VERTEX
  8
0
 62
7
  6
CONTINUOUS
 10
152.0305275557
 20
194.1423729998
  0
VERTEX
  8
0
 62
7
  6
CONTINUOUS
 10
152.0384627237
 20
193.975239511
  0
VERTEX
  8
0
 62
7
  6
CONTINUOUS
 10
152.0495418549
 20
193.8101250212
  0
VERTEX
  8
0
 62
7
  6
CONTINUOUS
 10
152.0637340434
 20
193.6477075154
  0
VERTEX
  8
0
 62
7
  6
CONTINUOUS
 10
152.0809984787
 20
193.488668002
  0
VERTEX
  8
0
 62
7
  6
CONTINUOUS
 10
152.1012836678
 20
193.3336905538
  0
VERTEX
  8
0
 62
7
  6
CONTINUOUS
 10
152.1245265688
 20
193.1834613351
  0
VERTEX
  8
0
 62
7
  6
CONTINUOUS
 10
152.1506517377
 20
193.038666472
  0
VERTEX
  8
0
 62
7
  6
CONTINUOUS
 10
152.1795702684
 20
192.8999902212
  0
SEQEND
  0
LINE
  8
0
 62
7
  6
CONTINUOUS
 10
144.7927777778
 20
194.4799999999
 11
144.7927777778
 21
194.6799999999
  0
LINE
  8
0
 62
7
  6
CONTINUOUS
 10
146.0
 20
188.8299999999
 11
146.0
 21
192.0187365852
  0
LINE
  8
0
 62
7
  6
CONTINUOUS
 10
146.0
 20
197.1412634145
 11
146.0
 21
200.3299999999
  0
LINE
  8
0
 62
7
  6
CONTINUOUS
 10
146.3681831137
 20
194.6799999999
 11
146.3681831137
 21
194.4799999999
  0
LINE
  8
0
 62
7
  6
CONTINUOUS
 10
151.4748076809
 20
194.6799999999
 11
151.4748076809
 21
194.4799999999
  0
LINE
  8
0
 62
7
  6
CONTINUOUS
 10
152.0241666667
 20
194.6799999999
 11
152.0241666667
 21
194.4799999999
  0
LINE
  8
0
 62
7
  6
CONTINUOUS
 10
152.35
 20
200.3299999999
 11
152.35
 21
197.1094396514
  0
LINE
  8
0
 62
7
  6
CONTINUOUS
 10
152.35
 20
192.0142343987
 11
152.35
 21
188.8299999999
  0
POLYLINE
  8
0
 62
7
  6
CONTINUOUS
 66
1
 70
0
  0
VERTEX
  8
0
 62
7
  6
CONTINUOUS
 10
146.3681831137
 20
194.4799999999
  0
VERTEX
  8
0
 62
7
  6
CONTINUOUS
 10
146.3658721342
 20
194.3096838114
  0
VERTEX
  8
0
 62
7
  6
CONTINUOUS
 10
146.358960111
 20
194.1394222315
  0
VERTEX
  8
0
 62
7
  6
CONTINUOUS
 10
146.3475624052
 20
193.9699194438
  0
VERTEX
  8
0
 62
7
  6
CONTINUOUS
 10
146.3318483191
 20
193.8013500432
  0
VERTEX
  8
0
 62
7
  6
CONTINUOUS
 10
146.3121283742
 20
193.6345587496
  0
VERTEX
  8
0
 62
7
  6
CONTINUOUS
 10
146.2887987167
 20
193.4701885871
  0
VERTEX
  8
0
 62
7
  6
CONTINUOUS
 10
146.2623698505
 20
193.309019321
  0
VERTEX
  8
0
 62
7
  6
CONTINUOUS
 10
146.2335598714
 20
193.1524164715
  0
VERTEX
  8
0
 62
7
  6
CONTINUOUS
 10
146.2032235676
 20
193.0018126605
  0
VERTEX
  8
0
 62
7
  6
CONTINUOUS
 10
146.1722213382
 20
192.8582238361
  0
VERTEX
  8
0
 62
7
  6
CONTINUOUS
 10
146.1414764545
 20
192.7227330073
  0
SEQEND
  0
POLYLINE
  8
0
 62
7
  6
CONTINUOUS
 66
1
 70
0
  0
VERTEX
  8
0
 62
7
  6
CONTINUOUS
 10
144.7927777778
 20
194.6799999999
  0
VERTEX
  8
0
 62
7
  6
CONTINUOUS
 10
144.7953588239
 20
194.849891218
  0
VERTEX
  8
0
 62
7
  6
CONTINUOUS
 10
144.8031021882
 20
195.0192188178
  0
VERTEX
  8
0
 62
7
  6
CONTINUOUS
 10
144.8160083195
 20
195.1874134138
  0
VERTEX
  8
0
 62
7
  6
CONTINUOUS
 10
144.8340764109
 20
195.3538878304
  0
VERTEX
  8
0
 62
7
  6
CONTINUOUS
 10
144.8573021702
 20
195.5180315392
  0
VERTEX
  8
0
 62
7
  6
CONTINUOUS
 10
144.8856752359
 20
195.6792069336
  0
VERTEX
  8
0
 62
7
  6
CONTINUOUS
 10
144.9191750065
 20
195.8367410336
  0
VERTEX
  8
0
 62
7
  6
CONTINUOUS
 10
144.9577658446
 20
195.9899218284
  0
VERTEX
  8
0
 62
7
  6
CONTINUOUS
 10
145.0013927102
 20
196.1380003244
  0
VERTEX
  8
0
 62
7
  6
CONTINUOUS
 10
145.0499758371
 20
196.2801911806
  0
VERTEX
  8
0
 62
7
  6
CONTINUOUS
 10
145.1034047585
 20
196.4156751636
  0
VERTEX
  8
0
 62
7
  6
CONTINUOUS
 10
145.1615322211
 20
196.5436050803
  0
VERTEX
  8
0
 62
7
  6
CONTINUOUS
 10
145.2241705502
 20
196.6631192446
  0
VERTEX
  8
0
 62
7
  6
CONTINUOUS
 10
145.2910866894
 20
196.7733522807
  0
VERTEX
  8
0
 62
7
  6
CONTINUOUS
 10
145.3619981947
 20
196.8734496032
  0
VERTEX
  8
0
 62
7
  6
CONTINUOUS
 10
145.4365717569
 20
196.9625862685
  0
VERTEX
  8
0
 62
7
  6
CONTINUOUS
 10
145.5144232369
 20
197.039986606
  0
VERTEX
  8
0
 62
7
  6
CONTINUOUS
 10
145.595089461
 20
197.1049227547
  0
SEQEND
  0
POLYLINE
  8
0
 62
7
  6
CONTINUOUS
 66
1
 70
0
  0
VERTEX
  8
0
 62
7
  6
CONTINUOUS
 10
151.4748076809
 20
194.6799999999
  0
VERTEX
  8
0
 62
7
  6
CONTINUOUS
 10
151.4791802377
 20
194.8182049587
  0
VERTEX
  8
0
 62
7
  6
CONTINUOUS
 10
151.4926966163
 20
194.9602330765
  0
VERTEX
  8
0
 62
7
  6
CONTINUOUS
 10
151.5157869367
 20
195.105930414
  0
VERTEX
  8
0
 62
7
  6
CONTINUOUS
 10
151.5487968408
 20
195.255779216
  0
VERTEX
  8
0
 62
7
  6
CONTINUOUS
 10
151.5918798946
 20
195.4099870583
  0
VERTEX
  8
0
 62
7
  6
CONTINUOUS
 10
151.6448120073
 20
195.5682330702
  0
VERTEX
  8
0
 62
7
  6
CONTINUOUS
 10
151.7070187134
 20
195.7300604849
  0
VERTEX
  8
0
 62
7
  6
CONTINUOUS
 10
151.7770487794
 20
195.893710353
  0
VERTEX
  8
0
 62
7
  6
CONTINUOUS
 10
151.8529008174
 20
196.0571891383
  0
VERTEX
  8
0
 62
7
  6
CONTINUOUS
 10
151.9316600398
 20
196.2173771065
  0
VERTEX
  8
0
 62
7
  6
CONTINUOUS
 10
152.0077710795
 20
196.3666135968
  0
VERTEX
  8
0
 62
7
  6
CONTINUOUS
 10
152.1421077183
 20
196.6258167067
  0
SEQEND
  0
POLYLINE
  8
0
 62
7
  6
CONTINUOUS
 66
1
 70
0
  0
VERTEX
  8
0
 62
7
  6
CONTINUOUS
 10
152.35
 20
197.1094396514
  0
VERTEX
  8
0
 62
7
  6
CONTINUOUS
 10
152.3474579011
 20
197.0559097674
  0
VERTEX
  8
0
 62
7
  6
CONTINUOUS
 10
152.3399168763
 20
196.9919214795
  0
VERTEX
  8
0
 62
7
  6
CONTINUOUS
 10
152.3276059169
 20
196.9174799303
  0
VERTEX
  8
0
 62
7
  6
CONTINUOUS
 10
152.3108863297
 20
196.8327369659
  0
VERTEX
  8
0
 62
7
  6
CONTINUOUS
 10
152.2902052143
 20
196.7378155066
  0
VERTEX
  8
0
 62
7
  6
CONTINUOUS
 10
152.2660109058
 20
196.6325262714
  0
VERTEX
  8
0
 62
7
  6
CONTINUOUS
 10
152.2098252735
 20
196.3927003795
  0
SEQEND
  0
POLYLINE
  8
0
 62
7
  6
CONTINUOUS
 66
1
 70
0
  0
VERTEX
  8
0
 62
7
  6
CONTINUOUS
 10
152.1795702684
 20
196.2600097786
  0
VERTEX
  8
0
 62
7
  6
CONTINUOUS
 10
152.1506517286
 20
196.1213334809
  0
VERTEX
  8
0
 62
7
  6
CONTINUOUS
 10
152.1245265344
 20
195.9765384591
  0
VERTEX
  8
0
 62
7
  6
CONTINUOUS
 10
152.1012836091
 20
195.8263090342
  0
VERTEX
  8
0
 62
7
  6
CONTINUOUS
 10
152.0809984086
 20
195.6713314112
  0
VERTEX
  8
0
 62
7
  6
CONTINUOUS
 10
152.0637339761
 20
195.5122917972
  0
VERTEX
  8
0
 62
7
  6
CONTINUOUS
 10
152.0495417993
 20
195.3498742577
  0
VERTEX
  8
0
 62
7
  6
CONTINUOUS
 10
152.0384626848
 20
195.1847598082
  0
VERTEX
  8
0
 62
7
  6
CONTINUOUS
 10
152.0305275347
 20
195.0176264445
  0
VERTEX
  8
0
 62
7
  6
CONTINUOUS
 10
152.0257579387
 20
194.849148913
  0
VERTEX
  8
0
 62
7
  6
CONTINUOUS
 10
152.0241666667
 20
194.6799999999
  0
SEQEND
  0
LINE
  8
0
 62
7
  6
CONTINUOUS
 10
152.2098252735
 20
196.3927003795
 11
152.1795702684
 21
196.2600097786
  0
POLYLINE
  8
0
 62
7
  6
CONTINUOUS
 66
1
 70
0
  0
VERTEX
  8
0
 62
7
  6
CONTINUOUS
 10
146.1414764545
 20
192.7227330073
  0
VERTEX
  8
0
 62
7
  6
CONTINUOUS
 10
146.084671488
 20
192.4809363836
  0
VERTEX
  8
0
 62
7
  6
CONTINUOUS
 10
146.0602367353
 20
192.3759341847
  0
VERTEX
  8
0
 62
7
  6
CONTINUOUS
 10
146.0393386607
 20
192.2820173404
  0
VERTEX
  8
0
 62
7
  6
CONTINUOUS
 10
146.0225162327
 20
192.1994250413
  0
VERTEX
  8
0
 62
7
  6
CONTINUOUS
 10
146.0101507565
 20
192.1280408757
  0
VERTEX
  8
0
 62
7
  6
CONTINUOUS
 10
146.0025648048
 20
192.0678198817
  0
VERTEX
  8
0
 62
7
  6
CONTINUOUS
 10
146.0
 20
192.0187365852
  0
SEQEND
  0
POLYLINE
  8
0
 62
7
  6
CONTINUOUS
 66
1
 70
0
  0
VERTEX
  8
0
 62
7
  6
CONTINUOUS
 10
146.0846702756
 20
196.6790687669
  0
VERTEX
  8
0
 62
7
  6
CONTINUOUS
 10
146.1414743439
 20
196.4372761227
  0
VERTEX
  8
0
 62
7
  6
CONTINUOUS
 10
146.1722187016
 20
196.3017880357
  0
VERTEX
  8
0
 62
7
  6
CONTINUOUS
 10
146.203223298
 20
196.1581886274
  0
VERTEX
  8
0
 62
7
  6
CONTINUOUS
 10
146.233559957
 20
196.0075830851
  0
VERTEX
  8
0
 62
7
  6
CONTINUOUS
 10
146.2623703018
 20
195.8509780914
  0
VERTEX
  8
0
 62
7
  6
CONTINUOUS
 10
146.2887992403
 20
195.6898079971
  0
VERTEX
  8
0
 62
7
  6
CONTINUOUS
 10
146.3121288268
 20
195.5254377783
  0
VERTEX
  8
0
 62
7
  6
CONTINUOUS
 10
146.3318480497
 20
195.3586524994
  0
VERTEX
  8
0
 62
7
  6
CONTINUOUS
 10
146.34756197
 20
195.1900859716
  0
VERTEX
  8
0
 62
7
  6
CONTINUOUS
 10
146.3589598772
 20
195.0205820957
  0
VERTEX
  8
0
 62
7
  6
CONTINUOUS
 10
146.3658719392
 20
194.8503233797
  0
VERTEX
  8
0
 62
7
  6
CONTINUOUS
 10
146.3681831137
 20
194.6799999999
  0
SEQEND
  0
POLYLINE
  8
0
 62
7
  6
CONTINUOUS
 66
1
 70
0
  0
VERTEX
  8
0
 62
7
  6
CONTINUOUS
 10
152.2660001572
 20
192.5275198044
  0
VERTEX
  8
0
 62
7
  6
CONTINUOUS
 10
152.290195868
 20
192.4222260303
  0
VERTEX
  8
0
 62
7
  6
CONTINUOUS
 10
152.3108767708
 20
192.3273087639
  0
VERTEX
  8
0
 62
7
  6
CONTINUOUS
 10
152.3275987154
 20
192.2425593825
  0
VERTEX
  8
0
 62
7
  6
CONTINUOUS
 10
152.339913147
 20
192.1681043996
  0
VERTEX
  8
0
 62
7
  6
CONTINUOUS
 10
152.3474569563
 20
192.1041011827
  0
VERTEX
  8
0
 62
7
  6
CONTINUOUS
 10
152.35
 20
192.0505603484
  0
SEQEND
  0
POLYLINE
  8
0
 62
7
  6
CONTINUOUS
 66
1
 70
0
  0
VERTEX
  8
0
 62
7
  6
CONTINUOUS
 10
152.1795702684
 20
192.8999902212
  0
VERTEX
  8
0
 62
7
  6
CONTINUOUS
 10
152.2098194775
 20
192.7673246325
  0
VERTEX
  8
0
 62
7
  6
CONTINUOUS
 10
152.2660001572
 20
192.5275198044
  0
SEQEND
  0
LINE
  8
0
 62
7
  6
CONTINUOUS
 10
25.6013094332
 20
103.6322746162
 11
26.2197277617
 21
101.3080876764
  0
LINE
  8
0
 62
7
  6
CONTINUOUS
 10
25.45
 20
115.2009372712
 11
25.45
 21
104.7893863434
  0
LINE
  8
0
 62
7
  6
CONTINUOUS
 10
32.5697277617
 20
134.8937868661
 11
31.9513092155
 21
132.5695991079
  0
LINE
  8
0
 62
7
  6
CONTINUOUS
 10
31.15
 20
104.7893876721
 11
31.15
 21
113.2471132244
  0
LINE
  8
0
 62
7
  6
CONTINUOUS
 10
31.8
 20
131.4124868691
 11
31.8
 21
122.9547613181
  0
LINE
  8
0
 62
7
  6
CONTINUOUS
 10
31.6318803966
 20
121.6690973523
 11
30.7242808976
 21
118.2580876764
  0
LINE
  8
0
 62
7
  6
CONTINUOUS
 10
31.3181196034
 20
114.5327771902
 11
32.2257191024
 21
117.9437868661
  0
LINE
  8
0
 62
7
  6
CONTINUOUS
 10
37.5
 20
122.9547613181
 11
37.5
 21
131.412488198
  0
LINE
  8
0
 62
7
  6
CONTINUOUS
 10
38.15
 20
113.2471132244
 11
38.15
 21
104.7893863434
  0
LINE
  8
0
 62
7
  6
CONTINUOUS
 10
30.3802722383
 20
101.3080876764
 11
30.9986907846
 21
103.6322754347
  0
LINE
  8
0
 62
7
  6
CONTINUOUS
 10
38.3013094332
 20
103.6322746162
 11
38.9197277617
 21
101.3080876764
  0
LINE
  8
0
 62
7
  6
CONTINUOUS
 10
37.0742808976
 20
117.9437868661
 11
37.9818803966
 21
114.5327771902
  0
LINE
  8
0
 62
7
  6
CONTINUOUS
 10
38.5757191024
 20
118.2580876764
 11
37.6681196034
 21
121.6690973523
  0
LINE
  8
0
 62
7
  6
CONTINUOUS
 10
43.85
 20
104.7893876721
 11
43.85
 21
113.2471132244
  0
LINE
  8
0
 62
7
  6
CONTINUOUS
 10
44.5
 20
131.4124868691
 11
44.5
 21
122.9547613181
  0
LINE
  8
0
 62
7
  6
CONTINUOUS
 10
45.2697277617
 20
134.8937868661
 11
44.6513092155
 21
132.5695991079
  0
LINE
  8
0
 62
7
  6
CONTINUOUS
 10
44.3318803966
 20
121.6690973523
 11
43.4242808976
 21
118.2580876764
  0
LINE
  8
0
 62
7
  6
CONTINUOUS
 10
37.3486905667
 20
132.5695999264
 11
36.7302722383
 21
134.8937868661
  0
LINE
  8
0
 62
7
  6
CONTINUOUS
 10
50.2
 20
122.9547613181
 11
50.2
 21
131.412488198
  0
LINE
  8
0
 62
7
  6
CONTINUOUS
 10
44.0181196034
 20
114.5327771902
 11
44.9257191024
 21
117.9437868661
  0
LINE
  8
0
 62
7
  6
CONTINUOUS
 10
43.0802722383
 20
101.3080876764
 11
43.6986907846
 21
103.6322754347
  0
LINE
  8
0
 62
7
  6
CONTINUOUS
 10
51.0013094332
 20
103.6322746162
 11
51.6197277617
 21
101.3080876764
  0
LINE
  8
0
 62
7
  6
CONTINUOUS
 10
49.7742808976
 20
117.9437868661
 11
50.6818803966
 21
114.5327771902
  0
LINE
  8
0
 62
7
  6
CONTINUOUS
 10
50.85
 20
113.2471132244
 11
50.85
 21
104.7893863434
  0
LINE
  8
0
 62
7
  6
CONTINUOUS
 10
57.9697277617
 20
134.8937868661
 11
57.3513092155
 21
132.5695991079
  0
LINE
  8
0
 62
7
  6
CONTINUOUS
 10
139.6026812865
 20
112.3088313729
 11
139.7255866778
 21
112.3435300961
  0
LINE
  8
0
 62
7
  6
CONTINUOUS
 10
139.7255866778
 20
112.3435300961
 11
139.8468500159
 21
112.3772231024
  0
LINE
  8
0
 62
7
  6
CONTINUOUS
 10
139.8468500159
 20
112.3772231024
 11
139.9978287255
 21
112.4184571631
  0
LINE
  8
0
 62
7
  6
CONTINUOUS
 10
139.9978287255
 20
112.4184571631
 11
140.1690023605
 21
112.4642982307
  0
LINE
  8
0
 62
7
  6
CONTINUOUS
 10
140.1690023605
 20
112.4642982307
 11
140.35
 21
112.5117812729
  0
LINE
  8
0
 62
7
  6
CONTINUOUS
 10
51.2757191024
 20
118.2580876764
 11
50.3681196034
 21
121.6690973523
  0
LINE
  8
0
 62
7
  6
CONTINUOUS
 10
50.0486905667
 20
132.5695999264
 11
49.4302722383
 21
134.8937868661
  0
LINE
  8
0
 62
7
  6
CONTINUOUS
 10
56.55
 20
104.7893789134
 11
56.55
 21
113.2471132244
  0
LINE
  8
0
 62
7
  6
CONTINUOUS
 10
57.2
 20
131.4124868691
 11
57.2
 21
122.9547613181
  0
LINE
  8
0
 62
7
  6
CONTINUOUS
 10
57.0318803966
 20
121.6690973523
 11
56.1242808976
 21
118.2580876764
  0
LINE
  8
0
 62
7
  6
CONTINUOUS
 10
56.7181196034
 20
114.5327771902
 11
57.6257191024
 21
117.9437868661
  0
LINE
  8
0
 62
7
  6
CONTINUOUS
 10
55.7802722383
 20
101.3080876764
 11
56.3986907846
 21
103.6322754347
  0
LINE
  8
0
 62
7
  6
CONTINUOUS
 10
105.8554901799
 20
100.7509372712
 11
103.1445098201
 21
100.7509372712
  0
LINE
  8
0
 62
7
  6
CONTINUOUS
 10
93.1554901799
 20
100.7509372712
 11
90.4445098201
 21
100.7509372712
  0
LINE
  8
0
 62
7
  6
CONTINUOUS
 10
80.4554901799
 20
100.7509372712
 11
77.7445098201
 21
100.7509372712
  0
LINE
  8
0
 62
7
  6
CONTINUOUS
 10
67.7554901799
 20
100.7509372712
 11
65.0445098201
 21
100.7509372712
  0
LINE
  8
0
 62
7
  6
CONTINUOUS
 10
55.0554901799
 20
100.7509372712
 11
52.3445098201
 21
100.7509372712
  0
LINE
  8
0
 62
7
  6
CONTINUOUS
 10
42.3554901799
 20
100.7509372712
 11
39.6445098201
 21
100.7509372712
  0
LINE
  8
0
 62
7
  6
CONTINUOUS
 10
29.6554901799
 20
100.7509372712
 11
26.9445098201
 21
100.7509372712
  0
LINE
  8
0
 62
7
  6
CONTINUOUS
 10
143.4675088474
 20
101.0009372712
 11
141.7738272654
 21
101.0009372712
  0
LINE
  8
0
 62
7
  6
CONTINUOUS
 10
130.8678892462
 20
101.0009372712
 11
128.9321107538
 21
101.0009372712
  0
LINE
  8
0
 62
7
  6
CONTINUOUS
 10
118.1922252789
 20
101.0009372712
 11
116.2077747211
 21
101.0009372712
  0
LINE
  8
0
 62
7
  6
CONTINUOUS
 10
63.7013094332
 20
103.6322746162
 11
64.3197277617
 21
101.3080876764
  0
LINE
  8
0
 62
7
  6
CONTINUOUS
 10
62.9
 20
122.9547613181
 11
62.9
 21
131.412488198
  0
LINE
  8
0
 62
7
  6
CONTINUOUS
 10
63.55
 20
113.2471132244
 11
63.55
 21
104.7893863434
  0
LINE
  8
DEFAULT_1
 62
7
  6
CENTER
 10
23.45
 20
105.4009372712
 11
147.8692893783
 21
105.4009372712
  0
LINE
  8
0
 62
7
  6
CONTINUOUS
 10
62.4742808976
 20
117.9437868661
 11
63.3818803966
 21
114.5327771902
  0
LINE
  8
0
 62
7
  6
CONTINUOUS
 10
63.9757191024
 20
118.2580876764
 11
63.0681196034
 21
121.6690973523
  0
LINE
  8
0
 62
7
  6
CONTINUOUS
 10
69.25
 20
104.7893789134
 11
69.25
 21
113.2471132244
  0
LINE
  8
0
 62
7
  6
CONTINUOUS
 10
69.9
 20
131.4124868691
 11
69.9
 21
122.9547613181
  0
LINE
  8
0
 62
7
  6
CONTINUOUS
 10
70.6697277617
 20
134.8937868661
 11
70.0513092155
 21
132.5695991079
  0
LINE
  8
0
 62
7
  6
CONTINUOUS
 10
69.7318803966
 20
121.6690973523
 11
68.8242808976
 21
118.2580876764
  0
LINE
  8
0
 62
7
  6
CONTINUOUS
 10
69.4181196034
 20
114.5327771902
 11
70.3257191024
 21
117.9437868661
  0
LINE
  8
0
 62
7
  6
CONTINUOUS
 10
139.25
 20
124.2577064121
 11
139.1209823483
 21
124.2264731114
  0
LINE
  8
0
 62
7
  6
CONTINUOUS
 10
139.1209823483
 20
124.2264731114
 11
138.9721121659
 21
124.1910684143
  0
LINE
  8
0
 62
7
  6
CONTINUOUS
 10
138.9721121659
 20
124.1910684143
 11
138.7838056868
 21
124.1472036963
  0
LINE
  8
0
 62
7
  6
CONTINUOUS
 10
138.7838056868
 20
124.1472036963
 11
138.6443942544
 21
124.1153529313
  0
LINE
  8
0
 62
7
  6
CONTINUOUS
 10
138.6443942544
 20
124.1153529313
 11
138.5
 21
124.0828936642
  0
LINE
  8
0
 62
7
  6
CONTINUOUS
 10
62.7486905667
 20
132.5695999264
 11
62.1302722383
 21
134.8937868661
  0
LINE
  8
0
 62
7
  6
CONTINUOUS
 10
75.6
 20
122.9547613181
 11
75.6
 21
131.412488198
  0
LINE
  8
0
 62
7
  6
CONTINUOUS
 10
76.25
 20
113.2471132244
 11
76.25
 21
104.7893863434
  0
LINE
  8
0
 62
7
  6
CONTINUOUS
 10
68.4802722383
 20
101.3080876764
 11
69.0986907846
 21
103.6322754347
  0
LINE
  8
0
 62
7
  6
CONTINUOUS
 10
131.239886282
 20
117.4509372712
 11
128.560113718
 21
117.4509372712
  0
LINE
  8
0
 62
7
  6
CONTINUOUS
 10
118.1888344536
 20
117.4509372712
 11
115.6397849667
 21
117.4509372712
  0
LINE
  8
0
 62
7
  6
CONTINUOUS
 10
106.1994988381
 20
117.7009372712
 11
102.8005011619
 21
117.7009372712
  0
LINE
  8
0
 62
7
  6
CONTINUOUS
 10
93.4994988381
 20
117.7009372712
 11
90.1005011619
 21
117.7009372712
  0
LINE
  8
0
 62
7
  6
CONTINUOUS
 10
80.7994988381
 20
117.7009372712
 11
77.4005011619
 21
117.7009372712
  0
LINE
  8
0
 62
7
  6
CONTINUOUS
 10
68.0994988381
 20
117.7009372712
 11
64.7005011619
 21
117.7009372712
  0
LINE
  8
0
 62
7
  6
CONTINUOUS
 10
55.3994988381
 20
117.7009372712
 11
52.0005011619
 21
117.7009372712
  0
LINE
  8
0
 62
7
  6
CONTINUOUS
 10
42.6994988381
 20
117.7009372712
 11
39.3005011619
 21
117.7009372712
  0
LINE
  8
0
 62
7
  6
CONTINUOUS
 10
29.9994988381
 20
117.7009372712
 11
27.95
 21
117.7009372712
  0
LINE
  8
DEFAULT_1
 62
7
  6
CENTER
 10
20.3844439655
 20
118.1009372712
 11
152.6656836207
 21
118.1009372712
  0
LINE
  8
0
 62
7
  6
CONTINUOUS
 10
32.9505011619
 20
118.5009372712
 11
36.3494988381
 21
118.5009372712
  0
LINE
  8
0
 62
7
  6
CONTINUOUS
 10
45.6505011619
 20
118.5009372712
 11
49.0494988381
 21
118.5009372712
  0
LINE
  8
0
 62
7
  6
CONTINUOUS
 10
58.3505011619
 20
118.5009372712
 11
61.7494988381
 21
118.5009372712
  0
LINE
  8
0
 62
7
  6
CONTINUOUS
 10
71.0505011619
 20
118.5009372712
 11
74.4494988381
 21
118.5009372712
  0
LINE
  8
0
 62
7
  6
CONTINUOUS
 10
83.7505011619
 20
118.5009372712
 11
87.1494988381
 21
118.5009372712
  0
LINE
  8
0
 62
7
  6
CONTINUOUS
 10
96.4505011619
 20
118.5009372712
 11
99.8494988381
 21
118.5009372712
  0
LINE
  8
0
 62
7
  6
CONTINUOUS
 10
109.1505011619
 20
118.5009372712
 11
111.634180396
 21
118.5009372712
  0
LINE
  8
0
 62
7
  6
CONTINUOUS
 10
149.85
 20
118.7509372712
 11
147.9842438931
 21
118.7509372712
  0
LINE
  8
0
 62
7
  6
CONTINUOUS
 10
124.5363403358
 20
118.7509372712
 11
122.5611655464
 21
118.7509372712
  0
LINE
  8
0
 62
7
  6
CONTINUOUS
 10
76.4013094332
 20
103.6322746162
 11
77.0197277617
 21
101.3080876764
  0
LINE
  8
0
 62
7
  6
CONTINUOUS
 10
75.1742808976
 20
117.9437868661
 11
76.0818803966
 21
114.5327771902
  0
LINE
  8
0
 62
7
  6
CONTINUOUS
 10
76.6757191024
 20
118.2580876764
 11
75.7681196034
 21
121.6690973523
  0
LINE
  8
0
 62
7
  6
CONTINUOUS
 10
81.95
 20
104.7893789134
 11
81.95
 21
113.2471132244
  0
LINE
  8
0
 62
7
  6
CONTINUOUS
 10
83.3697277617
 20
134.8937868661
 11
82.7513092155
 21
132.5695991079
  0
LINE
  8
0
 62
7
  6
CONTINUOUS
 10
82.4318803966
 20
121.6690973523
 11
81.5242808976
 21
118.2580876764
  0
LINE
  8
0
 62
7
  6
CONTINUOUS
 10
149.0103174042
 20
121.2117115552
 11
149.6896825958
 21
121.2117115552
  0
LINE
  8
0
 62
7
  6
CONTINUOUS
 10
75.4486905667
 20
132.5695999264
 11
74.8302722383
 21
134.8937868661
  0
LINE
  8
0
 62
7
  6
CONTINUOUS
 10
82.6
 20
131.4124868691
 11
82.6
 21
122.9547613181
  0
LINE
  8
0
 62
7
  6
CONTINUOUS
 10
82.1181196034
 20
114.5327771902
 11
83.0257191024
 21
117.9437868661
  0
LINE
  8
0
 62
7
  6
CONTINUOUS
 10
81.1802722383
 20
101.3080876764
 11
81.7986907846
 21
103.6322754347
  0
POLYLINE
  8
0
 62
7
  6
CONTINUOUS
 66
1
 70
0
  0
VERTEX
  8
0
 62
7
  6
CONTINUOUS
 10
149.0103174042
 20
121.2117115552
  0
VERTEX
  8
0
 62
7
  6
CONTINUOUS
 10
148.9410775178
 20
121.2148790634
  0
VERTEX
  8
0
 62
7
  6
CONTINUOUS
 10
148.8714957789
 20
121.2245184199
  0
VERTEX
  8
0
 62
7
  6
CONTINUOUS
 10
148.8026939318
 20
121.2406571965
  0
VERTEX
  8
0
 62
7
  6
CONTINUOUS
 10
148.735713502
 20
121.2631083688
  0
VERTEX
  8
0
 62
7
  6
CONTINUOUS
 10
148.6711089063
 20
121.291690658
  0
VERTEX
  8
0
 62
7
  6
CONTINUOUS
 10
148.6090768343
 20
121.3263999125
  0
VERTEX
  8
0
 62
7
  6
CONTINUOUS
 10
148.5505708995
 20
121.3667983881
  0
VERTEX
  8
0
 62
7
  6
CONTINUOUS
 10
148.4964244536
 20
121.4122760783
  0
VERTEX
  8
0
 62
7
  6
CONTINUOUS
 10
148.4471278684
 20
121.4622944094
  0
VERTEX
  8
0
 62
7
  6
CONTINUOUS
 10
148.4026551747
 20
121.5168504973
  0
VERTEX
  8
0
 62
7
  6
CONTINUOUS
 10
148.3635881656
 20
121.5752802446
  0
VERTEX
  8
0
 62
7
  6
CONTINUOUS
 10
148.3304170349
 20
121.6367472291
  0
VERTEX
  8
0
 62
7
  6
CONTINUOUS
 10
148.3034192976
 20
121.7004342615
  0
VERTEX
  8
0
 62
7
  6
CONTINUOUS
 10
148.2825314346
 20
121.7662070256
  0
VERTEX
  8
0
 62
7
  6
CONTINUOUS
 10
148.2679055332
 20
121.8333948106
  0
VERTEX
  8
0
 62
7
  6
CONTINUOUS
 10
148.2596282115
 20
121.9009372712
  0
SEQEND
  0
LINE
  8
0
 62
7
  6
CONTINUOUS
 10
132.2309976395
 20
112.4642982307
 11
132.05
 21
112.5117812729
  0
LINE
  8
0
 62
7
  6
CONTINUOUS
 10
132.4021712745
 20
112.4184571631
 11
132.2309976395
 21
112.4642982307
  0
LINE
  8
0
 62
7
  6
CONTINUOUS
 10
132.5531499841
 20
112.3772231024
 11
132.4021712745
 21
112.4184571631
  0
LINE
  8
0
 62
7
  6
CONTINUOUS
 10
132.7067768682
 20
112.3344479363
 11
132.5531499841
 21
112.3772231024
  0
LINE
  8
0
 62
7
  6
CONTINUOUS
 10
132.8
 20
112.3080680218
 11
132.7067768682
 21
112.3344479363
  0
LINE
  8
0
 62
7
  6
CONTINUOUS
 10
89.1013094332
 20
103.6322746162
 11
89.7197277617
 21
101.3080876764
  0
LINE
  8
0
 62
7
  6
CONTINUOUS
 10
88.3
 20
122.9547613181
 11
88.3
 21
131.412488198
  0
LINE
  8
0
 62
7
  6
CONTINUOUS
 10
88.95
 20
113.2471132244
 11
88.95
 21
104.7893863434
  0
LINE
  8
0
 62
7
  6
CONTINUOUS
 10
96.0697277617
 20
134.8937868661
 11
95.4513092155
 21
132.5695991079
  0
LINE
  8
DEFAULT_1
 62
7
  6
CENTER
 10
29.8
 20
130.8009372712
 11
154.35
 21
130.8009372712
  0
LINE
  8
0
 62
7
  6
CONTINUOUS
 10
149.68454897
 20
131.8850293614
 11
149.01545103
 21
131.8850293614
  0
LINE
  8
0
 62
7
  6
CONTINUOUS
 10
87.8742808976
 20
117.9437868661
 11
88.7818803966
 21
114.5327771902
  0
LINE
  8
0
 62
7
  6
CONTINUOUS
 10
89.3757191024
 20
118.2580876764
 11
88.4681196034
 21
121.6690973523
  0
LINE
  8
0
 62
7
  6
CONTINUOUS
 10
88.1486905667
 20
132.5695999264
 11
87.5302722383
 21
134.8937868661
  0
LINE
  8
0
 62
7
  6
CONTINUOUS
 10
94.65
 20
104.7893789134
 11
94.65
 21
113.2471132244
  0
LINE
  8
0
 62
7
  6
CONTINUOUS
 10
95.3
 20
131.4124868691
 11
95.3
 21
122.9547613181
  0
LINE
  8
0
 62
7
  6
CONTINUOUS
 10
95.1318803966
 20
121.6690973523
 11
94.2242808976
 21
118.2580876764
  0
LINE
  8
0
 62
7
  6
CONTINUOUS
 10
94.8181196034
 20
114.5327771902
 11
95.7257191024
 21
117.9437868661
  0
LINE
  8
0
 62
7
  6
CONTINUOUS
 10
93.8802722383
 20
101.3080876764
 11
94.4986907846
 21
103.6322754347
  0
LINE
  8
0
 62
7
  6
CONTINUOUS
 10
150.9329769086
 20
135.2009372712
 11
148.6627640452
 21
135.2009372712
  0
LINE
  8
0
 62
7
  6
CONTINUOUS
 10
124.5554528815
 20
135.2009372712
 11
122.5445471185
 21
135.2009372712
  0
LINE
  8
0
 62
7
  6
CONTINUOUS
 10
135.3
 20
135.2009372712
 11
137.2
 21
135.2009372712
  0
LINE
  8
0
 62
7
  6
CONTINUOUS
 10
111.6412762076
 20
135.4509372712
 11
109.4945098201
 21
135.4509372712
  0
LINE
  8
0
 62
7
  6
CONTINUOUS
 10
99.5054901799
 20
135.4509372712
 11
96.7945098201
 21
135.4509372712
  0
LINE
  8
0
 62
7
  6
CONTINUOUS
 10
86.8054901799
 20
135.4509372712
 11
84.0945098201
 21
135.4509372712
  0
LINE
  8
0
 62
7
  6
CONTINUOUS
 10
74.1054901799
 20
135.4509372712
 11
71.3945098201
 21
135.4509372712
  0
LINE
  8
0
 62
7
  6
CONTINUOUS
 10
61.4054901799
 20
135.4509372712
 11
58.6945098201
 21
135.4509372712
  0
LINE
  8
0
 62
7
  6
CONTINUOUS
 10
48.7054901799
 20
135.4509372712
 11
45.9945098201
 21
135.4509372712
  0
LINE
  8
0
 62
7
  6
CONTINUOUS
 10
36.0054901799
 20
135.4509372712
 11
33.2945098201
 21
135.4509372712
  0
POLYLINE
  8
0
 62
7
  6
CONTINUOUS
 66
1
 70
0
  0
VERTEX
  8
0
 62
7
  6
CONTINUOUS
 10
149.68454897
 20
131.8850293614
  0
VERTEX
  8
0
 62
7
  6
CONTINUOUS
 10
149.7548617977
 20
131.8817858947
  0
VERTEX
  8
0
 62
7
  6
CONTINUOUS
 10
149.8252073797
 20
131.8719795773
  0
VERTEX
  8
0
 62
7
  6
CONTINUOUS
 10
149.8949539579
 20
131.8555341471
  0
VERTEX
  8
0
 62
7
  6
CONTINUOUS
 10
149.9635949419
 20
131.8323683757
  0
VERTEX
  8
0
 62
7
  6
CONTINUOUS
 10
150.0305280278
 20
131.802428421
  0
VERTEX
  8
0
 62
7
  6
CONTINUOUS
 10
150.0952233851
 20
131.7656168764
  0
VERTEX
  8
0
 62
7
  6
CONTINUOUS
 10
150.1565404302
 20
131.7222495596
  0
VERTEX
  8
0
 62
7
  6
CONTINUOUS
 10
150.2134296686
 20
131.6728575313
  0
VERTEX
  8
0
 62
7
  6
CONTINUOUS
 10
150.2651996406
 20
131.6179044312
  0
VERTEX
  8
0
 62
7
  6
CONTINUOUS
 10
150.3110553011
 20
131.5581758053
  0
VERTEX
  8
0
 62
7
  6
CONTINUOUS
 10
150.3504189255
 20
131.4945140246
  0
VERTEX
  8
0
 62
7
  6
CONTINUOUS
 10
150.382883807
 20
131.4278316693
  0
VERTEX
  8
0
 62
7
  6
CONTINUOUS
 10
150.4083666699
 20
131.3586055722
  0
VERTEX
  8
0
 62
7
  6
CONTINUOUS
 10
150.4267547475
 20
131.2873278235
  0
VERTEX
  8
0
 62
7
  6
CONTINUOUS
 10
150.4378611413
 20
131.2151058502
  0
VERTEX
  8
0
 62
7
  6
CONTINUOUS
 10
150.4417346226
 20
131.1431287735
  0
SEQEND
  0
LINE
  8
0
 62
7
  6
CONTINUOUS
 10
146.8849429479
 20
124.1314325992
 11
147.1
 21
124.0828936642
  0
LINE
  8
0
 62
7
  6
CONTINUOUS
 10
101.8013094332
 20
103.6322746162
 11
102.4197277617
 21
101.3080876764
  0
LINE
  8
0
 62
7
  6
CONTINUOUS
 10
101.0
 20
122.9547613181
 11
101.0
 21
131.412488198
  0
LINE
  8
0
 62
7
  6
CONTINUOUS
 10
101.65
 20
113.2471132244
 11
101.65
 21
104.7893863434
  0
LINE
  8
0
 62
7
  6
CONTINUOUS
 10
139.6
 20
112.3080680218
 11
139.6026812865
 21
112.3088313729
  0
LINE
  8
0
 62
7
  6
CONTINUOUS
 10
146.6870413186
 20
124.177181261
 11
146.8849429479
 21
124.1314325992
  0
LINE
  8
0
 62
7
  6
CONTINUOUS
 10
146.5233455755
 20
124.2158614059
 11
146.6870413186
 21
124.177181261
  0
POLYLINE
  8
0
 62
7
  6
CONTINUOUS
 66
1
 70
0
  0
VERTEX
  8
0
 62
7
  6
CONTINUOUS
 10
146.35
 20
124.2577064121
  0
VERTEX
  8
0
 62
7
  6
CONTINUOUS
 10
146.3537337664
 20
124.2567950886
  0
VERTEX
  8
0
 62
7
  6
CONTINUOUS
 10
146.5233455755
 20
124.2158614059
  0
SEQEND
  0
LINE
  8
0
 62
7
  6
CONTINUOUS
 10
100.5742808976
 20
117.9437868661
 11
101.4818803966
 21
114.5327771902
  0
LINE
  8
0
 62
7
  6
CONTINUOUS
 10
102.0757191024
 20
118.2580876764
 11
101.1681196034
 21
121.6690973523
  0
LINE
  8
0
 62
7
  6
CONTINUOUS
 10
107.35
 20
104.7893789134
 11
107.35
 21
113.2471132244
  0
LINE
  8
0
 62
7
  6
CONTINUOUS
 10
108.0
 20
131.4124868691
 11
108.0
 21
122.9547613181
  0
LINE
  8
0
 62
7
  6
CONTINUOUS
 10
108.7697277617
 20
134.8937868661
 11
108.1513092155
 21
132.5695991079
  0
LINE
  8
0
 62
7
  6
CONTINUOUS
 10
107.8318803966
 20
121.6690973523
 11
106.9242808976
 21
118.2580876764
  0
LINE
  8
0
 62
7
  6
CONTINUOUS
 10
107.5181196034
 20
114.5327771902
 11
108.4257191024
 21
117.9437868661
  0
LINE
  8
0
 62
7
  6
CONTINUOUS
 10
114.4218585073
 20
104.1962910031
 11
115.5114172029
 21
101.472394264
  0
LINE
  8
0
 62
7
  6
CONTINUOUS
 10
100.8486905667
 20
132.5695999264
 11
100.2302722383
 21
134.8937868661
  0
LINE
  8
0
 62
7
  6
CONTINUOUS
 10
106.5802722383
 20
101.3080876764
 11
107.1986907846
 21
103.6322754347
  0
LINE
  8
0
 62
7
  6
CONTINUOUS
 10
121.855188346
 20
134.7463767452
 11
120.9138501652
 21
132.5499209899
  0
LINE
  8
0
 62
7
  6
CONTINUOUS
 10
119.7653122022
 20
119.2776428854
 11
118.821131284
 21
117.7975755002
  0
LINE
  8
0
 62
7
  6
CONTINUOUS
 10
112.3208895511
 20
118.052484177
 11
113.6780610336
 21
114.9618138233
  0
LINE
  8
0
 62
7
  6
CONTINUOUS
 10
114.9530758117
 20
117.8993903654
 11
114.1219389664
 21
119.7921283435
  0
LINE
  8
0
 62
7
  6
CONTINUOUS
 10
113.7
 20
130.6506611664
 11
113.696385283
 21
130.8309924922
  0
LINE
  8
0
 62
7
  6
CONTINUOUS
 10
113.7
 20
121.8024410487
 11
113.7
 21
130.6506611664
  0
LINE
  8
0
 62
7
  6
CONTINUOUS
 10
114.1
 20
112.951501118
 11
114.1
 21
105.8675580873
  0
LINE
  8
0
 62
7
  6
CONTINUOUS
 10
121.928868716
 20
118.4042990423
 11
121.0846877978
 21
117.0809884138
  0
LINE
  8
0
 62
7
  6
CONTINUOUS
 10
126.2289898195
 20
116.7232704842
 11
125.1706888088
 21
118.4010647695
  0
LINE
  8
0
 62
7
  6
CONTINUOUS
 10
113.3897537381
 20
132.2926001463
 11
112.3387028268
 21
134.9745921269
  0
LINE
  8
0
 62
7
  6
CONTINUOUS
 10
120.3
 20
114.39190994
 11
120.3
 21
105.8675580873
  0
LINE
  8
0
 62
7
  6
CONTINUOUS
 10
120.5500895656
 20
130.805669203
 11
120.55
 21
121.9667213592
  0
LINE
  8
0
 62
7
  6
CONTINUOUS
 10
119.9781419356
 20
104.1962921103
 11
118.8885827971
 21
101.472394264
  0
LINE
  8
0
 62
7
  6
CONTINUOUS
 10
134.6382352941
 20
134.8038784477
 11
133.7794144539
 21
133.1935893723
  0
LINE
  8
0
 62
7
  6
CONTINUOUS
 10
132.4789898195
 20
118.7595678021
 11
131.874234755
 21
117.8008097729
  0
LINE
  8
0
 62
7
  6
CONTINUOUS
 10
127.925765245
 20
117.8008097729
 11
127.3210101805
 21
118.7595678021
  0
LINE
  8
0
 62
7
  6
CONTINUOUS
 10
128.2242169865
 20
101.5031744527
 11
127.2526398764
 21
104.279109053
  0
LINE
  8
0
 62
7
  6
CONTINUOUS
 10
126.55
 20
121.4270844574
 11
126.5499104344
 21
130.805669203
  0
LINE
  8
0
 62
7
  6
CONTINUOUS
 10
127.0
 20
105.7656930501
 11
127.0
 21
114.0557538289
  0
LINE
  8
0
 62
7
  6
CONTINUOUS
 10
148.0291497386
 20
134.8522263321
 11
147.048317132
 21
133.3035432691
  0
LINE
  8
0
 62
7
  6
CONTINUOUS
 10
126.1861494415
 20
132.5499219078
 11
125.244811654
 21
134.7463767452
  0
LINE
  8
0
 62
7
  6
CONTINUOUS
 10
132.8
 20
105.7656930501
 11
132.8
 21
112.3080680218
  0
LINE
  8
0
 62
7
  6
CONTINUOUS
 10
133.25
 20
131.0759265058
 11
133.25
 21
121.4270844574
  0
LINE
  8
0
 62
7
  6
CONTINUOUS
 10
131.5757830135
 20
101.5031744527
 11
132.5473601106
 21
104.2791090159
  0
LINE
  8
0
 62
7
  6
CONTINUOUS
 10
139.8750590232
 20
104.7507762989
 11
141.0696700285
 21
101.4927462844
  0
LINE
  8
0
 62
7
  6
CONTINUOUS
 10
139.25
 20
124.2577064121
 11
139.25
 21
131.0759372712
  0
LINE
  8
0
 62
7
  6
CONTINUOUS
 10
147.3338040705
 20
118.3743379101
 11
146.6637345158
 21
117.2071199762
  0
LINE
  8
0
 62
7
  6
CONTINUOUS
 10
138.7205852412
 20
133.193589944
 11
137.8617647059
 21
134.8038784477
  0
LINE
  8
0
 62
7
  6
CONTINUOUS
 10
139.6
 20
112.3080680218
 11
139.6
 21
106.2999288874
  0
POLYLINE
  8
0
 62
7
  6
CONTINUOUS
 66
1
 70
0
  0
VERTEX
  8
0
 62
7
  6
CONTINUOUS
 10
148.2596282115
 20
121.9009372712
  0
VERTEX
  8
0
 62
7
  6
CONTINUOUS
 10
148.2580031023
 20
121.9293943402
  0
VERTEX
  8
0
 62
7
  6
CONTINUOUS
 10
148.2574599608
 20
121.9579403523
  0
SEQEND
  0
LINE
  8
0
 62
7
  6
CONTINUOUS
 10
150.4424504032
 20
130.9153238418
 11
150.4417346226
 21
131.1431287735
  0
LINE
  8
0
 62
7
  6
CONTINUOUS
 10
146.0
 20
114.7177823835
 11
146.0
 21
106.4776530286
  0
LINE
  8
0
 62
7
  6
CONTINUOUS
 10
146.35
 20
130.8957923145
 11
146.35
 21
124.2577064121
  0
LINE
  8
0
 62
7
  6
CONTINUOUS
 10
150.4424504032
 20
130.9153238418
 11
150.4425400392
 21
121.9579403523
  0
LINE
  8
0
 62
7
  6
CONTINUOUS
 10
152.35
 20
131.5757337328
 11
152.35
 21
121.2509372712
  0
LINE
  8
0
 62
7
  6
CONTINUOUS
 10
148.2574599608
 20
121.9579403523
 11
148.2575495968
 21
130.9153238415
  0
LINE
  8
0
 62
7
  6
CONTINUOUS
 10
148.2575495968
 20
130.9153238415
 11
148.2582653774
 21
131.1431287735
  0
POLYLINE
  8
0
 62
7
  6
CONTINUOUS
 66
1
 70
0
  0
VERTEX
  8
0
 62
7
  6
CONTINUOUS
 10
150.4425400392
 20
121.9579403523
  0
VERTEX
  8
0
 62
7
  6
CONTINUOUS
 10
150.4419968977
 20
121.9293943407
  0
VERTEX
  8
0
 62
7
  6
CONTINUOUS
 10
150.4403717885
 20
121.9009372712
  0
SEQEND
  0
POLYLINE
  8
0
 62
7
  6
CONTINUOUS
 66
1
 70
0
  0
VERTEX
  8
0
 62
7
  6
CONTINUOUS
 10
148.2582653774
 20
131.1431287735
  0
VERTEX
  8
0
 62
7
  6
CONTINUOUS
 10
148.261701847
 20
131.2107432366
  0
VERTEX
  8
0
 62
7
  6
CONTINUOUS
 10
148.2714273268
 20
131.2781716694
  0
VERTEX
  8
0
 62
7
  6
CONTINUOUS
 10
148.2874727413
 20
131.3448027964
  0
VERTEX
  8
0
 62
7
  6
CONTINUOUS
 10
148.309868343
 20
131.4101933526
  0
VERTEX
  8
0
 62
7
  6
CONTINUOUS
 10
148.3385449644
 20
131.4736905488
  0
VERTEX
  8
0
 62
7
  6
CONTINUOUS
 10
148.3734748622
 20
131.5348383263
  0
VERTEX
  8
0
 62
7
  6
CONTINUOUS
 10
148.4143134211
 20
131.5927506264
  0
VERTEX
  8
0
 62
7
  6
CONTINUOUS
 10
148.4607091135
 20
131.6467906862
  0
VERTEX
  8
0
 62
7
  6
CONTINUOUS
 10
148.5119083007
 20
131.6960921578
  0
VERTEX
  8
0
 62
7
  6
CONTINUOUS
 10
148.5674584817
 20
131.7403157102
  0
VERTEX
  8
0
 62
7
  6
CONTINUOUS
 10
148.6265855556
 20
131.7789688987
  0
VERTEX
  8
0
 62
7
  6
CONTINUOUS
 10
148.6883752796
 20
131.8116715618
  0
VERTEX
  8
0
 62
7
  6
CONTINUOUS
 10
148.7519132121
 20
131.838239688
  0
VERTEX
  8
0
 62
7
  6
CONTINUOUS
 10
148.8169226714
 20
131.8588240848
  0
VERTEX
  8
0
 62
7
  6
CONTINUOUS
 10
148.8827906644
 20
131.8734312534
  0
VERTEX
  8
0
 62
7
  6
CONTINUOUS
 10
148.9491584217
 20
131.8821466747
  0
VERTEX
  8
0
 62
7
  6
CONTINUOUS
 10
149.01545103
 20
131.8850293614
  0
SEQEND
  0
POLYLINE
  8
0
 62
7
  6
CONTINUOUS
 66
1
 70
0
  0
VERTEX
  8
0
 62
7
  6
CONTINUOUS
 10
150.4403717885
 20
121.9009372712
  0
VERTEX
  8
0
 62
7
  6
CONTINUOUS
 10
150.4320943061
 20
121.8333938621
  0
VERTEX
  8
0
 62
7
  6
CONTINUOUS
 10
150.4174694799
 20
121.7662104516
  0
VERTEX
  8
0
 62
7
  6
CONTINUOUS
 10
150.3965843914
 20
121.7004442382
  0
VERTEX
  8
0
 62
7
  6
CONTINUOUS
 10
150.3695868871
 20
121.6367553961
  0
VERTEX
  8
0
 62
7
  6
CONTINUOUS
 10
150.3364136064
 20
121.5752831872
  0
VERTEX
  8
0
 62
7
  6
CONTINUOUS
 10
150.2973466538
 20
121.5168529704
  0
VERTEX
  8
0
 62
7
  6
CONTINUOUS
 10
150.2528769527
 20
121.4622997844
  0
VERTEX
  8
0
 62
7
  6
CONTINUOUS
 10
150.2035798347
 20
121.4122800393
  0
VERTEX
  8
0
 62
7
  6
CONTINUOUS
 10
150.1494253963
 20
121.3667955632
  0
VERTEX
  8
0
 62
7
  6
CONTINUOUS
 10
150.0909137559
 20
121.3263940502
  0
VERTEX
  8
0
 62
7
  6
CONTINUOUS
 10
150.0288810976
 20
121.2916856663
  0
VERTEX
  8
0
 62
7
  6
CONTINUOUS
 10
149.9642774117
 20
121.2631048452
  0
VERTEX
  8
0
 62
7
  6
CONTINUOUS
 10
149.8972894523
 20
121.2406524742
  0
VERTEX
  8
0
 62
7
  6
CONTINUOUS
 10
149.8284836652
 20
121.2245145968
  0
VERTEX
  8
0
 62
7
  6
CONTINUOUS
 10
149.7589080908
 20
121.2148777445
  0
VERTEX
  8
0
 62
7
  6
CONTINUOUS
 10
149.6896825958
 20
121.2117115552
  0
SEQEND
  0
LINE
  8
0
 62
7
  6
CONTINUOUS
 10
145.5950859932
 20
104.6121016465
 11
144.1500237575
 21
101.4400138122
  0
LINE
  8
0
 62
7
  6
CONTINUOUS
 10
151.6545719534
 20
134.6553892006
 11
152.1795684267
 21
132.8024604711
  0
LINE
  8
0
 62
7
  6
CONTINUOUS
 10
173.5492456896
 20
102.8509372712
 11
173.7492456896
 21
102.8509372712
  0
LINE
  8
DEFAULT_1
 62
7
  6
CENTER
 10
177.9492456896
 20
105.4009372712
 11
175.5493456896
 21
105.4009372712
  0
LINE
  8
0
 62
2
  6
CONTINUOUS
 10
174.4292456896
 20
105.4009372712
 11
172.6692456896
 21
105.4009372712
  0
LINE
  8
DEFAULT_1
 62
7
  6
CENTER
 10
169.1492456896
 20
105.4009372712
 11
171.5491456896
 21
105.4009372712
  0
LINE
  8
0
 62
7
  6
CONTINUOUS
 10
167.1492456896
 20
105.4009372712
 11
167.1492456896
 21
130.8009372712
  0
LINE
  8
0
 62
7
  6
CONTINUOUS
 10
170.9992456896
 20
114.0509372712
 11
170.9992456896
 21
105.4009372712
  0
LINE
  8
0
 62
7
  6
CONTINUOUS
 10
170.9992456896
 20
122.1509372712
 11
170.9992456896
 21
130.8009372712
  0
LINE
  8
0
 62
7
  6
CONTINUOUS
 10
173.7492456896
 20
116.6009372712
 11
173.5492456896
 21
116.6009372712
  0
LINE
  8
DEFAULT_1
 62
7
  6
CENTER
 10
173.5492456896
 20
135.2009372712
 11
173.5492456896
 21
132.8010372712
  0
LINE
  8
0
 62
2
  6
CONTINUOUS
 10
173.5492456896
 20
131.6809372712
 11
173.5492456896
 21
129.9209372712
  0
LINE
  8
DEFAULT_1
 62
7
  6
CENTER
 10
173.5492456896
 20
109.8009372712
 11
173.5492456896
 21
107.4010372712
  0
LINE
  8
0
 62
2
  6
CONTINUOUS
 10
173.5492456896
 20
106.2809372712
 11
173.5492456896
 21
104.5209372712
  0
LINE
  8
DEFAULT_1
 62
7
  6
CENTER
 10
173.5492456896
 20
101.0009372712
 11
173.5492456896
 21
103.4008372712
  0
LINE
  8
DEFAULT_1
 62
7
  6
CENTER
 10
173.5492456896
 20
126.4009372712
 11
173.5492456896
 21
128.8008372712
  0
LINE
  8
DEFAULT_1
 62
7
  6
CENTER
 10
173.6492456896
 20
122.5009372712
 11
173.6492456896
 21
120.1010372712
  0
LINE
  8
0
 62
2
  6
CONTINUOUS
 10
173.6492456896
 20
118.9809372712
 11
173.6492456896
 21
117.2209372712
  0
LINE
  8
DEFAULT_1
 62
7
  6
CENTER
 10
173.6492456896
 20
113.7009372712
 11
173.6492456896
 21
116.1008372712
  0
LINE
  8
0
 62
7
  6
CONTINUOUS
 10
179.3992456896
 20
117.7009372712
 11
167.8992456896
 21
117.7009372712
  0
LINE
  8
DEFAULT_1
 62
7
  6
CENTER
 10
178.0492456896
 20
118.1009372712
 11
175.6493456896
 21
118.1009372712
  0
LINE
  8
0
 62
2
  6
CONTINUOUS
 10
174.5292456896
 20
118.1009372712
 11
172.7692456896
 21
118.1009372712
  0
LINE
  8
DEFAULT_1
 62
7
  6
CENTER
 10
169.2492456896
 20
118.1009372712
 11
171.6491456896
 21
118.1009372712
  0
LINE
  8
0
 62
7
  6
CONTINUOUS
 10
173.5492456896
 20
119.6009372712
 11
173.7492456896
 21
119.6009372712
  0
LINE
  8
0
 62
7
  6
CONTINUOUS
 10
176.2992456896
 20
105.4009372712
 11
176.2992456896
 21
114.0509372712
  0
LINE
  8
0
 62
7
  6
CONTINUOUS
 10
176.2992456896
 20
122.1509372712
 11
176.2992456896
 21
130.8009372712
  0
LINE
  8
0
 62
7
  6
CONTINUOUS
 10
180.1492456896
 20
130.8009372712
 11
180.1477592745
 21
130.915297418
  0
LINE
  8
0
 62
7
  6
CONTINUOUS
 10
180.1492456896
 20
130.8009372712
 11
180.1492456896
 21
105.4009372712
  0
LINE
  8
DEFAULT_1
 62
7
  6
CENTER
 10
177.9492456896
 20
130.8009372712
 11
175.5493456896
 21
130.8009372712
  0
LINE
  8
0
 62
2
  6
CONTINUOUS
 10
174.4292456896
 20
130.8009372712
 11
172.6692456896
 21
130.8009372712
  0
LINE
  8
DEFAULT_1
 62
7
  6
CENTER
 10
169.1492456896
 20
130.8009372712
 11
171.5491456896
 21
130.8009372712
  0
LINE
  8
0
 62
7
  6
CONTINUOUS
 10
173.7492456896
 20
133.3509372712
 11
173.5492456896
 21
133.3509372712
  0
ARC
  8
0
 62
7
  6
CONTINUOUS
 10
81.2
 20
188.8299999999
 40
0.75
 50
270.0
 51
360.0
  0
ARC
  8
0
 62
7
  6
CONTINUOUS
 10
26.2
 20
188.8299999999
 40
0.75
 50
180.0
 51
270.0
  0
ARC
  8
0
 62
7
  6
CONTINUOUS
 10
30.4
 20
188.8299999999
 40
0.75
 50
270.0
 51
360.0
  0
ARC
  8
0
 62
7
  6
CONTINUOUS
 10
38.9
 20
188.8299999999
 40
0.75
 50
180.0
 51
270.0
  0
ARC
  8
0
 62
7
  6
CONTINUOUS
 10
43.1
 20
188.8299999999
 40
0.75
 50
270.0
 51
360.0
  0
ARC
  8
0
 62
7
  6
CONTINUOUS
 10
51.6
 20
188.8299999999
 40
0.75
 50
180.0
 51
270.0
  0
ARC
  8
0
 62
7
  6
CONTINUOUS
 10
55.8
 20
188.8299999999
 40
0.75
 50
270.0
 51
360.0
  0
ARC
  8
0
 62
7
  6
CONTINUOUS
 10
64.3
 20
188.8299999999
 40
0.75
 50
180.0
 51
270.0
  0
ARC
  8
0
 62
7
  6
CONTINUOUS
 10
68.5
 20
188.8299999999
 40
0.75
 50
270.0
 51
360.0
  0
ARC
  8
0
 62
7
  6
CONTINUOUS
 10
77.0
 20
188.8299999999
 40
0.75
 50
180.0
 51
270.0
  0
ARC
  8
0
 62
7
  6
CONTINUOUS
 10
81.2
 20
200.3299999999
 40
0.75
 50
0.0
 51
90.0
  0
ARC
  8
0
 62
7
  6
CONTINUOUS
 10
26.2
 20
200.3299999999
 40
0.75
 50
90.0
 51
180.0
  0
ARC
  8
0
 62
7
  6
CONTINUOUS
 10
30.4
 20
200.3299999999
 40
0.75
 50
0.0
 51
90.0
  0
ARC
  8
0
 62
7
  6
CONTINUOUS
 10
38.9
 20
200.3299999999
 40
0.75
 50
90.0
 51
180.0
  0
ARC
  8
0
 62
7
  6
CONTINUOUS
 10
43.1
 20
200.3299999999
 40
0.75
 50
0.0
 51
90.0
  0
ARC
  8
0
 62
7
  6
CONTINUOUS
 10
51.6
 20
200.3299999999
 40
0.75
 50
90.0
 51
180.0
  0
ARC
  8
0
 62
7
  6
CONTINUOUS
 10
55.8
 20
200.3299999999
 40
0.75
 50
0.0
 51
90.0
  0
ARC
  8
0
 62
7
  6
CONTINUOUS
 10
64.3
 20
200.3299999999
 40
0.75
 50
90.0
 51
180.0
  0
ARC
  8
0
 62
7
  6
CONTINUOUS
 10
68.5
 20
200.3299999999
 40
0.75
 50
0.0
 51
90.0
  0
ARC
  8
0
 62
7
  6
CONTINUOUS
 10
77.0
 20
200.3299999999
 40
0.75
 50
90.0
 51
180.0
  0
ARC
  8
0
 62
7
  6
CONTINUOUS
 10
132.05
 20
188.8299999999
 40
0.75
 50
270.0
 51
360.0
  0
ARC
  8
0
 62
7
  6
CONTINUOUS
 10
89.7
 20
188.8299999999
 40
0.75
 50
180.0
 51
270.0
  0
ARC
  8
0
 62
7
  6
CONTINUOUS
 10
93.9
 20
188.8299999999
 40
0.75
 50
270.0
 51
360.0
  0
ARC
  8
0
 62
7
  6
CONTINUOUS
 10
102.4
 20
188.8299999999
 40
0.75
 50
180.0
 51
270.0
  0
ARC
  8
0
 62
7
  6
CONTINUOUS
 10
106.6
 20
188.8299999999
 40
0.75
 50
270.0
 51
360.0
  0
ARC
  8
0
 62
7
  6
CONTINUOUS
 10
114.85
 20
188.8299999999
 40
0.75
 50
180.0
 51
270.0
  0
ARC
  8
0
 62
7
  6
CONTINUOUS
 10
119.55
 20
188.8299999999
 40
0.75
 50
270.0
 51
360.0
  0
ARC
  8
0
 62
7
  6
CONTINUOUS
 10
127.75
 20
188.8299999999
 40
0.75
 50
180.0
 51
270.0
  0
ARC
  8
0
 62
7
  6
CONTINUOUS
 10
140.35
 20
188.8299999999
 40
0.75
 50
180.0
 51
270.0
  0
ARC
  8
0
 62
7
  6
CONTINUOUS
 10
151.6
 20
188.8299999999
 40
0.75
 50
270.0
 51
360.0
  0
ARC
  8
0
 62
7
  6
CONTINUOUS
 10
145.25
 20
188.8299999999
 40
0.75
 50
270.0
 51
360.0
  0
ARC
  8
0
 62
7
  6
CONTINUOUS
 10
140.35
 20
198.7299999999
 40
0.75
 50
90.0
 51
180.0
  0
ARC
  8
0
 62
7
  6
CONTINUOUS
 10
89.7
 20
200.3299999999
 40
0.75
 50
90.0
 51
180.0
  0
ARC
  8
0
 62
7
  6
CONTINUOUS
 10
93.9
 20
200.3299999999
 40
0.75
 50
0.0
 51
90.0
  0
ARC
  8
0
 62
7
  6
CONTINUOUS
 10
102.4
 20
200.3299999999
 40
0.75
 50
90.0
 51
180.0
  0
ARC
  8
0
 62
7
  6
CONTINUOUS
 10
106.6
 20
200.3299999999
 40
0.75
 50
0.0
 51
90.0
  0
ARC
  8
0
 62
7
  6
CONTINUOUS
 10
114.85
 20
200.3299999999
 40
0.75
 50
90.0
 51
180.0
  0
ARC
  8
0
 62
7
  6
CONTINUOUS
 10
119.55
 20
200.3299999999
 40
0.75
 50
0.0
 51
90.0
  0
ARC
  8
0
 62
7
  6
CONTINUOUS
 10
127.75
 20
200.3299999999
 40
0.75
 50
90.0
 51
180.0
  0
ARC
  8
0
 62
7
  6
CONTINUOUS
 10
140.35
 20
200.3299999999
 40
0.75
 50
90.0
 51
180.0
  0
ARC
  8
0
 62
7
  6
CONTINUOUS
 10
132.05
 20
200.3299999999
 40
0.75
 50
0.0
 51
90.0
  0
ARC
  8
0
 62
7
  6
CONTINUOUS
 10
145.25
 20
200.3299999999
 40
0.75
 50
0.0
 51
90.0
  0
ARC
  8
0
 62
7
  6
CONTINUOUS
 10
151.6
 20
200.3299999999
 40
0.75
 50
0.0
 51
90.0
  0
ARC
  8
0
 62
7
  6
CONTINUOUS
 10
133.55
 20
199.1299999999
 40
0.75
 50
90.0
 51
180.0
  0
ARC
  8
0
 62
7
  6
CONTINUOUS
 10
138.85
 20
199.1299999999
 40
0.75
 50
0.0
 51
90.0
  0
ARC
  8
0
 62
7
  6
CONTINUOUS
 10
52.05
 20
104.7893789134
 40
4.5
 50
345.0999221404
 51
0.0001115189
  0
ARC
  8
0
 62
7
  6
CONTINUOUS
 10
55.35
 20
104.7893789134
 40
4.5
 50
179.9999053977
 51
194.9000886434
  0
ARC
  8
0
 62
7
  6
CONTINUOUS
 10
39.35
 20
104.7893789134
 40
4.5
 50
345.0999221404
 51
0.0001115189
  0
ARC
  8
0
 62
7
  6
CONTINUOUS
 10
42.65
 20
104.7893789134
 40
4.5
 50
179.9999053977
 51
194.9000886434
  0
ARC
  8
0
 62
7
  6
CONTINUOUS
 10
26.65
 20
104.7893789134
 40
4.5
 50
345.0999221404
 51
0.0001115189
  0
ARC
  8
0
 62
7
  6
CONTINUOUS
 10
29.95
 20
104.7893789134
 40
4.5
 50
179.9999053977
 51
194.9000886434
  0
ARC
  8
0
 62
7
  6
CONTINUOUS
 10
26.9445098212
 20
101.5009372712
 40
0.75
 50
194.9
 51
270.0
  0
ARC
  8
0
 62
7
  6
CONTINUOUS
 10
29.6554901788
 20
101.5009372712
 40
0.75
 50
270.0
 51
345.1
  0
ARC
  8
0
 62
7
  6
CONTINUOUS
 10
39.6445098212
 20
101.5009372712
 40
0.75
 50
194.9
 51
270.0
  0
ARC
  8
0
 62
7
  6
CONTINUOUS
 10
42.3554901788
 20
101.5009372712
 40
0.75
 50
270.0
 51
345.1
  0
ARC
  8
0
 62
7
  6
CONTINUOUS
 10
52.3445098212
 20
101.5009372712
 40
0.75
 50
194.9
 51
270.0
  0
ARC
  8
0
 62
7
  6
CONTINUOUS
 10
55.0554901788
 20
101.5009372712
 40
0.75
 50
270.0
 51
345.1
  0
ARC
  8
0
 62
7
  6
CONTINUOUS
 10
27.95
 20
115.2009372712
 40
2.5
 50
90.0
 51
180.0
  0
ARC
  8
0
 62
7
  6
CONTINUOUS
 10
33.15
 20
113.2471132244
 40
5.0
 50
0.0
 51
14.9
  0
ARC
  8
0
 62
7
  6
CONTINUOUS
 10
36.15
 20
113.2471132244
 40
5.0
 50
165.1
 51
180.0
  0
ARC
  8
0
 62
7
  6
CONTINUOUS
 10
32.9505011619
 20
117.7509372712
 40
0.75
 50
90.0
 51
165.1
  0
ARC
  8
0
 62
7
  6
CONTINUOUS
 10
36.3494988381
 20
117.7509372712
 40
0.75
 50
14.9
 51
90.0
  0
ARC
  8
0
 62
7
  6
CONTINUOUS
 10
45.85
 20
113.2471132244
 40
5.0
 50
0.0
 51
14.9
  0
ARC
  8
0
 62
7
  6
CONTINUOUS
 10
48.85
 20
113.2471132244
 40
5.0
 50
165.1
 51
180.0
  0
ARC
  8
0
 62
7
  6
CONTINUOUS
 10
45.6505011619
 20
117.7509372712
 40
0.75
 50
90.0
 51
165.1
  0
ARC
  8
0
 62
7
  6
CONTINUOUS
 10
49.0494988381
 20
117.7509372712
 40
0.75
 50
14.9
 51
90.0
  0
ARC
  8
0
 62
7
  6
CONTINUOUS
 10
64.75
 20
104.7893789134
 40
4.5
 50
345.0999221404
 51
0.0001115189
  0
ARC
  8
0
 62
7
  6
CONTINUOUS
 10
68.05
 20
104.7893789134
 40
4.5
 50
179.9999053977
 51
194.9000886434
  0
ARC
  8
0
 62
7
  6
CONTINUOUS
 10
77.45
 20
104.7893789134
 40
4.5
 50
345.0999221404
 51
0.0001115189
  0
ARC
  8
0
 62
7
  6
CONTINUOUS
 10
80.75
 20
104.7893789134
 40
4.5
 50
179.9999053977
 51
194.9000886434
  0
ARC
  8
0
 62
7
  6
CONTINUOUS
 10
80.4554901788
 20
101.5009372712
 40
0.75
 50
270.0
 51
345.1
  0
ARC
  8
0
 62
7
  6
CONTINUOUS
 10
65.0445098212
 20
101.5009372712
 40
0.75
 50
194.9
 51
270.0
  0
ARC
  8
0
 62
7
  6
CONTINUOUS
 10
67.7554901788
 20
101.5009372712
 40
0.75
 50
270.0
 51
345.1
  0
ARC
  8
0
 62
7
  6
CONTINUOUS
 10
77.7445098212
 20
101.5009372712
 40
0.75
 50
194.9
 51
270.0
  0
ARC
  8
0
 62
7
  6
CONTINUOUS
 10
58.55
 20
113.2471132244
 40
5.0
 50
0.0
 51
14.9
  0
ARC
  8
0
 62
7
  6
CONTINUOUS
 10
61.55
 20
113.2471132244
 40
5.0
 50
165.1
 51
180.0
  0
ARC
  8
0
 62
7
  6
CONTINUOUS
 10
71.25
 20
113.2471132244
 40
5.0
 50
0.0
 51
14.9
  0
ARC
  8
0
 62
7
  6
CONTINUOUS
 10
58.3505011619
 20
117.7509372712
 40
0.75
 50
90.0
 51
165.1
  0
ARC
  8
0
 62
7
  6
CONTINUOUS
 10
61.7494988381
 20
117.7509372712
 40
0.75
 50
14.9
 51
90.0
  0
ARC
  8
0
 62
7
  6
CONTINUOUS
 10
71.0505011619
 20
117.7509372712
 40
0.75
 50
90.0
 51
165.1
  0
ARC
  8
0
 62
7
  6
CONTINUOUS
 10
74.25
 20
113.2471132244
 40
5.0
 50
165.1
 51
180.0
  0
ARC
  8
0
 62
7
  6
CONTINUOUS
 10
83.95
 20
113.2471132244
 40
5.0
 50
0.0
 51
14.9
  0
ARC
  8
0
 62
7
  6
CONTINUOUS
 10
86.95
 20
113.2471132244
 40
5.0
 50
165.1
 51
180.0
  0
ARC
  8
0
 62
7
  6
CONTINUOUS
 10
74.4494988381
 20
117.7509372712
 40
0.75
 50
14.9
 51
90.0
  0
ARC
  8
0
 62
7
  6
CONTINUOUS
 10
83.7505011619
 20
117.7509372712
 40
0.75
 50
90.0
 51
165.1
  0
ARC
  8
0
 62
7
  6
CONTINUOUS
 10
87.1494988381
 20
117.7509372712
 40
0.75
 50
14.9
 51
90.0
  0
ARC
  8
0
 62
7
  6
CONTINUOUS
 10
39.3005011619
 20
118.4509372712
 40
0.75
 50
194.9
 51
270.0
  0
ARC
  8
0
 62
7
  6
CONTINUOUS
 10
29.9994988381
 20
118.4509372712
 40
0.75
 50
270.0
 51
345.1
  0
ARC
  8
0
 62
7
  6
CONTINUOUS
 10
26.8
 20
122.9547613181
 40
5.0
 50
345.1
 51
360.0
  0
ARC
  8
0
 62
7
  6
CONTINUOUS
 10
39.5
 20
122.9547613181
 40
5.0
 50
345.1
 51
360.0
  0
ARC
  8
0
 62
7
  6
CONTINUOUS
 10
42.6994988381
 20
118.4509372712
 40
0.75
 50
270.0
 51
345.1
  0
ARC
  8
0
 62
7
  6
CONTINUOUS
 10
52.0005011619
 20
118.4509372712
 40
0.75
 50
194.9
 51
270.0
  0
ARC
  8
0
 62
7
  6
CONTINUOUS
 10
55.3994988381
 20
118.4509372712
 40
0.75
 50
270.0
 51
345.1
  0
ARC
  8
0
 62
7
  6
CONTINUOUS
 10
52.2
 20
122.9547613181
 40
5.0
 50
345.1
 51
360.0
  0
ARC
  8
0
 62
7
  6
CONTINUOUS
 10
55.2
 20
122.9547613181
 40
5.0
 50
180.0
 51
194.9
  0
ARC
  8
0
 62
7
  6
CONTINUOUS
 10
42.5
 20
122.9547613181
 40
5.0
 50
180.0
 51
194.9
  0
ARC
  8
0
 62
7
  6
CONTINUOUS
 10
36.3
 20
131.4124956291
 40
4.5
 50
165.0999221386
 51
180.0001115353
  0
ARC
  8
0
 62
7
  6
CONTINUOUS
 10
33.0
 20
131.4124956291
 40
4.5
 50
359.9999053839
 51
14.9000886457
  0
ARC
  8
0
 62
7
  6
CONTINUOUS
 10
49.0
 20
131.4124956291
 40
4.5
 50
165.0999221386
 51
180.0001115353
  0
ARC
  8
0
 62
7
  6
CONTINUOUS
 10
45.7
 20
131.4124956291
 40
4.5
 50
359.9999053839
 51
14.9000886457
  0
ARC
  8
0
 62
7
  6
CONTINUOUS
 10
33.2945098212
 20
134.7009372712
 40
0.75
 50
90.0
 51
165.1
  0
ARC
  8
0
 62
7
  6
CONTINUOUS
 10
48.7054901788
 20
134.7009372712
 40
0.75
 50
14.9
 51
90.0
  0
ARC
  8
0
 62
7
  6
CONTINUOUS
 10
45.9945098212
 20
134.7009372712
 40
0.75
 50
90.0
 51
165.1
  0
ARC
  8
0
 62
7
  6
CONTINUOUS
 10
36.0054901788
 20
134.7009372712
 40
0.75
 50
14.9
 51
90.0
  0
ARC
  8
0
 62
7
  6
CONTINUOUS
 10
64.7005011619
 20
118.4509372712
 40
0.75
 50
194.9
 51
270.0
  0
ARC
  8
0
 62
7
  6
CONTINUOUS
 10
68.0994988381
 20
118.4509372712
 40
0.75
 50
270.0
 51
345.1
  0
ARC
  8
0
 62
7
  6
CONTINUOUS
 10
64.9
 20
122.9547613181
 40
5.0
 50
345.1
 51
360.0
  0
ARC
  8
0
 62
7
  6
CONTINUOUS
 10
67.9
 20
122.9547613181
 40
5.0
 50
180.0
 51
194.9
  0
ARC
  8
0
 62
7
  6
CONTINUOUS
 10
77.4005011619
 20
118.4509372712
 40
0.75
 50
194.9
 51
270.0
  0
ARC
  8
0
 62
7
  6
CONTINUOUS
 10
80.7994988381
 20
118.4509372712
 40
0.75
 50
270.0
 51
345.1
  0
ARC
  8
0
 62
7
  6
CONTINUOUS
 10
77.6
 20
122.9547613181
 40
5.0
 50
345.1
 51
360.0
  0
ARC
  8
0
 62
7
  6
CONTINUOUS
 10
80.6
 20
122.9547613181
 40
5.0
 50
180.0
 51
194.9
  0
ARC
  8
0
 62
7
  6
CONTINUOUS
 10
87.1
 20
131.4124956291
 40
4.5
 50
165.0999221386
 51
180.0001115353
  0
ARC
  8
0
 62
7
  6
CONTINUOUS
 10
83.8
 20
131.4124956291
 40
4.5
 50
359.9999053839
 51
14.9000886457
  0
ARC
  8
0
 62
7
  6
CONTINUOUS
 10
61.7
 20
131.4124956291
 40
4.5
 50
165.0999221386
 51
180.0001115353
  0
ARC
  8
0
 62
7
  6
CONTINUOUS
 10
58.4
 20
131.4124956291
 40
4.5
 50
359.9999053839
 51
14.9000886457
  0
ARC
  8
0
 62
7
  6
CONTINUOUS
 10
74.4
 20
131.4124956291
 40
4.5
 50
165.0999221386
 51
180.0001115353
  0
ARC
  8
0
 62
7
  6
CONTINUOUS
 10
71.1
 20
131.4124956291
 40
4.5
 50
359.9999053839
 51
14.9000886457
  0
ARC
  8
0
 62
7
  6
CONTINUOUS
 10
84.0945098212
 20
134.7009372712
 40
0.75
 50
90.0
 51
165.1
  0
ARC
  8
0
 62
7
  6
CONTINUOUS
 10
74.1054901788
 20
134.7009372712
 40
0.75
 50
14.9
 51
90.0
  0
ARC
  8
0
 62
7
  6
CONTINUOUS
 10
86.8054901788
 20
134.7009372712
 40
0.75
 50
14.9
 51
90.0
  0
ARC
  8
0
 62
7
  6
CONTINUOUS
 10
58.6945098212
 20
134.7009372712
 40
0.75
 50
90.0
 51
165.1
  0
ARC
  8
0
 62
7
  6
CONTINUOUS
 10
71.3945098212
 20
134.7009372712
 40
0.75
 50
90.0
 51
165.1
  0
ARC
  8
0
 62
7
  6
CONTINUOUS
 10
61.4054901788
 20
134.7009372712
 40
0.75
 50
14.9
 51
90.0
  0
ARC
  8
0
 62
7
  6
CONTINUOUS
 10
115.8
 20
105.8675580873
 40
4.5
 50
338.1984817209
 51
360.0
  0
ARC
  8
0
 62
7
  6
CONTINUOUS
 10
118.6
 20
105.8675580873
 40
4.5
 50
180.0
 51
201.8015334623
  0
ARC
  8
0
 62
7
  6
CONTINUOUS
 10
102.85
 20
104.7893789134
 40
4.5
 50
345.0999221404
 51
0.0001115189
  0
ARC
  8
0
 62
7
  6
CONTINUOUS
 10
106.15
 20
104.7893789134
 40
4.5
 50
179.9999053977
 51
194.9000886434
  0
ARC
  8
0
 62
7
  6
CONTINUOUS
 10
90.15
 20
104.7893789134
 40
4.5
 50
345.0999221404
 51
0.0001115189
  0
ARC
  8
0
 62
7
  6
CONTINUOUS
 10
93.45
 20
104.7893789134
 40
4.5
 50
179.9999053977
 51
194.9000886434
  0
ARC
  8
0
 62
7
  6
CONTINUOUS
 10
90.4445098212
 20
101.5009372712
 40
0.75
 50
194.9
 51
270.0
  0
ARC
  8
0
 62
7
  6
CONTINUOUS
 10
93.1554901788
 20
101.5009372712
 40
0.75
 50
270.0
 51
345.1
  0
ARC
  8
0
 62
7
  6
CONTINUOUS
 10
103.1445098212
 20
101.5009372712
 40
0.75
 50
194.9
 51
270.0
  0
ARC
  8
0
 62
7
  6
CONTINUOUS
 10
105.8554901788
 20
101.5009372712
 40
0.75
 50
270.0
 51
345.1
  0
ARC
  8
0
 62
7
  6
CONTINUOUS
 10
116.2077747211
 20
101.7509372712
 40
0.75
 50
201.8014094864
 51
270.0
  0
ARC
  8
0
 62
7
  6
CONTINUOUS
 10
118.1922252789
 20
101.7509372712
 40
0.75
 50
270.0
 51
338.1985905136
  0
ARC
  8
0
 62
7
  6
CONTINUOUS
 10
96.65
 20
113.2471132244
 40
5.0
 50
0.0
 51
14.9
  0
ARC
  8
0
 62
7
  6
CONTINUOUS
 10
99.65
 20
113.2471132244
 40
5.0
 50
165.1
 51
180.0
  0
ARC
  8
0
 62
7
  6
CONTINUOUS
 10
99.8494988381
 20
117.7509372712
 40
0.75
 50
14.9
 51
90.0
  0
ARC
  8
0
 62
7
  6
CONTINUOUS
 10
96.4505011619
 20
117.7509372712
 40
0.75
 50
90.0
 51
165.1
  0
ARC
  8
0
 62
7
  6
CONTINUOUS
 10
109.1
 20
112.951501118
 40
5.0
 50
0.0
 51
23.707181353
  0
ARC
  8
0
 62
7
  6
CONTINUOUS
 10
112.35
 20
113.2471132244
 40
5.0
 50
165.1
 51
180.0
  0
ARC
  8
0
 62
7
  6
CONTINUOUS
 10
109.1505011619
 20
117.7509372712
 40
0.75
 50
90.0
 51
165.1
  0
ARC
  8
0
 62
7
  6
CONTINUOUS
 10
111.634180396
 20
117.7509372712
 40
0.75
 50
23.707181353
 51
90.0
  0
ARC
  8
0
 62
7
  6
CONTINUOUS
 10
128.9321107538
 20
101.7509372712
 40
0.75
 50
199.2900462192
 51
270.0
  0
ARC
  8
0
 62
7
  6
CONTINUOUS
 10
130.867889259
 20
101.7509373078
 40
0.75
 50
269.9999990234
 51
340.7099508245
  0
ARC
  8
0
 62
7
  6
CONTINUOUS
 10
128.3
 20
105.7656930501
 40
4.5
 50
340.7098576953
 51
360.0
  0
ARC
  8
0
 62
7
  6
CONTINUOUS
 10
131.5
 20
105.7656930501
 40
4.5
 50
180.0
 51
199.2901418053
  0
ARC
  8
0
 62
7
  6
CONTINUOUS
 10
141.7738272533
 20
101.7509373044
 40
0.75
 50
200.1363061251
 51
270.0000009284
  0
ARC
  8
0
 62
7
  6
CONTINUOUS
 10
143.4675088474
 20
101.7509372712
 40
0.75
 50
270.0
 51
335.5080989718
  0
ARC
  8
0
 62
7
  6
CONTINUOUS
 10
141.5
 20
106.4776500132
 40
4.5
 50
335.5079924656
 51
0.0000383936
  0
ARC
  8
0
 62
7
  6
CONTINUOUS
 10
144.1
 20
106.2999288874
 40
4.5
 50
180.0
 51
200.1363938462
  0
ARC
  8
0
 62
7
  6
CONTINUOUS
 10
151.0
 20
114.7177823835
 40
5.0
 50
150.1409838351
 51
180.0
  0
ARC
  8
0
 62
7
  6
CONTINUOUS
 10
122.0
 20
114.0557538289
 40
5.0
 50
0.0
 51
32.2424678391
  0
ARC
  8
0
 62
7
  6
CONTINUOUS
 10
125.3
 20
114.39190994
 40
5.0
 50
147.4649328421
 51
180.0
  0
ARC
  8
0
 62
7
  6
CONTINUOUS
 10
136.2
 20
110.2009372712
 40
4.0
 50
31.7883306171
 51
148.2116693829
  0
ARC
  8
0
 62
7
  6
CONTINUOUS
 10
122.5611655464
 20
118.0009372712
 40
0.75
 50
90.0
 51
147.4649328421
  0
ARC
  8
0
 62
7
  6
CONTINUOUS
 10
124.5363403358
 20
118.0009372712
 40
0.75
 50
32.2424678391
 51
90.0
  0
ARC
  8
0
 62
7
  6
CONTINUOUS
 10
147.9842438931
 20
118.0009372712
 40
0.75
 50
90.0
 51
150.1409838351
  0
ARC
  8
0
 62
7
  6
CONTINUOUS
 10
90.1005011619
 20
118.4509372712
 40
0.75
 50
194.9
 51
270.0
  0
ARC
  8
0
 62
7
  6
CONTINUOUS
 10
93.4994988381
 20
118.4509372712
 40
0.75
 50
270.0
 51
345.1
  0
ARC
  8
0
 62
7
  6
CONTINUOUS
 10
102.8005011619
 20
118.4509372712
 40
0.75
 50
194.9
 51
270.0
  0
ARC
  8
0
 62
7
  6
CONTINUOUS
 10
93.3
 20
122.9547613181
 40
5.0
 50
180.0
 51
194.9
  0
ARC
  8
0
 62
7
  6
CONTINUOUS
 10
90.3
 20
122.9547613181
 40
5.0
 50
345.1
 51
360.0
  0
ARC
  8
0
 62
7
  6
CONTINUOUS
 10
103.0
 20
122.9547613181
 40
5.0
 50
345.1
 51
360.0
  0
ARC
  8
0
 62
7
  6
CONTINUOUS
 10
118.1888344536
 20
118.2009372712
 40
0.75
 50
270.0
 51
327.4649328421
  0
ARC
  8
0
 62
7
  6
CONTINUOUS
 10
115.6397849667
 20
118.2009372712
 40
0.75
 50
203.707181353
 51
270.0
  0
ARC
  8
0
 62
7
  6
CONTINUOUS
 10
106.1994988381
 20
118.4509372712
 40
0.75
 50
270.0
 51
345.1
  0
ARC
  8
0
 62
7
  6
CONTINUOUS
 10
106.0
 20
122.9547613181
 40
5.0
 50
180.0
 51
194.9
  0
ARC
  8
0
 62
7
  6
CONTINUOUS
 10
118.7
 20
121.8024410487
 40
5.0
 50
180.0
 51
203.707181353
  0
ARC
  8
0
 62
7
  6
CONTINUOUS
 10
115.55
 20
121.9667213592
 40
5.0
 50
327.4649328421
 51
360.0
  0
ARC
  8
0
 62
7
  6
CONTINUOUS
 10
99.8
 20
131.4124956291
 40
4.5
 50
165.0999221386
 51
180.0001115353
  0
ARC
  8
0
 62
7
  6
CONTINUOUS
 10
96.5
 20
131.4124956291
 40
4.5
 50
359.9999053839
 51
14.9000886457
  0
ARC
  8
0
 62
7
  6
CONTINUOUS
 10
112.5
 20
131.4124956291
 40
4.5
 50
165.0999221386
 51
180.0001115353
  0
ARC
  8
0
 62
7
  6
CONTINUOUS
 10
109.2
 20
130.6506611664
 40
4.5
 50
0.0
 51
21.3999104328
  0
ARC
  8
0
 62
7
  6
CONTINUOUS
 10
96.7945098212
 20
134.7009372712
 40
0.75
 50
90.0
 51
165.1
  0
ARC
  8
0
 62
7
  6
CONTINUOUS
 10
109.4945098212
 20
134.7009372712
 40
0.75
 50
90.0
 51
165.1
  0
ARC
  8
0
 62
7
  6
CONTINUOUS
 10
99.5054901788
 20
134.7009372712
 40
0.75
 50
14.9
 51
90.0
  0
ARC
  8
0
 62
7
  6
CONTINUOUS
 10
111.6404099613
 20
134.7009370995
 40
0.75
 50
21.3998101321
 51
89.9999982952
  0
ARC
  8
0
 62
7
  6
CONTINUOUS
 10
131.55
 20
121.4270844574
 40
5.0
 50
180.0
 51
212.2424678391
  0
ARC
  8
0
 62
7
  6
CONTINUOUS
 10
128.25
 20
121.4270844574
 40
5.0
 50
327.7575321609
 51
360.0
  0
ARC
  8
0
 62
7
  6
CONTINUOUS
 10
142.8
 20
126.1009372712
 40
4.0
 50
207.4392401507
 51
332.5607598493
  0
ARC
  8
0
 62
7
  6
CONTINUOUS
 10
149.85
 20
121.2509372712
 40
2.5
 50
270.0
 51
360.0
  0
ARC
  8
0
 62
7
  6
CONTINUOUS
 10
128.560113718
 20
118.2009372712
 40
0.75
 50
212.2424678391
 51
270.0
  0
ARC
  8
0
 62
7
  6
CONTINUOUS
 10
131.239886282
 20
118.2009372712
 40
0.75
 50
270.0
 51
327.7575321609
  0
ARC
  8
0
 62
7
  6
CONTINUOUS
 10
125.05
 20
130.7772776124
 40
4.5
 50
156.8013189762
 51
180.0
  0
ARC
  8
0
 62
7
  6
CONTINUOUS
 10
122.05
 20
130.7772776124
 40
4.5
 50
0.0
 51
23.1986937387
  0
ARC
  8
0
 62
7
  6
CONTINUOUS
 10
137.75
 20
131.0759372712
 40
4.5
 50
151.9274403037
 51
180.0001370701
  0
ARC
  8
0
 62
7
  6
CONTINUOUS
 10
134.75
 20
131.0759372712
 40
4.5
 50
359.9998845812
 51
28.072567946
  0
ARC
  8
0
 62
7
  6
CONTINUOUS
 10
150.85
 20
130.8958042112
 40
4.5
 50
147.652485777
 51
180.0001514727
  0
ARC
  8
0
 62
7
  6
CONTINUOUS
 10
147.85
 20
131.5757423949
 40
4.5
 50
359.9998897107
 51
15.8192799685
  0
ARC
  8
0
 62
7
  6
CONTINUOUS
 10
122.5445471185
 20
134.4509372712
 40
0.75
 50
90.0
 51
156.8014094864
  0
ARC
  8
0
 62
7
  6
CONTINUOUS
 10
135.3
 20
134.4509372712
 40
0.75
 50
90.0
 51
151.9275130641
  0
ARC
  8
0
 62
7
  6
CONTINUOUS
 10
124.5554528815
 20
134.4509372712
 40
0.75
 50
23.1985905136
 51
90.0
  0
ARC
  8
0
 62
7
  6
CONTINUOUS
 10
137.200000021
 20
134.4509372319
 40
0.75
 50
28.0724903381
 51
90.0000016011
  0
ARC
  8
0
 62
7
  6
CONTINUOUS
 10
148.6627640227
 20
134.4509372357
 40
0.75
 50
89.9999982826
 51
147.6525532907
  0
ARC
  8
0
 62
7
  6
CONTINUOUS
 10
150.9329769086
 20
134.4509372712
 40
0.75
 50
15.8191939475
 51
90.0
  0
ARC
  8
0
 62
7
  6
CONTINUOUS
 10
167.8992456896
 20
116.9509372712
 40
0.75
 50
90.0
 51
180.0
  0
ARC
  8
0
 62
7
  6
CONTINUOUS
 10
171.1648618153
 20
98.0109271875
 40
3.0
 50
78.0515045953
 51
87.0226266914
  0
ARC
  8
0
 62
7
  6
CONTINUOUS
 10
171.5492456896
 20
105.4009372712
 40
4.4
 50
179.9998236789
 51
267.0224159862
  0
ARC
  8
0
 62
7
  6
CONTINUOUS
 10
173.5492456896
 20
105.4009372712
 40
2.55
 50
180.0
 51
270.0
  0
ARC
  8
0
 62
7
  6
CONTINUOUS
 10
173.5492456896
 20
114.0509372712
 40
2.55
 50
90.0
 51
180.0
  0
ARC
  8
0
 62
7
  6
CONTINUOUS
 10
171.1648618153
 20
138.1909473549
 40
3.0
 50
272.9773745964
 51
281.9484964067
  0
ARC
  8
0
 62
7
  6
CONTINUOUS
 10
171.5492456896
 20
130.8009372712
 40
4.4
 50
92.9775885695
 51
180.0
  0
ARC
  8
0
 62
7
  6
CONTINUOUS
 10
173.5492456896
 20
122.1509372712
 40
2.55
 50
180.0
 51
270.0
  0
ARC
  8
0
 62
7
  6
CONTINUOUS
 10
173.5492456896
 20
130.8009372712
 40
2.55
 50
90.0
 51
180.0
  0
ARC
  8
0
 62
7
  6
CONTINUOUS
 10
173.7492456896
 20
105.4009372712
 40
2.55
 50
270.0
 51
360.0
  0
ARC
  8
0
 62
7
  6
CONTINUOUS
 10
176.1336295638
 20
98.0109271875
 40
3.0
 50
92.9773739571
 51
101.9484964067
  0
ARC
  8
0
 62
7
  6
CONTINUOUS
 10
175.7492456896
 20
105.4009372712
 40
4.4
 50
272.9775835716
 51
0.0002542261
  0
ARC
  8
0
 62
7
  6
CONTINUOUS
 10
173.6492456896
 20
109.7509372712
 40
9.0
 50
258.0515308563
 51
281.9484688096
  0
ARC
  8
0
 62
7
  6
CONTINUOUS
 10
173.7492456896
 20
114.0509372712
 40
2.55
 50
0.0
 51
90.0
  0
ARC
  8
0
 62
7
  6
CONTINUOUS
 10
179.3992456896
 20
116.9509372712
 40
0.75
 50
0.0
 51
90.0
  0
ARC
  8
0
 62
7
  6
CONTINUOUS
 10
173.6492456896
 20
126.4509372712
 40
9.0
 50
78.0515356488
 51
101.9484639991
  0
ARC
  8
0
 62
7
  6
CONTINUOUS
 10
173.7492456896
 20
122.1509372712
 40
2.55
 50
270.0
 51
360.0
  0
ARC
  8
0
 62
7
  6
CONTINUOUS
 10
173.7492456896
 20
130.8009372712
 40
2.55
 50
0.0
 51
90.0
  0
ARC
  8
0
 62
7
  6
CONTINUOUS
 10
175.7492456896
 20
130.8009372712
 40
4.4
 50
359.9997937767
 51
87.0224104934
  0
ARC
  8
0
 62
7
  6
CONTINUOUS
 10
176.1336295638
 20
138.1909473549
 40
3.0
 50
258.0515045953
 51
267.0226260701
  0
ENDSEC
  0
EOF
