  0
SECTION
  2
HEADER
  9
$EXTMAX
 10
210.0
 20
297.0
 30
0.0
  9
$EXTMIN
 10
0.0
 20
0.0
 30
0.0
  9
$LIMMIN
 10
0.0
 20
0.0
  9
$LIMMAX
 10
210.0
 20
297.0
  9
$VIEWCTR
 10
105.0
 20
148.5
  9
$VIEWSIZE
 40
297.0
  9
$CLAYER
  8
0
  9
$LTSCALE
 40
19.36
  9
$CELTYPE
  6
BYLAYER
  9
$DIMSCALE
 40
1.0
  9
$DIMASZ
 40
3.5
  9
$DIMEXO
 40
2.2
  9
$DIMDLI
 40
13.376
  9
$DIMEXE
 40
6.336
  9
$DIMCEN
 40
3.168
  9
$DIMLFAC
 40
1.0
  9
$DIMBLK
  1
_FILLED
  9
$DIMTXT
 40
3.5
  9
$PDMODE
 70
3
  9
$PDSIZE
 40
0.3125
  9
$TILEMODE
 70
1
  0
ENDSEC
  0
SECTION
  2
TABLES
  0
TABLE
  2
LTYPE
 70
6
  0
LTYPE
  2
BYBLOCK
 70
0
  3

 72
65
 73
0
 40
0.0
  0
LTYPE
  2
BYLAYER
 70
0
  3

 72
65
 73
0
 40
0.0
  0
LTYPE
  2
CONTINUOUS
 70
64
  3
Solid line
 72
65
 73
0
 40
0.0
  0
LTYPE
  2
CENTER
 70
64
  3
____ _ ____ _ ____ _ ____ _ ____ _ ____ _ ____
 72
65
 73
4
 40
0.6
 49
0.375
 49
-0.075
 49
0.075
 49
-0.075
  0
LTYPE
  2
HIDDEN
 70
64
  3
- - - - - - - - - - - - - - - - - - - -
 72
65
 73
2
 40
0.2
 49
0.1
 49
-0.1
  0
LTYPE
  2
PHANTOM
 70
64
  3
_____ _ _ _____ _ _ _____ _ _ _____
 72
65
 73
6
 40
0.8
 49
0.45
 49
-0.05
 49
0.1
 49
-0.05
 49
0.1
 49
-0.05
  0
LTYPE
  2
DOT
 70
64
  3
. . . . . . . . . . . . . . . . . . . .
 72
65
 73
2
 40
0.2
 49
0.1
 49
-0.1
  0
LTYPE
  2
DASHED
 70
64
  3
- - - - - - - - - - - - - - - - - - - -
 72
65
 73
2
 40
0.2
 49
0.1
 49
-0.1
  0
ENDTAB
  0
TABLE
  2
LAYER
 70
36
  0
LAYER
  2
0
 70
0
 62
7
  6
CONTINUOUS
  0
LAYER
  2
DEFAULT_1
 70
0
 62
7
  6
CENTER
  0
LAYER
  2
DEFAULT_2
 70
0
 62
8
  6
HIDDEN
  0
LAYER
  2
DEFAULT_3
 70
0
 62
7
  6
PHANTOM
  0
LAYER
  2
NOTES
 70
0
 62
7
  6
CONTINUOUS
  0
ENDTAB
  0
TABLE
  2
STYLE
 70
1
  0
STYLE
  2
STANDARD
 70
0
 40
0.0
 41
0.8
 50
0.0
 71
0
 42
0.2
  3
txt
  4

  0
STYLE
  2
TEXTSTYLE_1
 70
0
 40
0.0
 41
0.8
 50
0.0
 71
0
 42
0.2
  3
gdt
  4

  0
STYLE
  2
TEXTSTYLE_2
 70
0
 40
0.0
 41
0.6
 50
0.0
 71
0
 42
0.2
  3
txt
  4

  0
STYLE
  2
TEXTSTYLE_3
 70
0
 40
0.0
 41
1.0
 50
0.0
 71
0
 42
0.2
  3
ftb_____.ttf
  4

  0
STYLE
  2
TEXTSTYLE_4
 70
0
 40
0.0
 41
1.0
 50
0.0
 71
0
 42
0.2
  3
fti_____.ttf
  4

  0
STYLE
  2
TEXTSTYLE_5
 70
0
 40
0.0
 41
0.8
 50
0.0
 71
0
 42
0.2
  3
txt
  4

  0
ENDTAB
  0
ENDSEC
  0
SECTION
  2
BLOCKS
  0
BLOCK
  8
0
 62
2
  6
CONTINUOUS
  2
SYMBOL_8_BL1
 70
64
 10
173.5956734183
 20
35.5937998301
  0
TEXT
  8
0
 62
7
  6
CONTINUOUS
 10
164.6539584268
 20
30.6865562072
  7
TEXTSTYLE_4
 40
1.0655737705
  1
The brand for plastic modular belts and chains
 41
1.0
 72
0
  0
LINE
  8
0
 62
7
  6
CONTINUOUS
 10
149.5737418074
 20
36.1675703219
 11
149.5737418074
 21
34.0364227809
  0
LINE
  8
0
 62
7
  6
CONTINUOUS
 10
149.8628043005
 20
31.0454914852
 11
149.8628043005
 21
31.1422825445
  0
LINE
  8
0
 62
7
  6
CONTINUOUS
 10
149.5737418074
 20
31.1100188581
 11
149.6315543091
 21
30.9164367395
  0
LINE
  8
0
 62
7
  6
CONTINUOUS
 10
150.9671844304
 20
33.9544555678
 11
150.9671844304
 21
36.1675703219
  0
LINE
  8
0
 62
7
  6
CONTINUOUS
 10
151.8862417523
 20
32.1101932727
 11
151.8862417523
 21
30.5937998301
  0
LINE
  8
0
 62
7
  6
CONTINUOUS
 10
152.1753043074
 20
30.5937998301
 11
152.1753043074
 21
31.3358647082
  0
LINE
  8
0
 62
7
  6
CONTINUOUS
 10
152.1753043074
 20
31.4649194539
 11
152.1753043074
 21
32.1101932727
  0
LINE
  8
0
 62
7
  6
CONTINUOUS
 10
149.6315543091
 20
31.3036010218
 11
149.5737418074
 21
31.1100188581
  0
LINE
  8
0
 62
7
  6
CONTINUOUS
 10
149.9784292936
 20
30.8841730531
 11
149.8628043005
 21
31.0454914852
  0
LINE
  8
0
 62
7
  6
CONTINUOUS
 10
151.0768668626
 20
31.400392081
 11
151.1346793074
 21
31.3036010218
  0
LINE
  8
0
 62
7
  6
CONTINUOUS
 10
151.4237418626
 20
31.3036010218
 11
151.3659292523
 21
31.4326557675
  0
LINE
  8
0
 62
7
  6
CONTINUOUS
 10
152.852430332
 20
36.1675703219
 11
152.852430332
 21
34.3642916334
  0
LINE
  8
0
 62
7
  6
CONTINUOUS
 10
152.852430332
 20
33.0528162235
 11
152.852430332
 21
32.3970785186
  0
LINE
  8
0
 62
7
  6
CONTINUOUS
 10
153.2159293074
 20
31.2390736489
 11
153.2159293074
 21
30.5937998301
  0
LINE
  8
0
 62
7
  6
CONTINUOUS
 10
153.5049916972
 20
30.5937998301
 11
153.5049916972
 21
31.2390736489
  0
LINE
  8
0
 62
7
  6
CONTINUOUS
 10
149.8628043005
 20
31.1422825445
 11
149.9206168074
 21
31.2713373354
  0
LINE
  8
0
 62
7
  6
CONTINUOUS
 10
149.6315543091
 20
30.9164367395
 11
149.7471793074
 21
30.7873819712
  0
LINE
  8
0
 62
7
  6
CONTINUOUS
 10
153.1581166972
 20
31.3681283946
 11
153.2159293074
 21
31.2390736489
  0
LINE
  8
0
 62
7
  6
CONTINUOUS
 10
153.9674919177
 20
30.8841730531
 11
154.0253041972
 21
30.7551182848
  0
LINE
  8
0
 62
7
  6
CONTINUOUS
 10
153.5049916972
 20
31.2390736489
 11
153.4471794177
 21
31.400392081
  0
LINE
  8
0
 62
7
  6
CONTINUOUS
 10
153.9674919177
 20
31.4326557675
 11
153.9674919177
 21
31.3681283946
  0
LINE
  8
0
 62
7
  6
CONTINUOUS
 10
153.9674919177
 20
30.9809641124
 11
153.9674919177
 21
30.8841730531
  0
LINE
  8
0
 62
7
  6
CONTINUOUS
 10
154.245872955
 20
32.3970785186
 11
154.245872955
 21
36.1675703219
  0
LINE
  8
0
 62
7
  6
CONTINUOUS
 10
154.2565543074
 20
30.8519093441
 11
154.2565543074
 21
30.9164367395
  0
LINE
  8
0
 62
7
  6
CONTINUOUS
 10
154.5737418074
 20
36.1675703219
 11
154.5737418074
 21
32.3970785186
  0
LINE
  8
0
 62
7
  6
CONTINUOUS
 10
151.3659292523
 20
30.7873819712
 11
151.4237418626
 21
30.9164367395
  0
LINE
  8
0
 62
7
  6
CONTINUOUS
 10
155.759679528
 20
30.6905909007
 11
155.7018665869
 21
30.8519093441
  0
LINE
  8
0
 62
7
  6
CONTINUOUS
 10
155.412804528
 20
31.3681283946
 11
155.412804528
 21
31.2713373354
  0
LINE
  8
0
 62
7
  6
CONTINUOUS
 10
155.412804528
 20
31.1422825445
 11
155.412804528
 21
30.9487004259
  0
LINE
  8
0
 62
7
  6
CONTINUOUS
 10
155.7018665869
 20
30.8519093441
 11
155.7018665869
 21
31.3681283946
  0
LINE
  8
0
 62
7
  6
CONTINUOUS
 10
155.9671844304
 20
32.3970785186
 11
155.9671844304
 21
34.2003572071
  0
LINE
  8
0
 62
7
  6
CONTINUOUS
 10
155.9671844304
 20
35.511832617
 11
155.9671844304
 21
36.1675703219
  0
LINE
  8
0
 62
7
  6
CONTINUOUS
 10
156.279992028
 20
32.1101932727
 11
156.279992028
 21
31.9488748406
  0
LINE
  8
0
 62
7
  6
CONTINUOUS
 10
156.279992028
 20
31.626237886
 11
156.279992028
 21
30.5937998301
  0
LINE
  8
0
 62
7
  6
CONTINUOUS
 10
156.5690540869
 20
30.5937998301
 11
156.5690540869
 21
31.626237886
  0
LINE
  8
0
 62
7
  6
CONTINUOUS
 10
156.5690540869
 20
31.9488748406
 11
156.5690540869
 21
32.1101932727
  0
LINE
  8
0
 62
7
  6
CONTINUOUS
 10
151.1346793074
 20
30.9164367395
 11
151.0768668626
 21
30.8196456577
  0
LINE
  8
0
 62
7
  6
CONTINUOUS
 10
153.4471794177
 20
31.400392081
 11
153.3893668074
 21
31.4649194539
  0
LINE
  8
0
 62
7
  6
CONTINUOUS
 10
154.3143669177
 20
30.7873819712
 11
154.2565543074
 21
30.8519093441
  0
LINE
  8
0
 62
7
  6
CONTINUOUS
 10
155.4706168074
 20
30.6583272086
 11
155.5284290869
 21
30.5937998301
  0
LINE
  8
0
 62
7
  6
CONTINUOUS
 10
155.412804528
 20
30.7551182848
 11
155.4706168074
 21
30.6583272086
  0
LINE
  8
0
 62
7
  6
CONTINUOUS
 10
155.8174918074
 20
30.5937998301
 11
155.759679528
 21
30.6905909007
  0
LINE
  8
0
 62
7
  6
CONTINUOUS
 10
155.7018665869
 20
31.3681283946
 11
155.6440543074
 21
31.4649194539
  0
LINE
  8
0
 62
7
  6
CONTINUOUS
 10
157.0315543074
 20
31.626237886
 11
157.0315543074
 21
30.5937998301
  0
LINE
  8
0
 62
7
  6
CONTINUOUS
 10
157.320617028
 20
30.5937998301
 11
157.320617028
 21
31.3358647082
  0
LINE
  8
0
 62
7
  6
CONTINUOUS
 10
157.320617028
 20
31.4649194539
 11
157.320617028
 21
31.626237886
  0
LINE
  8
0
 62
7
  6
CONTINUOUS
 10
157.852430332
 20
34.6101932727
 11
157.852430332
 21
32.3970785186
  0
LINE
  8
0
 62
7
  6
CONTINUOUS
 10
149.7471793074
 20
31.4326557675
 11
149.6315543091
 21
31.3036010218
  0
LINE
  8
0
 62
7
  6
CONTINUOUS
 10
149.9206168074
 20
31.2713373354
 11
149.9784292936
 21
31.3358647082
  0
LINE
  8
0
 62
7
  6
CONTINUOUS
 10
149.7471793074
 20
30.7873819712
 11
149.8628043005
 21
30.7228545871
  0
LINE
  8
0
 62
7
  6
CONTINUOUS
 10
150.1518667936
 20
30.7873819712
 11
149.9784292936
 21
30.8841730531
  0
LINE
  8
0
 62
7
  6
CONTINUOUS
 10
155.3549915869
 20
31.4326557675
 11
155.412804528
 21
31.3681283946
  0
LINE
  8
0
 62
7
  6
CONTINUOUS
 10
158.3034290869
 20
31.3681283946
 11
158.361242028
 21
31.2068099625
  0
LINE
  8
0
 62
7
  6
CONTINUOUS
 10
158.6503040869
 20
31.2068099625
 11
158.5924918074
 21
31.3681283946
  0
LINE
  8
0
 62
7
  6
CONTINUOUS
 10
158.361242028
 20
31.2068099625
 11
158.361242028
 21
30.5937998301
  0
LINE
  8
0
 62
7
  6
CONTINUOUS
 10
158.6503040869
 20
30.5937998301
 11
158.6503040869
 21
31.2068099625
  0
LINE
  8
0
 62
7
  6
CONTINUOUS
 10
159.1128043074
 20
31.4326557675
 11
159.1128043074
 21
31.3681283946
  0
LINE
  8
0
 62
7
  6
CONTINUOUS
 10
159.245872955
 20
32.3970785186
 11
159.245872955
 21
34.5282260596
  0
LINE
  8
0
 62
7
  6
CONTINUOUS
 10
159.5737418074
 20
36.1675703219
 11
159.5737418074
 21
32.3970785186
  0
LINE
  8
0
 62
7
  6
CONTINUOUS
 10
154.2565543074
 20
30.9164367395
 11
154.3143669177
 21
31.0132277988
  0
LINE
  8
0
 62
7
  6
CONTINUOUS
 10
149.8628043005
 20
30.7228545871
 11
150.0362418212
 21
30.6583272086
  0
LINE
  8
0
 62
7
  6
CONTINUOUS
 10
151.3659292523
 20
31.4326557675
 11
151.1924917523
 21
31.5294468267
  0
LINE
  8
0
 62
7
  6
CONTINUOUS
 10
154.0253041972
 20
30.7551182848
 11
154.1987416972
 21
30.6583272086
  0
LINE
  8
0
 62
7
  6
CONTINUOUS
 10
153.0424918074
 20
31.4326557675
 11
153.1581166972
 21
31.3681283946
  0
LINE
  8
0
 62
7
  6
CONTINUOUS
 10
153.3893668074
 20
31.4649194539
 11
153.2737419177
 21
31.5294468267
  0
LINE
  8
0
 62
7
  6
CONTINUOUS
 10
159.1128043074
 20
30.8519093441
 11
159.228429528
 21
30.7228545871
  0
LINE
  8
0
 62
7
  6
CONTINUOUS
 10
159.4596793074
 20
30.7873819712
 11
159.401867028
 21
30.8519093441
  0
LINE
  8
0
 62
7
  6
CONTINUOUS
 10
159.1128043074
 20
31.3681283946
 11
159.228429528
 21
31.2390736489
  0
LINE
  8
0
 62
7
  6
CONTINUOUS
 10
158.5924918074
 20
31.3681283946
 11
158.534679528
 21
31.4649194539
  0
LINE
  8
0
 62
7
  6
CONTINUOUS
 10
160.9628038663
 20
30.7873819712
 11
160.9628038663
 21
30.8519093441
  0
LINE
  8
0
 62
7
  6
CONTINUOUS
 10
160.9671844304
 20
32.3970785186
 11
160.9671844304
 21
36.1675703219
  0
LINE
  8
0
 62
7
  6
CONTINUOUS
 10
154.0253041972
 20
31.4971831403
 11
153.9674919177
 21
31.4326557675
  0
LINE
  8
0
 62
7
  6
CONTINUOUS
 10
150.9034292799
 20
31.4649194539
 11
151.0768668626
 21
31.400392081
  0
LINE
  8
0
 62
7
  6
CONTINUOUS
 10
155.6440543074
 20
31.4649194539
 11
155.5284290869
 21
31.5294468267
  0
LINE
  8
0
 62
7
  6
CONTINUOUS
 10
159.4596793074
 20
31.3036010218
 11
159.401867028
 21
31.3681283946
  0
LINE
  8
0
 62
7
  6
CONTINUOUS
 10
160.615929528
 20
30.9164367395
 11
160.6737418074
 21
30.8519093441
  0
LINE
  8
0
 62
7
  6
CONTINUOUS
 10
160.9628038663
 20
30.8519093441
 11
160.8471793074
 21
30.9809641124
  0
LINE
  8
0
 62
7
  6
CONTINUOUS
 10
160.615929528
 20
31.4326557675
 11
160.6737418074
 21
31.3681283946
  0
LINE
  8
0
 62
7
  6
CONTINUOUS
 10
160.9628038663
 20
31.3681283946
 11
160.8471793074
 21
31.4971831403
  0
LINE
  8
0
 62
7
  6
CONTINUOUS
 10
154.2565543074
 20
31.3681283946
 11
154.3143669177
 21
31.4326557675
  0
LINE
  8
0
 62
7
  6
CONTINUOUS
 10
154.0831168074
 20
31.1100188581
 11
153.9674919177
 21
30.9809641124
  0
LINE
  8
0
 62
7
  6
CONTINUOUS
 10
155.412804528
 20
30.9487004259
 11
155.3549915869
 21
30.8841730531
  0
LINE
  8
0
 62
7
  6
CONTINUOUS
 10
155.3549915869
 20
30.6905909007
 11
155.412804528
 21
30.7551182848
  0
LINE
  8
0
 62
7
  6
CONTINUOUS
 10
154.1987416972
 20
30.6583272086
 11
154.3143669177
 21
30.6260635193
  0
LINE
  8
0
 62
7
  6
CONTINUOUS
 10
151.1924917523
 20
31.5294468267
 11
150.9612418074
 21
31.5939741996
  0
LINE
  8
0
 62
7
  6
CONTINUOUS
 10
154.5456166972
 20
30.7228545871
 11
154.3143669177
 21
30.7873819712
  0
LINE
  8
0
 62
7
  6
CONTINUOUS
 10
153.2737419177
 20
31.5294468267
 11
153.1003044177
 21
31.5939741996
  0
LINE
  8
0
 62
7
  6
CONTINUOUS
 10
155.5284290869
 20
31.5294468267
 11
155.3549915869
 21
31.5939741996
  0
LINE
  8
0
 62
7
  6
CONTINUOUS
 10
158.187804528
 20
31.4326557675
 11
158.3034290869
 21
31.3681283946
  0
LINE
  8
0
 62
7
  6
CONTINUOUS
 10
158.534679528
 20
31.4649194539
 11
158.4190543074
 21
31.5294468267
  0
LINE
  8
0
 62
7
  6
CONTINUOUS
 10
150.0362418212
 20
30.6583272086
 11
150.2096793212
 21
30.6260635193
  0
LINE
  8
0
 62
7
  6
CONTINUOUS
 10
150.498741835
 20
30.7228545871
 11
150.1518667936
 21
30.7873819712
  0
LINE
  8
0
 62
7
  6
CONTINUOUS
 10
152.9268669177
 20
31.4649194539
 11
153.0424918074
 21
31.4326557675
  0
LINE
  8
0
 62
7
  6
CONTINUOUS
 10
155.239367028
 20
31.4649194539
 11
155.3549915869
 21
31.4326557675
  0
LINE
  8
0
 62
7
  6
CONTINUOUS
 10
159.575304528
 20
30.7551182848
 11
159.4596793074
 21
30.7873819712
  0
LINE
  8
0
 62
7
  6
CONTINUOUS
 10
158.0721793074
 20
31.4649194539
 11
158.187804528
 21
31.4326557675
  0
LINE
  8
0
 62
7
  6
CONTINUOUS
 10
159.228429528
 20
30.7228545871
 11
159.401867028
 21
30.6583272086
  0
LINE
  8
0
 62
7
  6
CONTINUOUS
 10
158.4190543074
 20
31.5294468267
 11
158.2456168074
 21
31.5939741996
  0
LINE
  8
0
 62
7
  6
CONTINUOUS
 10
159.6331168074
 20
31.2390736489
 11
159.4596793074
 21
31.3036010218
  0
LINE
  8
0
 62
7
  6
CONTINUOUS
 10
160.442492028
 20
30.9809641124
 11
160.615929528
 21
30.9164367395
  0
LINE
  8
0
 62
7
  6
CONTINUOUS
 10
160.8471793074
 20
31.4971831403
 11
160.6737418074
 21
31.5617105132
  0
LINE
  8
0
 62
7
  6
CONTINUOUS
 10
159.228429528
 20
31.2390736489
 11
159.4596793074
 21
31.1422825445
  0
LINE
  8
0
 62
7
  6
CONTINUOUS
 10
160.8471793074
 20
30.9809641124
 11
160.615929528
 21
31.0777551716
  0
LINE
  8
0
 62
7
  6
CONTINUOUS
 10
159.401867028
 20
31.3681283946
 11
159.4596793074
 21
31.4326557675
  0
LINE
  8
0
 62
7
  6
CONTINUOUS
 10
149.8628043005
 20
31.4971831403
 11
149.7471793074
 21
31.4326557675
  0
LINE
  8
0
 62
7
  6
CONTINUOUS
 10
149.9784292936
 20
31.3358647082
 11
150.1518667936
 21
31.4326557675
  0
LINE
  8
0
 62
7
  6
CONTINUOUS
 10
152.2909293626
 20
31.5294468267
 11
152.1753043074
 21
31.4649194539
  0
LINE
  8
0
 62
7
  6
CONTINUOUS
 10
152.1753043074
 20
31.3358647082
 11
152.2909293626
 21
31.400392081
  0
LINE
  8
0
 62
7
  6
CONTINUOUS
 10
151.1924917523
 20
30.6905909007
 11
151.3659292523
 21
30.7873819712
  0
LINE
  8
0
 62
7
  6
CONTINUOUS
 10
150.2096793212
 20
30.6260635193
 11
150.5565542799
 21
30.5937998301
  0
LINE
  8
0
 62
7
  6
CONTINUOUS
 10
154.3143669177
 20
30.6260635193
 11
154.5456166972
 21
30.5937998301
  0
LINE
  8
0
 62
7
  6
CONTINUOUS
 10
152.6956168074
 20
31.4971831403
 11
152.9268669177
 21
31.4649194539
  0
LINE
  8
0
 62
7
  6
CONTINUOUS
 10
155.0081169177
 20
31.4971831403
 11
155.239367028
 21
31.4649194539
  0
LINE
  8
0
 62
7
  6
CONTINUOUS
 10
159.4596793074
 20
31.1422825445
 11
160.442492028
 21
30.9809641124
  0
LINE
  8
0
 62
7
  6
CONTINUOUS
 10
160.615929528
 20
31.0777551716
 11
159.6331168074
 21
31.2390736489
  0
LINE
  8
0
 62
7
  6
CONTINUOUS
 10
153.1003044177
 20
31.5939741996
 11
152.9268669177
 21
31.626237886
  0
LINE
  8
0
 62
7
  6
CONTINUOUS
 10
159.401867028
 20
30.6583272086
 11
159.575304528
 21
30.6260635193
  0
LINE
  8
0
 62
7
  6
CONTINUOUS
 10
158.2456168074
 20
31.5939741996
 11
158.0721793074
 21
31.626237886
  0
LINE
  8
0
 62
7
  6
CONTINUOUS
 10
160.5003043074
 20
31.4649194539
 11
160.615929528
 21
31.4326557675
  0
LINE
  8
0
 62
7
  6
CONTINUOUS
 10
160.6737418074
 20
30.8519093441
 11
160.615929528
 21
30.7873819712
  0
LINE
  8
0
 62
7
  6
CONTINUOUS
 10
159.228429528
 20
31.5294468267
 11
159.1128043074
 21
31.4326557675
  0
LINE
  8
0
 62
7
  6
CONTINUOUS
 10
154.1409294177
 20
31.5617105132
 11
154.0253041972
 21
31.4971831403
  0
LINE
  8
0
 62
7
  6
CONTINUOUS
 10
154.1987416972
 20
31.1745462761
 11
154.0831168074
 21
31.1100188581
  0
LINE
  8
0
 62
7
  6
CONTINUOUS
 10
154.3143669177
 20
31.0132277988
 11
154.4299918074
 21
31.0777551716
  0
LINE
  8
0
 62
7
  6
CONTINUOUS
 10
151.8862417523
 20
30.5937998301
 11
152.1753043074
 21
30.5937998301
  0
LINE
  8
0
 62
7
  6
CONTINUOUS
 10
153.2159293074
 20
30.5937998301
 11
153.5049916972
 21
30.5937998301
  0
LINE
  8
0
 62
7
  6
CONTINUOUS
 10
154.5456166972
 20
30.5937998301
 11
154.8924916972
 21
30.5937998301
  0
LINE
  8
0
 62
7
  6
CONTINUOUS
 10
155.5284290869
 20
30.5937998301
 11
155.8174918074
 21
30.5937998301
  0
LINE
  8
0
 62
7
  6
CONTINUOUS
 10
156.279992028
 20
30.5937998301
 11
156.5690540869
 21
30.5937998301
  0
LINE
  8
0
 62
7
  6
CONTINUOUS
 10
157.0315543074
 20
30.5937998301
 11
157.320617028
 21
30.5937998301
  0
LINE
  8
0
 62
7
  6
CONTINUOUS
 10
158.361242028
 20
30.5937998301
 11
158.6503040869
 21
30.5937998301
  0
LINE
  8
0
 62
7
  6
CONTINUOUS
 10
159.922179528
 20
30.5937998301
 11
160.269054528
 21
30.5937998301
  0
LINE
  8
0
 62
7
  6
CONTINUOUS
 10
160.269054528
 20
30.7228545871
 11
159.922179528
 21
30.7228545871
  0
LINE
  8
0
 62
7
  6
CONTINUOUS
 10
154.8924916972
 20
30.7228545871
 11
154.5456166972
 21
30.7228545871
  0
LINE
  8
0
 62
7
  6
CONTINUOUS
 10
159.401867028
 20
30.8519093441
 11
159.1128043074
 21
30.8519093441
  0
LINE
  8
0
 62
7
  6
CONTINUOUS
 10
151.4237418626
 20
30.9164367395
 11
151.1346793074
 21
30.9164367395
  0
LINE
  8
0
 62
7
  6
CONTINUOUS
 10
150.498741835
 20
31.4971831403
 11
150.9034292799
 21
31.4649194539
  0
LINE
  8
0
 62
7
  6
CONTINUOUS
 10
150.9612418074
 20
31.5939741996
 11
150.5565542799
 21
31.626237886
  0
LINE
  8
0
 62
7
  6
CONTINUOUS
 10
159.575304528
 20
30.6260635193
 11
159.922179528
 21
30.5937998301
  0
LINE
  8
0
 62
7
  6
CONTINUOUS
 10
159.922179528
 20
30.7228545871
 11
159.575304528
 21
30.7551182848
  0
LINE
  8
0
 62
7
  6
CONTINUOUS
 10
155.3549915869
 20
31.5939741996
 11
155.0081169177
 21
31.626237886
  0
LINE
  8
0
 62
7
  6
CONTINUOUS
 10
160.1534293074
 20
31.4971831403
 11
160.5003043074
 21
31.4649194539
  0
LINE
  8
0
 62
7
  6
CONTINUOUS
 10
160.5003043074
 20
31.5939741996
 11
160.1534293074
 21
31.626237886
  0
LINE
  8
0
 62
7
  6
CONTINUOUS
 10
157.840929528
 20
31.4971831403
 11
158.0721793074
 21
31.4649194539
  0
LINE
  8
0
 62
7
  6
CONTINUOUS
 10
160.6737418074
 20
31.5617105132
 11
160.5003043074
 21
31.5939741996
  0
LINE
  8
0
 62
7
  6
CONTINUOUS
 10
160.8471793074
 20
30.6905909007
 11
160.9628038663
 21
30.7873819712
  0
LINE
  8
0
 62
7
  6
CONTINUOUS
 10
155.3549915869
 20
30.8841730531
 11
155.1815540869
 21
30.7873819712
  0
LINE
  8
0
 62
7
  6
CONTINUOUS
 10
157.4362415869
 20
31.5294468267
 11
157.320617028
 21
31.4649194539
  0
LINE
  8
0
 62
7
  6
CONTINUOUS
 10
157.320617028
 20
31.3358647082
 11
157.4362415869
 21
31.400392081
  0
LINE
  8
0
 62
7
  6
CONTINUOUS
 10
150.0362418212
 20
31.5617105132
 11
149.8628043005
 21
31.4971831403
  0
LINE
  8
0
 62
7
  6
CONTINUOUS
 10
152.4643666972
 20
31.5939741996
 11
152.2909293626
 21
31.5294468267
  0
LINE
  8
0
 62
7
  6
CONTINUOUS
 10
152.2909293626
 20
31.400392081
 11
152.4643666972
 21
31.4649194539
  0
LINE
  8
0
 62
7
  6
CONTINUOUS
 10
151.0768668626
 20
30.8196456577
 11
150.9034292799
 21
30.7551182848
  0
LINE
  8
0
 62
7
  6
CONTINUOUS
 10
160.5003043074
 20
30.7551182848
 11
160.269054528
 21
30.7228545871
  0
LINE
  8
0
 62
7
  6
CONTINUOUS
 10
154.8924916972
 20
30.5937998301
 11
155.1815540869
 21
30.6260635193
  0
LINE
  8
0
 62
7
  6
CONTINUOUS
 10
160.269054528
 20
30.5937998301
 11
160.615929528
 21
30.6260635193
  0
LINE
  8
0
 62
7
  6
CONTINUOUS
 10
150.5565542799
 20
30.5937998301
 11
150.9612418074
 21
30.6260635193
  0
LINE
  8
0
 62
7
  6
CONTINUOUS
 10
150.9034292799
 20
30.7551182848
 11
150.498741835
 21
30.7228545871
  0
LINE
  8
0
 62
7
  6
CONTINUOUS
 10
154.7768668074
 20
31.1422825445
 11
155.412804528
 21
31.1422825445
  0
LINE
  8
0
 62
7
  6
CONTINUOUS
 10
155.412804528
 20
31.2713373354
 11
154.7768668074
 21
31.2713373354
  0
LINE
  8
0
 62
7
  6
CONTINUOUS
 10
151.1346793074
 20
31.3036010218
 11
151.4237418626
 21
31.3036010218
  0
LINE
  8
0
 62
7
  6
CONTINUOUS
 10
153.9674919177
 20
31.3681283946
 11
154.2565543074
 21
31.3681283946
  0
LINE
  8
0
 62
7
  6
CONTINUOUS
 10
160.6737418074
 20
31.3681283946
 11
160.9628038663
 21
31.3681283946
  0
LINE
  8
0
 62
7
  6
CONTINUOUS
 10
154.6612419177
 20
31.4971831403
 11
155.0081169177
 21
31.4971831403
  0
LINE
  8
0
 62
7
  6
CONTINUOUS
 10
159.8065543074
 20
31.4971831403
 11
160.1534293074
 21
31.4971831403
  0
LINE
  8
0
 62
7
  6
CONTINUOUS
 10
160.1534293074
 20
31.626237886
 11
159.8065543074
 21
31.626237886
  0
LINE
  8
0
 62
7
  6
CONTINUOUS
 10
158.0721793074
 20
31.626237886
 11
157.840929528
 21
31.626237886
  0
LINE
  8
0
 62
7
  6
CONTINUOUS
 10
157.320617028
 20
31.626237886
 11
157.0315543074
 21
31.626237886
  0
LINE
  8
0
 62
7
  6
CONTINUOUS
 10
156.5690540869
 20
31.626237886
 11
156.279992028
 21
31.626237886
  0
LINE
  8
0
 62
7
  6
CONTINUOUS
 10
155.0081169177
 20
31.626237886
 11
154.6612419177
 21
31.626237886
  0
LINE
  8
0
 62
7
  6
CONTINUOUS
 10
152.9268669177
 20
31.626237886
 11
152.6956168074
 21
31.626237886
  0
LINE
  8
0
 62
7
  6
CONTINUOUS
 10
156.279992028
 20
31.9488748406
 11
156.5690540869
 21
31.9488748406
  0
LINE
  8
0
 62
7
  6
CONTINUOUS
 10
156.5690540869
 20
32.1101932727
 11
156.279992028
 21
32.1101932727
  0
LINE
  8
0
 62
7
  6
CONTINUOUS
 10
152.1753043074
 20
32.1101932727
 11
151.8862417523
 21
32.1101932727
  0
LINE
  8
0
 62
7
  6
CONTINUOUS
 10
151.2130860697
 20
32.3970785186
 11
151.6256574183
 21
32.3970785186
  0
LINE
  8
0
 62
7
  6
CONTINUOUS
 10
152.852430332
 20
32.3970785186
 11
154.245872955
 21
32.3970785186
  0
LINE
  8
0
 62
7
  6
CONTINUOUS
 10
154.5737418074
 20
32.3970785186
 11
155.9671844304
 21
32.3970785186
  0
LINE
  8
0
 62
7
  6
CONTINUOUS
 10
157.852430332
 20
32.3970785186
 11
159.245872955
 21
32.3970785186
  0
LINE
  8
0
 62
7
  6
CONTINUOUS
 10
159.5737418074
 20
32.3970785186
 11
160.9671844304
 21
32.3970785186
  0
LINE
  8
0
 62
7
  6
CONTINUOUS
 10
157.6096790869
 20
31.5939741996
 11
157.4362415869
 21
31.5294468267
  0
LINE
  8
0
 62
7
  6
CONTINUOUS
 10
155.1815540869
 20
30.6260635193
 11
155.3549915869
 21
30.6905909007
  0
LINE
  8
0
 62
7
  6
CONTINUOUS
 10
160.615929528
 20
30.6260635193
 11
160.8471793074
 21
30.6905909007
  0
LINE
  8
0
 62
7
  6
CONTINUOUS
 10
160.615929528
 20
30.7873819712
 11
160.5003043074
 21
30.7551182848
  0
LINE
  8
0
 62
7
  6
CONTINUOUS
 10
159.575304528
 20
31.4649194539
 11
159.8065543074
 21
31.4971831403
  0
LINE
  8
0
 62
7
  6
CONTINUOUS
 10
157.6096790869
 20
31.4649194539
 11
157.840929528
 21
31.4971831403
  0
LINE
  8
0
 62
7
  6
CONTINUOUS
 10
154.5456166972
 20
31.1100188581
 11
154.7768668074
 21
31.1422825445
  0
LINE
  8
0
 62
7
  6
CONTINUOUS
 10
157.840929528
 20
31.626237886
 11
157.6096790869
 21
31.5939741996
  0
LINE
  8
0
 62
7
  6
CONTINUOUS
 10
154.4299918074
 20
31.4649194539
 11
154.6612419177
 21
31.4971831403
  0
LINE
  8
0
 62
7
  6
CONTINUOUS
 10
159.8065543074
 20
31.626237886
 11
159.4596793074
 21
31.5939741996
  0
LINE
  8
0
 62
7
  6
CONTINUOUS
 10
154.7768668074
 20
31.2713373354
 11
154.4299918074
 21
31.2390736489
  0
LINE
  8
0
 62
7
  6
CONTINUOUS
 10
150.5565542799
 20
31.626237886
 11
150.2096793212
 21
31.5939741996
  0
LINE
  8
0
 62
7
  6
CONTINUOUS
 10
154.6612419177
 20
31.626237886
 11
154.2565543074
 21
31.5939741996
  0
LINE
  8
0
 62
7
  6
CONTINUOUS
 10
152.0327582009
 20
33.5446195022
 11
151.3770204959
 21
33.5446195022
  0
LINE
  8
0
 62
7
  6
CONTINUOUS
 10
157.4362415869
 20
31.400392081
 11
157.6096790869
 21
31.4649194539
  0
LINE
  8
0
 62
7
  6
CONTINUOUS
 10
159.4596793074
 20
31.4326557675
 11
159.575304528
 21
31.4649194539
  0
LINE
  8
0
 62
7
  6
CONTINUOUS
 10
159.4596793074
 20
31.5939741996
 11
159.228429528
 21
31.5294468267
  0
LINE
  8
0
 62
7
  6
CONTINUOUS
 10
155.1815540869
 20
30.7873819712
 11
154.8924916972
 21
30.7228545871
  0
LINE
  8
0
 62
7
  6
CONTINUOUS
 10
152.4643666972
 20
31.4649194539
 11
152.6956168074
 21
31.4971831403
  0
LINE
  8
0
 62
7
  6
CONTINUOUS
 10
152.6956168074
 20
31.626237886
 11
152.4643666972
 21
31.5939741996
  0
LINE
  8
0
 62
7
  6
CONTINUOUS
 10
150.2674918074
 20
31.4649194539
 11
150.498741835
 21
31.4971831403
  0
LINE
  8
0
 62
7
  6
CONTINUOUS
 10
156.7868565615
 20
35.0200293383
 11
157.4425942664
 21
35.0200293383
  0
LINE
  8
0
 62
7
  6
CONTINUOUS
 10
154.4299918074
 20
31.0777551716
 11
154.5456166972
 21
31.1100188581
  0
LINE
  8
0
 62
7
  6
CONTINUOUS
 10
154.4299918074
 20
31.2390736489
 11
154.1987416972
 21
31.1745462761
  0
LINE
  8
0
 62
7
  6
CONTINUOUS
 10
154.3143669177
 20
31.4326557675
 11
154.4299918074
 21
31.4649194539
  0
LINE
  8
0
 62
7
  6
CONTINUOUS
 10
150.9612418074
 20
30.6260635193
 11
151.1924917523
 21
30.6905909007
  0
LINE
  8
0
 62
7
  6
CONTINUOUS
 10
154.2565543074
 20
31.5939741996
 11
154.1409294177
 21
31.5617105132
  0
LINE
  8
0
 62
7
  6
CONTINUOUS
 10
150.2096793212
 20
31.5939741996
 11
150.0362418212
 21
31.5617105132
  0
LINE
  8
0
 62
7
  6
CONTINUOUS
 10
160.9671844304
 20
36.1675703219
 11
159.5737418074
 21
36.1675703219
  0
LINE
  8
0
 62
7
  6
CONTINUOUS
 10
157.6065286927
 20
36.1675703219
 11
157.1939573441
 21
36.1675703219
  0
LINE
  8
0
 62
7
  6
CONTINUOUS
 10
155.9671844304
 20
36.1675703219
 11
154.5737418074
 21
36.1675703219
  0
LINE
  8
0
 62
7
  6
CONTINUOUS
 10
154.245872955
 20
36.1675703219
 11
152.852430332
 21
36.1675703219
  0
LINE
  8
0
 62
7
  6
CONTINUOUS
 10
150.9671844304
 20
36.1675703219
 11
149.5737418074
 21
36.1675703219
  0
LINE
  8
0
 62
7
  6
CONTINUOUS
 10
150.1518667936
 20
31.4326557675
 11
150.2674918074
 21
31.4649194539
  0
CIRCLE
  8
0
 62
7
  6
CONTINUOUS
 10
160.2704631189
 20
38.5036358957
 40
2.0901639344
  0
ARC
  8
0
 62
7
  6
CONTINUOUS
 10
151.2130860697
 20
34.0364227809
 40
1.6393442623
 50
180.0
 51
270.0
  0
ARC
  8
0
 62
7
  6
CONTINUOUS
 10
157.6065286927
 20
34.5282260596
 40
1.6393442623
 50
0.0
 51
90.0
  0
ARC
  8
0
 62
7
  6
CONTINUOUS
 10
151.6256574183
 20
33.8724883547
 40
1.4754098361
 50
270.0
 51
326.2510114041
  0
ARC
  8
0
 62
7
  6
CONTINUOUS
 10
157.1939573441
 20
34.6921604858
 40
1.4754098361
 50
90.0
 51
146.2510114041
  0
ARC
  8
0
 62
7
  6
CONTINUOUS
 10
152.0327582009
 20
34.3642916334
 40
0.8196721311
 50
270.0
 51
360.0
  0
ARC
  8
0
 62
7
  6
CONTINUOUS
 10
156.7868565615
 20
34.2003572071
 40
0.8196721311
 50
90.0
 51
180.0
  0
ARC
  8
0
 62
7
  6
CONTINUOUS
 10
151.3770204959
 20
33.9544555678
 40
0.4098360656
 50
180.0
 51
270.0
  0
ARC
  8
0
 62
7
  6
CONTINUOUS
 10
157.4425942664
 20
34.6101932727
 40
0.4098360656
 50
0.0
 51
90.0
  0
SOLID
  8
0
 62
7
  6
CONTINUOUS
 10
156.279992028
 20
31.9488752009
 11
156.279992028
 21
32.1101936845
 12
156.5690540869
 22
31.9488752009
 13
156.5690540869
 23
32.1101936845
  0
SOLID
  8
0
 62
7
  6
CONTINUOUS
 10
150.5565542799
 20
31.6262382337
 11
150.9612418074
 21
31.5939740028
 12
150.2096793212
 22
31.5939740028
 13
150.2096793212
 23
31.5939740028
  0
SOLID
  8
0
 62
7
  6
CONTINUOUS
 10
150.0362418212
 20
31.5617111435
 11
150.2096793212
 21
31.5939740028
 12
150.9612418074
 22
31.5939740028
 13
150.9612418074
 23
31.5939740028
  0
SOLID
  8
0
 62
7
  6
CONTINUOUS
 10
150.9612418074
 20
31.5939740028
 11
151.1924917523
 21
31.5294468402
 12
150.0362418212
 22
31.5617111435
 13
150.0362418212
 23
31.5617111435
  0
SOLID
  8
0
 62
7
  6
CONTINUOUS
 10
149.8628043005
 20
31.49718259
 11
150.0362418212
 21
31.5617111435
 12
151.1924917523
 22
31.5294468402
 13
151.1924917523
 23
31.5294468402
  0
SOLID
  8
0
 62
7
  6
CONTINUOUS
 10
149.8628043005
 20
31.49718259
 11
151.1924917523
 21
31.5294468402
 12
150.498741835
 22
31.49718259
 13
150.498741835
 23
31.49718259
  0
SOLID
  8
0
 62
7
  6
CONTINUOUS
 10
150.498741835
 20
31.49718259
 11
151.1924917523
 21
31.5294468402
 12
150.9034292799
 22
31.4649197501
 13
150.9034292799
 23
31.4649197501
  0
SOLID
  8
0
 62
7
  6
CONTINUOUS
 10
151.1924917523
 20
31.5294468402
 11
151.3659292523
 21
31.4326554468
 12
150.9034292799
 22
31.4649197501
 13
150.9034292799
 23
31.4649197501
  0
SOLID
  8
0
 62
7
  6
CONTINUOUS
 10
151.0768668626
 20
31.4003926599
 11
150.9034292799
 21
31.4649197501
 12
151.3659292523
 22
31.4326554468
 13
151.3659292523
 23
31.4326554468
  0
SOLID
  8
0
 62
7
  6
CONTINUOUS
 10
151.0768668626
 20
31.4003926599
 11
151.3659292523
 21
31.4326554468
 12
151.1346793074
 22
31.3036013776
 13
151.1346793074
 23
31.3036013776
  0
SOLID
  8
0
 62
7
  6
CONTINUOUS
 10
151.3659292523
 20
31.4326554468
 11
151.4237418626
 21
31.3036013776
 12
151.1346793074
 22
31.3036013776
 13
151.1346793074
 23
31.3036013776
  0
SOLID
  8
0
 62
7
  6
CONTINUOUS
 10
152.4643666972
 20
31.5939739754
 11
152.6956168074
 21
31.6262382787
 12
152.9268669177
 22
31.6262382787
 13
152.9268669177
 23
31.6262382787
  0
SOLID
  8
0
 62
7
  6
CONTINUOUS
 10
152.9268669177
 20
31.6262382787
 11
153.1003044177
 21
31.5939739754
 12
152.4643666972
 22
31.5939739754
 13
152.4643666972
 23
31.5939739754
  0
SOLID
  8
0
 62
7
  6
CONTINUOUS
 10
152.2909293626
 20
31.5294468852
 11
152.4643666972
 21
31.5939739754
 12
153.1003044177
 22
31.5939739754
 13
153.1003044177
 23
31.5939739754
  0
SOLID
  8
0
 62
7
  6
CONTINUOUS
 10
153.1003044177
 20
31.5939739754
 11
153.2737419177
 21
31.5294468852
 12
152.2909293626
 22
31.5294468852
 13
152.2909293626
 23
31.5294468852
  0
SOLID
  8
0
 62
7
  6
CONTINUOUS
 10
153.2737419177
 20
31.5294468852
 11
152.6956168074
 21
31.4971825369
 12
152.2909293626
 22
31.5294468852
 13
152.2909293626
 23
31.5294468852
  0
SOLID
  8
0
 62
7
  6
CONTINUOUS
 10
152.1753043074
 20
31.4649197951
 11
152.2909293626
 21
31.5294468852
 12
152.6956168074
 22
31.4971825369
 13
152.6956168074
 23
31.4971825369
  0
SOLID
  8
0
 62
7
  6
CONTINUOUS
 10
152.6956168074
 20
31.4971825369
 11
152.4643666972
 21
31.4649197951
 12
152.1753043074
 22
31.4649197951
 13
152.1753043074
 23
31.4649197951
  0
SOLID
  8
0
 62
7
  6
CONTINUOUS
 10
152.6956168074
 20
31.4971825369
 11
153.2737419177
 21
31.5294468852
 12
152.9268669177
 22
31.4649197951
 13
152.9268669177
 23
31.4649197951
  0
SOLID
  8
0
 62
7
  6
CONTINUOUS
 10
153.2737419177
 20
31.5294468852
 11
153.3893668074
 21
31.4649197951
 12
152.9268669177
 22
31.4649197951
 13
152.9268669177
 23
31.4649197951
  0
SOLID
  8
0
 62
7
  6
CONTINUOUS
 10
153.0424918074
 20
31.4326554468
 11
152.9268669177
 21
31.4649197951
 12
153.3893668074
 22
31.4649197951
 13
153.3893668074
 23
31.4649197951
  0
SOLID
  8
0
 62
7
  6
CONTINUOUS
 10
153.3893668074
 20
31.4649197951
 11
153.4471794177
 21
31.4003927049
 12
153.0424918074
 22
31.4326554468
 13
153.0424918074
 23
31.4326554468
  0
SOLID
  8
0
 62
7
  6
CONTINUOUS
 10
153.1581166972
 20
31.3681283566
 11
153.0424918074
 21
31.4326554468
 12
153.4471794177
 22
31.4003927049
 13
153.4471794177
 23
31.4003927049
  0
SOLID
  8
0
 62
7
  6
CONTINUOUS
 10
153.1581166972
 20
31.3681283566
 11
153.4471794177
 21
31.4003927049
 12
153.2159293074
 22
31.2390742213
 13
153.2159293074
 23
31.2390742213
  0
SOLID
  8
0
 62
7
  6
CONTINUOUS
 10
153.4471794177
 20
31.4003927049
 11
153.5049916972
 21
31.2390742213
 12
153.2159293074
 22
31.2390742213
 13
153.2159293074
 23
31.2390742213
  0
SOLID
  8
0
 62
7
  6
CONTINUOUS
 10
152.4643666972
 20
31.4649197951
 11
152.2909293626
 21
31.4003927049
 12
152.1753043074
 22
31.4649197951
 13
152.1753043074
 23
31.4649197951
  0
SOLID
  8
0
 62
7
  6
CONTINUOUS
 10
152.2909293626
 20
31.4003927049
 11
152.1753043074
 21
31.3358640533
 12
152.1753043074
 22
31.4649197951
 13
152.1753043074
 23
31.4649197951
  0
SOLID
  8
0
 62
7
  6
CONTINUOUS
 10
152.1753043074
 20
31.3358640533
 11
151.8862417523
 21
30.5938002869
 12
152.1753043074
 22
31.4649197951
 13
152.1753043074
 23
31.4649197951
  0
SOLID
  8
0
 62
7
  6
CONTINUOUS
 10
152.1753043074
 20
31.4649197951
 11
151.8862417523
 21
30.5938002869
 12
152.1753043074
 22
32.1101937295
 13
152.1753043074
 23
32.1101937295
  0
SOLID
  8
0
 62
7
  6
CONTINUOUS
 10
151.8862417523
 20
30.5938002869
 11
151.8862417523
 21
32.1101937295
 12
152.1753043074
 22
32.1101937295
 13
152.1753043074
 23
32.1101937295
  0
SOLID
  8
0
 62
7
  6
CONTINUOUS
 10
152.1753043074
 20
31.3358640533
 11
152.1753043074
 21
30.5938002869
 12
151.8862417523
 22
30.5938002869
 13
151.8862417523
 23
30.5938002869
  0
SOLID
  8
0
 62
7
  6
CONTINUOUS
 10
153.2159293074
 20
30.5938002869
 11
153.2159293074
 21
31.2390742213
 12
153.5049916972
 22
31.2390742213
 13
153.5049916972
 23
31.2390742213
  0
SOLID
  8
0
 62
7
  6
CONTINUOUS
 10
153.5049916972
 20
31.2390742213
 11
153.5049916972
 21
30.5938002869
 12
153.2159293074
 22
30.5938002869
 13
153.2159293074
 23
30.5938002869
  0
SOLID
  8
0
 62
7
  6
CONTINUOUS
 10
154.2565543074
 20
31.5939738288
 11
154.6612419177
 21
31.6262385959
 12
155.0081169177
 22
31.6262385959
 13
155.0081169177
 23
31.6262385959
  0
SOLID
  8
0
 62
7
  6
CONTINUOUS
 10
155.0081169177
 20
31.6262385959
 11
155.3549915869
 21
31.5939738288
 12
154.2565543074
 22
31.5939738288
 13
154.2565543074
 23
31.5939738288
  0
SOLID
  8
0
 62
7
  6
CONTINUOUS
 10
154.1409294177
 20
31.5617111435
 11
154.2565543074
 21
31.5939738288
 12
155.3549915869
 22
31.5939738288
 13
155.3549915869
 23
31.5939738288
  0
SOLID
  8
0
 62
7
  6
CONTINUOUS
 10
155.3549915869
 20
31.5939738288
 11
155.5284290869
 21
31.5294468402
 12
154.1409294177
 22
31.5617111435
 13
154.1409294177
 23
31.5617111435
  0
SOLID
  8
0
 62
7
  6
CONTINUOUS
 10
154.0253041972
 20
31.4971826249
 11
154.1409294177
 21
31.5617111435
 12
155.5284290869
 22
31.5294468402
 13
155.5284290869
 23
31.5294468402
  0
SOLID
  8
0
 62
7
  6
CONTINUOUS
 10
154.0253041972
 20
31.4971826249
 11
155.5284290869
 21
31.5294468402
 12
154.6612419177
 22
31.4971826249
 13
154.6612419177
 23
31.4971826249
  0
SOLID
  8
0
 62
7
  6
CONTINUOUS
 10
154.6612419177
 20
31.4971826249
 11
155.5284290869
 21
31.5294468402
 12
155.0081169177
 22
31.4971826249
 13
155.0081169177
 23
31.4971826249
  0
SOLID
  8
0
 62
7
  6
CONTINUOUS
 10
155.0081169177
 20
31.4971826249
 11
155.5284290869
 21
31.5294468402
 12
155.239367028
 22
31.4649194065
 13
155.239367028
 23
31.4649194065
  0
SOLID
  8
0
 62
7
  6
CONTINUOUS
 10
155.5284290869
 20
31.5294468402
 11
155.6440543074
 21
31.4649194065
 12
155.239367028
 22
31.4649194065
 13
155.239367028
 23
31.4649194065
  0
SOLID
  8
0
 62
7
  6
CONTINUOUS
 10
153.9674919177
 20
31.4326554138
 11
154.0253041972
 21
31.4971826249
 12
154.6612419177
 22
31.4971826249
 13
154.6612419177
 23
31.4971826249
  0
SOLID
  8
0
 62
7
  6
CONTINUOUS
 10
155.3549915869
 20
31.4326554138
 11
155.239367028
 21
31.4649194065
 12
155.6440543074
 22
31.4649194065
 13
155.6440543074
 23
31.4649194065
  0
SOLID
  8
0
 62
7
  6
CONTINUOUS
 10
155.3549915869
 20
31.4326554138
 11
155.6440543074
 21
31.4649194065
 12
155.412804528
 22
31.3681282026
 13
155.412804528
 23
31.3681282026
  0
SOLID
  8
0
 62
7
  6
CONTINUOUS
 10
155.6440543074
 20
31.4649194065
 11
155.7018665869
 21
31.3681282026
 12
155.412804528
 22
31.3681282026
 13
155.412804528
 23
31.3681282026
  0
SOLID
  8
0
 62
7
  6
CONTINUOUS
 10
155.412804528
 20
31.2713369632
 11
155.412804528
 21
31.3681282026
 12
155.7018665869
 22
31.3681282026
 13
155.7018665869
 23
31.3681282026
  0
SOLID
  8
0
 62
7
  6
CONTINUOUS
 10
155.412804528
 20
31.2713369632
 11
155.7018665869
 21
31.3681282026
 12
155.412804528
 22
31.1422827828
 13
155.412804528
 23
31.1422827828
  0
SOLID
  8
0
 62
7
  6
CONTINUOUS
 10
155.412804528
 20
31.1422827828
 11
155.7018665869
 21
31.3681282026
 12
155.412804528
 22
30.9487004259
 13
155.412804528
 23
30.9487004259
  0
SOLID
  8
0
 62
7
  6
CONTINUOUS
 10
155.7018665869
 20
31.3681282026
 11
155.7018665869
 21
30.8519086025
 12
155.412804528
 22
30.9487004259
 13
155.412804528
 23
30.9487004259
  0
SOLID
  8
0
 62
7
  6
CONTINUOUS
 10
157.6096790869
 20
31.5939736268
 11
157.840929528
 21
31.6262383465
 12
158.0721793074
 22
31.6262383465
 13
158.0721793074
 23
31.6262383465
  0
SOLID
  8
0
 62
7
  6
CONTINUOUS
 10
158.0721793074
 20
31.6262383465
 11
158.2456168074
 21
31.5939736268
 12
157.6096790869
 22
31.5939736268
 13
157.6096790869
 23
31.5939736268
  0
SOLID
  8
0
 62
7
  6
CONTINUOUS
 10
157.4362415869
 20
31.5294472848
 11
157.6096790869
 21
31.5939736268
 12
158.2456168074
 22
31.5939736268
 13
158.2456168074
 23
31.5939736268
  0
SOLID
  8
0
 62
7
  6
CONTINUOUS
 10
158.2456168074
 20
31.5939736268
 11
158.4190543074
 21
31.5294472848
 12
157.4362415869
 22
31.5294472848
 13
157.4362415869
 23
31.5294472848
  0
SOLID
  8
0
 62
7
  6
CONTINUOUS
 10
158.4190543074
 20
31.5294472848
 11
157.840929528
 21
31.4971825369
 12
157.4362415869
 22
31.5294472848
 13
157.4362415869
 23
31.5294472848
  0
SOLID
  8
0
 62
7
  6
CONTINUOUS
 10
157.320617028
 20
31.4649199103
 11
157.4362415869
 21
31.5294472848
 12
157.840929528
 22
31.4971825369
 13
157.840929528
 23
31.4971825369
  0
SOLID
  8
0
 62
7
  6
CONTINUOUS
 10
157.840929528
 20
31.4971825369
 11
157.6096790869
 21
31.4649199103
 12
157.320617028
 22
31.4649199103
 13
157.320617028
 23
31.4649199103
  0
SOLID
  8
0
 62
7
  6
CONTINUOUS
 10
157.840929528
 20
31.4971825369
 11
158.4190543074
 21
31.5294472848
 12
158.0721793074
 22
31.4649199103
 13
158.0721793074
 23
31.4649199103
  0
SOLID
  8
0
 62
7
  6
CONTINUOUS
 10
158.4190543074
 20
31.5294472848
 11
158.534679528
 21
31.4649199103
 12
158.0721793074
 22
31.4649199103
 13
158.0721793074
 23
31.4649199103
  0
SOLID
  8
0
 62
7
  6
CONTINUOUS
 10
158.187804528
 20
31.4326554468
 11
158.0721793074
 21
31.4649199103
 12
158.534679528
 22
31.4649199103
 13
158.534679528
 23
31.4649199103
  0
SOLID
  8
0
 62
7
  6
CONTINUOUS
 10
158.187804528
 20
31.4326554468
 11
158.534679528
 21
31.4649199103
 12
158.3034290869
 22
31.3681288486
 13
158.3034290869
 23
31.3681288486
  0
SOLID
  8
0
 62
7
  6
CONTINUOUS
 10
158.534679528
 20
31.4649199103
 11
158.5924918074
 21
31.3681288486
 12
158.3034290869
 22
31.3681288486
 13
158.3034290869
 23
31.3681288486
  0
SOLID
  8
0
 62
7
  6
CONTINUOUS
 10
158.361242028
 20
31.2068093799
 11
158.3034290869
 21
31.3681288486
 12
158.5924918074
 22
31.3681288486
 13
158.5924918074
 23
31.3681288486
  0
SOLID
  8
0
 62
7
  6
CONTINUOUS
 10
158.5924918074
 20
31.3681288486
 11
158.6503040869
 21
31.2068093799
 12
158.361242028
 22
31.2068093799
 13
158.361242028
 23
31.2068093799
  0
SOLID
  8
0
 62
7
  6
CONTINUOUS
 10
157.6096790869
 20
31.4649199103
 11
157.4362415869
 21
31.4003926599
 12
157.320617028
 22
31.4649199103
 13
157.320617028
 23
31.4649199103
  0
SOLID
  8
0
 62
7
  6
CONTINUOUS
 10
157.4362415869
 20
31.4003926599
 11
157.320617028
 21
31.3358640533
 12
157.320617028
 22
31.4649199103
 13
157.320617028
 23
31.4649199103
  0
SOLID
  8
0
 62
7
  6
CONTINUOUS
 10
157.320617028
 20
31.3358640533
 11
157.0315543074
 21
30.5938003547
 12
157.320617028
 22
31.4649199103
 13
157.320617028
 23
31.4649199103
  0
SOLID
  8
0
 62
7
  6
CONTINUOUS
 10
157.320617028
 20
31.4649199103
 11
157.0315543074
 21
30.5938003547
 12
157.320617028
 22
31.6262383465
 13
157.320617028
 23
31.6262383465
  0
SOLID
  8
0
 62
7
  6
CONTINUOUS
 10
157.0315543074
 20
30.5938003547
 11
157.0315543074
 21
31.6262383465
 12
157.320617028
 22
31.6262383465
 13
157.320617028
 23
31.6262383465
  0
SOLID
  8
0
 62
7
  6
CONTINUOUS
 10
157.320617028
 20
31.3358640533
 11
157.320617028
 21
30.5938003547
 12
157.0315543074
 22
30.5938003547
 13
157.0315543074
 23
30.5938003547
  0
SOLID
  8
0
 62
7
  6
CONTINUOUS
 10
158.361242028
 20
30.5938003547
 11
158.361242028
 21
31.2068093799
 12
158.6503040869
 22
31.2068093799
 13
158.6503040869
 23
31.2068093799
  0
SOLID
  8
0
 62
7
  6
CONTINUOUS
 10
158.6503040869
 20
31.2068093799
 11
158.6503040869
 21
30.5938003547
 12
158.361242028
 22
30.5938003547
 13
158.361242028
 23
30.5938003547
  0
SOLID
  8
0
 62
7
  6
CONTINUOUS
 10
159.4596793074
 20
31.5939739474
 11
159.8065543074
 21
31.6262381969
 12
160.1534293074
 22
31.6262381969
 13
160.1534293074
 23
31.6262381969
  0
SOLID
  8
0
 62
7
  6
CONTINUOUS
 10
160.1534293074
 20
31.6262381969
 11
160.5003043074
 21
31.5939739474
 12
159.4596793074
 22
31.5939739474
 13
159.4596793074
 23
31.5939739474
  0
SOLID
  8
0
 62
7
  6
CONTINUOUS
 10
159.228429528
 20
31.5294468402
 11
159.4596793074
 21
31.5939739474
 12
160.5003043074
 22
31.5939739474
 13
160.5003043074
 23
31.5939739474
  0
SOLID
  8
0
 62
7
  6
CONTINUOUS
 10
159.228429528
 20
31.5294468402
 11
160.5003043074
 21
31.5939739304
 12
160.6737418074
 22
31.5617111435
 13
160.6737418074
 23
31.5617111435
  0
SOLID
  8
0
 62
7
  6
CONTINUOUS
 10
159.228429528
 20
31.5294468402
 11
160.6737418074
 21
31.5617111435
 12
159.8065543074
 22
31.4971825592
 13
159.8065543074
 23
31.4971825592
  0
SOLID
  8
0
 62
7
  6
CONTINUOUS
 10
159.8065543074
 20
31.4971825592
 11
160.6737418074
 21
31.5617111435
 12
160.1534293074
 22
31.4971825592
 13
160.1534293074
 23
31.4971825592
  0
SOLID
  8
0
 62
7
  6
CONTINUOUS
 10
160.6737418074
 20
31.5617111435
 11
160.8471793074
 21
31.4971825592
 12
160.1534293074
 22
31.4971825592
 13
160.1534293074
 23
31.4971825592
  0
SOLID
  8
0
 62
7
  6
CONTINUOUS
 10
160.5003043074
 20
31.4649197501
 11
160.1534293074
 21
31.4971825592
 12
160.8471793074
 22
31.4971825592
 13
160.8471793074
 23
31.4971825592
  0
SOLID
  8
0
 62
7
  6
CONTINUOUS
 10
159.1128043074
 20
31.4326555427
 11
159.228429528
 21
31.5294468402
 12
159.8065543074
 22
31.4971825592
 13
159.8065543074
 23
31.4971825592
  0
SOLID
  8
0
 62
7
  6
CONTINUOUS
 10
160.5003043074
 20
31.4649197501
 11
160.8471793074
 21
31.4971825592
 12
160.615929528
 22
31.4326555427
 13
160.615929528
 23
31.4326555427
  0
SOLID
  8
0
 62
7
  6
CONTINUOUS
 10
160.615929528
 20
31.4326555427
 11
160.8471793074
 21
31.4971825592
 12
160.6737418074
 22
31.3681283005
 13
160.6737418074
 23
31.3681283005
  0
SOLID
  8
0
 62
7
  6
CONTINUOUS
 10
160.8471793074
 20
31.4971825592
 11
160.9628038663
 21
31.3681283005
 12
160.6737418074
 22
31.3681283005
 13
160.6737418074
 23
31.3681283005
  0
SOLID
  8
0
 62
7
  6
CONTINUOUS
 10
150.2674918074
 20
31.4649197501
 11
149.7471793074
 21
31.4326554237
 12
150.498741835
 22
31.4971824493
 13
150.498741835
 23
31.4971824493
  0
SOLID
  8
0
 62
7
  6
CONTINUOUS
 10
149.7471793074
 20
31.4326554237
 11
149.8628043005
 21
31.4971824493
 12
150.498741835
 22
31.4971824493
 13
150.498741835
 23
31.4971824493
  0
SOLID
  8
0
 62
7
  6
CONTINUOUS
 10
150.2674918074
 20
31.4649197501
 11
150.1518667936
 21
31.4326554237
 12
149.7471793074
 22
31.4326554237
 13
149.7471793074
 23
31.4326554237
  0
SOLID
  8
0
 62
7
  6
CONTINUOUS
 10
149.6315543091
 20
31.3036012664
 11
149.7471793074
 21
31.4326554237
 12
150.1518667936
 22
31.4326554237
 13
150.1518667936
 23
31.4326554237
  0
SOLID
  8
0
 62
7
  6
CONTINUOUS
 10
153.9674919177
 20
31.4326554237
 11
154.6612419177
 21
31.4971825369
 12
154.4299918074
 22
31.4649197501
 13
154.4299918074
 23
31.4649197501
  0
SOLID
  8
0
 62
7
  6
CONTINUOUS
 10
154.4299918074
 20
31.4649197501
 11
154.3143669177
 21
31.4326554237
 12
153.9674919177
 22
31.4326554237
 13
153.9674919177
 23
31.4326554237
  0
SOLID
  8
0
 62
7
  6
CONTINUOUS
 10
153.9674919177
 20
31.3681283335
 11
153.9674919177
 21
31.4326554237
 12
154.3143669177
 22
31.4326554237
 13
154.3143669177
 23
31.4326554237
  0
SOLID
  8
0
 62
7
  6
CONTINUOUS
 10
154.3143669177
 20
31.4326554237
 11
154.2565543074
 21
31.3681283335
 12
153.9674919177
 22
31.3681283335
 13
153.9674919177
 23
31.3681283335
  0
SOLID
  8
0
 62
7
  6
CONTINUOUS
 10
159.1128043074
 20
31.4326555528
 11
159.8065543074
 21
31.4971825369
 12
159.575304528
 22
31.4649197501
 13
159.575304528
 23
31.4649197501
  0
SOLID
  8
0
 62
7
  6
CONTINUOUS
 10
159.575304528
 20
31.4649197501
 11
159.4596793074
 21
31.4326555528
 12
159.1128043074
 22
31.4326555528
 13
159.1128043074
 23
31.4326555528
  0
SOLID
  8
0
 62
7
  6
CONTINUOUS
 10
159.1128043074
 20
31.3681284626
 11
159.1128043074
 21
31.4326555528
 12
159.4596793074
 22
31.4326555528
 13
159.4596793074
 23
31.4326555528
  0
SOLID
  8
0
 62
7
  6
CONTINUOUS
 10
159.4596793074
 20
31.4326555528
 11
159.401867028
 21
31.3681284626
 12
159.1128043074
 22
31.3681284626
 13
159.1128043074
 23
31.3681284626
  0
SOLID
  8
0
 62
7
  6
CONTINUOUS
 10
159.228429528
 20
31.2390741763
 11
159.1128043074
 21
31.3681284626
 12
159.401867028
 22
31.3681284626
 13
159.401867028
 23
31.3681284626
  0
SOLID
  8
0
 62
7
  6
CONTINUOUS
 10
149.6315543091
 20
31.3036012664
 11
150.1518667936
 21
31.4326554468
 12
149.9784292936
 22
31.3358640533
 13
149.9784292936
 23
31.3358640533
  0
SOLID
  8
0
 62
7
  6
CONTINUOUS
 10
149.9784292936
 20
31.3358640533
 11
149.9206168074
 21
31.2713369632
 12
149.6315543091
 22
31.3036012664
 13
149.6315543091
 23
31.3036012664
  0
SOLID
  8
0
 62
7
  6
CONTINUOUS
 10
149.5737418074
 20
31.1100184796
 11
149.6315543091
 21
31.3036012664
 12
149.9206168074
 22
31.2713369632
 13
149.9206168074
 23
31.2713369632
  0
SOLID
  8
0
 62
7
  6
CONTINUOUS
 10
154.4299918074
 20
31.2390741763
 11
154.7768668074
 21
31.271336924
 12
155.412804528
 22
31.271336924
 13
155.412804528
 23
31.271336924
  0
SOLID
  8
0
 62
7
  6
CONTINUOUS
 10
154.4299918074
 20
31.2390741763
 11
155.412804528
 21
31.271336924
 12
154.1987416972
 22
31.1745462761
 13
154.1987416972
 23
31.1745462761
  0
SOLID
  8
0
 62
7
  6
CONTINUOUS
 10
154.1987416972
 20
31.1745462761
 11
155.412804528
 21
31.271336924
 12
154.7768668074
 22
31.1422827436
 13
154.7768668074
 23
31.1422827436
  0
SOLID
  8
0
 62
7
  6
CONTINUOUS
 10
155.412804528
 20
31.271336924
 11
155.412804528
 21
31.1422827436
 12
154.7768668074
 22
31.1422827436
 13
154.7768668074
 23
31.1422827436
  0
SOLID
  8
0
 62
7
  6
CONTINUOUS
 10
159.228429528
 20
31.2390745501
 11
159.401867028
 21
31.3681283566
 12
159.4596793074
 22
31.3036012664
 13
159.4596793074
 23
31.3036012664
  0
SOLID
  8
0
 62
7
  6
CONTINUOUS
 10
159.4596793074
 20
31.3036012664
 11
159.6331168074
 21
31.2390745501
 12
159.228429528
 22
31.2390745501
 13
159.228429528
 23
31.2390745501
  0
SOLID
  8
0
 62
7
  6
CONTINUOUS
 10
159.4596793074
 20
31.1422827828
 11
159.228429528
 21
31.2390745501
 12
159.6331168074
 22
31.2390745501
 13
159.6331168074
 23
31.2390745501
  0
SOLID
  8
0
 62
7
  6
CONTINUOUS
 10
159.6331168074
 20
31.2390745501
 11
160.615929528
 21
31.0777556927
 12
159.4596793074
 22
31.1422827828
 13
159.4596793074
 23
31.1422827828
  0
SOLID
  8
0
 62
7
  6
CONTINUOUS
 10
160.442492028
 20
30.9809646623
 11
159.4596793074
 21
31.1422827828
 12
160.615929528
 22
31.0777556927
 13
160.615929528
 23
31.0777556927
  0
SOLID
  8
0
 62
7
  6
CONTINUOUS
 10
160.615929528
 20
31.0777556927
 11
160.8471793074
 21
30.9809646623
 12
160.442492028
 22
30.9809646623
 13
160.442492028
 23
30.9809646623
  0
SOLID
  8
0
 62
7
  6
CONTINUOUS
 10
160.615929528
 20
30.9164372091
 11
160.442492028
 21
30.9809646623
 12
160.8471793074
 22
30.9809646623
 13
160.8471793074
 23
30.9809646623
  0
SOLID
  8
0
 62
7
  6
CONTINUOUS
 10
160.615929528
 20
30.9164372091
 11
160.8471793074
 21
30.9809646623
 12
160.6737418074
 22
30.8519089441
 13
160.6737418074
 23
30.8519089441
  0
SOLID
  8
0
 62
7
  6
CONTINUOUS
 10
160.8471793074
 20
30.9809646623
 11
160.9628038663
 21
30.8519089441
 12
160.6737418074
 22
30.8519089441
 13
160.6737418074
 23
30.8519089441
  0
SOLID
  8
0
 62
7
  6
CONTINUOUS
 10
160.615929528
 20
30.7873818593
 11
160.6737418074
 21
30.8519089441
 12
160.9628038663
 22
30.8519089441
 13
160.9628038663
 23
30.8519089441
  0
SOLID
  8
0
 62
7
  6
CONTINUOUS
 10
160.9628038663
 20
30.8519089441
 11
160.9628038663
 21
30.7873818593
 12
160.615929528
 22
30.7873818593
 13
160.615929528
 23
30.7873818593
  0
SOLID
  8
0
 62
7
  6
CONTINUOUS
 10
160.5003043074
 20
30.7551187255
 11
160.615929528
 21
30.7873818593
 12
160.9628038663
 22
30.7873818593
 13
160.9628038663
 23
30.7873818593
  0
SOLID
  8
0
 62
7
  6
CONTINUOUS
 10
160.5003043074
 20
30.7551187255
 11
160.9628038663
 21
30.7873818593
 12
160.269054528
 22
30.7228547745
 13
160.269054528
 23
30.7228547745
  0
SOLID
  8
0
 62
7
  6
CONTINUOUS
 10
160.9628038663
 20
30.7873818593
 11
160.8471793074
 21
30.6905916353
 12
160.269054528
 22
30.7228547745
 13
160.269054528
 23
30.7228547745
  0
SOLID
  8
0
 62
7
  6
CONTINUOUS
 10
160.8471793074
 20
30.6905916353
 11
159.401867028
 21
30.658327332
 12
160.269054528
 22
30.7228547745
 13
160.269054528
 23
30.7228547745
  0
SOLID
  8
0
 62
7
  6
CONTINUOUS
 10
160.269054528
 20
30.7228547745
 11
159.401867028
 21
30.658327332
 12
159.922179528
 22
30.7228547745
 13
159.922179528
 23
30.7228547745
  0
SOLID
  8
0
 62
7
  6
CONTINUOUS
 10
159.401867028
 20
30.658327332
 11
159.228429528
 21
30.7228547745
 12
159.922179528
 22
30.7228547745
 13
159.922179528
 23
30.7228547745
  0
SOLID
  8
0
 62
7
  6
CONTINUOUS
 10
159.401867028
 20
30.658327332
 11
160.8471793074
 21
30.6905916353
 12
159.575304528
 22
30.6260629858
 13
159.575304528
 23
30.6260629858
  0
SOLID
  8
0
 62
7
  6
CONTINUOUS
 10
160.8471793074
 20
30.6905916353
 11
160.615929528
 21
30.6260629858
 12
159.575304528
 22
30.6260629858
 13
159.575304528
 23
30.6260629858
  0
SOLID
  8
0
 62
7
  6
CONTINUOUS
 10
159.922179528
 20
30.5938006049
 11
159.575304528
 21
30.6260629858
 12
160.615929528
 22
30.6260629858
 13
160.615929528
 23
30.6260629858
  0
SOLID
  8
0
 62
7
  6
CONTINUOUS
 10
160.615929528
 20
30.6260629858
 11
160.269054528
 21
30.5938006049
 12
159.922179528
 22
30.5938006049
 13
159.922179528
 23
30.5938006049
  0
SOLID
  8
0
 62
7
  6
CONTINUOUS
 10
149.5737418074
 20
31.1100184796
 11
149.9206168074
 21
31.2713369632
 12
149.8628043005
 22
31.1422827828
 13
149.8628043005
 23
31.1422827828
  0
SOLID
  8
0
 62
7
  6
CONTINUOUS
 10
149.8628043005
 20
31.1422827828
 11
149.8628043005
 21
31.0454914852
 12
149.5737418074
 22
31.1100184796
 13
149.5737418074
 23
31.1100184796
  0
SOLID
  8
0
 62
7
  6
CONTINUOUS
 10
149.6315543091
 20
30.9164372091
 11
149.5737418074
 21
31.1100184796
 12
149.8628043005
 22
31.0454914852
 13
149.8628043005
 23
31.0454914852
  0
SOLID
  8
0
 62
7
  6
CONTINUOUS
 10
149.8628043005
 20
31.0454914852
 11
149.9784292936
 21
30.8841729058
 12
149.6315543091
 22
30.9164372091
 13
149.6315543091
 23
30.9164372091
  0
SOLID
  8
0
 62
7
  6
CONTINUOUS
 10
149.7471793074
 20
30.7873813202
 11
149.6315543091
 21
30.9164372091
 12
149.9784292936
 22
30.8841729058
 13
149.9784292936
 23
30.8841729058
  0
SOLID
  8
0
 62
7
  6
CONTINUOUS
 10
149.9784292936
 20
30.8841729058
 11
150.1518667936
 21
30.7873813202
 12
149.7471793074
 22
30.7873813202
 13
149.7471793074
 23
30.7873813202
  0
SOLID
  8
0
 62
7
  6
CONTINUOUS
 10
149.8628043005
 20
30.7228547004
 11
149.7471793074
 21
30.7873813202
 12
150.1518667936
 22
30.7873813202
 13
150.1518667936
 23
30.7873813202
  0
SOLID
  8
0
 62
7
  6
CONTINUOUS
 10
150.1518667936
 20
30.7873813202
 11
150.498741835
 21
30.7228547004
 12
149.8628043005
 22
30.7228547004
 13
149.8628043005
 23
30.7228547004
  0
SOLID
  8
0
 62
7
  6
CONTINUOUS
 10
150.0362418212
 20
30.658327332
 11
149.8628043005
 21
30.7228547004
 12
150.498741835
 22
30.7228547004
 13
150.498741835
 23
30.7228547004
  0
SOLID
  8
0
 62
7
  6
CONTINUOUS
 10
154.0831168074
 20
31.1100184386
 11
154.1987416972
 21
31.1745462761
 12
154.7768668074
 22
31.1422827828
 13
154.7768668074
 23
31.1422827828
  0
SOLID
  8
0
 62
7
  6
CONTINUOUS
 10
154.7768668074
 20
31.1422827828
 11
154.5456166972
 21
31.1100184386
 12
154.0831168074
 22
31.1100184386
 13
154.0831168074
 23
31.1100184386
  0
SOLID
  8
0
 62
7
  6
CONTINUOUS
 10
153.9674919177
 20
30.9809642992
 11
154.0831168074
 21
31.1100184386
 12
154.5456166972
 22
31.1100184386
 13
154.5456166972
 23
31.1100184386
  0
SOLID
  8
0
 62
7
  6
CONTINUOUS
 10
154.3143669177
 20
31.0132277988
 11
153.9674919177
 21
30.9809642992
 12
154.4299918074
 22
31.0777556927
 13
154.4299918074
 23
31.0777556927
  0
SOLID
  8
0
 62
7
  6
CONTINUOUS
 10
153.9674919177
 20
30.9809642992
 11
154.5456166972
 21
31.1100184796
 12
154.4299918074
 22
31.0777556927
 13
154.4299918074
 23
31.0777556927
  0
SOLID
  8
0
 62
7
  6
CONTINUOUS
 10
154.3143669177
 20
31.0132277988
 11
154.2565543074
 21
30.9164372091
 12
153.9674919177
 22
30.9809642992
 13
153.9674919177
 23
30.9809642992
  0
SOLID
  8
0
 62
7
  6
CONTINUOUS
 10
153.9674919177
 20
30.8841729058
 11
153.9674919177
 21
30.9809642992
 12
154.2565543074
 22
30.9164372091
 13
154.2565543074
 23
30.9164372091
  0
SOLID
  8
0
 62
7
  6
CONTINUOUS
 10
154.2565543074
 20
30.9164372091
 11
154.2565543074
 21
30.8519086025
 12
153.9674919177
 22
30.8841729058
 13
153.9674919177
 23
30.8841729058
  0
SOLID
  8
0
 62
7
  6
CONTINUOUS
 10
154.0253041972
 20
30.7551187255
 11
153.9674919177
 21
30.8841729058
 12
154.2565543074
 22
30.8519086025
 13
154.2565543074
 23
30.8519086025
  0
SOLID
  8
0
 62
7
  6
CONTINUOUS
 10
155.412804528
 20
30.9487004259
 11
155.7018665869
 21
30.8519086025
 12
155.3549915869
 22
30.8841729058
 13
155.3549915869
 23
30.8841729058
  0
SOLID
  8
0
 62
7
  6
CONTINUOUS
 10
155.1815540869
 20
30.7873815123
 11
155.3549915869
 21
30.8841729058
 12
155.7018665869
 22
30.8519086025
 13
155.7018665869
 23
30.8519086025
  0
SOLID
  8
0
 62
7
  6
CONTINUOUS
 10
155.1815540869
 20
30.7873815123
 11
155.7018665869
 21
30.8519086025
 12
155.412804528
 22
30.7551187255
 13
155.412804528
 23
30.7551187255
  0
SOLID
  8
0
 62
7
  6
CONTINUOUS
 10
155.7018665869
 20
30.8519086025
 11
155.759679528
 21
30.6905916353
 12
155.412804528
 22
30.7551187255
 13
155.412804528
 23
30.7551187255
  0
SOLID
  8
0
 62
7
  6
CONTINUOUS
 10
155.4706168074
 20
30.658327332
 11
155.412804528
 21
30.7551187255
 12
155.759679528
 22
30.6905916353
 13
155.759679528
 23
30.6905916353
  0
SOLID
  8
0
 62
7
  6
CONTINUOUS
 10
155.4706168074
 20
30.658327332
 11
155.759679528
 21
30.6905916353
 12
155.5284290869
 22
30.5938002079
 13
155.5284290869
 23
30.5938002079
  0
SOLID
  8
0
 62
7
  6
CONTINUOUS
 10
155.759679528
 20
30.6905916353
 11
155.8174918074
 21
30.5938002079
 12
155.5284290869
 22
30.5938002079
 13
155.5284290869
 23
30.5938002079
  0
SOLID
  8
0
 62
7
  6
CONTINUOUS
 10
151.0768668626
 20
30.8196456577
 11
151.1346793074
 21
30.9164373395
 12
151.4237418626
 22
30.9164373395
 13
151.4237418626
 23
30.9164373395
  0
SOLID
  8
0
 62
7
  6
CONTINUOUS
 10
151.4237418626
 20
30.9164373395
 11
151.3659292523
 21
30.7873815123
 12
151.0768668626
 22
30.8196456577
 13
151.0768668626
 23
30.8196456577
  0
SOLID
  8
0
 62
7
  6
CONTINUOUS
 10
150.9034292799
 20
30.7551187255
 11
151.0768668626
 21
30.8196456577
 12
151.3659292523
 22
30.7873815123
 13
151.3659292523
 23
30.7873815123
  0
SOLID
  8
0
 62
7
  6
CONTINUOUS
 10
150.9034292799
 20
30.7551187255
 11
151.3659292523
 21
30.7873815123
 12
150.498741835
 22
30.7228544222
 13
150.498741835
 23
30.7228544222
  0
SOLID
  8
0
 62
7
  6
CONTINUOUS
 10
151.3659292523
 20
30.7873815123
 11
151.1924917523
 21
30.6905916353
 12
150.498741835
 22
30.7228544222
 13
150.498741835
 23
30.7228544222
  0
SOLID
  8
0
 62
7
  6
CONTINUOUS
 10
150.0362418212
 20
30.658327332
 11
150.498741835
 21
30.7228544222
 12
151.1924917523
 22
30.6905916353
 13
151.1924917523
 23
30.6905916353
  0
SOLID
  8
0
 62
7
  6
CONTINUOUS
 10
150.0362418212
 20
30.658327332
 11
151.1924917523
 21
30.6905916353
 12
150.2096793212
 22
30.6260631011
 13
150.2096793212
 23
30.6260631011
  0
SOLID
  8
0
 62
7
  6
CONTINUOUS
 10
151.1924917523
 20
30.6905916353
 11
150.9612418074
 21
30.6260631011
 12
150.2096793212
 22
30.6260631011
 13
150.2096793212
 23
30.6260631011
  0
SOLID
  8
0
 62
7
  6
CONTINUOUS
 10
150.5565542799
 20
30.5938002419
 11
150.2096793212
 21
30.6260631011
 12
150.9612418074
 22
30.6260631011
 13
150.9612418074
 23
30.6260631011
  0
SOLID
  8
0
 62
7
  6
CONTINUOUS
 10
154.0253041972
 20
30.7551187255
 11
154.2565543074
 21
30.8519086025
 12
154.3143669177
 22
30.7873815123
 13
154.3143669177
 23
30.7873815123
  0
SOLID
  8
0
 62
7
  6
CONTINUOUS
 10
154.3143669177
 20
30.7873815123
 11
154.5456166972
 21
30.7228544222
 12
154.0253041972
 22
30.7551187255
 13
154.0253041972
 23
30.7551187255
  0
SOLID
  8
0
 62
7
  6
CONTINUOUS
 10
154.1987416972
 20
30.658327332
 11
154.0253041972
 21
30.7551187255
 12
154.5456166972
 22
30.7228544222
 13
154.5456166972
 23
30.7228544222
  0
SOLID
  8
0
 62
7
  6
CONTINUOUS
 10
154.8924916972
 20
30.7228544637
 11
155.1815540869
 21
30.7873815123
 12
155.412804528
 22
30.7551187255
 13
155.412804528
 23
30.7551187255
  0
SOLID
  8
0
 62
7
  6
CONTINUOUS
 10
155.412804528
 20
30.7551187255
 11
155.3549915869
 21
30.6905916353
 12
154.8924916972
 22
30.7228544637
 13
154.8924916972
 23
30.7228544637
  0
SOLID
  8
0
 62
7
  6
CONTINUOUS
 10
155.3549915869
 20
30.6905916353
 11
154.1987416972
 21
30.658327332
 12
154.8924916972
 22
30.7228544637
 13
154.8924916972
 23
30.7228544637
  0
SOLID
  8
0
 62
7
  6
CONTINUOUS
 10
154.1987416972
 20
30.658327332
 11
154.5456166972
 21
30.7228544637
 12
154.8924916972
 22
30.7228544637
 13
154.8924916972
 23
30.7228544637
  0
SOLID
  8
0
 62
7
  6
CONTINUOUS
 10
154.1987416972
 20
30.658327332
 11
155.3549915869
 21
30.6905916353
 12
154.3143669177
 22
30.6260630541
 13
154.3143669177
 23
30.6260630541
  0
SOLID
  8
0
 62
7
  6
CONTINUOUS
 10
155.3549915869
 20
30.6905916353
 11
155.1815540869
 21
30.6260630541
 12
154.3143669177
 22
30.6260630541
 13
154.3143669177
 23
30.6260630541
  0
SOLID
  8
0
 62
7
  6
CONTINUOUS
 10
154.5456166972
 20
30.5938002188
 11
154.3143669177
 21
30.6260630541
 12
155.1815540869
 22
30.6260630541
 13
155.1815540869
 23
30.6260630541
  0
SOLID
  8
0
 62
7
  6
CONTINUOUS
 10
155.1815540869
 20
30.6260630541
 11
154.8924916972
 21
30.5938002188
 12
154.5456166972
 22
30.5938002188
 13
154.5456166972
 23
30.5938002188
  0
SOLID
  8
0
 62
7
  6
CONTINUOUS
 10
159.575304528
 20
30.7551187255
 11
159.228429528
 21
30.7228544637
 12
159.4596793074
 22
30.7873815123
 13
159.4596793074
 23
30.7873815123
  0
SOLID
  8
0
 62
7
  6
CONTINUOUS
 10
159.4596793074
 20
30.7873815123
 11
159.228429528
 21
30.7228544637
 12
159.401867028
 22
30.851908644
 13
159.401867028
 23
30.851908644
  0
SOLID
  8
0
 62
7
  6
CONTINUOUS
 10
159.228429528
 20
30.7228544637
 11
159.1128043074
 21
30.851908644
 12
159.401867028
 22
30.851908644
 13
159.401867028
 23
30.851908644
  0
SOLID
  8
0
 62
7
  6
CONTINUOUS
 10
159.575304528
 20
30.7551187255
 11
159.922179528
 21
30.7228544637
 12
159.228429528
 22
30.7228544637
 13
159.228429528
 23
30.7228544637
  0
SOLID
  8
0
 62
7
  6
CONTINUOUS
 10
156.279992028
 20
30.5938002419
 11
156.279992028
 21
31.6262382337
 12
156.5690540869
 22
30.5938002419
 13
156.5690540869
 23
31.6262382337
  0
ENDBLK
  8
0
  6
BYBLOCK
 62
0
  0
BLOCK
  8
0
 62
2
  6
CONTINUOUS
  2
SYMBOL_3_BL0
 70
64
 10
32.1213064866
 20
19.8534310916
  0
TEXT
  8
0
 62
7
  6
CONTINUOUS
 10
18.3860103289
 20
19.2268451992
  7
TEXTSTYLE_3
 40
2.7338706658
  1
Ammeraal Beltech
 41
1.0
 51
15.0
 72
0
  0
TEXT
  8
0
 62
7
  6
CONTINUOUS
 10
29.1868111546
 20
16.9533085264
  7
TEXTSTYLE_4
 40
1.0935482663
  1
Innovation & Service in Belting
 41
1.0
 72
0
  0
LINE
  8
0
 62
7
  6
CONTINUOUS
 10
12.3614696776
 20
19.9934385078
 11
13.1396216709
 21
23.6543558055
  0
LINE
  8
0
 62
7
  6
CONTINUOUS
 10
23.2347899607
 20
27.3177497171
 11
13.6274394139
 21
24.1961322958
  0
LINE
  8
0
 62
7
  6
CONTINUOUS
 10
12.5867530099
 20
19.3000877048
 11
20.093828271
 21
12.5406867788
  0
LINE
  8
0
 62
7
  6
CONTINUOUS
 10
12.8492874206
 20
20.5352149982
 11
23.6575567857
 21
24.0470345971
  0
LINE
  8
0
 62
7
  6
CONTINUOUS
 10
23.6533516486
 20
13.6972460334
 11
15.2078919798
 21
21.3015720751
  0
LINE
  8
0
 62
7
  6
CONTINUOUS
 10
24.1731743684
 20
26.4728246013
 11
23.1966148312
 21
21.8784731989
  0
LINE
  8
0
 62
7
  6
CONTINUOUS
 10
22.4968128835
 20
18.5861638851
 11
21.810364672
 21
15.3566789607
  0
LINE
  8
0
 62
7
  6
CONTINUOUS
 10
24.8542704669
 20
14.087448211
 11
25.8105020025
 21
18.5861638851
  0
LINE
  8
0
 62
7
  6
CONTINUOUS
 10
26.5103039502
 20
21.8784731989
 11
26.9545457526
 21
23.9684665583
  0
LINE
  8
0
 62
7
  6
CONTINUOUS
 10
20.8069293463
 20
12.3891124661
 11
24.3664527239
 21
13.5456717207
  0
LINE
  8
0
 62
7
  6
CONTINUOUS
 10
23.9478910361
 20
27.1661754044
 11
26.7292624203
 21
24.6618173613
  0
ARC
  8
0
 62
7
  6
CONTINUOUS
 10
13.8527227462
 20
23.5027814928
 40
0.7290321776
 50
108.0
 51
168.0
  0
ARC
  8
0
 62
7
  6
CONTINUOUS
 10
23.4600732931
 20
26.624398914
 40
0.7290321776
 50
348.0
 51
108.0
  0
ARC
  8
0
 62
7
  6
CONTINUOUS
 10
26.2414446773
 20
24.120040871
 40
0.7290321776
 50
348.0
 51
48.0
  0
ARC
  8
0
 62
7
  6
CONTINUOUS
 10
20.581646014
 20
13.0824632691
 40
0.7290321776
 50
228.0
 51
288.0
  0
ARC
  8
0
 62
7
  6
CONTINUOUS
 10
13.0745707529
 20
19.8418641951
 40
0.7290321776
 50
108.0
 51
228.0
  0
ARC
  8
0
 62
7
  6
CONTINUOUS
 10
24.1411693916
 20
14.2390225237
 40
0.7290321776
 50
228.0
 51
348.0
  0
ENDBLK
  8
0
  6
BYBLOCK
 62
0
  0
ENDSEC
  0
SECTION
  2
ENTITIES
  0
TEXT
  8
0
 62
5
  6
CONTINUOUS
 10
96.0
 20
25.636
  7
TEXTSTYLE_2
 40
2.8
  1
Scale :
 41
0.6
 51
0.000019
 72
0
  0
TEXT
  8
0
 62
5
  6
CONTINUOUS
 10
116.0
 20
25.636
  7
TEXTSTYLE_2
 40
2.8
  1
Belt type:
 41
0.6
 51
0.000019
 72
0
  0
INSERT
  8
0
 62
2
  6
CONTINUOUS
  2
SYMBOL_3_BL0
 10
32.1213064866
 20
19.8534310916
  0
INSERT
  8
0
 62
2
  6
CONTINUOUS
  2
SYMBOL_8_BL1
 10
173.5956734183
 20
35.5937998301
  0
LINE
  8
0
 62
2
  6
CONTINUOUS
 10
10.0
 20
30.0
 11
200.0
 21
30.0
  0
LINE
  8
0
 62
2
  6
CONTINUOUS
 10
10.0
 20
30.0
 11
10.0
 21
10.0
  0
LINE
  8
0
 62
2
  6
CONTINUOUS
 10
10.0
 20
10.0
 11
200.0
 21
10.0
  0
LINE
  8
0
 62
2
  6
CONTINUOUS
 10
95.0
 20
30.0
 11
95.0
 21
10.0
  0
LINE
  8
0
 62
2
  6
CONTINUOUS
 10
115.0
 20
30.0
 11
115.0
 21
10.0
  0
LINE
  8
0
 62
2
  6
CONTINUOUS
 10
200.0
 20
30.0
 11
200.0
 21
10.0
  0
TEXT
  8
NOTES
 62
5
  6
CONTINUOUS
 10
98.0
 20
13.75
  7
STANDARD
 40
5.0
  1
1:1
 41
0.8
 72
0
  0
TEXT
  8
NOTES
 62
5
  6
CONTINUOUS
 10
118.0
 20
13.75
  7
TEXTSTYLE_5
 40
4.8
  1
uni Flex SNB Wearpart Right
 41
0.6314814815
 72
0
  0
LINE
  8
0
 62
7
  6
CONTINUOUS
 10
210.0
 20
0.0
 11
0.0
 21
0.0
  0
LINE
  8
0
 62
7
  6
CONTINUOUS
 10
10.0
 20
10.0
 11
200.0
 21
10.0
  0
LINE
  8
0
 62
7
  6
CONTINUOUS
 10
10.0
 20
30.0
 11
200.0
 21
30.0
  0
LINE
  8
0
 62
7
  6
CONTINUOUS
 10
0.0
 20
0.0
 11
0.0
 21
297.0
  0
LINE
  8
0
 62
7
  6
CONTINUOUS
 10
10.0
 20
10.0
 11
10.0
 21
287.0
  0
LINE
  8
0
 62
7
  6
CONTINUOUS
 10
200.0
 20
287.0
 11
200.0
 21
10.0
  0
LINE
  8
0
 62
7
  6
CONTINUOUS
 10
210.0
 20
0.0
 11
210.0
 21
297.0
  0
LINE
  8
0
 62
7
  6
CONTINUOUS
 10
10.0
 20
287.0
 11
200.0
 21
287.0
  0
LINE
  8
0
 62
7
  6
CONTINUOUS
 10
0.0
 20
297.0
 11
210.0
 21
297.0
  0
LINE
  8
0
 62
7
  6
CONTINUOUS
 10
93.8090106007
 20
169.4858657244
 11
102.5090106007
 21
169.4858657244
  0
LINE
  8
0
 62
7
  6
CONTINUOUS
 10
92.3090106007
 20
181.9858657244
 11
92.3090106007
 21
170.9858657244
  0
LINE
  8
0
 62
2
  6
CONTINUOUS
 10
99.0390106007
 20
172.8858657244
 11
97.2790106007
 21
172.8858657244
  0
LINE
  8
DEFAULT_1
 62
7
  6
CENTER
 10
93.7590106007
 20
172.8858657244
 11
93.6090106007
 21
172.8858657244
  0
LINE
  8
DEFAULT_1
 62
7
  6
CENTER
 10
102.5590106007
 20
172.8858657244
 11
102.7090106007
 21
172.8858657244
  0
LINE
  8
0
 62
2
  6
CONTINUOUS
 10
98.1590106007
 20
180.9658657244
 11
98.1590106007
 21
179.2058657244
  0
LINE
  8
DEFAULT_1
 62
7
  6
CENTER
 10
98.1590106007
 20
175.6858657244
 11
98.1590106007
 21
175.5358657244
  0
LINE
  8
0
 62
2
  6
CONTINUOUS
 10
98.1590106007
 20
173.7658657244
 11
98.1590106007
 21
172.0058657244
  0
LINE
  8
DEFAULT_1
 62
7
  6
CENTER
 10
98.1590106007
 20
168.4858657244
 11
98.1590106007
 21
168.3358657244
  0
LINE
  8
DEFAULT_1
 62
7
  6
CENTER
 10
98.1590106007
 20
177.2858657244
 11
98.1590106007
 21
177.4358657244
  0
LINE
  8
DEFAULT_1
 62
7
  6
CENTER
 10
98.1590106007
 20
184.4858657244
 11
98.1590106007
 21
184.6358657244
  0
LINE
  8
0
 62
2
  6
CONTINUOUS
 10
99.0390106007
 20
180.0858657244
 11
97.2790106007
 21
180.0858657244
  0
LINE
  8
DEFAULT_1
 62
7
  6
CENTER
 10
93.7590106007
 20
180.0858657244
 11
93.6090106007
 21
180.0858657244
  0
LINE
  8
DEFAULT_1
 62
7
  6
CENTER
 10
102.5590106007
 20
180.0858657244
 11
102.7090106007
 21
180.0858657244
  0
LINE
  8
0
 62
7
  6
CONTINUOUS
 10
104.0090106007
 20
170.9858657244
 11
104.0090106007
 21
181.9858657244
  0
LINE
  8
0
 62
7
  6
CONTINUOUS
 10
102.5090106007
 20
183.4858657244
 11
93.8090106007
 21
183.4858657244
  0
LINE
  8
0
 62
7
  6
CONTINUOUS
 10
92.3090106007
 20
128.7874423766
 11
92.3090106007
 21
128.964664311
  0
LINE
  8
0
 62
7
  6
CONTINUOUS
 10
92.7827379251
 20
126.5587305428
 11
92.3093611674
 21
128.7857930899
  0
LINE
  8
0
 62
7
  6
CONTINUOUS
 10
93.5163486256
 20
125.964664311
 11
102.8016725758
 21
125.964664311
  0
LINE
  8
0
 62
7
  6
CONTINUOUS
 10
95.6090106007
 20
128.964664311
 11
95.6090106007
 21
134.464664311
  0
LINE
  8
0
 62
7
  6
CONTINUOUS
 10
102.5090106007
 20
128.7874423766
 11
93.8090106007
 21
128.7874423766
  0
LINE
  8
0
 62
7
  6
CONTINUOUS
 10
92.3090106007
 20
128.964664311
 11
104.0090106007
 21
128.964664311
  0
POLYLINE
  8
0
 62
7
  6
CONTINUOUS
 66
1
 70
0
  0
VERTEX
  8
0
 62
7
  6
CONTINUOUS
 10
93.7765825685
 20
128.7857930899
  0
VERTEX
  8
0
 62
7
  6
CONTINUOUS
 10
93.4917910827
 20
128.7596716503
  0
VERTEX
  8
0
 62
7
  6
CONTINUOUS
 10
93.2192675138
 20
128.7403673445
  0
VERTEX
  8
0
 62
7
  6
CONTINUOUS
 10
92.9684891904
 20
128.7285176785
  0
VERTEX
  8
0
 62
7
  6
CONTINUOUS
 10
92.7483504289
 20
128.724523529
  0
VERTEX
  8
0
 62
7
  6
CONTINUOUS
 10
92.5666242845
 20
128.7285176785
  0
VERTEX
  8
0
 62
7
  6
CONTINUOUS
 10
92.4298068118
 20
128.7403673445
  0
VERTEX
  8
0
 62
7
  6
CONTINUOUS
 10
92.3429370086
 20
128.7596716503
  0
VERTEX
  8
0
 62
7
  6
CONTINUOUS
 10
92.3093611674
 20
128.7857930899
  0
SEQEND
  0
POLYLINE
  8
0
 62
7
  6
CONTINUOUS
 66
1
 70
0
  0
VERTEX
  8
0
 62
7
  6
CONTINUOUS
 10
93.7765825685
 20
128.7857930899
  0
VERTEX
  8
0
 62
7
  6
CONTINUOUS
 10
93.7874166743
 20
128.7867110861
  0
VERTEX
  8
0
 62
7
  6
CONTINUOUS
 10
93.7982210582
 20
128.7872598123
  0
VERTEX
  8
0
 62
7
  6
CONTINUOUS
 10
93.8090106007
 20
128.7874423766
  0
SEQEND
  0
POLYLINE
  8
0
 62
7
  6
CONTINUOUS
 66
1
 70
0
  0
VERTEX
  8
0
 62
7
  6
CONTINUOUS
 10
102.5414386329
 20
128.7857930899
  0
VERTEX
  8
0
 62
7
  6
CONTINUOUS
 10
102.5306045272
 20
128.7867110861
  0
VERTEX
  8
0
 62
7
  6
CONTINUOUS
 10
102.5198001432
 20
128.7872598123
  0
VERTEX
  8
0
 62
7
  6
CONTINUOUS
 10
102.5090106007
 20
128.7874423766
  0
SEQEND
  0
POLYLINE
  8
0
 62
7
  6
CONTINUOUS
 66
1
 70
0
  0
VERTEX
  8
0
 62
7
  6
CONTINUOUS
 10
102.5414386329
 20
128.7857930899
  0
VERTEX
  8
0
 62
7
  6
CONTINUOUS
 10
102.8262301187
 20
128.7596716503
  0
VERTEX
  8
0
 62
7
  6
CONTINUOUS
 10
103.0987536877
 20
128.7403673445
  0
VERTEX
  8
0
 62
7
  6
CONTINUOUS
 10
103.349532011
 20
128.7285176785
  0
VERTEX
  8
0
 62
7
  6
CONTINUOUS
 10
103.5696707725
 20
128.724523529
  0
VERTEX
  8
0
 62
7
  6
CONTINUOUS
 10
103.751396917
 20
128.7285176785
  0
VERTEX
  8
0
 62
7
  6
CONTINUOUS
 10
103.8882143896
 20
128.7403673445
  0
VERTEX
  8
0
 62
7
  6
CONTINUOUS
 10
103.9750841928
 20
128.7596716503
  0
VERTEX
  8
0
 62
7
  6
CONTINUOUS
 10
104.008660034
 20
128.7857930899
  0
SEQEND
  0
LINE
  8
DEFAULT_1
 62
7
  6
CENTER
 10
98.1590106007
 20
126.964664311
 11
98.1590106007
 21
136.464664311
  0
LINE
  8
0
 62
7
  6
CONTINUOUS
 10
100.7090106007
 20
128.964664311
 11
100.7090106007
 21
134.464664311
  0
LINE
  8
0
 62
7
  6
CONTINUOUS
 10
96.1090106007
 20
134.964664311
 11
100.2090106007
 21
134.964664311
  0
LINE
  8
0
 62
7
  6
CONTINUOUS
 10
104.0090106007
 20
128.7874423766
 11
104.0090106007
 21
128.964664311
  0
LINE
  8
0
 62
7
  6
CONTINUOUS
 10
104.008660034
 20
128.7857930899
 11
103.5352832764
 21
126.5587305428
  0
LINE
  8
0
 62
7
  6
CONTINUOUS
 10
146.2736886533
 20
169.4862162911
 11
148.5007512004
 21
169.9595930487
  0
LINE
  8
0
 62
7
  6
CONTINUOUS
 10
146.2720393666
 20
169.4858657244
 11
146.0948174323
 21
169.4858657244
  0
LINE
  8
0
 62
7
  6
CONTINUOUS
 10
146.0948174323
 20
170.3358657244
 11
140.5948174323
 21
170.3358657244
  0
LINE
  8
0
 62
7
  6
CONTINUOUS
 10
140.0948174323
 20
170.8359218444
 11
140.0948174323
 21
182.1358096044
  0
LINE
  8
DEFAULT_1
 62
7
  6
CENTER
 10
138.5948174323
 20
172.8858657244
 11
148.0948174323
 21
172.8858657244
  0
LINE
  8
0
 62
7
  6
CONTINUOUS
 10
141.8948174323
 20
180.0858657244
 11
141.8948174323
 21
172.8858657244
  0
LINE
  8
0
 62
7
  6
CONTINUOUS
 10
144.1948174323
 20
173.4858657244
 11
141.8948174323
 21
173.4858657244
  0
LINE
  8
0
 62
7
  6
CONTINUOUS
 10
146.0948174323
 20
175.4358657244
 11
144.1948174323
 21
175.4358657244
  0
LINE
  8
0
 62
7
  6
CONTINUOUS
 10
144.1948174323
 20
173.4858657244
 11
144.1948174323
 21
175.4358657244
  0
LINE
  8
0
 62
7
  6
CONTINUOUS
 10
144.1948174323
 20
177.5358657244
 11
144.1948174323
 21
179.4858657244
  0
LINE
  8
0
 62
7
  6
CONTINUOUS
 10
146.0948174323
 20
177.5358657244
 11
144.1948174323
 21
177.5358657244
  0
POLYLINE
  8
0
 62
7
  6
CONTINUOUS
 66
1
 70
0
  0
VERTEX
  8
0
 62
7
  6
CONTINUOUS
 10
146.2736886533
 20
170.9534376922
  0
VERTEX
  8
0
 62
7
  6
CONTINUOUS
 10
146.2727706571
 20
170.9642717979
  0
VERTEX
  8
0
 62
7
  6
CONTINUOUS
 10
146.2722219309
 20
170.9750761819
  0
VERTEX
  8
0
 62
7
  6
CONTINUOUS
 10
146.2720393666
 20
170.9858657244
  0
SEQEND
  0
LINE
  8
0
 62
7
  6
CONTINUOUS
 10
146.0948174323
 20
169.4858657244
 11
146.0948174323
 21
183.4858657244
  0
LINE
  8
0
 62
7
  6
CONTINUOUS
 10
146.2720393666
 20
181.9858657244
 11
146.2720393666
 21
170.9858657244
  0
POLYLINE
  8
0
 62
7
  6
CONTINUOUS
 66
1
 70
0
  0
VERTEX
  8
0
 62
7
  6
CONTINUOUS
 10
146.2736886533
 20
182.0182937566
  0
VERTEX
  8
0
 62
7
  6
CONTINUOUS
 10
146.2727706571
 20
182.0074596508
  0
VERTEX
  8
0
 62
7
  6
CONTINUOUS
 10
146.2722219309
 20
181.9966552669
  0
VERTEX
  8
0
 62
7
  6
CONTINUOUS
 10
146.2720393666
 20
181.9858657244
  0
SEQEND
  0
LINE
  8
0
 62
7
  6
CONTINUOUS
 10
144.1948174323
 20
179.4858657244
 11
141.8948174323
 21
179.4858657244
  0
LINE
  8
DEFAULT_1
 62
7
  6
CENTER
 10
138.5948174323
 20
180.0858657244
 11
148.0948174323
 21
180.0858657244
  0
LINE
  8
0
 62
7
  6
CONTINUOUS
 10
149.0948174323
 20
170.6932037493
 11
149.0948174323
 21
182.2785276995
  0
POLYLINE
  8
0
 62
7
  6
CONTINUOUS
 66
1
 70
0
  0
VERTEX
  8
0
 62
7
  6
CONTINUOUS
 10
146.2736886533
 20
169.4862162911
  0
VERTEX
  8
0
 62
7
  6
CONTINUOUS
 10
146.2998100929
 20
169.5197921323
  0
VERTEX
  8
0
 62
7
  6
CONTINUOUS
 10
146.3191143987
 20
169.6066619355
  0
VERTEX
  8
0
 62
7
  6
CONTINUOUS
 10
146.3309640647
 20
169.7434794081
  0
VERTEX
  8
0
 62
7
  6
CONTINUOUS
 10
146.3349582143
 20
169.9252055526
  0
VERTEX
  8
0
 62
7
  6
CONTINUOUS
 10
146.3309640647
 20
170.1453443141
  0
VERTEX
  8
0
 62
7
  6
CONTINUOUS
 10
146.3191143987
 20
170.3961226374
  0
VERTEX
  8
0
 62
7
  6
CONTINUOUS
 10
146.2998100929
 20
170.6686462064
  0
VERTEX
  8
0
 62
7
  6
CONTINUOUS
 10
146.2736886533
 20
170.9534376922
  0
SEQEND
  0
LINE
  8
0
 62
7
  6
CONTINUOUS
 10
146.0948174323
 20
182.6358657244
 11
140.5948174323
 21
182.6358657244
  0
POLYLINE
  8
0
 62
7
  6
CONTINUOUS
 66
1
 70
0
  0
VERTEX
  8
0
 62
7
  6
CONTINUOUS
 10
146.2736886533
 20
183.4855151577
  0
VERTEX
  8
0
 62
7
  6
CONTINUOUS
 10
146.2998100929
 20
183.4519393165
  0
VERTEX
  8
0
 62
7
  6
CONTINUOUS
 10
146.3191143987
 20
183.3650695133
  0
VERTEX
  8
0
 62
7
  6
CONTINUOUS
 10
146.3309640647
 20
183.2282520406
  0
VERTEX
  8
0
 62
7
  6
CONTINUOUS
 10
146.3349582143
 20
183.0465258962
  0
VERTEX
  8
0
 62
7
  6
CONTINUOUS
 10
146.3309640647
 20
182.8263871347
  0
VERTEX
  8
0
 62
7
  6
CONTINUOUS
 10
146.3191143987
 20
182.5756088113
  0
VERTEX
  8
0
 62
7
  6
CONTINUOUS
 10
146.2998100929
 20
182.3030852424
  0
VERTEX
  8
0
 62
7
  6
CONTINUOUS
 10
146.2736886533
 20
182.0182937566
  0
SEQEND
  0
LINE
  8
0
 62
7
  6
CONTINUOUS
 10
146.2720393666
 20
183.4858657244
 11
146.0948174323
 21
183.4858657244
  0
LINE
  8
0
 62
7
  6
CONTINUOUS
 10
148.5007512004
 20
183.0121384
 11
146.2736886533
 21
183.4855151577
  0
ARC
  8
0
 62
7
  6
CONTINUOUS
 10
93.8090106007
 20
181.9858657244
 40
1.5
 50
90.0
 51
180.0
  0
ARC
  8
0
 62
7
  6
CONTINUOUS
 10
93.8090106007
 20
170.9858657244
 40
1.5
 50
180.0
 51
270.0
  0
ARC
  8
0
 62
7
  6
CONTINUOUS
 10
102.5090106007
 20
170.9858657244
 40
1.5
 50
270.0
 51
360.0
  0
ARC
  8
0
 62
7
  6
CONTINUOUS
 10
102.5090106007
 20
181.9858657244
 40
1.5
 50
0.0
 51
90.0
  0
ARC
  8
0
 62
7
  6
CONTINUOUS
 10
93.5163486256
 20
126.714664311
 40
0.75
 50
192.0
 51
270.0
  0
ARC
  8
0
 62
7
  6
CONTINUOUS
 10
96.1090106007
 20
134.464664311
 40
0.5
 50
90.0
 51
180.0
  0
ARC
  8
0
 62
7
  6
CONTINUOUS
 10
102.8016712035
 20
126.714664311
 40
0.75
 50
270.0001048356
 51
348.0000217965
  0
ARC
  8
0
 62
7
  6
CONTINUOUS
 10
100.2090106007
 20
134.464664311
 40
0.5
 50
0.0
 51
90.0
  0
ARC
  8
0
 62
7
  6
CONTINUOUS
 10
148.3448174323
 20
170.6932051216
 40
0.75
 50
281.9999782035
 51
359.9998951644
  0
ARC
  8
0
 62
7
  6
CONTINUOUS
 10
148.3448174323
 20
182.2785263272
 40
0.75
 50
0.0001048356
 51
78.0000217965
  0
ARC
  8
0
 62
7
  6
CONTINUOUS
 10
140.5948174323
 20
170.8358657244
 40
0.5
 50
180.0
 51
270.0
  0
ARC
  8
0
 62
7
  6
CONTINUOUS
 10
140.5948174323
 20
182.1358657244
 40
0.5
 50
90.0
 51
180.0
  0
ENDSEC
  0
EOF
