  0
SECTION
  2
HEADER
  9
$EXTMAX
 10
210.0
 20
297.0
 30
0.0
  9
$EXTMIN
 10
0.0
 20
0.0
 30
0.0
  9
$LIMMIN
 10
0.0
 20
0.0
  9
$LIMMAX
 10
210.0
 20
297.0
  9
$VIEWCTR
 10
105.0
 20
148.5
  9
$VIEWSIZE
 40
297.0
  9
$CLAYER
  8
0
  9
$LTSCALE
 40
19.36
  9
$CELTYPE
  6
BYLAYER
  9
$DIMSCALE
 40
1.0
  9
$DIMASZ
 40
3.5
  9
$DIMEXO
 40
2.2
  9
$DIMDLI
 40
13.376
  9
$DIMEXE
 40
6.336
  9
$DIMCEN
 40
3.168
  9
$DIMLFAC
 40
1.0
  9
$DIMBLK
  1
_FILLED
  9
$DIMTXT
 40
3.5
  9
$PDMODE
 70
3
  9
$PDSIZE
 40
0.3125
  9
$TILEMODE
 70
1
  0
ENDSEC
  0
SECTION
  2
TABLES
  0
TABLE
  2
LTYPE
 70
6
  0
LTYPE
  2
BYBLOCK
 70
0
  3

 72
65
 73
0
 40
0.0
  0
LTYPE
  2
BYLAYER
 70
0
  3

 72
65
 73
0
 40
0.0
  0
LTYPE
  2
CONTINUOUS
 70
64
  3
Solid line
 72
65
 73
0
 40
0.0
  0
LTYPE
  2
CENTER
 70
64
  3
____ _ ____ _ ____ _ ____ _ ____ _ ____ _ ____
 72
65
 73
4
 40
0.6
 49
0.375
 49
-0.075
 49
0.075
 49
-0.075
  0
LTYPE
  2
HIDDEN
 70
64
  3
- - - - - - - - - - - - - - - - - - - -
 72
65
 73
2
 40
0.2
 49
0.1
 49
-0.1
  0
LTYPE
  2
PHANTOM
 70
64
  3
_____ _ _ _____ _ _ _____ _ _ _____
 72
65
 73
6
 40
0.8
 49
0.45
 49
-0.05
 49
0.1
 49
-0.05
 49
0.1
 49
-0.05
  0
LTYPE
  2
DOT
 70
64
  3
. . . . . . . . . . . . . . . . . . . .
 72
65
 73
2
 40
0.2
 49
0.1
 49
-0.1
  0
LTYPE
  2
DASHED
 70
64
  3
- - - - - - - - - - - - - - - - - - - -
 72
65
 73
2
 40
0.2
 49
0.1
 49
-0.1
  0
ENDTAB
  0
TABLE
  2
LAYER
 70
36
  0
LAYER
  2
0
 70
0
 62
7
  6
CONTINUOUS
  0
LAYER
  2
DEFAULT_1
 70
0
 62
7
  6
CENTER
  0
LAYER
  2
DEFAULT_2
 70
0
 62
8
  6
HIDDEN
  0
LAYER
  2
DEFAULT_3
 70
0
 62
7
  6
PHANTOM
  0
LAYER
  2
NOTES
 70
0
 62
7
  6
CONTINUOUS
  0
LAYER
  2
SUF
 70
0
 62
7
  6
CONTINUOUS
  0
LAYER
  2
SUF1
 70
0
 62
7
  6
CONTINUOUS
  0
ENDTAB
  0
TABLE
  2
STYLE
 70
1
  0
STYLE
  2
STANDARD
 70
0
 40
0.0
 41
0.8
 50
0.0
 71
0
 42
0.2
  3
txt
  4

  0
STYLE
  2
TEXTSTYLE_1
 70
0
 40
0.0
 41
0.8
 50
0.0
 71
0
 42
0.2
  3
gdt
  4

  0
STYLE
  2
TEXTSTYLE_2
 70
0
 40
0.0
 41
0.6
 50
0.0
 71
0
 42
0.2
  3
txt
  4

  0
STYLE
  2
TEXTSTYLE_3
 70
0
 40
0.0
 41
1.0
 50
0.0
 71
0
 42
0.2
  3
ftb_____.ttf
  4

  0
STYLE
  2
TEXTSTYLE_4
 70
0
 40
0.0
 41
1.0
 50
0.0
 71
0
 42
0.2
  3
fti_____.ttf
  4

  0
STYLE
  2
TEXTSTYLE_5
 70
0
 40
0.0
 41
1.0
 50
0.0
 71
0
 42
0.2
  3
frutiger light.ttf
  4

  0
STYLE
  2
TEXTSTYLE_6
 70
0
 40
0.0
 41
0.7
 50
0.0
 71
0
 42
0.2
  3
txt
  4

  0
STYLE
  2
TEXTSTYLE_7
 70
0
 40
0.0
 41
0.5
 50
0.0
 71
0
 42
0.2
  3
txt
  4

  0
ENDTAB
  0
ENDSEC
  0
SECTION
  2
BLOCKS
  0
BLOCK
  8
0
 62
2
  6
CONTINUOUS
  2
SYMBOL_8_BL1
 70
64
 10
173.5956734183
 20
35.5426498779
  0
TEXT
  8
0
 62
7
  6
CONTINUOUS
 10
164.6539584268
 20
30.6865562072
  7
TEXTSTYLE_4
 40
1.0655737705
  1
The brand for plastic modular belts and chains
 41
1.0
 72
0
  0
LINE
  8
0
 62
7
  6
CONTINUOUS
 10
149.5737418074
 20
36.1675703219
 11
149.5737418074
 21
34.0364227809
  0
LINE
  8
0
 62
7
  6
CONTINUOUS
 10
149.8628043005
 20
31.0454914852
 11
149.8628043005
 21
31.1422825445
  0
LINE
  8
0
 62
7
  6
CONTINUOUS
 10
149.5737418074
 20
31.1100188581
 11
149.6315543091
 21
30.9164367395
  0
LINE
  8
0
 62
7
  6
CONTINUOUS
 10
150.9671844304
 20
33.9544555678
 11
150.9671844304
 21
36.1675703219
  0
LINE
  8
0
 62
7
  6
CONTINUOUS
 10
151.8862417523
 20
32.1101932727
 11
151.8862417523
 21
30.5937998301
  0
LINE
  8
0
 62
7
  6
CONTINUOUS
 10
152.1753043074
 20
30.5937998301
 11
152.1753043074
 21
31.3358647082
  0
LINE
  8
0
 62
7
  6
CONTINUOUS
 10
152.1753043074
 20
31.4649194539
 11
152.1753043074
 21
32.1101932727
  0
LINE
  8
0
 62
7
  6
CONTINUOUS
 10
149.6315543091
 20
31.3036010218
 11
149.5737418074
 21
31.1100188581
  0
LINE
  8
0
 62
7
  6
CONTINUOUS
 10
149.9784292936
 20
30.8841730531
 11
149.8628043005
 21
31.0454914852
  0
LINE
  8
0
 62
7
  6
CONTINUOUS
 10
151.0768668626
 20
31.400392081
 11
151.1346793074
 21
31.3036010218
  0
LINE
  8
0
 62
7
  6
CONTINUOUS
 10
151.4237418626
 20
31.3036010218
 11
151.3659292523
 21
31.4326557675
  0
LINE
  8
0
 62
7
  6
CONTINUOUS
 10
152.852430332
 20
36.1675703219
 11
152.852430332
 21
34.3642916334
  0
LINE
  8
0
 62
7
  6
CONTINUOUS
 10
152.852430332
 20
33.0528162235
 11
152.852430332
 21
32.3970785186
  0
LINE
  8
0
 62
7
  6
CONTINUOUS
 10
153.2159293074
 20
31.2390736489
 11
153.2159293074
 21
30.5937998301
  0
LINE
  8
0
 62
7
  6
CONTINUOUS
 10
153.5049916972
 20
30.5937998301
 11
153.5049916972
 21
31.2390736489
  0
LINE
  8
0
 62
7
  6
CONTINUOUS
 10
149.8628043005
 20
31.1422825445
 11
149.9206168074
 21
31.2713373354
  0
LINE
  8
0
 62
7
  6
CONTINUOUS
 10
149.6315543091
 20
30.9164367395
 11
149.7471793074
 21
30.7873819712
  0
LINE
  8
0
 62
7
  6
CONTINUOUS
 10
153.1581166972
 20
31.3681283946
 11
153.2159293074
 21
31.2390736489
  0
LINE
  8
0
 62
7
  6
CONTINUOUS
 10
153.9674919177
 20
30.8841730531
 11
154.0253041972
 21
30.7551182848
  0
LINE
  8
0
 62
7
  6
CONTINUOUS
 10
153.5049916972
 20
31.2390736489
 11
153.4471794177
 21
31.400392081
  0
LINE
  8
0
 62
7
  6
CONTINUOUS
 10
153.9674919177
 20
31.4326557675
 11
153.9674919177
 21
31.3681283946
  0
LINE
  8
0
 62
7
  6
CONTINUOUS
 10
153.9674919177
 20
30.9809641124
 11
153.9674919177
 21
30.8841730531
  0
LINE
  8
0
 62
7
  6
CONTINUOUS
 10
154.245872955
 20
32.3970785186
 11
154.245872955
 21
36.1675703219
  0
LINE
  8
0
 62
7
  6
CONTINUOUS
 10
154.2565543074
 20
30.8519093441
 11
154.2565543074
 21
30.9164367395
  0
LINE
  8
0
 62
7
  6
CONTINUOUS
 10
154.5737418074
 20
36.1675703219
 11
154.5737418074
 21
32.3970785186
  0
LINE
  8
0
 62
7
  6
CONTINUOUS
 10
151.3659292523
 20
30.7873819712
 11
151.4237418626
 21
30.9164367395
  0
LINE
  8
0
 62
7
  6
CONTINUOUS
 10
155.759679528
 20
30.6905909007
 11
155.7018665869
 21
30.8519093441
  0
LINE
  8
0
 62
7
  6
CONTINUOUS
 10
155.412804528
 20
31.3681283946
 11
155.412804528
 21
31.2713373354
  0
LINE
  8
0
 62
7
  6
CONTINUOUS
 10
155.412804528
 20
31.1422825445
 11
155.412804528
 21
30.9487004259
  0
LINE
  8
0
 62
7
  6
CONTINUOUS
 10
155.7018665869
 20
30.8519093441
 11
155.7018665869
 21
31.3681283946
  0
LINE
  8
0
 62
7
  6
CONTINUOUS
 10
155.9671844304
 20
32.3970785186
 11
155.9671844304
 21
34.2003572071
  0
LINE
  8
0
 62
7
  6
CONTINUOUS
 10
155.9671844304
 20
35.511832617
 11
155.9671844304
 21
36.1675703219
  0
LINE
  8
0
 62
7
  6
CONTINUOUS
 10
156.279992028
 20
32.1101932727
 11
156.279992028
 21
31.9488748406
  0
LINE
  8
0
 62
7
  6
CONTINUOUS
 10
156.279992028
 20
31.626237886
 11
156.279992028
 21
30.5937998301
  0
LINE
  8
0
 62
7
  6
CONTINUOUS
 10
156.5690540869
 20
30.5937998301
 11
156.5690540869
 21
31.626237886
  0
LINE
  8
0
 62
7
  6
CONTINUOUS
 10
156.5690540869
 20
31.9488748406
 11
156.5690540869
 21
32.1101932727
  0
LINE
  8
0
 62
7
  6
CONTINUOUS
 10
151.1346793074
 20
30.9164367395
 11
151.0768668626
 21
30.8196456577
  0
LINE
  8
0
 62
7
  6
CONTINUOUS
 10
153.4471794177
 20
31.400392081
 11
153.3893668074
 21
31.4649194539
  0
LINE
  8
0
 62
7
  6
CONTINUOUS
 10
154.3143669177
 20
30.7873819712
 11
154.2565543074
 21
30.8519093441
  0
LINE
  8
0
 62
7
  6
CONTINUOUS
 10
155.4706168074
 20
30.6583272086
 11
155.5284290869
 21
30.5937998301
  0
LINE
  8
0
 62
7
  6
CONTINUOUS
 10
155.412804528
 20
30.7551182848
 11
155.4706168074
 21
30.6583272086
  0
LINE
  8
0
 62
7
  6
CONTINUOUS
 10
155.8174918074
 20
30.5937998301
 11
155.759679528
 21
30.6905909007
  0
LINE
  8
0
 62
7
  6
CONTINUOUS
 10
155.7018665869
 20
31.3681283946
 11
155.6440543074
 21
31.4649194539
  0
LINE
  8
0
 62
7
  6
CONTINUOUS
 10
157.0315543074
 20
31.626237886
 11
157.0315543074
 21
30.5937998301
  0
LINE
  8
0
 62
7
  6
CONTINUOUS
 10
157.320617028
 20
30.5937998301
 11
157.320617028
 21
31.3358647082
  0
LINE
  8
0
 62
7
  6
CONTINUOUS
 10
157.320617028
 20
31.4649194539
 11
157.320617028
 21
31.626237886
  0
LINE
  8
0
 62
7
  6
CONTINUOUS
 10
157.852430332
 20
34.6101932727
 11
157.852430332
 21
32.3970785186
  0
LINE
  8
0
 62
7
  6
CONTINUOUS
 10
149.7471793074
 20
31.4326557675
 11
149.6315543091
 21
31.3036010218
  0
LINE
  8
0
 62
7
  6
CONTINUOUS
 10
149.9206168074
 20
31.2713373354
 11
149.9784292936
 21
31.3358647082
  0
LINE
  8
0
 62
7
  6
CONTINUOUS
 10
149.7471793074
 20
30.7873819712
 11
149.8628043005
 21
30.7228545871
  0
LINE
  8
0
 62
7
  6
CONTINUOUS
 10
150.1518667936
 20
30.7873819712
 11
149.9784292936
 21
30.8841730531
  0
LINE
  8
0
 62
7
  6
CONTINUOUS
 10
155.3549915869
 20
31.4326557675
 11
155.412804528
 21
31.3681283946
  0
LINE
  8
0
 62
7
  6
CONTINUOUS
 10
158.3034290869
 20
31.3681283946
 11
158.361242028
 21
31.2068099625
  0
LINE
  8
0
 62
7
  6
CONTINUOUS
 10
158.6503040869
 20
31.2068099625
 11
158.5924918074
 21
31.3681283946
  0
LINE
  8
0
 62
7
  6
CONTINUOUS
 10
158.361242028
 20
31.2068099625
 11
158.361242028
 21
30.5937998301
  0
LINE
  8
0
 62
7
  6
CONTINUOUS
 10
158.6503040869
 20
30.5937998301
 11
158.6503040869
 21
31.2068099625
  0
LINE
  8
0
 62
7
  6
CONTINUOUS
 10
159.1128043074
 20
31.4326557675
 11
159.1128043074
 21
31.3681283946
  0
LINE
  8
0
 62
7
  6
CONTINUOUS
 10
159.245872955
 20
32.3970785186
 11
159.245872955
 21
34.5282260596
  0
LINE
  8
0
 62
7
  6
CONTINUOUS
 10
159.5737418074
 20
36.1675703219
 11
159.5737418074
 21
32.3970785186
  0
LINE
  8
0
 62
7
  6
CONTINUOUS
 10
154.2565543074
 20
30.9164367395
 11
154.3143669177
 21
31.0132277988
  0
LINE
  8
0
 62
7
  6
CONTINUOUS
 10
149.8628043005
 20
30.7228545871
 11
150.0362418212
 21
30.6583272086
  0
LINE
  8
0
 62
7
  6
CONTINUOUS
 10
151.3659292523
 20
31.4326557675
 11
151.1924917523
 21
31.5294468267
  0
LINE
  8
0
 62
7
  6
CONTINUOUS
 10
154.0253041972
 20
30.7551182848
 11
154.1987416972
 21
30.6583272086
  0
LINE
  8
0
 62
7
  6
CONTINUOUS
 10
153.0424918074
 20
31.4326557675
 11
153.1581166972
 21
31.3681283946
  0
LINE
  8
0
 62
7
  6
CONTINUOUS
 10
153.3893668074
 20
31.4649194539
 11
153.2737419177
 21
31.5294468267
  0
LINE
  8
0
 62
7
  6
CONTINUOUS
 10
159.1128043074
 20
30.8519093441
 11
159.228429528
 21
30.7228545871
  0
LINE
  8
0
 62
7
  6
CONTINUOUS
 10
159.4596793074
 20
30.7873819712
 11
159.401867028
 21
30.8519093441
  0
LINE
  8
0
 62
7
  6
CONTINUOUS
 10
159.1128043074
 20
31.3681283946
 11
159.228429528
 21
31.2390736489
  0
LINE
  8
0
 62
7
  6
CONTINUOUS
 10
158.5924918074
 20
31.3681283946
 11
158.534679528
 21
31.4649194539
  0
LINE
  8
0
 62
7
  6
CONTINUOUS
 10
160.9628038663
 20
30.7873819712
 11
160.9628038663
 21
30.8519093441
  0
LINE
  8
0
 62
7
  6
CONTINUOUS
 10
160.9671844304
 20
32.3970785186
 11
160.9671844304
 21
36.1675703219
  0
LINE
  8
0
 62
7
  6
CONTINUOUS
 10
154.0253041972
 20
31.4971831403
 11
153.9674919177
 21
31.4326557675
  0
LINE
  8
0
 62
7
  6
CONTINUOUS
 10
150.9034292799
 20
31.4649194539
 11
151.0768668626
 21
31.400392081
  0
LINE
  8
0
 62
7
  6
CONTINUOUS
 10
155.6440543074
 20
31.4649194539
 11
155.5284290869
 21
31.5294468267
  0
LINE
  8
0
 62
7
  6
CONTINUOUS
 10
159.4596793074
 20
31.3036010218
 11
159.401867028
 21
31.3681283946
  0
LINE
  8
0
 62
7
  6
CONTINUOUS
 10
160.615929528
 20
30.9164367395
 11
160.6737418074
 21
30.8519093441
  0
LINE
  8
0
 62
7
  6
CONTINUOUS
 10
160.9628038663
 20
30.8519093441
 11
160.8471793074
 21
30.9809641124
  0
LINE
  8
0
 62
7
  6
CONTINUOUS
 10
160.615929528
 20
31.4326557675
 11
160.6737418074
 21
31.3681283946
  0
LINE
  8
0
 62
7
  6
CONTINUOUS
 10
160.9628038663
 20
31.3681283946
 11
160.8471793074
 21
31.4971831403
  0
LINE
  8
0
 62
7
  6
CONTINUOUS
 10
154.2565543074
 20
31.3681283946
 11
154.3143669177
 21
31.4326557675
  0
LINE
  8
0
 62
7
  6
CONTINUOUS
 10
154.0831168074
 20
31.1100188581
 11
153.9674919177
 21
30.9809641124
  0
LINE
  8
0
 62
7
  6
CONTINUOUS
 10
155.412804528
 20
30.9487004259
 11
155.3549915869
 21
30.8841730531
  0
LINE
  8
0
 62
7
  6
CONTINUOUS
 10
155.3549915869
 20
30.6905909007
 11
155.412804528
 21
30.7551182848
  0
LINE
  8
0
 62
7
  6
CONTINUOUS
 10
154.1987416972
 20
30.6583272086
 11
154.3143669177
 21
30.6260635193
  0
LINE
  8
0
 62
7
  6
CONTINUOUS
 10
151.1924917523
 20
31.5294468267
 11
150.9612418074
 21
31.5939741996
  0
LINE
  8
0
 62
7
  6
CONTINUOUS
 10
154.5456166972
 20
30.7228545871
 11
154.3143669177
 21
30.7873819712
  0
LINE
  8
0
 62
7
  6
CONTINUOUS
 10
153.2737419177
 20
31.5294468267
 11
153.1003044177
 21
31.5939741996
  0
LINE
  8
0
 62
7
  6
CONTINUOUS
 10
155.5284290869
 20
31.5294468267
 11
155.3549915869
 21
31.5939741996
  0
LINE
  8
0
 62
7
  6
CONTINUOUS
 10
158.187804528
 20
31.4326557675
 11
158.3034290869
 21
31.3681283946
  0
LINE
  8
0
 62
7
  6
CONTINUOUS
 10
158.534679528
 20
31.4649194539
 11
158.4190543074
 21
31.5294468267
  0
LINE
  8
0
 62
7
  6
CONTINUOUS
 10
150.0362418212
 20
30.6583272086
 11
150.2096793212
 21
30.6260635193
  0
LINE
  8
0
 62
7
  6
CONTINUOUS
 10
150.498741835
 20
30.7228545871
 11
150.1518667936
 21
30.7873819712
  0
LINE
  8
0
 62
7
  6
CONTINUOUS
 10
152.9268669177
 20
31.4649194539
 11
153.0424918074
 21
31.4326557675
  0
LINE
  8
0
 62
7
  6
CONTINUOUS
 10
155.239367028
 20
31.4649194539
 11
155.3549915869
 21
31.4326557675
  0
LINE
  8
0
 62
7
  6
CONTINUOUS
 10
159.575304528
 20
30.7551182848
 11
159.4596793074
 21
30.7873819712
  0
LINE
  8
0
 62
7
  6
CONTINUOUS
 10
158.0721793074
 20
31.4649194539
 11
158.187804528
 21
31.4326557675
  0
LINE
  8
0
 62
7
  6
CONTINUOUS
 10
159.228429528
 20
30.7228545871
 11
159.401867028
 21
30.6583272086
  0
LINE
  8
0
 62
7
  6
CONTINUOUS
 10
158.4190543074
 20
31.5294468267
 11
158.2456168074
 21
31.5939741996
  0
LINE
  8
0
 62
7
  6
CONTINUOUS
 10
159.6331168074
 20
31.2390736489
 11
159.4596793074
 21
31.3036010218
  0
LINE
  8
0
 62
7
  6
CONTINUOUS
 10
160.442492028
 20
30.9809641124
 11
160.615929528
 21
30.9164367395
  0
LINE
  8
0
 62
7
  6
CONTINUOUS
 10
160.8471793074
 20
31.4971831403
 11
160.6737418074
 21
31.5617105132
  0
LINE
  8
0
 62
7
  6
CONTINUOUS
 10
159.228429528
 20
31.2390736489
 11
159.4596793074
 21
31.1422825445
  0
LINE
  8
0
 62
7
  6
CONTINUOUS
 10
160.8471793074
 20
30.9809641124
 11
160.615929528
 21
31.0777551716
  0
LINE
  8
0
 62
7
  6
CONTINUOUS
 10
159.401867028
 20
31.3681283946
 11
159.4596793074
 21
31.4326557675
  0
LINE
  8
0
 62
7
  6
CONTINUOUS
 10
149.8628043005
 20
31.4971831403
 11
149.7471793074
 21
31.4326557675
  0
LINE
  8
0
 62
7
  6
CONTINUOUS
 10
149.9784292936
 20
31.3358647082
 11
150.1518667936
 21
31.4326557675
  0
LINE
  8
0
 62
7
  6
CONTINUOUS
 10
152.2909293626
 20
31.5294468267
 11
152.1753043074
 21
31.4649194539
  0
LINE
  8
0
 62
7
  6
CONTINUOUS
 10
152.1753043074
 20
31.3358647082
 11
152.2909293626
 21
31.400392081
  0
LINE
  8
0
 62
7
  6
CONTINUOUS
 10
151.1924917523
 20
30.6905909007
 11
151.3659292523
 21
30.7873819712
  0
LINE
  8
0
 62
7
  6
CONTINUOUS
 10
150.2096793212
 20
30.6260635193
 11
150.5565542799
 21
30.5937998301
  0
LINE
  8
0
 62
7
  6
CONTINUOUS
 10
154.3143669177
 20
30.6260635193
 11
154.5456166972
 21
30.5937998301
  0
LINE
  8
0
 62
7
  6
CONTINUOUS
 10
152.6956168074
 20
31.4971831403
 11
152.9268669177
 21
31.4649194539
  0
LINE
  8
0
 62
7
  6
CONTINUOUS
 10
155.0081169177
 20
31.4971831403
 11
155.239367028
 21
31.4649194539
  0
LINE
  8
0
 62
7
  6
CONTINUOUS
 10
159.4596793074
 20
31.1422825445
 11
160.442492028
 21
30.9809641124
  0
LINE
  8
0
 62
7
  6
CONTINUOUS
 10
160.615929528
 20
31.0777551716
 11
159.6331168074
 21
31.2390736489
  0
LINE
  8
0
 62
7
  6
CONTINUOUS
 10
153.1003044177
 20
31.5939741996
 11
152.9268669177
 21
31.626237886
  0
LINE
  8
0
 62
7
  6
CONTINUOUS
 10
159.401867028
 20
30.6583272086
 11
159.575304528
 21
30.6260635193
  0
LINE
  8
0
 62
7
  6
CONTINUOUS
 10
158.2456168074
 20
31.5939741996
 11
158.0721793074
 21
31.626237886
  0
LINE
  8
0
 62
7
  6
CONTINUOUS
 10
160.5003043074
 20
31.4649194539
 11
160.615929528
 21
31.4326557675
  0
LINE
  8
0
 62
7
  6
CONTINUOUS
 10
160.6737418074
 20
30.8519093441
 11
160.615929528
 21
30.7873819712
  0
LINE
  8
0
 62
7
  6
CONTINUOUS
 10
159.228429528
 20
31.5294468267
 11
159.1128043074
 21
31.4326557675
  0
LINE
  8
0
 62
7
  6
CONTINUOUS
 10
154.1409294177
 20
31.5617105132
 11
154.0253041972
 21
31.4971831403
  0
LINE
  8
0
 62
7
  6
CONTINUOUS
 10
154.1987416972
 20
31.1745462761
 11
154.0831168074
 21
31.1100188581
  0
LINE
  8
0
 62
7
  6
CONTINUOUS
 10
154.3143669177
 20
31.0132277988
 11
154.4299918074
 21
31.0777551716
  0
LINE
  8
0
 62
7
  6
CONTINUOUS
 10
151.8862417523
 20
30.5937998301
 11
152.1753043074
 21
30.5937998301
  0
LINE
  8
0
 62
7
  6
CONTINUOUS
 10
153.2159293074
 20
30.5937998301
 11
153.5049916972
 21
30.5937998301
  0
LINE
  8
0
 62
7
  6
CONTINUOUS
 10
154.5456166972
 20
30.5937998301
 11
154.8924916972
 21
30.5937998301
  0
LINE
  8
0
 62
7
  6
CONTINUOUS
 10
155.5284290869
 20
30.5937998301
 11
155.8174918074
 21
30.5937998301
  0
LINE
  8
0
 62
7
  6
CONTINUOUS
 10
156.279992028
 20
30.5937998301
 11
156.5690540869
 21
30.5937998301
  0
LINE
  8
0
 62
7
  6
CONTINUOUS
 10
157.0315543074
 20
30.5937998301
 11
157.320617028
 21
30.5937998301
  0
LINE
  8
0
 62
7
  6
CONTINUOUS
 10
158.361242028
 20
30.5937998301
 11
158.6503040869
 21
30.5937998301
  0
LINE
  8
0
 62
7
  6
CONTINUOUS
 10
159.922179528
 20
30.5937998301
 11
160.269054528
 21
30.5937998301
  0
LINE
  8
0
 62
7
  6
CONTINUOUS
 10
160.269054528
 20
30.7228545871
 11
159.922179528
 21
30.7228545871
  0
LINE
  8
0
 62
7
  6
CONTINUOUS
 10
154.8924916972
 20
30.7228545871
 11
154.5456166972
 21
30.7228545871
  0
LINE
  8
0
 62
7
  6
CONTINUOUS
 10
159.401867028
 20
30.8519093441
 11
159.1128043074
 21
30.8519093441
  0
LINE
  8
0
 62
7
  6
CONTINUOUS
 10
151.4237418626
 20
30.9164367395
 11
151.1346793074
 21
30.9164367395
  0
LINE
  8
0
 62
7
  6
CONTINUOUS
 10
150.498741835
 20
31.4971831403
 11
150.9034292799
 21
31.4649194539
  0
LINE
  8
0
 62
7
  6
CONTINUOUS
 10
150.9612418074
 20
31.5939741996
 11
150.5565542799
 21
31.626237886
  0
LINE
  8
0
 62
7
  6
CONTINUOUS
 10
159.575304528
 20
30.6260635193
 11
159.922179528
 21
30.5937998301
  0
LINE
  8
0
 62
7
  6
CONTINUOUS
 10
159.922179528
 20
30.7228545871
 11
159.575304528
 21
30.7551182848
  0
LINE
  8
0
 62
7
  6
CONTINUOUS
 10
155.3549915869
 20
31.5939741996
 11
155.0081169177
 21
31.626237886
  0
LINE
  8
0
 62
7
  6
CONTINUOUS
 10
160.1534293074
 20
31.4971831403
 11
160.5003043074
 21
31.4649194539
  0
LINE
  8
0
 62
7
  6
CONTINUOUS
 10
160.5003043074
 20
31.5939741996
 11
160.1534293074
 21
31.626237886
  0
LINE
  8
0
 62
7
  6
CONTINUOUS
 10
157.840929528
 20
31.4971831403
 11
158.0721793074
 21
31.4649194539
  0
LINE
  8
0
 62
7
  6
CONTINUOUS
 10
160.6737418074
 20
31.5617105132
 11
160.5003043074
 21
31.5939741996
  0
LINE
  8
0
 62
7
  6
CONTINUOUS
 10
160.8471793074
 20
30.6905909007
 11
160.9628038663
 21
30.7873819712
  0
LINE
  8
0
 62
7
  6
CONTINUOUS
 10
155.3549915869
 20
30.8841730531
 11
155.1815540869
 21
30.7873819712
  0
LINE
  8
0
 62
7
  6
CONTINUOUS
 10
157.4362415869
 20
31.5294468267
 11
157.320617028
 21
31.4649194539
  0
LINE
  8
0
 62
7
  6
CONTINUOUS
 10
157.320617028
 20
31.3358647082
 11
157.4362415869
 21
31.400392081
  0
LINE
  8
0
 62
7
  6
CONTINUOUS
 10
150.0362418212
 20
31.5617105132
 11
149.8628043005
 21
31.4971831403
  0
LINE
  8
0
 62
7
  6
CONTINUOUS
 10
152.4643666972
 20
31.5939741996
 11
152.2909293626
 21
31.5294468267
  0
LINE
  8
0
 62
7
  6
CONTINUOUS
 10
152.2909293626
 20
31.400392081
 11
152.4643666972
 21
31.4649194539
  0
LINE
  8
0
 62
7
  6
CONTINUOUS
 10
151.0768668626
 20
30.8196456577
 11
150.9034292799
 21
30.7551182848
  0
LINE
  8
0
 62
7
  6
CONTINUOUS
 10
160.5003043074
 20
30.7551182848
 11
160.269054528
 21
30.7228545871
  0
LINE
  8
0
 62
7
  6
CONTINUOUS
 10
154.8924916972
 20
30.5937998301
 11
155.1815540869
 21
30.6260635193
  0
LINE
  8
0
 62
7
  6
CONTINUOUS
 10
160.269054528
 20
30.5937998301
 11
160.615929528
 21
30.6260635193
  0
LINE
  8
0
 62
7
  6
CONTINUOUS
 10
150.5565542799
 20
30.5937998301
 11
150.9612418074
 21
30.6260635193
  0
LINE
  8
0
 62
7
  6
CONTINUOUS
 10
150.9034292799
 20
30.7551182848
 11
150.498741835
 21
30.7228545871
  0
LINE
  8
0
 62
7
  6
CONTINUOUS
 10
154.7768668074
 20
31.1422825445
 11
155.412804528
 21
31.1422825445
  0
LINE
  8
0
 62
7
  6
CONTINUOUS
 10
155.412804528
 20
31.2713373354
 11
154.7768668074
 21
31.2713373354
  0
LINE
  8
0
 62
7
  6
CONTINUOUS
 10
151.1346793074
 20
31.3036010218
 11
151.4237418626
 21
31.3036010218
  0
LINE
  8
0
 62
7
  6
CONTINUOUS
 10
153.9674919177
 20
31.3681283946
 11
154.2565543074
 21
31.3681283946
  0
LINE
  8
0
 62
7
  6
CONTINUOUS
 10
160.6737418074
 20
31.3681283946
 11
160.9628038663
 21
31.3681283946
  0
LINE
  8
0
 62
7
  6
CONTINUOUS
 10
154.6612419177
 20
31.4971831403
 11
155.0081169177
 21
31.4971831403
  0
LINE
  8
0
 62
7
  6
CONTINUOUS
 10
159.8065543074
 20
31.4971831403
 11
160.1534293074
 21
31.4971831403
  0
LINE
  8
0
 62
7
  6
CONTINUOUS
 10
160.1534293074
 20
31.626237886
 11
159.8065543074
 21
31.626237886
  0
LINE
  8
0
 62
7
  6
CONTINUOUS
 10
158.0721793074
 20
31.626237886
 11
157.840929528
 21
31.626237886
  0
LINE
  8
0
 62
7
  6
CONTINUOUS
 10
157.320617028
 20
31.626237886
 11
157.0315543074
 21
31.626237886
  0
LINE
  8
0
 62
7
  6
CONTINUOUS
 10
156.5690540869
 20
31.626237886
 11
156.279992028
 21
31.626237886
  0
LINE
  8
0
 62
7
  6
CONTINUOUS
 10
155.0081169177
 20
31.626237886
 11
154.6612419177
 21
31.626237886
  0
LINE
  8
0
 62
7
  6
CONTINUOUS
 10
152.9268669177
 20
31.626237886
 11
152.6956168074
 21
31.626237886
  0
LINE
  8
0
 62
7
  6
CONTINUOUS
 10
156.279992028
 20
31.9488748406
 11
156.5690540869
 21
31.9488748406
  0
LINE
  8
0
 62
7
  6
CONTINUOUS
 10
156.5690540869
 20
32.1101932727
 11
156.279992028
 21
32.1101932727
  0
LINE
  8
0
 62
7
  6
CONTINUOUS
 10
152.1753043074
 20
32.1101932727
 11
151.8862417523
 21
32.1101932727
  0
LINE
  8
0
 62
7
  6
CONTINUOUS
 10
151.2130860697
 20
32.3970785186
 11
151.6256574183
 21
32.3970785186
  0
LINE
  8
0
 62
7
  6
CONTINUOUS
 10
152.852430332
 20
32.3970785186
 11
154.245872955
 21
32.3970785186
  0
LINE
  8
0
 62
7
  6
CONTINUOUS
 10
154.5737418074
 20
32.3970785186
 11
155.9671844304
 21
32.3970785186
  0
LINE
  8
0
 62
7
  6
CONTINUOUS
 10
157.852430332
 20
32.3970785186
 11
159.245872955
 21
32.3970785186
  0
LINE
  8
0
 62
7
  6
CONTINUOUS
 10
159.5737418074
 20
32.3970785186
 11
160.9671844304
 21
32.3970785186
  0
LINE
  8
0
 62
7
  6
CONTINUOUS
 10
157.6096790869
 20
31.5939741996
 11
157.4362415869
 21
31.5294468267
  0
LINE
  8
0
 62
7
  6
CONTINUOUS
 10
155.1815540869
 20
30.6260635193
 11
155.3549915869
 21
30.6905909007
  0
LINE
  8
0
 62
7
  6
CONTINUOUS
 10
160.615929528
 20
30.6260635193
 11
160.8471793074
 21
30.6905909007
  0
LINE
  8
0
 62
7
  6
CONTINUOUS
 10
160.615929528
 20
30.7873819712
 11
160.5003043074
 21
30.7551182848
  0
LINE
  8
0
 62
7
  6
CONTINUOUS
 10
159.575304528
 20
31.4649194539
 11
159.8065543074
 21
31.4971831403
  0
LINE
  8
0
 62
7
  6
CONTINUOUS
 10
157.6096790869
 20
31.4649194539
 11
157.840929528
 21
31.4971831403
  0
LINE
  8
0
 62
7
  6
CONTINUOUS
 10
154.5456166972
 20
31.1100188581
 11
154.7768668074
 21
31.1422825445
  0
LINE
  8
0
 62
7
  6
CONTINUOUS
 10
157.840929528
 20
31.626237886
 11
157.6096790869
 21
31.5939741996
  0
LINE
  8
0
 62
7
  6
CONTINUOUS
 10
154.4299918074
 20
31.4649194539
 11
154.6612419177
 21
31.4971831403
  0
LINE
  8
0
 62
7
  6
CONTINUOUS
 10
159.8065543074
 20
31.626237886
 11
159.4596793074
 21
31.5939741996
  0
LINE
  8
0
 62
7
  6
CONTINUOUS
 10
154.7768668074
 20
31.2713373354
 11
154.4299918074
 21
31.2390736489
  0
LINE
  8
0
 62
7
  6
CONTINUOUS
 10
150.5565542799
 20
31.626237886
 11
150.2096793212
 21
31.5939741996
  0
LINE
  8
0
 62
7
  6
CONTINUOUS
 10
154.6612419177
 20
31.626237886
 11
154.2565543074
 21
31.5939741996
  0
LINE
  8
0
 62
7
  6
CONTINUOUS
 10
152.0327582009
 20
33.5446195022
 11
151.3770204959
 21
33.5446195022
  0
LINE
  8
0
 62
7
  6
CONTINUOUS
 10
157.4362415869
 20
31.400392081
 11
157.6096790869
 21
31.4649194539
  0
LINE
  8
0
 62
7
  6
CONTINUOUS
 10
159.4596793074
 20
31.4326557675
 11
159.575304528
 21
31.4649194539
  0
LINE
  8
0
 62
7
  6
CONTINUOUS
 10
159.4596793074
 20
31.5939741996
 11
159.228429528
 21
31.5294468267
  0
LINE
  8
0
 62
7
  6
CONTINUOUS
 10
155.1815540869
 20
30.7873819712
 11
154.8924916972
 21
30.7228545871
  0
LINE
  8
0
 62
7
  6
CONTINUOUS
 10
152.4643666972
 20
31.4649194539
 11
152.6956168074
 21
31.4971831403
  0
LINE
  8
0
 62
7
  6
CONTINUOUS
 10
152.6956168074
 20
31.626237886
 11
152.4643666972
 21
31.5939741996
  0
LINE
  8
0
 62
7
  6
CONTINUOUS
 10
150.2674918074
 20
31.4649194539
 11
150.498741835
 21
31.4971831403
  0
LINE
  8
0
 62
7
  6
CONTINUOUS
 10
156.7868565615
 20
35.0200293383
 11
157.4425942664
 21
35.0200293383
  0
LINE
  8
0
 62
7
  6
CONTINUOUS
 10
154.4299918074
 20
31.0777551716
 11
154.5456166972
 21
31.1100188581
  0
LINE
  8
0
 62
7
  6
CONTINUOUS
 10
154.4299918074
 20
31.2390736489
 11
154.1987416972
 21
31.1745462761
  0
LINE
  8
0
 62
7
  6
CONTINUOUS
 10
154.3143669177
 20
31.4326557675
 11
154.4299918074
 21
31.4649194539
  0
LINE
  8
0
 62
7
  6
CONTINUOUS
 10
150.9612418074
 20
30.6260635193
 11
151.1924917523
 21
30.6905909007
  0
LINE
  8
0
 62
7
  6
CONTINUOUS
 10
154.2565543074
 20
31.5939741996
 11
154.1409294177
 21
31.5617105132
  0
LINE
  8
0
 62
7
  6
CONTINUOUS
 10
150.2096793212
 20
31.5939741996
 11
150.0362418212
 21
31.5617105132
  0
LINE
  8
0
 62
7
  6
CONTINUOUS
 10
160.9671844304
 20
36.1675703219
 11
159.5737418074
 21
36.1675703219
  0
LINE
  8
0
 62
7
  6
CONTINUOUS
 10
157.6065286927
 20
36.1675703219
 11
157.1939573441
 21
36.1675703219
  0
LINE
  8
0
 62
7
  6
CONTINUOUS
 10
155.9671844304
 20
36.1675703219
 11
154.5737418074
 21
36.1675703219
  0
LINE
  8
0
 62
7
  6
CONTINUOUS
 10
154.245872955
 20
36.1675703219
 11
152.852430332
 21
36.1675703219
  0
LINE
  8
0
 62
7
  6
CONTINUOUS
 10
150.9671844304
 20
36.1675703219
 11
149.5737418074
 21
36.1675703219
  0
LINE
  8
0
 62
7
  6
CONTINUOUS
 10
150.1518667936
 20
31.4326557675
 11
150.2674918074
 21
31.4649194539
  0
CIRCLE
  8
0
 62
7
  6
CONTINUOUS
 10
160.2704631189
 20
38.5036358957
 40
2.0901639344
  0
ARC
  8
0
 62
7
  6
CONTINUOUS
 10
151.2130860697
 20
34.0364227809
 40
1.6393442623
 50
180.0
 51
270.0
  0
ARC
  8
0
 62
7
  6
CONTINUOUS
 10
157.6065286927
 20
34.5282260596
 40
1.6393442623
 50
0.0
 51
90.0
  0
ARC
  8
0
 62
7
  6
CONTINUOUS
 10
151.6256574183
 20
33.8724883547
 40
1.4754098361
 50
270.0
 51
326.2510114041
  0
ARC
  8
0
 62
7
  6
CONTINUOUS
 10
157.1939573441
 20
34.6921604858
 40
1.4754098361
 50
90.0
 51
146.2510114041
  0
ARC
  8
0
 62
7
  6
CONTINUOUS
 10
152.0327582009
 20
34.3642916334
 40
0.8196721311
 50
270.0
 51
360.0
  0
ARC
  8
0
 62
7
  6
CONTINUOUS
 10
156.7868565615
 20
34.2003572071
 40
0.8196721311
 50
90.0
 51
180.0
  0
ARC
  8
0
 62
7
  6
CONTINUOUS
 10
151.3770204959
 20
33.9544555678
 40
0.4098360656
 50
180.0
 51
270.0
  0
ARC
  8
0
 62
7
  6
CONTINUOUS
 10
157.4425942664
 20
34.6101932727
 40
0.4098360656
 50
0.0
 51
90.0
  0
SOLID
  8
0
 62
7
  6
CONTINUOUS
 10
156.279992028
 20
31.9488752009
 11
156.279992028
 21
32.1101936845
 12
156.5690540869
 22
31.9488752009
 13
156.5690540869
 23
32.1101936845
  0
SOLID
  8
0
 62
7
  6
CONTINUOUS
 10
150.5565542799
 20
31.6262382337
 11
150.9612418074
 21
31.5939740028
 12
150.2096793212
 22
31.5939740028
 13
150.2096793212
 23
31.5939740028
  0
SOLID
  8
0
 62
7
  6
CONTINUOUS
 10
150.0362418212
 20
31.5617111435
 11
150.2096793212
 21
31.5939740028
 12
150.9612418074
 22
31.5939740028
 13
150.9612418074
 23
31.5939740028
  0
SOLID
  8
0
 62
7
  6
CONTINUOUS
 10
150.9612418074
 20
31.5939740028
 11
151.1924917523
 21
31.5294468402
 12
150.0362418212
 22
31.5617111435
 13
150.0362418212
 23
31.5617111435
  0
SOLID
  8
0
 62
7
  6
CONTINUOUS
 10
149.8628043005
 20
31.49718259
 11
150.0362418212
 21
31.5617111435
 12
151.1924917523
 22
31.5294468402
 13
151.1924917523
 23
31.5294468402
  0
SOLID
  8
0
 62
7
  6
CONTINUOUS
 10
149.8628043005
 20
31.49718259
 11
151.1924917523
 21
31.5294468402
 12
150.498741835
 22
31.49718259
 13
150.498741835
 23
31.49718259
  0
SOLID
  8
0
 62
7
  6
CONTINUOUS
 10
150.498741835
 20
31.49718259
 11
151.1924917523
 21
31.5294468402
 12
150.9034292799
 22
31.4649197501
 13
150.9034292799
 23
31.4649197501
  0
SOLID
  8
0
 62
7
  6
CONTINUOUS
 10
151.1924917523
 20
31.5294468402
 11
151.3659292523
 21
31.4326554468
 12
150.9034292799
 22
31.4649197501
 13
150.9034292799
 23
31.4649197501
  0
SOLID
  8
0
 62
7
  6
CONTINUOUS
 10
151.0768668626
 20
31.4003926599
 11
150.9034292799
 21
31.4649197501
 12
151.3659292523
 22
31.4326554468
 13
151.3659292523
 23
31.4326554468
  0
SOLID
  8
0
 62
7
  6
CONTINUOUS
 10
151.0768668626
 20
31.4003926599
 11
151.3659292523
 21
31.4326554468
 12
151.1346793074
 22
31.3036013776
 13
151.1346793074
 23
31.3036013776
  0
SOLID
  8
0
 62
7
  6
CONTINUOUS
 10
151.3659292523
 20
31.4326554468
 11
151.4237418626
 21
31.3036013776
 12
151.1346793074
 22
31.3036013776
 13
151.1346793074
 23
31.3036013776
  0
SOLID
  8
0
 62
7
  6
CONTINUOUS
 10
152.4643666972
 20
31.5939739754
 11
152.6956168074
 21
31.6262382787
 12
152.9268669177
 22
31.6262382787
 13
152.9268669177
 23
31.6262382787
  0
SOLID
  8
0
 62
7
  6
CONTINUOUS
 10
152.9268669177
 20
31.6262382787
 11
153.1003044177
 21
31.5939739754
 12
152.4643666972
 22
31.5939739754
 13
152.4643666972
 23
31.5939739754
  0
SOLID
  8
0
 62
7
  6
CONTINUOUS
 10
152.2909293626
 20
31.5294468852
 11
152.4643666972
 21
31.5939739754
 12
153.1003044177
 22
31.5939739754
 13
153.1003044177
 23
31.5939739754
  0
SOLID
  8
0
 62
7
  6
CONTINUOUS
 10
153.1003044177
 20
31.5939739754
 11
153.2737419177
 21
31.5294468852
 12
152.2909293626
 22
31.5294468852
 13
152.2909293626
 23
31.5294468852
  0
SOLID
  8
0
 62
7
  6
CONTINUOUS
 10
153.2737419177
 20
31.5294468852
 11
152.6956168074
 21
31.4971825369
 12
152.2909293626
 22
31.5294468852
 13
152.2909293626
 23
31.5294468852
  0
SOLID
  8
0
 62
7
  6
CONTINUOUS
 10
152.1753043074
 20
31.4649197951
 11
152.2909293626
 21
31.5294468852
 12
152.6956168074
 22
31.4971825369
 13
152.6956168074
 23
31.4971825369
  0
SOLID
  8
0
 62
7
  6
CONTINUOUS
 10
152.6956168074
 20
31.4971825369
 11
152.4643666972
 21
31.4649197951
 12
152.1753043074
 22
31.4649197951
 13
152.1753043074
 23
31.4649197951
  0
SOLID
  8
0
 62
7
  6
CONTINUOUS
 10
152.6956168074
 20
31.4971825369
 11
153.2737419177
 21
31.5294468852
 12
152.9268669177
 22
31.4649197951
 13
152.9268669177
 23
31.4649197951
  0
SOLID
  8
0
 62
7
  6
CONTINUOUS
 10
153.2737419177
 20
31.5294468852
 11
153.3893668074
 21
31.4649197951
 12
152.9268669177
 22
31.4649197951
 13
152.9268669177
 23
31.4649197951
  0
SOLID
  8
0
 62
7
  6
CONTINUOUS
 10
153.0424918074
 20
31.4326554468
 11
152.9268669177
 21
31.4649197951
 12
153.3893668074
 22
31.4649197951
 13
153.3893668074
 23
31.4649197951
  0
SOLID
  8
0
 62
7
  6
CONTINUOUS
 10
153.3893668074
 20
31.4649197951
 11
153.4471794177
 21
31.4003927049
 12
153.0424918074
 22
31.4326554468
 13
153.0424918074
 23
31.4326554468
  0
SOLID
  8
0
 62
7
  6
CONTINUOUS
 10
153.1581166972
 20
31.3681283566
 11
153.0424918074
 21
31.4326554468
 12
153.4471794177
 22
31.4003927049
 13
153.4471794177
 23
31.4003927049
  0
SOLID
  8
0
 62
7
  6
CONTINUOUS
 10
153.1581166972
 20
31.3681283566
 11
153.4471794177
 21
31.4003927049
 12
153.2159293074
 22
31.2390742213
 13
153.2159293074
 23
31.2390742213
  0
SOLID
  8
0
 62
7
  6
CONTINUOUS
 10
153.4471794177
 20
31.4003927049
 11
153.5049916972
 21
31.2390742213
 12
153.2159293074
 22
31.2390742213
 13
153.2159293074
 23
31.2390742213
  0
SOLID
  8
0
 62
7
  6
CONTINUOUS
 10
152.4643666972
 20
31.4649197951
 11
152.2909293626
 21
31.4003927049
 12
152.1753043074
 22
31.4649197951
 13
152.1753043074
 23
31.4649197951
  0
SOLID
  8
0
 62
7
  6
CONTINUOUS
 10
152.2909293626
 20
31.4003927049
 11
152.1753043074
 21
31.3358640533
 12
152.1753043074
 22
31.4649197951
 13
152.1753043074
 23
31.4649197951
  0
SOLID
  8
0
 62
7
  6
CONTINUOUS
 10
152.1753043074
 20
31.3358640533
 11
151.8862417523
 21
30.5938002869
 12
152.1753043074
 22
31.4649197951
 13
152.1753043074
 23
31.4649197951
  0
SOLID
  8
0
 62
7
  6
CONTINUOUS
 10
152.1753043074
 20
31.4649197951
 11
151.8862417523
 21
30.5938002869
 12
152.1753043074
 22
32.1101937295
 13
152.1753043074
 23
32.1101937295
  0
SOLID
  8
0
 62
7
  6
CONTINUOUS
 10
151.8862417523
 20
30.5938002869
 11
151.8862417523
 21
32.1101937295
 12
152.1753043074
 22
32.1101937295
 13
152.1753043074
 23
32.1101937295
  0
SOLID
  8
0
 62
7
  6
CONTINUOUS
 10
152.1753043074
 20
31.3358640533
 11
152.1753043074
 21
30.5938002869
 12
151.8862417523
 22
30.5938002869
 13
151.8862417523
 23
30.5938002869
  0
SOLID
  8
0
 62
7
  6
CONTINUOUS
 10
153.2159293074
 20
30.5938002869
 11
153.2159293074
 21
31.2390742213
 12
153.5049916972
 22
31.2390742213
 13
153.5049916972
 23
31.2390742213
  0
SOLID
  8
0
 62
7
  6
CONTINUOUS
 10
153.5049916972
 20
31.2390742213
 11
153.5049916972
 21
30.5938002869
 12
153.2159293074
 22
30.5938002869
 13
153.2159293074
 23
30.5938002869
  0
SOLID
  8
0
 62
7
  6
CONTINUOUS
 10
154.2565543074
 20
31.5939738288
 11
154.6612419177
 21
31.6262385959
 12
155.0081169177
 22
31.6262385959
 13
155.0081169177
 23
31.6262385959
  0
SOLID
  8
0
 62
7
  6
CONTINUOUS
 10
155.0081169177
 20
31.6262385959
 11
155.3549915869
 21
31.5939738288
 12
154.2565543074
 22
31.5939738288
 13
154.2565543074
 23
31.5939738288
  0
SOLID
  8
0
 62
7
  6
CONTINUOUS
 10
154.1409294177
 20
31.5617111435
 11
154.2565543074
 21
31.5939738288
 12
155.3549915869
 22
31.5939738288
 13
155.3549915869
 23
31.5939738288
  0
SOLID
  8
0
 62
7
  6
CONTINUOUS
 10
155.3549915869
 20
31.5939738288
 11
155.5284290869
 21
31.5294468402
 12
154.1409294177
 22
31.5617111435
 13
154.1409294177
 23
31.5617111435
  0
SOLID
  8
0
 62
7
  6
CONTINUOUS
 10
154.0253041972
 20
31.4971826249
 11
154.1409294177
 21
31.5617111435
 12
155.5284290869
 22
31.5294468402
 13
155.5284290869
 23
31.5294468402
  0
SOLID
  8
0
 62
7
  6
CONTINUOUS
 10
154.0253041972
 20
31.4971826249
 11
155.5284290869
 21
31.5294468402
 12
154.6612419177
 22
31.4971826249
 13
154.6612419177
 23
31.4971826249
  0
SOLID
  8
0
 62
7
  6
CONTINUOUS
 10
154.6612419177
 20
31.4971826249
 11
155.5284290869
 21
31.5294468402
 12
155.0081169177
 22
31.4971826249
 13
155.0081169177
 23
31.4971826249
  0
SOLID
  8
0
 62
7
  6
CONTINUOUS
 10
155.0081169177
 20
31.4971826249
 11
155.5284290869
 21
31.5294468402
 12
155.239367028
 22
31.4649194065
 13
155.239367028
 23
31.4649194065
  0
SOLID
  8
0
 62
7
  6
CONTINUOUS
 10
155.5284290869
 20
31.5294468402
 11
155.6440543074
 21
31.4649194065
 12
155.239367028
 22
31.4649194065
 13
155.239367028
 23
31.4649194065
  0
SOLID
  8
0
 62
7
  6
CONTINUOUS
 10
153.9674919177
 20
31.4326554138
 11
154.0253041972
 21
31.4971826249
 12
154.6612419177
 22
31.4971826249
 13
154.6612419177
 23
31.4971826249
  0
SOLID
  8
0
 62
7
  6
CONTINUOUS
 10
155.3549915869
 20
31.4326554138
 11
155.239367028
 21
31.4649194065
 12
155.6440543074
 22
31.4649194065
 13
155.6440543074
 23
31.4649194065
  0
SOLID
  8
0
 62
7
  6
CONTINUOUS
 10
155.3549915869
 20
31.4326554138
 11
155.6440543074
 21
31.4649194065
 12
155.412804528
 22
31.3681282026
 13
155.412804528
 23
31.3681282026
  0
SOLID
  8
0
 62
7
  6
CONTINUOUS
 10
155.6440543074
 20
31.4649194065
 11
155.7018665869
 21
31.3681282026
 12
155.412804528
 22
31.3681282026
 13
155.412804528
 23
31.3681282026
  0
SOLID
  8
0
 62
7
  6
CONTINUOUS
 10
155.412804528
 20
31.2713369632
 11
155.412804528
 21
31.3681282026
 12
155.7018665869
 22
31.3681282026
 13
155.7018665869
 23
31.3681282026
  0
SOLID
  8
0
 62
7
  6
CONTINUOUS
 10
155.412804528
 20
31.2713369632
 11
155.7018665869
 21
31.3681282026
 12
155.412804528
 22
31.1422827828
 13
155.412804528
 23
31.1422827828
  0
SOLID
  8
0
 62
7
  6
CONTINUOUS
 10
155.412804528
 20
31.1422827828
 11
155.7018665869
 21
31.3681282026
 12
155.412804528
 22
30.9487004259
 13
155.412804528
 23
30.9487004259
  0
SOLID
  8
0
 62
7
  6
CONTINUOUS
 10
155.7018665869
 20
31.3681282026
 11
155.7018665869
 21
30.8519086025
 12
155.412804528
 22
30.9487004259
 13
155.412804528
 23
30.9487004259
  0
SOLID
  8
0
 62
7
  6
CONTINUOUS
 10
157.6096790869
 20
31.5939736268
 11
157.840929528
 21
31.6262383465
 12
158.0721793074
 22
31.6262383465
 13
158.0721793074
 23
31.6262383465
  0
SOLID
  8
0
 62
7
  6
CONTINUOUS
 10
158.0721793074
 20
31.6262383465
 11
158.2456168074
 21
31.5939736268
 12
157.6096790869
 22
31.5939736268
 13
157.6096790869
 23
31.5939736268
  0
SOLID
  8
0
 62
7
  6
CONTINUOUS
 10
157.4362415869
 20
31.5294472848
 11
157.6096790869
 21
31.5939736268
 12
158.2456168074
 22
31.5939736268
 13
158.2456168074
 23
31.5939736268
  0
SOLID
  8
0
 62
7
  6
CONTINUOUS
 10
158.2456168074
 20
31.5939736268
 11
158.4190543074
 21
31.5294472848
 12
157.4362415869
 22
31.5294472848
 13
157.4362415869
 23
31.5294472848
  0
SOLID
  8
0
 62
7
  6
CONTINUOUS
 10
158.4190543074
 20
31.5294472848
 11
157.840929528
 21
31.4971825369
 12
157.4362415869
 22
31.5294472848
 13
157.4362415869
 23
31.5294472848
  0
SOLID
  8
0
 62
7
  6
CONTINUOUS
 10
157.320617028
 20
31.4649199103
 11
157.4362415869
 21
31.5294472848
 12
157.840929528
 22
31.4971825369
 13
157.840929528
 23
31.4971825369
  0
SOLID
  8
0
 62
7
  6
CONTINUOUS
 10
157.840929528
 20
31.4971825369
 11
157.6096790869
 21
31.4649199103
 12
157.320617028
 22
31.4649199103
 13
157.320617028
 23
31.4649199103
  0
SOLID
  8
0
 62
7
  6
CONTINUOUS
 10
157.840929528
 20
31.4971825369
 11
158.4190543074
 21
31.5294472848
 12
158.0721793074
 22
31.4649199103
 13
158.0721793074
 23
31.4649199103
  0
SOLID
  8
0
 62
7
  6
CONTINUOUS
 10
158.4190543074
 20
31.5294472848
 11
158.534679528
 21
31.4649199103
 12
158.0721793074
 22
31.4649199103
 13
158.0721793074
 23
31.4649199103
  0
SOLID
  8
0
 62
7
  6
CONTINUOUS
 10
158.187804528
 20
31.4326554468
 11
158.0721793074
 21
31.4649199103
 12
158.534679528
 22
31.4649199103
 13
158.534679528
 23
31.4649199103
  0
SOLID
  8
0
 62
7
  6
CONTINUOUS
 10
158.187804528
 20
31.4326554468
 11
158.534679528
 21
31.4649199103
 12
158.3034290869
 22
31.3681288486
 13
158.3034290869
 23
31.3681288486
  0
SOLID
  8
0
 62
7
  6
CONTINUOUS
 10
158.534679528
 20
31.4649199103
 11
158.5924918074
 21
31.3681288486
 12
158.3034290869
 22
31.3681288486
 13
158.3034290869
 23
31.3681288486
  0
SOLID
  8
0
 62
7
  6
CONTINUOUS
 10
158.361242028
 20
31.2068093799
 11
158.3034290869
 21
31.3681288486
 12
158.5924918074
 22
31.3681288486
 13
158.5924918074
 23
31.3681288486
  0
SOLID
  8
0
 62
7
  6
CONTINUOUS
 10
158.5924918074
 20
31.3681288486
 11
158.6503040869
 21
31.2068093799
 12
158.361242028
 22
31.2068093799
 13
158.361242028
 23
31.2068093799
  0
SOLID
  8
0
 62
7
  6
CONTINUOUS
 10
157.6096790869
 20
31.4649199103
 11
157.4362415869
 21
31.4003926599
 12
157.320617028
 22
31.4649199103
 13
157.320617028
 23
31.4649199103
  0
SOLID
  8
0
 62
7
  6
CONTINUOUS
 10
157.4362415869
 20
31.4003926599
 11
157.320617028
 21
31.3358640533
 12
157.320617028
 22
31.4649199103
 13
157.320617028
 23
31.4649199103
  0
SOLID
  8
0
 62
7
  6
CONTINUOUS
 10
157.320617028
 20
31.3358640533
 11
157.0315543074
 21
30.5938003547
 12
157.320617028
 22
31.4649199103
 13
157.320617028
 23
31.4649199103
  0
SOLID
  8
0
 62
7
  6
CONTINUOUS
 10
157.320617028
 20
31.4649199103
 11
157.0315543074
 21
30.5938003547
 12
157.320617028
 22
31.6262383465
 13
157.320617028
 23
31.6262383465
  0
SOLID
  8
0
 62
7
  6
CONTINUOUS
 10
157.0315543074
 20
30.5938003547
 11
157.0315543074
 21
31.6262383465
 12
157.320617028
 22
31.6262383465
 13
157.320617028
 23
31.6262383465
  0
SOLID
  8
0
 62
7
  6
CONTINUOUS
 10
157.320617028
 20
31.3358640533
 11
157.320617028
 21
30.5938003547
 12
157.0315543074
 22
30.5938003547
 13
157.0315543074
 23
30.5938003547
  0
SOLID
  8
0
 62
7
  6
CONTINUOUS
 10
158.361242028
 20
30.5938003547
 11
158.361242028
 21
31.2068093799
 12
158.6503040869
 22
31.2068093799
 13
158.6503040869
 23
31.2068093799
  0
SOLID
  8
0
 62
7
  6
CONTINUOUS
 10
158.6503040869
 20
31.2068093799
 11
158.6503040869
 21
30.5938003547
 12
158.361242028
 22
30.5938003547
 13
158.361242028
 23
30.5938003547
  0
SOLID
  8
0
 62
7
  6
CONTINUOUS
 10
159.4596793074
 20
31.5939739474
 11
159.8065543074
 21
31.6262381969
 12
160.1534293074
 22
31.6262381969
 13
160.1534293074
 23
31.6262381969
  0
SOLID
  8
0
 62
7
  6
CONTINUOUS
 10
160.1534293074
 20
31.6262381969
 11
160.5003043074
 21
31.5939739474
 12
159.4596793074
 22
31.5939739474
 13
159.4596793074
 23
31.5939739474
  0
SOLID
  8
0
 62
7
  6
CONTINUOUS
 10
159.228429528
 20
31.5294468402
 11
159.4596793074
 21
31.5939739474
 12
160.5003043074
 22
31.5939739474
 13
160.5003043074
 23
31.5939739474
  0
SOLID
  8
0
 62
7
  6
CONTINUOUS
 10
159.228429528
 20
31.5294468402
 11
160.5003043074
 21
31.5939739304
 12
160.6737418074
 22
31.5617111435
 13
160.6737418074
 23
31.5617111435
  0
SOLID
  8
0
 62
7
  6
CONTINUOUS
 10
159.228429528
 20
31.5294468402
 11
160.6737418074
 21
31.5617111435
 12
159.8065543074
 22
31.4971825592
 13
159.8065543074
 23
31.4971825592
  0
SOLID
  8
0
 62
7
  6
CONTINUOUS
 10
159.8065543074
 20
31.4971825592
 11
160.6737418074
 21
31.5617111435
 12
160.1534293074
 22
31.4971825592
 13
160.1534293074
 23
31.4971825592
  0
SOLID
  8
0
 62
7
  6
CONTINUOUS
 10
160.6737418074
 20
31.5617111435
 11
160.8471793074
 21
31.4971825592
 12
160.1534293074
 22
31.4971825592
 13
160.1534293074
 23
31.4971825592
  0
SOLID
  8
0
 62
7
  6
CONTINUOUS
 10
160.5003043074
 20
31.4649197501
 11
160.1534293074
 21
31.4971825592
 12
160.8471793074
 22
31.4971825592
 13
160.8471793074
 23
31.4971825592
  0
SOLID
  8
0
 62
7
  6
CONTINUOUS
 10
159.1128043074
 20
31.4326555427
 11
159.228429528
 21
31.5294468402
 12
159.8065543074
 22
31.4971825592
 13
159.8065543074
 23
31.4971825592
  0
SOLID
  8
0
 62
7
  6
CONTINUOUS
 10
160.5003043074
 20
31.4649197501
 11
160.8471793074
 21
31.4971825592
 12
160.615929528
 22
31.4326555427
 13
160.615929528
 23
31.4326555427
  0
SOLID
  8
0
 62
7
  6
CONTINUOUS
 10
160.615929528
 20
31.4326555427
 11
160.8471793074
 21
31.4971825592
 12
160.6737418074
 22
31.3681283005
 13
160.6737418074
 23
31.3681283005
  0
SOLID
  8
0
 62
7
  6
CONTINUOUS
 10
160.8471793074
 20
31.4971825592
 11
160.9628038663
 21
31.3681283005
 12
160.6737418074
 22
31.3681283005
 13
160.6737418074
 23
31.3681283005
  0
SOLID
  8
0
 62
7
  6
CONTINUOUS
 10
150.2674918074
 20
31.4649197501
 11
149.7471793074
 21
31.4326554237
 12
150.498741835
 22
31.4971824493
 13
150.498741835
 23
31.4971824493
  0
SOLID
  8
0
 62
7
  6
CONTINUOUS
 10
149.7471793074
 20
31.4326554237
 11
149.8628043005
 21
31.4971824493
 12
150.498741835
 22
31.4971824493
 13
150.498741835
 23
31.4971824493
  0
SOLID
  8
0
 62
7
  6
CONTINUOUS
 10
150.2674918074
 20
31.4649197501
 11
150.1518667936
 21
31.4326554237
 12
149.7471793074
 22
31.4326554237
 13
149.7471793074
 23
31.4326554237
  0
SOLID
  8
0
 62
7
  6
CONTINUOUS
 10
149.6315543091
 20
31.3036012664
 11
149.7471793074
 21
31.4326554237
 12
150.1518667936
 22
31.4326554237
 13
150.1518667936
 23
31.4326554237
  0
SOLID
  8
0
 62
7
  6
CONTINUOUS
 10
153.9674919177
 20
31.4326554237
 11
154.6612419177
 21
31.4971825369
 12
154.4299918074
 22
31.4649197501
 13
154.4299918074
 23
31.4649197501
  0
SOLID
  8
0
 62
7
  6
CONTINUOUS
 10
154.4299918074
 20
31.4649197501
 11
154.3143669177
 21
31.4326554237
 12
153.9674919177
 22
31.4326554237
 13
153.9674919177
 23
31.4326554237
  0
SOLID
  8
0
 62
7
  6
CONTINUOUS
 10
153.9674919177
 20
31.3681283335
 11
153.9674919177
 21
31.4326554237
 12
154.3143669177
 22
31.4326554237
 13
154.3143669177
 23
31.4326554237
  0
SOLID
  8
0
 62
7
  6
CONTINUOUS
 10
154.3143669177
 20
31.4326554237
 11
154.2565543074
 21
31.3681283335
 12
153.9674919177
 22
31.3681283335
 13
153.9674919177
 23
31.3681283335
  0
SOLID
  8
0
 62
7
  6
CONTINUOUS
 10
159.1128043074
 20
31.4326555528
 11
159.8065543074
 21
31.4971825369
 12
159.575304528
 22
31.4649197501
 13
159.575304528
 23
31.4649197501
  0
SOLID
  8
0
 62
7
  6
CONTINUOUS
 10
159.575304528
 20
31.4649197501
 11
159.4596793074
 21
31.4326555528
 12
159.1128043074
 22
31.4326555528
 13
159.1128043074
 23
31.4326555528
  0
SOLID
  8
0
 62
7
  6
CONTINUOUS
 10
159.1128043074
 20
31.3681284626
 11
159.1128043074
 21
31.4326555528
 12
159.4596793074
 22
31.4326555528
 13
159.4596793074
 23
31.4326555528
  0
SOLID
  8
0
 62
7
  6
CONTINUOUS
 10
159.4596793074
 20
31.4326555528
 11
159.401867028
 21
31.3681284626
 12
159.1128043074
 22
31.3681284626
 13
159.1128043074
 23
31.3681284626
  0
SOLID
  8
0
 62
7
  6
CONTINUOUS
 10
159.228429528
 20
31.2390741763
 11
159.1128043074
 21
31.3681284626
 12
159.401867028
 22
31.3681284626
 13
159.401867028
 23
31.3681284626
  0
SOLID
  8
0
 62
7
  6
CONTINUOUS
 10
149.6315543091
 20
31.3036012664
 11
150.1518667936
 21
31.4326554468
 12
149.9784292936
 22
31.3358640533
 13
149.9784292936
 23
31.3358640533
  0
SOLID
  8
0
 62
7
  6
CONTINUOUS
 10
149.9784292936
 20
31.3358640533
 11
149.9206168074
 21
31.2713369632
 12
149.6315543091
 22
31.3036012664
 13
149.6315543091
 23
31.3036012664
  0
SOLID
  8
0
 62
7
  6
CONTINUOUS
 10
149.5737418074
 20
31.1100184796
 11
149.6315543091
 21
31.3036012664
 12
149.9206168074
 22
31.2713369632
 13
149.9206168074
 23
31.2713369632
  0
SOLID
  8
0
 62
7
  6
CONTINUOUS
 10
154.4299918074
 20
31.2390741763
 11
154.7768668074
 21
31.271336924
 12
155.412804528
 22
31.271336924
 13
155.412804528
 23
31.271336924
  0
SOLID
  8
0
 62
7
  6
CONTINUOUS
 10
154.4299918074
 20
31.2390741763
 11
155.412804528
 21
31.271336924
 12
154.1987416972
 22
31.1745462761
 13
154.1987416972
 23
31.1745462761
  0
SOLID
  8
0
 62
7
  6
CONTINUOUS
 10
154.1987416972
 20
31.1745462761
 11
155.412804528
 21
31.271336924
 12
154.7768668074
 22
31.1422827436
 13
154.7768668074
 23
31.1422827436
  0
SOLID
  8
0
 62
7
  6
CONTINUOUS
 10
155.412804528
 20
31.271336924
 11
155.412804528
 21
31.1422827436
 12
154.7768668074
 22
31.1422827436
 13
154.7768668074
 23
31.1422827436
  0
SOLID
  8
0
 62
7
  6
CONTINUOUS
 10
159.228429528
 20
31.2390745501
 11
159.401867028
 21
31.3681283566
 12
159.4596793074
 22
31.3036012664
 13
159.4596793074
 23
31.3036012664
  0
SOLID
  8
0
 62
7
  6
CONTINUOUS
 10
159.4596793074
 20
31.3036012664
 11
159.6331168074
 21
31.2390745501
 12
159.228429528
 22
31.2390745501
 13
159.228429528
 23
31.2390745501
  0
SOLID
  8
0
 62
7
  6
CONTINUOUS
 10
159.4596793074
 20
31.1422827828
 11
159.228429528
 21
31.2390745501
 12
159.6331168074
 22
31.2390745501
 13
159.6331168074
 23
31.2390745501
  0
SOLID
  8
0
 62
7
  6
CONTINUOUS
 10
159.6331168074
 20
31.2390745501
 11
160.615929528
 21
31.0777556927
 12
159.4596793074
 22
31.1422827828
 13
159.4596793074
 23
31.1422827828
  0
SOLID
  8
0
 62
7
  6
CONTINUOUS
 10
160.442492028
 20
30.9809646623
 11
159.4596793074
 21
31.1422827828
 12
160.615929528
 22
31.0777556927
 13
160.615929528
 23
31.0777556927
  0
SOLID
  8
0
 62
7
  6
CONTINUOUS
 10
160.615929528
 20
31.0777556927
 11
160.8471793074
 21
30.9809646623
 12
160.442492028
 22
30.9809646623
 13
160.442492028
 23
30.9809646623
  0
SOLID
  8
0
 62
7
  6
CONTINUOUS
 10
160.615929528
 20
30.9164372091
 11
160.442492028
 21
30.9809646623
 12
160.8471793074
 22
30.9809646623
 13
160.8471793074
 23
30.9809646623
  0
SOLID
  8
0
 62
7
  6
CONTINUOUS
 10
160.615929528
 20
30.9164372091
 11
160.8471793074
 21
30.9809646623
 12
160.6737418074
 22
30.8519089441
 13
160.6737418074
 23
30.8519089441
  0
SOLID
  8
0
 62
7
  6
CONTINUOUS
 10
160.8471793074
 20
30.9809646623
 11
160.9628038663
 21
30.8519089441
 12
160.6737418074
 22
30.8519089441
 13
160.6737418074
 23
30.8519089441
  0
SOLID
  8
0
 62
7
  6
CONTINUOUS
 10
160.615929528
 20
30.7873818593
 11
160.6737418074
 21
30.8519089441
 12
160.9628038663
 22
30.8519089441
 13
160.9628038663
 23
30.8519089441
  0
SOLID
  8
0
 62
7
  6
CONTINUOUS
 10
160.9628038663
 20
30.8519089441
 11
160.9628038663
 21
30.7873818593
 12
160.615929528
 22
30.7873818593
 13
160.615929528
 23
30.7873818593
  0
SOLID
  8
0
 62
7
  6
CONTINUOUS
 10
160.5003043074
 20
30.7551187255
 11
160.615929528
 21
30.7873818593
 12
160.9628038663
 22
30.7873818593
 13
160.9628038663
 23
30.7873818593
  0
SOLID
  8
0
 62
7
  6
CONTINUOUS
 10
160.5003043074
 20
30.7551187255
 11
160.9628038663
 21
30.7873818593
 12
160.269054528
 22
30.7228547745
 13
160.269054528
 23
30.7228547745
  0
SOLID
  8
0
 62
7
  6
CONTINUOUS
 10
160.9628038663
 20
30.7873818593
 11
160.8471793074
 21
30.6905916353
 12
160.269054528
 22
30.7228547745
 13
160.269054528
 23
30.7228547745
  0
SOLID
  8
0
 62
7
  6
CONTINUOUS
 10
160.8471793074
 20
30.6905916353
 11
159.401867028
 21
30.658327332
 12
160.269054528
 22
30.7228547745
 13
160.269054528
 23
30.7228547745
  0
SOLID
  8
0
 62
7
  6
CONTINUOUS
 10
160.269054528
 20
30.7228547745
 11
159.401867028
 21
30.658327332
 12
159.922179528
 22
30.7228547745
 13
159.922179528
 23
30.7228547745
  0
SOLID
  8
0
 62
7
  6
CONTINUOUS
 10
159.401867028
 20
30.658327332
 11
159.228429528
 21
30.7228547745
 12
159.922179528
 22
30.7228547745
 13
159.922179528
 23
30.7228547745
  0
SOLID
  8
0
 62
7
  6
CONTINUOUS
 10
159.401867028
 20
30.658327332
 11
160.8471793074
 21
30.6905916353
 12
159.575304528
 22
30.6260629858
 13
159.575304528
 23
30.6260629858
  0
SOLID
  8
0
 62
7
  6
CONTINUOUS
 10
160.8471793074
 20
30.6905916353
 11
160.615929528
 21
30.6260629858
 12
159.575304528
 22
30.6260629858
 13
159.575304528
 23
30.6260629858
  0
SOLID
  8
0
 62
7
  6
CONTINUOUS
 10
159.922179528
 20
30.5938006049
 11
159.575304528
 21
30.6260629858
 12
160.615929528
 22
30.6260629858
 13
160.615929528
 23
30.6260629858
  0
SOLID
  8
0
 62
7
  6
CONTINUOUS
 10
160.615929528
 20
30.6260629858
 11
160.269054528
 21
30.5938006049
 12
159.922179528
 22
30.5938006049
 13
159.922179528
 23
30.5938006049
  0
SOLID
  8
0
 62
7
  6
CONTINUOUS
 10
149.5737418074
 20
31.1100184796
 11
149.9206168074
 21
31.2713369632
 12
149.8628043005
 22
31.1422827828
 13
149.8628043005
 23
31.1422827828
  0
SOLID
  8
0
 62
7
  6
CONTINUOUS
 10
149.8628043005
 20
31.1422827828
 11
149.8628043005
 21
31.0454914852
 12
149.5737418074
 22
31.1100184796
 13
149.5737418074
 23
31.1100184796
  0
SOLID
  8
0
 62
7
  6
CONTINUOUS
 10
149.6315543091
 20
30.9164372091
 11
149.5737418074
 21
31.1100184796
 12
149.8628043005
 22
31.0454914852
 13
149.8628043005
 23
31.0454914852
  0
SOLID
  8
0
 62
7
  6
CONTINUOUS
 10
149.8628043005
 20
31.0454914852
 11
149.9784292936
 21
30.8841729058
 12
149.6315543091
 22
30.9164372091
 13
149.6315543091
 23
30.9164372091
  0
SOLID
  8
0
 62
7
  6
CONTINUOUS
 10
149.7471793074
 20
30.7873813202
 11
149.6315543091
 21
30.9164372091
 12
149.9784292936
 22
30.8841729058
 13
149.9784292936
 23
30.8841729058
  0
SOLID
  8
0
 62
7
  6
CONTINUOUS
 10
149.9784292936
 20
30.8841729058
 11
150.1518667936
 21
30.7873813202
 12
149.7471793074
 22
30.7873813202
 13
149.7471793074
 23
30.7873813202
  0
SOLID
  8
0
 62
7
  6
CONTINUOUS
 10
149.8628043005
 20
30.7228547004
 11
149.7471793074
 21
30.7873813202
 12
150.1518667936
 22
30.7873813202
 13
150.1518667936
 23
30.7873813202
  0
SOLID
  8
0
 62
7
  6
CONTINUOUS
 10
150.1518667936
 20
30.7873813202
 11
150.498741835
 21
30.7228547004
 12
149.8628043005
 22
30.7228547004
 13
149.8628043005
 23
30.7228547004
  0
SOLID
  8
0
 62
7
  6
CONTINUOUS
 10
150.0362418212
 20
30.658327332
 11
149.8628043005
 21
30.7228547004
 12
150.498741835
 22
30.7228547004
 13
150.498741835
 23
30.7228547004
  0
SOLID
  8
0
 62
7
  6
CONTINUOUS
 10
154.0831168074
 20
31.1100184386
 11
154.1987416972
 21
31.1745462761
 12
154.7768668074
 22
31.1422827828
 13
154.7768668074
 23
31.1422827828
  0
SOLID
  8
0
 62
7
  6
CONTINUOUS
 10
154.7768668074
 20
31.1422827828
 11
154.5456166972
 21
31.1100184386
 12
154.0831168074
 22
31.1100184386
 13
154.0831168074
 23
31.1100184386
  0
SOLID
  8
0
 62
7
  6
CONTINUOUS
 10
153.9674919177
 20
30.9809642992
 11
154.0831168074
 21
31.1100184386
 12
154.5456166972
 22
31.1100184386
 13
154.5456166972
 23
31.1100184386
  0
SOLID
  8
0
 62
7
  6
CONTINUOUS
 10
154.3143669177
 20
31.0132277988
 11
153.9674919177
 21
30.9809642992
 12
154.4299918074
 22
31.0777556927
 13
154.4299918074
 23
31.0777556927
  0
SOLID
  8
0
 62
7
  6
CONTINUOUS
 10
153.9674919177
 20
30.9809642992
 11
154.5456166972
 21
31.1100184796
 12
154.4299918074
 22
31.0777556927
 13
154.4299918074
 23
31.0777556927
  0
SOLID
  8
0
 62
7
  6
CONTINUOUS
 10
154.3143669177
 20
31.0132277988
 11
154.2565543074
 21
30.9164372091
 12
153.9674919177
 22
30.9809642992
 13
153.9674919177
 23
30.9809642992
  0
SOLID
  8
0
 62
7
  6
CONTINUOUS
 10
153.9674919177
 20
30.8841729058
 11
153.9674919177
 21
30.9809642992
 12
154.2565543074
 22
30.9164372091
 13
154.2565543074
 23
30.9164372091
  0
SOLID
  8
0
 62
7
  6
CONTINUOUS
 10
154.2565543074
 20
30.9164372091
 11
154.2565543074
 21
30.8519086025
 12
153.9674919177
 22
30.8841729058
 13
153.9674919177
 23
30.8841729058
  0
SOLID
  8
0
 62
7
  6
CONTINUOUS
 10
154.0253041972
 20
30.7551187255
 11
153.9674919177
 21
30.8841729058
 12
154.2565543074
 22
30.8519086025
 13
154.2565543074
 23
30.8519086025
  0
SOLID
  8
0
 62
7
  6
CONTINUOUS
 10
155.412804528
 20
30.9487004259
 11
155.7018665869
 21
30.8519086025
 12
155.3549915869
 22
30.8841729058
 13
155.3549915869
 23
30.8841729058
  0
SOLID
  8
0
 62
7
  6
CONTINUOUS
 10
155.1815540869
 20
30.7873815123
 11
155.3549915869
 21
30.8841729058
 12
155.7018665869
 22
30.8519086025
 13
155.7018665869
 23
30.8519086025
  0
SOLID
  8
0
 62
7
  6
CONTINUOUS
 10
155.1815540869
 20
30.7873815123
 11
155.7018665869
 21
30.8519086025
 12
155.412804528
 22
30.7551187255
 13
155.412804528
 23
30.7551187255
  0
SOLID
  8
0
 62
7
  6
CONTINUOUS
 10
155.7018665869
 20
30.8519086025
 11
155.759679528
 21
30.6905916353
 12
155.412804528
 22
30.7551187255
 13
155.412804528
 23
30.7551187255
  0
SOLID
  8
0
 62
7
  6
CONTINUOUS
 10
155.4706168074
 20
30.658327332
 11
155.412804528
 21
30.7551187255
 12
155.759679528
 22
30.6905916353
 13
155.759679528
 23
30.6905916353
  0
SOLID
  8
0
 62
7
  6
CONTINUOUS
 10
155.4706168074
 20
30.658327332
 11
155.759679528
 21
30.6905916353
 12
155.5284290869
 22
30.5938002079
 13
155.5284290869
 23
30.5938002079
  0
SOLID
  8
0
 62
7
  6
CONTINUOUS
 10
155.759679528
 20
30.6905916353
 11
155.8174918074
 21
30.5938002079
 12
155.5284290869
 22
30.5938002079
 13
155.5284290869
 23
30.5938002079
  0
SOLID
  8
0
 62
7
  6
CONTINUOUS
 10
151.0768668626
 20
30.8196456577
 11
151.1346793074
 21
30.9164373395
 12
151.4237418626
 22
30.9164373395
 13
151.4237418626
 23
30.9164373395
  0
SOLID
  8
0
 62
7
  6
CONTINUOUS
 10
151.4237418626
 20
30.9164373395
 11
151.3659292523
 21
30.7873815123
 12
151.0768668626
 22
30.8196456577
 13
151.0768668626
 23
30.8196456577
  0
SOLID
  8
0
 62
7
  6
CONTINUOUS
 10
150.9034292799
 20
30.7551187255
 11
151.0768668626
 21
30.8196456577
 12
151.3659292523
 22
30.7873815123
 13
151.3659292523
 23
30.7873815123
  0
SOLID
  8
0
 62
7
  6
CONTINUOUS
 10
150.9034292799
 20
30.7551187255
 11
151.3659292523
 21
30.7873815123
 12
150.498741835
 22
30.7228544222
 13
150.498741835
 23
30.7228544222
  0
SOLID
  8
0
 62
7
  6
CONTINUOUS
 10
151.3659292523
 20
30.7873815123
 11
151.1924917523
 21
30.6905916353
 12
150.498741835
 22
30.7228544222
 13
150.498741835
 23
30.7228544222
  0
SOLID
  8
0
 62
7
  6
CONTINUOUS
 10
150.0362418212
 20
30.658327332
 11
150.498741835
 21
30.7228544222
 12
151.1924917523
 22
30.6905916353
 13
151.1924917523
 23
30.6905916353
  0
SOLID
  8
0
 62
7
  6
CONTINUOUS
 10
150.0362418212
 20
30.658327332
 11
151.1924917523
 21
30.6905916353
 12
150.2096793212
 22
30.6260631011
 13
150.2096793212
 23
30.6260631011
  0
SOLID
  8
0
 62
7
  6
CONTINUOUS
 10
151.1924917523
 20
30.6905916353
 11
150.9612418074
 21
30.6260631011
 12
150.2096793212
 22
30.6260631011
 13
150.2096793212
 23
30.6260631011
  0
SOLID
  8
0
 62
7
  6
CONTINUOUS
 10
150.5565542799
 20
30.5938002419
 11
150.2096793212
 21
30.6260631011
 12
150.9612418074
 22
30.6260631011
 13
150.9612418074
 23
30.6260631011
  0
SOLID
  8
0
 62
7
  6
CONTINUOUS
 10
154.0253041972
 20
30.7551187255
 11
154.2565543074
 21
30.8519086025
 12
154.3143669177
 22
30.7873815123
 13
154.3143669177
 23
30.7873815123
  0
SOLID
  8
0
 62
7
  6
CONTINUOUS
 10
154.3143669177
 20
30.7873815123
 11
154.5456166972
 21
30.7228544222
 12
154.0253041972
 22
30.7551187255
 13
154.0253041972
 23
30.7551187255
  0
SOLID
  8
0
 62
7
  6
CONTINUOUS
 10
154.1987416972
 20
30.658327332
 11
154.0253041972
 21
30.7551187255
 12
154.5456166972
 22
30.7228544222
 13
154.5456166972
 23
30.7228544222
  0
SOLID
  8
0
 62
7
  6
CONTINUOUS
 10
154.8924916972
 20
30.7228544637
 11
155.1815540869
 21
30.7873815123
 12
155.412804528
 22
30.7551187255
 13
155.412804528
 23
30.7551187255
  0
SOLID
  8
0
 62
7
  6
CONTINUOUS
 10
155.412804528
 20
30.7551187255
 11
155.3549915869
 21
30.6905916353
 12
154.8924916972
 22
30.7228544637
 13
154.8924916972
 23
30.7228544637
  0
SOLID
  8
0
 62
7
  6
CONTINUOUS
 10
155.3549915869
 20
30.6905916353
 11
154.1987416972
 21
30.658327332
 12
154.8924916972
 22
30.7228544637
 13
154.8924916972
 23
30.7228544637
  0
SOLID
  8
0
 62
7
  6
CONTINUOUS
 10
154.1987416972
 20
30.658327332
 11
154.5456166972
 21
30.7228544637
 12
154.8924916972
 22
30.7228544637
 13
154.8924916972
 23
30.7228544637
  0
SOLID
  8
0
 62
7
  6
CONTINUOUS
 10
154.1987416972
 20
30.658327332
 11
155.3549915869
 21
30.6905916353
 12
154.3143669177
 22
30.6260630541
 13
154.3143669177
 23
30.6260630541
  0
SOLID
  8
0
 62
7
  6
CONTINUOUS
 10
155.3549915869
 20
30.6905916353
 11
155.1815540869
 21
30.6260630541
 12
154.3143669177
 22
30.6260630541
 13
154.3143669177
 23
30.6260630541
  0
SOLID
  8
0
 62
7
  6
CONTINUOUS
 10
154.5456166972
 20
30.5938002188
 11
154.3143669177
 21
30.6260630541
 12
155.1815540869
 22
30.6260630541
 13
155.1815540869
 23
30.6260630541
  0
SOLID
  8
0
 62
7
  6
CONTINUOUS
 10
155.1815540869
 20
30.6260630541
 11
154.8924916972
 21
30.5938002188
 12
154.5456166972
 22
30.5938002188
 13
154.5456166972
 23
30.5938002188
  0
SOLID
  8
0
 62
7
  6
CONTINUOUS
 10
159.575304528
 20
30.7551187255
 11
159.228429528
 21
30.7228544637
 12
159.4596793074
 22
30.7873815123
 13
159.4596793074
 23
30.7873815123
  0
SOLID
  8
0
 62
7
  6
CONTINUOUS
 10
159.4596793074
 20
30.7873815123
 11
159.228429528
 21
30.7228544637
 12
159.401867028
 22
30.851908644
 13
159.401867028
 23
30.851908644
  0
SOLID
  8
0
 62
7
  6
CONTINUOUS
 10
159.228429528
 20
30.7228544637
 11
159.1128043074
 21
30.851908644
 12
159.401867028
 22
30.851908644
 13
159.401867028
 23
30.851908644
  0
SOLID
  8
0
 62
7
  6
CONTINUOUS
 10
159.575304528
 20
30.7551187255
 11
159.922179528
 21
30.7228544637
 12
159.228429528
 22
30.7228544637
 13
159.228429528
 23
30.7228544637
  0
SOLID
  8
0
 62
7
  6
CONTINUOUS
 10
156.279992028
 20
30.5938002419
 11
156.279992028
 21
31.6262382337
 12
156.5690540869
 22
30.5938002419
 13
156.5690540869
 23
31.6262382337
  0
ENDBLK
  8
0
  6
BYBLOCK
 62
0
  0
BLOCK
  8
0
 62
2
  6
CONTINUOUS
  2
SYMBOL_3_BL0
 70
64
 10
32.1133409355
 20
19.8355904043
  0
TEXT
  8
0
 62
7
  6
CONTINUOUS
 10
18.3860103289
 20
19.2268451992
  7
TEXTSTYLE_3
 40
2.7338706658
  1
Ammeraal Beltech
 41
1.0
 51
15.0
 72
0
  0
TEXT
  8
0
 62
7
  6
CONTINUOUS
 10
29.1868111546
 20
16.9533085264
  7
TEXTSTYLE_4
 40
1.0935482663
  1
Innovation & Service in Belting
 41
1.0
 72
0
  0
LINE
  8
0
 62
7
  6
CONTINUOUS
 10
12.3614696776
 20
19.9934385078
 11
13.1396216709
 21
23.6543558055
  0
LINE
  8
0
 62
7
  6
CONTINUOUS
 10
23.2347899607
 20
27.3177497171
 11
13.6274394139
 21
24.1961322958
  0
LINE
  8
0
 62
7
  6
CONTINUOUS
 10
12.5867530099
 20
19.3000877048
 11
20.093828271
 21
12.5406867788
  0
LINE
  8
0
 62
7
  6
CONTINUOUS
 10
12.8492874206
 20
20.5352149982
 11
23.6575567857
 21
24.0470345971
  0
LINE
  8
0
 62
7
  6
CONTINUOUS
 10
23.6533516486
 20
13.6972460334
 11
15.2078919798
 21
21.3015720751
  0
LINE
  8
0
 62
7
  6
CONTINUOUS
 10
24.1731743684
 20
26.4728246013
 11
23.1966148312
 21
21.8784731989
  0
LINE
  8
0
 62
7
  6
CONTINUOUS
 10
22.4968128835
 20
18.5861638851
 11
21.810364672
 21
15.3566789607
  0
LINE
  8
0
 62
7
  6
CONTINUOUS
 10
24.8542704669
 20
14.087448211
 11
25.8105020025
 21
18.5861638851
  0
LINE
  8
0
 62
7
  6
CONTINUOUS
 10
26.5103039502
 20
21.8784731989
 11
26.9545457526
 21
23.9684665583
  0
LINE
  8
0
 62
7
  6
CONTINUOUS
 10
20.8069293463
 20
12.3891124661
 11
24.3664527239
 21
13.5456717207
  0
LINE
  8
0
 62
7
  6
CONTINUOUS
 10
23.9478910361
 20
27.1661754044
 11
26.7292624203
 21
24.6618173613
  0
ARC
  8
0
 62
7
  6
CONTINUOUS
 10
13.8527227462
 20
23.5027814928
 40
0.7290321776
 50
108.0
 51
168.0
  0
ARC
  8
0
 62
7
  6
CONTINUOUS
 10
23.4600732931
 20
26.624398914
 40
0.7290321776
 50
348.0
 51
108.0
  0
ARC
  8
0
 62
7
  6
CONTINUOUS
 10
26.2414446773
 20
24.120040871
 40
0.7290321776
 50
348.0
 51
48.0
  0
ARC
  8
0
 62
7
  6
CONTINUOUS
 10
20.581646014
 20
13.0824632691
 40
0.7290321776
 50
228.0
 51
288.0
  0
ARC
  8
0
 62
7
  6
CONTINUOUS
 10
13.0745707529
 20
19.8418641951
 40
0.7290321776
 50
108.0
 51
228.0
  0
ARC
  8
0
 62
7
  6
CONTINUOUS
 10
24.1411693916
 20
14.2390225237
 40
0.7290321776
 50
228.0
 51
348.0
  0
ENDBLK
  8
0
  6
BYBLOCK
 62
0
  0
ENDSEC
  0
SECTION
  2
ENTITIES
  0
TEXT
  8
0
 62
5
  6
CONTINUOUS
 10
96.0
 20
25.636
  7
TEXTSTYLE_2
 40
2.8
  1
Scale :
 41
0.6
 51
0.000019
 72
0
  0
TEXT
  8
0
 62
5
  6
CONTINUOUS
 10
116.0
 20
25.636
  7
TEXTSTYLE_2
 40
2.8
  1
Belt type:
 41
0.6
 51
0.000019
 72
0
  0
INSERT
  8
0
 62
2
  6
CONTINUOUS
  2
SYMBOL_3_BL0
 10
32.1133409355
 20
19.8355904043
  0
INSERT
  8
0
 62
2
  6
CONTINUOUS
  2
SYMBOL_8_BL1
 10
173.5956734183
 20
35.5426498779
  0
LINE
  8
0
 62
2
  6
CONTINUOUS
 10
10.0
 20
30.0
 11
200.0
 21
30.0
  0
LINE
  8
0
 62
2
  6
CONTINUOUS
 10
10.0
 20
30.0
 11
10.0
 21
10.0
  0
LINE
  8
0
 62
2
  6
CONTINUOUS
 10
10.0
 20
10.0
 11
200.0
 21
10.0
  0
LINE
  8
0
 62
2
  6
CONTINUOUS
 10
95.0
 20
30.0
 11
95.0
 21
10.0
  0
LINE
  8
0
 62
2
  6
CONTINUOUS
 10
115.0
 20
30.0
 11
115.0
 21
10.0
  0
LINE
  8
0
 62
2
  6
CONTINUOUS
 10
200.0
 20
30.0
 11
200.0
 21
10.0
  0
TEXT
  8
0
 62
5
  6
CONTINUOUS
 10
13.0
 20
23.303
  7
TEXTSTYLE_5
 40
1.52
  1
                                                                     Ammeraal Beltech Modular A/S
 41
1.0
 72
0
  0
TEXT
  8
0
 62
5
  6
CONTINUOUS
 10
13.0
 20
20.595
  7
TEXTSTYLE_5
 40
1.5
  1
                                                                      Hjulmagervej 21,  7100 Vejle,  DK
 41
1.0
 72
0
  0
TEXT
  8
0
 62
5
  6
CONTINUOUS
 10
13.0
 20
17.881
  7
TEXTSTYLE_5
 40
1.495
  1
                                                                      tel: 
 41
1.0
 72
0
  0
TEXT
  8
0
 62
5
  6
CONTINUOUS
 10
57.9869465649
 20
17.881
  7
TEXTSTYLE_5
 40
1.51
  1
+45 75723100     fax: +45 75723348
 41
1.0
 72
0
  0
TEXT
  8
0
 62
5
  6
CONTINUOUS
 10
13.0
 20
15.177
  7
TEXTSTYLE_5
 40
1.5
  1
                                                                      admin@unichains.dk  www.unichains.com
 41
1.0
 72
0
  0
TEXT
  8
0
 62
5
  6
CONTINUOUS
 10
99.75
 20
13.75
  7
TEXTSTYLE_6
 40
5.0
  1
1:1
 41
0.7
 72
1
 11
105.0
 21
13.75
  0
TEXT
  8
0
 62
5
  6
CONTINUOUS
 10
118.0
 20
13.75
  7
TEXTSTYLE_7
 40
7.5
  1
uni Flex SNB Sideguard Right
 41
0.3891369048
 72
0
  0
LINE
  8
0
 62
7
  6
CONTINUOUS
 10
210.0
 20
0.0
 11
0.0
 21
0.0
  0
LINE
  8
0
 62
7
  6
CONTINUOUS
 10
10.0
 20
10.0
 11
200.0
 21
10.0
  0
LINE
  8
0
 62
7
  6
CONTINUOUS
 10
10.0
 20
30.0
 11
200.0
 21
30.0
  0
LINE
  8
0
 62
7
  6
CONTINUOUS
 10
0.0
 20
0.0
 11
0.0
 21
297.0
  0
LINE
  8
0
 62
7
  6
CONTINUOUS
 10
10.0
 20
10.0
 11
10.0
 21
287.0
  0
LINE
  8
0
 62
7
  6
CONTINUOUS
 10
200.0
 20
287.0
 11
200.0
 21
10.0
  0
LINE
  8
0
 62
7
  6
CONTINUOUS
 10
210.0
 20
0.0
 11
210.0
 21
297.0
  0
LINE
  8
0
 62
7
  6
CONTINUOUS
 10
10.0
 20
287.0
 11
200.0
 21
287.0
  0
LINE
  8
0
 62
7
  6
CONTINUOUS
 10
0.0
 20
297.0
 11
210.0
 21
297.0
  0
LINE
  8
0
 62
7
  6
CONTINUOUS
 10
57.7245135919
 20
123.4637789737
 11
57.7245135919
 21
121.9471197819
  0
LINE
  8
DEFAULT_1
 62
7
  6
CENTER
 10
66.7468625006
 20
118.2110332698
 11
66.7468625006
 21
123.6110332698
  0
POLYLINE
  8
0
 62
7
  6
CONTINUOUS
 66
1
 70
0
  0
VERTEX
  8
0
 62
7
  6
CONTINUOUS
 10
82.0598944898
 20
111.3990232961
  0
VERTEX
  8
0
 62
7
  6
CONTINUOUS
 10
82.1743620674
 20
111.403702622
  0
VERTEX
  8
0
 62
7
  6
CONTINUOUS
 10
82.304159095
 20
111.4083846006
  0
VERTEX
  8
0
 62
7
  6
CONTINUOUS
 10
82.4428022637
 20
111.4127840849
  0
VERTEX
  8
0
 62
7
  6
CONTINUOUS
 10
82.5896943044
 20
111.4168770575
  0
VERTEX
  8
0
 62
7
  6
CONTINUOUS
 10
82.7441847122
 20
111.4206415119
  0
VERTEX
  8
0
 62
7
  6
CONTINUOUS
 10
82.9055840327
 20
111.4240577751
  0
VERTEX
  8
0
 62
7
  6
CONTINUOUS
 10
83.0731673011
 20
111.427108458
  0
VERTEX
  8
0
 62
7
  6
CONTINUOUS
 10
83.2461838194
 20
111.4297785269
  0
VERTEX
  8
0
 62
7
  6
CONTINUOUS
 10
83.4238876696
 20
111.4320555417
  0
VERTEX
  8
0
 62
7
  6
CONTINUOUS
 10
83.6055210603
 20
111.4339290946
  0
VERTEX
  8
0
 62
7
  6
CONTINUOUS
 10
83.7903076474
 20
111.435390654
  0
VERTEX
  8
0
 62
7
  6
CONTINUOUS
 10
83.9774537173
 20
111.436433593
  0
VERTEX
  8
0
 62
7
  6
CONTINUOUS
 10
84.1661686702
 20
111.4370532782
  0
VERTEX
  8
0
 62
7
  6
CONTINUOUS
 10
84.3468625006
 20
111.4372474032
  0
SEQEND
  0
LINE
  8
0
 62
7
  6
CONTINUOUS
 10
82.0185649272
 20
111.3980604837
 11
82.0598925061
 21
111.3990231992
  0
LINE
  8
0
 62
7
  6
CONTINUOUS
 10
92.606925284
 20
111.435982377
 11
92.7681256502
 21
111.4375480588
  0
POLYLINE
  8
0
 62
7
  6
CONTINUOUS
 66
1
 70
0
  0
VERTEX
  8
0
 62
7
  6
CONTINUOUS
 10
92.6069252869
 20
111.435982377
  0
VERTEX
  8
0
 62
7
  6
CONTINUOUS
 10
92.7677430213
 20
111.4375324468
  0
VERTEX
  8
0
 62
7
  6
CONTINUOUS
 10
92.9373353049
 20
111.4444521177
  0
VERTEX
  8
0
 62
7
  6
CONTINUOUS
 10
93.1056657691
 20
111.4566938724
  0
VERTEX
  8
0
 62
7
  6
CONTINUOUS
 10
93.2722701751
 20
111.4741047027
  0
VERTEX
  8
0
 62
7
  6
CONTINUOUS
 10
93.4366613377
 20
111.4964831288
  0
VERTEX
  8
0
 62
7
  6
CONTINUOUS
 10
93.5983497183
 20
111.5235780059
  0
VERTEX
  8
0
 62
7
  6
CONTINUOUS
 10
93.7567824839
 20
111.5550733845
  0
VERTEX
  8
0
 62
7
  6
CONTINUOUS
 10
93.9110184113
 20
111.5904970818
  0
VERTEX
  8
0
 62
7
  6
CONTINUOUS
 10
94.0600091309
 20
111.6292374409
  0
VERTEX
  8
0
 62
7
  6
CONTINUOUS
 10
94.2027836421
 20
111.6705844416
  0
VERTEX
  8
0
 62
7
  6
CONTINUOUS
 10
94.3384558924
 20
111.7137467103
  0
VERTEX
  8
0
 62
7
  6
CONTINUOUS
 10
94.4604816835
 20
111.7558130005
  0
SEQEND
  0
POLYLINE
  8
0
 62
7
  6
CONTINUOUS
 66
1
 70
0
  0
VERTEX
  8
0
 62
7
  6
CONTINUOUS
 10
84.3468625006
 20
111.4372474014
  0
VERTEX
  8
0
 62
7
  6
CONTINUOUS
 10
92.297337409
 20
111.4371128178
  0
VERTEX
  8
0
 62
7
  6
CONTINUOUS
 10
92.456940632
 20
111.4366746886
  0
VERTEX
  8
0
 62
7
  6
CONTINUOUS
 10
92.6069252181
 20
111.4359823604
  0
SEQEND
  0
LINE
  8
0
 62
7
  6
CONTINUOUS
 10
81.9724979043
 20
111.3989552038
 11
82.0188835096
 21
111.398067905
  0
LINE
  8
0
 62
7
  6
CONTINUOUS
 10
81.9285991932
 20
111.4017480365
 11
81.9730730595
 21
111.3989312178
  0
LINE
  8
0
 62
7
  6
CONTINUOUS
 10
81.8868124366
 20
111.4061861529
 11
81.9291439763
 21
111.4017016902
  0
LINE
  8
0
 62
7
  6
CONTINUOUS
 10
81.8470615412
 20
111.4120441204
 11
81.887325242
 21
111.4061210703
  0
LINE
  8
0
 62
7
  6
CONTINUOUS
 10
81.8092662462
 20
111.4191250749
 11
81.8475420577
 21
111.4119636529
  0
LINE
  8
0
 62
7
  6
CONTINUOUS
 10
81.7733516642
 20
111.4272517389
 11
81.8097145898
 21
111.4190323099
  0
LINE
  8
0
 62
7
  6
CONTINUOUS
 10
81.7392188677
 20
111.4362740805
 11
81.77376889
 21
111.4271493637
  0
LINE
  8
0
 62
7
  6
CONTINUOUS
 10
81.7067914747
 20
111.4460553648
 11
81.7396066177
 21
111.4361643315
  0
LINE
  8
0
 62
7
  6
CONTINUOUS
 10
81.6759791312
 20
111.4564783284
 11
81.7071519005
 21
111.4459400287
  0
LINE
  8
0
 62
7
  6
CONTINUOUS
 10
81.6466957743
 20
111.4674417557
 11
81.6763149613
 21
111.4563586503
  0
LINE
  8
0
 62
7
  6
CONTINUOUS
 10
81.6188744416
 20
111.4788500282
 11
81.6470097236
 21
111.467318611
  0
LINE
  8
0
 62
7
  6
CONTINUOUS
 10
81.5924395663
 20
111.4906217841
 11
81.6191690999
 21
111.4787240032
  0
LINE
  8
0
 62
7
  6
CONTINUOUS
 10
81.5673145884
 20
111.5026885473
 11
81.5927173655
 21
111.490493218
  0
LINE
  8
0
 62
7
  6
CONTINUOUS
 10
81.5434347043
 20
111.5149862866
 11
81.5675778298
 21
111.5025575529
  0
LINE
  8
0
 62
7
  6
CONTINUOUS
 10
81.5207329824
 20
111.527460555
 11
81.5436855424
 21
111.5148527871
  0
LINE
  8
0
 62
7
  6
CONTINUOUS
 10
81.4991362116
 20
111.5400697304
 11
81.5209732229
 21
111.5273244247
  0
LINE
  8
0
 62
7
  6
CONTINUOUS
 10
81.4785795728
 20
111.5527766008
 11
81.4993672134
 21
111.5399309076
  0
LINE
  8
0
 62
7
  6
CONTINUOUS
 10
81.4590020054
 20
111.5655492897
 11
81.4788023293
 21
111.5526351009
  0
LINE
  8
0
 62
7
  6
CONTINUOUS
 10
81.4403446938
 20
111.5783616232
 11
81.4592171513
 21
111.5654052516
  0
LINE
  8
0
 62
7
  6
CONTINUOUS
 10
81.4225514325
 20
111.5911924911
 11
81.4405525313
 21
111.5782153413
  0
LINE
  8
0
 62
7
  6
CONTINUOUS
 10
81.4055743258
 20
111.604020975
 11
81.4227519543
 21
111.5910444478
  0
LINE
  8
0
 62
7
  6
CONTINUOUS
 10
81.3893729957
 20
111.6168255332
 11
81.4057674886
 21
111.6038716773
  0
LINE
  8
0
 62
7
  6
CONTINUOUS
 10
81.3739086627
 20
111.6295877159
 11
81.3895588117
 21
111.6166754466
  0
LINE
  8
0
 62
7
  6
CONTINUOUS
 10
81.3591463258
 20
111.6422899428
 11
81.3740871865
 21
111.6294372682
  0
LINE
  8
0
 62
7
  6
CONTINUOUS
 10
81.3450561069
 20
111.6549131324
 11
81.3593177186
 21
111.6421394602
  0
LINE
  8
0
 62
7
  6
CONTINUOUS
 10
81.3316038682
 20
111.6674450727
 11
81.3452205027
 21
111.654762946
  0
LINE
  8
0
 62
7
  6
CONTINUOUS
 10
81.3187565475
 20
111.6798762874
 11
81.3317614061
 21
111.6672954977
  0
LINE
  8
0
 62
7
  6
CONTINUOUS
 10
81.3064854914
 20
111.6921964895
 11
81.318907394
 21
111.6797276006
  0
LINE
  8
0
 62
7
  6
CONTINUOUS
 10
81.2947767564
 20
111.7043828525
 11
81.3066299374
 21
111.6920488277
  0
LINE
  8
0
 62
7
  6
CONTINUOUS
 10
81.2836281675
 20
111.7163996052
 11
81.2949152106
 21
111.7042362058
  0
LINE
  8
0
 62
7
  6
CONTINUOUS
 10
81.2730256978
 20
111.7282229357
 11
81.2837610208
 21
111.7162539506
  0
LINE
  8
0
 62
7
  6
CONTINUOUS
 10
81.2629534399
 20
111.7398323438
 11
81.2731533135
 21
111.7280782482
  0
LINE
  8
0
 62
7
  6
CONTINUOUS
 10
81.2533951461
 20
111.7512091652
 11
81.2630761722
 21
111.7396885778
  0
LINE
  8
0
 62
7
  6
CONTINUOUS
 10
81.1329186229
 20
111.9320058374
 11
81.1478415819
 21
111.9078025027
  0
LINE
  8
0
 62
7
  6
CONTINUOUS
 10
81.1656974527
 20
111.8763866142
 11
81.1696418212
 21
111.869758729
  0
LINE
  8
0
 62
7
  6
CONTINUOUS
 10
81.1586303355
 20
111.8885461671
 11
81.1620290866
 21
111.8826524817
  0
POLYLINE
  8
0
 62
7
  6
CONTINUOUS
 66
1
 70
0
  0
VERTEX
  8
0
 62
7
  6
CONTINUOUS
 10
81.1555482636
 20
111.8939641027
  0
VERTEX
  8
0
 62
7
  6
CONTINUOUS
 10
81.158684074
 20
111.8884523159
  0
VERTEX
  8
0
 62
7
  6
CONTINUOUS
 10
81.1620877172
 20
111.8825515559
  0
VERTEX
  8
0
 62
7
  6
CONTINUOUS
 10
81.165760914
 20
111.8762790838
  0
VERTEX
  8
0
 62
7
  6
CONTINUOUS
 10
81.1697100224
 20
111.869645118
  0
VERTEX
  8
0
 62
7
  6
CONTINUOUS
 10
81.1739448999
 20
111.862655304
  0
VERTEX
  8
0
 62
7
  6
CONTINUOUS
 10
81.178482211
 20
111.855305881
  0
VERTEX
  8
0
 62
7
  6
CONTINUOUS
 10
81.1833327151
 20
111.8476044468
  0
VERTEX
  8
0
 62
7
  6
CONTINUOUS
 10
81.1885111342
 20
111.8395530582
  0
VERTEX
  8
0
 62
7
  6
CONTINUOUS
 10
81.1940420687
 20
111.8311406842
  0
VERTEX
  8
0
 62
7
  6
CONTINUOUS
 10
81.1999523699
 20
111.8223563366
  0
VERTEX
  8
0
 62
7
  6
CONTINUOUS
 10
81.2062706056
 20
111.8131902919
  0
VERTEX
  8
0
 62
7
  6
CONTINUOUS
 10
81.2130120468
 20
111.8036551934
  0
VERTEX
  8
0
 62
7
  6
CONTINUOUS
 10
81.2201821345
 20
111.7937776566
  0
VERTEX
  8
0
 62
7
  6
CONTINUOUS
 10
81.2277991606
 20
111.7835671293
  0
VERTEX
  8
0
 62
7
  6
CONTINUOUS
 10
81.2358818711
 20
111.7730346591
  0
VERTEX
  8
0
 62
7
  6
CONTINUOUS
 10
81.2444491686
 20
111.7621933213
  0
VERTEX
  8
0
 62
7
  6
CONTINUOUS
 10
81.2535133398
 20
111.7510662554
  0
SEQEND
  0
LINE
  8
0
 62
7
  6
CONTINUOUS
 10
81.1526388802
 20
111.8991412037
 11
81.1554994711
 21
111.8940504293
  0
LINE
  8
0
 62
7
  6
CONTINUOUS
 10
81.1404736286
 20
111.9212768054
 11
81.1526388802
 21
111.8991412037
  0
LINE
  8
0
 62
7
  6
CONTINUOUS
 10
81.118294654
 20
111.9632686438
 11
81.1329186229
 21
111.9320058374
  0
POLYLINE
  8
0
 62
7
  6
CONTINUOUS
 66
1
 70
0
  0
VERTEX
  8
0
 62
7
  6
CONTINUOUS
 10
81.118294726
 20
111.9632686862
  0
VERTEX
  8
0
 62
7
  6
CONTINUOUS
 10
81.0966527158
 20
112.0228569551
  0
VERTEX
  8
0
 62
7
  6
CONTINUOUS
 10
81.0788250756
 20
112.0836991445
  0
VERTEX
  8
0
 62
7
  6
CONTINUOUS
 10
81.0648839122
 20
112.1455504073
  0
VERTEX
  8
0
 62
7
  6
CONTINUOUS
 10
81.0548855206
 20
112.2081621132
  0
VERTEX
  8
0
 62
7
  6
CONTINUOUS
 10
81.0488702838
 20
112.2712825171
  0
VERTEX
  8
0
 62
7
  6
CONTINUOUS
 10
81.0468625006
 20
112.3346578124
  0
SEQEND
  0
LINE
  8
0
 62
7
  6
CONTINUOUS
 10
81.0468625006
 20
112.3346578124
 11
81.0468625006
 21
117.0259398833
  0
LINE
  8
0
 62
7
  6
CONTINUOUS
 10
81.0468625006
 20
117.0571773977
 11
81.0468625006
 21
117.2616548187
  0
POLYLINE
  8
0
 62
7
  6
CONTINUOUS
 66
1
 70
0
  0
VERTEX
  8
0
 62
7
  6
CONTINUOUS
 10
81.047349726
 20
117.0571773977
  0
VERTEX
  8
0
 62
7
  6
CONTINUOUS
 10
81.0469843355
 20
117.041559591
  0
VERTEX
  8
0
 62
7
  6
CONTINUOUS
 10
81.0468625006
 20
117.0259398833
  0
SEQEND
  0
POLYLINE
  8
0
 62
7
  6
CONTINUOUS
 66
1
 70
0
  0
VERTEX
  8
0
 62
7
  6
CONTINUOUS
 10
81.1182950122
 20
117.6330623927
  0
VERTEX
  8
0
 62
7
  6
CONTINUOUS
 10
81.0966530024
 20
117.5734714367
  0
VERTEX
  8
0
 62
7
  6
CONTINUOUS
 10
81.0788253043
 20
117.5126263514
  0
VERTEX
  8
0
 62
7
  6
CONTINUOUS
 10
81.0648840612
 20
117.450772027
  0
VERTEX
  8
0
 62
7
  6
CONTINUOUS
 10
81.0548855934
 20
117.3881571291
  0
VERTEX
  8
0
 62
7
  6
CONTINUOUS
 10
81.048870303
 20
117.3250334433
  0
VERTEX
  8
0
 62
7
  6
CONTINUOUS
 10
81.0468625006
 20
117.2616548187
  0
SEQEND
  0
LINE
  8
0
 62
7
  6
CONTINUOUS
 10
81.1182949375
 20
117.6330624234
 11
81.1329188578
 21
117.6643266821
  0
LINE
  8
0
 62
7
  6
CONTINUOUS
 10
81.148288127
 20
117.6889503186
 11
81.1415925455
 21
117.6768018654
  0
LINE
  8
0
 62
7
  6
CONTINUOUS
 10
81.1419136988
 20
117.6773814471
 11
81.1412592153
 21
117.6762043846
  0
LINE
  8
0
 62
7
  6
CONTINUOUS
 10
81.1536447652
 20
117.6985422516
 11
81.148288127
 21
117.6889503186
  0
LINE
  8
0
 62
7
  6
CONTINUOUS
 10
81.1568205653
 20
117.7041402723
 11
81.1511334285
 21
117.6940672597
  0
LINE
  8
0
 62
7
  6
CONTINUOUS
 10
81.1572246852
 20
117.7048475511
 11
81.1540137637
 21
117.6991962619
  0
LINE
  8
0
 62
7
  6
CONTINUOUS
 10
81.1607762989
 20
117.7110131327
 11
81.1568205653
 21
117.7041402723
  0
LINE
  8
0
 62
7
  6
CONTINUOUS
 10
81.1646780375
 20
117.7176815746
 11
81.1603368656
 21
117.7102552109
  0
LINE
  8
0
 62
7
  6
CONTINUOUS
 10
81.1689509789
 20
117.7248588076
 11
81.1642026142
 21
117.7168749122
  0
LINE
  8
0
 62
7
  6
CONTINUOUS
 10
81.1736216644
 20
117.7325559574
 11
81.1684376977
 21
117.7240035424
  0
LINE
  8
0
 62
7
  6
CONTINUOUS
 10
81.1329188578
 20
117.6643266821
 11
81.1500074269
 21
117.6920439606
  0
LINE
  8
0
 62
7
  6
CONTINUOUS
 10
81.1787131206
 20
117.7407739931
 11
81.1730683355
 21
117.7316520667
  0
LINE
  8
0
 62
7
  6
CONTINUOUS
 10
81.1842170411
 20
117.7494611535
 11
81.1781198665
 21
117.7398255459
  0
LINE
  8
0
 62
7
  6
CONTINUOUS
 10
81.1901145754
 20
117.758551792
 11
81.1835889386
 21
117.7484798739
  0
LINE
  8
0
 62
7
  6
CONTINUOUS
 10
81.1963956124
 20
117.7679965332
 11
81.1894550823
 21
117.7575461212
  0
LINE
  8
0
 62
7
  6
CONTINUOUS
 10
81.2030460686
 20
117.7777420797
 11
81.1957082291
 21
117.766974503
  0
LINE
  8
0
 62
7
  6
CONTINUOUS
 10
81.2100472112
 20
117.7877312088
 11
81.2023347207
 21
117.7767118261
  0
LINE
  8
0
 62
7
  6
CONTINUOUS
 10
81.2123003073
 20
117.7908549641
 11
81.2093165027
 21
117.7867012293
  0
LINE
  8
0
 62
7
  6
CONTINUOUS
 10
58.3636574334
 20
121.205607521
 11
100.308353451
 21
114.9369306999
  0
POLYLINE
  8
0
 62
7
  6
CONTINUOUS
 66
1
 70
0
  0
VERTEX
  8
0
 62
7
  6
CONTINUOUS
 10
81.0789234209
 20
112.2929973154
  0
VERTEX
  8
0
 62
7
  6
CONTINUOUS
 10
81.0736015165
 20
112.3144778042
  0
VERTEX
  8
0
 62
7
  6
CONTINUOUS
 10
81.0687787291
 20
112.3359615323
  0
VERTEX
  8
0
 62
7
  6
CONTINUOUS
 10
81.0644883271
 20
112.3572386928
  0
VERTEX
  8
0
 62
7
  6
CONTINUOUS
 10
81.0607436229
 20
112.3781116979
  0
VERTEX
  8
0
 62
7
  6
CONTINUOUS
 10
81.057545014
 20
112.39836379
  0
VERTEX
  8
0
 62
7
  6
CONTINUOUS
 10
81.0548757332
 20
112.4177874746
  0
VERTEX
  8
0
 62
7
  6
CONTINUOUS
 10
81.0526993724
 20
112.4362317156
  0
VERTEX
  8
0
 62
7
  6
CONTINUOUS
 10
81.0509710619
 20
112.4535553655
  0
VERTEX
  8
0
 62
7
  6
CONTINUOUS
 10
81.0496388463
 20
112.4696395617
  0
VERTEX
  8
0
 62
7
  6
CONTINUOUS
 10
81.0486464219
 20
112.4843953796
  0
VERTEX
  8
0
 62
7
  6
CONTINUOUS
 10
81.047936539
 20
112.4977634734
  0
VERTEX
  8
0
 62
7
  6
CONTINUOUS
 10
81.0474535601
 20
112.5097217998
  0
VERTEX
  8
0
 62
7
  6
CONTINUOUS
 10
81.0471463201
 20
112.5202772938
  0
VERTEX
  8
0
 62
7
  6
CONTINUOUS
 10
81.0469694368
 20
112.5294802399
  0
VERTEX
  8
0
 62
7
  6
CONTINUOUS
 10
81.0468849947
 20
112.537401505
  0
SEQEND
  0
LINE
  8
0
 62
7
  6
CONTINUOUS
 10
100.5300675677
 20
117.9371136868
 11
58.5853715501
 21
124.2057905079
  0
LINE
  8
0
 62
7
  6
CONTINUOUS
 10
94.4604836061
 20
111.7558136847
 11
94.5563322436
 21
111.7898473692
  0
LINE
  8
0
 62
7
  6
CONTINUOUS
 10
94.5563322436
 20
111.7898473692
 11
94.6485734372
 21
111.822132789
  0
LINE
  8
0
 62
7
  6
CONTINUOUS
 10
94.6485734372
 20
111.822132789
 11
94.7312529867
 21
111.8505910674
  0
LINE
  8
0
 62
7
  6
CONTINUOUS
 10
94.7312529867
 20
111.8505910674
 11
94.8046965987
 21
111.8753899838
  0
LINE
  8
0
 62
7
  6
CONTINUOUS
 10
94.8046965987
 20
111.8753899838
 11
94.8692665139
 21
111.8967124956
  0
POLYLINE
  8
0
 62
7
  6
CONTINUOUS
 66
1
 70
0
  0
VERTEX
  8
0
 62
7
  6
CONTINUOUS
 10
94.8692665139
 20
111.8967124956
  0
VERTEX
  8
0
 62
7
  6
CONTINUOUS
 10
94.9253578099
 20
111.9147557886
  0
VERTEX
  8
0
 62
7
  6
CONTINUOUS
 10
94.9503505383
 20
111.9226115479
  0
VERTEX
  8
0
 62
7
  6
CONTINUOUS
 10
94.9733753043
 20
111.9297246399
  0
VERTEX
  8
0
 62
7
  6
CONTINUOUS
 10
94.9944812319
 20
111.9361212791
  0
VERTEX
  8
0
 62
7
  6
CONTINUOUS
 10
95.0137042025
 20
111.9418243263
  0
VERTEX
  8
0
 62
7
  6
CONTINUOUS
 10
95.0310782754
 20
111.9468571585
  0
VERTEX
  8
0
 62
7
  6
CONTINUOUS
 10
95.0466366631
 20
111.9512444067
  0
VERTEX
  8
0
 62
7
  6
CONTINUOUS
 10
95.060408977
 20
111.9550113017
  0
VERTEX
  8
0
 62
7
  6
CONTINUOUS
 10
95.0724309175
 20
111.9581867569
  0
VERTEX
  8
0
 62
7
  6
CONTINUOUS
 10
95.0827370716
 20
111.9608017636
  0
VERTEX
  8
0
 62
7
  6
CONTINUOUS
 10
95.0913468354
 20
111.9628863737
  0
VERTEX
  8
0
 62
7
  6
CONTINUOUS
 10
95.0982665015
 20
111.9644716659
  0
VERTEX
  8
0
 62
7
  6
CONTINUOUS
 10
95.10348061
 20
111.965589776
  0
VERTEX
  8
0
 62
7
  6
CONTINUOUS
 10
95.1069400928
 20
111.9662745297
  0
VERTEX
  8
0
 62
7
  6
CONTINUOUS
 10
95.1078316648
 20
111.966438754
  0
SEQEND
  0
LINE
  8
0
 62
7
  6
CONTINUOUS
 10
96.7660335115
 20
112.6055443442
 11
95.2082561345
 21
111.9824333934
  0
LINE
  8
DEFAULT_1
 62
7
  6
CENTER
 10
92.1468625006
 20
109.7358812649
 11
92.1468625006
 21
119.3861852746
  0
LINE
  8
0
 62
7
  6
CONTINUOUS
 10
97.0803395148
 20
113.0698769435
 11
97.0803395148
 21
115.4193606151
  0
LINE
  8
0
 62
7
  6
CONTINUOUS
 10
101.1692114094
 20
117.1956014259
 11
101.1692114094
 21
115.6789422341
  0
LINE
  8
0
 62
7
  6
CONTINUOUS
 10
75.7468625006
 20
169.8963656362
 11
66.2468625006
 21
169.8963656362
  0
LINE
  8
0
 62
7
  6
CONTINUOUS
 10
81.5468625006
 20
169.8963656362
 11
92.1468625006
 21
169.8963656362
  0
LINE
  8
0
 62
7
  6
CONTINUOUS
 10
92.1468625006
 20
173.7463656362
 11
84.3468625006
 21
173.7463656362
  0
LINE
  8
0
 62
7
  6
CONTINUOUS
 10
66.0468625006
 20
173.7463656362
 11
66.7468625006
 21
173.7463656362
  0
LINE
  8
0
 62
7
  6
CONTINUOUS
 10
64.2468625006
 20
182.8963656362
 11
57.8948844605
 21
206.6022704107
  0
LINE
  8
DEFAULT_1
 62
7
  6
CENTER
 10
96.5468625006
 20
176.3963656362
 11
94.1469625006
 21
176.3963656362
  0
LINE
  8
0
 62
2
  6
CONTINUOUS
 10
93.0268625006
 20
176.3963656362
 11
91.2668625006
 21
176.3963656362
  0
LINE
  8
0
 62
7
  6
CONTINUOUS
 10
81.6968625951
 20
176.3963657325
 11
81.0468625006
 21
176.3963656362
  0
LINE
  8
DEFAULT_1
 62
7
  6
CENTER
 10
71.1468625006
 20
176.3963656362
 11
68.7469625006
 21
176.3963656362
  0
LINE
  8
0
 62
2
  6
CONTINUOUS
 10
67.6268625006
 20
176.3963656362
 11
65.8668625006
 21
176.3963656362
  0
LINE
  8
DEFAULT_1
 62
7
  6
CENTER
 10
62.3468625006
 20
176.3963656362
 11
64.7467625006
 21
176.3963656362
  0
LINE
  8
DEFAULT_1
 62
7
  6
CENTER
 10
87.7468625006
 20
176.3963656362
 11
90.1467625006
 21
176.3963656362
  0
LINE
  8
0
 62
7
  6
CONTINUOUS
 10
65.7468625006
 20
182.8963656362
 11
65.7468625006
 21
179.3463656362
  0
LINE
  8
0
 62
7
  6
CONTINUOUS
 10
65.7468625006
 20
170.3963656362
 11
65.7468625006
 21
173.4463656362
  0
LINE
  8
DEFAULT_1
 62
7
  6
CENTER
 10
66.7468625006
 20
180.7963656362
 11
66.7468625006
 21
178.3964656362
  0
LINE
  8
0
 62
2
  6
CONTINUOUS
 10
66.7468625006
 20
177.2763656362
 11
66.7468625006
 21
175.5163656362
  0
LINE
  8
DEFAULT_1
 62
7
  6
CENTER
 10
66.7468625006
 20
171.9963656362
 11
66.7468625006
 21
174.3962656362
  0
LINE
  8
0
 62
7
  6
CONTINUOUS
 10
66.7468625006
 20
179.0463656362
 11
66.0468625006
 21
179.0463656362
  0
LINE
  8
0
 62
7
  6
CONTINUOUS
 10
84.3468625006
 20
179.0463656362
 11
92.1468625006
 21
179.0463656362
  0
LINE
  8
0
 62
7
  6
CONTINUOUS
 10
64.2468625006
 20
182.8963656362
 11
92.1468625006
 21
182.8963656362
  0
LINE
  8
0
 62
7
  6
CONTINUOUS
 10
76.2468625006
 20
182.8963656362
 11
76.2468625006
 21
170.3963656362
  0
LINE
  8
0
 62
7
  6
CONTINUOUS
 10
81.0468625006
 20
170.3963656362
 11
81.0468625006
 21
182.8963656362
  0
LINE
  8
0
 62
7
  6
CONTINUOUS
 10
84.6364565912
 20
186.3600607722
 11
84.6359990174
 21
186.3497720673
  0
LINE
  8
DEFAULT_1
 62
7
  6
CENTER
 10
92.1468625006
 20
180.7963656362
 11
92.1468625006
 21
178.3964656362
  0
LINE
  8
0
 62
2
  6
CONTINUOUS
 10
92.1468625006
 20
177.2763656362
 11
92.1468625006
 21
175.5163656362
  0
LINE
  8
DEFAULT_1
 62
7
  6
CENTER
 10
92.1468625006
 20
171.9963656362
 11
92.1468625006
 21
174.3962656362
  0
LINE
  8
0
 62
7
  6
CONTINUOUS
 10
94.6468625006
 20
182.7647131386
 11
94.6468625006
 21
182.1171390343
  0
LINE
  8
0
 62
7
  6
CONTINUOUS
 10
100.9988405408
 20
206.6022704107
 11
94.6809366743
 21
183.0235321838
  0
LINE
  8
0
 62
7
  6
CONTINUOUS
 10
62.7245135919
 20
212.8963656362
 11
96.1692114094
 21
212.8963656362
  0
LINE
  8
0
 62
7
  6
CONTINUOUS
 10
152.0348192904
 20
169.8963656362
 11
151.0348192904
 21
169.8963656362
  0
LINE
  8
0
 62
7
  6
CONTINUOUS
 10
154.9014524351
 20
169.8963656362
 11
160.401974903
 21
169.8963656362
  0
LINE
  8
0
 62
7
  6
CONTINUOUS
 10
150.8348192904
 20
173.7463656362
 11
152.2348192904
 21
173.7463656362
  0
LINE
  8
0
 62
7
  6
CONTINUOUS
 10
160.671405971
 20
176.3963659162
 11
160.1111947478
 21
176.3963656362
  0
LINE
  8
DEFAULT_1
 62
7
  6
CENTER
 10
154.6239548943
 20
176.3963653551
 11
153.0596672855
 21
176.3963656362
  0
LINE
  8
0
 62
7
  6
CONTINUOUS
 10
154.6239548943
 20
176.3963653551
 11
155.1841977415
 21
176.3963656362
  0
LINE
  8
DEFAULT_1
 62
7
  6
CENTER
 10
155.1841977415
 20
176.3963656362
 11
160.1111947478
 21
176.3963656362
  0
LINE
  8
DEFAULT_1
 62
7
  6
CENTER
 10
160.671405971
 20
176.3963659162
 11
162.7099712952
 21
176.3963656362
  0
LINE
  8
0
 62
7
  6
CONTINUOUS
 10
152.2348192904
 20
179.0463656362
 11
150.8348192904
 21
179.0463656362
  0
LINE
  8
0
 62
7
  6
CONTINUOUS
 10
149.2099499183
 20
182.8963656362
 11
154.6792336416
 21
182.8963656362
  0
LINE
  8
0
 62
7
  6
CONTINUOUS
 10
155.3886751624
 20
182.8963656362
 11
160.401974903
 21
182.8963656362
  0
POLYLINE
  8
0
 62
7
  6
CONTINUOUS
 66
1
 70
0
  0
VERTEX
  8
0
 62
7
  6
CONTINUOUS
 10
155.3886751838
 20
182.8963656362
  0
VERTEX
  8
0
 62
7
  6
CONTINUOUS
 10
155.3314119576
 20
182.8985456452
  0
VERTEX
  8
0
 62
7
  6
CONTINUOUS
 10
155.274884382
 20
182.9050858604
  0
VERTEX
  8
0
 62
7
  6
CONTINUOUS
 10
155.2191687284
 20
182.9160260008
  0
VERTEX
  8
0
 62
7
  6
CONTINUOUS
 10
155.164211007
 20
182.931506368
  0
VERTEX
  8
0
 62
7
  6
CONTINUOUS
 10
155.1101883266
 20
182.9516899095
  0
VERTEX
  8
0
 62
7
  6
CONTINUOUS
 10
155.0571685082
 20
182.9768542704
  0
VERTEX
  8
0
 62
7
  6
CONTINUOUS
 10
155.0054907386
 20
183.0072372056
  0
VERTEX
  8
0
 62
7
  6
CONTINUOUS
 10
154.9555047367
 20
183.0431187007
  0
VERTEX
  8
0
 62
7
  6
CONTINUOUS
 10
154.9077919876
 20
183.0846440348
  0
VERTEX
  8
0
 62
7
  6
CONTINUOUS
 10
154.8631152897
 20
183.1317205082
  0
VERTEX
  8
0
 62
7
  6
CONTINUOUS
 10
154.8223296431
 20
183.1839275867
  0
VERTEX
  8
0
 62
7
  6
CONTINUOUS
 10
154.7864100184
 20
183.2402042463
  0
VERTEX
  8
0
 62
7
  6
CONTINUOUS
 10
154.7560192016
 20
183.2991806414
  0
VERTEX
  8
0
 62
7
  6
CONTINUOUS
 10
154.7314931272
 20
183.3591730889
  0
VERTEX
  8
0
 62
7
  6
CONTINUOUS
 10
154.7126252858
 20
183.4189059278
  0
VERTEX
  8
0
 62
7
  6
CONTINUOUS
 10
154.6989223482
 20
183.4775486258
  0
VERTEX
  8
0
 62
7
  6
CONTINUOUS
 10
154.68976939
 20
183.5349059715
  0
VERTEX
  8
0
 62
7
  6
CONTINUOUS
 10
154.6846429989
 20
183.5911643304
  0
VERTEX
  8
0
 62
7
  6
CONTINUOUS
 10
154.6831923547
 20
183.6463656362
  0
SEQEND
  0
POLYLINE
  8
0
 62
7
  6
CONTINUOUS
 66
1
 70
0
  0
VERTEX
  8
0
 62
7
  6
CONTINUOUS
 10
159.3859120074
 20
182.8963657423
  0
VERTEX
  8
0
 62
7
  6
CONTINUOUS
 10
159.317024025
 20
182.8995361457
  0
VERTEX
  8
0
 62
7
  6
CONTINUOUS
 10
159.248404743
 20
182.9090789913
  0
VERTEX
  8
0
 62
7
  6
CONTINUOUS
 10
159.1809577759
 20
182.9249132045
  0
VERTEX
  8
0
 62
7
  6
CONTINUOUS
 10
159.1152593761
 20
182.946903696
  0
VERTEX
  8
0
 62
7
  6
CONTINUOUS
 10
159.0518703901
 20
182.9748628026
  0
VERTEX
  8
0
 62
7
  6
CONTINUOUS
 10
158.9913318306
 20
183.0085519119
  0
VERTEX
  8
0
 62
7
  6
CONTINUOUS
 10
158.9341603086
 20
183.0476835245
  0
VERTEX
  8
0
 62
7
  6
CONTINUOUS
 10
158.8808436448
 20
183.0919237345
  0
VERTEX
  8
0
 62
7
  6
CONTINUOUS
 10
158.8318367709
 20
183.1408950535
  0
VERTEX
  8
0
 62
7
  6
CONTINUOUS
 10
158.787557865
 20
183.1941796105
  0
VERTEX
  8
0
 62
7
  6
CONTINUOUS
 10
158.7483847695
 20
183.2513227204
  0
VERTEX
  8
0
 62
7
  6
CONTINUOUS
 10
158.7146517566
 20
183.3118367707
  0
VERTEX
  8
0
 62
7
  6
CONTINUOUS
 10
158.6866466758
 20
183.3752053833
  0
VERTEX
  8
0
 62
7
  6
CONTINUOUS
 10
158.6668935815
 20
183.4330293073
  0
SEQEND
  0
LINE
  8
0
 62
7
  6
CONTINUOUS
 10
148.2540672344
 20
206.7663747909
 11
149.2099493838
 21
182.896339024
  0
LINE
  8
0
 62
7
  6
CONTINUOUS
 10
150.5348192904
 20
170.3963656362
 11
150.5348192904
 21
182.8963656362
  0
LINE
  8
0
 62
7
  6
CONTINUOUS
 10
152.5348192904
 20
170.3963656362
 11
152.5348192904
 21
182.8963656362
  0
LINE
  8
0
 62
7
  6
CONTINUOUS
 10
154.4017809822
 20
170.3782335144
 11
154.2509115994
 21
174.5385595734
  0
POLYLINE
  8
0
 62
7
  6
CONTINUOUS
 66
1
 70
0
  0
VERTEX
  8
0
 62
7
  6
CONTINUOUS
 10
154.6239548805
 20
176.3963656387
  0
VERTEX
  8
0
 62
7
  6
CONTINUOUS
 10
154.624448672
 20
176.3221152565
  0
VERTEX
  8
0
 62
7
  6
CONTINUOUS
 10
154.6179592046
 20
176.2382632125
  0
VERTEX
  8
0
 62
7
  6
CONTINUOUS
 10
154.6046883507
 20
176.1509891685
  0
VERTEX
  8
0
 62
7
  6
CONTINUOUS
 10
154.586017367
 20
176.0616179079
  0
VERTEX
  8
0
 62
7
  6
CONTINUOUS
 10
154.5633726045
 20
175.9707480375
  0
VERTEX
  8
0
 62
7
  6
CONTINUOUS
 10
154.5376201443
 20
175.8775799799
  0
VERTEX
  8
0
 62
7
  6
CONTINUOUS
 10
154.5095714632
 20
175.7820200103
  0
VERTEX
  8
0
 62
7
  6
CONTINUOUS
 10
154.4798101009
 20
175.6836414047
  0
VERTEX
  8
0
 62
7
  6
CONTINUOUS
 10
154.4488857294
 20
175.5821574239
  0
VERTEX
  8
0
 62
7
  6
CONTINUOUS
 10
154.4173430373
 20
175.477285158
  0
VERTEX
  8
0
 62
7
  6
CONTINUOUS
 10
154.3857369082
 20
175.368624191
  0
VERTEX
  8
0
 62
7
  6
CONTINUOUS
 10
154.3547454393
 20
175.2558488401
  0
VERTEX
  8
0
 62
7
  6
CONTINUOUS
 10
154.325382973
 20
175.1393320425
  0
VERTEX
  8
0
 62
7
  6
CONTINUOUS
 10
154.29884974
 20
175.0196015396
  0
VERTEX
  8
0
 62
7
  6
CONTINUOUS
 10
154.2765340043
 20
174.8973037751
  0
VERTEX
  8
0
 62
7
  6
CONTINUOUS
 10
154.2601448393
 20
174.7744332546
  0
VERTEX
  8
0
 62
7
  6
CONTINUOUS
 10
154.2512564662
 20
174.6535073347
  0
VERTEX
  8
0
 62
7
  6
CONTINUOUS
 10
154.2509235467
 20
174.5382268734
  0
SEQEND
  0
POLYLINE
  8
0
 62
7
  6
CONTINUOUS
 66
1
 70
0
  0
VERTEX
  8
0
 62
7
  6
CONTINUOUS
 10
154.2509235201
 20
178.2545036714
  0
VERTEX
  8
0
 62
7
  6
CONTINUOUS
 10
154.2512219855
 20
178.1401000235
  0
VERTEX
  8
0
 62
7
  6
CONTINUOUS
 10
154.2600471268
 20
178.0192287752
  0
VERTEX
  8
0
 62
7
  6
CONTINUOUS
 10
154.2763797528
 20
177.8963945935
  0
VERTEX
  8
0
 62
7
  6
CONTINUOUS
 10
154.2986518893
 20
177.7741018691
  0
VERTEX
  8
0
 62
7
  6
CONTINUOUS
 10
154.3251582104
 20
177.6543432162
  0
VERTEX
  8
0
 62
7
  6
CONTINUOUS
 10
154.3545081368
 20
177.5377794117
  0
VERTEX
  8
0
 62
7
  6
CONTINUOUS
 10
154.3854965599
 20
177.4249536836
  0
VERTEX
  8
0
 62
7
  6
CONTINUOUS
 10
154.4171040158
 20
177.3162514343
  0
VERTEX
  8
0
 62
7
  6
CONTINUOUS
 10
154.4486509916
 20
177.2113466899
  0
VERTEX
  8
0
 62
7
  6
CONTINUOUS
 10
154.4795828889
 20
177.1098355422
  0
VERTEX
  8
0
 62
7
  6
CONTINUOUS
 10
154.5093560285
 20
177.0114311772
  0
VERTEX
  8
0
 62
7
  6
CONTINUOUS
 10
154.5374212414
 20
176.9158456323
  0
VERTEX
  8
0
 62
7
  6
CONTINUOUS
 10
154.5631952497
 20
176.8226531768
  0
VERTEX
  8
0
 62
7
  6
CONTINUOUS
 10
154.5858675387
 20
176.7317601787
  0
VERTEX
  8
0
 62
7
  6
CONTINUOUS
 10
154.6045730353
 20
176.6423701974
  0
VERTEX
  8
0
 62
7
  6
CONTINUOUS
 10
154.6178877046
 20
176.5550762984
  0
VERTEX
  8
0
 62
7
  6
CONTINUOUS
 10
154.6244282824
 20
176.4711994507
  0
VERTEX
  8
0
 62
7
  6
CONTINUOUS
 10
154.6239548805
 20
176.3963656387
  0
SEQEND
  0
LINE
  8
0
 62
7
  6
CONTINUOUS
 10
154.6831923547
 20
183.6463656362
 11
154.6792336416
 21
182.8963656362
  0
LINE
  8
0
 62
7
  6
CONTINUOUS
 10
154.2509116498
 20
178.254173089
 11
154.4192559447
 21
182.8963817608
  0
LINE
  8
0
 62
7
  6
CONTINUOUS
 10
154.2509276848
 20
178.2546151274
 11
154.2509237638
 21
178.2545071321
  0
POLYLINE
  8
0
 62
7
  6
CONTINUOUS
 66
1
 70
0
  0
VERTEX
  8
0
 62
7
  6
CONTINUOUS
 10
160.8515014211
 20
175.5696679975
  0
VERTEX
  8
0
 62
7
  6
CONTINUOUS
 10
160.7900556241
 20
175.7710136785
  0
VERTEX
  8
0
 62
7
  6
CONTINUOUS
 10
160.7611638022
 20
175.8685644661
  0
VERTEX
  8
0
 62
7
  6
CONTINUOUS
 10
160.7344650012
 20
175.964056675
  0
VERTEX
  8
0
 62
7
  6
CONTINUOUS
 10
160.710856503
 20
176.0575309535
  0
VERTEX
  8
0
 62
7
  6
CONTINUOUS
 10
160.6915044726
 20
176.1487709551
  0
VERTEX
  8
0
 62
7
  6
CONTINUOUS
 10
160.6777359581
 20
176.2377916695
  0
VERTEX
  8
0
 62
7
  6
CONTINUOUS
 10
160.6710304369
 20
176.3225257564
  0
VERTEX
  8
0
 62
7
  6
CONTINUOUS
 10
160.6714059838
 20
176.396365643
  0
SEQEND
  0
LINE
  8
0
 62
7
  6
CONTINUOUS
 10
155.9131553291
 20
192.7141016992
 11
155.9131222441
 21
192.7142131817
  0
LINE
  8
0
 62
7
  6
CONTINUOUS
 10
155.9132523587
 20
192.713774675
 11
158.6668401919
 21
183.4332095691
  0
LINE
  8
0
 62
7
  6
CONTINUOUS
 10
155.913158344
 20
192.7140915856
 11
155.9127477054
 21
192.7155048151
  0
POLYLINE
  8
0
 62
7
  6
CONTINUOUS
 66
1
 70
0
  0
VERTEX
  8
0
 62
7
  6
CONTINUOUS
 10
157.4949166743
 20
206.7663747423
  0
VERTEX
  8
0
 62
7
  6
CONTINUOUS
 10
157.503724306
 20
207.0152089638
  0
VERTEX
  8
0
 62
7
  6
CONTINUOUS
 10
157.5105004648
 20
207.2744176809
  0
VERTEX
  8
0
 62
7
  6
CONTINUOUS
 10
157.51493013
 20
207.5358705889
  0
VERTEX
  8
0
 62
7
  6
CONTINUOUS
 10
157.5169962735
 20
207.7985830722
  0
VERTEX
  8
0
 62
7
  6
CONTINUOUS
 10
157.5166924868
 20
208.0615516417
  0
VERTEX
  8
0
 62
7
  6
CONTINUOUS
 10
157.5140234092
 20
208.323768653
  0
VERTEX
  8
0
 62
7
  6
CONTINUOUS
 10
157.5090046705
 20
208.5842380952
  0
VERTEX
  8
0
 62
7
  6
CONTINUOUS
 10
157.5016622156
 20
208.8419913775
  0
VERTEX
  8
0
 62
7
  6
CONTINUOUS
 10
157.4920093682
 20
209.0966098823
  0
VERTEX
  8
0
 62
7
  6
CONTINUOUS
 10
157.4800097065
 20
209.3484318257
  0
VERTEX
  8
0
 62
7
  6
CONTINUOUS
 10
157.4655856478
 20
209.5977751577
  0
VERTEX
  8
0
 62
7
  6
CONTINUOUS
 10
157.4486298681
 20
209.8447089969
  0
VERTEX
  8
0
 62
7
  6
CONTINUOUS
 10
157.4292060505
 20
210.0867830117
  0
VERTEX
  8
0
 62
7
  6
CONTINUOUS
 10
157.4076386754
 20
210.319648541
  0
VERTEX
  8
0
 62
7
  6
CONTINUOUS
 10
157.3843877929
 20
210.5394412642
  0
VERTEX
  8
0
 62
7
  6
CONTINUOUS
 10
157.3599838344
 20
210.7432982962
  0
VERTEX
  8
0
 62
7
  6
CONTINUOUS
 10
157.3347045769
 20
210.9313527391
  0
VERTEX
  8
0
 62
7
  6
CONTINUOUS
 10
157.3086548663
 20
211.1049196006
  0
VERTEX
  8
0
 62
7
  6
CONTINUOUS
 10
157.2818819296
 20
211.2653102786
  0
VERTEX
  8
0
 62
7
  6
CONTINUOUS
 10
157.2543788961
 20
211.4137887337
  0
VERTEX
  8
0
 62
7
  6
CONTINUOUS
 10
157.2261673292
 20
211.5511715539
  0
VERTEX
  8
0
 62
7
  6
CONTINUOUS
 10
157.1973040652
 20
211.6779670396
  0
VERTEX
  8
0
 62
7
  6
CONTINUOUS
 10
157.1678027184
 20
211.7948039727
  0
VERTEX
  8
0
 62
7
  6
CONTINUOUS
 10
157.1376203413
 20
211.9024283269
  0
VERTEX
  8
0
 62
7
  6
CONTINUOUS
 10
157.1066499246
 20
212.0016681465
  0
VERTEX
  8
0
 62
7
  6
CONTINUOUS
 10
157.0747524245
 20
212.093291909
  0
VERTEX
  8
0
 62
7
  6
CONTINUOUS
 10
157.0417354203
 20
212.1780664528
  0
VERTEX
  8
0
 62
7
  6
CONTINUOUS
 10
157.0072972017
 20
212.2568549126
  0
VERTEX
  8
0
 62
7
  6
CONTINUOUS
 10
156.9709047268
 20
212.3307636861
  0
VERTEX
  8
0
 62
7
  6
CONTINUOUS
 10
156.9318419899
 20
212.4008532445
  0
VERTEX
  8
0
 62
7
  6
CONTINUOUS
 10
156.8892434599
 20
212.4679798918
  0
VERTEX
  8
0
 62
7
  6
CONTINUOUS
 10
156.8423101593
 20
212.5324613883
  0
VERTEX
  8
0
 62
7
  6
CONTINUOUS
 10
156.7903599655
 20
212.5941647813
  0
VERTEX
  8
0
 62
7
  6
CONTINUOUS
 10
156.732919668
 20
212.6525589262
  0
VERTEX
  8
0
 62
7
  6
CONTINUOUS
 10
156.6698713038
 20
212.7067600951
  0
VERTEX
  8
0
 62
7
  6
CONTINUOUS
 10
156.6014693873
 20
212.7557263996
  0
VERTEX
  8
0
 62
7
  6
CONTINUOUS
 10
156.5284168049
 20
212.7983791654
  0
VERTEX
  8
0
 62
7
  6
CONTINUOUS
 10
156.4517353682
 20
212.8338230741
  0
VERTEX
  8
0
 62
7
  6
CONTINUOUS
 10
156.3722777556
 20
212.8615637217
  0
VERTEX
  8
0
 62
7
  6
CONTINUOUS
 10
156.2905327375
 20
212.8813732382
  0
VERTEX
  8
0
 62
7
  6
CONTINUOUS
 10
156.2068771248
 20
212.8930412477
  0
VERTEX
  8
0
 62
7
  6
CONTINUOUS
 10
156.1320493945
 20
212.8963656237
  0
SEQEND
  0
LINE
  8
0
 62
7
  6
CONTINUOUS
 10
157.4949166781
 20
206.7663747909
 11
156.8110091321
 21
189.6880167586
  0
LINE
  8
0
 62
7
  6
CONTINUOUS
 10
160.9016703165
 20
182.4138153846
 11
161.0469297028
 21
178.2541308054
  0
POLYLINE
  8
0
 62
7
  6
CONTINUOUS
 66
1
 70
0
  0
VERTEX
  8
0
 62
7
  6
CONTINUOUS
 10
160.6714059838
 20
176.396365643
  0
VERTEX
  8
0
 62
7
  6
CONTINUOUS
 10
160.6710098999
 20
176.469629423
  0
VERTEX
  8
0
 62
7
  6
CONTINUOUS
 10
160.6776665106
 20
176.5543566774
  0
VERTEX
  8
0
 62
7
  6
CONTINUOUS
 10
160.6913957046
 20
176.6433761758
  0
VERTEX
  8
0
 62
7
  6
CONTINUOUS
 10
160.7107189177
 20
176.734613998
  0
VERTEX
  8
0
 62
7
  6
CONTINUOUS
 10
160.7343070124
 20
176.8280848962
  0
VERTEX
  8
0
 62
7
  6
CONTINUOUS
 10
160.7609917831
 20
176.9235722481
  0
VERTEX
  8
0
 62
7
  6
CONTINUOUS
 10
160.7898746226
 20
177.0211172668
  0
SEQEND
  0
POLYLINE
  8
0
 62
7
  6
CONTINUOUS
 66
1
 70
0
  0
VERTEX
  8
0
 62
7
  6
CONTINUOUS
 10
161.046932709
 20
174.5386864757
  0
VERTEX
  8
0
 62
7
  6
CONTINUOUS
 10
161.0459780803
 20
174.6644597756
  0
VERTEX
  8
0
 62
7
  6
CONTINUOUS
 10
161.0355066149
 20
174.7918754965
  0
VERTEX
  8
0
 62
7
  6
CONTINUOUS
 10
161.0182782473
 20
174.9133088011
  0
VERTEX
  8
0
 62
7
  6
CONTINUOUS
 10
160.996327358
 20
175.0298392655
  0
VERTEX
  8
0
 62
7
  6
CONTINUOUS
 10
160.9709740739
 20
175.1426167557
  0
VERTEX
  8
0
 62
7
  6
CONTINUOUS
 10
160.9430946364
 20
175.252684627
  0
VERTEX
  8
0
 62
7
  6
CONTINUOUS
 10
160.9134521926
 20
175.3604305006
  0
VERTEX
  8
0
 62
7
  6
CONTINUOUS
 10
160.8827181979
 20
175.4660483953
  0
VERTEX
  8
0
 62
7
  6
CONTINUOUS
 10
160.8515014211
 20
175.5696679975
  0
SEQEND
  0
LINE
  8
0
 62
7
  6
CONTINUOUS
 10
161.0469297028
 20
174.538600467
 11
161.0469326318
 21
174.5386844743
  0
LINE
  8
0
 62
7
  6
CONTINUOUS
 10
161.0469297028
 20
174.538600467
 11
160.9016703165
 21
170.3789158879
  0
POLYLINE
  8
0
 62
7
  6
CONTINUOUS
 66
1
 70
0
  0
VERTEX
  8
0
 62
7
  6
CONTINUOUS
 10
160.7898746226
 20
177.0211172668
  0
VERTEX
  8
0
 62
7
  6
CONTINUOUS
 10
160.8513143515
 20
177.2224490061
  0
VERTEX
  8
0
 62
7
  6
CONTINUOUS
 10
160.8825331548
 20
177.3260600511
  0
VERTEX
  8
0
 62
7
  6
CONTINUOUS
 10
160.913272608
 20
177.4316686043
  0
VERTEX
  8
0
 62
7
  6
CONTINUOUS
 10
160.942924311
 20
177.5394047344
  0
VERTEX
  8
0
 62
7
  6
CONTINUOUS
 10
160.970817435
 20
177.6494628881
  0
VERTEX
  8
0
 62
7
  6
CONTINUOUS
 10
160.9961896107
 20
177.7622305923
  0
VERTEX
  8
0
 62
7
  6
CONTINUOUS
 10
161.0181658968
 20
177.8787509607
  0
VERTEX
  8
0
 62
7
  6
CONTINUOUS
 10
161.0354282075
 20
178.000173689
  0
VERTEX
  8
0
 62
7
  6
CONTINUOUS
 10
161.0459452115
 20
178.1275783232
  0
VERTEX
  8
0
 62
7
  6
CONTINUOUS
 10
161.0469325039
 20
178.2540506737
  0
SEQEND
  0
POLYLINE
  8
0
 62
7
  6
CONTINUOUS
 66
1
 70
0
  0
VERTEX
  8
0
 62
7
  6
CONTINUOUS
 10
149.6169342881
 20
212.8963656226
  0
VERTEX
  8
0
 62
7
  6
CONTINUOUS
 10
149.5421059881
 20
212.8930411745
  0
VERTEX
  8
0
 62
7
  6
CONTINUOUS
 10
149.4584504352
 20
212.8813730973
  0
VERTEX
  8
0
 62
7
  6
CONTINUOUS
 10
149.3767057265
 20
212.8615635968
  0
VERTEX
  8
0
 62
7
  6
CONTINUOUS
 10
149.297248432
 20
212.8338230291
  0
VERTEX
  8
0
 62
7
  6
CONTINUOUS
 10
149.2205672171
 20
212.7983792221
  0
VERTEX
  8
0
 62
7
  6
CONTINUOUS
 10
149.1475145313
 20
212.7557264038
  0
VERTEX
  8
0
 62
7
  6
CONTINUOUS
 10
149.0791123652
 20
212.7067599025
  0
VERTEX
  8
0
 62
7
  6
CONTINUOUS
 10
149.0160638515
 20
212.6525585576
  0
VERTEX
  8
0
 62
7
  6
CONTINUOUS
 10
148.9586233854
 20
212.594164164
  0
VERTEX
  8
0
 62
7
  6
CONTINUOUS
 10
148.9066731509
 20
212.5324606166
  0
VERTEX
  8
0
 62
7
  6
CONTINUOUS
 10
148.8597398157
 20
212.4679789539
  0
VERTEX
  8
0
 62
7
  6
CONTINUOUS
 10
148.8171412694
 20
212.4008521437
  0
VERTEX
  8
0
 62
7
  6
CONTINUOUS
 10
148.7780784908
 20
212.3307623592
  0
VERTEX
  8
0
 62
7
  6
CONTINUOUS
 10
148.7416859882
 20
212.2568533536
  0
VERTEX
  8
0
 62
7
  6
CONTINUOUS
 10
148.7072477136
 20
212.1780645644
  0
VERTEX
  8
0
 62
7
  6
CONTINUOUS
 10
148.6742306708
 20
212.0932896898
  0
VERTEX
  8
0
 62
7
  6
CONTINUOUS
 10
148.642333128
 20
212.0016655365
  0
VERTEX
  8
0
 62
7
  6
CONTINUOUS
 10
148.6113626695
 20
211.9024252775
  0
VERTEX
  8
0
 62
7
  6
CONTINUOUS
 10
148.5811802574
 20
211.794800453
  0
VERTEX
  8
0
 62
7
  6
CONTINUOUS
 10
148.5516788769
 20
211.6779629929
  0
VERTEX
  8
0
 62
7
  6
CONTINUOUS
 10
148.5228155726
 20
211.55116688
  0
VERTEX
  8
0
 62
7
  6
CONTINUOUS
 10
148.4946039581
 20
211.4137833082
  0
VERTEX
  8
0
 62
7
  6
CONTINUOUS
 10
148.4671008688
 20
211.2653039443
  0
VERTEX
  8
0
 62
7
  6
CONTINUOUS
 10
148.4403278739
 20
211.1049121974
  0
VERTEX
  8
0
 62
7
  6
CONTINUOUS
 10
148.4142781231
 20
210.9313442102
  0
VERTEX
  8
0
 62
7
  6
CONTINUOUS
 10
148.388998862
 20
210.7432887213
  0
VERTEX
  8
0
 62
7
  6
CONTINUOUS
 10
148.3645949501
 20
210.5394308872
  0
VERTEX
  8
0
 62
7
  6
CONTINUOUS
 10
148.3413441766
 20
210.319637841
  0
VERTEX
  8
0
 62
7
  6
CONTINUOUS
 10
148.3197769518
 20
210.0867724659
  0
VERTEX
  8
0
 62
7
  6
CONTINUOUS
 10
148.3003532986
 20
209.8446989614
  0
VERTEX
  8
0
 62
7
  6
CONTINUOUS
 10
148.2833976752
 20
209.5977658196
  0
VERTEX
  8
0
 62
7
  6
CONTINUOUS
 10
148.268973749
 20
209.3484231471
  0
VERTEX
  8
0
 62
7
  6
CONTINUOUS
 10
148.2569741998
 20
209.0966018185
  0
VERTEX
  8
0
 62
7
  6
CONTINUOUS
 10
148.2473214494
 20
208.841983917
  0
VERTEX
  8
0
 62
7
  6
CONTINUOUS
 10
148.2399790791
 20
208.5842312709
  0
VERTEX
  8
0
 62
7
  6
CONTINUOUS
 10
148.2349604133
 20
208.3237625442
  0
VERTEX
  8
0
 62
7
  6
CONTINUOUS
 10
148.2322913955
 20
208.0615463335
  0
VERTEX
  8
0
 62
7
  6
CONTINUOUS
 10
148.2319876537
 20
207.7985786524
  0
VERTEX
  8
0
 62
7
  6
CONTINUOUS
 10
148.2340538248
 20
207.5358671707
  0
VERTEX
  8
0
 62
7
  6
CONTINUOUS
 10
148.238483497
 20
207.2744153843
  0
VERTEX
  8
0
 62
7
  6
CONTINUOUS
 10
148.2452596425
 20
207.0152077988
  0
VERTEX
  8
0
 62
7
  6
CONTINUOUS
 10
148.2540672381
 20
206.7663747415
  0
SEQEND
  0
LINE
  8
0
 62
7
  6
CONTINUOUS
 10
149.6169905711
 20
212.8963656362
 11
156.1319933415
 21
212.8963656362
  0
ARC
  8
0
 62
7
  6
CONTINUOUS
 10
100.4192112901
 20
117.1953516726
 40
0.75
 50
0.0000005663
 51
81.5
  0
ARC
  8
0
 62
7
  6
CONTINUOUS
 10
58.4745137118
 20
123.4640287269
 40
0.75
 50
81.5
 51
180.0000005691
  0
ARC
  8
0
 62
7
  6
CONTINUOUS
 10
100.4192112901
 20
115.6786924808
 40
0.75
 50
261.5
 51
0.0000005663
  0
ARC
  8
0
 62
7
  6
CONTINUOUS
 10
58.4745137118
 20
121.9473695351
 40
0.75
 50
180.0000005691
 51
261.5
  0
ARC
  8
0
 62
7
  6
CONTINUOUS
 10
91.2777673398
 20
115.5282312411
 40
0.75
 50
84.5083607564
 51
86.7941663123
  0
ARC
  8
0
 62
7
  6
CONTINUOUS
 10
96.5803395135
 20
113.0697832242
 40
0.4999999998
 50
291.8014094624
 51
360.0
  0
ARC
  8
0
 62
7
  6
CONTINUOUS
 10
95.0968624987
 20
112.2609858266
 40
0.2999999998
 50
267.768723069
 51
291.801409552
  0
ARC
  8
0
 62
7
  6
CONTINUOUS
 10
66.7468625006
 20
176.3963656362
 40
2.65
 50
270.0
 51
90.0
  0
ARC
  8
0
 62
7
  6
CONTINUOUS
 10
75.7468625006
 20
170.3963656362
 40
0.5
 50
270.0
 51
360.0
  0
ARC
  8
0
 62
7
  6
CONTINUOUS
 10
66.2468625006
 20
170.3963656362
 40
0.5
 50
180.0
 51
270.0
  0
ARC
  8
0
 62
7
  6
CONTINUOUS
 10
66.0468625006
 20
173.4463656362
 40
0.3
 50
90.0
 51
180.0
  0
ARC
  8
0
 62
7
  6
CONTINUOUS
 10
66.0468625006
 20
179.3463656362
 40
0.3
 50
180.0
 51
270.0
  0
ARC
  8
0
 62
7
  6
CONTINUOUS
 10
62.7245135919
 20
207.8963656362
 40
5.0
 50
90.0
 51
195.0
  0
ARC
  8
0
 62
7
  6
CONTINUOUS
 10
84.3468625006
 20
176.3963656362
 40
2.65
 50
90.0
 51
270.0
  0
ARC
  8
0
 62
7
  6
CONTINUOUS
 10
81.5468625006
 20
170.3963656362
 40
0.5
 50
180.0
 51
270.0
  0
ARC
  8
0
 62
7
  6
CONTINUOUS
 10
92.1468625006
 20
174.2963656362
 40
4.4
 50
270.0
 51
354.1645729533
  0
ARC
  8
0
 62
7
  6
CONTINUOUS
 10
92.6803395148
 20
176.3963656362
 40
4.4
 50
337.3279965374
 51
22.6720034626
  0
ARC
  8
0
 62
7
  6
CONTINUOUS
 10
99.5085159497
 20
173.5439970462
 40
3.0
 50
157.3279965373
 51
174.1645729533
  0
ARC
  8
0
 62
7
  6
CONTINUOUS
 10
92.1468625006
 20
176.3963656362
 40
2.65
 50
270.0
 51
90.0
  0
ARC
  8
0
 62
7
  6
CONTINUOUS
 10
92.1468625006
 20
178.4963656362
 40
4.4
 50
5.8354270467
 51
90.0
  0
ARC
  8
0
 62
7
  6
CONTINUOUS
 10
99.5085159497
 20
179.2487342262
 40
3.0
 50
185.8354270467
 51
202.6720034626
  0
ARC
  8
0
 62
7
  6
CONTINUOUS
 10
95.6468625006
 20
182.7647131386
 40
1.0
 50
165.0
 51
180.0
  0
ARC
  8
0
 62
7
  6
CONTINUOUS
 10
96.1692114094
 20
207.8963656362
 40
5.0
 50
345.0
 51
90.0
  0
ARC
  8
0
 62
7
  6
CONTINUOUS
 10
154.9014521441
 20
170.3963656362
 40
0.5
 50
182.0768550579
 51
270.0
  0
ARC
  8
0
 62
7
  6
CONTINUOUS
 10
151.0348192904
 20
170.3963656362
 40
0.5
 50
180.0
 51
270.0
  0
ARC
  8
0
 62
7
  6
CONTINUOUS
 10
152.0348192904
 20
170.3963656362
 40
0.5
 50
270.0
 51
360.0
  0
ARC
  8
0
 62
7
  6
CONTINUOUS
 10
160.401974903
 20
182.3963656362
 40
0.5
 50
2.0
 51
90.0
  0
ARC
  8
0
 62
7
  6
CONTINUOUS
 10
160.4019749032
 20
170.3963656411
 40
0.4999999994
 50
269.9999999805
 51
357.9999994425
  0
ARC
  8
0
 62
7
  6
CONTINUOUS
 10
152.2348192904
 20
173.4463656362
 40
0.3
 50
0.0
 51
90.0
  0
ARC
  8
0
 62
7
  6
CONTINUOUS
 10
150.8348192904
 20
173.4463656362
 40
0.3
 50
90.0
 51
180.0
  0
ARC
  8
0
 62
7
  6
CONTINUOUS
 10
150.8348192904
 20
179.3463656362
 40
0.3
 50
180.0
 51
270.0
  0
ARC
  8
0
 62
7
  6
CONTINUOUS
 10
152.2348192904
 20
179.3463656362
 40
0.3
 50
270.0
 51
360.0
  0
ENDSEC
  0
EOF
