  0
SECTION
  2
HEADER
  9
$EXTMAX
 10
210.0
 20
297.0
 30
0.0
  9
$EXTMIN
 10
0.0
 20
0.0
 30
0.0
  9
$LIMMIN
 10
0.0
 20
0.0
  9
$LIMMAX
 10
210.0
 20
297.0
  9
$VIEWCTR
 10
105.0
 20
148.5
  9
$VIEWSIZE
 40
297.0
  9
$CLAYER
  8
0
  9
$LTSCALE
 40
19.36
  9
$CELTYPE
  6
BYLAYER
  9
$DIMSCALE
 40
1.0
  9
$DIMASZ
 40
3.5
  9
$DIMEXO
 40
2.2
  9
$DIMDLI
 40
13.376
  9
$DIMEXE
 40
6.336
  9
$DIMCEN
 40
3.168
  9
$DIMLFAC
 40
1.0
  9
$DIMBLK
  1
_FILLED
  9
$DIMTXT
 40
3.5
  9
$PDMODE
 70
3
  9
$PDSIZE
 40
0.3125
  9
$TILEMODE
 70
1
  0
ENDSEC
  0
SECTION
  2
TABLES
  0
TABLE
  2
LTYPE
 70
6
  0
LTYPE
  2
BYBLOCK
 70
0
  3

 72
65
 73
0
 40
0.0
  0
LTYPE
  2
BYLAYER
 70
0
  3

 72
65
 73
0
 40
0.0
  0
LTYPE
  2
CONTINUOUS
 70
64
  3
Solid line
 72
65
 73
0
 40
0.0
  0
LTYPE
  2
CENTER
 70
64
  3
____ _ ____ _ ____ _ ____ _ ____ _ ____ _ ____
 72
65
 73
4
 40
0.6
 49
0.375
 49
-0.075
 49
0.075
 49
-0.075
  0
LTYPE
  2
HIDDEN
 70
64
  3
- - - - - - - - - - - - - - - - - - - -
 72
65
 73
2
 40
0.2
 49
0.1
 49
-0.1
  0
LTYPE
  2
PHANTOM
 70
64
  3
_____ _ _ _____ _ _ _____ _ _ _____
 72
65
 73
6
 40
0.8
 49
0.45
 49
-0.05
 49
0.1
 49
-0.05
 49
0.1
 49
-0.05
  0
LTYPE
  2
DOT
 70
64
  3
. . . . . . . . . . . . . . . . . . . .
 72
65
 73
2
 40
0.2
 49
0.1
 49
-0.1
  0
LTYPE
  2
DASHED
 70
64
  3
- - - - - - - - - - - - - - - - - - - -
 72
65
 73
2
 40
0.2
 49
0.1
 49
-0.1
  0
ENDTAB
  0
TABLE
  2
LAYER
 70
36
  0
LAYER
  2
0
 70
0
 62
7
  6
CONTINUOUS
  0
LAYER
  2
DEFAULT_1
 70
0
 62
7
  6
CENTER
  0
LAYER
  2
DEFAULT_2
 70
0
 62
8
  6
HIDDEN
  0
LAYER
  2
DEFAULT_3
 70
0
 62
7
  6
PHANTOM
  0
LAYER
  2
NOTES
 70
0
 62
7
  6
CONTINUOUS
  0
LAYER
  2
SUF
 70
0
 62
7
  6
CONTINUOUS
  0
LAYER
  2
SUF1
 70
0
 62
7
  6
CONTINUOUS
  0
ENDTAB
  0
TABLE
  2
STYLE
 70
1
  0
STYLE
  2
STANDARD
 70
0
 40
0.0
 41
0.8
 50
0.0
 71
0
 42
0.2
  3
txt
  4

  0
STYLE
  2
TEXTSTYLE_1
 70
0
 40
0.0
 41
0.8
 50
0.0
 71
0
 42
0.2
  3
gdt
  4

  0
STYLE
  2
TEXTSTYLE_2
 70
0
 40
0.0
 41
0.6
 50
0.0
 71
0
 42
0.2
  3
txt
  4

  0
STYLE
  2
TEXTSTYLE_3
 70
0
 40
0.0
 41
1.0
 50
0.0
 71
0
 42
0.2
  3
ftb_____.ttf
  4

  0
STYLE
  2
TEXTSTYLE_4
 70
0
 40
0.0
 41
1.0
 50
0.0
 71
0
 42
0.2
  3
fti_____.ttf
  4

  0
STYLE
  2
TEXTSTYLE_5
 70
0
 40
0.0
 41
1.0
 50
0.0
 71
0
 42
0.2
  3
frutiger light.ttf
  4

  0
STYLE
  2
TEXTSTYLE_6
 70
0
 40
0.0
 41
0.7
 50
0.0
 71
0
 42
0.2
  3
txt
  4

  0
STYLE
  2
TEXTSTYLE_7
 70
0
 40
0.0
 41
0.5
 50
0.0
 71
0
 42
0.2
  3
txt
  4

  0
ENDTAB
  0
ENDSEC
  0
SECTION
  2
BLOCKS
  0
BLOCK
  8
0
 62
2
  6
CONTINUOUS
  2
SYMBOL_8_BL1
 70
64
 10
173.5956734183
 20
35.5426498779
  0
TEXT
  8
0
 62
7
  6
CONTINUOUS
 10
164.6539584268
 20
30.6865562072
  7
TEXTSTYLE_4
 40
1.0655737705
  1
The brand for plastic modular belts and chains
 41
1.0
 72
0
  0
LINE
  8
0
 62
7
  6
CONTINUOUS
 10
149.5737418074
 20
36.1675703219
 11
149.5737418074
 21
34.0364227809
  0
LINE
  8
0
 62
7
  6
CONTINUOUS
 10
149.8628043005
 20
31.0454914852
 11
149.8628043005
 21
31.1422825445
  0
LINE
  8
0
 62
7
  6
CONTINUOUS
 10
149.5737418074
 20
31.1100188581
 11
149.6315543091
 21
30.9164367395
  0
LINE
  8
0
 62
7
  6
CONTINUOUS
 10
150.9671844304
 20
33.9544555678
 11
150.9671844304
 21
36.1675703219
  0
LINE
  8
0
 62
7
  6
CONTINUOUS
 10
151.8862417523
 20
32.1101932727
 11
151.8862417523
 21
30.5937998301
  0
LINE
  8
0
 62
7
  6
CONTINUOUS
 10
152.1753043074
 20
30.5937998301
 11
152.1753043074
 21
31.3358647082
  0
LINE
  8
0
 62
7
  6
CONTINUOUS
 10
152.1753043074
 20
31.4649194539
 11
152.1753043074
 21
32.1101932727
  0
LINE
  8
0
 62
7
  6
CONTINUOUS
 10
149.6315543091
 20
31.3036010218
 11
149.5737418074
 21
31.1100188581
  0
LINE
  8
0
 62
7
  6
CONTINUOUS
 10
149.9784292936
 20
30.8841730531
 11
149.8628043005
 21
31.0454914852
  0
LINE
  8
0
 62
7
  6
CONTINUOUS
 10
151.0768668626
 20
31.400392081
 11
151.1346793074
 21
31.3036010218
  0
LINE
  8
0
 62
7
  6
CONTINUOUS
 10
151.4237418626
 20
31.3036010218
 11
151.3659292523
 21
31.4326557675
  0
LINE
  8
0
 62
7
  6
CONTINUOUS
 10
152.852430332
 20
36.1675703219
 11
152.852430332
 21
34.3642916334
  0
LINE
  8
0
 62
7
  6
CONTINUOUS
 10
152.852430332
 20
33.0528162235
 11
152.852430332
 21
32.3970785186
  0
LINE
  8
0
 62
7
  6
CONTINUOUS
 10
153.2159293074
 20
31.2390736489
 11
153.2159293074
 21
30.5937998301
  0
LINE
  8
0
 62
7
  6
CONTINUOUS
 10
153.5049916972
 20
30.5937998301
 11
153.5049916972
 21
31.2390736489
  0
LINE
  8
0
 62
7
  6
CONTINUOUS
 10
149.8628043005
 20
31.1422825445
 11
149.9206168074
 21
31.2713373354
  0
LINE
  8
0
 62
7
  6
CONTINUOUS
 10
149.6315543091
 20
30.9164367395
 11
149.7471793074
 21
30.7873819712
  0
LINE
  8
0
 62
7
  6
CONTINUOUS
 10
153.1581166972
 20
31.3681283946
 11
153.2159293074
 21
31.2390736489
  0
LINE
  8
0
 62
7
  6
CONTINUOUS
 10
153.9674919177
 20
30.8841730531
 11
154.0253041972
 21
30.7551182848
  0
LINE
  8
0
 62
7
  6
CONTINUOUS
 10
153.5049916972
 20
31.2390736489
 11
153.4471794177
 21
31.400392081
  0
LINE
  8
0
 62
7
  6
CONTINUOUS
 10
153.9674919177
 20
31.4326557675
 11
153.9674919177
 21
31.3681283946
  0
LINE
  8
0
 62
7
  6
CONTINUOUS
 10
153.9674919177
 20
30.9809641124
 11
153.9674919177
 21
30.8841730531
  0
LINE
  8
0
 62
7
  6
CONTINUOUS
 10
154.245872955
 20
32.3970785186
 11
154.245872955
 21
36.1675703219
  0
LINE
  8
0
 62
7
  6
CONTINUOUS
 10
154.2565543074
 20
30.8519093441
 11
154.2565543074
 21
30.9164367395
  0
LINE
  8
0
 62
7
  6
CONTINUOUS
 10
154.5737418074
 20
36.1675703219
 11
154.5737418074
 21
32.3970785186
  0
LINE
  8
0
 62
7
  6
CONTINUOUS
 10
151.3659292523
 20
30.7873819712
 11
151.4237418626
 21
30.9164367395
  0
LINE
  8
0
 62
7
  6
CONTINUOUS
 10
155.759679528
 20
30.6905909007
 11
155.7018665869
 21
30.8519093441
  0
LINE
  8
0
 62
7
  6
CONTINUOUS
 10
155.412804528
 20
31.3681283946
 11
155.412804528
 21
31.2713373354
  0
LINE
  8
0
 62
7
  6
CONTINUOUS
 10
155.412804528
 20
31.1422825445
 11
155.412804528
 21
30.9487004259
  0
LINE
  8
0
 62
7
  6
CONTINUOUS
 10
155.7018665869
 20
30.8519093441
 11
155.7018665869
 21
31.3681283946
  0
LINE
  8
0
 62
7
  6
CONTINUOUS
 10
155.9671844304
 20
32.3970785186
 11
155.9671844304
 21
34.2003572071
  0
LINE
  8
0
 62
7
  6
CONTINUOUS
 10
155.9671844304
 20
35.511832617
 11
155.9671844304
 21
36.1675703219
  0
LINE
  8
0
 62
7
  6
CONTINUOUS
 10
156.279992028
 20
32.1101932727
 11
156.279992028
 21
31.9488748406
  0
LINE
  8
0
 62
7
  6
CONTINUOUS
 10
156.279992028
 20
31.626237886
 11
156.279992028
 21
30.5937998301
  0
LINE
  8
0
 62
7
  6
CONTINUOUS
 10
156.5690540869
 20
30.5937998301
 11
156.5690540869
 21
31.626237886
  0
LINE
  8
0
 62
7
  6
CONTINUOUS
 10
156.5690540869
 20
31.9488748406
 11
156.5690540869
 21
32.1101932727
  0
LINE
  8
0
 62
7
  6
CONTINUOUS
 10
151.1346793074
 20
30.9164367395
 11
151.0768668626
 21
30.8196456577
  0
LINE
  8
0
 62
7
  6
CONTINUOUS
 10
153.4471794177
 20
31.400392081
 11
153.3893668074
 21
31.4649194539
  0
LINE
  8
0
 62
7
  6
CONTINUOUS
 10
154.3143669177
 20
30.7873819712
 11
154.2565543074
 21
30.8519093441
  0
LINE
  8
0
 62
7
  6
CONTINUOUS
 10
155.4706168074
 20
30.6583272086
 11
155.5284290869
 21
30.5937998301
  0
LINE
  8
0
 62
7
  6
CONTINUOUS
 10
155.412804528
 20
30.7551182848
 11
155.4706168074
 21
30.6583272086
  0
LINE
  8
0
 62
7
  6
CONTINUOUS
 10
155.8174918074
 20
30.5937998301
 11
155.759679528
 21
30.6905909007
  0
LINE
  8
0
 62
7
  6
CONTINUOUS
 10
155.7018665869
 20
31.3681283946
 11
155.6440543074
 21
31.4649194539
  0
LINE
  8
0
 62
7
  6
CONTINUOUS
 10
157.0315543074
 20
31.626237886
 11
157.0315543074
 21
30.5937998301
  0
LINE
  8
0
 62
7
  6
CONTINUOUS
 10
157.320617028
 20
30.5937998301
 11
157.320617028
 21
31.3358647082
  0
LINE
  8
0
 62
7
  6
CONTINUOUS
 10
157.320617028
 20
31.4649194539
 11
157.320617028
 21
31.626237886
  0
LINE
  8
0
 62
7
  6
CONTINUOUS
 10
157.852430332
 20
34.6101932727
 11
157.852430332
 21
32.3970785186
  0
LINE
  8
0
 62
7
  6
CONTINUOUS
 10
149.7471793074
 20
31.4326557675
 11
149.6315543091
 21
31.3036010218
  0
LINE
  8
0
 62
7
  6
CONTINUOUS
 10
149.9206168074
 20
31.2713373354
 11
149.9784292936
 21
31.3358647082
  0
LINE
  8
0
 62
7
  6
CONTINUOUS
 10
149.7471793074
 20
30.7873819712
 11
149.8628043005
 21
30.7228545871
  0
LINE
  8
0
 62
7
  6
CONTINUOUS
 10
150.1518667936
 20
30.7873819712
 11
149.9784292936
 21
30.8841730531
  0
LINE
  8
0
 62
7
  6
CONTINUOUS
 10
155.3549915869
 20
31.4326557675
 11
155.412804528
 21
31.3681283946
  0
LINE
  8
0
 62
7
  6
CONTINUOUS
 10
158.3034290869
 20
31.3681283946
 11
158.361242028
 21
31.2068099625
  0
LINE
  8
0
 62
7
  6
CONTINUOUS
 10
158.6503040869
 20
31.2068099625
 11
158.5924918074
 21
31.3681283946
  0
LINE
  8
0
 62
7
  6
CONTINUOUS
 10
158.361242028
 20
31.2068099625
 11
158.361242028
 21
30.5937998301
  0
LINE
  8
0
 62
7
  6
CONTINUOUS
 10
158.6503040869
 20
30.5937998301
 11
158.6503040869
 21
31.2068099625
  0
LINE
  8
0
 62
7
  6
CONTINUOUS
 10
159.1128043074
 20
31.4326557675
 11
159.1128043074
 21
31.3681283946
  0
LINE
  8
0
 62
7
  6
CONTINUOUS
 10
159.245872955
 20
32.3970785186
 11
159.245872955
 21
34.5282260596
  0
LINE
  8
0
 62
7
  6
CONTINUOUS
 10
159.5737418074
 20
36.1675703219
 11
159.5737418074
 21
32.3970785186
  0
LINE
  8
0
 62
7
  6
CONTINUOUS
 10
154.2565543074
 20
30.9164367395
 11
154.3143669177
 21
31.0132277988
  0
LINE
  8
0
 62
7
  6
CONTINUOUS
 10
149.8628043005
 20
30.7228545871
 11
150.0362418212
 21
30.6583272086
  0
LINE
  8
0
 62
7
  6
CONTINUOUS
 10
151.3659292523
 20
31.4326557675
 11
151.1924917523
 21
31.5294468267
  0
LINE
  8
0
 62
7
  6
CONTINUOUS
 10
154.0253041972
 20
30.7551182848
 11
154.1987416972
 21
30.6583272086
  0
LINE
  8
0
 62
7
  6
CONTINUOUS
 10
153.0424918074
 20
31.4326557675
 11
153.1581166972
 21
31.3681283946
  0
LINE
  8
0
 62
7
  6
CONTINUOUS
 10
153.3893668074
 20
31.4649194539
 11
153.2737419177
 21
31.5294468267
  0
LINE
  8
0
 62
7
  6
CONTINUOUS
 10
159.1128043074
 20
30.8519093441
 11
159.228429528
 21
30.7228545871
  0
LINE
  8
0
 62
7
  6
CONTINUOUS
 10
159.4596793074
 20
30.7873819712
 11
159.401867028
 21
30.8519093441
  0
LINE
  8
0
 62
7
  6
CONTINUOUS
 10
159.1128043074
 20
31.3681283946
 11
159.228429528
 21
31.2390736489
  0
LINE
  8
0
 62
7
  6
CONTINUOUS
 10
158.5924918074
 20
31.3681283946
 11
158.534679528
 21
31.4649194539
  0
LINE
  8
0
 62
7
  6
CONTINUOUS
 10
160.9628038663
 20
30.7873819712
 11
160.9628038663
 21
30.8519093441
  0
LINE
  8
0
 62
7
  6
CONTINUOUS
 10
160.9671844304
 20
32.3970785186
 11
160.9671844304
 21
36.1675703219
  0
LINE
  8
0
 62
7
  6
CONTINUOUS
 10
154.0253041972
 20
31.4971831403
 11
153.9674919177
 21
31.4326557675
  0
LINE
  8
0
 62
7
  6
CONTINUOUS
 10
150.9034292799
 20
31.4649194539
 11
151.0768668626
 21
31.400392081
  0
LINE
  8
0
 62
7
  6
CONTINUOUS
 10
155.6440543074
 20
31.4649194539
 11
155.5284290869
 21
31.5294468267
  0
LINE
  8
0
 62
7
  6
CONTINUOUS
 10
159.4596793074
 20
31.3036010218
 11
159.401867028
 21
31.3681283946
  0
LINE
  8
0
 62
7
  6
CONTINUOUS
 10
160.615929528
 20
30.9164367395
 11
160.6737418074
 21
30.8519093441
  0
LINE
  8
0
 62
7
  6
CONTINUOUS
 10
160.9628038663
 20
30.8519093441
 11
160.8471793074
 21
30.9809641124
  0
LINE
  8
0
 62
7
  6
CONTINUOUS
 10
160.615929528
 20
31.4326557675
 11
160.6737418074
 21
31.3681283946
  0
LINE
  8
0
 62
7
  6
CONTINUOUS
 10
160.9628038663
 20
31.3681283946
 11
160.8471793074
 21
31.4971831403
  0
LINE
  8
0
 62
7
  6
CONTINUOUS
 10
154.2565543074
 20
31.3681283946
 11
154.3143669177
 21
31.4326557675
  0
LINE
  8
0
 62
7
  6
CONTINUOUS
 10
154.0831168074
 20
31.1100188581
 11
153.9674919177
 21
30.9809641124
  0
LINE
  8
0
 62
7
  6
CONTINUOUS
 10
155.412804528
 20
30.9487004259
 11
155.3549915869
 21
30.8841730531
  0
LINE
  8
0
 62
7
  6
CONTINUOUS
 10
155.3549915869
 20
30.6905909007
 11
155.412804528
 21
30.7551182848
  0
LINE
  8
0
 62
7
  6
CONTINUOUS
 10
154.1987416972
 20
30.6583272086
 11
154.3143669177
 21
30.6260635193
  0
LINE
  8
0
 62
7
  6
CONTINUOUS
 10
151.1924917523
 20
31.5294468267
 11
150.9612418074
 21
31.5939741996
  0
LINE
  8
0
 62
7
  6
CONTINUOUS
 10
154.5456166972
 20
30.7228545871
 11
154.3143669177
 21
30.7873819712
  0
LINE
  8
0
 62
7
  6
CONTINUOUS
 10
153.2737419177
 20
31.5294468267
 11
153.1003044177
 21
31.5939741996
  0
LINE
  8
0
 62
7
  6
CONTINUOUS
 10
155.5284290869
 20
31.5294468267
 11
155.3549915869
 21
31.5939741996
  0
LINE
  8
0
 62
7
  6
CONTINUOUS
 10
158.187804528
 20
31.4326557675
 11
158.3034290869
 21
31.3681283946
  0
LINE
  8
0
 62
7
  6
CONTINUOUS
 10
158.534679528
 20
31.4649194539
 11
158.4190543074
 21
31.5294468267
  0
LINE
  8
0
 62
7
  6
CONTINUOUS
 10
150.0362418212
 20
30.6583272086
 11
150.2096793212
 21
30.6260635193
  0
LINE
  8
0
 62
7
  6
CONTINUOUS
 10
150.498741835
 20
30.7228545871
 11
150.1518667936
 21
30.7873819712
  0
LINE
  8
0
 62
7
  6
CONTINUOUS
 10
152.9268669177
 20
31.4649194539
 11
153.0424918074
 21
31.4326557675
  0
LINE
  8
0
 62
7
  6
CONTINUOUS
 10
155.239367028
 20
31.4649194539
 11
155.3549915869
 21
31.4326557675
  0
LINE
  8
0
 62
7
  6
CONTINUOUS
 10
159.575304528
 20
30.7551182848
 11
159.4596793074
 21
30.7873819712
  0
LINE
  8
0
 62
7
  6
CONTINUOUS
 10
158.0721793074
 20
31.4649194539
 11
158.187804528
 21
31.4326557675
  0
LINE
  8
0
 62
7
  6
CONTINUOUS
 10
159.228429528
 20
30.7228545871
 11
159.401867028
 21
30.6583272086
  0
LINE
  8
0
 62
7
  6
CONTINUOUS
 10
158.4190543074
 20
31.5294468267
 11
158.2456168074
 21
31.5939741996
  0
LINE
  8
0
 62
7
  6
CONTINUOUS
 10
159.6331168074
 20
31.2390736489
 11
159.4596793074
 21
31.3036010218
  0
LINE
  8
0
 62
7
  6
CONTINUOUS
 10
160.442492028
 20
30.9809641124
 11
160.615929528
 21
30.9164367395
  0
LINE
  8
0
 62
7
  6
CONTINUOUS
 10
160.8471793074
 20
31.4971831403
 11
160.6737418074
 21
31.5617105132
  0
LINE
  8
0
 62
7
  6
CONTINUOUS
 10
159.228429528
 20
31.2390736489
 11
159.4596793074
 21
31.1422825445
  0
LINE
  8
0
 62
7
  6
CONTINUOUS
 10
160.8471793074
 20
30.9809641124
 11
160.615929528
 21
31.0777551716
  0
LINE
  8
0
 62
7
  6
CONTINUOUS
 10
159.401867028
 20
31.3681283946
 11
159.4596793074
 21
31.4326557675
  0
LINE
  8
0
 62
7
  6
CONTINUOUS
 10
149.8628043005
 20
31.4971831403
 11
149.7471793074
 21
31.4326557675
  0
LINE
  8
0
 62
7
  6
CONTINUOUS
 10
149.9784292936
 20
31.3358647082
 11
150.1518667936
 21
31.4326557675
  0
LINE
  8
0
 62
7
  6
CONTINUOUS
 10
152.2909293626
 20
31.5294468267
 11
152.1753043074
 21
31.4649194539
  0
LINE
  8
0
 62
7
  6
CONTINUOUS
 10
152.1753043074
 20
31.3358647082
 11
152.2909293626
 21
31.400392081
  0
LINE
  8
0
 62
7
  6
CONTINUOUS
 10
151.1924917523
 20
30.6905909007
 11
151.3659292523
 21
30.7873819712
  0
LINE
  8
0
 62
7
  6
CONTINUOUS
 10
150.2096793212
 20
30.6260635193
 11
150.5565542799
 21
30.5937998301
  0
LINE
  8
0
 62
7
  6
CONTINUOUS
 10
154.3143669177
 20
30.6260635193
 11
154.5456166972
 21
30.5937998301
  0
LINE
  8
0
 62
7
  6
CONTINUOUS
 10
152.6956168074
 20
31.4971831403
 11
152.9268669177
 21
31.4649194539
  0
LINE
  8
0
 62
7
  6
CONTINUOUS
 10
155.0081169177
 20
31.4971831403
 11
155.239367028
 21
31.4649194539
  0
LINE
  8
0
 62
7
  6
CONTINUOUS
 10
159.4596793074
 20
31.1422825445
 11
160.442492028
 21
30.9809641124
  0
LINE
  8
0
 62
7
  6
CONTINUOUS
 10
160.615929528
 20
31.0777551716
 11
159.6331168074
 21
31.2390736489
  0
LINE
  8
0
 62
7
  6
CONTINUOUS
 10
153.1003044177
 20
31.5939741996
 11
152.9268669177
 21
31.626237886
  0
LINE
  8
0
 62
7
  6
CONTINUOUS
 10
159.401867028
 20
30.6583272086
 11
159.575304528
 21
30.6260635193
  0
LINE
  8
0
 62
7
  6
CONTINUOUS
 10
158.2456168074
 20
31.5939741996
 11
158.0721793074
 21
31.626237886
  0
LINE
  8
0
 62
7
  6
CONTINUOUS
 10
160.5003043074
 20
31.4649194539
 11
160.615929528
 21
31.4326557675
  0
LINE
  8
0
 62
7
  6
CONTINUOUS
 10
160.6737418074
 20
30.8519093441
 11
160.615929528
 21
30.7873819712
  0
LINE
  8
0
 62
7
  6
CONTINUOUS
 10
159.228429528
 20
31.5294468267
 11
159.1128043074
 21
31.4326557675
  0
LINE
  8
0
 62
7
  6
CONTINUOUS
 10
154.1409294177
 20
31.5617105132
 11
154.0253041972
 21
31.4971831403
  0
LINE
  8
0
 62
7
  6
CONTINUOUS
 10
154.1987416972
 20
31.1745462761
 11
154.0831168074
 21
31.1100188581
  0
LINE
  8
0
 62
7
  6
CONTINUOUS
 10
154.3143669177
 20
31.0132277988
 11
154.4299918074
 21
31.0777551716
  0
LINE
  8
0
 62
7
  6
CONTINUOUS
 10
151.8862417523
 20
30.5937998301
 11
152.1753043074
 21
30.5937998301
  0
LINE
  8
0
 62
7
  6
CONTINUOUS
 10
153.2159293074
 20
30.5937998301
 11
153.5049916972
 21
30.5937998301
  0
LINE
  8
0
 62
7
  6
CONTINUOUS
 10
154.5456166972
 20
30.5937998301
 11
154.8924916972
 21
30.5937998301
  0
LINE
  8
0
 62
7
  6
CONTINUOUS
 10
155.5284290869
 20
30.5937998301
 11
155.8174918074
 21
30.5937998301
  0
LINE
  8
0
 62
7
  6
CONTINUOUS
 10
156.279992028
 20
30.5937998301
 11
156.5690540869
 21
30.5937998301
  0
LINE
  8
0
 62
7
  6
CONTINUOUS
 10
157.0315543074
 20
30.5937998301
 11
157.320617028
 21
30.5937998301
  0
LINE
  8
0
 62
7
  6
CONTINUOUS
 10
158.361242028
 20
30.5937998301
 11
158.6503040869
 21
30.5937998301
  0
LINE
  8
0
 62
7
  6
CONTINUOUS
 10
159.922179528
 20
30.5937998301
 11
160.269054528
 21
30.5937998301
  0
LINE
  8
0
 62
7
  6
CONTINUOUS
 10
160.269054528
 20
30.7228545871
 11
159.922179528
 21
30.7228545871
  0
LINE
  8
0
 62
7
  6
CONTINUOUS
 10
154.8924916972
 20
30.7228545871
 11
154.5456166972
 21
30.7228545871
  0
LINE
  8
0
 62
7
  6
CONTINUOUS
 10
159.401867028
 20
30.8519093441
 11
159.1128043074
 21
30.8519093441
  0
LINE
  8
0
 62
7
  6
CONTINUOUS
 10
151.4237418626
 20
30.9164367395
 11
151.1346793074
 21
30.9164367395
  0
LINE
  8
0
 62
7
  6
CONTINUOUS
 10
150.498741835
 20
31.4971831403
 11
150.9034292799
 21
31.4649194539
  0
LINE
  8
0
 62
7
  6
CONTINUOUS
 10
150.9612418074
 20
31.5939741996
 11
150.5565542799
 21
31.626237886
  0
LINE
  8
0
 62
7
  6
CONTINUOUS
 10
159.575304528
 20
30.6260635193
 11
159.922179528
 21
30.5937998301
  0
LINE
  8
0
 62
7
  6
CONTINUOUS
 10
159.922179528
 20
30.7228545871
 11
159.575304528
 21
30.7551182848
  0
LINE
  8
0
 62
7
  6
CONTINUOUS
 10
155.3549915869
 20
31.5939741996
 11
155.0081169177
 21
31.626237886
  0
LINE
  8
0
 62
7
  6
CONTINUOUS
 10
160.1534293074
 20
31.4971831403
 11
160.5003043074
 21
31.4649194539
  0
LINE
  8
0
 62
7
  6
CONTINUOUS
 10
160.5003043074
 20
31.5939741996
 11
160.1534293074
 21
31.626237886
  0
LINE
  8
0
 62
7
  6
CONTINUOUS
 10
157.840929528
 20
31.4971831403
 11
158.0721793074
 21
31.4649194539
  0
LINE
  8
0
 62
7
  6
CONTINUOUS
 10
160.6737418074
 20
31.5617105132
 11
160.5003043074
 21
31.5939741996
  0
LINE
  8
0
 62
7
  6
CONTINUOUS
 10
160.8471793074
 20
30.6905909007
 11
160.9628038663
 21
30.7873819712
  0
LINE
  8
0
 62
7
  6
CONTINUOUS
 10
155.3549915869
 20
30.8841730531
 11
155.1815540869
 21
30.7873819712
  0
LINE
  8
0
 62
7
  6
CONTINUOUS
 10
157.4362415869
 20
31.5294468267
 11
157.320617028
 21
31.4649194539
  0
LINE
  8
0
 62
7
  6
CONTINUOUS
 10
157.320617028
 20
31.3358647082
 11
157.4362415869
 21
31.400392081
  0
LINE
  8
0
 62
7
  6
CONTINUOUS
 10
150.0362418212
 20
31.5617105132
 11
149.8628043005
 21
31.4971831403
  0
LINE
  8
0
 62
7
  6
CONTINUOUS
 10
152.4643666972
 20
31.5939741996
 11
152.2909293626
 21
31.5294468267
  0
LINE
  8
0
 62
7
  6
CONTINUOUS
 10
152.2909293626
 20
31.400392081
 11
152.4643666972
 21
31.4649194539
  0
LINE
  8
0
 62
7
  6
CONTINUOUS
 10
151.0768668626
 20
30.8196456577
 11
150.9034292799
 21
30.7551182848
  0
LINE
  8
0
 62
7
  6
CONTINUOUS
 10
160.5003043074
 20
30.7551182848
 11
160.269054528
 21
30.7228545871
  0
LINE
  8
0
 62
7
  6
CONTINUOUS
 10
154.8924916972
 20
30.5937998301
 11
155.1815540869
 21
30.6260635193
  0
LINE
  8
0
 62
7
  6
CONTINUOUS
 10
160.269054528
 20
30.5937998301
 11
160.615929528
 21
30.6260635193
  0
LINE
  8
0
 62
7
  6
CONTINUOUS
 10
150.5565542799
 20
30.5937998301
 11
150.9612418074
 21
30.6260635193
  0
LINE
  8
0
 62
7
  6
CONTINUOUS
 10
150.9034292799
 20
30.7551182848
 11
150.498741835
 21
30.7228545871
  0
LINE
  8
0
 62
7
  6
CONTINUOUS
 10
154.7768668074
 20
31.1422825445
 11
155.412804528
 21
31.1422825445
  0
LINE
  8
0
 62
7
  6
CONTINUOUS
 10
155.412804528
 20
31.2713373354
 11
154.7768668074
 21
31.2713373354
  0
LINE
  8
0
 62
7
  6
CONTINUOUS
 10
151.1346793074
 20
31.3036010218
 11
151.4237418626
 21
31.3036010218
  0
LINE
  8
0
 62
7
  6
CONTINUOUS
 10
153.9674919177
 20
31.3681283946
 11
154.2565543074
 21
31.3681283946
  0
LINE
  8
0
 62
7
  6
CONTINUOUS
 10
160.6737418074
 20
31.3681283946
 11
160.9628038663
 21
31.3681283946
  0
LINE
  8
0
 62
7
  6
CONTINUOUS
 10
154.6612419177
 20
31.4971831403
 11
155.0081169177
 21
31.4971831403
  0
LINE
  8
0
 62
7
  6
CONTINUOUS
 10
159.8065543074
 20
31.4971831403
 11
160.1534293074
 21
31.4971831403
  0
LINE
  8
0
 62
7
  6
CONTINUOUS
 10
160.1534293074
 20
31.626237886
 11
159.8065543074
 21
31.626237886
  0
LINE
  8
0
 62
7
  6
CONTINUOUS
 10
158.0721793074
 20
31.626237886
 11
157.840929528
 21
31.626237886
  0
LINE
  8
0
 62
7
  6
CONTINUOUS
 10
157.320617028
 20
31.626237886
 11
157.0315543074
 21
31.626237886
  0
LINE
  8
0
 62
7
  6
CONTINUOUS
 10
156.5690540869
 20
31.626237886
 11
156.279992028
 21
31.626237886
  0
LINE
  8
0
 62
7
  6
CONTINUOUS
 10
155.0081169177
 20
31.626237886
 11
154.6612419177
 21
31.626237886
  0
LINE
  8
0
 62
7
  6
CONTINUOUS
 10
152.9268669177
 20
31.626237886
 11
152.6956168074
 21
31.626237886
  0
LINE
  8
0
 62
7
  6
CONTINUOUS
 10
156.279992028
 20
31.9488748406
 11
156.5690540869
 21
31.9488748406
  0
LINE
  8
0
 62
7
  6
CONTINUOUS
 10
156.5690540869
 20
32.1101932727
 11
156.279992028
 21
32.1101932727
  0
LINE
  8
0
 62
7
  6
CONTINUOUS
 10
152.1753043074
 20
32.1101932727
 11
151.8862417523
 21
32.1101932727
  0
LINE
  8
0
 62
7
  6
CONTINUOUS
 10
151.2130860697
 20
32.3970785186
 11
151.6256574183
 21
32.3970785186
  0
LINE
  8
0
 62
7
  6
CONTINUOUS
 10
152.852430332
 20
32.3970785186
 11
154.245872955
 21
32.3970785186
  0
LINE
  8
0
 62
7
  6
CONTINUOUS
 10
154.5737418074
 20
32.3970785186
 11
155.9671844304
 21
32.3970785186
  0
LINE
  8
0
 62
7
  6
CONTINUOUS
 10
157.852430332
 20
32.3970785186
 11
159.245872955
 21
32.3970785186
  0
LINE
  8
0
 62
7
  6
CONTINUOUS
 10
159.5737418074
 20
32.3970785186
 11
160.9671844304
 21
32.3970785186
  0
LINE
  8
0
 62
7
  6
CONTINUOUS
 10
157.6096790869
 20
31.5939741996
 11
157.4362415869
 21
31.5294468267
  0
LINE
  8
0
 62
7
  6
CONTINUOUS
 10
155.1815540869
 20
30.6260635193
 11
155.3549915869
 21
30.6905909007
  0
LINE
  8
0
 62
7
  6
CONTINUOUS
 10
160.615929528
 20
30.6260635193
 11
160.8471793074
 21
30.6905909007
  0
LINE
  8
0
 62
7
  6
CONTINUOUS
 10
160.615929528
 20
30.7873819712
 11
160.5003043074
 21
30.7551182848
  0
LINE
  8
0
 62
7
  6
CONTINUOUS
 10
159.575304528
 20
31.4649194539
 11
159.8065543074
 21
31.4971831403
  0
LINE
  8
0
 62
7
  6
CONTINUOUS
 10
157.6096790869
 20
31.4649194539
 11
157.840929528
 21
31.4971831403
  0
LINE
  8
0
 62
7
  6
CONTINUOUS
 10
154.5456166972
 20
31.1100188581
 11
154.7768668074
 21
31.1422825445
  0
LINE
  8
0
 62
7
  6
CONTINUOUS
 10
157.840929528
 20
31.626237886
 11
157.6096790869
 21
31.5939741996
  0
LINE
  8
0
 62
7
  6
CONTINUOUS
 10
154.4299918074
 20
31.4649194539
 11
154.6612419177
 21
31.4971831403
  0
LINE
  8
0
 62
7
  6
CONTINUOUS
 10
159.8065543074
 20
31.626237886
 11
159.4596793074
 21
31.5939741996
  0
LINE
  8
0
 62
7
  6
CONTINUOUS
 10
154.7768668074
 20
31.2713373354
 11
154.4299918074
 21
31.2390736489
  0
LINE
  8
0
 62
7
  6
CONTINUOUS
 10
150.5565542799
 20
31.626237886
 11
150.2096793212
 21
31.5939741996
  0
LINE
  8
0
 62
7
  6
CONTINUOUS
 10
154.6612419177
 20
31.626237886
 11
154.2565543074
 21
31.5939741996
  0
LINE
  8
0
 62
7
  6
CONTINUOUS
 10
152.0327582009
 20
33.5446195022
 11
151.3770204959
 21
33.5446195022
  0
LINE
  8
0
 62
7
  6
CONTINUOUS
 10
157.4362415869
 20
31.400392081
 11
157.6096790869
 21
31.4649194539
  0
LINE
  8
0
 62
7
  6
CONTINUOUS
 10
159.4596793074
 20
31.4326557675
 11
159.575304528
 21
31.4649194539
  0
LINE
  8
0
 62
7
  6
CONTINUOUS
 10
159.4596793074
 20
31.5939741996
 11
159.228429528
 21
31.5294468267
  0
LINE
  8
0
 62
7
  6
CONTINUOUS
 10
155.1815540869
 20
30.7873819712
 11
154.8924916972
 21
30.7228545871
  0
LINE
  8
0
 62
7
  6
CONTINUOUS
 10
152.4643666972
 20
31.4649194539
 11
152.6956168074
 21
31.4971831403
  0
LINE
  8
0
 62
7
  6
CONTINUOUS
 10
152.6956168074
 20
31.626237886
 11
152.4643666972
 21
31.5939741996
  0
LINE
  8
0
 62
7
  6
CONTINUOUS
 10
150.2674918074
 20
31.4649194539
 11
150.498741835
 21
31.4971831403
  0
LINE
  8
0
 62
7
  6
CONTINUOUS
 10
156.7868565615
 20
35.0200293383
 11
157.4425942664
 21
35.0200293383
  0
LINE
  8
0
 62
7
  6
CONTINUOUS
 10
154.4299918074
 20
31.0777551716
 11
154.5456166972
 21
31.1100188581
  0
LINE
  8
0
 62
7
  6
CONTINUOUS
 10
154.4299918074
 20
31.2390736489
 11
154.1987416972
 21
31.1745462761
  0
LINE
  8
0
 62
7
  6
CONTINUOUS
 10
154.3143669177
 20
31.4326557675
 11
154.4299918074
 21
31.4649194539
  0
LINE
  8
0
 62
7
  6
CONTINUOUS
 10
150.9612418074
 20
30.6260635193
 11
151.1924917523
 21
30.6905909007
  0
LINE
  8
0
 62
7
  6
CONTINUOUS
 10
154.2565543074
 20
31.5939741996
 11
154.1409294177
 21
31.5617105132
  0
LINE
  8
0
 62
7
  6
CONTINUOUS
 10
150.2096793212
 20
31.5939741996
 11
150.0362418212
 21
31.5617105132
  0
LINE
  8
0
 62
7
  6
CONTINUOUS
 10
160.9671844304
 20
36.1675703219
 11
159.5737418074
 21
36.1675703219
  0
LINE
  8
0
 62
7
  6
CONTINUOUS
 10
157.6065286927
 20
36.1675703219
 11
157.1939573441
 21
36.1675703219
  0
LINE
  8
0
 62
7
  6
CONTINUOUS
 10
155.9671844304
 20
36.1675703219
 11
154.5737418074
 21
36.1675703219
  0
LINE
  8
0
 62
7
  6
CONTINUOUS
 10
154.245872955
 20
36.1675703219
 11
152.852430332
 21
36.1675703219
  0
LINE
  8
0
 62
7
  6
CONTINUOUS
 10
150.9671844304
 20
36.1675703219
 11
149.5737418074
 21
36.1675703219
  0
LINE
  8
0
 62
7
  6
CONTINUOUS
 10
150.1518667936
 20
31.4326557675
 11
150.2674918074
 21
31.4649194539
  0
CIRCLE
  8
0
 62
7
  6
CONTINUOUS
 10
160.2704631189
 20
38.5036358957
 40
2.0901639344
  0
ARC
  8
0
 62
7
  6
CONTINUOUS
 10
151.2130860697
 20
34.0364227809
 40
1.6393442623
 50
180.0
 51
270.0
  0
ARC
  8
0
 62
7
  6
CONTINUOUS
 10
157.6065286927
 20
34.5282260596
 40
1.6393442623
 50
0.0
 51
90.0
  0
ARC
  8
0
 62
7
  6
CONTINUOUS
 10
151.6256574183
 20
33.8724883547
 40
1.4754098361
 50
270.0
 51
326.2510114041
  0
ARC
  8
0
 62
7
  6
CONTINUOUS
 10
157.1939573441
 20
34.6921604858
 40
1.4754098361
 50
90.0
 51
146.2510114041
  0
ARC
  8
0
 62
7
  6
CONTINUOUS
 10
152.0327582009
 20
34.3642916334
 40
0.8196721311
 50
270.0
 51
360.0
  0
ARC
  8
0
 62
7
  6
CONTINUOUS
 10
156.7868565615
 20
34.2003572071
 40
0.8196721311
 50
90.0
 51
180.0
  0
ARC
  8
0
 62
7
  6
CONTINUOUS
 10
151.3770204959
 20
33.9544555678
 40
0.4098360656
 50
180.0
 51
270.0
  0
ARC
  8
0
 62
7
  6
CONTINUOUS
 10
157.4425942664
 20
34.6101932727
 40
0.4098360656
 50
0.0
 51
90.0
  0
SOLID
  8
0
 62
7
  6
CONTINUOUS
 10
156.279992028
 20
31.9488752009
 11
156.279992028
 21
32.1101936845
 12
156.5690540869
 22
31.9488752009
 13
156.5690540869
 23
32.1101936845
  0
SOLID
  8
0
 62
7
  6
CONTINUOUS
 10
150.5565542799
 20
31.6262382337
 11
150.9612418074
 21
31.5939740028
 12
150.2096793212
 22
31.5939740028
 13
150.2096793212
 23
31.5939740028
  0
SOLID
  8
0
 62
7
  6
CONTINUOUS
 10
150.0362418212
 20
31.5617111435
 11
150.2096793212
 21
31.5939740028
 12
150.9612418074
 22
31.5939740028
 13
150.9612418074
 23
31.5939740028
  0
SOLID
  8
0
 62
7
  6
CONTINUOUS
 10
150.9612418074
 20
31.5939740028
 11
151.1924917523
 21
31.5294468402
 12
150.0362418212
 22
31.5617111435
 13
150.0362418212
 23
31.5617111435
  0
SOLID
  8
0
 62
7
  6
CONTINUOUS
 10
149.8628043005
 20
31.49718259
 11
150.0362418212
 21
31.5617111435
 12
151.1924917523
 22
31.5294468402
 13
151.1924917523
 23
31.5294468402
  0
SOLID
  8
0
 62
7
  6
CONTINUOUS
 10
149.8628043005
 20
31.49718259
 11
151.1924917523
 21
31.5294468402
 12
150.498741835
 22
31.49718259
 13
150.498741835
 23
31.49718259
  0
SOLID
  8
0
 62
7
  6
CONTINUOUS
 10
150.498741835
 20
31.49718259
 11
151.1924917523
 21
31.5294468402
 12
150.9034292799
 22
31.4649197501
 13
150.9034292799
 23
31.4649197501
  0
SOLID
  8
0
 62
7
  6
CONTINUOUS
 10
151.1924917523
 20
31.5294468402
 11
151.3659292523
 21
31.4326554468
 12
150.9034292799
 22
31.4649197501
 13
150.9034292799
 23
31.4649197501
  0
SOLID
  8
0
 62
7
  6
CONTINUOUS
 10
151.0768668626
 20
31.4003926599
 11
150.9034292799
 21
31.4649197501
 12
151.3659292523
 22
31.4326554468
 13
151.3659292523
 23
31.4326554468
  0
SOLID
  8
0
 62
7
  6
CONTINUOUS
 10
151.0768668626
 20
31.4003926599
 11
151.3659292523
 21
31.4326554468
 12
151.1346793074
 22
31.3036013776
 13
151.1346793074
 23
31.3036013776
  0
SOLID
  8
0
 62
7
  6
CONTINUOUS
 10
151.3659292523
 20
31.4326554468
 11
151.4237418626
 21
31.3036013776
 12
151.1346793074
 22
31.3036013776
 13
151.1346793074
 23
31.3036013776
  0
SOLID
  8
0
 62
7
  6
CONTINUOUS
 10
152.4643666972
 20
31.5939739754
 11
152.6956168074
 21
31.6262382787
 12
152.9268669177
 22
31.6262382787
 13
152.9268669177
 23
31.6262382787
  0
SOLID
  8
0
 62
7
  6
CONTINUOUS
 10
152.9268669177
 20
31.6262382787
 11
153.1003044177
 21
31.5939739754
 12
152.4643666972
 22
31.5939739754
 13
152.4643666972
 23
31.5939739754
  0
SOLID
  8
0
 62
7
  6
CONTINUOUS
 10
152.2909293626
 20
31.5294468852
 11
152.4643666972
 21
31.5939739754
 12
153.1003044177
 22
31.5939739754
 13
153.1003044177
 23
31.5939739754
  0
SOLID
  8
0
 62
7
  6
CONTINUOUS
 10
153.1003044177
 20
31.5939739754
 11
153.2737419177
 21
31.5294468852
 12
152.2909293626
 22
31.5294468852
 13
152.2909293626
 23
31.5294468852
  0
SOLID
  8
0
 62
7
  6
CONTINUOUS
 10
153.2737419177
 20
31.5294468852
 11
152.6956168074
 21
31.4971825369
 12
152.2909293626
 22
31.5294468852
 13
152.2909293626
 23
31.5294468852
  0
SOLID
  8
0
 62
7
  6
CONTINUOUS
 10
152.1753043074
 20
31.4649197951
 11
152.2909293626
 21
31.5294468852
 12
152.6956168074
 22
31.4971825369
 13
152.6956168074
 23
31.4971825369
  0
SOLID
  8
0
 62
7
  6
CONTINUOUS
 10
152.6956168074
 20
31.4971825369
 11
152.4643666972
 21
31.4649197951
 12
152.1753043074
 22
31.4649197951
 13
152.1753043074
 23
31.4649197951
  0
SOLID
  8
0
 62
7
  6
CONTINUOUS
 10
152.6956168074
 20
31.4971825369
 11
153.2737419177
 21
31.5294468852
 12
152.9268669177
 22
31.4649197951
 13
152.9268669177
 23
31.4649197951
  0
SOLID
  8
0
 62
7
  6
CONTINUOUS
 10
153.2737419177
 20
31.5294468852
 11
153.3893668074
 21
31.4649197951
 12
152.9268669177
 22
31.4649197951
 13
152.9268669177
 23
31.4649197951
  0
SOLID
  8
0
 62
7
  6
CONTINUOUS
 10
153.0424918074
 20
31.4326554468
 11
152.9268669177
 21
31.4649197951
 12
153.3893668074
 22
31.4649197951
 13
153.3893668074
 23
31.4649197951
  0
SOLID
  8
0
 62
7
  6
CONTINUOUS
 10
153.3893668074
 20
31.4649197951
 11
153.4471794177
 21
31.4003927049
 12
153.0424918074
 22
31.4326554468
 13
153.0424918074
 23
31.4326554468
  0
SOLID
  8
0
 62
7
  6
CONTINUOUS
 10
153.1581166972
 20
31.3681283566
 11
153.0424918074
 21
31.4326554468
 12
153.4471794177
 22
31.4003927049
 13
153.4471794177
 23
31.4003927049
  0
SOLID
  8
0
 62
7
  6
CONTINUOUS
 10
153.1581166972
 20
31.3681283566
 11
153.4471794177
 21
31.4003927049
 12
153.2159293074
 22
31.2390742213
 13
153.2159293074
 23
31.2390742213
  0
SOLID
  8
0
 62
7
  6
CONTINUOUS
 10
153.4471794177
 20
31.4003927049
 11
153.5049916972
 21
31.2390742213
 12
153.2159293074
 22
31.2390742213
 13
153.2159293074
 23
31.2390742213
  0
SOLID
  8
0
 62
7
  6
CONTINUOUS
 10
152.4643666972
 20
31.4649197951
 11
152.2909293626
 21
31.4003927049
 12
152.1753043074
 22
31.4649197951
 13
152.1753043074
 23
31.4649197951
  0
SOLID
  8
0
 62
7
  6
CONTINUOUS
 10
152.2909293626
 20
31.4003927049
 11
152.1753043074
 21
31.3358640533
 12
152.1753043074
 22
31.4649197951
 13
152.1753043074
 23
31.4649197951
  0
SOLID
  8
0
 62
7
  6
CONTINUOUS
 10
152.1753043074
 20
31.3358640533
 11
151.8862417523
 21
30.5938002869
 12
152.1753043074
 22
31.4649197951
 13
152.1753043074
 23
31.4649197951
  0
SOLID
  8
0
 62
7
  6
CONTINUOUS
 10
152.1753043074
 20
31.4649197951
 11
151.8862417523
 21
30.5938002869
 12
152.1753043074
 22
32.1101937295
 13
152.1753043074
 23
32.1101937295
  0
SOLID
  8
0
 62
7
  6
CONTINUOUS
 10
151.8862417523
 20
30.5938002869
 11
151.8862417523
 21
32.1101937295
 12
152.1753043074
 22
32.1101937295
 13
152.1753043074
 23
32.1101937295
  0
SOLID
  8
0
 62
7
  6
CONTINUOUS
 10
152.1753043074
 20
31.3358640533
 11
152.1753043074
 21
30.5938002869
 12
151.8862417523
 22
30.5938002869
 13
151.8862417523
 23
30.5938002869
  0
SOLID
  8
0
 62
7
  6
CONTINUOUS
 10
153.2159293074
 20
30.5938002869
 11
153.2159293074
 21
31.2390742213
 12
153.5049916972
 22
31.2390742213
 13
153.5049916972
 23
31.2390742213
  0
SOLID
  8
0
 62
7
  6
CONTINUOUS
 10
153.5049916972
 20
31.2390742213
 11
153.5049916972
 21
30.5938002869
 12
153.2159293074
 22
30.5938002869
 13
153.2159293074
 23
30.5938002869
  0
SOLID
  8
0
 62
7
  6
CONTINUOUS
 10
154.2565543074
 20
31.5939738288
 11
154.6612419177
 21
31.6262385959
 12
155.0081169177
 22
31.6262385959
 13
155.0081169177
 23
31.6262385959
  0
SOLID
  8
0
 62
7
  6
CONTINUOUS
 10
155.0081169177
 20
31.6262385959
 11
155.3549915869
 21
31.5939738288
 12
154.2565543074
 22
31.5939738288
 13
154.2565543074
 23
31.5939738288
  0
SOLID
  8
0
 62
7
  6
CONTINUOUS
 10
154.1409294177
 20
31.5617111435
 11
154.2565543074
 21
31.5939738288
 12
155.3549915869
 22
31.5939738288
 13
155.3549915869
 23
31.5939738288
  0
SOLID
  8
0
 62
7
  6
CONTINUOUS
 10
155.3549915869
 20
31.5939738288
 11
155.5284290869
 21
31.5294468402
 12
154.1409294177
 22
31.5617111435
 13
154.1409294177
 23
31.5617111435
  0
SOLID
  8
0
 62
7
  6
CONTINUOUS
 10
154.0253041972
 20
31.4971826249
 11
154.1409294177
 21
31.5617111435
 12
155.5284290869
 22
31.5294468402
 13
155.5284290869
 23
31.5294468402
  0
SOLID
  8
0
 62
7
  6
CONTINUOUS
 10
154.0253041972
 20
31.4971826249
 11
155.5284290869
 21
31.5294468402
 12
154.6612419177
 22
31.4971826249
 13
154.6612419177
 23
31.4971826249
  0
SOLID
  8
0
 62
7
  6
CONTINUOUS
 10
154.6612419177
 20
31.4971826249
 11
155.5284290869
 21
31.5294468402
 12
155.0081169177
 22
31.4971826249
 13
155.0081169177
 23
31.4971826249
  0
SOLID
  8
0
 62
7
  6
CONTINUOUS
 10
155.0081169177
 20
31.4971826249
 11
155.5284290869
 21
31.5294468402
 12
155.239367028
 22
31.4649194065
 13
155.239367028
 23
31.4649194065
  0
SOLID
  8
0
 62
7
  6
CONTINUOUS
 10
155.5284290869
 20
31.5294468402
 11
155.6440543074
 21
31.4649194065
 12
155.239367028
 22
31.4649194065
 13
155.239367028
 23
31.4649194065
  0
SOLID
  8
0
 62
7
  6
CONTINUOUS
 10
153.9674919177
 20
31.4326554138
 11
154.0253041972
 21
31.4971826249
 12
154.6612419177
 22
31.4971826249
 13
154.6612419177
 23
31.4971826249
  0
SOLID
  8
0
 62
7
  6
CONTINUOUS
 10
155.3549915869
 20
31.4326554138
 11
155.239367028
 21
31.4649194065
 12
155.6440543074
 22
31.4649194065
 13
155.6440543074
 23
31.4649194065
  0
SOLID
  8
0
 62
7
  6
CONTINUOUS
 10
155.3549915869
 20
31.4326554138
 11
155.6440543074
 21
31.4649194065
 12
155.412804528
 22
31.3681282026
 13
155.412804528
 23
31.3681282026
  0
SOLID
  8
0
 62
7
  6
CONTINUOUS
 10
155.6440543074
 20
31.4649194065
 11
155.7018665869
 21
31.3681282026
 12
155.412804528
 22
31.3681282026
 13
155.412804528
 23
31.3681282026
  0
SOLID
  8
0
 62
7
  6
CONTINUOUS
 10
155.412804528
 20
31.2713369632
 11
155.412804528
 21
31.3681282026
 12
155.7018665869
 22
31.3681282026
 13
155.7018665869
 23
31.3681282026
  0
SOLID
  8
0
 62
7
  6
CONTINUOUS
 10
155.412804528
 20
31.2713369632
 11
155.7018665869
 21
31.3681282026
 12
155.412804528
 22
31.1422827828
 13
155.412804528
 23
31.1422827828
  0
SOLID
  8
0
 62
7
  6
CONTINUOUS
 10
155.412804528
 20
31.1422827828
 11
155.7018665869
 21
31.3681282026
 12
155.412804528
 22
30.9487004259
 13
155.412804528
 23
30.9487004259
  0
SOLID
  8
0
 62
7
  6
CONTINUOUS
 10
155.7018665869
 20
31.3681282026
 11
155.7018665869
 21
30.8519086025
 12
155.412804528
 22
30.9487004259
 13
155.412804528
 23
30.9487004259
  0
SOLID
  8
0
 62
7
  6
CONTINUOUS
 10
157.6096790869
 20
31.5939736268
 11
157.840929528
 21
31.6262383465
 12
158.0721793074
 22
31.6262383465
 13
158.0721793074
 23
31.6262383465
  0
SOLID
  8
0
 62
7
  6
CONTINUOUS
 10
158.0721793074
 20
31.6262383465
 11
158.2456168074
 21
31.5939736268
 12
157.6096790869
 22
31.5939736268
 13
157.6096790869
 23
31.5939736268
  0
SOLID
  8
0
 62
7
  6
CONTINUOUS
 10
157.4362415869
 20
31.5294472848
 11
157.6096790869
 21
31.5939736268
 12
158.2456168074
 22
31.5939736268
 13
158.2456168074
 23
31.5939736268
  0
SOLID
  8
0
 62
7
  6
CONTINUOUS
 10
158.2456168074
 20
31.5939736268
 11
158.4190543074
 21
31.5294472848
 12
157.4362415869
 22
31.5294472848
 13
157.4362415869
 23
31.5294472848
  0
SOLID
  8
0
 62
7
  6
CONTINUOUS
 10
158.4190543074
 20
31.5294472848
 11
157.840929528
 21
31.4971825369
 12
157.4362415869
 22
31.5294472848
 13
157.4362415869
 23
31.5294472848
  0
SOLID
  8
0
 62
7
  6
CONTINUOUS
 10
157.320617028
 20
31.4649199103
 11
157.4362415869
 21
31.5294472848
 12
157.840929528
 22
31.4971825369
 13
157.840929528
 23
31.4971825369
  0
SOLID
  8
0
 62
7
  6
CONTINUOUS
 10
157.840929528
 20
31.4971825369
 11
157.6096790869
 21
31.4649199103
 12
157.320617028
 22
31.4649199103
 13
157.320617028
 23
31.4649199103
  0
SOLID
  8
0
 62
7
  6
CONTINUOUS
 10
157.840929528
 20
31.4971825369
 11
158.4190543074
 21
31.5294472848
 12
158.0721793074
 22
31.4649199103
 13
158.0721793074
 23
31.4649199103
  0
SOLID
  8
0
 62
7
  6
CONTINUOUS
 10
158.4190543074
 20
31.5294472848
 11
158.534679528
 21
31.4649199103
 12
158.0721793074
 22
31.4649199103
 13
158.0721793074
 23
31.4649199103
  0
SOLID
  8
0
 62
7
  6
CONTINUOUS
 10
158.187804528
 20
31.4326554468
 11
158.0721793074
 21
31.4649199103
 12
158.534679528
 22
31.4649199103
 13
158.534679528
 23
31.4649199103
  0
SOLID
  8
0
 62
7
  6
CONTINUOUS
 10
158.187804528
 20
31.4326554468
 11
158.534679528
 21
31.4649199103
 12
158.3034290869
 22
31.3681288486
 13
158.3034290869
 23
31.3681288486
  0
SOLID
  8
0
 62
7
  6
CONTINUOUS
 10
158.534679528
 20
31.4649199103
 11
158.5924918074
 21
31.3681288486
 12
158.3034290869
 22
31.3681288486
 13
158.3034290869
 23
31.3681288486
  0
SOLID
  8
0
 62
7
  6
CONTINUOUS
 10
158.361242028
 20
31.2068093799
 11
158.3034290869
 21
31.3681288486
 12
158.5924918074
 22
31.3681288486
 13
158.5924918074
 23
31.3681288486
  0
SOLID
  8
0
 62
7
  6
CONTINUOUS
 10
158.5924918074
 20
31.3681288486
 11
158.6503040869
 21
31.2068093799
 12
158.361242028
 22
31.2068093799
 13
158.361242028
 23
31.2068093799
  0
SOLID
  8
0
 62
7
  6
CONTINUOUS
 10
157.6096790869
 20
31.4649199103
 11
157.4362415869
 21
31.4003926599
 12
157.320617028
 22
31.4649199103
 13
157.320617028
 23
31.4649199103
  0
SOLID
  8
0
 62
7
  6
CONTINUOUS
 10
157.4362415869
 20
31.4003926599
 11
157.320617028
 21
31.3358640533
 12
157.320617028
 22
31.4649199103
 13
157.320617028
 23
31.4649199103
  0
SOLID
  8
0
 62
7
  6
CONTINUOUS
 10
157.320617028
 20
31.3358640533
 11
157.0315543074
 21
30.5938003547
 12
157.320617028
 22
31.4649199103
 13
157.320617028
 23
31.4649199103
  0
SOLID
  8
0
 62
7
  6
CONTINUOUS
 10
157.320617028
 20
31.4649199103
 11
157.0315543074
 21
30.5938003547
 12
157.320617028
 22
31.6262383465
 13
157.320617028
 23
31.6262383465
  0
SOLID
  8
0
 62
7
  6
CONTINUOUS
 10
157.0315543074
 20
30.5938003547
 11
157.0315543074
 21
31.6262383465
 12
157.320617028
 22
31.6262383465
 13
157.320617028
 23
31.6262383465
  0
SOLID
  8
0
 62
7
  6
CONTINUOUS
 10
157.320617028
 20
31.3358640533
 11
157.320617028
 21
30.5938003547
 12
157.0315543074
 22
30.5938003547
 13
157.0315543074
 23
30.5938003547
  0
SOLID
  8
0
 62
7
  6
CONTINUOUS
 10
158.361242028
 20
30.5938003547
 11
158.361242028
 21
31.2068093799
 12
158.6503040869
 22
31.2068093799
 13
158.6503040869
 23
31.2068093799
  0
SOLID
  8
0
 62
7
  6
CONTINUOUS
 10
158.6503040869
 20
31.2068093799
 11
158.6503040869
 21
30.5938003547
 12
158.361242028
 22
30.5938003547
 13
158.361242028
 23
30.5938003547
  0
SOLID
  8
0
 62
7
  6
CONTINUOUS
 10
159.4596793074
 20
31.5939739474
 11
159.8065543074
 21
31.6262381969
 12
160.1534293074
 22
31.6262381969
 13
160.1534293074
 23
31.6262381969
  0
SOLID
  8
0
 62
7
  6
CONTINUOUS
 10
160.1534293074
 20
31.6262381969
 11
160.5003043074
 21
31.5939739474
 12
159.4596793074
 22
31.5939739474
 13
159.4596793074
 23
31.5939739474
  0
SOLID
  8
0
 62
7
  6
CONTINUOUS
 10
159.228429528
 20
31.5294468402
 11
159.4596793074
 21
31.5939739474
 12
160.5003043074
 22
31.5939739474
 13
160.5003043074
 23
31.5939739474
  0
SOLID
  8
0
 62
7
  6
CONTINUOUS
 10
159.228429528
 20
31.5294468402
 11
160.5003043074
 21
31.5939739304
 12
160.6737418074
 22
31.5617111435
 13
160.6737418074
 23
31.5617111435
  0
SOLID
  8
0
 62
7
  6
CONTINUOUS
 10
159.228429528
 20
31.5294468402
 11
160.6737418074
 21
31.5617111435
 12
159.8065543074
 22
31.4971825592
 13
159.8065543074
 23
31.4971825592
  0
SOLID
  8
0
 62
7
  6
CONTINUOUS
 10
159.8065543074
 20
31.4971825592
 11
160.6737418074
 21
31.5617111435
 12
160.1534293074
 22
31.4971825592
 13
160.1534293074
 23
31.4971825592
  0
SOLID
  8
0
 62
7
  6
CONTINUOUS
 10
160.6737418074
 20
31.5617111435
 11
160.8471793074
 21
31.4971825592
 12
160.1534293074
 22
31.4971825592
 13
160.1534293074
 23
31.4971825592
  0
SOLID
  8
0
 62
7
  6
CONTINUOUS
 10
160.5003043074
 20
31.4649197501
 11
160.1534293074
 21
31.4971825592
 12
160.8471793074
 22
31.4971825592
 13
160.8471793074
 23
31.4971825592
  0
SOLID
  8
0
 62
7
  6
CONTINUOUS
 10
159.1128043074
 20
31.4326555427
 11
159.228429528
 21
31.5294468402
 12
159.8065543074
 22
31.4971825592
 13
159.8065543074
 23
31.4971825592
  0
SOLID
  8
0
 62
7
  6
CONTINUOUS
 10
160.5003043074
 20
31.4649197501
 11
160.8471793074
 21
31.4971825592
 12
160.615929528
 22
31.4326555427
 13
160.615929528
 23
31.4326555427
  0
SOLID
  8
0
 62
7
  6
CONTINUOUS
 10
160.615929528
 20
31.4326555427
 11
160.8471793074
 21
31.4971825592
 12
160.6737418074
 22
31.3681283005
 13
160.6737418074
 23
31.3681283005
  0
SOLID
  8
0
 62
7
  6
CONTINUOUS
 10
160.8471793074
 20
31.4971825592
 11
160.9628038663
 21
31.3681283005
 12
160.6737418074
 22
31.3681283005
 13
160.6737418074
 23
31.3681283005
  0
SOLID
  8
0
 62
7
  6
CONTINUOUS
 10
150.2674918074
 20
31.4649197501
 11
149.7471793074
 21
31.4326554237
 12
150.498741835
 22
31.4971824493
 13
150.498741835
 23
31.4971824493
  0
SOLID
  8
0
 62
7
  6
CONTINUOUS
 10
149.7471793074
 20
31.4326554237
 11
149.8628043005
 21
31.4971824493
 12
150.498741835
 22
31.4971824493
 13
150.498741835
 23
31.4971824493
  0
SOLID
  8
0
 62
7
  6
CONTINUOUS
 10
150.2674918074
 20
31.4649197501
 11
150.1518667936
 21
31.4326554237
 12
149.7471793074
 22
31.4326554237
 13
149.7471793074
 23
31.4326554237
  0
SOLID
  8
0
 62
7
  6
CONTINUOUS
 10
149.6315543091
 20
31.3036012664
 11
149.7471793074
 21
31.4326554237
 12
150.1518667936
 22
31.4326554237
 13
150.1518667936
 23
31.4326554237
  0
SOLID
  8
0
 62
7
  6
CONTINUOUS
 10
153.9674919177
 20
31.4326554237
 11
154.6612419177
 21
31.4971825369
 12
154.4299918074
 22
31.4649197501
 13
154.4299918074
 23
31.4649197501
  0
SOLID
  8
0
 62
7
  6
CONTINUOUS
 10
154.4299918074
 20
31.4649197501
 11
154.3143669177
 21
31.4326554237
 12
153.9674919177
 22
31.4326554237
 13
153.9674919177
 23
31.4326554237
  0
SOLID
  8
0
 62
7
  6
CONTINUOUS
 10
153.9674919177
 20
31.3681283335
 11
153.9674919177
 21
31.4326554237
 12
154.3143669177
 22
31.4326554237
 13
154.3143669177
 23
31.4326554237
  0
SOLID
  8
0
 62
7
  6
CONTINUOUS
 10
154.3143669177
 20
31.4326554237
 11
154.2565543074
 21
31.3681283335
 12
153.9674919177
 22
31.3681283335
 13
153.9674919177
 23
31.3681283335
  0
SOLID
  8
0
 62
7
  6
CONTINUOUS
 10
159.1128043074
 20
31.4326555528
 11
159.8065543074
 21
31.4971825369
 12
159.575304528
 22
31.4649197501
 13
159.575304528
 23
31.4649197501
  0
SOLID
  8
0
 62
7
  6
CONTINUOUS
 10
159.575304528
 20
31.4649197501
 11
159.4596793074
 21
31.4326555528
 12
159.1128043074
 22
31.4326555528
 13
159.1128043074
 23
31.4326555528
  0
SOLID
  8
0
 62
7
  6
CONTINUOUS
 10
159.1128043074
 20
31.3681284626
 11
159.1128043074
 21
31.4326555528
 12
159.4596793074
 22
31.4326555528
 13
159.4596793074
 23
31.4326555528
  0
SOLID
  8
0
 62
7
  6
CONTINUOUS
 10
159.4596793074
 20
31.4326555528
 11
159.401867028
 21
31.3681284626
 12
159.1128043074
 22
31.3681284626
 13
159.1128043074
 23
31.3681284626
  0
SOLID
  8
0
 62
7
  6
CONTINUOUS
 10
159.228429528
 20
31.2390741763
 11
159.1128043074
 21
31.3681284626
 12
159.401867028
 22
31.3681284626
 13
159.401867028
 23
31.3681284626
  0
SOLID
  8
0
 62
7
  6
CONTINUOUS
 10
149.6315543091
 20
31.3036012664
 11
150.1518667936
 21
31.4326554468
 12
149.9784292936
 22
31.3358640533
 13
149.9784292936
 23
31.3358640533
  0
SOLID
  8
0
 62
7
  6
CONTINUOUS
 10
149.9784292936
 20
31.3358640533
 11
149.9206168074
 21
31.2713369632
 12
149.6315543091
 22
31.3036012664
 13
149.6315543091
 23
31.3036012664
  0
SOLID
  8
0
 62
7
  6
CONTINUOUS
 10
149.5737418074
 20
31.1100184796
 11
149.6315543091
 21
31.3036012664
 12
149.9206168074
 22
31.2713369632
 13
149.9206168074
 23
31.2713369632
  0
SOLID
  8
0
 62
7
  6
CONTINUOUS
 10
154.4299918074
 20
31.2390741763
 11
154.7768668074
 21
31.271336924
 12
155.412804528
 22
31.271336924
 13
155.412804528
 23
31.271336924
  0
SOLID
  8
0
 62
7
  6
CONTINUOUS
 10
154.4299918074
 20
31.2390741763
 11
155.412804528
 21
31.271336924
 12
154.1987416972
 22
31.1745462761
 13
154.1987416972
 23
31.1745462761
  0
SOLID
  8
0
 62
7
  6
CONTINUOUS
 10
154.1987416972
 20
31.1745462761
 11
155.412804528
 21
31.271336924
 12
154.7768668074
 22
31.1422827436
 13
154.7768668074
 23
31.1422827436
  0
SOLID
  8
0
 62
7
  6
CONTINUOUS
 10
155.412804528
 20
31.271336924
 11
155.412804528
 21
31.1422827436
 12
154.7768668074
 22
31.1422827436
 13
154.7768668074
 23
31.1422827436
  0
SOLID
  8
0
 62
7
  6
CONTINUOUS
 10
159.228429528
 20
31.2390745501
 11
159.401867028
 21
31.3681283566
 12
159.4596793074
 22
31.3036012664
 13
159.4596793074
 23
31.3036012664
  0
SOLID
  8
0
 62
7
  6
CONTINUOUS
 10
159.4596793074
 20
31.3036012664
 11
159.6331168074
 21
31.2390745501
 12
159.228429528
 22
31.2390745501
 13
159.228429528
 23
31.2390745501
  0
SOLID
  8
0
 62
7
  6
CONTINUOUS
 10
159.4596793074
 20
31.1422827828
 11
159.228429528
 21
31.2390745501
 12
159.6331168074
 22
31.2390745501
 13
159.6331168074
 23
31.2390745501
  0
SOLID
  8
0
 62
7
  6
CONTINUOUS
 10
159.6331168074
 20
31.2390745501
 11
160.615929528
 21
31.0777556927
 12
159.4596793074
 22
31.1422827828
 13
159.4596793074
 23
31.1422827828
  0
SOLID
  8
0
 62
7
  6
CONTINUOUS
 10
160.442492028
 20
30.9809646623
 11
159.4596793074
 21
31.1422827828
 12
160.615929528
 22
31.0777556927
 13
160.615929528
 23
31.0777556927
  0
SOLID
  8
0
 62
7
  6
CONTINUOUS
 10
160.615929528
 20
31.0777556927
 11
160.8471793074
 21
30.9809646623
 12
160.442492028
 22
30.9809646623
 13
160.442492028
 23
30.9809646623
  0
SOLID
  8
0
 62
7
  6
CONTINUOUS
 10
160.615929528
 20
30.9164372091
 11
160.442492028
 21
30.9809646623
 12
160.8471793074
 22
30.9809646623
 13
160.8471793074
 23
30.9809646623
  0
SOLID
  8
0
 62
7
  6
CONTINUOUS
 10
160.615929528
 20
30.9164372091
 11
160.8471793074
 21
30.9809646623
 12
160.6737418074
 22
30.8519089441
 13
160.6737418074
 23
30.8519089441
  0
SOLID
  8
0
 62
7
  6
CONTINUOUS
 10
160.8471793074
 20
30.9809646623
 11
160.9628038663
 21
30.8519089441
 12
160.6737418074
 22
30.8519089441
 13
160.6737418074
 23
30.8519089441
  0
SOLID
  8
0
 62
7
  6
CONTINUOUS
 10
160.615929528
 20
30.7873818593
 11
160.6737418074
 21
30.8519089441
 12
160.9628038663
 22
30.8519089441
 13
160.9628038663
 23
30.8519089441
  0
SOLID
  8
0
 62
7
  6
CONTINUOUS
 10
160.9628038663
 20
30.8519089441
 11
160.9628038663
 21
30.7873818593
 12
160.615929528
 22
30.7873818593
 13
160.615929528
 23
30.7873818593
  0
SOLID
  8
0
 62
7
  6
CONTINUOUS
 10
160.5003043074
 20
30.7551187255
 11
160.615929528
 21
30.7873818593
 12
160.9628038663
 22
30.7873818593
 13
160.9628038663
 23
30.7873818593
  0
SOLID
  8
0
 62
7
  6
CONTINUOUS
 10
160.5003043074
 20
30.7551187255
 11
160.9628038663
 21
30.7873818593
 12
160.269054528
 22
30.7228547745
 13
160.269054528
 23
30.7228547745
  0
SOLID
  8
0
 62
7
  6
CONTINUOUS
 10
160.9628038663
 20
30.7873818593
 11
160.8471793074
 21
30.6905916353
 12
160.269054528
 22
30.7228547745
 13
160.269054528
 23
30.7228547745
  0
SOLID
  8
0
 62
7
  6
CONTINUOUS
 10
160.8471793074
 20
30.6905916353
 11
159.401867028
 21
30.658327332
 12
160.269054528
 22
30.7228547745
 13
160.269054528
 23
30.7228547745
  0
SOLID
  8
0
 62
7
  6
CONTINUOUS
 10
160.269054528
 20
30.7228547745
 11
159.401867028
 21
30.658327332
 12
159.922179528
 22
30.7228547745
 13
159.922179528
 23
30.7228547745
  0
SOLID
  8
0
 62
7
  6
CONTINUOUS
 10
159.401867028
 20
30.658327332
 11
159.228429528
 21
30.7228547745
 12
159.922179528
 22
30.7228547745
 13
159.922179528
 23
30.7228547745
  0
SOLID
  8
0
 62
7
  6
CONTINUOUS
 10
159.401867028
 20
30.658327332
 11
160.8471793074
 21
30.6905916353
 12
159.575304528
 22
30.6260629858
 13
159.575304528
 23
30.6260629858
  0
SOLID
  8
0
 62
7
  6
CONTINUOUS
 10
160.8471793074
 20
30.6905916353
 11
160.615929528
 21
30.6260629858
 12
159.575304528
 22
30.6260629858
 13
159.575304528
 23
30.6260629858
  0
SOLID
  8
0
 62
7
  6
CONTINUOUS
 10
159.922179528
 20
30.5938006049
 11
159.575304528
 21
30.6260629858
 12
160.615929528
 22
30.6260629858
 13
160.615929528
 23
30.6260629858
  0
SOLID
  8
0
 62
7
  6
CONTINUOUS
 10
160.615929528
 20
30.6260629858
 11
160.269054528
 21
30.5938006049
 12
159.922179528
 22
30.5938006049
 13
159.922179528
 23
30.5938006049
  0
SOLID
  8
0
 62
7
  6
CONTINUOUS
 10
149.5737418074
 20
31.1100184796
 11
149.9206168074
 21
31.2713369632
 12
149.8628043005
 22
31.1422827828
 13
149.8628043005
 23
31.1422827828
  0
SOLID
  8
0
 62
7
  6
CONTINUOUS
 10
149.8628043005
 20
31.1422827828
 11
149.8628043005
 21
31.0454914852
 12
149.5737418074
 22
31.1100184796
 13
149.5737418074
 23
31.1100184796
  0
SOLID
  8
0
 62
7
  6
CONTINUOUS
 10
149.6315543091
 20
30.9164372091
 11
149.5737418074
 21
31.1100184796
 12
149.8628043005
 22
31.0454914852
 13
149.8628043005
 23
31.0454914852
  0
SOLID
  8
0
 62
7
  6
CONTINUOUS
 10
149.8628043005
 20
31.0454914852
 11
149.9784292936
 21
30.8841729058
 12
149.6315543091
 22
30.9164372091
 13
149.6315543091
 23
30.9164372091
  0
SOLID
  8
0
 62
7
  6
CONTINUOUS
 10
149.7471793074
 20
30.7873813202
 11
149.6315543091
 21
30.9164372091
 12
149.9784292936
 22
30.8841729058
 13
149.9784292936
 23
30.8841729058
  0
SOLID
  8
0
 62
7
  6
CONTINUOUS
 10
149.9784292936
 20
30.8841729058
 11
150.1518667936
 21
30.7873813202
 12
149.7471793074
 22
30.7873813202
 13
149.7471793074
 23
30.7873813202
  0
SOLID
  8
0
 62
7
  6
CONTINUOUS
 10
149.8628043005
 20
30.7228547004
 11
149.7471793074
 21
30.7873813202
 12
150.1518667936
 22
30.7873813202
 13
150.1518667936
 23
30.7873813202
  0
SOLID
  8
0
 62
7
  6
CONTINUOUS
 10
150.1518667936
 20
30.7873813202
 11
150.498741835
 21
30.7228547004
 12
149.8628043005
 22
30.7228547004
 13
149.8628043005
 23
30.7228547004
  0
SOLID
  8
0
 62
7
  6
CONTINUOUS
 10
150.0362418212
 20
30.658327332
 11
149.8628043005
 21
30.7228547004
 12
150.498741835
 22
30.7228547004
 13
150.498741835
 23
30.7228547004
  0
SOLID
  8
0
 62
7
  6
CONTINUOUS
 10
154.0831168074
 20
31.1100184386
 11
154.1987416972
 21
31.1745462761
 12
154.7768668074
 22
31.1422827828
 13
154.7768668074
 23
31.1422827828
  0
SOLID
  8
0
 62
7
  6
CONTINUOUS
 10
154.7768668074
 20
31.1422827828
 11
154.5456166972
 21
31.1100184386
 12
154.0831168074
 22
31.1100184386
 13
154.0831168074
 23
31.1100184386
  0
SOLID
  8
0
 62
7
  6
CONTINUOUS
 10
153.9674919177
 20
30.9809642992
 11
154.0831168074
 21
31.1100184386
 12
154.5456166972
 22
31.1100184386
 13
154.5456166972
 23
31.1100184386
  0
SOLID
  8
0
 62
7
  6
CONTINUOUS
 10
154.3143669177
 20
31.0132277988
 11
153.9674919177
 21
30.9809642992
 12
154.4299918074
 22
31.0777556927
 13
154.4299918074
 23
31.0777556927
  0
SOLID
  8
0
 62
7
  6
CONTINUOUS
 10
153.9674919177
 20
30.9809642992
 11
154.5456166972
 21
31.1100184796
 12
154.4299918074
 22
31.0777556927
 13
154.4299918074
 23
31.0777556927
  0
SOLID
  8
0
 62
7
  6
CONTINUOUS
 10
154.3143669177
 20
31.0132277988
 11
154.2565543074
 21
30.9164372091
 12
153.9674919177
 22
30.9809642992
 13
153.9674919177
 23
30.9809642992
  0
SOLID
  8
0
 62
7
  6
CONTINUOUS
 10
153.9674919177
 20
30.8841729058
 11
153.9674919177
 21
30.9809642992
 12
154.2565543074
 22
30.9164372091
 13
154.2565543074
 23
30.9164372091
  0
SOLID
  8
0
 62
7
  6
CONTINUOUS
 10
154.2565543074
 20
30.9164372091
 11
154.2565543074
 21
30.8519086025
 12
153.9674919177
 22
30.8841729058
 13
153.9674919177
 23
30.8841729058
  0
SOLID
  8
0
 62
7
  6
CONTINUOUS
 10
154.0253041972
 20
30.7551187255
 11
153.9674919177
 21
30.8841729058
 12
154.2565543074
 22
30.8519086025
 13
154.2565543074
 23
30.8519086025
  0
SOLID
  8
0
 62
7
  6
CONTINUOUS
 10
155.412804528
 20
30.9487004259
 11
155.7018665869
 21
30.8519086025
 12
155.3549915869
 22
30.8841729058
 13
155.3549915869
 23
30.8841729058
  0
SOLID
  8
0
 62
7
  6
CONTINUOUS
 10
155.1815540869
 20
30.7873815123
 11
155.3549915869
 21
30.8841729058
 12
155.7018665869
 22
30.8519086025
 13
155.7018665869
 23
30.8519086025
  0
SOLID
  8
0
 62
7
  6
CONTINUOUS
 10
155.1815540869
 20
30.7873815123
 11
155.7018665869
 21
30.8519086025
 12
155.412804528
 22
30.7551187255
 13
155.412804528
 23
30.7551187255
  0
SOLID
  8
0
 62
7
  6
CONTINUOUS
 10
155.7018665869
 20
30.8519086025
 11
155.759679528
 21
30.6905916353
 12
155.412804528
 22
30.7551187255
 13
155.412804528
 23
30.7551187255
  0
SOLID
  8
0
 62
7
  6
CONTINUOUS
 10
155.4706168074
 20
30.658327332
 11
155.412804528
 21
30.7551187255
 12
155.759679528
 22
30.6905916353
 13
155.759679528
 23
30.6905916353
  0
SOLID
  8
0
 62
7
  6
CONTINUOUS
 10
155.4706168074
 20
30.658327332
 11
155.759679528
 21
30.6905916353
 12
155.5284290869
 22
30.5938002079
 13
155.5284290869
 23
30.5938002079
  0
SOLID
  8
0
 62
7
  6
CONTINUOUS
 10
155.759679528
 20
30.6905916353
 11
155.8174918074
 21
30.5938002079
 12
155.5284290869
 22
30.5938002079
 13
155.5284290869
 23
30.5938002079
  0
SOLID
  8
0
 62
7
  6
CONTINUOUS
 10
151.0768668626
 20
30.8196456577
 11
151.1346793074
 21
30.9164373395
 12
151.4237418626
 22
30.9164373395
 13
151.4237418626
 23
30.9164373395
  0
SOLID
  8
0
 62
7
  6
CONTINUOUS
 10
151.4237418626
 20
30.9164373395
 11
151.3659292523
 21
30.7873815123
 12
151.0768668626
 22
30.8196456577
 13
151.0768668626
 23
30.8196456577
  0
SOLID
  8
0
 62
7
  6
CONTINUOUS
 10
150.9034292799
 20
30.7551187255
 11
151.0768668626
 21
30.8196456577
 12
151.3659292523
 22
30.7873815123
 13
151.3659292523
 23
30.7873815123
  0
SOLID
  8
0
 62
7
  6
CONTINUOUS
 10
150.9034292799
 20
30.7551187255
 11
151.3659292523
 21
30.7873815123
 12
150.498741835
 22
30.7228544222
 13
150.498741835
 23
30.7228544222
  0
SOLID
  8
0
 62
7
  6
CONTINUOUS
 10
151.3659292523
 20
30.7873815123
 11
151.1924917523
 21
30.6905916353
 12
150.498741835
 22
30.7228544222
 13
150.498741835
 23
30.7228544222
  0
SOLID
  8
0
 62
7
  6
CONTINUOUS
 10
150.0362418212
 20
30.658327332
 11
150.498741835
 21
30.7228544222
 12
151.1924917523
 22
30.6905916353
 13
151.1924917523
 23
30.6905916353
  0
SOLID
  8
0
 62
7
  6
CONTINUOUS
 10
150.0362418212
 20
30.658327332
 11
151.1924917523
 21
30.6905916353
 12
150.2096793212
 22
30.6260631011
 13
150.2096793212
 23
30.6260631011
  0
SOLID
  8
0
 62
7
  6
CONTINUOUS
 10
151.1924917523
 20
30.6905916353
 11
150.9612418074
 21
30.6260631011
 12
150.2096793212
 22
30.6260631011
 13
150.2096793212
 23
30.6260631011
  0
SOLID
  8
0
 62
7
  6
CONTINUOUS
 10
150.5565542799
 20
30.5938002419
 11
150.2096793212
 21
30.6260631011
 12
150.9612418074
 22
30.6260631011
 13
150.9612418074
 23
30.6260631011
  0
SOLID
  8
0
 62
7
  6
CONTINUOUS
 10
154.0253041972
 20
30.7551187255
 11
154.2565543074
 21
30.8519086025
 12
154.3143669177
 22
30.7873815123
 13
154.3143669177
 23
30.7873815123
  0
SOLID
  8
0
 62
7
  6
CONTINUOUS
 10
154.3143669177
 20
30.7873815123
 11
154.5456166972
 21
30.7228544222
 12
154.0253041972
 22
30.7551187255
 13
154.0253041972
 23
30.7551187255
  0
SOLID
  8
0
 62
7
  6
CONTINUOUS
 10
154.1987416972
 20
30.658327332
 11
154.0253041972
 21
30.7551187255
 12
154.5456166972
 22
30.7228544222
 13
154.5456166972
 23
30.7228544222
  0
SOLID
  8
0
 62
7
  6
CONTINUOUS
 10
154.8924916972
 20
30.7228544637
 11
155.1815540869
 21
30.7873815123
 12
155.412804528
 22
30.7551187255
 13
155.412804528
 23
30.7551187255
  0
SOLID
  8
0
 62
7
  6
CONTINUOUS
 10
155.412804528
 20
30.7551187255
 11
155.3549915869
 21
30.6905916353
 12
154.8924916972
 22
30.7228544637
 13
154.8924916972
 23
30.7228544637
  0
SOLID
  8
0
 62
7
  6
CONTINUOUS
 10
155.3549915869
 20
30.6905916353
 11
154.1987416972
 21
30.658327332
 12
154.8924916972
 22
30.7228544637
 13
154.8924916972
 23
30.7228544637
  0
SOLID
  8
0
 62
7
  6
CONTINUOUS
 10
154.1987416972
 20
30.658327332
 11
154.5456166972
 21
30.7228544637
 12
154.8924916972
 22
30.7228544637
 13
154.8924916972
 23
30.7228544637
  0
SOLID
  8
0
 62
7
  6
CONTINUOUS
 10
154.1987416972
 20
30.658327332
 11
155.3549915869
 21
30.6905916353
 12
154.3143669177
 22
30.6260630541
 13
154.3143669177
 23
30.6260630541
  0
SOLID
  8
0
 62
7
  6
CONTINUOUS
 10
155.3549915869
 20
30.6905916353
 11
155.1815540869
 21
30.6260630541
 12
154.3143669177
 22
30.6260630541
 13
154.3143669177
 23
30.6260630541
  0
SOLID
  8
0
 62
7
  6
CONTINUOUS
 10
154.5456166972
 20
30.5938002188
 11
154.3143669177
 21
30.6260630541
 12
155.1815540869
 22
30.6260630541
 13
155.1815540869
 23
30.6260630541
  0
SOLID
  8
0
 62
7
  6
CONTINUOUS
 10
155.1815540869
 20
30.6260630541
 11
154.8924916972
 21
30.5938002188
 12
154.5456166972
 22
30.5938002188
 13
154.5456166972
 23
30.5938002188
  0
SOLID
  8
0
 62
7
  6
CONTINUOUS
 10
159.575304528
 20
30.7551187255
 11
159.228429528
 21
30.7228544637
 12
159.4596793074
 22
30.7873815123
 13
159.4596793074
 23
30.7873815123
  0
SOLID
  8
0
 62
7
  6
CONTINUOUS
 10
159.4596793074
 20
30.7873815123
 11
159.228429528
 21
30.7228544637
 12
159.401867028
 22
30.851908644
 13
159.401867028
 23
30.851908644
  0
SOLID
  8
0
 62
7
  6
CONTINUOUS
 10
159.228429528
 20
30.7228544637
 11
159.1128043074
 21
30.851908644
 12
159.401867028
 22
30.851908644
 13
159.401867028
 23
30.851908644
  0
SOLID
  8
0
 62
7
  6
CONTINUOUS
 10
159.575304528
 20
30.7551187255
 11
159.922179528
 21
30.7228544637
 12
159.228429528
 22
30.7228544637
 13
159.228429528
 23
30.7228544637
  0
SOLID
  8
0
 62
7
  6
CONTINUOUS
 10
156.279992028
 20
30.5938002419
 11
156.279992028
 21
31.6262382337
 12
156.5690540869
 22
30.5938002419
 13
156.5690540869
 23
31.6262382337
  0
ENDBLK
  8
0
  6
BYBLOCK
 62
0
  0
BLOCK
  8
0
 62
2
  6
CONTINUOUS
  2
SYMBOL_3_BL0
 70
64
 10
32.1133409355
 20
19.8355904043
  0
TEXT
  8
0
 62
7
  6
CONTINUOUS
 10
18.3860103289
 20
19.2268451992
  7
TEXTSTYLE_3
 40
2.7338706658
  1
Ammeraal Beltech
 41
1.0
 51
15.0
 72
0
  0
TEXT
  8
0
 62
7
  6
CONTINUOUS
 10
29.1868111546
 20
16.9533085264
  7
TEXTSTYLE_4
 40
1.0935482663
  1
Innovation & Service in Belting
 41
1.0
 72
0
  0
LINE
  8
0
 62
7
  6
CONTINUOUS
 10
12.3614696776
 20
19.9934385078
 11
13.1396216709
 21
23.6543558055
  0
LINE
  8
0
 62
7
  6
CONTINUOUS
 10
23.2347899607
 20
27.3177497171
 11
13.6274394139
 21
24.1961322958
  0
LINE
  8
0
 62
7
  6
CONTINUOUS
 10
12.5867530099
 20
19.3000877048
 11
20.093828271
 21
12.5406867788
  0
LINE
  8
0
 62
7
  6
CONTINUOUS
 10
12.8492874206
 20
20.5352149982
 11
23.6575567857
 21
24.0470345971
  0
LINE
  8
0
 62
7
  6
CONTINUOUS
 10
23.6533516486
 20
13.6972460334
 11
15.2078919798
 21
21.3015720751
  0
LINE
  8
0
 62
7
  6
CONTINUOUS
 10
24.1731743684
 20
26.4728246013
 11
23.1966148312
 21
21.8784731989
  0
LINE
  8
0
 62
7
  6
CONTINUOUS
 10
22.4968128835
 20
18.5861638851
 11
21.810364672
 21
15.3566789607
  0
LINE
  8
0
 62
7
  6
CONTINUOUS
 10
24.8542704669
 20
14.087448211
 11
25.8105020025
 21
18.5861638851
  0
LINE
  8
0
 62
7
  6
CONTINUOUS
 10
26.5103039502
 20
21.8784731989
 11
26.9545457526
 21
23.9684665583
  0
LINE
  8
0
 62
7
  6
CONTINUOUS
 10
20.8069293463
 20
12.3891124661
 11
24.3664527239
 21
13.5456717207
  0
LINE
  8
0
 62
7
  6
CONTINUOUS
 10
23.9478910361
 20
27.1661754044
 11
26.7292624203
 21
24.6618173613
  0
ARC
  8
0
 62
7
  6
CONTINUOUS
 10
13.8527227462
 20
23.5027814928
 40
0.7290321776
 50
108.0
 51
168.0
  0
ARC
  8
0
 62
7
  6
CONTINUOUS
 10
23.4600732931
 20
26.624398914
 40
0.7290321776
 50
348.0
 51
108.0
  0
ARC
  8
0
 62
7
  6
CONTINUOUS
 10
26.2414446773
 20
24.120040871
 40
0.7290321776
 50
348.0
 51
48.0
  0
ARC
  8
0
 62
7
  6
CONTINUOUS
 10
20.581646014
 20
13.0824632691
 40
0.7290321776
 50
228.0
 51
288.0
  0
ARC
  8
0
 62
7
  6
CONTINUOUS
 10
13.0745707529
 20
19.8418641951
 40
0.7290321776
 50
108.0
 51
228.0
  0
ARC
  8
0
 62
7
  6
CONTINUOUS
 10
24.1411693916
 20
14.2390225237
 40
0.7290321776
 50
228.0
 51
348.0
  0
ENDBLK
  8
0
  6
BYBLOCK
 62
0
  0
ENDSEC
  0
SECTION
  2
ENTITIES
  0
TEXT
  8
0
 62
5
  6
CONTINUOUS
 10
96.0
 20
25.636
  7
TEXTSTYLE_2
 40
2.8
  1
Scale :
 41
0.6
 51
0.000019
 72
0
  0
TEXT
  8
0
 62
5
  6
CONTINUOUS
 10
116.0
 20
25.636
  7
TEXTSTYLE_2
 40
2.8
  1
Belt type:
 41
0.6
 51
0.000019
 72
0
  0
INSERT
  8
0
 62
2
  6
CONTINUOUS
  2
SYMBOL_3_BL0
 10
32.1133409355
 20
19.8355904043
  0
INSERT
  8
0
 62
2
  6
CONTINUOUS
  2
SYMBOL_8_BL1
 10
173.5956734183
 20
35.5426498779
  0
LINE
  8
0
 62
2
  6
CONTINUOUS
 10
10.0
 20
30.0
 11
200.0
 21
30.0
  0
LINE
  8
0
 62
2
  6
CONTINUOUS
 10
10.0
 20
30.0
 11
10.0
 21
10.0
  0
LINE
  8
0
 62
2
  6
CONTINUOUS
 10
10.0
 20
10.0
 11
200.0
 21
10.0
  0
LINE
  8
0
 62
2
  6
CONTINUOUS
 10
95.0
 20
30.0
 11
95.0
 21
10.0
  0
LINE
  8
0
 62
2
  6
CONTINUOUS
 10
115.0
 20
30.0
 11
115.0
 21
10.0
  0
LINE
  8
0
 62
2
  6
CONTINUOUS
 10
200.0
 20
30.0
 11
200.0
 21
10.0
  0
TEXT
  8
0
 62
5
  6
CONTINUOUS
 10
13.0
 20
23.303
  7
TEXTSTYLE_5
 40
1.52
  1
                                                                     Ammeraal Beltech Modular A/S
 41
1.0
 72
0
  0
TEXT
  8
0
 62
5
  6
CONTINUOUS
 10
13.0
 20
20.595
  7
TEXTSTYLE_5
 40
1.5
  1
                                                                      Hjulmagervej 21,  7100 Vejle,  DK
 41
1.0
 72
0
  0
TEXT
  8
0
 62
5
  6
CONTINUOUS
 10
13.0
 20
17.881
  7
TEXTSTYLE_5
 40
1.495
  1
                                                                      tel: 
 41
1.0
 72
0
  0
TEXT
  8
0
 62
5
  6
CONTINUOUS
 10
57.9869465649
 20
17.881
  7
TEXTSTYLE_5
 40
1.51
  1
+45 75723100     fax: +45 75723348
 41
1.0
 72
0
  0
TEXT
  8
0
 62
5
  6
CONTINUOUS
 10
13.0
 20
15.177
  7
TEXTSTYLE_5
 40
1.5
  1
                                                                      admin@unichains.dk  www.unichains.com
 41
1.0
 72
0
  0
TEXT
  8
0
 62
5
  6
CONTINUOUS
 10
99.75
 20
13.75
  7
TEXTSTYLE_6
 40
5.0
  1
1:1
 41
0.7
 72
1
 11
105.0
 21
13.75
  0
TEXT
  8
0
 62
5
  6
CONTINUOUS
 10
118.0
 20
13.75
  7
TEXTSTYLE_7
 40
7.5
  1
uni Flex SNB Sideguard Left
 41
0.3969907407
 72
0
  0
LINE
  8
0
 62
7
  6
CONTINUOUS
 10
210.0
 20
0.0
 11
0.0
 21
0.0
  0
LINE
  8
0
 62
7
  6
CONTINUOUS
 10
10.0
 20
10.0
 11
200.0
 21
10.0
  0
LINE
  8
0
 62
7
  6
CONTINUOUS
 10
10.0
 20
30.0
 11
200.0
 21
30.0
  0
LINE
  8
0
 62
7
  6
CONTINUOUS
 10
0.0
 20
0.0
 11
0.0
 21
297.0
  0
LINE
  8
0
 62
7
  6
CONTINUOUS
 10
10.0
 20
10.0
 11
10.0
 21
287.0
  0
LINE
  8
0
 62
7
  6
CONTINUOUS
 10
200.0
 20
287.0
 11
200.0
 21
10.0
  0
LINE
  8
0
 62
7
  6
CONTINUOUS
 10
210.0
 20
0.0
 11
210.0
 21
297.0
  0
LINE
  8
0
 62
7
  6
CONTINUOUS
 10
10.0
 20
287.0
 11
200.0
 21
287.0
  0
LINE
  8
0
 62
7
  6
CONTINUOUS
 10
0.0
 20
297.0
 11
210.0
 21
297.0
  0
LINE
  8
0
 62
7
  6
CONTINUOUS
 10
84.7776460136
 20
158.7042699353
 11
74.1776460136
 21
158.7042699353
  0
LINE
  8
0
 62
7
  6
CONTINUOUS
 10
68.3776460136
 20
158.7042699353
 11
58.8776460136
 21
158.7042699353
  0
LINE
  8
0
 62
7
  6
CONTINUOUS
 10
59.3776460136
 20
162.5542699353
 11
58.6776460136
 21
162.5542699353
  0
LINE
  8
0
 62
7
  6
CONTINUOUS
 10
76.9776460136
 20
162.5542699353
 11
84.7776460136
 21
162.5542699353
  0
LINE
  8
0
 62
7
  6
CONTINUOUS
 10
50.5256679734
 20
195.4101747098
 11
56.8776460136
 21
171.7042699353
  0
LINE
  8
DEFAULT_1
 62
7
  6
CENTER
 10
89.1776460136
 20
165.2042699353
 11
86.7777460136
 21
165.2042699353
  0
LINE
  8
0
 62
2
  6
CONTINUOUS
 10
85.6576460136
 20
165.2042699353
 11
83.8976460136
 21
165.2042699353
  0
LINE
  8
0
 62
7
  6
CONTINUOUS
 10
74.3276461097
 20
165.2042700343
 11
73.6776460136
 21
165.2042699353
  0
LINE
  8
DEFAULT_1
 62
7
  6
CENTER
 10
63.7776460136
 20
165.2042699353
 11
61.3777460136
 21
165.2042699353
  0
LINE
  8
0
 62
2
  6
CONTINUOUS
 10
60.2576460136
 20
165.2042699353
 11
58.4976460136
 21
165.2042699353
  0
LINE
  8
DEFAULT_1
 62
7
  6
CENTER
 10
54.9776460136
 20
165.2042699353
 11
57.3775460136
 21
165.2042699353
  0
LINE
  8
DEFAULT_1
 62
7
  6
CENTER
 10
80.3776460136
 20
165.2042699353
 11
82.7775460136
 21
165.2042699353
  0
LINE
  8
0
 62
7
  6
CONTINUOUS
 10
58.3776460136
 20
171.7042699353
 11
58.3776460136
 21
168.1542699353
  0
LINE
  8
0
 62
7
  6
CONTINUOUS
 10
58.3776460136
 20
159.2042699353
 11
58.3776460136
 21
162.2542699353
  0
LINE
  8
DEFAULT_1
 62
7
  6
CENTER
 10
59.3776460136
 20
169.6042699353
 11
59.3776460136
 21
167.2043699353
  0
LINE
  8
0
 62
2
  6
CONTINUOUS
 10
59.3776460136
 20
166.0842699353
 11
59.3776460136
 21
164.3242699353
  0
LINE
  8
DEFAULT_1
 62
7
  6
CENTER
 10
59.3776460136
 20
160.8042699353
 11
59.3776460136
 21
163.2041699353
  0
LINE
  8
0
 62
7
  6
CONTINUOUS
 10
84.7776460136
 20
167.8542699353
 11
76.9776460136
 21
167.8542699353
  0
LINE
  8
0
 62
7
  6
CONTINUOUS
 10
58.6776460136
 20
167.8542699353
 11
59.3776460136
 21
167.8542699353
  0
LINE
  8
0
 62
7
  6
CONTINUOUS
 10
56.8776460136
 20
171.7042699353
 11
87.286350084
 21
171.7042699353
  0
POLYLINE
  8
0
 62
7
  6
CONTINUOUS
 66
1
 70
0
  0
VERTEX
  8
0
 62
7
  6
CONTINUOUS
 10
85.2154674314
 20
171.6824330669
  0
VERTEX
  8
0
 62
7
  6
CONTINUOUS
 10
85.0697956017
 20
171.6945602012
  0
VERTEX
  8
0
 62
7
  6
CONTINUOUS
 10
84.9238012534
 20
171.7018418388
  0
VERTEX
  8
0
 62
7
  6
CONTINUOUS
 10
84.7776460136
 20
171.7042699353
  0
SEQEND
  0
LINE
  8
0
 62
7
  6
CONTINUOUS
 10
68.8776460136
 20
171.7042699353
 11
68.8776460136
 21
159.2042699353
  0
POLYLINE
  8
0
 62
7
  6
CONTINUOUS
 66
1
 70
0
  0
VERTEX
  8
0
 62
7
  6
CONTINUOUS
 10
87.0754985093
 20
171.0565857413
  0
VERTEX
  8
0
 62
7
  6
CONTINUOUS
 10
86.8721401726
 20
171.1737780315
  0
VERTEX
  8
0
 62
7
  6
CONTINUOUS
 10
86.666980638
 20
171.2779860703
  0
VERTEX
  8
0
 62
7
  6
CONTINUOUS
 10
86.4604031143
 20
171.3697749118
  0
VERTEX
  8
0
 62
7
  6
CONTINUOUS
 10
86.2532730589
 20
171.449450922
  0
VERTEX
  8
0
 62
7
  6
CONTINUOUS
 10
86.0462101819
 20
171.5174332918
  0
VERTEX
  8
0
 62
7
  6
CONTINUOUS
 10
85.8390889476
 20
171.5743215543
  0
VERTEX
  8
0
 62
7
  6
CONTINUOUS
 10
85.6316493531
 20
171.6205974281
  0
VERTEX
  8
0
 62
7
  6
CONTINUOUS
 10
85.4237114627
 20
171.656579441
  0
VERTEX
  8
0
 62
7
  6
CONTINUOUS
 10
85.2154674314
 20
171.6824330669
  0
SEQEND
  0
LINE
  8
0
 62
7
  6
CONTINUOUS
 10
73.6776460136
 20
159.2042699353
 11
73.6776460136
 21
171.7042699353
  0
POLYLINE
  8
0
 62
7
  6
CONTINUOUS
 66
1
 70
0
  0
VERTEX
  8
0
 62
7
  6
CONTINUOUS
 10
87.2776422436
 20
170.9250461305
  0
VERTEX
  8
0
 62
7
  6
CONTINUOUS
 10
87.2112165679
 20
170.9700217618
  0
VERTEX
  8
0
 62
7
  6
CONTINUOUS
 10
87.1438280954
 20
171.0138772671
  0
VERTEX
  8
0
 62
7
  6
CONTINUOUS
 10
87.0754985093
 20
171.0565857413
  0
SEQEND
  0
LINE
  8
DEFAULT_1
 62
7
  6
CENTER
 10
84.7776460136
 20
169.6042699353
 11
84.7776460136
 21
167.2043699353
  0
LINE
  8
0
 62
2
  6
CONTINUOUS
 10
84.7776460136
 20
166.0842699353
 11
84.7776460136
 21
164.3242699353
  0
LINE
  8
DEFAULT_1
 62
7
  6
CENTER
 10
84.7776460136
 20
160.8042699353
 11
84.7776460136
 21
163.2041699353
  0
LINE
  8
0
 62
7
  6
CONTINUOUS
 10
87.2776460136
 20
171.5726174378
 11
87.2776460136
 21
170.9250433334
  0
LINE
  8
0
 62
7
  6
CONTINUOUS
 10
87.3117201873
 20
171.8314364829
 11
93.6296240537
 21
195.4101747098
  0
POLYLINE
  8
0
 62
7
  6
CONTINUOUS
 66
1
 70
0
  0
VERTEX
  8
0
 62
7
  6
CONTINUOUS
 10
89.1548453588
 20
167.7516242318
  0
VERTEX
  8
0
 62
7
  6
CONTINUOUS
 10
89.1528624049
 20
167.7467403864
  0
VERTEX
  8
0
 62
7
  6
CONTINUOUS
 10
89.1459247097
 20
167.7421797893
  0
VERTEX
  8
0
 62
7
  6
CONTINUOUS
 10
89.134113891
 20
167.7379566961
  0
VERTEX
  8
0
 62
7
  6
CONTINUOUS
 10
89.1175562012
 20
167.7340899173
  0
VERTEX
  8
0
 62
7
  6
CONTINUOUS
 10
89.0964211941
 20
167.7306024348
  0
VERTEX
  8
0
 62
7
  6
CONTINUOUS
 10
89.0709202992
 20
167.7275208165
  0
VERTEX
  8
0
 62
7
  6
CONTINUOUS
 10
89.0413052519
 20
167.724874439
  0
VERTEX
  8
0
 62
7
  6
CONTINUOUS
 10
89.0078663501
 20
167.7226945459
  0
VERTEX
  8
0
 62
7
  6
CONTINUOUS
 10
88.9709305205
 20
167.7210131721
  0
VERTEX
  8
0
 62
7
  6
CONTINUOUS
 10
88.9308591778
 20
167.7198619744
  0
VERTEX
  8
0
 62
7
  6
CONTINUOUS
 10
88.8880458503
 20
167.7192710099
  0
VERTEX
  8
0
 62
7
  6
CONTINUOUS
 10
88.8429135272
 20
167.7192675079
  0
SEQEND
  0
LINE
  8
0
 62
7
  6
CONTINUOUS
 10
88.7999949223
 20
201.7042699353
 11
55.3552971048
 21
201.7042699353
  0
LINE
  8
0
 62
7
  6
CONTINUOUS
 10
50.3552971048
 20
100.5530225672
 11
50.3552971048
 21
99.0363633754
  0
LINE
  8
DEFAULT_1
 62
7
  6
CENTER
 10
59.3776460136
 20
98.8891090794
 11
59.3776460136
 21
104.2891090794
  0
POLYLINE
  8
0
 62
7
  6
CONTINUOUS
 66
1
 70
0
  0
VERTEX
  8
0
 62
7
  6
CONTINUOUS
 10
74.2076311385
 20
111.0021354282
  0
VERTEX
  8
0
 62
7
  6
CONTINUOUS
 10
74.1855667752
 20
110.9911034332
  0
VERTEX
  8
0
 62
7
  6
CONTINUOUS
 10
74.1644113246
 20
110.9798630448
  0
VERTEX
  8
0
 62
7
  6
CONTINUOUS
 10
74.1441211624
 20
110.9684472864
  0
VERTEX
  8
0
 62
7
  6
CONTINUOUS
 10
74.1246482796
 20
110.9568810335
  0
VERTEX
  8
0
 62
7
  6
CONTINUOUS
 10
74.1059512405
 20
110.9451878362
  0
VERTEX
  8
0
 62
7
  6
CONTINUOUS
 10
74.0879900571
 20
110.9333877499
  0
VERTEX
  8
0
 62
7
  6
CONTINUOUS
 10
74.0707261383
 20
110.9214975048
  0
VERTEX
  8
0
 62
7
  6
CONTINUOUS
 10
74.0541224145
 20
110.9095307724
  0
VERTEX
  8
0
 62
7
  6
CONTINUOUS
 10
74.0381439133
 20
110.8974988374
  0
VERTEX
  8
0
 62
7
  6
CONTINUOUS
 10
74.0227572453
 20
110.8854105054
  0
VERTEX
  8
0
 62
7
  6
CONTINUOUS
 10
74.0079305528
 20
110.8732722537
  0
VERTEX
  8
0
 62
7
  6
CONTINUOUS
 10
73.9936355929
 20
110.8610902361
  0
VERTEX
  8
0
 62
7
  6
CONTINUOUS
 10
73.9798629594
 20
110.8488849627
  0
VERTEX
  8
0
 62
7
  6
CONTINUOUS
 10
73.9666065964
 20
110.8366799337
  0
VERTEX
  8
0
 62
7
  6
CONTINUOUS
 10
73.9538588624
 20
110.8244970311
  0
VERTEX
  8
0
 62
7
  6
CONTINUOUS
 10
73.9416113855
 20
110.8123571084
  0
VERTEX
  8
0
 62
7
  6
CONTINUOUS
 10
73.9298555468
 20
110.8002803872
  0
VERTEX
  8
0
 62
7
  6
CONTINUOUS
 10
73.9185929796
 20
110.7882983386
  0
VERTEX
  8
0
 62
7
  6
CONTINUOUS
 10
73.9078185775
 20
110.776437145
  0
VERTEX
  8
0
 62
7
  6
CONTINUOUS
 10
73.8975215844
 20
110.764716684
  0
VERTEX
  8
0
 62
7
  6
CONTINUOUS
 10
73.8876907241
 20
110.7531554608
  0
VERTEX
  8
0
 62
7
  6
CONTINUOUS
 10
73.8783142731
 20
110.7417705974
  0
VERTEX
  8
0
 62
7
  6
CONTINUOUS
 10
73.8693896448
 20
110.7305902609
  0
VERTEX
  8
0
 62
7
  6
CONTINUOUS
 10
73.8609168202
 20
110.7196480838
  0
VERTEX
  8
0
 62
7
  6
CONTINUOUS
 10
73.852881757
 20
110.7089600438
  0
VERTEX
  8
0
 62
7
  6
CONTINUOUS
 10
73.8452699047
 20
110.6985399668
  0
VERTEX
  8
0
 62
7
  6
CONTINUOUS
 10
73.8380667508
 20
110.6884001793
  0
VERTEX
  8
0
 62
7
  6
CONTINUOUS
 10
73.8312690543
 20
110.6785683388
  0
VERTEX
  8
0
 62
7
  6
CONTINUOUS
 10
73.8248750876
 20
110.6690761161
  0
VERTEX
  8
0
 62
7
  6
CONTINUOUS
 10
73.818871092
 20
110.6599372038
  0
VERTEX
  8
0
 62
7
  6
CONTINUOUS
 10
73.8132432851
 20
110.6511634661
  0
VERTEX
  8
0
 62
7
  6
CONTINUOUS
 10
73.8079779407
 20
110.6427650198
  0
VERTEX
  8
0
 62
7
  6
CONTINUOUS
 10
73.8030750984
 20
110.6347733294
  0
VERTEX
  8
0
 62
7
  6
CONTINUOUS
 10
73.79649157
 20
110.6237737054
  0
SEQEND
  0
POLYLINE
  8
0
 62
7
  6
CONTINUOUS
 66
1
 70
0
  0
VERTEX
  8
0
 62
7
  6
CONTINUOUS
 10
74.2115397868
 20
111.0040182217
  0
VERTEX
  8
0
 62
7
  6
CONTINUOUS
 10
74.1895316324
 20
110.9931370387
  0
VERTEX
  8
0
 62
7
  6
CONTINUOUS
 10
74.1684207585
 20
110.9820444289
  0
VERTEX
  8
0
 62
7
  6
CONTINUOUS
 10
74.1481678526
 20
110.9707749853
  0
VERTEX
  8
0
 62
7
  6
CONTINUOUS
 10
74.1287250547
 20
110.9593532933
  0
VERTEX
  8
0
 62
7
  6
CONTINUOUS
 10
74.1100514094
 20
110.9478027147
  0
VERTEX
  8
0
 62
7
  6
CONTINUOUS
 10
74.0921077057
 20
110.9361433846
  0
VERTEX
  8
0
 62
7
  6
CONTINUOUS
 10
74.0748560875
 20
110.9243921963
  0
VERTEX
  8
0
 62
7
  6
CONTINUOUS
 10
74.0582600354
 20
110.9125629606
  0
VERTEX
  8
0
 62
7
  6
CONTINUOUS
 10
74.0422850614
 20
110.9006671171
  0
VERTEX
  8
0
 62
7
  6
CONTINUOUS
 10
74.0268983104
 20
110.888713739
  0
VERTEX
  8
0
 62
7
  6
CONTINUOUS
 10
74.0120683981
 20
110.8767096075
  0
VERTEX
  8
0
 62
7
  6
CONTINUOUS
 10
73.9977658795
 20
110.8646597828
  0
VERTEX
  8
0
 62
7
  6
CONTINUOUS
 10
73.9839766175
 20
110.8525800437
  0
VERTEX
  8
0
 62
7
  6
CONTINUOUS
 10
73.9706955465
 20
110.8404938823
  0
VERTEX
  8
0
 62
7
  6
CONTINUOUS
 10
73.957915496
 20
110.8284228423
  0
VERTEX
  8
0
 62
7
  6
CONTINUOUS
 10
73.9456285696
 20
110.8163874922
  0
VERTEX
  8
0
 62
7
  6
CONTINUOUS
 10
73.9338262156
 20
110.8044073887
  0
VERTEX
  8
0
 62
7
  6
CONTINUOUS
 10
73.9225058325
 20
110.7925082524
  0
VERTEX
  8
0
 62
7
  6
CONTINUOUS
 10
73.9116675079
 20
110.7807204126
  0
VERTEX
  8
0
 62
7
  6
CONTINUOUS
 10
73.9013010991
 20
110.7690637356
  0
VERTEX
  8
0
 62
7
  6
CONTINUOUS
 10
73.8913958427
 20
110.7575566768
  0
VERTEX
  8
0
 62
7
  6
CONTINUOUS
 10
73.8819405187
 20
110.746216366
  0
VERTEX
  8
0
 62
7
  6
CONTINUOUS
 10
73.8729267023
 20
110.7350626651
  0
VERTEX
  8
0
 62
7
  6
CONTINUOUS
 10
73.8643586844
 20
110.724132679
  0
VERTEX
  8
0
 62
7
  6
CONTINUOUS
 10
73.8562256165
 20
110.7134458392
  0
VERTEX
  8
0
 62
7
  6
CONTINUOUS
 10
73.8485133823
 20
110.7030161802
  0
VERTEX
  8
0
 62
7
  6
CONTINUOUS
 10
73.8412078621
 20
110.6928562517
  0
VERTEX
  8
0
 62
7
  6
CONTINUOUS
 10
73.8342983453
 20
110.6829820968
  0
VERTEX
  8
0
 62
7
  6
CONTINUOUS
 10
73.8277882459
 20
110.6734309457
  0
VERTEX
  8
0
 62
7
  6
CONTINUOUS
 10
73.8216665013
 20
110.6642200284
  0
VERTEX
  8
0
 62
7
  6
CONTINUOUS
 10
73.815919825
 20
110.6553617914
  0
VERTEX
  8
0
 62
7
  6
CONTINUOUS
 10
73.8105345339
 20
110.6468663142
  0
VERTEX
  8
0
 62
7
  6
CONTINUOUS
 10
73.8055022536
 20
110.6387506114
  0
VERTEX
  8
0
 62
7
  6
CONTINUOUS
 10
73.8008246895
 20
110.6310484142
  0
SEQEND
  0
LINE
  8
0
 62
7
  6
CONTINUOUS
 10
74.234465468
 20
111.0146403996
 11
74.2076311385
 21
111.0021354282
  0
LINE
  8
0
 62
7
  6
CONTINUOUS
 10
74.2583258439
 20
111.0249526355
 11
74.2306274915
 21
111.0129116413
  0
LINE
  8
0
 62
7
  6
CONTINUOUS
 10
74.2831468685
 20
111.034904811
 11
74.2545730428
 21
111.023379794
  0
LINE
  8
0
 62
7
  6
CONTINUOUS
 10
74.3089442566
 20
111.0444390457
 11
74.2794939399
 21
111.0334887081
  0
LINE
  8
0
 62
7
  6
CONTINUOUS
 10
74.3357289507
 20
111.0534938922
 11
74.305408168
 21
111.0431799612
  0
LINE
  8
0
 62
7
  6
CONTINUOUS
 10
74.3635190501
 20
111.062008161
 11
74.3323274032
 21
111.052390682
  0
LINE
  8
0
 62
7
  6
CONTINUOUS
 10
93.1608510806
 20
104.5630286624
 11
51.216155063
 21
98.2943518413
  0
LINE
  8
0
 62
7
  6
CONTINUOUS
 10
66.5707342722
 20
100.5891090794
 11
67.9776460136
 21
100.5891090794
  0
LINE
  8
0
 62
7
  6
CONTINUOUS
 10
73.7783555128
 20
110.5918497567
 11
73.7719134568
 21
110.5800558193
  0
LINE
  8
0
 62
7
  6
CONTINUOUS
 10
73.7719134568
 20
110.5800558193
 11
73.7713468218
 21
110.5790269074
  0
LINE
  8
0
 62
7
  6
CONTINUOUS
 10
73.7837390452
 20
110.6015674937
 11
73.7783555128
 21
110.5918497567
  0
LINE
  8
0
 62
7
  6
CONTINUOUS
 10
73.7869358631
 20
110.6072456171
 11
73.7824569698
 21
110.5992702023
  0
LINE
  8
0
 62
7
  6
CONTINUOUS
 10
73.7904670251
 20
110.6134315717
 11
73.7854753623
 21
110.6046605308
  0
LINE
  8
0
 62
7
  6
CONTINUOUS
 10
73.7943296287
 20
110.6200930468
 11
73.7888212257
 21
110.6105598188
  0
LINE
  8
0
 62
7
  6
CONTINUOUS
 10
73.7985292445
 20
110.627211596
 11
73.7924931314
 21
110.6169395137
  0
LINE
  8
0
 62
7
  6
CONTINUOUS
 10
73.7637021358
 20
110.5681365117
 11
73.7786304818
 21
110.5923485835
  0
LINE
  8
0
 62
7
  6
CONTINUOUS
 10
59.6566395236
 20
102.5891090794
 11
59.2776460136
 21
102.5891090794
  0
POLYLINE
  8
0
 62
7
  6
CONTINUOUS
 66
1
 70
0
  0
VERTEX
  8
0
 62
7
  6
CONTINUOUS
 10
73.7490782389
 20
110.5368736629
  0
VERTEX
  8
0
 62
7
  6
CONTINUOUS
 10
73.7274362287
 20
110.477285394
  0
VERTEX
  8
0
 62
7
  6
CONTINUOUS
 10
73.7096085886
 20
110.4164432046
  0
VERTEX
  8
0
 62
7
  6
CONTINUOUS
 10
73.6956674252
 20
110.3545919418
  0
VERTEX
  8
0
 62
7
  6
CONTINUOUS
 10
73.6856690336
 20
110.2919802359
  0
VERTEX
  8
0
 62
7
  6
CONTINUOUS
 10
73.6796537967
 20
110.228859832
  0
VERTEX
  8
0
 62
7
  6
CONTINUOUS
 10
73.6776460136
 20
110.1654845368
  0
SEQEND
  0
LINE
  8
0
 62
7
  6
CONTINUOUS
 10
73.7490781669
 20
110.5368737053
 11
73.7637021358
 21
110.5681365117
  0
LINE
  8
0
 62
7
  6
CONTINUOUS
 10
50.9944409463
 20
101.2945348281
 11
92.9391369639
 21
107.5632116492
  0
POLYLINE
  8
0
 62
7
  6
CONTINUOUS
 66
1
 70
0
  0
VERTEX
  8
0
 62
7
  6
CONTINUOUS
 10
73.678133382
 20
105.4429649728
  0
VERTEX
  8
0
 62
7
  6
CONTINUOUS
 10
73.6815717551
 20
105.3857017466
  0
VERTEX
  8
0
 62
7
  6
CONTINUOUS
 10
73.6882508884
 20
105.3291741709
  0
VERTEX
  8
0
 62
7
  6
CONTINUOUS
 10
73.698121427
 20
105.2734585174
  0
VERTEX
  8
0
 62
7
  6
CONTINUOUS
 10
73.7111833604
 20
105.218500796
  0
VERTEX
  8
0
 62
7
  6
CONTINUOUS
 10
73.7274083353
 20
105.1644781156
  0
VERTEX
  8
0
 62
7
  6
CONTINUOUS
 10
73.7468043623
 20
105.1114582972
  0
VERTEX
  8
0
 62
7
  6
CONTINUOUS
 10
73.769276168
 20
105.0597805275
  0
VERTEX
  8
0
 62
7
  6
CONTINUOUS
 10
73.7946716499
 20
105.0097945257
  0
VERTEX
  8
0
 62
7
  6
CONTINUOUS
 10
73.8226335784
 20
104.9620817765
  0
VERTEX
  8
0
 62
7
  6
CONTINUOUS
 10
73.8525283358
 20
104.9174050786
  0
VERTEX
  8
0
 62
7
  6
CONTINUOUS
 10
73.8834118078
 20
104.8766194321
  0
VERTEX
  8
0
 62
7
  6
CONTINUOUS
 10
73.9139256685
 20
104.8406998073
  0
VERTEX
  8
0
 62
7
  6
CONTINUOUS
 10
73.9426352104
 20
104.8103089906
  0
VERTEX
  8
0
 62
7
  6
CONTINUOUS
 10
73.9681798363
 20
104.7857829162
  0
VERTEX
  8
0
 62
7
  6
CONTINUOUS
 10
73.9896976676
 20
104.7669150748
  0
VERTEX
  8
0
 62
7
  6
CONTINUOUS
 10
74.0067802433
 20
104.7532121372
  0
VERTEX
  8
0
 62
7
  6
CONTINUOUS
 10
74.019401706
 20
104.744059179
  0
VERTEX
  8
0
 62
7
  6
CONTINUOUS
 10
74.0276834249
 20
104.7389327879
  0
VERTEX
  8
0
 62
7
  6
CONTINUOUS
 10
74.0317393553
 20
104.7374821437
  0
SEQEND
  0
POLYLINE
  8
0
 62
7
  6
CONTINUOUS
 66
1
 70
0
  0
VERTEX
  8
0
 62
7
  6
CONTINUOUS
 10
73.6781332389
 20
105.4429649514
  0
VERTEX
  8
0
 62
7
  6
CONTINUOUS
 10
73.6777678484
 20
105.4585827581
  0
VERTEX
  8
0
 62
7
  6
CONTINUOUS
 10
73.6776460136
 20
105.4742024658
  0
SEQEND
  0
LINE
  8
0
 62
7
  6
CONTINUOUS
 10
73.6776460136
 20
110.1654845368
 11
73.6776460136
 21
105.4742024658
  0
LINE
  8
0
 62
7
  6
CONTINUOUS
 10
73.6776460136
 20
105.4429649514
 11
73.6776460136
 21
105.2384875304
  0
POLYLINE
  8
0
 62
7
  6
CONTINUOUS
 66
1
 70
0
  0
VERTEX
  8
0
 62
7
  6
CONTINUOUS
 10
73.7097069339
 20
110.2071450337
  0
VERTEX
  8
0
 62
7
  6
CONTINUOUS
 10
73.7043850294
 20
110.185664545
  0
VERTEX
  8
0
 62
7
  6
CONTINUOUS
 10
73.699562242
 20
110.1641808168
  0
VERTEX
  8
0
 62
7
  6
CONTINUOUS
 10
73.6952718401
 20
110.1429036563
  0
VERTEX
  8
0
 62
7
  6
CONTINUOUS
 10
73.6915271358
 20
110.1220306512
  0
VERTEX
  8
0
 62
7
  6
CONTINUOUS
 10
73.688328527
 20
110.1017785591
  0
VERTEX
  8
0
 62
7
  6
CONTINUOUS
 10
73.6856592461
 20
110.0823548746
  0
VERTEX
  8
0
 62
7
  6
CONTINUOUS
 10
73.6834828853
 20
110.0639106336
  0
VERTEX
  8
0
 62
7
  6
CONTINUOUS
 10
73.6817545748
 20
110.0465869836
  0
VERTEX
  8
0
 62
7
  6
CONTINUOUS
 10
73.6804223592
 20
110.0305027874
  0
VERTEX
  8
0
 62
7
  6
CONTINUOUS
 10
73.6794299348
 20
110.0157469696
  0
VERTEX
  8
0
 62
7
  6
CONTINUOUS
 10
73.6787200519
 20
110.0023788758
  0
VERTEX
  8
0
 62
7
  6
CONTINUOUS
 10
73.678237073
 20
109.9904205493
  0
VERTEX
  8
0
 62
7
  6
CONTINUOUS
 10
73.677929833
 20
109.9798650554
  0
VERTEX
  8
0
 62
7
  6
CONTINUOUS
 10
73.6777529497
 20
109.9706621092
  0
VERTEX
  8
0
 62
7
  6
CONTINUOUS
 10
73.6776685076
 20
109.9627408442
  0
SEQEND
  0
LINE
  8
0
 62
7
  6
CONTINUOUS
 10
73.8389782142
 20
104.7150280121
 11
73.8430771661
 21
104.7092863906
  0
LINE
  8
0
 62
7
  6
CONTINUOUS
 10
73.8330212119
 20
104.7235712572
 11
73.8397564304
 21
104.7139264256
  0
LINE
  8
0
 62
7
  6
CONTINUOUS
 10
73.8273769377
 20
104.7318522204
 11
73.8334699619
 21
104.7229207547
  0
POLYLINE
  8
0
 62
7
  6
CONTINUOUS
 66
1
 70
0
  0
VERTEX
  8
0
 62
7
  6
CONTINUOUS
 10
73.8167861926
 20
104.7479054094
  0
VERTEX
  8
0
 62
7
  6
CONTINUOUS
 10
73.8220094444
 20
104.7399019202
  0
VERTEX
  8
0
 62
7
  6
CONTINUOUS
 10
73.8275628206
 20
104.7315765451
  0
SEQEND
  0
LINE
  8
0
 62
7
  6
CONTINUOUS
 10
73.8118714575
 20
104.7555953994
 11
73.816952637
 21
104.7476477208
  0
LINE
  8
0
 62
7
  6
CONTINUOUS
 10
73.8072496774
 20
104.7629732362
 11
73.8121396879
 21
104.7551716258
  0
LINE
  8
0
 62
7
  6
CONTINUOUS
 10
73.7637023707
 20
104.8358156671
 11
73.7807878663
 21
104.8081033738
  0
LINE
  8
0
 62
7
  6
CONTINUOUS
 10
73.8029202093
 20
104.7700169767
 11
73.8075765332
 21
104.7624467081
  0
LINE
  8
0
 62
7
  6
CONTINUOUS
 10
73.7988735747
 20
104.7767191248
 11
73.8032694008
 21
104.7694440348
  0
LINE
  8
0
 62
7
  6
CONTINUOUS
 10
73.7951002812
 20
104.7830735998
 11
73.7992177536
 21
104.7761445711
  0
LINE
  8
0
 62
7
  6
CONTINUOUS
 10
73.7915923458
 20
104.7890731544
 11
73.7954196536
 21
104.7825317966
  0
LINE
  8
0
 62
7
  6
CONTINUOUS
 10
73.7883443582
 20
104.794707345
 11
73.7918738213
 21
104.7885884746
  0
LINE
  8
0
 62
7
  6
CONTINUOUS
 10
73.7853590253
 20
104.7999522303
 11
73.7885804082
 21
104.7942953215
  0
LINE
  8
0
 62
7
  6
CONTINUOUS
 10
73.7801800797
 20
104.8091931514
 11
73.7855470612
 21
104.7996200355
  0
LINE
  8
0
 62
7
  6
CONTINUOUS
 10
73.7720356582
 20
104.8239505455
 11
73.7732672675
 21
104.8217290065
  0
LINE
  8
0
 62
7
  6
CONTINUOUS
 10
73.7732672675
 20
104.8217290065
 11
73.7801800797
 21
104.8091931514
  0
LINE
  8
0
 62
7
  6
CONTINUOUS
 10
73.7490784505
 20
104.8670799257
 11
73.7637023707
 21
104.8358156671
  0
POLYLINE
  8
0
 62
7
  6
CONTINUOUS
 66
1
 70
0
  0
VERTEX
  8
0
 62
7
  6
CONTINUOUS
 10
73.7490785251
 20
104.8670799565
  0
VERTEX
  8
0
 62
7
  6
CONTINUOUS
 10
73.7274365153
 20
104.9266709125
  0
VERTEX
  8
0
 62
7
  6
CONTINUOUS
 10
73.7096088172
 20
104.9875159977
  0
VERTEX
  8
0
 62
7
  6
CONTINUOUS
 10
73.6956675741
 20
105.0493703221
  0
VERTEX
  8
0
 62
7
  6
CONTINUOUS
 10
73.6856691063
 20
105.11198522
  0
VERTEX
  8
0
 62
7
  6
CONTINUOUS
 10
73.6796538159
 20
105.1751089058
  0
VERTEX
  8
0
 62
7
  6
CONTINUOUS
 10
73.6776460136
 20
105.2384875304
  0
SEQEND
  0
LINE
  8
0
 62
7
  6
CONTINUOUS
 10
74.3923329188
 20
111.0699160995
 11
74.3602683688
 21
111.0610576927
  0
LINE
  8
0
 62
7
  6
CONTINUOUS
 10
74.4221735644
 20
111.0771448505
 11
74.3892522203
 21
111.0691145633
  0
LINE
  8
0
 62
7
  6
CONTINUOUS
 10
74.4530495711
 20
111.0836211532
 11
74.4192828161
 21
111.0764866506
  0
LINE
  8
0
 62
7
  6
CONTINUOUS
 10
74.4849747798
 20
111.0892677778
 11
74.4503675482
 21
111.0830984806
  0
LINE
  8
0
 62
7
  6
CONTINUOUS
 10
74.5179416119
 20
111.094000095
 11
74.4825222537
 21
111.088871371
  0
LINE
  8
0
 62
7
  6
CONTINUOUS
 10
74.5519529815
 20
111.0977327691
 11
74.515740145
 21
111.0937184491
  0
LINE
  8
0
 62
7
  6
CONTINUOUS
 10
74.5870085536
 20
111.1003737547
 11
74.5500226574
 21
111.0975518977
  0
LINE
  8
0
 62
7
  6
CONTINUOUS
 10
77.1648560511
 20
106.4281103929
 11
77.232693775
 21
105.9741975829
  0
LINE
  8
0
 62
7
  6
CONTINUOUS
 10
74.6230875381
 20
111.1018263747
 11
74.5853715211
 21
111.100277491
  0
POLYLINE
  8
0
 62
7
  6
CONTINUOUS
 66
1
 70
0
  0
VERTEX
  8
0
 62
7
  6
CONTINUOUS
 10
85.2377087311
 20
111.0641599888
  0
VERTEX
  8
0
 62
7
  6
CONTINUOUS
 10
85.087724145
 20
111.0634676605
  0
VERTEX
  8
0
 62
7
  6
CONTINUOUS
 10
84.9281209219
 20
111.0630295314
  0
SEQEND
  0
LINE
  8
0
 62
7
  6
CONTINUOUS
 10
74.6597310259
 20
111.1019888511
 11
74.6217654342
 21
111.1017956754
  0
LINE
  8
0
 62
7
  6
CONTINUOUS
 10
84.9281209219
 20
111.0630295314
 11
76.9776460136
 21
111.0628949478
  0
POLYLINE
  8
0
 62
7
  6
CONTINUOUS
 66
1
 70
0
  0
VERTEX
  8
0
 62
7
  6
CONTINUOUS
 10
76.9776460136
 20
111.0628949459
  0
VERTEX
  8
0
 62
7
  6
CONTINUOUS
 10
76.7969521832
 20
111.0630890709
  0
VERTEX
  8
0
 62
7
  6
CONTINUOUS
 10
76.6082372303
 20
111.0637087561
  0
VERTEX
  8
0
 62
7
  6
CONTINUOUS
 10
76.4210911604
 20
111.0647516952
  0
VERTEX
  8
0
 62
7
  6
CONTINUOUS
 10
76.2363045732
 20
111.0662132545
  0
VERTEX
  8
0
 62
7
  6
CONTINUOUS
 10
76.0546711825
 20
111.0680868074
  0
VERTEX
  8
0
 62
7
  6
CONTINUOUS
 10
75.8769673323
 20
111.0703638222
  0
VERTEX
  8
0
 62
7
  6
CONTINUOUS
 10
75.7039508141
 20
111.0730338912
  0
VERTEX
  8
0
 62
7
  6
CONTINUOUS
 10
75.5363675457
 20
111.076084574
  0
VERTEX
  8
0
 62
7
  6
CONTINUOUS
 10
75.3749682251
 20
111.0795008372
  0
VERTEX
  8
0
 62
7
  6
CONTINUOUS
 10
75.2204778173
 20
111.0832652917
  0
VERTEX
  8
0
 62
7
  6
CONTINUOUS
 10
75.0735857766
 20
111.0873582643
  0
VERTEX
  8
0
 62
7
  6
CONTINUOUS
 10
74.9349426079
 20
111.0917577485
  0
VERTEX
  8
0
 62
7
  6
CONTINUOUS
 10
74.8051455803
 20
111.0964397271
  0
VERTEX
  8
0
 62
7
  6
CONTINUOUS
 10
74.6906780027
 20
111.1011190531
  0
SEQEND
  0
LINE
  8
0
 62
7
  6
CONTINUOUS
 10
85.3993109275
 20
111.0625903882
 11
85.2377087969
 21
111.0641599721
  0
LINE
  8
0
 62
7
  6
CONTINUOUS
 10
74.6906768356
 20
111.1011191144
 11
74.6591964345
 21
111.1020038759
  0
LINE
  8
0
 62
7
  6
CONTINUOUS
 10
85.5688932684
 20
111.05564618
 11
85.3985265342
 21
111.0626099023
  0
LINE
  8
0
 62
7
  6
CONTINUOUS
 10
85.7372119139
 20
111.0433808021
 11
85.5681188178
 21
111.0556902314
  0
LINE
  8
0
 62
7
  6
CONTINUOUS
 10
85.903802139
 20
111.0259474947
 11
85.736449282
 21
111.0434484767
  0
POLYLINE
  8
0
 62
7
  6
CONTINUOUS
 66
1
 70
0
  0
VERTEX
  8
0
 62
7
  6
CONTINUOUS
 10
87.7394030213
 20
110.5335658323
  0
VERTEX
  8
0
 62
7
  6
CONTINUOUS
 10
87.739468984
 20
110.5335556177
  0
VERTEX
  8
0
 62
7
  6
CONTINUOUS
 10
87.7385581616
 20
110.5337138697
  0
SEQEND
  0
LINE
  8
0
 62
7
  6
CONTINUOUS
 10
87.7394729467
 20
110.5335549817
 11
87.7386062152
 21
110.5337055205
  0
LINE
  8
0
 62
7
  6
CONTINUOUS
 10
87.7386062152
 20
110.5337055205
 11
87.7363011148
 21
110.5341418685
  0
LINE
  8
0
 62
7
  6
CONTINUOUS
 10
87.7363011148
 20
110.5341418685
 11
87.7323621619
 21
110.5349507997
  0
LINE
  8
0
 62
7
  6
CONTINUOUS
 10
87.7325693849
 20
110.5349068169
 11
87.7272706047
 21
110.5360689257
  0
LINE
  8
0
 62
7
  6
CONTINUOUS
 10
87.7275303451
 20
110.5360103461
 11
87.7209215641
 21
110.5375420092
  0
POLYLINE
  8
0
 62
7
  6
CONTINUOUS
 66
1
 70
0
  0
VERTEX
  8
0
 62
7
  6
CONTINUOUS
 10
87.7212291676
 20
110.5374689946
  0
VERTEX
  8
0
 62
7
  6
CONTINUOUS
 10
87.7133297494
 20
110.5393879296
  0
VERTEX
  8
0
 62
7
  6
CONTINUOUS
 10
87.7044884819
 20
110.5416263952
  0
VERTEX
  8
0
 62
7
  6
CONTINUOUS
 10
87.6943763446
 20
110.5442787399
  0
VERTEX
  8
0
 62
7
  6
CONTINUOUS
 10
87.6829552762
 20
110.5473693931
  0
VERTEX
  8
0
 62
7
  6
CONTINUOUS
 10
87.6701782896
 20
110.5509244096
  0
VERTEX
  8
0
 62
7
  6
CONTINUOUS
 10
87.6560021054
 20
110.554968199
  0
VERTEX
  8
0
 62
7
  6
CONTINUOUS
 10
87.640381535
 20
110.5595252427
  0
VERTEX
  8
0
 62
7
  6
CONTINUOUS
 10
87.6232645396
 20
110.5646216067
  0
VERTEX
  8
0
 62
7
  6
CONTINUOUS
 10
87.6045956005
 20
110.5702840601
  0
VERTEX
  8
0
 62
7
  6
CONTINUOUS
 10
87.5843185058
 20
110.5765394681
  0
SEQEND
  0
POLYLINE
  8
0
 62
7
  6
CONTINUOUS
 66
1
 70
0
  0
VERTEX
  8
0
 62
7
  6
CONTINUOUS
 10
86.6907926439
 20
110.8709049082
  0
VERTEX
  8
0
 62
7
  6
CONTINUOUS
 10
86.5418019242
 20
110.9096452673
  0
VERTEX
  8
0
 62
7
  6
CONTINUOUS
 10
86.3875659968
 20
110.9450689647
  0
VERTEX
  8
0
 62
7
  6
CONTINUOUS
 10
86.2291332312
 20
110.9765643432
  0
VERTEX
  8
0
 62
7
  6
CONTINUOUS
 10
86.0674448506
 20
111.0036592203
  0
SEQEND
  0
POLYLINE
  8
0
 62
7
  6
CONTINUOUS
 66
1
 70
0
  0
VERTEX
  8
0
 62
7
  6
CONTINUOUS
 10
86.6914253758
 20
110.8707308271
  0
VERTEX
  8
0
 62
7
  6
CONTINUOUS
 10
86.5424648833
 20
110.9094827717
  0
VERTEX
  8
0
 62
7
  6
CONTINUOUS
 10
86.3882552778
 20
110.9449211549
  0
VERTEX
  8
0
 62
7
  6
CONTINUOUS
 10
86.2298452781
 20
110.9764337897
  0
VERTEX
  8
0
 62
7
  6
CONTINUOUS
 10
86.0681765292
 20
111.003548006
  0
VERTEX
  8
0
 62
7
  6
CONTINUOUS
 10
85.903053688
 20
111.0260376464
  0
SEQEND
  0
LINE
  8
0
 62
7
  6
CONTINUOUS
 10
86.8341654928
 20
110.8293758658
 11
86.6907926439
 21
110.8709049082
  0
LINE
  8
0
 62
7
  6
CONTINUOUS
 10
87.5843185058
 20
110.5765394681
 11
87.5386909453
 21
110.5909436678
  0
LINE
  8
0
 62
7
  6
CONTINUOUS
 10
86.9695337712
 20
110.7862941613
 11
86.8335671551
 21
110.8295579075
  0
LINE
  8
0
 62
7
  6
CONTINUOUS
 10
87.5386909453
 20
110.5909436678
 11
87.4858683457
 21
110.6080678525
  0
LINE
  8
0
 62
7
  6
CONTINUOUS
 10
87.4858683457
 20
110.6080678525
 11
87.4252809882
 21
110.6281646891
  0
LINE
  8
0
 62
7
  6
CONTINUOUS
 10
87.4252809882
 20
110.6281646891
 11
87.356068057
 21
110.6515879943
  0
LINE
  8
0
 62
7
  6
CONTINUOUS
 10
87.0912651964
 20
110.7443293486
 11
86.9692394054
 21
110.7863956389
  0
LINE
  8
0
 62
7
  6
CONTINUOUS
 10
87.356068057
 20
110.6515879943
 11
87.2771256775
 21
110.6787843372
  0
LINE
  8
0
 62
7
  6
CONTINUOUS
 10
87.2771256775
 20
110.6787843372
 11
87.1872284424
 21
110.7102552401
  0
LINE
  8
0
 62
7
  6
CONTINUOUS
 10
87.1872284424
 20
110.7102552401
 11
87.0912670128
 21
110.7443287024
  0
LINE
  8
0
 62
7
  6
CONTINUOUS
 10
87.8390396475
 20
110.5177089558
 11
89.3968170245
 21
109.894598005
  0
LINE
  8
0
 62
7
  6
CONTINUOUS
 10
83.1667889552
 20
106.8610540497
 11
83.0989512312
 21
107.3149668596
  0
LINE
  8
DEFAULT_1
 62
7
  6
CENTER
 10
84.7776460136
 20
103.1139570745
 11
84.7776460136
 21
112.7642610842
  0
POLYLINE
  8
0
 62
7
  6
CONTINUOUS
 66
1
 70
0
  0
VERTEX
  8
0
 62
7
  6
CONTINUOUS
 10
87.2545141424
 20
106.7136390762
  0
VERTEX
  8
0
 62
7
  6
CONTINUOUS
 10
87.2539237861
 20
106.7177935641
  0
VERTEX
  8
0
 62
7
  6
CONTINUOUS
 10
87.2359582859
 20
106.8074764852
  0
VERTEX
  8
0
 62
7
  6
CONTINUOUS
 10
87.2132523768
 20
106.8946654076
  0
VERTEX
  8
0
 62
7
  6
CONTINUOUS
 10
87.1859897615
 20
106.9790389097
  0
VERTEX
  8
0
 62
7
  6
CONTINUOUS
 10
87.1543736328
 20
107.0602896856
  0
VERTEX
  8
0
 62
7
  6
CONTINUOUS
 10
87.1186310572
 20
107.1381396441
  0
VERTEX
  8
0
 62
7
  6
CONTINUOUS
 10
87.0790124924
 20
107.2123560123
  0
VERTEX
  8
0
 62
7
  6
CONTINUOUS
 10
87.0357876898
 20
107.2827687808
  0
VERTEX
  8
0
 62
7
  6
CONTINUOUS
 10
86.9892361474
 20
107.3492895082
  0
VERTEX
  8
0
 62
7
  6
CONTINUOUS
 10
86.9396335904
 20
107.4119297771
  0
VERTEX
  8
0
 62
7
  6
CONTINUOUS
 10
86.8872344101
 20
107.470819291
  0
SEQEND
  0
LINE
  8
0
 62
7
  6
CONTINUOUS
 10
89.7111230277
 20
107.0807817341
 11
89.7111230277
 21
109.4302654057
  0
LINE
  8
0
 62
7
  6
CONTINUOUS
 10
93.7999949223
 20
106.821200115
 11
93.7999949223
 21
105.3045409232
  0
LINE
  8
0
 62
7
  6
CONTINUOUS
 10
146.1405361599
 20
158.7042699353
 11
145.1405361599
 21
158.7042699353
  0
LINE
  8
0
 62
7
  6
CONTINUOUS
 10
142.2739030151
 20
158.7042699353
 11
136.7733805473
 21
158.7042699353
  0
LINE
  8
0
 62
7
  6
CONTINUOUS
 10
146.3405361599
 20
162.5542699353
 11
144.9405361599
 21
162.5542699353
  0
LINE
  8
0
 62
7
  6
CONTINUOUS
 10
136.5039494792
 20
165.2042702153
 11
137.0641607025
 21
165.2042699354
  0
LINE
  8
0
 62
7
  6
CONTINUOUS
 10
141.9911577088
 20
165.2042699353
 11
142.551400556
 21
165.2042696542
  0
LINE
  8
DEFAULT_1
 62
7
  6
CENTER
 10
142.9405361599
 20
165.2042699353
 11
148.3405361599
 21
165.2042699353
  0
LINE
  8
0
 62
7
  6
CONTINUOUS
 10
144.9405361599
 20
167.8542699353
 11
146.3405361599
 21
167.8542699353
  0
POLYLINE
  8
0
 62
7
  6
CONTINUOUS
 66
1
 70
0
  0
VERTEX
  8
0
 62
7
  6
CONTINUOUS
 10
136.3240410987
 20
166.0303533052
  0
VERTEX
  8
0
 62
7
  6
CONTINUOUS
 10
136.3854808276
 20
165.8290215659
  0
VERTEX
  8
0
 62
7
  6
CONTINUOUS
 10
136.4143636672
 20
165.7314765472
  0
VERTEX
  8
0
 62
7
  6
CONTINUOUS
 10
136.4410484378
 20
165.6359891953
  0
VERTEX
  8
0
 62
7
  6
CONTINUOUS
 10
136.4646365325
 20
165.5425182971
  0
VERTEX
  8
0
 62
7
  6
CONTINUOUS
 10
136.4839597456
 20
165.451280475
  0
VERTEX
  8
0
 62
7
  6
CONTINUOUS
 10
136.4976889396
 20
165.3622609765
  0
VERTEX
  8
0
 62
7
  6
CONTINUOUS
 10
136.5043455503
 20
165.2775337221
  0
VERTEX
  8
0
 62
7
  6
CONTINUOUS
 10
136.5039494664
 20
165.2042699421
  0
SEQEND
  0
LINE
  8
0
 62
7
  6
CONTINUOUS
 10
137.8587033817
 20
171.7074748477
 11
137.7894687541
 21
171.7042700418
  0
POLYLINE
  8
0
 62
7
  6
CONTINUOUS
 66
1
 70
0
  0
VERTEX
  8
0
 62
7
  6
CONTINUOUS
 10
141.7866802664
 20
171.7042699353
  0
VERTEX
  8
0
 62
7
  6
CONTINUOUS
 10
141.8439434926
 20
171.7064499444
  0
VERTEX
  8
0
 62
7
  6
CONTINUOUS
 10
141.9004710683
 20
171.7129901595
  0
VERTEX
  8
0
 62
7
  6
CONTINUOUS
 10
141.9561867218
 20
171.7239302999
  0
VERTEX
  8
0
 62
7
  6
CONTINUOUS
 10
142.0111444432
 20
171.7394106672
  0
VERTEX
  8
0
 62
7
  6
CONTINUOUS
 10
142.0651671236
 20
171.7595942086
  0
VERTEX
  8
0
 62
7
  6
CONTINUOUS
 10
142.118186942
 20
171.7847585695
  0
VERTEX
  8
0
 62
7
  6
CONTINUOUS
 10
142.1698647117
 20
171.8151415047
  0
VERTEX
  8
0
 62
7
  6
CONTINUOUS
 10
142.2198507135
 20
171.8510229998
  0
VERTEX
  8
0
 62
7
  6
CONTINUOUS
 10
142.2675634627
 20
171.8925483339
  0
VERTEX
  8
0
 62
7
  6
CONTINUOUS
 10
142.3122401606
 20
171.9396248073
  0
VERTEX
  8
0
 62
7
  6
CONTINUOUS
 10
142.3530258071
 20
171.9918318858
  0
VERTEX
  8
0
 62
7
  6
CONTINUOUS
 10
142.3889454319
 20
172.0481085455
  0
VERTEX
  8
0
 62
7
  6
CONTINUOUS
 10
142.4193362487
 20
172.1070849406
  0
VERTEX
  8
0
 62
7
  6
CONTINUOUS
 10
142.443862323
 20
172.1670773881
  0
VERTEX
  8
0
 62
7
  6
CONTINUOUS
 10
142.4627301644
 20
172.2268102269
  0
VERTEX
  8
0
 62
7
  6
CONTINUOUS
 10
142.476433102
 20
172.2854529249
  0
VERTEX
  8
0
 62
7
  6
CONTINUOUS
 10
142.4855860603
 20
172.3428102706
  0
VERTEX
  8
0
 62
7
  6
CONTINUOUS
 10
142.4907124513
 20
172.3990686295
  0
VERTEX
  8
0
 62
7
  6
CONTINUOUS
 10
142.4921630955
 20
172.4542699353
  0
SEQEND
  0
LINE
  8
0
 62
7
  6
CONTINUOUS
 10
141.7866802878
 20
171.7042699353
 11
136.7733805473
 21
171.7042699353
  0
LINE
  8
0
 62
7
  6
CONTINUOUS
 10
142.4961218086
 20
171.7042699353
 11
147.9654055319
 21
171.7042699353
  0
LINE
  8
0
 62
7
  6
CONTINUOUS
 10
136.1284257474
 20
163.3465047661
 11
136.2736851337
 21
159.186820187
  0
POLYLINE
  8
0
 62
7
  6
CONTINUOUS
 66
1
 70
0
  0
VERTEX
  8
0
 62
7
  6
CONTINUOUS
 10
136.1284229463
 20
167.0619549728
  0
VERTEX
  8
0
 62
7
  6
CONTINUOUS
 10
136.1294102387
 20
166.9354826223
  0
VERTEX
  8
0
 62
7
  6
CONTINUOUS
 10
136.1399272427
 20
166.8080779882
  0
VERTEX
  8
0
 62
7
  6
CONTINUOUS
 10
136.1571895534
 20
166.6866552598
  0
VERTEX
  8
0
 62
7
  6
CONTINUOUS
 10
136.1791658396
 20
166.5701348914
  0
VERTEX
  8
0
 62
7
  6
CONTINUOUS
 10
136.2045380152
 20
166.4573671872
  0
VERTEX
  8
0
 62
7
  6
CONTINUOUS
 10
136.2324311393
 20
166.3473090336
  0
VERTEX
  8
0
 62
7
  6
CONTINUOUS
 10
136.2620828422
 20
166.2395729034
  0
VERTEX
  8
0
 62
7
  6
CONTINUOUS
 10
136.2928222955
 20
166.1339643502
  0
VERTEX
  8
0
 62
7
  6
CONTINUOUS
 10
136.3240410987
 20
166.0303533052
  0
SEQEND
  0
POLYLINE
  8
0
 62
7
  6
CONTINUOUS
 66
1
 70
0
  0
VERTEX
  8
0
 62
7
  6
CONTINUOUS
 10
136.5039494664
 20
165.2042699421
  0
VERTEX
  8
0
 62
7
  6
CONTINUOUS
 10
136.5043250133
 20
165.1304300556
  0
VERTEX
  8
0
 62
7
  6
CONTINUOUS
 10
136.4976194922
 20
165.0456959686
  0
VERTEX
  8
0
 62
7
  6
CONTINUOUS
 10
136.4838509776
 20
164.9566752542
  0
VERTEX
  8
0
 62
7
  6
CONTINUOUS
 10
136.4644989472
 20
164.8654352526
  0
VERTEX
  8
0
 62
7
  6
CONTINUOUS
 10
136.440890449
 20
164.7719609741
  0
VERTEX
  8
0
 62
7
  6
CONTINUOUS
 10
136.414191648
 20
164.6764687652
  0
VERTEX
  8
0
 62
7
  6
CONTINUOUS
 10
136.3852998262
 20
164.5789179776
  0
SEQEND
  0
LINE
  8
0
 62
7
  6
CONTINUOUS
 10
136.1284230224
 20
167.0619569565
 11
136.1284257474
 21
167.0620351045
  0
LINE
  8
0
 62
7
  6
CONTINUOUS
 10
136.1284257474
 20
167.0620351045
 11
136.2736851337
 21
171.2217196837
  0
LINE
  8
0
 62
7
  6
CONTINUOUS
 10
140.3643463181
 20
178.4959210577
 11
139.6804387721
 21
195.57427909
  0
LINE
  8
0
 62
7
  6
CONTINUOUS
 10
139.6717481018
 20
195.8193254401
 11
139.6804387759
 21
195.5742790421
  0
LINE
  8
0
 62
7
  6
CONTINUOUS
 10
141.2626029963
 20
181.5233923301
 11
141.2621947015
 21
181.5219877799
  0
LINE
  8
0
 62
7
  6
CONTINUOUS
 10
141.2621977102
 20
181.5219978721
 11
141.2622332061
 21
181.5221174808
  0
LINE
  8
0
 62
7
  6
CONTINUOUS
 10
138.5085152583
 20
172.2411138682
 11
141.2621030915
 21
181.5216789741
  0
POLYLINE
  8
0
 62
7
  6
CONTINUOUS
 66
1
 70
0
  0
VERTEX
  8
0
 62
7
  6
CONTINUOUS
 10
136.3852998262
 20
164.5789179776
  0
VERTEX
  8
0
 62
7
  6
CONTINUOUS
 10
136.3238540291
 20
164.3775722966
  0
VERTEX
  8
0
 62
7
  6
CONTINUOUS
 10
136.2926372523
 20
164.2739526945
  0
VERTEX
  8
0
 62
7
  6
CONTINUOUS
 10
136.2619032576
 20
164.1683347997
  0
VERTEX
  8
0
 62
7
  6
CONTINUOUS
 10
136.2322608138
 20
164.0605889261
  0
VERTEX
  8
0
 62
7
  6
CONTINUOUS
 10
136.2043813763
 20
163.9505210548
  0
VERTEX
  8
0
 62
7
  6
CONTINUOUS
 10
136.1790280922
 20
163.8377435646
  0
VERTEX
  8
0
 62
7
  6
CONTINUOUS
 10
136.1570772029
 20
163.7212131002
  0
VERTEX
  8
0
 62
7
  6
CONTINUOUS
 10
136.1398488353
 20
163.5997797956
  0
VERTEX
  8
0
 62
7
  6
CONTINUOUS
 10
136.1293773699
 20
163.4723640747
  0
VERTEX
  8
0
 62
7
  6
CONTINUOUS
 10
136.1284227412
 20
163.3465907748
  0
SEQEND
  0
LINE
  8
0
 62
7
  6
CONTINUOUS
 10
142.7560995055
 20
171.7042860599
 11
142.9244438005
 21
167.0620773881
  0
POLYLINE
  8
0
 62
7
  6
CONTINUOUS
 66
1
 70
0
  0
VERTEX
  8
0
 62
7
  6
CONTINUOUS
 10
142.5514005698
 20
165.2042699378
  0
VERTEX
  8
0
 62
7
  6
CONTINUOUS
 10
142.5509271678
 20
165.2791037498
  0
VERTEX
  8
0
 62
7
  6
CONTINUOUS
 10
142.5574677456
 20
165.3629805975
  0
VERTEX
  8
0
 62
7
  6
CONTINUOUS
 10
142.5707824149
 20
165.4502744965
  0
VERTEX
  8
0
 62
7
  6
CONTINUOUS
 10
142.5894879116
 20
165.5396644778
  0
VERTEX
  8
0
 62
7
  6
CONTINUOUS
 10
142.6121602005
 20
165.6305574759
  0
VERTEX
  8
0
 62
7
  6
CONTINUOUS
 10
142.6379342088
 20
165.7237499314
  0
VERTEX
  8
0
 62
7
  6
CONTINUOUS
 10
142.6659994217
 20
165.8193354763
  0
VERTEX
  8
0
 62
7
  6
CONTINUOUS
 10
142.6957725614
 20
165.9177398413
  0
VERTEX
  8
0
 62
7
  6
CONTINUOUS
 10
142.7267044586
 20
166.019250989
  0
VERTEX
  8
0
 62
7
  6
CONTINUOUS
 10
142.7582514344
 20
166.1241557334
  0
VERTEX
  8
0
 62
7
  6
CONTINUOUS
 10
142.7898588904
 20
166.2328579827
  0
VERTEX
  8
0
 62
7
  6
CONTINUOUS
 10
142.8208473135
 20
166.3456837109
  0
VERTEX
  8
0
 62
7
  6
CONTINUOUS
 10
142.8501972398
 20
166.4622475153
  0
VERTEX
  8
0
 62
7
  6
CONTINUOUS
 10
142.8767035609
 20
166.5820061682
  0
VERTEX
  8
0
 62
7
  6
CONTINUOUS
 10
142.8989756975
 20
166.7042988926
  0
VERTEX
  8
0
 62
7
  6
CONTINUOUS
 10
142.9153083235
 20
166.8271330743
  0
VERTEX
  8
0
 62
7
  6
CONTINUOUS
 10
142.9241334647
 20
166.9480043226
  0
VERTEX
  8
0
 62
7
  6
CONTINUOUS
 10
142.9244319301
 20
167.0624079705
  0
SEQEND
  0
LINE
  8
0
 62
7
  6
CONTINUOUS
 10
142.4921630955
 20
172.4542699353
 11
142.4961218086
 21
171.7042699353
  0
POLYLINE
  8
0
 62
7
  6
CONTINUOUS
 66
1
 70
0
  0
VERTEX
  8
0
 62
7
  6
CONTINUOUS
 10
138.5084618688
 20
172.2409336064
  0
VERTEX
  8
0
 62
7
  6
CONTINUOUS
 10
138.4889651295
 20
172.1837716977
  0
VERTEX
  8
0
 62
7
  6
CONTINUOUS
 10
138.461007564
 20
172.120351506
  0
VERTEX
  8
0
 62
7
  6
CONTINUOUS
 10
138.4273148403
 20
172.0597829714
  0
VERTEX
  8
0
 62
7
  6
CONTINUOUS
 10
138.3881746969
 20
172.0025833548
  0
VERTEX
  8
0
 62
7
  6
CONTINUOUS
 10
138.3439213945
 20
171.9492411452
  0
VERTEX
  8
0
 62
7
  6
CONTINUOUS
 10
138.2949328623
 20
171.9002118878
  0
VERTEX
  8
0
 62
7
  6
CONTINUOUS
 10
138.24162746
 20
171.8559142862
  0
VERTEX
  8
0
 62
7
  6
CONTINUOUS
 10
138.1844603911
 20
171.8167266243
  0
VERTEX
  8
0
 62
7
  6
CONTINUOUS
 10
138.1239198329
 20
171.7829835567
  0
VERTEX
  8
0
 62
7
  6
CONTINUOUS
 10
138.0605228312
 20
171.7549732759
  0
VERTEX
  8
0
 62
7
  6
CONTINUOUS
 10
137.9948109033
 20
171.7329350239
  0
VERTEX
  8
0
 62
7
  6
CONTINUOUS
 10
137.9273454642
 20
171.7170570237
  0
VERTEX
  8
0
 62
7
  6
CONTINUOUS
 10
137.8587033817
 20
171.7074748477
  0
SEQEND
  0
POLYLINE
  8
0
 62
7
  6
CONTINUOUS
 66
1
 70
0
  0
VERTEX
  8
0
 62
7
  6
CONTINUOUS
 10
142.9244319036
 20
163.3461311725
  0
VERTEX
  8
0
 62
7
  6
CONTINUOUS
 10
142.9240989841
 20
163.4614116338
  0
VERTEX
  8
0
 62
7
  6
CONTINUOUS
 10
142.9152106109
 20
163.5823375537
  0
VERTEX
  8
0
 62
7
  6
CONTINUOUS
 10
142.8988214459
 20
163.7052080742
  0
VERTEX
  8
0
 62
7
  6
CONTINUOUS
 10
142.8765057103
 20
163.8275058387
  0
VERTEX
  8
0
 62
7
  6
CONTINUOUS
 10
142.8499724772
 20
163.9472363416
  0
VERTEX
  8
0
 62
7
  6
CONTINUOUS
 10
142.820610011
 20
164.0637531392
  0
VERTEX
  8
0
 62
7
  6
CONTINUOUS
 10
142.7896185421
 20
164.1765284901
  0
VERTEX
  8
0
 62
7
  6
CONTINUOUS
 10
142.758012413
 20
164.2851894571
  0
VERTEX
  8
0
 62
7
  6
CONTINUOUS
 10
142.7264697208
 20
164.3900617231
  0
VERTEX
  8
0
 62
7
  6
CONTINUOUS
 10
142.6955453493
 20
164.4915457038
  0
VERTEX
  8
0
 62
7
  6
CONTINUOUS
 10
142.6657839871
 20
164.5899243094
  0
VERTEX
  8
0
 62
7
  6
CONTINUOUS
 10
142.6377353059
 20
164.685484279
  0
VERTEX
  8
0
 62
7
  6
CONTINUOUS
 10
142.6119828457
 20
164.7786523366
  0
VERTEX
  8
0
 62
7
  6
CONTINUOUS
 10
142.5893380833
 20
164.869522207
  0
VERTEX
  8
0
 62
7
  6
CONTINUOUS
 10
142.5706670995
 20
164.9588934676
  0
VERTEX
  8
0
 62
7
  6
CONTINUOUS
 10
142.5573962457
 20
165.0461675117
  0
VERTEX
  8
0
 62
7
  6
CONTINUOUS
 10
142.5509067782
 20
165.1300195556
  0
VERTEX
  8
0
 62
7
  6
CONTINUOUS
 10
142.5514005697
 20
165.2042699378
  0
SEQEND
  0
LINE
  8
0
 62
7
  6
CONTINUOUS
 10
142.9244438509
 20
163.3464638725
 11
142.7735744681
 21
159.1861378135
  0
LINE
  8
0
 62
7
  6
CONTINUOUS
 10
142.9244316602
 20
163.3461277136
 11
142.924427754
 21
163.3460201292
  0
LINE
  8
0
 62
7
  6
CONTINUOUS
 10
144.6405361599
 20
159.2042699353
 11
144.6405361599
 21
171.7042699353
  0
LINE
  8
0
 62
7
  6
CONTINUOUS
 10
146.6405361599
 20
171.7042699353
 11
146.6405361599
 21
159.2042699353
  0
POLYLINE
  8
0
 62
7
  6
CONTINUOUS
 66
1
 70
0
  0
VERTEX
  8
0
 62
7
  6
CONTINUOUS
 10
148.9212882122
 20
195.5742790413
  0
VERTEX
  8
0
 62
7
  6
CONTINUOUS
 10
148.9299788552
 20
195.8193244453
  0
VERTEX
  8
0
 62
7
  6
CONTINUOUS
 10
148.936704606
 20
196.0745933205
  0
VERTEX
  8
0
 62
7
  6
CONTINUOUS
 10
148.9411532403
 20
196.3319913014
  0
VERTEX
  8
0
 62
7
  6
CONTINUOUS
 10
148.9433101339
 20
196.590570336
  0
VERTEX
  8
0
 62
7
  6
CONTINUOUS
 10
148.9431709072
 20
196.849360635
  0
VERTEX
  8
0
 62
7
  6
CONTINUOUS
 10
148.9407418859
 20
197.1073963228
  0
VERTEX
  8
0
 62
7
  6
CONTINUOUS
 10
148.9360399289
 20
197.3637222453
  0
VERTEX
  8
0
 62
7
  6
CONTINUOUS
 10
148.9290830848
 20
197.6176833939
  0
VERTEX
  8
0
 62
7
  6
CONTINUOUS
 10
148.9198530338
 20
197.8695099082
  0
VERTEX
  8
0
 62
7
  6
CONTINUOUS
 10
148.9082913875
 20
198.1195487537
  0
VERTEX
  8
0
 62
7
  6
CONTINUOUS
 10
148.8943164569
 20
198.3678258912
  0
VERTEX
  8
0
 62
7
  6
CONTINUOUS
 10
148.8780139044
 20
198.6115551138
  0
VERTEX
  8
0
 62
7
  6
CONTINUOUS
 10
148.8596885222
 20
198.8463718214
  0
VERTEX
  8
0
 62
7
  6
CONTINUOUS
 10
148.8397760196
 20
199.0683750101
  0
VERTEX
  8
0
 62
7
  6
CONTINUOUS
 10
148.8187037496
 20
199.2753723832
  0
VERTEX
  8
0
 62
7
  6
CONTINUOUS
 10
148.7966938402
 20
199.4677964335
  0
VERTEX
  8
0
 62
7
  6
CONTINUOUS
 10
148.7739091418
 20
199.6464395991
  0
VERTEX
  8
0
 62
7
  6
CONTINUOUS
 10
148.7504781038
 20
199.8121426656
  0
VERTEX
  8
0
 62
7
  6
CONTINUOUS
 10
148.7265031797
 20
199.9657272476
  0
VERTEX
  8
0
 62
7
  6
CONTINUOUS
 10
148.702066463
 20
200.107971293
  0
VERTEX
  8
0
 62
7
  6
CONTINUOUS
 10
148.6772191835
 20
200.2396761509
  0
VERTEX
  8
0
 62
7
  6
CONTINUOUS
 10
148.6519792075
 20
200.3616612702
  0
VERTEX
  8
0
 62
7
  6
CONTINUOUS
 10
148.6263284144
 20
200.474755097
  0
VERTEX
  8
0
 62
7
  6
CONTINUOUS
 10
148.6002192476
 20
200.5797481997
  0
VERTEX
  8
0
 62
7
  6
CONTINUOUS
 10
148.5735597668
 20
200.6774393526
  0
VERTEX
  8
0
 62
7
  6
CONTINUOUS
 10
148.5462003106
 20
200.7686492257
  0
VERTEX
  8
0
 62
7
  6
CONTINUOUS
 10
148.5179193509
 20
200.854217707
  0
VERTEX
  8
0
 62
7
  6
CONTINUOUS
 10
148.4884292498
 20
200.9349366313
  0
VERTEX
  8
0
 62
7
  6
CONTINUOUS
 10
148.4574284779
 20
201.0113955616
  0
VERTEX
  8
0
 62
7
  6
CONTINUOUS
 10
148.4245131165
 20
201.0842064512
  0
VERTEX
  8
0
 62
7
  6
CONTINUOUS
 10
148.3891422097
 20
201.15400475
  0
VERTEX
  8
0
 62
7
  6
CONTINUOUS
 10
148.3506449562
 20
201.2213492341
  0
VERTEX
  8
0
 62
7
  6
CONTINUOUS
 10
148.3082596853
 20
201.2866033084
  0
VERTEX
  8
0
 62
7
  6
CONTINUOUS
 10
148.2613157225
 20
201.3496915117
  0
VERTEX
  8
0
 62
7
  6
CONTINUOUS
 10
148.2092530794
 20
201.410217217
  0
VERTEX
  8
0
 62
7
  6
CONTINUOUS
 10
148.1518068343
 20
201.4674041948
  0
VERTEX
  8
0
 62
7
  6
CONTINUOUS
 10
148.0890219296
 20
201.5202881776
  0
VERTEX
  8
0
 62
7
  6
CONTINUOUS
 10
148.0211841233
 20
201.5679080839
  0
VERTEX
  8
0
 62
7
  6
CONTINUOUS
 10
147.9489681501
 20
201.6092938635
  0
VERTEX
  8
0
 62
7
  6
CONTINUOUS
 10
147.8733048122
 20
201.6436544067
  0
VERTEX
  8
0
 62
7
  6
CONTINUOUS
 10
147.7949414375
 20
201.6705532392
  0
VERTEX
  8
0
 62
7
  6
CONTINUOUS
 10
147.714354997
 20
201.6897594989
  0
VERTEX
  8
0
 62
7
  6
CONTINUOUS
 10
147.6319298691
 20
201.7010618
  0
VERTEX
  8
0
 62
7
  6
CONTINUOUS
 10
147.5584195711
 20
201.7042699218
  0
SEQEND
  0
LINE
  8
0
 62
7
  6
CONTINUOUS
 10
147.9654060664
 20
171.7042433231
 11
148.9212882158
 21
195.57427909
  0
POLYLINE
  8
0
 62
7
  6
CONTINUOUS
 66
1
 70
0
  0
VERTEX
  8
0
 62
7
  6
CONTINUOUS
 10
141.0433076467
 20
201.704269923
  0
VERTEX
  8
0
 62
7
  6
CONTINUOUS
 10
140.9697978279
 20
201.7010618641
  0
VERTEX
  8
0
 62
7
  6
CONTINUOUS
 10
140.8873725697
 20
201.6897596074
  0
VERTEX
  8
0
 62
7
  6
CONTINUOUS
 10
140.8067857526
 20
201.6705532957
  0
VERTEX
  8
0
 62
7
  6
CONTINUOUS
 10
140.7284220001
 20
201.6436543362
  0
VERTEX
  8
0
 62
7
  6
CONTINUOUS
 10
140.6527583527
 20
201.6092936152
  0
VERTEX
  8
0
 62
7
  6
CONTINUOUS
 10
140.5805424058
 20
201.5679077917
  0
VERTEX
  8
0
 62
7
  6
CONTINUOUS
 10
140.5127048178
 20
201.520287993
  0
VERTEX
  8
0
 62
7
  6
CONTINUOUS
 10
140.449920031
 20
201.4674040829
  0
VERTEX
  8
0
 62
7
  6
CONTINUOUS
 10
140.3924739426
 20
201.4102172524
  0
VERTEX
  8
0
 62
7
  6
CONTINUOUS
 10
140.3404113622
 20
201.3496916338
  0
VERTEX
  8
0
 62
7
  6
CONTINUOUS
 10
140.2934674255
 20
201.2866034847
  0
VERTEX
  8
0
 62
7
  6
CONTINUOUS
 10
140.251082183
 20
201.2213494836
  0
VERTEX
  8
0
 62
7
  6
CONTINUOUS
 10
140.2125849515
 20
201.1540050714
  0
VERTEX
  8
0
 62
7
  6
CONTINUOUS
 10
140.1772140716
 20
201.0842068709
  0
VERTEX
  8
0
 62
7
  6
CONTINUOUS
 10
140.1442987425
 20
201.0113961042
  0
VERTEX
  8
0
 62
7
  6
CONTINUOUS
 10
140.1132979897
 20
200.9349372858
  0
VERTEX
  8
0
 62
7
  6
CONTINUOUS
 10
140.0838079215
 20
200.854218527
  0
VERTEX
  8
0
 62
7
  6
CONTINUOUS
 10
140.0555269825
 20
200.7686501942
  0
VERTEX
  8
0
 62
7
  6
CONTINUOUS
 10
140.0281675504
 20
200.6774405043
  0
VERTEX
  8
0
 62
7
  6
CONTINUOUS
 10
140.0015080971
 20
200.5797495698
  0
VERTEX
  8
0
 62
7
  6
CONTINUOUS
 10
139.9753989515
 20
200.4747566871
  0
VERTEX
  8
0
 62
7
  6
CONTINUOUS
 10
139.9497481794
 20
200.3616631113
  0
VERTEX
  8
0
 62
7
  6
CONTINUOUS
 10
139.9245082244
 20
200.2396782773
  0
VERTEX
  8
0
 62
7
  6
CONTINUOUS
 10
139.8996609661
 20
200.1079737429
  0
VERTEX
  8
0
 62
7
  6
CONTINUOUS
 10
139.8752242696
 20
199.9657300622
  0
VERTEX
  8
0
 62
7
  6
CONTINUOUS
 10
139.8512493668
 20
199.8121459105
  0
VERTEX
  8
0
 62
7
  6
CONTINUOUS
 10
139.8278183512
 20
199.6464433554
  0
VERTEX
  8
0
 62
7
  6
CONTINUOUS
 10
139.8050336715
 20
199.4678007644
  0
VERTEX
  8
0
 62
7
  6
CONTINUOUS
 10
139.7830237696
 20
199.2753772992
  0
VERTEX
  8
0
 62
7
  6
CONTINUOUS
 10
139.76195149
 20
199.0683804597
  0
VERTEX
  8
0
 62
7
  6
CONTINUOUS
 10
139.7420389553
 20
198.8463776611
  0
VERTEX
  8
0
 62
7
  6
CONTINUOUS
 10
139.7237135183
 20
198.6115611172
  0
VERTEX
  8
0
 62
7
  6
CONTINUOUS
 10
139.7074108973
 20
198.3678318454
  0
VERTEX
  8
0
 62
7
  6
CONTINUOUS
 10
139.6934358935
 20
198.1195544779
  0
VERTEX
  8
0
 62
7
  6
CONTINUOUS
 10
139.6818741786
 20
197.8695153291
  0
VERTEX
  8
0
 62
7
  6
CONTINUOUS
 10
139.6726440658
 20
197.6176884754
  0
VERTEX
  8
0
 62
7
  6
CONTINUOUS
 10
139.665687167
 20
197.3637269629
  0
VERTEX
  8
0
 62
7
  6
CONTINUOUS
 10
139.6609851621
 20
197.1074006487
  0
VERTEX
  8
0
 62
7
  6
CONTINUOUS
 10
139.6585561002
 20
196.8493645105
  0
VERTEX
  8
0
 62
7
  6
CONTINUOUS
 10
139.6584168412
 20
196.5905736783
  0
VERTEX
  8
0
 62
7
  6
CONTINUOUS
 10
139.6605737132
 20
196.3319939983
  0
VERTEX
  8
0
 62
7
  6
CONTINUOUS
 10
139.6650223411
 20
196.0745952044
  0
VERTEX
  8
0
 62
7
  6
CONTINUOUS
 10
139.6717481018
 20
195.8193254401
  0
SEQEND
  0
LINE
  8
0
 62
7
  6
CONTINUOUS
 10
147.5583648792
 20
201.7042699353
 11
141.0433621087
 21
201.7042699353
  0
ARC
  8
0
 62
7
  6
CONTINUOUS
 10
59.3776460136
 20
165.2042699353
 40
2.65
 50
270.0
 51
90.0
  0
ARC
  8
0
 62
7
  6
CONTINUOUS
 10
68.3776460136
 20
159.2042699353
 40
0.5
 50
270.0
 51
360.0
  0
ARC
  8
0
 62
7
  6
CONTINUOUS
 10
58.8776460136
 20
159.2042699353
 40
0.5
 50
180.0
 51
270.0
  0
ARC
  8
0
 62
7
  6
CONTINUOUS
 10
58.6776460136
 20
162.2542699353
 40
0.3
 50
90.0
 51
180.0
  0
ARC
  8
0
 62
7
  6
CONTINUOUS
 10
58.6776460136
 20
168.1542699353
 40
0.3
 50
180.0
 51
270.0
  0
ARC
  8
0
 62
7
  6
CONTINUOUS
 10
55.3552971048
 20
196.7042699353
 40
5.0
 50
90.0
 51
195.0
  0
ARC
  8
0
 62
7
  6
CONTINUOUS
 10
76.9776460136
 20
165.2042699353
 40
2.65
 50
90.0
 51
270.0
  0
ARC
  8
0
 62
7
  6
CONTINUOUS
 10
74.1776460136
 20
159.2042699353
 40
0.5
 50
180.0
 51
270.0
  0
ARC
  8
0
 62
7
  6
CONTINUOUS
 10
84.7776460136
 20
163.1042699353
 40
4.4
 50
270.0
 51
354.1645729533
  0
ARC
  8
0
 62
7
  6
CONTINUOUS
 10
85.3111230277
 20
165.2042699353
 40
4.4
 50
337.3279965374
 51
22.6720034626
  0
ARC
  8
0
 62
7
  6
CONTINUOUS
 10
92.1392994627
 20
162.3519013453
 40
3.0
 50
157.3279965373
 51
174.1645729533
  0
ARC
  8
0
 62
7
  6
CONTINUOUS
 10
84.7776460136
 20
165.2042699353
 40
2.65
 50
270.0
 51
90.0
  0
ARC
  8
0
 62
7
  6
CONTINUOUS
 10
84.7776460136
 20
167.3042699353
 40
4.4
 50
5.8354270467
 51
55.3764645208
  0
ARC
  8
0
 62
7
  6
CONTINUOUS
 10
92.1392994627
 20
168.0566385254
 40
3.0
 50
185.8354270467
 51
202.6720034626
  0
ARC
  8
0
 62
7
  6
CONTINUOUS
 10
88.2776460136
 20
171.5726174378
 40
1.0
 50
165.0
 51
180.0
  0
ARC
  8
0
 62
7
  6
CONTINUOUS
 10
88.7999949223
 20
196.7042699353
 40
5.0
 50
345.0
 51
90.0
  0
ARC
  8
0
 62
7
  6
CONTINUOUS
 10
67.9776460136
 20
101.4891090794
 40
0.9
 50
270.0
 51
319.2157564765
  0
ARC
  8
0
 62
7
  6
CONTINUOUS
 10
59.2776460136
 20
101.6891090794
 40
0.9
 50
90.0
 51
120.5627938987
  0
ARC
  8
0
 62
7
  6
CONTINUOUS
 10
93.049994803
 20
105.3047906766
 40
0.75
 50
278.5
 51
359.9999994337
  0
ARC
  8
0
 62
7
  6
CONTINUOUS
 10
51.1052972247
 20
99.0361136222
 40
0.75
 50
179.9999994309
 51
278.5
  0
ARC
  8
0
 62
7
  6
CONTINUOUS
 10
93.049994803
 20
106.8214498684
 40
0.75
 50
359.9999994337
 51
98.5
  0
ARC
  8
0
 62
7
  6
CONTINUOUS
 10
51.1052972247
 20
100.552772814
 40
0.75
 50
98.5
 51
179.9999994309
  0
ARC
  8
0
 62
7
  6
CONTINUOUS
 10
76.4909318775
 20
105.8633405246
 40
0.75
 50
278.5
 51
8.5
  0
ARC
  8
0
 62
7
  6
CONTINUOUS
 10
83.9085508527
 20
106.971911108
 40
0.75
 50
188.5
 51
278.5
  0
ARC
  8
0
 62
7
  6
CONTINUOUS
 10
89.2111230265
 20
109.4303591249
 40
0.4999999998
 50
0.0
 51
68.1985905376
  0
ARC
  8
0
 62
7
  6
CONTINUOUS
 10
87.7276460117
 20
110.2391565225
 40
0.2999999998
 50
68.198590448
 51
92.2150822879
  0
ARC
  8
0
 62
7
  6
CONTINUOUS
 10
142.2739033061
 20
159.2042699353
 40
0.5
 50
270.0
 51
357.9231449422
  0
ARC
  8
0
 62
7
  6
CONTINUOUS
 10
146.1405361599
 20
159.2042699353
 40
0.5
 50
270.0
 51
360.0
  0
ARC
  8
0
 62
7
  6
CONTINUOUS
 10
145.1405361599
 20
159.2042699353
 40
0.5
 50
180.0
 51
270.0
  0
ARC
  8
0
 62
7
  6
CONTINUOUS
 10
136.7733805473
 20
171.2042699353
 40
0.5
 50
90.0
 51
178.0
  0
ARC
  8
0
 62
7
  6
CONTINUOUS
 10
136.7733805471
 20
159.2042699402
 40
0.4999999994
 50
182.0000005575
 51
270.0000000195
  0
ARC
  8
0
 62
7
  6
CONTINUOUS
 10
144.9405361599
 20
162.2542699353
 40
0.3
 50
90.0
 51
180.0
  0
ARC
  8
0
 62
7
  6
CONTINUOUS
 10
146.3405361599
 20
162.2542699353
 40
0.3
 50
0.0
 51
90.0
  0
ARC
  8
0
 62
7
  6
CONTINUOUS
 10
146.3405361599
 20
168.1542699353
 40
0.3
 50
270.0
 51
360.0
  0
ARC
  8
0
 62
7
  6
CONTINUOUS
 10
144.9405361599
 20
168.1542699353
 40
0.3
 50
180.0
 51
270.0
  0
ENDSEC
  0
EOF
