  0
SECTION
  2
HEADER
  9
$EXTMAX
 10
210.0
 20
297.0
 30
0.0
  9
$EXTMIN
 10
0.0
 20
0.0
 30
0.0
  9
$LIMMIN
 10
0.0
 20
0.0
  9
$LIMMAX
 10
210.0
 20
297.0
  9
$VIEWCTR
 10
105.0
 20
148.5
  9
$VIEWSIZE
 40
297.0
  9
$CLAYER
  8
0
  9
$LTSCALE
 40
19.36
  9
$CELTYPE
  6
BYLAYER
  9
$DIMSCALE
 40
1.0
  9
$DIMASZ
 40
3.5
  9
$DIMEXO
 40
1.0
  9
$DIMDLI
 40
13.376
  9
$DIMEXE
 40
2.0
  9
$DIMCEN
 40
3.168
  9
$DIMLFAC
 40
1.0
  9
$DIMBLK
  1
_FILLED
  9
$DIMTXT
 40
3.5
  9
$AUNITS
 70
0
  9
$PDMODE
 70
3
  9
$PDSIZE
 40
0.3125
  9
$TILEMODE
 70
1
  0
ENDSEC
  0
SECTION
  2
TABLES
  0
TABLE
  2
LTYPE
 70
6
  0
LTYPE
  2
BYBLOCK
 70
0
  3

 72
65
 73
0
 40
0.0
  0
LTYPE
  2
BYLAYER
 70
0
  3

 72
65
 73
0
 40
0.0
  0
LTYPE
  2
CONTINUOUS
 70
64
  3
Solid line
 72
65
 73
0
 40
0.0
  0
LTYPE
  2
CENTER
 70
64
  3
____ _ ____ _ ____ _ ____ _ ____ _ ____ _ ____
 72
65
 73
4
 40
0.6
 49
0.375
 49
-0.075
 49
0.075
 49
-0.075
  0
LTYPE
  2
HIDDEN
 70
64
  3
- - - - - - - - - - - - - - - - - - - -
 72
65
 73
2
 40
0.2
 49
0.1
 49
-0.1
  0
LTYPE
  2
PHANTOM
 70
64
  3
_____ _ _ _____ _ _ _____ _ _ _____
 72
65
 73
6
 40
0.8
 49
0.45
 49
-0.05
 49
0.1
 49
-0.05
 49
0.1
 49
-0.05
  0
LTYPE
  2
DOT
 70
64
  3
. . . . . . . . . . . . . . . . . . . .
 72
65
 73
2
 40
0.2
 49
0.1
 49
-0.1
  0
LTYPE
  2
DASHED
 70
64
  3
- - - - - - - - - - - - - - - - - - - -
 72
65
 73
2
 40
0.2
 49
0.1
 49
-0.1
  0
ENDTAB
  0
TABLE
  2
LAYER
 70
36
  0
LAYER
  2
0
 70
0
 62
7
  6
CONTINUOUS
  0
LAYER
  2
DEFAULT_1
 70
0
 62
7
  6
CENTER
  0
LAYER
  2
DEFAULT_2
 70
0
 62
8
  6
HIDDEN
  0
LAYER
  2
DEFAULT_3
 70
0
 62
7
  6
PHANTOM
  0
LAYER
  2
CSYS
 70
0
 62
7
  6
CONTINUOUS
  0
LAYER
  2
CURVE
 70
0
 62
7
  6
CONTINUOUS
  0
LAYER
  2
PITCHLINE
 70
0
 62
7
  6
CONTINUOUS
  0
LAYER
  2
SQ
 70
0
 62
7
  6
CONTINUOUS
  0
LAYER
  2
SURFACE
 70
0
 62
7
  6
CONTINUOUS
  0
ENDTAB
  0
TABLE
  2
STYLE
 70
1
  0
STYLE
  2
STANDARD
 70
0
 40
0.0
 41
0.8
 50
0.0
 71
0
 42
0.2
  3
txt
  4

  0
STYLE
  2
TEXTSTYLE_1
 70
0
 40
0.0
 41
0.8
 50
0.0
 71
0
 42
0.2
  3
gdt
  4

  0
STYLE
  2
TEXTSTYLE_2
 70
0
 40
0.0
 41
0.6
 50
0.0
 71
0
 42
0.2
  3
txt
  4

  0
STYLE
  2
TEXTSTYLE_3
 70
0
 40
0.0
 41
1.0
 50
0.0
 71
0
 42
0.2
  3
ftb_____.ttf
  4

  0
STYLE
  2
TEXTSTYLE_4
 70
0
 40
0.0
 41
1.0
 50
0.0
 71
0
 42
0.2
  3
fti_____.ttf
  4

  0
STYLE
  2
TEXTSTYLE_5
 70
0
 40
0.0
 41
1.0
 50
0.0
 71
0
 42
0.2
  3
frutiger light.ttf
  4

  0
STYLE
  2
TEXTSTYLE_6
 70
0
 40
0.0
 41
0.7
 50
0.0
 71
0
 42
0.2
  3
txt
  4

  0
STYLE
  2
TEXTSTYLE_7
 70
0
 40
0.0
 41
0.8
 50
0.0
 71
0
 42
0.2
  3
txt
  4

  0
ENDTAB
  0
ENDSEC
  0
SECTION
  2
BLOCKS
  0
BLOCK
  8
0
 62
2
  6
CONTINUOUS
  2
UNI_LOGO2_BL1
 70
64
 10
173.5956734183
 20
35.5937998301
  0
TEXT
  8
0
 62
7
  6
CONTINUOUS
 10
164.6539584268
 20
30.6865562072
  7
TEXTSTYLE_4
 40
1.0655737705
  1
The brand for plastic modular belts and chains
 41
1.0
 72
0
  0
LINE
  8
0
 62
7
  6
CONTINUOUS
 10
149.5737418074
 20
36.1675703219
 11
149.5737418074
 21
34.0364227809
  0
LINE
  8
0
 62
7
  6
CONTINUOUS
 10
149.8628043005
 20
31.0454914852
 11
149.8628043005
 21
31.1422825445
  0
LINE
  8
0
 62
7
  6
CONTINUOUS
 10
149.5737418074
 20
31.1100188581
 11
149.6315543091
 21
30.9164367395
  0
LINE
  8
0
 62
7
  6
CONTINUOUS
 10
150.9671844304
 20
33.9544555678
 11
150.9671844304
 21
36.1675703219
  0
LINE
  8
0
 62
7
  6
CONTINUOUS
 10
151.8862417523
 20
32.1101932727
 11
151.8862417523
 21
30.5937998301
  0
LINE
  8
0
 62
7
  6
CONTINUOUS
 10
152.1753043074
 20
30.5937998301
 11
152.1753043074
 21
31.3358647082
  0
LINE
  8
0
 62
7
  6
CONTINUOUS
 10
152.1753043074
 20
31.4649194539
 11
152.1753043074
 21
32.1101932727
  0
LINE
  8
0
 62
7
  6
CONTINUOUS
 10
149.6315543091
 20
31.3036010218
 11
149.5737418074
 21
31.1100188581
  0
LINE
  8
0
 62
7
  6
CONTINUOUS
 10
149.9784292936
 20
30.8841730531
 11
149.8628043005
 21
31.0454914852
  0
LINE
  8
0
 62
7
  6
CONTINUOUS
 10
151.0768668626
 20
31.400392081
 11
151.1346793074
 21
31.3036010218
  0
LINE
  8
0
 62
7
  6
CONTINUOUS
 10
151.4237418626
 20
31.3036010218
 11
151.3659292523
 21
31.4326557675
  0
LINE
  8
0
 62
7
  6
CONTINUOUS
 10
152.852430332
 20
36.1675703219
 11
152.852430332
 21
34.3642916334
  0
LINE
  8
0
 62
7
  6
CONTINUOUS
 10
152.852430332
 20
33.0528162235
 11
152.852430332
 21
32.3970785186
  0
LINE
  8
0
 62
7
  6
CONTINUOUS
 10
153.2159293074
 20
31.2390736489
 11
153.2159293074
 21
30.5937998301
  0
LINE
  8
0
 62
7
  6
CONTINUOUS
 10
153.5049916972
 20
30.5937998301
 11
153.5049916972
 21
31.2390736489
  0
LINE
  8
0
 62
7
  6
CONTINUOUS
 10
149.8628043005
 20
31.1422825445
 11
149.9206168074
 21
31.2713373354
  0
LINE
  8
0
 62
7
  6
CONTINUOUS
 10
149.6315543091
 20
30.9164367395
 11
149.7471793074
 21
30.7873819712
  0
LINE
  8
0
 62
7
  6
CONTINUOUS
 10
153.1581166972
 20
31.3681283946
 11
153.2159293074
 21
31.2390736489
  0
LINE
  8
0
 62
7
  6
CONTINUOUS
 10
153.9674919177
 20
30.8841730531
 11
154.0253041972
 21
30.7551182848
  0
LINE
  8
0
 62
7
  6
CONTINUOUS
 10
153.5049916972
 20
31.2390736489
 11
153.4471794177
 21
31.400392081
  0
LINE
  8
0
 62
7
  6
CONTINUOUS
 10
153.9674919177
 20
31.4326557675
 11
153.9674919177
 21
31.3681283946
  0
LINE
  8
0
 62
7
  6
CONTINUOUS
 10
153.9674919177
 20
30.9809641124
 11
153.9674919177
 21
30.8841730531
  0
LINE
  8
0
 62
7
  6
CONTINUOUS
 10
154.245872955
 20
32.3970785186
 11
154.245872955
 21
36.1675703219
  0
LINE
  8
0
 62
7
  6
CONTINUOUS
 10
154.2565543074
 20
30.8519093441
 11
154.2565543074
 21
30.9164367395
  0
LINE
  8
0
 62
7
  6
CONTINUOUS
 10
154.5737418074
 20
36.1675703219
 11
154.5737418074
 21
32.3970785186
  0
LINE
  8
0
 62
7
  6
CONTINUOUS
 10
151.3659292523
 20
30.7873819712
 11
151.4237418626
 21
30.9164367395
  0
LINE
  8
0
 62
7
  6
CONTINUOUS
 10
155.759679528
 20
30.6905909007
 11
155.7018665869
 21
30.8519093441
  0
LINE
  8
0
 62
7
  6
CONTINUOUS
 10
155.412804528
 20
31.3681283946
 11
155.412804528
 21
31.2713373354
  0
LINE
  8
0
 62
7
  6
CONTINUOUS
 10
155.412804528
 20
31.1422825445
 11
155.412804528
 21
30.9487004259
  0
LINE
  8
0
 62
7
  6
CONTINUOUS
 10
155.7018665869
 20
30.8519093441
 11
155.7018665869
 21
31.3681283946
  0
LINE
  8
0
 62
7
  6
CONTINUOUS
 10
155.9671844304
 20
32.3970785186
 11
155.9671844304
 21
34.2003572071
  0
LINE
  8
0
 62
7
  6
CONTINUOUS
 10
155.9671844304
 20
35.511832617
 11
155.9671844304
 21
36.1675703219
  0
LINE
  8
0
 62
7
  6
CONTINUOUS
 10
156.279992028
 20
32.1101932727
 11
156.279992028
 21
31.9488748406
  0
LINE
  8
0
 62
7
  6
CONTINUOUS
 10
156.279992028
 20
31.626237886
 11
156.279992028
 21
30.5937998301
  0
LINE
  8
0
 62
7
  6
CONTINUOUS
 10
156.5690540869
 20
30.5937998301
 11
156.5690540869
 21
31.626237886
  0
LINE
  8
0
 62
7
  6
CONTINUOUS
 10
156.5690540869
 20
31.9488748406
 11
156.5690540869
 21
32.1101932727
  0
LINE
  8
0
 62
7
  6
CONTINUOUS
 10
151.1346793074
 20
30.9164367395
 11
151.0768668626
 21
30.8196456577
  0
LINE
  8
0
 62
7
  6
CONTINUOUS
 10
153.4471794177
 20
31.400392081
 11
153.3893668074
 21
31.4649194539
  0
LINE
  8
0
 62
7
  6
CONTINUOUS
 10
154.3143669177
 20
30.7873819712
 11
154.2565543074
 21
30.8519093441
  0
LINE
  8
0
 62
7
  6
CONTINUOUS
 10
155.4706168074
 20
30.6583272086
 11
155.5284290869
 21
30.5937998301
  0
LINE
  8
0
 62
7
  6
CONTINUOUS
 10
155.412804528
 20
30.7551182848
 11
155.4706168074
 21
30.6583272086
  0
LINE
  8
0
 62
7
  6
CONTINUOUS
 10
155.8174918074
 20
30.5937998301
 11
155.759679528
 21
30.6905909007
  0
LINE
  8
0
 62
7
  6
CONTINUOUS
 10
155.7018665869
 20
31.3681283946
 11
155.6440543074
 21
31.4649194539
  0
LINE
  8
0
 62
7
  6
CONTINUOUS
 10
157.0315543074
 20
31.626237886
 11
157.0315543074
 21
30.5937998301
  0
LINE
  8
0
 62
7
  6
CONTINUOUS
 10
157.320617028
 20
30.5937998301
 11
157.320617028
 21
31.3358647082
  0
LINE
  8
0
 62
7
  6
CONTINUOUS
 10
157.320617028
 20
31.4649194539
 11
157.320617028
 21
31.626237886
  0
LINE
  8
0
 62
7
  6
CONTINUOUS
 10
157.852430332
 20
34.6101932727
 11
157.852430332
 21
32.3970785186
  0
LINE
  8
0
 62
7
  6
CONTINUOUS
 10
149.7471793074
 20
31.4326557675
 11
149.6315543091
 21
31.3036010218
  0
LINE
  8
0
 62
7
  6
CONTINUOUS
 10
149.9206168074
 20
31.2713373354
 11
149.9784292936
 21
31.3358647082
  0
LINE
  8
0
 62
7
  6
CONTINUOUS
 10
149.7471793074
 20
30.7873819712
 11
149.8628043005
 21
30.7228545871
  0
LINE
  8
0
 62
7
  6
CONTINUOUS
 10
150.1518667936
 20
30.7873819712
 11
149.9784292936
 21
30.8841730531
  0
LINE
  8
0
 62
7
  6
CONTINUOUS
 10
155.3549915869
 20
31.4326557675
 11
155.412804528
 21
31.3681283946
  0
LINE
  8
0
 62
7
  6
CONTINUOUS
 10
158.3034290869
 20
31.3681283946
 11
158.361242028
 21
31.2068099625
  0
LINE
  8
0
 62
7
  6
CONTINUOUS
 10
158.6503040869
 20
31.2068099625
 11
158.5924918074
 21
31.3681283946
  0
LINE
  8
0
 62
7
  6
CONTINUOUS
 10
158.361242028
 20
31.2068099625
 11
158.361242028
 21
30.5937998301
  0
LINE
  8
0
 62
7
  6
CONTINUOUS
 10
158.6503040869
 20
30.5937998301
 11
158.6503040869
 21
31.2068099625
  0
LINE
  8
0
 62
7
  6
CONTINUOUS
 10
159.1128043074
 20
31.4326557675
 11
159.1128043074
 21
31.3681283946
  0
LINE
  8
0
 62
7
  6
CONTINUOUS
 10
159.245872955
 20
32.3970785186
 11
159.245872955
 21
34.5282260596
  0
LINE
  8
0
 62
7
  6
CONTINUOUS
 10
159.5737418074
 20
36.1675703219
 11
159.5737418074
 21
32.3970785186
  0
LINE
  8
0
 62
7
  6
CONTINUOUS
 10
154.2565543074
 20
30.9164367395
 11
154.3143669177
 21
31.0132277988
  0
LINE
  8
0
 62
7
  6
CONTINUOUS
 10
149.8628043005
 20
30.7228545871
 11
150.0362418212
 21
30.6583272086
  0
LINE
  8
0
 62
7
  6
CONTINUOUS
 10
151.3659292523
 20
31.4326557675
 11
151.1924917523
 21
31.5294468267
  0
LINE
  8
0
 62
7
  6
CONTINUOUS
 10
154.0253041972
 20
30.7551182848
 11
154.1987416972
 21
30.6583272086
  0
LINE
  8
0
 62
7
  6
CONTINUOUS
 10
153.0424918074
 20
31.4326557675
 11
153.1581166972
 21
31.3681283946
  0
LINE
  8
0
 62
7
  6
CONTINUOUS
 10
153.3893668074
 20
31.4649194539
 11
153.2737419177
 21
31.5294468267
  0
LINE
  8
0
 62
7
  6
CONTINUOUS
 10
159.1128043074
 20
30.8519093441
 11
159.228429528
 21
30.7228545871
  0
LINE
  8
0
 62
7
  6
CONTINUOUS
 10
159.4596793074
 20
30.7873819712
 11
159.401867028
 21
30.8519093441
  0
LINE
  8
0
 62
7
  6
CONTINUOUS
 10
159.1128043074
 20
31.3681283946
 11
159.228429528
 21
31.2390736489
  0
LINE
  8
0
 62
7
  6
CONTINUOUS
 10
158.5924918074
 20
31.3681283946
 11
158.534679528
 21
31.4649194539
  0
LINE
  8
0
 62
7
  6
CONTINUOUS
 10
160.9628038663
 20
30.7873819712
 11
160.9628038663
 21
30.8519093441
  0
LINE
  8
0
 62
7
  6
CONTINUOUS
 10
160.9671844304
 20
32.3970785186
 11
160.9671844304
 21
36.1675703219
  0
LINE
  8
0
 62
7
  6
CONTINUOUS
 10
154.0253041972
 20
31.4971831403
 11
153.9674919177
 21
31.4326557675
  0
LINE
  8
0
 62
7
  6
CONTINUOUS
 10
150.9034292799
 20
31.4649194539
 11
151.0768668626
 21
31.400392081
  0
LINE
  8
0
 62
7
  6
CONTINUOUS
 10
155.6440543074
 20
31.4649194539
 11
155.5284290869
 21
31.5294468267
  0
LINE
  8
0
 62
7
  6
CONTINUOUS
 10
159.4596793074
 20
31.3036010218
 11
159.401867028
 21
31.3681283946
  0
LINE
  8
0
 62
7
  6
CONTINUOUS
 10
160.615929528
 20
30.9164367395
 11
160.6737418074
 21
30.8519093441
  0
LINE
  8
0
 62
7
  6
CONTINUOUS
 10
160.9628038663
 20
30.8519093441
 11
160.8471793074
 21
30.9809641124
  0
LINE
  8
0
 62
7
  6
CONTINUOUS
 10
160.615929528
 20
31.4326557675
 11
160.6737418074
 21
31.3681283946
  0
LINE
  8
0
 62
7
  6
CONTINUOUS
 10
160.9628038663
 20
31.3681283946
 11
160.8471793074
 21
31.4971831403
  0
LINE
  8
0
 62
7
  6
CONTINUOUS
 10
154.2565543074
 20
31.3681283946
 11
154.3143669177
 21
31.4326557675
  0
LINE
  8
0
 62
7
  6
CONTINUOUS
 10
154.0831168074
 20
31.1100188581
 11
153.9674919177
 21
30.9809641124
  0
LINE
  8
0
 62
7
  6
CONTINUOUS
 10
155.412804528
 20
30.9487004259
 11
155.3549915869
 21
30.8841730531
  0
LINE
  8
0
 62
7
  6
CONTINUOUS
 10
155.3549915869
 20
30.6905909007
 11
155.412804528
 21
30.7551182848
  0
LINE
  8
0
 62
7
  6
CONTINUOUS
 10
154.1987416972
 20
30.6583272086
 11
154.3143669177
 21
30.6260635193
  0
LINE
  8
0
 62
7
  6
CONTINUOUS
 10
151.1924917523
 20
31.5294468267
 11
150.9612418074
 21
31.5939741996
  0
LINE
  8
0
 62
7
  6
CONTINUOUS
 10
154.5456166972
 20
30.7228545871
 11
154.3143669177
 21
30.7873819712
  0
LINE
  8
0
 62
7
  6
CONTINUOUS
 10
153.2737419177
 20
31.5294468267
 11
153.1003044177
 21
31.5939741996
  0
LINE
  8
0
 62
7
  6
CONTINUOUS
 10
155.5284290869
 20
31.5294468267
 11
155.3549915869
 21
31.5939741996
  0
LINE
  8
0
 62
7
  6
CONTINUOUS
 10
158.187804528
 20
31.4326557675
 11
158.3034290869
 21
31.3681283946
  0
LINE
  8
0
 62
7
  6
CONTINUOUS
 10
158.534679528
 20
31.4649194539
 11
158.4190543074
 21
31.5294468267
  0
LINE
  8
0
 62
7
  6
CONTINUOUS
 10
150.0362418212
 20
30.6583272086
 11
150.2096793212
 21
30.6260635193
  0
LINE
  8
0
 62
7
  6
CONTINUOUS
 10
150.498741835
 20
30.7228545871
 11
150.1518667936
 21
30.7873819712
  0
LINE
  8
0
 62
7
  6
CONTINUOUS
 10
152.9268669177
 20
31.4649194539
 11
153.0424918074
 21
31.4326557675
  0
LINE
  8
0
 62
7
  6
CONTINUOUS
 10
155.239367028
 20
31.4649194539
 11
155.3549915869
 21
31.4326557675
  0
LINE
  8
0
 62
7
  6
CONTINUOUS
 10
159.575304528
 20
30.7551182848
 11
159.4596793074
 21
30.7873819712
  0
LINE
  8
0
 62
7
  6
CONTINUOUS
 10
158.0721793074
 20
31.4649194539
 11
158.187804528
 21
31.4326557675
  0
LINE
  8
0
 62
7
  6
CONTINUOUS
 10
159.228429528
 20
30.7228545871
 11
159.401867028
 21
30.6583272086
  0
LINE
  8
0
 62
7
  6
CONTINUOUS
 10
158.4190543074
 20
31.5294468267
 11
158.2456168074
 21
31.5939741996
  0
LINE
  8
0
 62
7
  6
CONTINUOUS
 10
159.6331168074
 20
31.2390736489
 11
159.4596793074
 21
31.3036010218
  0
LINE
  8
0
 62
7
  6
CONTINUOUS
 10
160.442492028
 20
30.9809641124
 11
160.615929528
 21
30.9164367395
  0
LINE
  8
0
 62
7
  6
CONTINUOUS
 10
160.8471793074
 20
31.4971831403
 11
160.6737418074
 21
31.5617105132
  0
LINE
  8
0
 62
7
  6
CONTINUOUS
 10
159.228429528
 20
31.2390736489
 11
159.4596793074
 21
31.1422825445
  0
LINE
  8
0
 62
7
  6
CONTINUOUS
 10
160.8471793074
 20
30.9809641124
 11
160.615929528
 21
31.0777551716
  0
LINE
  8
0
 62
7
  6
CONTINUOUS
 10
159.401867028
 20
31.3681283946
 11
159.4596793074
 21
31.4326557675
  0
LINE
  8
0
 62
7
  6
CONTINUOUS
 10
149.8628043005
 20
31.4971831403
 11
149.7471793074
 21
31.4326557675
  0
LINE
  8
0
 62
7
  6
CONTINUOUS
 10
149.9784292936
 20
31.3358647082
 11
150.1518667936
 21
31.4326557675
  0
LINE
  8
0
 62
7
  6
CONTINUOUS
 10
152.2909293626
 20
31.5294468267
 11
152.1753043074
 21
31.4649194539
  0
LINE
  8
0
 62
7
  6
CONTINUOUS
 10
152.1753043074
 20
31.3358647082
 11
152.2909293626
 21
31.400392081
  0
LINE
  8
0
 62
7
  6
CONTINUOUS
 10
151.1924917523
 20
30.6905909007
 11
151.3659292523
 21
30.7873819712
  0
LINE
  8
0
 62
7
  6
CONTINUOUS
 10
150.2096793212
 20
30.6260635193
 11
150.5565542799
 21
30.5937998301
  0
LINE
  8
0
 62
7
  6
CONTINUOUS
 10
154.3143669177
 20
30.6260635193
 11
154.5456166972
 21
30.5937998301
  0
LINE
  8
0
 62
7
  6
CONTINUOUS
 10
152.6956168074
 20
31.4971831403
 11
152.9268669177
 21
31.4649194539
  0
LINE
  8
0
 62
7
  6
CONTINUOUS
 10
155.0081169177
 20
31.4971831403
 11
155.239367028
 21
31.4649194539
  0
LINE
  8
0
 62
7
  6
CONTINUOUS
 10
159.4596793074
 20
31.1422825445
 11
160.442492028
 21
30.9809641124
  0
LINE
  8
0
 62
7
  6
CONTINUOUS
 10
160.615929528
 20
31.0777551716
 11
159.6331168074
 21
31.2390736489
  0
LINE
  8
0
 62
7
  6
CONTINUOUS
 10
153.1003044177
 20
31.5939741996
 11
152.9268669177
 21
31.626237886
  0
LINE
  8
0
 62
7
  6
CONTINUOUS
 10
159.401867028
 20
30.6583272086
 11
159.575304528
 21
30.6260635193
  0
LINE
  8
0
 62
7
  6
CONTINUOUS
 10
158.2456168074
 20
31.5939741996
 11
158.0721793074
 21
31.626237886
  0
LINE
  8
0
 62
7
  6
CONTINUOUS
 10
160.5003043074
 20
31.4649194539
 11
160.615929528
 21
31.4326557675
  0
LINE
  8
0
 62
7
  6
CONTINUOUS
 10
160.6737418074
 20
30.8519093441
 11
160.615929528
 21
30.7873819712
  0
LINE
  8
0
 62
7
  6
CONTINUOUS
 10
159.228429528
 20
31.5294468267
 11
159.1128043074
 21
31.4326557675
  0
LINE
  8
0
 62
7
  6
CONTINUOUS
 10
154.1409294177
 20
31.5617105132
 11
154.0253041972
 21
31.4971831403
  0
LINE
  8
0
 62
7
  6
CONTINUOUS
 10
154.1987416972
 20
31.1745462761
 11
154.0831168074
 21
31.1100188581
  0
LINE
  8
0
 62
7
  6
CONTINUOUS
 10
154.3143669177
 20
31.0132277988
 11
154.4299918074
 21
31.0777551716
  0
LINE
  8
0
 62
7
  6
CONTINUOUS
 10
151.8862417523
 20
30.5937998301
 11
152.1753043074
 21
30.5937998301
  0
LINE
  8
0
 62
7
  6
CONTINUOUS
 10
153.2159293074
 20
30.5937998301
 11
153.5049916972
 21
30.5937998301
  0
LINE
  8
0
 62
7
  6
CONTINUOUS
 10
154.5456166972
 20
30.5937998301
 11
154.8924916972
 21
30.5937998301
  0
LINE
  8
0
 62
7
  6
CONTINUOUS
 10
155.5284290869
 20
30.5937998301
 11
155.8174918074
 21
30.5937998301
  0
LINE
  8
0
 62
7
  6
CONTINUOUS
 10
156.279992028
 20
30.5937998301
 11
156.5690540869
 21
30.5937998301
  0
LINE
  8
0
 62
7
  6
CONTINUOUS
 10
157.0315543074
 20
30.5937998301
 11
157.320617028
 21
30.5937998301
  0
LINE
  8
0
 62
7
  6
CONTINUOUS
 10
158.361242028
 20
30.5937998301
 11
158.6503040869
 21
30.5937998301
  0
LINE
  8
0
 62
7
  6
CONTINUOUS
 10
159.922179528
 20
30.5937998301
 11
160.269054528
 21
30.5937998301
  0
LINE
  8
0
 62
7
  6
CONTINUOUS
 10
160.269054528
 20
30.7228545871
 11
159.922179528
 21
30.7228545871
  0
LINE
  8
0
 62
7
  6
CONTINUOUS
 10
154.8924916972
 20
30.7228545871
 11
154.5456166972
 21
30.7228545871
  0
LINE
  8
0
 62
7
  6
CONTINUOUS
 10
159.401867028
 20
30.8519093441
 11
159.1128043074
 21
30.8519093441
  0
LINE
  8
0
 62
7
  6
CONTINUOUS
 10
151.4237418626
 20
30.9164367395
 11
151.1346793074
 21
30.9164367395
  0
LINE
  8
0
 62
7
  6
CONTINUOUS
 10
150.498741835
 20
31.4971831403
 11
150.9034292799
 21
31.4649194539
  0
LINE
  8
0
 62
7
  6
CONTINUOUS
 10
150.9612418074
 20
31.5939741996
 11
150.5565542799
 21
31.626237886
  0
LINE
  8
0
 62
7
  6
CONTINUOUS
 10
159.575304528
 20
30.6260635193
 11
159.922179528
 21
30.5937998301
  0
LINE
  8
0
 62
7
  6
CONTINUOUS
 10
159.922179528
 20
30.7228545871
 11
159.575304528
 21
30.7551182848
  0
LINE
  8
0
 62
7
  6
CONTINUOUS
 10
155.3549915869
 20
31.5939741996
 11
155.0081169177
 21
31.626237886
  0
LINE
  8
0
 62
7
  6
CONTINUOUS
 10
160.1534293074
 20
31.4971831403
 11
160.5003043074
 21
31.4649194539
  0
LINE
  8
0
 62
7
  6
CONTINUOUS
 10
160.5003043074
 20
31.5939741996
 11
160.1534293074
 21
31.626237886
  0
LINE
  8
0
 62
7
  6
CONTINUOUS
 10
157.840929528
 20
31.4971831403
 11
158.0721793074
 21
31.4649194539
  0
LINE
  8
0
 62
7
  6
CONTINUOUS
 10
160.6737418074
 20
31.5617105132
 11
160.5003043074
 21
31.5939741996
  0
LINE
  8
0
 62
7
  6
CONTINUOUS
 10
160.8471793074
 20
30.6905909007
 11
160.9628038663
 21
30.7873819712
  0
LINE
  8
0
 62
7
  6
CONTINUOUS
 10
155.3549915869
 20
30.8841730531
 11
155.1815540869
 21
30.7873819712
  0
LINE
  8
0
 62
7
  6
CONTINUOUS
 10
157.4362415869
 20
31.5294468267
 11
157.320617028
 21
31.4649194539
  0
LINE
  8
0
 62
7
  6
CONTINUOUS
 10
157.320617028
 20
31.3358647082
 11
157.4362415869
 21
31.400392081
  0
LINE
  8
0
 62
7
  6
CONTINUOUS
 10
150.0362418212
 20
31.5617105132
 11
149.8628043005
 21
31.4971831403
  0
LINE
  8
0
 62
7
  6
CONTINUOUS
 10
152.4643666972
 20
31.5939741996
 11
152.2909293626
 21
31.5294468267
  0
LINE
  8
0
 62
7
  6
CONTINUOUS
 10
152.2909293626
 20
31.400392081
 11
152.4643666972
 21
31.4649194539
  0
LINE
  8
0
 62
7
  6
CONTINUOUS
 10
151.0768668626
 20
30.8196456577
 11
150.9034292799
 21
30.7551182848
  0
LINE
  8
0
 62
7
  6
CONTINUOUS
 10
160.5003043074
 20
30.7551182848
 11
160.269054528
 21
30.7228545871
  0
LINE
  8
0
 62
7
  6
CONTINUOUS
 10
154.8924916972
 20
30.5937998301
 11
155.1815540869
 21
30.6260635193
  0
LINE
  8
0
 62
7
  6
CONTINUOUS
 10
160.269054528
 20
30.5937998301
 11
160.615929528
 21
30.6260635193
  0
LINE
  8
0
 62
7
  6
CONTINUOUS
 10
150.5565542799
 20
30.5937998301
 11
150.9612418074
 21
30.6260635193
  0
LINE
  8
0
 62
7
  6
CONTINUOUS
 10
150.9034292799
 20
30.7551182848
 11
150.498741835
 21
30.7228545871
  0
LINE
  8
0
 62
7
  6
CONTINUOUS
 10
154.7768668074
 20
31.1422825445
 11
155.412804528
 21
31.1422825445
  0
LINE
  8
0
 62
7
  6
CONTINUOUS
 10
155.412804528
 20
31.2713373354
 11
154.7768668074
 21
31.2713373354
  0
LINE
  8
0
 62
7
  6
CONTINUOUS
 10
151.1346793074
 20
31.3036010218
 11
151.4237418626
 21
31.3036010218
  0
LINE
  8
0
 62
7
  6
CONTINUOUS
 10
153.9674919177
 20
31.3681283946
 11
154.2565543074
 21
31.3681283946
  0
LINE
  8
0
 62
7
  6
CONTINUOUS
 10
160.6737418074
 20
31.3681283946
 11
160.9628038663
 21
31.3681283946
  0
LINE
  8
0
 62
7
  6
CONTINUOUS
 10
154.6612419177
 20
31.4971831403
 11
155.0081169177
 21
31.4971831403
  0
LINE
  8
0
 62
7
  6
CONTINUOUS
 10
159.8065543074
 20
31.4971831403
 11
160.1534293074
 21
31.4971831403
  0
LINE
  8
0
 62
7
  6
CONTINUOUS
 10
160.1534293074
 20
31.626237886
 11
159.8065543074
 21
31.626237886
  0
LINE
  8
0
 62
7
  6
CONTINUOUS
 10
158.0721793074
 20
31.626237886
 11
157.840929528
 21
31.626237886
  0
LINE
  8
0
 62
7
  6
CONTINUOUS
 10
157.320617028
 20
31.626237886
 11
157.0315543074
 21
31.626237886
  0
LINE
  8
0
 62
7
  6
CONTINUOUS
 10
156.5690540869
 20
31.626237886
 11
156.279992028
 21
31.626237886
  0
LINE
  8
0
 62
7
  6
CONTINUOUS
 10
155.0081169177
 20
31.626237886
 11
154.6612419177
 21
31.626237886
  0
LINE
  8
0
 62
7
  6
CONTINUOUS
 10
152.9268669177
 20
31.626237886
 11
152.6956168074
 21
31.626237886
  0
LINE
  8
0
 62
7
  6
CONTINUOUS
 10
156.279992028
 20
31.9488748406
 11
156.5690540869
 21
31.9488748406
  0
LINE
  8
0
 62
7
  6
CONTINUOUS
 10
156.5690540869
 20
32.1101932727
 11
156.279992028
 21
32.1101932727
  0
LINE
  8
0
 62
7
  6
CONTINUOUS
 10
152.1753043074
 20
32.1101932727
 11
151.8862417523
 21
32.1101932727
  0
LINE
  8
0
 62
7
  6
CONTINUOUS
 10
151.2130860697
 20
32.3970785186
 11
151.6256574183
 21
32.3970785186
  0
LINE
  8
0
 62
7
  6
CONTINUOUS
 10
152.852430332
 20
32.3970785186
 11
154.245872955
 21
32.3970785186
  0
LINE
  8
0
 62
7
  6
CONTINUOUS
 10
154.5737418074
 20
32.3970785186
 11
155.9671844304
 21
32.3970785186
  0
LINE
  8
0
 62
7
  6
CONTINUOUS
 10
157.852430332
 20
32.3970785186
 11
159.245872955
 21
32.3970785186
  0
LINE
  8
0
 62
7
  6
CONTINUOUS
 10
159.5737418074
 20
32.3970785186
 11
160.9671844304
 21
32.3970785186
  0
LINE
  8
0
 62
7
  6
CONTINUOUS
 10
157.6096790869
 20
31.5939741996
 11
157.4362415869
 21
31.5294468267
  0
LINE
  8
0
 62
7
  6
CONTINUOUS
 10
155.1815540869
 20
30.6260635193
 11
155.3549915869
 21
30.6905909007
  0
LINE
  8
0
 62
7
  6
CONTINUOUS
 10
160.615929528
 20
30.6260635193
 11
160.8471793074
 21
30.6905909007
  0
LINE
  8
0
 62
7
  6
CONTINUOUS
 10
160.615929528
 20
30.7873819712
 11
160.5003043074
 21
30.7551182848
  0
LINE
  8
0
 62
7
  6
CONTINUOUS
 10
159.575304528
 20
31.4649194539
 11
159.8065543074
 21
31.4971831403
  0
LINE
  8
0
 62
7
  6
CONTINUOUS
 10
157.6096790869
 20
31.4649194539
 11
157.840929528
 21
31.4971831403
  0
LINE
  8
0
 62
7
  6
CONTINUOUS
 10
154.5456166972
 20
31.1100188581
 11
154.7768668074
 21
31.1422825445
  0
LINE
  8
0
 62
7
  6
CONTINUOUS
 10
157.840929528
 20
31.626237886
 11
157.6096790869
 21
31.5939741996
  0
LINE
  8
0
 62
7
  6
CONTINUOUS
 10
154.4299918074
 20
31.4649194539
 11
154.6612419177
 21
31.4971831403
  0
LINE
  8
0
 62
7
  6
CONTINUOUS
 10
159.8065543074
 20
31.626237886
 11
159.4596793074
 21
31.5939741996
  0
LINE
  8
0
 62
7
  6
CONTINUOUS
 10
154.7768668074
 20
31.2713373354
 11
154.4299918074
 21
31.2390736489
  0
LINE
  8
0
 62
7
  6
CONTINUOUS
 10
150.5565542799
 20
31.626237886
 11
150.2096793212
 21
31.5939741996
  0
LINE
  8
0
 62
7
  6
CONTINUOUS
 10
154.6612419177
 20
31.626237886
 11
154.2565543074
 21
31.5939741996
  0
LINE
  8
0
 62
7
  6
CONTINUOUS
 10
152.0327582009
 20
33.5446195022
 11
151.3770204959
 21
33.5446195022
  0
LINE
  8
0
 62
7
  6
CONTINUOUS
 10
157.4362415869
 20
31.400392081
 11
157.6096790869
 21
31.4649194539
  0
LINE
  8
0
 62
7
  6
CONTINUOUS
 10
159.4596793074
 20
31.4326557675
 11
159.575304528
 21
31.4649194539
  0
LINE
  8
0
 62
7
  6
CONTINUOUS
 10
159.4596793074
 20
31.5939741996
 11
159.228429528
 21
31.5294468267
  0
LINE
  8
0
 62
7
  6
CONTINUOUS
 10
155.1815540869
 20
30.7873819712
 11
154.8924916972
 21
30.7228545871
  0
LINE
  8
0
 62
7
  6
CONTINUOUS
 10
152.4643666972
 20
31.4649194539
 11
152.6956168074
 21
31.4971831403
  0
LINE
  8
0
 62
7
  6
CONTINUOUS
 10
152.6956168074
 20
31.626237886
 11
152.4643666972
 21
31.5939741996
  0
LINE
  8
0
 62
7
  6
CONTINUOUS
 10
150.2674918074
 20
31.4649194539
 11
150.498741835
 21
31.4971831403
  0
LINE
  8
0
 62
7
  6
CONTINUOUS
 10
156.7868565615
 20
35.0200293383
 11
157.4425942664
 21
35.0200293383
  0
LINE
  8
0
 62
7
  6
CONTINUOUS
 10
154.4299918074
 20
31.0777551716
 11
154.5456166972
 21
31.1100188581
  0
LINE
  8
0
 62
7
  6
CONTINUOUS
 10
154.4299918074
 20
31.2390736489
 11
154.1987416972
 21
31.1745462761
  0
LINE
  8
0
 62
7
  6
CONTINUOUS
 10
154.3143669177
 20
31.4326557675
 11
154.4299918074
 21
31.4649194539
  0
LINE
  8
0
 62
7
  6
CONTINUOUS
 10
150.9612418074
 20
30.6260635193
 11
151.1924917523
 21
30.6905909007
  0
LINE
  8
0
 62
7
  6
CONTINUOUS
 10
154.2565543074
 20
31.5939741996
 11
154.1409294177
 21
31.5617105132
  0
LINE
  8
0
 62
7
  6
CONTINUOUS
 10
150.2096793212
 20
31.5939741996
 11
150.0362418212
 21
31.5617105132
  0
LINE
  8
0
 62
7
  6
CONTINUOUS
 10
160.9671844304
 20
36.1675703219
 11
159.5737418074
 21
36.1675703219
  0
LINE
  8
0
 62
7
  6
CONTINUOUS
 10
157.6065286927
 20
36.1675703219
 11
157.1939573441
 21
36.1675703219
  0
LINE
  8
0
 62
7
  6
CONTINUOUS
 10
155.9671844304
 20
36.1675703219
 11
154.5737418074
 21
36.1675703219
  0
LINE
  8
0
 62
7
  6
CONTINUOUS
 10
154.245872955
 20
36.1675703219
 11
152.852430332
 21
36.1675703219
  0
LINE
  8
0
 62
7
  6
CONTINUOUS
 10
150.9671844304
 20
36.1675703219
 11
149.5737418074
 21
36.1675703219
  0
LINE
  8
0
 62
7
  6
CONTINUOUS
 10
150.1518667936
 20
31.4326557675
 11
150.2674918074
 21
31.4649194539
  0
CIRCLE
  8
0
 62
7
  6
CONTINUOUS
 10
160.2704631189
 20
38.5036358957
 40
2.0901639344
  0
ARC
  8
0
 62
7
  6
CONTINUOUS
 10
151.2130860697
 20
34.0364227809
 40
1.6393442623
 50
180.0
 51
270.0
  0
ARC
  8
0
 62
7
  6
CONTINUOUS
 10
157.6065286927
 20
34.5282260596
 40
1.6393442623
 50
0.0
 51
90.0
  0
ARC
  8
0
 62
7
  6
CONTINUOUS
 10
151.6256574183
 20
33.8724883547
 40
1.4754098361
 50
270.0
 51
326.2510114041
  0
ARC
  8
0
 62
7
  6
CONTINUOUS
 10
157.1939573441
 20
34.6921604858
 40
1.4754098361
 50
90.0
 51
146.2510114041
  0
ARC
  8
0
 62
7
  6
CONTINUOUS
 10
152.0327582009
 20
34.3642916334
 40
0.8196721311
 50
270.0
 51
360.0
  0
ARC
  8
0
 62
7
  6
CONTINUOUS
 10
156.7868565615
 20
34.2003572071
 40
0.8196721311
 50
90.0
 51
180.0
  0
ARC
  8
0
 62
7
  6
CONTINUOUS
 10
151.3770204959
 20
33.9544555678
 40
0.4098360656
 50
180.0
 51
270.0
  0
ARC
  8
0
 62
7
  6
CONTINUOUS
 10
157.4425942664
 20
34.6101932727
 40
0.4098360656
 50
0.0
 51
90.0
  0
SOLID
  8
0
 62
7
  6
CONTINUOUS
 10
156.279992028
 20
31.9488752009
 11
156.279992028
 21
32.1101936845
 12
156.5690540869
 22
31.9488752009
 13
156.5690540869
 23
32.1101936845
  0
SOLID
  8
0
 62
7
  6
CONTINUOUS
 10
150.5565542799
 20
31.6262382337
 11
150.9612418074
 21
31.5939740028
 12
150.2096793212
 22
31.5939740028
 13
150.2096793212
 23
31.5939740028
  0
SOLID
  8
0
 62
7
  6
CONTINUOUS
 10
150.0362418212
 20
31.5617111435
 11
150.2096793212
 21
31.5939740028
 12
150.9612418074
 22
31.5939740028
 13
150.9612418074
 23
31.5939740028
  0
SOLID
  8
0
 62
7
  6
CONTINUOUS
 10
150.9612418074
 20
31.5939740028
 11
151.1924917523
 21
31.5294468402
 12
150.0362418212
 22
31.5617111435
 13
150.0362418212
 23
31.5617111435
  0
SOLID
  8
0
 62
7
  6
CONTINUOUS
 10
149.8628043005
 20
31.49718259
 11
150.0362418212
 21
31.5617111435
 12
151.1924917523
 22
31.5294468402
 13
151.1924917523
 23
31.5294468402
  0
SOLID
  8
0
 62
7
  6
CONTINUOUS
 10
149.8628043005
 20
31.49718259
 11
151.1924917523
 21
31.5294468402
 12
150.498741835
 22
31.49718259
 13
150.498741835
 23
31.49718259
  0
SOLID
  8
0
 62
7
  6
CONTINUOUS
 10
150.498741835
 20
31.49718259
 11
151.1924917523
 21
31.5294468402
 12
150.9034292799
 22
31.4649197501
 13
150.9034292799
 23
31.4649197501
  0
SOLID
  8
0
 62
7
  6
CONTINUOUS
 10
151.1924917523
 20
31.5294468402
 11
151.3659292523
 21
31.4326554468
 12
150.9034292799
 22
31.4649197501
 13
150.9034292799
 23
31.4649197501
  0
SOLID
  8
0
 62
7
  6
CONTINUOUS
 10
151.0768668626
 20
31.4003926599
 11
150.9034292799
 21
31.4649197501
 12
151.3659292523
 22
31.4326554468
 13
151.3659292523
 23
31.4326554468
  0
SOLID
  8
0
 62
7
  6
CONTINUOUS
 10
151.0768668626
 20
31.4003926599
 11
151.3659292523
 21
31.4326554468
 12
151.1346793074
 22
31.3036013776
 13
151.1346793074
 23
31.3036013776
  0
SOLID
  8
0
 62
7
  6
CONTINUOUS
 10
151.3659292523
 20
31.4326554468
 11
151.4237418626
 21
31.3036013776
 12
151.1346793074
 22
31.3036013776
 13
151.1346793074
 23
31.3036013776
  0
SOLID
  8
0
 62
7
  6
CONTINUOUS
 10
152.4643666972
 20
31.5939739754
 11
152.6956168074
 21
31.6262382787
 12
152.9268669177
 22
31.6262382787
 13
152.9268669177
 23
31.6262382787
  0
SOLID
  8
0
 62
7
  6
CONTINUOUS
 10
152.9268669177
 20
31.6262382787
 11
153.1003044177
 21
31.5939739754
 12
152.4643666972
 22
31.5939739754
 13
152.4643666972
 23
31.5939739754
  0
SOLID
  8
0
 62
7
  6
CONTINUOUS
 10
152.2909293626
 20
31.5294468852
 11
152.4643666972
 21
31.5939739754
 12
153.1003044177
 22
31.5939739754
 13
153.1003044177
 23
31.5939739754
  0
SOLID
  8
0
 62
7
  6
CONTINUOUS
 10
153.1003044177
 20
31.5939739754
 11
153.2737419177
 21
31.5294468852
 12
152.2909293626
 22
31.5294468852
 13
152.2909293626
 23
31.5294468852
  0
SOLID
  8
0
 62
7
  6
CONTINUOUS
 10
153.2737419177
 20
31.5294468852
 11
152.6956168074
 21
31.4971825369
 12
152.2909293626
 22
31.5294468852
 13
152.2909293626
 23
31.5294468852
  0
SOLID
  8
0
 62
7
  6
CONTINUOUS
 10
152.1753043074
 20
31.4649197951
 11
152.2909293626
 21
31.5294468852
 12
152.6956168074
 22
31.4971825369
 13
152.6956168074
 23
31.4971825369
  0
SOLID
  8
0
 62
7
  6
CONTINUOUS
 10
152.6956168074
 20
31.4971825369
 11
152.4643666972
 21
31.4649197951
 12
152.1753043074
 22
31.4649197951
 13
152.1753043074
 23
31.4649197951
  0
SOLID
  8
0
 62
7
  6
CONTINUOUS
 10
152.6956168074
 20
31.4971825369
 11
153.2737419177
 21
31.5294468852
 12
152.9268669177
 22
31.4649197951
 13
152.9268669177
 23
31.4649197951
  0
SOLID
  8
0
 62
7
  6
CONTINUOUS
 10
153.2737419177
 20
31.5294468852
 11
153.3893668074
 21
31.4649197951
 12
152.9268669177
 22
31.4649197951
 13
152.9268669177
 23
31.4649197951
  0
SOLID
  8
0
 62
7
  6
CONTINUOUS
 10
153.0424918074
 20
31.4326554468
 11
152.9268669177
 21
31.4649197951
 12
153.3893668074
 22
31.4649197951
 13
153.3893668074
 23
31.4649197951
  0
SOLID
  8
0
 62
7
  6
CONTINUOUS
 10
153.3893668074
 20
31.4649197951
 11
153.4471794177
 21
31.4003927049
 12
153.0424918074
 22
31.4326554468
 13
153.0424918074
 23
31.4326554468
  0
SOLID
  8
0
 62
7
  6
CONTINUOUS
 10
153.1581166972
 20
31.3681283566
 11
153.0424918074
 21
31.4326554468
 12
153.4471794177
 22
31.4003927049
 13
153.4471794177
 23
31.4003927049
  0
SOLID
  8
0
 62
7
  6
CONTINUOUS
 10
153.1581166972
 20
31.3681283566
 11
153.4471794177
 21
31.4003927049
 12
153.2159293074
 22
31.2390742213
 13
153.2159293074
 23
31.2390742213
  0
SOLID
  8
0
 62
7
  6
CONTINUOUS
 10
153.4471794177
 20
31.4003927049
 11
153.5049916972
 21
31.2390742213
 12
153.2159293074
 22
31.2390742213
 13
153.2159293074
 23
31.2390742213
  0
SOLID
  8
0
 62
7
  6
CONTINUOUS
 10
152.4643666972
 20
31.4649197951
 11
152.2909293626
 21
31.4003927049
 12
152.1753043074
 22
31.4649197951
 13
152.1753043074
 23
31.4649197951
  0
SOLID
  8
0
 62
7
  6
CONTINUOUS
 10
152.2909293626
 20
31.4003927049
 11
152.1753043074
 21
31.3358640533
 12
152.1753043074
 22
31.4649197951
 13
152.1753043074
 23
31.4649197951
  0
SOLID
  8
0
 62
7
  6
CONTINUOUS
 10
152.1753043074
 20
31.3358640533
 11
151.8862417523
 21
30.5938002869
 12
152.1753043074
 22
31.4649197951
 13
152.1753043074
 23
31.4649197951
  0
SOLID
  8
0
 62
7
  6
CONTINUOUS
 10
152.1753043074
 20
31.4649197951
 11
151.8862417523
 21
30.5938002869
 12
152.1753043074
 22
32.1101937295
 13
152.1753043074
 23
32.1101937295
  0
SOLID
  8
0
 62
7
  6
CONTINUOUS
 10
151.8862417523
 20
30.5938002869
 11
151.8862417523
 21
32.1101937295
 12
152.1753043074
 22
32.1101937295
 13
152.1753043074
 23
32.1101937295
  0
SOLID
  8
0
 62
7
  6
CONTINUOUS
 10
152.1753043074
 20
31.3358640533
 11
152.1753043074
 21
30.5938002869
 12
151.8862417523
 22
30.5938002869
 13
151.8862417523
 23
30.5938002869
  0
SOLID
  8
0
 62
7
  6
CONTINUOUS
 10
153.2159293074
 20
30.5938002869
 11
153.2159293074
 21
31.2390742213
 12
153.5049916972
 22
31.2390742213
 13
153.5049916972
 23
31.2390742213
  0
SOLID
  8
0
 62
7
  6
CONTINUOUS
 10
153.5049916972
 20
31.2390742213
 11
153.5049916972
 21
30.5938002869
 12
153.2159293074
 22
30.5938002869
 13
153.2159293074
 23
30.5938002869
  0
SOLID
  8
0
 62
7
  6
CONTINUOUS
 10
154.2565543074
 20
31.5939738288
 11
154.6612419177
 21
31.6262385959
 12
155.0081169177
 22
31.6262385959
 13
155.0081169177
 23
31.6262385959
  0
SOLID
  8
0
 62
7
  6
CONTINUOUS
 10
155.0081169177
 20
31.6262385959
 11
155.3549915869
 21
31.5939738288
 12
154.2565543074
 22
31.5939738288
 13
154.2565543074
 23
31.5939738288
  0
SOLID
  8
0
 62
7
  6
CONTINUOUS
 10
154.1409294177
 20
31.5617111435
 11
154.2565543074
 21
31.5939738288
 12
155.3549915869
 22
31.5939738288
 13
155.3549915869
 23
31.5939738288
  0
SOLID
  8
0
 62
7
  6
CONTINUOUS
 10
155.3549915869
 20
31.5939738288
 11
155.5284290869
 21
31.5294468402
 12
154.1409294177
 22
31.5617111435
 13
154.1409294177
 23
31.5617111435
  0
SOLID
  8
0
 62
7
  6
CONTINUOUS
 10
154.0253041972
 20
31.4971826249
 11
154.1409294177
 21
31.5617111435
 12
155.5284290869
 22
31.5294468402
 13
155.5284290869
 23
31.5294468402
  0
SOLID
  8
0
 62
7
  6
CONTINUOUS
 10
154.0253041972
 20
31.4971826249
 11
155.5284290869
 21
31.5294468402
 12
154.6612419177
 22
31.4971826249
 13
154.6612419177
 23
31.4971826249
  0
SOLID
  8
0
 62
7
  6
CONTINUOUS
 10
154.6612419177
 20
31.4971826249
 11
155.5284290869
 21
31.5294468402
 12
155.0081169177
 22
31.4971826249
 13
155.0081169177
 23
31.4971826249
  0
SOLID
  8
0
 62
7
  6
CONTINUOUS
 10
155.0081169177
 20
31.4971826249
 11
155.5284290869
 21
31.5294468402
 12
155.239367028
 22
31.4649194065
 13
155.239367028
 23
31.4649194065
  0
SOLID
  8
0
 62
7
  6
CONTINUOUS
 10
155.5284290869
 20
31.5294468402
 11
155.6440543074
 21
31.4649194065
 12
155.239367028
 22
31.4649194065
 13
155.239367028
 23
31.4649194065
  0
SOLID
  8
0
 62
7
  6
CONTINUOUS
 10
153.9674919177
 20
31.4326554138
 11
154.0253041972
 21
31.4971826249
 12
154.6612419177
 22
31.4971826249
 13
154.6612419177
 23
31.4971826249
  0
SOLID
  8
0
 62
7
  6
CONTINUOUS
 10
155.3549915869
 20
31.4326554138
 11
155.239367028
 21
31.4649194065
 12
155.6440543074
 22
31.4649194065
 13
155.6440543074
 23
31.4649194065
  0
SOLID
  8
0
 62
7
  6
CONTINUOUS
 10
155.3549915869
 20
31.4326554138
 11
155.6440543074
 21
31.4649194065
 12
155.412804528
 22
31.3681282026
 13
155.412804528
 23
31.3681282026
  0
SOLID
  8
0
 62
7
  6
CONTINUOUS
 10
155.6440543074
 20
31.4649194065
 11
155.7018665869
 21
31.3681282026
 12
155.412804528
 22
31.3681282026
 13
155.412804528
 23
31.3681282026
  0
SOLID
  8
0
 62
7
  6
CONTINUOUS
 10
155.412804528
 20
31.2713369632
 11
155.412804528
 21
31.3681282026
 12
155.7018665869
 22
31.3681282026
 13
155.7018665869
 23
31.3681282026
  0
SOLID
  8
0
 62
7
  6
CONTINUOUS
 10
155.412804528
 20
31.2713369632
 11
155.7018665869
 21
31.3681282026
 12
155.412804528
 22
31.1422827828
 13
155.412804528
 23
31.1422827828
  0
SOLID
  8
0
 62
7
  6
CONTINUOUS
 10
155.412804528
 20
31.1422827828
 11
155.7018665869
 21
31.3681282026
 12
155.412804528
 22
30.9487004259
 13
155.412804528
 23
30.9487004259
  0
SOLID
  8
0
 62
7
  6
CONTINUOUS
 10
155.7018665869
 20
31.3681282026
 11
155.7018665869
 21
30.8519086025
 12
155.412804528
 22
30.9487004259
 13
155.412804528
 23
30.9487004259
  0
SOLID
  8
0
 62
7
  6
CONTINUOUS
 10
157.6096790869
 20
31.5939736268
 11
157.840929528
 21
31.6262383465
 12
158.0721793074
 22
31.6262383465
 13
158.0721793074
 23
31.6262383465
  0
SOLID
  8
0
 62
7
  6
CONTINUOUS
 10
158.0721793074
 20
31.6262383465
 11
158.2456168074
 21
31.5939736268
 12
157.6096790869
 22
31.5939736268
 13
157.6096790869
 23
31.5939736268
  0
SOLID
  8
0
 62
7
  6
CONTINUOUS
 10
157.4362415869
 20
31.5294472848
 11
157.6096790869
 21
31.5939736268
 12
158.2456168074
 22
31.5939736268
 13
158.2456168074
 23
31.5939736268
  0
SOLID
  8
0
 62
7
  6
CONTINUOUS
 10
158.2456168074
 20
31.5939736268
 11
158.4190543074
 21
31.5294472848
 12
157.4362415869
 22
31.5294472848
 13
157.4362415869
 23
31.5294472848
  0
SOLID
  8
0
 62
7
  6
CONTINUOUS
 10
158.4190543074
 20
31.5294472848
 11
157.840929528
 21
31.4971825369
 12
157.4362415869
 22
31.5294472848
 13
157.4362415869
 23
31.5294472848
  0
SOLID
  8
0
 62
7
  6
CONTINUOUS
 10
157.320617028
 20
31.4649199103
 11
157.4362415869
 21
31.5294472848
 12
157.840929528
 22
31.4971825369
 13
157.840929528
 23
31.4971825369
  0
SOLID
  8
0
 62
7
  6
CONTINUOUS
 10
157.840929528
 20
31.4971825369
 11
157.6096790869
 21
31.4649199103
 12
157.320617028
 22
31.4649199103
 13
157.320617028
 23
31.4649199103
  0
SOLID
  8
0
 62
7
  6
CONTINUOUS
 10
157.840929528
 20
31.4971825369
 11
158.4190543074
 21
31.5294472848
 12
158.0721793074
 22
31.4649199103
 13
158.0721793074
 23
31.4649199103
  0
SOLID
  8
0
 62
7
  6
CONTINUOUS
 10
158.4190543074
 20
31.5294472848
 11
158.534679528
 21
31.4649199103
 12
158.0721793074
 22
31.4649199103
 13
158.0721793074
 23
31.4649199103
  0
SOLID
  8
0
 62
7
  6
CONTINUOUS
 10
158.187804528
 20
31.4326554468
 11
158.0721793074
 21
31.4649199103
 12
158.534679528
 22
31.4649199103
 13
158.534679528
 23
31.4649199103
  0
SOLID
  8
0
 62
7
  6
CONTINUOUS
 10
158.187804528
 20
31.4326554468
 11
158.534679528
 21
31.4649199103
 12
158.3034290869
 22
31.3681288486
 13
158.3034290869
 23
31.3681288486
  0
SOLID
  8
0
 62
7
  6
CONTINUOUS
 10
158.534679528
 20
31.4649199103
 11
158.5924918074
 21
31.3681288486
 12
158.3034290869
 22
31.3681288486
 13
158.3034290869
 23
31.3681288486
  0
SOLID
  8
0
 62
7
  6
CONTINUOUS
 10
158.361242028
 20
31.2068093799
 11
158.3034290869
 21
31.3681288486
 12
158.5924918074
 22
31.3681288486
 13
158.5924918074
 23
31.3681288486
  0
SOLID
  8
0
 62
7
  6
CONTINUOUS
 10
158.5924918074
 20
31.3681288486
 11
158.6503040869
 21
31.2068093799
 12
158.361242028
 22
31.2068093799
 13
158.361242028
 23
31.2068093799
  0
SOLID
  8
0
 62
7
  6
CONTINUOUS
 10
157.6096790869
 20
31.4649199103
 11
157.4362415869
 21
31.4003926599
 12
157.320617028
 22
31.4649199103
 13
157.320617028
 23
31.4649199103
  0
SOLID
  8
0
 62
7
  6
CONTINUOUS
 10
157.4362415869
 20
31.4003926599
 11
157.320617028
 21
31.3358640533
 12
157.320617028
 22
31.4649199103
 13
157.320617028
 23
31.4649199103
  0
SOLID
  8
0
 62
7
  6
CONTINUOUS
 10
157.320617028
 20
31.3358640533
 11
157.0315543074
 21
30.5938003547
 12
157.320617028
 22
31.4649199103
 13
157.320617028
 23
31.4649199103
  0
SOLID
  8
0
 62
7
  6
CONTINUOUS
 10
157.320617028
 20
31.4649199103
 11
157.0315543074
 21
30.5938003547
 12
157.320617028
 22
31.6262383465
 13
157.320617028
 23
31.6262383465
  0
SOLID
  8
0
 62
7
  6
CONTINUOUS
 10
157.0315543074
 20
30.5938003547
 11
157.0315543074
 21
31.6262383465
 12
157.320617028
 22
31.6262383465
 13
157.320617028
 23
31.6262383465
  0
SOLID
  8
0
 62
7
  6
CONTINUOUS
 10
157.320617028
 20
31.3358640533
 11
157.320617028
 21
30.5938003547
 12
157.0315543074
 22
30.5938003547
 13
157.0315543074
 23
30.5938003547
  0
SOLID
  8
0
 62
7
  6
CONTINUOUS
 10
158.361242028
 20
30.5938003547
 11
158.361242028
 21
31.2068093799
 12
158.6503040869
 22
31.2068093799
 13
158.6503040869
 23
31.2068093799
  0
SOLID
  8
0
 62
7
  6
CONTINUOUS
 10
158.6503040869
 20
31.2068093799
 11
158.6503040869
 21
30.5938003547
 12
158.361242028
 22
30.5938003547
 13
158.361242028
 23
30.5938003547
  0
SOLID
  8
0
 62
7
  6
CONTINUOUS
 10
159.4596793074
 20
31.5939739474
 11
159.8065543074
 21
31.6262381969
 12
160.1534293074
 22
31.6262381969
 13
160.1534293074
 23
31.6262381969
  0
SOLID
  8
0
 62
7
  6
CONTINUOUS
 10
160.1534293074
 20
31.6262381969
 11
160.5003043074
 21
31.5939739474
 12
159.4596793074
 22
31.5939739474
 13
159.4596793074
 23
31.5939739474
  0
SOLID
  8
0
 62
7
  6
CONTINUOUS
 10
159.228429528
 20
31.5294468402
 11
159.4596793074
 21
31.5939739474
 12
160.5003043074
 22
31.5939739474
 13
160.5003043074
 23
31.5939739474
  0
SOLID
  8
0
 62
7
  6
CONTINUOUS
 10
159.228429528
 20
31.5294468402
 11
160.5003043074
 21
31.5939739304
 12
160.6737418074
 22
31.5617111435
 13
160.6737418074
 23
31.5617111435
  0
SOLID
  8
0
 62
7
  6
CONTINUOUS
 10
159.228429528
 20
31.5294468402
 11
160.6737418074
 21
31.5617111435
 12
159.8065543074
 22
31.4971825592
 13
159.8065543074
 23
31.4971825592
  0
SOLID
  8
0
 62
7
  6
CONTINUOUS
 10
159.8065543074
 20
31.4971825592
 11
160.6737418074
 21
31.5617111435
 12
160.1534293074
 22
31.4971825592
 13
160.1534293074
 23
31.4971825592
  0
SOLID
  8
0
 62
7
  6
CONTINUOUS
 10
160.6737418074
 20
31.5617111435
 11
160.8471793074
 21
31.4971825592
 12
160.1534293074
 22
31.4971825592
 13
160.1534293074
 23
31.4971825592
  0
SOLID
  8
0
 62
7
  6
CONTINUOUS
 10
160.5003043074
 20
31.4649197501
 11
160.1534293074
 21
31.4971825592
 12
160.8471793074
 22
31.4971825592
 13
160.8471793074
 23
31.4971825592
  0
SOLID
  8
0
 62
7
  6
CONTINUOUS
 10
159.1128043074
 20
31.4326555427
 11
159.228429528
 21
31.5294468402
 12
159.8065543074
 22
31.4971825592
 13
159.8065543074
 23
31.4971825592
  0
SOLID
  8
0
 62
7
  6
CONTINUOUS
 10
160.5003043074
 20
31.4649197501
 11
160.8471793074
 21
31.4971825592
 12
160.615929528
 22
31.4326555427
 13
160.615929528
 23
31.4326555427
  0
SOLID
  8
0
 62
7
  6
CONTINUOUS
 10
160.615929528
 20
31.4326555427
 11
160.8471793074
 21
31.4971825592
 12
160.6737418074
 22
31.3681283005
 13
160.6737418074
 23
31.3681283005
  0
SOLID
  8
0
 62
7
  6
CONTINUOUS
 10
160.8471793074
 20
31.4971825592
 11
160.9628038663
 21
31.3681283005
 12
160.6737418074
 22
31.3681283005
 13
160.6737418074
 23
31.3681283005
  0
SOLID
  8
0
 62
7
  6
CONTINUOUS
 10
150.2674918074
 20
31.4649197501
 11
149.7471793074
 21
31.4326554237
 12
150.498741835
 22
31.4971824493
 13
150.498741835
 23
31.4971824493
  0
SOLID
  8
0
 62
7
  6
CONTINUOUS
 10
149.7471793074
 20
31.4326554237
 11
149.8628043005
 21
31.4971824493
 12
150.498741835
 22
31.4971824493
 13
150.498741835
 23
31.4971824493
  0
SOLID
  8
0
 62
7
  6
CONTINUOUS
 10
150.2674918074
 20
31.4649197501
 11
150.1518667936
 21
31.4326554237
 12
149.7471793074
 22
31.4326554237
 13
149.7471793074
 23
31.4326554237
  0
SOLID
  8
0
 62
7
  6
CONTINUOUS
 10
149.6315543091
 20
31.3036012664
 11
149.7471793074
 21
31.4326554237
 12
150.1518667936
 22
31.4326554237
 13
150.1518667936
 23
31.4326554237
  0
SOLID
  8
0
 62
7
  6
CONTINUOUS
 10
153.9674919177
 20
31.4326554237
 11
154.6612419177
 21
31.4971825369
 12
154.4299918074
 22
31.4649197501
 13
154.4299918074
 23
31.4649197501
  0
SOLID
  8
0
 62
7
  6
CONTINUOUS
 10
154.4299918074
 20
31.4649197501
 11
154.3143669177
 21
31.4326554237
 12
153.9674919177
 22
31.4326554237
 13
153.9674919177
 23
31.4326554237
  0
SOLID
  8
0
 62
7
  6
CONTINUOUS
 10
153.9674919177
 20
31.3681283335
 11
153.9674919177
 21
31.4326554237
 12
154.3143669177
 22
31.4326554237
 13
154.3143669177
 23
31.4326554237
  0
SOLID
  8
0
 62
7
  6
CONTINUOUS
 10
154.3143669177
 20
31.4326554237
 11
154.2565543074
 21
31.3681283335
 12
153.9674919177
 22
31.3681283335
 13
153.9674919177
 23
31.3681283335
  0
SOLID
  8
0
 62
7
  6
CONTINUOUS
 10
159.1128043074
 20
31.4326555528
 11
159.8065543074
 21
31.4971825369
 12
159.575304528
 22
31.4649197501
 13
159.575304528
 23
31.4649197501
  0
SOLID
  8
0
 62
7
  6
CONTINUOUS
 10
159.575304528
 20
31.4649197501
 11
159.4596793074
 21
31.4326555528
 12
159.1128043074
 22
31.4326555528
 13
159.1128043074
 23
31.4326555528
  0
SOLID
  8
0
 62
7
  6
CONTINUOUS
 10
159.1128043074
 20
31.3681284626
 11
159.1128043074
 21
31.4326555528
 12
159.4596793074
 22
31.4326555528
 13
159.4596793074
 23
31.4326555528
  0
SOLID
  8
0
 62
7
  6
CONTINUOUS
 10
159.4596793074
 20
31.4326555528
 11
159.401867028
 21
31.3681284626
 12
159.1128043074
 22
31.3681284626
 13
159.1128043074
 23
31.3681284626
  0
SOLID
  8
0
 62
7
  6
CONTINUOUS
 10
159.228429528
 20
31.2390741763
 11
159.1128043074
 21
31.3681284626
 12
159.401867028
 22
31.3681284626
 13
159.401867028
 23
31.3681284626
  0
SOLID
  8
0
 62
7
  6
CONTINUOUS
 10
149.6315543091
 20
31.3036012664
 11
150.1518667936
 21
31.4326554468
 12
149.9784292936
 22
31.3358640533
 13
149.9784292936
 23
31.3358640533
  0
SOLID
  8
0
 62
7
  6
CONTINUOUS
 10
149.9784292936
 20
31.3358640533
 11
149.9206168074
 21
31.2713369632
 12
149.6315543091
 22
31.3036012664
 13
149.6315543091
 23
31.3036012664
  0
SOLID
  8
0
 62
7
  6
CONTINUOUS
 10
149.5737418074
 20
31.1100184796
 11
149.6315543091
 21
31.3036012664
 12
149.9206168074
 22
31.2713369632
 13
149.9206168074
 23
31.2713369632
  0
SOLID
  8
0
 62
7
  6
CONTINUOUS
 10
154.4299918074
 20
31.2390741763
 11
154.7768668074
 21
31.271336924
 12
155.412804528
 22
31.271336924
 13
155.412804528
 23
31.271336924
  0
SOLID
  8
0
 62
7
  6
CONTINUOUS
 10
154.4299918074
 20
31.2390741763
 11
155.412804528
 21
31.271336924
 12
154.1987416972
 22
31.1745462761
 13
154.1987416972
 23
31.1745462761
  0
SOLID
  8
0
 62
7
  6
CONTINUOUS
 10
154.1987416972
 20
31.1745462761
 11
155.412804528
 21
31.271336924
 12
154.7768668074
 22
31.1422827436
 13
154.7768668074
 23
31.1422827436
  0
SOLID
  8
0
 62
7
  6
CONTINUOUS
 10
155.412804528
 20
31.271336924
 11
155.412804528
 21
31.1422827436
 12
154.7768668074
 22
31.1422827436
 13
154.7768668074
 23
31.1422827436
  0
SOLID
  8
0
 62
7
  6
CONTINUOUS
 10
159.228429528
 20
31.2390745501
 11
159.401867028
 21
31.3681283566
 12
159.4596793074
 22
31.3036012664
 13
159.4596793074
 23
31.3036012664
  0
SOLID
  8
0
 62
7
  6
CONTINUOUS
 10
159.4596793074
 20
31.3036012664
 11
159.6331168074
 21
31.2390745501
 12
159.228429528
 22
31.2390745501
 13
159.228429528
 23
31.2390745501
  0
SOLID
  8
0
 62
7
  6
CONTINUOUS
 10
159.4596793074
 20
31.1422827828
 11
159.228429528
 21
31.2390745501
 12
159.6331168074
 22
31.2390745501
 13
159.6331168074
 23
31.2390745501
  0
SOLID
  8
0
 62
7
  6
CONTINUOUS
 10
159.6331168074
 20
31.2390745501
 11
160.615929528
 21
31.0777556927
 12
159.4596793074
 22
31.1422827828
 13
159.4596793074
 23
31.1422827828
  0
SOLID
  8
0
 62
7
  6
CONTINUOUS
 10
160.442492028
 20
30.9809646623
 11
159.4596793074
 21
31.1422827828
 12
160.615929528
 22
31.0777556927
 13
160.615929528
 23
31.0777556927
  0
SOLID
  8
0
 62
7
  6
CONTINUOUS
 10
160.615929528
 20
31.0777556927
 11
160.8471793074
 21
30.9809646623
 12
160.442492028
 22
30.9809646623
 13
160.442492028
 23
30.9809646623
  0
SOLID
  8
0
 62
7
  6
CONTINUOUS
 10
160.615929528
 20
30.9164372091
 11
160.442492028
 21
30.9809646623
 12
160.8471793074
 22
30.9809646623
 13
160.8471793074
 23
30.9809646623
  0
SOLID
  8
0
 62
7
  6
CONTINUOUS
 10
160.615929528
 20
30.9164372091
 11
160.8471793074
 21
30.9809646623
 12
160.6737418074
 22
30.8519089441
 13
160.6737418074
 23
30.8519089441
  0
SOLID
  8
0
 62
7
  6
CONTINUOUS
 10
160.8471793074
 20
30.9809646623
 11
160.9628038663
 21
30.8519089441
 12
160.6737418074
 22
30.8519089441
 13
160.6737418074
 23
30.8519089441
  0
SOLID
  8
0
 62
7
  6
CONTINUOUS
 10
160.615929528
 20
30.7873818593
 11
160.6737418074
 21
30.8519089441
 12
160.9628038663
 22
30.8519089441
 13
160.9628038663
 23
30.8519089441
  0
SOLID
  8
0
 62
7
  6
CONTINUOUS
 10
160.9628038663
 20
30.8519089441
 11
160.9628038663
 21
30.7873818593
 12
160.615929528
 22
30.7873818593
 13
160.615929528
 23
30.7873818593
  0
SOLID
  8
0
 62
7
  6
CONTINUOUS
 10
160.5003043074
 20
30.7551187255
 11
160.615929528
 21
30.7873818593
 12
160.9628038663
 22
30.7873818593
 13
160.9628038663
 23
30.7873818593
  0
SOLID
  8
0
 62
7
  6
CONTINUOUS
 10
160.5003043074
 20
30.7551187255
 11
160.9628038663
 21
30.7873818593
 12
160.269054528
 22
30.7228547745
 13
160.269054528
 23
30.7228547745
  0
SOLID
  8
0
 62
7
  6
CONTINUOUS
 10
160.9628038663
 20
30.7873818593
 11
160.8471793074
 21
30.6905916353
 12
160.269054528
 22
30.7228547745
 13
160.269054528
 23
30.7228547745
  0
SOLID
  8
0
 62
7
  6
CONTINUOUS
 10
160.8471793074
 20
30.6905916353
 11
159.401867028
 21
30.658327332
 12
160.269054528
 22
30.7228547745
 13
160.269054528
 23
30.7228547745
  0
SOLID
  8
0
 62
7
  6
CONTINUOUS
 10
160.269054528
 20
30.7228547745
 11
159.401867028
 21
30.658327332
 12
159.922179528
 22
30.7228547745
 13
159.922179528
 23
30.7228547745
  0
SOLID
  8
0
 62
7
  6
CONTINUOUS
 10
159.401867028
 20
30.658327332
 11
159.228429528
 21
30.7228547745
 12
159.922179528
 22
30.7228547745
 13
159.922179528
 23
30.7228547745
  0
SOLID
  8
0
 62
7
  6
CONTINUOUS
 10
159.401867028
 20
30.658327332
 11
160.8471793074
 21
30.6905916353
 12
159.575304528
 22
30.6260629858
 13
159.575304528
 23
30.6260629858
  0
SOLID
  8
0
 62
7
  6
CONTINUOUS
 10
160.8471793074
 20
30.6905916353
 11
160.615929528
 21
30.6260629858
 12
159.575304528
 22
30.6260629858
 13
159.575304528
 23
30.6260629858
  0
SOLID
  8
0
 62
7
  6
CONTINUOUS
 10
159.922179528
 20
30.5938006049
 11
159.575304528
 21
30.6260629858
 12
160.615929528
 22
30.6260629858
 13
160.615929528
 23
30.6260629858
  0
SOLID
  8
0
 62
7
  6
CONTINUOUS
 10
160.615929528
 20
30.6260629858
 11
160.269054528
 21
30.5938006049
 12
159.922179528
 22
30.5938006049
 13
159.922179528
 23
30.5938006049
  0
SOLID
  8
0
 62
7
  6
CONTINUOUS
 10
149.5737418074
 20
31.1100184796
 11
149.9206168074
 21
31.2713369632
 12
149.8628043005
 22
31.1422827828
 13
149.8628043005
 23
31.1422827828
  0
SOLID
  8
0
 62
7
  6
CONTINUOUS
 10
149.8628043005
 20
31.1422827828
 11
149.8628043005
 21
31.0454914852
 12
149.5737418074
 22
31.1100184796
 13
149.5737418074
 23
31.1100184796
  0
SOLID
  8
0
 62
7
  6
CONTINUOUS
 10
149.6315543091
 20
30.9164372091
 11
149.5737418074
 21
31.1100184796
 12
149.8628043005
 22
31.0454914852
 13
149.8628043005
 23
31.0454914852
  0
SOLID
  8
0
 62
7
  6
CONTINUOUS
 10
149.8628043005
 20
31.0454914852
 11
149.9784292936
 21
30.8841729058
 12
149.6315543091
 22
30.9164372091
 13
149.6315543091
 23
30.9164372091
  0
SOLID
  8
0
 62
7
  6
CONTINUOUS
 10
149.7471793074
 20
30.7873813202
 11
149.6315543091
 21
30.9164372091
 12
149.9784292936
 22
30.8841729058
 13
149.9784292936
 23
30.8841729058
  0
SOLID
  8
0
 62
7
  6
CONTINUOUS
 10
149.9784292936
 20
30.8841729058
 11
150.1518667936
 21
30.7873813202
 12
149.7471793074
 22
30.7873813202
 13
149.7471793074
 23
30.7873813202
  0
SOLID
  8
0
 62
7
  6
CONTINUOUS
 10
149.8628043005
 20
30.7228547004
 11
149.7471793074
 21
30.7873813202
 12
150.1518667936
 22
30.7873813202
 13
150.1518667936
 23
30.7873813202
  0
SOLID
  8
0
 62
7
  6
CONTINUOUS
 10
150.1518667936
 20
30.7873813202
 11
150.498741835
 21
30.7228547004
 12
149.8628043005
 22
30.7228547004
 13
149.8628043005
 23
30.7228547004
  0
SOLID
  8
0
 62
7
  6
CONTINUOUS
 10
150.0362418212
 20
30.658327332
 11
149.8628043005
 21
30.7228547004
 12
150.498741835
 22
30.7228547004
 13
150.498741835
 23
30.7228547004
  0
SOLID
  8
0
 62
7
  6
CONTINUOUS
 10
154.0831168074
 20
31.1100184386
 11
154.1987416972
 21
31.1745462761
 12
154.7768668074
 22
31.1422827828
 13
154.7768668074
 23
31.1422827828
  0
SOLID
  8
0
 62
7
  6
CONTINUOUS
 10
154.7768668074
 20
31.1422827828
 11
154.5456166972
 21
31.1100184386
 12
154.0831168074
 22
31.1100184386
 13
154.0831168074
 23
31.1100184386
  0
SOLID
  8
0
 62
7
  6
CONTINUOUS
 10
153.9674919177
 20
30.9809642992
 11
154.0831168074
 21
31.1100184386
 12
154.5456166972
 22
31.1100184386
 13
154.5456166972
 23
31.1100184386
  0
SOLID
  8
0
 62
7
  6
CONTINUOUS
 10
154.3143669177
 20
31.0132277988
 11
153.9674919177
 21
30.9809642992
 12
154.4299918074
 22
31.0777556927
 13
154.4299918074
 23
31.0777556927
  0
SOLID
  8
0
 62
7
  6
CONTINUOUS
 10
153.9674919177
 20
30.9809642992
 11
154.5456166972
 21
31.1100184796
 12
154.4299918074
 22
31.0777556927
 13
154.4299918074
 23
31.0777556927
  0
SOLID
  8
0
 62
7
  6
CONTINUOUS
 10
154.3143669177
 20
31.0132277988
 11
154.2565543074
 21
30.9164372091
 12
153.9674919177
 22
30.9809642992
 13
153.9674919177
 23
30.9809642992
  0
SOLID
  8
0
 62
7
  6
CONTINUOUS
 10
153.9674919177
 20
30.8841729058
 11
153.9674919177
 21
30.9809642992
 12
154.2565543074
 22
30.9164372091
 13
154.2565543074
 23
30.9164372091
  0
SOLID
  8
0
 62
7
  6
CONTINUOUS
 10
154.2565543074
 20
30.9164372091
 11
154.2565543074
 21
30.8519086025
 12
153.9674919177
 22
30.8841729058
 13
153.9674919177
 23
30.8841729058
  0
SOLID
  8
0
 62
7
  6
CONTINUOUS
 10
154.0253041972
 20
30.7551187255
 11
153.9674919177
 21
30.8841729058
 12
154.2565543074
 22
30.8519086025
 13
154.2565543074
 23
30.8519086025
  0
SOLID
  8
0
 62
7
  6
CONTINUOUS
 10
155.412804528
 20
30.9487004259
 11
155.7018665869
 21
30.8519086025
 12
155.3549915869
 22
30.8841729058
 13
155.3549915869
 23
30.8841729058
  0
SOLID
  8
0
 62
7
  6
CONTINUOUS
 10
155.1815540869
 20
30.7873815123
 11
155.3549915869
 21
30.8841729058
 12
155.7018665869
 22
30.8519086025
 13
155.7018665869
 23
30.8519086025
  0
SOLID
  8
0
 62
7
  6
CONTINUOUS
 10
155.1815540869
 20
30.7873815123
 11
155.7018665869
 21
30.8519086025
 12
155.412804528
 22
30.7551187255
 13
155.412804528
 23
30.7551187255
  0
SOLID
  8
0
 62
7
  6
CONTINUOUS
 10
155.7018665869
 20
30.8519086025
 11
155.759679528
 21
30.6905916353
 12
155.412804528
 22
30.7551187255
 13
155.412804528
 23
30.7551187255
  0
SOLID
  8
0
 62
7
  6
CONTINUOUS
 10
155.4706168074
 20
30.658327332
 11
155.412804528
 21
30.7551187255
 12
155.759679528
 22
30.6905916353
 13
155.759679528
 23
30.6905916353
  0
SOLID
  8
0
 62
7
  6
CONTINUOUS
 10
155.4706168074
 20
30.658327332
 11
155.759679528
 21
30.6905916353
 12
155.5284290869
 22
30.5938002079
 13
155.5284290869
 23
30.5938002079
  0
SOLID
  8
0
 62
7
  6
CONTINUOUS
 10
155.759679528
 20
30.6905916353
 11
155.8174918074
 21
30.5938002079
 12
155.5284290869
 22
30.5938002079
 13
155.5284290869
 23
30.5938002079
  0
SOLID
  8
0
 62
7
  6
CONTINUOUS
 10
151.0768668626
 20
30.8196456577
 11
151.1346793074
 21
30.9164373395
 12
151.4237418626
 22
30.9164373395
 13
151.4237418626
 23
30.9164373395
  0
SOLID
  8
0
 62
7
  6
CONTINUOUS
 10
151.4237418626
 20
30.9164373395
 11
151.3659292523
 21
30.7873815123
 12
151.0768668626
 22
30.8196456577
 13
151.0768668626
 23
30.8196456577
  0
SOLID
  8
0
 62
7
  6
CONTINUOUS
 10
150.9034292799
 20
30.7551187255
 11
151.0768668626
 21
30.8196456577
 12
151.3659292523
 22
30.7873815123
 13
151.3659292523
 23
30.7873815123
  0
SOLID
  8
0
 62
7
  6
CONTINUOUS
 10
150.9034292799
 20
30.7551187255
 11
151.3659292523
 21
30.7873815123
 12
150.498741835
 22
30.7228544222
 13
150.498741835
 23
30.7228544222
  0
SOLID
  8
0
 62
7
  6
CONTINUOUS
 10
151.3659292523
 20
30.7873815123
 11
151.1924917523
 21
30.6905916353
 12
150.498741835
 22
30.7228544222
 13
150.498741835
 23
30.7228544222
  0
SOLID
  8
0
 62
7
  6
CONTINUOUS
 10
150.0362418212
 20
30.658327332
 11
150.498741835
 21
30.7228544222
 12
151.1924917523
 22
30.6905916353
 13
151.1924917523
 23
30.6905916353
  0
SOLID
  8
0
 62
7
  6
CONTINUOUS
 10
150.0362418212
 20
30.658327332
 11
151.1924917523
 21
30.6905916353
 12
150.2096793212
 22
30.6260631011
 13
150.2096793212
 23
30.6260631011
  0
SOLID
  8
0
 62
7
  6
CONTINUOUS
 10
151.1924917523
 20
30.6905916353
 11
150.9612418074
 21
30.6260631011
 12
150.2096793212
 22
30.6260631011
 13
150.2096793212
 23
30.6260631011
  0
SOLID
  8
0
 62
7
  6
CONTINUOUS
 10
150.5565542799
 20
30.5938002419
 11
150.2096793212
 21
30.6260631011
 12
150.9612418074
 22
30.6260631011
 13
150.9612418074
 23
30.6260631011
  0
SOLID
  8
0
 62
7
  6
CONTINUOUS
 10
154.0253041972
 20
30.7551187255
 11
154.2565543074
 21
30.8519086025
 12
154.3143669177
 22
30.7873815123
 13
154.3143669177
 23
30.7873815123
  0
SOLID
  8
0
 62
7
  6
CONTINUOUS
 10
154.3143669177
 20
30.7873815123
 11
154.5456166972
 21
30.7228544222
 12
154.0253041972
 22
30.7551187255
 13
154.0253041972
 23
30.7551187255
  0
SOLID
  8
0
 62
7
  6
CONTINUOUS
 10
154.1987416972
 20
30.658327332
 11
154.0253041972
 21
30.7551187255
 12
154.5456166972
 22
30.7228544222
 13
154.5456166972
 23
30.7228544222
  0
SOLID
  8
0
 62
7
  6
CONTINUOUS
 10
154.8924916972
 20
30.7228544637
 11
155.1815540869
 21
30.7873815123
 12
155.412804528
 22
30.7551187255
 13
155.412804528
 23
30.7551187255
  0
SOLID
  8
0
 62
7
  6
CONTINUOUS
 10
155.412804528
 20
30.7551187255
 11
155.3549915869
 21
30.6905916353
 12
154.8924916972
 22
30.7228544637
 13
154.8924916972
 23
30.7228544637
  0
SOLID
  8
0
 62
7
  6
CONTINUOUS
 10
155.3549915869
 20
30.6905916353
 11
154.1987416972
 21
30.658327332
 12
154.8924916972
 22
30.7228544637
 13
154.8924916972
 23
30.7228544637
  0
SOLID
  8
0
 62
7
  6
CONTINUOUS
 10
154.1987416972
 20
30.658327332
 11
154.5456166972
 21
30.7228544637
 12
154.8924916972
 22
30.7228544637
 13
154.8924916972
 23
30.7228544637
  0
SOLID
  8
0
 62
7
  6
CONTINUOUS
 10
154.1987416972
 20
30.658327332
 11
155.3549915869
 21
30.6905916353
 12
154.3143669177
 22
30.6260630541
 13
154.3143669177
 23
30.6260630541
  0
SOLID
  8
0
 62
7
  6
CONTINUOUS
 10
155.3549915869
 20
30.6905916353
 11
155.1815540869
 21
30.6260630541
 12
154.3143669177
 22
30.6260630541
 13
154.3143669177
 23
30.6260630541
  0
SOLID
  8
0
 62
7
  6
CONTINUOUS
 10
154.5456166972
 20
30.5938002188
 11
154.3143669177
 21
30.6260630541
 12
155.1815540869
 22
30.6260630541
 13
155.1815540869
 23
30.6260630541
  0
SOLID
  8
0
 62
7
  6
CONTINUOUS
 10
155.1815540869
 20
30.6260630541
 11
154.8924916972
 21
30.5938002188
 12
154.5456166972
 22
30.5938002188
 13
154.5456166972
 23
30.5938002188
  0
SOLID
  8
0
 62
7
  6
CONTINUOUS
 10
159.575304528
 20
30.7551187255
 11
159.228429528
 21
30.7228544637
 12
159.4596793074
 22
30.7873815123
 13
159.4596793074
 23
30.7873815123
  0
SOLID
  8
0
 62
7
  6
CONTINUOUS
 10
159.4596793074
 20
30.7873815123
 11
159.228429528
 21
30.7228544637
 12
159.401867028
 22
30.851908644
 13
159.401867028
 23
30.851908644
  0
SOLID
  8
0
 62
7
  6
CONTINUOUS
 10
159.228429528
 20
30.7228544637
 11
159.1128043074
 21
30.851908644
 12
159.401867028
 22
30.851908644
 13
159.401867028
 23
30.851908644
  0
SOLID
  8
0
 62
7
  6
CONTINUOUS
 10
159.575304528
 20
30.7551187255
 11
159.922179528
 21
30.7228544637
 12
159.228429528
 22
30.7228544637
 13
159.228429528
 23
30.7228544637
  0
SOLID
  8
0
 62
7
  6
CONTINUOUS
 10
156.279992028
 20
30.5938002419
 11
156.279992028
 21
31.6262382337
 12
156.5690540869
 22
30.5938002419
 13
156.5690540869
 23
31.6262382337
  0
ENDBLK
  8
0
  6
BYBLOCK
 62
0
  0
BLOCK
  8
0
 62
2
  6
CONTINUOUS
  2
AMMEAAL_LOGO_BL0
 70
64
 10
32.1213064866
 20
19.8534310916
  0
TEXT
  8
0
 62
7
  6
CONTINUOUS
 10
18.3860103289
 20
19.2268451992
  7
TEXTSTYLE_3
 40
2.7338706658
  1
Ammeraal Beltech
 41
1.0
 51
15.0
 72
0
  0
TEXT
  8
0
 62
7
  6
CONTINUOUS
 10
29.1868111546
 20
16.9533085264
  7
TEXTSTYLE_4
 40
1.0935482663
  1
Innovation & Service in Belting
 41
1.0
 72
0
  0
LINE
  8
0
 62
7
  6
CONTINUOUS
 10
12.3614696776
 20
19.9934385078
 11
13.1396216709
 21
23.6543558055
  0
LINE
  8
0
 62
7
  6
CONTINUOUS
 10
23.2347899607
 20
27.3177497171
 11
13.6274394139
 21
24.1961322958
  0
LINE
  8
0
 62
7
  6
CONTINUOUS
 10
12.5867530099
 20
19.3000877048
 11
20.093828271
 21
12.5406867788
  0
LINE
  8
0
 62
7
  6
CONTINUOUS
 10
12.8492874206
 20
20.5352149982
 11
23.6575567857
 21
24.0470345971
  0
LINE
  8
0
 62
7
  6
CONTINUOUS
 10
23.6533516486
 20
13.6972460334
 11
15.2078919798
 21
21.3015720751
  0
LINE
  8
0
 62
7
  6
CONTINUOUS
 10
24.1731743684
 20
26.4728246013
 11
23.1966148312
 21
21.8784731989
  0
LINE
  8
0
 62
7
  6
CONTINUOUS
 10
22.4968128835
 20
18.5861638851
 11
21.810364672
 21
15.3566789607
  0
LINE
  8
0
 62
7
  6
CONTINUOUS
 10
24.8542704669
 20
14.087448211
 11
25.8105020025
 21
18.5861638851
  0
LINE
  8
0
 62
7
  6
CONTINUOUS
 10
26.5103039502
 20
21.8784731989
 11
26.9545457526
 21
23.9684665583
  0
LINE
  8
0
 62
7
  6
CONTINUOUS
 10
20.8069293463
 20
12.3891124661
 11
24.3664527239
 21
13.5456717207
  0
LINE
  8
0
 62
7
  6
CONTINUOUS
 10
23.9478910361
 20
27.1661754044
 11
26.7292624203
 21
24.6618173613
  0
ARC
  8
0
 62
7
  6
CONTINUOUS
 10
13.8527227462
 20
23.5027814928
 40
0.7290321776
 50
108.0
 51
168.0
  0
ARC
  8
0
 62
7
  6
CONTINUOUS
 10
23.4600732931
 20
26.624398914
 40
0.7290321776
 50
348.0
 51
108.0
  0
ARC
  8
0
 62
7
  6
CONTINUOUS
 10
26.2414446773
 20
24.120040871
 40
0.7290321776
 50
348.0
 51
48.0
  0
ARC
  8
0
 62
7
  6
CONTINUOUS
 10
20.581646014
 20
13.0824632691
 40
0.7290321776
 50
228.0
 51
288.0
  0
ARC
  8
0
 62
7
  6
CONTINUOUS
 10
13.0745707529
 20
19.8418641951
 40
0.7290321776
 50
108.0
 51
228.0
  0
ARC
  8
0
 62
7
  6
CONTINUOUS
 10
24.1411693916
 20
14.2390225237
 40
0.7290321776
 50
228.0
 51
348.0
  0
ENDBLK
  8
0
  6
BYBLOCK
 62
0
  0
ENDSEC
  0
SECTION
  2
ENTITIES
  0
TEXT
  8
0
 62
5
  6
CONTINUOUS
 10
96.0
 20
25.636
  7
TEXTSTYLE_2
 40
2.8
  1
Scale :
 41
0.6
 51
0.000019
 72
0
  0
TEXT
  8
0
 62
5
  6
CONTINUOUS
 10
116.0
 20
25.636
  7
TEXTSTYLE_2
 40
2.8
  1
Belt type:
 41
0.6
 51
0.000019
 72
0
  0
INSERT
  8
0
 62
2
  6
CONTINUOUS
  2
AMMEAAL_LOGO_BL0
 10
32.1213064866
 20
19.8534310916
  0
INSERT
  8
0
 62
2
  6
CONTINUOUS
  2
UNI_LOGO2_BL1
 10
173.5956734183
 20
35.5937998301
  0
LINE
  8
0
 62
2
  6
CONTINUOUS
 10
10.0
 20
30.0
 11
200.0
 21
30.0
  0
LINE
  8
0
 62
2
  6
CONTINUOUS
 10
10.0
 20
30.0
 11
10.0
 21
10.0
  0
LINE
  8
0
 62
2
  6
CONTINUOUS
 10
10.0
 20
10.0
 11
200.0
 21
10.0
  0
LINE
  8
0
 62
2
  6
CONTINUOUS
 10
95.0
 20
30.0
 11
95.0
 21
10.0
  0
LINE
  8
0
 62
2
  6
CONTINUOUS
 10
115.0
 20
30.0
 11
115.0
 21
10.0
  0
LINE
  8
0
 62
2
  6
CONTINUOUS
 10
200.0
 20
30.0
 11
200.0
 21
10.0
  0
TEXT
  8
0
 62
5
  6
CONTINUOUS
 10
13.0
 20
23.303
  7
TEXTSTYLE_5
 40
1.52
  1
                                                                     Ammeraal Beltech Modular A/S
 41
1.0
 72
0
  0
TEXT
  8
0
 62
5
  6
CONTINUOUS
 10
13.0
 20
20.595
  7
TEXTSTYLE_5
 40
1.5
  1
                                                                      Hjulmagervej 21,  7100 Vejle,  DK
 41
1.0
 72
0
  0
TEXT
  8
0
 62
5
  6
CONTINUOUS
 10
13.0
 20
17.881
  7
TEXTSTYLE_5
 40
1.495
  1
                                                                      tel: 
 41
1.0
 72
0
  0
TEXT
  8
0
 62
5
  6
CONTINUOUS
 10
57.9869465649
 20
17.881
  7
TEXTSTYLE_5
 40
1.51
  1
+45 75723100     fax: +45 75723348
 41
1.0
 72
0
  0
TEXT
  8
0
 62
5
  6
CONTINUOUS
 10
13.0
 20
15.177
  7
TEXTSTYLE_5
 40
1.5
  1
                                                                      admin@unichains.dk  www.unichains.com
 41
1.0
 72
0
  0
TEXT
  8
0
 62
5
  6
CONTINUOUS
 10
99.75
 20
13.75
  7
TEXTSTYLE_6
 40
5.0
  1
1:1
 41
0.7
 72
1
 11
105.0
 21
13.75
  0
TEXT
  8
0
 62
5
  6
CONTINUOUS
 10
118.0
 20
13.75
  7
TEXTSTYLE_7
 40
7.5
  1
Sprocket Z15
 41
0.6361111111
 72
0
  0
LINE
  8
0
 62
7
  6
CONTINUOUS
 10
210.0
 20
0.0
 11
0.0
 21
0.0
  0
LINE
  8
0
 62
7
  6
CONTINUOUS
 10
10.0
 20
10.0
 11
200.0
 21
10.0
  0
LINE
  8
0
 62
7
  6
CONTINUOUS
 10
10.0
 20
30.0
 11
200.0
 21
30.0
  0
LINE
  8
0
 62
7
  6
CONTINUOUS
 10
0.0
 20
0.0
 11
0.0
 21
297.0
  0
LINE
  8
0
 62
7
  6
CONTINUOUS
 10
10.0
 20
10.0
 11
10.0
 21
287.0
  0
LINE
  8
0
 62
7
  6
CONTINUOUS
 10
200.0
 20
287.0
 11
200.0
 21
10.0
  0
LINE
  8
0
 62
7
  6
CONTINUOUS
 10
210.0
 20
0.0
 11
210.0
 21
297.0
  0
LINE
  8
0
 62
7
  6
CONTINUOUS
 10
10.0
 20
287.0
 11
200.0
 21
287.0
  0
LINE
  8
0
 62
7
  6
CONTINUOUS
 10
0.0
 20
297.0
 11
210.0
 21
297.0
  0
POLYLINE
  8
0
 62
7
  6
CONTINUOUS
 66
1
 70
0
  0
VERTEX
  8
0
 62
7
  6
CONTINUOUS
 10
37.4410494194
 20
70.3332499213
  0
VERTEX
  8
0
 62
7
  6
CONTINUOUS
 10
37.4550505621
 20
70.1698544536
  0
VERTEX
  8
0
 62
7
  6
CONTINUOUS
 10
37.4845247045
 20
70.0490947612
  0
VERTEX
  8
0
 62
7
  6
CONTINUOUS
 10
37.5842351877
 20
69.8364910715
  0
SEQEND
  0
LINE
  8
0
 62
7
  6
CONTINUOUS
 10
37.4410494183
 20
81.8542034089
 11
37.4410494183
 21
70.3332965911
  0
LINE
  8
0
 62
7
  6
CONTINUOUS
 10
39.970344689
 20
82.0576012068
 11
39.970344689
 21
70.1298987932
  0
POLYLINE
  8
0
 62
7
  6
CONTINUOUS
 66
1
 70
0
  0
VERTEX
  8
0
 62
7
  6
CONTINUOUS
 10
39.9703446891
 20
70.1299148323
  0
VERTEX
  8
0
 62
7
  6
CONTINUOUS
 10
39.9712205731
 20
70.1698087848
  0
VERTEX
  8
0
 62
7
  6
CONTINUOUS
 10
40.0160158279
 20
70.4263573247
  0
SEQEND
  0
POLYLINE
  8
0
 62
7
  6
CONTINUOUS
 66
1
 70
0
  0
VERTEX
  8
0
 62
7
  6
CONTINUOUS
 10
39.9703446891
 20
82.057584979
  0
VERTEX
  8
0
 62
7
  6
CONTINUOUS
 10
39.9740923617
 20
82.1384875154
  0
VERTEX
  8
0
 62
7
  6
CONTINUOUS
 10
40.0250493924
 20
82.3510089285
  0
SEQEND
  0
POLYLINE
  8
0
 62
7
  6
CONTINUOUS
 66
1
 70
0
  0
VERTEX
  8
0
 62
7
  6
CONTINUOUS
 10
40.0250493924
 20
69.8364910715
  0
VERTEX
  8
0
 62
7
  6
CONTINUOUS
 10
39.9740876744
 20
70.0490623114
  0
VERTEX
  8
0
 62
7
  6
CONTINUOUS
 10
39.9703446891
 20
70.1299148323
  0
SEQEND
  0
POLYLINE
  8
0
 62
7
  6
CONTINUOUS
 66
1
 70
0
  0
VERTEX
  8
0
 62
7
  6
CONTINUOUS
 10
37.5842351877
 20
82.3510089285
  0
VERTEX
  8
0
 62
7
  6
CONTINUOUS
 10
37.4845395307
 20
82.1384519614
  0
VERTEX
  8
0
 62
7
  6
CONTINUOUS
 10
37.4550386198
 20
82.0175768497
  0
VERTEX
  8
0
 62
7
  6
CONTINUOUS
 10
37.4410494194
 20
81.8542500927
  0
SEQEND
  0
POLYLINE
  8
0
 62
7
  6
CONTINUOUS
 66
1
 70
0
  0
VERTEX
  8
0
 62
7
  6
CONTINUOUS
 10
40.0250493924
 20
82.3510089285
  0
VERTEX
  8
0
 62
7
  6
CONTINUOUS
 10
40.1312755108
 20
82.5383742459
  0
VERTEX
  8
0
 62
7
  6
CONTINUOUS
 10
40.2803868997
 20
82.6754132921
  0
VERTEX
  8
0
 62
7
  6
CONTINUOUS
 10
40.4605781568
 20
82.7488310159
  0
SEQEND
  0
POLYLINE
  8
0
 62
7
  6
CONTINUOUS
 66
1
 70
0
  0
VERTEX
  8
0
 62
7
  6
CONTINUOUS
 10
40.4306202628
 20
70.4263573247
  0
VERTEX
  8
0
 62
7
  6
CONTINUOUS
 10
40.5453635612
 20
70.1698544536
  0
VERTEX
  8
0
 62
7
  6
CONTINUOUS
 10
40.6230906141
 20
70.0490947612
  0
VERTEX
  8
0
 62
7
  6
CONTINUOUS
 10
40.8052790824
 20
69.8364910715
  0
SEQEND
  0
POLYLINE
  8
0
 62
7
  6
CONTINUOUS
 66
1
 70
0
  0
VERTEX
  8
0
 62
7
  6
CONTINUOUS
 10
40.0160158279
 20
81.7611426753
  0
VERTEX
  8
0
 62
7
  6
CONTINUOUS
 10
39.9712234811
 20
82.0176246243
  0
VERTEX
  8
0
 62
7
  6
CONTINUOUS
 10
39.9703446891
 20
82.057584979
  0
SEQEND
  0
POLYLINE
  8
0
 62
7
  6
CONTINUOUS
 66
1
 70
0
  0
VERTEX
  8
0
 62
7
  6
CONTINUOUS
 10
45.8206884633
 20
62.09375
  0
VERTEX
  8
0
 62
7
  6
CONTINUOUS
 10
45.8457254408
 20
61.8686610398
  0
VERTEX
  8
0
 62
7
  6
CONTINUOUS
 10
45.9200434772
 20
61.6540851254
  0
VERTEX
  8
0
 62
7
  6
CONTINUOUS
 10
46.0433132608
 20
61.4578864001
  0
VERTEX
  8
0
 62
7
  6
CONTINUOUS
 10
46.1222075609
 20
61.3708252121
  0
VERTEX
  8
0
 62
7
  6
CONTINUOUS
 10
46.3132925042
 20
61.2248872588
  0
VERTEX
  8
0
 62
7
  6
CONTINUOUS
 10
46.5411345565
 20
61.1285617291
  0
VERTEX
  8
0
 62
7
  6
CONTINUOUS
 10
46.7965039007
 20
61.09375
  0
SEQEND
  0
LINE
  8
0
 62
7
  6
CONTINUOUS
 10
45.8206884633
 20
90.09375
 11
45.8206884633
 21
83.09375
  0
LINE
  8
0
 62
7
  6
CONTINUOUS
 10
45.8206884633
 20
69.09375
 11
45.8206884633
 21
62.09375
  0
LINE
  8
0
 62
7
  6
CONTINUOUS
 10
47.4744804339
 20
90.09375
 11
47.4744804339
 21
83.09375
  0
LINE
  8
0
 62
7
  6
CONTINUOUS
 10
47.4744804339
 20
69.09375
 11
47.4744804339
 21
62.09375
  0
LINE
  8
0
 62
7
  6
CONTINUOUS
 10
47.8547923424
 20
83.09375
 11
47.8547923424
 21
69.09375
  0
POLYLINE
  8
0
 62
7
  6
CONTINUOUS
 66
1
 70
0
  0
VERTEX
  8
0
 62
7
  6
CONTINUOUS
 10
47.4744804339
 20
90.09375
  0
VERTEX
  8
0
 62
7
  6
CONTINUOUS
 10
47.4958474857
 20
90.3188881706
  0
VERTEX
  8
0
 62
7
  6
CONTINUOUS
 10
47.5590857284
 20
90.5333540675
  0
VERTEX
  8
0
 62
7
  6
CONTINUOUS
 10
47.6636090809
 20
90.7295633961
  0
VERTEX
  8
0
 62
7
  6
CONTINUOUS
 10
47.730195269
 20
90.8165906884
  0
VERTEX
  8
0
 62
7
  6
CONTINUOUS
 10
47.890616229
 20
90.9625489912
  0
VERTEX
  8
0
 62
7
  6
CONTINUOUS
 10
48.080029175
 20
91.0588732626
  0
VERTEX
  8
0
 62
7
  6
CONTINUOUS
 10
48.2901841541
 20
91.09375
  0
SEQEND
  0
POLYLINE
  8
0
 62
7
  6
CONTINUOUS
 66
1
 70
0
  0
VERTEX
  8
0
 62
7
  6
CONTINUOUS
 10
37.5842351877
 20
69.8364910715
  0
VERTEX
  8
0
 62
7
  6
CONTINUOUS
 10
37.6460502764
 20
69.7512119224
  0
VERTEX
  8
0
 62
7
  6
CONTINUOUS
 10
37.7977549291
 20
69.604269361
  0
VERTEX
  8
0
 62
7
  6
CONTINUOUS
 10
37.8858576285
 20
69.5453596332
  0
VERTEX
  8
0
 62
7
  6
CONTINUOUS
 10
38.0800726701
 20
69.4617937317
  0
VERTEX
  8
0
 62
7
  6
CONTINUOUS
 10
38.1809163387
 20
69.4386689841
  0
SEQEND
  0
POLYLINE
  8
0
 62
7
  6
CONTINUOUS
 66
1
 70
0
  0
VERTEX
  8
0
 62
7
  6
CONTINUOUS
 10
49.5167991615
 20
62.09375
  0
VERTEX
  8
0
 62
7
  6
CONTINUOUS
 10
49.5457998034
 20
61.8686610398
  0
VERTEX
  8
0
 62
7
  6
CONTINUOUS
 10
49.6321259491
 20
61.6540851254
  0
VERTEX
  8
0
 62
7
  6
CONTINUOUS
 10
49.7761268117
 20
61.4578864001
  0
VERTEX
  8
0
 62
7
  6
CONTINUOUS
 10
49.8688330824
 20
61.3708252121
  0
VERTEX
  8
0
 62
7
  6
CONTINUOUS
 10
50.0951847172
 20
61.2248872588
  0
VERTEX
  8
0
 62
7
  6
CONTINUOUS
 10
50.368573053
 20
61.1285617291
  0
VERTEX
  8
0
 62
7
  6
CONTINUOUS
 10
50.6797860984
 20
61.09375
  0
SEQEND
  0
LINE
  8
0
 62
7
  6
CONTINUOUS
 10
52.4806358626
 20
82.3510089285
 11
52.4693983949
 21
82.5238757196
  0
LINE
  8
0
 62
7
  6
CONTINUOUS
 10
49.5167991615
 20
90.09375
 11
49.5167991615
 21
83.09375
  0
LINE
  8
0
 62
7
  6
CONTINUOUS
 10
49.5167991615
 20
69.09375
 11
49.5167991615
 21
62.09375
  0
LINE
  8
0
 62
7
  6
CONTINUOUS
 10
52.4693983949
 20
82.5238813822
 11
52.4693983949
 21
69.6636186178
  0
POLYLINE
  8
0
 62
7
  6
CONTINUOUS
 66
1
 70
0
  0
VERTEX
  8
0
 62
7
  6
CONTINUOUS
 10
52.4693983949
 20
69.6636167777
  0
VERTEX
  8
0
 62
7
  6
CONTINUOUS
 10
52.4728418831
 20
69.7513358731
  0
VERTEX
  8
0
 62
7
  6
CONTINUOUS
 10
52.4806358626
 20
69.8364910715
  0
SEQEND
  0
POLYLINE
  8
0
 62
7
  6
CONTINUOUS
 66
1
 70
0
  0
VERTEX
  8
0
 62
7
  6
CONTINUOUS
 10
52.4693983949
 20
82.5238757196
  0
VERTEX
  8
0
 62
7
  6
CONTINUOUS
 10
52.4896603518
 20
82.6754132921
  0
VERTEX
  8
0
 62
7
  6
CONTINUOUS
 10
52.5446308035
 20
82.7488310159
  0
SEQEND
  0
POLYLINE
  8
0
 62
7
  6
CONTINUOUS
 66
1
 70
0
  0
VERTEX
  8
0
 62
7
  6
CONTINUOUS
 10
40.8052790824
 20
82.3510089285
  0
VERTEX
  8
0
 62
7
  6
CONTINUOUS
 10
40.6231239344
 20
82.1384519614
  0
VERTEX
  8
0
 62
7
  6
CONTINUOUS
 10
40.5453239237
 20
82.0175768497
  0
VERTEX
  8
0
 62
7
  6
CONTINUOUS
 10
40.4306202628
 20
81.7611426753
  0
SEQEND
  0
LINE
  8
0
 62
7
  6
CONTINUOUS
 10
57.4279889978
 20
90.09375
 11
57.4279889978
 21
83.09375
  0
LINE
  8
0
 62
7
  6
CONTINUOUS
 10
57.4279889978
 20
69.09375
 11
57.4279889978
 21
62.09375
  0
POLYLINE
  8
0
 62
7
  6
CONTINUOUS
 66
1
 70
0
  0
VERTEX
  8
0
 62
7
  6
CONTINUOUS
 10
57.4279889978
 20
90.09375
  0
VERTEX
  8
0
 62
7
  6
CONTINUOUS
 10
57.4393937312
 20
90.3188881706
  0
VERTEX
  8
0
 62
7
  6
CONTINUOUS
 10
57.4728631433
 20
90.5333540675
  0
VERTEX
  8
0
 62
7
  6
CONTINUOUS
 10
57.5272279255
 20
90.7295633961
  0
VERTEX
  8
0
 62
7
  6
CONTINUOUS
 10
57.5612200746
 20
90.8165906884
  0
VERTEX
  8
0
 62
7
  6
CONTINUOUS
 10
57.6409680079
 20
90.9625489912
  0
VERTEX
  8
0
 62
7
  6
CONTINUOUS
 10
57.730968874
 20
91.0588732626
  0
VERTEX
  8
0
 62
7
  6
CONTINUOUS
 10
57.8250548201
 20
91.09375
  0
SEQEND
  0
POLYLINE
  8
0
 62
7
  6
CONTINUOUS
 66
1
 70
0
  0
VERTEX
  8
0
 62
7
  6
CONTINUOUS
 10
52.4806358626
 20
69.8364910715
  0
VERTEX
  8
0
 62
7
  6
CONTINUOUS
 10
52.5316054489
 20
70.0490623114
  0
VERTEX
  8
0
 62
7
  6
CONTINUOUS
 10
52.5811646229
 20
70.1698087848
  0
VERTEX
  8
0
 62
7
  6
CONTINUOUS
 10
52.7265831259
 20
70.4263573247
  0
SEQEND
  0
POLYLINE
  8
0
 62
7
  6
CONTINUOUS
 66
1
 70
0
  0
VERTEX
  8
0
 62
7
  6
CONTINUOUS
 10
40.8052790824
 20
69.8364910715
  0
VERTEX
  8
0
 62
7
  6
CONTINUOUS
 10
40.9017549983
 20
69.7512119224
  0
VERTEX
  8
0
 62
7
  6
CONTINUOUS
 10
41.1260907869
 20
69.604269361
  0
VERTEX
  8
0
 62
7
  6
CONTINUOUS
 10
41.2499831712
 20
69.5453596332
  0
VERTEX
  8
0
 62
7
  6
CONTINUOUS
 10
41.5104881046
 20
69.4617937317
  0
VERTEX
  8
0
 62
7
  6
CONTINUOUS
 10
41.6401281116
 20
69.4386689841
  0
SEQEND
  0
LINE
  8
0
 62
7
  6
CONTINUOUS
 10
60.3068640867
 20
83.09375
 11
60.3068640867
 21
69.09375
  0
POLYLINE
  8
0
 62
7
  6
CONTINUOUS
 66
1
 70
0
  0
VERTEX
  8
0
 62
7
  6
CONTINUOUS
 10
53.6243477213
 20
70.4263573247
  0
VERTEX
  8
0
 62
7
  6
CONTINUOUS
 10
53.8244032203
 20
70.1698544536
  0
VERTEX
  8
0
 62
7
  6
CONTINUOUS
 10
53.9369434701
 20
70.0490947612
  0
VERTEX
  8
0
 62
7
  6
CONTINUOUS
 10
54.1701078821
 20
69.8364910715
  0
SEQEND
  0
POLYLINE
  8
0
 62
7
  6
CONTINUOUS
 66
1
 70
0
  0
VERTEX
  8
0
 62
7
  6
CONTINUOUS
 10
52.7265831259
 20
81.7611426753
  0
VERTEX
  8
0
 62
7
  6
CONTINUOUS
 10
52.5811954974
 20
82.0176246243
  0
VERTEX
  8
0
 62
7
  6
CONTINUOUS
 10
52.5315877648
 20
82.1384875154
  0
VERTEX
  8
0
 62
7
  6
CONTINUOUS
 10
52.4806358626
 20
82.3510089285
  0
SEQEND
  0
POLYLINE
  8
0
 62
7
  6
CONTINUOUS
 66
1
 70
0
  0
VERTEX
  8
0
 62
7
  6
CONTINUOUS
 10
61.8503938014
 20
62.09375
  0
VERTEX
  8
0
 62
7
  6
CONTINUOUS
 10
61.8783436332
 20
61.8686610398
  0
VERTEX
  8
0
 62
7
  6
CONTINUOUS
 10
61.9617513135
 20
61.6540851254
  0
VERTEX
  8
0
 62
7
  6
CONTINUOUS
 10
62.1015841978
 20
61.4578864001
  0
VERTEX
  8
0
 62
7
  6
CONTINUOUS
 10
62.1920726825
 20
61.3708252121
  0
VERTEX
  8
0
 62
7
  6
CONTINUOUS
 10
62.4145527548
 20
61.2248872588
  0
VERTEX
  8
0
 62
7
  6
CONTINUOUS
 10
62.6862160473
 20
61.1285617291
  0
VERTEX
  8
0
 62
7
  6
CONTINUOUS
 10
62.9994612312
 20
61.09375
  0
SEQEND
  0
LINE
  8
0
 62
7
  6
CONTINUOUS
 10
61.8503938014
 20
90.09375
 11
61.8503938014
 21
83.09375
  0
LINE
  8
0
 62
7
  6
CONTINUOUS
 10
61.8503938014
 20
69.09375
 11
61.8503938014
 21
62.09375
  0
POLYLINE
  8
0
 62
7
  6
CONTINUOUS
 66
1
 70
0
  0
VERTEX
  8
0
 62
7
  6
CONTINUOUS
 10
54.1701078821
 20
82.3510089285
  0
VERTEX
  8
0
 62
7
  6
CONTINUOUS
 10
53.936989523
 20
82.1384519614
  0
VERTEX
  8
0
 62
7
  6
CONTINUOUS
 10
53.8243427412
 20
82.0175768497
  0
VERTEX
  8
0
 62
7
  6
CONTINUOUS
 10
53.6243477213
 20
81.7611426753
  0
SEQEND
  0
POLYLINE
  8
0
 62
7
  6
CONTINUOUS
 66
1
 70
0
  0
VERTEX
  8
0
 62
7
  6
CONTINUOUS
 10
52.5446308035
 20
69.4386689841
  0
VERTEX
  8
0
 62
7
  6
CONTINUOUS
 10
52.5172503903
 20
69.4618051828
  0
VERTEX
  8
0
 62
7
  6
CONTINUOUS
 10
52.4801799127
 20
69.5454443437
  0
VERTEX
  8
0
 62
7
  6
CONTINUOUS
 10
52.4716397738
 20
69.6043940531
  0
VERTEX
  8
0
 62
7
  6
CONTINUOUS
 10
52.4693983949
 20
69.6636167777
  0
SEQEND
  0
POLYLINE
  8
0
 62
7
  6
CONTINUOUS
 66
1
 70
0
  0
VERTEX
  8
0
 62
7
  6
CONTINUOUS
 10
54.1701078821
 20
69.8364910715
  0
VERTEX
  8
0
 62
7
  6
CONTINUOUS
 10
54.2845630631
 20
69.7512119224
  0
VERTEX
  8
0
 62
7
  6
CONTINUOUS
 10
54.5427402917
 20
69.604269361
  0
VERTEX
  8
0
 62
7
  6
CONTINUOUS
 10
54.681000242
 20
69.5453596332
  0
VERTEX
  8
0
 62
7
  6
CONTINUOUS
 10
54.9627513977
 20
69.4617937317
  0
VERTEX
  8
0
 62
7
  6
CONTINUOUS
 10
55.098771808
 20
69.4386689841
  0
SEQEND
  0
LINE
  8
0
 62
7
  6
CONTINUOUS
 10
72.6860869643
 20
82.8274939109
 11
72.6860869643
 21
69.3600060891
  0
POLYLINE
  8
0
 62
7
  6
CONTINUOUS
 66
1
 70
0
  0
VERTEX
  8
0
 62
7
  6
CONTINUOUS
 10
72.6860869643
 20
82.827491073
  0
VERTEX
  8
0
 62
7
  6
CONTINUOUS
 10
72.6977096052
 20
82.8658236391
  0
VERTEX
  8
0
 62
7
  6
CONTINUOUS
 10
72.7358532779
 20
82.9083305023
  0
VERTEX
  8
0
 62
7
  6
CONTINUOUS
 10
72.8905305383
 20
82.9964770178
  0
VERTEX
  8
0
 62
7
  6
CONTINUOUS
 10
73.0057474029
 20
83.0413352005
  0
SEQEND
  0
POLYLINE
  8
0
 62
7
  6
CONTINUOUS
 66
1
 70
0
  0
VERTEX
  8
0
 62
7
  6
CONTINUOUS
 10
52.5446308035
 20
82.7488310159
  0
VERTEX
  8
0
 62
7
  6
CONTINUOUS
 10
52.6202950211
 20
82.7857510295
  0
VERTEX
  8
0
 62
7
  6
CONTINUOUS
 10
52.8466849146
 20
82.8658236391
  0
VERTEX
  8
0
 62
7
  6
CONTINUOUS
 10
52.9955597683
 20
82.9083305023
  0
VERTEX
  8
0
 62
7
  6
CONTINUOUS
 10
53.3582693386
 20
82.9964770178
  0
VERTEX
  8
0
 62
7
  6
CONTINUOUS
 10
53.5688675498
 20
83.0413352005
  0
SEQEND
  0
POLYLINE
  8
0
 62
7
  6
CONTINUOUS
 66
1
 70
0
  0
VERTEX
  8
0
 62
7
  6
CONTINUOUS
 10
57.8250548201
 20
61.09375
  0
VERTEX
  8
0
 62
7
  6
CONTINUOUS
 10
57.731058439
 20
61.1285617291
  0
VERTEX
  8
0
 62
7
  6
CONTINUOUS
 10
57.6410124802
 20
61.2248872588
  0
VERTEX
  8
0
 62
7
  6
CONTINUOUS
 10
57.561256737
 20
61.3708252121
  0
VERTEX
  8
0
 62
7
  6
CONTINUOUS
 10
57.5272454771
 20
61.4578864001
  0
VERTEX
  8
0
 62
7
  6
CONTINUOUS
 10
57.4728761239
 20
61.6540851254
  0
VERTEX
  8
0
 62
7
  6
CONTINUOUS
 10
57.4393886936
 20
61.8686610398
  0
VERTEX
  8
0
 62
7
  6
CONTINUOUS
 10
57.4279889978
 20
62.09375
  0
SEQEND
  0
POLYLINE
  8
0
 62
7
  6
CONTINUOUS
 66
1
 70
0
  0
VERTEX
  8
0
 62
7
  6
CONTINUOUS
 10
52.5446308035
 20
69.4386689841
  0
VERTEX
  8
0
 62
7
  6
CONTINUOUS
 10
52.6202950211
 20
69.4017489705
  0
VERTEX
  8
0
 62
7
  6
CONTINUOUS
 10
52.8466849146
 20
69.3216763609
  0
VERTEX
  8
0
 62
7
  6
CONTINUOUS
 10
52.9955597683
 20
69.2791694977
  0
VERTEX
  8
0
 62
7
  6
CONTINUOUS
 10
53.3582693386
 20
69.1910229822
  0
VERTEX
  8
0
 62
7
  6
CONTINUOUS
 10
53.5688675498
 20
69.1461647995
  0
SEQEND
  0
POLYLINE
  8
0
 62
7
  6
CONTINUOUS
 66
1
 70
0
  0
VERTEX
  8
0
 62
7
  6
CONTINUOUS
 10
72.6860869643
 20
69.360008927
  0
VERTEX
  8
0
 62
7
  6
CONTINUOUS
 10
72.6977096052
 20
69.3216763609
  0
VERTEX
  8
0
 62
7
  6
CONTINUOUS
 10
72.7358532779
 20
69.2791694977
  0
VERTEX
  8
0
 62
7
  6
CONTINUOUS
 10
72.8905305383
 20
69.1910229822
  0
VERTEX
  8
0
 62
7
  6
CONTINUOUS
 10
73.0057474029
 20
69.1461647995
  0
SEQEND
  0
POLYLINE
  8
0
 62
7
  6
CONTINUOUS
 66
1
 70
0
  0
VERTEX
  8
0
 62
7
  6
CONTINUOUS
 10
74.6505353428
 20
90.3188881706
  0
VERTEX
  8
0
 62
7
  6
CONTINUOUS
 10
74.6484487588
 20
90.5333540675
  0
VERTEX
  8
0
 62
7
  6
CONTINUOUS
 10
74.6432548061
 20
90.7295633961
  0
VERTEX
  8
0
 62
7
  6
CONTINUOUS
 10
74.6387753647
 20
90.8165906884
  0
VERTEX
  8
0
 62
7
  6
CONTINUOUS
 10
74.6240611292
 20
90.9625489912
  0
VERTEX
  8
0
 62
7
  6
CONTINUOUS
 10
74.5990879481
 20
91.0588732626
  0
VERTEX
  8
0
 62
7
  6
CONTINUOUS
 10
74.5608365462
 20
91.09375
  0
SEQEND
  0
LINE
  8
0
 62
7
  6
CONTINUOUS
 10
74.6505353428
 20
90.3188881706
 11
74.6510649098
 21
83.09375
  0
POLYLINE
  8
0
 62
7
  6
CONTINUOUS
 66
1
 70
0
  0
VERTEX
  8
0
 62
7
  6
CONTINUOUS
 10
38.1809163387
 20
82.7488310159
  0
VERTEX
  8
0
 62
7
  6
CONTINUOUS
 10
37.9487302403
 20
82.6754676294
  0
VERTEX
  8
0
 62
7
  6
CONTINUOUS
 10
37.7435943263
 20
82.5385225333
  0
VERTEX
  8
0
 62
7
  6
CONTINUOUS
 10
37.5842351877
 20
82.3510089285
  0
SEQEND
  0
POLYLINE
  8
0
 62
7
  6
CONTINUOUS
 66
1
 70
0
  0
VERTEX
  8
0
 62
7
  6
CONTINUOUS
 10
152.1449287084
 20
61.09375
  0
VERTEX
  8
0
 62
7
  6
CONTINUOUS
 10
152.4003009419
 20
61.1285617291
  0
VERTEX
  8
0
 62
7
  6
CONTINUOUS
 10
152.6281454135
 20
61.2248872588
  0
VERTEX
  8
0
 62
7
  6
CONTINUOUS
 10
152.819232277
 20
61.3708252121
  0
VERTEX
  8
0
 62
7
  6
CONTINUOUS
 10
152.8981273422
 20
61.4578864001
  0
VERTEX
  8
0
 62
7
  6
CONTINUOUS
 10
153.0213982897
 20
61.6540851254
  0
VERTEX
  8
0
 62
7
  6
CONTINUOUS
 10
153.0957170096
 20
61.8686610398
  0
VERTEX
  8
0
 62
7
  6
CONTINUOUS
 10
153.1207542143
 20
62.09375
  0
SEQEND
  0
POLYLINE
  8
0
 62
7
  6
CONTINUOUS
 66
1
 70
0
  0
VERTEX
  8
0
 62
7
  6
CONTINUOUS
 10
48.2901841541
 20
61.09375
  0
VERTEX
  8
0
 62
7
  6
CONTINUOUS
 10
48.0802227932
 20
61.1285617291
  0
VERTEX
  8
0
 62
7
  6
CONTINUOUS
 10
47.8907074853
 20
61.2248872588
  0
VERTEX
  8
0
 62
7
  6
CONTINUOUS
 10
47.73026763
 20
61.3708252121
  0
VERTEX
  8
0
 62
7
  6
CONTINUOUS
 10
47.6636432083
 20
61.4578864001
  0
VERTEX
  8
0
 62
7
  6
CONTINUOUS
 10
47.5591104129
 20
61.6540851254
  0
VERTEX
  8
0
 62
7
  6
CONTINUOUS
 10
47.4958380277
 20
61.8686610398
  0
VERTEX
  8
0
 62
7
  6
CONTINUOUS
 10
47.4744804339
 20
62.09375
  0
SEQEND
  0
POLYLINE
  8
0
 62
7
  6
CONTINUOUS
 66
1
 70
0
  0
VERTEX
  8
0
 62
7
  6
CONTINUOUS
 10
40.4605781568
 20
69.4386689841
  0
VERTEX
  8
0
 62
7
  6
CONTINUOUS
 10
40.3810840726
 20
69.4618051828
  0
VERTEX
  8
0
 62
7
  6
CONTINUOUS
 10
40.2335049434
 20
69.5454443437
  0
VERTEX
  8
0
 62
7
  6
CONTINUOUS
 10
40.1695056022
 20
69.6043940531
  0
VERTEX
  8
0
 62
7
  6
CONTINUOUS
 10
40.0649975119
 20
69.7513358731
  0
VERTEX
  8
0
 62
7
  6
CONTINUOUS
 10
40.0250493924
 20
69.8364910715
  0
SEQEND
  0
POLYLINE
  8
0
 62
7
  6
CONTINUOUS
 66
1
 70
0
  0
VERTEX
  8
0
 62
7
  6
CONTINUOUS
 10
74.7453266596
 20
70.4263573247
  0
VERTEX
  8
0
 62
7
  6
CONTINUOUS
 10
74.9961029459
 20
70.1698544536
  0
VERTEX
  8
0
 62
7
  6
CONTINUOUS
 10
75.1239971611
 20
70.0490947612
  0
VERTEX
  8
0
 62
7
  6
CONTINUOUS
 10
75.3678212718
 20
69.8364910715
  0
SEQEND
  0
POLYLINE
  8
0
 62
7
  6
CONTINUOUS
 66
1
 70
0
  0
VERTEX
  8
0
 62
7
  6
CONTINUOUS
 10
80.689640573
 20
62.09375
  0
VERTEX
  8
0
 62
7
  6
CONTINUOUS
 10
80.711706526
 20
61.8686610398
  0
VERTEX
  8
0
 62
7
  6
CONTINUOUS
 10
80.7777729404
 20
61.6540851254
  0
VERTEX
  8
0
 62
7
  6
CONTINUOUS
 10
80.8892580618
 20
61.4578864001
  0
VERTEX
  8
0
 62
7
  6
CONTINUOUS
 10
80.9618815843
 20
61.3708252121
  0
VERTEX
  8
0
 62
7
  6
CONTINUOUS
 10
81.142019121
 20
61.2248872588
  0
VERTEX
  8
0
 62
7
  6
CONTINUOUS
 10
81.3649817983
 20
61.1285617291
  0
VERTEX
  8
0
 62
7
  6
CONTINUOUS
 10
81.6260934124
 20
61.09375
  0
SEQEND
  0
LINE
  8
0
 62
7
  6
CONTINUOUS
 10
79.5259684553
 20
83.09375
 11
79.5259684553
 21
69.09375
  0
LINE
  8
0
 62
7
  6
CONTINUOUS
 10
80.689640573
 20
90.09375
 11
80.689640573
 21
83.09375
  0
LINE
  8
0
 62
7
  6
CONTINUOUS
 10
80.689640573
 20
62.09375
 11
80.689640573
 21
69.09375
  0
POLYLINE
  8
0
 62
7
  6
CONTINUOUS
 66
1
 70
0
  0
VERTEX
  8
0
 62
7
  6
CONTINUOUS
 10
73.0612319832
 20
69.8364910715
  0
VERTEX
  8
0
 62
7
  6
CONTINUOUS
 10
73.2053197694
 20
70.0490623114
  0
VERTEX
  8
0
 62
7
  6
CONTINUOUS
 10
73.2987359872
 20
70.1698087848
  0
VERTEX
  8
0
 62
7
  6
CONTINUOUS
 10
73.5196335583
 20
70.4263573247
  0
SEQEND
  0
POLYLINE
  8
0
 62
7
  6
CONTINUOUS
 66
1
 70
0
  0
VERTEX
  8
0
 62
7
  6
CONTINUOUS
 10
75.3678212718
 20
82.3510089285
  0
VERTEX
  8
0
 62
7
  6
CONTINUOUS
 10
75.1240479837
 20
82.1384519614
  0
VERTEX
  8
0
 62
7
  6
CONTINUOUS
 10
74.9960320827
 20
82.0175768497
  0
VERTEX
  8
0
 62
7
  6
CONTINUOUS
 10
74.7453266596
 20
81.7611426753
  0
SEQEND
  0
POLYLINE
  8
0
 62
7
  6
CONTINUOUS
 66
1
 70
0
  0
VERTEX
  8
0
 62
7
  6
CONTINUOUS
 10
160.7604914088
 20
69.4386689841
  0
VERTEX
  8
0
 62
7
  6
CONTINUOUS
 10
160.8613742357
 20
69.4618051828
  0
VERTEX
  8
0
 62
7
  6
CONTINUOUS
 10
161.0556951835
 20
69.5454443437
  0
VERTEX
  8
0
 62
7
  6
CONTINUOUS
 10
161.14381676
 20
69.6043940531
  0
VERTEX
  8
0
 62
7
  6
CONTINUOUS
 10
161.2954584866
 20
69.7513358731
  0
VERTEX
  8
0
 62
7
  6
CONTINUOUS
 10
161.3571725597
 20
69.8364910715
  0
SEQEND
  0
POLYLINE
  8
0
 62
7
  6
CONTINUOUS
 66
1
 70
0
  0
VERTEX
  8
0
 62
7
  6
CONTINUOUS
 10
157.3012796359
 20
69.4386689841
  0
VERTEX
  8
0
 62
7
  6
CONTINUOUS
 10
157.4309706639
 20
69.4618051828
  0
VERTEX
  8
0
 62
7
  6
CONTINUOUS
 10
157.6916253078
 20
69.5454443437
  0
VERTEX
  8
0
 62
7
  6
CONTINUOUS
 10
157.815551412
 20
69.6043940531
  0
VERTEX
  8
0
 62
7
  6
CONTINUOUS
 10
158.0398076841
 20
69.7513358731
  0
VERTEX
  8
0
 62
7
  6
CONTINUOUS
 10
158.136128665
 20
69.8364910715
  0
SEQEND
  0
POLYLINE
  8
0
 62
7
  6
CONTINUOUS
 66
1
 70
0
  0
VERTEX
  8
0
 62
7
  6
CONTINUOUS
 10
157.1419841688
 20
69.1909965688
  0
VERTEX
  8
0
 62
7
  6
CONTINUOUS
 10
157.6499436557
 20
69.2791295815
  0
VERTEX
  8
0
 62
7
  6
CONTINUOUS
 10
157.8838703474
 20
69.3216466437
  0
VERTEX
  8
0
 62
7
  6
CONTINUOUS
 10
158.3011769856
 20
69.4017564412
  0
VERTEX
  8
0
 62
7
  6
CONTINUOUS
 10
158.4808295906
 20
69.4386689841
  0
SEQEND
  0
LINE
  8
0
 62
7
  6
CONTINUOUS
 10
160.7604914088
 20
69.4386689841
 11
160.0524441074
 21
69.3216763609
  0
POLYLINE
  8
0
 62
7
  6
CONTINUOUS
 66
1
 70
0
  0
VERTEX
  8
0
 62
7
  6
CONTINUOUS
 10
117.315314335
 20
61.09375
  0
VERTEX
  8
0
 62
7
  6
CONTINUOUS
 10
117.5764259491
 20
61.1285617291
  0
VERTEX
  8
0
 62
7
  6
CONTINUOUS
 10
117.7993886264
 20
61.2248872588
  0
VERTEX
  8
0
 62
7
  6
CONTINUOUS
 10
117.9795261631
 20
61.3708252121
  0
VERTEX
  8
0
 62
7
  6
CONTINUOUS
 10
118.0521496856
 20
61.4578864001
  0
VERTEX
  8
0
 62
7
  6
CONTINUOUS
 10
118.163634807
 20
61.6540851254
  0
VERTEX
  8
0
 62
7
  6
CONTINUOUS
 10
118.2297012214
 20
61.8686610398
  0
VERTEX
  8
0
 62
7
  6
CONTINUOUS
 10
118.2517671744
 20
62.09375
  0
SEQEND
  0
POLYLINE
  8
0
 62
7
  6
CONTINUOUS
 66
1
 70
0
  0
VERTEX
  8
0
 62
7
  6
CONTINUOUS
 10
148.2613212376
 20
61.09375
  0
VERTEX
  8
0
 62
7
  6
CONTINUOUS
 10
148.572535356
 20
61.1285617291
  0
VERTEX
  8
0
 62
7
  6
CONTINUOUS
 10
148.8459245043
 20
61.2248872588
  0
VERTEX
  8
0
 62
7
  6
CONTINUOUS
 10
149.0722767211
 20
61.3708252121
  0
VERTEX
  8
0
 62
7
  6
CONTINUOUS
 10
149.1649832067
 20
61.4578864001
  0
VERTEX
  8
0
 62
7
  6
CONTINUOUS
 10
149.3089843764
 20
61.6540851254
  0
VERTEX
  8
0
 62
7
  6
CONTINUOUS
 10
149.3953106907
 20
61.8686610398
  0
VERTEX
  8
0
 62
7
  6
CONTINUOUS
 10
149.4243113866
 20
62.09375
  0
SEQEND
  0
POLYLINE
  8
0
 62
7
  6
CONTINUOUS
 66
1
 70
0
  0
VERTEX
  8
0
 62
7
  6
CONTINUOUS
 10
135.9413727757
 20
61.09375
  0
VERTEX
  8
0
 62
7
  6
CONTINUOUS
 10
136.2546170307
 20
61.1285617291
  0
VERTEX
  8
0
 62
7
  6
CONTINUOUS
 10
136.5262793883
 20
61.2248872588
  0
VERTEX
  8
0
 62
7
  6
CONTINUOUS
 10
136.7487586038
 20
61.3708252121
  0
VERTEX
  8
0
 62
7
  6
CONTINUOUS
 10
136.8392467162
 20
61.4578864001
  0
VERTEX
  8
0
 62
7
  6
CONTINUOUS
 10
136.9790789976
 20
61.6540851254
  0
VERTEX
  8
0
 62
7
  6
CONTINUOUS
 10
137.0624863023
 20
61.8686610398
  0
VERTEX
  8
0
 62
7
  6
CONTINUOUS
 10
137.0904360055
 20
62.09375
  0
SEQEND
  0
LINE
  8
0
 62
7
  6
CONTINUOUS
 10
38.889145999
 20
69.3216466437
 11
38.1809163387
 21
69.4386689841
  0
POLYLINE
  8
0
 62
7
  6
CONTINUOUS
 66
1
 70
0
  0
VERTEX
  8
0
 62
7
  6
CONTINUOUS
 10
40.4605781568
 20
69.4386689841
  0
VERTEX
  8
0
 62
7
  6
CONTINUOUS
 10
40.6402680278
 20
69.4017489705
  0
VERTEX
  8
0
 62
7
  6
CONTINUOUS
 10
41.057376668
 20
69.3216763609
  0
VERTEX
  8
0
 62
7
  6
CONTINUOUS
 10
41.2912408878
 20
69.2791694977
  0
VERTEX
  8
0
 62
7
  6
CONTINUOUS
 10
41.7992669884
 20
69.1910229822
  0
VERTEX
  8
0
 62
7
  6
CONTINUOUS
 10
42.3126201337
 20
69.1060616594
  0
SEQEND
  0
POLYLINE
  8
0
 62
7
  6
CONTINUOUS
 66
1
 70
0
  0
VERTEX
  8
0
 62
7
  6
CONTINUOUS
 10
75.3678212718
 20
69.8364910715
  0
VERTEX
  8
0
 62
7
  6
CONTINUOUS
 10
75.4804653771
 20
69.7512119224
  0
VERTEX
  8
0
 62
7
  6
CONTINUOUS
 10
75.7278428575
 20
69.604269361
  0
VERTEX
  8
0
 62
7
  6
CONTINUOUS
 10
75.8565639724
 20
69.5453596332
  0
VERTEX
  8
0
 62
7
  6
CONTINUOUS
 10
76.1108440159
 20
69.4617937317
  0
VERTEX
  8
0
 62
7
  6
CONTINUOUS
 10
76.229725665
 20
69.4386689841
  0
SEQEND
  0
POLYLINE
  8
0
 62
7
  6
CONTINUOUS
 66
1
 70
0
  0
VERTEX
  8
0
 62
7
  6
CONTINUOUS
 10
73.2052827716
 20
82.1384875154
  0
VERTEX
  8
0
 62
7
  6
CONTINUOUS
 10
72.934691401
 20
82.5383742459
  0
VERTEX
  8
0
 62
7
  6
CONTINUOUS
 10
72.8223830383
 20
82.6754132921
  0
VERTEX
  8
0
 62
7
  6
CONTINUOUS
 10
72.7426277939
 20
82.7488310159
  0
SEQEND
  0
POLYLINE
  8
0
 62
7
  6
CONTINUOUS
 66
1
 70
0
  0
VERTEX
  8
0
 62
7
  6
CONTINUOUS
 10
72.7426277939
 20
69.4386689841
  0
VERTEX
  8
0
 62
7
  6
CONTINUOUS
 10
72.7011833276
 20
69.4017489705
  0
VERTEX
  8
0
 62
7
  6
CONTINUOUS
 10
72.6860869643
 20
69.360008927
  0
SEQEND
  0
POLYLINE
  8
0
 62
7
  6
CONTINUOUS
 66
1
 70
0
  0
VERTEX
  8
0
 62
7
  6
CONTINUOUS
 10
77.4858569434
 20
83.0413352005
  0
VERTEX
  8
0
 62
7
  6
CONTINUOUS
 10
77.5478636956
 20
83.0680706972
  0
VERTEX
  8
0
 62
7
  6
CONTINUOUS
 10
77.5793634257
 20
83.0814383406
  0
SEQEND
  0
POLYLINE
  8
0
 62
7
  6
CONTINUOUS
 66
1
 70
0
  0
VERTEX
  8
0
 62
7
  6
CONTINUOUS
 10
77.4858569434
 20
83.0413352005
  0
VERTEX
  8
0
 62
7
  6
CONTINUOUS
 10
77.3705572789
 20
82.9965034312
  0
VERTEX
  8
0
 62
7
  6
CONTINUOUS
 10
77.0696140787
 20
82.9083704185
  0
VERTEX
  8
0
 62
7
  6
CONTINUOUS
 10
76.8867734982
 20
82.8658533563
  0
VERTEX
  8
0
 62
7
  6
CONTINUOUS
 10
76.4648343593
 20
82.7857435588
  0
VERTEX
  8
0
 62
7
  6
CONTINUOUS
 10
76.229725665
 20
82.7488310159
  0
SEQEND
  0
POLYLINE
  8
0
 62
7
  6
CONTINUOUS
 66
1
 70
0
  0
VERTEX
  8
0
 62
7
  6
CONTINUOUS
 10
73.1180434537
 20
83.0814383406
  0
VERTEX
  8
0
 62
7
  6
CONTINUOUS
 10
73.0434985406
 20
83.0547029041
  0
VERTEX
  8
0
 62
7
  6
CONTINUOUS
 10
73.0057474029
 20
83.0413352005
  0
SEQEND
  0
POLYLINE
  8
0
 62
7
  6
CONTINUOUS
 66
1
 70
0
  0
VERTEX
  8
0
 62
7
  6
CONTINUOUS
 10
73.1180434537
 20
83.0814383406
  0
VERTEX
  8
0
 62
7
  6
CONTINUOUS
 10
73.1407033364
 20
83.0882704667
  0
VERTEX
  8
0
 62
7
  6
CONTINUOUS
 10
73.1633820245
 20
83.0923799679
  0
VERTEX
  8
0
 62
7
  6
CONTINUOUS
 10
73.1859873677
 20
83.09375
  0
SEQEND
  0
LINE
  8
0
 62
7
  6
CONTINUOUS
 10
141.9099344754
 20
69.1060616594
 11
142.0910631914
 21
69.1461647995
  0
POLYLINE
  8
0
 62
7
  6
CONTINUOUS
 66
1
 70
0
  0
VERTEX
  8
0
 62
7
  6
CONTINUOUS
 10
145.3725401976
 20
69.1461647995
  0
VERTEX
  8
0
 62
7
  6
CONTINUOUS
 10
145.5830194535
 20
69.1909965688
  0
VERTEX
  8
0
 62
7
  6
CONTINUOUS
 10
145.9456998075
 20
69.2791295815
  0
VERTEX
  8
0
 62
7
  6
CONTINUOUS
 10
146.0946251768
 20
69.3216466437
  0
VERTEX
  8
0
 62
7
  6
CONTINUOUS
 10
146.3211300829
 20
69.4017564412
  0
VERTEX
  8
0
 62
7
  6
CONTINUOUS
 10
146.396776944
 20
69.4386689841
  0
SEQEND
  0
POLYLINE
  8
0
 62
7
  6
CONTINUOUS
 66
1
 70
0
  0
VERTEX
  8
0
 62
7
  6
CONTINUOUS
 10
95.6045533088
 20
61.09375
  0
VERTEX
  8
0
 62
7
  6
CONTINUOUS
 10
95.7683878443
 20
61.1285617291
  0
VERTEX
  8
0
 62
7
  6
CONTINUOUS
 10
95.9041022392
 20
61.2248872588
  0
VERTEX
  8
0
 62
7
  6
CONTINUOUS
 10
96.0107537474
 20
61.3708252121
  0
VERTEX
  8
0
 62
7
  6
CONTINUOUS
 10
96.0529566765
 20
61.4578864001
  0
VERTEX
  8
0
 62
7
  6
CONTINUOUS
 10
96.1168198182
 20
61.6540851254
  0
VERTEX
  8
0
 62
7
  6
CONTINUOUS
 10
96.1541230452
 20
61.8686610398
  0
VERTEX
  8
0
 62
7
  6
CONTINUOUS
 10
96.1664902435
 20
62.09375
  0
SEQEND
  0
LINE
  8
0
 62
7
  6
CONTINUOUS
 10
145.3725401976
 20
69.1461647995
 11
145.177648975
 21
69.1060616594
  0
POLYLINE
  8
0
 62
7
  6
CONTINUOUS
 66
1
 70
0
  0
VERTEX
  8
0
 62
7
  6
CONTINUOUS
 10
145.177648975
 20
69.1060616594
  0
VERTEX
  8
0
 62
7
  6
CONTINUOUS
 10
145.1379541523
 20
69.099228803
  0
VERTEX
  8
0
 62
7
  6
CONTINUOUS
 10
145.0981108762
 20
69.0951200642
  0
VERTEX
  8
0
 62
7
  6
CONTINUOUS
 10
145.0582621356
 20
69.09375
  0
SEQEND
  0
POLYLINE
  8
0
 62
7
  6
CONTINUOUS
 66
1
 70
0
  0
VERTEX
  8
0
 62
7
  6
CONTINUOUS
 10
143.8426359394
 20
69.4386689841
  0
VERTEX
  8
0
 62
7
  6
CONTINUOUS
 10
143.9787104115
 20
69.4618051828
  0
VERTEX
  8
0
 62
7
  6
CONTINUOUS
 10
144.2606291957
 20
69.5454443437
  0
VERTEX
  8
0
 62
7
  6
CONTINUOUS
 10
144.3989318784
 20
69.6043940531
  0
VERTEX
  8
0
 62
7
  6
CONTINUOUS
 10
144.6570267491
 20
69.7513358731
  0
VERTEX
  8
0
 62
7
  6
CONTINUOUS
 10
144.7712998653
 20
69.8364910715
  0
SEQEND
  0
LINE
  8
0
 62
7
  6
CONTINUOUS
 10
157.1419841688
 20
69.1909965688
 11
156.6287876138
 21
69.1060616594
  0
LINE
  8
0
 62
7
  6
CONTINUOUS
 10
160.0524441074
 20
69.3216763609
 11
159.2418266916
 21
69.1910229822
  0
LINE
  8
0
 62
7
  6
CONTINUOUS
 10
158.7072414312
 20
69.1060616594
 11
159.2418266916
 21
69.1910229822
  0
POLYLINE
  8
0
 62
7
  6
CONTINUOUS
 66
1
 70
0
  0
VERTEX
  8
0
 62
7
  6
CONTINUOUS
 10
156.6287876138
 20
69.1060616594
  0
VERTEX
  8
0
 62
7
  6
CONTINUOUS
 10
156.5789244723
 20
69.099228803
  0
VERTEX
  8
0
 62
7
  6
CONTINUOUS
 10
156.5288025816
 20
69.0951200642
  0
VERTEX
  8
0
 62
7
  6
CONTINUOUS
 10
156.478600918
 20
69.09375
  0
SEQEND
  0
POLYLINE
  8
0
 62
7
  6
CONTINUOUS
 66
1
 70
0
  0
VERTEX
  8
0
 62
7
  6
CONTINUOUS
 10
157.3012796359
 20
69.4386689841
  0
VERTEX
  8
0
 62
7
  6
CONTINUOUS
 10
157.0280274376
 20
69.4017489705
  0
VERTEX
  8
0
 62
7
  6
CONTINUOUS
 10
156.4670796063
 20
69.3216763609
  0
VERTEX
  8
0
 62
7
  6
CONTINUOUS
 10
156.1842776656
 20
69.2791694977
  0
VERTEX
  8
0
 62
7
  6
CONTINUOUS
 10
155.6267469479
 20
69.1910229822
  0
VERTEX
  8
0
 62
7
  6
CONTINUOUS
 10
155.1196961097
 20
69.1060616594
  0
SEQEND
  0
POLYLINE
  8
0
 62
7
  6
CONTINUOUS
 66
1
 70
0
  0
VERTEX
  8
0
 62
7
  6
CONTINUOUS
 10
143.8426359394
 20
69.4386689841
  0
VERTEX
  8
0
 62
7
  6
CONTINUOUS
 10
143.5643763374
 20
69.4017489705
  0
VERTEX
  8
0
 62
7
  6
CONTINUOUS
 10
143.0265239452
 20
69.3216763609
  0
VERTEX
  8
0
 62
7
  6
CONTINUOUS
 10
142.7716816936
 20
69.2791694977
  0
VERTEX
  8
0
 62
7
  6
CONTINUOUS
 10
142.3017771951
 20
69.1910229822
  0
VERTEX
  8
0
 62
7
  6
CONTINUOUS
 10
142.0910631914
 20
69.1461647995
  0
SEQEND
  0
LINE
  8
0
 62
7
  6
CONTINUOUS
 10
152.1449287084
 20
61.09375
 11
46.7965039007
 21
61.09375
  0
POLYLINE
  8
0
 62
7
  6
CONTINUOUS
 66
1
 70
0
  0
VERTEX
  8
0
 62
7
  6
CONTINUOUS
 10
40.2341663162
 20
69.1060616594
  0
VERTEX
  8
0
 62
7
  6
CONTINUOUS
 10
40.2859339694
 20
69.099228803
  0
VERTEX
  8
0
 62
7
  6
CONTINUOUS
 10
40.3379996626
 20
69.0951200642
  0
VERTEX
  8
0
 62
7
  6
CONTINUOUS
 10
40.3901778444
 20
69.09375
  0
SEQEND
  0
POLYLINE
  8
0
 62
7
  6
CONTINUOUS
 66
1
 70
0
  0
VERTEX
  8
0
 62
7
  6
CONTINUOUS
 10
43.8217116377
 20
69.1060616594
  0
VERTEX
  8
0
 62
7
  6
CONTINUOUS
 10
43.8705164754
 20
69.099228803
  0
VERTEX
  8
0
 62
7
  6
CONTINUOUS
 10
43.9196577093
 20
69.0951200642
  0
VERTEX
  8
0
 62
7
  6
CONTINUOUS
 10
43.9689608992
 20
69.09375
  0
SEQEND
  0
POLYLINE
  8
0
 62
7
  6
CONTINUOUS
 66
1
 70
0
  0
VERTEX
  8
0
 62
7
  6
CONTINUOUS
 10
43.314822307
 20
69.1909965688
  0
VERTEX
  8
0
 62
7
  6
CONTINUOUS
 10
42.7573912019
 20
69.2791295815
  0
VERTEX
  8
0
 62
7
  6
CONTINUOUS
 10
42.4745292473
 20
69.3216466437
  0
VERTEX
  8
0
 62
7
  6
CONTINUOUS
 10
41.9133260454
 20
69.4017564412
  0
VERTEX
  8
0
 62
7
  6
CONTINUOUS
 10
41.6401281116
 20
69.4386689841
  0
SEQEND
  0
LINE
  8
0
 62
7
  6
CONTINUOUS
 10
40.2341663162
 20
69.1060616594
 11
39.699746542
 21
69.1909965688
  0
LINE
  8
0
 62
7
  6
CONTINUOUS
 10
39.699746542
 20
69.1909965688
 11
38.889145999
 21
69.3216466437
  0
LINE
  8
0
 62
7
  6
CONTINUOUS
 10
43.314822307
 20
69.1909965688
 11
43.8217116377
 21
69.1060616594
  0
POLYLINE
  8
0
 62
7
  6
CONTINUOUS
 66
1
 70
0
  0
VERTEX
  8
0
 62
7
  6
CONTINUOUS
 10
57.0314732721
 20
69.1060616594
  0
VERTEX
  8
0
 62
7
  6
CONTINUOUS
 10
57.0688764944
 20
69.099228803
  0
VERTEX
  8
0
 62
7
  6
CONTINUOUS
 10
57.1065963033
 20
69.0951200642
  0
VERTEX
  8
0
 62
7
  6
CONTINUOUS
 10
57.1444995319
 20
69.09375
  0
SEQEND
  0
LINE
  8
0
 62
7
  6
CONTINUOUS
 10
53.7637587724
 20
69.1060616594
 11
53.5688675498
 21
69.1461647995
  0
POLYLINE
  8
0
 62
7
  6
CONTINUOUS
 66
1
 70
0
  0
VERTEX
  8
0
 62
7
  6
CONTINUOUS
 10
56.8503445561
 20
69.1461647995
  0
VERTEX
  8
0
 62
7
  6
CONTINUOUS
 10
56.639760155
 20
69.1909965688
  0
VERTEX
  8
0
 62
7
  6
CONTINUOUS
 10
56.1699563274
 20
69.2791295815
  0
VERTEX
  8
0
 62
7
  6
CONTINUOUS
 10
55.9150688825
 20
69.3216466437
  0
VERTEX
  8
0
 62
7
  6
CONTINUOUS
 10
55.3769772459
 20
69.4017564412
  0
VERTEX
  8
0
 62
7
  6
CONTINUOUS
 10
55.098771808
 20
69.4386689841
  0
SEQEND
  0
LINE
  8
0
 62
7
  6
CONTINUOUS
 10
56.8503445561
 20
69.1461647995
 11
57.0314732721
 21
69.1060616594
  0
POLYLINE
  8
0
 62
7
  6
CONTINUOUS
 66
1
 70
0
  0
VERTEX
  8
0
 62
7
  6
CONTINUOUS
 10
77.5793634257
 20
69.1060616594
  0
VERTEX
  8
0
 62
7
  6
CONTINUOUS
 10
77.5988976758
 20
69.099228803
  0
VERTEX
  8
0
 62
7
  6
CONTINUOUS
 10
77.618673962
 20
69.0951200642
  0
VERTEX
  8
0
 62
7
  6
CONTINUOUS
 10
77.6386234168
 20
69.09375
  0
SEQEND
  0
POLYLINE
  8
0
 62
7
  6
CONTINUOUS
 66
1
 70
0
  0
VERTEX
  8
0
 62
7
  6
CONTINUOUS
 10
73.1180434537
 20
69.1060616594
  0
VERTEX
  8
0
 62
7
  6
CONTINUOUS
 10
73.0809307855
 20
69.119429301
  0
VERTEX
  8
0
 62
7
  6
CONTINUOUS
 10
73.0057474029
 20
69.1461647995
  0
SEQEND
  0
POLYLINE
  8
0
 62
7
  6
CONTINUOUS
 66
1
 70
0
  0
VERTEX
  8
0
 62
7
  6
CONTINUOUS
 10
77.4858569434
 20
69.1461647995
  0
VERTEX
  8
0
 62
7
  6
CONTINUOUS
 10
77.3705572789
 20
69.1909965688
  0
VERTEX
  8
0
 62
7
  6
CONTINUOUS
 10
77.0696140787
 20
69.2791295815
  0
VERTEX
  8
0
 62
7
  6
CONTINUOUS
 10
76.8867734982
 20
69.3216466437
  0
VERTEX
  8
0
 62
7
  6
CONTINUOUS
 10
76.4648343593
 20
69.4017564412
  0
VERTEX
  8
0
 62
7
  6
CONTINUOUS
 10
76.229725665
 20
69.4386689841
  0
SEQEND
  0
POLYLINE
  8
0
 62
7
  6
CONTINUOUS
 66
1
 70
0
  0
VERTEX
  8
0
 62
7
  6
CONTINUOUS
 10
77.4858569434
 20
69.1461647995
  0
VERTEX
  8
0
 62
7
  6
CONTINUOUS
 10
77.5166946781
 20
69.1327970978
  0
VERTEX
  8
0
 62
7
  6
CONTINUOUS
 10
77.5793634257
 20
69.1060616594
  0
SEQEND
  0
POLYLINE
  8
0
 62
7
  6
CONTINUOUS
 66
1
 70
0
  0
VERTEX
  8
0
 62
7
  6
CONTINUOUS
 10
72.7426277939
 20
82.7488310159
  0
VERTEX
  8
0
 62
7
  6
CONTINUOUS
 10
72.7011833276
 20
82.7857510295
  0
VERTEX
  8
0
 62
7
  6
CONTINUOUS
 10
72.6860869643
 20
82.827491073
  0
SEQEND
  0
POLYLINE
  8
0
 62
7
  6
CONTINUOUS
 66
1
 70
0
  0
VERTEX
  8
0
 62
7
  6
CONTINUOUS
 10
73.5196335583
 20
81.7611426753
  0
VERTEX
  8
0
 62
7
  6
CONTINUOUS
 10
73.2987894898
 20
82.0176246243
  0
VERTEX
  8
0
 62
7
  6
CONTINUOUS
 10
73.2052827716
 20
82.1384875154
  0
SEQEND
  0
POLYLINE
  8
0
 62
7
  6
CONTINUOUS
 66
1
 70
0
  0
VERTEX
  8
0
 62
7
  6
CONTINUOUS
 10
72.7426277939
 20
69.4386689841
  0
VERTEX
  8
0
 62
7
  6
CONTINUOUS
 10
72.7720953741
 20
69.4618051828
  0
VERTEX
  8
0
 62
7
  6
CONTINUOUS
 10
72.8519433704
 20
69.5454443437
  0
VERTEX
  8
0
 62
7
  6
CONTINUOUS
 10
72.9003391014
 20
69.6043940531
  0
VERTEX
  8
0
 62
7
  6
CONTINUOUS
 10
73.0070435547
 20
69.7513358731
  0
VERTEX
  8
0
 62
7
  6
CONTINUOUS
 10
73.0612319832
 20
69.8364910715
  0
SEQEND
  0
POLYLINE
  8
0
 62
7
  6
CONTINUOUS
 66
1
 70
0
  0
VERTEX
  8
0
 62
7
  6
CONTINUOUS
 10
122.7116820825
 20
69.4386689841
  0
VERTEX
  8
0
 62
7
  6
CONTINUOUS
 10
122.8306114862
 20
69.4618051828
  0
VERTEX
  8
0
 62
7
  6
CONTINUOUS
 10
123.0850480918
 20
69.5454443437
  0
VERTEX
  8
0
 62
7
  6
CONTINUOUS
 10
123.2138135626
 20
69.6043940531
  0
VERTEX
  8
0
 62
7
  6
CONTINUOUS
 10
123.4611200841
 20
69.7513358731
  0
VERTEX
  8
0
 62
7
  6
CONTINUOUS
 10
123.5735864756
 20
69.8364910715
  0
SEQEND
  0
POLYLINE
  8
0
 62
7
  6
CONTINUOUS
 66
1
 70
0
  0
VERTEX
  8
0
 62
7
  6
CONTINUOUS
 10
122.7116820825
 20
69.4386689841
  0
VERTEX
  8
0
 62
7
  6
CONTINUOUS
 10
122.4765286897
 20
69.4017489705
  0
VERTEX
  8
0
 62
7
  6
CONTINUOUS
 10
122.0547713016
 20
69.3216763609
  0
VERTEX
  8
0
 62
7
  6
CONTINUOUS
 10
121.8719532795
 20
69.2791694977
  0
VERTEX
  8
0
 62
7
  6
CONTINUOUS
 10
121.570925757
 20
69.1910229822
  0
VERTEX
  8
0
 62
7
  6
CONTINUOUS
 10
121.455550804
 20
69.1461647995
  0
SEQEND
  0
POLYLINE
  8
0
 62
7
  6
CONTINUOUS
 66
1
 70
0
  0
VERTEX
  8
0
 62
7
  6
CONTINUOUS
 10
121.3027843306
 20
69.09375
  0
VERTEX
  8
0
 62
7
  6
CONTINUOUS
 10
121.3227337855
 20
69.0951200642
  0
VERTEX
  8
0
 62
7
  6
CONTINUOUS
 10
121.3425100717
 20
69.099228803
  0
VERTEX
  8
0
 62
7
  6
CONTINUOUS
 10
121.3620443217
 20
69.1060616594
  0
SEQEND
  0
POLYLINE
  8
0
 62
7
  6
CONTINUOUS
 66
1
 70
0
  0
VERTEX
  8
0
 62
7
  6
CONTINUOUS
 10
141.7969082155
 20
69.09375
  0
VERTEX
  8
0
 62
7
  6
CONTINUOUS
 10
141.8348114442
 20
69.0951200642
  0
VERTEX
  8
0
 62
7
  6
CONTINUOUS
 10
141.8725312531
 20
69.099228803
  0
VERTEX
  8
0
 62
7
  6
CONTINUOUS
 10
141.9099344754
 20
69.1060616594
  0
SEQEND
  0
POLYLINE
  8
0
 62
7
  6
CONTINUOUS
 66
1
 70
0
  0
VERTEX
  8
0
 62
7
  6
CONTINUOUS
 10
154.9724468482
 20
69.09375
  0
VERTEX
  8
0
 62
7
  6
CONTINUOUS
 10
155.0217500381
 20
69.0951200642
  0
VERTEX
  8
0
 62
7
  6
CONTINUOUS
 10
155.0708912721
 20
69.099228803
  0
VERTEX
  8
0
 62
7
  6
CONTINUOUS
 10
155.1196961097
 20
69.1060616594
  0
SEQEND
  0
POLYLINE
  8
0
 62
7
  6
CONTINUOUS
 66
1
 70
0
  0
VERTEX
  8
0
 62
7
  6
CONTINUOUS
 10
158.5512299031
 20
69.09375
  0
VERTEX
  8
0
 62
7
  6
CONTINUOUS
 10
158.6034080849
 20
69.0951200642
  0
VERTEX
  8
0
 62
7
  6
CONTINUOUS
 10
158.655473778
 20
69.099228803
  0
VERTEX
  8
0
 62
7
  6
CONTINUOUS
 10
158.7072414312
 20
69.1060616594
  0
SEQEND
  0
POLYLINE
  8
0
 62
7
  6
CONTINUOUS
 66
1
 70
0
  0
VERTEX
  8
0
 62
7
  6
CONTINUOUS
 10
42.4628068295
 20
69.09375
  0
VERTEX
  8
0
 62
7
  6
CONTINUOUS
 10
42.4126051658
 20
69.0951200642
  0
VERTEX
  8
0
 62
7
  6
CONTINUOUS
 10
42.3624832751
 20
69.099228803
  0
VERTEX
  8
0
 62
7
  6
CONTINUOUS
 10
42.3126201337
 20
69.1060616594
  0
SEQEND
  0
POLYLINE
  8
0
 62
7
  6
CONTINUOUS
 66
1
 70
0
  0
VERTEX
  8
0
 62
7
  6
CONTINUOUS
 10
53.8831456118
 20
69.09375
  0
VERTEX
  8
0
 62
7
  6
CONTINUOUS
 10
53.8432968712
 20
69.0951200642
  0
VERTEX
  8
0
 62
7
  6
CONTINUOUS
 10
53.8034535951
 20
69.099228803
  0
VERTEX
  8
0
 62
7
  6
CONTINUOUS
 10
53.7637587724
 20
69.1060616594
  0
SEQEND
  0
POLYLINE
  8
0
 62
7
  6
CONTINUOUS
 66
1
 70
0
  0
VERTEX
  8
0
 62
7
  6
CONTINUOUS
 10
73.1859873677
 20
69.09375
  0
VERTEX
  8
0
 62
7
  6
CONTINUOUS
 10
73.1633817593
 20
69.0951200642
  0
VERTEX
  8
0
 62
7
  6
CONTINUOUS
 10
73.1407063622
 20
69.099228803
  0
VERTEX
  8
0
 62
7
  6
CONTINUOUS
 10
73.1180434537
 20
69.1060616594
  0
SEQEND
  0
POLYLINE
  8
0
 62
7
  6
CONTINUOUS
 66
1
 70
0
  0
VERTEX
  8
0
 62
7
  6
CONTINUOUS
 10
97.028942528
 20
83.0814383406
  0
VERTEX
  8
0
 62
7
  6
CONTINUOUS
 10
97.0258704628
 20
83.068070699
  0
VERTEX
  8
0
 62
7
  6
CONTINUOUS
 10
97.0224424848
 20
83.0547029041
  0
VERTEX
  8
0
 62
7
  6
CONTINUOUS
 10
97.0186586563
 20
83.0413352005
  0
SEQEND
  0
POLYLINE
  8
0
 62
7
  6
CONTINUOUS
 66
1
 70
0
  0
VERTEX
  8
0
 62
7
  6
CONTINUOUS
 10
97.028942528
 20
83.0814383406
  0
VERTEX
  8
0
 62
7
  6
CONTINUOUS
 10
97.0306546793
 20
83.0882704667
  0
VERTEX
  8
0
 62
7
  6
CONTINUOUS
 10
97.0322416533
 20
83.0923799679
  0
VERTEX
  8
0
 62
7
  6
CONTINUOUS
 10
97.0336953965
 20
83.09375
  0
SEQEND
  0
POLYLINE
  8
0
 62
7
  6
CONTINUOUS
 66
1
 70
0
  0
VERTEX
  8
0
 62
7
  6
CONTINUOUS
 10
74.5608365462
 20
61.09375
  0
VERTEX
  8
0
 62
7
  6
CONTINUOUS
 10
74.5990579732
 20
61.1285617291
  0
VERTEX
  8
0
 62
7
  6
CONTINUOUS
 10
74.6240511278
 20
61.2248872588
  0
VERTEX
  8
0
 62
7
  6
CONTINUOUS
 10
74.6387699893
 20
61.3708252121
  0
VERTEX
  8
0
 62
7
  6
CONTINUOUS
 10
74.643252747
 20
61.4578864001
  0
VERTEX
  8
0
 62
7
  6
CONTINUOUS
 10
74.6484477911
 20
61.6540851254
  0
VERTEX
  8
0
 62
7
  6
CONTINUOUS
 10
74.6505355967
 20
61.8686610398
  0
VERTEX
  8
0
 62
7
  6
CONTINUOUS
 10
74.6510649098
 20
69.09375
  0
SEQEND
  0
POLYLINE
  8
0
 62
7
  6
CONTINUOUS
 66
1
 70
0
  0
VERTEX
  8
0
 62
7
  6
CONTINUOUS
 10
101.3792557919
 20
82.7488310159
  0
VERTEX
  8
0
 62
7
  6
CONTINUOUS
 10
101.1786758835
 20
82.6754676294
  0
VERTEX
  8
0
 62
7
  6
CONTINUOUS
 10
100.9534299774
 20
82.5385225333
  0
VERTEX
  8
0
 62
7
  6
CONTINUOUS
 10
100.7331420312
 20
82.3510089285
  0
SEQEND
  0
POLYLINE
  8
0
 62
7
  6
CONTINUOUS
 66
1
 70
0
  0
VERTEX
  8
0
 62
7
  6
CONTINUOUS
 10
97.5621519555
 20
69.4386689841
  0
VERTEX
  8
0
 62
7
  6
CONTINUOUS
 10
97.41076493
 20
69.4017489705
  0
VERTEX
  8
0
 62
7
  6
CONTINUOUS
 10
97.1780282298
 20
69.3216763609
  0
VERTEX
  8
0
 62
7
  6
CONTINUOUS
 10
97.0988453341
 20
69.2791694977
  0
VERTEX
  8
0
 62
7
  6
CONTINUOUS
 10
97.018745181
 20
69.1910229822
  0
VERTEX
  8
0
 62
7
  6
CONTINUOUS
 10
97.0153518737
 20
69.1684950089
  0
SEQEND
  0
LINE
  8
0
 62
7
  6
CONTINUOUS
 10
101.9077123509
 20
69.09375
 11
97.0336953965
 21
69.09375
  0
LINE
  8
0
 62
7
  6
CONTINUOUS
 10
40.3901778444
 20
69.09375
 11
49.5167991615
 21
69.09375
  0
LINE
  8
0
 62
7
  6
CONTINUOUS
 10
53.8831456118
 20
69.09375
 11
61.8503938014
 21
69.09375
  0
LINE
  8
0
 62
7
  6
CONTINUOUS
 10
73.1859873677
 20
69.09375
 11
80.689640573
 21
69.09375
  0
LINE
  8
0
 62
7
  6
CONTINUOUS
 10
96.1664902435
 20
69.09375
 11
97.028942528
 21
69.09375
  0
LINE
  8
0
 62
7
  6
CONTINUOUS
 10
101.9124652194
 20
69.09375
 11
102.7749175039
 21
69.09375
  0
LINE
  8
0
 62
7
  6
CONTINUOUS
 10
118.2517671744
 20
69.09375
 11
125.7554203798
 21
69.09375
  0
LINE
  8
0
 62
7
  6
CONTINUOUS
 10
137.0904360055
 20
69.09375
 11
145.0582621356
 21
69.09375
  0
LINE
  8
0
 62
7
  6
CONTINUOUS
 10
149.4243113866
 20
69.09375
 11
158.5512299031
 21
69.09375
  0
POLYLINE
  8
0
 62
7
  6
CONTINUOUS
 66
1
 70
0
  0
VERTEX
  8
0
 62
7
  6
CONTINUOUS
 10
100.7331420312
 20
69.8364910715
  0
VERTEX
  8
0
 62
7
  6
CONTINUOUS
 10
100.8244978718
 20
69.7512119224
  0
VERTEX
  8
0
 62
7
  6
CONTINUOUS
 10
101.0183017901
 20
69.604269361
  0
VERTEX
  8
0
 62
7
  6
CONTINUOUS
 10
101.1152270194
 20
69.5453596332
  0
VERTEX
  8
0
 62
7
  6
CONTINUOUS
 10
101.2980686212
 20
69.4617937317
  0
VERTEX
  8
0
 62
7
  6
CONTINUOUS
 10
101.3792557919
 20
69.4386689841
  0
SEQEND
  0
POLYLINE
  8
0
 62
7
  6
CONTINUOUS
 66
1
 70
0
  0
VERTEX
  8
0
 62
7
  6
CONTINUOUS
 10
97.0336953965
 20
69.09375
  0
VERTEX
  8
0
 62
7
  6
CONTINUOUS
 10
97.0322416355
 20
69.0951200642
  0
VERTEX
  8
0
 62
7
  6
CONTINUOUS
 10
97.0306548996
 20
69.099228803
  0
VERTEX
  8
0
 62
7
  6
CONTINUOUS
 10
97.028942528
 20
69.1060616594
  0
SEQEND
  0
POLYLINE
  8
0
 62
7
  6
CONTINUOUS
 66
1
 70
0
  0
VERTEX
  8
0
 62
7
  6
CONTINUOUS
 10
97.028942528
 20
69.1060616594
  0
VERTEX
  8
0
 62
7
  6
CONTINUOUS
 10
97.0258704628
 20
69.119429301
  0
VERTEX
  8
0
 62
7
  6
CONTINUOUS
 10
97.0224424848
 20
69.1327970959
  0
VERTEX
  8
0
 62
7
  6
CONTINUOUS
 10
97.0186586563
 20
69.1461647995
  0
SEQEND
  0
POLYLINE
  8
0
 62
7
  6
CONTINUOUS
 66
1
 70
0
  0
VERTEX
  8
0
 62
7
  6
CONTINUOUS
 10
96.1664902435
 20
90.09375
  0
VERTEX
  8
0
 62
7
  6
CONTINUOUS
 10
96.1541175437
 20
90.3188881706
  0
VERTEX
  8
0
 62
7
  6
CONTINUOUS
 10
96.1168345674
 20
90.5333540675
  0
VERTEX
  8
0
 62
7
  6
CONTINUOUS
 10
96.0529779908
 20
90.7295633961
  0
VERTEX
  8
0
 62
7
  6
CONTINUOUS
 10
96.0108002326
 20
90.8165906884
  0
VERTEX
  8
0
 62
7
  6
CONTINUOUS
 10
95.9041649867
 20
90.9625489912
  0
VERTEX
  8
0
 62
7
  6
CONTINUOUS
 10
95.7685321798
 20
91.0588732626
  0
VERTEX
  8
0
 62
7
  6
CONTINUOUS
 10
95.6045533088
 20
91.09375
  0
SEQEND
  0
LINE
  8
0
 62
7
  6
CONTINUOUS
 10
96.1664902435
 20
90.09375
 11
96.1664902435
 21
83.09375
  0
LINE
  8
0
 62
7
  6
CONTINUOUS
 10
96.1664902435
 20
69.09375
 11
96.1664902435
 21
62.09375
  0
LINE
  8
0
 62
7
  6
CONTINUOUS
 10
96.7390283457
 20
83.09375
 11
96.7390283457
 21
69.09375
  0
LINE
  8
0
 62
7
  6
CONTINUOUS
 10
97.0153518737
 20
83.0190291166
 11
97.0153518737
 21
69.1684708834
  0
LINE
  8
DEFAULT_1
 62
2
  6
CENTER
 10
99.4707038737
 20
59.09375
 11
99.4707038737
 21
93.09375
  0
LINE
  8
0
 62
7
  6
CONTINUOUS
 10
97.0153518737
 20
83.0190049911
 11
97.0186586563
 21
83.0413352005
  0
POLYLINE
  8
0
 62
7
  6
CONTINUOUS
 66
1
 70
0
  0
VERTEX
  8
0
 62
7
  6
CONTINUOUS
 10
100.7331420312
 20
82.3510089285
  0
VERTEX
  8
0
 62
7
  6
CONTINUOUS
 10
100.3996145223
 20
82.0175768497
  0
VERTEX
  8
0
 62
7
  6
CONTINUOUS
 10
100.1415479412
 20
81.7611426753
  0
SEQEND
  0
POLYLINE
  8
0
 62
7
  6
CONTINUOUS
 66
1
 70
0
  0
VERTEX
  8
0
 62
7
  6
CONTINUOUS
 10
100.1415479412
 20
70.4263573247
  0
VERTEX
  8
0
 62
7
  6
CONTINUOUS
 10
100.5208176256
 20
70.0490947612
  0
VERTEX
  8
0
 62
7
  6
CONTINUOUS
 10
100.7331420312
 20
69.8364910715
  0
SEQEND
  0
LINE
  8
0
 62
7
  6
CONTINUOUS
 10
97.0153518737
 20
69.1684950089
 11
97.0186586563
 21
69.1461647995
  0
POLYLINE
  8
0
 62
7
  6
CONTINUOUS
 66
1
 70
0
  0
VERTEX
  8
0
 62
7
  6
CONTINUOUS
 10
102.7749175039
 20
62.09375
  0
VERTEX
  8
0
 62
7
  6
CONTINUOUS
 10
102.7872847022
 20
61.8686610398
  0
VERTEX
  8
0
 62
7
  6
CONTINUOUS
 10
102.8245879293
 20
61.6540851254
  0
VERTEX
  8
0
 62
7
  6
CONTINUOUS
 10
102.888451071
 20
61.4578864001
  0
VERTEX
  8
0
 62
7
  6
CONTINUOUS
 10
102.9306540001
 20
61.3708252121
  0
VERTEX
  8
0
 62
7
  6
CONTINUOUS
 10
103.0373055082
 20
61.2248872588
  0
VERTEX
  8
0
 62
7
  6
CONTINUOUS
 10
103.1730199031
 20
61.1285617291
  0
VERTEX
  8
0
 62
7
  6
CONTINUOUS
 10
103.3368544386
 20
61.09375
  0
SEQEND
  0
LINE
  8
0
 62
7
  6
CONTINUOUS
 10
101.9260558737
 20
83.0190291166
 11
101.9260558737
 21
69.1684708834
  0
LINE
  8
0
 62
7
  6
CONTINUOUS
 10
102.2023794017
 20
83.09375
 11
102.2023794017
 21
69.09375
  0
LINE
  8
0
 62
7
  6
CONTINUOUS
 10
102.7749175039
 20
90.09375
 11
102.7749175039
 21
83.09375
  0
LINE
  8
0
 62
7
  6
CONTINUOUS
 10
102.7749175039
 20
69.09375
 11
102.7749175039
 21
62.09375
  0
LINE
  8
0
 62
7
  6
CONTINUOUS
 10
101.9227490911
 20
69.1461647995
 11
101.9260558737
 21
69.1684949868
  0
POLYLINE
  8
0
 62
7
  6
CONTINUOUS
 66
1
 70
0
  0
VERTEX
  8
0
 62
7
  6
CONTINUOUS
 10
101.9260558737
 20
83.0190050132
  0
VERTEX
  8
0
 62
7
  6
CONTINUOUS
 10
101.9226705226
 20
82.9965034312
  0
VERTEX
  8
0
 62
7
  6
CONTINUOUS
 10
101.842623763
 20
82.9083704185
  0
VERTEX
  8
0
 62
7
  6
CONTINUOUS
 10
101.7634448444
 20
82.8658533563
  0
VERTEX
  8
0
 62
7
  6
CONTINUOUS
 10
101.5306153134
 20
82.7857435588
  0
VERTEX
  8
0
 62
7
  6
CONTINUOUS
 10
101.3792557919
 20
82.7488310159
  0
SEQEND
  0
POLYLINE
  8
0
 62
7
  6
CONTINUOUS
 66
1
 70
0
  0
VERTEX
  8
0
 62
7
  6
CONTINUOUS
 10
101.9124652194
 20
69.1060616594
  0
VERTEX
  8
0
 62
7
  6
CONTINUOUS
 10
101.9107528479
 20
69.099228803
  0
VERTEX
  8
0
 62
7
  6
CONTINUOUS
 10
101.9091661119
 20
69.0951200642
  0
VERTEX
  8
0
 62
7
  6
CONTINUOUS
 10
101.9077123509
 20
69.09375
  0
SEQEND
  0
POLYLINE
  8
0
 62
7
  6
CONTINUOUS
 66
1
 70
0
  0
VERTEX
  8
0
 62
7
  6
CONTINUOUS
 10
101.9227490911
 20
69.1461647995
  0
VERTEX
  8
0
 62
7
  6
CONTINUOUS
 10
101.9189652632
 20
69.1327970978
  0
VERTEX
  8
0
 62
7
  6
CONTINUOUS
 10
101.915537285
 20
69.1194293028
  0
VERTEX
  8
0
 62
7
  6
CONTINUOUS
 10
101.9124652194
 20
69.1060616594
  0
SEQEND
  0
POLYLINE
  8
0
 62
7
  6
CONTINUOUS
 66
1
 70
0
  0
VERTEX
  8
0
 62
7
  6
CONTINUOUS
 10
98.2082657163
 20
69.8364910715
  0
VERTEX
  8
0
 62
7
  6
CONTINUOUS
 10
98.541678364
 20
70.1698087848
  0
VERTEX
  8
0
 62
7
  6
CONTINUOUS
 10
98.7998598062
 20
70.4263573247
  0
SEQEND
  0
POLYLINE
  8
0
 62
7
  6
CONTINUOUS
 66
1
 70
0
  0
VERTEX
  8
0
 62
7
  6
CONTINUOUS
 10
98.2082657163
 20
82.3510089285
  0
VERTEX
  8
0
 62
7
  6
CONTINUOUS
 10
97.9881830425
 20
82.5383742459
  0
VERTEX
  8
0
 62
7
  6
CONTINUOUS
 10
97.7628424896
 20
82.6754132921
  0
VERTEX
  8
0
 62
7
  6
CONTINUOUS
 10
97.5621519555
 20
82.7488310159
  0
SEQEND
  0
POLYLINE
  8
0
 62
7
  6
CONTINUOUS
 66
1
 70
0
  0
VERTEX
  8
0
 62
7
  6
CONTINUOUS
 10
98.7998598062
 20
81.7611426753
  0
VERTEX
  8
0
 62
7
  6
CONTINUOUS
 10
98.4205077008
 20
82.1384875154
  0
VERTEX
  8
0
 62
7
  6
CONTINUOUS
 10
98.2082657163
 20
82.3510089285
  0
SEQEND
  0
POLYLINE
  8
0
 62
7
  6
CONTINUOUS
 66
1
 70
0
  0
VERTEX
  8
0
 62
7
  6
CONTINUOUS
 10
101.9227490911
 20
83.0413352005
  0
VERTEX
  8
0
 62
7
  6
CONTINUOUS
 10
101.9189652632
 20
83.0547029022
  0
VERTEX
  8
0
 62
7
  6
CONTINUOUS
 10
101.915537285
 20
83.0680706972
  0
VERTEX
  8
0
 62
7
  6
CONTINUOUS
 10
101.9124652194
 20
83.0814383406
  0
SEQEND
  0
POLYLINE
  8
0
 62
7
  6
CONTINUOUS
 66
1
 70
0
  0
VERTEX
  8
0
 62
7
  6
CONTINUOUS
 10
101.9260558737
 20
69.1684949868
  0
VERTEX
  8
0
 62
7
  6
CONTINUOUS
 10
101.9226705226
 20
69.1909965688
  0
VERTEX
  8
0
 62
7
  6
CONTINUOUS
 10
101.842623763
 20
69.2791295815
  0
VERTEX
  8
0
 62
7
  6
CONTINUOUS
 10
101.7634448444
 20
69.3216466437
  0
VERTEX
  8
0
 62
7
  6
CONTINUOUS
 10
101.5306153134
 20
69.4017564412
  0
VERTEX
  8
0
 62
7
  6
CONTINUOUS
 10
101.3792557919
 20
69.4386689841
  0
SEQEND
  0
LINE
  8
0
 62
7
  6
CONTINUOUS
 10
101.9227490911
 20
83.0413352005
 11
101.9260558737
 21
83.0190050132
  0
POLYLINE
  8
0
 62
7
  6
CONTINUOUS
 66
1
 70
0
  0
VERTEX
  8
0
 62
7
  6
CONTINUOUS
 10
124.3798707741
 20
91.09375
  0
VERTEX
  8
0
 62
7
  6
CONTINUOUS
 10
124.3416145878
 20
91.0588732626
  0
VERTEX
  8
0
 62
7
  6
CONTINUOUS
 10
124.3166372234
 20
90.9625489912
  0
VERTEX
  8
0
 62
7
  6
CONTINUOUS
 10
124.3019195324
 20
90.8165906884
  0
VERTEX
  8
0
 62
7
  6
CONTINUOUS
 10
124.2974386788
 20
90.7295633961
  0
VERTEX
  8
0
 62
7
  6
CONTINUOUS
 10
124.2922425343
 20
90.5333540675
  0
VERTEX
  8
0
 62
7
  6
CONTINUOUS
 10
124.2901546386
 20
90.3188881706
  0
VERTEX
  8
0
 62
7
  6
CONTINUOUS
 10
124.2896246308
 20
83.09375
  0
SEQEND
  0
POLYLINE
  8
0
 62
7
  6
CONTINUOUS
 66
1
 70
0
  0
VERTEX
  8
0
 62
7
  6
CONTINUOUS
 10
97.5621519555
 20
69.4386689841
  0
VERTEX
  8
0
 62
7
  6
CONTINUOUS
 10
97.6433723167
 20
69.4618051828
  0
VERTEX
  8
0
 62
7
  6
CONTINUOUS
 10
97.8263323429
 20
69.5454443437
  0
VERTEX
  8
0
 62
7
  6
CONTINUOUS
 10
97.9232958823
 20
69.6043940531
  0
VERTEX
  8
0
 62
7
  6
CONTINUOUS
 10
98.1170525103
 20
69.7513358731
  0
VERTEX
  8
0
 62
7
  6
CONTINUOUS
 10
98.2082657163
 20
69.8364910715
  0
SEQEND
  0
POLYLINE
  8
0
 62
7
  6
CONTINUOUS
 66
1
 70
0
  0
VERTEX
  8
0
 62
7
  6
CONTINUOUS
 10
77.6386234168
 20
83.09375
  0
VERTEX
  8
0
 62
7
  6
CONTINUOUS
 10
77.6186741946
 20
83.0923799679
  0
VERTEX
  8
0
 62
7
  6
CONTINUOUS
 10
77.5988950524
 20
83.0882704667
  0
VERTEX
  8
0
 62
7
  6
CONTINUOUS
 10
77.5793634257
 20
83.0814383406
  0
SEQEND
  0
POLYLINE
  8
0
 62
7
  6
CONTINUOUS
 66
1
 70
0
  0
VERTEX
  8
0
 62
7
  6
CONTINUOUS
 10
57.1444995319
 20
83.09375
  0
VERTEX
  8
0
 62
7
  6
CONTINUOUS
 10
57.106596746
 20
83.0923799679
  0
VERTEX
  8
0
 62
7
  6
CONTINUOUS
 10
57.068871481
 20
83.0882704667
  0
VERTEX
  8
0
 62
7
  6
CONTINUOUS
 10
57.0314732721
 20
83.0814383406
  0
SEQEND
  0
POLYLINE
  8
0
 62
7
  6
CONTINUOUS
 66
1
 70
0
  0
VERTEX
  8
0
 62
7
  6
CONTINUOUS
 10
43.9689608992
 20
83.09375
  0
VERTEX
  8
0
 62
7
  6
CONTINUOUS
 10
43.9196582857
 20
83.0923799679
  0
VERTEX
  8
0
 62
7
  6
CONTINUOUS
 10
43.8705099388
 20
83.0882704667
  0
VERTEX
  8
0
 62
7
  6
CONTINUOUS
 10
43.8217116377
 20
83.0814383406
  0
SEQEND
  0
POLYLINE
  8
0
 62
7
  6
CONTINUOUS
 66
1
 70
0
  0
VERTEX
  8
0
 62
7
  6
CONTINUOUS
 10
40.3901778444
 20
83.09375
  0
VERTEX
  8
0
 62
7
  6
CONTINUOUS
 10
40.3380002729
 20
83.0923799679
  0
VERTEX
  8
0
 62
7
  6
CONTINUOUS
 10
40.28592704
 20
83.0882704667
  0
VERTEX
  8
0
 62
7
  6
CONTINUOUS
 10
40.2341663162
 20
83.0814383406
  0
SEQEND
  0
LINE
  8
0
 62
7
  6
CONTINUOUS
 10
40.3901778444
 20
83.09375
 11
49.5167991615
 21
83.09375
  0
LINE
  8
0
 62
7
  6
CONTINUOUS
 10
53.8831456118
 20
83.09375
 11
61.8503938014
 21
83.09375
  0
LINE
  8
0
 62
7
  6
CONTINUOUS
 10
73.1859873677
 20
83.09375
 11
80.689640573
 21
83.09375
  0
LINE
  8
0
 62
7
  6
CONTINUOUS
 10
96.1664902435
 20
83.09375
 11
97.028942528
 21
83.09375
  0
LINE
  8
0
 62
7
  6
CONTINUOUS
 10
97.0336953965
 20
83.09375
 11
101.9077123509
 21
83.09375
  0
LINE
  8
0
 62
7
  6
CONTINUOUS
 10
101.9124652194
 20
83.09375
 11
102.7749175039
 21
83.09375
  0
LINE
  8
0
 62
7
  6
CONTINUOUS
 10
118.2517671744
 20
83.09375
 11
125.7554203798
 21
83.09375
  0
LINE
  8
0
 62
7
  6
CONTINUOUS
 10
137.0904360055
 20
83.09375
 11
145.0582621356
 21
83.09375
  0
LINE
  8
0
 62
7
  6
CONTINUOUS
 10
149.4243113866
 20
83.09375
 11
158.5512299031
 21
83.09375
  0
POLYLINE
  8
0
 62
7
  6
CONTINUOUS
 66
1
 70
0
  0
VERTEX
  8
0
 62
7
  6
CONTINUOUS
 10
156.478600918
 20
83.09375
  0
VERTEX
  8
0
 62
7
  6
CONTINUOUS
 10
156.5288019942
 20
83.0923799679
  0
VERTEX
  8
0
 62
7
  6
CONTINUOUS
 10
156.578931145
 20
83.0882704667
  0
VERTEX
  8
0
 62
7
  6
CONTINUOUS
 10
156.6287876138
 20
83.0814383406
  0
SEQEND
  0
POLYLINE
  8
0
 62
7
  6
CONTINUOUS
 66
1
 70
0
  0
VERTEX
  8
0
 62
7
  6
CONTINUOUS
 10
145.0582621356
 20
83.09375
  0
VERTEX
  8
0
 62
7
  6
CONTINUOUS
 10
145.0981104096
 20
83.0923799679
  0
VERTEX
  8
0
 62
7
  6
CONTINUOUS
 10
145.1379594604
 20
83.0882704667
  0
VERTEX
  8
0
 62
7
  6
CONTINUOUS
 10
145.177648975
 20
83.0814383406
  0
SEQEND
  0
POLYLINE
  8
0
 62
7
  6
CONTINUOUS
 66
1
 70
0
  0
VERTEX
  8
0
 62
7
  6
CONTINUOUS
 10
125.7554203798
 20
83.09375
  0
VERTEX
  8
0
 62
7
  6
CONTINUOUS
 10
125.778025723
 20
83.0923799679
  0
VERTEX
  8
0
 62
7
  6
CONTINUOUS
 10
125.800704411
 20
83.0882704667
  0
VERTEX
  8
0
 62
7
  6
CONTINUOUS
 10
125.8233642938
 20
83.0814383406
  0
SEQEND
  0
POLYLINE
  8
0
 62
7
  6
CONTINUOUS
 66
1
 70
0
  0
VERTEX
  8
0
 62
7
  6
CONTINUOUS
 10
97.5621519555
 20
82.7488310159
  0
VERTEX
  8
0
 62
7
  6
CONTINUOUS
 10
97.41076493
 20
82.7857510295
  0
VERTEX
  8
0
 62
7
  6
CONTINUOUS
 10
97.1780282298
 20
82.8658236391
  0
VERTEX
  8
0
 62
7
  6
CONTINUOUS
 10
97.0988453341
 20
82.9083305023
  0
VERTEX
  8
0
 62
7
  6
CONTINUOUS
 10
97.018745181
 20
82.9964770178
  0
VERTEX
  8
0
 62
7
  6
CONTINUOUS
 10
97.0153518737
 20
83.0190049911
  0
SEQEND
  0
POLYLINE
  8
0
 62
7
  6
CONTINUOUS
 66
1
 70
0
  0
VERTEX
  8
0
 62
7
  6
CONTINUOUS
 10
101.9077123509
 20
83.09375
  0
VERTEX
  8
0
 62
7
  6
CONTINUOUS
 10
101.9091660941
 20
83.0923799679
  0
VERTEX
  8
0
 62
7
  6
CONTINUOUS
 10
101.9107530681
 20
83.0882704667
  0
VERTEX
  8
0
 62
7
  6
CONTINUOUS
 10
101.9124652194
 20
83.0814383406
  0
SEQEND
  0
POLYLINE
  8
0
 62
7
  6
CONTINUOUS
 66
1
 70
0
  0
VERTEX
  8
0
 62
7
  6
CONTINUOUS
 10
126.1987799535
 20
82.7488310159
  0
VERTEX
  8
0
 62
7
  6
CONTINUOUS
 10
126.1190746174
 20
82.6754676294
  0
VERTEX
  8
0
 62
7
  6
CONTINUOUS
 10
126.0068273313
 20
82.5385225333
  0
SEQEND
  0
POLYLINE
  8
0
 62
7
  6
CONTINUOUS
 66
1
 70
0
  0
VERTEX
  8
0
 62
7
  6
CONTINUOUS
 10
76.229725665
 20
82.7488310159
  0
VERTEX
  8
0
 62
7
  6
CONTINUOUS
 10
75.9429532727
 20
82.6754676294
  0
VERTEX
  8
0
 62
7
  6
CONTINUOUS
 10
75.64365581
 20
82.5385225333
  0
VERTEX
  8
0
 62
7
  6
CONTINUOUS
 10
75.3678212718
 20
82.3510089285
  0
SEQEND
  0
POLYLINE
  8
0
 62
7
  6
CONTINUOUS
 66
1
 70
0
  0
VERTEX
  8
0
 62
7
  6
CONTINUOUS
 10
143.8426359394
 20
82.7488310159
  0
VERTEX
  8
0
 62
7
  6
CONTINUOUS
 10
143.5643763374
 20
82.7857510295
  0
VERTEX
  8
0
 62
7
  6
CONTINUOUS
 10
143.0265239452
 20
82.8658236391
  0
VERTEX
  8
0
 62
7
  6
CONTINUOUS
 10
142.7716816936
 20
82.9083305023
  0
VERTEX
  8
0
 62
7
  6
CONTINUOUS
 10
142.3017771951
 20
82.9964770178
  0
VERTEX
  8
0
 62
7
  6
CONTINUOUS
 10
142.0910631914
 20
83.0413352005
  0
SEQEND
  0
POLYLINE
  8
0
 62
7
  6
CONTINUOUS
 66
1
 70
0
  0
VERTEX
  8
0
 62
7
  6
CONTINUOUS
 10
122.7116820825
 20
82.7488310159
  0
VERTEX
  8
0
 62
7
  6
CONTINUOUS
 10
122.4765286897
 20
82.7857510295
  0
VERTEX
  8
0
 62
7
  6
CONTINUOUS
 10
122.0547713016
 20
82.8658236391
  0
VERTEX
  8
0
 62
7
  6
CONTINUOUS
 10
121.8719532795
 20
82.9083305023
  0
VERTEX
  8
0
 62
7
  6
CONTINUOUS
 10
121.570925757
 20
82.9964770178
  0
VERTEX
  8
0
 62
7
  6
CONTINUOUS
 10
121.455550804
 20
83.0413352005
  0
SEQEND
  0
POLYLINE
  8
0
 62
7
  6
CONTINUOUS
 66
1
 70
0
  0
VERTEX
  8
0
 62
7
  6
CONTINUOUS
 10
121.3620443217
 20
69.1060616594
  0
VERTEX
  8
0
 62
7
  6
CONTINUOUS
 10
121.3935440476
 20
69.119429301
  0
VERTEX
  8
0
 62
7
  6
CONTINUOUS
 10
121.455550804
 20
69.1461647995
  0
SEQEND
  0
POLYLINE
  8
0
 62
7
  6
CONTINUOUS
 66
1
 70
0
  0
VERTEX
  8
0
 62
7
  6
CONTINUOUS
 10
125.9356603446
 20
69.1461647995
  0
VERTEX
  8
0
 62
7
  6
CONTINUOUS
 10
126.0508164573
 20
69.1909965688
  0
VERTEX
  8
0
 62
7
  6
CONTINUOUS
 10
126.2055069503
 20
69.2791295815
  0
VERTEX
  8
0
 62
7
  6
CONTINUOUS
 10
126.2436804478
 20
69.3216466437
  0
VERTEX
  8
0
 62
7
  6
CONTINUOUS
 10
126.2553207832
 20
69.3600089168
  0
SEQEND
  0
POLYLINE
  8
0
 62
7
  6
CONTINUOUS
 66
1
 70
0
  0
VERTEX
  8
0
 62
7
  6
CONTINUOUS
 10
125.9356603446
 20
69.1461647995
  0
VERTEX
  8
0
 62
7
  6
CONTINUOUS
 10
125.8979092123
 20
69.1327970978
  0
VERTEX
  8
0
 62
7
  6
CONTINUOUS
 10
125.8233642938
 20
69.1060616594
  0
SEQEND
  0
POLYLINE
  8
0
 62
7
  6
CONTINUOUS
 66
1
 70
0
  0
VERTEX
  8
0
 62
7
  6
CONTINUOUS
 10
125.8233642938
 20
69.1060616594
  0
VERTEX
  8
0
 62
7
  6
CONTINUOUS
 10
125.8007013852
 20
69.099228803
  0
VERTEX
  8
0
 62
7
  6
CONTINUOUS
 10
125.7780259881
 20
69.0951200642
  0
VERTEX
  8
0
 62
7
  6
CONTINUOUS
 10
125.7554203798
 20
69.09375
  0
SEQEND
  0
POLYLINE
  8
0
 62
7
  6
CONTINUOUS
 66
1
 70
0
  0
VERTEX
  8
0
 62
7
  6
CONTINUOUS
 10
55.098771808
 20
82.7488310159
  0
VERTEX
  8
0
 62
7
  6
CONTINUOUS
 10
54.7753924837
 20
82.6754676294
  0
VERTEX
  8
0
 62
7
  6
CONTINUOUS
 10
54.4537947148
 20
82.5385225333
  0
VERTEX
  8
0
 62
7
  6
CONTINUOUS
 10
54.1701078821
 20
82.3510089285
  0
SEQEND
  0
LINE
  8
0
 62
7
  6
CONTINUOUS
 10
56.8503445561
 20
83.0413352005
 11
57.0314732721
 21
83.0814383406
  0
POLYLINE
  8
0
 62
7
  6
CONTINUOUS
 66
1
 70
0
  0
VERTEX
  8
0
 62
7
  6
CONTINUOUS
 10
56.8503445561
 20
83.0413352005
  0
VERTEX
  8
0
 62
7
  6
CONTINUOUS
 10
56.639760155
 20
82.9965034312
  0
VERTEX
  8
0
 62
7
  6
CONTINUOUS
 10
56.1699563274
 20
82.9083704185
  0
VERTEX
  8
0
 62
7
  6
CONTINUOUS
 10
55.9150688825
 20
82.8658533563
  0
VERTEX
  8
0
 62
7
  6
CONTINUOUS
 10
55.3769772459
 20
82.7857435588
  0
VERTEX
  8
0
 62
7
  6
CONTINUOUS
 10
55.098771808
 20
82.7488310159
  0
SEQEND
  0
POLYLINE
  8
0
 62
7
  6
CONTINUOUS
 66
1
 70
0
  0
VERTEX
  8
0
 62
7
  6
CONTINUOUS
 10
103.3368544386
 20
91.09375
  0
VERTEX
  8
0
 62
7
  6
CONTINUOUS
 10
103.1728755676
 20
91.0588732626
  0
VERTEX
  8
0
 62
7
  6
CONTINUOUS
 10
103.0372427607
 20
90.9625489912
  0
VERTEX
  8
0
 62
7
  6
CONTINUOUS
 10
102.9306075149
 20
90.8165906884
  0
VERTEX
  8
0
 62
7
  6
CONTINUOUS
 10
102.8884297566
 20
90.7295633961
  0
VERTEX
  8
0
 62
7
  6
CONTINUOUS
 10
102.8245731801
 20
90.5333540675
  0
VERTEX
  8
0
 62
7
  6
CONTINUOUS
 10
102.7872902038
 20
90.3188881706
  0
VERTEX
  8
0
 62
7
  6
CONTINUOUS
 10
102.7749175039
 20
90.09375
  0
SEQEND
  0
LINE
  8
0
 62
7
  6
CONTINUOUS
 10
53.7637587724
 20
83.0814383406
 11
53.5688675498
 21
83.0413352005
  0
POLYLINE
  8
0
 62
7
  6
CONTINUOUS
 66
1
 70
0
  0
VERTEX
  8
0
 62
7
  6
CONTINUOUS
 10
53.7637587724
 20
83.0814383406
  0
VERTEX
  8
0
 62
7
  6
CONTINUOUS
 10
53.803448287
 20
83.0882704667
  0
VERTEX
  8
0
 62
7
  6
CONTINUOUS
 10
53.8432973378
 20
83.0923799679
  0
VERTEX
  8
0
 62
7
  6
CONTINUOUS
 10
53.8831456118
 20
83.09375
  0
SEQEND
  0
POLYLINE
  8
0
 62
7
  6
CONTINUOUS
 66
1
 70
0
  0
VERTEX
  8
0
 62
7
  6
CONTINUOUS
 10
43.8217116377
 20
83.0814383406
  0
VERTEX
  8
0
 62
7
  6
CONTINUOUS
 10
43.314822307
 20
82.9965034312
  0
VERTEX
  8
0
 62
7
  6
CONTINUOUS
 10
42.7573912019
 20
82.9083704185
  0
VERTEX
  8
0
 62
7
  6
CONTINUOUS
 10
42.4745292473
 20
82.8658533563
  0
VERTEX
  8
0
 62
7
  6
CONTINUOUS
 10
41.9133260454
 20
82.7857435588
  0
VERTEX
  8
0
 62
7
  6
CONTINUOUS
 10
41.6401281116
 20
82.7488310159
  0
SEQEND
  0
LINE
  8
0
 62
7
  6
CONTINUOUS
 10
42.3126201337
 20
83.0814383406
 11
41.7992669884
 21
82.9964770178
  0
LINE
  8
0
 62
7
  6
CONTINUOUS
 10
38.889145999
 20
82.8658533563
 11
38.1809163387
 21
82.7488310159
  0
LINE
  8
0
 62
7
  6
CONTINUOUS
 10
39.699746542
 20
82.9965034312
 11
38.889145999
 21
82.8658533563
  0
LINE
  8
0
 62
7
  6
CONTINUOUS
 10
39.699746542
 20
82.9965034312
 11
40.2341663162
 21
83.0814383406
  0
POLYLINE
  8
0
 62
7
  6
CONTINUOUS
 66
1
 70
0
  0
VERTEX
  8
0
 62
7
  6
CONTINUOUS
 10
42.3126201337
 20
83.0814383406
  0
VERTEX
  8
0
 62
7
  6
CONTINUOUS
 10
42.3624766025
 20
83.0882704667
  0
VERTEX
  8
0
 62
7
  6
CONTINUOUS
 10
42.4126057532
 20
83.0923799679
  0
VERTEX
  8
0
 62
7
  6
CONTINUOUS
 10
42.4628068295
 20
83.09375
  0
SEQEND
  0
POLYLINE
  8
0
 62
7
  6
CONTINUOUS
 66
1
 70
0
  0
VERTEX
  8
0
 62
7
  6
CONTINUOUS
 10
81.6260934124
 20
91.09375
  0
VERTEX
  8
0
 62
7
  6
CONTINUOUS
 10
81.3647480659
 20
91.0588732626
  0
VERTEX
  8
0
 62
7
  6
CONTINUOUS
 10
81.1419144802
 20
90.9625489912
  0
VERTEX
  8
0
 62
7
  6
CONTINUOUS
 10
80.9618020296
 20
90.8165906884
  0
VERTEX
  8
0
 62
7
  6
CONTINUOUS
 10
80.8892211789
 20
90.7295633961
  0
VERTEX
  8
0
 62
7
  6
CONTINUOUS
 10
80.7777469609
 20
90.5333540675
  0
VERTEX
  8
0
 62
7
  6
CONTINUOUS
 10
80.7117163237
 20
90.3188881706
  0
VERTEX
  8
0
 62
7
  6
CONTINUOUS
 10
80.689640573
 20
90.09375
  0
SEQEND
  0
LINE
  8
0
 62
7
  6
CONTINUOUS
 10
46.7965039007
 20
91.09375
 11
152.1449287084
 21
91.09375
  0
POLYLINE
  8
0
 62
7
  6
CONTINUOUS
 66
1
 70
0
  0
VERTEX
  8
0
 62
7
  6
CONTINUOUS
 10
158.7072414312
 20
83.0814383406
  0
VERTEX
  8
0
 62
7
  6
CONTINUOUS
 10
158.6554807075
 20
83.0882704667
  0
VERTEX
  8
0
 62
7
  6
CONTINUOUS
 10
158.6034074745
 20
83.0923799679
  0
VERTEX
  8
0
 62
7
  6
CONTINUOUS
 10
158.5512299031
 20
83.09375
  0
SEQEND
  0
POLYLINE
  8
0
 62
7
  6
CONTINUOUS
 66
1
 70
0
  0
VERTEX
  8
0
 62
7
  6
CONTINUOUS
 10
157.3012796359
 20
82.7488310159
  0
VERTEX
  8
0
 62
7
  6
CONTINUOUS
 10
157.0280274376
 20
82.7857510295
  0
VERTEX
  8
0
 62
7
  6
CONTINUOUS
 10
156.4670796063
 20
82.8658236391
  0
VERTEX
  8
0
 62
7
  6
CONTINUOUS
 10
156.1842776656
 20
82.9083305023
  0
VERTEX
  8
0
 62
7
  6
CONTINUOUS
 10
155.6267469479
 20
82.9964770178
  0
SEQEND
  0
POLYLINE
  8
0
 62
7
  6
CONTINUOUS
 66
1
 70
0
  0
VERTEX
  8
0
 62
7
  6
CONTINUOUS
 10
155.1196961097
 20
83.0814383406
  0
VERTEX
  8
0
 62
7
  6
CONTINUOUS
 10
155.0708978086
 20
83.0882704667
  0
VERTEX
  8
0
 62
7
  6
CONTINUOUS
 10
155.0217494617
 20
83.0923799679
  0
VERTEX
  8
0
 62
7
  6
CONTINUOUS
 10
154.9724468482
 20
83.09375
  0
SEQEND
  0
LINE
  8
0
 62
7
  6
CONTINUOUS
 10
159.2418266916
 20
82.9964770178
 11
158.7072414312
 21
83.0814383406
  0
LINE
  8
0
 62
7
  6
CONTINUOUS
 10
160.0524441074
 20
82.8658236391
 11
159.2418266916
 21
82.9964770178
  0
POLYLINE
  8
0
 62
7
  6
CONTINUOUS
 66
1
 70
0
  0
VERTEX
  8
0
 62
7
  6
CONTINUOUS
 10
156.6287876138
 20
83.0814383406
  0
VERTEX
  8
0
 62
7
  6
CONTINUOUS
 10
157.1419841688
 20
82.9965034312
  0
VERTEX
  8
0
 62
7
  6
CONTINUOUS
 10
157.6499436557
 20
82.9083704185
  0
VERTEX
  8
0
 62
7
  6
CONTINUOUS
 10
157.8838703474
 20
82.8658533563
  0
VERTEX
  8
0
 62
7
  6
CONTINUOUS
 10
158.3011769856
 20
82.7857435588
  0
VERTEX
  8
0
 62
7
  6
CONTINUOUS
 10
158.4808295906
 20
82.7488310159
  0
SEQEND
  0
LINE
  8
0
 62
7
  6
CONTINUOUS
 10
160.7604914088
 20
82.7488310159
 11
160.0524441074
 21
82.8658236391
  0
LINE
  8
0
 62
7
  6
CONTINUOUS
 10
155.1196961097
 20
83.0814383406
 11
155.6267469479
 21
82.9964770178
  0
POLYLINE
  8
0
 62
7
  6
CONTINUOUS
 66
1
 70
0
  0
VERTEX
  8
0
 62
7
  6
CONTINUOUS
 10
141.9099344754
 20
83.0814383406
  0
VERTEX
  8
0
 62
7
  6
CONTINUOUS
 10
141.8725362665
 20
83.0882704667
  0
VERTEX
  8
0
 62
7
  6
CONTINUOUS
 10
141.8348110014
 20
83.0923799679
  0
VERTEX
  8
0
 62
7
  6
CONTINUOUS
 10
141.7969082155
 20
83.09375
  0
SEQEND
  0
LINE
  8
0
 62
7
  6
CONTINUOUS
 10
145.3725401976
 20
83.0413352005
 11
145.177648975
 21
83.0814383406
  0
POLYLINE
  8
0
 62
7
  6
CONTINUOUS
 66
1
 70
0
  0
VERTEX
  8
0
 62
7
  6
CONTINUOUS
 10
145.3725401976
 20
83.0413352005
  0
VERTEX
  8
0
 62
7
  6
CONTINUOUS
 10
145.5830194535
 20
82.9965034312
  0
VERTEX
  8
0
 62
7
  6
CONTINUOUS
 10
145.9456998075
 20
82.9083704185
  0
VERTEX
  8
0
 62
7
  6
CONTINUOUS
 10
146.0946251768
 20
82.8658533563
  0
VERTEX
  8
0
 62
7
  6
CONTINUOUS
 10
146.3211300829
 20
82.7857435588
  0
VERTEX
  8
0
 62
7
  6
CONTINUOUS
 10
146.396776944
 20
82.7488310159
  0
SEQEND
  0
LINE
  8
0
 62
7
  6
CONTINUOUS
 10
141.9099344754
 20
83.0814383406
 11
142.0910631914
 21
83.0413352005
  0
POLYLINE
  8
0
 62
7
  6
CONTINUOUS
 66
1
 70
0
  0
VERTEX
  8
0
 62
7
  6
CONTINUOUS
 10
121.3620443217
 20
83.0814383406
  0
VERTEX
  8
0
 62
7
  6
CONTINUOUS
 10
121.3425126951
 20
83.0882704667
  0
VERTEX
  8
0
 62
7
  6
CONTINUOUS
 10
121.3227335529
 20
83.0923799679
  0
VERTEX
  8
0
 62
7
  6
CONTINUOUS
 10
121.3027843306
 20
83.09375
  0
SEQEND
  0
POLYLINE
  8
0
 62
7
  6
CONTINUOUS
 66
1
 70
0
  0
VERTEX
  8
0
 62
7
  6
CONTINUOUS
 10
125.9356603446
 20
83.0413352005
  0
VERTEX
  8
0
 62
7
  6
CONTINUOUS
 10
125.860476967
 20
83.0680706972
  0
VERTEX
  8
0
 62
7
  6
CONTINUOUS
 10
125.8233642938
 20
83.0814383406
  0
SEQEND
  0
POLYLINE
  8
0
 62
7
  6
CONTINUOUS
 66
1
 70
0
  0
VERTEX
  8
0
 62
7
  6
CONTINUOUS
 10
125.9356603446
 20
83.0413352005
  0
VERTEX
  8
0
 62
7
  6
CONTINUOUS
 10
126.0508164573
 20
82.9965034312
  0
VERTEX
  8
0
 62
7
  6
CONTINUOUS
 10
126.2055069503
 20
82.9083704185
  0
VERTEX
  8
0
 62
7
  6
CONTINUOUS
 10
126.2436804478
 20
82.8658533563
  0
VERTEX
  8
0
 62
7
  6
CONTINUOUS
 10
126.2553207832
 20
82.8274910832
  0
SEQEND
  0
POLYLINE
  8
0
 62
7
  6
CONTINUOUS
 66
1
 70
0
  0
VERTEX
  8
0
 62
7
  6
CONTINUOUS
 10
121.3620443217
 20
83.0814383406
  0
VERTEX
  8
0
 62
7
  6
CONTINUOUS
 10
121.4247130649
 20
83.0547029041
  0
VERTEX
  8
0
 62
7
  6
CONTINUOUS
 10
121.455550804
 20
83.0413352005
  0
SEQEND
  0
POLYLINE
  8
0
 62
7
  6
CONTINUOUS
 66
1
 70
0
  0
VERTEX
  8
0
 62
7
  6
CONTINUOUS
 10
125.4217741892
 20
70.4263573247
  0
VERTEX
  8
0
 62
7
  6
CONTINUOUS
 10
125.6426350678
 20
70.1698544536
  0
VERTEX
  8
0
 62
7
  6
CONTINUOUS
 10
125.7360638824
 20
70.0490947612
  0
VERTEX
  8
0
 62
7
  6
CONTINUOUS
 10
125.8801757642
 20
69.8364910715
  0
SEQEND
  0
POLYLINE
  8
0
 62
7
  6
CONTINUOUS
 66
1
 70
0
  0
VERTEX
  8
0
 62
7
  6
CONTINUOUS
 10
118.2517671744
 20
90.09375
  0
VERTEX
  8
0
 62
7
  6
CONTINUOUS
 10
118.2296914237
 20
90.3188881706
  0
VERTEX
  8
0
 62
7
  6
CONTINUOUS
 10
118.1636607865
 20
90.5333540675
  0
VERTEX
  8
0
 62
7
  6
CONTINUOUS
 10
118.0521865686
 20
90.7295633961
  0
VERTEX
  8
0
 62
7
  6
CONTINUOUS
 10
117.9796057178
 20
90.8165906884
  0
VERTEX
  8
0
 62
7
  6
CONTINUOUS
 10
117.7994932672
 20
90.9625489912
  0
VERTEX
  8
0
 62
7
  6
CONTINUOUS
 10
117.5766596815
 20
91.0588732626
  0
VERTEX
  8
0
 62
7
  6
CONTINUOUS
 10
117.315314335
 20
91.09375
  0
SEQEND
  0
LINE
  8
0
 62
7
  6
CONTINUOUS
 10
118.2517671744
 20
90.09375
 11
118.2517671744
 21
83.09375
  0
LINE
  8
0
 62
7
  6
CONTINUOUS
 10
118.2517671744
 20
69.09375
 11
118.2517671744
 21
62.09375
  0
LINE
  8
0
 62
7
  6
CONTINUOUS
 10
119.4154392922
 20
83.09375
 11
119.4154392922
 21
69.09375
  0
POLYLINE
  8
0
 62
7
  6
CONTINUOUS
 66
1
 70
0
  0
VERTEX
  8
0
 62
7
  6
CONTINUOUS
 10
126.0068273313
 20
82.5385225333
  0
VERTEX
  8
0
 62
7
  6
CONTINUOUS
 10
125.7360985761
 20
82.1384519614
  0
VERTEX
  8
0
 62
7
  6
CONTINUOUS
 10
125.6425798718
 20
82.0175768497
  0
VERTEX
  8
0
 62
7
  6
CONTINUOUS
 10
125.4217741892
 20
81.7611426753
  0
SEQEND
  0
POLYLINE
  8
0
 62
7
  6
CONTINUOUS
 66
1
 70
0
  0
VERTEX
  8
0
 62
7
  6
CONTINUOUS
 10
123.5735864756
 20
69.8364910715
  0
VERTEX
  8
0
 62
7
  6
CONTINUOUS
 10
123.8173752891
 20
70.0490623114
  0
VERTEX
  8
0
 62
7
  6
CONTINUOUS
 10
123.9452576913
 20
70.1698087848
  0
VERTEX
  8
0
 62
7
  6
CONTINUOUS
 10
124.1960810878
 20
70.4263573247
  0
SEQEND
  0
POLYLINE
  8
0
 62
7
  6
CONTINUOUS
 66
1
 70
0
  0
VERTEX
  8
0
 62
7
  6
CONTINUOUS
 10
41.6401281116
 20
82.7488310159
  0
VERTEX
  8
0
 62
7
  6
CONTINUOUS
 10
41.3360570782
 20
82.6754676294
  0
VERTEX
  8
0
 62
7
  6
CONTINUOUS
 10
41.047766179
 20
82.5385225333
  0
VERTEX
  8
0
 62
7
  6
CONTINUOUS
 10
40.8052790824
 20
82.3510089285
  0
SEQEND
  0
POLYLINE
  8
0
 62
7
  6
CONTINUOUS
 66
1
 70
0
  0
VERTEX
  8
0
 62
7
  6
CONTINUOUS
 10
40.4605781568
 20
82.7488310159
  0
VERTEX
  8
0
 62
7
  6
CONTINUOUS
 10
40.6402680278
 20
82.7857510295
  0
VERTEX
  8
0
 62
7
  6
CONTINUOUS
 10
41.057376668
 20
82.8658236391
  0
VERTEX
  8
0
 62
7
  6
CONTINUOUS
 10
41.2912408878
 20
82.9083305023
  0
VERTEX
  8
0
 62
7
  6
CONTINUOUS
 10
41.7992669884
 20
82.9964770178
  0
SEQEND
  0
POLYLINE
  8
0
 62
7
  6
CONTINUOUS
 66
1
 70
0
  0
VERTEX
  8
0
 62
7
  6
CONTINUOUS
 10
50.6797860984
 20
91.09375
  0
VERTEX
  8
0
 62
7
  6
CONTINUOUS
 10
50.3682902338
 20
91.0588732626
  0
VERTEX
  8
0
 62
7
  6
CONTINUOUS
 10
50.0950546822
 20
90.9625489912
  0
VERTEX
  8
0
 62
7
  6
CONTINUOUS
 10
49.868731993
 20
90.8165906884
  0
VERTEX
  8
0
 62
7
  6
CONTINUOUS
 10
49.7760795119
 20
90.7295633961
  0
VERTEX
  8
0
 62
7
  6
CONTINUOUS
 10
49.6320921495
 20
90.5333540675
  0
VERTEX
  8
0
 62
7
  6
CONTINUOUS
 10
49.5458126614
 20
90.3188881706
  0
VERTEX
  8
0
 62
7
  6
CONTINUOUS
 10
49.5167991615
 20
90.09375
  0
SEQEND
  0
POLYLINE
  8
0
 62
7
  6
CONTINUOUS
 66
1
 70
0
  0
VERTEX
  8
0
 62
7
  6
CONTINUOUS
 10
62.9994612312
 20
91.09375
  0
VERTEX
  8
0
 62
7
  6
CONTINUOUS
 10
62.6859333278
 20
91.0588732626
  0
VERTEX
  8
0
 62
7
  6
CONTINUOUS
 10
62.4144243118
 20
90.9625489912
  0
VERTEX
  8
0
 62
7
  6
CONTINUOUS
 10
62.1919738122
 20
90.8165906884
  0
VERTEX
  8
0
 62
7
  6
CONTINUOUS
 10
62.1015381227
 20
90.7295633961
  0
VERTEX
  8
0
 62
7
  6
CONTINUOUS
 10
61.9617185951
 20
90.5333540675
  0
VERTEX
  8
0
 62
7
  6
CONTINUOUS
 10
61.8783560331
 20
90.3188881706
  0
VERTEX
  8
0
 62
7
  6
CONTINUOUS
 10
61.8503938014
 20
90.09375
  0
SEQEND
  0
POLYLINE
  8
0
 62
7
  6
CONTINUOUS
 66
1
 70
0
  0
VERTEX
  8
0
 62
7
  6
CONTINUOUS
 10
123.5735864756
 20
82.3510089285
  0
VERTEX
  8
0
 62
7
  6
CONTINUOUS
 10
123.2980160041
 20
82.5383742459
  0
VERTEX
  8
0
 62
7
  6
CONTINUOUS
 10
122.9986066896
 20
82.6754132921
  0
VERTEX
  8
0
 62
7
  6
CONTINUOUS
 10
122.7116820825
 20
82.7488310159
  0
SEQEND
  0
POLYLINE
  8
0
 62
7
  6
CONTINUOUS
 66
1
 70
0
  0
VERTEX
  8
0
 62
7
  6
CONTINUOUS
 10
124.1960810878
 20
81.7611426753
  0
VERTEX
  8
0
 62
7
  6
CONTINUOUS
 10
123.9453263837
 20
82.0176246243
  0
VERTEX
  8
0
 62
7
  6
CONTINUOUS
 10
123.817321089
 20
82.1384875154
  0
VERTEX
  8
0
 62
7
  6
CONTINUOUS
 10
123.5735864756
 20
82.3510089285
  0
SEQEND
  0
POLYLINE
  8
0
 62
7
  6
CONTINUOUS
 66
1
 70
0
  0
VERTEX
  8
0
 62
7
  6
CONTINUOUS
 10
125.8801757642
 20
69.8364910715
  0
VERTEX
  8
0
 62
7
  6
CONTINUOUS
 10
125.9344470853
 20
69.7512119224
  0
VERTEX
  8
0
 62
7
  6
CONTINUOUS
 10
126.0411669835
 20
69.604269361
  0
VERTEX
  8
0
 62
7
  6
CONTINUOUS
 10
126.0895370746
 20
69.5453596332
  0
VERTEX
  8
0
 62
7
  6
CONTINUOUS
 10
126.1693252605
 20
69.4617937317
  0
VERTEX
  8
0
 62
7
  6
CONTINUOUS
 10
126.1987799535
 20
69.4386689841
  0
SEQEND
  0
POLYLINE
  8
0
 62
7
  6
CONTINUOUS
 66
1
 70
0
  0
VERTEX
  8
0
 62
7
  6
CONTINUOUS
 10
124.2901543845
 20
61.8686610398
  0
VERTEX
  8
0
 62
7
  6
CONTINUOUS
 10
124.2922435025
 20
61.6540851254
  0
VERTEX
  8
0
 62
7
  6
CONTINUOUS
 10
124.2974407387
 20
61.4578864001
  0
VERTEX
  8
0
 62
7
  6
CONTINUOUS
 10
124.3019249094
 20
61.3708252121
  0
VERTEX
  8
0
 62
7
  6
CONTINUOUS
 10
124.3166472268
 20
61.2248872588
  0
VERTEX
  8
0
 62
7
  6
CONTINUOUS
 10
124.341644567
 20
61.1285617291
  0
VERTEX
  8
0
 62
7
  6
CONTINUOUS
 10
124.3798707741
 20
61.09375
  0
SEQEND
  0
LINE
  8
0
 62
7
  6
CONTINUOUS
 10
124.2896246308
 20
69.09375
 11
124.2901543845
 21
61.8686610398
  0
POLYLINE
  8
0
 62
7
  6
CONTINUOUS
 66
1
 70
0
  0
VERTEX
  8
0
 62
7
  6
CONTINUOUS
 10
126.2553207832
 20
82.8274910832
  0
VERTEX
  8
0
 62
7
  6
CONTINUOUS
 10
126.240218866
 20
82.7857435588
  0
VERTEX
  8
0
 62
7
  6
CONTINUOUS
 10
126.1987799535
 20
82.7488310159
  0
SEQEND
  0
POLYLINE
  8
0
 62
7
  6
CONTINUOUS
 66
1
 70
0
  0
VERTEX
  8
0
 62
7
  6
CONTINUOUS
 10
46.7965039007
 20
91.09375
  0
VERTEX
  8
0
 62
7
  6
CONTINUOUS
 10
46.5409005395
 20
91.0588732626
  0
VERTEX
  8
0
 62
7
  6
CONTINUOUS
 10
46.3131833614
 20
90.9625489912
  0
VERTEX
  8
0
 62
7
  6
CONTINUOUS
 10
46.1221217318
 20
90.8165906884
  0
VERTEX
  8
0
 62
7
  6
CONTINUOUS
 10
46.0432729147
 20
90.7295633961
  0
VERTEX
  8
0
 62
7
  6
CONTINUOUS
 10
45.9200144406
 20
90.5333540675
  0
VERTEX
  8
0
 62
7
  6
CONTINUOUS
 10
45.8457365336
 20
90.3188881706
  0
VERTEX
  8
0
 62
7
  6
CONTINUOUS
 10
45.8206884633
 20
90.09375
  0
SEQEND
  0
POLYLINE
  8
0
 62
7
  6
CONTINUOUS
 66
1
 70
0
  0
VERTEX
  8
0
 62
7
  6
CONTINUOUS
 10
150.6510341037
 20
91.09375
  0
VERTEX
  8
0
 62
7
  6
CONTINUOUS
 10
150.8611854527
 20
91.0588732626
  0
VERTEX
  8
0
 62
7
  6
CONTINUOUS
 10
151.0505953197
 20
90.9625489912
  0
VERTEX
  8
0
 62
7
  6
CONTINUOUS
 10
151.2110138024
 20
90.8165906884
  0
VERTEX
  8
0
 62
7
  6
CONTINUOUS
 10
151.2775989954
 20
90.7295633961
  0
VERTEX
  8
0
 62
7
  6
CONTINUOUS
 10
151.3821208231
 20
90.5333540675
  0
VERTEX
  8
0
 62
7
  6
CONTINUOUS
 10
151.4453581647
 20
90.3188881706
  0
VERTEX
  8
0
 62
7
  6
CONTINUOUS
 10
151.4667249155
 20
90.09375
  0
SEQEND
  0
POLYLINE
  8
0
 62
7
  6
CONTINUOUS
 66
1
 70
0
  0
VERTEX
  8
0
 62
7
  6
CONTINUOUS
 10
126.2553207832
 20
69.3600089168
  0
VERTEX
  8
0
 62
7
  6
CONTINUOUS
 10
126.240218866
 20
69.4017564412
  0
VERTEX
  8
0
 62
7
  6
CONTINUOUS
 10
126.1987799535
 20
69.4386689841
  0
SEQEND
  0
LINE
  8
0
 62
7
  6
CONTINUOUS
 10
126.2553207832
 20
82.8274939109
 11
126.2553207832
 21
69.3600060891
  0
POLYLINE
  8
0
 62
7
  6
CONTINUOUS
 66
1
 70
0
  0
VERTEX
  8
0
 62
7
  6
CONTINUOUS
 10
141.1158658598
 20
91.09375
  0
VERTEX
  8
0
 62
7
  6
CONTINUOUS
 10
141.2099472004
 20
91.0588732626
  0
VERTEX
  8
0
 62
7
  6
CONTINUOUS
 10
141.2999440918
 20
90.9625489912
  0
VERTEX
  8
0
 62
7
  6
CONTINUOUS
 10
141.379688778
 20
90.8165906884
  0
VERTEX
  8
0
 62
7
  6
CONTINUOUS
 10
141.4136796095
 20
90.7295633961
  0
VERTEX
  8
0
 62
7
  6
CONTINUOUS
 10
141.4680423575
 20
90.5333540675
  0
VERTEX
  8
0
 62
7
  6
CONTINUOUS
 10
141.5015105585
 20
90.3188881706
  0
VERTEX
  8
0
 62
7
  6
CONTINUOUS
 10
141.5129148859
 20
90.09375
  0
SEQEND
  0
POLYLINE
  8
0
 62
7
  6
CONTINUOUS
 66
1
 70
0
  0
VERTEX
  8
0
 62
7
  6
CONTINUOUS
 10
158.4808295906
 20
82.7488310159
  0
VERTEX
  8
0
 62
7
  6
CONTINUOUS
 10
158.6609354232
 20
82.6754676294
  0
VERTEX
  8
0
 62
7
  6
CONTINUOUS
 10
158.8100166965
 20
82.5385225333
  0
VERTEX
  8
0
 62
7
  6
CONTINUOUS
 10
158.916358355
 20
82.3510089285
  0
SEQEND
  0
POLYLINE
  8
0
 62
7
  6
CONTINUOUS
 66
1
 70
0
  0
VERTEX
  8
0
 62
7
  6
CONTINUOUS
 10
144.7712998653
 20
82.3510089285
  0
VERTEX
  8
0
 62
7
  6
CONTINUOUS
 10
144.487890234
 20
82.5383742459
  0
VERTEX
  8
0
 62
7
  6
CONTINUOUS
 10
144.1661827485
 20
82.6754132921
  0
VERTEX
  8
0
 62
7
  6
CONTINUOUS
 10
143.8426359394
 20
82.7488310159
  0
SEQEND
  0
LINE
  8
0
 62
7
  6
CONTINUOUS
 10
137.0904360055
 20
90.09375
 11
137.0904360055
 21
83.09375
  0
LINE
  8
0
 62
7
  6
CONTINUOUS
 10
137.0904360055
 20
69.09375
 11
137.0904360055
 21
62.09375
  0
POLYLINE
  8
0
 62
7
  6
CONTINUOUS
 66
1
 70
0
  0
VERTEX
  8
0
 62
7
  6
CONTINUOUS
 10
144.7712998653
 20
69.8364910715
  0
VERTEX
  8
0
 62
7
  6
CONTINUOUS
 10
145.0044322929
 20
70.0490623114
  0
VERTEX
  8
0
 62
7
  6
CONTINUOUS
 10
145.1169643192
 20
70.1698087848
  0
VERTEX
  8
0
 62
7
  6
CONTINUOUS
 10
145.3170600262
 20
70.4263573247
  0
SEQEND
  0
POLYLINE
  8
0
 62
7
  6
CONTINUOUS
 66
1
 70
0
  0
VERTEX
  8
0
 62
7
  6
CONTINUOUS
 10
146.2148246215
 20
70.4263573247
  0
VERTEX
  8
0
 62
7
  6
CONTINUOUS
 10
146.3602219509
 20
70.1698544536
  0
VERTEX
  8
0
 62
7
  6
CONTINUOUS
 10
146.4097907804
 20
70.0490947612
  0
VERTEX
  8
0
 62
7
  6
CONTINUOUS
 10
146.4607718849
 20
69.8364910715
  0
SEQEND
  0
LINE
  8
0
 62
7
  6
CONTINUOUS
 10
138.6417541145
 20
83.09375
 11
138.6417541145
 21
69.09375
  0
LINE
  8
0
 62
7
  6
CONTINUOUS
 10
141.5129148859
 20
90.09375
 11
141.5129148859
 21
83.09375
  0
LINE
  8
0
 62
7
  6
CONTINUOUS
 10
141.5129148859
 20
69.09375
 11
141.5129148859
 21
62.09375
  0
POLYLINE
  8
0
 62
7
  6
CONTINUOUS
 66
1
 70
0
  0
VERTEX
  8
0
 62
7
  6
CONTINUOUS
 10
141.5129148859
 20
62.09375
  0
VERTEX
  8
0
 62
7
  6
CONTINUOUS
 10
141.5015155959
 20
61.8686610398
  0
VERTEX
  8
0
 62
7
  6
CONTINUOUS
 10
141.4680293774
 20
61.6540851254
  0
VERTEX
  8
0
 62
7
  6
CONTINUOUS
 10
141.4136620586
 20
61.4578864001
  0
VERTEX
  8
0
 62
7
  6
CONTINUOUS
 10
141.379652117
 20
61.3708252121
  0
VERTEX
  8
0
 62
7
  6
CONTINUOUS
 10
141.2998996213
 20
61.2248872588
  0
VERTEX
  8
0
 62
7
  6
CONTINUOUS
 10
141.2098576396
 20
61.1285617291
  0
VERTEX
  8
0
 62
7
  6
CONTINUOUS
 10
141.1158658598
 20
61.09375
  0
SEQEND
  0
POLYLINE
  8
0
 62
7
  6
CONTINUOUS
 66
1
 70
0
  0
VERTEX
  8
0
 62
7
  6
CONTINUOUS
 10
158.136128665
 20
82.3510089285
  0
VERTEX
  8
0
 62
7
  6
CONTINUOUS
 10
157.8938839739
 20
82.5383742459
  0
VERTEX
  8
0
 62
7
  6
CONTINUOUS
 10
157.6055044643
 20
82.6754132921
  0
VERTEX
  8
0
 62
7
  6
CONTINUOUS
 10
157.3012796359
 20
82.7488310159
  0
SEQEND
  0
POLYLINE
  8
0
 62
7
  6
CONTINUOUS
 66
1
 70
0
  0
VERTEX
  8
0
 62
7
  6
CONTINUOUS
 10
145.3170600262
 20
81.7611426753
  0
VERTEX
  8
0
 62
7
  6
CONTINUOUS
 10
145.1170229469
 20
82.0176246243
  0
VERTEX
  8
0
 62
7
  6
CONTINUOUS
 10
145.0043831787
 20
82.1384875154
  0
VERTEX
  8
0
 62
7
  6
CONTINUOUS
 10
144.7712998653
 20
82.3510089285
  0
SEQEND
  0
POLYLINE
  8
0
 62
7
  6
CONTINUOUS
 66
1
 70
0
  0
VERTEX
  8
0
 62
7
  6
CONTINUOUS
 10
146.396776944
 20
82.7488310159
  0
VERTEX
  8
0
 62
7
  6
CONTINUOUS
 10
146.4517279569
 20
82.6754676294
  0
VERTEX
  8
0
 62
7
  6
CONTINUOUS
 10
146.4720093525
 20
82.5238754781
  0
SEQEND
  0
POLYLINE
  8
0
 62
7
  6
CONTINUOUS
 66
1
 70
0
  0
VERTEX
  8
0
 62
7
  6
CONTINUOUS
 10
137.0904360055
 20
90.09375
  0
VERTEX
  8
0
 62
7
  6
CONTINUOUS
 10
137.0624739024
 20
90.3188881706
  0
VERTEX
  8
0
 62
7
  6
CONTINUOUS
 10
136.9791117158
 20
90.5333540675
  0
VERTEX
  8
0
 62
7
  6
CONTINUOUS
 10
136.839292791
 20
90.7295633961
  0
VERTEX
  8
0
 62
7
  6
CONTINUOUS
 10
136.7488574737
 20
90.8165906884
  0
VERTEX
  8
0
 62
7
  6
CONTINUOUS
 10
136.5264078308
 20
90.9625489912
  0
VERTEX
  8
0
 62
7
  6
CONTINUOUS
 10
136.2548997492
 20
91.0588732626
  0
VERTEX
  8
0
 62
7
  6
CONTINUOUS
 10
135.9413727757
 20
91.09375
  0
SEQEND
  0
POLYLINE
  8
0
 62
7
  6
CONTINUOUS
 66
1
 70
0
  0
VERTEX
  8
0
 62
7
  6
CONTINUOUS
 10
146.4607718849
 20
69.8364910715
  0
VERTEX
  8
0
 62
7
  6
CONTINUOUS
 10
146.468574682
 20
69.7512119224
  0
VERTEX
  8
0
 62
7
  6
CONTINUOUS
 10
146.4720093525
 20
69.6636164418
  0
SEQEND
  0
LINE
  8
0
 62
7
  6
CONTINUOUS
 10
146.4720093525
 20
82.5238813822
 11
146.4720093525
 21
69.6636186178
  0
POLYLINE
  8
0
 62
7
  6
CONTINUOUS
 66
1
 70
0
  0
VERTEX
  8
0
 62
7
  6
CONTINUOUS
 10
146.4720093525
 20
69.6636164418
  0
VERTEX
  8
0
 62
7
  6
CONTINUOUS
 10
146.4697577201
 20
69.604269361
  0
VERTEX
  8
0
 62
7
  6
CONTINUOUS
 10
146.4612090448
 20
69.5453596332
  0
VERTEX
  8
0
 62
7
  6
CONTINUOUS
 10
146.4241477128
 20
69.4617937317
  0
VERTEX
  8
0
 62
7
  6
CONTINUOUS
 10
146.396776944
 20
69.4386689841
  0
SEQEND
  0
LINE
  8
0
 62
7
  6
CONTINUOUS
 10
146.4720093525
 20
82.5238754781
 11
146.4607718849
 21
82.3510089285
  0
POLYLINE
  8
0
 62
7
  6
CONTINUOUS
 66
1
 70
0
  0
VERTEX
  8
0
 62
7
  6
CONTINUOUS
 10
146.4607718849
 20
82.3510089285
  0
VERTEX
  8
0
 62
7
  6
CONTINUOUS
 10
146.4098073643
 20
82.1384519614
  0
VERTEX
  8
0
 62
7
  6
CONTINUOUS
 10
146.3601900973
 20
82.0175768497
  0
VERTEX
  8
0
 62
7
  6
CONTINUOUS
 10
146.2148246215
 20
81.7611426753
  0
SEQEND
  0
LINE
  8
0
 62
7
  6
CONTINUOUS
 10
149.4243113866
 20
90.09375
 11
149.4243113866
 21
83.09375
  0
LINE
  8
0
 62
7
  6
CONTINUOUS
 10
149.4243113866
 20
69.09375
 11
149.4243113866
 21
62.09375
  0
LINE
  8
0
 62
7
  6
CONTINUOUS
 10
151.0950384924
 20
83.09375
 11
151.0950384924
 21
69.09375
  0
POLYLINE
  8
0
 62
7
  6
CONTINUOUS
 66
1
 70
0
  0
VERTEX
  8
0
 62
7
  6
CONTINUOUS
 10
158.136128665
 20
69.8364910715
  0
VERTEX
  8
0
 62
7
  6
CONTINUOUS
 10
158.318293992
 20
70.0490623114
  0
VERTEX
  8
0
 62
7
  6
CONTINUOUS
 10
158.3960178329
 20
70.1698087848
  0
VERTEX
  8
0
 62
7
  6
CONTINUOUS
 10
158.5107874846
 20
70.4263573247
  0
SEQEND
  0
POLYLINE
  8
0
 62
7
  6
CONTINUOUS
 66
1
 70
0
  0
VERTEX
  8
0
 62
7
  6
CONTINUOUS
 10
161.3571725597
 20
82.3510089285
  0
VERTEX
  8
0
 62
7
  6
CONTINUOUS
 10
161.1979791166
 20
82.5383742459
  0
VERTEX
  8
0
 62
7
  6
CONTINUOUS
 10
160.9927910199
 20
82.6754132921
  0
VERTEX
  8
0
 62
7
  6
CONTINUOUS
 10
160.7604914088
 20
82.7488310159
  0
SEQEND
  0
POLYLINE
  8
0
 62
7
  6
CONTINUOUS
 66
1
 70
0
  0
VERTEX
  8
0
 62
7
  6
CONTINUOUS
 10
149.4243113866
 20
90.09375
  0
VERTEX
  8
0
 62
7
  6
CONTINUOUS
 10
149.3952978326
 20
90.3188881706
  0
VERTEX
  8
0
 62
7
  6
CONTINUOUS
 10
149.309018176
 20
90.5333540675
  0
VERTEX
  8
0
 62
7
  6
CONTINUOUS
 10
149.1650305067
 20
90.7295633961
  0
VERTEX
  8
0
 62
7
  6
CONTINUOUS
 10
149.0723778107
 20
90.8165906884
  0
VERTEX
  8
0
 62
7
  6
CONTINUOUS
 10
148.8460545396
 20
90.9625489912
  0
VERTEX
  8
0
 62
7
  6
CONTINUOUS
 10
148.5728181761
 20
91.0588732626
  0
VERTEX
  8
0
 62
7
  6
CONTINUOUS
 10
148.2613212376
 20
91.09375
  0
SEQEND
  0
LINE
  8
0
 62
7
  6
CONTINUOUS
 10
151.4667249155
 20
90.09375
 11
151.4667249155
 21
83.09375
  0
LINE
  8
0
 62
7
  6
CONTINUOUS
 10
151.4667249155
 20
69.09375
 11
151.4667249155
 21
62.09375
  0
LINE
  8
0
 62
7
  6
CONTINUOUS
 10
153.1207542143
 20
90.09375
 11
153.1207542143
 21
83.09375
  0
LINE
  8
0
 62
7
  6
CONTINUOUS
 10
153.1207542143
 20
69.09375
 11
153.1207542143
 21
62.09375
  0
POLYLINE
  8
0
 62
7
  6
CONTINUOUS
 66
1
 70
0
  0
VERTEX
  8
0
 62
7
  6
CONTINUOUS
 10
151.4667249155
 20
62.09375
  0
VERTEX
  8
0
 62
7
  6
CONTINUOUS
 10
151.4453676225
 20
61.8686610398
  0
VERTEX
  8
0
 62
7
  6
CONTINUOUS
 10
151.382096139
 20
61.6540851254
  0
VERTEX
  8
0
 62
7
  6
CONTINUOUS
 10
151.2775648686
 20
61.4578864001
  0
VERTEX
  8
0
 62
7
  6
CONTINUOUS
 10
151.2109414426
 20
61.3708252121
  0
VERTEX
  8
0
 62
7
  6
CONTINUOUS
 10
151.0505040647
 20
61.2248872588
  0
VERTEX
  8
0
 62
7
  6
CONTINUOUS
 10
150.8609918377
 20
61.1285617291
  0
VERTEX
  8
0
 62
7
  6
CONTINUOUS
 10
150.6510341037
 20
61.09375
  0
SEQEND
  0
POLYLINE
  8
0
 62
7
  6
CONTINUOUS
 66
1
 70
0
  0
VERTEX
  8
0
 62
7
  6
CONTINUOUS
 10
153.1207542143
 20
90.09375
  0
VERTEX
  8
0
 62
7
  6
CONTINUOUS
 10
153.0957059167
 20
90.3188881706
  0
VERTEX
  8
0
 62
7
  6
CONTINUOUS
 10
153.0214273265
 20
90.5333540675
  0
VERTEX
  8
0
 62
7
  6
CONTINUOUS
 10
152.8981676887
 20
90.7295633961
  0
VERTEX
  8
0
 62
7
  6
CONTINUOUS
 10
152.8193181069
 20
90.8165906884
  0
VERTEX
  8
0
 62
7
  6
CONTINUOUS
 10
152.6282545574
 20
90.9625489912
  0
VERTEX
  8
0
 62
7
  6
CONTINUOUS
 10
152.4005349614
 20
91.0588732626
  0
VERTEX
  8
0
 62
7
  6
CONTINUOUS
 10
152.1449287084
 20
91.09375
  0
SEQEND
  0
POLYLINE
  8
0
 62
7
  6
CONTINUOUS
 66
1
 70
0
  0
VERTEX
  8
0
 62
7
  6
CONTINUOUS
 10
161.5003583281
 20
81.8542501236
  0
VERTEX
  8
0
 62
7
  6
CONTINUOUS
 10
161.486360823
 20
82.0176246243
  0
VERTEX
  8
0
 62
7
  6
CONTINUOUS
 10
161.4568569328
 20
82.1384875154
  0
VERTEX
  8
0
 62
7
  6
CONTINUOUS
 10
161.3571725597
 20
82.3510089285
  0
SEQEND
  0
LINE
  8
0
 62
7
  6
CONTINUOUS
 10
158.9710630584
 20
82.0576012068
 11
158.9710630584
 21
70.1298987932
  0
LINE
  8
0
 62
7
  6
CONTINUOUS
 10
161.5003583291
 20
81.8542034089
 11
161.5003583291
 21
70.3332965911
  0
POLYLINE
  8
0
 62
7
  6
CONTINUOUS
 66
1
 70
0
  0
VERTEX
  8
0
 62
7
  6
CONTINUOUS
 10
158.9710630583
 20
82.0575849814
  0
VERTEX
  8
0
 62
7
  6
CONTINUOUS
 10
158.9701821771
 20
82.0175768497
  0
VERTEX
  8
0
 62
7
  6
CONTINUOUS
 10
158.9253919195
 20
81.7611426753
  0
SEQEND
  0
POLYLINE
  8
0
 62
7
  6
CONTINUOUS
 66
1
 70
0
  0
VERTEX
  8
0
 62
7
  6
CONTINUOUS
 10
158.9710630583
 20
70.1299148351
  0
VERTEX
  8
0
 62
7
  6
CONTINUOUS
 10
158.967323124
 20
70.0490947612
  0
VERTEX
  8
0
 62
7
  6
CONTINUOUS
 10
158.916358355
 20
69.8364910715
  0
SEQEND
  0
POLYLINE
  8
0
 62
7
  6
CONTINUOUS
 66
1
 70
0
  0
VERTEX
  8
0
 62
7
  6
CONTINUOUS
 10
161.3571725597
 20
69.8364910715
  0
VERTEX
  8
0
 62
7
  6
CONTINUOUS
 10
161.4568727461
 20
70.0490623114
  0
VERTEX
  8
0
 62
7
  6
CONTINUOUS
 10
161.4863492433
 20
70.1698087848
  0
VERTEX
  8
0
 62
7
  6
CONTINUOUS
 10
161.5003583281
 20
70.3332498928
  0
SEQEND
  0
POLYLINE
  8
0
 62
7
  6
CONTINUOUS
 66
1
 70
0
  0
VERTEX
  8
0
 62
7
  6
CONTINUOUS
 10
158.916358355
 20
69.8364910715
  0
VERTEX
  8
0
 62
7
  6
CONTINUOUS
 10
158.8763434537
 20
69.7512119224
  0
VERTEX
  8
0
 62
7
  6
CONTINUOUS
 10
158.7717850737
 20
69.604269361
  0
VERTEX
  8
0
 62
7
  6
CONTINUOUS
 10
158.7077957756
 20
69.5453596332
  0
VERTEX
  8
0
 62
7
  6
CONTINUOUS
 10
158.5602931666
 20
69.4617937317
  0
VERTEX
  8
0
 62
7
  6
CONTINUOUS
 10
158.4808295906
 20
69.4386689841
  0
SEQEND
  0
POLYLINE
  8
0
 62
7
  6
CONTINUOUS
 66
1
 70
0
  0
VERTEX
  8
0
 62
7
  6
CONTINUOUS
 10
158.5107874846
 20
81.7611426753
  0
VERTEX
  8
0
 62
7
  6
CONTINUOUS
 10
158.3960562587
 20
82.0176246243
  0
VERTEX
  8
0
 62
7
  6
CONTINUOUS
 10
158.318258456
 20
82.1384875154
  0
VERTEX
  8
0
 62
7
  6
CONTINUOUS
 10
158.136128665
 20
82.3510089285
  0
SEQEND
  0
POLYLINE
  8
0
 62
7
  6
CONTINUOUS
 66
1
 70
0
  0
VERTEX
  8
0
 62
7
  6
CONTINUOUS
 10
158.916358355
 20
82.3510089285
  0
VERTEX
  8
0
 62
7
  6
CONTINUOUS
 10
158.9673187307
 20
82.1384519614
  0
VERTEX
  8
0
 62
7
  6
CONTINUOUS
 10
158.9710630583
 20
82.0575849814
  0
SEQEND
  0
POLYLINE
  8
0
 62
7
  6
CONTINUOUS
 66
1
 70
0
  0
VERTEX
  8
0
 62
7
  6
CONTINUOUS
 10
158.9253919195
 20
70.4263573247
  0
VERTEX
  8
0
 62
7
  6
CONTINUOUS
 10
158.9701851805
 20
70.1698544536
  0
VERTEX
  8
0
 62
7
  6
CONTINUOUS
 10
158.9710630583
 20
70.1299148351
  0
SEQEND
  0
LINE
  8
0
 62
2
  6
CONTINUOUS
 10
99.4707038737
 20
204.2489776485
 11
99.4707038737
 21
202.4889776485
  0
LINE
  8
DEFAULT_1
 62
2
  6
CENTER
 10
99.4707038737
 20
198.9689776485
 11
99.4707038737
 21
137.2617465223
  0
LINE
  8
DEFAULT_1
 62
2
  6
CENTER
 10
99.4707038737
 20
207.7689776485
 11
99.4707038737
 21
269.4762087748
  0
LINE
  8
0
 62
2
  6
CONTINUOUS
 10
100.3507038737
 20
203.3689776485
 11
98.5907038737
 21
203.3689776485
  0
LINE
  8
DEFAULT_1
 62
2
  6
CENTER
 10
95.0707038737
 20
203.3689776485
 11
33.3634727474
 21
203.3689776485
  0
LINE
  8
DEFAULT_1
 62
2
  6
CENTER
 10
103.8707038737
 20
203.3689776485
 11
165.577935
 21
203.3689776485
  0
ARC
  8
0
 62
7
  6
CONTINUOUS
 10
59.9189535028
 20
154.6338308491
 40
20.0
 50
110.0552762025
 51
122.690417787
  0
ARC
  8
0
 62
7
  6
CONTINUOUS
 10
46.8682496219
 20
169.1281059066
 40
20.0
 50
321.309582213
 51
333.9641461547
  0
ARC
  8
0
 62
7
  6
CONTINUOUS
 10
55.5766821966
 20
163.8460236485
 40
9.9
 50
339.3174042721
 51
104.7240496568
  0
ARC
  8
0
 62
7
  6
CONTINUOUS
 10
62.9075440755
 20
154.1670940914
 40
1.0
 50
196.9607448368
 51
233.3830292681
  0
ARC
  8
0
 62
7
  6
CONTINUOUS
 10
36.7881450026
 20
200.1514779464
 40
20.0
 50
62.0552762025
 51
74.690417787
  0
ARC
  8
0
 62
7
  6
CONTINUOUS
 10
43.5160119715
 20
174.934351836
 40
20.0
 50
86.0552762025
 51
98.690417787
  0
ARC
  8
0
 62
7
  6
CONTINUOUS
 10
37.4889535028
 20
193.4837304629
 40
20.0
 50
297.309582213
 51
309.9641461547
  0
ARC
  8
0
 62
7
  6
CONTINUOUS
 10
43.2960861185
 20
185.1162695772
 40
9.9
 50
315.3174042721
 51
80.7240496568
  0
ARC
  8
0
 62
7
  6
CONTINUOUS
 10
40.0408154425
 20
197.6702927465
 40
3.0
 50
223.0392551632
 51
278.690417787
  0
ARC
  8
0
 62
7
  6
CONTINUOUS
 10
40.1546778794
 20
196.586964024
 40
3.0
 50
93.309582213
 51
148.9607448368
  0
ARC
  8
0
 62
7
  6
CONTINUOUS
 10
47.4966632162
 20
173.9906566229
 40
3.0
 50
247.0392551632
 51
302.690417787
  0
ARC
  8
0
 62
7
  6
CONTINUOUS
 10
48.0413112162
 20
173.0472986146
 40
3.0
 50
117.309582213
 51
172.9607448368
  0
ARC
  8
0
 62
7
  6
CONTINUOUS
 10
38.5790429001
 20
196.3052941992
 40
1.0
 50
186.6169707319
 51
223.0392551632
  0
ARC
  8
0
 62
7
  6
CONTINUOUS
 10
38.4410494183
 20
197.6182144772
 40
1.0
 50
148.9607448368
 51
185.3830292681
  0
ARC
  8
0
 62
7
  6
CONTINUOUS
 10
46.7164624769
 20
172.1491119434
 40
1.0
 50
210.6169707319
 51
247.0392551632
  0
ARC
  8
0
 62
7
  6
CONTINUOUS
 10
46.0563863719
 20
173.2923972941
 40
1.0
 50
172.9607448368
 51
209.3830292681
  0
ARC
  8
0
 62
7
  6
CONTINUOUS
 10
83.1607519895
 20
142.7600594887
 40
20.0
 50
134.0552762025
 51
146.690417787
  0
ARC
  8
0
 62
7
  6
CONTINUOUS
 10
65.3429879594
 20
150.693039143
 40
20.0
 50
345.309582213
 51
357.9641461547
  0
ARC
  8
0
 62
7
  6
CONTINUOUS
 10
89.7187184191
 20
141.3661206929
 40
20.0
 50
9.309582213
 51
21.9641461547
  0
ARC
  8
0
 62
7
  6
CONTINUOUS
 10
75.4469533873
 20
149.4096555211
 40
9.9
 50
3.3174042721
 51
128.7240496568
  0
ARC
  8
0
 62
7
  6
CONTINUOUS
 10
63.9392947889
 20
155.3907990982
 40
3.0
 50
271.0392551632
 51
326.690417787
  0
ARC
  8
0
 62
7
  6
CONTINUOUS
 10
64.8205537648
 20
154.7505269741
 40
3.0
 50
141.309582213
 51
196.9607448368
  0
ARC
  8
0
 62
7
  6
CONTINUOUS
 10
86.5256297851
 20
145.086804513
 40
3.0
 50
295.0392551632
 51
350.690417787
  0
ARC
  8
0
 62
7
  6
CONTINUOUS
 10
87.591122054
 20
144.8603271399
 40
3.0
 50
165.309582213
 51
220.9607448368
  0
ARC
  8
0
 62
7
  6
CONTINUOUS
 10
63.9755696485
 20
153.3911280917
 40
1.0
 50
234.6169707319
 51
271.0392551632
  0
ARC
  8
0
 62
7
  6
CONTINUOUS
 10
87.3721079907
 20
143.2747684628
 40
1.0
 50
258.6169707319
 51
295.0392551632
  0
ARC
  8
0
 62
7
  6
CONTINUOUS
 10
86.080804274
 20
143.5492435409
 40
1.0
 50
220.9607448368
 51
257.3830292681
  0
ARC
  8
0
 62
7
  6
CONTINUOUS
 10
40.8986619156
 20
225.9249389853
 40
20.0
 50
38.0552762025
 51
50.690417787
  0
ARC
  8
0
 62
7
  6
CONTINUOUS
 10
38.8268651093
 20
219.5486040622
 40
20.0
 50
273.309582213
 51
285.9641461547
  0
ARC
  8
0
 62
7
  6
CONTINUOUS
 10
48.318142279
 20
232.9014085371
 40
9.9
 50
267.3174042721
 51
32.7240496568
  0
ARC
  8
0
 62
7
  6
CONTINUOUS
 10
40.7285917806
 20
209.5425745521
 40
9.9
 50
291.3174042721
 51
56.7240496568
  0
ARC
  8
0
 62
7
  6
CONTINUOUS
 10
42.8609352822
 20
222.3352832606
 40
3.0
 50
199.0392551632
 51
254.690417787
  0
ARC
  8
0
 62
7
  6
CONTINUOUS
 10
42.5243243063
 20
221.2993012017
 40
3.0
 50
69.309582213
 51
124.9607448368
  0
ARC
  8
0
 62
7
  6
CONTINUOUS
 10
40.970344689
 20
221.6828514949
 40
1.0
 50
162.6169707319
 51
199.0392551632
  0
ARC
  8
0
 62
7
  6
CONTINUOUS
 10
41.378294157
 20
222.9383908566
 40
1.0
 50
124.9607448368
 51
161.3830292681
  0
ARC
  8
0
 62
7
  6
CONTINUOUS
 10
55.1368169935
 20
247.7982693946
 40
20.0
 50
14.0552762025
 51
26.690417787
  0
ARC
  8
0
 62
7
  6
CONTINUOUS
 10
50.6506473702
 20
242.8158732674
 40
20.0
 50
249.309582213
 51
261.9641461547
  0
ARC
  8
0
 62
7
  6
CONTINUOUS
 10
64.7524353836
 20
251.1538169277
 40
9.9
 50
243.3174042721
 51
8.7240496568
  0
ARC
  8
0
 62
7
  6
CONTINUOUS
 10
55.4693983949
 20
243.7208272309
 40
3.0
 50
175.0392551632
 51
230.690417787
  0
ARC
  8
0
 62
7
  6
CONTINUOUS
 10
54.7405171019
 20
242.9113225451
 40
3.0
 50
45.309582213
 51
100.9607448368
  0
ARC
  8
0
 62
7
  6
CONTINUOUS
 10
53.47689004
 20
243.8937736262
 40
1.0
 50
138.6169707319
 51
175.0392551632
  0
ARC
  8
0
 62
7
  6
CONTINUOUS
 10
54.3602442887
 20
244.8748379099
 40
1.0
 50
100.9607448368
 51
137.3830292681
  0
ARC
  8
0
 62
7
  6
CONTINUOUS
 10
77.0407038737
 20
261.9893716336
 40
20.0
 50
350.0358538453
 51
2.690417787
  0
ARC
  8
0
 62
7
  6
CONTINUOUS
 10
96.1184662234
 20
266.044475203
 40
20.0
 50
201.309582213
 51
213.9447237975
  0
ARC
  8
0
 62
7
  6
CONTINUOUS
 10
70.9158609169
 20
259.2624158562
 40
20.0
 50
225.309582213
 51
237.9641461547
  0
ARC
  8
0
 62
7
  6
CONTINUOUS
 10
87.1907038737
 20
261.1439777081
 40
9.9
 50
219.2759503432
 51
344.6825957279
  0
ARC
  8
0
 62
7
  6
CONTINUOUS
 10
98.9260558737
 20
263.0689777081
 40
3.0
 50
357.309582213
 51
52.9607448368
  0
ARC
  8
0
 62
7
  6
CONTINUOUS
 10
75.6860869643
 20
258.1291698234
 40
3.0
 50
151.0392551632
 51
206.690417787
  0
ARC
  8
0
 62
7
  6
CONTINUOUS
 10
74.6909655514
 20
257.6861132251
 40
3.0
 50
21.309582213
 51
76.9607448368
  0
ARC
  8
0
 62
7
  6
CONTINUOUS
 10
98.8106277688
 20
264.6654237081
 40
1.0
 50
90.6169707319
 51
127.0392551632
  0
ARC
  8
0
 62
7
  6
CONTINUOUS
 10
73.9361836436
 20
259.0975903768
 40
1.0
 50
114.6169707319
 51
151.0392551632
  0
ARC
  8
0
 62
7
  6
CONTINUOUS
 10
75.1422026984
 20
259.634544655
 40
1.0
 50
76.9607448368
 51
113.3830292681
  0
ARC
  8
0
 62
7
  6
CONTINUOUS
 10
109.2226893283
 20
141.3661206929
 40
20.0
 50
158.0552762025
 51
170.690417787
  0
ARC
  8
0
 62
7
  6
CONTINUOUS
 10
115.7806557579
 20
142.7600594887
 40
20.0
 50
33.309582213
 51
45.9641461547
  0
ARC
  8
0
 62
7
  6
CONTINUOUS
 10
123.495268169
 20
149.4100178522
 40
9.9
 50
51.3174042721
 51
176.7240496568
  0
ARC
  8
0
 62
7
  6
CONTINUOUS
 10
99.4711492861
 20
144.3033443946
 40
9.9
 50
27.3174042721
 51
152.7240496568
  0
ARC
  8
0
 62
7
  6
CONTINUOUS
 10
111.3502856935
 20
144.8603271399
 40
3.0
 50
319.0392551632
 51
14.690417787
  0
ARC
  8
0
 62
7
  6
CONTINUOUS
 10
112.4157779624
 20
145.086804513
 40
3.0
 50
189.309582213
 51
244.9607448368
  0
ARC
  8
0
 62
7
  6
CONTINUOUS
 10
112.8606034735
 20
143.5492435409
 40
1.0
 50
282.6169707319
 51
319.0392551632
  0
ARC
  8
0
 62
7
  6
CONTINUOUS
 10
111.5692997567
 20
143.2747684628
 40
1.0
 50
244.9607448368
 51
281.3830292681
  0
ARC
  8
0
 62
7
  6
CONTINUOUS
 10
99.4707038737
 20
203.3689776485
 40
62.3
 50
89.3830292681
 51
90.6169707319
  0
ARC
  8
0
 62
7
  6
CONTINUOUS
 10
99.4707038737
 20
203.3689776485
 40
62.3
 50
65.3830292681
 51
66.6169707319
  0
ARC
  8
0
 62
7
  6
CONTINUOUS
 10
99.4707038737
 20
203.3689776485
 40
62.3
 50
113.3830292681
 51
114.6169707319
  0
ARC
  8
0
 62
7
  6
CONTINUOUS
 10
99.4707038737
 20
203.3689776485
 40
62.3
 50
137.3830292681
 51
138.6169707319
  0
ARC
  8
0
 62
7
  6
CONTINUOUS
 10
99.4707038737
 20
203.3689776485
 40
62.3
 50
41.3830292681
 51
42.6169707319
  0
ARC
  8
0
 62
7
  6
CONTINUOUS
 10
99.4707038737
 20
203.3689776485
 40
62.3
 50
161.3830292681
 51
162.6169707319
  0
ARC
  8
0
 62
7
  6
CONTINUOUS
 10
99.4707038737
 20
203.3689776485
 40
62.3
 50
17.3830292681
 51
18.6169707319
  0
ARC
  8
0
 62
7
  6
CONTINUOUS
 10
99.4707038737
 20
203.3689776485
 40
62.3
 50
185.3830292681
 51
186.6169707319
  0
ARC
  8
0
 62
7
  6
CONTINUOUS
 10
99.4707038737
 20
203.3689776485
 40
62.3
 50
209.3830292681
 51
210.6169707319
  0
ARC
  8
0
 62
7
  6
CONTINUOUS
 10
99.4707038737
 20
203.3689776485
 40
62.3
 50
353.3830292681
 51
354.6169707319
  0
ARC
  8
0
 62
7
  6
CONTINUOUS
 10
99.4707038737
 20
203.3689776485
 40
62.3
 50
233.3830292681
 51
234.6169707319
  0
ARC
  8
0
 62
7
  6
CONTINUOUS
 10
99.4707038737
 20
203.3689776485
 40
62.3
 50
329.3830292681
 51
330.6169707319
  0
ARC
  8
0
 62
7
  6
CONTINUOUS
 10
99.4707038737
 20
203.3689776485
 40
62.3
 50
257.3830292681
 51
258.6169707319
  0
ARC
  8
0
 62
7
  6
CONTINUOUS
 10
99.4707038737
 20
203.3689776485
 40
62.3
 50
281.3830292681
 51
282.6169707319
  0
ARC
  8
0
 62
7
  6
CONTINUOUS
 10
99.4707038737
 20
203.3689776485
 40
62.3
 50
305.3830292681
 51
306.6169707319
  0
ARC
  8
0
 62
7
  6
CONTINUOUS
 10
99.4707038737
 20
203.3689776485
 40
53.7
 50
254.4723061287
 51
261.5285580032
  0
ARC
  8
0
 62
7
  6
CONTINUOUS
 10
99.4707038737
 20
203.3689776485
 40
53.7
 50
182.4723061287
 51
189.5285580032
  0
ARC
  8
0
 62
7
  6
CONTINUOUS
 10
99.4707038737
 20
203.3689776485
 40
53.7
 50
206.4723061287
 51
213.5285580032
  0
ARC
  8
0
 62
7
  6
CONTINUOUS
 10
99.4707038737
 20
203.3689776485
 40
53.7
 50
230.4723061287
 51
237.5285580032
  0
ARC
  8
0
 62
7
  6
CONTINUOUS
 10
99.4707038737
 20
203.3689776485
 40
53.7
 50
158.4723061287
 51
165.5285580032
  0
ARC
  8
0
 62
7
  6
CONTINUOUS
 10
99.4707038737
 20
203.3689776485
 40
53.7
 50
134.4723061287
 51
141.5285580032
  0
ARC
  8
0
 62
7
  6
CONTINUOUS
 10
99.4707038737
 20
203.3689776485
 40
53.7
 50
86.4723061287
 51
93.5276938713
  0
ARC
  8
0
 62
7
  6
CONTINUOUS
 10
99.4707038737
 20
203.3689776485
 40
53.7
 50
110.4714419968
 51
117.5285580032
  0
ARC
  8
0
 62
7
  6
CONTINUOUS
 10
99.4707038737
 20
203.3689776485
 40
53.7
 50
62.4723061287
 51
69.5285580032
  0
ARC
  8
0
 62
7
  6
CONTINUOUS
 10
99.4707038737
 20
203.3689776485
 40
53.7
 50
38.4723061287
 51
45.5285580032
  0
ARC
  8
0
 62
7
  6
CONTINUOUS
 10
99.4707038737
 20
203.3689776485
 40
53.7
 50
14.4723061287
 51
21.5285580032
  0
ARC
  8
0
 62
7
  6
CONTINUOUS
 10
99.4707038737
 20
203.3689776485
 40
53.7
 50
350.4723061287
 51
357.5285580032
  0
ARC
  8
0
 62
7
  6
CONTINUOUS
 10
99.4707038737
 20
203.3689776485
 40
53.7
 50
326.4723061287
 51
333.5285580032
  0
ARC
  8
0
 62
7
  6
CONTINUOUS
 10
99.4707038737
 20
203.3689776485
 40
53.7
 50
302.4723061287
 51
309.5285580032
  0
ARC
  8
0
 62
7
  6
CONTINUOUS
 10
99.4707038737
 20
203.3689776485
 40
53.7
 50
278.4723061287
 51
285.5285580032
  0
ARC
  8
0
 62
7
  6
CONTINUOUS
 10
139.0224542447
 20
154.6338308491
 40
20.0
 50
57.309582213
 51
69.9641461547
  0
ARC
  8
0
 62
7
  6
CONTINUOUS
 10
133.598419788
 20
150.693039143
 40
20.0
 50
182.0552762025
 51
194.690417787
  0
ARC
  8
0
 62
7
  6
CONTINUOUS
 10
152.0731581256
 20
169.1281059066
 40
20.0
 50
206.0552762025
 51
218.690417787
  0
ARC
  8
0
 62
7
  6
CONTINUOUS
 10
143.365321629
 20
163.8466856603
 40
9.9
 50
75.3174042721
 51
200.7240496568
  0
ARC
  8
0
 62
7
  6
CONTINUOUS
 10
135.0021129586
 20
155.3907990982
 40
3.0
 50
213.309582213
 51
268.9607448368
  0
ARC
  8
0
 62
7
  6
CONTINUOUS
 10
134.1208539827
 20
154.7505269741
 40
3.0
 50
343.0392551632
 51
38.690417787
  0
ARC
  8
0
 62
7
  6
CONTINUOUS
 10
152.2249452705
 20
172.1491119434
 40
1.0
 50
292.9607448368
 51
329.3830292681
  0
ARC
  8
0
 62
7
  6
CONTINUOUS
 10
134.965838099
 20
153.3911280917
 40
1.0
 50
268.9607448368
 51
305.3830292681
  0
ARC
  8
0
 62
7
  6
CONTINUOUS
 10
136.033863672
 20
154.1670940914
 40
1.0
 50
306.6169707319
 51
343.0392551632
  0
ARC
  8
0
 62
7
  6
CONTINUOUS
 10
162.1532627449
 20
200.1514779464
 40
20.0
 50
105.309582213
 51
117.9641461547
  0
ARC
  8
0
 62
7
  6
CONTINUOUS
 10
155.4253957759
 20
174.934351836
 40
20.0
 50
81.309582213
 51
93.9641461547
  0
ARC
  8
0
 62
7
  6
CONTINUOUS
 10
161.4524542447
 20
193.4837304629
 40
20.0
 50
230.0552762025
 51
242.690417787
  0
ARC
  8
0
 62
7
  6
CONTINUOUS
 10
155.645596909
 20
185.1171168019
 40
9.9
 50
99.3174042721
 51
224.7240496568
  0
ARC
  8
0
 62
7
  6
CONTINUOUS
 10
158.9005923049
 20
197.6702927465
 40
3.0
 50
261.309582213
 51
316.9607448368
  0
ARC
  8
0
 62
7
  6
CONTINUOUS
 10
158.786729868
 20
196.586964024
 40
3.0
 50
31.0392551632
 51
86.690417787
  0
ARC
  8
0
 62
7
  6
CONTINUOUS
 10
151.4447445313
 20
173.9906566229
 40
3.0
 50
237.309582213
 51
292.9607448368
  0
ARC
  8
0
 62
7
  6
CONTINUOUS
 10
150.9000965313
 20
173.0472986146
 40
3.0
 50
7.0392551632
 51
62.690417787
  0
ARC
  8
0
 62
7
  6
CONTINUOUS
 10
160.3623648473
 20
196.3052941992
 40
1.0
 50
316.9607448368
 51
353.3830292681
  0
ARC
  8
0
 62
7
  6
CONTINUOUS
 10
160.5003583291
 20
197.6182144772
 40
1.0
 50
354.6169707319
 51
31.0392551632
  0
ARC
  8
0
 62
7
  6
CONTINUOUS
 10
152.8850213755
 20
173.2923972941
 40
1.0
 50
330.6169707319
 51
7.0392551632
  0
ARC
  8
0
 62
7
  6
CONTINUOUS
 10
121.9007038737
 20
261.9893716336
 40
20.0
 50
177.309582213
 51
189.9641461547
  0
ARC
  8
0
 62
7
  6
CONTINUOUS
 10
102.8229415241
 20
266.044475203
 40
20.0
 50
326.0552762025
 51
338.690417787
  0
ARC
  8
0
 62
7
  6
CONTINUOUS
 10
128.0255468306
 20
259.2624158562
 40
20.0
 50
302.0552762025
 51
314.690417787
  0
ARC
  8
0
 62
7
  6
CONTINUOUS
 10
111.7507038737
 20
261.1439777081
 40
9.9
 50
195.3174042721
 51
320.7240496568
  0
ARC
  8
0
 62
7
  6
CONTINUOUS
 10
100.0153518737
 20
263.0689777081
 40
3.0
 50
127.0392551632
 51
182.690417787
  0
ARC
  8
0
 62
7
  6
CONTINUOUS
 10
123.2553207832
 20
258.1291698234
 40
3.0
 50
333.309582213
 51
28.9607448368
  0
ARC
  8
0
 62
7
  6
CONTINUOUS
 10
124.250442196
 20
257.6861132251
 40
3.0
 50
103.0392551632
 51
158.690417787
  0
ARC
  8
0
 62
7
  6
CONTINUOUS
 10
100.1307799787
 20
264.6654237081
 40
1.0
 50
52.9607448368
 51
89.3830292681
  0
ARC
  8
0
 62
7
  6
CONTINUOUS
 10
125.0052241039
 20
259.0975903768
 40
1.0
 50
28.9607448368
 51
65.3830292681
  0
ARC
  8
0
 62
7
  6
CONTINUOUS
 10
123.7992050491
 20
259.634544655
 40
1.0
 50
66.6169707319
 51
103.0392551632
  0
ARC
  8
0
 62
7
  6
CONTINUOUS
 10
158.0427458318
 20
225.9249389853
 40
20.0
 50
129.309582213
 51
141.9641461547
  0
ARC
  8
0
 62
7
  6
CONTINUOUS
 10
160.1145426381
 20
219.5486040622
 40
20.0
 50
254.055276194
 51
266.690417787
  0
ARC
  8
0
 62
7
  6
CONTINUOUS
 10
150.622820056
 20
232.9021800139
 40
9.9
 50
147.3174042721
 51
272.7240496568
  0
ARC
  8
0
 62
7
  6
CONTINUOUS
 10
158.2127228503
 20
209.5434604969
 40
9.9
 50
123.3174042721
 51
248.7240496394
  0
ARC
  8
0
 62
7
  6
CONTINUOUS
 10
156.0804724653
 20
222.3352832606
 40
3.0
 50
285.309582213
 51
340.9607448368
  0
ARC
  8
0
 62
7
  6
CONTINUOUS
 10
156.4170834412
 20
221.2993012017
 40
3.0
 50
55.0392551632
 51
110.690417787
  0
ARC
  8
0
 62
7
  6
CONTINUOUS
 10
157.9710630584
 20
221.6828514949
 40
1.0
 50
340.9607448368
 51
17.3830292681
  0
ARC
  8
0
 62
7
  6
CONTINUOUS
 10
157.5631135904
 20
222.9383908566
 40
1.0
 50
18.6169707319
 51
55.0392551632
  0
ARC
  8
0
 62
7
  6
CONTINUOUS
 10
143.8045907539
 20
247.7982693946
 40
20.0
 50
153.309582213
 51
165.9641461547
  0
ARC
  8
0
 62
7
  6
CONTINUOUS
 10
148.2907603772
 20
242.8158732674
 40
20.0
 50
278.0552762025
 51
290.690417787
  0
ARC
  8
0
 62
7
  6
CONTINUOUS
 10
134.1882516715
 20
251.1543405413
 40
9.9
 50
171.3174042721
 51
296.7240496568
  0
ARC
  8
0
 62
7
  6
CONTINUOUS
 10
143.4720093525
 20
243.7208272309
 40
3.0
 50
309.309582213
 51
4.9607448368
  0
ARC
  8
0
 62
7
  6
CONTINUOUS
 10
144.2008906455
 20
242.9113225451
 40
3.0
 50
79.0392551632
 51
134.690417787
  0
ARC
  8
0
 62
7
  6
CONTINUOUS
 10
145.4645177074
 20
243.8937736262
 40
1.0
 50
4.9607448368
 51
41.3830292681
  0
ARC
  8
0
 62
7
  6
CONTINUOUS
 10
144.5811634587
 20
244.8748379099
 40
1.0
 50
42.6169707319
 51
79.0392551632
  0
ENDSEC
  0
EOF
