  0
SECTION
  2
HEADER
  9
$EXTMAX
 10
210.0
 20
297.0
 30
0.0
  9
$EXTMIN
 10
0.0
 20
0.0
 30
0.0
  9
$LIMMIN
 10
0.0
 20
0.0
  9
$LIMMAX
 10
210.0
 20
297.0
  9
$VIEWCTR
 10
105.0
 20
148.5
  9
$VIEWSIZE
 40
297.0
  9
$CLAYER
  8
0
  9
$LTSCALE
 40
19.36
  9
$CELTYPE
  6
BYLAYER
  9
$DIMSCALE
 40
1.0
  9
$DIMASZ
 40
3.5
  9
$DIMEXO
 40
1.0
  9
$DIMDLI
 40
13.376
  9
$DIMEXE
 40
2.0
  9
$DIMCEN
 40
3.168
  9
$DIMLFAC
 40
1.0
  9
$DIMBLK
  1
_FILLED
  9
$DIMTXT
 40
3.5
  9
$AUNITS
 70
0
  9
$PDMODE
 70
3
  9
$PDSIZE
 40
0.3125
  9
$TILEMODE
 70
1
  0
ENDSEC
  0
SECTION
  2
TABLES
  0
TABLE
  2
LTYPE
 70
6
  0
LTYPE
  2
BYBLOCK
 70
0
  3

 72
65
 73
0
 40
0.0
  0
LTYPE
  2
BYLAYER
 70
0
  3

 72
65
 73
0
 40
0.0
  0
LTYPE
  2
CONTINUOUS
 70
64
  3
Solid line
 72
65
 73
0
 40
0.0
  0
LTYPE
  2
CENTER
 70
64
  3
____ _ ____ _ ____ _ ____ _ ____ _ ____ _ ____
 72
65
 73
4
 40
0.6
 49
0.375
 49
-0.075
 49
0.075
 49
-0.075
  0
LTYPE
  2
HIDDEN
 70
64
  3
- - - - - - - - - - - - - - - - - - - -
 72
65
 73
2
 40
0.2
 49
0.1
 49
-0.1
  0
LTYPE
  2
PHANTOM
 70
64
  3
_____ _ _ _____ _ _ _____ _ _ _____
 72
65
 73
6
 40
0.8
 49
0.45
 49
-0.05
 49
0.1
 49
-0.05
 49
0.1
 49
-0.05
  0
LTYPE
  2
DOT
 70
64
  3
. . . . . . . . . . . . . . . . . . . .
 72
65
 73
2
 40
0.2
 49
0.1
 49
-0.1
  0
LTYPE
  2
DASHED
 70
64
  3
- - - - - - - - - - - - - - - - - - - -
 72
65
 73
2
 40
0.2
 49
0.1
 49
-0.1
  0
ENDTAB
  0
TABLE
  2
LAYER
 70
36
  0
LAYER
  2
0
 70
0
 62
7
  6
CONTINUOUS
  0
LAYER
  2
DEFAULT_1
 70
0
 62
7
  6
CENTER
  0
LAYER
  2
DEFAULT_2
 70
0
 62
8
  6
HIDDEN
  0
LAYER
  2
DEFAULT_3
 70
0
 62
7
  6
PHANTOM
  0
LAYER
  2
CSYS
 70
0
 62
7
  6
CONTINUOUS
  0
LAYER
  2
CURVE
 70
0
 62
7
  6
CONTINUOUS
  0
LAYER
  2
PITCHLINE
 70
0
 62
7
  6
CONTINUOUS
  0
LAYER
  2
SQ
 70
0
 62
7
  6
CONTINUOUS
  0
LAYER
  2
SURFACE
 70
0
 62
7
  6
CONTINUOUS
  0
ENDTAB
  0
TABLE
  2
STYLE
 70
1
  0
STYLE
  2
STANDARD
 70
0
 40
0.0
 41
0.8
 50
0.0
 71
0
 42
0.2
  3
txt
  4

  0
STYLE
  2
TEXTSTYLE_1
 70
0
 40
0.0
 41
0.8
 50
0.0
 71
0
 42
0.2
  3
gdt
  4

  0
STYLE
  2
TEXTSTYLE_2
 70
0
 40
0.0
 41
0.6
 50
0.0
 71
0
 42
0.2
  3
txt
  4

  0
STYLE
  2
TEXTSTYLE_3
 70
0
 40
0.0
 41
1.0
 50
0.0
 71
0
 42
0.2
  3
ftb_____.ttf
  4

  0
STYLE
  2
TEXTSTYLE_4
 70
0
 40
0.0
 41
1.0
 50
0.0
 71
0
 42
0.2
  3
fti_____.ttf
  4

  0
STYLE
  2
TEXTSTYLE_5
 70
0
 40
0.0
 41
1.0
 50
0.0
 71
0
 42
0.2
  3
frutiger light.ttf
  4

  0
STYLE
  2
TEXTSTYLE_6
 70
0
 40
0.0
 41
0.7
 50
0.0
 71
0
 42
0.2
  3
txt
  4

  0
STYLE
  2
TEXTSTYLE_7
 70
0
 40
0.0
 41
0.8
 50
0.0
 71
0
 42
0.2
  3
txt
  4

  0
ENDTAB
  0
ENDSEC
  0
SECTION
  2
BLOCKS
  0
BLOCK
  8
0
 62
2
  6
CONTINUOUS
  2
UNI_LOGO2_BL1
 70
64
 10
173.5956734183
 20
35.5937998301
  0
TEXT
  8
0
 62
7
  6
CONTINUOUS
 10
164.6539584268
 20
30.6865562072
  7
TEXTSTYLE_4
 40
1.0655737705
  1
The brand for plastic modular belts and chains
 41
1.0
 72
0
  0
LINE
  8
0
 62
7
  6
CONTINUOUS
 10
149.5737418074
 20
36.1675703219
 11
149.5737418074
 21
34.0364227809
  0
LINE
  8
0
 62
7
  6
CONTINUOUS
 10
149.8628043005
 20
31.0454914852
 11
149.8628043005
 21
31.1422825445
  0
LINE
  8
0
 62
7
  6
CONTINUOUS
 10
149.5737418074
 20
31.1100188581
 11
149.6315543091
 21
30.9164367395
  0
LINE
  8
0
 62
7
  6
CONTINUOUS
 10
150.9671844304
 20
33.9544555678
 11
150.9671844304
 21
36.1675703219
  0
LINE
  8
0
 62
7
  6
CONTINUOUS
 10
151.8862417523
 20
32.1101932727
 11
151.8862417523
 21
30.5937998301
  0
LINE
  8
0
 62
7
  6
CONTINUOUS
 10
152.1753043074
 20
30.5937998301
 11
152.1753043074
 21
31.3358647082
  0
LINE
  8
0
 62
7
  6
CONTINUOUS
 10
152.1753043074
 20
31.4649194539
 11
152.1753043074
 21
32.1101932727
  0
LINE
  8
0
 62
7
  6
CONTINUOUS
 10
149.6315543091
 20
31.3036010218
 11
149.5737418074
 21
31.1100188581
  0
LINE
  8
0
 62
7
  6
CONTINUOUS
 10
149.9784292936
 20
30.8841730531
 11
149.8628043005
 21
31.0454914852
  0
LINE
  8
0
 62
7
  6
CONTINUOUS
 10
151.0768668626
 20
31.400392081
 11
151.1346793074
 21
31.3036010218
  0
LINE
  8
0
 62
7
  6
CONTINUOUS
 10
151.4237418626
 20
31.3036010218
 11
151.3659292523
 21
31.4326557675
  0
LINE
  8
0
 62
7
  6
CONTINUOUS
 10
152.852430332
 20
36.1675703219
 11
152.852430332
 21
34.3642916334
  0
LINE
  8
0
 62
7
  6
CONTINUOUS
 10
152.852430332
 20
33.0528162235
 11
152.852430332
 21
32.3970785186
  0
LINE
  8
0
 62
7
  6
CONTINUOUS
 10
153.2159293074
 20
31.2390736489
 11
153.2159293074
 21
30.5937998301
  0
LINE
  8
0
 62
7
  6
CONTINUOUS
 10
153.5049916972
 20
30.5937998301
 11
153.5049916972
 21
31.2390736489
  0
LINE
  8
0
 62
7
  6
CONTINUOUS
 10
149.8628043005
 20
31.1422825445
 11
149.9206168074
 21
31.2713373354
  0
LINE
  8
0
 62
7
  6
CONTINUOUS
 10
149.6315543091
 20
30.9164367395
 11
149.7471793074
 21
30.7873819712
  0
LINE
  8
0
 62
7
  6
CONTINUOUS
 10
153.1581166972
 20
31.3681283946
 11
153.2159293074
 21
31.2390736489
  0
LINE
  8
0
 62
7
  6
CONTINUOUS
 10
153.9674919177
 20
30.8841730531
 11
154.0253041972
 21
30.7551182848
  0
LINE
  8
0
 62
7
  6
CONTINUOUS
 10
153.5049916972
 20
31.2390736489
 11
153.4471794177
 21
31.400392081
  0
LINE
  8
0
 62
7
  6
CONTINUOUS
 10
153.9674919177
 20
31.4326557675
 11
153.9674919177
 21
31.3681283946
  0
LINE
  8
0
 62
7
  6
CONTINUOUS
 10
153.9674919177
 20
30.9809641124
 11
153.9674919177
 21
30.8841730531
  0
LINE
  8
0
 62
7
  6
CONTINUOUS
 10
154.245872955
 20
32.3970785186
 11
154.245872955
 21
36.1675703219
  0
LINE
  8
0
 62
7
  6
CONTINUOUS
 10
154.2565543074
 20
30.8519093441
 11
154.2565543074
 21
30.9164367395
  0
LINE
  8
0
 62
7
  6
CONTINUOUS
 10
154.5737418074
 20
36.1675703219
 11
154.5737418074
 21
32.3970785186
  0
LINE
  8
0
 62
7
  6
CONTINUOUS
 10
151.3659292523
 20
30.7873819712
 11
151.4237418626
 21
30.9164367395
  0
LINE
  8
0
 62
7
  6
CONTINUOUS
 10
155.759679528
 20
30.6905909007
 11
155.7018665869
 21
30.8519093441
  0
LINE
  8
0
 62
7
  6
CONTINUOUS
 10
155.412804528
 20
31.3681283946
 11
155.412804528
 21
31.2713373354
  0
LINE
  8
0
 62
7
  6
CONTINUOUS
 10
155.412804528
 20
31.1422825445
 11
155.412804528
 21
30.9487004259
  0
LINE
  8
0
 62
7
  6
CONTINUOUS
 10
155.7018665869
 20
30.8519093441
 11
155.7018665869
 21
31.3681283946
  0
LINE
  8
0
 62
7
  6
CONTINUOUS
 10
155.9671844304
 20
32.3970785186
 11
155.9671844304
 21
34.2003572071
  0
LINE
  8
0
 62
7
  6
CONTINUOUS
 10
155.9671844304
 20
35.511832617
 11
155.9671844304
 21
36.1675703219
  0
LINE
  8
0
 62
7
  6
CONTINUOUS
 10
156.279992028
 20
32.1101932727
 11
156.279992028
 21
31.9488748406
  0
LINE
  8
0
 62
7
  6
CONTINUOUS
 10
156.279992028
 20
31.626237886
 11
156.279992028
 21
30.5937998301
  0
LINE
  8
0
 62
7
  6
CONTINUOUS
 10
156.5690540869
 20
30.5937998301
 11
156.5690540869
 21
31.626237886
  0
LINE
  8
0
 62
7
  6
CONTINUOUS
 10
156.5690540869
 20
31.9488748406
 11
156.5690540869
 21
32.1101932727
  0
LINE
  8
0
 62
7
  6
CONTINUOUS
 10
151.1346793074
 20
30.9164367395
 11
151.0768668626
 21
30.8196456577
  0
LINE
  8
0
 62
7
  6
CONTINUOUS
 10
153.4471794177
 20
31.400392081
 11
153.3893668074
 21
31.4649194539
  0
LINE
  8
0
 62
7
  6
CONTINUOUS
 10
154.3143669177
 20
30.7873819712
 11
154.2565543074
 21
30.8519093441
  0
LINE
  8
0
 62
7
  6
CONTINUOUS
 10
155.4706168074
 20
30.6583272086
 11
155.5284290869
 21
30.5937998301
  0
LINE
  8
0
 62
7
  6
CONTINUOUS
 10
155.412804528
 20
30.7551182848
 11
155.4706168074
 21
30.6583272086
  0
LINE
  8
0
 62
7
  6
CONTINUOUS
 10
155.8174918074
 20
30.5937998301
 11
155.759679528
 21
30.6905909007
  0
LINE
  8
0
 62
7
  6
CONTINUOUS
 10
155.7018665869
 20
31.3681283946
 11
155.6440543074
 21
31.4649194539
  0
LINE
  8
0
 62
7
  6
CONTINUOUS
 10
157.0315543074
 20
31.626237886
 11
157.0315543074
 21
30.5937998301
  0
LINE
  8
0
 62
7
  6
CONTINUOUS
 10
157.320617028
 20
30.5937998301
 11
157.320617028
 21
31.3358647082
  0
LINE
  8
0
 62
7
  6
CONTINUOUS
 10
157.320617028
 20
31.4649194539
 11
157.320617028
 21
31.626237886
  0
LINE
  8
0
 62
7
  6
CONTINUOUS
 10
157.852430332
 20
34.6101932727
 11
157.852430332
 21
32.3970785186
  0
LINE
  8
0
 62
7
  6
CONTINUOUS
 10
149.7471793074
 20
31.4326557675
 11
149.6315543091
 21
31.3036010218
  0
LINE
  8
0
 62
7
  6
CONTINUOUS
 10
149.9206168074
 20
31.2713373354
 11
149.9784292936
 21
31.3358647082
  0
LINE
  8
0
 62
7
  6
CONTINUOUS
 10
149.7471793074
 20
30.7873819712
 11
149.8628043005
 21
30.7228545871
  0
LINE
  8
0
 62
7
  6
CONTINUOUS
 10
150.1518667936
 20
30.7873819712
 11
149.9784292936
 21
30.8841730531
  0
LINE
  8
0
 62
7
  6
CONTINUOUS
 10
155.3549915869
 20
31.4326557675
 11
155.412804528
 21
31.3681283946
  0
LINE
  8
0
 62
7
  6
CONTINUOUS
 10
158.3034290869
 20
31.3681283946
 11
158.361242028
 21
31.2068099625
  0
LINE
  8
0
 62
7
  6
CONTINUOUS
 10
158.6503040869
 20
31.2068099625
 11
158.5924918074
 21
31.3681283946
  0
LINE
  8
0
 62
7
  6
CONTINUOUS
 10
158.361242028
 20
31.2068099625
 11
158.361242028
 21
30.5937998301
  0
LINE
  8
0
 62
7
  6
CONTINUOUS
 10
158.6503040869
 20
30.5937998301
 11
158.6503040869
 21
31.2068099625
  0
LINE
  8
0
 62
7
  6
CONTINUOUS
 10
159.1128043074
 20
31.4326557675
 11
159.1128043074
 21
31.3681283946
  0
LINE
  8
0
 62
7
  6
CONTINUOUS
 10
159.245872955
 20
32.3970785186
 11
159.245872955
 21
34.5282260596
  0
LINE
  8
0
 62
7
  6
CONTINUOUS
 10
159.5737418074
 20
36.1675703219
 11
159.5737418074
 21
32.3970785186
  0
LINE
  8
0
 62
7
  6
CONTINUOUS
 10
154.2565543074
 20
30.9164367395
 11
154.3143669177
 21
31.0132277988
  0
LINE
  8
0
 62
7
  6
CONTINUOUS
 10
149.8628043005
 20
30.7228545871
 11
150.0362418212
 21
30.6583272086
  0
LINE
  8
0
 62
7
  6
CONTINUOUS
 10
151.3659292523
 20
31.4326557675
 11
151.1924917523
 21
31.5294468267
  0
LINE
  8
0
 62
7
  6
CONTINUOUS
 10
154.0253041972
 20
30.7551182848
 11
154.1987416972
 21
30.6583272086
  0
LINE
  8
0
 62
7
  6
CONTINUOUS
 10
153.0424918074
 20
31.4326557675
 11
153.1581166972
 21
31.3681283946
  0
LINE
  8
0
 62
7
  6
CONTINUOUS
 10
153.3893668074
 20
31.4649194539
 11
153.2737419177
 21
31.5294468267
  0
LINE
  8
0
 62
7
  6
CONTINUOUS
 10
159.1128043074
 20
30.8519093441
 11
159.228429528
 21
30.7228545871
  0
LINE
  8
0
 62
7
  6
CONTINUOUS
 10
159.4596793074
 20
30.7873819712
 11
159.401867028
 21
30.8519093441
  0
LINE
  8
0
 62
7
  6
CONTINUOUS
 10
159.1128043074
 20
31.3681283946
 11
159.228429528
 21
31.2390736489
  0
LINE
  8
0
 62
7
  6
CONTINUOUS
 10
158.5924918074
 20
31.3681283946
 11
158.534679528
 21
31.4649194539
  0
LINE
  8
0
 62
7
  6
CONTINUOUS
 10
160.9628038663
 20
30.7873819712
 11
160.9628038663
 21
30.8519093441
  0
LINE
  8
0
 62
7
  6
CONTINUOUS
 10
160.9671844304
 20
32.3970785186
 11
160.9671844304
 21
36.1675703219
  0
LINE
  8
0
 62
7
  6
CONTINUOUS
 10
154.0253041972
 20
31.4971831403
 11
153.9674919177
 21
31.4326557675
  0
LINE
  8
0
 62
7
  6
CONTINUOUS
 10
150.9034292799
 20
31.4649194539
 11
151.0768668626
 21
31.400392081
  0
LINE
  8
0
 62
7
  6
CONTINUOUS
 10
155.6440543074
 20
31.4649194539
 11
155.5284290869
 21
31.5294468267
  0
LINE
  8
0
 62
7
  6
CONTINUOUS
 10
159.4596793074
 20
31.3036010218
 11
159.401867028
 21
31.3681283946
  0
LINE
  8
0
 62
7
  6
CONTINUOUS
 10
160.615929528
 20
30.9164367395
 11
160.6737418074
 21
30.8519093441
  0
LINE
  8
0
 62
7
  6
CONTINUOUS
 10
160.9628038663
 20
30.8519093441
 11
160.8471793074
 21
30.9809641124
  0
LINE
  8
0
 62
7
  6
CONTINUOUS
 10
160.615929528
 20
31.4326557675
 11
160.6737418074
 21
31.3681283946
  0
LINE
  8
0
 62
7
  6
CONTINUOUS
 10
160.9628038663
 20
31.3681283946
 11
160.8471793074
 21
31.4971831403
  0
LINE
  8
0
 62
7
  6
CONTINUOUS
 10
154.2565543074
 20
31.3681283946
 11
154.3143669177
 21
31.4326557675
  0
LINE
  8
0
 62
7
  6
CONTINUOUS
 10
154.0831168074
 20
31.1100188581
 11
153.9674919177
 21
30.9809641124
  0
LINE
  8
0
 62
7
  6
CONTINUOUS
 10
155.412804528
 20
30.9487004259
 11
155.3549915869
 21
30.8841730531
  0
LINE
  8
0
 62
7
  6
CONTINUOUS
 10
155.3549915869
 20
30.6905909007
 11
155.412804528
 21
30.7551182848
  0
LINE
  8
0
 62
7
  6
CONTINUOUS
 10
154.1987416972
 20
30.6583272086
 11
154.3143669177
 21
30.6260635193
  0
LINE
  8
0
 62
7
  6
CONTINUOUS
 10
151.1924917523
 20
31.5294468267
 11
150.9612418074
 21
31.5939741996
  0
LINE
  8
0
 62
7
  6
CONTINUOUS
 10
154.5456166972
 20
30.7228545871
 11
154.3143669177
 21
30.7873819712
  0
LINE
  8
0
 62
7
  6
CONTINUOUS
 10
153.2737419177
 20
31.5294468267
 11
153.1003044177
 21
31.5939741996
  0
LINE
  8
0
 62
7
  6
CONTINUOUS
 10
155.5284290869
 20
31.5294468267
 11
155.3549915869
 21
31.5939741996
  0
LINE
  8
0
 62
7
  6
CONTINUOUS
 10
158.187804528
 20
31.4326557675
 11
158.3034290869
 21
31.3681283946
  0
LINE
  8
0
 62
7
  6
CONTINUOUS
 10
158.534679528
 20
31.4649194539
 11
158.4190543074
 21
31.5294468267
  0
LINE
  8
0
 62
7
  6
CONTINUOUS
 10
150.0362418212
 20
30.6583272086
 11
150.2096793212
 21
30.6260635193
  0
LINE
  8
0
 62
7
  6
CONTINUOUS
 10
150.498741835
 20
30.7228545871
 11
150.1518667936
 21
30.7873819712
  0
LINE
  8
0
 62
7
  6
CONTINUOUS
 10
152.9268669177
 20
31.4649194539
 11
153.0424918074
 21
31.4326557675
  0
LINE
  8
0
 62
7
  6
CONTINUOUS
 10
155.239367028
 20
31.4649194539
 11
155.3549915869
 21
31.4326557675
  0
LINE
  8
0
 62
7
  6
CONTINUOUS
 10
159.575304528
 20
30.7551182848
 11
159.4596793074
 21
30.7873819712
  0
LINE
  8
0
 62
7
  6
CONTINUOUS
 10
158.0721793074
 20
31.4649194539
 11
158.187804528
 21
31.4326557675
  0
LINE
  8
0
 62
7
  6
CONTINUOUS
 10
159.228429528
 20
30.7228545871
 11
159.401867028
 21
30.6583272086
  0
LINE
  8
0
 62
7
  6
CONTINUOUS
 10
158.4190543074
 20
31.5294468267
 11
158.2456168074
 21
31.5939741996
  0
LINE
  8
0
 62
7
  6
CONTINUOUS
 10
159.6331168074
 20
31.2390736489
 11
159.4596793074
 21
31.3036010218
  0
LINE
  8
0
 62
7
  6
CONTINUOUS
 10
160.442492028
 20
30.9809641124
 11
160.615929528
 21
30.9164367395
  0
LINE
  8
0
 62
7
  6
CONTINUOUS
 10
160.8471793074
 20
31.4971831403
 11
160.6737418074
 21
31.5617105132
  0
LINE
  8
0
 62
7
  6
CONTINUOUS
 10
159.228429528
 20
31.2390736489
 11
159.4596793074
 21
31.1422825445
  0
LINE
  8
0
 62
7
  6
CONTINUOUS
 10
160.8471793074
 20
30.9809641124
 11
160.615929528
 21
31.0777551716
  0
LINE
  8
0
 62
7
  6
CONTINUOUS
 10
159.401867028
 20
31.3681283946
 11
159.4596793074
 21
31.4326557675
  0
LINE
  8
0
 62
7
  6
CONTINUOUS
 10
149.8628043005
 20
31.4971831403
 11
149.7471793074
 21
31.4326557675
  0
LINE
  8
0
 62
7
  6
CONTINUOUS
 10
149.9784292936
 20
31.3358647082
 11
150.1518667936
 21
31.4326557675
  0
LINE
  8
0
 62
7
  6
CONTINUOUS
 10
152.2909293626
 20
31.5294468267
 11
152.1753043074
 21
31.4649194539
  0
LINE
  8
0
 62
7
  6
CONTINUOUS
 10
152.1753043074
 20
31.3358647082
 11
152.2909293626
 21
31.400392081
  0
LINE
  8
0
 62
7
  6
CONTINUOUS
 10
151.1924917523
 20
30.6905909007
 11
151.3659292523
 21
30.7873819712
  0
LINE
  8
0
 62
7
  6
CONTINUOUS
 10
150.2096793212
 20
30.6260635193
 11
150.5565542799
 21
30.5937998301
  0
LINE
  8
0
 62
7
  6
CONTINUOUS
 10
154.3143669177
 20
30.6260635193
 11
154.5456166972
 21
30.5937998301
  0
LINE
  8
0
 62
7
  6
CONTINUOUS
 10
152.6956168074
 20
31.4971831403
 11
152.9268669177
 21
31.4649194539
  0
LINE
  8
0
 62
7
  6
CONTINUOUS
 10
155.0081169177
 20
31.4971831403
 11
155.239367028
 21
31.4649194539
  0
LINE
  8
0
 62
7
  6
CONTINUOUS
 10
159.4596793074
 20
31.1422825445
 11
160.442492028
 21
30.9809641124
  0
LINE
  8
0
 62
7
  6
CONTINUOUS
 10
160.615929528
 20
31.0777551716
 11
159.6331168074
 21
31.2390736489
  0
LINE
  8
0
 62
7
  6
CONTINUOUS
 10
153.1003044177
 20
31.5939741996
 11
152.9268669177
 21
31.626237886
  0
LINE
  8
0
 62
7
  6
CONTINUOUS
 10
159.401867028
 20
30.6583272086
 11
159.575304528
 21
30.6260635193
  0
LINE
  8
0
 62
7
  6
CONTINUOUS
 10
158.2456168074
 20
31.5939741996
 11
158.0721793074
 21
31.626237886
  0
LINE
  8
0
 62
7
  6
CONTINUOUS
 10
160.5003043074
 20
31.4649194539
 11
160.615929528
 21
31.4326557675
  0
LINE
  8
0
 62
7
  6
CONTINUOUS
 10
160.6737418074
 20
30.8519093441
 11
160.615929528
 21
30.7873819712
  0
LINE
  8
0
 62
7
  6
CONTINUOUS
 10
159.228429528
 20
31.5294468267
 11
159.1128043074
 21
31.4326557675
  0
LINE
  8
0
 62
7
  6
CONTINUOUS
 10
154.1409294177
 20
31.5617105132
 11
154.0253041972
 21
31.4971831403
  0
LINE
  8
0
 62
7
  6
CONTINUOUS
 10
154.1987416972
 20
31.1745462761
 11
154.0831168074
 21
31.1100188581
  0
LINE
  8
0
 62
7
  6
CONTINUOUS
 10
154.3143669177
 20
31.0132277988
 11
154.4299918074
 21
31.0777551716
  0
LINE
  8
0
 62
7
  6
CONTINUOUS
 10
151.8862417523
 20
30.5937998301
 11
152.1753043074
 21
30.5937998301
  0
LINE
  8
0
 62
7
  6
CONTINUOUS
 10
153.2159293074
 20
30.5937998301
 11
153.5049916972
 21
30.5937998301
  0
LINE
  8
0
 62
7
  6
CONTINUOUS
 10
154.5456166972
 20
30.5937998301
 11
154.8924916972
 21
30.5937998301
  0
LINE
  8
0
 62
7
  6
CONTINUOUS
 10
155.5284290869
 20
30.5937998301
 11
155.8174918074
 21
30.5937998301
  0
LINE
  8
0
 62
7
  6
CONTINUOUS
 10
156.279992028
 20
30.5937998301
 11
156.5690540869
 21
30.5937998301
  0
LINE
  8
0
 62
7
  6
CONTINUOUS
 10
157.0315543074
 20
30.5937998301
 11
157.320617028
 21
30.5937998301
  0
LINE
  8
0
 62
7
  6
CONTINUOUS
 10
158.361242028
 20
30.5937998301
 11
158.6503040869
 21
30.5937998301
  0
LINE
  8
0
 62
7
  6
CONTINUOUS
 10
159.922179528
 20
30.5937998301
 11
160.269054528
 21
30.5937998301
  0
LINE
  8
0
 62
7
  6
CONTINUOUS
 10
160.269054528
 20
30.7228545871
 11
159.922179528
 21
30.7228545871
  0
LINE
  8
0
 62
7
  6
CONTINUOUS
 10
154.8924916972
 20
30.7228545871
 11
154.5456166972
 21
30.7228545871
  0
LINE
  8
0
 62
7
  6
CONTINUOUS
 10
159.401867028
 20
30.8519093441
 11
159.1128043074
 21
30.8519093441
  0
LINE
  8
0
 62
7
  6
CONTINUOUS
 10
151.4237418626
 20
30.9164367395
 11
151.1346793074
 21
30.9164367395
  0
LINE
  8
0
 62
7
  6
CONTINUOUS
 10
150.498741835
 20
31.4971831403
 11
150.9034292799
 21
31.4649194539
  0
LINE
  8
0
 62
7
  6
CONTINUOUS
 10
150.9612418074
 20
31.5939741996
 11
150.5565542799
 21
31.626237886
  0
LINE
  8
0
 62
7
  6
CONTINUOUS
 10
159.575304528
 20
30.6260635193
 11
159.922179528
 21
30.5937998301
  0
LINE
  8
0
 62
7
  6
CONTINUOUS
 10
159.922179528
 20
30.7228545871
 11
159.575304528
 21
30.7551182848
  0
LINE
  8
0
 62
7
  6
CONTINUOUS
 10
155.3549915869
 20
31.5939741996
 11
155.0081169177
 21
31.626237886
  0
LINE
  8
0
 62
7
  6
CONTINUOUS
 10
160.1534293074
 20
31.4971831403
 11
160.5003043074
 21
31.4649194539
  0
LINE
  8
0
 62
7
  6
CONTINUOUS
 10
160.5003043074
 20
31.5939741996
 11
160.1534293074
 21
31.626237886
  0
LINE
  8
0
 62
7
  6
CONTINUOUS
 10
157.840929528
 20
31.4971831403
 11
158.0721793074
 21
31.4649194539
  0
LINE
  8
0
 62
7
  6
CONTINUOUS
 10
160.6737418074
 20
31.5617105132
 11
160.5003043074
 21
31.5939741996
  0
LINE
  8
0
 62
7
  6
CONTINUOUS
 10
160.8471793074
 20
30.6905909007
 11
160.9628038663
 21
30.7873819712
  0
LINE
  8
0
 62
7
  6
CONTINUOUS
 10
155.3549915869
 20
30.8841730531
 11
155.1815540869
 21
30.7873819712
  0
LINE
  8
0
 62
7
  6
CONTINUOUS
 10
157.4362415869
 20
31.5294468267
 11
157.320617028
 21
31.4649194539
  0
LINE
  8
0
 62
7
  6
CONTINUOUS
 10
157.320617028
 20
31.3358647082
 11
157.4362415869
 21
31.400392081
  0
LINE
  8
0
 62
7
  6
CONTINUOUS
 10
150.0362418212
 20
31.5617105132
 11
149.8628043005
 21
31.4971831403
  0
LINE
  8
0
 62
7
  6
CONTINUOUS
 10
152.4643666972
 20
31.5939741996
 11
152.2909293626
 21
31.5294468267
  0
LINE
  8
0
 62
7
  6
CONTINUOUS
 10
152.2909293626
 20
31.400392081
 11
152.4643666972
 21
31.4649194539
  0
LINE
  8
0
 62
7
  6
CONTINUOUS
 10
151.0768668626
 20
30.8196456577
 11
150.9034292799
 21
30.7551182848
  0
LINE
  8
0
 62
7
  6
CONTINUOUS
 10
160.5003043074
 20
30.7551182848
 11
160.269054528
 21
30.7228545871
  0
LINE
  8
0
 62
7
  6
CONTINUOUS
 10
154.8924916972
 20
30.5937998301
 11
155.1815540869
 21
30.6260635193
  0
LINE
  8
0
 62
7
  6
CONTINUOUS
 10
160.269054528
 20
30.5937998301
 11
160.615929528
 21
30.6260635193
  0
LINE
  8
0
 62
7
  6
CONTINUOUS
 10
150.5565542799
 20
30.5937998301
 11
150.9612418074
 21
30.6260635193
  0
LINE
  8
0
 62
7
  6
CONTINUOUS
 10
150.9034292799
 20
30.7551182848
 11
150.498741835
 21
30.7228545871
  0
LINE
  8
0
 62
7
  6
CONTINUOUS
 10
154.7768668074
 20
31.1422825445
 11
155.412804528
 21
31.1422825445
  0
LINE
  8
0
 62
7
  6
CONTINUOUS
 10
155.412804528
 20
31.2713373354
 11
154.7768668074
 21
31.2713373354
  0
LINE
  8
0
 62
7
  6
CONTINUOUS
 10
151.1346793074
 20
31.3036010218
 11
151.4237418626
 21
31.3036010218
  0
LINE
  8
0
 62
7
  6
CONTINUOUS
 10
153.9674919177
 20
31.3681283946
 11
154.2565543074
 21
31.3681283946
  0
LINE
  8
0
 62
7
  6
CONTINUOUS
 10
160.6737418074
 20
31.3681283946
 11
160.9628038663
 21
31.3681283946
  0
LINE
  8
0
 62
7
  6
CONTINUOUS
 10
154.6612419177
 20
31.4971831403
 11
155.0081169177
 21
31.4971831403
  0
LINE
  8
0
 62
7
  6
CONTINUOUS
 10
159.8065543074
 20
31.4971831403
 11
160.1534293074
 21
31.4971831403
  0
LINE
  8
0
 62
7
  6
CONTINUOUS
 10
160.1534293074
 20
31.626237886
 11
159.8065543074
 21
31.626237886
  0
LINE
  8
0
 62
7
  6
CONTINUOUS
 10
158.0721793074
 20
31.626237886
 11
157.840929528
 21
31.626237886
  0
LINE
  8
0
 62
7
  6
CONTINUOUS
 10
157.320617028
 20
31.626237886
 11
157.0315543074
 21
31.626237886
  0
LINE
  8
0
 62
7
  6
CONTINUOUS
 10
156.5690540869
 20
31.626237886
 11
156.279992028
 21
31.626237886
  0
LINE
  8
0
 62
7
  6
CONTINUOUS
 10
155.0081169177
 20
31.626237886
 11
154.6612419177
 21
31.626237886
  0
LINE
  8
0
 62
7
  6
CONTINUOUS
 10
152.9268669177
 20
31.626237886
 11
152.6956168074
 21
31.626237886
  0
LINE
  8
0
 62
7
  6
CONTINUOUS
 10
156.279992028
 20
31.9488748406
 11
156.5690540869
 21
31.9488748406
  0
LINE
  8
0
 62
7
  6
CONTINUOUS
 10
156.5690540869
 20
32.1101932727
 11
156.279992028
 21
32.1101932727
  0
LINE
  8
0
 62
7
  6
CONTINUOUS
 10
152.1753043074
 20
32.1101932727
 11
151.8862417523
 21
32.1101932727
  0
LINE
  8
0
 62
7
  6
CONTINUOUS
 10
151.2130860697
 20
32.3970785186
 11
151.6256574183
 21
32.3970785186
  0
LINE
  8
0
 62
7
  6
CONTINUOUS
 10
152.852430332
 20
32.3970785186
 11
154.245872955
 21
32.3970785186
  0
LINE
  8
0
 62
7
  6
CONTINUOUS
 10
154.5737418074
 20
32.3970785186
 11
155.9671844304
 21
32.3970785186
  0
LINE
  8
0
 62
7
  6
CONTINUOUS
 10
157.852430332
 20
32.3970785186
 11
159.245872955
 21
32.3970785186
  0
LINE
  8
0
 62
7
  6
CONTINUOUS
 10
159.5737418074
 20
32.3970785186
 11
160.9671844304
 21
32.3970785186
  0
LINE
  8
0
 62
7
  6
CONTINUOUS
 10
157.6096790869
 20
31.5939741996
 11
157.4362415869
 21
31.5294468267
  0
LINE
  8
0
 62
7
  6
CONTINUOUS
 10
155.1815540869
 20
30.6260635193
 11
155.3549915869
 21
30.6905909007
  0
LINE
  8
0
 62
7
  6
CONTINUOUS
 10
160.615929528
 20
30.6260635193
 11
160.8471793074
 21
30.6905909007
  0
LINE
  8
0
 62
7
  6
CONTINUOUS
 10
160.615929528
 20
30.7873819712
 11
160.5003043074
 21
30.7551182848
  0
LINE
  8
0
 62
7
  6
CONTINUOUS
 10
159.575304528
 20
31.4649194539
 11
159.8065543074
 21
31.4971831403
  0
LINE
  8
0
 62
7
  6
CONTINUOUS
 10
157.6096790869
 20
31.4649194539
 11
157.840929528
 21
31.4971831403
  0
LINE
  8
0
 62
7
  6
CONTINUOUS
 10
154.5456166972
 20
31.1100188581
 11
154.7768668074
 21
31.1422825445
  0
LINE
  8
0
 62
7
  6
CONTINUOUS
 10
157.840929528
 20
31.626237886
 11
157.6096790869
 21
31.5939741996
  0
LINE
  8
0
 62
7
  6
CONTINUOUS
 10
154.4299918074
 20
31.4649194539
 11
154.6612419177
 21
31.4971831403
  0
LINE
  8
0
 62
7
  6
CONTINUOUS
 10
159.8065543074
 20
31.626237886
 11
159.4596793074
 21
31.5939741996
  0
LINE
  8
0
 62
7
  6
CONTINUOUS
 10
154.7768668074
 20
31.2713373354
 11
154.4299918074
 21
31.2390736489
  0
LINE
  8
0
 62
7
  6
CONTINUOUS
 10
150.5565542799
 20
31.626237886
 11
150.2096793212
 21
31.5939741996
  0
LINE
  8
0
 62
7
  6
CONTINUOUS
 10
154.6612419177
 20
31.626237886
 11
154.2565543074
 21
31.5939741996
  0
LINE
  8
0
 62
7
  6
CONTINUOUS
 10
152.0327582009
 20
33.5446195022
 11
151.3770204959
 21
33.5446195022
  0
LINE
  8
0
 62
7
  6
CONTINUOUS
 10
157.4362415869
 20
31.400392081
 11
157.6096790869
 21
31.4649194539
  0
LINE
  8
0
 62
7
  6
CONTINUOUS
 10
159.4596793074
 20
31.4326557675
 11
159.575304528
 21
31.4649194539
  0
LINE
  8
0
 62
7
  6
CONTINUOUS
 10
159.4596793074
 20
31.5939741996
 11
159.228429528
 21
31.5294468267
  0
LINE
  8
0
 62
7
  6
CONTINUOUS
 10
155.1815540869
 20
30.7873819712
 11
154.8924916972
 21
30.7228545871
  0
LINE
  8
0
 62
7
  6
CONTINUOUS
 10
152.4643666972
 20
31.4649194539
 11
152.6956168074
 21
31.4971831403
  0
LINE
  8
0
 62
7
  6
CONTINUOUS
 10
152.6956168074
 20
31.626237886
 11
152.4643666972
 21
31.5939741996
  0
LINE
  8
0
 62
7
  6
CONTINUOUS
 10
150.2674918074
 20
31.4649194539
 11
150.498741835
 21
31.4971831403
  0
LINE
  8
0
 62
7
  6
CONTINUOUS
 10
156.7868565615
 20
35.0200293383
 11
157.4425942664
 21
35.0200293383
  0
LINE
  8
0
 62
7
  6
CONTINUOUS
 10
154.4299918074
 20
31.0777551716
 11
154.5456166972
 21
31.1100188581
  0
LINE
  8
0
 62
7
  6
CONTINUOUS
 10
154.4299918074
 20
31.2390736489
 11
154.1987416972
 21
31.1745462761
  0
LINE
  8
0
 62
7
  6
CONTINUOUS
 10
154.3143669177
 20
31.4326557675
 11
154.4299918074
 21
31.4649194539
  0
LINE
  8
0
 62
7
  6
CONTINUOUS
 10
150.9612418074
 20
30.6260635193
 11
151.1924917523
 21
30.6905909007
  0
LINE
  8
0
 62
7
  6
CONTINUOUS
 10
154.2565543074
 20
31.5939741996
 11
154.1409294177
 21
31.5617105132
  0
LINE
  8
0
 62
7
  6
CONTINUOUS
 10
150.2096793212
 20
31.5939741996
 11
150.0362418212
 21
31.5617105132
  0
LINE
  8
0
 62
7
  6
CONTINUOUS
 10
160.9671844304
 20
36.1675703219
 11
159.5737418074
 21
36.1675703219
  0
LINE
  8
0
 62
7
  6
CONTINUOUS
 10
157.6065286927
 20
36.1675703219
 11
157.1939573441
 21
36.1675703219
  0
LINE
  8
0
 62
7
  6
CONTINUOUS
 10
155.9671844304
 20
36.1675703219
 11
154.5737418074
 21
36.1675703219
  0
LINE
  8
0
 62
7
  6
CONTINUOUS
 10
154.245872955
 20
36.1675703219
 11
152.852430332
 21
36.1675703219
  0
LINE
  8
0
 62
7
  6
CONTINUOUS
 10
150.9671844304
 20
36.1675703219
 11
149.5737418074
 21
36.1675703219
  0
LINE
  8
0
 62
7
  6
CONTINUOUS
 10
150.1518667936
 20
31.4326557675
 11
150.2674918074
 21
31.4649194539
  0
CIRCLE
  8
0
 62
7
  6
CONTINUOUS
 10
160.2704631189
 20
38.5036358957
 40
2.0901639344
  0
ARC
  8
0
 62
7
  6
CONTINUOUS
 10
151.2130860697
 20
34.0364227809
 40
1.6393442623
 50
180.0
 51
270.0
  0
ARC
  8
0
 62
7
  6
CONTINUOUS
 10
157.6065286927
 20
34.5282260596
 40
1.6393442623
 50
0.0
 51
90.0
  0
ARC
  8
0
 62
7
  6
CONTINUOUS
 10
151.6256574183
 20
33.8724883547
 40
1.4754098361
 50
270.0
 51
326.2510114041
  0
ARC
  8
0
 62
7
  6
CONTINUOUS
 10
157.1939573441
 20
34.6921604858
 40
1.4754098361
 50
90.0
 51
146.2510114041
  0
ARC
  8
0
 62
7
  6
CONTINUOUS
 10
152.0327582009
 20
34.3642916334
 40
0.8196721311
 50
270.0
 51
360.0
  0
ARC
  8
0
 62
7
  6
CONTINUOUS
 10
156.7868565615
 20
34.2003572071
 40
0.8196721311
 50
90.0
 51
180.0
  0
ARC
  8
0
 62
7
  6
CONTINUOUS
 10
151.3770204959
 20
33.9544555678
 40
0.4098360656
 50
180.0
 51
270.0
  0
ARC
  8
0
 62
7
  6
CONTINUOUS
 10
157.4425942664
 20
34.6101932727
 40
0.4098360656
 50
0.0
 51
90.0
  0
SOLID
  8
0
 62
7
  6
CONTINUOUS
 10
156.279992028
 20
31.9488752009
 11
156.279992028
 21
32.1101936845
 12
156.5690540869
 22
31.9488752009
 13
156.5690540869
 23
32.1101936845
  0
SOLID
  8
0
 62
7
  6
CONTINUOUS
 10
150.5565542799
 20
31.6262382337
 11
150.9612418074
 21
31.5939740028
 12
150.2096793212
 22
31.5939740028
 13
150.2096793212
 23
31.5939740028
  0
SOLID
  8
0
 62
7
  6
CONTINUOUS
 10
150.0362418212
 20
31.5617111435
 11
150.2096793212
 21
31.5939740028
 12
150.9612418074
 22
31.5939740028
 13
150.9612418074
 23
31.5939740028
  0
SOLID
  8
0
 62
7
  6
CONTINUOUS
 10
150.9612418074
 20
31.5939740028
 11
151.1924917523
 21
31.5294468402
 12
150.0362418212
 22
31.5617111435
 13
150.0362418212
 23
31.5617111435
  0
SOLID
  8
0
 62
7
  6
CONTINUOUS
 10
149.8628043005
 20
31.49718259
 11
150.0362418212
 21
31.5617111435
 12
151.1924917523
 22
31.5294468402
 13
151.1924917523
 23
31.5294468402
  0
SOLID
  8
0
 62
7
  6
CONTINUOUS
 10
149.8628043005
 20
31.49718259
 11
151.1924917523
 21
31.5294468402
 12
150.498741835
 22
31.49718259
 13
150.498741835
 23
31.49718259
  0
SOLID
  8
0
 62
7
  6
CONTINUOUS
 10
150.498741835
 20
31.49718259
 11
151.1924917523
 21
31.5294468402
 12
150.9034292799
 22
31.4649197501
 13
150.9034292799
 23
31.4649197501
  0
SOLID
  8
0
 62
7
  6
CONTINUOUS
 10
151.1924917523
 20
31.5294468402
 11
151.3659292523
 21
31.4326554468
 12
150.9034292799
 22
31.4649197501
 13
150.9034292799
 23
31.4649197501
  0
SOLID
  8
0
 62
7
  6
CONTINUOUS
 10
151.0768668626
 20
31.4003926599
 11
150.9034292799
 21
31.4649197501
 12
151.3659292523
 22
31.4326554468
 13
151.3659292523
 23
31.4326554468
  0
SOLID
  8
0
 62
7
  6
CONTINUOUS
 10
151.0768668626
 20
31.4003926599
 11
151.3659292523
 21
31.4326554468
 12
151.1346793074
 22
31.3036013776
 13
151.1346793074
 23
31.3036013776
  0
SOLID
  8
0
 62
7
  6
CONTINUOUS
 10
151.3659292523
 20
31.4326554468
 11
151.4237418626
 21
31.3036013776
 12
151.1346793074
 22
31.3036013776
 13
151.1346793074
 23
31.3036013776
  0
SOLID
  8
0
 62
7
  6
CONTINUOUS
 10
152.4643666972
 20
31.5939739754
 11
152.6956168074
 21
31.6262382787
 12
152.9268669177
 22
31.6262382787
 13
152.9268669177
 23
31.6262382787
  0
SOLID
  8
0
 62
7
  6
CONTINUOUS
 10
152.9268669177
 20
31.6262382787
 11
153.1003044177
 21
31.5939739754
 12
152.4643666972
 22
31.5939739754
 13
152.4643666972
 23
31.5939739754
  0
SOLID
  8
0
 62
7
  6
CONTINUOUS
 10
152.2909293626
 20
31.5294468852
 11
152.4643666972
 21
31.5939739754
 12
153.1003044177
 22
31.5939739754
 13
153.1003044177
 23
31.5939739754
  0
SOLID
  8
0
 62
7
  6
CONTINUOUS
 10
153.1003044177
 20
31.5939739754
 11
153.2737419177
 21
31.5294468852
 12
152.2909293626
 22
31.5294468852
 13
152.2909293626
 23
31.5294468852
  0
SOLID
  8
0
 62
7
  6
CONTINUOUS
 10
153.2737419177
 20
31.5294468852
 11
152.6956168074
 21
31.4971825369
 12
152.2909293626
 22
31.5294468852
 13
152.2909293626
 23
31.5294468852
  0
SOLID
  8
0
 62
7
  6
CONTINUOUS
 10
152.1753043074
 20
31.4649197951
 11
152.2909293626
 21
31.5294468852
 12
152.6956168074
 22
31.4971825369
 13
152.6956168074
 23
31.4971825369
  0
SOLID
  8
0
 62
7
  6
CONTINUOUS
 10
152.6956168074
 20
31.4971825369
 11
152.4643666972
 21
31.4649197951
 12
152.1753043074
 22
31.4649197951
 13
152.1753043074
 23
31.4649197951
  0
SOLID
  8
0
 62
7
  6
CONTINUOUS
 10
152.6956168074
 20
31.4971825369
 11
153.2737419177
 21
31.5294468852
 12
152.9268669177
 22
31.4649197951
 13
152.9268669177
 23
31.4649197951
  0
SOLID
  8
0
 62
7
  6
CONTINUOUS
 10
153.2737419177
 20
31.5294468852
 11
153.3893668074
 21
31.4649197951
 12
152.9268669177
 22
31.4649197951
 13
152.9268669177
 23
31.4649197951
  0
SOLID
  8
0
 62
7
  6
CONTINUOUS
 10
153.0424918074
 20
31.4326554468
 11
152.9268669177
 21
31.4649197951
 12
153.3893668074
 22
31.4649197951
 13
153.3893668074
 23
31.4649197951
  0
SOLID
  8
0
 62
7
  6
CONTINUOUS
 10
153.3893668074
 20
31.4649197951
 11
153.4471794177
 21
31.4003927049
 12
153.0424918074
 22
31.4326554468
 13
153.0424918074
 23
31.4326554468
  0
SOLID
  8
0
 62
7
  6
CONTINUOUS
 10
153.1581166972
 20
31.3681283566
 11
153.0424918074
 21
31.4326554468
 12
153.4471794177
 22
31.4003927049
 13
153.4471794177
 23
31.4003927049
  0
SOLID
  8
0
 62
7
  6
CONTINUOUS
 10
153.1581166972
 20
31.3681283566
 11
153.4471794177
 21
31.4003927049
 12
153.2159293074
 22
31.2390742213
 13
153.2159293074
 23
31.2390742213
  0
SOLID
  8
0
 62
7
  6
CONTINUOUS
 10
153.4471794177
 20
31.4003927049
 11
153.5049916972
 21
31.2390742213
 12
153.2159293074
 22
31.2390742213
 13
153.2159293074
 23
31.2390742213
  0
SOLID
  8
0
 62
7
  6
CONTINUOUS
 10
152.4643666972
 20
31.4649197951
 11
152.2909293626
 21
31.4003927049
 12
152.1753043074
 22
31.4649197951
 13
152.1753043074
 23
31.4649197951
  0
SOLID
  8
0
 62
7
  6
CONTINUOUS
 10
152.2909293626
 20
31.4003927049
 11
152.1753043074
 21
31.3358640533
 12
152.1753043074
 22
31.4649197951
 13
152.1753043074
 23
31.4649197951
  0
SOLID
  8
0
 62
7
  6
CONTINUOUS
 10
152.1753043074
 20
31.3358640533
 11
151.8862417523
 21
30.5938002869
 12
152.1753043074
 22
31.4649197951
 13
152.1753043074
 23
31.4649197951
  0
SOLID
  8
0
 62
7
  6
CONTINUOUS
 10
152.1753043074
 20
31.4649197951
 11
151.8862417523
 21
30.5938002869
 12
152.1753043074
 22
32.1101937295
 13
152.1753043074
 23
32.1101937295
  0
SOLID
  8
0
 62
7
  6
CONTINUOUS
 10
151.8862417523
 20
30.5938002869
 11
151.8862417523
 21
32.1101937295
 12
152.1753043074
 22
32.1101937295
 13
152.1753043074
 23
32.1101937295
  0
SOLID
  8
0
 62
7
  6
CONTINUOUS
 10
152.1753043074
 20
31.3358640533
 11
152.1753043074
 21
30.5938002869
 12
151.8862417523
 22
30.5938002869
 13
151.8862417523
 23
30.5938002869
  0
SOLID
  8
0
 62
7
  6
CONTINUOUS
 10
153.2159293074
 20
30.5938002869
 11
153.2159293074
 21
31.2390742213
 12
153.5049916972
 22
31.2390742213
 13
153.5049916972
 23
31.2390742213
  0
SOLID
  8
0
 62
7
  6
CONTINUOUS
 10
153.5049916972
 20
31.2390742213
 11
153.5049916972
 21
30.5938002869
 12
153.2159293074
 22
30.5938002869
 13
153.2159293074
 23
30.5938002869
  0
SOLID
  8
0
 62
7
  6
CONTINUOUS
 10
154.2565543074
 20
31.5939738288
 11
154.6612419177
 21
31.6262385959
 12
155.0081169177
 22
31.6262385959
 13
155.0081169177
 23
31.6262385959
  0
SOLID
  8
0
 62
7
  6
CONTINUOUS
 10
155.0081169177
 20
31.6262385959
 11
155.3549915869
 21
31.5939738288
 12
154.2565543074
 22
31.5939738288
 13
154.2565543074
 23
31.5939738288
  0
SOLID
  8
0
 62
7
  6
CONTINUOUS
 10
154.1409294177
 20
31.5617111435
 11
154.2565543074
 21
31.5939738288
 12
155.3549915869
 22
31.5939738288
 13
155.3549915869
 23
31.5939738288
  0
SOLID
  8
0
 62
7
  6
CONTINUOUS
 10
155.3549915869
 20
31.5939738288
 11
155.5284290869
 21
31.5294468402
 12
154.1409294177
 22
31.5617111435
 13
154.1409294177
 23
31.5617111435
  0
SOLID
  8
0
 62
7
  6
CONTINUOUS
 10
154.0253041972
 20
31.4971826249
 11
154.1409294177
 21
31.5617111435
 12
155.5284290869
 22
31.5294468402
 13
155.5284290869
 23
31.5294468402
  0
SOLID
  8
0
 62
7
  6
CONTINUOUS
 10
154.0253041972
 20
31.4971826249
 11
155.5284290869
 21
31.5294468402
 12
154.6612419177
 22
31.4971826249
 13
154.6612419177
 23
31.4971826249
  0
SOLID
  8
0
 62
7
  6
CONTINUOUS
 10
154.6612419177
 20
31.4971826249
 11
155.5284290869
 21
31.5294468402
 12
155.0081169177
 22
31.4971826249
 13
155.0081169177
 23
31.4971826249
  0
SOLID
  8
0
 62
7
  6
CONTINUOUS
 10
155.0081169177
 20
31.4971826249
 11
155.5284290869
 21
31.5294468402
 12
155.239367028
 22
31.4649194065
 13
155.239367028
 23
31.4649194065
  0
SOLID
  8
0
 62
7
  6
CONTINUOUS
 10
155.5284290869
 20
31.5294468402
 11
155.6440543074
 21
31.4649194065
 12
155.239367028
 22
31.4649194065
 13
155.239367028
 23
31.4649194065
  0
SOLID
  8
0
 62
7
  6
CONTINUOUS
 10
153.9674919177
 20
31.4326554138
 11
154.0253041972
 21
31.4971826249
 12
154.6612419177
 22
31.4971826249
 13
154.6612419177
 23
31.4971826249
  0
SOLID
  8
0
 62
7
  6
CONTINUOUS
 10
155.3549915869
 20
31.4326554138
 11
155.239367028
 21
31.4649194065
 12
155.6440543074
 22
31.4649194065
 13
155.6440543074
 23
31.4649194065
  0
SOLID
  8
0
 62
7
  6
CONTINUOUS
 10
155.3549915869
 20
31.4326554138
 11
155.6440543074
 21
31.4649194065
 12
155.412804528
 22
31.3681282026
 13
155.412804528
 23
31.3681282026
  0
SOLID
  8
0
 62
7
  6
CONTINUOUS
 10
155.6440543074
 20
31.4649194065
 11
155.7018665869
 21
31.3681282026
 12
155.412804528
 22
31.3681282026
 13
155.412804528
 23
31.3681282026
  0
SOLID
  8
0
 62
7
  6
CONTINUOUS
 10
155.412804528
 20
31.2713369632
 11
155.412804528
 21
31.3681282026
 12
155.7018665869
 22
31.3681282026
 13
155.7018665869
 23
31.3681282026
  0
SOLID
  8
0
 62
7
  6
CONTINUOUS
 10
155.412804528
 20
31.2713369632
 11
155.7018665869
 21
31.3681282026
 12
155.412804528
 22
31.1422827828
 13
155.412804528
 23
31.1422827828
  0
SOLID
  8
0
 62
7
  6
CONTINUOUS
 10
155.412804528
 20
31.1422827828
 11
155.7018665869
 21
31.3681282026
 12
155.412804528
 22
30.9487004259
 13
155.412804528
 23
30.9487004259
  0
SOLID
  8
0
 62
7
  6
CONTINUOUS
 10
155.7018665869
 20
31.3681282026
 11
155.7018665869
 21
30.8519086025
 12
155.412804528
 22
30.9487004259
 13
155.412804528
 23
30.9487004259
  0
SOLID
  8
0
 62
7
  6
CONTINUOUS
 10
157.6096790869
 20
31.5939736268
 11
157.840929528
 21
31.6262383465
 12
158.0721793074
 22
31.6262383465
 13
158.0721793074
 23
31.6262383465
  0
SOLID
  8
0
 62
7
  6
CONTINUOUS
 10
158.0721793074
 20
31.6262383465
 11
158.2456168074
 21
31.5939736268
 12
157.6096790869
 22
31.5939736268
 13
157.6096790869
 23
31.5939736268
  0
SOLID
  8
0
 62
7
  6
CONTINUOUS
 10
157.4362415869
 20
31.5294472848
 11
157.6096790869
 21
31.5939736268
 12
158.2456168074
 22
31.5939736268
 13
158.2456168074
 23
31.5939736268
  0
SOLID
  8
0
 62
7
  6
CONTINUOUS
 10
158.2456168074
 20
31.5939736268
 11
158.4190543074
 21
31.5294472848
 12
157.4362415869
 22
31.5294472848
 13
157.4362415869
 23
31.5294472848
  0
SOLID
  8
0
 62
7
  6
CONTINUOUS
 10
158.4190543074
 20
31.5294472848
 11
157.840929528
 21
31.4971825369
 12
157.4362415869
 22
31.5294472848
 13
157.4362415869
 23
31.5294472848
  0
SOLID
  8
0
 62
7
  6
CONTINUOUS
 10
157.320617028
 20
31.4649199103
 11
157.4362415869
 21
31.5294472848
 12
157.840929528
 22
31.4971825369
 13
157.840929528
 23
31.4971825369
  0
SOLID
  8
0
 62
7
  6
CONTINUOUS
 10
157.840929528
 20
31.4971825369
 11
157.6096790869
 21
31.4649199103
 12
157.320617028
 22
31.4649199103
 13
157.320617028
 23
31.4649199103
  0
SOLID
  8
0
 62
7
  6
CONTINUOUS
 10
157.840929528
 20
31.4971825369
 11
158.4190543074
 21
31.5294472848
 12
158.0721793074
 22
31.4649199103
 13
158.0721793074
 23
31.4649199103
  0
SOLID
  8
0
 62
7
  6
CONTINUOUS
 10
158.4190543074
 20
31.5294472848
 11
158.534679528
 21
31.4649199103
 12
158.0721793074
 22
31.4649199103
 13
158.0721793074
 23
31.4649199103
  0
SOLID
  8
0
 62
7
  6
CONTINUOUS
 10
158.187804528
 20
31.4326554468
 11
158.0721793074
 21
31.4649199103
 12
158.534679528
 22
31.4649199103
 13
158.534679528
 23
31.4649199103
  0
SOLID
  8
0
 62
7
  6
CONTINUOUS
 10
158.187804528
 20
31.4326554468
 11
158.534679528
 21
31.4649199103
 12
158.3034290869
 22
31.3681288486
 13
158.3034290869
 23
31.3681288486
  0
SOLID
  8
0
 62
7
  6
CONTINUOUS
 10
158.534679528
 20
31.4649199103
 11
158.5924918074
 21
31.3681288486
 12
158.3034290869
 22
31.3681288486
 13
158.3034290869
 23
31.3681288486
  0
SOLID
  8
0
 62
7
  6
CONTINUOUS
 10
158.361242028
 20
31.2068093799
 11
158.3034290869
 21
31.3681288486
 12
158.5924918074
 22
31.3681288486
 13
158.5924918074
 23
31.3681288486
  0
SOLID
  8
0
 62
7
  6
CONTINUOUS
 10
158.5924918074
 20
31.3681288486
 11
158.6503040869
 21
31.2068093799
 12
158.361242028
 22
31.2068093799
 13
158.361242028
 23
31.2068093799
  0
SOLID
  8
0
 62
7
  6
CONTINUOUS
 10
157.6096790869
 20
31.4649199103
 11
157.4362415869
 21
31.4003926599
 12
157.320617028
 22
31.4649199103
 13
157.320617028
 23
31.4649199103
  0
SOLID
  8
0
 62
7
  6
CONTINUOUS
 10
157.4362415869
 20
31.4003926599
 11
157.320617028
 21
31.3358640533
 12
157.320617028
 22
31.4649199103
 13
157.320617028
 23
31.4649199103
  0
SOLID
  8
0
 62
7
  6
CONTINUOUS
 10
157.320617028
 20
31.3358640533
 11
157.0315543074
 21
30.5938003547
 12
157.320617028
 22
31.4649199103
 13
157.320617028
 23
31.4649199103
  0
SOLID
  8
0
 62
7
  6
CONTINUOUS
 10
157.320617028
 20
31.4649199103
 11
157.0315543074
 21
30.5938003547
 12
157.320617028
 22
31.6262383465
 13
157.320617028
 23
31.6262383465
  0
SOLID
  8
0
 62
7
  6
CONTINUOUS
 10
157.0315543074
 20
30.5938003547
 11
157.0315543074
 21
31.6262383465
 12
157.320617028
 22
31.6262383465
 13
157.320617028
 23
31.6262383465
  0
SOLID
  8
0
 62
7
  6
CONTINUOUS
 10
157.320617028
 20
31.3358640533
 11
157.320617028
 21
30.5938003547
 12
157.0315543074
 22
30.5938003547
 13
157.0315543074
 23
30.5938003547
  0
SOLID
  8
0
 62
7
  6
CONTINUOUS
 10
158.361242028
 20
30.5938003547
 11
158.361242028
 21
31.2068093799
 12
158.6503040869
 22
31.2068093799
 13
158.6503040869
 23
31.2068093799
  0
SOLID
  8
0
 62
7
  6
CONTINUOUS
 10
158.6503040869
 20
31.2068093799
 11
158.6503040869
 21
30.5938003547
 12
158.361242028
 22
30.5938003547
 13
158.361242028
 23
30.5938003547
  0
SOLID
  8
0
 62
7
  6
CONTINUOUS
 10
159.4596793074
 20
31.5939739474
 11
159.8065543074
 21
31.6262381969
 12
160.1534293074
 22
31.6262381969
 13
160.1534293074
 23
31.6262381969
  0
SOLID
  8
0
 62
7
  6
CONTINUOUS
 10
160.1534293074
 20
31.6262381969
 11
160.5003043074
 21
31.5939739474
 12
159.4596793074
 22
31.5939739474
 13
159.4596793074
 23
31.5939739474
  0
SOLID
  8
0
 62
7
  6
CONTINUOUS
 10
159.228429528
 20
31.5294468402
 11
159.4596793074
 21
31.5939739474
 12
160.5003043074
 22
31.5939739474
 13
160.5003043074
 23
31.5939739474
  0
SOLID
  8
0
 62
7
  6
CONTINUOUS
 10
159.228429528
 20
31.5294468402
 11
160.5003043074
 21
31.5939739304
 12
160.6737418074
 22
31.5617111435
 13
160.6737418074
 23
31.5617111435
  0
SOLID
  8
0
 62
7
  6
CONTINUOUS
 10
159.228429528
 20
31.5294468402
 11
160.6737418074
 21
31.5617111435
 12
159.8065543074
 22
31.4971825592
 13
159.8065543074
 23
31.4971825592
  0
SOLID
  8
0
 62
7
  6
CONTINUOUS
 10
159.8065543074
 20
31.4971825592
 11
160.6737418074
 21
31.5617111435
 12
160.1534293074
 22
31.4971825592
 13
160.1534293074
 23
31.4971825592
  0
SOLID
  8
0
 62
7
  6
CONTINUOUS
 10
160.6737418074
 20
31.5617111435
 11
160.8471793074
 21
31.4971825592
 12
160.1534293074
 22
31.4971825592
 13
160.1534293074
 23
31.4971825592
  0
SOLID
  8
0
 62
7
  6
CONTINUOUS
 10
160.5003043074
 20
31.4649197501
 11
160.1534293074
 21
31.4971825592
 12
160.8471793074
 22
31.4971825592
 13
160.8471793074
 23
31.4971825592
  0
SOLID
  8
0
 62
7
  6
CONTINUOUS
 10
159.1128043074
 20
31.4326555427
 11
159.228429528
 21
31.5294468402
 12
159.8065543074
 22
31.4971825592
 13
159.8065543074
 23
31.4971825592
  0
SOLID
  8
0
 62
7
  6
CONTINUOUS
 10
160.5003043074
 20
31.4649197501
 11
160.8471793074
 21
31.4971825592
 12
160.615929528
 22
31.4326555427
 13
160.615929528
 23
31.4326555427
  0
SOLID
  8
0
 62
7
  6
CONTINUOUS
 10
160.615929528
 20
31.4326555427
 11
160.8471793074
 21
31.4971825592
 12
160.6737418074
 22
31.3681283005
 13
160.6737418074
 23
31.3681283005
  0
SOLID
  8
0
 62
7
  6
CONTINUOUS
 10
160.8471793074
 20
31.4971825592
 11
160.9628038663
 21
31.3681283005
 12
160.6737418074
 22
31.3681283005
 13
160.6737418074
 23
31.3681283005
  0
SOLID
  8
0
 62
7
  6
CONTINUOUS
 10
150.2674918074
 20
31.4649197501
 11
149.7471793074
 21
31.4326554237
 12
150.498741835
 22
31.4971824493
 13
150.498741835
 23
31.4971824493
  0
SOLID
  8
0
 62
7
  6
CONTINUOUS
 10
149.7471793074
 20
31.4326554237
 11
149.8628043005
 21
31.4971824493
 12
150.498741835
 22
31.4971824493
 13
150.498741835
 23
31.4971824493
  0
SOLID
  8
0
 62
7
  6
CONTINUOUS
 10
150.2674918074
 20
31.4649197501
 11
150.1518667936
 21
31.4326554237
 12
149.7471793074
 22
31.4326554237
 13
149.7471793074
 23
31.4326554237
  0
SOLID
  8
0
 62
7
  6
CONTINUOUS
 10
149.6315543091
 20
31.3036012664
 11
149.7471793074
 21
31.4326554237
 12
150.1518667936
 22
31.4326554237
 13
150.1518667936
 23
31.4326554237
  0
SOLID
  8
0
 62
7
  6
CONTINUOUS
 10
153.9674919177
 20
31.4326554237
 11
154.6612419177
 21
31.4971825369
 12
154.4299918074
 22
31.4649197501
 13
154.4299918074
 23
31.4649197501
  0
SOLID
  8
0
 62
7
  6
CONTINUOUS
 10
154.4299918074
 20
31.4649197501
 11
154.3143669177
 21
31.4326554237
 12
153.9674919177
 22
31.4326554237
 13
153.9674919177
 23
31.4326554237
  0
SOLID
  8
0
 62
7
  6
CONTINUOUS
 10
153.9674919177
 20
31.3681283335
 11
153.9674919177
 21
31.4326554237
 12
154.3143669177
 22
31.4326554237
 13
154.3143669177
 23
31.4326554237
  0
SOLID
  8
0
 62
7
  6
CONTINUOUS
 10
154.3143669177
 20
31.4326554237
 11
154.2565543074
 21
31.3681283335
 12
153.9674919177
 22
31.3681283335
 13
153.9674919177
 23
31.3681283335
  0
SOLID
  8
0
 62
7
  6
CONTINUOUS
 10
159.1128043074
 20
31.4326555528
 11
159.8065543074
 21
31.4971825369
 12
159.575304528
 22
31.4649197501
 13
159.575304528
 23
31.4649197501
  0
SOLID
  8
0
 62
7
  6
CONTINUOUS
 10
159.575304528
 20
31.4649197501
 11
159.4596793074
 21
31.4326555528
 12
159.1128043074
 22
31.4326555528
 13
159.1128043074
 23
31.4326555528
  0
SOLID
  8
0
 62
7
  6
CONTINUOUS
 10
159.1128043074
 20
31.3681284626
 11
159.1128043074
 21
31.4326555528
 12
159.4596793074
 22
31.4326555528
 13
159.4596793074
 23
31.4326555528
  0
SOLID
  8
0
 62
7
  6
CONTINUOUS
 10
159.4596793074
 20
31.4326555528
 11
159.401867028
 21
31.3681284626
 12
159.1128043074
 22
31.3681284626
 13
159.1128043074
 23
31.3681284626
  0
SOLID
  8
0
 62
7
  6
CONTINUOUS
 10
159.228429528
 20
31.2390741763
 11
159.1128043074
 21
31.3681284626
 12
159.401867028
 22
31.3681284626
 13
159.401867028
 23
31.3681284626
  0
SOLID
  8
0
 62
7
  6
CONTINUOUS
 10
149.6315543091
 20
31.3036012664
 11
150.1518667936
 21
31.4326554468
 12
149.9784292936
 22
31.3358640533
 13
149.9784292936
 23
31.3358640533
  0
SOLID
  8
0
 62
7
  6
CONTINUOUS
 10
149.9784292936
 20
31.3358640533
 11
149.9206168074
 21
31.2713369632
 12
149.6315543091
 22
31.3036012664
 13
149.6315543091
 23
31.3036012664
  0
SOLID
  8
0
 62
7
  6
CONTINUOUS
 10
149.5737418074
 20
31.1100184796
 11
149.6315543091
 21
31.3036012664
 12
149.9206168074
 22
31.2713369632
 13
149.9206168074
 23
31.2713369632
  0
SOLID
  8
0
 62
7
  6
CONTINUOUS
 10
154.4299918074
 20
31.2390741763
 11
154.7768668074
 21
31.271336924
 12
155.412804528
 22
31.271336924
 13
155.412804528
 23
31.271336924
  0
SOLID
  8
0
 62
7
  6
CONTINUOUS
 10
154.4299918074
 20
31.2390741763
 11
155.412804528
 21
31.271336924
 12
154.1987416972
 22
31.1745462761
 13
154.1987416972
 23
31.1745462761
  0
SOLID
  8
0
 62
7
  6
CONTINUOUS
 10
154.1987416972
 20
31.1745462761
 11
155.412804528
 21
31.271336924
 12
154.7768668074
 22
31.1422827436
 13
154.7768668074
 23
31.1422827436
  0
SOLID
  8
0
 62
7
  6
CONTINUOUS
 10
155.412804528
 20
31.271336924
 11
155.412804528
 21
31.1422827436
 12
154.7768668074
 22
31.1422827436
 13
154.7768668074
 23
31.1422827436
  0
SOLID
  8
0
 62
7
  6
CONTINUOUS
 10
159.228429528
 20
31.2390745501
 11
159.401867028
 21
31.3681283566
 12
159.4596793074
 22
31.3036012664
 13
159.4596793074
 23
31.3036012664
  0
SOLID
  8
0
 62
7
  6
CONTINUOUS
 10
159.4596793074
 20
31.3036012664
 11
159.6331168074
 21
31.2390745501
 12
159.228429528
 22
31.2390745501
 13
159.228429528
 23
31.2390745501
  0
SOLID
  8
0
 62
7
  6
CONTINUOUS
 10
159.4596793074
 20
31.1422827828
 11
159.228429528
 21
31.2390745501
 12
159.6331168074
 22
31.2390745501
 13
159.6331168074
 23
31.2390745501
  0
SOLID
  8
0
 62
7
  6
CONTINUOUS
 10
159.6331168074
 20
31.2390745501
 11
160.615929528
 21
31.0777556927
 12
159.4596793074
 22
31.1422827828
 13
159.4596793074
 23
31.1422827828
  0
SOLID
  8
0
 62
7
  6
CONTINUOUS
 10
160.442492028
 20
30.9809646623
 11
159.4596793074
 21
31.1422827828
 12
160.615929528
 22
31.0777556927
 13
160.615929528
 23
31.0777556927
  0
SOLID
  8
0
 62
7
  6
CONTINUOUS
 10
160.615929528
 20
31.0777556927
 11
160.8471793074
 21
30.9809646623
 12
160.442492028
 22
30.9809646623
 13
160.442492028
 23
30.9809646623
  0
SOLID
  8
0
 62
7
  6
CONTINUOUS
 10
160.615929528
 20
30.9164372091
 11
160.442492028
 21
30.9809646623
 12
160.8471793074
 22
30.9809646623
 13
160.8471793074
 23
30.9809646623
  0
SOLID
  8
0
 62
7
  6
CONTINUOUS
 10
160.615929528
 20
30.9164372091
 11
160.8471793074
 21
30.9809646623
 12
160.6737418074
 22
30.8519089441
 13
160.6737418074
 23
30.8519089441
  0
SOLID
  8
0
 62
7
  6
CONTINUOUS
 10
160.8471793074
 20
30.9809646623
 11
160.9628038663
 21
30.8519089441
 12
160.6737418074
 22
30.8519089441
 13
160.6737418074
 23
30.8519089441
  0
SOLID
  8
0
 62
7
  6
CONTINUOUS
 10
160.615929528
 20
30.7873818593
 11
160.6737418074
 21
30.8519089441
 12
160.9628038663
 22
30.8519089441
 13
160.9628038663
 23
30.8519089441
  0
SOLID
  8
0
 62
7
  6
CONTINUOUS
 10
160.9628038663
 20
30.8519089441
 11
160.9628038663
 21
30.7873818593
 12
160.615929528
 22
30.7873818593
 13
160.615929528
 23
30.7873818593
  0
SOLID
  8
0
 62
7
  6
CONTINUOUS
 10
160.5003043074
 20
30.7551187255
 11
160.615929528
 21
30.7873818593
 12
160.9628038663
 22
30.7873818593
 13
160.9628038663
 23
30.7873818593
  0
SOLID
  8
0
 62
7
  6
CONTINUOUS
 10
160.5003043074
 20
30.7551187255
 11
160.9628038663
 21
30.7873818593
 12
160.269054528
 22
30.7228547745
 13
160.269054528
 23
30.7228547745
  0
SOLID
  8
0
 62
7
  6
CONTINUOUS
 10
160.9628038663
 20
30.7873818593
 11
160.8471793074
 21
30.6905916353
 12
160.269054528
 22
30.7228547745
 13
160.269054528
 23
30.7228547745
  0
SOLID
  8
0
 62
7
  6
CONTINUOUS
 10
160.8471793074
 20
30.6905916353
 11
159.401867028
 21
30.658327332
 12
160.269054528
 22
30.7228547745
 13
160.269054528
 23
30.7228547745
  0
SOLID
  8
0
 62
7
  6
CONTINUOUS
 10
160.269054528
 20
30.7228547745
 11
159.401867028
 21
30.658327332
 12
159.922179528
 22
30.7228547745
 13
159.922179528
 23
30.7228547745
  0
SOLID
  8
0
 62
7
  6
CONTINUOUS
 10
159.401867028
 20
30.658327332
 11
159.228429528
 21
30.7228547745
 12
159.922179528
 22
30.7228547745
 13
159.922179528
 23
30.7228547745
  0
SOLID
  8
0
 62
7
  6
CONTINUOUS
 10
159.401867028
 20
30.658327332
 11
160.8471793074
 21
30.6905916353
 12
159.575304528
 22
30.6260629858
 13
159.575304528
 23
30.6260629858
  0
SOLID
  8
0
 62
7
  6
CONTINUOUS
 10
160.8471793074
 20
30.6905916353
 11
160.615929528
 21
30.6260629858
 12
159.575304528
 22
30.6260629858
 13
159.575304528
 23
30.6260629858
  0
SOLID
  8
0
 62
7
  6
CONTINUOUS
 10
159.922179528
 20
30.5938006049
 11
159.575304528
 21
30.6260629858
 12
160.615929528
 22
30.6260629858
 13
160.615929528
 23
30.6260629858
  0
SOLID
  8
0
 62
7
  6
CONTINUOUS
 10
160.615929528
 20
30.6260629858
 11
160.269054528
 21
30.5938006049
 12
159.922179528
 22
30.5938006049
 13
159.922179528
 23
30.5938006049
  0
SOLID
  8
0
 62
7
  6
CONTINUOUS
 10
149.5737418074
 20
31.1100184796
 11
149.9206168074
 21
31.2713369632
 12
149.8628043005
 22
31.1422827828
 13
149.8628043005
 23
31.1422827828
  0
SOLID
  8
0
 62
7
  6
CONTINUOUS
 10
149.8628043005
 20
31.1422827828
 11
149.8628043005
 21
31.0454914852
 12
149.5737418074
 22
31.1100184796
 13
149.5737418074
 23
31.1100184796
  0
SOLID
  8
0
 62
7
  6
CONTINUOUS
 10
149.6315543091
 20
30.9164372091
 11
149.5737418074
 21
31.1100184796
 12
149.8628043005
 22
31.0454914852
 13
149.8628043005
 23
31.0454914852
  0
SOLID
  8
0
 62
7
  6
CONTINUOUS
 10
149.8628043005
 20
31.0454914852
 11
149.9784292936
 21
30.8841729058
 12
149.6315543091
 22
30.9164372091
 13
149.6315543091
 23
30.9164372091
  0
SOLID
  8
0
 62
7
  6
CONTINUOUS
 10
149.7471793074
 20
30.7873813202
 11
149.6315543091
 21
30.9164372091
 12
149.9784292936
 22
30.8841729058
 13
149.9784292936
 23
30.8841729058
  0
SOLID
  8
0
 62
7
  6
CONTINUOUS
 10
149.9784292936
 20
30.8841729058
 11
150.1518667936
 21
30.7873813202
 12
149.7471793074
 22
30.7873813202
 13
149.7471793074
 23
30.7873813202
  0
SOLID
  8
0
 62
7
  6
CONTINUOUS
 10
149.8628043005
 20
30.7228547004
 11
149.7471793074
 21
30.7873813202
 12
150.1518667936
 22
30.7873813202
 13
150.1518667936
 23
30.7873813202
  0
SOLID
  8
0
 62
7
  6
CONTINUOUS
 10
150.1518667936
 20
30.7873813202
 11
150.498741835
 21
30.7228547004
 12
149.8628043005
 22
30.7228547004
 13
149.8628043005
 23
30.7228547004
  0
SOLID
  8
0
 62
7
  6
CONTINUOUS
 10
150.0362418212
 20
30.658327332
 11
149.8628043005
 21
30.7228547004
 12
150.498741835
 22
30.7228547004
 13
150.498741835
 23
30.7228547004
  0
SOLID
  8
0
 62
7
  6
CONTINUOUS
 10
154.0831168074
 20
31.1100184386
 11
154.1987416972
 21
31.1745462761
 12
154.7768668074
 22
31.1422827828
 13
154.7768668074
 23
31.1422827828
  0
SOLID
  8
0
 62
7
  6
CONTINUOUS
 10
154.7768668074
 20
31.1422827828
 11
154.5456166972
 21
31.1100184386
 12
154.0831168074
 22
31.1100184386
 13
154.0831168074
 23
31.1100184386
  0
SOLID
  8
0
 62
7
  6
CONTINUOUS
 10
153.9674919177
 20
30.9809642992
 11
154.0831168074
 21
31.1100184386
 12
154.5456166972
 22
31.1100184386
 13
154.5456166972
 23
31.1100184386
  0
SOLID
  8
0
 62
7
  6
CONTINUOUS
 10
154.3143669177
 20
31.0132277988
 11
153.9674919177
 21
30.9809642992
 12
154.4299918074
 22
31.0777556927
 13
154.4299918074
 23
31.0777556927
  0
SOLID
  8
0
 62
7
  6
CONTINUOUS
 10
153.9674919177
 20
30.9809642992
 11
154.5456166972
 21
31.1100184796
 12
154.4299918074
 22
31.0777556927
 13
154.4299918074
 23
31.0777556927
  0
SOLID
  8
0
 62
7
  6
CONTINUOUS
 10
154.3143669177
 20
31.0132277988
 11
154.2565543074
 21
30.9164372091
 12
153.9674919177
 22
30.9809642992
 13
153.9674919177
 23
30.9809642992
  0
SOLID
  8
0
 62
7
  6
CONTINUOUS
 10
153.9674919177
 20
30.8841729058
 11
153.9674919177
 21
30.9809642992
 12
154.2565543074
 22
30.9164372091
 13
154.2565543074
 23
30.9164372091
  0
SOLID
  8
0
 62
7
  6
CONTINUOUS
 10
154.2565543074
 20
30.9164372091
 11
154.2565543074
 21
30.8519086025
 12
153.9674919177
 22
30.8841729058
 13
153.9674919177
 23
30.8841729058
  0
SOLID
  8
0
 62
7
  6
CONTINUOUS
 10
154.0253041972
 20
30.7551187255
 11
153.9674919177
 21
30.8841729058
 12
154.2565543074
 22
30.8519086025
 13
154.2565543074
 23
30.8519086025
  0
SOLID
  8
0
 62
7
  6
CONTINUOUS
 10
155.412804528
 20
30.9487004259
 11
155.7018665869
 21
30.8519086025
 12
155.3549915869
 22
30.8841729058
 13
155.3549915869
 23
30.8841729058
  0
SOLID
  8
0
 62
7
  6
CONTINUOUS
 10
155.1815540869
 20
30.7873815123
 11
155.3549915869
 21
30.8841729058
 12
155.7018665869
 22
30.8519086025
 13
155.7018665869
 23
30.8519086025
  0
SOLID
  8
0
 62
7
  6
CONTINUOUS
 10
155.1815540869
 20
30.7873815123
 11
155.7018665869
 21
30.8519086025
 12
155.412804528
 22
30.7551187255
 13
155.412804528
 23
30.7551187255
  0
SOLID
  8
0
 62
7
  6
CONTINUOUS
 10
155.7018665869
 20
30.8519086025
 11
155.759679528
 21
30.6905916353
 12
155.412804528
 22
30.7551187255
 13
155.412804528
 23
30.7551187255
  0
SOLID
  8
0
 62
7
  6
CONTINUOUS
 10
155.4706168074
 20
30.658327332
 11
155.412804528
 21
30.7551187255
 12
155.759679528
 22
30.6905916353
 13
155.759679528
 23
30.6905916353
  0
SOLID
  8
0
 62
7
  6
CONTINUOUS
 10
155.4706168074
 20
30.658327332
 11
155.759679528
 21
30.6905916353
 12
155.5284290869
 22
30.5938002079
 13
155.5284290869
 23
30.5938002079
  0
SOLID
  8
0
 62
7
  6
CONTINUOUS
 10
155.759679528
 20
30.6905916353
 11
155.8174918074
 21
30.5938002079
 12
155.5284290869
 22
30.5938002079
 13
155.5284290869
 23
30.5938002079
  0
SOLID
  8
0
 62
7
  6
CONTINUOUS
 10
151.0768668626
 20
30.8196456577
 11
151.1346793074
 21
30.9164373395
 12
151.4237418626
 22
30.9164373395
 13
151.4237418626
 23
30.9164373395
  0
SOLID
  8
0
 62
7
  6
CONTINUOUS
 10
151.4237418626
 20
30.9164373395
 11
151.3659292523
 21
30.7873815123
 12
151.0768668626
 22
30.8196456577
 13
151.0768668626
 23
30.8196456577
  0
SOLID
  8
0
 62
7
  6
CONTINUOUS
 10
150.9034292799
 20
30.7551187255
 11
151.0768668626
 21
30.8196456577
 12
151.3659292523
 22
30.7873815123
 13
151.3659292523
 23
30.7873815123
  0
SOLID
  8
0
 62
7
  6
CONTINUOUS
 10
150.9034292799
 20
30.7551187255
 11
151.3659292523
 21
30.7873815123
 12
150.498741835
 22
30.7228544222
 13
150.498741835
 23
30.7228544222
  0
SOLID
  8
0
 62
7
  6
CONTINUOUS
 10
151.3659292523
 20
30.7873815123
 11
151.1924917523
 21
30.6905916353
 12
150.498741835
 22
30.7228544222
 13
150.498741835
 23
30.7228544222
  0
SOLID
  8
0
 62
7
  6
CONTINUOUS
 10
150.0362418212
 20
30.658327332
 11
150.498741835
 21
30.7228544222
 12
151.1924917523
 22
30.6905916353
 13
151.1924917523
 23
30.6905916353
  0
SOLID
  8
0
 62
7
  6
CONTINUOUS
 10
150.0362418212
 20
30.658327332
 11
151.1924917523
 21
30.6905916353
 12
150.2096793212
 22
30.6260631011
 13
150.2096793212
 23
30.6260631011
  0
SOLID
  8
0
 62
7
  6
CONTINUOUS
 10
151.1924917523
 20
30.6905916353
 11
150.9612418074
 21
30.6260631011
 12
150.2096793212
 22
30.6260631011
 13
150.2096793212
 23
30.6260631011
  0
SOLID
  8
0
 62
7
  6
CONTINUOUS
 10
150.5565542799
 20
30.5938002419
 11
150.2096793212
 21
30.6260631011
 12
150.9612418074
 22
30.6260631011
 13
150.9612418074
 23
30.6260631011
  0
SOLID
  8
0
 62
7
  6
CONTINUOUS
 10
154.0253041972
 20
30.7551187255
 11
154.2565543074
 21
30.8519086025
 12
154.3143669177
 22
30.7873815123
 13
154.3143669177
 23
30.7873815123
  0
SOLID
  8
0
 62
7
  6
CONTINUOUS
 10
154.3143669177
 20
30.7873815123
 11
154.5456166972
 21
30.7228544222
 12
154.0253041972
 22
30.7551187255
 13
154.0253041972
 23
30.7551187255
  0
SOLID
  8
0
 62
7
  6
CONTINUOUS
 10
154.1987416972
 20
30.658327332
 11
154.0253041972
 21
30.7551187255
 12
154.5456166972
 22
30.7228544222
 13
154.5456166972
 23
30.7228544222
  0
SOLID
  8
0
 62
7
  6
CONTINUOUS
 10
154.8924916972
 20
30.7228544637
 11
155.1815540869
 21
30.7873815123
 12
155.412804528
 22
30.7551187255
 13
155.412804528
 23
30.7551187255
  0
SOLID
  8
0
 62
7
  6
CONTINUOUS
 10
155.412804528
 20
30.7551187255
 11
155.3549915869
 21
30.6905916353
 12
154.8924916972
 22
30.7228544637
 13
154.8924916972
 23
30.7228544637
  0
SOLID
  8
0
 62
7
  6
CONTINUOUS
 10
155.3549915869
 20
30.6905916353
 11
154.1987416972
 21
30.658327332
 12
154.8924916972
 22
30.7228544637
 13
154.8924916972
 23
30.7228544637
  0
SOLID
  8
0
 62
7
  6
CONTINUOUS
 10
154.1987416972
 20
30.658327332
 11
154.5456166972
 21
30.7228544637
 12
154.8924916972
 22
30.7228544637
 13
154.8924916972
 23
30.7228544637
  0
SOLID
  8
0
 62
7
  6
CONTINUOUS
 10
154.1987416972
 20
30.658327332
 11
155.3549915869
 21
30.6905916353
 12
154.3143669177
 22
30.6260630541
 13
154.3143669177
 23
30.6260630541
  0
SOLID
  8
0
 62
7
  6
CONTINUOUS
 10
155.3549915869
 20
30.6905916353
 11
155.1815540869
 21
30.6260630541
 12
154.3143669177
 22
30.6260630541
 13
154.3143669177
 23
30.6260630541
  0
SOLID
  8
0
 62
7
  6
CONTINUOUS
 10
154.5456166972
 20
30.5938002188
 11
154.3143669177
 21
30.6260630541
 12
155.1815540869
 22
30.6260630541
 13
155.1815540869
 23
30.6260630541
  0
SOLID
  8
0
 62
7
  6
CONTINUOUS
 10
155.1815540869
 20
30.6260630541
 11
154.8924916972
 21
30.5938002188
 12
154.5456166972
 22
30.5938002188
 13
154.5456166972
 23
30.5938002188
  0
SOLID
  8
0
 62
7
  6
CONTINUOUS
 10
159.575304528
 20
30.7551187255
 11
159.228429528
 21
30.7228544637
 12
159.4596793074
 22
30.7873815123
 13
159.4596793074
 23
30.7873815123
  0
SOLID
  8
0
 62
7
  6
CONTINUOUS
 10
159.4596793074
 20
30.7873815123
 11
159.228429528
 21
30.7228544637
 12
159.401867028
 22
30.851908644
 13
159.401867028
 23
30.851908644
  0
SOLID
  8
0
 62
7
  6
CONTINUOUS
 10
159.228429528
 20
30.7228544637
 11
159.1128043074
 21
30.851908644
 12
159.401867028
 22
30.851908644
 13
159.401867028
 23
30.851908644
  0
SOLID
  8
0
 62
7
  6
CONTINUOUS
 10
159.575304528
 20
30.7551187255
 11
159.922179528
 21
30.7228544637
 12
159.228429528
 22
30.7228544637
 13
159.228429528
 23
30.7228544637
  0
SOLID
  8
0
 62
7
  6
CONTINUOUS
 10
156.279992028
 20
30.5938002419
 11
156.279992028
 21
31.6262382337
 12
156.5690540869
 22
30.5938002419
 13
156.5690540869
 23
31.6262382337
  0
ENDBLK
  8
0
  6
BYBLOCK
 62
0
  0
BLOCK
  8
0
 62
2
  6
CONTINUOUS
  2
AMMEAAL_LOGO_BL0
 70
64
 10
32.1213064866
 20
19.8534310916
  0
TEXT
  8
0
 62
7
  6
CONTINUOUS
 10
18.3860103289
 20
19.2268451992
  7
TEXTSTYLE_3
 40
2.7338706658
  1
Ammeraal Beltech
 41
1.0
 51
15.0
 72
0
  0
TEXT
  8
0
 62
7
  6
CONTINUOUS
 10
29.1868111546
 20
16.9533085264
  7
TEXTSTYLE_4
 40
1.0935482663
  1
Innovation & Service in Belting
 41
1.0
 72
0
  0
LINE
  8
0
 62
7
  6
CONTINUOUS
 10
12.3614696776
 20
19.9934385078
 11
13.1396216709
 21
23.6543558055
  0
LINE
  8
0
 62
7
  6
CONTINUOUS
 10
23.2347899607
 20
27.3177497171
 11
13.6274394139
 21
24.1961322958
  0
LINE
  8
0
 62
7
  6
CONTINUOUS
 10
12.5867530099
 20
19.3000877048
 11
20.093828271
 21
12.5406867788
  0
LINE
  8
0
 62
7
  6
CONTINUOUS
 10
12.8492874206
 20
20.5352149982
 11
23.6575567857
 21
24.0470345971
  0
LINE
  8
0
 62
7
  6
CONTINUOUS
 10
23.6533516486
 20
13.6972460334
 11
15.2078919798
 21
21.3015720751
  0
LINE
  8
0
 62
7
  6
CONTINUOUS
 10
24.1731743684
 20
26.4728246013
 11
23.1966148312
 21
21.8784731989
  0
LINE
  8
0
 62
7
  6
CONTINUOUS
 10
22.4968128835
 20
18.5861638851
 11
21.810364672
 21
15.3566789607
  0
LINE
  8
0
 62
7
  6
CONTINUOUS
 10
24.8542704669
 20
14.087448211
 11
25.8105020025
 21
18.5861638851
  0
LINE
  8
0
 62
7
  6
CONTINUOUS
 10
26.5103039502
 20
21.8784731989
 11
26.9545457526
 21
23.9684665583
  0
LINE
  8
0
 62
7
  6
CONTINUOUS
 10
20.8069293463
 20
12.3891124661
 11
24.3664527239
 21
13.5456717207
  0
LINE
  8
0
 62
7
  6
CONTINUOUS
 10
23.9478910361
 20
27.1661754044
 11
26.7292624203
 21
24.6618173613
  0
ARC
  8
0
 62
7
  6
CONTINUOUS
 10
13.8527227462
 20
23.5027814928
 40
0.7290321776
 50
108.0
 51
168.0
  0
ARC
  8
0
 62
7
  6
CONTINUOUS
 10
23.4600732931
 20
26.624398914
 40
0.7290321776
 50
348.0
 51
108.0
  0
ARC
  8
0
 62
7
  6
CONTINUOUS
 10
26.2414446773
 20
24.120040871
 40
0.7290321776
 50
348.0
 51
48.0
  0
ARC
  8
0
 62
7
  6
CONTINUOUS
 10
20.581646014
 20
13.0824632691
 40
0.7290321776
 50
228.0
 51
288.0
  0
ARC
  8
0
 62
7
  6
CONTINUOUS
 10
13.0745707529
 20
19.8418641951
 40
0.7290321776
 50
108.0
 51
228.0
  0
ARC
  8
0
 62
7
  6
CONTINUOUS
 10
24.1411693916
 20
14.2390225237
 40
0.7290321776
 50
228.0
 51
348.0
  0
ENDBLK
  8
0
  6
BYBLOCK
 62
0
  0
ENDSEC
  0
SECTION
  2
ENTITIES
  0
TEXT
  8
0
 62
5
  6
CONTINUOUS
 10
96.0
 20
25.636
  7
TEXTSTYLE_2
 40
2.8
  1
Scale :
 41
0.6
 51
0.000019
 72
0
  0
TEXT
  8
0
 62
5
  6
CONTINUOUS
 10
116.0
 20
25.636
  7
TEXTSTYLE_2
 40
2.8
  1
Belt type:
 41
0.6
 51
0.000019
 72
0
  0
INSERT
  8
0
 62
2
  6
CONTINUOUS
  2
AMMEAAL_LOGO_BL0
 10
32.1213064866
 20
19.8534310916
  0
INSERT
  8
0
 62
2
  6
CONTINUOUS
  2
UNI_LOGO2_BL1
 10
173.5956734183
 20
35.5937998301
  0
LINE
  8
0
 62
2
  6
CONTINUOUS
 10
10.0
 20
30.0
 11
200.0
 21
30.0
  0
LINE
  8
0
 62
2
  6
CONTINUOUS
 10
10.0
 20
30.0
 11
10.0
 21
10.0
  0
LINE
  8
0
 62
2
  6
CONTINUOUS
 10
10.0
 20
10.0
 11
200.0
 21
10.0
  0
LINE
  8
0
 62
2
  6
CONTINUOUS
 10
95.0
 20
30.0
 11
95.0
 21
10.0
  0
LINE
  8
0
 62
2
  6
CONTINUOUS
 10
115.0
 20
30.0
 11
115.0
 21
10.0
  0
LINE
  8
0
 62
2
  6
CONTINUOUS
 10
200.0
 20
30.0
 11
200.0
 21
10.0
  0
TEXT
  8
0
 62
5
  6
CONTINUOUS
 10
13.0
 20
23.303
  7
TEXTSTYLE_5
 40
1.52
  1
                                                                     Ammeraal Beltech Modular A/S
 41
1.0
 72
0
  0
TEXT
  8
0
 62
5
  6
CONTINUOUS
 10
13.0
 20
20.595
  7
TEXTSTYLE_5
 40
1.5
  1
                                                                      Hjulmagervej 21,  7100 Vejle,  DK
 41
1.0
 72
0
  0
TEXT
  8
0
 62
5
  6
CONTINUOUS
 10
13.0
 20
17.881
  7
TEXTSTYLE_5
 40
1.495
  1
                                                                      tel: 
 41
1.0
 72
0
  0
TEXT
  8
0
 62
5
  6
CONTINUOUS
 10
57.9869465649
 20
17.881
  7
TEXTSTYLE_5
 40
1.51
  1
+45 75723100     fax: +45 75723348
 41
1.0
 72
0
  0
TEXT
  8
0
 62
5
  6
CONTINUOUS
 10
13.0
 20
15.177
  7
TEXTSTYLE_5
 40
1.5
  1
                                                                      admin@unichains.dk  www.unichains.com
 41
1.0
 72
0
  0
TEXT
  8
0
 62
5
  6
CONTINUOUS
 10
99.75
 20
13.75
  7
TEXTSTYLE_6
 40
5.0
  1
1:1
 41
0.7
 72
1
 11
105.0
 21
13.75
  0
TEXT
  8
0
 62
5
  6
CONTINUOUS
 10
118.0
 20
13.75
  7
TEXTSTYLE_7
 40
7.5
  1
Sprocket Z12
 41
0.6361111111
 72
0
  0
LINE
  8
0
 62
7
  6
CONTINUOUS
 10
210.0
 20
0.0
 11
0.0
 21
0.0
  0
LINE
  8
0
 62
7
  6
CONTINUOUS
 10
10.0
 20
10.0
 11
200.0
 21
10.0
  0
LINE
  8
0
 62
7
  6
CONTINUOUS
 10
10.0
 20
30.0
 11
200.0
 21
30.0
  0
LINE
  8
0
 62
7
  6
CONTINUOUS
 10
0.0
 20
0.0
 11
0.0
 21
297.0
  0
LINE
  8
0
 62
7
  6
CONTINUOUS
 10
10.0
 20
10.0
 11
10.0
 21
287.0
  0
LINE
  8
0
 62
7
  6
CONTINUOUS
 10
200.0
 20
287.0
 11
200.0
 21
10.0
  0
LINE
  8
0
 62
7
  6
CONTINUOUS
 10
210.0
 20
0.0
 11
210.0
 21
297.0
  0
LINE
  8
0
 62
7
  6
CONTINUOUS
 10
10.0
 20
287.0
 11
200.0
 21
287.0
  0
LINE
  8
0
 62
7
  6
CONTINUOUS
 10
0.0
 20
297.0
 11
210.0
 21
297.0
  0
LINE
  8
0
 62
7
  6
CONTINUOUS
 10
42.798828125
 20
110.1986426753
 11
42.798828125
 21
98.8638573247
  0
POLYLINE
  8
0
 62
7
  6
CONTINUOUS
 66
1
 70
0
  0
VERTEX
  8
0
 62
7
  6
CONTINUOUS
 10
42.8033649871
 20
98.8638573247
  0
VERTEX
  8
0
 62
7
  6
CONTINUOUS
 10
42.8405038107
 20
98.6090322223
  0
VERTEX
  8
0
 62
7
  6
CONTINUOUS
 10
42.882823202
 20
98.4889613995
  0
VERTEX
  8
0
 62
7
  6
CONTINUOUS
 10
43.0050512498
 20
98.2771206746
  0
SEQEND
  0
POLYLINE
  8
0
 62
7
  6
CONTINUOUS
 66
1
 70
0
  0
VERTEX
  8
0
 62
7
  6
CONTINUOUS
 10
43.0050512498
 20
110.7853793254
  0
VERTEX
  8
0
 62
7
  6
CONTINUOUS
 10
42.8828412828
 20
110.573581083
  0
VERTEX
  8
0
 62
7
  6
CONTINUOUS
 10
42.8404836497
 20
110.4533963497
  0
VERTEX
  8
0
 62
7
  6
CONTINUOUS
 10
42.8033649871
 20
110.1986426753
  0
SEQEND
  0
LINE
  8
0
 62
7
  6
CONTINUOUS
 10
49.044933322
 20
98.2771206746
 11
49.0373957441
 21
98.379864167
  0
LINE
  8
0
 62
7
  6
CONTINUOUS
 10
49.0373957441
 20
110.6826343916
 11
49.0373957441
 21
98.3798656084
  0
LINE
  8
0
 62
7
  6
CONTINUOUS
 10
49.9399639818
 20
111.53125
 11
49.9399639818
 21
111.3407347787
  0
LINE
  8
0
 62
7
  6
CONTINUOUS
 10
49.9399639818
 20
97.7217652213
 11
49.9399639818
 21
97.53125
  0
LINE
  8
0
 62
7
  6
CONTINUOUS
 10
51.398828125
 20
118.53125
 11
51.398828125
 21
111.53125
  0
LINE
  8
0
 62
7
  6
CONTINUOUS
 10
51.398828125
 20
97.53125
 11
51.398828125
 21
90.53125
  0
POLYLINE
  8
0
 62
7
  6
CONTINUOUS
 66
1
 70
0
  0
VERTEX
  8
0
 62
7
  6
CONTINUOUS
 10
49.0373957441
 20
98.379864167
  0
VERTEX
  8
0
 62
7
  6
CONTINUOUS
 10
49.0448286745
 20
98.4889301
  0
VERTEX
  8
0
 62
7
  6
CONTINUOUS
 10
49.0684404371
 20
98.6089877509
  0
VERTEX
  8
0
 62
7
  6
CONTINUOUS
 10
49.1647134506
 20
98.8638573247
  0
SEQEND
  0
LINE
  8
0
 62
7
  6
CONTINUOUS
 10
49.0373957441
 20
110.6826358056
 11
49.044933322
 21
110.7853793254
  0
POLYLINE
  8
0
 62
7
  6
CONTINUOUS
 66
1
 70
0
  0
VERTEX
  8
0
 62
7
  6
CONTINUOUS
 10
49.044933322
 20
110.7853793254
  0
VERTEX
  8
0
 62
7
  6
CONTINUOUS
 10
49.0939222715
 20
110.973938788
  0
VERTEX
  8
0
 62
7
  6
CONTINUOUS
 10
49.1816357965
 20
111.1122769242
  0
VERTEX
  8
0
 62
7
  6
CONTINUOUS
 10
49.3037330517
 20
111.1863310159
  0
SEQEND
  0
POLYLINE
  8
0
 62
7
  6
CONTINUOUS
 66
1
 70
0
  0
VERTEX
  8
0
 62
7
  6
CONTINUOUS
 10
51.5320431788
 20
90.53125
  0
VERTEX
  8
0
 62
7
  6
CONTINUOUS
 10
51.5581561755
 20
90.3088694959
  0
VERTEX
  8
0
 62
7
  6
CONTINUOUS
 10
51.6363693975
 20
90.0954342992
  0
VERTEX
  8
0
 62
7
  6
CONTINUOUS
 10
51.7663661804
 20
89.9002280576
  0
VERTEX
  8
0
 62
7
  6
CONTINUOUS
 10
51.8504718556
 20
89.8127658861
  0
VERTEX
  8
0
 62
7
  6
CONTINUOUS
 10
52.0554284663
 20
89.6656170768
  0
VERTEX
  8
0
 62
7
  6
CONTINUOUS
 10
52.3047480239
 20
89.566983518
  0
SEQEND
  0
LINE
  8
0
 62
7
  6
CONTINUOUS
 10
51.5320431788
 20
118.53125
 11
51.5320431788
 21
111.53125
  0
LINE
  8
0
 62
7
  6
CONTINUOUS
 10
51.5320431788
 20
97.53125
 11
51.5320431788
 21
90.53125
  0
POLYLINE
  8
0
 62
7
  6
CONTINUOUS
 66
1
 70
0
  0
VERTEX
  8
0
 62
7
  6
CONTINUOUS
 10
55.4014926766
 20
118.53125
  0
VERTEX
  8
0
 62
7
  6
CONTINUOUS
 10
55.4179443169
 20
118.7535653924
  0
VERTEX
  8
0
 62
7
  6
CONTINUOUS
 10
55.4669605095
 20
118.9670064157
  0
VERTEX
  8
0
 62
7
  6
CONTINUOUS
 10
55.5474956089
 20
119.1622190773
  0
VERTEX
  8
0
 62
7
  6
CONTINUOUS
 10
55.5989545554
 20
119.2496675393
  0
VERTEX
  8
0
 62
7
  6
CONTINUOUS
 10
55.7222423096
 20
119.3968333368
  0
VERTEX
  8
0
 62
7
  6
CONTINUOUS
 10
55.8679733742
 20
119.495482684
  0
VERTEX
  8
0
 62
7
  6
CONTINUOUS
 10
56.0271482454
 20
119.53125
  0
SEQEND
  0
POLYLINE
  8
0
 62
7
  6
CONTINUOUS
 66
1
 70
0
  0
VERTEX
  8
0
 62
7
  6
CONTINUOUS
 10
43.0050512498
 20
98.2771206746
  0
VERTEX
  8
0
 62
7
  6
CONTINUOUS
 10
43.1893638564
 20
98.088601368
  0
VERTEX
  8
0
 62
7
  6
CONTINUOUS
 10
43.4218446828
 20
97.9502597665
  0
VERTEX
  8
0
 62
7
  6
CONTINUOUS
 10
43.6796417378
 20
97.8761689841
  0
SEQEND
  0
POLYLINE
  8
0
 62
7
  6
CONTINUOUS
 66
1
 70
0
  0
VERTEX
  8
0
 62
7
  6
CONTINUOUS
 10
49.8382604965
 20
98.8638573247
  0
VERTEX
  8
0
 62
7
  6
CONTINUOUS
 10
49.9988483564
 20
98.6090322223
  0
VERTEX
  8
0
 62
7
  6
CONTINUOUS
 10
50.0957667899
 20
98.4889613995
  0
VERTEX
  8
0
 62
7
  6
CONTINUOUS
 10
50.3073714794
 20
98.2771206746
  0
SEQEND
  0
POLYLINE
  8
0
 62
7
  6
CONTINUOUS
 66
1
 70
0
  0
VERTEX
  8
0
 62
7
  6
CONTINUOUS
 10
49.1647134506
 20
110.1986426753
  0
VERTEX
  8
0
 62
7
  6
CONTINUOUS
 10
49.068458363
 20
110.4534428296
  0
VERTEX
  8
0
 62
7
  6
CONTINUOUS
 10
49.0448226511
 20
110.5736153641
  0
VERTEX
  8
0
 62
7
  6
CONTINUOUS
 10
49.0373957441
 20
110.6826358056
  0
SEQEND
  0
LINE
  8
0
 62
7
  6
CONTINUOUS
 10
55.4014926766
 20
118.53125
 11
55.4014926766
 21
111.53125
  0
LINE
  8
0
 62
7
  6
CONTINUOUS
 10
55.4014926766
 20
97.53125
 11
55.4014926766
 21
90.53125
  0
LINE
  8
0
 62
7
  6
CONTINUOUS
 10
57.0478007637
 20
111.53125
 11
57.0478007637
 21
97.53125
  0
POLYLINE
  8
0
 62
7
  6
CONTINUOUS
 66
1
 70
0
  0
VERTEX
  8
0
 62
7
  6
CONTINUOUS
 10
50.3073714794
 20
110.7853793254
  0
VERTEX
  8
0
 62
7
  6
CONTINUOUS
 10
50.0958037367
 20
110.573581083
  0
VERTEX
  8
0
 62
7
  6
CONTINUOUS
 10
49.9987949889
 20
110.4533963497
  0
VERTEX
  8
0
 62
7
  6
CONTINUOUS
 10
49.8382604965
 20
110.1986426753
  0
SEQEND
  0
POLYLINE
  8
0
 62
7
  6
CONTINUOUS
 66
1
 70
0
  0
VERTEX
  8
0
 62
7
  6
CONTINUOUS
 10
58.7199953815
 20
90.53125
  0
VERTEX
  8
0
 62
7
  6
CONTINUOUS
 10
58.7488175305
 20
90.3086618301
  0
VERTEX
  8
0
 62
7
  6
CONTINUOUS
 10
58.8352377249
 20
90.0953797404
  0
VERTEX
  8
0
 62
7
  6
CONTINUOUS
 10
58.9798390043
 20
89.9002123906
  0
VERTEX
  8
0
 62
7
  6
CONTINUOUS
 10
59.0740432872
 20
89.8127502095
  0
VERTEX
  8
0
 62
7
  6
CONTINUOUS
 10
59.3057383808
 20
89.6656091665
  0
VERTEX
  8
0
 62
7
  6
CONTINUOUS
 10
59.5918133733
 20
89.5669813541
  0
VERTEX
  8
0
 62
7
  6
CONTINUOUS
 10
59.9215193458
 20
89.53125
  0
SEQEND
  0
LINE
  8
0
 62
7
  6
CONTINUOUS
 10
58.7199953815
 20
118.53125
 11
58.7199953815
 21
111.53125
  0
LINE
  8
0
 62
7
  6
CONTINUOUS
 10
58.7199953815
 20
97.53125
 11
58.7199953815
 21
90.53125
  0
POLYLINE
  8
0
 62
7
  6
CONTINUOUS
 66
1
 70
0
  0
VERTEX
  8
0
 62
7
  6
CONTINUOUS
 10
49.3037330517
 20
97.8761689841
  0
VERTEX
  8
0
 62
7
  6
CONTINUOUS
 10
49.181543962
 20
97.950315711
  0
VERTEX
  8
0
 62
7
  6
CONTINUOUS
 10
49.0938423679
 20
98.0887572833
  0
VERTEX
  8
0
 62
7
  6
CONTINUOUS
 10
49.044933322
 20
98.2771206746
  0
SEQEND
  0
POLYLINE
  8
0
 62
7
  6
CONTINUOUS
 66
1
 70
0
  0
VERTEX
  8
0
 62
7
  6
CONTINUOUS
 10
50.3073714794
 20
98.2771206746
  0
VERTEX
  8
0
 62
7
  6
CONTINUOUS
 10
50.5776377003
 20
98.088601368
  0
VERTEX
  8
0
 62
7
  6
CONTINUOUS
 10
50.8926127897
 20
97.9502597665
  0
VERTEX
  8
0
 62
7
  6
CONTINUOUS
 10
51.2169967492
 20
97.8761689841
  0
SEQEND
  0
POLYLINE
  8
0
 62
7
  6
CONTINUOUS
 66
1
 70
0
  0
VERTEX
  8
0
 62
7
  6
CONTINUOUS
 10
69.3237902508
 20
89.6656193126
  0
VERTEX
  8
0
 62
7
  6
CONTINUOUS
 10
69.310137353
 20
89.9002303581
  0
VERTEX
  8
0
 62
7
  6
CONTINUOUS
 10
69.3006277531
 20
90.0954358795
  0
VERTEX
  8
0
 62
7
  6
CONTINUOUS
 10
69.2939269568
 20
90.3088703601
  0
VERTEX
  8
0
 62
7
  6
CONTINUOUS
 10
69.291528007
 20
90.53125
  0
SEQEND
  0
LINE
  8
0
 62
7
  6
CONTINUOUS
 10
69.3269822289
 20
89.5751936607
 11
69.3237902508
 21
89.6656193126
  0
POLYLINE
  8
0
 62
7
  6
CONTINUOUS
 66
1
 70
0
  0
VERTEX
  8
0
 62
7
  6
CONTINUOUS
 10
66.5709531915
 20
97.8422347467
  0
VERTEX
  8
0
 62
7
  6
CONTINUOUS
 10
66.5710205852
 20
97.8395436956
  0
VERTEX
  8
0
 62
7
  6
CONTINUOUS
 10
66.6274258776
 20
97.7600862258
  0
VERTEX
  8
0
 62
7
  6
CONTINUOUS
 10
66.694760224
 20
97.7178771267
  0
VERTEX
  8
0
 62
7
  6
CONTINUOUS
 10
66.9050263685
 20
97.6302531419
  0
VERTEX
  8
0
 62
7
  6
CONTINUOUS
 10
67.0461498297
 20
97.5856009952
  0
SEQEND
  0
LINE
  8
0
 62
7
  6
CONTINUOUS
 10
66.4920936906
 20
119.53125
 11
66.4920936906
 21
89.53125
  0
LINE
  8
0
 62
7
  6
CONTINUOUS
 10
66.5709531915
 20
111.2202618108
 11
66.5709531915
 21
97.8422381892
  0
POLYLINE
  8
0
 62
7
  6
CONTINUOUS
 66
1
 70
0
  0
VERTEX
  8
0
 62
7
  6
CONTINUOUS
 10
66.5709531915
 20
111.2202652533
  0
VERTEX
  8
0
 62
7
  6
CONTINUOUS
 10
66.5710205852
 20
111.2229563044
  0
VERTEX
  8
0
 62
7
  6
CONTINUOUS
 10
66.6274258776
 20
111.3024137742
  0
VERTEX
  8
0
 62
7
  6
CONTINUOUS
 10
66.694760224
 20
111.3446228733
  0
VERTEX
  8
0
 62
7
  6
CONTINUOUS
 10
66.9050263685
 20
111.4322468581
  0
VERTEX
  8
0
 62
7
  6
CONTINUOUS
 10
67.0461498297
 20
111.4768990048
  0
SEQEND
  0
POLYLINE
  8
0
 62
7
  6
CONTINUOUS
 66
1
 70
0
  0
VERTEX
  8
0
 62
7
  6
CONTINUOUS
 10
69.3101345421
 20
119.1622190773
  0
VERTEX
  8
0
 62
7
  6
CONTINUOUS
 10
69.3237877558
 20
119.3968333368
  0
VERTEX
  8
0
 62
7
  6
CONTINUOUS
 10
69.3269822289
 20
119.4873062913
  0
SEQEND
  0
POLYLINE
  8
0
 62
7
  6
CONTINUOUS
 66
1
 70
0
  0
VERTEX
  8
0
 62
7
  6
CONTINUOUS
 10
69.3269822289
 20
119.4873062913
  0
VERTEX
  8
0
 62
7
  6
CONTINUOUS
 10
69.3269219155
 20
119.495482684
  0
VERTEX
  8
0
 62
7
  6
CONTINUOUS
 10
69.3202726449
 20
119.53125
  0
SEQEND
  0
LINE
  8
0
 62
7
  6
CONTINUOUS
 10
69.291528007
 20
118.53125
 11
69.291528007
 21
111.53125
  0
LINE
  8
0
 62
7
  6
CONTINUOUS
 10
69.291528007
 20
97.53125
 11
69.291528007
 21
90.53125
  0
POLYLINE
  8
0
 62
7
  6
CONTINUOUS
 66
1
 70
0
  0
VERTEX
  8
0
 62
7
  6
CONTINUOUS
 10
69.291528007
 20
118.53125
  0
VERTEX
  8
0
 62
7
  6
CONTINUOUS
 10
69.2939255763
 20
118.7535653924
  0
VERTEX
  8
0
 62
7
  6
CONTINUOUS
 10
69.3006253887
 20
118.9670064157
  0
VERTEX
  8
0
 62
7
  6
CONTINUOUS
 10
69.3101345421
 20
119.1622190773
  0
SEQEND
  0
LINE
  8
0
 62
7
  6
CONTINUOUS
 10
66.5822999653
 20
97.8761689841
 11
66.5709531915
 21
97.8422347467
  0
POLYLINE
  8
0
 62
7
  6
CONTINUOUS
 66
1
 70
0
  0
VERTEX
  8
0
 62
7
  6
CONTINUOUS
 10
56.0271482454
 20
89.53125
  0
VERTEX
  8
0
 62
7
  6
CONTINUOUS
 10
55.8680464825
 20
89.5669843836
  0
VERTEX
  8
0
 62
7
  6
CONTINUOUS
 10
55.7222935756
 20
89.6656193126
  0
VERTEX
  8
0
 62
7
  6
CONTINUOUS
 10
55.5989969897
 20
89.8127681767
  0
VERTEX
  8
0
 62
7
  6
CONTINUOUS
 10
55.547522104
 20
89.9002303581
  0
VERTEX
  8
0
 62
7
  6
CONTINUOUS
 10
55.4669787265
 20
90.0954358795
  0
VERTEX
  8
0
 62
7
  6
CONTINUOUS
 10
55.417953938
 20
90.3088703601
  0
VERTEX
  8
0
 62
7
  6
CONTINUOUS
 10
55.4014926766
 20
90.53125
  0
SEQEND
  0
POLYLINE
  8
0
 62
7
  6
CONTINUOUS
 66
1
 70
0
  0
VERTEX
  8
0
 62
7
  6
CONTINUOUS
 10
68.3844054084
 20
98.8638573247
  0
VERTEX
  8
0
 62
7
  6
CONTINUOUS
 10
68.6254129171
 20
98.6090322223
  0
VERTEX
  8
0
 62
7
  6
CONTINUOUS
 10
68.7509611769
 20
98.4889613995
  0
VERTEX
  8
0
 62
7
  6
CONTINUOUS
 10
68.9952432025
 20
98.2771206746
  0
SEQEND
  0
LINE
  8
0
 62
7
  6
CONTINUOUS
 10
66.5822999653
 20
111.1863310159
 11
66.5709531915
 21
111.2202652533
  0
POLYLINE
  8
0
 62
7
  6
CONTINUOUS
 66
1
 70
0
  0
VERTEX
  8
0
 62
7
  6
CONTINUOUS
 10
75.0393432968
 20
90.53125
  0
VERTEX
  8
0
 62
7
  6
CONTINUOUS
 10
75.0630573252
 20
90.3088694959
  0
VERTEX
  8
0
 62
7
  6
CONTINUOUS
 10
75.1345697047
 20
90.0954342992
  0
VERTEX
  8
0
 62
7
  6
CONTINUOUS
 10
75.2550568245
 20
89.9002280576
  0
VERTEX
  8
0
 62
7
  6
CONTINUOUS
 10
75.3341105264
 20
89.8127658861
  0
VERTEX
  8
0
 62
7
  6
CONTINUOUS
 10
75.5304662227
 20
89.6656170768
  0
VERTEX
  8
0
 62
7
  6
CONTINUOUS
 10
75.7766547616
 20
89.566983518
  0
VERTEX
  8
0
 62
7
  6
CONTINUOUS
 10
76.0655212542
 20
89.53125
  0
SEQEND
  0
LINE
  8
0
 62
7
  6
CONTINUOUS
 10
73.7350964556
 20
111.53125
 11
73.7350964556
 21
97.53125
  0
LINE
  8
0
 62
7
  6
CONTINUOUS
 10
75.0393432968
 20
118.53125
 11
75.0393432968
 21
111.53125
  0
LINE
  8
0
 62
7
  6
CONTINUOUS
 10
75.0393432968
 20
97.53125
 11
75.0393432968
 21
90.53125
  0
POLYLINE
  8
0
 62
7
  6
CONTINUOUS
 66
1
 70
0
  0
VERTEX
  8
0
 62
7
  6
CONTINUOUS
 10
69.3202726449
 20
89.53125
  0
VERTEX
  8
0
 62
7
  6
CONTINUOUS
 10
69.3269214009
 20
89.5669843836
  0
VERTEX
  8
0
 62
7
  6
CONTINUOUS
 10
69.3269822289
 20
89.5751936607
  0
SEQEND
  0
POLYLINE
  8
0
 62
7
  6
CONTINUOUS
 66
1
 70
0
  0
VERTEX
  8
0
 62
7
  6
CONTINUOUS
 10
66.8086361724
 20
98.2771206746
  0
VERTEX
  8
0
 62
7
  6
CONTINUOUS
 10
66.9306696444
 20
98.4889301
  0
VERTEX
  8
0
 62
7
  6
CONTINUOUS
 10
67.0138865741
 20
98.6089877509
  0
VERTEX
  8
0
 62
7
  6
CONTINUOUS
 10
67.2177877037
 20
98.8638573247
  0
SEQEND
  0
POLYLINE
  8
0
 62
7
  6
CONTINUOUS
 66
1
 70
0
  0
VERTEX
  8
0
 62
7
  6
CONTINUOUS
 10
66.5822999653
 20
97.8761689841
  0
VERTEX
  8
0
 62
7
  6
CONTINUOUS
 10
66.6285889982
 20
97.950315711
  0
VERTEX
  8
0
 62
7
  6
CONTINUOUS
 10
66.7092343674
 20
98.0887572833
  0
VERTEX
  8
0
 62
7
  6
CONTINUOUS
 10
66.8086361724
 20
98.2771206746
  0
SEQEND
  0
POLYLINE
  8
0
 62
7
  6
CONTINUOUS
 66
1
 70
0
  0
VERTEX
  8
0
 62
7
  6
CONTINUOUS
 10
68.9952432025
 20
110.7853793254
  0
VERTEX
  8
0
 62
7
  6
CONTINUOUS
 10
68.7510070899
 20
110.573581083
  0
VERTEX
  8
0
 62
7
  6
CONTINUOUS
 10
68.6253406429
 20
110.4533963497
  0
VERTEX
  8
0
 62
7
  6
CONTINUOUS
 10
68.3844054084
 20
110.1986426753
  0
SEQEND
  0
POLYLINE
  8
0
 62
7
  6
CONTINUOUS
 66
1
 70
0
  0
VERTEX
  8
0
 62
7
  6
CONTINUOUS
 10
43.6796417378
 20
111.1863310159
  0
VERTEX
  8
0
 62
7
  6
CONTINUOUS
 10
43.4220576401
 20
111.1123320526
  0
VERTEX
  8
0
 62
7
  6
CONTINUOUS
 10
43.1896070229
 20
110.9740901523
  0
VERTEX
  8
0
 62
7
  6
CONTINUOUS
 10
43.0050512498
 20
110.7853793254
  0
SEQEND
  0
POLYLINE
  8
0
 62
7
  6
CONTINUOUS
 66
1
 70
0
  0
VERTEX
  8
0
 62
7
  6
CONTINUOUS
 10
133.010690476
 20
89.53125
  0
VERTEX
  8
0
 62
7
  6
CONTINUOUS
 10
133.2929115689
 20
89.5669843836
  0
VERTEX
  8
0
 62
7
  6
CONTINUOUS
 10
133.542231859
 20
89.6656193126
  0
VERTEX
  8
0
 62
7
  6
CONTINUOUS
 10
133.7471868773
 20
89.8127681767
  0
VERTEX
  8
0
 62
7
  6
CONTINUOUS
 10
133.8312920297
 20
89.9002303581
  0
VERTEX
  8
0
 62
7
  6
CONTINUOUS
 10
133.9612876519
 20
90.0954358795
  0
VERTEX
  8
0
 62
7
  6
CONTINUOUS
 10
134.0395002801
 20
90.3088703601
  0
VERTEX
  8
0
 62
7
  6
CONTINUOUS
 10
134.0656130712
 20
90.53125
  0
SEQEND
  0
POLYLINE
  8
0
 62
7
  6
CONTINUOUS
 66
1
 70
0
  0
VERTEX
  8
0
 62
7
  6
CONTINUOUS
 10
109.5321349958
 20
89.53125
  0
VERTEX
  8
0
 62
7
  6
CONTINUOUS
 10
109.8210048448
 20
89.5669843836
  0
VERTEX
  8
0
 62
7
  6
CONTINUOUS
 10
110.0671939849
 20
89.6656193126
  0
VERTEX
  8
0
 62
7
  6
CONTINUOUS
 10
110.2635480704
 20
89.8127681767
  0
VERTEX
  8
0
 62
7
  6
CONTINUOUS
 10
110.3426012576
 20
89.9002303581
  0
VERTEX
  8
0
 62
7
  6
CONTINUOUS
 10
110.4630872799
 20
90.0954358795
  0
VERTEX
  8
0
 62
7
  6
CONTINUOUS
 10
110.5345991119
 20
90.3088703601
  0
VERTEX
  8
0
 62
7
  6
CONTINUOUS
 10
110.5583129532
 20
90.53125
  0
SEQEND
  0
POLYLINE
  8
0
 62
7
  6
CONTINUOUS
 66
1
 70
0
  0
VERTEX
  8
0
 62
7
  6
CONTINUOUS
 10
125.6761369042
 20
89.53125
  0
VERTEX
  8
0
 62
7
  6
CONTINUOUS
 10
126.0055443837
 20
89.5669145853
  0
VERTEX
  8
0
 62
7
  6
CONTINUOUS
 10
126.2914152541
 20
89.6653670178
  0
VERTEX
  8
0
 62
7
  6
CONTINUOUS
 10
126.5230225693
 20
89.8122655926
  0
VERTEX
  8
0
 62
7
  6
CONTINUOUS
 10
126.6172434993
 20
89.8996100767
  0
VERTEX
  8
0
 62
7
  6
CONTINUOUS
 10
126.7618401486
 20
90.0943494706
  0
VERTEX
  8
0
 62
7
  6
CONTINUOUS
 10
126.8484758472
 20
90.3072844015
  0
VERTEX
  8
0
 62
7
  6
CONTINUOUS
 10
126.8776608685
 20
90.53125
  0
SEQEND
  0
LINE
  8
0
 62
7
  6
CONTINUOUS
 10
52.3047480239
 20
89.566983518
 11
52.586965774
 21
89.53125
  0
POLYLINE
  8
0
 62
7
  6
CONTINUOUS
 66
1
 70
0
  0
VERTEX
  8
0
 62
7
  6
CONTINUOUS
 10
49.3037330517
 20
97.8761689841
  0
VERTEX
  8
0
 62
7
  6
CONTINUOUS
 10
49.4343570639
 20
97.8395436956
  0
VERTEX
  8
0
 62
7
  6
CONTINUOUS
 10
49.7628263862
 20
97.7600862258
  0
VERTEX
  8
0
 62
7
  6
CONTINUOUS
 10
49.9579365725
 20
97.7178771267
  0
VERTEX
  8
0
 62
7
  6
CONTINUOUS
 10
50.4014617859
 20
97.6302531419
  0
VERTEX
  8
0
 62
7
  6
CONTINUOUS
 10
50.645926104
 20
97.5856009952
  0
SEQEND
  0
POLYLINE
  8
0
 62
7
  6
CONTINUOUS
 66
1
 70
0
  0
VERTEX
  8
0
 62
7
  6
CONTINUOUS
 10
68.9952432025
 20
98.2771206746
  0
VERTEX
  8
0
 62
7
  6
CONTINUOUS
 10
69.2790454221
 20
98.088601368
  0
VERTEX
  8
0
 62
7
  6
CONTINUOUS
 10
69.5921174534
 20
97.9502597665
  0
VERTEX
  8
0
 62
7
  6
CONTINUOUS
 10
69.8961698975
 20
97.8761689841
  0
SEQEND
  0
POLYLINE
  8
0
 62
7
  6
CONTINUOUS
 66
1
 70
0
  0
VERTEX
  8
0
 62
7
  6
CONTINUOUS
 10
66.8086361724
 20
110.7853793254
  0
VERTEX
  8
0
 62
7
  6
CONTINUOUS
 10
66.709123943
 20
110.973938788
  0
VERTEX
  8
0
 62
7
  6
CONTINUOUS
 10
66.6285332889
 20
111.1122769242
  0
VERTEX
  8
0
 62
7
  6
CONTINUOUS
 10
66.5822999653
 20
111.1863310159
  0
SEQEND
  0
POLYLINE
  8
0
 62
7
  6
CONTINUOUS
 66
1
 70
0
  0
VERTEX
  8
0
 62
7
  6
CONTINUOUS
 10
71.2932167287
 20
111.4768990048
  0
VERTEX
  8
0
 62
7
  6
CONTINUOUS
 10
71.3751020004
 20
111.5049260165
  0
VERTEX
  8
0
 62
7
  6
CONTINUOUS
 10
71.4165642677
 20
111.5189383406
  0
SEQEND
  0
LINE
  8
0
 62
7
  6
CONTINUOUS
 10
67.1880301783
 20
111.5189383406
 11
67.0461498297
 21
111.4768990048
  0
POLYLINE
  8
0
 62
7
  6
CONTINUOUS
 66
1
 70
0
  0
VERTEX
  8
0
 62
7
  6
CONTINUOUS
 10
134.3806595008
 20
97.8761689841
  0
VERTEX
  8
0
 62
7
  6
CONTINUOUS
 10
134.7052126371
 20
97.950315711
  0
VERTEX
  8
0
 62
7
  6
CONTINUOUS
 10
135.0202977022
 20
98.0887572833
  0
VERTEX
  8
0
 62
7
  6
CONTINUOUS
 10
135.2902847706
 20
98.2771206746
  0
SEQEND
  0
POLYLINE
  8
0
 62
7
  6
CONTINUOUS
 66
1
 70
0
  0
VERTEX
  8
0
 62
7
  6
CONTINUOUS
 10
88.9044570247
 20
89.53125
  0
VERTEX
  8
0
 62
7
  6
CONTINUOUS
 10
89.0750747708
 20
89.5669843836
  0
VERTEX
  8
0
 62
7
  6
CONTINUOUS
 10
89.2154043668
 20
89.6656193126
  0
VERTEX
  8
0
 62
7
  6
CONTINUOUS
 10
89.3238037
 20
89.8127681767
  0
VERTEX
  8
0
 62
7
  6
CONTINUOUS
 10
89.3665283256
 20
89.9002303581
  0
VERTEX
  8
0
 62
7
  6
CONTINUOUS
 10
89.4306005929
 20
90.0954358795
  0
VERTEX
  8
0
 62
7
  6
CONTINUOUS
 10
89.4680192618
 20
90.3088703601
  0
VERTEX
  8
0
 62
7
  6
CONTINUOUS
 10
89.4803254202
 20
90.53125
  0
SEQEND
  0
LINE
  8
0
 62
7
  6
CONTINUOUS
 10
132.2753408014
 20
97.5435616594
 11
132.4996849286
 21
97.5856009952
  0
POLYLINE
  8
0
 62
7
  6
CONTINUOUS
 66
1
 70
0
  0
VERTEX
  8
0
 62
7
  6
CONTINUOUS
 10
134.951730146
 20
97.5856009952
  0
VERTEX
  8
0
 62
7
  6
CONTINUOUS
 10
135.1960544516
 20
97.6302269173
  0
VERTEX
  8
0
 62
7
  6
CONTINUOUS
 10
135.6395357279
 20
97.7178385898
  0
VERTEX
  8
0
 62
7
  6
CONTINUOUS
 10
135.8347034313
 20
97.7600579196
  0
VERTEX
  8
0
 62
7
  6
CONTINUOUS
 10
136.1633287963
 20
97.839551556
  0
VERTEX
  8
0
 62
7
  6
CONTINUOUS
 10
136.2939231983
 20
97.8761689841
  0
SEQEND
  0
LINE
  8
0
 62
7
  6
CONTINUOUS
 10
134.951730146
 20
97.5856009952
 11
134.7166860963
 21
97.5435616594
  0
LINE
  8
0
 62
7
  6
CONTINUOUS
 10
141.95526259
 20
97.8761689841
 11
139.85526259
 21
97.5435616594
  0
LINE
  8
0
 62
7
  6
CONTINUOUS
 10
140.3394189751
 20
97.6302531419
 11
139.791889929
 21
97.5435616594
  0
LINE
  8
0
 62
7
  6
CONTINUOUS
 10
141.1679674438
 20
97.7600862258
 11
140.3394189751
 21
97.6302531419
  0
LINE
  8
0
 62
7
  6
CONTINUOUS
 10
141.9180145122
 20
97.8761689841
 11
141.1679674438
 21
97.7600862258
  0
LINE
  8
0
 62
7
  6
CONTINUOUS
 10
133.198828125
 20
89.53125
 11
52.398828125
 21
89.53125
  0
LINE
  8
0
 62
7
  6
CONTINUOUS
 10
44.7005417394
 20
97.7178385898
 11
43.6796417378
 21
97.8761689841
  0
LINE
  8
0
 62
7
  6
CONTINUOUS
 10
43.64239366
 20
97.8761689841
 11
45.74239366
 21
97.5435616594
  0
LINE
  8
0
 62
7
  6
CONTINUOUS
 10
44.7005417394
 20
97.7178385898
 11
45.805766321
 21
97.5435616594
  0
LINE
  8
0
 62
7
  6
CONTINUOUS
 10
50.8809701537
 20
97.5435616594
 11
50.645926104
 21
97.5856009952
  0
POLYLINE
  8
0
 62
7
  6
CONTINUOUS
 66
1
 70
0
  0
VERTEX
  8
0
 62
7
  6
CONTINUOUS
 10
53.0979713214
 20
97.5856009952
  0
VERTEX
  8
0
 62
7
  6
CONTINUOUS
 10
52.8536235448
 20
97.6302269173
  0
VERTEX
  8
0
 62
7
  6
CONTINUOUS
 10
52.330859951
 20
97.7178385898
  0
VERTEX
  8
0
 62
7
  6
CONTINUOUS
 10
52.0572116149
 20
97.7600579196
  0
VERTEX
  8
0
 62
7
  6
CONTINUOUS
 10
51.4977226912
 20
97.839551556
  0
VERTEX
  8
0
 62
7
  6
CONTINUOUS
 10
51.2169967492
 20
97.8761689841
  0
SEQEND
  0
LINE
  8
0
 62
7
  6
CONTINUOUS
 10
53.0979713214
 20
97.5856009952
 11
53.3223154486
 21
97.5435616594
  0
LINE
  8
0
 62
7
  6
CONTINUOUS
 10
67.1880301783
 20
97.5435616594
 11
67.0461498297
 21
97.5856009952
  0
POLYLINE
  8
0
 62
7
  6
CONTINUOUS
 66
1
 70
0
  0
VERTEX
  8
0
 62
7
  6
CONTINUOUS
 10
71.2932167287
 20
97.5856009952
  0
VERTEX
  8
0
 62
7
  6
CONTINUOUS
 10
71.3339858745
 20
97.5715871919
  0
VERTEX
  8
0
 62
7
  6
CONTINUOUS
 10
71.4165642677
 20
97.5435616594
  0
SEQEND
  0
POLYLINE
  8
0
 62
7
  6
CONTINUOUS
 66
1
 70
0
  0
VERTEX
  8
0
 62
7
  6
CONTINUOUS
 10
67.2177877037
 20
110.1986426753
  0
VERTEX
  8
0
 62
7
  6
CONTINUOUS
 10
67.0139372201
 20
110.4534428296
  0
VERTEX
  8
0
 62
7
  6
CONTINUOUS
 10
66.9306398598
 20
110.5736153641
  0
VERTEX
  8
0
 62
7
  6
CONTINUOUS
 10
66.8086361724
 20
110.7853793254
  0
SEQEND
  0
POLYLINE
  8
0
 62
7
  6
CONTINUOUS
 66
1
 70
0
  0
VERTEX
  8
0
 62
7
  6
CONTINUOUS
 10
71.2932167287
 20
111.4768990048
  0
VERTEX
  8
0
 62
7
  6
CONTINUOUS
 10
71.1521289232
 20
111.4322730827
  0
VERTEX
  8
0
 62
7
  6
CONTINUOUS
 10
70.8045375542
 20
111.3446614102
  0
VERTEX
  8
0
 62
7
  6
CONTINUOUS
 10
70.6012357993
 20
111.3024420804
  0
VERTEX
  8
0
 62
7
  6
CONTINUOUS
 10
70.1449255807
 20
111.222948444
  0
VERTEX
  8
0
 62
7
  6
CONTINUOUS
 10
69.8961698975
 20
111.1863310159
  0
SEQEND
  0
POLYLINE
  8
0
 62
7
  6
CONTINUOUS
 66
1
 70
0
  0
VERTEX
  8
0
 62
7
  6
CONTINUOUS
 10
118.4096260717
 20
97.5435616594
  0
VERTEX
  8
0
 62
7
  6
CONTINUOUS
 10
118.3822304051
 20
97.5367290082
  0
VERTEX
  8
0
 62
7
  6
CONTINUOUS
 10
118.3547854642
 20
97.5326201671
  0
VERTEX
  8
0
 62
7
  6
CONTINUOUS
 10
118.3273904209
 20
97.53125
  0
SEQEND
  0
POLYLINE
  8
0
 62
7
  6
CONTINUOUS
 66
1
 70
0
  0
VERTEX
  8
0
 62
7
  6
CONTINUOUS
 10
115.7014863525
 20
97.8761689841
  0
VERTEX
  8
0
 62
7
  6
CONTINUOUS
 10
116.0057021298
 20
97.950315711
  0
VERTEX
  8
0
 62
7
  6
CONTINUOUS
 10
116.3188964852
 20
98.0887572833
  0
VERTEX
  8
0
 62
7
  6
CONTINUOUS
 10
116.6024130475
 20
98.2771206746
  0
SEQEND
  0
POLYLINE
  8
0
 62
7
  6
CONTINUOUS
 66
1
 70
0
  0
VERTEX
  8
0
 62
7
  6
CONTINUOUS
 10
134.7166860963
 20
97.5435616594
  0
VERTEX
  8
0
 62
7
  6
CONTINUOUS
 10
134.6709162214
 20
97.5367290082
  0
VERTEX
  8
0
 62
7
  6
CONTINUOUS
 10
134.624935243
 20
97.5326201671
  0
VERTEX
  8
0
 62
7
  6
CONTINUOUS
 10
134.5789076782
 20
97.53125
  0
SEQEND
  0
POLYLINE
  8
0
 62
7
  6
CONTINUOUS
 66
1
 70
0
  0
VERTEX
  8
0
 62
7
  6
CONTINUOUS
 10
134.3806595008
 20
97.8761689841
  0
VERTEX
  8
0
 62
7
  6
CONTINUOUS
 10
134.0998750172
 20
97.8395436956
  0
VERTEX
  8
0
 62
7
  6
CONTINUOUS
 10
133.5406332047
 20
97.7600862258
  0
VERTEX
  8
0
 62
7
  6
CONTINUOUS
 10
133.2670393412
 20
97.7178771267
  0
VERTEX
  8
0
 62
7
  6
CONTINUOUS
 10
132.74418056
 20
97.6302531419
  0
VERTEX
  8
0
 62
7
  6
CONTINUOUS
 10
132.4996849286
 20
97.5856009952
  0
SEQEND
  0
POLYLINE
  8
0
 62
7
  6
CONTINUOUS
 66
1
 70
0
  0
VERTEX
  8
0
 62
7
  6
CONTINUOUS
 10
139.6878133969
 20
97.5326201671
  0
VERTEX
  8
0
 62
7
  6
CONTINUOUS
 10
139.7400098469
 20
97.5367290082
  0
VERTEX
  8
0
 62
7
  6
CONTINUOUS
 10
139.791889929
 20
97.5435616594
  0
SEQEND
  0
LINE
  8
0
 62
7
  6
CONTINUOUS
 10
45.8576464031
 20
97.5367290082
 11
45.9098428531
 21
97.5326201671
  0
LINE
  8
0
 62
7
  6
CONTINUOUS
 10
45.805766321
 20
97.5435616594
 11
45.8576464031
 21
97.5367290082
  0
POLYLINE
  8
0
 62
7
  6
CONTINUOUS
 66
1
 70
0
  0
VERTEX
  8
0
 62
7
  6
CONTINUOUS
 10
53.3223154486
 20
97.5435616594
  0
VERTEX
  8
0
 62
7
  6
CONTINUOUS
 10
53.3664045118
 20
97.5367290082
  0
VERTEX
  8
0
 62
7
  6
CONTINUOUS
 10
53.4108304367
 20
97.5326201671
  0
VERTEX
  8
0
 62
7
  6
CONTINUOUS
 10
53.4554359593
 20
97.53125
  0
SEQEND
  0
POLYLINE
  8
0
 62
7
  6
CONTINUOUS
 66
1
 70
0
  0
VERTEX
  8
0
 62
7
  6
CONTINUOUS
 10
71.4165642677
 20
97.5435616594
  0
VERTEX
  8
0
 62
7
  6
CONTINUOUS
 10
71.4410486832
 20
97.5367290082
  0
VERTEX
  8
0
 62
7
  6
CONTINUOUS
 10
71.4658001924
 20
97.5326201671
  0
VERTEX
  8
0
 62
7
  6
CONTINUOUS
 10
71.4907321864
 20
97.53125
  0
SEQEND
  0
POLYLINE
  8
0
 62
7
  6
CONTINUOUS
 66
1
 70
0
  0
VERTEX
  8
0
 62
7
  6
CONTINUOUS
 10
71.2932167287
 20
97.5856009952
  0
VERTEX
  8
0
 62
7
  6
CONTINUOUS
 10
71.1521289232
 20
97.6302269173
  0
VERTEX
  8
0
 62
7
  6
CONTINUOUS
 10
70.8045375542
 20
97.7178385898
  0
VERTEX
  8
0
 62
7
  6
CONTINUOUS
 10
70.6012357993
 20
97.7600579196
  0
VERTEX
  8
0
 62
7
  6
CONTINUOUS
 10
70.1449255807
 20
97.839551556
  0
VERTEX
  8
0
 62
7
  6
CONTINUOUS
 10
69.8961698975
 20
97.8761689841
  0
SEQEND
  0
LINE
  8
0
 62
7
  6
CONTINUOUS
 10
83.1698950314
 20
119.53125
 11
83.1698950314
 21
89.53125
  0
POLYLINE
  8
0
 62
7
  6
CONTINUOUS
 66
1
 70
0
  0
VERTEX
  8
0
 62
7
  6
CONTINUOUS
 10
115.7014863525
 20
97.8761689841
  0
VERTEX
  8
0
 62
7
  6
CONTINUOUS
 10
115.4526801666
 20
97.8395436956
  0
VERTEX
  8
0
 62
7
  6
CONTINUOUS
 10
114.9965651964
 20
97.7600862258
  0
VERTEX
  8
0
 62
7
  6
CONTINUOUS
 10
114.7932931335
 20
97.7178771267
  0
VERTEX
  8
0
 62
7
  6
CONTINUOUS
 10
114.4456172186
 20
97.6302531419
  0
VERTEX
  8
0
 62
7
  6
CONTINUOUS
 10
114.3044395213
 20
97.5856009952
  0
SEQEND
  0
POLYLINE
  8
0
 62
7
  6
CONTINUOUS
 66
1
 70
0
  0
VERTEX
  8
0
 62
7
  6
CONTINUOUS
 10
114.1069240636
 20
97.53125
  0
VERTEX
  8
0
 62
7
  6
CONTINUOUS
 10
114.1318560576
 20
97.5326201671
  0
VERTEX
  8
0
 62
7
  6
CONTINUOUS
 10
114.1566075668
 20
97.5367290082
  0
VERTEX
  8
0
 62
7
  6
CONTINUOUS
 10
114.1810919823
 20
97.5435616594
  0
SEQEND
  0
POLYLINE
  8
0
 62
7
  6
CONTINUOUS
 66
1
 70
0
  0
VERTEX
  8
0
 62
7
  6
CONTINUOUS
 10
132.1422202907
 20
97.53125
  0
VERTEX
  8
0
 62
7
  6
CONTINUOUS
 10
132.1868258133
 20
97.5326201671
  0
VERTEX
  8
0
 62
7
  6
CONTINUOUS
 10
132.2312517382
 20
97.5367290082
  0
VERTEX
  8
0
 62
7
  6
CONTINUOUS
 10
132.2753408014
 20
97.5435616594
  0
SEQEND
  0
LINE
  8
0
 62
7
  6
CONTINUOUS
 10
139.6354863595
 20
97.53125
 11
139.6878133969
 21
97.5326201671
  0
LINE
  8
0
 62
7
  6
CONTINUOUS
 10
95.2355155125
 20
97.53125
 11
90.3621407375
 21
97.53125
  0
LINE
  8
0
 62
7
  6
CONTINUOUS
 10
45.9621698905
 20
97.53125
 11
58.7199953815
 21
97.53125
  0
LINE
  8
0
 62
7
  6
CONTINUOUS
 10
67.2702658291
 20
97.53125
 11
75.0393432968
 21
97.53125
  0
LINE
  8
0
 62
7
  6
CONTINUOUS
 10
89.4803254202
 20
97.53125
 11
90.3574828302
 21
97.53125
  0
LINE
  8
0
 62
7
  6
CONTINUOUS
 10
95.2401734198
 20
97.53125
 11
96.1173308298
 21
97.53125
  0
LINE
  8
0
 62
7
  6
CONTINUOUS
 10
110.5583129532
 20
97.53125
 11
118.3273904209
 21
97.53125
  0
LINE
  8
0
 62
7
  6
CONTINUOUS
 10
126.8776608685
 20
97.53125
 11
139.6354863595
 21
97.53125
  0
LINE
  8
0
 62
7
  6
CONTINUOUS
 10
45.9098428531
 20
97.5326201671
 11
45.9621698905
 21
97.53125
  0
POLYLINE
  8
0
 62
7
  6
CONTINUOUS
 66
1
 70
0
  0
VERTEX
  8
0
 62
7
  6
CONTINUOUS
 10
51.0187485718
 20
97.53125
  0
VERTEX
  8
0
 62
7
  6
CONTINUOUS
 10
50.972721007
 20
97.5326201671
  0
VERTEX
  8
0
 62
7
  6
CONTINUOUS
 10
50.9267400286
 20
97.5367290082
  0
VERTEX
  8
0
 62
7
  6
CONTINUOUS
 10
50.8809701537
 20
97.5435616594
  0
SEQEND
  0
POLYLINE
  8
0
 62
7
  6
CONTINUOUS
 66
1
 70
0
  0
VERTEX
  8
0
 62
7
  6
CONTINUOUS
 10
67.2702658291
 20
97.53125
  0
VERTEX
  8
0
 62
7
  6
CONTINUOUS
 10
67.2428707858
 20
97.5326201671
  0
VERTEX
  8
0
 62
7
  6
CONTINUOUS
 10
67.2154258449
 20
97.5367290082
  0
VERTEX
  8
0
 62
7
  6
CONTINUOUS
 10
67.1880301783
 20
97.5435616594
  0
SEQEND
  0
POLYLINE
  8
0
 62
7
  6
CONTINUOUS
 66
1
 70
0
  0
VERTEX
  8
0
 62
7
  6
CONTINUOUS
 10
90.3621407375
 20
97.53125
  0
VERTEX
  8
0
 62
7
  6
CONTINUOUS
 10
90.3607186953
 20
97.5326201671
  0
VERTEX
  8
0
 62
7
  6
CONTINUOUS
 10
90.3591636418
 20
97.5367290082
  0
VERTEX
  8
0
 62
7
  6
CONTINUOUS
 10
90.3574828302
 20
97.5435616594
  0
SEQEND
  0
LINE
  8
0
 62
7
  6
CONTINUOUS
 10
89.4803254202
 20
97.53125
 11
89.4803254202
 21
90.53125
  0
LINE
  8
0
 62
7
  6
CONTINUOUS
 10
89.4803254202
 20
111.53125
 11
89.4803254202
 21
118.53125
  0
LINE
  8
0
 62
7
  6
CONTINUOUS
 10
90.343476125
 20
111.4545747365
 11
90.3467829076
 21
111.4768990048
  0
POLYLINE
  8
0
 62
7
  6
CONTINUOUS
 66
1
 70
0
  0
VERTEX
  8
0
 62
7
  6
CONTINUOUS
 10
90.3574828302
 20
111.5189383406
  0
VERTEX
  8
0
 62
7
  6
CONTINUOUS
 10
90.3543073387
 20
111.5049260175
  0
VERTEX
  8
0
 62
7
  6
CONTINUOUS
 10
90.3507406749
 20
111.4909128114
  0
VERTEX
  8
0
 62
7
  6
CONTINUOUS
 10
90.3467829076
 20
111.4768990048
  0
SEQEND
  0
POLYLINE
  8
0
 62
7
  6
CONTINUOUS
 66
1
 70
0
  0
VERTEX
  8
0
 62
7
  6
CONTINUOUS
 10
90.3574828302
 20
111.5189383406
  0
VERTEX
  8
0
 62
7
  6
CONTINUOUS
 10
90.3591634261
 20
111.5257702623
  0
VERTEX
  8
0
 62
7
  6
CONTINUOUS
 10
90.3607187127
 20
111.5298798648
  0
VERTEX
  8
0
 62
7
  6
CONTINUOUS
 10
90.3621407375
 20
111.53125
  0
SEQEND
  0
POLYLINE
  8
0
 62
7
  6
CONTINUOUS
 66
1
 70
0
  0
VERTEX
  8
0
 62
7
  6
CONTINUOUS
 10
94.0612662824
 20
110.7853793254
  0
VERTEX
  8
0
 62
7
  6
CONTINUOUS
 10
93.729152746
 20
110.4533963497
  0
VERTEX
  8
0
 62
7
  6
CONTINUOUS
 10
93.4723751709
 20
110.1986426753
  0
SEQEND
  0
POLYLINE
  8
0
 62
7
  6
CONTINUOUS
 66
1
 70
0
  0
VERTEX
  8
0
 62
7
  6
CONTINUOUS
 10
94.7120918225
 20
111.1863310159
  0
VERTEX
  8
0
 62
7
  6
CONTINUOUS
 10
94.5100282144
 20
111.1123320526
  0
VERTEX
  8
0
 62
7
  6
CONTINUOUS
 10
94.2828248756
 20
110.9740901523
  0
VERTEX
  8
0
 62
7
  6
CONTINUOUS
 10
94.0612662824
 20
110.7853793254
  0
SEQEND
  0
POLYLINE
  8
0
 62
7
  6
CONTINUOUS
 66
1
 70
0
  0
VERTEX
  8
0
 62
7
  6
CONTINUOUS
 10
90.8855644275
 20
97.8761689841
  0
VERTEX
  8
0
 62
7
  6
CONTINUOUS
 10
90.7354039561
 20
97.8395436956
  0
VERTEX
  8
0
 62
7
  6
CONTINUOUS
 10
90.5046314659
 20
97.7600862258
  0
VERTEX
  8
0
 62
7
  6
CONTINUOUS
 10
90.4261477888
 20
97.7178771267
  0
VERTEX
  8
0
 62
7
  6
CONTINUOUS
 10
90.3468142208
 20
97.6302531419
  0
VERTEX
  8
0
 62
7
  6
CONTINUOUS
 10
90.343476125
 20
97.6079252635
  0
SEQEND
  0
POLYLINE
  8
0
 62
7
  6
CONTINUOUS
 66
1
 70
0
  0
VERTEX
  8
0
 62
7
  6
CONTINUOUS
 10
94.0612662824
 20
98.2771206746
  0
VERTEX
  8
0
 62
7
  6
CONTINUOUS
 10
94.2825599252
 20
98.088601368
  0
VERTEX
  8
0
 62
7
  6
CONTINUOUS
 10
94.5098415006
 20
97.9502597665
  0
VERTEX
  8
0
 62
7
  6
CONTINUOUS
 10
94.7120918225
 20
97.8761689841
  0
SEQEND
  0
POLYLINE
  8
0
 62
7
  6
CONTINUOUS
 66
1
 70
0
  0
VERTEX
  8
0
 62
7
  6
CONTINUOUS
 10
93.4723751709
 20
98.8638573247
  0
VERTEX
  8
0
 62
7
  6
CONTINUOUS
 10
93.8497620923
 20
98.4889613995
  0
VERTEX
  8
0
 62
7
  6
CONTINUOUS
 10
94.0612662824
 20
98.2771206746
  0
SEQEND
  0
POLYLINE
  8
0
 62
7
  6
CONTINUOUS
 66
1
 70
0
  0
VERTEX
  8
0
 62
7
  6
CONTINUOUS
 10
90.3574828302
 20
97.5435616594
  0
VERTEX
  8
0
 62
7
  6
CONTINUOUS
 10
90.3543073387
 20
97.5575739825
  0
VERTEX
  8
0
 62
7
  6
CONTINUOUS
 10
90.3507406749
 20
97.5715871886
  0
VERTEX
  8
0
 62
7
  6
CONTINUOUS
 10
90.3467829076
 20
97.5856009952
  0
SEQEND
  0
LINE
  8
0
 62
7
  6
CONTINUOUS
 10
90.343476125
 20
97.6079252635
 11
90.3467829076
 21
97.5856009952
  0
POLYLINE
  8
0
 62
7
  6
CONTINUOUS
 66
1
 70
0
  0
VERTEX
  8
0
 62
7
  6
CONTINUOUS
 10
89.4803254202
 20
118.53125
  0
VERTEX
  8
0
 62
7
  6
CONTINUOUS
 10
89.4680264918
 20
118.7535653924
  0
VERTEX
  8
0
 62
7
  6
CONTINUOUS
 10
89.4306147147
 20
118.9670064157
  0
VERTEX
  8
0
 62
7
  6
CONTINUOUS
 10
89.366549952
 20
119.1622190773
  0
VERTEX
  8
0
 62
7
  6
CONTINUOUS
 10
89.3238395128
 20
119.2496675393
  0
VERTEX
  8
0
 62
7
  6
CONTINUOUS
 10
89.2154513112
 20
119.3968333368
  0
VERTEX
  8
0
 62
7
  6
CONTINUOUS
 10
89.0751487705
 20
119.495482684
  0
VERTEX
  8
0
 62
7
  6
CONTINUOUS
 10
88.9044570247
 20
119.53125
  0
SEQEND
  0
LINE
  8
0
 62
7
  6
CONTINUOUS
 10
90.067152597
 20
111.53125
 11
90.067152597
 21
97.53125
  0
LINE
  8
0
 62
7
  6
CONTINUOUS
 10
90.343476125
 20
111.4545983922
 11
90.343476125
 21
97.6079016078
  0
LINE
  8
DEFAULT_1
 62
2
  6
CENTER
 10
92.798828125
 20
87.53125
 11
92.798828125
 21
121.53125
  0
POLYLINE
  8
0
 62
7
  6
CONTINUOUS
 66
1
 70
0
  0
VERTEX
  8
0
 62
7
  6
CONTINUOUS
 10
96.1173308298
 20
90.53125
  0
VERTEX
  8
0
 62
7
  6
CONTINUOUS
 10
96.1296370854
 20
90.3088694959
  0
VERTEX
  8
0
 62
7
  6
CONTINUOUS
 10
96.1670560438
 20
90.0954342992
  0
VERTEX
  8
0
 62
7
  6
CONTINUOUS
 10
96.2311289084
 20
89.9002280576
  0
VERTEX
  8
0
 62
7
  6
CONTINUOUS
 10
96.2738538262
 20
89.8127658861
  0
VERTEX
  8
0
 62
7
  6
CONTINUOUS
 10
96.3822541001
 20
89.6656170768
  0
VERTEX
  8
0
 62
7
  6
CONTINUOUS
 10
96.5225834248
 20
89.566983518
  0
VERTEX
  8
0
 62
7
  6
CONTINUOUS
 10
96.6931992253
 20
89.53125
  0
SEQEND
  0
LINE
  8
0
 62
7
  6
CONTINUOUS
 10
95.254180125
 20
111.4545983922
 11
95.254180125
 21
97.6079016078
  0
LINE
  8
0
 62
7
  6
CONTINUOUS
 10
95.530503653
 20
111.53125
 11
95.530503653
 21
97.53125
  0
LINE
  8
0
 62
7
  6
CONTINUOUS
 10
96.1173308298
 20
118.53125
 11
96.1173308298
 21
111.53125
  0
LINE
  8
0
 62
7
  6
CONTINUOUS
 10
96.1173308298
 20
97.53125
 11
96.1173308298
 21
90.53125
  0
LINE
  8
0
 62
7
  6
CONTINUOUS
 10
95.2508733424
 20
97.5856009952
 11
95.254180125
 21
97.6079252453
  0
POLYLINE
  8
0
 62
7
  6
CONTINUOUS
 66
1
 70
0
  0
VERTEX
  8
0
 62
7
  6
CONTINUOUS
 10
95.254180125
 20
111.4545747547
  0
VERTEX
  8
0
 62
7
  6
CONTINUOUS
 10
95.2508498714
 20
111.4322730827
  0
VERTEX
  8
0
 62
7
  6
CONTINUOUS
 10
95.1715675539
 20
111.3446614102
  0
VERTEX
  8
0
 62
7
  6
CONTINUOUS
 10
95.0930869213
 20
111.3024420804
  0
VERTEX
  8
0
 62
7
  6
CONTINUOUS
 10
94.8622233624
 20
111.222948444
  0
VERTEX
  8
0
 62
7
  6
CONTINUOUS
 10
94.7120918225
 20
111.1863310159
  0
SEQEND
  0
POLYLINE
  8
0
 62
7
  6
CONTINUOUS
 66
1
 70
0
  0
VERTEX
  8
0
 62
7
  6
CONTINUOUS
 10
91.5363899676
 20
98.2771206746
  0
VERTEX
  8
0
 62
7
  6
CONTINUOUS
 10
91.8683869765
 20
98.6089877509
  0
VERTEX
  8
0
 62
7
  6
CONTINUOUS
 10
92.1252810791
 20
98.8638573247
  0
SEQEND
  0
POLYLINE
  8
0
 62
7
  6
CONTINUOUS
 66
1
 70
0
  0
VERTEX
  8
0
 62
7
  6
CONTINUOUS
 10
91.5363899676
 20
110.7853793254
  0
VERTEX
  8
0
 62
7
  6
CONTINUOUS
 10
91.3150407809
 20
110.973938788
  0
VERTEX
  8
0
 62
7
  6
CONTINUOUS
 10
91.0877401483
 20
111.1122769242
  0
VERTEX
  8
0
 62
7
  6
CONTINUOUS
 10
90.8855644275
 20
111.1863310159
  0
SEQEND
  0
POLYLINE
  8
0
 62
7
  6
CONTINUOUS
 66
1
 70
0
  0
VERTEX
  8
0
 62
7
  6
CONTINUOUS
 10
92.1252810791
 20
110.1986426753
  0
VERTEX
  8
0
 62
7
  6
CONTINUOUS
 10
91.7478172238
 20
110.5736153641
  0
VERTEX
  8
0
 62
7
  6
CONTINUOUS
 10
91.5363899676
 20
110.7853793254
  0
SEQEND
  0
POLYLINE
  8
0
 62
7
  6
CONTINUOUS
 66
1
 70
0
  0
VERTEX
  8
0
 62
7
  6
CONTINUOUS
 10
95.254180125
 20
97.6079252453
  0
VERTEX
  8
0
 62
7
  6
CONTINUOUS
 10
95.2508498714
 20
97.6302269173
  0
VERTEX
  8
0
 62
7
  6
CONTINUOUS
 10
95.1715675539
 20
97.7178385898
  0
VERTEX
  8
0
 62
7
  6
CONTINUOUS
 10
95.0930869213
 20
97.7600579196
  0
VERTEX
  8
0
 62
7
  6
CONTINUOUS
 10
94.8622233624
 20
97.839551556
  0
VERTEX
  8
0
 62
7
  6
CONTINUOUS
 10
94.7120918225
 20
97.8761689841
  0
SEQEND
  0
LINE
  8
0
 62
7
  6
CONTINUOUS
 10
95.2508733424
 20
111.4768990048
 11
95.254180125
 21
111.4545747547
  0
POLYLINE
  8
0
 62
7
  6
CONTINUOUS
 66
1
 70
0
  0
VERTEX
  8
0
 62
7
  6
CONTINUOUS
 10
95.2401734198
 20
97.5435616594
  0
VERTEX
  8
0
 62
7
  6
CONTINUOUS
 10
95.2384926082
 20
97.5367290082
  0
VERTEX
  8
0
 62
7
  6
CONTINUOUS
 10
95.2369375547
 20
97.5326201671
  0
VERTEX
  8
0
 62
7
  6
CONTINUOUS
 10
95.2355155125
 20
97.53125
  0
SEQEND
  0
POLYLINE
  8
0
 62
7
  6
CONTINUOUS
 66
1
 70
0
  0
VERTEX
  8
0
 62
7
  6
CONTINUOUS
 10
95.2508733424
 20
97.5856009952
  0
VERTEX
  8
0
 62
7
  6
CONTINUOUS
 10
95.246915576
 20
97.5715871919
  0
VERTEX
  8
0
 62
7
  6
CONTINUOUS
 10
95.2433489115
 20
97.5575739835
  0
VERTEX
  8
0
 62
7
  6
CONTINUOUS
 10
95.2401734198
 20
97.5435616594
  0
SEQEND
  0
POLYLINE
  8
0
 62
7
  6
CONTINUOUS
 66
1
 70
0
  0
VERTEX
  8
0
 62
7
  6
CONTINUOUS
 10
90.8855644275
 20
97.8761689841
  0
VERTEX
  8
0
 62
7
  6
CONTINUOUS
 10
91.0879284741
 20
97.950315711
  0
VERTEX
  8
0
 62
7
  6
CONTINUOUS
 10
91.3153119451
 20
98.0887572833
  0
VERTEX
  8
0
 62
7
  6
CONTINUOUS
 10
91.5363899676
 20
98.2771206746
  0
SEQEND
  0
LINE
  8
0
 62
7
  6
CONTINUOUS
 10
45.9621698905
 20
111.53125
 11
58.7199953815
 21
111.53125
  0
LINE
  8
0
 62
7
  6
CONTINUOUS
 10
67.2702658291
 20
111.53125
 11
75.0393432968
 21
111.53125
  0
LINE
  8
0
 62
7
  6
CONTINUOUS
 10
89.4803254202
 20
111.53125
 11
90.3574828302
 21
111.53125
  0
LINE
  8
0
 62
7
  6
CONTINUOUS
 10
90.3621407375
 20
111.53125
 11
95.2355155125
 21
111.53125
  0
LINE
  8
0
 62
7
  6
CONTINUOUS
 10
95.2401734198
 20
111.53125
 11
96.1173308298
 21
111.53125
  0
LINE
  8
0
 62
7
  6
CONTINUOUS
 10
110.5583129532
 20
111.53125
 11
118.3273904209
 21
111.53125
  0
LINE
  8
0
 62
7
  6
CONTINUOUS
 10
126.8776608685
 20
111.53125
 11
139.6354863595
 21
111.53125
  0
POLYLINE
  8
0
 62
7
  6
CONTINUOUS
 66
1
 70
0
  0
VERTEX
  8
0
 62
7
  6
CONTINUOUS
 10
90.8855644275
 20
111.1863310159
  0
VERTEX
  8
0
 62
7
  6
CONTINUOUS
 10
90.7354039561
 20
111.2229563044
  0
VERTEX
  8
0
 62
7
  6
CONTINUOUS
 10
90.5046314659
 20
111.3024137742
  0
VERTEX
  8
0
 62
7
  6
CONTINUOUS
 10
90.4261477888
 20
111.3446228733
  0
VERTEX
  8
0
 62
7
  6
CONTINUOUS
 10
90.3468142208
 20
111.4322468581
  0
VERTEX
  8
0
 62
7
  6
CONTINUOUS
 10
90.343476125
 20
111.4545747365
  0
SEQEND
  0
POLYLINE
  8
0
 62
7
  6
CONTINUOUS
 66
1
 70
0
  0
VERTEX
  8
0
 62
7
  6
CONTINUOUS
 10
95.2355155125
 20
111.53125
  0
VERTEX
  8
0
 62
7
  6
CONTINUOUS
 10
95.2369375373
 20
111.5298798648
  0
VERTEX
  8
0
 62
7
  6
CONTINUOUS
 10
95.2384928239
 20
111.5257702623
  0
VERTEX
  8
0
 62
7
  6
CONTINUOUS
 10
95.2401734198
 20
111.5189383406
  0
SEQEND
  0
POLYLINE
  8
0
 62
7
  6
CONTINUOUS
 66
1
 70
0
  0
VERTEX
  8
0
 62
7
  6
CONTINUOUS
 10
95.2508733424
 20
111.4768990048
  0
VERTEX
  8
0
 62
7
  6
CONTINUOUS
 10
95.246915576
 20
111.4909128081
  0
VERTEX
  8
0
 62
7
  6
CONTINUOUS
 10
95.2433489115
 20
111.5049260165
  0
VERTEX
  8
0
 62
7
  6
CONTINUOUS
 10
95.2401734198
 20
111.5189383406
  0
SEQEND
  0
LINE
  8
0
 62
7
  6
CONTINUOUS
 10
102.4277612186
 20
119.53125
 11
102.4277612186
 21
89.53125
  0
POLYLINE
  8
0
 62
7
  6
CONTINUOUS
 66
1
 70
0
  0
VERTEX
  8
0
 62
7
  6
CONTINUOUS
 10
45.9098434617
 20
111.5298798648
  0
VERTEX
  8
0
 62
7
  6
CONTINUOUS
 10
45.8576394654
 20
111.5257702623
  0
VERTEX
  8
0
 62
7
  6
CONTINUOUS
 10
45.805766321
 20
111.5189383406
  0
SEQEND
  0
LINE
  8
0
 62
7
  6
CONTINUOUS
 10
45.898828125
 20
111.53125
 11
45.74239366
 21
111.5189383406
  0
POLYLINE
  8
0
 62
7
  6
CONTINUOUS
 66
1
 70
0
  0
VERTEX
  8
0
 62
7
  6
CONTINUOUS
 10
71.4907321864
 20
111.53125
  0
VERTEX
  8
0
 62
7
  6
CONTINUOUS
 10
71.4658004816
 20
111.5298798648
  0
VERTEX
  8
0
 62
7
  6
CONTINUOUS
 10
71.4410454012
 20
111.5257702623
  0
VERTEX
  8
0
 62
7
  6
CONTINUOUS
 10
71.4165642677
 20
111.5189383406
  0
SEQEND
  0
POLYLINE
  8
0
 62
7
  6
CONTINUOUS
 66
1
 70
0
  0
VERTEX
  8
0
 62
7
  6
CONTINUOUS
 10
53.4554359593
 20
111.53125
  0
VERTEX
  8
0
 62
7
  6
CONTINUOUS
 10
53.4108309551
 20
111.5298798648
  0
VERTEX
  8
0
 62
7
  6
CONTINUOUS
 10
53.3663986114
 20
111.5257702623
  0
VERTEX
  8
0
 62
7
  6
CONTINUOUS
 10
53.3223154486
 20
111.5189383406
  0
SEQEND
  0
LINE
  8
0
 62
7
  6
CONTINUOUS
 10
45.9621698905
 20
111.53125
 11
45.9098434617
 21
111.5298798648
  0
LINE
  8
0
 62
7
  6
CONTINUOUS
 10
139.6878127883
 20
111.5298798648
 11
139.6354863595
 21
111.53125
  0
POLYLINE
  8
0
 62
7
  6
CONTINUOUS
 66
1
 70
0
  0
VERTEX
  8
0
 62
7
  6
CONTINUOUS
 10
134.5789076782
 20
111.53125
  0
VERTEX
  8
0
 62
7
  6
CONTINUOUS
 10
134.6249347073
 20
111.5298798648
  0
VERTEX
  8
0
 62
7
  6
CONTINUOUS
 10
134.6709223375
 20
111.5257702623
  0
VERTEX
  8
0
 62
7
  6
CONTINUOUS
 10
134.7166860963
 20
111.5189383406
  0
SEQEND
  0
POLYLINE
  8
0
 62
7
  6
CONTINUOUS
 66
1
 70
0
  0
VERTEX
  8
0
 62
7
  6
CONTINUOUS
 10
118.3273904209
 20
111.53125
  0
VERTEX
  8
0
 62
7
  6
CONTINUOUS
 10
118.354785145
 20
111.5298798648
  0
VERTEX
  8
0
 62
7
  6
CONTINUOUS
 10
118.3822340608
 20
111.5257702623
  0
VERTEX
  8
0
 62
7
  6
CONTINUOUS
 10
118.4096260717
 20
111.5189383406
  0
SEQEND
  0
LINE
  8
0
 62
7
  6
CONTINUOUS
 10
139.7400167846
 20
111.5257702623
 11
139.6878127883
 21
111.5298798648
  0
LINE
  8
0
 62
7
  6
CONTINUOUS
 10
139.698828125
 20
111.53125
 11
139.85526259
 21
111.5189383406
  0
POLYLINE
  8
0
 62
7
  6
CONTINUOUS
 66
1
 70
0
  0
VERTEX
  8
0
 62
7
  6
CONTINUOUS
 10
115.7014863525
 20
111.1863310159
  0
VERTEX
  8
0
 62
7
  6
CONTINUOUS
 10
115.4526801666
 20
111.2229563044
  0
VERTEX
  8
0
 62
7
  6
CONTINUOUS
 10
114.9965651964
 20
111.3024137742
  0
VERTEX
  8
0
 62
7
  6
CONTINUOUS
 10
114.7932931335
 20
111.3446228733
  0
VERTEX
  8
0
 62
7
  6
CONTINUOUS
 10
114.4456172186
 20
111.4322468581
  0
VERTEX
  8
0
 62
7
  6
CONTINUOUS
 10
114.3044395213
 20
111.4768990048
  0
SEQEND
  0
POLYLINE
  8
0
 62
7
  6
CONTINUOUS
 66
1
 70
0
  0
VERTEX
  8
0
 62
7
  6
CONTINUOUS
 10
114.1810919823
 20
97.5435616594
  0
VERTEX
  8
0
 62
7
  6
CONTINUOUS
 10
114.2225542466
 20
97.5575739825
  0
VERTEX
  8
0
 62
7
  6
CONTINUOUS
 10
114.3044395213
 20
97.5856009952
  0
SEQEND
  0
LINE
  8
0
 62
7
  6
CONTINUOUS
 10
118.5515064203
 20
97.5856009952
 11
118.4096260717
 21
97.5435616594
  0
POLYLINE
  8
0
 62
7
  6
CONTINUOUS
 66
1
 70
0
  0
VERTEX
  8
0
 62
7
  6
CONTINUOUS
 10
67.1880301783
 20
111.5189383406
  0
VERTEX
  8
0
 62
7
  6
CONTINUOUS
 10
67.2154221892
 20
111.5257702623
  0
VERTEX
  8
0
 62
7
  6
CONTINUOUS
 10
67.242871105
 20
111.5298798648
  0
VERTEX
  8
0
 62
7
  6
CONTINUOUS
 10
67.2702658291
 20
111.53125
  0
SEQEND
  0
POLYLINE
  8
0
 62
7
  6
CONTINUOUS
 66
1
 70
0
  0
VERTEX
  8
0
 62
7
  6
CONTINUOUS
 10
69.8961698975
 20
111.1863310159
  0
VERTEX
  8
0
 62
7
  6
CONTINUOUS
 10
69.5923856309
 20
111.1123320526
  0
VERTEX
  8
0
 62
7
  6
CONTINUOUS
 10
69.2793964591
 20
110.9740901523
  0
VERTEX
  8
0
 62
7
  6
CONTINUOUS
 10
68.9952432025
 20
110.7853793254
  0
SEQEND
  0
POLYLINE
  8
0
 62
7
  6
CONTINUOUS
 66
1
 70
0
  0
VERTEX
  8
0
 62
7
  6
CONTINUOUS
 10
96.6931992253
 20
119.53125
  0
VERTEX
  8
0
 62
7
  6
CONTINUOUS
 10
96.5225087193
 20
119.4954832359
  0
VERTEX
  8
0
 62
7
  6
CONTINUOUS
 10
96.3822076461
 20
119.3968360679
  0
VERTEX
  8
0
 62
7
  6
CONTINUOUS
 10
96.2738182847
 20
119.2496703174
  0
VERTEX
  8
0
 62
7
  6
CONTINUOUS
 10
96.2311074994
 20
119.1622218865
  0
VERTEX
  8
0
 62
7
  6
CONTINUOUS
 10
96.1670420128
 20
118.967008367
  0
VERTEX
  8
0
 62
7
  6
CONTINUOUS
 10
96.1296298753
 20
118.7535664333
  0
VERTEX
  8
0
 62
7
  6
CONTINUOUS
 10
96.1173308298
 20
118.53125
  0
SEQEND
  0
LINE
  8
0
 62
7
  6
CONTINUOUS
 10
53.0979713214
 20
111.4768990048
 11
53.3223154486
 21
111.5189383406
  0
POLYLINE
  8
0
 62
7
  6
CONTINUOUS
 66
1
 70
0
  0
VERTEX
  8
0
 62
7
  6
CONTINUOUS
 10
53.0979713214
 20
111.4768990048
  0
VERTEX
  8
0
 62
7
  6
CONTINUOUS
 10
52.8536235448
 20
111.4322730827
  0
VERTEX
  8
0
 62
7
  6
CONTINUOUS
 10
52.330859951
 20
111.3446614102
  0
VERTEX
  8
0
 62
7
  6
CONTINUOUS
 10
52.0572116149
 20
111.3024420804
  0
VERTEX
  8
0
 62
7
  6
CONTINUOUS
 10
51.4977226912
 20
111.222948444
  0
VERTEX
  8
0
 62
7
  6
CONTINUOUS
 10
51.2169967492
 20
111.1863310159
  0
SEQEND
  0
LINE
  8
0
 62
7
  6
CONTINUOUS
 10
50.8809701537
 20
111.5189383406
 11
50.645926104
 21
111.4768990048
  0
LINE
  8
0
 62
7
  6
CONTINUOUS
 10
45.74239366
 20
111.5189383406
 11
43.64239366
 21
111.1863310159
  0
LINE
  8
0
 62
7
  6
CONTINUOUS
 10
45.805766321
 20
111.5189383406
 11
45.2584034752
 21
111.4322730827
  0
LINE
  8
0
 62
7
  6
CONTINUOUS
 10
45.2584034752
 20
111.4322730827
 11
44.4298706728
 21
111.3024420804
  0
LINE
  8
0
 62
7
  6
CONTINUOUS
 10
44.4298706728
 20
111.3024420804
 11
43.6796417378
 21
111.1863310159
  0
POLYLINE
  8
0
 62
7
  6
CONTINUOUS
 66
1
 70
0
  0
VERTEX
  8
0
 62
7
  6
CONTINUOUS
 10
50.8809701537
 20
111.5189383406
  0
VERTEX
  8
0
 62
7
  6
CONTINUOUS
 10
50.9267339125
 20
111.5257702623
  0
VERTEX
  8
0
 62
7
  6
CONTINUOUS
 10
50.9727215427
 20
111.5298798648
  0
VERTEX
  8
0
 62
7
  6
CONTINUOUS
 10
51.0187485718
 20
111.53125
  0
SEQEND
  0
POLYLINE
  8
0
 62
7
  6
CONTINUOUS
 66
1
 70
0
  0
VERTEX
  8
0
 62
7
  6
CONTINUOUS
 10
134.3806595008
 20
111.1863310159
  0
VERTEX
  8
0
 62
7
  6
CONTINUOUS
 10
134.0998750172
 20
111.2229563044
  0
VERTEX
  8
0
 62
7
  6
CONTINUOUS
 10
133.5406332047
 20
111.3024137742
  0
VERTEX
  8
0
 62
7
  6
CONTINUOUS
 10
133.2670393412
 20
111.3446228733
  0
VERTEX
  8
0
 62
7
  6
CONTINUOUS
 10
132.74418056
 20
111.4322468581
  0
VERTEX
  8
0
 62
7
  6
CONTINUOUS
 10
132.4996849286
 20
111.4768990048
  0
SEQEND
  0
LINE
  8
0
 62
7
  6
CONTINUOUS
 10
139.791889929
 20
111.5189383406
 11
139.7400167846
 21
111.5257702623
  0
POLYLINE
  8
0
 62
7
  6
CONTINUOUS
 66
1
 70
0
  0
VERTEX
  8
0
 62
7
  6
CONTINUOUS
 10
132.2753408014
 20
111.5189383406
  0
VERTEX
  8
0
 62
7
  6
CONTINUOUS
 10
132.2312576386
 20
111.5257702623
  0
VERTEX
  8
0
 62
7
  6
CONTINUOUS
 10
132.1868252949
 20
111.5298798648
  0
VERTEX
  8
0
 62
7
  6
CONTINUOUS
 10
132.1422202907
 20
111.53125
  0
SEQEND
  0
LINE
  8
0
 62
7
  6
CONTINUOUS
 10
141.9180145122
 20
111.1863310159
 11
141.1679674438
 21
111.3024137742
  0
LINE
  8
0
 62
7
  6
CONTINUOUS
 10
141.1679674438
 20
111.3024137742
 11
140.3394189751
 21
111.4322468581
  0
LINE
  8
0
 62
7
  6
CONTINUOUS
 10
139.85526259
 20
111.5189383406
 11
141.95526259
 21
111.1863310159
  0
LINE
  8
0
 62
7
  6
CONTINUOUS
 10
139.791889929
 20
111.5189383406
 11
140.3394189751
 21
111.4322468581
  0
LINE
  8
0
 62
7
  6
CONTINUOUS
 10
134.951730146
 20
111.4768990048
 11
134.7166860963
 21
111.5189383406
  0
LINE
  8
0
 62
7
  6
CONTINUOUS
 10
132.2753408014
 20
111.5189383406
 11
132.4996849286
 21
111.4768990048
  0
POLYLINE
  8
0
 62
7
  6
CONTINUOUS
 66
1
 70
0
  0
VERTEX
  8
0
 62
7
  6
CONTINUOUS
 10
114.1810919823
 20
111.5189383406
  0
VERTEX
  8
0
 62
7
  6
CONTINUOUS
 10
114.1566108488
 20
111.5257702623
  0
VERTEX
  8
0
 62
7
  6
CONTINUOUS
 10
114.1318557684
 20
111.5298798648
  0
VERTEX
  8
0
 62
7
  6
CONTINUOUS
 10
114.1069240636
 20
111.53125
  0
SEQEND
  0
LINE
  8
0
 62
7
  6
CONTINUOUS
 10
118.5515064203
 20
111.4768990048
 11
118.4096260717
 21
111.5189383406
  0
POLYLINE
  8
0
 62
7
  6
CONTINUOUS
 66
1
 70
0
  0
VERTEX
  8
0
 62
7
  6
CONTINUOUS
 10
114.1810919823
 20
111.5189383406
  0
VERTEX
  8
0
 62
7
  6
CONTINUOUS
 10
114.2636703658
 20
111.4909128114
  0
VERTEX
  8
0
 62
7
  6
CONTINUOUS
 10
114.3044395213
 20
111.4768990048
  0
SEQEND
  0
LINE
  8
0
 62
7
  6
CONTINUOUS
 10
110.5583129532
 20
118.53125
 11
110.5583129532
 21
111.53125
  0
LINE
  8
0
 62
7
  6
CONTINUOUS
 10
110.5583129532
 20
97.53125
 11
110.5583129532
 21
90.53125
  0
POLYLINE
  8
0
 62
7
  6
CONTINUOUS
 66
1
 70
0
  0
VERTEX
  8
0
 62
7
  6
CONTINUOUS
 10
118.5515064203
 20
97.5856009952
  0
VERTEX
  8
0
 62
7
  6
CONTINUOUS
 10
118.6925535729
 20
97.6302269173
  0
VERTEX
  8
0
 62
7
  6
CONTINUOUS
 10
118.9028239398
 20
97.7178385898
  0
VERTEX
  8
0
 62
7
  6
CONTINUOUS
 10
118.9701932515
 20
97.7600579196
  0
VERTEX
  8
0
 62
7
  6
CONTINUOUS
 10
119.0266360566
 20
97.839551556
  0
VERTEX
  8
0
 62
7
  6
CONTINUOUS
 10
119.0267030585
 20
97.8422348018
  0
SEQEND
  0
POLYLINE
  8
0
 62
7
  6
CONTINUOUS
 66
1
 70
0
  0
VERTEX
  8
0
 62
7
  6
CONTINUOUS
 10
51.2169967492
 20
111.1863310159
  0
VERTEX
  8
0
 62
7
  6
CONTINUOUS
 10
50.892890573
 20
111.1123320526
  0
VERTEX
  8
0
 62
7
  6
CONTINUOUS
 10
50.5779807639
 20
110.9740901523
  0
VERTEX
  8
0
 62
7
  6
CONTINUOUS
 10
50.3073714794
 20
110.7853793254
  0
SEQEND
  0
POLYLINE
  8
0
 62
7
  6
CONTINUOUS
 66
1
 70
0
  0
VERTEX
  8
0
 62
7
  6
CONTINUOUS
 10
76.0655212542
 20
119.53125
  0
VERTEX
  8
0
 62
7
  6
CONTINUOUS
 10
75.7765258874
 20
119.4954832359
  0
VERTEX
  8
0
 62
7
  6
CONTINUOUS
 10
75.530383293
 20
119.3968360679
  0
VERTEX
  8
0
 62
7
  6
CONTINUOUS
 10
75.3340451727
 20
119.2496703174
  0
VERTEX
  8
0
 62
7
  6
CONTINUOUS
 10
75.2550169604
 20
119.1622218865
  0
VERTEX
  8
0
 62
7
  6
CONTINUOUS
 10
75.1345430531
 20
118.967008367
  0
VERTEX
  8
0
 62
7
  6
CONTINUOUS
 10
75.0630434602
 20
118.7535664333
  0
VERTEX
  8
0
 62
7
  6
CONTINUOUS
 10
75.0393432968
 20
118.53125
  0
SEQEND
  0
LINE
  8
0
 62
7
  6
CONTINUOUS
 10
52.398828125
 20
119.53125
 11
133.198828125
 21
119.53125
  0
POLYLINE
  8
0
 62
7
  6
CONTINUOUS
 66
1
 70
0
  0
VERTEX
  8
0
 62
7
  6
CONTINUOUS
 10
134.951730146
 20
111.4768990048
  0
VERTEX
  8
0
 62
7
  6
CONTINUOUS
 10
135.1960544516
 20
111.4322730827
  0
VERTEX
  8
0
 62
7
  6
CONTINUOUS
 10
135.6395357279
 20
111.3446614102
  0
VERTEX
  8
0
 62
7
  6
CONTINUOUS
 10
135.8347034313
 20
111.3024420804
  0
VERTEX
  8
0
 62
7
  6
CONTINUOUS
 10
136.1633287963
 20
111.222948444
  0
VERTEX
  8
0
 62
7
  6
CONTINUOUS
 10
136.2939231983
 20
111.1863310159
  0
SEQEND
  0
POLYLINE
  8
0
 62
7
  6
CONTINUOUS
 66
1
 70
0
  0
VERTEX
  8
0
 62
7
  6
CONTINUOUS
 10
118.5515064203
 20
111.4768990048
  0
VERTEX
  8
0
 62
7
  6
CONTINUOUS
 10
118.6925535729
 20
111.4322730827
  0
VERTEX
  8
0
 62
7
  6
CONTINUOUS
 10
118.9028239398
 20
111.3446614102
  0
VERTEX
  8
0
 62
7
  6
CONTINUOUS
 10
118.9701932515
 20
111.3024420804
  0
VERTEX
  8
0
 62
7
  6
CONTINUOUS
 10
119.0266360566
 20
111.222948444
  0
VERTEX
  8
0
 62
7
  6
CONTINUOUS
 10
119.0267030585
 20
111.2202651982
  0
SEQEND
  0
POLYLINE
  8
0
 62
7
  6
CONTINUOUS
 66
1
 70
0
  0
VERTEX
  8
0
 62
7
  6
CONTINUOUS
 10
118.3798685463
 20
98.8638573247
  0
VERTEX
  8
0
 62
7
  6
CONTINUOUS
 10
118.5837372315
 20
98.6090322223
  0
VERTEX
  8
0
 62
7
  6
CONTINUOUS
 10
118.6669660999
 20
98.4889613995
  0
VERTEX
  8
0
 62
7
  6
CONTINUOUS
 10
118.7890200776
 20
98.2771206746
  0
SEQEND
  0
POLYLINE
  8
0
 62
7
  6
CONTINUOUS
 66
1
 70
0
  0
VERTEX
  8
0
 62
7
  6
CONTINUOUS
 10
110.5583129532
 20
118.53125
  0
VERTEX
  8
0
 62
7
  6
CONTINUOUS
 10
110.5346130151
 20
118.7535653924
  0
VERTEX
  8
0
 62
7
  6
CONTINUOUS
 10
110.4631141039
 20
118.9670064157
  0
VERTEX
  8
0
 62
7
  6
CONTINUOUS
 10
110.3426415267
 20
119.1622190773
  0
VERTEX
  8
0
 62
7
  6
CONTINUOUS
 10
110.2636139229
 20
119.2496675393
  0
VERTEX
  8
0
 62
7
  6
CONTINUOUS
 10
110.0672777901
 20
119.3968333368
  0
VERTEX
  8
0
 62
7
  6
CONTINUOUS
 10
109.8211325013
 20
119.495482684
  0
VERTEX
  8
0
 62
7
  6
CONTINUOUS
 10
109.5321349958
 20
119.53125
  0
SEQEND
  0
LINE
  8
0
 62
7
  6
CONTINUOUS
 10
111.8625597944
 20
111.53125
 11
111.8625597944
 21
97.53125
  0
POLYLINE
  8
0
 62
7
  6
CONTINUOUS
 66
1
 70
0
  0
VERTEX
  8
0
 62
7
  6
CONTINUOUS
 10
116.2773836051
 20
119.53125
  0
VERTEX
  8
0
 62
7
  6
CONTINUOUS
 10
116.2707343431
 20
119.4954832359
  0
VERTEX
  8
0
 62
7
  6
CONTINUOUS
 10
116.2706740211
 20
119.4873064038
  0
SEQEND
  0
POLYLINE
  8
0
 62
7
  6
CONTINUOUS
 66
1
 70
0
  0
VERTEX
  8
0
 62
7
  6
CONTINUOUS
 10
118.7890200776
 20
110.7853793254
  0
VERTEX
  8
0
 62
7
  6
CONTINUOUS
 10
118.666993932
 20
110.573581083
  0
VERTEX
  8
0
 62
7
  6
CONTINUOUS
 10
118.5836851182
 20
110.4533963497
  0
VERTEX
  8
0
 62
7
  6
CONTINUOUS
 10
118.3798685463
 20
110.1986426753
  0
SEQEND
  0
POLYLINE
  8
0
 62
7
  6
CONTINUOUS
 66
1
 70
0
  0
VERTEX
  8
0
 62
7
  6
CONTINUOUS
 10
119.0153562847
 20
111.1863310159
  0
VERTEX
  8
0
 62
7
  6
CONTINUOUS
 10
118.9691561158
 20
111.1123320526
  0
VERTEX
  8
0
 62
7
  6
CONTINUOUS
 10
118.8886175612
 20
110.9740901523
  0
VERTEX
  8
0
 62
7
  6
CONTINUOUS
 10
118.7890200776
 20
110.7853793254
  0
SEQEND
  0
POLYLINE
  8
0
 62
7
  6
CONTINUOUS
 66
1
 70
0
  0
VERTEX
  8
0
 62
7
  6
CONTINUOUS
 10
116.6024130475
 20
98.2771206746
  0
VERTEX
  8
0
 62
7
  6
CONTINUOUS
 10
116.8466612464
 20
98.4889301
  0
VERTEX
  8
0
 62
7
  6
CONTINUOUS
 10
116.9721983333
 20
98.6089877509
  0
VERTEX
  8
0
 62
7
  6
CONTINUOUS
 10
117.2132508416
 20
98.8638573247
  0
SEQEND
  0
POLYLINE
  8
0
 62
7
  6
CONTINUOUS
 66
1
 70
0
  0
VERTEX
  8
0
 62
7
  6
CONTINUOUS
 10
141.9180145122
 20
97.8761689841
  0
VERTEX
  8
0
 62
7
  6
CONTINUOUS
 10
142.1759412566
 20
97.950315711
  0
VERTEX
  8
0
 62
7
  6
CONTINUOUS
 10
142.4084902428
 20
98.0887572833
  0
VERTEX
  8
0
 62
7
  6
CONTINUOUS
 10
142.5926050002
 20
98.2771206746
  0
SEQEND
  0
POLYLINE
  8
0
 62
7
  6
CONTINUOUS
 66
1
 70
0
  0
VERTEX
  8
0
 62
7
  6
CONTINUOUS
 10
49.3037330517
 20
111.1863310159
  0
VERTEX
  8
0
 62
7
  6
CONTINUOUS
 10
49.4343570639
 20
111.2229563044
  0
VERTEX
  8
0
 62
7
  6
CONTINUOUS
 10
49.7628263862
 20
111.3024137742
  0
VERTEX
  8
0
 62
7
  6
CONTINUOUS
 10
49.9579365725
 20
111.3446228733
  0
VERTEX
  8
0
 62
7
  6
CONTINUOUS
 10
50.4014617859
 20
111.4322468581
  0
VERTEX
  8
0
 62
7
  6
CONTINUOUS
 10
50.645926104
 20
111.4768990048
  0
SEQEND
  0
POLYLINE
  8
0
 62
7
  6
CONTINUOUS
 66
1
 70
0
  0
VERTEX
  8
0
 62
7
  6
CONTINUOUS
 10
52.586965774
 20
119.53125
  0
VERTEX
  8
0
 62
7
  6
CONTINUOUS
 10
52.3046196693
 20
119.4954832359
  0
VERTEX
  8
0
 62
7
  6
CONTINUOUS
 10
52.0553430677
 20
119.3968360679
  0
VERTEX
  8
0
 62
7
  6
CONTINUOUS
 10
51.850402708
 20
119.2496703174
  0
VERTEX
  8
0
 62
7
  6
CONTINUOUS
 10
51.7663235337
 20
119.1622218865
  0
VERTEX
  8
0
 62
7
  6
CONTINUOUS
 10
51.6363403967
 20
118.967008367
  0
VERTEX
  8
0
 62
7
  6
CONTINUOUS
 10
51.5581409338
 20
118.7535664333
  0
VERTEX
  8
0
 62
7
  6
CONTINUOUS
 10
51.5320431788
 20
118.53125
  0
SEQEND
  0
POLYLINE
  8
0
 62
7
  6
CONTINUOUS
 66
1
 70
0
  0
VERTEX
  8
0
 62
7
  6
CONTINUOUS
 10
59.9215193458
 20
119.53125
  0
VERTEX
  8
0
 62
7
  6
CONTINUOUS
 10
59.591686977
 20
119.4954903524
  0
VERTEX
  8
0
 62
7
  6
CONTINUOUS
 10
59.3056777744
 20
119.3968616158
  0
VERTEX
  8
0
 62
7
  6
CONTINUOUS
 10
59.0740097231
 20
119.2497222188
  0
VERTEX
  8
0
 62
7
  6
CONTINUOUS
 10
58.9798297131
 20
119.1622778474
  0
VERTEX
  8
0
 62
7
  6
CONTINUOUS
 10
58.8352503526
 20
118.9671427861
  0
VERTEX
  8
0
 62
7
  6
CONTINUOUS
 10
58.7488730159
 20
118.7540493698
  0
VERTEX
  8
0
 62
7
  6
CONTINUOUS
 10
58.7199953815
 20
118.53125
  0
SEQEND
  0
LINE
  8
0
 62
7
  6
CONTINUOUS
 10
133.2930387109
 20
119.495482684
 11
133.010690476
 21
119.53125
  0
POLYLINE
  8
0
 62
7
  6
CONTINUOUS
 66
1
 70
0
  0
VERTEX
  8
0
 62
7
  6
CONTINUOUS
 10
116.6024130475
 20
110.7853793254
  0
VERTEX
  8
0
 62
7
  6
CONTINUOUS
 10
116.3185372394
 20
110.973938788
  0
VERTEX
  8
0
 62
7
  6
CONTINUOUS
 10
116.0054316493
 20
111.1122769242
  0
VERTEX
  8
0
 62
7
  6
CONTINUOUS
 10
115.7014863525
 20
111.1863310159
  0
SEQEND
  0
POLYLINE
  8
0
 62
7
  6
CONTINUOUS
 66
1
 70
0
  0
VERTEX
  8
0
 62
7
  6
CONTINUOUS
 10
118.7890200776
 20
98.2771206746
  0
VERTEX
  8
0
 62
7
  6
CONTINUOUS
 10
118.8885096907
 20
98.088601368
  0
VERTEX
  8
0
 62
7
  6
CONTINUOUS
 10
118.9691008956
 20
97.9502597665
  0
VERTEX
  8
0
 62
7
  6
CONTINUOUS
 10
119.0153562847
 20
97.8761689841
  0
SEQEND
  0
POLYLINE
  8
0
 62
7
  6
CONTINUOUS
 66
1
 70
0
  0
VERTEX
  8
0
 62
7
  6
CONTINUOUS
 10
116.2738683503
 20
119.3968360679
  0
VERTEX
  8
0
 62
7
  6
CONTINUOUS
 10
116.2875215518
 20
119.1622218865
  0
VERTEX
  8
0
 62
7
  6
CONTINUOUS
 10
116.2970307814
 20
118.967008367
  0
VERTEX
  8
0
 62
7
  6
CONTINUOUS
 10
116.3037306513
 20
118.7535664333
  0
VERTEX
  8
0
 62
7
  6
CONTINUOUS
 10
116.306128243
 20
118.53125
  0
SEQEND
  0
LINE
  8
0
 62
7
  6
CONTINUOUS
 10
116.2706740211
 20
119.4873064038
 11
116.2738683503
 21
119.3968360679
  0
POLYLINE
  8
0
 62
7
  6
CONTINUOUS
 66
1
 70
0
  0
VERTEX
  8
0
 62
7
  6
CONTINUOUS
 10
116.2706740211
 20
89.5751936087
  0
VERTEX
  8
0
 62
7
  6
CONTINUOUS
 10
116.2707348627
 20
89.566983518
  0
VERTEX
  8
0
 62
7
  6
CONTINUOUS
 10
116.2773836051
 20
89.53125
  0
SEQEND
  0
LINE
  8
0
 62
7
  6
CONTINUOUS
 10
116.306128243
 20
118.53125
 11
116.306128243
 21
111.53125
  0
LINE
  8
0
 62
7
  6
CONTINUOUS
 10
116.306128243
 20
97.53125
 11
116.306128243
 21
90.53125
  0
POLYLINE
  8
0
 62
7
  6
CONTINUOUS
 66
1
 70
0
  0
VERTEX
  8
0
 62
7
  6
CONTINUOUS
 10
116.306128243
 20
90.53125
  0
VERTEX
  8
0
 62
7
  6
CONTINUOUS
 10
116.3037292746
 20
90.3088694959
  0
VERTEX
  8
0
 62
7
  6
CONTINUOUS
 10
116.2970284322
 20
90.0954342992
  0
VERTEX
  8
0
 62
7
  6
CONTINUOUS
 10
116.2875187692
 20
89.9002280576
  0
SEQEND
  0
POLYLINE
  8
0
 62
7
  6
CONTINUOUS
 66
1
 70
0
  0
VERTEX
  8
0
 62
7
  6
CONTINUOUS
 10
116.2875187692
 20
89.9002280576
  0
VERTEX
  8
0
 62
7
  6
CONTINUOUS
 10
116.2738658814
 20
89.6656170768
  0
VERTEX
  8
0
 62
7
  6
CONTINUOUS
 10
116.2706740211
 20
89.5751936087
  0
SEQEND
  0
LINE
  8
0
 62
7
  6
CONTINUOUS
 10
119.0267030585
 20
111.2202651982
 11
119.0153562847
 21
111.1863310159
  0
POLYLINE
  8
0
 62
7
  6
CONTINUOUS
 66
1
 70
0
  0
VERTEX
  8
0
 62
7
  6
CONTINUOUS
 10
129.5705080046
 20
119.53125
  0
VERTEX
  8
0
 62
7
  6
CONTINUOUS
 10
129.7296816509
 20
119.4954832359
  0
VERTEX
  8
0
 62
7
  6
CONTINUOUS
 10
129.8754109839
 20
119.3968360679
  0
VERTEX
  8
0
 62
7
  6
CONTINUOUS
 10
129.9986998609
 20
119.2496703174
  0
VERTEX
  8
0
 62
7
  6
CONTINUOUS
 10
130.0501591692
 20
119.1622218865
  0
VERTEX
  8
0
 62
7
  6
CONTINUOUS
 10
130.1306951246
 20
118.967008367
  0
VERTEX
  8
0
 62
7
  6
CONTINUOUS
 10
130.1797117772
 20
118.7535664333
  0
VERTEX
  8
0
 62
7
  6
CONTINUOUS
 10
130.1961635734
 20
118.53125
  0
SEQEND
  0
POLYLINE
  8
0
 62
7
  6
CONTINUOUS
 66
1
 70
0
  0
VERTEX
  8
0
 62
7
  6
CONTINUOUS
 10
117.2132508416
 20
110.1986426753
  0
VERTEX
  8
0
 62
7
  6
CONTINUOUS
 10
116.9722685769
 20
110.4534428296
  0
VERTEX
  8
0
 62
7
  6
CONTINUOUS
 10
116.84661211
 20
110.5736153641
  0
VERTEX
  8
0
 62
7
  6
CONTINUOUS
 10
116.6024130475
 20
110.7853793254
  0
SEQEND
  0
LINE
  8
0
 62
7
  6
CONTINUOUS
 10
119.0267030585
 20
97.8422348018
 11
119.0153562847
 21
97.8761689841
  0
LINE
  8
0
 62
7
  6
CONTINUOUS
 10
119.0267030585
 20
111.2202618108
 11
119.0267030585
 21
97.8422381892
  0
LINE
  8
0
 62
7
  6
CONTINUOUS
 10
119.1055625594
 20
119.53125
 11
119.1055625594
 21
89.53125
  0
POLYLINE
  8
0
 62
7
  6
CONTINUOUS
 66
1
 70
0
  0
VERTEX
  8
0
 62
7
  6
CONTINUOUS
 10
136.2939231983
 20
111.1863310159
  0
VERTEX
  8
0
 62
7
  6
CONTINUOUS
 10
136.4159657664
 20
111.1123320526
  0
VERTEX
  8
0
 62
7
  6
CONTINUOUS
 10
136.5036722367
 20
110.9740901523
  0
VERTEX
  8
0
 62
7
  6
CONTINUOUS
 10
136.552722928
 20
110.7853793254
  0
SEQEND
  0
POLYLINE
  8
0
 62
7
  6
CONTINUOUS
 66
1
 70
0
  0
VERTEX
  8
0
 62
7
  6
CONTINUOUS
 10
135.2902847706
 20
110.7853793254
  0
VERTEX
  8
0
 62
7
  6
CONTINUOUS
 10
135.0199466345
 20
110.973938788
  0
VERTEX
  8
0
 62
7
  6
CONTINUOUS
 10
134.7049324769
 20
111.1122769242
  0
VERTEX
  8
0
 62
7
  6
CONTINUOUS
 10
134.3806595008
 20
111.1863310159
  0
SEQEND
  0
LINE
  8
0
 62
7
  6
CONTINUOUS
 10
126.8776608685
 20
118.53125
 11
126.8776608685
 21
111.53125
  0
LINE
  8
0
 62
7
  6
CONTINUOUS
 10
126.8776608685
 20
97.53125
 11
126.8776608685
 21
90.53125
  0
POLYLINE
  8
0
 62
7
  6
CONTINUOUS
 66
1
 70
0
  0
VERTEX
  8
0
 62
7
  6
CONTINUOUS
 10
135.2902847706
 20
98.2771206746
  0
VERTEX
  8
0
 62
7
  6
CONTINUOUS
 10
135.5018622393
 20
98.4889301
  0
VERTEX
  8
0
 62
7
  6
CONTINUOUS
 10
135.5987746644
 20
98.6089877509
  0
VERTEX
  8
0
 62
7
  6
CONTINUOUS
 10
135.7593957535
 20
98.8638573247
  0
SEQEND
  0
LINE
  8
0
 62
7
  6
CONTINUOUS
 10
128.5498554863
 20
111.53125
 11
128.5498554863
 21
97.53125
  0
LINE
  8
0
 62
7
  6
CONTINUOUS
 10
130.1961635734
 20
118.53125
 11
130.1961635734
 21
111.53125
  0
LINE
  8
0
 62
7
  6
CONTINUOUS
 10
130.1961635734
 20
97.53125
 11
130.1961635734
 21
90.53125
  0
POLYLINE
  8
0
 62
7
  6
CONTINUOUS
 66
1
 70
0
  0
VERTEX
  8
0
 62
7
  6
CONTINUOUS
 10
130.1961635734
 20
90.53125
  0
VERTEX
  8
0
 62
7
  6
CONTINUOUS
 10
130.1797021835
 20
90.3088695022
  0
VERTEX
  8
0
 62
7
  6
CONTINUOUS
 10
130.1306770283
 20
90.095434311
  0
VERTEX
  8
0
 62
7
  6
CONTINUOUS
 10
130.0501329488
 20
89.9002280734
  0
VERTEX
  8
0
 62
7
  6
CONTINUOUS
 10
129.9986577591
 20
89.8127659028
  0
VERTEX
  8
0
 62
7
  6
CONTINUOUS
 10
129.8753602711
 20
89.665617093
  0
VERTEX
  8
0
 62
7
  6
CONTINUOUS
 10
129.7296078697
 20
89.566983529
  0
VERTEX
  8
0
 62
7
  6
CONTINUOUS
 10
129.5705080651
 20
89.53125
  0
SEQEND
  0
POLYLINE
  8
0
 62
7
  6
CONTINUOUS
 66
1
 70
0
  0
VERTEX
  8
0
 62
7
  6
CONTINUOUS
 10
126.8776608685
 20
118.53125
  0
VERTEX
  8
0
 62
7
  6
CONTINUOUS
 10
126.8483949064
 20
118.7555216227
  0
VERTEX
  8
0
 62
7
  6
CONTINUOUS
 10
126.7617431478
 20
118.9683230202
  0
VERTEX
  8
0
 62
7
  6
CONTINUOUS
 10
126.6171241765
 20
119.1630150642
  0
VERTEX
  8
0
 62
7
  6
CONTINUOUS
 10
126.5229290125
 20
119.2503111383
  0
VERTEX
  8
0
 62
7
  6
CONTINUOUS
 10
126.2913702778
 20
119.3971546371
  0
VERTEX
  8
0
 62
7
  6
CONTINUOUS
 10
126.0056048956
 20
119.4955718845
  0
VERTEX
  8
0
 62
7
  6
CONTINUOUS
 10
125.6761369042
 20
119.53125
  0
SEQEND
  0
LINE
  8
0
 62
7
  6
CONTINUOUS
 10
134.0656130712
 20
118.53125
 11
134.0656130712
 21
111.53125
  0
LINE
  8
0
 62
7
  6
CONTINUOUS
 10
134.0656130712
 20
97.53125
 11
134.0656130712
 21
90.53125
  0
LINE
  8
0
 62
7
  6
CONTINUOUS
 10
134.198828125
 20
118.53125
 11
134.198828125
 21
111.53125
  0
LINE
  8
0
 62
7
  6
CONTINUOUS
 10
134.198828125
 20
97.53125
 11
134.198828125
 21
90.53125
  0
POLYLINE
  8
0
 62
7
  6
CONTINUOUS
 66
1
 70
0
  0
VERTEX
  8
0
 62
7
  6
CONTINUOUS
 10
142.5926050002
 20
110.7853793254
  0
VERTEX
  8
0
 62
7
  6
CONTINUOUS
 10
142.4082414214
 20
110.973938788
  0
VERTEX
  8
0
 62
7
  6
CONTINUOUS
 10
142.1757264854
 20
111.1122769242
  0
VERTEX
  8
0
 62
7
  6
CONTINUOUS
 10
141.9180145122
 20
111.1863310159
  0
SEQEND
  0
POLYLINE
  8
0
 62
7
  6
CONTINUOUS
 66
1
 70
0
  0
VERTEX
  8
0
 62
7
  6
CONTINUOUS
 10
135.7593957535
 20
110.1986426753
  0
VERTEX
  8
0
 62
7
  6
CONTINUOUS
 10
135.5988265342
 20
110.4534428296
  0
VERTEX
  8
0
 62
7
  6
CONTINUOUS
 10
135.5018226977
 20
110.5736153641
  0
VERTEX
  8
0
 62
7
  6
CONTINUOUS
 10
135.2902847706
 20
110.7853793254
  0
SEQEND
  0
POLYLINE
  8
0
 62
7
  6
CONTINUOUS
 66
1
 70
0
  0
VERTEX
  8
0
 62
7
  6
CONTINUOUS
 10
136.4329427994
 20
98.8638573247
  0
VERTEX
  8
0
 62
7
  6
CONTINUOUS
 10
136.5292043298
 20
98.6090322223
  0
VERTEX
  8
0
 62
7
  6
CONTINUOUS
 10
136.5528234274
 20
98.4889613995
  0
VERTEX
  8
0
 62
7
  6
CONTINUOUS
 10
136.5602605059
 20
98.3798641758
  0
SEQEND
  0
LINE
  8
0
 62
7
  6
CONTINUOUS
 10
136.552722928
 20
110.7853793254
 11
136.5602605059
 21
110.6826357964
  0
LINE
  8
0
 62
7
  6
CONTINUOUS
 10
135.6576922682
 20
111.53125
 11
135.6576922682
 21
111.3407337268
  0
LINE
  8
0
 62
7
  6
CONTINUOUS
 10
135.6576922682
 20
97.7217662732
 11
135.6576922682
 21
97.53125
  0
LINE
  8
0
 62
7
  6
CONTINUOUS
 10
136.5602605059
 20
110.6826343916
 11
136.5602605059
 21
98.3798656084
  0
POLYLINE
  8
0
 62
7
  6
CONTINUOUS
 66
1
 70
0
  0
VERTEX
  8
0
 62
7
  6
CONTINUOUS
 10
136.5602605059
 20
110.6826357964
  0
VERTEX
  8
0
 62
7
  6
CONTINUOUS
 10
136.5528290573
 20
110.573581083
  0
VERTEX
  8
0
 62
7
  6
CONTINUOUS
 10
136.5291858821
 20
110.4533963497
  0
VERTEX
  8
0
 62
7
  6
CONTINUOUS
 10
136.4329427994
 20
110.1986426753
  0
SEQEND
  0
LINE
  8
0
 62
7
  6
CONTINUOUS
 10
136.5602605059
 20
98.3798641758
 11
136.552722928
 21
98.2771206746
  0
POLYLINE
  8
0
 62
7
  6
CONTINUOUS
 66
1
 70
0
  0
VERTEX
  8
0
 62
7
  6
CONTINUOUS
 10
136.552722928
 20
98.2771206746
  0
VERTEX
  8
0
 62
7
  6
CONTINUOUS
 10
136.5037503499
 20
98.088601368
  0
VERTEX
  8
0
 62
7
  6
CONTINUOUS
 10
136.416056836
 20
97.9502597665
  0
VERTEX
  8
0
 62
7
  6
CONTINUOUS
 10
136.2939231983
 20
97.8761689841
  0
SEQEND
  0
POLYLINE
  8
0
 62
7
  6
CONTINUOUS
 66
1
 70
0
  0
VERTEX
  8
0
 62
7
  6
CONTINUOUS
 10
134.0656130712
 20
118.53125
  0
VERTEX
  8
0
 62
7
  6
CONTINUOUS
 10
134.0395155638
 20
118.7535653924
  0
VERTEX
  8
0
 62
7
  6
CONTINUOUS
 10
133.9613168402
 20
118.9670064157
  0
VERTEX
  8
0
 62
7
  6
CONTINUOUS
 10
133.8313351096
 20
119.1622190773
  0
VERTEX
  8
0
 62
7
  6
CONTINUOUS
 10
133.7472565528
 20
119.2496675393
  0
VERTEX
  8
0
 62
7
  6
CONTINUOUS
 10
133.5423181593
 20
119.3968333368
  0
VERTEX
  8
0
 62
7
  6
CONTINUOUS
 10
133.2930387109
 20
119.495482684
  0
SEQEND
  0
LINE
  8
0
 62
7
  6
CONTINUOUS
 10
142.798828125
 20
110.1986426753
 11
142.798828125
 21
98.8638573247
  0
POLYLINE
  8
0
 62
7
  6
CONTINUOUS
 66
1
 70
0
  0
VERTEX
  8
0
 62
7
  6
CONTINUOUS
 10
142.5926050002
 20
98.2771206746
  0
VERTEX
  8
0
 62
7
  6
CONTINUOUS
 10
142.714819727
 20
98.4889301
  0
VERTEX
  8
0
 62
7
  6
CONTINUOUS
 10
142.7571398842
 20
98.6089877509
  0
VERTEX
  8
0
 62
7
  6
CONTINUOUS
 10
142.7942912629
 20
98.8638573247
  0
SEQEND
  0
POLYLINE
  8
0
 62
7
  6
CONTINUOUS
 66
1
 70
0
  0
VERTEX
  8
0
 62
7
  6
CONTINUOUS
 10
142.7942912629
 20
110.1986426753
  0
VERTEX
  8
0
 62
7
  6
CONTINUOUS
 10
142.7571594817
 20
110.4534428296
  0
VERTEX
  8
0
 62
7
  6
CONTINUOUS
 10
142.7148003752
 20
110.5736153641
  0
VERTEX
  8
0
 62
7
  6
CONTINUOUS
 10
142.5926050002
 20
110.7853793254
  0
SEQEND
  0
LINE
  8
0
 62
2
  6
CONTINUOUS
 10
92.798828125
 20
206.020625
 11
92.798828125
 21
204.260625
  0
LINE
  8
DEFAULT_1
 62
2
  6
CENTER
 10
92.798828125
 20
200.740625
 11
92.798828125
 21
153.396957517
  0
LINE
  8
DEFAULT_1
 62
2
  6
CENTER
 10
92.798828125
 20
209.540625
 11
92.798828125
 21
256.884292483
  0
LINE
  8
0
 62
2
  6
CONTINUOUS
 10
93.678828125
 20
205.140625
 11
91.918828125
 21
205.140625
  0
LINE
  8
DEFAULT_1
 62
2
  6
CENTER
 10
88.398828125
 20
205.140625
 11
41.055160642
 21
205.140625
  0
LINE
  8
DEFAULT_1
 62
2
  6
CENTER
 10
97.198828125
 20
205.140625
 11
144.542495608
 21
205.140625
  0
ARC
  8
0
 62
7
  6
CONTINUOUS
 10
63.899962875
 20
162.5559242928
 40
20.0
 50
110.0358538453
 51
122.690417787
  0
ARC
  8
0
 62
7
  6
CONTINUOUS
 10
50.2141274178
 20
176.24175975
 40
20.0
 50
327.309582213
 51
339.9641461547
  0
ARC
  8
0
 62
7
  6
CONTINUOUS
 10
59.5570954907
 20
171.7687791039
 40
9.9
 50
45.532476267
 51
104.6825957279
  0
ARC
  8
0
 62
7
  6
CONTINUOUS
 10
59.4269822289
 20
171.8988923657
 40
9.9
 50
345.3174042721
 51
44.467523733
  0
ARC
  8
0
 62
7
  6
CONTINUOUS
 10
46.4793263243
 20
182.710625
 40
20.0
 50
80.0358538453
 51
92.690417787
  0
ARC
  8
0
 62
7
  6
CONTINUOUS
 10
41.469962875
 20
201.4058239065
 40
20.0
 50
297.309582213
 51
309.9641461547
  0
ARC
  8
0
 62
7
  6
CONTINUOUS
 10
47.3247202498
 20
192.860625
 40
9.9
 50
15.532476267
 51
74.6825957279
  0
ARC
  8
0
 62
7
  6
CONTINUOUS
 10
47.2770954907
 20
193.0383630209
 40
9.9
 50
315.3174042721
 51
14.467523733
  0
ARC
  8
0
 62
7
  6
CONTINUOUS
 10
45.3997202498
 20
204.595977
 40
3.0
 50
87.309582213
 51
142.9607448368
  0
ARC
  8
0
 62
7
  6
CONTINUOUS
 10
51.4776725884
 20
181.9127500665
 40
3.0
 50
247.0392551632
 51
302.690417787
  0
ARC
  8
0
 62
7
  6
CONTINUOUS
 10
52.0223205884
 20
180.9693920583
 40
3.0
 50
117.309582213
 51
172.9607448368
  0
ARC
  8
0
 62
7
  6
CONTINUOUS
 10
43.8032742498
 20
204.480548895
 40
1.0
 50
180.771851406
 51
217.0392551632
  0
ARC
  8
0
 62
7
  6
CONTINUOUS
 10
50.6974718491
 20
180.0712053871
 40
1.0
 50
210.771851406
 51
247.0392551632
  0
ARC
  8
0
 62
7
  6
CONTINUOUS
 10
50.0373957441
 20
181.2144907377
 40
1.0
 50
172.9607448368
 51
209.228148594
  0
ARC
  8
0
 62
7
  6
CONTINUOUS
 10
89.0640270315
 20
153.81175975
 40
20.0
 50
140.0358538453
 51
152.690417787
  0
ARC
  8
0
 62
7
  6
CONTINUOUS
 10
70.368828125
 20
158.8211231993
 40
20.0
 50
357.309582213
 51
9.9641461547
  0
ARC
  8
0
 62
7
  6
CONTINUOUS
 10
80.6965661459
 20
159.6188923657
 40
9.9
 50
75.532476267
 51
134.6825957279
  0
ARC
  8
0
 62
7
  6
CONTINUOUS
 10
80.518828125
 20
159.6665171248
 40
9.9
 50
15.3174042721
 51
74.467523733
  0
ARC
  8
0
 62
7
  6
CONTINUOUS
 10
68.6275951833
 20
164.3641174634
 40
3.0
 50
277.0392551632
 51
332.690417787
  0
ARC
  8
0
 62
7
  6
CONTINUOUS
 10
69.5709531915
 20
163.8194694634
 40
3.0
 50
147.309582213
 51
202.9607448368
  0
ARC
  8
0
 62
7
  6
CONTINUOUS
 10
92.254180125
 20
157.7415171248
 40
3.0
 50
307.0392551632
 51
2.690417787
  0
ARC
  8
0
 62
7
  6
CONTINUOUS
 10
68.8726938627
 20
162.3791926191
 40
1.0
 50
240.771851406
 51
277.0392551632
  0
ARC
  8
0
 62
7
  6
CONTINUOUS
 10
67.7294085121
 20
163.0392687241
 40
1.0
 50
202.9607448368
 51
239.228148594
  0
ARC
  8
0
 62
7
  6
CONTINUOUS
 10
92.13875202
 20
156.1450711248
 40
1.0
 50
232.9607448368
 51
269.228148594
  0
ARC
  8
0
 62
7
  6
CONTINUOUS
 10
41.469962875
 20
208.8754260935
 40
20.0
 50
50.0358538453
 51
62.690417787
  0
ARC
  8
0
 62
7
  6
CONTINUOUS
 10
46.4793263243
 20
227.570625
 40
20.0
 50
267.309582213
 51
279.9641461547
  0
ARC
  8
0
 62
7
  6
CONTINUOUS
 10
47.2770954907
 20
217.2428869791
 40
9.9
 50
345.532476267
 51
44.6825957279
  0
ARC
  8
0
 62
7
  6
CONTINUOUS
 10
47.3247202498
 20
217.420625
 40
9.9
 50
285.3174042721
 51
344.467523733
  0
ARC
  8
0
 62
7
  6
CONTINUOUS
 10
52.0223205884
 20
229.3118579417
 40
3.0
 50
187.0392551632
 51
242.690417787
  0
ARC
  8
0
 62
7
  6
CONTINUOUS
 10
51.4776725884
 20
228.3684999335
 40
3.0
 50
57.309582213
 51
112.9607448368
  0
ARC
  8
0
 62
7
  6
CONTINUOUS
 10
45.3997202498
 20
205.685273
 40
3.0
 50
217.0392551632
 51
272.690417787
  0
ARC
  8
0
 62
7
  6
CONTINUOUS
 10
50.0373957441
 20
229.0667592623
 40
1.0
 50
150.771851406
 51
187.0392551632
  0
ARC
  8
0
 62
7
  6
CONTINUOUS
 10
50.6974718491
 20
230.2100446129
 40
1.0
 50
112.9607448368
 51
149.228148594
  0
ARC
  8
0
 62
7
  6
CONTINUOUS
 10
43.8032742498
 20
205.800701105
 40
1.0
 50
142.9607448368
 51
179.228148594
  0
ARC
  8
0
 62
7
  6
CONTINUOUS
 10
50.2141274178
 20
234.03949025
 40
20.0
 50
20.0358538453
 51
32.690417787
  0
ARC
  8
0
 62
7
  6
CONTINUOUS
 10
63.899962875
 20
247.7253257072
 40
20.0
 50
237.309582213
 51
249.9641461547
  0
ARC
  8
0
 62
7
  6
CONTINUOUS
 10
59.4269822289
 20
238.3823576343
 40
9.9
 50
315.532476267
 51
14.6825957279
  0
ARC
  8
0
 62
7
  6
CONTINUOUS
 10
59.5570954907
 20
238.5124708961
 40
9.9
 50
255.3174042721
 51
314.467523733
  0
ARC
  8
0
 62
7
  6
CONTINUOUS
 10
70.368828125
 20
251.4601268007
 40
20.0
 50
350.0358538453
 51
2.690417787
  0
ARC
  8
0
 62
7
  6
CONTINUOUS
 10
89.0640270315
 20
256.46949025
 40
20.0
 50
207.309582213
 51
219.9641461547
  0
ARC
  8
0
 62
7
  6
CONTINUOUS
 10
80.518828125
 20
250.6147328752
 40
9.9
 50
285.532476267
 51
344.6825957279
  0
ARC
  8
0
 62
7
  6
CONTINUOUS
 10
80.6965661459
 20
250.6623576343
 40
9.9
 50
225.3174042721
 51
284.467523733
  0
ARC
  8
0
 62
7
  6
CONTINUOUS
 10
92.254180125
 20
252.5397328752
 40
3.0
 50
357.309582213
 51
52.9607448368
  0
ARC
  8
0
 62
7
  6
CONTINUOUS
 10
69.5709531915
 20
246.4617805366
 40
3.0
 50
157.0392551632
 51
212.690417787
  0
ARC
  8
0
 62
7
  6
CONTINUOUS
 10
68.6275951833
 20
245.9171325366
 40
3.0
 50
27.309582213
 51
82.9607448368
  0
ARC
  8
0
 62
7
  6
CONTINUOUS
 10
92.13875202
 20
254.1361788752
 40
1.0
 50
90.771851406
 51
127.0392551632
  0
ARC
  8
0
 62
7
  6
CONTINUOUS
 10
67.7294085121
 20
247.2419812759
 40
1.0
 50
120.771851406
 51
157.0392551632
  0
ARC
  8
0
 62
7
  6
CONTINUOUS
 10
68.8726938627
 20
247.9020573809
 40
1.0
 50
82.9607448368
 51
119.228148594
  0
ARC
  8
0
 62
7
  6
CONTINUOUS
 10
115.228828125
 20
158.8211231993
 40
20.0
 50
170.0358538453
 51
182.690417787
  0
ARC
  8
0
 62
7
  6
CONTINUOUS
 10
96.5336292185
 20
153.81175975
 40
20.0
 50
27.309582213
 51
39.9641461547
  0
ARC
  8
0
 62
7
  6
CONTINUOUS
 10
105.078828125
 20
159.6665171248
 40
9.9
 50
105.532476267
 51
164.6825957279
  0
ARC
  8
0
 62
7
  6
CONTINUOUS
 10
104.9010901041
 20
159.6188923657
 40
9.9
 50
45.3174042721
 51
104.467523733
  0
ARC
  8
0
 62
7
  6
CONTINUOUS
 10
93.343476125
 20
157.7415171248
 40
3.0
 50
177.309582213
 51
232.9607448368
  0
ARC
  8
0
 62
7
  6
CONTINUOUS
 10
116.0267030585
 20
163.8194694634
 40
3.0
 50
337.0392551632
 51
32.690417787
  0
ARC
  8
0
 62
7
  6
CONTINUOUS
 10
116.9700610667
 20
164.3641174634
 40
3.0
 50
207.309582213
 51
262.9607448368
  0
ARC
  8
0
 62
7
  6
CONTINUOUS
 10
93.45890423
 20
156.1450711248
 40
1.0
 50
270.771851406
 51
307.0392551632
  0
ARC
  8
0
 62
7
  6
CONTINUOUS
 10
117.8682477379
 20
163.0392687241
 40
1.0
 50
300.771851406
 51
337.0392551632
  0
ARC
  8
0
 62
7
  6
CONTINUOUS
 10
116.7249623873
 20
162.3791926191
 40
1.0
 50
262.9607448368
 51
299.228148594
  0
ARC
  8
0
 62
7
  6
CONTINUOUS
 10
121.697693375
 20
162.5559242928
 40
20.0
 50
57.309582213
 51
69.9641461547
  0
ARC
  8
0
 62
7
  6
CONTINUOUS
 10
135.3835288322
 20
176.24175975
 40
20.0
 50
200.0358538453
 51
212.690417787
  0
ARC
  8
0
 62
7
  6
CONTINUOUS
 10
126.0405607593
 20
171.7687791039
 40
9.9
 50
75.3174042721
 51
134.467523733
  0
ARC
  8
0
 62
7
  6
CONTINUOUS
 10
126.1706740211
 20
171.8988923657
 40
9.9
 50
135.532476267
 51
194.6825957279
  0
ARC
  8
0
 62
7
  6
CONTINUOUS
 10
139.1183299257
 20
182.710625
 40
20.0
 50
87.309582213
 51
99.9641461547
  0
ARC
  8
0
 62
7
  6
CONTINUOUS
 10
144.127693375
 20
201.4058239065
 40
20.0
 50
230.0358538453
 51
242.690417787
  0
ARC
  8
0
 62
7
  6
CONTINUOUS
 10
138.2729360002
 20
192.860625
 40
9.9
 50
105.3174042721
 51
164.467523733
  0
ARC
  8
0
 62
7
  6
CONTINUOUS
 10
138.3205607593
 20
193.0383630209
 40
9.9
 50
165.532476267
 51
224.6825957279
  0
ARC
  8
0
 62
7
  6
CONTINUOUS
 10
140.1979360002
 20
204.595977
 40
3.0
 50
37.0392551632
 51
92.690417787
  0
ARC
  8
0
 62
7
  6
CONTINUOUS
 10
134.1199836616
 20
181.9127500665
 40
3.0
 50
237.309582213
 51
292.9607448368
  0
ARC
  8
0
 62
7
  6
CONTINUOUS
 10
133.5753356616
 20
180.9693920583
 40
3.0
 50
7.0392551632
 51
62.690417787
  0
ARC
  8
0
 62
7
  6
CONTINUOUS
 10
141.7943820002
 20
204.480548895
 40
1.0
 50
322.9607448368
 51
359.228148594
  0
ARC
  8
0
 62
7
  6
CONTINUOUS
 10
134.9001844009
 20
180.0712053871
 40
1.0
 50
292.9607448368
 51
329.228148594
  0
ARC
  8
0
 62
7
  6
CONTINUOUS
 10
135.5602605059
 20
181.2144907377
 40
1.0
 50
330.771851406
 51
7.0392551632
  0
ARC
  8
0
 62
7
  6
CONTINUOUS
 10
92.798828125
 20
205.140625
 40
50.0
 50
269.228148594
 51
270.771851406
  0
ARC
  8
0
 62
7
  6
CONTINUOUS
 10
92.798828125
 20
205.140625
 40
50.0
 50
89.228148594
 51
90.771851406
  0
ARC
  8
0
 62
7
  6
CONTINUOUS
 10
92.798828125
 20
205.140625
 40
50.0
 50
119.228148594
 51
120.771851406
  0
ARC
  8
0
 62
7
  6
CONTINUOUS
 10
92.798828125
 20
205.140625
 40
50.0
 50
59.228148594
 51
60.771851406
  0
ARC
  8
0
 62
7
  6
CONTINUOUS
 10
92.798828125
 20
205.140625
 40
50.0
 50
149.228148594
 51
150.771851406
  0
ARC
  8
0
 62
7
  6
CONTINUOUS
 10
92.798828125
 20
205.140625
 40
50.0
 50
29.228148594
 51
30.771851406
  0
ARC
  8
0
 62
7
  6
CONTINUOUS
 10
92.798828125
 20
205.140625
 40
50.0
 50
179.228148594
 51
180.771851406
  0
ARC
  8
0
 62
7
  6
CONTINUOUS
 10
92.798828125
 20
205.140625
 40
50.0
 50
209.228148594
 51
210.771851406
  0
ARC
  8
0
 62
7
  6
CONTINUOUS
 10
92.798828125
 20
205.140625
 40
50.0
 50
359.228148594
 51
0.771851406
  0
ARC
  8
0
 62
7
  6
CONTINUOUS
 10
92.798828125
 20
205.140625
 40
50.0
 50
239.228148594
 51
240.771851406
  0
ARC
  8
0
 62
7
  6
CONTINUOUS
 10
92.798828125
 20
205.140625
 40
50.0
 50
329.228148594
 51
330.771851406
  0
ARC
  8
0
 62
7
  6
CONTINUOUS
 10
92.798828125
 20
205.140625
 40
50.0
 50
299.228148594
 51
300.771851406
  0
ARC
  8
0
 62
7
  6
CONTINUOUS
 10
92.798828125
 20
205.140625
 40
41.4
 50
235.4024058123
 51
244.5975941877
  0
ARC
  8
0
 62
7
  6
CONTINUOUS
 10
92.798828125
 20
205.140625
 40
41.4
 50
205.4024058123
 51
214.5975941877
  0
ARC
  8
0
 62
7
  6
CONTINUOUS
 10
92.798828125
 20
205.140625
 40
41.4
 50
175.4024058123
 51
184.5975941877
  0
ARC
  8
0
 62
7
  6
CONTINUOUS
 10
92.798828125
 20
205.140625
 40
41.4
 50
145.4024058123
 51
154.5975941877
  0
ARC
  8
0
 62
7
  6
CONTINUOUS
 10
92.798828125
 20
205.140625
 40
41.4
 50
115.4024058123
 51
124.5975941877
  0
ARC
  8
0
 62
7
  6
CONTINUOUS
 10
92.798828125
 20
205.140625
 40
41.4
 50
265.4024058123
 51
274.5975941877
  0
ARC
  8
0
 62
7
  6
CONTINUOUS
 10
92.798828125
 20
205.140625
 40
41.4
 50
85.4024058123
 51
94.5975941877
  0
ARC
  8
0
 62
7
  6
CONTINUOUS
 10
92.798828125
 20
205.140625
 40
41.4
 50
55.4024058123
 51
64.5975941877
  0
ARC
  8
0
 62
7
  6
CONTINUOUS
 10
92.798828125
 20
205.140625
 40
41.4
 50
25.4024058123
 51
34.5975941877
  0
ARC
  8
0
 62
7
  6
CONTINUOUS
 10
92.798828125
 20
205.140625
 40
41.4
 50
355.4024058123
 51
4.5975941877
  0
ARC
  8
0
 62
7
  6
CONTINUOUS
 10
92.798828125
 20
205.140625
 40
41.4
 50
325.4024058123
 51
334.5975941877
  0
ARC
  8
0
 62
7
  6
CONTINUOUS
 10
92.798828125
 20
205.140625
 40
41.4
 50
295.4024058123
 51
304.5975941877
  0
ARC
  8
0
 62
7
  6
CONTINUOUS
 10
115.228828125
 20
251.4601268007
 40
20.0
 50
177.309582213
 51
189.9641461547
  0
ARC
  8
0
 62
7
  6
CONTINUOUS
 10
96.5336292185
 20
256.46949025
 40
20.0
 50
320.0358538453
 51
332.690417787
  0
ARC
  8
0
 62
7
  6
CONTINUOUS
 10
105.078828125
 20
250.6147328752
 40
9.9
 50
195.3174042721
 51
254.467523733
  0
ARC
  8
0
 62
7
  6
CONTINUOUS
 10
104.9010901041
 20
250.6623576343
 40
9.9
 50
255.532476267
 51
314.6825957279
  0
ARC
  8
0
 62
7
  6
CONTINUOUS
 10
93.343476125
 20
252.5397328752
 40
3.0
 50
127.0392551632
 51
182.690417787
  0
ARC
  8
0
 62
7
  6
CONTINUOUS
 10
116.0267030585
 20
246.4617805366
 40
3.0
 50
327.309582213
 51
22.9607448368
  0
ARC
  8
0
 62
7
  6
CONTINUOUS
 10
116.9700610667
 20
245.9171325366
 40
3.0
 50
97.0392551632
 51
152.690417787
  0
ARC
  8
0
 62
7
  6
CONTINUOUS
 10
93.45890423
 20
254.1361788752
 40
1.0
 50
52.9607448368
 51
89.228148594
  0
ARC
  8
0
 62
7
  6
CONTINUOUS
 10
117.8682477379
 20
247.2419812759
 40
1.0
 50
22.9607448368
 51
59.228148594
  0
ARC
  8
0
 62
7
  6
CONTINUOUS
 10
116.7249623873
 20
247.9020573809
 40
1.0
 50
60.771851406
 51
97.0392551632
  0
ARC
  8
0
 62
7
  6
CONTINUOUS
 10
144.127693375
 20
208.8754260935
 40
20.0
 50
117.309582213
 51
129.9641461547
  0
ARC
  8
0
 62
7
  6
CONTINUOUS
 10
139.1183299257
 20
227.570625
 40
20.0
 50
260.0358538453
 51
272.690417787
  0
ARC
  8
0
 62
7
  6
CONTINUOUS
 10
138.3205607593
 20
217.2428869791
 40
9.9
 50
135.3174042721
 51
194.467523733
  0
ARC
  8
0
 62
7
  6
CONTINUOUS
 10
138.2729360002
 20
217.420625
 40
9.9
 50
195.532476267
 51
254.6825957279
  0
ARC
  8
0
 62
7
  6
CONTINUOUS
 10
133.5753356616
 20
229.3118579417
 40
3.0
 50
297.309582213
 51
352.9607448368
  0
ARC
  8
0
 62
7
  6
CONTINUOUS
 10
134.1199836616
 20
228.3684999335
 40
3.0
 50
67.0392551632
 51
122.690417787
  0
ARC
  8
0
 62
7
  6
CONTINUOUS
 10
140.1979360002
 20
205.685273
 40
3.0
 50
267.309582213
 51
322.9607448368
  0
ARC
  8
0
 62
7
  6
CONTINUOUS
 10
135.5602605059
 20
229.0667592623
 40
1.0
 50
352.9607448368
 51
29.228148594
  0
ARC
  8
0
 62
7
  6
CONTINUOUS
 10
134.9001844009
 20
230.2100446129
 40
1.0
 50
30.771851406
 51
67.0392551632
  0
ARC
  8
0
 62
7
  6
CONTINUOUS
 10
141.7943820002
 20
205.800701105
 40
1.0
 50
0.771851406
 51
37.0392551632
  0
ARC
  8
0
 62
7
  6
CONTINUOUS
 10
135.3835288322
 20
234.03949025
 40
20.0
 50
147.309582213
 51
159.9641461547
  0
ARC
  8
0
 62
7
  6
CONTINUOUS
 10
121.697693375
 20
247.7253257072
 40
20.0
 50
290.0358538453
 51
302.690417787
  0
ARC
  8
0
 62
7
  6
CONTINUOUS
 10
126.1706740211
 20
238.3823576343
 40
9.9
 50
165.3174042721
 51
224.467523733
  0
ARC
  8
0
 62
7
  6
CONTINUOUS
 10
126.0405607593
 20
238.5124708961
 40
9.9
 50
225.532476267
 51
284.6825957279
  0
ARC
  8
0
 62
7
  6
CONTINUOUS
 10
141.798828125
 20
98.8638573247
 40
1.0
 50
279.0
 51
360.0
  0
ARC
  8
0
 62
7
  6
CONTINUOUS
 10
43.798828125
 20
98.8638573247
 40
1.0
 50
180.0
 51
261.0
  0
ARC
  8
0
 62
7
  6
CONTINUOUS
 10
139.698828125
 20
98.53125
 40
1.0
 50
270.0
 51
279.0
  0
ARC
  8
0
 62
7
  6
CONTINUOUS
 10
45.898828125
 20
98.53125
 40
1.0
 50
261.0
 51
270.0
  0
ARC
  8
0
 62
7
  6
CONTINUOUS
 10
133.198828125
 20
90.53125
 40
1.0
 50
270.0
 51
360.0
  0
ARC
  8
0
 62
7
  6
CONTINUOUS
 10
52.398828125
 20
90.53125
 40
1.0
 50
180.0
 51
270.0
  0
ARC
  8
0
 62
7
  6
CONTINUOUS
 10
133.198828125
 20
118.53125
 40
1.0
 50
0.0
 51
90.0
  0
ARC
  8
0
 62
7
  6
CONTINUOUS
 10
52.398828125
 20
118.53125
 40
1.0
 50
90.0
 51
180.0
  0
ARC
  8
0
 62
7
  6
CONTINUOUS
 10
141.798828125
 20
110.1986426753
 40
1.0
 50
0.0
 51
81.0
  0
ARC
  8
0
 62
7
  6
CONTINUOUS
 10
43.798828125
 20
110.1986426753
 40
1.0
 50
99.0
 51
180.0
  0
ENDSEC
  0
EOF
