  0
SECTION
  2
HEADER
  9
$EXTMAX
 10
210.0
 20
297.0
 30
0.0
  9
$EXTMIN
 10
0.0
 20
0.0
 30
0.0
  9
$LIMMIN
 10
0.0
 20
0.0
  9
$LIMMAX
 10
210.0
 20
297.0
  9
$VIEWCTR
 10
105.0
 20
148.5
  9
$VIEWSIZE
 40
297.0
  9
$CLAYER
  8
0
  9
$LTSCALE
 40
19.36
  9
$CELTYPE
  6
BYLAYER
  9
$DIMSCALE
 40
1.0
  9
$DIMASZ
 40
3.5
  9
$DIMEXO
 40
1.0
  9
$DIMDLI
 40
13.376
  9
$DIMEXE
 40
2.0
  9
$DIMCEN
 40
3.168
  9
$DIMLFAC
 40
1.0
  9
$DIMBLK
  1
_FILLED
  9
$DIMTXT
 40
3.5
  9
$AUNITS
 70
0
  9
$PDMODE
 70
3
  9
$PDSIZE
 40
0.3125
  9
$TILEMODE
 70
1
  0
ENDSEC
  0
SECTION
  2
TABLES
  0
TABLE
  2
LTYPE
 70
6
  0
LTYPE
  2
BYBLOCK
 70
0
  3

 72
65
 73
0
 40
0.0
  0
LTYPE
  2
BYLAYER
 70
0
  3

 72
65
 73
0
 40
0.0
  0
LTYPE
  2
CONTINUOUS
 70
64
  3
Solid line
 72
65
 73
0
 40
0.0
  0
LTYPE
  2
CENTER
 70
64
  3
____ _ ____ _ ____ _ ____ _ ____ _ ____ _ ____
 72
65
 73
4
 40
0.6
 49
0.375
 49
-0.075
 49
0.075
 49
-0.075
  0
LTYPE
  2
HIDDEN
 70
64
  3
- - - - - - - - - - - - - - - - - - - -
 72
65
 73
2
 40
0.2
 49
0.1
 49
-0.1
  0
LTYPE
  2
PHANTOM
 70
64
  3
_____ _ _ _____ _ _ _____ _ _ _____
 72
65
 73
6
 40
0.8
 49
0.45
 49
-0.05
 49
0.1
 49
-0.05
 49
0.1
 49
-0.05
  0
LTYPE
  2
DOT
 70
64
  3
. . . . . . . . . . . . . . . . . . . .
 72
65
 73
2
 40
0.2
 49
0.1
 49
-0.1
  0
LTYPE
  2
DASHED
 70
64
  3
- - - - - - - - - - - - - - - - - - - -
 72
65
 73
2
 40
0.2
 49
0.1
 49
-0.1
  0
ENDTAB
  0
TABLE
  2
LAYER
 70
36
  0
LAYER
  2
0
 70
0
 62
7
  6
CONTINUOUS
  0
LAYER
  2
DEFAULT_1
 70
0
 62
7
  6
CENTER
  0
LAYER
  2
DEFAULT_2
 70
0
 62
8
  6
HIDDEN
  0
LAYER
  2
DEFAULT_3
 70
0
 62
7
  6
PHANTOM
  0
LAYER
  2
CSYS
 70
0
 62
7
  6
CONTINUOUS
  0
LAYER
  2
CURVE
 70
0
 62
7
  6
CONTINUOUS
  0
LAYER
  2
PITCHLINE
 70
0
 62
7
  6
CONTINUOUS
  0
LAYER
  2
SQ
 70
0
 62
7
  6
CONTINUOUS
  0
LAYER
  2
SURFACE
 70
0
 62
7
  6
CONTINUOUS
  0
ENDTAB
  0
TABLE
  2
STYLE
 70
1
  0
STYLE
  2
STANDARD
 70
0
 40
0.0
 41
0.8
 50
0.0
 71
0
 42
0.2
  3
txt
  4

  0
STYLE
  2
TEXTSTYLE_1
 70
0
 40
0.0
 41
0.8
 50
0.0
 71
0
 42
0.2
  3
gdt
  4

  0
STYLE
  2
TEXTSTYLE_2
 70
0
 40
0.0
 41
0.6
 50
0.0
 71
0
 42
0.2
  3
txt
  4

  0
STYLE
  2
TEXTSTYLE_3
 70
0
 40
0.0
 41
1.0
 50
0.0
 71
0
 42
0.2
  3
ftb_____.ttf
  4

  0
STYLE
  2
TEXTSTYLE_4
 70
0
 40
0.0
 41
1.0
 50
0.0
 71
0
 42
0.2
  3
fti_____.ttf
  4

  0
STYLE
  2
TEXTSTYLE_5
 70
0
 40
0.0
 41
1.0
 50
0.0
 71
0
 42
0.2
  3
frutiger light.ttf
  4

  0
STYLE
  2
TEXTSTYLE_6
 70
0
 40
0.0
 41
0.7
 50
0.0
 71
0
 42
0.2
  3
txt
  4

  0
STYLE
  2
TEXTSTYLE_7
 70
0
 40
0.0
 41
0.8
 50
0.0
 71
0
 42
0.2
  3
txt
  4

  0
ENDTAB
  0
ENDSEC
  0
SECTION
  2
BLOCKS
  0
BLOCK
  8
0
 62
2
  6
CONTINUOUS
  2
UNI_LOGO2_BL1
 70
64
 10
173.5956734183
 20
35.5937998301
  0
TEXT
  8
0
 62
7
  6
CONTINUOUS
 10
164.6539584268
 20
30.6865562072
  7
TEXTSTYLE_4
 40
1.0655737705
  1
The brand for plastic modular belts and chains
 41
1.0
 72
0
  0
LINE
  8
0
 62
7
  6
CONTINUOUS
 10
149.5737418074
 20
36.1675703219
 11
149.5737418074
 21
34.0364227809
  0
LINE
  8
0
 62
7
  6
CONTINUOUS
 10
149.8628043005
 20
31.0454914852
 11
149.8628043005
 21
31.1422825445
  0
LINE
  8
0
 62
7
  6
CONTINUOUS
 10
149.5737418074
 20
31.1100188581
 11
149.6315543091
 21
30.9164367395
  0
LINE
  8
0
 62
7
  6
CONTINUOUS
 10
150.9671844304
 20
33.9544555678
 11
150.9671844304
 21
36.1675703219
  0
LINE
  8
0
 62
7
  6
CONTINUOUS
 10
151.8862417523
 20
32.1101932727
 11
151.8862417523
 21
30.5937998301
  0
LINE
  8
0
 62
7
  6
CONTINUOUS
 10
152.1753043074
 20
30.5937998301
 11
152.1753043074
 21
31.3358647082
  0
LINE
  8
0
 62
7
  6
CONTINUOUS
 10
152.1753043074
 20
31.4649194539
 11
152.1753043074
 21
32.1101932727
  0
LINE
  8
0
 62
7
  6
CONTINUOUS
 10
149.6315543091
 20
31.3036010218
 11
149.5737418074
 21
31.1100188581
  0
LINE
  8
0
 62
7
  6
CONTINUOUS
 10
149.9784292936
 20
30.8841730531
 11
149.8628043005
 21
31.0454914852
  0
LINE
  8
0
 62
7
  6
CONTINUOUS
 10
151.0768668626
 20
31.400392081
 11
151.1346793074
 21
31.3036010218
  0
LINE
  8
0
 62
7
  6
CONTINUOUS
 10
151.4237418626
 20
31.3036010218
 11
151.3659292523
 21
31.4326557675
  0
LINE
  8
0
 62
7
  6
CONTINUOUS
 10
152.852430332
 20
36.1675703219
 11
152.852430332
 21
34.3642916334
  0
LINE
  8
0
 62
7
  6
CONTINUOUS
 10
152.852430332
 20
33.0528162235
 11
152.852430332
 21
32.3970785186
  0
LINE
  8
0
 62
7
  6
CONTINUOUS
 10
153.2159293074
 20
31.2390736489
 11
153.2159293074
 21
30.5937998301
  0
LINE
  8
0
 62
7
  6
CONTINUOUS
 10
153.5049916972
 20
30.5937998301
 11
153.5049916972
 21
31.2390736489
  0
LINE
  8
0
 62
7
  6
CONTINUOUS
 10
149.8628043005
 20
31.1422825445
 11
149.9206168074
 21
31.2713373354
  0
LINE
  8
0
 62
7
  6
CONTINUOUS
 10
149.6315543091
 20
30.9164367395
 11
149.7471793074
 21
30.7873819712
  0
LINE
  8
0
 62
7
  6
CONTINUOUS
 10
153.1581166972
 20
31.3681283946
 11
153.2159293074
 21
31.2390736489
  0
LINE
  8
0
 62
7
  6
CONTINUOUS
 10
153.9674919177
 20
30.8841730531
 11
154.0253041972
 21
30.7551182848
  0
LINE
  8
0
 62
7
  6
CONTINUOUS
 10
153.5049916972
 20
31.2390736489
 11
153.4471794177
 21
31.400392081
  0
LINE
  8
0
 62
7
  6
CONTINUOUS
 10
153.9674919177
 20
31.4326557675
 11
153.9674919177
 21
31.3681283946
  0
LINE
  8
0
 62
7
  6
CONTINUOUS
 10
153.9674919177
 20
30.9809641124
 11
153.9674919177
 21
30.8841730531
  0
LINE
  8
0
 62
7
  6
CONTINUOUS
 10
154.245872955
 20
32.3970785186
 11
154.245872955
 21
36.1675703219
  0
LINE
  8
0
 62
7
  6
CONTINUOUS
 10
154.2565543074
 20
30.8519093441
 11
154.2565543074
 21
30.9164367395
  0
LINE
  8
0
 62
7
  6
CONTINUOUS
 10
154.5737418074
 20
36.1675703219
 11
154.5737418074
 21
32.3970785186
  0
LINE
  8
0
 62
7
  6
CONTINUOUS
 10
151.3659292523
 20
30.7873819712
 11
151.4237418626
 21
30.9164367395
  0
LINE
  8
0
 62
7
  6
CONTINUOUS
 10
155.759679528
 20
30.6905909007
 11
155.7018665869
 21
30.8519093441
  0
LINE
  8
0
 62
7
  6
CONTINUOUS
 10
155.412804528
 20
31.3681283946
 11
155.412804528
 21
31.2713373354
  0
LINE
  8
0
 62
7
  6
CONTINUOUS
 10
155.412804528
 20
31.1422825445
 11
155.412804528
 21
30.9487004259
  0
LINE
  8
0
 62
7
  6
CONTINUOUS
 10
155.7018665869
 20
30.8519093441
 11
155.7018665869
 21
31.3681283946
  0
LINE
  8
0
 62
7
  6
CONTINUOUS
 10
155.9671844304
 20
32.3970785186
 11
155.9671844304
 21
34.2003572071
  0
LINE
  8
0
 62
7
  6
CONTINUOUS
 10
155.9671844304
 20
35.511832617
 11
155.9671844304
 21
36.1675703219
  0
LINE
  8
0
 62
7
  6
CONTINUOUS
 10
156.279992028
 20
32.1101932727
 11
156.279992028
 21
31.9488748406
  0
LINE
  8
0
 62
7
  6
CONTINUOUS
 10
156.279992028
 20
31.626237886
 11
156.279992028
 21
30.5937998301
  0
LINE
  8
0
 62
7
  6
CONTINUOUS
 10
156.5690540869
 20
30.5937998301
 11
156.5690540869
 21
31.626237886
  0
LINE
  8
0
 62
7
  6
CONTINUOUS
 10
156.5690540869
 20
31.9488748406
 11
156.5690540869
 21
32.1101932727
  0
LINE
  8
0
 62
7
  6
CONTINUOUS
 10
151.1346793074
 20
30.9164367395
 11
151.0768668626
 21
30.8196456577
  0
LINE
  8
0
 62
7
  6
CONTINUOUS
 10
153.4471794177
 20
31.400392081
 11
153.3893668074
 21
31.4649194539
  0
LINE
  8
0
 62
7
  6
CONTINUOUS
 10
154.3143669177
 20
30.7873819712
 11
154.2565543074
 21
30.8519093441
  0
LINE
  8
0
 62
7
  6
CONTINUOUS
 10
155.4706168074
 20
30.6583272086
 11
155.5284290869
 21
30.5937998301
  0
LINE
  8
0
 62
7
  6
CONTINUOUS
 10
155.412804528
 20
30.7551182848
 11
155.4706168074
 21
30.6583272086
  0
LINE
  8
0
 62
7
  6
CONTINUOUS
 10
155.8174918074
 20
30.5937998301
 11
155.759679528
 21
30.6905909007
  0
LINE
  8
0
 62
7
  6
CONTINUOUS
 10
155.7018665869
 20
31.3681283946
 11
155.6440543074
 21
31.4649194539
  0
LINE
  8
0
 62
7
  6
CONTINUOUS
 10
157.0315543074
 20
31.626237886
 11
157.0315543074
 21
30.5937998301
  0
LINE
  8
0
 62
7
  6
CONTINUOUS
 10
157.320617028
 20
30.5937998301
 11
157.320617028
 21
31.3358647082
  0
LINE
  8
0
 62
7
  6
CONTINUOUS
 10
157.320617028
 20
31.4649194539
 11
157.320617028
 21
31.626237886
  0
LINE
  8
0
 62
7
  6
CONTINUOUS
 10
157.852430332
 20
34.6101932727
 11
157.852430332
 21
32.3970785186
  0
LINE
  8
0
 62
7
  6
CONTINUOUS
 10
149.7471793074
 20
31.4326557675
 11
149.6315543091
 21
31.3036010218
  0
LINE
  8
0
 62
7
  6
CONTINUOUS
 10
149.9206168074
 20
31.2713373354
 11
149.9784292936
 21
31.3358647082
  0
LINE
  8
0
 62
7
  6
CONTINUOUS
 10
149.7471793074
 20
30.7873819712
 11
149.8628043005
 21
30.7228545871
  0
LINE
  8
0
 62
7
  6
CONTINUOUS
 10
150.1518667936
 20
30.7873819712
 11
149.9784292936
 21
30.8841730531
  0
LINE
  8
0
 62
7
  6
CONTINUOUS
 10
155.3549915869
 20
31.4326557675
 11
155.412804528
 21
31.3681283946
  0
LINE
  8
0
 62
7
  6
CONTINUOUS
 10
158.3034290869
 20
31.3681283946
 11
158.361242028
 21
31.2068099625
  0
LINE
  8
0
 62
7
  6
CONTINUOUS
 10
158.6503040869
 20
31.2068099625
 11
158.5924918074
 21
31.3681283946
  0
LINE
  8
0
 62
7
  6
CONTINUOUS
 10
158.361242028
 20
31.2068099625
 11
158.361242028
 21
30.5937998301
  0
LINE
  8
0
 62
7
  6
CONTINUOUS
 10
158.6503040869
 20
30.5937998301
 11
158.6503040869
 21
31.2068099625
  0
LINE
  8
0
 62
7
  6
CONTINUOUS
 10
159.1128043074
 20
31.4326557675
 11
159.1128043074
 21
31.3681283946
  0
LINE
  8
0
 62
7
  6
CONTINUOUS
 10
159.245872955
 20
32.3970785186
 11
159.245872955
 21
34.5282260596
  0
LINE
  8
0
 62
7
  6
CONTINUOUS
 10
159.5737418074
 20
36.1675703219
 11
159.5737418074
 21
32.3970785186
  0
LINE
  8
0
 62
7
  6
CONTINUOUS
 10
154.2565543074
 20
30.9164367395
 11
154.3143669177
 21
31.0132277988
  0
LINE
  8
0
 62
7
  6
CONTINUOUS
 10
149.8628043005
 20
30.7228545871
 11
150.0362418212
 21
30.6583272086
  0
LINE
  8
0
 62
7
  6
CONTINUOUS
 10
151.3659292523
 20
31.4326557675
 11
151.1924917523
 21
31.5294468267
  0
LINE
  8
0
 62
7
  6
CONTINUOUS
 10
154.0253041972
 20
30.7551182848
 11
154.1987416972
 21
30.6583272086
  0
LINE
  8
0
 62
7
  6
CONTINUOUS
 10
153.0424918074
 20
31.4326557675
 11
153.1581166972
 21
31.3681283946
  0
LINE
  8
0
 62
7
  6
CONTINUOUS
 10
153.3893668074
 20
31.4649194539
 11
153.2737419177
 21
31.5294468267
  0
LINE
  8
0
 62
7
  6
CONTINUOUS
 10
159.1128043074
 20
30.8519093441
 11
159.228429528
 21
30.7228545871
  0
LINE
  8
0
 62
7
  6
CONTINUOUS
 10
159.4596793074
 20
30.7873819712
 11
159.401867028
 21
30.8519093441
  0
LINE
  8
0
 62
7
  6
CONTINUOUS
 10
159.1128043074
 20
31.3681283946
 11
159.228429528
 21
31.2390736489
  0
LINE
  8
0
 62
7
  6
CONTINUOUS
 10
158.5924918074
 20
31.3681283946
 11
158.534679528
 21
31.4649194539
  0
LINE
  8
0
 62
7
  6
CONTINUOUS
 10
160.9628038663
 20
30.7873819712
 11
160.9628038663
 21
30.8519093441
  0
LINE
  8
0
 62
7
  6
CONTINUOUS
 10
160.9671844304
 20
32.3970785186
 11
160.9671844304
 21
36.1675703219
  0
LINE
  8
0
 62
7
  6
CONTINUOUS
 10
154.0253041972
 20
31.4971831403
 11
153.9674919177
 21
31.4326557675
  0
LINE
  8
0
 62
7
  6
CONTINUOUS
 10
150.9034292799
 20
31.4649194539
 11
151.0768668626
 21
31.400392081
  0
LINE
  8
0
 62
7
  6
CONTINUOUS
 10
155.6440543074
 20
31.4649194539
 11
155.5284290869
 21
31.5294468267
  0
LINE
  8
0
 62
7
  6
CONTINUOUS
 10
159.4596793074
 20
31.3036010218
 11
159.401867028
 21
31.3681283946
  0
LINE
  8
0
 62
7
  6
CONTINUOUS
 10
160.615929528
 20
30.9164367395
 11
160.6737418074
 21
30.8519093441
  0
LINE
  8
0
 62
7
  6
CONTINUOUS
 10
160.9628038663
 20
30.8519093441
 11
160.8471793074
 21
30.9809641124
  0
LINE
  8
0
 62
7
  6
CONTINUOUS
 10
160.615929528
 20
31.4326557675
 11
160.6737418074
 21
31.3681283946
  0
LINE
  8
0
 62
7
  6
CONTINUOUS
 10
160.9628038663
 20
31.3681283946
 11
160.8471793074
 21
31.4971831403
  0
LINE
  8
0
 62
7
  6
CONTINUOUS
 10
154.2565543074
 20
31.3681283946
 11
154.3143669177
 21
31.4326557675
  0
LINE
  8
0
 62
7
  6
CONTINUOUS
 10
154.0831168074
 20
31.1100188581
 11
153.9674919177
 21
30.9809641124
  0
LINE
  8
0
 62
7
  6
CONTINUOUS
 10
155.412804528
 20
30.9487004259
 11
155.3549915869
 21
30.8841730531
  0
LINE
  8
0
 62
7
  6
CONTINUOUS
 10
155.3549915869
 20
30.6905909007
 11
155.412804528
 21
30.7551182848
  0
LINE
  8
0
 62
7
  6
CONTINUOUS
 10
154.1987416972
 20
30.6583272086
 11
154.3143669177
 21
30.6260635193
  0
LINE
  8
0
 62
7
  6
CONTINUOUS
 10
151.1924917523
 20
31.5294468267
 11
150.9612418074
 21
31.5939741996
  0
LINE
  8
0
 62
7
  6
CONTINUOUS
 10
154.5456166972
 20
30.7228545871
 11
154.3143669177
 21
30.7873819712
  0
LINE
  8
0
 62
7
  6
CONTINUOUS
 10
153.2737419177
 20
31.5294468267
 11
153.1003044177
 21
31.5939741996
  0
LINE
  8
0
 62
7
  6
CONTINUOUS
 10
155.5284290869
 20
31.5294468267
 11
155.3549915869
 21
31.5939741996
  0
LINE
  8
0
 62
7
  6
CONTINUOUS
 10
158.187804528
 20
31.4326557675
 11
158.3034290869
 21
31.3681283946
  0
LINE
  8
0
 62
7
  6
CONTINUOUS
 10
158.534679528
 20
31.4649194539
 11
158.4190543074
 21
31.5294468267
  0
LINE
  8
0
 62
7
  6
CONTINUOUS
 10
150.0362418212
 20
30.6583272086
 11
150.2096793212
 21
30.6260635193
  0
LINE
  8
0
 62
7
  6
CONTINUOUS
 10
150.498741835
 20
30.7228545871
 11
150.1518667936
 21
30.7873819712
  0
LINE
  8
0
 62
7
  6
CONTINUOUS
 10
152.9268669177
 20
31.4649194539
 11
153.0424918074
 21
31.4326557675
  0
LINE
  8
0
 62
7
  6
CONTINUOUS
 10
155.239367028
 20
31.4649194539
 11
155.3549915869
 21
31.4326557675
  0
LINE
  8
0
 62
7
  6
CONTINUOUS
 10
159.575304528
 20
30.7551182848
 11
159.4596793074
 21
30.7873819712
  0
LINE
  8
0
 62
7
  6
CONTINUOUS
 10
158.0721793074
 20
31.4649194539
 11
158.187804528
 21
31.4326557675
  0
LINE
  8
0
 62
7
  6
CONTINUOUS
 10
159.228429528
 20
30.7228545871
 11
159.401867028
 21
30.6583272086
  0
LINE
  8
0
 62
7
  6
CONTINUOUS
 10
158.4190543074
 20
31.5294468267
 11
158.2456168074
 21
31.5939741996
  0
LINE
  8
0
 62
7
  6
CONTINUOUS
 10
159.6331168074
 20
31.2390736489
 11
159.4596793074
 21
31.3036010218
  0
LINE
  8
0
 62
7
  6
CONTINUOUS
 10
160.442492028
 20
30.9809641124
 11
160.615929528
 21
30.9164367395
  0
LINE
  8
0
 62
7
  6
CONTINUOUS
 10
160.8471793074
 20
31.4971831403
 11
160.6737418074
 21
31.5617105132
  0
LINE
  8
0
 62
7
  6
CONTINUOUS
 10
159.228429528
 20
31.2390736489
 11
159.4596793074
 21
31.1422825445
  0
LINE
  8
0
 62
7
  6
CONTINUOUS
 10
160.8471793074
 20
30.9809641124
 11
160.615929528
 21
31.0777551716
  0
LINE
  8
0
 62
7
  6
CONTINUOUS
 10
159.401867028
 20
31.3681283946
 11
159.4596793074
 21
31.4326557675
  0
LINE
  8
0
 62
7
  6
CONTINUOUS
 10
149.8628043005
 20
31.4971831403
 11
149.7471793074
 21
31.4326557675
  0
LINE
  8
0
 62
7
  6
CONTINUOUS
 10
149.9784292936
 20
31.3358647082
 11
150.1518667936
 21
31.4326557675
  0
LINE
  8
0
 62
7
  6
CONTINUOUS
 10
152.2909293626
 20
31.5294468267
 11
152.1753043074
 21
31.4649194539
  0
LINE
  8
0
 62
7
  6
CONTINUOUS
 10
152.1753043074
 20
31.3358647082
 11
152.2909293626
 21
31.400392081
  0
LINE
  8
0
 62
7
  6
CONTINUOUS
 10
151.1924917523
 20
30.6905909007
 11
151.3659292523
 21
30.7873819712
  0
LINE
  8
0
 62
7
  6
CONTINUOUS
 10
150.2096793212
 20
30.6260635193
 11
150.5565542799
 21
30.5937998301
  0
LINE
  8
0
 62
7
  6
CONTINUOUS
 10
154.3143669177
 20
30.6260635193
 11
154.5456166972
 21
30.5937998301
  0
LINE
  8
0
 62
7
  6
CONTINUOUS
 10
152.6956168074
 20
31.4971831403
 11
152.9268669177
 21
31.4649194539
  0
LINE
  8
0
 62
7
  6
CONTINUOUS
 10
155.0081169177
 20
31.4971831403
 11
155.239367028
 21
31.4649194539
  0
LINE
  8
0
 62
7
  6
CONTINUOUS
 10
159.4596793074
 20
31.1422825445
 11
160.442492028
 21
30.9809641124
  0
LINE
  8
0
 62
7
  6
CONTINUOUS
 10
160.615929528
 20
31.0777551716
 11
159.6331168074
 21
31.2390736489
  0
LINE
  8
0
 62
7
  6
CONTINUOUS
 10
153.1003044177
 20
31.5939741996
 11
152.9268669177
 21
31.626237886
  0
LINE
  8
0
 62
7
  6
CONTINUOUS
 10
159.401867028
 20
30.6583272086
 11
159.575304528
 21
30.6260635193
  0
LINE
  8
0
 62
7
  6
CONTINUOUS
 10
158.2456168074
 20
31.5939741996
 11
158.0721793074
 21
31.626237886
  0
LINE
  8
0
 62
7
  6
CONTINUOUS
 10
160.5003043074
 20
31.4649194539
 11
160.615929528
 21
31.4326557675
  0
LINE
  8
0
 62
7
  6
CONTINUOUS
 10
160.6737418074
 20
30.8519093441
 11
160.615929528
 21
30.7873819712
  0
LINE
  8
0
 62
7
  6
CONTINUOUS
 10
159.228429528
 20
31.5294468267
 11
159.1128043074
 21
31.4326557675
  0
LINE
  8
0
 62
7
  6
CONTINUOUS
 10
154.1409294177
 20
31.5617105132
 11
154.0253041972
 21
31.4971831403
  0
LINE
  8
0
 62
7
  6
CONTINUOUS
 10
154.1987416972
 20
31.1745462761
 11
154.0831168074
 21
31.1100188581
  0
LINE
  8
0
 62
7
  6
CONTINUOUS
 10
154.3143669177
 20
31.0132277988
 11
154.4299918074
 21
31.0777551716
  0
LINE
  8
0
 62
7
  6
CONTINUOUS
 10
151.8862417523
 20
30.5937998301
 11
152.1753043074
 21
30.5937998301
  0
LINE
  8
0
 62
7
  6
CONTINUOUS
 10
153.2159293074
 20
30.5937998301
 11
153.5049916972
 21
30.5937998301
  0
LINE
  8
0
 62
7
  6
CONTINUOUS
 10
154.5456166972
 20
30.5937998301
 11
154.8924916972
 21
30.5937998301
  0
LINE
  8
0
 62
7
  6
CONTINUOUS
 10
155.5284290869
 20
30.5937998301
 11
155.8174918074
 21
30.5937998301
  0
LINE
  8
0
 62
7
  6
CONTINUOUS
 10
156.279992028
 20
30.5937998301
 11
156.5690540869
 21
30.5937998301
  0
LINE
  8
0
 62
7
  6
CONTINUOUS
 10
157.0315543074
 20
30.5937998301
 11
157.320617028
 21
30.5937998301
  0
LINE
  8
0
 62
7
  6
CONTINUOUS
 10
158.361242028
 20
30.5937998301
 11
158.6503040869
 21
30.5937998301
  0
LINE
  8
0
 62
7
  6
CONTINUOUS
 10
159.922179528
 20
30.5937998301
 11
160.269054528
 21
30.5937998301
  0
LINE
  8
0
 62
7
  6
CONTINUOUS
 10
160.269054528
 20
30.7228545871
 11
159.922179528
 21
30.7228545871
  0
LINE
  8
0
 62
7
  6
CONTINUOUS
 10
154.8924916972
 20
30.7228545871
 11
154.5456166972
 21
30.7228545871
  0
LINE
  8
0
 62
7
  6
CONTINUOUS
 10
159.401867028
 20
30.8519093441
 11
159.1128043074
 21
30.8519093441
  0
LINE
  8
0
 62
7
  6
CONTINUOUS
 10
151.4237418626
 20
30.9164367395
 11
151.1346793074
 21
30.9164367395
  0
LINE
  8
0
 62
7
  6
CONTINUOUS
 10
150.498741835
 20
31.4971831403
 11
150.9034292799
 21
31.4649194539
  0
LINE
  8
0
 62
7
  6
CONTINUOUS
 10
150.9612418074
 20
31.5939741996
 11
150.5565542799
 21
31.626237886
  0
LINE
  8
0
 62
7
  6
CONTINUOUS
 10
159.575304528
 20
30.6260635193
 11
159.922179528
 21
30.5937998301
  0
LINE
  8
0
 62
7
  6
CONTINUOUS
 10
159.922179528
 20
30.7228545871
 11
159.575304528
 21
30.7551182848
  0
LINE
  8
0
 62
7
  6
CONTINUOUS
 10
155.3549915869
 20
31.5939741996
 11
155.0081169177
 21
31.626237886
  0
LINE
  8
0
 62
7
  6
CONTINUOUS
 10
160.1534293074
 20
31.4971831403
 11
160.5003043074
 21
31.4649194539
  0
LINE
  8
0
 62
7
  6
CONTINUOUS
 10
160.5003043074
 20
31.5939741996
 11
160.1534293074
 21
31.626237886
  0
LINE
  8
0
 62
7
  6
CONTINUOUS
 10
157.840929528
 20
31.4971831403
 11
158.0721793074
 21
31.4649194539
  0
LINE
  8
0
 62
7
  6
CONTINUOUS
 10
160.6737418074
 20
31.5617105132
 11
160.5003043074
 21
31.5939741996
  0
LINE
  8
0
 62
7
  6
CONTINUOUS
 10
160.8471793074
 20
30.6905909007
 11
160.9628038663
 21
30.7873819712
  0
LINE
  8
0
 62
7
  6
CONTINUOUS
 10
155.3549915869
 20
30.8841730531
 11
155.1815540869
 21
30.7873819712
  0
LINE
  8
0
 62
7
  6
CONTINUOUS
 10
157.4362415869
 20
31.5294468267
 11
157.320617028
 21
31.4649194539
  0
LINE
  8
0
 62
7
  6
CONTINUOUS
 10
157.320617028
 20
31.3358647082
 11
157.4362415869
 21
31.400392081
  0
LINE
  8
0
 62
7
  6
CONTINUOUS
 10
150.0362418212
 20
31.5617105132
 11
149.8628043005
 21
31.4971831403
  0
LINE
  8
0
 62
7
  6
CONTINUOUS
 10
152.4643666972
 20
31.5939741996
 11
152.2909293626
 21
31.5294468267
  0
LINE
  8
0
 62
7
  6
CONTINUOUS
 10
152.2909293626
 20
31.400392081
 11
152.4643666972
 21
31.4649194539
  0
LINE
  8
0
 62
7
  6
CONTINUOUS
 10
151.0768668626
 20
30.8196456577
 11
150.9034292799
 21
30.7551182848
  0
LINE
  8
0
 62
7
  6
CONTINUOUS
 10
160.5003043074
 20
30.7551182848
 11
160.269054528
 21
30.7228545871
  0
LINE
  8
0
 62
7
  6
CONTINUOUS
 10
154.8924916972
 20
30.5937998301
 11
155.1815540869
 21
30.6260635193
  0
LINE
  8
0
 62
7
  6
CONTINUOUS
 10
160.269054528
 20
30.5937998301
 11
160.615929528
 21
30.6260635193
  0
LINE
  8
0
 62
7
  6
CONTINUOUS
 10
150.5565542799
 20
30.5937998301
 11
150.9612418074
 21
30.6260635193
  0
LINE
  8
0
 62
7
  6
CONTINUOUS
 10
150.9034292799
 20
30.7551182848
 11
150.498741835
 21
30.7228545871
  0
LINE
  8
0
 62
7
  6
CONTINUOUS
 10
154.7768668074
 20
31.1422825445
 11
155.412804528
 21
31.1422825445
  0
LINE
  8
0
 62
7
  6
CONTINUOUS
 10
155.412804528
 20
31.2713373354
 11
154.7768668074
 21
31.2713373354
  0
LINE
  8
0
 62
7
  6
CONTINUOUS
 10
151.1346793074
 20
31.3036010218
 11
151.4237418626
 21
31.3036010218
  0
LINE
  8
0
 62
7
  6
CONTINUOUS
 10
153.9674919177
 20
31.3681283946
 11
154.2565543074
 21
31.3681283946
  0
LINE
  8
0
 62
7
  6
CONTINUOUS
 10
160.6737418074
 20
31.3681283946
 11
160.9628038663
 21
31.3681283946
  0
LINE
  8
0
 62
7
  6
CONTINUOUS
 10
154.6612419177
 20
31.4971831403
 11
155.0081169177
 21
31.4971831403
  0
LINE
  8
0
 62
7
  6
CONTINUOUS
 10
159.8065543074
 20
31.4971831403
 11
160.1534293074
 21
31.4971831403
  0
LINE
  8
0
 62
7
  6
CONTINUOUS
 10
160.1534293074
 20
31.626237886
 11
159.8065543074
 21
31.626237886
  0
LINE
  8
0
 62
7
  6
CONTINUOUS
 10
158.0721793074
 20
31.626237886
 11
157.840929528
 21
31.626237886
  0
LINE
  8
0
 62
7
  6
CONTINUOUS
 10
157.320617028
 20
31.626237886
 11
157.0315543074
 21
31.626237886
  0
LINE
  8
0
 62
7
  6
CONTINUOUS
 10
156.5690540869
 20
31.626237886
 11
156.279992028
 21
31.626237886
  0
LINE
  8
0
 62
7
  6
CONTINUOUS
 10
155.0081169177
 20
31.626237886
 11
154.6612419177
 21
31.626237886
  0
LINE
  8
0
 62
7
  6
CONTINUOUS
 10
152.9268669177
 20
31.626237886
 11
152.6956168074
 21
31.626237886
  0
LINE
  8
0
 62
7
  6
CONTINUOUS
 10
156.279992028
 20
31.9488748406
 11
156.5690540869
 21
31.9488748406
  0
LINE
  8
0
 62
7
  6
CONTINUOUS
 10
156.5690540869
 20
32.1101932727
 11
156.279992028
 21
32.1101932727
  0
LINE
  8
0
 62
7
  6
CONTINUOUS
 10
152.1753043074
 20
32.1101932727
 11
151.8862417523
 21
32.1101932727
  0
LINE
  8
0
 62
7
  6
CONTINUOUS
 10
151.2130860697
 20
32.3970785186
 11
151.6256574183
 21
32.3970785186
  0
LINE
  8
0
 62
7
  6
CONTINUOUS
 10
152.852430332
 20
32.3970785186
 11
154.245872955
 21
32.3970785186
  0
LINE
  8
0
 62
7
  6
CONTINUOUS
 10
154.5737418074
 20
32.3970785186
 11
155.9671844304
 21
32.3970785186
  0
LINE
  8
0
 62
7
  6
CONTINUOUS
 10
157.852430332
 20
32.3970785186
 11
159.245872955
 21
32.3970785186
  0
LINE
  8
0
 62
7
  6
CONTINUOUS
 10
159.5737418074
 20
32.3970785186
 11
160.9671844304
 21
32.3970785186
  0
LINE
  8
0
 62
7
  6
CONTINUOUS
 10
157.6096790869
 20
31.5939741996
 11
157.4362415869
 21
31.5294468267
  0
LINE
  8
0
 62
7
  6
CONTINUOUS
 10
155.1815540869
 20
30.6260635193
 11
155.3549915869
 21
30.6905909007
  0
LINE
  8
0
 62
7
  6
CONTINUOUS
 10
160.615929528
 20
30.6260635193
 11
160.8471793074
 21
30.6905909007
  0
LINE
  8
0
 62
7
  6
CONTINUOUS
 10
160.615929528
 20
30.7873819712
 11
160.5003043074
 21
30.7551182848
  0
LINE
  8
0
 62
7
  6
CONTINUOUS
 10
159.575304528
 20
31.4649194539
 11
159.8065543074
 21
31.4971831403
  0
LINE
  8
0
 62
7
  6
CONTINUOUS
 10
157.6096790869
 20
31.4649194539
 11
157.840929528
 21
31.4971831403
  0
LINE
  8
0
 62
7
  6
CONTINUOUS
 10
154.5456166972
 20
31.1100188581
 11
154.7768668074
 21
31.1422825445
  0
LINE
  8
0
 62
7
  6
CONTINUOUS
 10
157.840929528
 20
31.626237886
 11
157.6096790869
 21
31.5939741996
  0
LINE
  8
0
 62
7
  6
CONTINUOUS
 10
154.4299918074
 20
31.4649194539
 11
154.6612419177
 21
31.4971831403
  0
LINE
  8
0
 62
7
  6
CONTINUOUS
 10
159.8065543074
 20
31.626237886
 11
159.4596793074
 21
31.5939741996
  0
LINE
  8
0
 62
7
  6
CONTINUOUS
 10
154.7768668074
 20
31.2713373354
 11
154.4299918074
 21
31.2390736489
  0
LINE
  8
0
 62
7
  6
CONTINUOUS
 10
150.5565542799
 20
31.626237886
 11
150.2096793212
 21
31.5939741996
  0
LINE
  8
0
 62
7
  6
CONTINUOUS
 10
154.6612419177
 20
31.626237886
 11
154.2565543074
 21
31.5939741996
  0
LINE
  8
0
 62
7
  6
CONTINUOUS
 10
152.0327582009
 20
33.5446195022
 11
151.3770204959
 21
33.5446195022
  0
LINE
  8
0
 62
7
  6
CONTINUOUS
 10
157.4362415869
 20
31.400392081
 11
157.6096790869
 21
31.4649194539
  0
LINE
  8
0
 62
7
  6
CONTINUOUS
 10
159.4596793074
 20
31.4326557675
 11
159.575304528
 21
31.4649194539
  0
LINE
  8
0
 62
7
  6
CONTINUOUS
 10
159.4596793074
 20
31.5939741996
 11
159.228429528
 21
31.5294468267
  0
LINE
  8
0
 62
7
  6
CONTINUOUS
 10
155.1815540869
 20
30.7873819712
 11
154.8924916972
 21
30.7228545871
  0
LINE
  8
0
 62
7
  6
CONTINUOUS
 10
152.4643666972
 20
31.4649194539
 11
152.6956168074
 21
31.4971831403
  0
LINE
  8
0
 62
7
  6
CONTINUOUS
 10
152.6956168074
 20
31.626237886
 11
152.4643666972
 21
31.5939741996
  0
LINE
  8
0
 62
7
  6
CONTINUOUS
 10
150.2674918074
 20
31.4649194539
 11
150.498741835
 21
31.4971831403
  0
LINE
  8
0
 62
7
  6
CONTINUOUS
 10
156.7868565615
 20
35.0200293383
 11
157.4425942664
 21
35.0200293383
  0
LINE
  8
0
 62
7
  6
CONTINUOUS
 10
154.4299918074
 20
31.0777551716
 11
154.5456166972
 21
31.1100188581
  0
LINE
  8
0
 62
7
  6
CONTINUOUS
 10
154.4299918074
 20
31.2390736489
 11
154.1987416972
 21
31.1745462761
  0
LINE
  8
0
 62
7
  6
CONTINUOUS
 10
154.3143669177
 20
31.4326557675
 11
154.4299918074
 21
31.4649194539
  0
LINE
  8
0
 62
7
  6
CONTINUOUS
 10
150.9612418074
 20
30.6260635193
 11
151.1924917523
 21
30.6905909007
  0
LINE
  8
0
 62
7
  6
CONTINUOUS
 10
154.2565543074
 20
31.5939741996
 11
154.1409294177
 21
31.5617105132
  0
LINE
  8
0
 62
7
  6
CONTINUOUS
 10
150.2096793212
 20
31.5939741996
 11
150.0362418212
 21
31.5617105132
  0
LINE
  8
0
 62
7
  6
CONTINUOUS
 10
160.9671844304
 20
36.1675703219
 11
159.5737418074
 21
36.1675703219
  0
LINE
  8
0
 62
7
  6
CONTINUOUS
 10
157.6065286927
 20
36.1675703219
 11
157.1939573441
 21
36.1675703219
  0
LINE
  8
0
 62
7
  6
CONTINUOUS
 10
155.9671844304
 20
36.1675703219
 11
154.5737418074
 21
36.1675703219
  0
LINE
  8
0
 62
7
  6
CONTINUOUS
 10
154.245872955
 20
36.1675703219
 11
152.852430332
 21
36.1675703219
  0
LINE
  8
0
 62
7
  6
CONTINUOUS
 10
150.9671844304
 20
36.1675703219
 11
149.5737418074
 21
36.1675703219
  0
LINE
  8
0
 62
7
  6
CONTINUOUS
 10
150.1518667936
 20
31.4326557675
 11
150.2674918074
 21
31.4649194539
  0
CIRCLE
  8
0
 62
7
  6
CONTINUOUS
 10
160.2704631189
 20
38.5036358957
 40
2.0901639344
  0
ARC
  8
0
 62
7
  6
CONTINUOUS
 10
151.2130860697
 20
34.0364227809
 40
1.6393442623
 50
180.0
 51
270.0
  0
ARC
  8
0
 62
7
  6
CONTINUOUS
 10
157.6065286927
 20
34.5282260596
 40
1.6393442623
 50
0.0
 51
90.0
  0
ARC
  8
0
 62
7
  6
CONTINUOUS
 10
151.6256574183
 20
33.8724883547
 40
1.4754098361
 50
270.0
 51
326.2510114041
  0
ARC
  8
0
 62
7
  6
CONTINUOUS
 10
157.1939573441
 20
34.6921604858
 40
1.4754098361
 50
90.0
 51
146.2510114041
  0
ARC
  8
0
 62
7
  6
CONTINUOUS
 10
152.0327582009
 20
34.3642916334
 40
0.8196721311
 50
270.0
 51
360.0
  0
ARC
  8
0
 62
7
  6
CONTINUOUS
 10
156.7868565615
 20
34.2003572071
 40
0.8196721311
 50
90.0
 51
180.0
  0
ARC
  8
0
 62
7
  6
CONTINUOUS
 10
151.3770204959
 20
33.9544555678
 40
0.4098360656
 50
180.0
 51
270.0
  0
ARC
  8
0
 62
7
  6
CONTINUOUS
 10
157.4425942664
 20
34.6101932727
 40
0.4098360656
 50
0.0
 51
90.0
  0
SOLID
  8
0
 62
7
  6
CONTINUOUS
 10
156.279992028
 20
31.9488752009
 11
156.279992028
 21
32.1101936845
 12
156.5690540869
 22
31.9488752009
 13
156.5690540869
 23
32.1101936845
  0
SOLID
  8
0
 62
7
  6
CONTINUOUS
 10
150.5565542799
 20
31.6262382337
 11
150.9612418074
 21
31.5939740028
 12
150.2096793212
 22
31.5939740028
 13
150.2096793212
 23
31.5939740028
  0
SOLID
  8
0
 62
7
  6
CONTINUOUS
 10
150.0362418212
 20
31.5617111435
 11
150.2096793212
 21
31.5939740028
 12
150.9612418074
 22
31.5939740028
 13
150.9612418074
 23
31.5939740028
  0
SOLID
  8
0
 62
7
  6
CONTINUOUS
 10
150.9612418074
 20
31.5939740028
 11
151.1924917523
 21
31.5294468402
 12
150.0362418212
 22
31.5617111435
 13
150.0362418212
 23
31.5617111435
  0
SOLID
  8
0
 62
7
  6
CONTINUOUS
 10
149.8628043005
 20
31.49718259
 11
150.0362418212
 21
31.5617111435
 12
151.1924917523
 22
31.5294468402
 13
151.1924917523
 23
31.5294468402
  0
SOLID
  8
0
 62
7
  6
CONTINUOUS
 10
149.8628043005
 20
31.49718259
 11
151.1924917523
 21
31.5294468402
 12
150.498741835
 22
31.49718259
 13
150.498741835
 23
31.49718259
  0
SOLID
  8
0
 62
7
  6
CONTINUOUS
 10
150.498741835
 20
31.49718259
 11
151.1924917523
 21
31.5294468402
 12
150.9034292799
 22
31.4649197501
 13
150.9034292799
 23
31.4649197501
  0
SOLID
  8
0
 62
7
  6
CONTINUOUS
 10
151.1924917523
 20
31.5294468402
 11
151.3659292523
 21
31.4326554468
 12
150.9034292799
 22
31.4649197501
 13
150.9034292799
 23
31.4649197501
  0
SOLID
  8
0
 62
7
  6
CONTINUOUS
 10
151.0768668626
 20
31.4003926599
 11
150.9034292799
 21
31.4649197501
 12
151.3659292523
 22
31.4326554468
 13
151.3659292523
 23
31.4326554468
  0
SOLID
  8
0
 62
7
  6
CONTINUOUS
 10
151.0768668626
 20
31.4003926599
 11
151.3659292523
 21
31.4326554468
 12
151.1346793074
 22
31.3036013776
 13
151.1346793074
 23
31.3036013776
  0
SOLID
  8
0
 62
7
  6
CONTINUOUS
 10
151.3659292523
 20
31.4326554468
 11
151.4237418626
 21
31.3036013776
 12
151.1346793074
 22
31.3036013776
 13
151.1346793074
 23
31.3036013776
  0
SOLID
  8
0
 62
7
  6
CONTINUOUS
 10
152.4643666972
 20
31.5939739754
 11
152.6956168074
 21
31.6262382787
 12
152.9268669177
 22
31.6262382787
 13
152.9268669177
 23
31.6262382787
  0
SOLID
  8
0
 62
7
  6
CONTINUOUS
 10
152.9268669177
 20
31.6262382787
 11
153.1003044177
 21
31.5939739754
 12
152.4643666972
 22
31.5939739754
 13
152.4643666972
 23
31.5939739754
  0
SOLID
  8
0
 62
7
  6
CONTINUOUS
 10
152.2909293626
 20
31.5294468852
 11
152.4643666972
 21
31.5939739754
 12
153.1003044177
 22
31.5939739754
 13
153.1003044177
 23
31.5939739754
  0
SOLID
  8
0
 62
7
  6
CONTINUOUS
 10
153.1003044177
 20
31.5939739754
 11
153.2737419177
 21
31.5294468852
 12
152.2909293626
 22
31.5294468852
 13
152.2909293626
 23
31.5294468852
  0
SOLID
  8
0
 62
7
  6
CONTINUOUS
 10
153.2737419177
 20
31.5294468852
 11
152.6956168074
 21
31.4971825369
 12
152.2909293626
 22
31.5294468852
 13
152.2909293626
 23
31.5294468852
  0
SOLID
  8
0
 62
7
  6
CONTINUOUS
 10
152.1753043074
 20
31.4649197951
 11
152.2909293626
 21
31.5294468852
 12
152.6956168074
 22
31.4971825369
 13
152.6956168074
 23
31.4971825369
  0
SOLID
  8
0
 62
7
  6
CONTINUOUS
 10
152.6956168074
 20
31.4971825369
 11
152.4643666972
 21
31.4649197951
 12
152.1753043074
 22
31.4649197951
 13
152.1753043074
 23
31.4649197951
  0
SOLID
  8
0
 62
7
  6
CONTINUOUS
 10
152.6956168074
 20
31.4971825369
 11
153.2737419177
 21
31.5294468852
 12
152.9268669177
 22
31.4649197951
 13
152.9268669177
 23
31.4649197951
  0
SOLID
  8
0
 62
7
  6
CONTINUOUS
 10
153.2737419177
 20
31.5294468852
 11
153.3893668074
 21
31.4649197951
 12
152.9268669177
 22
31.4649197951
 13
152.9268669177
 23
31.4649197951
  0
SOLID
  8
0
 62
7
  6
CONTINUOUS
 10
153.0424918074
 20
31.4326554468
 11
152.9268669177
 21
31.4649197951
 12
153.3893668074
 22
31.4649197951
 13
153.3893668074
 23
31.4649197951
  0
SOLID
  8
0
 62
7
  6
CONTINUOUS
 10
153.3893668074
 20
31.4649197951
 11
153.4471794177
 21
31.4003927049
 12
153.0424918074
 22
31.4326554468
 13
153.0424918074
 23
31.4326554468
  0
SOLID
  8
0
 62
7
  6
CONTINUOUS
 10
153.1581166972
 20
31.3681283566
 11
153.0424918074
 21
31.4326554468
 12
153.4471794177
 22
31.4003927049
 13
153.4471794177
 23
31.4003927049
  0
SOLID
  8
0
 62
7
  6
CONTINUOUS
 10
153.1581166972
 20
31.3681283566
 11
153.4471794177
 21
31.4003927049
 12
153.2159293074
 22
31.2390742213
 13
153.2159293074
 23
31.2390742213
  0
SOLID
  8
0
 62
7
  6
CONTINUOUS
 10
153.4471794177
 20
31.4003927049
 11
153.5049916972
 21
31.2390742213
 12
153.2159293074
 22
31.2390742213
 13
153.2159293074
 23
31.2390742213
  0
SOLID
  8
0
 62
7
  6
CONTINUOUS
 10
152.4643666972
 20
31.4649197951
 11
152.2909293626
 21
31.4003927049
 12
152.1753043074
 22
31.4649197951
 13
152.1753043074
 23
31.4649197951
  0
SOLID
  8
0
 62
7
  6
CONTINUOUS
 10
152.2909293626
 20
31.4003927049
 11
152.1753043074
 21
31.3358640533
 12
152.1753043074
 22
31.4649197951
 13
152.1753043074
 23
31.4649197951
  0
SOLID
  8
0
 62
7
  6
CONTINUOUS
 10
152.1753043074
 20
31.3358640533
 11
151.8862417523
 21
30.5938002869
 12
152.1753043074
 22
31.4649197951
 13
152.1753043074
 23
31.4649197951
  0
SOLID
  8
0
 62
7
  6
CONTINUOUS
 10
152.1753043074
 20
31.4649197951
 11
151.8862417523
 21
30.5938002869
 12
152.1753043074
 22
32.1101937295
 13
152.1753043074
 23
32.1101937295
  0
SOLID
  8
0
 62
7
  6
CONTINUOUS
 10
151.8862417523
 20
30.5938002869
 11
151.8862417523
 21
32.1101937295
 12
152.1753043074
 22
32.1101937295
 13
152.1753043074
 23
32.1101937295
  0
SOLID
  8
0
 62
7
  6
CONTINUOUS
 10
152.1753043074
 20
31.3358640533
 11
152.1753043074
 21
30.5938002869
 12
151.8862417523
 22
30.5938002869
 13
151.8862417523
 23
30.5938002869
  0
SOLID
  8
0
 62
7
  6
CONTINUOUS
 10
153.2159293074
 20
30.5938002869
 11
153.2159293074
 21
31.2390742213
 12
153.5049916972
 22
31.2390742213
 13
153.5049916972
 23
31.2390742213
  0
SOLID
  8
0
 62
7
  6
CONTINUOUS
 10
153.5049916972
 20
31.2390742213
 11
153.5049916972
 21
30.5938002869
 12
153.2159293074
 22
30.5938002869
 13
153.2159293074
 23
30.5938002869
  0
SOLID
  8
0
 62
7
  6
CONTINUOUS
 10
154.2565543074
 20
31.5939738288
 11
154.6612419177
 21
31.6262385959
 12
155.0081169177
 22
31.6262385959
 13
155.0081169177
 23
31.6262385959
  0
SOLID
  8
0
 62
7
  6
CONTINUOUS
 10
155.0081169177
 20
31.6262385959
 11
155.3549915869
 21
31.5939738288
 12
154.2565543074
 22
31.5939738288
 13
154.2565543074
 23
31.5939738288
  0
SOLID
  8
0
 62
7
  6
CONTINUOUS
 10
154.1409294177
 20
31.5617111435
 11
154.2565543074
 21
31.5939738288
 12
155.3549915869
 22
31.5939738288
 13
155.3549915869
 23
31.5939738288
  0
SOLID
  8
0
 62
7
  6
CONTINUOUS
 10
155.3549915869
 20
31.5939738288
 11
155.5284290869
 21
31.5294468402
 12
154.1409294177
 22
31.5617111435
 13
154.1409294177
 23
31.5617111435
  0
SOLID
  8
0
 62
7
  6
CONTINUOUS
 10
154.0253041972
 20
31.4971826249
 11
154.1409294177
 21
31.5617111435
 12
155.5284290869
 22
31.5294468402
 13
155.5284290869
 23
31.5294468402
  0
SOLID
  8
0
 62
7
  6
CONTINUOUS
 10
154.0253041972
 20
31.4971826249
 11
155.5284290869
 21
31.5294468402
 12
154.6612419177
 22
31.4971826249
 13
154.6612419177
 23
31.4971826249
  0
SOLID
  8
0
 62
7
  6
CONTINUOUS
 10
154.6612419177
 20
31.4971826249
 11
155.5284290869
 21
31.5294468402
 12
155.0081169177
 22
31.4971826249
 13
155.0081169177
 23
31.4971826249
  0
SOLID
  8
0
 62
7
  6
CONTINUOUS
 10
155.0081169177
 20
31.4971826249
 11
155.5284290869
 21
31.5294468402
 12
155.239367028
 22
31.4649194065
 13
155.239367028
 23
31.4649194065
  0
SOLID
  8
0
 62
7
  6
CONTINUOUS
 10
155.5284290869
 20
31.5294468402
 11
155.6440543074
 21
31.4649194065
 12
155.239367028
 22
31.4649194065
 13
155.239367028
 23
31.4649194065
  0
SOLID
  8
0
 62
7
  6
CONTINUOUS
 10
153.9674919177
 20
31.4326554138
 11
154.0253041972
 21
31.4971826249
 12
154.6612419177
 22
31.4971826249
 13
154.6612419177
 23
31.4971826249
  0
SOLID
  8
0
 62
7
  6
CONTINUOUS
 10
155.3549915869
 20
31.4326554138
 11
155.239367028
 21
31.4649194065
 12
155.6440543074
 22
31.4649194065
 13
155.6440543074
 23
31.4649194065
  0
SOLID
  8
0
 62
7
  6
CONTINUOUS
 10
155.3549915869
 20
31.4326554138
 11
155.6440543074
 21
31.4649194065
 12
155.412804528
 22
31.3681282026
 13
155.412804528
 23
31.3681282026
  0
SOLID
  8
0
 62
7
  6
CONTINUOUS
 10
155.6440543074
 20
31.4649194065
 11
155.7018665869
 21
31.3681282026
 12
155.412804528
 22
31.3681282026
 13
155.412804528
 23
31.3681282026
  0
SOLID
  8
0
 62
7
  6
CONTINUOUS
 10
155.412804528
 20
31.2713369632
 11
155.412804528
 21
31.3681282026
 12
155.7018665869
 22
31.3681282026
 13
155.7018665869
 23
31.3681282026
  0
SOLID
  8
0
 62
7
  6
CONTINUOUS
 10
155.412804528
 20
31.2713369632
 11
155.7018665869
 21
31.3681282026
 12
155.412804528
 22
31.1422827828
 13
155.412804528
 23
31.1422827828
  0
SOLID
  8
0
 62
7
  6
CONTINUOUS
 10
155.412804528
 20
31.1422827828
 11
155.7018665869
 21
31.3681282026
 12
155.412804528
 22
30.9487004259
 13
155.412804528
 23
30.9487004259
  0
SOLID
  8
0
 62
7
  6
CONTINUOUS
 10
155.7018665869
 20
31.3681282026
 11
155.7018665869
 21
30.8519086025
 12
155.412804528
 22
30.9487004259
 13
155.412804528
 23
30.9487004259
  0
SOLID
  8
0
 62
7
  6
CONTINUOUS
 10
157.6096790869
 20
31.5939736268
 11
157.840929528
 21
31.6262383465
 12
158.0721793074
 22
31.6262383465
 13
158.0721793074
 23
31.6262383465
  0
SOLID
  8
0
 62
7
  6
CONTINUOUS
 10
158.0721793074
 20
31.6262383465
 11
158.2456168074
 21
31.5939736268
 12
157.6096790869
 22
31.5939736268
 13
157.6096790869
 23
31.5939736268
  0
SOLID
  8
0
 62
7
  6
CONTINUOUS
 10
157.4362415869
 20
31.5294472848
 11
157.6096790869
 21
31.5939736268
 12
158.2456168074
 22
31.5939736268
 13
158.2456168074
 23
31.5939736268
  0
SOLID
  8
0
 62
7
  6
CONTINUOUS
 10
158.2456168074
 20
31.5939736268
 11
158.4190543074
 21
31.5294472848
 12
157.4362415869
 22
31.5294472848
 13
157.4362415869
 23
31.5294472848
  0
SOLID
  8
0
 62
7
  6
CONTINUOUS
 10
158.4190543074
 20
31.5294472848
 11
157.840929528
 21
31.4971825369
 12
157.4362415869
 22
31.5294472848
 13
157.4362415869
 23
31.5294472848
  0
SOLID
  8
0
 62
7
  6
CONTINUOUS
 10
157.320617028
 20
31.4649199103
 11
157.4362415869
 21
31.5294472848
 12
157.840929528
 22
31.4971825369
 13
157.840929528
 23
31.4971825369
  0
SOLID
  8
0
 62
7
  6
CONTINUOUS
 10
157.840929528
 20
31.4971825369
 11
157.6096790869
 21
31.4649199103
 12
157.320617028
 22
31.4649199103
 13
157.320617028
 23
31.4649199103
  0
SOLID
  8
0
 62
7
  6
CONTINUOUS
 10
157.840929528
 20
31.4971825369
 11
158.4190543074
 21
31.5294472848
 12
158.0721793074
 22
31.4649199103
 13
158.0721793074
 23
31.4649199103
  0
SOLID
  8
0
 62
7
  6
CONTINUOUS
 10
158.4190543074
 20
31.5294472848
 11
158.534679528
 21
31.4649199103
 12
158.0721793074
 22
31.4649199103
 13
158.0721793074
 23
31.4649199103
  0
SOLID
  8
0
 62
7
  6
CONTINUOUS
 10
158.187804528
 20
31.4326554468
 11
158.0721793074
 21
31.4649199103
 12
158.534679528
 22
31.4649199103
 13
158.534679528
 23
31.4649199103
  0
SOLID
  8
0
 62
7
  6
CONTINUOUS
 10
158.187804528
 20
31.4326554468
 11
158.534679528
 21
31.4649199103
 12
158.3034290869
 22
31.3681288486
 13
158.3034290869
 23
31.3681288486
  0
SOLID
  8
0
 62
7
  6
CONTINUOUS
 10
158.534679528
 20
31.4649199103
 11
158.5924918074
 21
31.3681288486
 12
158.3034290869
 22
31.3681288486
 13
158.3034290869
 23
31.3681288486
  0
SOLID
  8
0
 62
7
  6
CONTINUOUS
 10
158.361242028
 20
31.2068093799
 11
158.3034290869
 21
31.3681288486
 12
158.5924918074
 22
31.3681288486
 13
158.5924918074
 23
31.3681288486
  0
SOLID
  8
0
 62
7
  6
CONTINUOUS
 10
158.5924918074
 20
31.3681288486
 11
158.6503040869
 21
31.2068093799
 12
158.361242028
 22
31.2068093799
 13
158.361242028
 23
31.2068093799
  0
SOLID
  8
0
 62
7
  6
CONTINUOUS
 10
157.6096790869
 20
31.4649199103
 11
157.4362415869
 21
31.4003926599
 12
157.320617028
 22
31.4649199103
 13
157.320617028
 23
31.4649199103
  0
SOLID
  8
0
 62
7
  6
CONTINUOUS
 10
157.4362415869
 20
31.4003926599
 11
157.320617028
 21
31.3358640533
 12
157.320617028
 22
31.4649199103
 13
157.320617028
 23
31.4649199103
  0
SOLID
  8
0
 62
7
  6
CONTINUOUS
 10
157.320617028
 20
31.3358640533
 11
157.0315543074
 21
30.5938003547
 12
157.320617028
 22
31.4649199103
 13
157.320617028
 23
31.4649199103
  0
SOLID
  8
0
 62
7
  6
CONTINUOUS
 10
157.320617028
 20
31.4649199103
 11
157.0315543074
 21
30.5938003547
 12
157.320617028
 22
31.6262383465
 13
157.320617028
 23
31.6262383465
  0
SOLID
  8
0
 62
7
  6
CONTINUOUS
 10
157.0315543074
 20
30.5938003547
 11
157.0315543074
 21
31.6262383465
 12
157.320617028
 22
31.6262383465
 13
157.320617028
 23
31.6262383465
  0
SOLID
  8
0
 62
7
  6
CONTINUOUS
 10
157.320617028
 20
31.3358640533
 11
157.320617028
 21
30.5938003547
 12
157.0315543074
 22
30.5938003547
 13
157.0315543074
 23
30.5938003547
  0
SOLID
  8
0
 62
7
  6
CONTINUOUS
 10
158.361242028
 20
30.5938003547
 11
158.361242028
 21
31.2068093799
 12
158.6503040869
 22
31.2068093799
 13
158.6503040869
 23
31.2068093799
  0
SOLID
  8
0
 62
7
  6
CONTINUOUS
 10
158.6503040869
 20
31.2068093799
 11
158.6503040869
 21
30.5938003547
 12
158.361242028
 22
30.5938003547
 13
158.361242028
 23
30.5938003547
  0
SOLID
  8
0
 62
7
  6
CONTINUOUS
 10
159.4596793074
 20
31.5939739474
 11
159.8065543074
 21
31.6262381969
 12
160.1534293074
 22
31.6262381969
 13
160.1534293074
 23
31.6262381969
  0
SOLID
  8
0
 62
7
  6
CONTINUOUS
 10
160.1534293074
 20
31.6262381969
 11
160.5003043074
 21
31.5939739474
 12
159.4596793074
 22
31.5939739474
 13
159.4596793074
 23
31.5939739474
  0
SOLID
  8
0
 62
7
  6
CONTINUOUS
 10
159.228429528
 20
31.5294468402
 11
159.4596793074
 21
31.5939739474
 12
160.5003043074
 22
31.5939739474
 13
160.5003043074
 23
31.5939739474
  0
SOLID
  8
0
 62
7
  6
CONTINUOUS
 10
159.228429528
 20
31.5294468402
 11
160.5003043074
 21
31.5939739304
 12
160.6737418074
 22
31.5617111435
 13
160.6737418074
 23
31.5617111435
  0
SOLID
  8
0
 62
7
  6
CONTINUOUS
 10
159.228429528
 20
31.5294468402
 11
160.6737418074
 21
31.5617111435
 12
159.8065543074
 22
31.4971825592
 13
159.8065543074
 23
31.4971825592
  0
SOLID
  8
0
 62
7
  6
CONTINUOUS
 10
159.8065543074
 20
31.4971825592
 11
160.6737418074
 21
31.5617111435
 12
160.1534293074
 22
31.4971825592
 13
160.1534293074
 23
31.4971825592
  0
SOLID
  8
0
 62
7
  6
CONTINUOUS
 10
160.6737418074
 20
31.5617111435
 11
160.8471793074
 21
31.4971825592
 12
160.1534293074
 22
31.4971825592
 13
160.1534293074
 23
31.4971825592
  0
SOLID
  8
0
 62
7
  6
CONTINUOUS
 10
160.5003043074
 20
31.4649197501
 11
160.1534293074
 21
31.4971825592
 12
160.8471793074
 22
31.4971825592
 13
160.8471793074
 23
31.4971825592
  0
SOLID
  8
0
 62
7
  6
CONTINUOUS
 10
159.1128043074
 20
31.4326555427
 11
159.228429528
 21
31.5294468402
 12
159.8065543074
 22
31.4971825592
 13
159.8065543074
 23
31.4971825592
  0
SOLID
  8
0
 62
7
  6
CONTINUOUS
 10
160.5003043074
 20
31.4649197501
 11
160.8471793074
 21
31.4971825592
 12
160.615929528
 22
31.4326555427
 13
160.615929528
 23
31.4326555427
  0
SOLID
  8
0
 62
7
  6
CONTINUOUS
 10
160.615929528
 20
31.4326555427
 11
160.8471793074
 21
31.4971825592
 12
160.6737418074
 22
31.3681283005
 13
160.6737418074
 23
31.3681283005
  0
SOLID
  8
0
 62
7
  6
CONTINUOUS
 10
160.8471793074
 20
31.4971825592
 11
160.9628038663
 21
31.3681283005
 12
160.6737418074
 22
31.3681283005
 13
160.6737418074
 23
31.3681283005
  0
SOLID
  8
0
 62
7
  6
CONTINUOUS
 10
150.2674918074
 20
31.4649197501
 11
149.7471793074
 21
31.4326554237
 12
150.498741835
 22
31.4971824493
 13
150.498741835
 23
31.4971824493
  0
SOLID
  8
0
 62
7
  6
CONTINUOUS
 10
149.7471793074
 20
31.4326554237
 11
149.8628043005
 21
31.4971824493
 12
150.498741835
 22
31.4971824493
 13
150.498741835
 23
31.4971824493
  0
SOLID
  8
0
 62
7
  6
CONTINUOUS
 10
150.2674918074
 20
31.4649197501
 11
150.1518667936
 21
31.4326554237
 12
149.7471793074
 22
31.4326554237
 13
149.7471793074
 23
31.4326554237
  0
SOLID
  8
0
 62
7
  6
CONTINUOUS
 10
149.6315543091
 20
31.3036012664
 11
149.7471793074
 21
31.4326554237
 12
150.1518667936
 22
31.4326554237
 13
150.1518667936
 23
31.4326554237
  0
SOLID
  8
0
 62
7
  6
CONTINUOUS
 10
153.9674919177
 20
31.4326554237
 11
154.6612419177
 21
31.4971825369
 12
154.4299918074
 22
31.4649197501
 13
154.4299918074
 23
31.4649197501
  0
SOLID
  8
0
 62
7
  6
CONTINUOUS
 10
154.4299918074
 20
31.4649197501
 11
154.3143669177
 21
31.4326554237
 12
153.9674919177
 22
31.4326554237
 13
153.9674919177
 23
31.4326554237
  0
SOLID
  8
0
 62
7
  6
CONTINUOUS
 10
153.9674919177
 20
31.3681283335
 11
153.9674919177
 21
31.4326554237
 12
154.3143669177
 22
31.4326554237
 13
154.3143669177
 23
31.4326554237
  0
SOLID
  8
0
 62
7
  6
CONTINUOUS
 10
154.3143669177
 20
31.4326554237
 11
154.2565543074
 21
31.3681283335
 12
153.9674919177
 22
31.3681283335
 13
153.9674919177
 23
31.3681283335
  0
SOLID
  8
0
 62
7
  6
CONTINUOUS
 10
159.1128043074
 20
31.4326555528
 11
159.8065543074
 21
31.4971825369
 12
159.575304528
 22
31.4649197501
 13
159.575304528
 23
31.4649197501
  0
SOLID
  8
0
 62
7
  6
CONTINUOUS
 10
159.575304528
 20
31.4649197501
 11
159.4596793074
 21
31.4326555528
 12
159.1128043074
 22
31.4326555528
 13
159.1128043074
 23
31.4326555528
  0
SOLID
  8
0
 62
7
  6
CONTINUOUS
 10
159.1128043074
 20
31.3681284626
 11
159.1128043074
 21
31.4326555528
 12
159.4596793074
 22
31.4326555528
 13
159.4596793074
 23
31.4326555528
  0
SOLID
  8
0
 62
7
  6
CONTINUOUS
 10
159.4596793074
 20
31.4326555528
 11
159.401867028
 21
31.3681284626
 12
159.1128043074
 22
31.3681284626
 13
159.1128043074
 23
31.3681284626
  0
SOLID
  8
0
 62
7
  6
CONTINUOUS
 10
159.228429528
 20
31.2390741763
 11
159.1128043074
 21
31.3681284626
 12
159.401867028
 22
31.3681284626
 13
159.401867028
 23
31.3681284626
  0
SOLID
  8
0
 62
7
  6
CONTINUOUS
 10
149.6315543091
 20
31.3036012664
 11
150.1518667936
 21
31.4326554468
 12
149.9784292936
 22
31.3358640533
 13
149.9784292936
 23
31.3358640533
  0
SOLID
  8
0
 62
7
  6
CONTINUOUS
 10
149.9784292936
 20
31.3358640533
 11
149.9206168074
 21
31.2713369632
 12
149.6315543091
 22
31.3036012664
 13
149.6315543091
 23
31.3036012664
  0
SOLID
  8
0
 62
7
  6
CONTINUOUS
 10
149.5737418074
 20
31.1100184796
 11
149.6315543091
 21
31.3036012664
 12
149.9206168074
 22
31.2713369632
 13
149.9206168074
 23
31.2713369632
  0
SOLID
  8
0
 62
7
  6
CONTINUOUS
 10
154.4299918074
 20
31.2390741763
 11
154.7768668074
 21
31.271336924
 12
155.412804528
 22
31.271336924
 13
155.412804528
 23
31.271336924
  0
SOLID
  8
0
 62
7
  6
CONTINUOUS
 10
154.4299918074
 20
31.2390741763
 11
155.412804528
 21
31.271336924
 12
154.1987416972
 22
31.1745462761
 13
154.1987416972
 23
31.1745462761
  0
SOLID
  8
0
 62
7
  6
CONTINUOUS
 10
154.1987416972
 20
31.1745462761
 11
155.412804528
 21
31.271336924
 12
154.7768668074
 22
31.1422827436
 13
154.7768668074
 23
31.1422827436
  0
SOLID
  8
0
 62
7
  6
CONTINUOUS
 10
155.412804528
 20
31.271336924
 11
155.412804528
 21
31.1422827436
 12
154.7768668074
 22
31.1422827436
 13
154.7768668074
 23
31.1422827436
  0
SOLID
  8
0
 62
7
  6
CONTINUOUS
 10
159.228429528
 20
31.2390745501
 11
159.401867028
 21
31.3681283566
 12
159.4596793074
 22
31.3036012664
 13
159.4596793074
 23
31.3036012664
  0
SOLID
  8
0
 62
7
  6
CONTINUOUS
 10
159.4596793074
 20
31.3036012664
 11
159.6331168074
 21
31.2390745501
 12
159.228429528
 22
31.2390745501
 13
159.228429528
 23
31.2390745501
  0
SOLID
  8
0
 62
7
  6
CONTINUOUS
 10
159.4596793074
 20
31.1422827828
 11
159.228429528
 21
31.2390745501
 12
159.6331168074
 22
31.2390745501
 13
159.6331168074
 23
31.2390745501
  0
SOLID
  8
0
 62
7
  6
CONTINUOUS
 10
159.6331168074
 20
31.2390745501
 11
160.615929528
 21
31.0777556927
 12
159.4596793074
 22
31.1422827828
 13
159.4596793074
 23
31.1422827828
  0
SOLID
  8
0
 62
7
  6
CONTINUOUS
 10
160.442492028
 20
30.9809646623
 11
159.4596793074
 21
31.1422827828
 12
160.615929528
 22
31.0777556927
 13
160.615929528
 23
31.0777556927
  0
SOLID
  8
0
 62
7
  6
CONTINUOUS
 10
160.615929528
 20
31.0777556927
 11
160.8471793074
 21
30.9809646623
 12
160.442492028
 22
30.9809646623
 13
160.442492028
 23
30.9809646623
  0
SOLID
  8
0
 62
7
  6
CONTINUOUS
 10
160.615929528
 20
30.9164372091
 11
160.442492028
 21
30.9809646623
 12
160.8471793074
 22
30.9809646623
 13
160.8471793074
 23
30.9809646623
  0
SOLID
  8
0
 62
7
  6
CONTINUOUS
 10
160.615929528
 20
30.9164372091
 11
160.8471793074
 21
30.9809646623
 12
160.6737418074
 22
30.8519089441
 13
160.6737418074
 23
30.8519089441
  0
SOLID
  8
0
 62
7
  6
CONTINUOUS
 10
160.8471793074
 20
30.9809646623
 11
160.9628038663
 21
30.8519089441
 12
160.6737418074
 22
30.8519089441
 13
160.6737418074
 23
30.8519089441
  0
SOLID
  8
0
 62
7
  6
CONTINUOUS
 10
160.615929528
 20
30.7873818593
 11
160.6737418074
 21
30.8519089441
 12
160.9628038663
 22
30.8519089441
 13
160.9628038663
 23
30.8519089441
  0
SOLID
  8
0
 62
7
  6
CONTINUOUS
 10
160.9628038663
 20
30.8519089441
 11
160.9628038663
 21
30.7873818593
 12
160.615929528
 22
30.7873818593
 13
160.615929528
 23
30.7873818593
  0
SOLID
  8
0
 62
7
  6
CONTINUOUS
 10
160.5003043074
 20
30.7551187255
 11
160.615929528
 21
30.7873818593
 12
160.9628038663
 22
30.7873818593
 13
160.9628038663
 23
30.7873818593
  0
SOLID
  8
0
 62
7
  6
CONTINUOUS
 10
160.5003043074
 20
30.7551187255
 11
160.9628038663
 21
30.7873818593
 12
160.269054528
 22
30.7228547745
 13
160.269054528
 23
30.7228547745
  0
SOLID
  8
0
 62
7
  6
CONTINUOUS
 10
160.9628038663
 20
30.7873818593
 11
160.8471793074
 21
30.6905916353
 12
160.269054528
 22
30.7228547745
 13
160.269054528
 23
30.7228547745
  0
SOLID
  8
0
 62
7
  6
CONTINUOUS
 10
160.8471793074
 20
30.6905916353
 11
159.401867028
 21
30.658327332
 12
160.269054528
 22
30.7228547745
 13
160.269054528
 23
30.7228547745
  0
SOLID
  8
0
 62
7
  6
CONTINUOUS
 10
160.269054528
 20
30.7228547745
 11
159.401867028
 21
30.658327332
 12
159.922179528
 22
30.7228547745
 13
159.922179528
 23
30.7228547745
  0
SOLID
  8
0
 62
7
  6
CONTINUOUS
 10
159.401867028
 20
30.658327332
 11
159.228429528
 21
30.7228547745
 12
159.922179528
 22
30.7228547745
 13
159.922179528
 23
30.7228547745
  0
SOLID
  8
0
 62
7
  6
CONTINUOUS
 10
159.401867028
 20
30.658327332
 11
160.8471793074
 21
30.6905916353
 12
159.575304528
 22
30.6260629858
 13
159.575304528
 23
30.6260629858
  0
SOLID
  8
0
 62
7
  6
CONTINUOUS
 10
160.8471793074
 20
30.6905916353
 11
160.615929528
 21
30.6260629858
 12
159.575304528
 22
30.6260629858
 13
159.575304528
 23
30.6260629858
  0
SOLID
  8
0
 62
7
  6
CONTINUOUS
 10
159.922179528
 20
30.5938006049
 11
159.575304528
 21
30.6260629858
 12
160.615929528
 22
30.6260629858
 13
160.615929528
 23
30.6260629858
  0
SOLID
  8
0
 62
7
  6
CONTINUOUS
 10
160.615929528
 20
30.6260629858
 11
160.269054528
 21
30.5938006049
 12
159.922179528
 22
30.5938006049
 13
159.922179528
 23
30.5938006049
  0
SOLID
  8
0
 62
7
  6
CONTINUOUS
 10
149.5737418074
 20
31.1100184796
 11
149.9206168074
 21
31.2713369632
 12
149.8628043005
 22
31.1422827828
 13
149.8628043005
 23
31.1422827828
  0
SOLID
  8
0
 62
7
  6
CONTINUOUS
 10
149.8628043005
 20
31.1422827828
 11
149.8628043005
 21
31.0454914852
 12
149.5737418074
 22
31.1100184796
 13
149.5737418074
 23
31.1100184796
  0
SOLID
  8
0
 62
7
  6
CONTINUOUS
 10
149.6315543091
 20
30.9164372091
 11
149.5737418074
 21
31.1100184796
 12
149.8628043005
 22
31.0454914852
 13
149.8628043005
 23
31.0454914852
  0
SOLID
  8
0
 62
7
  6
CONTINUOUS
 10
149.8628043005
 20
31.0454914852
 11
149.9784292936
 21
30.8841729058
 12
149.6315543091
 22
30.9164372091
 13
149.6315543091
 23
30.9164372091
  0
SOLID
  8
0
 62
7
  6
CONTINUOUS
 10
149.7471793074
 20
30.7873813202
 11
149.6315543091
 21
30.9164372091
 12
149.9784292936
 22
30.8841729058
 13
149.9784292936
 23
30.8841729058
  0
SOLID
  8
0
 62
7
  6
CONTINUOUS
 10
149.9784292936
 20
30.8841729058
 11
150.1518667936
 21
30.7873813202
 12
149.7471793074
 22
30.7873813202
 13
149.7471793074
 23
30.7873813202
  0
SOLID
  8
0
 62
7
  6
CONTINUOUS
 10
149.8628043005
 20
30.7228547004
 11
149.7471793074
 21
30.7873813202
 12
150.1518667936
 22
30.7873813202
 13
150.1518667936
 23
30.7873813202
  0
SOLID
  8
0
 62
7
  6
CONTINUOUS
 10
150.1518667936
 20
30.7873813202
 11
150.498741835
 21
30.7228547004
 12
149.8628043005
 22
30.7228547004
 13
149.8628043005
 23
30.7228547004
  0
SOLID
  8
0
 62
7
  6
CONTINUOUS
 10
150.0362418212
 20
30.658327332
 11
149.8628043005
 21
30.7228547004
 12
150.498741835
 22
30.7228547004
 13
150.498741835
 23
30.7228547004
  0
SOLID
  8
0
 62
7
  6
CONTINUOUS
 10
154.0831168074
 20
31.1100184386
 11
154.1987416972
 21
31.1745462761
 12
154.7768668074
 22
31.1422827828
 13
154.7768668074
 23
31.1422827828
  0
SOLID
  8
0
 62
7
  6
CONTINUOUS
 10
154.7768668074
 20
31.1422827828
 11
154.5456166972
 21
31.1100184386
 12
154.0831168074
 22
31.1100184386
 13
154.0831168074
 23
31.1100184386
  0
SOLID
  8
0
 62
7
  6
CONTINUOUS
 10
153.9674919177
 20
30.9809642992
 11
154.0831168074
 21
31.1100184386
 12
154.5456166972
 22
31.1100184386
 13
154.5456166972
 23
31.1100184386
  0
SOLID
  8
0
 62
7
  6
CONTINUOUS
 10
154.3143669177
 20
31.0132277988
 11
153.9674919177
 21
30.9809642992
 12
154.4299918074
 22
31.0777556927
 13
154.4299918074
 23
31.0777556927
  0
SOLID
  8
0
 62
7
  6
CONTINUOUS
 10
153.9674919177
 20
30.9809642992
 11
154.5456166972
 21
31.1100184796
 12
154.4299918074
 22
31.0777556927
 13
154.4299918074
 23
31.0777556927
  0
SOLID
  8
0
 62
7
  6
CONTINUOUS
 10
154.3143669177
 20
31.0132277988
 11
154.2565543074
 21
30.9164372091
 12
153.9674919177
 22
30.9809642992
 13
153.9674919177
 23
30.9809642992
  0
SOLID
  8
0
 62
7
  6
CONTINUOUS
 10
153.9674919177
 20
30.8841729058
 11
153.9674919177
 21
30.9809642992
 12
154.2565543074
 22
30.9164372091
 13
154.2565543074
 23
30.9164372091
  0
SOLID
  8
0
 62
7
  6
CONTINUOUS
 10
154.2565543074
 20
30.9164372091
 11
154.2565543074
 21
30.8519086025
 12
153.9674919177
 22
30.8841729058
 13
153.9674919177
 23
30.8841729058
  0
SOLID
  8
0
 62
7
  6
CONTINUOUS
 10
154.0253041972
 20
30.7551187255
 11
153.9674919177
 21
30.8841729058
 12
154.2565543074
 22
30.8519086025
 13
154.2565543074
 23
30.8519086025
  0
SOLID
  8
0
 62
7
  6
CONTINUOUS
 10
155.412804528
 20
30.9487004259
 11
155.7018665869
 21
30.8519086025
 12
155.3549915869
 22
30.8841729058
 13
155.3549915869
 23
30.8841729058
  0
SOLID
  8
0
 62
7
  6
CONTINUOUS
 10
155.1815540869
 20
30.7873815123
 11
155.3549915869
 21
30.8841729058
 12
155.7018665869
 22
30.8519086025
 13
155.7018665869
 23
30.8519086025
  0
SOLID
  8
0
 62
7
  6
CONTINUOUS
 10
155.1815540869
 20
30.7873815123
 11
155.7018665869
 21
30.8519086025
 12
155.412804528
 22
30.7551187255
 13
155.412804528
 23
30.7551187255
  0
SOLID
  8
0
 62
7
  6
CONTINUOUS
 10
155.7018665869
 20
30.8519086025
 11
155.759679528
 21
30.6905916353
 12
155.412804528
 22
30.7551187255
 13
155.412804528
 23
30.7551187255
  0
SOLID
  8
0
 62
7
  6
CONTINUOUS
 10
155.4706168074
 20
30.658327332
 11
155.412804528
 21
30.7551187255
 12
155.759679528
 22
30.6905916353
 13
155.759679528
 23
30.6905916353
  0
SOLID
  8
0
 62
7
  6
CONTINUOUS
 10
155.4706168074
 20
30.658327332
 11
155.759679528
 21
30.6905916353
 12
155.5284290869
 22
30.5938002079
 13
155.5284290869
 23
30.5938002079
  0
SOLID
  8
0
 62
7
  6
CONTINUOUS
 10
155.759679528
 20
30.6905916353
 11
155.8174918074
 21
30.5938002079
 12
155.5284290869
 22
30.5938002079
 13
155.5284290869
 23
30.5938002079
  0
SOLID
  8
0
 62
7
  6
CONTINUOUS
 10
151.0768668626
 20
30.8196456577
 11
151.1346793074
 21
30.9164373395
 12
151.4237418626
 22
30.9164373395
 13
151.4237418626
 23
30.9164373395
  0
SOLID
  8
0
 62
7
  6
CONTINUOUS
 10
151.4237418626
 20
30.9164373395
 11
151.3659292523
 21
30.7873815123
 12
151.0768668626
 22
30.8196456577
 13
151.0768668626
 23
30.8196456577
  0
SOLID
  8
0
 62
7
  6
CONTINUOUS
 10
150.9034292799
 20
30.7551187255
 11
151.0768668626
 21
30.8196456577
 12
151.3659292523
 22
30.7873815123
 13
151.3659292523
 23
30.7873815123
  0
SOLID
  8
0
 62
7
  6
CONTINUOUS
 10
150.9034292799
 20
30.7551187255
 11
151.3659292523
 21
30.7873815123
 12
150.498741835
 22
30.7228544222
 13
150.498741835
 23
30.7228544222
  0
SOLID
  8
0
 62
7
  6
CONTINUOUS
 10
151.3659292523
 20
30.7873815123
 11
151.1924917523
 21
30.6905916353
 12
150.498741835
 22
30.7228544222
 13
150.498741835
 23
30.7228544222
  0
SOLID
  8
0
 62
7
  6
CONTINUOUS
 10
150.0362418212
 20
30.658327332
 11
150.498741835
 21
30.7228544222
 12
151.1924917523
 22
30.6905916353
 13
151.1924917523
 23
30.6905916353
  0
SOLID
  8
0
 62
7
  6
CONTINUOUS
 10
150.0362418212
 20
30.658327332
 11
151.1924917523
 21
30.6905916353
 12
150.2096793212
 22
30.6260631011
 13
150.2096793212
 23
30.6260631011
  0
SOLID
  8
0
 62
7
  6
CONTINUOUS
 10
151.1924917523
 20
30.6905916353
 11
150.9612418074
 21
30.6260631011
 12
150.2096793212
 22
30.6260631011
 13
150.2096793212
 23
30.6260631011
  0
SOLID
  8
0
 62
7
  6
CONTINUOUS
 10
150.5565542799
 20
30.5938002419
 11
150.2096793212
 21
30.6260631011
 12
150.9612418074
 22
30.6260631011
 13
150.9612418074
 23
30.6260631011
  0
SOLID
  8
0
 62
7
  6
CONTINUOUS
 10
154.0253041972
 20
30.7551187255
 11
154.2565543074
 21
30.8519086025
 12
154.3143669177
 22
30.7873815123
 13
154.3143669177
 23
30.7873815123
  0
SOLID
  8
0
 62
7
  6
CONTINUOUS
 10
154.3143669177
 20
30.7873815123
 11
154.5456166972
 21
30.7228544222
 12
154.0253041972
 22
30.7551187255
 13
154.0253041972
 23
30.7551187255
  0
SOLID
  8
0
 62
7
  6
CONTINUOUS
 10
154.1987416972
 20
30.658327332
 11
154.0253041972
 21
30.7551187255
 12
154.5456166972
 22
30.7228544222
 13
154.5456166972
 23
30.7228544222
  0
SOLID
  8
0
 62
7
  6
CONTINUOUS
 10
154.8924916972
 20
30.7228544637
 11
155.1815540869
 21
30.7873815123
 12
155.412804528
 22
30.7551187255
 13
155.412804528
 23
30.7551187255
  0
SOLID
  8
0
 62
7
  6
CONTINUOUS
 10
155.412804528
 20
30.7551187255
 11
155.3549915869
 21
30.6905916353
 12
154.8924916972
 22
30.7228544637
 13
154.8924916972
 23
30.7228544637
  0
SOLID
  8
0
 62
7
  6
CONTINUOUS
 10
155.3549915869
 20
30.6905916353
 11
154.1987416972
 21
30.658327332
 12
154.8924916972
 22
30.7228544637
 13
154.8924916972
 23
30.7228544637
  0
SOLID
  8
0
 62
7
  6
CONTINUOUS
 10
154.1987416972
 20
30.658327332
 11
154.5456166972
 21
30.7228544637
 12
154.8924916972
 22
30.7228544637
 13
154.8924916972
 23
30.7228544637
  0
SOLID
  8
0
 62
7
  6
CONTINUOUS
 10
154.1987416972
 20
30.658327332
 11
155.3549915869
 21
30.6905916353
 12
154.3143669177
 22
30.6260630541
 13
154.3143669177
 23
30.6260630541
  0
SOLID
  8
0
 62
7
  6
CONTINUOUS
 10
155.3549915869
 20
30.6905916353
 11
155.1815540869
 21
30.6260630541
 12
154.3143669177
 22
30.6260630541
 13
154.3143669177
 23
30.6260630541
  0
SOLID
  8
0
 62
7
  6
CONTINUOUS
 10
154.5456166972
 20
30.5938002188
 11
154.3143669177
 21
30.6260630541
 12
155.1815540869
 22
30.6260630541
 13
155.1815540869
 23
30.6260630541
  0
SOLID
  8
0
 62
7
  6
CONTINUOUS
 10
155.1815540869
 20
30.6260630541
 11
154.8924916972
 21
30.5938002188
 12
154.5456166972
 22
30.5938002188
 13
154.5456166972
 23
30.5938002188
  0
SOLID
  8
0
 62
7
  6
CONTINUOUS
 10
159.575304528
 20
30.7551187255
 11
159.228429528
 21
30.7228544637
 12
159.4596793074
 22
30.7873815123
 13
159.4596793074
 23
30.7873815123
  0
SOLID
  8
0
 62
7
  6
CONTINUOUS
 10
159.4596793074
 20
30.7873815123
 11
159.228429528
 21
30.7228544637
 12
159.401867028
 22
30.851908644
 13
159.401867028
 23
30.851908644
  0
SOLID
  8
0
 62
7
  6
CONTINUOUS
 10
159.228429528
 20
30.7228544637
 11
159.1128043074
 21
30.851908644
 12
159.401867028
 22
30.851908644
 13
159.401867028
 23
30.851908644
  0
SOLID
  8
0
 62
7
  6
CONTINUOUS
 10
159.575304528
 20
30.7551187255
 11
159.922179528
 21
30.7228544637
 12
159.228429528
 22
30.7228544637
 13
159.228429528
 23
30.7228544637
  0
SOLID
  8
0
 62
7
  6
CONTINUOUS
 10
156.279992028
 20
30.5938002419
 11
156.279992028
 21
31.6262382337
 12
156.5690540869
 22
30.5938002419
 13
156.5690540869
 23
31.6262382337
  0
ENDBLK
  8
0
  6
BYBLOCK
 62
0
  0
BLOCK
  8
0
 62
2
  6
CONTINUOUS
  2
AMMEAAL_LOGO_BL0
 70
64
 10
32.1213064866
 20
19.8534310916
  0
TEXT
  8
0
 62
7
  6
CONTINUOUS
 10
18.3860103289
 20
19.2268451992
  7
TEXTSTYLE_3
 40
2.7338706658
  1
Ammeraal Beltech
 41
1.0
 51
15.0
 72
0
  0
TEXT
  8
0
 62
7
  6
CONTINUOUS
 10
29.1868111546
 20
16.9533085264
  7
TEXTSTYLE_4
 40
1.0935482663
  1
Innovation & Service in Belting
 41
1.0
 72
0
  0
LINE
  8
0
 62
7
  6
CONTINUOUS
 10
12.3614696776
 20
19.9934385078
 11
13.1396216709
 21
23.6543558055
  0
LINE
  8
0
 62
7
  6
CONTINUOUS
 10
23.2347899607
 20
27.3177497171
 11
13.6274394139
 21
24.1961322958
  0
LINE
  8
0
 62
7
  6
CONTINUOUS
 10
12.5867530099
 20
19.3000877048
 11
20.093828271
 21
12.5406867788
  0
LINE
  8
0
 62
7
  6
CONTINUOUS
 10
12.8492874206
 20
20.5352149982
 11
23.6575567857
 21
24.0470345971
  0
LINE
  8
0
 62
7
  6
CONTINUOUS
 10
23.6533516486
 20
13.6972460334
 11
15.2078919798
 21
21.3015720751
  0
LINE
  8
0
 62
7
  6
CONTINUOUS
 10
24.1731743684
 20
26.4728246013
 11
23.1966148312
 21
21.8784731989
  0
LINE
  8
0
 62
7
  6
CONTINUOUS
 10
22.4968128835
 20
18.5861638851
 11
21.810364672
 21
15.3566789607
  0
LINE
  8
0
 62
7
  6
CONTINUOUS
 10
24.8542704669
 20
14.087448211
 11
25.8105020025
 21
18.5861638851
  0
LINE
  8
0
 62
7
  6
CONTINUOUS
 10
26.5103039502
 20
21.8784731989
 11
26.9545457526
 21
23.9684665583
  0
LINE
  8
0
 62
7
  6
CONTINUOUS
 10
20.8069293463
 20
12.3891124661
 11
24.3664527239
 21
13.5456717207
  0
LINE
  8
0
 62
7
  6
CONTINUOUS
 10
23.9478910361
 20
27.1661754044
 11
26.7292624203
 21
24.6618173613
  0
ARC
  8
0
 62
7
  6
CONTINUOUS
 10
13.8527227462
 20
23.5027814928
 40
0.7290321776
 50
108.0
 51
168.0
  0
ARC
  8
0
 62
7
  6
CONTINUOUS
 10
23.4600732931
 20
26.624398914
 40
0.7290321776
 50
348.0
 51
108.0
  0
ARC
  8
0
 62
7
  6
CONTINUOUS
 10
26.2414446773
 20
24.120040871
 40
0.7290321776
 50
348.0
 51
48.0
  0
ARC
  8
0
 62
7
  6
CONTINUOUS
 10
20.581646014
 20
13.0824632691
 40
0.7290321776
 50
228.0
 51
288.0
  0
ARC
  8
0
 62
7
  6
CONTINUOUS
 10
13.0745707529
 20
19.8418641951
 40
0.7290321776
 50
108.0
 51
228.0
  0
ARC
  8
0
 62
7
  6
CONTINUOUS
 10
24.1411693916
 20
14.2390225237
 40
0.7290321776
 50
228.0
 51
348.0
  0
ENDBLK
  8
0
  6
BYBLOCK
 62
0
  0
ENDSEC
  0
SECTION
  2
ENTITIES
  0
TEXT
  8
0
 62
5
  6
CONTINUOUS
 10
96.0
 20
25.636
  7
TEXTSTYLE_2
 40
2.8
  1
Scale :
 41
0.6
 51
0.000019
 72
0
  0
TEXT
  8
0
 62
5
  6
CONTINUOUS
 10
116.0
 20
25.636
  7
TEXTSTYLE_2
 40
2.8
  1
Belt type:
 41
0.6
 51
0.000019
 72
0
  0
INSERT
  8
0
 62
2
  6
CONTINUOUS
  2
AMMEAAL_LOGO_BL0
 10
32.1213064866
 20
19.8534310916
  0
INSERT
  8
0
 62
2
  6
CONTINUOUS
  2
UNI_LOGO2_BL1
 10
173.5956734183
 20
35.5937998301
  0
LINE
  8
0
 62
2
  6
CONTINUOUS
 10
10.0
 20
30.0
 11
200.0
 21
30.0
  0
LINE
  8
0
 62
2
  6
CONTINUOUS
 10
10.0
 20
30.0
 11
10.0
 21
10.0
  0
LINE
  8
0
 62
2
  6
CONTINUOUS
 10
10.0
 20
10.0
 11
200.0
 21
10.0
  0
LINE
  8
0
 62
2
  6
CONTINUOUS
 10
95.0
 20
30.0
 11
95.0
 21
10.0
  0
LINE
  8
0
 62
2
  6
CONTINUOUS
 10
115.0
 20
30.0
 11
115.0
 21
10.0
  0
LINE
  8
0
 62
2
  6
CONTINUOUS
 10
200.0
 20
30.0
 11
200.0
 21
10.0
  0
TEXT
  8
0
 62
5
  6
CONTINUOUS
 10
13.0
 20
23.303
  7
TEXTSTYLE_5
 40
1.52
  1
                                                                     Ammeraal Beltech Modular A/S
 41
1.0
 72
0
  0
TEXT
  8
0
 62
5
  6
CONTINUOUS
 10
13.0
 20
20.595
  7
TEXTSTYLE_5
 40
1.5
  1
                                                                      Hjulmagervej 21,  7100 Vejle,  DK
 41
1.0
 72
0
  0
TEXT
  8
0
 62
5
  6
CONTINUOUS
 10
13.0
 20
17.881
  7
TEXTSTYLE_5
 40
1.495
  1
                                                                      tel: 
 41
1.0
 72
0
  0
TEXT
  8
0
 62
5
  6
CONTINUOUS
 10
57.9869465649
 20
17.881
  7
TEXTSTYLE_5
 40
1.51
  1
+45 75723100     fax: +45 75723348
 41
1.0
 72
0
  0
TEXT
  8
0
 62
5
  6
CONTINUOUS
 10
13.0
 20
15.177
  7
TEXTSTYLE_5
 40
1.5
  1
                                                                      admin@unichains.dk  www.unichains.com
 41
1.0
 72
0
  0
TEXT
  8
0
 62
5
  6
CONTINUOUS
 10
99.75
 20
13.75
  7
TEXTSTYLE_6
 40
5.0
  1
1:1
 41
0.7
 72
1
 11
105.0
 21
13.75
  0
TEXT
  8
0
 62
5
  6
CONTINUOUS
 10
118.0
 20
13.75
  7
TEXTSTYLE_7
 40
7.5
  1
Sprocket Z09
 41
0.6694444444
 72
0
  0
LINE
  8
0
 62
7
  6
CONTINUOUS
 10
210.0
 20
0.0
 11
0.0
 21
0.0
  0
LINE
  8
0
 62
7
  6
CONTINUOUS
 10
10.0
 20
10.0
 11
200.0
 21
10.0
  0
LINE
  8
0
 62
7
  6
CONTINUOUS
 10
10.0
 20
30.0
 11
200.0
 21
30.0
  0
LINE
  8
0
 62
7
  6
CONTINUOUS
 10
0.0
 20
0.0
 11
0.0
 21
297.0
  0
LINE
  8
0
 62
7
  6
CONTINUOUS
 10
10.0
 20
10.0
 11
10.0
 21
287.0
  0
LINE
  8
0
 62
7
  6
CONTINUOUS
 10
200.0
 20
287.0
 11
200.0
 21
10.0
  0
LINE
  8
0
 62
7
  6
CONTINUOUS
 10
210.0
 20
0.0
 11
210.0
 21
297.0
  0
LINE
  8
0
 62
7
  6
CONTINUOUS
 10
10.0
 20
287.0
 11
200.0
 21
287.0
  0
LINE
  8
0
 62
7
  6
CONTINUOUS
 10
0.0
 20
297.0
 11
210.0
 21
297.0
  0
LINE
  8
0
 62
7
  6
CONTINUOUS
 10
50.7953836825
 20
86.6453548677
 11
50.7953836825
 21
75.0030826323
  0
POLYLINE
  8
0
 62
7
  6
CONTINUOUS
 66
1
 70
0
  0
VERTEX
  8
0
 62
7
  6
CONTINUOUS
 10
50.7953836826
 20
86.6453655579
  0
VERTEX
  8
0
 62
7
  6
CONTINUOUS
 10
50.8090484737
 20
86.803995198
  0
VERTEX
  8
0
 62
7
  6
CONTINUOUS
 10
50.9046884108
 20
87.0730136604
  0
SEQEND
  0
LINE
  8
0
 62
7
  6
CONTINUOUS
 10
50.8075966773
 20
86.4916114253
 11
50.7953836826
 21
86.6453655579
  0
LINE
  8
0
 62
7
  6
CONTINUOUS
 10
50.7953836826
 20
75.0030717494
 11
50.8075966773
 21
75.1568260747
  0
POLYLINE
  8
0
 62
7
  6
CONTINUOUS
 66
1
 70
0
  0
VERTEX
  8
0
 62
7
  6
CONTINUOUS
 10
50.9046884108
 20
74.5754238396
  0
VERTEX
  8
0
 62
7
  6
CONTINUOUS
 10
50.8090495055
 20
74.8444364286
  0
VERTEX
  8
0
 62
7
  6
CONTINUOUS
 10
50.7953836826
 20
75.0030717494
  0
SEQEND
  0
POLYLINE
  8
0
 62
7
  6
CONTINUOUS
 66
1
 70
0
  0
VERTEX
  8
0
 62
7
  6
CONTINUOUS
 10
51.0431193062
 20
75.1568260747
  0
VERTEX
  8
0
 62
7
  6
CONTINUOUS
 10
51.1541091115
 20
74.8444666973
  0
VERTEX
  8
0
 62
7
  6
CONTINUOUS
 10
51.3431285817
 20
74.5754238396
  0
SEQEND
  0
POLYLINE
  8
0
 62
7
  6
CONTINUOUS
 66
1
 70
0
  0
VERTEX
  8
0
 62
7
  6
CONTINUOUS
 10
51.3431285817
 20
87.0730136604
  0
VERTEX
  8
0
 62
7
  6
CONTINUOUS
 10
51.1541050438
 20
86.8039630511
  0
VERTEX
  8
0
 62
7
  6
CONTINUOUS
 10
51.0431193062
 20
86.4916114253
  0
SEQEND
  0
POLYLINE
  8
0
 62
7
  6
CONTINUOUS
 66
1
 70
0
  0
VERTEX
  8
0
 62
7
  6
CONTINUOUS
 10
50.9046884108
 20
87.0730136604
  0
VERTEX
  8
0
 62
7
  6
CONTINUOUS
 10
51.0493739827
 20
87.2635718596
  0
VERTEX
  8
0
 62
7
  6
CONTINUOUS
 10
51.2425928599
 20
87.4041484568
  0
VERTEX
  8
0
 62
7
  6
CONTINUOUS
 10
51.4660521812
 20
87.4792997659
  0
SEQEND
  0
LINE
  8
0
 62
7
  6
CONTINUOUS
 10
58.4278147986
 20
87.82421875
 11
58.4278147986
 21
73.82421875
  0
POLYLINE
  8
0
 62
7
  6
CONTINUOUS
 66
1
 70
0
  0
VERTEX
  8
0
 62
7
  6
CONTINUOUS
 10
58.9989912075
 20
94.82421875
  0
VERTEX
  8
0
 62
7
  6
CONTINUOUS
 10
59.027894156
 20
95.0675549845
  0
VERTEX
  8
0
 62
7
  6
CONTINUOUS
 10
59.1145500704
 20
95.2994790891
  0
VERTEX
  8
0
 62
7
  6
CONTINUOUS
 10
59.25723756
 20
95.5059723945
  0
VERTEX
  8
0
 62
7
  6
CONTINUOUS
 10
59.4572593806
 20
95.6759385296
  0
VERTEX
  8
0
 62
7
  6
CONTINUOUS
 10
59.7062337592
 20
95.7881386138
  0
VERTEX
  8
0
 62
7
  6
CONTINUOUS
 10
59.9642365289
 20
95.82421875
  0
SEQEND
  0
POLYLINE
  8
0
 62
7
  6
CONTINUOUS
 66
1
 70
0
  0
VERTEX
  8
0
 62
7
  6
CONTINUOUS
 10
60.161314439
 20
66.82421875
  0
VERTEX
  8
0
 62
7
  6
CONTINUOUS
 10
60.1937425469
 20
66.5873287393
  0
VERTEX
  8
0
 62
7
  6
CONTINUOUS
 10
60.2913889244
 20
66.3607327745
  0
VERTEX
  8
0
 62
7
  6
CONTINUOUS
 10
60.4570366655
 20
66.1539821117
  0
VERTEX
  8
0
 62
7
  6
CONTINUOUS
 10
60.6921791192
 20
65.9825413311
  0
VERTEX
  8
0
 62
7
  6
CONTINUOUS
 10
60.98704945
 20
65.8672841874
  0
VERTEX
  8
0
 62
7
  6
CONTINUOUS
 10
61.3369777436
 20
65.82421875
  0
SEQEND
  0
LINE
  8
0
 62
7
  6
CONTINUOUS
 10
58.9989912075
 20
94.82421875
 11
58.9989912075
 21
87.82421875
  0
LINE
  8
0
 62
7
  6
CONTINUOUS
 10
58.9989912075
 20
73.82421875
 11
58.9989912075
 21
66.82421875
  0
LINE
  8
0
 62
7
  6
CONTINUOUS
 10
60.161314439
 20
73.82421875
 11
60.161314439
 21
66.82421875
  0
LINE
  8
0
 62
7
  6
CONTINUOUS
 10
60.161314439
 20
87.82421875
 11
60.161314439
 21
94.82421875
  0
POLYLINE
  8
0
 62
7
  6
CONTINUOUS
 66
1
 70
0
  0
VERTEX
  8
0
 62
7
  6
CONTINUOUS
 10
51.3431285817
 20
74.5754238396
  0
VERTEX
  8
0
 62
7
  6
CONTINUOUS
 10
51.5653369669
 20
74.3849273292
  0
VERTEX
  8
0
 62
7
  6
CONTINUOUS
 10
51.838641179
 20
74.2443367092
  0
VERTEX
  8
0
 62
7
  6
CONTINUOUS
 10
52.1333311301
 20
74.1691377341
  0
SEQEND
  0
LINE
  8
0
 62
7
  6
CONTINUOUS
 10
62.8350986949
 20
87.4215674633
 11
62.8350986949
 21
74.2268700367
  0
POLYLINE
  8
0
 62
7
  6
CONTINUOUS
 66
1
 70
0
  0
VERTEX
  8
0
 62
7
  6
CONTINUOUS
 10
62.8350986949
 20
74.2268935104
  0
VERTEX
  8
0
 62
7
  6
CONTINUOUS
 10
62.8356410741
 20
74.2443939349
  0
VERTEX
  8
0
 62
7
  6
CONTINUOUS
 10
62.8601494455
 20
74.3850886348
  0
VERTEX
  8
0
 62
7
  6
CONTINUOUS
 10
62.9115268232
 20
74.5754238396
  0
SEQEND
  0
LINE
  8
0
 62
7
  6
CONTINUOUS
 10
62.8350986949
 20
87.4215451647
 11
62.8478547802
 21
87.4792997659
  0
POLYLINE
  8
0
 62
7
  6
CONTINUOUS
 66
1
 70
0
  0
VERTEX
  8
0
 62
7
  6
CONTINUOUS
 10
67.068815306
 20
65.82421875
  0
VERTEX
  8
0
 62
7
  6
CONTINUOUS
 10
67.0141385949
 20
65.867281106
  0
VERTEX
  8
0
 62
7
  6
CONTINUOUS
 10
66.9579092367
 20
65.9825209715
  0
VERTEX
  8
0
 62
7
  6
CONTINUOUS
 10
66.9066274546
 20
66.1539585776
  0
VERTEX
  8
0
 62
7
  6
CONTINUOUS
 10
66.8671535014
 20
66.3607213594
  0
VERTEX
  8
0
 62
7
  6
CONTINUOUS
 10
66.8426105801
 20
66.5873223025
  0
VERTEX
  8
0
 62
7
  6
CONTINUOUS
 10
66.834252619
 20
66.82421875
  0
SEQEND
  0
LINE
  8
0
 62
7
  6
CONTINUOUS
 10
62.8478547802
 20
74.1691377341
 11
62.8350986949
 21
74.2268935104
  0
LINE
  8
0
 62
7
  6
CONTINUOUS
 10
65.9499285043
 20
95.82421875
 11
65.9499285043
 21
87.82421875
  0
LINE
  8
0
 62
7
  6
CONTINUOUS
 10
65.9499285043
 20
73.82421875
 11
65.9499285043
 21
65.82421875
  0
LINE
  8
0
 62
7
  6
CONTINUOUS
 10
66.834252619
 20
94.82421875
 11
66.834252619
 21
87.82421875
  0
LINE
  8
0
 62
7
  6
CONTINUOUS
 10
66.834252619
 20
73.82421875
 11
66.834252619
 21
66.82421875
  0
POLYLINE
  8
0
 62
7
  6
CONTINUOUS
 66
1
 70
0
  0
VERTEX
  8
0
 62
7
  6
CONTINUOUS
 10
66.834252619
 20
94.82421875
  0
VERTEX
  8
0
 62
7
  6
CONTINUOUS
 10
66.8430756386
 20
95.0675549845
  0
VERTEX
  8
0
 62
7
  6
CONTINUOUS
 10
66.8689174664
 20
95.2994790891
  0
VERTEX
  8
0
 62
7
  6
CONTINUOUS
 10
66.9094235716
 20
95.5059723945
  0
VERTEX
  8
0
 62
7
  6
CONTINUOUS
 10
66.9617416828
 20
95.6759385296
  0
VERTEX
  8
0
 62
7
  6
CONTINUOUS
 10
67.0191303163
 20
95.7881386138
  0
VERTEX
  8
0
 62
7
  6
CONTINUOUS
 10
67.068815306
 20
95.82421875
  0
SEQEND
  0
POLYLINE
  8
0
 62
7
  6
CONTINUOUS
 66
1
 70
0
  0
VERTEX
  8
0
 62
7
  6
CONTINUOUS
 10
64.2685169126
 20
75.1568260747
  0
VERTEX
  8
0
 62
7
  6
CONTINUOUS
 10
64.5468325341
 20
74.8444666973
  0
VERTEX
  8
0
 62
7
  6
CONTINUOUS
 10
64.8456942938
 20
74.5754238396
  0
SEQEND
  0
POLYLINE
  8
0
 62
7
  6
CONTINUOUS
 66
1
 70
0
  0
VERTEX
  8
0
 62
7
  6
CONTINUOUS
 10
62.9115268232
 20
87.0730136604
  0
VERTEX
  8
0
 62
7
  6
CONTINUOUS
 10
62.8600955009
 20
87.2635718596
  0
VERTEX
  8
0
 62
7
  6
CONTINUOUS
 10
62.8356349331
 20
87.4041484568
  0
VERTEX
  8
0
 62
7
  6
CONTINUOUS
 10
62.8350986949
 20
87.4215451647
  0
SEQEND
  0
POLYLINE
  8
0
 62
7
  6
CONTINUOUS
 66
1
 70
0
  0
VERTEX
  8
0
 62
7
  6
CONTINUOUS
 10
62.9115268232
 20
74.5754238396
  0
VERTEX
  8
0
 62
7
  6
CONTINUOUS
 10
63.0245711637
 20
74.8444364286
  0
VERTEX
  8
0
 62
7
  6
CONTINUOUS
 10
63.2295149285
 20
75.1568260747
  0
SEQEND
  0
POLYLINE
  8
0
 62
7
  6
CONTINUOUS
 66
1
 70
0
  0
VERTEX
  8
0
 62
7
  6
CONTINUOUS
 10
64.8456942938
 20
87.0730136604
  0
VERTEX
  8
0
 62
7
  6
CONTINUOUS
 10
64.546824793
 20
86.8039630511
  0
VERTEX
  8
0
 62
7
  6
CONTINUOUS
 10
64.2685169126
 20
86.4916114253
  0
SEQEND
  0
POLYLINE
  8
0
 62
7
  6
CONTINUOUS
 66
1
 70
0
  0
VERTEX
  8
0
 62
7
  6
CONTINUOUS
 10
62.8478547802
 20
87.4792997659
  0
VERTEX
  8
0
 62
7
  6
CONTINUOUS
 10
62.977579538
 20
87.5668647493
  0
VERTEX
  8
0
 62
7
  6
CONTINUOUS
 10
63.2422549781
 20
87.6640005901
  0
VERTEX
  8
0
 62
7
  6
CONTINUOUS
 10
63.6300146916
 20
87.7664952105
  0
SEQEND
  0
POLYLINE
  8
0
 62
7
  6
CONTINUOUS
 66
1
 70
0
  0
VERTEX
  8
0
 62
7
  6
CONTINUOUS
 10
59.9642365289
 20
65.82421875
  0
VERTEX
  8
0
 62
7
  6
CONTINUOUS
 10
59.6829256962
 20
65.867281106
  0
VERTEX
  8
0
 62
7
  6
CONTINUOUS
 10
59.4418768028
 20
65.9825209715
  0
VERTEX
  8
0
 62
7
  6
CONTINUOUS
 10
59.2470855739
 20
66.1539585776
  0
VERTEX
  8
0
 62
7
  6
CONTINUOUS
 10
59.1085346795
 20
66.3607213594
  0
VERTEX
  8
0
 62
7
  6
CONTINUOUS
 10
59.0263623761
 20
66.5873223025
  0
VERTEX
  8
0
 62
7
  6
CONTINUOUS
 10
58.9989912075
 20
66.82421875
  0
SEQEND
  0
POLYLINE
  8
0
 62
7
  6
CONTINUOUS
 66
1
 70
0
  0
VERTEX
  8
0
 62
7
  6
CONTINUOUS
 10
62.8478547802
 20
74.1691377341
  0
VERTEX
  8
0
 62
7
  6
CONTINUOUS
 10
62.977579538
 20
74.0815727507
  0
VERTEX
  8
0
 62
7
  6
CONTINUOUS
 10
63.2422549781
 20
73.9844369099
  0
VERTEX
  8
0
 62
7
  6
CONTINUOUS
 10
63.6300146916
 20
73.8819422895
  0
SEQEND
  0
LINE
  8
0
 62
7
  6
CONTINUOUS
 10
70.4288713956
 20
87.82421875
 11
70.4288713956
 21
73.82421875
  0
LINE
  8
0
 62
7
  6
CONTINUOUS
 10
71.9618114829
 20
94.82421875
 11
71.9618114829
 21
87.82421875
  0
LINE
  8
0
 62
7
  6
CONTINUOUS
 10
71.9618114829
 20
73.82421875
 11
71.9618114829
 21
66.82421875
  0
POLYLINE
  8
0
 62
7
  6
CONTINUOUS
 66
1
 70
0
  0
VERTEX
  8
0
 62
7
  6
CONTINUOUS
 10
114.3622410064
 20
65.82421875
  0
VERTEX
  8
0
 62
7
  6
CONTINUOUS
 10
114.7121571956
 20
65.867281106
  0
VERTEX
  8
0
 62
7
  6
CONTINUOUS
 10
115.0070024745
 20
65.9825209715
  0
VERTEX
  8
0
 62
7
  6
CONTINUOUS
 10
115.242157521
 20
66.1539585776
  0
VERTEX
  8
0
 62
7
  6
CONTINUOUS
 10
115.4078229843
 20
66.3607213594
  0
VERTEX
  8
0
 62
7
  6
CONTINUOUS
 10
115.5054744135
 20
66.5873223025
  0
VERTEX
  8
0
 62
7
  6
CONTINUOUS
 10
115.537904311
 20
66.82421875
  0
SEQEND
  0
POLYLINE
  8
0
 62
7
  6
CONTINUOUS
 66
1
 70
0
  0
VERTEX
  8
0
 62
7
  6
CONTINUOUS
 10
102.574591091
 20
65.82421875
  0
VERTEX
  8
0
 62
7
  6
CONTINUOUS
 10
102.9312314108
 20
65.8671076199
  0
VERTEX
  8
0
 62
7
  6
CONTINUOUS
 10
103.2261239722
 20
65.9828857339
  0
VERTEX
  8
0
 62
7
  6
CONTINUOUS
 10
103.4553174883
 20
66.1544570602
  0
VERTEX
  8
0
 62
7
  6
CONTINUOUS
 10
103.6137579155
 20
66.3604657054
  0
VERTEX
  8
0
 62
7
  6
CONTINUOUS
 10
103.7067057076
 20
66.5872192243
  0
VERTEX
  8
0
 62
7
  6
CONTINUOUS
 10
103.7374072671
 20
66.82421875
  0
SEQEND
  0
POLYLINE
  8
0
 62
7
  6
CONTINUOUS
 66
1
 70
0
  0
VERTEX
  8
0
 62
7
  6
CONTINUOUS
 10
51.4660521812
 20
74.1691377341
  0
VERTEX
  8
0
 62
7
  6
CONTINUOUS
 10
51.2423894156
 20
74.2443939349
  0
VERTEX
  8
0
 62
7
  6
CONTINUOUS
 10
51.0491485258
 20
74.3850886348
  0
VERTEX
  8
0
 62
7
  6
CONTINUOUS
 10
50.9046884108
 20
74.5754238396
  0
SEQEND
  0
POLYLINE
  8
0
 62
7
  6
CONTINUOUS
 66
1
 70
0
  0
VERTEX
  8
0
 62
7
  6
CONTINUOUS
 10
64.8456942938
 20
74.5754238396
  0
VERTEX
  8
0
 62
7
  6
CONTINUOUS
 10
65.1365429982
 20
74.3849273292
  0
VERTEX
  8
0
 62
7
  6
CONTINUOUS
 10
65.4654973857
 20
74.2443367092
  0
VERTEX
  8
0
 62
7
  6
CONTINUOUS
 10
65.7915385992
 20
74.1691377341
  0
SEQEND
  0
POLYLINE
  8
0
 62
7
  6
CONTINUOUS
 66
1
 70
0
  0
VERTEX
  8
0
 62
7
  6
CONTINUOUS
 10
63.2295149285
 20
86.4916114253
  0
VERTEX
  8
0
 62
7
  6
CONTINUOUS
 10
63.0245743439
 20
86.803995198
  0
VERTEX
  8
0
 62
7
  6
CONTINUOUS
 10
62.9115268232
 20
87.0730136604
  0
SEQEND
  0
POLYLINE
  8
0
 62
7
  6
CONTINUOUS
 66
1
 70
0
  0
VERTEX
  8
0
 62
7
  6
CONTINUOUS
 10
71.9618114829
 20
66.82421875
  0
VERTEX
  8
0
 62
7
  6
CONTINUOUS
 10
71.9925340811
 20
66.5871393718
  0
VERTEX
  8
0
 62
7
  6
CONTINUOUS
 10
72.0855457148
 20
66.3603174186
  0
VERTEX
  8
0
 62
7
  6
CONTINUOUS
 10
72.2440621129
 20
66.1542974151
  0
VERTEX
  8
0
 62
7
  6
CONTINUOUS
 10
72.4729703293
 20
65.9829551354
  0
VERTEX
  8
0
 62
7
  6
CONTINUOUS
 10
72.7677778257
 20
65.867160475
  0
VERTEX
  8
0
 62
7
  6
CONTINUOUS
 10
73.124627659
 20
65.82421875
  0
SEQEND
  0
POLYLINE
  8
0
 62
7
  6
CONTINUOUS
 66
1
 70
0
  0
VERTEX
  8
0
 62
7
  6
CONTINUOUS
 10
123.5658876199
 20
74.1691377341
  0
VERTEX
  8
0
 62
7
  6
CONTINUOUS
 10
123.8607288715
 20
74.2443939349
  0
VERTEX
  8
0
 62
7
  6
CONTINUOUS
 10
124.1341222501
 20
74.3850886348
  0
VERTEX
  8
0
 62
7
  6
CONTINUOUS
 10
124.3560901683
 20
74.5754238396
  0
SEQEND
  0
POLYLINE
  8
0
 62
7
  6
CONTINUOUS
 66
1
 70
0
  0
VERTEX
  8
0
 62
7
  6
CONTINUOUS
 10
83.8969585808
 20
65.82421875
  0
VERTEX
  8
0
 62
7
  6
CONTINUOUS
 10
84.094499832
 20
65.867281106
  0
VERTEX
  8
0
 62
7
  6
CONTINUOUS
 10
84.2494003506
 20
65.9825209715
  0
VERTEX
  8
0
 62
7
  6
CONTINUOUS
 10
84.3656233311
 20
66.1539585776
  0
VERTEX
  8
0
 62
7
  6
CONTINUOUS
 10
84.4436966206
 20
66.3607213594
  0
VERTEX
  8
0
 62
7
  6
CONTINUOUS
 10
84.488266987
 20
66.5873223025
  0
VERTEX
  8
0
 62
7
  6
CONTINUOUS
 10
84.5028330162
 20
66.82421875
  0
SEQEND
  0
LINE
  8
0
 62
7
  6
CONTINUOUS
 10
115.7349822211
 20
65.82421875
 11
108.6487375981
 21
65.82421875
  0
LINE
  8
0
 62
7
  6
CONTINUOUS
 10
108.630403444
 20
65.82421875
 11
59.9642365289
 21
65.82421875
  0
POLYLINE
  8
0
 62
7
  6
CONTINUOUS
 66
1
 70
0
  0
VERTEX
  8
0
 62
7
  6
CONTINUOUS
 10
112.0692040584
 20
73.8819422895
  0
VERTEX
  8
0
 62
7
  6
CONTINUOUS
 10
112.4568407075
 20
73.9843992643
  0
VERTEX
  8
0
 62
7
  6
CONTINUOUS
 10
112.7216110227
 20
74.0815595527
  0
VERTEX
  8
0
 62
7
  6
CONTINUOUS
 10
112.8513639698
 20
74.1691377341
  0
SEQEND
  0
LINE
  8
0
 62
7
  6
CONTINUOUS
 10
108.136952056
 20
73.8365304094
 11
108.3124528323
 21
73.8819422895
  0
LINE
  8
0
 62
7
  6
CONTINUOUS
 10
112.0692040584
 20
73.8819422895
 11
111.8762227895
 21
73.8365304094
  0
POLYLINE
  8
0
 62
7
  6
CONTINUOUS
 66
1
 70
0
  0
VERTEX
  8
0
 62
7
  6
CONTINUOUS
 10
109.9076801508
 20
74.1691377341
  0
VERTEX
  8
0
 62
7
  6
CONTINUOUS
 10
110.2338959066
 20
74.2443939349
  0
VERTEX
  8
0
 62
7
  6
CONTINUOUS
 10
110.5629781657
 20
74.3850886348
  0
VERTEX
  8
0
 62
7
  6
CONTINUOUS
 10
110.8535244562
 20
74.5754238396
  0
SEQEND
  0
POLYLINE
  8
0
 62
7
  6
CONTINUOUS
 66
1
 70
0
  0
VERTEX
  8
0
 62
7
  6
CONTINUOUS
 10
111.8762227895
 20
73.8365304094
  0
VERTEX
  8
0
 62
7
  6
CONTINUOUS
 10
111.8416109172
 20
73.8296981378
  0
VERTEX
  8
0
 62
7
  6
CONTINUOUS
 10
111.806888122
 20
73.8255891092
  0
VERTEX
  8
0
 62
7
  6
CONTINUOUS
 10
111.7721792029
 20
73.82421875
  0
SEQEND
  0
POLYLINE
  8
0
 62
7
  6
CONTINUOUS
 66
1
 70
0
  0
VERTEX
  8
0
 62
7
  6
CONTINUOUS
 10
123.1384642266
 20
73.9843992643
  0
VERTEX
  8
0
 62
7
  6
CONTINUOUS
 10
123.7241305539
 20
74.0815595527
  0
VERTEX
  8
0
 62
7
  6
CONTINUOUS
 10
124.2331665688
 20
74.1691377341
  0
SEQEND
  0
LINE
  8
0
 62
7
  6
CONTINUOUS
 10
121.372257264
 20
73.8365304094
 11
121.6525496341
 21
73.8819422895
  0
LINE
  8
0
 62
7
  6
CONTINUOUS
 10
123.1384642266
 20
73.9843992643
 11
122.2198811252
 21
73.8365304094
  0
POLYLINE
  8
0
 62
7
  6
CONTINUOUS
 66
1
 70
0
  0
VERTEX
  8
0
 62
7
  6
CONTINUOUS
 10
123.5658876199
 20
74.1691377341
  0
VERTEX
  8
0
 62
7
  6
CONTINUOUS
 10
122.9491958047
 20
74.0815727507
  0
VERTEX
  8
0
 62
7
  6
CONTINUOUS
 10
122.3011652253
 20
73.9844369099
  0
VERTEX
  8
0
 62
7
  6
CONTINUOUS
 10
121.6525496341
 20
73.8819422895
  0
SEQEND
  0
POLYLINE
  8
0
 62
7
  6
CONTINUOUS
 66
1
 70
0
  0
VERTEX
  8
0
 62
7
  6
CONTINUOUS
 10
122.2198811252
 20
73.8365304094
  0
VERTEX
  8
0
 62
7
  6
CONTINUOUS
 10
122.1684787323
 20
73.8296981378
  0
VERTEX
  8
0
 62
7
  6
CONTINUOUS
 10
122.116780339
 20
73.8255891092
  0
VERTEX
  8
0
 62
7
  6
CONTINUOUS
 10
122.0649700441
 20
73.82421875
  0
SEQEND
  0
POLYLINE
  8
0
 62
7
  6
CONTINUOUS
 66
1
 70
0
  0
VERTEX
  8
0
 62
7
  6
CONTINUOUS
 10
54.326961486
 20
73.8365304094
  0
VERTEX
  8
0
 62
7
  6
CONTINUOUS
 10
54.3777991499
 20
73.8296981378
  0
VERTEX
  8
0
 62
7
  6
CONTINUOUS
 10
54.4289765935
 20
73.8255891092
  0
VERTEX
  8
0
 62
7
  6
CONTINUOUS
 10
54.4803121848
 20
73.82421875
  0
SEQEND
  0
POLYLINE
  8
0
 62
7
  6
CONTINUOUS
 66
1
 70
0
  0
VERTEX
  8
0
 62
7
  6
CONTINUOUS
 10
54.0466691159
 20
73.8819422895
  0
VERTEX
  8
0
 62
7
  6
CONTINUOUS
 10
53.3982981626
 20
73.9843992643
  0
VERTEX
  8
0
 62
7
  6
CONTINUOUS
 10
52.7501133965
 20
74.0815595527
  0
VERTEX
  8
0
 62
7
  6
CONTINUOUS
 10
52.1333311301
 20
74.1691377341
  0
SEQEND
  0
LINE
  8
0
 62
7
  6
CONTINUOUS
 10
54.0466691159
 20
73.8819422895
 11
54.326961486
 21
73.8365304094
  0
POLYLINE
  8
0
 62
7
  6
CONTINUOUS
 66
1
 70
0
  0
VERTEX
  8
0
 62
7
  6
CONTINUOUS
 10
51.4660521812
 20
74.1691377341
  0
VERTEX
  8
0
 62
7
  6
CONTINUOUS
 10
51.9750099279
 20
74.0815727507
  0
VERTEX
  8
0
 62
7
  6
CONTINUOUS
 10
52.5605243445
 20
73.9844369099
  0
VERTEX
  8
0
 62
7
  6
CONTINUOUS
 10
53.4793376248
 20
73.8365304094
  0
SEQEND
  0
POLYLINE
  8
0
 62
7
  6
CONTINUOUS
 66
1
 70
0
  0
VERTEX
  8
0
 62
7
  6
CONTINUOUS
 10
67.562266694
 20
73.8365304094
  0
VERTEX
  8
0
 62
7
  6
CONTINUOUS
 10
67.5943872793
 20
73.8296981378
  0
VERTEX
  8
0
 62
7
  6
CONTINUOUS
 10
67.6268119179
 20
73.8255891092
  0
VERTEX
  8
0
 62
7
  6
CONTINUOUS
 10
67.6594266946
 20
73.82421875
  0
SEQEND
  0
POLYLINE
  8
0
 62
7
  6
CONTINUOUS
 66
1
 70
0
  0
VERTEX
  8
0
 62
7
  6
CONTINUOUS
 10
67.3867659177
 20
73.8819422895
  0
VERTEX
  8
0
 62
7
  6
CONTINUOUS
 10
66.9371801379
 20
73.9843992643
  0
VERTEX
  8
0
 62
7
  6
CONTINUOUS
 10
66.3966113474
 20
74.0815595527
  0
VERTEX
  8
0
 62
7
  6
CONTINUOUS
 10
65.7915385992
 20
74.1691377341
  0
SEQEND
  0
LINE
  8
0
 62
7
  6
CONTINUOUS
 10
63.8229959605
 20
73.8365304094
 11
63.6300146916
 21
73.8819422895
  0
LINE
  8
0
 62
7
  6
CONTINUOUS
 10
67.3867659177
 20
73.8819422895
 11
67.562266694
 21
73.8365304094
  0
LINE
  8
0
 62
7
  6
CONTINUOUS
 10
79.2007499334
 20
95.82421875
 11
79.2007499334
 21
65.82421875
  0
POLYLINE
  8
0
 62
7
  6
CONTINUOUS
 66
1
 70
0
  0
VERTEX
  8
0
 62
7
  6
CONTINUOUS
 10
109.9076801508
 20
74.1691377341
  0
VERTEX
  8
0
 62
7
  6
CONTINUOUS
 10
109.302689337
 20
74.0815727507
  0
VERTEX
  8
0
 62
7
  6
CONTINUOUS
 10
108.7622254623
 20
73.9844369099
  0
VERTEX
  8
0
 62
7
  6
CONTINUOUS
 10
108.3124528323
 20
73.8819422895
  0
SEQEND
  0
POLYLINE
  8
0
 62
7
  6
CONTINUOUS
 66
1
 70
0
  0
VERTEX
  8
0
 62
7
  6
CONTINUOUS
 10
108.0397920554
 20
73.82421875
  0
VERTEX
  8
0
 62
7
  6
CONTINUOUS
 10
108.0724068321
 20
73.8255891092
  0
VERTEX
  8
0
 62
7
  6
CONTINUOUS
 10
108.1048314707
 20
73.8296981378
  0
VERTEX
  8
0
 62
7
  6
CONTINUOUS
 10
108.136952056
 20
73.8365304094
  0
SEQEND
  0
POLYLINE
  8
0
 62
7
  6
CONTINUOUS
 66
1
 70
0
  0
VERTEX
  8
0
 62
7
  6
CONTINUOUS
 10
121.2189065652
 20
73.82421875
  0
VERTEX
  8
0
 62
7
  6
CONTINUOUS
 10
121.2702421565
 20
73.8255891092
  0
VERTEX
  8
0
 62
7
  6
CONTINUOUS
 10
121.3214196001
 20
73.8296981378
  0
VERTEX
  8
0
 62
7
  6
CONTINUOUS
 10
121.372257264
 20
73.8365304094
  0
SEQEND
  0
POLYLINE
  8
0
 62
7
  6
CONTINUOUS
 66
1
 70
0
  0
VERTEX
  8
0
 62
7
  6
CONTINUOUS
 10
53.6342487059
 20
73.82421875
  0
VERTEX
  8
0
 62
7
  6
CONTINUOUS
 10
53.582438411
 20
73.8255891092
  0
VERTEX
  8
0
 62
7
  6
CONTINUOUS
 10
53.5307400177
 20
73.8296981378
  0
VERTEX
  8
0
 62
7
  6
CONTINUOUS
 10
53.4793376248
 20
73.8365304094
  0
SEQEND
  0
POLYLINE
  8
0
 62
7
  6
CONTINUOUS
 66
1
 70
0
  0
VERTEX
  8
0
 62
7
  6
CONTINUOUS
 10
63.9270395471
 20
73.82421875
  0
VERTEX
  8
0
 62
7
  6
CONTINUOUS
 10
63.892330628
 20
73.8255891092
  0
VERTEX
  8
0
 62
7
  6
CONTINUOUS
 10
63.8576078328
 20
73.8296981378
  0
VERTEX
  8
0
 62
7
  6
CONTINUOUS
 10
63.8229959605
 20
73.8365304094
  0
SEQEND
  0
POLYLINE
  8
0
 62
7
  6
CONTINUOUS
 66
1
 70
0
  0
VERTEX
  8
0
 62
7
  6
CONTINUOUS
 10
89.7709625324
 20
87.4792997659
  0
VERTEX
  8
0
 62
7
  6
CONTINUOUS
 10
89.5663395891
 20
87.4042048542
  0
VERTEX
  8
0
 62
7
  6
CONTINUOUS
 10
89.3357467542
 20
87.2637283462
  0
VERTEX
  8
0
 62
7
  6
CONTINUOUS
 10
89.1120475324
 20
87.0730136604
  0
SEQEND
  0
POLYLINE
  8
0
 62
7
  6
CONTINUOUS
 66
1
 70
0
  0
VERTEX
  8
0
 62
7
  6
CONTINUOUS
 10
85.9282562176
 20
74.1691377341
  0
VERTEX
  8
0
 62
7
  6
CONTINUOUS
 10
85.6180483307
 20
74.0815727507
  0
VERTEX
  8
0
 62
7
  6
CONTINUOUS
 10
85.4380402142
 20
73.9844369099
  0
VERTEX
  8
0
 62
7
  6
CONTINUOUS
 10
85.394257375
 20
73.9042644024
  0
SEQEND
  0
LINE
  8
0
 62
7
  6
CONTINUOUS
 10
90.2857520695
 20
73.82421875
 11
85.4134666805
 21
73.82421875
  0
LINE
  8
0
 62
7
  6
CONTINUOUS
 10
53.6342487059
 20
73.82421875
 11
60.161314439
 21
73.82421875
  0
LINE
  8
0
 62
7
  6
CONTINUOUS
 10
63.9270395471
 20
73.82421875
 11
71.9618114829
 21
73.82421875
  0
LINE
  8
0
 62
7
  6
CONTINUOUS
 10
84.5028330162
 20
73.82421875
 11
85.4089737388
 21
73.82421875
  0
LINE
  8
0
 62
7
  6
CONTINUOUS
 10
90.2902450112
 20
73.82421875
 11
91.1963857338
 21
73.82421875
  0
LINE
  8
0
 62
7
  6
CONTINUOUS
 10
103.7374072671
 20
73.82421875
 11
111.7721792029
 21
73.82421875
  0
LINE
  8
0
 62
7
  6
CONTINUOUS
 10
115.537904311
 20
73.82421875
 11
122.0649700441
 21
73.82421875
  0
POLYLINE
  8
0
 62
7
  6
CONTINUOUS
 66
1
 70
0
  0
VERTEX
  8
0
 62
7
  6
CONTINUOUS
 10
85.4134666805
 20
73.82421875
  0
VERTEX
  8
0
 62
7
  6
CONTINUOUS
 10
85.4120998261
 20
73.8255891092
  0
VERTEX
  8
0
 62
7
  6
CONTINUOUS
 10
85.410599811
 20
73.8296981378
  0
VERTEX
  8
0
 62
7
  6
CONTINUOUS
 10
85.4089737388
 20
73.8365304094
  0
SEQEND
  0
POLYLINE
  8
0
 62
7
  6
CONTINUOUS
 66
1
 70
0
  0
VERTEX
  8
0
 62
7
  6
CONTINUOUS
 10
84.5028330162
 20
94.82421875
  0
VERTEX
  8
0
 62
7
  6
CONTINUOUS
 10
84.4874477181
 20
95.0675549845
  0
VERTEX
  8
0
 62
7
  6
CONTINUOUS
 10
84.4403837808
 20
95.2994790891
  0
VERTEX
  8
0
 62
7
  6
CONTINUOUS
 10
84.3597552448
 20
95.5059723945
  0
VERTEX
  8
0
 62
7
  6
CONTINUOUS
 10
84.239889421
 20
95.6759385296
  0
VERTEX
  8
0
 62
7
  6
CONTINUOUS
 10
84.0788395299
 20
95.7881386138
  0
VERTEX
  8
0
 62
7
  6
CONTINUOUS
 10
83.8969585808
 20
95.82421875
  0
SEQEND
  0
LINE
  8
0
 62
7
  6
CONTINUOUS
 10
84.5028330162
 20
73.82421875
 11
84.5028330162
 21
66.82421875
  0
LINE
  8
0
 62
7
  6
CONTINUOUS
 10
84.5028330162
 20
87.82421875
 11
84.5028330162
 21
94.82421875
  0
LINE
  8
0
 62
7
  6
CONTINUOUS
 10
85.117933847
 20
87.82421875
 11
85.117933847
 21
73.82421875
  0
LINE
  8
0
 62
7
  6
CONTINUOUS
 10
85.394257375
 20
87.7442101417
 11
85.394257375
 21
73.9042273583
  0
LINE
  8
0
 62
7
  6
CONTINUOUS
 10
85.394257375
 20
87.7441730976
 11
85.3975641576
 21
87.7664952105
  0
POLYLINE
  8
0
 62
7
  6
CONTINUOUS
 66
1
 70
0
  0
VERTEX
  8
0
 62
7
  6
CONTINUOUS
 10
85.4089737388
 20
87.8119070906
  0
VERTEX
  8
0
 62
7
  6
CONTINUOUS
 10
85.4056273638
 20
87.7967721948
  0
VERTEX
  8
0
 62
7
  6
CONTINUOUS
 10
85.4018241432
 20
87.78163478
  0
VERTEX
  8
0
 62
7
  6
CONTINUOUS
 10
85.3975641576
 20
87.7664952105
  0
SEQEND
  0
POLYLINE
  8
0
 62
7
  6
CONTINUOUS
 66
1
 70
0
  0
VERTEX
  8
0
 62
7
  6
CONTINUOUS
 10
85.4089737388
 20
87.8119070906
  0
VERTEX
  8
0
 62
7
  6
CONTINUOUS
 10
85.4105996012
 20
87.8187386281
  0
VERTEX
  8
0
 62
7
  6
CONTINUOUS
 10
85.4120998409
 20
87.8228484191
  0
VERTEX
  8
0
 62
7
  6
CONTINUOUS
 10
85.4134666805
 20
87.82421875
  0
SEQEND
  0
POLYLINE
  8
0
 62
7
  6
CONTINUOUS
 66
1
 70
0
  0
VERTEX
  8
0
 62
7
  6
CONTINUOUS
 10
89.1120475324
 20
87.0730136604
  0
VERTEX
  8
0
 62
7
  6
CONTINUOUS
 10
88.8431764297
 20
86.8039630511
  0
VERTEX
  8
0
 62
7
  6
CONTINUOUS
 10
88.5277697568
 20
86.4916114253
  0
SEQEND
  0
POLYLINE
  8
0
 62
7
  6
CONTINUOUS
 66
1
 70
0
  0
VERTEX
  8
0
 62
7
  6
CONTINUOUS
 10
89.1120475324
 20
74.5754238396
  0
VERTEX
  8
0
 62
7
  6
CONTINUOUS
 10
89.3354452148
 20
74.3849273292
  0
VERTEX
  8
0
 62
7
  6
CONTINUOUS
 10
89.5661283638
 20
74.2443367092
  0
VERTEX
  8
0
 62
7
  6
CONTINUOUS
 10
89.7709625324
 20
74.1691377341
  0
SEQEND
  0
POLYLINE
  8
0
 62
7
  6
CONTINUOUS
 66
1
 70
0
  0
VERTEX
  8
0
 62
7
  6
CONTINUOUS
 10
88.5277697568
 20
75.1568260747
  0
VERTEX
  8
0
 62
7
  6
CONTINUOUS
 10
88.843184222
 20
74.8444666973
  0
VERTEX
  8
0
 62
7
  6
CONTINUOUS
 10
89.1120475324
 20
74.5754238396
  0
SEQEND
  0
POLYLINE
  8
0
 62
7
  6
CONTINUOUS
 66
1
 70
0
  0
VERTEX
  8
0
 62
7
  6
CONTINUOUS
 10
85.4089737388
 20
73.8365304094
  0
VERTEX
  8
0
 62
7
  6
CONTINUOUS
 10
85.4056273638
 20
73.8516653052
  0
VERTEX
  8
0
 62
7
  6
CONTINUOUS
 10
85.4018241432
 20
73.86680272
  0
VERTEX
  8
0
 62
7
  6
CONTINUOUS
 10
85.3975641576
 20
73.8819422895
  0
SEQEND
  0
LINE
  8
0
 62
7
  6
CONTINUOUS
 10
85.394257375
 20
73.9042644024
 11
85.3975641576
 21
73.8819422895
  0
LINE
  8
DEFAULT_1
 62
2
  6
CENTER
 10
87.849609375
 20
63.82421875
 11
87.849609375
 21
97.82421875
  0
POLYLINE
  8
0
 62
7
  6
CONTINUOUS
 66
1
 70
0
  0
VERTEX
  8
0
 62
7
  6
CONTINUOUS
 10
90.304961375
 20
87.7441731007
  0
VERTEX
  8
0
 62
7
  6
CONTINUOUS
 10
90.261220169
 20
87.6640382357
  0
VERTEX
  8
0
 62
7
  6
CONTINUOUS
 10
90.0812054989
 20
87.5668779473
  0
VERTEX
  8
0
 62
7
  6
CONTINUOUS
 10
89.7709625324
 20
87.4792997659
  0
SEQEND
  0
POLYLINE
  8
0
 62
7
  6
CONTINUOUS
 66
1
 70
0
  0
VERTEX
  8
0
 62
7
  6
CONTINUOUS
 10
90.304961375
 20
73.9042643993
  0
VERTEX
  8
0
 62
7
  6
CONTINUOUS
 10
90.261220169
 20
73.9843992643
  0
VERTEX
  8
0
 62
7
  6
CONTINUOUS
 10
90.0812054989
 20
74.0815595527
  0
VERTEX
  8
0
 62
7
  6
CONTINUOUS
 10
89.7709625324
 20
74.1691377341
  0
SEQEND
  0
POLYLINE
  8
0
 62
7
  6
CONTINUOUS
 66
1
 70
0
  0
VERTEX
  8
0
 62
7
  6
CONTINUOUS
 10
91.1963857338
 20
66.82421875
  0
VERTEX
  8
0
 62
7
  6
CONTINUOUS
 10
91.210950956
 20
66.5873287393
  0
VERTEX
  8
0
 62
7
  6
CONTINUOUS
 10
91.2555189694
 20
66.3607327745
  0
VERTEX
  8
0
 62
7
  6
CONTINUOUS
 10
91.3335836115
 20
66.1539821117
  0
VERTEX
  8
0
 62
7
  6
CONTINUOUS
 10
91.4497995278
 20
65.9825413311
  0
VERTEX
  8
0
 62
7
  6
CONTINUOUS
 10
91.604712345
 20
65.8672841874
  0
VERTEX
  8
0
 62
7
  6
CONTINUOUS
 10
91.8022601692
 20
65.82421875
  0
SEQEND
  0
LINE
  8
0
 62
7
  6
CONTINUOUS
 10
90.304961375
 20
87.7442101417
 11
90.304961375
 21
73.9042273583
  0
LINE
  8
0
 62
7
  6
CONTINUOUS
 10
90.581284903
 20
87.82421875
 11
90.581284903
 21
73.82421875
  0
LINE
  8
0
 62
7
  6
CONTINUOUS
 10
91.1963857338
 20
94.82421875
 11
91.1963857338
 21
87.82421875
  0
LINE
  8
0
 62
7
  6
CONTINUOUS
 10
91.1963857338
 20
73.82421875
 11
91.1963857338
 21
66.82421875
  0
LINE
  8
0
 62
7
  6
CONTINUOUS
 10
90.3016545924
 20
73.8819422895
 11
90.304961375
 21
73.9042643993
  0
POLYLINE
  8
0
 62
7
  6
CONTINUOUS
 66
1
 70
0
  0
VERTEX
  8
0
 62
7
  6
CONTINUOUS
 10
90.2902450112
 20
73.8365304094
  0
VERTEX
  8
0
 62
7
  6
CONTINUOUS
 10
90.288618939
 20
73.8296981378
  0
VERTEX
  8
0
 62
7
  6
CONTINUOUS
 10
90.2871189239
 20
73.8255891092
  0
VERTEX
  8
0
 62
7
  6
CONTINUOUS
 10
90.2857520695
 20
73.82421875
  0
SEQEND
  0
POLYLINE
  8
0
 62
7
  6
CONTINUOUS
 66
1
 70
0
  0
VERTEX
  8
0
 62
7
  6
CONTINUOUS
 10
90.3016545924
 20
73.8819422895
  0
VERTEX
  8
0
 62
7
  6
CONTINUOUS
 10
90.2973946085
 20
73.8668027264
  0
VERTEX
  8
0
 62
7
  6
CONTINUOUS
 10
90.2935913861
 20
73.8516653044
  0
VERTEX
  8
0
 62
7
  6
CONTINUOUS
 10
90.2902450112
 20
73.8365304094
  0
SEQEND
  0
POLYLINE
  8
0
 62
7
  6
CONTINUOUS
 66
1
 70
0
  0
VERTEX
  8
0
 62
7
  6
CONTINUOUS
 10
86.5871712176
 20
74.5754238396
  0
VERTEX
  8
0
 62
7
  6
CONTINUOUS
 10
86.8560041005
 20
74.8444364286
  0
VERTEX
  8
0
 62
7
  6
CONTINUOUS
 10
87.1714489932
 20
75.1568260747
  0
SEQEND
  0
POLYLINE
  8
0
 62
7
  6
CONTINUOUS
 66
1
 70
0
  0
VERTEX
  8
0
 62
7
  6
CONTINUOUS
 10
85.9282562176
 20
74.1691377341
  0
VERTEX
  8
0
 62
7
  6
CONTINUOUS
 10
86.1332064998
 20
74.2443939349
  0
VERTEX
  8
0
 62
7
  6
CONTINUOUS
 10
86.3639963931
 20
74.3850886348
  0
VERTEX
  8
0
 62
7
  6
CONTINUOUS
 10
86.5871712176
 20
74.5754238396
  0
SEQEND
  0
POLYLINE
  8
0
 62
7
  6
CONTINUOUS
 66
1
 70
0
  0
VERTEX
  8
0
 62
7
  6
CONTINUOUS
 10
86.5871712176
 20
87.0730136604
  0
VERTEX
  8
0
 62
7
  6
CONTINUOUS
 10
86.3636882883
 20
87.2635718596
  0
VERTEX
  8
0
 62
7
  6
CONTINUOUS
 10
86.132993647
 20
87.4041484568
  0
VERTEX
  8
0
 62
7
  6
CONTINUOUS
 10
85.9282562176
 20
87.4792997659
  0
SEQEND
  0
POLYLINE
  8
0
 62
7
  6
CONTINUOUS
 66
1
 70
0
  0
VERTEX
  8
0
 62
7
  6
CONTINUOUS
 10
87.1714489932
 20
86.4916114253
  0
VERTEX
  8
0
 62
7
  6
CONTINUOUS
 10
86.8560100047
 20
86.803995198
  0
VERTEX
  8
0
 62
7
  6
CONTINUOUS
 10
86.5871712176
 20
87.0730136604
  0
SEQEND
  0
POLYLINE
  8
0
 62
7
  6
CONTINUOUS
 66
1
 70
0
  0
VERTEX
  8
0
 62
7
  6
CONTINUOUS
 10
90.3016545924
 20
87.7664952105
  0
VERTEX
  8
0
 62
7
  6
CONTINUOUS
 10
90.2973946085
 20
87.7816347736
  0
VERTEX
  8
0
 62
7
  6
CONTINUOUS
 10
90.2935913861
 20
87.7967721956
  0
VERTEX
  8
0
 62
7
  6
CONTINUOUS
 10
90.2902450112
 20
87.8119070906
  0
SEQEND
  0
LINE
  8
0
 62
7
  6
CONTINUOUS
 10
90.3016545924
 20
87.7664952105
 11
90.304961375
 21
87.7441731007
  0
POLYLINE
  8
0
 62
7
  6
CONTINUOUS
 66
1
 70
0
  0
VERTEX
  8
0
 62
7
  6
CONTINUOUS
 10
67.6594266946
 20
87.82421875
  0
VERTEX
  8
0
 62
7
  6
CONTINUOUS
 10
67.6268122531
 20
87.8228484191
  0
VERTEX
  8
0
 62
7
  6
CONTINUOUS
 10
67.5943829495
 20
87.8187386281
  0
VERTEX
  8
0
 62
7
  6
CONTINUOUS
 10
67.562266694
 20
87.8119070906
  0
SEQEND
  0
POLYLINE
  8
0
 62
7
  6
CONTINUOUS
 66
1
 70
0
  0
VERTEX
  8
0
 62
7
  6
CONTINUOUS
 10
54.4803121848
 20
87.82421875
  0
VERTEX
  8
0
 62
7
  6
CONTINUOUS
 10
54.4289771218
 20
87.8228484191
  0
VERTEX
  8
0
 62
7
  6
CONTINUOUS
 10
54.3777923065
 20
87.8187386281
  0
VERTEX
  8
0
 62
7
  6
CONTINUOUS
 10
54.326961486
 20
87.8119070906
  0
SEQEND
  0
LINE
  8
0
 62
7
  6
CONTINUOUS
 10
53.6342487059
 20
87.82421875
 11
60.161314439
 21
87.82421875
  0
LINE
  8
0
 62
7
  6
CONTINUOUS
 10
63.9270395471
 20
87.82421875
 11
71.9618114829
 21
87.82421875
  0
LINE
  8
0
 62
7
  6
CONTINUOUS
 10
84.5028330162
 20
87.82421875
 11
85.4089737388
 21
87.82421875
  0
LINE
  8
0
 62
7
  6
CONTINUOUS
 10
85.4134666805
 20
87.82421875
 11
90.2857520695
 21
87.82421875
  0
LINE
  8
0
 62
7
  6
CONTINUOUS
 10
90.2902450112
 20
87.82421875
 11
91.1963857338
 21
87.82421875
  0
LINE
  8
0
 62
7
  6
CONTINUOUS
 10
103.7374072671
 20
87.82421875
 11
111.7721792029
 21
87.82421875
  0
LINE
  8
0
 62
7
  6
CONTINUOUS
 10
115.537904311
 20
87.82421875
 11
122.0649700441
 21
87.82421875
  0
POLYLINE
  8
0
 62
7
  6
CONTINUOUS
 66
1
 70
0
  0
VERTEX
  8
0
 62
7
  6
CONTINUOUS
 10
122.0649700441
 20
87.82421875
  0
VERTEX
  8
0
 62
7
  6
CONTINUOUS
 10
122.1167798055
 20
87.8228484191
  0
VERTEX
  8
0
 62
7
  6
CONTINUOUS
 10
122.1684856485
 20
87.8187386281
  0
VERTEX
  8
0
 62
7
  6
CONTINUOUS
 10
122.2198811252
 20
87.8119070906
  0
SEQEND
  0
POLYLINE
  8
0
 62
7
  6
CONTINUOUS
 66
1
 70
0
  0
VERTEX
  8
0
 62
7
  6
CONTINUOUS
 10
111.7721792029
 20
87.82421875
  0
VERTEX
  8
0
 62
7
  6
CONTINUOUS
 10
111.8068877642
 20
87.8228484191
  0
VERTEX
  8
0
 62
7
  6
CONTINUOUS
 10
111.8416155683
 20
87.8187386281
  0
VERTEX
  8
0
 62
7
  6
CONTINUOUS
 10
111.8762227895
 20
87.8119070906
  0
SEQEND
  0
POLYLINE
  8
0
 62
7
  6
CONTINUOUS
 66
1
 70
0
  0
VERTEX
  8
0
 62
7
  6
CONTINUOUS
 10
85.9282562176
 20
87.4792997659
  0
VERTEX
  8
0
 62
7
  6
CONTINUOUS
 10
85.6180483307
 20
87.5668647493
  0
VERTEX
  8
0
 62
7
  6
CONTINUOUS
 10
85.4380402142
 20
87.6640005901
  0
VERTEX
  8
0
 62
7
  6
CONTINUOUS
 10
85.394257375
 20
87.7441730976
  0
SEQEND
  0
POLYLINE
  8
0
 62
7
  6
CONTINUOUS
 66
1
 70
0
  0
VERTEX
  8
0
 62
7
  6
CONTINUOUS
 10
90.2857520695
 20
87.82421875
  0
VERTEX
  8
0
 62
7
  6
CONTINUOUS
 10
90.2871189091
 20
87.8228484191
  0
VERTEX
  8
0
 62
7
  6
CONTINUOUS
 10
90.2886191488
 20
87.8187386281
  0
VERTEX
  8
0
 62
7
  6
CONTINUOUS
 10
90.2902450112
 20
87.8119070906
  0
SEQEND
  0
LINE
  8
0
 62
7
  6
CONTINUOUS
 10
96.4984688166
 20
95.82421875
 11
96.4984688166
 21
65.82421875
  0
POLYLINE
  8
0
 62
7
  6
CONTINUOUS
 66
1
 70
0
  0
VERTEX
  8
0
 62
7
  6
CONTINUOUS
 10
109.9076801508
 20
87.4792997659
  0
VERTEX
  8
0
 62
7
  6
CONTINUOUS
 10
109.302689337
 20
87.5668647493
  0
VERTEX
  8
0
 62
7
  6
CONTINUOUS
 10
108.7622254623
 20
87.6640005901
  0
VERTEX
  8
0
 62
7
  6
CONTINUOUS
 10
108.3124528323
 20
87.7664952105
  0
SEQEND
  0
LINE
  8
0
 62
7
  6
CONTINUOUS
 10
67.3867659177
 20
87.7664952105
 11
67.562266694
 21
87.8119070906
  0
LINE
  8
0
 62
7
  6
CONTINUOUS
 10
63.8229959605
 20
87.8119070906
 11
63.6300146916
 21
87.7664952105
  0
POLYLINE
  8
0
 62
7
  6
CONTINUOUS
 66
1
 70
0
  0
VERTEX
  8
0
 62
7
  6
CONTINUOUS
 10
65.7915385992
 20
87.4792997659
  0
VERTEX
  8
0
 62
7
  6
CONTINUOUS
 10
65.4658149259
 20
87.4042048542
  0
VERTEX
  8
0
 62
7
  6
CONTINUOUS
 10
65.1369522238
 20
87.2637283462
  0
VERTEX
  8
0
 62
7
  6
CONTINUOUS
 10
64.8456942938
 20
87.0730136604
  0
SEQEND
  0
POLYLINE
  8
0
 62
7
  6
CONTINUOUS
 66
1
 70
0
  0
VERTEX
  8
0
 62
7
  6
CONTINUOUS
 10
67.3867659177
 20
87.7664952105
  0
VERTEX
  8
0
 62
7
  6
CONTINUOUS
 10
66.9371801379
 20
87.6640382357
  0
VERTEX
  8
0
 62
7
  6
CONTINUOUS
 10
66.3966113474
 20
87.5668779473
  0
VERTEX
  8
0
 62
7
  6
CONTINUOUS
 10
65.7915385992
 20
87.4792997659
  0
SEQEND
  0
POLYLINE
  8
0
 62
7
  6
CONTINUOUS
 66
1
 70
0
  0
VERTEX
  8
0
 62
7
  6
CONTINUOUS
 10
63.8229959605
 20
87.8119070906
  0
VERTEX
  8
0
 62
7
  6
CONTINUOUS
 10
63.8576031817
 20
87.8187386281
  0
VERTEX
  8
0
 62
7
  6
CONTINUOUS
 10
63.8923309858
 20
87.8228484191
  0
VERTEX
  8
0
 62
7
  6
CONTINUOUS
 10
63.9270395471
 20
87.82421875
  0
SEQEND
  0
POLYLINE
  8
0
 62
7
  6
CONTINUOUS
 66
1
 70
0
  0
VERTEX
  8
0
 62
7
  6
CONTINUOUS
 10
51.4660521812
 20
87.4792997659
  0
VERTEX
  8
0
 62
7
  6
CONTINUOUS
 10
51.9750099279
 20
87.5668647493
  0
VERTEX
  8
0
 62
7
  6
CONTINUOUS
 10
52.5605243445
 20
87.6640005901
  0
SEQEND
  0
LINE
  8
0
 62
7
  6
CONTINUOUS
 10
54.0466691159
 20
87.7664952105
 11
54.326961486
 21
87.8119070906
  0
LINE
  8
0
 62
7
  6
CONTINUOUS
 10
53.4793376248
 20
87.8119070906
 11
52.5605243445
 21
87.6640005901
  0
POLYLINE
  8
0
 62
7
  6
CONTINUOUS
 66
1
 70
0
  0
VERTEX
  8
0
 62
7
  6
CONTINUOUS
 10
54.0466691159
 20
87.7664952105
  0
VERTEX
  8
0
 62
7
  6
CONTINUOUS
 10
53.3982981626
 20
87.6640382357
  0
VERTEX
  8
0
 62
7
  6
CONTINUOUS
 10
52.7501133965
 20
87.5668779473
  0
VERTEX
  8
0
 62
7
  6
CONTINUOUS
 10
52.1333311301
 20
87.4792997659
  0
SEQEND
  0
POLYLINE
  8
0
 62
7
  6
CONTINUOUS
 66
1
 70
0
  0
VERTEX
  8
0
 62
7
  6
CONTINUOUS
 10
53.4793376248
 20
87.8119070906
  0
VERTEX
  8
0
 62
7
  6
CONTINUOUS
 10
53.5307331015
 20
87.8187386281
  0
VERTEX
  8
0
 62
7
  6
CONTINUOUS
 10
53.5824389445
 20
87.8228484191
  0
VERTEX
  8
0
 62
7
  6
CONTINUOUS
 10
53.6342487059
 20
87.82421875
  0
SEQEND
  0
POLYLINE
  8
0
 62
7
  6
CONTINUOUS
 66
1
 70
0
  0
VERTEX
  8
0
 62
7
  6
CONTINUOUS
 10
121.372257264
 20
87.8119070906
  0
VERTEX
  8
0
 62
7
  6
CONTINUOUS
 10
121.3214264435
 20
87.8187386281
  0
VERTEX
  8
0
 62
7
  6
CONTINUOUS
 10
121.2702416282
 20
87.8228484191
  0
VERTEX
  8
0
 62
7
  6
CONTINUOUS
 10
121.2189065652
 20
87.82421875
  0
SEQEND
  0
POLYLINE
  8
0
 62
7
  6
CONTINUOUS
 66
1
 70
0
  0
VERTEX
  8
0
 62
7
  6
CONTINUOUS
 10
123.5658876199
 20
87.4792997659
  0
VERTEX
  8
0
 62
7
  6
CONTINUOUS
 10
122.9491958047
 20
87.5668647493
  0
VERTEX
  8
0
 62
7
  6
CONTINUOUS
 10
122.3011652253
 20
87.6640005901
  0
VERTEX
  8
0
 62
7
  6
CONTINUOUS
 10
121.6525496341
 20
87.7664952105
  0
SEQEND
  0
POLYLINE
  8
0
 62
7
  6
CONTINUOUS
 66
1
 70
0
  0
VERTEX
  8
0
 62
7
  6
CONTINUOUS
 10
122.2198811252
 20
87.8119070906
  0
VERTEX
  8
0
 62
7
  6
CONTINUOUS
 10
123.1384642266
 20
87.6640382357
  0
VERTEX
  8
0
 62
7
  6
CONTINUOUS
 10
123.7241305539
 20
87.5668779473
  0
VERTEX
  8
0
 62
7
  6
CONTINUOUS
 10
124.2331665688
 20
87.4792997659
  0
SEQEND
  0
LINE
  8
0
 62
7
  6
CONTINUOUS
 10
121.372257264
 20
87.8119070906
 11
121.6525496341
 21
87.7664952105
  0
POLYLINE
  8
0
 62
7
  6
CONTINUOUS
 66
1
 70
0
  0
VERTEX
  8
0
 62
7
  6
CONTINUOUS
 10
108.136952056
 20
87.8119070906
  0
VERTEX
  8
0
 62
7
  6
CONTINUOUS
 10
108.1048358005
 20
87.8187386281
  0
VERTEX
  8
0
 62
7
  6
CONTINUOUS
 10
108.0724064969
 20
87.8228484191
  0
VERTEX
  8
0
 62
7
  6
CONTINUOUS
 10
108.0397920554
 20
87.82421875
  0
SEQEND
  0
LINE
  8
0
 62
7
  6
CONTINUOUS
 10
112.0692040584
 20
87.7664952105
 11
111.8762227895
 21
87.8119070906
  0
LINE
  8
0
 62
7
  6
CONTINUOUS
 10
108.136952056
 20
87.8119070906
 11
108.3124528323
 21
87.7664952105
  0
POLYLINE
  8
0
 62
7
  6
CONTINUOUS
 66
1
 70
0
  0
VERTEX
  8
0
 62
7
  6
CONTINUOUS
 10
112.0692040584
 20
87.7664952105
  0
VERTEX
  8
0
 62
7
  6
CONTINUOUS
 10
112.4568407075
 20
87.6640382357
  0
VERTEX
  8
0
 62
7
  6
CONTINUOUS
 10
112.7216110227
 20
87.5668779473
  0
VERTEX
  8
0
 62
7
  6
CONTINUOUS
 10
112.8513639698
 20
87.4792997659
  0
SEQEND
  0
LINE
  8
0
 62
7
  6
CONTINUOUS
 10
103.7374072671
 20
94.82421875
 11
103.7374072671
 21
87.82421875
  0
LINE
  8
0
 62
7
  6
CONTINUOUS
 10
103.7374072671
 20
73.82421875
 11
103.7374072671
 21
66.82421875
  0
POLYLINE
  8
0
 62
7
  6
CONTINUOUS
 66
1
 70
0
  0
VERTEX
  8
0
 62
7
  6
CONTINUOUS
 10
52.1333311301
 20
87.4792997659
  0
VERTEX
  8
0
 62
7
  6
CONTINUOUS
 10
51.8389164536
 20
87.4042048542
  0
VERTEX
  8
0
 62
7
  6
CONTINUOUS
 10
51.5656623975
 20
87.2637283462
  0
VERTEX
  8
0
 62
7
  6
CONTINUOUS
 10
51.3431285817
 20
87.0730136604
  0
SEQEND
  0
POLYLINE
  8
0
 62
7
  6
CONTINUOUS
 66
1
 70
0
  0
VERTEX
  8
0
 62
7
  6
CONTINUOUS
 10
91.8022601692
 20
95.82421875
  0
VERTEX
  8
0
 62
7
  6
CONTINUOUS
 10
91.6203792201
 20
95.7881386138
  0
VERTEX
  8
0
 62
7
  6
CONTINUOUS
 10
91.459329329
 20
95.6759385296
  0
VERTEX
  8
0
 62
7
  6
CONTINUOUS
 10
91.3394635052
 20
95.5059723945
  0
VERTEX
  8
0
 62
7
  6
CONTINUOUS
 10
91.2588349692
 20
95.2994790891
  0
VERTEX
  8
0
 62
7
  6
CONTINUOUS
 10
91.2117710319
 20
95.0675549845
  0
VERTEX
  8
0
 62
7
  6
CONTINUOUS
 10
91.1963857338
 20
94.82421875
  0
SEQEND
  0
LINE
  8
0
 62
7
  6
CONTINUOUS
 10
115.7349822211
 20
95.82421875
 11
108.6487375981
 21
95.82421875
  0
LINE
  8
0
 62
7
  6
CONTINUOUS
 10
59.9642365289
 20
95.82421875
 11
108.630403444
 21
95.82421875
  0
LINE
  8
0
 62
7
  6
CONTINUOUS
 10
105.2703473544
 20
87.82421875
 11
105.2703473544
 21
73.82421875
  0
POLYLINE
  8
0
 62
7
  6
CONTINUOUS
 66
1
 70
0
  0
VERTEX
  8
0
 62
7
  6
CONTINUOUS
 10
61.3369777436
 20
95.82421875
  0
VERTEX
  8
0
 62
7
  6
CONTINUOUS
 10
61.0158083832
 20
95.7881386138
  0
VERTEX
  8
0
 62
7
  6
CONTINUOUS
 10
60.7109019644
 20
95.6759385296
  0
VERTEX
  8
0
 62
7
  6
CONTINUOUS
 10
60.4692511801
 20
95.5059723945
  0
VERTEX
  8
0
 62
7
  6
CONTINUOUS
 10
60.2985616937
 20
95.2994790891
  0
VERTEX
  8
0
 62
7
  6
CONTINUOUS
 10
60.1955606454
 20
95.0675549845
  0
VERTEX
  8
0
 62
7
  6
CONTINUOUS
 10
60.161314439
 20
94.82421875
  0
SEQEND
  0
POLYLINE
  8
0
 62
7
  6
CONTINUOUS
 66
1
 70
0
  0
VERTEX
  8
0
 62
7
  6
CONTINUOUS
 10
73.124627659
 20
95.82421875
  0
VERTEX
  8
0
 62
7
  6
CONTINUOUS
 10
72.7972876903
 20
95.788368011
  0
VERTEX
  8
0
 62
7
  6
CONTINUOUS
 10
72.494697333
 20
95.6772891204
  0
VERTEX
  8
0
 62
7
  6
CONTINUOUS
 10
72.2575764155
 20
95.5072994612
  0
VERTEX
  8
0
 62
7
  6
CONTINUOUS
 10
72.0907045222
 20
95.2970182578
  0
VERTEX
  8
0
 62
7
  6
CONTINUOUS
 10
71.9937725194
 20
95.0659489937
  0
VERTEX
  8
0
 62
7
  6
CONTINUOUS
 10
71.9618114829
 20
94.82421875
  0
SEQEND
  0
POLYLINE
  8
0
 62
7
  6
CONTINUOUS
 66
1
 70
0
  0
VERTEX
  8
0
 62
7
  6
CONTINUOUS
 10
115.7349822211
 20
95.82421875
  0
VERTEX
  8
0
 62
7
  6
CONTINUOUS
 10
115.9929849908
 20
95.7881386138
  0
VERTEX
  8
0
 62
7
  6
CONTINUOUS
 10
116.2419593694
 20
95.6759385296
  0
VERTEX
  8
0
 62
7
  6
CONTINUOUS
 10
116.44198119
 20
95.5059723945
  0
VERTEX
  8
0
 62
7
  6
CONTINUOUS
 10
116.5846686796
 20
95.2994790891
  0
VERTEX
  8
0
 62
7
  6
CONTINUOUS
 10
116.671324594
 20
95.0675549845
  0
VERTEX
  8
0
 62
7
  6
CONTINUOUS
 10
116.7002275425
 20
94.82421875
  0
SEQEND
  0
POLYLINE
  8
0
 62
7
  6
CONTINUOUS
 66
1
 70
0
  0
VERTEX
  8
0
 62
7
  6
CONTINUOUS
 10
124.2331665688
 20
87.4792997659
  0
VERTEX
  8
0
 62
7
  6
CONTINUOUS
 10
124.4565164428
 20
87.4042048542
  0
VERTEX
  8
0
 62
7
  6
CONTINUOUS
 10
124.6496864478
 20
87.2637283462
  0
VERTEX
  8
0
 62
7
  6
CONTINUOUS
 10
124.7945303392
 20
87.0730136604
  0
SEQEND
  0
POLYLINE
  8
0
 62
7
  6
CONTINUOUS
 66
1
 70
0
  0
VERTEX
  8
0
 62
7
  6
CONTINUOUS
 10
110.8535244562
 20
87.0730136604
  0
VERTEX
  8
0
 62
7
  6
CONTINUOUS
 10
110.5625600663
 20
87.2635718596
  0
VERTEX
  8
0
 62
7
  6
CONTINUOUS
 10
110.2335759381
 20
87.4041484568
  0
VERTEX
  8
0
 62
7
  6
CONTINUOUS
 10
109.9076801508
 20
87.4792997659
  0
SEQEND
  0
POLYLINE
  8
0
 62
7
  6
CONTINUOUS
 66
1
 70
0
  0
VERTEX
  8
0
 62
7
  6
CONTINUOUS
 10
112.4697038215
 20
75.1568260747
  0
VERTEX
  8
0
 62
7
  6
CONTINUOUS
 10
112.6746311967
 20
74.8444666973
  0
VERTEX
  8
0
 62
7
  6
CONTINUOUS
 10
112.7876919268
 20
74.5754238396
  0
SEQEND
  0
POLYLINE
  8
0
 62
7
  6
CONTINUOUS
 66
1
 70
0
  0
VERTEX
  8
0
 62
7
  6
CONTINUOUS
 10
103.7374072671
 20
94.82421875
  0
VERTEX
  8
0
 62
7
  6
CONTINUOUS
 10
103.7050494991
 20
95.0674187781
  0
VERTEX
  8
0
 62
7
  6
CONTINUOUS
 10
103.607205895
 20
95.2992400377
  0
VERTEX
  8
0
 62
7
  6
CONTINUOUS
 10
103.443227883
 20
95.50578104
  0
VERTEX
  8
0
 62
7
  6
CONTINUOUS
 10
103.2072191222
 20
95.6758565644
  0
VERTEX
  8
0
 62
7
  6
CONTINUOUS
 10
102.9029870452
 20
95.7881264252
  0
VERTEX
  8
0
 62
7
  6
CONTINUOUS
 10
102.574591091
 20
95.82421875
  0
SEQEND
  0
LINE
  8
0
 62
7
  6
CONTINUOUS
 10
108.864966131
 20
94.82421875
 11
108.864966131
 21
87.82421875
  0
LINE
  8
0
 62
7
  6
CONTINUOUS
 10
108.864966131
 20
73.82421875
 11
108.864966131
 21
66.82421875
  0
POLYLINE
  8
0
 62
7
  6
CONTINUOUS
 66
1
 70
0
  0
VERTEX
  8
0
 62
7
  6
CONTINUOUS
 10
108.864966131
 20
66.82421875
  0
VERTEX
  8
0
 62
7
  6
CONTINUOUS
 10
108.8566086283
 20
66.5873287393
  0
VERTEX
  8
0
 62
7
  6
CONTINUOUS
 10
108.8320669351
 20
66.3607327745
  0
VERTEX
  8
0
 62
7
  6
CONTINUOUS
 10
108.7925969449
 20
66.1539821117
  0
VERTEX
  8
0
 62
7
  6
CONTINUOUS
 10
108.74131717
 20
65.9825413311
  0
VERTEX
  8
0
 62
7
  6
CONTINUOUS
 10
108.6850822755
 20
65.8672841874
  0
VERTEX
  8
0
 62
7
  6
CONTINUOUS
 10
108.630403444
 20
65.82421875
  0
SEQEND
  0
POLYLINE
  8
0
 62
7
  6
CONTINUOUS
 66
1
 70
0
  0
VERTEX
  8
0
 62
7
  6
CONTINUOUS
 10
112.7876919268
 20
87.0730136604
  0
VERTEX
  8
0
 62
7
  6
CONTINUOUS
 10
112.6746269993
 20
86.8039630511
  0
VERTEX
  8
0
 62
7
  6
CONTINUOUS
 10
112.4697038215
 20
86.4916114253
  0
SEQEND
  0
POLYLINE
  8
0
 62
7
  6
CONTINUOUS
 66
1
 70
0
  0
VERTEX
  8
0
 62
7
  6
CONTINUOUS
 10
110.8535244562
 20
74.5754238396
  0
VERTEX
  8
0
 62
7
  6
CONTINUOUS
 10
111.1523559879
 20
74.8444364286
  0
VERTEX
  8
0
 62
7
  6
CONTINUOUS
 10
111.4307018374
 20
75.1568260747
  0
SEQEND
  0
POLYLINE
  8
0
 62
7
  6
CONTINUOUS
 66
1
 70
0
  0
VERTEX
  8
0
 62
7
  6
CONTINUOUS
 10
111.4307018374
 20
86.4916114253
  0
VERTEX
  8
0
 62
7
  6
CONTINUOUS
 10
111.1523618535
 20
86.803995198
  0
VERTEX
  8
0
 62
7
  6
CONTINUOUS
 10
110.8535244562
 20
87.0730136604
  0
SEQEND
  0
LINE
  8
0
 62
7
  6
CONTINUOUS
 10
109.7492902457
 20
95.82421875
 11
109.7492902457
 21
87.82421875
  0
LINE
  8
0
 62
7
  6
CONTINUOUS
 10
109.7492902457
 20
73.82421875
 11
109.7492902457
 21
65.82421875
  0
POLYLINE
  8
0
 62
7
  6
CONTINUOUS
 66
1
 70
0
  0
VERTEX
  8
0
 62
7
  6
CONTINUOUS
 10
108.630403444
 20
95.82421875
  0
VERTEX
  8
0
 62
7
  6
CONTINUOUS
 10
108.6800884337
 20
95.7881386138
  0
VERTEX
  8
0
 62
7
  6
CONTINUOUS
 10
108.7374770672
 20
95.6759385296
  0
VERTEX
  8
0
 62
7
  6
CONTINUOUS
 10
108.7897951784
 20
95.5059723945
  0
VERTEX
  8
0
 62
7
  6
CONTINUOUS
 10
108.8303012836
 20
95.2994790891
  0
VERTEX
  8
0
 62
7
  6
CONTINUOUS
 10
108.8561431114
 20
95.0675549845
  0
VERTEX
  8
0
 62
7
  6
CONTINUOUS
 10
108.864966131
 20
94.82421875
  0
SEQEND
  0
POLYLINE
  8
0
 62
7
  6
CONTINUOUS
 66
1
 70
0
  0
VERTEX
  8
0
 62
7
  6
CONTINUOUS
 10
112.7876919268
 20
74.5754238396
  0
VERTEX
  8
0
 62
7
  6
CONTINUOUS
 10
112.8391083288
 20
74.3849273292
  0
VERTEX
  8
0
 62
7
  6
CONTINUOUS
 10
112.8635810301
 20
74.2443367092
  0
VERTEX
  8
0
 62
7
  6
CONTINUOUS
 10
112.8641200551
 20
74.2268930826
  0
SEQEND
  0
LINE
  8
0
 62
7
  6
CONTINUOUS
 10
112.8641200551
 20
87.4215674633
 11
112.8641200551
 21
74.2268700367
  0
POLYLINE
  8
0
 62
7
  6
CONTINUOUS
 66
1
 70
0
  0
VERTEX
  8
0
 62
7
  6
CONTINUOUS
 10
112.8641200551
 20
87.4215456231
  0
VERTEX
  8
0
 62
7
  6
CONTINUOUS
 10
112.8635871057
 20
87.4042048542
  0
VERTEX
  8
0
 62
7
  6
CONTINUOUS
 10
112.8391610883
 20
87.2637283462
  0
VERTEX
  8
0
 62
7
  6
CONTINUOUS
 10
112.7876919268
 20
87.0730136604
  0
SEQEND
  0
LINE
  8
0
 62
7
  6
CONTINUOUS
 10
112.8641200551
 20
74.2268930826
 11
112.8513639698
 21
74.1691377341
  0
LINE
  8
0
 62
7
  6
CONTINUOUS
 10
112.8513639698
 20
87.4792997659
 11
112.8641200551
 21
87.4215456231
  0
LINE
  8
0
 62
7
  6
CONTINUOUS
 10
115.537904311
 20
94.82421875
 11
115.537904311
 21
87.82421875
  0
LINE
  8
0
 62
7
  6
CONTINUOUS
 10
115.537904311
 20
73.82421875
 11
115.537904311
 21
66.82421875
  0
LINE
  8
0
 62
7
  6
CONTINUOUS
 10
116.7002275425
 20
94.82421875
 11
116.7002275425
 21
87.82421875
  0
LINE
  8
0
 62
7
  6
CONTINUOUS
 10
116.7002275425
 20
73.82421875
 11
116.7002275425
 21
66.82421875
  0
LINE
  8
0
 62
7
  6
CONTINUOUS
 10
117.2714039514
 20
87.82421875
 11
117.2714039514
 21
73.82421875
  0
POLYLINE
  8
0
 62
7
  6
CONTINUOUS
 66
1
 70
0
  0
VERTEX
  8
0
 62
7
  6
CONTINUOUS
 10
124.3560901683
 20
87.0730136604
  0
VERTEX
  8
0
 62
7
  6
CONTINUOUS
 10
124.1337897896
 20
87.2635718596
  0
VERTEX
  8
0
 62
7
  6
CONTINUOUS
 10
123.8604515043
 20
87.4041484568
  0
VERTEX
  8
0
 62
7
  6
CONTINUOUS
 10
123.5658876199
 20
87.4792997659
  0
SEQEND
  0
POLYLINE
  8
0
 62
7
  6
CONTINUOUS
 66
1
 70
0
  0
VERTEX
  8
0
 62
7
  6
CONTINUOUS
 10
115.537904311
 20
94.82421875
  0
VERTEX
  8
0
 62
7
  6
CONTINUOUS
 10
115.5036581046
 20
95.0675549845
  0
VERTEX
  8
0
 62
7
  6
CONTINUOUS
 10
115.4006570563
 20
95.2994790891
  0
VERTEX
  8
0
 62
7
  6
CONTINUOUS
 10
115.2299675699
 20
95.5059723945
  0
VERTEX
  8
0
 62
7
  6
CONTINUOUS
 10
114.9883167856
 20
95.6759385296
  0
VERTEX
  8
0
 62
7
  6
CONTINUOUS
 10
114.6834103668
 20
95.7881386138
  0
VERTEX
  8
0
 62
7
  6
CONTINUOUS
 10
114.3622410064
 20
95.82421875
  0
SEQEND
  0
POLYLINE
  8
0
 62
7
  6
CONTINUOUS
 66
1
 70
0
  0
VERTEX
  8
0
 62
7
  6
CONTINUOUS
 10
116.7002275425
 20
66.82421875
  0
VERTEX
  8
0
 62
7
  6
CONTINUOUS
 10
116.6728578832
 20
66.5873287393
  0
VERTEX
  8
0
 62
7
  6
CONTINUOUS
 10
116.5906898144
 20
66.3607327745
  0
VERTEX
  8
0
 62
7
  6
CONTINUOUS
 10
116.4521536389
 20
66.1539821117
  0
VERTEX
  8
0
 62
7
  6
CONTINUOUS
 10
116.2573725494
 20
65.9825413311
  0
VERTEX
  8
0
 62
7
  6
CONTINUOUS
 10
116.0163028754
 20
65.8672841874
  0
VERTEX
  8
0
 62
7
  6
CONTINUOUS
 10
115.7349822211
 20
65.82421875
  0
SEQEND
  0
POLYLINE
  8
0
 62
7
  6
CONTINUOUS
 66
1
 70
0
  0
VERTEX
  8
0
 62
7
  6
CONTINUOUS
 10
124.3560901683
 20
74.5754238396
  0
VERTEX
  8
0
 62
7
  6
CONTINUOUS
 10
124.545093754
 20
74.8444364286
  0
VERTEX
  8
0
 62
7
  6
CONTINUOUS
 10
124.6560994438
 20
75.1568260747
  0
SEQEND
  0
POLYLINE
  8
0
 62
7
  6
CONTINUOUS
 66
1
 70
0
  0
VERTEX
  8
0
 62
7
  6
CONTINUOUS
 10
124.7945303392
 20
74.5754238396
  0
VERTEX
  8
0
 62
7
  6
CONTINUOUS
 10
124.6499071549
 20
74.3849273292
  0
VERTEX
  8
0
 62
7
  6
CONTINUOUS
 10
124.4567183597
 20
74.2443367092
  0
VERTEX
  8
0
 62
7
  6
CONTINUOUS
 10
124.2331665688
 20
74.1691377341
  0
SEQEND
  0
LINE
  8
0
 62
7
  6
CONTINUOUS
 10
124.8916220727
 20
75.1568260747
 11
124.9038350674
 21
75.003071818
  0
LINE
  8
0
 62
7
  6
CONTINUOUS
 10
124.9038350675
 20
86.6453548677
 11
124.9038350675
 21
75.0030826323
  0
LINE
  8
0
 62
7
  6
CONTINUOUS
 10
124.9038350674
 20
86.6453654872
 11
124.8916220727
 21
86.4916114253
  0
POLYLINE
  8
0
 62
7
  6
CONTINUOUS
 66
1
 70
0
  0
VERTEX
  8
0
 62
7
  6
CONTINUOUS
 10
124.9038350674
 20
75.003071818
  0
VERTEX
  8
0
 62
7
  6
CONTINUOUS
 10
124.8901745616
 20
74.8444666973
  0
VERTEX
  8
0
 62
7
  6
CONTINUOUS
 10
124.7945303392
 20
74.5754238396
  0
SEQEND
  0
POLYLINE
  8
0
 62
7
  6
CONTINUOUS
 66
1
 70
0
  0
VERTEX
  8
0
 62
7
  6
CONTINUOUS
 10
124.7945303392
 20
87.0730136604
  0
VERTEX
  8
0
 62
7
  6
CONTINUOUS
 10
124.8901759231
 20
86.8039630511
  0
VERTEX
  8
0
 62
7
  6
CONTINUOUS
 10
124.9038350674
 20
86.6453654872
  0
SEQEND
  0
POLYLINE
  8
0
 62
7
  6
CONTINUOUS
 66
1
 70
0
  0
VERTEX
  8
0
 62
7
  6
CONTINUOUS
 10
124.6560994438
 20
86.4916114253
  0
VERTEX
  8
0
 62
7
  6
CONTINUOUS
 10
124.5450968364
 20
86.803995198
  0
VERTEX
  8
0
 62
7
  6
CONTINUOUS
 10
124.3560901683
 20
87.0730136604
  0
SEQEND
  0
LINE
  8
0
 62
2
  6
CONTINUOUS
 10
87.849609375
 20
211.1457173949
 11
87.849609375
 21
209.3857173949
  0
LINE
  8
DEFAULT_1
 62
2
  6
CENTER
 10
87.849609375
 20
205.8657173949
 11
87.849609375
 21
173.9732863949
  0
LINE
  8
DEFAULT_1
 62
2
  6
CENTER
 10
87.849609375
 20
214.6657173949
 11
87.849609375
 21
246.5581483949
  0
LINE
  8
0
 62
2
  6
CONTINUOUS
 10
88.729609375
 20
210.2657173949
 11
86.969609375
 21
210.2657173949
  0
LINE
  8
DEFAULT_1
 62
2
  6
CENTER
 10
83.449609375
 20
210.2657173949
 11
51.557178375
 21
210.2657173949
  0
LINE
  8
DEFAULT_1
 62
2
  6
CENTER
 10
92.249609375
 20
210.2657173949
 11
124.142040375
 21
210.2657173949
  0
ARC
  8
0
 62
7
  6
CONTINUOUS
 10
50.6504729007
 20
194.0489099098
 40
20.0
 50
70.0358538453
 51
82.690417787
  0
ARC
  8
0
 62
7
  6
CONTINUOUS
 10
69.7773805101
 20
173.9317781191
 40
20.0
 50
110.0358538453
 51
122.690417787
  0
ARC
  8
0
 62
7
  6
CONTINUOUS
 10
55.2058738874
 20
186.1587239519
 40
20.0
 50
337.309582213
 51
349.9641461547
  0
ARC
  8
0
 62
7
  6
CONTINUOUS
 10
78.3387338941
 20
170.8157003223
 40
20.0
 50
17.309582213
 51
29.9641461547
  0
ARC
  8
0
 62
7
  6
CONTINUOUS
 10
53.2455523962
 20
203.8979074883
 40
9.9
 50
11.5172835232
 51
64.6825957279
  0
ARC
  8
0
 62
7
  6
CONTINUOUS
 10
65.4345131258
 20
183.1446329302
 40
9.9
 50
51.5172835232
 51
104.6825957279
  0
ARC
  8
0
 62
7
  6
CONTINUOUS
 10
53.1545131258
 20
204.4142168472
 40
9.9
 50
315.3174042721
 51
8.4827164768
  0
ARC
  8
0
 62
7
  6
CONTINUOUS
 10
65.03289574
 20
183.4816299306
 40
9.9
 50
355.3174042721
 51
48.4827164768
  0
ARC
  8
0
 62
7
  6
CONTINUOUS
 10
87.5874722435
 20
175.0816152105
 40
9.9
 50
35.3174042721
 51
88.4827164768
  0
ARC
  8
0
 62
7
  6
CONTINUOUS
 10
57.3550902235
 20
193.2886038928
 40
3.0
 50
247.0392551632
 51
302.690417787
  0
ARC
  8
0
 62
7
  6
CONTINUOUS
 10
57.8997382235
 20
192.3452458846
 40
3.0
 50
117.309582213
 51
172.9607448368
  0
ARC
  8
0
 62
7
  6
CONTINUOUS
 10
75.4021306408
 20
177.6589948625
 40
3.0
 50
287.0392551632
 51
342.690417787
  0
ARC
  8
0
 62
7
  6
CONTINUOUS
 10
76.4257340539
 20
177.2864336885
 40
3.0
 50
157.309582213
 51
212.9607448368
  0
ARC
  8
0
 62
7
  6
CONTINUOUS
 10
56.5748894842
 20
191.4470592134
 40
1.0
 50
211.0362092247
 51
247.0392551632
  0
ARC
  8
0
 62
7
  6
CONTINUOUS
 10
55.9148133793
 20
192.590344564
 40
1.0
 50
172.9607448368
 51
208.9637907753
  0
ARC
  8
0
 62
7
  6
CONTINUOUS
 10
75.9881843026
 20
175.7467864258
 40
1.0
 50
251.0362092247
 51
287.0392551632
  0
ARC
  8
0
 62
7
  6
CONTINUOUS
 10
74.7476470126
 20
176.1983050738
 40
1.0
 50
212.9607448368
 51
248.9637907753
  0
ARC
  8
0
 62
7
  6
CONTINUOUS
 10
48.9294546699
 20
221.7540661526
 40
20.0
 50
30.0358538453
 51
42.690417787
  0
ARC
  8
0
 62
7
  6
CONTINUOUS
 10
47.3473805101
 20
212.7816777329
 40
20.0
 50
297.309582213
 51
309.9641461547
  0
ARC
  8
0
 62
7
  6
CONTINUOUS
 10
57.2482145082
 20
227.630751072
 40
9.9
 50
331.5172835232
 51
24.6825957279
  0
ARC
  8
0
 62
7
  6
CONTINUOUS
 10
57.5103516397
 20
228.0847859023
 40
9.9
 50
275.3174042721
 51
328.4827164768
  0
ARC
  8
0
 62
7
  6
CONTINUOUS
 10
53.576774226
 20
216.8619930104
 40
3.0
 50
207.0392551632
 51
262.690417787
  0
ARC
  8
0
 62
7
  6
CONTINUOUS
 10
53.3876199607
 20
215.7892458642
 40
3.0
 50
77.309582213
 51
132.9607448368
  0
ARC
  8
0
 62
7
  6
CONTINUOUS
 10
51.7953836825
 20
215.9527913102
 40
1.0
 50
171.0362092247
 51
207.0392551632
  0
ARC
  8
0
 62
7
  6
CONTINUOUS
 10
52.024625708
 20
217.2528874417
 40
1.0
 50
132.9607448368
 51
168.9637907753
  0
ARC
  8
0
 62
7
  6
CONTINUOUS
 10
65.419609375
 20
244.0836963329
 40
20.0
 50
350.0358538453
 51
2.690417787
  0
ARC
  8
0
 62
7
  6
CONTINUOUS
 10
58.4403301508
 20
238.2273857099
 40
20.0
 50
257.309582213
 51
269.9641461547
  0
ARC
  8
0
 62
7
  6
CONTINUOUS
 10
65.8350986949
 20
237.348911458
 40
3.0
 50
167.0392551632
 51
222.690417787
  0
ARC
  8
0
 62
7
  6
CONTINUOUS
 10
65.0006495472
 20
236.6487254859
 40
3.0
 50
37.309582213
 51
92.9607448368
  0
ARC
  8
0
 62
7
  6
CONTINUOUS
 10
63.8860507805
 20
237.7974783173
 40
1.0
 50
131.0362092247
 51
167.0392551632
  0
ARC
  8
0
 62
7
  6
CONTINUOUS
 10
64.8973460449
 20
238.6460558007
 40
1.0
 50
92.9607448368
 51
128.9637907753
  0
ARC
  8
0
 62
7
  6
CONTINUOUS
 10
83.2942083882
 20
250.5895183231
 40
20.0
 50
217.309582213
 51
229.9641461547
  0
ARC
  8
0
 62
7
  6
CONTINUOUS
 10
75.569609375
 20
243.2383024074
 40
9.9
 50
291.5172835232
 51
344.6825957279
  0
ARC
  8
0
 62
7
  6
CONTINUOUS
 10
76.0622660312
 20
243.4176147659
 40
9.9
 50
235.3174042721
 51
288.4827164768
  0
ARC
  8
0
 62
7
  6
CONTINUOUS
 10
87.304961375
 20
245.1633024074
 40
3.0
 50
357.309582213
 51
52.9607448368
  0
ARC
  8
0
 62
7
  6
CONTINUOUS
 10
87.18953327
 20
246.7597484074
 40
1.0
 50
91.0362092247
 51
127.0392551632
  0
ARC
  8
0
 62
7
  6
CONTINUOUS
 10
97.3604848559
 20
170.8157003223
 40
20.0
 50
150.0358538453
 51
162.690417787
  0
ARC
  8
0
 62
7
  6
CONTINUOUS
 10
105.9218382399
 20
173.9317781191
 40
20.0
 50
57.309582213
 51
69.9641461547
  0
ARC
  8
0
 62
7
  6
CONTINUOUS
 10
88.1117465065
 20
175.0816152105
 40
9.9
 50
91.5172835232
 51
144.6825957279
  0
ARC
  8
0
 62
7
  6
CONTINUOUS
 10
99.2734846961
 20
177.2864336885
 40
3.0
 50
327.0392551632
 51
22.690417787
  0
ARC
  8
0
 62
7
  6
CONTINUOUS
 10
100.2970881092
 20
177.6589948625
 40
3.0
 50
197.309582213
 51
252.9607448368
  0
ARC
  8
0
 62
7
  6
CONTINUOUS
 10
100.9515717374
 20
176.1983050738
 40
1.0
 50
291.0362092247
 51
327.0392551632
  0
ARC
  8
0
 62
7
  6
CONTINUOUS
 10
99.7110344474
 20
175.7467864258
 40
1.0
 50
252.9607448368
 51
288.9637907753
  0
ARC
  8
0
 62
7
  6
CONTINUOUS
 10
87.849609375
 20
210.2657173949
 40
37.5
 50
88.9637907753
 51
91.0362092247
  0
ARC
  8
0
 62
7
  6
CONTINUOUS
 10
87.849609375
 20
210.2657173949
 40
37.5
 50
128.9637907753
 51
131.0362092247
  0
ARC
  8
0
 62
7
  6
CONTINUOUS
 10
87.849609375
 20
210.2657173949
 40
37.5
 50
48.9637907753
 51
51.0362092247
  0
ARC
  8
0
 62
7
  6
CONTINUOUS
 10
87.849609375
 20
210.2657173949
 40
37.5
 50
168.9637907753
 51
171.0362092247
  0
ARC
  8
0
 62
7
  6
CONTINUOUS
 10
87.849609375
 20
210.2657173949
 40
37.5
 50
208.9637907753
 51
211.0362092247
  0
ARC
  8
0
 62
7
  6
CONTINUOUS
 10
87.849609375
 20
210.2657173949
 40
37.5
 50
8.9637907753
 51
11.0362092247
  0
ARC
  8
0
 62
7
  6
CONTINUOUS
 10
87.849609375
 20
210.2657173949
 40
37.5
 50
248.9637907753
 51
251.0362092247
  0
ARC
  8
0
 62
7
  6
CONTINUOUS
 10
87.849609375
 20
210.2657173949
 40
37.5
 50
328.9637907753
 51
331.0362092247
  0
ARC
  8
0
 62
7
  6
CONTINUOUS
 10
87.849609375
 20
210.2657173949
 40
37.5
 50
288.9637907753
 51
291.0362092247
  0
ARC
  8
0
 62
7
  6
CONTINUOUS
 10
87.849609375
 20
210.2657173949
 40
28.9
 50
163.3499179478
 51
176.6500820522
  0
ARC
  8
0
 62
7
  6
CONTINUOUS
 10
87.849609375
 20
210.2657173949
 40
28.9
 50
123.3499179478
 51
136.6500820522
  0
ARC
  8
0
 62
7
  6
CONTINUOUS
 10
87.849609375
 20
210.2657173949
 40
28.9
 50
203.3499179478
 51
216.6500820522
  0
ARC
  8
0
 62
7
  6
CONTINUOUS
 10
87.849609375
 20
210.2657173949
 40
28.9
 50
243.3499179478
 51
256.6500820522
  0
ARC
  8
0
 62
7
  6
CONTINUOUS
 10
87.849609375
 20
210.2657173949
 40
28.9
 50
83.3499179478
 51
96.6500820522
  0
ARC
  8
0
 62
7
  6
CONTINUOUS
 10
87.849609375
 20
210.2657173949
 40
28.9
 50
43.3499179478
 51
56.6500820522
  0
ARC
  8
0
 62
7
  6
CONTINUOUS
 10
87.849609375
 20
210.2657173949
 40
28.9
 50
3.3499179478
 51
16.6500820522
  0
ARC
  8
0
 62
7
  6
CONTINUOUS
 10
87.849609375
 20
210.2657173949
 40
28.9
 50
323.3499179478
 51
336.6500820522
  0
ARC
  8
0
 62
7
  6
CONTINUOUS
 10
87.849609375
 20
210.2657173949
 40
28.9
 50
283.3499179478
 51
296.6500820522
  0
ARC
  8
0
 62
7
  6
CONTINUOUS
 10
120.4933448626
 20
186.1587239519
 40
20.0
 50
190.0358538453
 51
202.690417787
  0
ARC
  8
0
 62
7
  6
CONTINUOUS
 10
110.2647056242
 20
183.1446329302
 40
9.9
 50
75.3174042721
 51
128.4827164768
  0
ARC
  8
0
 62
7
  6
CONTINUOUS
 10
110.66632301
 20
183.4816299306
 40
9.9
 50
131.5172835232
 51
184.6825957279
  0
ARC
  8
0
 62
7
  6
CONTINUOUS
 10
125.0487458493
 20
194.0489099098
 40
20.0
 50
97.309582213
 51
109.9641461547
  0
ARC
  8
0
 62
7
  6
CONTINUOUS
 10
122.4536663538
 20
203.8979074883
 40
9.9
 50
115.3174042721
 51
168.4827164768
  0
ARC
  8
0
 62
7
  6
CONTINUOUS
 10
122.5447056242
 20
204.4142168472
 40
9.9
 50
171.5172835232
 51
224.6825957279
  0
ARC
  8
0
 62
7
  6
CONTINUOUS
 10
118.3441285265
 20
193.2886038928
 40
3.0
 50
237.309582213
 51
292.9607448368
  0
ARC
  8
0
 62
7
  6
CONTINUOUS
 10
117.7994805265
 20
192.3452458846
 40
3.0
 50
7.0392551632
 51
62.690417787
  0
ARC
  8
0
 62
7
  6
CONTINUOUS
 10
119.1243292658
 20
191.4470592134
 40
1.0
 50
292.9607448368
 51
328.9637907753
  0
ARC
  8
0
 62
7
  6
CONTINUOUS
 10
119.7844053707
 20
192.590344564
 40
1.0
 50
331.0362092247
 51
7.0392551632
  0
ARC
  8
0
 62
7
  6
CONTINUOUS
 10
92.4050103618
 20
250.5895183231
 40
20.0
 50
310.0358538453
 51
322.690417787
  0
ARC
  8
0
 62
7
  6
CONTINUOUS
 10
100.129609375
 20
243.2383024074
 40
9.9
 50
195.3174042721
 51
248.4827164768
  0
ARC
  8
0
 62
7
  6
CONTINUOUS
 10
99.6369527188
 20
243.4176147659
 40
9.9
 50
251.5172835232
 51
304.6825957279
  0
ARC
  8
0
 62
7
  6
CONTINUOUS
 10
88.394257375
 20
245.1633024074
 40
3.0
 50
127.0392551632
 51
182.690417787
  0
ARC
  8
0
 62
7
  6
CONTINUOUS
 10
88.50968548
 20
246.7597484074
 40
1.0
 50
52.9607448368
 51
88.9637907753
  0
ARC
  8
0
 62
7
  6
CONTINUOUS
 10
126.7697640801
 20
221.7540661526
 40
20.0
 50
137.309582213
 51
149.9641461547
  0
ARC
  8
0
 62
7
  6
CONTINUOUS
 10
128.3518382399
 20
212.7816777329
 40
20.0
 50
230.0358538453
 51
242.690417787
  0
ARC
  8
0
 62
7
  6
CONTINUOUS
 10
118.4510042418
 20
227.630751072
 40
9.9
 50
155.3174042721
 51
208.4827164768
  0
ARC
  8
0
 62
7
  6
CONTINUOUS
 10
118.1888671103
 20
228.0847859023
 40
9.9
 50
211.5172835232
 51
264.6825957279
  0
ARC
  8
0
 62
7
  6
CONTINUOUS
 10
122.122444524
 20
216.8619930104
 40
3.0
 50
277.309582213
 51
332.9607448368
  0
ARC
  8
0
 62
7
  6
CONTINUOUS
 10
122.3115987893
 20
215.7892458642
 40
3.0
 50
47.0392551632
 51
102.690417787
  0
ARC
  8
0
 62
7
  6
CONTINUOUS
 10
123.9038350675
 20
215.9527913102
 40
1.0
 50
332.9607448368
 51
8.9637907753
  0
ARC
  8
0
 62
7
  6
CONTINUOUS
 10
123.674593042
 20
217.2528874417
 40
1.0
 50
11.0362092247
 51
47.0392551632
  0
ARC
  8
0
 62
7
  6
CONTINUOUS
 10
110.279609375
 20
244.0836963329
 40
20.0
 50
177.309582213
 51
189.9641461547
  0
ARC
  8
0
 62
7
  6
CONTINUOUS
 10
117.2588885992
 20
238.2273857099
 40
20.0
 50
270.0358538453
 51
282.690417787
  0
ARC
  8
0
 62
7
  6
CONTINUOUS
 10
109.8641200551
 20
237.348911458
 40
3.0
 50
317.309582213
 51
12.9607448368
  0
ARC
  8
0
 62
7
  6
CONTINUOUS
 10
110.6985692028
 20
236.6487254859
 40
3.0
 50
87.0392551632
 51
142.690417787
  0
ARC
  8
0
 62
7
  6
CONTINUOUS
 10
111.8131679695
 20
237.7974783173
 40
1.0
 50
12.9607448368
 51
48.9637907753
  0
ARC
  8
0
 62
7
  6
CONTINUOUS
 10
110.8018727051
 20
238.6460558007
 40
1.0
 50
51.0362092247
 51
87.0392551632
  0
ENDSEC
  0
EOF
