  0
SECTION
  2
HEADER
  9
$EXTMAX
 10
210.0
 20
297.0
 30
0.0
  9
$EXTMIN
 10
0.0
 20
0.0
 30
0.0
  9
$LIMMIN
 10
0.0
 20
0.0
  9
$LIMMAX
 10
210.0
 20
297.0
  9
$VIEWCTR
 10
105.0
 20
148.5
  9
$VIEWSIZE
 40
297.0
  9
$CLAYER
  8
0
  9
$LTSCALE
 40
19.36
  9
$CELTYPE
  6
BYLAYER
  9
$DIMSCALE
 40
1.0
  9
$DIMASZ
 40
3.5
  9
$DIMEXO
 40
2.2
  9
$DIMDLI
 40
13.376
  9
$DIMEXE
 40
6.336
  9
$DIMCEN
 40
3.168
  9
$DIMLFAC
 40
1.0
  9
$DIMBLK
  1
_FILLED
  9
$DIMTXT
 40
3.5
  9
$PDMODE
 70
3
  9
$PDSIZE
 40
0.3125
  9
$TILEMODE
 70
1
  0
ENDSEC
  0
SECTION
  2
TABLES
  0
TABLE
  2
LTYPE
 70
6
  0
LTYPE
  2
BYBLOCK
 70
0
  3

 72
65
 73
0
 40
0.0
  0
LTYPE
  2
BYLAYER
 70
0
  3

 72
65
 73
0
 40
0.0
  0
LTYPE
  2
CONTINUOUS
 70
64
  3
Solid line
 72
65
 73
0
 40
0.0
  0
LTYPE
  2
CENTER
 70
64
  3
____ _ ____ _ ____ _ ____ _ ____ _ ____ _ ____
 72
65
 73
4
 40
0.6
 49
0.375
 49
-0.075
 49
0.075
 49
-0.075
  0
LTYPE
  2
HIDDEN
 70
64
  3
- - - - - - - - - - - - - - - - - - - -
 72
65
 73
2
 40
0.2
 49
0.1
 49
-0.1
  0
LTYPE
  2
PHANTOM
 70
64
  3
_____ _ _ _____ _ _ _____ _ _ _____
 72
65
 73
6
 40
0.8
 49
0.45
 49
-0.05
 49
0.1
 49
-0.05
 49
0.1
 49
-0.05
  0
LTYPE
  2
DOT
 70
64
  3
. . . . . . . . . . . . . . . . . . . .
 72
65
 73
2
 40
0.2
 49
0.1
 49
-0.1
  0
LTYPE
  2
DASHED
 70
64
  3
- - - - - - - - - - - - - - - - - - - -
 72
65
 73
2
 40
0.2
 49
0.1
 49
-0.1
  0
ENDTAB
  0
TABLE
  2
LAYER
 70
36
  0
LAYER
  2
0
 70
0
 62
7
  6
CONTINUOUS
  0
LAYER
  2
DEFAULT_1
 70
0
 62
7
  6
CENTER
  0
LAYER
  2
DEFAULT_2
 70
0
 62
8
  6
HIDDEN
  0
LAYER
  2
DEFAULT_3
 70
0
 62
7
  6
PHANTOM
  0
ENDTAB
  0
TABLE
  2
STYLE
 70
1
  0
STYLE
  2
STANDARD
 70
0
 40
0.0
 41
0.8
 50
0.0
 71
0
 42
0.2
  3
txt
  4

  0
STYLE
  2
TEXTSTYLE_1
 70
0
 40
0.0
 41
0.8
 50
0.0
 71
0
 42
0.2
  3
gdt
  4

  0
STYLE
  2
TEXTSTYLE_2
 70
0
 40
0.0
 41
0.6
 50
0.0
 71
0
 42
0.2
  3
txt
  4

  0
STYLE
  2
TEXTSTYLE_3
 70
0
 40
0.0
 41
1.0
 50
0.0
 71
0
 42
0.2
  3
ftb_____.ttf
  4

  0
STYLE
  2
TEXTSTYLE_4
 70
0
 40
0.0
 41
1.0
 50
0.0
 71
0
 42
0.2
  3
fti_____.ttf
  4

  0
STYLE
  2
TEXTSTYLE_5
 70
0
 40
0.0
 41
1.0
 50
0.0
 71
0
 42
0.2
  3
frutiger light.ttf
  4

  0
STYLE
  2
TEXTSTYLE_6
 70
0
 40
0.0
 41
0.7
 50
0.0
 71
0
 42
0.2
  3
txt
  4

  0
STYLE
  2
TEXTSTYLE_7
 70
0
 40
0.0
 41
0.8
 50
0.0
 71
0
 42
0.2
  3
txt
  4

  0
ENDTAB
  0
ENDSEC
  0
SECTION
  2
BLOCKS
  0
BLOCK
  8
0
 62
2
  6
CONTINUOUS
  2
SYMBOL_8_BL1
 70
64
 10
173.5956734183
 20
35.5937998301
  0
TEXT
  8
0
 62
7
  6
CONTINUOUS
 10
164.6539584268
 20
30.6865562072
  7
TEXTSTYLE_4
 40
1.0655737705
  1
The brand for plastic modular belts and chains
 41
1.0
 72
0
  0
LINE
  8
0
 62
7
  6
CONTINUOUS
 10
149.5737418074
 20
36.1675703219
 11
149.5737418074
 21
34.0364227809
  0
LINE
  8
0
 62
7
  6
CONTINUOUS
 10
149.8628043005
 20
31.0454914852
 11
149.8628043005
 21
31.1422825445
  0
LINE
  8
0
 62
7
  6
CONTINUOUS
 10
149.5737418074
 20
31.1100188581
 11
149.6315543091
 21
30.9164367395
  0
LINE
  8
0
 62
7
  6
CONTINUOUS
 10
150.9671844304
 20
33.9544555678
 11
150.9671844304
 21
36.1675703219
  0
LINE
  8
0
 62
7
  6
CONTINUOUS
 10
151.8862417523
 20
32.1101932727
 11
151.8862417523
 21
30.5937998301
  0
LINE
  8
0
 62
7
  6
CONTINUOUS
 10
152.1753043074
 20
30.5937998301
 11
152.1753043074
 21
31.3358647082
  0
LINE
  8
0
 62
7
  6
CONTINUOUS
 10
152.1753043074
 20
31.4649194539
 11
152.1753043074
 21
32.1101932727
  0
LINE
  8
0
 62
7
  6
CONTINUOUS
 10
149.6315543091
 20
31.3036010218
 11
149.5737418074
 21
31.1100188581
  0
LINE
  8
0
 62
7
  6
CONTINUOUS
 10
149.9784292936
 20
30.8841730531
 11
149.8628043005
 21
31.0454914852
  0
LINE
  8
0
 62
7
  6
CONTINUOUS
 10
151.0768668626
 20
31.400392081
 11
151.1346793074
 21
31.3036010218
  0
LINE
  8
0
 62
7
  6
CONTINUOUS
 10
151.4237418626
 20
31.3036010218
 11
151.3659292523
 21
31.4326557675
  0
LINE
  8
0
 62
7
  6
CONTINUOUS
 10
152.852430332
 20
36.1675703219
 11
152.852430332
 21
34.3642916334
  0
LINE
  8
0
 62
7
  6
CONTINUOUS
 10
152.852430332
 20
33.0528162235
 11
152.852430332
 21
32.3970785186
  0
LINE
  8
0
 62
7
  6
CONTINUOUS
 10
153.2159293074
 20
31.2390736489
 11
153.2159293074
 21
30.5937998301
  0
LINE
  8
0
 62
7
  6
CONTINUOUS
 10
153.5049916972
 20
30.5937998301
 11
153.5049916972
 21
31.2390736489
  0
LINE
  8
0
 62
7
  6
CONTINUOUS
 10
149.8628043005
 20
31.1422825445
 11
149.9206168074
 21
31.2713373354
  0
LINE
  8
0
 62
7
  6
CONTINUOUS
 10
149.6315543091
 20
30.9164367395
 11
149.7471793074
 21
30.7873819712
  0
LINE
  8
0
 62
7
  6
CONTINUOUS
 10
153.1581166972
 20
31.3681283946
 11
153.2159293074
 21
31.2390736489
  0
LINE
  8
0
 62
7
  6
CONTINUOUS
 10
153.9674919177
 20
30.8841730531
 11
154.0253041972
 21
30.7551182848
  0
LINE
  8
0
 62
7
  6
CONTINUOUS
 10
153.5049916972
 20
31.2390736489
 11
153.4471794177
 21
31.400392081
  0
LINE
  8
0
 62
7
  6
CONTINUOUS
 10
153.9674919177
 20
31.4326557675
 11
153.9674919177
 21
31.3681283946
  0
LINE
  8
0
 62
7
  6
CONTINUOUS
 10
153.9674919177
 20
30.9809641124
 11
153.9674919177
 21
30.8841730531
  0
LINE
  8
0
 62
7
  6
CONTINUOUS
 10
154.245872955
 20
32.3970785186
 11
154.245872955
 21
36.1675703219
  0
LINE
  8
0
 62
7
  6
CONTINUOUS
 10
154.2565543074
 20
30.8519093441
 11
154.2565543074
 21
30.9164367395
  0
LINE
  8
0
 62
7
  6
CONTINUOUS
 10
154.5737418074
 20
36.1675703219
 11
154.5737418074
 21
32.3970785186
  0
LINE
  8
0
 62
7
  6
CONTINUOUS
 10
151.3659292523
 20
30.7873819712
 11
151.4237418626
 21
30.9164367395
  0
LINE
  8
0
 62
7
  6
CONTINUOUS
 10
155.759679528
 20
30.6905909007
 11
155.7018665869
 21
30.8519093441
  0
LINE
  8
0
 62
7
  6
CONTINUOUS
 10
155.412804528
 20
31.3681283946
 11
155.412804528
 21
31.2713373354
  0
LINE
  8
0
 62
7
  6
CONTINUOUS
 10
155.412804528
 20
31.1422825445
 11
155.412804528
 21
30.9487004259
  0
LINE
  8
0
 62
7
  6
CONTINUOUS
 10
155.7018665869
 20
30.8519093441
 11
155.7018665869
 21
31.3681283946
  0
LINE
  8
0
 62
7
  6
CONTINUOUS
 10
155.9671844304
 20
32.3970785186
 11
155.9671844304
 21
34.2003572071
  0
LINE
  8
0
 62
7
  6
CONTINUOUS
 10
155.9671844304
 20
35.511832617
 11
155.9671844304
 21
36.1675703219
  0
LINE
  8
0
 62
7
  6
CONTINUOUS
 10
156.279992028
 20
32.1101932727
 11
156.279992028
 21
31.9488748406
  0
LINE
  8
0
 62
7
  6
CONTINUOUS
 10
156.279992028
 20
31.626237886
 11
156.279992028
 21
30.5937998301
  0
LINE
  8
0
 62
7
  6
CONTINUOUS
 10
156.5690540869
 20
30.5937998301
 11
156.5690540869
 21
31.626237886
  0
LINE
  8
0
 62
7
  6
CONTINUOUS
 10
156.5690540869
 20
31.9488748406
 11
156.5690540869
 21
32.1101932727
  0
LINE
  8
0
 62
7
  6
CONTINUOUS
 10
151.1346793074
 20
30.9164367395
 11
151.0768668626
 21
30.8196456577
  0
LINE
  8
0
 62
7
  6
CONTINUOUS
 10
153.4471794177
 20
31.400392081
 11
153.3893668074
 21
31.4649194539
  0
LINE
  8
0
 62
7
  6
CONTINUOUS
 10
154.3143669177
 20
30.7873819712
 11
154.2565543074
 21
30.8519093441
  0
LINE
  8
0
 62
7
  6
CONTINUOUS
 10
155.4706168074
 20
30.6583272086
 11
155.5284290869
 21
30.5937998301
  0
LINE
  8
0
 62
7
  6
CONTINUOUS
 10
155.412804528
 20
30.7551182848
 11
155.4706168074
 21
30.6583272086
  0
LINE
  8
0
 62
7
  6
CONTINUOUS
 10
155.8174918074
 20
30.5937998301
 11
155.759679528
 21
30.6905909007
  0
LINE
  8
0
 62
7
  6
CONTINUOUS
 10
155.7018665869
 20
31.3681283946
 11
155.6440543074
 21
31.4649194539
  0
LINE
  8
0
 62
7
  6
CONTINUOUS
 10
157.0315543074
 20
31.626237886
 11
157.0315543074
 21
30.5937998301
  0
LINE
  8
0
 62
7
  6
CONTINUOUS
 10
157.320617028
 20
30.5937998301
 11
157.320617028
 21
31.3358647082
  0
LINE
  8
0
 62
7
  6
CONTINUOUS
 10
157.320617028
 20
31.4649194539
 11
157.320617028
 21
31.626237886
  0
LINE
  8
0
 62
7
  6
CONTINUOUS
 10
157.852430332
 20
34.6101932727
 11
157.852430332
 21
32.3970785186
  0
LINE
  8
0
 62
7
  6
CONTINUOUS
 10
149.7471793074
 20
31.4326557675
 11
149.6315543091
 21
31.3036010218
  0
LINE
  8
0
 62
7
  6
CONTINUOUS
 10
149.9206168074
 20
31.2713373354
 11
149.9784292936
 21
31.3358647082
  0
LINE
  8
0
 62
7
  6
CONTINUOUS
 10
149.7471793074
 20
30.7873819712
 11
149.8628043005
 21
30.7228545871
  0
LINE
  8
0
 62
7
  6
CONTINUOUS
 10
150.1518667936
 20
30.7873819712
 11
149.9784292936
 21
30.8841730531
  0
LINE
  8
0
 62
7
  6
CONTINUOUS
 10
155.3549915869
 20
31.4326557675
 11
155.412804528
 21
31.3681283946
  0
LINE
  8
0
 62
7
  6
CONTINUOUS
 10
158.3034290869
 20
31.3681283946
 11
158.361242028
 21
31.2068099625
  0
LINE
  8
0
 62
7
  6
CONTINUOUS
 10
158.6503040869
 20
31.2068099625
 11
158.5924918074
 21
31.3681283946
  0
LINE
  8
0
 62
7
  6
CONTINUOUS
 10
158.361242028
 20
31.2068099625
 11
158.361242028
 21
30.5937998301
  0
LINE
  8
0
 62
7
  6
CONTINUOUS
 10
158.6503040869
 20
30.5937998301
 11
158.6503040869
 21
31.2068099625
  0
LINE
  8
0
 62
7
  6
CONTINUOUS
 10
159.1128043074
 20
31.4326557675
 11
159.1128043074
 21
31.3681283946
  0
LINE
  8
0
 62
7
  6
CONTINUOUS
 10
159.245872955
 20
32.3970785186
 11
159.245872955
 21
34.5282260596
  0
LINE
  8
0
 62
7
  6
CONTINUOUS
 10
159.5737418074
 20
36.1675703219
 11
159.5737418074
 21
32.3970785186
  0
LINE
  8
0
 62
7
  6
CONTINUOUS
 10
154.2565543074
 20
30.9164367395
 11
154.3143669177
 21
31.0132277988
  0
LINE
  8
0
 62
7
  6
CONTINUOUS
 10
149.8628043005
 20
30.7228545871
 11
150.0362418212
 21
30.6583272086
  0
LINE
  8
0
 62
7
  6
CONTINUOUS
 10
151.3659292523
 20
31.4326557675
 11
151.1924917523
 21
31.5294468267
  0
LINE
  8
0
 62
7
  6
CONTINUOUS
 10
154.0253041972
 20
30.7551182848
 11
154.1987416972
 21
30.6583272086
  0
LINE
  8
0
 62
7
  6
CONTINUOUS
 10
153.0424918074
 20
31.4326557675
 11
153.1581166972
 21
31.3681283946
  0
LINE
  8
0
 62
7
  6
CONTINUOUS
 10
153.3893668074
 20
31.4649194539
 11
153.2737419177
 21
31.5294468267
  0
LINE
  8
0
 62
7
  6
CONTINUOUS
 10
159.1128043074
 20
30.8519093441
 11
159.228429528
 21
30.7228545871
  0
LINE
  8
0
 62
7
  6
CONTINUOUS
 10
159.4596793074
 20
30.7873819712
 11
159.401867028
 21
30.8519093441
  0
LINE
  8
0
 62
7
  6
CONTINUOUS
 10
159.1128043074
 20
31.3681283946
 11
159.228429528
 21
31.2390736489
  0
LINE
  8
0
 62
7
  6
CONTINUOUS
 10
158.5924918074
 20
31.3681283946
 11
158.534679528
 21
31.4649194539
  0
LINE
  8
0
 62
7
  6
CONTINUOUS
 10
160.9628038663
 20
30.7873819712
 11
160.9628038663
 21
30.8519093441
  0
LINE
  8
0
 62
7
  6
CONTINUOUS
 10
160.9671844304
 20
32.3970785186
 11
160.9671844304
 21
36.1675703219
  0
LINE
  8
0
 62
7
  6
CONTINUOUS
 10
154.0253041972
 20
31.4971831403
 11
153.9674919177
 21
31.4326557675
  0
LINE
  8
0
 62
7
  6
CONTINUOUS
 10
150.9034292799
 20
31.4649194539
 11
151.0768668626
 21
31.400392081
  0
LINE
  8
0
 62
7
  6
CONTINUOUS
 10
155.6440543074
 20
31.4649194539
 11
155.5284290869
 21
31.5294468267
  0
LINE
  8
0
 62
7
  6
CONTINUOUS
 10
159.4596793074
 20
31.3036010218
 11
159.401867028
 21
31.3681283946
  0
LINE
  8
0
 62
7
  6
CONTINUOUS
 10
160.615929528
 20
30.9164367395
 11
160.6737418074
 21
30.8519093441
  0
LINE
  8
0
 62
7
  6
CONTINUOUS
 10
160.9628038663
 20
30.8519093441
 11
160.8471793074
 21
30.9809641124
  0
LINE
  8
0
 62
7
  6
CONTINUOUS
 10
160.615929528
 20
31.4326557675
 11
160.6737418074
 21
31.3681283946
  0
LINE
  8
0
 62
7
  6
CONTINUOUS
 10
160.9628038663
 20
31.3681283946
 11
160.8471793074
 21
31.4971831403
  0
LINE
  8
0
 62
7
  6
CONTINUOUS
 10
154.2565543074
 20
31.3681283946
 11
154.3143669177
 21
31.4326557675
  0
LINE
  8
0
 62
7
  6
CONTINUOUS
 10
154.0831168074
 20
31.1100188581
 11
153.9674919177
 21
30.9809641124
  0
LINE
  8
0
 62
7
  6
CONTINUOUS
 10
155.412804528
 20
30.9487004259
 11
155.3549915869
 21
30.8841730531
  0
LINE
  8
0
 62
7
  6
CONTINUOUS
 10
155.3549915869
 20
30.6905909007
 11
155.412804528
 21
30.7551182848
  0
LINE
  8
0
 62
7
  6
CONTINUOUS
 10
154.1987416972
 20
30.6583272086
 11
154.3143669177
 21
30.6260635193
  0
LINE
  8
0
 62
7
  6
CONTINUOUS
 10
151.1924917523
 20
31.5294468267
 11
150.9612418074
 21
31.5939741996
  0
LINE
  8
0
 62
7
  6
CONTINUOUS
 10
154.5456166972
 20
30.7228545871
 11
154.3143669177
 21
30.7873819712
  0
LINE
  8
0
 62
7
  6
CONTINUOUS
 10
153.2737419177
 20
31.5294468267
 11
153.1003044177
 21
31.5939741996
  0
LINE
  8
0
 62
7
  6
CONTINUOUS
 10
155.5284290869
 20
31.5294468267
 11
155.3549915869
 21
31.5939741996
  0
LINE
  8
0
 62
7
  6
CONTINUOUS
 10
158.187804528
 20
31.4326557675
 11
158.3034290869
 21
31.3681283946
  0
LINE
  8
0
 62
7
  6
CONTINUOUS
 10
158.534679528
 20
31.4649194539
 11
158.4190543074
 21
31.5294468267
  0
LINE
  8
0
 62
7
  6
CONTINUOUS
 10
150.0362418212
 20
30.6583272086
 11
150.2096793212
 21
30.6260635193
  0
LINE
  8
0
 62
7
  6
CONTINUOUS
 10
150.498741835
 20
30.7228545871
 11
150.1518667936
 21
30.7873819712
  0
LINE
  8
0
 62
7
  6
CONTINUOUS
 10
152.9268669177
 20
31.4649194539
 11
153.0424918074
 21
31.4326557675
  0
LINE
  8
0
 62
7
  6
CONTINUOUS
 10
155.239367028
 20
31.4649194539
 11
155.3549915869
 21
31.4326557675
  0
LINE
  8
0
 62
7
  6
CONTINUOUS
 10
159.575304528
 20
30.7551182848
 11
159.4596793074
 21
30.7873819712
  0
LINE
  8
0
 62
7
  6
CONTINUOUS
 10
158.0721793074
 20
31.4649194539
 11
158.187804528
 21
31.4326557675
  0
LINE
  8
0
 62
7
  6
CONTINUOUS
 10
159.228429528
 20
30.7228545871
 11
159.401867028
 21
30.6583272086
  0
LINE
  8
0
 62
7
  6
CONTINUOUS
 10
158.4190543074
 20
31.5294468267
 11
158.2456168074
 21
31.5939741996
  0
LINE
  8
0
 62
7
  6
CONTINUOUS
 10
159.6331168074
 20
31.2390736489
 11
159.4596793074
 21
31.3036010218
  0
LINE
  8
0
 62
7
  6
CONTINUOUS
 10
160.442492028
 20
30.9809641124
 11
160.615929528
 21
30.9164367395
  0
LINE
  8
0
 62
7
  6
CONTINUOUS
 10
160.8471793074
 20
31.4971831403
 11
160.6737418074
 21
31.5617105132
  0
LINE
  8
0
 62
7
  6
CONTINUOUS
 10
159.228429528
 20
31.2390736489
 11
159.4596793074
 21
31.1422825445
  0
LINE
  8
0
 62
7
  6
CONTINUOUS
 10
160.8471793074
 20
30.9809641124
 11
160.615929528
 21
31.0777551716
  0
LINE
  8
0
 62
7
  6
CONTINUOUS
 10
159.401867028
 20
31.3681283946
 11
159.4596793074
 21
31.4326557675
  0
LINE
  8
0
 62
7
  6
CONTINUOUS
 10
149.8628043005
 20
31.4971831403
 11
149.7471793074
 21
31.4326557675
  0
LINE
  8
0
 62
7
  6
CONTINUOUS
 10
149.9784292936
 20
31.3358647082
 11
150.1518667936
 21
31.4326557675
  0
LINE
  8
0
 62
7
  6
CONTINUOUS
 10
152.2909293626
 20
31.5294468267
 11
152.1753043074
 21
31.4649194539
  0
LINE
  8
0
 62
7
  6
CONTINUOUS
 10
152.1753043074
 20
31.3358647082
 11
152.2909293626
 21
31.400392081
  0
LINE
  8
0
 62
7
  6
CONTINUOUS
 10
151.1924917523
 20
30.6905909007
 11
151.3659292523
 21
30.7873819712
  0
LINE
  8
0
 62
7
  6
CONTINUOUS
 10
150.2096793212
 20
30.6260635193
 11
150.5565542799
 21
30.5937998301
  0
LINE
  8
0
 62
7
  6
CONTINUOUS
 10
154.3143669177
 20
30.6260635193
 11
154.5456166972
 21
30.5937998301
  0
LINE
  8
0
 62
7
  6
CONTINUOUS
 10
152.6956168074
 20
31.4971831403
 11
152.9268669177
 21
31.4649194539
  0
LINE
  8
0
 62
7
  6
CONTINUOUS
 10
155.0081169177
 20
31.4971831403
 11
155.239367028
 21
31.4649194539
  0
LINE
  8
0
 62
7
  6
CONTINUOUS
 10
159.4596793074
 20
31.1422825445
 11
160.442492028
 21
30.9809641124
  0
LINE
  8
0
 62
7
  6
CONTINUOUS
 10
160.615929528
 20
31.0777551716
 11
159.6331168074
 21
31.2390736489
  0
LINE
  8
0
 62
7
  6
CONTINUOUS
 10
153.1003044177
 20
31.5939741996
 11
152.9268669177
 21
31.626237886
  0
LINE
  8
0
 62
7
  6
CONTINUOUS
 10
159.401867028
 20
30.6583272086
 11
159.575304528
 21
30.6260635193
  0
LINE
  8
0
 62
7
  6
CONTINUOUS
 10
158.2456168074
 20
31.5939741996
 11
158.0721793074
 21
31.626237886
  0
LINE
  8
0
 62
7
  6
CONTINUOUS
 10
160.5003043074
 20
31.4649194539
 11
160.615929528
 21
31.4326557675
  0
LINE
  8
0
 62
7
  6
CONTINUOUS
 10
160.6737418074
 20
30.8519093441
 11
160.615929528
 21
30.7873819712
  0
LINE
  8
0
 62
7
  6
CONTINUOUS
 10
159.228429528
 20
31.5294468267
 11
159.1128043074
 21
31.4326557675
  0
LINE
  8
0
 62
7
  6
CONTINUOUS
 10
154.1409294177
 20
31.5617105132
 11
154.0253041972
 21
31.4971831403
  0
LINE
  8
0
 62
7
  6
CONTINUOUS
 10
154.1987416972
 20
31.1745462761
 11
154.0831168074
 21
31.1100188581
  0
LINE
  8
0
 62
7
  6
CONTINUOUS
 10
154.3143669177
 20
31.0132277988
 11
154.4299918074
 21
31.0777551716
  0
LINE
  8
0
 62
7
  6
CONTINUOUS
 10
151.8862417523
 20
30.5937998301
 11
152.1753043074
 21
30.5937998301
  0
LINE
  8
0
 62
7
  6
CONTINUOUS
 10
153.2159293074
 20
30.5937998301
 11
153.5049916972
 21
30.5937998301
  0
LINE
  8
0
 62
7
  6
CONTINUOUS
 10
154.5456166972
 20
30.5937998301
 11
154.8924916972
 21
30.5937998301
  0
LINE
  8
0
 62
7
  6
CONTINUOUS
 10
155.5284290869
 20
30.5937998301
 11
155.8174918074
 21
30.5937998301
  0
LINE
  8
0
 62
7
  6
CONTINUOUS
 10
156.279992028
 20
30.5937998301
 11
156.5690540869
 21
30.5937998301
  0
LINE
  8
0
 62
7
  6
CONTINUOUS
 10
157.0315543074
 20
30.5937998301
 11
157.320617028
 21
30.5937998301
  0
LINE
  8
0
 62
7
  6
CONTINUOUS
 10
158.361242028
 20
30.5937998301
 11
158.6503040869
 21
30.5937998301
  0
LINE
  8
0
 62
7
  6
CONTINUOUS
 10
159.922179528
 20
30.5937998301
 11
160.269054528
 21
30.5937998301
  0
LINE
  8
0
 62
7
  6
CONTINUOUS
 10
160.269054528
 20
30.7228545871
 11
159.922179528
 21
30.7228545871
  0
LINE
  8
0
 62
7
  6
CONTINUOUS
 10
154.8924916972
 20
30.7228545871
 11
154.5456166972
 21
30.7228545871
  0
LINE
  8
0
 62
7
  6
CONTINUOUS
 10
159.401867028
 20
30.8519093441
 11
159.1128043074
 21
30.8519093441
  0
LINE
  8
0
 62
7
  6
CONTINUOUS
 10
151.4237418626
 20
30.9164367395
 11
151.1346793074
 21
30.9164367395
  0
LINE
  8
0
 62
7
  6
CONTINUOUS
 10
150.498741835
 20
31.4971831403
 11
150.9034292799
 21
31.4649194539
  0
LINE
  8
0
 62
7
  6
CONTINUOUS
 10
150.9612418074
 20
31.5939741996
 11
150.5565542799
 21
31.626237886
  0
LINE
  8
0
 62
7
  6
CONTINUOUS
 10
159.575304528
 20
30.6260635193
 11
159.922179528
 21
30.5937998301
  0
LINE
  8
0
 62
7
  6
CONTINUOUS
 10
159.922179528
 20
30.7228545871
 11
159.575304528
 21
30.7551182848
  0
LINE
  8
0
 62
7
  6
CONTINUOUS
 10
155.3549915869
 20
31.5939741996
 11
155.0081169177
 21
31.626237886
  0
LINE
  8
0
 62
7
  6
CONTINUOUS
 10
160.1534293074
 20
31.4971831403
 11
160.5003043074
 21
31.4649194539
  0
LINE
  8
0
 62
7
  6
CONTINUOUS
 10
160.5003043074
 20
31.5939741996
 11
160.1534293074
 21
31.626237886
  0
LINE
  8
0
 62
7
  6
CONTINUOUS
 10
157.840929528
 20
31.4971831403
 11
158.0721793074
 21
31.4649194539
  0
LINE
  8
0
 62
7
  6
CONTINUOUS
 10
160.6737418074
 20
31.5617105132
 11
160.5003043074
 21
31.5939741996
  0
LINE
  8
0
 62
7
  6
CONTINUOUS
 10
160.8471793074
 20
30.6905909007
 11
160.9628038663
 21
30.7873819712
  0
LINE
  8
0
 62
7
  6
CONTINUOUS
 10
155.3549915869
 20
30.8841730531
 11
155.1815540869
 21
30.7873819712
  0
LINE
  8
0
 62
7
  6
CONTINUOUS
 10
157.4362415869
 20
31.5294468267
 11
157.320617028
 21
31.4649194539
  0
LINE
  8
0
 62
7
  6
CONTINUOUS
 10
157.320617028
 20
31.3358647082
 11
157.4362415869
 21
31.400392081
  0
LINE
  8
0
 62
7
  6
CONTINUOUS
 10
150.0362418212
 20
31.5617105132
 11
149.8628043005
 21
31.4971831403
  0
LINE
  8
0
 62
7
  6
CONTINUOUS
 10
152.4643666972
 20
31.5939741996
 11
152.2909293626
 21
31.5294468267
  0
LINE
  8
0
 62
7
  6
CONTINUOUS
 10
152.2909293626
 20
31.400392081
 11
152.4643666972
 21
31.4649194539
  0
LINE
  8
0
 62
7
  6
CONTINUOUS
 10
151.0768668626
 20
30.8196456577
 11
150.9034292799
 21
30.7551182848
  0
LINE
  8
0
 62
7
  6
CONTINUOUS
 10
160.5003043074
 20
30.7551182848
 11
160.269054528
 21
30.7228545871
  0
LINE
  8
0
 62
7
  6
CONTINUOUS
 10
154.8924916972
 20
30.5937998301
 11
155.1815540869
 21
30.6260635193
  0
LINE
  8
0
 62
7
  6
CONTINUOUS
 10
160.269054528
 20
30.5937998301
 11
160.615929528
 21
30.6260635193
  0
LINE
  8
0
 62
7
  6
CONTINUOUS
 10
150.5565542799
 20
30.5937998301
 11
150.9612418074
 21
30.6260635193
  0
LINE
  8
0
 62
7
  6
CONTINUOUS
 10
150.9034292799
 20
30.7551182848
 11
150.498741835
 21
30.7228545871
  0
LINE
  8
0
 62
7
  6
CONTINUOUS
 10
154.7768668074
 20
31.1422825445
 11
155.412804528
 21
31.1422825445
  0
LINE
  8
0
 62
7
  6
CONTINUOUS
 10
155.412804528
 20
31.2713373354
 11
154.7768668074
 21
31.2713373354
  0
LINE
  8
0
 62
7
  6
CONTINUOUS
 10
151.1346793074
 20
31.3036010218
 11
151.4237418626
 21
31.3036010218
  0
LINE
  8
0
 62
7
  6
CONTINUOUS
 10
153.9674919177
 20
31.3681283946
 11
154.2565543074
 21
31.3681283946
  0
LINE
  8
0
 62
7
  6
CONTINUOUS
 10
160.6737418074
 20
31.3681283946
 11
160.9628038663
 21
31.3681283946
  0
LINE
  8
0
 62
7
  6
CONTINUOUS
 10
154.6612419177
 20
31.4971831403
 11
155.0081169177
 21
31.4971831403
  0
LINE
  8
0
 62
7
  6
CONTINUOUS
 10
159.8065543074
 20
31.4971831403
 11
160.1534293074
 21
31.4971831403
  0
LINE
  8
0
 62
7
  6
CONTINUOUS
 10
160.1534293074
 20
31.626237886
 11
159.8065543074
 21
31.626237886
  0
LINE
  8
0
 62
7
  6
CONTINUOUS
 10
158.0721793074
 20
31.626237886
 11
157.840929528
 21
31.626237886
  0
LINE
  8
0
 62
7
  6
CONTINUOUS
 10
157.320617028
 20
31.626237886
 11
157.0315543074
 21
31.626237886
  0
LINE
  8
0
 62
7
  6
CONTINUOUS
 10
156.5690540869
 20
31.626237886
 11
156.279992028
 21
31.626237886
  0
LINE
  8
0
 62
7
  6
CONTINUOUS
 10
155.0081169177
 20
31.626237886
 11
154.6612419177
 21
31.626237886
  0
LINE
  8
0
 62
7
  6
CONTINUOUS
 10
152.9268669177
 20
31.626237886
 11
152.6956168074
 21
31.626237886
  0
LINE
  8
0
 62
7
  6
CONTINUOUS
 10
156.279992028
 20
31.9488748406
 11
156.5690540869
 21
31.9488748406
  0
LINE
  8
0
 62
7
  6
CONTINUOUS
 10
156.5690540869
 20
32.1101932727
 11
156.279992028
 21
32.1101932727
  0
LINE
  8
0
 62
7
  6
CONTINUOUS
 10
152.1753043074
 20
32.1101932727
 11
151.8862417523
 21
32.1101932727
  0
LINE
  8
0
 62
7
  6
CONTINUOUS
 10
151.2130860697
 20
32.3970785186
 11
151.6256574183
 21
32.3970785186
  0
LINE
  8
0
 62
7
  6
CONTINUOUS
 10
152.852430332
 20
32.3970785186
 11
154.245872955
 21
32.3970785186
  0
LINE
  8
0
 62
7
  6
CONTINUOUS
 10
154.5737418074
 20
32.3970785186
 11
155.9671844304
 21
32.3970785186
  0
LINE
  8
0
 62
7
  6
CONTINUOUS
 10
157.852430332
 20
32.3970785186
 11
159.245872955
 21
32.3970785186
  0
LINE
  8
0
 62
7
  6
CONTINUOUS
 10
159.5737418074
 20
32.3970785186
 11
160.9671844304
 21
32.3970785186
  0
LINE
  8
0
 62
7
  6
CONTINUOUS
 10
157.6096790869
 20
31.5939741996
 11
157.4362415869
 21
31.5294468267
  0
LINE
  8
0
 62
7
  6
CONTINUOUS
 10
155.1815540869
 20
30.6260635193
 11
155.3549915869
 21
30.6905909007
  0
LINE
  8
0
 62
7
  6
CONTINUOUS
 10
160.615929528
 20
30.6260635193
 11
160.8471793074
 21
30.6905909007
  0
LINE
  8
0
 62
7
  6
CONTINUOUS
 10
160.615929528
 20
30.7873819712
 11
160.5003043074
 21
30.7551182848
  0
LINE
  8
0
 62
7
  6
CONTINUOUS
 10
159.575304528
 20
31.4649194539
 11
159.8065543074
 21
31.4971831403
  0
LINE
  8
0
 62
7
  6
CONTINUOUS
 10
157.6096790869
 20
31.4649194539
 11
157.840929528
 21
31.4971831403
  0
LINE
  8
0
 62
7
  6
CONTINUOUS
 10
154.5456166972
 20
31.1100188581
 11
154.7768668074
 21
31.1422825445
  0
LINE
  8
0
 62
7
  6
CONTINUOUS
 10
157.840929528
 20
31.626237886
 11
157.6096790869
 21
31.5939741996
  0
LINE
  8
0
 62
7
  6
CONTINUOUS
 10
154.4299918074
 20
31.4649194539
 11
154.6612419177
 21
31.4971831403
  0
LINE
  8
0
 62
7
  6
CONTINUOUS
 10
159.8065543074
 20
31.626237886
 11
159.4596793074
 21
31.5939741996
  0
LINE
  8
0
 62
7
  6
CONTINUOUS
 10
154.7768668074
 20
31.2713373354
 11
154.4299918074
 21
31.2390736489
  0
LINE
  8
0
 62
7
  6
CONTINUOUS
 10
150.5565542799
 20
31.626237886
 11
150.2096793212
 21
31.5939741996
  0
LINE
  8
0
 62
7
  6
CONTINUOUS
 10
154.6612419177
 20
31.626237886
 11
154.2565543074
 21
31.5939741996
  0
LINE
  8
0
 62
7
  6
CONTINUOUS
 10
152.0327582009
 20
33.5446195022
 11
151.3770204959
 21
33.5446195022
  0
LINE
  8
0
 62
7
  6
CONTINUOUS
 10
157.4362415869
 20
31.400392081
 11
157.6096790869
 21
31.4649194539
  0
LINE
  8
0
 62
7
  6
CONTINUOUS
 10
159.4596793074
 20
31.4326557675
 11
159.575304528
 21
31.4649194539
  0
LINE
  8
0
 62
7
  6
CONTINUOUS
 10
159.4596793074
 20
31.5939741996
 11
159.228429528
 21
31.5294468267
  0
LINE
  8
0
 62
7
  6
CONTINUOUS
 10
155.1815540869
 20
30.7873819712
 11
154.8924916972
 21
30.7228545871
  0
LINE
  8
0
 62
7
  6
CONTINUOUS
 10
152.4643666972
 20
31.4649194539
 11
152.6956168074
 21
31.4971831403
  0
LINE
  8
0
 62
7
  6
CONTINUOUS
 10
152.6956168074
 20
31.626237886
 11
152.4643666972
 21
31.5939741996
  0
LINE
  8
0
 62
7
  6
CONTINUOUS
 10
150.2674918074
 20
31.4649194539
 11
150.498741835
 21
31.4971831403
  0
LINE
  8
0
 62
7
  6
CONTINUOUS
 10
156.7868565615
 20
35.0200293383
 11
157.4425942664
 21
35.0200293383
  0
LINE
  8
0
 62
7
  6
CONTINUOUS
 10
154.4299918074
 20
31.0777551716
 11
154.5456166972
 21
31.1100188581
  0
LINE
  8
0
 62
7
  6
CONTINUOUS
 10
154.4299918074
 20
31.2390736489
 11
154.1987416972
 21
31.1745462761
  0
LINE
  8
0
 62
7
  6
CONTINUOUS
 10
154.3143669177
 20
31.4326557675
 11
154.4299918074
 21
31.4649194539
  0
LINE
  8
0
 62
7
  6
CONTINUOUS
 10
150.9612418074
 20
30.6260635193
 11
151.1924917523
 21
30.6905909007
  0
LINE
  8
0
 62
7
  6
CONTINUOUS
 10
154.2565543074
 20
31.5939741996
 11
154.1409294177
 21
31.5617105132
  0
LINE
  8
0
 62
7
  6
CONTINUOUS
 10
150.2096793212
 20
31.5939741996
 11
150.0362418212
 21
31.5617105132
  0
LINE
  8
0
 62
7
  6
CONTINUOUS
 10
160.9671844304
 20
36.1675703219
 11
159.5737418074
 21
36.1675703219
  0
LINE
  8
0
 62
7
  6
CONTINUOUS
 10
157.6065286927
 20
36.1675703219
 11
157.1939573441
 21
36.1675703219
  0
LINE
  8
0
 62
7
  6
CONTINUOUS
 10
155.9671844304
 20
36.1675703219
 11
154.5737418074
 21
36.1675703219
  0
LINE
  8
0
 62
7
  6
CONTINUOUS
 10
154.245872955
 20
36.1675703219
 11
152.852430332
 21
36.1675703219
  0
LINE
  8
0
 62
7
  6
CONTINUOUS
 10
150.9671844304
 20
36.1675703219
 11
149.5737418074
 21
36.1675703219
  0
LINE
  8
0
 62
7
  6
CONTINUOUS
 10
150.1518667936
 20
31.4326557675
 11
150.2674918074
 21
31.4649194539
  0
CIRCLE
  8
0
 62
7
  6
CONTINUOUS
 10
160.2704631189
 20
38.5036358957
 40
2.0901639344
  0
ARC
  8
0
 62
7
  6
CONTINUOUS
 10
151.2130860697
 20
34.0364227809
 40
1.6393442623
 50
180.0
 51
270.0
  0
ARC
  8
0
 62
7
  6
CONTINUOUS
 10
157.6065286927
 20
34.5282260596
 40
1.6393442623
 50
0.0
 51
90.0
  0
ARC
  8
0
 62
7
  6
CONTINUOUS
 10
151.6256574183
 20
33.8724883547
 40
1.4754098361
 50
270.0
 51
326.2510114041
  0
ARC
  8
0
 62
7
  6
CONTINUOUS
 10
157.1939573441
 20
34.6921604858
 40
1.4754098361
 50
90.0
 51
146.2510114041
  0
ARC
  8
0
 62
7
  6
CONTINUOUS
 10
152.0327582009
 20
34.3642916334
 40
0.8196721311
 50
270.0
 51
360.0
  0
ARC
  8
0
 62
7
  6
CONTINUOUS
 10
156.7868565615
 20
34.2003572071
 40
0.8196721311
 50
90.0
 51
180.0
  0
ARC
  8
0
 62
7
  6
CONTINUOUS
 10
151.3770204959
 20
33.9544555678
 40
0.4098360656
 50
180.0
 51
270.0
  0
ARC
  8
0
 62
7
  6
CONTINUOUS
 10
157.4425942664
 20
34.6101932727
 40
0.4098360656
 50
0.0
 51
90.0
  0
SOLID
  8
0
 62
7
  6
CONTINUOUS
 10
156.279992028
 20
31.9488752009
 11
156.279992028
 21
32.1101936845
 12
156.5690540869
 22
31.9488752009
 13
156.5690540869
 23
32.1101936845
  0
SOLID
  8
0
 62
7
  6
CONTINUOUS
 10
150.5565542799
 20
31.6262382337
 11
150.9612418074
 21
31.5939740028
 12
150.2096793212
 22
31.5939740028
 13
150.2096793212
 23
31.5939740028
  0
SOLID
  8
0
 62
7
  6
CONTINUOUS
 10
150.0362418212
 20
31.5617111435
 11
150.2096793212
 21
31.5939740028
 12
150.9612418074
 22
31.5939740028
 13
150.9612418074
 23
31.5939740028
  0
SOLID
  8
0
 62
7
  6
CONTINUOUS
 10
150.9612418074
 20
31.5939740028
 11
151.1924917523
 21
31.5294468402
 12
150.0362418212
 22
31.5617111435
 13
150.0362418212
 23
31.5617111435
  0
SOLID
  8
0
 62
7
  6
CONTINUOUS
 10
149.8628043005
 20
31.49718259
 11
150.0362418212
 21
31.5617111435
 12
151.1924917523
 22
31.5294468402
 13
151.1924917523
 23
31.5294468402
  0
SOLID
  8
0
 62
7
  6
CONTINUOUS
 10
149.8628043005
 20
31.49718259
 11
151.1924917523
 21
31.5294468402
 12
150.498741835
 22
31.49718259
 13
150.498741835
 23
31.49718259
  0
SOLID
  8
0
 62
7
  6
CONTINUOUS
 10
150.498741835
 20
31.49718259
 11
151.1924917523
 21
31.5294468402
 12
150.9034292799
 22
31.4649197501
 13
150.9034292799
 23
31.4649197501
  0
SOLID
  8
0
 62
7
  6
CONTINUOUS
 10
151.1924917523
 20
31.5294468402
 11
151.3659292523
 21
31.4326554468
 12
150.9034292799
 22
31.4649197501
 13
150.9034292799
 23
31.4649197501
  0
SOLID
  8
0
 62
7
  6
CONTINUOUS
 10
151.0768668626
 20
31.4003926599
 11
150.9034292799
 21
31.4649197501
 12
151.3659292523
 22
31.4326554468
 13
151.3659292523
 23
31.4326554468
  0
SOLID
  8
0
 62
7
  6
CONTINUOUS
 10
151.0768668626
 20
31.4003926599
 11
151.3659292523
 21
31.4326554468
 12
151.1346793074
 22
31.3036013776
 13
151.1346793074
 23
31.3036013776
  0
SOLID
  8
0
 62
7
  6
CONTINUOUS
 10
151.3659292523
 20
31.4326554468
 11
151.4237418626
 21
31.3036013776
 12
151.1346793074
 22
31.3036013776
 13
151.1346793074
 23
31.3036013776
  0
SOLID
  8
0
 62
7
  6
CONTINUOUS
 10
152.4643666972
 20
31.5939739754
 11
152.6956168074
 21
31.6262382787
 12
152.9268669177
 22
31.6262382787
 13
152.9268669177
 23
31.6262382787
  0
SOLID
  8
0
 62
7
  6
CONTINUOUS
 10
152.9268669177
 20
31.6262382787
 11
153.1003044177
 21
31.5939739754
 12
152.4643666972
 22
31.5939739754
 13
152.4643666972
 23
31.5939739754
  0
SOLID
  8
0
 62
7
  6
CONTINUOUS
 10
152.2909293626
 20
31.5294468852
 11
152.4643666972
 21
31.5939739754
 12
153.1003044177
 22
31.5939739754
 13
153.1003044177
 23
31.5939739754
  0
SOLID
  8
0
 62
7
  6
CONTINUOUS
 10
153.1003044177
 20
31.5939739754
 11
153.2737419177
 21
31.5294468852
 12
152.2909293626
 22
31.5294468852
 13
152.2909293626
 23
31.5294468852
  0
SOLID
  8
0
 62
7
  6
CONTINUOUS
 10
153.2737419177
 20
31.5294468852
 11
152.6956168074
 21
31.4971825369
 12
152.2909293626
 22
31.5294468852
 13
152.2909293626
 23
31.5294468852
  0
SOLID
  8
0
 62
7
  6
CONTINUOUS
 10
152.1753043074
 20
31.4649197951
 11
152.2909293626
 21
31.5294468852
 12
152.6956168074
 22
31.4971825369
 13
152.6956168074
 23
31.4971825369
  0
SOLID
  8
0
 62
7
  6
CONTINUOUS
 10
152.6956168074
 20
31.4971825369
 11
152.4643666972
 21
31.4649197951
 12
152.1753043074
 22
31.4649197951
 13
152.1753043074
 23
31.4649197951
  0
SOLID
  8
0
 62
7
  6
CONTINUOUS
 10
152.6956168074
 20
31.4971825369
 11
153.2737419177
 21
31.5294468852
 12
152.9268669177
 22
31.4649197951
 13
152.9268669177
 23
31.4649197951
  0
SOLID
  8
0
 62
7
  6
CONTINUOUS
 10
153.2737419177
 20
31.5294468852
 11
153.3893668074
 21
31.4649197951
 12
152.9268669177
 22
31.4649197951
 13
152.9268669177
 23
31.4649197951
  0
SOLID
  8
0
 62
7
  6
CONTINUOUS
 10
153.0424918074
 20
31.4326554468
 11
152.9268669177
 21
31.4649197951
 12
153.3893668074
 22
31.4649197951
 13
153.3893668074
 23
31.4649197951
  0
SOLID
  8
0
 62
7
  6
CONTINUOUS
 10
153.3893668074
 20
31.4649197951
 11
153.4471794177
 21
31.4003927049
 12
153.0424918074
 22
31.4326554468
 13
153.0424918074
 23
31.4326554468
  0
SOLID
  8
0
 62
7
  6
CONTINUOUS
 10
153.1581166972
 20
31.3681283566
 11
153.0424918074
 21
31.4326554468
 12
153.4471794177
 22
31.4003927049
 13
153.4471794177
 23
31.4003927049
  0
SOLID
  8
0
 62
7
  6
CONTINUOUS
 10
153.1581166972
 20
31.3681283566
 11
153.4471794177
 21
31.4003927049
 12
153.2159293074
 22
31.2390742213
 13
153.2159293074
 23
31.2390742213
  0
SOLID
  8
0
 62
7
  6
CONTINUOUS
 10
153.4471794177
 20
31.4003927049
 11
153.5049916972
 21
31.2390742213
 12
153.2159293074
 22
31.2390742213
 13
153.2159293074
 23
31.2390742213
  0
SOLID
  8
0
 62
7
  6
CONTINUOUS
 10
152.4643666972
 20
31.4649197951
 11
152.2909293626
 21
31.4003927049
 12
152.1753043074
 22
31.4649197951
 13
152.1753043074
 23
31.4649197951
  0
SOLID
  8
0
 62
7
  6
CONTINUOUS
 10
152.2909293626
 20
31.4003927049
 11
152.1753043074
 21
31.3358640533
 12
152.1753043074
 22
31.4649197951
 13
152.1753043074
 23
31.4649197951
  0
SOLID
  8
0
 62
7
  6
CONTINUOUS
 10
152.1753043074
 20
31.3358640533
 11
151.8862417523
 21
30.5938002869
 12
152.1753043074
 22
31.4649197951
 13
152.1753043074
 23
31.4649197951
  0
SOLID
  8
0
 62
7
  6
CONTINUOUS
 10
152.1753043074
 20
31.4649197951
 11
151.8862417523
 21
30.5938002869
 12
152.1753043074
 22
32.1101937295
 13
152.1753043074
 23
32.1101937295
  0
SOLID
  8
0
 62
7
  6
CONTINUOUS
 10
151.8862417523
 20
30.5938002869
 11
151.8862417523
 21
32.1101937295
 12
152.1753043074
 22
32.1101937295
 13
152.1753043074
 23
32.1101937295
  0
SOLID
  8
0
 62
7
  6
CONTINUOUS
 10
152.1753043074
 20
31.3358640533
 11
152.1753043074
 21
30.5938002869
 12
151.8862417523
 22
30.5938002869
 13
151.8862417523
 23
30.5938002869
  0
SOLID
  8
0
 62
7
  6
CONTINUOUS
 10
153.2159293074
 20
30.5938002869
 11
153.2159293074
 21
31.2390742213
 12
153.5049916972
 22
31.2390742213
 13
153.5049916972
 23
31.2390742213
  0
SOLID
  8
0
 62
7
  6
CONTINUOUS
 10
153.5049916972
 20
31.2390742213
 11
153.5049916972
 21
30.5938002869
 12
153.2159293074
 22
30.5938002869
 13
153.2159293074
 23
30.5938002869
  0
SOLID
  8
0
 62
7
  6
CONTINUOUS
 10
154.2565543074
 20
31.5939738288
 11
154.6612419177
 21
31.6262385959
 12
155.0081169177
 22
31.6262385959
 13
155.0081169177
 23
31.6262385959
  0
SOLID
  8
0
 62
7
  6
CONTINUOUS
 10
155.0081169177
 20
31.6262385959
 11
155.3549915869
 21
31.5939738288
 12
154.2565543074
 22
31.5939738288
 13
154.2565543074
 23
31.5939738288
  0
SOLID
  8
0
 62
7
  6
CONTINUOUS
 10
154.1409294177
 20
31.5617111435
 11
154.2565543074
 21
31.5939738288
 12
155.3549915869
 22
31.5939738288
 13
155.3549915869
 23
31.5939738288
  0
SOLID
  8
0
 62
7
  6
CONTINUOUS
 10
155.3549915869
 20
31.5939738288
 11
155.5284290869
 21
31.5294468402
 12
154.1409294177
 22
31.5617111435
 13
154.1409294177
 23
31.5617111435
  0
SOLID
  8
0
 62
7
  6
CONTINUOUS
 10
154.0253041972
 20
31.4971826249
 11
154.1409294177
 21
31.5617111435
 12
155.5284290869
 22
31.5294468402
 13
155.5284290869
 23
31.5294468402
  0
SOLID
  8
0
 62
7
  6
CONTINUOUS
 10
154.0253041972
 20
31.4971826249
 11
155.5284290869
 21
31.5294468402
 12
154.6612419177
 22
31.4971826249
 13
154.6612419177
 23
31.4971826249
  0
SOLID
  8
0
 62
7
  6
CONTINUOUS
 10
154.6612419177
 20
31.4971826249
 11
155.5284290869
 21
31.5294468402
 12
155.0081169177
 22
31.4971826249
 13
155.0081169177
 23
31.4971826249
  0
SOLID
  8
0
 62
7
  6
CONTINUOUS
 10
155.0081169177
 20
31.4971826249
 11
155.5284290869
 21
31.5294468402
 12
155.239367028
 22
31.4649194065
 13
155.239367028
 23
31.4649194065
  0
SOLID
  8
0
 62
7
  6
CONTINUOUS
 10
155.5284290869
 20
31.5294468402
 11
155.6440543074
 21
31.4649194065
 12
155.239367028
 22
31.4649194065
 13
155.239367028
 23
31.4649194065
  0
SOLID
  8
0
 62
7
  6
CONTINUOUS
 10
153.9674919177
 20
31.4326554138
 11
154.0253041972
 21
31.4971826249
 12
154.6612419177
 22
31.4971826249
 13
154.6612419177
 23
31.4971826249
  0
SOLID
  8
0
 62
7
  6
CONTINUOUS
 10
155.3549915869
 20
31.4326554138
 11
155.239367028
 21
31.4649194065
 12
155.6440543074
 22
31.4649194065
 13
155.6440543074
 23
31.4649194065
  0
SOLID
  8
0
 62
7
  6
CONTINUOUS
 10
155.3549915869
 20
31.4326554138
 11
155.6440543074
 21
31.4649194065
 12
155.412804528
 22
31.3681282026
 13
155.412804528
 23
31.3681282026
  0
SOLID
  8
0
 62
7
  6
CONTINUOUS
 10
155.6440543074
 20
31.4649194065
 11
155.7018665869
 21
31.3681282026
 12
155.412804528
 22
31.3681282026
 13
155.412804528
 23
31.3681282026
  0
SOLID
  8
0
 62
7
  6
CONTINUOUS
 10
155.412804528
 20
31.2713369632
 11
155.412804528
 21
31.3681282026
 12
155.7018665869
 22
31.3681282026
 13
155.7018665869
 23
31.3681282026
  0
SOLID
  8
0
 62
7
  6
CONTINUOUS
 10
155.412804528
 20
31.2713369632
 11
155.7018665869
 21
31.3681282026
 12
155.412804528
 22
31.1422827828
 13
155.412804528
 23
31.1422827828
  0
SOLID
  8
0
 62
7
  6
CONTINUOUS
 10
155.412804528
 20
31.1422827828
 11
155.7018665869
 21
31.3681282026
 12
155.412804528
 22
30.9487004259
 13
155.412804528
 23
30.9487004259
  0
SOLID
  8
0
 62
7
  6
CONTINUOUS
 10
155.7018665869
 20
31.3681282026
 11
155.7018665869
 21
30.8519086025
 12
155.412804528
 22
30.9487004259
 13
155.412804528
 23
30.9487004259
  0
SOLID
  8
0
 62
7
  6
CONTINUOUS
 10
157.6096790869
 20
31.5939736268
 11
157.840929528
 21
31.6262383465
 12
158.0721793074
 22
31.6262383465
 13
158.0721793074
 23
31.6262383465
  0
SOLID
  8
0
 62
7
  6
CONTINUOUS
 10
158.0721793074
 20
31.6262383465
 11
158.2456168074
 21
31.5939736268
 12
157.6096790869
 22
31.5939736268
 13
157.6096790869
 23
31.5939736268
  0
SOLID
  8
0
 62
7
  6
CONTINUOUS
 10
157.4362415869
 20
31.5294472848
 11
157.6096790869
 21
31.5939736268
 12
158.2456168074
 22
31.5939736268
 13
158.2456168074
 23
31.5939736268
  0
SOLID
  8
0
 62
7
  6
CONTINUOUS
 10
158.2456168074
 20
31.5939736268
 11
158.4190543074
 21
31.5294472848
 12
157.4362415869
 22
31.5294472848
 13
157.4362415869
 23
31.5294472848
  0
SOLID
  8
0
 62
7
  6
CONTINUOUS
 10
158.4190543074
 20
31.5294472848
 11
157.840929528
 21
31.4971825369
 12
157.4362415869
 22
31.5294472848
 13
157.4362415869
 23
31.5294472848
  0
SOLID
  8
0
 62
7
  6
CONTINUOUS
 10
157.320617028
 20
31.4649199103
 11
157.4362415869
 21
31.5294472848
 12
157.840929528
 22
31.4971825369
 13
157.840929528
 23
31.4971825369
  0
SOLID
  8
0
 62
7
  6
CONTINUOUS
 10
157.840929528
 20
31.4971825369
 11
157.6096790869
 21
31.4649199103
 12
157.320617028
 22
31.4649199103
 13
157.320617028
 23
31.4649199103
  0
SOLID
  8
0
 62
7
  6
CONTINUOUS
 10
157.840929528
 20
31.4971825369
 11
158.4190543074
 21
31.5294472848
 12
158.0721793074
 22
31.4649199103
 13
158.0721793074
 23
31.4649199103
  0
SOLID
  8
0
 62
7
  6
CONTINUOUS
 10
158.4190543074
 20
31.5294472848
 11
158.534679528
 21
31.4649199103
 12
158.0721793074
 22
31.4649199103
 13
158.0721793074
 23
31.4649199103
  0
SOLID
  8
0
 62
7
  6
CONTINUOUS
 10
158.187804528
 20
31.4326554468
 11
158.0721793074
 21
31.4649199103
 12
158.534679528
 22
31.4649199103
 13
158.534679528
 23
31.4649199103
  0
SOLID
  8
0
 62
7
  6
CONTINUOUS
 10
158.187804528
 20
31.4326554468
 11
158.534679528
 21
31.4649199103
 12
158.3034290869
 22
31.3681288486
 13
158.3034290869
 23
31.3681288486
  0
SOLID
  8
0
 62
7
  6
CONTINUOUS
 10
158.534679528
 20
31.4649199103
 11
158.5924918074
 21
31.3681288486
 12
158.3034290869
 22
31.3681288486
 13
158.3034290869
 23
31.3681288486
  0
SOLID
  8
0
 62
7
  6
CONTINUOUS
 10
158.361242028
 20
31.2068093799
 11
158.3034290869
 21
31.3681288486
 12
158.5924918074
 22
31.3681288486
 13
158.5924918074
 23
31.3681288486
  0
SOLID
  8
0
 62
7
  6
CONTINUOUS
 10
158.5924918074
 20
31.3681288486
 11
158.6503040869
 21
31.2068093799
 12
158.361242028
 22
31.2068093799
 13
158.361242028
 23
31.2068093799
  0
SOLID
  8
0
 62
7
  6
CONTINUOUS
 10
157.6096790869
 20
31.4649199103
 11
157.4362415869
 21
31.4003926599
 12
157.320617028
 22
31.4649199103
 13
157.320617028
 23
31.4649199103
  0
SOLID
  8
0
 62
7
  6
CONTINUOUS
 10
157.4362415869
 20
31.4003926599
 11
157.320617028
 21
31.3358640533
 12
157.320617028
 22
31.4649199103
 13
157.320617028
 23
31.4649199103
  0
SOLID
  8
0
 62
7
  6
CONTINUOUS
 10
157.320617028
 20
31.3358640533
 11
157.0315543074
 21
30.5938003547
 12
157.320617028
 22
31.4649199103
 13
157.320617028
 23
31.4649199103
  0
SOLID
  8
0
 62
7
  6
CONTINUOUS
 10
157.320617028
 20
31.4649199103
 11
157.0315543074
 21
30.5938003547
 12
157.320617028
 22
31.6262383465
 13
157.320617028
 23
31.6262383465
  0
SOLID
  8
0
 62
7
  6
CONTINUOUS
 10
157.0315543074
 20
30.5938003547
 11
157.0315543074
 21
31.6262383465
 12
157.320617028
 22
31.6262383465
 13
157.320617028
 23
31.6262383465
  0
SOLID
  8
0
 62
7
  6
CONTINUOUS
 10
157.320617028
 20
31.3358640533
 11
157.320617028
 21
30.5938003547
 12
157.0315543074
 22
30.5938003547
 13
157.0315543074
 23
30.5938003547
  0
SOLID
  8
0
 62
7
  6
CONTINUOUS
 10
158.361242028
 20
30.5938003547
 11
158.361242028
 21
31.2068093799
 12
158.6503040869
 22
31.2068093799
 13
158.6503040869
 23
31.2068093799
  0
SOLID
  8
0
 62
7
  6
CONTINUOUS
 10
158.6503040869
 20
31.2068093799
 11
158.6503040869
 21
30.5938003547
 12
158.361242028
 22
30.5938003547
 13
158.361242028
 23
30.5938003547
  0
SOLID
  8
0
 62
7
  6
CONTINUOUS
 10
159.4596793074
 20
31.5939739474
 11
159.8065543074
 21
31.6262381969
 12
160.1534293074
 22
31.6262381969
 13
160.1534293074
 23
31.6262381969
  0
SOLID
  8
0
 62
7
  6
CONTINUOUS
 10
160.1534293074
 20
31.6262381969
 11
160.5003043074
 21
31.5939739474
 12
159.4596793074
 22
31.5939739474
 13
159.4596793074
 23
31.5939739474
  0
SOLID
  8
0
 62
7
  6
CONTINUOUS
 10
159.228429528
 20
31.5294468402
 11
159.4596793074
 21
31.5939739474
 12
160.5003043074
 22
31.5939739474
 13
160.5003043074
 23
31.5939739474
  0
SOLID
  8
0
 62
7
  6
CONTINUOUS
 10
159.228429528
 20
31.5294468402
 11
160.5003043074
 21
31.5939739304
 12
160.6737418074
 22
31.5617111435
 13
160.6737418074
 23
31.5617111435
  0
SOLID
  8
0
 62
7
  6
CONTINUOUS
 10
159.228429528
 20
31.5294468402
 11
160.6737418074
 21
31.5617111435
 12
159.8065543074
 22
31.4971825592
 13
159.8065543074
 23
31.4971825592
  0
SOLID
  8
0
 62
7
  6
CONTINUOUS
 10
159.8065543074
 20
31.4971825592
 11
160.6737418074
 21
31.5617111435
 12
160.1534293074
 22
31.4971825592
 13
160.1534293074
 23
31.4971825592
  0
SOLID
  8
0
 62
7
  6
CONTINUOUS
 10
160.6737418074
 20
31.5617111435
 11
160.8471793074
 21
31.4971825592
 12
160.1534293074
 22
31.4971825592
 13
160.1534293074
 23
31.4971825592
  0
SOLID
  8
0
 62
7
  6
CONTINUOUS
 10
160.5003043074
 20
31.4649197501
 11
160.1534293074
 21
31.4971825592
 12
160.8471793074
 22
31.4971825592
 13
160.8471793074
 23
31.4971825592
  0
SOLID
  8
0
 62
7
  6
CONTINUOUS
 10
159.1128043074
 20
31.4326555427
 11
159.228429528
 21
31.5294468402
 12
159.8065543074
 22
31.4971825592
 13
159.8065543074
 23
31.4971825592
  0
SOLID
  8
0
 62
7
  6
CONTINUOUS
 10
160.5003043074
 20
31.4649197501
 11
160.8471793074
 21
31.4971825592
 12
160.615929528
 22
31.4326555427
 13
160.615929528
 23
31.4326555427
  0
SOLID
  8
0
 62
7
  6
CONTINUOUS
 10
160.615929528
 20
31.4326555427
 11
160.8471793074
 21
31.4971825592
 12
160.6737418074
 22
31.3681283005
 13
160.6737418074
 23
31.3681283005
  0
SOLID
  8
0
 62
7
  6
CONTINUOUS
 10
160.8471793074
 20
31.4971825592
 11
160.9628038663
 21
31.3681283005
 12
160.6737418074
 22
31.3681283005
 13
160.6737418074
 23
31.3681283005
  0
SOLID
  8
0
 62
7
  6
CONTINUOUS
 10
150.2674918074
 20
31.4649197501
 11
149.7471793074
 21
31.4326554237
 12
150.498741835
 22
31.4971824493
 13
150.498741835
 23
31.4971824493
  0
SOLID
  8
0
 62
7
  6
CONTINUOUS
 10
149.7471793074
 20
31.4326554237
 11
149.8628043005
 21
31.4971824493
 12
150.498741835
 22
31.4971824493
 13
150.498741835
 23
31.4971824493
  0
SOLID
  8
0
 62
7
  6
CONTINUOUS
 10
150.2674918074
 20
31.4649197501
 11
150.1518667936
 21
31.4326554237
 12
149.7471793074
 22
31.4326554237
 13
149.7471793074
 23
31.4326554237
  0
SOLID
  8
0
 62
7
  6
CONTINUOUS
 10
149.6315543091
 20
31.3036012664
 11
149.7471793074
 21
31.4326554237
 12
150.1518667936
 22
31.4326554237
 13
150.1518667936
 23
31.4326554237
  0
SOLID
  8
0
 62
7
  6
CONTINUOUS
 10
153.9674919177
 20
31.4326554237
 11
154.6612419177
 21
31.4971825369
 12
154.4299918074
 22
31.4649197501
 13
154.4299918074
 23
31.4649197501
  0
SOLID
  8
0
 62
7
  6
CONTINUOUS
 10
154.4299918074
 20
31.4649197501
 11
154.3143669177
 21
31.4326554237
 12
153.9674919177
 22
31.4326554237
 13
153.9674919177
 23
31.4326554237
  0
SOLID
  8
0
 62
7
  6
CONTINUOUS
 10
153.9674919177
 20
31.3681283335
 11
153.9674919177
 21
31.4326554237
 12
154.3143669177
 22
31.4326554237
 13
154.3143669177
 23
31.4326554237
  0
SOLID
  8
0
 62
7
  6
CONTINUOUS
 10
154.3143669177
 20
31.4326554237
 11
154.2565543074
 21
31.3681283335
 12
153.9674919177
 22
31.3681283335
 13
153.9674919177
 23
31.3681283335
  0
SOLID
  8
0
 62
7
  6
CONTINUOUS
 10
159.1128043074
 20
31.4326555528
 11
159.8065543074
 21
31.4971825369
 12
159.575304528
 22
31.4649197501
 13
159.575304528
 23
31.4649197501
  0
SOLID
  8
0
 62
7
  6
CONTINUOUS
 10
159.575304528
 20
31.4649197501
 11
159.4596793074
 21
31.4326555528
 12
159.1128043074
 22
31.4326555528
 13
159.1128043074
 23
31.4326555528
  0
SOLID
  8
0
 62
7
  6
CONTINUOUS
 10
159.1128043074
 20
31.3681284626
 11
159.1128043074
 21
31.4326555528
 12
159.4596793074
 22
31.4326555528
 13
159.4596793074
 23
31.4326555528
  0
SOLID
  8
0
 62
7
  6
CONTINUOUS
 10
159.4596793074
 20
31.4326555528
 11
159.401867028
 21
31.3681284626
 12
159.1128043074
 22
31.3681284626
 13
159.1128043074
 23
31.3681284626
  0
SOLID
  8
0
 62
7
  6
CONTINUOUS
 10
159.228429528
 20
31.2390741763
 11
159.1128043074
 21
31.3681284626
 12
159.401867028
 22
31.3681284626
 13
159.401867028
 23
31.3681284626
  0
SOLID
  8
0
 62
7
  6
CONTINUOUS
 10
149.6315543091
 20
31.3036012664
 11
150.1518667936
 21
31.4326554468
 12
149.9784292936
 22
31.3358640533
 13
149.9784292936
 23
31.3358640533
  0
SOLID
  8
0
 62
7
  6
CONTINUOUS
 10
149.9784292936
 20
31.3358640533
 11
149.9206168074
 21
31.2713369632
 12
149.6315543091
 22
31.3036012664
 13
149.6315543091
 23
31.3036012664
  0
SOLID
  8
0
 62
7
  6
CONTINUOUS
 10
149.5737418074
 20
31.1100184796
 11
149.6315543091
 21
31.3036012664
 12
149.9206168074
 22
31.2713369632
 13
149.9206168074
 23
31.2713369632
  0
SOLID
  8
0
 62
7
  6
CONTINUOUS
 10
154.4299918074
 20
31.2390741763
 11
154.7768668074
 21
31.271336924
 12
155.412804528
 22
31.271336924
 13
155.412804528
 23
31.271336924
  0
SOLID
  8
0
 62
7
  6
CONTINUOUS
 10
154.4299918074
 20
31.2390741763
 11
155.412804528
 21
31.271336924
 12
154.1987416972
 22
31.1745462761
 13
154.1987416972
 23
31.1745462761
  0
SOLID
  8
0
 62
7
  6
CONTINUOUS
 10
154.1987416972
 20
31.1745462761
 11
155.412804528
 21
31.271336924
 12
154.7768668074
 22
31.1422827436
 13
154.7768668074
 23
31.1422827436
  0
SOLID
  8
0
 62
7
  6
CONTINUOUS
 10
155.412804528
 20
31.271336924
 11
155.412804528
 21
31.1422827436
 12
154.7768668074
 22
31.1422827436
 13
154.7768668074
 23
31.1422827436
  0
SOLID
  8
0
 62
7
  6
CONTINUOUS
 10
159.228429528
 20
31.2390745501
 11
159.401867028
 21
31.3681283566
 12
159.4596793074
 22
31.3036012664
 13
159.4596793074
 23
31.3036012664
  0
SOLID
  8
0
 62
7
  6
CONTINUOUS
 10
159.4596793074
 20
31.3036012664
 11
159.6331168074
 21
31.2390745501
 12
159.228429528
 22
31.2390745501
 13
159.228429528
 23
31.2390745501
  0
SOLID
  8
0
 62
7
  6
CONTINUOUS
 10
159.4596793074
 20
31.1422827828
 11
159.228429528
 21
31.2390745501
 12
159.6331168074
 22
31.2390745501
 13
159.6331168074
 23
31.2390745501
  0
SOLID
  8
0
 62
7
  6
CONTINUOUS
 10
159.6331168074
 20
31.2390745501
 11
160.615929528
 21
31.0777556927
 12
159.4596793074
 22
31.1422827828
 13
159.4596793074
 23
31.1422827828
  0
SOLID
  8
0
 62
7
  6
CONTINUOUS
 10
160.442492028
 20
30.9809646623
 11
159.4596793074
 21
31.1422827828
 12
160.615929528
 22
31.0777556927
 13
160.615929528
 23
31.0777556927
  0
SOLID
  8
0
 62
7
  6
CONTINUOUS
 10
160.615929528
 20
31.0777556927
 11
160.8471793074
 21
30.9809646623
 12
160.442492028
 22
30.9809646623
 13
160.442492028
 23
30.9809646623
  0
SOLID
  8
0
 62
7
  6
CONTINUOUS
 10
160.615929528
 20
30.9164372091
 11
160.442492028
 21
30.9809646623
 12
160.8471793074
 22
30.9809646623
 13
160.8471793074
 23
30.9809646623
  0
SOLID
  8
0
 62
7
  6
CONTINUOUS
 10
160.615929528
 20
30.9164372091
 11
160.8471793074
 21
30.9809646623
 12
160.6737418074
 22
30.8519089441
 13
160.6737418074
 23
30.8519089441
  0
SOLID
  8
0
 62
7
  6
CONTINUOUS
 10
160.8471793074
 20
30.9809646623
 11
160.9628038663
 21
30.8519089441
 12
160.6737418074
 22
30.8519089441
 13
160.6737418074
 23
30.8519089441
  0
SOLID
  8
0
 62
7
  6
CONTINUOUS
 10
160.615929528
 20
30.7873818593
 11
160.6737418074
 21
30.8519089441
 12
160.9628038663
 22
30.8519089441
 13
160.9628038663
 23
30.8519089441
  0
SOLID
  8
0
 62
7
  6
CONTINUOUS
 10
160.9628038663
 20
30.8519089441
 11
160.9628038663
 21
30.7873818593
 12
160.615929528
 22
30.7873818593
 13
160.615929528
 23
30.7873818593
  0
SOLID
  8
0
 62
7
  6
CONTINUOUS
 10
160.5003043074
 20
30.7551187255
 11
160.615929528
 21
30.7873818593
 12
160.9628038663
 22
30.7873818593
 13
160.9628038663
 23
30.7873818593
  0
SOLID
  8
0
 62
7
  6
CONTINUOUS
 10
160.5003043074
 20
30.7551187255
 11
160.9628038663
 21
30.7873818593
 12
160.269054528
 22
30.7228547745
 13
160.269054528
 23
30.7228547745
  0
SOLID
  8
0
 62
7
  6
CONTINUOUS
 10
160.9628038663
 20
30.7873818593
 11
160.8471793074
 21
30.6905916353
 12
160.269054528
 22
30.7228547745
 13
160.269054528
 23
30.7228547745
  0
SOLID
  8
0
 62
7
  6
CONTINUOUS
 10
160.8471793074
 20
30.6905916353
 11
159.401867028
 21
30.658327332
 12
160.269054528
 22
30.7228547745
 13
160.269054528
 23
30.7228547745
  0
SOLID
  8
0
 62
7
  6
CONTINUOUS
 10
160.269054528
 20
30.7228547745
 11
159.401867028
 21
30.658327332
 12
159.922179528
 22
30.7228547745
 13
159.922179528
 23
30.7228547745
  0
SOLID
  8
0
 62
7
  6
CONTINUOUS
 10
159.401867028
 20
30.658327332
 11
159.228429528
 21
30.7228547745
 12
159.922179528
 22
30.7228547745
 13
159.922179528
 23
30.7228547745
  0
SOLID
  8
0
 62
7
  6
CONTINUOUS
 10
159.401867028
 20
30.658327332
 11
160.8471793074
 21
30.6905916353
 12
159.575304528
 22
30.6260629858
 13
159.575304528
 23
30.6260629858
  0
SOLID
  8
0
 62
7
  6
CONTINUOUS
 10
160.8471793074
 20
30.6905916353
 11
160.615929528
 21
30.6260629858
 12
159.575304528
 22
30.6260629858
 13
159.575304528
 23
30.6260629858
  0
SOLID
  8
0
 62
7
  6
CONTINUOUS
 10
159.922179528
 20
30.5938006049
 11
159.575304528
 21
30.6260629858
 12
160.615929528
 22
30.6260629858
 13
160.615929528
 23
30.6260629858
  0
SOLID
  8
0
 62
7
  6
CONTINUOUS
 10
160.615929528
 20
30.6260629858
 11
160.269054528
 21
30.5938006049
 12
159.922179528
 22
30.5938006049
 13
159.922179528
 23
30.5938006049
  0
SOLID
  8
0
 62
7
  6
CONTINUOUS
 10
149.5737418074
 20
31.1100184796
 11
149.9206168074
 21
31.2713369632
 12
149.8628043005
 22
31.1422827828
 13
149.8628043005
 23
31.1422827828
  0
SOLID
  8
0
 62
7
  6
CONTINUOUS
 10
149.8628043005
 20
31.1422827828
 11
149.8628043005
 21
31.0454914852
 12
149.5737418074
 22
31.1100184796
 13
149.5737418074
 23
31.1100184796
  0
SOLID
  8
0
 62
7
  6
CONTINUOUS
 10
149.6315543091
 20
30.9164372091
 11
149.5737418074
 21
31.1100184796
 12
149.8628043005
 22
31.0454914852
 13
149.8628043005
 23
31.0454914852
  0
SOLID
  8
0
 62
7
  6
CONTINUOUS
 10
149.8628043005
 20
31.0454914852
 11
149.9784292936
 21
30.8841729058
 12
149.6315543091
 22
30.9164372091
 13
149.6315543091
 23
30.9164372091
  0
SOLID
  8
0
 62
7
  6
CONTINUOUS
 10
149.7471793074
 20
30.7873813202
 11
149.6315543091
 21
30.9164372091
 12
149.9784292936
 22
30.8841729058
 13
149.9784292936
 23
30.8841729058
  0
SOLID
  8
0
 62
7
  6
CONTINUOUS
 10
149.9784292936
 20
30.8841729058
 11
150.1518667936
 21
30.7873813202
 12
149.7471793074
 22
30.7873813202
 13
149.7471793074
 23
30.7873813202
  0
SOLID
  8
0
 62
7
  6
CONTINUOUS
 10
149.8628043005
 20
30.7228547004
 11
149.7471793074
 21
30.7873813202
 12
150.1518667936
 22
30.7873813202
 13
150.1518667936
 23
30.7873813202
  0
SOLID
  8
0
 62
7
  6
CONTINUOUS
 10
150.1518667936
 20
30.7873813202
 11
150.498741835
 21
30.7228547004
 12
149.8628043005
 22
30.7228547004
 13
149.8628043005
 23
30.7228547004
  0
SOLID
  8
0
 62
7
  6
CONTINUOUS
 10
150.0362418212
 20
30.658327332
 11
149.8628043005
 21
30.7228547004
 12
150.498741835
 22
30.7228547004
 13
150.498741835
 23
30.7228547004
  0
SOLID
  8
0
 62
7
  6
CONTINUOUS
 10
154.0831168074
 20
31.1100184386
 11
154.1987416972
 21
31.1745462761
 12
154.7768668074
 22
31.1422827828
 13
154.7768668074
 23
31.1422827828
  0
SOLID
  8
0
 62
7
  6
CONTINUOUS
 10
154.7768668074
 20
31.1422827828
 11
154.5456166972
 21
31.1100184386
 12
154.0831168074
 22
31.1100184386
 13
154.0831168074
 23
31.1100184386
  0
SOLID
  8
0
 62
7
  6
CONTINUOUS
 10
153.9674919177
 20
30.9809642992
 11
154.0831168074
 21
31.1100184386
 12
154.5456166972
 22
31.1100184386
 13
154.5456166972
 23
31.1100184386
  0
SOLID
  8
0
 62
7
  6
CONTINUOUS
 10
154.3143669177
 20
31.0132277988
 11
153.9674919177
 21
30.9809642992
 12
154.4299918074
 22
31.0777556927
 13
154.4299918074
 23
31.0777556927
  0
SOLID
  8
0
 62
7
  6
CONTINUOUS
 10
153.9674919177
 20
30.9809642992
 11
154.5456166972
 21
31.1100184796
 12
154.4299918074
 22
31.0777556927
 13
154.4299918074
 23
31.0777556927
  0
SOLID
  8
0
 62
7
  6
CONTINUOUS
 10
154.3143669177
 20
31.0132277988
 11
154.2565543074
 21
30.9164372091
 12
153.9674919177
 22
30.9809642992
 13
153.9674919177
 23
30.9809642992
  0
SOLID
  8
0
 62
7
  6
CONTINUOUS
 10
153.9674919177
 20
30.8841729058
 11
153.9674919177
 21
30.9809642992
 12
154.2565543074
 22
30.9164372091
 13
154.2565543074
 23
30.9164372091
  0
SOLID
  8
0
 62
7
  6
CONTINUOUS
 10
154.2565543074
 20
30.9164372091
 11
154.2565543074
 21
30.8519086025
 12
153.9674919177
 22
30.8841729058
 13
153.9674919177
 23
30.8841729058
  0
SOLID
  8
0
 62
7
  6
CONTINUOUS
 10
154.0253041972
 20
30.7551187255
 11
153.9674919177
 21
30.8841729058
 12
154.2565543074
 22
30.8519086025
 13
154.2565543074
 23
30.8519086025
  0
SOLID
  8
0
 62
7
  6
CONTINUOUS
 10
155.412804528
 20
30.9487004259
 11
155.7018665869
 21
30.8519086025
 12
155.3549915869
 22
30.8841729058
 13
155.3549915869
 23
30.8841729058
  0
SOLID
  8
0
 62
7
  6
CONTINUOUS
 10
155.1815540869
 20
30.7873815123
 11
155.3549915869
 21
30.8841729058
 12
155.7018665869
 22
30.8519086025
 13
155.7018665869
 23
30.8519086025
  0
SOLID
  8
0
 62
7
  6
CONTINUOUS
 10
155.1815540869
 20
30.7873815123
 11
155.7018665869
 21
30.8519086025
 12
155.412804528
 22
30.7551187255
 13
155.412804528
 23
30.7551187255
  0
SOLID
  8
0
 62
7
  6
CONTINUOUS
 10
155.7018665869
 20
30.8519086025
 11
155.759679528
 21
30.6905916353
 12
155.412804528
 22
30.7551187255
 13
155.412804528
 23
30.7551187255
  0
SOLID
  8
0
 62
7
  6
CONTINUOUS
 10
155.4706168074
 20
30.658327332
 11
155.412804528
 21
30.7551187255
 12
155.759679528
 22
30.6905916353
 13
155.759679528
 23
30.6905916353
  0
SOLID
  8
0
 62
7
  6
CONTINUOUS
 10
155.4706168074
 20
30.658327332
 11
155.759679528
 21
30.6905916353
 12
155.5284290869
 22
30.5938002079
 13
155.5284290869
 23
30.5938002079
  0
SOLID
  8
0
 62
7
  6
CONTINUOUS
 10
155.759679528
 20
30.6905916353
 11
155.8174918074
 21
30.5938002079
 12
155.5284290869
 22
30.5938002079
 13
155.5284290869
 23
30.5938002079
  0
SOLID
  8
0
 62
7
  6
CONTINUOUS
 10
151.0768668626
 20
30.8196456577
 11
151.1346793074
 21
30.9164373395
 12
151.4237418626
 22
30.9164373395
 13
151.4237418626
 23
30.9164373395
  0
SOLID
  8
0
 62
7
  6
CONTINUOUS
 10
151.4237418626
 20
30.9164373395
 11
151.3659292523
 21
30.7873815123
 12
151.0768668626
 22
30.8196456577
 13
151.0768668626
 23
30.8196456577
  0
SOLID
  8
0
 62
7
  6
CONTINUOUS
 10
150.9034292799
 20
30.7551187255
 11
151.0768668626
 21
30.8196456577
 12
151.3659292523
 22
30.7873815123
 13
151.3659292523
 23
30.7873815123
  0
SOLID
  8
0
 62
7
  6
CONTINUOUS
 10
150.9034292799
 20
30.7551187255
 11
151.3659292523
 21
30.7873815123
 12
150.498741835
 22
30.7228544222
 13
150.498741835
 23
30.7228544222
  0
SOLID
  8
0
 62
7
  6
CONTINUOUS
 10
151.3659292523
 20
30.7873815123
 11
151.1924917523
 21
30.6905916353
 12
150.498741835
 22
30.7228544222
 13
150.498741835
 23
30.7228544222
  0
SOLID
  8
0
 62
7
  6
CONTINUOUS
 10
150.0362418212
 20
30.658327332
 11
150.498741835
 21
30.7228544222
 12
151.1924917523
 22
30.6905916353
 13
151.1924917523
 23
30.6905916353
  0
SOLID
  8
0
 62
7
  6
CONTINUOUS
 10
150.0362418212
 20
30.658327332
 11
151.1924917523
 21
30.6905916353
 12
150.2096793212
 22
30.6260631011
 13
150.2096793212
 23
30.6260631011
  0
SOLID
  8
0
 62
7
  6
CONTINUOUS
 10
151.1924917523
 20
30.6905916353
 11
150.9612418074
 21
30.6260631011
 12
150.2096793212
 22
30.6260631011
 13
150.2096793212
 23
30.6260631011
  0
SOLID
  8
0
 62
7
  6
CONTINUOUS
 10
150.5565542799
 20
30.5938002419
 11
150.2096793212
 21
30.6260631011
 12
150.9612418074
 22
30.6260631011
 13
150.9612418074
 23
30.6260631011
  0
SOLID
  8
0
 62
7
  6
CONTINUOUS
 10
154.0253041972
 20
30.7551187255
 11
154.2565543074
 21
30.8519086025
 12
154.3143669177
 22
30.7873815123
 13
154.3143669177
 23
30.7873815123
  0
SOLID
  8
0
 62
7
  6
CONTINUOUS
 10
154.3143669177
 20
30.7873815123
 11
154.5456166972
 21
30.7228544222
 12
154.0253041972
 22
30.7551187255
 13
154.0253041972
 23
30.7551187255
  0
SOLID
  8
0
 62
7
  6
CONTINUOUS
 10
154.1987416972
 20
30.658327332
 11
154.0253041972
 21
30.7551187255
 12
154.5456166972
 22
30.7228544222
 13
154.5456166972
 23
30.7228544222
  0
SOLID
  8
0
 62
7
  6
CONTINUOUS
 10
154.8924916972
 20
30.7228544637
 11
155.1815540869
 21
30.7873815123
 12
155.412804528
 22
30.7551187255
 13
155.412804528
 23
30.7551187255
  0
SOLID
  8
0
 62
7
  6
CONTINUOUS
 10
155.412804528
 20
30.7551187255
 11
155.3549915869
 21
30.6905916353
 12
154.8924916972
 22
30.7228544637
 13
154.8924916972
 23
30.7228544637
  0
SOLID
  8
0
 62
7
  6
CONTINUOUS
 10
155.3549915869
 20
30.6905916353
 11
154.1987416972
 21
30.658327332
 12
154.8924916972
 22
30.7228544637
 13
154.8924916972
 23
30.7228544637
  0
SOLID
  8
0
 62
7
  6
CONTINUOUS
 10
154.1987416972
 20
30.658327332
 11
154.5456166972
 21
30.7228544637
 12
154.8924916972
 22
30.7228544637
 13
154.8924916972
 23
30.7228544637
  0
SOLID
  8
0
 62
7
  6
CONTINUOUS
 10
154.1987416972
 20
30.658327332
 11
155.3549915869
 21
30.6905916353
 12
154.3143669177
 22
30.6260630541
 13
154.3143669177
 23
30.6260630541
  0
SOLID
  8
0
 62
7
  6
CONTINUOUS
 10
155.3549915869
 20
30.6905916353
 11
155.1815540869
 21
30.6260630541
 12
154.3143669177
 22
30.6260630541
 13
154.3143669177
 23
30.6260630541
  0
SOLID
  8
0
 62
7
  6
CONTINUOUS
 10
154.5456166972
 20
30.5938002188
 11
154.3143669177
 21
30.6260630541
 12
155.1815540869
 22
30.6260630541
 13
155.1815540869
 23
30.6260630541
  0
SOLID
  8
0
 62
7
  6
CONTINUOUS
 10
155.1815540869
 20
30.6260630541
 11
154.8924916972
 21
30.5938002188
 12
154.5456166972
 22
30.5938002188
 13
154.5456166972
 23
30.5938002188
  0
SOLID
  8
0
 62
7
  6
CONTINUOUS
 10
159.575304528
 20
30.7551187255
 11
159.228429528
 21
30.7228544637
 12
159.4596793074
 22
30.7873815123
 13
159.4596793074
 23
30.7873815123
  0
SOLID
  8
0
 62
7
  6
CONTINUOUS
 10
159.4596793074
 20
30.7873815123
 11
159.228429528
 21
30.7228544637
 12
159.401867028
 22
30.851908644
 13
159.401867028
 23
30.851908644
  0
SOLID
  8
0
 62
7
  6
CONTINUOUS
 10
159.228429528
 20
30.7228544637
 11
159.1128043074
 21
30.851908644
 12
159.401867028
 22
30.851908644
 13
159.401867028
 23
30.851908644
  0
SOLID
  8
0
 62
7
  6
CONTINUOUS
 10
159.575304528
 20
30.7551187255
 11
159.922179528
 21
30.7228544637
 12
159.228429528
 22
30.7228544637
 13
159.228429528
 23
30.7228544637
  0
SOLID
  8
0
 62
7
  6
CONTINUOUS
 10
156.279992028
 20
30.5938002419
 11
156.279992028
 21
31.6262382337
 12
156.5690540869
 22
30.5938002419
 13
156.5690540869
 23
31.6262382337
  0
ENDBLK
  8
0
  6
BYBLOCK
 62
0
  0
BLOCK
  8
0
 62
2
  6
CONTINUOUS
  2
SYMBOL_3_BL0
 70
64
 10
32.1213064866
 20
19.8534310916
  0
TEXT
  8
0
 62
7
  6
CONTINUOUS
 10
18.3860103289
 20
19.2268451992
  7
TEXTSTYLE_3
 40
2.7338706658
  1
Ammeraal Beltech
 41
1.0
 51
15.0
 72
0
  0
TEXT
  8
0
 62
7
  6
CONTINUOUS
 10
29.1868111546
 20
16.9533085264
  7
TEXTSTYLE_4
 40
1.0935482663
  1
Innovation & Service in Belting
 41
1.0
 72
0
  0
LINE
  8
0
 62
7
  6
CONTINUOUS
 10
12.3614696776
 20
19.9934385078
 11
13.1396216709
 21
23.6543558055
  0
LINE
  8
0
 62
7
  6
CONTINUOUS
 10
23.2347899607
 20
27.3177497171
 11
13.6274394139
 21
24.1961322958
  0
LINE
  8
0
 62
7
  6
CONTINUOUS
 10
12.5867530099
 20
19.3000877048
 11
20.093828271
 21
12.5406867788
  0
LINE
  8
0
 62
7
  6
CONTINUOUS
 10
12.8492874206
 20
20.5352149982
 11
23.6575567857
 21
24.0470345971
  0
LINE
  8
0
 62
7
  6
CONTINUOUS
 10
23.6533516486
 20
13.6972460334
 11
15.2078919798
 21
21.3015720751
  0
LINE
  8
0
 62
7
  6
CONTINUOUS
 10
24.1731743684
 20
26.4728246013
 11
23.1966148312
 21
21.8784731989
  0
LINE
  8
0
 62
7
  6
CONTINUOUS
 10
22.4968128835
 20
18.5861638851
 11
21.810364672
 21
15.3566789607
  0
LINE
  8
0
 62
7
  6
CONTINUOUS
 10
24.8542704669
 20
14.087448211
 11
25.8105020025
 21
18.5861638851
  0
LINE
  8
0
 62
7
  6
CONTINUOUS
 10
26.5103039502
 20
21.8784731989
 11
26.9545457526
 21
23.9684665583
  0
LINE
  8
0
 62
7
  6
CONTINUOUS
 10
20.8069293463
 20
12.3891124661
 11
24.3664527239
 21
13.5456717207
  0
LINE
  8
0
 62
7
  6
CONTINUOUS
 10
23.9478910361
 20
27.1661754044
 11
26.7292624203
 21
24.6618173613
  0
ARC
  8
0
 62
7
  6
CONTINUOUS
 10
13.8527227462
 20
23.5027814928
 40
0.7290321776
 50
108.0
 51
168.0
  0
ARC
  8
0
 62
7
  6
CONTINUOUS
 10
23.4600732931
 20
26.624398914
 40
0.7290321776
 50
348.0
 51
108.0
  0
ARC
  8
0
 62
7
  6
CONTINUOUS
 10
26.2414446773
 20
24.120040871
 40
0.7290321776
 50
348.0
 51
48.0
  0
ARC
  8
0
 62
7
  6
CONTINUOUS
 10
20.581646014
 20
13.0824632691
 40
0.7290321776
 50
228.0
 51
288.0
  0
ARC
  8
0
 62
7
  6
CONTINUOUS
 10
13.0745707529
 20
19.8418641951
 40
0.7290321776
 50
108.0
 51
228.0
  0
ARC
  8
0
 62
7
  6
CONTINUOUS
 10
24.1411693916
 20
14.2390225237
 40
0.7290321776
 50
228.0
 51
348.0
  0
ENDBLK
  8
0
  6
BYBLOCK
 62
0
  0
ENDSEC
  0
SECTION
  2
ENTITIES
  0
TEXT
  8
0
 62
5
  6
CONTINUOUS
 10
96.0
 20
25.636
  7
TEXTSTYLE_2
 40
2.8
  1
Scale :
 41
0.6
 51
0.000019
 72
0
  0
TEXT
  8
0
 62
5
  6
CONTINUOUS
 10
116.0
 20
25.636
  7
TEXTSTYLE_2
 40
2.8
  1
Belt type:
 41
0.6
 51
0.000019
 72
0
  0
INSERT
  8
0
 62
2
  6
CONTINUOUS
  2
SYMBOL_3_BL0
 10
32.1213064866
 20
19.8534310916
  0
INSERT
  8
0
 62
2
  6
CONTINUOUS
  2
SYMBOL_8_BL1
 10
173.5956734183
 20
35.5937998301
  0
LINE
  8
0
 62
2
  6
CONTINUOUS
 10
10.0
 20
30.0
 11
200.0
 21
30.0
  0
LINE
  8
0
 62
2
  6
CONTINUOUS
 10
10.0
 20
30.0
 11
10.0
 21
10.0
  0
LINE
  8
0
 62
2
  6
CONTINUOUS
 10
10.0
 20
10.0
 11
200.0
 21
10.0
  0
LINE
  8
0
 62
2
  6
CONTINUOUS
 10
95.0
 20
30.0
 11
95.0
 21
10.0
  0
LINE
  8
0
 62
2
  6
CONTINUOUS
 10
115.0
 20
30.0
 11
115.0
 21
10.0
  0
LINE
  8
0
 62
2
  6
CONTINUOUS
 10
200.0
 20
30.0
 11
200.0
 21
10.0
  0
TEXT
  8
0
 62
5
  6
CONTINUOUS
 10
13.0
 20
23.303
  7
TEXTSTYLE_5
 40
1.52
  1
                                                                     Ammeraal Beltech Modular A/S
 41
1.0
 72
0
  0
TEXT
  8
0
 62
5
  6
CONTINUOUS
 10
13.0
 20
20.595
  7
TEXTSTYLE_5
 40
1.5
  1
                                                                      Hjulmagervej 21,  7100 Vejle,  DK
 41
1.0
 72
0
  0
TEXT
  8
0
 62
5
  6
CONTINUOUS
 10
13.0
 20
17.881
  7
TEXTSTYLE_5
 40
1.495
  1
                                                                      tel: 
 41
1.0
 72
0
  0
TEXT
  8
0
 62
5
  6
CONTINUOUS
 10
57.9869465649
 20
17.881
  7
TEXTSTYLE_5
 40
1.51
  1
+45 75723100     fax: +45 75723348
 41
1.0
 72
0
  0
TEXT
  8
0
 62
5
  6
CONTINUOUS
 10
13.0
 20
15.177
  7
TEXTSTYLE_5
 40
1.5
  1
                                                                      admin@unichains.dk  www.unichains.com
 41
1.0
 72
0
  0
TEXT
  8
0
 62
5
  6
CONTINUOUS
 10
99.75
 20
13.75
  7
TEXTSTYLE_6
 40
5.0
  1
1:1
 41
0.7
 72
1
 11
105.0
 21
13.75
  0
TEXT
  8
0
 62
5
  6
CONTINUOUS
 10
118.0
 20
13.75
  7
TEXTSTYLE_7
 40
7.5
  1
Sprocket Z16 Idlers
 41
0.5973684211
 72
0
  0
LINE
  8
0
 62
7
  6
CONTINUOUS
 10
210.0
 20
0.0
 11
0.0
 21
0.0
  0
LINE
  8
0
 62
7
  6
CONTINUOUS
 10
10.0
 20
10.0
 11
200.0
 21
10.0
  0
LINE
  8
0
 62
7
  6
CONTINUOUS
 10
10.0
 20
30.0
 11
200.0
 21
30.0
  0
LINE
  8
0
 62
7
  6
CONTINUOUS
 10
0.0
 20
0.0
 11
0.0
 21
297.0
  0
LINE
  8
0
 62
7
  6
CONTINUOUS
 10
10.0
 20
10.0
 11
10.0
 21
287.0
  0
LINE
  8
0
 62
7
  6
CONTINUOUS
 10
200.0
 20
287.0
 11
200.0
 21
10.0
  0
LINE
  8
0
 62
7
  6
CONTINUOUS
 10
210.0
 20
0.0
 11
210.0
 21
297.0
  0
LINE
  8
0
 62
7
  6
CONTINUOUS
 10
10.0
 20
287.0
 11
200.0
 21
287.0
  0
LINE
  8
0
 62
7
  6
CONTINUOUS
 10
0.0
 20
297.0
 11
210.0
 21
297.0
  0
LINE
  8
0
 62
7
  6
CONTINUOUS
 10
63.7523895222
 20
257.0555349539
 11
63.4648225226
 21
256.7357950714
  0
LINE
  8
0
 62
7
  6
CONTINUOUS
 10
63.7009868185
 20
256.3818122689
 11
63.9885538336
 21
256.7015521282
  0
LINE
  8
0
 62
7
  6
CONTINUOUS
 10
65.3129005154
 20
261.4183267612
 11
65.0088663291
 21
261.1142020734
  0
LINE
  8
0
 62
7
  6
CONTINUOUS
 10
65.2260280126
 20
260.7482537565
 11
65.5300621989
 21
261.0523784443
  0
LINE
  8
0
 62
7
  6
CONTINUOUS
 10
80.2821149746
 20
268.1791644063
 11
80.0187247403
 21
267.9801690045
  0
LINE
  8
0
 62
7
  6
CONTINUOUS
 10
63.0248010108
 20
260.0230294094
 11
62.5915407134
 21
259.733974087
  0
LINE
  8
0
 62
7
  6
CONTINUOUS
 10
60.8584999271
 20
258.5777530665
 11
60.4252397227
 21
258.2886978062
  0
LINE
  8
0
 62
7
  6
CONTINUOUS
 10
63.4648225226
 20
256.7357950714
 11
63.1182143095
 21
256.5045508301
  0
LINE
  8
0
 62
7
  6
CONTINUOUS
 10
63.3543786054
 20
256.1505680276
 11
63.7009868185
 21
256.3818122689
  0
LINE
  8
0
 62
7
  6
CONTINUOUS
 10
64.6541592494
 20
257.0177338292
 11
65.0874195468
 21
257.3067891515
  0
LINE
  8
0
 62
7
  6
CONTINUOUS
 10
80.5144425091
 20
267.80774598
 11
80.876748112
 21
268.0394003755
  0
LINE
  8
0
 62
7
  6
CONTINUOUS
 10
65.6712251226
 20
261.6309643697
 11
65.3129005154
 21
261.4183267612
  0
LINE
  8
0
 62
7
  6
CONTINUOUS
 10
64.5066705337
 20
260.9398923701
 11
64.0587649028
 21
260.6740954354
  0
LINE
  8
0
 62
7
  6
CONTINUOUS
 10
65.7960585233
 20
257.7465086442
 11
66.2439641541
 21
258.0123055788
  0
LINE
  8
0
 62
7
  6
CONTINUOUS
 10
67.8564241176
 20
258.969174361
 11
68.3043294921
 21
259.2349711436
  0
LINE
  8
0
 62
7
  6
CONTINUOUS
 10
67.0911237457
 20
264.264972633
 11
66.6344349293
 21
264.0145680022
  0
LINE
  8
0
 62
7
  6
CONTINUOUS
 10
66.8901673852
 20
263.5481622801
 11
67.3468562016
 21
263.7985669109
  0
LINE
  8
0
 62
7
  6
CONTINUOUS
 10
67.8583212568
 20
262.8657552054
 11
67.4016324404
 21
262.6153505747
  0
LINE
  8
0
 62
7
  6
CONTINUOUS
 10
69.0383203016
 20
259.6303536921
 11
69.4950091181
 21
259.8807583229
  0
LINE
  8
0
 62
7
  6
CONTINUOUS
 10
80.8422490507
 20
268.4761360418
 11
80.2821149746
 21
268.1791644063
  0
LINE
  8
0
 62
7
  6
CONTINUOUS
 10
82.3362842064
 20
265.9445707571
 11
81.6772347734
 21
265.6149400926
  0
LINE
  8
0
 62
7
  6
CONTINUOUS
 10
81.9095645836
 20
265.2435223783
 11
82.5686117614
 21
265.5731522689
  0
LINE
  8
0
 62
7
  6
CONTINUOUS
 10
76.2492341326
 20
268.5451323532
 11
72.7884166688
 21
267.1010954832
  0
LINE
  8
0
 62
7
  6
CONTINUOUS
 10
73.6110130599
 20
266.7526930521
 11
76.4950276131
 21
267.9560571105
  0
LINE
  8
0
 62
7
  6
CONTINUOUS
 10
76.6430442617
 20
266.5192782956
 11
74.1435657157
 21
265.4763630844
  0
LINE
  8
0
 62
7
  6
CONTINUOUS
 10
74.3893591962
 20
264.8872878416
 11
76.8888377422
 21
265.9302030528
  0
LINE
  8
0
 62
7
  6
CONTINUOUS
 10
74.7137991622
 20
262.4866721981
 11
75.2906020728
 21
262.7273450097
  0
LINE
  8
0
 62
7
  6
CONTINUOUS
 10
94.0054805149
 20
272.4395834348
 11
94.4043945554
 21
272.6001969373
  0
LINE
  8
0
 62
7
  6
CONTINUOUS
 10
96.1222863971
 20
269.1805198781
 11
95.7233723566
 21
269.0199063756
  0
LINE
  8
0
 62
7
  6
CONTINUOUS
 10
77.7087756221
 20
269.0750623351
 11
77.2205458884
 21
268.8936801359
  0
LINE
  8
0
 62
7
  6
CONTINUOUS
 10
78.9618136722
 20
264.2066782685
 11
79.4500434059
 21
264.3880604676
  0
LINE
  8
0
 62
7
  6
CONTINUOUS
 10
62.9487293804
 20
256.0078195283
 11
63.3543786054
 21
256.1505680276
  0
LINE
  8
0
 62
7
  6
CONTINUOUS
 10
94.3198834179
 20
273.2328753267
 11
93.8177189791
 21
273.0584699691
  0
LINE
  8
0
 62
7
  6
CONTINUOUS
 10
95.807883504
 20
268.3872279124
 11
96.3100455783
 21
268.5616329635
  0
LINE
  8
0
 62
7
  6
CONTINUOUS
 10
82.2316369704
 20
267.5904929713
 11
80.154430078
 21
266.9046593357
  0
LINE
  8
0
 62
7
  6
CONTINUOUS
 10
80.18893145
 20
266.4679242754
 11
82.8596260261
 21
267.3497103784
  0
LINE
  8
0
 62
7
  6
CONTINUOUS
 10
83.059747671
 20
266.7435953696
 11
82.565173092
 21
266.5803011485
  0
LINE
  8
0
 62
7
  6
CONTINUOUS
 10
65.5300621989
 20
261.0523784443
 11
65.942677227
 21
261.1735289736
  0
LINE
  8
0
 62
7
  6
CONTINUOUS
 10
65.0088663291
 20
261.1142020734
 11
64.8487040999
 21
260.7717499367
  0
LINE
  8
0
 62
7
  6
CONTINUOUS
 10
65.0658657835
 20
260.4058016198
 11
65.2260280126
 21
260.7482537565
  0
LINE
  8
0
 62
7
  6
CONTINUOUS
 10
63.9885538336
 20
256.7015521282
 11
64.1028169281
 21
256.9056699908
  0
LINE
  8
0
 62
7
  6
CONTINUOUS
 10
80.0187247403
 20
267.9801690045
 11
79.7886881135
 21
267.6801544346
  0
LINE
  8
0
 62
7
  6
CONTINUOUS
 10
80.3499676434
 20
267.6414095719
 11
80.5144425091
 21
267.80774598
  0
LINE
  8
0
 62
7
  6
CONTINUOUS
 10
82.5686117614
 20
265.5731522689
 11
82.897563748
 21
265.9058258591
  0
LINE
  8
0
 62
7
  6
CONTINUOUS
 10
93.7239020624
 20
272.187315389
 11
94.0054805149
 21
272.4395834348
  0
LINE
  8
0
 62
7
  6
CONTINUOUS
 10
93.8177189791
 20
273.0584699691
 11
93.4328924915
 21
272.792410384
  0
LINE
  8
0
 62
7
  6
CONTINUOUS
 10
96.3100455783
 20
268.5616329635
 11
96.6948744254
 21
268.827692892
  0
LINE
  8
0
 62
7
  6
CONTINUOUS
 10
121.6816802149
 20
271.4383886539
 11
122.0330781897
 21
271.5778341814
  0
LINE
  8
0
 62
7
  6
CONTINUOUS
 10
121.6528485687
 20
270.3547344855
 11
120.9500526191
 21
270.0758434303
  0
LINE
  8
0
 62
7
  6
CONTINUOUS
 10
121.2870324766
 20
269.6734625394
 11
121.6384304514
 21
269.8129080669
  0
LINE
  8
0
 62
7
  6
CONTINUOUS
 10
122.047496307
 20
272.1196606
 11
121.4695696542
 21
271.9218581229
  0
LINE
  8
0
 62
7
  6
CONTINUOUS
 10
154.0907136319
 20
137.4962384301
 11
154.1684197753
 21
137.5182787272
  0
LINE
  8
0
 62
7
  6
CONTINUOUS
 10
154.2264165458
 20
137.6597742671
 11
154.1487106877
 21
137.6377342554
  0
LINE
  8
0
 62
7
  6
CONTINUOUS
 10
155.337541856
 20
138.7430666542
 11
155.4152479995
 21
138.7651069513
  0
LINE
  8
0
 62
7
  6
CONTINUOUS
 10
156.3100677966
 20
139.7155925948
 11
156.3877737974
 21
139.7376327493
  0
LINE
  8
0
 62
7
  6
CONTINUOUS
 10
156.4457707105
 20
139.8791284319
 11
156.3680647098
 21
139.8570882775
  0
LINE
  8
0
 62
7
  6
CONTINUOUS
 10
155.7296034717
 20
139.7474526382
 11
155.6130443918
 21
139.7143923425
  0
LINE
  8
0
 62
7
  6
CONTINUOUS
 10
157.1689310492
 20
140.6022887705
 11
157.2854901217
 21
140.6353490735
  0
LINE
  8
0
 62
7
  6
CONTINUOUS
 10
157.4142695845
 20
141.4042858279
 11
157.5308286668
 21
141.4373461211
  0
LINE
  8
0
 62
7
  6
CONTINUOUS
 10
157.5888255166
 20
141.57884176
 11
157.5111194664
 21
141.5568015658
  0
LINE
  8
0
 62
7
  6
CONTINUOUS
 10
63.8942635133
 20
257.4059595
 11
63.7523895222
 21
257.0555349539
  0
LINE
  8
0
 62
7
  6
CONTINUOUS
 10
93.4328924915
 20
272.792410384
 11
93.0762340198
 21
272.3154576868
  0
LINE
  8
0
 62
7
  6
CONTINUOUS
 10
82.5663208332
 20
266.2445853271
 11
82.3362842064
 21
265.9445707571
  0
LINE
  8
0
 62
7
  6
CONTINUOUS
 10
96.4038648397
 20
269.4327879978
 11
96.1222863971
 21
269.1805198781
  0
LINE
  8
0
 62
7
  6
CONTINUOUS
 10
122.8935008634
 20
267.7881055396
 11
122.5421028886
 21
267.648660012
  0
LINE
  8
0
 62
7
  6
CONTINUOUS
 10
122.5276847571
 20
267.1068335299
 11
123.105611416
 21
267.3046360342
  0
LINE
  8
0
 62
7
  6
CONTINUOUS
 10
64.1028169281
 20
256.9056699908
 11
64.1856496955
 21
257.3445901935
  0
LINE
  8
0
 62
7
  6
CONTINUOUS
 10
64.8487040999
 20
260.7717499367
 11
64.7781226381
 21
260.482456974
  0
LINE
  8
0
 62
7
  6
CONTINUOUS
 10
64.9952843216
 20
260.1165086571
 11
65.0658657835
 21
260.4058016198
  0
LINE
  8
0
 62
7
  6
CONTINUOUS
 10
86.1272095368
 20
270.018567831
 11
85.3786170986
 21
268.3860309324
  0
LINE
  8
0
 62
7
  6
CONTINUOUS
 10
84.7953280735
 20
266.1369721455
 11
85.5439181702
 21
267.7695085706
  0
LINE
  8
0
 62
7
  6
CONTINUOUS
 10
85.1594286152
 20
267.9968410391
 11
84.1916499965
 21
265.9751148647
  0
LINE
  8
0
 62
7
  6
CONTINUOUS
 10
85.7631066922
 20
268.15869832
 11
86.7308876137
 21
270.1804251118
  0
LINE
  8
0
 62
7
  6
CONTINUOUS
 10
79.7886881135
 20
267.6801544346
 11
79.6575645913
 21
267.4127981108
  0
LINE
  8
0
 62
7
  6
CONTINUOUS
 10
80.1532846241
 20
267.2403758338
 11
80.3499676434
 21
267.6414095719
  0
LINE
  8
0
 62
7
  6
CONTINUOUS
 10
82.897563748
 20
265.9058258591
 11
83.0942467557
 21
266.3068596325
  0
LINE
  8
0
 62
7
  6
CONTINUOUS
 10
96.6948744254
 20
268.827692892
 11
97.0515328922
 21
269.3046456261
  0
LINE
  8
0
 62
7
  6
CONTINUOUS
 10
121.4695696542
 20
271.9218581229
 11
121.0717425414
 21
271.5747742631
  0
LINE
  8
0
 62
7
  6
CONTINUOUS
 10
119.2963421956
 20
272.762894666
 11
118.5508943667
 21
272.1388097582
  0
LINE
  8
0
 62
7
  6
CONTINUOUS
 10
118.4022624504
 20
271.300824955
 11
119.1477103314
 21
271.9249101562
  0
LINE
  8
0
 62
7
  6
CONTINUOUS
 10
113.5579252001
 20
269.1953790644
 11
117.5333364491
 21
272.3294404054
  0
LINE
  8
0
 62
7
  6
CONTINUOUS
 10
117.0440110575
 20
272.6071075079
 11
112.9652911528
 21
269.4863760195
  0
LINE
  8
0
 62
7
  6
CONTINUOUS
 10
121.037293883
 20
269.5112853832
 11
121.2870324766
 21
269.6734625394
  0
LINE
  8
0
 62
7
  6
CONTINUOUS
 10
132.0853137457
 20
267.3577245154
 11
131.6795862305
 21
267.1709159166
  0
LINE
  8
0
 62
7
  6
CONTINUOUS
 10
132.9107502888
 20
263.9686085615
 11
133.1812323354
 21
264.0931487778
  0
LINE
  8
0
 62
7
  6
CONTINUOUS
 10
137.363353355
 20
265.0946242741
 11
137.0844402181
 21
264.9903158662
  0
LINE
  8
0
 62
7
  6
CONTINUOUS
 10
137.3263969701
 20
264.5245619509
 11
137.7447645164
 21
264.6810255741
  0
LINE
  8
0
 62
7
  6
CONTINUOUS
 10
138.4048767696
 20
261.6699213664
 11
138.8232400136
 21
261.8263870458
  0
LINE
  8
0
 62
7
  6
CONTINUOUS
 10
141.4172950175
 20
263.115904545
 11
141.1338998805
 21
263.0244824942
  0
LINE
  8
0
 62
7
  6
CONTINUOUS
 10
153.0016289041
 20
136.4906524718
 11
153.1071676854
 21
136.4848595604
  0
LINE
  8
0
 62
7
  6
CONTINUOUS
 10
153.1790809174
 20
136.6124386388
 11
153.1263115268
 21
136.6153350945
  0
LINE
  8
0
 62
7
  6
CONTINUOUS
 10
152.7789654895
 20
136.7133158865
 11
152.8845042805
 21
136.7075229653
  0
LINE
  8
0
 62
7
  6
CONTINUOUS
 10
152.9564175125
 20
136.8351020437
 11
152.9036481121
 21
136.8379985091
  0
LINE
  8
0
 62
7
  6
CONTINUOUS
 10
153.6221464178
 20
137.1668358318
 11
153.6749158084
 21
137.1639393761
  0
LINE
  8
0
 62
7
  6
CONTINUOUS
 10
153.7995987164
 20
137.2886222841
 11
153.6940596498
 21
137.2944149102
  0
LINE
  8
0
 62
7
  6
CONTINUOUS
 10
153.3994830031
 20
137.3894992465
 11
153.4522523938
 21
137.3866027908
  0
LINE
  8
0
 62
7
  6
CONTINUOUS
 10
153.5769353018
 20
137.5112856988
 11
153.4713962303
 21
137.5170783297
  0
LINE
  8
0
 62
7
  6
CONTINUOUS
 10
155.4483083025
 20
138.8816660238
 11
155.3955386264
 21
138.8845621942
  0
LINE
  8
0
 62
7
  6
CONTINUOUS
 10
155.0644399675
 20
139.1657879182
 11
155.0116705744
 21
139.1686843763
  0
LINE
  8
0
 62
7
  6
CONTINUOUS
 10
155.6188370252
 20
139.6088532686
 11
155.6716065585
 21
139.6059569555
  0
LINE
  8
0
 62
7
  6
CONTINUOUS
 10
156.2572982633
 20
139.7184889079
 11
156.3100677966
 21
139.7155925948
  0
LINE
  8
0
 62
7
  6
CONTINUOUS
 10
157.6943644971
 20
141.5730490283
 11
157.5888255166
 21
141.57884176
  0
LINE
  8
0
 62
7
  6
CONTINUOUS
 10
63.8904443101
 20
257.7870687199
 11
63.8942635133
 21
257.4059595
  0
LINE
  8
0
 62
7
  6
CONTINUOUS
 10
93.5596592372
 20
271.8433925046
 11
93.7239020624
 21
272.187315389
  0
LINE
  8
0
 62
7
  6
CONTINUOUS
 10
96.5681077044
 20
269.7767105868
 11
96.4038648397
 21
269.4327879978
  0
LINE
  8
0
 62
7
  6
CONTINUOUS
 10
121.4087270523
 20
271.1723923316
 11
121.6816802149
 21
271.4383886539
  0
LINE
  8
0
 62
7
  6
CONTINUOUS
 10
123.1664540423
 20
268.0541019346
 11
122.8935008634
 21
267.7881055396
  0
LINE
  8
0
 62
7
  6
CONTINUOUS
 10
123.105611416
 20
267.3046360342
 11
123.5034385369
 21
267.6517199304
  0
LINE
  8
0
 62
7
  6
CONTINUOUS
 10
131.9172246255
 20
266.6248214917
 11
132.2256234899
 21
266.8487581185
  0
LINE
  8
0
 62
7
  6
CONTINUOUS
 10
133.5439787971
 20
264.7517958498
 11
133.2355754509
 21
264.5278608529
  0
LINE
  8
0
 62
7
  6
CONTINUOUS
 10
143.5215074931
 20
262.1130665802
 11
143.1804678002
 21
261.9429213473
  0
LINE
  8
0
 62
7
  6
CONTINUOUS
 10
144.6408695024
 20
258.2524303766
 11
144.9819092141
 21
258.4225756416
  0
LINE
  8
0
 62
7
  6
CONTINUOUS
 10
140.8369550595
 20
262.4594622733
 11
141.3115427896
 21
262.690763168
  0
LINE
  8
0
 62
7
  6
CONTINUOUS
 10
153.8543124049
 20
254.6404360116
 11
154.3614158966
 21
254.7873362025
  0
LINE
  8
0
 62
7
  6
CONTINUOUS
 10
157.5308286668
 20
141.4373461211
 11
157.6502840969
 21
141.4176369353
  0
LINE
  8
0
 62
7
  6
CONTINUOUS
 10
154.0240277797
 20
137.5130513474
 11
154.0907136319
 21
137.4962384301
  0
LINE
  8
0
 62
7
  6
CONTINUOUS
 10
155.2708560038
 20
138.7598795715
 11
155.337541856
 21
138.7430666542
  0
LINE
  8
0
 62
7
  6
CONTINUOUS
 10
154.8869876664
 20
139.0440014683
 11
154.9536735235
 21
139.0271885461
  0
LINE
  8
0
 62
7
  6
CONTINUOUS
 10
155.131125827
 20
139.1489749936
 11
155.0644399675
 21
139.1657879182
  0
LINE
  8
0
 62
7
  6
CONTINUOUS
 10
79.6575645913
 20
267.4127981108
 11
79.593150548
 21
266.9434041983
  0
LINE
  8
0
 62
7
  6
CONTINUOUS
 10
80.1210764705
 20
267.0056785038
 11
80.1532846241
 21
267.2403758338
  0
LINE
  8
0
 62
7
  6
CONTINUOUS
 10
93.0762340198
 20
272.3154576868
 11
92.9260763448
 21
271.8660886996
  0
LINE
  8
0
 62
7
  6
CONTINUOUS
 10
97.0515328922
 20
269.3046456261
 11
97.2016905574
 21
269.7540146872
  0
LINE
  8
0
 62
40
  6
CONTINUOUS
 10
67.8321379944
 20
203.6635563608
 11
95.6537302913
 21
231.4851486577
  0
LINE
  8
0
 62
40
  6
CONTINUOUS
 10
101.1926406129
 20
234.7613172796
 11
99.7784270506
 21
233.3471037172
  0
LINE
  8
0
 62
40
  6
CONTINUOUS
 10
64.5559693725
 20
198.1246460391
 11
65.9701829349
 21
199.5388596015
  0
LINE
  8
0
 62
7
  6
CONTINUOUS
 10
131.6795862305
 20
267.1709159166
 11
131.5064283861
 21
267.0092493892
  0
LINE
  8
0
 62
7
  6
CONTINUOUS
 10
133.1812323354
 20
264.0931487778
 11
133.3543946484
 21
264.2548136404
  0
LINE
  8
0
 62
7
  6
CONTINUOUS
 10
137.0844402181
 20
264.9903158662
 11
136.7152829645
 21
264.693328084
  0
LINE
  8
0
 62
7
  6
CONTINUOUS
 10
137.1418140251
 20
264.3760700824
 11
137.3263969701
 21
264.5245619509
  0
LINE
  8
0
 62
7
  6
CONTINUOUS
 10
143.5224133572
 20
261.4961477719
 11
143.7198140443
 21
261.6271197815
  0
LINE
  8
0
 62
7
  6
CONTINUOUS
 10
144.6399636571
 20
258.869349217
 11
144.44256297
 21
258.7383772074
  0
LINE
  8
0
 62
7
  6
CONTINUOUS
 10
156.2525767381
 20
254.7452658906
 11
155.8153661118
 21
254.5627126412
  0
LINE
  8
0
 62
7
  6
CONTINUOUS
 10
156.600427743
 20
249.7706295265
 11
157.0376384185
 21
249.953182832
  0
LINE
  8
0
 62
7
  6
CONTINUOUS
 10
157.2796973529
 20
140.7408879974
 11
157.2130114293
 21
140.7577008434
  0
LINE
  8
0
 62
7
  6
CONTINUOUS
 10
155.8102057952
 20
139.7167232495
 11
155.7296034717
 21
139.7474526382
  0
LINE
  8
0
 62
7
  6
CONTINUOUS
 10
156.3680647098
 20
139.8570882775
 11
156.2874622533
 21
139.8878175137
  0
LINE
  8
0
 62
7
  6
CONTINUOUS
 10
157.0883285927
 20
140.6330180067
 11
157.1689310492
 21
140.6022887705
  0
LINE
  8
0
 62
40
  6
CONTINUOUS
 10
67.8321379944
 20
184.3211263525
 11
95.6537302913
 21
156.4995340557
  0
LINE
  8
0
 62
40
  6
CONTINUOUS
 10
99.7784270506
 20
154.6375789962
 11
101.1926406129
 21
153.2233654338
  0
LINE
  8
0
 62
40
  6
CONTINUOUS
 10
65.9701829349
 20
188.4458231118
 11
64.5559693725
 21
189.8600366742
  0
LINE
  8
0
 62
7
  6
CONTINUOUS
 10
121.237423899
 20
270.8836661711
 11
121.4087270523
 21
271.1723923316
  0
LINE
  8
0
 62
7
  6
CONTINUOUS
 10
120.8659907622
 20
269.2225593681
 11
121.037293883
 21
269.5112853832
  0
LINE
  8
0
 62
7
  6
CONTINUOUS
 10
121.0717425414
 20
271.5747742631
 11
120.7523601757
 21
271.1011393178
  0
LINE
  8
0
 62
7
  6
CONTINUOUS
 10
123.5034385369
 20
267.6517199304
 11
123.8228208538
 21
268.1253546575
  0
LINE
  8
0
 62
7
  6
CONTINUOUS
 10
131.7061455014
 20
266.3637602359
 11
131.9172246255
 21
266.6248214917
  0
LINE
  8
0
 62
7
  6
CONTINUOUS
 10
163.3747689121
 20
249.0619281022
 11
159.0966065569
 21
247.0364608645
  0
LINE
  8
0
 62
7
  6
CONTINUOUS
 10
159.0105493849
 20
246.3662807475
 11
162.8368823664
 21
248.092357135
  0
LINE
  8
0
 62
7
  6
CONTINUOUS
 10
153.9295090043
 20
137.5576971879
 11
154.0240277797
 21
137.5130513474
  0
LINE
  8
0
 62
7
  6
CONTINUOUS
 10
154.1487106877
 20
137.6377342554
 11
154.0541916269
 21
137.6823798105
  0
LINE
  8
0
 62
7
  6
CONTINUOUS
 10
154.9536735235
 20
139.0271885461
 11
155.0481925892
 21
138.9825429862
  0
LINE
  8
0
 62
7
  6
CONTINUOUS
 10
156.1627794879
 20
139.7631347483
 11
156.2572982633
 21
139.7184889079
  0
LINE
  8
0
 62
7
  6
CONTINUOUS
 10
83.0942467557
 20
266.3068596325
 11
83.059747671
 21
266.7435953696
  0
LINE
  8
0
 62
7
  6
CONTINUOUS
 10
82.565173092
 20
266.5803011485
 11
82.5663208332
 21
266.2445853271
  0
LINE
  8
0
 62
7
  6
CONTINUOUS
 10
92.9260763448
 20
271.8660886996
 11
92.8932519338
 21
271.325064558
  0
LINE
  8
0
 62
7
  6
CONTINUOUS
 10
93.5127495972
 20
271.4078150567
 11
93.5596592372
 21
271.8433925046
  0
LINE
  8
0
 62
7
  6
CONTINUOUS
 10
96.6150173444
 20
270.2122880347
 11
96.5681077044
 21
269.7767105868
  0
LINE
  8
0
 62
7
  6
CONTINUOUS
 10
123.3377571305
 20
268.3428278043
 11
123.1664540423
 21
268.0541019346
  0
LINE
  8
0
 62
7
  6
CONTINUOUS
 10
131.5064283861
 20
267.0092493892
 11
131.2574368928
 21
266.6487900059
  0
LINE
  8
0
 62
7
  6
CONTINUOUS
 10
138.8232400136
 20
261.8263870458
 11
139.098071425
 21
262.1675563335
  0
LINE
  8
0
 62
7
  6
CONTINUOUS
 10
138.6264118288
 20
262.3884776818
 11
138.396708953
 21
262.1436450474
  0
LINE
  8
0
 62
7
  6
CONTINUOUS
 10
155.8153661118
 20
254.5627126412
 11
155.3863182354
 21
254.2314982391
  0
LINE
  8
0
 62
7
  6
CONTINUOUS
 10
155.8562021574
 20
253.8193889091
 11
156.2151035767
 21
254.0706228546
  0
LINE
  8
0
 62
7
  6
CONTINUOUS
 10
156.9968021763
 20
250.69650634
 11
156.6379007571
 21
250.4452723945
  0
LINE
  8
0
 62
7
  6
CONTINUOUS
 10
154.2078536234
 20
255.4421339158
 11
153.9307529039
 21
255.2526014195
  0
LINE
  8
0
 62
7
  6
CONTINUOUS
 10
154.3614158966
 20
254.7873362025
 11
154.6385166161
 21
254.9768686988
  0
LINE
  8
0
 62
7
  6
CONTINUOUS
 10
157.80279983
 20
141.5144868221
 11
157.6943644971
 21
141.5730490283
  0
LINE
  8
0
 62
7
  6
CONTINUOUS
 10
97.2016905574
 20
269.7540146872
 11
97.2345150078
 21
270.2950385333
  0
LINE
  8
0
 62
7
  6
CONTINUOUS
 10
120.7523601757
 20
271.1011393178
 11
120.4881988114
 21
270.3971367837
  0
LINE
  8
0
 62
7
  6
CONTINUOUS
 10
120.9964817572
 20
270.2834817625
 11
121.237423899
 21
270.8836661711
  0
LINE
  8
0
 62
7
  6
CONTINUOUS
 10
136.7152829645
 20
264.693328084
 11
136.3502030867
 21
264.1594813771
  0
LINE
  8
0
 62
7
  6
CONTINUOUS
 10
157.0376384185
 20
249.953182832
 11
157.4666860983
 21
250.28439701
  0
LINE
  8
0
 62
7
  6
CONTINUOUS
 10
79.593150548
 20
266.9434041983
 11
79.6943568711
 21
266.3046300543
  0
LINE
  8
0
 62
7
  6
CONTINUOUS
 10
97.9600948696
 20
273.6798513734
 11
98.2904742946
 21
268.6907783698
  0
LINE
  8
0
 62
7
  6
CONTINUOUS
 10
98.9141084201
 20
268.7320757979
 11
98.6259050868
 21
273.0842459409
  0
LINE
  8
0
 62
7
  6
CONTINUOUS
 10
103.2711371918
 20
273.9879505941
 11
103.282312991
 21
268.987963084
  0
LINE
  8
0
 62
7
  6
CONTINUOUS
 10
103.905884732
 20
269.6276563352
 11
103.9020802045
 21
271.3297797635
  0
LINE
  8
0
 62
7
  6
CONTINUOUS
 10
103.9006535069
 20
271.9680759653
 11
103.8975623281
 21
273.3510513672
  0
LINE
  8
DEFAULT_1
 62
2
  6
CENTER
 10
105.3249452954
 20
281.4026258206
 11
105.3249452954
 21
195.9924413567
  0
LINE
  8
0
 62
2
  6
CONTINUOUS
 10
105.3249452954
 20
194.8723413567
 11
105.3249452954
 21
193.1123413567
  0
LINE
  8
DEFAULT_1
 62
2
  6
CENTER
 10
105.3249452954
 20
102.3577680525
 11
105.3249452954
 21
191.9922413567
  0
LINE
  8
0
 62
7
  6
CONTINUOUS
 10
113.4962244506
 20
273.6012006089
 11
113.4281560876
 21
273.0736590612
  0
LINE
  8
0
 62
7
  6
CONTINUOUS
 10
112.9652911528
 20
269.4863760195
 11
112.8563817625
 21
268.6423094692
  0
LINE
  8
0
 62
7
  6
CONTINUOUS
 10
118.5508943667
 20
272.1388097582
 11
118.4022624504
 21
271.300824955
  0
LINE
  8
0
 62
7
  6
CONTINUOUS
 10
119.1477103314
 20
271.9249101562
 11
118.4231298893
 21
267.8397350842
  0
LINE
  8
0
 62
7
  6
CONTINUOUS
 10
119.0385248371
 20
267.7305835459
 11
119.9117371433
 21
272.6537431277
  0
LINE
  8
0
 62
7
  6
CONTINUOUS
 10
120.4881988114
 20
270.3971367837
 11
120.3256968283
 21
269.670402621
  0
LINE
  8
0
 62
7
  6
CONTINUOUS
 10
120.9500526191
 20
270.0758434303
 11
120.9964817572
 21
270.2834817625
  0
LINE
  8
0
 62
7
  6
CONTINUOUS
 10
120.7963470552
 20
268.9111018698
 11
120.8659907622
 21
269.2225593681
  0
LINE
  8
0
 62
7
  6
CONTINUOUS
 10
130.7200842231
 20
269.8552741704
 11
129.1143913172
 21
265.1201131074
  0
LINE
  8
0
 62
7
  6
CONTINUOUS
 10
129.7062864501
 20
264.9194014942
 11
131.311979356
 21
269.6545625571
  0
LINE
  8
0
 62
7
  6
CONTINUOUS
 10
131.2574368928
 20
266.6487900059
 11
130.9541022443
 21
265.853618443
  0
LINE
  8
0
 62
7
  6
CONTINUOUS
 10
131.4786445018
 20
265.7673815289
 11
131.7061455014
 21
266.3637602359
  0
LINE
  8
0
 62
7
  6
CONTINUOUS
 10
136.3298075259
 20
267.7403334332
 11
134.3770202159
 21
263.1374406774
  0
LINE
  8
0
 62
7
  6
CONTINUOUS
 10
134.8564896745
 20
262.9340247118
 11
136.8092769845
 21
267.5369174677
  0
LINE
  8
0
 62
7
  6
CONTINUOUS
 10
136.731614248
 20
263.7458826771
 11
136.8218626828
 21
263.9385600288
  0
LINE
  8
0
 62
7
  6
CONTINUOUS
 10
137.0966898077
 20
264.2797314066
 11
137.1418140251
 21
264.3760700824
  0
LINE
  8
0
 62
7
  6
CONTINUOUS
 10
140.9697982132
 20
263.8318044271
 11
139.3860923631
 21
260.8183629851
  0
LINE
  8
0
 62
7
  6
CONTINUOUS
 10
139.8471388512
 20
260.5760612731
 11
140.8369550595
 21
262.4594622733
  0
LINE
  8
0
 62
7
  6
CONTINUOUS
 10
141.1338998805
 20
263.0244824942
 11
141.4308447014
 21
263.5895027151
  0
LINE
  8
0
 62
7
  6
CONTINUOUS
 10
142.3820912926
 20
262.4886787276
 11
142.62954531
 21
262.9595289117
  0
LINE
  8
0
 62
7
  6
CONTINUOUS
 10
143.1804678002
 20
261.9429213473
 11
143.072960897
 21
261.7593141371
  0
LINE
  8
0
 62
7
  6
CONTINUOUS
 10
152.5554967763
 20
258.5910152061
 11
149.5081000169
 21
254.6270054949
  0
LINE
  8
0
 62
7
  6
CONTINUOUS
 10
150.0036012308
 20
254.2460809
 11
151.3652040575
 21
256.0172342003
  0
LINE
  8
0
 62
7
  6
CONTINUOUS
 10
151.7542333847
 20
256.5232779329
 11
152.7268068843
 21
257.7883875007
  0
LINE
  8
0
 62
7
  6
CONTINUOUS
 10
155.3863182354
 20
254.2314982391
 11
154.3341242286
 21
253.0317946395
  0
LINE
  8
0
 62
7
  6
CONTINUOUS
 10
154.8040081505
 20
252.6196853095
 11
155.8562021574
 21
253.8193889091
  0
LINE
  8
0
 62
7
  6
CONTINUOUS
 10
160.5217797383
 20
251.9540482629
 11
156.9622472327
 21
248.4426769721
  0
LINE
  8
0
 62
7
  6
CONTINUOUS
 10
157.4011686441
 20
247.9977354089
 11
160.2033538983
 21
250.7620065142
  0
LINE
  8
DEFAULT_1
 62
2
  6
CENTER
 10
194.6849015317
 20
193.9923413567
 11
107.3250452954
 21
193.9923413567
  0
LINE
  8
0
 62
2
  6
CONTINUOUS
 10
106.2049452954
 20
193.9923413567
 11
104.4449452954
 21
193.9923413567
  0
LINE
  8
DEFAULT_1
 62
2
  6
CENTER
 10
16.9398249453
 20
193.9923413567
 11
103.3248452954
 21
193.9923413567
  0
LINE
  8
0
 62
7
  6
CONTINUOUS
 10
153.4435617551
 20
136.0449406384
 11
155.0699073519
 21
134.4185950417
  0
LINE
  8
0
 62
7
  6
CONTINUOUS
 10
152.7511325663
 20
136.7411488096
 11
152.7789654895
 21
136.7133158865
  0
LINE
  8
0
 62
7
  6
CONTINUOUS
 10
155.6709481159
 20
135.0196358057
 11
154.0446025192
 21
136.6459814024
  0
LINE
  8
0
 62
7
  6
CONTINUOUS
 10
154.1860238754
 20
136.7874027587
 11
155.1052626909
 21
135.8681639431
  0
LINE
  8
0
 62
7
  6
CONTINUOUS
 10
153.8274316396
 20
137.260789361
 11
153.7995987164
 21
137.2886222841
  0
LINE
  8
0
 62
7
  6
CONTINUOUS
 10
153.6650961951
 20
137.822109997
 11
153.9295090043
 21
137.5576971879
  0
LINE
  8
0
 62
7
  6
CONTINUOUS
 10
154.0541916269
 20
137.6823798105
 11
153.7897788178
 21
137.9467926197
  0
LINE
  8
0
 62
7
  6
CONTINUOUS
 10
155.741658794
 20
136.4338493681
 11
154.7870646394
 21
137.3884435227
  0
LINE
  8
0
 62
7
  6
CONTINUOUS
 10
154.2386369442
 20
138.3956507461
 11
154.5587155997
 21
138.0755720906
  0
LINE
  8
0
 62
7
  6
CONTINUOUS
 10
154.6143814461
 20
138.0199062442
 11
154.683963754
 21
137.9503239363
  0
LINE
  8
0
 62
7
  6
CONTINUOUS
 10
154.808646662
 20
138.0750068443
 11
154.3633198522
 21
138.5203336541
  0
LINE
  8
0
 62
7
  6
CONTINUOUS
 10
154.562812448
 20
138.7198262499
 11
155.0081392578
 21
138.2744994401
  0
LINE
  8
0
 62
7
  6
CONTINUOUS
 10
155.1473039127
 20
138.1353347852
 11
155.2168862206
 21
138.0657524773
  0
LINE
  8
0
 62
7
  6
CONTINUOUS
 10
155.3415688432
 20
138.1904351
 11
155.2719865353
 21
138.2600174079
  0
LINE
  8
0
 62
7
  6
CONTINUOUS
 10
155.1328218804
 20
138.3991820628
 11
154.6874950707
 21
138.8445088725
  0
LINE
  8
0
 62
7
  6
CONTINUOUS
 10
155.6002374378
 20
138.2016163211
 11
156.3780548971
 21
137.4237988617
  0
LINE
  8
0
 62
7
  6
CONTINUOUS
 10
156.943740322
 20
136.8581134368
 11
157.2265830345
 21
136.5752707243
  0
LINE
  8
0
 62
7
  6
CONTINUOUS
 10
155.0481925892
 20
138.9825429862
 11
155.2708560038
 21
138.7598795715
  0
LINE
  8
0
 62
7
  6
CONTINUOUS
 10
155.3955386264
 20
138.8845621942
 11
155.3537892417
 21
138.9263115789
  0
LINE
  8
0
 62
7
  6
CONTINUOUS
 10
155.2981233758
 20
138.9819774448
 11
155.2146246063
 21
139.0654762143
  0
LINE
  8
0
 62
7
  6
CONTINUOUS
 10
157.8276237985
 20
137.1763114883
 11
156.2012782018
 21
138.8026570851
  0
LINE
  8
0
 62
7
  6
CONTINUOUS
 10
155.6716065585
 20
139.6059569555
 11
155.6994394915
 21
139.5781240226
  0
LINE
  8
0
 62
7
  6
CONTINUOUS
 10
156.342699558
 20
138.9440784413
 11
157.9690451547
 21
137.3177328446
  0
LINE
  8
0
 62
7
  6
CONTINUOUS
 10
156.0467856617
 20
139.4801433831
 11
156.0189527385
 21
139.5079763062
  0
LINE
  8
0
 62
7
  6
CONTINUOUS
 10
155.85195518
 20
139.6749738648
 11
155.8102057952
 21
139.7167232495
  0
LINE
  8
0
 62
7
  6
CONTINUOUS
 10
155.8844502172
 20
140.0414640191
 11
156.1627794879
 21
139.7631347483
  0
LINE
  8
0
 62
7
  6
CONTINUOUS
 10
156.2874622533
 20
139.8878175137
 11
156.0091329825
 21
140.1661467844
  0
LINE
  8
0
 62
7
  6
CONTINUOUS
 10
158.5700859188
 20
137.9187736086
 11
157.7922684594
 21
138.6965910679
  0
LINE
  8
0
 62
7
  6
CONTINUOUS
 10
157.2265830345
 20
139.2622764928
 11
156.943740322
 21
139.5451192053
  0
LINE
  8
0
 62
7
  6
CONTINUOUS
 10
156.457991109
 20
140.6150049109
 11
156.7780697645
 21
140.2949262554
  0
LINE
  8
0
 62
7
  6
CONTINUOUS
 10
156.8337356108
 20
140.239260409
 11
157.1120648816
 21
139.9609311383
  0
LINE
  8
0
 62
7
  6
CONTINUOUS
 10
157.2367477183
 20
140.085613975
 11
156.5826739457
 21
140.7396877476
  0
LINE
  8
0
 62
7
  6
CONTINUOUS
 10
158.4286645625
 20
139.6865405615
 11
159.3832587171
 21
138.7319464069
  0
LINE
  8
0
 62
7
  6
CONTINUOUS
 10
157.6502840969
 20
141.4176369353
 11
157.6920334816
 21
141.3758875506
  0
LINE
  8
0
 62
7
  6
CONTINUOUS
 10
159.9842994811
 20
139.332987171
 11
159.0650606656
 21
140.2522259865
  0
LINE
  8
0
 62
7
  6
CONTINUOUS
 10
60.4252397227
 20
258.2886978062
 11
61.6060611818
 21
256.5187838248
  0
LINE
  8
0
 62
7
  6
CONTINUOUS
 10
62.0393213861
 20
256.8078390851
 11
60.8584999271
 21
258.5777530665
  0
LINE
  8
0
 62
7
  6
CONTINUOUS
 10
62.5915407134
 20
259.733974087
 11
63.8904443101
 21
257.7870687199
  0
LINE
  8
0
 62
7
  6
CONTINUOUS
 10
64.0587649028
 20
260.6740954354
 11
65.7960585233
 21
257.7465086442
  0
LINE
  8
0
 62
7
  6
CONTINUOUS
 10
66.2439641541
 20
258.0123055788
 11
64.9952843216
 21
260.1165086571
  0
LINE
  8
0
 62
7
  6
CONTINUOUS
 10
64.7781226381
 20
260.482456974
 11
64.5066705337
 21
260.9398923701
  0
LINE
  8
0
 62
7
  6
CONTINUOUS
 10
66.8249059686
 20
260.7074291224
 11
67.8564241176
 21
258.969174361
  0
LINE
  8
0
 62
7
  6
CONTINUOUS
 10
66.6344349293
 20
264.0145680022
 11
66.8901673852
 21
263.5481622801
  0
LINE
  8
0
 62
7
  6
CONTINUOUS
 10
67.4016324404
 20
262.6153505747
 11
69.0383203016
 21
259.6303536921
  0
LINE
  8
0
 62
7
  6
CONTINUOUS
 10
69.4950091181
 20
259.8807583229
 11
67.8583212568
 21
262.8657552054
  0
LINE
  8
0
 62
7
  6
CONTINUOUS
 10
67.3468562016
 20
263.7985669109
 11
67.0911237457
 21
264.264972633
  0
LINE
  8
0
 62
7
  6
CONTINUOUS
 10
72.7884166688
 20
267.1010954832
 11
74.7137991622
 21
262.4866721981
  0
LINE
  8
0
 62
7
  6
CONTINUOUS
 10
75.2906020728
 20
262.7273450097
 11
74.3893591962
 21
264.8872878416
  0
LINE
  8
0
 62
7
  6
CONTINUOUS
 10
74.1435657157
 20
265.4763630844
 11
73.6110130599
 21
266.7526930521
  0
LINE
  8
0
 62
7
  6
CONTINUOUS
 10
77.2205458884
 20
268.8936801359
 11
78.9618136722
 21
264.2066782685
  0
LINE
  8
0
 62
7
  6
CONTINUOUS
 10
79.4500434059
 20
264.3880604676
 11
77.7087756221
 21
269.0750623351
  0
LINE
  8
0
 62
7
  6
CONTINUOUS
 10
80.255638665
 20
266.2658859391
 11
80.18893145
 21
266.4679242754
  0
LINE
  8
0
 62
7
  6
CONTINUOUS
 10
80.154430078
 20
266.9046593357
 11
80.1210764705
 21
267.0056785038
  0
LINE
  8
0
 62
7
  6
CONTINUOUS
 10
92.8932519338
 20
271.325064558
 11
93.1045297973
 21
269.743368437
  0
LINE
  8
0
 62
7
  6
CONTINUOUS
 10
93.7240274607
 20
269.8261189357
 11
93.5127495972
 21
271.4078150567
  0
LINE
  8
0
 62
7
  6
CONTINUOUS
 10
101.4940199945
 20
273.9138700278
 11
101.7751939742
 21
269.667850436
  0
LINE
  8
0
 62
7
  6
CONTINUOUS
 10
102.448033545
 20
268.9660944523
 11
102.11765412
 21
273.9551674559
  0
LINE
  8
0
 62
7
  6
CONTINUOUS
 10
106.610408362
 20
271.335833325
 11
106.6089816644
 21
271.9741295268
  0
LINE
  8
0
 62
7
  6
CONTINUOUS
 10
107.0323036236
 20
268.9963449334
 11
107.0308769258
 21
269.6346412097
  0
LINE
  8
0
 62
7
  6
CONTINUOUS
 10
107.022554522
 20
273.3580362417
 11
107.0211278244
 21
273.9963324435
  0
LINE
  8
0
 62
7
  6
CONTINUOUS
 10
120.3256968283
 20
269.670402621
 11
120.2648541939
 21
268.9209366844
  0
LINE
  8
0
 62
7
  6
CONTINUOUS
 10
116.9887894692
 20
268.1091074326
 11
117.0704715143
 21
268.7421573638
  0
LINE
  8
0
 62
7
  6
CONTINUOUS
 10
117.5333364491
 20
272.3294404054
 11
117.6286321572
 21
273.0679985722
  0
LINE
  8
0
 62
7
  6
CONTINUOUS
 10
123.4074008376
 20
268.6542853026
 11
123.3377571305
 21
268.3428278043
  0
LINE
  8
0
 62
7
  6
CONTINUOUS
 10
123.8228208538
 20
268.1253546575
 11
123.9388937314
 21
268.6444506334
  0
LINE
  8
0
 62
7
  6
CONTINUOUS
 10
134.9089846358
 20
268.3300676737
 11
134.1127312166
 21
266.2427424083
  0
LINE
  8
0
 62
7
  6
CONTINUOUS
 10
133.9231470944
 20
265.7457602685
 11
133.5439787971
 21
264.7517958498
  0
LINE
  8
0
 62
7
  6
CONTINUOUS
 10
133.3543946484
 20
264.2548136404
 11
133.1268936752
 21
263.6584350031
  0
LINE
  8
0
 62
7
  6
CONTINUOUS
 10
133.6135191083
 20
263.4728016611
 11
135.3956100688
 21
268.1444343316
  0
LINE
  8
0
 62
7
  6
CONTINUOUS
 10
139.167902501
 20
263.5445419271
 11
139.0776540662
 21
263.3518645754
  0
LINE
  8
0
 62
7
  6
CONTINUOUS
 10
139.3688167295
 20
262.7455883887
 11
139.5493136624
 21
263.1309432271
  0
LINE
  8
0
 62
7
  6
CONTINUOUS
 10
144.9819092141
 20
258.4225756416
 11
145.0894161173
 21
258.6061828518
  0
LINE
  8
0
 62
7
  6
CONTINUOUS
 10
154.4023684686
 20
255.6951560184
 11
154.2078536234
 21
255.4421339158
  0
LINE
  8
0
 62
7
  6
CONTINUOUS
 10
154.6385166161
 20
254.9768686988
 11
154.8978696825
 21
255.3142314235
  0
LINE
  8
0
 62
7
  6
CONTINUOUS
 10
158.0489961832
 20
251.8962099396
 11
156.9968021763
 21
250.69650634
  0
LINE
  8
0
 62
7
  6
CONTINUOUS
 10
157.4666860983
 20
250.28439701
 11
158.5188801052
 21
251.4841006096
  0
LINE
  8
0
 62
7
  6
CONTINUOUS
 10
162.8368823664
 20
248.092357135
 11
160.0346971122
 21
245.3280860298
  0
LINE
  8
0
 62
7
  6
CONTINUOUS
 10
160.4736185236
 20
244.8831444666
 11
164.0331510291
 21
248.3945157574
  0
LINE
  8
0
 62
7
  6
CONTINUOUS
 10
64.559868924
 20
257.7221412087
 11
63.0248010108
 21
260.0230294094
  0
LINE
  8
0
 62
7
  6
CONTINUOUS
 10
68.3043294921
 20
259.2349711436
 11
67.2728113432
 21
260.973225905
  0
LINE
  8
0
 62
7
  6
CONTINUOUS
 10
76.8888377422
 20
265.9302030528
 11
76.6430442617
 21
266.5192782956
  0
LINE
  8
0
 62
7
  6
CONTINUOUS
 10
76.4950276131
 20
267.9560571105
 11
76.2492341326
 21
268.5451323532
  0
LINE
  8
0
 62
7
  6
CONTINUOUS
 10
82.1649297555
 20
267.7925313076
 11
82.2316369704
 21
267.5904929713
  0
LINE
  8
0
 62
7
  6
CONTINUOUS
 10
82.8596260261
 20
267.3497103784
 11
82.7262115494
 21
267.7537871925
  0
LINE
  8
0
 62
7
  6
CONTINUOUS
 10
96.4037394809
 20
271.7939841557
 11
96.6150173444
 21
270.2122880347
  0
LINE
  8
0
 62
7
  6
CONTINUOUS
 10
97.2345150078
 20
270.2950385333
 11
97.0232371443
 21
271.8767346544
  0
LINE
  8
0
 62
7
  6
CONTINUOUS
 10
130.9541022443
 20
265.853618443
 11
130.8997591156
 21
265.4189063331
  0
LINE
  8
0
 62
7
  6
CONTINUOUS
 10
136.3502030867
 20
264.1594813771
 11
136.1737922923
 21
263.5372638388
  0
LINE
  8
0
 62
7
  6
CONTINUOUS
 10
154.6017394852
 20
252.2310773951
 11
154.8040081505
 21
252.6196853095
  0
LINE
  8
0
 62
7
  6
CONTINUOUS
 10
154.3341242286
 20
253.0317946395
 11
154.0617093026
 21
252.5632064926
  0
LINE
  8
0
 62
7
  6
CONTINUOUS
 10
158.5188801052
 20
251.4841006096
 11
158.7912952276
 21
251.9526889806
  0
LINE
  8
0
 62
7
  6
CONTINUOUS
 10
61.6060611818
 20
256.5187838248
 11
61.9288775439
 21
256.2226120465
  0
LINE
  8
0
 62
7
  6
CONTINUOUS
 10
66.4638725842
 20
261.1117050403
 11
66.8249059686
 21
260.7074291224
  0
LINE
  8
0
 62
7
  6
CONTINUOUS
 10
67.2728113432
 20
260.973225905
 11
66.9117784714
 21
261.3775021271
  0
LINE
  8
0
 62
7
  6
CONTINUOUS
 10
79.6943568711
 20
266.3046300543
 11
79.9933938846
 21
265.7311740392
  0
LINE
  8
0
 62
7
  6
CONTINUOUS
 10
93.8836186173
 20
269.4181251978
 11
93.7240274607
 21
269.8261189357
  0
LINE
  8
0
 62
7
  6
CONTINUOUS
 10
93.1045297973
 20
269.743368437
 11
93.2782061435
 21
269.2299283009
  0
LINE
  8
0
 62
7
  6
CONTINUOUS
 10
97.0232371443
 20
271.8767346544
 11
96.8495607586
 21
272.3901750859
  0
LINE
  8
0
 62
7
  6
CONTINUOUS
 10
120.8283627294
 20
268.5769127429
 11
120.7963470552
 21
268.9111018698
  0
LINE
  8
0
 62
7
  6
CONTINUOUS
 10
123.3753851959
 20
268.9884745749
 11
123.4074008376
 21
268.6542853026
  0
LINE
  8
0
 62
7
  6
CONTINUOUS
 10
136.6905717877
 20
263.4126831889
 11
136.731614248
 21
263.7458826771
  0
LINE
  8
0
 62
7
  6
CONTINUOUS
 10
139.5493136624
 20
263.1309432271
 11
139.6354760219
 21
263.5604834137
  0
LINE
  8
0
 62
7
  6
CONTINUOUS
 10
159.0966065569
 20
247.0364608645
 11
161.1801618553
 21
251.2866359182
  0
LINE
  8
0
 62
7
  6
CONTINUOUS
 10
158.2512648486
 20
252.2848178541
 11
158.0489961832
 21
251.8962099396
  0
LINE
  8
0
 62
7
  6
CONTINUOUS
 10
62.3030966458
 20
256.6001630668
 11
62.0393213861
 21
256.8078390851
  0
LINE
  8
0
 62
7
  6
CONTINUOUS
 10
66.9117784714
 20
261.3775021271
 11
66.6593259288
 21
261.5988038865
  0
LINE
  8
0
 62
7
  6
CONTINUOUS
 10
64.8826851906
 20
257.4259693891
 11
64.559868924
 21
257.7221412087
  0
LINE
  8
0
 62
7
  6
CONTINUOUS
 10
80.454612592
 20
265.9954866809
 11
80.255638665
 21
266.2658859391
  0
LINE
  8
0
 62
7
  6
CONTINUOUS
 10
82.7262115494
 20
267.7537871925
 11
82.4938817509
 21
268.1252048713
  0
LINE
  8
0
 62
7
  6
CONTINUOUS
 10
157.8613620557
 20
141.4060514697
 11
157.80279983
 21
141.5144868221
  0
LINE
  8
0
 62
7
  6
CONTINUOUS
 10
96.2441483243
 20
272.2019778936
 11
96.4037394809
 21
271.7939841557
  0
LINE
  8
0
 62
7
  6
CONTINUOUS
 10
124.1534465832
 20
270.5586570901
 11
124.1214309091
 21
270.8928462169
  0
LINE
  8
0
 62
7
  6
CONTINUOUS
 10
130.8997591156
 20
265.4189063331
 11
130.9212496623
 21
265.1829871487
  0
LINE
  8
0
 62
7
  6
CONTINUOUS
 10
136.694657863
 20
263.175820354
 11
136.6905717877
 21
263.4126831889
  0
LINE
  8
0
 62
7
  6
CONTINUOUS
 10
136.1737922923
 20
263.5372638388
 11
136.181955775
 21
263.0635421466
  0
LINE
  8
0
 62
7
  6
CONTINUOUS
 10
131.4837131994
 20
265.1961449631
 11
131.4786445018
 21
265.7673815289
  0
LINE
  8
0
 62
7
  6
CONTINUOUS
 10
142.2129055585
 20
260.290456263
 11
142.1776710714
 21
259.8179762282
  0
LINE
  8
0
 62
7
  6
CONTINUOUS
 10
142.6447448994
 20
259.7910474871
 11
142.6623580187
 21
260.0272898978
  0
LINE
  8
0
 62
7
  6
CONTINUOUS
 10
143.072960897
 20
261.7593141371
 11
143.0377264287
 21
261.2868341345
  0
LINE
  8
0
 62
7
  6
CONTINUOUS
 10
143.5048002379
 20
261.2599053612
 11
143.5224133572
 21
261.4961477719
  0
LINE
  8
0
 62
7
  6
CONTINUOUS
 10
154.0617093026
 20
252.5632064926
 11
153.9377497952
 21
252.105917826
  0
LINE
  8
0
 62
7
  6
CONTINUOUS
 10
154.5142970763
 20
256.0116672547
 11
154.4023684686
 21
255.6951560184
  0
LINE
  8
0
 62
7
  6
CONTINUOUS
 10
154.8978696825
 20
255.3142314235
 11
155.0097982902
 21
255.6307426598
  0
LINE
  8
0
 62
7
  6
CONTINUOUS
 10
160.2033538983
 20
250.7620065142
 11
158.4253230689
 21
246.959533902
  0
LINE
  8
0
 62
40
  6
CONTINUOUS
 10
146.0939212183
 20
189.8600366742
 11
144.6797076559
 21
188.4458231118
  0
LINE
  8
0
 62
40
  6
CONTINUOUS
 10
109.4572499779
 20
153.2233654338
 11
110.8714635402
 21
154.6375789962
  0
LINE
  8
0
 62
40
  6
CONTINUOUS
 10
114.9961602996
 20
156.4995340557
 11
142.8177525964
 21
184.3211263525
  0
LINE
  8
0
 62
7
  6
CONTINUOUS
 10
61.9288775439
 20
256.2226120465
 11
62.133611727
 21
256.1034317159
  0
LINE
  8
0
 62
7
  6
CONTINUOUS
 10
64.1856496955
 20
257.3445901935
 11
64.6541592494
 21
257.0177338292
  0
LINE
  8
0
 62
40
  6
CONTINUOUS
 10
144.6797076559
 20
199.5388596015
 11
146.0939212183
 21
198.1246460391
  0
LINE
  8
0
 62
40
  6
CONTINUOUS
 10
110.8714635402
 20
233.3471037172
 11
109.4572499779
 21
234.7613172796
  0
LINE
  8
0
 62
40
  6
CONTINUOUS
 10
114.9961602996
 20
231.4851486577
 11
142.8177525964
 21
203.6635563608
  0
LINE
  8
0
 62
7
  6
CONTINUOUS
 10
80.6202351756
 20
265.8261073384
 11
80.454612592
 21
265.9954866809
  0
LINE
  8
0
 62
7
  6
CONTINUOUS
 10
79.9933938846
 20
265.7311740392
 11
80.3246368111
 21
265.3924145358
  0
LINE
  8
0
 62
7
  6
CONTINUOUS
 10
93.2782061435
 20
269.2299283009
 11
93.5410453451
 21
268.8357260285
  0
LINE
  8
0
 62
7
  6
CONTINUOUS
 10
156.8906017882
 20
140.8806180315
 11
156.9213310341
 21
140.8000155653
  0
LINE
  8
0
 62
7
  6
CONTINUOUS
 10
157.6920334816
 20
141.3758875506
 11
157.7227627819
 21
141.2952851192
  0
LINE
  8
0
 62
7
  6
CONTINUOUS
 10
120.2648541939
 20
268.9209366844
 11
120.3520907881
 21
268.3563796051
  0
LINE
  8
0
 62
7
  6
CONTINUOUS
 10
123.9388937314
 20
268.6444506334
 11
123.851657121
 21
269.20900764
  0
LINE
  8
0
 62
7
  6
CONTINUOUS
 10
134.1127312166
 20
266.2427424083
 11
134.0912362146
 21
266.4786632922
  0
LINE
  8
0
 62
7
  6
CONTINUOUS
 10
144.657576814
 20
259.105591692
 11
144.6399636571
 21
258.869349217
  0
LINE
  8
0
 62
7
  6
CONTINUOUS
 10
145.0894161173
 20
258.6061828518
 11
145.1246506232
 21
259.0786629188
  0
LINE
  8
0
 62
7
  6
CONTINUOUS
 10
145.5176321148
 20
260.5744495019
 11
145.5000189956
 21
260.3382070912
  0
LINE
  8
0
 62
7
  6
CONTINUOUS
 10
145.9494714557
 20
260.0750407259
 11
145.984705924
 21
260.5475207286
  0
LINE
  8
0
 62
7
  6
CONTINUOUS
 10
154.5479262875
 20
251.853769017
 11
154.6017394852
 21
252.2310773951
  0
LINE
  8
0
 62
7
  6
CONTINUOUS
 10
158.7912952276
 20
251.9526889806
 11
158.9152546859
 21
252.4099775912
  0
LINE
  8
0
 62
7
  6
CONTINUOUS
 10
156.6379007571
 20
250.4452723945
 11
156.2708363913
 21
250.3426993775
  0
LINE
  8
0
 62
7
  6
CONTINUOUS
 10
62.6535240001
 20
256.4502980468
 11
62.3030966458
 21
256.6001630668
  0
LINE
  8
0
 62
7
  6
CONTINUOUS
 10
65.0874195468
 20
257.3067891515
 11
64.8826851906
 21
257.4259693891
  0
LINE
  8
0
 62
7
  6
CONTINUOUS
 10
94.1323726195
 20
269.1293693974
 11
93.8836186173
 21
269.4181251978
  0
LINE
  8
0
 62
7
  6
CONTINUOUS
 10
101.7751939742
 20
269.667850436
 11
98.8955460578
 21
273.7417975156
  0
LINE
  8
0
 62
7
  6
CONTINUOUS
 10
98.6259050868
 20
273.0842459409
 11
101.5125823568
 21
268.9041483101
  0
LINE
  8
0
 62
7
  6
CONTINUOUS
 10
96.8495607586
 20
272.3901750859
 11
96.5867215669
 21
272.7843772844
  0
LINE
  8
0
 62
7
  6
CONTINUOUS
 10
120.9620284616
 20
268.2199939959
 11
120.8283627294
 21
268.5769127429
  0
LINE
  8
0
 62
7
  6
CONTINUOUS
 10
155.6994394915
 20
139.5781240226
 11
155.7162522661
 21
139.5114380277
  0
LINE
  8
0
 62
7
  6
CONTINUOUS
 10
157.0460138708
 20
140.9246984019
 11
157.0292010151
 21
140.9913843353
  0
LINE
  8
0
 62
7
  6
CONTINUOUS
 10
152.9036481121
 20
136.8379985091
 11
152.9007516564
 21
136.8907678998
  0
LINE
  8
0
 62
7
  6
CONTINUOUS
 10
153.6749158084
 20
137.1639393761
 11
153.6778122641
 21
137.1111699855
  0
LINE
  8
0
 62
7
  6
CONTINUOUS
 10
155.1282296518
 20
139.2017446744
 11
155.131125827
 21
139.1489749936
  0
LINE
  8
0
 62
7
  6
CONTINUOUS
 10
155.2146246063
 20
139.0654762143
 11
155.211728436
 21
139.1182458903
  0
LINE
  8
0
 62
7
  6
CONTINUOUS
 10
155.8577479487
 20
139.5694349408
 11
155.85195518
 21
139.6749738648
  0
LINE
  8
0
 62
7
  6
CONTINUOUS
 10
155.8942699732
 20
139.3832935409
 11
155.8971662862
 21
139.3305240076
  0
LINE
  8
0
 62
7
  6
CONTINUOUS
 10
156.0496821174
 20
139.4273739924
 11
156.0467856617
 21
139.4801433831
  0
LINE
  8
0
 62
7
  6
CONTINUOUS
 10
157.7227627819
 20
141.2952851192
 11
157.7256591485
 21
141.2425156394
  0
LINE
  8
0
 62
7
  6
CONTINUOUS
 10
157.8671547776
 20
141.300512499
 11
157.8613620557
 21
141.4060514697
  0
LINE
  8
0
 62
7
  6
CONTINUOUS
 10
155.0097982902
 20
255.6307426598
 11
155.021400568
 21
256.1585674456
  0
LINE
  8
0
 62
7
  6
CONTINUOUS
 10
158.3050782428
 20
252.6621264562
 11
158.2512648486
 21
252.2848178541
  0
LINE
  8
0
 62
7
  6
CONTINUOUS
 10
156.2151035767
 20
254.0706228546
 11
156.5821681389
 21
254.1731960956
  0
LINE
  8
0
 62
7
  6
CONTINUOUS
 10
83.3100444098
 20
269.2632336481
 11
85.1594286152
 21
267.9968410391
  0
LINE
  8
0
 62
7
  6
CONTINUOUS
 10
85.5439181702
 20
267.7695085706
 11
87.0088151234
 21
266.7304490476
  0
LINE
  8
0
 62
7
  6
CONTINUOUS
 10
85.3786170986
 20
268.3860309324
 11
83.9137224868
 21
269.4250909289
  0
LINE
  8
0
 62
7
  6
CONTINUOUS
 10
82.4938817509
 20
268.1252048713
 11
82.0637234791
 21
268.4313053102
  0
LINE
  8
0
 62
7
  6
CONTINUOUS
 10
81.8670404598
 20
268.0302715721
 11
82.1649297555
 21
267.7925313076
  0
LINE
  8
0
 62
7
  6
CONTINUOUS
 10
95.9953942826
 20
272.4907339893
 11
96.2441483243
 21
272.2019778936
  0
LINE
  8
0
 62
7
  6
CONTINUOUS
 10
120.3520907881
 20
268.3563796051
 11
120.5642013406
 21
267.8729100997
  0
LINE
  8
0
 62
7
  6
CONTINUOUS
 10
124.1214309091
 20
270.8928462169
 11
123.9093203484
 21
271.3763156859
  0
LINE
  8
0
 62
7
  6
CONTINUOUS
 10
123.5114932355
 20
271.0292318262
 11
123.6451636375
 21
270.6723121113
  0
LINE
  8
0
 62
7
  6
CONTINUOUS
 10
133.8422447214
 20
266.1182039089
 11
133.9231470944
 21
265.7457602685
  0
LINE
  8
0
 62
7
  6
CONTINUOUS
 10
139.6354760219
 20
263.5604834137
 11
139.5329823157
 21
264.078388499
  0
LINE
  8
0
 62
7
  6
CONTINUOUS
 10
139.1146147693
 20
263.9219248759
 11
139.167902501
 21
263.5445419271
  0
LINE
  8
0
 62
7
  6
CONTINUOUS
 10
153.9377497952
 20
252.105917826
 11
153.9704230663
 21
251.5112552185
  0
LINE
  8
0
 62
7
  6
CONTINUOUS
 10
158.9152546859
 20
252.4099775912
 11
158.8825813902
 21
253.0046401706
  0
LINE
  8
0
 62
7
  6
CONTINUOUS
 10
152.7592561116
 20
136.8327711342
 11
152.7511325663
 21
136.7411488096
  0
LINE
  8
0
 62
7
  6
CONTINUOUS
 10
153.8193078041
 20
137.1691667559
 11
153.8274316396
 21
137.260789361
  0
LINE
  8
0
 62
7
  6
CONTINUOUS
 10
153.9307529039
 20
255.2526014195
 11
153.6359119105
 21
255.2108931028
  0
LINE
  8
0
 62
7
  6
CONTINUOUS
 10
156.0065843382
 20
249.7254502179
 11
156.600427743
 21
249.7706295265
  0
LINE
  8
0
 62
7
  6
CONTINUOUS
 10
156.8464201183
 20
254.7904451712
 11
156.2525767381
 21
254.7452658906
  0
LINE
  8
0
 62
7
  6
CONTINUOUS
 10
62.133611727
 20
256.1034317159
 11
62.5706910675
 21
256.0113777562
  0
LINE
  8
0
 62
7
  6
CONTINUOUS
 10
66.1761296952
 20
261.1883605466
 11
66.4638725842
 21
261.1117050403
  0
LINE
  8
0
 62
7
  6
CONTINUOUS
 10
66.6593259288
 20
261.5988038865
 11
66.3715830397
 21
261.6754593928
  0
LINE
  8
0
 62
7
  6
CONTINUOUS
 10
80.3246368111
 20
265.3924145358
 11
80.5891747749
 21
265.2556941516
  0
LINE
  8
0
 62
7
  6
CONTINUOUS
 10
81.0170398632
 20
265.6210259969
 11
80.6202351756
 21
265.8261073384
  0
LINE
  8
0
 62
7
  6
CONTINUOUS
 10
87.6124932004
 20
266.8923063284
 11
85.7631066922
 21
268.15869832
  0
LINE
  8
0
 62
7
  6
CONTINUOUS
 10
93.5410453451
 20
268.8357260285
 11
94.0103853384
 21
268.469107503
  0
LINE
  8
0
 62
7
  6
CONTINUOUS
 10
96.5867215669
 20
272.7843772844
 11
96.1173815785
 21
273.150995773
  0
LINE
  8
0
 62
7
  6
CONTINUOUS
 10
123.2185048784
 20
269.2415740831
 11
123.3753851959
 21
268.9884745749
  0
LINE
  8
0
 62
7
  6
CONTINUOUS
 10
123.851657121
 20
269.20900764
 11
123.6163319913
 21
269.5886579429
  0
LINE
  8
0
 62
7
  6
CONTINUOUS
 10
130.9212496623
 20
265.1829871487
 11
131.0994762177
 21
264.773417145
  0
LINE
  8
0
 62
7
  6
CONTINUOUS
 10
134.0912362146
 20
266.4786632922
 11
133.9724214724
 21
266.7517088051
  0
LINE
  8
0
 62
7
  6
CONTINUOUS
 10
136.181955775
 20
263.0635421466
 11
136.2803720264
 21
262.7824958173
  0
LINE
  8
0
 62
7
  6
CONTINUOUS
 10
136.8422800733
 20
262.7542518545
 11
136.694657863
 21
263.175820354
  0
LINE
  8
0
 62
7
  6
CONTINUOUS
 10
154.4788089676
 20
256.3073214264
 11
154.5142970763
 21
256.0116672547
  0
LINE
  8
0
 62
7
  6
CONTINUOUS
 10
154.5587155997
 20
138.0755720906
 11
154.536675588
 21
137.9978662325
  0
LINE
  8
0
 62
7
  6
CONTINUOUS
 10
154.5923414343
 20
137.9422003862
 11
154.6143814461
 21
138.0199062442
  0
LINE
  8
0
 62
7
  6
CONTINUOUS
 10
155.211728436
 20
139.1182458903
 11
155.2447887292
 21
139.2348049726
  0
LINE
  8
0
 62
7
  6
CONTINUOUS
 10
155.7162522661
 20
139.5114380277
 11
155.6942121117
 21
139.4337320269
  0
LINE
  8
0
 62
7
  6
CONTINUOUS
 10
155.8357078138
 20
139.4917289206
 11
155.8577479487
 21
139.5694349408
  0
LINE
  8
0
 62
7
  6
CONTINUOUS
 10
156.0276418203
 20
139.349667849
 11
156.0496821174
 21
139.4273739924
  0
LINE
  8
0
 62
7
  6
CONTINUOUS
 10
156.9236620863
 20
140.9971771089
 11
156.8906017882
 21
140.8806180315
  0
LINE
  8
0
 62
7
  6
CONTINUOUS
 10
156.7780697645
 20
140.2949262554
 11
156.7560295387
 21
140.2172201833
  0
LINE
  8
0
 62
7
  6
CONTINUOUS
 10
156.8116953851
 20
140.1615543369
 11
156.8337356108
 21
140.239260409
  0
LINE
  8
0
 62
7
  6
CONTINUOUS
 10
157.7256591485
 20
141.2425156394
 11
157.6925988455
 21
141.1259565669
  0
LINE
  8
0
 62
7
  6
CONTINUOUS
 10
157.8451145786
 20
141.2228064536
 11
157.8671547776
 21
141.300512499
  0
LINE
  8
0
 62
7
  6
CONTINUOUS
 10
133.2355754509
 20
264.5278608529
 11
132.8677647601
 21
264.440448682
  0
LINE
  8
0
 62
7
  6
CONTINUOUS
 10
132.4531244365
 20
267.4451366862
 11
132.0853137457
 21
267.3577245154
  0
LINE
  8
0
 62
7
  6
CONTINUOUS
 10
138.396708953
 20
262.1436450474
 11
138.0234656241
 21
262.0835201001
  0
LINE
  8
0
 62
7
  6
CONTINUOUS
 10
137.736596684
 20
265.1547492213
 11
137.363353355
 21
265.0946242741
  0
LINE
  8
0
 62
7
  6
CONTINUOUS
 10
141.7929011406
 20
263.158865366
 11
141.4172950175
 21
263.115904545
  0
LINE
  8
0
 62
7
  6
CONTINUOUS
 10
153.3294686392
 20
254.6413600002
 11
153.8543124049
 21
254.6404360116
  0
LINE
  8
0
 62
7
  6
CONTINUOUS
 10
62.5706910675
 20
256.0113777562
 11
62.9487293804
 21
256.0078195283
  0
LINE
  8
0
 62
7
  6
CONTINUOUS
 10
66.3715830397
 20
261.6754593928
 11
65.9942588707
 21
261.6989554209
  0
LINE
  8
0
 62
7
  6
CONTINUOUS
 10
156.2708363913
 20
250.3426993775
 11
155.8956018601
 21
250.3887935215
  0
LINE
  8
0
 62
7
  6
CONTINUOUS
 10
156.5821681389
 20
254.1731960956
 11
156.9574026211
 21
254.1271018956
  0
LINE
  8
0
 62
7
  6
CONTINUOUS
 10
80.5891747749
 20
265.2556941516
 11
80.9526258375
 21
265.1516320313
  0
LINE
  8
0
 62
7
  6
CONTINUOUS
 10
81.5035894031
 20
268.1343336747
 11
81.8670404598
 21
268.0302715721
  0
LINE
  8
0
 62
7
  6
CONTINUOUS
 10
94.4702918402
 20
268.9598517765
 11
94.1323726195
 21
269.1293693974
  0
LINE
  8
0
 62
7
  6
CONTINUOUS
 10
95.6574750718
 20
272.6602515364
 11
95.9953942826
 21
272.4907339893
  0
LINE
  8
0
 62
7
  6
CONTINUOUS
 10
120.5642013406
 20
267.8729100997
 11
121.0028405732
 21
267.447797553
  0
LINE
  8
0
 62
7
  6
CONTINUOUS
 10
121.2205681603
 20
267.9441628591
 11
120.9620284616
 21
268.2199939959
  0
LINE
  8
0
 62
7
  6
CONTINUOUS
 10
122.9599651797
 20
269.5174052199
 11
123.2185048784
 21
269.2415740831
  0
LINE
  8
0
 62
7
  6
CONTINUOUS
 10
123.2529535368
 20
271.305062963
 11
123.5114932355
 21
271.0292318262
  0
LINE
  8
0
 62
7
  6
CONTINUOUS
 10
131.0994762177
 20
264.773417145
 11
131.3156196008
 21
264.463243578
  0
LINE
  8
0
 62
7
  6
CONTINUOUS
 10
131.6998565925
 20
264.8859714221
 11
131.4837131994
 21
265.1961449631
  0
LINE
  8
0
 62
7
  6
CONTINUOUS
 10
133.6261013283
 20
266.4283774498
 11
133.8422447214
 21
266.1182039089
  0
LINE
  8
0
 62
7
  6
CONTINUOUS
 10
136.2803720264
 20
262.7824958173
 11
136.4731184778
 21
262.4572660443
  0
LINE
  8
0
 62
7
  6
CONTINUOUS
 10
138.9218683101
 20
264.2471546321
 11
139.1146147693
 21
263.9219248759
  0
LINE
  8
0
 62
7
  6
CONTINUOUS
 10
142.1776710714
 20
259.8179762282
 11
142.3398372809
 21
259.4764682191
  0
LINE
  8
0
 62
7
  6
CONTINUOUS
 10
143.6669664568
 20
260.9183973682
 11
143.5048002379
 21
261.2599053612
  0
LINE
  8
0
 62
7
  6
CONTINUOUS
 10
144.4954105951
 20
259.4470996851
 11
144.657576814
 21
259.105591692
  0
LINE
  8
0
 62
7
  6
CONTINUOUS
 10
145.984705924
 20
260.5475207286
 11
145.8225397051
 21
260.8890287216
  0
LINE
  8
0
 62
7
  6
CONTINUOUS
 10
143.0377264287
 20
261.2868341345
 11
143.2360329046
 21
260.8008872072
  0
LINE
  8
0
 62
7
  6
CONTINUOUS
 10
145.1246506232
 20
259.0786629188
 11
144.926344072
 21
259.5646097174
  0
LINE
  8
0
 62
7
  6
CONTINUOUS
 10
155.021400568
 20
256.1585674456
 11
154.8855861295
 21
256.6655351669
  0
LINE
  8
0
 62
7
  6
CONTINUOUS
 10
154.6425756782
 20
251.487753831
 11
154.5479262875
 21
251.853769017
  0
LINE
  8
0
 62
7
  6
CONTINUOUS
 10
158.2104288029
 20
253.0281415862
 11
158.3050782428
 21
252.6621264562
  0
LINE
  8
0
 62
7
  6
CONTINUOUS
 10
154.536675588
 20
137.9978662325
 11
154.4896988234
 21
137.8952236216
  0
LINE
  8
0
 62
7
  6
CONTINUOUS
 10
155.1752064127
 20
139.304387289
 11
155.1282296518
 21
139.2017446744
  0
LINE
  8
0
 62
7
  6
CONTINUOUS
 10
154.5453646698
 20
137.8395577752
 11
154.5923414343
 21
137.9422003862
  0
LINE
  8
0
 62
7
  6
CONTINUOUS
 10
157.0292010151
 20
140.9913843353
 11
157.0761778153
 21
141.0940269818
  0
LINE
  8
0
 62
7
  6
CONTINUOUS
 10
156.7560295387
 20
140.2172201833
 11
156.7090528455
 21
140.1145776437
  0
LINE
  8
0
 62
7
  6
CONTINUOUS
 10
156.7647186918
 20
140.0589117973
 11
156.8116953851
 21
140.1615543369
  0
LINE
  8
0
 62
7
  6
CONTINUOUS
 10
157.7981378051
 20
141.1201638338
 11
157.8451145786
 21
141.2228064536
  0
LINE
  8
0
 62
7
  6
CONTINUOUS
 10
152.8311693399
 20
136.9603502162
 11
152.7592561116
 21
136.8327711342
  0
LINE
  8
0
 62
7
  6
CONTINUOUS
 10
152.9007516564
 20
136.8907678998
 11
152.9367084151
 21
136.9545575816
  0
LINE
  8
0
 62
7
  6
CONTINUOUS
 10
153.6778122641
 20
137.1111699855
 11
153.6418555054
 21
137.0473803036
  0
LINE
  8
0
 62
7
  6
CONTINUOUS
 10
153.7473945721
 20
137.0415876776
 11
153.8193078041
 21
137.1691667559
  0
LINE
  8
0
 62
7
  6
CONTINUOUS
 10
155.6942121117
 20
139.4337320269
 11
155.6582554956
 21
139.3699424877
  0
LINE
  8
0
 62
7
  6
CONTINUOUS
 10
155.7637944391
 20
139.3641496995
 11
155.8357078138
 21
139.4917289206
  0
LINE
  8
0
 62
7
  6
CONTINUOUS
 10
155.8971662862
 20
139.3305240076
 11
155.8612096702
 21
139.2667344684
  0
LINE
  8
0
 62
7
  6
CONTINUOUS
 10
156.995575386
 20
141.1247562623
 11
156.9236620863
 21
140.9971771089
  0
LINE
  8
0
 62
7
  6
CONTINUOUS
 10
155.9916852043
 20
139.2858783098
 11
156.0276418203
 21
139.349667849
  0
LINE
  8
0
 62
7
  6
CONTINUOUS
 10
157.6925988455
 20
141.1259565669
 11
157.656642176
 21
141.0621669742
  0
LINE
  8
0
 62
7
  6
CONTINUOUS
 10
155.2447887292
 20
139.2348049726
 11
155.3416385665
 21
139.3873206659
  0
LINE
  8
0
 62
7
  6
CONTINUOUS
 10
157.737244579
 20
141.0314376845
 11
157.7981378051
 21
141.1201638338
  0
LINE
  8
0
 62
7
  6
CONTINUOUS
 10
152.9367084151
 20
136.9545575816
 11
153.0225381038
 21
137.0682202033
  0
LINE
  8
0
 62
7
  6
CONTINUOUS
 10
153.6418555054
 20
137.0473803036
 11
153.5560258118
 21
136.9337176868
  0
LINE
  8
0
 62
7
  6
CONTINUOUS
 10
154.4896988234
 20
137.8952236216
 11
154.4038688444
 21
137.7815607194
  0
LINE
  8
0
 62
7
  6
CONTINUOUS
 10
155.6582554956
 20
139.3699424877
 11
155.5724256594
 21
139.2562797283
  0
LINE
  8
0
 62
7
  6
CONTINUOUS
 10
154.4595346908
 20
137.7258948731
 11
154.5453646698
 21
137.8395577752
  0
LINE
  8
0
 62
7
  6
CONTINUOUS
 10
155.8612096702
 20
139.2667344684
 11
155.7753798339
 21
139.1530717089
  0
LINE
  8
0
 62
7
  6
CONTINUOUS
 10
156.7090528455
 20
140.1145776437
 11
156.6232230092
 21
140.0009148842
  0
LINE
  8
0
 62
7
  6
CONTINUOUS
 10
156.6788888556
 20
139.9452490379
 11
156.7647186918
 21
140.0589117973
  0
LINE
  8
0
 62
7
  6
CONTINUOUS
 10
157.656642176
 20
141.0621669742
 11
157.5708123754
 21
140.9485042504
  0
LINE
  8
0
 62
7
  6
CONTINUOUS
 10
155.2859727153
 20
139.4429865172
 11
155.1752064127
 21
139.304387289
  0
LINE
  8
0
 62
7
  6
CONTINUOUS
 10
152.9668722526
 20
137.1238860545
 11
152.8311693399
 21
136.9603502162
  0
LINE
  8
0
 62
7
  6
CONTINUOUS
 10
153.6116916582
 20
136.8780518405
 11
153.7473945721
 21
137.0415876776
  0
LINE
  8
0
 62
7
  6
CONTINUOUS
 10
155.6280915252
 20
139.2006138624
 11
155.7637944391
 21
139.3641496995
  0
LINE
  8
0
 62
7
  6
CONTINUOUS
 10
157.6015416829
 20
140.8679018652
 11
157.737244579
 21
141.0314376845
  0
LINE
  8
0
 62
7
  6
CONTINUOUS
 10
157.1562148731
 20
141.313228675
 11
156.995575386
 21
141.1247562623
  0
LINE
  8
0
 62
7
  6
CONTINUOUS
 10
157.0761778153
 20
141.0940269818
 11
157.2368172631
 21
141.2824993626
  0
LINE
  8
0
 62
7
  6
CONTINUOUS
 10
155.8310456803
 20
139.0974058626
 11
155.9916852043
 21
139.2858783098
  0
LINE
  8
0
 62
7
  6
CONTINUOUS
 10
156.5826739457
 20
140.7396877476
 11
156.457991109
 21
140.6150049109
  0
LINE
  8
0
 62
7
  6
CONTINUOUS
 10
156.0091329825
 20
140.1661467844
 11
155.8844502172
 21
140.0414640191
  0
LINE
  8
0
 62
7
  6
CONTINUOUS
 10
155.4355920907
 20
139.5926058926
 11
155.2859727153
 21
139.4429865172
  0
LINE
  8
0
 62
7
  6
CONTINUOUS
 10
155.0116705744
 20
139.1686843763
 11
154.8869876664
 21
139.0440014683
  0
LINE
  8
0
 62
7
  6
CONTINUOUS
 10
154.6874950707
 20
138.8445088725
 11
154.562812448
 21
138.7198262499
  0
LINE
  8
0
 62
7
  6
CONTINUOUS
 10
154.3633198522
 20
138.5203336541
 11
154.2386369442
 21
138.3956507461
  0
LINE
  8
0
 62
7
  6
CONTINUOUS
 10
153.7897788178
 20
137.9467926197
 11
153.6650961951
 21
137.822109997
  0
LINE
  8
0
 62
7
  6
CONTINUOUS
 10
153.1164916281
 20
137.27350543
 11
152.9668722526
 21
137.1238860545
  0
LINE
  8
0
 62
7
  6
CONTINUOUS
 10
153.0225381038
 20
137.0682202033
 11
153.1721574793
 21
137.2178395788
  0
LINE
  8
0
 62
7
  6
CONTINUOUS
 10
155.3416385665
 20
139.3873206659
 11
155.491257942
 21
139.5369400414
  0
LINE
  8
0
 62
7
  6
CONTINUOUS
 10
153.4522523938
 20
137.3866027908
 11
153.5769353018
 21
137.5112856988
  0
LINE
  8
0
 62
7
  6
CONTINUOUS
 10
156.9213310341
 20
140.8000155653
 11
157.0460138708
 21
140.9246984019
  0
LINE
  8
0
 62
7
  6
CONTINUOUS
 10
157.3197506936
 20
141.4489315699
 11
157.1562148731
 21
141.313228675
  0
LINE
  8
0
 62
7
  6
CONTINUOUS
 10
153.2800274664
 20
137.4092083427
 11
153.1164916281
 21
137.27350543
  0
LINE
  8
0
 62
7
  6
CONTINUOUS
 10
155.5492547088
 20
139.678435585
 11
155.4355920907
 21
139.5926058926
  0
LINE
  8
0
 62
7
  6
CONTINUOUS
 10
156.6232230092
 20
140.0009148842
 11
156.5095602497
 21
139.9150850479
  0
LINE
  8
0
 62
7
  6
CONTINUOUS
 10
155.6257604584
 20
139.0034523334
 11
155.512097699
 21
138.9176224971
  0
LINE
  8
0
 62
7
  6
CONTINUOUS
 10
157.4084768441
 20
141.5098247948
 11
157.3197506936
 21
141.4489315699
  0
LINE
  8
0
 62
7
  6
CONTINUOUS
 10
157.2368172631
 20
141.2824993626
 11
157.4142695845
 21
141.4042858279
  0
LINE
  8
0
 62
7
  6
CONTINUOUS
 10
156.4904164083
 20
139.7846095138
 11
156.5791425577
 21
139.84550274
  0
LINE
  8
0
 62
7
  6
CONTINUOUS
 10
153.3687536169
 20
137.4701015676
 11
153.2800274664
 21
137.4092083427
  0
LINE
  8
0
 62
7
  6
CONTINUOUS
 10
155.6130443918
 20
139.7143923425
 11
155.5492547088
 21
139.678435585
  0
LINE
  8
0
 62
7
  6
CONTINUOUS
 10
157.2854901217
 20
140.6353490735
 11
157.4130692714
 21
140.7072623769
  0
LINE
  8
0
 62
7
  6
CONTINUOUS
 10
155.491257942
 20
139.5369400414
 11
155.6188370252
 21
139.6088532686
  0
LINE
  8
0
 62
7
  6
CONTINUOUS
 10
156.5095602497
 20
139.9150850479
 11
156.4457707105
 21
139.8791284319
  0
LINE
  8
0
 62
7
  6
CONTINUOUS
 10
155.512097699
 20
138.9176224971
 11
155.4483083025
 21
138.8816660238
  0
LINE
  8
0
 62
7
  6
CONTINUOUS
 10
153.3356933213
 20
137.3535424878
 11
153.3994830031
 21
137.3894992465
  0
LINE
  8
0
 62
7
  6
CONTINUOUS
 10
154.2902062276
 20
137.6957310258
 11
154.2264165458
 21
137.6597742671
  0
LINE
  8
0
 62
7
  6
CONTINUOUS
 10
153.2428705993
 20
136.6483953975
 11
153.1790809174
 21
136.6124386388
  0
LINE
  8
0
 62
7
  6
CONTINUOUS
 10
157.5111194664
 20
141.5568015658
 11
157.4084768441
 21
141.5098247948
  0
LINE
  8
0
 62
7
  6
CONTINUOUS
 10
157.3823399995
 20
140.7878647977
 11
157.2796973529
 21
140.7408879974
  0
LINE
  8
0
 62
7
  6
CONTINUOUS
 10
156.3877737974
 20
139.7376327493
 11
156.4904164083
 21
139.7846095138
  0
LINE
  8
0
 62
7
  6
CONTINUOUS
 10
155.4152479995
 20
138.7651069513
 11
155.5178906104
 21
138.8120837159
  0
LINE
  8
0
 62
7
  6
CONTINUOUS
 10
153.4713962303
 20
137.5170783297
 11
153.3687536169
 21
137.4701015676
  0
LINE
  8
0
 62
7
  6
CONTINUOUS
 10
154.1684197753
 20
137.5182787272
 11
154.2710623863
 21
137.5652554917
  0
LINE
  8
0
 62
7
  6
CONTINUOUS
 10
153.5195038069
 20
137.1198590673
 11
153.6221464178
 21
137.1668358318
  0
LINE
  8
0
 62
7
  6
CONTINUOUS
 10
153.0590601234
 20
136.8820788082
 11
152.9564175125
 21
136.8351020437
  0
LINE
  8
0
 62
7
  6
CONTINUOUS
 10
153.1071676854
 20
136.4848595604
 11
153.2098102963
 21
136.531836325
  0
LINE
  8
0
 62
7
  6
CONTINUOUS
 10
153.6940596498
 20
137.2944149102
 11
153.5525640903
 21
137.2364181593
  0
LINE
  8
0
 62
7
  6
CONTINUOUS
 10
152.8845042805
 20
136.7075229653
 11
153.0259998204
 21
136.7655197357
  0
LINE
  8
0
 62
7
  6
CONTINUOUS
 10
81.2827232897
 20
265.148589088
 11
81.9095645836
 21
265.2435223783
  0
LINE
  8
0
 62
7
  6
CONTINUOUS
 10
63.1182143095
 20
256.5045508301
 11
62.6535240001
 21
256.4502980468
  0
LINE
  8
0
 62
7
  6
CONTINUOUS
 10
122.5421028886
 20
267.648660012
 11
122.2139194828
 21
267.6130336506
  0
LINE
  8
0
 62
7
  6
CONTINUOUS
 10
121.6384304514
 20
269.8129080669
 11
121.9666138572
 21
269.8485344284
  0
LINE
  8
0
 62
7
  6
CONTINUOUS
 10
132.6781806147
 20
263.9434664813
 11
132.9107502888
 21
263.9686085615
  0
LINE
  8
0
 62
7
  6
CONTINUOUS
 10
132.2256234899
 20
266.8487581185
 11
132.6907628315
 21
266.8990422614
  0
LINE
  8
0
 62
7
  6
CONTINUOUS
 10
81.6772347734
 20
265.6149400926
 11
81.2482219439
 21
265.5853240687
  0
LINE
  8
0
 62
7
  6
CONTINUOUS
 10
65.942677227
 20
261.1735289736
 11
66.1761296952
 21
261.1883605466
  0
LINE
  8
0
 62
7
  6
CONTINUOUS
 10
137.9372989188
 20
261.653981877
 11
138.4048767696
 21
261.6699213664
  0
LINE
  8
0
 62
7
  6
CONTINUOUS
 10
137.7447645164
 20
264.6810255741
 11
137.9785491177
 21
264.6889973287
  0
LINE
  8
0
 62
7
  6
CONTINUOUS
 10
80.9526258375
 20
265.1516320313
 11
81.2827232897
 21
265.148589088
  0
LINE
  8
0
 62
7
  6
CONTINUOUS
 10
141.3115427896
 20
262.690763168
 11
141.7793514568
 21
262.6852671959
  0
LINE
  8
0
 62
7
  6
CONTINUOUS
 10
121.9961872403
 20
267.1166693759
 11
122.5276847571
 21
267.1068335299
  0
LINE
  8
0
 62
7
  6
CONTINUOUS
 10
144.173795679
 20
258.2793591258
 11
144.6408695024
 21
258.2524303766
  0
LINE
  8
0
 62
7
  6
CONTINUOUS
 10
144.44256297
 20
258.7383772074
 11
144.2090301802
 21
258.7518391847
  0
LINE
  8
0
 62
7
  6
CONTINUOUS
 10
143.7198140443
 20
261.6271197815
 11
143.953346834
 21
261.6136578042
  0
LINE
  8
0
 62
7
  6
CONTINUOUS
 10
143.9885813023
 20
262.0861378069
 11
143.5215074931
 21
262.1130665802
  0
LINE
  8
0
 62
7
  6
CONTINUOUS
 10
94.4515525881
 20
268.3133814675
 11
94.9818874072
 21
268.2768940194
  0
LINE
  8
0
 62
7
  6
CONTINUOUS
 10
132.2509625495
 20
263.9925770582
 11
132.6781806147
 21
263.9434664813
  0
LINE
  8
0
 62
7
  6
CONTINUOUS
 10
132.8677647601
 20
264.440448682
 11
132.4405466982
 21
264.4895592676
  0
LINE
  8
0
 62
7
  6
CONTINUOUS
 10
94.8973762598
 20
268.9095724826
 11
94.4702918402
 21
268.9598517765
  0
LINE
  8
0
 62
7
  6
CONTINUOUS
 10
81.2482219439
 20
265.5853240687
 11
81.0170398632
 21
265.6210259969
  0
LINE
  8
0
 62
7
  6
CONTINUOUS
 10
142.1190164603
 20
263.1076561503
 11
141.7929011406
 21
263.158865366
  0
LINE
  8
0
 62
7
  6
CONTINUOUS
 10
82.0637234791
 20
268.4313053102
 11
81.4690903417
 21
268.571069341
  0
LINE
  8
0
 62
7
  6
CONTINUOUS
 10
155.5530406306
 20
249.8402250931
 11
156.0065843382
 21
249.7254502179
  0
LINE
  8
0
 62
7
  6
CONTINUOUS
 10
157.2999709774
 20
254.6756639868
 11
156.8464201183
 21
254.7904451712
  0
LINE
  8
0
 62
7
  6
CONTINUOUS
 10
144.2090301802
 20
258.7518391847
 11
143.7957098038
 21
258.8705715309
  0
LINE
  8
0
 62
7
  6
CONTINUOUS
 10
137.2318547173
 20
261.8669314623
 11
137.9372989188
 21
261.653981877
  0
LINE
  8
0
 62
7
  6
CONTINUOUS
 10
153.6359119105
 20
255.2108931028
 11
153.3233230823
 21
255.3170147782
  0
LINE
  8
0
 62
7
  6
CONTINUOUS
 10
94.0103853384
 20
268.469107503
 11
94.4515525881
 21
268.3133814675
  0
LINE
  8
0
 62
7
  6
CONTINUOUS
 10
96.1173815785
 20
273.150995773
 11
95.6762119694
 21
273.3067214651
  0
LINE
  8
0
 62
7
  6
CONTINUOUS
 10
143.5806959786
 20
258.5033570784
 11
144.173795679
 21
258.2793591258
  0
LINE
  8
0
 62
7
  6
CONTINUOUS
 10
121.0028405732
 20
267.447797553
 11
121.487908948
 21
267.2303233566
  0
LINE
  8
0
 62
7
  6
CONTINUOUS
 10
155.8956018601
 20
250.3887935215
 11
155.5121972616
 21
250.5835549384
  0
LINE
  8
0
 62
7
  6
CONTINUOUS
 10
155.091319649
 20
250.1036734874
 11
155.5530406306
 21
249.8402250931
  0
LINE
  8
0
 62
7
  6
CONTINUOUS
 10
121.5023224281
 20
267.7721508883
 11
121.2205681603
 21
267.9441628591
  0
LINE
  8
0
 62
7
  6
CONTINUOUS
 10
122.6782109119
 20
269.6894171906
 11
122.9599651797
 21
269.5174052199
  0
LINE
  8
0
 62
7
  6
CONTINUOUS
 10
136.7109891505
 20
262.2283749555
 11
137.2318547173
 21
261.8669314623
  0
LINE
  8
0
 62
7
  6
CONTINUOUS
 10
131.3156196008
 20
264.463243578
 11
131.6670084657
 21
264.2153384283
  0
LINE
  8
0
 62
7
  6
CONTINUOUS
 10
132.0512410055
 20
264.6380679806
 11
131.6998565925
 21
264.8859714221
  0
LINE
  8
0
 62
7
  6
CONTINUOUS
 10
137.3180214108
 20
262.2964696601
 11
136.9858162398
 21
262.5695462574
  0
LINE
  8
0
 62
7
  6
CONTINUOUS
 10
142.5557569467
 20
259.2267638231
 11
143.0413497345
 21
258.8191586442
  0
LINE
  8
0
 62
7
  6
CONTINUOUS
 10
136.4731184778
 20
262.4572660443
 11
136.7109891505
 21
262.2283749555
  0
LINE
  8
0
 62
7
  6
CONTINUOUS
 10
123.6163319913
 20
269.5886579429
 11
123.1776927526
 21
270.0137704624
  0
LINE
  8
0
 62
7
  6
CONTINUOUS
 10
123.9093203484
 20
271.3763156859
 11
123.4706857631
 21
271.8014271649
  0
LINE
  8
0
 62
7
  6
CONTINUOUS
 10
143.2360329046
 20
260.8008872072
 11
144.4954105951
 21
259.4470996851
  0
LINE
  8
0
 62
7
  6
CONTINUOUS
 10
144.926344072
 20
259.5646097174
 11
143.6669664568
 21
260.9183973682
  0
LINE
  8
0
 62
7
  6
CONTINUOUS
 10
133.9724214724
 20
266.7517088051
 11
133.8156854505
 21
266.9253595896
  0
LINE
  8
0
 62
7
  6
CONTINUOUS
 10
142.3398372809
 20
259.4764682191
 11
142.5557569467
 21
259.2267638231
  0
LINE
  8
0
 62
7
  6
CONTINUOUS
 10
136.9858162398
 20
262.5695462574
 11
136.8422800733
 21
262.7542518545
  0
LINE
  8
0
 62
7
  6
CONTINUOUS
 10
154.1433888647
 20
251.0765530831
 11
154.464810143
 21
250.653150498
  0
LINE
  8
0
 62
7
  6
CONTINUOUS
 10
154.8856877556
 20
251.133031949
 11
154.6425756782
 21
251.487753831
  0
LINE
  8
0
 62
7
  6
CONTINUOUS
 10
139.5329823157
 20
264.078388499
 11
139.1966953717
 21
264.5883258749
  0
LINE
  8
0
 62
7
  6
CONTINUOUS
 10
142.770770786
 20
259.5939782996
 11
142.6447448994
 21
259.7910474871
  0
LINE
  8
0
 62
7
  6
CONTINUOUS
 10
145.3916062283
 20
260.7715186893
 11
145.5176321148
 21
260.5744495019
  0
LINE
  8
0
 62
7
  6
CONTINUOUS
 10
153.9704230663
 20
251.5112552185
 11
154.1433888647
 21
251.0765530831
  0
LINE
  8
0
 62
7
  6
CONTINUOUS
 10
158.8825813902
 20
253.0046401706
 11
158.7096227433
 21
253.4393359968
  0
LINE
  8
0
 62
7
  6
CONTINUOUS
 10
155.5724256594
 20
139.2562797283
 11
155.2981233758
 21
138.9819774448
  0
LINE
  8
0
 62
7
  6
CONTINUOUS
 10
155.3537892417
 20
138.9263115789
 11
155.6280915252
 21
139.2006138624
  0
LINE
  8
0
 62
7
  6
CONTINUOUS
 10
157.2130114293
 20
140.7577008434
 11
157.0883285927
 21
140.6330180067
  0
LINE
  8
0
 62
7
  6
CONTINUOUS
 10
156.0189527385
 20
139.5079763062
 11
155.8942699732
 21
139.3832935409
  0
LINE
  8
0
 62
7
  6
CONTINUOUS
 10
153.1263115268
 20
136.6153350945
 11
153.0016289041
 21
136.4906524718
  0
LINE
  8
0
 62
7
  6
CONTINUOUS
 10
155.7753798339
 20
139.1530717089
 11
155.6257604584
 21
139.0034523334
  0
LINE
  8
0
 62
7
  6
CONTINUOUS
 10
153.5560258118
 20
136.9337176868
 11
153.4064064363
 21
136.7840983114
  0
LINE
  8
0
 62
7
  6
CONTINUOUS
 10
153.4620722827
 20
136.728432465
 11
153.6116916582
 21
136.8780518405
  0
LINE
  8
0
 62
7
  6
CONTINUOUS
 10
154.3597885356
 20
137.6261487179
 11
154.4595346908
 21
137.7258948731
  0
LINE
  8
0
 62
7
  6
CONTINUOUS
 10
154.683963754
 20
137.9503239363
 11
154.808646662
 21
138.0750068443
  0
LINE
  8
0
 62
7
  6
CONTINUOUS
 10
155.0081392578
 20
138.2744994401
 11
155.1328218804
 21
138.3991820628
  0
LINE
  8
0
 62
7
  6
CONTINUOUS
 10
155.6814263048
 20
138.9477864871
 11
155.8310456803
 21
139.0974058626
  0
LINE
  8
0
 62
7
  6
CONTINUOUS
 10
156.5791425577
 20
139.84550274
 11
156.6788888556
 21
139.9452490379
  0
LINE
  8
0
 62
7
  6
CONTINUOUS
 10
155.2719865353
 20
138.2600174079
 11
155.1473039127
 21
138.1353347852
  0
LINE
  8
0
 62
7
  6
CONTINUOUS
 10
155.2168862206
 20
138.0657524773
 11
155.3415688432
 21
138.1904351
  0
LINE
  8
0
 62
7
  6
CONTINUOUS
 10
157.1120648816
 20
139.9609311383
 11
157.2367477183
 21
140.085613975
  0
LINE
  8
0
 62
7
  6
CONTINUOUS
 10
157.6508471032
 20
140.2522259865
 11
157.4728905842
 21
140.0742694675
  0
LINE
  8
0
 62
7
  6
CONTINUOUS
 10
156.943740322
 20
139.5451192053
 11
156.342699558
 21
138.9440784413
  0
LINE
  8
0
 62
7
  6
CONTINUOUS
 10
156.2012782018
 20
138.8026570851
 11
155.6002374378
 21
138.2016163211
  0
LINE
  8
0
 62
7
  6
CONTINUOUS
 10
154.7870646394
 20
137.3884435227
 11
154.1860238754
 21
136.7874027587
  0
LINE
  8
0
 62
7
  6
CONTINUOUS
 10
154.0446025192
 20
136.6459814024
 11
153.4435617551
 21
136.0449406384
  0
LINE
  8
0
 62
7
  6
CONTINUOUS
 10
157.7922684594
 20
139.4036978491
 11
158.0751111719
 21
139.6865405615
  0
LINE
  8
0
 62
7
  6
CONTINUOUS
 10
156.3780548971
 20
136.7166920806
 11
156.0952121846
 21
136.4338493681
  0
LINE
  8
0
 62
7
  6
CONTINUOUS
 10
155.0699073519
 20
134.4185950417
 11
155.6709481159
 21
135.0196358057
  0
LINE
  8
0
 62
7
  6
CONTINUOUS
 10
156.5194762533
 20
135.8681639431
 11
156.6974327723
 21
136.0461204621
  0
LINE
  8
0
 62
7
  6
CONTINUOUS
 10
157.2265830345
 20
136.5752707243
 11
157.8276237985
 21
137.1763114883
  0
LINE
  8
0
 62
7
  6
CONTINUOUS
 10
157.9690451547
 20
137.3177328446
 11
158.5700859188
 21
137.9187736086
  0
LINE
  8
0
 62
7
  6
CONTINUOUS
 10
159.3832587171
 20
138.7319464069
 11
159.9842994811
 21
139.332987171
  0
LINE
  8
0
 62
7
  6
CONTINUOUS
 10
157.5708123754
 20
140.9485042504
 11
157.3823399995
 21
140.7878647977
  0
LINE
  8
0
 62
7
  6
CONTINUOUS
 10
157.4130692714
 20
140.7072623769
 11
157.6015416829
 21
140.8679018652
  0
LINE
  8
0
 62
7
  6
CONTINUOUS
 10
153.1721574793
 20
137.2178395788
 11
153.3356933213
 21
137.3535424878
  0
LINE
  8
0
 62
7
  6
CONTINUOUS
 10
155.5178906104
 20
138.8120837159
 11
155.6814263048
 21
138.9477864871
  0
LINE
  8
0
 62
7
  6
CONTINUOUS
 10
153.4064064363
 20
136.7840983114
 11
153.2428705993
 21
136.6483953975
  0
LINE
  8
0
 62
7
  6
CONTINUOUS
 10
153.2985364456
 20
136.5927295511
 11
153.4620722827
 21
136.728432465
  0
LINE
  8
0
 62
7
  6
CONTINUOUS
 10
154.4038688444
 20
137.7815607194
 11
154.2902062276
 21
137.6957310258
  0
LINE
  8
0
 62
7
  6
CONTINUOUS
 10
153.5525640903
 20
137.2364181593
 11
153.0590601234
 21
136.8820788082
  0
LINE
  8
0
 62
7
  6
CONTINUOUS
 10
153.0259998204
 20
136.7655197357
 11
153.5195038069
 21
137.1198590673
  0
LINE
  8
0
 62
7
  6
CONTINUOUS
 10
154.2710623863
 20
137.5652554917
 11
154.3597885356
 21
137.6261487179
  0
LINE
  8
0
 62
7
  6
CONTINUOUS
 10
153.2098102963
 20
136.531836325
 11
153.2985364456
 21
136.5927295511
  0
LINE
  8
0
 62
7
  6
CONTINUOUS
 10
84.1916499965
 20
265.9751148647
 11
84.7953280735
 21
266.1369721455
  0
LINE
  8
0
 62
7
  6
CONTINUOUS
 10
87.0088151234
 20
266.7304490476
 11
87.6124932004
 21
266.8923063284
  0
LINE
  8
0
 62
7
  6
CONTINUOUS
 10
86.7308876137
 20
270.1804251118
 11
86.1272095368
 21
270.018567831
  0
LINE
  8
0
 62
7
  6
CONTINUOUS
 10
83.9137224868
 20
269.4250909289
 11
83.3100444098
 21
269.2632336481
  0
LINE
  8
0
 62
7
  6
CONTINUOUS
 10
65.9942588707
 20
261.6989554209
 11
65.6712251226
 21
261.6309643697
  0
LINE
  8
0
 62
7
  6
CONTINUOUS
 10
80.876748112
 20
268.0394003755
 11
81.5035894031
 21
268.1343336747
  0
LINE
  8
0
 62
7
  6
CONTINUOUS
 10
81.4690903417
 20
268.571069341
 11
80.8422490507
 21
268.4761360418
  0
LINE
  8
0
 62
7
  6
CONTINUOUS
 10
94.9818874072
 20
268.2768940194
 11
95.807883504
 21
268.3872279124
  0
LINE
  8
0
 62
7
  6
CONTINUOUS
 10
95.7233723566
 20
269.0199063756
 11
94.8973762598
 21
268.9095724826
  0
LINE
  8
0
 62
7
  6
CONTINUOUS
 10
94.4043945554
 20
272.6001969373
 11
95.2303906522
 21
272.7105308303
  0
LINE
  8
0
 62
7
  6
CONTINUOUS
 10
95.1458795147
 20
273.3432092197
 11
94.3198834179
 21
273.2328753267
  0
LINE
  8
0
 62
7
  6
CONTINUOUS
 10
122.0330781897
 20
271.5778341814
 11
122.3612615955
 21
271.6134605429
  0
LINE
  8
0
 62
7
  6
CONTINUOUS
 10
98.2904742946
 20
268.6907783698
 11
98.9141084201
 21
268.7320757979
  0
LINE
  8
0
 62
7
  6
CONTINUOUS
 10
101.5125823568
 20
268.9041483101
 11
102.448033545
 21
268.9660944523
  0
LINE
  8
0
 62
7
  6
CONTINUOUS
 10
102.11765412
 20
273.9551674559
 11
101.4940199945
 21
273.9138700278
  0
LINE
  8
0
 62
7
  6
CONTINUOUS
 10
98.8955460578
 20
273.7417975156
 11
97.9600948696
 21
273.6798513734
  0
LINE
  8
0
 62
7
  6
CONTINUOUS
 10
103.282312991
 20
268.987963084
 11
107.0323036236
 21
268.9963449334
  0
LINE
  8
0
 62
7
  6
CONTINUOUS
 10
107.0308769258
 20
269.6346412097
 11
103.905884732
 21
269.6276563352
  0
LINE
  8
0
 62
7
  6
CONTINUOUS
 10
103.9020802045
 20
271.3297797635
 11
106.610408362
 21
271.335833325
  0
LINE
  8
0
 62
7
  6
CONTINUOUS
 10
106.6089816644
 20
271.9741295268
 11
103.9006535069
 21
271.9680759653
  0
LINE
  8
0
 62
7
  6
CONTINUOUS
 10
103.8975623281
 20
273.3510513672
 11
107.022554522
 21
273.3580362417
  0
LINE
  8
0
 62
7
  6
CONTINUOUS
 10
107.0211278244
 20
273.9963324435
 11
103.2711371918
 21
273.9879505941
  0
LINE
  8
0
 62
7
  6
CONTINUOUS
 10
122.1843460835
 20
270.3448986303
 11
121.6528485687
 21
270.3547344855
  0
LINE
  8
0
 62
7
  6
CONTINUOUS
 10
122.5789938218
 20
272.1098247448
 11
122.047496307
 21
272.1196606
  0
LINE
  8
0
 62
7
  6
CONTINUOUS
 10
95.6762119694
 20
273.3067214651
 11
95.1458795147
 21
273.3432092197
  0
LINE
  8
0
 62
7
  6
CONTINUOUS
 10
138.0647157954
 20
265.1185354927
 11
137.736596684
 21
265.1547492213
  0
LINE
  8
0
 62
7
  6
CONTINUOUS
 10
132.8803469536
 20
267.3960244011
 11
132.4531244365
 21
267.4451366862
  0
LINE
  8
0
 62
7
  6
CONTINUOUS
 10
95.2303906522
 20
272.7105308303
 11
95.6574750718
 21
272.6602515364
  0
LINE
  8
0
 62
7
  6
CONTINUOUS
 10
112.8563817625
 20
268.6423094692
 11
116.9887894692
 21
268.1091074326
  0
LINE
  8
0
 62
7
  6
CONTINUOUS
 10
117.0704715143
 20
268.7421573638
 11
113.5579252001
 21
269.1953790644
  0
LINE
  8
0
 62
7
  6
CONTINUOUS
 10
113.4281560876
 20
273.0736590612
 11
117.0440110575
 21
272.6071075079
  0
LINE
  8
0
 62
7
  6
CONTINUOUS
 10
117.6286321572
 20
273.0679985722
 11
113.4962244506
 21
273.6012006089
  0
LINE
  8
0
 62
7
  6
CONTINUOUS
 10
118.4231298893
 20
267.8397350842
 11
119.0385248371
 21
267.7305835459
  0
LINE
  8
0
 62
7
  6
CONTINUOUS
 10
119.9117371433
 20
272.6537431277
 11
119.2963421956
 21
272.762894666
  0
LINE
  8
0
 62
7
  6
CONTINUOUS
 10
137.9785491177
 20
264.6889973287
 11
138.4010027394
 21
264.6085981169
  0
LINE
  8
0
 62
7
  6
CONTINUOUS
 10
121.487908948
 20
267.2303233566
 11
121.9961872403
 21
267.1166693759
  0
LINE
  8
0
 62
7
  6
CONTINUOUS
 10
122.2139194828
 20
267.6130336506
 11
121.5023224281
 21
267.7721508883
  0
LINE
  8
0
 62
7
  6
CONTINUOUS
 10
121.9666138572
 20
269.8485344284
 11
122.6782109119
 21
269.6894171906
  0
LINE
  8
0
 62
7
  6
CONTINUOUS
 10
122.6926243758
 20
270.2312446497
 11
122.1843460835
 21
270.3448986303
  0
LINE
  8
0
 62
7
  6
CONTINUOUS
 10
123.6451636375
 20
270.6723121113
 11
124.1534465832
 21
270.5586570901
  0
LINE
  8
0
 62
7
  6
CONTINUOUS
 10
122.3612615955
 20
271.6134605429
 11
122.971199269
 21
271.4770749337
  0
LINE
  8
0
 62
7
  6
CONTINUOUS
 10
122.9856173864
 20
272.0189013522
 11
122.5789938218
 21
272.1098247448
  0
LINE
  8
0
 62
7
  6
CONTINUOUS
 10
138.675829801
 20
264.9497693597
 11
138.0647157954
 21
265.1185354927
  0
LINE
  8
0
 62
7
  6
CONTINUOUS
 10
143.953346834
 20
261.6136578042
 11
144.3666671916
 21
261.4949254259
  0
LINE
  8
0
 62
7
  6
CONTINUOUS
 10
142.62954531
 20
262.9595289117
 11
142.1190164603
 21
263.1076561503
  0
LINE
  8
0
 62
7
  6
CONTINUOUS
 10
138.0234656241
 20
262.0835201001
 11
137.3180214108
 21
262.2964696601
  0
LINE
  8
0
 62
7
  6
CONTINUOUS
 10
141.7793514568
 20
262.6852671959
 11
142.3820912926
 21
262.4886787276
  0
LINE
  8
0
 62
7
  6
CONTINUOUS
 10
129.1143913172
 20
265.1201131074
 11
129.7062864501
 21
264.9194014942
  0
LINE
  8
0
 62
7
  6
CONTINUOUS
 10
131.311979356
 20
269.6545625571
 11
130.7200842231
 21
269.8552741704
  0
LINE
  8
0
 62
7
  6
CONTINUOUS
 10
144.581680998
 20
261.8621398462
 11
143.9885813023
 21
262.0861378069
  0
LINE
  8
0
 62
7
  6
CONTINUOUS
 10
131.6670084657
 20
264.2153384283
 11
132.2509625495
 21
263.9925770582
  0
LINE
  8
0
 62
7
  6
CONTINUOUS
 10
133.1268936752
 20
263.6584350031
 11
133.6135191083
 21
263.4728016611
  0
LINE
  8
0
 62
7
  6
CONTINUOUS
 10
132.4405466982
 20
264.4895592676
 11
132.0512410055
 21
264.6380679806
  0
LINE
  8
0
 62
7
  6
CONTINUOUS
 10
132.6907628315
 20
266.8990422614
 11
133.2747169153
 21
266.6762808913
  0
LINE
  8
0
 62
7
  6
CONTINUOUS
 10
133.4643010374
 20
267.1732630311
 11
132.8803469536
 21
267.3960244011
  0
LINE
  8
0
 62
7
  6
CONTINUOUS
 10
135.3956100688
 20
268.1444343316
 11
134.9089846358
 21
268.3300676737
  0
LINE
  8
0
 62
7
  6
CONTINUOUS
 10
134.3770202159
 20
263.1374406774
 11
134.8564896745
 21
262.9340247118
  0
LINE
  8
0
 62
7
  6
CONTINUOUS
 10
136.8092769845
 20
267.5369174677
 11
136.3298075259
 21
267.7403334332
  0
LINE
  8
0
 62
7
  6
CONTINUOUS
 10
123.1776927526
 20
270.0137704624
 11
122.6926243758
 21
270.2312446497
  0
LINE
  8
0
 62
7
  6
CONTINUOUS
 10
123.4706857631
 20
271.8014271649
 11
122.9856173864
 21
272.0189013522
  0
LINE
  8
0
 62
7
  6
CONTINUOUS
 10
139.098071425
 20
262.1675563335
 11
138.6264118288
 21
262.3884776818
  0
LINE
  8
0
 62
7
  6
CONTINUOUS
 10
136.8218626828
 20
263.9385600288
 11
139.3688167295
 21
262.7455883887
  0
LINE
  8
0
 62
7
  6
CONTINUOUS
 10
139.0776540662
 20
263.3518645754
 11
137.0966898077
 21
264.2797314066
  0
LINE
  8
0
 62
7
  6
CONTINUOUS
 10
152.8517076993
 20
254.8744604155
 11
153.3294686392
 21
254.6413600002
  0
LINE
  8
0
 62
7
  6
CONTINUOUS
 10
156.9574026211
 20
254.1271018956
 11
157.3408072196
 21
253.9323404787
  0
LINE
  8
0
 62
7
  6
CONTINUOUS
 10
139.3860923631
 20
260.8183629851
 11
139.8471388512
 21
260.5760612731
  0
LINE
  8
0
 62
7
  6
CONTINUOUS
 10
141.4308447014
 20
263.5895027151
 11
140.9697982132
 21
263.8318044271
  0
LINE
  8
0
 62
7
  6
CONTINUOUS
 10
157.761684783
 20
254.4122218737
 11
157.2999709774
 21
254.6756639868
  0
LINE
  8
0
 62
7
  6
CONTINUOUS
 10
143.0413497345
 20
258.8191586442
 11
143.5806959786
 21
258.5033570784
  0
LINE
  8
0
 62
7
  6
CONTINUOUS
 10
143.7957098038
 20
258.8705715309
 11
143.2563635597
 21
259.1863730966
  0
LINE
  8
0
 62
7
  6
CONTINUOUS
 10
142.6623580187
 20
260.0272898978
 11
142.2129055585
 21
260.290456263
  0
LINE
  8
0
 62
7
  6
CONTINUOUS
 10
145.5000189956
 20
260.3382070912
 11
145.9494714557
 21
260.0750407259
  0
LINE
  8
0
 62
7
  6
CONTINUOUS
 10
144.3666671916
 20
261.4949254259
 11
144.9060134357
 21
261.1791238601
  0
LINE
  8
0
 62
7
  6
CONTINUOUS
 10
145.1210272421
 20
261.5463382804
 11
144.581680998
 21
261.8621398462
  0
LINE
  8
0
 62
7
  6
CONTINUOUS
 10
122.971199269
 20
271.4770749337
 11
123.2529535368
 21
271.305062963
  0
LINE
  8
0
 62
7
  6
CONTINUOUS
 10
138.4010027394
 20
264.6085981169
 11
138.9218683101
 21
264.2471546321
  0
LINE
  8
0
 62
7
  6
CONTINUOUS
 10
139.1966953717
 20
264.5883258749
 11
138.675829801
 21
264.9497693597
  0
LINE
  8
0
 62
7
  6
CONTINUOUS
 10
133.2747169153
 20
266.6762808913
 11
133.6261013283
 21
266.4283774498
  0
LINE
  8
0
 62
7
  6
CONTINUOUS
 10
133.8156854505
 20
266.9253595896
 11
133.4643010374
 21
267.1732630311
  0
LINE
  8
0
 62
7
  6
CONTINUOUS
 10
149.5081000169
 20
254.6270054949
 11
150.0036012308
 21
254.2460809
  0
LINE
  8
0
 62
7
  6
CONTINUOUS
 10
151.3652040575
 20
256.0172342003
 11
152.8517076993
 21
254.8744604155
  0
LINE
  8
0
 62
7
  6
CONTINUOUS
 10
153.3233230823
 20
255.3170147782
 11
151.7542333847
 21
256.5232779329
  0
LINE
  8
0
 62
7
  6
CONTINUOUS
 10
152.7268068843
 20
257.7883875007
 11
154.2958965819
 21
256.5821243459
  0
LINE
  8
0
 62
7
  6
CONTINUOUS
 10
154.5375016319
 20
257.0673168264
 11
152.5554967763
 21
258.5910152061
  0
LINE
  8
0
 62
7
  6
CONTINUOUS
 10
143.2563635597
 20
259.1863730966
 11
142.770770786
 21
259.5939782996
  0
LINE
  8
0
 62
7
  6
CONTINUOUS
 10
144.9060134357
 20
261.1791238601
 11
145.3916062283
 21
260.7715186893
  0
LINE
  8
0
 62
7
  6
CONTINUOUS
 10
145.6066200347
 20
261.1387331096
 11
145.1210272421
 21
261.5463382804
  0
LINE
  8
0
 62
7
  6
CONTINUOUS
 10
154.464810143
 20
250.653150498
 11
155.091319649
 21
250.1036734874
  0
LINE
  8
0
 62
7
  6
CONTINUOUS
 10
155.5121972616
 20
250.5835549384
 11
154.8856877556
 21
251.133031949
  0
LINE
  8
0
 62
7
  6
CONTINUOUS
 10
157.3408072196
 20
253.9323404787
 11
157.9673167256
 21
253.3828634681
  0
LINE
  8
0
 62
7
  6
CONTINUOUS
 10
158.388194289
 20
253.8627448632
 11
157.761684783
 21
254.4122218737
  0
LINE
  8
0
 62
7
  6
CONTINUOUS
 10
156.9622472327
 20
248.4426769721
 11
157.4011686441
 21
247.9977354089
  0
LINE
  8
0
 62
7
  6
CONTINUOUS
 10
158.4253230689
 20
246.959533902
 11
159.0105493849
 21
246.3662807475
  0
LINE
  8
0
 62
7
  6
CONTINUOUS
 10
160.0346971122
 20
245.3280860298
 11
160.4736185236
 21
244.8831444666
  0
LINE
  8
0
 62
7
  6
CONTINUOUS
 10
164.0331510291
 20
248.3945157574
 11
163.3747689121
 21
249.0619281022
  0
LINE
  8
0
 62
7
  6
CONTINUOUS
 10
161.1801618553
 20
251.2866359182
 11
160.5217797383
 21
251.9540482629
  0
LINE
  8
0
 62
7
  6
CONTINUOUS
 10
154.8855861295
 20
256.6655351669
 11
154.5375016319
 21
257.0673168264
  0
LINE
  8
0
 62
7
  6
CONTINUOUS
 10
145.8225397051
 20
260.8890287216
 11
145.6066200347
 21
261.1387331096
  0
LINE
  8
0
 62
7
  6
CONTINUOUS
 10
158.7096227433
 20
253.4393359968
 11
158.388194289
 21
253.8627448632
  0
LINE
  8
0
 62
7
  6
CONTINUOUS
 10
157.9673167256
 20
253.3828634681
 11
158.2104288029
 21
253.0281415862
  0
LINE
  8
0
 62
7
  6
CONTINUOUS
 10
154.2958965819
 20
256.5821243459
 11
154.4788089676
 21
256.3073214264
  0
LINE
  8
0
 62
7
  6
CONTINUOUS
 10
19.1249452954
 20
75.2636761488
 11
19.1249452954
 21
59.2636761488
  0
LINE
  8
0
 62
7
  6
CONTINUOUS
 10
189.5249169542
 20
57.2636761488
 11
21.1249736366
 21
57.2636761488
  0
LINE
  8
DEFAULT_1
 62
2
  6
CENTER
 10
105.3249452954
 20
55.2636761488
 11
105.3249452954
 21
79.2636761488
  0
LINE
  8
0
 62
7
  6
CONTINUOUS
 10
189.5249169546
 20
77.2636761488
 11
21.1249736362
 21
77.2636761488
  0
LINE
  8
0
 62
7
  6
CONTINUOUS
 10
191.5249452954
 20
75.2636761488
 11
191.5249452954
 21
59.2636761488
  0
ARC
  8
0
 62
40
  6
CONTINUOUS
 10
105.3249452954
 20
151.2123810949
 40
3.2
 50
182.2544307753
 51
357.7455692247
  0
ARC
  8
0
 62
40
  6
CONTINUOUS
 10
98.9298989131
 20
150.960623734
 40
3.2
 50
2.2544307753
 51
45.0
  0
ARC
  8
0
 62
40
  6
CONTINUOUS
 10
97.5156853508
 20
152.3748372964
 40
3.2
 50
45.0
 51
86.4096221093
  0
ARC
  8
0
 62
40
  6
CONTINUOUS
 10
97.916471991
 20
158.7622757555
 40
3.2
 50
225.0
 51
266.4096221093
  0
CIRCLE
  8
0
 62
7
  6
CONTINUOUS
 10
105.3249452954
 20
193.9923413567
 40
86.2
  0
CIRCLE
  8
0
 62
4
  6
CONTINUOUS
 10
105.3249452954
 20
193.9923413567
 40
9.525
  0
ARC
  8
0
 62
40
  6
CONTINUOUS
 10
70.0948796942
 20
186.5838680523
 40
3.2
 50
183.5903778907
 51
225.0
  0
ARC
  8
0
 62
40
  6
CONTINUOUS
 10
63.7074412351
 20
186.183081412
 40
3.2
 50
3.5903778907
 51
45.0
  0
ARC
  8
0
 62
40
  6
CONTINUOUS
 10
62.2932276727
 20
187.5972949744
 40
3.2
 50
45.0
 51
87.7455692247
  0
ARC
  8
0
 62
40
  6
CONTINUOUS
 10
62.5449850336
 20
193.9923413567
 40
3.2
 50
92.2544307753
 51
267.7455692247
  0
ARC
  8
0
 62
40
  6
CONTINUOUS
 10
62.2932276727
 20
200.3873877389
 40
3.2
 50
272.2544307753
 51
315.0
  0
ARC
  8
0
 62
40
  6
CONTINUOUS
 10
63.7074412351
 20
201.8016013013
 40
3.2
 50
315.0
 51
356.4096221093
  0
ARC
  8
0
 62
40
  6
CONTINUOUS
 10
70.0948796942
 20
201.400814661
 40
3.2
 50
135.0
 51
176.4096221093
  0
ARC
  8
0
 62
40
  6
CONTINUOUS
 10
97.916471991
 20
229.2224069579
 40
3.2
 50
93.5903778907
 51
135.0
  0
ARC
  8
0
 62
40
  6
CONTINUOUS
 10
97.5156853508
 20
235.609845417
 40
3.2
 50
273.5903778907
 51
315.0
  0
ARC
  8
0
 62
40
  6
CONTINUOUS
 10
98.9298989131
 20
237.0240589794
 40
3.2
 50
315.0
 51
357.7455692247
  0
ARC
  8
0
 62
40
  6
CONTINUOUS
 10
105.3249452954
 20
236.7723016185
 40
3.2
 50
2.2544307753
 51
177.7455692247
  0
ARC
  8
0
 62
40
  6
CONTINUOUS
 10
112.7334185998
 20
158.7622757555
 40
3.2
 50
273.5903778907
 51
315.0
  0
ARC
  8
0
 62
40
  6
CONTINUOUS
 10
113.13420524
 20
152.3748372964
 40
3.2
 50
93.5903778907
 51
135.0
  0
ARC
  8
0
 62
40
  6
CONTINUOUS
 10
111.7199916777
 20
150.960623734
 40
3.2
 50
135.0
 51
177.7455692247
  0
CIRCLE
  8
0
 62
7
  6
CONTINUOUS
 10
156.3780548971
 20
133.7114882605
 40
1.275
  0
ARC
  8
0
 62
7
  6
CONTINUOUS
 10
158.3579538844
 20
139.5451192053
 40
1.0
 50
45.0
 51
135.0
  0
ARC
  8
0
 62
7
  6
CONTINUOUS
 10
155.8123694721
 20
136.5752707243
 40
1.0
 50
225.0
 51
315.0
  0
ARC
  8
0
 62
7
  6
CONTINUOUS
 10
158.1092866873
 20
139.4378733645
 40
0.9
 50
135.0
 51
191.2510114041
  0
ARC
  8
0
 62
7
  6
CONTINUOUS
 10
156.0610366692
 20
136.6825165652
 40
0.9
 50
315.0
 51
11.2510114041
  0
ARC
  8
0
 62
7
  6
CONTINUOUS
 10
158.14582185
 20
139.0501444585
 40
0.5
 50
135.0
 51
225.0
  0
ARC
  8
0
 62
7
  6
CONTINUOUS
 10
156.0245015065
 20
137.0702454712
 40
0.5
 50
315.0
 51
45.0
  0
ARC
  8
0
 62
7
  6
CONTINUOUS
 10
158.2518878672
 20
139.5097638663
 40
0.25
 50
45.0
 51
135.0
  0
ARC
  8
0
 62
7
  6
CONTINUOUS
 10
155.9184354893
 20
136.6106260634
 40
0.25
 50
225.0
 51
315.0
  0
ARC
  8
0
 62
40
  6
CONTINUOUS
 10
148.1049055572
 20
193.9923413567
 40
3.2
 50
272.2544307753
 51
87.7455692247
  0
ARC
  8
0
 62
40
  6
CONTINUOUS
 10
148.3566629181
 20
187.5972949744
 40
3.2
 50
92.2544307753
 51
135.0
  0
ARC
  8
0
 62
40
  6
CONTINUOUS
 10
146.9424493557
 20
186.183081412
 40
3.2
 50
135.0
 51
176.4096221093
  0
ARC
  8
0
 62
40
  6
CONTINUOUS
 10
140.5550108966
 20
186.5838680523
 40
3.2
 50
315.0
 51
356.4096221093
  0
ARC
  8
0
 62
40
  6
CONTINUOUS
 10
111.7199916777
 20
237.0240589794
 40
3.2
 50
182.2544307753
 51
225.0
  0
ARC
  8
0
 62
40
  6
CONTINUOUS
 10
113.13420524
 20
235.609845417
 40
3.2
 50
225.0
 51
266.4096221093
  0
ARC
  8
0
 62
40
  6
CONTINUOUS
 10
112.7334185998
 20
229.2224069579
 40
3.2
 50
45.0
 51
86.4096221093
  0
ARC
  8
0
 62
40
  6
CONTINUOUS
 10
140.5550108966
 20
201.400814661
 40
3.2
 50
3.5903778907
 51
45.0
  0
ARC
  8
0
 62
40
  6
CONTINUOUS
 10
146.9424493557
 20
201.8016013013
 40
3.2
 50
183.5903778907
 51
225.0
  0
ARC
  8
0
 62
40
  6
CONTINUOUS
 10
148.3566629181
 20
200.3873877389
 40
3.2
 50
225.0
 51
267.7455692247
  0
ARC
  8
0
 62
7
  6
CONTINUOUS
 10
21.1249452954
 20
75.2636761488
 40
2.0
 50
89.9999999993
 51
180.0
  0
ARC
  8
0
 62
7
  6
CONTINUOUS
 10
189.5249452954
 20
75.2636761488
 40
2.0
 50
0.0
 51
90.0000000007
  0
ARC
  8
0
 62
7
  6
CONTINUOUS
 10
21.1249452954
 20
59.2636761488
 40
2.0
 50
180.0
 51
270.0000000136
  0
ARC
  8
0
 62
7
  6
CONTINUOUS
 10
189.5249452954
 20
59.2636761488
 40
2.0
 50
269.9999999864
 51
360.0
  0
ENDSEC
  0
EOF
