  0
SECTION
  2
HEADER
  9
$EXTMAX
 10
420.0
 20
297.0
 30
0.0
  9
$EXTMIN
 10
0.0
 20
0.0
 30
0.0
  9
$LIMMIN
 10
0.0
 20
0.0
  9
$LIMMAX
 10
420.0
 20
297.0
  9
$VIEWCTR
 10
210.0
 20
148.5
  9
$VIEWSIZE
 40
297.0
  9
$CLAYER
  8
0
  9
$LTSCALE
 40
23.1
  9
$CELTYPE
  6
BYLAYER
  9
$DIMSCALE
 40
1.0
  9
$DIMASZ
 40
3.5
  9
$DIMEXO
 40
2.625
  9
$DIMDLI
 40
15.96
  9
$DIMEXE
 40
7.56
  9
$DIMCEN
 40
3.78
  9
$DIMLFAC
 40
1.0
  9
$DIMBLK
  1
_FILLED
  9
$DIMTXT
 40
3.5
  9
$PDMODE
 70
3
  9
$PDSIZE
 40
0.3125
  9
$TILEMODE
 70
1
  0
ENDSEC
  0
SECTION
  2
TABLES
  0
TABLE
  2
LTYPE
 70
6
  0
LTYPE
  2
BYBLOCK
 70
0
  3

 72
65
 73
0
 40
0.0
  0
LTYPE
  2
BYLAYER
 70
0
  3

 72
65
 73
0
 40
0.0
  0
LTYPE
  2
CONTINUOUS
 70
64
  3
Solid line
 72
65
 73
0
 40
0.0
  0
LTYPE
  2
CENTER
 70
64
  3
____ _ ____ _ ____ _ ____ _ ____ _ ____ _ ____
 72
65
 73
4
 40
0.6
 49
0.375
 49
-0.075
 49
0.075
 49
-0.075
  0
LTYPE
  2
HIDDEN
 70
64
  3
- - - - - - - - - - - - - - - - - - - -
 72
65
 73
2
 40
0.2
 49
0.1
 49
-0.1
  0
LTYPE
  2
PHANTOM
 70
64
  3
_____ _ _ _____ _ _ _____ _ _ _____
 72
65
 73
6
 40
0.8
 49
0.45
 49
-0.05
 49
0.1
 49
-0.05
 49
0.1
 49
-0.05
  0
LTYPE
  2
DOT
 70
64
  3
. . . . . . . . . . . . . . . . . . . .
 72
65
 73
2
 40
0.2
 49
0.1
 49
-0.1
  0
LTYPE
  2
DASHED
 70
64
  3
- - - - - - - - - - - - - - - - - - - -
 72
65
 73
2
 40
0.2
 49
0.1
 49
-0.1
  0
ENDTAB
  0
TABLE
  2
LAYER
 70
36
  0
LAYER
  2
0
 70
0
 62
7
  6
CONTINUOUS
  0
LAYER
  2
DEFAULT_1
 70
0
 62
7
  6
CENTER
  0
LAYER
  2
DEFAULT_2
 70
0
 62
8
  6
HIDDEN
  0
LAYER
  2
DEFAULT_3
 70
0
 62
7
  6
PHANTOM
  0
LAYER
  2
BLANK_CURVE
 70
0
 62
7
  6
CONTINUOUS
  0
LAYER
  2
HUB_SQ_NAV
 70
0
 62
7
  6
CONTINUOUS
  0
LAYER
  2
LAY0001
 70
0
 62
7
  6
CONTINUOUS
  0
ENDTAB
  0
TABLE
  2
STYLE
 70
1
  0
STYLE
  2
STANDARD
 70
0
 40
0.0
 41
0.8
 50
0.0
 71
0
 42
0.2
  3
txt
  4

  0
STYLE
  2
TEXTSTYLE_1
 70
0
 40
0.0
 41
0.8
 50
0.0
 71
0
 42
0.2
  3
gdt
  4

  0
STYLE
  2
TEXTSTYLE_2
 70
0
 40
0.0
 41
0.6
 50
0.0
 71
0
 42
0.2
  3
txt
  4

  0
STYLE
  2
TEXTSTYLE_3
 70
0
 40
0.0
 41
1.0
 50
0.0
 71
0
 42
0.2
  3
ftb_____.ttf
  4

  0
STYLE
  2
TEXTSTYLE_4
 70
0
 40
0.0
 41
1.0
 50
0.0
 71
0
 42
0.2
  3
fti_____.ttf
  4

  0
STYLE
  2
TEXTSTYLE_5
 70
0
 40
0.0
 41
1.0
 50
0.0
 71
0
 42
0.2
  3
frutiger light.ttf
  4

  0
STYLE
  2
TEXTSTYLE_6
 70
0
 40
0.0
 41
0.7
 50
0.0
 71
0
 42
0.2
  3
txt
  4

  0
STYLE
  2
TEXTSTYLE_7
 70
0
 40
0.0
 41
0.8
 50
0.0
 71
0
 42
0.2
  3
txt
  4

  0
ENDTAB
  0
ENDSEC
  0
SECTION
  2
BLOCKS
  0
BLOCK
  8
0
 62
2
  6
CONTINUOUS
  2
SYMBOL_5_BL1
 70
64
 10
382.7840918555
 20
35.5067593403
  0
TEXT
  8
0
 62
7
  6
CONTINUOUS
 10
373.842376864
 20
30.5995157174
  7
TEXTSTYLE_4
 40
1.0655737705
  1
The brand for plastic modular belts and chains
 41
1.0
 72
0
  0
LINE
  8
0
 62
7
  6
CONTINUOUS
 10
358.7621602445
 20
36.0805298321
 11
358.7621602445
 21
33.9493822911
  0
LINE
  8
0
 62
7
  6
CONTINUOUS
 10
359.0512227376
 20
30.9584509954
 11
359.0512227376
 21
31.0552420547
  0
LINE
  8
0
 62
7
  6
CONTINUOUS
 10
358.7621602445
 20
31.0229783683
 11
358.8199727462
 21
30.8293962497
  0
LINE
  8
0
 62
7
  6
CONTINUOUS
 10
360.1556028675
 20
33.867415078
 11
360.1556028675
 21
36.0805298321
  0
LINE
  8
0
 62
7
  6
CONTINUOUS
 10
361.0746601894
 20
32.0231527829
 11
361.0746601894
 21
30.5067593403
  0
LINE
  8
0
 62
7
  6
CONTINUOUS
 10
361.3637227445
 20
30.5067593403
 11
361.3637227445
 21
31.2488242184
  0
LINE
  8
0
 62
7
  6
CONTINUOUS
 10
361.3637227445
 20
31.3778789641
 11
361.3637227445
 21
32.0231527829
  0
LINE
  8
0
 62
7
  6
CONTINUOUS
 10
358.8199727462
 20
31.216560532
 11
358.7621602445
 21
31.0229783683
  0
LINE
  8
0
 62
7
  6
CONTINUOUS
 10
359.1668477307
 20
30.7971325633
 11
359.0512227376
 21
30.9584509954
  0
LINE
  8
0
 62
7
  6
CONTINUOUS
 10
360.2652852997
 20
31.3133515913
 11
360.3230977445
 21
31.216560532
  0
LINE
  8
0
 62
7
  6
CONTINUOUS
 10
360.6121602997
 20
31.216560532
 11
360.5543476894
 21
31.3456152777
  0
LINE
  8
0
 62
7
  6
CONTINUOUS
 10
362.0408487691
 20
36.0805298321
 11
362.0408487691
 21
34.2772511436
  0
LINE
  8
0
 62
7
  6
CONTINUOUS
 10
362.0408487691
 20
32.9657757338
 11
362.0408487691
 21
32.3100380288
  0
LINE
  8
0
 62
7
  6
CONTINUOUS
 10
362.4043477445
 20
31.1520331591
 11
362.4043477445
 21
30.5067593403
  0
LINE
  8
0
 62
7
  6
CONTINUOUS
 10
362.6934101343
 20
30.5067593403
 11
362.6934101343
 21
31.1520331591
  0
LINE
  8
0
 62
7
  6
CONTINUOUS
 10
359.0512227376
 20
31.0552420547
 11
359.1090352445
 21
31.1842968456
  0
LINE
  8
0
 62
7
  6
CONTINUOUS
 10
358.8199727462
 20
30.8293962497
 11
358.9355977445
 21
30.7003414814
  0
LINE
  8
0
 62
7
  6
CONTINUOUS
 10
362.3465351343
 20
31.2810879048
 11
362.4043477445
 21
31.1520331591
  0
LINE
  8
0
 62
7
  6
CONTINUOUS
 10
363.1559103548
 20
30.7971325633
 11
363.2137226343
 21
30.668077795
  0
LINE
  8
0
 62
7
  6
CONTINUOUS
 10
362.6934101343
 20
31.1520331591
 11
362.6355978548
 21
31.3133515913
  0
LINE
  8
0
 62
7
  6
CONTINUOUS
 10
363.1559103548
 20
31.3456152777
 11
363.1559103548
 21
31.2810879048
  0
LINE
  8
0
 62
7
  6
CONTINUOUS
 10
363.1559103548
 20
30.8939236226
 11
363.1559103548
 21
30.7971325633
  0
LINE
  8
0
 62
7
  6
CONTINUOUS
 10
363.4342913921
 20
32.3100380288
 11
363.4342913921
 21
36.0805298321
  0
LINE
  8
0
 62
7
  6
CONTINUOUS
 10
363.4449727445
 20
30.7648688543
 11
363.4449727445
 21
30.8293962497
  0
LINE
  8
0
 62
7
  6
CONTINUOUS
 10
363.7621602445
 20
36.0805298321
 11
363.7621602445
 21
32.3100380288
  0
LINE
  8
0
 62
7
  6
CONTINUOUS
 10
360.5543476894
 20
30.7003414814
 11
360.6121602997
 21
30.8293962497
  0
LINE
  8
0
 62
7
  6
CONTINUOUS
 10
364.9480979651
 20
30.6035504109
 11
364.890285024
 21
30.7648688543
  0
LINE
  8
0
 62
7
  6
CONTINUOUS
 10
364.6012229651
 20
31.2810879048
 11
364.6012229651
 21
31.1842968456
  0
LINE
  8
0
 62
7
  6
CONTINUOUS
 10
364.6012229651
 20
31.0552420547
 11
364.6012229651
 21
30.8616599362
  0
LINE
  8
0
 62
7
  6
CONTINUOUS
 10
364.890285024
 20
30.7648688543
 11
364.890285024
 21
31.2810879048
  0
LINE
  8
0
 62
7
  6
CONTINUOUS
 10
365.1556028675
 20
32.3100380288
 11
365.1556028675
 21
34.1133167174
  0
LINE
  8
0
 62
7
  6
CONTINUOUS
 10
365.1556028675
 20
35.4247921272
 11
365.1556028675
 21
36.0805298321
  0
LINE
  8
0
 62
7
  6
CONTINUOUS
 10
365.4684104651
 20
32.0231527829
 11
365.4684104651
 21
31.8618343508
  0
LINE
  8
0
 62
7
  6
CONTINUOUS
 10
365.4684104651
 20
31.5391973962
 11
365.4684104651
 21
30.5067593403
  0
LINE
  8
0
 62
7
  6
CONTINUOUS
 10
365.757472524
 20
30.5067593403
 11
365.757472524
 21
31.5391973962
  0
LINE
  8
0
 62
7
  6
CONTINUOUS
 10
365.757472524
 20
31.8618343508
 11
365.757472524
 21
32.0231527829
  0
LINE
  8
0
 62
7
  6
CONTINUOUS
 10
360.3230977445
 20
30.8293962497
 11
360.2652852997
 21
30.7326051679
  0
LINE
  8
0
 62
7
  6
CONTINUOUS
 10
362.6355978548
 20
31.3133515913
 11
362.5777852445
 21
31.3778789641
  0
LINE
  8
0
 62
7
  6
CONTINUOUS
 10
363.5027853548
 20
30.7003414814
 11
363.4449727445
 21
30.7648688543
  0
LINE
  8
0
 62
7
  6
CONTINUOUS
 10
364.6590352445
 20
30.5712867188
 11
364.716847524
 21
30.5067593403
  0
LINE
  8
0
 62
7
  6
CONTINUOUS
 10
364.6012229651
 20
30.668077795
 11
364.6590352445
 21
30.5712867188
  0
LINE
  8
0
 62
7
  6
CONTINUOUS
 10
365.0059102445
 20
30.5067593403
 11
364.9480979651
 21
30.6035504109
  0
LINE
  8
0
 62
7
  6
CONTINUOUS
 10
364.890285024
 20
31.2810879048
 11
364.8324727445
 21
31.3778789641
  0
LINE
  8
0
 62
7
  6
CONTINUOUS
 10
366.2199727445
 20
31.5391973962
 11
366.2199727445
 21
30.5067593403
  0
LINE
  8
0
 62
7
  6
CONTINUOUS
 10
366.5090354651
 20
30.5067593403
 11
366.5090354651
 21
31.2488242184
  0
LINE
  8
0
 62
7
  6
CONTINUOUS
 10
366.5090354651
 20
31.3778789641
 11
366.5090354651
 21
31.5391973962
  0
LINE
  8
0
 62
7
  6
CONTINUOUS
 10
367.0408487691
 20
34.5231527829
 11
367.0408487691
 21
32.3100380288
  0
LINE
  8
0
 62
7
  6
CONTINUOUS
 10
358.9355977445
 20
31.3456152777
 11
358.8199727462
 21
31.216560532
  0
LINE
  8
0
 62
7
  6
CONTINUOUS
 10
359.1090352445
 20
31.1842968456
 11
359.1668477307
 21
31.2488242184
  0
LINE
  8
0
 62
7
  6
CONTINUOUS
 10
358.9355977445
 20
30.7003414814
 11
359.0512227376
 21
30.6358140973
  0
LINE
  8
0
 62
7
  6
CONTINUOUS
 10
359.3402852307
 20
30.7003414814
 11
359.1668477307
 21
30.7971325633
  0
LINE
  8
0
 62
7
  6
CONTINUOUS
 10
364.543410024
 20
31.3456152777
 11
364.6012229651
 21
31.2810879048
  0
LINE
  8
0
 62
7
  6
CONTINUOUS
 10
367.491847524
 20
31.2810879048
 11
367.5496604651
 21
31.1197694727
  0
LINE
  8
0
 62
7
  6
CONTINUOUS
 10
367.838722524
 20
31.1197694727
 11
367.7809102445
 21
31.2810879048
  0
LINE
  8
0
 62
7
  6
CONTINUOUS
 10
367.5496604651
 20
31.1197694727
 11
367.5496604651
 21
30.5067593403
  0
LINE
  8
0
 62
7
  6
CONTINUOUS
 10
367.838722524
 20
30.5067593403
 11
367.838722524
 21
31.1197694727
  0
LINE
  8
0
 62
7
  6
CONTINUOUS
 10
368.3012227445
 20
31.3456152777
 11
368.3012227445
 21
31.2810879048
  0
LINE
  8
0
 62
7
  6
CONTINUOUS
 10
368.4342913921
 20
32.3100380288
 11
368.4342913921
 21
34.4411855698
  0
LINE
  8
0
 62
7
  6
CONTINUOUS
 10
368.7621602445
 20
36.0805298321
 11
368.7621602445
 21
32.3100380288
  0
LINE
  8
0
 62
7
  6
CONTINUOUS
 10
363.4449727445
 20
30.8293962497
 11
363.5027853548
 21
30.926187309
  0
LINE
  8
0
 62
7
  6
CONTINUOUS
 10
359.0512227376
 20
30.6358140973
 11
359.2246602583
 21
30.5712867188
  0
LINE
  8
0
 62
7
  6
CONTINUOUS
 10
360.5543476894
 20
31.3456152777
 11
360.3809101894
 21
31.4424063369
  0
LINE
  8
0
 62
7
  6
CONTINUOUS
 10
363.2137226343
 20
30.668077795
 11
363.3871601343
 21
30.5712867188
  0
LINE
  8
0
 62
7
  6
CONTINUOUS
 10
362.2309102445
 20
31.3456152777
 11
362.3465351343
 21
31.2810879048
  0
LINE
  8
0
 62
7
  6
CONTINUOUS
 10
362.5777852445
 20
31.3778789641
 11
362.4621603548
 21
31.4424063369
  0
LINE
  8
0
 62
7
  6
CONTINUOUS
 10
368.3012227445
 20
30.7648688543
 11
368.4168479651
 21
30.6358140973
  0
LINE
  8
0
 62
7
  6
CONTINUOUS
 10
368.6480977445
 20
30.7003414814
 11
368.5902854651
 21
30.7648688543
  0
LINE
  8
0
 62
7
  6
CONTINUOUS
 10
368.3012227445
 20
31.2810879048
 11
368.4168479651
 21
31.1520331591
  0
LINE
  8
0
 62
7
  6
CONTINUOUS
 10
367.7809102445
 20
31.2810879048
 11
367.7230979651
 21
31.3778789641
  0
LINE
  8
0
 62
7
  6
CONTINUOUS
 10
370.1512223035
 20
30.7003414814
 11
370.1512223035
 21
30.7648688543
  0
LINE
  8
0
 62
7
  6
CONTINUOUS
 10
370.1556028675
 20
32.3100380288
 11
370.1556028675
 21
36.0805298321
  0
LINE
  8
0
 62
7
  6
CONTINUOUS
 10
363.2137226343
 20
31.4101426505
 11
363.1559103548
 21
31.3456152777
  0
LINE
  8
0
 62
7
  6
CONTINUOUS
 10
360.091847717
 20
31.3778789641
 11
360.2652852997
 21
31.3133515913
  0
LINE
  8
0
 62
7
  6
CONTINUOUS
 10
364.8324727445
 20
31.3778789641
 11
364.716847524
 21
31.4424063369
  0
LINE
  8
0
 62
7
  6
CONTINUOUS
 10
368.6480977445
 20
31.216560532
 11
368.5902854651
 21
31.2810879048
  0
LINE
  8
0
 62
7
  6
CONTINUOUS
 10
369.8043479651
 20
30.8293962497
 11
369.8621602445
 21
30.7648688543
  0
LINE
  8
0
 62
7
  6
CONTINUOUS
 10
370.1512223035
 20
30.7648688543
 11
370.0355977445
 21
30.8939236226
  0
LINE
  8
0
 62
7
  6
CONTINUOUS
 10
369.8043479651
 20
31.3456152777
 11
369.8621602445
 21
31.2810879048
  0
LINE
  8
0
 62
7
  6
CONTINUOUS
 10
370.1512223035
 20
31.2810879048
 11
370.0355977445
 21
31.4101426505
  0
LINE
  8
0
 62
7
  6
CONTINUOUS
 10
363.4449727445
 20
31.2810879048
 11
363.5027853548
 21
31.3456152777
  0
LINE
  8
0
 62
7
  6
CONTINUOUS
 10
363.2715352445
 20
31.0229783683
 11
363.1559103548
 21
30.8939236226
  0
LINE
  8
0
 62
7
  6
CONTINUOUS
 10
364.6012229651
 20
30.8616599362
 11
364.543410024
 21
30.7971325633
  0
LINE
  8
0
 62
7
  6
CONTINUOUS
 10
364.543410024
 20
30.6035504109
 11
364.6012229651
 21
30.668077795
  0
LINE
  8
0
 62
7
  6
CONTINUOUS
 10
363.3871601343
 20
30.5712867188
 11
363.5027853548
 21
30.5390230296
  0
LINE
  8
0
 62
7
  6
CONTINUOUS
 10
360.3809101894
 20
31.4424063369
 11
360.1496602445
 21
31.5069337098
  0
LINE
  8
0
 62
7
  6
CONTINUOUS
 10
363.7340351343
 20
30.6358140973
 11
363.5027853548
 21
30.7003414814
  0
LINE
  8
0
 62
7
  6
CONTINUOUS
 10
362.4621603548
 20
31.4424063369
 11
362.2887228548
 21
31.5069337098
  0
LINE
  8
0
 62
7
  6
CONTINUOUS
 10
364.716847524
 20
31.4424063369
 11
364.543410024
 21
31.5069337098
  0
LINE
  8
0
 62
7
  6
CONTINUOUS
 10
367.3762229651
 20
31.3456152777
 11
367.491847524
 21
31.2810879048
  0
LINE
  8
0
 62
7
  6
CONTINUOUS
 10
367.7230979651
 20
31.3778789641
 11
367.6074727445
 21
31.4424063369
  0
LINE
  8
0
 62
7
  6
CONTINUOUS
 10
359.2246602583
 20
30.5712867188
 11
359.3980977583
 21
30.5390230296
  0
LINE
  8
0
 62
7
  6
CONTINUOUS
 10
359.6871602721
 20
30.6358140973
 11
359.3402852307
 21
30.7003414814
  0
LINE
  8
0
 62
7
  6
CONTINUOUS
 10
362.1152853548
 20
31.3778789641
 11
362.2309102445
 21
31.3456152777
  0
LINE
  8
0
 62
7
  6
CONTINUOUS
 10
364.4277854651
 20
31.3778789641
 11
364.543410024
 21
31.3456152777
  0
LINE
  8
0
 62
7
  6
CONTINUOUS
 10
368.7637229651
 20
30.668077795
 11
368.6480977445
 21
30.7003414814
  0
LINE
  8
0
 62
7
  6
CONTINUOUS
 10
367.2605977445
 20
31.3778789641
 11
367.3762229651
 21
31.3456152777
  0
LINE
  8
0
 62
7
  6
CONTINUOUS
 10
368.4168479651
 20
30.6358140973
 11
368.5902854651
 21
30.5712867188
  0
LINE
  8
0
 62
7
  6
CONTINUOUS
 10
367.6074727445
 20
31.4424063369
 11
367.4340352445
 21
31.5069337098
  0
LINE
  8
0
 62
7
  6
CONTINUOUS
 10
368.8215352445
 20
31.1520331591
 11
368.6480977445
 21
31.216560532
  0
LINE
  8
0
 62
7
  6
CONTINUOUS
 10
369.6309104651
 20
30.8939236226
 11
369.8043479651
 21
30.8293962497
  0
LINE
  8
0
 62
7
  6
CONTINUOUS
 10
370.0355977445
 20
31.4101426505
 11
369.8621602445
 21
31.4746700234
  0
LINE
  8
0
 62
7
  6
CONTINUOUS
 10
368.4168479651
 20
31.1520331591
 11
368.6480977445
 21
31.0552420547
  0
LINE
  8
0
 62
7
  6
CONTINUOUS
 10
370.0355977445
 20
30.8939236226
 11
369.8043479651
 21
30.9907146818
  0
LINE
  8
0
 62
7
  6
CONTINUOUS
 10
368.5902854651
 20
31.2810879048
 11
368.6480977445
 21
31.3456152777
  0
LINE
  8
0
 62
7
  6
CONTINUOUS
 10
359.0512227376
 20
31.4101426505
 11
358.9355977445
 21
31.3456152777
  0
LINE
  8
0
 62
7
  6
CONTINUOUS
 10
359.1668477307
 20
31.2488242184
 11
359.3402852307
 21
31.3456152777
  0
LINE
  8
0
 62
7
  6
CONTINUOUS
 10
361.4793477997
 20
31.4424063369
 11
361.3637227445
 21
31.3778789641
  0
LINE
  8
0
 62
7
  6
CONTINUOUS
 10
361.3637227445
 20
31.2488242184
 11
361.4793477997
 21
31.3133515913
  0
LINE
  8
0
 62
7
  6
CONTINUOUS
 10
360.3809101894
 20
30.6035504109
 11
360.5543476894
 21
30.7003414814
  0
LINE
  8
0
 62
7
  6
CONTINUOUS
 10
359.3980977583
 20
30.5390230296
 11
359.744972717
 21
30.5067593403
  0
LINE
  8
0
 62
7
  6
CONTINUOUS
 10
363.5027853548
 20
30.5390230296
 11
363.7340351343
 21
30.5067593403
  0
LINE
  8
0
 62
7
  6
CONTINUOUS
 10
361.8840352445
 20
31.4101426505
 11
362.1152853548
 21
31.3778789641
  0
LINE
  8
0
 62
7
  6
CONTINUOUS
 10
364.1965353548
 20
31.4101426505
 11
364.4277854651
 21
31.3778789641
  0
LINE
  8
0
 62
7
  6
CONTINUOUS
 10
368.6480977445
 20
31.0552420547
 11
369.6309104651
 21
30.8939236226
  0
LINE
  8
0
 62
7
  6
CONTINUOUS
 10
369.8043479651
 20
30.9907146818
 11
368.8215352445
 21
31.1520331591
  0
LINE
  8
0
 62
7
  6
CONTINUOUS
 10
362.2887228548
 20
31.5069337098
 11
362.1152853548
 21
31.5391973962
  0
LINE
  8
0
 62
7
  6
CONTINUOUS
 10
368.5902854651
 20
30.5712867188
 11
368.7637229651
 21
30.5390230296
  0
LINE
  8
0
 62
7
  6
CONTINUOUS
 10
367.4340352445
 20
31.5069337098
 11
367.2605977445
 21
31.5391973962
  0
LINE
  8
0
 62
7
  6
CONTINUOUS
 10
369.6887227445
 20
31.3778789641
 11
369.8043479651
 21
31.3456152777
  0
LINE
  8
0
 62
7
  6
CONTINUOUS
 10
369.8621602445
 20
30.7648688543
 11
369.8043479651
 21
30.7003414814
  0
LINE
  8
0
 62
7
  6
CONTINUOUS
 10
368.4168479651
 20
31.4424063369
 11
368.3012227445
 21
31.3456152777
  0
LINE
  8
0
 62
7
  6
CONTINUOUS
 10
363.3293478548
 20
31.4746700234
 11
363.2137226343
 21
31.4101426505
  0
LINE
  8
0
 62
7
  6
CONTINUOUS
 10
363.3871601343
 20
31.0875057863
 11
363.2715352445
 21
31.0229783683
  0
LINE
  8
0
 62
7
  6
CONTINUOUS
 10
363.5027853548
 20
30.926187309
 11
363.6184102445
 21
30.9907146818
  0
LINE
  8
0
 62
7
  6
CONTINUOUS
 10
361.0746601894
 20
30.5067593403
 11
361.3637227445
 21
30.5067593403
  0
LINE
  8
0
 62
7
  6
CONTINUOUS
 10
362.4043477445
 20
30.5067593403
 11
362.6934101343
 21
30.5067593403
  0
LINE
  8
0
 62
7
  6
CONTINUOUS
 10
363.7340351343
 20
30.5067593403
 11
364.0809101343
 21
30.5067593403
  0
LINE
  8
0
 62
7
  6
CONTINUOUS
 10
364.716847524
 20
30.5067593403
 11
365.0059102445
 21
30.5067593403
  0
LINE
  8
0
 62
7
  6
CONTINUOUS
 10
365.4684104651
 20
30.5067593403
 11
365.757472524
 21
30.5067593403
  0
LINE
  8
0
 62
7
  6
CONTINUOUS
 10
366.2199727445
 20
30.5067593403
 11
366.5090354651
 21
30.5067593403
  0
LINE
  8
0
 62
7
  6
CONTINUOUS
 10
367.5496604651
 20
30.5067593403
 11
367.838722524
 21
30.5067593403
  0
LINE
  8
0
 62
7
  6
CONTINUOUS
 10
369.1105979651
 20
30.5067593403
 11
369.4574729651
 21
30.5067593403
  0
LINE
  8
0
 62
7
  6
CONTINUOUS
 10
369.4574729651
 20
30.6358140973
 11
369.1105979651
 21
30.6358140973
  0
LINE
  8
0
 62
7
  6
CONTINUOUS
 10
364.0809101343
 20
30.6358140973
 11
363.7340351343
 21
30.6358140973
  0
LINE
  8
0
 62
7
  6
CONTINUOUS
 10
368.5902854651
 20
30.7648688543
 11
368.3012227445
 21
30.7648688543
  0
LINE
  8
0
 62
7
  6
CONTINUOUS
 10
360.6121602997
 20
30.8293962497
 11
360.3230977445
 21
30.8293962497
  0
LINE
  8
0
 62
7
  6
CONTINUOUS
 10
359.6871602721
 20
31.4101426505
 11
360.091847717
 21
31.3778789641
  0
LINE
  8
0
 62
7
  6
CONTINUOUS
 10
360.1496602445
 20
31.5069337098
 11
359.744972717
 21
31.5391973962
  0
LINE
  8
0
 62
7
  6
CONTINUOUS
 10
368.7637229651
 20
30.5390230296
 11
369.1105979651
 21
30.5067593403
  0
LINE
  8
0
 62
7
  6
CONTINUOUS
 10
369.1105979651
 20
30.6358140973
 11
368.7637229651
 21
30.668077795
  0
LINE
  8
0
 62
7
  6
CONTINUOUS
 10
364.543410024
 20
31.5069337098
 11
364.1965353548
 21
31.5391973962
  0
LINE
  8
0
 62
7
  6
CONTINUOUS
 10
369.3418477445
 20
31.4101426505
 11
369.6887227445
 21
31.3778789641
  0
LINE
  8
0
 62
7
  6
CONTINUOUS
 10
369.6887227445
 20
31.5069337098
 11
369.3418477445
 21
31.5391973962
  0
LINE
  8
0
 62
7
  6
CONTINUOUS
 10
367.0293479651
 20
31.4101426505
 11
367.2605977445
 21
31.3778789641
  0
LINE
  8
0
 62
7
  6
CONTINUOUS
 10
369.8621602445
 20
31.4746700234
 11
369.6887227445
 21
31.5069337098
  0
LINE
  8
0
 62
7
  6
CONTINUOUS
 10
370.0355977445
 20
30.6035504109
 11
370.1512223035
 21
30.7003414814
  0
LINE
  8
0
 62
7
  6
CONTINUOUS
 10
364.543410024
 20
30.7971325633
 11
364.369972524
 21
30.7003414814
  0
LINE
  8
0
 62
7
  6
CONTINUOUS
 10
366.624660024
 20
31.4424063369
 11
366.5090354651
 21
31.3778789641
  0
LINE
  8
0
 62
7
  6
CONTINUOUS
 10
366.5090354651
 20
31.2488242184
 11
366.624660024
 21
31.3133515913
  0
LINE
  8
0
 62
7
  6
CONTINUOUS
 10
359.2246602583
 20
31.4746700234
 11
359.0512227376
 21
31.4101426505
  0
LINE
  8
0
 62
7
  6
CONTINUOUS
 10
361.6527851343
 20
31.5069337098
 11
361.4793477997
 21
31.4424063369
  0
LINE
  8
0
 62
7
  6
CONTINUOUS
 10
361.4793477997
 20
31.3133515913
 11
361.6527851343
 21
31.3778789641
  0
LINE
  8
0
 62
7
  6
CONTINUOUS
 10
360.2652852997
 20
30.7326051679
 11
360.091847717
 21
30.668077795
  0
LINE
  8
0
 62
7
  6
CONTINUOUS
 10
369.6887227445
 20
30.668077795
 11
369.4574729651
 21
30.6358140973
  0
LINE
  8
0
 62
7
  6
CONTINUOUS
 10
364.0809101343
 20
30.5067593403
 11
364.369972524
 21
30.5390230296
  0
LINE
  8
0
 62
7
  6
CONTINUOUS
 10
369.4574729651
 20
30.5067593403
 11
369.8043479651
 21
30.5390230296
  0
LINE
  8
0
 62
7
  6
CONTINUOUS
 10
359.744972717
 20
30.5067593403
 11
360.1496602445
 21
30.5390230296
  0
LINE
  8
0
 62
7
  6
CONTINUOUS
 10
360.091847717
 20
30.668077795
 11
359.6871602721
 21
30.6358140973
  0
LINE
  8
0
 62
7
  6
CONTINUOUS
 10
363.9652852445
 20
31.0552420547
 11
364.6012229651
 21
31.0552420547
  0
LINE
  8
0
 62
7
  6
CONTINUOUS
 10
364.6012229651
 20
31.1842968456
 11
363.9652852445
 21
31.1842968456
  0
LINE
  8
0
 62
7
  6
CONTINUOUS
 10
360.3230977445
 20
31.216560532
 11
360.6121602997
 21
31.216560532
  0
LINE
  8
0
 62
7
  6
CONTINUOUS
 10
363.1559103548
 20
31.2810879048
 11
363.4449727445
 21
31.2810879048
  0
LINE
  8
0
 62
7
  6
CONTINUOUS
 10
369.8621602445
 20
31.2810879048
 11
370.1512223035
 21
31.2810879048
  0
LINE
  8
0
 62
7
  6
CONTINUOUS
 10
363.8496603548
 20
31.4101426505
 11
364.1965353548
 21
31.4101426505
  0
LINE
  8
0
 62
7
  6
CONTINUOUS
 10
368.9949727445
 20
31.4101426505
 11
369.3418477445
 21
31.4101426505
  0
LINE
  8
0
 62
7
  6
CONTINUOUS
 10
369.3418477445
 20
31.5391973962
 11
368.9949727445
 21
31.5391973962
  0
LINE
  8
0
 62
7
  6
CONTINUOUS
 10
367.2605977445
 20
31.5391973962
 11
367.0293479651
 21
31.5391973962
  0
LINE
  8
0
 62
7
  6
CONTINUOUS
 10
366.5090354651
 20
31.5391973962
 11
366.2199727445
 21
31.5391973962
  0
LINE
  8
0
 62
7
  6
CONTINUOUS
 10
365.757472524
 20
31.5391973962
 11
365.4684104651
 21
31.5391973962
  0
LINE
  8
0
 62
7
  6
CONTINUOUS
 10
364.1965353548
 20
31.5391973962
 11
363.8496603548
 21
31.5391973962
  0
LINE
  8
0
 62
7
  6
CONTINUOUS
 10
362.1152853548
 20
31.5391973962
 11
361.8840352445
 21
31.5391973962
  0
LINE
  8
0
 62
7
  6
CONTINUOUS
 10
365.4684104651
 20
31.8618343508
 11
365.757472524
 21
31.8618343508
  0
LINE
  8
0
 62
7
  6
CONTINUOUS
 10
365.757472524
 20
32.0231527829
 11
365.4684104651
 21
32.0231527829
  0
LINE
  8
0
 62
7
  6
CONTINUOUS
 10
361.3637227445
 20
32.0231527829
 11
361.0746601894
 21
32.0231527829
  0
LINE
  8
0
 62
7
  6
CONTINUOUS
 10
360.4015045068
 20
32.3100380288
 11
360.8140758554
 21
32.3100380288
  0
LINE
  8
0
 62
7
  6
CONTINUOUS
 10
362.0408487691
 20
32.3100380288
 11
363.4342913921
 21
32.3100380288
  0
LINE
  8
0
 62
7
  6
CONTINUOUS
 10
363.7621602445
 20
32.3100380288
 11
365.1556028675
 21
32.3100380288
  0
LINE
  8
0
 62
7
  6
CONTINUOUS
 10
367.0408487691
 20
32.3100380288
 11
368.4342913921
 21
32.3100380288
  0
LINE
  8
0
 62
7
  6
CONTINUOUS
 10
368.7621602445
 20
32.3100380288
 11
370.1556028675
 21
32.3100380288
  0
LINE
  8
0
 62
7
  6
CONTINUOUS
 10
366.798097524
 20
31.5069337098
 11
366.624660024
 21
31.4424063369
  0
LINE
  8
0
 62
7
  6
CONTINUOUS
 10
364.369972524
 20
30.5390230296
 11
364.543410024
 21
30.6035504109
  0
LINE
  8
0
 62
7
  6
CONTINUOUS
 10
369.8043479651
 20
30.5390230296
 11
370.0355977445
 21
30.6035504109
  0
LINE
  8
0
 62
7
  6
CONTINUOUS
 10
369.8043479651
 20
30.7003414814
 11
369.6887227445
 21
30.668077795
  0
LINE
  8
0
 62
7
  6
CONTINUOUS
 10
368.7637229651
 20
31.3778789641
 11
368.9949727445
 21
31.4101426505
  0
LINE
  8
0
 62
7
  6
CONTINUOUS
 10
366.798097524
 20
31.3778789641
 11
367.0293479651
 21
31.4101426505
  0
LINE
  8
0
 62
7
  6
CONTINUOUS
 10
363.7340351343
 20
31.0229783683
 11
363.9652852445
 21
31.0552420547
  0
LINE
  8
0
 62
7
  6
CONTINUOUS
 10
367.0293479651
 20
31.5391973962
 11
366.798097524
 21
31.5069337098
  0
LINE
  8
0
 62
7
  6
CONTINUOUS
 10
363.6184102445
 20
31.3778789641
 11
363.8496603548
 21
31.4101426505
  0
LINE
  8
0
 62
7
  6
CONTINUOUS
 10
368.9949727445
 20
31.5391973962
 11
368.6480977445
 21
31.5069337098
  0
LINE
  8
0
 62
7
  6
CONTINUOUS
 10
363.9652852445
 20
31.1842968456
 11
363.6184102445
 21
31.1520331591
  0
LINE
  8
0
 62
7
  6
CONTINUOUS
 10
359.744972717
 20
31.5391973962
 11
359.3980977583
 21
31.5069337098
  0
LINE
  8
0
 62
7
  6
CONTINUOUS
 10
363.8496603548
 20
31.5391973962
 11
363.4449727445
 21
31.5069337098
  0
LINE
  8
0
 62
7
  6
CONTINUOUS
 10
361.221176638
 20
33.4575790124
 11
360.565438933
 21
33.4575790124
  0
LINE
  8
0
 62
7
  6
CONTINUOUS
 10
366.624660024
 20
31.3133515913
 11
366.798097524
 21
31.3778789641
  0
LINE
  8
0
 62
7
  6
CONTINUOUS
 10
368.6480977445
 20
31.3456152777
 11
368.7637229651
 21
31.3778789641
  0
LINE
  8
0
 62
7
  6
CONTINUOUS
 10
368.6480977445
 20
31.5069337098
 11
368.4168479651
 21
31.4424063369
  0
LINE
  8
0
 62
7
  6
CONTINUOUS
 10
364.369972524
 20
30.7003414814
 11
364.0809101343
 21
30.6358140973
  0
LINE
  8
0
 62
7
  6
CONTINUOUS
 10
361.6527851343
 20
31.3778789641
 11
361.8840352445
 21
31.4101426505
  0
LINE
  8
0
 62
7
  6
CONTINUOUS
 10
361.8840352445
 20
31.5391973962
 11
361.6527851343
 21
31.5069337098
  0
LINE
  8
0
 62
7
  6
CONTINUOUS
 10
359.4559102445
 20
31.3778789641
 11
359.6871602721
 21
31.4101426505
  0
LINE
  8
0
 62
7
  6
CONTINUOUS
 10
365.9752749986
 20
34.9329888485
 11
366.6310127035
 21
34.9329888485
  0
LINE
  8
0
 62
7
  6
CONTINUOUS
 10
363.6184102445
 20
30.9907146818
 11
363.7340351343
 21
31.0229783683
  0
LINE
  8
0
 62
7
  6
CONTINUOUS
 10
363.6184102445
 20
31.1520331591
 11
363.3871601343
 21
31.0875057863
  0
LINE
  8
0
 62
7
  6
CONTINUOUS
 10
363.5027853548
 20
31.3456152777
 11
363.6184102445
 21
31.3778789641
  0
LINE
  8
0
 62
7
  6
CONTINUOUS
 10
360.1496602445
 20
30.5390230296
 11
360.3809101894
 21
30.6035504109
  0
LINE
  8
0
 62
7
  6
CONTINUOUS
 10
363.4449727445
 20
31.5069337098
 11
363.3293478548
 21
31.4746700234
  0
LINE
  8
0
 62
7
  6
CONTINUOUS
 10
359.3980977583
 20
31.5069337098
 11
359.2246602583
 21
31.4746700234
  0
LINE
  8
0
 62
7
  6
CONTINUOUS
 10
370.1556028675
 20
36.0805298321
 11
368.7621602445
 21
36.0805298321
  0
LINE
  8
0
 62
7
  6
CONTINUOUS
 10
366.7949471298
 20
36.0805298321
 11
366.3823757812
 21
36.0805298321
  0
LINE
  8
0
 62
7
  6
CONTINUOUS
 10
365.1556028675
 20
36.0805298321
 11
363.7621602445
 21
36.0805298321
  0
LINE
  8
0
 62
7
  6
CONTINUOUS
 10
363.4342913921
 20
36.0805298321
 11
362.0408487691
 21
36.0805298321
  0
LINE
  8
0
 62
7
  6
CONTINUOUS
 10
360.1556028675
 20
36.0805298321
 11
358.7621602445
 21
36.0805298321
  0
LINE
  8
0
 62
7
  6
CONTINUOUS
 10
359.3402852307
 20
31.3456152777
 11
359.4559102445
 21
31.3778789641
  0
CIRCLE
  8
0
 62
7
  6
CONTINUOUS
 10
369.458881556
 20
38.4165954059
 40
2.0901639344
  0
ARC
  8
0
 62
7
  6
CONTINUOUS
 10
360.4015045068
 20
33.9493822911
 40
1.6393442623
 50
180.0
 51
270.0
  0
ARC
  8
0
 62
7
  6
CONTINUOUS
 10
366.7949471298
 20
34.4411855698
 40
1.6393442623
 50
0.0
 51
90.0
  0
ARC
  8
0
 62
7
  6
CONTINUOUS
 10
360.8140758554
 20
33.7854478649
 40
1.4754098361
 50
270.0
 51
326.2510114041
  0
ARC
  8
0
 62
7
  6
CONTINUOUS
 10
366.3823757812
 20
34.6051199961
 40
1.4754098361
 50
90.0
 51
146.2510114041
  0
ARC
  8
0
 62
7
  6
CONTINUOUS
 10
361.221176638
 20
34.2772511436
 40
0.8196721311
 50
270.0
 51
360.0
  0
ARC
  8
0
 62
7
  6
CONTINUOUS
 10
365.9752749986
 20
34.1133167174
 40
0.8196721311
 50
90.0
 51
180.0
  0
ARC
  8
0
 62
7
  6
CONTINUOUS
 10
360.565438933
 20
33.867415078
 40
0.4098360656
 50
180.0
 51
270.0
  0
ARC
  8
0
 62
7
  6
CONTINUOUS
 10
366.6310127035
 20
34.5231527829
 40
0.4098360656
 50
0.0
 51
90.0
  0
SOLID
  8
0
 62
7
  6
CONTINUOUS
 10
365.4684104651
 20
31.8618347111
 11
365.4684104651
 21
32.0231531947
 12
365.757472524
 22
31.8618347111
 13
365.757472524
 23
32.0231531947
  0
SOLID
  8
0
 62
7
  6
CONTINUOUS
 10
359.744972717
 20
31.5391977439
 11
360.1496602445
 21
31.5069333244
 12
359.3980977583
 22
31.5069333244
 13
359.3980977583
 23
31.5069333244
  0
SOLID
  8
0
 62
7
  6
CONTINUOUS
 10
359.2246602583
 20
31.4746706537
 11
359.3980977583
 21
31.5069333244
 12
360.1496602445
 22
31.5069333244
 13
360.1496602445
 23
31.5069333244
  0
SOLID
  8
0
 62
7
  6
CONTINUOUS
 10
360.1496602445
 20
31.5069333244
 11
360.3809101894
 21
31.4424063504
 12
359.2246602583
 22
31.4746706537
 13
359.2246602583
 23
31.4746706537
  0
SOLID
  8
0
 62
7
  6
CONTINUOUS
 10
359.0512227376
 20
31.4101419116
 11
359.2246602583
 21
31.4746706537
 12
360.3809101894
 22
31.4424063504
 13
360.3809101894
 23
31.4424063504
  0
SOLID
  8
0
 62
7
  6
CONTINUOUS
 10
359.0512227376
 20
31.4101419116
 11
360.3809101894
 21
31.4424063504
 12
359.6871602721
 22
31.4101419116
 13
359.6871602721
 23
31.4101419116
  0
SOLID
  8
0
 62
7
  6
CONTINUOUS
 10
359.6871602721
 20
31.4101419116
 11
360.3809101894
 21
31.4424063504
 12
360.091847717
 22
31.3778792603
 13
360.091847717
 23
31.3778792603
  0
SOLID
  8
0
 62
7
  6
CONTINUOUS
 10
360.3809101894
 20
31.4424063504
 11
360.5543476894
 21
31.345614957
 12
360.091847717
 22
31.3778792603
 13
360.091847717
 23
31.3778792603
  0
SOLID
  8
0
 62
7
  6
CONTINUOUS
 10
360.2652852997
 20
31.3133521701
 11
360.091847717
 21
31.3778792603
 12
360.5543476894
 22
31.345614957
 13
360.5543476894
 23
31.345614957
  0
SOLID
  8
0
 62
7
  6
CONTINUOUS
 10
360.2652852997
 20
31.3133521701
 11
360.5543476894
 21
31.345614957
 12
360.3230977445
 22
31.2165606992
 13
360.3230977445
 23
31.2165606992
  0
SOLID
  8
0
 62
7
  6
CONTINUOUS
 10
360.5543476894
 20
31.345614957
 11
360.6121602997
 21
31.2165606992
 12
360.3230977445
 22
31.2165606992
 13
360.3230977445
 23
31.2165606992
  0
SOLID
  8
0
 62
7
  6
CONTINUOUS
 10
361.6527851343
 20
31.5069329918
 11
361.8840352445
 21
31.5391972951
 12
362.1152853548
 22
31.5391972951
 13
362.1152853548
 23
31.5391972951
  0
SOLID
  8
0
 62
7
  6
CONTINUOUS
 10
362.1152853548
 20
31.5391972951
 11
362.2887228548
 21
31.5069329918
 12
361.6527851343
 22
31.5069329918
 13
361.6527851343
 23
31.5069329918
  0
SOLID
  8
0
 62
7
  6
CONTINUOUS
 10
361.4793477997
 20
31.4424059016
 11
361.6527851343
 21
31.5069329918
 12
362.2887228548
 22
31.5069329918
 13
362.2887228548
 23
31.5069329918
  0
SOLID
  8
0
 62
7
  6
CONTINUOUS
 10
362.2887228548
 20
31.5069329918
 11
362.4621603548
 21
31.4424059016
 12
361.4793477997
 22
31.4424059016
 13
361.4793477997
 23
31.4424059016
  0
SOLID
  8
0
 62
7
  6
CONTINUOUS
 10
362.4621603548
 20
31.4424059016
 11
361.8840352445
 21
31.4101420472
 12
361.4793477997
 22
31.4424059016
 13
361.4793477997
 23
31.4424059016
  0
SOLID
  8
0
 62
7
  6
CONTINUOUS
 10
361.3637227445
 20
31.3778788115
 11
361.4793477997
 21
31.4424059016
 12
361.8840352445
 22
31.4101420472
 13
361.8840352445
 23
31.4101420472
  0
SOLID
  8
0
 62
7
  6
CONTINUOUS
 10
361.8840352445
 20
31.4101420472
 11
361.6527851343
 21
31.3778788115
 12
361.3637227445
 22
31.3778788115
 13
361.3637227445
 23
31.3778788115
  0
SOLID
  8
0
 62
7
  6
CONTINUOUS
 10
361.8840352445
 20
31.4101420472
 11
362.4621603548
 21
31.4424059016
 12
362.1152853548
 22
31.3778788115
 13
362.1152853548
 23
31.3778788115
  0
SOLID
  8
0
 62
7
  6
CONTINUOUS
 10
362.4621603548
 20
31.4424059016
 11
362.5777852445
 21
31.3778788115
 12
362.1152853548
 22
31.3778788115
 13
362.1152853548
 23
31.3778788115
  0
SOLID
  8
0
 62
7
  6
CONTINUOUS
 10
362.2309102445
 20
31.345614957
 11
362.1152853548
 21
31.3778788115
 12
362.5777852445
 22
31.3778788115
 13
362.5777852445
 23
31.3778788115
  0
SOLID
  8
0
 62
7
  6
CONTINUOUS
 10
362.5777852445
 20
31.3778788115
 11
362.6355978548
 21
31.3133517213
 12
362.2309102445
 22
31.345614957
 13
362.2309102445
 23
31.345614957
  0
SOLID
  8
0
 62
7
  6
CONTINUOUS
 10
362.3465351343
 20
31.2810878668
 11
362.2309102445
 21
31.345614957
 12
362.6355978548
 22
31.3133517213
 13
362.6355978548
 23
31.3133517213
  0
SOLID
  8
0
 62
7
  6
CONTINUOUS
 10
362.3465351343
 20
31.2810878668
 11
362.6355978548
 21
31.3133517213
 12
362.4043477445
 22
31.1520332377
 13
362.4043477445
 23
31.1520332377
  0
SOLID
  8
0
 62
7
  6
CONTINUOUS
 10
362.6355978548
 20
31.3133517213
 11
362.6934101343
 21
31.1520332377
 12
362.4043477445
 22
31.1520332377
 13
362.4043477445
 23
31.1520332377
  0
SOLID
  8
0
 62
7
  6
CONTINUOUS
 10
361.6527851343
 20
31.3778788115
 11
361.4793477997
 21
31.3133517213
 12
361.3637227445
 22
31.3778788115
 13
361.3637227445
 23
31.3778788115
  0
SOLID
  8
0
 62
7
  6
CONTINUOUS
 10
361.4793477997
 20
31.3133517213
 11
361.3637227445
 21
31.2488235635
 12
361.3637227445
 22
31.3778788115
 13
361.3637227445
 23
31.3778788115
  0
SOLID
  8
0
 62
7
  6
CONTINUOUS
 10
361.3637227445
 20
31.2488235635
 11
361.0746601894
 21
30.5067593033
 12
361.3637227445
 22
31.3778788115
 13
361.3637227445
 23
31.3778788115
  0
SOLID
  8
0
 62
7
  6
CONTINUOUS
 10
361.3637227445
 20
31.3778788115
 11
361.0746601894
 21
30.5067593033
 12
361.3637227445
 22
32.0231527459
 13
361.3637227445
 23
32.0231527459
  0
SOLID
  8
0
 62
7
  6
CONTINUOUS
 10
361.0746601894
 20
30.5067593033
 11
361.0746601894
 21
32.0231527459
 12
361.3637227445
 22
32.0231527459
 13
361.3637227445
 23
32.0231527459
  0
SOLID
  8
0
 62
7
  6
CONTINUOUS
 10
361.3637227445
 20
31.2488235635
 11
361.3637227445
 21
30.5067593033
 12
361.0746601894
 22
30.5067593033
 13
361.0746601894
 23
30.5067593033
  0
SOLID
  8
0
 62
7
  6
CONTINUOUS
 10
362.4043477445
 20
30.5067593033
 11
362.4043477445
 21
31.1520332377
 12
362.6934101343
 22
31.1520332377
 13
362.6934101343
 23
31.1520332377
  0
SOLID
  8
0
 62
7
  6
CONTINUOUS
 10
362.6934101343
 20
31.1520332377
 11
362.6934101343
 21
30.5067593033
 12
362.4043477445
 22
30.5067593033
 13
362.4043477445
 23
30.5067593033
  0
SOLID
  8
0
 62
7
  6
CONTINUOUS
 10
363.4449727445
 20
31.506933758
 11
363.8496603548
 21
31.5391977507
 12
364.1965353548
 22
31.5391977507
 13
364.1965353548
 23
31.5391977507
  0
SOLID
  8
0
 62
7
  6
CONTINUOUS
 10
364.1965353548
 20
31.5391977507
 11
364.543410024
 21
31.506933758
 12
363.4449727445
 22
31.506933758
 13
363.4449727445
 23
31.506933758
  0
SOLID
  8
0
 62
7
  6
CONTINUOUS
 10
363.3293478548
 20
31.4746706537
 11
363.4449727445
 21
31.506933758
 12
364.543410024
 22
31.506933758
 13
364.543410024
 23
31.506933758
  0
SOLID
  8
0
 62
7
  6
CONTINUOUS
 10
364.543410024
 20
31.506933758
 11
364.716847524
 21
31.4424063504
 12
363.3293478548
 22
31.4746706537
 13
363.3293478548
 23
31.4746706537
  0
SOLID
  8
0
 62
7
  6
CONTINUOUS
 10
363.2137226343
 20
31.4101417797
 11
363.3293478548
 21
31.4746706537
 12
364.716847524
 22
31.4424063504
 13
364.716847524
 23
31.4424063504
  0
SOLID
  8
0
 62
7
  6
CONTINUOUS
 10
363.2137226343
 20
31.4101417797
 11
364.716847524
 21
31.4424063504
 12
363.8496603548
 22
31.4101417797
 13
363.8496603548
 23
31.4101417797
  0
SOLID
  8
0
 62
7
  6
CONTINUOUS
 10
363.8496603548
 20
31.4101417797
 11
364.716847524
 21
31.4424063504
 12
364.1965353548
 22
31.4101417797
 13
364.1965353548
 23
31.4101417797
  0
SOLID
  8
0
 62
7
  6
CONTINUOUS
 10
364.1965353548
 20
31.4101417797
 11
364.716847524
 21
31.4424063504
 12
364.4277854651
 22
31.3778793357
 13
364.4277854651
 23
31.3778793357
  0
SOLID
  8
0
 62
7
  6
CONTINUOUS
 10
364.716847524
 20
31.4424063504
 11
364.8324727445
 21
31.3778793357
 12
364.4277854651
 22
31.3778793357
 13
364.4277854651
 23
31.3778793357
  0
SOLID
  8
0
 62
7
  6
CONTINUOUS
 10
363.1559103548
 20
31.3456153429
 11
363.2137226343
 21
31.4101417797
 12
363.8496603548
 22
31.4101417797
 13
363.8496603548
 23
31.4101417797
  0
SOLID
  8
0
 62
7
  6
CONTINUOUS
 10
364.543410024
 20
31.3456153429
 11
364.4277854651
 21
31.3778793357
 12
364.8324727445
 22
31.3778793357
 13
364.8324727445
 23
31.3778793357
  0
SOLID
  8
0
 62
7
  6
CONTINUOUS
 10
364.543410024
 20
31.3456153429
 11
364.8324727445
 21
31.3778793357
 12
364.6012229651
 22
31.2810881318
 13
364.6012229651
 23
31.2810881318
  0
SOLID
  8
0
 62
7
  6
CONTINUOUS
 10
364.8324727445
 20
31.3778793357
 11
364.890285024
 21
31.2810881318
 12
364.6012229651
 22
31.2810881318
 13
364.6012229651
 23
31.2810881318
  0
SOLID
  8
0
 62
7
  6
CONTINUOUS
 10
364.6012229651
 20
31.1842964734
 11
364.6012229651
 21
31.2810881318
 12
364.890285024
 22
31.2810881318
 13
364.890285024
 23
31.2810881318
  0
SOLID
  8
0
 62
7
  6
CONTINUOUS
 10
364.6012229651
 20
31.1842964734
 11
364.890285024
 21
31.2810881318
 12
364.6012229651
 22
31.0552422931
 13
364.6012229651
 23
31.0552422931
  0
SOLID
  8
0
 62
7
  6
CONTINUOUS
 10
364.6012229651
 20
31.0552422931
 11
364.890285024
 21
31.2810881318
 12
364.6012229651
 22
30.8616599362
 13
364.6012229651
 23
30.8616599362
  0
SOLID
  8
0
 62
7
  6
CONTINUOUS
 10
364.890285024
 20
31.2810881318
 11
364.890285024
 21
30.7648681127
 12
364.6012229651
 22
30.8616599362
 13
364.6012229651
 23
30.8616599362
  0
SOLID
  8
0
 62
7
  6
CONTINUOUS
 10
366.798097524
 20
31.5069339419
 11
367.0293479651
 21
31.5391976292
 12
367.2605977445
 22
31.5391976292
 13
367.2605977445
 23
31.5391976292
  0
SOLID
  8
0
 62
7
  6
CONTINUOUS
 10
367.2605977445
 20
31.5391976292
 11
367.4340352445
 21
31.5069339419
 12
366.798097524
 22
31.5069339419
 13
366.798097524
 23
31.5069339419
  0
SOLID
  8
0
 62
7
  6
CONTINUOUS
 10
366.624660024
 20
31.4424065674
 11
366.798097524
 21
31.5069339419
 12
367.4340352445
 22
31.5069339419
 13
367.4340352445
 23
31.5069339419
  0
SOLID
  8
0
 62
7
  6
CONTINUOUS
 10
367.4340352445
 20
31.5069339419
 11
367.6074727445
 21
31.4424065674
 12
366.624660024
 22
31.4424065674
 13
366.624660024
 23
31.4424065674
  0
SOLID
  8
0
 62
7
  6
CONTINUOUS
 10
367.6074727445
 20
31.4424065674
 11
367.0293479651
 21
31.4101420472
 12
366.624660024
 22
31.4424065674
 13
366.624660024
 23
31.4424065674
  0
SOLID
  8
0
 62
7
  6
CONTINUOUS
 10
366.5090354651
 20
31.377879193
 11
366.624660024
 21
31.4424065674
 12
367.0293479651
 22
31.4101420472
 13
367.0293479651
 23
31.4101420472
  0
SOLID
  8
0
 62
7
  6
CONTINUOUS
 10
367.0293479651
 20
31.4101420472
 11
366.798097524
 21
31.377879193
 12
366.5090354651
 22
31.377879193
 13
366.5090354651
 23
31.377879193
  0
SOLID
  8
0
 62
7
  6
CONTINUOUS
 10
367.0293479651
 20
31.4101420472
 11
367.6074727445
 21
31.4424065674
 12
367.2605977445
 22
31.377879193
 13
367.2605977445
 23
31.377879193
  0
SOLID
  8
0
 62
7
  6
CONTINUOUS
 10
367.6074727445
 20
31.4424065674
 11
367.7230979651
 21
31.377879193
 12
367.2605977445
 22
31.377879193
 13
367.2605977445
 23
31.377879193
  0
SOLID
  8
0
 62
7
  6
CONTINUOUS
 10
367.3762229651
 20
31.345614957
 11
367.2605977445
 21
31.377879193
 12
367.7230979651
 22
31.377879193
 13
367.7230979651
 23
31.377879193
  0
SOLID
  8
0
 62
7
  6
CONTINUOUS
 10
367.3762229651
 20
31.345614957
 11
367.7230979651
 21
31.377879193
 12
367.491847524
 22
31.2810881312
 13
367.491847524
 23
31.2810881312
  0
SOLID
  8
0
 62
7
  6
CONTINUOUS
 10
367.7230979651
 20
31.377879193
 11
367.7809102445
 21
31.2810881312
 12
367.491847524
 22
31.2810881312
 13
367.491847524
 23
31.2810881312
  0
SOLID
  8
0
 62
7
  6
CONTINUOUS
 10
367.5496604651
 20
31.119769695
 11
367.491847524
 21
31.2810881312
 12
367.7809102445
 22
31.2810881312
 13
367.7809102445
 23
31.2810881312
  0
SOLID
  8
0
 62
7
  6
CONTINUOUS
 10
367.7809102445
 20
31.2810881312
 11
367.838722524
 21
31.119769695
 12
367.5496604651
 22
31.119769695
 13
367.5496604651
 23
31.119769695
  0
SOLID
  8
0
 62
7
  6
CONTINUOUS
 10
366.798097524
 20
31.377879193
 11
366.624660024
 21
31.3133521701
 12
366.5090354651
 22
31.377879193
 13
366.5090354651
 23
31.377879193
  0
SOLID
  8
0
 62
7
  6
CONTINUOUS
 10
366.624660024
 20
31.3133521701
 11
366.5090354651
 21
31.2488235635
 12
366.5090354651
 22
31.377879193
 13
366.5090354651
 23
31.377879193
  0
SOLID
  8
0
 62
7
  6
CONTINUOUS
 10
366.5090354651
 20
31.2488235635
 11
366.2199727445
 21
30.5067596374
 12
366.5090354651
 22
31.377879193
 13
366.5090354651
 23
31.377879193
  0
SOLID
  8
0
 62
7
  6
CONTINUOUS
 10
366.5090354651
 20
31.377879193
 11
366.2199727445
 21
30.5067596374
 12
366.5090354651
 22
31.5391976292
 13
366.5090354651
 23
31.5391976292
  0
SOLID
  8
0
 62
7
  6
CONTINUOUS
 10
366.2199727445
 20
30.5067596374
 11
366.2199727445
 21
31.5391976292
 12
366.5090354651
 22
31.5391976292
 13
366.5090354651
 23
31.5391976292
  0
SOLID
  8
0
 62
7
  6
CONTINUOUS
 10
366.5090354651
 20
31.2488235635
 11
366.5090354651
 21
30.5067596374
 12
366.2199727445
 22
30.5067596374
 13
366.2199727445
 23
30.5067596374
  0
SOLID
  8
0
 62
7
  6
CONTINUOUS
 10
367.5496604651
 20
30.5067596374
 11
367.5496604651
 21
31.119769695
 12
367.838722524
 22
31.119769695
 13
367.838722524
 23
31.119769695
  0
SOLID
  8
0
 62
7
  6
CONTINUOUS
 10
367.838722524
 20
31.119769695
 11
367.838722524
 21
30.5067596374
 12
367.5496604651
 22
30.5067596374
 13
367.5496604651
 23
30.5067596374
  0
SOLID
  8
0
 62
7
  6
CONTINUOUS
 10
368.6480977445
 20
31.5069334157
 11
368.9949727445
 21
31.539197762
 12
369.3418477445
 22
31.539197762
 13
369.3418477445
 23
31.539197762
  0
SOLID
  8
0
 62
7
  6
CONTINUOUS
 10
369.3418477445
 20
31.539197762
 11
369.6887227445
 21
31.5069334157
 12
368.6480977445
 22
31.5069334157
 13
368.6480977445
 23
31.5069334157
  0
SOLID
  8
0
 62
7
  6
CONTINUOUS
 10
368.4168479651
 20
31.4424063504
 11
368.6480977445
 21
31.5069334157
 12
369.6887227445
 22
31.5069334157
 13
369.6887227445
 23
31.5069334157
  0
SOLID
  8
0
 62
7
  6
CONTINUOUS
 10
368.4168479651
 20
31.4424063504
 11
369.6887227445
 21
31.5069334406
 12
369.8621602445
 22
31.4746706537
 13
369.8621602445
 23
31.4746706537
  0
SOLID
  8
0
 62
7
  6
CONTINUOUS
 10
368.4168479651
 20
31.4424063504
 11
369.8621602445
 21
31.4746706537
 12
368.9949727445
 22
31.4101421267
 13
368.9949727445
 23
31.4101421267
  0
SOLID
  8
0
 62
7
  6
CONTINUOUS
 10
368.9949727445
 20
31.4101421267
 11
369.8621602445
 21
31.4746706537
 12
369.3418477445
 22
31.4101421267
 13
369.3418477445
 23
31.4101421267
  0
SOLID
  8
0
 62
7
  6
CONTINUOUS
 10
369.8621602445
 20
31.4746706537
 11
370.0355977445
 21
31.4101421267
 12
369.3418477445
 22
31.4101421267
 13
369.3418477445
 23
31.4101421267
  0
SOLID
  8
0
 62
7
  6
CONTINUOUS
 10
369.6887227445
 20
31.3778792603
 11
369.3418477445
 21
31.4101421267
 12
370.0355977445
 22
31.4101421267
 13
370.0355977445
 23
31.4101421267
  0
SOLID
  8
0
 62
7
  6
CONTINUOUS
 10
368.3012227445
 20
31.3456148845
 11
368.4168479651
 21
31.4424063504
 12
368.9949727445
 22
31.4101421267
 13
368.9949727445
 23
31.4101421267
  0
SOLID
  8
0
 62
7
  6
CONTINUOUS
 10
369.6887227445
 20
31.3778792603
 11
370.0355977445
 21
31.4101421267
 12
369.8043479651
 22
31.3456148845
 13
369.8043479651
 23
31.3456148845
  0
SOLID
  8
0
 62
7
  6
CONTINUOUS
 10
369.8043479651
 20
31.3456148845
 11
370.0355977445
 21
31.4101421267
 12
369.8621602445
 22
31.281087868
 13
369.8621602445
 23
31.281087868
  0
SOLID
  8
0
 62
7
  6
CONTINUOUS
 10
370.0355977445
 20
31.4101421267
 11
370.1512223035
 21
31.281087868
 12
369.8621602445
 22
31.281087868
 13
369.8621602445
 23
31.281087868
  0
SOLID
  8
0
 62
7
  6
CONTINUOUS
 10
359.4559102445
 20
31.3778792603
 11
358.9355977445
 21
31.3456148963
 12
359.6871602721
 22
31.4101421155
 13
359.6871602721
 23
31.4101421155
  0
SOLID
  8
0
 62
7
  6
CONTINUOUS
 10
358.9355977445
 20
31.3456148963
 11
359.0512227376
 21
31.4101421155
 12
359.6871602721
 22
31.4101421155
 13
359.6871602721
 23
31.4101421155
  0
SOLID
  8
0
 62
7
  6
CONTINUOUS
 10
359.4559102445
 20
31.3778792603
 11
359.3402852307
 21
31.3456148963
 12
358.9355977445
 22
31.3456148963
 13
358.9355977445
 23
31.3456148963
  0
SOLID
  8
0
 62
7
  6
CONTINUOUS
 10
358.8199727462
 20
31.2165607767
 11
358.9355977445
 21
31.3456148963
 12
359.3402852307
 22
31.3456148963
 13
359.3402852307
 23
31.3456148963
  0
SOLID
  8
0
 62
7
  6
CONTINUOUS
 10
363.1559103548
 20
31.3456149608
 11
363.8496603548
 21
31.4101420472
 12
363.6184102445
 22
31.3778792603
 13
363.6184102445
 23
31.3778792603
  0
SOLID
  8
0
 62
7
  6
CONTINUOUS
 10
363.6184102445
 20
31.3778792603
 11
363.5027853548
 21
31.3456149608
 12
363.1559103548
 22
31.3456149608
 13
363.1559103548
 23
31.3456149608
  0
SOLID
  8
0
 62
7
  6
CONTINUOUS
 10
363.1559103548
 20
31.2810878707
 11
363.1559103548
 21
31.3456149608
 12
363.5027853548
 22
31.3456149608
 13
363.5027853548
 23
31.3456149608
  0
SOLID
  8
0
 62
7
  6
CONTINUOUS
 10
363.5027853548
 20
31.3456149608
 11
363.4449727445
 21
31.2810878707
 12
363.1559103548
 22
31.2810878707
 13
363.1559103548
 23
31.2810878707
  0
SOLID
  8
0
 62
7
  6
CONTINUOUS
 10
368.3012227445
 20
31.3456149608
 11
368.9949727445
 21
31.4101420472
 12
368.7637229651
 22
31.3778792603
 13
368.7637229651
 23
31.3778792603
  0
SOLID
  8
0
 62
7
  6
CONTINUOUS
 10
368.7637229651
 20
31.3778792603
 11
368.6480977445
 21
31.3456149608
 12
368.3012227445
 22
31.3456149608
 13
368.3012227445
 23
31.3456149608
  0
SOLID
  8
0
 62
7
  6
CONTINUOUS
 10
368.3012227445
 20
31.2810878707
 11
368.3012227445
 21
31.3456149608
 12
368.6480977445
 22
31.3456149608
 13
368.6480977445
 23
31.3456149608
  0
SOLID
  8
0
 62
7
  6
CONTINUOUS
 10
368.6480977445
 20
31.3456149608
 11
368.5902854651
 21
31.2810878707
 12
368.3012227445
 22
31.2810878707
 13
368.3012227445
 23
31.2810878707
  0
SOLID
  8
0
 62
7
  6
CONTINUOUS
 10
368.4168479651
 20
31.1520336865
 11
368.3012227445
 21
31.2810878707
 12
368.5902854651
 22
31.2810878707
 13
368.5902854651
 23
31.2810878707
  0
SOLID
  8
0
 62
7
  6
CONTINUOUS
 10
358.8199727462
 20
31.2165607767
 11
359.3402852307
 21
31.345614957
 12
359.1668477307
 22
31.2488235635
 13
359.1668477307
 23
31.2488235635
  0
SOLID
  8
0
 62
7
  6
CONTINUOUS
 10
359.1668477307
 20
31.2488235635
 11
359.1090352445
 21
31.1842964734
 12
358.8199727462
 22
31.2165607767
 13
358.8199727462
 23
31.2165607767
  0
SOLID
  8
0
 62
7
  6
CONTINUOUS
 10
358.7621602445
 20
31.0229779898
 11
358.8199727462
 21
31.2165607767
 12
359.1090352445
 22
31.1842964734
 13
359.1090352445
 23
31.1842964734
  0
SOLID
  8
0
 62
7
  6
CONTINUOUS
 10
363.6184102445
 20
31.1520336865
 11
363.9652852445
 21
31.1842964611
 12
364.6012229651
 22
31.1842964611
 13
364.6012229651
 23
31.1842964611
  0
SOLID
  8
0
 62
7
  6
CONTINUOUS
 10
363.6184102445
 20
31.1520336865
 11
364.6012229651
 21
31.1842964611
 12
363.3871601343
 22
31.0875057863
 13
363.3871601343
 23
31.0875057863
  0
SOLID
  8
0
 62
7
  6
CONTINUOUS
 10
363.3871601343
 20
31.0875057863
 11
364.6012229651
 21
31.1842964611
 12
363.9652852445
 22
31.0552422808
 13
363.9652852445
 23
31.0552422808
  0
SOLID
  8
0
 62
7
  6
CONTINUOUS
 10
364.6012229651
 20
31.1842964611
 11
364.6012229651
 21
31.0552422808
 12
363.9652852445
 22
31.0552422808
 13
363.9652852445
 23
31.0552422808
  0
SOLID
  8
0
 62
7
  6
CONTINUOUS
 10
368.4168479651
 20
31.1520338754
 11
368.5902854651
 21
31.2810878668
 12
368.6480977445
 22
31.2165607767
 13
368.6480977445
 23
31.2165607767
  0
SOLID
  8
0
 62
7
  6
CONTINUOUS
 10
368.6480977445
 20
31.2165607767
 11
368.8215352445
 21
31.1520338754
 12
368.4168479651
 22
31.1520338754
 13
368.4168479651
 23
31.1520338754
  0
SOLID
  8
0
 62
7
  6
CONTINUOUS
 10
368.6480977445
 20
31.0552422931
 11
368.4168479651
 21
31.1520338754
 12
368.8215352445
 22
31.1520338754
 13
368.8215352445
 23
31.1520338754
  0
SOLID
  8
0
 62
7
  6
CONTINUOUS
 10
368.8215352445
 20
31.1520338754
 11
369.8043479651
 21
30.9907152029
 12
368.6480977445
 22
31.0552422931
 13
368.6480977445
 23
31.0552422931
  0
SOLID
  8
0
 62
7
  6
CONTINUOUS
 10
369.6309104651
 20
30.8939239876
 11
368.6480977445
 21
31.0552422931
 12
369.8043479651
 22
30.9907152029
 13
369.8043479651
 23
30.9907152029
  0
SOLID
  8
0
 62
7
  6
CONTINUOUS
 10
369.8043479651
 20
30.9907152029
 11
370.0355977445
 21
30.8939239876
 12
369.6309104651
 22
30.8939239876
 13
369.6309104651
 23
30.8939239876
  0
SOLID
  8
0
 62
7
  6
CONTINUOUS
 10
369.8043479651
 20
30.8293967193
 11
369.6309104651
 21
30.8939239876
 12
370.0355977445
 22
30.8939239876
 13
370.0355977445
 23
30.8939239876
  0
SOLID
  8
0
 62
7
  6
CONTINUOUS
 10
369.8043479651
 20
30.8293967193
 11
370.0355977445
 21
30.8939239876
 12
369.8621602445
 22
30.7648682694
 13
369.8621602445
 23
30.7648682694
  0
SOLID
  8
0
 62
7
  6
CONTINUOUS
 10
370.0355977445
 20
30.8939239876
 11
370.1512223035
 21
30.7648682694
 12
369.8621602445
 22
30.7648682694
 13
369.8621602445
 23
30.7648682694
  0
SOLID
  8
0
 62
7
  6
CONTINUOUS
 10
369.8043479651
 20
30.7003411846
 11
369.8621602445
 21
30.7648682694
 12
370.1512223035
 22
30.7648682694
 13
370.1512223035
 23
30.7648682694
  0
SOLID
  8
0
 62
7
  6
CONTINUOUS
 10
370.1512223035
 20
30.7648682694
 11
370.1512223035
 21
30.7003411846
 12
369.8043479651
 22
30.7003411846
 13
369.8043479651
 23
30.7003411846
  0
SOLID
  8
0
 62
7
  6
CONTINUOUS
 10
369.6887227445
 20
30.6680782357
 11
369.8043479651
 21
30.7003411846
 12
370.1512223035
 22
30.7003411846
 13
370.1512223035
 23
30.7003411846
  0
SOLID
  8
0
 62
7
  6
CONTINUOUS
 10
369.6887227445
 20
30.6680782357
 11
370.1512223035
 21
30.7003411846
 12
369.4574729651
 22
30.6358140998
 13
369.4574729651
 23
30.6358140998
  0
SOLID
  8
0
 62
7
  6
CONTINUOUS
 10
370.1512223035
 20
30.7003411846
 11
370.0355977445
 21
30.6035511455
 12
369.4574729651
 22
30.6358140998
 13
369.4574729651
 23
30.6358140998
  0
SOLID
  8
0
 62
7
  6
CONTINUOUS
 10
370.0355977445
 20
30.6035511455
 11
368.5902854651
 21
30.5712868422
 12
369.4574729651
 22
30.6358140998
 13
369.4574729651
 23
30.6358140998
  0
SOLID
  8
0
 62
7
  6
CONTINUOUS
 10
369.4574729651
 20
30.6358140998
 11
368.5902854651
 21
30.5712868422
 12
369.1105979651
 22
30.6358140998
 13
369.1105979651
 23
30.6358140998
  0
SOLID
  8
0
 62
7
  6
CONTINUOUS
 10
368.5902854651
 20
30.5712868422
 11
368.4168479651
 21
30.6358140998
 12
369.1105979651
 22
30.6358140998
 13
369.1105979651
 23
30.6358140998
  0
SOLID
  8
0
 62
7
  6
CONTINUOUS
 10
368.5902854651
 20
30.5712868422
 11
370.0355977445
 21
30.6035511455
 12
368.7637229651
 22
30.5390223111
 13
368.7637229651
 23
30.5390223111
  0
SOLID
  8
0
 62
7
  6
CONTINUOUS
 10
370.0355977445
 20
30.6035511455
 11
369.8043479651
 21
30.5390223111
 12
368.7637229651
 22
30.5390223111
 13
368.7637229651
 23
30.5390223111
  0
SOLID
  8
0
 62
7
  6
CONTINUOUS
 10
369.1105979651
 20
30.5067599302
 11
368.7637229651
 21
30.5390223111
 12
369.8043479651
 22
30.5390223111
 13
369.8043479651
 23
30.5390223111
  0
SOLID
  8
0
 62
7
  6
CONTINUOUS
 10
369.8043479651
 20
30.5390223111
 11
369.4574729651
 21
30.5067599302
 12
369.1105979651
 22
30.5067599302
 13
369.1105979651
 23
30.5067599302
  0
SOLID
  8
0
 62
7
  6
CONTINUOUS
 10
358.7621602445
 20
31.0229779898
 11
359.1090352445
 21
31.1842964734
 12
359.0512227376
 22
31.0552422931
 13
359.0512227376
 23
31.0552422931
  0
SOLID
  8
0
 62
7
  6
CONTINUOUS
 10
359.0512227376
 20
31.0552422931
 11
359.0512227376
 21
30.9584509954
 12
358.7621602445
 22
31.0229779898
 13
358.7621602445
 23
31.0229779898
  0
SOLID
  8
0
 62
7
  6
CONTINUOUS
 10
358.8199727462
 20
30.8293967193
 11
358.7621602445
 21
31.0229779898
 12
359.0512227376
 22
30.9584509954
 13
359.0512227376
 23
30.9584509954
  0
SOLID
  8
0
 62
7
  6
CONTINUOUS
 10
359.0512227376
 20
30.9584509954
 11
359.1668477307
 21
30.797132416
 12
358.8199727462
 22
30.8293967193
 13
358.8199727462
 23
30.8293967193
  0
SOLID
  8
0
 62
7
  6
CONTINUOUS
 10
358.9355977445
 20
30.7003413087
 11
358.8199727462
 21
30.8293967193
 12
359.1668477307
 22
30.797132416
 13
359.1668477307
 23
30.797132416
  0
SOLID
  8
0
 62
7
  6
CONTINUOUS
 10
359.1668477307
 20
30.797132416
 11
359.3402852307
 21
30.7003413087
 12
358.9355977445
 22
30.7003413087
 13
358.9355977445
 23
30.7003413087
  0
SOLID
  8
0
 62
7
  6
CONTINUOUS
 10
359.0512227376
 20
30.6358140759
 11
358.9355977445
 21
30.7003413087
 12
359.3402852307
 22
30.7003413087
 13
359.3402852307
 23
30.7003413087
  0
SOLID
  8
0
 62
7
  6
CONTINUOUS
 10
359.3402852307
 20
30.7003413087
 11
359.6871602721
 21
30.6358140759
 12
359.0512227376
 22
30.6358140759
 13
359.0512227376
 23
30.6358140759
  0
SOLID
  8
0
 62
7
  6
CONTINUOUS
 10
359.2246602583
 20
30.5712868422
 11
359.0512227376
 21
30.6358140759
 12
359.6871602721
 22
30.6358140759
 13
359.6871602721
 23
30.6358140759
  0
SOLID
  8
0
 62
7
  6
CONTINUOUS
 10
363.2715352445
 20
31.0229779808
 11
363.3871601343
 21
31.0875057863
 12
363.9652852445
 22
31.0552422931
 13
363.9652852445
 23
31.0552422931
  0
SOLID
  8
0
 62
7
  6
CONTINUOUS
 10
363.9652852445
 20
31.0552422931
 11
363.7340351343
 21
31.0229779808
 12
363.2715352445
 22
31.0229779808
 13
363.2715352445
 23
31.0229779808
  0
SOLID
  8
0
 62
7
  6
CONTINUOUS
 10
363.1559103548
 20
30.8939238094
 11
363.2715352445
 21
31.0229779808
 12
363.7340351343
 22
31.0229779808
 13
363.7340351343
 23
31.0229779808
  0
SOLID
  8
0
 62
7
  6
CONTINUOUS
 10
363.5027853548
 20
30.926187309
 11
363.1559103548
 21
30.8939238094
 12
363.6184102445
 22
30.9907152029
 13
363.6184102445
 23
30.9907152029
  0
SOLID
  8
0
 62
7
  6
CONTINUOUS
 10
363.1559103548
 20
30.8939238094
 11
363.7340351343
 21
31.0229779898
 12
363.6184102445
 22
30.9907152029
 13
363.6184102445
 23
30.9907152029
  0
SOLID
  8
0
 62
7
  6
CONTINUOUS
 10
363.5027853548
 20
30.926187309
 11
363.4449727445
 21
30.8293967193
 12
363.1559103548
 22
30.8939238094
 13
363.1559103548
 23
30.8939238094
  0
SOLID
  8
0
 62
7
  6
CONTINUOUS
 10
363.1559103548
 20
30.797132416
 11
363.1559103548
 21
30.8939238094
 12
363.4449727445
 22
30.8293967193
 13
363.4449727445
 23
30.8293967193
  0
SOLID
  8
0
 62
7
  6
CONTINUOUS
 10
363.4449727445
 20
30.8293967193
 11
363.4449727445
 21
30.7648681127
 12
363.1559103548
 22
30.797132416
 13
363.1559103548
 23
30.797132416
  0
SOLID
  8
0
 62
7
  6
CONTINUOUS
 10
363.2137226343
 20
30.6680782357
 11
363.1559103548
 21
30.797132416
 12
363.4449727445
 22
30.7648681127
 13
363.4449727445
 23
30.7648681127
  0
SOLID
  8
0
 62
7
  6
CONTINUOUS
 10
364.6012229651
 20
30.8616599362
 11
364.890285024
 21
30.7648681127
 12
364.543410024
 22
30.797132416
 13
364.543410024
 23
30.797132416
  0
SOLID
  8
0
 62
7
  6
CONTINUOUS
 10
364.369972524
 20
30.7003410226
 11
364.543410024
 21
30.797132416
 12
364.890285024
 22
30.7648681127
 13
364.890285024
 23
30.7648681127
  0
SOLID
  8
0
 62
7
  6
CONTINUOUS
 10
364.369972524
 20
30.7003410226
 11
364.890285024
 21
30.7648681127
 12
364.6012229651
 22
30.6680782357
 13
364.6012229651
 23
30.6680782357
  0
SOLID
  8
0
 62
7
  6
CONTINUOUS
 10
364.890285024
 20
30.7648681127
 11
364.9480979651
 21
30.6035511455
 12
364.6012229651
 22
30.6680782357
 13
364.6012229651
 23
30.6680782357
  0
SOLID
  8
0
 62
7
  6
CONTINUOUS
 10
364.6590352445
 20
30.5712868422
 11
364.6012229651
 21
30.6680782357
 12
364.9480979651
 22
30.6035511455
 13
364.9480979651
 23
30.6035511455
  0
SOLID
  8
0
 62
7
  6
CONTINUOUS
 10
364.6590352445
 20
30.5712868422
 11
364.9480979651
 21
30.6035511455
 12
364.716847524
 22
30.5067598731
 13
364.716847524
 23
30.5067598731
  0
SOLID
  8
0
 62
7
  6
CONTINUOUS
 10
364.9480979651
 20
30.6035511455
 11
365.0059102445
 21
30.5067598731
 12
364.716847524
 22
30.5067598731
 13
364.716847524
 23
30.5067598731
  0
SOLID
  8
0
 62
7
  6
CONTINUOUS
 10
360.2652852997
 20
30.7326051679
 11
360.3230977445
 21
30.8293966612
 12
360.6121602997
 22
30.8293966612
 13
360.6121602997
 23
30.8293966612
  0
SOLID
  8
0
 62
7
  6
CONTINUOUS
 10
360.6121602997
 20
30.8293966612
 11
360.5543476894
 21
30.7003410226
 12
360.2652852997
 22
30.7326051679
 13
360.2652852997
 23
30.7326051679
  0
SOLID
  8
0
 62
7
  6
CONTINUOUS
 10
360.091847717
 20
30.6680782357
 11
360.2652852997
 21
30.7326051679
 12
360.5543476894
 22
30.7003410226
 13
360.5543476894
 23
30.7003410226
  0
SOLID
  8
0
 62
7
  6
CONTINUOUS
 10
360.091847717
 20
30.6680782357
 11
360.5543476894
 21
30.7003410226
 12
359.6871602721
 22
30.6358139324
 13
359.6871602721
 23
30.6358139324
  0
SOLID
  8
0
 62
7
  6
CONTINUOUS
 10
360.5543476894
 20
30.7003410226
 11
360.3809101894
 21
30.6035511455
 12
359.6871602721
 22
30.6358139324
 13
359.6871602721
 23
30.6358139324
  0
SOLID
  8
0
 62
7
  6
CONTINUOUS
 10
359.2246602583
 20
30.5712868422
 11
359.6871602721
 21
30.6358139324
 12
360.3809101894
 22
30.6035511455
 13
360.3809101894
 23
30.6035511455
  0
SOLID
  8
0
 62
7
  6
CONTINUOUS
 10
359.2246602583
 20
30.5712868422
 11
360.3809101894
 21
30.6035511455
 12
359.3980977583
 22
30.5390224228
 13
359.3980977583
 23
30.5390224228
  0
SOLID
  8
0
 62
7
  6
CONTINUOUS
 10
360.3809101894
 20
30.6035511455
 11
360.1496602445
 21
30.5390224228
 12
359.3980977583
 22
30.5390224228
 13
359.3980977583
 23
30.5390224228
  0
SOLID
  8
0
 62
7
  6
CONTINUOUS
 10
359.744972717
 20
30.5067597521
 11
359.3980977583
 21
30.5390224228
 12
360.1496602445
 22
30.5390224228
 13
360.1496602445
 23
30.5390224228
  0
SOLID
  8
0
 62
7
  6
CONTINUOUS
 10
363.2137226343
 20
30.6680782357
 11
363.4449727445
 21
30.7648681127
 12
363.5027853548
 22
30.7003410226
 13
363.5027853548
 23
30.7003410226
  0
SOLID
  8
0
 62
7
  6
CONTINUOUS
 10
363.5027853548
 20
30.7003410226
 11
363.7340351343
 21
30.6358139324
 12
363.2137226343
 22
30.6680782357
 13
363.2137226343
 23
30.6680782357
  0
SOLID
  8
0
 62
7
  6
CONTINUOUS
 10
363.3871601343
 20
30.5712868422
 11
363.2137226343
 21
30.6680782357
 12
363.7340351343
 22
30.6358139324
 13
363.7340351343
 23
30.6358139324
  0
SOLID
  8
0
 62
7
  6
CONTINUOUS
 10
364.0809101343
 20
30.6358139363
 11
364.369972524
 21
30.7003410226
 12
364.6012229651
 22
30.6680782357
 13
364.6012229651
 23
30.6680782357
  0
SOLID
  8
0
 62
7
  6
CONTINUOUS
 10
364.6012229651
 20
30.6680782357
 11
364.543410024
 21
30.6035511455
 12
364.0809101343
 22
30.6358139363
 13
364.0809101343
 23
30.6358139363
  0
SOLID
  8
0
 62
7
  6
CONTINUOUS
 10
364.543410024
 20
30.6035511455
 11
363.3871601343
 21
30.5712868422
 12
364.0809101343
 22
30.6358139363
 13
364.0809101343
 23
30.6358139363
  0
SOLID
  8
0
 62
7
  6
CONTINUOUS
 10
363.3871601343
 20
30.5712868422
 11
363.7340351343
 21
30.6358139363
 12
364.0809101343
 22
30.6358139363
 13
364.0809101343
 23
30.6358139363
  0
SOLID
  8
0
 62
7
  6
CONTINUOUS
 10
363.3871601343
 20
30.5712868422
 11
364.543410024
 21
30.6035511455
 12
363.5027853548
 22
30.5390225267
 13
363.5027853548
 23
30.5390225267
  0
SOLID
  8
0
 62
7
  6
CONTINUOUS
 10
364.543410024
 20
30.6035511455
 11
364.369972524
 21
30.5390225267
 12
363.5027853548
 22
30.5390225267
 13
363.5027853548
 23
30.5390225267
  0
SOLID
  8
0
 62
7
  6
CONTINUOUS
 10
363.7340351343
 20
30.5067596914
 11
363.5027853548
 21
30.5390225267
 12
364.369972524
 22
30.5390225267
 13
364.369972524
 23
30.5390225267
  0
SOLID
  8
0
 62
7
  6
CONTINUOUS
 10
364.369972524
 20
30.5390225267
 11
364.0809101343
 21
30.5067596914
 12
363.7340351343
 22
30.5067596914
 13
363.7340351343
 23
30.5067596914
  0
SOLID
  8
0
 62
7
  6
CONTINUOUS
 10
368.7637229651
 20
30.6680782357
 11
368.4168479651
 21
30.6358138717
 12
368.6480977445
 22
30.7003410226
 13
368.6480977445
 23
30.7003410226
  0
SOLID
  8
0
 62
7
  6
CONTINUOUS
 10
368.6480977445
 20
30.7003410226
 11
368.4168479651
 21
30.6358138717
 12
368.5902854651
 22
30.7648680521
 13
368.5902854651
 23
30.7648680521
  0
SOLID
  8
0
 62
7
  6
CONTINUOUS
 10
368.4168479651
 20
30.6358138717
 11
368.3012227445
 21
30.7648680521
 12
368.5902854651
 22
30.7648680521
 13
368.5902854651
 23
30.7648680521
  0
SOLID
  8
0
 62
7
  6
CONTINUOUS
 10
368.7637229651
 20
30.6680782357
 11
369.1105979651
 21
30.6358138717
 12
368.4168479651
 22
30.6358138717
 13
368.4168479651
 23
30.6358138717
  0
SOLID
  8
0
 62
7
  6
CONTINUOUS
 10
365.4684104651
 20
30.5067597521
 11
365.4684104651
 21
31.5391977439
 12
365.757472524
 22
30.5067597521
 13
365.757472524
 23
31.5391977439
  0
ENDBLK
  8
0
  6
BYBLOCK
 62
0
  0
BLOCK
  8
0
 62
2
  6
CONTINUOUS
  2
SYMBOL_0_BL0
 70
64
 10
240.8592468615
 20
19.762288695
  0
TEXT
  8
0
 62
7
  6
CONTINUOUS
 10
227.1239507038
 20
19.1357028027
  7
TEXTSTYLE_3
 40
2.7338706658
  1
Ammeraal Beltech
 41
1.0
 51
15.0
 72
0
  0
TEXT
  8
0
 62
7
  6
CONTINUOUS
 10
237.9247515296
 20
16.8621661299
  7
TEXTSTYLE_4
 40
1.0935482663
  1
Innovation & Service in Belting
 41
1.0
 72
0
  0
LINE
  8
0
 62
7
  6
CONTINUOUS
 10
221.0994100525
 20
19.9022961113
 11
221.8775620458
 21
23.5632134089
  0
LINE
  8
0
 62
7
  6
CONTINUOUS
 10
231.9727303357
 20
27.2266073205
 11
222.3653797889
 21
24.1049898993
  0
LINE
  8
0
 62
7
  6
CONTINUOUS
 10
221.3246933848
 20
19.2089453082
 11
228.8317686459
 21
12.4495443822
  0
LINE
  8
0
 62
7
  6
CONTINUOUS
 10
221.5872277955
 20
20.4440726016
 11
232.3954971607
 21
23.9558922005
  0
LINE
  8
0
 62
7
  6
CONTINUOUS
 10
232.3912920235
 20
13.6061036368
 11
223.9458323548
 21
21.2104296785
  0
LINE
  8
0
 62
7
  6
CONTINUOUS
 10
232.9111147433
 20
26.3816822048
 11
231.9345552061
 21
21.7873308023
  0
LINE
  8
0
 62
7
  6
CONTINUOUS
 10
231.2347532584
 20
18.4950214885
 11
230.5483050469
 21
15.2655365641
  0
LINE
  8
0
 62
7
  6
CONTINUOUS
 10
233.5922108419
 20
13.9963058145
 11
234.5484423775
 21
18.4950214885
  0
LINE
  8
0
 62
7
  6
CONTINUOUS
 10
235.2482443252
 20
21.7873308023
 11
235.6924861276
 21
23.8773241617
  0
LINE
  8
0
 62
7
  6
CONTINUOUS
 10
229.5448697213
 20
12.2979700695
 11
233.1043930989
 21
13.4545293241
  0
LINE
  8
0
 62
7
  6
CONTINUOUS
 10
232.685831411
 20
27.0750330078
 11
235.4672027953
 21
24.5706749648
  0
ARC
  8
0
 62
7
  6
CONTINUOUS
 10
222.5906631212
 20
23.4116390962
 40
0.7290321776
 50
108.0
 51
168.0
  0
ARC
  8
0
 62
7
  6
CONTINUOUS
 10
232.198013668
 20
26.5332565175
 40
0.7290321776
 50
348.0
 51
108.0
  0
ARC
  8
0
 62
7
  6
CONTINUOUS
 10
234.9793850522
 20
24.0288984744
 40
0.7290321776
 50
348.0
 51
48.0
  0
ARC
  8
0
 62
7
  6
CONTINUOUS
 10
229.319586389
 20
12.9913208726
 40
0.7290321776
 50
228.0
 51
288.0
  0
ARC
  8
0
 62
7
  6
CONTINUOUS
 10
221.8125111278
 20
19.7507217986
 40
0.7290321776
 50
108.0
 51
228.0
  0
ARC
  8
0
 62
7
  6
CONTINUOUS
 10
232.8791097665
 20
14.1478801272
 40
0.7290321776
 50
228.0
 51
348.0
  0
ENDBLK
  8
0
  6
BYBLOCK
 62
0
  0
ENDSEC
  0
SECTION
  2
ENTITIES
  0
TEXT
  8
0
 62
5
  6
CONTINUOUS
 10
304.937007874
 20
25.636
  7
TEXTSTYLE_2
 40
2.8
  1
Scale :
 41
0.6
 51
0.000019
 72
0
  0
TEXT
  8
0
 62
5
  6
CONTINUOUS
 10
324.937007874
 20
25.636
  7
TEXTSTYLE_2
 40
2.8
  1
Belt type:
 41
0.6
 51
0.000019
 72
0
  0
INSERT
  8
0
 62
2
  6
CONTINUOUS
  2
SYMBOL_0_BL0
 10
240.8592468615
 20
19.762288695
  0
INSERT
  8
0
 62
2
  6
CONTINUOUS
  2
SYMBOL_5_BL1
 10
382.7840918555
 20
35.5067593403
  0
LINE
  8
0
 62
2
  6
CONTINUOUS
 10
218.937007874
 20
30.0
 11
408.937007874
 21
30.0
  0
LINE
  8
0
 62
2
  6
CONTINUOUS
 10
218.937007874
 20
30.0
 11
218.937007874
 21
10.0
  0
LINE
  8
0
 62
2
  6
CONTINUOUS
 10
218.937007874
 20
10.0
 11
408.937007874
 21
10.0
  0
LINE
  8
0
 62
2
  6
CONTINUOUS
 10
303.937007874
 20
30.0
 11
303.937007874
 21
10.0
  0
LINE
  8
0
 62
2
  6
CONTINUOUS
 10
323.937007874
 20
30.0
 11
323.937007874
 21
10.0
  0
LINE
  8
0
 62
2
  6
CONTINUOUS
 10
408.937007874
 20
30.0
 11
408.937007874
 21
10.0
  0
TEXT
  8
0
 62
5
  6
CONTINUOUS
 10
221.937007874
 20
23.303
  7
TEXTSTYLE_5
 40
1.52
  1
                                                                     Ammeraal Beltech Modular A/S
 41
1.0
 72
0
  0
TEXT
  8
0
 62
5
  6
CONTINUOUS
 10
221.937007874
 20
20.595
  7
TEXTSTYLE_5
 40
1.5
  1
                                                                      Hjulmagervej 21, 7100 Vejle,  DK
 41
1.0
 72
0
  0
TEXT
  8
0
 62
5
  6
CONTINUOUS
 10
221.937007874
 20
17.881
  7
TEXTSTYLE_5
 40
1.495
  1
                                                                      tel: 
 41
1.0
 72
0
  0
TEXT
  8
0
 62
5
  6
CONTINUOUS
 10
266.9239544389
 20
17.881
  7
TEXTSTYLE_5
 40
1.51
  1
+45 75723100     fax: +45 75723348
 41
1.0
 72
0
  0
TEXT
  8
0
 62
5
  6
CONTINUOUS
 10
221.937007874
 20
15.177
  7
TEXTSTYLE_5
 40
1.5
  1
                                                                      admin@unichains.dk  www.unichains.com
 41
1.0
 72
0
  0
TEXT
  8
0
 62
5
  6
CONTINUOUS
 10
308.687007874
 20
13.75
  7
TEXTSTYLE_6
 40
5.0
  1
1:1
 41
0.7
 72
1
 11
313.937007874
 21
13.75
  0
TEXT
  8
0
 62
5
  6
CONTINUOUS
 10
326.937007874
 20
13.75
  7
TEXTSTYLE_7
 40
7.5
  1
Sprocket Z16
 41
0.6361111111
 72
0
  0
LINE
  8
0
 62
7
  6
CONTINUOUS
 10
0.0
 20
0.0
 11
0.0
 21
297.0
  0
LINE
  8
0
 62
7
  6
CONTINUOUS
 10
8.937007874
 20
10.0
 11
8.937007874
 21
287.0
  0
LINE
  8
0
 62
7
  6
CONTINUOUS
 10
0.0
 20
0.0
 11
420.0
 21
0.0
  0
LINE
  8
0
 62
7
  6
CONTINUOUS
 10
408.937007874
 20
10.0
 11
8.937007874
 21
10.0
  0
LINE
  8
0
 62
7
  6
CONTINUOUS
 10
218.937007874
 20
30.0
 11
408.937007874
 21
30.0
  0
LINE
  8
0
 62
7
  6
CONTINUOUS
 10
210.0
 20
297.0
 11
210.0
 21
292.0
  0
LINE
  8
0
 62
7
  6
CONTINUOUS
 10
210.0
 20
0.0
 11
210.0
 21
5.0
  0
LINE
  8
0
 62
7
  6
CONTINUOUS
 10
8.937007874
 20
287.0
 11
408.937007874
 21
287.0
  0
LINE
  8
0
 62
7
  6
CONTINUOUS
 10
0.0
 20
297.0
 11
420.0
 21
297.0
  0
LINE
  8
0
 62
7
  6
CONTINUOUS
 10
408.937007874
 20
287.0
 11
408.937007874
 21
10.0
  0
LINE
  8
0
 62
7
  6
CONTINUOUS
 10
420.0
 20
0.0
 11
420.0
 21
297.0
  0
LINE
  8
0
 62
7
  6
CONTINUOUS
 10
23.5399501423
 20
171.4788935394
 11
23.3658005105
 21
169.2758146756
  0
LINE
  8
0
 62
7
  6
CONTINUOUS
 10
34.5847425237
 20
209.002798891
 11
33.5807674619
 21
207.034063599
  0
LINE
  8
0
 62
7
  6
CONTINUOUS
 10
59.1485770414
 20
239.443707967
 11
57.4676226517
 21
238.0090383484
  0
LINE
  8
0
 62
7
  6
CONTINUOUS
 10
93.4918325617
 20
258.167268308
 11
91.3898089121
 21
257.485079807
  0
LINE
  8
0
 62
7
  6
CONTINUOUS
 10
114.3840441845
 20
62.6327839275
 11
116.5871230484
 21
62.4586342958
  0
LINE
  8
0
 62
7
  6
CONTINUOUS
 10
76.8601388329
 20
73.6775763089
 11
78.8288741249
 21
72.6736012471
  0
LINE
  8
0
 62
7
  6
CONTINUOUS
 10
46.419229757
 20
98.2414108266
 11
47.8538993756
 21
96.5604564369
  0
LINE
  8
0
 62
7
  6
CONTINUOUS
 10
27.695669416
 20
132.584666347
 11
28.377857917
 21
130.4826426973
  0
LINE
  8
0
 62
7
  6
CONTINUOUS
 10
38.1400519694
 20
163.1778857546
 11
38.1400519694
 21
160.8007601421
  0
LINE
  8
0
 62
7
  6
CONTINUOUS
 10
38.1400519694
 20
148.1550114034
 11
38.1400519694
 21
145.4778857546
  0
LINE
  8
0
 62
7
  6
CONTINUOUS
 10
38.6400519694
 20
159.4778857546
 11
38.6400519694
 21
149.4778857546
  0
LINE
  8
0
 62
7
  6
CONTINUOUS
 10
44.8968196231
 20
195.7464506193
 11
43.9871325554
 21
193.550271763
  0
LINE
  8
0
 62
7
  6
CONTINUOUS
 10
39.1478140127
 20
181.8671233045
 11
38.1233228702
 21
179.3937828939
  0
LINE
  8
0
 62
7
  6
CONTINUOUS
 10
43.9428306896
 20
192.1367546328
 11
40.115996366
 21
182.8979593077
  0
LINE
  8
0
 62
7
  6
CONTINUOUS
 10
63.6027091539
 20
223.2501780637
 11
61.9218284103
 21
221.56929732
  0
LINE
  8
0
 62
7
  6
CONTINUOUS
 10
52.979931905
 20
212.6274008147
 11
51.0869191269
 21
210.7343880367
  0
LINE
  8
0
 62
7
  6
CONTINUOUS
 10
61.3399674542
 20
220.2803295827
 11
54.2688996423
 21
213.2092617708
  0
LINE
  8
0
 62
7
  6
CONTINUOUS
 10
91.4099184502
 20
241.5018749062
 11
89.2137419073
 21
240.5921887968
  0
LINE
  8
0
 62
7
  6
CONTINUOUS
 10
77.5305934998
 20
235.7528702752
 11
75.0572507247
 21
234.7283781533
  0
LINE
  8
0
 62
7
  6
CONTINUOUS
 10
88.1829058961
 20
239.6240064402
 11
78.9441105709
 21
235.7971721165
  0
LINE
  8
0
 62
7
  6
CONTINUOUS
 10
122.6850519694
 20
77.2328857546
 11
125.0621775819
 21
77.2328857546
  0
LINE
  8
0
 62
7
  6
CONTINUOUS
 10
137.7079263206
 20
77.2328857546
 11
140.3850519694
 21
77.2328857546
  0
LINE
  8
0
 62
7
  6
CONTINUOUS
 10
126.3850519694
 20
77.7328857546
 11
136.3850519694
 21
77.7328857546
  0
LINE
  8
0
 62
7
  6
CONTINUOUS
 10
90.1164871046
 20
83.9896534083
 11
92.312665961
 21
83.0799663407
  0
LINE
  8
0
 62
7
  6
CONTINUOUS
 10
103.9958144195
 20
78.2406477979
 11
106.4691548301
 21
77.2161566555
  0
LINE
  8
0
 62
7
  6
CONTINUOUS
 10
93.7261830911
 20
83.0356644748
 11
102.9649784162
 21
79.2088301512
  0
LINE
  8
0
 62
7
  6
CONTINUOUS
 10
62.6127596603
 20
102.6955429392
 11
64.293640404
 21
101.0146621955
  0
LINE
  8
0
 62
7
  6
CONTINUOUS
 10
73.2355369092
 20
92.0727656902
 11
75.1285496873
 21
90.1797529122
  0
LINE
  8
0
 62
7
  6
CONTINUOUS
 10
65.5826081413
 20
100.4328012394
 11
72.6536759531
 21
93.3617334275
  0
LINE
  8
0
 62
7
  6
CONTINUOUS
 10
44.3610628178
 20
130.5027522354
 11
45.2707489272
 21
128.3065756925
  0
LINE
  8
0
 62
7
  6
CONTINUOUS
 10
50.1100674488
 20
116.623427285
 11
51.1345595706
 21
114.1500845099
  0
LINE
  8
0
 62
7
  6
CONTINUOUS
 10
46.2389312838
 20
127.2757396813
 11
50.0657656074
 21
118.0369443562
  0
LINE
  8
0
 62
7
  6
CONTINUOUS
 10
57.3171212817
 20
200.0448730527
 11
51.5671212817
 21
190.0855809092
  0
LINE
  8
0
 62
7
  6
CONTINUOUS
 10
83.3730071893
 20
229.9038711591
 11
83.068973003
 21
229.5997464713
  0
LINE
  8
0
 62
7
  6
CONTINUOUS
 10
83.2861346866
 20
229.2337981545
 11
83.5901688729
 21
229.5379228422
  0
LINE
  8
0
 62
7
  6
CONTINUOUS
 10
64.4331466855
 20
210.3701906
 11
54.9765415408
 21
201.3962073962
  0
LINE
  8
0
 62
7
  6
CONTINUOUS
 10
81.0849076847
 20
228.5085738073
 11
80.6516473874
 21
228.219518485
  0
LINE
  8
0
 62
7
  6
CONTINUOUS
 10
78.918606601
 20
227.0632974644
 11
78.4853463967
 21
226.7742422041
  0
LINE
  8
0
 62
7
  6
CONTINUOUS
 10
81.5249291965
 20
225.2213394693
 11
81.1783209835
 21
224.990095228
  0
LINE
  8
0
 62
7
  6
CONTINUOUS
 10
81.4144852794
 20
224.6361124255
 11
81.7610934925
 21
224.8673566669
  0
LINE
  8
0
 62
7
  6
CONTINUOUS
 10
82.7142659234
 20
225.5032782271
 11
83.1475262207
 21
225.7923335495
  0
LINE
  8
0
 62
7
  6
CONTINUOUS
 10
98.5745491831
 20
236.2932903779
 11
98.936854786
 21
236.5249447734
  0
LINE
  8
0
 62
7
  6
CONTINUOUS
 10
83.7313317965
 20
230.1165087677
 11
83.3730071893
 21
229.9038711591
  0
LINE
  8
0
 62
7
  6
CONTINUOUS
 10
82.5667772076
 20
229.425436768
 11
82.1188715768
 21
229.1596398334
  0
LINE
  8
0
 62
7
  6
CONTINUOUS
 10
83.8561651973
 20
226.2320530421
 11
84.3040708281
 21
226.4978499768
  0
LINE
  8
0
 62
7
  6
CONTINUOUS
 10
85.9165307915
 20
227.4547187589
 11
86.364436166
 21
227.7205155415
  0
LINE
  8
0
 62
7
  6
CONTINUOUS
 10
85.1512304196
 20
232.7505170309
 11
84.6945416032
 21
232.5001124001
  0
LINE
  8
0
 62
7
  6
CONTINUOUS
 10
84.9502740592
 20
232.0337066781
 11
85.4069628756
 21
232.2841113088
  0
LINE
  8
0
 62
7
  6
CONTINUOUS
 10
85.9184279307
 20
231.3512996034
 11
85.4617391143
 21
231.1008949726
  0
LINE
  8
0
 62
7
  6
CONTINUOUS
 10
87.0984269756
 20
228.1158980901
 11
87.555115792
 21
228.3663027208
  0
LINE
  8
0
 62
7
  6
CONTINUOUS
 10
98.9023557246
 20
236.9616804397
 11
98.3422216485
 21
236.6647088042
  0
LINE
  8
0
 62
7
  6
CONTINUOUS
 10
100.3963908804
 20
234.4301151551
 11
99.7373414474
 21
234.1004844905
  0
LINE
  8
0
 62
7
  6
CONTINUOUS
 10
94.3093408065
 20
237.0306767512
 11
90.8485233427
 21
235.5866398811
  0
LINE
  8
0
 62
7
  6
CONTINUOUS
 10
91.6711197339
 20
235.23823745
 11
94.555134287
 21
236.4416015084
  0
LINE
  8
0
 62
7
  6
CONTINUOUS
 10
94.7031509357
 20
235.0048226935
 11
92.2036723897
 21
233.9619074823
  0
LINE
  8
0
 62
7
  6
CONTINUOUS
 10
92.4494658702
 20
233.3728322395
 11
94.9489444162
 21
234.4157474508
  0
LINE
  8
0
 62
7
  6
CONTINUOUS
 10
92.7739058361
 20
230.972216596
 11
93.3507087468
 21
231.2128894077
  0
LINE
  8
0
 62
7
  6
CONTINUOUS
 10
112.0655871889
 20
240.9251278327
 11
112.4645012293
 21
241.0857413353
  0
LINE
  8
0
 62
7
  6
CONTINUOUS
 10
95.7688822961
 20
237.560606733
 11
95.2806525624
 21
237.3792245338
  0
LINE
  8
0
 62
7
  6
CONTINUOUS
 10
97.0219203462
 20
232.6922226664
 11
97.5101500798
 21
232.8736048656
  0
LINE
  8
0
 62
7
  6
CONTINUOUS
 10
112.3799900918
 20
241.7184197246
 11
111.8778256531
 21
241.5440143671
  0
LINE
  8
0
 62
7
  6
CONTINUOUS
 10
100.2917436444
 20
236.0760373693
 11
98.2145367519
 21
235.3902037336
  0
LINE
  8
0
 62
7
  6
CONTINUOUS
 10
98.249038124
 20
234.9534686733
 11
100.9197327
 21
235.8352547763
  0
LINE
  8
0
 62
7
  6
CONTINUOUS
 10
101.1198543449
 20
235.2291397675
 11
100.625279766
 21
235.0658455464
  0
LINE
  8
0
 62
7
  6
CONTINUOUS
 10
83.5901688729
 20
229.5379228422
 11
84.002783901
 21
229.6590733716
  0
LINE
  8
0
 62
7
  6
CONTINUOUS
 10
123.8850519694
 20
86.4778857546
 11
135.3850519694
 21
86.4778857546
  0
LINE
  8
0
 62
7
  6
CONTINUOUS
 10
111.3850519694
 20
87.4778857546
 11
123.8850519694
 21
83.7752170676
  0
LINE
  8
0
 62
7
  6
CONTINUOUS
 10
61.3897518303
 20
197.6935387092
 11
64.4331466855
 21
210.3701906
  0
LINE
  8
0
 62
7
  6
CONTINUOUS
 10
83.068973003
 20
229.5997464713
 11
82.9088107739
 21
229.2572943346
  0
LINE
  8
0
 62
7
  6
CONTINUOUS
 10
82.0486605076
 20
225.1870965261
 11
82.1629236021
 21
225.3912143888
  0
LINE
  8
0
 62
7
  6
CONTINUOUS
 10
53.2991720893
 20
189.0855809092
 11
59.0491720893
 21
199.0448730527
  0
LINE
  8
0
 62
7
  6
CONTINUOUS
 10
98.0788314142
 20
236.4657134024
 11
97.8487947874
 21
236.1656988325
  0
LINE
  8
0
 62
7
  6
CONTINUOUS
 10
81.8124961961
 20
225.5410793518
 11
81.5249291965
 21
225.2213394693
  0
LINE
  8
0
 62
7
  6
CONTINUOUS
 10
81.7610934925
 20
224.8673566669
 11
82.0486605076
 21
225.1870965261
  0
LINE
  8
0
 62
7
  6
CONTINUOUS
 10
98.4100743174
 20
236.1269539698
 11
98.5745491831
 21
236.2932903779
  0
LINE
  8
0
 62
7
  6
CONTINUOUS
 10
100.6287184354
 20
234.0586966668
 11
100.957670422
 21
234.391370257
  0
LINE
  8
0
 62
7
  6
CONTINUOUS
 10
111.7840087364
 20
240.6728597869
 11
112.0655871889
 21
240.9251278327
  0
LINE
  8
0
 62
7
  6
CONTINUOUS
 10
98.3422216485
 20
236.6647088042
 11
98.0788314142
 21
236.4657134024
  0
LINE
  8
0
 62
7
  6
CONTINUOUS
 10
111.8778256531
 20
241.5440143671
 11
111.4929991655
 21
241.2779547819
  0
LINE
  8
0
 62
7
  6
CONTINUOUS
 10
114.3701522523
 20
237.0471773614
 11
114.7549810994
 21
237.3132372899
  0
LINE
  8
0
 62
7
  6
CONTINUOUS
 10
99.9696712576
 20
233.7290667763
 11
100.6287184354
 21
234.0586966668
  0
LINE
  8
0
 62
7
  6
CONTINUOUS
 10
114.182393071
 20
237.6660642761
 11
113.7834790306
 21
237.5054507735
  0
LINE
  8
0
 62
7
  6
CONTINUOUS
 10
139.7417868889
 20
239.9239330518
 11
140.0931848637
 21
240.0633785794
  0
LINE
  8
0
 62
7
  6
CONTINUOUS
 10
139.7129552427
 20
238.8402788834
 11
139.0101592931
 21
238.5613878282
  0
LINE
  8
0
 62
7
  6
CONTINUOUS
 10
81.0088360543
 20
224.4933639262
 11
81.4144852794
 21
224.6361124255
  0
LINE
  8
0
 62
7
  6
CONTINUOUS
 10
113.867990178
 20
236.8727723103
 11
114.3701522523
 21
237.0471773614
  0
LINE
  8
0
 62
7
  6
CONTINUOUS
 10
140.107602981
 20
240.6052049979
 11
139.5296763282
 21
240.4074025208
  0
LINE
  8
LAY0001
 62
7
  6
CONTINUOUS
 10
172.1508203058
 20
105.981782828
 11
172.2285264493
 21
106.0038231251
  0
LINE
  8
LAY0001
 62
7
  6
CONTINUOUS
 10
172.2865232197
 20
106.1453186651
 11
172.2088173616
 21
106.1232786533
  0
LINE
  8
LAY0001
 62
7
  6
CONTINUOUS
 10
173.39764853
 20
107.2286110521
 11
173.4753546734
 21
107.2506513492
  0
LINE
  8
LAY0001
 62
7
  6
CONTINUOUS
 10
174.3701744706
 20
108.2011369928
 11
174.4478804714
 21
108.2231771472
  0
LINE
  8
LAY0001
 62
7
  6
CONTINUOUS
 10
174.5058773845
 20
108.3646728298
 11
174.4281713837
 21
108.3426326754
  0
LINE
  8
LAY0001
 62
7
  6
CONTINUOUS
 10
173.7897101456
 20
108.2329970361
 11
173.6731510658
 21
108.1999367404
  0
LINE
  8
LAY0001
 62
7
  6
CONTINUOUS
 10
175.2290377231
 20
109.0878331684
 11
175.3455967956
 21
109.1208934714
  0
LINE
  8
LAY0001
 62
7
  6
CONTINUOUS
 10
175.4743762585
 20
109.8898302258
 11
175.5909353407
 21
109.922890519
  0
LINE
  8
LAY0001
 62
7
  6
CONTINUOUS
 10
175.6489321906
 20
110.0643861579
 11
175.5712261403
 21
110.0423459638
  0
LINE
  8
0
 62
7
  6
CONTINUOUS
 10
135.3850519694
 20
88.4778857546
 11
123.8850519694
 21
88.4778857546
  0
LINE
  8
0
 62
7
  6
CONTINUOUS
 10
81.9543701873
 20
225.8915038979
 11
81.8124961961
 21
225.5410793518
  0
LINE
  8
0
 62
7
  6
CONTINUOUS
 10
83.1259724574
 20
228.8913460178
 11
83.2861346866
 21
229.2337981545
  0
LINE
  8
0
 62
7
  6
CONTINUOUS
 10
111.4929991655
 20
241.2779547819
 11
111.1363406938
 21
240.8010020847
  0
LINE
  8
0
 62
7
  6
CONTINUOUS
 10
100.6264275072
 20
234.730129725
 11
100.3963908804
 21
234.4301151551
  0
LINE
  8
0
 62
7
  6
CONTINUOUS
 10
114.4639715137
 20
237.9183323957
 11
114.182393071
 21
237.6660642761
  0
LINE
  8
0
 62
7
  6
CONTINUOUS
 10
139.3471391506
 20
238.1590069373
 11
139.6985371254
 21
238.2984524649
  0
LINE
  8
0
 62
7
  6
CONTINUOUS
 10
140.9536075374
 20
236.2736499375
 11
140.6022095626
 21
236.13420441
  0
LINE
  8
0
 62
7
  6
CONTINUOUS
 10
140.587791431
 20
235.5923779278
 11
141.1657180899
 21
235.7901804322
  0
LINE
  8
0
 62
7
  6
CONTINUOUS
 10
150.8209644859
 20
234.7966829173
 11
151.3215613723
 21
234.9543806126
  0
LINE
  8
0
 62
7
  6
CONTINUOUS
 10
82.1629236021
 20
225.3912143888
 11
82.2457563695
 21
225.8301345915
  0
LINE
  8
0
 62
7
  6
CONTINUOUS
 10
82.9088107739
 20
229.2572943346
 11
82.8382293121
 21
228.9680013719
  0
LINE
  8
0
 62
7
  6
CONTINUOUS
 10
83.0553909956
 20
228.6020530551
 11
83.1259724574
 21
228.8913460178
  0
LINE
  8
0
 62
7
  6
CONTINUOUS
 10
104.1873162107
 20
238.5041122289
 11
103.4387237726
 21
236.8715753304
  0
LINE
  8
0
 62
7
  6
CONTINUOUS
 10
102.8554347475
 20
234.6225165435
 11
103.6040248442
 21
236.2550529685
  0
LINE
  8
0
 62
7
  6
CONTINUOUS
 10
103.2195352892
 20
236.4823854371
 11
102.2517566705
 21
234.4606592627
  0
LINE
  8
0
 62
7
  6
CONTINUOUS
 10
103.8232133662
 20
236.6442427179
 11
104.7909942877
 21
238.6659695097
  0
LINE
  8
0
 62
7
  6
CONTINUOUS
 10
97.8487947874
 20
236.1656988325
 11
97.7176712652
 21
235.8983425088
  0
LINE
  8
0
 62
7
  6
CONTINUOUS
 10
98.2133912981
 20
235.7259202317
 11
98.4100743174
 21
236.1269539698
  0
LINE
  8
0
 62
7
  6
CONTINUOUS
 10
100.957670422
 20
234.391370257
 11
101.1543534296
 21
234.7924040305
  0
LINE
  8
0
 62
7
  6
CONTINUOUS
 10
114.7549810994
 20
237.3132372899
 11
115.1116395661
 21
237.7901900241
  0
LINE
  8
0
 62
7
  6
CONTINUOUS
 10
139.5296763282
 20
240.4074025208
 11
139.1318492154
 21
240.060318661
  0
LINE
  8
0
 62
7
  6
CONTINUOUS
 10
137.3564488696
 20
241.2484390639
 11
136.6110010407
 21
240.6243541562
  0
LINE
  8
0
 62
7
  6
CONTINUOUS
 10
136.4623691244
 20
239.7863693529
 11
137.2078170054
 21
240.4104545542
  0
LINE
  8
0
 62
7
  6
CONTINUOUS
 10
131.618031874
 20
237.6809234623
 11
135.593443123
 21
240.8149848034
  0
LINE
  8
0
 62
7
  6
CONTINUOUS
 10
135.1041177314
 20
241.0926519059
 11
131.0253978268
 21
237.9719204174
  0
LINE
  8
0
 62
7
  6
CONTINUOUS
 10
139.097400557
 20
237.9968297812
 11
139.3471391506
 21
238.1590069373
  0
LINE
  8
0
 62
7
  6
CONTINUOUS
 10
158.8036209918
 20
233.7462759953
 11
158.3306509386
 21
233.5116849763
  0
LINE
  8
0
 62
7
  6
CONTINUOUS
 10
151.2094650135
 20
235.5610304646
 11
150.9410020931
 21
235.432187761
  0
LINE
  8
0
 62
7
  6
CONTINUOUS
 10
157.7729459506
 20
231.5246927232
 11
158.055699388
 21
231.6180805636
  0
LINE
  8
LAY0001
 62
7
  6
CONTINUOUS
 10
171.0617355781
 20
104.9761968698
 11
171.1672743593
 21
104.9704039583
  0
LINE
  8
LAY0001
 62
7
  6
CONTINUOUS
 10
171.2391875914
 20
105.0979830367
 11
171.1864182007
 21
105.1008794924
  0
LINE
  8
LAY0001
 62
7
  6
CONTINUOUS
 10
170.8390721634
 20
105.1988602844
 11
170.9446109544
 21
105.1930673632
  0
LINE
  8
LAY0001
 62
7
  6
CONTINUOUS
 10
171.0165241865
 20
105.3206464416
 11
170.9637547861
 21
105.3235429071
  0
LINE
  8
LAY0001
 62
7
  6
CONTINUOUS
 10
171.6822530917
 20
105.6523802298
 11
171.7350224824
 21
105.6494837741
  0
LINE
  8
LAY0001
 62
7
  6
CONTINUOUS
 10
171.8597053904
 20
105.7741666821
 11
171.7541663238
 21
105.7799593081
  0
LINE
  8
LAY0001
 62
7
  6
CONTINUOUS
 10
171.4595896771
 20
105.8750436444
 11
171.5123590677
 21
105.8721471887
  0
LINE
  8
LAY0001
 62
7
  6
CONTINUOUS
 10
171.6370419758
 20
105.9968300967
 11
171.5315029042
 21
106.0026227277
  0
LINE
  8
LAY0001
 62
7
  6
CONTINUOUS
 10
173.5084149764
 20
107.3672104217
 11
173.4556453004
 21
107.3701065921
  0
LINE
  8
LAY0001
 62
7
  6
CONTINUOUS
 10
173.1245466415
 20
107.6513323161
 11
173.0717772484
 21
107.6542287743
  0
LINE
  8
LAY0001
 62
7
  6
CONTINUOUS
 10
173.6789436992
 20
108.0943976665
 11
173.7317132325
 21
108.0915013535
  0
LINE
  8
LAY0001
 62
7
  6
CONTINUOUS
 10
174.3174049373
 20
108.2040333058
 11
174.3701744706
 21
108.2011369928
  0
LINE
  8
LAY0001
 62
7
  6
CONTINUOUS
 10
175.7544711711
 20
110.0585934262
 11
175.6489321906
 21
110.0643861579
  0
LINE
  8
0
 62
7
  6
CONTINUOUS
 10
81.950550984
 20
226.2726131178
 11
81.9543701873
 21
225.8915038979
  0
LINE
  8
0
 62
7
  6
CONTINUOUS
 10
111.6197659112
 20
240.3289369025
 11
111.7840087364
 21
240.6728597869
  0
LINE
  8
0
 62
7
  6
CONTINUOUS
 10
114.6282143784
 20
238.2622549847
 11
114.4639715137
 21
237.9183323957
  0
LINE
  8
0
 62
7
  6
CONTINUOUS
 10
139.4688337263
 20
239.6579367296
 11
139.7417868889
 21
239.9239330518
  0
LINE
  8
0
 62
7
  6
CONTINUOUS
 10
141.2265607162
 20
236.5396463325
 11
140.9536075374
 21
236.2736499375
  0
LINE
  8
0
 62
7
  6
CONTINUOUS
 10
141.1657180899
 20
235.7901804322
 11
141.5635452109
 21
236.1372643283
  0
LINE
  8
0
 62
7
  6
CONTINUOUS
 10
151.3215613723
 20
234.9543806126
 11
151.7605779846
 21
235.2476348223
  0
LINE
  8
0
 62
7
  6
CONTINUOUS
 10
158.5543166603
 20
233.036876147
 11
158.8859057585
 21
233.2247754348
  0
LINE
  8
0
 62
7
  6
CONTINUOUS
 10
159.4618989204
 20
229.5742711143
 11
159.1303097879
 21
229.3863717603
  0
LINE
  8
0
 62
7
  6
CONTINUOUS
 10
159.2125945375
 20
228.8648711667
 11
159.6855646078
 21
229.0994622188
  0
LINE
  8
LAY0001
 62
7
  6
CONTINUOUS
 10
175.5909353407
 20
109.922890519
 11
175.7103907708
 21
109.9031813333
  0
LINE
  8
LAY0001
 62
7
  6
CONTINUOUS
 10
172.0841344536
 20
105.9985957453
 11
172.1508203058
 21
105.981782828
  0
LINE
  8
LAY0001
 62
7
  6
CONTINUOUS
 10
173.3309626778
 20
107.2454239694
 11
173.39764853
 21
107.2286110521
  0
LINE
  8
LAY0001
 62
7
  6
CONTINUOUS
 10
172.9470943404
 20
107.5295458662
 11
173.0137801975
 21
107.5127329441
  0
LINE
  8
LAY0001
 62
7
  6
CONTINUOUS
 10
173.191232501
 20
107.6345193915
 11
173.1245466415
 21
107.6513323161
  0
LINE
  8
LAY0001
 62
7
  6
CONTINUOUS
 10
175.3398040269
 20
109.2264323954
 11
175.2731181033
 21
109.2432452413
  0
LINE
  8
0
 62
7
  6
CONTINUOUS
 10
97.7176712652
 20
235.8983425088
 11
97.653257222
 21
235.4289485963
  0
LINE
  8
0
 62
7
  6
CONTINUOUS
 10
98.1811831444
 20
235.4912229017
 11
98.2133912981
 21
235.7259202317
  0
LINE
  8
0
 62
7
  6
CONTINUOUS
 10
111.1363406938
 20
240.8010020847
 11
110.9861830187
 21
240.3516330975
  0
LINE
  8
0
 62
7
  6
CONTINUOUS
 10
115.1116395661
 20
237.7901900241
 11
115.2617972313
 21
238.2395590851
  0
LINE
  8
0
 62
7
  6
CONTINUOUS
 10
139.1318492154
 20
240.060318661
 11
138.8124668497
 21
239.5866837158
  0
LINE
  8
0
 62
7
  6
CONTINUOUS
 10
158.3306509386
 20
233.5116849763
 11
157.9013861457
 21
233.1347647178
  0
LINE
  8
LAY0001
 62
7
  6
CONTINUOUS
 10
173.8703124692
 20
108.2022676475
 11
173.7897101456
 21
108.2329970361
  0
LINE
  8
LAY0001
 62
7
  6
CONTINUOUS
 10
174.4281713837
 20
108.3426326754
 11
174.3475689272
 21
108.3733619116
  0
LINE
  8
LAY0001
 62
7
  6
CONTINUOUS
 10
175.1484352666
 20
109.1185624046
 11
175.2290377231
 21
109.0878331684
  0
LINE
  8
LAY0001
 62
7
  6
CONTINUOUS
 10
171.9896156782
 20
106.0432415858
 11
172.0841344536
 21
105.9985957453
  0
LINE
  8
LAY0001
 62
7
  6
CONTINUOUS
 10
172.2088173616
 20
106.1232786533
 11
172.1142983009
 21
106.1679242084
  0
LINE
  8
LAY0001
 62
7
  6
CONTINUOUS
 10
173.0137801975
 20
107.5127329441
 11
173.1082992631
 21
107.4680873841
  0
LINE
  8
LAY0001
 62
7
  6
CONTINUOUS
 10
174.2228861619
 20
108.2486791463
 11
174.3174049373
 21
108.2040333058
  0
LINE
  8
0
 62
7
  6
CONTINUOUS
 10
100.625279766
 20
235.0658455464
 11
100.6264275072
 21
234.730129725
  0
LINE
  8
0
 62
7
  6
CONTINUOUS
 10
111.5728562712
 20
239.8933594546
 11
111.6197659112
 21
240.3289369025
  0
LINE
  8
0
 62
7
  6
CONTINUOUS
 10
139.297530573
 20
239.369210569
 11
139.4688337263
 21
239.6579367296
  0
LINE
  8
0
 62
7
  6
CONTINUOUS
 10
138.9260974362
 20
237.708103766
 11
139.097400557
 21
237.9968297812
  0
LINE
  8
0
 62
7
  6
CONTINUOUS
 10
141.3978638045
 20
236.8283722022
 11
141.2265607162
 21
236.5396463325
  0
LINE
  8
0
 62
7
  6
CONTINUOUS
 10
141.5635452109
 20
236.1372643283
 11
141.8829275278
 21
236.6108990554
  0
LINE
  8
0
 62
7
  6
CONTINUOUS
 10
151.4163431781
 20
235.8254313109
 11
151.2094650135
 21
235.5610304646
  0
LINE
  8
0
 62
7
  6
CONTINUOUS
 10
151.7605779846
 20
235.2476348223
 11
151.9674561491
 21
235.5120356686
  0
LINE
  8
0
 62
7
  6
CONTINUOUS
 10
153.3144685028
 20
233.1059630821
 11
155.3260797872
 21
235.3604400529
  0
LINE
  8
0
 62
7
  6
CONTINUOUS
 10
152.1542033614
 20
231.7560400457
 11
153.0482513454
 21
232.7580304029
  0
LINE
  8
0
 62
7
  6
CONTINUOUS
 10
155.1152579086
 20
235.9174366984
 11
151.581763506
 21
232.0069137428
  0
LINE
  8
0
 62
7
  6
CONTINUOUS
 10
158.3152642469
 20
232.8011612562
 11
158.5543166603
 21
233.036876147
  0
LINE
  8
0
 62
7
  6
CONTINUOUS
 10
157.5338936056
 20
231.2889779647
 11
157.7729459506
 21
231.5246927232
  0
LINE
  8
0
 62
7
  6
CONTINUOUS
 10
159.7009511969
 20
229.8099857404
 11
159.4618989204
 21
229.5742711143
  0
LINE
  8
0
 62
7
  6
CONTINUOUS
 10
159.6855646078
 20
229.0994622188
 11
160.1148250619
 21
229.4763844677
  0
LINE
  8
LAY0001
 62
7
  6
CONTINUOUS
 10
175.8629065039
 20
110.00003122
 11
175.7544711711
 21
110.0585934262
  0
LINE
  8
0
 62
7
  6
CONTINUOUS
 10
101.1543534296
 20
234.7924040305
 11
101.1198543449
 21
235.2291397675
  0
LINE
  8
0
 62
7
  6
CONTINUOUS
 10
112.3360414554
 20
68.9147040915
 11
112.5663563426
 21
64.520034246
  0
LINE
  8
0
 62
7
  6
CONTINUOUS
 10
110.9861830187
 20
240.3516330975
 11
110.9533586078
 21
239.810608956
  0
LINE
  8
0
 62
7
  6
CONTINUOUS
 10
115.2617972313
 20
238.2395590851
 11
115.2946216817
 21
238.7805829313
  0
LINE
  8
0
 62
7
  6
CONTINUOUS
 10
114.6751240183
 20
238.6978324326
 11
114.6282143784
 21
238.2622549847
  0
LINE
  8
0
 62
7
  6
CONTINUOUS
 10
128.0777458546
 20
260.8490370309
 11
126.0546674754
 21
249.3755893993
  0
LINE
  8
0
 62
7
  6
CONTINUOUS
 10
77.3720177991
 20
80.2650504872
 11
75.9030336689
 21
76.1167672732
  0
LINE
  8
0
 62
7
  6
CONTINUOUS
 10
138.8124668497
 20
239.5866837158
 11
138.5483054854
 21
238.8826811816
  0
LINE
  8
0
 62
7
  6
CONTINUOUS
 10
139.0565884311
 20
238.7690261604
 11
139.297530573
 21
239.369210569
  0
LINE
  8
0
 62
7
  6
CONTINUOUS
 10
165.3655456184
 20
251.5651628053
 11
159.1057665904
 21
241.7392779492
  0
LINE
  8
0
 62
7
  6
CONTINUOUS
 10
157.9013861457
 20
233.1347647178
 11
157.4669954622
 21
232.521002113
  0
LINE
  8
0
 62
7
  6
CONTINUOUS
 10
157.9297049879
 20
232.2819122877
 11
158.3152642469
 21
232.8011612562
  0
LINE
  8
0
 62
7
  6
CONTINUOUS
 10
49.4130614861
 20
104.1315557911
 11
46.4684178559
 21
100.8611977237
  0
LINE
  8
0
 62
7
  6
CONTINUOUS
 10
196.2621957783
 20
228.718558227
 11
186.7187107135
 21
222.0361380438
  0
LINE
  8
0
 62
7
  6
CONTINUOUS
 10
183.202982657
 20
210.8701906
 11
181.4709318494
 21
209.8701906
  0
LINE
  8
0
 62
7
  6
CONTINUOUS
 10
32.7156701665
 20
136.8807609212
 11
28.7436623357
 21
134.9862103702
  0
LINE
  8
0
 62
7
  6
CONTINUOUS
 10
30.7061425125
 20
129.1683597714
 11
42.0804245249
 21
131.6899773849
  0
LINE
  8
0
 62
7
  6
CONTINUOUS
 10
216.9482336325
 20
151.4288752406
 11
221.342903478
 21
151.6591901279
  0
LINE
  8
0
 62
7
  6
CONTINUOUS
 10
25.013900693
 20
167.1705796398
 11
36.4873483247
 21
165.1475012606
  0
LINE
  8
0
 62
7
  6
CONTINUOUS
 10
205.5978872368
 20
116.4648515844
 11
209.7461704508
 21
114.9958674542
  0
LINE
  8
0
 62
7
  6
CONTINUOUS
 10
51.5671212817
 20
190.0855809092
 11
53.2991720893
 21
189.0855809092
  0
LINE
  8
0
 62
7
  6
CONTINUOUS
 10
34.2977749186
 20
204.4583794036
 11
44.1236597748
 21
198.1986003757
  0
LINE
  8
0
 62
7
  6
CONTINUOUS
 10
181.7313819329
 20
88.5058952714
 11
185.0017400003
 21
85.5612516412
  0
LINE
  8
0
 62
7
  6
CONTINUOUS
 10
57.144379497
 20
235.3550295635
 11
63.8267996802
 21
225.8115444988
  0
LINE
  8
0
 62
7
  6
CONTINUOUS
 10
148.9821768028
 20
71.8085039517
 11
150.8767273538
 21
67.8364961209
  0
LINE
  8
0
 62
7
  6
CONTINUOUS
 10
90.0755259861
 20
255.1567952114
 11
92.5971435997
 21
243.7825131991
  0
LINE
  8
0
 62
7
  6
CONTINUOUS
 10
97.653257222
 20
235.4289485963
 11
97.754463545
 21
234.7901744522
  0
LINE
  8
0
 62
7
  6
CONTINUOUS
 10
116.0202015435
 20
242.1653957714
 11
116.3505809686
 21
237.1763227677
  0
LINE
  8
0
 62
7
  6
CONTINUOUS
 10
116.974215094
 20
237.2176201959
 11
116.6860117608
 21
241.5697903388
  0
LINE
  8
0
 62
7
  6
CONTINUOUS
 10
121.3312438657
 20
242.4734949921
 11
121.3424196649
 21
237.4735074819
  0
LINE
  8
0
 62
7
  6
CONTINUOUS
 10
121.9659914059
 20
238.1132007331
 11
121.9621868785
 21
239.8153241615
  0
LINE
  8
0
 62
7
  6
CONTINUOUS
 10
121.9607601809
 20
240.4536203633
 11
121.9576690021
 21
241.8365957652
  0
LINE
  8
DEFAULT_1
 62
2
  6
CENTER
 10
123.3850519694
 20
266.3665207877
 11
123.3850519694
 21
164.4779857546
  0
LINE
  8
0
 62
2
  6
CONTINUOUS
 10
123.3850519694
 20
163.5278857546
 11
123.3850519694
 21
161.4278857546
  0
LINE
  8
DEFAULT_1
 62
2
  6
CENTER
 10
123.3850519694
 20
53.1211706783
 11
123.3850519694
 21
160.4777857546
  0
LINE
  8
0
 62
7
  6
CONTINUOUS
 10
123.8850519694
 20
83.7752170676
 11
123.8850519694
 21
86.4778857546
  0
LINE
  8
0
 62
7
  6
CONTINUOUS
 10
123.8850519694
 20
88.4778857546
 11
123.8850519694
 21
91.1805544416
  0
LINE
  8
0
 62
7
  6
CONTINUOUS
 10
131.5563311245
 20
242.0867450068
 11
131.4882627616
 21
241.5592034591
  0
LINE
  8
0
 62
7
  6
CONTINUOUS
 10
131.0253978268
 20
237.9719204174
 11
130.9164884365
 21
237.1278538672
  0
LINE
  8
0
 62
7
  6
CONTINUOUS
 10
136.6110010407
 20
240.6243541562
 11
136.4623691244
 21
239.7863693529
  0
LINE
  8
0
 62
7
  6
CONTINUOUS
 10
137.2078170054
 20
240.4104545542
 11
136.4832365633
 21
236.3252794821
  0
LINE
  8
0
 62
7
  6
CONTINUOUS
 10
137.098631511
 20
236.2161279438
 11
137.9718438173
 21
241.1392875256
  0
LINE
  8
0
 62
7
  6
CONTINUOUS
 10
138.5483054854
 20
238.8826811816
 11
138.3858035022
 21
238.155947019
  0
LINE
  8
0
 62
7
  6
CONTINUOUS
 10
139.0101592931
 20
238.5613878282
 11
139.0565884311
 21
238.7690261604
  0
LINE
  8
0
 62
7
  6
CONTINUOUS
 10
138.8564537291
 20
237.3966462677
 11
138.9260974362
 21
237.708103766
  0
LINE
  8
0
 62
7
  6
CONTINUOUS
 10
148.8897939315
 20
238.3278810384
 11
147.1825435148
 21
233.628381489
  0
LINE
  8
0
 62
7
  6
CONTINUOUS
 10
147.7699809585
 20
233.414975187
 11
148.5327949853
 21
235.5147516112
  0
LINE
  8
0
 62
7
  6
CONTINUOUS
 10
148.750741821
 20
236.1146876523
 11
149.295609012
 21
237.6145280354
  0
LINE
  8
0
 62
7
  6
CONTINUOUS
 10
157.4669954622
 20
232.521002113
 11
157.1251458365
 21
231.8594219809
  0
LINE
  8
0
 62
7
  6
CONTINUOUS
 10
157.8320336663
 20
232.0928893928
 11
157.9297049879
 21
232.2819122877
  0
LINE
  8
0
 62
7
  6
CONTINUOUS
 10
157.3873866232
 20
231.0054436224
 11
157.5338936056
 21
231.2889779647
  0
LINE
  8
0
 62
7
  6
CONTINUOUS
 10
191.293562398
 20
202.2622328
 11
188.952982657
 21
200.9108984565
  0
LINE
  8
0
 62
7
  6
CONTINUOUS
 10
187.2209318494
 20
199.9108984565
 11
184.8803521084
 21
198.559564113
  0
LINE
  8
DEFAULT_1
 62
2
  6
CENTER
 10
223.9578774617
 20
162.4778857546
 11
125.3851519694
 21
162.4778857546
  0
LINE
  8
0
 62
2
  6
CONTINUOUS
 10
124.4350519694
 20
162.4778857546
 11
122.3350519694
 21
162.4778857546
  0
LINE
  8
DEFAULT_1
 62
2
  6
CENTER
 10
28.1598741794
 20
162.4778857546
 11
121.3849519694
 21
162.4778857546
  0
LINE
  8
0
 62
7
  6
CONTINUOUS
 10
54.9765415408
 20
201.3962073962
 11
57.3171212817
 21
200.0448730527
  0
LINE
  8
0
 62
7
  6
CONTINUOUS
 10
59.0491720893
 20
199.0448730527
 11
61.3897518303
 21
197.6935387092
  0
LINE
  8
LAY0001
 62
7
  6
CONTINUOUS
 10
171.5036684291
 20
104.5304850364
 11
173.1300140258
 21
102.9041394396
  0
LINE
  8
LAY0001
 62
7
  6
CONTINUOUS
 10
170.8112392403
 20
105.2266932076
 11
170.8390721634
 21
105.1988602844
  0
LINE
  8
LAY0001
 62
7
  6
CONTINUOUS
 10
173.7310547898
 20
103.5051802036
 11
172.1047091931
 21
105.1315258004
  0
LINE
  8
LAY0001
 62
7
  6
CONTINUOUS
 10
172.2461305494
 20
105.2729471566
 11
173.1653693649
 21
104.3537083411
  0
LINE
  8
LAY0001
 62
7
  6
CONTINUOUS
 10
171.8875383136
 20
105.7463337589
 11
171.8597053904
 21
105.7741666821
  0
LINE
  8
LAY0001
 62
7
  6
CONTINUOUS
 10
171.7252028691
 20
106.3076543949
 11
171.9896156782
 21
106.0432415858
  0
LINE
  8
LAY0001
 62
7
  6
CONTINUOUS
 10
172.1142983009
 20
106.1679242084
 11
171.8498854917
 21
106.4323370176
  0
LINE
  8
LAY0001
 62
7
  6
CONTINUOUS
 10
173.801765468
 20
104.919393766
 11
172.8471713134
 21
105.8739879206
  0
LINE
  8
LAY0001
 62
7
  6
CONTINUOUS
 10
172.2987436182
 20
106.881195144
 11
172.6188222737
 21
106.5611164885
  0
LINE
  8
LAY0001
 62
7
  6
CONTINUOUS
 10
172.67448812
 20
106.5054506422
 11
172.744070428
 21
106.4358683342
  0
LINE
  8
LAY0001
 62
7
  6
CONTINUOUS
 10
172.868753336
 20
106.5605512423
 11
172.4234265262
 21
107.0058780521
  0
LINE
  8
LAY0001
 62
7
  6
CONTINUOUS
 10
172.622919122
 20
107.2053706478
 11
173.0682459318
 21
106.760043838
  0
LINE
  8
LAY0001
 62
7
  6
CONTINUOUS
 10
173.2074105866
 20
106.6208791832
 11
173.2769928946
 21
106.5512968752
  0
LINE
  8
LAY0001
 62
7
  6
CONTINUOUS
 10
173.4016755172
 20
106.6759794979
 11
173.3320932093
 21
106.7455618058
  0
LINE
  8
LAY0001
 62
7
  6
CONTINUOUS
 10
173.1929285544
 20
106.8847264607
 11
172.7476017446
 21
107.3300532705
  0
LINE
  8
LAY0001
 62
7
  6
CONTINUOUS
 10
173.6603441117
 20
106.687160719
 11
174.438161571
 21
105.9093432597
  0
LINE
  8
LAY0001
 62
7
  6
CONTINUOUS
 10
175.003846996
 20
105.3436578347
 11
175.2866897085
 21
105.0608151223
  0
LINE
  8
LAY0001
 62
7
  6
CONTINUOUS
 10
173.1082992631
 20
107.4680873841
 11
173.3309626778
 21
107.2454239694
  0
LINE
  8
LAY0001
 62
7
  6
CONTINUOUS
 10
173.3582300498
 20
107.4675218427
 11
173.2747312803
 21
107.5510206122
  0
LINE
  8
LAY0001
 62
7
  6
CONTINUOUS
 10
173.4556453004
 20
107.3701065921
 11
173.4138959156
 21
107.4118559769
  0
LINE
  8
LAY0001
 62
7
  6
CONTINUOUS
 10
175.8877304725
 20
105.6618558863
 11
174.2613848757
 21
107.288201483
  0
LINE
  8
LAY0001
 62
7
  6
CONTINUOUS
 10
173.7317132325
 20
108.0915013535
 11
173.7595461654
 21
108.0636684205
  0
LINE
  8
LAY0001
 62
7
  6
CONTINUOUS
 10
174.402806232
 20
107.4296228392
 11
176.0291518287
 21
105.8032772425
  0
LINE
  8
LAY0001
 62
7
  6
CONTINUOUS
 10
174.1068923357
 20
107.965687781
 11
174.0790594125
 21
107.9935207042
  0
LINE
  8
LAY0001
 62
7
  6
CONTINUOUS
 10
173.9120618539
 20
108.1605182627
 11
173.8703124692
 21
108.2022676475
  0
LINE
  8
LAY0001
 62
7
  6
CONTINUOUS
 10
173.9445568912
 20
108.527008417
 11
174.2228861619
 21
108.2486791463
  0
LINE
  8
LAY0001
 62
7
  6
CONTINUOUS
 10
174.3475689272
 20
108.3733619116
 11
174.0692396565
 21
108.6516911824
  0
LINE
  8
LAY0001
 62
7
  6
CONTINUOUS
 10
176.6301925927
 20
106.4043180065
 11
175.8523751334
 21
107.1821354658
  0
LINE
  8
LAY0001
 62
7
  6
CONTINUOUS
 10
175.2866897085
 20
107.7478208908
 11
175.003846996
 21
108.0306636032
  0
LINE
  8
LAY0001
 62
7
  6
CONTINUOUS
 10
174.5180977829
 20
109.1005493088
 11
174.8381764384
 21
108.7804706533
  0
LINE
  8
LAY0001
 62
7
  6
CONTINUOUS
 10
174.8938422848
 20
108.7248048069
 11
175.1721715555
 21
108.4464755362
  0
LINE
  8
LAY0001
 62
7
  6
CONTINUOUS
 10
175.2968543922
 20
108.5711583729
 11
174.6427806196
 21
109.2252321455
  0
LINE
  8
LAY0001
 62
7
  6
CONTINUOUS
 10
176.4887712365
 20
108.1720849595
 11
177.4433653911
 21
107.2174908049
  0
LINE
  8
LAY0001
 62
7
  6
CONTINUOUS
 10
175.7103907708
 20
109.9031813333
 11
175.7521401556
 21
109.8614319485
  0
LINE
  8
LAY0001
 62
7
  6
CONTINUOUS
 10
178.0444061551
 20
107.8185315689
 11
177.1251673395
 21
108.7377703844
  0
LINE
  8
0
 62
7
  6
CONTINUOUS
 10
78.4853463967
 20
226.7742422041
 11
79.6661678557
 21
225.0043282227
  0
LINE
  8
0
 62
7
  6
CONTINUOUS
 10
80.0994280601
 20
225.293383483
 11
78.918606601
 21
227.0632974644
  0
LINE
  8
0
 62
7
  6
CONTINUOUS
 10
80.6516473874
 20
228.219518485
 11
81.950550984
 21
226.2726131178
  0
LINE
  8
0
 62
7
  6
CONTINUOUS
 10
82.1188715768
 20
229.1596398334
 11
83.8561651973
 21
226.2320530421
  0
LINE
  8
0
 62
7
  6
CONTINUOUS
 10
84.3040708281
 20
226.4978499768
 11
83.0553909956
 21
228.6020530551
  0
LINE
  8
0
 62
7
  6
CONTINUOUS
 10
82.8382293121
 20
228.9680013719
 11
82.5667772076
 21
229.425436768
  0
LINE
  8
0
 62
7
  6
CONTINUOUS
 10
84.8850126426
 20
229.1929735204
 11
85.9165307915
 21
227.4547187589
  0
LINE
  8
0
 62
7
  6
CONTINUOUS
 10
84.6945416032
 20
232.5001124001
 11
84.9502740592
 21
232.0337066781
  0
LINE
  8
0
 62
7
  6
CONTINUOUS
 10
85.4617391143
 20
231.1008949726
 11
87.0984269756
 21
228.1158980901
  0
LINE
  8
0
 62
7
  6
CONTINUOUS
 10
87.555115792
 20
228.3663027208
 11
85.9184279307
 21
231.3512996034
  0
LINE
  8
0
 62
7
  6
CONTINUOUS
 10
85.4069628756
 20
232.2841113088
 11
85.1512304196
 21
232.7505170309
  0
LINE
  8
0
 62
7
  6
CONTINUOUS
 10
90.8485233427
 20
235.5866398811
 11
92.7739058361
 21
230.972216596
  0
LINE
  8
0
 62
7
  6
CONTINUOUS
 10
93.3507087468
 20
231.2128894077
 11
92.4494658702
 21
233.3728322395
  0
LINE
  8
0
 62
7
  6
CONTINUOUS
 10
92.2036723897
 20
233.9619074823
 11
91.6711197339
 21
235.23823745
  0
LINE
  8
0
 62
7
  6
CONTINUOUS
 10
95.2806525624
 20
237.3792245338
 11
97.0219203462
 21
232.6922226664
  0
LINE
  8
0
 62
7
  6
CONTINUOUS
 10
97.5101500798
 20
232.8736048656
 11
95.7688822961
 21
237.560606733
  0
LINE
  8
0
 62
7
  6
CONTINUOUS
 10
98.3157453389
 20
234.751430337
 11
98.249038124
 21
234.9534686733
  0
LINE
  8
0
 62
7
  6
CONTINUOUS
 10
98.2145367519
 20
235.3902037336
 11
98.1811831444
 21
235.4912229017
  0
LINE
  8
0
 62
7
  6
CONTINUOUS
 10
100.2250364294
 20
236.2780757056
 11
100.2917436444
 21
236.0760373693
  0
LINE
  8
0
 62
7
  6
CONTINUOUS
 10
110.9533586078
 20
239.810608956
 11
111.1646364713
 21
238.2289128349
  0
LINE
  8
0
 62
7
  6
CONTINUOUS
 10
111.7841341347
 20
238.3116633336
 11
111.5728562712
 21
239.8933594546
  0
LINE
  8
0
 62
7
  6
CONTINUOUS
 10
119.5541266685
 20
242.3994144257
 11
119.8353006482
 21
238.153394834
  0
LINE
  8
0
 62
7
  6
CONTINUOUS
 10
120.508140219
 20
237.4516388502
 11
120.1777607939
 21
242.4407118539
  0
LINE
  8
0
 62
7
  6
CONTINUOUS
 10
124.6705150359
 20
239.8213777229
 11
124.6690883383
 21
240.4596739247
  0
LINE
  8
0
 62
7
  6
CONTINUOUS
 10
125.0924102975
 20
237.4818893313
 11
125.0909835998
 21
238.1201856076
  0
LINE
  8
0
 62
7
  6
CONTINUOUS
 10
125.0826611959
 20
241.8435806397
 11
125.0812344983
 21
242.4818768415
  0
LINE
  8
0
 62
7
  6
CONTINUOUS
 10
138.3858035022
 20
238.155947019
 11
138.3249608678
 21
237.4064810823
  0
LINE
  8
0
 62
7
  6
CONTINUOUS
 10
135.0488961431
 20
236.5946518305
 11
135.1305781882
 21
237.2277017617
  0
LINE
  8
0
 62
7
  6
CONTINUOUS
 10
135.593443123
 20
240.8149848034
 11
135.6887388312
 21
241.5535429702
  0
LINE
  8
0
 62
7
  6
CONTINUOUS
 10
141.4675075116
 20
237.1398297005
 11
141.3978638045
 21
236.8283722022
  0
LINE
  8
0
 62
7
  6
CONTINUOUS
 10
141.8829275278
 20
236.6108990554
 11
141.9990004054
 21
237.1299950314
  0
LINE
  8
0
 62
7
  6
CONTINUOUS
 10
157.1251458365
 20
231.8594219809
 11
156.8758372003
 21
231.1500241892
  0
LINE
  8
0
 62
7
  6
CONTINUOUS
 10
151.5253166977
 20
236.1253996116
 11
151.4163431781
 21
235.8254313109
  0
LINE
  8
0
 62
7
  6
CONTINUOUS
 10
151.9674561491
 20
235.5120356686
 11
152.1127541414
 21
235.9119933095
  0
LINE
  8
0
 62
7
  6
CONTINUOUS
 10
159.8474581794
 20
230.0935200827
 11
159.7009511969
 21
229.8099857404
  0
LINE
  8
0
 62
7
  6
CONTINUOUS
 10
160.1148250619
 20
229.4763844677
 11
160.3590034343
 21
229.9489418373
  0
LINE
  8
0
 62
7
  6
CONTINUOUS
 10
82.619975598
 20
226.2076856067
 11
81.0849076847
 21
228.5085738073
  0
LINE
  8
0
 62
7
  6
CONTINUOUS
 10
86.364436166
 20
227.7205155415
 11
85.3329180171
 21
229.4587703029
  0
LINE
  8
0
 62
7
  6
CONTINUOUS
 10
97.754463545
 20
234.7901744522
 11
98.0535005585
 21
234.2167184371
  0
LINE
  8
0
 62
7
  6
CONTINUOUS
 10
94.9489444162
 20
234.4157474508
 11
94.7031509357
 21
235.0048226935
  0
LINE
  8
0
 62
7
  6
CONTINUOUS
 10
94.555134287
 20
236.4416015084
 11
94.3093408065
 21
237.0306767512
  0
LINE
  8
0
 62
7
  6
CONTINUOUS
 10
100.9197327
 20
235.8352547763
 11
100.7863182234
 21
236.2393315904
  0
LINE
  8
0
 62
7
  6
CONTINUOUS
 10
114.4638461548
 20
240.2795285536
 11
114.6751240183
 21
238.6978324326
  0
LINE
  8
0
 62
7
  6
CONTINUOUS
 10
115.2946216817
 20
238.7805829313
 11
115.0833438183
 21
240.3622790523
  0
LINE
  8
0
 62
7
  6
CONTINUOUS
 10
134.4340624834
 20
256.0410674177
 11
134.2037475961
 21
260.4357372632
  0
LINE
  8
0
 62
7
  6
CONTINUOUS
 10
135.3850519694
 20
86.4778857546
 11
135.3850519694
 21
88.4778857546
  0
LINE
  8
0
 62
7
  6
CONTINUOUS
 10
118.6923580841
 20
64.1067344783
 11
120.7154364633
 21
75.5801821099
  0
LINE
  8
0
 62
7
  6
CONTINUOUS
 10
169.3980861396
 20
244.690721022
 11
170.8670702698
 21
248.839004236
  0
LINE
  8
0
 62
7
  6
CONTINUOUS
 10
81.4045583203
 20
73.3906087039
 11
87.6643373483
 21
83.21649356
  0
LINE
  8
0
 62
7
  6
CONTINUOUS
 10
197.3570424526
 20
220.8242157181
 11
200.3016860828
 21
224.0945737855
  0
LINE
  8
0
 62
7
  6
CONTINUOUS
 10
50.5079081605
 20
96.2372132823
 11
60.0513932252
 21
102.9196334654
  0
LINE
  8
0
 62
7
  6
CONTINUOUS
 10
214.0544337723
 20
188.075010588
 11
218.0264416031
 21
189.969561139
  0
LINE
  8
0
 62
7
  6
CONTINUOUS
 10
216.0639614262
 20
195.7874117378
 11
204.6896794138
 21
193.2657941243
  0
LINE
  8
0
 62
7
  6
CONTINUOUS
 10
29.8218703063
 20
173.5268962686
 11
25.4272004608
 21
173.2965813813
  0
LINE
  8
0
 62
7
  6
CONTINUOUS
 10
221.7562032457
 20
157.7851918694
 11
210.282755614
 21
159.8082702486
  0
LINE
  8
0
 62
7
  6
CONTINUOUS
 10
41.1722167019
 20
208.4909199248
 11
37.0239334879
 21
209.959904055
  0
LINE
  8
0
 62
7
  6
CONTINUOUS
 10
212.4723290201
 20
120.4973921056
 11
202.646444164
 21
126.7571711335
  0
LINE
  8
0
 62
7
  6
CONTINUOUS
 10
65.0387220059
 20
236.4498762378
 11
61.7683639384
 21
239.394519868
  0
LINE
  8
0
 62
7
  6
CONTINUOUS
 10
79.6661678557
 20
225.0043282227
 11
79.9889842178
 21
224.7081564444
  0
LINE
  8
0
 62
7
  6
CONTINUOUS
 10
82.9427918645
 20
225.911513787
 11
82.619975598
 21
226.2076856067
  0
LINE
  8
0
 62
7
  6
CONTINUOUS
 10
84.5239792582
 20
229.5972494383
 11
84.8850126426
 21
229.1929735204
  0
LINE
  8
0
 62
7
  6
CONTINUOUS
 10
85.3329180171
 20
229.4587703029
 11
84.9718851453
 21
229.863046525
  0
LINE
  8
0
 62
7
  6
CONTINUOUS
 10
189.6257244417
 20
89.6007419457
 11
182.9433042586
 21
99.1442270105
  0
LINE
  8
0
 62
7
  6
CONTINUOUS
 10
100.7863182234
 20
236.2393315904
 11
100.5539884248
 21
236.6107492692
  0
LINE
  8
0
 62
7
  6
CONTINUOUS
 10
97.7879271359
 20
253.1472675575
 11
95.893376585
 21
257.1192753883
  0
LINE
  8
0
 62
7
  6
CONTINUOUS
 10
111.9437252913
 20
237.9036695957
 11
111.7841341347
 21
238.3116633336
  0
LINE
  8
0
 62
7
  6
CONTINUOUS
 10
114.3042549982
 20
240.6875222915
 11
114.4638461548
 21
240.2795285536
  0
LINE
  8
0
 62
7
  6
CONTINUOUS
 10
111.1646364713
 20
238.2289128349
 11
111.3383128175
 21
237.7154726988
  0
LINE
  8
0
 62
7
  6
CONTINUOUS
 10
115.0833438183
 20
240.3622790523
 11
114.9096674326
 21
240.8757194838
  0
LINE
  8
0
 62
7
  6
CONTINUOUS
 10
156.6945779526
 20
69.7989762978
 11
154.1729603391
 21
81.1732583101
  0
LINE
  8
0
 62
7
  6
CONTINUOUS
 10
138.8884694033
 20
237.0624571409
 11
138.8564537291
 21
237.3966462677
  0
LINE
  8
0
 62
7
  6
CONTINUOUS
 10
141.4354918699
 20
237.4740189728
 11
141.4675075116
 21
237.1398297005
  0
LINE
  8
0
 62
7
  6
CONTINUOUS
 10
142.2135532572
 20
239.044201488
 11
142.181537583
 21
239.3783906149
  0
LINE
  8
0
 62
7
  6
CONTINUOUS
 10
151.5363853689
 20
236.4609348065
 11
151.5253166977
 21
236.1253996116
  0
LINE
  8
0
 62
7
  6
CONTINUOUS
 10
152.1127541414
 20
235.9119933095
 11
152.1238228126
 21
236.2475285044
  0
LINE
  8
0
 62
7
  6
CONTINUOUS
 10
155.398027753
 20
230.3344230664
 11
155.878512505
 21
235.5829377975
  0
LINE
  8
0
 62
7
  6
CONTINUOUS
 10
154.9563856526
 20
231.9217841077
 11
154.8255878975
 21
230.5852967636
  0
LINE
  8
0
 62
7
  6
CONTINUOUS
 10
155.3260797872
 20
235.3604400529
 11
155.0317880691
 21
232.3533419906
  0
LINE
  8
0
 62
7
  6
CONTINUOUS
 10
156.8758372003
 20
231.1500241892
 11
156.8167452142
 21
230.5818296423
  0
LINE
  8
0
 62
7
  6
CONTINUOUS
 10
157.3334249349
 20
230.6740895639
 11
157.3873866232
 21
231.0054436224
  0
LINE
  8
0
 62
7
  6
CONTINUOUS
 10
159.901419936
 20
230.4248742736
 11
159.8474581794
 21
230.0935200827
  0
LINE
  8
0
 62
7
  6
CONTINUOUS
 10
161.0529633499
 20
231.7457832105
 11
161.1069250381
 21
232.077137269
  0
LINE
  8
0
 62
7
  6
CONTINUOUS
 10
82.2457563695
 20
225.8301345915
 11
82.7142659234
 21
225.5032782271
  0
LINE
  8
0
 62
7
  6
CONTINUOUS
 10
80.3632033198
 20
225.0857074647
 11
80.0994280601
 21
225.293383483
  0
LINE
  8
0
 62
7
  6
CONTINUOUS
 10
84.9718851453
 20
229.863046525
 11
84.7194326027
 21
230.0843482845
  0
LINE
  8
0
 62
7
  6
CONTINUOUS
 10
98.514719266
 20
234.4810310789
 11
98.3157453389
 21
234.751430337
  0
LINE
  8
LAY0001
 62
7
  6
CONTINUOUS
 10
175.9214687296
 20
109.8915958677
 11
175.8629065039
 21
110.00003122
  0
LINE
  8
LAY0001
 62
7
  6
CONTINUOUS
 10
174.9507084621
 20
109.3661624294
 11
174.9814377081
 21
109.2855599632
  0
LINE
  8
0
 62
7
  6
CONTINUOUS
 10
138.3249608678
 20
237.4064810823
 11
138.412197462
 21
236.841924003
  0
LINE
  8
0
 62
7
  6
CONTINUOUS
 10
160.3590034343
 20
229.9489418373
 11
160.4180996226
 21
230.517134129
  0
LINE
  8
0
 62
7
  6
CONTINUOUS
 10
79.9889842178
 20
224.7081564444
 11
80.193718401
 21
224.5889761138
  0
LINE
  8
0
 62
7
  6
CONTINUOUS
 10
83.1475262207
 20
225.7923335495
 11
82.9427918645
 21
225.911513787
  0
LINE
  8
0
 62
7
  6
CONTINUOUS
 10
98.6803418496
 20
234.3116517363
 11
98.514719266
 21
234.4810310789
  0
LINE
  8
0
 62
7
  6
CONTINUOUS
 10
98.0535005585
 20
234.2167184371
 11
98.384743485
 21
233.8779589337
  0
LINE
  8
0
 62
7
  6
CONTINUOUS
 10
111.3383128175
 20
237.7154726988
 11
111.6011520191
 21
237.3212704264
  0
LINE
  8
0
 62
7
  6
CONTINUOUS
 10
114.9096674326
 20
240.8757194838
 11
114.6468282408
 21
241.2699216824
  0
LINE
  8
LAY0001
 62
7
  6
CONTINUOUS
 10
175.7521401556
 20
109.8614319485
 11
175.7828694559
 21
109.7808295171
  0
LINE
  8
LAY0001
 62
7
  6
CONTINUOUS
 10
173.7595461654
 20
108.0636684205
 11
173.77635894
 21
107.9969824256
  0
LINE
  8
LAY0001
 62
7
  6
CONTINUOUS
 10
175.1061205448
 20
109.4102427999
 11
175.089307689
 21
109.4769287332
  0
LINE
  8
0
 62
7
  6
CONTINUOUS
 10
141.9990004054
 20
237.1299950314
 11
141.9117637949
 21
237.6945520379
  0
LINE
  8
0
 62
7
  6
CONTINUOUS
 10
157.3720000341
 20
230.2949201008
 11
157.3334249349
 21
230.6740895639
  0
LINE
  8
0
 62
7
  6
CONTINUOUS
 10
160.5516702182
 20
232.3640468105
 11
160.5902453516
 21
231.9848774136
  0
LINE
  8
LAY0001
 62
7
  6
CONTINUOUS
 10
170.9637547861
 20
105.3235429071
 11
170.9608583304
 21
105.3763122977
  0
LINE
  8
LAY0001
 62
7
  6
CONTINUOUS
 10
171.7350224824
 20
105.6494837741
 11
171.7379189381
 21
105.5967143834
  0
LINE
  8
LAY0001
 62
7
  6
CONTINUOUS
 10
173.1883363258
 20
107.6872890724
 11
173.191232501
 21
107.6345193915
  0
LINE
  8
LAY0001
 62
7
  6
CONTINUOUS
 10
173.2747312803
 20
107.5510206122
 11
173.2718351099
 21
107.6037902882
  0
LINE
  8
LAY0001
 62
7
  6
CONTINUOUS
 10
173.9178546227
 20
108.0549793388
 11
173.9120618539
 21
108.1605182627
  0
LINE
  8
LAY0001
 62
7
  6
CONTINUOUS
 10
173.9543766471
 20
107.8688379388
 11
173.9572729602
 21
107.8160684055
  0
LINE
  8
LAY0001
 62
7
  6
CONTINUOUS
 10
174.1097887914
 20
107.9129183904
 11
174.1068923357
 21
107.965687781
  0
LINE
  8
0
 62
7
  6
CONTINUOUS
 10
80.7136306741
 20
224.9358424448
 11
80.3632033198
 21
225.0857074647
  0
LINE
  8
0
 62
7
  6
CONTINUOUS
 10
100.5539884248
 20
236.6107492692
 11
100.1238301531
 21
236.9168497081
  0
LINE
  8
0
 62
7
  6
CONTINUOUS
 10
99.9271471338
 20
236.51581597
 11
100.2250364294
 21
236.2780757056
  0
LINE
  8
0
 62
7
  6
CONTINUOUS
 10
112.1924792935
 20
237.6149137954
 11
111.9437252913
 21
237.9036695957
  0
LINE
  8
0
 62
7
  6
CONTINUOUS
 10
114.0555009566
 20
240.9762783873
 11
114.3042549982
 21
240.6875222915
  0
LINE
  8
0
 62
7
  6
CONTINUOUS
 10
119.8353006482
 20
238.153394834
 11
116.9556527317
 21
242.2273419136
  0
LINE
  8
0
 62
7
  6
CONTINUOUS
 10
116.6860117608
 20
241.5697903388
 11
119.5726890308
 21
237.3896927081
  0
LINE
  8
0
 62
7
  6
CONTINUOUS
 10
138.412197462
 20
236.841924003
 11
138.6243080146
 21
236.3584544977
  0
LINE
  8
0
 62
7
  6
CONTINUOUS
 10
142.181537583
 20
239.3783906149
 11
141.9694270223
 21
239.8618600839
  0
LINE
  8
0
 62
7
  6
CONTINUOUS
 10
139.0221351356
 20
236.7055383938
 11
138.8884694033
 21
237.0624571409
  0
LINE
  8
0
 62
7
  6
CONTINUOUS
 10
141.5715999095
 20
239.5147762241
 11
141.7052703114
 21
239.1578565092
  0
LINE
  8
0
 62
7
  6
CONTINUOUS
 10
152.1238228126
 20
236.2475285044
 11
151.9754019812
 21
236.7541890162
  0
LINE
  8
0
 62
7
  6
CONTINUOUS
 10
156.8167452142
 20
230.5818296423
 11
156.8990299638
 21
230.0603290487
  0
LINE
  8
0
 62
7
  6
CONTINUOUS
 10
161.1069250381
 20
232.077137269
 11
161.0246402714
 21
232.5986378295
  0
LINE
  8
LAY0001
 62
7
  6
CONTINUOUS
 10
175.7828694559
 20
109.7808295171
 11
175.7857658224
 21
109.7280600373
  0
LINE
  8
LAY0001
 62
7
  6
CONTINUOUS
 10
175.9272614516
 20
109.7860568969
 11
175.9214687296
 21
109.8915958677
  0
LINE
  8
LAY0001
 62
7
  6
CONTINUOUS
 10
170.8193627855
 20
105.3183155321
 11
170.8112392403
 21
105.2266932076
  0
LINE
  8
LAY0001
 62
7
  6
CONTINUOUS
 10
171.879414478
 20
105.6547111539
 11
171.8875383136
 21
105.7463337589
  0
LINE
  8
0
 62
7
  6
CONTINUOUS
 10
80.193718401
 20
224.5889761138
 11
80.6307977414
 21
224.4969221542
  0
LINE
  8
0
 62
7
  6
CONTINUOUS
 10
84.2362363691
 20
229.6739049445
 11
84.5239792582
 21
229.5972494383
  0
LINE
  8
0
 62
7
  6
CONTINUOUS
 10
84.7194326027
 20
230.0843482845
 11
84.4316897137
 21
230.1610037907
  0
LINE
  8
0
 62
7
  6
CONTINUOUS
 10
98.384743485
 20
233.8779589337
 11
98.6492814488
 21
233.7412385495
  0
LINE
  8
0
 62
7
  6
CONTINUOUS
 10
99.0771465372
 20
234.1065703948
 11
98.6803418496
 21
234.3116517363
  0
LINE
  8
0
 62
7
  6
CONTINUOUS
 10
101.3701510838
 20
237.748778046
 11
103.2195352892
 21
236.4823854371
  0
LINE
  8
0
 62
7
  6
CONTINUOUS
 10
105.6725998744
 20
235.3778507264
 11
103.8232133662
 21
236.6442427179
  0
LINE
  8
0
 62
7
  6
CONTINUOUS
 10
103.6040248442
 20
236.2550529685
 11
105.0689217974
 21
235.2159934456
  0
LINE
  8
0
 62
7
  6
CONTINUOUS
 10
103.4387237726
 20
236.8715753304
 11
101.9738291608
 21
237.9106353268
  0
LINE
  8
0
 62
7
  6
CONTINUOUS
 10
111.6011520191
 20
237.3212704264
 11
112.0704920124
 21
236.9546519009
  0
LINE
  8
0
 62
7
  6
CONTINUOUS
 10
114.6468282408
 20
241.2699216824
 11
114.1774882525
 21
241.6365401709
  0
LINE
  8
0
 62
7
  6
CONTINUOUS
 10
141.2786115524
 20
237.727118481
 11
141.4354918699
 21
237.4740189728
  0
LINE
  8
0
 62
7
  6
CONTINUOUS
 10
141.9117637949
 20
237.6945520379
 11
141.6764386652
 21
238.0742023408
  0
LINE
  8
0
 62
7
  6
CONTINUOUS
 10
151.413220339
 20
236.7320494636
 11
151.5363853689
 21
236.4609348065
  0
LINE
  8
0
 62
7
  6
CONTINUOUS
 10
159.8140091418
 20
230.709532223
 11
159.901419936
 21
230.4248742736
  0
LINE
  8
0
 62
7
  6
CONTINUOUS
 10
160.4180996226
 20
230.517134129
 11
160.286979195
 21
230.9441232421
  0
LINE
  8
LAY0001
 62
7
  6
CONTINUOUS
 10
172.6188222737
 20
106.5611164885
 11
172.5967822619
 21
106.4834106304
  0
LINE
  8
LAY0001
 62
7
  6
CONTINUOUS
 10
172.6524481083
 20
106.4277447841
 11
172.67448812
 21
106.5054506422
  0
LINE
  8
LAY0001
 62
7
  6
CONTINUOUS
 10
173.2718351099
 20
107.6037902882
 11
173.3048954032
 21
107.7203493705
  0
LINE
  8
LAY0001
 62
7
  6
CONTINUOUS
 10
173.77635894
 20
107.9969824256
 11
173.7543187856
 21
107.9192764249
  0
LINE
  8
LAY0001
 62
7
  6
CONTINUOUS
 10
173.8958144878
 20
107.9772733185
 11
173.9178546227
 21
108.0549793388
  0
LINE
  8
LAY0001
 62
7
  6
CONTINUOUS
 10
174.0877484943
 20
107.8352122469
 11
174.1097887914
 21
107.9129183904
  0
LINE
  8
LAY0001
 62
7
  6
CONTINUOUS
 10
174.9837687602
 20
109.4827215068
 11
174.9507084621
 21
109.3661624294
  0
LINE
  8
LAY0001
 62
7
  6
CONTINUOUS
 10
174.8381764384
 20
108.7804706533
 11
174.8161362127
 21
108.7027645812
  0
LINE
  8
LAY0001
 62
7
  6
CONTINUOUS
 10
174.871802059
 20
108.6470987348
 11
174.8938422848
 21
108.7248048069
  0
LINE
  8
LAY0001
 62
7
  6
CONTINUOUS
 10
175.7857658224
 20
109.7280600373
 11
175.7527055195
 21
109.6115009648
  0
LINE
  8
LAY0001
 62
7
  6
CONTINUOUS
 10
175.9052212526
 20
109.7083508515
 11
175.9272614516
 21
109.7860568969
  0
LINE
  8
0
 62
7
  6
CONTINUOUS
 10
159.1303097879
 20
229.3863717603
 11
158.7550110564
 21
229.3408036361
  0
LINE
  8
0
 62
7
  6
CONTINUOUS
 10
158.055699388
 20
231.6180805636
 11
158.4309981195
 21
231.6636486877
  0
LINE
  8
0
 62
7
  6
CONTINUOUS
 10
158.5826311294
 20
232.1840256411
 11
157.8320336663
 21
232.0928893928
  0
LINE
  8
0
 62
7
  6
CONTINUOUS
 10
158.8859057585
 20
233.2247754348
 11
159.2612044901
 21
233.270343559
  0
LINE
  8
0
 62
7
  6
CONTINUOUS
 10
81.1783209835
 20
224.990095228
 11
80.7136306741
 21
224.9358424448
  0
LINE
  8
0
 62
7
  6
CONTINUOUS
 10
158.603369544
 20
228.8204310027
 11
159.2125945375
 21
228.8648711667
  0
LINE
  8
0
 62
7
  6
CONTINUOUS
 10
80.6307977414
 20
224.4969221542
 11
81.0088360543
 21
224.4933639262
  0
LINE
  8
0
 62
7
  6
CONTINUOUS
 10
84.4316897137
 20
230.1610037907
 11
84.0543655446
 21
230.1844998188
  0
LINE
  8
0
 62
7
  6
CONTINUOUS
 10
99.3083286178
 20
234.0708684666
 11
99.0771465372
 21
234.1065703948
  0
LINE
  8
0
 62
7
  6
CONTINUOUS
 10
100.1238301531
 20
236.9168497081
 11
99.5291970157
 21
237.0566137389
  0
LINE
  8
0
 62
7
  6
CONTINUOUS
 10
98.6492814488
 20
233.7412385495
 11
99.0127325114
 21
233.6371764292
  0
LINE
  8
0
 62
7
  6
CONTINUOUS
 10
99.563696077
 20
236.6198780726
 11
99.9271471338
 21
236.51581597
  0
LINE
  8
0
 62
7
  6
CONTINUOUS
 10
112.0704920124
 20
236.9546519009
 11
112.511659262
 21
236.7989258654
  0
LINE
  8
0
 62
7
  6
CONTINUOUS
 10
112.5303985142
 20
237.4453961744
 11
112.1924792935
 21
237.6149137954
  0
LINE
  8
0
 62
7
  6
CONTINUOUS
 10
113.7175817457
 20
241.1457959344
 11
114.0555009566
 21
240.9762783873
  0
LINE
  8
0
 62
7
  6
CONTINUOUS
 10
138.6243080146
 20
236.3584544977
 11
139.0629472472
 21
235.9333419509
  0
LINE
  8
0
 62
7
  6
CONTINUOUS
 10
141.6764386652
 20
238.0742023408
 11
141.2377994265
 21
238.4993148603
  0
LINE
  8
0
 62
7
  6
CONTINUOUS
 10
139.2806748343
 20
236.429707257
 11
139.0221351356
 21
236.7055383938
  0
LINE
  8
0
 62
7
  6
CONTINUOUS
 10
141.0200718537
 20
238.0029496178
 11
141.2786115524
 21
237.727118481
  0
LINE
  8
0
 62
7
  6
CONTINUOUS
 10
141.3130602108
 20
239.7906073609
 11
141.5715999095
 21
239.5147762241
  0
LINE
  8
0
 62
7
  6
CONTINUOUS
 10
151.9754019812
 20
236.7541890162
 11
151.6927519305
 21
237.1964273621
  0
LINE
  8
0
 62
7
  6
CONTINUOUS
 10
156.8990299638
 20
230.0603290487
 11
157.2152324943
 21
229.5377048563
  0
LINE
  8
0
 62
7
  6
CONTINUOUS
 10
160.286979195
 20
230.9441232421
 11
159.9707681792
 21
231.4667517875
  0
LINE
  8
0
 62
7
  6
CONTINUOUS
 10
157.5519561224
 20
229.9624424352
 11
157.3720000341
 21
230.2949201008
  0
LINE
  8
0
 62
7
  6
CONTINUOUS
 10
159.6340530535
 20
231.0420098886
 11
159.8140091418
 21
230.709532223
  0
LINE
  8
0
 62
7
  6
CONTINUOUS
 10
160.3717141299
 20
232.6965244761
 11
160.5516702182
 21
232.3640468105
  0
LINE
  8
LAY0001
 62
7
  6
CONTINUOUS
 10
172.5967822619
 20
106.4834106304
 11
172.5498054974
 21
106.3807680195
  0
LINE
  8
LAY0001
 62
7
  6
CONTINUOUS
 10
173.2353130867
 20
107.7899316869
 11
173.1883363258
 21
107.6872890724
  0
LINE
  8
LAY0001
 62
7
  6
CONTINUOUS
 10
172.6054713437
 20
106.3251021732
 11
172.6524481083
 21
106.4277447841
  0
LINE
  8
LAY0001
 62
7
  6
CONTINUOUS
 10
175.089307689
 20
109.4769287332
 11
175.1362844893
 21
109.5795713798
  0
LINE
  8
LAY0001
 62
7
  6
CONTINUOUS
 10
174.8161362127
 20
108.7027645812
 11
174.7691595195
 21
108.6001220416
  0
LINE
  8
LAY0001
 62
7
  6
CONTINUOUS
 10
174.8248253658
 20
108.5444561953
 11
174.871802059
 21
108.6470987348
  0
LINE
  8
LAY0001
 62
7
  6
CONTINUOUS
 10
175.8582444791
 20
109.6057082317
 11
175.9052212526
 21
109.7083508515
  0
LINE
  8
LAY0001
 62
7
  6
CONTINUOUS
 10
170.8912760139
 20
105.4458946142
 11
170.8193627855
 21
105.3183155321
  0
LINE
  8
LAY0001
 62
7
  6
CONTINUOUS
 10
170.9608583304
 20
105.3763122977
 11
170.9968150891
 21
105.4401019796
  0
LINE
  8
LAY0001
 62
7
  6
CONTINUOUS
 10
171.7379189381
 20
105.5967143834
 11
171.7019621794
 21
105.5329247015
  0
LINE
  8
LAY0001
 62
7
  6
CONTINUOUS
 10
171.807501246
 20
105.5271320755
 11
171.879414478
 21
105.6547111539
  0
LINE
  8
LAY0001
 62
7
  6
CONTINUOUS
 10
173.7543187856
 20
107.9192764249
 11
173.7183621696
 21
107.8554868857
  0
LINE
  8
LAY0001
 62
7
  6
CONTINUOUS
 10
173.823901113
 20
107.8496940974
 11
173.8958144878
 21
107.9772733185
  0
LINE
  8
LAY0001
 62
7
  6
CONTINUOUS
 10
173.9572729602
 20
107.8160684055
 11
173.9213163442
 21
107.7522788663
  0
LINE
  8
LAY0001
 62
7
  6
CONTINUOUS
 10
175.0556820599
 20
109.6103006602
 11
174.9837687602
 21
109.4827215068
  0
LINE
  8
LAY0001
 62
7
  6
CONTINUOUS
 10
174.0517918783
 20
107.7714227077
 11
174.0877484943
 21
107.8352122469
  0
LINE
  8
LAY0001
 62
7
  6
CONTINUOUS
 10
175.7527055195
 20
109.6115009648
 11
175.7167488499
 21
109.5477113721
  0
LINE
  8
LAY0001
 62
7
  6
CONTINUOUS
 10
173.3048954032
 20
107.7203493705
 11
173.4017452405
 21
107.8728650639
  0
LINE
  8
LAY0001
 62
7
  6
CONTINUOUS
 10
175.7973512529
 20
109.5169820824
 11
175.8582444791
 21
109.6057082317
  0
LINE
  8
LAY0001
 62
7
  6
CONTINUOUS
 10
170.9968150891
 20
105.4401019796
 11
171.0826447778
 21
105.5537646012
  0
LINE
  8
LAY0001
 62
7
  6
CONTINUOUS
 10
171.7019621794
 20
105.5329247015
 11
171.6161324858
 21
105.4192620848
  0
LINE
  8
LAY0001
 62
7
  6
CONTINUOUS
 10
172.5498054974
 20
106.3807680195
 11
172.4639755184
 21
106.2671051174
  0
LINE
  8
LAY0001
 62
7
  6
CONTINUOUS
 10
173.7183621696
 20
107.8554868857
 11
173.6325323333
 21
107.7418241262
  0
LINE
  8
LAY0001
 62
7
  6
CONTINUOUS
 10
172.5196413647
 20
106.211439271
 11
172.6054713437
 21
106.3251021732
  0
LINE
  8
LAY0001
 62
7
  6
CONTINUOUS
 10
173.9213163442
 20
107.7522788663
 11
173.8354865079
 21
107.6386161068
  0
LINE
  8
LAY0001
 62
7
  6
CONTINUOUS
 10
174.7691595195
 20
108.6001220416
 11
174.6833296832
 21
108.4864592821
  0
LINE
  8
LAY0001
 62
7
  6
CONTINUOUS
 10
174.7389955295
 20
108.4307934358
 11
174.8248253658
 21
108.5444561953
  0
LINE
  8
LAY0001
 62
7
  6
CONTINUOUS
 10
175.7167488499
 20
109.5477113721
 11
175.6309190493
 21
109.4340486483
  0
LINE
  8
LAY0001
 62
7
  6
CONTINUOUS
 10
173.3460793892
 20
107.9285309151
 11
173.2353130867
 21
107.7899316869
  0
LINE
  8
LAY0001
 62
7
  6
CONTINUOUS
 10
171.0269789266
 20
105.6094304524
 11
170.8912760139
 21
105.4458946142
  0
LINE
  8
LAY0001
 62
7
  6
CONTINUOUS
 10
171.6717983321
 20
105.3635962384
 11
171.807501246
 21
105.5271320755
  0
LINE
  8
LAY0001
 62
7
  6
CONTINUOUS
 10
173.6881981992
 20
107.6861582604
 11
173.823901113
 21
107.8496940974
  0
LINE
  8
LAY0001
 62
7
  6
CONTINUOUS
 10
175.6616483569
 20
109.3534462631
 11
175.7973512529
 21
109.5169820824
  0
LINE
  8
LAY0001
 62
7
  6
CONTINUOUS
 10
175.2163215471
 20
109.7987730729
 11
175.0556820599
 21
109.6103006602
  0
LINE
  8
LAY0001
 62
7
  6
CONTINUOUS
 10
175.1362844893
 20
109.5795713798
 11
175.2969239371
 21
109.7680437605
  0
LINE
  8
LAY0001
 62
7
  6
CONTINUOUS
 10
173.8911523542
 20
107.5829502605
 11
174.0517918783
 21
107.7714227077
  0
LINE
  8
LAY0001
 62
7
  6
CONTINUOUS
 10
174.6427806196
 20
109.2252321455
 11
174.5180977829
 21
109.1005493088
  0
LINE
  8
LAY0001
 62
7
  6
CONTINUOUS
 10
174.0692396565
 20
108.6516911824
 11
173.9445568912
 21
108.527008417
  0
LINE
  8
LAY0001
 62
7
  6
CONTINUOUS
 10
173.4956987647
 20
108.0781502906
 11
173.3460793892
 21
107.9285309151
  0
LINE
  8
LAY0001
 62
7
  6
CONTINUOUS
 10
173.0717772484
 20
107.6542287743
 11
172.9470943404
 21
107.5295458662
  0
LINE
  8
LAY0001
 62
7
  6
CONTINUOUS
 10
172.7476017446
 20
107.3300532705
 11
172.622919122
 21
107.2053706478
  0
LINE
  8
LAY0001
 62
7
  6
CONTINUOUS
 10
172.4234265262
 20
107.0058780521
 11
172.2987436182
 21
106.881195144
  0
LINE
  8
LAY0001
 62
7
  6
CONTINUOUS
 10
171.8498854917
 20
106.4323370176
 11
171.7252028691
 21
106.3076543949
  0
LINE
  8
LAY0001
 62
7
  6
CONTINUOUS
 10
171.1765983021
 20
105.7590498279
 11
171.0269789266
 21
105.6094304524
  0
LINE
  8
LAY0001
 62
7
  6
CONTINUOUS
 10
171.0826447778
 20
105.5537646012
 11
171.2322641533
 21
105.7033839767
  0
LINE
  8
LAY0001
 62
7
  6
CONTINUOUS
 10
173.4017452405
 20
107.8728650639
 11
173.5513646159
 21
108.0224844394
  0
LINE
  8
LAY0001
 62
7
  6
CONTINUOUS
 10
171.5123590677
 20
105.8721471887
 11
171.6370419758
 21
105.9968300967
  0
LINE
  8
LAY0001
 62
7
  6
CONTINUOUS
 10
174.9814377081
 20
109.2855599632
 11
175.1061205448
 21
109.4102427999
  0
LINE
  8
LAY0001
 62
7
  6
CONTINUOUS
 10
173.6325323333
 20
107.7418241262
 11
173.3582300498
 21
107.4675218427
  0
LINE
  8
LAY0001
 62
7
  6
CONTINUOUS
 10
173.4138959156
 20
107.4118559769
 11
173.6881981992
 21
107.6861582604
  0
LINE
  8
LAY0001
 62
7
  6
CONTINUOUS
 10
175.2731181033
 20
109.2432452413
 11
175.1484352666
 21
109.1185624046
  0
LINE
  8
LAY0001
 62
7
  6
CONTINUOUS
 10
174.0790594125
 20
107.9935207042
 11
173.9543766471
 21
107.8688379388
  0
LINE
  8
LAY0001
 62
7
  6
CONTINUOUS
 10
171.1864182007
 20
105.1008794924
 11
171.0617355781
 21
104.9761968698
  0
LINE
  8
LAY0001
 62
7
  6
CONTINUOUS
 10
173.8354865079
 20
107.6386161068
 11
173.6858671324
 21
107.4889967314
  0
LINE
  8
LAY0001
 62
7
  6
CONTINUOUS
 10
171.6161324858
 20
105.4192620848
 11
171.4665131103
 21
105.2696427093
  0
LINE
  8
LAY0001
 62
7
  6
CONTINUOUS
 10
171.5221789567
 20
105.2139768629
 11
171.6717983321
 21
105.3635962384
  0
LINE
  8
LAY0001
 62
7
  6
CONTINUOUS
 10
172.4198952095
 20
106.1116931158
 11
172.5196413647
 21
106.211439271
  0
LINE
  8
LAY0001
 62
7
  6
CONTINUOUS
 10
172.744070428
 20
106.4358683342
 11
172.868753336
 21
106.5605512423
  0
LINE
  8
LAY0001
 62
7
  6
CONTINUOUS
 10
173.0682459318
 20
106.760043838
 11
173.1929285544
 21
106.8847264607
  0
LINE
  8
LAY0001
 62
7
  6
CONTINUOUS
 10
173.7415329787
 20
107.433330885
 11
173.8911523542
 21
107.5829502605
  0
LINE
  8
LAY0001
 62
7
  6
CONTINUOUS
 10
174.6392492316
 20
108.3310471379
 11
174.7389955295
 21
108.4307934358
  0
LINE
  8
LAY0001
 62
7
  6
CONTINUOUS
 10
173.3320932093
 20
106.7455618058
 11
173.2074105866
 21
106.6208791832
  0
LINE
  8
LAY0001
 62
7
  6
CONTINUOUS
 10
173.2769928946
 20
106.5512968752
 11
173.4016755172
 21
106.6759794979
  0
LINE
  8
LAY0001
 62
7
  6
CONTINUOUS
 10
175.1721715555
 20
108.4464755362
 11
175.2968543922
 21
108.5711583729
  0
LINE
  8
LAY0001
 62
7
  6
CONTINUOUS
 10
175.7109537772
 20
108.7377703844
 11
175.5329972582
 21
108.5598138655
  0
LINE
  8
LAY0001
 62
7
  6
CONTINUOUS
 10
175.003846996
 20
108.0306636032
 11
174.402806232
 21
107.4296228392
  0
LINE
  8
LAY0001
 62
7
  6
CONTINUOUS
 10
174.2613848757
 20
107.288201483
 11
173.6603441117
 21
106.687160719
  0
LINE
  8
LAY0001
 62
7
  6
CONTINUOUS
 10
172.8471713134
 20
105.8739879206
 11
172.2461305494
 21
105.2729471566
  0
LINE
  8
LAY0001
 62
7
  6
CONTINUOUS
 10
172.1047091931
 20
105.1315258004
 11
171.5036684291
 21
104.5304850364
  0
LINE
  8
LAY0001
 62
7
  6
CONTINUOUS
 10
175.8523751334
 20
107.889242247
 11
176.1352178459
 21
108.1720849595
  0
LINE
  8
LAY0001
 62
7
  6
CONTINUOUS
 10
174.438161571
 20
105.2022364785
 11
174.1553188586
 21
104.919393766
  0
LINE
  8
LAY0001
 62
7
  6
CONTINUOUS
 10
175.6309190493
 20
109.4340486483
 11
175.4424466735
 21
109.2734091956
  0
LINE
  8
LAY0001
 62
7
  6
CONTINUOUS
 10
175.4731759453
 20
109.1928067748
 11
175.6616483569
 21
109.3534462631
  0
LINE
  8
LAY0001
 62
7
  6
CONTINUOUS
 10
175.3798573675
 20
109.9344759678
 11
175.2163215471
 21
109.7987730729
  0
LINE
  8
LAY0001
 62
7
  6
CONTINUOUS
 10
171.3401341403
 20
105.8947527406
 11
171.1765983021
 21
105.7590498279
  0
LINE
  8
LAY0001
 62
7
  6
CONTINUOUS
 10
171.2322641533
 20
105.7033839767
 11
171.3957999952
 21
105.8390868857
  0
LINE
  8
LAY0001
 62
7
  6
CONTINUOUS
 10
173.5779972844
 20
107.2976281138
 11
173.7415329787
 21
107.433330885
  0
LINE
  8
LAY0001
 62
7
  6
CONTINUOUS
 10
171.4665131103
 20
105.2696427093
 11
171.3029772732
 21
105.1339397954
  0
LINE
  8
LAY0001
 62
7
  6
CONTINUOUS
 10
171.3586431196
 20
105.078273949
 11
171.5221789567
 21
105.2139768629
  0
LINE
  8
LAY0001
 62
7
  6
CONTINUOUS
 10
173.6093613827
 20
108.163979983
 11
173.4956987647
 21
108.0781502906
  0
LINE
  8
LAY0001
 62
7
  6
CONTINUOUS
 10
174.6833296832
 20
108.4864592821
 11
174.5696669237
 21
108.4006294458
  0
LINE
  8
LAY0001
 62
7
  6
CONTINUOUS
 10
173.6858671324
 20
107.4889967314
 11
173.5722043729
 21
107.4031668951
  0
LINE
  8
LAY0001
 62
7
  6
CONTINUOUS
 10
172.4639755184
 20
106.2671051174
 11
172.3503129016
 21
106.1812754238
  0
LINE
  8
LAY0001
 62
7
  6
CONTINUOUS
 10
171.6126707643
 20
105.7219625572
 11
171.1191667974
 21
105.3676232062
  0
LINE
  8
LAY0001
 62
7
  6
CONTINUOUS
 10
171.0861064944
 20
105.2510641336
 11
171.5796104808
 21
105.6054034652
  0
LINE
  8
LAY0001
 62
7
  6
CONTINUOUS
 10
175.4685835181
 20
109.9953691927
 11
175.3798573675
 21
109.9344759678
  0
LINE
  8
LAY0001
 62
7
  6
CONTINUOUS
 10
175.2969239371
 20
109.7680437605
 11
175.4743762585
 21
109.8898302258
  0
LINE
  8
LAY0001
 62
7
  6
CONTINUOUS
 10
174.5505230823
 20
108.2701539118
 11
174.6392492316
 21
108.3310471379
  0
LINE
  8
LAY0001
 62
7
  6
CONTINUOUS
 10
171.4288602909
 20
105.9556459655
 11
171.3401341403
 21
105.8947527406
  0
LINE
  8
LAY0001
 62
7
  6
CONTINUOUS
 10
172.3311690602
 20
106.0507998897
 11
172.4198952095
 21
106.1116931158
  0
LINE
  8
LAY0001
 62
7
  6
CONTINUOUS
 10
171.2699169703
 20
105.0173807229
 11
171.3586431196
 21
105.078273949
  0
LINE
  8
LAY0001
 62
7
  6
CONTINUOUS
 10
173.6731510658
 20
108.1999367404
 11
173.6093613827
 21
108.163979983
  0
LINE
  8
LAY0001
 62
7
  6
CONTINUOUS
 10
175.3455967956
 20
109.1208934714
 11
175.4731759453
 21
109.1928067748
  0
LINE
  8
LAY0001
 62
7
  6
CONTINUOUS
 10
173.5513646159
 20
108.0224844394
 11
173.6789436992
 21
108.0943976665
  0
LINE
  8
LAY0001
 62
7
  6
CONTINUOUS
 10
174.5696669237
 20
108.4006294458
 11
174.5058773845
 21
108.3646728298
  0
LINE
  8
LAY0001
 62
7
  6
CONTINUOUS
 10
173.5722043729
 20
107.4031668951
 11
173.5084149764
 21
107.3672104217
  0
LINE
  8
LAY0001
 62
7
  6
CONTINUOUS
 10
171.3957999952
 20
105.8390868857
 11
171.4595896771
 21
105.8750436444
  0
LINE
  8
LAY0001
 62
7
  6
CONTINUOUS
 10
172.3503129016
 20
106.1812754238
 11
172.2865232197
 21
106.1453186651
  0
LINE
  8
LAY0001
 62
7
  6
CONTINUOUS
 10
171.3029772732
 20
105.1339397954
 11
171.2391875914
 21
105.0979830367
  0
LINE
  8
LAY0001
 62
7
  6
CONTINUOUS
 10
175.5712261403
 20
110.0423459638
 11
175.4685835181
 21
109.9953691927
  0
LINE
  8
LAY0001
 62
7
  6
CONTINUOUS
 10
175.4424466735
 20
109.2734091956
 11
175.3398040269
 21
109.2264323954
  0
LINE
  8
LAY0001
 62
7
  6
CONTINUOUS
 10
174.4478804714
 20
108.2231771472
 11
174.5505230823
 21
108.2701539118
  0
LINE
  8
LAY0001
 62
7
  6
CONTINUOUS
 10
173.4753546734
 20
107.2506513492
 11
173.5779972844
 21
107.2976281138
  0
LINE
  8
LAY0001
 62
7
  6
CONTINUOUS
 10
171.5315029042
 20
106.0026227277
 11
171.4288602909
 21
105.9556459655
  0
LINE
  8
LAY0001
 62
7
  6
CONTINUOUS
 10
172.2285264493
 20
106.0038231251
 11
172.3311690602
 21
106.0507998897
  0
LINE
  8
LAY0001
 62
7
  6
CONTINUOUS
 10
171.5796104808
 20
105.6054034652
 11
171.6822530917
 21
105.6523802298
  0
LINE
  8
LAY0001
 62
7
  6
CONTINUOUS
 10
171.1191667974
 20
105.3676232062
 11
171.0165241865
 21
105.3206464416
  0
LINE
  8
LAY0001
 62
7
  6
CONTINUOUS
 10
171.1672743593
 20
104.9704039583
 11
171.2699169703
 21
105.0173807229
  0
LINE
  8
LAY0001
 62
7
  6
CONTINUOUS
 10
171.7541663238
 20
105.7799593081
 11
171.6126707643
 21
105.7219625572
  0
LINE
  8
LAY0001
 62
7
  6
CONTINUOUS
 10
170.9446109544
 20
105.1930673632
 11
171.0861064944
 21
105.2510641336
  0
LINE
  8
0
 62
7
  6
CONTINUOUS
 10
123.8850519694
 20
91.1805544416
 11
111.3850519694
 21
87.4778857546
  0
LINE
  8
0
 62
7
  6
CONTINUOUS
 10
102.2517566705
 20
234.4606592627
 11
102.8554347475
 21
234.6225165435
  0
LINE
  8
0
 62
7
  6
CONTINUOUS
 10
105.0689217974
 20
235.2159934456
 11
105.6725998744
 21
235.3778507264
  0
LINE
  8
0
 62
7
  6
CONTINUOUS
 10
84.0543655446
 20
230.1844998188
 11
83.7313317965
 21
230.1165087677
  0
LINE
  8
0
 62
7
  6
CONTINUOUS
 10
99.3428299636
 20
233.6341334859
 11
99.9696712576
 21
233.7290667763
  0
LINE
  8
0
 62
7
  6
CONTINUOUS
 10
113.0419940811
 20
236.7624384173
 11
113.867990178
 21
236.8727723103
  0
LINE
  8
0
 62
7
  6
CONTINUOUS
 10
113.7834790306
 20
237.5054507735
 11
112.9574829338
 21
237.3951168805
  0
LINE
  8
0
 62
7
  6
CONTINUOUS
 10
140.6022095626
 20
236.13420441
 11
140.2740261568
 21
236.0985780485
  0
LINE
  8
0
 62
7
  6
CONTINUOUS
 10
139.6985371254
 20
238.2984524649
 11
140.0267205312
 21
238.3340788264
  0
LINE
  8
0
 62
7
  6
CONTINUOUS
 10
140.0931848637
 20
240.0633785794
 11
140.4213682695
 21
240.0990049409
  0
LINE
  8
0
 62
7
  6
CONTINUOUS
 10
159.4128375
 20
233.7907205124
 11
158.8036209918
 21
233.7462759953
  0
LINE
  8
0
 62
7
  6
CONTINUOUS
 10
99.7373414474
 20
234.1004844905
 11
99.3083286178
 21
234.0708684666
  0
LINE
  8
0
 62
7
  6
CONTINUOUS
 10
116.3505809686
 20
237.1763227677
 11
116.974215094
 21
237.2176201959
  0
LINE
  8
0
 62
7
  6
CONTINUOUS
 10
119.5726890308
 20
237.3896927081
 11
120.508140219
 21
237.4516388502
  0
LINE
  8
0
 62
7
  6
CONTINUOUS
 10
84.002783901
 20
229.6590733716
 11
84.2362363691
 21
229.6739049445
  0
LINE
  8
0
 62
7
  6
CONTINUOUS
 10
121.3424196649
 20
237.4735074819
 11
125.0924102975
 21
237.4818893313
  0
LINE
  8
0
 62
7
  6
CONTINUOUS
 10
125.0909835998
 20
238.1201856076
 11
121.9659914059
 21
238.1132007331
  0
LINE
  8
0
 62
7
  6
CONTINUOUS
 10
99.0127325114
 20
233.6371764292
 11
99.3428299636
 21
233.6341334859
  0
LINE
  8
0
 62
7
  6
CONTINUOUS
 10
140.0562939142
 20
235.6022137738
 11
140.587791431
 21
235.5923779278
  0
LINE
  8
0
 62
7
  6
CONTINUOUS
 10
140.2444527575
 20
238.8304430283
 11
139.7129552427
 21
238.8402788834
  0
LINE
  8
0
 62
7
  6
CONTINUOUS
 10
150.9410020931
 20
235.432187761
 11
150.6109588987
 21
235.4389015718
  0
LINE
  8
0
 62
7
  6
CONTINUOUS
 10
112.511659262
 20
236.7989258654
 11
113.0419940811
 21
236.7624384173
  0
LINE
  8
0
 62
7
  6
CONTINUOUS
 10
112.9574829338
 20
237.3951168805
 11
112.5303985142
 21
237.4453961744
  0
LINE
  8
0
 62
7
  6
CONTINUOUS
 10
130.9164884365
 20
237.1278538672
 11
135.0488961431
 21
236.5946518305
  0
LINE
  8
0
 62
7
  6
CONTINUOUS
 10
135.1305781882
 20
237.2277017617
 11
131.618031874
 21
237.6809234623
  0
LINE
  8
0
 62
7
  6
CONTINUOUS
 10
150.2951073163
 20
234.8745327049
 11
150.8209644859
 21
234.7966829173
  0
LINE
  8
0
 62
7
  6
CONTINUOUS
 10
158.7550110564
 20
229.3408036361
 11
158.4285479856
 21
229.3897469594
  0
LINE
  8
0
 62
7
  6
CONTINUOUS
 10
158.4309981195
 20
231.6636486877
 11
158.7574611903
 21
231.6147053645
  0
LINE
  8
0
 62
7
  6
CONTINUOUS
 10
159.2612044901
 20
233.270343559
 11
159.5876675609
 21
233.2214002357
  0
LINE
  8
0
 62
7
  6
CONTINUOUS
 10
136.4832365633
 20
236.3252794821
 11
137.098631511
 21
236.2161279438
  0
LINE
  8
0
 62
7
  6
CONTINUOUS
 10
139.5480156219
 20
235.7158677545
 11
140.0562939142
 21
235.6022137738
  0
LINE
  8
0
 62
7
  6
CONTINUOUS
 10
140.2740261568
 20
236.0985780485
 11
139.562429102
 21
236.2576952863
  0
LINE
  8
0
 62
7
  6
CONTINUOUS
 10
158.0918243532
 20
228.9650093722
 11
158.603369544
 21
228.8204310027
  0
LINE
  8
0
 62
7
  6
CONTINUOUS
 10
159.0941847885
 20
232.0394428855
 11
158.5826311294
 21
232.1840256411
  0
LINE
  8
0
 62
7
  6
CONTINUOUS
 10
114.1774882525
 20
241.6365401709
 11
113.7363186433
 21
241.792265863
  0
LINE
  8
0
 62
7
  6
CONTINUOUS
 10
147.1825435148
 20
233.628381489
 11
147.7699809585
 21
233.414975187
  0
LINE
  8
0
 62
7
  6
CONTINUOUS
 10
151.581763506
 20
232.0069137428
 11
152.1542033614
 21
231.7560400457
  0
LINE
  8
0
 62
7
  6
CONTINUOUS
 10
154.8255878975
 20
230.5852967636
 11
155.398027753
 21
230.3344230664
  0
LINE
  8
0
 62
7
  6
CONTINUOUS
 10
153.0482513454
 20
232.7580304029
 11
154.9563856526
 21
231.9217841077
  0
LINE
  8
0
 62
7
  6
CONTINUOUS
 10
155.0317880691
 20
232.3533419906
 11
153.3144685028
 21
233.1059630821
  0
LINE
  8
0
 62
7
  6
CONTINUOUS
 10
139.0629472472
 20
235.9333419509
 11
139.5480156219
 21
235.7158677545
  0
LINE
  8
0
 62
7
  6
CONTINUOUS
 10
141.2377994265
 20
238.4993148603
 11
140.7527310498
 21
238.7167890476
  0
LINE
  8
0
 62
7
  6
CONTINUOUS
 10
157.6291148275
 20
229.2040991975
 11
158.0918243532
 21
228.9650093722
  0
LINE
  8
0
 62
7
  6
CONTINUOUS
 10
158.4285479856
 20
229.3897469594
 11
157.7807478715
 21
229.7244762171
  0
LINE
  8
0
 62
7
  6
CONTINUOUS
 10
139.562429102
 20
236.2576952863
 11
139.2806748343
 21
236.429707257
  0
LINE
  8
0
 62
7
  6
CONTINUOUS
 10
140.7383175859
 20
238.1749615886
 11
141.0200718537
 21
238.0029496178
  0
LINE
  8
0
 62
7
  6
CONTINUOUS
 10
141.031305943
 20
239.9626193316
 11
141.3130602108
 21
239.7906073609
  0
LINE
  8
0
 62
7
  6
CONTINUOUS
 10
151.1558260898
 20
236.9387419548
 11
151.413220339
 21
236.7320494636
  0
LINE
  8
0
 62
7
  6
CONTINUOUS
 10
157.2152324943
 20
229.5377048563
 11
157.6291148275
 21
229.2040991975
  0
LINE
  8
0
 62
7
  6
CONTINUOUS
 10
159.9707681792
 20
231.4667517875
 11
159.5568943143
 21
231.8003530602
  0
LINE
  8
0
 62
7
  6
CONTINUOUS
 10
184.8803521084
 20
198.559564113
 11
194.3369572532
 21
189.5855809092
  0
LINE
  8
0
 62
7
  6
CONTINUOUS
 10
141.9694270223
 20
239.8618600839
 11
141.5307924371
 21
240.2869715628
  0
LINE
  8
0
 62
7
  6
CONTINUOUS
 10
157.7807478715
 20
229.7244762171
 11
157.5519561224
 21
229.9624424352
  0
LINE
  8
0
 62
7
  6
CONTINUOUS
 10
159.4052613044
 20
231.2799761068
 11
159.6340530535
 21
231.0420098886
  0
LINE
  8
0
 62
7
  6
CONTINUOUS
 10
160.1429223808
 20
232.9344906943
 11
160.3717141299
 21
232.6965244761
  0
LINE
  8
0
 62
7
  6
CONTINUOUS
 10
161.0246402714
 20
232.5986378295
 11
160.7084377281
 21
233.1212619971
  0
LINE
  8
0
 62
7
  6
CONTINUOUS
 10
181.4709318494
 20
209.8701906
 11
187.2209318494
 21
199.9108984565
  0
LINE
  8
0
 62
7
  6
CONTINUOUS
 10
188.952982657
 20
200.9108984565
 11
183.202982657
 21
210.8701906
  0
LINE
  8
0
 62
7
  6
CONTINUOUS
 10
194.3369572532
 20
189.5855809092
 11
191.293562398
 21
202.2622328
  0
LINE
  8
0
 62
7
  6
CONTINUOUS
 10
208.1300519694
 20
165.4778857546
 11
208.1300519694
 21
175.4778857546
  0
LINE
  8
0
 62
7
  6
CONTINUOUS
 10
208.6300519694
 20
161.7778857546
 11
208.6300519694
 21
164.1550113671
  0
LINE
  8
0
 62
7
  6
CONTINUOUS
 10
208.6300519694
 20
176.8007601058
 11
208.6300519694
 21
179.4778857546
  0
LINE
  8
0
 62
7
  6
CONTINUOUS
 10
202.8272732491
 20
132.8190168764
 11
206.6541075728
 21
142.0578122015
  0
LINE
  8
0
 62
7
  6
CONTINUOUS
 10
201.8732843156
 20
129.2093208899
 11
202.7829713833
 21
131.4054997462
  0
LINE
  8
0
 62
7
  6
CONTINUOUS
 10
207.622289926
 20
143.0886482047
 11
208.6467810685
 21
145.5619886153
  0
LINE
  8
LAY0001
 62
7
  6
CONTINUOUS
 10
173.1300140258
 20
102.9041394396
 11
173.7310547898
 21
103.5051802036
  0
LINE
  8
LAY0001
 62
7
  6
CONTINUOUS
 10
174.5795829273
 20
104.3537083411
 11
174.7575394462
 21
104.53166486
  0
LINE
  8
LAY0001
 62
7
  6
CONTINUOUS
 10
175.2866897085
 20
105.0608151223
 11
175.8877304725
 21
105.6618558863
  0
LINE
  8
LAY0001
 62
7
  6
CONTINUOUS
 10
176.0291518287
 20
105.8032772425
 11
176.6301925927
 21
106.4043180065
  0
LINE
  8
LAY0001
 62
7
  6
CONTINUOUS
 10
177.4433653911
 20
107.2174908049
 11
178.0444061551
 21
107.8185315689
  0
LINE
  8
0
 62
7
  6
CONTINUOUS
 10
185.4301364846
 20
104.6754419265
 11
192.5012042964
 21
111.7465097384
  0
LINE
  8
0
 62
7
  6
CONTINUOUS
 10
183.1673947848
 20
101.7055934455
 11
184.8482755285
 21
103.3864741892
  0
LINE
  8
0
 62
7
  6
CONTINUOUS
 10
193.7901720337
 20
112.3283706945
 11
195.6831848118
 21
114.2213834725
  0
LINE
  8
0
 62
7
  6
CONTINUOUS
 10
158.5871980427
 20
85.331765069
 11
167.8259933678
 21
89.1585993927
  0
LINE
  8
0
 62
7
  6
CONTINUOUS
 10
155.3601854886
 20
83.453896603
 11
157.5563620314
 21
84.3635827124
  0
LINE
  8
0
 62
7
  6
CONTINUOUS
 10
169.2395104389
 20
89.2029012341
 11
171.712853214
 21
90.2273933559
  0
LINE
  8
0
 62
7
  6
CONTINUOUS
 10
104.7909942877
 20
238.6659695097
 11
104.1873162107
 21
238.5041122289
  0
LINE
  8
0
 62
7
  6
CONTINUOUS
 10
101.9738291608
 20
237.9106353268
 11
101.3701510838
 21
237.748778046
  0
LINE
  8
0
 62
7
  6
CONTINUOUS
 10
98.936854786
 20
236.5249447734
 11
99.563696077
 21
236.6198780726
  0
LINE
  8
0
 62
7
  6
CONTINUOUS
 10
99.5291970157
 20
237.0566137389
 11
98.9023557246
 21
236.9616804397
  0
LINE
  8
0
 62
7
  6
CONTINUOUS
 10
112.4645012293
 20
241.0857413353
 11
113.2904973261
 21
241.1960752283
  0
LINE
  8
0
 62
7
  6
CONTINUOUS
 10
113.2059861886
 20
241.8287536176
 11
112.3799900918
 21
241.7184197246
  0
LINE
  8
0
 62
7
  6
CONTINUOUS
 10
120.1777607939
 20
242.4407118539
 11
119.5541266685
 21
242.3994144257
  0
LINE
  8
0
 62
7
  6
CONTINUOUS
 10
116.9556527317
 20
242.2273419136
 11
116.0202015435
 21
242.1653957714
  0
LINE
  8
0
 62
7
  6
CONTINUOUS
 10
121.9621868785
 20
239.8153241615
 11
124.6705150359
 21
239.8213777229
  0
LINE
  8
0
 62
7
  6
CONTINUOUS
 10
124.6690883383
 20
240.4596739247
 11
121.9607601809
 21
240.4536203633
  0
LINE
  8
0
 62
7
  6
CONTINUOUS
 10
121.9576690021
 20
241.8365957652
 11
125.0826611959
 21
241.8435806397
  0
LINE
  8
0
 62
7
  6
CONTINUOUS
 10
125.0812344983
 20
242.4818768415
 11
121.3312438657
 21
242.4734949921
  0
LINE
  8
0
 62
7
  6
CONTINUOUS
 10
120.3850519694
 20
247.2228857546
 11
110.3850519694
 21
247.2228857546
  0
LINE
  8
0
 62
7
  6
CONTINUOUS
 10
124.0850519694
 20
247.7228857546
 11
121.7079263569
 21
247.7228857546
  0
LINE
  8
0
 62
7
  6
CONTINUOUS
 10
109.0621776181
 20
247.7228857546
 11
106.3850519694
 21
247.7228857546
  0
LINE
  8
0
 62
7
  6
CONTINUOUS
 10
140.6391004958
 20
240.5953691428
 11
140.107602981
 21
240.6052049979
  0
LINE
  8
0
 62
7
  6
CONTINUOUS
 10
113.7363186433
 20
241.792265863
 11
113.2059861886
 21
241.8287536176
  0
LINE
  8
0
 62
7
  6
CONTINUOUS
 10
113.2904973261
 20
241.1960752283
 11
113.7175817457
 21
241.1457959344
  0
LINE
  8
0
 62
7
  6
CONTINUOUS
 10
131.4882627616
 20
241.5592034591
 11
135.1041177314
 21
241.0926519059
  0
LINE
  8
0
 62
7
  6
CONTINUOUS
 10
135.6887388312
 20
241.5535429702
 11
131.5563311245
 21
242.0867450068
  0
LINE
  8
0
 62
7
  6
CONTINUOUS
 10
137.9718438173
 20
241.1392875256
 11
137.3564488696
 21
241.2484390639
  0
LINE
  8
0
 62
7
  6
CONTINUOUS
 10
140.0267205312
 20
238.3340788264
 11
140.7383175859
 21
238.1749615886
  0
LINE
  8
0
 62
7
  6
CONTINUOUS
 10
140.7527310498
 20
238.7167890476
 11
140.2444527575
 21
238.8304430283
  0
LINE
  8
0
 62
7
  6
CONTINUOUS
 10
141.7052703114
 20
239.1578565092
 11
142.2135532572
 21
239.044201488
  0
LINE
  8
0
 62
7
  6
CONTINUOUS
 10
140.4213682695
 20
240.0990049409
 11
141.031305943
 21
239.9626193316
  0
LINE
  8
0
 62
7
  6
CONTINUOUS
 10
141.0457240603
 20
240.5044457501
 11
140.6391004958
 21
240.5953691428
  0
LINE
  8
0
 62
7
  6
CONTINUOUS
 10
159.924391159
 20
233.6461377567
 11
159.4128375
 21
233.7907205124
  0
LINE
  8
0
 62
7
  6
CONTINUOUS
 10
148.5327949853
 20
235.5147516112
 11
150.2951073163
 21
234.8745327049
  0
LINE
  8
0
 62
7
  6
CONTINUOUS
 10
150.6109588987
 20
235.4389015718
 11
148.750741821
 21
236.1146876523
  0
LINE
  8
0
 62
7
  6
CONTINUOUS
 10
149.295609012
 20
237.6145280354
 11
151.1558260898
 21
236.9387419548
  0
LINE
  8
0
 62
7
  6
CONTINUOUS
 10
151.2395437062
 20
237.4742558301
 11
148.8897939315
 21
238.3278810384
  0
LINE
  8
0
 62
7
  6
CONTINUOUS
 10
153.0439208476
 20
241.9201070344
 11
143.8051255225
 21
245.746941358
  0
LINE
  8
0
 62
7
  6
CONTINUOUS
 10
156.6536168341
 20
240.9661181009
 11
154.4574379778
 21
241.8758051686
  0
LINE
  8
0
 62
7
  6
CONTINUOUS
 10
142.7742894965
 20
246.7151237207
 11
140.3009491086
 21
247.7396148537
  0
LINE
  8
0
 62
7
  6
CONTINUOUS
 10
155.878512505
 20
235.5829377975
 11
155.1152579086
 21
235.9174366984
  0
LINE
  8
0
 62
7
  6
CONTINUOUS
 10
141.5307924371
 20
240.2869715628
 11
141.0457240603
 21
240.5044457501
  0
LINE
  8
0
 62
7
  6
CONTINUOUS
 10
158.7574611903
 20
231.6147053645
 11
159.4052613044
 21
231.2799761068
  0
LINE
  8
0
 62
7
  6
CONTINUOUS
 10
159.5568943143
 20
231.8003530602
 11
159.0941847885
 21
232.0394428855
  0
LINE
  8
0
 62
7
  6
CONTINUOUS
 10
160.5902453516
 20
231.9848774136
 11
161.0529633499
 21
231.7457832105
  0
LINE
  8
0
 62
7
  6
CONTINUOUS
 10
159.5876675609
 20
233.2214002357
 11
160.1429223808
 21
232.9344906943
  0
LINE
  8
0
 62
7
  6
CONTINUOUS
 10
160.2945553906
 20
233.4548676477
 11
159.924391159
 21
233.6461377567
  0
LINE
  8
0
 62
7
  6
CONTINUOUS
 10
151.6927519305
 20
237.1964273621
 11
151.2395437062
 21
237.4742558301
  0
LINE
  8
0
 62
7
  6
CONTINUOUS
 10
160.7084377281
 20
233.1212619971
 11
160.2945553906
 21
233.4548676477
  0
LINE
  8
0
 62
7
  6
CONTINUOUS
 10
181.1874957975
 20
224.5229702698
 11
174.1164279856
 21
231.5940380817
  0
LINE
  8
0
 62
7
  6
CONTINUOUS
 10
184.1573442784
 20
222.26022857
 11
182.4764635347
 21
223.9411093137
  0
LINE
  8
0
 62
7
  6
CONTINUOUS
 10
173.5345670295
 20
232.883005819
 11
171.6415542514
 21
234.776018597
  0
LINE
  8
0
 62
7
  6
CONTINUOUS
 10
200.5311726549
 20
197.6800318279
 11
196.7043383313
 21
206.918827153
  0
LINE
  8
0
 62
7
  6
CONTINUOUS
 10
202.4090411209
 20
194.4530192738
 11
201.4993550115
 21
196.6491958167
  0
LINE
  8
0
 62
7
  6
CONTINUOUS
 10
196.6600364899
 20
208.3323442242
 11
195.6355443681
 21
210.8056869993
  0
LINE
  8
0
 62
7
  6
CONTINUOUS
 10
223.2301537964
 20
153.4768779698
 11
223.4043034282
 21
155.6799568336
  0
LINE
  8
0
 62
7
  6
CONTINUOUS
 10
212.185361415
 20
115.9529726182
 11
213.1893364768
 21
117.9217079102
  0
LINE
  8
0
 62
7
  6
CONTINUOUS
 10
187.6215268974
 20
85.5120635422
 11
189.3024812871
 21
86.9467331608
  0
LINE
  8
0
 62
7
  6
CONTINUOUS
 10
153.278271377
 20
66.7885032012
 11
155.3802950267
 21
67.4706917022
  0
LINE
  8
0
 62
7
  6
CONTINUOUS
 10
132.3860597542
 20
262.3229875817
 11
130.1829808904
 21
262.4971372134
  0
LINE
  8
0
 62
7
  6
CONTINUOUS
 10
169.9099651058
 20
251.2781952003
 11
167.9412298138
 21
252.2821702621
  0
LINE
  8
0
 62
7
  6
CONTINUOUS
 10
200.3508741817
 20
226.7143606826
 11
198.9162045632
 21
228.3953150723
  0
LINE
  8
0
 62
7
  6
CONTINUOUS
 10
219.0744345227
 20
192.3711051622
 11
218.3922460217
 21
194.4731288119
  0
POLYLINE
  8
0
 62
7
  6
CONTINUOUS
 66
1
 70
0
  0
VERTEX
  8
0
 62
7
  6
CONTINUOUS
 10
314.1801119251
 20
62.4553640878
  0
VERTEX
  8
0
 62
7
  6
CONTINUOUS
 10
314.2674980475
 20
62.4637332617
  0
VERTEX
  8
0
 62
7
  6
CONTINUOUS
 10
314.3514102015
 20
62.4791803838
  0
VERTEX
  8
0
 62
7
  6
CONTINUOUS
 10
314.4314676443
 20
62.5010106457
  0
VERTEX
  8
0
 62
7
  6
CONTINUOUS
 10
314.5073843061
 20
62.5285579904
  0
VERTEX
  8
0
 62
7
  6
CONTINUOUS
 10
314.5789565284
 20
62.5611922954
  0
VERTEX
  8
0
 62
7
  6
CONTINUOUS
 10
314.6460506979
 20
62.598324311
  0
VERTEX
  8
0
 62
7
  6
CONTINUOUS
 10
314.708591304
 20
62.6394084596
  0
VERTEX
  8
0
 62
7
  6
CONTINUOUS
 10
314.7665502878
 20
62.6839441317
  0
VERTEX
  8
0
 62
7
  6
CONTINUOUS
 10
314.819886889
 20
62.7314273744
  0
VERTEX
  8
0
 62
7
  6
CONTINUOUS
 10
314.8685787988
 20
62.7813573291
  0
VERTEX
  8
0
 62
7
  6
CONTINUOUS
 10
314.9126560848
 20
62.8332678966
  0
VERTEX
  8
0
 62
7
  6
CONTINUOUS
 10
314.9521927594
 20
62.8867321494
  0
VERTEX
  8
0
 62
7
  6
CONTINUOUS
 10
314.9872885336
 20
62.9413482905
  0
VERTEX
  8
0
 62
7
  6
CONTINUOUS
 10
315.0181127314
 20
62.9968271577
  0
VERTEX
  8
0
 62
7
  6
CONTINUOUS
 10
315.0444505314
 20
63.0520357268
  0
VERTEX
  8
0
 62
7
  6
CONTINUOUS
 10
315.0659267684
 20
63.104784999
  0
VERTEX
  8
0
 62
7
  6
CONTINUOUS
 10
315.082664493
 20
63.1530550121
  0
VERTEX
  8
0
 62
7
  6
CONTINUOUS
 10
315.0944859539
 20
63.192683907
  0
SEQEND
  0
LINE
  8
0
 62
7
  6
CONTINUOUS
 10
314.1285473567
 20
62.4540339131
 11
314.1801119251
 21
62.4553640878
  0
LINE
  8
0
 62
7
  6
CONTINUOUS
 10
308.2602946693
 20
62.4540308336
 11
314.1289285255
 21
62.4540308336
  0
LINE
  8
0
 62
7
  6
CONTINUOUS
 10
308.2127930114
 20
62.4551808154
 11
308.2606758387
 21
62.4540339132
  0
POLYLINE
  8
0
 62
7
  6
CONTINUOUS
 66
1
 70
0
  0
VERTEX
  8
0
 62
7
  6
CONTINUOUS
 10
314.1463420384
 20
72.4652099925
  0
VERTEX
  8
0
 62
7
  6
CONTINUOUS
 10
314.2623770335
 20
72.4719232439
  0
VERTEX
  8
0
 62
7
  6
CONTINUOUS
 10
314.4116006093
 20
72.5007957811
  0
VERTEX
  8
0
 62
7
  6
CONTINUOUS
 10
314.5480619292
 20
72.5488295528
  0
VERTEX
  8
0
 62
7
  6
CONTINUOUS
 10
314.6703428445
 20
72.612243875
  0
VERTEX
  8
0
 62
7
  6
CONTINUOUS
 10
314.7778194795
 20
72.6875631171
  0
VERTEX
  8
0
 62
7
  6
CONTINUOUS
 10
314.8698404134
 20
72.7710289889
  0
VERTEX
  8
0
 62
7
  6
CONTINUOUS
 10
314.9453549599
 20
72.8574738472
  0
VERTEX
  8
0
 62
7
  6
CONTINUOUS
 10
315.0049894767
 20
72.9420654146
  0
VERTEX
  8
0
 62
7
  6
CONTINUOUS
 10
315.0518694519
 20
73.0232822154
  0
VERTEX
  8
0
 62
7
  6
CONTINUOUS
 10
315.0893938438
 20
73.1017431609
  0
VERTEX
  8
0
 62
7
  6
CONTINUOUS
 10
315.1205049934
 20
73.1792223072
  0
VERTEX
  8
0
 62
7
  6
CONTINUOUS
 10
315.14739108
 20
73.2574647639
  0
VERTEX
  8
0
 62
7
  6
CONTINUOUS
 10
315.172369072
 20
73.3404689853
  0
SEQEND
  0
LINE
  8
0
 62
7
  6
CONTINUOUS
 10
308.2425389346
 20
72.4652079206
 11
314.1466842602
 21
72.4652079206
  0
LINE
  8
0
 62
7
  6
CONTINUOUS
 10
306.5446115974
 20
83.7752170676
 11
306.6946115974
 21
83.7752170676
  0
LINE
  8
0
 62
7
  6
CONTINUOUS
 10
315.6946115974
 20
83.7752170676
 11
315.8446115974
 21
83.7752170676
  0
LINE
  8
0
 62
7
  6
CONTINUOUS
 10
306.5446115974
 20
87.4778857546
 11
306.6946115974
 21
87.4778857546
  0
LINE
  8
0
 62
7
  6
CONTINUOUS
 10
315.6946115974
 20
87.4778857546
 11
315.8446115974
 21
87.4778857546
  0
LINE
  8
0
 62
7
  6
CONTINUOUS
 10
306.5446115974
 20
91.1805544416
 11
306.6946115974
 21
91.1805544416
  0
LINE
  8
0
 62
7
  6
CONTINUOUS
 10
315.6946115974
 20
91.1805544416
 11
315.8446115974
 21
91.1805544416
  0
POLYLINE
  8
0
 62
7
  6
CONTINUOUS
 66
1
 70
0
  0
VERTEX
  8
0
 62
7
  6
CONTINUOUS
 10
314.1880139876
 20
95.8755188447
  0
VERTEX
  8
0
 62
7
  6
CONTINUOUS
 10
314.3841561816
 20
95.8945921376
  0
VERTEX
  8
0
 62
7
  6
CONTINUOUS
 10
314.5604064477
 20
95.9460044937
  0
VERTEX
  8
0
 62
7
  6
CONTINUOUS
 10
314.7192933471
 20
96.0247459717
  0
VERTEX
  8
0
 62
7
  6
CONTINUOUS
 10
314.854422473
 20
96.122564843
  0
VERTEX
  8
0
 62
7
  6
CONTINUOUS
 10
314.9640481939
 20
96.2307942532
  0
VERTEX
  8
0
 62
7
  6
CONTINUOUS
 10
315.0503890352
 20
96.3429212823
  0
VERTEX
  8
0
 62
7
  6
CONTINUOUS
 10
315.1173573833
 20
96.4548055693
  0
VERTEX
  8
0
 62
7
  6
CONTINUOUS
 10
315.1700821344
 20
96.5659968896
  0
VERTEX
  8
0
 62
7
  6
CONTINUOUS
 10
315.2137434391
 20
96.6798752375
  0
VERTEX
  8
0
 62
7
  6
CONTINUOUS
 10
315.2412826922
 20
96.7645432145
  0
SEQEND
  0
LINE
  8
0
 62
7
  6
CONTINUOUS
 10
308.2009496574
 20
95.8755173708
 11
314.1882735373
 21
95.8755173708
  0
LINE
  8
LAY0001
 62
7
  6
CONTINUOUS
 10
315.6946115974
 20
100.9220326585
 11
315.8446115974
 21
100.9220326585
  0
LINE
  8
LAY0001
 62
7
  6
CONTINUOUS
 10
315.6946115974
 20
102.9041394396
 11
315.8446115974
 21
102.9041394396
  0
LINE
  8
LAY0001
 62
7
  6
CONTINUOUS
 10
315.6946115974
 20
104.5304850364
 11
315.8446115974
 21
104.5304850364
  0
LINE
  8
LAY0001
 62
7
  6
CONTINUOUS
 10
315.6946115974
 20
104.9704039583
 11
315.8446115974
 21
104.9704039583
  0
LINE
  8
LAY0001
 62
7
  6
CONTINUOUS
 10
315.6946115974
 20
104.9761968698
 11
315.8446115974
 21
104.9761968698
  0
LINE
  8
LAY0001
 62
7
  6
CONTINUOUS
 10
315.6946115974
 20
105.1008794924
 11
315.8446115974
 21
105.1008794924
  0
LINE
  8
LAY0001
 62
7
  6
CONTINUOUS
 10
315.6946115974
 20
105.1339397954
 11
315.8446115974
 21
105.1339397954
  0
LINE
  8
LAY0001
 62
7
  6
CONTINUOUS
 10
315.6946115974
 20
105.1930673632
 11
315.8446115974
 21
105.1930673632
  0
LINE
  8
LAY0001
 62
7
  6
CONTINUOUS
 10
315.6946115974
 20
105.1988602844
 11
315.8446115974
 21
105.1988602844
  0
LINE
  8
LAY0001
 62
7
  6
CONTINUOUS
 10
315.6946115974
 20
105.2266932076
 11
315.8446115974
 21
105.2266932076
  0
LINE
  8
LAY0001
 62
7
  6
CONTINUOUS
 10
315.6946115974
 20
105.3183155321
 11
315.8446115974
 21
105.3183155321
  0
LINE
  8
LAY0001
 62
7
  6
CONTINUOUS
 10
315.6946115974
 20
105.4458946142
 11
315.8446115974
 21
105.4458946142
  0
LINE
  8
LAY0001
 62
7
  6
CONTINUOUS
 10
315.6946115974
 20
105.6094304524
 11
315.8446115974
 21
105.6094304524
  0
LINE
  8
LAY0001
 62
7
  6
CONTINUOUS
 10
315.6946115974
 20
105.7590498279
 11
315.8446115974
 21
105.7590498279
  0
LINE
  8
LAY0001
 62
7
  6
CONTINUOUS
 10
315.6946115974
 20
105.8947527406
 11
315.8446115974
 21
105.8947527406
  0
LINE
  8
LAY0001
 62
7
  6
CONTINUOUS
 10
315.6946115974
 20
105.9556459655
 11
315.8446115974
 21
105.9556459655
  0
LINE
  8
LAY0001
 62
7
  6
CONTINUOUS
 10
315.6946115974
 20
106.0026227277
 11
315.8446115974
 21
106.0026227277
  0
LINE
  8
LAY0001
 62
7
  6
CONTINUOUS
 10
315.6946115974
 20
106.0432415858
 11
315.8446115974
 21
106.0432415858
  0
LINE
  8
LAY0001
 62
7
  6
CONTINUOUS
 10
315.6946115974
 20
106.3076543949
 11
315.8446115974
 21
106.3076543949
  0
LINE
  8
LAY0001
 62
7
  6
CONTINUOUS
 10
315.6946115974
 20
106.4323370176
 11
315.8446115974
 21
106.4323370176
  0
LINE
  8
LAY0001
 62
7
  6
CONTINUOUS
 10
315.6946115974
 20
106.4834106304
 11
315.8446115974
 21
106.4834106304
  0
LINE
  8
LAY0001
 62
7
  6
CONTINUOUS
 10
315.6946115974
 20
106.5611164885
 11
315.8446115974
 21
106.5611164885
  0
LINE
  8
LAY0001
 62
7
  6
CONTINUOUS
 10
315.6946115974
 20
106.881195144
 11
315.8446115974
 21
106.881195144
  0
LINE
  8
LAY0001
 62
7
  6
CONTINUOUS
 10
315.6946115974
 20
107.0058780521
 11
315.8446115974
 21
107.0058780521
  0
LINE
  8
LAY0001
 62
7
  6
CONTINUOUS
 10
315.6946115974
 20
107.2053706478
 11
315.8446115974
 21
107.2053706478
  0
LINE
  8
LAY0001
 62
7
  6
CONTINUOUS
 10
315.6946115974
 20
107.3300532705
 11
315.8446115974
 21
107.3300532705
  0
LINE
  8
LAY0001
 62
7
  6
CONTINUOUS
 10
315.6946115974
 20
107.4680873841
 11
315.8446115974
 21
107.4680873841
  0
LINE
  8
LAY0001
 62
7
  6
CONTINUOUS
 10
315.6946115974
 20
107.5127329441
 11
315.8446115974
 21
107.5127329441
  0
LINE
  8
LAY0001
 62
7
  6
CONTINUOUS
 10
315.6946115974
 20
107.5295458662
 11
315.8446115974
 21
107.5295458662
  0
LINE
  8
LAY0001
 62
7
  6
CONTINUOUS
 10
315.6946115974
 20
107.6542287743
 11
315.8446115974
 21
107.6542287743
  0
LINE
  8
LAY0001
 62
7
  6
CONTINUOUS
 10
315.6946115974
 20
107.6872890724
 11
315.8446115974
 21
107.6872890724
  0
LINE
  8
LAY0001
 62
7
  6
CONTINUOUS
 10
315.6946115974
 20
107.7899316869
 11
315.8446115974
 21
107.7899316869
  0
LINE
  8
LAY0001
 62
7
  6
CONTINUOUS
 10
315.6946115974
 20
107.9285309151
 11
315.8446115974
 21
107.9285309151
  0
LINE
  8
LAY0001
 62
7
  6
CONTINUOUS
 10
315.6946115974
 20
108.0781502906
 11
315.8446115974
 21
108.0781502906
  0
LINE
  8
LAY0001
 62
7
  6
CONTINUOUS
 10
315.6946115974
 20
108.163979983
 11
315.8446115974
 21
108.163979983
  0
LINE
  8
LAY0001
 62
7
  6
CONTINUOUS
 10
315.6946115974
 20
108.1999367404
 11
315.8446115974
 21
108.1999367404
  0
LINE
  8
LAY0001
 62
7
  6
CONTINUOUS
 10
315.6946115974
 20
108.2329970361
 11
315.8446115974
 21
108.2329970361
  0
LINE
  8
LAY0001
 62
7
  6
CONTINUOUS
 10
315.6946115974
 20
108.2486791463
 11
315.8446115974
 21
108.2486791463
  0
LINE
  8
LAY0001
 62
7
  6
CONTINUOUS
 10
315.6946115974
 20
108.527008417
 11
315.8446115974
 21
108.527008417
  0
LINE
  8
LAY0001
 62
7
  6
CONTINUOUS
 10
315.6946115974
 20
108.6516911824
 11
315.8446115974
 21
108.6516911824
  0
LINE
  8
LAY0001
 62
7
  6
CONTINUOUS
 10
315.6946115974
 20
108.7027645812
 11
315.8446115974
 21
108.7027645812
  0
LINE
  8
LAY0001
 62
7
  6
CONTINUOUS
 10
315.6946115974
 20
108.7804706533
 11
315.8446115974
 21
108.7804706533
  0
LINE
  8
LAY0001
 62
7
  6
CONTINUOUS
 10
315.6946115974
 20
109.1005493088
 11
315.8446115974
 21
109.1005493088
  0
LINE
  8
LAY0001
 62
7
  6
CONTINUOUS
 10
315.6946115974
 20
109.2252321455
 11
315.8446115974
 21
109.2252321455
  0
LINE
  8
LAY0001
 62
7
  6
CONTINUOUS
 10
315.6946115974
 20
109.2432452413
 11
315.8446115974
 21
109.2432452413
  0
LINE
  8
LAY0001
 62
7
  6
CONTINUOUS
 10
315.6946115974
 20
109.2734091956
 11
315.8446115974
 21
109.2734091956
  0
LINE
  8
LAY0001
 62
7
  6
CONTINUOUS
 10
315.6946115974
 20
109.2855599632
 11
315.8446115974
 21
109.2855599632
  0
LINE
  8
LAY0001
 62
7
  6
CONTINUOUS
 10
315.6946115974
 20
109.3661624294
 11
315.8446115974
 21
109.3661624294
  0
LINE
  8
LAY0001
 62
7
  6
CONTINUOUS
 10
315.6946115974
 20
109.4827215068
 11
315.8446115974
 21
109.4827215068
  0
LINE
  8
LAY0001
 62
7
  6
CONTINUOUS
 10
315.6946115974
 20
109.6103006602
 11
315.8446115974
 21
109.6103006602
  0
LINE
  8
LAY0001
 62
7
  6
CONTINUOUS
 10
315.6946115974
 20
109.7987730729
 11
315.8446115974
 21
109.7987730729
  0
LINE
  8
LAY0001
 62
7
  6
CONTINUOUS
 10
315.6946115974
 20
109.9344759678
 11
315.8446115974
 21
109.9344759678
  0
LINE
  8
LAY0001
 62
7
  6
CONTINUOUS
 10
315.6946115974
 20
109.9953691927
 11
315.8446115974
 21
109.9953691927
  0
LINE
  8
LAY0001
 62
7
  6
CONTINUOUS
 10
315.6946115974
 20
110.0423459638
 11
315.8446115974
 21
110.0423459638
  0
LINE
  8
LAY0001
 62
7
  6
CONTINUOUS
 10
315.6946115974
 20
110.0643861579
 11
315.8446115974
 21
110.0643861579
  0
POLYLINE
  8
0
 62
7
  6
CONTINUOUS
 66
1
 70
0
  0
VERTEX
  8
0
 62
7
  6
CONTINUOUS
 10
314.2473815677
 20
129.1209516237
  0
VERTEX
  8
0
 62
7
  6
CONTINUOUS
 10
314.2967289659
 20
129.1221364431
  0
VERTEX
  8
0
 62
7
  6
CONTINUOUS
 10
314.4640679431
 20
129.1440370267
  0
VERTEX
  8
0
 62
7
  6
CONTINUOUS
 10
314.6272616213
 20
129.193603298
  0
VERTEX
  8
0
 62
7
  6
CONTINUOUS
 10
314.7794556423
 20
129.2688408499
  0
VERTEX
  8
0
 62
7
  6
CONTINUOUS
 10
314.9144999829
 20
129.3651074454
  0
VERTEX
  8
0
 62
7
  6
CONTINUOUS
 10
315.0282989326
 20
129.4756862754
  0
VERTEX
  8
0
 62
7
  6
CONTINUOUS
 10
315.0619207307
 20
129.5152938333
  0
SEQEND
  0
LINE
  8
0
 62
7
  6
CONTINUOUS
 10
293.1946115974
 20
127.4778857546
 11
305.1946115974
 21
127.4778857546
  0
LINE
  8
0
 62
7
  6
CONTINUOUS
 10
317.1946115974
 20
127.4778857546
 11
329.1946115974
 21
127.4778857546
  0
LINE
  8
0
 62
7
  6
CONTINUOUS
 10
308.141715707
 20
129.1209517856
 11
314.2475074877
 21
129.1209517856
  0
POLYLINE
  8
0
 62
7
  6
CONTINUOUS
 66
1
 70
0
  0
VERTEX
  8
0
 62
7
  6
CONTINUOUS
 10
307.2598610848
 20
257.4599732428
  0
VERTEX
  8
0
 62
7
  6
CONTINUOUS
 10
307.242367346
 20
257.3968962156
  0
VERTEX
  8
0
 62
7
  6
CONTINUOUS
 10
307.2248934071
 20
257.3282755268
  0
SEQEND
  0
POLYLINE
  8
0
 62
7
  6
CONTINUOUS
 66
1
 70
0
  0
VERTEX
  8
0
 62
7
  6
CONTINUOUS
 10
307.2967256853
 20
63.1856188408
  0
VERTEX
  8
0
 62
7
  6
CONTINUOUS
 10
307.3091688471
 20
63.1449959846
  0
VERTEX
  8
0
 62
7
  6
CONTINUOUS
 10
307.32669034
 20
63.0958577531
  0
VERTEX
  8
0
 62
7
  6
CONTINUOUS
 10
307.3493272129
 20
63.0418451394
  0
VERTEX
  8
0
 62
7
  6
CONTINUOUS
 10
307.3766664369
 20
62.9861940336
  0
VERTEX
  8
0
 62
7
  6
CONTINUOUS
 10
307.4081935545
 20
62.9310192723
  0
VERTEX
  8
0
 62
7
  6
CONTINUOUS
 10
307.4439759529
 20
62.8767861585
  0
VERTEX
  8
0
 62
7
  6
CONTINUOUS
 10
307.4841112871
 20
62.8238614823
  0
VERTEX
  8
0
 62
7
  6
CONTINUOUS
 10
307.5286882608
 20
62.7726170385
  0
VERTEX
  8
0
 62
7
  6
CONTINUOUS
 10
307.5777530422
 20
62.7234706576
  0
VERTEX
  8
0
 62
7
  6
CONTINUOUS
 10
307.6313000102
 20
62.6768796893
  0
VERTEX
  8
0
 62
7
  6
CONTINUOUS
 10
307.6892689441
 20
62.6333286337
  0
VERTEX
  8
0
 62
7
  6
CONTINUOUS
 10
307.7516206052
 20
62.5932729584
  0
VERTEX
  8
0
 62
7
  6
CONTINUOUS
 10
307.8183338933
 20
62.5571689712
  0
VERTEX
  8
0
 62
7
  6
CONTINUOUS
 10
307.8893387753
 20
62.5255238819
  0
VERTEX
  8
0
 62
7
  6
CONTINUOUS
 10
307.9645129336
 20
62.4988894701
  0
VERTEX
  8
0
 62
7
  6
CONTINUOUS
 10
308.0436699852
 20
62.477860101
  0
VERTEX
  8
0
 62
7
  6
CONTINUOUS
 10
308.1265472019
 20
62.4630687309
  0
VERTEX
  8
0
 62
7
  6
CONTINUOUS
 10
308.2127930114
 20
62.4551808154
  0
SEQEND
  0
POLYLINE
  8
0
 62
7
  6
CONTINUOUS
 66
1
 70
0
  0
VERTEX
  8
0
 62
7
  6
CONTINUOUS
 10
307.2162483251
 20
73.342606524
  0
VERTEX
  8
0
 62
7
  6
CONTINUOUS
 10
307.2411914481
 20
73.2594680502
  0
VERTEX
  8
0
 62
7
  6
CONTINUOUS
 10
307.2679799136
 20
73.1812231948
  0
VERTEX
  8
0
 62
7
  6
CONTINUOUS
 10
307.2989268523
 20
73.1038157419
  0
VERTEX
  8
0
 62
7
  6
CONTINUOUS
 10
307.3362454232
 20
73.0254053152
  0
VERTEX
  8
0
 62
7
  6
CONTINUOUS
 10
307.3829944343
 20
72.9440214596
  0
VERTEX
  8
0
 62
7
  6
CONTINUOUS
 10
307.4425626329
 20
72.8591495948
  0
VERTEX
  8
0
 62
7
  6
CONTINUOUS
 10
307.5180474756
 20
72.772399026
  0
VERTEX
  8
0
 62
7
  6
CONTINUOUS
 10
307.6100850724
 20
72.6886222455
  0
VERTEX
  8
0
 62
7
  6
CONTINUOUS
 10
307.7176355306
 20
72.6130023968
  0
VERTEX
  8
0
 62
7
  6
CONTINUOUS
 10
307.8400416203
 20
72.5493172704
  0
VERTEX
  8
0
 62
7
  6
CONTINUOUS
 10
307.9766872054
 20
72.5010517647
  0
VERTEX
  8
0
 62
7
  6
CONTINUOUS
 10
308.1261599227
 20
72.4720031476
  0
VERTEX
  8
0
 62
7
  6
CONTINUOUS
 10
308.2428811483
 20
72.4652099925
  0
SEQEND
  0
LINE
  8
0
 62
7
  6
CONTINUOUS
 10
307.1918585949
 20
73.4334169636
 11
307.2162483251
 21
73.342606524
  0
LINE
  8
0
 62
7
  6
CONTINUOUS
 10
291.6946115974
 20
197.4778857546
 11
291.6946115974
 21
128.9778857546
  0
LINE
  8
0
 62
7
  6
CONTINUOUS
 10
307.1862449608
 20
261.2192166858
 11
306.8467810714
 21
259.3146705651
  0
LINE
  8
0
 62
7
  6
CONTINUOUS
 10
307.220467599
 20
261.4045944092
 11
307.1862449608
 21
261.2192166858
  0
LINE
  8
0
 62
7
  6
CONTINUOUS
 10
307.2464645826
 20
261.5415265054
 11
307.220467599
 21
261.4045944092
  0
POLYLINE
  8
0
 62
7
  6
CONTINUOUS
 66
1
 70
0
  0
VERTEX
  8
0
 62
7
  6
CONTINUOUS
 10
306.8635999516
 20
237.8308371188
  0
VERTEX
  8
0
 62
7
  6
CONTINUOUS
 10
306.773503997
 20
237.4180127067
  0
VERTEX
  8
0
 62
7
  6
CONTINUOUS
 10
306.7118766947
 20
236.940984158
  0
VERTEX
  8
0
 62
7
  6
CONTINUOUS
 10
306.6946117534
 20
236.5203025865
  0
SEQEND
  0
POLYLINE
  8
0
 62
7
  6
CONTINUOUS
 66
1
 70
0
  0
VERTEX
  8
0
 62
7
  6
CONTINUOUS
 10
307.2248934071
 20
257.3282755268
  0
VERTEX
  8
0
 62
7
  6
CONTINUOUS
 10
307.206627608
 20
257.2513343554
  0
VERTEX
  8
0
 62
7
  6
CONTINUOUS
 10
307.1871991149
 20
257.1644966564
  0
VERTEX
  8
0
 62
7
  6
CONTINUOUS
 10
307.1664344485
 20
257.0667774084
  0
VERTEX
  8
0
 62
7
  6
CONTINUOUS
 10
307.1442561487
 20
256.9574644158
  0
VERTEX
  8
0
 62
7
  6
CONTINUOUS
 10
306.8494654
 20
255.4316248591
  0
SEQEND
  0
LINE
  8
0
 62
7
  6
CONTINUOUS
 10
307.1429191588
 20
238.9034305361
 11
306.863605138
 21
237.8308576893
  0
LINE
  8
0
 62
7
  6
CONTINUOUS
 10
306.9446923557
 20
208.9446794596
 11
306.8084696892
 21
208.6284951349
  0
LINE
  8
0
 62
7
  6
CONTINUOUS
 10
307.2241834072
 20
209.4800897429
 11
306.9448194632
 21
208.9449234196
  0
POLYLINE
  8
0
 62
7
  6
CONTINUOUS
 66
1
 70
0
  0
VERTEX
  8
0
 62
7
  6
CONTINUOUS
 10
307.3272620738
 20
129.5153437049
  0
VERTEX
  8
0
 62
7
  6
CONTINUOUS
 10
307.3558051426
 20
129.4814801625
  0
VERTEX
  8
0
 62
7
  6
CONTINUOUS
 10
307.4693476082
 20
129.3696428685
  0
VERTEX
  8
0
 62
7
  6
CONTINUOUS
 10
307.6047400672
 20
129.2718773657
  0
VERTEX
  8
0
 62
7
  6
CONTINUOUS
 10
307.7578517844
 20
129.1952425989
  0
VERTEX
  8
0
 62
7
  6
CONTINUOUS
 10
307.9223646648
 20
129.1446422315
  0
VERTEX
  8
0
 62
7
  6
CONTINUOUS
 10
308.0911644168
 20
129.1222012106
  0
VERTEX
  8
0
 62
7
  6
CONTINUOUS
 10
308.1418421088
 20
129.1209516242
  0
SEQEND
  0
LINE
  8
0
 62
7
  6
CONTINUOUS
 10
307.0538758717
 20
129.853258174
 11
307.3270148755
 21
129.5156463623
  0
POLYLINE
  8
0
 62
7
  6
CONTINUOUS
 66
1
 70
0
  0
VERTEX
  8
0
 62
7
  6
CONTINUOUS
 10
307.147938585
 20
96.7645495022
  0
VERTEX
  8
0
 62
7
  6
CONTINUOUS
 10
307.1745566563
 20
96.6825402475
  0
VERTEX
  8
0
 62
7
  6
CONTINUOUS
 10
307.2182446941
 20
96.5681140779
  0
VERTEX
  8
0
 62
7
  6
CONTINUOUS
 10
307.2709188957
 20
96.4565964161
  0
VERTEX
  8
0
 62
7
  6
CONTINUOUS
 10
307.3377871519
 20
96.344475386
  0
VERTEX
  8
0
 62
7
  6
CONTINUOUS
 10
307.4240225698
 20
96.2321101578
  0
VERTEX
  8
0
 62
7
  6
CONTINUOUS
 10
307.5335722325
 20
96.1236148247
  0
VERTEX
  8
0
 62
7
  6
CONTINUOUS
 10
307.6687000992
 20
96.0254947746
  0
VERTEX
  8
0
 62
7
  6
CONTINUOUS
 10
307.8277239082
 20
95.9464337469
  0
VERTEX
  8
0
 62
7
  6
CONTINUOUS
 10
308.0042493507
 20
95.8947529669
  0
VERTEX
  8
0
 62
7
  6
CONTINUOUS
 10
308.2012093029
 20
95.8755188447
  0
SEQEND
  0
LINE
  8
0
 62
7
  6
CONTINUOUS
 10
306.874909982
 20
97.6588751722
 11
307.1479988184
 21
96.7643503237
  0
LINE
  8
0
 62
7
  6
CONTINUOUS
 10
307.147938585
 20
96.7645495022
 11
307.1479993179
 21
96.7643504766
  0
LINE
  8
0
 62
7
  6
CONTINUOUS
 10
306.777555651
 20
98.0408085562
 11
306.8748981489
 21
97.6589145073
  0
POLYLINE
  8
0
 62
7
  6
CONTINUOUS
 66
1
 70
0
  0
VERTEX
  8
0
 62
7
  6
CONTINUOUS
 10
307.1252919645
 20
73.7246290088
  0
VERTEX
  8
0
 62
7
  6
CONTINUOUS
 10
307.1419542169
 20
73.6461650977
  0
VERTEX
  8
0
 62
7
  6
CONTINUOUS
 10
307.1672290216
 20
73.5341061503
  0
VERTEX
  8
0
 62
7
  6
CONTINUOUS
 10
307.1918585949
 20
73.4334169636
  0
SEQEND
  0
POLYLINE
  8
0
 62
7
  6
CONTINUOUS
 66
1
 70
0
  0
VERTEX
  8
0
 62
7
  6
CONTINUOUS
 10
307.2651927441
 20
63.3198314905
  0
VERTEX
  8
0
 62
7
  6
CONTINUOUS
 10
307.2707251932
 20
63.2932601225
  0
VERTEX
  8
0
 62
7
  6
CONTINUOUS
 10
307.2761123246
 20
63.268341045
  0
VERTEX
  8
0
 62
7
  6
CONTINUOUS
 10
307.2817379242
 20
63.243637061
  0
VERTEX
  8
0
 62
7
  6
CONTINUOUS
 10
307.2882069823
 20
63.2172017724
  0
VERTEX
  8
0
 62
7
  6
CONTINUOUS
 10
307.2967256853
 20
63.1856188408
  0
SEQEND
  0
LINE
  8
0
 62
7
  6
CONTINUOUS
 10
306.8522180637
 20
75.0398727059
 11
307.1252977816
 21
73.7246000296
  0
LINE
  8
0
 62
7
  6
CONTINUOUS
 10
307.2526756074
 20
63.382372304
 11
307.2651927441
 21
63.3198314905
  0
LINE
  8
0
 62
7
  6
CONTINUOUS
 10
307.237432425
 20
63.4612741087
 11
307.2526756074
 21
63.382372304
  0
LINE
  8
0
 62
7
  6
CONTINUOUS
 10
307.2086641041
 20
63.6146130534
 11
307.237432425
 21
63.4612741087
  0
LINE
  8
0
 62
7
  6
CONTINUOUS
 10
307.1582163696
 20
63.8910449633
 11
307.2086641041
 21
63.6146130534
  0
LINE
  8
0
 62
7
  6
CONTINUOUS
 10
306.8467810714
 20
65.6411009441
 11
307.1582163696
 21
63.8910449633
  0
POLYLINE
  8
0
 62
7
  6
CONTINUOUS
 66
1
 70
0
  0
VERTEX
  8
0
 62
7
  6
CONTINUOUS
 10
306.8467811938
 20
259.3146702807
  0
VERTEX
  8
0
 62
7
  6
CONTINUOUS
 10
306.7650454341
 20
258.7656451849
  0
VERTEX
  8
0
 62
7
  6
CONTINUOUS
 10
306.7098743535
 20
258.1377586374
  0
VERTEX
  8
0
 62
7
  6
CONTINUOUS
 10
306.6946117574
 20
257.5894574865
  0
SEQEND
  0
POLYLINE
  8
0
 62
7
  6
CONTINUOUS
 66
1
 70
0
  0
VERTEX
  8
0
 62
7
  6
CONTINUOUS
 10
306.849465122
 20
255.4316225423
  0
VERTEX
  8
0
 62
7
  6
CONTINUOUS
 10
306.7670965462
 20
254.9231375725
  0
VERTEX
  8
0
 62
7
  6
CONTINUOUS
 10
306.7105338745
 20
254.3346847011
  0
VERTEX
  8
0
 62
7
  6
CONTINUOUS
 10
306.694611753
 20
253.8141486646
  0
SEQEND
  0
POLYLINE
  8
0
 62
7
  6
CONTINUOUS
 66
1
 70
0
  0
VERTEX
  8
0
 62
7
  6
CONTINUOUS
 10
306.8084696892
 20
208.6284951349
  0
VERTEX
  8
0
 62
7
  6
CONTINUOUS
 10
306.7184727602
 20
208.2647218359
  0
VERTEX
  8
0
 62
7
  6
CONTINUOUS
 10
306.6946118206
 20
207.9544772213
  0
SEQEND
  0
LINE
  8
0
 62
7
  6
CONTINUOUS
 10
306.7675247091
 20
75.5272027445
 11
306.8522172655
 21
75.0398773836
  0
LINE
  8
0
 62
7
  6
CONTINUOUS
 10
306.7650454341
 20
66.1901263243
 11
306.8467811938
 21
65.6411012285
  0
LINE
  8
0
 62
7
  6
CONTINUOUS
 10
306.694612019
 20
130.8221711637
 11
306.7108785481
 21
130.6077947092
  0
POLYLINE
  8
0
 62
7
  6
CONTINUOUS
 66
1
 70
0
  0
VERTEX
  8
0
 62
7
  6
CONTINUOUS
 10
306.6946117593
 20
98.8536378756
  0
VERTEX
  8
0
 62
7
  6
CONTINUOUS
 10
306.7124249176
 20
98.4762013196
  0
VERTEX
  8
0
 62
7
  6
CONTINUOUS
 10
306.777555651
 20
98.0408085562
  0
SEQEND
  0
POLYLINE
  8
0
 62
7
  6
CONTINUOUS
 66
1
 70
0
  0
VERTEX
  8
0
 62
7
  6
CONTINUOUS
 10
306.6946117574
 20
76.5707014877
  0
VERTEX
  8
0
 62
7
  6
CONTINUOUS
 10
306.7103997707
 20
76.0844088295
  0
VERTEX
  8
0
 62
7
  6
CONTINUOUS
 10
306.7675247091
 20
75.5272027445
  0
SEQEND
  0
POLYLINE
  8
0
 62
7
  6
CONTINUOUS
 66
1
 70
0
  0
VERTEX
  8
0
 62
7
  6
CONTINUOUS
 10
306.6946117574
 20
67.3663140227
  0
VERTEX
  8
0
 62
7
  6
CONTINUOUS
 10
306.7098743535
 20
66.8180128718
  0
VERTEX
  8
0
 62
7
  6
CONTINUOUS
 10
306.7650454341
 20
66.1901263243
  0
SEQEND
  0
POLYLINE
  8
0
 62
7
  6
CONTINUOUS
 66
1
 70
0
  0
VERTEX
  8
0
 62
7
  6
CONTINUOUS
 10
306.7108785481
 20
130.6077947092
  0
VERTEX
  8
0
 62
7
  6
CONTINUOUS
 10
306.7810548418
 20
130.331360222
  0
VERTEX
  8
0
 62
7
  6
CONTINUOUS
 10
306.9063094155
 20
130.0653930048
  0
VERTEX
  8
0
 62
7
  6
CONTINUOUS
 10
307.0536943745
 20
129.853482821
  0
SEQEND
  0
LINE
  8
0
 62
7
  6
CONTINUOUS
 10
306.5446115974
 20
210.8701906
 11
306.5446115974
 21
189.0855809092
  0
LINE
  8
0
 62
7
  6
CONTINUOUS
 10
306.5446115974
 20
91.1805544416
 11
306.5446115974
 21
83.7752170676
  0
LINE
  8
0
 62
7
  6
CONTINUOUS
 10
306.6946115974
 20
67.3663142898
 11
306.6946115974
 21
257.5894400933
  0
LINE
  8
DEFAULT_1
 62
2
  6
CENTER
 10
289.6946115974
 20
162.4778857546
 11
332.6946115974
 21
162.4778857546
  0
POLYLINE
  8
0
 62
7
  6
CONTINUOUS
 66
1
 70
0
  0
VERTEX
  8
0
 62
7
  6
CONTINUOUS
 10
315.6946114314
 20
236.5203039806
  0
VERTEX
  8
0
 62
7
  6
CONTINUOUS
 10
315.6777647146
 20
236.9358624221
  0
VERTEX
  8
0
 62
7
  6
CONTINUOUS
 10
315.616612728
 20
237.4129370149
  0
SEQEND
  0
POLYLINE
  8
0
 62
7
  6
CONTINUOUS
 66
1
 70
0
  0
VERTEX
  8
0
 62
7
  6
CONTINUOUS
 10
315.6946114319
 20
253.8141487803
  0
VERTEX
  8
0
 62
7
  6
CONTINUOUS
 10
315.6790743151
 20
254.3283580941
  0
VERTEX
  8
0
 62
7
  6
CONTINUOUS
 10
315.6229496651
 20
254.9168473968
  0
SEQEND
  0
POLYLINE
  8
0
 62
7
  6
CONTINUOUS
 66
1
 70
0
  0
VERTEX
  8
0
 62
7
  6
CONTINUOUS
 10
315.6946114277
 20
257.5894574847
  0
VERTEX
  8
0
 62
7
  6
CONTINUOUS
 10
315.6789683886
 20
258.1445453597
  0
VERTEX
  8
0
 62
7
  6
CONTINUOUS
 10
315.6233640726
 20
258.7723947274
  0
VERTEX
  8
0
 62
7
  6
CONTINUOUS
 10
315.5424420108
 20
259.3146702807
  0
SEQEND
  0
LINE
  8
0
 62
7
  6
CONTINUOUS
 10
315.6946115974
 20
257.5894397704
 11
315.6946115974
 21
67.3663317388
  0
LINE
  8
0
 62
7
  6
CONTINUOUS
 10
315.8446115974
 20
242.4734949921
 11
315.8446115974
 21
224.4933639262
  0
LINE
  8
0
 62
7
  6
CONTINUOUS
 10
315.8446115974
 20
210.8701906
 11
315.8446115974
 21
189.0855809092
  0
LINE
  8
LAY0001
 62
7
  6
CONTINUOUS
 10
315.8446115974
 20
110.0643861579
 11
315.8446115974
 21
100.9220326585
  0
LINE
  8
0
 62
7
  6
CONTINUOUS
 10
315.8446115974
 20
91.1805544416
 11
315.8446115974
 21
83.7752170676
  0
LINE
  8
0
 62
7
  6
CONTINUOUS
 10
315.694611355
 20
207.9545005384
 11
315.6713412312
 21
208.2608648976
  0
POLYLINE
  8
0
 62
7
  6
CONTINUOUS
 66
1
 70
0
  0
VERTEX
  8
0
 62
7
  6
CONTINUOUS
 10
315.6067582789
 20
130.3274540307
  0
VERTEX
  8
0
 62
7
  6
CONTINUOUS
 10
315.6776834072
 20
130.6034845556
  0
VERTEX
  8
0
 62
7
  6
CONTINUOUS
 10
315.6946111928
 20
130.8222081532
  0
SEQEND
  0
LINE
  8
0
 62
7
  6
CONTINUOUS
 10
330.6946115974
 20
128.9778857546
 11
330.6946115974
 21
197.4778707304
  0
POLYLINE
  8
0
 62
7
  6
CONTINUOUS
 66
1
 70
0
  0
VERTEX
  8
0
 62
7
  6
CONTINUOUS
 10
315.5424420108
 20
65.6411012286
  0
VERTEX
  8
0
 62
7
  6
CONTINUOUS
 10
315.6233640726
 20
66.1833767818
  0
VERTEX
  8
0
 62
7
  6
CONTINUOUS
 10
315.6789683886
 20
66.8112261495
  0
VERTEX
  8
0
 62
7
  6
CONTINUOUS
 10
315.6946114277
 20
67.3663140245
  0
SEQEND
  0
POLYLINE
  8
0
 62
7
  6
CONTINUOUS
 66
1
 70
0
  0
VERTEX
  8
0
 62
7
  6
CONTINUOUS
 10
315.5370059693
 20
75.039877529
  0
VERTEX
  8
0
 62
7
  6
CONTINUOUS
 10
315.6208564789
 20
75.5212179011
  0
VERTEX
  8
0
 62
7
  6
CONTINUOUS
 10
315.6784296373
 20
76.0783861937
  0
VERTEX
  8
0
 62
7
  6
CONTINUOUS
 10
315.6946114277
 20
76.5707016552
  0
SEQEND
  0
LINE
  8
0
 62
7
  6
CONTINUOUS
 10
315.2605625322
 20
64.055876961
 11
315.5424421233
 21
65.6411009441
  0
POLYLINE
  8
0
 62
7
  6
CONTINUOUS
 66
1
 70
0
  0
VERTEX
  8
0
 62
7
  6
CONTINUOUS
 10
315.5143257182
 20
97.6589166781
  0
VERTEX
  8
0
 62
7
  6
CONTINUOUS
 10
315.6107144732
 20
98.0361764143
  0
VERTEX
  8
0
 62
7
  6
CONTINUOUS
 10
315.6763520379
 20
98.4715074624
  0
VERTEX
  8
0
 62
7
  6
CONTINUOUS
 10
315.694611426
 20
98.8536406112
  0
SEQEND
  0
POLYLINE
  8
0
 62
7
  6
CONTINUOUS
 66
1
 70
0
  0
VERTEX
  8
0
 62
7
  6
CONTINUOUS
 10
315.6713412312
 20
208.2608648976
  0
VERTEX
  8
0
 62
7
  6
CONTINUOUS
 10
315.581996777
 20
208.6248587247
  0
VERTEX
  8
0
 62
7
  6
CONTINUOUS
 10
315.444522582
 20
208.9446953116
  0
SEQEND
  0
LINE
  8
0
 62
7
  6
CONTINUOUS
 10
315.616612728
 20
237.4129370149
 11
315.525622946
 21
237.8308382988
  0
LINE
  8
0
 62
7
  6
CONTINUOUS
 10
315.5424421233
 20
259.3146705651
 11
315.2456491471
 21
260.9832909036
  0
LINE
  8
0
 62
7
  6
CONTINUOUS
 10
315.6229496651
 20
254.9168473968
 11
315.5397580618
 21
255.4316226514
  0
LINE
  8
0
 62
7
  6
CONTINUOUS
 10
315.1901481581
 20
63.6665619193
 11
315.2605625322
 21
64.055876961
  0
LINE
  8
0
 62
7
  6
CONTINUOUS
 10
315.1588405403
 20
63.4984201587
 11
315.1901481581
 21
63.6665619193
  0
LINE
  8
0
 62
7
  6
CONTINUOUS
 10
315.1424593853
 20
63.4126997784
 11
315.1588405403
 21
63.4984201587
  0
LINE
  8
0
 62
7
  6
CONTINUOUS
 10
315.2639254138
 20
73.7246000327
 11
315.5370051311
 21
75.0398727059
  0
POLYLINE
  8
0
 62
7
  6
CONTINUOUS
 66
1
 70
0
  0
VERTEX
  8
0
 62
7
  6
CONTINUOUS
 10
315.1967470036
 20
73.4310053979
  0
VERTEX
  8
0
 62
7
  6
CONTINUOUS
 10
315.2213416706
 20
73.5313277224
  0
VERTEX
  8
0
 62
7
  6
CONTINUOUS
 10
315.2465673547
 20
73.6429398841
  0
VERTEX
  8
0
 62
7
  6
CONTINUOUS
 10
315.263931098
 20
73.7246283715
  0
SEQEND
  0
LINE
  8
0
 62
7
  6
CONTINUOUS
 10
315.172369072
 20
73.3404689853
 11
315.1967470036
 21
73.4310053979
  0
LINE
  8
0
 62
7
  6
CONTINUOUS
 10
315.2412243778
 20
96.7643503285
 11
315.5143132127
 21
97.6588751722
  0
POLYLINE
  8
0
 62
7
  6
CONTINUOUS
 66
1
 70
0
  0
VERTEX
  8
0
 62
7
  6
CONTINUOUS
 10
315.3355385492
 20
129.8534948437
  0
VERTEX
  8
0
 62
7
  6
CONTINUOUS
 10
315.4809409071
 20
130.0620531222
  0
VERTEX
  8
0
 62
7
  6
CONTINUOUS
 10
315.6067582789
 20
130.3274540307
  0
SEQEND
  0
LINE
  8
0
 62
7
  6
CONTINUOUS
 10
315.0622083223
 20
129.5156463659
 11
315.3353473231
 21
129.853258174
  0
LINE
  8
0
 62
7
  6
CONTINUOUS
 10
306.5446115974
 20
189.0855809092
 11
306.6946115974
 21
189.0855809092
  0
LINE
  8
0
 62
7
  6
CONTINUOUS
 10
315.6946115974
 20
189.0855809092
 11
315.8446115974
 21
189.0855809092
  0
LINE
  8
0
 62
7
  6
CONTINUOUS
 10
306.5446115974
 20
190.0855809092
 11
306.6946115974
 21
190.0855809092
  0
LINE
  8
0
 62
7
  6
CONTINUOUS
 10
315.6946115974
 20
190.0855809092
 11
315.8446115974
 21
190.0855809092
  0
POLYLINE
  8
0
 62
7
  6
CONTINUOUS
 66
1
 70
0
  0
VERTEX
  8
0
 62
7
  6
CONTINUOUS
 10
315.1652007038
 20
209.4797793322
  0
VERTEX
  8
0
 62
7
  6
CONTINUOUS
 10
315.1432666624
 20
209.5200914178
  0
VERTEX
  8
0
 62
7
  6
CONTINUOUS
 10
315.0746513284
 20
209.6276855855
  0
VERTEX
  8
0
 62
7
  6
CONTINUOUS
 10
314.983953907
 20
209.7388610886
  0
VERTEX
  8
0
 62
7
  6
CONTINUOUS
 10
314.8708333363
 20
209.8443663287
  0
VERTEX
  8
0
 62
7
  6
CONTINUOUS
 10
314.7368978769
 20
209.9362300237
  0
VERTEX
  8
0
 62
7
  6
CONTINUOUS
 10
314.5856185762
 20
210.0079871204
  0
VERTEX
  8
0
 62
7
  6
CONTINUOUS
 10
314.4226608036
 20
210.0547692703
  0
VERTEX
  8
0
 62
7
  6
CONTINUOUS
 10
314.2545087941
 20
210.0740997127
  0
VERTEX
  8
0
 62
7
  6
CONTINUOUS
 10
314.2219312058
 20
210.0746176878
  0
SEQEND
  0
LINE
  8
0
 62
7
  6
CONTINUOUS
 10
315.1652007038
 20
209.4797793322
 11
315.1650389394
 21
209.4800893092
  0
LINE
  8
0
 62
7
  6
CONTINUOUS
 10
315.4444037316
 20
208.9449234196
 11
315.1650397836
 21
209.4800897504
  0
POLYLINE
  8
0
 62
7
  6
CONTINUOUS
 66
1
 70
0
  0
VERTEX
  8
0
 62
7
  6
CONTINUOUS
 10
315.2463119049
 20
238.9033990083
  0
VERTEX
  8
0
 62
7
  6
CONTINUOUS
 10
315.2248604558
 20
238.9821706603
  0
VERTEX
  8
0
 62
7
  6
CONTINUOUS
 10
315.1940559211
 20
239.0831019036
  0
VERTEX
  8
0
 62
7
  6
CONTINUOUS
 10
315.1628339532
 20
239.1717342034
  0
VERTEX
  8
0
 62
7
  6
CONTINUOUS
 10
315.1283302803
 20
239.2556737224
  0
VERTEX
  8
0
 62
7
  6
CONTINUOUS
 10
315.0868160187
 20
239.340855635
  0
VERTEX
  8
0
 62
7
  6
CONTINUOUS
 10
315.0340370342
 20
239.4304538981
  0
VERTEX
  8
0
 62
7
  6
CONTINUOUS
 10
314.9651792907
 20
239.5251379231
  0
VERTEX
  8
0
 62
7
  6
CONTINUOUS
 10
314.8768103728
 20
239.6213197012
  0
VERTEX
  8
0
 62
7
  6
CONTINUOUS
 10
314.7683752418
 20
239.7122985207
  0
VERTEX
  8
0
 62
7
  6
CONTINUOUS
 10
314.6408295308
 20
239.7916748099
  0
VERTEX
  8
0
 62
7
  6
CONTINUOUS
 10
314.4954469349
 20
239.8541266997
  0
VERTEX
  8
0
 62
7
  6
CONTINUOUS
 10
314.3348055791
 20
239.8945232749
  0
VERTEX
  8
0
 62
7
  6
CONTINUOUS
 10
314.1687381663
 20
239.9082300176
  0
SEQEND
  0
LINE
  8
0
 62
7
  6
CONTINUOUS
 10
315.5256180567
 20
237.8308576892
 11
315.2463040342
 21
238.903430543
  0
POLYLINE
  8
0
 62
7
  6
CONTINUOUS
 66
1
 70
0
  0
VERTEX
  8
0
 62
7
  6
CONTINUOUS
 10
315.1648191494
 20
257.3262799957
  0
VERTEX
  8
0
 62
7
  6
CONTINUOUS
 10
315.1473286469
 20
257.3951102877
  0
VERTEX
  8
0
 62
7
  6
CONTINUOUS
 10
315.1298453474
 20
257.458311917
  0
SEQEND
  0
POLYLINE
  8
0
 62
7
  6
CONTINUOUS
 66
1
 70
0
  0
VERTEX
  8
0
 62
7
  6
CONTINUOUS
 10
315.1251078747
 20
261.6306732765
  0
VERTEX
  8
0
 62
7
  6
CONTINUOUS
 10
315.1196036804
 20
261.6572711215
  0
VERTEX
  8
0
 62
7
  6
CONTINUOUS
 10
315.1143108846
 20
261.6819760091
  0
VERTEX
  8
0
 62
7
  6
CONTINUOUS
 10
315.108858948
 20
261.706242429
  0
VERTEX
  8
0
 62
7
  6
CONTINUOUS
 10
315.102700081
 20
261.7318993887
  0
VERTEX
  8
0
 62
7
  6
CONTINUOUS
 10
315.0948843963
 20
261.7616504207
  0
VERTEX
  8
0
 62
7
  6
CONTINUOUS
 10
315.0839622264
 20
261.7986250569
  0
VERTEX
  8
0
 62
7
  6
CONTINUOUS
 10
315.0689127615
 20
261.842916965
  0
VERTEX
  8
0
 62
7
  6
CONTINUOUS
 10
315.0498355895
 20
261.8912796884
  0
VERTEX
  8
0
 62
7
  6
CONTINUOUS
 10
315.0266507138
 20
261.9419716522
  0
VERTEX
  8
0
 62
7
  6
CONTINUOUS
 10
314.9989815235
 20
261.9943367208
  0
VERTEX
  8
0
 62
7
  6
CONTINUOUS
 10
314.9668886558
 20
262.0471082023
  0
VERTEX
  8
0
 62
7
  6
CONTINUOUS
 10
314.9309224197
 20
262.0987220795
  0
VERTEX
  8
0
 62
7
  6
CONTINUOUS
 10
314.8910818834
 20
262.1488068717
  0
VERTEX
  8
0
 62
7
  6
CONTINUOUS
 10
314.8471425714
 20
262.1972568632
  0
VERTEX
  8
0
 62
7
  6
CONTINUOUS
 10
314.7989664117
 20
262.2437877337
  0
VERTEX
  8
0
 62
7
  6
CONTINUOUS
 10
314.7464218243
 20
262.2880641509
  0
VERTEX
  8
0
 62
7
  6
CONTINUOUS
 10
314.6893953027
 20
262.3296926099
  0
VERTEX
  8
0
 62
7
  6
CONTINUOUS
 10
314.6278383769
 20
262.36819759
  0
VERTEX
  8
0
 62
7
  6
CONTINUOUS
 10
314.5618040356
 20
262.4030256654
  0
VERTEX
  8
0
 62
7
  6
CONTINUOUS
 10
314.4914094934
 20
262.4335916831
  0
VERTEX
  8
0
 62
7
  6
CONTINUOUS
 10
314.4168401033
 20
262.4592864998
  0
VERTEX
  8
0
 62
7
  6
CONTINUOUS
 10
314.3383574075
 20
262.4794830234
  0
VERTEX
  8
0
 62
7
  6
CONTINUOUS
 10
314.2563065634
 20
262.4935439416
  0
VERTEX
  8
0
 62
7
  6
CONTINUOUS
 10
314.1711230988
 20
262.5008309446
  0
VERTEX
  8
0
 62
7
  6
CONTINUOUS
 10
314.1285473553
 20
262.5017375961
  0
SEQEND
  0
POLYLINE
  8
0
 62
7
  6
CONTINUOUS
 66
1
 70
0
  0
VERTEX
  8
0
 62
7
  6
CONTINUOUS
 10
315.2456364289
 20
256.954091078
  0
VERTEX
  8
0
 62
7
  6
CONTINUOUS
 10
315.2234043554
 20
257.0638094946
  0
VERTEX
  8
0
 62
7
  6
CONTINUOUS
 10
315.2025894035
 20
257.1619003222
  0
VERTEX
  8
0
 62
7
  6
CONTINUOUS
 10
315.1831172653
 20
257.2490665212
  0
VERTEX
  8
0
 62
7
  6
CONTINUOUS
 10
315.1648191494
 20
257.3262799957
  0
SEQEND
  0
LINE
  8
0
 62
7
  6
CONTINUOUS
 10
315.1376263344
 20
261.5678957944
 11
315.1251078747
 21
261.6306732765
  0
LINE
  8
0
 62
7
  6
CONTINUOUS
 10
315.5397577947
 20
255.4316248591
 11
315.2456364289
 21
256.954091078
  0
LINE
  8
0
 62
7
  6
CONTINUOUS
 10
315.1528317202
 20
261.4890343326
 11
315.1376263344
 21
261.5678957944
  0
LINE
  8
0
 62
7
  6
CONTINUOUS
 10
315.1813679121
 20
261.3367899806
 11
315.1528317202
 21
261.4890343326
  0
POLYLINE
  8
0
 62
7
  6
CONTINUOUS
 66
1
 70
0
  0
VERTEX
  8
0
 62
7
  6
CONTINUOUS
 10
315.2456491471
 20
260.9832909036
  0
VERTEX
  8
0
 62
7
  6
CONTINUOUS
 10
315.2311193898
 20
261.0641022742
  0
VERTEX
  8
0
 62
7
  6
CONTINUOUS
 10
315.1813679121
 20
261.3367899806
  0
SEQEND
  0
POLYLINE
  8
0
 62
7
  6
CONTINUOUS
 66
1
 70
0
  0
VERTEX
  8
0
 62
7
  6
CONTINUOUS
 10
315.0944859539
 20
63.192683907
  0
VERTEX
  8
0
 62
7
  6
CONTINUOUS
 10
315.1024457602
 20
63.2228552011
  0
VERTEX
  8
0
 62
7
  6
CONTINUOUS
 10
315.1083477815
 20
63.2473255084
  0
VERTEX
  8
0
 62
7
  6
CONTINUOUS
 10
315.1134007564
 20
63.2696531784
  0
VERTEX
  8
0
 62
7
  6
CONTINUOUS
 10
315.1183345
 20
63.292488523
  0
VERTEX
  8
0
 62
7
  6
CONTINUOUS
 10
315.1235372046
 20
63.3174294551
  0
VERTEX
  8
0
 62
7
  6
CONTINUOUS
 10
315.1292114905
 20
63.3453833406
  0
VERTEX
  8
0
 62
7
  6
CONTINUOUS
 10
315.1424593853
 20
63.4126997784
  0
SEQEND
  0
POLYLINE
  8
0
 62
7
  6
CONTINUOUS
 66
1
 70
0
  0
VERTEX
  8
0
 62
7
  6
CONTINUOUS
 10
315.1298453474
 20
257.458311917
  0
VERTEX
  8
0
 62
7
  6
CONTINUOUS
 10
315.1111151622
 20
257.5192280431
  0
VERTEX
  8
0
 62
7
  6
CONTINUOUS
 10
315.0898017206
 20
257.5801271313
  0
VERTEX
  8
0
 62
7
  6
CONTINUOUS
 10
315.0645172245
 20
257.6423632683
  0
VERTEX
  8
0
 62
7
  6
CONTINUOUS
 10
315.0329566021
 20
257.7083837042
  0
VERTEX
  8
0
 62
7
  6
CONTINUOUS
 10
314.9926213222
 20
257.7793042424
  0
VERTEX
  8
0
 62
7
  6
CONTINUOUS
 10
314.9420271206
 20
257.8534240925
  0
VERTEX
  8
0
 62
7
  6
CONTINUOUS
 10
314.8807784271
 20
257.9277031284
  0
VERTEX
  8
0
 62
7
  6
CONTINUOUS
 10
314.8087971632
 20
257.9994641686
  0
VERTEX
  8
0
 62
7
  6
CONTINUOUS
 10
314.7269801285
 20
258.0658221324
  0
VERTEX
  8
0
 62
7
  6
CONTINUOUS
 10
314.6363735817
 20
258.1246073636
  0
VERTEX
  8
0
 62
7
  6
CONTINUOUS
 10
314.5369655261
 20
258.1746591561
  0
VERTEX
  8
0
 62
7
  6
CONTINUOUS
 10
314.4289025267
 20
258.2145515343
  0
VERTEX
  8
0
 62
7
  6
CONTINUOUS
 10
314.3125558472
 20
258.2426001842
  0
VERTEX
  8
0
 62
7
  6
CONTINUOUS
 10
314.188588501
 20
258.2568740477
  0
VERTEX
  8
0
 62
7
  6
CONTINUOUS
 10
314.1360826021
 20
258.2582495798
  0
SEQEND
  0
LINE
  8
0
 62
7
  6
CONTINUOUS
 10
293.1946115974
 20
198.9778857546
 11
305.1946115974
 21
198.9778857546
  0
LINE
  8
0
 62
7
  6
CONTINUOUS
 10
317.1946115974
 20
198.9778857546
 11
329.1946115974
 21
198.9778857546
  0
LINE
  8
0
 62
7
  6
CONTINUOUS
 10
306.5446115974
 20
200.0448730527
 11
306.6946115974
 21
200.0448730527
  0
LINE
  8
0
 62
7
  6
CONTINUOUS
 10
315.6946115974
 20
200.0448730527
 11
315.8446115974
 21
200.0448730527
  0
LINE
  8
0
 62
7
  6
CONTINUOUS
 10
306.5446115974
 20
201.3962073962
 11
306.6946115974
 21
201.3962073962
  0
LINE
  8
0
 62
7
  6
CONTINUOUS
 10
315.6946115974
 20
201.3962073962
 11
315.8446115974
 21
201.3962073962
  0
POLYLINE
  8
0
 62
7
  6
CONTINUOUS
 66
1
 70
0
  0
VERTEX
  8
0
 62
7
  6
CONTINUOUS
 10
308.1672917186
 20
210.0746176877
  0
VERTEX
  8
0
 62
7
  6
CONTINUOUS
 10
308.1357316461
 20
210.0741315685
  0
VERTEX
  8
0
 62
7
  6
CONTINUOUS
 10
307.9684357443
 20
210.0551414416
  0
VERTEX
  8
0
 62
7
  6
CONTINUOUS
 10
307.8061226898
 20
210.0089367641
  0
VERTEX
  8
0
 62
7
  6
CONTINUOUS
 10
307.6552429347
 20
209.9379082656
  0
VERTEX
  8
0
 62
7
  6
CONTINUOUS
 10
307.5214606618
 20
209.8468316012
  0
VERTEX
  8
0
 62
7
  6
CONTINUOUS
 10
307.408287105
 20
209.7420957101
  0
VERTEX
  8
0
 62
7
  6
CONTINUOUS
 10
307.3173586852
 20
209.6315631258
  0
VERTEX
  8
0
 62
7
  6
CONTINUOUS
 10
307.2484153977
 20
209.524406905
  0
VERTEX
  8
0
 62
7
  6
CONTINUOUS
 10
307.2240163958
 20
209.4797676467
  0
SEQEND
  0
LINE
  8
0
 62
7
  6
CONTINUOUS
 10
308.1670797044
 20
210.0746210728
 11
314.2221434903
 21
210.0746210728
  0
LINE
  8
0
 62
7
  6
CONTINUOUS
 10
306.5446115974
 20
210.3701906
 11
306.6946115974
 21
210.3701906
  0
LINE
  8
0
 62
7
  6
CONTINUOUS
 10
315.6946115974
 20
210.3701906
 11
315.8446115974
 21
210.3701906
  0
LINE
  8
0
 62
7
  6
CONTINUOUS
 10
306.5446115974
 20
210.8701906
 11
306.6946115974
 21
210.8701906
  0
LINE
  8
0
 62
7
  6
CONTINUOUS
 10
315.6946115974
 20
210.8701906
 11
315.8446115974
 21
210.8701906
  0
LINE
  8
0
 62
7
  6
CONTINUOUS
 10
315.6946115974
 20
224.4933639262
 11
315.8446115974
 21
224.4933639262
  0
LINE
  8
0
 62
7
  6
CONTINUOUS
 10
315.6946115974
 20
224.4969221542
 11
315.8446115974
 21
224.4969221542
  0
LINE
  8
0
 62
7
  6
CONTINUOUS
 10
315.6946115974
 20
224.5889761138
 11
315.8446115974
 21
224.5889761138
  0
LINE
  8
0
 62
7
  6
CONTINUOUS
 10
315.6946115974
 20
224.7081564444
 11
315.8446115974
 21
224.7081564444
  0
LINE
  8
0
 62
7
  6
CONTINUOUS
 10
315.6946115974
 20
225.0043282227
 11
315.8446115974
 21
225.0043282227
  0
LINE
  8
0
 62
7
  6
CONTINUOUS
 10
315.6946115974
 20
226.7742422041
 11
315.8446115974
 21
226.7742422041
  0
LINE
  8
0
 62
7
  6
CONTINUOUS
 10
315.6946115974
 20
227.0632974644
 11
315.8446115974
 21
227.0632974644
  0
LINE
  8
0
 62
7
  6
CONTINUOUS
 10
315.6946115974
 20
228.219518485
 11
315.8446115974
 21
228.219518485
  0
LINE
  8
0
 62
7
  6
CONTINUOUS
 10
315.6946115974
 20
228.5085738073
 11
315.8446115974
 21
228.5085738073
  0
LINE
  8
0
 62
7
  6
CONTINUOUS
 10
315.6946115974
 20
229.1596398334
 11
315.8446115974
 21
229.1596398334
  0
LINE
  8
0
 62
7
  6
CONTINUOUS
 10
315.6946115974
 20
229.425436768
 11
315.8446115974
 21
229.425436768
  0
LINE
  8
0
 62
7
  6
CONTINUOUS
 10
315.6946115974
 20
229.5997464713
 11
315.8446115974
 21
229.5997464713
  0
LINE
  8
0
 62
7
  6
CONTINUOUS
 10
315.6946115974
 20
229.9038711591
 11
315.8446115974
 21
229.9038711591
  0
LINE
  8
0
 62
7
  6
CONTINUOUS
 10
315.6946115974
 20
230.1165087677
 11
315.8446115974
 21
230.1165087677
  0
LINE
  8
0
 62
7
  6
CONTINUOUS
 10
315.6946115974
 20
230.1844998188
 11
315.8446115974
 21
230.1844998188
  0
LINE
  8
0
 62
7
  6
CONTINUOUS
 10
315.6946115974
 20
231.1008949726
 11
315.8446115974
 21
231.1008949726
  0
LINE
  8
0
 62
7
  6
CONTINUOUS
 10
315.6946115974
 20
231.3512996034
 11
315.8446115974
 21
231.3512996034
  0
LINE
  8
0
 62
7
  6
CONTINUOUS
 10
315.6946115974
 20
232.0337066781
 11
315.8446115974
 21
232.0337066781
  0
LINE
  8
0
 62
7
  6
CONTINUOUS
 10
315.6946115974
 20
232.5001124001
 11
315.8446115974
 21
232.5001124001
  0
LINE
  8
0
 62
7
  6
CONTINUOUS
 10
315.6946115974
 20
232.7505170309
 11
315.8446115974
 21
232.7505170309
  0
LINE
  8
0
 62
7
  6
CONTINUOUS
 10
315.6946115974
 20
235.5866398811
 11
315.8446115974
 21
235.5866398811
  0
LINE
  8
0
 62
7
  6
CONTINUOUS
 10
315.6946115974
 20
237.0306767512
 11
315.8446115974
 21
237.0306767512
  0
LINE
  8
0
 62
7
  6
CONTINUOUS
 10
315.6946115974
 20
237.3792245338
 11
315.8446115974
 21
237.3792245338
  0
LINE
  8
0
 62
7
  6
CONTINUOUS
 10
315.6946115974
 20
237.560606733
 11
315.8446115974
 21
237.560606733
  0
LINE
  8
0
 62
7
  6
CONTINUOUS
 10
315.6946115974
 20
237.748778046
 11
315.8446115974
 21
237.748778046
  0
LINE
  8
0
 62
7
  6
CONTINUOUS
 10
315.6946115974
 20
237.9106353268
 11
315.8446115974
 21
237.9106353268
  0
POLYLINE
  8
0
 62
7
  6
CONTINUOUS
 66
1
 70
0
  0
VERTEX
  8
0
 62
7
  6
CONTINUOUS
 10
308.2204849664
 20
239.9082300176
  0
VERTEX
  8
0
 62
7
  6
CONTINUOUS
 10
308.0560584909
 20
239.894794547
  0
VERTEX
  8
0
 62
7
  6
CONTINUOUS
 10
307.8961740925
 20
239.8549392895
  0
VERTEX
  8
0
 62
7
  6
CONTINUOUS
 10
307.7513132426
 20
239.7932012244
  0
VERTEX
  8
0
 62
7
  6
CONTINUOUS
 10
307.6239112735
 20
239.7145224408
  0
VERTEX
  8
0
 62
7
  6
CONTINUOUS
 10
307.5152092866
 20
239.6239997868
  0
VERTEX
  8
0
 62
7
  6
CONTINUOUS
 10
307.4263359749
 20
239.5279510686
  0
VERTEX
  8
0
 62
7
  6
CONTINUOUS
 10
307.3569986557
 20
239.4332326371
  0
VERTEX
  8
0
 62
7
  6
CONTINUOUS
 10
307.3038721635
 20
239.3435972128
  0
VERTEX
  8
0
 62
7
  6
CONTINUOUS
 10
307.2621196829
 20
239.2584193007
  0
VERTEX
  8
0
 62
7
  6
CONTINUOUS
 10
307.2274594329
 20
239.1745465703
  0
VERTEX
  8
0
 62
7
  6
CONTINUOUS
 10
307.1961468612
 20
239.0860847349
  0
VERTEX
  8
0
 62
7
  6
CONTINUOUS
 10
307.1652892977
 20
238.9854133113
  0
VERTEX
  8
0
 62
7
  6
CONTINUOUS
 10
307.1429119136
 20
238.9034014037
  0
SEQEND
  0
LINE
  8
0
 62
7
  6
CONTINUOUS
 10
315.6946115974
 20
238.5041122289
 11
315.8446115974
 21
238.5041122289
  0
LINE
  8
0
 62
7
  6
CONTINUOUS
 10
315.6946115974
 20
238.6659695097
 11
315.8446115974
 21
238.6659695097
  0
LINE
  8
0
 62
7
  6
CONTINUOUS
 10
315.6946115974
 20
239.810608956
 11
315.8446115974
 21
239.810608956
  0
LINE
  8
0
 62
7
  6
CONTINUOUS
 10
308.2203378289
 20
239.9082302171
 11
314.1688853659
 21
239.9082302171
  0
LINE
  8
0
 62
7
  6
CONTINUOUS
 10
315.6946115974
 20
240.3516330975
 11
315.8446115974
 21
240.3516330975
  0
LINE
  8
0
 62
7
  6
CONTINUOUS
 10
315.6946115974
 20
240.8010020847
 11
315.8446115974
 21
240.8010020847
  0
LINE
  8
0
 62
7
  6
CONTINUOUS
 10
315.6946115974
 20
241.2779547819
 11
315.8446115974
 21
241.2779547819
  0
LINE
  8
0
 62
7
  6
CONTINUOUS
 10
315.6946115974
 20
241.5440143671
 11
315.8446115974
 21
241.5440143671
  0
LINE
  8
0
 62
7
  6
CONTINUOUS
 10
315.6946115974
 20
241.7184197246
 11
315.8446115974
 21
241.7184197246
  0
LINE
  8
0
 62
7
  6
CONTINUOUS
 10
315.6946115974
 20
241.8287536176
 11
315.8446115974
 21
241.8287536176
  0
LINE
  8
0
 62
7
  6
CONTINUOUS
 10
315.6946115974
 20
242.1653957714
 11
315.8446115974
 21
242.1653957714
  0
LINE
  8
0
 62
7
  6
CONTINUOUS
 10
315.6946115974
 20
242.2273419136
 11
315.8446115974
 21
242.2273419136
  0
LINE
  8
0
 62
7
  6
CONTINUOUS
 10
315.6946115974
 20
242.3994144257
 11
315.8446115974
 21
242.3994144257
  0
LINE
  8
0
 62
7
  6
CONTINUOUS
 10
315.6946115974
 20
242.4407118539
 11
315.8446115974
 21
242.4407118539
  0
LINE
  8
0
 62
7
  6
CONTINUOUS
 10
315.6946115974
 20
242.4734949921
 11
315.8446115974
 21
242.4734949921
  0
LINE
  8
0
 62
7
  6
CONTINUOUS
 10
315.6946115974
 20
242.4818768415
 11
315.8446115974
 21
242.4818768415
  0
POLYLINE
  8
0
 62
7
  6
CONTINUOUS
 66
1
 70
0
  0
VERTEX
  8
0
 62
7
  6
CONTINUOUS
 10
308.260675838
 20
262.501737596
  0
VERTEX
  8
0
 62
7
  6
CONTINUOUS
 10
308.2087246786
 20
262.500387388
  0
VERTEX
  8
0
 62
7
  6
CONTINUOUS
 10
308.1212284396
 20
262.4919684368
  0
VERTEX
  8
0
 62
7
  6
CONTINUOUS
 10
308.0372187158
 20
262.4764550972
  0
VERTEX
  8
0
 62
7
  6
CONTINUOUS
 10
307.9570772674
 20
262.4545450403
  0
VERTEX
  8
0
 62
7
  6
CONTINUOUS
 10
307.8810907261
 20
262.4269069668
  0
VERTEX
  8
0
 62
7
  6
CONTINUOUS
 10
307.809462937
 20
262.3941733875
  0
VERTEX
  8
0
 62
7
  6
CONTINUOUS
 10
307.7423274149
 20
262.3569356698
  0
VERTEX
  8
0
 62
7
  6
CONTINUOUS
 10
307.6797593646
 20
262.3157412391
  0
VERTEX
  8
0
 62
7
  6
CONTINUOUS
 10
307.6217865792
 20
262.2710924445
  0
VERTEX
  8
0
 62
7
  6
CONTINUOUS
 10
307.5684503374
 20
262.2234957854
  0
VERTEX
  8
0
 62
7
  6
CONTINUOUS
 10
307.5197720938
 20
262.1734537442
  0
VERTEX
  8
0
 62
7
  6
CONTINUOUS
 10
307.4757207248
 20
262.1214336863
  0
VERTEX
  8
0
 62
7
  6
CONTINUOUS
 10
307.4362211427
 20
262.0678635807
  0
VERTEX
  8
0
 62
7
  6
CONTINUOUS
 10
307.4011730329
 20
262.0131469125
  0
VERTEX
  8
0
 62
7
  6
CONTINUOUS
 10
307.3704043142
 20
261.9575704337
  0
VERTEX
  8
0
 62
7
  6
CONTINUOUS
 10
307.344150584
 20
261.9023200502
  0
VERTEX
  8
0
 62
7
  6
CONTINUOUS
 10
307.3227719275
 20
261.8495840694
  0
VERTEX
  8
0
 62
7
  6
CONTINUOUS
 10
307.3061459862
 20
261.8014215569
  0
VERTEX
  8
0
 62
7
  6
CONTINUOUS
 10
307.2944481187
 20
261.7620454662
  0
VERTEX
  8
0
 62
7
  6
CONTINUOUS
 10
307.2865665015
 20
261.7320731171
  0
VERTEX
  8
0
 62
7
  6
CONTINUOUS
 10
307.2806984884
 20
261.7076847736
  0
VERTEX
  8
0
 62
7
  6
CONTINUOUS
 10
307.2756518003
 20
261.6853443048
  0
VERTEX
  8
0
 62
7
  6
CONTINUOUS
 10
307.2707054736
 20
261.6624182671
  0
VERTEX
  8
0
 62
7
  6
CONTINUOUS
 10
307.2654804436
 20
261.6373417838
  0
VERTEX
  8
0
 62
7
  6
CONTINUOUS
 10
307.2597782862
 20
261.6092245644
  0
VERTEX
  8
0
 62
7
  6
CONTINUOUS
 10
307.2464645826
 20
261.5415265054
  0
SEQEND
  0
POLYLINE
  8
0
 62
7
  6
CONTINUOUS
 66
1
 70
0
  0
VERTEX
  8
0
 62
7
  6
CONTINUOUS
 10
308.253140595
 20
258.2582495797
  0
VERTEX
  8
0
 62
7
  6
CONTINUOUS
 10
308.20113185
 20
258.2568999908
  0
VERTEX
  8
0
 62
7
  6
CONTINUOUS
 10
308.0773658615
 20
258.2427247901
  0
VERTEX
  8
0
 62
7
  6
CONTINUOUS
 10
307.9611856204
 20
258.2148151048
  0
VERTEX
  8
0
 62
7
  6
CONTINUOUS
 10
307.853254622
 20
258.1750930423
  0
VERTEX
  8
0
 62
7
  6
CONTINUOUS
 10
307.7539461077
 20
258.1252369287
  0
VERTEX
  8
0
 62
7
  6
CONTINUOUS
 10
307.6634087248
 20
258.0666693133
  0
VERTEX
  8
0
 62
7
  6
CONTINUOUS
 10
307.5816354477
 20
258.0005526933
  0
VERTEX
  8
0
 62
7
  6
CONTINUOUS
 10
307.5096494125
 20
257.9290285986
  0
VERTEX
  8
0
 62
7
  6
CONTINUOUS
 10
307.448350536
 20
257.8549637328
  0
VERTEX
  8
0
 62
7
  6
CONTINUOUS
 10
307.397674386
 20
257.7810275551
  0
VERTEX
  8
0
 62
7
  6
CONTINUOUS
 10
307.3572329297
 20
257.7102401284
  0
VERTEX
  8
0
 62
7
  6
CONTINUOUS
 10
307.3255336994
 20
257.644244342
  0
VERTEX
  8
0
 62
7
  6
CONTINUOUS
 10
307.3000931233
 20
257.5819112307
  0
VERTEX
  8
0
 62
7
  6
CONTINUOUS
 10
307.2786525569
 20
257.5208926407
  0
VERTEX
  8
0
 62
7
  6
CONTINUOUS
 10
307.2598610848
 20
257.4599732428
  0
SEQEND
  0
LINE
  8
0
 62
7
  6
CONTINUOUS
 10
308.2529559089
 20
258.2582531947
 11
314.1362672858
 21
258.2582531947
  0
LINE
  8
0
 62
7
  6
CONTINUOUS
 10
308.2602946693
 20
262.5017406756
 11
314.1289285255
 21
262.5017406756
  0
ARC
  8
0
 62
7
  6
CONTINUOUS
 10
68.3933575965
 20
83.4445608214
 40
9.525
 50
340.5
 51
45.0
  0
ARC
  8
0
 62
7
  6
CONTINUOUS
 10
42.3346070235
 20
110.5050248167
 40
9.525
 50
318.0
 51
22.5
  0
ARC
  8
0
 62
7
  6
CONTINUOUS
 10
61.1985460979
 20
101.2813293768
 40
2.0
 50
45.0
 51
125.0
  0
ARC
  8
0
 62
7
  6
CONTINUOUS
 10
49.3607552878
 20
97.8755173708
 40
2.0
 50
221.1118030147
 51
305.0
  0
ARC
  8
0
 62
7
  6
CONTINUOUS
 10
47.9547075069
 20
99.5229365109
 40
2.0
 50
138.0
 51
219.8487262651
  0
ARC
  8
0
 62
7
  6
CONTINUOUS
 10
71.5930157814
 20
92.3010732557
 40
1.5
 50
3.5903929576
 51
45.0
  0
ARC
  8
0
 62
7
  6
CONTINUOUS
 10
64.5219479695
 20
99.3721410676
 40
1.5
 50
45.0
 51
86.4096073479
  0
ARC
  8
0
 62
7
  6
CONTINUOUS
 10
73.5890902998
 20
92.4263190808
 40
0.5
 50
183.5903191532
 51
225.0
  0
ARC
  8
0
 62
7
  6
CONTINUOUS
 10
64.6471937946
 20
101.3682155861
 40
0.5
 50
225.0
 51
266.4096666669
  0
ARC
  8
0
 62
7
  6
CONTINUOUS
 10
28.6150519694
 20
145.4778857546
 40
9.525
 50
295.5
 51
360.0
  0
ARC
  8
0
 62
7
  6
CONTINUOUS
 10
42.5133037528
 20
129.7373853707
 40
2.0
 50
22.5
 51
102.5
  0
ARC
  8
0
 62
7
  6
CONTINUOUS
 10
30.2732632847
 20
131.1209517856
 40
2.0
 50
198.6118030147
 51
282.5
  0
ARC
  8
0
 62
7
  6
CONTINUOUS
 10
29.6046845293
 20
133.1810398015
 40
2.0
 50
115.5
 51
197.3487262651
  0
ARC
  8
0
 62
7
  6
CONTINUOUS
 10
48.6799463087
 20
117.4629192076
 40
1.5
 50
341.0903658021
 51
22.5
  0
ARC
  8
0
 62
7
  6
CONTINUOUS
 10
44.853111985
 20
126.7017145327
 40
1.5
 50
22.5
 51
63.9095793194
  0
ARC
  8
0
 62
7
  6
CONTINUOUS
 10
37.1400519694
 20
149.4778857546
 40
1.5
 50
318.5903296659
 51
360.0
  0
ARC
  8
0
 62
7
  6
CONTINUOUS
 10
37.1400519694
 20
159.4778857546
 40
1.5
 50
0.0
 51
41.4096693646
  0
ARC
  8
0
 62
7
  6
CONTINUOUS
 10
50.5720082039
 20
116.814766614
 40
0.5
 50
161.0904248999
 51
202.4996258977
  0
ARC
  8
0
 62
7
  6
CONTINUOUS
 10
45.7326886873
 20
128.4979174235
 40
0.5
 50
202.5000018335
 51
243.9097504788
  0
ARC
  8
0
 62
7
  6
CONTINUOUS
 10
38.6400519694
 20
148.1550100991
 40
0.5
 50
138.5905225653
 51
179.9998505375
  0
ARC
  8
0
 62
7
  6
CONTINUOUS
 10
38.6400519694
 20
160.8007614101
 40
0.5
 50
180.0001453049
 51
221.4094803431
  0
ARC
  8
0
 62
7
  6
CONTINUOUS
 10
102.8240951368
 20
68.4162041083
 40
9.525
 50
3.0
 51
67.5
  0
ARC
  8
0
 62
7
  6
CONTINUOUS
 10
122.6850519694
 20
75.2328857546
 40
2.0
 50
90.0
 51
170.0
  0
ARC
  8
0
 62
7
  6
CONTINUOUS
 10
116.7227425781
 20
64.4540308336
 40
2.0
 50
266.1118030147
 51
350.0
  0
ARC
  8
0
 62
7
  6
CONTINUOUS
 10
114.5636154121
 20
64.6247061585
 40
2.0
 50
183.0
 51
264.8487262651
  0
ARC
  8
0
 62
7
  6
CONTINUOUS
 10
89.3511202399
 20
82.1418943433
 40
2.0
 50
67.5
 51
147.5
  0
ARC
  8
0
 62
7
  6
CONTINUOUS
 10
79.7177754287
 20
74.4652079206
 40
2.0
 50
243.6118030147
 51
327.5
  0
ARC
  8
0
 62
7
  6
CONTINUOUS
 10
77.7883166511
 20
75.4491535547
 40
2.0
 50
160.5
 51
242.3487262651
  0
ARC
  8
0
 62
7
  6
CONTINUOUS
 10
102.3909532677
 20
77.8230108524
 40
1.5
 50
26.0904215624
 51
67.5
  0
ARC
  8
0
 62
7
  6
CONTINUOUS
 10
93.1521579426
 20
81.6498451761
 40
1.5
 50
67.5
 51
108.9096339564
  0
ARC
  8
0
 62
7
  6
CONTINUOUS
 10
104.1871561584
 20
78.7025875547
 40
0.5
 50
206.0902077633
 51
247.5000034583
  0
ARC
  8
0
 62
7
  6
CONTINUOUS
 10
92.5040053489
 20
83.5419070713
 40
0.5
 50
247.5002910686
 51
288.9095863503
  0
ARC
  8
0
 62
7
  6
CONTINUOUS
 10
29.3233703231
 20
183.0388425872
 40
9.525
 50
273.0
 51
337.5
  0
ARC
  8
0
 62
7
  6
CONTINUOUS
 10
36.1400519694
 20
163.1778857546
 40
2.0
 50
0.0
 51
80.0
  0
ARC
  8
0
 62
7
  6
CONTINUOUS
 10
25.3611970484
 20
169.1401951459
 40
2.0
 50
176.1118030147
 51
260.0
  0
ARC
  8
0
 62
7
  6
CONTINUOUS
 10
25.5318723733
 20
171.2993223118
 40
2.0
 50
93.0
 51
174.8487262651
  0
ARC
  8
0
 62
7
  6
CONTINUOUS
 10
43.0490605581
 20
196.5118174841
 40
2.0
 50
337.5
 51
57.5
  0
ARC
  8
0
 62
7
  6
CONTINUOUS
 10
35.3723741353
 20
206.1451622953
 40
2.0
 50
153.6118030147
 51
237.5
  0
ARC
  8
0
 62
7
  6
CONTINUOUS
 10
36.3563197695
 20
208.0746210728
 40
2.0
 50
70.5
 51
152.3487262651
  0
ARC
  8
0
 62
7
  6
CONTINUOUS
 10
38.7301770672
 20
183.4719844563
 40
1.5
 50
296.0904215624
 51
337.5
  0
ARC
  8
0
 62
7
  6
CONTINUOUS
 10
42.5570113908
 20
192.7107797814
 40
1.5
 50
337.5
 51
18.9096339564
  0
ARC
  8
0
 62
7
  6
CONTINUOUS
 10
39.6097537695
 20
181.6757815655
 40
0.5
 50
116.0902468759
 51
157.4999971718
  0
ARC
  8
0
 62
7
  6
CONTINUOUS
 10
44.4490732861
 20
193.3589323751
 40
0.5
 50
157.5002887758
 51
198.9095865679
  0
ARC
  8
0
 62
7
  6
CONTINUOUS
 10
71.4121910314
 20
243.5283307005
 40
9.525
 50
228.0
 51
292.5
  0
ARC
  8
0
 62
7
  6
CONTINUOUS
 10
44.3517270361
 20
217.4695801275
 40
9.525
 50
250.5
 51
315.0
  0
ARC
  8
0
 62
7
  6
CONTINUOUS
 10
60.4301027257
 20
237.9082302171
 40
2.0
 50
48.0
 51
129.8487262651
  0
ARC
  8
0
 62
7
  6
CONTINUOUS
 10
58.7826835856
 20
236.5021824362
 40
2.0
 50
131.1118030147
 51
215.0
  0
ARC
  8
0
 62
7
  6
CONTINUOUS
 10
62.1884955916
 20
224.6643916261
 40
2.0
 50
315.0
 51
35.0
  0
ARC
  8
0
 62
7
  6
CONTINUOUS
 10
60.2793072824
 20
221.3409897545
 40
1.5
 50
315.0
 51
356.4096073479
  0
ARC
  8
0
 62
7
  6
CONTINUOUS
 10
53.2082394705
 20
214.2699219426
 40
1.5
 50
273.5903929576
 51
315.0
  0
ARC
  8
0
 62
7
  6
CONTINUOUS
 10
62.2753818008
 20
221.2157439294
 40
0.5
 50
135.0
 51
176.4096666669
  0
ARC
  8
0
 62
7
  6
CONTINUOUS
 10
53.3334852956
 20
212.2738474241
 40
0.5
 50
93.5903191532
 51
135.0
  0
ARC
  8
0
 62
7
  6
CONTINUOUS
 10
118.922639664
 20
198.7040762308
 40
1.5
 50
277.022428729
 51
313.3556557296
  0
ARC
  8
0
 62
7
  6
CONTINUOUS
 10
106.3850519694
 20
257.2478857546
 40
9.525
 50
205.5
 51
270.0
  0
ARC
  8
0
 62
7
  6
CONTINUOUS
 10
94.0882060163
 20
256.2582531947
 40
2.0
 50
25.5
 51
107.3487262651
  0
ARC
  8
0
 62
7
  6
CONTINUOUS
 10
92.0281180004
 20
255.5896744393
 40
2.0
 50
108.6118030147
 51
192.5
  0
ARC
  8
0
 62
7
  6
CONTINUOUS
 10
90.6445515854
 20
243.3496339712
 40
2.0
 50
292.5
 51
12.5
  0
ARC
  8
0
 62
7
  6
CONTINUOUS
 10
110.3850519694
 20
248.7228857546
 40
1.5
 50
228.5903296659
 51
270.0
  0
ARC
  8
0
 62
7
  6
CONTINUOUS
 10
120.3850519694
 20
248.7228857546
 40
1.5
 50
270.0
 51
311.4096693646
  0
ARC
  8
0
 62
7
  6
CONTINUOUS
 10
87.6088807475
 20
241.0098257389
 40
1.5
 50
292.5
 51
333.9095793194
  0
ARC
  8
0
 62
7
  6
CONTINUOUS
 10
78.3700854224
 20
237.1829914153
 40
1.5
 50
251.0903658021
 51
292.5
  0
ARC
  8
0
 62
7
  6
CONTINUOUS
 10
109.0621763138
 20
247.2228857546
 40
0.5
 50
48.5905656183
 51
89.9998146775
  0
ARC
  8
0
 62
7
  6
CONTINUOUS
 10
121.7079276249
 20
247.2228857546
 40
0.5
 50
90.0001453049
 51
131.4094803431
  0
ARC
  8
0
 62
7
  6
CONTINUOUS
 10
89.4050836383
 20
240.1302490366
 40
0.5
 50
112.5000022023
 51
153.9097512696
  0
ARC
  8
0
 62
7
  6
CONTINUOUS
 10
77.7219328287
 20
235.2909295201
 40
0.5
 50
71.0904248999
 51
112.4996258977
  0
ARC
  8
0
 62
7
  6
CONTINUOUS
 10
140.3850519694
 20
67.7078857546
 40
9.525
 50
25.5
 51
90.0
  0
ARC
  8
0
 62
7
  6
CONTINUOUS
 10
156.1255523533
 20
81.606137538
 40
2.0
 50
112.5
 51
192.5
  0
ARC
  8
0
 62
7
  6
CONTINUOUS
 10
154.7419859384
 20
69.3660970699
 40
2.0
 50
288.6118030147
 51
12.5
  0
ARC
  8
0
 62
7
  6
CONTINUOUS
 10
152.6818979225
 20
68.6975183145
 40
2.0
 50
205.5
 51
287.3487262651
  0
ARC
  8
0
 62
7
  6
CONTINUOUS
 10
168.4000185163
 20
87.7727800939
 40
1.5
 50
71.0903658021
 51
112.5
  0
ARC
  8
0
 62
7
  6
CONTINUOUS
 10
159.1612231912
 20
83.9459457703
 40
1.5
 50
112.5
 51
153.9095793194
  0
ARC
  8
0
 62
7
  6
CONTINUOUS
 10
136.3850519694
 20
76.2328857546
 40
1.5
 50
48.5903296659
 51
90.0
  0
ARC
  8
0
 62
7
  6
CONTINUOUS
 10
126.3850519694
 20
76.2328857546
 40
1.5
 50
90.0
 51
131.4096693646
  0
ARC
  8
0
 62
7
  6
CONTINUOUS
 10
169.04817111
 20
89.6648419891
 40
0.5
 50
251.0904141567
 51
292.4997039038
  0
ARC
  8
0
 62
7
  6
CONTINUOUS
 10
157.3650203005
 20
84.8255224726
 40
0.5
 50
292.5000018335
 51
333.9097504788
  0
ARC
  8
0
 62
7
  6
CONTINUOUS
 10
137.7079276249
 20
77.7328857546
 40
0.5
 50
228.5905225653
 51
269.9998505375
  0
ARC
  8
0
 62
7
  6
CONTINUOUS
 10
125.0621763138
 20
77.7328857546
 40
0.5
 50
270.0001453049
 51
311.4094803431
  0
ARC
  8
0
 62
7
  6
CONTINUOUS
 10
202.4183769026
 20
107.4861913817
 40
9.525
 50
70.5
 51
135.0
  0
ARC
  8
0
 62
7
  6
CONTINUOUS
 10
175.3579129073
 20
81.4274408087
 40
9.525
 50
48.0
 51
112.5
  0
ARC
  8
0
 62
7
  6
CONTINUOUS
 10
184.5816083472
 20
100.2913798832
 40
2.0
 50
135.0
 51
215.0
  0
ARC
  8
0
 62
7
  6
CONTINUOUS
 10
187.9874203531
 20
88.453589073
 40
2.0
 50
311.1118030147
 51
35.0
  0
ARC
  8
0
 62
7
  6
CONTINUOUS
 10
186.340001213
 20
87.0475412921
 40
2.0
 50
228.0
 51
309.8487262651
  0
ARC
  8
0
 62
7
  6
CONTINUOUS
 10
193.5618644682
 20
110.6858495666
 40
1.5
 50
93.5903929576
 51
135.0
  0
ARC
  8
0
 62
7
  6
CONTINUOUS
 10
186.4907966564
 20
103.6147817547
 40
1.5
 50
135.0
 51
176.4096073479
  0
CIRCLE
  8
LAY0001
 62
7
  6
CONTINUOUS
 10
174.438161571
 20
102.1970326585
 40
1.275
  0
ARC
  8
LAY0001
 62
7
  6
CONTINUOUS
 10
173.8724761461
 20
105.0608151223
 40
1.0
 50
225.0
 51
315.0
  0
ARC
  8
LAY0001
 62
7
  6
CONTINUOUS
 10
176.4180605584
 20
108.0306636032
 40
1.0
 50
45.0
 51
135.0
  0
ARC
  8
LAY0001
 62
7
  6
CONTINUOUS
 10
174.1211433432
 20
105.1680609631
 40
0.9
 50
315.0
 51
11.2510114041
  0
ARC
  8
LAY0001
 62
7
  6
CONTINUOUS
 10
176.1693933613
 20
107.9234177624
 40
0.9
 50
135.0
 51
191.2510114041
  0
ARC
  8
LAY0001
 62
7
  6
CONTINUOUS
 10
174.0846081804
 20
105.5557898691
 40
0.5
 50
315.0
 51
45.0
  0
ARC
  8
LAY0001
 62
7
  6
CONTINUOUS
 10
176.205928524
 20
107.5356888564
 40
0.5
 50
135.0
 51
225.0
  0
ARC
  8
0
 62
7
  6
CONTINUOUS
 10
193.4366186431
 20
112.6819240851
 40
0.5
 50
273.59033269
 51
315.0
  0
ARC
  8
0
 62
7
  6
CONTINUOUS
 10
184.4947221379
 20
103.7400275798
 40
0.5
 50
315.0
 51
356.4096663934
  0
ARC
  8
LAY0001
 62
7
  6
CONTINUOUS
 10
173.9785421633
 20
105.0961704613
 40
0.25
 50
225.0
 51
315.0
  0
ARC
  8
LAY0001
 62
7
  6
CONTINUOUS
 10
176.3119945412
 20
107.9953082642
 40
0.25
 50
45.0
 51
135.0
  0
ARC
  8
0
 62
7
  6
CONTINUOUS
 10
217.4467336157
 20
141.9169289221
 40
9.525
 50
93.0
 51
157.5
  0
ARC
  8
0
 62
7
  6
CONTINUOUS
 10
210.6300519694
 20
161.7778857546
 40
2.0
 50
180.0
 51
260.0
  0
ARC
  8
0
 62
7
  6
CONTINUOUS
 10
221.4089068904
 20
155.8155763633
 40
2.0
 50
356.1118030147
 51
80.0
  0
ARC
  8
0
 62
7
  6
CONTINUOUS
 10
221.2382315655
 20
153.6564491974
 40
2.0
 50
273.0
 51
354.8487262651
  0
ARC
  8
0
 62
7
  6
CONTINUOUS
 10
203.7210433807
 20
128.4439540252
 40
2.0
 50
157.5
 51
237.5
  0
ARC
  8
0
 62
7
  6
CONTINUOUS
 10
211.3977298034
 20
118.8106092139
 40
2.0
 50
333.6118030147
 51
57.5
  0
ARC
  8
0
 62
7
  6
CONTINUOUS
 10
210.4137841692
 20
116.8811504364
 40
2.0
 50
250.5
 51
332.3487262651
  0
ARC
  8
0
 62
7
  6
CONTINUOUS
 10
208.0399268715
 20
141.4837870529
 40
1.5
 50
116.0904215624
 51
157.5
  0
ARC
  8
0
 62
7
  6
CONTINUOUS
 10
204.2130925479
 20
132.2449917278
 40
1.5
 50
157.5
 51
198.9096339564
  0
ARC
  8
0
 62
7
  6
CONTINUOUS
 10
207.1603501692
 20
143.2799899437
 40
0.5
 50
296.0902468759
 51
337.4999971718
  0
ARC
  8
0
 62
7
  6
CONTINUOUS
 10
202.3210306527
 20
131.5968391342
 40
0.5
 50
337.5002887758
 51
18.9095865679
  0
ARC
  8
0
 62
7
  6
CONTINUOUS
 10
123.3850519694
 20
162.4778857546
 40
100.25
 50
84.8487262651
 51
86.1118030147
  0
ARC
  8
0
 62
7
  6
CONTINUOUS
 10
123.3850519694
 20
162.4778857546
 40
100.25
 50
242.3487262651
 51
243.6118030147
  0
ARC
  8
0
 62
7
  6
CONTINUOUS
 10
123.3850519694
 20
162.4778857546
 40
100.25
 50
219.8487262651
 51
221.1118030147
  0
ARC
  8
0
 62
7
  6
CONTINUOUS
 10
123.3850519694
 20
162.4778857546
 40
100.25
 50
197.3487262651
 51
198.6118030147
  0
ARC
  8
0
 62
7
  6
CONTINUOUS
 10
123.3850519694
 20
162.4778857546
 40
100.25
 50
174.8487262651
 51
176.1118030147
  0
ARC
  8
0
 62
7
  6
CONTINUOUS
 10
123.3850519694
 20
162.4778857546
 40
100.25
 50
152.3487262651
 51
153.6118030147
  0
ARC
  8
0
 62
7
  6
CONTINUOUS
 10
123.3850519694
 20
162.4778857546
 40
100.25
 50
129.8487262651
 51
131.1118030147
  0
ARC
  8
0
 62
7
  6
CONTINUOUS
 10
123.3850519694
 20
162.4778857546
 40
100.25
 50
107.3487262651
 51
108.6118030147
  0
ARC
  8
0
 62
7
  6
CONTINUOUS
 10
123.3850519694
 20
162.4778857546
 40
100.25
 50
62.3487262651
 51
63.6118030147
  0
ARC
  8
0
 62
7
  6
CONTINUOUS
 10
123.3850519694
 20
162.4778857546
 40
100.25
 50
39.8487262651
 51
41.1118030147
  0
ARC
  8
0
 62
7
  6
CONTINUOUS
 10
123.3850519694
 20
162.4778857546
 40
100.25
 50
17.3487262651
 51
18.6118030147
  0
ARC
  8
0
 62
7
  6
CONTINUOUS
 10
123.3850519694
 20
162.4778857546
 40
100.25
 50
354.8487262651
 51
356.1118030147
  0
ARC
  8
0
 62
7
  6
CONTINUOUS
 10
123.3850519694
 20
162.4778857546
 40
100.25
 50
332.3487262651
 51
333.6118030147
  0
ARC
  8
0
 62
7
  6
CONTINUOUS
 10
123.3850519694
 20
162.4778857546
 40
100.25
 50
309.8487262651
 51
311.1118030147
  0
ARC
  8
0
 62
7
  6
CONTINUOUS
 10
123.3850519694
 20
162.4778857546
 40
100.25
 50
287.3487262651
 51
288.6118030147
  0
ARC
  8
0
 62
7
  6
CONTINUOUS
 10
123.3850519694
 20
162.4778857546
 40
100.25
 50
264.8487262651
 51
266.1118030147
  0
ARC
  8
0
 62
7
  6
CONTINUOUS
 10
123.3850519694
 20
162.4778857546
 40
35.0
 50
97.022428729
 51
82.977571271
  0
CIRCLE
  8
0
 62
4
  6
CONTINUOUS
 10
123.3850519694
 20
162.4778857546
 40
9.525
  0
ARC
  8
0
 62
7
  6
CONTINUOUS
 10
123.3850519694
 20
193.9778857546
 40
5.0
 50
46.6443442704
 51
133.3556557296
  0
ARC
  8
0
 62
7
  6
CONTINUOUS
 10
127.8474642747
 20
198.7040762308
 40
1.5
 50
226.6443442704
 51
262.977571271
  0
ARC
  8
0
 62
7
  6
CONTINUOUS
 10
143.9460088019
 20
256.5395674009
 40
9.525
 50
183.0
 51
247.5
  0
ARC
  8
0
 62
7
  6
CONTINUOUS
 10
124.0850519694
 20
249.7228857546
 40
2.0
 50
270.0
 51
350.0
  0
ARC
  8
0
 62
7
  6
CONTINUOUS
 10
130.0473613606
 20
260.5017406756
 40
2.0
 50
86.1118030147
 51
170.0
  0
ARC
  8
0
 62
7
  6
CONTINUOUS
 10
132.2064885266
 20
260.3310653507
 40
2.0
 50
3.0
 51
84.8487262651
  0
ARC
  8
0
 62
7
  6
CONTINUOUS
 10
157.4189836988
 20
242.8138771659
 40
2.0
 50
247.5
 51
327.5
  0
ARC
  8
0
 62
7
  6
CONTINUOUS
 10
167.05232851
 20
250.4905635887
 40
2.0
 50
63.6118030147
 51
147.5
  0
ARC
  8
0
 62
7
  6
CONTINUOUS
 10
168.9817872876
 20
249.5066179545
 40
2.0
 50
340.5
 51
62.3487262651
  0
ARC
  8
0
 62
7
  6
CONTINUOUS
 10
144.379150671
 20
247.1327606568
 40
1.5
 50
206.0904215624
 51
247.5
  0
ARC
  8
0
 62
7
  6
CONTINUOUS
 10
153.6179459962
 20
243.3059263331
 40
1.5
 50
247.5
 51
288.9096339564
  0
ARC
  8
0
 62
7
  6
CONTINUOUS
 10
142.5829477803
 20
246.2531839545
 40
0.5
 50
26.0902468759
 51
67.4999971718
  0
ARC
  8
0
 62
7
  6
CONTINUOUS
 10
154.2660985898
 20
241.4138644379
 40
0.5
 50
67.5002887758
 51
108.9095865679
  0
ARC
  8
0
 62
7
  6
CONTINUOUS
 10
218.1550519694
 20
179.4778857546
 40
9.525
 50
115.5
 51
180.0
  0
ARC
  8
0
 62
7
  6
CONTINUOUS
 10
204.256800186
 20
195.2183861385
 40
2.0
 50
202.5
 51
282.5
  0
ARC
  8
0
 62
7
  6
CONTINUOUS
 10
216.4968406541
 20
193.8348197236
 40
2.0
 50
18.6118030147
 51
102.5
  0
ARC
  8
0
 62
7
  6
CONTINUOUS
 10
217.1654194095
 20
191.7747317077
 40
2.0
 50
295.5
 51
17.3487262651
  0
ARC
  8
0
 62
7
  6
CONTINUOUS
 10
198.0901576301
 20
207.4928523016
 40
1.5
 50
161.0903658021
 51
202.5
  0
ARC
  8
0
 62
7
  6
CONTINUOUS
 10
201.9169919537
 20
198.2540569765
 40
1.5
 50
202.5
 51
243.9095793194
  0
ARC
  8
0
 62
7
  6
CONTINUOUS
 10
209.6300519694
 20
175.4778857546
 40
1.5
 50
138.5903296659
 51
180.0
  0
ARC
  8
0
 62
7
  6
CONTINUOUS
 10
209.6300519694
 20
165.4778857546
 40
1.5
 50
180.0
 51
221.4096693646
  0
ARC
  8
0
 62
7
  6
CONTINUOUS
 10
196.1980957348
 20
208.1410048952
 40
0.5
 50
341.0904141567
 51
22.4997039038
  0
ARC
  8
0
 62
7
  6
CONTINUOUS
 10
201.0374152514
 20
196.4578540857
 40
0.5
 50
22.5000018335
 51
63.9097504788
  0
ARC
  8
0
 62
7
  6
CONTINUOUS
 10
208.1300519694
 20
176.8007614101
 40
0.5
 50
318.5905225653
 51
359.9998505375
  0
ARC
  8
0
 62
7
  6
CONTINUOUS
 10
208.1300519694
 20
164.1550100991
 40
0.5
 50
0.0001453049
 51
41.4094803431
  0
ARC
  8
0
 62
7
  6
CONTINUOUS
 10
178.3767463422
 20
241.5112106878
 40
9.525
 50
160.5
 51
225.0
  0
ARC
  8
0
 62
7
  6
CONTINUOUS
 10
204.4354969153
 20
214.4507466925
 40
9.525
 50
138.0
 51
202.5
  0
ARC
  8
0
 62
7
  6
CONTINUOUS
 10
185.5715578408
 20
223.6744421324
 40
2.0
 50
225.0
 51
305.0
  0
ARC
  8
0
 62
7
  6
CONTINUOUS
 10
197.409348651
 20
227.0802541384
 40
2.0
 50
41.1118030147
 51
125.0
  0
ARC
  8
0
 62
7
  6
CONTINUOUS
 10
198.8153964318
 20
225.4328349983
 40
2.0
 50
318.0
 51
39.8487262651
  0
ARC
  8
0
 62
7
  6
CONTINUOUS
 10
175.1770881574
 20
232.6546982535
 40
1.5
 50
183.5903929576
 51
225.0
  0
ARC
  8
0
 62
7
  6
CONTINUOUS
 10
182.2481559692
 20
225.5836304416
 40
1.5
 50
225.0
 51
266.4096073479
  0
ARC
  8
0
 62
7
  6
CONTINUOUS
 10
173.1810136389
 20
232.5294524284
 40
0.5
 50
3.59033269
 51
45.0
  0
ARC
  8
0
 62
7
  6
CONTINUOUS
 10
182.1229101442
 20
223.5875559231
 40
0.5
 50
45.0
 51
86.4096663934
  0
ARC
  8
0
 62
7
  6
CONTINUOUS
 10
293.1946115974
 20
197.4778857546
 40
1.5
 50
90.0
 51
180.0
  0
ARC
  8
0
 62
7
  6
CONTINUOUS
 10
305.1946115974
 20
200.4778857546
 40
1.5
 50
270.0
 51
334.3478983005
  0
ARC
  8
0
 62
7
  6
CONTINUOUS
 10
293.1946115974
 20
128.9778857546
 40
1.5
 50
180.0
 51
270.0
  0
ARC
  8
0
 62
7
  6
CONTINUOUS
 10
305.1946115974
 20
125.9778857546
 40
1.5
 50
0.0
 51
90.0
  0
ARC
  8
0
 62
7
  6
CONTINUOUS
 10
317.1946115974
 20
200.4778857546
 40
1.5
 50
205.6521016995
 51
270.0
  0
ARC
  8
0
 62
7
  6
CONTINUOUS
 10
329.1946115974
 20
197.4778857546
 40
1.5
 50
0.0
 51
90.0
  0
ARC
  8
0
 62
7
  6
CONTINUOUS
 10
317.1946115974
 20
125.9778857546
 40
1.5
 50
90.0
 51
180.0
  0
ARC
  8
0
 62
7
  6
CONTINUOUS
 10
329.1946115974
 20
128.9778857546
 40
1.5
 50
270.0
 51
360.0
  0
ENDSEC
  0
EOF
