  0
SECTION
  2
HEADER
  9
$EXTMAX
 10
210.0
 20
297.0
 30
0.0
  9
$EXTMIN
 10
0.0
 20
0.0
 30
0.0
  9
$LIMMIN
 10
0.0
 20
0.0
  9
$LIMMAX
 10
210.0
 20
297.0
  9
$VIEWCTR
 10
105.0
 20
148.5
  9
$VIEWSIZE
 40
297.0
  9
$CLAYER
  8
0
  9
$LTSCALE
 40
19.36
  9
$CELTYPE
  6
BYLAYER
  9
$DIMSCALE
 40
1.0
  9
$DIMASZ
 40
3.5
  9
$DIMEXO
 40
2.2
  9
$DIMDLI
 40
13.376
  9
$DIMEXE
 40
6.336
  9
$DIMCEN
 40
3.168
  9
$DIMLFAC
 40
1.0
  9
$DIMBLK
  1
_FILLED
  9
$DIMTXT
 40
3.5
  9
$PDMODE
 70
3
  9
$PDSIZE
 40
0.3125
  9
$TILEMODE
 70
1
  0
ENDSEC
  0
SECTION
  2
TABLES
  0
TABLE
  2
LTYPE
 70
6
  0
LTYPE
  2
BYBLOCK
 70
0
  3

 72
65
 73
0
 40
0.0
  0
LTYPE
  2
BYLAYER
 70
0
  3

 72
65
 73
0
 40
0.0
  0
LTYPE
  2
CONTINUOUS
 70
64
  3
Solid line
 72
65
 73
0
 40
0.0
  0
LTYPE
  2
CENTER
 70
64
  3
____ _ ____ _ ____ _ ____ _ ____ _ ____ _ ____
 72
65
 73
4
 40
0.6
 49
0.375
 49
-0.075
 49
0.075
 49
-0.075
  0
LTYPE
  2
HIDDEN
 70
64
  3
- - - - - - - - - - - - - - - - - - - -
 72
65
 73
2
 40
0.2
 49
0.1
 49
-0.1
  0
LTYPE
  2
PHANTOM
 70
64
  3
_____ _ _ _____ _ _ _____ _ _ _____
 72
65
 73
6
 40
0.8
 49
0.45
 49
-0.05
 49
0.1
 49
-0.05
 49
0.1
 49
-0.05
  0
LTYPE
  2
DOT
 70
64
  3
. . . . . . . . . . . . . . . . . . . .
 72
65
 73
2
 40
0.2
 49
0.1
 49
-0.1
  0
LTYPE
  2
DASHED
 70
64
  3
- - - - - - - - - - - - - - - - - - - -
 72
65
 73
2
 40
0.2
 49
0.1
 49
-0.1
  0
ENDTAB
  0
TABLE
  2
LAYER
 70
36
  0
LAYER
  2
0
 70
0
 62
7
  6
CONTINUOUS
  0
LAYER
  2
DEFAULT_1
 70
0
 62
7
  6
CENTER
  0
LAYER
  2
DEFAULT_2
 70
0
 62
8
  6
HIDDEN
  0
LAYER
  2
DEFAULT_3
 70
0
 62
7
  6
PHANTOM
  0
ENDTAB
  0
TABLE
  2
STYLE
 70
1
  0
STYLE
  2
STANDARD
 70
0
 40
0.0
 41
0.8
 50
0.0
 71
0
 42
0.2
  3
txt
  4

  0
STYLE
  2
TEXTSTYLE_1
 70
0
 40
0.0
 41
0.8
 50
0.0
 71
0
 42
0.2
  3
gdt
  4

  0
STYLE
  2
TEXTSTYLE_2
 70
0
 40
0.0
 41
0.6
 50
0.0
 71
0
 42
0.2
  3
txt
  4

  0
STYLE
  2
TEXTSTYLE_3
 70
0
 40
0.0
 41
1.0
 50
0.0
 71
0
 42
0.2
  3
ftb_____.ttf
  4

  0
STYLE
  2
TEXTSTYLE_4
 70
0
 40
0.0
 41
1.0
 50
0.0
 71
0
 42
0.2
  3
fti_____.ttf
  4

  0
STYLE
  2
TEXTSTYLE_5
 70
0
 40
0.0
 41
1.0
 50
0.0
 71
0
 42
0.2
  3
frutiger light.ttf
  4

  0
STYLE
  2
TEXTSTYLE_6
 70
0
 40
0.0
 41
0.7
 50
0.0
 71
0
 42
0.2
  3
txt
  4

  0
STYLE
  2
TEXTSTYLE_7
 70
0
 40
0.0
 41
0.8
 50
0.0
 71
0
 42
0.2
  3
txt
  4

  0
ENDTAB
  0
ENDSEC
  0
SECTION
  2
BLOCKS
  0
BLOCK
  8
0
 62
2
  6
CONTINUOUS
  2
SYMBOL_8_BL1
 70
64
 10
173.5956734183
 20
35.5937998301
  0
TEXT
  8
0
 62
7
  6
CONTINUOUS
 10
164.6539584268
 20
30.6865562072
  7
TEXTSTYLE_4
 40
1.0655737705
  1
The brand for plastic modular belts and chains
 41
1.0
 72
0
  0
LINE
  8
0
 62
7
  6
CONTINUOUS
 10
149.5737418074
 20
36.1675703219
 11
149.5737418074
 21
34.0364227809
  0
LINE
  8
0
 62
7
  6
CONTINUOUS
 10
149.8628043005
 20
31.0454914852
 11
149.8628043005
 21
31.1422825445
  0
LINE
  8
0
 62
7
  6
CONTINUOUS
 10
149.5737418074
 20
31.1100188581
 11
149.6315543091
 21
30.9164367395
  0
LINE
  8
0
 62
7
  6
CONTINUOUS
 10
150.9671844304
 20
33.9544555678
 11
150.9671844304
 21
36.1675703219
  0
LINE
  8
0
 62
7
  6
CONTINUOUS
 10
151.8862417523
 20
32.1101932727
 11
151.8862417523
 21
30.5937998301
  0
LINE
  8
0
 62
7
  6
CONTINUOUS
 10
152.1753043074
 20
30.5937998301
 11
152.1753043074
 21
31.3358647082
  0
LINE
  8
0
 62
7
  6
CONTINUOUS
 10
152.1753043074
 20
31.4649194539
 11
152.1753043074
 21
32.1101932727
  0
LINE
  8
0
 62
7
  6
CONTINUOUS
 10
149.6315543091
 20
31.3036010218
 11
149.5737418074
 21
31.1100188581
  0
LINE
  8
0
 62
7
  6
CONTINUOUS
 10
149.9784292936
 20
30.8841730531
 11
149.8628043005
 21
31.0454914852
  0
LINE
  8
0
 62
7
  6
CONTINUOUS
 10
151.0768668626
 20
31.400392081
 11
151.1346793074
 21
31.3036010218
  0
LINE
  8
0
 62
7
  6
CONTINUOUS
 10
151.4237418626
 20
31.3036010218
 11
151.3659292523
 21
31.4326557675
  0
LINE
  8
0
 62
7
  6
CONTINUOUS
 10
152.852430332
 20
36.1675703219
 11
152.852430332
 21
34.3642916334
  0
LINE
  8
0
 62
7
  6
CONTINUOUS
 10
152.852430332
 20
33.0528162235
 11
152.852430332
 21
32.3970785186
  0
LINE
  8
0
 62
7
  6
CONTINUOUS
 10
153.2159293074
 20
31.2390736489
 11
153.2159293074
 21
30.5937998301
  0
LINE
  8
0
 62
7
  6
CONTINUOUS
 10
153.5049916972
 20
30.5937998301
 11
153.5049916972
 21
31.2390736489
  0
LINE
  8
0
 62
7
  6
CONTINUOUS
 10
149.8628043005
 20
31.1422825445
 11
149.9206168074
 21
31.2713373354
  0
LINE
  8
0
 62
7
  6
CONTINUOUS
 10
149.6315543091
 20
30.9164367395
 11
149.7471793074
 21
30.7873819712
  0
LINE
  8
0
 62
7
  6
CONTINUOUS
 10
153.1581166972
 20
31.3681283946
 11
153.2159293074
 21
31.2390736489
  0
LINE
  8
0
 62
7
  6
CONTINUOUS
 10
153.9674919177
 20
30.8841730531
 11
154.0253041972
 21
30.7551182848
  0
LINE
  8
0
 62
7
  6
CONTINUOUS
 10
153.5049916972
 20
31.2390736489
 11
153.4471794177
 21
31.400392081
  0
LINE
  8
0
 62
7
  6
CONTINUOUS
 10
153.9674919177
 20
31.4326557675
 11
153.9674919177
 21
31.3681283946
  0
LINE
  8
0
 62
7
  6
CONTINUOUS
 10
153.9674919177
 20
30.9809641124
 11
153.9674919177
 21
30.8841730531
  0
LINE
  8
0
 62
7
  6
CONTINUOUS
 10
154.245872955
 20
32.3970785186
 11
154.245872955
 21
36.1675703219
  0
LINE
  8
0
 62
7
  6
CONTINUOUS
 10
154.2565543074
 20
30.8519093441
 11
154.2565543074
 21
30.9164367395
  0
LINE
  8
0
 62
7
  6
CONTINUOUS
 10
154.5737418074
 20
36.1675703219
 11
154.5737418074
 21
32.3970785186
  0
LINE
  8
0
 62
7
  6
CONTINUOUS
 10
151.3659292523
 20
30.7873819712
 11
151.4237418626
 21
30.9164367395
  0
LINE
  8
0
 62
7
  6
CONTINUOUS
 10
155.759679528
 20
30.6905909007
 11
155.7018665869
 21
30.8519093441
  0
LINE
  8
0
 62
7
  6
CONTINUOUS
 10
155.412804528
 20
31.3681283946
 11
155.412804528
 21
31.2713373354
  0
LINE
  8
0
 62
7
  6
CONTINUOUS
 10
155.412804528
 20
31.1422825445
 11
155.412804528
 21
30.9487004259
  0
LINE
  8
0
 62
7
  6
CONTINUOUS
 10
155.7018665869
 20
30.8519093441
 11
155.7018665869
 21
31.3681283946
  0
LINE
  8
0
 62
7
  6
CONTINUOUS
 10
155.9671844304
 20
32.3970785186
 11
155.9671844304
 21
34.2003572071
  0
LINE
  8
0
 62
7
  6
CONTINUOUS
 10
155.9671844304
 20
35.511832617
 11
155.9671844304
 21
36.1675703219
  0
LINE
  8
0
 62
7
  6
CONTINUOUS
 10
156.279992028
 20
32.1101932727
 11
156.279992028
 21
31.9488748406
  0
LINE
  8
0
 62
7
  6
CONTINUOUS
 10
156.279992028
 20
31.626237886
 11
156.279992028
 21
30.5937998301
  0
LINE
  8
0
 62
7
  6
CONTINUOUS
 10
156.5690540869
 20
30.5937998301
 11
156.5690540869
 21
31.626237886
  0
LINE
  8
0
 62
7
  6
CONTINUOUS
 10
156.5690540869
 20
31.9488748406
 11
156.5690540869
 21
32.1101932727
  0
LINE
  8
0
 62
7
  6
CONTINUOUS
 10
151.1346793074
 20
30.9164367395
 11
151.0768668626
 21
30.8196456577
  0
LINE
  8
0
 62
7
  6
CONTINUOUS
 10
153.4471794177
 20
31.400392081
 11
153.3893668074
 21
31.4649194539
  0
LINE
  8
0
 62
7
  6
CONTINUOUS
 10
154.3143669177
 20
30.7873819712
 11
154.2565543074
 21
30.8519093441
  0
LINE
  8
0
 62
7
  6
CONTINUOUS
 10
155.4706168074
 20
30.6583272086
 11
155.5284290869
 21
30.5937998301
  0
LINE
  8
0
 62
7
  6
CONTINUOUS
 10
155.412804528
 20
30.7551182848
 11
155.4706168074
 21
30.6583272086
  0
LINE
  8
0
 62
7
  6
CONTINUOUS
 10
155.8174918074
 20
30.5937998301
 11
155.759679528
 21
30.6905909007
  0
LINE
  8
0
 62
7
  6
CONTINUOUS
 10
155.7018665869
 20
31.3681283946
 11
155.6440543074
 21
31.4649194539
  0
LINE
  8
0
 62
7
  6
CONTINUOUS
 10
157.0315543074
 20
31.626237886
 11
157.0315543074
 21
30.5937998301
  0
LINE
  8
0
 62
7
  6
CONTINUOUS
 10
157.320617028
 20
30.5937998301
 11
157.320617028
 21
31.3358647082
  0
LINE
  8
0
 62
7
  6
CONTINUOUS
 10
157.320617028
 20
31.4649194539
 11
157.320617028
 21
31.626237886
  0
LINE
  8
0
 62
7
  6
CONTINUOUS
 10
157.852430332
 20
34.6101932727
 11
157.852430332
 21
32.3970785186
  0
LINE
  8
0
 62
7
  6
CONTINUOUS
 10
149.7471793074
 20
31.4326557675
 11
149.6315543091
 21
31.3036010218
  0
LINE
  8
0
 62
7
  6
CONTINUOUS
 10
149.9206168074
 20
31.2713373354
 11
149.9784292936
 21
31.3358647082
  0
LINE
  8
0
 62
7
  6
CONTINUOUS
 10
149.7471793074
 20
30.7873819712
 11
149.8628043005
 21
30.7228545871
  0
LINE
  8
0
 62
7
  6
CONTINUOUS
 10
150.1518667936
 20
30.7873819712
 11
149.9784292936
 21
30.8841730531
  0
LINE
  8
0
 62
7
  6
CONTINUOUS
 10
155.3549915869
 20
31.4326557675
 11
155.412804528
 21
31.3681283946
  0
LINE
  8
0
 62
7
  6
CONTINUOUS
 10
158.3034290869
 20
31.3681283946
 11
158.361242028
 21
31.2068099625
  0
LINE
  8
0
 62
7
  6
CONTINUOUS
 10
158.6503040869
 20
31.2068099625
 11
158.5924918074
 21
31.3681283946
  0
LINE
  8
0
 62
7
  6
CONTINUOUS
 10
158.361242028
 20
31.2068099625
 11
158.361242028
 21
30.5937998301
  0
LINE
  8
0
 62
7
  6
CONTINUOUS
 10
158.6503040869
 20
30.5937998301
 11
158.6503040869
 21
31.2068099625
  0
LINE
  8
0
 62
7
  6
CONTINUOUS
 10
159.1128043074
 20
31.4326557675
 11
159.1128043074
 21
31.3681283946
  0
LINE
  8
0
 62
7
  6
CONTINUOUS
 10
159.245872955
 20
32.3970785186
 11
159.245872955
 21
34.5282260596
  0
LINE
  8
0
 62
7
  6
CONTINUOUS
 10
159.5737418074
 20
36.1675703219
 11
159.5737418074
 21
32.3970785186
  0
LINE
  8
0
 62
7
  6
CONTINUOUS
 10
154.2565543074
 20
30.9164367395
 11
154.3143669177
 21
31.0132277988
  0
LINE
  8
0
 62
7
  6
CONTINUOUS
 10
149.8628043005
 20
30.7228545871
 11
150.0362418212
 21
30.6583272086
  0
LINE
  8
0
 62
7
  6
CONTINUOUS
 10
151.3659292523
 20
31.4326557675
 11
151.1924917523
 21
31.5294468267
  0
LINE
  8
0
 62
7
  6
CONTINUOUS
 10
154.0253041972
 20
30.7551182848
 11
154.1987416972
 21
30.6583272086
  0
LINE
  8
0
 62
7
  6
CONTINUOUS
 10
153.0424918074
 20
31.4326557675
 11
153.1581166972
 21
31.3681283946
  0
LINE
  8
0
 62
7
  6
CONTINUOUS
 10
153.3893668074
 20
31.4649194539
 11
153.2737419177
 21
31.5294468267
  0
LINE
  8
0
 62
7
  6
CONTINUOUS
 10
159.1128043074
 20
30.8519093441
 11
159.228429528
 21
30.7228545871
  0
LINE
  8
0
 62
7
  6
CONTINUOUS
 10
159.4596793074
 20
30.7873819712
 11
159.401867028
 21
30.8519093441
  0
LINE
  8
0
 62
7
  6
CONTINUOUS
 10
159.1128043074
 20
31.3681283946
 11
159.228429528
 21
31.2390736489
  0
LINE
  8
0
 62
7
  6
CONTINUOUS
 10
158.5924918074
 20
31.3681283946
 11
158.534679528
 21
31.4649194539
  0
LINE
  8
0
 62
7
  6
CONTINUOUS
 10
160.9628038663
 20
30.7873819712
 11
160.9628038663
 21
30.8519093441
  0
LINE
  8
0
 62
7
  6
CONTINUOUS
 10
160.9671844304
 20
32.3970785186
 11
160.9671844304
 21
36.1675703219
  0
LINE
  8
0
 62
7
  6
CONTINUOUS
 10
154.0253041972
 20
31.4971831403
 11
153.9674919177
 21
31.4326557675
  0
LINE
  8
0
 62
7
  6
CONTINUOUS
 10
150.9034292799
 20
31.4649194539
 11
151.0768668626
 21
31.400392081
  0
LINE
  8
0
 62
7
  6
CONTINUOUS
 10
155.6440543074
 20
31.4649194539
 11
155.5284290869
 21
31.5294468267
  0
LINE
  8
0
 62
7
  6
CONTINUOUS
 10
159.4596793074
 20
31.3036010218
 11
159.401867028
 21
31.3681283946
  0
LINE
  8
0
 62
7
  6
CONTINUOUS
 10
160.615929528
 20
30.9164367395
 11
160.6737418074
 21
30.8519093441
  0
LINE
  8
0
 62
7
  6
CONTINUOUS
 10
160.9628038663
 20
30.8519093441
 11
160.8471793074
 21
30.9809641124
  0
LINE
  8
0
 62
7
  6
CONTINUOUS
 10
160.615929528
 20
31.4326557675
 11
160.6737418074
 21
31.3681283946
  0
LINE
  8
0
 62
7
  6
CONTINUOUS
 10
160.9628038663
 20
31.3681283946
 11
160.8471793074
 21
31.4971831403
  0
LINE
  8
0
 62
7
  6
CONTINUOUS
 10
154.2565543074
 20
31.3681283946
 11
154.3143669177
 21
31.4326557675
  0
LINE
  8
0
 62
7
  6
CONTINUOUS
 10
154.0831168074
 20
31.1100188581
 11
153.9674919177
 21
30.9809641124
  0
LINE
  8
0
 62
7
  6
CONTINUOUS
 10
155.412804528
 20
30.9487004259
 11
155.3549915869
 21
30.8841730531
  0
LINE
  8
0
 62
7
  6
CONTINUOUS
 10
155.3549915869
 20
30.6905909007
 11
155.412804528
 21
30.7551182848
  0
LINE
  8
0
 62
7
  6
CONTINUOUS
 10
154.1987416972
 20
30.6583272086
 11
154.3143669177
 21
30.6260635193
  0
LINE
  8
0
 62
7
  6
CONTINUOUS
 10
151.1924917523
 20
31.5294468267
 11
150.9612418074
 21
31.5939741996
  0
LINE
  8
0
 62
7
  6
CONTINUOUS
 10
154.5456166972
 20
30.7228545871
 11
154.3143669177
 21
30.7873819712
  0
LINE
  8
0
 62
7
  6
CONTINUOUS
 10
153.2737419177
 20
31.5294468267
 11
153.1003044177
 21
31.5939741996
  0
LINE
  8
0
 62
7
  6
CONTINUOUS
 10
155.5284290869
 20
31.5294468267
 11
155.3549915869
 21
31.5939741996
  0
LINE
  8
0
 62
7
  6
CONTINUOUS
 10
158.187804528
 20
31.4326557675
 11
158.3034290869
 21
31.3681283946
  0
LINE
  8
0
 62
7
  6
CONTINUOUS
 10
158.534679528
 20
31.4649194539
 11
158.4190543074
 21
31.5294468267
  0
LINE
  8
0
 62
7
  6
CONTINUOUS
 10
150.0362418212
 20
30.6583272086
 11
150.2096793212
 21
30.6260635193
  0
LINE
  8
0
 62
7
  6
CONTINUOUS
 10
150.498741835
 20
30.7228545871
 11
150.1518667936
 21
30.7873819712
  0
LINE
  8
0
 62
7
  6
CONTINUOUS
 10
152.9268669177
 20
31.4649194539
 11
153.0424918074
 21
31.4326557675
  0
LINE
  8
0
 62
7
  6
CONTINUOUS
 10
155.239367028
 20
31.4649194539
 11
155.3549915869
 21
31.4326557675
  0
LINE
  8
0
 62
7
  6
CONTINUOUS
 10
159.575304528
 20
30.7551182848
 11
159.4596793074
 21
30.7873819712
  0
LINE
  8
0
 62
7
  6
CONTINUOUS
 10
158.0721793074
 20
31.4649194539
 11
158.187804528
 21
31.4326557675
  0
LINE
  8
0
 62
7
  6
CONTINUOUS
 10
159.228429528
 20
30.7228545871
 11
159.401867028
 21
30.6583272086
  0
LINE
  8
0
 62
7
  6
CONTINUOUS
 10
158.4190543074
 20
31.5294468267
 11
158.2456168074
 21
31.5939741996
  0
LINE
  8
0
 62
7
  6
CONTINUOUS
 10
159.6331168074
 20
31.2390736489
 11
159.4596793074
 21
31.3036010218
  0
LINE
  8
0
 62
7
  6
CONTINUOUS
 10
160.442492028
 20
30.9809641124
 11
160.615929528
 21
30.9164367395
  0
LINE
  8
0
 62
7
  6
CONTINUOUS
 10
160.8471793074
 20
31.4971831403
 11
160.6737418074
 21
31.5617105132
  0
LINE
  8
0
 62
7
  6
CONTINUOUS
 10
159.228429528
 20
31.2390736489
 11
159.4596793074
 21
31.1422825445
  0
LINE
  8
0
 62
7
  6
CONTINUOUS
 10
160.8471793074
 20
30.9809641124
 11
160.615929528
 21
31.0777551716
  0
LINE
  8
0
 62
7
  6
CONTINUOUS
 10
159.401867028
 20
31.3681283946
 11
159.4596793074
 21
31.4326557675
  0
LINE
  8
0
 62
7
  6
CONTINUOUS
 10
149.8628043005
 20
31.4971831403
 11
149.7471793074
 21
31.4326557675
  0
LINE
  8
0
 62
7
  6
CONTINUOUS
 10
149.9784292936
 20
31.3358647082
 11
150.1518667936
 21
31.4326557675
  0
LINE
  8
0
 62
7
  6
CONTINUOUS
 10
152.2909293626
 20
31.5294468267
 11
152.1753043074
 21
31.4649194539
  0
LINE
  8
0
 62
7
  6
CONTINUOUS
 10
152.1753043074
 20
31.3358647082
 11
152.2909293626
 21
31.400392081
  0
LINE
  8
0
 62
7
  6
CONTINUOUS
 10
151.1924917523
 20
30.6905909007
 11
151.3659292523
 21
30.7873819712
  0
LINE
  8
0
 62
7
  6
CONTINUOUS
 10
150.2096793212
 20
30.6260635193
 11
150.5565542799
 21
30.5937998301
  0
LINE
  8
0
 62
7
  6
CONTINUOUS
 10
154.3143669177
 20
30.6260635193
 11
154.5456166972
 21
30.5937998301
  0
LINE
  8
0
 62
7
  6
CONTINUOUS
 10
152.6956168074
 20
31.4971831403
 11
152.9268669177
 21
31.4649194539
  0
LINE
  8
0
 62
7
  6
CONTINUOUS
 10
155.0081169177
 20
31.4971831403
 11
155.239367028
 21
31.4649194539
  0
LINE
  8
0
 62
7
  6
CONTINUOUS
 10
159.4596793074
 20
31.1422825445
 11
160.442492028
 21
30.9809641124
  0
LINE
  8
0
 62
7
  6
CONTINUOUS
 10
160.615929528
 20
31.0777551716
 11
159.6331168074
 21
31.2390736489
  0
LINE
  8
0
 62
7
  6
CONTINUOUS
 10
153.1003044177
 20
31.5939741996
 11
152.9268669177
 21
31.626237886
  0
LINE
  8
0
 62
7
  6
CONTINUOUS
 10
159.401867028
 20
30.6583272086
 11
159.575304528
 21
30.6260635193
  0
LINE
  8
0
 62
7
  6
CONTINUOUS
 10
158.2456168074
 20
31.5939741996
 11
158.0721793074
 21
31.626237886
  0
LINE
  8
0
 62
7
  6
CONTINUOUS
 10
160.5003043074
 20
31.4649194539
 11
160.615929528
 21
31.4326557675
  0
LINE
  8
0
 62
7
  6
CONTINUOUS
 10
160.6737418074
 20
30.8519093441
 11
160.615929528
 21
30.7873819712
  0
LINE
  8
0
 62
7
  6
CONTINUOUS
 10
159.228429528
 20
31.5294468267
 11
159.1128043074
 21
31.4326557675
  0
LINE
  8
0
 62
7
  6
CONTINUOUS
 10
154.1409294177
 20
31.5617105132
 11
154.0253041972
 21
31.4971831403
  0
LINE
  8
0
 62
7
  6
CONTINUOUS
 10
154.1987416972
 20
31.1745462761
 11
154.0831168074
 21
31.1100188581
  0
LINE
  8
0
 62
7
  6
CONTINUOUS
 10
154.3143669177
 20
31.0132277988
 11
154.4299918074
 21
31.0777551716
  0
LINE
  8
0
 62
7
  6
CONTINUOUS
 10
151.8862417523
 20
30.5937998301
 11
152.1753043074
 21
30.5937998301
  0
LINE
  8
0
 62
7
  6
CONTINUOUS
 10
153.2159293074
 20
30.5937998301
 11
153.5049916972
 21
30.5937998301
  0
LINE
  8
0
 62
7
  6
CONTINUOUS
 10
154.5456166972
 20
30.5937998301
 11
154.8924916972
 21
30.5937998301
  0
LINE
  8
0
 62
7
  6
CONTINUOUS
 10
155.5284290869
 20
30.5937998301
 11
155.8174918074
 21
30.5937998301
  0
LINE
  8
0
 62
7
  6
CONTINUOUS
 10
156.279992028
 20
30.5937998301
 11
156.5690540869
 21
30.5937998301
  0
LINE
  8
0
 62
7
  6
CONTINUOUS
 10
157.0315543074
 20
30.5937998301
 11
157.320617028
 21
30.5937998301
  0
LINE
  8
0
 62
7
  6
CONTINUOUS
 10
158.361242028
 20
30.5937998301
 11
158.6503040869
 21
30.5937998301
  0
LINE
  8
0
 62
7
  6
CONTINUOUS
 10
159.922179528
 20
30.5937998301
 11
160.269054528
 21
30.5937998301
  0
LINE
  8
0
 62
7
  6
CONTINUOUS
 10
160.269054528
 20
30.7228545871
 11
159.922179528
 21
30.7228545871
  0
LINE
  8
0
 62
7
  6
CONTINUOUS
 10
154.8924916972
 20
30.7228545871
 11
154.5456166972
 21
30.7228545871
  0
LINE
  8
0
 62
7
  6
CONTINUOUS
 10
159.401867028
 20
30.8519093441
 11
159.1128043074
 21
30.8519093441
  0
LINE
  8
0
 62
7
  6
CONTINUOUS
 10
151.4237418626
 20
30.9164367395
 11
151.1346793074
 21
30.9164367395
  0
LINE
  8
0
 62
7
  6
CONTINUOUS
 10
150.498741835
 20
31.4971831403
 11
150.9034292799
 21
31.4649194539
  0
LINE
  8
0
 62
7
  6
CONTINUOUS
 10
150.9612418074
 20
31.5939741996
 11
150.5565542799
 21
31.626237886
  0
LINE
  8
0
 62
7
  6
CONTINUOUS
 10
159.575304528
 20
30.6260635193
 11
159.922179528
 21
30.5937998301
  0
LINE
  8
0
 62
7
  6
CONTINUOUS
 10
159.922179528
 20
30.7228545871
 11
159.575304528
 21
30.7551182848
  0
LINE
  8
0
 62
7
  6
CONTINUOUS
 10
155.3549915869
 20
31.5939741996
 11
155.0081169177
 21
31.626237886
  0
LINE
  8
0
 62
7
  6
CONTINUOUS
 10
160.1534293074
 20
31.4971831403
 11
160.5003043074
 21
31.4649194539
  0
LINE
  8
0
 62
7
  6
CONTINUOUS
 10
160.5003043074
 20
31.5939741996
 11
160.1534293074
 21
31.626237886
  0
LINE
  8
0
 62
7
  6
CONTINUOUS
 10
157.840929528
 20
31.4971831403
 11
158.0721793074
 21
31.4649194539
  0
LINE
  8
0
 62
7
  6
CONTINUOUS
 10
160.6737418074
 20
31.5617105132
 11
160.5003043074
 21
31.5939741996
  0
LINE
  8
0
 62
7
  6
CONTINUOUS
 10
160.8471793074
 20
30.6905909007
 11
160.9628038663
 21
30.7873819712
  0
LINE
  8
0
 62
7
  6
CONTINUOUS
 10
155.3549915869
 20
30.8841730531
 11
155.1815540869
 21
30.7873819712
  0
LINE
  8
0
 62
7
  6
CONTINUOUS
 10
157.4362415869
 20
31.5294468267
 11
157.320617028
 21
31.4649194539
  0
LINE
  8
0
 62
7
  6
CONTINUOUS
 10
157.320617028
 20
31.3358647082
 11
157.4362415869
 21
31.400392081
  0
LINE
  8
0
 62
7
  6
CONTINUOUS
 10
150.0362418212
 20
31.5617105132
 11
149.8628043005
 21
31.4971831403
  0
LINE
  8
0
 62
7
  6
CONTINUOUS
 10
152.4643666972
 20
31.5939741996
 11
152.2909293626
 21
31.5294468267
  0
LINE
  8
0
 62
7
  6
CONTINUOUS
 10
152.2909293626
 20
31.400392081
 11
152.4643666972
 21
31.4649194539
  0
LINE
  8
0
 62
7
  6
CONTINUOUS
 10
151.0768668626
 20
30.8196456577
 11
150.9034292799
 21
30.7551182848
  0
LINE
  8
0
 62
7
  6
CONTINUOUS
 10
160.5003043074
 20
30.7551182848
 11
160.269054528
 21
30.7228545871
  0
LINE
  8
0
 62
7
  6
CONTINUOUS
 10
154.8924916972
 20
30.5937998301
 11
155.1815540869
 21
30.6260635193
  0
LINE
  8
0
 62
7
  6
CONTINUOUS
 10
160.269054528
 20
30.5937998301
 11
160.615929528
 21
30.6260635193
  0
LINE
  8
0
 62
7
  6
CONTINUOUS
 10
150.5565542799
 20
30.5937998301
 11
150.9612418074
 21
30.6260635193
  0
LINE
  8
0
 62
7
  6
CONTINUOUS
 10
150.9034292799
 20
30.7551182848
 11
150.498741835
 21
30.7228545871
  0
LINE
  8
0
 62
7
  6
CONTINUOUS
 10
154.7768668074
 20
31.1422825445
 11
155.412804528
 21
31.1422825445
  0
LINE
  8
0
 62
7
  6
CONTINUOUS
 10
155.412804528
 20
31.2713373354
 11
154.7768668074
 21
31.2713373354
  0
LINE
  8
0
 62
7
  6
CONTINUOUS
 10
151.1346793074
 20
31.3036010218
 11
151.4237418626
 21
31.3036010218
  0
LINE
  8
0
 62
7
  6
CONTINUOUS
 10
153.9674919177
 20
31.3681283946
 11
154.2565543074
 21
31.3681283946
  0
LINE
  8
0
 62
7
  6
CONTINUOUS
 10
160.6737418074
 20
31.3681283946
 11
160.9628038663
 21
31.3681283946
  0
LINE
  8
0
 62
7
  6
CONTINUOUS
 10
154.6612419177
 20
31.4971831403
 11
155.0081169177
 21
31.4971831403
  0
LINE
  8
0
 62
7
  6
CONTINUOUS
 10
159.8065543074
 20
31.4971831403
 11
160.1534293074
 21
31.4971831403
  0
LINE
  8
0
 62
7
  6
CONTINUOUS
 10
160.1534293074
 20
31.626237886
 11
159.8065543074
 21
31.626237886
  0
LINE
  8
0
 62
7
  6
CONTINUOUS
 10
158.0721793074
 20
31.626237886
 11
157.840929528
 21
31.626237886
  0
LINE
  8
0
 62
7
  6
CONTINUOUS
 10
157.320617028
 20
31.626237886
 11
157.0315543074
 21
31.626237886
  0
LINE
  8
0
 62
7
  6
CONTINUOUS
 10
156.5690540869
 20
31.626237886
 11
156.279992028
 21
31.626237886
  0
LINE
  8
0
 62
7
  6
CONTINUOUS
 10
155.0081169177
 20
31.626237886
 11
154.6612419177
 21
31.626237886
  0
LINE
  8
0
 62
7
  6
CONTINUOUS
 10
152.9268669177
 20
31.626237886
 11
152.6956168074
 21
31.626237886
  0
LINE
  8
0
 62
7
  6
CONTINUOUS
 10
156.279992028
 20
31.9488748406
 11
156.5690540869
 21
31.9488748406
  0
LINE
  8
0
 62
7
  6
CONTINUOUS
 10
156.5690540869
 20
32.1101932727
 11
156.279992028
 21
32.1101932727
  0
LINE
  8
0
 62
7
  6
CONTINUOUS
 10
152.1753043074
 20
32.1101932727
 11
151.8862417523
 21
32.1101932727
  0
LINE
  8
0
 62
7
  6
CONTINUOUS
 10
151.2130860697
 20
32.3970785186
 11
151.6256574183
 21
32.3970785186
  0
LINE
  8
0
 62
7
  6
CONTINUOUS
 10
152.852430332
 20
32.3970785186
 11
154.245872955
 21
32.3970785186
  0
LINE
  8
0
 62
7
  6
CONTINUOUS
 10
154.5737418074
 20
32.3970785186
 11
155.9671844304
 21
32.3970785186
  0
LINE
  8
0
 62
7
  6
CONTINUOUS
 10
157.852430332
 20
32.3970785186
 11
159.245872955
 21
32.3970785186
  0
LINE
  8
0
 62
7
  6
CONTINUOUS
 10
159.5737418074
 20
32.3970785186
 11
160.9671844304
 21
32.3970785186
  0
LINE
  8
0
 62
7
  6
CONTINUOUS
 10
157.6096790869
 20
31.5939741996
 11
157.4362415869
 21
31.5294468267
  0
LINE
  8
0
 62
7
  6
CONTINUOUS
 10
155.1815540869
 20
30.6260635193
 11
155.3549915869
 21
30.6905909007
  0
LINE
  8
0
 62
7
  6
CONTINUOUS
 10
160.615929528
 20
30.6260635193
 11
160.8471793074
 21
30.6905909007
  0
LINE
  8
0
 62
7
  6
CONTINUOUS
 10
160.615929528
 20
30.7873819712
 11
160.5003043074
 21
30.7551182848
  0
LINE
  8
0
 62
7
  6
CONTINUOUS
 10
159.575304528
 20
31.4649194539
 11
159.8065543074
 21
31.4971831403
  0
LINE
  8
0
 62
7
  6
CONTINUOUS
 10
157.6096790869
 20
31.4649194539
 11
157.840929528
 21
31.4971831403
  0
LINE
  8
0
 62
7
  6
CONTINUOUS
 10
154.5456166972
 20
31.1100188581
 11
154.7768668074
 21
31.1422825445
  0
LINE
  8
0
 62
7
  6
CONTINUOUS
 10
157.840929528
 20
31.626237886
 11
157.6096790869
 21
31.5939741996
  0
LINE
  8
0
 62
7
  6
CONTINUOUS
 10
154.4299918074
 20
31.4649194539
 11
154.6612419177
 21
31.4971831403
  0
LINE
  8
0
 62
7
  6
CONTINUOUS
 10
159.8065543074
 20
31.626237886
 11
159.4596793074
 21
31.5939741996
  0
LINE
  8
0
 62
7
  6
CONTINUOUS
 10
154.7768668074
 20
31.2713373354
 11
154.4299918074
 21
31.2390736489
  0
LINE
  8
0
 62
7
  6
CONTINUOUS
 10
150.5565542799
 20
31.626237886
 11
150.2096793212
 21
31.5939741996
  0
LINE
  8
0
 62
7
  6
CONTINUOUS
 10
154.6612419177
 20
31.626237886
 11
154.2565543074
 21
31.5939741996
  0
LINE
  8
0
 62
7
  6
CONTINUOUS
 10
152.0327582009
 20
33.5446195022
 11
151.3770204959
 21
33.5446195022
  0
LINE
  8
0
 62
7
  6
CONTINUOUS
 10
157.4362415869
 20
31.400392081
 11
157.6096790869
 21
31.4649194539
  0
LINE
  8
0
 62
7
  6
CONTINUOUS
 10
159.4596793074
 20
31.4326557675
 11
159.575304528
 21
31.4649194539
  0
LINE
  8
0
 62
7
  6
CONTINUOUS
 10
159.4596793074
 20
31.5939741996
 11
159.228429528
 21
31.5294468267
  0
LINE
  8
0
 62
7
  6
CONTINUOUS
 10
155.1815540869
 20
30.7873819712
 11
154.8924916972
 21
30.7228545871
  0
LINE
  8
0
 62
7
  6
CONTINUOUS
 10
152.4643666972
 20
31.4649194539
 11
152.6956168074
 21
31.4971831403
  0
LINE
  8
0
 62
7
  6
CONTINUOUS
 10
152.6956168074
 20
31.626237886
 11
152.4643666972
 21
31.5939741996
  0
LINE
  8
0
 62
7
  6
CONTINUOUS
 10
150.2674918074
 20
31.4649194539
 11
150.498741835
 21
31.4971831403
  0
LINE
  8
0
 62
7
  6
CONTINUOUS
 10
156.7868565615
 20
35.0200293383
 11
157.4425942664
 21
35.0200293383
  0
LINE
  8
0
 62
7
  6
CONTINUOUS
 10
154.4299918074
 20
31.0777551716
 11
154.5456166972
 21
31.1100188581
  0
LINE
  8
0
 62
7
  6
CONTINUOUS
 10
154.4299918074
 20
31.2390736489
 11
154.1987416972
 21
31.1745462761
  0
LINE
  8
0
 62
7
  6
CONTINUOUS
 10
154.3143669177
 20
31.4326557675
 11
154.4299918074
 21
31.4649194539
  0
LINE
  8
0
 62
7
  6
CONTINUOUS
 10
150.9612418074
 20
30.6260635193
 11
151.1924917523
 21
30.6905909007
  0
LINE
  8
0
 62
7
  6
CONTINUOUS
 10
154.2565543074
 20
31.5939741996
 11
154.1409294177
 21
31.5617105132
  0
LINE
  8
0
 62
7
  6
CONTINUOUS
 10
150.2096793212
 20
31.5939741996
 11
150.0362418212
 21
31.5617105132
  0
LINE
  8
0
 62
7
  6
CONTINUOUS
 10
160.9671844304
 20
36.1675703219
 11
159.5737418074
 21
36.1675703219
  0
LINE
  8
0
 62
7
  6
CONTINUOUS
 10
157.6065286927
 20
36.1675703219
 11
157.1939573441
 21
36.1675703219
  0
LINE
  8
0
 62
7
  6
CONTINUOUS
 10
155.9671844304
 20
36.1675703219
 11
154.5737418074
 21
36.1675703219
  0
LINE
  8
0
 62
7
  6
CONTINUOUS
 10
154.245872955
 20
36.1675703219
 11
152.852430332
 21
36.1675703219
  0
LINE
  8
0
 62
7
  6
CONTINUOUS
 10
150.9671844304
 20
36.1675703219
 11
149.5737418074
 21
36.1675703219
  0
LINE
  8
0
 62
7
  6
CONTINUOUS
 10
150.1518667936
 20
31.4326557675
 11
150.2674918074
 21
31.4649194539
  0
CIRCLE
  8
0
 62
7
  6
CONTINUOUS
 10
160.2704631189
 20
38.5036358957
 40
2.0901639344
  0
ARC
  8
0
 62
7
  6
CONTINUOUS
 10
151.2130860697
 20
34.0364227809
 40
1.6393442623
 50
180.0
 51
270.0
  0
ARC
  8
0
 62
7
  6
CONTINUOUS
 10
157.6065286927
 20
34.5282260596
 40
1.6393442623
 50
0.0
 51
90.0
  0
ARC
  8
0
 62
7
  6
CONTINUOUS
 10
151.6256574183
 20
33.8724883547
 40
1.4754098361
 50
270.0
 51
326.2510114041
  0
ARC
  8
0
 62
7
  6
CONTINUOUS
 10
157.1939573441
 20
34.6921604858
 40
1.4754098361
 50
90.0
 51
146.2510114041
  0
ARC
  8
0
 62
7
  6
CONTINUOUS
 10
152.0327582009
 20
34.3642916334
 40
0.8196721311
 50
270.0
 51
360.0
  0
ARC
  8
0
 62
7
  6
CONTINUOUS
 10
156.7868565615
 20
34.2003572071
 40
0.8196721311
 50
90.0
 51
180.0
  0
ARC
  8
0
 62
7
  6
CONTINUOUS
 10
151.3770204959
 20
33.9544555678
 40
0.4098360656
 50
180.0
 51
270.0
  0
ARC
  8
0
 62
7
  6
CONTINUOUS
 10
157.4425942664
 20
34.6101932727
 40
0.4098360656
 50
0.0
 51
90.0
  0
SOLID
  8
0
 62
7
  6
CONTINUOUS
 10
156.279992028
 20
31.9488752009
 11
156.279992028
 21
32.1101936845
 12
156.5690540869
 22
31.9488752009
 13
156.5690540869
 23
32.1101936845
  0
SOLID
  8
0
 62
7
  6
CONTINUOUS
 10
150.5565542799
 20
31.6262382337
 11
150.9612418074
 21
31.5939740028
 12
150.2096793212
 22
31.5939740028
 13
150.2096793212
 23
31.5939740028
  0
SOLID
  8
0
 62
7
  6
CONTINUOUS
 10
150.0362418212
 20
31.5617111435
 11
150.2096793212
 21
31.5939740028
 12
150.9612418074
 22
31.5939740028
 13
150.9612418074
 23
31.5939740028
  0
SOLID
  8
0
 62
7
  6
CONTINUOUS
 10
150.9612418074
 20
31.5939740028
 11
151.1924917523
 21
31.5294468402
 12
150.0362418212
 22
31.5617111435
 13
150.0362418212
 23
31.5617111435
  0
SOLID
  8
0
 62
7
  6
CONTINUOUS
 10
149.8628043005
 20
31.49718259
 11
150.0362418212
 21
31.5617111435
 12
151.1924917523
 22
31.5294468402
 13
151.1924917523
 23
31.5294468402
  0
SOLID
  8
0
 62
7
  6
CONTINUOUS
 10
149.8628043005
 20
31.49718259
 11
151.1924917523
 21
31.5294468402
 12
150.498741835
 22
31.49718259
 13
150.498741835
 23
31.49718259
  0
SOLID
  8
0
 62
7
  6
CONTINUOUS
 10
150.498741835
 20
31.49718259
 11
151.1924917523
 21
31.5294468402
 12
150.9034292799
 22
31.4649197501
 13
150.9034292799
 23
31.4649197501
  0
SOLID
  8
0
 62
7
  6
CONTINUOUS
 10
151.1924917523
 20
31.5294468402
 11
151.3659292523
 21
31.4326554468
 12
150.9034292799
 22
31.4649197501
 13
150.9034292799
 23
31.4649197501
  0
SOLID
  8
0
 62
7
  6
CONTINUOUS
 10
151.0768668626
 20
31.4003926599
 11
150.9034292799
 21
31.4649197501
 12
151.3659292523
 22
31.4326554468
 13
151.3659292523
 23
31.4326554468
  0
SOLID
  8
0
 62
7
  6
CONTINUOUS
 10
151.0768668626
 20
31.4003926599
 11
151.3659292523
 21
31.4326554468
 12
151.1346793074
 22
31.3036013776
 13
151.1346793074
 23
31.3036013776
  0
SOLID
  8
0
 62
7
  6
CONTINUOUS
 10
151.3659292523
 20
31.4326554468
 11
151.4237418626
 21
31.3036013776
 12
151.1346793074
 22
31.3036013776
 13
151.1346793074
 23
31.3036013776
  0
SOLID
  8
0
 62
7
  6
CONTINUOUS
 10
152.4643666972
 20
31.5939739754
 11
152.6956168074
 21
31.6262382787
 12
152.9268669177
 22
31.6262382787
 13
152.9268669177
 23
31.6262382787
  0
SOLID
  8
0
 62
7
  6
CONTINUOUS
 10
152.9268669177
 20
31.6262382787
 11
153.1003044177
 21
31.5939739754
 12
152.4643666972
 22
31.5939739754
 13
152.4643666972
 23
31.5939739754
  0
SOLID
  8
0
 62
7
  6
CONTINUOUS
 10
152.2909293626
 20
31.5294468852
 11
152.4643666972
 21
31.5939739754
 12
153.1003044177
 22
31.5939739754
 13
153.1003044177
 23
31.5939739754
  0
SOLID
  8
0
 62
7
  6
CONTINUOUS
 10
153.1003044177
 20
31.5939739754
 11
153.2737419177
 21
31.5294468852
 12
152.2909293626
 22
31.5294468852
 13
152.2909293626
 23
31.5294468852
  0
SOLID
  8
0
 62
7
  6
CONTINUOUS
 10
153.2737419177
 20
31.5294468852
 11
152.6956168074
 21
31.4971825369
 12
152.2909293626
 22
31.5294468852
 13
152.2909293626
 23
31.5294468852
  0
SOLID
  8
0
 62
7
  6
CONTINUOUS
 10
152.1753043074
 20
31.4649197951
 11
152.2909293626
 21
31.5294468852
 12
152.6956168074
 22
31.4971825369
 13
152.6956168074
 23
31.4971825369
  0
SOLID
  8
0
 62
7
  6
CONTINUOUS
 10
152.6956168074
 20
31.4971825369
 11
152.4643666972
 21
31.4649197951
 12
152.1753043074
 22
31.4649197951
 13
152.1753043074
 23
31.4649197951
  0
SOLID
  8
0
 62
7
  6
CONTINUOUS
 10
152.6956168074
 20
31.4971825369
 11
153.2737419177
 21
31.5294468852
 12
152.9268669177
 22
31.4649197951
 13
152.9268669177
 23
31.4649197951
  0
SOLID
  8
0
 62
7
  6
CONTINUOUS
 10
153.2737419177
 20
31.5294468852
 11
153.3893668074
 21
31.4649197951
 12
152.9268669177
 22
31.4649197951
 13
152.9268669177
 23
31.4649197951
  0
SOLID
  8
0
 62
7
  6
CONTINUOUS
 10
153.0424918074
 20
31.4326554468
 11
152.9268669177
 21
31.4649197951
 12
153.3893668074
 22
31.4649197951
 13
153.3893668074
 23
31.4649197951
  0
SOLID
  8
0
 62
7
  6
CONTINUOUS
 10
153.3893668074
 20
31.4649197951
 11
153.4471794177
 21
31.4003927049
 12
153.0424918074
 22
31.4326554468
 13
153.0424918074
 23
31.4326554468
  0
SOLID
  8
0
 62
7
  6
CONTINUOUS
 10
153.1581166972
 20
31.3681283566
 11
153.0424918074
 21
31.4326554468
 12
153.4471794177
 22
31.4003927049
 13
153.4471794177
 23
31.4003927049
  0
SOLID
  8
0
 62
7
  6
CONTINUOUS
 10
153.1581166972
 20
31.3681283566
 11
153.4471794177
 21
31.4003927049
 12
153.2159293074
 22
31.2390742213
 13
153.2159293074
 23
31.2390742213
  0
SOLID
  8
0
 62
7
  6
CONTINUOUS
 10
153.4471794177
 20
31.4003927049
 11
153.5049916972
 21
31.2390742213
 12
153.2159293074
 22
31.2390742213
 13
153.2159293074
 23
31.2390742213
  0
SOLID
  8
0
 62
7
  6
CONTINUOUS
 10
152.4643666972
 20
31.4649197951
 11
152.2909293626
 21
31.4003927049
 12
152.1753043074
 22
31.4649197951
 13
152.1753043074
 23
31.4649197951
  0
SOLID
  8
0
 62
7
  6
CONTINUOUS
 10
152.2909293626
 20
31.4003927049
 11
152.1753043074
 21
31.3358640533
 12
152.1753043074
 22
31.4649197951
 13
152.1753043074
 23
31.4649197951
  0
SOLID
  8
0
 62
7
  6
CONTINUOUS
 10
152.1753043074
 20
31.3358640533
 11
151.8862417523
 21
30.5938002869
 12
152.1753043074
 22
31.4649197951
 13
152.1753043074
 23
31.4649197951
  0
SOLID
  8
0
 62
7
  6
CONTINUOUS
 10
152.1753043074
 20
31.4649197951
 11
151.8862417523
 21
30.5938002869
 12
152.1753043074
 22
32.1101937295
 13
152.1753043074
 23
32.1101937295
  0
SOLID
  8
0
 62
7
  6
CONTINUOUS
 10
151.8862417523
 20
30.5938002869
 11
151.8862417523
 21
32.1101937295
 12
152.1753043074
 22
32.1101937295
 13
152.1753043074
 23
32.1101937295
  0
SOLID
  8
0
 62
7
  6
CONTINUOUS
 10
152.1753043074
 20
31.3358640533
 11
152.1753043074
 21
30.5938002869
 12
151.8862417523
 22
30.5938002869
 13
151.8862417523
 23
30.5938002869
  0
SOLID
  8
0
 62
7
  6
CONTINUOUS
 10
153.2159293074
 20
30.5938002869
 11
153.2159293074
 21
31.2390742213
 12
153.5049916972
 22
31.2390742213
 13
153.5049916972
 23
31.2390742213
  0
SOLID
  8
0
 62
7
  6
CONTINUOUS
 10
153.5049916972
 20
31.2390742213
 11
153.5049916972
 21
30.5938002869
 12
153.2159293074
 22
30.5938002869
 13
153.2159293074
 23
30.5938002869
  0
SOLID
  8
0
 62
7
  6
CONTINUOUS
 10
154.2565543074
 20
31.5939738288
 11
154.6612419177
 21
31.6262385959
 12
155.0081169177
 22
31.6262385959
 13
155.0081169177
 23
31.6262385959
  0
SOLID
  8
0
 62
7
  6
CONTINUOUS
 10
155.0081169177
 20
31.6262385959
 11
155.3549915869
 21
31.5939738288
 12
154.2565543074
 22
31.5939738288
 13
154.2565543074
 23
31.5939738288
  0
SOLID
  8
0
 62
7
  6
CONTINUOUS
 10
154.1409294177
 20
31.5617111435
 11
154.2565543074
 21
31.5939738288
 12
155.3549915869
 22
31.5939738288
 13
155.3549915869
 23
31.5939738288
  0
SOLID
  8
0
 62
7
  6
CONTINUOUS
 10
155.3549915869
 20
31.5939738288
 11
155.5284290869
 21
31.5294468402
 12
154.1409294177
 22
31.5617111435
 13
154.1409294177
 23
31.5617111435
  0
SOLID
  8
0
 62
7
  6
CONTINUOUS
 10
154.0253041972
 20
31.4971826249
 11
154.1409294177
 21
31.5617111435
 12
155.5284290869
 22
31.5294468402
 13
155.5284290869
 23
31.5294468402
  0
SOLID
  8
0
 62
7
  6
CONTINUOUS
 10
154.0253041972
 20
31.4971826249
 11
155.5284290869
 21
31.5294468402
 12
154.6612419177
 22
31.4971826249
 13
154.6612419177
 23
31.4971826249
  0
SOLID
  8
0
 62
7
  6
CONTINUOUS
 10
154.6612419177
 20
31.4971826249
 11
155.5284290869
 21
31.5294468402
 12
155.0081169177
 22
31.4971826249
 13
155.0081169177
 23
31.4971826249
  0
SOLID
  8
0
 62
7
  6
CONTINUOUS
 10
155.0081169177
 20
31.4971826249
 11
155.5284290869
 21
31.5294468402
 12
155.239367028
 22
31.4649194065
 13
155.239367028
 23
31.4649194065
  0
SOLID
  8
0
 62
7
  6
CONTINUOUS
 10
155.5284290869
 20
31.5294468402
 11
155.6440543074
 21
31.4649194065
 12
155.239367028
 22
31.4649194065
 13
155.239367028
 23
31.4649194065
  0
SOLID
  8
0
 62
7
  6
CONTINUOUS
 10
153.9674919177
 20
31.4326554138
 11
154.0253041972
 21
31.4971826249
 12
154.6612419177
 22
31.4971826249
 13
154.6612419177
 23
31.4971826249
  0
SOLID
  8
0
 62
7
  6
CONTINUOUS
 10
155.3549915869
 20
31.4326554138
 11
155.239367028
 21
31.4649194065
 12
155.6440543074
 22
31.4649194065
 13
155.6440543074
 23
31.4649194065
  0
SOLID
  8
0
 62
7
  6
CONTINUOUS
 10
155.3549915869
 20
31.4326554138
 11
155.6440543074
 21
31.4649194065
 12
155.412804528
 22
31.3681282026
 13
155.412804528
 23
31.3681282026
  0
SOLID
  8
0
 62
7
  6
CONTINUOUS
 10
155.6440543074
 20
31.4649194065
 11
155.7018665869
 21
31.3681282026
 12
155.412804528
 22
31.3681282026
 13
155.412804528
 23
31.3681282026
  0
SOLID
  8
0
 62
7
  6
CONTINUOUS
 10
155.412804528
 20
31.2713369632
 11
155.412804528
 21
31.3681282026
 12
155.7018665869
 22
31.3681282026
 13
155.7018665869
 23
31.3681282026
  0
SOLID
  8
0
 62
7
  6
CONTINUOUS
 10
155.412804528
 20
31.2713369632
 11
155.7018665869
 21
31.3681282026
 12
155.412804528
 22
31.1422827828
 13
155.412804528
 23
31.1422827828
  0
SOLID
  8
0
 62
7
  6
CONTINUOUS
 10
155.412804528
 20
31.1422827828
 11
155.7018665869
 21
31.3681282026
 12
155.412804528
 22
30.9487004259
 13
155.412804528
 23
30.9487004259
  0
SOLID
  8
0
 62
7
  6
CONTINUOUS
 10
155.7018665869
 20
31.3681282026
 11
155.7018665869
 21
30.8519086025
 12
155.412804528
 22
30.9487004259
 13
155.412804528
 23
30.9487004259
  0
SOLID
  8
0
 62
7
  6
CONTINUOUS
 10
157.6096790869
 20
31.5939736268
 11
157.840929528
 21
31.6262383465
 12
158.0721793074
 22
31.6262383465
 13
158.0721793074
 23
31.6262383465
  0
SOLID
  8
0
 62
7
  6
CONTINUOUS
 10
158.0721793074
 20
31.6262383465
 11
158.2456168074
 21
31.5939736268
 12
157.6096790869
 22
31.5939736268
 13
157.6096790869
 23
31.5939736268
  0
SOLID
  8
0
 62
7
  6
CONTINUOUS
 10
157.4362415869
 20
31.5294472848
 11
157.6096790869
 21
31.5939736268
 12
158.2456168074
 22
31.5939736268
 13
158.2456168074
 23
31.5939736268
  0
SOLID
  8
0
 62
7
  6
CONTINUOUS
 10
158.2456168074
 20
31.5939736268
 11
158.4190543074
 21
31.5294472848
 12
157.4362415869
 22
31.5294472848
 13
157.4362415869
 23
31.5294472848
  0
SOLID
  8
0
 62
7
  6
CONTINUOUS
 10
158.4190543074
 20
31.5294472848
 11
157.840929528
 21
31.4971825369
 12
157.4362415869
 22
31.5294472848
 13
157.4362415869
 23
31.5294472848
  0
SOLID
  8
0
 62
7
  6
CONTINUOUS
 10
157.320617028
 20
31.4649199103
 11
157.4362415869
 21
31.5294472848
 12
157.840929528
 22
31.4971825369
 13
157.840929528
 23
31.4971825369
  0
SOLID
  8
0
 62
7
  6
CONTINUOUS
 10
157.840929528
 20
31.4971825369
 11
157.6096790869
 21
31.4649199103
 12
157.320617028
 22
31.4649199103
 13
157.320617028
 23
31.4649199103
  0
SOLID
  8
0
 62
7
  6
CONTINUOUS
 10
157.840929528
 20
31.4971825369
 11
158.4190543074
 21
31.5294472848
 12
158.0721793074
 22
31.4649199103
 13
158.0721793074
 23
31.4649199103
  0
SOLID
  8
0
 62
7
  6
CONTINUOUS
 10
158.4190543074
 20
31.5294472848
 11
158.534679528
 21
31.4649199103
 12
158.0721793074
 22
31.4649199103
 13
158.0721793074
 23
31.4649199103
  0
SOLID
  8
0
 62
7
  6
CONTINUOUS
 10
158.187804528
 20
31.4326554468
 11
158.0721793074
 21
31.4649199103
 12
158.534679528
 22
31.4649199103
 13
158.534679528
 23
31.4649199103
  0
SOLID
  8
0
 62
7
  6
CONTINUOUS
 10
158.187804528
 20
31.4326554468
 11
158.534679528
 21
31.4649199103
 12
158.3034290869
 22
31.3681288486
 13
158.3034290869
 23
31.3681288486
  0
SOLID
  8
0
 62
7
  6
CONTINUOUS
 10
158.534679528
 20
31.4649199103
 11
158.5924918074
 21
31.3681288486
 12
158.3034290869
 22
31.3681288486
 13
158.3034290869
 23
31.3681288486
  0
SOLID
  8
0
 62
7
  6
CONTINUOUS
 10
158.361242028
 20
31.2068093799
 11
158.3034290869
 21
31.3681288486
 12
158.5924918074
 22
31.3681288486
 13
158.5924918074
 23
31.3681288486
  0
SOLID
  8
0
 62
7
  6
CONTINUOUS
 10
158.5924918074
 20
31.3681288486
 11
158.6503040869
 21
31.2068093799
 12
158.361242028
 22
31.2068093799
 13
158.361242028
 23
31.2068093799
  0
SOLID
  8
0
 62
7
  6
CONTINUOUS
 10
157.6096790869
 20
31.4649199103
 11
157.4362415869
 21
31.4003926599
 12
157.320617028
 22
31.4649199103
 13
157.320617028
 23
31.4649199103
  0
SOLID
  8
0
 62
7
  6
CONTINUOUS
 10
157.4362415869
 20
31.4003926599
 11
157.320617028
 21
31.3358640533
 12
157.320617028
 22
31.4649199103
 13
157.320617028
 23
31.4649199103
  0
SOLID
  8
0
 62
7
  6
CONTINUOUS
 10
157.320617028
 20
31.3358640533
 11
157.0315543074
 21
30.5938003547
 12
157.320617028
 22
31.4649199103
 13
157.320617028
 23
31.4649199103
  0
SOLID
  8
0
 62
7
  6
CONTINUOUS
 10
157.320617028
 20
31.4649199103
 11
157.0315543074
 21
30.5938003547
 12
157.320617028
 22
31.6262383465
 13
157.320617028
 23
31.6262383465
  0
SOLID
  8
0
 62
7
  6
CONTINUOUS
 10
157.0315543074
 20
30.5938003547
 11
157.0315543074
 21
31.6262383465
 12
157.320617028
 22
31.6262383465
 13
157.320617028
 23
31.6262383465
  0
SOLID
  8
0
 62
7
  6
CONTINUOUS
 10
157.320617028
 20
31.3358640533
 11
157.320617028
 21
30.5938003547
 12
157.0315543074
 22
30.5938003547
 13
157.0315543074
 23
30.5938003547
  0
SOLID
  8
0
 62
7
  6
CONTINUOUS
 10
158.361242028
 20
30.5938003547
 11
158.361242028
 21
31.2068093799
 12
158.6503040869
 22
31.2068093799
 13
158.6503040869
 23
31.2068093799
  0
SOLID
  8
0
 62
7
  6
CONTINUOUS
 10
158.6503040869
 20
31.2068093799
 11
158.6503040869
 21
30.5938003547
 12
158.361242028
 22
30.5938003547
 13
158.361242028
 23
30.5938003547
  0
SOLID
  8
0
 62
7
  6
CONTINUOUS
 10
159.4596793074
 20
31.5939739474
 11
159.8065543074
 21
31.6262381969
 12
160.1534293074
 22
31.6262381969
 13
160.1534293074
 23
31.6262381969
  0
SOLID
  8
0
 62
7
  6
CONTINUOUS
 10
160.1534293074
 20
31.6262381969
 11
160.5003043074
 21
31.5939739474
 12
159.4596793074
 22
31.5939739474
 13
159.4596793074
 23
31.5939739474
  0
SOLID
  8
0
 62
7
  6
CONTINUOUS
 10
159.228429528
 20
31.5294468402
 11
159.4596793074
 21
31.5939739474
 12
160.5003043074
 22
31.5939739474
 13
160.5003043074
 23
31.5939739474
  0
SOLID
  8
0
 62
7
  6
CONTINUOUS
 10
159.228429528
 20
31.5294468402
 11
160.5003043074
 21
31.5939739304
 12
160.6737418074
 22
31.5617111435
 13
160.6737418074
 23
31.5617111435
  0
SOLID
  8
0
 62
7
  6
CONTINUOUS
 10
159.228429528
 20
31.5294468402
 11
160.6737418074
 21
31.5617111435
 12
159.8065543074
 22
31.4971825592
 13
159.8065543074
 23
31.4971825592
  0
SOLID
  8
0
 62
7
  6
CONTINUOUS
 10
159.8065543074
 20
31.4971825592
 11
160.6737418074
 21
31.5617111435
 12
160.1534293074
 22
31.4971825592
 13
160.1534293074
 23
31.4971825592
  0
SOLID
  8
0
 62
7
  6
CONTINUOUS
 10
160.6737418074
 20
31.5617111435
 11
160.8471793074
 21
31.4971825592
 12
160.1534293074
 22
31.4971825592
 13
160.1534293074
 23
31.4971825592
  0
SOLID
  8
0
 62
7
  6
CONTINUOUS
 10
160.5003043074
 20
31.4649197501
 11
160.1534293074
 21
31.4971825592
 12
160.8471793074
 22
31.4971825592
 13
160.8471793074
 23
31.4971825592
  0
SOLID
  8
0
 62
7
  6
CONTINUOUS
 10
159.1128043074
 20
31.4326555427
 11
159.228429528
 21
31.5294468402
 12
159.8065543074
 22
31.4971825592
 13
159.8065543074
 23
31.4971825592
  0
SOLID
  8
0
 62
7
  6
CONTINUOUS
 10
160.5003043074
 20
31.4649197501
 11
160.8471793074
 21
31.4971825592
 12
160.615929528
 22
31.4326555427
 13
160.615929528
 23
31.4326555427
  0
SOLID
  8
0
 62
7
  6
CONTINUOUS
 10
160.615929528
 20
31.4326555427
 11
160.8471793074
 21
31.4971825592
 12
160.6737418074
 22
31.3681283005
 13
160.6737418074
 23
31.3681283005
  0
SOLID
  8
0
 62
7
  6
CONTINUOUS
 10
160.8471793074
 20
31.4971825592
 11
160.9628038663
 21
31.3681283005
 12
160.6737418074
 22
31.3681283005
 13
160.6737418074
 23
31.3681283005
  0
SOLID
  8
0
 62
7
  6
CONTINUOUS
 10
150.2674918074
 20
31.4649197501
 11
149.7471793074
 21
31.4326554237
 12
150.498741835
 22
31.4971824493
 13
150.498741835
 23
31.4971824493
  0
SOLID
  8
0
 62
7
  6
CONTINUOUS
 10
149.7471793074
 20
31.4326554237
 11
149.8628043005
 21
31.4971824493
 12
150.498741835
 22
31.4971824493
 13
150.498741835
 23
31.4971824493
  0
SOLID
  8
0
 62
7
  6
CONTINUOUS
 10
150.2674918074
 20
31.4649197501
 11
150.1518667936
 21
31.4326554237
 12
149.7471793074
 22
31.4326554237
 13
149.7471793074
 23
31.4326554237
  0
SOLID
  8
0
 62
7
  6
CONTINUOUS
 10
149.6315543091
 20
31.3036012664
 11
149.7471793074
 21
31.4326554237
 12
150.1518667936
 22
31.4326554237
 13
150.1518667936
 23
31.4326554237
  0
SOLID
  8
0
 62
7
  6
CONTINUOUS
 10
153.9674919177
 20
31.4326554237
 11
154.6612419177
 21
31.4971825369
 12
154.4299918074
 22
31.4649197501
 13
154.4299918074
 23
31.4649197501
  0
SOLID
  8
0
 62
7
  6
CONTINUOUS
 10
154.4299918074
 20
31.4649197501
 11
154.3143669177
 21
31.4326554237
 12
153.9674919177
 22
31.4326554237
 13
153.9674919177
 23
31.4326554237
  0
SOLID
  8
0
 62
7
  6
CONTINUOUS
 10
153.9674919177
 20
31.3681283335
 11
153.9674919177
 21
31.4326554237
 12
154.3143669177
 22
31.4326554237
 13
154.3143669177
 23
31.4326554237
  0
SOLID
  8
0
 62
7
  6
CONTINUOUS
 10
154.3143669177
 20
31.4326554237
 11
154.2565543074
 21
31.3681283335
 12
153.9674919177
 22
31.3681283335
 13
153.9674919177
 23
31.3681283335
  0
SOLID
  8
0
 62
7
  6
CONTINUOUS
 10
159.1128043074
 20
31.4326555528
 11
159.8065543074
 21
31.4971825369
 12
159.575304528
 22
31.4649197501
 13
159.575304528
 23
31.4649197501
  0
SOLID
  8
0
 62
7
  6
CONTINUOUS
 10
159.575304528
 20
31.4649197501
 11
159.4596793074
 21
31.4326555528
 12
159.1128043074
 22
31.4326555528
 13
159.1128043074
 23
31.4326555528
  0
SOLID
  8
0
 62
7
  6
CONTINUOUS
 10
159.1128043074
 20
31.3681284626
 11
159.1128043074
 21
31.4326555528
 12
159.4596793074
 22
31.4326555528
 13
159.4596793074
 23
31.4326555528
  0
SOLID
  8
0
 62
7
  6
CONTINUOUS
 10
159.4596793074
 20
31.4326555528
 11
159.401867028
 21
31.3681284626
 12
159.1128043074
 22
31.3681284626
 13
159.1128043074
 23
31.3681284626
  0
SOLID
  8
0
 62
7
  6
CONTINUOUS
 10
159.228429528
 20
31.2390741763
 11
159.1128043074
 21
31.3681284626
 12
159.401867028
 22
31.3681284626
 13
159.401867028
 23
31.3681284626
  0
SOLID
  8
0
 62
7
  6
CONTINUOUS
 10
149.6315543091
 20
31.3036012664
 11
150.1518667936
 21
31.4326554468
 12
149.9784292936
 22
31.3358640533
 13
149.9784292936
 23
31.3358640533
  0
SOLID
  8
0
 62
7
  6
CONTINUOUS
 10
149.9784292936
 20
31.3358640533
 11
149.9206168074
 21
31.2713369632
 12
149.6315543091
 22
31.3036012664
 13
149.6315543091
 23
31.3036012664
  0
SOLID
  8
0
 62
7
  6
CONTINUOUS
 10
149.5737418074
 20
31.1100184796
 11
149.6315543091
 21
31.3036012664
 12
149.9206168074
 22
31.2713369632
 13
149.9206168074
 23
31.2713369632
  0
SOLID
  8
0
 62
7
  6
CONTINUOUS
 10
154.4299918074
 20
31.2390741763
 11
154.7768668074
 21
31.271336924
 12
155.412804528
 22
31.271336924
 13
155.412804528
 23
31.271336924
  0
SOLID
  8
0
 62
7
  6
CONTINUOUS
 10
154.4299918074
 20
31.2390741763
 11
155.412804528
 21
31.271336924
 12
154.1987416972
 22
31.1745462761
 13
154.1987416972
 23
31.1745462761
  0
SOLID
  8
0
 62
7
  6
CONTINUOUS
 10
154.1987416972
 20
31.1745462761
 11
155.412804528
 21
31.271336924
 12
154.7768668074
 22
31.1422827436
 13
154.7768668074
 23
31.1422827436
  0
SOLID
  8
0
 62
7
  6
CONTINUOUS
 10
155.412804528
 20
31.271336924
 11
155.412804528
 21
31.1422827436
 12
154.7768668074
 22
31.1422827436
 13
154.7768668074
 23
31.1422827436
  0
SOLID
  8
0
 62
7
  6
CONTINUOUS
 10
159.228429528
 20
31.2390745501
 11
159.401867028
 21
31.3681283566
 12
159.4596793074
 22
31.3036012664
 13
159.4596793074
 23
31.3036012664
  0
SOLID
  8
0
 62
7
  6
CONTINUOUS
 10
159.4596793074
 20
31.3036012664
 11
159.6331168074
 21
31.2390745501
 12
159.228429528
 22
31.2390745501
 13
159.228429528
 23
31.2390745501
  0
SOLID
  8
0
 62
7
  6
CONTINUOUS
 10
159.4596793074
 20
31.1422827828
 11
159.228429528
 21
31.2390745501
 12
159.6331168074
 22
31.2390745501
 13
159.6331168074
 23
31.2390745501
  0
SOLID
  8
0
 62
7
  6
CONTINUOUS
 10
159.6331168074
 20
31.2390745501
 11
160.615929528
 21
31.0777556927
 12
159.4596793074
 22
31.1422827828
 13
159.4596793074
 23
31.1422827828
  0
SOLID
  8
0
 62
7
  6
CONTINUOUS
 10
160.442492028
 20
30.9809646623
 11
159.4596793074
 21
31.1422827828
 12
160.615929528
 22
31.0777556927
 13
160.615929528
 23
31.0777556927
  0
SOLID
  8
0
 62
7
  6
CONTINUOUS
 10
160.615929528
 20
31.0777556927
 11
160.8471793074
 21
30.9809646623
 12
160.442492028
 22
30.9809646623
 13
160.442492028
 23
30.9809646623
  0
SOLID
  8
0
 62
7
  6
CONTINUOUS
 10
160.615929528
 20
30.9164372091
 11
160.442492028
 21
30.9809646623
 12
160.8471793074
 22
30.9809646623
 13
160.8471793074
 23
30.9809646623
  0
SOLID
  8
0
 62
7
  6
CONTINUOUS
 10
160.615929528
 20
30.9164372091
 11
160.8471793074
 21
30.9809646623
 12
160.6737418074
 22
30.8519089441
 13
160.6737418074
 23
30.8519089441
  0
SOLID
  8
0
 62
7
  6
CONTINUOUS
 10
160.8471793074
 20
30.9809646623
 11
160.9628038663
 21
30.8519089441
 12
160.6737418074
 22
30.8519089441
 13
160.6737418074
 23
30.8519089441
  0
SOLID
  8
0
 62
7
  6
CONTINUOUS
 10
160.615929528
 20
30.7873818593
 11
160.6737418074
 21
30.8519089441
 12
160.9628038663
 22
30.8519089441
 13
160.9628038663
 23
30.8519089441
  0
SOLID
  8
0
 62
7
  6
CONTINUOUS
 10
160.9628038663
 20
30.8519089441
 11
160.9628038663
 21
30.7873818593
 12
160.615929528
 22
30.7873818593
 13
160.615929528
 23
30.7873818593
  0
SOLID
  8
0
 62
7
  6
CONTINUOUS
 10
160.5003043074
 20
30.7551187255
 11
160.615929528
 21
30.7873818593
 12
160.9628038663
 22
30.7873818593
 13
160.9628038663
 23
30.7873818593
  0
SOLID
  8
0
 62
7
  6
CONTINUOUS
 10
160.5003043074
 20
30.7551187255
 11
160.9628038663
 21
30.7873818593
 12
160.269054528
 22
30.7228547745
 13
160.269054528
 23
30.7228547745
  0
SOLID
  8
0
 62
7
  6
CONTINUOUS
 10
160.9628038663
 20
30.7873818593
 11
160.8471793074
 21
30.6905916353
 12
160.269054528
 22
30.7228547745
 13
160.269054528
 23
30.7228547745
  0
SOLID
  8
0
 62
7
  6
CONTINUOUS
 10
160.8471793074
 20
30.6905916353
 11
159.401867028
 21
30.658327332
 12
160.269054528
 22
30.7228547745
 13
160.269054528
 23
30.7228547745
  0
SOLID
  8
0
 62
7
  6
CONTINUOUS
 10
160.269054528
 20
30.7228547745
 11
159.401867028
 21
30.658327332
 12
159.922179528
 22
30.7228547745
 13
159.922179528
 23
30.7228547745
  0
SOLID
  8
0
 62
7
  6
CONTINUOUS
 10
159.401867028
 20
30.658327332
 11
159.228429528
 21
30.7228547745
 12
159.922179528
 22
30.7228547745
 13
159.922179528
 23
30.7228547745
  0
SOLID
  8
0
 62
7
  6
CONTINUOUS
 10
159.401867028
 20
30.658327332
 11
160.8471793074
 21
30.6905916353
 12
159.575304528
 22
30.6260629858
 13
159.575304528
 23
30.6260629858
  0
SOLID
  8
0
 62
7
  6
CONTINUOUS
 10
160.8471793074
 20
30.6905916353
 11
160.615929528
 21
30.6260629858
 12
159.575304528
 22
30.6260629858
 13
159.575304528
 23
30.6260629858
  0
SOLID
  8
0
 62
7
  6
CONTINUOUS
 10
159.922179528
 20
30.5938006049
 11
159.575304528
 21
30.6260629858
 12
160.615929528
 22
30.6260629858
 13
160.615929528
 23
30.6260629858
  0
SOLID
  8
0
 62
7
  6
CONTINUOUS
 10
160.615929528
 20
30.6260629858
 11
160.269054528
 21
30.5938006049
 12
159.922179528
 22
30.5938006049
 13
159.922179528
 23
30.5938006049
  0
SOLID
  8
0
 62
7
  6
CONTINUOUS
 10
149.5737418074
 20
31.1100184796
 11
149.9206168074
 21
31.2713369632
 12
149.8628043005
 22
31.1422827828
 13
149.8628043005
 23
31.1422827828
  0
SOLID
  8
0
 62
7
  6
CONTINUOUS
 10
149.8628043005
 20
31.1422827828
 11
149.8628043005
 21
31.0454914852
 12
149.5737418074
 22
31.1100184796
 13
149.5737418074
 23
31.1100184796
  0
SOLID
  8
0
 62
7
  6
CONTINUOUS
 10
149.6315543091
 20
30.9164372091
 11
149.5737418074
 21
31.1100184796
 12
149.8628043005
 22
31.0454914852
 13
149.8628043005
 23
31.0454914852
  0
SOLID
  8
0
 62
7
  6
CONTINUOUS
 10
149.8628043005
 20
31.0454914852
 11
149.9784292936
 21
30.8841729058
 12
149.6315543091
 22
30.9164372091
 13
149.6315543091
 23
30.9164372091
  0
SOLID
  8
0
 62
7
  6
CONTINUOUS
 10
149.7471793074
 20
30.7873813202
 11
149.6315543091
 21
30.9164372091
 12
149.9784292936
 22
30.8841729058
 13
149.9784292936
 23
30.8841729058
  0
SOLID
  8
0
 62
7
  6
CONTINUOUS
 10
149.9784292936
 20
30.8841729058
 11
150.1518667936
 21
30.7873813202
 12
149.7471793074
 22
30.7873813202
 13
149.7471793074
 23
30.7873813202
  0
SOLID
  8
0
 62
7
  6
CONTINUOUS
 10
149.8628043005
 20
30.7228547004
 11
149.7471793074
 21
30.7873813202
 12
150.1518667936
 22
30.7873813202
 13
150.1518667936
 23
30.7873813202
  0
SOLID
  8
0
 62
7
  6
CONTINUOUS
 10
150.1518667936
 20
30.7873813202
 11
150.498741835
 21
30.7228547004
 12
149.8628043005
 22
30.7228547004
 13
149.8628043005
 23
30.7228547004
  0
SOLID
  8
0
 62
7
  6
CONTINUOUS
 10
150.0362418212
 20
30.658327332
 11
149.8628043005
 21
30.7228547004
 12
150.498741835
 22
30.7228547004
 13
150.498741835
 23
30.7228547004
  0
SOLID
  8
0
 62
7
  6
CONTINUOUS
 10
154.0831168074
 20
31.1100184386
 11
154.1987416972
 21
31.1745462761
 12
154.7768668074
 22
31.1422827828
 13
154.7768668074
 23
31.1422827828
  0
SOLID
  8
0
 62
7
  6
CONTINUOUS
 10
154.7768668074
 20
31.1422827828
 11
154.5456166972
 21
31.1100184386
 12
154.0831168074
 22
31.1100184386
 13
154.0831168074
 23
31.1100184386
  0
SOLID
  8
0
 62
7
  6
CONTINUOUS
 10
153.9674919177
 20
30.9809642992
 11
154.0831168074
 21
31.1100184386
 12
154.5456166972
 22
31.1100184386
 13
154.5456166972
 23
31.1100184386
  0
SOLID
  8
0
 62
7
  6
CONTINUOUS
 10
154.3143669177
 20
31.0132277988
 11
153.9674919177
 21
30.9809642992
 12
154.4299918074
 22
31.0777556927
 13
154.4299918074
 23
31.0777556927
  0
SOLID
  8
0
 62
7
  6
CONTINUOUS
 10
153.9674919177
 20
30.9809642992
 11
154.5456166972
 21
31.1100184796
 12
154.4299918074
 22
31.0777556927
 13
154.4299918074
 23
31.0777556927
  0
SOLID
  8
0
 62
7
  6
CONTINUOUS
 10
154.3143669177
 20
31.0132277988
 11
154.2565543074
 21
30.9164372091
 12
153.9674919177
 22
30.9809642992
 13
153.9674919177
 23
30.9809642992
  0
SOLID
  8
0
 62
7
  6
CONTINUOUS
 10
153.9674919177
 20
30.8841729058
 11
153.9674919177
 21
30.9809642992
 12
154.2565543074
 22
30.9164372091
 13
154.2565543074
 23
30.9164372091
  0
SOLID
  8
0
 62
7
  6
CONTINUOUS
 10
154.2565543074
 20
30.9164372091
 11
154.2565543074
 21
30.8519086025
 12
153.9674919177
 22
30.8841729058
 13
153.9674919177
 23
30.8841729058
  0
SOLID
  8
0
 62
7
  6
CONTINUOUS
 10
154.0253041972
 20
30.7551187255
 11
153.9674919177
 21
30.8841729058
 12
154.2565543074
 22
30.8519086025
 13
154.2565543074
 23
30.8519086025
  0
SOLID
  8
0
 62
7
  6
CONTINUOUS
 10
155.412804528
 20
30.9487004259
 11
155.7018665869
 21
30.8519086025
 12
155.3549915869
 22
30.8841729058
 13
155.3549915869
 23
30.8841729058
  0
SOLID
  8
0
 62
7
  6
CONTINUOUS
 10
155.1815540869
 20
30.7873815123
 11
155.3549915869
 21
30.8841729058
 12
155.7018665869
 22
30.8519086025
 13
155.7018665869
 23
30.8519086025
  0
SOLID
  8
0
 62
7
  6
CONTINUOUS
 10
155.1815540869
 20
30.7873815123
 11
155.7018665869
 21
30.8519086025
 12
155.412804528
 22
30.7551187255
 13
155.412804528
 23
30.7551187255
  0
SOLID
  8
0
 62
7
  6
CONTINUOUS
 10
155.7018665869
 20
30.8519086025
 11
155.759679528
 21
30.6905916353
 12
155.412804528
 22
30.7551187255
 13
155.412804528
 23
30.7551187255
  0
SOLID
  8
0
 62
7
  6
CONTINUOUS
 10
155.4706168074
 20
30.658327332
 11
155.412804528
 21
30.7551187255
 12
155.759679528
 22
30.6905916353
 13
155.759679528
 23
30.6905916353
  0
SOLID
  8
0
 62
7
  6
CONTINUOUS
 10
155.4706168074
 20
30.658327332
 11
155.759679528
 21
30.6905916353
 12
155.5284290869
 22
30.5938002079
 13
155.5284290869
 23
30.5938002079
  0
SOLID
  8
0
 62
7
  6
CONTINUOUS
 10
155.759679528
 20
30.6905916353
 11
155.8174918074
 21
30.5938002079
 12
155.5284290869
 22
30.5938002079
 13
155.5284290869
 23
30.5938002079
  0
SOLID
  8
0
 62
7
  6
CONTINUOUS
 10
151.0768668626
 20
30.8196456577
 11
151.1346793074
 21
30.9164373395
 12
151.4237418626
 22
30.9164373395
 13
151.4237418626
 23
30.9164373395
  0
SOLID
  8
0
 62
7
  6
CONTINUOUS
 10
151.4237418626
 20
30.9164373395
 11
151.3659292523
 21
30.7873815123
 12
151.0768668626
 22
30.8196456577
 13
151.0768668626
 23
30.8196456577
  0
SOLID
  8
0
 62
7
  6
CONTINUOUS
 10
150.9034292799
 20
30.7551187255
 11
151.0768668626
 21
30.8196456577
 12
151.3659292523
 22
30.7873815123
 13
151.3659292523
 23
30.7873815123
  0
SOLID
  8
0
 62
7
  6
CONTINUOUS
 10
150.9034292799
 20
30.7551187255
 11
151.3659292523
 21
30.7873815123
 12
150.498741835
 22
30.7228544222
 13
150.498741835
 23
30.7228544222
  0
SOLID
  8
0
 62
7
  6
CONTINUOUS
 10
151.3659292523
 20
30.7873815123
 11
151.1924917523
 21
30.6905916353
 12
150.498741835
 22
30.7228544222
 13
150.498741835
 23
30.7228544222
  0
SOLID
  8
0
 62
7
  6
CONTINUOUS
 10
150.0362418212
 20
30.658327332
 11
150.498741835
 21
30.7228544222
 12
151.1924917523
 22
30.6905916353
 13
151.1924917523
 23
30.6905916353
  0
SOLID
  8
0
 62
7
  6
CONTINUOUS
 10
150.0362418212
 20
30.658327332
 11
151.1924917523
 21
30.6905916353
 12
150.2096793212
 22
30.6260631011
 13
150.2096793212
 23
30.6260631011
  0
SOLID
  8
0
 62
7
  6
CONTINUOUS
 10
151.1924917523
 20
30.6905916353
 11
150.9612418074
 21
30.6260631011
 12
150.2096793212
 22
30.6260631011
 13
150.2096793212
 23
30.6260631011
  0
SOLID
  8
0
 62
7
  6
CONTINUOUS
 10
150.5565542799
 20
30.5938002419
 11
150.2096793212
 21
30.6260631011
 12
150.9612418074
 22
30.6260631011
 13
150.9612418074
 23
30.6260631011
  0
SOLID
  8
0
 62
7
  6
CONTINUOUS
 10
154.0253041972
 20
30.7551187255
 11
154.2565543074
 21
30.8519086025
 12
154.3143669177
 22
30.7873815123
 13
154.3143669177
 23
30.7873815123
  0
SOLID
  8
0
 62
7
  6
CONTINUOUS
 10
154.3143669177
 20
30.7873815123
 11
154.5456166972
 21
30.7228544222
 12
154.0253041972
 22
30.7551187255
 13
154.0253041972
 23
30.7551187255
  0
SOLID
  8
0
 62
7
  6
CONTINUOUS
 10
154.1987416972
 20
30.658327332
 11
154.0253041972
 21
30.7551187255
 12
154.5456166972
 22
30.7228544222
 13
154.5456166972
 23
30.7228544222
  0
SOLID
  8
0
 62
7
  6
CONTINUOUS
 10
154.8924916972
 20
30.7228544637
 11
155.1815540869
 21
30.7873815123
 12
155.412804528
 22
30.7551187255
 13
155.412804528
 23
30.7551187255
  0
SOLID
  8
0
 62
7
  6
CONTINUOUS
 10
155.412804528
 20
30.7551187255
 11
155.3549915869
 21
30.6905916353
 12
154.8924916972
 22
30.7228544637
 13
154.8924916972
 23
30.7228544637
  0
SOLID
  8
0
 62
7
  6
CONTINUOUS
 10
155.3549915869
 20
30.6905916353
 11
154.1987416972
 21
30.658327332
 12
154.8924916972
 22
30.7228544637
 13
154.8924916972
 23
30.7228544637
  0
SOLID
  8
0
 62
7
  6
CONTINUOUS
 10
154.1987416972
 20
30.658327332
 11
154.5456166972
 21
30.7228544637
 12
154.8924916972
 22
30.7228544637
 13
154.8924916972
 23
30.7228544637
  0
SOLID
  8
0
 62
7
  6
CONTINUOUS
 10
154.1987416972
 20
30.658327332
 11
155.3549915869
 21
30.6905916353
 12
154.3143669177
 22
30.6260630541
 13
154.3143669177
 23
30.6260630541
  0
SOLID
  8
0
 62
7
  6
CONTINUOUS
 10
155.3549915869
 20
30.6905916353
 11
155.1815540869
 21
30.6260630541
 12
154.3143669177
 22
30.6260630541
 13
154.3143669177
 23
30.6260630541
  0
SOLID
  8
0
 62
7
  6
CONTINUOUS
 10
154.5456166972
 20
30.5938002188
 11
154.3143669177
 21
30.6260630541
 12
155.1815540869
 22
30.6260630541
 13
155.1815540869
 23
30.6260630541
  0
SOLID
  8
0
 62
7
  6
CONTINUOUS
 10
155.1815540869
 20
30.6260630541
 11
154.8924916972
 21
30.5938002188
 12
154.5456166972
 22
30.5938002188
 13
154.5456166972
 23
30.5938002188
  0
SOLID
  8
0
 62
7
  6
CONTINUOUS
 10
159.575304528
 20
30.7551187255
 11
159.228429528
 21
30.7228544637
 12
159.4596793074
 22
30.7873815123
 13
159.4596793074
 23
30.7873815123
  0
SOLID
  8
0
 62
7
  6
CONTINUOUS
 10
159.4596793074
 20
30.7873815123
 11
159.228429528
 21
30.7228544637
 12
159.401867028
 22
30.851908644
 13
159.401867028
 23
30.851908644
  0
SOLID
  8
0
 62
7
  6
CONTINUOUS
 10
159.228429528
 20
30.7228544637
 11
159.1128043074
 21
30.851908644
 12
159.401867028
 22
30.851908644
 13
159.401867028
 23
30.851908644
  0
SOLID
  8
0
 62
7
  6
CONTINUOUS
 10
159.575304528
 20
30.7551187255
 11
159.922179528
 21
30.7228544637
 12
159.228429528
 22
30.7228544637
 13
159.228429528
 23
30.7228544637
  0
SOLID
  8
0
 62
7
  6
CONTINUOUS
 10
156.279992028
 20
30.5938002419
 11
156.279992028
 21
31.6262382337
 12
156.5690540869
 22
30.5938002419
 13
156.5690540869
 23
31.6262382337
  0
ENDBLK
  8
0
  6
BYBLOCK
 62
0
  0
BLOCK
  8
0
 62
2
  6
CONTINUOUS
  2
SYMBOL_3_BL0
 70
64
 10
32.1213064866
 20
19.8534310916
  0
TEXT
  8
0
 62
7
  6
CONTINUOUS
 10
18.3860103289
 20
19.2268451992
  7
TEXTSTYLE_3
 40
2.7338706658
  1
Ammeraal Beltech
 41
1.0
 51
15.0
 72
0
  0
TEXT
  8
0
 62
7
  6
CONTINUOUS
 10
29.1868111546
 20
16.9533085264
  7
TEXTSTYLE_4
 40
1.0935482663
  1
Innovation & Service in Belting
 41
1.0
 72
0
  0
LINE
  8
0
 62
7
  6
CONTINUOUS
 10
12.3614696776
 20
19.9934385078
 11
13.1396216709
 21
23.6543558055
  0
LINE
  8
0
 62
7
  6
CONTINUOUS
 10
23.2347899607
 20
27.3177497171
 11
13.6274394139
 21
24.1961322958
  0
LINE
  8
0
 62
7
  6
CONTINUOUS
 10
12.5867530099
 20
19.3000877048
 11
20.093828271
 21
12.5406867788
  0
LINE
  8
0
 62
7
  6
CONTINUOUS
 10
12.8492874206
 20
20.5352149982
 11
23.6575567857
 21
24.0470345971
  0
LINE
  8
0
 62
7
  6
CONTINUOUS
 10
23.6533516486
 20
13.6972460334
 11
15.2078919798
 21
21.3015720751
  0
LINE
  8
0
 62
7
  6
CONTINUOUS
 10
24.1731743684
 20
26.4728246013
 11
23.1966148312
 21
21.8784731989
  0
LINE
  8
0
 62
7
  6
CONTINUOUS
 10
22.4968128835
 20
18.5861638851
 11
21.810364672
 21
15.3566789607
  0
LINE
  8
0
 62
7
  6
CONTINUOUS
 10
24.8542704669
 20
14.087448211
 11
25.8105020025
 21
18.5861638851
  0
LINE
  8
0
 62
7
  6
CONTINUOUS
 10
26.5103039502
 20
21.8784731989
 11
26.9545457526
 21
23.9684665583
  0
LINE
  8
0
 62
7
  6
CONTINUOUS
 10
20.8069293463
 20
12.3891124661
 11
24.3664527239
 21
13.5456717207
  0
LINE
  8
0
 62
7
  6
CONTINUOUS
 10
23.9478910361
 20
27.1661754044
 11
26.7292624203
 21
24.6618173613
  0
ARC
  8
0
 62
7
  6
CONTINUOUS
 10
13.8527227462
 20
23.5027814928
 40
0.7290321776
 50
108.0
 51
168.0
  0
ARC
  8
0
 62
7
  6
CONTINUOUS
 10
23.4600732931
 20
26.624398914
 40
0.7290321776
 50
348.0
 51
108.0
  0
ARC
  8
0
 62
7
  6
CONTINUOUS
 10
26.2414446773
 20
24.120040871
 40
0.7290321776
 50
348.0
 51
48.0
  0
ARC
  8
0
 62
7
  6
CONTINUOUS
 10
20.581646014
 20
13.0824632691
 40
0.7290321776
 50
228.0
 51
288.0
  0
ARC
  8
0
 62
7
  6
CONTINUOUS
 10
13.0745707529
 20
19.8418641951
 40
0.7290321776
 50
108.0
 51
228.0
  0
ARC
  8
0
 62
7
  6
CONTINUOUS
 10
24.1411693916
 20
14.2390225237
 40
0.7290321776
 50
228.0
 51
348.0
  0
ENDBLK
  8
0
  6
BYBLOCK
 62
0
  0
ENDSEC
  0
SECTION
  2
ENTITIES
  0
TEXT
  8
0
 62
5
  6
CONTINUOUS
 10
96.0
 20
25.636
  7
TEXTSTYLE_2
 40
2.8
  1
Scale :
 41
0.6
 51
0.000019
 72
0
  0
TEXT
  8
0
 62
5
  6
CONTINUOUS
 10
116.0
 20
25.636
  7
TEXTSTYLE_2
 40
2.8
  1
Belt type:
 41
0.6
 51
0.000019
 72
0
  0
INSERT
  8
0
 62
2
  6
CONTINUOUS
  2
SYMBOL_3_BL0
 10
32.1213064866
 20
19.8534310916
  0
INSERT
  8
0
 62
2
  6
CONTINUOUS
  2
SYMBOL_8_BL1
 10
173.5956734183
 20
35.5937998301
  0
LINE
  8
0
 62
2
  6
CONTINUOUS
 10
10.0
 20
30.0
 11
200.0
 21
30.0
  0
LINE
  8
0
 62
2
  6
CONTINUOUS
 10
10.0
 20
30.0
 11
10.0
 21
10.0
  0
LINE
  8
0
 62
2
  6
CONTINUOUS
 10
10.0
 20
10.0
 11
200.0
 21
10.0
  0
LINE
  8
0
 62
2
  6
CONTINUOUS
 10
95.0
 20
30.0
 11
95.0
 21
10.0
  0
LINE
  8
0
 62
2
  6
CONTINUOUS
 10
115.0
 20
30.0
 11
115.0
 21
10.0
  0
LINE
  8
0
 62
2
  6
CONTINUOUS
 10
200.0
 20
30.0
 11
200.0
 21
10.0
  0
TEXT
  8
0
 62
5
  6
CONTINUOUS
 10
13.0
 20
23.303
  7
TEXTSTYLE_5
 40
1.52
  1
                                                                     Ammeraal Beltech Modular A/S
 41
1.0
 72
0
  0
TEXT
  8
0
 62
5
  6
CONTINUOUS
 10
13.0
 20
20.595
  7
TEXTSTYLE_5
 40
1.5
  1
                                                                      Hjulmagervej 21,  7100 Vejle,  DK
 41
1.0
 72
0
  0
TEXT
  8
0
 62
5
  6
CONTINUOUS
 10
13.0
 20
17.881
  7
TEXTSTYLE_5
 40
1.495
  1
                                                                      tel: 
 41
1.0
 72
0
  0
TEXT
  8
0
 62
5
  6
CONTINUOUS
 10
57.9869465649
 20
17.881
  7
TEXTSTYLE_5
 40
1.51
  1
+45 75723100     fax: +45 75723348
 41
1.0
 72
0
  0
TEXT
  8
0
 62
5
  6
CONTINUOUS
 10
13.0
 20
15.177
  7
TEXTSTYLE_5
 40
1.5
  1
                                                                      admin@unichains.dk  www.unichains.com
 41
1.0
 72
0
  0
TEXT
  8
0
 62
5
  6
CONTINUOUS
 10
99.75
 20
13.75
  7
TEXTSTYLE_6
 40
5.0
  1
1:1
 41
0.7
 72
1
 11
105.0
 21
13.75
  0
TEXT
  8
0
 62
5
  6
CONTINUOUS
 10
118.0
 20
13.75
  7
TEXTSTYLE_7
 40
7.5
  1
Sprocket Z13 Idlers
 41
0.5973684211
 72
0
  0
LINE
  8
0
 62
7
  6
CONTINUOUS
 10
210.0
 20
0.0
 11
0.0
 21
0.0
  0
LINE
  8
0
 62
7
  6
CONTINUOUS
 10
10.0
 20
10.0
 11
200.0
 21
10.0
  0
LINE
  8
0
 62
7
  6
CONTINUOUS
 10
10.0
 20
30.0
 11
200.0
 21
30.0
  0
LINE
  8
0
 62
7
  6
CONTINUOUS
 10
0.0
 20
0.0
 11
0.0
 21
297.0
  0
LINE
  8
0
 62
7
  6
CONTINUOUS
 10
10.0
 20
10.0
 11
10.0
 21
287.0
  0
LINE
  8
0
 62
7
  6
CONTINUOUS
 10
200.0
 20
287.0
 11
200.0
 21
10.0
  0
LINE
  8
0
 62
7
  6
CONTINUOUS
 10
210.0
 20
0.0
 11
210.0
 21
297.0
  0
LINE
  8
0
 62
7
  6
CONTINUOUS
 10
10.0
 20
287.0
 11
200.0
 21
287.0
  0
LINE
  8
0
 62
7
  6
CONTINUOUS
 10
0.0
 20
297.0
 11
210.0
 21
297.0
  0
LINE
  8
0
 62
7
  6
CONTINUOUS
 10
68.0936615045
 20
242.66839761
 11
67.6820385793
 21
242.3492831603
  0
LINE
  8
0
 62
7
  6
CONTINUOUS
 10
66.0355472611
 20
241.0728256581
 11
65.6239244242
 21
240.7537112769
  0
LINE
  8
0
 62
7
  6
CONTINUOUS
 10
70.6996522121
 20
244.4595003083
 11
70.3528488293
 21
244.2285486027
  0
LINE
  8
0
 62
7
  6
CONTINUOUS
 10
69.5725415901
 20
243.7089075127
 11
69.1390374856
 21
243.4202179632
  0
LINE
  8
0
 62
7
  6
CONTINUOUS
 10
72.0438084615
 20
247.1797365466
 11
71.5973803905
 21
246.9114659153
  0
LINE
  8
0
 62
7
  6
CONTINUOUS
 10
71.8713589794
 20
246.4555392552
 11
72.3177870504
 21
246.7238098864
  0
LINE
  8
0
 62
7
  6
CONTINUOUS
 10
72.8657443816
 20
245.8119563106
 11
72.4193163106
 21
245.5436856794
  0
LINE
  8
0
 62
7
  6
CONTINUOUS
 10
86.0097457557
 20
251.5782628838
 11
85.4418396882
 21
251.2964384102
  0
LINE
  8
0
 62
7
  6
CONTINUOUS
 10
81.2993971986
 20
251.6923989548
 11
77.8399150324
 21
250.2451660288
  0
LINE
  8
0
 62
7
  6
CONTINUOUS
 10
78.6628328834
 20
249.8975235584
 11
81.5457346885
 21
251.1035509967
  0
LINE
  8
0
 62
7
  6
CONTINUOUS
 10
81.6950783913
 20
249.6669095141
 11
79.1965642267
 21
248.6216860409
  0
LINE
  8
0
 62
7
  6
CONTINUOUS
 10
79.4429017166
 20
248.0328380828
 11
81.9414158812
 21
249.0780615561
  0
LINE
  8
0
 62
7
  6
CONTINUOUS
 10
82.8349782592
 20
252.2248377853
 11
82.3443496273
 21
252.0500484246
  0
LINE
  8
0
 62
7
  6
CONTINUOUS
 10
87.3748524427
 20
250.6556328534
 11
85.2799792547
 21
250.0258213129
  0
LINE
  8
0
 62
7
  6
CONTINUOUS
 10
85.3027414698
 20
249.5883173253
 11
87.9961498542
 21
250.3980750203
  0
LINE
  8
0
 62
7
  6
CONTINUOUS
 10
99.6261129581
 20
254.7971474948
 11
100.038406292
 21
254.9193903501
  0
LINE
  8
0
 62
7
  6
CONTINUOUS
 10
69.0302976051
 20
239.7601126858
 11
68.7661802327
 21
239.4207450603
  0
LINE
  8
0
 62
7
  6
CONTINUOUS
 10
69.0269034698
 20
239.0844404472
 11
69.2910208594
 21
239.4238080507
  0
LINE
  8
0
 62
7
  6
CONTINUOUS
 10
70.3528488293
 20
244.2285486027
 11
70.0650118043
 21
243.9090514052
  0
LINE
  8
0
 62
7
  6
CONTINUOUS
 10
70.3008772355
 20
243.5548694381
 11
70.5887142605
 21
243.8743666356
  0
LINE
  8
0
 62
7
  6
CONTINUOUS
 10
85.4952287061
 20
250.7570555597
 11
85.6641105482
 21
250.9189157016
  0
LINE
  8
0
 62
7
  6
CONTINUOUS
 10
68.7661802327
 20
239.4207450603
 11
68.436881916
 21
239.1654535188
  0
LINE
  8
0
 62
7
  6
CONTINUOUS
 10
68.6976051531
 20
238.8291489057
 11
69.0269034698
 21
239.0844404472
  0
LINE
  8
0
 62
7
  6
CONTINUOUS
 10
69.9324736933
 20
239.7864920722
 11
70.3440966185
 21
240.105606522
  0
LINE
  8
0
 62
7
  6
CONTINUOUS
 10
85.4418396882
 20
251.2964384102
 11
85.1732012189
 21
251.1045870138
  0
LINE
  8
0
 62
7
  6
CONTINUOUS
 10
71.0259611001
 20
240.5867619785
 11
71.4594652046
 21
240.875451528
  0
LINE
  8
0
 62
7
  6
CONTINUOUS
 10
73.0200796831
 20
241.914733708
 11
73.4535835395
 21
242.2034230923
  0
LINE
  8
0
 62
7
  6
CONTINUOUS
 10
85.6641105482
 20
250.9189157016
 11
86.0325056446
 21
251.1407583525
  0
LINE
  8
0
 62
7
  6
CONTINUOUS
 10
74.1727794327
 20
242.6257547989
 11
74.6192075037
 21
242.8940254301
  0
LINE
  8
0
 62
7
  6
CONTINUOUS
 10
99.4976065131
 20
255.4309937146
 11
99.0893847642
 21
255.2024458375
  0
LINE
  8
0
 62
7
  6
CONTINUOUS
 10
87.4352675
 20
249.0074942063
 11
86.7676048161
 21
248.6956784424
  0
LINE
  8
0
 62
7
  6
CONTINUOUS
 10
86.98987797
 20
248.3181563846
 11
87.6575383788
 21
248.6299714352
  0
LINE
  8
0
 62
7
  6
CONTINUOUS
 10
68.3031260861
 20
238.6579335631
 11
68.6976051531
 21
238.8291489057
  0
LINE
  8
0
 62
7
  6
CONTINUOUS
 10
79.7695589338
 20
245.6325231406
 11
80.3461392948
 21
245.8737286283
  0
LINE
  8
0
 62
7
  6
CONTINUOUS
 10
84.0223262097
 20
247.340017152
 11
84.5129548416
 21
247.5148065127
  0
LINE
  8
0
 62
7
  6
CONTINUOUS
 10
70.5887142605
 20
243.8743666356
 11
70.9944840011
 21
244.0167728495
  0
LINE
  8
0
 62
7
  6
CONTINUOUS
 10
88.1799246283
 20
249.7868051052
 11
87.6811437757
 21
249.6368495188
  0
LINE
  8
0
 62
7
  6
CONTINUOUS
 10
101.4258444255
 20
251.3528291219
 11
101.0135510916
 21
251.2305862666
  0
LINE
  8
0
 62
7
  6
CONTINUOUS
 10
69.146909706
 20
240.1197336109
 11
69.0302976051
 21
239.7601126858
  0
LINE
  8
0
 62
7
  6
CONTINUOUS
 10
70.0650118043
 20
243.9090514052
 11
69.9228423548
 21
243.5587468902
  0
LINE
  8
0
 62
7
  6
CONTINUOUS
 10
70.158707786
 20
243.2045649231
 11
70.3008772355
 21
243.5548694381
  0
LINE
  8
0
 62
7
  6
CONTINUOUS
 10
69.2910208594
 20
239.4238080507
 11
69.3904892673
 21
239.6355300204
  0
LINE
  8
0
 62
7
  6
CONTINUOUS
 10
85.1732012189
 20
251.1045870138
 11
84.9351918787
 21
250.8108572982
  0
LINE
  8
0
 62
7
  6
CONTINUOUS
 10
87.6732768403
 20
249.3012239218
 11
87.4352675
 21
249.0074942063
  0
LINE
  8
0
 62
7
  6
CONTINUOUS
 10
87.6575383788
 20
248.6299714352
 11
87.9953043382
 21
248.9536924321
  0
LINE
  8
0
 62
7
  6
CONTINUOUS
 10
99.3219800565
 20
254.5725839849
 11
99.6261129581
 21
254.7971474948
  0
LINE
  8
0
 62
7
  6
CONTINUOUS
 10
101.7299773242
 20
251.5773927063
 11
101.4258444255
 21
251.3528291219
  0
LINE
  8
0
 62
7
  6
CONTINUOUS
 10
101.5543484905
 20
250.7189827458
 11
101.9625726208
 21
250.947530742
  0
LINE
  8
0
 62
7
  6
CONTINUOUS
 10
133.813481739
 20
156.7986344368
 11
133.8911878824
 21
156.8206747339
  0
LINE
  8
0
 62
7
  6
CONTINUOUS
 10
133.9491846529
 20
156.9621702738
 11
133.8714787948
 21
156.9401302621
  0
LINE
  8
0
 62
7
  6
CONTINUOUS
 10
135.0603099631
 20
158.0454626609
 11
135.1380161066
 21
158.067502958
  0
LINE
  8
0
 62
7
  6
CONTINUOUS
 10
136.0328359037
 20
159.0179886015
 11
136.1105419045
 21
159.0400287559
  0
LINE
  8
0
 62
7
  6
CONTINUOUS
 10
136.1685388176
 20
159.1815244386
 11
136.0908328169
 21
159.1594842842
  0
LINE
  8
0
 62
7
  6
CONTINUOUS
 10
135.4523715788
 20
159.0498486449
 11
135.3358124989
 21
159.0167883492
  0
LINE
  8
0
 62
7
  6
CONTINUOUS
 10
69.3904892673
 20
239.6355300204
 11
69.4419204126
 21
240.0792270442
  0
LINE
  8
0
 62
7
  6
CONTINUOUS
 10
69.9228423548
 20
243.5587468902
 11
69.867373379
 21
243.2661800538
  0
LINE
  8
0
 62
7
  6
CONTINUOUS
 10
70.1032388102
 20
242.9119980868
 11
70.158707786
 21
243.2045649231
  0
LINE
  8
0
 62
7
  6
CONTINUOUS
 10
84.9351918787
 20
250.8108572982
 11
84.7969368824
 21
250.5471181508
  0
LINE
  8
0
 62
7
  6
CONTINUOUS
 10
85.2878484949
 20
250.361447525
 11
85.4952287061
 21
250.7570555597
  0
LINE
  8
0
 62
7
  6
CONTINUOUS
 10
87.9953043382
 20
248.9536924321
 11
88.2026845387
 21
249.3493005025
  0
LINE
  8
0
 62
7
  6
CONTINUOUS
 10
99.0893847642
 20
255.2024458375
 11
98.6892990379
 21
254.7612876431
  0
LINE
  8
0
 62
7
  6
CONTINUOUS
 10
101.9625726208
 20
250.947530742
 11
102.3626583456
 21
251.3886889736
  0
LINE
  8
0
 62
7
  6
CONTINUOUS
 10
125.1028472133
 20
251.2879677038
 11
124.2452075537
 21
250.8301154875
  0
LINE
  8
0
 62
7
  6
CONTINUOUS
 10
123.9277966395
 20
250.0404571509
 11
124.7854364103
 21
250.4983096438
  0
LINE
  8
0
 62
7
  6
CONTINUOUS
 10
118.7258325497
 20
248.9249709606
 11
123.2203888685
 21
251.2541765301
  0
LINE
  8
0
 62
7
  6
CONTINUOUS
 10
122.7921195119
 20
251.6190377598
 11
118.1986141898
 21
249.3223815077
  0
LINE
  8
0
 62
7
  6
CONTINUOUS
 10
127.1674979394
 20
250.0775994343
 11
126.6086896679
 21
249.8716371326
  0
LINE
  8
0
 62
7
  6
CONTINUOUS
 10
128.5999986164
 20
247.7499630516
 11
128.3205923265
 21
247.6469829223
  0
LINE
  8
0
 62
7
  6
CONTINUOUS
 10
127.8310123238
 20
245.642118859
 11
127.5516103104
 21
245.5391366192
  0
LINE
  8
0
 62
7
  6
CONTINUOUS
 10
136.8916991562
 20
159.9046847772
 11
137.0082582288
 21
159.9377450802
  0
LINE
  8
0
 62
7
  6
CONTINUOUS
 10
137.1370376916
 20
160.7066818345
 11
137.2535967739
 21
160.7397421278
  0
LINE
  8
0
 62
7
  6
CONTINUOUS
 10
137.3115936237
 20
160.8812377667
 11
137.2338875735
 21
160.8591975725
  0
LINE
  8
0
 62
7
  6
CONTINUOUS
 10
132.7243970112
 20
155.7930484785
 11
132.8299357925
 21
155.7872555671
  0
LINE
  8
0
 62
7
  6
CONTINUOUS
 10
132.9018490245
 20
155.9148346454
 11
132.8490796339
 21
155.9177311012
  0
LINE
  8
0
 62
7
  6
CONTINUOUS
 10
132.5017335966
 20
156.0157118932
 11
132.6072723876
 21
156.009918972
  0
LINE
  8
0
 62
7
  6
CONTINUOUS
 10
132.6791856196
 20
156.1374980503
 11
132.6264162192
 21
156.1403945158
  0
LINE
  8
0
 62
7
  6
CONTINUOUS
 10
91.4190397061
 20
252.9279443284
 11
90.5936776909
 21
251.332844047
  0
LINE
  8
0
 62
7
  6
CONTINUOUS
 10
89.9041207099
 20
249.1140599918
 11
90.7294803638
 21
250.7091599115
  0
LINE
  8
0
 62
7
  6
CONTINUOUS
 10
90.35623372
 20
250.9545151888
 11
89.2934300636
 21
248.9810865564
  0
LINE
  8
0
 62
7
  6
CONTINUOUS
 10
90.9669243663
 20
251.0874886242
 11
92.0297303524
 21
253.0609177638
  0
LINE
  8
0
 62
7
  6
CONTINUOUS
 10
99.1260075985
 20
254.2456995225
 11
99.3219800565
 21
254.5725839849
  0
LINE
  8
0
 62
40
  6
CONTINUOUS
 10
65.2325756312
 20
205.2882828379
 11
93.054167928
 21
233.1098751347
  0
LINE
  8
0
 62
40
  6
CONTINUOUS
 10
98.5930782497
 20
236.3860437566
 11
97.1788646873
 21
234.9718301942
  0
LINE
  8
0
 62
40
  6
CONTINUOUS
 10
61.9564070093
 20
199.7493725162
 11
63.3706205717
 21
201.1635860785
  0
LINE
  8
0
 62
7
  6
CONTINUOUS
 10
126.8028411706
 20
249.3086163976
 11
127.1278295567
 21
249.5077194065
  0
LINE
  8
0
 62
7
  6
CONTINUOUS
 10
136.1226074535
 20
242.2393249945
 11
136.4802722419
 21
242.3709812573
  0
LINE
  8
0
 62
7
  6
CONTINUOUS
 10
133.3449145249
 20
156.4692318385
 11
133.3976839155
 21
156.4663353828
  0
LINE
  8
0
 62
7
  6
CONTINUOUS
 10
133.5223668235
 20
156.5910182908
 11
133.4168277569
 21
156.5968109169
  0
LINE
  8
0
 62
7
  6
CONTINUOUS
 10
133.1222511102
 20
156.6918952532
 11
133.1750205009
 21
156.6889987975
  0
LINE
  8
0
 62
7
  6
CONTINUOUS
 10
133.2997034089
 20
156.8136817055
 11
133.1941643374
 21
156.8194743364
  0
LINE
  8
0
 62
7
  6
CONTINUOUS
 10
135.1710764096
 20
158.1840620305
 11
135.1183067335
 21
158.1869582008
  0
LINE
  8
0
 62
7
  6
CONTINUOUS
 10
134.7872080746
 20
158.4681839249
 11
134.7344386815
 21
158.471080383
  0
LINE
  8
0
 62
7
  6
CONTINUOUS
 10
135.3416051323
 20
158.9112492753
 11
135.3943746656
 21
158.9083529622
  0
LINE
  8
0
 62
7
  6
CONTINUOUS
 10
135.9800663704
 20
159.0208849146
 11
136.0328359037
 21
159.0179886015
  0
LINE
  8
0
 62
7
  6
CONTINUOUS
 10
137.4171326042
 20
160.875445035
 11
137.3115936237
 21
160.8812377667
  0
LINE
  8
0
 62
40
  6
CONTINUOUS
 10
65.2325756312
 20
185.9458528295
 11
93.054167928
 21
158.1242605327
  0
LINE
  8
0
 62
40
  6
CONTINUOUS
 10
97.1788646873
 20
156.2623054732
 11
98.5930782497
 21
154.8480919108
  0
LINE
  8
0
 62
40
  6
CONTINUOUS
 10
63.3706205717
 20
190.0705495889
 11
61.9564070093
 21
191.4847631512
  0
LINE
  8
0
 62
7
  6
CONTINUOUS
 10
69.1160163491
 20
240.4996078326
 11
69.146909706
 21
240.1197336109
  0
LINE
  8
0
 62
7
  6
CONTINUOUS
 10
84.7969368824
 20
250.5471181508
 11
84.7199424273
 21
250.0796230514
  0
LINE
  8
0
 62
7
  6
CONTINUOUS
 10
85.2493501257
 20
250.1276996321
 11
85.2878484949
 21
250.361447525
  0
LINE
  8
0
 62
7
  6
CONTINUOUS
 10
98.6892990379
 20
254.7612876431
 11
98.4973957711
 21
254.3280983655
  0
LINE
  8
0
 62
7
  6
CONTINUOUS
 10
101.9259497936
 20
251.9042768709
 11
101.7299773242
 21
251.5773927063
  0
LINE
  8
0
 62
7
  6
CONTINUOUS
 10
128.8397322152
 20
247.2830651962
 11
129.1647206013
 21
247.4821682051
  0
LINE
  8
0
 62
7
  6
CONTINUOUS
 10
127.9310448999
 20
245.1237298501
 11
128.256033286
 21
245.3228328589
  0
LINE
  8
0
 62
7
  6
CONTINUOUS
 10
136.0423885626
 20
242.8294572315
 11
135.8318002516
 21
242.7209571466
  0
LINE
  8
0
 62
7
  6
CONTINUOUS
 10
140.6827612485
 20
239.1828461114
 11
140.2419590617
 21
239.0091444915
  0
LINE
  8
0
 62
7
  6
CONTINUOUS
 10
140.5547788733
 20
238.5793478527
 11
140.7751834876
 21
238.6661954469
  0
LINE
  8
0
 62
7
  6
CONTINUOUS
 10
137.1788614896
 20
239.9945796635
 11
136.8211928314
 21
239.8629261876
  0
LINE
  8
0
 62
7
  6
CONTINUOUS
 10
137.2535967739
 20
160.7397421278
 11
137.373052204
 21
160.720032942
  0
LINE
  8
0
 62
7
  6
CONTINUOUS
 10
133.7467958868
 20
156.8154473541
 11
133.813481739
 21
156.7986344368
  0
LINE
  8
0
 62
7
  6
CONTINUOUS
 10
134.9936241109
 20
158.0622755782
 11
135.0603099631
 21
158.0454626609
  0
LINE
  8
0
 62
7
  6
CONTINUOUS
 10
134.6097557735
 20
158.346397475
 11
134.6764416306
 21
158.3295845528
  0
LINE
  8
0
 62
7
  6
CONTINUOUS
 10
134.8538939341
 20
158.4513710003
 11
134.7872080746
 21
158.4681839249
  0
LINE
  8
0
 62
7
  6
CONTINUOUS
 10
137.00246546
 20
160.0432840041
 11
136.9357795364
 21
160.0600968501
  0
LINE
  8
0
 62
7
  6
CONTINUOUS
 10
102.3626583456
 20
251.3886889736
 11
102.5545616096
 21
251.8218783257
  0
LINE
  8
0
 62
7
  6
CONTINUOUS
 10
128.9705647901
 20
248.0451909831
 11
128.5999986164
 21
247.7499630516
  0
LINE
  8
0
 62
7
  6
CONTINUOUS
 10
128.0162997191
 20
245.7897307816
 11
127.8310123238
 21
245.642118859
  0
LINE
  8
0
 62
7
  6
CONTINUOUS
 10
135.8485034835
 20
242.0454838494
 11
136.1226074535
 21
242.2393249945
  0
LINE
  8
0
 62
7
  6
CONTINUOUS
 10
136.6507101183
 20
239.4593628011
 11
136.8613022769
 21
239.5678600691
  0
LINE
  8
0
 62
7
  6
CONTINUOUS
 10
135.5329739023
 20
159.0191192562
 11
135.4523715788
 21
159.0498486449
  0
LINE
  8
0
 62
7
  6
CONTINUOUS
 10
136.0908328169
 20
159.1594842842
 11
136.0102303604
 21
159.1902135204
  0
LINE
  8
0
 62
7
  6
CONTINUOUS
 10
136.8110966998
 20
159.9354140134
 11
136.8916991562
 21
159.9046847772
  0
LINE
  8
0
 62
7
  6
CONTINUOUS
 10
133.6522771114
 20
156.8600931945
 11
133.7467958868
 21
156.8154473541
  0
LINE
  8
0
 62
7
  6
CONTINUOUS
 10
133.8714787948
 20
156.9401302621
 11
133.776959734
 21
156.9847758172
  0
LINE
  8
0
 62
7
  6
CONTINUOUS
 10
134.6764416306
 20
158.3295845528
 11
134.7709606963
 21
158.2849389928
  0
LINE
  8
0
 62
7
  6
CONTINUOUS
 10
135.885547595
 20
159.065530755
 11
135.9800663704
 21
159.0208849146
  0
LINE
  8
0
 62
7
  6
CONTINUOUS
 10
87.6811437757
 20
249.6368495188
 11
87.6732768403
 21
249.3012239218
  0
LINE
  8
0
 62
7
  6
CONTINUOUS
 10
98.4973957711
 20
254.3280983655
 11
98.4136505655
 21
253.7925880442
  0
LINE
  8
0
 62
7
  6
CONTINUOUS
 10
99.038193179
 20
253.816494612
 11
99.1260075985
 21
254.2456995225
  0
LINE
  8
0
 62
7
  6
CONTINUOUS
 10
102.0137642131
 20
252.3334817813
 11
101.9259497936
 21
251.9042768709
  0
LINE
  8
0
 62
7
  6
CONTINUOUS
 10
126.6086896679
 20
249.8716371326
 11
126.3322423889
 21
249.5317774076
  0
LINE
  8
0
 62
7
  6
CONTINUOUS
 10
129.1647206013
 20
247.4821682051
 11
129.4411678804
 21
247.82202793
  0
LINE
  8
0
 62
7
  6
CONTINUOUS
 10
128.256033286
 20
245.3228328589
 11
128.4868985008
 21
245.5665697716
  0
LINE
  8
0
 62
7
  6
CONTINUOUS
 10
135.8318002516
 20
242.7209571466
 11
135.4941882733
 21
242.4417692478
  0
LINE
  8
0
 62
7
  6
CONTINUOUS
 10
141.3807694401
 20
236.2400544181
 11
141.0886238258
 21
236.0746537828
  0
LINE
  8
0
 62
7
  6
CONTINUOUS
 10
137.5255679371
 20
160.8168828288
 11
137.4171326042
 21
160.875445035
  0
LINE
  8
0
 62
7
  6
CONTINUOUS
 10
88.2026845387
 20
249.3493005025
 11
88.1799246283
 21
249.7868051052
  0
LINE
  8
0
 62
7
  6
CONTINUOUS
 10
102.5545616096
 20
251.8218783257
 11
102.6383068266
 21
252.3573883491
  0
LINE
  8
0
 62
7
  6
CONTINUOUS
 10
140.2419590617
 20
239.0091444915
 11
139.7345764648
 21
238.6080977063
  0
LINE
  8
0
 62
7
  6
CONTINUOUS
 10
141.4014436374
 20
235.6448571441
 11
141.765337243
 21
235.8888043338
  0
LINE
  8
0
 62
7
  6
CONTINUOUS
 10
133.1663298622
 20
155.3473366451
 11
134.792675459
 21
153.7209910484
  0
LINE
  8
0
 62
7
  6
CONTINUOUS
 10
132.4739006734
 20
156.0435448163
 11
132.5017335966
 21
156.0157118932
  0
LINE
  8
0
 62
7
  6
CONTINUOUS
 10
135.393716223
 20
154.3220318124
 11
133.7673706263
 21
155.9483774091
  0
LINE
  8
0
 62
7
  6
CONTINUOUS
 10
133.9087919825
 20
156.0897987654
 11
134.828030798
 21
155.1705599498
  0
LINE
  8
0
 62
7
  6
CONTINUOUS
 10
133.5501997467
 20
156.5631853677
 11
133.5223668235
 21
156.5910182908
  0
LINE
  8
0
 62
7
  6
CONTINUOUS
 10
133.3878643022
 20
157.1245060037
 11
133.6522771114
 21
156.8600931945
  0
LINE
  8
0
 62
7
  6
CONTINUOUS
 10
84.7199424273
 20
250.0796230514
 11
84.8039606172
 21
249.438361739
  0
LINE
  8
0
 62
7
  6
CONTINUOUS
 10
98.4136505655
 20
253.7925880442
 11
98.4746886094
 21
252.1980112
  0
LINE
  8
0
 62
7
  6
CONTINUOUS
 10
99.0992312229
 20
252.2219177678
 11
99.038193179
 21
253.816494612
  0
LINE
  8
DEFAULT_1
 62
2
  6
CENTER
 10
102.7253829322
 20
265.1553610503
 11
102.7253829322
 21
197.6171678337
  0
LINE
  8
0
 62
2
  6
CONTINUOUS
 10
102.7253829322
 20
196.4970678337
 11
102.7253829322
 21
194.7370678337
  0
LINE
  8
DEFAULT_1
 62
2
  6
CENTER
 10
102.7253829322
 20
124.45404814
 11
102.7253829322
 21
193.6169678337
  0
LINE
  8
0
 62
7
  6
CONTINUOUS
 10
103.8024315922
 20
255.6435639887
 11
103.5393070566
 21
250.6504922409
  0
LINE
  8
0
 62
7
  6
CONTINUOUS
 10
104.163441025
 20
250.617601674
 11
104.3929751985
 21
254.9732600831
  0
LINE
  8
0
 62
7
  6
CONTINUOUS
 10
109.2276165656
 20
255.2931650819
 11
108.5310375125
 21
250.3419250733
  0
LINE
  8
0
 62
7
  6
CONTINUOUS
 10
109.2388674989
 20
250.8869258827
 11
109.4760007964
 21
252.5724544166
  0
LINE
  8
0
 62
7
  6
CONTINUOUS
 10
109.5649257713
 20
253.2045275339
 11
109.7575965918
 21
254.574019583
  0
LINE
  8
0
 62
7
  6
CONTINUOUS
 10
119.49506637
 20
253.263559417
 11
119.3288545729
 21
252.7582802614
  0
LINE
  8
0
 62
7
  6
CONTINUOUS
 10
118.1986141898
 20
249.3223815077
 11
117.9326752912
 21
248.5139347879
  0
LINE
  8
0
 62
7
  6
CONTINUOUS
 10
124.2452075537
 20
250.8301154875
 11
123.9277966395
 21
250.0404571509
  0
LINE
  8
0
 62
7
  6
CONTINUOUS
 10
124.7854364103
 20
250.4983096438
 11
123.2380585232
 21
246.648726048
  0
LINE
  8
0
 62
7
  6
CONTINUOUS
 10
123.8179637302
 20
246.4156274617
 11
125.6827524203
 21
251.0548691175
  0
LINE
  8
0
 62
7
  6
CONTINUOUS
 10
127.2882262623
 20
247.9010612263
 11
127.1058978779
 21
247.5165697079
  0
LINE
  8
0
 62
7
  6
CONTINUOUS
 10
135.7790075822
 20
245.6925663709
 11
133.0028800113
 21
241.5340671572
  0
LINE
  8
0
 62
7
  6
CONTINUOUS
 10
133.522692413
 20
241.1870512108
 11
136.2988199839
 21
245.3455504245
  0
LINE
  8
0
 62
7
  6
CONTINUOUS
 10
135.4941882733
 20
242.4417692478
 11
134.986093515
 21
241.7590178729
  0
LINE
  8
0
 62
7
  6
CONTINUOUS
 10
135.4674323926
 20
241.5334202883
 11
135.8485034835
 21
242.0454838494
  0
LINE
  8
0
 62
7
  6
CONTINUOUS
 10
140.7149038826
 20
242.0591189857
 11
137.5323727549
 21
238.2027611677
  0
LINE
  8
0
 62
7
  6
CONTINUOUS
 10
137.9340779201
 20
237.8712464969
 11
141.1166090479
 21
241.7276043149
  0
LINE
  8
0
 62
7
  6
CONTINUOUS
 10
139.9756553266
 20
238.0997480815
 11
140.1191442678
 21
238.256847622
  0
LINE
  8
0
 62
7
  6
CONTINUOUS
 10
140.4830344028
 20
238.5007980825
 11
140.5547788733
 21
238.5793478527
  0
LINE
  8
0
 62
7
  6
CONTINUOUS
 10
144.0783023566
 20
236.8708190343
 11
141.6299644745
 21
234.5055293778
  0
LINE
  8
0
 62
7
  6
CONTINUOUS
 10
141.9918459017
 20
234.1309418492
 11
143.5220571583
 21
235.6092479621
  0
LINE
  8
0
 62
7
  6
CONTINUOUS
 10
143.981120471
 20
236.0527397339
 11
144.4401837837
 21
236.4962315057
  0
LINE
  8
0
 62
7
  6
CONTINUOUS
 10
145.6154956271
 20
234.3484742318
 11
145.4535398851
 21
234.2104898867
  0
LINE
  8
0
 62
7
  6
CONTINUOUS
 10
153.3833074305
 20
227.82713368
 11
149.0800423851
 21
225.2811741459
  0
LINE
  8
0
 62
7
  6
CONTINUOUS
 10
149.3982873268
 20
224.7432660153
 11
151.3210227999
 21
225.880822419
  0
LINE
  8
0
 62
7
  6
CONTINUOUS
 10
151.870375719
 20
226.205838491
 11
153.243758273
 21
227.0183788227
  0
LINE
  8
0
 62
7
  6
CONTINUOUS
 10
154.4170793272
 20
222.6531680801
 11
152.9775529632
 21
221.9645718251
  0
LINE
  8
0
 62
7
  6
CONTINUOUS
 10
153.2472531701
 20
221.400757318
 11
154.6867795341
 21
222.0893535729
  0
LINE
  8
0
 62
7
  6
CONTINUOUS
 10
158.2832443528
 20
218.4112345078
 11
153.5824372791
 21
216.7075875797
  0
LINE
  8
0
 62
7
  6
CONTINUOUS
 10
153.7953931451
 20
216.1199866955
 11
157.4960286202
 21
217.461155597
  0
LINE
  8
DEFAULT_1
 62
2
  6
CENTER
 10
173.5634573304
 20
195.6170678337
 11
104.7254829322
 21
195.6170678337
  0
LINE
  8
0
 62
2
  6
CONTINUOUS
 10
103.6053829322
 20
195.6170678337
 11
101.8453829322
 21
195.6170678337
  0
LINE
  8
DEFAULT_1
 62
2
  6
CENTER
 10
32.2122538293
 20
195.6170678337
 11
100.7252829322
 21
195.6170678337
  0
LINE
  8
0
 62
7
  6
CONTINUOUS
 10
133.776959734
 20
156.9847758172
 11
133.5125469249
 21
157.2491886263
  0
LINE
  8
0
 62
7
  6
CONTINUOUS
 10
135.4644269011
 20
155.7362453748
 11
134.5098327465
 21
156.6908395294
  0
LINE
  8
0
 62
7
  6
CONTINUOUS
 10
133.9614050513
 20
157.6980467528
 11
134.2814837068
 21
157.3779680973
  0
LINE
  8
0
 62
7
  6
CONTINUOUS
 10
134.3371495532
 20
157.3223022509
 11
134.4067318611
 21
157.252719943
  0
LINE
  8
0
 62
7
  6
CONTINUOUS
 10
134.5314147691
 20
157.377402851
 11
134.0860879593
 21
157.8227296608
  0
LINE
  8
0
 62
7
  6
CONTINUOUS
 10
134.2855805551
 20
158.0222222566
 11
134.7309073649
 21
157.5768954468
  0
LINE
  8
0
 62
7
  6
CONTINUOUS
 10
134.8700720198
 20
157.4377307919
 11
134.9396543277
 21
157.368148484
  0
LINE
  8
0
 62
7
  6
CONTINUOUS
 10
135.0643369503
 20
157.4928311066
 11
134.9947546424
 21
157.5624134146
  0
LINE
  8
0
 62
7
  6
CONTINUOUS
 10
134.8555899875
 20
157.7015780694
 11
134.4102631778
 21
158.1469048792
  0
LINE
  8
0
 62
7
  6
CONTINUOUS
 10
135.3230055449
 20
157.5040123277
 11
136.1008230042
 21
156.7261948684
  0
LINE
  8
0
 62
7
  6
CONTINUOUS
 10
136.6665084291
 20
156.1605094435
 11
136.9493511416
 21
155.877666731
  0
LINE
  8
0
 62
7
  6
CONTINUOUS
 10
134.7709606963
 20
158.2849389928
 11
134.9936241109
 21
158.0622755782
  0
LINE
  8
0
 62
7
  6
CONTINUOUS
 10
135.1183067335
 20
158.1869582008
 11
135.0765573488
 21
158.2287075856
  0
LINE
  8
0
 62
7
  6
CONTINUOUS
 10
135.0208914829
 20
158.2843734515
 11
134.9373927134
 21
158.367872221
  0
LINE
  8
0
 62
7
  6
CONTINUOUS
 10
137.5503919056
 20
156.478707495
 11
135.9240463089
 21
158.1050530918
  0
LINE
  8
0
 62
7
  6
CONTINUOUS
 10
135.3943746656
 20
158.9083529622
 11
135.4222075986
 21
158.8805200293
  0
LINE
  8
0
 62
7
  6
CONTINUOUS
 10
136.0654676651
 20
158.246474448
 11
137.6918132618
 21
156.6201288513
  0
LINE
  8
0
 62
7
  6
CONTINUOUS
 10
135.7695537688
 20
158.7825393897
 11
135.7417208456
 21
158.8103723129
  0
LINE
  8
0
 62
7
  6
CONTINUOUS
 10
135.5747232871
 20
158.9773698715
 11
135.5329739023
 21
159.0191192562
  0
LINE
  8
0
 62
7
  6
CONTINUOUS
 10
135.6072183243
 20
159.3438600258
 11
135.885547595
 21
159.065530755
  0
LINE
  8
0
 62
7
  6
CONTINUOUS
 10
136.0102303604
 20
159.1902135204
 11
135.7319010896
 21
159.4685427911
  0
LINE
  8
0
 62
7
  6
CONTINUOUS
 10
138.2928540258
 20
157.2211696153
 11
137.5150365665
 21
157.9989870746
  0
LINE
  8
0
 62
7
  6
CONTINUOUS
 10
136.9493511416
 20
158.5646724995
 11
136.6665084291
 21
158.847515212
  0
LINE
  8
0
 62
7
  6
CONTINUOUS
 10
136.1807592161
 20
159.9174009176
 11
136.5008378716
 21
159.5973222621
  0
LINE
  8
0
 62
7
  6
CONTINUOUS
 10
136.5565037179
 20
159.5416564157
 11
136.8348329887
 21
159.263327145
  0
LINE
  8
0
 62
7
  6
CONTINUOUS
 10
136.9595158254
 20
159.3880099816
 11
136.3054420528
 21
160.0420837542
  0
LINE
  8
0
 62
7
  6
CONTINUOUS
 10
138.1514326696
 20
158.9889365682
 11
139.1060268242
 21
158.0343424136
  0
LINE
  8
0
 62
7
  6
CONTINUOUS
 10
137.373052204
 20
160.720032942
 11
137.4148015887
 21
160.6782835573
  0
LINE
  8
0
 62
7
  6
CONTINUOUS
 10
139.7070675882
 20
158.6353831776
 11
138.7878287727
 21
159.5546219932
  0
LINE
  8
0
 62
7
  6
CONTINUOUS
 10
65.6239244242
 20
240.7537112769
 11
66.9275405869
 21
239.0721882411
  0
LINE
  8
0
 62
7
  6
CONTINUOUS
 10
67.3391634238
 20
239.3913026223
 11
66.0355472611
 21
241.0728256581
  0
LINE
  8
0
 62
7
  6
CONTINUOUS
 10
69.1390374856
 20
243.4202179632
 11
71.0259611001
 21
240.5867619785
  0
LINE
  8
0
 62
7
  6
CONTINUOUS
 10
71.4594652046
 20
240.875451528
 11
70.1032388102
 21
242.9119980868
  0
LINE
  8
0
 62
7
  6
CONTINUOUS
 10
69.867373379
 20
243.2661800538
 11
69.5725415901
 21
243.7089075127
  0
LINE
  8
0
 62
7
  6
CONTINUOUS
 10
71.5973803905
 20
246.9114659153
 11
71.8713589794
 21
246.4555392552
  0
LINE
  8
0
 62
7
  6
CONTINUOUS
 10
72.4193163106
 20
245.5436856794
 11
74.1727794327
 21
242.6257547989
  0
LINE
  8
0
 62
7
  6
CONTINUOUS
 10
74.6192075037
 20
242.8940254301
 11
72.8657443816
 21
245.8119563106
  0
LINE
  8
0
 62
7
  6
CONTINUOUS
 10
72.3177870504
 20
246.7238098864
 11
72.0438084615
 21
247.1797365466
  0
LINE
  8
0
 62
7
  6
CONTINUOUS
 10
77.8399150324
 20
250.2451660288
 11
79.7695589338
 21
245.6325231406
  0
LINE
  8
0
 62
7
  6
CONTINUOUS
 10
80.3461392948
 20
245.8737286283
 11
79.4429017166
 21
248.0328380828
  0
LINE
  8
0
 62
7
  6
CONTINUOUS
 10
79.1965642267
 20
248.6216860409
 11
78.6628328834
 21
249.8975235584
  0
LINE
  8
0
 62
7
  6
CONTINUOUS
 10
82.3443496273
 20
252.0500484246
 11
84.0223262097
 21
247.340017152
  0
LINE
  8
0
 62
7
  6
CONTINUOUS
 10
84.5129548416
 20
247.5148065127
 11
82.8349782592
 21
252.2248377853
  0
LINE
  8
0
 62
7
  6
CONTINUOUS
 10
85.3639997278
 20
249.384560687
 11
85.3027414698
 21
249.5883173253
  0
LINE
  8
0
 62
7
  6
CONTINUOUS
 10
85.2799792547
 20
250.0258213129
 11
85.2493501257
 21
250.1276996321
  0
LINE
  8
0
 62
7
  6
CONTINUOUS
 10
101.9527261692
 20
253.9280586256
 11
102.0137642131
 21
252.3334817813
  0
LINE
  8
0
 62
7
  6
CONTINUOUS
 10
102.6383068266
 20
252.3573883491
 11
102.5772687827
 21
253.9519651934
  0
LINE
  8
0
 62
7
  6
CONTINUOUS
 10
107.3391891597
 20
255.4571841929
 11
107.1152533839
 21
251.2077614146
  0
LINE
  8
0
 62
7
  6
CONTINUOUS
 10
107.7001985925
 20
250.4312218782
 11
107.9633231281
 21
255.424293626
  0
LINE
  8
0
 62
7
  6
CONTINUOUS
 10
112.1579240417
 20
252.1951405415
 11
112.2468490166
 21
252.8272136587
  0
LINE
  8
0
 62
7
  6
CONTINUOUS
 10
112.244467519
 20
249.8194907835
 11
112.3333925043
 21
250.4515639745
  0
LINE
  8
0
 62
7
  6
CONTINUOUS
 10
112.8521215972
 20
254.1386576749
 11
112.9410465721
 21
254.7707307921
  0
LINE
  8
0
 62
7
  6
CONTINUOUS
 10
121.8906943056
 20
247.211942719
 11
122.0901484854
 21
247.8182777765
  0
LINE
  8
0
 62
7
  6
CONTINUOUS
 10
123.2203888685
 20
251.2541765301
 11
123.4530853844
 21
251.961567348
  0
LINE
  8
0
 62
7
  6
CONTINUOUS
 10
129.06172911
 20
248.2374370116
 11
128.9705647901
 21
248.0451909831
  0
LINE
  8
0
 62
7
  6
CONTINUOUS
 10
128.1986281035
 20
246.1742223
 11
128.0162997191
 21
245.7897307816
  0
LINE
  8
0
 62
7
  6
CONTINUOUS
 10
129.4411678804
 20
247.82202793
 11
129.5323322002
 21
248.0142739584
  0
LINE
  8
0
 62
7
  6
CONTINUOUS
 10
128.4868985008
 20
245.5665697716
 11
128.6692268852
 21
245.9510612899
  0
LINE
  8
0
 62
7
  6
CONTINUOUS
 10
139.4652877683
 20
243.0669606714
 11
138.1315390835
 21
241.2747383869
  0
LINE
  8
0
 62
7
  6
CONTINUOUS
 10
137.8139799152
 20
240.8480188522
 11
137.1788614896
 21
239.9945796635
  0
LINE
  8
0
 62
7
  6
CONTINUOUS
 10
136.8613022769
 20
239.5678600691
 11
136.4802312304
 21
239.0557965678
  0
LINE
  8
0
 62
7
  6
CONTINUOUS
 10
136.8980582743
 20
238.7448550762
 11
139.8831148122
 21
242.7560191798
  0
LINE
  8
0
 62
7
  6
CONTINUOUS
 10
142.2417031873
 20
237.1826517711
 11
142.0982142462
 21
237.0255522306
  0
LINE
  8
0
 62
7
  6
CONTINUOUS
 10
142.1958040664
 20
236.3601029553
 11
142.4827820492
 21
236.6743021464
  0
LINE
  8
0
 62
7
  6
CONTINUOUS
 10
144.9985068309
 20
235.152743916
 11
145.3810595915
 21
235.5223203925
  0
LINE
  8
0
 62
7
  6
CONTINUOUS
 10
146.1576909735
 20
230.4313261288
 11
146.3196467155
 21
230.5693104739
  0
LINE
  8
0
 62
7
  6
CONTINUOUS
 10
154.0204275633
 20
224.4520761369
 11
153.7457508473
 21
224.2895679492
  0
LINE
  8
0
 62
7
  6
CONTINUOUS
 10
153.9724369692
 20
223.6974904732
 11
154.3386725051
 21
223.9141680063
  0
LINE
  8
0
 62
7
  6
CONTINUOUS
 10
155.9453818709
 20
219.4582163386
 11
154.505855507
 21
218.7696200837
  0
LINE
  8
0
 62
7
  6
CONTINUOUS
 10
154.7755557138
 20
218.2058055766
 11
156.2150820778
 21
218.8944018315
  0
LINE
  8
0
 62
7
  6
CONTINUOUS
 10
158.7737638163
 20
213.9355502917
 11
155.0731283412
 21
212.5943813902
  0
LINE
  8
0
 62
7
  6
CONTINUOUS
 10
155.2860842072
 20
212.006780506
 11
159.9868912809
 21
213.7104274341
  0
LINE
  8
0
 62
7
  6
CONTINUOUS
 10
67.6820385793
 20
242.3492831603
 11
69.1160163491
 21
240.4996078326
  0
LINE
  8
0
 62
7
  6
CONTINUOUS
 10
69.7883625343
 20
240.4824176399
 11
68.0936615045
 21
242.66839761
  0
LINE
  8
0
 62
7
  6
CONTINUOUS
 10
71.8997187198
 20
243.5970982997
 11
73.0200796831
 21
241.914733708
  0
LINE
  8
0
 62
7
  6
CONTINUOUS
 10
73.4535835395
 20
242.2034230923
 11
72.3332225763
 21
243.885787684
  0
LINE
  8
0
 62
7
  6
CONTINUOUS
 10
81.9414158812
 20
249.0780615561
 11
81.6950783913
 21
249.6669095141
  0
LINE
  8
0
 62
7
  6
CONTINUOUS
 10
81.5457346885
 20
251.1035509967
 11
81.2993971986
 21
251.6923989548
  0
LINE
  8
0
 62
7
  6
CONTINUOUS
 10
87.3135941846
 20
250.8593894917
 11
87.3748524427
 21
250.6556328534
  0
LINE
  8
0
 62
7
  6
CONTINUOUS
 10
87.9961498542
 20
250.3980750203
 11
87.8736332953
 21
250.8055884397
  0
LINE
  8
0
 62
7
  6
CONTINUOUS
 10
134.986093515
 20
241.7590178729
 11
134.8156107796
 21
241.3554544565
  0
LINE
  8
0
 62
7
  6
CONTINUOUS
 10
139.7345764648
 20
238.6080977063
 11
139.3810253145
 21
238.0665471384
  0
LINE
  8
0
 62
7
  6
CONTINUOUS
 10
152.9083309151
 20
221.1231597149
 11
153.2472531701
 21
221.400757318
  0
LINE
  8
0
 62
7
  6
CONTINUOUS
 10
152.9775529632
 20
221.9645718251
 11
152.542662293
 21
221.6410678094
  0
LINE
  8
0
 62
7
  6
CONTINUOUS
 10
156.2150820778
 20
218.8944018315
 11
156.6499730169
 21
219.2179059759
  0
LINE
  8
0
 62
7
  6
CONTINUOUS
 10
154.250762231
 20
218.0702454653
 11
154.7755557138
 21
218.2058055766
  0
LINE
  8
0
 62
7
  6
CONTINUOUS
 10
154.9418730788
 20
222.78872832
 11
154.4170793272
 21
222.6531680801
  0
LINE
  8
0
 62
7
  6
CONTINUOUS
 10
154.505855507
 20
218.7696200837
 11
154.0770304395
 21
218.6799663851
  0
LINE
  8
0
 62
7
  6
CONTINUOUS
 10
66.9275405869
 20
239.0721882411
 11
67.2705884186
 21
238.7997064782
  0
LINE
  8
0
 62
7
  6
CONTINUOUS
 10
71.5181859611
 20
243.9820877495
 11
71.8997187198
 21
243.5970982997
  0
LINE
  8
0
 62
7
  6
CONTINUOUS
 10
72.3332225763
 20
243.885787684
 11
71.9516903137
 21
244.2707774642
  0
LINE
  8
0
 62
7
  6
CONTINUOUS
 10
84.8039606172
 20
249.438361739
 11
85.0874920184
 21
248.8570830785
  0
LINE
  8
0
 62
7
  6
CONTINUOUS
 10
99.2195992628
 20
251.8006817741
 11
99.0992312229
 21
252.2219177678
  0
LINE
  8
0
 62
7
  6
CONTINUOUS
 10
98.4746886094
 20
252.1980112
 11
98.5991258519
 21
251.6704700932
  0
LINE
  8
0
 62
7
  6
CONTINUOUS
 10
102.5772687827
 20
253.9519651934
 11
102.4528315288
 21
254.4795065979
  0
LINE
  8
0
 62
7
  6
CONTINUOUS
 10
125.0985665917
 20
247.1733388507
 11
125.0559434746
 21
246.8403363081
  0
LINE
  8
0
 62
7
  6
CONTINUOUS
 10
128.6692268852
 20
245.9510612899
 11
128.7574364388
 21
246.3801847363
  0
LINE
  8
0
 62
7
  6
CONTINUOUS
 10
129.5323322002
 20
248.0142739584
 11
129.62054169
 21
248.4433972701
  0
LINE
  8
0
 62
7
  6
CONTINUOUS
 10
135.3170062926
 20
240.9823223893
 11
135.4674323926
 21
241.5334202883
  0
LINE
  8
0
 62
7
  6
CONTINUOUS
 10
139.8373340672
 20
237.7938500402
 11
139.9756553266
 21
238.0997480815
  0
LINE
  8
0
 62
7
  6
CONTINUOUS
 10
142.4827820492
 20
236.6743021464
 11
142.6928442584
 21
237.0587531737
  0
LINE
  8
0
 62
7
  6
CONTINUOUS
 10
154.2420615806
 20
224.704238264
 11
154.0204275633
 21
224.4520761369
  0
LINE
  8
0
 62
7
  6
CONTINUOUS
 10
157.4960286202
 20
217.461155597
 11
154.2922923321
 21
214.7489119883
  0
LINE
  8
0
 62
7
  6
CONTINUOUS
 10
156.2843041259
 20
219.7358139417
 11
155.9453818709
 21
219.4582163386
  0
LINE
  8
0
 62
7
  6
CONTINUOUS
 10
154.9343466125
 20
214.5384230815
 11
158.6026781518
 21
217.5298331815
  0
LINE
  8
0
 62
7
  6
CONTINUOUS
 10
153.6447180674
 20
223.6246365283
 11
153.9724369692
 21
223.6974904732
  0
LINE
  8
0
 62
7
  6
CONTINUOUS
 10
153.7457508473
 20
224.2895679492
 11
153.4180319455
 21
224.2167140043
  0
LINE
  8
0
 62
7
  6
CONTINUOUS
 10
154.6867795341
 20
222.0893535729
 11
155.1156046015
 21
222.1790072715
  0
LINE
  8
0
 62
7
  6
CONTINUOUS
 10
159.6674574819
 20
214.5918287604
 11
154.9343466125
 21
214.5384230815
  0
LINE
  8
0
 62
7
  6
CONTINUOUS
 10
154.5762324036
 20
213.9654471314
 11
158.7737638163
 21
213.9355502917
  0
LINE
  8
0
 62
7
  6
CONTINUOUS
 10
67.6170304137
 20
239.20289707
 11
67.3391634238
 21
239.3913026223
  0
LINE
  8
0
 62
7
  6
CONTINUOUS
 10
71.9516903137
 20
244.2707774642
 11
71.6880902706
 21
244.4786759305
  0
LINE
  8
0
 62
7
  6
CONTINUOUS
 10
70.1314102736
 20
240.209935829
 11
69.7883625343
 21
240.4824176399
  0
LINE
  8
0
 62
7
  6
CONTINUOUS
 10
85.5556414588
 20
249.1089162975
 11
85.3639997278
 21
249.384560687
  0
LINE
  8
0
 62
7
  6
CONTINUOUS
 10
87.8736332953
 20
250.8055884397
 11
87.651360152
 21
251.1831104619
  0
LINE
  8
0
 62
7
  6
CONTINUOUS
 10
137.5841301628
 20
160.7084474764
 11
137.5255679371
 21
160.8168828288
  0
LINE
  8
0
 62
7
  6
CONTINUOUS
 10
136.6133698953
 20
160.1830140382
 11
136.6440991412
 21
160.102411572
  0
LINE
  8
0
 62
7
  6
CONTINUOUS
 10
137.4148015887
 20
160.6782835573
 11
137.445530889
 21
160.5976811259
  0
LINE
  8
0
 62
7
  6
CONTINUOUS
 10
101.8323581293
 20
254.3492946193
 11
101.9527261692
 21
253.9280586256
  0
LINE
  8
0
 62
7
  6
CONTINUOUS
 10
125.5721243844
 20
246.713298245
 11
125.5691696819
 21
246.9501757976
  0
LINE
  8
0
 62
7
  6
CONTINUOUS
 10
128.192714454
 20
246.6479795828
 11
128.1986281035
 21
246.1742223
  0
LINE
  8
0
 62
7
  6
CONTINUOUS
 10
134.8156107796
 20
241.3554544565
 11
134.772151756
 21
241.1225789137
  0
LINE
  8
0
 62
7
  6
CONTINUOUS
 10
139.3810253145
 20
238.0665471384
 11
139.2478716865
 21
237.6118505413
  0
LINE
  8
0
 62
7
  6
CONTINUOUS
 10
139.7707607992
 20
237.5664985533
 11
139.8373340672
 21
237.7938500402
  0
LINE
  8
0
 62
7
  6
CONTINUOUS
 10
144.1578937792
 20
233.1066149808
 11
143.9690898927
 21
232.6720670033
  0
LINE
  8
0
 62
7
  6
CONTINUOUS
 10
144.4012670994
 20
232.4928855869
 11
144.495665936
 21
232.7101631933
  0
LINE
  8
0
 62
7
  6
CONTINUOUS
 10
145.4535398851
 20
234.2104898867
 11
145.264736027
 21
233.7759419333
  0
LINE
  8
0
 62
7
  6
CONTINUOUS
 10
145.6969132053
 20
233.5967604928
 11
145.791312042
 21
233.8140380992
  0
LINE
  8
0
 62
7
  6
CONTINUOUS
 10
146.0762734521
 20
231.1830399161
 11
145.9818745587
 21
230.9657622614
  0
LINE
  8
0
 62
7
  6
CONTINUOUS
 10
146.3196467155
 20
230.5693104739
 11
146.5084506304
 21
231.0038584756
  0
LINE
  8
0
 62
7
  6
CONTINUOUS
 10
147.3719195013
 20
232.2869147736
 11
147.2775206646
 21
232.0696371673
  0
LINE
  8
0
 62
7
  6
CONTINUOUS
 10
152.542662293
 20
221.6410678094
 11
152.2486872617
 21
221.269506825
  0
LINE
  8
0
 62
7
  6
CONTINUOUS
 10
154.3386725051
 20
223.9141680063
 11
154.5603065223
 21
224.1663301333
  0
LINE
  8
0
 62
7
  6
CONTINUOUS
 10
145.9818745587
 20
230.9657622614
 11
145.7523619114
 21
230.9070711775
  0
LINE
  8
0
 62
7
  6
CONTINUOUS
 10
145.791312042
 20
233.8140380992
 11
146.0208246892
 21
233.8727291831
  0
LINE
  8
0
 62
7
  6
CONTINUOUS
 10
153.7769898054
 20
218.0745550836
 11
154.250762231
 21
218.0702454653
  0
LINE
  8
0
 62
7
  6
CONTINUOUS
 10
67.2705884186
 20
238.7997064782
 11
67.4832745975
 21
238.6953770661
  0
LINE
  8
0
 62
7
  6
CONTINUOUS
 10
70.3440966185
 20
240.105606522
 11
70.1314102736
 21
240.209935829
  0
LINE
  8
0
 62
7
  6
CONTINUOUS
 10
69.4419204126
 20
240.0792270442
 11
69.9324736933
 21
239.7864920722
  0
LINE
  8
0
 62
7
  6
CONTINUOUS
 10
85.0874920184
 20
248.8570830785
 11
85.409519527
 21
248.5095515531
  0
LINE
  8
0
 62
7
  6
CONTINUOUS
 10
85.716656344
 20
248.9351509137
 11
85.5556414588
 21
249.1089162975
  0
LINE
  8
0
 62
7
  6
CONTINUOUS
 10
98.5991258519
 20
251.6704700932
 11
98.8235827419
 21
251.2532183922
  0
LINE
  8
0
 62
7
  6
CONTINUOUS
 10
135.4222075986
 20
158.8805200293
 11
135.4390203732
 21
158.8138340344
  0
LINE
  8
0
 62
7
  6
CONTINUOUS
 10
136.7687819779
 20
160.2270944086
 11
136.7519691222
 21
160.2937803419
  0
LINE
  8
0
 62
7
  6
CONTINUOUS
 10
132.6264162192
 20
156.1403945158
 11
132.6235197635
 21
156.1931639064
  0
LINE
  8
0
 62
7
  6
CONTINUOUS
 10
133.3976839155
 20
156.4663353828
 11
133.4005803712
 21
156.4135659922
  0
LINE
  8
0
 62
7
  6
CONTINUOUS
 10
134.8509977589
 20
158.5041406811
 11
134.8538939341
 21
158.4513710003
  0
LINE
  8
0
 62
7
  6
CONTINUOUS
 10
134.9373927134
 20
158.367872221
 11
134.9344965431
 21
158.420641897
  0
LINE
  8
0
 62
7
  6
CONTINUOUS
 10
135.5805160558
 20
158.8718309475
 11
135.5747232871
 21
158.9773698715
  0
LINE
  8
0
 62
7
  6
CONTINUOUS
 10
135.6170380803
 20
158.6856895476
 11
135.6199343933
 21
158.6329200143
  0
LINE
  8
0
 62
7
  6
CONTINUOUS
 10
135.7724502245
 20
158.7297699991
 11
135.7695537688
 21
158.7825393897
  0
LINE
  8
0
 62
7
  6
CONTINUOUS
 10
137.445530889
 20
160.5976811259
 11
137.4484272556
 21
160.5449116461
  0
LINE
  8
0
 62
7
  6
CONTINUOUS
 10
137.8373823034
 20
241.2284288777
 11
137.8139799152
 21
240.8480188522
  0
LINE
  8
0
 62
7
  6
CONTINUOUS
 10
142.3031122945
 20
237.558798543
 11
142.2417031873
 21
237.1826517711
  0
LINE
  8
0
 62
7
  6
CONTINUOUS
 10
138.1315390835
 20
241.2747383869
 11
138.1749942818
 21
241.5076167764
  0
LINE
  8
0
 62
7
  6
CONTINUOUS
 10
147.6152928214
 20
231.6731853798
 11
147.8040966796
 21
232.1077333332
  0
LINE
  8
0
 62
7
  6
CONTINUOUS
 10
152.7103243663
 20
220.7975051755
 11
152.9083309151
 21
221.1231597149
  0
LINE
  8
0
 62
7
  6
CONTINUOUS
 10
156.6499730169
 20
219.2179059759
 11
156.9439479809
 21
219.589466928
  0
LINE
  8
0
 62
40
  6
CONTINUOUS
 10
143.4943588551
 20
191.4847631512
 11
142.0801452927
 21
190.0705495889
  0
LINE
  8
0
 62
40
  6
CONTINUOUS
 10
106.8576876146
 20
154.8480919108
 11
108.271901177
 21
156.2623054732
  0
LINE
  8
0
 62
7
  6
CONTINUOUS
 10
145.7796497064
 20
230.3829288501
 11
146.1576909735
 21
230.4313261288
  0
LINE
  8
0
 62
7
  6
CONTINUOUS
 10
155.4156454372
 20
222.7844186695
 11
154.9418730788
 21
222.78872832
  0
LINE
  8
0
 62
7
  6
CONTINUOUS
 10
154.0770304395
 20
218.6799663851
 11
153.6992264964
 21
218.7301824483
  0
LINE
  8
0
 62
7
  6
CONTINUOUS
 10
67.9772220283
 20
239.0783143441
 11
67.6170304137
 21
239.20289707
  0
LINE
  8
0
 62
7
  6
CONTINUOUS
 10
87.0221958265
 20
251.1050426266
 11
87.3135941846
 21
250.8593894917
  0
LINE
  8
0
 62
40
  6
CONTINUOUS
 10
142.0801452927
 20
201.1635860785
 11
143.4943588551
 21
199.7493725162
  0
LINE
  8
0
 62
40
  6
CONTINUOUS
 10
108.271901177
 20
234.9718301942
 11
106.8576876146
 21
236.3860437566
  0
LINE
  8
0
 62
7
  6
CONTINUOUS
 10
99.4399869474
 20
251.4897352606
 11
99.2195992628
 21
251.8006817741
  0
LINE
  8
0
 62
7
  6
CONTINUOUS
 10
107.1152533839
 20
251.2077614146
 11
104.7386325449
 21
255.5942281383
  0
LINE
  8
0
 62
7
  6
CONTINUOUS
 10
102.4528315288
 20
254.4795065979
 11
102.2283746416
 21
254.8967582245
  0
LINE
  8
0
 62
7
  6
CONTINUOUS
 10
104.3929751985
 20
254.9732600831
 11
106.7639976398
 21
250.4805577286
  0
LINE
  8
0
 62
7
  6
CONTINUOUS
 10
125.0559434746
 20
246.8403363081
 11
125.1074349756
 21
246.4627040826
  0
LINE
  8
0
 62
7
  6
CONTINUOUS
 10
128.7574364388
 20
246.3801847363
 11
128.7059406294
 21
246.7578190049
  0
LINE
  8
0
 62
7
  6
CONTINUOUS
 10
137.5899228847
 20
160.6029085057
 11
137.5841301628
 21
160.7084474764
  0
LINE
  8
0
 62
7
  6
CONTINUOUS
 10
139.2478716865
 20
237.6118505413
 11
139.2582105456
 21
237.3142502964
  0
LINE
  8
0
 62
7
  6
CONTINUOUS
 10
139.7862673148
 20
237.1200997801
 11
139.7707607992
 21
237.5664985533
  0
LINE
  8
0
 62
7
  6
CONTINUOUS
 10
132.4820242187
 20
156.1351671409
 11
132.4739006734
 21
156.0435448163
  0
LINE
  8
0
 62
7
  6
CONTINUOUS
 10
133.5420759112
 20
156.4715627626
 11
133.5501997467
 21
156.5631853677
  0
LINE
  8
0
 62
7
  6
CONTINUOUS
 10
142.6928442584
 20
237.0587531737
 11
142.7490856838
 21
237.5836984463
  0
LINE
  8
0
 62
7
  6
CONTINUOUS
 10
152.2486872617
 20
221.269506825
 11
152.0446150765
 21
220.7100019523
  0
LINE
  8
0
 62
7
  6
CONTINUOUS
 10
154.5603065223
 20
224.1663301333
 11
154.7674193308
 21
224.65196158
  0
LINE
  8
0
 62
7
  6
CONTINUOUS
 10
156.4823109435
 20
220.0614686098
 11
156.2843041259
 21
219.7358139417
  0
LINE
  8
0
 62
40
  6
CONTINUOUS
 10
112.3965979363
 20
158.1242605327
 11
140.2181902332
 21
185.9458528295
  0
LINE
  8
0
 62
7
  6
CONTINUOUS
 10
136.3565571524
 20
239.4130504302
 11
136.6507101183
 21
239.4593628011
  0
LINE
  8
0
 62
7
  6
CONTINUOUS
 10
143.5220571583
 20
235.6092479621
 11
144.0452255726
 21
235.6801593697
  0
LINE
  8
0
 62
7
  6
CONTINUOUS
 10
145.9935368658
 20
234.3968714864
 11
145.6154956271
 21
234.3484742318
  0
LINE
  8
0
 62
7
  6
CONTINUOUS
 10
140.9554737438
 20
235.6199539974
 11
141.4014436374
 21
235.6448571441
  0
LINE
  8
0
 62
7
  6
CONTINUOUS
 10
153.1193603172
 20
223.6769132123
 11
153.6447180674
 21
223.6246365283
  0
LINE
  8
0
 62
7
  6
CONTINUOUS
 10
155.1156046015
 20
222.1790072715
 11
155.4934088134
 21
222.1287913369
  0
LINE
  8
0
 62
7
  6
CONTINUOUS
 10
67.4832745975
 20
238.6953770661
 11
67.9257907244
 21
238.6346172209
  0
LINE
  8
0
 62
7
  6
CONTINUOUS
 10
153.2133146009
 20
218.2668086225
 11
153.7769898054
 21
218.0745550836
  0
LINE
  8
0
 62
7
  6
CONTINUOUS
 10
85.409519527
 20
248.5095515531
 11
85.6702910501
 21
248.3657773881
  0
LINE
  8
0
 62
7
  6
CONTINUOUS
 10
86.1078113508
 20
248.719488962
 11
85.716656344
 21
248.9351509137
  0
LINE
  8
0
 62
7
  6
CONTINUOUS
 10
87.651360152
 20
251.1831104619
 11
87.2295760377
 21
251.5006506614
  0
LINE
  8
0
 62
7
  6
CONTINUOUS
 10
88.5691492468
 20
252.3074014607
 11
90.35623372
 21
250.9545151888
  0
LINE
  8
0
 62
7
  6
CONTINUOUS
 10
92.7540111691
 20
249.7346028595
 11
90.9669243663
 21
251.0874886242
  0
LINE
  8
0
 62
7
  6
CONTINUOUS
 10
90.7294803638
 20
250.7091599115
 11
92.1433205228
 21
249.6016294241
  0
LINE
  8
0
 62
7
  6
CONTINUOUS
 10
90.5936776909
 20
251.332844047
 11
89.1798398931
 21
252.4403748961
  0
LINE
  8
0
 62
7
  6
CONTINUOUS
 10
98.8235827419
 20
251.2532183922
 11
99.25622209
 21
250.8439356452
  0
LINE
  8
0
 62
40
  6
CONTINUOUS
 10
112.3965979363
 20
233.1098751347
 11
140.2181902332
 21
205.2882828379
  0
LINE
  8
0
 62
7
  6
CONTINUOUS
 10
101.6119704333
 20
254.6602414306
 11
101.8323581293
 21
254.3492946193
  0
LINE
  8
0
 62
7
  6
CONTINUOUS
 10
125.669202258
 20
246.4317867887
 11
125.5721243844
 21
246.713298245
  0
LINE
  8
0
 62
7
  6
CONTINUOUS
 10
129.010237609
 20
248.6150692371
 11
129.06172911
 21
248.2374370116
  0
LINE
  8
0
 62
7
  6
CONTINUOUS
 10
134.772151756
 20
241.1225789137
 11
134.8323139893
 21
240.6799811294
  0
LINE
  8
0
 62
7
  6
CONTINUOUS
 10
143.9690898927
 20
232.6720670033
 11
144.0097986676
 21
232.2962101217
  0
LINE
  8
0
 62
7
  6
CONTINUOUS
 10
145.264736027
 20
233.7759419333
 11
145.2920237369
 21
233.2517995334
  0
LINE
  8
0
 62
7
  6
CONTINUOUS
 10
154.3190991917
 20
224.9918769289
 11
154.2420615806
 21
224.704238264
  0
LINE
  8
0
 62
7
  6
CONTINUOUS
 10
134.2814837068
 20
157.3779680973
 11
134.2594436951
 21
157.3002622392
  0
LINE
  8
0
 62
7
  6
CONTINUOUS
 10
134.3151095414
 20
157.2445963929
 11
134.3371495532
 21
157.3223022509
  0
LINE
  8
0
 62
7
  6
CONTINUOUS
 10
134.9344965431
 20
158.420641897
 11
134.9675568363
 21
158.5372009792
  0
LINE
  8
0
 62
7
  6
CONTINUOUS
 10
135.4390203732
 20
158.8138340344
 11
135.4169802188
 21
158.7361280336
  0
LINE
  8
0
 62
7
  6
CONTINUOUS
 10
135.5584759209
 20
158.7941249272
 11
135.5805160558
 21
158.8718309475
  0
LINE
  8
0
 62
7
  6
CONTINUOUS
 10
135.7504099274
 20
158.6520638557
 11
135.7724502245
 21
158.7297699991
  0
LINE
  8
0
 62
7
  6
CONTINUOUS
 10
136.6464301934
 20
160.2995731156
 11
136.6133698953
 21
160.1830140382
  0
LINE
  8
0
 62
7
  6
CONTINUOUS
 10
136.5008378716
 20
159.5973222621
 11
136.4787976458
 21
159.5196161899
  0
LINE
  8
0
 62
7
  6
CONTINUOUS
 10
136.5344634922
 20
159.4639503436
 11
136.5565037179
 21
159.5416564157
  0
LINE
  8
0
 62
7
  6
CONTINUOUS
 10
137.4484272556
 20
160.5449116461
 11
137.4153669526
 21
160.4283525735
  0
LINE
  8
0
 62
7
  6
CONTINUOUS
 10
137.5678826857
 20
160.5252024603
 11
137.5899228847
 21
160.6029085057
  0
LINE
  8
0
 62
7
  6
CONTINUOUS
 10
156.9439479809
 20
219.589466928
 11
157.1480201325
 21
220.1489717847
  0
LINE
  8
0
 62
7
  6
CONTINUOUS
 10
134.2594436951
 20
157.3002622392
 11
134.2124669305
 21
157.1976196283
  0
LINE
  8
0
 62
7
  6
CONTINUOUS
 10
134.8979745198
 20
158.6067832957
 11
134.8509977589
 21
158.5041406811
  0
LINE
  8
0
 62
7
  6
CONTINUOUS
 10
134.2681327769
 20
157.1419537819
 11
134.3151095414
 21
157.2445963929
  0
LINE
  8
0
 62
7
  6
CONTINUOUS
 10
132.553937447
 20
156.2627462229
 11
132.4820242187
 21
156.1351671409
  0
LINE
  8
0
 62
7
  6
CONTINUOUS
 10
132.6235197635
 20
156.1931639064
 11
132.6594765222
 21
156.2569535883
  0
LINE
  8
0
 62
7
  6
CONTINUOUS
 10
128.3265060398
 20
247.1732257741
 11
128.8397322152
 21
247.2830651962
  0
LINE
  8
0
 62
7
  6
CONTINUOUS
 10
136.4836218201
 20
242.8989229187
 11
136.0423885626
 21
242.8294572315
  0
LINE
  8
0
 62
7
  6
CONTINUOUS
 10
127.5575196993
 20
245.0653814805
 11
127.9310448999
 21
245.1237298501
  0
LINE
  8
0
 62
7
  6
CONTINUOUS
 10
67.9257907244
 20
238.6346172209
 11
68.3031260861
 21
238.6579335631
  0
LINE
  8
0
 62
7
  6
CONTINUOUS
 10
140.7751834876
 20
238.6661954469
 11
141.2211568769
 21
238.6910953503
  0
LINE
  8
0
 62
7
  6
CONTINUOUS
 10
140.980078015
 20
239.1994449751
 11
140.6827612485
 21
239.1828461114
  0
LINE
  8
0
 62
7
  6
CONTINUOUS
 10
144.2788901704
 20
236.0507394283
 11
143.981120471
 21
236.0527397339
  0
LINE
  8
0
 62
7
  6
CONTINUOUS
 10
141.0886238258
 20
236.0746537828
 11
140.7143949071
 21
236.1283036497
  0
LINE
  8
0
 62
7
  6
CONTINUOUS
 10
71.2268518022
 20
244.0437030454
 11
71.5181859611
 21
243.9820877495
  0
LINE
  8
0
 62
7
  6
CONTINUOUS
 10
71.6880902706
 20
244.4786759305
 11
71.3967561116
 21
244.5402912264
  0
LINE
  8
0
 62
7
  6
CONTINUOUS
 10
153.4180319455
 20
224.2167140043
 11
153.1288342773
 21
224.2876752879
  0
LINE
  8
0
 62
7
  6
CONTINUOUS
 10
85.6702910501
 20
248.3657773881
 11
86.0308169118
 21
248.2519938091
  0
LINE
  8
0
 62
7
  6
CONTINUOUS
 10
155.9793206081
 20
222.5921651145
 11
155.4156454372
 21
222.7844186695
  0
LINE
  8
0
 62
7
  6
CONTINUOUS
 10
152.6325238005
 20
223.8730051248
 11
153.1193603172
 21
223.6769132123
  0
LINE
  8
0
 62
7
  6
CONTINUOUS
 10
102.2283746416
 20
254.8967582245
 11
101.795735295
 21
255.3060409343
  0
LINE
  8
0
 62
7
  6
CONTINUOUS
 10
125.1074349756
 20
246.4627040826
 11
125.2986317599
 21
246.1365608666
  0
LINE
  8
0
 62
7
  6
CONTINUOUS
 10
134.8323139893
 20
240.6799811294
 11
134.9559880618
 21
240.3227272596
  0
LINE
  8
0
 62
7
  6
CONTINUOUS
 10
129.62054169
 20
248.4433972701
 11
129.4263858788
 21
249.0064200482
  0
LINE
  8
0
 62
7
  6
CONTINUOUS
 10
139.2582105456
 20
237.3142502964
 11
139.3454615695
 21
236.9464013347
  0
LINE
  8
0
 62
7
  6
CONTINUOUS
 10
138.1749942818
 20
241.5076167764
 11
138.1348886617
 21
241.8026800482
  0
LINE
  8
0
 62
7
  6
CONTINUOUS
 10
145.7376219944
 20
233.2209036233
 11
145.6969132053
 21
233.5967604928
  0
LINE
  8
0
 62
7
  6
CONTINUOUS
 10
146.035564663
 20
231.5588967856
 11
146.0762734521
 21
231.1830399161
  0
LINE
  8
0
 62
7
  6
CONTINUOUS
 10
147.8040966796
 20
232.1077333332
 11
147.7633878905
 21
232.4835902027
  0
LINE
  8
0
 62
7
  6
CONTINUOUS
 10
146.5084506304
 20
231.0038584756
 11
146.481162807
 21
231.5280007789
  0
LINE
  8
0
 62
7
  6
CONTINUOUS
 10
152.0446150765
 20
220.7100019523
 11
152.0324797303
 21
220.2423099091
  0
LINE
  8
0
 62
7
  6
CONTINUOUS
 10
154.7674193308
 20
224.65196158
 11
154.8299357331
 21
225.1730695645
  0
LINE
  8
0
 62
7
  6
CONTINUOUS
 10
152.6532375719
 20
220.4237850643
 11
152.7103243663
 21
220.7975051755
  0
LINE
  8
0
 62
7
  6
CONTINUOUS
 10
156.5393976707
 20
220.4351886887
 11
156.4823109435
 21
220.0614686098
  0
LINE
  8
0
 62
7
  6
CONTINUOUS
 10
136.7519691222
 20
160.2937803419
 11
136.7989459224
 21
160.3964229885
  0
LINE
  8
0
 62
7
  6
CONTINUOUS
 10
136.4787976458
 20
159.5196161899
 11
136.4318209526
 21
159.4169736504
  0
LINE
  8
0
 62
7
  6
CONTINUOUS
 10
136.4874867989
 20
159.361307804
 11
136.5344634922
 21
159.4639503436
  0
LINE
  8
0
 62
7
  6
CONTINUOUS
 10
137.5209059122
 20
160.4225598405
 11
137.5678826857
 21
160.5252024603
  0
LINE
  8
0
 62
7
  6
CONTINUOUS
 10
133.4005803712
 20
156.4135659922
 11
133.3646236125
 21
156.3497763103
  0
LINE
  8
0
 62
7
  6
CONTINUOUS
 10
133.4701626792
 20
156.3439836842
 11
133.5420759112
 21
156.4715627626
  0
LINE
  8
0
 62
7
  6
CONTINUOUS
 10
135.4169802188
 20
158.7361280336
 11
135.3810236027
 21
158.6723384944
  0
LINE
  8
0
 62
7
  6
CONTINUOUS
 10
135.4865625462
 20
158.6665457062
 11
135.5584759209
 21
158.7941249272
  0
LINE
  8
0
 62
7
  6
CONTINUOUS
 10
135.6199343933
 20
158.6329200143
 11
135.5839777773
 21
158.5691304751
  0
LINE
  8
0
 62
7
  6
CONTINUOUS
 10
136.7183434931
 20
160.4271522689
 11
136.6464301934
 21
160.2995731156
  0
LINE
  8
0
 62
7
  6
CONTINUOUS
 10
135.7144533114
 20
158.5882743165
 11
135.7504099274
 21
158.6520638557
  0
LINE
  8
0
 62
7
  6
CONTINUOUS
 10
137.4153669526
 20
160.4283525735
 11
137.3794102831
 21
160.3645629809
  0
LINE
  8
0
 62
7
  6
CONTINUOUS
 10
134.9675568363
 20
158.5372009792
 11
135.0644066736
 21
158.6897166726
  0
LINE
  8
0
 62
7
  6
CONTINUOUS
 10
137.4600126861
 20
160.3338336911
 11
137.5209059122
 21
160.4225598405
  0
LINE
  8
0
 62
7
  6
CONTINUOUS
 10
132.6594765222
 20
156.2569535883
 11
132.7453062109
 21
156.37061621
  0
LINE
  8
0
 62
7
  6
CONTINUOUS
 10
133.3646236125
 20
156.3497763103
 11
133.2787939189
 21
156.2361136935
  0
LINE
  8
0
 62
7
  6
CONTINUOUS
 10
134.2124669305
 20
157.1976196283
 11
134.1266369515
 21
157.0839567261
  0
LINE
  8
0
 62
7
  6
CONTINUOUS
 10
135.3810236027
 20
158.6723384944
 11
135.2951937664
 21
158.558675735
  0
LINE
  8
0
 62
7
  6
CONTINUOUS
 10
134.1823027979
 20
157.0282908798
 11
134.2681327769
 21
157.1419537819
  0
LINE
  8
0
 62
7
  6
CONTINUOUS
 10
135.5839777773
 20
158.5691304751
 11
135.498147941
 21
158.4554677156
  0
LINE
  8
0
 62
7
  6
CONTINUOUS
 10
136.4318209526
 20
159.4169736504
 11
136.3459911163
 21
159.3033108909
  0
LINE
  8
0
 62
7
  6
CONTINUOUS
 10
136.4016569626
 20
159.2476450445
 11
136.4874867989
 21
159.361307804
  0
LINE
  8
0
 62
7
  6
CONTINUOUS
 10
137.3794102831
 20
160.3645629809
 11
137.2935804825
 21
160.2509002571
  0
LINE
  8
0
 62
7
  6
CONTINUOUS
 10
135.0087408224
 20
158.7453825239
 11
134.8979745198
 21
158.6067832957
  0
LINE
  8
0
 62
7
  6
CONTINUOUS
 10
132.6896403597
 20
156.4262820612
 11
132.553937447
 21
156.2627462229
  0
LINE
  8
0
 62
7
  6
CONTINUOUS
 10
133.3344597653
 20
156.1804478472
 11
133.4701626792
 21
156.3439836842
  0
LINE
  8
0
 62
7
  6
CONTINUOUS
 10
135.3508596323
 20
158.5030098691
 11
135.4865625462
 21
158.6665457062
  0
LINE
  8
0
 62
7
  6
CONTINUOUS
 10
137.32430979
 20
160.1702978719
 11
137.4600126861
 21
160.3338336911
  0
LINE
  8
0
 62
7
  6
CONTINUOUS
 10
136.8789829802
 20
160.6156246817
 11
136.7183434931
 21
160.4271522689
  0
LINE
  8
0
 62
7
  6
CONTINUOUS
 10
136.7989459224
 20
160.3964229885
 11
136.9595853702
 21
160.5848953693
  0
LINE
  8
0
 62
7
  6
CONTINUOUS
 10
135.5538137874
 20
158.3998018693
 11
135.7144533114
 21
158.5882743165
  0
LINE
  8
0
 62
7
  6
CONTINUOUS
 10
136.3054420528
 20
160.0420837542
 11
136.1807592161
 21
159.9174009176
  0
LINE
  8
0
 62
7
  6
CONTINUOUS
 10
135.7319010896
 20
159.4685427911
 11
135.6072183243
 21
159.3438600258
  0
LINE
  8
0
 62
7
  6
CONTINUOUS
 10
135.1583601978
 20
158.8950018993
 11
135.0087408224
 21
158.7453825239
  0
LINE
  8
0
 62
7
  6
CONTINUOUS
 10
134.7344386815
 20
158.471080383
 11
134.6097557735
 21
158.346397475
  0
LINE
  8
0
 62
7
  6
CONTINUOUS
 10
134.4102631778
 20
158.1469048792
 11
134.2855805551
 21
158.0222222566
  0
LINE
  8
0
 62
7
  6
CONTINUOUS
 10
134.0860879593
 20
157.8227296608
 11
133.9614050513
 21
157.6980467528
  0
LINE
  8
0
 62
7
  6
CONTINUOUS
 10
133.5125469249
 20
157.2491886263
 11
133.3878643022
 21
157.1245060037
  0
LINE
  8
0
 62
7
  6
CONTINUOUS
 10
132.8392597352
 20
156.5759014367
 11
132.6896403597
 21
156.4262820612
  0
LINE
  8
0
 62
7
  6
CONTINUOUS
 10
132.7453062109
 20
156.37061621
 11
132.8949255864
 21
156.5202355855
  0
LINE
  8
0
 62
7
  6
CONTINUOUS
 10
135.0644066736
 20
158.6897166726
 11
135.2140260491
 21
158.8393360481
  0
LINE
  8
0
 62
7
  6
CONTINUOUS
 10
133.1750205009
 20
156.6889987975
 11
133.2997034089
 21
156.8136817055
  0
LINE
  8
0
 62
7
  6
CONTINUOUS
 10
136.6440991412
 20
160.102411572
 11
136.7687819779
 21
160.2270944086
  0
LINE
  8
0
 62
7
  6
CONTINUOUS
 10
135.2951937664
 20
158.558675735
 11
135.0208914829
 21
158.2843734515
  0
LINE
  8
0
 62
7
  6
CONTINUOUS
 10
135.0765573488
 20
158.2287075856
 11
135.3508596323
 21
158.5030098691
  0
LINE
  8
0
 62
7
  6
CONTINUOUS
 10
136.9357795364
 20
160.0600968501
 11
136.8110966998
 21
159.9354140134
  0
LINE
  8
0
 62
7
  6
CONTINUOUS
 10
135.7417208456
 20
158.8103723129
 11
135.6170380803
 21
158.6856895476
  0
LINE
  8
0
 62
7
  6
CONTINUOUS
 10
132.8490796339
 20
155.9177311012
 11
132.7243970112
 21
155.7930484785
  0
LINE
  8
0
 62
7
  6
CONTINUOUS
 10
135.498147941
 20
158.4554677156
 11
135.3485285655
 21
158.3058483401
  0
LINE
  8
0
 62
7
  6
CONTINUOUS
 10
133.2787939189
 20
156.2361136935
 11
133.1291745434
 21
156.086494318
  0
LINE
  8
0
 62
7
  6
CONTINUOUS
 10
133.1848403898
 20
156.0308284717
 11
133.3344597653
 21
156.1804478472
  0
LINE
  8
0
 62
7
  6
CONTINUOUS
 10
134.0825566427
 20
156.9285447246
 11
134.1823027979
 21
157.0282908798
  0
LINE
  8
0
 62
7
  6
CONTINUOUS
 10
134.4067318611
 20
157.252719943
 11
134.5314147691
 21
157.377402851
  0
LINE
  8
0
 62
7
  6
CONTINUOUS
 10
134.7309073649
 20
157.5768954468
 11
134.8555899875
 21
157.7015780694
  0
LINE
  8
0
 62
7
  6
CONTINUOUS
 10
135.4041944119
 20
158.2501824938
 11
135.5538137874
 21
158.3998018693
  0
LINE
  8
0
 62
7
  6
CONTINUOUS
 10
136.3019106648
 20
159.1478987467
 11
136.4016569626
 21
159.2476450445
  0
LINE
  8
0
 62
7
  6
CONTINUOUS
 10
134.9947546424
 20
157.5624134146
 11
134.8700720198
 21
157.4377307919
  0
LINE
  8
0
 62
7
  6
CONTINUOUS
 10
134.9396543277
 20
157.368148484
 11
135.0643369503
 21
157.4928311066
  0
LINE
  8
0
 62
7
  6
CONTINUOUS
 10
136.8348329887
 20
159.263327145
 11
136.9595158254
 21
159.3880099816
  0
LINE
  8
0
 62
7
  6
CONTINUOUS
 10
137.3736152103
 20
159.5546219932
 11
137.1956586913
 21
159.3766654742
  0
LINE
  8
0
 62
7
  6
CONTINUOUS
 10
136.6665084291
 20
158.847515212
 11
136.0654676651
 21
158.246474448
  0
LINE
  8
0
 62
7
  6
CONTINUOUS
 10
135.9240463089
 20
158.1050530918
 11
135.3230055449
 21
157.5040123277
  0
LINE
  8
0
 62
7
  6
CONTINUOUS
 10
134.5098327465
 20
156.6908395294
 11
133.9087919825
 21
156.0897987654
  0
LINE
  8
0
 62
7
  6
CONTINUOUS
 10
133.7673706263
 20
155.9483774091
 11
133.1663298622
 21
155.3473366451
  0
LINE
  8
0
 62
7
  6
CONTINUOUS
 10
137.5150365665
 20
158.7060938558
 11
137.797879279
 21
158.9889365682
  0
LINE
  8
0
 62
7
  6
CONTINUOUS
 10
136.1008230042
 20
156.0190880873
 11
135.8179802917
 21
155.7362453748
  0
LINE
  8
0
 62
7
  6
CONTINUOUS
 10
137.2935804825
 20
160.2509002571
 11
137.1051081066
 21
160.0902608044
  0
LINE
  8
0
 62
7
  6
CONTINUOUS
 10
137.1358373785
 20
160.0096583835
 11
137.32430979
 21
160.1702978719
  0
LINE
  8
0
 62
7
  6
CONTINUOUS
 10
137.0425188007
 20
160.7513275765
 11
136.8789829802
 21
160.6156246817
  0
LINE
  8
0
 62
7
  6
CONTINUOUS
 10
133.0027955735
 20
156.7116043494
 11
132.8392597352
 21
156.5759014367
  0
LINE
  8
0
 62
7
  6
CONTINUOUS
 10
132.8949255864
 20
156.5202355855
 11
133.0584614284
 21
156.6559384945
  0
LINE
  8
0
 62
7
  6
CONTINUOUS
 10
135.2406587175
 20
158.1144797226
 11
135.4041944119
 21
158.2501824938
  0
LINE
  8
0
 62
7
  6
CONTINUOUS
 10
133.1291745434
 20
156.086494318
 11
132.9656387064
 21
155.9507914041
  0
LINE
  8
0
 62
7
  6
CONTINUOUS
 10
133.0213045527
 20
155.8951255578
 11
133.1848403898
 21
156.0308284717
  0
LINE
  8
0
 62
7
  6
CONTINUOUS
 10
135.2720228158
 20
158.9808315917
 11
135.1583601978
 21
158.8950018993
  0
LINE
  8
0
 62
7
  6
CONTINUOUS
 10
136.3459911163
 20
159.3033108909
 11
136.2323283568
 21
159.2174810546
  0
LINE
  8
0
 62
7
  6
CONTINUOUS
 10
135.3485285655
 20
158.3058483401
 11
135.2348658061
 21
158.2200185038
  0
LINE
  8
0
 62
7
  6
CONTINUOUS
 10
134.1266369515
 20
157.0839567261
 11
134.0129743347
 21
156.9981270325
  0
LINE
  8
0
 62
7
  6
CONTINUOUS
 10
133.2753321974
 20
156.538814166
 11
132.7818282305
 21
156.1844748149
  0
LINE
  8
0
 62
7
  6
CONTINUOUS
 10
132.7487679275
 20
156.0679157424
 11
133.242271914
 21
156.422255074
  0
LINE
  8
0
 62
7
  6
CONTINUOUS
 10
137.1312449512
 20
160.8122208015
 11
137.0425188007
 21
160.7513275765
  0
LINE
  8
0
 62
7
  6
CONTINUOUS
 10
136.9595853702
 20
160.5848953693
 11
137.1370376916
 21
160.7066818345
  0
LINE
  8
0
 62
7
  6
CONTINUOUS
 10
136.2131845154
 20
159.0870055205
 11
136.3019106648
 21
159.1478987467
  0
LINE
  8
0
 62
7
  6
CONTINUOUS
 10
133.091521724
 20
156.7724975743
 11
133.0027955735
 21
156.7116043494
  0
LINE
  8
0
 62
7
  6
CONTINUOUS
 10
133.9938304934
 20
156.8676514984
 11
134.0825566427
 21
156.9285447246
  0
LINE
  8
0
 62
7
  6
CONTINUOUS
 10
132.9325784034
 20
155.8342323316
 11
133.0213045527
 21
155.8951255578
  0
LINE
  8
0
 62
7
  6
CONTINUOUS
 10
135.3358124989
 20
159.0167883492
 11
135.2720228158
 21
158.9808315917
  0
LINE
  8
0
 62
7
  6
CONTINUOUS
 10
137.0082582288
 20
159.9377450802
 11
137.1358373785
 21
160.0096583835
  0
LINE
  8
0
 62
7
  6
CONTINUOUS
 10
135.2140260491
 20
158.8393360481
 11
135.3416051323
 21
158.9112492753
  0
LINE
  8
0
 62
7
  6
CONTINUOUS
 10
136.2323283568
 20
159.2174810546
 11
136.1685388176
 21
159.1815244386
  0
LINE
  8
0
 62
7
  6
CONTINUOUS
 10
135.2348658061
 20
158.2200185038
 11
135.1710764096
 21
158.1840620305
  0
LINE
  8
0
 62
7
  6
CONTINUOUS
 10
133.0584614284
 20
156.6559384945
 11
133.1222511102
 21
156.6918952532
  0
LINE
  8
0
 62
7
  6
CONTINUOUS
 10
134.0129743347
 20
156.9981270325
 11
133.9491846529
 21
156.9621702738
  0
LINE
  8
0
 62
7
  6
CONTINUOUS
 10
132.9656387064
 20
155.9507914041
 11
132.9018490245
 21
155.9148346454
  0
LINE
  8
0
 62
7
  6
CONTINUOUS
 10
137.2338875735
 20
160.8591975725
 11
137.1312449512
 21
160.8122208015
  0
LINE
  8
0
 62
7
  6
CONTINUOUS
 10
137.1051081066
 20
160.0902608044
 11
137.00246546
 21
160.0432840041
  0
LINE
  8
0
 62
7
  6
CONTINUOUS
 10
136.1105419045
 20
159.0400287559
 11
136.2131845154
 21
159.0870055205
  0
LINE
  8
0
 62
7
  6
CONTINUOUS
 10
135.1380161066
 20
158.067502958
 11
135.2406587175
 21
158.1144797226
  0
LINE
  8
0
 62
7
  6
CONTINUOUS
 10
133.1941643374
 20
156.8194743364
 11
133.091521724
 21
156.7724975743
  0
LINE
  8
0
 62
7
  6
CONTINUOUS
 10
133.8911878824
 20
156.8206747339
 11
133.9938304934
 21
156.8676514984
  0
LINE
  8
0
 62
7
  6
CONTINUOUS
 10
133.242271914
 20
156.422255074
 11
133.3449145249
 21
156.4692318385
  0
LINE
  8
0
 62
7
  6
CONTINUOUS
 10
132.7818282305
 20
156.1844748149
 11
132.6791856196
 21
156.1374980503
  0
LINE
  8
0
 62
7
  6
CONTINUOUS
 10
132.8299357925
 20
155.7872555671
 11
132.9325784034
 21
155.8342323316
  0
LINE
  8
0
 62
7
  6
CONTINUOUS
 10
133.4168277569
 20
156.5968109169
 11
133.2753321974
 21
156.538814166
  0
LINE
  8
0
 62
7
  6
CONTINUOUS
 10
132.6072723876
 20
156.009918972
 11
132.7487679275
 21
156.0679157424
  0
LINE
  8
0
 62
7
  6
CONTINUOUS
 10
68.436881916
 20
239.1654535188
 11
67.9772220283
 21
239.0783143441
  0
LINE
  8
0
 62
7
  6
CONTINUOUS
 10
127.1278295567
 20
249.5077194065
 11
127.5013547413
 21
249.5660677424
  0
LINE
  8
0
 62
7
  6
CONTINUOUS
 10
70.9944840011
 20
244.0167728495
 11
71.2268518022
 21
244.0437030454
  0
LINE
  8
0
 62
7
  6
CONTINUOUS
 10
127.0898756081
 20
245.0516649127
 11
127.5575196993
 21
245.0653814805
  0
LINE
  8
0
 62
7
  6
CONTINUOUS
 10
127.5516103104
 20
245.5391366192
 11
127.3177861165
 21
245.5322793695
  0
LINE
  8
0
 62
7
  6
CONTINUOUS
 10
71.3967561116
 20
244.5402912264
 11
71.018720983
 21
244.5441685132
  0
LINE
  8
0
 62
7
  6
CONTINUOUS
 10
136.8211928314
 20
239.8629261876
 11
136.4434714076
 21
239.8788044074
  0
LINE
  8
0
 62
7
  6
CONTINUOUS
 10
136.8613432439
 20
242.8830446989
 11
136.4836218201
 21
242.8989229187
  0
LINE
  8
0
 62
7
  6
CONTINUOUS
 10
141.3543069338
 20
239.1457951082
 11
140.980078015
 21
239.1994449751
  0
LINE
  8
0
 62
7
  6
CONTINUOUS
 10
136.1259122004
 20
239.4520848204
 11
136.3565571524
 21
239.4130504302
  0
LINE
  8
0
 62
7
  6
CONTINUOUS
 10
136.4802722419
 20
242.3709812573
 11
136.9415621348
 21
242.2929124619
  0
LINE
  8
0
 62
7
  6
CONTINUOUS
 10
86.3379514509
 20
248.6775924655
 11
86.1078113508
 21
248.719488962
  0
LINE
  8
0
 62
7
  6
CONTINUOUS
 10
144.6490374805
 20
235.9738202453
 11
144.2788901704
 21
236.0507394283
  0
LINE
  8
0
 62
7
  6
CONTINUOUS
 10
87.2295760377
 20
251.5006506614
 11
86.6389100813
 21
251.6563307191
  0
LINE
  8
0
 62
7
  6
CONTINUOUS
 10
140.5043291331
 20
235.74385579
 11
140.9554737438
 21
235.6199539974
  0
LINE
  8
0
 62
7
  6
CONTINUOUS
 10
141.2211568769
 20
238.6910953503
 11
141.446725652
 21
238.6291476595
  0
LINE
  8
0
 62
7
  6
CONTINUOUS
 10
86.6616699702
 20
251.2188261878
 11
87.0221958265
 21
251.1050426266
  0
LINE
  8
0
 62
7
  6
CONTINUOUS
 10
144.0452255726
 20
235.6801593697
 11
144.4877438671
 21
235.528328168
  0
LINE
  8
0
 62
7
  6
CONTINUOUS
 10
145.3474725069
 20
230.5621102724
 11
145.7796497064
 21
230.3829288501
  0
LINE
  8
0
 62
7
  6
CONTINUOUS
 10
145.7523619114
 20
230.9070711775
 11
145.5362764147
 21
230.9966582681
  0
LINE
  8
0
 62
7
  6
CONTINUOUS
 10
146.0208246892
 20
233.8727291831
 11
146.236910186
 21
233.7831420925
  0
LINE
  8
0
 62
7
  6
CONTINUOUS
 10
99.25622209
 20
250.8439356452
 11
99.6807206502
 21
250.6472630423
  0
LINE
  8
0
 62
7
  6
CONTINUOUS
 10
153.6992264964
 20
218.7301824483
 11
153.3724394952
 21
218.9202768443
  0
LINE
  8
0
 62
7
  6
CONTINUOUS
 10
155.4934088134
 20
222.1287913369
 11
155.8201957475
 21
221.9386969088
  0
LINE
  8
0
 62
7
  6
CONTINUOUS
 10
99.7603966621
 20
251.289078244
 11
99.4399869474
 21
251.4897352606
  0
LINE
  8
0
 62
7
  6
CONTINUOUS
 10
101.2915607215
 20
254.8608983727
 11
101.6119704333
 21
254.6602414306
  0
LINE
  8
0
 62
7
  6
CONTINUOUS
 10
152.8415803508
 20
218.5508663877
 11
153.2133146009
 21
218.2668086225
  0
LINE
  8
0
 62
7
  6
CONTINUOUS
 10
125.2986317599
 20
246.1365608666
 11
125.5839517513
 21
245.7657838224
  0
LINE
  8
0
 62
7
  6
CONTINUOUS
 10
125.8118622597
 20
246.2463982792
 11
125.669202258
 21
246.4317867887
  0
LINE
  8
0
 62
7
  6
CONTINUOUS
 10
128.0015176538
 20
246.9741227652
 11
128.192714454
 21
246.6479795828
  0
LINE
  8
0
 62
7
  6
CONTINUOUS
 10
128.8190408088
 20
248.9412124195
 11
129.010237609
 21
248.6150692371
  0
LINE
  8
0
 62
7
  6
CONTINUOUS
 10
144.0097986676
 20
232.2962101217
 11
144.1314853206
 21
231.9893454187
  0
LINE
  8
0
 62
7
  6
CONTINUOUS
 10
139.8683471488
 20
236.9010525488
 11
139.7862673148
 21
237.1200997801
  0
LINE
  8
0
 62
7
  6
CONTINUOUS
 10
135.4406803817
 20
240.6250685418
 11
135.3170062926
 21
240.9823223893
  0
LINE
  8
0
 62
7
  6
CONTINUOUS
 10
137.7137082143
 20
241.5856827251
 11
137.8373823034
 21
241.2284288777
  0
LINE
  8
0
 62
7
  6
CONTINUOUS
 10
142.7490856838
 20
237.5836984463
 11
142.5797512925
 21
238.1705978414
  0
LINE
  8
0
 62
7
  6
CONTINUOUS
 10
144.4553968541
 20
232.2653141512
 11
144.4012670994
 21
232.4928855869
  0
LINE
  8
0
 62
7
  6
CONTINUOUS
 10
147.3177897465
 20
232.5144862094
 11
147.3719195013
 21
232.2869147736
  0
LINE
  8
0
 62
7
  6
CONTINUOUS
 10
142.215861258
 20
237.9266474909
 11
142.3031122945
 21
237.558798543
  0
LINE
  8
0
 62
7
  6
CONTINUOUS
 10
157.1480201325
 20
220.1489717847
 11
157.1601595688
 21
220.6166552128
  0
LINE
  8
0
 62
7
  6
CONTINUOUS
 10
134.792675459
 20
153.7209910484
 11
135.393716223
 21
154.3220318124
  0
LINE
  8
0
 62
7
  6
CONTINUOUS
 10
136.2422443604
 20
155.1705599498
 11
136.4202008794
 21
155.3485164688
  0
LINE
  8
0
 62
7
  6
CONTINUOUS
 10
136.9493511416
 20
155.877666731
 11
137.5503919056
 21
156.478707495
  0
LINE
  8
0
 62
7
  6
CONTINUOUS
 10
137.6918132618
 20
156.6201288513
 11
138.2928540258
 21
157.2211696153
  0
LINE
  8
0
 62
7
  6
CONTINUOUS
 10
139.1060268242
 20
158.0343424136
 11
139.7070675882
 21
158.6353831776
  0
LINE
  8
0
 62
7
  6
CONTINUOUS
 10
71.018720983
 20
244.5441685132
 11
70.6996522121
 21
244.4595003083
  0
LINE
  8
0
 62
7
  6
CONTINUOUS
 10
101.0379663097
 20
250.592755514
 11
101.5543484905
 21
250.7189827458
  0
LINE
  8
0
 62
7
  6
CONTINUOUS
 10
89.2934300636
 20
248.9810865564
 11
89.9041207099
 21
249.1140599918
  0
LINE
  8
0
 62
7
  6
CONTINUOUS
 10
92.1433205228
 20
249.6016294241
 11
92.7540111691
 21
249.7346028595
  0
LINE
  8
0
 62
7
  6
CONTINUOUS
 10
86.3607136418
 20
248.2400885582
 11
86.98987797
 21
248.3181563846
  0
LINE
  8
0
 62
7
  6
CONTINUOUS
 10
86.0325056446
 20
251.1407583525
 11
86.6616699702
 21
251.2188261878
  0
LINE
  8
0
 62
7
  6
CONTINUOUS
 10
86.6389100813
 20
251.6563307191
 11
86.0097457557
 21
251.5782628838
  0
LINE
  8
0
 62
7
  6
CONTINUOUS
 10
86.7676048161
 20
248.6956784424
 11
86.3379514509
 21
248.6775924655
  0
LINE
  8
0
 62
7
  6
CONTINUOUS
 10
100.2052436192
 20
250.5608801206
 11
101.0379663097
 21
250.592755514
  0
LINE
  8
0
 62
7
  6
CONTINUOUS
 10
101.0135510916
 20
251.2305862666
 11
100.1808284011
 21
251.1987108732
  0
LINE
  8
0
 62
7
  6
CONTINUOUS
 10
127.6351463272
 20
250.0913139337
 11
127.1674979394
 21
250.0775994343
  0
LINE
  8
0
 62
7
  6
CONTINUOUS
 10
86.0308169118
 20
248.2519938091
 11
86.3607136418
 21
248.2400885582
  0
LINE
  8
0
 62
7
  6
CONTINUOUS
 10
103.5393070566
 20
250.6504922409
 11
104.163441025
 21
250.617601674
  0
LINE
  8
0
 62
7
  6
CONTINUOUS
 10
106.7639976398
 20
250.4805577286
 11
107.7001985925
 21
250.4312218782
  0
LINE
  8
0
 62
7
  6
CONTINUOUS
 10
128.3205923265
 20
247.6469829223
 11
127.6647061494
 21
247.7225320096
  0
LINE
  8
0
 62
7
  6
CONTINUOUS
 10
108.5310375125
 20
250.3419250733
 11
112.244467519
 21
249.8194907835
  0
LINE
  8
0
 62
7
  6
CONTINUOUS
 10
112.3333925043
 20
250.4515639745
 11
109.2388674989
 21
250.8869258827
  0
LINE
  8
0
 62
7
  6
CONTINUOUS
 10
109.4760007964
 20
252.5724544166
 11
112.1579240417
 21
252.1951405415
  0
LINE
  8
0
 62
7
  6
CONTINUOUS
 10
112.2468490166
 20
252.8272136587
 11
109.5649257713
 21
253.2045275339
  0
LINE
  8
0
 62
7
  6
CONTINUOUS
 10
99.6807206502
 20
250.6472630423
 11
100.2052436192
 21
250.5608801206
  0
LINE
  8
0
 62
7
  6
CONTINUOUS
 10
126.6678136209
 20
245.1340712414
 11
127.0898756081
 21
245.0516649127
  0
LINE
  8
0
 62
7
  6
CONTINUOUS
 10
100.1808284011
 20
251.1987108732
 11
99.7603966621
 21
251.289078244
  0
LINE
  8
0
 62
7
  6
CONTINUOUS
 10
100.8711289825
 20
254.9512657435
 11
101.2915607215
 21
254.8608983727
  0
LINE
  8
0
 62
7
  6
CONTINUOUS
 10
127.3177861165
 20
245.5322793695
 11
126.8016009302
 21
245.6593195431
  0
LINE
  8
0
 62
7
  6
CONTINUOUS
 10
127.5013547413
 20
249.5660677424
 11
128.0175399276
 21
249.4390275688
  0
LINE
  8
0
 62
7
  6
CONTINUOUS
 10
117.9326752912
 20
248.5139347879
 11
121.8906943056
 21
247.211942719
  0
LINE
  8
0
 62
7
  6
CONTINUOUS
 10
122.0901484854
 20
247.8182777765
 11
118.7258325497
 21
248.9249709606
  0
LINE
  8
0
 62
7
  6
CONTINUOUS
 10
123.2380585232
 20
246.648726048
 11
123.8179637302
 21
246.4156274617
  0
LINE
  8
0
 62
7
  6
CONTINUOUS
 10
135.728137961
 20
239.6154946686
 11
136.1259122004
 21
239.4520848204
  0
LINE
  8
0
 62
7
  6
CONTINUOUS
 10
136.4434714076
 20
239.8788044074
 11
136.0456971738
 21
240.042214263
  0
LINE
  8
0
 62
7
  6
CONTINUOUS
 10
137.2591213031
 20
242.7196319965
 11
136.8613432439
 21
242.8830446989
  0
LINE
  8
0
 62
7
  6
CONTINUOUS
 10
146.4257140442
 20
234.2176900459
 11
145.9935368658
 21
234.3968714864
  0
LINE
  8
0
 62
7
  6
CONTINUOUS
 10
141.656791382
 20
239.013595471
 11
141.3543069338
 21
239.1457951082
  0
LINE
  8
0
 62
7
  6
CONTINUOUS
 10
101.795735295
 20
255.3060409343
 11
101.3712343534
 21
255.502713418
  0
LINE
  8
0
 62
7
  6
CONTINUOUS
 10
125.9148495382
 20
245.4911317178
 11
126.6678136209
 21
245.1340712414
  0
LINE
  8
0
 62
7
  6
CONTINUOUS
 10
126.8016009302
 20
245.6593195431
 11
126.2368789453
 21
245.9271143896
  0
LINE
  8
0
 62
7
  6
CONTINUOUS
 10
125.5691696819
 20
246.9501757976
 11
125.0985665917
 21
247.1733388507
  0
LINE
  8
0
 62
7
  6
CONTINUOUS
 10
127.1058978779
 20
247.5165697079
 11
127.482377765
 21
247.3380404913
  0
LINE
  8
0
 62
7
  6
CONTINUOUS
 10
127.6647061494
 20
247.7225320096
 11
127.2882262623
 21
247.9010612263
  0
LINE
  8
0
 62
7
  6
CONTINUOUS
 10
144.9426742384
 20
235.822985767
 11
144.6490374805
 21
235.9738202453
  0
LINE
  8
0
 62
7
  6
CONTINUOUS
 10
141.446725652
 20
238.6291476595
 11
141.8261257733
 21
238.426696076
  0
LINE
  8
0
 62
7
  6
CONTINUOUS
 10
142.1900158078
 20
238.6706464265
 11
141.656791382
 21
239.013595471
  0
LINE
  8
0
 62
7
  6
CONTINUOUS
 10
133.0028800113
 20
241.5340671572
 11
133.522692413
 21
241.1870512108
  0
LINE
  8
0
 62
7
  6
CONTINUOUS
 10
139.8941925487
 20
236.1570535582
 11
140.5043291331
 21
235.74385579
  0
LINE
  8
0
 62
7
  6
CONTINUOUS
 10
140.7143949071
 20
236.1283036497
 11
140.1042583039
 21
236.5415013973
  0
LINE
  8
0
 62
7
  6
CONTINUOUS
 10
145.3810595915
 20
235.5223203925
 11
144.9426742384
 21
235.822985767
  0
LINE
  8
0
 62
7
  6
CONTINUOUS
 10
127.482377765
 20
247.3380404913
 11
128.0015176538
 21
246.9741227652
  0
LINE
  8
0
 62
7
  6
CONTINUOUS
 10
145.5362764147
 20
230.9966582681
 11
145.185077079
 21
231.244831857
  0
LINE
  8
0
 62
7
  6
CONTINUOUS
 10
146.236910186
 20
233.7831420925
 11
146.5881094933
 21
233.5349684794
  0
LINE
  8
0
 62
7
  6
CONTINUOUS
 10
144.4877438671
 20
235.528328168
 11
144.9985068309
 21
235.152743916
  0
LINE
  8
0
 62
7
  6
CONTINUOUS
 10
135.2267424481
 20
239.9886267358
 11
135.728137961
 21
239.6154946686
  0
LINE
  8
0
 62
7
  6
CONTINUOUS
 10
136.4802312304
 20
239.0557965678
 11
136.8980582743
 21
238.7448550762
  0
LINE
  8
0
 62
7
  6
CONTINUOUS
 10
136.0456971738
 20
240.042214263
 11
135.7114309483
 21
240.2909708723
  0
LINE
  8
0
 62
7
  6
CONTINUOUS
 10
136.9415621348
 20
242.2929124619
 11
137.4429576477
 21
241.9197803946
  0
LINE
  8
0
 62
7
  6
CONTINUOUS
 10
126.2368789453
 20
245.9271143896
 11
125.8118622597
 21
246.2463982792
  0
LINE
  8
0
 62
7
  6
CONTINUOUS
 10
128.3940198147
 20
249.2604983522
 11
128.8190408088
 21
248.9412124195
  0
LINE
  8
0
 62
7
  6
CONTINUOUS
 10
156.3510589483
 20
222.3080987341
 11
155.9793206081
 21
222.5921651145
  0
LINE
  8
0
 62
7
  6
CONTINUOUS
 10
137.5323727549
 20
238.2027611677
 11
137.9340779201
 21
237.8712464969
  0
LINE
  8
0
 62
7
  6
CONTINUOUS
 10
125.5839517513
 20
245.7657838224
 11
125.9148495382
 21
245.4911317178
  0
LINE
  8
0
 62
7
  6
CONTINUOUS
 10
144.8611655667
 20
230.9688631426
 11
145.3474725069
 21
230.5621102724
  0
LINE
  8
0
 62
7
  6
CONTINUOUS
 10
146.9120209772
 20
233.8109371697
 11
146.4257140442
 21
234.2176900459
  0
LINE
  8
0
 62
7
  6
CONTINUOUS
 10
153.1288342773
 20
224.2876752879
 11
152.8781529865
 21
224.5024600079
  0
LINE
  8
0
 62
7
  6
CONTINUOUS
 10
141.765337243
 20
235.8888043338
 11
141.3807694401
 21
236.2400544181
  0
LINE
  8
0
 62
7
  6
CONTINUOUS
 10
140.1191442678
 20
238.256847622
 11
142.1958040664
 21
236.3601029553
  0
LINE
  8
0
 62
7
  6
CONTINUOUS
 10
142.0982142462
 20
237.0255522306
 11
140.4830344028
 21
238.5007980825
  0
LINE
  8
0
 62
7
  6
CONTINUOUS
 10
141.6299644745
 20
234.5055293778
 11
141.9918459017
 21
234.1309418492
  0
LINE
  8
0
 62
7
  6
CONTINUOUS
 10
128.7059406294
 20
246.7578190049
 11
128.3265060398
 21
247.1732257741
  0
LINE
  8
0
 62
7
  6
CONTINUOUS
 10
152.2757576252
 20
224.267098027
 11
152.6325238005
 21
223.8730051248
  0
LINE
  8
0
 62
7
  6
CONTINUOUS
 10
144.4558365046
 20
231.4446081914
 11
144.8611655667
 21
230.9688631426
  0
LINE
  8
0
 62
7
  6
CONTINUOUS
 10
145.185077079
 20
231.244831857
 11
144.7797480169
 21
231.7205769058
  0
LINE
  8
0
 62
7
  6
CONTINUOUS
 10
144.495665936
 20
232.7101631933
 11
144.1578937792
 21
233.1066149808
  0
LINE
  8
0
 62
7
  6
CONTINUOUS
 10
147.2775206646
 20
232.0696371673
 11
147.6152928214
 21
231.6731853798
  0
LINE
  8
0
 62
7
  6
CONTINUOUS
 10
146.5881094933
 20
233.5349684794
 11
146.9934385554
 21
233.0592234307
  0
LINE
  8
0
 62
7
  6
CONTINUOUS
 10
153.3724394952
 20
218.9202768443
 11
153.0966695702
 21
219.2502496374
  0
LINE
  8
0
 62
7
  6
CONTINUOUS
 10
155.8201957475
 20
221.9386969088
 11
156.0959656724
 21
221.6087241157
  0
LINE
  8
0
 62
7
  6
CONTINUOUS
 10
134.9559880618
 20
240.3227272596
 11
135.2267424481
 21
239.9886267358
  0
LINE
  8
0
 62
7
  6
CONTINUOUS
 10
135.7114309483
 20
240.2909708723
 11
135.4406803817
 21
240.6250685418
  0
LINE
  8
0
 62
7
  6
CONTINUOUS
 10
137.4429576477
 20
241.9197803946
 11
137.7137082143
 21
241.5856827251
  0
LINE
  8
0
 62
7
  6
CONTINUOUS
 10
138.0312673826
 20
242.0124022598
 11
137.760516816
 21
242.3464999293
  0
LINE
  8
0
 62
7
  6
CONTINUOUS
 10
139.5044570703
 20
236.6571021502
 11
139.8941925487
 21
236.1570535582
  0
LINE
  8
0
 62
7
  6
CONTINUOUS
 10
141.8261257733
 20
238.426696076
 11
142.215861258
 21
237.9266474909
  0
LINE
  8
0
 62
7
  6
CONTINUOUS
 10
142.5797512925
 20
238.1705978414
 11
142.1900158078
 21
238.6706464265
  0
LINE
  8
0
 62
7
  6
CONTINUOUS
 10
129.4263858788
 20
249.0064200482
 11
129.141070184
 21
249.377195024
  0
LINE
  8
0
 62
7
  6
CONTINUOUS
 10
152.5208590112
 20
218.974811129
 11
152.8415803508
 21
218.5508663877
  0
LINE
  8
0
 62
7
  6
CONTINUOUS
 10
140.1042583039
 20
236.5415013973
 11
139.8683471488
 21
236.9010525488
  0
LINE
  8
0
 62
7
  6
CONTINUOUS
 10
144.1314853206
 20
231.9893454187
 11
144.4558365046
 21
231.4446081914
  0
LINE
  8
0
 62
7
  6
CONTINUOUS
 10
144.7797480169
 20
231.7205769058
 11
144.4553968541
 21
232.2653141512
  0
LINE
  8
0
 62
7
  6
CONTINUOUS
 10
146.9934385554
 20
233.0592234307
 11
147.3177897465
 21
232.5144862094
  0
LINE
  8
0
 62
7
  6
CONTINUOUS
 10
147.6417012305
 20
232.7904548996
 11
147.3173500393
 21
233.3351921209
  0
LINE
  8
0
 62
7
  6
CONTINUOUS
 10
149.0800423851
 20
225.2811741459
 11
149.3982873268
 21
224.7432660153
  0
LINE
  8
0
 62
7
  6
CONTINUOUS
 10
151.3210227999
 20
225.880822419
 11
152.2757576252
 21
224.267098027
  0
LINE
  8
0
 62
7
  6
CONTINUOUS
 10
152.8781529865
 20
224.5024600079
 11
151.870375719
 21
226.205838491
  0
LINE
  8
0
 62
7
  6
CONTINUOUS
 10
139.3454615695
 20
236.9464013347
 11
139.5044570703
 21
236.6571021502
  0
LINE
  8
0
 62
7
  6
CONTINUOUS
 10
138.1348886617
 20
241.8026800482
 11
138.0312673826
 21
242.0124022598
  0
LINE
  8
0
 62
7
  6
CONTINUOUS
 10
152.1612601072
 20
219.7265609374
 11
152.5208590112
 21
218.974811129
  0
LINE
  8
0
 62
7
  6
CONTINUOUS
 10
153.0966695702
 20
219.2502496374
 11
152.7370706663
 21
220.0019994458
  0
LINE
  8
0
 62
7
  6
CONTINUOUS
 10
145.2920237369
 20
233.2517995334
 11
146.035564663
 21
231.5588967856
  0
LINE
  8
0
 62
7
  6
CONTINUOUS
 10
146.481162807
 20
231.5280007789
 11
145.7376219944
 21
233.2209036233
  0
LINE
  8
0
 62
7
  6
CONTINUOUS
 10
147.7633878905
 20
232.4835902027
 11
147.6417012305
 21
232.7904548996
  0
LINE
  8
0
 62
7
  6
CONTINUOUS
 10
153.5824372791
 20
216.7075875797
 11
153.7953931451
 21
216.1199866955
  0
LINE
  8
0
 62
7
  6
CONTINUOUS
 10
154.2922923321
 20
214.7489119883
 11
154.5762324036
 21
213.9654471314
  0
LINE
  8
0
 62
7
  6
CONTINUOUS
 10
155.0731283412
 20
212.5943813902
 11
155.2860842072
 21
212.006780506
  0
LINE
  8
0
 62
7
  6
CONTINUOUS
 10
152.0324797303
 20
220.2423099091
 11
152.1612601072
 21
219.7265609374
  0
LINE
  8
0
 62
7
  6
CONTINUOUS
 10
154.2515355406
 20
225.3150003396
 11
154.3190991917
 21
224.9918769289
  0
LINE
  8
0
 62
7
  6
CONTINUOUS
 10
152.7370706663
 20
220.0019994458
 11
152.6532375719
 21
220.4237850643
  0
LINE
  8
0
 62
7
  6
CONTINUOUS
 10
156.4555645764
 20
220.8569743072
 11
156.5393976707
 21
220.4351886887
  0
LINE
  8
0
 62
7
  6
CONTINUOUS
 10
100.0139910767
 20
255.5572210282
 11
99.4976065131
 21
255.4309937146
  0
LINE
  8
0
 62
7
  6
CONTINUOUS
 10
92.0297303524
 20
253.0609177638
 11
91.4190397061
 21
252.9279443284
  0
LINE
  8
0
 62
7
  6
CONTINUOUS
 10
89.1798398931
 20
252.4403748961
 11
88.5691492468
 21
252.3074014607
  0
LINE
  8
0
 62
7
  6
CONTINUOUS
 10
100.038406292
 20
254.9193903501
 11
100.8711289825
 21
254.9512657435
  0
LINE
  8
0
 62
7
  6
CONTINUOUS
 10
100.8467137672
 20
255.5890964216
 11
100.0139910767
 21
255.5572210282
  0
LINE
  8
0
 62
7
  6
CONTINUOUS
 10
107.9633231281
 20
255.424293626
 11
107.3391891597
 21
255.4571841929
  0
LINE
  8
0
 62
7
  6
CONTINUOUS
 10
104.7386325449
 20
255.5942281383
 11
103.8024315922
 21
255.6435639887
  0
LINE
  8
0
 62
7
  6
CONTINUOUS
 10
109.7575965918
 20
254.574019583
 11
112.8521215972
 21
254.1386576749
  0
LINE
  8
0
 62
7
  6
CONTINUOUS
 10
112.9410465721
 20
254.7707307921
 11
109.2276165656
 21
255.2931650819
  0
LINE
  8
0
 62
7
  6
CONTINUOUS
 10
101.3712343534
 20
255.502713418
 11
100.8467137672
 21
255.5890964216
  0
LINE
  8
0
 62
7
  6
CONTINUOUS
 10
128.3395693028
 20
249.8750101734
 11
127.6351463272
 21
250.0913139337
  0
LINE
  8
0
 62
7
  6
CONTINUOUS
 10
119.3288545729
 20
252.7582802614
 11
122.7921195119
 21
251.6190377598
  0
LINE
  8
0
 62
7
  6
CONTINUOUS
 10
123.4530853844
 20
251.961567348
 11
119.49506637
 21
253.263559417
  0
LINE
  8
0
 62
7
  6
CONTINUOUS
 10
125.6827524203
 20
251.0548691175
 11
125.1028472133
 21
251.2879677038
  0
LINE
  8
0
 62
7
  6
CONTINUOUS
 10
126.3322423889
 20
249.5317774076
 11
126.8028411706
 21
249.3086163976
  0
LINE
  8
0
 62
7
  6
CONTINUOUS
 10
128.0175399276
 20
249.4390275688
 11
128.3940198147
 21
249.2604983522
  0
LINE
  8
0
 62
7
  6
CONTINUOUS
 10
128.5278114006
 20
249.7857445435
 11
128.3395693028
 21
249.8750101734
  0
LINE
  8
0
 62
7
  6
CONTINUOUS
 10
129.141070184
 20
249.377195024
 11
128.5278114006
 21
249.7857445435
  0
LINE
  8
0
 62
7
  6
CONTINUOUS
 10
136.2988199839
 20
245.3455504245
 11
135.7790075822
 21
245.6925663709
  0
LINE
  8
0
 62
7
  6
CONTINUOUS
 10
137.760516816
 20
242.3464999293
 11
137.2591213031
 21
242.7196319965
  0
LINE
  8
0
 62
7
  6
CONTINUOUS
 10
139.8831148122
 20
242.7560191798
 11
139.4652877683
 21
243.0669606714
  0
LINE
  8
0
 62
7
  6
CONTINUOUS
 10
141.1166090479
 20
241.7276043149
 11
140.7149038826
 21
242.0591189857
  0
LINE
  8
0
 62
7
  6
CONTINUOUS
 10
144.4401837837
 20
236.4962315057
 11
144.0783023566
 21
236.8708190343
  0
LINE
  8
0
 62
7
  6
CONTINUOUS
 10
147.3173500393
 20
233.3351921209
 11
146.9120209772
 21
233.8109371697
  0
LINE
  8
0
 62
7
  6
CONTINUOUS
 10
156.6717761642
 20
221.8841625919
 11
156.3510589483
 21
222.3080987341
  0
LINE
  8
0
 62
7
  6
CONTINUOUS
 10
153.243758273
 20
227.0183788227
 11
154.2515355406
 21
225.3150003396
  0
LINE
  8
0
 62
7
  6
CONTINUOUS
 10
154.6562871975
 20
225.6755011573
 11
153.3833074305
 21
227.82713368
  0
LINE
  8
0
 62
7
  6
CONTINUOUS
 10
156.0959656724
 20
221.6087241157
 11
156.4555645764
 21
220.8569743072
  0
LINE
  8
0
 62
7
  6
CONTINUOUS
 10
157.0313750682
 20
221.1324127835
 11
156.6717761642
 21
221.8841625919
  0
LINE
  8
0
 62
7
  6
CONTINUOUS
 10
159.9868912809
 20
213.7104274341
 11
159.6674574819
 21
214.5918287604
  0
LINE
  8
0
 62
7
  6
CONTINUOUS
 10
158.6026781518
 20
217.5298331815
 11
158.2832443528
 21
218.4112345078
  0
LINE
  8
0
 62
7
  6
CONTINUOUS
 10
154.8299357331
 20
225.1730695645
 11
154.6562871975
 21
225.6755011573
  0
LINE
  8
0
 62
7
  6
CONTINUOUS
 10
157.1601595688
 20
220.6166552128
 11
157.0313750682
 21
221.1324127835
  0
LINE
  8
0
 62
7
  6
CONTINUOUS
 10
34.9753829322
 20
97.0350109409
 11
34.9753829322
 21
81.0350109409
  0
LINE
  8
0
 62
7
  6
CONTINUOUS
 10
168.4753461759
 20
79.0350109409
 11
36.9754196885
 21
79.0350109409
  0
LINE
  8
DEFAULT_1
 62
2
  6
CENTER
 10
102.7253829322
 20
77.0350109409
 11
102.7253829322
 21
101.0350109409
  0
LINE
  8
0
 62
7
  6
CONTINUOUS
 10
168.4753461766
 20
99.0350109409
 11
36.9754196877
 21
99.0350109409
  0
LINE
  8
0
 62
7
  6
CONTINUOUS
 10
170.4753829322
 20
97.0350109409
 11
170.4753829322
 21
81.0350109409
  0
ARC
  8
0
 62
40
  6
CONTINUOUS
 10
96.3303365499
 20
152.585350211
 40
3.2
 50
2.2544307753
 51
45.0
  0
ARC
  8
0
 62
40
  6
CONTINUOUS
 10
94.9161229875
 20
153.9995637734
 40
3.2
 50
45.0
 51
86.4096221093
  0
ARC
  8
0
 62
40
  6
CONTINUOUS
 10
95.3169096278
 20
160.3870022325
 40
3.2
 50
225.0
 51
266.4096221093
  0
ARC
  8
0
 62
40
  6
CONTINUOUS
 10
67.495317331
 20
188.2085945293
 40
3.2
 50
183.5903778907
 51
225.0
  0
ARC
  8
0
 62
40
  6
CONTINUOUS
 10
61.1078788719
 20
187.8078078891
 40
3.2
 50
3.5903778907
 51
45.0
  0
ARC
  8
0
 62
40
  6
CONTINUOUS
 10
59.6936653095
 20
189.2220214514
 40
3.2
 50
45.0
 51
87.7455692247
  0
ARC
  8
0
 62
40
  6
CONTINUOUS
 10
59.9454226704
 20
195.6170678337
 40
3.2
 50
92.2544307753
 51
267.7455692247
  0
ARC
  8
0
 62
40
  6
CONTINUOUS
 10
59.6936653095
 20
202.012114216
 40
3.2
 50
272.2544307753
 51
315.0
  0
ARC
  8
0
 62
40
  6
CONTINUOUS
 10
61.1078788719
 20
203.4263277783
 40
3.2
 50
315.0
 51
356.4096221093
  0
ARC
  8
0
 62
40
  6
CONTINUOUS
 10
67.495317331
 20
203.0255411381
 40
3.2
 50
135.0
 51
176.4096221093
  0
ARC
  8
0
 62
40
  6
CONTINUOUS
 10
95.3169096278
 20
230.8471334349
 40
3.2
 50
93.5903778907
 51
135.0
  0
ARC
  8
0
 62
40
  6
CONTINUOUS
 10
94.9161229875
 20
237.234571894
 40
3.2
 50
273.5903778907
 51
315.0
  0
ARC
  8
0
 62
40
  6
CONTINUOUS
 10
96.3303365499
 20
238.6487854564
 40
3.2
 50
315.0
 51
357.7455692247
  0
ARC
  8
0
 62
40
  6
CONTINUOUS
 10
145.7571005548
 20
189.2220214514
 40
3.2
 50
92.2544307753
 51
135.0
  0
ARC
  8
0
 62
40
  6
CONTINUOUS
 10
144.3428869925
 20
187.8078078891
 40
3.2
 50
135.0
 51
176.4096221093
  0
ARC
  8
0
 62
40
  6
CONTINUOUS
 10
137.9554485334
 20
188.2085945293
 40
3.2
 50
315.0
 51
356.4096221093
  0
ARC
  8
0
 62
40
  6
CONTINUOUS
 10
110.1338562365
 20
160.3870022325
 40
3.2
 50
273.5903778907
 51
315.0
  0
ARC
  8
0
 62
40
  6
CONTINUOUS
 10
110.5346428768
 20
153.9995637734
 40
3.2
 50
93.5903778907
 51
135.0
  0
ARC
  8
0
 62
40
  6
CONTINUOUS
 10
109.1204293144
 20
152.585350211
 40
3.2
 50
135.0
 51
177.7455692247
  0
ARC
  8
0
 62
40
  6
CONTINUOUS
 10
102.7253829322
 20
152.8371075719
 40
3.2
 50
182.2544307753
 51
357.7455692247
  0
CIRCLE
  8
0
 62
7
  6
CONTINUOUS
 10
136.1008230042
 20
153.0138842672
 40
1.275
  0
ARC
  8
0
 62
7
  6
CONTINUOUS
 10
138.0807219915
 20
158.847515212
 40
1.0
 50
45.0
 51
135.0
  0
ARC
  8
0
 62
7
  6
CONTINUOUS
 10
135.5351375792
 20
155.877666731
 40
1.0
 50
225.0
 51
315.0
  0
ARC
  8
0
 62
7
  6
CONTINUOUS
 10
137.8320547944
 20
158.7402693711
 40
0.9
 50
135.0
 51
191.2510114041
  0
ARC
  8
0
 62
7
  6
CONTINUOUS
 10
135.7838047763
 20
155.9849125719
 40
0.9
 50
315.0
 51
11.2510114041
  0
ARC
  8
0
 62
7
  6
CONTINUOUS
 10
137.8685899571
 20
158.3525404652
 40
0.5
 50
135.0
 51
225.0
  0
ARC
  8
0
 62
7
  6
CONTINUOUS
 10
135.7472696136
 20
156.3726414778
 40
0.5
 50
315.0
 51
45.0
  0
ARC
  8
0
 62
7
  6
CONTINUOUS
 10
137.9746559743
 20
158.8121598729
 40
0.25
 50
45.0
 51
135.0
  0
ARC
  8
0
 62
7
  6
CONTINUOUS
 10
135.6412035964
 20
155.9130220701
 40
0.25
 50
225.0
 51
315.0
  0
CIRCLE
  8
0
 62
7
  6
CONTINUOUS
 10
102.7253829322
 20
195.6170678337
 40
67.75
  0
CIRCLE
  8
0
 62
4
  6
CONTINUOUS
 10
102.7253829322
 20
195.6170678337
 40
9.525
  0
ARC
  8
0
 62
40
  6
CONTINUOUS
 10
145.505343194
 20
195.6170678337
 40
3.2
 50
272.2544307753
 51
87.7455692247
  0
ARC
  8
0
 62
40
  6
CONTINUOUS
 10
102.7253829322
 20
238.3970280955
 40
3.2
 50
2.2544307753
 51
177.7455692247
  0
ARC
  8
0
 62
40
  6
CONTINUOUS
 10
109.1204293144
 20
238.6487854564
 40
3.2
 50
182.2544307753
 51
225.0
  0
ARC
  8
0
 62
40
  6
CONTINUOUS
 10
110.5346428768
 20
237.234571894
 40
3.2
 50
225.0
 51
266.4096221093
  0
ARC
  8
0
 62
40
  6
CONTINUOUS
 10
110.1338562365
 20
230.8471334349
 40
3.2
 50
45.0
 51
86.4096221093
  0
ARC
  8
0
 62
40
  6
CONTINUOUS
 10
137.9554485334
 20
203.0255411381
 40
3.2
 50
3.5903778907
 51
45.0
  0
ARC
  8
0
 62
40
  6
CONTINUOUS
 10
144.3428869925
 20
203.4263277783
 40
3.2
 50
183.5903778907
 51
225.0
  0
ARC
  8
0
 62
40
  6
CONTINUOUS
 10
145.7571005548
 20
202.012114216
 40
3.2
 50
225.0
 51
267.7455692247
  0
ARC
  8
0
 62
7
  6
CONTINUOUS
 10
36.9753829322
 20
97.0350109409
 40
2.0
 50
89.9999999988
 51
180.0
  0
ARC
  8
0
 62
7
  6
CONTINUOUS
 10
168.4753829322
 20
97.0350109409
 40
2.0
 50
0.0
 51
90.0000000012
  0
ARC
  8
0
 62
7
  6
CONTINUOUS
 10
36.9753829322
 20
81.0350109409
 40
2.0
 50
180.0
 51
270.0000000222
  0
ARC
  8
0
 62
7
  6
CONTINUOUS
 10
168.4753829322
 20
81.0350109409
 40
2.0
 50
269.9999999778
 51
360.0
  0
ENDSEC
  0
EOF
