  0
SECTION
  2
HEADER
  9
$EXTMAX
 10
210.0
 20
297.0
 30
0.0
  9
$EXTMIN
 10
0.0
 20
0.0
 30
0.0
  9
$LIMMIN
 10
0.0
 20
0.0
  9
$LIMMAX
 10
210.0
 20
297.0
  9
$VIEWCTR
 10
105.0
 20
148.5
  9
$VIEWSIZE
 40
297.0
  9
$CLAYER
  8
0
  9
$LTSCALE
 40
19.36
  9
$CELTYPE
  6
BYLAYER
  9
$DIMSCALE
 40
1.0
  9
$DIMASZ
 40
3.5
  9
$DIMEXO
 40
2.2
  9
$DIMDLI
 40
13.376
  9
$DIMEXE
 40
6.336
  9
$DIMCEN
 40
3.168
  9
$DIMLFAC
 40
1.0
  9
$DIMBLK
  1
_FILLED
  9
$DIMTXT
 40
3.5
  9
$PDMODE
 70
3
  9
$PDSIZE
 40
0.3125
  9
$TILEMODE
 70
1
  0
ENDSEC
  0
SECTION
  2
TABLES
  0
TABLE
  2
LTYPE
 70
6
  0
LTYPE
  2
BYBLOCK
 70
0
  3

 72
65
 73
0
 40
0.0
  0
LTYPE
  2
BYLAYER
 70
0
  3

 72
65
 73
0
 40
0.0
  0
LTYPE
  2
CONTINUOUS
 70
64
  3
Solid line
 72
65
 73
0
 40
0.0
  0
LTYPE
  2
CENTER
 70
64
  3
____ _ ____ _ ____ _ ____ _ ____ _ ____ _ ____
 72
65
 73
4
 40
0.6
 49
0.375
 49
-0.075
 49
0.075
 49
-0.075
  0
LTYPE
  2
HIDDEN
 70
64
  3
- - - - - - - - - - - - - - - - - - - -
 72
65
 73
2
 40
0.2
 49
0.1
 49
-0.1
  0
LTYPE
  2
PHANTOM
 70
64
  3
_____ _ _ _____ _ _ _____ _ _ _____
 72
65
 73
6
 40
0.8
 49
0.45
 49
-0.05
 49
0.1
 49
-0.05
 49
0.1
 49
-0.05
  0
LTYPE
  2
DOT
 70
64
  3
. . . . . . . . . . . . . . . . . . . .
 72
65
 73
2
 40
0.2
 49
0.1
 49
-0.1
  0
LTYPE
  2
DASHED
 70
64
  3
- - - - - - - - - - - - - - - - - - - -
 72
65
 73
2
 40
0.2
 49
0.1
 49
-0.1
  0
ENDTAB
  0
TABLE
  2
LAYER
 70
36
  0
LAYER
  2
0
 70
0
 62
7
  6
CONTINUOUS
  0
LAYER
  2
DEFAULT_1
 70
0
 62
7
  6
CENTER
  0
LAYER
  2
DEFAULT_2
 70
0
 62
8
  6
HIDDEN
  0
LAYER
  2
DEFAULT_3
 70
0
 62
7
  6
PHANTOM
  0
LAYER
  2
BLANK_CURVE
 70
0
 62
7
  6
CONTINUOUS
  0
LAYER
  2
HUB_SQ_NAV
 70
0
 62
7
  6
CONTINUOUS
  0
LAYER
  2
LAY0001
 70
0
 62
7
  6
CONTINUOUS
  0
ENDTAB
  0
TABLE
  2
STYLE
 70
1
  0
STYLE
  2
STANDARD
 70
0
 40
0.0
 41
0.8
 50
0.0
 71
0
 42
0.2
  3
txt
  4

  0
STYLE
  2
TEXTSTYLE_1
 70
0
 40
0.0
 41
0.8
 50
0.0
 71
0
 42
0.2
  3
gdt
  4

  0
STYLE
  2
TEXTSTYLE_2
 70
0
 40
0.0
 41
0.6
 50
0.0
 71
0
 42
0.2
  3
txt
  4

  0
STYLE
  2
TEXTSTYLE_3
 70
0
 40
0.0
 41
1.0
 50
0.0
 71
0
 42
0.2
  3
ftb_____.ttf
  4

  0
STYLE
  2
TEXTSTYLE_4
 70
0
 40
0.0
 41
1.0
 50
0.0
 71
0
 42
0.2
  3
fti_____.ttf
  4

  0
STYLE
  2
TEXTSTYLE_5
 70
0
 40
0.0
 41
1.0
 50
0.0
 71
0
 42
0.2
  3
frutiger light.ttf
  4

  0
STYLE
  2
TEXTSTYLE_6
 70
0
 40
0.0
 41
0.7
 50
0.0
 71
0
 42
0.2
  3
txt
  4

  0
STYLE
  2
TEXTSTYLE_7
 70
0
 40
0.0
 41
0.8
 50
0.0
 71
0
 42
0.2
  3
txt
  4

  0
ENDTAB
  0
ENDSEC
  0
SECTION
  2
BLOCKS
  0
BLOCK
  8
0
 62
2
  6
CONTINUOUS
  2
SYMBOL_8_BL1
 70
64
 10
173.5956734183
 20
35.5937998301
  0
TEXT
  8
0
 62
7
  6
CONTINUOUS
 10
164.6539584268
 20
30.6865562072
  7
TEXTSTYLE_4
 40
1.0655737705
  1
The brand for plastic modular belts and chains
 41
1.0
 72
0
  0
LINE
  8
0
 62
7
  6
CONTINUOUS
 10
149.5737418074
 20
36.1675703219
 11
149.5737418074
 21
34.0364227809
  0
LINE
  8
0
 62
7
  6
CONTINUOUS
 10
149.8628043005
 20
31.0454914852
 11
149.8628043005
 21
31.1422825445
  0
LINE
  8
0
 62
7
  6
CONTINUOUS
 10
149.5737418074
 20
31.1100188581
 11
149.6315543091
 21
30.9164367395
  0
LINE
  8
0
 62
7
  6
CONTINUOUS
 10
150.9671844304
 20
33.9544555678
 11
150.9671844304
 21
36.1675703219
  0
LINE
  8
0
 62
7
  6
CONTINUOUS
 10
151.8862417523
 20
32.1101932727
 11
151.8862417523
 21
30.5937998301
  0
LINE
  8
0
 62
7
  6
CONTINUOUS
 10
152.1753043074
 20
30.5937998301
 11
152.1753043074
 21
31.3358647082
  0
LINE
  8
0
 62
7
  6
CONTINUOUS
 10
152.1753043074
 20
31.4649194539
 11
152.1753043074
 21
32.1101932727
  0
LINE
  8
0
 62
7
  6
CONTINUOUS
 10
149.6315543091
 20
31.3036010218
 11
149.5737418074
 21
31.1100188581
  0
LINE
  8
0
 62
7
  6
CONTINUOUS
 10
149.9784292936
 20
30.8841730531
 11
149.8628043005
 21
31.0454914852
  0
LINE
  8
0
 62
7
  6
CONTINUOUS
 10
151.0768668626
 20
31.400392081
 11
151.1346793074
 21
31.3036010218
  0
LINE
  8
0
 62
7
  6
CONTINUOUS
 10
151.4237418626
 20
31.3036010218
 11
151.3659292523
 21
31.4326557675
  0
LINE
  8
0
 62
7
  6
CONTINUOUS
 10
152.852430332
 20
36.1675703219
 11
152.852430332
 21
34.3642916334
  0
LINE
  8
0
 62
7
  6
CONTINUOUS
 10
152.852430332
 20
33.0528162235
 11
152.852430332
 21
32.3970785186
  0
LINE
  8
0
 62
7
  6
CONTINUOUS
 10
153.2159293074
 20
31.2390736489
 11
153.2159293074
 21
30.5937998301
  0
LINE
  8
0
 62
7
  6
CONTINUOUS
 10
153.5049916972
 20
30.5937998301
 11
153.5049916972
 21
31.2390736489
  0
LINE
  8
0
 62
7
  6
CONTINUOUS
 10
149.8628043005
 20
31.1422825445
 11
149.9206168074
 21
31.2713373354
  0
LINE
  8
0
 62
7
  6
CONTINUOUS
 10
149.6315543091
 20
30.9164367395
 11
149.7471793074
 21
30.7873819712
  0
LINE
  8
0
 62
7
  6
CONTINUOUS
 10
153.1581166972
 20
31.3681283946
 11
153.2159293074
 21
31.2390736489
  0
LINE
  8
0
 62
7
  6
CONTINUOUS
 10
153.9674919177
 20
30.8841730531
 11
154.0253041972
 21
30.7551182848
  0
LINE
  8
0
 62
7
  6
CONTINUOUS
 10
153.5049916972
 20
31.2390736489
 11
153.4471794177
 21
31.400392081
  0
LINE
  8
0
 62
7
  6
CONTINUOUS
 10
153.9674919177
 20
31.4326557675
 11
153.9674919177
 21
31.3681283946
  0
LINE
  8
0
 62
7
  6
CONTINUOUS
 10
153.9674919177
 20
30.9809641124
 11
153.9674919177
 21
30.8841730531
  0
LINE
  8
0
 62
7
  6
CONTINUOUS
 10
154.245872955
 20
32.3970785186
 11
154.245872955
 21
36.1675703219
  0
LINE
  8
0
 62
7
  6
CONTINUOUS
 10
154.2565543074
 20
30.8519093441
 11
154.2565543074
 21
30.9164367395
  0
LINE
  8
0
 62
7
  6
CONTINUOUS
 10
154.5737418074
 20
36.1675703219
 11
154.5737418074
 21
32.3970785186
  0
LINE
  8
0
 62
7
  6
CONTINUOUS
 10
151.3659292523
 20
30.7873819712
 11
151.4237418626
 21
30.9164367395
  0
LINE
  8
0
 62
7
  6
CONTINUOUS
 10
155.759679528
 20
30.6905909007
 11
155.7018665869
 21
30.8519093441
  0
LINE
  8
0
 62
7
  6
CONTINUOUS
 10
155.412804528
 20
31.3681283946
 11
155.412804528
 21
31.2713373354
  0
LINE
  8
0
 62
7
  6
CONTINUOUS
 10
155.412804528
 20
31.1422825445
 11
155.412804528
 21
30.9487004259
  0
LINE
  8
0
 62
7
  6
CONTINUOUS
 10
155.7018665869
 20
30.8519093441
 11
155.7018665869
 21
31.3681283946
  0
LINE
  8
0
 62
7
  6
CONTINUOUS
 10
155.9671844304
 20
32.3970785186
 11
155.9671844304
 21
34.2003572071
  0
LINE
  8
0
 62
7
  6
CONTINUOUS
 10
155.9671844304
 20
35.511832617
 11
155.9671844304
 21
36.1675703219
  0
LINE
  8
0
 62
7
  6
CONTINUOUS
 10
156.279992028
 20
32.1101932727
 11
156.279992028
 21
31.9488748406
  0
LINE
  8
0
 62
7
  6
CONTINUOUS
 10
156.279992028
 20
31.626237886
 11
156.279992028
 21
30.5937998301
  0
LINE
  8
0
 62
7
  6
CONTINUOUS
 10
156.5690540869
 20
30.5937998301
 11
156.5690540869
 21
31.626237886
  0
LINE
  8
0
 62
7
  6
CONTINUOUS
 10
156.5690540869
 20
31.9488748406
 11
156.5690540869
 21
32.1101932727
  0
LINE
  8
0
 62
7
  6
CONTINUOUS
 10
151.1346793074
 20
30.9164367395
 11
151.0768668626
 21
30.8196456577
  0
LINE
  8
0
 62
7
  6
CONTINUOUS
 10
153.4471794177
 20
31.400392081
 11
153.3893668074
 21
31.4649194539
  0
LINE
  8
0
 62
7
  6
CONTINUOUS
 10
154.3143669177
 20
30.7873819712
 11
154.2565543074
 21
30.8519093441
  0
LINE
  8
0
 62
7
  6
CONTINUOUS
 10
155.4706168074
 20
30.6583272086
 11
155.5284290869
 21
30.5937998301
  0
LINE
  8
0
 62
7
  6
CONTINUOUS
 10
155.412804528
 20
30.7551182848
 11
155.4706168074
 21
30.6583272086
  0
LINE
  8
0
 62
7
  6
CONTINUOUS
 10
155.8174918074
 20
30.5937998301
 11
155.759679528
 21
30.6905909007
  0
LINE
  8
0
 62
7
  6
CONTINUOUS
 10
155.7018665869
 20
31.3681283946
 11
155.6440543074
 21
31.4649194539
  0
LINE
  8
0
 62
7
  6
CONTINUOUS
 10
157.0315543074
 20
31.626237886
 11
157.0315543074
 21
30.5937998301
  0
LINE
  8
0
 62
7
  6
CONTINUOUS
 10
157.320617028
 20
30.5937998301
 11
157.320617028
 21
31.3358647082
  0
LINE
  8
0
 62
7
  6
CONTINUOUS
 10
157.320617028
 20
31.4649194539
 11
157.320617028
 21
31.626237886
  0
LINE
  8
0
 62
7
  6
CONTINUOUS
 10
157.852430332
 20
34.6101932727
 11
157.852430332
 21
32.3970785186
  0
LINE
  8
0
 62
7
  6
CONTINUOUS
 10
149.7471793074
 20
31.4326557675
 11
149.6315543091
 21
31.3036010218
  0
LINE
  8
0
 62
7
  6
CONTINUOUS
 10
149.9206168074
 20
31.2713373354
 11
149.9784292936
 21
31.3358647082
  0
LINE
  8
0
 62
7
  6
CONTINUOUS
 10
149.7471793074
 20
30.7873819712
 11
149.8628043005
 21
30.7228545871
  0
LINE
  8
0
 62
7
  6
CONTINUOUS
 10
150.1518667936
 20
30.7873819712
 11
149.9784292936
 21
30.8841730531
  0
LINE
  8
0
 62
7
  6
CONTINUOUS
 10
155.3549915869
 20
31.4326557675
 11
155.412804528
 21
31.3681283946
  0
LINE
  8
0
 62
7
  6
CONTINUOUS
 10
158.3034290869
 20
31.3681283946
 11
158.361242028
 21
31.2068099625
  0
LINE
  8
0
 62
7
  6
CONTINUOUS
 10
158.6503040869
 20
31.2068099625
 11
158.5924918074
 21
31.3681283946
  0
LINE
  8
0
 62
7
  6
CONTINUOUS
 10
158.361242028
 20
31.2068099625
 11
158.361242028
 21
30.5937998301
  0
LINE
  8
0
 62
7
  6
CONTINUOUS
 10
158.6503040869
 20
30.5937998301
 11
158.6503040869
 21
31.2068099625
  0
LINE
  8
0
 62
7
  6
CONTINUOUS
 10
159.1128043074
 20
31.4326557675
 11
159.1128043074
 21
31.3681283946
  0
LINE
  8
0
 62
7
  6
CONTINUOUS
 10
159.245872955
 20
32.3970785186
 11
159.245872955
 21
34.5282260596
  0
LINE
  8
0
 62
7
  6
CONTINUOUS
 10
159.5737418074
 20
36.1675703219
 11
159.5737418074
 21
32.3970785186
  0
LINE
  8
0
 62
7
  6
CONTINUOUS
 10
154.2565543074
 20
30.9164367395
 11
154.3143669177
 21
31.0132277988
  0
LINE
  8
0
 62
7
  6
CONTINUOUS
 10
149.8628043005
 20
30.7228545871
 11
150.0362418212
 21
30.6583272086
  0
LINE
  8
0
 62
7
  6
CONTINUOUS
 10
151.3659292523
 20
31.4326557675
 11
151.1924917523
 21
31.5294468267
  0
LINE
  8
0
 62
7
  6
CONTINUOUS
 10
154.0253041972
 20
30.7551182848
 11
154.1987416972
 21
30.6583272086
  0
LINE
  8
0
 62
7
  6
CONTINUOUS
 10
153.0424918074
 20
31.4326557675
 11
153.1581166972
 21
31.3681283946
  0
LINE
  8
0
 62
7
  6
CONTINUOUS
 10
153.3893668074
 20
31.4649194539
 11
153.2737419177
 21
31.5294468267
  0
LINE
  8
0
 62
7
  6
CONTINUOUS
 10
159.1128043074
 20
30.8519093441
 11
159.228429528
 21
30.7228545871
  0
LINE
  8
0
 62
7
  6
CONTINUOUS
 10
159.4596793074
 20
30.7873819712
 11
159.401867028
 21
30.8519093441
  0
LINE
  8
0
 62
7
  6
CONTINUOUS
 10
159.1128043074
 20
31.3681283946
 11
159.228429528
 21
31.2390736489
  0
LINE
  8
0
 62
7
  6
CONTINUOUS
 10
158.5924918074
 20
31.3681283946
 11
158.534679528
 21
31.4649194539
  0
LINE
  8
0
 62
7
  6
CONTINUOUS
 10
160.9628038663
 20
30.7873819712
 11
160.9628038663
 21
30.8519093441
  0
LINE
  8
0
 62
7
  6
CONTINUOUS
 10
160.9671844304
 20
32.3970785186
 11
160.9671844304
 21
36.1675703219
  0
LINE
  8
0
 62
7
  6
CONTINUOUS
 10
154.0253041972
 20
31.4971831403
 11
153.9674919177
 21
31.4326557675
  0
LINE
  8
0
 62
7
  6
CONTINUOUS
 10
150.9034292799
 20
31.4649194539
 11
151.0768668626
 21
31.400392081
  0
LINE
  8
0
 62
7
  6
CONTINUOUS
 10
155.6440543074
 20
31.4649194539
 11
155.5284290869
 21
31.5294468267
  0
LINE
  8
0
 62
7
  6
CONTINUOUS
 10
159.4596793074
 20
31.3036010218
 11
159.401867028
 21
31.3681283946
  0
LINE
  8
0
 62
7
  6
CONTINUOUS
 10
160.615929528
 20
30.9164367395
 11
160.6737418074
 21
30.8519093441
  0
LINE
  8
0
 62
7
  6
CONTINUOUS
 10
160.9628038663
 20
30.8519093441
 11
160.8471793074
 21
30.9809641124
  0
LINE
  8
0
 62
7
  6
CONTINUOUS
 10
160.615929528
 20
31.4326557675
 11
160.6737418074
 21
31.3681283946
  0
LINE
  8
0
 62
7
  6
CONTINUOUS
 10
160.9628038663
 20
31.3681283946
 11
160.8471793074
 21
31.4971831403
  0
LINE
  8
0
 62
7
  6
CONTINUOUS
 10
154.2565543074
 20
31.3681283946
 11
154.3143669177
 21
31.4326557675
  0
LINE
  8
0
 62
7
  6
CONTINUOUS
 10
154.0831168074
 20
31.1100188581
 11
153.9674919177
 21
30.9809641124
  0
LINE
  8
0
 62
7
  6
CONTINUOUS
 10
155.412804528
 20
30.9487004259
 11
155.3549915869
 21
30.8841730531
  0
LINE
  8
0
 62
7
  6
CONTINUOUS
 10
155.3549915869
 20
30.6905909007
 11
155.412804528
 21
30.7551182848
  0
LINE
  8
0
 62
7
  6
CONTINUOUS
 10
154.1987416972
 20
30.6583272086
 11
154.3143669177
 21
30.6260635193
  0
LINE
  8
0
 62
7
  6
CONTINUOUS
 10
151.1924917523
 20
31.5294468267
 11
150.9612418074
 21
31.5939741996
  0
LINE
  8
0
 62
7
  6
CONTINUOUS
 10
154.5456166972
 20
30.7228545871
 11
154.3143669177
 21
30.7873819712
  0
LINE
  8
0
 62
7
  6
CONTINUOUS
 10
153.2737419177
 20
31.5294468267
 11
153.1003044177
 21
31.5939741996
  0
LINE
  8
0
 62
7
  6
CONTINUOUS
 10
155.5284290869
 20
31.5294468267
 11
155.3549915869
 21
31.5939741996
  0
LINE
  8
0
 62
7
  6
CONTINUOUS
 10
158.187804528
 20
31.4326557675
 11
158.3034290869
 21
31.3681283946
  0
LINE
  8
0
 62
7
  6
CONTINUOUS
 10
158.534679528
 20
31.4649194539
 11
158.4190543074
 21
31.5294468267
  0
LINE
  8
0
 62
7
  6
CONTINUOUS
 10
150.0362418212
 20
30.6583272086
 11
150.2096793212
 21
30.6260635193
  0
LINE
  8
0
 62
7
  6
CONTINUOUS
 10
150.498741835
 20
30.7228545871
 11
150.1518667936
 21
30.7873819712
  0
LINE
  8
0
 62
7
  6
CONTINUOUS
 10
152.9268669177
 20
31.4649194539
 11
153.0424918074
 21
31.4326557675
  0
LINE
  8
0
 62
7
  6
CONTINUOUS
 10
155.239367028
 20
31.4649194539
 11
155.3549915869
 21
31.4326557675
  0
LINE
  8
0
 62
7
  6
CONTINUOUS
 10
159.575304528
 20
30.7551182848
 11
159.4596793074
 21
30.7873819712
  0
LINE
  8
0
 62
7
  6
CONTINUOUS
 10
158.0721793074
 20
31.4649194539
 11
158.187804528
 21
31.4326557675
  0
LINE
  8
0
 62
7
  6
CONTINUOUS
 10
159.228429528
 20
30.7228545871
 11
159.401867028
 21
30.6583272086
  0
LINE
  8
0
 62
7
  6
CONTINUOUS
 10
158.4190543074
 20
31.5294468267
 11
158.2456168074
 21
31.5939741996
  0
LINE
  8
0
 62
7
  6
CONTINUOUS
 10
159.6331168074
 20
31.2390736489
 11
159.4596793074
 21
31.3036010218
  0
LINE
  8
0
 62
7
  6
CONTINUOUS
 10
160.442492028
 20
30.9809641124
 11
160.615929528
 21
30.9164367395
  0
LINE
  8
0
 62
7
  6
CONTINUOUS
 10
160.8471793074
 20
31.4971831403
 11
160.6737418074
 21
31.5617105132
  0
LINE
  8
0
 62
7
  6
CONTINUOUS
 10
159.228429528
 20
31.2390736489
 11
159.4596793074
 21
31.1422825445
  0
LINE
  8
0
 62
7
  6
CONTINUOUS
 10
160.8471793074
 20
30.9809641124
 11
160.615929528
 21
31.0777551716
  0
LINE
  8
0
 62
7
  6
CONTINUOUS
 10
159.401867028
 20
31.3681283946
 11
159.4596793074
 21
31.4326557675
  0
LINE
  8
0
 62
7
  6
CONTINUOUS
 10
149.8628043005
 20
31.4971831403
 11
149.7471793074
 21
31.4326557675
  0
LINE
  8
0
 62
7
  6
CONTINUOUS
 10
149.9784292936
 20
31.3358647082
 11
150.1518667936
 21
31.4326557675
  0
LINE
  8
0
 62
7
  6
CONTINUOUS
 10
152.2909293626
 20
31.5294468267
 11
152.1753043074
 21
31.4649194539
  0
LINE
  8
0
 62
7
  6
CONTINUOUS
 10
152.1753043074
 20
31.3358647082
 11
152.2909293626
 21
31.400392081
  0
LINE
  8
0
 62
7
  6
CONTINUOUS
 10
151.1924917523
 20
30.6905909007
 11
151.3659292523
 21
30.7873819712
  0
LINE
  8
0
 62
7
  6
CONTINUOUS
 10
150.2096793212
 20
30.6260635193
 11
150.5565542799
 21
30.5937998301
  0
LINE
  8
0
 62
7
  6
CONTINUOUS
 10
154.3143669177
 20
30.6260635193
 11
154.5456166972
 21
30.5937998301
  0
LINE
  8
0
 62
7
  6
CONTINUOUS
 10
152.6956168074
 20
31.4971831403
 11
152.9268669177
 21
31.4649194539
  0
LINE
  8
0
 62
7
  6
CONTINUOUS
 10
155.0081169177
 20
31.4971831403
 11
155.239367028
 21
31.4649194539
  0
LINE
  8
0
 62
7
  6
CONTINUOUS
 10
159.4596793074
 20
31.1422825445
 11
160.442492028
 21
30.9809641124
  0
LINE
  8
0
 62
7
  6
CONTINUOUS
 10
160.615929528
 20
31.0777551716
 11
159.6331168074
 21
31.2390736489
  0
LINE
  8
0
 62
7
  6
CONTINUOUS
 10
153.1003044177
 20
31.5939741996
 11
152.9268669177
 21
31.626237886
  0
LINE
  8
0
 62
7
  6
CONTINUOUS
 10
159.401867028
 20
30.6583272086
 11
159.575304528
 21
30.6260635193
  0
LINE
  8
0
 62
7
  6
CONTINUOUS
 10
158.2456168074
 20
31.5939741996
 11
158.0721793074
 21
31.626237886
  0
LINE
  8
0
 62
7
  6
CONTINUOUS
 10
160.5003043074
 20
31.4649194539
 11
160.615929528
 21
31.4326557675
  0
LINE
  8
0
 62
7
  6
CONTINUOUS
 10
160.6737418074
 20
30.8519093441
 11
160.615929528
 21
30.7873819712
  0
LINE
  8
0
 62
7
  6
CONTINUOUS
 10
159.228429528
 20
31.5294468267
 11
159.1128043074
 21
31.4326557675
  0
LINE
  8
0
 62
7
  6
CONTINUOUS
 10
154.1409294177
 20
31.5617105132
 11
154.0253041972
 21
31.4971831403
  0
LINE
  8
0
 62
7
  6
CONTINUOUS
 10
154.1987416972
 20
31.1745462761
 11
154.0831168074
 21
31.1100188581
  0
LINE
  8
0
 62
7
  6
CONTINUOUS
 10
154.3143669177
 20
31.0132277988
 11
154.4299918074
 21
31.0777551716
  0
LINE
  8
0
 62
7
  6
CONTINUOUS
 10
151.8862417523
 20
30.5937998301
 11
152.1753043074
 21
30.5937998301
  0
LINE
  8
0
 62
7
  6
CONTINUOUS
 10
153.2159293074
 20
30.5937998301
 11
153.5049916972
 21
30.5937998301
  0
LINE
  8
0
 62
7
  6
CONTINUOUS
 10
154.5456166972
 20
30.5937998301
 11
154.8924916972
 21
30.5937998301
  0
LINE
  8
0
 62
7
  6
CONTINUOUS
 10
155.5284290869
 20
30.5937998301
 11
155.8174918074
 21
30.5937998301
  0
LINE
  8
0
 62
7
  6
CONTINUOUS
 10
156.279992028
 20
30.5937998301
 11
156.5690540869
 21
30.5937998301
  0
LINE
  8
0
 62
7
  6
CONTINUOUS
 10
157.0315543074
 20
30.5937998301
 11
157.320617028
 21
30.5937998301
  0
LINE
  8
0
 62
7
  6
CONTINUOUS
 10
158.361242028
 20
30.5937998301
 11
158.6503040869
 21
30.5937998301
  0
LINE
  8
0
 62
7
  6
CONTINUOUS
 10
159.922179528
 20
30.5937998301
 11
160.269054528
 21
30.5937998301
  0
LINE
  8
0
 62
7
  6
CONTINUOUS
 10
160.269054528
 20
30.7228545871
 11
159.922179528
 21
30.7228545871
  0
LINE
  8
0
 62
7
  6
CONTINUOUS
 10
154.8924916972
 20
30.7228545871
 11
154.5456166972
 21
30.7228545871
  0
LINE
  8
0
 62
7
  6
CONTINUOUS
 10
159.401867028
 20
30.8519093441
 11
159.1128043074
 21
30.8519093441
  0
LINE
  8
0
 62
7
  6
CONTINUOUS
 10
151.4237418626
 20
30.9164367395
 11
151.1346793074
 21
30.9164367395
  0
LINE
  8
0
 62
7
  6
CONTINUOUS
 10
150.498741835
 20
31.4971831403
 11
150.9034292799
 21
31.4649194539
  0
LINE
  8
0
 62
7
  6
CONTINUOUS
 10
150.9612418074
 20
31.5939741996
 11
150.5565542799
 21
31.626237886
  0
LINE
  8
0
 62
7
  6
CONTINUOUS
 10
159.575304528
 20
30.6260635193
 11
159.922179528
 21
30.5937998301
  0
LINE
  8
0
 62
7
  6
CONTINUOUS
 10
159.922179528
 20
30.7228545871
 11
159.575304528
 21
30.7551182848
  0
LINE
  8
0
 62
7
  6
CONTINUOUS
 10
155.3549915869
 20
31.5939741996
 11
155.0081169177
 21
31.626237886
  0
LINE
  8
0
 62
7
  6
CONTINUOUS
 10
160.1534293074
 20
31.4971831403
 11
160.5003043074
 21
31.4649194539
  0
LINE
  8
0
 62
7
  6
CONTINUOUS
 10
160.5003043074
 20
31.5939741996
 11
160.1534293074
 21
31.626237886
  0
LINE
  8
0
 62
7
  6
CONTINUOUS
 10
157.840929528
 20
31.4971831403
 11
158.0721793074
 21
31.4649194539
  0
LINE
  8
0
 62
7
  6
CONTINUOUS
 10
160.6737418074
 20
31.5617105132
 11
160.5003043074
 21
31.5939741996
  0
LINE
  8
0
 62
7
  6
CONTINUOUS
 10
160.8471793074
 20
30.6905909007
 11
160.9628038663
 21
30.7873819712
  0
LINE
  8
0
 62
7
  6
CONTINUOUS
 10
155.3549915869
 20
30.8841730531
 11
155.1815540869
 21
30.7873819712
  0
LINE
  8
0
 62
7
  6
CONTINUOUS
 10
157.4362415869
 20
31.5294468267
 11
157.320617028
 21
31.4649194539
  0
LINE
  8
0
 62
7
  6
CONTINUOUS
 10
157.320617028
 20
31.3358647082
 11
157.4362415869
 21
31.400392081
  0
LINE
  8
0
 62
7
  6
CONTINUOUS
 10
150.0362418212
 20
31.5617105132
 11
149.8628043005
 21
31.4971831403
  0
LINE
  8
0
 62
7
  6
CONTINUOUS
 10
152.4643666972
 20
31.5939741996
 11
152.2909293626
 21
31.5294468267
  0
LINE
  8
0
 62
7
  6
CONTINUOUS
 10
152.2909293626
 20
31.400392081
 11
152.4643666972
 21
31.4649194539
  0
LINE
  8
0
 62
7
  6
CONTINUOUS
 10
151.0768668626
 20
30.8196456577
 11
150.9034292799
 21
30.7551182848
  0
LINE
  8
0
 62
7
  6
CONTINUOUS
 10
160.5003043074
 20
30.7551182848
 11
160.269054528
 21
30.7228545871
  0
LINE
  8
0
 62
7
  6
CONTINUOUS
 10
154.8924916972
 20
30.5937998301
 11
155.1815540869
 21
30.6260635193
  0
LINE
  8
0
 62
7
  6
CONTINUOUS
 10
160.269054528
 20
30.5937998301
 11
160.615929528
 21
30.6260635193
  0
LINE
  8
0
 62
7
  6
CONTINUOUS
 10
150.5565542799
 20
30.5937998301
 11
150.9612418074
 21
30.6260635193
  0
LINE
  8
0
 62
7
  6
CONTINUOUS
 10
150.9034292799
 20
30.7551182848
 11
150.498741835
 21
30.7228545871
  0
LINE
  8
0
 62
7
  6
CONTINUOUS
 10
154.7768668074
 20
31.1422825445
 11
155.412804528
 21
31.1422825445
  0
LINE
  8
0
 62
7
  6
CONTINUOUS
 10
155.412804528
 20
31.2713373354
 11
154.7768668074
 21
31.2713373354
  0
LINE
  8
0
 62
7
  6
CONTINUOUS
 10
151.1346793074
 20
31.3036010218
 11
151.4237418626
 21
31.3036010218
  0
LINE
  8
0
 62
7
  6
CONTINUOUS
 10
153.9674919177
 20
31.3681283946
 11
154.2565543074
 21
31.3681283946
  0
LINE
  8
0
 62
7
  6
CONTINUOUS
 10
160.6737418074
 20
31.3681283946
 11
160.9628038663
 21
31.3681283946
  0
LINE
  8
0
 62
7
  6
CONTINUOUS
 10
154.6612419177
 20
31.4971831403
 11
155.0081169177
 21
31.4971831403
  0
LINE
  8
0
 62
7
  6
CONTINUOUS
 10
159.8065543074
 20
31.4971831403
 11
160.1534293074
 21
31.4971831403
  0
LINE
  8
0
 62
7
  6
CONTINUOUS
 10
160.1534293074
 20
31.626237886
 11
159.8065543074
 21
31.626237886
  0
LINE
  8
0
 62
7
  6
CONTINUOUS
 10
158.0721793074
 20
31.626237886
 11
157.840929528
 21
31.626237886
  0
LINE
  8
0
 62
7
  6
CONTINUOUS
 10
157.320617028
 20
31.626237886
 11
157.0315543074
 21
31.626237886
  0
LINE
  8
0
 62
7
  6
CONTINUOUS
 10
156.5690540869
 20
31.626237886
 11
156.279992028
 21
31.626237886
  0
LINE
  8
0
 62
7
  6
CONTINUOUS
 10
155.0081169177
 20
31.626237886
 11
154.6612419177
 21
31.626237886
  0
LINE
  8
0
 62
7
  6
CONTINUOUS
 10
152.9268669177
 20
31.626237886
 11
152.6956168074
 21
31.626237886
  0
LINE
  8
0
 62
7
  6
CONTINUOUS
 10
156.279992028
 20
31.9488748406
 11
156.5690540869
 21
31.9488748406
  0
LINE
  8
0
 62
7
  6
CONTINUOUS
 10
156.5690540869
 20
32.1101932727
 11
156.279992028
 21
32.1101932727
  0
LINE
  8
0
 62
7
  6
CONTINUOUS
 10
152.1753043074
 20
32.1101932727
 11
151.8862417523
 21
32.1101932727
  0
LINE
  8
0
 62
7
  6
CONTINUOUS
 10
151.2130860697
 20
32.3970785186
 11
151.6256574183
 21
32.3970785186
  0
LINE
  8
0
 62
7
  6
CONTINUOUS
 10
152.852430332
 20
32.3970785186
 11
154.245872955
 21
32.3970785186
  0
LINE
  8
0
 62
7
  6
CONTINUOUS
 10
154.5737418074
 20
32.3970785186
 11
155.9671844304
 21
32.3970785186
  0
LINE
  8
0
 62
7
  6
CONTINUOUS
 10
157.852430332
 20
32.3970785186
 11
159.245872955
 21
32.3970785186
  0
LINE
  8
0
 62
7
  6
CONTINUOUS
 10
159.5737418074
 20
32.3970785186
 11
160.9671844304
 21
32.3970785186
  0
LINE
  8
0
 62
7
  6
CONTINUOUS
 10
157.6096790869
 20
31.5939741996
 11
157.4362415869
 21
31.5294468267
  0
LINE
  8
0
 62
7
  6
CONTINUOUS
 10
155.1815540869
 20
30.6260635193
 11
155.3549915869
 21
30.6905909007
  0
LINE
  8
0
 62
7
  6
CONTINUOUS
 10
160.615929528
 20
30.6260635193
 11
160.8471793074
 21
30.6905909007
  0
LINE
  8
0
 62
7
  6
CONTINUOUS
 10
160.615929528
 20
30.7873819712
 11
160.5003043074
 21
30.7551182848
  0
LINE
  8
0
 62
7
  6
CONTINUOUS
 10
159.575304528
 20
31.4649194539
 11
159.8065543074
 21
31.4971831403
  0
LINE
  8
0
 62
7
  6
CONTINUOUS
 10
157.6096790869
 20
31.4649194539
 11
157.840929528
 21
31.4971831403
  0
LINE
  8
0
 62
7
  6
CONTINUOUS
 10
154.5456166972
 20
31.1100188581
 11
154.7768668074
 21
31.1422825445
  0
LINE
  8
0
 62
7
  6
CONTINUOUS
 10
157.840929528
 20
31.626237886
 11
157.6096790869
 21
31.5939741996
  0
LINE
  8
0
 62
7
  6
CONTINUOUS
 10
154.4299918074
 20
31.4649194539
 11
154.6612419177
 21
31.4971831403
  0
LINE
  8
0
 62
7
  6
CONTINUOUS
 10
159.8065543074
 20
31.626237886
 11
159.4596793074
 21
31.5939741996
  0
LINE
  8
0
 62
7
  6
CONTINUOUS
 10
154.7768668074
 20
31.2713373354
 11
154.4299918074
 21
31.2390736489
  0
LINE
  8
0
 62
7
  6
CONTINUOUS
 10
150.5565542799
 20
31.626237886
 11
150.2096793212
 21
31.5939741996
  0
LINE
  8
0
 62
7
  6
CONTINUOUS
 10
154.6612419177
 20
31.626237886
 11
154.2565543074
 21
31.5939741996
  0
LINE
  8
0
 62
7
  6
CONTINUOUS
 10
152.0327582009
 20
33.5446195022
 11
151.3770204959
 21
33.5446195022
  0
LINE
  8
0
 62
7
  6
CONTINUOUS
 10
157.4362415869
 20
31.400392081
 11
157.6096790869
 21
31.4649194539
  0
LINE
  8
0
 62
7
  6
CONTINUOUS
 10
159.4596793074
 20
31.4326557675
 11
159.575304528
 21
31.4649194539
  0
LINE
  8
0
 62
7
  6
CONTINUOUS
 10
159.4596793074
 20
31.5939741996
 11
159.228429528
 21
31.5294468267
  0
LINE
  8
0
 62
7
  6
CONTINUOUS
 10
155.1815540869
 20
30.7873819712
 11
154.8924916972
 21
30.7228545871
  0
LINE
  8
0
 62
7
  6
CONTINUOUS
 10
152.4643666972
 20
31.4649194539
 11
152.6956168074
 21
31.4971831403
  0
LINE
  8
0
 62
7
  6
CONTINUOUS
 10
152.6956168074
 20
31.626237886
 11
152.4643666972
 21
31.5939741996
  0
LINE
  8
0
 62
7
  6
CONTINUOUS
 10
150.2674918074
 20
31.4649194539
 11
150.498741835
 21
31.4971831403
  0
LINE
  8
0
 62
7
  6
CONTINUOUS
 10
156.7868565615
 20
35.0200293383
 11
157.4425942664
 21
35.0200293383
  0
LINE
  8
0
 62
7
  6
CONTINUOUS
 10
154.4299918074
 20
31.0777551716
 11
154.5456166972
 21
31.1100188581
  0
LINE
  8
0
 62
7
  6
CONTINUOUS
 10
154.4299918074
 20
31.2390736489
 11
154.1987416972
 21
31.1745462761
  0
LINE
  8
0
 62
7
  6
CONTINUOUS
 10
154.3143669177
 20
31.4326557675
 11
154.4299918074
 21
31.4649194539
  0
LINE
  8
0
 62
7
  6
CONTINUOUS
 10
150.9612418074
 20
30.6260635193
 11
151.1924917523
 21
30.6905909007
  0
LINE
  8
0
 62
7
  6
CONTINUOUS
 10
154.2565543074
 20
31.5939741996
 11
154.1409294177
 21
31.5617105132
  0
LINE
  8
0
 62
7
  6
CONTINUOUS
 10
150.2096793212
 20
31.5939741996
 11
150.0362418212
 21
31.5617105132
  0
LINE
  8
0
 62
7
  6
CONTINUOUS
 10
160.9671844304
 20
36.1675703219
 11
159.5737418074
 21
36.1675703219
  0
LINE
  8
0
 62
7
  6
CONTINUOUS
 10
157.6065286927
 20
36.1675703219
 11
157.1939573441
 21
36.1675703219
  0
LINE
  8
0
 62
7
  6
CONTINUOUS
 10
155.9671844304
 20
36.1675703219
 11
154.5737418074
 21
36.1675703219
  0
LINE
  8
0
 62
7
  6
CONTINUOUS
 10
154.245872955
 20
36.1675703219
 11
152.852430332
 21
36.1675703219
  0
LINE
  8
0
 62
7
  6
CONTINUOUS
 10
150.9671844304
 20
36.1675703219
 11
149.5737418074
 21
36.1675703219
  0
LINE
  8
0
 62
7
  6
CONTINUOUS
 10
150.1518667936
 20
31.4326557675
 11
150.2674918074
 21
31.4649194539
  0
CIRCLE
  8
0
 62
7
  6
CONTINUOUS
 10
160.2704631189
 20
38.5036358957
 40
2.0901639344
  0
ARC
  8
0
 62
7
  6
CONTINUOUS
 10
151.2130860697
 20
34.0364227809
 40
1.6393442623
 50
180.0
 51
270.0
  0
ARC
  8
0
 62
7
  6
CONTINUOUS
 10
157.6065286927
 20
34.5282260596
 40
1.6393442623
 50
0.0
 51
90.0
  0
ARC
  8
0
 62
7
  6
CONTINUOUS
 10
151.6256574183
 20
33.8724883547
 40
1.4754098361
 50
270.0
 51
326.2510114041
  0
ARC
  8
0
 62
7
  6
CONTINUOUS
 10
157.1939573441
 20
34.6921604858
 40
1.4754098361
 50
90.0
 51
146.2510114041
  0
ARC
  8
0
 62
7
  6
CONTINUOUS
 10
152.0327582009
 20
34.3642916334
 40
0.8196721311
 50
270.0
 51
360.0
  0
ARC
  8
0
 62
7
  6
CONTINUOUS
 10
156.7868565615
 20
34.2003572071
 40
0.8196721311
 50
90.0
 51
180.0
  0
ARC
  8
0
 62
7
  6
CONTINUOUS
 10
151.3770204959
 20
33.9544555678
 40
0.4098360656
 50
180.0
 51
270.0
  0
ARC
  8
0
 62
7
  6
CONTINUOUS
 10
157.4425942664
 20
34.6101932727
 40
0.4098360656
 50
0.0
 51
90.0
  0
SOLID
  8
0
 62
7
  6
CONTINUOUS
 10
156.279992028
 20
31.9488752009
 11
156.279992028
 21
32.1101936845
 12
156.5690540869
 22
31.9488752009
 13
156.5690540869
 23
32.1101936845
  0
SOLID
  8
0
 62
7
  6
CONTINUOUS
 10
150.5565542799
 20
31.6262382337
 11
150.9612418074
 21
31.5939740028
 12
150.2096793212
 22
31.5939740028
 13
150.2096793212
 23
31.5939740028
  0
SOLID
  8
0
 62
7
  6
CONTINUOUS
 10
150.0362418212
 20
31.5617111435
 11
150.2096793212
 21
31.5939740028
 12
150.9612418074
 22
31.5939740028
 13
150.9612418074
 23
31.5939740028
  0
SOLID
  8
0
 62
7
  6
CONTINUOUS
 10
150.9612418074
 20
31.5939740028
 11
151.1924917523
 21
31.5294468402
 12
150.0362418212
 22
31.5617111435
 13
150.0362418212
 23
31.5617111435
  0
SOLID
  8
0
 62
7
  6
CONTINUOUS
 10
149.8628043005
 20
31.49718259
 11
150.0362418212
 21
31.5617111435
 12
151.1924917523
 22
31.5294468402
 13
151.1924917523
 23
31.5294468402
  0
SOLID
  8
0
 62
7
  6
CONTINUOUS
 10
149.8628043005
 20
31.49718259
 11
151.1924917523
 21
31.5294468402
 12
150.498741835
 22
31.49718259
 13
150.498741835
 23
31.49718259
  0
SOLID
  8
0
 62
7
  6
CONTINUOUS
 10
150.498741835
 20
31.49718259
 11
151.1924917523
 21
31.5294468402
 12
150.9034292799
 22
31.4649197501
 13
150.9034292799
 23
31.4649197501
  0
SOLID
  8
0
 62
7
  6
CONTINUOUS
 10
151.1924917523
 20
31.5294468402
 11
151.3659292523
 21
31.4326554468
 12
150.9034292799
 22
31.4649197501
 13
150.9034292799
 23
31.4649197501
  0
SOLID
  8
0
 62
7
  6
CONTINUOUS
 10
151.0768668626
 20
31.4003926599
 11
150.9034292799
 21
31.4649197501
 12
151.3659292523
 22
31.4326554468
 13
151.3659292523
 23
31.4326554468
  0
SOLID
  8
0
 62
7
  6
CONTINUOUS
 10
151.0768668626
 20
31.4003926599
 11
151.3659292523
 21
31.4326554468
 12
151.1346793074
 22
31.3036013776
 13
151.1346793074
 23
31.3036013776
  0
SOLID
  8
0
 62
7
  6
CONTINUOUS
 10
151.3659292523
 20
31.4326554468
 11
151.4237418626
 21
31.3036013776
 12
151.1346793074
 22
31.3036013776
 13
151.1346793074
 23
31.3036013776
  0
SOLID
  8
0
 62
7
  6
CONTINUOUS
 10
152.4643666972
 20
31.5939739754
 11
152.6956168074
 21
31.6262382787
 12
152.9268669177
 22
31.6262382787
 13
152.9268669177
 23
31.6262382787
  0
SOLID
  8
0
 62
7
  6
CONTINUOUS
 10
152.9268669177
 20
31.6262382787
 11
153.1003044177
 21
31.5939739754
 12
152.4643666972
 22
31.5939739754
 13
152.4643666972
 23
31.5939739754
  0
SOLID
  8
0
 62
7
  6
CONTINUOUS
 10
152.2909293626
 20
31.5294468852
 11
152.4643666972
 21
31.5939739754
 12
153.1003044177
 22
31.5939739754
 13
153.1003044177
 23
31.5939739754
  0
SOLID
  8
0
 62
7
  6
CONTINUOUS
 10
153.1003044177
 20
31.5939739754
 11
153.2737419177
 21
31.5294468852
 12
152.2909293626
 22
31.5294468852
 13
152.2909293626
 23
31.5294468852
  0
SOLID
  8
0
 62
7
  6
CONTINUOUS
 10
153.2737419177
 20
31.5294468852
 11
152.6956168074
 21
31.4971825369
 12
152.2909293626
 22
31.5294468852
 13
152.2909293626
 23
31.5294468852
  0
SOLID
  8
0
 62
7
  6
CONTINUOUS
 10
152.1753043074
 20
31.4649197951
 11
152.2909293626
 21
31.5294468852
 12
152.6956168074
 22
31.4971825369
 13
152.6956168074
 23
31.4971825369
  0
SOLID
  8
0
 62
7
  6
CONTINUOUS
 10
152.6956168074
 20
31.4971825369
 11
152.4643666972
 21
31.4649197951
 12
152.1753043074
 22
31.4649197951
 13
152.1753043074
 23
31.4649197951
  0
SOLID
  8
0
 62
7
  6
CONTINUOUS
 10
152.6956168074
 20
31.4971825369
 11
153.2737419177
 21
31.5294468852
 12
152.9268669177
 22
31.4649197951
 13
152.9268669177
 23
31.4649197951
  0
SOLID
  8
0
 62
7
  6
CONTINUOUS
 10
153.2737419177
 20
31.5294468852
 11
153.3893668074
 21
31.4649197951
 12
152.9268669177
 22
31.4649197951
 13
152.9268669177
 23
31.4649197951
  0
SOLID
  8
0
 62
7
  6
CONTINUOUS
 10
153.0424918074
 20
31.4326554468
 11
152.9268669177
 21
31.4649197951
 12
153.3893668074
 22
31.4649197951
 13
153.3893668074
 23
31.4649197951
  0
SOLID
  8
0
 62
7
  6
CONTINUOUS
 10
153.3893668074
 20
31.4649197951
 11
153.4471794177
 21
31.4003927049
 12
153.0424918074
 22
31.4326554468
 13
153.0424918074
 23
31.4326554468
  0
SOLID
  8
0
 62
7
  6
CONTINUOUS
 10
153.1581166972
 20
31.3681283566
 11
153.0424918074
 21
31.4326554468
 12
153.4471794177
 22
31.4003927049
 13
153.4471794177
 23
31.4003927049
  0
SOLID
  8
0
 62
7
  6
CONTINUOUS
 10
153.1581166972
 20
31.3681283566
 11
153.4471794177
 21
31.4003927049
 12
153.2159293074
 22
31.2390742213
 13
153.2159293074
 23
31.2390742213
  0
SOLID
  8
0
 62
7
  6
CONTINUOUS
 10
153.4471794177
 20
31.4003927049
 11
153.5049916972
 21
31.2390742213
 12
153.2159293074
 22
31.2390742213
 13
153.2159293074
 23
31.2390742213
  0
SOLID
  8
0
 62
7
  6
CONTINUOUS
 10
152.4643666972
 20
31.4649197951
 11
152.2909293626
 21
31.4003927049
 12
152.1753043074
 22
31.4649197951
 13
152.1753043074
 23
31.4649197951
  0
SOLID
  8
0
 62
7
  6
CONTINUOUS
 10
152.2909293626
 20
31.4003927049
 11
152.1753043074
 21
31.3358640533
 12
152.1753043074
 22
31.4649197951
 13
152.1753043074
 23
31.4649197951
  0
SOLID
  8
0
 62
7
  6
CONTINUOUS
 10
152.1753043074
 20
31.3358640533
 11
151.8862417523
 21
30.5938002869
 12
152.1753043074
 22
31.4649197951
 13
152.1753043074
 23
31.4649197951
  0
SOLID
  8
0
 62
7
  6
CONTINUOUS
 10
152.1753043074
 20
31.4649197951
 11
151.8862417523
 21
30.5938002869
 12
152.1753043074
 22
32.1101937295
 13
152.1753043074
 23
32.1101937295
  0
SOLID
  8
0
 62
7
  6
CONTINUOUS
 10
151.8862417523
 20
30.5938002869
 11
151.8862417523
 21
32.1101937295
 12
152.1753043074
 22
32.1101937295
 13
152.1753043074
 23
32.1101937295
  0
SOLID
  8
0
 62
7
  6
CONTINUOUS
 10
152.1753043074
 20
31.3358640533
 11
152.1753043074
 21
30.5938002869
 12
151.8862417523
 22
30.5938002869
 13
151.8862417523
 23
30.5938002869
  0
SOLID
  8
0
 62
7
  6
CONTINUOUS
 10
153.2159293074
 20
30.5938002869
 11
153.2159293074
 21
31.2390742213
 12
153.5049916972
 22
31.2390742213
 13
153.5049916972
 23
31.2390742213
  0
SOLID
  8
0
 62
7
  6
CONTINUOUS
 10
153.5049916972
 20
31.2390742213
 11
153.5049916972
 21
30.5938002869
 12
153.2159293074
 22
30.5938002869
 13
153.2159293074
 23
30.5938002869
  0
SOLID
  8
0
 62
7
  6
CONTINUOUS
 10
154.2565543074
 20
31.5939738288
 11
154.6612419177
 21
31.6262385959
 12
155.0081169177
 22
31.6262385959
 13
155.0081169177
 23
31.6262385959
  0
SOLID
  8
0
 62
7
  6
CONTINUOUS
 10
155.0081169177
 20
31.6262385959
 11
155.3549915869
 21
31.5939738288
 12
154.2565543074
 22
31.5939738288
 13
154.2565543074
 23
31.5939738288
  0
SOLID
  8
0
 62
7
  6
CONTINUOUS
 10
154.1409294177
 20
31.5617111435
 11
154.2565543074
 21
31.5939738288
 12
155.3549915869
 22
31.5939738288
 13
155.3549915869
 23
31.5939738288
  0
SOLID
  8
0
 62
7
  6
CONTINUOUS
 10
155.3549915869
 20
31.5939738288
 11
155.5284290869
 21
31.5294468402
 12
154.1409294177
 22
31.5617111435
 13
154.1409294177
 23
31.5617111435
  0
SOLID
  8
0
 62
7
  6
CONTINUOUS
 10
154.0253041972
 20
31.4971826249
 11
154.1409294177
 21
31.5617111435
 12
155.5284290869
 22
31.5294468402
 13
155.5284290869
 23
31.5294468402
  0
SOLID
  8
0
 62
7
  6
CONTINUOUS
 10
154.0253041972
 20
31.4971826249
 11
155.5284290869
 21
31.5294468402
 12
154.6612419177
 22
31.4971826249
 13
154.6612419177
 23
31.4971826249
  0
SOLID
  8
0
 62
7
  6
CONTINUOUS
 10
154.6612419177
 20
31.4971826249
 11
155.5284290869
 21
31.5294468402
 12
155.0081169177
 22
31.4971826249
 13
155.0081169177
 23
31.4971826249
  0
SOLID
  8
0
 62
7
  6
CONTINUOUS
 10
155.0081169177
 20
31.4971826249
 11
155.5284290869
 21
31.5294468402
 12
155.239367028
 22
31.4649194065
 13
155.239367028
 23
31.4649194065
  0
SOLID
  8
0
 62
7
  6
CONTINUOUS
 10
155.5284290869
 20
31.5294468402
 11
155.6440543074
 21
31.4649194065
 12
155.239367028
 22
31.4649194065
 13
155.239367028
 23
31.4649194065
  0
SOLID
  8
0
 62
7
  6
CONTINUOUS
 10
153.9674919177
 20
31.4326554138
 11
154.0253041972
 21
31.4971826249
 12
154.6612419177
 22
31.4971826249
 13
154.6612419177
 23
31.4971826249
  0
SOLID
  8
0
 62
7
  6
CONTINUOUS
 10
155.3549915869
 20
31.4326554138
 11
155.239367028
 21
31.4649194065
 12
155.6440543074
 22
31.4649194065
 13
155.6440543074
 23
31.4649194065
  0
SOLID
  8
0
 62
7
  6
CONTINUOUS
 10
155.3549915869
 20
31.4326554138
 11
155.6440543074
 21
31.4649194065
 12
155.412804528
 22
31.3681282026
 13
155.412804528
 23
31.3681282026
  0
SOLID
  8
0
 62
7
  6
CONTINUOUS
 10
155.6440543074
 20
31.4649194065
 11
155.7018665869
 21
31.3681282026
 12
155.412804528
 22
31.3681282026
 13
155.412804528
 23
31.3681282026
  0
SOLID
  8
0
 62
7
  6
CONTINUOUS
 10
155.412804528
 20
31.2713369632
 11
155.412804528
 21
31.3681282026
 12
155.7018665869
 22
31.3681282026
 13
155.7018665869
 23
31.3681282026
  0
SOLID
  8
0
 62
7
  6
CONTINUOUS
 10
155.412804528
 20
31.2713369632
 11
155.7018665869
 21
31.3681282026
 12
155.412804528
 22
31.1422827828
 13
155.412804528
 23
31.1422827828
  0
SOLID
  8
0
 62
7
  6
CONTINUOUS
 10
155.412804528
 20
31.1422827828
 11
155.7018665869
 21
31.3681282026
 12
155.412804528
 22
30.9487004259
 13
155.412804528
 23
30.9487004259
  0
SOLID
  8
0
 62
7
  6
CONTINUOUS
 10
155.7018665869
 20
31.3681282026
 11
155.7018665869
 21
30.8519086025
 12
155.412804528
 22
30.9487004259
 13
155.412804528
 23
30.9487004259
  0
SOLID
  8
0
 62
7
  6
CONTINUOUS
 10
157.6096790869
 20
31.5939736268
 11
157.840929528
 21
31.6262383465
 12
158.0721793074
 22
31.6262383465
 13
158.0721793074
 23
31.6262383465
  0
SOLID
  8
0
 62
7
  6
CONTINUOUS
 10
158.0721793074
 20
31.6262383465
 11
158.2456168074
 21
31.5939736268
 12
157.6096790869
 22
31.5939736268
 13
157.6096790869
 23
31.5939736268
  0
SOLID
  8
0
 62
7
  6
CONTINUOUS
 10
157.4362415869
 20
31.5294472848
 11
157.6096790869
 21
31.5939736268
 12
158.2456168074
 22
31.5939736268
 13
158.2456168074
 23
31.5939736268
  0
SOLID
  8
0
 62
7
  6
CONTINUOUS
 10
158.2456168074
 20
31.5939736268
 11
158.4190543074
 21
31.5294472848
 12
157.4362415869
 22
31.5294472848
 13
157.4362415869
 23
31.5294472848
  0
SOLID
  8
0
 62
7
  6
CONTINUOUS
 10
158.4190543074
 20
31.5294472848
 11
157.840929528
 21
31.4971825369
 12
157.4362415869
 22
31.5294472848
 13
157.4362415869
 23
31.5294472848
  0
SOLID
  8
0
 62
7
  6
CONTINUOUS
 10
157.320617028
 20
31.4649199103
 11
157.4362415869
 21
31.5294472848
 12
157.840929528
 22
31.4971825369
 13
157.840929528
 23
31.4971825369
  0
SOLID
  8
0
 62
7
  6
CONTINUOUS
 10
157.840929528
 20
31.4971825369
 11
157.6096790869
 21
31.4649199103
 12
157.320617028
 22
31.4649199103
 13
157.320617028
 23
31.4649199103
  0
SOLID
  8
0
 62
7
  6
CONTINUOUS
 10
157.840929528
 20
31.4971825369
 11
158.4190543074
 21
31.5294472848
 12
158.0721793074
 22
31.4649199103
 13
158.0721793074
 23
31.4649199103
  0
SOLID
  8
0
 62
7
  6
CONTINUOUS
 10
158.4190543074
 20
31.5294472848
 11
158.534679528
 21
31.4649199103
 12
158.0721793074
 22
31.4649199103
 13
158.0721793074
 23
31.4649199103
  0
SOLID
  8
0
 62
7
  6
CONTINUOUS
 10
158.187804528
 20
31.4326554468
 11
158.0721793074
 21
31.4649199103
 12
158.534679528
 22
31.4649199103
 13
158.534679528
 23
31.4649199103
  0
SOLID
  8
0
 62
7
  6
CONTINUOUS
 10
158.187804528
 20
31.4326554468
 11
158.534679528
 21
31.4649199103
 12
158.3034290869
 22
31.3681288486
 13
158.3034290869
 23
31.3681288486
  0
SOLID
  8
0
 62
7
  6
CONTINUOUS
 10
158.534679528
 20
31.4649199103
 11
158.5924918074
 21
31.3681288486
 12
158.3034290869
 22
31.3681288486
 13
158.3034290869
 23
31.3681288486
  0
SOLID
  8
0
 62
7
  6
CONTINUOUS
 10
158.361242028
 20
31.2068093799
 11
158.3034290869
 21
31.3681288486
 12
158.5924918074
 22
31.3681288486
 13
158.5924918074
 23
31.3681288486
  0
SOLID
  8
0
 62
7
  6
CONTINUOUS
 10
158.5924918074
 20
31.3681288486
 11
158.6503040869
 21
31.2068093799
 12
158.361242028
 22
31.2068093799
 13
158.361242028
 23
31.2068093799
  0
SOLID
  8
0
 62
7
  6
CONTINUOUS
 10
157.6096790869
 20
31.4649199103
 11
157.4362415869
 21
31.4003926599
 12
157.320617028
 22
31.4649199103
 13
157.320617028
 23
31.4649199103
  0
SOLID
  8
0
 62
7
  6
CONTINUOUS
 10
157.4362415869
 20
31.4003926599
 11
157.320617028
 21
31.3358640533
 12
157.320617028
 22
31.4649199103
 13
157.320617028
 23
31.4649199103
  0
SOLID
  8
0
 62
7
  6
CONTINUOUS
 10
157.320617028
 20
31.3358640533
 11
157.0315543074
 21
30.5938003547
 12
157.320617028
 22
31.4649199103
 13
157.320617028
 23
31.4649199103
  0
SOLID
  8
0
 62
7
  6
CONTINUOUS
 10
157.320617028
 20
31.4649199103
 11
157.0315543074
 21
30.5938003547
 12
157.320617028
 22
31.6262383465
 13
157.320617028
 23
31.6262383465
  0
SOLID
  8
0
 62
7
  6
CONTINUOUS
 10
157.0315543074
 20
30.5938003547
 11
157.0315543074
 21
31.6262383465
 12
157.320617028
 22
31.6262383465
 13
157.320617028
 23
31.6262383465
  0
SOLID
  8
0
 62
7
  6
CONTINUOUS
 10
157.320617028
 20
31.3358640533
 11
157.320617028
 21
30.5938003547
 12
157.0315543074
 22
30.5938003547
 13
157.0315543074
 23
30.5938003547
  0
SOLID
  8
0
 62
7
  6
CONTINUOUS
 10
158.361242028
 20
30.5938003547
 11
158.361242028
 21
31.2068093799
 12
158.6503040869
 22
31.2068093799
 13
158.6503040869
 23
31.2068093799
  0
SOLID
  8
0
 62
7
  6
CONTINUOUS
 10
158.6503040869
 20
31.2068093799
 11
158.6503040869
 21
30.5938003547
 12
158.361242028
 22
30.5938003547
 13
158.361242028
 23
30.5938003547
  0
SOLID
  8
0
 62
7
  6
CONTINUOUS
 10
159.4596793074
 20
31.5939739474
 11
159.8065543074
 21
31.6262381969
 12
160.1534293074
 22
31.6262381969
 13
160.1534293074
 23
31.6262381969
  0
SOLID
  8
0
 62
7
  6
CONTINUOUS
 10
160.1534293074
 20
31.6262381969
 11
160.5003043074
 21
31.5939739474
 12
159.4596793074
 22
31.5939739474
 13
159.4596793074
 23
31.5939739474
  0
SOLID
  8
0
 62
7
  6
CONTINUOUS
 10
159.228429528
 20
31.5294468402
 11
159.4596793074
 21
31.5939739474
 12
160.5003043074
 22
31.5939739474
 13
160.5003043074
 23
31.5939739474
  0
SOLID
  8
0
 62
7
  6
CONTINUOUS
 10
159.228429528
 20
31.5294468402
 11
160.5003043074
 21
31.5939739304
 12
160.6737418074
 22
31.5617111435
 13
160.6737418074
 23
31.5617111435
  0
SOLID
  8
0
 62
7
  6
CONTINUOUS
 10
159.228429528
 20
31.5294468402
 11
160.6737418074
 21
31.5617111435
 12
159.8065543074
 22
31.4971825592
 13
159.8065543074
 23
31.4971825592
  0
SOLID
  8
0
 62
7
  6
CONTINUOUS
 10
159.8065543074
 20
31.4971825592
 11
160.6737418074
 21
31.5617111435
 12
160.1534293074
 22
31.4971825592
 13
160.1534293074
 23
31.4971825592
  0
SOLID
  8
0
 62
7
  6
CONTINUOUS
 10
160.6737418074
 20
31.5617111435
 11
160.8471793074
 21
31.4971825592
 12
160.1534293074
 22
31.4971825592
 13
160.1534293074
 23
31.4971825592
  0
SOLID
  8
0
 62
7
  6
CONTINUOUS
 10
160.5003043074
 20
31.4649197501
 11
160.1534293074
 21
31.4971825592
 12
160.8471793074
 22
31.4971825592
 13
160.8471793074
 23
31.4971825592
  0
SOLID
  8
0
 62
7
  6
CONTINUOUS
 10
159.1128043074
 20
31.4326555427
 11
159.228429528
 21
31.5294468402
 12
159.8065543074
 22
31.4971825592
 13
159.8065543074
 23
31.4971825592
  0
SOLID
  8
0
 62
7
  6
CONTINUOUS
 10
160.5003043074
 20
31.4649197501
 11
160.8471793074
 21
31.4971825592
 12
160.615929528
 22
31.4326555427
 13
160.615929528
 23
31.4326555427
  0
SOLID
  8
0
 62
7
  6
CONTINUOUS
 10
160.615929528
 20
31.4326555427
 11
160.8471793074
 21
31.4971825592
 12
160.6737418074
 22
31.3681283005
 13
160.6737418074
 23
31.3681283005
  0
SOLID
  8
0
 62
7
  6
CONTINUOUS
 10
160.8471793074
 20
31.4971825592
 11
160.9628038663
 21
31.3681283005
 12
160.6737418074
 22
31.3681283005
 13
160.6737418074
 23
31.3681283005
  0
SOLID
  8
0
 62
7
  6
CONTINUOUS
 10
150.2674918074
 20
31.4649197501
 11
149.7471793074
 21
31.4326554237
 12
150.498741835
 22
31.4971824493
 13
150.498741835
 23
31.4971824493
  0
SOLID
  8
0
 62
7
  6
CONTINUOUS
 10
149.7471793074
 20
31.4326554237
 11
149.8628043005
 21
31.4971824493
 12
150.498741835
 22
31.4971824493
 13
150.498741835
 23
31.4971824493
  0
SOLID
  8
0
 62
7
  6
CONTINUOUS
 10
150.2674918074
 20
31.4649197501
 11
150.1518667936
 21
31.4326554237
 12
149.7471793074
 22
31.4326554237
 13
149.7471793074
 23
31.4326554237
  0
SOLID
  8
0
 62
7
  6
CONTINUOUS
 10
149.6315543091
 20
31.3036012664
 11
149.7471793074
 21
31.4326554237
 12
150.1518667936
 22
31.4326554237
 13
150.1518667936
 23
31.4326554237
  0
SOLID
  8
0
 62
7
  6
CONTINUOUS
 10
153.9674919177
 20
31.4326554237
 11
154.6612419177
 21
31.4971825369
 12
154.4299918074
 22
31.4649197501
 13
154.4299918074
 23
31.4649197501
  0
SOLID
  8
0
 62
7
  6
CONTINUOUS
 10
154.4299918074
 20
31.4649197501
 11
154.3143669177
 21
31.4326554237
 12
153.9674919177
 22
31.4326554237
 13
153.9674919177
 23
31.4326554237
  0
SOLID
  8
0
 62
7
  6
CONTINUOUS
 10
153.9674919177
 20
31.3681283335
 11
153.9674919177
 21
31.4326554237
 12
154.3143669177
 22
31.4326554237
 13
154.3143669177
 23
31.4326554237
  0
SOLID
  8
0
 62
7
  6
CONTINUOUS
 10
154.3143669177
 20
31.4326554237
 11
154.2565543074
 21
31.3681283335
 12
153.9674919177
 22
31.3681283335
 13
153.9674919177
 23
31.3681283335
  0
SOLID
  8
0
 62
7
  6
CONTINUOUS
 10
159.1128043074
 20
31.4326555528
 11
159.8065543074
 21
31.4971825369
 12
159.575304528
 22
31.4649197501
 13
159.575304528
 23
31.4649197501
  0
SOLID
  8
0
 62
7
  6
CONTINUOUS
 10
159.575304528
 20
31.4649197501
 11
159.4596793074
 21
31.4326555528
 12
159.1128043074
 22
31.4326555528
 13
159.1128043074
 23
31.4326555528
  0
SOLID
  8
0
 62
7
  6
CONTINUOUS
 10
159.1128043074
 20
31.3681284626
 11
159.1128043074
 21
31.4326555528
 12
159.4596793074
 22
31.4326555528
 13
159.4596793074
 23
31.4326555528
  0
SOLID
  8
0
 62
7
  6
CONTINUOUS
 10
159.4596793074
 20
31.4326555528
 11
159.401867028
 21
31.3681284626
 12
159.1128043074
 22
31.3681284626
 13
159.1128043074
 23
31.3681284626
  0
SOLID
  8
0
 62
7
  6
CONTINUOUS
 10
159.228429528
 20
31.2390741763
 11
159.1128043074
 21
31.3681284626
 12
159.401867028
 22
31.3681284626
 13
159.401867028
 23
31.3681284626
  0
SOLID
  8
0
 62
7
  6
CONTINUOUS
 10
149.6315543091
 20
31.3036012664
 11
150.1518667936
 21
31.4326554468
 12
149.9784292936
 22
31.3358640533
 13
149.9784292936
 23
31.3358640533
  0
SOLID
  8
0
 62
7
  6
CONTINUOUS
 10
149.9784292936
 20
31.3358640533
 11
149.9206168074
 21
31.2713369632
 12
149.6315543091
 22
31.3036012664
 13
149.6315543091
 23
31.3036012664
  0
SOLID
  8
0
 62
7
  6
CONTINUOUS
 10
149.5737418074
 20
31.1100184796
 11
149.6315543091
 21
31.3036012664
 12
149.9206168074
 22
31.2713369632
 13
149.9206168074
 23
31.2713369632
  0
SOLID
  8
0
 62
7
  6
CONTINUOUS
 10
154.4299918074
 20
31.2390741763
 11
154.7768668074
 21
31.271336924
 12
155.412804528
 22
31.271336924
 13
155.412804528
 23
31.271336924
  0
SOLID
  8
0
 62
7
  6
CONTINUOUS
 10
154.4299918074
 20
31.2390741763
 11
155.412804528
 21
31.271336924
 12
154.1987416972
 22
31.1745462761
 13
154.1987416972
 23
31.1745462761
  0
SOLID
  8
0
 62
7
  6
CONTINUOUS
 10
154.1987416972
 20
31.1745462761
 11
155.412804528
 21
31.271336924
 12
154.7768668074
 22
31.1422827436
 13
154.7768668074
 23
31.1422827436
  0
SOLID
  8
0
 62
7
  6
CONTINUOUS
 10
155.412804528
 20
31.271336924
 11
155.412804528
 21
31.1422827436
 12
154.7768668074
 22
31.1422827436
 13
154.7768668074
 23
31.1422827436
  0
SOLID
  8
0
 62
7
  6
CONTINUOUS
 10
159.228429528
 20
31.2390745501
 11
159.401867028
 21
31.3681283566
 12
159.4596793074
 22
31.3036012664
 13
159.4596793074
 23
31.3036012664
  0
SOLID
  8
0
 62
7
  6
CONTINUOUS
 10
159.4596793074
 20
31.3036012664
 11
159.6331168074
 21
31.2390745501
 12
159.228429528
 22
31.2390745501
 13
159.228429528
 23
31.2390745501
  0
SOLID
  8
0
 62
7
  6
CONTINUOUS
 10
159.4596793074
 20
31.1422827828
 11
159.228429528
 21
31.2390745501
 12
159.6331168074
 22
31.2390745501
 13
159.6331168074
 23
31.2390745501
  0
SOLID
  8
0
 62
7
  6
CONTINUOUS
 10
159.6331168074
 20
31.2390745501
 11
160.615929528
 21
31.0777556927
 12
159.4596793074
 22
31.1422827828
 13
159.4596793074
 23
31.1422827828
  0
SOLID
  8
0
 62
7
  6
CONTINUOUS
 10
160.442492028
 20
30.9809646623
 11
159.4596793074
 21
31.1422827828
 12
160.615929528
 22
31.0777556927
 13
160.615929528
 23
31.0777556927
  0
SOLID
  8
0
 62
7
  6
CONTINUOUS
 10
160.615929528
 20
31.0777556927
 11
160.8471793074
 21
30.9809646623
 12
160.442492028
 22
30.9809646623
 13
160.442492028
 23
30.9809646623
  0
SOLID
  8
0
 62
7
  6
CONTINUOUS
 10
160.615929528
 20
30.9164372091
 11
160.442492028
 21
30.9809646623
 12
160.8471793074
 22
30.9809646623
 13
160.8471793074
 23
30.9809646623
  0
SOLID
  8
0
 62
7
  6
CONTINUOUS
 10
160.615929528
 20
30.9164372091
 11
160.8471793074
 21
30.9809646623
 12
160.6737418074
 22
30.8519089441
 13
160.6737418074
 23
30.8519089441
  0
SOLID
  8
0
 62
7
  6
CONTINUOUS
 10
160.8471793074
 20
30.9809646623
 11
160.9628038663
 21
30.8519089441
 12
160.6737418074
 22
30.8519089441
 13
160.6737418074
 23
30.8519089441
  0
SOLID
  8
0
 62
7
  6
CONTINUOUS
 10
160.615929528
 20
30.7873818593
 11
160.6737418074
 21
30.8519089441
 12
160.9628038663
 22
30.8519089441
 13
160.9628038663
 23
30.8519089441
  0
SOLID
  8
0
 62
7
  6
CONTINUOUS
 10
160.9628038663
 20
30.8519089441
 11
160.9628038663
 21
30.7873818593
 12
160.615929528
 22
30.7873818593
 13
160.615929528
 23
30.7873818593
  0
SOLID
  8
0
 62
7
  6
CONTINUOUS
 10
160.5003043074
 20
30.7551187255
 11
160.615929528
 21
30.7873818593
 12
160.9628038663
 22
30.7873818593
 13
160.9628038663
 23
30.7873818593
  0
SOLID
  8
0
 62
7
  6
CONTINUOUS
 10
160.5003043074
 20
30.7551187255
 11
160.9628038663
 21
30.7873818593
 12
160.269054528
 22
30.7228547745
 13
160.269054528
 23
30.7228547745
  0
SOLID
  8
0
 62
7
  6
CONTINUOUS
 10
160.9628038663
 20
30.7873818593
 11
160.8471793074
 21
30.6905916353
 12
160.269054528
 22
30.7228547745
 13
160.269054528
 23
30.7228547745
  0
SOLID
  8
0
 62
7
  6
CONTINUOUS
 10
160.8471793074
 20
30.6905916353
 11
159.401867028
 21
30.658327332
 12
160.269054528
 22
30.7228547745
 13
160.269054528
 23
30.7228547745
  0
SOLID
  8
0
 62
7
  6
CONTINUOUS
 10
160.269054528
 20
30.7228547745
 11
159.401867028
 21
30.658327332
 12
159.922179528
 22
30.7228547745
 13
159.922179528
 23
30.7228547745
  0
SOLID
  8
0
 62
7
  6
CONTINUOUS
 10
159.401867028
 20
30.658327332
 11
159.228429528
 21
30.7228547745
 12
159.922179528
 22
30.7228547745
 13
159.922179528
 23
30.7228547745
  0
SOLID
  8
0
 62
7
  6
CONTINUOUS
 10
159.401867028
 20
30.658327332
 11
160.8471793074
 21
30.6905916353
 12
159.575304528
 22
30.6260629858
 13
159.575304528
 23
30.6260629858
  0
SOLID
  8
0
 62
7
  6
CONTINUOUS
 10
160.8471793074
 20
30.6905916353
 11
160.615929528
 21
30.6260629858
 12
159.575304528
 22
30.6260629858
 13
159.575304528
 23
30.6260629858
  0
SOLID
  8
0
 62
7
  6
CONTINUOUS
 10
159.922179528
 20
30.5938006049
 11
159.575304528
 21
30.6260629858
 12
160.615929528
 22
30.6260629858
 13
160.615929528
 23
30.6260629858
  0
SOLID
  8
0
 62
7
  6
CONTINUOUS
 10
160.615929528
 20
30.6260629858
 11
160.269054528
 21
30.5938006049
 12
159.922179528
 22
30.5938006049
 13
159.922179528
 23
30.5938006049
  0
SOLID
  8
0
 62
7
  6
CONTINUOUS
 10
149.5737418074
 20
31.1100184796
 11
149.9206168074
 21
31.2713369632
 12
149.8628043005
 22
31.1422827828
 13
149.8628043005
 23
31.1422827828
  0
SOLID
  8
0
 62
7
  6
CONTINUOUS
 10
149.8628043005
 20
31.1422827828
 11
149.8628043005
 21
31.0454914852
 12
149.5737418074
 22
31.1100184796
 13
149.5737418074
 23
31.1100184796
  0
SOLID
  8
0
 62
7
  6
CONTINUOUS
 10
149.6315543091
 20
30.9164372091
 11
149.5737418074
 21
31.1100184796
 12
149.8628043005
 22
31.0454914852
 13
149.8628043005
 23
31.0454914852
  0
SOLID
  8
0
 62
7
  6
CONTINUOUS
 10
149.8628043005
 20
31.0454914852
 11
149.9784292936
 21
30.8841729058
 12
149.6315543091
 22
30.9164372091
 13
149.6315543091
 23
30.9164372091
  0
SOLID
  8
0
 62
7
  6
CONTINUOUS
 10
149.7471793074
 20
30.7873813202
 11
149.6315543091
 21
30.9164372091
 12
149.9784292936
 22
30.8841729058
 13
149.9784292936
 23
30.8841729058
  0
SOLID
  8
0
 62
7
  6
CONTINUOUS
 10
149.9784292936
 20
30.8841729058
 11
150.1518667936
 21
30.7873813202
 12
149.7471793074
 22
30.7873813202
 13
149.7471793074
 23
30.7873813202
  0
SOLID
  8
0
 62
7
  6
CONTINUOUS
 10
149.8628043005
 20
30.7228547004
 11
149.7471793074
 21
30.7873813202
 12
150.1518667936
 22
30.7873813202
 13
150.1518667936
 23
30.7873813202
  0
SOLID
  8
0
 62
7
  6
CONTINUOUS
 10
150.1518667936
 20
30.7873813202
 11
150.498741835
 21
30.7228547004
 12
149.8628043005
 22
30.7228547004
 13
149.8628043005
 23
30.7228547004
  0
SOLID
  8
0
 62
7
  6
CONTINUOUS
 10
150.0362418212
 20
30.658327332
 11
149.8628043005
 21
30.7228547004
 12
150.498741835
 22
30.7228547004
 13
150.498741835
 23
30.7228547004
  0
SOLID
  8
0
 62
7
  6
CONTINUOUS
 10
154.0831168074
 20
31.1100184386
 11
154.1987416972
 21
31.1745462761
 12
154.7768668074
 22
31.1422827828
 13
154.7768668074
 23
31.1422827828
  0
SOLID
  8
0
 62
7
  6
CONTINUOUS
 10
154.7768668074
 20
31.1422827828
 11
154.5456166972
 21
31.1100184386
 12
154.0831168074
 22
31.1100184386
 13
154.0831168074
 23
31.1100184386
  0
SOLID
  8
0
 62
7
  6
CONTINUOUS
 10
153.9674919177
 20
30.9809642992
 11
154.0831168074
 21
31.1100184386
 12
154.5456166972
 22
31.1100184386
 13
154.5456166972
 23
31.1100184386
  0
SOLID
  8
0
 62
7
  6
CONTINUOUS
 10
154.3143669177
 20
31.0132277988
 11
153.9674919177
 21
30.9809642992
 12
154.4299918074
 22
31.0777556927
 13
154.4299918074
 23
31.0777556927
  0
SOLID
  8
0
 62
7
  6
CONTINUOUS
 10
153.9674919177
 20
30.9809642992
 11
154.5456166972
 21
31.1100184796
 12
154.4299918074
 22
31.0777556927
 13
154.4299918074
 23
31.0777556927
  0
SOLID
  8
0
 62
7
  6
CONTINUOUS
 10
154.3143669177
 20
31.0132277988
 11
154.2565543074
 21
30.9164372091
 12
153.9674919177
 22
30.9809642992
 13
153.9674919177
 23
30.9809642992
  0
SOLID
  8
0
 62
7
  6
CONTINUOUS
 10
153.9674919177
 20
30.8841729058
 11
153.9674919177
 21
30.9809642992
 12
154.2565543074
 22
30.9164372091
 13
154.2565543074
 23
30.9164372091
  0
SOLID
  8
0
 62
7
  6
CONTINUOUS
 10
154.2565543074
 20
30.9164372091
 11
154.2565543074
 21
30.8519086025
 12
153.9674919177
 22
30.8841729058
 13
153.9674919177
 23
30.8841729058
  0
SOLID
  8
0
 62
7
  6
CONTINUOUS
 10
154.0253041972
 20
30.7551187255
 11
153.9674919177
 21
30.8841729058
 12
154.2565543074
 22
30.8519086025
 13
154.2565543074
 23
30.8519086025
  0
SOLID
  8
0
 62
7
  6
CONTINUOUS
 10
155.412804528
 20
30.9487004259
 11
155.7018665869
 21
30.8519086025
 12
155.3549915869
 22
30.8841729058
 13
155.3549915869
 23
30.8841729058
  0
SOLID
  8
0
 62
7
  6
CONTINUOUS
 10
155.1815540869
 20
30.7873815123
 11
155.3549915869
 21
30.8841729058
 12
155.7018665869
 22
30.8519086025
 13
155.7018665869
 23
30.8519086025
  0
SOLID
  8
0
 62
7
  6
CONTINUOUS
 10
155.1815540869
 20
30.7873815123
 11
155.7018665869
 21
30.8519086025
 12
155.412804528
 22
30.7551187255
 13
155.412804528
 23
30.7551187255
  0
SOLID
  8
0
 62
7
  6
CONTINUOUS
 10
155.7018665869
 20
30.8519086025
 11
155.759679528
 21
30.6905916353
 12
155.412804528
 22
30.7551187255
 13
155.412804528
 23
30.7551187255
  0
SOLID
  8
0
 62
7
  6
CONTINUOUS
 10
155.4706168074
 20
30.658327332
 11
155.412804528
 21
30.7551187255
 12
155.759679528
 22
30.6905916353
 13
155.759679528
 23
30.6905916353
  0
SOLID
  8
0
 62
7
  6
CONTINUOUS
 10
155.4706168074
 20
30.658327332
 11
155.759679528
 21
30.6905916353
 12
155.5284290869
 22
30.5938002079
 13
155.5284290869
 23
30.5938002079
  0
SOLID
  8
0
 62
7
  6
CONTINUOUS
 10
155.759679528
 20
30.6905916353
 11
155.8174918074
 21
30.5938002079
 12
155.5284290869
 22
30.5938002079
 13
155.5284290869
 23
30.5938002079
  0
SOLID
  8
0
 62
7
  6
CONTINUOUS
 10
151.0768668626
 20
30.8196456577
 11
151.1346793074
 21
30.9164373395
 12
151.4237418626
 22
30.9164373395
 13
151.4237418626
 23
30.9164373395
  0
SOLID
  8
0
 62
7
  6
CONTINUOUS
 10
151.4237418626
 20
30.9164373395
 11
151.3659292523
 21
30.7873815123
 12
151.0768668626
 22
30.8196456577
 13
151.0768668626
 23
30.8196456577
  0
SOLID
  8
0
 62
7
  6
CONTINUOUS
 10
150.9034292799
 20
30.7551187255
 11
151.0768668626
 21
30.8196456577
 12
151.3659292523
 22
30.7873815123
 13
151.3659292523
 23
30.7873815123
  0
SOLID
  8
0
 62
7
  6
CONTINUOUS
 10
150.9034292799
 20
30.7551187255
 11
151.3659292523
 21
30.7873815123
 12
150.498741835
 22
30.7228544222
 13
150.498741835
 23
30.7228544222
  0
SOLID
  8
0
 62
7
  6
CONTINUOUS
 10
151.3659292523
 20
30.7873815123
 11
151.1924917523
 21
30.6905916353
 12
150.498741835
 22
30.7228544222
 13
150.498741835
 23
30.7228544222
  0
SOLID
  8
0
 62
7
  6
CONTINUOUS
 10
150.0362418212
 20
30.658327332
 11
150.498741835
 21
30.7228544222
 12
151.1924917523
 22
30.6905916353
 13
151.1924917523
 23
30.6905916353
  0
SOLID
  8
0
 62
7
  6
CONTINUOUS
 10
150.0362418212
 20
30.658327332
 11
151.1924917523
 21
30.6905916353
 12
150.2096793212
 22
30.6260631011
 13
150.2096793212
 23
30.6260631011
  0
SOLID
  8
0
 62
7
  6
CONTINUOUS
 10
151.1924917523
 20
30.6905916353
 11
150.9612418074
 21
30.6260631011
 12
150.2096793212
 22
30.6260631011
 13
150.2096793212
 23
30.6260631011
  0
SOLID
  8
0
 62
7
  6
CONTINUOUS
 10
150.5565542799
 20
30.5938002419
 11
150.2096793212
 21
30.6260631011
 12
150.9612418074
 22
30.6260631011
 13
150.9612418074
 23
30.6260631011
  0
SOLID
  8
0
 62
7
  6
CONTINUOUS
 10
154.0253041972
 20
30.7551187255
 11
154.2565543074
 21
30.8519086025
 12
154.3143669177
 22
30.7873815123
 13
154.3143669177
 23
30.7873815123
  0
SOLID
  8
0
 62
7
  6
CONTINUOUS
 10
154.3143669177
 20
30.7873815123
 11
154.5456166972
 21
30.7228544222
 12
154.0253041972
 22
30.7551187255
 13
154.0253041972
 23
30.7551187255
  0
SOLID
  8
0
 62
7
  6
CONTINUOUS
 10
154.1987416972
 20
30.658327332
 11
154.0253041972
 21
30.7551187255
 12
154.5456166972
 22
30.7228544222
 13
154.5456166972
 23
30.7228544222
  0
SOLID
  8
0
 62
7
  6
CONTINUOUS
 10
154.8924916972
 20
30.7228544637
 11
155.1815540869
 21
30.7873815123
 12
155.412804528
 22
30.7551187255
 13
155.412804528
 23
30.7551187255
  0
SOLID
  8
0
 62
7
  6
CONTINUOUS
 10
155.412804528
 20
30.7551187255
 11
155.3549915869
 21
30.6905916353
 12
154.8924916972
 22
30.7228544637
 13
154.8924916972
 23
30.7228544637
  0
SOLID
  8
0
 62
7
  6
CONTINUOUS
 10
155.3549915869
 20
30.6905916353
 11
154.1987416972
 21
30.658327332
 12
154.8924916972
 22
30.7228544637
 13
154.8924916972
 23
30.7228544637
  0
SOLID
  8
0
 62
7
  6
CONTINUOUS
 10
154.1987416972
 20
30.658327332
 11
154.5456166972
 21
30.7228544637
 12
154.8924916972
 22
30.7228544637
 13
154.8924916972
 23
30.7228544637
  0
SOLID
  8
0
 62
7
  6
CONTINUOUS
 10
154.1987416972
 20
30.658327332
 11
155.3549915869
 21
30.6905916353
 12
154.3143669177
 22
30.6260630541
 13
154.3143669177
 23
30.6260630541
  0
SOLID
  8
0
 62
7
  6
CONTINUOUS
 10
155.3549915869
 20
30.6905916353
 11
155.1815540869
 21
30.6260630541
 12
154.3143669177
 22
30.6260630541
 13
154.3143669177
 23
30.6260630541
  0
SOLID
  8
0
 62
7
  6
CONTINUOUS
 10
154.5456166972
 20
30.5938002188
 11
154.3143669177
 21
30.6260630541
 12
155.1815540869
 22
30.6260630541
 13
155.1815540869
 23
30.6260630541
  0
SOLID
  8
0
 62
7
  6
CONTINUOUS
 10
155.1815540869
 20
30.6260630541
 11
154.8924916972
 21
30.5938002188
 12
154.5456166972
 22
30.5938002188
 13
154.5456166972
 23
30.5938002188
  0
SOLID
  8
0
 62
7
  6
CONTINUOUS
 10
159.575304528
 20
30.7551187255
 11
159.228429528
 21
30.7228544637
 12
159.4596793074
 22
30.7873815123
 13
159.4596793074
 23
30.7873815123
  0
SOLID
  8
0
 62
7
  6
CONTINUOUS
 10
159.4596793074
 20
30.7873815123
 11
159.228429528
 21
30.7228544637
 12
159.401867028
 22
30.851908644
 13
159.401867028
 23
30.851908644
  0
SOLID
  8
0
 62
7
  6
CONTINUOUS
 10
159.228429528
 20
30.7228544637
 11
159.1128043074
 21
30.851908644
 12
159.401867028
 22
30.851908644
 13
159.401867028
 23
30.851908644
  0
SOLID
  8
0
 62
7
  6
CONTINUOUS
 10
159.575304528
 20
30.7551187255
 11
159.922179528
 21
30.7228544637
 12
159.228429528
 22
30.7228544637
 13
159.228429528
 23
30.7228544637
  0
SOLID
  8
0
 62
7
  6
CONTINUOUS
 10
156.279992028
 20
30.5938002419
 11
156.279992028
 21
31.6262382337
 12
156.5690540869
 22
30.5938002419
 13
156.5690540869
 23
31.6262382337
  0
ENDBLK
  8
0
  6
BYBLOCK
 62
0
  0
BLOCK
  8
0
 62
2
  6
CONTINUOUS
  2
SYMBOL_3_BL0
 70
64
 10
32.1213064866
 20
19.8534310916
  0
TEXT
  8
0
 62
7
  6
CONTINUOUS
 10
18.3860103289
 20
19.2268451992
  7
TEXTSTYLE_3
 40
2.7338706658
  1
Ammeraal Beltech
 41
1.0
 51
15.0
 72
0
  0
TEXT
  8
0
 62
7
  6
CONTINUOUS
 10
29.1868111546
 20
16.9533085264
  7
TEXTSTYLE_4
 40
1.0935482663
  1
Innovation & Service in Belting
 41
1.0
 72
0
  0
LINE
  8
0
 62
7
  6
CONTINUOUS
 10
12.3614696776
 20
19.9934385078
 11
13.1396216709
 21
23.6543558055
  0
LINE
  8
0
 62
7
  6
CONTINUOUS
 10
23.2347899607
 20
27.3177497171
 11
13.6274394139
 21
24.1961322958
  0
LINE
  8
0
 62
7
  6
CONTINUOUS
 10
12.5867530099
 20
19.3000877048
 11
20.093828271
 21
12.5406867788
  0
LINE
  8
0
 62
7
  6
CONTINUOUS
 10
12.8492874206
 20
20.5352149982
 11
23.6575567857
 21
24.0470345971
  0
LINE
  8
0
 62
7
  6
CONTINUOUS
 10
23.6533516486
 20
13.6972460334
 11
15.2078919798
 21
21.3015720751
  0
LINE
  8
0
 62
7
  6
CONTINUOUS
 10
24.1731743684
 20
26.4728246013
 11
23.1966148312
 21
21.8784731989
  0
LINE
  8
0
 62
7
  6
CONTINUOUS
 10
22.4968128835
 20
18.5861638851
 11
21.810364672
 21
15.3566789607
  0
LINE
  8
0
 62
7
  6
CONTINUOUS
 10
24.8542704669
 20
14.087448211
 11
25.8105020025
 21
18.5861638851
  0
LINE
  8
0
 62
7
  6
CONTINUOUS
 10
26.5103039502
 20
21.8784731989
 11
26.9545457526
 21
23.9684665583
  0
LINE
  8
0
 62
7
  6
CONTINUOUS
 10
20.8069293463
 20
12.3891124661
 11
24.3664527239
 21
13.5456717207
  0
LINE
  8
0
 62
7
  6
CONTINUOUS
 10
23.9478910361
 20
27.1661754044
 11
26.7292624203
 21
24.6618173613
  0
ARC
  8
0
 62
7
  6
CONTINUOUS
 10
13.8527227462
 20
23.5027814928
 40
0.7290321776
 50
108.0
 51
168.0
  0
ARC
  8
0
 62
7
  6
CONTINUOUS
 10
23.4600732931
 20
26.624398914
 40
0.7290321776
 50
348.0
 51
108.0
  0
ARC
  8
0
 62
7
  6
CONTINUOUS
 10
26.2414446773
 20
24.120040871
 40
0.7290321776
 50
348.0
 51
48.0
  0
ARC
  8
0
 62
7
  6
CONTINUOUS
 10
20.581646014
 20
13.0824632691
 40
0.7290321776
 50
228.0
 51
288.0
  0
ARC
  8
0
 62
7
  6
CONTINUOUS
 10
13.0745707529
 20
19.8418641951
 40
0.7290321776
 50
108.0
 51
228.0
  0
ARC
  8
0
 62
7
  6
CONTINUOUS
 10
24.1411693916
 20
14.2390225237
 40
0.7290321776
 50
228.0
 51
348.0
  0
ENDBLK
  8
0
  6
BYBLOCK
 62
0
  0
ENDSEC
  0
SECTION
  2
ENTITIES
  0
TEXT
  8
0
 62
5
  6
CONTINUOUS
 10
96.0
 20
25.636
  7
TEXTSTYLE_2
 40
2.8
  1
Scale :
 41
0.6
 51
0.000019
 72
0
  0
TEXT
  8
0
 62
5
  6
CONTINUOUS
 10
116.0
 20
25.636
  7
TEXTSTYLE_2
 40
2.8
  1
Belt type:
 41
0.6
 51
0.000019
 72
0
  0
INSERT
  8
0
 62
2
  6
CONTINUOUS
  2
SYMBOL_3_BL0
 10
32.1213064866
 20
19.8534310916
  0
INSERT
  8
0
 62
2
  6
CONTINUOUS
  2
SYMBOL_8_BL1
 10
173.5956734183
 20
35.5937998301
  0
LINE
  8
0
 62
2
  6
CONTINUOUS
 10
10.0
 20
30.0
 11
200.0
 21
30.0
  0
LINE
  8
0
 62
2
  6
CONTINUOUS
 10
10.0
 20
30.0
 11
10.0
 21
10.0
  0
LINE
  8
0
 62
2
  6
CONTINUOUS
 10
10.0
 20
10.0
 11
200.0
 21
10.0
  0
LINE
  8
0
 62
2
  6
CONTINUOUS
 10
95.0
 20
30.0
 11
95.0
 21
10.0
  0
LINE
  8
0
 62
2
  6
CONTINUOUS
 10
115.0
 20
30.0
 11
115.0
 21
10.0
  0
LINE
  8
0
 62
2
  6
CONTINUOUS
 10
200.0
 20
30.0
 11
200.0
 21
10.0
  0
TEXT
  8
0
 62
5
  6
CONTINUOUS
 10
13.0
 20
23.303
  7
TEXTSTYLE_5
 40
1.52
  1
                                                                     Ammeraal Beltech Modular A/S
 41
1.0
 72
0
  0
TEXT
  8
0
 62
5
  6
CONTINUOUS
 10
13.0
 20
20.595
  7
TEXTSTYLE_5
 40
1.5
  1
                                                                      Hjulmagervej 21,  7100 Vejle,  DK
 41
1.0
 72
0
  0
TEXT
  8
0
 62
5
  6
CONTINUOUS
 10
13.0
 20
17.881
  7
TEXTSTYLE_5
 40
1.495
  1
                                                                      tel: 
 41
1.0
 72
0
  0
TEXT
  8
0
 62
5
  6
CONTINUOUS
 10
57.9869465649
 20
17.881
  7
TEXTSTYLE_5
 40
1.51
  1
+45 75723100     fax: +45 75723348
 41
1.0
 72
0
  0
TEXT
  8
0
 62
5
  6
CONTINUOUS
 10
13.0
 20
15.177
  7
TEXTSTYLE_5
 40
1.5
  1
                                                                      admin@unichains.dk  www.unichains.com
 41
1.0
 72
0
  0
TEXT
  8
0
 62
5
  6
CONTINUOUS
 10
99.75
 20
13.75
  7
TEXTSTYLE_6
 40
5.0
  1
1:1
 41
0.7
 72
1
 11
105.0
 21
13.75
  0
TEXT
  8
0
 62
5
  6
CONTINUOUS
 10
118.0
 20
13.75
  7
TEXTSTYLE_7
 40
7.5
  1
Sprocket Z13
 41
0.6361111111
 72
0
  0
LINE
  8
0
 62
7
  6
CONTINUOUS
 10
210.0
 20
0.0
 11
0.0
 21
0.0
  0
LINE
  8
0
 62
7
  6
CONTINUOUS
 10
10.0
 20
10.0
 11
200.0
 21
10.0
  0
LINE
  8
0
 62
7
  6
CONTINUOUS
 10
10.0
 20
30.0
 11
200.0
 21
30.0
  0
LINE
  8
0
 62
7
  6
CONTINUOUS
 10
0.0
 20
0.0
 11
0.0
 21
297.0
  0
LINE
  8
0
 62
7
  6
CONTINUOUS
 10
10.0
 20
10.0
 11
10.0
 21
287.0
  0
LINE
  8
0
 62
7
  6
CONTINUOUS
 10
200.0
 20
287.0
 11
200.0
 21
10.0
  0
LINE
  8
0
 62
7
  6
CONTINUOUS
 10
210.0
 20
0.0
 11
210.0
 21
297.0
  0
LINE
  8
0
 62
7
  6
CONTINUOUS
 10
10.0
 20
287.0
 11
200.0
 21
287.0
  0
LINE
  8
0
 62
7
  6
CONTINUOUS
 10
0.0
 20
297.0
 11
210.0
 21
297.0
  0
LINE
  8
0
 62
7
  6
CONTINUOUS
 10
22.3766868747
 20
218.488428834
 11
21.776046146
 21
215.7908509477
  0
LINE
  8
0
 62
7
  6
CONTINUOUS
 10
40.3742710716
 20
253.2586662346
 11
38.5888031669
 21
251.1492113052
  0
LINE
  8
0
 62
7
  6
CONTINUOUS
 10
72.4688754634
 20
275.6822880372
 11
69.9076095626
 21
274.6442067674
  0
LINE
  8
0
 62
7
  6
CONTINUOUS
 10
112.2308260164
 20
118.2177626955
 11
114.9660952938
 21
118.6127281598
  0
LINE
  8
0
 62
7
  6
CONTINUOUS
 10
73.3380579737
 20
122.7161001428
 11
75.9435682405
 21
121.7946816781
  0
LINE
  8
0
 62
7
  6
CONTINUOUS
 10
40.9907038033
 20
144.7735506753
 11
42.8695640573
 21
142.7468341476
  0
LINE
  8
0
 62
7
  6
CONTINUOUS
 10
22.5991525179
 20
179.3370181972
 11
23.3209385176
 21
176.6692999384
  0
LINE
  8
0
 62
7
  6
CONTINUOUS
 10
34.7281005843
 20
208.2264744788
 11
34.4415696247
 21
205.8666797206
  0
LINE
  8
0
 62
7
  6
CONTINUOUS
 10
32.9172930249
 20
193.3131325011
 11
32.5946013438
 21
190.6555274073
  0
LINE
  8
0
 62
7
  6
CONTINUOUS
 10
34.7784693044
 20
204.4931833045
 11
33.5731025018
 21
194.5660945636
  0
LINE
  8
0
 62
7
  6
CONTINUOUS
 10
46.5419367867
 20
238.4321687575
 11
45.1915735032
 21
236.4758297982
  0
LINE
  8
0
 62
7
  6
CONTINUOUS
 10
38.0079707323
 20
226.0685844737
 11
36.4871907696
 21
223.8653543312
  0
LINE
  8
0
 62
7
  6
CONTINUOUS
 10
85.0139895327
 20
133.7405162291
 11
87.3220417707
 21
133.1716324457
  0
LINE
  8
0
 62
7
  6
CONTINUOUS
 10
99.6003277246
 20
130.1453067621
 11
102.1996597011
 21
129.5046289712
  0
LINE
  8
0
 62
7
  6
CONTINUOUS
 10
56.4525293709
 20
149.1091103776
 11
58.2318367498
 21
147.5327815916
  0
LINE
  8
0
 62
7
  6
CONTINUOUS
 10
67.6973132675
 20
139.1471011384
 11
69.7011696135
 21
137.3718393267
  0
LINE
  8
0
 62
7
  6
CONTINUOUS
 10
59.5535804682
 20
147.0298119162
 11
67.0386879499
 21
140.3985853337
  0
LINE
  8
0
 62
7
  6
CONTINUOUS
 10
38.3047541917
 20
175.9904970367
 11
39.1476941558
 21
173.7678470201
  0
LINE
  8
0
 62
7
  6
CONTINUOUS
 10
43.6319393166
 20
161.943864287
 11
44.5812606923
 21
159.4407095412
  0
LINE
  8
0
 62
7
  6
CONTINUOUS
 10
40.0843003951
 20
172.7082393823
 11
43.6303492655
 21
163.3580769555
  0
LINE
  8
0
 62
7
  6
CONTINUOUS
 10
48.8321285861
 20
229.431000111
 11
43.0821285861
 21
219.4717079675
  0
LINE
  8
0
 62
7
  6
CONTINUOUS
 10
44.8515891568
 20
235.1030960803
 11
39.1709416895
 21
226.8732574214
  0
LINE
  8
0
 62
7
  6
CONTINUOUS
 10
55.9481539899
 20
239.7563176583
 11
46.4915488452
 21
230.7823344545
  0
LINE
  8
0
 62
7
  6
CONTINUOUS
 10
71.0398552973
 20
259.6878193316
 11
68.9350166505
 21
258.5831147904
  0
LINE
  8
0
 62
7
  6
CONTINUOUS
 10
57.7377595254
 20
252.7063409037
 11
55.3672836432
 21
251.4622191864
  0
LINE
  8
0
 62
7
  6
CONTINUOUS
 10
67.9960295884
 20
257.5256155822
 11
59.1414693318
 21
252.8783838617
  0
LINE
  8
0
 62
7
  6
CONTINUOUS
 10
117.4460483569
 20
133.4054742991
 11
119.7540985013
 21
133.9743575664
  0
LINE
  8
0
 62
7
  6
CONTINUOUS
 10
132.0323865489
 20
137.0006837661
 11
134.6317185253
 21
137.641361557
  0
LINE
  8
0
 62
7
  6
CONTINUOUS
 10
120.9188752492
 20
134.7764131657
 11
130.6282934235
 21
137.1695698085
  0
LINE
  8
0
 62
7
  6
CONTINUOUS
 10
102.409678217
 20
138.3640128129
 11
113.909678217
 21
138.3640128129
  0
LINE
  8
0
 62
7
  6
CONTINUOUS
 10
88.7261320893
 20
133.3405191799
 11
98.4355502635
 21
130.9473625371
  0
LINE
  8
0
 62
7
  6
CONTINUOUS
 10
89.909678217
 20
139.3640128129
 11
102.409678217
 21
135.6613441258
  0
LINE
  8
0
 62
7
  6
CONTINUOUS
 10
52.9047591347
 20
227.0796657675
 11
55.9481539899
 21
239.7563176583
  0
LINE
  8
0
 62
7
  6
CONTINUOUS
 10
44.8141793937
 20
218.4717079675
 11
50.5641793937
 21
228.431000111
  0
LINE
  8
0
 62
7
  6
CONTINUOUS
 10
68.2145928899
 20
243.507057665
 11
67.9504755175
 21
243.1676900394
  0
LINE
  8
0
 62
7
  6
CONTINUOUS
 10
68.2111987546
 20
242.8313854264
 11
68.4753161442
 21
243.1707530299
  0
LINE
  8
0
 62
7
  6
CONTINUOUS
 10
69.5371441141
 20
247.9754935818
 11
69.2493070891
 21
247.6559963844
  0
LINE
  8
0
 62
7
  6
CONTINUOUS
 10
69.4851725203
 20
247.3018144173
 11
69.7730095453
 21
247.6213116148
  0
LINE
  8
0
 62
7
  6
CONTINUOUS
 10
67.2779567893
 20
246.4153425891
 11
66.8663338641
 21
246.0962281394
  0
LINE
  8
0
 62
7
  6
CONTINUOUS
 10
65.2198425459
 20
244.8197706373
 11
64.808219709
 21
244.5006562561
  0
LINE
  8
0
 62
7
  6
CONTINUOUS
 10
67.9504755175
 20
243.1676900394
 11
67.6211772008
 21
242.9123984979
  0
LINE
  8
0
 62
7
  6
CONTINUOUS
 10
67.8819004379
 20
242.5760938849
 11
68.2111987546
 21
242.8313854264
  0
LINE
  8
0
 62
7
  6
CONTINUOUS
 10
69.1167689781
 20
243.5334370514
 11
69.5283919033
 21
243.8525515011
  0
LINE
  8
0
 62
7
  6
CONTINUOUS
 10
84.626134973
 20
255.0433833894
 11
84.3574965037
 21
254.851531993
  0
LINE
  8
0
 62
7
  6
CONTINUOUS
 10
69.8839474969
 20
248.2064452875
 11
69.5371441141
 21
247.9754935818
  0
LINE
  8
0
 62
7
  6
CONTINUOUS
 10
68.7568368749
 20
247.4558524919
 11
68.3233327704
 21
247.1671629424
  0
LINE
  8
0
 62
7
  6
CONTINUOUS
 10
70.2102563849
 20
244.3337069577
 11
70.6437604894
 21
244.6223965072
  0
LINE
  8
0
 62
7
  6
CONTINUOUS
 10
72.2043749679
 20
245.6616786872
 11
72.6378788243
 21
245.9503680715
  0
LINE
  8
0
 62
7
  6
CONTINUOUS
 10
84.848405833
 20
254.6658606808
 11
85.2168009294
 21
254.8877033317
  0
LINE
  8
0
 62
7
  6
CONTINUOUS
 10
71.2281037463
 20
250.9266815257
 11
70.7816756754
 21
250.6584108945
  0
LINE
  8
0
 62
7
  6
CONTINUOUS
 10
71.0556542642
 20
250.2024842343
 11
71.5020823352
 21
250.4707548656
  0
LINE
  8
0
 62
7
  6
CONTINUOUS
 10
72.0500396664
 20
249.5589012898
 11
71.6036115954
 21
249.2906306586
  0
LINE
  8
0
 62
7
  6
CONTINUOUS
 10
73.3570747175
 20
246.3726997781
 11
73.8035027885
 21
246.6409704093
  0
LINE
  8
0
 62
7
  6
CONTINUOUS
 10
98.6819017979
 20
259.1779386938
 11
98.273680049
 21
258.9493908166
  0
LINE
  8
0
 62
7
  6
CONTINUOUS
 10
85.1940410405
 20
255.325207863
 11
84.626134973
 21
255.0433833894
  0
LINE
  8
0
 62
7
  6
CONTINUOUS
 10
86.6195627849
 20
252.7544391854
 11
85.9519001009
 21
252.4426234216
  0
LINE
  8
0
 62
7
  6
CONTINUOUS
 10
86.1741732548
 20
252.0651013637
 11
86.8418336636
 21
252.3769164144
  0
LINE
  8
0
 62
7
  6
CONTINUOUS
 10
67.4874213709
 20
242.4048785423
 11
67.8819004379
 21
242.5760938849
  0
LINE
  8
0
 62
7
  6
CONTINUOUS
 10
80.4836924834
 20
255.439343934
 11
77.0242103173
 21
253.9921110079
  0
LINE
  8
0
 62
7
  6
CONTINUOUS
 10
77.8471281682
 20
253.6444685375
 11
80.7300299733
 21
254.8504959759
  0
LINE
  8
0
 62
7
  6
CONTINUOUS
 10
80.8793736761
 20
253.4138544933
 11
78.3808595115
 21
252.3686310201
  0
LINE
  8
0
 62
7
  6
CONTINUOUS
 10
78.6271970015
 20
251.779783062
 11
81.1257111661
 21
252.8250065352
  0
LINE
  8
0
 62
7
  6
CONTINUOUS
 10
78.9538542186
 20
249.3794681198
 11
79.5304345797
 21
249.6206736074
  0
LINE
  8
0
 62
7
  6
CONTINUOUS
 10
82.019273544
 20
255.9717827644
 11
81.5286449121
 21
255.7969934037
  0
LINE
  8
0
 62
7
  6
CONTINUOUS
 10
83.2066214946
 20
251.0869621311
 11
83.6972501264
 21
251.2617514918
  0
LINE
  8
0
 62
7
  6
CONTINUOUS
 10
69.7730095453
 20
247.6213116148
 11
70.1787792859
 21
247.7637178287
  0
LINE
  8
0
 62
7
  6
CONTINUOUS
 10
86.5591477275
 20
254.4025778325
 11
84.4642745396
 21
253.7727662921
  0
LINE
  8
0
 62
7
  6
CONTINUOUS
 10
84.4870367546
 20
253.3352623045
 11
87.1804451391
 21
254.1450199994
  0
LINE
  8
0
 62
7
  6
CONTINUOUS
 10
87.3642199132
 20
253.5337500843
 11
86.8654390605
 21
253.383794498
  0
LINE
  8
0
 62
7
  6
CONTINUOUS
 10
98.8104082429
 20
258.544092474
 11
99.2227015768
 21
258.6663353293
  0
LINE
  8
0
 62
7
  6
CONTINUOUS
 10
100.6101397103
 20
255.099774101
 11
100.1978463764
 21
254.9775312457
  0
LINE
  8
0
 62
7
  6
CONTINUOUS
 10
113.909678217
 20
140.3640128129
 11
102.409678217
 21
140.3640128129
  0
LINE
  8
0
 62
7
  6
CONTINUOUS
 10
68.3312049908
 20
243.8666785901
 11
68.2145928899
 21
243.507057665
  0
LINE
  8
0
 62
7
  6
CONTINUOUS
 10
69.2493070891
 20
247.6559963844
 11
69.1071376397
 21
247.3056918694
  0
LINE
  8
0
 62
7
  6
CONTINUOUS
 10
69.3430030708
 20
246.9515099023
 11
69.4851725203
 21
247.3018144173
  0
LINE
  8
0
 62
7
  6
CONTINUOUS
 10
68.4753161442
 20
243.1707530299
 11
68.5747845521
 21
243.3824749995
  0
LINE
  8
0
 62
7
  6
CONTINUOUS
 10
84.3574965037
 20
254.851531993
 11
84.1194871635
 21
254.5578022774
  0
LINE
  8
0
 62
7
  6
CONTINUOUS
 10
86.8575721251
 20
253.048168901
 11
86.6195627849
 21
252.7544391854
  0
LINE
  8
0
 62
7
  6
CONTINUOUS
 10
84.6795239909
 20
254.5040005389
 11
84.848405833
 21
254.6658606808
  0
LINE
  8
0
 62
7
  6
CONTINUOUS
 10
86.8418336636
 20
252.3769164144
 11
87.179599623
 21
252.7006374113
  0
LINE
  8
0
 62
7
  6
CONTINUOUS
 10
98.5062753413
 20
258.319528964
 11
98.8104082429
 21
258.544092474
  0
LINE
  8
0
 62
7
  6
CONTINUOUS
 10
100.9142726091
 20
255.3243376854
 11
100.6101397103
 21
255.099774101
  0
LINE
  8
0
 62
7
  6
CONTINUOUS
 10
100.7386437753
 20
254.4659277249
 11
101.1468679056
 21
254.6944757212
  0
LINE
  8
LAY0001
 62
7
  6
CONTINUOUS
 10
132.9977770238
 20
160.5455794159
 11
133.0754831673
 21
160.567619713
  0
LINE
  8
LAY0001
 62
7
  6
CONTINUOUS
 10
133.1334799377
 20
160.709115253
 11
133.0557740796
 21
160.6870752413
  0
LINE
  8
LAY0001
 62
7
  6
CONTINUOUS
 10
134.2446052479
 20
161.7924076401
 11
134.3223113914
 21
161.8144479372
  0
LINE
  8
0
 62
7
  6
CONTINUOUS
 10
68.5747845521
 20
243.3824749995
 11
68.6262156974
 21
243.8261720234
  0
LINE
  8
0
 62
7
  6
CONTINUOUS
 10
69.1071376397
 20
247.3056918694
 11
69.0516686638
 21
247.013125033
  0
LINE
  8
0
 62
7
  6
CONTINUOUS
 10
69.287534095
 20
246.6589430659
 11
69.3430030708
 21
246.9515099023
  0
LINE
  8
0
 62
7
  6
CONTINUOUS
 10
84.1194871635
 20
254.5578022774
 11
83.9812321672
 21
254.2940631299
  0
LINE
  8
0
 62
7
  6
CONTINUOUS
 10
84.4721437797
 20
254.1083925042
 11
84.6795239909
 21
254.5040005389
  0
LINE
  8
0
 62
7
  6
CONTINUOUS
 10
87.179599623
 20
252.7006374113
 11
87.3869798235
 21
253.0962454817
  0
LINE
  8
0
 62
7
  6
CONTINUOUS
 10
89.5405290049
 20
254.7014601679
 11
88.4777253484
 21
252.7280315356
  0
LINE
  8
0
 62
7
  6
CONTINUOUS
 10
98.273680049
 20
258.9493908166
 11
97.8735943227
 21
258.5082326223
  0
LINE
  8
0
 62
7
  6
CONTINUOUS
 10
101.1468679056
 20
254.6944757212
 11
101.5469536304
 21
255.1356339528
  0
LINE
  8
0
 62
7
  6
CONTINUOUS
 10
124.2871424981
 20
255.034912683
 11
123.4295028385
 21
254.5770604667
  0
LINE
  8
0
 62
7
  6
CONTINUOUS
 10
123.1120919243
 20
253.7874021301
 11
123.9697316951
 21
254.2452546229
  0
LINE
  8
0
 62
7
  6
CONTINUOUS
 10
117.9101278345
 20
252.6719159398
 11
122.4046841533
 21
255.0011215093
  0
LINE
  8
0
 62
7
  6
CONTINUOUS
 10
121.9764147967
 20
255.3659827389
 11
117.3829094747
 21
253.0693264869
  0
LINE
  8
0
 62
7
  6
CONTINUOUS
 10
126.3517932242
 20
253.8245444134
 11
125.7929849528
 21
253.6185821118
  0
LINE
  8
0
 62
7
  6
CONTINUOUS
 10
127.7842939013
 20
251.4969080307
 11
127.5048876113
 21
251.3939279014
  0
LINE
  8
0
 62
7
  6
CONTINUOUS
 10
127.0153076086
 20
249.3890638381
 11
126.7359055952
 21
249.2860815984
  0
LINE
  8
LAY0001
 62
7
  6
CONTINUOUS
 10
135.2171311886
 20
162.7649335807
 11
135.2948371893
 21
162.7869737351
  0
LINE
  8
LAY0001
 62
7
  6
CONTINUOUS
 10
135.3528341025
 20
162.9284694178
 11
135.2751281017
 21
162.9064292633
  0
LINE
  8
LAY0001
 62
7
  6
CONTINUOUS
 10
134.6366668636
 20
162.796793624
 11
134.5201077838
 21
162.7637333284
  0
LINE
  8
LAY0001
 62
7
  6
CONTINUOUS
 10
136.0759944411
 20
163.6516297564
 11
136.1925535136
 21
163.6846900593
  0
LINE
  8
LAY0001
 62
7
  6
CONTINUOUS
 10
136.3213329764
 20
164.4536268137
 11
136.4378920587
 21
164.4866871069
  0
LINE
  8
LAY0001
 62
7
  6
CONTINUOUS
 10
136.4958889085
 20
164.6281827458
 11
136.4181828583
 21
164.6061425517
  0
LINE
  8
LAY0001
 62
7
  6
CONTINUOUS
 10
131.908692296
 20
159.5399934577
 11
132.0142310773
 21
159.5342005462
  0
LINE
  8
LAY0001
 62
7
  6
CONTINUOUS
 10
132.0861443093
 20
159.6617796246
 11
132.0333749187
 21
159.6646760803
  0
LINE
  8
LAY0001
 62
7
  6
CONTINUOUS
 10
131.6860288814
 20
159.7626568723
 11
131.7915676724
 21
159.7568639511
  0
LINE
  8
LAY0001
 62
7
  6
CONTINUOUS
 10
131.8634809044
 20
159.8844430295
 11
131.810711504
 21
159.887339495
  0
LINE
  8
LAY0001
 62
7
  6
CONTINUOUS
 10
132.5292098097
 20
160.2161768177
 11
132.5819792003
 21
160.213280362
  0
LINE
  8
LAY0001
 62
7
  6
CONTINUOUS
 10
132.7066621083
 20
160.33796327
 11
132.6011230417
 21
160.3437558961
  0
LINE
  8
LAY0001
 62
7
  6
CONTINUOUS
 10
132.306546395
 20
160.4388402323
 11
132.3593157857
 21
160.4359437766
  0
LINE
  8
LAY0001
 62
7
  6
CONTINUOUS
 10
132.4839986937
 20
160.5606266846
 11
132.3784596222
 21
160.5664193156
  0
LINE
  8
0
 62
7
  6
CONTINUOUS
 10
68.3003116339
 20
244.2465528118
 11
68.3312049908
 21
243.8666785901
  0
LINE
  8
0
 62
7
  6
CONTINUOUS
 10
90.6033349909
 20
256.6748893075
 11
89.7779729757
 21
255.0797890262
  0
LINE
  8
0
 62
7
  6
CONTINUOUS
 10
89.0884159947
 20
252.861004971
 11
89.9137756486
 21
254.4561048906
  0
LINE
  8
0
 62
7
  6
CONTINUOUS
 10
90.1512196512
 20
254.8344336033
 11
91.2140256372
 21
256.8078627429
  0
LINE
  8
0
 62
7
  6
CONTINUOUS
 10
98.3103028833
 20
257.9926445016
 11
98.5062753413
 21
258.319528964
  0
LINE
  8
0
 62
7
  6
CONTINUOUS
 10
101.1102450784
 20
255.65122185
 11
100.9142726091
 21
255.3243376854
  0
LINE
  8
0
 62
7
  6
CONTINUOUS
 10
125.9871364554
 20
253.0555613768
 11
126.3121248415
 21
253.2546643857
  0
LINE
  8
0
 62
7
  6
CONTINUOUS
 10
128.0240275
 20
251.0300101754
 11
128.3490158861
 21
251.2291131842
  0
LINE
  8
0
 62
7
  6
CONTINUOUS
 10
136.5485896716
 20
245.4840052217
 11
137.0498435109
 21
245.6497707369
  0
LINE
  8
LAY0001
 62
7
  6
CONTINUOUS
 10
134.3553716944
 20
161.9310070097
 11
134.3026020184
 21
161.93390318
  0
LINE
  8
LAY0001
 62
7
  6
CONTINUOUS
 10
133.9715033594
 20
162.215128904
 11
133.9187339664
 21
162.2180253622
  0
LINE
  8
LAY0001
 62
7
  6
CONTINUOUS
 10
134.5259004171
 20
162.6581942544
 11
134.5786699504
 21
162.6552979414
  0
LINE
  8
LAY0001
 62
7
  6
CONTINUOUS
 10
135.1643616552
 20
162.7678298937
 11
135.2171311886
 21
162.7649335807
  0
LINE
  8
LAY0001
 62
7
  6
CONTINUOUS
 10
136.601427889
 20
164.6223900141
 11
136.4958889085
 21
164.6281827458
  0
LINE
  8
LAY0001
 62
7
  6
CONTINUOUS
 10
132.9310911716
 20
160.5623923332
 11
132.9977770238
 21
160.5455794159
  0
LINE
  8
0
 62
7
  6
CONTINUOUS
 10
83.9812321672
 20
254.2940631299
 11
83.9042377121
 21
253.8265680305
  0
LINE
  8
0
 62
7
  6
CONTINUOUS
 10
84.4336454105
 20
253.8746446112
 11
84.4721437797
 21
254.1083925042
  0
LINE
  8
0
 62
7
  6
CONTINUOUS
 10
97.8735943227
 20
258.5082326223
 11
97.6816910559
 21
258.0750433446
  0
LINE
  8
0
 62
7
  6
CONTINUOUS
 10
101.5469536304
 20
255.1356339528
 11
101.7388568944
 21
255.5688233048
  0
LINE
  8
0
 62
7
  6
CONTINUOUS
 10
128.154860075
 20
251.7921359623
 11
127.7842939013
 21
251.4969080307
  0
LINE
  8
0
 62
7
  6
CONTINUOUS
 10
127.2005950039
 20
249.5366757608
 11
127.0153076086
 21
249.3890638381
  0
LINE
  8
0
 62
7
  6
CONTINUOUS
 10
127.1153401847
 20
248.8706748292
 11
127.4403285708
 21
249.0697778381
  0
LINE
  8
0
 62
7
  6
CONTINUOUS
 10
142.9622522161
 20
241.9753286382
 11
142.4370518253
 21
241.7506028204
  0
LINE
  8
LAY0001
 62
7
  6
CONTINUOUS
 10
136.4378920587
 20
164.4866871069
 11
136.5573474888
 21
164.4669779212
  0
LINE
  8
LAY0001
 62
7
  6
CONTINUOUS
 10
134.1779193957
 20
161.8092205574
 11
134.2446052479
 21
161.7924076401
  0
LINE
  8
LAY0001
 62
7
  6
CONTINUOUS
 10
133.7940510583
 20
162.0933424542
 11
133.8607369154
 21
162.076529532
  0
LINE
  8
LAY0001
 62
7
  6
CONTINUOUS
 10
134.038189219
 20
162.1983159794
 11
133.9715033594
 21
162.215128904
  0
LINE
  8
LAY0001
 62
7
  6
CONTINUOUS
 10
136.1867607448
 20
163.7902289833
 11
136.1200748213
 21
163.8070418293
  0
LINE
  8
LAY0001
 62
7
  6
CONTINUOUS
 10
134.7172691871
 20
162.7660642354
 11
134.6366668636
 21
162.796793624
  0
LINE
  8
LAY0001
 62
7
  6
CONTINUOUS
 10
135.2751281017
 20
162.9064292633
 11
135.1945256452
 21
162.9371584995
  0
LINE
  8
LAY0001
 62
7
  6
CONTINUOUS
 10
132.8365723962
 20
160.6070381737
 11
132.9310911716
 21
160.5623923332
  0
LINE
  8
LAY0001
 62
7
  6
CONTINUOUS
 10
133.0557740796
 20
160.6870752413
 11
132.9612550188
 21
160.7317207964
  0
LINE
  8
0
 62
7
  6
CONTINUOUS
 10
86.8654390605
 20
253.383794498
 11
86.8575721251
 21
253.048168901
  0
LINE
  8
0
 62
7
  6
CONTINUOUS
 10
72.7397715942
 20
128.4499311782
 11
72.0723586167
 21
124.9664772815
  0
LINE
  8
0
 62
7
  6
CONTINUOUS
 10
98.2224884638
 20
257.5634395912
 11
98.3103028833
 21
257.9926445016
  0
LINE
  8
0
 62
7
  6
CONTINUOUS
 10
43.1255916702
 20
150.1286434597
 11
40.9157850832
 21
147.3543604928
  0
LINE
  8
0
 62
7
  6
CONTINUOUS
 10
125.7929849528
 20
253.6185821118
 11
125.5165376737
 21
253.2787223868
  0
LINE
  8
0
 62
7
  6
CONTINUOUS
 10
127.4403285708
 20
249.0697778381
 11
127.6711937857
 21
249.3135147508
  0
LINE
  8
0
 62
7
  6
CONTINUOUS
 10
136.8718922101
 20
246.2983690092
 11
136.6020787268
 21
246.0986014775
  0
LINE
  8
0
 62
7
  6
CONTINUOUS
 10
137.0498435109
 20
245.6497707369
 11
137.3196569941
 21
245.8495382687
  0
LINE
  8
0
 62
7
  6
CONTINUOUS
 10
137.9868923339
 20
243.1183817187
 11
140.5639477776
 21
244.6957312714
  0
LINE
  8
0
 62
7
  6
CONTINUOUS
 10
136.4861682503
 20
242.1611280283
 11
137.6315249836
 21
242.8621732675
  0
LINE
  8
0
 62
7
  6
CONTINUOUS
 10
140.5229950299
 20
245.2898810842
 11
136.0105899382
 21
242.5666527119
  0
LINE
  8
0
 62
7
  6
CONTINUOUS
 10
142.7266536562
 20
241.3048258226
 11
143.027159221
 21
241.454505386
  0
LINE
  8
0
 62
7
  6
CONTINUOUS
 10
141.5137386553
 20
240.1106417553
 11
141.8142441139
 21
240.2603212141
  0
LINE
  8
0
 62
7
  6
CONTINUOUS
 10
143.1133588265
 20
238.0310331595
 11
142.8128534741
 21
237.8813538053
  0
LINE
  8
0
 62
7
  6
CONTINUOUS
 10
26.9781375491
 20
183.0865855096
 11
23.7321774105
 21
181.6570282664
  0
LINE
  8
0
 62
7
  6
CONTINUOUS
 10
142.8777604259
 20
237.3605305007
 11
143.402957312
 21
237.5852595596
  0
LINE
  8
0
 62
7
  6
CONTINUOUS
 10
178.5592878236
 20
197.2361562307
 11
182.0530417011
 21
197.8473640317
  0
LINE
  8
0
 62
7
  6
CONTINUOUS
 10
168.7906726466
 20
161.8590396682
 11
172.1682804977
 21
160.7766089142
  0
LINE
  8
LAY0001
 62
7
  6
CONTINUOUS
 10
135.9953919846
 20
163.6823589926
 11
136.0759944411
 21
163.6516297564
  0
LINE
  8
LAY0001
 62
7
  6
CONTINUOUS
 10
133.8607369154
 20
162.076529532
 11
133.9552559811
 21
162.031883972
  0
LINE
  8
LAY0001
 62
7
  6
CONTINUOUS
 10
135.0698428798
 20
162.8124757342
 11
135.1643616552
 21
162.7678298937
  0
LINE
  8
LAY0001
 62
7
  6
CONTINUOUS
 10
136.7098632219
 20
164.5638278079
 11
136.601427889
 21
164.6223900141
  0
LINE
  8
0
 62
7
  6
CONTINUOUS
 10
143.7004276491
 20
135.0738604692
 11
146.1881202197
 21
132.5457630013
  0
LINE
  8
0
 62
7
  6
CONTINUOUS
 10
109.0364255899
 20
123.0167803918
 11
110.0643024919
 21
119.6221728729
  0
LINE
  8
0
 62
7
  6
CONTINUOUS
 10
87.3869798235
 20
253.0962454817
 11
87.3642199132
 21
253.5337500843
  0
LINE
  8
0
 62
7
  6
CONTINUOUS
 10
97.6816910559
 20
258.0750433446
 11
97.5979458503
 21
257.5395330234
  0
LINE
  8
0
 62
7
  6
CONTINUOUS
 10
101.7388568944
 20
255.5688233048
 11
101.8226021114
 21
256.1043333283
  0
LINE
  8
0
 62
7
  6
CONTINUOUS
 10
106.4255452909
 20
279.2473294088
 11
104.579293723
 21
268.7767164575
  0
LINE
  8
0
 62
7
  6
CONTINUOUS
 10
101.1980594979
 20
256.0804267605
 11
101.1102450784
 21
255.65122185
  0
LINE
  8
0
 62
7
  6
CONTINUOUS
 10
143.0319082104
 20
267.9985487708
 11
136.5311971709
 21
259.5852773258
  0
LINE
  8
0
 62
7
  6
CONTINUOUS
 10
128.3490158861
 20
251.2291131842
 11
128.6254631652
 21
251.5689729092
  0
LINE
  8
0
 62
7
  6
CONTINUOUS
 10
142.4370518253
 20
241.7506028204
 11
141.8333210946
 21
241.3023740776
  0
LINE
  8
0
 62
7
  6
CONTINUOUS
 10
142.1987267611
 20
240.9312369753
 11
142.7266536562
 21
241.3048258226
  0
LINE
  8
0
 62
7
  6
CONTINUOUS
 10
148.7372278478
 20
240.2563176583
 11
147.0051770403
 21
239.2563176583
  0
LINE
  8
0
 62
7
  6
CONTINUOUS
 10
170.2176638151
 20
241.0264230806
 11
160.5517278609
 21
236.5978722391
  0
LINE
  8
0
 62
7
  6
CONTINUOUS
 10
25.6161311466
 20
175.2594074187
 11
36.0610141555
 21
177.2460627375
  0
LINE
  8
0
 62
7
  6
CONTINUOUS
 10
23.1531285654
 20
213.4758239216
 11
33.3248579244
 21
210.380940681
  0
LINE
  8
0
 62
7
  6
CONTINUOUS
 10
43.0821285861
 20
219.4717079675
 11
44.8141793937
 21
218.4717079675
  0
LINE
  8
0
 62
7
  6
CONTINUOUS
 10
38.7323023901
 20
248.4593945653
 11
46.3006574857
 21
240.9919732183
  0
LINE
  8
LAY0001
 62
7
  6
CONTINUOUS
 10
132.3506251471
 20
159.0942816243
 11
133.9769707438
 21
157.4679360276
  0
LINE
  8
LAY0001
 62
7
  6
CONTINUOUS
 10
131.6581959582
 20
159.7904897955
 11
131.6860288814
 21
159.7626568723
  0
LINE
  8
LAY0001
 62
7
  6
CONTINUOUS
 10
134.5780115078
 20
158.0689767916
 11
132.9516659111
 21
159.6953223883
  0
LINE
  8
LAY0001
 62
7
  6
CONTINUOUS
 10
133.0930872673
 20
159.8367437445
 11
134.0123260828
 21
158.917504929
  0
LINE
  8
0
 62
7
  6
CONTINUOUS
 10
68.7846516468
 20
272.195804913
 11
72.0158135351
 21
262.066541698
  0
LINE
  8
0
 62
7
  6
CONTINUOUS
 10
83.9042377121
 20
253.8265680305
 11
83.988255902
 21
253.1853067182
  0
LINE
  8
0
 62
7
  6
CONTINUOUS
 10
97.5979458503
 20
257.5395330234
 11
97.6589838943
 21
255.9449561791
  0
LINE
  8
0
 62
7
  6
CONTINUOUS
 10
98.2835265077
 20
255.968862747
 11
98.2224884638
 21
257.5634395912
  0
LINE
  8
0
 62
7
  6
CONTINUOUS
 10
101.137021454
 20
257.6750036047
 11
101.1980594979
 21
256.0804267605
  0
LINE
  8
DEFAULT_1
 62
2
  6
CENTER
 10
101.909678217
 20
279.1280087527
 11
101.909678217
 21
201.3641128129
  0
LINE
  8
0
 62
2
  6
CONTINUOUS
 10
101.909678217
 20
200.2440128129
 11
101.909678217
 21
198.4840128129
  0
LINE
  8
DEFAULT_1
 62
2
  6
CENTER
 10
101.909678217
 20
109.181619256
 11
101.909678217
 21
197.3639128129
  0
LINE
  8
0
 62
7
  6
CONTINUOUS
 10
102.409678217
 20
135.6613441258
 11
102.409678217
 21
138.3640128129
  0
LINE
  8
0
 62
7
  6
CONTINUOUS
 10
102.409678217
 20
140.3640128129
 11
102.409678217
 21
143.0666814999
  0
LINE
  8
0
 62
7
  6
CONTINUOUS
 10
102.986726877
 20
259.3905089679
 11
102.7236023414
 21
254.3974372201
  0
LINE
  8
0
 62
7
  6
CONTINUOUS
 10
103.3477363099
 20
254.3645466531
 11
103.5772704833
 21
258.7202050623
  0
LINE
  8
0
 62
7
  6
CONTINUOUS
 10
106.5234844445
 20
259.2041291721
 11
106.2995486687
 21
254.9547063938
  0
LINE
  8
0
 62
7
  6
CONTINUOUS
 10
108.4119118504
 20
259.0401100611
 11
107.7153327974
 21
254.0888700525
  0
LINE
  8
0
 62
7
  6
CONTINUOUS
 10
108.4231627837
 20
254.6338708618
 11
108.6602960812
 21
256.3193993958
  0
LINE
  8
0
 62
7
  6
CONTINUOUS
 10
108.7492210561
 20
256.9514725131
 11
108.9418918766
 21
258.3209645622
  0
LINE
  8
0
 62
7
  6
CONTINUOUS
 10
111.3422193265
 20
255.9420855206
 11
111.4311443014
 21
256.5741586379
  0
LINE
  8
0
 62
7
  6
CONTINUOUS
 10
118.6793616548
 20
257.0105043961
 11
118.5131498577
 21
256.5052252405
  0
LINE
  8
0
 62
7
  6
CONTINUOUS
 10
117.3829094747
 20
253.0693264869
 11
117.1169705761
 21
252.2608797671
  0
LINE
  8
0
 62
7
  6
CONTINUOUS
 10
123.4295028385
 20
254.5770604667
 11
123.1120919243
 21
253.7874021301
  0
LINE
  8
0
 62
7
  6
CONTINUOUS
 10
123.9697316951
 20
254.2452546229
 11
122.422353808
 21
250.3956710271
  0
LINE
  8
0
 62
7
  6
CONTINUOUS
 10
123.002259015
 20
250.1625724409
 11
124.8670477051
 21
254.8018140967
  0
LINE
  8
0
 62
7
  6
CONTINUOUS
 10
126.4725215471
 20
251.6480062054
 11
126.2901931627
 21
251.2635146871
  0
LINE
  8
0
 62
7
  6
CONTINUOUS
 10
128.2460243949
 20
251.9843819907
 11
128.154860075
 21
251.7921359623
  0
LINE
  8
0
 62
7
  6
CONTINUOUS
 10
127.3829233883
 20
249.9211672791
 11
127.2005950039
 21
249.5366757608
  0
LINE
  8
0
 62
7
  6
CONTINUOUS
 10
135.1029121718
 20
249.3832377842
 11
132.2059211554
 21
245.3080147166
  0
LINE
  8
0
 62
7
  6
CONTINUOUS
 10
132.7153240388
 20
244.9458908395
 11
134.0097242986
 21
246.7667352147
  0
LINE
  8
0
 62
7
  6
CONTINUOUS
 10
134.3795528949
 20
247.2869763954
 11
135.3041245583
 21
248.5875795899
  0
LINE
  8
0
 62
7
  6
CONTINUOUS
 10
137.0568066809
 20
246.5584898424
 11
136.8718922101
 21
246.2983690092
  0
LINE
  8
0
 62
7
  6
CONTINUOUS
 10
141.8333210946
 20
241.3023740776
 11
141.3026708282
 21
240.7799185939
  0
LINE
  8
0
 62
7
  6
CONTINUOUS
 10
142.0471123992
 20
240.78196398
 11
142.1987267611
 21
240.9312369753
  0
LINE
  8
0
 62
7
  6
CONTINUOUS
 10
141.2863171125
 20
239.8867322623
 11
141.5137386553
 21
240.1106417553
  0
LINE
  8
0
 62
7
  6
CONTINUOUS
 10
143.3407803693
 20
238.2549426526
 11
143.1133588265
 21
238.0310331595
  0
LINE
  8
0
 62
7
  6
CONTINUOUS
 10
156.8278075888
 20
231.6483598583
 11
154.4872278478
 21
230.2970255148
  0
LINE
  8
0
 62
7
  6
CONTINUOUS
 10
152.7551770403
 20
229.2970255148
 11
150.4145972993
 21
227.9456911712
  0
LINE
  8
DEFAULT_1
 62
2
  6
CENTER
 10
188.8358862144
 20
199.3640128129
 11
103.909778217
 21
199.3640128129
  0
LINE
  8
0
 62
2
  6
CONTINUOUS
 10
102.789678217
 20
199.3640128129
 11
101.029678217
 21
199.3640128129
  0
LINE
  8
DEFAULT_1
 62
2
  6
CENTER
 10
97.509678217
 20
199.3640128129
 11
25.3884026258
 21
199.3640128129
  0
LINE
  8
0
 62
7
  6
CONTINUOUS
 10
46.4915488452
 20
230.7823344545
 11
48.8321285861
 21
229.431000111
  0
LINE
  8
0
 62
7
  6
CONTINUOUS
 10
50.5641793937
 20
228.431000111
 11
52.9047591347
 21
227.0796657675
  0
LINE
  8
LAY0001
 62
7
  6
CONTINUOUS
 10
132.7344950315
 20
160.3101303468
 11
132.7066621083
 21
160.33796327
  0
LINE
  8
LAY0001
 62
7
  6
CONTINUOUS
 10
132.572159587
 20
160.8714509829
 11
132.8365723962
 21
160.6070381737
  0
LINE
  8
LAY0001
 62
7
  6
CONTINUOUS
 10
132.9612550188
 20
160.7317207964
 11
132.6968422097
 21
160.9961336055
  0
LINE
  8
LAY0001
 62
7
  6
CONTINUOUS
 10
134.6487221859
 20
159.4831903539
 11
133.6941280313
 21
160.4377845085
  0
LINE
  8
LAY0001
 62
7
  6
CONTINUOUS
 10
133.1457003361
 20
161.444991732
 11
133.4657789916
 21
161.1249130765
  0
LINE
  8
LAY0001
 62
7
  6
CONTINUOUS
 10
133.521444838
 20
161.0692472301
 11
133.5910271459
 21
160.9996649222
  0
LINE
  8
LAY0001
 62
7
  6
CONTINUOUS
 10
133.7157100539
 20
161.1243478302
 11
133.2703832441
 21
161.56967464
  0
LINE
  8
LAY0001
 62
7
  6
CONTINUOUS
 10
133.4698758399
 20
161.7691672358
 11
133.9152026497
 21
161.323840426
  0
LINE
  8
LAY0001
 62
7
  6
CONTINUOUS
 10
134.0543673046
 20
161.1846757711
 11
134.1239496125
 21
161.1150934632
  0
LINE
  8
LAY0001
 62
7
  6
CONTINUOUS
 10
134.2486322352
 20
161.2397760858
 11
134.1790499272
 21
161.3093583937
  0
LINE
  8
LAY0001
 62
7
  6
CONTINUOUS
 10
134.0398852724
 20
161.4485230486
 11
133.5945584626
 21
161.8938498584
  0
LINE
  8
LAY0001
 62
7
  6
CONTINUOUS
 10
134.5073008297
 20
161.2509573069
 11
135.285118289
 21
160.4731398476
  0
LINE
  8
LAY0001
 62
7
  6
CONTINUOUS
 10
135.8508037139
 20
159.9074544227
 11
136.1336464264
 21
159.6246117102
  0
LINE
  8
LAY0001
 62
7
  6
CONTINUOUS
 10
133.9552559811
 20
162.031883972
 11
134.1779193957
 21
161.8092205574
  0
LINE
  8
LAY0001
 62
7
  6
CONTINUOUS
 10
134.2051867678
 20
162.0313184306
 11
134.1216879982
 21
162.1148172002
  0
LINE
  8
LAY0001
 62
7
  6
CONTINUOUS
 10
134.3026020184
 20
161.93390318
 11
134.2608526336
 21
161.9756525648
  0
LINE
  8
LAY0001
 62
7
  6
CONTINUOUS
 10
136.7346871904
 20
160.2256524742
 11
135.1083415937
 21
161.8519980709
  0
LINE
  8
LAY0001
 62
7
  6
CONTINUOUS
 10
134.5786699504
 20
162.6552979414
 11
134.6065028834
 21
162.6274650085
  0
LINE
  8
LAY0001
 62
7
  6
CONTINUOUS
 10
135.2497629499
 20
161.9934194272
 11
136.8761085467
 21
160.3670738304
  0
LINE
  8
LAY0001
 62
7
  6
CONTINUOUS
 10
134.9538490536
 20
162.5294843689
 11
134.9260161304
 21
162.5573172921
  0
LINE
  8
LAY0001
 62
7
  6
CONTINUOUS
 10
134.7590185719
 20
162.7243148506
 11
134.7172691871
 21
162.7660642354
  0
LINE
  8
LAY0001
 62
7
  6
CONTINUOUS
 10
134.7915136091
 20
163.0908050049
 11
135.0698428798
 21
162.8124757342
  0
LINE
  8
LAY0001
 62
7
  6
CONTINUOUS
 10
135.1945256452
 20
162.9371584995
 11
134.9161963744
 21
163.2154877703
  0
LINE
  8
LAY0001
 62
7
  6
CONTINUOUS
 10
137.4771493107
 20
160.9681145944
 11
136.6993318514
 21
161.7459320537
  0
LINE
  8
LAY0001
 62
7
  6
CONTINUOUS
 10
136.1336464264
 20
162.3116174787
 11
135.8508037139
 21
162.5944601912
  0
LINE
  8
LAY0001
 62
7
  6
CONTINUOUS
 10
135.3650545009
 20
163.6643458967
 11
135.6851331564
 21
163.3442672412
  0
LINE
  8
LAY0001
 62
7
  6
CONTINUOUS
 10
135.7407990027
 20
163.2886013949
 11
136.0191282735
 21
163.0102721241
  0
LINE
  8
LAY0001
 62
7
  6
CONTINUOUS
 10
136.1438111102
 20
163.1349549608
 11
135.4897373376
 21
163.7890287334
  0
LINE
  8
LAY0001
 62
7
  6
CONTINUOUS
 10
137.3357279544
 20
162.7358815474
 11
138.290322109
 21
161.7812873928
  0
LINE
  8
LAY0001
 62
7
  6
CONTINUOUS
 10
136.5573474888
 20
164.4669779212
 11
136.5990968736
 21
164.4252285364
  0
LINE
  8
LAY0001
 62
7
  6
CONTINUOUS
 10
138.891362873
 20
162.3823281568
 11
137.9721240575
 21
163.3015669724
  0
LINE
  8
0
 62
7
  6
CONTINUOUS
 10
64.808219709
 20
244.5006562561
 11
66.1118358717
 21
242.8191332202
  0
LINE
  8
0
 62
7
  6
CONTINUOUS
 10
66.5234587086
 20
243.1382476015
 11
65.2198425459
 21
244.8197706373
  0
LINE
  8
0
 62
7
  6
CONTINUOUS
 10
66.8663338641
 20
246.0962281394
 11
68.3003116339
 21
244.2465528118
  0
LINE
  8
0
 62
7
  6
CONTINUOUS
 10
68.9726578191
 20
244.229362619
 11
67.2779567893
 21
246.4153425891
  0
LINE
  8
0
 62
7
  6
CONTINUOUS
 10
68.3233327704
 20
247.1671629424
 11
70.2102563849
 21
244.3337069577
  0
LINE
  8
0
 62
7
  6
CONTINUOUS
 10
70.6437604894
 20
244.6223965072
 11
69.287534095
 21
246.6589430659
  0
LINE
  8
0
 62
7
  6
CONTINUOUS
 10
69.0516686638
 20
247.013125033
 11
68.7568368749
 21
247.4558524919
  0
LINE
  8
0
 62
7
  6
CONTINUOUS
 10
71.0840140046
 20
247.3440432788
 11
72.2043749679
 21
245.6616786872
  0
LINE
  8
0
 62
7
  6
CONTINUOUS
 10
72.6378788243
 20
245.9503680715
 11
71.5175178611
 21
247.6327326631
  0
LINE
  8
0
 62
7
  6
CONTINUOUS
 10
70.7816756754
 20
250.6584108945
 11
71.0556542642
 21
250.2024842343
  0
LINE
  8
0
 62
7
  6
CONTINUOUS
 10
71.6036115954
 20
249.2906306586
 11
73.3570747175
 21
246.3726997781
  0
LINE
  8
0
 62
7
  6
CONTINUOUS
 10
73.8035027885
 20
246.6409704093
 11
72.0500396664
 21
249.5589012898
  0
LINE
  8
0
 62
7
  6
CONTINUOUS
 10
71.5020823352
 20
250.4707548656
 11
71.2281037463
 21
250.9266815257
  0
LINE
  8
0
 62
7
  6
CONTINUOUS
 10
77.0242103173
 20
253.9921110079
 11
78.9538542186
 21
249.3794681198
  0
LINE
  8
0
 62
7
  6
CONTINUOUS
 10
79.5304345797
 20
249.6206736074
 11
78.6271970015
 21
251.779783062
  0
LINE
  8
0
 62
7
  6
CONTINUOUS
 10
78.3808595115
 20
252.3686310201
 11
77.8471281682
 21
253.6444685375
  0
LINE
  8
0
 62
7
  6
CONTINUOUS
 10
81.1257111661
 20
252.8250065352
 11
80.8793736761
 21
253.4138544933
  0
LINE
  8
0
 62
7
  6
CONTINUOUS
 10
80.7300299733
 20
254.8504959759
 11
80.4836924834
 21
255.439343934
  0
LINE
  8
0
 62
7
  6
CONTINUOUS
 10
81.5286449121
 20
255.7969934037
 11
83.2066214946
 21
251.0869621311
  0
LINE
  8
0
 62
7
  6
CONTINUOUS
 10
83.6972501264
 20
251.2617514918
 11
82.019273544
 21
255.9717827644
  0
LINE
  8
0
 62
7
  6
CONTINUOUS
 10
84.5482950126
 20
253.1315056661
 11
84.4870367546
 21
253.3352623045
  0
LINE
  8
0
 62
7
  6
CONTINUOUS
 10
84.4642745396
 20
253.7727662921
 11
84.4336454105
 21
253.8746446112
  0
LINE
  8
0
 62
7
  6
CONTINUOUS
 10
86.4978894694
 20
254.6063344709
 11
86.5591477275
 21
254.4025778325
  0
LINE
  8
0
 62
7
  6
CONTINUOUS
 10
87.1804451391
 20
254.1450199994
 11
87.0579285801
 21
254.5525334189
  0
LINE
  8
0
 62
7
  6
CONTINUOUS
 10
116.6423630097
 20
120.7212424866
 11
115.9291841685
 21
131.3294353754
  0
LINE
  8
0
 62
7
  6
CONTINUOUS
 10
101.8226021114
 20
256.1043333283
 11
101.7615640675
 21
257.6989101725
  0
LINE
  8
0
 62
7
  6
CONTINUOUS
 10
106.8844938773
 20
254.1781668573
 11
107.147618413
 21
259.1712386052
  0
LINE
  8
0
 62
7
  6
CONTINUOUS
 10
111.4287628038
 20
253.5664357627
 11
111.5176877891
 21
254.1985089537
  0
LINE
  8
0
 62
7
  6
CONTINUOUS
 10
112.036416882
 20
257.885602654
 11
112.1253418569
 21
258.5176757713
  0
LINE
  8
0
 62
7
  6
CONTINUOUS
 10
121.0749895904
 20
250.9588876981
 11
121.2744437702
 21
251.5652227556
  0
LINE
  8
0
 62
7
  6
CONTINUOUS
 10
122.4046841533
 20
255.0011215093
 11
122.6373806692
 21
255.7085123272
  0
LINE
  8
0
 62
7
  6
CONTINUOUS
 10
128.6254631652
 20
251.5689729092
 11
128.7166274851
 21
251.7612189376
  0
LINE
  8
0
 62
7
  6
CONTINUOUS
 10
127.6711937857
 20
249.3135147508
 11
127.8535221701
 21
249.6980062691
  0
LINE
  8
0
 62
7
  6
CONTINUOUS
 10
137.3196569941
 20
245.8495382687
 11
137.5662095644
 21
246.1963659654
  0
LINE
  8
0
 62
7
  6
CONTINUOUS
 10
141.3026708282
 20
240.7799185939
 11
140.8451009197
 21
240.1832362648
  0
LINE
  8
0
 62
7
  6
CONTINUOUS
 10
143.402957312
 20
237.5852595596
 11
143.7819933228
 21
237.9584421525
  0
LINE
  8
0
 62
7
  6
CONTINUOUS
 10
151.501940425
 20
136.575917963
 11
145.9405788738
 21
145.6375755444
  0
LINE
  8
0
 62
7
  6
CONTINUOUS
 10
83.988255902
 20
253.1853067182
 11
84.2717873032
 21
252.6040280577
  0
LINE
  8
0
 62
7
  6
CONTINUOUS
 10
97.6589838943
 20
255.9449561791
 11
97.7834211367
 21
255.4174150724
  0
LINE
  8
0
 62
7
  6
CONTINUOUS
 10
113.2611098137
 20
275.198275697
 11
113.0754838998
 21
278.7402291344
  0
LINE
  8
0
 62
7
  6
CONTINUOUS
 10
113.909678217
 20
138.3640128129
 11
113.909678217
 21
140.3640128129
  0
LINE
  8
0
 62
7
  6
CONTINUOUS
 10
124.2828618765
 20
250.9202838299
 11
124.2402387594
 21
250.5872812873
  0
LINE
  8
0
 62
7
  6
CONTINUOUS
 10
127.8535221701
 20
249.6980062691
 11
127.9417317237
 21
250.1271297155
  0
LINE
  8
0
 62
7
  6
CONTINUOUS
 10
128.7166274851
 20
251.7612189376
 11
128.8048369748
 21
252.1903422493
  0
LINE
  8
0
 62
7
  6
CONTINUOUS
 10
78.4077050564
 20
122.8826779439
 11
82.706089603
 21
132.6071969919
  0
LINE
  8
0
 62
7
  6
CONTINUOUS
 10
147.2028109212
 20
261.2366445357
 11
148.6844751739
 21
264.459153213
  0
LINE
  8
0
 62
7
  6
CONTINUOUS
 10
141.1319793794
 20
239.5885926306
 11
141.2863171125
 21
239.8867322623
  0
LINE
  8
0
 62
7
  6
CONTINUOUS
 10
45.5570659247
 20
142.5650655196
 11
53.8823057607
 21
149.1781406061
  0
LINE
  8
0
 62
7
  6
CONTINUOUS
 10
170.7684011676
 20
233.1007390928
 11
173.5779241625
 21
235.2655651074
  0
LINE
  8
0
 62
7
  6
CONTINUOUS
 10
181.7548831197
 20
204.5099412846
 11
171.1380716908
 21
205.0806386745
  0
LINE
  8
0
 62
7
  6
CONTINUOUS
 10
27.996596372
 20
219.7734899904
 11
24.4580930316
 21
220.0161528072
  0
LINE
  8
0
 62
7
  6
CONTINUOUS
 10
175.0005282201
 20
166.8145892909
 11
165.8650248685
 21
172.2537950177
  0
LINE
  8
0
 62
7
  6
CONTINUOUS
 10
45.9476514964
 20
251.7848292106
 11
42.9272334259
 21
253.6441209607
  0
LINE
  8
0
 62
7
  6
CONTINUOUS
 10
66.8013256985
 20
242.9498420491
 11
66.5234587086
 21
243.1382476015
  0
LINE
  8
0
 62
7
  6
CONTINUOUS
 10
66.1118358717
 20
242.8191332202
 11
66.4548837034
 21
242.5466514574
  0
LINE
  8
0
 62
7
  6
CONTINUOUS
 10
69.3157055584
 20
243.9568808082
 11
68.9726578191
 21
244.229362619
  0
LINE
  8
0
 62
7
  6
CONTINUOUS
 10
70.702481246
 20
247.7290327287
 11
71.0840140046
 21
247.3440432788
  0
LINE
  8
0
 62
7
  6
CONTINUOUS
 10
71.5175178611
 20
247.6327326631
 11
71.1359855985
 21
248.0177224433
  0
LINE
  8
0
 62
7
  6
CONTINUOUS
 10
84.7399367436
 20
252.8558612767
 11
84.5482950126
 21
253.1315056661
  0
LINE
  8
0
 62
7
  6
CONTINUOUS
 10
76.718932527
 20
271.7871911335
 11
74.9085411063
 21
274.8371704837
  0
LINE
  8
0
 62
7
  6
CONTINUOUS
 10
87.0579285801
 20
254.5525334189
 11
86.8356554368
 21
254.930055441
  0
LINE
  8
LAY0001
 62
7
  6
CONTINUOUS
 10
136.7684254476
 20
164.4553924556
 11
136.7098632219
 21
164.5638278079
  0
LINE
  8
0
 62
7
  6
CONTINUOUS
 10
98.4038945476
 20
255.5476267532
 11
98.2835265077
 21
255.968862747
  0
LINE
  8
0
 62
7
  6
CONTINUOUS
 10
101.0166534141
 20
258.0962395984
 11
101.137021454
 21
257.6750036047
  0
LINE
  8
0
 62
7
  6
CONTINUOUS
 10
101.7615640675
 20
257.6989101725
 11
101.6371268136
 21
258.2264515771
  0
LINE
  8
0
 62
7
  6
CONTINUOUS
 10
124.7564196692
 20
250.4602432242
 11
124.7534649667
 21
250.6971207767
  0
LINE
  8
0
 62
7
  6
CONTINUOUS
 10
137.156821794
 20
246.8789634913
 11
137.0568066809
 21
246.5584898424
  0
LINE
  8
0
 62
7
  6
CONTINUOUS
 10
137.5662095644
 20
246.1963659654
 11
137.6662246774
 21
246.5168396143
  0
LINE
  8
0
 62
7
  6
CONTINUOUS
 10
139.1811108097
 20
239.8631558526
 11
141.1571006556
 21
244.7491804748
  0
LINE
  8
0
 62
7
  6
CONTINUOUS
 10
139.2167872336
 20
241.5104232908
 11
138.7055324976
 21
240.2686805362
  0
LINE
  8
0
 62
7
  6
CONTINUOUS
 10
140.5639477776
 20
244.6957312714
 11
139.4136272704
 21
241.9018076679
  0
LINE
  8
0
 62
7
  6
CONTINUOUS
 10
140.8451009197
 20
240.1832362648
 11
140.6122292359
 21
239.6615968445
  0
LINE
  8
0
 62
7
  6
CONTINUOUS
 10
143.7819933228
 20
237.9584421525
 11
144.014868299
 21
238.4800781226
  0
LINE
  8
0
 62
7
  6
CONTINUOUS
 10
143.4951182086
 20
238.5530823889
 11
143.3407803693
 21
238.2549426526
  0
LINE
  8
0
 62
7
  6
CONTINUOUS
 10
145.0003618634
 20
239.4503528014
 11
145.1546995965
 21
239.7484924332
  0
LINE
  8
0
 62
7
  6
CONTINUOUS
 10
66.4548837034
 20
242.5466514574
 11
66.6675698824
 21
242.4423220453
  0
LINE
  8
0
 62
7
  6
CONTINUOUS
 10
68.6262156974
 20
243.8261720234
 11
69.1167689781
 21
243.5334370514
  0
LINE
  8
0
 62
7
  6
CONTINUOUS
 10
71.1359855985
 20
248.0177224433
 11
70.8723855554
 21
248.2256209096
  0
LINE
  8
0
 62
7
  6
CONTINUOUS
 10
84.2717873032
 20
252.6040280577
 11
84.5938148119
 21
252.2564965322
  0
LINE
  8
0
 62
7
  6
CONTINUOUS
 10
84.9009516288
 20
252.6820958929
 11
84.7399367436
 21
252.8558612767
  0
LINE
  8
0
 62
7
  6
CONTINUOUS
 10
97.7834211367
 20
255.4174150724
 11
98.0078780268
 21
255.0001633714
  0
LINE
  8
LAY0001
 62
7
  6
CONTINUOUS
 10
135.7976651801
 20
163.9299590174
 11
135.828394426
 21
163.8493565511
  0
LINE
  8
LAY0001
 62
7
  6
CONTINUOUS
 10
136.5990968736
 20
164.4252285364
 11
136.6298261739
 21
164.344626105
  0
LINE
  8
LAY0001
 62
7
  6
CONTINUOUS
 10
134.6065028834
 20
162.6274650085
 11
134.623315658
 21
162.5607790136
  0
LINE
  8
LAY0001
 62
7
  6
CONTINUOUS
 10
135.9530772627
 20
163.9740393878
 11
135.936264407
 21
164.0407253211
  0
LINE
  8
LAY0001
 62
7
  6
CONTINUOUS
 10
131.810711504
 20
159.887339495
 11
131.8078150483
 21
159.9401088856
  0
LINE
  8
LAY0001
 62
7
  6
CONTINUOUS
 10
132.5819792003
 20
160.213280362
 11
132.584875656
 21
160.1605109713
  0
LINE
  8
LAY0001
 62
7
  6
CONTINUOUS
 10
134.0352930437
 20
162.2510856603
 11
134.038189219
 21
162.1983159794
  0
LINE
  8
LAY0001
 62
7
  6
CONTINUOUS
 10
134.1216879982
 20
162.1148172002
 11
134.1187918279
 21
162.1675868762
  0
LINE
  8
LAY0001
 62
7
  6
CONTINUOUS
 10
134.7648113406
 20
162.6187759267
 11
134.7590185719
 21
162.7243148506
  0
LINE
  8
LAY0001
 62
7
  6
CONTINUOUS
 10
134.8013333651
 20
162.4326345267
 11
134.8042296781
 21
162.3798649934
  0
LINE
  8
LAY0001
 62
7
  6
CONTINUOUS
 10
134.9567455093
 20
162.4767149783
 11
134.9538490536
 21
162.5294843689
  0
LINE
  8
0
 62
7
  6
CONTINUOUS
 10
127.3770097388
 20
250.394924562
 11
127.3829233883
 21
249.9211672791
  0
LINE
  8
0
 62
7
  6
CONTINUOUS
 10
140.6122292359
 20
239.6615968445
 11
140.5282452237
 21
239.1403672072
  0
LINE
  8
0
 62
7
  6
CONTINUOUS
 10
141.0507187119
 20
239.2162296035
 11
141.1319793794
 21
239.5885926306
  0
LINE
  8
0
 62
7
  6
CONTINUOUS
 10
142.8128534741
 20
237.8813538053
 11
142.4392709498
 21
237.8058977418
  0
LINE
  8
0
 62
7
  6
CONTINUOUS
 10
142.3552869376
 20
237.2846681044
 11
142.8777604259
 21
237.3605305007
  0
LINE
  8
0
 62
7
  6
CONTINUOUS
 10
67.1615173131
 20
242.8252593233
 11
66.8013256985
 21
242.9498420491
  0
LINE
  8
0
 62
7
  6
CONTINUOUS
 10
69.5283919033
 20
243.8525515011
 11
69.3157055584
 21
243.9568808082
  0
LINE
  8
0
 62
7
  6
CONTINUOUS
 10
86.2064911113
 20
254.8519876058
 11
86.4978894694
 21
254.6063344709
  0
LINE
  8
0
 62
7
  6
CONTINUOUS
 10
98.6242822323
 20
255.2366802397
 11
98.4038945476
 21
255.5476267532
  0
LINE
  8
0
 62
7
  6
CONTINUOUS
 10
106.2995486687
 20
254.9547063938
 11
103.9229278298
 21
259.3411731175
  0
LINE
  8
0
 62
7
  6
CONTINUOUS
 10
101.6371268136
 20
258.2264515771
 11
101.4126699264
 21
258.6437032036
  0
LINE
  8
0
 62
7
  6
CONTINUOUS
 10
103.5772704833
 20
258.7202050623
 11
105.9482929246
 21
254.2275027078
  0
LINE
  8
0
 62
7
  6
CONTINUOUS
 10
124.2402387594
 20
250.5872812873
 11
124.2917302604
 21
250.2096490618
  0
LINE
  8
LAY0001
 62
7
  6
CONTINUOUS
 10
136.6298261739
 20
164.344626105
 11
136.6327225404
 21
164.2918566252
  0
LINE
  8
LAY0001
 62
7
  6
CONTINUOUS
 10
136.7742181695
 20
164.3498534848
 11
136.7684254476
 21
164.4553924556
  0
LINE
  8
0
 62
7
  6
CONTINUOUS
 10
137.6662246774
 20
246.5168396143
 11
137.6580756332
 21
247.0447290066
  0
LINE
  8
LAY0001
 62
7
  6
CONTINUOUS
 10
131.6663195035
 20
159.8821121201
 11
131.6581959582
 21
159.7904897955
  0
LINE
  8
LAY0001
 62
7
  6
CONTINUOUS
 10
132.726371196
 20
160.2185077418
 11
132.7344950315
 21
160.3101303468
  0
LINE
  8
0
 62
7
  6
CONTINUOUS
 10
145.1546995965
 20
239.7484924332
 11
145.2386835822
 21
240.2697220444
  0
LINE
  8
0
 62
7
  6
CONTINUOUS
 10
144.7162101204
 20
240.1938596742
 11
144.6349495061
 21
239.8214966994
  0
LINE
  8
0
 62
7
  6
CONTINUOUS
 10
143.027159221
 20
241.454505386
 11
143.4007416922
 21
241.5299613972
  0
LINE
  8
0
 62
7
  6
CONTINUOUS
 10
143.4847256778
 20
242.0511910084
 11
142.9622522161
 21
241.9753286382
  0
LINE
  8
0
 62
7
  6
CONTINUOUS
 10
66.6675698824
 20
242.4423220453
 11
67.1100860092
 21
242.3815622
  0
LINE
  8
0
 62
7
  6
CONTINUOUS
 10
84.5938148119
 20
252.2564965322
 11
84.854586335
 21
252.1127223673
  0
LINE
  8
0
 62
7
  6
CONTINUOUS
 10
85.2921066356
 20
252.4664339412
 11
84.9009516288
 21
252.6820958929
  0
LINE
  8
0
 62
7
  6
CONTINUOUS
 10
86.8356554368
 20
254.930055441
 11
86.4138713225
 21
255.2475956406
  0
LINE
  8
0
 62
7
  6
CONTINUOUS
 10
87.7534445317
 20
256.0543464399
 11
89.5405290049
 21
254.7014601679
  0
LINE
  8
0
 62
7
  6
CONTINUOUS
 10
91.9383064539
 20
253.4815478386
 11
90.1512196512
 21
254.8344336033
  0
LINE
  8
0
 62
7
  6
CONTINUOUS
 10
89.9137756486
 20
254.4561048906
 11
91.3276158076
 21
253.3485744032
  0
LINE
  8
0
 62
7
  6
CONTINUOUS
 10
89.7779729757
 20
255.0797890262
 11
88.364135178
 21
256.1873198753
  0
LINE
  8
0
 62
7
  6
CONTINUOUS
 10
98.0078780268
 20
255.0001633714
 11
98.4405173748
 21
254.5908806244
  0
LINE
  8
0
 62
7
  6
CONTINUOUS
 10
100.7962657181
 20
258.4071864098
 11
101.0166534141
 21
258.0962395984
  0
LINE
  8
0
 62
7
  6
CONTINUOUS
 10
124.8534975428
 20
250.1787317678
 11
124.7564196692
 21
250.4602432242
  0
LINE
  8
0
 62
7
  6
CONTINUOUS
 10
127.9417317237
 20
250.1271297155
 11
127.8902359142
 21
250.5047639841
  0
LINE
  8
0
 62
7
  6
CONTINUOUS
 10
128.1945328939
 20
252.3620142162
 11
128.2460243949
 21
251.9843819907
  0
LINE
  8
0
 62
7
  6
CONTINUOUS
 10
143.500571642
 20
238.850808866
 11
143.4951182086
 21
238.5530823889
  0
LINE
  8
0
 62
7
  6
CONTINUOUS
 10
144.014868299
 20
238.4800781226
 11
144.0230451037
 21
238.9266712361
  0
LINE
  8
LAY0001
 62
7
  6
CONTINUOUS
 10
133.4657789916
 20
161.1249130765
 11
133.4437389799
 21
161.0472072184
  0
LINE
  8
LAY0001
 62
7
  6
CONTINUOUS
 10
133.4994048262
 20
160.991541372
 11
133.521444838
 21
161.0692472301
  0
LINE
  8
LAY0001
 62
7
  6
CONTINUOUS
 10
134.1187918279
 20
162.1675868762
 11
134.1518521211
 21
162.2841459584
  0
LINE
  8
LAY0001
 62
7
  6
CONTINUOUS
 10
134.623315658
 20
162.5607790136
 11
134.6012755036
 21
162.4830730128
  0
LINE
  8
LAY0001
 62
7
  6
CONTINUOUS
 10
134.7427712057
 20
162.5410699064
 11
134.7648113406
 21
162.6187759267
  0
LINE
  8
LAY0001
 62
7
  6
CONTINUOUS
 10
134.9347052122
 20
162.3990088348
 11
134.9567455093
 21
162.4767149783
  0
LINE
  8
LAY0001
 62
7
  6
CONTINUOUS
 10
135.8307254782
 20
164.0465180947
 11
135.7976651801
 21
163.9299590174
  0
LINE
  8
LAY0001
 62
7
  6
CONTINUOUS
 10
135.6851331564
 20
163.3442672412
 11
135.6630929306
 21
163.2665611691
  0
LINE
  8
LAY0001
 62
7
  6
CONTINUOUS
 10
135.718758777
 20
163.2108953228
 11
135.7407990027
 21
163.2886013949
  0
LINE
  8
LAY0001
 62
7
  6
CONTINUOUS
 10
136.6327225404
 20
164.2918566252
 11
136.5996622374
 21
164.1752975527
  0
LINE
  8
LAY0001
 62
7
  6
CONTINUOUS
 10
136.7521779705
 20
164.2721474395
 11
136.7742181695
 21
164.3498534848
  0
LINE
  8
LAY0001
 62
7
  6
CONTINUOUS
 10
133.4437389799
 20
161.0472072184
 11
133.3967622153
 21
160.9445646075
  0
LINE
  8
LAY0001
 62
7
  6
CONTINUOUS
 10
134.0822698046
 20
162.3537282749
 11
134.0352930437
 21
162.2510856603
  0
LINE
  8
LAY0001
 62
7
  6
CONTINUOUS
 10
133.4524280617
 20
160.8888987611
 11
133.4994048262
 21
160.991541372
  0
LINE
  8
LAY0001
 62
7
  6
CONTINUOUS
 10
135.936264407
 20
164.0407253211
 11
135.9832412072
 21
164.1433679677
  0
LINE
  8
LAY0001
 62
7
  6
CONTINUOUS
 10
135.6630929306
 20
163.2665611691
 11
135.6161162374
 21
163.1639186295
  0
LINE
  8
LAY0001
 62
7
  6
CONTINUOUS
 10
135.6717820838
 20
163.1082527832
 11
135.718758777
 21
163.2108953228
  0
LINE
  8
LAY0001
 62
7
  6
CONTINUOUS
 10
136.705201197
 20
164.1695048196
 11
136.7521779705
 21
164.2721474395
  0
LINE
  8
LAY0001
 62
7
  6
CONTINUOUS
 10
131.7382327318
 20
160.0096912021
 11
131.6663195035
 21
159.8821121201
  0
LINE
  8
LAY0001
 62
7
  6
CONTINUOUS
 10
131.8078150483
 20
159.9401088856
 11
131.843771807
 21
160.0038985675
  0
LINE
  8
LAY0001
 62
7
  6
CONTINUOUS
 10
132.584875656
 20
160.1605109713
 11
132.5489188973
 21
160.0967212895
  0
LINE
  8
LAY0001
 62
7
  6
CONTINUOUS
 10
132.654457964
 20
160.0909286634
 11
132.726371196
 21
160.2185077418
  0
LINE
  8
LAY0001
 62
7
  6
CONTINUOUS
 10
134.6012755036
 20
162.4830730128
 11
134.5653188876
 21
162.4192834736
  0
LINE
  8
LAY0001
 62
7
  6
CONTINUOUS
 10
134.670857831
 20
162.4134906854
 11
134.7427712057
 21
162.5410699064
  0
LINE
  8
LAY0001
 62
7
  6
CONTINUOUS
 10
134.8042296781
 20
162.3798649934
 11
134.7682730621
 21
162.3160754542
  0
LINE
  8
LAY0001
 62
7
  6
CONTINUOUS
 10
135.9026387779
 20
164.1740972481
 11
135.8307254782
 21
164.0465180947
  0
LINE
  8
LAY0001
 62
7
  6
CONTINUOUS
 10
134.8987485962
 20
162.3352192956
 11
134.9347052122
 21
162.3990088348
  0
LINE
  8
LAY0001
 62
7
  6
CONTINUOUS
 10
136.5996622374
 20
164.1752975527
 11
136.5637055679
 21
164.11150796
  0
LINE
  8
LAY0001
 62
7
  6
CONTINUOUS
 10
134.1518521211
 20
162.2841459584
 11
134.2487019584
 21
162.4366616518
  0
LINE
  8
LAY0001
 62
7
  6
CONTINUOUS
 10
136.4181828583
 20
164.6061425517
 11
136.315540236
 21
164.5591657806
  0
LINE
  8
LAY0001
 62
7
  6
CONTINUOUS
 10
136.2894033914
 20
163.8372057835
 11
136.1867607448
 21
163.7902289833
  0
LINE
  8
0
 62
7
  6
CONTINUOUS
 10
127.5108013247
 20
250.9201707532
 11
128.0240275
 21
251.0300101754
  0
LINE
  8
0
 62
7
  6
CONTINUOUS
 10
136.6020787268
 20
246.0986014775
 11
136.3090002714
 21
246.0458966305
  0
LINE
  8
0
 62
7
  6
CONTINUOUS
 10
126.7418149841
 20
248.8123264597
 11
127.1153401847
 21
248.8706748292
  0
LINE
  8
0
 62
7
  6
CONTINUOUS
 10
67.1100860092
 20
242.3815622
 11
67.4874213709
 21
242.4048785423
  0
LINE
  8
0
 62
7
  6
CONTINUOUS
 10
136.0240747466
 20
245.4652996285
 11
136.5485896716
 21
245.4840052217
  0
LINE
  8
0
 62
7
  6
CONTINUOUS
 10
141.8142441139
 20
240.2603212141
 11
142.1120194041
 21
240.2611407277
  0
LINE
  8
0
 62
7
  6
CONTINUOUS
 10
142.4392709498
 20
237.8058977418
 11
142.0684118499
 21
237.8793083669
  0
LINE
  8
0
 62
7
  6
CONTINUOUS
 10
70.411147087
 20
247.7906480245
 11
70.702481246
 21
247.7290327287
  0
LINE
  8
0
 62
7
  6
CONTINUOUS
 10
70.8723855554
 20
248.2256209096
 11
70.5810513965
 21
248.2872362055
  0
LINE
  8
0
 62
7
  6
CONTINUOUS
 10
141.7624530177
 20
237.4319024898
 11
142.3552869376
 21
237.2846681044
  0
LINE
  8
0
 62
7
  6
CONTINUOUS
 10
84.854586335
 20
252.1127223673
 11
85.2151121966
 21
251.9989387883
  0
LINE
  8
0
 62
7
  6
CONTINUOUS
 10
98.9446919469
 20
255.0360232231
 11
98.6242822323
 21
255.2366802397
  0
LINE
  8
0
 62
7
  6
CONTINUOUS
 10
101.4126699264
 20
258.6437032036
 11
100.9800305798
 21
259.0529859134
  0
LINE
  8
0
 62
7
  6
CONTINUOUS
 10
124.2917302604
 20
250.2096490618
 11
124.4829270447
 21
249.8835058457
  0
LINE
  8
0
 62
7
  6
CONTINUOUS
 10
127.1858129386
 20
250.7210677444
 11
127.3770097388
 21
250.394924562
  0
LINE
  8
0
 62
7
  6
CONTINUOUS
 10
128.8048369748
 20
252.1903422493
 11
128.6106811637
 21
252.7533650274
  0
LINE
  8
0
 62
7
  6
CONTINUOUS
 10
140.5282452237
 20
239.1403672072
 11
140.6662293275
 21
238.5453205924
  0
LINE
  8
0
 62
7
  6
CONTINUOUS
 10
141.1183490881
 20
238.8442729877
 11
141.0507187119
 21
239.2162296035
  0
LINE
  8
0
 62
7
  6
CONTINUOUS
 10
137.1102957361
 20
247.1730860982
 11
137.156821794
 21
246.8789634913
  0
LINE
  8
LAY0001
 62
7
  6
CONTINUOUS
 10
136.6443079709
 20
164.0807786703
 11
136.705201197
 21
164.1695048196
  0
LINE
  8
LAY0001
 62
7
  6
CONTINUOUS
 10
131.843771807
 20
160.0038985675
 11
131.9296014957
 21
160.1175611891
  0
LINE
  8
LAY0001
 62
7
  6
CONTINUOUS
 10
132.5489188973
 20
160.0967212895
 11
132.4630892037
 21
159.9830586727
  0
LINE
  8
LAY0001
 62
7
  6
CONTINUOUS
 10
133.3967622153
 20
160.9445646075
 11
133.3109322363
 21
160.8309017053
  0
LINE
  8
LAY0001
 62
7
  6
CONTINUOUS
 10
134.5653188876
 20
162.4192834736
 11
134.4794890513
 21
162.3056207141
  0
LINE
  8
LAY0001
 62
7
  6
CONTINUOUS
 10
133.3665980827
 20
160.7752358589
 11
133.4524280617
 21
160.8888987611
  0
LINE
  8
LAY0001
 62
7
  6
CONTINUOUS
 10
134.7682730621
 20
162.3160754542
 11
134.6824432258
 21
162.2024126948
  0
LINE
  8
LAY0001
 62
7
  6
CONTINUOUS
 10
135.6161162374
 20
163.1639186295
 11
135.5302864011
 21
163.0502558701
  0
LINE
  8
LAY0001
 62
7
  6
CONTINUOUS
 10
135.5859522475
 20
162.9945900237
 11
135.6717820838
 21
163.1082527832
  0
LINE
  8
LAY0001
 62
7
  6
CONTINUOUS
 10
136.5637055679
 20
164.11150796
 11
136.4778757673
 21
163.9978452362
  0
LINE
  8
LAY0001
 62
7
  6
CONTINUOUS
 10
134.1930361072
 20
162.492327503
 11
134.0822698046
 21
162.3537282749
  0
LINE
  8
LAY0001
 62
7
  6
CONTINUOUS
 10
131.8739356445
 20
160.1732270404
 11
131.7382327318
 21
160.0096912021
  0
LINE
  8
LAY0001
 62
7
  6
CONTINUOUS
 10
132.5187550501
 20
159.9273928263
 11
132.654457964
 21
160.0909286634
  0
LINE
  8
LAY0001
 62
7
  6
CONTINUOUS
 10
134.5351549171
 20
162.2499548483
 11
134.670857831
 21
162.4134906854
  0
LINE
  8
LAY0001
 62
7
  6
CONTINUOUS
 10
136.5086050748
 20
163.9172428511
 11
136.6443079709
 21
164.0807786703
  0
LINE
  8
LAY0001
 62
7
  6
CONTINUOUS
 10
136.063278265
 20
164.3625696609
 11
135.9026387779
 21
164.1740972481
  0
LINE
  8
LAY0001
 62
7
  6
CONTINUOUS
 10
135.9832412072
 20
164.1433679677
 11
136.1438806551
 21
164.3318403484
  0
LINE
  8
LAY0001
 62
7
  6
CONTINUOUS
 10
134.7381090722
 20
162.1467468484
 11
134.8987485962
 21
162.3352192956
  0
LINE
  8
LAY0001
 62
7
  6
CONTINUOUS
 10
135.4897373376
 20
163.7890287334
 11
135.3650545009
 21
163.6643458967
  0
LINE
  8
LAY0001
 62
7
  6
CONTINUOUS
 10
134.9161963744
 20
163.2154877703
 11
134.7915136091
 21
163.0908050049
  0
LINE
  8
LAY0001
 62
7
  6
CONTINUOUS
 10
134.3426554827
 20
162.6419468785
 11
134.1930361072
 21
162.492327503
  0
LINE
  8
LAY0001
 62
7
  6
CONTINUOUS
 10
133.9187339664
 20
162.2180253622
 11
133.7940510583
 21
162.0933424542
  0
LINE
  8
LAY0001
 62
7
  6
CONTINUOUS
 10
133.5945584626
 20
161.8938498584
 11
133.4698758399
 21
161.7691672358
  0
LINE
  8
LAY0001
 62
7
  6
CONTINUOUS
 10
133.2703832441
 20
161.56967464
 11
133.1457003361
 21
161.444991732
  0
LINE
  8
LAY0001
 62
7
  6
CONTINUOUS
 10
132.6968422097
 20
160.9961336055
 11
132.572159587
 21
160.8714509829
  0
LINE
  8
LAY0001
 62
7
  6
CONTINUOUS
 10
132.02355502
 20
160.3228464158
 11
131.8739356445
 21
160.1732270404
  0
LINE
  8
LAY0001
 62
7
  6
CONTINUOUS
 10
131.9296014957
 20
160.1175611891
 11
132.0792208712
 21
160.2671805646
  0
LINE
  8
LAY0001
 62
7
  6
CONTINUOUS
 10
134.2487019584
 20
162.4366616518
 11
134.3983213339
 21
162.5862810273
  0
LINE
  8
LAY0001
 62
7
  6
CONTINUOUS
 10
132.3593157857
 20
160.4359437766
 11
132.4839986937
 21
160.5606266846
  0
LINE
  8
LAY0001
 62
7
  6
CONTINUOUS
 10
135.828394426
 20
163.8493565511
 11
135.9530772627
 21
163.9740393878
  0
LINE
  8
LAY0001
 62
7
  6
CONTINUOUS
 10
134.4794890513
 20
162.3056207141
 11
134.2051867678
 21
162.0313184306
  0
LINE
  8
LAY0001
 62
7
  6
CONTINUOUS
 10
134.2608526336
 20
161.9756525648
 11
134.5351549171
 21
162.2499548483
  0
LINE
  8
LAY0001
 62
7
  6
CONTINUOUS
 10
136.1200748213
 20
163.8070418293
 11
135.9953919846
 21
163.6823589926
  0
LINE
  8
LAY0001
 62
7
  6
CONTINUOUS
 10
134.9260161304
 20
162.5573172921
 11
134.8013333651
 21
162.4326345267
  0
LINE
  8
LAY0001
 62
7
  6
CONTINUOUS
 10
132.0333749187
 20
159.6646760803
 11
131.908692296
 21
159.5399934577
  0
LINE
  8
LAY0001
 62
7
  6
CONTINUOUS
 10
134.6824432258
 20
162.2024126948
 11
134.5328238503
 21
162.0527933193
  0
LINE
  8
LAY0001
 62
7
  6
CONTINUOUS
 10
132.4630892037
 20
159.9830586727
 11
132.3134698283
 21
159.8334392972
  0
LINE
  8
LAY0001
 62
7
  6
CONTINUOUS
 10
132.3691356746
 20
159.7777734509
 11
132.5187550501
 21
159.9273928263
  0
LINE
  8
LAY0001
 62
7
  6
CONTINUOUS
 10
133.2668519275
 20
160.6754897037
 11
133.3665980827
 21
160.7752358589
  0
LINE
  8
LAY0001
 62
7
  6
CONTINUOUS
 10
133.5910271459
 20
160.9996649222
 11
133.7157100539
 21
161.1243478302
  0
LINE
  8
LAY0001
 62
7
  6
CONTINUOUS
 10
133.9152026497
 20
161.323840426
 11
134.0398852724
 21
161.4485230486
  0
LINE
  8
LAY0001
 62
7
  6
CONTINUOUS
 10
134.5884896967
 20
161.9971274729
 11
134.7381090722
 21
162.1467468484
  0
LINE
  8
LAY0001
 62
7
  6
CONTINUOUS
 10
135.4862059496
 20
162.8948437258
 11
135.5859522475
 21
162.9945900237
  0
LINE
  8
LAY0001
 62
7
  6
CONTINUOUS
 10
134.1790499272
 20
161.3093583937
 11
134.0543673046
 21
161.1846757711
  0
LINE
  8
LAY0001
 62
7
  6
CONTINUOUS
 10
134.1239496125
 20
161.1150934632
 11
134.2486322352
 21
161.2397760858
  0
LINE
  8
LAY0001
 62
7
  6
CONTINUOUS
 10
136.0191282735
 20
163.0102721241
 11
136.1438111102
 21
163.1349549608
  0
LINE
  8
LAY0001
 62
7
  6
CONTINUOUS
 10
136.5579104951
 20
163.3015669724
 11
136.3799539761
 21
163.1236104534
  0
LINE
  8
LAY0001
 62
7
  6
CONTINUOUS
 10
135.8508037139
 20
162.5944601912
 11
135.2497629499
 21
161.9934194272
  0
LINE
  8
LAY0001
 62
7
  6
CONTINUOUS
 10
135.1083415937
 20
161.8519980709
 11
134.5073008297
 21
161.2509573069
  0
LINE
  8
LAY0001
 62
7
  6
CONTINUOUS
 10
133.6941280313
 20
160.4377845085
 11
133.0930872673
 21
159.8367437445
  0
LINE
  8
LAY0001
 62
7
  6
CONTINUOUS
 10
132.9516659111
 20
159.6953223883
 11
132.3506251471
 21
159.0942816243
  0
LINE
  8
LAY0001
 62
7
  6
CONTINUOUS
 10
136.6993318514
 20
162.4530388349
 11
136.9821745638
 21
162.7358815474
  0
LINE
  8
LAY0001
 62
7
  6
CONTINUOUS
 10
135.285118289
 20
159.7660330664
 11
135.0022755765
 21
159.4831903539
  0
LINE
  8
LAY0001
 62
7
  6
CONTINUOUS
 10
133.9769707438
 20
157.4679360276
 11
134.5780115078
 21
158.0689767916
  0
LINE
  8
LAY0001
 62
7
  6
CONTINUOUS
 10
135.4265396452
 20
158.917504929
 11
135.6044961642
 21
159.095461448
  0
LINE
  8
LAY0001
 62
7
  6
CONTINUOUS
 10
136.1336464264
 20
159.6246117102
 11
136.7346871904
 21
160.2256524742
  0
LINE
  8
LAY0001
 62
7
  6
CONTINUOUS
 10
136.8761085467
 20
160.3670738304
 11
137.4771493107
 21
160.9681145944
  0
LINE
  8
LAY0001
 62
7
  6
CONTINUOUS
 10
138.290322109
 20
161.7812873928
 11
138.891362873
 21
162.3823281568
  0
LINE
  8
LAY0001
 62
7
  6
CONTINUOUS
 10
136.4778757673
 20
163.9978452362
 11
136.2894033914
 21
163.8372057835
  0
LINE
  8
LAY0001
 62
7
  6
CONTINUOUS
 10
136.3201326633
 20
163.7566033627
 11
136.5086050748
 21
163.9172428511
  0
LINE
  8
LAY0001
 62
7
  6
CONTINUOUS
 10
136.2268140855
 20
164.4982725557
 11
136.063278265
 21
164.3625696609
  0
LINE
  8
LAY0001
 62
7
  6
CONTINUOUS
 10
132.1870908583
 20
160.4585493285
 11
132.02355502
 21
160.3228464158
  0
LINE
  8
LAY0001
 62
7
  6
CONTINUOUS
 10
132.0792208712
 20
160.2671805646
 11
132.2427567132
 21
160.4028834736
  0
LINE
  8
LAY0001
 62
7
  6
CONTINUOUS
 10
134.4249540023
 20
161.8614247017
 11
134.5884896967
 21
161.9971274729
  0
LINE
  8
LAY0001
 62
7
  6
CONTINUOUS
 10
132.3134698283
 20
159.8334392972
 11
132.1499339912
 21
159.6977363833
  0
LINE
  8
LAY0001
 62
7
  6
CONTINUOUS
 10
132.2055998375
 20
159.642070537
 11
132.3691356746
 21
159.7777734509
  0
LINE
  8
LAY0001
 62
7
  6
CONTINUOUS
 10
134.4563181007
 20
162.7277765709
 11
134.3426554827
 21
162.6419468785
  0
LINE
  8
LAY0001
 62
7
  6
CONTINUOUS
 10
135.5302864011
 20
163.0502558701
 11
135.4166236416
 21
162.9644260338
  0
LINE
  8
LAY0001
 62
7
  6
CONTINUOUS
 10
134.5328238503
 20
162.0527933193
 11
134.4191610909
 21
161.966963483
  0
LINE
  8
LAY0001
 62
7
  6
CONTINUOUS
 10
133.3109322363
 20
160.8309017053
 11
133.1972696196
 21
160.7450720117
  0
LINE
  8
LAY0001
 62
7
  6
CONTINUOUS
 10
132.4596274823
 20
160.2857591451
 11
131.9661235153
 21
159.9314197941
  0
LINE
  8
LAY0001
 62
7
  6
CONTINUOUS
 10
131.9330632124
 20
159.8148607216
 11
132.4265671988
 21
160.1692000531
  0
LINE
  8
LAY0001
 62
7
  6
CONTINUOUS
 10
136.315540236
 20
164.5591657806
 11
136.2268140855
 21
164.4982725557
  0
LINE
  8
LAY0001
 62
7
  6
CONTINUOUS
 10
136.1438806551
 20
164.3318403484
 11
136.3213329764
 21
164.4536268137
  0
LINE
  8
LAY0001
 62
7
  6
CONTINUOUS
 10
135.3974798002
 20
162.8339504997
 11
135.4862059496
 21
162.8948437258
  0
LINE
  8
LAY0001
 62
7
  6
CONTINUOUS
 10
132.2758170088
 20
160.5194425535
 11
132.1870908583
 21
160.4585493285
  0
LINE
  8
LAY0001
 62
7
  6
CONTINUOUS
 10
133.1781257782
 20
160.6145964776
 11
133.2668519275
 21
160.6754897037
  0
LINE
  8
LAY0001
 62
7
  6
CONTINUOUS
 10
132.1168736882
 20
159.5811773108
 11
132.2055998375
 21
159.642070537
  0
LINE
  8
LAY0001
 62
7
  6
CONTINUOUS
 10
134.5201077838
 20
162.7637333284
 11
134.4563181007
 21
162.7277765709
  0
LINE
  8
LAY0001
 62
7
  6
CONTINUOUS
 10
136.1925535136
 20
163.6846900593
 11
136.3201326633
 21
163.7566033627
  0
LINE
  8
LAY0001
 62
7
  6
CONTINUOUS
 10
134.3983213339
 20
162.5862810273
 11
134.5259004171
 21
162.6581942544
  0
LINE
  8
LAY0001
 62
7
  6
CONTINUOUS
 10
135.4166236416
 20
162.9644260338
 11
135.3528341025
 21
162.9284694178
  0
LINE
  8
LAY0001
 62
7
  6
CONTINUOUS
 10
134.4191610909
 20
161.966963483
 11
134.3553716944
 21
161.9310070097
  0
LINE
  8
LAY0001
 62
7
  6
CONTINUOUS
 10
132.2427567132
 20
160.4028834736
 11
132.306546395
 21
160.4388402323
  0
LINE
  8
LAY0001
 62
7
  6
CONTINUOUS
 10
133.1972696196
 20
160.7450720117
 11
133.1334799377
 21
160.709115253
  0
LINE
  8
LAY0001
 62
7
  6
CONTINUOUS
 10
132.1499339912
 20
159.6977363833
 11
132.0861443093
 21
159.6617796246
  0
LINE
  8
LAY0001
 62
7
  6
CONTINUOUS
 10
135.2948371893
 20
162.7869737351
 11
135.3974798002
 21
162.8339504997
  0
LINE
  8
LAY0001
 62
7
  6
CONTINUOUS
 10
134.3223113914
 20
161.8144479372
 11
134.4249540023
 21
161.8614247017
  0
LINE
  8
LAY0001
 62
7
  6
CONTINUOUS
 10
132.3784596222
 20
160.5664193156
 11
132.2758170088
 21
160.5194425535
  0
LINE
  8
LAY0001
 62
7
  6
CONTINUOUS
 10
133.0754831673
 20
160.567619713
 11
133.1781257782
 21
160.6145964776
  0
LINE
  8
LAY0001
 62
7
  6
CONTINUOUS
 10
132.4265671988
 20
160.1692000531
 11
132.5292098097
 21
160.2161768177
  0
LINE
  8
LAY0001
 62
7
  6
CONTINUOUS
 10
131.9661235153
 20
159.9314197941
 11
131.8634809044
 21
159.8844430295
  0
LINE
  8
LAY0001
 62
7
  6
CONTINUOUS
 10
132.0142310773
 20
159.5342005462
 11
132.1168736882
 21
159.5811773108
  0
LINE
  8
LAY0001
 62
7
  6
CONTINUOUS
 10
132.6011230417
 20
160.3437558961
 11
132.4596274823
 21
160.2857591451
  0
LINE
  8
LAY0001
 62
7
  6
CONTINUOUS
 10
131.7915676724
 20
159.7568639511
 11
131.9330632124
 21
159.8148607216
  0
LINE
  8
0
 62
7
  6
CONTINUOUS
 10
102.409678217
 20
143.0666814999
 11
89.909678217
 21
139.3640128129
  0
LINE
  8
0
 62
7
  6
CONTINUOUS
 10
100.2222615945
 20
254.3397004932
 11
100.7386437753
 21
254.4659277249
  0
LINE
  8
0
 62
7
  6
CONTINUOUS
 10
67.6211772008
 20
242.9123984979
 11
67.1615173131
 21
242.8252593233
  0
LINE
  8
0
 62
7
  6
CONTINUOUS
 10
126.3121248415
 20
253.2546643857
 11
126.6856500261
 21
253.3130127216
  0
LINE
  8
0
 62
7
  6
CONTINUOUS
 10
85.5450089266
 20
251.9870335374
 11
86.1741732548
 21
252.0651013637
  0
LINE
  8
0
 62
7
  6
CONTINUOUS
 10
70.1787792859
 20
247.7637178287
 11
70.411147087
 21
247.7906480245
  0
LINE
  8
0
 62
7
  6
CONTINUOUS
 10
85.9519001009
 20
252.4426234216
 11
85.5222467357
 21
252.4245374447
  0
LINE
  8
0
 62
7
  6
CONTINUOUS
 10
126.2741708929
 20
248.7986098919
 11
126.7418149841
 21
248.8123264597
  0
LINE
  8
0
 62
7
  6
CONTINUOUS
 10
126.7359055952
 20
249.2860815984
 11
126.5020814013
 21
249.2792243487
  0
LINE
  8
0
 62
7
  6
CONTINUOUS
 10
126.819441612
 20
253.8382589128
 11
126.3517932242
 21
253.8245444134
  0
LINE
  8
0
 62
7
  6
CONTINUOUS
 10
70.5810513965
 20
248.2872362055
 11
70.2030162678
 21
248.2911134924
  0
LINE
  8
0
 62
7
  6
CONTINUOUS
 10
85.2151121966
 20
251.9989387883
 11
85.5450089266
 21
251.9870335374
  0
LINE
  8
0
 62
7
  6
CONTINUOUS
 10
102.7236023414
 20
254.3974372201
 11
103.3477363099
 21
254.3645466531
  0
LINE
  8
0
 62
7
  6
CONTINUOUS
 10
105.9482929246
 20
254.2275027078
 11
106.8844938773
 21
254.1781668573
  0
LINE
  8
0
 62
7
  6
CONTINUOUS
 10
127.5048876113
 20
251.3939279014
 11
126.8490014342
 21
251.4694769888
  0
LINE
  8
0
 62
7
  6
CONTINUOUS
 10
107.7153327974
 20
254.0888700525
 11
111.4287628038
 21
253.5664357627
  0
LINE
  8
0
 62
7
  6
CONTINUOUS
 10
98.865015935
 20
254.3942080215
 11
99.3895389041
 21
254.3078250998
  0
LINE
  8
0
 62
7
  6
CONTINUOUS
 10
85.5222467357
 20
252.4245374447
 11
85.2921066356
 21
252.4664339412
  0
LINE
  8
0
 62
7
  6
CONTINUOUS
 10
125.8521089057
 20
248.8810162205
 11
126.2741708929
 21
248.7986098919
  0
LINE
  8
0
 62
7
  6
CONTINUOUS
 10
142.1120194041
 20
240.2611407277
 11
142.482878504
 21
240.1877301026
  0
LINE
  8
0
 62
7
  6
CONTINUOUS
 10
142.788830599
 20
240.6351427297
 11
142.0471123992
 21
240.78196398
  0
LINE
  8
0
 62
7
  6
CONTINUOUS
 10
143.4007416922
 20
241.5299613972
 11
143.7716007921
 21
241.4565507721
  0
LINE
  8
0
 62
7
  6
CONTINUOUS
 10
99.3651236859
 20
254.9456558524
 11
98.9446919469
 21
255.0360232231
  0
LINE
  8
0
 62
7
  6
CONTINUOUS
 10
126.5020814013
 20
249.2792243487
 11
125.985896215
 21
249.4062645223
  0
LINE
  8
0
 62
7
  6
CONTINUOUS
 10
144.077552887
 20
241.9039633992
 11
143.4847256778
 21
242.0511910084
  0
LINE
  8
0
 62
7
  6
CONTINUOUS
 10
86.4138713225
 20
255.2475956406
 11
85.8232053661
 21
255.4032756982
  0
LINE
  8
0
 62
7
  6
CONTINUOUS
 10
136.3090002714
 20
246.0458966305
 11
135.9926607303
 21
246.1402517056
  0
LINE
  8
0
 62
7
  6
CONTINUOUS
 10
85.845965255
 20
254.9657711669
 11
86.2064911113
 21
254.8519876058
  0
LINE
  8
0
 62
7
  6
CONTINUOUS
 10
117.1169705761
 20
252.2608797671
 11
121.0749895904
 21
250.9588876981
  0
LINE
  8
0
 62
7
  6
CONTINUOUS
 10
122.422353808
 20
250.3956710271
 11
123.002259015
 21
250.1625724409
  0
LINE
  8
0
 62
7
  6
CONTINUOUS
 10
98.4405173748
 20
254.5908806244
 11
98.865015935
 21
254.3942080215
  0
LINE
  8
0
 62
7
  6
CONTINUOUS
 10
100.9800305798
 20
259.0529859134
 11
100.5555296383
 21
259.2496583972
  0
LINE
  8
0
 62
7
  6
CONTINUOUS
 10
125.0991448231
 20
249.2380766969
 11
125.8521089057
 21
248.8810162205
  0
LINE
  8
0
 62
7
  6
CONTINUOUS
 10
142.0684118499
 20
237.8793083669
 11
141.773359931
 21
238.0273554897
  0
LINE
  8
0
 62
7
  6
CONTINUOUS
 10
142.482878504
 20
240.1877301026
 11
142.777930423
 21
240.0396829797
  0
LINE
  8
0
 62
7
  6
CONTINUOUS
 10
100.4758560063
 20
258.6078433519
 11
100.7962657181
 21
258.4071864098
  0
LINE
  8
0
 62
7
  6
CONTINUOUS
 10
141.3212401637
 20
237.7284030879
 11
141.7624530177
 21
237.4319024898
  0
LINE
  8
0
 62
7
  6
CONTINUOUS
 10
132.2059211554
 20
245.3080147166
 11
132.7153240388
 21
244.9458908395
  0
LINE
  8
0
 62
7
  6
CONTINUOUS
 10
125.4211742301
 20
249.6740593688
 11
124.9961575445
 21
249.9933432584
  0
LINE
  8
0
 62
7
  6
CONTINUOUS
 10
124.7682470361
 20
249.5127288016
 11
125.0991448231
 21
249.2380766969
  0
LINE
  8
0
 62
7
  6
CONTINUOUS
 10
136.0105899382
 20
242.5666527119
 11
136.4861682503
 21
242.1611280283
  0
LINE
  8
0
 62
7
  6
CONTINUOUS
 10
138.7055324976
 20
240.2686805362
 11
139.1811108097
 21
239.8631558526
  0
LINE
  8
0
 62
7
  6
CONTINUOUS
 10
150.4145972993
 20
227.9456911712
 11
159.871202444
 21
218.9717079675
  0
LINE
  8
0
 62
7
  6
CONTINUOUS
 10
140.9558344972
 20
238.0995401901
 11
141.3212401637
 21
237.7284030879
  0
LINE
  8
0
 62
7
  6
CONTINUOUS
 10
127.8902359142
 20
250.5047639841
 11
127.5108013247
 21
250.9201707532
  0
LINE
  8
0
 62
7
  6
CONTINUOUS
 10
124.4829270447
 20
249.8835058457
 11
124.7682470361
 21
249.5127288016
  0
LINE
  8
0
 62
7
  6
CONTINUOUS
 10
124.9961575445
 20
249.9933432584
 11
124.8534975428
 21
250.1787317678
  0
LINE
  8
0
 62
7
  6
CONTINUOUS
 10
128.6106811637
 20
252.7533650274
 11
128.3253654688
 21
253.1241400032
  0
LINE
  8
0
 62
7
  6
CONTINUOUS
 10
140.6662293275
 20
238.5453205924
 11
140.9558344972
 21
238.0995401901
  0
LINE
  8
0
 62
7
  6
CONTINUOUS
 10
128.0033360936
 20
252.6881573987
 11
128.1945328939
 21
252.3620142162
  0
LINE
  8
0
 62
7
  6
CONTINUOUS
 10
141.2617866453
 20
238.5469528695
 11
141.1183490881
 21
238.8442729877
  0
LINE
  8
0
 62
7
  6
CONTINUOUS
 10
143.2895037087
 20
239.5200856
 11
143.4329412658
 21
239.2227654818
  0
LINE
  8
0
 62
7
  6
CONTINUOUS
 10
137.6580756332
 20
247.0447290066
 11
137.5033893046
 21
247.546264594
  0
LINE
  8
0
 62
7
  6
CONTINUOUS
 10
144.0230451037
 20
238.9266712361
 11
143.8850542892
 21
239.5217246272
  0
LINE
  8
0
 62
7
  6
CONTINUOUS
 10
145.2386835822
 20
240.2697220444
 11
145.1006994585
 21
240.8647686396
  0
LINE
  8
0
 62
7
  6
CONTINUOUS
 10
143.4329412658
 20
239.2227654818
 11
143.500571642
 21
238.850808866
  0
LINE
  8
0
 62
7
  6
CONTINUOUS
 10
144.6485797442
 20
240.56581629
 11
144.7162101204
 21
240.1938596742
  0
LINE
  8
0
 62
7
  6
CONTINUOUS
 10
70.2030162678
 20
248.2911134924
 11
69.8839474969
 21
248.2064452875
  0
LINE
  8
0
 62
7
  6
CONTINUOUS
 10
99.1982863615
 20
259.3041660074
 11
98.6819017979
 21
259.1779386938
  0
LINE
  8
0
 62
7
  6
CONTINUOUS
 10
88.4777253484
 20
252.7280315356
 11
89.0884159947
 21
252.861004971
  0
LINE
  8
0
 62
7
  6
CONTINUOUS
 10
91.3276158076
 20
253.3485744032
 11
91.9383064539
 21
253.4815478386
  0
LINE
  8
0
 62
7
  6
CONTINUOUS
 10
91.2140256372
 20
256.8078627429
 11
90.6033349909
 21
256.6748893075
  0
LINE
  8
0
 62
7
  6
CONTINUOUS
 10
88.364135178
 20
256.1873198753
 11
87.7534445317
 21
256.0543464399
  0
LINE
  8
0
 62
7
  6
CONTINUOUS
 10
85.2168009294
 20
254.8877033317
 11
85.845965255
 21
254.9657711669
  0
LINE
  8
0
 62
7
  6
CONTINUOUS
 10
85.8232053661
 20
255.4032756982
 11
85.1940410405
 21
255.325207863
  0
LINE
  8
0
 62
7
  6
CONTINUOUS
 10
99.3895389041
 20
254.3078250998
 11
100.2222615945
 21
254.3397004932
  0
LINE
  8
0
 62
7
  6
CONTINUOUS
 10
100.1978463764
 20
254.9775312457
 11
99.3651236859
 21
254.9456558524
  0
LINE
  8
0
 62
7
  6
CONTINUOUS
 10
99.2227015768
 20
258.6663353293
 11
100.0554242673
 21
258.6982107226
  0
LINE
  8
0
 62
7
  6
CONTINUOUS
 10
100.031009052
 20
259.3360414008
 11
99.1982863615
 21
259.3041660074
  0
LINE
  8
0
 62
7
  6
CONTINUOUS
 10
107.147618413
 20
259.1712386052
 11
106.5234844445
 21
259.2041291721
  0
LINE
  8
0
 62
7
  6
CONTINUOUS
 10
103.9229278298
 20
259.3411731175
 11
102.986726877
 21
259.3905089679
  0
LINE
  8
0
 62
7
  6
CONTINUOUS
 10
111.5176877891
 20
254.1985089537
 11
108.4231627837
 21
254.6338708618
  0
LINE
  8
0
 62
7
  6
CONTINUOUS
 10
108.6602960812
 20
256.3193993958
 11
111.3422193265
 21
255.9420855206
  0
LINE
  8
0
 62
7
  6
CONTINUOUS
 10
111.4311443014
 20
256.5741586379
 11
108.7492210561
 21
256.9514725131
  0
LINE
  8
0
 62
7
  6
CONTINUOUS
 10
108.9418918766
 20
258.3209645622
 11
112.036416882
 21
257.885602654
  0
LINE
  8
0
 62
7
  6
CONTINUOUS
 10
112.1253418569
 20
258.5176757713
 11
108.4119118504
 21
259.0401100611
  0
LINE
  8
0
 62
7
  6
CONTINUOUS
 10
100.5555296383
 20
259.2496583972
 11
100.031009052
 21
259.3360414008
  0
LINE
  8
0
 62
7
  6
CONTINUOUS
 10
100.0554242673
 20
258.6982107226
 11
100.4758560063
 21
258.6078433519
  0
LINE
  8
0
 62
7
  6
CONTINUOUS
 10
126.6856500261
 20
253.3130127216
 11
127.2018352124
 21
253.185972548
  0
LINE
  8
0
 62
7
  6
CONTINUOUS
 10
127.5238645876
 20
253.6219551525
 11
126.819441612
 21
253.8382589128
  0
LINE
  8
0
 62
7
  6
CONTINUOUS
 10
121.2744437702
 20
251.5652227556
 11
117.9101278345
 21
252.6719159398
  0
LINE
  8
0
 62
7
  6
CONTINUOUS
 10
118.5131498577
 20
256.5052252405
 11
121.9764147967
 21
255.3659827389
  0
LINE
  8
0
 62
7
  6
CONTINUOUS
 10
122.6373806692
 20
255.7085123272
 11
118.6793616548
 21
257.0105043961
  0
LINE
  8
0
 62
7
  6
CONTINUOUS
 10
124.8670477051
 20
254.8018140967
 11
124.2871424981
 21
255.034912683
  0
LINE
  8
0
 62
7
  6
CONTINUOUS
 10
135.5379329489
 20
245.6803635835
 11
136.0240747466
 21
245.4652996285
  0
LINE
  8
0
 62
7
  6
CONTINUOUS
 10
125.985896215
 20
249.4062645223
 11
125.4211742301
 21
249.6740593688
  0
LINE
  8
0
 62
7
  6
CONTINUOUS
 10
124.7534649667
 20
250.6971207767
 11
124.2828618765
 21
250.9202838299
  0
LINE
  8
0
 62
7
  6
CONTINUOUS
 10
126.2901931627
 20
251.2635146871
 11
126.6666730498
 21
251.0849854705
  0
LINE
  8
0
 62
7
  6
CONTINUOUS
 10
126.8490014342
 20
251.4694769888
 11
126.4725215471
 21
251.6480062054
  0
LINE
  8
0
 62
7
  6
CONTINUOUS
 10
125.5165376737
 20
253.2787223868
 11
125.9871364554
 21
253.0555613768
  0
LINE
  8
0
 62
7
  6
CONTINUOUS
 10
127.2018352124
 20
253.185972548
 11
127.5783150995
 21
253.0074433314
  0
LINE
  8
0
 62
7
  6
CONTINUOUS
 10
127.7121066854
 20
253.5326895227
 11
127.5238645876
 21
253.6219551525
  0
LINE
  8
0
 62
7
  6
CONTINUOUS
 10
143.7716007921
 20
241.4565507721
 11
144.066652711
 21
241.3085036492
  0
LINE
  8
0
 62
7
  6
CONTINUOUS
 10
128.3253654688
 20
253.1241400032
 11
127.7121066854
 21
253.5326895227
  0
LINE
  8
0
 62
7
  6
CONTINUOUS
 10
143.2300501372
 20
240.3386353293
 11
142.788830599
 21
240.6351427297
  0
LINE
  8
0
 62
7
  6
CONTINUOUS
 10
144.5187724252
 20
241.6074559988
 11
144.077552887
 21
241.9039633992
  0
LINE
  8
0
 62
7
  6
CONTINUOUS
 10
126.6666730498
 20
251.0849854705
 11
127.1858129386
 21
250.7210677444
  0
LINE
  8
0
 62
7
  6
CONTINUOUS
 10
134.0097242986
 20
246.7667352147
 11
135.5379329489
 21
245.6803635835
  0
LINE
  8
0
 62
7
  6
CONTINUOUS
 10
135.9926607303
 20
246.1402517056
 11
134.3795528949
 21
247.2869763954
  0
LINE
  8
0
 62
7
  6
CONTINUOUS
 10
135.3041245583
 20
248.5875795899
 11
136.9172323938
 21
247.4408549001
  0
LINE
  8
0
 62
7
  6
CONTINUOUS
 10
137.1405237056
 20
247.9347422759
 11
135.1029121718
 21
249.3832377842
  0
LINE
  8
0
 62
7
  6
CONTINUOUS
 10
127.5783150995
 20
253.0074433314
 11
128.0033360936
 21
252.6881573987
  0
LINE
  8
0
 62
7
  6
CONTINUOUS
 10
137.6315249836
 20
242.8621732675
 11
139.2167872336
 21
241.5104232908
  0
LINE
  8
0
 62
7
  6
CONTINUOUS
 10
139.4136272704
 20
241.9018076679
 11
137.9868923339
 21
243.1183817187
  0
LINE
  8
0
 62
7
  6
CONTINUOUS
 10
141.1571006556
 20
244.7491804748
 11
140.5229950299
 21
245.2898810842
  0
LINE
  8
0
 62
7
  6
CONTINUOUS
 10
141.773359931
 20
238.0273554897
 11
141.2617866453
 21
238.5469528695
  0
LINE
  8
0
 62
7
  6
CONTINUOUS
 10
142.777930423
 20
240.0396829797
 11
143.2895037087
 21
239.5200856
  0
LINE
  8
0
 62
7
  6
CONTINUOUS
 10
143.5954558037
 20
239.9674982271
 11
143.2300501372
 21
240.3386353293
  0
LINE
  8
0
 62
7
  6
CONTINUOUS
 10
144.6349495061
 20
239.8214966994
 11
145.0003618634
 21
239.4503528014
  0
LINE
  8
0
 62
7
  6
CONTINUOUS
 10
144.066652711
 20
241.3085036492
 11
144.5051421871
 21
240.8631364082
  0
LINE
  8
0
 62
7
  6
CONTINUOUS
 10
144.8110942821
 20
241.3105490353
 11
144.5187724252
 21
241.6074559988
  0
LINE
  8
0
 62
7
  6
CONTINUOUS
 10
137.5033893046
 20
247.546264594
 11
137.1405237056
 21
247.9347422759
  0
LINE
  8
0
 62
7
  6
CONTINUOUS
 10
136.9172323938
 20
247.4408549001
 11
137.1102957361
 21
247.1730860982
  0
LINE
  8
0
 62
7
  6
CONTINUOUS
 10
143.8850542892
 20
239.5217246272
 11
143.5954558037
 21
239.9674982271
  0
LINE
  8
0
 62
7
  6
CONTINUOUS
 10
145.1006994585
 20
240.8647686396
 11
144.8110942821
 21
241.3105490353
  0
LINE
  8
0
 62
7
  6
CONTINUOUS
 10
147.0051770403
 20
239.2563176583
 11
152.7551770403
 21
229.2970255148
  0
LINE
  8
0
 62
7
  6
CONTINUOUS
 10
154.4872278478
 20
230.2970255148
 11
148.7372278478
 21
240.2563176583
  0
LINE
  8
0
 62
7
  6
CONTINUOUS
 10
144.5051421871
 20
240.8631364082
 11
144.6485797442
 21
240.56581629
  0
LINE
  8
0
 62
7
  6
CONTINUOUS
 10
159.871202444
 20
218.9717079675
 11
156.8278075888
 21
231.6483598583
  0
LINE
  8
0
 62
7
  6
CONTINUOUS
 10
165.8626853611
 20
178.3183368384
 11
169.4087342316
 21
187.6684992653
  0
LINE
  8
0
 62
7
  6
CONTINUOUS
 10
165.0181554004
 20
174.681474297
 11
165.8610965411
 21
176.9041274159
  0
LINE
  8
0
 62
7
  6
CONTINUOUS
 10
170.3453405253
 20
188.7281070467
 11
171.2946619011
 21
191.2312617925
  0
LINE
  8
0
 62
7
  6
CONTINUOUS
 10
148.7568404548
 20
151.0085478656
 11
156.2419479365
 21
157.639774448
  0
LINE
  8
0
 62
7
  6
CONTINUOUS
 10
146.3189120157
 20
148.180738656
 11
148.0982135933
 21
149.7570623025
  0
LINE
  8
0
 62
7
  6
CONTINUOUS
 10
157.5636959123
 20
158.1427478951
 11
159.5675522583
 21
159.9180097069
  0
LINE
  8
0
 62
7
  6
CONTINUOUS
 10
98.909678217
 20
266.6240128129
 11
88.909678217
 21
266.6240128129
  0
LINE
  8
0
 62
7
  6
CONTINUOUS
 10
102.609678217
 20
267.1240128129
 11
100.2325520599
 21
267.1240128129
  0
LINE
  8
0
 62
7
  6
CONTINUOUS
 10
87.5868025614
 20
267.1240128129
 11
84.909678217
 21
267.1240128129
  0
LINE
  8
0
 62
7
  6
CONTINUOUS
 10
130.5105906917
 20
260.3139546144
 11
121.6560304352
 21
264.9611863349
  0
LINE
  8
0
 62
7
  6
CONTINUOUS
 10
134.0191395726
 20
259.0372068907
 11
131.9142968603
 21
260.1419135656
  0
LINE
  8
0
 62
7
  6
CONTINUOUS
 10
120.7170438008
 20
266.0186853186
 11
118.3465679186
 21
267.2628070359
  0
LINE
  8
0
 62
7
  6
CONTINUOUS
 10
155.5593787968
 20
240.0409992757
 11
149.8787313295
 21
248.2708379346
  0
LINE
  8
0
 62
7
  6
CONTINUOUS
 10
158.0727102926
 20
237.2799913452
 11
156.7223504394
 21
239.2363253349
  0
LINE
  8
0
 62
7
  6
CONTINUOUS
 10
149.5387442382
 20
249.6435756291
 11
148.0179642755
 21
251.8468057715
  0
LINE
  8
0
 62
7
  6
CONTINUOUS
 10
168.317667048
 20
210.4494365491
 11
167.1123002455
 21
220.3765252901
  0
LINE
  8
0
 62
7
  6
CONTINUOUS
 10
169.260007202
 20
206.8366820551
 11
168.9734763705
 21
209.1964757588
  0
LINE
  8
0
 62
7
  6
CONTINUOUS
 10
167.4491999377
 20
221.7500216029
 11
167.1265079615
 21
224.4076291266
  0
LINE
  8
0
 62
7
  6
CONTINUOUS
 10
183.7083577004
 20
199.82880822
 11
183.6459722573
 21
202.5917421305
  0
LINE
  8
0
 62
7
  6
CONTINUOUS
 10
174.554813052
 20
161.7618269082
 11
175.7835728966
 21
164.2372753488
  0
LINE
  8
0
 62
7
  6
CONTINUOUS
 10
148.7591434816
 20
132.3090532318
 11
150.9975545416
 21
133.929920797
  0
LINE
  8
0
 62
7
  6
CONTINUOUS
 10
111.3080129659
 20
280.6223127209
 11
108.5577042202
 21
280.8934170193
  0
LINE
  8
0
 62
7
  6
CONTINUOUS
 10
147.9941052397
 20
266.9470401643
 11
145.6848162379
 21
268.4652233034
  0
LINE
  8
0
 62
7
  6
CONTINUOUS
 10
174.1228106601
 20
237.7893105053
 11
172.7835716826
 21
240.2067750239
  0
POLYLINE
  8
0
 62
7
  6
CONTINUOUS
 66
1
 70
0
  0
VERTEX
  8
0
 62
7
  6
CONTINUOUS
 10
21.7359602405
 20
68.839612988
  0
VERTEX
  8
0
 62
7
  6
CONTINUOUS
 10
21.7479715507
 20
68.7170700603
  0
VERTEX
  8
0
 62
7
  6
CONTINUOUS
 10
21.7735725983
 20
68.6016563223
  0
VERTEX
  8
0
 62
7
  6
CONTINUOUS
 10
21.8109074541
 20
68.4941279569
  0
VERTEX
  8
0
 62
7
  6
CONTINUOUS
 10
21.8583215718
 20
68.3949395435
  0
VERTEX
  8
0
 62
7
  6
CONTINUOUS
 10
21.9143781575
 20
68.3043138082
  0
VERTEX
  8
0
 62
7
  6
CONTINUOUS
 10
21.9778577859
 20
68.222315688
  0
VERTEX
  8
0
 62
7
  6
CONTINUOUS
 10
22.0470588041
 20
68.1495676235
  0
VERTEX
  8
0
 62
7
  6
CONTINUOUS
 10
22.1197546133
 20
68.0867331691
  0
VERTEX
  8
0
 62
7
  6
CONTINUOUS
 10
22.1938507501
 20
68.0338148051
  0
VERTEX
  8
0
 62
7
  6
CONTINUOUS
 10
22.2670863857
 20
67.9905336619
  0
VERTEX
  8
0
 62
7
  6
CONTINUOUS
 10
22.3378682885
 20
67.9559254675
  0
VERTEX
  8
0
 62
7
  6
CONTINUOUS
 10
22.4024833448
 20
67.9296718217
  0
VERTEX
  8
0
 62
7
  6
CONTINUOUS
 10
22.4588266688
 20
67.9103054696
  0
VERTEX
  8
0
 62
7
  6
CONTINUOUS
 10
22.5107518654
 20
67.894776683
  0
VERTEX
  8
0
 62
7
  6
CONTINUOUS
 10
22.5620526249
 20
67.8810218394
  0
VERTEX
  8
0
 62
7
  6
CONTINUOUS
 10
22.6170002245
 20
67.8674698825
  0
VERTEX
  8
0
 62
7
  6
CONTINUOUS
 10
22.6778377482
 20
67.8534025296
  0
SEQEND
  0
LINE
  8
0
 62
7
  6
CONTINUOUS
 10
21.7353049858
 20
68.875830432
 11
21.7359602405
 21
68.839612988
  0
LINE
  8
0
 62
7
  6
CONTINUOUS
 10
21.7353036538
 20
74.750421701
 11
21.7353036538
 21
68.8753988679
  0
POLYLINE
  8
0
 62
7
  6
CONTINUOUS
 66
1
 70
0
  0
VERTEX
  8
0
 62
7
  6
CONTINUOUS
 10
38.1369938844
 20
68.8399771593
  0
VERTEX
  8
0
 62
7
  6
CONTINUOUS
 10
38.1543266223
 20
68.6534203693
  0
VERTEX
  8
0
 62
7
  6
CONTINUOUS
 10
38.2026937626
 20
68.481042133
  0
VERTEX
  8
0
 62
7
  6
CONTINUOUS
 10
38.2753950465
 20
68.3285034304
  0
VERTEX
  8
0
 62
7
  6
CONTINUOUS
 10
38.364576325
 20
68.1992747991
  0
VERTEX
  8
0
 62
7
  6
CONTINUOUS
 10
38.4633504977
 20
68.0932026606
  0
VERTEX
  8
0
 62
7
  6
CONTINUOUS
 10
38.5665605943
 20
68.0080956424
  0
VERTEX
  8
0
 62
7
  6
CONTINUOUS
 10
38.6702974161
 20
67.9410918537
  0
VERTEX
  8
0
 62
7
  6
CONTINUOUS
 10
38.7732330669
 20
67.8882232991
  0
VERTEX
  8
0
 62
7
  6
CONTINUOUS
 10
38.8757860031
 20
67.8455619096
  0
VERTEX
  8
0
 62
7
  6
CONTINUOUS
 10
38.9822725765
 20
67.8088041626
  0
VERTEX
  8
0
 62
7
  6
CONTINUOUS
 10
39.099483131
 20
67.7744179747
  0
VERTEX
  8
0
 62
7
  6
CONTINUOUS
 10
39.1955787437
 20
67.7495481666
  0
SEQEND
  0
LINE
  8
0
 62
7
  6
CONTINUOUS
 10
38.1369908208
 20
74.7861805888
 11
38.1369908208
 21
68.8396399801
  0
LINE
  8
0
 62
7
  6
CONTINUOUS
 10
43.0821285861
 20
76.4629102845
 11
43.0821285861
 21
76.3129102845
  0
LINE
  8
0
 62
7
  6
CONTINUOUS
 10
43.0821285861
 20
67.3129102845
 11
43.0821285861
 21
67.1629102845
  0
LINE
  8
0
 62
7
  6
CONTINUOUS
 10
46.4915488452
 20
76.4629102845
 11
46.4915488452
 21
76.3129102845
  0
LINE
  8
0
 62
7
  6
CONTINUOUS
 10
46.4915488452
 20
67.3129102845
 11
46.4915488452
 21
67.1629102845
  0
LINE
  8
0
 62
7
  6
CONTINUOUS
 10
55.9481539899
 20
76.4629102845
 11
55.9481539899
 21
76.3129102845
  0
LINE
  8
0
 62
7
  6
CONTINUOUS
 10
55.9481539899
 20
67.3129102845
 11
55.9481539899
 21
67.1629102845
  0
POLYLINE
  8
0
 62
7
  6
CONTINUOUS
 66
1
 70
0
  0
VERTEX
  8
0
 62
7
  6
CONTINUOUS
 10
68.6900592828
 20
68.7729633482
  0
VERTEX
  8
0
 62
7
  6
CONTINUOUS
 10
68.6909487894
 20
68.7302390898
  0
VERTEX
  8
0
 62
7
  6
CONTINUOUS
 10
68.7138799293
 20
68.5530685042
  0
VERTEX
  8
0
 62
7
  6
CONTINUOUS
 10
68.7678972797
 20
68.3805759867
  0
VERTEX
  8
0
 62
7
  6
CONTINUOUS
 10
68.8500819045
 20
68.2216488303
  0
VERTEX
  8
0
 62
7
  6
CONTINUOUS
 10
68.9538630214
 20
68.0836919862
  0
VERTEX
  8
0
 62
7
  6
CONTINUOUS
 10
69.0702191522
 20
67.9708853898
  0
VERTEX
  8
0
 62
7
  6
CONTINUOUS
 10
69.1877421639
 20
67.8847298309
  0
VERTEX
  8
0
 62
7
  6
CONTINUOUS
 10
69.2378919994
 20
67.8542166948
  0
SEQEND
  0
LINE
  8
0
 62
7
  6
CONTINUOUS
 10
64.808219709
 20
67.3129102845
 11
64.808219709
 21
67.1629102845
  0
LINE
  8
0
 62
7
  6
CONTINUOUS
 10
65.2198425459
 20
67.3129102845
 11
65.2198425459
 21
67.1629102845
  0
LINE
  8
0
 62
7
  6
CONTINUOUS
 10
66.5234587086
 20
67.3129102845
 11
66.5234587086
 21
67.1629102845
  0
LINE
  8
0
 62
7
  6
CONTINUOUS
 10
66.8013256985
 20
67.3129102845
 11
66.8013256985
 21
67.1629102845
  0
LINE
  8
0
 62
7
  6
CONTINUOUS
 10
66.8663338641
 20
67.3129102845
 11
66.8663338641
 21
67.1629102845
  0
LINE
  8
0
 62
7
  6
CONTINUOUS
 10
66.909678217
 20
89.8129102845
 11
66.909678217
 21
77.8129102845
  0
LINE
  8
0
 62
7
  6
CONTINUOUS
 10
66.909678217
 20
65.8129102845
 11
66.909678217
 21
53.8129102845
  0
LINE
  8
0
 62
7
  6
CONTINUOUS
 10
67.2779567893
 20
67.3129102845
 11
67.2779567893
 21
67.1629102845
  0
LINE
  8
0
 62
7
  6
CONTINUOUS
 10
68.3233327704
 20
67.3129102845
 11
68.3233327704
 21
67.1629102845
  0
LINE
  8
0
 62
7
  6
CONTINUOUS
 10
68.6900562287
 20
74.8529233205
 11
68.6900562287
 21
68.7728972482
  0
LINE
  8
0
 62
7
  6
CONTINUOUS
 10
68.7568368749
 20
67.3129102845
 11
68.7568368749
 21
67.1629102845
  0
LINE
  8
0
 62
7
  6
CONTINUOUS
 10
69.0516686638
 20
67.3129102845
 11
69.0516686638
 21
67.1629102845
  0
LINE
  8
0
 62
7
  6
CONTINUOUS
 10
69.1071376397
 20
67.3129102845
 11
69.1071376397
 21
67.1629102845
  0
LINE
  8
0
 62
7
  6
CONTINUOUS
 10
69.2493070891
 20
67.3129102845
 11
69.2493070891
 21
67.1629102845
  0
LINE
  8
0
 62
7
  6
CONTINUOUS
 10
69.5371441141
 20
67.3129102845
 11
69.5371441141
 21
67.1629102845
  0
LINE
  8
0
 62
7
  6
CONTINUOUS
 10
69.8839474969
 20
67.3129102845
 11
69.8839474969
 21
67.1629102845
  0
LINE
  8
0
 62
7
  6
CONTINUOUS
 10
70.2030162678
 20
67.3129102845
 11
70.2030162678
 21
67.1629102845
  0
LINE
  8
0
 62
7
  6
CONTINUOUS
 10
70.5810513965
 20
67.3129102845
 11
70.5810513965
 21
67.1629102845
  0
LINE
  8
0
 62
7
  6
CONTINUOUS
 10
70.7816756754
 20
67.3129102845
 11
70.7816756754
 21
67.1629102845
  0
LINE
  8
0
 62
7
  6
CONTINUOUS
 10
71.2281037463
 20
67.3129102845
 11
71.2281037463
 21
67.1629102845
  0
LINE
  8
0
 62
7
  6
CONTINUOUS
 10
71.5020823352
 20
67.3129102845
 11
71.5020823352
 21
67.1629102845
  0
LINE
  8
0
 62
7
  6
CONTINUOUS
 10
71.5175178611
 20
67.3129102845
 11
71.5175178611
 21
67.1629102845
  0
LINE
  8
0
 62
7
  6
CONTINUOUS
 10
71.6036115954
 20
67.3129102845
 11
71.6036115954
 21
67.1629102845
  0
LINE
  8
0
 62
7
  6
CONTINUOUS
 10
72.0500396664
 20
67.3129102845
 11
72.0500396664
 21
67.1629102845
  0
LINE
  8
0
 62
7
  6
CONTINUOUS
 10
73.8035027885
 20
67.3129102845
 11
73.8035027885
 21
67.1629102845
  0
LINE
  8
0
 62
7
  6
CONTINUOUS
 10
77.0242103173
 20
67.3129102845
 11
77.0242103173
 21
67.1629102845
  0
LINE
  8
0
 62
7
  6
CONTINUOUS
 10
80.4836924834
 20
67.3129102845
 11
80.4836924834
 21
67.1629102845
  0
LINE
  8
0
 62
7
  6
CONTINUOUS
 10
80.7300299733
 20
67.3129102845
 11
80.7300299733
 21
67.1629102845
  0
LINE
  8
0
 62
7
  6
CONTINUOUS
 10
80.8793736761
 20
67.3129102845
 11
80.8793736761
 21
67.1629102845
  0
LINE
  8
0
 62
7
  6
CONTINUOUS
 10
81.1257111661
 20
67.3129102845
 11
81.1257111661
 21
67.1629102845
  0
POLYLINE
  8
0
 62
7
  6
CONTINUOUS
 66
1
 70
0
  0
VERTEX
  8
0
 62
7
  6
CONTINUOUS
 10
182.8820321524
 20
67.8945667086
  0
VERTEX
  8
0
 62
7
  6
CONTINUOUS
 10
183.0532520378
 20
67.9407206547
  0
VERTEX
  8
0
 62
7
  6
CONTINUOUS
 10
183.2152035114
 20
68.0173205884
  0
VERTEX
  8
0
 62
7
  6
CONTINUOUS
 10
183.3609738734
 20
68.1216615944
  0
VERTEX
  8
0
 62
7
  6
CONTINUOUS
 10
183.4857833308
 20
68.2503654997
  0
VERTEX
  8
0
 62
7
  6
CONTINUOUS
 10
183.5856093225
 20
68.3992938053
  0
VERTEX
  8
0
 62
7
  6
CONTINUOUS
 10
183.6572381832
 20
68.5636574983
  0
VERTEX
  8
0
 62
7
  6
CONTINUOUS
 10
183.6983653499
 20
68.7381716142
  0
VERTEX
  8
0
 62
7
  6
CONTINUOUS
 10
183.7083846514
 20
68.8793746209
  0
SEQEND
  0
LINE
  8
0
 62
7
  6
CONTINUOUS
 10
173.3644047929
 20
67.799504319
 11
173.4543450822
 21
67.8232484373
  0
LINE
  8
0
 62
7
  6
CONTINUOUS
 10
81.5286449121
 20
67.3129102845
 11
81.5286449121
 21
67.1629102845
  0
LINE
  8
0
 62
7
  6
CONTINUOUS
 10
82.019273544
 20
67.3129102845
 11
82.019273544
 21
67.1629102845
  0
LINE
  8
0
 62
7
  6
CONTINUOUS
 10
83.6972501264
 20
67.3129102845
 11
83.6972501264
 21
67.1629102845
  0
LINE
  8
0
 62
7
  6
CONTINUOUS
 10
83.9042377121
 20
67.3129102845
 11
83.9042377121
 21
67.1629102845
  0
LINE
  8
0
 62
7
  6
CONTINUOUS
 10
83.9812321672
 20
67.3129102845
 11
83.9812321672
 21
67.1629102845
  0
LINE
  8
0
 62
7
  6
CONTINUOUS
 10
84.1194871635
 20
67.3129102845
 11
84.1194871635
 21
67.1629102845
  0
LINE
  8
0
 62
7
  6
CONTINUOUS
 10
84.3574965037
 20
67.3129102845
 11
84.3574965037
 21
67.1629102845
  0
LINE
  8
0
 62
7
  6
CONTINUOUS
 10
84.626134973
 20
67.3129102845
 11
84.626134973
 21
67.1629102845
  0
LINE
  8
0
 62
7
  6
CONTINUOUS
 10
85.1940410405
 20
67.3129102845
 11
85.1940410405
 21
67.1629102845
  0
LINE
  8
0
 62
7
  6
CONTINUOUS
 10
85.8232053661
 20
67.3129102845
 11
85.8232053661
 21
67.1629102845
  0
LINE
  8
0
 62
7
  6
CONTINUOUS
 10
86.4138713225
 20
67.3129102845
 11
86.4138713225
 21
67.1629102845
  0
POLYLINE
  8
0
 62
7
  6
CONTINUOUS
 66
1
 70
0
  0
VERTEX
  8
0
 62
7
  6
CONTINUOUS
 10
69.2378940135
 20
75.7716050352
  0
VERTEX
  8
0
 62
7
  6
CONTINUOUS
 10
69.1925796659
 20
75.7441787402
  0
VERTEX
  8
0
 62
7
  6
CONTINUOUS
 10
69.0744645688
 20
75.658466419
  0
VERTEX
  8
0
 62
7
  6
CONTINUOUS
 10
68.9571545691
 20
75.5458176865
  0
VERTEX
  8
0
 62
7
  6
CONTINUOUS
 10
68.8523011548
 20
75.4076720642
  0
VERTEX
  8
0
 62
7
  6
CONTINUOUS
 10
68.7691162444
 20
75.2481881683
  0
VERTEX
  8
0
 62
7
  6
CONTINUOUS
 10
68.7143386514
 20
75.0748352034
  0
VERTEX
  8
0
 62
7
  6
CONTINUOUS
 10
68.6909931966
 20
74.8966343903
  0
VERTEX
  8
0
 62
7
  6
CONTINUOUS
 10
68.6900592829
 20
74.8528568483
  0
SEQEND
  0
LINE
  8
0
 62
7
  6
CONTINUOUS
 10
69.7072755273
 20
76.0423962398
 11
69.2376010403
 21
75.7714380595
  0
POLYLINE
  8
0
 62
7
  6
CONTINUOUS
 66
1
 70
0
  0
VERTEX
  8
0
 62
7
  6
CONTINUOUS
 10
148.9601334737
 20
67.3734217221
  0
VERTEX
  8
0
 62
7
  6
CONTINUOUS
 10
148.7895824337
 20
67.3280453264
  0
VERTEX
  8
0
 62
7
  6
CONTINUOUS
 10
148.6216030261
 20
67.3129309125
  0
SEQEND
  0
POLYLINE
  8
0
 62
7
  6
CONTINUOUS
 66
1
 70
0
  0
VERTEX
  8
0
 62
7
  6
CONTINUOUS
 10
173.1814828269
 20
67.7566700764
  0
VERTEX
  8
0
 62
7
  6
CONTINUOUS
 10
173.2605518829
 20
67.7744572311
  0
VERTEX
  8
0
 62
7
  6
CONTINUOUS
 10
173.3644047929
 20
67.799504319
  0
SEQEND
  0
LINE
  8
0
 62
7
  6
CONTINUOUS
 10
171.8847211055
 20
67.4727628254
 11
173.1815053509
 21
67.7566748169
  0
LINE
  8
0
 62
7
  6
CONTINUOUS
 10
182.873033583
 20
67.8928677148
 11
182.8820319592
 21
67.8945666603
  0
LINE
  8
0
 62
7
  6
CONTINUOUS
 10
171.4156567453
 20
67.3868403231
 11
171.8847139723
 21
67.4727614213
  0
LINE
  8
0
 62
7
  6
CONTINUOUS
 10
182.7727879644
 20
67.8750800408
 11
182.873033583
 21
67.8928677148
  0
LINE
  8
0
 62
7
  6
CONTINUOUS
 10
182.770699597
 20
67.8747118041
 11
180.446159993
 21
67.4648327542
  0
LINE
  8
0
 62
7
  6
CONTINUOUS
 10
68.4096974167
 20
52.3129102845
 11
135.4096590167
 21
52.3129102845
  0
POLYLINE
  8
0
 62
7
  6
CONTINUOUS
 66
1
 70
0
  0
VERTEX
  8
0
 62
7
  6
CONTINUOUS
 10
24.7422549964
 20
67.4660176857
  0
VERTEX
  8
0
 62
7
  6
CONTINUOUS
 10
25.2716581054
 20
67.3845960274
  0
VERTEX
  8
0
 62
7
  6
CONTINUOUS
 10
25.8846777441
 20
67.3286460053
  0
VERTEX
  8
0
 62
7
  6
CONTINUOUS
 10
26.4265441213
 20
67.3129104548
  0
SEQEND
  0
POLYLINE
  8
0
 62
7
  6
CONTINUOUS
 66
1
 70
0
  0
VERTEX
  8
0
 62
7
  6
CONTINUOUS
 10
40.2954591042
 20
67.4786484815
  0
VERTEX
  8
0
 62
7
  6
CONTINUOUS
 10
40.7229976019
 20
67.3903563864
  0
VERTEX
  8
0
 62
7
  6
CONTINUOUS
 10
41.2175225554
 20
67.3298629473
  0
VERTEX
  8
0
 62
7
  6
CONTINUOUS
 10
41.653655168
 20
67.3129104551
  0
SEQEND
  0
POLYLINE
  8
0
 62
7
  6
CONTINUOUS
 66
1
 70
0
  0
VERTEX
  8
0
 62
7
  6
CONTINUOUS
 10
22.6778377482
 20
67.8534025296
  0
VERTEX
  8
0
 62
7
  6
CONTINUOUS
 10
22.7460297669
 20
67.8384181849
  0
VERTEX
  8
0
 62
7
  6
CONTINUOUS
 10
22.8224051317
 20
67.8223186963
  0
VERTEX
  8
0
 62
7
  6
CONTINUOUS
 10
22.906937416
 20
67.805110827
  0
VERTEX
  8
0
 62
7
  6
CONTINUOUS
 10
22.9989819012
 20
67.7869291527
  0
VERTEX
  8
0
 62
7
  6
CONTINUOUS
 10
23.0973853524
 20
67.768001114
  0
VERTEX
  8
0
 62
7
  6
CONTINUOUS
 10
24.7422541328
 20
67.4660176794
  0
SEQEND
  0
LINE
  8
0
 62
7
  6
CONTINUOUS
 10
39.1954698864
 20
67.7495744771
 11
40.2954437807
 21
67.4786520904
  0
LINE
  8
0
 62
7
  6
CONTINUOUS
 10
69.7075935688
 20
67.5832411217
 11
70.0193453146
 21
67.4354720389
  0
LINE
  8
0
 62
7
  6
CONTINUOUS
 10
69.2376010469
 20
67.8543825056
 11
69.7072755273
 21
67.5834243292
  0
LINE
  8
0
 62
7
  6
CONTINUOUS
 10
86.8356554368
 20
67.3129102845
 11
86.8356554368
 21
67.1629102845
  0
LINE
  8
0
 62
7
  6
CONTINUOUS
 10
87.0579285801
 20
67.3129102845
 11
87.0579285801
 21
67.1629102845
  0
LINE
  8
0
 62
7
  6
CONTINUOUS
 10
87.1804451391
 20
67.3129102845
 11
87.1804451391
 21
67.1629102845
  0
LINE
  8
0
 62
7
  6
CONTINUOUS
 10
87.3642199132
 20
67.3129102845
 11
87.3642199132
 21
67.1629102845
  0
LINE
  8
0
 62
7
  6
CONTINUOUS
 10
87.3869798235
 20
67.3129102845
 11
87.3869798235
 21
67.1629102845
  0
LINE
  8
0
 62
7
  6
CONTINUOUS
 10
87.7534445317
 20
67.3129102845
 11
87.7534445317
 21
67.1629102845
  0
LINE
  8
0
 62
7
  6
CONTINUOUS
 10
88.364135178
 20
67.3129102845
 11
88.364135178
 21
67.1629102845
  0
LINE
  8
0
 62
7
  6
CONTINUOUS
 10
89.7779729757
 20
67.3129102845
 11
89.7779729757
 21
67.1629102845
  0
LINE
  8
0
 62
7
  6
CONTINUOUS
 10
90.6033349909
 20
67.3129102845
 11
90.6033349909
 21
67.1629102845
  0
LINE
  8
0
 62
7
  6
CONTINUOUS
 10
91.2140256372
 20
67.3129102845
 11
91.2140256372
 21
67.1629102845
  0
LINE
  8
0
 62
7
  6
CONTINUOUS
 10
91.9383064539
 20
67.3129102845
 11
91.9383064539
 21
67.1629102845
  0
POLYLINE
  8
0
 62
7
  6
CONTINUOUS
 66
1
 70
0
  0
VERTEX
  8
0
 62
7
  6
CONTINUOUS
 10
70.0193453146
 20
67.4354720389
  0
VERTEX
  8
0
 62
7
  6
CONTINUOUS
 10
70.3796018576
 20
67.3382934777
  0
VERTEX
  8
0
 62
7
  6
CONTINUOUS
 10
70.6842397526
 20
67.3129105838
  0
SEQEND
  0
LINE
  8
0
 62
7
  6
CONTINUOUS
 10
97.5979458503
 20
67.3129102845
 11
97.5979458503
 21
67.1629102845
  0
LINE
  8
0
 62
7
  6
CONTINUOUS
 10
97.6816910559
 20
67.3129102845
 11
97.6816910559
 21
67.1629102845
  0
LINE
  8
0
 62
7
  6
CONTINUOUS
 10
97.8735943227
 20
67.3129102845
 11
97.8735943227
 21
67.1629102845
  0
POLYLINE
  8
0
 62
7
  6
CONTINUOUS
 66
1
 70
0
  0
VERTEX
  8
0
 62
7
  6
CONTINUOUS
 10
148.6216262805
 20
67.3129341446
  0
VERTEX
  8
0
 62
7
  6
CONTINUOUS
 10
148.74008615
 20
67.3206428082
  0
VERTEX
  8
0
 62
7
  6
CONTINUOUS
 10
148.9314692557
 20
67.3634388869
  0
VERTEX
  8
0
 62
7
  6
CONTINUOUS
 10
149.109820332
 20
67.4413503899
  0
VERTEX
  8
0
 62
7
  6
CONTINUOUS
 10
149.269185005
 20
67.5509571134
  0
VERTEX
  8
0
 62
7
  6
CONTINUOUS
 10
149.4041078505
 20
67.6878744454
  0
VERTEX
  8
0
 62
7
  6
CONTINUOUS
 10
149.5099909125
 20
67.8469053193
  0
VERTEX
  8
0
 62
7
  6
CONTINUOUS
 10
149.5832344064
 20
68.0220636382
  0
VERTEX
  8
0
 62
7
  6
CONTINUOUS
 10
149.6214887896
 20
68.2066732077
  0
VERTEX
  8
0
 62
7
  6
CONTINUOUS
 10
149.627245242
 20
68.3129504936
  0
SEQEND
  0
POLYLINE
  8
0
 62
7
  6
CONTINUOUS
 66
1
 70
0
  0
VERTEX
  8
0
 62
7
  6
CONTINUOUS
 10
146.4280077869
 20
67.3129104613
  0
VERTEX
  8
0
 62
7
  6
CONTINUOUS
 10
146.7556096915
 20
67.3333998823
  0
VERTEX
  8
0
 62
7
  6
CONTINUOUS
 10
147.1382737265
 20
67.409871883
  0
SEQEND
  0
POLYLINE
  8
0
 62
7
  6
CONTINUOUS
 66
1
 70
0
  0
VERTEX
  8
0
 62
7
  6
CONTINUOUS
 10
170.4113713779
 20
67.3129104445
  0
VERTEX
  8
0
 62
7
  6
CONTINUOUS
 10
170.879727122
 20
67.3289383311
  0
VERTEX
  8
0
 62
7
  6
CONTINUOUS
 10
171.4156567453
 20
67.3868403231
  0
SEQEND
  0
LINE
  8
0
 62
7
  6
CONTINUOUS
 10
98.273680049
 20
67.3129102845
 11
98.273680049
 21
67.1629102845
  0
LINE
  8
0
 62
7
  6
CONTINUOUS
 10
98.6819017979
 20
67.3129102845
 11
98.6819017979
 21
67.1629102845
  0
LINE
  8
0
 62
7
  6
CONTINUOUS
 10
99.1982863615
 20
67.3129102845
 11
99.1982863615
 21
67.1629102845
  0
LINE
  8
0
 62
7
  6
CONTINUOUS
 10
100.031009052
 20
67.3129102845
 11
100.031009052
 21
67.1629102845
  0
LINE
  8
0
 62
7
  6
CONTINUOUS
 10
100.5555296383
 20
67.3129102845
 11
100.5555296383
 21
67.1629102845
  0
LINE
  8
0
 62
7
  6
CONTINUOUS
 10
100.9800305798
 20
67.3129102845
 11
100.9800305798
 21
67.1629102845
  0
LINE
  8
0
 62
7
  6
CONTINUOUS
 10
101.4126699264
 20
67.3129102845
 11
101.4126699264
 21
67.1629102845
  0
LINE
  8
0
 62
7
  6
CONTINUOUS
 10
101.6371268136
 20
67.3129102845
 11
101.6371268136
 21
67.1629102845
  0
LINE
  8
0
 62
7
  6
CONTINUOUS
 10
101.7615640675
 20
67.3129102845
 11
101.7615640675
 21
67.1629102845
  0
LINE
  8
0
 62
7
  6
CONTINUOUS
 10
101.8226021114
 20
67.3129102845
 11
101.8226021114
 21
67.1629102845
  0
LINE
  8
DEFAULT_1
 62
2
  6
CENTER
 10
101.909678217
 20
50.3129102845
 11
101.909678217
 21
93.3129102845
  0
LINE
  8
0
 62
7
  6
CONTINUOUS
 10
102.7236023414
 20
67.3129102845
 11
102.7236023414
 21
67.1629102845
  0
LINE
  8
0
 62
7
  6
CONTINUOUS
 10
102.986726877
 20
67.3129102845
 11
102.986726877
 21
67.1629102845
  0
LINE
  8
0
 62
7
  6
CONTINUOUS
 10
159.871202444
 20
67.1629102845
 11
147.0051770403
 21
67.1629102845
  0
LINE
  8
0
 62
7
  6
CONTINUOUS
 10
145.2386835822
 20
67.1629102845
 11
132.2059211554
 21
67.1629102845
  0
LINE
  8
0
 62
7
  6
CONTINUOUS
 10
128.8048369748
 20
67.1629102845
 11
117.1169705761
 21
67.1629102845
  0
LINE
  8
0
 62
7
  6
CONTINUOUS
 10
112.1253418569
 20
67.1629102845
 11
107.7153327974
 21
67.1629102845
  0
LINE
  8
0
 62
7
  6
CONTINUOUS
 10
107.147618413
 20
67.1629102845
 11
102.7236023414
 21
67.1629102845
  0
LINE
  8
0
 62
7
  6
CONTINUOUS
 10
101.8226021114
 20
67.1629102845
 11
97.5979458503
 21
67.1629102845
  0
LINE
  8
0
 62
7
  6
CONTINUOUS
 10
91.9383064539
 20
67.1629102845
 11
87.7534445317
 21
67.1629102845
  0
LINE
  8
0
 62
7
  6
CONTINUOUS
 10
87.3869798235
 20
67.1629102845
 11
83.9042377121
 21
67.1629102845
  0
LINE
  8
0
 62
7
  6
CONTINUOUS
 10
83.6972501264
 20
67.1629102845
 11
81.5286449121
 21
67.1629102845
  0
LINE
  8
0
 62
7
  6
CONTINUOUS
 10
81.1257111661
 20
67.1629102845
 11
77.0242103173
 21
67.1629102845
  0
LINE
  8
0
 62
7
  6
CONTINUOUS
 10
73.8035027885
 20
67.1629102845
 11
64.808219709
 21
67.1629102845
  0
LINE
  8
0
 62
7
  6
CONTINUOUS
 10
55.9481539899
 20
67.1629102845
 11
43.0821285861
 21
67.1629102845
  0
LINE
  8
0
 62
7
  6
CONTINUOUS
 10
178.7096742613
 20
67.3129102845
 11
26.4265620021
 21
67.3129102845
  0
LINE
  8
0
 62
7
  6
CONTINUOUS
 10
103.9229278298
 20
67.3129102845
 11
103.9229278298
 21
67.1629102845
  0
LINE
  8
0
 62
7
  6
CONTINUOUS
 10
106.2995486687
 20
67.3129102845
 11
106.2995486687
 21
67.1629102845
  0
LINE
  8
0
 62
7
  6
CONTINUOUS
 10
106.5234844445
 20
67.3129102845
 11
106.5234844445
 21
67.1629102845
  0
LINE
  8
0
 62
7
  6
CONTINUOUS
 10
107.147618413
 20
67.3129102845
 11
107.147618413
 21
67.1629102845
  0
LINE
  8
0
 62
7
  6
CONTINUOUS
 10
107.7153327974
 20
67.3129102845
 11
107.7153327974
 21
67.1629102845
  0
LINE
  8
0
 62
7
  6
CONTINUOUS
 10
108.4119118504
 20
67.3129102845
 11
108.4119118504
 21
67.1629102845
  0
LINE
  8
0
 62
7
  6
CONTINUOUS
 10
159.871202444
 20
76.4629102845
 11
147.0051770403
 21
76.4629102845
  0
LINE
  8
0
 62
7
  6
CONTINUOUS
 10
55.9481539899
 20
76.4629102845
 11
43.0821285861
 21
76.4629102845
  0
LINE
  8
0
 62
7
  6
CONTINUOUS
 10
26.4265449864
 20
76.3129102845
 11
178.7096743762
 21
76.3129102845
  0
LINE
  8
0
 62
7
  6
CONTINUOUS
 10
112.1253418569
 20
67.3129102845
 11
112.1253418569
 21
67.1629102845
  0
LINE
  8
0
 62
7
  6
CONTINUOUS
 10
70.6842082938
 20
76.3129099776
 11
70.383437921
 21
76.2881637842
  0
POLYLINE
  8
0
 62
7
  6
CONTINUOUS
 66
1
 70
0
  0
VERTEX
  8
0
 62
7
  6
CONTINUOUS
 10
41.6536543752
 20
76.3129101235
  0
VERTEX
  8
0
 62
7
  6
CONTINUOUS
 10
41.2228701958
 20
76.2963711328
  0
VERTEX
  8
0
 62
7
  6
CONTINUOUS
 10
40.7283017176
 20
76.2363481455
  0
SEQEND
  0
POLYLINE
  8
0
 62
7
  6
CONTINUOUS
 66
1
 70
0
  0
VERTEX
  8
0
 62
7
  6
CONTINUOUS
 10
26.4265441097
 20
76.3129101238
  0
VERTEX
  8
0
 62
7
  6
CONTINUOUS
 10
25.891310755
 20
76.297557724
  0
VERTEX
  8
0
 62
7
  6
CONTINUOUS
 10
25.2782539662
 20
76.2420440437
  0
SEQEND
  0
POLYLINE
  8
0
 62
7
  6
CONTINUOUS
 66
1
 70
0
  0
VERTEX
  8
0
 62
7
  6
CONTINUOUS
 10
148.6216024224
 20
76.3128896603
  0
VERTEX
  8
0
 62
7
  6
CONTINUOUS
 10
148.7903018659
 20
76.2976492524
  0
VERTEX
  8
0
 62
7
  6
CONTINUOUS
 10
148.9610078478
 20
76.2520821363
  0
SEQEND
  0
LINE
  8
0
 62
7
  6
CONTINUOUS
 10
117.1169705761
 20
67.3129102845
 11
117.1169705761
 21
67.1629102845
  0
LINE
  8
0
 62
7
  6
CONTINUOUS
 10
117.3829094747
 20
67.3129102845
 11
117.3829094747
 21
67.1629102845
  0
LINE
  8
0
 62
7
  6
CONTINUOUS
 10
118.5131498577
 20
67.3129102845
 11
118.5131498577
 21
67.1629102845
  0
LINE
  8
0
 62
7
  6
CONTINUOUS
 10
118.6793616548
 20
67.3129102845
 11
118.6793616548
 21
67.1629102845
  0
POLYLINE
  8
0
 62
7
  6
CONTINUOUS
 66
1
 70
0
  0
VERTEX
  8
0
 62
7
  6
CONTINUOUS
 10
70.383437921
 20
76.2881637842
  0
VERTEX
  8
0
 62
7
  6
CONTINUOUS
 10
70.0228972852
 20
76.1916785984
  0
VERTEX
  8
0
 62
7
  6
CONTINUOUS
 10
69.7075732986
 20
76.0425677556
  0
SEQEND
  0
LINE
  8
0
 62
7
  6
CONTINUOUS
 10
40.7283017176
 20
76.2363481455
 11
40.2954584413
 21
76.1471719143
  0
LINE
  8
0
 62
7
  6
CONTINUOUS
 10
25.2782539662
 20
76.2420440437
 11
24.7422549875
 21
76.1598028716
  0
POLYLINE
  8
0
 62
7
  6
CONTINUOUS
 66
1
 70
0
  0
VERTEX
  8
0
 62
7
  6
CONTINUOUS
 10
171.8847135724
 20
76.1530592252
  0
VERTEX
  8
0
 62
7
  6
CONTINUOUS
 10
171.4213559893
 20
76.2381353439
  0
VERTEX
  8
0
 62
7
  6
CONTINUOUS
 10
170.8854639472
 20
76.2964868304
  0
VERTEX
  8
0
 62
7
  6
CONTINUOUS
 10
170.4113709315
 20
76.312910134
  0
SEQEND
  0
POLYLINE
  8
0
 62
7
  6
CONTINUOUS
 66
1
 70
0
  0
VERTEX
  8
0
 62
7
  6
CONTINUOUS
 10
147.1422114355
 20
76.214860815
  0
VERTEX
  8
0
 62
7
  6
CONTINUOUS
 10
146.7596705322
 20
76.2919088121
  0
VERTEX
  8
0
 62
7
  6
CONTINUOUS
 10
146.4279972199
 20
76.3129101192
  0
SEQEND
  0
LINE
  8
0
 62
7
  6
CONTINUOUS
 10
122.6373806692
 20
67.3129102845
 11
122.6373806692
 21
67.1629102845
  0
LINE
  8
0
 62
7
  6
CONTINUOUS
 10
123.1120919243
 20
67.3129102845
 11
123.1120919243
 21
67.1629102845
  0
LINE
  8
0
 62
7
  6
CONTINUOUS
 10
123.4295028385
 20
67.3129102845
 11
123.4295028385
 21
67.1629102845
  0
LINE
  8
0
 62
7
  6
CONTINUOUS
 10
124.2871424981
 20
67.3129102845
 11
124.2871424981
 21
67.1629102845
  0
LINE
  8
0
 62
7
  6
CONTINUOUS
 10
124.8670477051
 20
67.3129102845
 11
124.8670477051
 21
67.1629102845
  0
LINE
  8
0
 62
7
  6
CONTINUOUS
 10
124.9961575445
 20
67.3129102845
 11
124.9961575445
 21
67.1629102845
  0
LINE
  8
0
 62
7
  6
CONTINUOUS
 10
125.4211742301
 20
67.3129102845
 11
125.4211742301
 21
67.1629102845
  0
LINE
  8
0
 62
7
  6
CONTINUOUS
 10
125.5165376737
 20
67.3129102845
 11
125.5165376737
 21
67.1629102845
  0
POLYLINE
  8
0
 62
7
  6
CONTINUOUS
 66
1
 70
0
  0
VERTEX
  8
0
 62
7
  6
CONTINUOUS
 10
148.1588944919
 20
67.8097674538
  0
VERTEX
  8
0
 62
7
  6
CONTINUOUS
 10
148.2174576839
 20
67.8354658149
  0
VERTEX
  8
0
 62
7
  6
CONTINUOUS
 10
148.3329110194
 20
67.8958256101
  0
VERTEX
  8
0
 62
7
  6
CONTINUOUS
 10
148.4551830422
 20
67.9782277626
  0
VERTEX
  8
0
 62
7
  6
CONTINUOUS
 10
148.5777695545
 20
68.0881391857
  0
VERTEX
  8
0
 62
7
  6
CONTINUOUS
 10
148.6903779236
 20
68.2274989703
  0
VERTEX
  8
0
 62
7
  6
CONTINUOUS
 10
148.7815216715
 20
68.3930130129
  0
VERTEX
  8
0
 62
7
  6
CONTINUOUS
 10
148.8418093138
 20
68.576139489
  0
VERTEX
  8
0
 62
7
  6
CONTINUOUS
 10
148.8666542939
 20
68.7655506876
  0
VERTEX
  8
0
 62
7
  6
CONTINUOUS
 10
148.8673462642
 20
68.8031404268
  0
SEQEND
  0
LINE
  8
0
 62
7
  6
CONTINUOUS
 10
147.475400276
 20
67.5260180217
 11
148.1594388419
 21
67.8099925494
  0
LINE
  8
0
 62
7
  6
CONTINUOUS
 10
147.1382737265
 20
67.409871883
 11
147.4752844796
 21
67.5259701335
  0
POLYLINE
  8
0
 62
7
  6
CONTINUOUS
 66
1
 70
0
  0
VERTEX
  8
0
 62
7
  6
CONTINUOUS
 10
39.1955160359
 20
75.8762569664
  0
VERTEX
  8
0
 62
7
  6
CONTINUOUS
 10
39.1064553544
 20
75.8532949582
  0
VERTEX
  8
0
 62
7
  6
CONTINUOUS
 10
38.9963955565
 20
75.8214500911
  0
VERTEX
  8
0
 62
7
  6
CONTINUOUS
 10
38.8991088859
 20
75.7888725525
  0
VERTEX
  8
0
 62
7
  6
CONTINUOUS
 10
38.805746455
 20
75.7520581489
  0
VERTEX
  8
0
 62
7
  6
CONTINUOUS
 10
38.7092555845
 20
75.7061270393
  0
VERTEX
  8
0
 62
7
  6
CONTINUOUS
 10
38.6055030559
 20
75.6447568015
  0
VERTEX
  8
0
 62
7
  6
CONTINUOUS
 10
38.4960323776
 20
75.5619435391
  0
VERTEX
  8
0
 62
7
  6
CONTINUOUS
 10
38.3868657369
 20
75.4531721926
  0
VERTEX
  8
0
 62
7
  6
CONTINUOUS
 10
38.2868149003
 20
75.3164359133
  0
VERTEX
  8
0
 62
7
  6
CONTINUOUS
 10
38.2061760241
 20
75.1538492912
  0
VERTEX
  8
0
 62
7
  6
CONTINUOUS
 10
38.1543157272
 20
74.9723420461
  0
VERTEX
  8
0
 62
7
  6
CONTINUOUS
 10
38.1369938844
 20
74.7858440037
  0
SEQEND
  0
LINE
  8
0
 62
7
  6
CONTINUOUS
 10
40.2954437807
 20
76.1471684785
 11
39.1954698802
 21
75.8762460903
  0
POLYLINE
  8
0
 62
7
  6
CONTINUOUS
 66
1
 70
0
  0
VERTEX
  8
0
 62
7
  6
CONTINUOUS
 10
22.6472195855
 20
75.7654381516
  0
VERTEX
  8
0
 62
7
  6
CONTINUOUS
 10
22.5899719052
 20
75.7518074936
  0
VERTEX
  8
0
 62
7
  6
CONTINUOUS
 10
22.5384509969
 20
75.7386309711
  0
VERTEX
  8
0
 62
7
  6
CONTINUOUS
 10
22.4897664087
 20
75.7249959175
  0
VERTEX
  8
0
 62
7
  6
CONTINUOUS
 10
22.4385174795
 20
75.7088719624
  0
VERTEX
  8
0
 62
7
  6
CONTINUOUS
 10
22.3782013461
 20
75.6868307066
  0
VERTEX
  8
0
 62
7
  6
CONTINUOUS
 10
22.305665186
 20
75.6549621864
  0
VERTEX
  8
0
 62
7
  6
CONTINUOUS
 10
22.2248530674
 20
75.6113322891
  0
VERTEX
  8
0
 62
7
  6
CONTINUOUS
 10
22.1411069048
 20
75.5553823313
  0
VERTEX
  8
0
 62
7
  6
CONTINUOUS
 10
22.0594193448
 20
75.4878153311
  0
VERTEX
  8
0
 62
7
  6
CONTINUOUS
 10
21.9817797097
 20
75.4080362042
  0
VERTEX
  8
0
 62
7
  6
CONTINUOUS
 10
21.9102927771
 20
75.3155799318
  0
VERTEX
  8
0
 62
7
  6
CONTINUOUS
 10
21.8473756254
 20
75.2103180944
  0
VERTEX
  8
0
 62
7
  6
CONTINUOUS
 10
21.7957378295
 20
75.0925929245
  0
VERTEX
  8
0
 62
7
  6
CONTINUOUS
 10
21.7582895525
 20
74.9632976739
  0
VERTEX
  8
0
 62
7
  6
CONTINUOUS
 10
21.7380410846
 20
74.8239599145
  0
VERTEX
  8
0
 62
7
  6
CONTINUOUS
 10
21.735304986
 20
74.7499902143
  0
SEQEND
  0
POLYLINE
  8
0
 62
7
  6
CONTINUOUS
 66
1
 70
0
  0
VERTEX
  8
0
 62
7
  6
CONTINUOUS
 10
23.0678281609
 20
75.8521835451
  0
VERTEX
  8
0
 62
7
  6
CONTINUOUS
 10
22.9626705849
 20
75.8317793944
  0
VERTEX
  8
0
 62
7
  6
CONTINUOUS
 10
22.8685251429
 20
75.8129588331
  0
VERTEX
  8
0
 62
7
  6
CONTINUOUS
 10
22.785106457
 20
75.7957155303
  0
VERTEX
  8
0
 62
7
  6
CONTINUOUS
 10
22.7117411748
 20
75.7799532646
  0
VERTEX
  8
0
 62
7
  6
CONTINUOUS
 10
22.6472195855
 20
75.7654381516
  0
SEQEND
  0
LINE
  8
0
 62
7
  6
CONTINUOUS
 10
23.2639402083
 20
75.8888860241
 11
23.0678281609
 21
75.8521835451
  0
LINE
  8
0
 62
7
  6
CONTINUOUS
 10
24.7422541328
 20
76.1598028896
 11
23.2639381843
 21
75.8888857504
  0
LINE
  8
0
 62
7
  6
CONTINUOUS
 10
68.4096974155
 20
91.3129102845
 11
135.4096590153
 21
91.3129102845
  0
LINE
  8
0
 62
7
  6
CONTINUOUS
 10
180.446159993
 20
76.1609878147
 11
182.770699597
 21
75.7511087648
  0
POLYLINE
  8
0
 62
7
  6
CONTINUOUS
 66
1
 70
0
  0
VERTEX
  8
0
 62
7
  6
CONTINUOUS
 10
182.8820319592
 20
75.7312539086
  0
VERTEX
  8
0
 62
7
  6
CONTINUOUS
 10
182.8730335831
 20
75.7329528541
  0
VERTEX
  8
0
 62
7
  6
CONTINUOUS
 10
182.7727879644
 20
75.7507405281
  0
SEQEND
  0
LINE
  8
0
 62
7
  6
CONTINUOUS
 10
173.1815053453
 20
75.8691457533
 11
171.8847211055
 21
76.1530577435
  0
POLYLINE
  8
0
 62
7
  6
CONTINUOUS
 66
1
 70
0
  0
VERTEX
  8
0
 62
7
  6
CONTINUOUS
 10
173.3661599941
 20
75.8258733066
  0
VERTEX
  8
0
 62
7
  6
CONTINUOUS
 10
173.2633379222
 20
75.8507182601
  0
VERTEX
  8
0
 62
7
  6
CONTINUOUS
 10
173.1814855256
 20
75.8691499016
  0
SEQEND
  0
LINE
  8
0
 62
7
  6
CONTINUOUS
 10
173.4550264431
 20
75.8023831457
 11
173.3661599941
 21
75.8258733066
  0
LINE
  8
0
 62
7
  6
CONTINUOUS
 10
147.4752766627
 20
76.0998536681
 11
147.1422114355
 21
76.214860815
  0
LINE
  8
0
 62
7
  6
CONTINUOUS
 10
148.1594388336
 20
75.815828023
 11
147.475400276
 21
76.0998025472
  0
LINE
  8
0
 62
7
  6
CONTINUOUS
 10
125.7929849528
 20
67.3129102845
 11
125.7929849528
 21
67.1629102845
  0
LINE
  8
0
 62
7
  6
CONTINUOUS
 10
126.3517932242
 20
67.3129102845
 11
126.3517932242
 21
67.1629102845
  0
LINE
  8
0
 62
7
  6
CONTINUOUS
 10
126.819441612
 20
67.3129102845
 11
126.819441612
 21
67.1629102845
  0
LINE
  8
0
 62
7
  6
CONTINUOUS
 10
127.5238645876
 20
67.3129102845
 11
127.5238645876
 21
67.1629102845
  0
LINE
  8
0
 62
7
  6
CONTINUOUS
 10
127.7121066854
 20
67.3129102845
 11
127.7121066854
 21
67.1629102845
  0
LINE
  8
0
 62
7
  6
CONTINUOUS
 10
128.3253654688
 20
67.3129102845
 11
128.3253654688
 21
67.1629102845
  0
LINE
  8
0
 62
7
  6
CONTINUOUS
 10
128.6106811637
 20
67.3129102845
 11
128.6106811637
 21
67.1629102845
  0
LINE
  8
0
 62
7
  6
CONTINUOUS
 10
128.8048369748
 20
67.3129102845
 11
128.8048369748
 21
67.1629102845
  0
POLYLINE
  8
0
 62
7
  6
CONTINUOUS
 66
1
 70
0
  0
VERTEX
  8
0
 62
7
  6
CONTINUOUS
 10
173.4543450822
 20
67.8232484373
  0
VERTEX
  8
0
 62
7
  6
CONTINUOUS
 10
173.5356313392
 20
67.847010925
  0
VERTEX
  8
0
 62
7
  6
CONTINUOUS
 10
173.6134587998
 20
67.8726713275
  0
VERTEX
  8
0
 62
7
  6
CONTINUOUS
 10
173.6930339094
 20
67.9030419165
  0
VERTEX
  8
0
 62
7
  6
CONTINUOUS
 10
173.7798288162
 20
67.942650928
  0
VERTEX
  8
0
 62
7
  6
CONTINUOUS
 10
173.8758628171
 20
67.9967954445
  0
VERTEX
  8
0
 62
7
  6
CONTINUOUS
 10
173.9762634796
 20
68.0684025164
  0
VERTEX
  8
0
 62
7
  6
CONTINUOUS
 10
174.0752152855
 20
68.1591292653
  0
VERTEX
  8
0
 62
7
  6
CONTINUOUS
 10
174.166118684
 20
68.2682905988
  0
VERTEX
  8
0
 62
7
  6
CONTINUOUS
 10
174.2439470131
 20
68.3947878362
  0
VERTEX
  8
0
 62
7
  6
CONTINUOUS
 10
174.3049089121
 20
68.5386066641
  0
VERTEX
  8
0
 62
7
  6
CONTINUOUS
 10
174.3443613695
 20
68.6986304046
  0
VERTEX
  8
0
 62
7
  6
CONTINUOUS
 10
174.3572061356
 20
68.8589489782
  0
SEQEND
  0
POLYLINE
  8
0
 62
7
  6
CONTINUOUS
 66
1
 70
0
  0
VERTEX
  8
0
 62
7
  6
CONTINUOUS
 10
148.9610078478
 20
76.2520821363
  0
VERTEX
  8
0
 62
7
  6
CONTINUOUS
 10
149.1214071203
 20
76.1775009313
  0
VERTEX
  8
0
 62
7
  6
CONTINUOUS
 10
149.2657815828
 20
76.0766539186
  0
VERTEX
  8
0
 62
7
  6
CONTINUOUS
 10
149.3902890314
 20
75.9523648088
  0
VERTEX
  8
0
 62
7
  6
CONTINUOUS
 10
149.4907262761
 20
75.8089796365
  0
VERTEX
  8
0
 62
7
  6
CONTINUOUS
 10
149.5643941305
 20
75.650678511
  0
VERTEX
  8
0
 62
7
  6
CONTINUOUS
 10
149.6088906017
 20
75.4837829755
  0
VERTEX
  8
0
 62
7
  6
CONTINUOUS
 10
149.6230986434
 20
75.320238413
  0
SEQEND
  0
LINE
  8
0
 62
7
  6
CONTINUOUS
 10
132.2059211554
 20
67.3129102845
 11
132.2059211554
 21
67.1629102845
  0
LINE
  8
0
 62
7
  6
CONTINUOUS
 10
135.1029121718
 20
67.3129102845
 11
135.1029121718
 21
67.1629102845
  0
LINE
  8
0
 62
7
  6
CONTINUOUS
 10
136.909678217
 20
89.8129102845
 11
136.909678217
 21
77.8129102845
  0
LINE
  8
0
 62
7
  6
CONTINUOUS
 10
136.909678217
 20
65.8129102845
 11
136.909678217
 21
53.8129102845
  0
LINE
  8
0
 62
7
  6
CONTINUOUS
 10
137.1405237056
 20
67.3129102845
 11
137.1405237056
 21
67.1629102845
  0
LINE
  8
0
 62
7
  6
CONTINUOUS
 10
137.5033893046
 20
67.3129102845
 11
137.5033893046
 21
67.1629102845
  0
LINE
  8
0
 62
7
  6
CONTINUOUS
 10
137.6580756332
 20
67.3129102845
 11
137.6580756332
 21
67.1629102845
  0
LINE
  8
0
 62
7
  6
CONTINUOUS
 10
137.6662246774
 20
67.3129102845
 11
137.6662246774
 21
67.1629102845
  0
LINE
  8
0
 62
7
  6
CONTINUOUS
 10
140.5229950299
 20
67.3129102845
 11
140.5229950299
 21
67.1629102845
  0
LINE
  8
0
 62
7
  6
CONTINUOUS
 10
141.1571006556
 20
67.3129102845
 11
141.1571006556
 21
67.1629102845
  0
LINE
  8
0
 62
7
  6
CONTINUOUS
 10
141.3026708282
 20
67.3129102845
 11
141.3026708282
 21
67.1629102845
  0
LINE
  8
0
 62
7
  6
CONTINUOUS
 10
141.8333210946
 20
67.3129102845
 11
141.8333210946
 21
67.1629102845
  0
LINE
  8
0
 62
7
  6
CONTINUOUS
 10
142.4370518253
 20
67.3129102845
 11
142.4370518253
 21
67.1629102845
  0
LINE
  8
0
 62
7
  6
CONTINUOUS
 10
142.9622522161
 20
67.3129102845
 11
142.9622522161
 21
67.1629102845
  0
LINE
  8
0
 62
7
  6
CONTINUOUS
 10
143.4847256778
 20
67.3129102845
 11
143.4847256778
 21
67.1629102845
  0
LINE
  8
0
 62
7
  6
CONTINUOUS
 10
144.077552887
 20
67.3129102845
 11
144.077552887
 21
67.1629102845
  0
LINE
  8
0
 62
7
  6
CONTINUOUS
 10
144.5187724252
 20
67.3129102845
 11
144.5187724252
 21
67.1629102845
  0
LINE
  8
0
 62
7
  6
CONTINUOUS
 10
144.8110942821
 20
67.3129102845
 11
144.8110942821
 21
67.1629102845
  0
LINE
  8
0
 62
7
  6
CONTINUOUS
 10
145.1006994585
 20
67.3129102845
 11
145.1006994585
 21
67.1629102845
  0
LINE
  8
0
 62
7
  6
CONTINUOUS
 10
145.2386835822
 20
67.3129102845
 11
145.2386835822
 21
67.1629102845
  0
LINE
  8
0
 62
7
  6
CONTINUOUS
 10
147.0051770403
 20
76.4629102845
 11
147.0051770403
 21
76.3129102845
  0
LINE
  8
0
 62
7
  6
CONTINUOUS
 10
147.0051770403
 20
67.3129102845
 11
147.0051770403
 21
67.1629102845
  0
POLYLINE
  8
0
 62
7
  6
CONTINUOUS
 66
1
 70
0
  0
VERTEX
  8
0
 62
7
  6
CONTINUOUS
 10
149.6272460747
 20
75.3128438284
  0
VERTEX
  8
0
 62
7
  6
CONTINUOUS
 10
149.6215050756
 20
75.4189909772
  0
VERTEX
  8
0
 62
7
  6
CONTINUOUS
 10
149.583303109
 20
75.6035358621
  0
VERTEX
  8
0
 62
7
  6
CONTINUOUS
 10
149.5101017899
 20
75.7787082818
  0
VERTEX
  8
0
 62
7
  6
CONTINUOUS
 10
149.4042314996
 20
75.9377943545
  0
VERTEX
  8
0
 62
7
  6
CONTINUOUS
 10
149.2692959092
 20
76.0747707576
  0
VERTEX
  8
0
 62
7
  6
CONTINUOUS
 10
149.1099056565
 20
76.184422812
  0
VERTEX
  8
0
 62
7
  6
CONTINUOUS
 10
148.9315252761
 20
76.2623635565
  0
VERTEX
  8
0
 62
7
  6
CONTINUOUS
 10
148.7401108169
 20
76.3051747295
  0
VERTEX
  8
0
 62
7
  6
CONTINUOUS
 10
148.6216256932
 20
76.3128864363
  0
SEQEND
  0
POLYLINE
  8
0
 62
7
  6
CONTINUOUS
 66
1
 70
0
  0
VERTEX
  8
0
 62
7
  6
CONTINUOUS
 10
148.8673462645
 20
74.8226803399
  0
VERTEX
  8
0
 62
7
  6
CONTINUOUS
 10
148.8666736397
 20
74.859740947
  0
VERTEX
  8
0
 62
7
  6
CONTINUOUS
 10
148.8420753459
 20
75.0485098866
  0
VERTEX
  8
0
 62
7
  6
CONTINUOUS
 10
148.7822730386
 20
75.2310835945
  0
VERTEX
  8
0
 62
7
  6
CONTINUOUS
 10
148.6917328859
 20
75.3963119887
  0
VERTEX
  8
0
 62
7
  6
CONTINUOUS
 10
148.5796363049
 20
75.5357285448
  0
VERTEX
  8
0
 62
7
  6
CONTINUOUS
 10
148.4573627315
 20
75.6459090864
  0
VERTEX
  8
0
 62
7
  6
CONTINUOUS
 10
148.3353604713
 20
75.7285508808
  0
VERTEX
  8
0
 62
7
  6
CONTINUOUS
 10
148.2203968063
 20
75.7889867454
  0
VERTEX
  8
0
 62
7
  6
CONTINUOUS
 10
148.1588822088
 20
75.8160582055
  0
SEQEND
  0
LINE
  8
0
 62
7
  6
CONTINUOUS
 10
148.7372278478
 20
76.4629102845
 11
148.7372278478
 21
76.3129102845
  0
LINE
  8
0
 62
7
  6
CONTINUOUS
 10
148.7372278478
 20
67.3129102845
 11
148.7372278478
 21
67.1629102845
  0
LINE
  8
0
 62
7
  6
CONTINUOUS
 10
148.8673466328
 20
74.8227445106
 11
148.8673466328
 21
68.8030760582
  0
LINE
  8
0
 62
7
  6
CONTINUOUS
 10
149.6272523053
 20
75.3129102841
 11
149.6272523053
 21
68.3129102845
  0
POLYLINE
  8
0
 62
7
  6
CONTINUOUS
 66
1
 70
0
  0
VERTEX
  8
0
 62
7
  6
CONTINUOUS
 10
149.6230984142
 20
68.305567865
  0
VERTEX
  8
0
 62
7
  6
CONTINUOUS
 10
149.6088373805
 20
68.1417340019
  0
VERTEX
  8
0
 62
7
  6
CONTINUOUS
 10
149.5642032247
 20
67.9746158409
  0
VERTEX
  8
0
 62
7
  6
CONTINUOUS
 10
149.4904642277
 20
67.8163870581
  0
VERTEX
  8
0
 62
7
  6
CONTINUOUS
 10
149.3899663197
 20
67.6730717317
  0
VERTEX
  8
0
 62
7
  6
CONTINUOUS
 10
149.2653132739
 20
67.5487748136
  0
VERTEX
  8
0
 62
7
  6
CONTINUOUS
 10
149.1208202233
 20
67.4479818456
  0
VERTEX
  8
0
 62
7
  6
CONTINUOUS
 10
148.9601334737
 20
67.3734217221
  0
SEQEND
  0
LINE
  8
0
 62
7
  6
CONTINUOUS
 10
154.4872278478
 20
76.4629102845
 11
154.4872278478
 21
76.3129102845
  0
LINE
  8
0
 62
7
  6
CONTINUOUS
 10
154.4872278478
 20
67.3129102845
 11
154.4872278478
 21
67.1629102845
  0
LINE
  8
0
 62
7
  6
CONTINUOUS
 10
156.8278075888
 20
76.4629102845
 11
156.8278075888
 21
76.3129102845
  0
LINE
  8
0
 62
7
  6
CONTINUOUS
 10
156.8278075888
 20
67.3129102845
 11
156.8278075888
 21
67.1629102845
  0
LINE
  8
0
 62
7
  6
CONTINUOUS
 10
159.871202444
 20
76.4629102845
 11
159.871202444
 21
76.3129102845
  0
LINE
  8
0
 62
7
  6
CONTINUOUS
 10
159.871202444
 20
67.3129102845
 11
159.871202444
 21
67.1629102845
  0
POLYLINE
  8
0
 62
7
  6
CONTINUOUS
 66
1
 70
0
  0
VERTEX
  8
0
 62
7
  6
CONTINUOUS
 10
174.3572061356
 20
74.7668715619
  0
VERTEX
  8
0
 62
7
  6
CONTINUOUS
 10
174.3440935228
 20
74.9288424751
  0
VERTEX
  8
0
 62
7
  6
CONTINUOUS
 10
174.3041711599
 20
75.0894058381
  0
VERTEX
  8
0
 62
7
  6
CONTINUOUS
 10
174.2426064484
 20
75.2336097264
  0
VERTEX
  8
0
 62
7
  6
CONTINUOUS
 10
174.1640585798
 20
75.3603764903
  0
VERTEX
  8
0
 62
7
  6
CONTINUOUS
 10
174.0723444181
 20
75.4696769226
  0
VERTEX
  8
0
 62
7
  6
CONTINUOUS
 10
173.9727640044
 20
75.5602216483
  0
VERTEX
  8
0
 62
7
  6
CONTINUOUS
 10
173.8721367812
 20
75.6313629873
  0
VERTEX
  8
0
 62
7
  6
CONTINUOUS
 10
173.7765379585
 20
75.6848180122
  0
VERTEX
  8
0
 62
7
  6
CONTINUOUS
 10
173.6906667149
 20
75.7237558461
  0
VERTEX
  8
0
 62
7
  6
CONTINUOUS
 10
173.6120617375
 20
75.7536411764
  0
VERTEX
  8
0
 62
7
  6
CONTINUOUS
 10
173.5352451343
 20
75.7789290517
  0
VERTEX
  8
0
 62
7
  6
CONTINUOUS
 10
173.4550264431
 20
75.8023831457
  0
SEQEND
  0
LINE
  8
0
 62
7
  6
CONTINUOUS
 10
174.3572083999
 20
74.7672442134
 11
174.3572083999
 21
68.8585763556
  0
POLYLINE
  8
0
 62
7
  6
CONTINUOUS
 66
1
 70
0
  0
VERTEX
  8
0
 62
7
  6
CONTINUOUS
 10
183.7083846511
 20
74.7464459481
  0
VERTEX
  8
0
 62
7
  6
CONTINUOUS
 10
183.6983653484
 20
74.8876489635
  0
VERTEX
  8
0
 62
7
  6
CONTINUOUS
 10
183.6572381788
 20
75.0621630832
  0
VERTEX
  8
0
 62
7
  6
CONTINUOUS
 10
183.5856093138
 20
75.2265267791
  0
VERTEX
  8
0
 62
7
  6
CONTINUOUS
 10
183.4857833168
 20
75.3754550864
  0
VERTEX
  8
0
 62
7
  6
CONTINUOUS
 10
183.3609738531
 20
75.5041589918
  0
VERTEX
  8
0
 62
7
  6
CONTINUOUS
 10
183.2152034845
 20
75.6084999963
  0
VERTEX
  8
0
 62
7
  6
CONTINUOUS
 10
183.0532520045
 20
75.6850999264
  0
VERTEX
  8
0
 62
7
  6
CONTINUOUS
 10
182.8820321523
 20
75.7312538604
  0
SEQEND
  0
LINE
  8
0
 62
7
  6
CONTINUOUS
 10
183.7083899869
 20
74.7465110297
 11
183.7083899869
 21
68.8793095392
  0
ARC
  8
0
 62
7
  6
CONTINUOUS
 10
35.6752309808
 20
156.0630979921
 40
9.525
 50
321.4615384615
 51
20.7692307692
  0
ARC
  8
0
 62
7
  6
CONTINUOUS
 10
55.1262840544
 20
147.6120888812
 40
2.0
 50
48.4615384615
 51
128.4615384615
  0
ARC
  8
0
 62
7
  6
CONTINUOUS
 10
44.313087631
 20
144.1311172444
 40
2.0
 50
223.7998709709
 51
308.4615384615
  0
ARC
  8
0
 62
7
  6
CONTINUOUS
 10
42.4801652804
 20
146.1082808009
 40
2.0
 50
141.4615384615
 51
221.8640233779
  0
ARC
  8
0
 62
7
  6
CONTINUOUS
 10
58.5588964809
 20
145.9070457939
 40
1.5
 50
48.4615384615
 51
89.8711449096
  0
ARC
  8
0
 62
7
  6
CONTINUOUS
 10
58.5633938216
 20
147.9070407374
 40
0.5
 50
228.4621902322
 51
269.8712075544
  0
ARC
  8
0
 62
7
  6
CONTINUOUS
 10
23.139049318
 20
191.8036392867
 40
9.525
 50
293.7692307692
 51
353.0769230769
  0
ARC
  8
0
 62
7
  6
CONTINUOUS
 10
36.4347217063
 20
175.2812872627
 40
2.0
 50
20.7692307692
 51
100.7692307692
  0
ARC
  8
0
 62
7
  6
CONTINUOUS
 10
25.2424235958
 20
177.2241828935
 40
2.0
 50
196.1075632786
 51
280.7692307692
  0
ARC
  8
0
 62
7
  6
CONTINUOUS
 10
24.5382851756
 20
179.8266757672
 40
2.0
 50
113.7692307692
 51
194.1717156856
  0
ARC
  8
0
 62
7
  6
CONTINUOUS
 10
42.2278249015
 20
162.8261696249
 40
1.5
 50
339.3595875063
 51
20.7692307692
  0
ARC
  8
0
 62
7
  6
CONTINUOUS
 10
38.6817760311
 20
172.1763320518
 40
1.5
 50
20.7692307692
 51
62.1787871609
  0
ARC
  8
0
 62
7
  6
CONTINUOUS
 10
32.0840391907
 20
194.7468995839
 40
1.5
 50
311.6674046636
 51
353.0769230769
  0
ARC
  8
0
 62
7
  6
CONTINUOUS
 10
44.0994474379
 20
162.1211667305
 40
0.5
 50
159.35966457
 51
200.7688726026
  0
ARC
  8
0
 62
7
  6
CONTINUOUS
 10
39.6152022227
 20
173.9451496073
 40
0.5
 50
200.7692493242
 51
242.1790521553
  0
ARC
  8
0
 62
7
  6
CONTINUOUS
 10
33.4136474619
 20
193.252864161
 40
0.5
 50
131.6670264131
 51
173.0767930936
  0
ARC
  8
0
 62
7
  6
CONTINUOUS
 10
99.9201779988
 20
120.2564081602
 40
9.525
 50
16.8461538462
 51
76.1538461538
  0
ARC
  8
0
 62
7
  6
CONTINUOUS
 10
63.3849262937
 20
130.2422744504
 40
9.525
 50
349.1538461538
 51
48.4615384615
  0
ARC
  8
0
 62
7
  6
CONTINUOUS
 10
84.5353582041
 20
131.7986325942
 40
2.0
 50
76.1538461538
 51
156.1538461538
  0
ARC
  8
0
 62
7
  6
CONTINUOUS
 10
76.5784364553
 20
123.6912423415
 40
2.0
 50
251.4921786632
 51
336.1538461538
  0
ARC
  8
0
 62
7
  6
CONTINUOUS
 10
74.0366305958
 20
124.5901322375
 40
2.0
 50
169.1538461538
 51
249.5563310702
  0
ARC
  8
0
 62
7
  6
CONTINUOUS
 10
98.0765767671
 20
129.4909498109
 40
1.5
 50
34.7443083848
 51
76.1538461538
  0
ARC
  8
0
 62
7
  6
CONTINUOUS
 10
88.3671585928
 20
131.8841064538
 40
1.5
 50
76.1538461538
 51
117.5635025404
  0
ARC
  8
0
 62
7
  6
CONTINUOUS
 10
66.0440039626
 20
139.2758192115
 40
1.5
 50
7.0519445211
 51
48.4615384615
  0
ARC
  8
0
 62
7
  6
CONTINUOUS
 10
99.7199855567
 20
130.6307776708
 40
0.5
 50
214.7439710238
 51
256.1537568633
  0
ARC
  8
0
 62
7
  6
CONTINUOUS
 10
87.4416967961
 20
133.6571040462
 40
0.5
 50
256.1541774091
 51
297.5633654311
  0
ARC
  8
0
 62
7
  6
CONTINUOUS
 10
68.0288745966
 20
139.5213565125
 40
0.5
 50
187.0518318458
 51
228.4617815019
  0
ARC
  8
0
 62
7
  6
CONTINUOUS
 10
101.909678217
 20
199.3640128129
 40
81.8
 50
83.4024849164
 51
85.3383325093
  0
ARC
  8
0
 62
7
  6
CONTINUOUS
 10
101.909678217
 20
199.3640128129
 40
81.8
 50
277.2486387625
 51
279.1844863555
  0
ARC
  8
0
 62
7
  6
CONTINUOUS
 10
101.909678217
 20
199.3640128129
 40
81.8
 50
249.5563310702
 51
251.4921786632
  0
ARC
  8
0
 62
7
  6
CONTINUOUS
 10
101.909678217
 20
199.3640128129
 40
81.8
 50
221.8640233779
 51
223.7998709709
  0
ARC
  8
0
 62
7
  6
CONTINUOUS
 10
101.909678217
 20
199.3640128129
 40
81.8
 50
194.1717156856
 51
196.1075632786
  0
ARC
  8
0
 62
7
  6
CONTINUOUS
 10
101.909678217
 20
199.3640128129
 40
81.8
 50
166.4794079933
 51
168.4152555863
  0
ARC
  8
0
 62
7
  6
CONTINUOUS
 10
101.909678217
 20
199.3640128129
 40
81.8
 50
138.787100301
 51
140.7229478939
  0
ARC
  8
0
 62
7
  6
CONTINUOUS
 10
101.909678217
 20
199.3640128129
 40
81.8
 50
111.0947926087
 51
113.0306402016
  0
ARC
  8
0
 62
7
  6
CONTINUOUS
 10
101.909678217
 20
199.3640128129
 40
81.8
 50
55.7101772241
 51
57.646024817
  0
ARC
  8
0
 62
7
  6
CONTINUOUS
 10
101.909678217
 20
199.3640128129
 40
81.8
 50
28.0178695318
 51
29.9537171247
  0
ARC
  8
0
 62
7
  6
CONTINUOUS
 10
101.909678217
 20
199.3640128129
 40
81.8
 50
0.3255618394
 51
2.2614094324
  0
ARC
  8
0
 62
7
  6
CONTINUOUS
 10
101.909678217
 20
199.3640128129
 40
81.8
 50
332.6332541471
 51
334.5691017401
  0
ARC
  8
0
 62
7
  6
CONTINUOUS
 10
101.909678217
 20
199.3640128129
 40
81.8
 50
304.9409464548
 51
306.8767940478
  0
ARC
  8
0
 62
7
  6
CONTINUOUS
 10
101.909678217
 20
199.3640128129
 40
35.0
 50
97.022428729
 51
82.977571271
  0
CIRCLE
  8
0
 62
4
  6
CONTINUOUS
 10
101.909678217
 20
199.3640128129
 40
9.525
  0
ARC
  8
0
 62
7
  6
CONTINUOUS
 10
28.648269447
 20
229.2761710438
 40
9.525
 50
266.0769230769
 51
325.3846153846
  0
ARC
  8
0
 62
7
  6
CONTINUOUS
 10
32.7426828361
 20
208.4675478393
 40
2.0
 50
353.0769230769
 51
73.0769230769
  0
ARC
  8
0
 62
7
  6
CONTINUOUS
 10
23.7353036538
 20
215.3892167633
 40
2.0
 50
168.4152555863
 51
253.0769230769
  0
ARC
  8
0
 62
7
  6
CONTINUOUS
 10
24.3212587902
 20
218.0208392002
 40
2.0
 50
86.0769230769
 51
166.4794079933
  0
ARC
  8
0
 62
7
  6
CONTINUOUS
 10
44.895969055
 20
239.568298251
 40
2.0
 50
325.3846153846
 51
45.3846153846
  0
ARC
  8
0
 62
7
  6
CONTINUOUS
 10
33.2894059932
 20
204.6739883249
 40
1.5
 50
353.0769230769
 51
34.4865951778
  0
ARC
  8
0
 62
7
  6
CONTINUOUS
 10
37.9364658906
 20
227.7253545415
 40
1.5
 50
283.9750337811
 51
325.3846153846
  0
ARC
  8
0
 62
7
  6
CONTINUOUS
 10
43.6171133579
 20
235.9551932004
 40
1.5
 50
325.3846153846
 51
6.7942333965
  0
ARC
  8
0
 62
7
  6
CONTINUOUS
 10
34.9379243443
 20
205.8064137071
 40
0.5
 50
173.0771955043
 51
214.4863935783
  0
ARC
  8
0
 62
7
  6
CONTINUOUS
 10
38.4194626653
 20
225.7845521003
 40
0.5
 50
103.9748859792
 51
145.384744648
  0
ARC
  8
0
 62
7
  6
CONTINUOUS
 10
45.603068181
 20
236.1918014014
 40
0.5
 50
145.3851690774
 51
186.7942497861
  0
ARC
  8
0
 62
7
  6
CONTINUOUS
 10
50.9407954295
 20
259.8961878307
 40
9.525
 50
238.3846153846
 51
297.6923076923
  0
ARC
  8
0
 62
7
  6
CONTINUOUS
 10
40.1369908208
 20
249.8830695326
 40
2.0
 50
140.7229478939
 51
225.3846153846
  0
ARC
  8
0
 62
7
  6
CONTINUOUS
 10
41.8788042536
 20
251.940948547
 40
2.0
 50
58.3846153846
 51
138.787100301
  0
ARC
  8
0
 62
7
  6
CONTINUOUS
 10
58.4443845738
 20
254.2065679002
 40
1.5
 50
256.2826774983
 51
297.6923076923
  0
ARC
  8
0
 62
7
  6
CONTINUOUS
 10
57.9701211114
 20
252.2636128909
 40
0.5
 50
76.282706901
 51
117.6918831727
  0
ARC
  8
0
 62
7
  6
CONTINUOUS
 10
101.909678217
 20
230.8640128129
 40
5.0
 50
46.6443442704
 51
133.3556557296
  0
ARC
  8
0
 62
7
  6
CONTINUOUS
 10
97.4472659116
 20
235.5902032891
 40
1.5
 50
277.022428729
 51
313.3556557297
  0
ARC
  8
0
 62
7
  6
CONTINUOUS
 10
84.909678217
 20
276.6490128129
 40
9.525
 50
210.6923076923
 51
270.0
  0
ARC
  8
0
 62
7
  6
CONTINUOUS
 10
73.1886994916
 20
273.8163155379
 40
2.0
 50
30.6923076923
 51
111.0947926087
  0
ARC
  8
0
 62
7
  6
CONTINUOUS
 10
70.6900562287
 20
272.8036152281
 40
2.0
 50
113.0306402016
 51
197.6923076923
  0
ARC
  8
0
 62
7
  6
CONTINUOUS
 10
70.1104089532
 20
261.4587313829
 40
2.0
 50
297.6923076923
 51
17.6923076923
  0
ARC
  8
0
 62
7
  6
CONTINUOUS
 10
88.909678217
 20
268.1240128129
 40
1.5
 50
228.5903069365
 51
270.0
  0
ARC
  8
0
 62
7
  6
CONTINUOUS
 10
98.909678217
 20
268.1240128129
 40
1.5
 50
270.0
 51
311.4096906751
  0
ARC
  8
0
 62
7
  6
CONTINUOUS
 10
67.2989448303
 20
258.8537996206
 40
1.5
 50
297.6923076923
 51
339.1018779814
  0
ARC
  8
0
 62
7
  6
CONTINUOUS
 10
87.5868025614
 20
266.6240128129
 40
0.5
 50
48.5905656179
 51
89.999814678
  0
ARC
  8
0
 62
7
  6
CONTINUOUS
 10
100.2325538725
 20
266.6240128129
 40
0.5
 50
90.0002077088
 51
131.4094164119
  0
ARC
  8
0
 62
7
  6
CONTINUOUS
 10
69.1673778087
 20
258.140386553
 40
0.5
 50
117.6922524236
 51
159.1020869348
  0
ARC
  8
0
 62
7
  6
CONTINUOUS
 10
136.9112002277
 20
128.393140746
 40
9.525
 50
44.5384615385
 51
103.8461538462
  0
ARC
  8
0
 62
7
  6
CONTINUOUS
 10
117.9246796855
 20
131.4635906642
 40
2.0
 50
103.8461538462
 51
183.8461538462
  0
ARC
  8
0
 62
7
  6
CONTINUOUS
 10
114.6468674926
 20
120.5870871978
 40
2.0
 50
279.1844863555
 51
3.8461538462
  0
ARC
  8
0
 62
7
  6
CONTINUOUS
 10
111.9784752145
 20
120.2017785908
 40
2.0
 50
196.8461538462
 51
277.2486387625
  0
ARC
  8
0
 62
7
  6
CONTINUOUS
 10
130.9872669199
 20
135.7131570824
 40
1.5
 50
62.4364962616
 51
103.8461538462
  0
ARC
  8
0
 62
7
  6
CONTINUOUS
 10
121.2778487457
 20
133.3200004395
 40
1.5
 50
103.8461538462
 51
145.2556944375
  0
ARC
  8
0
 62
7
  6
CONTINUOUS
 10
131.9127287167
 20
137.4861546748
 40
0.5
 50
242.4366381627
 51
283.8458083575
  0
ARC
  8
0
 62
7
  6
CONTINUOUS
 10
119.634439956
 20
134.4598282994
 40
0.5
 50
283.8462380081
 51
325.2560205093
  0
CIRCLE
  8
LAY0001
 62
7
  6
CONTINUOUS
 10
135.285118289
 20
156.7608292464
 40
1.275
  0
ARC
  8
LAY0001
 62
7
  6
CONTINUOUS
 10
134.719432864
 20
159.6246117102
 40
1.0
 50
225.0
 51
315.0
  0
ARC
  8
LAY0001
 62
7
  6
CONTINUOUS
 10
137.2650172763
 20
162.5944601912
 40
1.0
 50
45.0
 51
135.0
  0
ARC
  8
LAY0001
 62
7
  6
CONTINUOUS
 10
134.9681000611
 20
159.731857551
 40
0.9
 50
315.0
 51
11.2510114041
  0
ARC
  8
LAY0001
 62
7
  6
CONTINUOUS
 10
137.0163500792
 20
162.4872143503
 40
0.9
 50
135.0
 51
191.2510114041
  0
ARC
  8
LAY0001
 62
7
  6
CONTINUOUS
 10
134.9315648984
 20
160.119586457
 40
0.5
 50
315.0
 51
45.0
  0
ARC
  8
LAY0001
 62
7
  6
CONTINUOUS
 10
137.052885242
 20
162.0994854443
 40
0.5
 50
135.0
 51
225.0
  0
ARC
  8
LAY0001
 62
7
  6
CONTINUOUS
 10
134.8254988812
 20
159.6599670492
 40
0.25
 50
225.0
 51
315.0
  0
ARC
  8
LAY0001
 62
7
  6
CONTINUOUS
 10
137.1589512591
 20
162.5591048521
 40
0.25
 50
45.0
 51
135.0
  0
ARC
  8
0
 62
7
  6
CONTINUOUS
 10
165.883795578
 20
152.7884448306
 40
9.525
 50
72.2307692308
 51
131.5384615385
  0
ARC
  8
0
 62
7
  6
CONTINUOUS
 10
147.6451573321
 20
146.6837171597
 40
2.0
 50
131.5384615385
 51
211.5384615385
  0
ARC
  8
0
 62
7
  6
CONTINUOUS
 10
149.7973619667
 20
135.5297763477
 40
2.0
 50
306.8767940478
 51
31.5384615385
  0
ARC
  8
0
 62
7
  6
CONTINUOUS
 10
147.6136797832
 20
133.9485387962
 40
2.0
 50
224.5384615385
 51
304.9409464548
  0
ARC
  8
0
 62
7
  6
CONTINUOUS
 10
149.7515244421
 20
149.8857817433
 40
1.5
 50
131.5384615385
 51
172.9480564164
  0
ARC
  8
0
 62
7
  6
CONTINUOUS
 10
147.7666538081
 20
150.1313190444
 40
0.5
 50
311.5382251798
 51
352.9481653416
  0
ARC
  8
0
 62
7
  6
CONTINUOUS
 10
180.2006916126
 20
187.8536502434
 40
9.525
 50
99.9230769231
 51
159.2307692308
  0
ARC
  8
0
 62
7
  6
CONTINUOUS
 10
166.8881878858
 20
173.9722645229
 40
2.0
 50
159.2307692308
 51
239.2307692308
  0
ARC
  8
0
 62
7
  6
CONTINUOUS
 10
173.9773652028
 20
165.0961197858
 40
2.0
 50
334.5691017401
 51
59.2307692308
  0
ARC
  8
0
 62
7
  6
CONTINUOUS
 10
172.7786483861
 20
162.6811957568
 40
2.0
 50
252.2307692308
 51
332.6332541471
  0
ARC
  8
0
 62
7
  6
CONTINUOUS
 10
170.8112585956
 20
187.1365919347
 40
1.5
 50
117.8212151129
 51
159.2307692308
  0
ARC
  8
0
 62
7
  6
CONTINUOUS
 10
167.2652097252
 20
177.7864295079
 40
1.5
 50
159.2307692308
 51
200.6404117763
  0
ARC
  8
0
 62
7
  6
CONTINUOUS
 10
157.2366319238
 20
156.5170083258
 40
1.5
 50
90.1288556262
 51
131.5384615385
  0
ARC
  8
0
 62
7
  6
CONTINUOUS
 10
169.877832404
 20
188.9054094903
 40
0.5
 50
297.8209431474
 51
339.2307489444
  0
ARC
  8
0
 62
7
  6
CONTINUOUS
 10
165.3935871887
 20
177.0814266135
 40
0.5
 50
339.2311670375
 51
20.6403300314
  0
ARC
  8
0
 62
7
  6
CONTINUOUS
 10
157.2321345831
 20
158.5170032692
 40
0.5
 50
270.1287908381
 51
311.5377837246
  0
ARC
  8
0
 62
7
  6
CONTINUOUS
 10
106.3720905223
 20
235.5902032891
 40
1.5
 50
226.6443442704
 51
262.977571271
  0
ARC
  8
0
 62
7
  6
CONTINUOUS
 10
122.7730561323
 20
275.6967756802
 40
9.525
 50
183.0
 51
242.3076923077
  0
ARC
  8
0
 62
7
  6
CONTINUOUS
 10
102.609678217
 20
269.1240128129
 40
2.0
 50
270.0
 51
350.0
  0
ARC
  8
0
 62
7
  6
CONTINUOUS
 10
108.3951607969
 20
278.9000330534
 40
2.0
 50
85.3383325093
 51
170.0
  0
ARC
  8
0
 62
7
  6
CONTINUOUS
 10
111.0782248303
 20
278.6355572219
 40
2.0
 50
3.0
 51
83.4024849164
  0
ARC
  8
0
 62
7
  6
CONTINUOUS
 10
134.9485859167
 20
260.808118942
 40
2.0
 50
242.3076923077
 51
322.3076923077
  0
ARC
  8
0
 62
7
  6
CONTINUOUS
 10
122.3531151932
 20
266.2893703733
 40
1.5
 50
200.8981238098
 51
242.3076923077
  0
ARC
  8
0
 62
7
  6
CONTINUOUS
 10
131.2076754498
 20
261.6421386529
 40
1.5
 50
242.3076923077
 51
283.7173222228
  0
ARC
  8
0
 62
7
  6
CONTINUOUS
 10
120.4846822148
 20
265.5759573057
 40
0.5
 50
20.8979093642
 51
62.3077476875
  0
ARC
  8
0
 62
7
  6
CONTINUOUS
 10
131.6819389121
 20
259.6991836436
 40
0.5
 50
62.3081630906
 51
103.7172909994
  0
ARC
  8
0
 62
7
  6
CONTINUOUS
 10
176.5820599873
 20
225.5557410061
 40
9.525
 50
127.6153846154
 51
186.9230769231
  0
ARC
  8
0
 62
7
  6
CONTINUOUS
 10
159.7186780244
 20
238.4161208387
 40
2.0
 50
214.6153846154
 51
294.6153846154
  0
ARC
  8
0
 62
7
  6
CONTINUOUS
 10
171.0507136515
 20
239.208174481
 40
2.0
 50
29.9537171247
 51
114.6153846154
  0
ARC
  8
0
 62
7
  6
CONTINUOUS
 10
172.3572083999
 20
236.8498166742
 40
2.0
 50
307.6153846154
 51
28.0178695318
  0
ARC
  8
0
 62
7
  6
CONTINUOUS
 10
171.2454249502
 20
207.0777554156
 40
2.0
 50
186.9230769231
 51
266.9230769231
  0
ARC
  8
0
 62
7
  6
CONTINUOUS
 10
181.6475298603
 20
202.5128245435
 40
2.0
 50
2.2614094324
 51
86.9230769231
  0
ARC
  8
0
 62
7
  6
CONTINUOUS
 10
181.7083899869
 20
199.8174440291
 40
2.0
 50
279.9230769231
 51
0.3255618394
  0
ARC
  8
0
 62
7
  6
CONTINUOUS
 10
168.6013635566
 20
220.5573303105
 40
1.5
 50
145.5134030787
 51
186.9230769231
  0
ARC
  8
0
 62
7
  6
CONTINUOUS
 10
169.8067303592
 20
210.6302415695
 40
1.5
 50
186.9230769231
 51
228.3325988081
  0
ARC
  8
0
 62
7
  6
CONTINUOUS
 10
156.310857821
 20
238.9522939546
 40
0.5
 50
34.6152463368
 51
76.0251241874
  0
ARC
  8
0
 62
7
  6
CONTINUOUS
 10
166.9528452056
 20
221.6897556927
 40
0.5
 50
325.5136100192
 51
6.922796428
  0
ARC
  8
0
 62
7
  6
CONTINUOUS
 10
168.477122088
 20
209.1362061466
 40
0.5
 50
6.9232237692
 51
48.3329997049
  0
ARC
  8
0
 62
7
  6
CONTINUOUS
 10
155.8568855981
 20
257.2576224842
 40
9.525
 50
155.3076923077
 51
214.6153846154
  0
ARC
  8
0
 62
7
  6
CONTINUOUS
 10
144.6145194646
 20
266.7757071546
 40
2.0
 50
57.646024817
 51
142.3076923077
  0
ARC
  8
0
 62
7
  6
CONTINUOUS
 10
146.8673466328
 20
265.2946434076
 40
2.0
 50
335.3076923077
 51
55.7101772241
  0
ARC
  8
0
 62
7
  6
CONTINUOUS
 10
151.1132071283
 20
249.1229350547
 40
1.5
 50
173.2057667379
 51
214.6153846154
  0
ARC
  8
0
 62
7
  6
CONTINUOUS
 10
156.7938545956
 20
240.8930963958
 40
1.5
 50
214.6153846154
 51
256.0249675704
  0
ARC
  8
0
 62
7
  6
CONTINUOUS
 10
149.1272523053
 20
249.3595432557
 40
0.5
 50
353.2057498108
 51
34.6148084932
  0
ARC
  8
0
 62
7
  6
CONTINUOUS
 10
178.709678217
 20
66.3129102845
 40
10.0
 50
80.0000000039
 51
90.0000555655
  0
ARC
  8
0
 62
7
  6
CONTINUOUS
 10
178.709678217
 20
77.3129102845
 40
10.0
 50
269.9999433289
 51
279.999999996
  0
ARC
  8
0
 62
7
  6
CONTINUOUS
 10
135.409678217
 20
89.8129102845
 40
1.5
 50
0.0
 51
90.0
  0
ARC
  8
0
 62
7
  6
CONTINUOUS
 10
68.409678217
 20
89.8129102845
 40
1.5
 50
90.0
 51
180.0
  0
ARC
  8
0
 62
7
  6
CONTINUOUS
 10
138.409678217
 20
77.8129102845
 40
1.5
 50
180.0
 51
270.0
  0
ARC
  8
0
 62
7
  6
CONTINUOUS
 10
65.409678217
 20
77.8129102845
 40
1.5
 50
270.0
 51
360.0
  0
ARC
  8
0
 62
7
  6
CONTINUOUS
 10
138.409678217
 20
65.8129102845
 40
1.5
 50
115.6521016995
 51
180.0
  0
ARC
  8
0
 62
7
  6
CONTINUOUS
 10
65.409678217
 20
65.8129102845
 40
1.5
 50
0.0
 51
64.3478983005
  0
ARC
  8
0
 62
7
  6
CONTINUOUS
 10
135.409678217
 20
53.8129102845
 40
1.5
 50
270.0
 51
360.0
  0
ARC
  8
0
 62
7
  6
CONTINUOUS
 10
68.409678217
 20
53.8129102845
 40
1.5
 50
180.0
 51
270.0
  0
ENDSEC
  0
EOF
