  0
SECTION
  2
HEADER
  9
$EXTMAX
 10
210.0
 20
297.0
 30
0.0
  9
$EXTMIN
 10
0.0
 20
0.0
 30
0.0
  9
$LIMMIN
 10
0.0
 20
0.0
  9
$LIMMAX
 10
210.0
 20
297.0
  9
$VIEWCTR
 10
105.0
 20
148.5
  9
$VIEWSIZE
 40
297.0
  9
$CLAYER
  8
0
  9
$LTSCALE
 40
19.36
  9
$CELTYPE
  6
BYLAYER
  9
$DIMSCALE
 40
1.0
  9
$DIMASZ
 40
3.5
  9
$DIMEXO
 40
2.2
  9
$DIMDLI
 40
13.376
  9
$DIMEXE
 40
6.336
  9
$DIMCEN
 40
3.168
  9
$DIMLFAC
 40
1.0
  9
$DIMBLK
  1
_FILLED
  9
$DIMTXT
 40
3.5
  9
$PDMODE
 70
3
  9
$PDSIZE
 40
0.3125
  9
$TILEMODE
 70
1
  0
ENDSEC
  0
SECTION
  2
TABLES
  0
TABLE
  2
LTYPE
 70
6
  0
LTYPE
  2
BYBLOCK
 70
0
  3

 72
65
 73
0
 40
0.0
  0
LTYPE
  2
BYLAYER
 70
0
  3

 72
65
 73
0
 40
0.0
  0
LTYPE
  2
CONTINUOUS
 70
64
  3
Solid line
 72
65
 73
0
 40
0.0
  0
LTYPE
  2
CENTER
 70
64
  3
____ _ ____ _ ____ _ ____ _ ____ _ ____ _ ____
 72
65
 73
4
 40
0.6
 49
0.375
 49
-0.075
 49
0.075
 49
-0.075
  0
LTYPE
  2
HIDDEN
 70
64
  3
- - - - - - - - - - - - - - - - - - - -
 72
65
 73
2
 40
0.2
 49
0.1
 49
-0.1
  0
LTYPE
  2
PHANTOM
 70
64
  3
_____ _ _ _____ _ _ _____ _ _ _____
 72
65
 73
6
 40
0.8
 49
0.45
 49
-0.05
 49
0.1
 49
-0.05
 49
0.1
 49
-0.05
  0
LTYPE
  2
DOT
 70
64
  3
. . . . . . . . . . . . . . . . . . . .
 72
65
 73
2
 40
0.2
 49
0.1
 49
-0.1
  0
LTYPE
  2
DASHED
 70
64
  3
- - - - - - - - - - - - - - - - - - - -
 72
65
 73
2
 40
0.2
 49
0.1
 49
-0.1
  0
ENDTAB
  0
TABLE
  2
LAYER
 70
36
  0
LAYER
  2
0
 70
0
 62
7
  6
CONTINUOUS
  0
LAYER
  2
DEFAULT_1
 70
0
 62
7
  6
CENTER
  0
LAYER
  2
DEFAULT_2
 70
0
 62
8
  6
HIDDEN
  0
LAYER
  2
DEFAULT_3
 70
0
 62
7
  6
PHANTOM
  0
LAYER
  2
BLANK_CURVE
 70
0
 62
7
  6
CONTINUOUS
  0
LAYER
  2
HUB_SQ_NAV
 70
0
 62
7
  6
CONTINUOUS
  0
LAYER
  2
LAY0001
 70
0
 62
7
  6
CONTINUOUS
  0
ENDTAB
  0
TABLE
  2
STYLE
 70
1
  0
STYLE
  2
STANDARD
 70
0
 40
0.0
 41
0.8
 50
0.0
 71
0
 42
0.2
  3
txt
  4

  0
STYLE
  2
TEXTSTYLE_1
 70
0
 40
0.0
 41
0.8
 50
0.0
 71
0
 42
0.2
  3
gdt
  4

  0
STYLE
  2
TEXTSTYLE_2
 70
0
 40
0.0
 41
0.6
 50
0.0
 71
0
 42
0.2
  3
txt
  4

  0
STYLE
  2
TEXTSTYLE_3
 70
0
 40
0.0
 41
1.0
 50
0.0
 71
0
 42
0.2
  3
ftb_____.ttf
  4

  0
STYLE
  2
TEXTSTYLE_4
 70
0
 40
0.0
 41
1.0
 50
0.0
 71
0
 42
0.2
  3
fti_____.ttf
  4

  0
STYLE
  2
TEXTSTYLE_5
 70
0
 40
0.0
 41
1.0
 50
0.0
 71
0
 42
0.2
  3
frutiger light.ttf
  4

  0
STYLE
  2
TEXTSTYLE_6
 70
0
 40
0.0
 41
0.7
 50
0.0
 71
0
 42
0.2
  3
txt
  4

  0
STYLE
  2
TEXTSTYLE_7
 70
0
 40
0.0
 41
0.8
 50
0.0
 71
0
 42
0.2
  3
txt
  4

  0
ENDTAB
  0
ENDSEC
  0
SECTION
  2
BLOCKS
  0
BLOCK
  8
0
 62
2
  6
CONTINUOUS
  2
SYMBOL_8_BL1
 70
64
 10
173.5956734183
 20
35.5937998301
  0
TEXT
  8
0
 62
7
  6
CONTINUOUS
 10
164.6539584268
 20
30.6865562072
  7
TEXTSTYLE_4
 40
1.0655737705
  1
The brand for plastic modular belts and chains
 41
1.0
 72
0
  0
LINE
  8
0
 62
7
  6
CONTINUOUS
 10
149.5737418074
 20
36.1675703219
 11
149.5737418074
 21
34.0364227809
  0
LINE
  8
0
 62
7
  6
CONTINUOUS
 10
149.8628043005
 20
31.0454914852
 11
149.8628043005
 21
31.1422825445
  0
LINE
  8
0
 62
7
  6
CONTINUOUS
 10
149.5737418074
 20
31.1100188581
 11
149.6315543091
 21
30.9164367395
  0
LINE
  8
0
 62
7
  6
CONTINUOUS
 10
150.9671844304
 20
33.9544555678
 11
150.9671844304
 21
36.1675703219
  0
LINE
  8
0
 62
7
  6
CONTINUOUS
 10
151.8862417523
 20
32.1101932727
 11
151.8862417523
 21
30.5937998301
  0
LINE
  8
0
 62
7
  6
CONTINUOUS
 10
152.1753043074
 20
30.5937998301
 11
152.1753043074
 21
31.3358647082
  0
LINE
  8
0
 62
7
  6
CONTINUOUS
 10
152.1753043074
 20
31.4649194539
 11
152.1753043074
 21
32.1101932727
  0
LINE
  8
0
 62
7
  6
CONTINUOUS
 10
149.6315543091
 20
31.3036010218
 11
149.5737418074
 21
31.1100188581
  0
LINE
  8
0
 62
7
  6
CONTINUOUS
 10
149.9784292936
 20
30.8841730531
 11
149.8628043005
 21
31.0454914852
  0
LINE
  8
0
 62
7
  6
CONTINUOUS
 10
151.0768668626
 20
31.400392081
 11
151.1346793074
 21
31.3036010218
  0
LINE
  8
0
 62
7
  6
CONTINUOUS
 10
151.4237418626
 20
31.3036010218
 11
151.3659292523
 21
31.4326557675
  0
LINE
  8
0
 62
7
  6
CONTINUOUS
 10
152.852430332
 20
36.1675703219
 11
152.852430332
 21
34.3642916334
  0
LINE
  8
0
 62
7
  6
CONTINUOUS
 10
152.852430332
 20
33.0528162235
 11
152.852430332
 21
32.3970785186
  0
LINE
  8
0
 62
7
  6
CONTINUOUS
 10
153.2159293074
 20
31.2390736489
 11
153.2159293074
 21
30.5937998301
  0
LINE
  8
0
 62
7
  6
CONTINUOUS
 10
153.5049916972
 20
30.5937998301
 11
153.5049916972
 21
31.2390736489
  0
LINE
  8
0
 62
7
  6
CONTINUOUS
 10
149.8628043005
 20
31.1422825445
 11
149.9206168074
 21
31.2713373354
  0
LINE
  8
0
 62
7
  6
CONTINUOUS
 10
149.6315543091
 20
30.9164367395
 11
149.7471793074
 21
30.7873819712
  0
LINE
  8
0
 62
7
  6
CONTINUOUS
 10
153.1581166972
 20
31.3681283946
 11
153.2159293074
 21
31.2390736489
  0
LINE
  8
0
 62
7
  6
CONTINUOUS
 10
153.9674919177
 20
30.8841730531
 11
154.0253041972
 21
30.7551182848
  0
LINE
  8
0
 62
7
  6
CONTINUOUS
 10
153.5049916972
 20
31.2390736489
 11
153.4471794177
 21
31.400392081
  0
LINE
  8
0
 62
7
  6
CONTINUOUS
 10
153.9674919177
 20
31.4326557675
 11
153.9674919177
 21
31.3681283946
  0
LINE
  8
0
 62
7
  6
CONTINUOUS
 10
153.9674919177
 20
30.9809641124
 11
153.9674919177
 21
30.8841730531
  0
LINE
  8
0
 62
7
  6
CONTINUOUS
 10
154.245872955
 20
32.3970785186
 11
154.245872955
 21
36.1675703219
  0
LINE
  8
0
 62
7
  6
CONTINUOUS
 10
154.2565543074
 20
30.8519093441
 11
154.2565543074
 21
30.9164367395
  0
LINE
  8
0
 62
7
  6
CONTINUOUS
 10
154.5737418074
 20
36.1675703219
 11
154.5737418074
 21
32.3970785186
  0
LINE
  8
0
 62
7
  6
CONTINUOUS
 10
151.3659292523
 20
30.7873819712
 11
151.4237418626
 21
30.9164367395
  0
LINE
  8
0
 62
7
  6
CONTINUOUS
 10
155.759679528
 20
30.6905909007
 11
155.7018665869
 21
30.8519093441
  0
LINE
  8
0
 62
7
  6
CONTINUOUS
 10
155.412804528
 20
31.3681283946
 11
155.412804528
 21
31.2713373354
  0
LINE
  8
0
 62
7
  6
CONTINUOUS
 10
155.412804528
 20
31.1422825445
 11
155.412804528
 21
30.9487004259
  0
LINE
  8
0
 62
7
  6
CONTINUOUS
 10
155.7018665869
 20
30.8519093441
 11
155.7018665869
 21
31.3681283946
  0
LINE
  8
0
 62
7
  6
CONTINUOUS
 10
155.9671844304
 20
32.3970785186
 11
155.9671844304
 21
34.2003572071
  0
LINE
  8
0
 62
7
  6
CONTINUOUS
 10
155.9671844304
 20
35.511832617
 11
155.9671844304
 21
36.1675703219
  0
LINE
  8
0
 62
7
  6
CONTINUOUS
 10
156.279992028
 20
32.1101932727
 11
156.279992028
 21
31.9488748406
  0
LINE
  8
0
 62
7
  6
CONTINUOUS
 10
156.279992028
 20
31.626237886
 11
156.279992028
 21
30.5937998301
  0
LINE
  8
0
 62
7
  6
CONTINUOUS
 10
156.5690540869
 20
30.5937998301
 11
156.5690540869
 21
31.626237886
  0
LINE
  8
0
 62
7
  6
CONTINUOUS
 10
156.5690540869
 20
31.9488748406
 11
156.5690540869
 21
32.1101932727
  0
LINE
  8
0
 62
7
  6
CONTINUOUS
 10
151.1346793074
 20
30.9164367395
 11
151.0768668626
 21
30.8196456577
  0
LINE
  8
0
 62
7
  6
CONTINUOUS
 10
153.4471794177
 20
31.400392081
 11
153.3893668074
 21
31.4649194539
  0
LINE
  8
0
 62
7
  6
CONTINUOUS
 10
154.3143669177
 20
30.7873819712
 11
154.2565543074
 21
30.8519093441
  0
LINE
  8
0
 62
7
  6
CONTINUOUS
 10
155.4706168074
 20
30.6583272086
 11
155.5284290869
 21
30.5937998301
  0
LINE
  8
0
 62
7
  6
CONTINUOUS
 10
155.412804528
 20
30.7551182848
 11
155.4706168074
 21
30.6583272086
  0
LINE
  8
0
 62
7
  6
CONTINUOUS
 10
155.8174918074
 20
30.5937998301
 11
155.759679528
 21
30.6905909007
  0
LINE
  8
0
 62
7
  6
CONTINUOUS
 10
155.7018665869
 20
31.3681283946
 11
155.6440543074
 21
31.4649194539
  0
LINE
  8
0
 62
7
  6
CONTINUOUS
 10
157.0315543074
 20
31.626237886
 11
157.0315543074
 21
30.5937998301
  0
LINE
  8
0
 62
7
  6
CONTINUOUS
 10
157.320617028
 20
30.5937998301
 11
157.320617028
 21
31.3358647082
  0
LINE
  8
0
 62
7
  6
CONTINUOUS
 10
157.320617028
 20
31.4649194539
 11
157.320617028
 21
31.626237886
  0
LINE
  8
0
 62
7
  6
CONTINUOUS
 10
157.852430332
 20
34.6101932727
 11
157.852430332
 21
32.3970785186
  0
LINE
  8
0
 62
7
  6
CONTINUOUS
 10
149.7471793074
 20
31.4326557675
 11
149.6315543091
 21
31.3036010218
  0
LINE
  8
0
 62
7
  6
CONTINUOUS
 10
149.9206168074
 20
31.2713373354
 11
149.9784292936
 21
31.3358647082
  0
LINE
  8
0
 62
7
  6
CONTINUOUS
 10
149.7471793074
 20
30.7873819712
 11
149.8628043005
 21
30.7228545871
  0
LINE
  8
0
 62
7
  6
CONTINUOUS
 10
150.1518667936
 20
30.7873819712
 11
149.9784292936
 21
30.8841730531
  0
LINE
  8
0
 62
7
  6
CONTINUOUS
 10
155.3549915869
 20
31.4326557675
 11
155.412804528
 21
31.3681283946
  0
LINE
  8
0
 62
7
  6
CONTINUOUS
 10
158.3034290869
 20
31.3681283946
 11
158.361242028
 21
31.2068099625
  0
LINE
  8
0
 62
7
  6
CONTINUOUS
 10
158.6503040869
 20
31.2068099625
 11
158.5924918074
 21
31.3681283946
  0
LINE
  8
0
 62
7
  6
CONTINUOUS
 10
158.361242028
 20
31.2068099625
 11
158.361242028
 21
30.5937998301
  0
LINE
  8
0
 62
7
  6
CONTINUOUS
 10
158.6503040869
 20
30.5937998301
 11
158.6503040869
 21
31.2068099625
  0
LINE
  8
0
 62
7
  6
CONTINUOUS
 10
159.1128043074
 20
31.4326557675
 11
159.1128043074
 21
31.3681283946
  0
LINE
  8
0
 62
7
  6
CONTINUOUS
 10
159.245872955
 20
32.3970785186
 11
159.245872955
 21
34.5282260596
  0
LINE
  8
0
 62
7
  6
CONTINUOUS
 10
159.5737418074
 20
36.1675703219
 11
159.5737418074
 21
32.3970785186
  0
LINE
  8
0
 62
7
  6
CONTINUOUS
 10
154.2565543074
 20
30.9164367395
 11
154.3143669177
 21
31.0132277988
  0
LINE
  8
0
 62
7
  6
CONTINUOUS
 10
149.8628043005
 20
30.7228545871
 11
150.0362418212
 21
30.6583272086
  0
LINE
  8
0
 62
7
  6
CONTINUOUS
 10
151.3659292523
 20
31.4326557675
 11
151.1924917523
 21
31.5294468267
  0
LINE
  8
0
 62
7
  6
CONTINUOUS
 10
154.0253041972
 20
30.7551182848
 11
154.1987416972
 21
30.6583272086
  0
LINE
  8
0
 62
7
  6
CONTINUOUS
 10
153.0424918074
 20
31.4326557675
 11
153.1581166972
 21
31.3681283946
  0
LINE
  8
0
 62
7
  6
CONTINUOUS
 10
153.3893668074
 20
31.4649194539
 11
153.2737419177
 21
31.5294468267
  0
LINE
  8
0
 62
7
  6
CONTINUOUS
 10
159.1128043074
 20
30.8519093441
 11
159.228429528
 21
30.7228545871
  0
LINE
  8
0
 62
7
  6
CONTINUOUS
 10
159.4596793074
 20
30.7873819712
 11
159.401867028
 21
30.8519093441
  0
LINE
  8
0
 62
7
  6
CONTINUOUS
 10
159.1128043074
 20
31.3681283946
 11
159.228429528
 21
31.2390736489
  0
LINE
  8
0
 62
7
  6
CONTINUOUS
 10
158.5924918074
 20
31.3681283946
 11
158.534679528
 21
31.4649194539
  0
LINE
  8
0
 62
7
  6
CONTINUOUS
 10
160.9628038663
 20
30.7873819712
 11
160.9628038663
 21
30.8519093441
  0
LINE
  8
0
 62
7
  6
CONTINUOUS
 10
160.9671844304
 20
32.3970785186
 11
160.9671844304
 21
36.1675703219
  0
LINE
  8
0
 62
7
  6
CONTINUOUS
 10
154.0253041972
 20
31.4971831403
 11
153.9674919177
 21
31.4326557675
  0
LINE
  8
0
 62
7
  6
CONTINUOUS
 10
150.9034292799
 20
31.4649194539
 11
151.0768668626
 21
31.400392081
  0
LINE
  8
0
 62
7
  6
CONTINUOUS
 10
155.6440543074
 20
31.4649194539
 11
155.5284290869
 21
31.5294468267
  0
LINE
  8
0
 62
7
  6
CONTINUOUS
 10
159.4596793074
 20
31.3036010218
 11
159.401867028
 21
31.3681283946
  0
LINE
  8
0
 62
7
  6
CONTINUOUS
 10
160.615929528
 20
30.9164367395
 11
160.6737418074
 21
30.8519093441
  0
LINE
  8
0
 62
7
  6
CONTINUOUS
 10
160.9628038663
 20
30.8519093441
 11
160.8471793074
 21
30.9809641124
  0
LINE
  8
0
 62
7
  6
CONTINUOUS
 10
160.615929528
 20
31.4326557675
 11
160.6737418074
 21
31.3681283946
  0
LINE
  8
0
 62
7
  6
CONTINUOUS
 10
160.9628038663
 20
31.3681283946
 11
160.8471793074
 21
31.4971831403
  0
LINE
  8
0
 62
7
  6
CONTINUOUS
 10
154.2565543074
 20
31.3681283946
 11
154.3143669177
 21
31.4326557675
  0
LINE
  8
0
 62
7
  6
CONTINUOUS
 10
154.0831168074
 20
31.1100188581
 11
153.9674919177
 21
30.9809641124
  0
LINE
  8
0
 62
7
  6
CONTINUOUS
 10
155.412804528
 20
30.9487004259
 11
155.3549915869
 21
30.8841730531
  0
LINE
  8
0
 62
7
  6
CONTINUOUS
 10
155.3549915869
 20
30.6905909007
 11
155.412804528
 21
30.7551182848
  0
LINE
  8
0
 62
7
  6
CONTINUOUS
 10
154.1987416972
 20
30.6583272086
 11
154.3143669177
 21
30.6260635193
  0
LINE
  8
0
 62
7
  6
CONTINUOUS
 10
151.1924917523
 20
31.5294468267
 11
150.9612418074
 21
31.5939741996
  0
LINE
  8
0
 62
7
  6
CONTINUOUS
 10
154.5456166972
 20
30.7228545871
 11
154.3143669177
 21
30.7873819712
  0
LINE
  8
0
 62
7
  6
CONTINUOUS
 10
153.2737419177
 20
31.5294468267
 11
153.1003044177
 21
31.5939741996
  0
LINE
  8
0
 62
7
  6
CONTINUOUS
 10
155.5284290869
 20
31.5294468267
 11
155.3549915869
 21
31.5939741996
  0
LINE
  8
0
 62
7
  6
CONTINUOUS
 10
158.187804528
 20
31.4326557675
 11
158.3034290869
 21
31.3681283946
  0
LINE
  8
0
 62
7
  6
CONTINUOUS
 10
158.534679528
 20
31.4649194539
 11
158.4190543074
 21
31.5294468267
  0
LINE
  8
0
 62
7
  6
CONTINUOUS
 10
150.0362418212
 20
30.6583272086
 11
150.2096793212
 21
30.6260635193
  0
LINE
  8
0
 62
7
  6
CONTINUOUS
 10
150.498741835
 20
30.7228545871
 11
150.1518667936
 21
30.7873819712
  0
LINE
  8
0
 62
7
  6
CONTINUOUS
 10
152.9268669177
 20
31.4649194539
 11
153.0424918074
 21
31.4326557675
  0
LINE
  8
0
 62
7
  6
CONTINUOUS
 10
155.239367028
 20
31.4649194539
 11
155.3549915869
 21
31.4326557675
  0
LINE
  8
0
 62
7
  6
CONTINUOUS
 10
159.575304528
 20
30.7551182848
 11
159.4596793074
 21
30.7873819712
  0
LINE
  8
0
 62
7
  6
CONTINUOUS
 10
158.0721793074
 20
31.4649194539
 11
158.187804528
 21
31.4326557675
  0
LINE
  8
0
 62
7
  6
CONTINUOUS
 10
159.228429528
 20
30.7228545871
 11
159.401867028
 21
30.6583272086
  0
LINE
  8
0
 62
7
  6
CONTINUOUS
 10
158.4190543074
 20
31.5294468267
 11
158.2456168074
 21
31.5939741996
  0
LINE
  8
0
 62
7
  6
CONTINUOUS
 10
159.6331168074
 20
31.2390736489
 11
159.4596793074
 21
31.3036010218
  0
LINE
  8
0
 62
7
  6
CONTINUOUS
 10
160.442492028
 20
30.9809641124
 11
160.615929528
 21
30.9164367395
  0
LINE
  8
0
 62
7
  6
CONTINUOUS
 10
160.8471793074
 20
31.4971831403
 11
160.6737418074
 21
31.5617105132
  0
LINE
  8
0
 62
7
  6
CONTINUOUS
 10
159.228429528
 20
31.2390736489
 11
159.4596793074
 21
31.1422825445
  0
LINE
  8
0
 62
7
  6
CONTINUOUS
 10
160.8471793074
 20
30.9809641124
 11
160.615929528
 21
31.0777551716
  0
LINE
  8
0
 62
7
  6
CONTINUOUS
 10
159.401867028
 20
31.3681283946
 11
159.4596793074
 21
31.4326557675
  0
LINE
  8
0
 62
7
  6
CONTINUOUS
 10
149.8628043005
 20
31.4971831403
 11
149.7471793074
 21
31.4326557675
  0
LINE
  8
0
 62
7
  6
CONTINUOUS
 10
149.9784292936
 20
31.3358647082
 11
150.1518667936
 21
31.4326557675
  0
LINE
  8
0
 62
7
  6
CONTINUOUS
 10
152.2909293626
 20
31.5294468267
 11
152.1753043074
 21
31.4649194539
  0
LINE
  8
0
 62
7
  6
CONTINUOUS
 10
152.1753043074
 20
31.3358647082
 11
152.2909293626
 21
31.400392081
  0
LINE
  8
0
 62
7
  6
CONTINUOUS
 10
151.1924917523
 20
30.6905909007
 11
151.3659292523
 21
30.7873819712
  0
LINE
  8
0
 62
7
  6
CONTINUOUS
 10
150.2096793212
 20
30.6260635193
 11
150.5565542799
 21
30.5937998301
  0
LINE
  8
0
 62
7
  6
CONTINUOUS
 10
154.3143669177
 20
30.6260635193
 11
154.5456166972
 21
30.5937998301
  0
LINE
  8
0
 62
7
  6
CONTINUOUS
 10
152.6956168074
 20
31.4971831403
 11
152.9268669177
 21
31.4649194539
  0
LINE
  8
0
 62
7
  6
CONTINUOUS
 10
155.0081169177
 20
31.4971831403
 11
155.239367028
 21
31.4649194539
  0
LINE
  8
0
 62
7
  6
CONTINUOUS
 10
159.4596793074
 20
31.1422825445
 11
160.442492028
 21
30.9809641124
  0
LINE
  8
0
 62
7
  6
CONTINUOUS
 10
160.615929528
 20
31.0777551716
 11
159.6331168074
 21
31.2390736489
  0
LINE
  8
0
 62
7
  6
CONTINUOUS
 10
153.1003044177
 20
31.5939741996
 11
152.9268669177
 21
31.626237886
  0
LINE
  8
0
 62
7
  6
CONTINUOUS
 10
159.401867028
 20
30.6583272086
 11
159.575304528
 21
30.6260635193
  0
LINE
  8
0
 62
7
  6
CONTINUOUS
 10
158.2456168074
 20
31.5939741996
 11
158.0721793074
 21
31.626237886
  0
LINE
  8
0
 62
7
  6
CONTINUOUS
 10
160.5003043074
 20
31.4649194539
 11
160.615929528
 21
31.4326557675
  0
LINE
  8
0
 62
7
  6
CONTINUOUS
 10
160.6737418074
 20
30.8519093441
 11
160.615929528
 21
30.7873819712
  0
LINE
  8
0
 62
7
  6
CONTINUOUS
 10
159.228429528
 20
31.5294468267
 11
159.1128043074
 21
31.4326557675
  0
LINE
  8
0
 62
7
  6
CONTINUOUS
 10
154.1409294177
 20
31.5617105132
 11
154.0253041972
 21
31.4971831403
  0
LINE
  8
0
 62
7
  6
CONTINUOUS
 10
154.1987416972
 20
31.1745462761
 11
154.0831168074
 21
31.1100188581
  0
LINE
  8
0
 62
7
  6
CONTINUOUS
 10
154.3143669177
 20
31.0132277988
 11
154.4299918074
 21
31.0777551716
  0
LINE
  8
0
 62
7
  6
CONTINUOUS
 10
151.8862417523
 20
30.5937998301
 11
152.1753043074
 21
30.5937998301
  0
LINE
  8
0
 62
7
  6
CONTINUOUS
 10
153.2159293074
 20
30.5937998301
 11
153.5049916972
 21
30.5937998301
  0
LINE
  8
0
 62
7
  6
CONTINUOUS
 10
154.5456166972
 20
30.5937998301
 11
154.8924916972
 21
30.5937998301
  0
LINE
  8
0
 62
7
  6
CONTINUOUS
 10
155.5284290869
 20
30.5937998301
 11
155.8174918074
 21
30.5937998301
  0
LINE
  8
0
 62
7
  6
CONTINUOUS
 10
156.279992028
 20
30.5937998301
 11
156.5690540869
 21
30.5937998301
  0
LINE
  8
0
 62
7
  6
CONTINUOUS
 10
157.0315543074
 20
30.5937998301
 11
157.320617028
 21
30.5937998301
  0
LINE
  8
0
 62
7
  6
CONTINUOUS
 10
158.361242028
 20
30.5937998301
 11
158.6503040869
 21
30.5937998301
  0
LINE
  8
0
 62
7
  6
CONTINUOUS
 10
159.922179528
 20
30.5937998301
 11
160.269054528
 21
30.5937998301
  0
LINE
  8
0
 62
7
  6
CONTINUOUS
 10
160.269054528
 20
30.7228545871
 11
159.922179528
 21
30.7228545871
  0
LINE
  8
0
 62
7
  6
CONTINUOUS
 10
154.8924916972
 20
30.7228545871
 11
154.5456166972
 21
30.7228545871
  0
LINE
  8
0
 62
7
  6
CONTINUOUS
 10
159.401867028
 20
30.8519093441
 11
159.1128043074
 21
30.8519093441
  0
LINE
  8
0
 62
7
  6
CONTINUOUS
 10
151.4237418626
 20
30.9164367395
 11
151.1346793074
 21
30.9164367395
  0
LINE
  8
0
 62
7
  6
CONTINUOUS
 10
150.498741835
 20
31.4971831403
 11
150.9034292799
 21
31.4649194539
  0
LINE
  8
0
 62
7
  6
CONTINUOUS
 10
150.9612418074
 20
31.5939741996
 11
150.5565542799
 21
31.626237886
  0
LINE
  8
0
 62
7
  6
CONTINUOUS
 10
159.575304528
 20
30.6260635193
 11
159.922179528
 21
30.5937998301
  0
LINE
  8
0
 62
7
  6
CONTINUOUS
 10
159.922179528
 20
30.7228545871
 11
159.575304528
 21
30.7551182848
  0
LINE
  8
0
 62
7
  6
CONTINUOUS
 10
155.3549915869
 20
31.5939741996
 11
155.0081169177
 21
31.626237886
  0
LINE
  8
0
 62
7
  6
CONTINUOUS
 10
160.1534293074
 20
31.4971831403
 11
160.5003043074
 21
31.4649194539
  0
LINE
  8
0
 62
7
  6
CONTINUOUS
 10
160.5003043074
 20
31.5939741996
 11
160.1534293074
 21
31.626237886
  0
LINE
  8
0
 62
7
  6
CONTINUOUS
 10
157.840929528
 20
31.4971831403
 11
158.0721793074
 21
31.4649194539
  0
LINE
  8
0
 62
7
  6
CONTINUOUS
 10
160.6737418074
 20
31.5617105132
 11
160.5003043074
 21
31.5939741996
  0
LINE
  8
0
 62
7
  6
CONTINUOUS
 10
160.8471793074
 20
30.6905909007
 11
160.9628038663
 21
30.7873819712
  0
LINE
  8
0
 62
7
  6
CONTINUOUS
 10
155.3549915869
 20
30.8841730531
 11
155.1815540869
 21
30.7873819712
  0
LINE
  8
0
 62
7
  6
CONTINUOUS
 10
157.4362415869
 20
31.5294468267
 11
157.320617028
 21
31.4649194539
  0
LINE
  8
0
 62
7
  6
CONTINUOUS
 10
157.320617028
 20
31.3358647082
 11
157.4362415869
 21
31.400392081
  0
LINE
  8
0
 62
7
  6
CONTINUOUS
 10
150.0362418212
 20
31.5617105132
 11
149.8628043005
 21
31.4971831403
  0
LINE
  8
0
 62
7
  6
CONTINUOUS
 10
152.4643666972
 20
31.5939741996
 11
152.2909293626
 21
31.5294468267
  0
LINE
  8
0
 62
7
  6
CONTINUOUS
 10
152.2909293626
 20
31.400392081
 11
152.4643666972
 21
31.4649194539
  0
LINE
  8
0
 62
7
  6
CONTINUOUS
 10
151.0768668626
 20
30.8196456577
 11
150.9034292799
 21
30.7551182848
  0
LINE
  8
0
 62
7
  6
CONTINUOUS
 10
160.5003043074
 20
30.7551182848
 11
160.269054528
 21
30.7228545871
  0
LINE
  8
0
 62
7
  6
CONTINUOUS
 10
154.8924916972
 20
30.5937998301
 11
155.1815540869
 21
30.6260635193
  0
LINE
  8
0
 62
7
  6
CONTINUOUS
 10
160.269054528
 20
30.5937998301
 11
160.615929528
 21
30.6260635193
  0
LINE
  8
0
 62
7
  6
CONTINUOUS
 10
150.5565542799
 20
30.5937998301
 11
150.9612418074
 21
30.6260635193
  0
LINE
  8
0
 62
7
  6
CONTINUOUS
 10
150.9034292799
 20
30.7551182848
 11
150.498741835
 21
30.7228545871
  0
LINE
  8
0
 62
7
  6
CONTINUOUS
 10
154.7768668074
 20
31.1422825445
 11
155.412804528
 21
31.1422825445
  0
LINE
  8
0
 62
7
  6
CONTINUOUS
 10
155.412804528
 20
31.2713373354
 11
154.7768668074
 21
31.2713373354
  0
LINE
  8
0
 62
7
  6
CONTINUOUS
 10
151.1346793074
 20
31.3036010218
 11
151.4237418626
 21
31.3036010218
  0
LINE
  8
0
 62
7
  6
CONTINUOUS
 10
153.9674919177
 20
31.3681283946
 11
154.2565543074
 21
31.3681283946
  0
LINE
  8
0
 62
7
  6
CONTINUOUS
 10
160.6737418074
 20
31.3681283946
 11
160.9628038663
 21
31.3681283946
  0
LINE
  8
0
 62
7
  6
CONTINUOUS
 10
154.6612419177
 20
31.4971831403
 11
155.0081169177
 21
31.4971831403
  0
LINE
  8
0
 62
7
  6
CONTINUOUS
 10
159.8065543074
 20
31.4971831403
 11
160.1534293074
 21
31.4971831403
  0
LINE
  8
0
 62
7
  6
CONTINUOUS
 10
160.1534293074
 20
31.626237886
 11
159.8065543074
 21
31.626237886
  0
LINE
  8
0
 62
7
  6
CONTINUOUS
 10
158.0721793074
 20
31.626237886
 11
157.840929528
 21
31.626237886
  0
LINE
  8
0
 62
7
  6
CONTINUOUS
 10
157.320617028
 20
31.626237886
 11
157.0315543074
 21
31.626237886
  0
LINE
  8
0
 62
7
  6
CONTINUOUS
 10
156.5690540869
 20
31.626237886
 11
156.279992028
 21
31.626237886
  0
LINE
  8
0
 62
7
  6
CONTINUOUS
 10
155.0081169177
 20
31.626237886
 11
154.6612419177
 21
31.626237886
  0
LINE
  8
0
 62
7
  6
CONTINUOUS
 10
152.9268669177
 20
31.626237886
 11
152.6956168074
 21
31.626237886
  0
LINE
  8
0
 62
7
  6
CONTINUOUS
 10
156.279992028
 20
31.9488748406
 11
156.5690540869
 21
31.9488748406
  0
LINE
  8
0
 62
7
  6
CONTINUOUS
 10
156.5690540869
 20
32.1101932727
 11
156.279992028
 21
32.1101932727
  0
LINE
  8
0
 62
7
  6
CONTINUOUS
 10
152.1753043074
 20
32.1101932727
 11
151.8862417523
 21
32.1101932727
  0
LINE
  8
0
 62
7
  6
CONTINUOUS
 10
151.2130860697
 20
32.3970785186
 11
151.6256574183
 21
32.3970785186
  0
LINE
  8
0
 62
7
  6
CONTINUOUS
 10
152.852430332
 20
32.3970785186
 11
154.245872955
 21
32.3970785186
  0
LINE
  8
0
 62
7
  6
CONTINUOUS
 10
154.5737418074
 20
32.3970785186
 11
155.9671844304
 21
32.3970785186
  0
LINE
  8
0
 62
7
  6
CONTINUOUS
 10
157.852430332
 20
32.3970785186
 11
159.245872955
 21
32.3970785186
  0
LINE
  8
0
 62
7
  6
CONTINUOUS
 10
159.5737418074
 20
32.3970785186
 11
160.9671844304
 21
32.3970785186
  0
LINE
  8
0
 62
7
  6
CONTINUOUS
 10
157.6096790869
 20
31.5939741996
 11
157.4362415869
 21
31.5294468267
  0
LINE
  8
0
 62
7
  6
CONTINUOUS
 10
155.1815540869
 20
30.6260635193
 11
155.3549915869
 21
30.6905909007
  0
LINE
  8
0
 62
7
  6
CONTINUOUS
 10
160.615929528
 20
30.6260635193
 11
160.8471793074
 21
30.6905909007
  0
LINE
  8
0
 62
7
  6
CONTINUOUS
 10
160.615929528
 20
30.7873819712
 11
160.5003043074
 21
30.7551182848
  0
LINE
  8
0
 62
7
  6
CONTINUOUS
 10
159.575304528
 20
31.4649194539
 11
159.8065543074
 21
31.4971831403
  0
LINE
  8
0
 62
7
  6
CONTINUOUS
 10
157.6096790869
 20
31.4649194539
 11
157.840929528
 21
31.4971831403
  0
LINE
  8
0
 62
7
  6
CONTINUOUS
 10
154.5456166972
 20
31.1100188581
 11
154.7768668074
 21
31.1422825445
  0
LINE
  8
0
 62
7
  6
CONTINUOUS
 10
157.840929528
 20
31.626237886
 11
157.6096790869
 21
31.5939741996
  0
LINE
  8
0
 62
7
  6
CONTINUOUS
 10
154.4299918074
 20
31.4649194539
 11
154.6612419177
 21
31.4971831403
  0
LINE
  8
0
 62
7
  6
CONTINUOUS
 10
159.8065543074
 20
31.626237886
 11
159.4596793074
 21
31.5939741996
  0
LINE
  8
0
 62
7
  6
CONTINUOUS
 10
154.7768668074
 20
31.2713373354
 11
154.4299918074
 21
31.2390736489
  0
LINE
  8
0
 62
7
  6
CONTINUOUS
 10
150.5565542799
 20
31.626237886
 11
150.2096793212
 21
31.5939741996
  0
LINE
  8
0
 62
7
  6
CONTINUOUS
 10
154.6612419177
 20
31.626237886
 11
154.2565543074
 21
31.5939741996
  0
LINE
  8
0
 62
7
  6
CONTINUOUS
 10
152.0327582009
 20
33.5446195022
 11
151.3770204959
 21
33.5446195022
  0
LINE
  8
0
 62
7
  6
CONTINUOUS
 10
157.4362415869
 20
31.400392081
 11
157.6096790869
 21
31.4649194539
  0
LINE
  8
0
 62
7
  6
CONTINUOUS
 10
159.4596793074
 20
31.4326557675
 11
159.575304528
 21
31.4649194539
  0
LINE
  8
0
 62
7
  6
CONTINUOUS
 10
159.4596793074
 20
31.5939741996
 11
159.228429528
 21
31.5294468267
  0
LINE
  8
0
 62
7
  6
CONTINUOUS
 10
155.1815540869
 20
30.7873819712
 11
154.8924916972
 21
30.7228545871
  0
LINE
  8
0
 62
7
  6
CONTINUOUS
 10
152.4643666972
 20
31.4649194539
 11
152.6956168074
 21
31.4971831403
  0
LINE
  8
0
 62
7
  6
CONTINUOUS
 10
152.6956168074
 20
31.626237886
 11
152.4643666972
 21
31.5939741996
  0
LINE
  8
0
 62
7
  6
CONTINUOUS
 10
150.2674918074
 20
31.4649194539
 11
150.498741835
 21
31.4971831403
  0
LINE
  8
0
 62
7
  6
CONTINUOUS
 10
156.7868565615
 20
35.0200293383
 11
157.4425942664
 21
35.0200293383
  0
LINE
  8
0
 62
7
  6
CONTINUOUS
 10
154.4299918074
 20
31.0777551716
 11
154.5456166972
 21
31.1100188581
  0
LINE
  8
0
 62
7
  6
CONTINUOUS
 10
154.4299918074
 20
31.2390736489
 11
154.1987416972
 21
31.1745462761
  0
LINE
  8
0
 62
7
  6
CONTINUOUS
 10
154.3143669177
 20
31.4326557675
 11
154.4299918074
 21
31.4649194539
  0
LINE
  8
0
 62
7
  6
CONTINUOUS
 10
150.9612418074
 20
30.6260635193
 11
151.1924917523
 21
30.6905909007
  0
LINE
  8
0
 62
7
  6
CONTINUOUS
 10
154.2565543074
 20
31.5939741996
 11
154.1409294177
 21
31.5617105132
  0
LINE
  8
0
 62
7
  6
CONTINUOUS
 10
150.2096793212
 20
31.5939741996
 11
150.0362418212
 21
31.5617105132
  0
LINE
  8
0
 62
7
  6
CONTINUOUS
 10
160.9671844304
 20
36.1675703219
 11
159.5737418074
 21
36.1675703219
  0
LINE
  8
0
 62
7
  6
CONTINUOUS
 10
157.6065286927
 20
36.1675703219
 11
157.1939573441
 21
36.1675703219
  0
LINE
  8
0
 62
7
  6
CONTINUOUS
 10
155.9671844304
 20
36.1675703219
 11
154.5737418074
 21
36.1675703219
  0
LINE
  8
0
 62
7
  6
CONTINUOUS
 10
154.245872955
 20
36.1675703219
 11
152.852430332
 21
36.1675703219
  0
LINE
  8
0
 62
7
  6
CONTINUOUS
 10
150.9671844304
 20
36.1675703219
 11
149.5737418074
 21
36.1675703219
  0
LINE
  8
0
 62
7
  6
CONTINUOUS
 10
150.1518667936
 20
31.4326557675
 11
150.2674918074
 21
31.4649194539
  0
CIRCLE
  8
0
 62
7
  6
CONTINUOUS
 10
160.2704631189
 20
38.5036358957
 40
2.0901639344
  0
ARC
  8
0
 62
7
  6
CONTINUOUS
 10
151.2130860697
 20
34.0364227809
 40
1.6393442623
 50
180.0
 51
270.0
  0
ARC
  8
0
 62
7
  6
CONTINUOUS
 10
157.6065286927
 20
34.5282260596
 40
1.6393442623
 50
0.0
 51
90.0
  0
ARC
  8
0
 62
7
  6
CONTINUOUS
 10
151.6256574183
 20
33.8724883547
 40
1.4754098361
 50
270.0
 51
326.2510114041
  0
ARC
  8
0
 62
7
  6
CONTINUOUS
 10
157.1939573441
 20
34.6921604858
 40
1.4754098361
 50
90.0
 51
146.2510114041
  0
ARC
  8
0
 62
7
  6
CONTINUOUS
 10
152.0327582009
 20
34.3642916334
 40
0.8196721311
 50
270.0
 51
360.0
  0
ARC
  8
0
 62
7
  6
CONTINUOUS
 10
156.7868565615
 20
34.2003572071
 40
0.8196721311
 50
90.0
 51
180.0
  0
ARC
  8
0
 62
7
  6
CONTINUOUS
 10
151.3770204959
 20
33.9544555678
 40
0.4098360656
 50
180.0
 51
270.0
  0
ARC
  8
0
 62
7
  6
CONTINUOUS
 10
157.4425942664
 20
34.6101932727
 40
0.4098360656
 50
0.0
 51
90.0
  0
SOLID
  8
0
 62
7
  6
CONTINUOUS
 10
156.279992028
 20
31.9488752009
 11
156.279992028
 21
32.1101936845
 12
156.5690540869
 22
31.9488752009
 13
156.5690540869
 23
32.1101936845
  0
SOLID
  8
0
 62
7
  6
CONTINUOUS
 10
150.5565542799
 20
31.6262382337
 11
150.9612418074
 21
31.5939740028
 12
150.2096793212
 22
31.5939740028
 13
150.2096793212
 23
31.5939740028
  0
SOLID
  8
0
 62
7
  6
CONTINUOUS
 10
150.0362418212
 20
31.5617111435
 11
150.2096793212
 21
31.5939740028
 12
150.9612418074
 22
31.5939740028
 13
150.9612418074
 23
31.5939740028
  0
SOLID
  8
0
 62
7
  6
CONTINUOUS
 10
150.9612418074
 20
31.5939740028
 11
151.1924917523
 21
31.5294468402
 12
150.0362418212
 22
31.5617111435
 13
150.0362418212
 23
31.5617111435
  0
SOLID
  8
0
 62
7
  6
CONTINUOUS
 10
149.8628043005
 20
31.49718259
 11
150.0362418212
 21
31.5617111435
 12
151.1924917523
 22
31.5294468402
 13
151.1924917523
 23
31.5294468402
  0
SOLID
  8
0
 62
7
  6
CONTINUOUS
 10
149.8628043005
 20
31.49718259
 11
151.1924917523
 21
31.5294468402
 12
150.498741835
 22
31.49718259
 13
150.498741835
 23
31.49718259
  0
SOLID
  8
0
 62
7
  6
CONTINUOUS
 10
150.498741835
 20
31.49718259
 11
151.1924917523
 21
31.5294468402
 12
150.9034292799
 22
31.4649197501
 13
150.9034292799
 23
31.4649197501
  0
SOLID
  8
0
 62
7
  6
CONTINUOUS
 10
151.1924917523
 20
31.5294468402
 11
151.3659292523
 21
31.4326554468
 12
150.9034292799
 22
31.4649197501
 13
150.9034292799
 23
31.4649197501
  0
SOLID
  8
0
 62
7
  6
CONTINUOUS
 10
151.0768668626
 20
31.4003926599
 11
150.9034292799
 21
31.4649197501
 12
151.3659292523
 22
31.4326554468
 13
151.3659292523
 23
31.4326554468
  0
SOLID
  8
0
 62
7
  6
CONTINUOUS
 10
151.0768668626
 20
31.4003926599
 11
151.3659292523
 21
31.4326554468
 12
151.1346793074
 22
31.3036013776
 13
151.1346793074
 23
31.3036013776
  0
SOLID
  8
0
 62
7
  6
CONTINUOUS
 10
151.3659292523
 20
31.4326554468
 11
151.4237418626
 21
31.3036013776
 12
151.1346793074
 22
31.3036013776
 13
151.1346793074
 23
31.3036013776
  0
SOLID
  8
0
 62
7
  6
CONTINUOUS
 10
152.4643666972
 20
31.5939739754
 11
152.6956168074
 21
31.6262382787
 12
152.9268669177
 22
31.6262382787
 13
152.9268669177
 23
31.6262382787
  0
SOLID
  8
0
 62
7
  6
CONTINUOUS
 10
152.9268669177
 20
31.6262382787
 11
153.1003044177
 21
31.5939739754
 12
152.4643666972
 22
31.5939739754
 13
152.4643666972
 23
31.5939739754
  0
SOLID
  8
0
 62
7
  6
CONTINUOUS
 10
152.2909293626
 20
31.5294468852
 11
152.4643666972
 21
31.5939739754
 12
153.1003044177
 22
31.5939739754
 13
153.1003044177
 23
31.5939739754
  0
SOLID
  8
0
 62
7
  6
CONTINUOUS
 10
153.1003044177
 20
31.5939739754
 11
153.2737419177
 21
31.5294468852
 12
152.2909293626
 22
31.5294468852
 13
152.2909293626
 23
31.5294468852
  0
SOLID
  8
0
 62
7
  6
CONTINUOUS
 10
153.2737419177
 20
31.5294468852
 11
152.6956168074
 21
31.4971825369
 12
152.2909293626
 22
31.5294468852
 13
152.2909293626
 23
31.5294468852
  0
SOLID
  8
0
 62
7
  6
CONTINUOUS
 10
152.1753043074
 20
31.4649197951
 11
152.2909293626
 21
31.5294468852
 12
152.6956168074
 22
31.4971825369
 13
152.6956168074
 23
31.4971825369
  0
SOLID
  8
0
 62
7
  6
CONTINUOUS
 10
152.6956168074
 20
31.4971825369
 11
152.4643666972
 21
31.4649197951
 12
152.1753043074
 22
31.4649197951
 13
152.1753043074
 23
31.4649197951
  0
SOLID
  8
0
 62
7
  6
CONTINUOUS
 10
152.6956168074
 20
31.4971825369
 11
153.2737419177
 21
31.5294468852
 12
152.9268669177
 22
31.4649197951
 13
152.9268669177
 23
31.4649197951
  0
SOLID
  8
0
 62
7
  6
CONTINUOUS
 10
153.2737419177
 20
31.5294468852
 11
153.3893668074
 21
31.4649197951
 12
152.9268669177
 22
31.4649197951
 13
152.9268669177
 23
31.4649197951
  0
SOLID
  8
0
 62
7
  6
CONTINUOUS
 10
153.0424918074
 20
31.4326554468
 11
152.9268669177
 21
31.4649197951
 12
153.3893668074
 22
31.4649197951
 13
153.3893668074
 23
31.4649197951
  0
SOLID
  8
0
 62
7
  6
CONTINUOUS
 10
153.3893668074
 20
31.4649197951
 11
153.4471794177
 21
31.4003927049
 12
153.0424918074
 22
31.4326554468
 13
153.0424918074
 23
31.4326554468
  0
SOLID
  8
0
 62
7
  6
CONTINUOUS
 10
153.1581166972
 20
31.3681283566
 11
153.0424918074
 21
31.4326554468
 12
153.4471794177
 22
31.4003927049
 13
153.4471794177
 23
31.4003927049
  0
SOLID
  8
0
 62
7
  6
CONTINUOUS
 10
153.1581166972
 20
31.3681283566
 11
153.4471794177
 21
31.4003927049
 12
153.2159293074
 22
31.2390742213
 13
153.2159293074
 23
31.2390742213
  0
SOLID
  8
0
 62
7
  6
CONTINUOUS
 10
153.4471794177
 20
31.4003927049
 11
153.5049916972
 21
31.2390742213
 12
153.2159293074
 22
31.2390742213
 13
153.2159293074
 23
31.2390742213
  0
SOLID
  8
0
 62
7
  6
CONTINUOUS
 10
152.4643666972
 20
31.4649197951
 11
152.2909293626
 21
31.4003927049
 12
152.1753043074
 22
31.4649197951
 13
152.1753043074
 23
31.4649197951
  0
SOLID
  8
0
 62
7
  6
CONTINUOUS
 10
152.2909293626
 20
31.4003927049
 11
152.1753043074
 21
31.3358640533
 12
152.1753043074
 22
31.4649197951
 13
152.1753043074
 23
31.4649197951
  0
SOLID
  8
0
 62
7
  6
CONTINUOUS
 10
152.1753043074
 20
31.3358640533
 11
151.8862417523
 21
30.5938002869
 12
152.1753043074
 22
31.4649197951
 13
152.1753043074
 23
31.4649197951
  0
SOLID
  8
0
 62
7
  6
CONTINUOUS
 10
152.1753043074
 20
31.4649197951
 11
151.8862417523
 21
30.5938002869
 12
152.1753043074
 22
32.1101937295
 13
152.1753043074
 23
32.1101937295
  0
SOLID
  8
0
 62
7
  6
CONTINUOUS
 10
151.8862417523
 20
30.5938002869
 11
151.8862417523
 21
32.1101937295
 12
152.1753043074
 22
32.1101937295
 13
152.1753043074
 23
32.1101937295
  0
SOLID
  8
0
 62
7
  6
CONTINUOUS
 10
152.1753043074
 20
31.3358640533
 11
152.1753043074
 21
30.5938002869
 12
151.8862417523
 22
30.5938002869
 13
151.8862417523
 23
30.5938002869
  0
SOLID
  8
0
 62
7
  6
CONTINUOUS
 10
153.2159293074
 20
30.5938002869
 11
153.2159293074
 21
31.2390742213
 12
153.5049916972
 22
31.2390742213
 13
153.5049916972
 23
31.2390742213
  0
SOLID
  8
0
 62
7
  6
CONTINUOUS
 10
153.5049916972
 20
31.2390742213
 11
153.5049916972
 21
30.5938002869
 12
153.2159293074
 22
30.5938002869
 13
153.2159293074
 23
30.5938002869
  0
SOLID
  8
0
 62
7
  6
CONTINUOUS
 10
154.2565543074
 20
31.5939738288
 11
154.6612419177
 21
31.6262385959
 12
155.0081169177
 22
31.6262385959
 13
155.0081169177
 23
31.6262385959
  0
SOLID
  8
0
 62
7
  6
CONTINUOUS
 10
155.0081169177
 20
31.6262385959
 11
155.3549915869
 21
31.5939738288
 12
154.2565543074
 22
31.5939738288
 13
154.2565543074
 23
31.5939738288
  0
SOLID
  8
0
 62
7
  6
CONTINUOUS
 10
154.1409294177
 20
31.5617111435
 11
154.2565543074
 21
31.5939738288
 12
155.3549915869
 22
31.5939738288
 13
155.3549915869
 23
31.5939738288
  0
SOLID
  8
0
 62
7
  6
CONTINUOUS
 10
155.3549915869
 20
31.5939738288
 11
155.5284290869
 21
31.5294468402
 12
154.1409294177
 22
31.5617111435
 13
154.1409294177
 23
31.5617111435
  0
SOLID
  8
0
 62
7
  6
CONTINUOUS
 10
154.0253041972
 20
31.4971826249
 11
154.1409294177
 21
31.5617111435
 12
155.5284290869
 22
31.5294468402
 13
155.5284290869
 23
31.5294468402
  0
SOLID
  8
0
 62
7
  6
CONTINUOUS
 10
154.0253041972
 20
31.4971826249
 11
155.5284290869
 21
31.5294468402
 12
154.6612419177
 22
31.4971826249
 13
154.6612419177
 23
31.4971826249
  0
SOLID
  8
0
 62
7
  6
CONTINUOUS
 10
154.6612419177
 20
31.4971826249
 11
155.5284290869
 21
31.5294468402
 12
155.0081169177
 22
31.4971826249
 13
155.0081169177
 23
31.4971826249
  0
SOLID
  8
0
 62
7
  6
CONTINUOUS
 10
155.0081169177
 20
31.4971826249
 11
155.5284290869
 21
31.5294468402
 12
155.239367028
 22
31.4649194065
 13
155.239367028
 23
31.4649194065
  0
SOLID
  8
0
 62
7
  6
CONTINUOUS
 10
155.5284290869
 20
31.5294468402
 11
155.6440543074
 21
31.4649194065
 12
155.239367028
 22
31.4649194065
 13
155.239367028
 23
31.4649194065
  0
SOLID
  8
0
 62
7
  6
CONTINUOUS
 10
153.9674919177
 20
31.4326554138
 11
154.0253041972
 21
31.4971826249
 12
154.6612419177
 22
31.4971826249
 13
154.6612419177
 23
31.4971826249
  0
SOLID
  8
0
 62
7
  6
CONTINUOUS
 10
155.3549915869
 20
31.4326554138
 11
155.239367028
 21
31.4649194065
 12
155.6440543074
 22
31.4649194065
 13
155.6440543074
 23
31.4649194065
  0
SOLID
  8
0
 62
7
  6
CONTINUOUS
 10
155.3549915869
 20
31.4326554138
 11
155.6440543074
 21
31.4649194065
 12
155.412804528
 22
31.3681282026
 13
155.412804528
 23
31.3681282026
  0
SOLID
  8
0
 62
7
  6
CONTINUOUS
 10
155.6440543074
 20
31.4649194065
 11
155.7018665869
 21
31.3681282026
 12
155.412804528
 22
31.3681282026
 13
155.412804528
 23
31.3681282026
  0
SOLID
  8
0
 62
7
  6
CONTINUOUS
 10
155.412804528
 20
31.2713369632
 11
155.412804528
 21
31.3681282026
 12
155.7018665869
 22
31.3681282026
 13
155.7018665869
 23
31.3681282026
  0
SOLID
  8
0
 62
7
  6
CONTINUOUS
 10
155.412804528
 20
31.2713369632
 11
155.7018665869
 21
31.3681282026
 12
155.412804528
 22
31.1422827828
 13
155.412804528
 23
31.1422827828
  0
SOLID
  8
0
 62
7
  6
CONTINUOUS
 10
155.412804528
 20
31.1422827828
 11
155.7018665869
 21
31.3681282026
 12
155.412804528
 22
30.9487004259
 13
155.412804528
 23
30.9487004259
  0
SOLID
  8
0
 62
7
  6
CONTINUOUS
 10
155.7018665869
 20
31.3681282026
 11
155.7018665869
 21
30.8519086025
 12
155.412804528
 22
30.9487004259
 13
155.412804528
 23
30.9487004259
  0
SOLID
  8
0
 62
7
  6
CONTINUOUS
 10
157.6096790869
 20
31.5939736268
 11
157.840929528
 21
31.6262383465
 12
158.0721793074
 22
31.6262383465
 13
158.0721793074
 23
31.6262383465
  0
SOLID
  8
0
 62
7
  6
CONTINUOUS
 10
158.0721793074
 20
31.6262383465
 11
158.2456168074
 21
31.5939736268
 12
157.6096790869
 22
31.5939736268
 13
157.6096790869
 23
31.5939736268
  0
SOLID
  8
0
 62
7
  6
CONTINUOUS
 10
157.4362415869
 20
31.5294472848
 11
157.6096790869
 21
31.5939736268
 12
158.2456168074
 22
31.5939736268
 13
158.2456168074
 23
31.5939736268
  0
SOLID
  8
0
 62
7
  6
CONTINUOUS
 10
158.2456168074
 20
31.5939736268
 11
158.4190543074
 21
31.5294472848
 12
157.4362415869
 22
31.5294472848
 13
157.4362415869
 23
31.5294472848
  0
SOLID
  8
0
 62
7
  6
CONTINUOUS
 10
158.4190543074
 20
31.5294472848
 11
157.840929528
 21
31.4971825369
 12
157.4362415869
 22
31.5294472848
 13
157.4362415869
 23
31.5294472848
  0
SOLID
  8
0
 62
7
  6
CONTINUOUS
 10
157.320617028
 20
31.4649199103
 11
157.4362415869
 21
31.5294472848
 12
157.840929528
 22
31.4971825369
 13
157.840929528
 23
31.4971825369
  0
SOLID
  8
0
 62
7
  6
CONTINUOUS
 10
157.840929528
 20
31.4971825369
 11
157.6096790869
 21
31.4649199103
 12
157.320617028
 22
31.4649199103
 13
157.320617028
 23
31.4649199103
  0
SOLID
  8
0
 62
7
  6
CONTINUOUS
 10
157.840929528
 20
31.4971825369
 11
158.4190543074
 21
31.5294472848
 12
158.0721793074
 22
31.4649199103
 13
158.0721793074
 23
31.4649199103
  0
SOLID
  8
0
 62
7
  6
CONTINUOUS
 10
158.4190543074
 20
31.5294472848
 11
158.534679528
 21
31.4649199103
 12
158.0721793074
 22
31.4649199103
 13
158.0721793074
 23
31.4649199103
  0
SOLID
  8
0
 62
7
  6
CONTINUOUS
 10
158.187804528
 20
31.4326554468
 11
158.0721793074
 21
31.4649199103
 12
158.534679528
 22
31.4649199103
 13
158.534679528
 23
31.4649199103
  0
SOLID
  8
0
 62
7
  6
CONTINUOUS
 10
158.187804528
 20
31.4326554468
 11
158.534679528
 21
31.4649199103
 12
158.3034290869
 22
31.3681288486
 13
158.3034290869
 23
31.3681288486
  0
SOLID
  8
0
 62
7
  6
CONTINUOUS
 10
158.534679528
 20
31.4649199103
 11
158.5924918074
 21
31.3681288486
 12
158.3034290869
 22
31.3681288486
 13
158.3034290869
 23
31.3681288486
  0
SOLID
  8
0
 62
7
  6
CONTINUOUS
 10
158.361242028
 20
31.2068093799
 11
158.3034290869
 21
31.3681288486
 12
158.5924918074
 22
31.3681288486
 13
158.5924918074
 23
31.3681288486
  0
SOLID
  8
0
 62
7
  6
CONTINUOUS
 10
158.5924918074
 20
31.3681288486
 11
158.6503040869
 21
31.2068093799
 12
158.361242028
 22
31.2068093799
 13
158.361242028
 23
31.2068093799
  0
SOLID
  8
0
 62
7
  6
CONTINUOUS
 10
157.6096790869
 20
31.4649199103
 11
157.4362415869
 21
31.4003926599
 12
157.320617028
 22
31.4649199103
 13
157.320617028
 23
31.4649199103
  0
SOLID
  8
0
 62
7
  6
CONTINUOUS
 10
157.4362415869
 20
31.4003926599
 11
157.320617028
 21
31.3358640533
 12
157.320617028
 22
31.4649199103
 13
157.320617028
 23
31.4649199103
  0
SOLID
  8
0
 62
7
  6
CONTINUOUS
 10
157.320617028
 20
31.3358640533
 11
157.0315543074
 21
30.5938003547
 12
157.320617028
 22
31.4649199103
 13
157.320617028
 23
31.4649199103
  0
SOLID
  8
0
 62
7
  6
CONTINUOUS
 10
157.320617028
 20
31.4649199103
 11
157.0315543074
 21
30.5938003547
 12
157.320617028
 22
31.6262383465
 13
157.320617028
 23
31.6262383465
  0
SOLID
  8
0
 62
7
  6
CONTINUOUS
 10
157.0315543074
 20
30.5938003547
 11
157.0315543074
 21
31.6262383465
 12
157.320617028
 22
31.6262383465
 13
157.320617028
 23
31.6262383465
  0
SOLID
  8
0
 62
7
  6
CONTINUOUS
 10
157.320617028
 20
31.3358640533
 11
157.320617028
 21
30.5938003547
 12
157.0315543074
 22
30.5938003547
 13
157.0315543074
 23
30.5938003547
  0
SOLID
  8
0
 62
7
  6
CONTINUOUS
 10
158.361242028
 20
30.5938003547
 11
158.361242028
 21
31.2068093799
 12
158.6503040869
 22
31.2068093799
 13
158.6503040869
 23
31.2068093799
  0
SOLID
  8
0
 62
7
  6
CONTINUOUS
 10
158.6503040869
 20
31.2068093799
 11
158.6503040869
 21
30.5938003547
 12
158.361242028
 22
30.5938003547
 13
158.361242028
 23
30.5938003547
  0
SOLID
  8
0
 62
7
  6
CONTINUOUS
 10
159.4596793074
 20
31.5939739474
 11
159.8065543074
 21
31.6262381969
 12
160.1534293074
 22
31.6262381969
 13
160.1534293074
 23
31.6262381969
  0
SOLID
  8
0
 62
7
  6
CONTINUOUS
 10
160.1534293074
 20
31.6262381969
 11
160.5003043074
 21
31.5939739474
 12
159.4596793074
 22
31.5939739474
 13
159.4596793074
 23
31.5939739474
  0
SOLID
  8
0
 62
7
  6
CONTINUOUS
 10
159.228429528
 20
31.5294468402
 11
159.4596793074
 21
31.5939739474
 12
160.5003043074
 22
31.5939739474
 13
160.5003043074
 23
31.5939739474
  0
SOLID
  8
0
 62
7
  6
CONTINUOUS
 10
159.228429528
 20
31.5294468402
 11
160.5003043074
 21
31.5939739304
 12
160.6737418074
 22
31.5617111435
 13
160.6737418074
 23
31.5617111435
  0
SOLID
  8
0
 62
7
  6
CONTINUOUS
 10
159.228429528
 20
31.5294468402
 11
160.6737418074
 21
31.5617111435
 12
159.8065543074
 22
31.4971825592
 13
159.8065543074
 23
31.4971825592
  0
SOLID
  8
0
 62
7
  6
CONTINUOUS
 10
159.8065543074
 20
31.4971825592
 11
160.6737418074
 21
31.5617111435
 12
160.1534293074
 22
31.4971825592
 13
160.1534293074
 23
31.4971825592
  0
SOLID
  8
0
 62
7
  6
CONTINUOUS
 10
160.6737418074
 20
31.5617111435
 11
160.8471793074
 21
31.4971825592
 12
160.1534293074
 22
31.4971825592
 13
160.1534293074
 23
31.4971825592
  0
SOLID
  8
0
 62
7
  6
CONTINUOUS
 10
160.5003043074
 20
31.4649197501
 11
160.1534293074
 21
31.4971825592
 12
160.8471793074
 22
31.4971825592
 13
160.8471793074
 23
31.4971825592
  0
SOLID
  8
0
 62
7
  6
CONTINUOUS
 10
159.1128043074
 20
31.4326555427
 11
159.228429528
 21
31.5294468402
 12
159.8065543074
 22
31.4971825592
 13
159.8065543074
 23
31.4971825592
  0
SOLID
  8
0
 62
7
  6
CONTINUOUS
 10
160.5003043074
 20
31.4649197501
 11
160.8471793074
 21
31.4971825592
 12
160.615929528
 22
31.4326555427
 13
160.615929528
 23
31.4326555427
  0
SOLID
  8
0
 62
7
  6
CONTINUOUS
 10
160.615929528
 20
31.4326555427
 11
160.8471793074
 21
31.4971825592
 12
160.6737418074
 22
31.3681283005
 13
160.6737418074
 23
31.3681283005
  0
SOLID
  8
0
 62
7
  6
CONTINUOUS
 10
160.8471793074
 20
31.4971825592
 11
160.9628038663
 21
31.3681283005
 12
160.6737418074
 22
31.3681283005
 13
160.6737418074
 23
31.3681283005
  0
SOLID
  8
0
 62
7
  6
CONTINUOUS
 10
150.2674918074
 20
31.4649197501
 11
149.7471793074
 21
31.4326554237
 12
150.498741835
 22
31.4971824493
 13
150.498741835
 23
31.4971824493
  0
SOLID
  8
0
 62
7
  6
CONTINUOUS
 10
149.7471793074
 20
31.4326554237
 11
149.8628043005
 21
31.4971824493
 12
150.498741835
 22
31.4971824493
 13
150.498741835
 23
31.4971824493
  0
SOLID
  8
0
 62
7
  6
CONTINUOUS
 10
150.2674918074
 20
31.4649197501
 11
150.1518667936
 21
31.4326554237
 12
149.7471793074
 22
31.4326554237
 13
149.7471793074
 23
31.4326554237
  0
SOLID
  8
0
 62
7
  6
CONTINUOUS
 10
149.6315543091
 20
31.3036012664
 11
149.7471793074
 21
31.4326554237
 12
150.1518667936
 22
31.4326554237
 13
150.1518667936
 23
31.4326554237
  0
SOLID
  8
0
 62
7
  6
CONTINUOUS
 10
153.9674919177
 20
31.4326554237
 11
154.6612419177
 21
31.4971825369
 12
154.4299918074
 22
31.4649197501
 13
154.4299918074
 23
31.4649197501
  0
SOLID
  8
0
 62
7
  6
CONTINUOUS
 10
154.4299918074
 20
31.4649197501
 11
154.3143669177
 21
31.4326554237
 12
153.9674919177
 22
31.4326554237
 13
153.9674919177
 23
31.4326554237
  0
SOLID
  8
0
 62
7
  6
CONTINUOUS
 10
153.9674919177
 20
31.3681283335
 11
153.9674919177
 21
31.4326554237
 12
154.3143669177
 22
31.4326554237
 13
154.3143669177
 23
31.4326554237
  0
SOLID
  8
0
 62
7
  6
CONTINUOUS
 10
154.3143669177
 20
31.4326554237
 11
154.2565543074
 21
31.3681283335
 12
153.9674919177
 22
31.3681283335
 13
153.9674919177
 23
31.3681283335
  0
SOLID
  8
0
 62
7
  6
CONTINUOUS
 10
159.1128043074
 20
31.4326555528
 11
159.8065543074
 21
31.4971825369
 12
159.575304528
 22
31.4649197501
 13
159.575304528
 23
31.4649197501
  0
SOLID
  8
0
 62
7
  6
CONTINUOUS
 10
159.575304528
 20
31.4649197501
 11
159.4596793074
 21
31.4326555528
 12
159.1128043074
 22
31.4326555528
 13
159.1128043074
 23
31.4326555528
  0
SOLID
  8
0
 62
7
  6
CONTINUOUS
 10
159.1128043074
 20
31.3681284626
 11
159.1128043074
 21
31.4326555528
 12
159.4596793074
 22
31.4326555528
 13
159.4596793074
 23
31.4326555528
  0
SOLID
  8
0
 62
7
  6
CONTINUOUS
 10
159.4596793074
 20
31.4326555528
 11
159.401867028
 21
31.3681284626
 12
159.1128043074
 22
31.3681284626
 13
159.1128043074
 23
31.3681284626
  0
SOLID
  8
0
 62
7
  6
CONTINUOUS
 10
159.228429528
 20
31.2390741763
 11
159.1128043074
 21
31.3681284626
 12
159.401867028
 22
31.3681284626
 13
159.401867028
 23
31.3681284626
  0
SOLID
  8
0
 62
7
  6
CONTINUOUS
 10
149.6315543091
 20
31.3036012664
 11
150.1518667936
 21
31.4326554468
 12
149.9784292936
 22
31.3358640533
 13
149.9784292936
 23
31.3358640533
  0
SOLID
  8
0
 62
7
  6
CONTINUOUS
 10
149.9784292936
 20
31.3358640533
 11
149.9206168074
 21
31.2713369632
 12
149.6315543091
 22
31.3036012664
 13
149.6315543091
 23
31.3036012664
  0
SOLID
  8
0
 62
7
  6
CONTINUOUS
 10
149.5737418074
 20
31.1100184796
 11
149.6315543091
 21
31.3036012664
 12
149.9206168074
 22
31.2713369632
 13
149.9206168074
 23
31.2713369632
  0
SOLID
  8
0
 62
7
  6
CONTINUOUS
 10
154.4299918074
 20
31.2390741763
 11
154.7768668074
 21
31.271336924
 12
155.412804528
 22
31.271336924
 13
155.412804528
 23
31.271336924
  0
SOLID
  8
0
 62
7
  6
CONTINUOUS
 10
154.4299918074
 20
31.2390741763
 11
155.412804528
 21
31.271336924
 12
154.1987416972
 22
31.1745462761
 13
154.1987416972
 23
31.1745462761
  0
SOLID
  8
0
 62
7
  6
CONTINUOUS
 10
154.1987416972
 20
31.1745462761
 11
155.412804528
 21
31.271336924
 12
154.7768668074
 22
31.1422827436
 13
154.7768668074
 23
31.1422827436
  0
SOLID
  8
0
 62
7
  6
CONTINUOUS
 10
155.412804528
 20
31.271336924
 11
155.412804528
 21
31.1422827436
 12
154.7768668074
 22
31.1422827436
 13
154.7768668074
 23
31.1422827436
  0
SOLID
  8
0
 62
7
  6
CONTINUOUS
 10
159.228429528
 20
31.2390745501
 11
159.401867028
 21
31.3681283566
 12
159.4596793074
 22
31.3036012664
 13
159.4596793074
 23
31.3036012664
  0
SOLID
  8
0
 62
7
  6
CONTINUOUS
 10
159.4596793074
 20
31.3036012664
 11
159.6331168074
 21
31.2390745501
 12
159.228429528
 22
31.2390745501
 13
159.228429528
 23
31.2390745501
  0
SOLID
  8
0
 62
7
  6
CONTINUOUS
 10
159.4596793074
 20
31.1422827828
 11
159.228429528
 21
31.2390745501
 12
159.6331168074
 22
31.2390745501
 13
159.6331168074
 23
31.2390745501
  0
SOLID
  8
0
 62
7
  6
CONTINUOUS
 10
159.6331168074
 20
31.2390745501
 11
160.615929528
 21
31.0777556927
 12
159.4596793074
 22
31.1422827828
 13
159.4596793074
 23
31.1422827828
  0
SOLID
  8
0
 62
7
  6
CONTINUOUS
 10
160.442492028
 20
30.9809646623
 11
159.4596793074
 21
31.1422827828
 12
160.615929528
 22
31.0777556927
 13
160.615929528
 23
31.0777556927
  0
SOLID
  8
0
 62
7
  6
CONTINUOUS
 10
160.615929528
 20
31.0777556927
 11
160.8471793074
 21
30.9809646623
 12
160.442492028
 22
30.9809646623
 13
160.442492028
 23
30.9809646623
  0
SOLID
  8
0
 62
7
  6
CONTINUOUS
 10
160.615929528
 20
30.9164372091
 11
160.442492028
 21
30.9809646623
 12
160.8471793074
 22
30.9809646623
 13
160.8471793074
 23
30.9809646623
  0
SOLID
  8
0
 62
7
  6
CONTINUOUS
 10
160.615929528
 20
30.9164372091
 11
160.8471793074
 21
30.9809646623
 12
160.6737418074
 22
30.8519089441
 13
160.6737418074
 23
30.8519089441
  0
SOLID
  8
0
 62
7
  6
CONTINUOUS
 10
160.8471793074
 20
30.9809646623
 11
160.9628038663
 21
30.8519089441
 12
160.6737418074
 22
30.8519089441
 13
160.6737418074
 23
30.8519089441
  0
SOLID
  8
0
 62
7
  6
CONTINUOUS
 10
160.615929528
 20
30.7873818593
 11
160.6737418074
 21
30.8519089441
 12
160.9628038663
 22
30.8519089441
 13
160.9628038663
 23
30.8519089441
  0
SOLID
  8
0
 62
7
  6
CONTINUOUS
 10
160.9628038663
 20
30.8519089441
 11
160.9628038663
 21
30.7873818593
 12
160.615929528
 22
30.7873818593
 13
160.615929528
 23
30.7873818593
  0
SOLID
  8
0
 62
7
  6
CONTINUOUS
 10
160.5003043074
 20
30.7551187255
 11
160.615929528
 21
30.7873818593
 12
160.9628038663
 22
30.7873818593
 13
160.9628038663
 23
30.7873818593
  0
SOLID
  8
0
 62
7
  6
CONTINUOUS
 10
160.5003043074
 20
30.7551187255
 11
160.9628038663
 21
30.7873818593
 12
160.269054528
 22
30.7228547745
 13
160.269054528
 23
30.7228547745
  0
SOLID
  8
0
 62
7
  6
CONTINUOUS
 10
160.9628038663
 20
30.7873818593
 11
160.8471793074
 21
30.6905916353
 12
160.269054528
 22
30.7228547745
 13
160.269054528
 23
30.7228547745
  0
SOLID
  8
0
 62
7
  6
CONTINUOUS
 10
160.8471793074
 20
30.6905916353
 11
159.401867028
 21
30.658327332
 12
160.269054528
 22
30.7228547745
 13
160.269054528
 23
30.7228547745
  0
SOLID
  8
0
 62
7
  6
CONTINUOUS
 10
160.269054528
 20
30.7228547745
 11
159.401867028
 21
30.658327332
 12
159.922179528
 22
30.7228547745
 13
159.922179528
 23
30.7228547745
  0
SOLID
  8
0
 62
7
  6
CONTINUOUS
 10
159.401867028
 20
30.658327332
 11
159.228429528
 21
30.7228547745
 12
159.922179528
 22
30.7228547745
 13
159.922179528
 23
30.7228547745
  0
SOLID
  8
0
 62
7
  6
CONTINUOUS
 10
159.401867028
 20
30.658327332
 11
160.8471793074
 21
30.6905916353
 12
159.575304528
 22
30.6260629858
 13
159.575304528
 23
30.6260629858
  0
SOLID
  8
0
 62
7
  6
CONTINUOUS
 10
160.8471793074
 20
30.6905916353
 11
160.615929528
 21
30.6260629858
 12
159.575304528
 22
30.6260629858
 13
159.575304528
 23
30.6260629858
  0
SOLID
  8
0
 62
7
  6
CONTINUOUS
 10
159.922179528
 20
30.5938006049
 11
159.575304528
 21
30.6260629858
 12
160.615929528
 22
30.6260629858
 13
160.615929528
 23
30.6260629858
  0
SOLID
  8
0
 62
7
  6
CONTINUOUS
 10
160.615929528
 20
30.6260629858
 11
160.269054528
 21
30.5938006049
 12
159.922179528
 22
30.5938006049
 13
159.922179528
 23
30.5938006049
  0
SOLID
  8
0
 62
7
  6
CONTINUOUS
 10
149.5737418074
 20
31.1100184796
 11
149.9206168074
 21
31.2713369632
 12
149.8628043005
 22
31.1422827828
 13
149.8628043005
 23
31.1422827828
  0
SOLID
  8
0
 62
7
  6
CONTINUOUS
 10
149.8628043005
 20
31.1422827828
 11
149.8628043005
 21
31.0454914852
 12
149.5737418074
 22
31.1100184796
 13
149.5737418074
 23
31.1100184796
  0
SOLID
  8
0
 62
7
  6
CONTINUOUS
 10
149.6315543091
 20
30.9164372091
 11
149.5737418074
 21
31.1100184796
 12
149.8628043005
 22
31.0454914852
 13
149.8628043005
 23
31.0454914852
  0
SOLID
  8
0
 62
7
  6
CONTINUOUS
 10
149.8628043005
 20
31.0454914852
 11
149.9784292936
 21
30.8841729058
 12
149.6315543091
 22
30.9164372091
 13
149.6315543091
 23
30.9164372091
  0
SOLID
  8
0
 62
7
  6
CONTINUOUS
 10
149.7471793074
 20
30.7873813202
 11
149.6315543091
 21
30.9164372091
 12
149.9784292936
 22
30.8841729058
 13
149.9784292936
 23
30.8841729058
  0
SOLID
  8
0
 62
7
  6
CONTINUOUS
 10
149.9784292936
 20
30.8841729058
 11
150.1518667936
 21
30.7873813202
 12
149.7471793074
 22
30.7873813202
 13
149.7471793074
 23
30.7873813202
  0
SOLID
  8
0
 62
7
  6
CONTINUOUS
 10
149.8628043005
 20
30.7228547004
 11
149.7471793074
 21
30.7873813202
 12
150.1518667936
 22
30.7873813202
 13
150.1518667936
 23
30.7873813202
  0
SOLID
  8
0
 62
7
  6
CONTINUOUS
 10
150.1518667936
 20
30.7873813202
 11
150.498741835
 21
30.7228547004
 12
149.8628043005
 22
30.7228547004
 13
149.8628043005
 23
30.7228547004
  0
SOLID
  8
0
 62
7
  6
CONTINUOUS
 10
150.0362418212
 20
30.658327332
 11
149.8628043005
 21
30.7228547004
 12
150.498741835
 22
30.7228547004
 13
150.498741835
 23
30.7228547004
  0
SOLID
  8
0
 62
7
  6
CONTINUOUS
 10
154.0831168074
 20
31.1100184386
 11
154.1987416972
 21
31.1745462761
 12
154.7768668074
 22
31.1422827828
 13
154.7768668074
 23
31.1422827828
  0
SOLID
  8
0
 62
7
  6
CONTINUOUS
 10
154.7768668074
 20
31.1422827828
 11
154.5456166972
 21
31.1100184386
 12
154.0831168074
 22
31.1100184386
 13
154.0831168074
 23
31.1100184386
  0
SOLID
  8
0
 62
7
  6
CONTINUOUS
 10
153.9674919177
 20
30.9809642992
 11
154.0831168074
 21
31.1100184386
 12
154.5456166972
 22
31.1100184386
 13
154.5456166972
 23
31.1100184386
  0
SOLID
  8
0
 62
7
  6
CONTINUOUS
 10
154.3143669177
 20
31.0132277988
 11
153.9674919177
 21
30.9809642992
 12
154.4299918074
 22
31.0777556927
 13
154.4299918074
 23
31.0777556927
  0
SOLID
  8
0
 62
7
  6
CONTINUOUS
 10
153.9674919177
 20
30.9809642992
 11
154.5456166972
 21
31.1100184796
 12
154.4299918074
 22
31.0777556927
 13
154.4299918074
 23
31.0777556927
  0
SOLID
  8
0
 62
7
  6
CONTINUOUS
 10
154.3143669177
 20
31.0132277988
 11
154.2565543074
 21
30.9164372091
 12
153.9674919177
 22
30.9809642992
 13
153.9674919177
 23
30.9809642992
  0
SOLID
  8
0
 62
7
  6
CONTINUOUS
 10
153.9674919177
 20
30.8841729058
 11
153.9674919177
 21
30.9809642992
 12
154.2565543074
 22
30.9164372091
 13
154.2565543074
 23
30.9164372091
  0
SOLID
  8
0
 62
7
  6
CONTINUOUS
 10
154.2565543074
 20
30.9164372091
 11
154.2565543074
 21
30.8519086025
 12
153.9674919177
 22
30.8841729058
 13
153.9674919177
 23
30.8841729058
  0
SOLID
  8
0
 62
7
  6
CONTINUOUS
 10
154.0253041972
 20
30.7551187255
 11
153.9674919177
 21
30.8841729058
 12
154.2565543074
 22
30.8519086025
 13
154.2565543074
 23
30.8519086025
  0
SOLID
  8
0
 62
7
  6
CONTINUOUS
 10
155.412804528
 20
30.9487004259
 11
155.7018665869
 21
30.8519086025
 12
155.3549915869
 22
30.8841729058
 13
155.3549915869
 23
30.8841729058
  0
SOLID
  8
0
 62
7
  6
CONTINUOUS
 10
155.1815540869
 20
30.7873815123
 11
155.3549915869
 21
30.8841729058
 12
155.7018665869
 22
30.8519086025
 13
155.7018665869
 23
30.8519086025
  0
SOLID
  8
0
 62
7
  6
CONTINUOUS
 10
155.1815540869
 20
30.7873815123
 11
155.7018665869
 21
30.8519086025
 12
155.412804528
 22
30.7551187255
 13
155.412804528
 23
30.7551187255
  0
SOLID
  8
0
 62
7
  6
CONTINUOUS
 10
155.7018665869
 20
30.8519086025
 11
155.759679528
 21
30.6905916353
 12
155.412804528
 22
30.7551187255
 13
155.412804528
 23
30.7551187255
  0
SOLID
  8
0
 62
7
  6
CONTINUOUS
 10
155.4706168074
 20
30.658327332
 11
155.412804528
 21
30.7551187255
 12
155.759679528
 22
30.6905916353
 13
155.759679528
 23
30.6905916353
  0
SOLID
  8
0
 62
7
  6
CONTINUOUS
 10
155.4706168074
 20
30.658327332
 11
155.759679528
 21
30.6905916353
 12
155.5284290869
 22
30.5938002079
 13
155.5284290869
 23
30.5938002079
  0
SOLID
  8
0
 62
7
  6
CONTINUOUS
 10
155.759679528
 20
30.6905916353
 11
155.8174918074
 21
30.5938002079
 12
155.5284290869
 22
30.5938002079
 13
155.5284290869
 23
30.5938002079
  0
SOLID
  8
0
 62
7
  6
CONTINUOUS
 10
151.0768668626
 20
30.8196456577
 11
151.1346793074
 21
30.9164373395
 12
151.4237418626
 22
30.9164373395
 13
151.4237418626
 23
30.9164373395
  0
SOLID
  8
0
 62
7
  6
CONTINUOUS
 10
151.4237418626
 20
30.9164373395
 11
151.3659292523
 21
30.7873815123
 12
151.0768668626
 22
30.8196456577
 13
151.0768668626
 23
30.8196456577
  0
SOLID
  8
0
 62
7
  6
CONTINUOUS
 10
150.9034292799
 20
30.7551187255
 11
151.0768668626
 21
30.8196456577
 12
151.3659292523
 22
30.7873815123
 13
151.3659292523
 23
30.7873815123
  0
SOLID
  8
0
 62
7
  6
CONTINUOUS
 10
150.9034292799
 20
30.7551187255
 11
151.3659292523
 21
30.7873815123
 12
150.498741835
 22
30.7228544222
 13
150.498741835
 23
30.7228544222
  0
SOLID
  8
0
 62
7
  6
CONTINUOUS
 10
151.3659292523
 20
30.7873815123
 11
151.1924917523
 21
30.6905916353
 12
150.498741835
 22
30.7228544222
 13
150.498741835
 23
30.7228544222
  0
SOLID
  8
0
 62
7
  6
CONTINUOUS
 10
150.0362418212
 20
30.658327332
 11
150.498741835
 21
30.7228544222
 12
151.1924917523
 22
30.6905916353
 13
151.1924917523
 23
30.6905916353
  0
SOLID
  8
0
 62
7
  6
CONTINUOUS
 10
150.0362418212
 20
30.658327332
 11
151.1924917523
 21
30.6905916353
 12
150.2096793212
 22
30.6260631011
 13
150.2096793212
 23
30.6260631011
  0
SOLID
  8
0
 62
7
  6
CONTINUOUS
 10
151.1924917523
 20
30.6905916353
 11
150.9612418074
 21
30.6260631011
 12
150.2096793212
 22
30.6260631011
 13
150.2096793212
 23
30.6260631011
  0
SOLID
  8
0
 62
7
  6
CONTINUOUS
 10
150.5565542799
 20
30.5938002419
 11
150.2096793212
 21
30.6260631011
 12
150.9612418074
 22
30.6260631011
 13
150.9612418074
 23
30.6260631011
  0
SOLID
  8
0
 62
7
  6
CONTINUOUS
 10
154.0253041972
 20
30.7551187255
 11
154.2565543074
 21
30.8519086025
 12
154.3143669177
 22
30.7873815123
 13
154.3143669177
 23
30.7873815123
  0
SOLID
  8
0
 62
7
  6
CONTINUOUS
 10
154.3143669177
 20
30.7873815123
 11
154.5456166972
 21
30.7228544222
 12
154.0253041972
 22
30.7551187255
 13
154.0253041972
 23
30.7551187255
  0
SOLID
  8
0
 62
7
  6
CONTINUOUS
 10
154.1987416972
 20
30.658327332
 11
154.0253041972
 21
30.7551187255
 12
154.5456166972
 22
30.7228544222
 13
154.5456166972
 23
30.7228544222
  0
SOLID
  8
0
 62
7
  6
CONTINUOUS
 10
154.8924916972
 20
30.7228544637
 11
155.1815540869
 21
30.7873815123
 12
155.412804528
 22
30.7551187255
 13
155.412804528
 23
30.7551187255
  0
SOLID
  8
0
 62
7
  6
CONTINUOUS
 10
155.412804528
 20
30.7551187255
 11
155.3549915869
 21
30.6905916353
 12
154.8924916972
 22
30.7228544637
 13
154.8924916972
 23
30.7228544637
  0
SOLID
  8
0
 62
7
  6
CONTINUOUS
 10
155.3549915869
 20
30.6905916353
 11
154.1987416972
 21
30.658327332
 12
154.8924916972
 22
30.7228544637
 13
154.8924916972
 23
30.7228544637
  0
SOLID
  8
0
 62
7
  6
CONTINUOUS
 10
154.1987416972
 20
30.658327332
 11
154.5456166972
 21
30.7228544637
 12
154.8924916972
 22
30.7228544637
 13
154.8924916972
 23
30.7228544637
  0
SOLID
  8
0
 62
7
  6
CONTINUOUS
 10
154.1987416972
 20
30.658327332
 11
155.3549915869
 21
30.6905916353
 12
154.3143669177
 22
30.6260630541
 13
154.3143669177
 23
30.6260630541
  0
SOLID
  8
0
 62
7
  6
CONTINUOUS
 10
155.3549915869
 20
30.6905916353
 11
155.1815540869
 21
30.6260630541
 12
154.3143669177
 22
30.6260630541
 13
154.3143669177
 23
30.6260630541
  0
SOLID
  8
0
 62
7
  6
CONTINUOUS
 10
154.5456166972
 20
30.5938002188
 11
154.3143669177
 21
30.6260630541
 12
155.1815540869
 22
30.6260630541
 13
155.1815540869
 23
30.6260630541
  0
SOLID
  8
0
 62
7
  6
CONTINUOUS
 10
155.1815540869
 20
30.6260630541
 11
154.8924916972
 21
30.5938002188
 12
154.5456166972
 22
30.5938002188
 13
154.5456166972
 23
30.5938002188
  0
SOLID
  8
0
 62
7
  6
CONTINUOUS
 10
159.575304528
 20
30.7551187255
 11
159.228429528
 21
30.7228544637
 12
159.4596793074
 22
30.7873815123
 13
159.4596793074
 23
30.7873815123
  0
SOLID
  8
0
 62
7
  6
CONTINUOUS
 10
159.4596793074
 20
30.7873815123
 11
159.228429528
 21
30.7228544637
 12
159.401867028
 22
30.851908644
 13
159.401867028
 23
30.851908644
  0
SOLID
  8
0
 62
7
  6
CONTINUOUS
 10
159.228429528
 20
30.7228544637
 11
159.1128043074
 21
30.851908644
 12
159.401867028
 22
30.851908644
 13
159.401867028
 23
30.851908644
  0
SOLID
  8
0
 62
7
  6
CONTINUOUS
 10
159.575304528
 20
30.7551187255
 11
159.922179528
 21
30.7228544637
 12
159.228429528
 22
30.7228544637
 13
159.228429528
 23
30.7228544637
  0
SOLID
  8
0
 62
7
  6
CONTINUOUS
 10
156.279992028
 20
30.5938002419
 11
156.279992028
 21
31.6262382337
 12
156.5690540869
 22
30.5938002419
 13
156.5690540869
 23
31.6262382337
  0
ENDBLK
  8
0
  6
BYBLOCK
 62
0
  0
BLOCK
  8
0
 62
2
  6
CONTINUOUS
  2
SYMBOL_3_BL0
 70
64
 10
32.1213064866
 20
19.8534310916
  0
TEXT
  8
0
 62
7
  6
CONTINUOUS
 10
18.3860103289
 20
19.2268451992
  7
TEXTSTYLE_3
 40
2.7338706658
  1
Ammeraal Beltech
 41
1.0
 51
15.0
 72
0
  0
TEXT
  8
0
 62
7
  6
CONTINUOUS
 10
29.1868111546
 20
16.9533085264
  7
TEXTSTYLE_4
 40
1.0935482663
  1
Innovation & Service in Belting
 41
1.0
 72
0
  0
LINE
  8
0
 62
7
  6
CONTINUOUS
 10
12.3614696776
 20
19.9934385078
 11
13.1396216709
 21
23.6543558055
  0
LINE
  8
0
 62
7
  6
CONTINUOUS
 10
23.2347899607
 20
27.3177497171
 11
13.6274394139
 21
24.1961322958
  0
LINE
  8
0
 62
7
  6
CONTINUOUS
 10
12.5867530099
 20
19.3000877048
 11
20.093828271
 21
12.5406867788
  0
LINE
  8
0
 62
7
  6
CONTINUOUS
 10
12.8492874206
 20
20.5352149982
 11
23.6575567857
 21
24.0470345971
  0
LINE
  8
0
 62
7
  6
CONTINUOUS
 10
23.6533516486
 20
13.6972460334
 11
15.2078919798
 21
21.3015720751
  0
LINE
  8
0
 62
7
  6
CONTINUOUS
 10
24.1731743684
 20
26.4728246013
 11
23.1966148312
 21
21.8784731989
  0
LINE
  8
0
 62
7
  6
CONTINUOUS
 10
22.4968128835
 20
18.5861638851
 11
21.810364672
 21
15.3566789607
  0
LINE
  8
0
 62
7
  6
CONTINUOUS
 10
24.8542704669
 20
14.087448211
 11
25.8105020025
 21
18.5861638851
  0
LINE
  8
0
 62
7
  6
CONTINUOUS
 10
26.5103039502
 20
21.8784731989
 11
26.9545457526
 21
23.9684665583
  0
LINE
  8
0
 62
7
  6
CONTINUOUS
 10
20.8069293463
 20
12.3891124661
 11
24.3664527239
 21
13.5456717207
  0
LINE
  8
0
 62
7
  6
CONTINUOUS
 10
23.9478910361
 20
27.1661754044
 11
26.7292624203
 21
24.6618173613
  0
ARC
  8
0
 62
7
  6
CONTINUOUS
 10
13.8527227462
 20
23.5027814928
 40
0.7290321776
 50
108.0
 51
168.0
  0
ARC
  8
0
 62
7
  6
CONTINUOUS
 10
23.4600732931
 20
26.624398914
 40
0.7290321776
 50
348.0
 51
108.0
  0
ARC
  8
0
 62
7
  6
CONTINUOUS
 10
26.2414446773
 20
24.120040871
 40
0.7290321776
 50
348.0
 51
48.0
  0
ARC
  8
0
 62
7
  6
CONTINUOUS
 10
20.581646014
 20
13.0824632691
 40
0.7290321776
 50
228.0
 51
288.0
  0
ARC
  8
0
 62
7
  6
CONTINUOUS
 10
13.0745707529
 20
19.8418641951
 40
0.7290321776
 50
108.0
 51
228.0
  0
ARC
  8
0
 62
7
  6
CONTINUOUS
 10
24.1411693916
 20
14.2390225237
 40
0.7290321776
 50
228.0
 51
348.0
  0
ENDBLK
  8
0
  6
BYBLOCK
 62
0
  0
ENDSEC
  0
SECTION
  2
ENTITIES
  0
TEXT
  8
0
 62
5
  6
CONTINUOUS
 10
96.0
 20
25.636
  7
TEXTSTYLE_2
 40
2.8
  1
Scale :
 41
0.6
 51
0.000019
 72
0
  0
TEXT
  8
0
 62
5
  6
CONTINUOUS
 10
116.0
 20
25.636
  7
TEXTSTYLE_2
 40
2.8
  1
Belt type:
 41
0.6
 51
0.000019
 72
0
  0
INSERT
  8
0
 62
2
  6
CONTINUOUS
  2
SYMBOL_3_BL0
 10
32.1213064866
 20
19.8534310916
  0
INSERT
  8
0
 62
2
  6
CONTINUOUS
  2
SYMBOL_8_BL1
 10
173.5956734183
 20
35.5937998301
  0
LINE
  8
0
 62
2
  6
CONTINUOUS
 10
10.0
 20
30.0
 11
200.0
 21
30.0
  0
LINE
  8
0
 62
2
  6
CONTINUOUS
 10
10.0
 20
30.0
 11
10.0
 21
10.0
  0
LINE
  8
0
 62
2
  6
CONTINUOUS
 10
10.0
 20
10.0
 11
200.0
 21
10.0
  0
LINE
  8
0
 62
2
  6
CONTINUOUS
 10
95.0
 20
30.0
 11
95.0
 21
10.0
  0
LINE
  8
0
 62
2
  6
CONTINUOUS
 10
115.0
 20
30.0
 11
115.0
 21
10.0
  0
LINE
  8
0
 62
2
  6
CONTINUOUS
 10
200.0
 20
30.0
 11
200.0
 21
10.0
  0
TEXT
  8
0
 62
5
  6
CONTINUOUS
 10
13.0
 20
23.303
  7
TEXTSTYLE_5
 40
1.52
  1
                                                                     Ammeraal Beltech Modular A/S
 41
1.0
 72
0
  0
TEXT
  8
0
 62
5
  6
CONTINUOUS
 10
13.0
 20
20.595
  7
TEXTSTYLE_5
 40
1.5
  1
                                                                      Hjulmagervej 21,  7100 Vejle,  DK
 41
1.0
 72
0
  0
TEXT
  8
0
 62
5
  6
CONTINUOUS
 10
13.0
 20
17.881
  7
TEXTSTYLE_5
 40
1.495
  1
                                                                      tel: 
 41
1.0
 72
0
  0
TEXT
  8
0
 62
5
  6
CONTINUOUS
 10
57.9869465649
 20
17.881
  7
TEXTSTYLE_5
 40
1.51
  1
+45 75723100     fax: +45 75723348
 41
1.0
 72
0
  0
TEXT
  8
0
 62
5
  6
CONTINUOUS
 10
13.0
 20
15.177
  7
TEXTSTYLE_5
 40
1.5
  1
                                                                      admin@unichains.dk  www.unichains.com
 41
1.0
 72
0
  0
TEXT
  8
0
 62
5
  6
CONTINUOUS
 10
99.75
 20
13.75
  7
TEXTSTYLE_6
 40
5.0
  1
1:1
 41
0.7
 72
1
 11
105.0
 21
13.75
  0
TEXT
  8
0
 62
5
  6
CONTINUOUS
 10
118.0
 20
13.75
  7
TEXTSTYLE_7
 40
7.5
  1
Sprocket Z13 BB
 41
0.66
 72
0
  0
LINE
  8
0
 62
7
  6
CONTINUOUS
 10
210.0
 20
0.0
 11
0.0
 21
0.0
  0
LINE
  8
0
 62
7
  6
CONTINUOUS
 10
10.0
 20
10.0
 11
200.0
 21
10.0
  0
LINE
  8
0
 62
7
  6
CONTINUOUS
 10
10.0
 20
30.0
 11
200.0
 21
30.0
  0
LINE
  8
0
 62
7
  6
CONTINUOUS
 10
0.0
 20
0.0
 11
0.0
 21
297.0
  0
LINE
  8
0
 62
7
  6
CONTINUOUS
 10
10.0
 20
10.0
 11
10.0
 21
287.0
  0
LINE
  8
0
 62
7
  6
CONTINUOUS
 10
200.0
 20
287.0
 11
200.0
 21
10.0
  0
LINE
  8
0
 62
7
  6
CONTINUOUS
 10
210.0
 20
0.0
 11
210.0
 21
297.0
  0
LINE
  8
0
 62
7
  6
CONTINUOUS
 10
10.0
 20
287.0
 11
200.0
 21
287.0
  0
LINE
  8
0
 62
7
  6
CONTINUOUS
 10
0.0
 20
297.0
 11
210.0
 21
297.0
  0
LINE
  8
0
 62
7
  6
CONTINUOUS
 10
24.4685222139
 20
216.823084195
 11
23.8678814851
 21
214.1255063088
  0
LINE
  8
0
 62
7
  6
CONTINUOUS
 10
42.4661064107
 20
251.5933215956
 11
40.6806385061
 21
249.4838666663
  0
LINE
  8
0
 62
7
  6
CONTINUOUS
 10
74.5607108026
 20
274.0169433983
 11
71.9994449017
 21
272.9788621285
  0
LINE
  8
0
 62
7
  6
CONTINUOUS
 10
114.3226613556
 20
116.5524180566
 11
117.0579306329
 21
116.9473835209
  0
LINE
  8
0
 62
7
  6
CONTINUOUS
 10
75.4298933129
 20
121.0507555039
 11
78.0354035797
 21
120.1293370392
  0
LINE
  8
0
 62
7
  6
CONTINUOUS
 10
43.0825391425
 20
143.1082060364
 11
44.9613993965
 21
141.0814895087
  0
LINE
  8
0
 62
7
  6
CONTINUOUS
 10
24.6909878571
 20
177.6716735582
 11
25.4127738567
 21
175.0039552994
  0
LINE
  8
0
 62
7
  6
CONTINUOUS
 10
36.8199359234
 20
206.5611298399
 11
36.5334049639
 21
204.2013350817
  0
LINE
  8
0
 62
7
  6
CONTINUOUS
 10
35.009128364
 20
191.6477878622
 11
34.6864366829
 21
188.9901827684
  0
LINE
  8
0
 62
7
  6
CONTINUOUS
 10
36.8703046435
 20
202.8278386656
 11
35.664937841
 21
192.9007499246
  0
LINE
  8
0
 62
7
  6
CONTINUOUS
 10
48.6337721259
 20
236.7668241185
 11
47.2834088424
 21
234.8104851593
  0
LINE
  8
0
 62
7
  6
CONTINUOUS
 10
40.0998060715
 20
224.4032398347
 11
38.5790261088
 21
222.2000096922
  0
LINE
  8
0
 62
7
  6
CONTINUOUS
 10
87.1058248718
 20
132.0751715901
 11
89.4138771098
 21
131.5062878067
  0
LINE
  8
0
 62
7
  6
CONTINUOUS
 10
101.6921630638
 20
128.4799621231
 11
104.2914950402
 21
127.8392843322
  0
LINE
  8
0
 62
7
  6
CONTINUOUS
 10
58.54436471
 20
147.4437657386
 11
60.323672089
 21
145.8674369526
  0
LINE
  8
0
 62
7
  6
CONTINUOUS
 10
69.7891486066
 20
137.4817564995
 11
71.7930049526
 21
135.7064946878
  0
LINE
  8
0
 62
7
  6
CONTINUOUS
 10
61.6454158074
 20
145.3644672772
 11
69.1305232891
 21
138.7332406948
  0
LINE
  8
0
 62
7
  6
CONTINUOUS
 10
40.3965895309
 20
174.3251523978
 11
41.239529495
 21
172.1025023811
  0
LINE
  8
0
 62
7
  6
CONTINUOUS
 10
45.7237746557
 20
160.278519648
 11
46.6730960315
 21
157.7753649023
  0
LINE
  8
0
 62
7
  6
CONTINUOUS
 10
42.1761357343
 20
171.0428947434
 11
45.7221846047
 21
161.6927323165
  0
LINE
  8
0
 62
7
  6
CONTINUOUS
 10
46.9434244959
 20
233.4377514414
 11
41.2627770286
 21
225.2079127824
  0
LINE
  8
0
 62
7
  6
CONTINUOUS
 10
73.1316906364
 20
258.0224746926
 11
71.0268519897
 21
256.9177701514
  0
LINE
  8
0
 62
7
  6
CONTINUOUS
 10
59.8295948646
 20
251.0409962647
 11
57.4591189824
 21
249.7968745474
  0
LINE
  8
0
 62
7
  6
CONTINUOUS
 10
70.0878649275
 20
255.8602709432
 11
61.233304671
 21
251.2130392228
  0
LINE
  8
0
 62
7
  6
CONTINUOUS
 10
119.5378836961
 20
131.7401296601
 11
121.8459338405
 21
132.3090129275
  0
LINE
  8
0
 62
7
  6
CONTINUOUS
 10
134.124221888
 20
135.3353391271
 11
136.7235538645
 21
135.976016918
  0
LINE
  8
0
 62
7
  6
CONTINUOUS
 10
123.0107105884
 20
133.1110685267
 11
132.7201287627
 21
135.5042251696
  0
LINE
  8
0
 62
7
  6
CONTINUOUS
 10
90.8179674284
 20
131.675174541
 11
100.5273856027
 21
129.2820178981
  0
LINE
  8
0
 62
7
  6
CONTINUOUS
 10
68.9668332108
 20
237.1155380559
 11
68.6616025711
 21
236.831909013
  0
LINE
  8
0
 62
7
  6
CONTINUOUS
 10
67.4406802964
 20
235.6973931051
 11
67.1354497223
 21
235.4137641231
  0
LINE
  8
0
 62
7
  6
CONTINUOUS
 10
70.8866674598
 20
238.7264078934
 11
70.6286115038
 21
238.5154141954
  0
LINE
  8
0
 62
7
  6
CONTINUOUS
 10
70.0479858795
 20
238.0406786011
 11
69.7254160267
 21
237.776936554
  0
LINE
  8
0
 62
7
  6
CONTINUOUS
 10
71.7221416144
 20
240.9893779139
 11
71.3890743597
 21
240.7390237998
  0
LINE
  8
0
 62
7
  6
CONTINUOUS
 10
71.6447552242
 20
240.3988699185
 11
71.9778224789
 21
240.6492240326
  0
LINE
  8
0
 62
7
  6
CONTINUOUS
 10
72.4891843511
 20
239.9689160794
 11
72.1561170964
 21
239.7185619653
  0
LINE
  8
0
 62
7
  6
CONTINUOUS
 10
78.6115930177
 20
245.3809702896
 11
76.0037704185
 21
243.8979796319
  0
LINE
  8
0
 62
7
  6
CONTINUOUS
 10
76.69083143
 20
243.7012600967
 11
78.8640169294
 21
244.9370856448
  0
LINE
  8
0
 62
7
  6
CONTINUOUS
 10
79.7524241764
 20
245.9482802667
 11
79.3808548986
 21
245.7597394282
  0
LINE
  8
0
 62
7
  6
CONTINUOUS
 10
92.8375988634
 20
250.5331088318
 11
92.4464884432
 21
250.3661121113
  0
LINE
  8
0
 62
7
  6
CONTINUOUS
 10
86.9006754359
 20
247.5918102689
 11
86.4322119306
 21
247.4170477325
  0
LINE
  8
0
 62
7
  6
CONTINUOUS
 10
84.7145118152
 20
246.7762515433
 11
84.2460483098
 21
246.6014890069
  0
LINE
  8
0
 62
7
  6
CONTINUOUS
 10
63.6568485117
 20
220.4143211285
 11
66.7002433669
 21
233.0909730193
  0
LINE
  8
0
 62
7
  6
CONTINUOUS
 10
70.1522865803
 20
234.615586048
 11
70.2164461433
 21
234.7913826655
  0
LINE
  8
0
 62
7
  6
CONTINUOUS
 10
59.5842179631
 20
222.765655472
 11
53.8342179631
 21
212.8063633285
  0
LINE
  8
0
 62
7
  6
CONTINUOUS
 10
55.5662687707
 20
211.8063633285
 11
61.3162687707
 21
221.765655472
  0
LINE
  8
0
 62
7
  6
CONTINUOUS
 10
69.920555654
 20
234.8649659358
 11
69.7343039901
 21
234.5757178146
  0
LINE
  8
0
 62
7
  6
CONTINUOUS
 10
69.9660349012
 20
234.3263379432
 11
70.1522865803
 21
234.615586048
  0
LINE
  8
0
 62
7
  6
CONTINUOUS
 10
70.6286115038
 20
238.5154141954
 11
70.424426247
 21
238.2385339095
  0
LINE
  8
0
 62
7
  6
CONTINUOUS
 10
70.6399090443
 20
237.9749875583
 11
70.844094301
 21
238.2518678441
  0
LINE
  8
0
 62
7
  6
CONTINUOUS
 10
81.9987613489
 20
245.0516176236
 11
82.1154512872
 21
245.1979190892
  0
LINE
  8
0
 62
7
  6
CONTINUOUS
 10
66.7002433669
 20
233.0909730193
 11
57.2436382222
 21
224.1169898155
  0
LINE
  8
0
 62
7
  6
CONTINUOUS
 10
81.8990584415
 20
245.473614363
 11
81.7064616937
 21
245.2929223947
  0
LINE
  8
0
 62
7
  6
CONTINUOUS
 10
69.7343039901
 20
234.5757178146
 11
69.4901194958
 21
234.3488145965
  0
LINE
  8
0
 62
7
  6
CONTINUOUS
 10
69.721850407
 20
234.0994347251
 11
69.9660349012
 21
234.3263379432
  0
LINE
  8
0
 62
7
  6
CONTINUOUS
 10
70.6375421512
 20
234.9503216915
 11
70.9427727908
 21
235.2339507344
  0
LINE
  8
0
 62
7
  6
CONTINUOUS
 10
71.4492785555
 20
235.6685655596
 11
71.7718484083
 21
235.9323076067
  0
LINE
  8
0
 62
7
  6
CONTINUOUS
 10
72.9330996568
 20
236.8817787952
 11
73.255669325
 21
237.1455206914
  0
LINE
  8
0
 62
7
  6
CONTINUOUS
 10
82.1154512872
 20
245.1979190892
 11
82.3839548446
 21
245.4130015603
  0
LINE
  8
0
 62
7
  6
CONTINUOUS
 10
92.4464884432
 20
250.3661121113
 11
92.1540985426
 21
250.1324653945
  0
LINE
  8
0
 62
7
  6
CONTINUOUS
 10
73.7924747722
 20
237.5415769344
 11
74.125542027
 21
237.7919310485
  0
LINE
  8
0
 62
7
  6
CONTINUOUS
 10
82.3193738805
 20
245.7574770524
 11
81.8990584415
 21
245.473614363
  0
LINE
  8
0
 62
7
  6
CONTINUOUS
 10
83.7231038082
 20
243.8707446532
 11
83.2268815719
 21
243.552491434
  0
LINE
  8
0
 62
7
  6
CONTINUOUS
 10
83.4432761673
 20
243.2767969202
 11
83.9394966754
 21
243.5950493319
  0
LINE
  8
0
 62
7
  6
CONTINUOUS
 10
79.1211769032
 20
243.8105583197
 11
77.2377500231
 21
242.7395098257
  0
LINE
  8
0
 62
7
  6
CONTINUOUS
 10
77.4901739347
 20
242.2956251808
 11
79.3736008148
 21
243.3666736749
  0
LINE
  8
0
 62
7
  6
CONTINUOUS
 10
77.9810912954
 20
240.4208828329
 11
78.4157283952
 21
240.6680479425
  0
LINE
  8
0
 62
7
  6
CONTINUOUS
 10
69.4197332286
 20
233.9348765155
 11
69.721850407
 21
234.0994347251
  0
LINE
  8
0
 62
7
  6
CONTINUOUS
 10
81.1908455666
 20
242.192677082
 11
81.5624148445
 21
242.3812179205
  0
LINE
  8
0
 62
7
  6
CONTINUOUS
 10
92.6306079
 20
249.8825875668
 11
92.9400798302
 21
250.0328598333
  0
LINE
  8
0
 62
7
  6
CONTINUOUS
 10
94.5004597983
 20
247.3988070169
 11
94.1909878681
 21
247.2485347505
  0
LINE
  8
0
 62
7
  6
CONTINUOUS
 10
70.844094301
 20
238.2518678441
 11
71.1560209564
 21
238.3969749544
  0
LINE
  8
0
 62
7
  6
CONTINUOUS
 10
83.499898347
 20
245.1711239628
 11
81.9058675085
 21
244.4489289158
  0
LINE
  8
0
 62
7
  6
CONTINUOUS
 10
81.970450259
 20
244.1044541023
 11
84.01991848
 21
245.0329905912
  0
LINE
  8
0
 62
7
  6
CONTINUOUS
 10
84.2306501403
 20
244.5678631072
 11
83.85111783
 21
244.3959113808
  0
LINE
  8
0
 62
7
  6
CONTINUOUS
 10
94.2934688469
 20
246.7482856935
 11
94.684577397
 21
246.9152820386
  0
LINE
  8
0
 62
7
  6
CONTINUOUS
 10
71.1340800339
 20
238.8187665037
 11
70.8866674598
 21
238.7264078934
  0
LINE
  8
0
 62
7
  6
CONTINUOUS
 10
85.1979463505
 20
244.0498580797
 11
85.6664098558
 21
244.2246206162
  0
LINE
  8
0
 62
7
  6
CONTINUOUS
 10
87.3841099712
 20
244.8654168053
 11
87.8525734766
 21
245.0401793417
  0
LINE
  8
LAY0001
 62
7
  6
CONTINUOUS
 10
135.089612363
 20
158.880234777
 11
135.1673185064
 21
158.9022750741
  0
LINE
  8
LAY0001
 62
7
  6
CONTINUOUS
 10
135.2253152769
 20
159.043770614
 11
135.1476094188
 21
159.0217306023
  0
LINE
  8
LAY0001
 62
7
  6
CONTINUOUS
 10
136.3364405871
 20
160.1270630011
 11
136.4141467306
 21
160.1491032982
  0
LINE
  8
0
 62
7
  6
CONTINUOUS
 10
104.5015135561
 20
146.6986681739
 11
116.0015135561
 21
146.6986681739
  0
LINE
  8
0
 62
7
  6
CONTINUOUS
 10
116.0015135561
 20
148.6986681739
 11
104.5015135561
 21
148.6986681739
  0
LINE
  8
0
 62
7
  6
CONTINUOUS
 10
92.0015135561
 20
147.6986681739
 11
104.5015135561
 21
143.9959994869
  0
LINE
  8
0
 62
7
  6
CONTINUOUS
 10
70.3386259555
 20
237.9485156867
 11
70.317339376
 21
237.7112456621
  0
LINE
  8
0
 62
7
  6
CONTINUOUS
 10
70.5328221733
 20
237.4476993108
 11
70.5541087527
 21
237.6849693355
  0
LINE
  8
0
 62
7
  6
CONTINUOUS
 10
69.9878285574
 20
235.1598332538
 11
69.920555654
 21
234.8649659358
  0
LINE
  8
0
 62
7
  6
CONTINUOUS
 10
70.424426247
 20
238.2385339095
 11
70.3386259555
 21
237.9485156867
  0
LINE
  8
0
 62
7
  6
CONTINUOUS
 10
70.5541087527
 20
237.6849693355
 11
70.6399090443
 21
237.9749875583
  0
LINE
  8
0
 62
7
  6
CONTINUOUS
 10
81.5489868892
 20
245.034709179
 11
81.4674171569
 21
244.8108856789
  0
LINE
  8
0
 62
7
  6
CONTINUOUS
 10
81.8764084878
 20
244.7158831606
 11
81.9987613489
 21
245.0516176236
  0
LINE
  8
0
 62
7
  6
CONTINUOUS
 10
81.7064616937
 20
245.2929223947
 11
81.5489868892
 21
245.034709179
  0
LINE
  8
0
 62
7
  6
CONTINUOUS
 10
83.8805786126
 20
244.1289578689
 11
83.7231038082
 21
243.8707446532
  0
LINE
  8
0
 62
7
  6
CONTINUOUS
 10
92.1540985426
 20
250.1324653945
 11
91.8958670958
 21
249.7320686288
  0
LINE
  8
0
 62
7
  6
CONTINUOUS
 10
83.9394966754
 20
243.5950493319
 11
84.1728782801
 21
243.8876530706
  0
LINE
  8
0
 62
7
  6
CONTINUOUS
 10
92.4198546209
 20
249.6656649213
 11
92.6306079
 21
249.8825875668
  0
LINE
  8
0
 62
7
  6
CONTINUOUS
 10
94.7112130654
 20
247.6157297208
 11
94.5004597983
 21
247.3988070169
  0
LINE
  8
0
 62
7
  6
CONTINUOUS
 10
94.684577397
 20
246.9152820386
 11
94.9769691616
 21
247.14892916
  0
LINE
  8
0
 62
7
  6
CONTINUOUS
 10
111.1926757787
 20
250.8030306798
 11
107.9727419538
 21
248.2511733842
  0
LINE
  8
0
 62
7
  6
CONTINUOUS
 10
114.8211315886
 20
250.3525055335
 11
114.4212137606
 21
250.0935354398
  0
LINE
  8
0
 62
7
  6
CONTINUOUS
 10
116.2362076193
 20
248.289517663
 11
116.6174473217
 21
248.4654563028
  0
LINE
  8
0
 62
7
  6
CONTINUOUS
 10
114.8903454843
 20
249.900769985
 11
115.1716066601
 21
250.0119658921
  0
LINE
  8
0
 62
7
  6
CONTINUOUS
 10
116.0065677378
 20
246.5092794874
 11
116.2878289202
 21
246.6204754236
  0
LINE
  8
0
 62
7
  6
CONTINUOUS
 10
119.4212265985
 20
245.359091579
 11
119.8144550712
 21
245.5062972018
  0
LINE
  8
0
 62
7
  6
CONTINUOUS
 10
122.9490605548
 20
244.0697148755
 11
123.3522136649
 21
244.1870421822
  0
LINE
  8
LAY0001
 62
7
  6
CONTINUOUS
 10
137.3089665277
 20
161.0995889417
 11
137.3866725285
 21
161.1216290962
  0
LINE
  8
LAY0001
 62
7
  6
CONTINUOUS
 10
137.4446694416
 20
161.2631247788
 11
137.3669634408
 21
161.2410846244
  0
LINE
  8
LAY0001
 62
7
  6
CONTINUOUS
 10
136.7285022027
 20
161.1314489851
 11
136.6119431229
 21
161.0983886894
  0
LINE
  8
LAY0001
 62
7
  6
CONTINUOUS
 10
138.1678297802
 20
161.9862851174
 11
138.2843888527
 21
162.0193454204
  0
LINE
  8
LAY0001
 62
7
  6
CONTINUOUS
 10
138.4131683156
 20
162.7882821748
 11
138.5297273978
 21
162.821342468
  0
LINE
  8
LAY0001
 62
7
  6
CONTINUOUS
 10
138.5877242477
 20
162.9628381069
 11
138.5100181975
 21
162.9407979127
  0
LINE
  8
LAY0001
 62
7
  6
CONTINUOUS
 10
134.0005276352
 20
157.8746488187
 11
134.1060664165
 21
157.8688559073
  0
LINE
  8
LAY0001
 62
7
  6
CONTINUOUS
 10
134.1779796485
 20
157.9964349857
 11
134.1252102578
 21
157.9993314414
  0
LINE
  8
LAY0001
 62
7
  6
CONTINUOUS
 10
133.7778642206
 20
158.0973122334
 11
133.8834030116
 21
158.0915193122
  0
LINE
  8
LAY0001
 62
7
  6
CONTINUOUS
 10
133.9553162436
 20
158.2190983906
 11
133.9025468432
 21
158.221994856
  0
LINE
  8
LAY0001
 62
7
  6
CONTINUOUS
 10
134.6210451489
 20
158.5508321787
 11
134.6738145395
 21
158.547935723
  0
LINE
  8
LAY0001
 62
7
  6
CONTINUOUS
 10
134.7984974475
 20
158.6726186311
 11
134.6929583809
 21
158.6784112571
  0
LINE
  8
LAY0001
 62
7
  6
CONTINUOUS
 10
134.3983817342
 20
158.7734955934
 11
134.4511511248
 21
158.7705991377
  0
LINE
  8
LAY0001
 62
7
  6
CONTINUOUS
 10
134.5758340329
 20
158.8952820457
 11
134.4702949614
 21
158.9010746766
  0
LINE
  8
0
 62
7
  6
CONTINUOUS
 10
70.2164461433
 20
234.7913826655
 11
70.2257862063
 21
235.1485948975
  0
LINE
  8
0
 62
7
  6
CONTINUOUS
 10
86.4322119306
 20
247.4170477325
 11
85.9600695245
 21
246.0600493311
  0
LINE
  8
0
 62
7
  6
CONTINUOUS
 10
85.6664098558
 20
244.2246206162
 11
86.1385504332
 21
245.5816184625
  0
LINE
  8
0
 62
7
  6
CONTINUOUS
 10
84.1728782801
 20
243.8876530706
 11
84.2952311289
 21
244.2233875608
  0
LINE
  8
0
 62
7
  6
CONTINUOUS
 10
85.815078247
 20
245.7334525728
 11
85.1979463505
 21
244.0498580797
  0
LINE
  8
0
 62
7
  6
CONTINUOUS
 10
86.2835417524
 20
245.9082151092
 11
86.9006754359
 21
247.5918102689
  0
LINE
  8
0
 62
7
  6
CONTINUOUS
 10
92.3078200407
 20
249.3820916632
 11
92.4198546209
 21
249.6656649213
  0
LINE
  8
0
 62
7
  6
CONTINUOUS
 10
94.9769691616
 20
247.14892916
 11
95.2352006025
 21
247.5493259549
  0
LINE
  8
0
 62
7
  6
CONTINUOUS
 10
114.6717065838
 20
249.688253903
 11
114.8903454843
 21
249.900769985
  0
LINE
  8
0
 62
7
  6
CONTINUOUS
 10
113.0274843492
 20
250.9389898413
 11
112.4349411218
 21
250.4352000401
  0
LINE
  8
0
 62
7
  6
CONTINUOUS
 10
112.3211384693
 20
249.7639271138
 11
112.9136817366
 21
250.2677171501
  0
LINE
  8
0
 62
7
  6
CONTINUOUS
 10
108.4507495619
 20
248.0264933775
 11
111.5878666531
 21
250.5876038422
  0
LINE
  8
0
 62
7
  6
CONTINUOUS
 10
120.33482045
 20
247.216099933
 11
120.6731064885
 21
247.4689874007
  0
LINE
  8
0
 62
7
  6
CONTINUOUS
 10
116.3482763729
 20
248.7877063858
 11
116.1483155981
 21
248.6582217576
  0
LINE
  8
0
 62
7
  6
CONTINUOUS
 10
116.118636511
 20
247.0074682974
 11
115.9186794448
 21
246.8779827739
  0
LINE
  8
0
 62
7
  6
CONTINUOUS
 10
123.9992312201
 20
245.8530475214
 11
124.3555150589
 21
246.0798764026
  0
LINE
  8
0
 62
7
  6
CONTINUOUS
 10
120.2195481193
 20
247.6959849788
 11
120.0105424111
 21
247.5816731493
  0
LINE
  8
0
 62
7
  6
CONTINUOUS
 10
119.6991827665
 20
245.9861823332
 11
119.4901770409
 21
245.8718704467
  0
LINE
  8
0
 62
7
  6
CONTINUOUS
 10
123.9202405869
 20
246.340220845
 11
123.7032570799
 21
246.2418911034
  0
LINE
  8
0
 62
7
  6
CONTINUOUS
 10
123.273223064
 20
244.6742155892
 11
123.0562395354
 21
244.575885792
  0
LINE
  8
0
 62
7
  6
CONTINUOUS
 10
131.1935671094
 20
242.1885005073
 11
131.580597522
 21
242.3576069083
  0
LINE
  8
0
 62
7
  6
CONTINUOUS
 10
136.6382738141
 20
239.5490229694
 11
136.9283728893
 21
239.6428702331
  0
LINE
  8
LAY0001
 62
7
  6
CONTINUOUS
 10
136.4472070335
 20
160.2656623707
 11
136.3944373575
 21
160.2685585411
  0
LINE
  8
LAY0001
 62
7
  6
CONTINUOUS
 10
136.0633386986
 20
160.5497842651
 11
136.0105693055
 21
160.5526807232
  0
LINE
  8
LAY0001
 62
7
  6
CONTINUOUS
 10
136.6177357563
 20
160.9928496155
 11
136.6705052896
 21
160.9899533024
  0
LINE
  8
LAY0001
 62
7
  6
CONTINUOUS
 10
137.2561969944
 20
161.1024852548
 11
137.3089665277
 21
161.0995889417
  0
LINE
  8
LAY0001
 62
7
  6
CONTINUOUS
 10
138.6932632282
 20
162.9570453752
 11
138.5877242477
 21
162.9628381069
  0
LINE
  8
LAY0001
 62
7
  6
CONTINUOUS
 10
135.0229265107
 20
158.8970476943
 11
135.089612363
 21
158.880234777
  0
LINE
  8
0
 62
7
  6
CONTINUOUS
 10
81.4674171569
 20
244.8108856789
 11
81.4560930488
 21
244.4320204713
  0
LINE
  8
0
 62
7
  6
CONTINUOUS
 10
81.8707455651
 20
244.5264501632
 11
81.8764084878
 21
244.7158831606
  0
LINE
  8
0
 62
7
  6
CONTINUOUS
 10
91.8958670958
 20
249.7320686288
 11
91.800912629
 21
249.3651207712
  0
LINE
  8
0
 62
7
  6
CONTINUOUS
 10
94.8232476934
 20
247.8993027454
 11
94.7112130654
 21
247.6157297208
  0
LINE
  8
0
 62
7
  6
CONTINUOUS
 10
116.5855896773
 20
249.0832547588
 11
116.3482763729
 21
248.7877063858
  0
LINE
  8
0
 62
7
  6
CONTINUOUS
 10
116.6174473217
 20
248.4654563028
 11
116.8360862222
 21
248.6779723848
  0
LINE
  8
0
 62
7
  6
CONTINUOUS
 10
116.2878289202
 20
246.6204754236
 11
116.5064678206
 21
246.8329915056
  0
LINE
  8
0
 62
7
  6
CONTINUOUS
 10
119.8144550712
 20
245.5062972018
 11
120.1527411183
 21
245.7591846981
  0
LINE
  8
0
 62
7
  6
CONTINUOUS
 10
123.3522136649
 20
244.1870421822
 11
123.7084975145
 21
244.4138710912
  0
LINE
  8
0
 62
7
  6
CONTINUOUS
 10
136.7918986516
 20
236.6894886579
 11
136.5017995389
 21
236.5956413478
  0
LINE
  8
LAY0001
 62
7
  6
CONTINUOUS
 10
138.5297273978
 20
162.821342468
 11
138.649182828
 21
162.8016332822
  0
LINE
  8
LAY0001
 62
7
  6
CONTINUOUS
 10
136.2697547349
 20
160.1438759184
 11
136.3364405871
 21
160.1270630011
  0
LINE
  8
LAY0001
 62
7
  6
CONTINUOUS
 10
135.8858863975
 20
160.4279978152
 11
135.9525722546
 21
160.411184893
  0
LINE
  8
LAY0001
 62
7
  6
CONTINUOUS
 10
136.1300245581
 20
160.5329713405
 11
136.0633386986
 21
160.5497842651
  0
LINE
  8
LAY0001
 62
7
  6
CONTINUOUS
 10
138.278596084
 20
162.1248843443
 11
138.2119101604
 21
162.1416971903
  0
LINE
  8
LAY0001
 62
7
  6
CONTINUOUS
 10
136.8091045263
 20
161.1007195964
 11
136.7285022027
 21
161.1314489851
  0
LINE
  8
LAY0001
 62
7
  6
CONTINUOUS
 10
137.3669634408
 20
161.2410846244
 11
137.2863609844
 21
161.2718138606
  0
LINE
  8
LAY0001
 62
7
  6
CONTINUOUS
 10
134.9284077353
 20
158.9416935348
 11
135.0229265107
 21
158.8970476943
  0
LINE
  8
LAY0001
 62
7
  6
CONTINUOUS
 10
135.1476094188
 20
159.0217306023
 11
135.053090358
 21
159.0663761574
  0
LINE
  8
0
 62
7
  6
CONTINUOUS
 10
69.9361225521
 20
235.4603197531
 11
69.9878285574
 21
235.1598332538
  0
LINE
  8
0
 62
7
  6
CONTINUOUS
 10
92.2945021953
 20
249.0318678768
 11
92.3078200407
 21
249.3820916632
  0
LINE
  8
0
 62
7
  6
CONTINUOUS
 10
74.8316069333
 20
126.7845865392
 11
74.1641939559
 21
123.3011326425
  0
LINE
  8
0
 62
7
  6
CONTINUOUS
 10
95.2352006025
 20
247.5493259549
 11
95.3301550573
 21
247.9162738709
  0
LINE
  8
0
 62
7
  6
CONTINUOUS
 10
114.4212137606
 20
250.0935354398
 11
114.2652008572
 21
249.7796983457
  0
LINE
  8
0
 62
7
  6
CONTINUOUS
 10
116.5064678206
 20
246.8329915056
 11
116.6438026115
 21
247.063797204
  0
LINE
  8
0
 62
7
  6
CONTINUOUS
 10
120.3736077504
 20
247.9159797852
 11
120.2195481193
 21
247.6959849788
  0
LINE
  8
0
 62
7
  6
CONTINUOUS
 10
120.6731064885
 20
247.4689874007
 11
120.8271661196
 21
247.6889822071
  0
LINE
  8
0
 62
7
  6
CONTINUOUS
 10
119.8532423976
 20
246.2061771396
 11
119.6991827665
 21
245.9861823332
  0
LINE
  8
0
 62
7
  6
CONTINUOUS
 10
120.1527411183
 20
245.7591846981
 11
120.3068007668
 21
245.9791795615
  0
LINE
  8
0
 62
7
  6
CONTINUOUS
 10
45.2174270094
 20
148.4632988208
 11
43.0076204223
 21
145.6890158538
  0
LINE
  8
0
 62
7
  6
CONTINUOUS
 10
116.2372968849
 20
247.1552416467
 11
116.118636511
 21
247.0074682974
  0
LINE
  8
0
 62
7
  6
CONTINUOUS
 10
124.0903512748
 20
246.548053563
 11
123.9202405869
 21
246.340220845
  0
LINE
  8
0
 62
7
  6
CONTINUOUS
 10
124.3555150589
 20
246.0798764026
 11
124.5256257468
 21
246.2877091205
  0
LINE
  8
0
 62
7
  6
CONTINUOUS
 10
123.4433337519
 20
244.8820483071
 11
123.273223064
 21
244.6742155892
  0
LINE
  8
0
 62
7
  6
CONTINUOUS
 10
123.7084975145
 20
244.4138710912
 11
123.878608224
 21
244.6217038647
  0
LINE
  8
0
 62
7
  6
CONTINUOUS
 10
131.3908932016
 20
242.8611054463
 11
131.1907333379
 21
242.6820279505
  0
LINE
  8
0
 62
7
  6
CONTINUOUS
 10
131.580597522
 20
242.3576069083
 11
131.7807573858
 21
242.5366844042
  0
LINE
  8
0
 62
7
  6
CONTINUOUS
 10
132.5090810747
 20
240.4292841409
 11
134.4298755145
 21
241.8966853804
  0
LINE
  8
0
 62
7
  6
CONTINUOUS
 10
131.3937145081
 20
239.5439599173
 11
132.247402998
 21
240.1961367711
  0
LINE
  8
0
 62
7
  6
CONTINUOUS
 10
134.3483643252
 20
242.3661032768
 11
130.9818773341
 21
239.8274914713
  0
LINE
  8
0
 62
7
  6
CONTINUOUS
 10
136.4129891829
 20
239.4028050593
 11
136.6382738141
 21
239.5490229694
  0
LINE
  8
0
 62
7
  6
CONTINUOUS
 10
135.5571813573
 20
238.3436424029
 11
135.7824659136
 21
238.4898602203
  0
LINE
  8
0
 62
7
  6
CONTINUOUS
 10
137.017183133
 20
236.8357063826
 11
136.7918986516
 21
236.6894886579
  0
LINE
  8
0
 62
7
  6
CONTINUOUS
 10
136.5394615891
 20
239.957112179
 11
136.1423863952
 21
239.7308694094
  0
LINE
  8
0
 62
7
  6
CONTINUOUS
 10
136.8907108391
 20
236.2813994019
 11
137.2877859206
 21
236.5076420324
  0
LINE
  8
0
 62
7
  6
CONTINUOUS
 10
29.0699728883
 20
181.4212408706
 11
25.8240127497
 21
179.9916836274
  0
LINE
  8
0
 62
7
  6
CONTINUOUS
 10
180.6511231627
 20
195.5708115918
 11
184.1448770403
 21
196.1820193928
  0
LINE
  8
0
 62
7
  6
CONTINUOUS
 10
170.8825079858
 20
160.1936950292
 11
174.2601158368
 21
159.1112642753
  0
LINE
  8
LAY0001
 62
7
  6
CONTINUOUS
 10
138.0872273237
 20
162.0170143536
 11
138.1678297802
 21
161.9862851174
  0
LINE
  8
LAY0001
 62
7
  6
CONTINUOUS
 10
135.9525722546
 20
160.411184893
 11
136.0470913202
 21
160.3665393331
  0
LINE
  8
LAY0001
 62
7
  6
CONTINUOUS
 10
137.161678219
 20
161.1471310953
 11
137.2561969944
 21
161.1024852548
  0
LINE
  8
LAY0001
 62
7
  6
CONTINUOUS
 10
138.8016985611
 20
162.898483169
 11
138.6932632282
 21
162.9570453752
  0
LINE
  8
0
 62
7
  6
CONTINUOUS
 10
145.7922629883
 20
133.4085158302
 11
148.2799555588
 21
130.8804183623
  0
LINE
  8
0
 62
7
  6
CONTINUOUS
 10
111.1282609291
 20
121.3514357528
 11
112.1561378311
 21
117.956828234
  0
LINE
  8
0
 62
7
  6
CONTINUOUS
 10
83.85111783
 20
244.3959113808
 11
83.8805786126
 21
244.1289578689
  0
LINE
  8
0
 62
7
  6
CONTINUOUS
 10
91.800912629
 20
249.3651207712
 11
91.8046749926
 21
248.9315219181
  0
LINE
  8
0
 62
7
  6
CONTINUOUS
 10
95.3301550573
 20
247.9162738709
 11
95.3263927416
 21
248.3498724904
  0
LINE
  8
0
 62
7
  6
CONTINUOUS
 10
94.8365655388
 20
248.2495265318
 11
94.8232476934
 21
247.8993027454
  0
LINE
  8
0
 62
7
  6
CONTINUOUS
 10
108.51738063
 20
277.5819847698
 11
106.6711290622
 21
267.1113718186
  0
LINE
  8
0
 62
7
  6
CONTINUOUS
 10
116.8360862222
 20
248.6779723848
 11
116.9920991255
 21
248.9918094789
  0
LINE
  8
0
 62
7
  6
CONTINUOUS
 10
145.1237435496
 20
266.3332041318
 11
138.62303251
 21
257.9199326869
  0
LINE
  8
0
 62
7
  6
CONTINUOUS
 10
136.1423863952
 20
239.7308694094
 11
135.7031499762
 21
239.3198610438
  0
LINE
  8
0
 62
7
  6
CONTINUOUS
 10
136.0272407482
 20
239.0579943539
 11
136.4129891829
 21
239.4028050593
  0
LINE
  8
0
 62
7
  6
CONTINUOUS
 10
142.1688091492
 20
233.5909730193
 11
140.4367583416
 21
232.5909730193
  0
LINE
  8
0
 62
7
  6
CONTINUOUS
 10
172.3094991542
 20
239.3610784417
 11
162.6435632001
 21
234.9325276002
  0
LINE
  8
0
 62
7
  6
CONTINUOUS
 10
27.7079664858
 20
173.5940627797
 11
38.1528494947
 21
175.5807180985
  0
LINE
  8
0
 62
7
  6
CONTINUOUS
 10
25.2449639046
 20
211.8104792827
 11
35.4166932636
 21
208.7155960421
  0
LINE
  8
0
 62
7
  6
CONTINUOUS
 10
53.8342179631
 20
212.8063633285
 11
55.5662687707
 21
211.8063633285
  0
LINE
  8
0
 62
7
  6
CONTINUOUS
 10
40.8241377293
 20
246.7940499263
 11
48.3924928248
 21
239.3266285793
  0
LINE
  8
LAY0001
 62
7
  6
CONTINUOUS
 10
134.4424604862
 20
157.4289369853
 11
136.068806083
 21
155.8025913886
  0
LINE
  8
LAY0001
 62
7
  6
CONTINUOUS
 10
133.7500312974
 20
158.1251451566
 11
133.7778642206
 21
158.0973122334
  0
LINE
  8
LAY0001
 62
7
  6
CONTINUOUS
 10
136.669846847
 20
156.4036321526
 11
135.0435012502
 21
158.0299777494
  0
LINE
  8
LAY0001
 62
7
  6
CONTINUOUS
 10
135.1849226065
 20
158.1713991056
 11
136.104161422
 21
157.25216029
  0
LINE
  8
0
 62
7
  6
CONTINUOUS
 10
70.8764869859
 20
270.530460274
 11
74.1076488743
 21
260.4011970591
  0
LINE
  8
0
 62
7
  6
CONTINUOUS
 10
81.4560930488
 20
244.4320204713
 11
81.5909179488
 21
243.9325023759
  0
LINE
  8
0
 62
7
  6
CONTINUOUS
 10
84.2952311289
 20
244.2233875608
 11
84.2306501403
 21
244.5678631072
  0
LINE
  8
0
 62
7
  6
CONTINUOUS
 10
100.0524361371
 20
251.5749596901
 11
100.2339637559
 21
247.5790808477
  0
LINE
  8
0
 62
7
  6
CONTINUOUS
 10
100.7102748727
 20
248.1118839914
 11
100.6484782358
 21
249.4721831883
  0
LINE
  8
0
 62
7
  6
CONTINUOUS
 10
100.6253045
 20
249.9822953201
 11
100.5750947283
 21
251.0875385106
  0
LINE
  8
0
 62
7
  6
CONTINUOUS
 10
102.812913879
 20
249.5705107061
 11
102.7897401432
 21
250.080622838
  0
LINE
  8
0
 62
7
  6
CONTINUOUS
 10
103.2308728877
 20
247.7152265617
 11
103.2076991492
 21
248.2253387531
  0
LINE
  8
0
 62
7
  6
CONTINUOUS
 10
103.0725190048
 20
251.2009932723
 11
103.049345269
 21
251.7111054042
  0
LINE
  8
DEFAULT_1
 62
2
  6
CENTER
 10
104.0015135561
 20
279.4529540481
 11
104.0015135561
 21
199.6987681739
  0
LINE
  8
0
 62
2
  6
CONTINUOUS
 10
104.0015135561
 20
198.5786681739
 11
104.0015135561
 21
196.8186681739
  0
LINE
  8
DEFAULT_1
 62
2
  6
CENTER
 10
104.0015135561
 20
115.0306345733
 11
104.0015135561
 21
195.6985681739
  0
LINE
  8
0
 62
7
  6
CONTINUOUS
 10
104.5015135561
 20
143.9959994869
 11
104.5015135561
 21
146.6986681739
  0
LINE
  8
0
 62
7
  6
CONTINUOUS
 10
104.5015135561
 20
148.6986681739
 11
104.5015135561
 21
151.4013368609
  0
LINE
  8
0
 62
7
  6
CONTINUOUS
 10
108.3412993381
 20
251.549796621
 11
108.2940483974
 21
251.1268962592
  0
LINE
  8
0
 62
7
  6
CONTINUOUS
 10
107.9727419538
 20
248.2511733842
 11
107.897140442
 21
247.5745327461
  0
LINE
  8
0
 62
7
  6
CONTINUOUS
 10
111.209859074
 20
247.2044004739
 11
111.2665602096
 21
247.7118809673
  0
LINE
  8
0
 62
7
  6
CONTINUOUS
 10
111.5878666531
 20
250.5876038422
 11
111.6540179702
 21
251.1796643487
  0
LINE
  8
0
 62
7
  6
CONTINUOUS
 10
112.4349411218
 20
250.4352000401
 11
112.3211384693
 21
249.7639271138
  0
LINE
  8
0
 62
7
  6
CONTINUOUS
 10
112.9136817366
 20
250.2677171501
 11
112.3588939201
 21
246.9952623103
  0
LINE
  8
0
 62
7
  6
CONTINUOUS
 10
112.8518598615
 20
246.9116885067
 11
113.5204502906
 21
250.8554160376
  0
LINE
  8
0
 62
7
  6
CONTINUOUS
 10
115.297944172
 20
248.6750485726
 11
115.2232316696
 21
248.3429227574
  0
LINE
  8
0
 62
7
  6
CONTINUOUS
 10
116.6229459808
 20
249.249317899
 11
116.5855896773
 21
249.0832547588
  0
LINE
  8
0
 62
7
  6
CONTINUOUS
 10
116.3120093873
 20
247.4873674619
 11
116.2372968849
 21
247.1552416467
  0
LINE
  8
0
 62
7
  6
CONTINUOUS
 10
116.9920991255
 20
248.9918094789
 11
117.0294554291
 21
249.1578726191
  0
LINE
  8
0
 62
7
  6
CONTINUOUS
 10
116.6438026115
 20
247.063797204
 11
116.7185151139
 21
247.3959230192
  0
LINE
  8
0
 62
7
  6
CONTINUOUS
 10
118.2491079533
 20
249.8080031154
 11
117.0844806739
 21
245.9813017552
  0
LINE
  8
0
 62
7
  6
CONTINUOUS
 10
117.7114941665
 20
246.3242384113
 11
118.0831837315
 21
247.545526105
  0
LINE
  8
0
 62
7
  6
CONTINUOUS
 10
118.2318595366
 20
248.034041114
 11
118.5787698181
 21
249.1739096965
  0
LINE
  8
0
 62
7
  6
CONTINUOUS
 10
120.4231663522
 20
248.0788181216
 11
120.3736077504
 21
247.9159797852
  0
LINE
  8
0
 62
7
  6
CONTINUOUS
 10
119.9275803002
 20
246.4504346441
 11
119.8532423976
 21
246.2061771396
  0
LINE
  8
0
 62
7
  6
CONTINUOUS
 10
120.3068007668
 20
245.9791795615
 11
120.4306972711
 21
246.3862754024
  0
LINE
  8
0
 62
7
  6
CONTINUOUS
 10
120.8271661196
 20
247.6889822071
 11
120.9262833925
 21
248.0146591079
  0
LINE
  8
0
 62
7
  6
CONTINUOUS
 10
122.1135925873
 20
248.5939462193
 11
120.6655056743
 21
244.8652675938
  0
LINE
  8
0
 62
7
  6
CONTINUOUS
 10
121.3164526612
 20
245.1602582552
 11
121.7786080686
 21
246.3502620966
  0
LINE
  8
0
 62
7
  6
CONTINUOUS
 10
121.9634702056
 20
246.8262635666
 11
122.3948152784
 21
247.9369338853
  0
LINE
  8
0
 62
7
  6
CONTINUOUS
 10
124.1519719872
 20
246.7067207196
 11
124.0903512748
 21
246.548053563
  0
LINE
  8
0
 62
7
  6
CONTINUOUS
 10
123.5357648205
 20
245.1200490421
 11
123.4433337519
 21
244.8820483071
  0
LINE
  8
0
 62
7
  6
CONTINUOUS
 10
123.878608224
 20
244.6217038647
 11
124.0326600048
 21
245.0183717563
  0
LINE
  8
0
 62
7
  6
CONTINUOUS
 10
124.5256257468
 20
246.2877091205
 11
124.6488672579
 21
246.605043656
  0
LINE
  8
0
 62
7
  6
CONTINUOUS
 10
129.7536747248
 20
245.1876451599
 11
127.7473142488
 21
241.7272235613
  0
LINE
  8
0
 62
7
  6
CONTINUOUS
 10
128.1798669486
 20
241.4764285018
 11
129.0763258974
 21
243.0225743444
  0
LINE
  8
0
 62
7
  6
CONTINUOUS
 10
129.3324569915
 20
243.4643302405
 11
129.9727848463
 21
244.568720187
  0
LINE
  8
0
 62
7
  6
CONTINUOUS
 10
131.5189588682
 20
243.0819836007
 11
131.3908932016
 21
242.8611054463
  0
LINE
  8
0
 62
7
  6
CONTINUOUS
 10
131.7807573858
 20
242.5366844042
 11
131.9515115681
 21
242.8311885411
  0
LINE
  8
0
 62
7
  6
CONTINUOUS
 10
135.7031499762
 20
239.3198610438
 11
135.3287340853
 21
238.8564774222
  0
LINE
  8
0
 62
7
  6
CONTINUOUS
 10
135.9202647794
 20
238.9255990334
 11
136.0272407482
 21
239.0579943539
  0
LINE
  8
0
 62
7
  6
CONTINUOUS
 10
135.396717404
 20
238.1450494222
 11
135.5571813573
 21
238.3436424029
  0
LINE
  8
0
 62
7
  6
CONTINUOUS
 10
137.1776470862
 20
237.0342993633
 11
137.017183133
 21
236.8357063826
  0
LINE
  8
0
 62
7
  6
CONTINUOUS
 10
150.2593888901
 20
224.9830152193
 11
147.9188091492
 21
223.6316808758
  0
LINE
  8
0
 62
7
  6
CONTINUOUS
 10
146.1867583416
 20
222.6316808758
 11
143.8461786006
 21
221.2803465323
  0
LINE
  8
DEFAULT_1
 62
2
  6
CENTER
 10
188.510940919
 20
197.6986681739
 11
106.0016135561
 21
197.6986681739
  0
LINE
  8
0
 62
2
  6
CONTINUOUS
 10
104.8815135561
 20
197.6986681739
 11
103.1215135561
 21
197.6986681739
  0
LINE
  8
DEFAULT_1
 62
2
  6
CENTER
 10
24.738512035
 20
197.6986681739
 11
102.0014135561
 21
197.6986681739
  0
LINE
  8
0
 62
7
  6
CONTINUOUS
 10
57.2436382222
 20
224.1169898155
 11
59.5842179631
 21
222.765655472
  0
LINE
  8
0
 62
7
  6
CONTINUOUS
 10
61.3162687707
 20
221.765655472
 11
63.6568485117
 21
220.4143211285
  0
LINE
  8
LAY0001
 62
7
  6
CONTINUOUS
 10
134.8263303707
 20
158.6447857079
 11
134.7984974475
 21
158.6726186311
  0
LINE
  8
LAY0001
 62
7
  6
CONTINUOUS
 10
134.6639949262
 20
159.2061063439
 11
134.9284077353
 21
158.9416935348
  0
LINE
  8
LAY0001
 62
7
  6
CONTINUOUS
 10
135.053090358
 20
159.0663761574
 11
134.7886775488
 21
159.3307889666
  0
LINE
  8
LAY0001
 62
7
  6
CONTINUOUS
 10
136.7405575251
 20
157.817845715
 11
135.7859633705
 21
158.7724398696
  0
LINE
  8
LAY0001
 62
7
  6
CONTINUOUS
 10
135.2375356753
 20
159.779647093
 11
135.5576143308
 21
159.4595684375
  0
LINE
  8
LAY0001
 62
7
  6
CONTINUOUS
 10
135.6132801771
 20
159.4039025912
 11
135.6828624851
 21
159.3343202832
  0
LINE
  8
LAY0001
 62
7
  6
CONTINUOUS
 10
135.8075453931
 20
159.4590031912
 11
135.3622185833
 21
159.904330001
  0
LINE
  8
LAY0001
 62
7
  6
CONTINUOUS
 10
135.5617111791
 20
160.1038225968
 11
136.0070379889
 21
159.658495787
  0
LINE
  8
LAY0001
 62
7
  6
CONTINUOUS
 10
136.1462026437
 20
159.5193311321
 11
136.2157849517
 21
159.4497488242
  0
LINE
  8
LAY0001
 62
7
  6
CONTINUOUS
 10
136.3404675743
 20
159.5744314469
 11
136.2708852664
 21
159.6440137548
  0
LINE
  8
LAY0001
 62
7
  6
CONTINUOUS
 10
136.1317206115
 20
159.7831784097
 11
135.6863938017
 21
160.2285052195
  0
LINE
  8
LAY0001
 62
7
  6
CONTINUOUS
 10
136.5991361688
 20
159.585612668
 11
137.3769536282
 21
158.8077952087
  0
LINE
  8
LAY0001
 62
7
  6
CONTINUOUS
 10
137.9426390531
 20
158.2421097837
 11
138.2254817656
 21
157.9592670712
  0
LINE
  8
LAY0001
 62
7
  6
CONTINUOUS
 10
136.0470913202
 20
160.3665393331
 11
136.2697547349
 21
160.1438759184
  0
LINE
  8
LAY0001
 62
7
  6
CONTINUOUS
 10
136.3944373575
 20
160.2685585411
 11
136.3526879728
 21
160.3103079258
  0
LINE
  8
LAY0001
 62
7
  6
CONTINUOUS
 10
136.2970221069
 20
160.3659737917
 11
136.2135233374
 21
160.4494725612
  0
LINE
  8
LAY0001
 62
7
  6
CONTINUOUS
 10
138.8265225296
 20
158.5603078352
 11
137.2001769329
 21
160.186653432
  0
LINE
  8
LAY0001
 62
7
  6
CONTINUOUS
 10
136.6705052896
 20
160.9899533024
 11
136.6983382225
 21
160.9621203695
  0
LINE
  8
LAY0001
 62
7
  6
CONTINUOUS
 10
137.3415982891
 20
160.3280747882
 11
138.9679438858
 21
158.7017291915
  0
LINE
  8
LAY0001
 62
7
  6
CONTINUOUS
 10
137.0456843928
 20
160.86413973
 11
137.0178514696
 21
160.8919726531
  0
LINE
  8
LAY0001
 62
7
  6
CONTINUOUS
 10
136.8508539111
 20
161.0589702117
 11
136.8091045263
 21
161.1007195964
  0
LINE
  8
LAY0001
 62
7
  6
CONTINUOUS
 10
136.8833489483
 20
161.425460366
 11
137.161678219
 21
161.1471310953
  0
LINE
  8
LAY0001
 62
7
  6
CONTINUOUS
 10
137.2863609844
 20
161.2718138606
 11
137.0080317136
 21
161.5501431313
  0
LINE
  8
LAY0001
 62
7
  6
CONTINUOUS
 10
139.5689846498
 20
159.3027699555
 11
138.7911671905
 21
160.0805874148
  0
LINE
  8
LAY0001
 62
7
  6
CONTINUOUS
 10
138.2254817656
 20
160.6462728397
 11
137.9426390531
 21
160.9291155522
  0
LINE
  8
LAY0001
 62
7
  6
CONTINUOUS
 10
137.4568898401
 20
161.9990012578
 11
137.7769684956
 21
161.6789226023
  0
LINE
  8
LAY0001
 62
7
  6
CONTINUOUS
 10
137.8326343419
 20
161.6232567559
 11
138.1109636127
 21
161.3449274852
  0
LINE
  8
LAY0001
 62
7
  6
CONTINUOUS
 10
138.2356464493
 20
161.4696103219
 11
137.5815726767
 21
162.1236840945
  0
LINE
  8
LAY0001
 62
7
  6
CONTINUOUS
 10
139.4275632936
 20
161.0705369085
 11
140.3821574482
 21
160.1159427539
  0
LINE
  8
LAY0001
 62
7
  6
CONTINUOUS
 10
138.649182828
 20
162.8016332822
 11
138.6909322127
 21
162.7598838975
  0
LINE
  8
LAY0001
 62
7
  6
CONTINUOUS
 10
140.9831982122
 20
160.7169835179
 11
140.0639593967
 21
161.6362223334
  0
LINE
  8
0
 62
7
  6
CONTINUOUS
 10
67.1354497223
 20
235.4137641231
 11
68.2941042578
 21
234.166864788
  0
LINE
  8
0
 62
7
  6
CONTINUOUS
 10
68.599334832
 20
234.4504937701
 11
67.4406802964
 21
235.6973931051
  0
LINE
  8
0
 62
7
  6
CONTINUOUS
 10
68.6616025711
 20
236.831909013
 11
69.9361225521
 21
235.4603197531
  0
LINE
  8
0
 62
7
  6
CONTINUOUS
 10
70.4730841232
 20
235.4945689028
 11
68.9668332108
 21
237.1155380559
  0
LINE
  8
0
 62
7
  6
CONTINUOUS
 10
69.7254160267
 20
237.776936554
 11
71.4492785555
 21
235.6685655596
  0
LINE
  8
0
 62
7
  6
CONTINUOUS
 10
71.7718484083
 20
235.9323076067
 11
70.5328221733
 21
237.4476993108
  0
LINE
  8
0
 62
7
  6
CONTINUOUS
 10
70.317339376
 20
237.7112456621
 11
70.0479858795
 21
238.0406786011
  0
LINE
  8
0
 62
7
  6
CONTINUOUS
 10
71.909556219
 20
238.1336241481
 11
72.9330996568
 21
236.8817787952
  0
LINE
  8
0
 62
7
  6
CONTINUOUS
 10
73.255669325
 20
237.1455206914
 11
72.2321258873
 21
238.3973660443
  0
LINE
  8
0
 62
7
  6
CONTINUOUS
 10
71.3890743597
 20
240.7390237998
 11
71.6447552242
 21
240.3988699185
  0
LINE
  8
0
 62
7
  6
CONTINUOUS
 10
72.1561170964
 20
239.7185619653
 11
73.7924747722
 21
237.5415769344
  0
LINE
  8
0
 62
7
  6
CONTINUOUS
 10
74.125542027
 20
237.7919310485
 11
72.4891843511
 21
239.9689160794
  0
LINE
  8
0
 62
7
  6
CONTINUOUS
 10
71.9778224789
 20
240.6492240326
 11
71.7221416144
 21
240.9893779139
  0
LINE
  8
0
 62
7
  6
CONTINUOUS
 10
76.0037704185
 20
243.8979796319
 11
77.9810912954
 21
240.4208828329
  0
LINE
  8
0
 62
7
  6
CONTINUOUS
 10
78.4157283952
 20
240.6680479425
 11
77.4901739347
 21
242.2956251808
  0
LINE
  8
0
 62
7
  6
CONTINUOUS
 10
77.2377500231
 20
242.7395098257
 11
76.69083143
 21
243.7012600967
  0
LINE
  8
0
 62
7
  6
CONTINUOUS
 10
79.3736008148
 20
243.3666736749
 11
79.1211769032
 21
243.8105583197
  0
LINE
  8
0
 62
7
  6
CONTINUOUS
 10
78.8640169294
 20
244.9370856448
 11
78.6115930177
 21
245.3809702896
  0
LINE
  8
0
 62
7
  6
CONTINUOUS
 10
79.3808548986
 20
245.7597394282
 11
81.1908455666
 21
242.192677082
  0
LINE
  8
0
 62
7
  6
CONTINUOUS
 10
81.5624148445
 20
242.3812179205
 11
79.7524241764
 21
245.9482802667
  0
LINE
  8
0
 62
7
  6
CONTINUOUS
 10
82.0406941458
 20
243.9494116076
 11
81.970450259
 21
244.1044541023
  0
LINE
  8
0
 62
7
  6
CONTINUOUS
 10
81.9058675085
 20
244.4489289158
 11
81.8707455651
 21
244.5264501632
  0
LINE
  8
0
 62
7
  6
CONTINUOUS
 10
83.4296544602
 20
245.3261664575
 11
83.499898347
 21
245.1711239628
  0
LINE
  8
0
 62
7
  6
CONTINUOUS
 10
84.01991848
 20
245.0329905912
 11
83.8794306573
 21
245.3430756892
  0
LINE
  8
0
 62
7
  6
CONTINUOUS
 10
91.8046749926
 20
248.9315219181
 11
92.0608774336
 21
247.6808993051
  0
LINE
  8
0
 62
7
  6
CONTINUOUS
 10
92.5507046364
 20
247.7812452637
 11
92.2945021953
 21
249.0318678768
  0
LINE
  8
0
 62
7
  6
CONTINUOUS
 10
94.5803630978
 20
249.5001491448
 11
94.8365655388
 21
248.2495265318
  0
LINE
  8
0
 62
7
  6
CONTINUOUS
 10
95.3263927416
 20
248.3498724904
 11
95.0701903006
 21
249.6004951035
  0
LINE
  8
0
 62
7
  6
CONTINUOUS
 10
95.7721392397
 20
251.0939411297
 11
96.2591843699
 21
247.1237034742
  0
LINE
  8
0
 62
7
  6
CONTINUOUS
 10
96.7554640769
 20
247.1845841154
 11
96.3305949133
 21
250.6479829817
  0
LINE
  8
0
 62
7
  6
CONTINUOUS
 10
98.5843896503
 20
251.4389312754
 11
98.9988961455
 21
248.0600055998
  0
LINE
  8
0
 62
7
  6
CONTINUOUS
 10
99.5677144874
 20
247.5295742612
 11
99.0806693572
 21
251.4998119167
  0
LINE
  8
0
 62
7
  6
CONTINUOUS
 10
118.7341983488
 20
119.0558978477
 11
118.0210195076
 21
129.6640907364
  0
LINE
  8
0
 62
7
  6
CONTINUOUS
 10
135.3287340853
 20
238.8564774222
 11
135.0191386476
 21
238.3407184519
  0
LINE
  8
0
 62
7
  6
CONTINUOUS
 10
137.2877859206
 20
236.5076420324
 11
137.5552259177
 21
236.8386304263
  0
LINE
  8
0
 62
7
  6
CONTINUOUS
 10
81.5909179488
 20
243.9325023759
 11
81.8775564186
 21
243.5017653945
  0
LINE
  8
0
 62
7
  6
CONTINUOUS
 10
153.5937757642
 20
134.910573324
 11
148.0324142129
 21
143.9722309054
  0
LINE
  8
0
 62
7
  6
CONTINUOUS
 10
92.0608774336
 20
247.6808993051
 11
92.2279167293
 21
247.2807495937
  0
LINE
  8
0
 62
7
  6
CONTINUOUS
 10
113.716943516
 20
247.72220121
 11
113.7422132488
 21
247.4548172322
  0
LINE
  8
0
 62
7
  6
CONTINUOUS
 10
115.3529451529
 20
273.5329310581
 11
115.1673192389
 21
277.0748844955
  0
LINE
  8
0
 62
7
  6
CONTINUOUS
 10
119.922196509
 20
246.7189549608
 11
119.9275803002
 21
246.4504346441
  0
LINE
  8
0
 62
7
  6
CONTINUOUS
 10
116.7185151139
 20
247.3959230192
 11
116.7119272415
 21
247.7463376719
  0
LINE
  8
0
 62
7
  6
CONTINUOUS
 10
117.0294554291
 20
249.1578726191
 11
117.0228675305
 21
249.5082871555
  0
LINE
  8
0
 62
7
  6
CONTINUOUS
 10
116.0015135561
 20
146.6986681739
 11
116.0015135561
 21
148.6986681739
  0
LINE
  8
0
 62
7
  6
CONTINUOUS
 10
123.5505163128
 20
245.3882179052
 11
123.5357648205
 21
245.1200490421
  0
LINE
  8
0
 62
7
  6
CONTINUOUS
 10
133.6201914831
 20
239.251033033
 11
133.3156234146
 21
238.2208112229
  0
LINE
  8
0
 62
7
  6
CONTINUOUS
 10
134.4298755145
 20
241.8966853804
 11
133.7445925966
 21
239.5786894787
  0
LINE
  8
0
 62
7
  6
CONTINUOUS
 10
135.3010739789
 20
237.8940811855
 11
135.396717404
 21
238.1450494222
  0
LINE
  8
0
 62
7
  6
CONTINUOUS
 10
80.4995403955
 20
121.2173333049
 11
84.7979249422
 21
130.9418523529
  0
LINE
  8
0
 62
7
  6
CONTINUOUS
 10
149.2946462604
 20
259.5712998968
 11
150.776310513
 21
262.7938085741
  0
LINE
  8
0
 62
7
  6
CONTINUOUS
 10
47.6489012639
 20
140.8997208806
 11
55.9741410999
 21
147.5127959671
  0
LINE
  8
0
 62
7
  6
CONTINUOUS
 10
172.8602365068
 20
231.4353944538
 11
175.6697595017
 21
233.6002204685
  0
LINE
  8
0
 62
7
  6
CONTINUOUS
 10
183.8467184588
 20
202.8445966457
 11
173.22990703
 21
203.4152940355
  0
LINE
  8
0
 62
7
  6
CONTINUOUS
 10
30.0884317112
 20
218.1081453514
 11
26.5499283708
 21
218.3508081683
  0
LINE
  8
0
 62
7
  6
CONTINUOUS
 10
68.8341791237
 20
234.3201846874
 11
68.599334832
 21
234.4504937701
  0
LINE
  8
0
 62
7
  6
CONTINUOUS
 10
177.0923635593
 20
165.149244652
 11
167.9568602077
 21
170.5884503788
  0
LINE
  8
0
 62
7
  6
CONTINUOUS
 10
48.0394868356
 20
250.1194845717
 11
45.0190687651
 21
251.9787763217
  0
LINE
  8
0
 62
7
  6
CONTINUOUS
 10
68.2941042578
 20
234.166864788
 11
68.5868813074
 21
233.9742106943
  0
LINE
  8
0
 62
7
  6
CONTINUOUS
 10
70.7658611025
 20
235.3019147641
 11
70.4730841232
 21
235.4945689028
  0
LINE
  8
0
 62
7
  6
CONTINUOUS
 10
71.5756886412
 20
238.4103085872
 11
71.909556219
 21
238.1336241481
  0
LINE
  8
0
 62
7
  6
CONTINUOUS
 10
72.2321258873
 20
238.3973660443
 11
71.8982586786
 21
238.6740507852
  0
LINE
  8
0
 62
7
  6
CONTINUOUS
 10
82.2219650481
 20
243.7512375812
 11
82.0406941458
 21
243.9494116076
  0
LINE
  8
0
 62
7
  6
CONTINUOUS
 10
83.8794306573
 20
245.3430756892
 11
83.6630360742
 21
245.6187701759
  0
LINE
  8
0
 62
7
  6
CONTINUOUS
 10
78.8107678662
 20
270.1218464945
 11
77.0003764455
 21
273.1718258447
  0
LINE
  8
LAY0001
 62
7
  6
CONTINUOUS
 10
138.8602607868
 20
162.7900478167
 11
138.8016985611
 21
162.898483169
  0
LINE
  8
0
 62
7
  6
CONTINUOUS
 10
92.7006637709
 20
247.4644703854
 11
92.5507046364
 21
247.7812452637
  0
LINE
  8
0
 62
7
  6
CONTINUOUS
 10
94.4304039633
 20
249.8169240231
 11
94.5803630978
 21
249.5001491448
  0
LINE
  8
0
 62
7
  6
CONTINUOUS
 10
95.0701903006
 20
249.6004951035
 11
94.9031509571
 21
250.0006450485
  0
LINE
  8
0
 62
7
  6
CONTINUOUS
 10
120.4306972711
 20
246.3862754024
 11
120.4253134799
 21
246.654795719
  0
LINE
  8
0
 62
7
  6
CONTINUOUS
 10
120.4177825956
 20
248.3473385523
 11
120.4231663522
 21
248.0788181216
  0
LINE
  8
0
 62
7
  6
CONTINUOUS
 10
120.9262833925
 20
248.0146591079
 11
120.9208995665
 21
248.2831793105
  0
LINE
  8
0
 62
7
  6
CONTINUOUS
 10
124.0326600048
 20
245.0183717563
 11
124.0474114972
 21
245.2865406194
  0
LINE
  8
0
 62
7
  6
CONTINUOUS
 10
124.1667235227
 20
246.9748896938
 11
124.1519719872
 21
246.7067207196
  0
LINE
  8
0
 62
7
  6
CONTINUOUS
 10
124.6488672579
 20
246.605043656
 11
124.663618707
 21
246.873212408
  0
LINE
  8
0
 62
7
  6
CONTINUOUS
 10
131.5749300985
 20
243.3446620009
 11
131.5189588682
 21
243.0819836007
  0
LINE
  8
0
 62
7
  6
CONTINUOUS
 10
131.9515115681
 20
242.8311885411
 11
132.0074827984
 21
243.0938669414
  0
LINE
  8
0
 62
7
  6
CONTINUOUS
 10
133.7274605886
 20
237.9372796689
 11
134.8974784624
 21
241.9880626468
  0
LINE
  8
0
 62
7
  6
CONTINUOUS
 10
135.0191386476
 20
238.3407184519
 11
134.88133381
 21
237.9049843874
  0
LINE
  8
0
 62
7
  6
CONTINUOUS
 10
137.5552259177
 20
236.8386304263
 11
137.6930307178
 21
237.2743644444
  0
LINE
  8
0
 62
7
  6
CONTINUOUS
 10
137.2732905863
 20
237.2852676926
 11
137.1776470862
 21
237.0342993633
  0
LINE
  8
0
 62
7
  6
CONTINUOUS
 10
138.3883746651
 20
238.1349342128
 11
138.4840180902
 21
238.3859024495
  0
LINE
  8
0
 62
7
  6
CONTINUOUS
 10
68.5868813074
 20
233.9742106943
 11
68.7637928709
 21
233.9062465689
  0
LINE
  8
0
 62
7
  6
CONTINUOUS
 10
70.9427727908
 20
235.2339507344
 11
70.7658611025
 21
235.3019147641
  0
LINE
  8
0
 62
7
  6
CONTINUOUS
 10
70.2257862063
 20
235.1485948975
 11
70.6375421512
 21
234.9503216915
  0
LINE
  8
0
 62
7
  6
CONTINUOUS
 10
71.8982586786
 20
238.6740507852
 11
71.6721324993
 21
238.8189620486
  0
LINE
  8
0
 62
7
  6
CONTINUOUS
 10
81.8775564186
 20
243.5017653945
 11
82.1698560984
 21
243.2604605692
  0
LINE
  8
0
 62
7
  6
CONTINUOUS
 10
82.3681157444
 20
243.6305855892
 11
82.2219650481
 21
243.7512375812
  0
LINE
  8
0
 62
7
  6
CONTINUOUS
 10
92.2279167293
 20
247.2807495937
 11
92.4595124972
 21
246.9806987282
  0
LINE
  8
0
 62
7
  6
CONTINUOUS
 10
94.9031509571
 20
250.0006450485
 11
94.6715552011
 21
250.3006958555
  0
LINE
  8
LAY0001
 62
7
  6
CONTINUOUS
 10
137.8895005192
 20
162.2646143784
 11
137.9202297652
 21
162.1840119122
  0
LINE
  8
LAY0001
 62
7
  6
CONTINUOUS
 10
138.6909322127
 20
162.7598838975
 11
138.721661513
 21
162.6792814661
  0
LINE
  8
LAY0001
 62
7
  6
CONTINUOUS
 10
136.6983382225
 20
160.9621203695
 11
136.7151509972
 21
160.8954343746
  0
LINE
  8
LAY0001
 62
7
  6
CONTINUOUS
 10
138.0449126019
 20
162.3086947489
 11
138.0280997462
 21
162.3753806822
  0
LINE
  8
0
 62
7
  6
CONTINUOUS
 10
114.167397114
 20
247.4464043014
 11
114.1234529643
 21
247.6307559301
  0
LINE
  8
0
 62
7
  6
CONTINUOUS
 10
116.2241173923
 20
247.8560716729
 11
116.3120093873
 21
247.4873674619
  0
LINE
  8
LAY0001
 62
7
  6
CONTINUOUS
 10
133.9025468432
 20
158.221994856
 11
133.8996503875
 21
158.2747642467
  0
LINE
  8
LAY0001
 62
7
  6
CONTINUOUS
 10
134.6738145395
 20
158.547935723
 11
134.6767109952
 21
158.4951663324
  0
LINE
  8
LAY0001
 62
7
  6
CONTINUOUS
 10
136.1271283829
 20
160.5857410214
 11
136.1300245581
 21
160.5329713405
  0
LINE
  8
LAY0001
 62
7
  6
CONTINUOUS
 10
136.2135233374
 20
160.4494725612
 11
136.2106271671
 21
160.5022422372
  0
LINE
  8
LAY0001
 62
7
  6
CONTINUOUS
 10
136.8566466798
 20
160.9534312877
 11
136.8508539111
 21
161.0589702117
  0
LINE
  8
LAY0001
 62
7
  6
CONTINUOUS
 10
136.8931687043
 20
160.7672898878
 11
136.8960650173
 21
160.7145203545
  0
LINE
  8
LAY0001
 62
7
  6
CONTINUOUS
 10
137.0485808485
 20
160.8113703393
 11
137.0456843928
 21
160.86413973
  0
LINE
  8
0
 62
7
  6
CONTINUOUS
 10
134.88133381
 20
237.9049843874
 11
134.8618375037
 21
237.4830727504
  0
LINE
  8
0
 62
7
  6
CONTINUOUS
 10
135.2702451102
 20
237.5907424415
 11
135.3010739789
 21
237.8940811855
  0
LINE
  8
0
 62
7
  6
CONTINUOUS
 10
138.09510679
 20
238.7001443954
 11
138.0642779587
 21
238.3968056977
  0
LINE
  8
0
 62
7
  6
CONTINUOUS
 10
136.4823032326
 20
236.1737297107
 11
136.8907108391
 21
236.2813994019
  0
LINE
  8
0
 62
7
  6
CONTINUOUS
 10
69.1300695795
 20
234.2466013656
 11
68.8341791237
 21
234.3201846874
  0
LINE
  8
0
 62
7
  6
CONTINUOUS
 10
83.6630360742
 20
245.6187701759
 11
83.2948296094
 21
245.8256844442
  0
LINE
  8
0
 62
7
  6
CONTINUOUS
 10
83.1724767484
 20
245.4899499812
 11
83.4296544602
 21
245.3261664575
  0
LINE
  8
0
 62
7
  6
CONTINUOUS
 10
92.9151793657
 20
247.2477944114
 11
92.7006637709
 21
247.4644703854
  0
LINE
  8
0
 62
7
  6
CONTINUOUS
 10
94.2158883206
 20
250.0336002307
 11
94.4304039633
 21
249.8169240231
  0
LINE
  8
0
 62
7
  6
CONTINUOUS
 10
98.9988961455
 20
248.0600055998
 11
96.5165588002
 21
251.1852620916
  0
LINE
  8
0
 62
7
  6
CONTINUOUS
 10
96.3305949133
 20
250.6479829817
 11
98.823294927
 21
247.4382532993
  0
LINE
  8
0
 62
7
  6
CONTINUOUS
 10
113.7422132488
 20
247.4548172322
 11
113.8487796739
 21
247.1691454285
  0
LINE
  8
0
 62
7
  6
CONTINUOUS
 10
116.7119272415
 20
247.7463376719
 11
116.6053570947
 21
248.0320103127
  0
LINE
  8
0
 62
7
  6
CONTINUOUS
 10
116.5163795557
 20
249.5349897026
 11
116.6229459808
 21
249.249317899
  0
LINE
  8
0
 62
7
  6
CONTINUOUS
 10
120.4253134799
 20
246.654795719
 11
120.2852618483
 21
247.0532615967
  0
LINE
  8
0
 62
7
  6
CONTINUOUS
 10
124.0474114972
 20
245.2865406194
 11
123.9376105078
 21
245.6943803647
  0
LINE
  8
0
 62
7
  6
CONTINUOUS
 10
132.0074827984
 20
243.0938669414
 11
131.9619605112
 21
243.5137684019
  0
LINE
  8
0
 62
7
  6
CONTINUOUS
 10
137.2506314332
 20
237.5224087301
 11
137.2732905863
 21
237.2852676926
  0
LINE
  8
0
 62
7
  6
CONTINUOUS
 10
137.6930307178
 20
237.2743644444
 11
137.6590390209
 21
237.630078398
  0
LINE
  8
LAY0001
 62
7
  6
CONTINUOUS
 10
138.721661513
 20
162.6792814661
 11
138.7245578796
 21
162.6265119863
  0
LINE
  8
LAY0001
 62
7
  6
CONTINUOUS
 10
138.8660535087
 20
162.6845088459
 11
138.8602607868
 21
162.7900478167
  0
LINE
  8
0
 62
7
  6
CONTINUOUS
 10
138.4840180902
 20
238.3859024495
 11
138.5035143777
 21
238.8078140633
  0
LINE
  8
LAY0001
 62
7
  6
CONTINUOUS
 10
133.7581548427
 20
158.2167674811
 11
133.7500312974
 21
158.1251451566
  0
LINE
  8
LAY0001
 62
7
  6
CONTINUOUS
 10
134.8182065352
 20
158.5531631028
 11
134.8263303707
 21
158.6447857079
  0
LINE
  8
0
 62
7
  6
CONTINUOUS
 10
131.1907333379
 20
242.6820279505
 11
130.9611742733
 21
242.6183730627
  0
LINE
  8
0
 62
7
  6
CONTINUOUS
 10
136.9478691769
 20
240.064781847
 11
136.5394615891
 21
239.957112179
  0
LINE
  8
0
 62
7
  6
CONTINUOUS
 10
135.7824659136
 20
238.4898602203
 11
136.0190770044
 21
238.5175098238
  0
LINE
  8
0
 62
7
  6
CONTINUOUS
 10
68.7637928709
 20
233.9062465689
 11
69.1207293973
 21
233.8893890431
  0
LINE
  8
0
 62
7
  6
CONTINUOUS
 10
71.3389194491
 20
238.4365850647
 11
71.5756886412
 21
238.4103085872
  0
LINE
  8
0
 62
7
  6
CONTINUOUS
 10
71.6721324993
 20
238.8189620486
 11
71.4353633073
 21
238.8452385261
  0
LINE
  8
0
 62
7
  6
CONTINUOUS
 10
82.1698560984
 20
243.2604605692
 11
82.3919136165
 21
243.1741990527
  0
LINE
  8
0
 62
7
  6
CONTINUOUS
 10
82.7012002904
 20
243.5011925139
 11
82.3681157444
 21
243.6305855892
  0
LINE
  8
0
 62
7
  6
CONTINUOUS
 10
84.2460483098
 20
246.6014890069
 11
85.815078247
 21
245.7334525728
  0
LINE
  8
0
 62
7
  6
CONTINUOUS
 10
87.8525734766
 20
245.0401793417
 11
86.2835417524
 21
245.9082151092
  0
LINE
  8
0
 62
7
  6
CONTINUOUS
 10
86.1385504332
 20
245.5816184625
 11
87.3841099712
 21
244.8654168053
  0
LINE
  8
0
 62
7
  6
CONTINUOUS
 10
85.9600695245
 20
246.0600493311
 11
84.7145118152
 21
246.7762515433
  0
LINE
  8
0
 62
7
  6
CONTINUOUS
 10
92.4595124972
 20
246.9806987282
 11
92.8543852391
 21
246.7140968001
  0
LINE
  8
0
 62
7
  6
CONTINUOUS
 10
94.6715552011
 20
250.3006958555
 11
94.2766824652
 21
250.5672977545
  0
LINE
  8
0
 62
7
  6
CONTINUOUS
 10
114.2926453734
 20
247.2437630563
 11
114.167397114
 21
247.4464043014
  0
LINE
  8
0
 62
7
  6
CONTINUOUS
 10
117.0228675305
 20
249.5082871555
 11
116.7723709856
 21
249.9135695295
  0
LINE
  8
0
 62
7
  6
CONTINUOUS
 10
119.8123080042
 20
246.930319804
 11
119.922196509
 21
246.7189549608
  0
LINE
  8
0
 62
7
  6
CONTINUOUS
 10
120.3078940909
 20
248.5587033955
 11
120.4177825956
 21
248.3473385523
  0
LINE
  8
0
 62
7
  6
CONTINUOUS
 10
123.4567742304
 20
245.6072224769
 11
123.5505163128
 21
245.3882179052
  0
LINE
  8
0
 62
7
  6
CONTINUOUS
 10
124.0729814403
 20
247.1938942655
 11
124.1667235227
 21
246.9748896938
  0
LINE
  8
0
 62
7
  6
CONTINUOUS
 10
120.9208995665
 20
248.2831793105
 11
120.780847935
 21
248.6816451882
  0
LINE
  8
0
 62
7
  6
CONTINUOUS
 10
124.663618707
 20
246.873212408
 11
124.5538177176
 21
247.2810521534
  0
LINE
  8
0
 62
7
  6
CONTINUOUS
 10
131.5161250967
 20
243.5755110438
 11
131.5749300985
 21
243.3446620009
  0
LINE
  8
LAY0001
 62
7
  6
CONTINUOUS
 10
135.5576143308
 20
159.4595684375
 11
135.5355743191
 21
159.3818625794
  0
LINE
  8
LAY0001
 62
7
  6
CONTINUOUS
 10
135.5912401654
 20
159.3261967331
 11
135.6132801771
 21
159.4039025912
  0
LINE
  8
LAY0001
 62
7
  6
CONTINUOUS
 10
136.2106271671
 20
160.5022422372
 11
136.2436874603
 21
160.6188013195
  0
LINE
  8
LAY0001
 62
7
  6
CONTINUOUS
 10
136.7151509972
 20
160.8954343746
 11
136.6931108427
 21
160.8177283738
  0
LINE
  8
LAY0001
 62
7
  6
CONTINUOUS
 10
136.8346065449
 20
160.8757252675
 11
136.8566466798
 21
160.9534312877
  0
LINE
  8
LAY0001
 62
7
  6
CONTINUOUS
 10
137.0265405514
 20
160.7336641959
 11
137.0485808485
 21
160.8113703393
  0
LINE
  8
LAY0001
 62
7
  6
CONTINUOUS
 10
137.9225608173
 20
162.3811734558
 11
137.8895005192
 21
162.2646143784
  0
LINE
  8
LAY0001
 62
7
  6
CONTINUOUS
 10
137.7769684956
 20
161.6789226023
 11
137.7549282698
 21
161.6012165302
  0
LINE
  8
LAY0001
 62
7
  6
CONTINUOUS
 10
137.8105941161
 20
161.5455506838
 11
137.8326343419
 21
161.6232567559
  0
LINE
  8
LAY0001
 62
7
  6
CONTINUOUS
 10
138.7245578796
 20
162.6265119863
 11
138.6914975766
 21
162.5099529138
  0
LINE
  8
LAY0001
 62
7
  6
CONTINUOUS
 10
138.8440133097
 20
162.6068028005
 11
138.8660535087
 21
162.6845088459
  0
LINE
  8
LAY0001
 62
7
  6
CONTINUOUS
 10
135.5355743191
 20
159.3818625794
 11
135.4885975545
 21
159.2792199685
  0
LINE
  8
LAY0001
 62
7
  6
CONTINUOUS
 10
136.1741051438
 20
160.6883836359
 11
136.1271283829
 21
160.5857410214
  0
LINE
  8
LAY0001
 62
7
  6
CONTINUOUS
 10
135.5442634008
 20
159.2235541222
 11
135.5912401654
 21
159.3261967331
  0
LINE
  8
LAY0001
 62
7
  6
CONTINUOUS
 10
138.0280997462
 20
162.3753806822
 11
138.0750765464
 21
162.4780233288
  0
LINE
  8
LAY0001
 62
7
  6
CONTINUOUS
 10
137.7549282698
 20
161.6012165302
 11
137.7079515766
 21
161.4985739906
  0
LINE
  8
LAY0001
 62
7
  6
CONTINUOUS
 10
137.7636174229
 20
161.4429081442
 11
137.8105941161
 21
161.5455506838
  0
LINE
  8
LAY0001
 62
7
  6
CONTINUOUS
 10
138.7970365362
 20
162.5041601807
 11
138.8440133097
 21
162.6068028005
  0
LINE
  8
LAY0001
 62
7
  6
CONTINUOUS
 10
133.830068071
 20
158.3443465631
 11
133.7581548427
 21
158.2167674811
  0
LINE
  8
LAY0001
 62
7
  6
CONTINUOUS
 10
133.8996503875
 20
158.2747642467
 11
133.9356071462
 21
158.3385539285
  0
LINE
  8
LAY0001
 62
7
  6
CONTINUOUS
 10
134.6767109952
 20
158.4951663324
 11
134.6407542365
 21
158.4313766505
  0
LINE
  8
LAY0001
 62
7
  6
CONTINUOUS
 10
134.7462933031
 20
158.4255840245
 11
134.8182065352
 21
158.5531631028
  0
LINE
  8
LAY0001
 62
7
  6
CONTINUOUS
 10
136.6931108427
 20
160.8177283738
 11
136.6571542267
 21
160.7539388347
  0
LINE
  8
LAY0001
 62
7
  6
CONTINUOUS
 10
136.7626931702
 20
160.7481460464
 11
136.8346065449
 21
160.8757252675
  0
LINE
  8
LAY0001
 62
7
  6
CONTINUOUS
 10
136.8960650173
 20
160.7145203545
 11
136.8601084013
 21
160.6507308153
  0
LINE
  8
LAY0001
 62
7
  6
CONTINUOUS
 10
137.9944741171
 20
162.5087526092
 11
137.9225608173
 21
162.3811734558
  0
LINE
  8
LAY0001
 62
7
  6
CONTINUOUS
 10
136.9905839354
 20
160.6698746567
 11
137.0265405514
 21
160.7336641959
  0
LINE
  8
LAY0001
 62
7
  6
CONTINUOUS
 10
138.6914975766
 20
162.5099529138
 11
138.6555409071
 21
162.4461633211
  0
LINE
  8
LAY0001
 62
7
  6
CONTINUOUS
 10
136.2436874603
 20
160.6188013195
 11
136.3405372976
 21
160.7713170128
  0
LINE
  8
LAY0001
 62
7
  6
CONTINUOUS
 10
138.5100181975
 20
162.9407979127
 11
138.4073755752
 21
162.8938211417
  0
LINE
  8
LAY0001
 62
7
  6
CONTINUOUS
 10
138.3812387306
 20
162.1718611446
 11
138.278596084
 21
162.1248843443
  0
LINE
  8
0
 62
7
  6
CONTINUOUS
 10
104.5015135561
 20
151.4013368609
 11
92.0015135561
 21
147.6986681739
  0
LINE
  8
0
 62
7
  6
CONTINUOUS
 10
69.4901194958
 20
234.3488145965
 11
69.1300695795
 21
234.2466013656
  0
LINE
  8
0
 62
7
  6
CONTINUOUS
 10
115.6440061561
 20
246.4163722796
 11
116.0065677378
 21
246.5092794874
  0
LINE
  8
0
 62
7
  6
CONTINUOUS
 10
115.9186794448
 20
246.8779827739
 11
115.7373967955
 21
246.8315295995
  0
LINE
  8
0
 62
7
  6
CONTINUOUS
 10
71.1560209564
 20
238.3969749544
 11
71.3389194491
 21
238.4365850647
  0
LINE
  8
0
 62
7
  6
CONTINUOUS
 10
120.1505940427
 20
247.1832072717
 11
120.33482045
 21
247.216099933
  0
LINE
  8
0
 62
7
  6
CONTINUOUS
 10
69.1207293973
 20
233.8893890431
 11
69.4197332286
 21
233.9348765155
  0
LINE
  8
0
 62
7
  6
CONTINUOUS
 10
130.7771308957
 20
242.1348205412
 11
131.1935671094
 21
242.1885005073
  0
LINE
  8
0
 62
7
  6
CONTINUOUS
 10
123.8130580692
 20
245.8340513581
 11
123.9992312201
 21
245.8530475214
  0
LINE
  8
0
 62
7
  6
CONTINUOUS
 10
71.4353633073
 20
238.8452385261
 11
71.1340800339
 21
238.8187665037
  0
LINE
  8
0
 62
7
  6
CONTINUOUS
 10
82.8881341155
 20
243.4924514848
 11
82.7012002904
 21
243.5011925139
  0
LINE
  8
0
 62
7
  6
CONTINUOUS
 10
136.5017995389
 20
236.5956413478
 11
136.20036792
 21
236.6203670003
  0
LINE
  8
0
 62
7
  6
CONTINUOUS
 10
136.0190770044
 20
238.5175098238
 11
136.3205086233
 21
238.4927841713
  0
LINE
  8
0
 62
7
  6
CONTINUOUS
 10
136.5231280173
 20
238.8761477284
 11
135.9202647794
 21
238.9255990334
  0
LINE
  8
0
 62
7
  6
CONTINUOUS
 10
136.9283728893
 20
239.6428702331
 11
137.2298045083
 21
239.6181445806
  0
LINE
  8
0
 62
7
  6
CONTINUOUS
 10
83.2948296094
 20
245.8256844442
 11
82.8099332064
 21
245.886297247
  0
LINE
  8
0
 62
7
  6
CONTINUOUS
 10
135.9977425589
 20
236.2370081976
 11
136.4823032326
 21
236.1737297107
  0
LINE
  8
0
 62
7
  6
CONTINUOUS
 10
137.4324239022
 20
240.0015081377
 11
136.9478691769
 21
240.064781847
  0
LINE
  8
0
 62
7
  6
CONTINUOUS
 10
82.3919136165
 20
243.1741990527
 11
82.6898762007
 21
243.1223272655
  0
LINE
  8
0
 62
7
  6
CONTINUOUS
 10
82.8745141704
 20
245.5418217549
 11
83.1724767484
 21
245.4899499812
  0
LINE
  8
0
 62
7
  6
CONTINUOUS
 10
92.8543852391
 20
246.7140968001
 11
93.2150957887
 21
246.6142441626
  0
LINE
  8
0
 62
7
  6
CONTINUOUS
 10
93.1942533014
 20
247.1312176662
 11
92.9151793657
 21
247.2477944114
  0
LINE
  8
0
 62
7
  6
CONTINUOUS
 10
93.9368143969
 20
250.1501769175
 11
94.2158883206
 21
250.0336002307
  0
LINE
  8
0
 62
7
  6
CONTINUOUS
 10
114.0553283408
 20
246.9482154914
 11
114.343181132
 21
246.7089960031
  0
LINE
  8
0
 62
7
  6
CONTINUOUS
 10
114.4365717714
 20
247.124153323
 11
114.2926453734
 21
247.2437630563
  0
LINE
  8
0
 62
7
  6
CONTINUOUS
 10
143.8461786006
 20
221.2803465323
 11
153.3027837454
 21
212.3063633285
  0
LINE
  8
0
 62
7
  6
CONTINUOUS
 10
120.2852618483
 20
247.0532615967
 11
120.1505940427
 21
247.1832072717
  0
LINE
  8
0
 62
7
  6
CONTINUOUS
 10
113.8487796739
 20
247.1691454285
 11
114.0553283408
 21
246.9482154914
  0
LINE
  8
0
 62
7
  6
CONTINUOUS
 10
116.0175687188
 20
248.077001581
 11
116.2241173923
 21
247.8560716729
  0
LINE
  8
0
 62
7
  6
CONTINUOUS
 10
116.3098308822
 20
249.7559196108
 11
116.5163795557
 21
249.5349897026
  0
LINE
  8
0
 62
7
  6
CONTINUOUS
 10
123.9376105078
 20
245.6943803647
 11
123.8130580692
 21
245.8340513581
  0
LINE
  8
0
 62
7
  6
CONTINUOUS
 10
120.780847935
 20
248.6816451882
 11
120.536295274
 21
249.0229545957
  0
LINE
  8
0
 62
7
  6
CONTINUOUS
 10
135.4986924571
 20
237.0779075149
 11
135.3577247914
 21
237.3012261481
  0
LINE
  8
0
 62
7
  6
CONTINUOUS
 10
124.5538177176
 20
247.2810521534
 11
124.3355267527
 21
247.6397263374
  0
LINE
  8
0
 62
7
  6
CONTINUOUS
 10
131.9619605112
 20
243.5137684019
 11
131.8016553916
 21
243.9018443319
  0
LINE
  8
0
 62
7
  6
CONTINUOUS
 10
134.8618375037
 20
237.4830727504
 11
135.0254643084
 21
237.0226130624
  0
LINE
  8
0
 62
7
  6
CONTINUOUS
 10
137.6590390209
 20
237.630078398
 11
137.4954062678
 21
238.0905428636
  0
LINE
  8
0
 62
7
  6
CONTINUOUS
 10
138.5035143777
 20
238.8078140633
 11
138.3398875589
 21
239.268273734
  0
LINE
  8
0
 62
7
  6
CONTINUOUS
 10
135.3577247914
 20
237.3012261481
 11
135.2702451102
 21
237.5907424415
  0
LINE
  8
0
 62
7
  6
CONTINUOUS
 10
137.1631517519
 20
237.8119250235
 11
137.2506314332
 21
237.5224087301
  0
LINE
  8
0
 62
7
  6
CONTINUOUS
 10
138.0076271087
 20
238.9896606888
 11
138.09510679
 21
238.7001443954
  0
LINE
  8
LAY0001
 62
7
  6
CONTINUOUS
 10
138.73614331
 20
162.4154340314
 11
138.7970365362
 21
162.5041601807
  0
LINE
  8
LAY0001
 62
7
  6
CONTINUOUS
 10
133.9356071462
 20
158.3385539285
 11
134.0214368349
 21
158.4522165502
  0
LINE
  8
LAY0001
 62
7
  6
CONTINUOUS
 10
134.6407542365
 20
158.4313766505
 11
134.5549245429
 21
158.3177140337
  0
LINE
  8
LAY0001
 62
7
  6
CONTINUOUS
 10
135.4885975545
 20
159.2792199685
 11
135.4027675755
 21
159.1655570663
  0
LINE
  8
LAY0001
 62
7
  6
CONTINUOUS
 10
136.6571542267
 20
160.7539388347
 11
136.5713243904
 21
160.6402760752
  0
LINE
  8
LAY0001
 62
7
  6
CONTINUOUS
 10
135.4584334219
 20
159.10989122
 11
135.5442634008
 21
159.2235541222
  0
LINE
  8
LAY0001
 62
7
  6
CONTINUOUS
 10
136.8601084013
 20
160.6507308153
 11
136.774278565
 21
160.5370680558
  0
LINE
  8
LAY0001
 62
7
  6
CONTINUOUS
 10
137.7079515766
 20
161.4985739906
 11
137.6221217403
 21
161.3849112311
  0
LINE
  8
LAY0001
 62
7
  6
CONTINUOUS
 10
137.6777875866
 20
161.3292453848
 11
137.7636174229
 21
161.4429081442
  0
LINE
  8
LAY0001
 62
7
  6
CONTINUOUS
 10
138.6555409071
 20
162.4461633211
 11
138.5697111064
 21
162.3325005973
  0
LINE
  8
LAY0001
 62
7
  6
CONTINUOUS
 10
136.2848714463
 20
160.8269828641
 11
136.1741051438
 21
160.6883836359
  0
LINE
  8
LAY0001
 62
7
  6
CONTINUOUS
 10
133.9657709837
 20
158.5078824014
 11
133.830068071
 21
158.3443465631
  0
LINE
  8
LAY0001
 62
7
  6
CONTINUOUS
 10
134.6105903893
 20
158.2620481874
 11
134.7462933031
 21
158.4255840245
  0
LINE
  8
LAY0001
 62
7
  6
CONTINUOUS
 10
136.6269902563
 20
160.5846102093
 11
136.7626931702
 21
160.7481460464
  0
LINE
  8
LAY0001
 62
7
  6
CONTINUOUS
 10
138.600440414
 20
162.2518982121
 11
138.73614331
 21
162.4154340314
  0
LINE
  8
LAY0001
 62
7
  6
CONTINUOUS
 10
138.1551136042
 20
162.6972250219
 11
137.9944741171
 21
162.5087526092
  0
LINE
  8
LAY0001
 62
7
  6
CONTINUOUS
 10
138.0750765464
 20
162.4780233288
 11
138.2357159942
 21
162.6664957095
  0
LINE
  8
LAY0001
 62
7
  6
CONTINUOUS
 10
136.8299444113
 20
160.4814022095
 11
136.9905839354
 21
160.6698746567
  0
LINE
  8
LAY0001
 62
7
  6
CONTINUOUS
 10
137.5815726767
 20
162.1236840945
 11
137.4568898401
 21
161.9990012578
  0
LINE
  8
LAY0001
 62
7
  6
CONTINUOUS
 10
137.0080317136
 20
161.5501431313
 11
136.8833489483
 21
161.425460366
  0
LINE
  8
LAY0001
 62
7
  6
CONTINUOUS
 10
136.4344908218
 20
160.9766022396
 11
136.2848714463
 21
160.8269828641
  0
LINE
  8
LAY0001
 62
7
  6
CONTINUOUS
 10
136.0105693055
 20
160.5526807232
 11
135.8858863975
 21
160.4279978152
  0
LINE
  8
LAY0001
 62
7
  6
CONTINUOUS
 10
135.6863938017
 20
160.2285052195
 11
135.5617111791
 21
160.1038225968
  0
LINE
  8
LAY0001
 62
7
  6
CONTINUOUS
 10
135.3622185833
 20
159.904330001
 11
135.2375356753
 21
159.779647093
  0
LINE
  8
LAY0001
 62
7
  6
CONTINUOUS
 10
134.7886775488
 20
159.3307889666
 11
134.6639949262
 21
159.2061063439
  0
LINE
  8
LAY0001
 62
7
  6
CONTINUOUS
 10
134.1153903592
 20
158.6575017769
 11
133.9657709837
 21
158.5078824014
  0
LINE
  8
LAY0001
 62
7
  6
CONTINUOUS
 10
134.0214368349
 20
158.4522165502
 11
134.1710562104
 21
158.6018359257
  0
LINE
  8
LAY0001
 62
7
  6
CONTINUOUS
 10
136.3405372976
 20
160.7713170128
 11
136.4901566731
 21
160.9209363883
  0
LINE
  8
LAY0001
 62
7
  6
CONTINUOUS
 10
134.4511511248
 20
158.7705991377
 11
134.5758340329
 21
158.8952820457
  0
LINE
  8
LAY0001
 62
7
  6
CONTINUOUS
 10
137.9202297652
 20
162.1840119122
 11
138.0449126019
 21
162.3086947489
  0
LINE
  8
LAY0001
 62
7
  6
CONTINUOUS
 10
136.5713243904
 20
160.6402760752
 11
136.2970221069
 21
160.3659737917
  0
LINE
  8
LAY0001
 62
7
  6
CONTINUOUS
 10
136.3526879728
 20
160.3103079258
 11
136.6269902563
 21
160.5846102093
  0
LINE
  8
LAY0001
 62
7
  6
CONTINUOUS
 10
138.2119101604
 20
162.1416971903
 11
138.0872273237
 21
162.0170143536
  0
LINE
  8
LAY0001
 62
7
  6
CONTINUOUS
 10
137.0178514696
 20
160.8919726531
 11
136.8931687043
 21
160.7672898878
  0
LINE
  8
LAY0001
 62
7
  6
CONTINUOUS
 10
134.1252102578
 20
157.9993314414
 11
134.0005276352
 21
157.8746488187
  0
LINE
  8
LAY0001
 62
7
  6
CONTINUOUS
 10
136.774278565
 20
160.5370680558
 11
136.6246591895
 21
160.3874486803
  0
LINE
  8
LAY0001
 62
7
  6
CONTINUOUS
 10
134.5549245429
 20
158.3177140337
 11
134.4053051674
 21
158.1680946583
  0
LINE
  8
LAY0001
 62
7
  6
CONTINUOUS
 10
134.4609710138
 20
158.1124288119
 11
134.6105903893
 21
158.2620481874
  0
LINE
  8
LAY0001
 62
7
  6
CONTINUOUS
 10
135.3586872667
 20
159.0101450648
 11
135.4584334219
 21
159.10989122
  0
LINE
  8
LAY0001
 62
7
  6
CONTINUOUS
 10
135.6828624851
 20
159.3343202832
 11
135.8075453931
 21
159.4590031912
  0
LINE
  8
LAY0001
 62
7
  6
CONTINUOUS
 10
136.0070379889
 20
159.658495787
 11
136.1317206115
 21
159.7831784097
  0
LINE
  8
LAY0001
 62
7
  6
CONTINUOUS
 10
136.6803250359
 20
160.331782834
 11
136.8299444113
 21
160.4814022095
  0
LINE
  8
LAY0001
 62
7
  6
CONTINUOUS
 10
137.5780412887
 20
161.2294990869
 11
137.6777875866
 21
161.3292453848
  0
LINE
  8
LAY0001
 62
7
  6
CONTINUOUS
 10
136.2708852664
 20
159.6440137548
 11
136.1462026437
 21
159.5193311321
  0
LINE
  8
LAY0001
 62
7
  6
CONTINUOUS
 10
136.2157849517
 20
159.4497488242
 11
136.3404675743
 21
159.5744314469
  0
LINE
  8
LAY0001
 62
7
  6
CONTINUOUS
 10
138.1109636127
 20
161.3449274852
 11
138.2356464493
 21
161.4696103219
  0
LINE
  8
LAY0001
 62
7
  6
CONTINUOUS
 10
138.6497458343
 20
161.6362223334
 11
138.4717893153
 21
161.4582658144
  0
LINE
  8
LAY0001
 62
7
  6
CONTINUOUS
 10
137.9426390531
 20
160.9291155522
 11
137.3415982891
 21
160.3280747882
  0
LINE
  8
LAY0001
 62
7
  6
CONTINUOUS
 10
137.2001769329
 20
160.186653432
 11
136.5991361688
 21
159.585612668
  0
LINE
  8
LAY0001
 62
7
  6
CONTINUOUS
 10
135.7859633705
 20
158.7724398696
 11
135.1849226065
 21
158.1713991056
  0
LINE
  8
LAY0001
 62
7
  6
CONTINUOUS
 10
135.0435012502
 20
158.0299777494
 11
134.4424604862
 21
157.4289369853
  0
LINE
  8
LAY0001
 62
7
  6
CONTINUOUS
 10
138.7911671905
 20
160.787694196
 11
139.074009903
 21
161.0705369085
  0
LINE
  8
LAY0001
 62
7
  6
CONTINUOUS
 10
137.3769536282
 20
158.1006884275
 11
137.0941109157
 21
157.817845715
  0
LINE
  8
LAY0001
 62
7
  6
CONTINUOUS
 10
136.068806083
 20
155.8025913886
 11
136.669846847
 21
156.4036321526
  0
LINE
  8
LAY0001
 62
7
  6
CONTINUOUS
 10
137.5183749844
 20
157.25216029
 11
137.6963315034
 21
157.430116809
  0
LINE
  8
LAY0001
 62
7
  6
CONTINUOUS
 10
138.2254817656
 20
157.9592670712
 11
138.8265225296
 21
158.5603078352
  0
LINE
  8
LAY0001
 62
7
  6
CONTINUOUS
 10
138.9679438858
 20
158.7017291915
 11
139.5689846498
 21
159.3027699555
  0
LINE
  8
LAY0001
 62
7
  6
CONTINUOUS
 10
140.3821574482
 20
160.1159427539
 11
140.9831982122
 21
160.7169835179
  0
LINE
  8
LAY0001
 62
7
  6
CONTINUOUS
 10
138.5697111064
 20
162.3325005973
 11
138.3812387306
 21
162.1718611446
  0
LINE
  8
LAY0001
 62
7
  6
CONTINUOUS
 10
138.4119680025
 20
162.0912587238
 11
138.600440414
 21
162.2518982121
  0
LINE
  8
LAY0001
 62
7
  6
CONTINUOUS
 10
138.3186494246
 20
162.8329279168
 11
138.1551136042
 21
162.6972250219
  0
LINE
  8
LAY0001
 62
7
  6
CONTINUOUS
 10
134.2789261975
 20
158.7932046896
 11
134.1153903592
 21
158.6575017769
  0
LINE
  8
LAY0001
 62
7
  6
CONTINUOUS
 10
134.1710562104
 20
158.6018359257
 11
134.3345920523
 21
158.7375388347
  0
LINE
  8
LAY0001
 62
7
  6
CONTINUOUS
 10
136.5167893415
 20
160.1960800628
 11
136.6803250359
 21
160.331782834
  0
LINE
  8
LAY0001
 62
7
  6
CONTINUOUS
 10
134.4053051674
 20
158.1680946583
 11
134.2417693304
 21
158.0323917444
  0
LINE
  8
LAY0001
 62
7
  6
CONTINUOUS
 10
134.2974351767
 20
157.976725898
 11
134.4609710138
 21
158.1124288119
  0
LINE
  8
LAY0001
 62
7
  6
CONTINUOUS
 10
136.5481534398
 20
161.0624319319
 11
136.4344908218
 21
160.9766022396
  0
LINE
  8
LAY0001
 62
7
  6
CONTINUOUS
 10
137.6221217403
 20
161.3849112311
 11
137.5084589808
 21
161.2990813948
  0
LINE
  8
LAY0001
 62
7
  6
CONTINUOUS
 10
136.6246591895
 20
160.3874486803
 11
136.51099643
 21
160.301618844
  0
LINE
  8
LAY0001
 62
7
  6
CONTINUOUS
 10
135.4027675755
 20
159.1655570663
 11
135.2891049587
 21
159.0797273727
  0
LINE
  8
LAY0001
 62
7
  6
CONTINUOUS
 10
134.5514628214
 20
158.6204145062
 11
134.0579588545
 21
158.2660751551
  0
LINE
  8
LAY0001
 62
7
  6
CONTINUOUS
 10
134.0248985515
 20
158.1495160826
 11
134.5184025379
 21
158.5038554142
  0
LINE
  8
LAY0001
 62
7
  6
CONTINUOUS
 10
138.4073755752
 20
162.8938211417
 11
138.3186494246
 21
162.8329279168
  0
LINE
  8
LAY0001
 62
7
  6
CONTINUOUS
 10
138.2357159942
 20
162.6664957095
 11
138.4131683156
 21
162.7882821748
  0
LINE
  8
LAY0001
 62
7
  6
CONTINUOUS
 10
137.4893151394
 20
161.1686058607
 11
137.5780412887
 21
161.2294990869
  0
LINE
  8
LAY0001
 62
7
  6
CONTINUOUS
 10
134.367652348
 20
158.8540979145
 11
134.2789261975
 21
158.7932046896
  0
LINE
  8
LAY0001
 62
7
  6
CONTINUOUS
 10
135.2699611173
 20
158.9492518386
 11
135.3586872667
 21
159.0101450648
  0
LINE
  8
LAY0001
 62
7
  6
CONTINUOUS
 10
134.2087090274
 20
157.9158326719
 11
134.2974351767
 21
157.976725898
  0
LINE
  8
LAY0001
 62
7
  6
CONTINUOUS
 10
136.6119431229
 20
161.0983886894
 11
136.5481534398
 21
161.0624319319
  0
LINE
  8
LAY0001
 62
7
  6
CONTINUOUS
 10
138.2843888527
 20
162.0193454204
 11
138.4119680025
 21
162.0912587238
  0
LINE
  8
LAY0001
 62
7
  6
CONTINUOUS
 10
136.4901566731
 20
160.9209363883
 11
136.6177357563
 21
160.9928496155
  0
LINE
  8
LAY0001
 62
7
  6
CONTINUOUS
 10
137.5084589808
 20
161.2990813948
 11
137.4446694416
 21
161.2631247788
  0
LINE
  8
LAY0001
 62
7
  6
CONTINUOUS
 10
136.51099643
 20
160.301618844
 11
136.4472070335
 21
160.2656623707
  0
LINE
  8
LAY0001
 62
7
  6
CONTINUOUS
 10
134.3345920523
 20
158.7375388347
 11
134.3983817342
 21
158.7734955934
  0
LINE
  8
LAY0001
 62
7
  6
CONTINUOUS
 10
135.2891049587
 20
159.0797273727
 11
135.2253152769
 21
159.043770614
  0
LINE
  8
LAY0001
 62
7
  6
CONTINUOUS
 10
134.2417693304
 20
158.0323917444
 11
134.1779796485
 21
157.9964349857
  0
LINE
  8
LAY0001
 62
7
  6
CONTINUOUS
 10
137.3866725285
 20
161.1216290962
 11
137.4893151394
 21
161.1686058607
  0
LINE
  8
LAY0001
 62
7
  6
CONTINUOUS
 10
136.4141467306
 20
160.1491032982
 11
136.5167893415
 21
160.1960800628
  0
LINE
  8
LAY0001
 62
7
  6
CONTINUOUS
 10
134.4702949614
 20
158.9010746766
 11
134.367652348
 21
158.8540979145
  0
LINE
  8
LAY0001
 62
7
  6
CONTINUOUS
 10
135.1673185064
 20
158.9022750741
 11
135.2699611173
 21
158.9492518386
  0
LINE
  8
LAY0001
 62
7
  6
CONTINUOUS
 10
134.5184025379
 20
158.5038554142
 11
134.6210451489
 21
158.5508321787
  0
LINE
  8
LAY0001
 62
7
  6
CONTINUOUS
 10
134.0579588545
 20
158.2660751551
 11
133.9553162436
 21
158.2190983906
  0
LINE
  8
LAY0001
 62
7
  6
CONTINUOUS
 10
134.1060664165
 20
157.8688559073
 11
134.2087090274
 21
157.9158326719
  0
LINE
  8
LAY0001
 62
7
  6
CONTINUOUS
 10
134.6929583809
 20
158.6784112571
 11
134.5514628214
 21
158.6204145062
  0
LINE
  8
LAY0001
 62
7
  6
CONTINUOUS
 10
133.8834030116
 20
158.0915193122
 11
134.0248985515
 21
158.1495160826
  0
LINE
  8
0
 62
7
  6
CONTINUOUS
 10
82.9527168384
 20
243.1479767323
 11
83.4432761673
 21
243.2767969202
  0
LINE
  8
0
 62
7
  6
CONTINUOUS
 10
82.3839548446
 20
245.4130015603
 11
82.8745141704
 21
245.5418217549
  0
LINE
  8
0
 62
7
  6
CONTINUOUS
 10
82.8099332064
 20
245.886297247
 11
82.3193738805
 21
245.7574770524
  0
LINE
  8
0
 62
7
  6
CONTINUOUS
 10
115.1836968871
 20
250.4454118823
 11
114.8211315886
 21
250.3525055335
  0
LINE
  8
0
 62
7
  6
CONTINUOUS
 10
93.6403665327
 20
246.6144912096
 11
94.2934688469
 21
246.7482856935
  0
LINE
  8
0
 62
7
  6
CONTINUOUS
 10
94.1909878681
 20
247.2485347505
 11
93.5378855539
 21
247.1147402665
  0
LINE
  8
0
 62
7
  6
CONTINUOUS
 10
92.9400798302
 20
250.0328598333
 11
93.5931821444
 21
250.1666543172
  0
LINE
  8
0
 62
7
  6
CONTINUOUS
 10
93.4907011776
 20
250.6669033158
 11
92.8375988634
 21
250.5331088318
  0
LINE
  8
0
 62
7
  6
CONTINUOUS
 10
83.2268815719
 20
243.552491434
 11
82.8881341155
 21
243.4924514848
  0
LINE
  8
0
 62
7
  6
CONTINUOUS
 10
96.2591843699
 20
247.1237034742
 11
96.7554640769
 21
247.1845841154
  0
LINE
  8
0
 62
7
  6
CONTINUOUS
 10
98.823294927
 20
247.4382532993
 11
99.5677144874
 21
247.5295742612
  0
LINE
  8
0
 62
7
  6
CONTINUOUS
 10
99.0806693572
 20
251.4998119167
 11
98.5843896503
 21
251.4389312754
  0
LINE
  8
0
 62
7
  6
CONTINUOUS
 10
96.5165588002
 20
251.1852620916
 11
95.7721392397
 21
251.0939411297
  0
LINE
  8
0
 62
7
  6
CONTINUOUS
 10
116.1483155981
 20
248.6582217576
 11
115.6231494976
 21
248.601892851
  0
LINE
  8
0
 62
7
  6
CONTINUOUS
 10
82.6898762007
 20
243.1223272655
 11
82.9527168384
 21
243.1479767323
  0
LINE
  8
0
 62
7
  6
CONTINUOUS
 10
100.2339637559
 20
247.5790808477
 11
103.2308728877
 21
247.7152265617
  0
LINE
  8
0
 62
7
  6
CONTINUOUS
 10
103.2076991492
 20
248.2253387531
 11
100.7102748727
 21
248.1118839914
  0
LINE
  8
0
 62
7
  6
CONTINUOUS
 10
100.6484782358
 20
249.4721831883
 11
102.812913879
 21
249.5705107061
  0
LINE
  8
0
 62
7
  6
CONTINUOUS
 10
102.7897401432
 20
250.080622838
 11
100.6253045
 21
249.9822953201
  0
LINE
  8
0
 62
7
  6
CONTINUOUS
 10
100.5750947283
 20
251.0875385106
 11
103.0725190048
 21
251.2009932723
  0
LINE
  8
0
 62
7
  6
CONTINUOUS
 10
103.049345269
 20
251.7111054042
 11
100.0524361371
 21
251.5749596901
  0
LINE
  8
0
 62
7
  6
CONTINUOUS
 10
119.4901770409
 20
245.8718704467
 11
119.2262289051
 21
245.8632404835
  0
LINE
  8
0
 62
7
  6
CONTINUOUS
 10
120.0105424111
 20
247.5816731493
 11
119.7465942752
 21
247.5730431861
  0
LINE
  8
0
 62
7
  6
CONTINUOUS
 10
115.3001227032
 20
246.4064965401
 11
115.6440061561
 21
246.4163722796
  0
LINE
  8
0
 62
7
  6
CONTINUOUS
 10
93.2150957887
 20
246.6142441626
 11
93.6403665327
 21
246.6144912096
  0
LINE
  8
0
 62
7
  6
CONTINUOUS
 10
93.9159700515
 20
250.6671499873
 11
93.4907011776
 21
250.6669033158
  0
LINE
  8
0
 62
7
  6
CONTINUOUS
 10
115.7373967955
 20
246.8315295995
 11
115.3122092217
 21
246.8399434256
  0
LINE
  8
0
 62
7
  6
CONTINUOUS
 10
115.1716066601
 20
250.0119658921
 11
115.596794234
 21
250.0035520661
  0
LINE
  8
0
 62
7
  6
CONTINUOUS
 10
123.0562395354
 20
244.575885792
 11
122.7923867651
 21
244.5870576458
  0
LINE
  8
0
 62
7
  6
CONTINUOUS
 10
123.7032570799
 20
246.2418911034
 11
123.4394043096
 21
246.2530629572
  0
LINE
  8
0
 62
7
  6
CONTINUOUS
 10
93.5378855539
 20
247.1147402665
 11
93.1942533014
 21
247.1312176662
  0
LINE
  8
0
 62
7
  6
CONTINUOUS
 10
93.5931821444
 20
250.1666543172
 11
93.9368143969
 21
250.1501769175
  0
LINE
  8
0
 62
7
  6
CONTINUOUS
 10
115.771485263
 20
250.400420614
 11
115.1836968871
 21
250.4454118823
  0
LINE
  8
0
 62
7
  6
CONTINUOUS
 10
118.997831354
 20
245.3989881155
 11
119.4212265985
 21
245.359091579
  0
LINE
  8
0
 62
7
  6
CONTINUOUS
 10
107.897140442
 20
247.5745327461
 11
111.209859074
 21
247.2044004739
  0
LINE
  8
0
 62
7
  6
CONTINUOUS
 10
111.2665602096
 20
247.7118809673
 11
108.4507495619
 21
248.0264933775
  0
LINE
  8
0
 62
7
  6
CONTINUOUS
 10
108.2940483974
 20
251.1268962592
 11
111.1926757787
 21
250.8030306798
  0
LINE
  8
0
 62
7
  6
CONTINUOUS
 10
111.6540179702
 20
251.1796643487
 11
108.3412993381
 21
251.549796621
  0
LINE
  8
0
 62
7
  6
CONTINUOUS
 10
112.3588939201
 20
246.9952623103
 11
112.8518598615
 21
246.9116885067
  0
LINE
  8
0
 62
7
  6
CONTINUOUS
 10
113.5204502906
 20
250.8554160376
 11
113.0274843492
 21
250.9389898413
  0
LINE
  8
0
 62
7
  6
CONTINUOUS
 10
122.5298449871
 20
244.1412241373
 11
122.9490605548
 21
244.0697148755
  0
LINE
  8
0
 62
7
  6
CONTINUOUS
 10
130.9611742733
 20
242.6183730627
 11
130.7022094077
 21
242.6701446098
  0
LINE
  8
0
 62
7
  6
CONTINUOUS
 10
114.6497083304
 20
246.5528088205
 11
115.3001227032
 21
246.4064965401
  0
LINE
  8
0
 62
7
  6
CONTINUOUS
 10
115.3122092217
 20
246.8399434256
 11
114.8243993724
 21
246.9496774266
  0
LINE
  8
0
 62
7
  6
CONTINUOUS
 10
114.1234529643
 20
247.6307559301
 11
113.716943516
 21
247.72220121
  0
LINE
  8
0
 62
7
  6
CONTINUOUS
 10
115.2232316696
 20
248.3429227574
 11
115.5484369952
 21
248.2697670358
  0
LINE
  8
0
 62
7
  6
CONTINUOUS
 10
115.6231494976
 20
248.601892851
 11
115.297944172
 21
248.6750485726
  0
LINE
  8
0
 62
7
  6
CONTINUOUS
 10
114.2652008572
 20
249.7796983457
 11
114.6717065838
 21
249.688253903
  0
LINE
  8
0
 62
7
  6
CONTINUOUS
 10
115.596794234
 20
250.0035520661
 11
115.9219995596
 21
249.9303963445
  0
LINE
  8
0
 62
7
  6
CONTINUOUS
 10
115.9340897866
 20
250.3638423346
 11
115.771485263
 21
250.400420614
  0
LINE
  8
0
 62
7
  6
CONTINUOUS
 10
94.2766824652
 20
250.5672977545
 11
93.9159700515
 21
250.6671499873
  0
LINE
  8
0
 62
7
  6
CONTINUOUS
 10
117.0844806739
 20
245.9813017552
 11
118.997831354
 21
245.3989881155
  0
LINE
  8
0
 62
7
  6
CONTINUOUS
 10
119.2262289051
 20
245.8632404835
 11
117.7114941665
 21
246.3242384113
  0
LINE
  8
0
 62
7
  6
CONTINUOUS
 10
118.0831837315
 20
247.545526105
 11
119.5979184701
 21
247.0845281771
  0
LINE
  8
0
 62
7
  6
CONTINUOUS
 10
119.7465942752
 20
247.5730431861
 11
118.2318595366
 21
248.034041114
  0
LINE
  8
0
 62
7
  6
CONTINUOUS
 10
118.5787698181
 20
249.1739096965
 11
120.0935045567
 21
248.7129117686
  0
LINE
  8
0
 62
7
  6
CONTINUOUS
 10
120.1624586334
 20
249.2256894757
 11
118.2491079533
 21
249.8080031154
  0
LINE
  8
0
 62
7
  6
CONTINUOUS
 10
130.3739839969
 20
242.2701891658
 11
130.7771308957
 21
242.1348205412
  0
LINE
  8
0
 62
7
  6
CONTINUOUS
 10
136.20036792
 20
236.6203670003
 11
135.9524242855
 21
236.711290313
  0
LINE
  8
0
 62
7
  6
CONTINUOUS
 10
136.3205086233
 20
238.4927841713
 11
136.5684522579
 21
238.4018608586
  0
LINE
  8
0
 62
7
  6
CONTINUOUS
 10
137.2298045083
 20
239.6181445806
 11
137.4777481428
 21
239.5272212679
  0
LINE
  8
0
 62
7
  6
CONTINUOUS
 10
116.4845219112
 20
250.1527881587
 11
115.9340897866
 21
250.3638423346
  0
LINE
  8
0
 62
7
  6
CONTINUOUS
 10
120.6655056743
 20
244.8652675938
 11
122.5298449871
 21
244.1412241373
  0
LINE
  8
0
 62
7
  6
CONTINUOUS
 10
122.7923867651
 20
244.5870576458
 11
121.3164526612
 21
245.1602582552
  0
LINE
  8
0
 62
7
  6
CONTINUOUS
 10
121.7786080686
 20
246.3502620966
 11
123.2545421725
 21
245.7770614873
  0
LINE
  8
0
 62
7
  6
CONTINUOUS
 10
123.4394043096
 20
246.2530629572
 11
121.9634702056
 21
246.8262635666
  0
LINE
  8
0
 62
7
  6
CONTINUOUS
 10
122.3948152784
 20
247.9369338853
 11
123.8707493824
 21
247.3637332759
  0
LINE
  8
0
 62
7
  6
CONTINUOUS
 10
123.9779319001
 20
247.8699027628
 11
122.1135925873
 21
248.5939462193
  0
LINE
  8
0
 62
7
  6
CONTINUOUS
 10
115.5484369952
 20
248.2697670358
 11
116.0175687188
 21
248.077001581
  0
LINE
  8
0
 62
7
  6
CONTINUOUS
 10
114.8243993724
 20
246.9496774266
 11
114.4365717714
 21
247.124153323
  0
LINE
  8
0
 62
7
  6
CONTINUOUS
 10
115.9219995596
 20
249.9303963445
 11
116.3098308822
 21
249.7559196108
  0
LINE
  8
0
 62
7
  6
CONTINUOUS
 10
114.343181132
 20
246.7089960031
 11
114.6497083304
 21
246.5528088205
  0
LINE
  8
0
 62
7
  6
CONTINUOUS
 10
135.6201637978
 20
236.4326772215
 11
135.9977425589
 21
236.2370081976
  0
LINE
  8
0
 62
7
  6
CONTINUOUS
 10
136.9007127081
 20
238.6804739037
 11
136.5231280173
 21
238.8761477284
  0
LINE
  8
0
 62
7
  6
CONTINUOUS
 10
137.810008593
 20
239.8058343131
 11
137.4324239022
 21
240.0015081377
  0
LINE
  8
0
 62
7
  6
CONTINUOUS
 10
120.536295274
 20
249.0229545957
 11
120.1624586334
 21
249.2256894757
  0
LINE
  8
0
 62
7
  6
CONTINUOUS
 10
127.7473142488
 20
241.7272235613
 11
128.1798669486
 21
241.4764285018
  0
LINE
  8
0
 62
7
  6
CONTINUOUS
 10
129.0763258974
 20
243.0225743444
 11
130.3739839969
 21
242.2701891658
  0
LINE
  8
0
 62
7
  6
CONTINUOUS
 10
130.7022094077
 20
242.6701446098
 11
129.3324569915
 21
243.4643302405
  0
LINE
  8
0
 62
7
  6
CONTINUOUS
 10
129.9727848463
 20
244.568720187
 11
131.3425372625
 21
243.7745345563
  0
LINE
  8
0
 62
7
  6
CONTINUOUS
 10
131.4838855241
 20
244.1844649219
 11
129.7536747248
 21
245.1876451599
  0
LINE
  8
0
 62
7
  6
CONTINUOUS
 10
124.3355267527
 20
247.6397263374
 11
123.9779319001
 21
247.8699027628
  0
LINE
  8
0
 62
7
  6
CONTINUOUS
 10
130.9818773341
 20
239.8274914713
 11
131.3937145081
 21
239.5439599173
  0
LINE
  8
0
 62
7
  6
CONTINUOUS
 10
133.3156234146
 20
238.2208112229
 11
133.7274605886
 21
237.9372796689
  0
LINE
  8
0
 62
7
  6
CONTINUOUS
 10
132.247402998
 20
240.1961367711
 11
133.6201914831
 21
239.251033033
  0
LINE
  8
0
 62
7
  6
CONTINUOUS
 10
133.7445925966
 20
239.5786894787
 11
132.5090810747
 21
240.4292841409
  0
LINE
  8
0
 62
7
  6
CONTINUOUS
 10
134.8974784624
 20
241.9880626468
 11
134.3483643252
 21
242.3661032768
  0
LINE
  8
0
 62
7
  6
CONTINUOUS
 10
116.6053570947
 20
248.0320103127
 11
116.2362076193
 21
248.289517663
  0
LINE
  8
0
 62
7
  6
CONTINUOUS
 10
119.5979184701
 20
247.0845281771
 11
119.8123080042
 21
246.930319804
  0
LINE
  8
0
 62
7
  6
CONTINUOUS
 10
120.0935045567
 20
248.7129117686
 11
120.3078940909
 21
248.5587033955
  0
LINE
  8
0
 62
7
  6
CONTINUOUS
 10
135.2960730257
 20
236.6945439114
 11
135.6201637978
 21
236.4326772215
  0
LINE
  8
0
 62
7
  6
CONTINUOUS
 10
135.9524242855
 20
236.711290313
 11
135.4986924571
 21
237.0779075149
  0
LINE
  8
0
 62
7
  6
CONTINUOUS
 10
136.5684522579
 20
238.4018608586
 11
137.0221840862
 21
238.0352436567
  0
LINE
  8
0
 62
7
  6
CONTINUOUS
 10
137.2248034802
 20
238.4186072138
 11
136.9007127081
 21
238.6804739037
  0
LINE
  8
0
 62
7
  6
CONTINUOUS
 10
138.0642779587
 20
238.3968056977
 11
138.3883746651
 21
238.1349342128
  0
LINE
  8
0
 62
7
  6
CONTINUOUS
 10
137.4777481428
 20
239.5272212679
 11
137.866659443
 21
239.212979322
  0
LINE
  8
0
 62
7
  6
CONTINUOUS
 10
138.069278837
 20
239.5963428791
 11
137.810008593
 21
239.8058343131
  0
LINE
  8
0
 62
7
  6
CONTINUOUS
 10
116.7723709856
 20
249.9135695295
 11
116.4845219112
 21
250.1527881587
  0
LINE
  8
0
 62
7
  6
CONTINUOUS
 10
123.2545421725
 20
245.7770614873
 11
123.4567742304
 21
245.6072224769
  0
LINE
  8
0
 62
7
  6
CONTINUOUS
 10
123.8707493824
 20
247.3637332759
 11
124.0729814403
 21
247.1938942655
  0
LINE
  8
0
 62
7
  6
CONTINUOUS
 10
131.8016553916
 20
243.9018443319
 11
131.4838855241
 21
244.1844649219
  0
LINE
  8
0
 62
7
  6
CONTINUOUS
 10
131.3425372625
 20
243.7745345563
 11
131.5161250967
 21
243.5755110438
  0
LINE
  8
0
 62
7
  6
CONTINUOUS
 10
135.0254643084
 20
237.0226130624
 11
135.2960730257
 21
236.6945439114
  0
LINE
  8
0
 62
7
  6
CONTINUOUS
 10
137.4954062678
 20
238.0905428636
 11
137.2248034802
 21
238.4186072138
  0
LINE
  8
0
 62
7
  6
CONTINUOUS
 10
138.3398875589
 20
239.268273734
 11
138.069278837
 21
239.5963428791
  0
LINE
  8
0
 62
7
  6
CONTINUOUS
 10
137.0221840862
 20
238.0352436567
 11
137.1631517519
 21
237.8119250235
  0
LINE
  8
0
 62
7
  6
CONTINUOUS
 10
137.866659443
 20
239.212979322
 11
138.0076271087
 21
238.9896606888
  0
LINE
  8
0
 62
7
  6
CONTINUOUS
 10
140.4367583416
 20
232.5909730193
 11
146.1867583416
 21
222.6316808758
  0
LINE
  8
0
 62
7
  6
CONTINUOUS
 10
147.9188091492
 20
223.6316808758
 11
142.1688091492
 21
233.5909730193
  0
LINE
  8
0
 62
7
  6
CONTINUOUS
 10
153.3027837454
 20
212.3063633285
 11
150.2593888901
 21
224.9830152193
  0
LINE
  8
0
 62
7
  6
CONTINUOUS
 10
167.9545207003
 20
176.6529921995
 11
171.5005695707
 21
186.0031546263
  0
LINE
  8
0
 62
7
  6
CONTINUOUS
 10
167.1099907396
 20
173.016129658
 11
167.9529318803
 21
175.2387827769
  0
LINE
  8
0
 62
7
  6
CONTINUOUS
 10
172.4371758645
 20
187.0627624078
 11
173.3864972402
 21
189.5659171535
  0
LINE
  8
0
 62
7
  6
CONTINUOUS
 10
150.8486757939
 20
149.3432032266
 11
158.3337832756
 21
155.9744298091
  0
LINE
  8
0
 62
7
  6
CONTINUOUS
 10
148.4107473548
 20
146.5153940171
 11
150.1900489325
 21
148.0917176636
  0
LINE
  8
0
 62
7
  6
CONTINUOUS
 10
159.6555312514
 20
156.4774032562
 11
161.6593875974
 21
158.2526650679
  0
LINE
  8
0
 62
7
  6
CONTINUOUS
 10
101.0015135561
 20
264.9586681739
 11
91.0015135561
 21
264.9586681739
  0
LINE
  8
0
 62
7
  6
CONTINUOUS
 10
104.7015135561
 20
265.4586681739
 11
102.3243873991
 21
265.4586681739
  0
LINE
  8
0
 62
7
  6
CONTINUOUS
 10
89.6786379006
 20
265.4586681739
 11
87.0015135562
 21
265.4586681739
  0
LINE
  8
0
 62
7
  6
CONTINUOUS
 10
132.6024260309
 20
258.6486099755
 11
123.7478657743
 21
263.2958416959
  0
LINE
  8
0
 62
7
  6
CONTINUOUS
 10
136.1109749118
 20
257.3718622517
 11
134.0061321995
 21
258.4765689267
  0
LINE
  8
0
 62
7
  6
CONTINUOUS
 10
122.80887914
 20
264.3533406796
 11
120.4384032578
 21
265.5974623969
  0
LINE
  8
0
 62
7
  6
CONTINUOUS
 10
157.651214136
 20
238.3756546367
 11
151.9705666687
 21
246.6054932957
  0
LINE
  8
0
 62
7
  6
CONTINUOUS
 10
160.1645456318
 20
235.6146467063
 11
158.8141857786
 21
237.5709806959
  0
LINE
  8
0
 62
7
  6
CONTINUOUS
 10
151.6305795774
 20
247.9782309901
 11
150.1097996147
 21
250.1814611326
  0
LINE
  8
0
 62
7
  6
CONTINUOUS
 10
170.4095023872
 20
208.7840919102
 11
169.2041355847
 21
218.7111806512
  0
LINE
  8
0
 62
7
  6
CONTINUOUS
 10
171.3518425412
 20
205.1713374161
 11
171.0653117097
 21
207.5311311199
  0
LINE
  8
0
 62
7
  6
CONTINUOUS
 10
169.5410352769
 20
220.0846769639
 11
169.2183433007
 21
222.7422844877
  0
LINE
  8
0
 62
7
  6
CONTINUOUS
 10
185.8001930396
 20
198.163463581
 11
185.7378075965
 21
200.9263974915
  0
LINE
  8
0
 62
7
  6
CONTINUOUS
 10
176.6466483911
 20
160.0964822693
 11
177.8754082357
 21
162.5719307098
  0
LINE
  8
0
 62
7
  6
CONTINUOUS
 10
150.8509788208
 20
130.6437085929
 11
153.0893898808
 21
132.2645761581
  0
LINE
  8
0
 62
7
  6
CONTINUOUS
 10
113.3998483051
 20
278.956968082
 11
110.6495395594
 21
279.2280723804
  0
LINE
  8
0
 62
7
  6
CONTINUOUS
 10
150.0859405789
 20
265.2816955254
 11
147.7766515771
 21
266.7998786644
  0
LINE
  8
0
 62
7
  6
CONTINUOUS
 10
176.2146459993
 20
236.1239658663
 11
174.8754070218
 21
238.5414303849
  0
POLYLINE
  8
0
 62
7
  6
CONTINUOUS
 66
1
 70
0
  0
VERTEX
  8
0
 62
7
  6
CONTINUOUS
 10
23.8277955797
 20
72.7389565329
  0
VERTEX
  8
0
 62
7
  6
CONTINUOUS
 10
23.8398068899
 20
72.6164136051
  0
VERTEX
  8
0
 62
7
  6
CONTINUOUS
 10
23.8654079375
 20
72.5009998672
  0
VERTEX
  8
0
 62
7
  6
CONTINUOUS
 10
23.9027427933
 20
72.3934715017
  0
VERTEX
  8
0
 62
7
  6
CONTINUOUS
 10
23.950156911
 20
72.2942830884
  0
VERTEX
  8
0
 62
7
  6
CONTINUOUS
 10
24.0062134967
 20
72.2036573531
  0
VERTEX
  8
0
 62
7
  6
CONTINUOUS
 10
24.069693125
 20
72.1216592329
  0
VERTEX
  8
0
 62
7
  6
CONTINUOUS
 10
24.1388941433
 20
72.0489111683
  0
VERTEX
  8
0
 62
7
  6
CONTINUOUS
 10
24.2115899524
 20
71.986076714
  0
VERTEX
  8
0
 62
7
  6
CONTINUOUS
 10
24.2856860893
 20
71.93315835
  0
VERTEX
  8
0
 62
7
  6
CONTINUOUS
 10
24.3589217249
 20
71.8898772067
  0
VERTEX
  8
0
 62
7
  6
CONTINUOUS
 10
24.4297036276
 20
71.8552690124
  0
VERTEX
  8
0
 62
7
  6
CONTINUOUS
 10
24.494318684
 20
71.8290153665
  0
VERTEX
  8
0
 62
7
  6
CONTINUOUS
 10
24.550662008
 20
71.8096490145
  0
VERTEX
  8
0
 62
7
  6
CONTINUOUS
 10
24.6025872046
 20
71.7941202279
  0
VERTEX
  8
0
 62
7
  6
CONTINUOUS
 10
24.6538879641
 20
71.7803653843
  0
VERTEX
  8
0
 62
7
  6
CONTINUOUS
 10
24.7088355637
 20
71.7668134274
  0
VERTEX
  8
0
 62
7
  6
CONTINUOUS
 10
24.7696730874
 20
71.7527460745
  0
SEQEND
  0
LINE
  8
0
 62
7
  6
CONTINUOUS
 10
23.8271403249
 20
72.7751739769
 11
23.8277955797
 21
72.7389565329
  0
LINE
  8
0
 62
7
  6
CONTINUOUS
 10
23.8271389929
 20
78.6497652459
 11
23.8271389929
 21
72.7747424128
  0
POLYLINE
  8
0
 62
7
  6
CONTINUOUS
 66
1
 70
0
  0
VERTEX
  8
0
 62
7
  6
CONTINUOUS
 10
40.2288292235
 20
72.7393207041
  0
VERTEX
  8
0
 62
7
  6
CONTINUOUS
 10
40.2461619615
 20
72.5527639142
  0
VERTEX
  8
0
 62
7
  6
CONTINUOUS
 10
40.2945291018
 20
72.3803856778
  0
VERTEX
  8
0
 62
7
  6
CONTINUOUS
 10
40.3672303856
 20
72.2278469753
  0
VERTEX
  8
0
 62
7
  6
CONTINUOUS
 10
40.4564116641
 20
72.0986183439
  0
VERTEX
  8
0
 62
7
  6
CONTINUOUS
 10
40.5551858368
 20
71.9925462054
  0
VERTEX
  8
0
 62
7
  6
CONTINUOUS
 10
40.6583959335
 20
71.9074391872
  0
VERTEX
  8
0
 62
7
  6
CONTINUOUS
 10
40.7621327552
 20
71.8404353986
  0
VERTEX
  8
0
 62
7
  6
CONTINUOUS
 10
40.8650684061
 20
71.7875668439
  0
VERTEX
  8
0
 62
7
  6
CONTINUOUS
 10
40.9676213422
 20
71.7449054545
  0
VERTEX
  8
0
 62
7
  6
CONTINUOUS
 10
41.0741079157
 20
71.7081477075
  0
VERTEX
  8
0
 62
7
  6
CONTINUOUS
 10
41.1913184701
 20
71.6737615196
  0
VERTEX
  8
0
 62
7
  6
CONTINUOUS
 10
41.2874140829
 20
71.6488917115
  0
SEQEND
  0
LINE
  8
0
 62
7
  6
CONTINUOUS
 10
40.22882616
 20
78.6855241337
 11
40.22882616
 21
72.738983525
  0
LINE
  8
0
 62
7
  6
CONTINUOUS
 10
44.0015135561
 20
93.7122538293
 11
44.0015135561
 21
81.7122538293
  0
LINE
  8
0
 62
7
  6
CONTINUOUS
 10
44.0015135561
 20
69.7122538293
 11
44.0015135561
 21
57.7122538293
  0
LINE
  8
0
 62
7
  6
CONTINUOUS
 10
53.8342179631
 20
95.3622538293
 11
53.8342179631
 21
95.2122538293
  0
LINE
  8
0
 62
7
  6
CONTINUOUS
 10
53.8342179631
 20
56.2122538293
 11
53.8342179631
 21
56.0622538293
  0
LINE
  8
0
 62
7
  6
CONTINUOUS
 10
57.2436382222
 20
95.3622538293
 11
57.2436382222
 21
95.2122538293
  0
LINE
  8
0
 62
7
  6
CONTINUOUS
 10
57.2436382222
 20
56.2122538293
 11
57.2436382222
 21
56.0622538293
  0
POLYLINE
  8
0
 62
7
  6
CONTINUOUS
 66
1
 70
0
  0
VERTEX
  8
0
 62
7
  6
CONTINUOUS
 10
70.781894622
 20
72.672306893
  0
VERTEX
  8
0
 62
7
  6
CONTINUOUS
 10
70.7827841285
 20
72.6295826346
  0
VERTEX
  8
0
 62
7
  6
CONTINUOUS
 10
70.8057152685
 20
72.452412049
  0
VERTEX
  8
0
 62
7
  6
CONTINUOUS
 10
70.8597326189
 20
72.2799195315
  0
VERTEX
  8
0
 62
7
  6
CONTINUOUS
 10
70.9419172437
 20
72.1209923751
  0
VERTEX
  8
0
 62
7
  6
CONTINUOUS
 10
71.0456983606
 20
71.9830355311
  0
VERTEX
  8
0
 62
7
  6
CONTINUOUS
 10
71.1620544914
 20
71.8702289347
  0
VERTEX
  8
0
 62
7
  6
CONTINUOUS
 10
71.2795775031
 20
71.7840733757
  0
VERTEX
  8
0
 62
7
  6
CONTINUOUS
 10
71.3297273385
 20
71.7535602397
  0
SEQEND
  0
LINE
  8
0
 62
7
  6
CONTINUOUS
 10
66.7002433669
 20
95.3622538293
 11
66.7002433669
 21
95.2122538293
  0
LINE
  8
0
 62
7
  6
CONTINUOUS
 10
66.7002433669
 20
56.2122538293
 11
66.7002433669
 21
56.0622538293
  0
LINE
  8
0
 62
7
  6
CONTINUOUS
 10
67.1354497223
 20
56.2122538293
 11
67.1354497223
 21
56.0622538293
  0
LINE
  8
0
 62
7
  6
CONTINUOUS
 10
67.4406802964
 20
56.2122538293
 11
67.4406802964
 21
56.0622538293
  0
LINE
  8
0
 62
7
  6
CONTINUOUS
 10
68.599334832
 20
56.2122538293
 11
68.599334832
 21
56.0622538293
  0
LINE
  8
0
 62
7
  6
CONTINUOUS
 10
68.6616025711
 20
56.2122538293
 11
68.6616025711
 21
56.0622538293
  0
LINE
  8
0
 62
7
  6
CONTINUOUS
 10
68.9668332108
 20
56.2122538293
 11
68.9668332108
 21
56.0622538293
  0
LINE
  8
0
 62
7
  6
CONTINUOUS
 10
69.7254160267
 20
56.2122538293
 11
69.7254160267
 21
56.0622538293
  0
LINE
  8
0
 62
7
  6
CONTINUOUS
 10
70.0479858795
 20
56.2122538293
 11
70.0479858795
 21
56.0622538293
  0
LINE
  8
0
 62
7
  6
CONTINUOUS
 10
70.317339376
 20
56.2122538293
 11
70.317339376
 21
56.0622538293
  0
LINE
  8
0
 62
7
  6
CONTINUOUS
 10
70.3386259555
 20
56.2122538293
 11
70.3386259555
 21
56.0622538293
  0
LINE
  8
0
 62
7
  6
CONTINUOUS
 10
70.424426247
 20
56.2122538293
 11
70.424426247
 21
56.0622538293
  0
LINE
  8
0
 62
7
  6
CONTINUOUS
 10
70.6286115038
 20
56.2122538293
 11
70.6286115038
 21
56.0622538293
  0
LINE
  8
0
 62
7
  6
CONTINUOUS
 10
70.7818915679
 20
78.7522668654
 11
70.7818915679
 21
72.6722407931
  0
LINE
  8
0
 62
7
  6
CONTINUOUS
 10
70.8866674598
 20
56.2122538293
 11
70.8866674598
 21
56.0622538293
  0
LINE
  8
0
 62
7
  6
CONTINUOUS
 10
71.1340800339
 20
56.2122538293
 11
71.1340800339
 21
56.0622538293
  0
LINE
  8
0
 62
7
  6
CONTINUOUS
 10
71.3890743597
 20
56.2122538293
 11
71.3890743597
 21
56.0622538293
  0
LINE
  8
0
 62
7
  6
CONTINUOUS
 10
71.7221416144
 20
56.2122538293
 11
71.7221416144
 21
56.0622538293
  0
LINE
  8
0
 62
7
  6
CONTINUOUS
 10
71.9778224789
 20
56.2122538293
 11
71.9778224789
 21
56.0622538293
  0
LINE
  8
0
 62
7
  6
CONTINUOUS
 10
72.1561170964
 20
56.2122538293
 11
72.1561170964
 21
56.0622538293
  0
LINE
  8
0
 62
7
  6
CONTINUOUS
 10
72.4891843511
 20
56.2122538293
 11
72.4891843511
 21
56.0622538293
  0
LINE
  8
0
 62
7
  6
CONTINUOUS
 10
74.125542027
 20
56.2122538293
 11
74.125542027
 21
56.0622538293
  0
LINE
  8
0
 62
7
  6
CONTINUOUS
 10
76.0037704185
 20
56.2122538293
 11
76.0037704185
 21
56.0622538293
  0
LINE
  8
0
 62
7
  6
CONTINUOUS
 10
78.6115930177
 20
56.2122538293
 11
78.6115930177
 21
56.0622538293
  0
LINE
  8
0
 62
7
  6
CONTINUOUS
 10
78.8640169294
 20
56.2122538293
 11
78.8640169294
 21
56.0622538293
  0
LINE
  8
0
 62
7
  6
CONTINUOUS
 10
79.1211769032
 20
56.2122538293
 11
79.1211769032
 21
56.0622538293
  0
LINE
  8
0
 62
7
  6
CONTINUOUS
 10
79.3736008148
 20
56.2122538293
 11
79.3736008148
 21
56.0622538293
  0
LINE
  8
0
 62
7
  6
CONTINUOUS
 10
79.3808548986
 20
56.2122538293
 11
79.3808548986
 21
56.0622538293
  0
LINE
  8
0
 62
7
  6
CONTINUOUS
 10
79.7524241764
 20
56.2122538293
 11
79.7524241764
 21
56.0622538293
  0
LINE
  8
0
 62
7
  6
CONTINUOUS
 10
81.4560930488
 20
56.2122538293
 11
81.4560930488
 21
56.0622538293
  0
LINE
  8
0
 62
7
  6
CONTINUOUS
 10
81.4674171569
 20
56.2122538293
 11
81.4674171569
 21
56.0622538293
  0
LINE
  8
0
 62
7
  6
CONTINUOUS
 10
81.5489868892
 20
56.2122538293
 11
81.5489868892
 21
56.0622538293
  0
LINE
  8
0
 62
7
  6
CONTINUOUS
 10
81.7064616937
 20
56.2122538293
 11
81.7064616937
 21
56.0622538293
  0
LINE
  8
0
 62
7
  6
CONTINUOUS
 10
81.8990584415
 20
56.2122538293
 11
81.8990584415
 21
56.0622538293
  0
LINE
  8
0
 62
7
  6
CONTINUOUS
 10
82.3193738805
 20
56.2122538293
 11
82.3193738805
 21
56.0622538293
  0
LINE
  8
0
 62
7
  6
CONTINUOUS
 10
82.8099332064
 20
56.2122538293
 11
82.8099332064
 21
56.0622538293
  0
LINE
  8
0
 62
7
  6
CONTINUOUS
 10
83.2948296094
 20
56.2122538293
 11
83.2948296094
 21
56.0622538293
  0
POLYLINE
  8
0
 62
7
  6
CONTINUOUS
 66
1
 70
0
  0
VERTEX
  8
0
 62
7
  6
CONTINUOUS
 10
184.9738674916
 20
71.7939102534
  0
VERTEX
  8
0
 62
7
  6
CONTINUOUS
 10
185.1450873771
 20
71.8400641996
  0
VERTEX
  8
0
 62
7
  6
CONTINUOUS
 10
185.3070388506
 20
71.9166641333
  0
VERTEX
  8
0
 62
7
  6
CONTINUOUS
 10
185.4528092125
 20
72.0210051393
  0
VERTEX
  8
0
 62
7
  6
CONTINUOUS
 10
185.57761867
 20
72.1497090445
  0
VERTEX
  8
0
 62
7
  6
CONTINUOUS
 10
185.6774446617
 20
72.2986373501
  0
VERTEX
  8
0
 62
7
  6
CONTINUOUS
 10
185.7490735224
 20
72.4630010432
  0
VERTEX
  8
0
 62
7
  6
CONTINUOUS
 10
185.790200689
 20
72.6375151591
  0
VERTEX
  8
0
 62
7
  6
CONTINUOUS
 10
185.8002199905
 20
72.7787181657
  0
SEQEND
  0
LINE
  8
0
 62
7
  6
CONTINUOUS
 10
175.4562401321
 20
71.6988478639
 11
175.5461804213
 21
71.7225919822
  0
LINE
  8
0
 62
7
  6
CONTINUOUS
 10
83.6630360742
 20
56.2122538293
 11
83.6630360742
 21
56.0622538293
  0
LINE
  8
0
 62
7
  6
CONTINUOUS
 10
83.8794306573
 20
56.2122538293
 11
83.8794306573
 21
56.0622538293
  0
LINE
  8
0
 62
7
  6
CONTINUOUS
 10
84.01991848
 20
56.2122538293
 11
84.01991848
 21
56.0622538293
  0
LINE
  8
0
 62
7
  6
CONTINUOUS
 10
84.2306501403
 20
56.2122538293
 11
84.2306501403
 21
56.0622538293
  0
LINE
  8
0
 62
7
  6
CONTINUOUS
 10
84.2460483098
 20
56.2122538293
 11
84.2460483098
 21
56.0622538293
  0
LINE
  8
0
 62
7
  6
CONTINUOUS
 10
84.7145118152
 20
56.2122538293
 11
84.7145118152
 21
56.0622538293
  0
LINE
  8
0
 62
7
  6
CONTINUOUS
 10
85.9600695245
 20
56.2122538293
 11
85.9600695245
 21
56.0622538293
  0
LINE
  8
0
 62
7
  6
CONTINUOUS
 10
86.4322119306
 20
56.2122538293
 11
86.4322119306
 21
56.0622538293
  0
LINE
  8
0
 62
7
  6
CONTINUOUS
 10
86.9006754359
 20
56.2122538293
 11
86.9006754359
 21
56.0622538293
  0
LINE
  8
0
 62
7
  6
CONTINUOUS
 10
87.8525734766
 20
56.2122538293
 11
87.8525734766
 21
56.0622538293
  0
POLYLINE
  8
0
 62
7
  6
CONTINUOUS
 66
1
 70
0
  0
VERTEX
  8
0
 62
7
  6
CONTINUOUS
 10
71.3297293527
 20
79.6709485801
  0
VERTEX
  8
0
 62
7
  6
CONTINUOUS
 10
71.284415005
 20
79.643522285
  0
VERTEX
  8
0
 62
7
  6
CONTINUOUS
 10
71.166299908
 20
79.5578099638
  0
VERTEX
  8
0
 62
7
  6
CONTINUOUS
 10
71.0489899082
 20
79.4451612313
  0
VERTEX
  8
0
 62
7
  6
CONTINUOUS
 10
70.944136494
 20
79.307015609
  0
VERTEX
  8
0
 62
7
  6
CONTINUOUS
 10
70.8609515835
 20
79.1475317132
  0
VERTEX
  8
0
 62
7
  6
CONTINUOUS
 10
70.8061739906
 20
78.9741787483
  0
VERTEX
  8
0
 62
7
  6
CONTINUOUS
 10
70.7828285358
 20
78.7959779351
  0
VERTEX
  8
0
 62
7
  6
CONTINUOUS
 10
70.781894622
 20
78.7522003932
  0
SEQEND
  0
LINE
  8
0
 62
7
  6
CONTINUOUS
 10
71.7991108664
 20
79.9417397846
 11
71.3294363795
 21
79.6707816044
  0
POLYLINE
  8
0
 62
7
  6
CONTINUOUS
 66
1
 70
0
  0
VERTEX
  8
0
 62
7
  6
CONTINUOUS
 10
151.0519688128
 20
71.272765267
  0
VERTEX
  8
0
 62
7
  6
CONTINUOUS
 10
150.8814177728
 20
71.2273888713
  0
VERTEX
  8
0
 62
7
  6
CONTINUOUS
 10
150.7134383653
 20
71.2122744574
  0
SEQEND
  0
POLYLINE
  8
0
 62
7
  6
CONTINUOUS
 66
1
 70
0
  0
VERTEX
  8
0
 62
7
  6
CONTINUOUS
 10
175.2733181661
 20
71.6560136213
  0
VERTEX
  8
0
 62
7
  6
CONTINUOUS
 10
175.3523872221
 20
71.6738007759
  0
VERTEX
  8
0
 62
7
  6
CONTINUOUS
 10
175.4562401321
 20
71.6988478639
  0
SEQEND
  0
LINE
  8
0
 62
7
  6
CONTINUOUS
 10
173.9765564447
 20
71.3721063703
 11
175.2733406901
 21
71.6560183617
  0
LINE
  8
0
 62
7
  6
CONTINUOUS
 10
184.9648689221
 20
71.7922112596
 11
184.9738672983
 21
71.7939102052
  0
LINE
  8
0
 62
7
  6
CONTINUOUS
 10
173.5074920843
 20
71.286183868
 11
173.9765493114
 21
71.3721049662
  0
LINE
  8
0
 62
7
  6
CONTINUOUS
 10
184.8646233035
 20
71.7744235857
 11
184.9648689221
 21
71.7922112596
  0
LINE
  8
0
 62
7
  6
CONTINUOUS
 10
184.8625349361
 20
71.774055349
 11
182.5379953321
 21
71.3641762991
  0
LINE
  8
0
 62
7
  6
CONTINUOUS
 10
153.3027837454
 20
56.0622538293
 11
140.4367583416
 21
56.0622538293
  0
LINE
  8
LAY0001
 62
7
  6
CONTINUOUS
 10
140.4367583416
 20
56.0622538293
 11
138.8660535087
 21
56.0622538293
  0
LINE
  8
LAY0001
 62
7
  6
CONTINUOUS
 10
138.8602607868
 20
56.0622538293
 11
138.5035143777
 21
56.0622538293
  0
LINE
  8
0
 62
7
  6
CONTINUOUS
 10
138.5035143777
 20
56.0622538293
 11
127.7473142488
 21
56.0622538293
  0
LINE
  8
0
 62
7
  6
CONTINUOUS
 10
124.663618707
 20
56.0622538293
 11
117.0844806739
 21
56.0622538293
  0
LINE
  8
0
 62
7
  6
CONTINUOUS
 10
117.0228675305
 20
56.0622538293
 11
91.800912629
 21
56.0622538293
  0
LINE
  8
0
 62
7
  6
CONTINUOUS
 10
87.8525734766
 20
56.0622538293
 11
79.3808548986
 21
56.0622538293
  0
LINE
  8
0
 62
7
  6
CONTINUOUS
 10
79.3736008148
 20
56.0622538293
 11
76.0037704185
 21
56.0622538293
  0
LINE
  8
0
 62
7
  6
CONTINUOUS
 10
74.125542027
 20
56.0622538293
 11
67.1354497223
 21
56.0622538293
  0
LINE
  8
0
 62
7
  6
CONTINUOUS
 10
66.7002433669
 20
56.0622538293
 11
53.8342179631
 21
56.0622538293
  0
LINE
  8
0
 62
7
  6
CONTINUOUS
 10
45.5015320019
 20
56.2122538293
 11
162.5014951081
 21
56.2122538293
  0
POLYLINE
  8
0
 62
7
  6
CONTINUOUS
 66
1
 70
0
  0
VERTEX
  8
0
 62
7
  6
CONTINUOUS
 10
26.8340903356
 20
71.3653612306
  0
VERTEX
  8
0
 62
7
  6
CONTINUOUS
 10
27.3634934446
 20
71.2839395722
  0
VERTEX
  8
0
 62
7
  6
CONTINUOUS
 10
27.9765130833
 20
71.2279895502
  0
VERTEX
  8
0
 62
7
  6
CONTINUOUS
 10
28.5183794605
 20
71.2122539997
  0
SEQEND
  0
POLYLINE
  8
0
 62
7
  6
CONTINUOUS
 66
1
 70
0
  0
VERTEX
  8
0
 62
7
  6
CONTINUOUS
 10
42.3872944434
 20
71.3779920263
  0
VERTEX
  8
0
 62
7
  6
CONTINUOUS
 10
42.8148329411
 20
71.2896999312
  0
VERTEX
  8
0
 62
7
  6
CONTINUOUS
 10
43.3093578946
 20
71.2292064922
  0
VERTEX
  8
0
 62
7
  6
CONTINUOUS
 10
43.7454905072
 20
71.212254
  0
SEQEND
  0
POLYLINE
  8
0
 62
7
  6
CONTINUOUS
 66
1
 70
0
  0
VERTEX
  8
0
 62
7
  6
CONTINUOUS
 10
24.7696730874
 20
71.7527460745
  0
VERTEX
  8
0
 62
7
  6
CONTINUOUS
 10
24.8378651061
 20
71.7377617297
  0
VERTEX
  8
0
 62
7
  6
CONTINUOUS
 10
24.9142404708
 20
71.7216622411
  0
VERTEX
  8
0
 62
7
  6
CONTINUOUS
 10
24.9987727552
 20
71.7044543718
  0
VERTEX
  8
0
 62
7
  6
CONTINUOUS
 10
25.0908172404
 20
71.6862726976
  0
VERTEX
  8
0
 62
7
  6
CONTINUOUS
 10
25.1892206916
 20
71.6673446588
  0
VERTEX
  8
0
 62
7
  6
CONTINUOUS
 10
26.834089472
 20
71.3653612242
  0
SEQEND
  0
LINE
  8
0
 62
7
  6
CONTINUOUS
 10
41.2873052255
 20
71.648918022
 11
42.3872791198
 21
71.3779956353
  0
LINE
  8
0
 62
7
  6
CONTINUOUS
 10
71.7994289079
 20
71.4825846665
 11
72.1111806538
 21
71.3348155837
  0
LINE
  8
0
 62
7
  6
CONTINUOUS
 10
71.3294363861
 20
71.7537260504
 11
71.7991108665
 21
71.482767874
  0
LINE
  8
0
 62
7
  6
CONTINUOUS
 10
91.800912629
 20
56.2122538293
 11
91.800912629
 21
56.0622538293
  0
LINE
  8
0
 62
7
  6
CONTINUOUS
 10
91.8958670958
 20
56.2122538293
 11
91.8958670958
 21
56.0622538293
  0
LINE
  8
0
 62
7
  6
CONTINUOUS
 10
92.0015135561
 20
95.3622538293
 11
92.0015135561
 21
95.2122538293
  0
LINE
  8
0
 62
7
  6
CONTINUOUS
 10
92.1540985426
 20
56.2122538293
 11
92.1540985426
 21
56.0622538293
  0
LINE
  8
0
 62
7
  6
CONTINUOUS
 10
92.4464884432
 20
56.2122538293
 11
92.4464884432
 21
56.0622538293
  0
LINE
  8
0
 62
7
  6
CONTINUOUS
 10
92.8375988634
 20
56.2122538293
 11
92.8375988634
 21
56.0622538293
  0
LINE
  8
0
 62
7
  6
CONTINUOUS
 10
93.4907011776
 20
56.2122538293
 11
93.4907011776
 21
56.0622538293
  0
LINE
  8
0
 62
7
  6
CONTINUOUS
 10
93.9159700515
 20
56.2122538293
 11
93.9159700515
 21
56.0622538293
  0
LINE
  8
0
 62
7
  6
CONTINUOUS
 10
94.2766824652
 20
56.2122538293
 11
94.2766824652
 21
56.0622538293
  0
POLYLINE
  8
0
 62
7
  6
CONTINUOUS
 66
1
 70
0
  0
VERTEX
  8
0
 62
7
  6
CONTINUOUS
 10
72.1111806538
 20
71.3348155837
  0
VERTEX
  8
0
 62
7
  6
CONTINUOUS
 10
72.4714371968
 20
71.2376370225
  0
VERTEX
  8
0
 62
7
  6
CONTINUOUS
 10
72.7760750918
 20
71.2122541286
  0
SEQEND
  0
LINE
  8
0
 62
7
  6
CONTINUOUS
 10
94.6715552011
 20
56.2122538293
 11
94.6715552011
 21
56.0622538293
  0
LINE
  8
0
 62
7
  6
CONTINUOUS
 10
94.9031509571
 20
56.2122538293
 11
94.9031509571
 21
56.0622538293
  0
LINE
  8
0
 62
7
  6
CONTINUOUS
 10
95.0701903006
 20
56.2122538293
 11
95.0701903006
 21
56.0622538293
  0
LINE
  8
0
 62
7
  6
CONTINUOUS
 10
95.3263927416
 20
56.2122538293
 11
95.3263927416
 21
56.0622538293
  0
LINE
  8
0
 62
7
  6
CONTINUOUS
 10
95.3301550573
 20
56.2122538293
 11
95.3301550573
 21
56.0622538293
  0
LINE
  8
0
 62
7
  6
CONTINUOUS
 10
95.7721392397
 20
56.2122538293
 11
95.7721392397
 21
56.0622538293
  0
LINE
  8
0
 62
7
  6
CONTINUOUS
 10
96.5165588002
 20
56.2122538293
 11
96.5165588002
 21
56.0622538293
  0
LINE
  8
0
 62
7
  6
CONTINUOUS
 10
98.5843896503
 20
56.2122538293
 11
98.5843896503
 21
56.0622538293
  0
LINE
  8
0
 62
7
  6
CONTINUOUS
 10
99.0806693572
 20
56.2122538293
 11
99.0806693572
 21
56.0622538293
  0
LINE
  8
0
 62
7
  6
CONTINUOUS
 10
99.5677144874
 20
56.2122538293
 11
99.5677144874
 21
56.0622538293
  0
POLYLINE
  8
0
 62
7
  6
CONTINUOUS
 66
1
 70
0
  0
VERTEX
  8
0
 62
7
  6
CONTINUOUS
 10
150.7134616197
 20
71.2122776895
  0
VERTEX
  8
0
 62
7
  6
CONTINUOUS
 10
150.8319214892
 20
71.2199863531
  0
VERTEX
  8
0
 62
7
  6
CONTINUOUS
 10
151.0233045948
 20
71.2627824317
  0
VERTEX
  8
0
 62
7
  6
CONTINUOUS
 10
151.2016556712
 20
71.3406939348
  0
VERTEX
  8
0
 62
7
  6
CONTINUOUS
 10
151.3610203442
 20
71.4503006583
  0
VERTEX
  8
0
 62
7
  6
CONTINUOUS
 10
151.4959431897
 20
71.5872179903
  0
VERTEX
  8
0
 62
7
  6
CONTINUOUS
 10
151.6018262517
 20
71.7462488642
  0
VERTEX
  8
0
 62
7
  6
CONTINUOUS
 10
151.6750697456
 20
71.9214071831
  0
VERTEX
  8
0
 62
7
  6
CONTINUOUS
 10
151.7133241288
 20
72.1060167526
  0
VERTEX
  8
0
 62
7
  6
CONTINUOUS
 10
151.7190805812
 20
72.2122940385
  0
SEQEND
  0
POLYLINE
  8
0
 62
7
  6
CONTINUOUS
 66
1
 70
0
  0
VERTEX
  8
0
 62
7
  6
CONTINUOUS
 10
148.5198431261
 20
71.2122540062
  0
VERTEX
  8
0
 62
7
  6
CONTINUOUS
 10
148.8474450306
 20
71.2327434272
  0
VERTEX
  8
0
 62
7
  6
CONTINUOUS
 10
149.2301090656
 20
71.3092154278
  0
SEQEND
  0
POLYLINE
  8
0
 62
7
  6
CONTINUOUS
 66
1
 70
0
  0
VERTEX
  8
0
 62
7
  6
CONTINUOUS
 10
172.503206717
 20
71.2122539893
  0
VERTEX
  8
0
 62
7
  6
CONTINUOUS
 10
172.9715624611
 20
71.2282818759
  0
VERTEX
  8
0
 62
7
  6
CONTINUOUS
 10
173.5074920843
 20
71.286183868
  0
SEQEND
  0
LINE
  8
0
 62
7
  6
CONTINUOUS
 10
100.0524361371
 20
56.2122538293
 11
100.0524361371
 21
56.0622538293
  0
LINE
  8
0
 62
7
  6
CONTINUOUS
 10
103.049345269
 20
56.2122538293
 11
103.049345269
 21
56.0622538293
  0
LINE
  8
0
 62
7
  6
CONTINUOUS
 10
103.0725190048
 20
56.2122538293
 11
103.0725190048
 21
56.0622538293
  0
LINE
  8
0
 62
7
  6
CONTINUOUS
 10
103.2076991492
 20
56.2122538293
 11
103.2076991492
 21
56.0622538293
  0
LINE
  8
0
 62
7
  6
CONTINUOUS
 10
103.2308728877
 20
56.2122538293
 11
103.2308728877
 21
56.0622538293
  0
LINE
  8
DEFAULT_1
 62
2
  6
CENTER
 10
104.0015135561
 20
54.0622538293
 11
104.0015135561
 21
97.3622538293
  0
LINE
  8
0
 62
7
  6
CONTINUOUS
 10
104.5015135561
 20
95.3622538293
 11
104.5015135561
 21
95.2122538293
  0
LINE
  8
0
 62
7
  6
CONTINUOUS
 10
104.5015135561
 20
56.2122538293
 11
104.5015135561
 21
56.0622538293
  0
LINE
  8
0
 62
7
  6
CONTINUOUS
 10
180.8015096005
 20
71.2122538293
 11
28.5183973413
 21
71.2122538293
  0
LINE
  8
0
 62
7
  6
CONTINUOUS
 10
107.897140442
 20
56.2122538293
 11
107.897140442
 21
56.0622538293
  0
LINE
  8
0
 62
7
  6
CONTINUOUS
 10
107.9727419538
 20
56.2122538293
 11
107.9727419538
 21
56.0622538293
  0
LINE
  8
0
 62
7
  6
CONTINUOUS
 10
108.2940483974
 20
56.2122538293
 11
108.2940483974
 21
56.0622538293
  0
LINE
  8
0
 62
7
  6
CONTINUOUS
 10
108.3412993381
 20
56.2122538293
 11
108.3412993381
 21
56.0622538293
  0
LINE
  8
0
 62
7
  6
CONTINUOUS
 10
28.5183803256
 20
80.2122538293
 11
180.8015097153
 21
80.2122538293
  0
LINE
  8
0
 62
7
  6
CONTINUOUS
 10
111.6540179702
 20
56.2122538293
 11
111.6540179702
 21
56.0622538293
  0
LINE
  8
0
 62
7
  6
CONTINUOUS
 10
112.3211384693
 20
56.2122538293
 11
112.3211384693
 21
56.0622538293
  0
LINE
  8
0
 62
7
  6
CONTINUOUS
 10
112.4349411218
 20
56.2122538293
 11
112.4349411218
 21
56.0622538293
  0
LINE
  8
0
 62
7
  6
CONTINUOUS
 10
113.0274843492
 20
56.2122538293
 11
113.0274843492
 21
56.0622538293
  0
LINE
  8
0
 62
7
  6
CONTINUOUS
 10
113.5204502906
 20
56.2122538293
 11
113.5204502906
 21
56.0622538293
  0
LINE
  8
0
 62
7
  6
CONTINUOUS
 10
113.716943516
 20
56.2122538293
 11
113.716943516
 21
56.0622538293
  0
LINE
  8
0
 62
7
  6
CONTINUOUS
 10
114.1234529643
 20
56.2122538293
 11
114.1234529643
 21
56.0622538293
  0
LINE
  8
0
 62
7
  6
CONTINUOUS
 10
114.167397114
 20
56.2122538293
 11
114.167397114
 21
56.0622538293
  0
LINE
  8
0
 62
7
  6
CONTINUOUS
 10
114.2652008572
 20
56.2122538293
 11
114.2652008572
 21
56.0622538293
  0
LINE
  8
0
 62
7
  6
CONTINUOUS
 10
114.4212137606
 20
56.2122538293
 11
114.4212137606
 21
56.0622538293
  0
LINE
  8
0
 62
7
  6
CONTINUOUS
 10
114.8211315886
 20
56.2122538293
 11
114.8211315886
 21
56.0622538293
  0
LINE
  8
0
 62
7
  6
CONTINUOUS
 10
115.1836968871
 20
56.2122538293
 11
115.1836968871
 21
56.0622538293
  0
LINE
  8
0
 62
7
  6
CONTINUOUS
 10
115.771485263
 20
56.2122538293
 11
115.771485263
 21
56.0622538293
  0
LINE
  8
0
 62
7
  6
CONTINUOUS
 10
115.9340897866
 20
56.2122538293
 11
115.9340897866
 21
56.0622538293
  0
LINE
  8
0
 62
7
  6
CONTINUOUS
 10
116.0015135561
 20
95.3622538293
 11
116.0015135561
 21
95.2122538293
  0
LINE
  8
0
 62
7
  6
CONTINUOUS
 10
116.4845219112
 20
56.2122538293
 11
116.4845219112
 21
56.0622538293
  0
LINE
  8
0
 62
7
  6
CONTINUOUS
 10
72.776043633
 20
80.2122535224
 11
72.4752732602
 21
80.1875073291
  0
POLYLINE
  8
0
 62
7
  6
CONTINUOUS
 66
1
 70
0
  0
VERTEX
  8
0
 62
7
  6
CONTINUOUS
 10
43.7454897144
 20
80.2122536684
  0
VERTEX
  8
0
 62
7
  6
CONTINUOUS
 10
43.3147055351
 20
80.1957146777
  0
VERTEX
  8
0
 62
7
  6
CONTINUOUS
 10
42.8201370569
 20
80.1356916903
  0
SEQEND
  0
POLYLINE
  8
0
 62
7
  6
CONTINUOUS
 66
1
 70
0
  0
VERTEX
  8
0
 62
7
  6
CONTINUOUS
 10
28.5183794488
 20
80.2122536687
  0
VERTEX
  8
0
 62
7
  6
CONTINUOUS
 10
27.9831460942
 20
80.1969012689
  0
VERTEX
  8
0
 62
7
  6
CONTINUOUS
 10
27.3700893054
 20
80.1413875885
  0
SEQEND
  0
POLYLINE
  8
0
 62
7
  6
CONTINUOUS
 66
1
 70
0
  0
VERTEX
  8
0
 62
7
  6
CONTINUOUS
 10
150.7134377616
 20
80.2122332052
  0
VERTEX
  8
0
 62
7
  6
CONTINUOUS
 10
150.8821372051
 20
80.1969927973
  0
VERTEX
  8
0
 62
7
  6
CONTINUOUS
 10
151.052843187
 20
80.1514256811
  0
SEQEND
  0
LINE
  8
0
 62
7
  6
CONTINUOUS
 10
116.7723709856
 20
56.2122538293
 11
116.7723709856
 21
56.0622538293
  0
LINE
  8
0
 62
7
  6
CONTINUOUS
 10
117.0228675305
 20
56.2122538293
 11
117.0228675305
 21
56.0622538293
  0
LINE
  8
0
 62
7
  6
CONTINUOUS
 10
117.0294554291
 20
56.2122538293
 11
117.0294554291
 21
56.0622538293
  0
LINE
  8
0
 62
7
  6
CONTINUOUS
 10
117.0844806739
 20
56.2122538293
 11
117.0844806739
 21
56.0622538293
  0
LINE
  8
0
 62
7
  6
CONTINUOUS
 10
118.2491079533
 20
56.2122538293
 11
118.2491079533
 21
56.0622538293
  0
LINE
  8
0
 62
7
  6
CONTINUOUS
 10
120.1624586334
 20
56.2122538293
 11
120.1624586334
 21
56.0622538293
  0
LINE
  8
0
 62
7
  6
CONTINUOUS
 10
120.536295274
 20
56.2122538293
 11
120.536295274
 21
56.0622538293
  0
LINE
  8
0
 62
7
  6
CONTINUOUS
 10
120.780847935
 20
56.2122538293
 11
120.780847935
 21
56.0622538293
  0
LINE
  8
0
 62
7
  6
CONTINUOUS
 10
120.9208995665
 20
56.2122538293
 11
120.9208995665
 21
56.0622538293
  0
LINE
  8
0
 62
7
  6
CONTINUOUS
 10
120.9262833925
 20
56.2122538293
 11
120.9262833925
 21
56.0622538293
  0
LINE
  8
0
 62
7
  6
CONTINUOUS
 10
122.1135925873
 20
56.2122538293
 11
122.1135925873
 21
56.0622538293
  0
POLYLINE
  8
0
 62
7
  6
CONTINUOUS
 66
1
 70
0
  0
VERTEX
  8
0
 62
7
  6
CONTINUOUS
 10
72.4752732602
 20
80.1875073291
  0
VERTEX
  8
0
 62
7
  6
CONTINUOUS
 10
72.1147326244
 20
80.0910221433
  0
VERTEX
  8
0
 62
7
  6
CONTINUOUS
 10
71.7994086378
 20
79.9419113005
  0
SEQEND
  0
LINE
  8
0
 62
7
  6
CONTINUOUS
 10
42.8201370569
 20
80.1356916903
 11
42.3872937804
 21
80.0465154591
  0
LINE
  8
0
 62
7
  6
CONTINUOUS
 10
27.3700893054
 20
80.1413875885
 11
26.8340903266
 21
80.0591464165
  0
POLYLINE
  8
0
 62
7
  6
CONTINUOUS
 66
1
 70
0
  0
VERTEX
  8
0
 62
7
  6
CONTINUOUS
 10
173.9765489116
 20
80.0524027701
  0
VERTEX
  8
0
 62
7
  6
CONTINUOUS
 10
173.5131913284
 20
80.1374788888
  0
VERTEX
  8
0
 62
7
  6
CONTINUOUS
 10
172.9772992862
 20
80.1958303753
  0
VERTEX
  8
0
 62
7
  6
CONTINUOUS
 10
172.5032062707
 20
80.2122536788
  0
SEQEND
  0
POLYLINE
  8
0
 62
7
  6
CONTINUOUS
 66
1
 70
0
  0
VERTEX
  8
0
 62
7
  6
CONTINUOUS
 10
149.2340467745
 20
80.1142043599
  0
VERTEX
  8
0
 62
7
  6
CONTINUOUS
 10
148.8515058712
 20
80.1912523569
  0
VERTEX
  8
0
 62
7
  6
CONTINUOUS
 10
148.5198325591
 20
80.212253664
  0
SEQEND
  0
LINE
  8
0
 62
7
  6
CONTINUOUS
 10
123.9779319001
 20
56.2122538293
 11
123.9779319001
 21
56.0622538293
  0
LINE
  8
0
 62
7
  6
CONTINUOUS
 10
124.3355267527
 20
56.2122538293
 11
124.3355267527
 21
56.0622538293
  0
LINE
  8
0
 62
7
  6
CONTINUOUS
 10
124.5538177176
 20
56.2122538293
 11
124.5538177176
 21
56.0622538293
  0
LINE
  8
0
 62
7
  6
CONTINUOUS
 10
124.663618707
 20
56.2122538293
 11
124.663618707
 21
56.0622538293
  0
LINE
  8
0
 62
7
  6
CONTINUOUS
 10
127.7473142488
 20
56.2122538293
 11
127.7473142488
 21
56.0622538293
  0
POLYLINE
  8
0
 62
7
  6
CONTINUOUS
 66
1
 70
0
  0
VERTEX
  8
0
 62
7
  6
CONTINUOUS
 10
150.2507298311
 20
71.7091109987
  0
VERTEX
  8
0
 62
7
  6
CONTINUOUS
 10
150.3092930231
 20
71.7348093597
  0
VERTEX
  8
0
 62
7
  6
CONTINUOUS
 10
150.4247463586
 20
71.795169155
  0
VERTEX
  8
0
 62
7
  6
CONTINUOUS
 10
150.5470183814
 20
71.8775713074
  0
VERTEX
  8
0
 62
7
  6
CONTINUOUS
 10
150.6696048937
 20
71.9874827305
  0
VERTEX
  8
0
 62
7
  6
CONTINUOUS
 10
150.7822132627
 20
72.1268425151
  0
VERTEX
  8
0
 62
7
  6
CONTINUOUS
 10
150.8733570107
 20
72.2923565578
  0
VERTEX
  8
0
 62
7
  6
CONTINUOUS
 10
150.933644653
 20
72.4754830338
  0
VERTEX
  8
0
 62
7
  6
CONTINUOUS
 10
150.9584896331
 20
72.6648942325
  0
VERTEX
  8
0
 62
7
  6
CONTINUOUS
 10
150.9591816034
 20
72.7024839717
  0
SEQEND
  0
LINE
  8
0
 62
7
  6
CONTINUOUS
 10
149.5672356151
 20
71.4253615666
 11
150.2512741811
 21
71.7093360942
  0
LINE
  8
0
 62
7
  6
CONTINUOUS
 10
149.2301090656
 20
71.3092154278
 11
149.5671198188
 21
71.4253136783
  0
POLYLINE
  8
0
 62
7
  6
CONTINUOUS
 66
1
 70
0
  0
VERTEX
  8
0
 62
7
  6
CONTINUOUS
 10
41.287351375
 20
79.7756005113
  0
VERTEX
  8
0
 62
7
  6
CONTINUOUS
 10
41.1982906936
 20
79.7526385031
  0
VERTEX
  8
0
 62
7
  6
CONTINUOUS
 10
41.0882308957
 20
79.720793636
  0
VERTEX
  8
0
 62
7
  6
CONTINUOUS
 10
40.9909442251
 20
79.6882160974
  0
VERTEX
  8
0
 62
7
  6
CONTINUOUS
 10
40.8975817942
 20
79.6514016938
  0
VERTEX
  8
0
 62
7
  6
CONTINUOUS
 10
40.8010909237
 20
79.6054705842
  0
VERTEX
  8
0
 62
7
  6
CONTINUOUS
 10
40.6973383951
 20
79.5441003464
  0
VERTEX
  8
0
 62
7
  6
CONTINUOUS
 10
40.5878677167
 20
79.461287084
  0
VERTEX
  8
0
 62
7
  6
CONTINUOUS
 10
40.4787010761
 20
79.3525157375
  0
VERTEX
  8
0
 62
7
  6
CONTINUOUS
 10
40.3786502395
 20
79.2157794582
  0
VERTEX
  8
0
 62
7
  6
CONTINUOUS
 10
40.2980113633
 20
79.053192836
  0
VERTEX
  8
0
 62
7
  6
CONTINUOUS
 10
40.2461510664
 20
78.8716855909
  0
VERTEX
  8
0
 62
7
  6
CONTINUOUS
 10
40.2288292236
 20
78.6851875485
  0
SEQEND
  0
LINE
  8
0
 62
7
  6
CONTINUOUS
 10
42.3872791198
 20
80.0465120233
 11
41.2873052193
 21
79.7755896352
  0
POLYLINE
  8
0
 62
7
  6
CONTINUOUS
 66
1
 70
0
  0
VERTEX
  8
0
 62
7
  6
CONTINUOUS
 10
24.7390549247
 20
79.6647816965
  0
VERTEX
  8
0
 62
7
  6
CONTINUOUS
 10
24.6818072443
 20
79.6511510384
  0
VERTEX
  8
0
 62
7
  6
CONTINUOUS
 10
24.630286336
 20
79.6379745159
  0
VERTEX
  8
0
 62
7
  6
CONTINUOUS
 10
24.5816017479
 20
79.6243394624
  0
VERTEX
  8
0
 62
7
  6
CONTINUOUS
 10
24.5303528186
 20
79.6082155073
  0
VERTEX
  8
0
 62
7
  6
CONTINUOUS
 10
24.4700366853
 20
79.5861742514
  0
VERTEX
  8
0
 62
7
  6
CONTINUOUS
 10
24.3975005252
 20
79.5543057313
  0
VERTEX
  8
0
 62
7
  6
CONTINUOUS
 10
24.3166884066
 20
79.5106758339
  0
VERTEX
  8
0
 62
7
  6
CONTINUOUS
 10
24.2329422439
 20
79.4547258762
  0
VERTEX
  8
0
 62
7
  6
CONTINUOUS
 10
24.151254684
 20
79.387158876
  0
VERTEX
  8
0
 62
7
  6
CONTINUOUS
 10
24.0736150488
 20
79.3073797491
  0
VERTEX
  8
0
 62
7
  6
CONTINUOUS
 10
24.0021281163
 20
79.2149234766
  0
VERTEX
  8
0
 62
7
  6
CONTINUOUS
 10
23.9392109645
 20
79.1096616393
  0
VERTEX
  8
0
 62
7
  6
CONTINUOUS
 10
23.8875731687
 20
78.9919364693
  0
VERTEX
  8
0
 62
7
  6
CONTINUOUS
 10
23.8501248917
 20
78.8626412187
  0
VERTEX
  8
0
 62
7
  6
CONTINUOUS
 10
23.8298764238
 20
78.7233034593
  0
VERTEX
  8
0
 62
7
  6
CONTINUOUS
 10
23.8271403252
 20
78.6493337591
  0
SEQEND
  0
POLYLINE
  8
0
 62
7
  6
CONTINUOUS
 66
1
 70
0
  0
VERTEX
  8
0
 62
7
  6
CONTINUOUS
 10
25.1596635
 20
79.7515270899
  0
VERTEX
  8
0
 62
7
  6
CONTINUOUS
 10
25.054505924
 20
79.7311229393
  0
VERTEX
  8
0
 62
7
  6
CONTINUOUS
 10
24.9603604821
 20
79.7123023779
  0
VERTEX
  8
0
 62
7
  6
CONTINUOUS
 10
24.8769417962
 20
79.6950590751
  0
VERTEX
  8
0
 62
7
  6
CONTINUOUS
 10
24.8035765139
 20
79.6792968094
  0
VERTEX
  8
0
 62
7
  6
CONTINUOUS
 10
24.7390549247
 20
79.6647816965
  0
SEQEND
  0
LINE
  8
0
 62
7
  6
CONTINUOUS
 10
25.3557755475
 20
79.788229569
 11
25.1596635
 21
79.7515270899
  0
LINE
  8
0
 62
7
  6
CONTINUOUS
 10
26.834089472
 20
80.0591464344
 11
25.3557735235
 21
79.7882292953
  0
LINE
  8
0
 62
7
  6
CONTINUOUS
 10
45.5015497864
 20
95.2122538293
 11
162.5014951086
 21
95.2122538293
  0
LINE
  8
0
 62
7
  6
CONTINUOUS
 10
153.3027837454
 20
95.3622538293
 11
140.4367583416
 21
95.3622538293
  0
LINE
  8
0
 62
7
  6
CONTINUOUS
 10
116.0015135561
 20
95.3622538293
 11
92.0015135561
 21
95.3622538293
  0
LINE
  8
0
 62
7
  6
CONTINUOUS
 10
66.7002433669
 20
95.3622538293
 11
53.8342179631
 21
95.3622538293
  0
LINE
  8
0
 62
7
  6
CONTINUOUS
 10
182.5379953321
 20
80.0603313596
 11
184.8625349361
 21
79.6504523097
  0
POLYLINE
  8
0
 62
7
  6
CONTINUOUS
 66
1
 70
0
  0
VERTEX
  8
0
 62
7
  6
CONTINUOUS
 10
184.9738672983
 20
79.6305974535
  0
VERTEX
  8
0
 62
7
  6
CONTINUOUS
 10
184.9648689223
 20
79.632296399
  0
VERTEX
  8
0
 62
7
  6
CONTINUOUS
 10
184.8646233035
 20
79.6500840729
  0
SEQEND
  0
LINE
  8
0
 62
7
  6
CONTINUOUS
 10
175.2733406845
 20
79.7684892981
 11
173.9765564447
 21
80.0524012883
  0
POLYLINE
  8
0
 62
7
  6
CONTINUOUS
 66
1
 70
0
  0
VERTEX
  8
0
 62
7
  6
CONTINUOUS
 10
175.4579953332
 20
79.7252168515
  0
VERTEX
  8
0
 62
7
  6
CONTINUOUS
 10
175.3551732614
 20
79.7500618049
  0
VERTEX
  8
0
 62
7
  6
CONTINUOUS
 10
175.2733208647
 20
79.7684934465
  0
SEQEND
  0
LINE
  8
0
 62
7
  6
CONTINUOUS
 10
175.5468617823
 20
79.7017266906
 11
175.4579953332
 21
79.7252168515
  0
LINE
  8
0
 62
7
  6
CONTINUOUS
 10
149.5671120019
 20
79.999197213
 11
149.2340467745
 21
80.1142043599
  0
LINE
  8
0
 62
7
  6
CONTINUOUS
 10
150.2512741728
 20
79.7151715679
 11
149.5672356152
 21
79.9991460921
  0
LINE
  8
0
 62
7
  6
CONTINUOUS
 10
129.7536747248
 20
56.2122538293
 11
129.7536747248
 21
56.0622538293
  0
LINE
  8
0
 62
7
  6
CONTINUOUS
 10
131.4838855241
 20
56.2122538293
 11
131.4838855241
 21
56.0622538293
  0
LINE
  8
0
 62
7
  6
CONTINUOUS
 10
131.8016553916
 20
56.2122538293
 11
131.8016553916
 21
56.0622538293
  0
LINE
  8
0
 62
7
  6
CONTINUOUS
 10
131.9619605112
 20
56.2122538293
 11
131.9619605112
 21
56.0622538293
  0
LINE
  8
0
 62
7
  6
CONTINUOUS
 10
132.0074827984
 20
56.2122538293
 11
132.0074827984
 21
56.0622538293
  0
POLYLINE
  8
0
 62
7
  6
CONTINUOUS
 66
1
 70
0
  0
VERTEX
  8
0
 62
7
  6
CONTINUOUS
 10
175.5461804213
 20
71.7225919822
  0
VERTEX
  8
0
 62
7
  6
CONTINUOUS
 10
175.6274666783
 20
71.7463544699
  0
VERTEX
  8
0
 62
7
  6
CONTINUOUS
 10
175.7052941389
 20
71.7720148723
  0
VERTEX
  8
0
 62
7
  6
CONTINUOUS
 10
175.7848692485
 20
71.8023854613
  0
VERTEX
  8
0
 62
7
  6
CONTINUOUS
 10
175.8716641553
 20
71.8419944729
  0
VERTEX
  8
0
 62
7
  6
CONTINUOUS
 10
175.9676981562
 20
71.8961389894
  0
VERTEX
  8
0
 62
7
  6
CONTINUOUS
 10
176.0680988188
 20
71.9677460612
  0
VERTEX
  8
0
 62
7
  6
CONTINUOUS
 10
176.1670506247
 20
72.0584728101
  0
VERTEX
  8
0
 62
7
  6
CONTINUOUS
 10
176.2579540231
 20
72.1676341437
  0
VERTEX
  8
0
 62
7
  6
CONTINUOUS
 10
176.3357823523
 20
72.294131381
  0
VERTEX
  8
0
 62
7
  6
CONTINUOUS
 10
176.3967442512
 20
72.437950209
  0
VERTEX
  8
0
 62
7
  6
CONTINUOUS
 10
176.4361967086
 20
72.5979739494
  0
VERTEX
  8
0
 62
7
  6
CONTINUOUS
 10
176.4490414748
 20
72.758292523
  0
SEQEND
  0
POLYLINE
  8
0
 62
7
  6
CONTINUOUS
 66
1
 70
0
  0
VERTEX
  8
0
 62
7
  6
CONTINUOUS
 10
151.052843187
 20
80.1514256811
  0
VERTEX
  8
0
 62
7
  6
CONTINUOUS
 10
151.2132424594
 20
80.0768444762
  0
VERTEX
  8
0
 62
7
  6
CONTINUOUS
 10
151.357616922
 20
79.9759974634
  0
VERTEX
  8
0
 62
7
  6
CONTINUOUS
 10
151.4821243706
 20
79.8517083537
  0
VERTEX
  8
0
 62
7
  6
CONTINUOUS
 10
151.5825616152
 20
79.7083231814
  0
VERTEX
  8
0
 62
7
  6
CONTINUOUS
 10
151.6562294696
 20
79.5500220559
  0
VERTEX
  8
0
 62
7
  6
CONTINUOUS
 10
151.7007259409
 20
79.3831265204
  0
VERTEX
  8
0
 62
7
  6
CONTINUOUS
 10
151.7149339826
 20
79.2195819579
  0
SEQEND
  0
LINE
  8
0
 62
7
  6
CONTINUOUS
 10
134.3483643252
 20
56.2122538293
 11
134.3483643252
 21
56.0622538293
  0
LINE
  8
0
 62
7
  6
CONTINUOUS
 10
134.8974784624
 20
56.2122538293
 11
134.8974784624
 21
56.0622538293
  0
LINE
  8
0
 62
7
  6
CONTINUOUS
 10
135.0191386476
 20
56.2122538293
 11
135.0191386476
 21
56.0622538293
  0
LINE
  8
0
 62
7
  6
CONTINUOUS
 10
135.3287340853
 20
56.2122538293
 11
135.3287340853
 21
56.0622538293
  0
LINE
  8
0
 62
7
  6
CONTINUOUS
 10
135.7031499762
 20
56.2122538293
 11
135.7031499762
 21
56.0622538293
  0
LINE
  8
0
 62
7
  6
CONTINUOUS
 10
136.1423863952
 20
56.2122538293
 11
136.1423863952
 21
56.0622538293
  0
LINE
  8
0
 62
7
  6
CONTINUOUS
 10
136.5394615891
 20
56.2122538293
 11
136.5394615891
 21
56.0622538293
  0
LINE
  8
0
 62
7
  6
CONTINUOUS
 10
136.9478691769
 20
56.2122538293
 11
136.9478691769
 21
56.0622538293
  0
LINE
  8
0
 62
7
  6
CONTINUOUS
 10
137.4324239022
 20
56.2122538293
 11
137.4324239022
 21
56.0622538293
  0
LINE
  8
0
 62
7
  6
CONTINUOUS
 10
137.810008593
 20
56.2122538293
 11
137.810008593
 21
56.0622538293
  0
LINE
  8
0
 62
7
  6
CONTINUOUS
 10
138.069278837
 20
56.2122538293
 11
138.069278837
 21
56.0622538293
  0
LINE
  8
0
 62
7
  6
CONTINUOUS
 10
138.3398875589
 20
56.2122538293
 11
138.3398875589
 21
56.0622538293
  0
LINE
  8
0
 62
7
  6
CONTINUOUS
 10
138.5035143777
 20
56.2122538293
 11
138.5035143777
 21
56.0622538293
  0
LINE
  8
LAY0001
 62
7
  6
CONTINUOUS
 10
138.5100181975
 20
56.2122538293
 11
138.5100181975
 21
56.0622538293
  0
LINE
  8
LAY0001
 62
7
  6
CONTINUOUS
 10
138.5877242477
 20
56.2122538293
 11
138.5877242477
 21
56.0622538293
  0
LINE
  8
LAY0001
 62
7
  6
CONTINUOUS
 10
138.6932632282
 20
56.2122538293
 11
138.6932632282
 21
56.0622538293
  0
LINE
  8
LAY0001
 62
7
  6
CONTINUOUS
 10
138.8016985611
 20
56.2122538293
 11
138.8016985611
 21
56.0622538293
  0
LINE
  8
LAY0001
 62
7
  6
CONTINUOUS
 10
138.8602607868
 20
56.2122538293
 11
138.8602607868
 21
56.0622538293
  0
LINE
  8
LAY0001
 62
7
  6
CONTINUOUS
 10
138.8660535087
 20
56.2122538293
 11
138.8660535087
 21
56.0622538293
  0
LINE
  8
0
 62
7
  6
CONTINUOUS
 10
140.4367583416
 20
95.3622538293
 11
140.4367583416
 21
95.2122538293
  0
LINE
  8
0
 62
7
  6
CONTINUOUS
 10
140.4367583416
 20
56.2122538293
 11
140.4367583416
 21
56.0622538293
  0
LINE
  8
0
 62
7
  6
CONTINUOUS
 10
142.1688091492
 20
95.3622538293
 11
142.1688091492
 21
95.2122538293
  0
LINE
  8
0
 62
7
  6
CONTINUOUS
 10
142.1688091492
 20
56.2122538293
 11
142.1688091492
 21
56.0622538293
  0
LINE
  8
0
 62
7
  6
CONTINUOUS
 10
147.9188091492
 20
95.3622538293
 11
147.9188091492
 21
95.2122538293
  0
LINE
  8
0
 62
7
  6
CONTINUOUS
 10
147.9188091492
 20
56.2122538293
 11
147.9188091492
 21
56.0622538293
  0
POLYLINE
  8
0
 62
7
  6
CONTINUOUS
 66
1
 70
0
  0
VERTEX
  8
0
 62
7
  6
CONTINUOUS
 10
151.7190814139
 20
79.2121873733
  0
VERTEX
  8
0
 62
7
  6
CONTINUOUS
 10
151.7133404147
 20
79.3183345221
  0
VERTEX
  8
0
 62
7
  6
CONTINUOUS
 10
151.6751384482
 20
79.502879407
  0
VERTEX
  8
0
 62
7
  6
CONTINUOUS
 10
151.6019371291
 20
79.6780518267
  0
VERTEX
  8
0
 62
7
  6
CONTINUOUS
 10
151.4960668387
 20
79.8371378994
  0
VERTEX
  8
0
 62
7
  6
CONTINUOUS
 10
151.3611312484
 20
79.9741143025
  0
VERTEX
  8
0
 62
7
  6
CONTINUOUS
 10
151.2017409957
 20
80.0837663569
  0
VERTEX
  8
0
 62
7
  6
CONTINUOUS
 10
151.0233606153
 20
80.1617071013
  0
VERTEX
  8
0
 62
7
  6
CONTINUOUS
 10
150.8319461561
 20
80.2045182744
  0
VERTEX
  8
0
 62
7
  6
CONTINUOUS
 10
150.7134610324
 20
80.2122299811
  0
SEQEND
  0
POLYLINE
  8
0
 62
7
  6
CONTINUOUS
 66
1
 70
0
  0
VERTEX
  8
0
 62
7
  6
CONTINUOUS
 10
150.9591816036
 20
78.7220238847
  0
VERTEX
  8
0
 62
7
  6
CONTINUOUS
 10
150.9585089788
 20
78.7590844919
  0
VERTEX
  8
0
 62
7
  6
CONTINUOUS
 10
150.933910685
 20
78.9478534315
  0
VERTEX
  8
0
 62
7
  6
CONTINUOUS
 10
150.8741083778
 20
79.1304271394
  0
VERTEX
  8
0
 62
7
  6
CONTINUOUS
 10
150.783568225
 20
79.2956555336
  0
VERTEX
  8
0
 62
7
  6
CONTINUOUS
 10
150.671471644
 20
79.4350720897
  0
VERTEX
  8
0
 62
7
  6
CONTINUOUS
 10
150.5491980707
 20
79.5452526312
  0
VERTEX
  8
0
 62
7
  6
CONTINUOUS
 10
150.4271958105
 20
79.6278944257
  0
VERTEX
  8
0
 62
7
  6
CONTINUOUS
 10
150.3122321454
 20
79.6883302902
  0
VERTEX
  8
0
 62
7
  6
CONTINUOUS
 10
150.250717548
 20
79.7154017503
  0
SEQEND
  0
LINE
  8
0
 62
7
  6
CONTINUOUS
 10
150.2593888901
 20
95.3622538293
 11
150.2593888901
 21
95.2122538293
  0
LINE
  8
0
 62
7
  6
CONTINUOUS
 10
150.2593888901
 20
56.2122538293
 11
150.2593888901
 21
56.0622538293
  0
LINE
  8
0
 62
7
  6
CONTINUOUS
 10
150.9591819719
 20
78.7220880554
 11
150.9591819719
 21
72.7024196031
  0
LINE
  8
0
 62
7
  6
CONTINUOUS
 10
151.7190876444
 20
79.2122538289
 11
151.7190876444
 21
72.2122538294
  0
LINE
  8
0
 62
7
  6
CONTINUOUS
 10
153.3027837454
 20
95.3622538293
 11
153.3027837454
 21
95.2122538293
  0
LINE
  8
0
 62
7
  6
CONTINUOUS
 10
153.3027837454
 20
56.2122538293
 11
153.3027837454
 21
56.0622538293
  0
POLYLINE
  8
0
 62
7
  6
CONTINUOUS
 66
1
 70
0
  0
VERTEX
  8
0
 62
7
  6
CONTINUOUS
 10
151.7149337534
 20
72.2049114099
  0
VERTEX
  8
0
 62
7
  6
CONTINUOUS
 10
151.7006727196
 20
72.0410775467
  0
VERTEX
  8
0
 62
7
  6
CONTINUOUS
 10
151.6560385639
 20
71.8739593857
  0
VERTEX
  8
0
 62
7
  6
CONTINUOUS
 10
151.5822995669
 20
71.7157306029
  0
VERTEX
  8
0
 62
7
  6
CONTINUOUS
 10
151.4818016589
 20
71.5724152765
  0
VERTEX
  8
0
 62
7
  6
CONTINUOUS
 10
151.3571486131
 20
71.4481183584
  0
VERTEX
  8
0
 62
7
  6
CONTINUOUS
 10
151.2126555624
 20
71.3473253904
  0
VERTEX
  8
0
 62
7
  6
CONTINUOUS
 10
151.0519688128
 20
71.272765267
  0
SEQEND
  0
LINE
  8
0
 62
7
  6
CONTINUOUS
 10
164.0015135561
 20
93.7122538293
 11
164.0015135561
 21
81.7122538293
  0
LINE
  8
0
 62
7
  6
CONTINUOUS
 10
164.0015135561
 20
69.7122538293
 11
164.0015135561
 21
57.7122538293
  0
POLYLINE
  8
0
 62
7
  6
CONTINUOUS
 66
1
 70
0
  0
VERTEX
  8
0
 62
7
  6
CONTINUOUS
 10
176.4490414748
 20
78.6662151067
  0
VERTEX
  8
0
 62
7
  6
CONTINUOUS
 10
176.435928862
 20
78.8281860199
  0
VERTEX
  8
0
 62
7
  6
CONTINUOUS
 10
176.396006499
 20
78.9887493829
  0
VERTEX
  8
0
 62
7
  6
CONTINUOUS
 10
176.3344417876
 20
79.1329532713
  0
VERTEX
  8
0
 62
7
  6
CONTINUOUS
 10
176.255893919
 20
79.2597200352
  0
VERTEX
  8
0
 62
7
  6
CONTINUOUS
 10
176.1641797573
 20
79.3690204675
  0
VERTEX
  8
0
 62
7
  6
CONTINUOUS
 10
176.0645993435
 20
79.4595651932
  0
VERTEX
  8
0
 62
7
  6
CONTINUOUS
 10
175.9639721203
 20
79.5307065321
  0
VERTEX
  8
0
 62
7
  6
CONTINUOUS
 10
175.8683732977
 20
79.5841615571
  0
VERTEX
  8
0
 62
7
  6
CONTINUOUS
 10
175.7825020541
 20
79.623099391
  0
VERTEX
  8
0
 62
7
  6
CONTINUOUS
 10
175.7038970766
 20
79.6529847213
  0
VERTEX
  8
0
 62
7
  6
CONTINUOUS
 10
175.6270804735
 20
79.6782725965
  0
VERTEX
  8
0
 62
7
  6
CONTINUOUS
 10
175.5468617823
 20
79.7017266906
  0
SEQEND
  0
LINE
  8
0
 62
7
  6
CONTINUOUS
 10
176.4490437391
 20
78.6665877582
 11
176.4490437391
 21
72.7579199004
  0
POLYLINE
  8
0
 62
7
  6
CONTINUOUS
 66
1
 70
0
  0
VERTEX
  8
0
 62
7
  6
CONTINUOUS
 10
185.8002199903
 20
78.645789493
  0
VERTEX
  8
0
 62
7
  6
CONTINUOUS
 10
185.7902006879
 20
78.7869925061
  0
VERTEX
  8
0
 62
7
  6
CONTINUOUS
 10
185.7490735191
 20
78.9615066248
  0
VERTEX
  8
0
 62
7
  6
CONTINUOUS
 10
185.6774446552
 20
79.12587032
  0
VERTEX
  8
0
 62
7
  6
CONTINUOUS
 10
185.5776186595
 20
79.2747986268
  0
VERTEX
  8
0
 62
7
  6
CONTINUOUS
 10
185.4528091974
 20
79.4035025323
  0
VERTEX
  8
0
 62
7
  6
CONTINUOUS
 10
185.3070388304
 20
79.5078435372
  0
VERTEX
  8
0
 62
7
  6
CONTINUOUS
 10
185.1450873519
 20
79.5844434682
  0
VERTEX
  8
0
 62
7
  6
CONTINUOUS
 10
184.9738674915
 20
79.6305974053
  0
SEQEND
  0
LINE
  8
0
 62
7
  6
CONTINUOUS
 10
185.800225326
 20
78.6458545746
 11
185.800225326
 21
72.778653084
  0
ARC
  8
0
 62
7
  6
CONTINUOUS
 10
37.7670663199
 20
154.3977533532
 40
9.525
 50
321.4615384615
 51
20.7692307692
  0
ARC
  8
0
 62
7
  6
CONTINUOUS
 10
57.2181193936
 20
145.9467442423
 40
2.0
 50
48.4615384615
 51
128.4615384615
  0
ARC
  8
0
 62
7
  6
CONTINUOUS
 10
46.4049229702
 20
142.4657726055
 40
2.0
 50
223.7998709709
 51
308.4615384615
  0
ARC
  8
0
 62
7
  6
CONTINUOUS
 10
44.5720006196
 20
144.442936162
 40
2.0
 50
141.4615384615
 51
221.8640233779
  0
ARC
  8
0
 62
7
  6
CONTINUOUS
 10
60.65073182
 20
144.2417011549
 40
1.5
 50
48.4615384615
 51
89.8711449096
  0
ARC
  8
0
 62
7
  6
CONTINUOUS
 10
60.6552291607
 20
146.2416960984
 40
0.5
 50
228.4621902322
 51
269.8712075544
  0
ARC
  8
0
 62
7
  6
CONTINUOUS
 10
25.2308846571
 20
190.1382946478
 40
9.525
 50
293.7692307692
 51
353.0769230769
  0
ARC
  8
0
 62
7
  6
CONTINUOUS
 10
38.5265570455
 20
173.6159426237
 40
2.0
 50
20.7692307692
 51
100.7692307692
  0
ARC
  8
0
 62
7
  6
CONTINUOUS
 10
27.334258935
 20
175.5588382546
 40
2.0
 50
196.1075632786
 51
280.7692307692
  0
ARC
  8
0
 62
7
  6
CONTINUOUS
 10
26.6301205148
 20
178.1613311283
 40
2.0
 50
113.7692307692
 51
194.1717156856
  0
ARC
  8
0
 62
7
  6
CONTINUOUS
 10
44.3196602407
 20
161.160824986
 40
1.5
 50
339.3595875063
 51
20.7692307692
  0
ARC
  8
0
 62
7
  6
CONTINUOUS
 10
40.7736113702
 20
170.5109874128
 40
1.5
 50
20.7692307692
 51
62.1787871609
  0
ARC
  8
0
 62
7
  6
CONTINUOUS
 10
34.1758745298
 20
193.081554945
 40
1.5
 50
311.6674046636
 51
353.0769230769
  0
ARC
  8
0
 62
7
  6
CONTINUOUS
 10
46.1912827771
 20
160.4558220915
 40
0.5
 50
159.35966457
 51
200.7688726026
  0
ARC
  8
0
 62
7
  6
CONTINUOUS
 10
41.7070375619
 20
172.2798049684
 40
0.5
 50
200.7692493242
 51
242.1790521553
  0
ARC
  8
0
 62
7
  6
CONTINUOUS
 10
35.5054828011
 20
191.587519522
 40
0.5
 50
131.6670264131
 51
173.0767930936
  0
ARC
  8
0
 62
7
  6
CONTINUOUS
 10
102.0120133379
 20
118.5910635213
 40
9.525
 50
16.8461538462
 51
76.1538461538
  0
ARC
  8
0
 62
7
  6
CONTINUOUS
 10
65.4767616329
 20
128.5769298114
 40
9.525
 50
349.1538461538
 51
48.4615384615
  0
ARC
  8
0
 62
7
  6
CONTINUOUS
 10
86.6271935433
 20
130.1332879553
 40
2.0
 50
76.1538461538
 51
156.1538461538
  0
ARC
  8
0
 62
7
  6
CONTINUOUS
 10
78.6702717945
 20
122.0258977026
 40
2.0
 50
251.4921786632
 51
336.1538461538
  0
ARC
  8
0
 62
7
  6
CONTINUOUS
 10
76.1284659349
 20
122.9247875985
 40
2.0
 50
169.1538461538
 51
249.5563310702
  0
ARC
  8
0
 62
7
  6
CONTINUOUS
 10
100.1684121063
 20
127.825605172
 40
1.5
 50
34.7443083848
 51
76.1538461538
  0
ARC
  8
0
 62
7
  6
CONTINUOUS
 10
90.458993932
 20
130.2187618148
 40
1.5
 50
76.1538461538
 51
117.5635025404
  0
ARC
  8
0
 62
7
  6
CONTINUOUS
 10
68.1358393017
 20
137.6104745725
 40
1.5
 50
7.0519445211
 51
48.4615384615
  0
ARC
  8
0
 62
7
  6
CONTINUOUS
 10
101.8118208959
 20
128.9654330318
 40
0.5
 50
214.7439710238
 51
256.1537568633
  0
ARC
  8
0
 62
7
  6
CONTINUOUS
 10
89.5335321352
 20
131.9917594073
 40
0.5
 50
256.1541774091
 51
297.5633654311
  0
ARC
  8
0
 62
7
  6
CONTINUOUS
 10
70.1207099358
 20
137.8560118736
 40
0.5
 50
187.0518318458
 51
228.4617815019
  0
ARC
  8
0
 62
7
  6
CONTINUOUS
 10
104.0015135561
 20
197.6986681739
 40
81.8
 50
83.4024849164
 51
85.3383325093
  0
ARC
  8
0
 62
7
  6
CONTINUOUS
 10
104.0015135561
 20
197.6986681739
 40
81.8
 50
277.2486387625
 51
279.1844863555
  0
ARC
  8
0
 62
7
  6
CONTINUOUS
 10
104.0015135561
 20
197.6986681739
 40
81.8
 50
249.5563310702
 51
251.4921786632
  0
ARC
  8
0
 62
7
  6
CONTINUOUS
 10
104.0015135561
 20
197.6986681739
 40
81.8
 50
221.8640233779
 51
223.7998709709
  0
ARC
  8
0
 62
7
  6
CONTINUOUS
 10
104.0015135561
 20
197.6986681739
 40
81.8
 50
194.1717156856
 51
196.1075632786
  0
ARC
  8
0
 62
7
  6
CONTINUOUS
 10
104.0015135561
 20
197.6986681739
 40
81.8
 50
166.4794079933
 51
168.4152555863
  0
ARC
  8
0
 62
7
  6
CONTINUOUS
 10
104.0015135561
 20
197.6986681739
 40
81.8
 50
138.787100301
 51
140.7229478939
  0
ARC
  8
0
 62
7
  6
CONTINUOUS
 10
104.0015135561
 20
197.6986681739
 40
81.8
 50
111.0947926087
 51
113.0306402016
  0
ARC
  8
0
 62
7
  6
CONTINUOUS
 10
104.0015135561
 20
197.6986681739
 40
81.8
 50
55.7101772241
 51
57.646024817
  0
ARC
  8
0
 62
7
  6
CONTINUOUS
 10
104.0015135561
 20
197.6986681739
 40
81.8
 50
28.0178695318
 51
29.9537171247
  0
ARC
  8
0
 62
7
  6
CONTINUOUS
 10
104.0015135561
 20
197.6986681739
 40
81.8
 50
0.3255618394
 51
2.2614094324
  0
ARC
  8
0
 62
7
  6
CONTINUOUS
 10
104.0015135561
 20
197.6986681739
 40
81.8
 50
332.6332541471
 51
334.5691017401
  0
ARC
  8
0
 62
7
  6
CONTINUOUS
 10
104.0015135561
 20
197.6986681739
 40
81.8
 50
304.9409464548
 51
306.8767940478
  0
ARC
  8
0
 62
2
  6
PHANTOM
 10
104.0015135561
 20
197.6986681739
 40
67.5
 50
202.7082876477
 51
205.4583378117
  0
ARC
  8
0
 62
2
  6
PHANTOM
 10
104.0015135561
 20
197.6986681739
 40
67.5
 50
230.3770495165
 51
233.2097292803
  0
ARC
  8
0
 62
2
  6
PHANTOM
 10
104.0015135561
 20
197.6986681739
 40
67.5
 50
258.0928725366
 51
260.8581414688
  0
ARC
  8
0
 62
2
  6
PHANTOM
 10
104.0015135561
 20
197.6986681739
 40
67.5
 50
285.7671518939
 51
288.5703234323
  0
ARC
  8
0
 62
2
  6
PHANTOM
 10
104.0015135561
 20
197.6986681739
 40
67.5
 50
313.4763054159
 51
316.2677050022
  0
ARC
  8
0
 62
2
  6
PHANTOM
 10
104.0015135561
 20
197.6986681739
 40
67.5
 50
341.157899561
 51
343.9357746811
  0
ARC
  8
0
 62
2
  6
PHANTOM
 10
104.0015135561
 20
197.6986681739
 40
67.5
 50
8.8586114951
 51
11.6884247357
  0
ARC
  8
0
 62
2
  6
PHANTOM
 10
104.0015135561
 20
197.6986681739
 40
67.5
 50
36.5473585098
 51
39.3066247323
  0
ARC
  8
0
 62
2
  6
PHANTOM
 10
104.0015135561
 20
197.6986681739
 40
67.5
 50
64.2398153286
 51
67.1219761611
  0
ARC
  8
0
 62
2
  6
PHANTOM
 10
104.0015135561
 20
197.6986681739
 40
67.5
 50
91.9355575871
 51
94.6834985565
  0
ARC
  8
0
 62
2
  6
PHANTOM
 10
104.0015135561
 20
197.6986681739
 40
67.5
 50
119.619940837
 51
122.5012837065
  0
ARC
  8
0
 62
2
  6
PHANTOM
 10
104.0015135561
 20
197.6986681739
 40
67.5
 50
147.3225248611
 51
150.0671210421
  0
ARC
  8
0
 62
2
  6
PHANTOM
 10
104.0015135561
 20
197.6986681739
 40
67.5
 50
174.9990113279
 51
177.8535203542
  0
ARC
  8
0
 62
7
  6
CONTINUOUS
 10
104.0015135561
 20
197.6986681739
 40
60.0
 50
94.0378043799
 51
85.9621956201
  0
CIRCLE
  8
0
 62
4
  6
CONTINUOUS
 10
104.0015135561
 20
197.6986681739
 40
9.525
  0
ARC
  8
0
 62
7
  6
CONTINUOUS
 10
30.7401047861
 20
227.6108264048
 40
9.525
 50
266.0769230769
 51
325.3846153846
  0
ARC
  8
0
 62
7
  6
CONTINUOUS
 10
34.8345181752
 20
206.8022032004
 40
2.0
 50
353.0769230769
 51
73.0769230769
  0
ARC
  8
0
 62
7
  6
CONTINUOUS
 10
25.8271389929
 20
213.7238721243
 40
2.0
 50
168.4152555863
 51
253.0769230769
  0
ARC
  8
0
 62
7
  6
CONTINUOUS
 10
26.4130941293
 20
216.3554945613
 40
2.0
 50
86.0769230769
 51
166.4794079933
  0
ARC
  8
0
 62
7
  6
CONTINUOUS
 10
46.9878043941
 20
237.902953612
 40
2.0
 50
325.3846153846
 51
45.3846153846
  0
ARC
  8
0
 62
7
  6
CONTINUOUS
 10
35.3812413324
 20
203.008643686
 40
1.5
 50
353.0769230769
 51
34.4865951778
  0
ARC
  8
0
 62
7
  6
CONTINUOUS
 10
40.0283012298
 20
226.0600099025
 40
1.5
 50
283.9750337811
 51
325.3846153846
  0
ARC
  8
0
 62
7
  6
CONTINUOUS
 10
45.7089486971
 20
234.2898485615
 40
1.5
 50
325.3846153846
 51
6.7942333965
  0
ARC
  8
0
 62
7
  6
CONTINUOUS
 10
37.0297596835
 20
204.1410690682
 40
0.5
 50
173.0771955043
 51
214.4863935783
  0
ARC
  8
0
 62
7
  6
CONTINUOUS
 10
40.5112980044
 20
224.1192074613
 40
0.5
 50
103.9748859792
 51
145.384744648
  0
ARC
  8
0
 62
7
  6
CONTINUOUS
 10
47.6949035202
 20
234.5264567625
 40
0.5
 50
145.3851690774
 51
186.7942497861
  0
ARC
  8
0
 62
7
  6
CONTINUOUS
 10
53.0326307686
 20
258.2308431918
 40
9.525
 50
238.3846153846
 51
297.6923076923
  0
ARC
  8
0
 62
7
  6
CONTINUOUS
 10
42.22882616
 20
248.2177248937
 40
2.0
 50
140.7229478939
 51
225.3846153846
  0
ARC
  8
0
 62
7
  6
CONTINUOUS
 10
43.9706395928
 20
250.2756039081
 40
2.0
 50
58.3846153846
 51
138.787100301
  0
ARC
  8
0
 62
7
  6
CONTINUOUS
 10
60.5362199129
 20
252.5412232613
 40
1.5
 50
256.2826774983
 51
297.6923076923
  0
ARC
  8
0
 62
7
  6
CONTINUOUS
 10
60.0619564506
 20
250.5982682519
 40
0.5
 50
76.2827098373
 51
117.6918175349
  0
ARC
  8
0
 62
7
  6
CONTINUOUS
 10
87.0015135561
 20
274.9836681739
 40
9.525
 50
210.6923076923
 51
270.0
  0
ARC
  8
0
 62
7
  6
CONTINUOUS
 10
104.0015135561
 20
254.1986681739
 40
5.0
 50
48.2231635838
 51
131.7768364162
  0
ARC
  8
0
 62
7
  6
CONTINUOUS
 10
75.2805348308
 20
272.1509708989
 40
2.0
 50
30.6923076923
 51
111.0947926087
  0
ARC
  8
0
 62
7
  6
CONTINUOUS
 10
72.2022442923
 20
259.7933867439
 40
2.0
 50
297.6923076923
 51
17.6923076923
  0
ARC
  8
0
 62
7
  6
CONTINUOUS
 10
72.7818915679
 20
271.1382705892
 40
2.0
 50
113.0306402016
 51
197.6923076923
  0
ARC
  8
0
 62
7
  6
CONTINUOUS
 10
91.0015135561
 20
266.4586681739
 40
1.5
 50
228.5903069365
 51
270.0
  0
ARC
  8
0
 62
7
  6
CONTINUOUS
 10
101.0015135561
 20
266.4586681739
 40
1.5
 50
270.0
 51
311.4096906751
  0
ARC
  8
0
 62
7
  6
CONTINUOUS
 10
99.6710118342
 20
259.0460133067
 40
1.5
 50
274.0378043799
 51
311.7768364162
  0
ARC
  8
0
 62
7
  6
CONTINUOUS
 10
69.3907801695
 20
257.1884549817
 40
1.5
 50
297.6923076923
 51
339.1018779814
  0
ARC
  8
0
 62
7
  6
CONTINUOUS
 10
89.6786379006
 20
264.9586681739
 40
0.5
 50
48.5905656179
 51
89.999814678
  0
ARC
  8
0
 62
7
  6
CONTINUOUS
 10
102.3243892117
 20
264.9586681739
 40
0.5
 50
90.0002077088
 51
131.4094164119
  0
ARC
  8
0
 62
7
  6
CONTINUOUS
 10
71.2592131479
 20
256.4750419141
 40
0.5
 50
117.6922523251
 51
159.1020852622
  0
ARC
  8
0
 62
7
  6
CONTINUOUS
 10
139.0030355669
 20
126.727796107
 40
9.525
 50
44.5384615385
 51
103.8461538462
  0
ARC
  8
0
 62
7
  6
CONTINUOUS
 10
120.0165150247
 20
129.7982460253
 40
2.0
 50
103.8461538462
 51
183.8461538462
  0
ARC
  8
0
 62
7
  6
CONTINUOUS
 10
116.7387028318
 20
118.9217425589
 40
2.0
 50
279.1844863555
 51
3.8461538462
  0
ARC
  8
0
 62
7
  6
CONTINUOUS
 10
114.0703105537
 20
118.5364339519
 40
2.0
 50
196.8461538462
 51
277.2486387625
  0
ARC
  8
0
 62
7
  6
CONTINUOUS
 10
133.0791022591
 20
134.0478124434
 40
1.5
 50
62.4364962616
 51
103.8461538462
  0
ARC
  8
0
 62
7
  6
CONTINUOUS
 10
123.3696840848
 20
131.6546558006
 40
1.5
 50
103.8461538462
 51
145.2556944375
  0
ARC
  8
0
 62
7
  6
CONTINUOUS
 10
134.0045640559
 20
135.8208100359
 40
0.5
 50
242.4366381627
 51
283.8458083575
  0
ARC
  8
0
 62
7
  6
CONTINUOUS
 10
121.7262752952
 20
132.7944836604
 40
0.5
 50
283.8462380081
 51
325.2560205093
  0
CIRCLE
  8
LAY0001
 62
7
  6
CONTINUOUS
 10
137.3769536282
 20
155.0954846074
 40
1.275
  0
ARC
  8
LAY0001
 62
7
  6
CONTINUOUS
 10
136.8112682032
 20
157.9592670712
 40
1.0
 50
225.0
 51
315.0
  0
ARC
  8
LAY0001
 62
7
  6
CONTINUOUS
 10
139.3568526155
 20
160.9291155522
 40
1.0
 50
45.0
 51
135.0
  0
ARC
  8
LAY0001
 62
7
  6
CONTINUOUS
 10
137.0599354003
 20
158.0665129121
 40
0.9
 50
315.0
 51
11.2510114041
  0
ARC
  8
LAY0001
 62
7
  6
CONTINUOUS
 10
139.1081854184
 20
160.8218697114
 40
0.9
 50
135.0
 51
191.2510114041
  0
ARC
  8
LAY0001
 62
7
  6
CONTINUOUS
 10
137.0234002376
 20
158.4542418181
 40
0.5
 50
315.0
 51
45.0
  0
ARC
  8
LAY0001
 62
7
  6
CONTINUOUS
 10
139.1447205811
 20
160.4341408054
 40
0.5
 50
135.0
 51
225.0
  0
ARC
  8
LAY0001
 62
7
  6
CONTINUOUS
 10
136.9173342204
 20
157.9946224103
 40
0.25
 50
225.0
 51
315.0
  0
ARC
  8
LAY0001
 62
7
  6
CONTINUOUS
 10
139.2507865983
 20
160.8937602132
 40
0.25
 50
45.0
 51
135.0
  0
ARC
  8
0
 62
7
  6
CONTINUOUS
 10
167.9756309172
 20
151.1231001916
 40
9.525
 50
72.2307692308
 51
131.5384615385
  0
ARC
  8
0
 62
7
  6
CONTINUOUS
 10
149.7369926713
 20
145.0183725207
 40
2.0
 50
131.5384615385
 51
211.5384615385
  0
ARC
  8
0
 62
7
  6
CONTINUOUS
 10
151.8891973058
 20
133.8644317087
 40
2.0
 50
306.8767940478
 51
31.5384615385
  0
ARC
  8
0
 62
7
  6
CONTINUOUS
 10
149.7055151224
 20
132.2831941572
 40
2.0
 50
224.5384615385
 51
304.9409464548
  0
ARC
  8
0
 62
7
  6
CONTINUOUS
 10
151.8433597813
 20
148.2204371044
 40
1.5
 50
131.5384615385
 51
172.9480564164
  0
ARC
  8
0
 62
7
  6
CONTINUOUS
 10
149.8584891473
 20
148.4659744054
 40
0.5
 50
311.5382251798
 51
352.9481653416
  0
ARC
  8
0
 62
7
  6
CONTINUOUS
 10
182.2925269518
 20
186.1883056045
 40
9.525
 50
99.9230769231
 51
159.2307692308
  0
ARC
  8
0
 62
7
  6
CONTINUOUS
 10
168.980023225
 20
172.3069198839
 40
2.0
 50
159.2307692308
 51
239.2307692308
  0
ARC
  8
0
 62
7
  6
CONTINUOUS
 10
176.069200542
 20
163.4307751468
 40
2.0
 50
334.5691017401
 51
59.2307692308
  0
ARC
  8
0
 62
7
  6
CONTINUOUS
 10
174.8704837253
 20
161.0158511178
 40
2.0
 50
252.2307692308
 51
332.6332541471
  0
ARC
  8
0
 62
7
  6
CONTINUOUS
 10
172.9030939348
 20
185.4712472958
 40
1.5
 50
117.8212151129
 51
159.2307692308
  0
ARC
  8
0
 62
7
  6
CONTINUOUS
 10
169.3570450643
 20
176.1210848689
 40
1.5
 50
159.2307692308
 51
200.6404117763
  0
ARC
  8
0
 62
7
  6
CONTINUOUS
 10
159.328467263
 20
154.8516636868
 40
1.5
 50
90.1288556262
 51
131.5384615385
  0
ARC
  8
0
 62
7
  6
CONTINUOUS
 10
171.9696677431
 20
187.2400648513
 40
0.5
 50
297.8209431474
 51
339.2307489444
  0
ARC
  8
0
 62
7
  6
CONTINUOUS
 10
167.4854225279
 20
175.4160819745
 40
0.5
 50
339.2311670375
 51
20.6403300314
  0
ARC
  8
0
 62
7
  6
CONTINUOUS
 10
159.3239699223
 20
156.8516586303
 40
0.5
 50
270.1287908381
 51
311.5377837246
  0
ARC
  8
0
 62
7
  6
CONTINUOUS
 10
124.8648914714
 20
274.0314310413
 40
9.525
 50
183.0
 51
242.3076923077
  0
ARC
  8
0
 62
7
  6
CONTINUOUS
 10
104.7015135561
 20
267.4586681739
 40
2.0
 50
270.0
 51
350.0
  0
ARC
  8
0
 62
7
  6
CONTINUOUS
 10
110.4869961361
 20
277.2346884145
 40
2.0
 50
85.3383325093
 51
170.0
  0
ARC
  8
0
 62
7
  6
CONTINUOUS
 10
113.1700601694
 20
276.970212583
 40
2.0
 50
3.0
 51
83.4024849164
  0
ARC
  8
0
 62
7
  6
CONTINUOUS
 10
137.0404212559
 20
259.1427743031
 40
2.0
 50
242.3076923077
 51
322.3076923077
  0
ARC
  8
0
 62
7
  6
CONTINUOUS
 10
124.4449505324
 20
264.6240257344
 40
1.5
 50
200.8981238098
 51
242.3076923077
  0
ARC
  8
0
 62
7
  6
CONTINUOUS
 10
133.2995107889
 20
259.976794014
 40
1.5
 50
242.3076923077
 51
283.7173222228
  0
ARC
  8
0
 62
7
  6
CONTINUOUS
 10
108.3320152781
 20
259.0460133067
 40
1.5
 50
228.2231635838
 51
265.9621956201
  0
ARC
  8
0
 62
7
  6
CONTINUOUS
 10
122.5765175539
 20
263.9106126668
 40
0.5
 50
20.8979093642
 51
62.3077476875
  0
ARC
  8
0
 62
7
  6
CONTINUOUS
 10
133.7737742512
 20
258.0338390046
 40
0.5
 50
62.3081630906
 51
103.7172909994
  0
ARC
  8
0
 62
7
  6
CONTINUOUS
 10
178.6738953265
 20
223.8903963671
 40
9.525
 50
127.6153846154
 51
186.9230769231
  0
ARC
  8
0
 62
7
  6
CONTINUOUS
 10
161.8105133636
 20
236.7507761998
 40
2.0
 50
214.6153846154
 51
294.6153846154
  0
ARC
  8
0
 62
7
  6
CONTINUOUS
 10
173.1425489907
 20
237.5428298421
 40
2.0
 50
29.9537171247
 51
114.6153846154
  0
ARC
  8
0
 62
7
  6
CONTINUOUS
 10
174.4490437391
 20
235.1844720352
 40
2.0
 50
307.6153846154
 51
28.0178695318
  0
ARC
  8
0
 62
7
  6
CONTINUOUS
 10
173.3372602894
 20
205.4124107767
 40
2.0
 50
186.9230769231
 51
266.9230769231
  0
ARC
  8
0
 62
7
  6
CONTINUOUS
 10
183.7393651994
 20
200.8474799046
 40
2.0
 50
2.2614094324
 51
86.9230769231
  0
ARC
  8
0
 62
7
  6
CONTINUOUS
 10
183.800225326
 20
198.1520993901
 40
2.0
 50
279.9230769231
 51
0.3255618394
  0
ARC
  8
0
 62
7
  6
CONTINUOUS
 10
170.6931988958
 20
218.8919856715
 40
1.5
 50
145.5134030787
 51
186.9230769231
  0
ARC
  8
0
 62
7
  6
CONTINUOUS
 10
171.8985656984
 20
208.9648969306
 40
1.5
 50
186.9230769231
 51
228.3325988081
  0
ARC
  8
0
 62
7
  6
CONTINUOUS
 10
158.4026931602
 20
237.2869493156
 40
0.5
 50
34.6152463368
 51
76.0251241874
  0
ARC
  8
0
 62
7
  6
CONTINUOUS
 10
169.0446805448
 20
220.0244110537
 40
0.5
 50
325.5136100192
 51
6.922796428
  0
ARC
  8
0
 62
7
  6
CONTINUOUS
 10
170.5689574271
 20
207.4708615076
 40
0.5
 50
6.9232237692
 51
48.3329997049
  0
ARC
  8
0
 62
7
  6
CONTINUOUS
 10
157.9487209373
 20
255.5922778452
 40
9.525
 50
155.3076923077
 51
214.6153846154
  0
ARC
  8
0
 62
7
  6
CONTINUOUS
 10
146.7063548037
 20
265.1103625156
 40
2.0
 50
57.646024817
 51
142.3076923077
  0
ARC
  8
0
 62
7
  6
CONTINUOUS
 10
148.9591819719
 20
263.6292987686
 40
2.0
 50
335.3076923077
 51
55.7101772241
  0
ARC
  8
0
 62
7
  6
CONTINUOUS
 10
153.2050424675
 20
247.4575904158
 40
1.5
 50
173.2057667379
 51
214.6153846154
  0
ARC
  8
0
 62
7
  6
CONTINUOUS
 10
158.8856899348
 20
239.2277517568
 40
1.5
 50
214.6153846154
 51
256.0249675704
  0
ARC
  8
0
 62
7
  6
CONTINUOUS
 10
151.2190876444
 20
247.6941986168
 40
0.5
 50
353.2057498108
 51
34.6148084932
  0
ARC
  8
0
 62
7
  6
CONTINUOUS
 10
180.8015135561
 20
70.2122538293
 40
10.0
 50
80.0000000039
 51
90.0000555656
  0
ARC
  8
0
 62
7
  6
CONTINUOUS
 10
180.8015135561
 20
81.2122538293
 40
10.0
 50
269.9999433288
 51
279.999999996
  0
ARC
  8
0
 62
7
  6
CONTINUOUS
 10
162.5015135561
 20
93.7122538293
 40
1.5
 50
0.0
 51
90.0
  0
ARC
  8
0
 62
7
  6
CONTINUOUS
 10
45.5015135561
 20
93.7122538293
 40
1.5
 50
90.0
 51
180.0
  0
ARC
  8
0
 62
7
  6
CONTINUOUS
 10
165.5015135561
 20
81.7122538293
 40
1.5
 50
180.0
 51
270.0
  0
ARC
  8
0
 62
7
  6
CONTINUOUS
 10
42.5015135561
 20
81.7122538293
 40
1.5
 50
270.0
 51
360.0
  0
ARC
  8
0
 62
7
  6
CONTINUOUS
 10
165.5015135561
 20
69.7122538293
 40
1.5
 50
90.0
 51
180.0
  0
ARC
  8
0
 62
7
  6
CONTINUOUS
 10
42.5015135561
 20
69.7122538293
 40
1.5
 50
0.0
 51
90.0
  0
ARC
  8
0
 62
7
  6
CONTINUOUS
 10
162.5015135561
 20
57.7122538293
 40
1.5
 50
270.0
 51
360.0
  0
ARC
  8
0
 62
7
  6
CONTINUOUS
 10
45.5015135561
 20
57.7122538293
 40
1.5
 50
180.0
 51
270.0
  0
ENDSEC
  0
EOF
