  0
SECTION
  2
HEADER
  9
$EXTMAX
 10
210.0
 20
297.0
 30
0.0
  9
$EXTMIN
 10
0.0
 20
0.0
 30
0.0
  9
$LIMMIN
 10
0.0
 20
0.0
  9
$LIMMAX
 10
210.0
 20
297.0
  9
$VIEWCTR
 10
105.0
 20
148.5
  9
$VIEWSIZE
 40
297.0
  9
$CLAYER
  8
0
  9
$LTSCALE
 40
19.36
  9
$CELTYPE
  6
BYLAYER
  9
$DIMSCALE
 40
1.0
  9
$DIMASZ
 40
3.5
  9
$DIMEXO
 40
2.2
  9
$DIMDLI
 40
13.376
  9
$DIMEXE
 40
6.336
  9
$DIMCEN
 40
3.168
  9
$DIMLFAC
 40
1.0
  9
$DIMBLK
  1
_FILLED
  9
$DIMTXT
 40
3.5
  9
$PDMODE
 70
3
  9
$PDSIZE
 40
0.3125
  9
$TILEMODE
 70
1
  0
ENDSEC
  0
SECTION
  2
TABLES
  0
TABLE
  2
LTYPE
 70
6
  0
LTYPE
  2
BYBLOCK
 70
0
  3

 72
65
 73
0
 40
0.0
  0
LTYPE
  2
BYLAYER
 70
0
  3

 72
65
 73
0
 40
0.0
  0
LTYPE
  2
CONTINUOUS
 70
64
  3
Solid line
 72
65
 73
0
 40
0.0
  0
LTYPE
  2
CENTER
 70
64
  3
____ _ ____ _ ____ _ ____ _ ____ _ ____ _ ____
 72
65
 73
4
 40
0.6
 49
0.375
 49
-0.075
 49
0.075
 49
-0.075
  0
LTYPE
  2
HIDDEN
 70
64
  3
- - - - - - - - - - - - - - - - - - - -
 72
65
 73
2
 40
0.2
 49
0.1
 49
-0.1
  0
LTYPE
  2
PHANTOM
 70
64
  3
_____ _ _ _____ _ _ _____ _ _ _____
 72
65
 73
6
 40
0.8
 49
0.45
 49
-0.05
 49
0.1
 49
-0.05
 49
0.1
 49
-0.05
  0
LTYPE
  2
DOT
 70
64
  3
. . . . . . . . . . . . . . . . . . . .
 72
65
 73
2
 40
0.2
 49
0.1
 49
-0.1
  0
LTYPE
  2
DASHED
 70
64
  3
- - - - - - - - - - - - - - - - - - - -
 72
65
 73
2
 40
0.2
 49
0.1
 49
-0.1
  0
ENDTAB
  0
TABLE
  2
LAYER
 70
36
  0
LAYER
  2
0
 70
0
 62
7
  6
CONTINUOUS
  0
LAYER
  2
DEFAULT_1
 70
0
 62
7
  6
CENTER
  0
LAYER
  2
DEFAULT_2
 70
0
 62
8
  6
HIDDEN
  0
LAYER
  2
DEFAULT_3
 70
0
 62
7
  6
PHANTOM
  0
ENDTAB
  0
TABLE
  2
STYLE
 70
1
  0
STYLE
  2
STANDARD
 70
0
 40
0.0
 41
0.8
 50
0.0
 71
0
 42
0.2
  3
txt
  4

  0
STYLE
  2
TEXTSTYLE_1
 70
0
 40
0.0
 41
0.8
 50
0.0
 71
0
 42
0.2
  3
gdt
  4

  0
STYLE
  2
TEXTSTYLE_2
 70
0
 40
0.0
 41
0.6
 50
0.0
 71
0
 42
0.2
  3
txt
  4

  0
STYLE
  2
TEXTSTYLE_3
 70
0
 40
0.0
 41
1.0
 50
0.0
 71
0
 42
0.2
  3
ftb_____.ttf
  4

  0
STYLE
  2
TEXTSTYLE_4
 70
0
 40
0.0
 41
1.0
 50
0.0
 71
0
 42
0.2
  3
fti_____.ttf
  4

  0
STYLE
  2
TEXTSTYLE_5
 70
0
 40
0.0
 41
1.0
 50
0.0
 71
0
 42
0.2
  3
frutiger light.ttf
  4

  0
STYLE
  2
TEXTSTYLE_6
 70
0
 40
0.0
 41
0.7
 50
0.0
 71
0
 42
0.2
  3
txt
  4

  0
STYLE
  2
TEXTSTYLE_7
 70
0
 40
0.0
 41
0.8
 50
0.0
 71
0
 42
0.2
  3
txt
  4

  0
ENDTAB
  0
ENDSEC
  0
SECTION
  2
BLOCKS
  0
BLOCK
  8
0
 62
2
  6
CONTINUOUS
  2
SYMBOL_8_BL1
 70
64
 10
173.5956734183
 20
35.5937998301
  0
TEXT
  8
0
 62
7
  6
CONTINUOUS
 10
164.6539584268
 20
30.6865562072
  7
TEXTSTYLE_4
 40
1.0655737705
  1
The brand for plastic modular belts and chains
 41
1.0
 72
0
  0
LINE
  8
0
 62
7
  6
CONTINUOUS
 10
149.5737418074
 20
36.1675703219
 11
149.5737418074
 21
34.0364227809
  0
LINE
  8
0
 62
7
  6
CONTINUOUS
 10
149.8628043005
 20
31.0454914852
 11
149.8628043005
 21
31.1422825445
  0
LINE
  8
0
 62
7
  6
CONTINUOUS
 10
149.5737418074
 20
31.1100188581
 11
149.6315543091
 21
30.9164367395
  0
LINE
  8
0
 62
7
  6
CONTINUOUS
 10
150.9671844304
 20
33.9544555678
 11
150.9671844304
 21
36.1675703219
  0
LINE
  8
0
 62
7
  6
CONTINUOUS
 10
151.8862417523
 20
32.1101932727
 11
151.8862417523
 21
30.5937998301
  0
LINE
  8
0
 62
7
  6
CONTINUOUS
 10
152.1753043074
 20
30.5937998301
 11
152.1753043074
 21
31.3358647082
  0
LINE
  8
0
 62
7
  6
CONTINUOUS
 10
152.1753043074
 20
31.4649194539
 11
152.1753043074
 21
32.1101932727
  0
LINE
  8
0
 62
7
  6
CONTINUOUS
 10
149.6315543091
 20
31.3036010218
 11
149.5737418074
 21
31.1100188581
  0
LINE
  8
0
 62
7
  6
CONTINUOUS
 10
149.9784292936
 20
30.8841730531
 11
149.8628043005
 21
31.0454914852
  0
LINE
  8
0
 62
7
  6
CONTINUOUS
 10
151.0768668626
 20
31.400392081
 11
151.1346793074
 21
31.3036010218
  0
LINE
  8
0
 62
7
  6
CONTINUOUS
 10
151.4237418626
 20
31.3036010218
 11
151.3659292523
 21
31.4326557675
  0
LINE
  8
0
 62
7
  6
CONTINUOUS
 10
152.852430332
 20
36.1675703219
 11
152.852430332
 21
34.3642916334
  0
LINE
  8
0
 62
7
  6
CONTINUOUS
 10
152.852430332
 20
33.0528162235
 11
152.852430332
 21
32.3970785186
  0
LINE
  8
0
 62
7
  6
CONTINUOUS
 10
153.2159293074
 20
31.2390736489
 11
153.2159293074
 21
30.5937998301
  0
LINE
  8
0
 62
7
  6
CONTINUOUS
 10
153.5049916972
 20
30.5937998301
 11
153.5049916972
 21
31.2390736489
  0
LINE
  8
0
 62
7
  6
CONTINUOUS
 10
149.8628043005
 20
31.1422825445
 11
149.9206168074
 21
31.2713373354
  0
LINE
  8
0
 62
7
  6
CONTINUOUS
 10
149.6315543091
 20
30.9164367395
 11
149.7471793074
 21
30.7873819712
  0
LINE
  8
0
 62
7
  6
CONTINUOUS
 10
153.1581166972
 20
31.3681283946
 11
153.2159293074
 21
31.2390736489
  0
LINE
  8
0
 62
7
  6
CONTINUOUS
 10
153.9674919177
 20
30.8841730531
 11
154.0253041972
 21
30.7551182848
  0
LINE
  8
0
 62
7
  6
CONTINUOUS
 10
153.5049916972
 20
31.2390736489
 11
153.4471794177
 21
31.400392081
  0
LINE
  8
0
 62
7
  6
CONTINUOUS
 10
153.9674919177
 20
31.4326557675
 11
153.9674919177
 21
31.3681283946
  0
LINE
  8
0
 62
7
  6
CONTINUOUS
 10
153.9674919177
 20
30.9809641124
 11
153.9674919177
 21
30.8841730531
  0
LINE
  8
0
 62
7
  6
CONTINUOUS
 10
154.245872955
 20
32.3970785186
 11
154.245872955
 21
36.1675703219
  0
LINE
  8
0
 62
7
  6
CONTINUOUS
 10
154.2565543074
 20
30.8519093441
 11
154.2565543074
 21
30.9164367395
  0
LINE
  8
0
 62
7
  6
CONTINUOUS
 10
154.5737418074
 20
36.1675703219
 11
154.5737418074
 21
32.3970785186
  0
LINE
  8
0
 62
7
  6
CONTINUOUS
 10
151.3659292523
 20
30.7873819712
 11
151.4237418626
 21
30.9164367395
  0
LINE
  8
0
 62
7
  6
CONTINUOUS
 10
155.759679528
 20
30.6905909007
 11
155.7018665869
 21
30.8519093441
  0
LINE
  8
0
 62
7
  6
CONTINUOUS
 10
155.412804528
 20
31.3681283946
 11
155.412804528
 21
31.2713373354
  0
LINE
  8
0
 62
7
  6
CONTINUOUS
 10
155.412804528
 20
31.1422825445
 11
155.412804528
 21
30.9487004259
  0
LINE
  8
0
 62
7
  6
CONTINUOUS
 10
155.7018665869
 20
30.8519093441
 11
155.7018665869
 21
31.3681283946
  0
LINE
  8
0
 62
7
  6
CONTINUOUS
 10
155.9671844304
 20
32.3970785186
 11
155.9671844304
 21
34.2003572071
  0
LINE
  8
0
 62
7
  6
CONTINUOUS
 10
155.9671844304
 20
35.511832617
 11
155.9671844304
 21
36.1675703219
  0
LINE
  8
0
 62
7
  6
CONTINUOUS
 10
156.279992028
 20
32.1101932727
 11
156.279992028
 21
31.9488748406
  0
LINE
  8
0
 62
7
  6
CONTINUOUS
 10
156.279992028
 20
31.626237886
 11
156.279992028
 21
30.5937998301
  0
LINE
  8
0
 62
7
  6
CONTINUOUS
 10
156.5690540869
 20
30.5937998301
 11
156.5690540869
 21
31.626237886
  0
LINE
  8
0
 62
7
  6
CONTINUOUS
 10
156.5690540869
 20
31.9488748406
 11
156.5690540869
 21
32.1101932727
  0
LINE
  8
0
 62
7
  6
CONTINUOUS
 10
151.1346793074
 20
30.9164367395
 11
151.0768668626
 21
30.8196456577
  0
LINE
  8
0
 62
7
  6
CONTINUOUS
 10
153.4471794177
 20
31.400392081
 11
153.3893668074
 21
31.4649194539
  0
LINE
  8
0
 62
7
  6
CONTINUOUS
 10
154.3143669177
 20
30.7873819712
 11
154.2565543074
 21
30.8519093441
  0
LINE
  8
0
 62
7
  6
CONTINUOUS
 10
155.4706168074
 20
30.6583272086
 11
155.5284290869
 21
30.5937998301
  0
LINE
  8
0
 62
7
  6
CONTINUOUS
 10
155.412804528
 20
30.7551182848
 11
155.4706168074
 21
30.6583272086
  0
LINE
  8
0
 62
7
  6
CONTINUOUS
 10
155.8174918074
 20
30.5937998301
 11
155.759679528
 21
30.6905909007
  0
LINE
  8
0
 62
7
  6
CONTINUOUS
 10
155.7018665869
 20
31.3681283946
 11
155.6440543074
 21
31.4649194539
  0
LINE
  8
0
 62
7
  6
CONTINUOUS
 10
157.0315543074
 20
31.626237886
 11
157.0315543074
 21
30.5937998301
  0
LINE
  8
0
 62
7
  6
CONTINUOUS
 10
157.320617028
 20
30.5937998301
 11
157.320617028
 21
31.3358647082
  0
LINE
  8
0
 62
7
  6
CONTINUOUS
 10
157.320617028
 20
31.4649194539
 11
157.320617028
 21
31.626237886
  0
LINE
  8
0
 62
7
  6
CONTINUOUS
 10
157.852430332
 20
34.6101932727
 11
157.852430332
 21
32.3970785186
  0
LINE
  8
0
 62
7
  6
CONTINUOUS
 10
149.7471793074
 20
31.4326557675
 11
149.6315543091
 21
31.3036010218
  0
LINE
  8
0
 62
7
  6
CONTINUOUS
 10
149.9206168074
 20
31.2713373354
 11
149.9784292936
 21
31.3358647082
  0
LINE
  8
0
 62
7
  6
CONTINUOUS
 10
149.7471793074
 20
30.7873819712
 11
149.8628043005
 21
30.7228545871
  0
LINE
  8
0
 62
7
  6
CONTINUOUS
 10
150.1518667936
 20
30.7873819712
 11
149.9784292936
 21
30.8841730531
  0
LINE
  8
0
 62
7
  6
CONTINUOUS
 10
155.3549915869
 20
31.4326557675
 11
155.412804528
 21
31.3681283946
  0
LINE
  8
0
 62
7
  6
CONTINUOUS
 10
158.3034290869
 20
31.3681283946
 11
158.361242028
 21
31.2068099625
  0
LINE
  8
0
 62
7
  6
CONTINUOUS
 10
158.6503040869
 20
31.2068099625
 11
158.5924918074
 21
31.3681283946
  0
LINE
  8
0
 62
7
  6
CONTINUOUS
 10
158.361242028
 20
31.2068099625
 11
158.361242028
 21
30.5937998301
  0
LINE
  8
0
 62
7
  6
CONTINUOUS
 10
158.6503040869
 20
30.5937998301
 11
158.6503040869
 21
31.2068099625
  0
LINE
  8
0
 62
7
  6
CONTINUOUS
 10
159.1128043074
 20
31.4326557675
 11
159.1128043074
 21
31.3681283946
  0
LINE
  8
0
 62
7
  6
CONTINUOUS
 10
159.245872955
 20
32.3970785186
 11
159.245872955
 21
34.5282260596
  0
LINE
  8
0
 62
7
  6
CONTINUOUS
 10
159.5737418074
 20
36.1675703219
 11
159.5737418074
 21
32.3970785186
  0
LINE
  8
0
 62
7
  6
CONTINUOUS
 10
154.2565543074
 20
30.9164367395
 11
154.3143669177
 21
31.0132277988
  0
LINE
  8
0
 62
7
  6
CONTINUOUS
 10
149.8628043005
 20
30.7228545871
 11
150.0362418212
 21
30.6583272086
  0
LINE
  8
0
 62
7
  6
CONTINUOUS
 10
151.3659292523
 20
31.4326557675
 11
151.1924917523
 21
31.5294468267
  0
LINE
  8
0
 62
7
  6
CONTINUOUS
 10
154.0253041972
 20
30.7551182848
 11
154.1987416972
 21
30.6583272086
  0
LINE
  8
0
 62
7
  6
CONTINUOUS
 10
153.0424918074
 20
31.4326557675
 11
153.1581166972
 21
31.3681283946
  0
LINE
  8
0
 62
7
  6
CONTINUOUS
 10
153.3893668074
 20
31.4649194539
 11
153.2737419177
 21
31.5294468267
  0
LINE
  8
0
 62
7
  6
CONTINUOUS
 10
159.1128043074
 20
30.8519093441
 11
159.228429528
 21
30.7228545871
  0
LINE
  8
0
 62
7
  6
CONTINUOUS
 10
159.4596793074
 20
30.7873819712
 11
159.401867028
 21
30.8519093441
  0
LINE
  8
0
 62
7
  6
CONTINUOUS
 10
159.1128043074
 20
31.3681283946
 11
159.228429528
 21
31.2390736489
  0
LINE
  8
0
 62
7
  6
CONTINUOUS
 10
158.5924918074
 20
31.3681283946
 11
158.534679528
 21
31.4649194539
  0
LINE
  8
0
 62
7
  6
CONTINUOUS
 10
160.9628038663
 20
30.7873819712
 11
160.9628038663
 21
30.8519093441
  0
LINE
  8
0
 62
7
  6
CONTINUOUS
 10
160.9671844304
 20
32.3970785186
 11
160.9671844304
 21
36.1675703219
  0
LINE
  8
0
 62
7
  6
CONTINUOUS
 10
154.0253041972
 20
31.4971831403
 11
153.9674919177
 21
31.4326557675
  0
LINE
  8
0
 62
7
  6
CONTINUOUS
 10
150.9034292799
 20
31.4649194539
 11
151.0768668626
 21
31.400392081
  0
LINE
  8
0
 62
7
  6
CONTINUOUS
 10
155.6440543074
 20
31.4649194539
 11
155.5284290869
 21
31.5294468267
  0
LINE
  8
0
 62
7
  6
CONTINUOUS
 10
159.4596793074
 20
31.3036010218
 11
159.401867028
 21
31.3681283946
  0
LINE
  8
0
 62
7
  6
CONTINUOUS
 10
160.615929528
 20
30.9164367395
 11
160.6737418074
 21
30.8519093441
  0
LINE
  8
0
 62
7
  6
CONTINUOUS
 10
160.9628038663
 20
30.8519093441
 11
160.8471793074
 21
30.9809641124
  0
LINE
  8
0
 62
7
  6
CONTINUOUS
 10
160.615929528
 20
31.4326557675
 11
160.6737418074
 21
31.3681283946
  0
LINE
  8
0
 62
7
  6
CONTINUOUS
 10
160.9628038663
 20
31.3681283946
 11
160.8471793074
 21
31.4971831403
  0
LINE
  8
0
 62
7
  6
CONTINUOUS
 10
154.2565543074
 20
31.3681283946
 11
154.3143669177
 21
31.4326557675
  0
LINE
  8
0
 62
7
  6
CONTINUOUS
 10
154.0831168074
 20
31.1100188581
 11
153.9674919177
 21
30.9809641124
  0
LINE
  8
0
 62
7
  6
CONTINUOUS
 10
155.412804528
 20
30.9487004259
 11
155.3549915869
 21
30.8841730531
  0
LINE
  8
0
 62
7
  6
CONTINUOUS
 10
155.3549915869
 20
30.6905909007
 11
155.412804528
 21
30.7551182848
  0
LINE
  8
0
 62
7
  6
CONTINUOUS
 10
154.1987416972
 20
30.6583272086
 11
154.3143669177
 21
30.6260635193
  0
LINE
  8
0
 62
7
  6
CONTINUOUS
 10
151.1924917523
 20
31.5294468267
 11
150.9612418074
 21
31.5939741996
  0
LINE
  8
0
 62
7
  6
CONTINUOUS
 10
154.5456166972
 20
30.7228545871
 11
154.3143669177
 21
30.7873819712
  0
LINE
  8
0
 62
7
  6
CONTINUOUS
 10
153.2737419177
 20
31.5294468267
 11
153.1003044177
 21
31.5939741996
  0
LINE
  8
0
 62
7
  6
CONTINUOUS
 10
155.5284290869
 20
31.5294468267
 11
155.3549915869
 21
31.5939741996
  0
LINE
  8
0
 62
7
  6
CONTINUOUS
 10
158.187804528
 20
31.4326557675
 11
158.3034290869
 21
31.3681283946
  0
LINE
  8
0
 62
7
  6
CONTINUOUS
 10
158.534679528
 20
31.4649194539
 11
158.4190543074
 21
31.5294468267
  0
LINE
  8
0
 62
7
  6
CONTINUOUS
 10
150.0362418212
 20
30.6583272086
 11
150.2096793212
 21
30.6260635193
  0
LINE
  8
0
 62
7
  6
CONTINUOUS
 10
150.498741835
 20
30.7228545871
 11
150.1518667936
 21
30.7873819712
  0
LINE
  8
0
 62
7
  6
CONTINUOUS
 10
152.9268669177
 20
31.4649194539
 11
153.0424918074
 21
31.4326557675
  0
LINE
  8
0
 62
7
  6
CONTINUOUS
 10
155.239367028
 20
31.4649194539
 11
155.3549915869
 21
31.4326557675
  0
LINE
  8
0
 62
7
  6
CONTINUOUS
 10
159.575304528
 20
30.7551182848
 11
159.4596793074
 21
30.7873819712
  0
LINE
  8
0
 62
7
  6
CONTINUOUS
 10
158.0721793074
 20
31.4649194539
 11
158.187804528
 21
31.4326557675
  0
LINE
  8
0
 62
7
  6
CONTINUOUS
 10
159.228429528
 20
30.7228545871
 11
159.401867028
 21
30.6583272086
  0
LINE
  8
0
 62
7
  6
CONTINUOUS
 10
158.4190543074
 20
31.5294468267
 11
158.2456168074
 21
31.5939741996
  0
LINE
  8
0
 62
7
  6
CONTINUOUS
 10
159.6331168074
 20
31.2390736489
 11
159.4596793074
 21
31.3036010218
  0
LINE
  8
0
 62
7
  6
CONTINUOUS
 10
160.442492028
 20
30.9809641124
 11
160.615929528
 21
30.9164367395
  0
LINE
  8
0
 62
7
  6
CONTINUOUS
 10
160.8471793074
 20
31.4971831403
 11
160.6737418074
 21
31.5617105132
  0
LINE
  8
0
 62
7
  6
CONTINUOUS
 10
159.228429528
 20
31.2390736489
 11
159.4596793074
 21
31.1422825445
  0
LINE
  8
0
 62
7
  6
CONTINUOUS
 10
160.8471793074
 20
30.9809641124
 11
160.615929528
 21
31.0777551716
  0
LINE
  8
0
 62
7
  6
CONTINUOUS
 10
159.401867028
 20
31.3681283946
 11
159.4596793074
 21
31.4326557675
  0
LINE
  8
0
 62
7
  6
CONTINUOUS
 10
149.8628043005
 20
31.4971831403
 11
149.7471793074
 21
31.4326557675
  0
LINE
  8
0
 62
7
  6
CONTINUOUS
 10
149.9784292936
 20
31.3358647082
 11
150.1518667936
 21
31.4326557675
  0
LINE
  8
0
 62
7
  6
CONTINUOUS
 10
152.2909293626
 20
31.5294468267
 11
152.1753043074
 21
31.4649194539
  0
LINE
  8
0
 62
7
  6
CONTINUOUS
 10
152.1753043074
 20
31.3358647082
 11
152.2909293626
 21
31.400392081
  0
LINE
  8
0
 62
7
  6
CONTINUOUS
 10
151.1924917523
 20
30.6905909007
 11
151.3659292523
 21
30.7873819712
  0
LINE
  8
0
 62
7
  6
CONTINUOUS
 10
150.2096793212
 20
30.6260635193
 11
150.5565542799
 21
30.5937998301
  0
LINE
  8
0
 62
7
  6
CONTINUOUS
 10
154.3143669177
 20
30.6260635193
 11
154.5456166972
 21
30.5937998301
  0
LINE
  8
0
 62
7
  6
CONTINUOUS
 10
152.6956168074
 20
31.4971831403
 11
152.9268669177
 21
31.4649194539
  0
LINE
  8
0
 62
7
  6
CONTINUOUS
 10
155.0081169177
 20
31.4971831403
 11
155.239367028
 21
31.4649194539
  0
LINE
  8
0
 62
7
  6
CONTINUOUS
 10
159.4596793074
 20
31.1422825445
 11
160.442492028
 21
30.9809641124
  0
LINE
  8
0
 62
7
  6
CONTINUOUS
 10
160.615929528
 20
31.0777551716
 11
159.6331168074
 21
31.2390736489
  0
LINE
  8
0
 62
7
  6
CONTINUOUS
 10
153.1003044177
 20
31.5939741996
 11
152.9268669177
 21
31.626237886
  0
LINE
  8
0
 62
7
  6
CONTINUOUS
 10
159.401867028
 20
30.6583272086
 11
159.575304528
 21
30.6260635193
  0
LINE
  8
0
 62
7
  6
CONTINUOUS
 10
158.2456168074
 20
31.5939741996
 11
158.0721793074
 21
31.626237886
  0
LINE
  8
0
 62
7
  6
CONTINUOUS
 10
160.5003043074
 20
31.4649194539
 11
160.615929528
 21
31.4326557675
  0
LINE
  8
0
 62
7
  6
CONTINUOUS
 10
160.6737418074
 20
30.8519093441
 11
160.615929528
 21
30.7873819712
  0
LINE
  8
0
 62
7
  6
CONTINUOUS
 10
159.228429528
 20
31.5294468267
 11
159.1128043074
 21
31.4326557675
  0
LINE
  8
0
 62
7
  6
CONTINUOUS
 10
154.1409294177
 20
31.5617105132
 11
154.0253041972
 21
31.4971831403
  0
LINE
  8
0
 62
7
  6
CONTINUOUS
 10
154.1987416972
 20
31.1745462761
 11
154.0831168074
 21
31.1100188581
  0
LINE
  8
0
 62
7
  6
CONTINUOUS
 10
154.3143669177
 20
31.0132277988
 11
154.4299918074
 21
31.0777551716
  0
LINE
  8
0
 62
7
  6
CONTINUOUS
 10
151.8862417523
 20
30.5937998301
 11
152.1753043074
 21
30.5937998301
  0
LINE
  8
0
 62
7
  6
CONTINUOUS
 10
153.2159293074
 20
30.5937998301
 11
153.5049916972
 21
30.5937998301
  0
LINE
  8
0
 62
7
  6
CONTINUOUS
 10
154.5456166972
 20
30.5937998301
 11
154.8924916972
 21
30.5937998301
  0
LINE
  8
0
 62
7
  6
CONTINUOUS
 10
155.5284290869
 20
30.5937998301
 11
155.8174918074
 21
30.5937998301
  0
LINE
  8
0
 62
7
  6
CONTINUOUS
 10
156.279992028
 20
30.5937998301
 11
156.5690540869
 21
30.5937998301
  0
LINE
  8
0
 62
7
  6
CONTINUOUS
 10
157.0315543074
 20
30.5937998301
 11
157.320617028
 21
30.5937998301
  0
LINE
  8
0
 62
7
  6
CONTINUOUS
 10
158.361242028
 20
30.5937998301
 11
158.6503040869
 21
30.5937998301
  0
LINE
  8
0
 62
7
  6
CONTINUOUS
 10
159.922179528
 20
30.5937998301
 11
160.269054528
 21
30.5937998301
  0
LINE
  8
0
 62
7
  6
CONTINUOUS
 10
160.269054528
 20
30.7228545871
 11
159.922179528
 21
30.7228545871
  0
LINE
  8
0
 62
7
  6
CONTINUOUS
 10
154.8924916972
 20
30.7228545871
 11
154.5456166972
 21
30.7228545871
  0
LINE
  8
0
 62
7
  6
CONTINUOUS
 10
159.401867028
 20
30.8519093441
 11
159.1128043074
 21
30.8519093441
  0
LINE
  8
0
 62
7
  6
CONTINUOUS
 10
151.4237418626
 20
30.9164367395
 11
151.1346793074
 21
30.9164367395
  0
LINE
  8
0
 62
7
  6
CONTINUOUS
 10
150.498741835
 20
31.4971831403
 11
150.9034292799
 21
31.4649194539
  0
LINE
  8
0
 62
7
  6
CONTINUOUS
 10
150.9612418074
 20
31.5939741996
 11
150.5565542799
 21
31.626237886
  0
LINE
  8
0
 62
7
  6
CONTINUOUS
 10
159.575304528
 20
30.6260635193
 11
159.922179528
 21
30.5937998301
  0
LINE
  8
0
 62
7
  6
CONTINUOUS
 10
159.922179528
 20
30.7228545871
 11
159.575304528
 21
30.7551182848
  0
LINE
  8
0
 62
7
  6
CONTINUOUS
 10
155.3549915869
 20
31.5939741996
 11
155.0081169177
 21
31.626237886
  0
LINE
  8
0
 62
7
  6
CONTINUOUS
 10
160.1534293074
 20
31.4971831403
 11
160.5003043074
 21
31.4649194539
  0
LINE
  8
0
 62
7
  6
CONTINUOUS
 10
160.5003043074
 20
31.5939741996
 11
160.1534293074
 21
31.626237886
  0
LINE
  8
0
 62
7
  6
CONTINUOUS
 10
157.840929528
 20
31.4971831403
 11
158.0721793074
 21
31.4649194539
  0
LINE
  8
0
 62
7
  6
CONTINUOUS
 10
160.6737418074
 20
31.5617105132
 11
160.5003043074
 21
31.5939741996
  0
LINE
  8
0
 62
7
  6
CONTINUOUS
 10
160.8471793074
 20
30.6905909007
 11
160.9628038663
 21
30.7873819712
  0
LINE
  8
0
 62
7
  6
CONTINUOUS
 10
155.3549915869
 20
30.8841730531
 11
155.1815540869
 21
30.7873819712
  0
LINE
  8
0
 62
7
  6
CONTINUOUS
 10
157.4362415869
 20
31.5294468267
 11
157.320617028
 21
31.4649194539
  0
LINE
  8
0
 62
7
  6
CONTINUOUS
 10
157.320617028
 20
31.3358647082
 11
157.4362415869
 21
31.400392081
  0
LINE
  8
0
 62
7
  6
CONTINUOUS
 10
150.0362418212
 20
31.5617105132
 11
149.8628043005
 21
31.4971831403
  0
LINE
  8
0
 62
7
  6
CONTINUOUS
 10
152.4643666972
 20
31.5939741996
 11
152.2909293626
 21
31.5294468267
  0
LINE
  8
0
 62
7
  6
CONTINUOUS
 10
152.2909293626
 20
31.400392081
 11
152.4643666972
 21
31.4649194539
  0
LINE
  8
0
 62
7
  6
CONTINUOUS
 10
151.0768668626
 20
30.8196456577
 11
150.9034292799
 21
30.7551182848
  0
LINE
  8
0
 62
7
  6
CONTINUOUS
 10
160.5003043074
 20
30.7551182848
 11
160.269054528
 21
30.7228545871
  0
LINE
  8
0
 62
7
  6
CONTINUOUS
 10
154.8924916972
 20
30.5937998301
 11
155.1815540869
 21
30.6260635193
  0
LINE
  8
0
 62
7
  6
CONTINUOUS
 10
160.269054528
 20
30.5937998301
 11
160.615929528
 21
30.6260635193
  0
LINE
  8
0
 62
7
  6
CONTINUOUS
 10
150.5565542799
 20
30.5937998301
 11
150.9612418074
 21
30.6260635193
  0
LINE
  8
0
 62
7
  6
CONTINUOUS
 10
150.9034292799
 20
30.7551182848
 11
150.498741835
 21
30.7228545871
  0
LINE
  8
0
 62
7
  6
CONTINUOUS
 10
154.7768668074
 20
31.1422825445
 11
155.412804528
 21
31.1422825445
  0
LINE
  8
0
 62
7
  6
CONTINUOUS
 10
155.412804528
 20
31.2713373354
 11
154.7768668074
 21
31.2713373354
  0
LINE
  8
0
 62
7
  6
CONTINUOUS
 10
151.1346793074
 20
31.3036010218
 11
151.4237418626
 21
31.3036010218
  0
LINE
  8
0
 62
7
  6
CONTINUOUS
 10
153.9674919177
 20
31.3681283946
 11
154.2565543074
 21
31.3681283946
  0
LINE
  8
0
 62
7
  6
CONTINUOUS
 10
160.6737418074
 20
31.3681283946
 11
160.9628038663
 21
31.3681283946
  0
LINE
  8
0
 62
7
  6
CONTINUOUS
 10
154.6612419177
 20
31.4971831403
 11
155.0081169177
 21
31.4971831403
  0
LINE
  8
0
 62
7
  6
CONTINUOUS
 10
159.8065543074
 20
31.4971831403
 11
160.1534293074
 21
31.4971831403
  0
LINE
  8
0
 62
7
  6
CONTINUOUS
 10
160.1534293074
 20
31.626237886
 11
159.8065543074
 21
31.626237886
  0
LINE
  8
0
 62
7
  6
CONTINUOUS
 10
158.0721793074
 20
31.626237886
 11
157.840929528
 21
31.626237886
  0
LINE
  8
0
 62
7
  6
CONTINUOUS
 10
157.320617028
 20
31.626237886
 11
157.0315543074
 21
31.626237886
  0
LINE
  8
0
 62
7
  6
CONTINUOUS
 10
156.5690540869
 20
31.626237886
 11
156.279992028
 21
31.626237886
  0
LINE
  8
0
 62
7
  6
CONTINUOUS
 10
155.0081169177
 20
31.626237886
 11
154.6612419177
 21
31.626237886
  0
LINE
  8
0
 62
7
  6
CONTINUOUS
 10
152.9268669177
 20
31.626237886
 11
152.6956168074
 21
31.626237886
  0
LINE
  8
0
 62
7
  6
CONTINUOUS
 10
156.279992028
 20
31.9488748406
 11
156.5690540869
 21
31.9488748406
  0
LINE
  8
0
 62
7
  6
CONTINUOUS
 10
156.5690540869
 20
32.1101932727
 11
156.279992028
 21
32.1101932727
  0
LINE
  8
0
 62
7
  6
CONTINUOUS
 10
152.1753043074
 20
32.1101932727
 11
151.8862417523
 21
32.1101932727
  0
LINE
  8
0
 62
7
  6
CONTINUOUS
 10
151.2130860697
 20
32.3970785186
 11
151.6256574183
 21
32.3970785186
  0
LINE
  8
0
 62
7
  6
CONTINUOUS
 10
152.852430332
 20
32.3970785186
 11
154.245872955
 21
32.3970785186
  0
LINE
  8
0
 62
7
  6
CONTINUOUS
 10
154.5737418074
 20
32.3970785186
 11
155.9671844304
 21
32.3970785186
  0
LINE
  8
0
 62
7
  6
CONTINUOUS
 10
157.852430332
 20
32.3970785186
 11
159.245872955
 21
32.3970785186
  0
LINE
  8
0
 62
7
  6
CONTINUOUS
 10
159.5737418074
 20
32.3970785186
 11
160.9671844304
 21
32.3970785186
  0
LINE
  8
0
 62
7
  6
CONTINUOUS
 10
157.6096790869
 20
31.5939741996
 11
157.4362415869
 21
31.5294468267
  0
LINE
  8
0
 62
7
  6
CONTINUOUS
 10
155.1815540869
 20
30.6260635193
 11
155.3549915869
 21
30.6905909007
  0
LINE
  8
0
 62
7
  6
CONTINUOUS
 10
160.615929528
 20
30.6260635193
 11
160.8471793074
 21
30.6905909007
  0
LINE
  8
0
 62
7
  6
CONTINUOUS
 10
160.615929528
 20
30.7873819712
 11
160.5003043074
 21
30.7551182848
  0
LINE
  8
0
 62
7
  6
CONTINUOUS
 10
159.575304528
 20
31.4649194539
 11
159.8065543074
 21
31.4971831403
  0
LINE
  8
0
 62
7
  6
CONTINUOUS
 10
157.6096790869
 20
31.4649194539
 11
157.840929528
 21
31.4971831403
  0
LINE
  8
0
 62
7
  6
CONTINUOUS
 10
154.5456166972
 20
31.1100188581
 11
154.7768668074
 21
31.1422825445
  0
LINE
  8
0
 62
7
  6
CONTINUOUS
 10
157.840929528
 20
31.626237886
 11
157.6096790869
 21
31.5939741996
  0
LINE
  8
0
 62
7
  6
CONTINUOUS
 10
154.4299918074
 20
31.4649194539
 11
154.6612419177
 21
31.4971831403
  0
LINE
  8
0
 62
7
  6
CONTINUOUS
 10
159.8065543074
 20
31.626237886
 11
159.4596793074
 21
31.5939741996
  0
LINE
  8
0
 62
7
  6
CONTINUOUS
 10
154.7768668074
 20
31.2713373354
 11
154.4299918074
 21
31.2390736489
  0
LINE
  8
0
 62
7
  6
CONTINUOUS
 10
150.5565542799
 20
31.626237886
 11
150.2096793212
 21
31.5939741996
  0
LINE
  8
0
 62
7
  6
CONTINUOUS
 10
154.6612419177
 20
31.626237886
 11
154.2565543074
 21
31.5939741996
  0
LINE
  8
0
 62
7
  6
CONTINUOUS
 10
152.0327582009
 20
33.5446195022
 11
151.3770204959
 21
33.5446195022
  0
LINE
  8
0
 62
7
  6
CONTINUOUS
 10
157.4362415869
 20
31.400392081
 11
157.6096790869
 21
31.4649194539
  0
LINE
  8
0
 62
7
  6
CONTINUOUS
 10
159.4596793074
 20
31.4326557675
 11
159.575304528
 21
31.4649194539
  0
LINE
  8
0
 62
7
  6
CONTINUOUS
 10
159.4596793074
 20
31.5939741996
 11
159.228429528
 21
31.5294468267
  0
LINE
  8
0
 62
7
  6
CONTINUOUS
 10
155.1815540869
 20
30.7873819712
 11
154.8924916972
 21
30.7228545871
  0
LINE
  8
0
 62
7
  6
CONTINUOUS
 10
152.4643666972
 20
31.4649194539
 11
152.6956168074
 21
31.4971831403
  0
LINE
  8
0
 62
7
  6
CONTINUOUS
 10
152.6956168074
 20
31.626237886
 11
152.4643666972
 21
31.5939741996
  0
LINE
  8
0
 62
7
  6
CONTINUOUS
 10
150.2674918074
 20
31.4649194539
 11
150.498741835
 21
31.4971831403
  0
LINE
  8
0
 62
7
  6
CONTINUOUS
 10
156.7868565615
 20
35.0200293383
 11
157.4425942664
 21
35.0200293383
  0
LINE
  8
0
 62
7
  6
CONTINUOUS
 10
154.4299918074
 20
31.0777551716
 11
154.5456166972
 21
31.1100188581
  0
LINE
  8
0
 62
7
  6
CONTINUOUS
 10
154.4299918074
 20
31.2390736489
 11
154.1987416972
 21
31.1745462761
  0
LINE
  8
0
 62
7
  6
CONTINUOUS
 10
154.3143669177
 20
31.4326557675
 11
154.4299918074
 21
31.4649194539
  0
LINE
  8
0
 62
7
  6
CONTINUOUS
 10
150.9612418074
 20
30.6260635193
 11
151.1924917523
 21
30.6905909007
  0
LINE
  8
0
 62
7
  6
CONTINUOUS
 10
154.2565543074
 20
31.5939741996
 11
154.1409294177
 21
31.5617105132
  0
LINE
  8
0
 62
7
  6
CONTINUOUS
 10
150.2096793212
 20
31.5939741996
 11
150.0362418212
 21
31.5617105132
  0
LINE
  8
0
 62
7
  6
CONTINUOUS
 10
160.9671844304
 20
36.1675703219
 11
159.5737418074
 21
36.1675703219
  0
LINE
  8
0
 62
7
  6
CONTINUOUS
 10
157.6065286927
 20
36.1675703219
 11
157.1939573441
 21
36.1675703219
  0
LINE
  8
0
 62
7
  6
CONTINUOUS
 10
155.9671844304
 20
36.1675703219
 11
154.5737418074
 21
36.1675703219
  0
LINE
  8
0
 62
7
  6
CONTINUOUS
 10
154.245872955
 20
36.1675703219
 11
152.852430332
 21
36.1675703219
  0
LINE
  8
0
 62
7
  6
CONTINUOUS
 10
150.9671844304
 20
36.1675703219
 11
149.5737418074
 21
36.1675703219
  0
LINE
  8
0
 62
7
  6
CONTINUOUS
 10
150.1518667936
 20
31.4326557675
 11
150.2674918074
 21
31.4649194539
  0
CIRCLE
  8
0
 62
7
  6
CONTINUOUS
 10
160.2704631189
 20
38.5036358957
 40
2.0901639344
  0
ARC
  8
0
 62
7
  6
CONTINUOUS
 10
151.2130860697
 20
34.0364227809
 40
1.6393442623
 50
180.0
 51
270.0
  0
ARC
  8
0
 62
7
  6
CONTINUOUS
 10
157.6065286927
 20
34.5282260596
 40
1.6393442623
 50
0.0
 51
90.0
  0
ARC
  8
0
 62
7
  6
CONTINUOUS
 10
151.6256574183
 20
33.8724883547
 40
1.4754098361
 50
270.0
 51
326.2510114041
  0
ARC
  8
0
 62
7
  6
CONTINUOUS
 10
157.1939573441
 20
34.6921604858
 40
1.4754098361
 50
90.0
 51
146.2510114041
  0
ARC
  8
0
 62
7
  6
CONTINUOUS
 10
152.0327582009
 20
34.3642916334
 40
0.8196721311
 50
270.0
 51
360.0
  0
ARC
  8
0
 62
7
  6
CONTINUOUS
 10
156.7868565615
 20
34.2003572071
 40
0.8196721311
 50
90.0
 51
180.0
  0
ARC
  8
0
 62
7
  6
CONTINUOUS
 10
151.3770204959
 20
33.9544555678
 40
0.4098360656
 50
180.0
 51
270.0
  0
ARC
  8
0
 62
7
  6
CONTINUOUS
 10
157.4425942664
 20
34.6101932727
 40
0.4098360656
 50
0.0
 51
90.0
  0
SOLID
  8
0
 62
7
  6
CONTINUOUS
 10
156.279992028
 20
31.9488752009
 11
156.279992028
 21
32.1101936845
 12
156.5690540869
 22
31.9488752009
 13
156.5690540869
 23
32.1101936845
  0
SOLID
  8
0
 62
7
  6
CONTINUOUS
 10
150.5565542799
 20
31.6262382337
 11
150.9612418074
 21
31.5939740028
 12
150.2096793212
 22
31.5939740028
 13
150.2096793212
 23
31.5939740028
  0
SOLID
  8
0
 62
7
  6
CONTINUOUS
 10
150.0362418212
 20
31.5617111435
 11
150.2096793212
 21
31.5939740028
 12
150.9612418074
 22
31.5939740028
 13
150.9612418074
 23
31.5939740028
  0
SOLID
  8
0
 62
7
  6
CONTINUOUS
 10
150.9612418074
 20
31.5939740028
 11
151.1924917523
 21
31.5294468402
 12
150.0362418212
 22
31.5617111435
 13
150.0362418212
 23
31.5617111435
  0
SOLID
  8
0
 62
7
  6
CONTINUOUS
 10
149.8628043005
 20
31.49718259
 11
150.0362418212
 21
31.5617111435
 12
151.1924917523
 22
31.5294468402
 13
151.1924917523
 23
31.5294468402
  0
SOLID
  8
0
 62
7
  6
CONTINUOUS
 10
149.8628043005
 20
31.49718259
 11
151.1924917523
 21
31.5294468402
 12
150.498741835
 22
31.49718259
 13
150.498741835
 23
31.49718259
  0
SOLID
  8
0
 62
7
  6
CONTINUOUS
 10
150.498741835
 20
31.49718259
 11
151.1924917523
 21
31.5294468402
 12
150.9034292799
 22
31.4649197501
 13
150.9034292799
 23
31.4649197501
  0
SOLID
  8
0
 62
7
  6
CONTINUOUS
 10
151.1924917523
 20
31.5294468402
 11
151.3659292523
 21
31.4326554468
 12
150.9034292799
 22
31.4649197501
 13
150.9034292799
 23
31.4649197501
  0
SOLID
  8
0
 62
7
  6
CONTINUOUS
 10
151.0768668626
 20
31.4003926599
 11
150.9034292799
 21
31.4649197501
 12
151.3659292523
 22
31.4326554468
 13
151.3659292523
 23
31.4326554468
  0
SOLID
  8
0
 62
7
  6
CONTINUOUS
 10
151.0768668626
 20
31.4003926599
 11
151.3659292523
 21
31.4326554468
 12
151.1346793074
 22
31.3036013776
 13
151.1346793074
 23
31.3036013776
  0
SOLID
  8
0
 62
7
  6
CONTINUOUS
 10
151.3659292523
 20
31.4326554468
 11
151.4237418626
 21
31.3036013776
 12
151.1346793074
 22
31.3036013776
 13
151.1346793074
 23
31.3036013776
  0
SOLID
  8
0
 62
7
  6
CONTINUOUS
 10
152.4643666972
 20
31.5939739754
 11
152.6956168074
 21
31.6262382787
 12
152.9268669177
 22
31.6262382787
 13
152.9268669177
 23
31.6262382787
  0
SOLID
  8
0
 62
7
  6
CONTINUOUS
 10
152.9268669177
 20
31.6262382787
 11
153.1003044177
 21
31.5939739754
 12
152.4643666972
 22
31.5939739754
 13
152.4643666972
 23
31.5939739754
  0
SOLID
  8
0
 62
7
  6
CONTINUOUS
 10
152.2909293626
 20
31.5294468852
 11
152.4643666972
 21
31.5939739754
 12
153.1003044177
 22
31.5939739754
 13
153.1003044177
 23
31.5939739754
  0
SOLID
  8
0
 62
7
  6
CONTINUOUS
 10
153.1003044177
 20
31.5939739754
 11
153.2737419177
 21
31.5294468852
 12
152.2909293626
 22
31.5294468852
 13
152.2909293626
 23
31.5294468852
  0
SOLID
  8
0
 62
7
  6
CONTINUOUS
 10
153.2737419177
 20
31.5294468852
 11
152.6956168074
 21
31.4971825369
 12
152.2909293626
 22
31.5294468852
 13
152.2909293626
 23
31.5294468852
  0
SOLID
  8
0
 62
7
  6
CONTINUOUS
 10
152.1753043074
 20
31.4649197951
 11
152.2909293626
 21
31.5294468852
 12
152.6956168074
 22
31.4971825369
 13
152.6956168074
 23
31.4971825369
  0
SOLID
  8
0
 62
7
  6
CONTINUOUS
 10
152.6956168074
 20
31.4971825369
 11
152.4643666972
 21
31.4649197951
 12
152.1753043074
 22
31.4649197951
 13
152.1753043074
 23
31.4649197951
  0
SOLID
  8
0
 62
7
  6
CONTINUOUS
 10
152.6956168074
 20
31.4971825369
 11
153.2737419177
 21
31.5294468852
 12
152.9268669177
 22
31.4649197951
 13
152.9268669177
 23
31.4649197951
  0
SOLID
  8
0
 62
7
  6
CONTINUOUS
 10
153.2737419177
 20
31.5294468852
 11
153.3893668074
 21
31.4649197951
 12
152.9268669177
 22
31.4649197951
 13
152.9268669177
 23
31.4649197951
  0
SOLID
  8
0
 62
7
  6
CONTINUOUS
 10
153.0424918074
 20
31.4326554468
 11
152.9268669177
 21
31.4649197951
 12
153.3893668074
 22
31.4649197951
 13
153.3893668074
 23
31.4649197951
  0
SOLID
  8
0
 62
7
  6
CONTINUOUS
 10
153.3893668074
 20
31.4649197951
 11
153.4471794177
 21
31.4003927049
 12
153.0424918074
 22
31.4326554468
 13
153.0424918074
 23
31.4326554468
  0
SOLID
  8
0
 62
7
  6
CONTINUOUS
 10
153.1581166972
 20
31.3681283566
 11
153.0424918074
 21
31.4326554468
 12
153.4471794177
 22
31.4003927049
 13
153.4471794177
 23
31.4003927049
  0
SOLID
  8
0
 62
7
  6
CONTINUOUS
 10
153.1581166972
 20
31.3681283566
 11
153.4471794177
 21
31.4003927049
 12
153.2159293074
 22
31.2390742213
 13
153.2159293074
 23
31.2390742213
  0
SOLID
  8
0
 62
7
  6
CONTINUOUS
 10
153.4471794177
 20
31.4003927049
 11
153.5049916972
 21
31.2390742213
 12
153.2159293074
 22
31.2390742213
 13
153.2159293074
 23
31.2390742213
  0
SOLID
  8
0
 62
7
  6
CONTINUOUS
 10
152.4643666972
 20
31.4649197951
 11
152.2909293626
 21
31.4003927049
 12
152.1753043074
 22
31.4649197951
 13
152.1753043074
 23
31.4649197951
  0
SOLID
  8
0
 62
7
  6
CONTINUOUS
 10
152.2909293626
 20
31.4003927049
 11
152.1753043074
 21
31.3358640533
 12
152.1753043074
 22
31.4649197951
 13
152.1753043074
 23
31.4649197951
  0
SOLID
  8
0
 62
7
  6
CONTINUOUS
 10
152.1753043074
 20
31.3358640533
 11
151.8862417523
 21
30.5938002869
 12
152.1753043074
 22
31.4649197951
 13
152.1753043074
 23
31.4649197951
  0
SOLID
  8
0
 62
7
  6
CONTINUOUS
 10
152.1753043074
 20
31.4649197951
 11
151.8862417523
 21
30.5938002869
 12
152.1753043074
 22
32.1101937295
 13
152.1753043074
 23
32.1101937295
  0
SOLID
  8
0
 62
7
  6
CONTINUOUS
 10
151.8862417523
 20
30.5938002869
 11
151.8862417523
 21
32.1101937295
 12
152.1753043074
 22
32.1101937295
 13
152.1753043074
 23
32.1101937295
  0
SOLID
  8
0
 62
7
  6
CONTINUOUS
 10
152.1753043074
 20
31.3358640533
 11
152.1753043074
 21
30.5938002869
 12
151.8862417523
 22
30.5938002869
 13
151.8862417523
 23
30.5938002869
  0
SOLID
  8
0
 62
7
  6
CONTINUOUS
 10
153.2159293074
 20
30.5938002869
 11
153.2159293074
 21
31.2390742213
 12
153.5049916972
 22
31.2390742213
 13
153.5049916972
 23
31.2390742213
  0
SOLID
  8
0
 62
7
  6
CONTINUOUS
 10
153.5049916972
 20
31.2390742213
 11
153.5049916972
 21
30.5938002869
 12
153.2159293074
 22
30.5938002869
 13
153.2159293074
 23
30.5938002869
  0
SOLID
  8
0
 62
7
  6
CONTINUOUS
 10
154.2565543074
 20
31.5939738288
 11
154.6612419177
 21
31.6262385959
 12
155.0081169177
 22
31.6262385959
 13
155.0081169177
 23
31.6262385959
  0
SOLID
  8
0
 62
7
  6
CONTINUOUS
 10
155.0081169177
 20
31.6262385959
 11
155.3549915869
 21
31.5939738288
 12
154.2565543074
 22
31.5939738288
 13
154.2565543074
 23
31.5939738288
  0
SOLID
  8
0
 62
7
  6
CONTINUOUS
 10
154.1409294177
 20
31.5617111435
 11
154.2565543074
 21
31.5939738288
 12
155.3549915869
 22
31.5939738288
 13
155.3549915869
 23
31.5939738288
  0
SOLID
  8
0
 62
7
  6
CONTINUOUS
 10
155.3549915869
 20
31.5939738288
 11
155.5284290869
 21
31.5294468402
 12
154.1409294177
 22
31.5617111435
 13
154.1409294177
 23
31.5617111435
  0
SOLID
  8
0
 62
7
  6
CONTINUOUS
 10
154.0253041972
 20
31.4971826249
 11
154.1409294177
 21
31.5617111435
 12
155.5284290869
 22
31.5294468402
 13
155.5284290869
 23
31.5294468402
  0
SOLID
  8
0
 62
7
  6
CONTINUOUS
 10
154.0253041972
 20
31.4971826249
 11
155.5284290869
 21
31.5294468402
 12
154.6612419177
 22
31.4971826249
 13
154.6612419177
 23
31.4971826249
  0
SOLID
  8
0
 62
7
  6
CONTINUOUS
 10
154.6612419177
 20
31.4971826249
 11
155.5284290869
 21
31.5294468402
 12
155.0081169177
 22
31.4971826249
 13
155.0081169177
 23
31.4971826249
  0
SOLID
  8
0
 62
7
  6
CONTINUOUS
 10
155.0081169177
 20
31.4971826249
 11
155.5284290869
 21
31.5294468402
 12
155.239367028
 22
31.4649194065
 13
155.239367028
 23
31.4649194065
  0
SOLID
  8
0
 62
7
  6
CONTINUOUS
 10
155.5284290869
 20
31.5294468402
 11
155.6440543074
 21
31.4649194065
 12
155.239367028
 22
31.4649194065
 13
155.239367028
 23
31.4649194065
  0
SOLID
  8
0
 62
7
  6
CONTINUOUS
 10
153.9674919177
 20
31.4326554138
 11
154.0253041972
 21
31.4971826249
 12
154.6612419177
 22
31.4971826249
 13
154.6612419177
 23
31.4971826249
  0
SOLID
  8
0
 62
7
  6
CONTINUOUS
 10
155.3549915869
 20
31.4326554138
 11
155.239367028
 21
31.4649194065
 12
155.6440543074
 22
31.4649194065
 13
155.6440543074
 23
31.4649194065
  0
SOLID
  8
0
 62
7
  6
CONTINUOUS
 10
155.3549915869
 20
31.4326554138
 11
155.6440543074
 21
31.4649194065
 12
155.412804528
 22
31.3681282026
 13
155.412804528
 23
31.3681282026
  0
SOLID
  8
0
 62
7
  6
CONTINUOUS
 10
155.6440543074
 20
31.4649194065
 11
155.7018665869
 21
31.3681282026
 12
155.412804528
 22
31.3681282026
 13
155.412804528
 23
31.3681282026
  0
SOLID
  8
0
 62
7
  6
CONTINUOUS
 10
155.412804528
 20
31.2713369632
 11
155.412804528
 21
31.3681282026
 12
155.7018665869
 22
31.3681282026
 13
155.7018665869
 23
31.3681282026
  0
SOLID
  8
0
 62
7
  6
CONTINUOUS
 10
155.412804528
 20
31.2713369632
 11
155.7018665869
 21
31.3681282026
 12
155.412804528
 22
31.1422827828
 13
155.412804528
 23
31.1422827828
  0
SOLID
  8
0
 62
7
  6
CONTINUOUS
 10
155.412804528
 20
31.1422827828
 11
155.7018665869
 21
31.3681282026
 12
155.412804528
 22
30.9487004259
 13
155.412804528
 23
30.9487004259
  0
SOLID
  8
0
 62
7
  6
CONTINUOUS
 10
155.7018665869
 20
31.3681282026
 11
155.7018665869
 21
30.8519086025
 12
155.412804528
 22
30.9487004259
 13
155.412804528
 23
30.9487004259
  0
SOLID
  8
0
 62
7
  6
CONTINUOUS
 10
157.6096790869
 20
31.5939736268
 11
157.840929528
 21
31.6262383465
 12
158.0721793074
 22
31.6262383465
 13
158.0721793074
 23
31.6262383465
  0
SOLID
  8
0
 62
7
  6
CONTINUOUS
 10
158.0721793074
 20
31.6262383465
 11
158.2456168074
 21
31.5939736268
 12
157.6096790869
 22
31.5939736268
 13
157.6096790869
 23
31.5939736268
  0
SOLID
  8
0
 62
7
  6
CONTINUOUS
 10
157.4362415869
 20
31.5294472848
 11
157.6096790869
 21
31.5939736268
 12
158.2456168074
 22
31.5939736268
 13
158.2456168074
 23
31.5939736268
  0
SOLID
  8
0
 62
7
  6
CONTINUOUS
 10
158.2456168074
 20
31.5939736268
 11
158.4190543074
 21
31.5294472848
 12
157.4362415869
 22
31.5294472848
 13
157.4362415869
 23
31.5294472848
  0
SOLID
  8
0
 62
7
  6
CONTINUOUS
 10
158.4190543074
 20
31.5294472848
 11
157.840929528
 21
31.4971825369
 12
157.4362415869
 22
31.5294472848
 13
157.4362415869
 23
31.5294472848
  0
SOLID
  8
0
 62
7
  6
CONTINUOUS
 10
157.320617028
 20
31.4649199103
 11
157.4362415869
 21
31.5294472848
 12
157.840929528
 22
31.4971825369
 13
157.840929528
 23
31.4971825369
  0
SOLID
  8
0
 62
7
  6
CONTINUOUS
 10
157.840929528
 20
31.4971825369
 11
157.6096790869
 21
31.4649199103
 12
157.320617028
 22
31.4649199103
 13
157.320617028
 23
31.4649199103
  0
SOLID
  8
0
 62
7
  6
CONTINUOUS
 10
157.840929528
 20
31.4971825369
 11
158.4190543074
 21
31.5294472848
 12
158.0721793074
 22
31.4649199103
 13
158.0721793074
 23
31.4649199103
  0
SOLID
  8
0
 62
7
  6
CONTINUOUS
 10
158.4190543074
 20
31.5294472848
 11
158.534679528
 21
31.4649199103
 12
158.0721793074
 22
31.4649199103
 13
158.0721793074
 23
31.4649199103
  0
SOLID
  8
0
 62
7
  6
CONTINUOUS
 10
158.187804528
 20
31.4326554468
 11
158.0721793074
 21
31.4649199103
 12
158.534679528
 22
31.4649199103
 13
158.534679528
 23
31.4649199103
  0
SOLID
  8
0
 62
7
  6
CONTINUOUS
 10
158.187804528
 20
31.4326554468
 11
158.534679528
 21
31.4649199103
 12
158.3034290869
 22
31.3681288486
 13
158.3034290869
 23
31.3681288486
  0
SOLID
  8
0
 62
7
  6
CONTINUOUS
 10
158.534679528
 20
31.4649199103
 11
158.5924918074
 21
31.3681288486
 12
158.3034290869
 22
31.3681288486
 13
158.3034290869
 23
31.3681288486
  0
SOLID
  8
0
 62
7
  6
CONTINUOUS
 10
158.361242028
 20
31.2068093799
 11
158.3034290869
 21
31.3681288486
 12
158.5924918074
 22
31.3681288486
 13
158.5924918074
 23
31.3681288486
  0
SOLID
  8
0
 62
7
  6
CONTINUOUS
 10
158.5924918074
 20
31.3681288486
 11
158.6503040869
 21
31.2068093799
 12
158.361242028
 22
31.2068093799
 13
158.361242028
 23
31.2068093799
  0
SOLID
  8
0
 62
7
  6
CONTINUOUS
 10
157.6096790869
 20
31.4649199103
 11
157.4362415869
 21
31.4003926599
 12
157.320617028
 22
31.4649199103
 13
157.320617028
 23
31.4649199103
  0
SOLID
  8
0
 62
7
  6
CONTINUOUS
 10
157.4362415869
 20
31.4003926599
 11
157.320617028
 21
31.3358640533
 12
157.320617028
 22
31.4649199103
 13
157.320617028
 23
31.4649199103
  0
SOLID
  8
0
 62
7
  6
CONTINUOUS
 10
157.320617028
 20
31.3358640533
 11
157.0315543074
 21
30.5938003547
 12
157.320617028
 22
31.4649199103
 13
157.320617028
 23
31.4649199103
  0
SOLID
  8
0
 62
7
  6
CONTINUOUS
 10
157.320617028
 20
31.4649199103
 11
157.0315543074
 21
30.5938003547
 12
157.320617028
 22
31.6262383465
 13
157.320617028
 23
31.6262383465
  0
SOLID
  8
0
 62
7
  6
CONTINUOUS
 10
157.0315543074
 20
30.5938003547
 11
157.0315543074
 21
31.6262383465
 12
157.320617028
 22
31.6262383465
 13
157.320617028
 23
31.6262383465
  0
SOLID
  8
0
 62
7
  6
CONTINUOUS
 10
157.320617028
 20
31.3358640533
 11
157.320617028
 21
30.5938003547
 12
157.0315543074
 22
30.5938003547
 13
157.0315543074
 23
30.5938003547
  0
SOLID
  8
0
 62
7
  6
CONTINUOUS
 10
158.361242028
 20
30.5938003547
 11
158.361242028
 21
31.2068093799
 12
158.6503040869
 22
31.2068093799
 13
158.6503040869
 23
31.2068093799
  0
SOLID
  8
0
 62
7
  6
CONTINUOUS
 10
158.6503040869
 20
31.2068093799
 11
158.6503040869
 21
30.5938003547
 12
158.361242028
 22
30.5938003547
 13
158.361242028
 23
30.5938003547
  0
SOLID
  8
0
 62
7
  6
CONTINUOUS
 10
159.4596793074
 20
31.5939739474
 11
159.8065543074
 21
31.6262381969
 12
160.1534293074
 22
31.6262381969
 13
160.1534293074
 23
31.6262381969
  0
SOLID
  8
0
 62
7
  6
CONTINUOUS
 10
160.1534293074
 20
31.6262381969
 11
160.5003043074
 21
31.5939739474
 12
159.4596793074
 22
31.5939739474
 13
159.4596793074
 23
31.5939739474
  0
SOLID
  8
0
 62
7
  6
CONTINUOUS
 10
159.228429528
 20
31.5294468402
 11
159.4596793074
 21
31.5939739474
 12
160.5003043074
 22
31.5939739474
 13
160.5003043074
 23
31.5939739474
  0
SOLID
  8
0
 62
7
  6
CONTINUOUS
 10
159.228429528
 20
31.5294468402
 11
160.5003043074
 21
31.5939739304
 12
160.6737418074
 22
31.5617111435
 13
160.6737418074
 23
31.5617111435
  0
SOLID
  8
0
 62
7
  6
CONTINUOUS
 10
159.228429528
 20
31.5294468402
 11
160.6737418074
 21
31.5617111435
 12
159.8065543074
 22
31.4971825592
 13
159.8065543074
 23
31.4971825592
  0
SOLID
  8
0
 62
7
  6
CONTINUOUS
 10
159.8065543074
 20
31.4971825592
 11
160.6737418074
 21
31.5617111435
 12
160.1534293074
 22
31.4971825592
 13
160.1534293074
 23
31.4971825592
  0
SOLID
  8
0
 62
7
  6
CONTINUOUS
 10
160.6737418074
 20
31.5617111435
 11
160.8471793074
 21
31.4971825592
 12
160.1534293074
 22
31.4971825592
 13
160.1534293074
 23
31.4971825592
  0
SOLID
  8
0
 62
7
  6
CONTINUOUS
 10
160.5003043074
 20
31.4649197501
 11
160.1534293074
 21
31.4971825592
 12
160.8471793074
 22
31.4971825592
 13
160.8471793074
 23
31.4971825592
  0
SOLID
  8
0
 62
7
  6
CONTINUOUS
 10
159.1128043074
 20
31.4326555427
 11
159.228429528
 21
31.5294468402
 12
159.8065543074
 22
31.4971825592
 13
159.8065543074
 23
31.4971825592
  0
SOLID
  8
0
 62
7
  6
CONTINUOUS
 10
160.5003043074
 20
31.4649197501
 11
160.8471793074
 21
31.4971825592
 12
160.615929528
 22
31.4326555427
 13
160.615929528
 23
31.4326555427
  0
SOLID
  8
0
 62
7
  6
CONTINUOUS
 10
160.615929528
 20
31.4326555427
 11
160.8471793074
 21
31.4971825592
 12
160.6737418074
 22
31.3681283005
 13
160.6737418074
 23
31.3681283005
  0
SOLID
  8
0
 62
7
  6
CONTINUOUS
 10
160.8471793074
 20
31.4971825592
 11
160.9628038663
 21
31.3681283005
 12
160.6737418074
 22
31.3681283005
 13
160.6737418074
 23
31.3681283005
  0
SOLID
  8
0
 62
7
  6
CONTINUOUS
 10
150.2674918074
 20
31.4649197501
 11
149.7471793074
 21
31.4326554237
 12
150.498741835
 22
31.4971824493
 13
150.498741835
 23
31.4971824493
  0
SOLID
  8
0
 62
7
  6
CONTINUOUS
 10
149.7471793074
 20
31.4326554237
 11
149.8628043005
 21
31.4971824493
 12
150.498741835
 22
31.4971824493
 13
150.498741835
 23
31.4971824493
  0
SOLID
  8
0
 62
7
  6
CONTINUOUS
 10
150.2674918074
 20
31.4649197501
 11
150.1518667936
 21
31.4326554237
 12
149.7471793074
 22
31.4326554237
 13
149.7471793074
 23
31.4326554237
  0
SOLID
  8
0
 62
7
  6
CONTINUOUS
 10
149.6315543091
 20
31.3036012664
 11
149.7471793074
 21
31.4326554237
 12
150.1518667936
 22
31.4326554237
 13
150.1518667936
 23
31.4326554237
  0
SOLID
  8
0
 62
7
  6
CONTINUOUS
 10
153.9674919177
 20
31.4326554237
 11
154.6612419177
 21
31.4971825369
 12
154.4299918074
 22
31.4649197501
 13
154.4299918074
 23
31.4649197501
  0
SOLID
  8
0
 62
7
  6
CONTINUOUS
 10
154.4299918074
 20
31.4649197501
 11
154.3143669177
 21
31.4326554237
 12
153.9674919177
 22
31.4326554237
 13
153.9674919177
 23
31.4326554237
  0
SOLID
  8
0
 62
7
  6
CONTINUOUS
 10
153.9674919177
 20
31.3681283335
 11
153.9674919177
 21
31.4326554237
 12
154.3143669177
 22
31.4326554237
 13
154.3143669177
 23
31.4326554237
  0
SOLID
  8
0
 62
7
  6
CONTINUOUS
 10
154.3143669177
 20
31.4326554237
 11
154.2565543074
 21
31.3681283335
 12
153.9674919177
 22
31.3681283335
 13
153.9674919177
 23
31.3681283335
  0
SOLID
  8
0
 62
7
  6
CONTINUOUS
 10
159.1128043074
 20
31.4326555528
 11
159.8065543074
 21
31.4971825369
 12
159.575304528
 22
31.4649197501
 13
159.575304528
 23
31.4649197501
  0
SOLID
  8
0
 62
7
  6
CONTINUOUS
 10
159.575304528
 20
31.4649197501
 11
159.4596793074
 21
31.4326555528
 12
159.1128043074
 22
31.4326555528
 13
159.1128043074
 23
31.4326555528
  0
SOLID
  8
0
 62
7
  6
CONTINUOUS
 10
159.1128043074
 20
31.3681284626
 11
159.1128043074
 21
31.4326555528
 12
159.4596793074
 22
31.4326555528
 13
159.4596793074
 23
31.4326555528
  0
SOLID
  8
0
 62
7
  6
CONTINUOUS
 10
159.4596793074
 20
31.4326555528
 11
159.401867028
 21
31.3681284626
 12
159.1128043074
 22
31.3681284626
 13
159.1128043074
 23
31.3681284626
  0
SOLID
  8
0
 62
7
  6
CONTINUOUS
 10
159.228429528
 20
31.2390741763
 11
159.1128043074
 21
31.3681284626
 12
159.401867028
 22
31.3681284626
 13
159.401867028
 23
31.3681284626
  0
SOLID
  8
0
 62
7
  6
CONTINUOUS
 10
149.6315543091
 20
31.3036012664
 11
150.1518667936
 21
31.4326554468
 12
149.9784292936
 22
31.3358640533
 13
149.9784292936
 23
31.3358640533
  0
SOLID
  8
0
 62
7
  6
CONTINUOUS
 10
149.9784292936
 20
31.3358640533
 11
149.9206168074
 21
31.2713369632
 12
149.6315543091
 22
31.3036012664
 13
149.6315543091
 23
31.3036012664
  0
SOLID
  8
0
 62
7
  6
CONTINUOUS
 10
149.5737418074
 20
31.1100184796
 11
149.6315543091
 21
31.3036012664
 12
149.9206168074
 22
31.2713369632
 13
149.9206168074
 23
31.2713369632
  0
SOLID
  8
0
 62
7
  6
CONTINUOUS
 10
154.4299918074
 20
31.2390741763
 11
154.7768668074
 21
31.271336924
 12
155.412804528
 22
31.271336924
 13
155.412804528
 23
31.271336924
  0
SOLID
  8
0
 62
7
  6
CONTINUOUS
 10
154.4299918074
 20
31.2390741763
 11
155.412804528
 21
31.271336924
 12
154.1987416972
 22
31.1745462761
 13
154.1987416972
 23
31.1745462761
  0
SOLID
  8
0
 62
7
  6
CONTINUOUS
 10
154.1987416972
 20
31.1745462761
 11
155.412804528
 21
31.271336924
 12
154.7768668074
 22
31.1422827436
 13
154.7768668074
 23
31.1422827436
  0
SOLID
  8
0
 62
7
  6
CONTINUOUS
 10
155.412804528
 20
31.271336924
 11
155.412804528
 21
31.1422827436
 12
154.7768668074
 22
31.1422827436
 13
154.7768668074
 23
31.1422827436
  0
SOLID
  8
0
 62
7
  6
CONTINUOUS
 10
159.228429528
 20
31.2390745501
 11
159.401867028
 21
31.3681283566
 12
159.4596793074
 22
31.3036012664
 13
159.4596793074
 23
31.3036012664
  0
SOLID
  8
0
 62
7
  6
CONTINUOUS
 10
159.4596793074
 20
31.3036012664
 11
159.6331168074
 21
31.2390745501
 12
159.228429528
 22
31.2390745501
 13
159.228429528
 23
31.2390745501
  0
SOLID
  8
0
 62
7
  6
CONTINUOUS
 10
159.4596793074
 20
31.1422827828
 11
159.228429528
 21
31.2390745501
 12
159.6331168074
 22
31.2390745501
 13
159.6331168074
 23
31.2390745501
  0
SOLID
  8
0
 62
7
  6
CONTINUOUS
 10
159.6331168074
 20
31.2390745501
 11
160.615929528
 21
31.0777556927
 12
159.4596793074
 22
31.1422827828
 13
159.4596793074
 23
31.1422827828
  0
SOLID
  8
0
 62
7
  6
CONTINUOUS
 10
160.442492028
 20
30.9809646623
 11
159.4596793074
 21
31.1422827828
 12
160.615929528
 22
31.0777556927
 13
160.615929528
 23
31.0777556927
  0
SOLID
  8
0
 62
7
  6
CONTINUOUS
 10
160.615929528
 20
31.0777556927
 11
160.8471793074
 21
30.9809646623
 12
160.442492028
 22
30.9809646623
 13
160.442492028
 23
30.9809646623
  0
SOLID
  8
0
 62
7
  6
CONTINUOUS
 10
160.615929528
 20
30.9164372091
 11
160.442492028
 21
30.9809646623
 12
160.8471793074
 22
30.9809646623
 13
160.8471793074
 23
30.9809646623
  0
SOLID
  8
0
 62
7
  6
CONTINUOUS
 10
160.615929528
 20
30.9164372091
 11
160.8471793074
 21
30.9809646623
 12
160.6737418074
 22
30.8519089441
 13
160.6737418074
 23
30.8519089441
  0
SOLID
  8
0
 62
7
  6
CONTINUOUS
 10
160.8471793074
 20
30.9809646623
 11
160.9628038663
 21
30.8519089441
 12
160.6737418074
 22
30.8519089441
 13
160.6737418074
 23
30.8519089441
  0
SOLID
  8
0
 62
7
  6
CONTINUOUS
 10
160.615929528
 20
30.7873818593
 11
160.6737418074
 21
30.8519089441
 12
160.9628038663
 22
30.8519089441
 13
160.9628038663
 23
30.8519089441
  0
SOLID
  8
0
 62
7
  6
CONTINUOUS
 10
160.9628038663
 20
30.8519089441
 11
160.9628038663
 21
30.7873818593
 12
160.615929528
 22
30.7873818593
 13
160.615929528
 23
30.7873818593
  0
SOLID
  8
0
 62
7
  6
CONTINUOUS
 10
160.5003043074
 20
30.7551187255
 11
160.615929528
 21
30.7873818593
 12
160.9628038663
 22
30.7873818593
 13
160.9628038663
 23
30.7873818593
  0
SOLID
  8
0
 62
7
  6
CONTINUOUS
 10
160.5003043074
 20
30.7551187255
 11
160.9628038663
 21
30.7873818593
 12
160.269054528
 22
30.7228547745
 13
160.269054528
 23
30.7228547745
  0
SOLID
  8
0
 62
7
  6
CONTINUOUS
 10
160.9628038663
 20
30.7873818593
 11
160.8471793074
 21
30.6905916353
 12
160.269054528
 22
30.7228547745
 13
160.269054528
 23
30.7228547745
  0
SOLID
  8
0
 62
7
  6
CONTINUOUS
 10
160.8471793074
 20
30.6905916353
 11
159.401867028
 21
30.658327332
 12
160.269054528
 22
30.7228547745
 13
160.269054528
 23
30.7228547745
  0
SOLID
  8
0
 62
7
  6
CONTINUOUS
 10
160.269054528
 20
30.7228547745
 11
159.401867028
 21
30.658327332
 12
159.922179528
 22
30.7228547745
 13
159.922179528
 23
30.7228547745
  0
SOLID
  8
0
 62
7
  6
CONTINUOUS
 10
159.401867028
 20
30.658327332
 11
159.228429528
 21
30.7228547745
 12
159.922179528
 22
30.7228547745
 13
159.922179528
 23
30.7228547745
  0
SOLID
  8
0
 62
7
  6
CONTINUOUS
 10
159.401867028
 20
30.658327332
 11
160.8471793074
 21
30.6905916353
 12
159.575304528
 22
30.6260629858
 13
159.575304528
 23
30.6260629858
  0
SOLID
  8
0
 62
7
  6
CONTINUOUS
 10
160.8471793074
 20
30.6905916353
 11
160.615929528
 21
30.6260629858
 12
159.575304528
 22
30.6260629858
 13
159.575304528
 23
30.6260629858
  0
SOLID
  8
0
 62
7
  6
CONTINUOUS
 10
159.922179528
 20
30.5938006049
 11
159.575304528
 21
30.6260629858
 12
160.615929528
 22
30.6260629858
 13
160.615929528
 23
30.6260629858
  0
SOLID
  8
0
 62
7
  6
CONTINUOUS
 10
160.615929528
 20
30.6260629858
 11
160.269054528
 21
30.5938006049
 12
159.922179528
 22
30.5938006049
 13
159.922179528
 23
30.5938006049
  0
SOLID
  8
0
 62
7
  6
CONTINUOUS
 10
149.5737418074
 20
31.1100184796
 11
149.9206168074
 21
31.2713369632
 12
149.8628043005
 22
31.1422827828
 13
149.8628043005
 23
31.1422827828
  0
SOLID
  8
0
 62
7
  6
CONTINUOUS
 10
149.8628043005
 20
31.1422827828
 11
149.8628043005
 21
31.0454914852
 12
149.5737418074
 22
31.1100184796
 13
149.5737418074
 23
31.1100184796
  0
SOLID
  8
0
 62
7
  6
CONTINUOUS
 10
149.6315543091
 20
30.9164372091
 11
149.5737418074
 21
31.1100184796
 12
149.8628043005
 22
31.0454914852
 13
149.8628043005
 23
31.0454914852
  0
SOLID
  8
0
 62
7
  6
CONTINUOUS
 10
149.8628043005
 20
31.0454914852
 11
149.9784292936
 21
30.8841729058
 12
149.6315543091
 22
30.9164372091
 13
149.6315543091
 23
30.9164372091
  0
SOLID
  8
0
 62
7
  6
CONTINUOUS
 10
149.7471793074
 20
30.7873813202
 11
149.6315543091
 21
30.9164372091
 12
149.9784292936
 22
30.8841729058
 13
149.9784292936
 23
30.8841729058
  0
SOLID
  8
0
 62
7
  6
CONTINUOUS
 10
149.9784292936
 20
30.8841729058
 11
150.1518667936
 21
30.7873813202
 12
149.7471793074
 22
30.7873813202
 13
149.7471793074
 23
30.7873813202
  0
SOLID
  8
0
 62
7
  6
CONTINUOUS
 10
149.8628043005
 20
30.7228547004
 11
149.7471793074
 21
30.7873813202
 12
150.1518667936
 22
30.7873813202
 13
150.1518667936
 23
30.7873813202
  0
SOLID
  8
0
 62
7
  6
CONTINUOUS
 10
150.1518667936
 20
30.7873813202
 11
150.498741835
 21
30.7228547004
 12
149.8628043005
 22
30.7228547004
 13
149.8628043005
 23
30.7228547004
  0
SOLID
  8
0
 62
7
  6
CONTINUOUS
 10
150.0362418212
 20
30.658327332
 11
149.8628043005
 21
30.7228547004
 12
150.498741835
 22
30.7228547004
 13
150.498741835
 23
30.7228547004
  0
SOLID
  8
0
 62
7
  6
CONTINUOUS
 10
154.0831168074
 20
31.1100184386
 11
154.1987416972
 21
31.1745462761
 12
154.7768668074
 22
31.1422827828
 13
154.7768668074
 23
31.1422827828
  0
SOLID
  8
0
 62
7
  6
CONTINUOUS
 10
154.7768668074
 20
31.1422827828
 11
154.5456166972
 21
31.1100184386
 12
154.0831168074
 22
31.1100184386
 13
154.0831168074
 23
31.1100184386
  0
SOLID
  8
0
 62
7
  6
CONTINUOUS
 10
153.9674919177
 20
30.9809642992
 11
154.0831168074
 21
31.1100184386
 12
154.5456166972
 22
31.1100184386
 13
154.5456166972
 23
31.1100184386
  0
SOLID
  8
0
 62
7
  6
CONTINUOUS
 10
154.3143669177
 20
31.0132277988
 11
153.9674919177
 21
30.9809642992
 12
154.4299918074
 22
31.0777556927
 13
154.4299918074
 23
31.0777556927
  0
SOLID
  8
0
 62
7
  6
CONTINUOUS
 10
153.9674919177
 20
30.9809642992
 11
154.5456166972
 21
31.1100184796
 12
154.4299918074
 22
31.0777556927
 13
154.4299918074
 23
31.0777556927
  0
SOLID
  8
0
 62
7
  6
CONTINUOUS
 10
154.3143669177
 20
31.0132277988
 11
154.2565543074
 21
30.9164372091
 12
153.9674919177
 22
30.9809642992
 13
153.9674919177
 23
30.9809642992
  0
SOLID
  8
0
 62
7
  6
CONTINUOUS
 10
153.9674919177
 20
30.8841729058
 11
153.9674919177
 21
30.9809642992
 12
154.2565543074
 22
30.9164372091
 13
154.2565543074
 23
30.9164372091
  0
SOLID
  8
0
 62
7
  6
CONTINUOUS
 10
154.2565543074
 20
30.9164372091
 11
154.2565543074
 21
30.8519086025
 12
153.9674919177
 22
30.8841729058
 13
153.9674919177
 23
30.8841729058
  0
SOLID
  8
0
 62
7
  6
CONTINUOUS
 10
154.0253041972
 20
30.7551187255
 11
153.9674919177
 21
30.8841729058
 12
154.2565543074
 22
30.8519086025
 13
154.2565543074
 23
30.8519086025
  0
SOLID
  8
0
 62
7
  6
CONTINUOUS
 10
155.412804528
 20
30.9487004259
 11
155.7018665869
 21
30.8519086025
 12
155.3549915869
 22
30.8841729058
 13
155.3549915869
 23
30.8841729058
  0
SOLID
  8
0
 62
7
  6
CONTINUOUS
 10
155.1815540869
 20
30.7873815123
 11
155.3549915869
 21
30.8841729058
 12
155.7018665869
 22
30.8519086025
 13
155.7018665869
 23
30.8519086025
  0
SOLID
  8
0
 62
7
  6
CONTINUOUS
 10
155.1815540869
 20
30.7873815123
 11
155.7018665869
 21
30.8519086025
 12
155.412804528
 22
30.7551187255
 13
155.412804528
 23
30.7551187255
  0
SOLID
  8
0
 62
7
  6
CONTINUOUS
 10
155.7018665869
 20
30.8519086025
 11
155.759679528
 21
30.6905916353
 12
155.412804528
 22
30.7551187255
 13
155.412804528
 23
30.7551187255
  0
SOLID
  8
0
 62
7
  6
CONTINUOUS
 10
155.4706168074
 20
30.658327332
 11
155.412804528
 21
30.7551187255
 12
155.759679528
 22
30.6905916353
 13
155.759679528
 23
30.6905916353
  0
SOLID
  8
0
 62
7
  6
CONTINUOUS
 10
155.4706168074
 20
30.658327332
 11
155.759679528
 21
30.6905916353
 12
155.5284290869
 22
30.5938002079
 13
155.5284290869
 23
30.5938002079
  0
SOLID
  8
0
 62
7
  6
CONTINUOUS
 10
155.759679528
 20
30.6905916353
 11
155.8174918074
 21
30.5938002079
 12
155.5284290869
 22
30.5938002079
 13
155.5284290869
 23
30.5938002079
  0
SOLID
  8
0
 62
7
  6
CONTINUOUS
 10
151.0768668626
 20
30.8196456577
 11
151.1346793074
 21
30.9164373395
 12
151.4237418626
 22
30.9164373395
 13
151.4237418626
 23
30.9164373395
  0
SOLID
  8
0
 62
7
  6
CONTINUOUS
 10
151.4237418626
 20
30.9164373395
 11
151.3659292523
 21
30.7873815123
 12
151.0768668626
 22
30.8196456577
 13
151.0768668626
 23
30.8196456577
  0
SOLID
  8
0
 62
7
  6
CONTINUOUS
 10
150.9034292799
 20
30.7551187255
 11
151.0768668626
 21
30.8196456577
 12
151.3659292523
 22
30.7873815123
 13
151.3659292523
 23
30.7873815123
  0
SOLID
  8
0
 62
7
  6
CONTINUOUS
 10
150.9034292799
 20
30.7551187255
 11
151.3659292523
 21
30.7873815123
 12
150.498741835
 22
30.7228544222
 13
150.498741835
 23
30.7228544222
  0
SOLID
  8
0
 62
7
  6
CONTINUOUS
 10
151.3659292523
 20
30.7873815123
 11
151.1924917523
 21
30.6905916353
 12
150.498741835
 22
30.7228544222
 13
150.498741835
 23
30.7228544222
  0
SOLID
  8
0
 62
7
  6
CONTINUOUS
 10
150.0362418212
 20
30.658327332
 11
150.498741835
 21
30.7228544222
 12
151.1924917523
 22
30.6905916353
 13
151.1924917523
 23
30.6905916353
  0
SOLID
  8
0
 62
7
  6
CONTINUOUS
 10
150.0362418212
 20
30.658327332
 11
151.1924917523
 21
30.6905916353
 12
150.2096793212
 22
30.6260631011
 13
150.2096793212
 23
30.6260631011
  0
SOLID
  8
0
 62
7
  6
CONTINUOUS
 10
151.1924917523
 20
30.6905916353
 11
150.9612418074
 21
30.6260631011
 12
150.2096793212
 22
30.6260631011
 13
150.2096793212
 23
30.6260631011
  0
SOLID
  8
0
 62
7
  6
CONTINUOUS
 10
150.5565542799
 20
30.5938002419
 11
150.2096793212
 21
30.6260631011
 12
150.9612418074
 22
30.6260631011
 13
150.9612418074
 23
30.6260631011
  0
SOLID
  8
0
 62
7
  6
CONTINUOUS
 10
154.0253041972
 20
30.7551187255
 11
154.2565543074
 21
30.8519086025
 12
154.3143669177
 22
30.7873815123
 13
154.3143669177
 23
30.7873815123
  0
SOLID
  8
0
 62
7
  6
CONTINUOUS
 10
154.3143669177
 20
30.7873815123
 11
154.5456166972
 21
30.7228544222
 12
154.0253041972
 22
30.7551187255
 13
154.0253041972
 23
30.7551187255
  0
SOLID
  8
0
 62
7
  6
CONTINUOUS
 10
154.1987416972
 20
30.658327332
 11
154.0253041972
 21
30.7551187255
 12
154.5456166972
 22
30.7228544222
 13
154.5456166972
 23
30.7228544222
  0
SOLID
  8
0
 62
7
  6
CONTINUOUS
 10
154.8924916972
 20
30.7228544637
 11
155.1815540869
 21
30.7873815123
 12
155.412804528
 22
30.7551187255
 13
155.412804528
 23
30.7551187255
  0
SOLID
  8
0
 62
7
  6
CONTINUOUS
 10
155.412804528
 20
30.7551187255
 11
155.3549915869
 21
30.6905916353
 12
154.8924916972
 22
30.7228544637
 13
154.8924916972
 23
30.7228544637
  0
SOLID
  8
0
 62
7
  6
CONTINUOUS
 10
155.3549915869
 20
30.6905916353
 11
154.1987416972
 21
30.658327332
 12
154.8924916972
 22
30.7228544637
 13
154.8924916972
 23
30.7228544637
  0
SOLID
  8
0
 62
7
  6
CONTINUOUS
 10
154.1987416972
 20
30.658327332
 11
154.5456166972
 21
30.7228544637
 12
154.8924916972
 22
30.7228544637
 13
154.8924916972
 23
30.7228544637
  0
SOLID
  8
0
 62
7
  6
CONTINUOUS
 10
154.1987416972
 20
30.658327332
 11
155.3549915869
 21
30.6905916353
 12
154.3143669177
 22
30.6260630541
 13
154.3143669177
 23
30.6260630541
  0
SOLID
  8
0
 62
7
  6
CONTINUOUS
 10
155.3549915869
 20
30.6905916353
 11
155.1815540869
 21
30.6260630541
 12
154.3143669177
 22
30.6260630541
 13
154.3143669177
 23
30.6260630541
  0
SOLID
  8
0
 62
7
  6
CONTINUOUS
 10
154.5456166972
 20
30.5938002188
 11
154.3143669177
 21
30.6260630541
 12
155.1815540869
 22
30.6260630541
 13
155.1815540869
 23
30.6260630541
  0
SOLID
  8
0
 62
7
  6
CONTINUOUS
 10
155.1815540869
 20
30.6260630541
 11
154.8924916972
 21
30.5938002188
 12
154.5456166972
 22
30.5938002188
 13
154.5456166972
 23
30.5938002188
  0
SOLID
  8
0
 62
7
  6
CONTINUOUS
 10
159.575304528
 20
30.7551187255
 11
159.228429528
 21
30.7228544637
 12
159.4596793074
 22
30.7873815123
 13
159.4596793074
 23
30.7873815123
  0
SOLID
  8
0
 62
7
  6
CONTINUOUS
 10
159.4596793074
 20
30.7873815123
 11
159.228429528
 21
30.7228544637
 12
159.401867028
 22
30.851908644
 13
159.401867028
 23
30.851908644
  0
SOLID
  8
0
 62
7
  6
CONTINUOUS
 10
159.228429528
 20
30.7228544637
 11
159.1128043074
 21
30.851908644
 12
159.401867028
 22
30.851908644
 13
159.401867028
 23
30.851908644
  0
SOLID
  8
0
 62
7
  6
CONTINUOUS
 10
159.575304528
 20
30.7551187255
 11
159.922179528
 21
30.7228544637
 12
159.228429528
 22
30.7228544637
 13
159.228429528
 23
30.7228544637
  0
SOLID
  8
0
 62
7
  6
CONTINUOUS
 10
156.279992028
 20
30.5938002419
 11
156.279992028
 21
31.6262382337
 12
156.5690540869
 22
30.5938002419
 13
156.5690540869
 23
31.6262382337
  0
ENDBLK
  8
0
  6
BYBLOCK
 62
0
  0
BLOCK
  8
0
 62
2
  6
CONTINUOUS
  2
SYMBOL_3_BL0
 70
64
 10
32.1213064866
 20
19.8534310916
  0
TEXT
  8
0
 62
7
  6
CONTINUOUS
 10
18.3860103289
 20
19.2268451992
  7
TEXTSTYLE_3
 40
2.7338706658
  1
Ammeraal Beltech
 41
1.0
 51
15.0
 72
0
  0
TEXT
  8
0
 62
7
  6
CONTINUOUS
 10
29.1868111546
 20
16.9533085264
  7
TEXTSTYLE_4
 40
1.0935482663
  1
Innovation & Service in Belting
 41
1.0
 72
0
  0
LINE
  8
0
 62
7
  6
CONTINUOUS
 10
12.3614696776
 20
19.9934385078
 11
13.1396216709
 21
23.6543558055
  0
LINE
  8
0
 62
7
  6
CONTINUOUS
 10
23.2347899607
 20
27.3177497171
 11
13.6274394139
 21
24.1961322958
  0
LINE
  8
0
 62
7
  6
CONTINUOUS
 10
12.5867530099
 20
19.3000877048
 11
20.093828271
 21
12.5406867788
  0
LINE
  8
0
 62
7
  6
CONTINUOUS
 10
12.8492874206
 20
20.5352149982
 11
23.6575567857
 21
24.0470345971
  0
LINE
  8
0
 62
7
  6
CONTINUOUS
 10
23.6533516486
 20
13.6972460334
 11
15.2078919798
 21
21.3015720751
  0
LINE
  8
0
 62
7
  6
CONTINUOUS
 10
24.1731743684
 20
26.4728246013
 11
23.1966148312
 21
21.8784731989
  0
LINE
  8
0
 62
7
  6
CONTINUOUS
 10
22.4968128835
 20
18.5861638851
 11
21.810364672
 21
15.3566789607
  0
LINE
  8
0
 62
7
  6
CONTINUOUS
 10
24.8542704669
 20
14.087448211
 11
25.8105020025
 21
18.5861638851
  0
LINE
  8
0
 62
7
  6
CONTINUOUS
 10
26.5103039502
 20
21.8784731989
 11
26.9545457526
 21
23.9684665583
  0
LINE
  8
0
 62
7
  6
CONTINUOUS
 10
20.8069293463
 20
12.3891124661
 11
24.3664527239
 21
13.5456717207
  0
LINE
  8
0
 62
7
  6
CONTINUOUS
 10
23.9478910361
 20
27.1661754044
 11
26.7292624203
 21
24.6618173613
  0
ARC
  8
0
 62
7
  6
CONTINUOUS
 10
13.8527227462
 20
23.5027814928
 40
0.7290321776
 50
108.0
 51
168.0
  0
ARC
  8
0
 62
7
  6
CONTINUOUS
 10
23.4600732931
 20
26.624398914
 40
0.7290321776
 50
348.0
 51
108.0
  0
ARC
  8
0
 62
7
  6
CONTINUOUS
 10
26.2414446773
 20
24.120040871
 40
0.7290321776
 50
348.0
 51
48.0
  0
ARC
  8
0
 62
7
  6
CONTINUOUS
 10
20.581646014
 20
13.0824632691
 40
0.7290321776
 50
228.0
 51
288.0
  0
ARC
  8
0
 62
7
  6
CONTINUOUS
 10
13.0745707529
 20
19.8418641951
 40
0.7290321776
 50
108.0
 51
228.0
  0
ARC
  8
0
 62
7
  6
CONTINUOUS
 10
24.1411693916
 20
14.2390225237
 40
0.7290321776
 50
228.0
 51
348.0
  0
ENDBLK
  8
0
  6
BYBLOCK
 62
0
  0
ENDSEC
  0
SECTION
  2
ENTITIES
  0
TEXT
  8
0
 62
5
  6
CONTINUOUS
 10
96.0
 20
25.636
  7
TEXTSTYLE_2
 40
2.8
  1
Scale :
 41
0.6
 51
0.000019
 72
0
  0
TEXT
  8
0
 62
5
  6
CONTINUOUS
 10
116.0
 20
25.636
  7
TEXTSTYLE_2
 40
2.8
  1
Belt type:
 41
0.6
 51
0.000019
 72
0
  0
INSERT
  8
0
 62
2
  6
CONTINUOUS
  2
SYMBOL_3_BL0
 10
32.1213064866
 20
19.8534310916
  0
INSERT
  8
0
 62
2
  6
CONTINUOUS
  2
SYMBOL_8_BL1
 10
173.5956734183
 20
35.5937998301
  0
LINE
  8
0
 62
2
  6
CONTINUOUS
 10
10.0
 20
30.0
 11
200.0
 21
30.0
  0
LINE
  8
0
 62
2
  6
CONTINUOUS
 10
10.0
 20
30.0
 11
10.0
 21
10.0
  0
LINE
  8
0
 62
2
  6
CONTINUOUS
 10
10.0
 20
10.0
 11
200.0
 21
10.0
  0
LINE
  8
0
 62
2
  6
CONTINUOUS
 10
95.0
 20
30.0
 11
95.0
 21
10.0
  0
LINE
  8
0
 62
2
  6
CONTINUOUS
 10
115.0
 20
30.0
 11
115.0
 21
10.0
  0
LINE
  8
0
 62
2
  6
CONTINUOUS
 10
200.0
 20
30.0
 11
200.0
 21
10.0
  0
TEXT
  8
0
 62
5
  6
CONTINUOUS
 10
13.0
 20
23.303
  7
TEXTSTYLE_5
 40
1.52
  1
                                                                     Ammeraal Beltech Modular A/S
 41
1.0
 72
0
  0
TEXT
  8
0
 62
5
  6
CONTINUOUS
 10
13.0
 20
20.595
  7
TEXTSTYLE_5
 40
1.5
  1
                                                                      Hjulmagervej 21,  7100 Vejle,  DK
 41
1.0
 72
0
  0
TEXT
  8
0
 62
5
  6
CONTINUOUS
 10
13.0
 20
17.881
  7
TEXTSTYLE_5
 40
1.495
  1
                                                                      tel: 
 41
1.0
 72
0
  0
TEXT
  8
0
 62
5
  6
CONTINUOUS
 10
57.9869465649
 20
17.881
  7
TEXTSTYLE_5
 40
1.51
  1
+45 75723100     fax: +45 75723348
 41
1.0
 72
0
  0
TEXT
  8
0
 62
5
  6
CONTINUOUS
 10
13.0
 20
15.177
  7
TEXTSTYLE_5
 40
1.5
  1
                                                                      admin@unichains.dk  www.unichains.com
 41
1.0
 72
0
  0
TEXT
  8
0
 62
5
  6
CONTINUOUS
 10
99.75
 20
13.75
  7
TEXTSTYLE_6
 40
5.0
  1
1:1
 41
0.7
 72
1
 11
105.0
 21
13.75
  0
TEXT
  8
0
 62
5
  6
CONTINUOUS
 10
118.0
 20
13.75
  7
TEXTSTYLE_7
 40
7.5
  1
Sprocket Z12 Idlers
 41
0.5973684211
 72
0
  0
LINE
  8
0
 62
7
  6
CONTINUOUS
 10
210.0
 20
0.0
 11
0.0
 21
0.0
  0
LINE
  8
0
 62
7
  6
CONTINUOUS
 10
10.0
 20
10.0
 11
200.0
 21
10.0
  0
LINE
  8
0
 62
7
  6
CONTINUOUS
 10
10.0
 20
30.0
 11
200.0
 21
30.0
  0
LINE
  8
0
 62
7
  6
CONTINUOUS
 10
0.0
 20
0.0
 11
0.0
 21
297.0
  0
LINE
  8
0
 62
7
  6
CONTINUOUS
 10
10.0
 20
10.0
 11
10.0
 21
287.0
  0
LINE
  8
0
 62
7
  6
CONTINUOUS
 10
200.0
 20
287.0
 11
200.0
 21
10.0
  0
LINE
  8
0
 62
7
  6
CONTINUOUS
 10
210.0
 20
0.0
 11
210.0
 21
297.0
  0
LINE
  8
0
 62
7
  6
CONTINUOUS
 10
10.0
 20
287.0
 11
200.0
 21
287.0
  0
LINE
  8
0
 62
7
  6
CONTINUOUS
 10
0.0
 20
297.0
 11
210.0
 21
297.0
  0
LINE
  8
0
 62
7
  6
CONTINUOUS
 10
64.5962697761
 20
246.412600483
 11
64.2810694614
 21
246.0656488899
  0
LINE
  8
0
 62
7
  6
CONTINUOUS
 10
63.0202684957
 20
244.6778428402
 11
62.7050682487
 21
244.3308913216
  0
LINE
  8
0
 62
7
  6
CONTINUOUS
 10
66.6248010877
 20
248.4055511167
 11
66.3535210297
 21
248.1466452183
  0
LINE
  8
0
 62
7
  6
CONTINUOUS
 10
65.7431411902
 20
247.5641072247
 11
65.4040412147
 21
247.2404749442
  0
LINE
  8
0
 62
7
  6
CONTINUOUS
 10
67.388959509
 20
251.0257688156
 11
67.0353558354
 21
250.7180500529
  0
LINE
  8
0
 62
7
  6
CONTINUOUS
 10
67.3496218883
 20
250.3569228022
 11
67.7032255618
 21
250.6646415649
  0
LINE
  8
0
 62
7
  6
CONTINUOUS
 10
68.3317578435
 20
249.9423868612
 11
67.9781541699
 21
249.6346680985
  0
LINE
  8
0
 62
7
  6
CONTINUOUS
 10
79.0620004503
 20
257.1225176507
 11
78.60370619
 21
256.7826063936
  0
LINE
  8
0
 62
7
  6
CONTINUOUS
 10
74.8746806984
 20
256.4783984649
 11
72.0381709056
 21
254.6495088576
  0
LINE
  8
0
 62
7
  6
CONTINUOUS
 10
72.8222228593
 20
254.4715136722
 11
75.18598102
 21
255.9955883449
  0
LINE
  8
0
 62
7
  6
CONTINUOUS
 10
75.5452968395
 20
254.7462891824
 11
73.4967070348
 21
253.4254248536
  0
LINE
  8
0
 62
7
  6
CONTINUOUS
 10
73.8080073563
 20
252.9426147337
 11
75.8565971611
 21
254.2634790624
  0
LINE
  8
0
 62
7
  6
CONTINUOUS
 10
76.1485715553
 20
257.1923024566
 11
75.7416065782
 21
256.9596946209
  0
LINE
  8
0
 62
7
  6
CONTINUOUS
 10
80.4179196553
 20
256.5221505249
 11
78.6622552201
 21
255.631297589
  0
LINE
  8
0
 62
7
  6
CONTINUOUS
 10
78.7519500873
 20
255.2473491609
 11
81.0092329325
 21
256.3927315071
  0
LINE
  8
0
 62
7
  6
CONTINUOUS
 10
90.5987865226
 20
262.1492296529
 11
90.944149617
 21
262.3239205548
  0
LINE
  8
0
 62
7
  6
CONTINUOUS
 10
90.8197295648
 20
262.884753108
 11
90.3828410043
 21
262.6897573874
  0
LINE
  8
0
 62
7
  6
CONTINUOUS
 10
84.1559356638
 20
259.3942680094
 11
83.6362510646
 21
259.1790142816
  0
LINE
  8
0
 62
7
  6
CONTINUOUS
 10
81.7307402066
 20
258.3897503394
 11
81.2110556074
 21
258.1744966116
  0
LINE
  8
0
 62
7
  6
CONTINUOUS
 10
79.6069430101
 20
257.2916652141
 11
79.0620004503
 21
257.1225176507
  0
LINE
  8
0
 62
7
  6
CONTINUOUS
 10
79.1516933432
 20
256.7385683712
 11
79.696635903
 21
256.9077159347
  0
LINE
  8
0
 62
7
  6
CONTINUOUS
 10
65.8792699188
 20
243.9804015961
 11
65.6979764865
 21
243.6384590973
  0
LINE
  8
0
 62
7
  6
CONTINUOUS
 10
65.981443257
 20
243.3809337911
 11
66.1627367079
 21
243.722876273
  0
LINE
  8
0
 62
7
  6
CONTINUOUS
 10
66.3535210297
 20
248.1466452183
 11
66.1483445659
 21
247.8184763676
  0
LINE
  8
0
 62
7
  6
CONTINUOUS
 10
66.4127589429
 20
247.5414245586
 11
66.6179354066
 21
247.8695934093
  0
LINE
  8
0
 62
7
  6
CONTINUOUS
 10
78.7367232327
 20
256.3132752673
 11
78.8606045818
 21
256.4834999272
  0
LINE
  8
0
 62
7
  6
CONTINUOUS
 10
65.6979764865
 20
243.6384590973
 11
65.4458162528
 21
243.3608978427
  0
LINE
  8
0
 62
7
  6
CONTINUOUS
 10
65.7292830232
 20
243.1033725365
 11
65.981443257
 21
243.3809337911
  0
LINE
  8
0
 62
7
  6
CONTINUOUS
 10
66.6748837869
 20
244.1442271172
 11
66.9900841016
 21
244.4911787103
  0
LINE
  8
0
 62
7
  6
CONTINUOUS
 10
78.60370619
 20
256.7826063936
 11
78.3962211347
 21
256.5699598416
  0
LINE
  8
0
 62
7
  6
CONTINUOUS
 10
67.5193564154
 20
245.0240602781
 11
67.8584563909
 21
245.3476925585
  0
LINE
  8
0
 62
7
  6
CONTINUOUS
 10
69.0792160699
 20
246.5127685458
 11
69.4183158514
 21
246.836400641
  0
LINE
  8
0
 62
7
  6
CONTINUOUS
 10
78.8606045818
 20
256.4834999272
 11
79.1516933432
 21
256.7385683712
  0
LINE
  8
0
 62
7
  6
CONTINUOUS
 10
69.989457084
 20
247.3234534917
 11
70.3430607576
 21
247.6311722544
  0
LINE
  8
0
 62
7
  6
CONTINUOUS
 10
90.3828410043
 20
262.6897573874
 11
90.0582166802
 21
262.421594858
  0
LINE
  8
0
 62
7
  6
CONTINUOUS
 10
80.7333709953
 20
255.0717370166
 11
80.191473044
 21
254.6894038375
  0
LINE
  8
0
 62
7
  6
CONTINUOUS
 10
80.4483733645
 20
254.3902983122
 11
80.9902694136
 21
254.7726304979
  0
LINE
  8
0
 62
7
  6
CONTINUOUS
 10
65.406256142
 20
242.890192658
 11
65.7292830232
 21
243.1033725365
  0
LINE
  8
0
 62
7
  6
CONTINUOUS
 10
74.476690382
 20
250.8674958006
 11
74.9494420141
 21
251.1723107351
  0
LINE
  8
0
 62
7
  6
CONTINUOUS
 10
77.9746400969
 20
253.0528338217
 11
78.381605074
 21
253.2854416574
  0
LINE
  8
0
 62
7
  6
CONTINUOUS
 10
66.6179354066
 20
247.8695934093
 11
66.9553190589
 21
248.0592363554
  0
LINE
  8
0
 62
7
  6
CONTINUOUS
 10
81.2691778312
 20
255.880440426
 11
80.8511612138
 21
255.6683319368
  0
LINE
  8
0
 62
7
  6
CONTINUOUS
 10
92.7474938953
 20
259.3895249263
 11
92.402130801
 21
259.2148340243
  0
LINE
  8
0
 62
7
  6
CONTINUOUS
 10
66.8943646285
 20
248.5304674957
 11
66.6248010877
 21
248.4055511167
  0
LINE
  8
0
 62
7
  6
CONTINUOUS
 10
92.5265508677
 20
258.6540014057
 11
92.9634373315
 21
258.8489966697
  0
LINE
  8
0
 62
7
  6
CONTINUOUS
 10
82.3835014067
 20
255.3438742033
 11
82.9031860059
 21
255.5591279311
  0
LINE
  8
0
 62
7
  6
CONTINUOUS
 10
84.8086968639
 20
256.3483918733
 11
85.3283814631
 21
256.5636456011
  0
LINE
  8
0
 62
7
  6
CONTINUOUS
 10
79.9034308008
 20
254.2211507563
 11
80.4483733645
 21
254.3902983122
  0
LINE
  8
0
 62
7
  6
CONTINUOUS
 10
66.9553190589
 20
248.0592363554
 11
67.1570624881
 21
248.1194261672
  0
LINE
  8
0
 62
7
  6
CONTINUOUS
 10
65.9266566987
 20
244.3173351541
 11
65.8792699188
 21
243.9804015961
  0
LINE
  8
0
 62
7
  6
CONTINUOUS
 10
66.1483445659
 20
247.8184763676
 11
66.0770920019
 21
247.4857713171
  0
LINE
  8
0
 62
7
  6
CONTINUOUS
 10
66.3415063789
 20
247.2087195081
 11
66.4127589429
 21
247.5414245586
  0
LINE
  8
0
 62
7
  6
CONTINUOUS
 10
66.1627367079
 20
243.722876273
 11
66.2179501772
 21
243.9260382765
  0
LINE
  8
0
 62
7
  6
CONTINUOUS
 10
78.3962211347
 20
256.5699598416
 11
78.2320602293
 21
256.2719314427
  0
LINE
  8
0
 62
7
  6
CONTINUOUS
 10
80.8975319008
 20
255.3697654154
 11
80.7333709953
 21
255.0717370166
  0
LINE
  8
0
 62
7
  6
CONTINUOUS
 10
80.9902694136
 20
254.7726304979
 11
81.2380340139
 21
255.1130808112
  0
LINE
  8
0
 62
7
  6
CONTINUOUS
 10
90.3656855698
 20
261.9013714773
 11
90.5987865226
 21
262.1492296529
  0
LINE
  8
0
 62
7
  6
CONTINUOUS
 10
92.9805948336
 20
259.6373831673
 11
92.7474938953
 21
259.3895249263
  0
LINE
  8
0
 62
7
  6
CONTINUOUS
 10
92.9634373315
 20
258.8489966697
 11
93.2880637451
 21
259.1171596884
  0
LINE
  8
0
 62
7
  6
CONTINUOUS
 10
65.4458162528
 20
243.3608978427
 11
65.0519226665
 21
243.2120993021
  0
LINE
  8
0
 62
7
  6
CONTINUOUS
 10
115.7899345988
 20
261.9551462343
 11
116.1107266636
 21
262.068557788
  0
LINE
  8
0
 62
7
  6
CONTINUOUS
 10
130.5421710278
 20
174.4766738131
 11
130.6198771713
 21
174.4987141103
  0
LINE
  8
0
 62
7
  6
CONTINUOUS
 10
130.6778739417
 20
174.6402096502
 11
130.6001680836
 21
174.6181696385
  0
LINE
  8
0
 62
7
  6
CONTINUOUS
 10
131.7889992519
 20
175.7235020373
 11
131.8667053954
 21
175.7455423344
  0
LINE
  8
0
 62
7
  6
CONTINUOUS
 10
132.7615251926
 20
176.6960279779
 11
132.8392311933
 21
176.7180681323
  0
LINE
  8
0
 62
7
  6
CONTINUOUS
 10
66.2179501772
 20
243.9260382765
 11
66.1944701433
 21
244.3273530899
  0
LINE
  8
0
 62
7
  6
CONTINUOUS
 10
66.0770920019
 20
247.4857713171
 11
66.0736591614
 21
247.2177924634
  0
LINE
  8
0
 62
7
  6
CONTINUOUS
 10
66.3380735383
 20
246.9407406544
 11
66.3415063789
 21
247.2087195081
  0
LINE
  8
0
 62
7
  6
CONTINUOUS
 10
78.2320602293
 20
256.2719314427
 11
78.1515011164
 21
256.016323965
  0
LINE
  8
0
 62
7
  6
CONTINUOUS
 10
78.615886477
 20
255.9298650216
 11
78.7367232327
 21
256.3132752673
  0
LINE
  8
0
 62
7
  6
CONTINUOUS
 10
81.2380340139
 20
255.1130808112
 11
81.3588707544
 21
255.4964910868
  0
LINE
  8
0
 62
7
  6
CONTINUOUS
 10
90.0582166802
 20
262.421594858
 11
89.7750636119
 21
261.9664876794
  0
LINE
  8
0
 62
7
  6
CONTINUOUS
 10
93.2880637451
 20
259.1171596884
 11
93.571216806
 21
259.5722668998
  0
LINE
  8
0
 62
7
  6
CONTINUOUS
 10
113.70686476
 20
263.1954261316
 11
113.0235526515
 21
262.6489136825
  0
LINE
  8
0
 62
7
  6
CONTINUOUS
 10
112.872929423
 20
261.8979118687
 11
113.5562415842
 21
262.4444245807
  0
LINE
  8
0
 62
7
  6
CONTINUOUS
 10
108.454988798
 20
260.0549912722
 11
112.049344619
 21
262.8546085055
  0
LINE
  8
0
 62
7
  6
CONTINUOUS
 10
111.6104253757
 20
263.1070881451
 11
107.9231637437
 21
260.3200130233
  0
LINE
  8
0
 62
7
  6
CONTINUOUS
 10
115.7307517533
 20
262.4658616348
 11
115.2704661909
 21
262.1912094989
  0
LINE
  8
0
 62
7
  6
CONTINUOUS
 10
117.3830994551
 20
260.6436635058
 11
114.2343574513
 21
258.9988334675
  0
LINE
  8
0
 62
7
  6
CONTINUOUS
 10
114.9595475708
 20
258.807518449
 11
117.7630702159
 21
260.2463607538
  0
LINE
  8
0
 62
7
  6
CONTINUOUS
 10
125.1578092732
 20
257.6657660202
 11
124.7792229514
 21
257.530572326
  0
LINE
  8
0
 62
7
  6
CONTINUOUS
 10
125.628187253
 20
254.5618360872
 11
125.880575569
 21
254.6519664837
  0
LINE
  8
0
 62
7
  6
CONTINUOUS
 10
132.8972281065
 20
176.859563815
 11
132.8195221057
 21
176.8375236606
  0
LINE
  8
0
 62
7
  6
CONTINUOUS
 10
132.1810608676
 20
176.7278880213
 11
132.0645017878
 21
176.6948277256
  0
LINE
  8
0
 62
7
  6
CONTINUOUS
 10
133.6203884451
 20
177.5827241536
 11
133.7369475176
 21
177.6157844566
  0
LINE
  8
0
 62
7
  6
CONTINUOUS
 10
133.8657269804
 20
178.3847212109
 11
133.9822860627
 21
178.4177815042
  0
LINE
  8
0
 62
7
  6
CONTINUOUS
 10
134.0402829125
 20
178.5592771431
 11
133.9625768623
 21
178.5372369489
  0
LINE
  8
0
 62
7
  6
CONTINUOUS
 10
129.4530863
 20
173.4710878549
 11
129.5586250813
 21
173.4652949435
  0
LINE
  8
0
 62
7
  6
CONTINUOUS
 10
129.6305383133
 20
173.5928740218
 11
129.5777689227
 21
173.5957704776
  0
LINE
  8
0
 62
7
  6
CONTINUOUS
 10
129.2304228854
 20
173.6937512696
 11
129.3359616764
 21
173.6879583484
  0
LINE
  8
0
 62
7
  6
CONTINUOUS
 10
129.4078749084
 20
173.8155374267
 11
129.355105508
 21
173.8184338922
  0
LINE
  8
0
 62
7
  6
CONTINUOUS
 10
130.0736038137
 20
174.1472712149
 11
130.1263732043
 21
174.1443747592
  0
LINE
  8
0
 62
7
  6
CONTINUOUS
 10
83.6362510646
 20
259.1790142816
 11
83.1598007087
 21
257.6344416472
  0
LINE
  8
0
 62
7
  6
CONTINUOUS
 10
82.9031860059
 20
255.5591279311
 11
83.3796343281
 21
257.1036998682
  0
LINE
  8
0
 62
7
  6
CONTINUOUS
 10
83.0098752444
 20
257.2614438319
 11
82.3835014067
 21
255.3438742033
  0
LINE
  8
0
 62
7
  6
CONTINUOUS
 10
83.5295598437
 20
257.4766975597
 11
84.1559356638
 21
259.3942680094
  0
LINE
  8
0
 62
7
  6
CONTINUOUS
 10
90.2448468165
 20
261.5803457663
 11
90.3656855698
 21
261.9013714773
  0
LINE
  8
0
 62
40
  6
CONTINUOUS
 10
65.4967988259
 20
219.4307883083
 11
93.3183911228
 21
247.2523806051
  0
LINE
  8
0
 62
40
  6
CONTINUOUS
 10
98.8573014445
 20
250.528549227
 11
97.4430878821
 21
249.1143356647
  0
LINE
  8
0
 62
40
  6
CONTINUOUS
 10
62.220630204
 20
213.8918779866
 11
63.6348437664
 21
215.306091549
  0
LINE
  8
0
 62
7
  6
CONTINUOUS
 10
115.5353665984
 20
261.7252434392
 11
115.7899345988
 21
261.9551462343
  0
LINE
  8
0
 62
7
  6
CONTINUOUS
 10
124.9488180943
 20
257.0221066921
 11
125.243105052
 21
257.1983274037
  0
LINE
  8
0
 62
7
  6
CONTINUOUS
 10
132.6013946503
 20
252.4027296668
 11
133.0519524325
 21
252.5536333281
  0
LINE
  8
0
 62
7
  6
CONTINUOUS
 10
134.9894871818
 20
251.7488496047
 11
134.663501576
 21
251.6421165852
  0
LINE
  8
0
 62
7
  6
CONTINUOUS
 10
130.2510561124
 20
174.2690576672
 11
130.1455170457
 21
174.2748502933
  0
LINE
  8
0
 62
7
  6
CONTINUOUS
 10
129.850940399
 20
174.3699346296
 11
129.9037097897
 21
174.3670381738
  0
LINE
  8
0
 62
7
  6
CONTINUOUS
 10
130.0283926977
 20
174.4917210819
 11
129.9228536262
 21
174.4975137128
  0
LINE
  8
0
 62
7
  6
CONTINUOUS
 10
131.8997656984
 20
175.8621014069
 11
131.8469960224
 21
175.8649975772
  0
LINE
  8
0
 62
7
  6
CONTINUOUS
 10
131.5158973634
 20
176.1462233013
 11
131.4631279704
 21
176.1491197594
  0
LINE
  8
0
 62
7
  6
CONTINUOUS
 10
132.0702944211
 20
176.5892886516
 11
132.1230639544
 21
176.5863923386
  0
LINE
  8
0
 62
7
  6
CONTINUOUS
 10
132.7087556592
 20
176.6989242909
 11
132.7615251926
 21
176.6960279779
  0
LINE
  8
0
 62
7
  6
CONTINUOUS
 10
134.1458218931
 20
178.5534844114
 11
134.0402829125
 21
178.5592771431
  0
LINE
  8
0
 62
40
  6
CONTINUOUS
 10
65.4967988259
 20
200.0883583
 11
93.3183911228
 21
172.2667660032
  0
LINE
  8
0
 62
40
  6
CONTINUOUS
 10
97.4430878821
 20
170.4048109436
 11
98.8573014445
 21
168.9905973813
  0
LINE
  8
0
 62
40
  6
CONTINUOUS
 10
63.6348437664
 20
204.2130550593
 11
62.220630204
 21
205.6272686217
  0
LINE
  8
0
 62
7
  6
CONTINUOUS
 10
78.1515011164
 20
256.016323965
 11
78.1575922167
 21
255.5899537645
  0
LINE
  8
0
 62
7
  6
CONTINUOUS
 10
78.6189310704
 20
255.7166794358
 11
78.615886477
 21
255.9298650216
  0
LINE
  8
0
 62
7
  6
CONTINUOUS
 10
89.7750636119
 20
261.9664876794
 11
89.6749614759
 21
261.5519901381
  0
LINE
  8
0
 62
7
  6
CONTINUOUS
 10
93.101433645
 20
259.9584086165
 11
92.9805948336
 21
259.6373831673
  0
LINE
  8
0
 62
7
  6
CONTINUOUS
 10
117.7630702159
 20
260.2463607538
 11
118.0176382162
 21
260.4762635488
  0
LINE
  8
0
 62
7
  6
CONTINUOUS
 10
124.7792229514
 20
257.530572326
 11
124.611130148
 21
257.3994168052
  0
LINE
  8
0
 62
7
  6
CONTINUOUS
 10
129.4909650141
 20
255.0839201758
 11
129.1304137501
 21
254.8562567603
  0
LINE
  8
0
 62
7
  6
CONTINUOUS
 10
129.4792315984
 20
254.5288166425
 11
129.6595108839
 21
254.6426460987
  0
LINE
  8
0
 62
7
  6
CONTINUOUS
 10
126.2581655203
 20
255.2135718675
 11
125.9638746744
 21
255.0373529736
  0
LINE
  8
0
 62
7
  6
CONTINUOUS
 10
134.9093246055
 20
251.1994394055
 11
135.1022757208
 21
251.2901457059
  0
LINE
  8
0
 62
7
  6
CONTINUOUS
 10
135.479443769
 20
248.1645081118
 11
135.8054293957
 21
248.2712411575
  0
LINE
  8
0
 62
7
  6
CONTINUOUS
 10
133.9822860627
 20
178.4177815042
 11
134.1017414928
 21
178.3980723184
  0
LINE
  8
0
 62
7
  6
CONTINUOUS
 10
130.4754851756
 20
174.4934867305
 11
130.5421710278
 21
174.4766738131
  0
LINE
  8
0
 62
7
  6
CONTINUOUS
 10
131.7223133997
 20
175.7403149546
 11
131.7889992519
 21
175.7235020373
  0
LINE
  8
0
 62
7
  6
CONTINUOUS
 10
131.3384450623
 20
176.0244368514
 11
131.4051309194
 21
176.0076239292
  0
LINE
  8
0
 62
7
  6
CONTINUOUS
 10
131.582583223
 20
176.1294103766
 11
131.5158973634
 21
176.1462233013
  0
LINE
  8
0
 62
7
  6
CONTINUOUS
 10
133.7311547488
 20
177.7213233805
 11
133.6644688253
 21
177.7381362265
  0
LINE
  8
0
 62
7
  6
CONTINUOUS
 10
65.8401366616
 20
244.6492597396
 11
65.9266566987
 21
244.3173351541
  0
LINE
  8
0
 62
7
  6
CONTINUOUS
 10
93.571216806
 20
259.5722668998
 11
93.6713189275
 21
259.9867645065
  0
LINE
  8
0
 62
7
  6
CONTINUOUS
 10
117.6620864503
 20
260.9661446701
 11
117.3830994551
 21
260.6436635058
  0
LINE
  8
0
 62
7
  6
CONTINUOUS
 10
124.7388227831
 20
256.8048627192
 11
124.9488180943
 21
257.0221066921
  0
LINE
  8
0
 62
7
  6
CONTINUOUS
 10
125.880575569
 20
254.6519664837
 11
126.0486722459
 21
254.7831201567
  0
LINE
  8
0
 62
7
  6
CONTINUOUS
 10
135.5596063663
 20
248.7139183371
 11
135.3666552509
 21
248.6232120367
  0
LINE
  8
0
 62
7
  6
CONTINUOUS
 10
132.2616631911
 20
176.6971586326
 11
132.1810608676
 21
176.7278880213
  0
LINE
  8
0
 62
7
  6
CONTINUOUS
 10
132.8195221057
 20
176.8375236606
 11
132.7389196492
 21
176.8682528968
  0
LINE
  8
0
 62
7
  6
CONTINUOUS
 10
133.5397859886
 20
177.6134533898
 11
133.6203884451
 21
177.5827241536
  0
LINE
  8
0
 62
7
  6
CONTINUOUS
 10
130.3809664002
 20
174.5381325709
 11
130.4754851756
 21
174.4934867305
  0
LINE
  8
0
 62
7
  6
CONTINUOUS
 10
130.6001680836
 20
174.6181696385
 11
130.5056490228
 21
174.6628151936
  0
LINE
  8
0
 62
7
  6
CONTINUOUS
 10
131.4051309194
 20
176.0076239292
 11
131.4996499851
 21
175.9629783692
  0
LINE
  8
0
 62
7
  6
CONTINUOUS
 10
132.6142368838
 20
176.7435701314
 11
132.7087556592
 21
176.6989242909
  0
LINE
  8
0
 62
7
  6
CONTINUOUS
 10
89.6749614759
 20
261.5519901381
 11
89.6871194447
 21
261.0643245966
  0
LINE
  8
0
 62
7
  6
CONTINUOUS
 10
90.2362680519
 20
261.1861525789
 11
90.2448468165
 21
261.5803457663
  0
LINE
  8
0
 62
7
  6
CONTINUOUS
 10
93.1100124097
 20
260.3526018039
 11
93.101433645
 21
259.9584086165
  0
LINE
  8
0
 62
7
  6
CONTINUOUS
 10
115.2704661909
 20
262.1912094989
 11
115.0821264046
 21
261.8448143679
  0
LINE
  8
0
 62
7
  6
CONTINUOUS
 10
118.0176382162
 20
260.4762635488
 11
118.2059780025
 21
260.8226586798
  0
LINE
  8
0
 62
7
  6
CONTINUOUS
 10
124.611130148
 20
257.3994168052
 11
124.3592400466
 21
257.0960806242
  0
LINE
  8
0
 62
7
  6
CONTINUOUS
 10
130.6026917239
 20
252.5993021336
 11
130.3721829689
 21
252.4039616047
  0
LINE
  8
0
 62
7
  6
CONTINUOUS
 10
144.866595326
 20
243.0169330231
 11
144.4261743778
 21
242.8071824873
  0
LINE
  8
0
 62
7
  6
CONTINUOUS
 10
143.5550149567
 20
244.1363277603
 11
143.2778552734
 21
244.0160136529
  0
LINE
  8
0
 62
7
  6
CONTINUOUS
 10
143.5792268881
 20
243.5315051993
 11
143.8563865714
 21
243.6518193067
  0
LINE
  8
0
 62
7
  6
CONTINUOUS
 10
144.7611302831
 20
242.3552856057
 11
145.1246324068
 21
242.5080222176
  0
LINE
  8
0
 62
7
  6
CONTINUOUS
 10
145.1704803022
 20
239.3912246489
 11
144.8069781785
 21
239.2384880371
  0
LINE
  8
0
 62
7
  6
CONTINUOUS
 10
134.2542572259
 20
178.4949222052
 11
134.1458218931
 21
178.5534844114
  0
LINE
  8
0
 62
7
  6
CONTINUOUS
 10
80.8511612138
 20
255.6683319368
 11
80.8975319008
 21
255.3697654154
  0
LINE
  8
0
 62
7
  6
CONTINUOUS
 10
93.6713189275
 20
259.9867645065
 11
93.6591610168
 21
260.4744297862
  0
LINE
  8
0
 62
7
  6
CONTINUOUS
 10
129.1304137501
 20
254.8562567603
 11
128.7492020433
 21
254.4163921337
  0
LINE
  8
0
 62
7
  6
CONTINUOUS
 10
130.7210008172
 20
252.0765214869
 11
131.0017463134
 21
252.3533685283
  0
LINE
  8
0
 62
7
  6
CONTINUOUS
 10
145.0650154747
 20
238.7295773912
 11
145.5054362074
 21
238.9393277674
  0
LINE
  8
0
 62
7
  6
CONTINUOUS
 10
129.8950191511
 20
173.0253760215
 11
131.5213647478
 21
171.3990304248
  0
LINE
  8
0
 62
7
  6
CONTINUOUS
 10
129.2025899622
 20
173.7215841927
 11
129.2304228854
 21
173.6937512696
  0
LINE
  8
0
 62
7
  6
CONTINUOUS
 10
132.1224055118
 20
172.0000711888
 11
130.4960599151
 21
173.6264167855
  0
LINE
  8
0
 62
7
  6
CONTINUOUS
 10
130.6374812713
 20
173.7678381418
 11
131.5567200869
 21
172.8485993262
  0
LINE
  8
0
 62
7
  6
CONTINUOUS
 10
130.2788890355
 20
174.2412247441
 11
130.2510561124
 21
174.2690576672
  0
LINE
  8
0
 62
7
  6
CONTINUOUS
 10
130.116553591
 20
174.8025453801
 11
130.3809664002
 21
174.5381325709
  0
LINE
  8
0
 62
7
  6
CONTINUOUS
 10
130.5056490228
 20
174.6628151936
 11
130.2412362137
 21
174.9272280027
  0
LINE
  8
0
 62
7
  6
CONTINUOUS
 10
132.1931161899
 20
173.4142847512
 11
131.2385220353
 21
174.3688789058
  0
LINE
  8
0
 62
7
  6
CONTINUOUS
 10
78.1575922167
 20
255.5899537645
 11
78.3339334699
 21
255.0352406717
  0
LINE
  8
0
 62
7
  6
CONTINUOUS
 10
81.3588707544
 20
255.4964910868
 11
81.2691778312
 21
255.880440426
  0
LINE
  8
0
 62
7
  6
CONTINUOUS
 10
99.0118349347
 20
264.1404062565
 11
99.2010631404
 21
259.6443866073
  0
LINE
  8
0
 62
7
  6
CONTINUOUS
 10
99.7389088044
 20
260.2420000868
 11
99.674490691
 21
261.7725599859
  0
LINE
  8
0
 62
7
  6
CONTINUOUS
 10
99.6503339017
 20
262.3465198727
 11
99.5979941802
 21
263.5900998954
  0
LINE
  8
DEFAULT_1
 62
2
  6
CENTER
 10
102.9896061269
 20
273.6039387309
 11
102.9896061269
 21
211.7596733042
  0
LINE
  8
0
 62
2
  6
CONTINUOUS
 10
102.9896061269
 20
210.6395733042
 11
102.9896061269
 21
208.8795733042
  0
LINE
  8
DEFAULT_1
 62
2
  6
CENTER
 10
102.9896061269
 20
142.6509846827
 11
102.9896061269
 21
207.7594733042
  0
LINE
  8
0
 62
7
  6
CONTINUOUS
 10
108.422721002
 20
264.0204881976
 11
108.3586752077
 21
263.5460683631
  0
LINE
  8
0
 62
7
  6
CONTINUOUS
 10
107.9231637437
 20
260.3200130233
 11
107.8206904638
 21
259.5609412216
  0
LINE
  8
0
 62
7
  6
CONTINUOUS
 10
113.0235526515
 20
262.6489136825
 11
112.872929423
 21
261.8979118687
  0
LINE
  8
0
 62
7
  6
CONTINUOUS
 10
113.5562415842
 20
262.4444245807
 11
112.8219534967
 21
258.7832914944
  0
LINE
  8
0
 62
7
  6
CONTINUOUS
 10
113.3734703263
 20
258.6726775865
 11
114.2583815896
 21
263.0848122236
  0
LINE
  8
0
 62
7
  6
CONTINUOUS
 10
114.2343574513
 20
258.9988334675
 11
114.1122417124
 21
258.5359470304
  0
LINE
  8
0
 62
7
  6
CONTINUOUS
 10
124.0701060522
 20
260.01832005
 11
122.3081459616
 21
255.8776079568
  0
LINE
  8
0
 62
7
  6
CONTINUOUS
 10
122.8257349732
 20
255.6573629454
 11
124.5876950639
 21
259.7980750387
  0
LINE
  8
0
 62
7
  6
CONTINUOUS
 10
124.3592400466
 20
257.0960806242
 11
124.0240507959
 21
256.4073578628
  0
LINE
  8
0
 62
7
  6
CONTINUOUS
 10
124.4874308304
 20
256.288320618
 11
124.7388227831
 21
256.8048627192
  0
LINE
  8
0
 62
7
  6
CONTINUOUS
 10
129.0383398406
 20
257.6319912908
 11
126.8705682867
 21
253.6885452737
  0
LINE
  8
0
 62
7
  6
CONTINUOUS
 10
127.281345167
 20
253.4627350477
 11
129.449116721
 21
257.4061810648
  0
LINE
  8
0
 62
7
  6
CONTINUOUS
 10
129.0477904573
 20
254.0074410003
 11
129.1482566328
 21
254.1704585284
  0
LINE
  8
0
 62
7
  6
CONTINUOUS
 10
129.4289985106
 20
254.4473078785
 11
129.4792315984
 21
254.5288166425
  0
LINE
  8
0
 62
7
  6
CONTINUOUS
 10
132.8804327449
 20
253.6118300254
 11
131.1147656052
 21
251.1079386695
  0
LINE
  8
0
 62
7
  6
CONTINUOUS
 10
131.49785263
 20
250.8377974871
 11
132.6013946503
 21
252.4027296668
  0
LINE
  8
0
 62
7
  6
CONTINUOUS
 10
132.93245721
 20
252.872209255
 11
133.2635197697
 21
253.3416888431
  0
LINE
  8
0
 62
7
  6
CONTINUOUS
 10
134.663501576
 20
251.6421165852
 11
134.5436817165
 21
251.4927466814
  0
LINE
  8
0
 62
7
  6
CONTINUOUS
 10
142.6309395699
 20
247.2004966964
 11
139.2628323396
 21
244.2162289997
  0
LINE
  8
0
 62
7
  6
CONTINUOUS
 10
139.6358658017
 20
243.795215596
 11
141.1407647983
 21
245.1286118198
  0
LINE
  8
0
 62
7
  6
CONTINUOUS
 10
141.5707358828
 20
245.5095821186
 11
142.6456637949
 21
246.4620080436
  0
LINE
  8
0
 62
7
  6
CONTINUOUS
 10
144.4261743778
 20
242.8071824873
 11
143.2723951356
 21
241.9519759428
  0
LINE
  8
0
 62
7
  6
CONTINUOUS
 10
143.6073510408
 20
241.5000790613
 11
144.7611302831
 21
242.3552856057
  0
LINE
  8
0
 62
7
  6
CONTINUOUS
 10
148.5671532463
 20
239.7262164024
 11
144.7082961708
 21
237.411217035
  0
LINE
  8
0
 62
7
  6
CONTINUOUS
 10
144.9976710918
 20
236.9288599006
 11
148.0354948448
 21
238.7513062698
  0
LINE
  8
DEFAULT_1
 62
2
  6
CENTER
 10
167.7144420131
 20
209.7595733042
 11
104.9897061269
 21
209.7595733042
  0
LINE
  8
0
 62
2
  6
CONTINUOUS
 10
103.8696061269
 20
209.7595733042
 11
102.1096061269
 21
209.7595733042
  0
LINE
  8
DEFAULT_1
 62
2
  6
CENTER
 10
39.0361050328
 20
209.7595733042
 11
100.9895061269
 21
209.7595733042
  0
LINE
  8
0
 62
7
  6
CONTINUOUS
 10
62.7050682487
 20
244.3308913216
 11
64.1224020761
 21
243.0432648131
  0
LINE
  8
0
 62
7
  6
CONTINUOUS
 10
64.4376023232
 20
243.3902163317
 11
63.0202684957
 21
244.6778428402
  0
LINE
  8
0
 62
7
  6
CONTINUOUS
 10
130.6900943401
 20
175.3760861292
 11
131.0101729956
 21
175.0560074737
  0
LINE
  8
0
 62
7
  6
CONTINUOUS
 10
131.065838842
 20
175.0003416273
 11
131.1354211499
 21
174.9307593194
  0
LINE
  8
0
 62
7
  6
CONTINUOUS
 10
131.2601040579
 20
175.0554422274
 11
130.8147772481
 21
175.5007690372
  0
LINE
  8
0
 62
7
  6
CONTINUOUS
 10
131.0142698439
 20
175.700261633
 11
131.4595966537
 21
175.2549348232
  0
LINE
  8
0
 62
7
  6
CONTINUOUS
 10
131.5987613086
 20
175.1157701683
 11
131.6683436165
 21
175.0461878604
  0
LINE
  8
0
 62
7
  6
CONTINUOUS
 10
131.7930262392
 20
175.170870483
 11
131.7234439312
 21
175.240452791
  0
LINE
  8
0
 62
7
  6
CONTINUOUS
 10
131.5842792764
 20
175.3796174458
 11
131.1389524666
 21
175.8249442556
  0
LINE
  8
0
 62
7
  6
CONTINUOUS
 10
132.0516948337
 20
175.1820517041
 11
132.829512293
 21
174.4042342448
  0
LINE
  8
0
 62
7
  6
CONTINUOUS
 10
133.3951977179
 20
173.8385488199
 11
133.6780404304
 21
173.5557061074
  0
LINE
  8
0
 62
7
  6
CONTINUOUS
 10
131.4996499851
 20
175.9629783692
 11
131.7223133997
 21
175.7403149546
  0
LINE
  8
0
 62
7
  6
CONTINUOUS
 10
131.8469960224
 20
175.8649975772
 11
131.8052466376
 21
175.906746962
  0
LINE
  8
0
 62
7
  6
CONTINUOUS
 10
131.7495807718
 20
175.9624128278
 11
131.6660820022
 21
176.0459115974
  0
LINE
  8
0
 62
7
  6
CONTINUOUS
 10
134.2790811944
 20
174.1567468714
 11
132.6527355977
 21
175.7830924681
  0
LINE
  8
0
 62
7
  6
CONTINUOUS
 10
132.1230639544
 20
176.5863923386
 11
132.1508968874
 21
176.5585594057
  0
LINE
  8
0
 62
7
  6
CONTINUOUS
 10
132.7941569539
 20
175.9245138244
 11
134.4205025507
 21
174.2981682277
  0
LINE
  8
0
 62
7
  6
CONTINUOUS
 10
132.4982430576
 20
176.4605787661
 11
132.4704101344
 21
176.4884116893
  0
LINE
  8
0
 62
7
  6
CONTINUOUS
 10
132.3034125759
 20
176.6554092479
 11
132.2616631911
 21
176.6971586326
  0
LINE
  8
0
 62
7
  6
CONTINUOUS
 10
132.3359076131
 20
177.0218994022
 11
132.6142368838
 21
176.7435701314
  0
LINE
  8
0
 62
7
  6
CONTINUOUS
 10
132.7389196492
 20
176.8682528968
 11
132.4605903784
 21
177.1465821675
  0
LINE
  8
0
 62
7
  6
CONTINUOUS
 10
135.0215433147
 20
174.8992089917
 11
134.2437258554
 21
175.677026451
  0
LINE
  8
0
 62
7
  6
CONTINUOUS
 10
133.6780404304
 20
176.2427118759
 11
133.3951977179
 21
176.5255545884
  0
LINE
  8
0
 62
7
  6
CONTINUOUS
 10
132.9094485049
 20
177.595440294
 11
133.2295271604
 21
177.2753616385
  0
LINE
  8
0
 62
7
  6
CONTINUOUS
 10
133.2851930067
 20
177.2196957921
 11
133.5635222775
 21
176.9413665214
  0
LINE
  8
0
 62
7
  6
CONTINUOUS
 10
133.6882051142
 20
177.066049358
 11
133.0341313416
 21
177.7201231306
  0
LINE
  8
0
 62
7
  6
CONTINUOUS
 10
134.8801219584
 20
176.6669759446
 11
135.834716113
 21
175.71238179
  0
LINE
  8
0
 62
7
  6
CONTINUOUS
 10
134.1017414928
 20
178.3980723184
 11
134.1434908776
 21
178.3563229337
  0
LINE
  8
0
 62
7
  6
CONTINUOUS
 10
136.435756877
 20
176.313422554
 11
135.5165180615
 21
177.2326613696
  0
LINE
  8
0
 62
7
  6
CONTINUOUS
 10
65.4040412147
 20
247.2404749442
 11
67.5193564154
 21
245.0240602781
  0
LINE
  8
0
 62
7
  6
CONTINUOUS
 10
67.8584563909
 20
245.3476925585
 11
66.3380735383
 21
246.9407406544
  0
LINE
  8
0
 62
7
  6
CONTINUOUS
 10
66.0736591614
 20
247.2177924634
 11
65.7431411902
 21
247.5641072247
  0
LINE
  8
0
 62
7
  6
CONTINUOUS
 10
67.0353558354
 20
250.7180500529
 11
67.3496218883
 21
250.3569228022
  0
LINE
  8
0
 62
7
  6
CONTINUOUS
 10
67.9781541699
 20
249.6346680985
 11
69.989457084
 21
247.3234534917
  0
LINE
  8
0
 62
7
  6
CONTINUOUS
 10
70.3430607576
 20
247.6311722544
 11
68.3317578435
 21
249.9423868612
  0
LINE
  8
0
 62
7
  6
CONTINUOUS
 10
67.7032255618
 20
250.6646415649
 11
67.388959509
 21
251.0257688156
  0
LINE
  8
0
 62
7
  6
CONTINUOUS
 10
72.0381709056
 20
254.6495088576
 11
74.476690382
 21
250.8674958006
  0
LINE
  8
0
 62
7
  6
CONTINUOUS
 10
74.9494420141
 20
251.1723107351
 11
73.8080073563
 21
252.9426147337
  0
LINE
  8
0
 62
7
  6
CONTINUOUS
 10
73.4967070348
 20
253.4254248536
 11
72.8222228593
 21
254.4715136722
  0
LINE
  8
0
 62
7
  6
CONTINUOUS
 10
75.7416065782
 20
256.9596946209
 11
77.9746400969
 21
253.0528338217
  0
LINE
  8
0
 62
7
  6
CONTINUOUS
 10
78.381605074
 20
253.2854416574
 11
76.1485715553
 21
257.1923024566
  0
LINE
  8
0
 62
7
  6
CONTINUOUS
 10
78.8385983868
 20
255.0765854672
 11
78.7519500873
 21
255.2473491609
  0
LINE
  8
0
 62
7
  6
CONTINUOUS
 10
78.6622552201
 20
255.631297589
 11
78.6189310704
 21
255.7166794358
  0
LINE
  8
0
 62
7
  6
CONTINUOUS
 10
89.6871194447
 20
261.0643245966
 11
89.9981696042
 21
259.6622430827
  0
LINE
  8
0
 62
7
  6
CONTINUOUS
 10
90.5473182114
 20
259.7840710649
 11
90.2362680519
 21
261.1861525789
  0
LINE
  8
0
 62
7
  6
CONTINUOUS
 10
94.1561288487
 20
263.5716100756
 11
94.7319547989
 21
259.1086038606
  0
LINE
  8
0
 62
7
  6
CONTINUOUS
 10
95.2898305758
 20
259.1805821044
 11
94.7875143125
 21
263.0738429131
  0
LINE
  8
0
 62
7
  6
CONTINUOUS
 10
102.109836097
 20
261.8750586574
 11
102.0856793076
 21
262.4490185442
  0
LINE
  8
0
 62
7
  6
CONTINUOUS
 10
102.5730778773
 20
259.7863077615
 11
102.5489210851
 21
260.3602677153
  0
LINE
  8
0
 62
7
  6
CONTINUOUS
 10
102.408006461
 20
263.7083675239
 11
102.3838496717
 21
264.2823274107
  0
LINE
  8
0
 62
7
  6
CONTINUOUS
 10
111.5369781929
 20
259.0592492979
 11
111.613833155
 21
259.6285531657
  0
LINE
  8
0
 62
7
  6
CONTINUOUS
 10
112.049344619
 20
262.8546085055
 11
112.139008731
 21
263.5187962739
  0
LINE
  8
0
 62
7
  6
CONTINUOUS
 10
117.7109328074
 20
261.1512994783
 11
117.6620864503
 21
260.9661446701
  0
LINE
  8
0
 62
7
  6
CONTINUOUS
 10
117.3755910259
 20
257.6750310891
 11
117.4977067648
 21
258.1379175262
  0
LINE
  8
0
 62
7
  6
CONTINUOUS
 10
118.2059780025
 20
260.8226586798
 11
118.2548243597
 21
261.0078134881
  0
LINE
  8
0
 62
7
  6
CONTINUOUS
 10
127.7665170606
 20
258.3128241129
 11
126.8866453141
 21
256.5049269396
  0
LINE
  8
0
 62
7
  6
CONTINUOUS
 10
126.677152069
 20
256.0744752891
 11
126.2581655203
 21
255.2135718675
  0
LINE
  8
0
 62
7
  6
CONTINUOUS
 10
126.0486722459
 20
254.7831201567
 11
125.7972803225
 21
254.2665781158
  0
LINE
  8
0
 62
7
  6
CONTINUOUS
 10
126.218761708
 20
254.0614505409
 11
128.1879984461
 21
258.107696538
  0
LINE
  8
0
 62
7
  6
CONTINUOUS
 10
131.2054888472
 20
253.5774074167
 11
131.1050226717
 21
253.4143898885
  0
LINE
  8
0
 62
7
  6
CONTINUOUS
 10
131.3031448399
 20
252.8424211128
 11
131.5040772612
 21
253.1684562832
  0
LINE
  8
0
 62
7
  6
CONTINUOUS
 10
133.983643733
 20
252.2481006503
 11
134.2595291995
 21
252.6393336404
  0
LINE
  8
0
 62
7
  6
CONTINUOUS
 10
135.8054293957
 20
248.2712411575
 11
135.9252492552
 21
248.4206110613
  0
LINE
  8
0
 62
7
  6
CONTINUOUS
 10
143.7700006997
 20
244.3268130876
 11
143.5550149567
 21
244.1363277603
  0
LINE
  8
0
 62
7
  6
CONTINUOUS
 10
143.8563865714
 20
243.6518193067
 11
144.1430341618
 21
243.9057996838
  0
LINE
  8
0
 62
7
  6
CONTINUOUS
 10
146.3242595444
 20
240.2464311934
 11
145.1704803022
 21
239.3912246489
  0
LINE
  8
0
 62
7
  6
CONTINUOUS
 10
145.5054362074
 20
238.9393277674
 11
146.6592154497
 21
239.7945343118
  0
LINE
  8
0
 62
7
  6
CONTINUOUS
 10
149.7717443703
 20
235.8571634632
 11
146.7339206173
 21
234.034717094
  0
LINE
  8
0
 62
7
  6
CONTINUOUS
 10
147.0232955382
 20
233.5523599596
 11
150.8821526137
 21
235.8673593269
  0
LINE
  8
0
 62
7
  6
CONTINUOUS
 10
64.2810694614
 20
246.0656488899
 11
65.8401366616
 21
244.6492597396
  0
LINE
  8
0
 62
7
  6
CONTINUOUS
 10
66.4388037716
 20
244.7386860039
 11
64.5962697761
 21
246.412600483
  0
LINE
  8
0
 62
7
  6
CONTINUOUS
 10
67.8232475943
 20
247.8287648327
 11
69.0792160699
 21
246.5127685458
  0
LINE
  8
0
 62
7
  6
CONTINUOUS
 10
69.4183158514
 20
246.836400641
 11
68.1623473757
 21
248.1523969279
  0
LINE
  8
0
 62
7
  6
CONTINUOUS
 10
75.8565971611
 20
254.2634790624
 11
75.5452968395
 21
254.7462891824
  0
LINE
  8
0
 62
7
  6
CONTINUOUS
 10
75.18598102
 20
255.9955883449
 11
74.8746806984
 21
256.4783984649
  0
LINE
  8
0
 62
7
  6
CONTINUOUS
 10
80.3312713558
 20
256.6929142186
 11
80.4179196553
 21
256.5221505249
  0
LINE
  8
0
 62
7
  6
CONTINUOUS
 10
81.0092329325
 20
256.3927315071
 11
80.8359362727
 21
256.7342590141
  0
LINE
  8
0
 62
7
  6
CONTINUOUS
 10
92.7989622501
 20
261.7546833178
 11
93.1100124097
 21
260.3526018039
  0
LINE
  8
0
 62
7
  6
CONTINUOUS
 10
93.6591610168
 20
260.4744297862
 11
93.3481108573
 21
261.8765113001
  0
LINE
  8
0
 62
7
  6
CONTINUOUS
 10
97.3174234988
 20
263.9794866074
 11
97.807488139
 21
260.1811834329
  0
LINE
  8
0
 62
7
  6
CONTINUOUS
 10
98.451125226
 20
259.5884586362
 11
97.8752992757
 21
264.0514648511
  0
LINE
  8
0
 62
7
  6
CONTINUOUS
 10
124.0240507959
 20
256.4073578628
 11
123.9407516759
 21
256.0219713427
  0
LINE
  8
0
 62
7
  6
CONTINUOUS
 10
128.7492020433
 20
254.4163921337
 11
128.5276166267
 21
253.8781514773
  0
LINE
  8
0
 62
7
  6
CONTINUOUS
 10
143.3555042928
 20
241.1967055587
 11
143.6073510408
 21
241.5000790613
  0
LINE
  8
0
 62
7
  6
CONTINUOUS
 10
143.2723951356
 20
241.9519759428
 11
142.9436297786
 21
241.5915886759
  0
LINE
  8
0
 62
7
  6
CONTINUOUS
 10
146.6592154497
 20
239.7945343118
 11
146.9879810221
 21
240.1549217384
  0
LINE
  8
0
 62
7
  6
CONTINUOUS
 10
64.1224020761
 20
243.0432648131
 11
64.4689089242
 21
242.8551297918
  0
LINE
  8
0
 62
7
  6
CONTINUOUS
 10
67.4249095116
 20
248.1103530267
 11
67.8232475943
 21
247.8287648327
  0
LINE
  8
0
 62
7
  6
CONTINUOUS
 10
68.1623473757
 20
248.1523969279
 11
67.7640096811
 21
248.4339854923
  0
LINE
  8
0
 62
7
  6
CONTINUOUS
 10
78.3339334699
 20
255.0352406717
 11
78.6774820747
 21
254.5653714826
  0
LINE
  8
0
 62
7
  6
CONTINUOUS
 10
90.721790379
 20
259.4304875148
 11
90.5473182114
 21
259.7840710649
  0
LINE
  8
0
 62
7
  6
CONTINUOUS
 10
89.9981696042
 20
259.6622430827
 11
90.1933784472
 21
259.2151874403
  0
LINE
  8
0
 62
7
  6
CONTINUOUS
 10
93.3481108573
 20
261.8765113001
 11
93.1529019562
 21
262.3235672044
  0
LINE
  8
0
 62
7
  6
CONTINUOUS
 10
118.2548243597
 20
261.0078134881
 11
118.2618697283
 21
261.4020365527
  0
LINE
  8
0
 62
7
  6
CONTINUOUS
 10
124.4465324255
 20
255.7758167505
 11
124.4874308304
 21
256.288320618
  0
LINE
  8
0
 62
7
  6
CONTINUOUS
 10
128.9769006505
 20
253.7137288876
 11
129.0477904573
 21
254.0074410003
  0
LINE
  8
0
 62
7
  6
CONTINUOUS
 10
131.5040772612
 20
253.1684562832
 11
131.6251965023
 21
253.5436794115
  0
LINE
  8
0
 62
7
  6
CONTINUOUS
 10
143.922812101
 20
244.5874692791
 11
143.7700006997
 21
244.3268130876
  0
LINE
  8
0
 62
7
  6
CONTINUOUS
 10
148.0354948448
 20
238.7513062698
 11
145.6728821842
 21
235.8033550135
  0
LINE
  8
0
 62
7
  6
CONTINUOUS
 10
146.5761062924
 20
240.549804696
 11
146.3242595444
 21
240.2464311934
  0
LINE
  8
0
 62
7
  6
CONTINUOUS
 10
146.2763125732
 20
235.7280650309
 11
149.0012156277
 21
239.0026807008
  0
LINE
  8
0
 62
7
  6
CONTINUOUS
 10
150.4480902323
 20
236.5908950286
 11
146.2763125732
 21
235.7280650309
  0
LINE
  8
0
 62
7
  6
CONTINUOUS
 10
146.0587139403
 20
235.1602146209
 11
149.7717443703
 21
235.8571634632
  0
LINE
  8
0
 62
7
  6
CONTINUOUS
 10
64.7132424408
 20
243.2664626826
 11
64.4376023232
 21
243.3902163317
  0
LINE
  8
0
 62
7
  6
CONTINUOUS
 10
67.7640096811
 20
248.4339854923
 11
67.4978787869
 21
248.5770477819
  0
LINE
  8
0
 62
7
  6
CONTINUOUS
 10
66.7853105452
 20
244.5505509256
 11
66.4388037716
 21
244.7386860039
  0
LINE
  8
0
 62
7
  6
CONTINUOUS
 10
79.0521726288
 20
254.8628608477
 11
78.8385983868
 21
255.0765854672
  0
LINE
  8
0
 62
7
  6
CONTINUOUS
 10
80.8359362727
 20
256.7342590141
 11
80.5790359674
 21
257.0333645095
  0
LINE
  8
0
 62
7
  6
CONTINUOUS
 10
134.3128194516
 20
178.3864868528
 11
134.2542572259
 21
178.4949222052
  0
LINE
  8
0
 62
7
  6
CONTINUOUS
 10
92.6244900825
 20
262.108266868
 11
92.7989622501
 21
261.7546833178
  0
LINE
  8
0
 62
7
  6
CONTINUOUS
 10
133.3420591841
 20
177.8610534146
 11
133.37278843
 21
177.7804509483
  0
LINE
  8
0
 62
7
  6
CONTINUOUS
 10
134.1434908776
 20
178.3563229337
 11
134.1742201779
 21
178.2757205023
  0
LINE
  8
0
 62
7
  6
CONTINUOUS
 10
123.9407516759
 20
256.0219713427
 11
123.9412498832
 21
255.8087655431
  0
LINE
  8
0
 62
7
  6
CONTINUOUS
 10
128.5276166267
 20
253.8781514773
 11
128.4863031536
 21
253.453744723
  0
LINE
  8
0
 62
7
  6
CONTINUOUS
 10
128.956247585
 20
253.5015232875
 11
128.9769006505
 21
253.7137288876
  0
LINE
  8
0
 62
7
  6
CONTINUOUS
 10
133.5851227146
 20
250.2977872938
 11
133.4917387912
 21
249.8817256238
  0
LINE
  8
0
 62
7
  6
CONTINUOUS
 10
133.9040769999
 20
249.7964465107
 11
133.9507656036
 21
250.004480018
  0
LINE
  8
0
 62
7
  6
CONTINUOUS
 10
134.5436817165
 20
251.4927466814
 11
134.4502978141
 21
251.0766850375
  0
LINE
  8
0
 62
7
  6
CONTINUOUS
 10
134.8626360018
 20
250.9914058983
 11
134.9093246055
 21
251.1994394055
  0
LINE
  8
0
 62
7
  6
CONTINUOUS
 10
135.6062950119
 20
248.9219518967
 11
135.5596063663
 21
248.7139183371
  0
LINE
  8
0
 62
7
  6
CONTINUOUS
 10
135.9252492552
 20
248.4206110613
 11
136.0186331997
 21
248.8366727575
  0
LINE
  8
0
 62
7
  6
CONTINUOUS
 10
136.5648539718
 20
250.116911232
 11
136.5181653682
 21
249.9088777247
  0
LINE
  8
0
 62
7
  6
CONTINUOUS
 10
142.9436297786
 20
241.5915886759
 11
142.7476055536
 21
241.2129035834
  0
LINE
  8
0
 62
7
  6
CONTINUOUS
 10
144.1430341618
 20
243.9057996838
 11
144.295845563
 21
244.1664558753
  0
LINE
  8
0
 62
7
  6
CONTINUOUS
 10
144.6456907202
 20
238.6521522895
 11
145.0650154747
 21
238.7295773912
  0
LINE
  8
0
 62
7
  6
CONTINUOUS
 10
64.4689089242
 20
242.8551297918
 11
64.6736823498
 21
242.7957574574
  0
LINE
  8
0
 62
7
  6
CONTINUOUS
 10
66.9900841016
 20
244.4911787103
 11
66.7853105452
 21
244.5505509256
  0
LINE
  8
0
 62
7
  6
CONTINUOUS
 10
66.1944701433
 20
244.3273530899
 11
66.6748837869
 21
244.1442271172
  0
LINE
  8
0
 62
7
  6
CONTINUOUS
 10
78.6774820747
 20
254.5653714826
 11
79.017984203
 21
254.3086868485
  0
LINE
  8
0
 62
7
  6
CONTINUOUS
 10
79.2224246345
 20
254.734519046
 11
79.0521726288
 21
254.8628608477
  0
LINE
  8
0
 62
7
  6
CONTINUOUS
 10
90.1933784472
 20
259.2151874403
 11
90.4593740006
 21
258.8819081785
  0
LINE
  8
0
 62
7
  6
CONTINUOUS
 10
132.1508968874
 20
176.5585594057
 11
132.167709662
 21
176.4918734108
  0
LINE
  8
0
 62
7
  6
CONTINUOUS
 10
133.4974712667
 20
177.905133785
 11
133.480658411
 21
177.9718197183
  0
LINE
  8
0
 62
7
  6
CONTINUOUS
 10
129.355105508
 20
173.8184338922
 11
129.3522090523
 21
173.8712032828
  0
LINE
  8
0
 62
7
  6
CONTINUOUS
 10
130.1263732043
 20
174.1443747592
 11
130.12926966
 21
174.0916053686
  0
LINE
  8
0
 62
7
  6
CONTINUOUS
 10
131.5796870477
 20
176.1821800575
 11
131.582583223
 21
176.1294103766
  0
LINE
  8
0
 62
7
  6
CONTINUOUS
 10
131.6660820022
 20
176.0459115974
 11
131.6631858319
 21
176.0986812734
  0
LINE
  8
0
 62
7
  6
CONTINUOUS
 10
132.3092053446
 20
176.5498703239
 11
132.3034125759
 21
176.6554092479
  0
LINE
  8
0
 62
7
  6
CONTINUOUS
 10
132.3457273691
 20
176.363728924
 11
132.3486236821
 21
176.3109593907
  0
LINE
  8
0
 62
7
  6
CONTINUOUS
 10
132.5011395133
 20
176.4078093755
 11
132.4982430576
 21
176.4605787661
  0
LINE
  8
0
 62
7
  6
CONTINUOUS
 10
134.1742201779
 20
178.2757205023
 11
134.1771165444
 21
178.2229510224
  0
LINE
  8
0
 62
7
  6
CONTINUOUS
 10
134.3186121735
 20
178.2809478821
 11
134.3128194516
 21
178.3864868528
  0
LINE
  8
0
 62
7
  6
CONTINUOUS
 10
131.1965691974
 20
253.9203053497
 11
131.2054888472
 21
253.5774074167
  0
LINE
  8
0
 62
7
  6
CONTINUOUS
 10
126.8866453141
 20
256.5049269396
 11
126.8861432479
 21
256.7181346172
  0
LINE
  8
0
 62
7
  6
CONTINUOUS
 10
129.2107135075
 20
173.8132065173
 11
129.2025899622
 21
173.7215841927
  0
LINE
  8
0
 62
7
  6
CONTINUOUS
 10
136.8838082572
 20
249.6155704489
 11
136.9771921596
 21
250.0316320928
  0
LINE
  8
0
 62
7
  6
CONTINUOUS
 10
143.2363987307
 20
240.8750342704
 11
143.3555042928
 21
241.1967055587
  0
LINE
  8
0
 62
7
  6
CONTINUOUS
 10
146.9879810221
 20
240.1549217384
 11
147.1840051932
 21
240.533606791
  0
LINE
  8
0
 62
7
  6
CONTINUOUS
 10
145.2859200266
 20
243.094358085
 11
144.866595326
 21
243.0169330231
  0
LINE
  8
0
 62
7
  6
CONTINUOUS
 10
144.8069781785
 20
239.2384880371
 11
144.4645720868
 21
239.2180767395
  0
LINE
  8
0
 62
7
  6
CONTINUOUS
 10
65.0519226665
 20
243.2120993021
 11
64.7132424408
 21
243.2664626826
  0
LINE
  8
0
 62
7
  6
CONTINUOUS
 10
80.0340934076
 20
256.8642169461
 11
80.3312713558
 21
256.6929142186
  0
LINE
  8
0
 62
7
  6
CONTINUOUS
 10
90.9670492425
 20
259.1906804107
 11
90.721790379
 21
259.4304875148
  0
LINE
  8
0
 62
7
  6
CONTINUOUS
 10
97.807488139
 20
260.1811834329
 11
94.992942514
 21
263.6795774413
  0
LINE
  8
0
 62
7
  6
CONTINUOUS
 10
93.1529019562
 20
262.3235672044
 11
92.8869064173
 21
262.6568464006
  0
LINE
  8
0
 62
7
  6
CONTINUOUS
 10
94.7875143125
 20
263.0738429131
 11
97.6143115607
 21
259.4804912705
  0
LINE
  8
0
 62
7
  6
CONTINUOUS
 10
126.6342531466
 20
256.4147984361
 11
126.677152069
 21
256.0744752891
  0
LINE
  8
0
 62
7
  6
CONTINUOUS
 10
131.6251965023
 20
253.5436794115
 11
131.5867004837
 21
254.0172719291
  0
LINE
  8
0
 62
7
  6
CONTINUOUS
 10
130.2707652
 20
174.149602139
 11
130.2788890355
 21
174.2412247441
  0
LINE
  8
0
 62
7
  6
CONTINUOUS
 10
142.7476055536
 20
241.2129035834
 11
142.6632367313
 21
240.68358162
  0
LINE
  8
0
 62
7
  6
CONTINUOUS
 10
144.295845563
 20
244.1664558753
 11
144.3959762217
 21
244.6309427764
  0
LINE
  8
0
 62
7
  6
CONTINUOUS
 10
146.6952120701
 20
240.871476144
 11
146.5761062924
 21
240.549804696
  0
LINE
  8
0
 62
40
  6
CONTINUOUS
 10
143.7585820498
 20
205.6272686217
 11
142.3443684874
 21
204.2130550593
  0
LINE
  8
0
 62
40
  6
CONTINUOUS
 10
107.1219108094
 20
168.9905973813
 11
108.5361243717
 21
170.4048109436
  0
LINE
  8
0
 62
40
  6
CONTINUOUS
 10
112.6608211311
 20
172.2667660032
 11
140.4824134279
 21
200.0883583
  0
LINE
  8
0
 62
7
  6
CONTINUOUS
 10
130.3308731668
 20
251.9795526274
 11
130.7210008172
 21
252.0765214869
  0
LINE
  8
0
 62
7
  6
CONTINUOUS
 10
143.1060627674
 20
243.488031702
 11
143.5792268881
 21
243.5315051993
  0
LINE
  8
0
 62
7
  6
CONTINUOUS
 10
145.1246324068
 20
242.5080222176
 11
145.4670387139
 21
242.5284336748
  0
LINE
  8
0
 62
7
  6
CONTINUOUS
 10
64.6736823498
 20
242.7957574574
 11
65.0754025753
 21
242.8107843758
  0
LINE
  8
0
 62
7
  6
CONTINUOUS
 10
144.114710617
 20
238.7253640984
 11
144.6456907202
 21
238.6521522895
  0
LINE
  8
0
 62
7
  6
CONTINUOUS
 10
79.017984203
 20
254.3086868485
 11
79.2718399301
 21
254.222766909
  0
LINE
  8
0
 62
7
  6
CONTINUOUS
 10
79.6032063192
 20
254.6056381508
 11
79.2224246345
 21
254.734519046
  0
LINE
  8
0
 62
7
  6
CONTINUOUS
 10
80.5790359674
 20
257.0333645095
 11
80.1549301633
 21
257.2476271918
  0
LINE
  8
0
 62
7
  6
CONTINUOUS
 10
81.2110556074
 20
258.1744966116
 11
83.0098752444
 21
257.2614438319
  0
LINE
  8
0
 62
7
  6
CONTINUOUS
 10
85.3283814631
 20
256.5636456011
 11
83.5295598437
 21
257.4766975597
  0
LINE
  8
0
 62
7
  6
CONTINUOUS
 10
83.3796343281
 20
257.1036998682
 11
84.8086968639
 21
256.3483918733
  0
LINE
  8
0
 62
7
  6
CONTINUOUS
 10
83.1598007087
 20
257.6344416472
 11
81.7307402066
 21
258.3897503394
  0
LINE
  8
0
 62
7
  6
CONTINUOUS
 10
90.4593740006
 20
258.8819081785
 11
90.908420479
 21
258.5892385868
  0
LINE
  8
0
 62
7
  6
CONTINUOUS
 10
92.3792311609
 20
262.348074234
 11
92.6244900825
 21
262.108266868
  0
LINE
  8
0
 62
40
  6
CONTINUOUS
 10
142.3443684874
 20
215.306091549
 11
143.7585820498
 21
213.8918779866
  0
LINE
  8
0
 62
40
  6
CONTINUOUS
 10
108.5361243717
 20
249.1143356647
 11
107.1219108094
 21
250.528549227
  0
LINE
  8
0
 62
40
  6
CONTINUOUS
 10
112.6608211311
 20
247.2523806051
 11
140.4824134279
 21
219.4307883083
  0
LINE
  8
0
 62
7
  6
CONTINUOUS
 10
123.9412498832
 20
255.8087655431
 11
124.0684442963
 21
255.4274172266
  0
LINE
  8
0
 62
7
  6
CONTINUOUS
 10
117.6029078228
 20
261.4768592353
 11
117.7109328074
 21
261.1512994783
  0
LINE
  8
0
 62
7
  6
CONTINUOUS
 10
128.4863031536
 20
253.453744723
 11
128.545459527
 21
253.1923532739
  0
LINE
  8
0
 62
7
  6
CONTINUOUS
 10
129.0449803096
 20
253.1094372253
 11
128.956247585
 21
253.5015232875
  0
LINE
  8
0
 62
7
  6
CONTINUOUS
 10
143.9417932058
 20
244.8547950386
 11
143.922812101
 21
244.5874692791
  0
LINE
  8
0
 62
7
  6
CONTINUOUS
 10
147.1840051932
 20
240.533606791
 11
147.2683739886
 21
241.0629287344
  0
LINE
  8
0
 62
7
  6
CONTINUOUS
 10
131.0101729956
 20
175.0560074737
 11
130.9881329839
 21
174.9783016156
  0
LINE
  8
0
 62
7
  6
CONTINUOUS
 10
131.0437988302
 20
174.9226357692
 11
131.065838842
 21
175.0003416273
  0
LINE
  8
0
 62
7
  6
CONTINUOUS
 10
131.6631858319
 20
176.0986812734
 11
131.6962461251
 21
176.2152403556
  0
LINE
  8
0
 62
7
  6
CONTINUOUS
 10
132.167709662
 20
176.4918734108
 11
132.1456695076
 21
176.41416741
  0
LINE
  8
0
 62
7
  6
CONTINUOUS
 10
132.2871652097
 20
176.4721643036
 11
132.3092053446
 21
176.5498703239
  0
LINE
  8
0
 62
7
  6
CONTINUOUS
 10
132.4790992162
 20
176.330103232
 11
132.5011395133
 21
176.4078093755
  0
LINE
  8
0
 62
7
  6
CONTINUOUS
 10
133.3751194822
 20
177.977612492
 11
133.3420591841
 21
177.8610534146
  0
LINE
  8
0
 62
7
  6
CONTINUOUS
 10
133.2295271604
 20
177.2753616385
 11
133.2074869346
 21
177.1976555663
  0
LINE
  8
0
 62
7
  6
CONTINUOUS
 10
133.263152781
 20
177.14198972
 11
133.2851930067
 21
177.2196957921
  0
LINE
  8
0
 62
7
  6
CONTINUOUS
 10
134.1771165444
 20
178.2229510224
 11
134.1440562414
 21
178.1063919499
  0
LINE
  8
0
 62
7
  6
CONTINUOUS
 10
134.2965719745
 20
178.2032418367
 11
134.3186121735
 21
178.2809478821
  0
LINE
  8
0
 62
7
  6
CONTINUOUS
 10
130.9881329839
 20
174.9783016156
 11
130.9411562193
 21
174.8756590047
  0
LINE
  8
0
 62
7
  6
CONTINUOUS
 10
131.6266638086
 20
176.2848226721
 11
131.5796870477
 21
176.1821800575
  0
LINE
  8
0
 62
7
  6
CONTINUOUS
 10
130.9968220657
 20
174.8199931583
 11
131.0437988302
 21
174.9226357692
  0
LINE
  8
0
 62
7
  6
CONTINUOUS
 10
133.480658411
 20
177.9718197183
 11
133.5276352112
 21
178.0744623649
  0
LINE
  8
0
 62
7
  6
CONTINUOUS
 10
133.2074869346
 20
177.1976555663
 11
133.1605102414
 21
177.0950130268
  0
LINE
  8
0
 62
7
  6
CONTINUOUS
 10
133.2161760878
 20
177.0393471804
 11
133.263152781
 21
177.14198972
  0
LINE
  8
0
 62
7
  6
CONTINUOUS
 10
129.2826267359
 20
173.9407855993
 11
129.2107135075
 21
173.8132065173
  0
LINE
  8
0
 62
7
  6
CONTINUOUS
 10
129.3522090523
 20
173.8712032828
 11
129.388165811
 21
173.9349929647
  0
LINE
  8
0
 62
7
  6
CONTINUOUS
 10
130.12926966
 20
174.0916053686
 11
130.0933129013
 21
174.0278156867
  0
LINE
  8
0
 62
7
  6
CONTINUOUS
 10
130.198851968
 20
174.0220230606
 11
130.2707652
 21
174.149602139
  0
LINE
  8
0
 62
7
  6
CONTINUOUS
 10
133.9625768623
 20
178.5372369489
 11
133.85993424
 21
178.4902601779
  0
LINE
  8
0
 62
7
  6
CONTINUOUS
 10
129.6595108839
 20
254.6426460987
 11
130.0496421701
 21
254.7396126781
  0
LINE
  8
0
 62
7
  6
CONTINUOUS
 10
129.7510537561
 20
255.1485638115
 11
129.4909650141
 21
255.0839201758
  0
LINE
  8
0
 62
7
  6
CONTINUOUS
 10
65.0754025753
 20
242.8107843758
 11
65.406256142
 21
242.890192658
  0
LINE
  8
0
 62
7
  6
CONTINUOUS
 10
133.1960419978
 20
252.9206489459
 11
132.93245721
 21
252.872209255
  0
LINE
  8
0
 62
7
  6
CONTINUOUS
 10
130.3721829689
 20
252.4039616047
 11
130.0322847704
 21
252.3885037894
  0
LINE
  8
0
 62
7
  6
CONTINUOUS
 10
67.1570624881
 20
248.1194261672
 11
67.4249095116
 21
248.1103530267
  0
LINE
  8
0
 62
7
  6
CONTINUOUS
 10
67.4978787869
 20
248.5770477819
 11
67.2300317634
 21
248.5861209224
  0
LINE
  8
0
 62
7
  6
CONTINUOUS
 10
143.2778552734
 20
244.0160136529
 11
143.0101889886
 21
244.0293592132
  0
LINE
  8
0
 62
7
  6
CONTINUOUS
 10
79.2718399301
 20
254.222766909
 11
79.6092974422
 21
254.1792679055
  0
LINE
  8
0
 62
7
  6
CONTINUOUS
 10
145.816900103
 20
243.021146256
 11
145.2859200266
 21
243.094358085
  0
LINE
  8
0
 62
7
  6
CONTINUOUS
 10
142.6423920451
 20
243.5782178723
 11
143.1060627674
 21
243.488031702
  0
LINE
  8
0
 62
7
  6
CONTINUOUS
 10
92.8869064173
 20
262.6568464006
 11
92.4378599462
 21
262.9495159597
  0
LINE
  8
0
 62
7
  6
CONTINUOUS
 10
124.0684442963
 20
255.4274172266
 11
124.2375373621
 21
255.1321592476
  0
LINE
  8
0
 62
7
  6
CONTINUOUS
 10
118.2618697283
 20
261.4020365527
 11
117.9969693207
 21
261.8680026124
  0
LINE
  8
0
 62
7
  6
CONTINUOUS
 10
128.545459527
 20
253.1923532739
 11
128.6844253657
 21
252.8817760186
  0
LINE
  8
0
 62
7
  6
CONTINUOUS
 10
126.8861432479
 20
256.7181346172
 11
126.8013495353
 21
256.9723655561
  0
LINE
  8
0
 62
7
  6
CONTINUOUS
 10
133.4917387912
 20
249.8817256238
 11
133.5913059936
 21
249.5563702672
  0
LINE
  8
0
 62
7
  6
CONTINUOUS
 10
134.4502978141
 20
251.0766850375
 11
134.5630862692
 21
250.6179810341
  0
LINE
  8
0
 62
7
  6
CONTINUOUS
 10
144.3959762217
 20
244.6309427764
 11
144.3622765839
 21
245.1020992456
  0
LINE
  8
0
 62
7
  6
CONTINUOUS
 10
143.2500394115
 20
240.5350582611
 11
143.2363987307
 21
240.8750342704
  0
LINE
  8
0
 62
7
  6
CONTINUOUS
 10
146.6815713354
 20
241.2114521134
 11
146.6952120701
 21
240.871476144
  0
LINE
  8
0
 62
7
  6
CONTINUOUS
 10
134.249595201
 20
178.1005992169
 11
134.2965719745
 21
178.2032418367
  0
LINE
  8
0
 62
7
  6
CONTINUOUS
 10
132.1456695076
 20
176.41416741
 11
132.1097128916
 21
176.3503778708
  0
LINE
  8
0
 62
7
  6
CONTINUOUS
 10
132.215251835
 20
176.3445850826
 11
132.2871652097
 21
176.4721643036
  0
LINE
  8
0
 62
7
  6
CONTINUOUS
 10
132.3486236821
 20
176.3109593907
 11
132.3126670661
 21
176.2471698515
  0
LINE
  8
0
 62
7
  6
CONTINUOUS
 10
133.4470327819
 20
178.1051916453
 11
133.3751194822
 21
177.977612492
  0
LINE
  8
0
 62
7
  6
CONTINUOUS
 10
132.4431426002
 20
176.2663136929
 11
132.4790992162
 21
176.330103232
  0
LINE
  8
0
 62
7
  6
CONTINUOUS
 10
134.1440562414
 20
178.1063919499
 11
134.1080995719
 21
178.0426023572
  0
LINE
  8
0
 62
7
  6
CONTINUOUS
 10
131.6962461251
 20
176.2152403556
 11
131.7930959624
 21
176.367756049
  0
LINE
  8
0
 62
7
  6
CONTINUOUS
 10
134.1887019749
 20
178.0118730675
 11
134.249595201
 21
178.1005992169
  0
LINE
  8
0
 62
7
  6
CONTINUOUS
 10
129.388165811
 20
173.9349929647
 11
129.4739954998
 21
174.0486555864
  0
LINE
  8
0
 62
7
  6
CONTINUOUS
 10
130.0933129013
 20
174.0278156867
 11
130.0074832077
 21
173.9141530699
  0
LINE
  8
0
 62
7
  6
CONTINUOUS
 10
130.9411562193
 20
174.8756590047
 11
130.8553262403
 21
174.7619961025
  0
LINE
  8
0
 62
7
  6
CONTINUOUS
 10
132.1097128916
 20
176.3503778708
 11
132.0238830553
 21
176.2367151114
  0
LINE
  8
0
 62
7
  6
CONTINUOUS
 10
130.9109920867
 20
174.7063302562
 11
130.9968220657
 21
174.8199931583
  0
LINE
  8
0
 62
7
  6
CONTINUOUS
 10
132.3126670661
 20
176.2471698515
 11
132.2268372298
 21
176.133507092
  0
LINE
  8
0
 62
7
  6
CONTINUOUS
 10
133.1605102414
 20
177.0950130268
 11
133.0746804051
 21
176.9813502673
  0
LINE
  8
0
 62
7
  6
CONTINUOUS
 10
133.1303462515
 20
176.9256844209
 11
133.2161760878
 21
177.0393471804
  0
LINE
  8
0
 62
7
  6
CONTINUOUS
 10
134.1080995719
 20
178.0426023572
 11
134.0222697713
 21
177.9289396334
  0
LINE
  8
0
 62
7
  6
CONTINUOUS
 10
131.7374301112
 20
176.4234219002
 11
131.6266638086
 21
176.2848226721
  0
LINE
  8
0
 62
7
  6
CONTINUOUS
 10
129.4183296485
 20
174.1043214376
 11
129.2826267359
 21
173.9407855993
  0
LINE
  8
0
 62
7
  6
CONTINUOUS
 10
130.0631490541
 20
173.8584872236
 11
130.198851968
 21
174.0220230606
  0
LINE
  8
0
 62
7
  6
CONTINUOUS
 10
132.0795489211
 20
176.1810492455
 11
132.215251835
 21
176.3445850826
  0
LINE
  8
0
 62
7
  6
CONTINUOUS
 10
134.0529990788
 20
177.8483372483
 11
134.1887019749
 21
178.0118730675
  0
LINE
  8
0
 62
7
  6
CONTINUOUS
 10
133.607672269
 20
178.2936640581
 11
133.4470327819
 21
178.1051916453
  0
LINE
  8
0
 62
7
  6
CONTINUOUS
 10
133.5276352112
 20
178.0744623649
 11
133.6882746591
 21
178.2629347457
  0
LINE
  8
0
 62
7
  6
CONTINUOUS
 10
132.2825030762
 20
176.0778412456
 11
132.4431426002
 21
176.2663136929
  0
LINE
  8
0
 62
7
  6
CONTINUOUS
 10
133.0341313416
 20
177.7201231306
 11
132.9094485049
 21
177.595440294
  0
LINE
  8
0
 62
7
  6
CONTINUOUS
 10
132.4605903784
 20
177.1465821675
 11
132.3359076131
 21
177.0218994022
  0
LINE
  8
0
 62
7
  6
CONTINUOUS
 10
131.8870494867
 20
176.5730412757
 11
131.7374301112
 21
176.4234219002
  0
LINE
  8
0
 62
7
  6
CONTINUOUS
 10
131.4631279704
 20
176.1491197594
 11
131.3384450623
 21
176.0244368514
  0
LINE
  8
0
 62
7
  6
CONTINUOUS
 10
131.1389524666
 20
175.8249442556
 11
131.0142698439
 21
175.700261633
  0
LINE
  8
0
 62
7
  6
CONTINUOUS
 10
130.8147772481
 20
175.5007690372
 11
130.6900943401
 21
175.3760861292
  0
LINE
  8
0
 62
7
  6
CONTINUOUS
 10
130.2412362137
 20
174.9272280027
 11
130.116553591
 21
174.8025453801
  0
LINE
  8
0
 62
7
  6
CONTINUOUS
 10
129.567949024
 20
174.2539408131
 11
129.4183296485
 21
174.1043214376
  0
LINE
  8
0
 62
7
  6
CONTINUOUS
 10
129.4739954998
 20
174.0486555864
 11
129.6236148752
 21
174.1982749618
  0
LINE
  8
0
 62
7
  6
CONTINUOUS
 10
131.7930959624
 20
176.367756049
 11
131.9427153379
 21
176.5173754245
  0
LINE
  8
0
 62
7
  6
CONTINUOUS
 10
129.9037097897
 20
174.3670381738
 11
130.0283926977
 21
174.4917210819
  0
LINE
  8
0
 62
7
  6
CONTINUOUS
 10
133.37278843
 20
177.7804509483
 11
133.4974712667
 21
177.905133785
  0
LINE
  8
0
 62
7
  6
CONTINUOUS
 10
132.0238830553
 20
176.2367151114
 11
131.7495807718
 21
175.9624128278
  0
LINE
  8
0
 62
7
  6
CONTINUOUS
 10
131.8052466376
 20
175.906746962
 11
132.0795489211
 21
176.1810492455
  0
LINE
  8
0
 62
7
  6
CONTINUOUS
 10
133.6644688253
 20
177.7381362265
 11
133.5397859886
 21
177.6134533898
  0
LINE
  8
0
 62
7
  6
CONTINUOUS
 10
132.4704101344
 20
176.4884116893
 11
132.3457273691
 21
176.363728924
  0
LINE
  8
0
 62
7
  6
CONTINUOUS
 10
129.5777689227
 20
173.5957704776
 11
129.4530863
 21
173.4710878549
  0
LINE
  8
0
 62
7
  6
CONTINUOUS
 10
132.2268372298
 20
176.133507092
 11
132.0772178543
 21
175.9838877165
  0
LINE
  8
0
 62
7
  6
CONTINUOUS
 10
130.0074832077
 20
173.9141530699
 11
129.8578638323
 21
173.7645336944
  0
LINE
  8
0
 62
7
  6
CONTINUOUS
 10
129.9135296786
 20
173.7088678481
 11
130.0631490541
 21
173.8584872236
  0
LINE
  8
0
 62
7
  6
CONTINUOUS
 10
130.8112459315
 20
174.606584101
 11
130.9109920867
 21
174.7063302562
  0
LINE
  8
0
 62
7
  6
CONTINUOUS
 10
131.1354211499
 20
174.9307593194
 11
131.2601040579
 21
175.0554422274
  0
LINE
  8
0
 62
7
  6
CONTINUOUS
 10
131.4595966537
 20
175.2549348232
 11
131.5842792764
 21
175.3796174458
  0
LINE
  8
0
 62
7
  6
CONTINUOUS
 10
132.1328837007
 20
175.9282218702
 11
132.2825030762
 21
176.0778412456
  0
LINE
  8
0
 62
7
  6
CONTINUOUS
 10
133.0305999536
 20
176.8259381231
 11
133.1303462515
 21
176.9256844209
  0
LINE
  8
0
 62
7
  6
CONTINUOUS
 10
131.7234439312
 20
175.240452791
 11
131.5987613086
 21
175.1157701683
  0
LINE
  8
0
 62
7
  6
CONTINUOUS
 10
131.6683436165
 20
175.0461878604
 11
131.7930262392
 21
175.170870483
  0
LINE
  8
0
 62
7
  6
CONTINUOUS
 10
133.5635222775
 20
176.9413665214
 11
133.6882051142
 21
177.066049358
  0
LINE
  8
0
 62
7
  6
CONTINUOUS
 10
134.1023044991
 20
177.2326613696
 11
133.9243479801
 21
177.0547048506
  0
LINE
  8
0
 62
7
  6
CONTINUOUS
 10
133.3951977179
 20
176.5255545884
 11
132.7941569539
 21
175.9245138244
  0
LINE
  8
0
 62
7
  6
CONTINUOUS
 10
132.6527355977
 20
175.7830924681
 11
132.0516948337
 21
175.1820517041
  0
LINE
  8
0
 62
7
  6
CONTINUOUS
 10
131.2385220353
 20
174.3688789058
 11
130.6374812713
 21
173.7678381418
  0
LINE
  8
0
 62
7
  6
CONTINUOUS
 10
130.4960599151
 20
173.6264167855
 11
129.8950191511
 21
173.0253760215
  0
LINE
  8
0
 62
7
  6
CONTINUOUS
 10
134.2437258554
 20
176.3841332322
 11
134.5265685678
 21
176.6669759446
  0
LINE
  8
0
 62
7
  6
CONTINUOUS
 10
132.829512293
 20
173.6971274636
 11
132.5466695805
 21
173.4142847512
  0
LINE
  8
0
 62
7
  6
CONTINUOUS
 10
134.0222697713
 20
177.9289396334
 11
133.8337973954
 21
177.7683001808
  0
LINE
  8
0
 62
7
  6
CONTINUOUS
 10
133.8645266673
 20
177.6876977599
 11
134.0529990788
 21
177.8483372483
  0
LINE
  8
0
 62
7
  6
CONTINUOUS
 10
133.7712080895
 20
178.4293669529
 11
133.607672269
 21
178.2936640581
  0
LINE
  8
0
 62
7
  6
CONTINUOUS
 10
129.7314848623
 20
174.3896437257
 11
129.567949024
 21
174.2539408131
  0
LINE
  8
0
 62
7
  6
CONTINUOUS
 10
129.6236148752
 20
174.1982749618
 11
129.7871507172
 21
174.3339778709
  0
LINE
  8
0
 62
7
  6
CONTINUOUS
 10
131.9693480063
 20
175.792519099
 11
132.1328837007
 21
175.9282218702
  0
LINE
  8
0
 62
7
  6
CONTINUOUS
 10
129.8578638323
 20
173.7645336944
 11
129.6943279952
 21
173.6288307805
  0
LINE
  8
0
 62
7
  6
CONTINUOUS
 10
129.7499938415
 20
173.5731649342
 11
129.9135296786
 21
173.7088678481
  0
LINE
  8
0
 62
7
  6
CONTINUOUS
 10
132.0007121047
 20
176.6588709681
 11
131.8870494867
 21
176.5730412757
  0
LINE
  8
0
 62
7
  6
CONTINUOUS
 10
133.0746804051
 20
176.9813502673
 11
132.9610176456
 21
176.895520431
  0
LINE
  8
0
 62
7
  6
CONTINUOUS
 10
132.0772178543
 20
175.9838877165
 11
131.9635550949
 21
175.8980578802
  0
LINE
  8
0
 62
7
  6
CONTINUOUS
 10
130.8553262403
 20
174.7619961025
 11
130.7416636236
 21
174.6761664089
  0
LINE
  8
0
 62
7
  6
CONTINUOUS
 10
130.0040214863
 20
174.2168535424
 11
129.5105175193
 21
173.8625141913
  0
LINE
  8
0
 62
7
  6
CONTINUOUS
 10
129.4774572164
 20
173.7459551188
 11
129.9709612028
 21
174.1002944504
  0
LINE
  8
0
 62
7
  6
CONTINUOUS
 10
133.85993424
 20
178.4902601779
 11
133.7712080895
 21
178.4293669529
  0
LINE
  8
0
 62
7
  6
CONTINUOUS
 10
133.6882746591
 20
178.2629347457
 11
133.8657269804
 21
178.3847212109
  0
LINE
  8
0
 62
7
  6
CONTINUOUS
 10
132.9418738043
 20
176.7650448969
 11
133.0305999536
 21
176.8259381231
  0
LINE
  8
0
 62
7
  6
CONTINUOUS
 10
129.8202110128
 20
174.4505369507
 11
129.7314848623
 21
174.3896437257
  0
LINE
  8
0
 62
7
  6
CONTINUOUS
 10
130.7225197822
 20
174.5456908748
 11
130.8112459315
 21
174.606584101
  0
LINE
  8
0
 62
7
  6
CONTINUOUS
 10
129.6612676922
 20
173.512271708
 11
129.7499938415
 21
173.5731649342
  0
LINE
  8
0
 62
7
  6
CONTINUOUS
 10
132.0645017878
 20
176.6948277256
 11
132.0007121047
 21
176.6588709681
  0
LINE
  8
0
 62
7
  6
CONTINUOUS
 10
133.7369475176
 20
177.6157844566
 11
133.8645266673
 21
177.6876977599
  0
LINE
  8
0
 62
7
  6
CONTINUOUS
 10
131.9427153379
 20
176.5173754245
 11
132.0702944211
 21
176.5892886516
  0
LINE
  8
0
 62
7
  6
CONTINUOUS
 10
132.9610176456
 20
176.895520431
 11
132.8972281065
 21
176.859563815
  0
LINE
  8
0
 62
7
  6
CONTINUOUS
 10
131.9635550949
 20
175.8980578802
 11
131.8997656984
 21
175.8621014069
  0
LINE
  8
0
 62
7
  6
CONTINUOUS
 10
129.7871507172
 20
174.3339778709
 11
129.850940399
 21
174.3699346296
  0
LINE
  8
0
 62
7
  6
CONTINUOUS
 10
130.7416636236
 20
174.6761664089
 11
130.6778739417
 21
174.6402096502
  0
LINE
  8
0
 62
7
  6
CONTINUOUS
 10
129.6943279952
 20
173.6288307805
 11
129.6305383133
 21
173.5928740218
  0
LINE
  8
0
 62
7
  6
CONTINUOUS
 10
133.8337973954
 20
177.7683001808
 11
133.7311547488
 21
177.7213233805
  0
LINE
  8
0
 62
7
  6
CONTINUOUS
 10
132.8392311933
 20
176.7180681323
 11
132.9418738043
 21
176.7650448969
  0
LINE
  8
0
 62
7
  6
CONTINUOUS
 10
131.8667053954
 20
175.7455423344
 11
131.9693480063
 21
175.792519099
  0
LINE
  8
0
 62
7
  6
CONTINUOUS
 10
129.9228536262
 20
174.4975137128
 11
129.8202110128
 21
174.4505369507
  0
LINE
  8
0
 62
7
  6
CONTINUOUS
 10
130.6198771713
 20
174.4987141103
 11
130.7225197822
 21
174.5456908748
  0
LINE
  8
0
 62
7
  6
CONTINUOUS
 10
129.9709612028
 20
174.1002944504
 11
130.0736038137
 21
174.1472712149
  0
LINE
  8
0
 62
7
  6
CONTINUOUS
 10
129.5105175193
 20
173.8625141913
 11
129.4078749084
 21
173.8155374267
  0
LINE
  8
0
 62
7
  6
CONTINUOUS
 10
129.5586250813
 20
173.4652949435
 11
129.6612676922
 21
173.512271708
  0
LINE
  8
0
 62
7
  6
CONTINUOUS
 10
130.1455170457
 20
174.2748502933
 11
130.0040214863
 21
174.2168535424
  0
LINE
  8
0
 62
7
  6
CONTINUOUS
 10
129.3359616764
 20
173.6879583484
 11
129.4774572164
 21
173.7459551188
  0
LINE
  8
0
 62
7
  6
CONTINUOUS
 10
67.2300317634
 20
248.5861209224
 11
66.8943646285
 21
248.5304674957
  0
LINE
  8
0
 62
7
  6
CONTINUOUS
 10
125.9638746744
 20
255.0373529736
 11
125.6271870016
 21
254.9882496096
  0
LINE
  8
0
 62
7
  6
CONTINUOUS
 10
125.4944969461
 20
257.7148693843
 11
125.1578092732
 21
257.6657660202
  0
LINE
  8
0
 62
7
  6
CONTINUOUS
 10
130.0909519546
 20
255.1640216268
 11
129.7510537561
 21
255.1485638115
  0
LINE
  8
0
 62
7
  6
CONTINUOUS
 10
125.4176937309
 20
254.5577979063
 11
125.628187253
 21
254.5618360872
  0
LINE
  8
0
 62
7
  6
CONTINUOUS
 10
125.243105052
 20
257.1983274037
 11
125.664092089
 21
257.2064037504
  0
LINE
  8
0
 62
7
  6
CONTINUOUS
 10
79.8137359678
 20
254.6050991171
 11
79.6032063192
 21
254.6056381508
  0
LINE
  8
0
 62
7
  6
CONTINUOUS
 10
133.5362455935
 20
252.9150594111
 11
133.1960419978
 21
252.9206489459
  0
LINE
  8
0
 62
7
  6
CONTINUOUS
 10
129.9111618452
 20
252.0132828627
 11
130.3308731668
 21
251.9795526274
  0
LINE
  8
0
 62
7
  6
CONTINUOUS
 10
80.1549301633
 20
257.2476271918
 11
79.6069430101
 21
257.2916652141
  0
LINE
  8
0
 62
7
  6
CONTINUOUS
 10
130.0496421701
 20
254.7396126781
 11
130.2594941709
 21
254.7227498013
  0
LINE
  8
0
 62
7
  6
CONTINUOUS
 10
79.696635903
 20
256.9077159347
 11
80.0340934076
 21
256.8642169461
  0
LINE
  8
0
 62
7
  6
CONTINUOUS
 10
133.0519524325
 20
252.5536333281
 11
133.4687678216
 21
252.4940195139
  0
LINE
  8
0
 62
7
  6
CONTINUOUS
 10
135.0671055654
 20
248.2497872314
 11
135.479443769
 21
248.1645081118
  0
LINE
  8
0
 62
7
  6
CONTINUOUS
 10
135.3666552509
 20
248.6232120367
 11
135.1604895046
 21
248.665848921
  0
LINE
  8
0
 62
7
  6
CONTINUOUS
 10
135.1022757208
 20
251.2901457059
 11
135.3084414672
 21
251.2475088217
  0
LINE
  8
0
 62
7
  6
CONTINUOUS
 10
90.908420479
 20
258.5892385868
 11
91.3159915101
 21
258.4835127228
  0
LINE
  8
0
 62
7
  6
CONTINUOUS
 10
144.4645720868
 20
239.2180767395
 11
144.1432568624
 21
239.3299976118
  0
LINE
  8
0
 62
7
  6
CONTINUOUS
 10
145.4670387139
 20
242.5284336748
 11
145.7883538845
 21
242.4165127626
  0
LINE
  8
0
 62
7
  6
CONTINUOUS
 10
91.2830969113
 20
259.064650152
 11
90.9670492425
 21
259.1906804107
  0
LINE
  8
0
 62
7
  6
CONTINUOUS
 10
92.0631835066
 20
262.4741044272
 11
92.3792311609
 21
262.348074234
  0
LINE
  8
0
 62
7
  6
CONTINUOUS
 10
143.7375728493
 20
238.9125965456
 11
144.114710617
 21
238.7253640984
  0
LINE
  8
0
 62
7
  6
CONTINUOUS
 10
117.3798083354
 20
261.7337567793
 11
117.6029078228
 21
261.4768592353
  0
LINE
  8
0
 62
7
  6
CONTINUOUS
 10
133.5913059936
 20
249.5563702672
 11
133.750783131
 21
249.3056998691
  0
LINE
  8
0
 62
7
  6
CONTINUOUS
 10
129.1543661349
 20
252.9295568204
 11
129.0449803096
 21
253.1094372253
  0
LINE
  8
0
 62
7
  6
CONTINUOUS
 10
124.6156255023
 20
255.4805587941
 11
124.4465324255
 21
255.7758167505
  0
LINE
  8
0
 62
7
  6
CONTINUOUS
 10
126.4651600698
 20
256.7100563925
 11
126.6342531466
 21
256.4147984361
  0
LINE
  8
0
 62
7
  6
CONTINUOUS
 10
131.5867004837
 20
254.0172719291
 11
131.3383451574
 21
254.5077318266
  0
LINE
  8
0
 62
7
  6
CONTINUOUS
 10
133.9904228867
 20
249.6044397226
 11
133.9040769999
 21
249.7964465107
  0
LINE
  8
0
 62
7
  6
CONTINUOUS
 10
136.478508085
 20
250.3089180201
 11
136.5648539718
 21
250.116911232
  0
LINE
  8
0
 62
7
  6
CONTINUOUS
 10
131.0576033499
 20
254.2308825907
 11
131.1965691974
 21
253.9203053497
  0
LINE
  8
0
 62
7
  6
CONTINUOUS
 10
134.9622032147
 20
250.6660505548
 11
134.8626360018
 21
250.9914058983
  0
LINE
  8
0
 62
7
  6
CONTINUOUS
 10
135.506727799
 20
249.2473072402
 11
135.6062950119
 21
248.9219518967
  0
LINE
  8
0
 62
7
  6
CONTINUOUS
 10
136.9771921596
 20
250.0316320928
 11
136.8776249467
 21
250.3569874362
  0
LINE
  8
0
 62
7
  6
CONTINUOUS
 10
136.0186331997
 20
248.8366727575
 11
135.9058446607
 21
249.2953766563
  0
LINE
  8
0
 62
7
  6
CONTINUOUS
 10
142.6632367313
 20
240.68358162
 11
142.7327051337
 21
240.2682871903
  0
LINE
  8
0
 62
7
  6
CONTINUOUS
 10
131.5213647478
 20
171.3990304248
 11
132.1224055118
 21
172.0000711888
  0
LINE
  8
0
 62
7
  6
CONTINUOUS
 10
132.9709336492
 20
172.8485993262
 11
133.1488901682
 21
173.0265558452
  0
LINE
  8
0
 62
7
  6
CONTINUOUS
 10
133.6780404304
 20
173.5557061074
 11
134.2790811944
 21
174.1567468714
  0
LINE
  8
0
 62
7
  6
CONTINUOUS
 10
134.4205025507
 20
174.2981682277
 11
135.0215433147
 21
174.8992089917
  0
LINE
  8
0
 62
7
  6
CONTINUOUS
 10
135.834716113
 20
175.71238179
 11
136.435756877
 21
176.313422554
  0
LINE
  8
0
 62
7
  6
CONTINUOUS
 10
80.191473044
 20
254.6894038375
 11
79.8137359678
 21
254.6050991171
  0
LINE
  8
0
 62
7
  6
CONTINUOUS
 10
91.7943534231
 20
258.4915642509
 11
92.5265508677
 21
258.6540014057
  0
LINE
  8
0
 62
7
  6
CONTINUOUS
 10
92.402130801
 20
259.2148340243
 11
91.6699333564
 21
259.0523968695
  0
LINE
  8
0
 62
7
  6
CONTINUOUS
 10
116.1421951766
 20
262.5553581271
 11
115.7307517533
 21
262.4658616348
  0
LINE
  8
0
 62
7
  6
CONTINUOUS
 10
79.6092974422
 20
254.1792679055
 11
79.9034308008
 21
254.2211507563
  0
LINE
  8
0
 62
7
  6
CONTINUOUS
 10
94.7319547989
 20
259.1086038606
 11
95.2898305758
 21
259.1805821044
  0
LINE
  8
0
 62
7
  6
CONTINUOUS
 10
97.6143115607
 20
259.4804912705
 11
98.451125226
 21
259.5884586362
  0
LINE
  8
0
 62
7
  6
CONTINUOUS
 10
99.2010631404
 20
259.6443866073
 11
102.5730778773
 21
259.7863077615
  0
LINE
  8
0
 62
7
  6
CONTINUOUS
 10
102.5489210851
 20
260.3602677153
 11
99.7389088044
 21
260.2420000868
  0
LINE
  8
0
 62
7
  6
CONTINUOUS
 10
99.674490691
 20
261.7725599859
 11
102.109836097
 21
261.8750586574
  0
LINE
  8
0
 62
7
  6
CONTINUOUS
 10
102.0856793076
 20
262.4490185442
 11
99.6503339017
 21
262.3465198727
  0
LINE
  8
0
 62
7
  6
CONTINUOUS
 10
91.3159915101
 20
258.4835127228
 11
91.7943534231
 21
258.4915642509
  0
LINE
  8
0
 62
7
  6
CONTINUOUS
 10
91.6699333564
 20
259.0523968695
 11
91.2830969113
 21
259.064650152
  0
LINE
  8
0
 62
7
  6
CONTINUOUS
 10
91.6763470615
 20
262.4863577096
 11
92.0631835066
 21
262.4741044272
  0
LINE
  8
0
 62
7
  6
CONTINUOUS
 10
116.1107266636
 20
262.068557788
 11
116.5883941514
 21
262.0415630391
  0
LINE
  8
0
 62
7
  6
CONTINUOUS
 10
107.8206904638
 20
259.5609412216
 11
111.5369781929
 21
259.0592492979
  0
LINE
  8
0
 62
7
  6
CONTINUOUS
 10
111.613833155
 20
259.6285531657
 11
108.454988798
 21
260.0549912722
  0
LINE
  8
0
 62
7
  6
CONTINUOUS
 10
112.8219534967
 20
258.7832914944
 11
113.3734703263
 21
258.6726775865
  0
LINE
  8
0
 62
7
  6
CONTINUOUS
 10
125.038609198
 20
254.6358100042
 11
125.4176937309
 21
254.5577979063
  0
LINE
  8
0
 62
7
  6
CONTINUOUS
 10
125.6271870016
 20
254.9882496096
 11
125.2481024724
 21
255.066261715
  0
LINE
  8
0
 62
7
  6
CONTINUOUS
 10
125.873585334
 20
257.6368554009
 11
125.4944969461
 21
257.7148693843
  0
LINE
  8
0
 62
7
  6
CONTINUOUS
 10
135.4018253696
 20
251.6635704655
 11
134.9894871818
 21
251.7488496047
  0
LINE
  8
0
 62
7
  6
CONTINUOUS
 10
130.3806170654
 20
255.097970678
 11
130.0909519546
 21
255.1640216268
  0
LINE
  8
0
 62
7
  6
CONTINUOUS
 10
92.4378599462
 20
262.9495159597
 11
92.0302868257
 21
263.0552413343
  0
LINE
  8
0
 62
7
  6
CONTINUOUS
 10
114.1122417124
 20
258.5359470304
 11
117.3755910259
 21
257.6750310891
  0
LINE
  8
0
 62
7
  6
CONTINUOUS
 10
117.4977067648
 20
258.1379175262
 11
114.9595475708
 21
258.807518449
  0
LINE
  8
0
 62
7
  6
CONTINUOUS
 10
133.8212720958
 20
252.8312232783
 11
133.5362455935
 21
252.9150594111
  0
LINE
  8
0
 62
7
  6
CONTINUOUS
 10
130.2594941709
 20
254.7227498013
 11
130.6289723916
 21
254.6075107805
  0
LINE
  8
0
 62
7
  6
CONTINUOUS
 10
130.9097141992
 20
254.8843600164
 11
130.3806170654
 21
255.097970678
  0
LINE
  8
0
 62
7
  6
CONTINUOUS
 10
122.3081459616
 20
255.8776079568
 11
122.8257349732
 21
255.6573629454
  0
LINE
  8
0
 62
7
  6
CONTINUOUS
 10
129.3022552505
 20
252.2760793377
 11
129.9111618452
 21
252.0132828627
  0
LINE
  8
0
 62
7
  6
CONTINUOUS
 10
130.0322847704
 20
252.3885037894
 11
129.4233781625
 21
252.6513002429
  0
LINE
  8
0
 62
7
  6
CONTINUOUS
 10
134.2595291995
 20
252.6393336404
 11
133.8212720958
 21
252.8312232783
  0
LINE
  8
0
 62
7
  6
CONTINUOUS
 10
135.1604895046
 20
248.665848921
 11
134.8080612256
 21
248.825812986
  0
LINE
  8
0
 62
7
  6
CONTINUOUS
 10
135.3084414672
 20
251.2475088217
 11
135.6608697252
 21
251.0875447305
  0
LINE
  8
0
 62
7
  6
CONTINUOUS
 10
133.4687678216
 20
252.4940195139
 11
133.983643733
 21
252.2481006503
  0
LINE
  8
0
 62
7
  6
CONTINUOUS
 10
124.5328284484
 20
254.8819645965
 11
125.038609198
 21
254.6358100042
  0
LINE
  8
0
 62
7
  6
CONTINUOUS
 10
125.7972803225
 20
254.2665781158
 11
126.218761708
 21
254.0614505409
  0
LINE
  8
0
 62
7
  6
CONTINUOUS
 10
125.2481024724
 20
255.066261715
 11
124.9109127334
 21
255.2303660285
  0
LINE
  8
0
 62
7
  6
CONTINUOUS
 10
125.664092089
 20
257.2064037504
 11
126.1698728386
 21
256.9602491581
  0
LINE
  8
0
 62
7
  6
CONTINUOUS
 10
116.9509871364
 20
261.9459060772
 11
117.3798083354
 21
261.7337567793
  0
LINE
  8
0
 62
7
  6
CONTINUOUS
 10
146.1940429614
 20
242.8339068985
 11
145.816900103
 21
243.021146256
  0
LINE
  8
0
 62
7
  6
CONTINUOUS
 10
126.8705682867
 20
253.6885452737
 11
127.281345167
 21
253.4627350477
  0
LINE
  8
0
 62
7
  6
CONTINUOUS
 10
134.5684214856
 20
248.5270731522
 11
135.0671055654
 21
248.2497872314
  0
LINE
  8
0
 62
7
  6
CONTINUOUS
 10
135.9005094442
 20
251.3862845382
 11
135.4018253696
 21
251.6635704655
  0
LINE
  8
0
 62
7
  6
CONTINUOUS
 10
143.0101889886
 20
244.0293592132
 11
142.7520104101
 21
244.1763708653
  0
LINE
  8
0
 62
7
  6
CONTINUOUS
 10
131.0017463134
 20
252.3533685283
 11
130.6026917239
 21
252.5993021336
  0
LINE
  8
0
 62
7
  6
CONTINUOUS
 10
129.1482566328
 20
254.1704585284
 11
131.3031448399
 21
252.8424211128
  0
LINE
  8
0
 62
7
  6
CONTINUOUS
 10
131.1050226717
 20
253.4143898885
 11
129.4289985106
 21
254.4473078785
  0
LINE
  8
0
 62
7
  6
CONTINUOUS
 10
131.1147656052
 20
251.1079386695
 11
131.49785263
 21
250.8377974871
  0
LINE
  8
0
 62
7
  6
CONTINUOUS
 10
142.2598651846
 20
243.8655716084
 11
142.6423920451
 21
243.5782178723
  0
LINE
  8
0
 62
7
  6
CONTINUOUS
 10
134.1296473408
 20
248.8790440314
 11
134.5684214856
 21
248.5270731522
  0
LINE
  8
0
 62
7
  6
CONTINUOUS
 10
134.8080612256
 20
248.825812986
 11
134.3692870808
 21
249.1777838653
  0
LINE
  8
0
 62
7
  6
CONTINUOUS
 10
133.9507656036
 20
250.004480018
 11
133.5851227146
 21
250.2977872938
  0
LINE
  8
0
 62
7
  6
CONTINUOUS
 10
136.5181653682
 20
249.9088777247
 11
136.8838082572
 21
249.6155704489
  0
LINE
  8
0
 62
7
  6
CONTINUOUS
 10
135.6608697252
 20
251.0875447305
 11
136.09964387
 21
250.7355738513
  0
LINE
  8
0
 62
7
  6
CONTINUOUS
 10
144.1432568624
 20
239.3299976118
 11
143.843032613
 21
239.5742507336
  0
LINE
  8
0
 62
7
  6
CONTINUOUS
 10
145.7883538845
 20
242.4165127626
 11
146.0885781339
 21
242.1722596408
  0
LINE
  8
0
 62
7
  6
CONTINUOUS
 10
124.2375373621
 20
255.1321592476
 11
124.5328284484
 21
254.8819645965
  0
LINE
  8
0
 62
7
  6
CONTINUOUS
 10
124.9109127334
 20
255.2303660285
 11
124.6156255023
 21
255.4805587941
  0
LINE
  8
0
 62
7
  6
CONTINUOUS
 10
126.1698728386
 20
256.9602491581
 11
126.4651600698
 21
256.7100563925
  0
LINE
  8
0
 62
7
  6
CONTINUOUS
 10
126.6746533148
 20
257.140508043
 11
126.3793660837
 21
257.3907008086
  0
LINE
  8
0
 62
7
  6
CONTINUOUS
 10
128.8736242966
 20
252.6527075346
 11
129.3022552505
 21
252.2760793377
  0
LINE
  8
0
 62
7
  6
CONTINUOUS
 10
130.6289723916
 20
254.6075107805
 11
131.0576033499
 21
254.2308825907
  0
LINE
  8
0
 62
7
  6
CONTINUOUS
 10
131.3383451574
 20
254.5077318266
 11
130.9097141992
 21
254.8843600164
  0
LINE
  8
0
 62
7
  6
CONTINUOUS
 10
117.9969693207
 20
261.8680026124
 11
117.6832184749
 21
262.148815218
  0
LINE
  8
0
 62
7
  6
CONTINUOUS
 10
143.3815209053
 20
239.2321681079
 11
143.7375728493
 21
238.9125965456
  0
LINE
  8
0
 62
7
  6
CONTINUOUS
 10
129.4233781625
 20
252.6513002429
 11
129.1543661349
 21
252.9295568204
  0
LINE
  8
0
 62
7
  6
CONTINUOUS
 10
133.750783131
 20
249.3056998691
 11
134.1296473408
 21
248.8790440314
  0
LINE
  8
0
 62
7
  6
CONTINUOUS
 10
134.3692870808
 20
249.1777838653
 11
133.9904228867
 21
249.6044397226
  0
LINE
  8
0
 62
7
  6
CONTINUOUS
 10
136.09964387
 20
250.7355738513
 11
136.478508085
 21
250.3089180201
  0
LINE
  8
0
 62
7
  6
CONTINUOUS
 10
136.7181478041
 20
250.6076578278
 11
136.339283589
 21
251.0343136589
  0
LINE
  8
0
 62
7
  6
CONTINUOUS
 10
139.2628323396
 20
244.2162289997
 11
139.6358658017
 21
243.795215596
  0
LINE
  8
0
 62
7
  6
CONTINUOUS
 10
141.1407647983
 20
245.1286118198
 11
142.2598651846
 21
243.8655716084
  0
LINE
  8
0
 62
7
  6
CONTINUOUS
 10
142.7520104101
 20
244.1763708653
 11
141.5707358828
 21
245.5095821186
  0
LINE
  8
0
 62
7
  6
CONTINUOUS
 10
128.6844253657
 20
252.8817760186
 11
128.8736242966
 21
252.6527075346
  0
LINE
  8
0
 62
7
  6
CONTINUOUS
 10
126.8013495353
 20
256.9723655561
 11
126.6746533148
 21
257.140508043
  0
LINE
  8
0
 62
7
  6
CONTINUOUS
 10
142.9349147353
 20
239.8346949848
 11
143.3815209053
 21
239.2321681079
  0
LINE
  8
0
 62
7
  6
CONTINUOUS
 10
143.843032613
 20
239.5742507336
 11
143.396426443
 21
240.1767776106
  0
LINE
  8
0
 62
7
  6
CONTINUOUS
 10
134.5630862692
 20
250.6179810341
 11
135.506727799
 21
249.2473072402
  0
LINE
  8
0
 62
7
  6
CONTINUOUS
 10
135.9058446607
 20
249.2953766563
 11
134.9622032147
 21
250.6660505548
  0
LINE
  8
0
 62
7
  6
CONTINUOUS
 10
136.8776249467
 20
250.3569874362
 11
136.7181478041
 21
250.6076578278
  0
LINE
  8
0
 62
7
  6
CONTINUOUS
 10
144.7082961708
 20
237.411217035
 11
144.9976710918
 21
236.9288599006
  0
LINE
  8
0
 62
7
  6
CONTINUOUS
 10
145.6728821842
 20
235.8033550135
 11
146.0587139403
 21
235.1602146209
  0
LINE
  8
0
 62
7
  6
CONTINUOUS
 10
146.7339206173
 20
234.034717094
 11
147.0232955382
 21
233.5523599596
  0
LINE
  8
0
 62
7
  6
CONTINUOUS
 10
142.7327051337
 20
240.2682871903
 11
142.9349147353
 21
239.8346949848
  0
LINE
  8
0
 62
7
  6
CONTINUOUS
 10
143.8269383222
 20
245.1287967903
 11
143.9417932058
 21
244.8547950386
  0
LINE
  8
0
 62
7
  6
CONTINUOUS
 10
143.396426443
 20
240.1767776106
 11
143.2500394115
 21
240.5350582611
  0
LINE
  8
0
 62
7
  6
CONTINUOUS
 10
146.5351843039
 20
241.5697327638
 11
146.6815713354
 21
241.2114521134
  0
LINE
  8
0
 62
7
  6
CONTINUOUS
 10
147.2683739886
 20
241.0629287344
 11
147.1989106771
 21
241.4782162538
  0
LINE
  8
0
 62
7
  6
CONTINUOUS
 10
90.944149617
 20
262.3239205548
 11
91.6763470615
 21
262.4863577096
  0
LINE
  8
0
 62
7
  6
CONTINUOUS
 10
91.5519270094
 20
263.0471902628
 11
90.8197295648
 21
262.884753108
  0
LINE
  8
0
 62
7
  6
CONTINUOUS
 10
97.8752992757
 20
264.0514648511
 11
97.3174234988
 21
263.9794866074
  0
LINE
  8
0
 62
7
  6
CONTINUOUS
 10
94.992942514
 20
263.6795774413
 11
94.1561288487
 21
263.5716100756
  0
LINE
  8
0
 62
7
  6
CONTINUOUS
 10
99.5979941802
 20
263.5900998954
 11
102.408006461
 21
263.7083675239
  0
LINE
  8
0
 62
7
  6
CONTINUOUS
 10
102.3838496717
 20
264.2823274107
 11
99.0118349347
 21
264.1404062565
  0
LINE
  8
0
 62
7
  6
CONTINUOUS
 10
92.0302868257
 20
263.0552413343
 11
91.5519270094
 21
263.0471902628
  0
LINE
  8
0
 62
7
  6
CONTINUOUS
 10
116.801157082
 20
262.4805354445
 11
116.1421951766
 21
262.5553581271
  0
LINE
  8
0
 62
7
  6
CONTINUOUS
 10
108.3586752077
 20
263.5460683631
 11
111.6104253757
 21
263.1070881451
  0
LINE
  8
0
 62
7
  6
CONTINUOUS
 10
112.139008731
 20
263.5187962739
 11
108.422721002
 21
264.0204881976
  0
LINE
  8
0
 62
7
  6
CONTINUOUS
 10
114.2583815896
 20
263.0848122236
 11
113.70686476
 21
263.1954261316
  0
LINE
  8
0
 62
7
  6
CONTINUOUS
 10
115.0821264046
 20
261.8448143679
 11
115.5353665984
 21
261.7252434392
  0
LINE
  8
0
 62
7
  6
CONTINUOUS
 10
116.5883941514
 20
262.0415630391
 11
116.9509871364
 21
261.9459060772
  0
LINE
  8
0
 62
7
  6
CONTINUOUS
 10
117.163750067
 20
262.3848784826
 11
116.801157082
 21
262.4805354445
  0
LINE
  8
0
 62
7
  6
CONTINUOUS
 10
124.5876950639
 20
259.7980750387
 11
124.0701060522
 21
260.01832005
  0
LINE
  8
0
 62
7
  6
CONTINUOUS
 10
117.6832184749
 20
262.148815218
 11
117.163750067
 21
262.3848784826
  0
LINE
  8
0
 62
7
  6
CONTINUOUS
 10
126.3793660837
 20
257.3907008086
 11
125.873585334
 21
257.6368554009
  0
LINE
  8
0
 62
7
  6
CONTINUOUS
 10
128.1879984461
 20
258.107696538
 11
127.7665170606
 21
258.3128241129
  0
LINE
  8
0
 62
7
  6
CONTINUOUS
 10
129.449116721
 20
257.4061810648
 11
129.0383398406
 21
257.6319912908
  0
LINE
  8
0
 62
7
  6
CONTINUOUS
 10
133.2635197697
 20
253.3416888431
 11
132.8804327449
 21
253.6118300254
  0
LINE
  8
0
 62
7
  6
CONTINUOUS
 10
136.339283589
 20
251.0343136589
 11
135.9005094442
 21
251.3862845382
  0
LINE
  8
0
 62
7
  6
CONTINUOUS
 10
146.5500897877
 20
242.5143422266
 11
146.1940429614
 21
242.8339068985
  0
LINE
  8
0
 62
7
  6
CONTINUOUS
 10
142.6456637949
 20
246.4620080436
 11
143.8269383222
 21
245.1287967903
  0
LINE
  8
0
 62
7
  6
CONTINUOUS
 10
144.1230734182
 20
245.5164430813
 11
142.6309395699
 21
247.2004966964
  0
LINE
  8
0
 62
7
  6
CONTINUOUS
 10
146.0885781339
 20
242.1722596408
 11
146.5351843039
 21
241.5697327638
  0
LINE
  8
0
 62
7
  6
CONTINUOUS
 10
146.9966959577
 20
241.9118153497
 11
146.5500897877
 21
242.5143422266
  0
LINE
  8
0
 62
7
  6
CONTINUOUS
 10
150.8821526137
 20
235.8673593269
 11
150.4480902323
 21
236.5908950286
  0
LINE
  8
0
 62
7
  6
CONTINUOUS
 10
149.0012156277
 20
239.0026807008
 11
148.5671532463
 21
239.7262164024
  0
LINE
  8
0
 62
7
  6
CONTINUOUS
 10
144.3622765839
 20
245.1020992456
 11
144.1230734182
 21
245.5164430813
  0
LINE
  8
0
 62
7
  6
CONTINUOUS
 10
147.1989106771
 20
241.4782162538
 11
146.9966959577
 21
241.9118153497
  0
LINE
  8
0
 62
7
  6
CONTINUOUS
 10
41.4396061269
 20
94.4649890591
 11
41.4396061269
 21
78.4649890591
  0
LINE
  8
0
 62
7
  6
CONTINUOUS
 10
162.5395665052
 20
76.4649890591
 11
43.4396457487
 21
76.4649890591
  0
LINE
  8
DEFAULT_1
 62
2
  6
CENTER
 10
102.9896061269
 20
74.4649890591
 11
102.9896061269
 21
98.4649890591
  0
LINE
  8
0
 62
7
  6
CONTINUOUS
 10
162.5395665059
 20
96.4649890591
 11
43.439645748
 21
96.4649890591
  0
LINE
  8
0
 62
7
  6
CONTINUOUS
 10
164.5396061269
 20
94.4649890591
 11
164.5396061269
 21
78.4649890591
  0
ARC
  8
0
 62
40
  6
CONTINUOUS
 10
96.5945597447
 20
166.7278556815
 40
3.2
 50
2.2544307753
 51
45.0
  0
ARC
  8
0
 62
40
  6
CONTINUOUS
 10
95.1803461823
 20
168.1420692438
 40
3.2
 50
45.0
 51
86.4096221093
  0
ARC
  8
0
 62
40
  6
CONTINUOUS
 10
95.5811328226
 20
174.529507703
 40
3.2
 50
225.0
 51
266.4096221093
  0
ARC
  8
0
 62
40
  6
CONTINUOUS
 10
67.7595405257
 20
202.3510999998
 40
3.2
 50
183.5903778907
 51
225.0
  0
ARC
  8
0
 62
40
  6
CONTINUOUS
 10
61.3721020666
 20
201.9503133595
 40
3.2
 50
3.5903778907
 51
45.0
  0
ARC
  8
0
 62
40
  6
CONTINUOUS
 10
59.9578885042
 20
203.3645269219
 40
3.2
 50
45.0
 51
87.7455692247
  0
ARC
  8
0
 62
40
  6
CONTINUOUS
 10
60.2096458651
 20
209.7595733042
 40
3.2
 50
92.2544307753
 51
267.7455692247
  0
ARC
  8
0
 62
40
  6
CONTINUOUS
 10
59.9578885042
 20
216.1546196864
 40
3.2
 50
272.2544307753
 51
315.0
  0
ARC
  8
0
 62
40
  6
CONTINUOUS
 10
61.3721020666
 20
217.5688332488
 40
3.2
 50
315.0
 51
356.4096221093
  0
ARC
  8
0
 62
40
  6
CONTINUOUS
 10
67.7595405257
 20
217.1680466085
 40
3.2
 50
135.0
 51
176.4096221093
  0
ARC
  8
0
 62
40
  6
CONTINUOUS
 10
95.5811328226
 20
244.9896389054
 40
3.2
 50
93.5903778907
 51
135.0
  0
ARC
  8
0
 62
40
  6
CONTINUOUS
 10
95.1803461823
 20
251.3770773645
 40
3.2
 50
273.5903778907
 51
315.0
  0
ARC
  8
0
 62
40
  6
CONTINUOUS
 10
96.5945597447
 20
252.7912909268
 40
3.2
 50
315.0
 51
357.7455692247
  0
ARC
  8
0
 62
40
  6
CONTINUOUS
 10
146.0213237496
 20
203.3645269219
 40
3.2
 50
92.2544307753
 51
135.0
  0
ARC
  8
0
 62
40
  6
CONTINUOUS
 10
144.6071101872
 20
201.9503133595
 40
3.2
 50
135.0
 51
176.4096221093
  0
ARC
  8
0
 62
40
  6
CONTINUOUS
 10
138.2196717281
 20
202.3510999998
 40
3.2
 50
315.0
 51
356.4096221093
  0
ARC
  8
0
 62
40
  6
CONTINUOUS
 10
110.3980794313
 20
174.529507703
 40
3.2
 50
273.5903778907
 51
315.0
  0
ARC
  8
0
 62
40
  6
CONTINUOUS
 10
110.7988660715
 20
168.1420692438
 40
3.2
 50
93.5903778907
 51
135.0
  0
ARC
  8
0
 62
40
  6
CONTINUOUS
 10
109.3846525092
 20
166.7278556815
 40
3.2
 50
135.0
 51
177.7455692247
  0
ARC
  8
0
 62
40
  6
CONTINUOUS
 10
102.9896061269
 20
166.9796130424
 40
3.2
 50
182.2544307753
 51
357.7455692247
  0
CIRCLE
  8
0
 62
7
  6
CONTINUOUS
 10
132.829512293
 20
170.6919236436
 40
1.275
  0
ARC
  8
0
 62
7
  6
CONTINUOUS
 10
134.8094112803
 20
176.5255545884
 40
1.0
 50
45.0
 51
135.0
  0
ARC
  8
0
 62
7
  6
CONTINUOUS
 10
132.263826868
 20
173.5557061074
 40
1.0
 50
225.0
 51
315.0
  0
ARC
  8
0
 62
7
  6
CONTINUOUS
 10
134.5607440832
 20
176.4183087475
 40
0.9
 50
135.0
 51
191.2510114041
  0
ARC
  8
0
 62
7
  6
CONTINUOUS
 10
132.5124940651
 20
173.6629519483
 40
0.9
 50
315.0
 51
11.2510114041
  0
ARC
  8
0
 62
7
  6
CONTINUOUS
 10
134.597279246
 20
176.0305798416
 40
0.5
 50
135.0
 51
225.0
  0
ARC
  8
0
 62
7
  6
CONTINUOUS
 10
132.4759589024
 20
174.0506808542
 40
0.5
 50
315.0
 51
45.0
  0
ARC
  8
0
 62
7
  6
CONTINUOUS
 10
134.7033452631
 20
176.4901992493
 40
0.25
 50
45.0
 51
135.0
  0
ARC
  8
0
 62
7
  6
CONTINUOUS
 10
132.3698928852
 20
173.5910614465
 40
0.25
 50
225.0
 51
315.0
  0
CIRCLE
  8
0
 62
7
  6
CONTINUOUS
 10
102.9896061269
 20
209.7595733042
 40
61.55
  0
CIRCLE
  8
0
 62
4
  6
CONTINUOUS
 10
102.9896061269
 20
209.7595733042
 40
9.525
  0
ARC
  8
0
 62
40
  6
CONTINUOUS
 10
145.7695663887
 20
209.7595733042
 40
3.2
 50
272.2544307753
 51
87.7455692247
  0
ARC
  8
0
 62
40
  6
CONTINUOUS
 10
102.9896061269
 20
252.5395335659
 40
3.2
 50
2.2544307753
 51
177.7455692247
  0
ARC
  8
0
 62
40
  6
CONTINUOUS
 10
109.3846525092
 20
252.7912909268
 40
3.2
 50
182.2544307753
 51
225.0
  0
ARC
  8
0
 62
40
  6
CONTINUOUS
 10
110.7988660715
 20
251.3770773645
 40
3.2
 50
225.0
 51
266.4096221093
  0
ARC
  8
0
 62
40
  6
CONTINUOUS
 10
110.3980794313
 20
244.9896389054
 40
3.2
 50
45.0
 51
86.4096221093
  0
ARC
  8
0
 62
40
  6
CONTINUOUS
 10
138.2196717281
 20
217.1680466085
 40
3.2
 50
3.5903778907
 51
45.0
  0
ARC
  8
0
 62
40
  6
CONTINUOUS
 10
144.6071101872
 20
217.5688332488
 40
3.2
 50
183.5903778907
 51
225.0
  0
ARC
  8
0
 62
40
  6
CONTINUOUS
 10
146.0213237496
 20
216.1546196864
 40
3.2
 50
225.0
 51
267.7455692247
  0
ARC
  8
0
 62
7
  6
CONTINUOUS
 10
43.4396061269
 20
94.4649890591
 40
2.0
 50
89.9999999986
 51
180.0
  0
ARC
  8
0
 62
7
  6
CONTINUOUS
 10
162.5396061269
 20
94.4649890591
 40
2.0
 50
0.0
 51
90.0000000014
  0
ARC
  8
0
 62
7
  6
CONTINUOUS
 10
43.4396061269
 20
78.4649890591
 40
2.0
 50
180.0
 51
270.0000000267
  0
ARC
  8
0
 62
7
  6
CONTINUOUS
 10
162.5396061269
 20
78.4649890591
 40
2.0
 50
269.9999999733
 51
360.0
  0
ENDSEC
  0
EOF
