  0
SECTION
  2
HEADER
  9
$EXTMAX
 10
210.0
 20
297.0
 30
0.0
  9
$EXTMIN
 10
0.0
 20
0.0
 30
0.0
  9
$LIMMIN
 10
0.0
 20
0.0
  9
$LIMMAX
 10
210.0
 20
297.0
  9
$VIEWCTR
 10
105.0
 20
148.5
  9
$VIEWSIZE
 40
297.0
  9
$CLAYER
  8
0
  9
$LTSCALE
 40
19.36
  9
$CELTYPE
  6
BYLAYER
  9
$DIMSCALE
 40
1.0
  9
$DIMASZ
 40
3.5
  9
$DIMEXO
 40
2.2
  9
$DIMDLI
 40
13.376
  9
$DIMEXE
 40
6.336
  9
$DIMCEN
 40
3.168
  9
$DIMLFAC
 40
1.0
  9
$DIMBLK
  1
_FILLED
  9
$DIMTXT
 40
3.5
  9
$PDMODE
 70
3
  9
$PDSIZE
 40
0.3125
  9
$TILEMODE
 70
1
  0
ENDSEC
  0
SECTION
  2
TABLES
  0
TABLE
  2
LTYPE
 70
6
  0
LTYPE
  2
BYBLOCK
 70
0
  3

 72
65
 73
0
 40
0.0
  0
LTYPE
  2
BYLAYER
 70
0
  3

 72
65
 73
0
 40
0.0
  0
LTYPE
  2
CONTINUOUS
 70
64
  3
Solid line
 72
65
 73
0
 40
0.0
  0
LTYPE
  2
CENTER
 70
64
  3
____ _ ____ _ ____ _ ____ _ ____ _ ____ _ ____
 72
65
 73
4
 40
0.6
 49
0.375
 49
-0.075
 49
0.075
 49
-0.075
  0
LTYPE
  2
HIDDEN
 70
64
  3
- - - - - - - - - - - - - - - - - - - -
 72
65
 73
2
 40
0.2
 49
0.1
 49
-0.1
  0
LTYPE
  2
PHANTOM
 70
64
  3
_____ _ _ _____ _ _ _____ _ _ _____
 72
65
 73
6
 40
0.8
 49
0.45
 49
-0.05
 49
0.1
 49
-0.05
 49
0.1
 49
-0.05
  0
LTYPE
  2
DOT
 70
64
  3
. . . . . . . . . . . . . . . . . . . .
 72
65
 73
2
 40
0.2
 49
0.1
 49
-0.1
  0
LTYPE
  2
DASHED
 70
64
  3
- - - - - - - - - - - - - - - - - - - -
 72
65
 73
2
 40
0.2
 49
0.1
 49
-0.1
  0
ENDTAB
  0
TABLE
  2
LAYER
 70
36
  0
LAYER
  2
0
 70
0
 62
7
  6
CONTINUOUS
  0
LAYER
  2
DEFAULT_1
 70
0
 62
7
  6
CENTER
  0
LAYER
  2
DEFAULT_2
 70
0
 62
8
  6
HIDDEN
  0
LAYER
  2
DEFAULT_3
 70
0
 62
7
  6
PHANTOM
  0
LAYER
  2
BLANK_CURVE
 70
0
 62
7
  6
CONTINUOUS
  0
LAYER
  2
HUB_SQ_NAV
 70
0
 62
7
  6
CONTINUOUS
  0
LAYER
  2
LAY0001
 70
0
 62
7
  6
CONTINUOUS
  0
ENDTAB
  0
TABLE
  2
STYLE
 70
1
  0
STYLE
  2
STANDARD
 70
0
 40
0.0
 41
0.8
 50
0.0
 71
0
 42
0.2
  3
txt
  4

  0
STYLE
  2
TEXTSTYLE_1
 70
0
 40
0.0
 41
0.8
 50
0.0
 71
0
 42
0.2
  3
gdt
  4

  0
STYLE
  2
TEXTSTYLE_2
 70
0
 40
0.0
 41
0.6
 50
0.0
 71
0
 42
0.2
  3
txt
  4

  0
STYLE
  2
TEXTSTYLE_3
 70
0
 40
0.0
 41
1.0
 50
0.0
 71
0
 42
0.2
  3
ftb_____.ttf
  4

  0
STYLE
  2
TEXTSTYLE_4
 70
0
 40
0.0
 41
1.0
 50
0.0
 71
0
 42
0.2
  3
fti_____.ttf
  4

  0
STYLE
  2
TEXTSTYLE_5
 70
0
 40
0.0
 41
1.0
 50
0.0
 71
0
 42
0.2
  3
frutiger light.ttf
  4

  0
STYLE
  2
TEXTSTYLE_6
 70
0
 40
0.0
 41
0.7
 50
0.0
 71
0
 42
0.2
  3
txt
  4

  0
STYLE
  2
TEXTSTYLE_7
 70
0
 40
0.0
 41
0.8
 50
0.0
 71
0
 42
0.2
  3
txt
  4

  0
ENDTAB
  0
ENDSEC
  0
SECTION
  2
BLOCKS
  0
BLOCK
  8
0
 62
2
  6
CONTINUOUS
  2
SYMBOL_8_BL1
 70
64
 10
173.5956734183
 20
35.5937998301
  0
TEXT
  8
0
 62
7
  6
CONTINUOUS
 10
164.6539584268
 20
30.6865562072
  7
TEXTSTYLE_4
 40
1.0655737705
  1
The brand for plastic modular belts and chains
 41
1.0
 72
0
  0
LINE
  8
0
 62
7
  6
CONTINUOUS
 10
149.5737418074
 20
36.1675703219
 11
149.5737418074
 21
34.0364227809
  0
LINE
  8
0
 62
7
  6
CONTINUOUS
 10
149.8628043005
 20
31.0454914852
 11
149.8628043005
 21
31.1422825445
  0
LINE
  8
0
 62
7
  6
CONTINUOUS
 10
149.5737418074
 20
31.1100188581
 11
149.6315543091
 21
30.9164367395
  0
LINE
  8
0
 62
7
  6
CONTINUOUS
 10
150.9671844304
 20
33.9544555678
 11
150.9671844304
 21
36.1675703219
  0
LINE
  8
0
 62
7
  6
CONTINUOUS
 10
151.8862417523
 20
32.1101932727
 11
151.8862417523
 21
30.5937998301
  0
LINE
  8
0
 62
7
  6
CONTINUOUS
 10
152.1753043074
 20
30.5937998301
 11
152.1753043074
 21
31.3358647082
  0
LINE
  8
0
 62
7
  6
CONTINUOUS
 10
152.1753043074
 20
31.4649194539
 11
152.1753043074
 21
32.1101932727
  0
LINE
  8
0
 62
7
  6
CONTINUOUS
 10
149.6315543091
 20
31.3036010218
 11
149.5737418074
 21
31.1100188581
  0
LINE
  8
0
 62
7
  6
CONTINUOUS
 10
149.9784292936
 20
30.8841730531
 11
149.8628043005
 21
31.0454914852
  0
LINE
  8
0
 62
7
  6
CONTINUOUS
 10
151.0768668626
 20
31.400392081
 11
151.1346793074
 21
31.3036010218
  0
LINE
  8
0
 62
7
  6
CONTINUOUS
 10
151.4237418626
 20
31.3036010218
 11
151.3659292523
 21
31.4326557675
  0
LINE
  8
0
 62
7
  6
CONTINUOUS
 10
152.852430332
 20
36.1675703219
 11
152.852430332
 21
34.3642916334
  0
LINE
  8
0
 62
7
  6
CONTINUOUS
 10
152.852430332
 20
33.0528162235
 11
152.852430332
 21
32.3970785186
  0
LINE
  8
0
 62
7
  6
CONTINUOUS
 10
153.2159293074
 20
31.2390736489
 11
153.2159293074
 21
30.5937998301
  0
LINE
  8
0
 62
7
  6
CONTINUOUS
 10
153.5049916972
 20
30.5937998301
 11
153.5049916972
 21
31.2390736489
  0
LINE
  8
0
 62
7
  6
CONTINUOUS
 10
149.8628043005
 20
31.1422825445
 11
149.9206168074
 21
31.2713373354
  0
LINE
  8
0
 62
7
  6
CONTINUOUS
 10
149.6315543091
 20
30.9164367395
 11
149.7471793074
 21
30.7873819712
  0
LINE
  8
0
 62
7
  6
CONTINUOUS
 10
153.1581166972
 20
31.3681283946
 11
153.2159293074
 21
31.2390736489
  0
LINE
  8
0
 62
7
  6
CONTINUOUS
 10
153.9674919177
 20
30.8841730531
 11
154.0253041972
 21
30.7551182848
  0
LINE
  8
0
 62
7
  6
CONTINUOUS
 10
153.5049916972
 20
31.2390736489
 11
153.4471794177
 21
31.400392081
  0
LINE
  8
0
 62
7
  6
CONTINUOUS
 10
153.9674919177
 20
31.4326557675
 11
153.9674919177
 21
31.3681283946
  0
LINE
  8
0
 62
7
  6
CONTINUOUS
 10
153.9674919177
 20
30.9809641124
 11
153.9674919177
 21
30.8841730531
  0
LINE
  8
0
 62
7
  6
CONTINUOUS
 10
154.245872955
 20
32.3970785186
 11
154.245872955
 21
36.1675703219
  0
LINE
  8
0
 62
7
  6
CONTINUOUS
 10
154.2565543074
 20
30.8519093441
 11
154.2565543074
 21
30.9164367395
  0
LINE
  8
0
 62
7
  6
CONTINUOUS
 10
154.5737418074
 20
36.1675703219
 11
154.5737418074
 21
32.3970785186
  0
LINE
  8
0
 62
7
  6
CONTINUOUS
 10
151.3659292523
 20
30.7873819712
 11
151.4237418626
 21
30.9164367395
  0
LINE
  8
0
 62
7
  6
CONTINUOUS
 10
155.759679528
 20
30.6905909007
 11
155.7018665869
 21
30.8519093441
  0
LINE
  8
0
 62
7
  6
CONTINUOUS
 10
155.412804528
 20
31.3681283946
 11
155.412804528
 21
31.2713373354
  0
LINE
  8
0
 62
7
  6
CONTINUOUS
 10
155.412804528
 20
31.1422825445
 11
155.412804528
 21
30.9487004259
  0
LINE
  8
0
 62
7
  6
CONTINUOUS
 10
155.7018665869
 20
30.8519093441
 11
155.7018665869
 21
31.3681283946
  0
LINE
  8
0
 62
7
  6
CONTINUOUS
 10
155.9671844304
 20
32.3970785186
 11
155.9671844304
 21
34.2003572071
  0
LINE
  8
0
 62
7
  6
CONTINUOUS
 10
155.9671844304
 20
35.511832617
 11
155.9671844304
 21
36.1675703219
  0
LINE
  8
0
 62
7
  6
CONTINUOUS
 10
156.279992028
 20
32.1101932727
 11
156.279992028
 21
31.9488748406
  0
LINE
  8
0
 62
7
  6
CONTINUOUS
 10
156.279992028
 20
31.626237886
 11
156.279992028
 21
30.5937998301
  0
LINE
  8
0
 62
7
  6
CONTINUOUS
 10
156.5690540869
 20
30.5937998301
 11
156.5690540869
 21
31.626237886
  0
LINE
  8
0
 62
7
  6
CONTINUOUS
 10
156.5690540869
 20
31.9488748406
 11
156.5690540869
 21
32.1101932727
  0
LINE
  8
0
 62
7
  6
CONTINUOUS
 10
151.1346793074
 20
30.9164367395
 11
151.0768668626
 21
30.8196456577
  0
LINE
  8
0
 62
7
  6
CONTINUOUS
 10
153.4471794177
 20
31.400392081
 11
153.3893668074
 21
31.4649194539
  0
LINE
  8
0
 62
7
  6
CONTINUOUS
 10
154.3143669177
 20
30.7873819712
 11
154.2565543074
 21
30.8519093441
  0
LINE
  8
0
 62
7
  6
CONTINUOUS
 10
155.4706168074
 20
30.6583272086
 11
155.5284290869
 21
30.5937998301
  0
LINE
  8
0
 62
7
  6
CONTINUOUS
 10
155.412804528
 20
30.7551182848
 11
155.4706168074
 21
30.6583272086
  0
LINE
  8
0
 62
7
  6
CONTINUOUS
 10
155.8174918074
 20
30.5937998301
 11
155.759679528
 21
30.6905909007
  0
LINE
  8
0
 62
7
  6
CONTINUOUS
 10
155.7018665869
 20
31.3681283946
 11
155.6440543074
 21
31.4649194539
  0
LINE
  8
0
 62
7
  6
CONTINUOUS
 10
157.0315543074
 20
31.626237886
 11
157.0315543074
 21
30.5937998301
  0
LINE
  8
0
 62
7
  6
CONTINUOUS
 10
157.320617028
 20
30.5937998301
 11
157.320617028
 21
31.3358647082
  0
LINE
  8
0
 62
7
  6
CONTINUOUS
 10
157.320617028
 20
31.4649194539
 11
157.320617028
 21
31.626237886
  0
LINE
  8
0
 62
7
  6
CONTINUOUS
 10
157.852430332
 20
34.6101932727
 11
157.852430332
 21
32.3970785186
  0
LINE
  8
0
 62
7
  6
CONTINUOUS
 10
149.7471793074
 20
31.4326557675
 11
149.6315543091
 21
31.3036010218
  0
LINE
  8
0
 62
7
  6
CONTINUOUS
 10
149.9206168074
 20
31.2713373354
 11
149.9784292936
 21
31.3358647082
  0
LINE
  8
0
 62
7
  6
CONTINUOUS
 10
149.7471793074
 20
30.7873819712
 11
149.8628043005
 21
30.7228545871
  0
LINE
  8
0
 62
7
  6
CONTINUOUS
 10
150.1518667936
 20
30.7873819712
 11
149.9784292936
 21
30.8841730531
  0
LINE
  8
0
 62
7
  6
CONTINUOUS
 10
155.3549915869
 20
31.4326557675
 11
155.412804528
 21
31.3681283946
  0
LINE
  8
0
 62
7
  6
CONTINUOUS
 10
158.3034290869
 20
31.3681283946
 11
158.361242028
 21
31.2068099625
  0
LINE
  8
0
 62
7
  6
CONTINUOUS
 10
158.6503040869
 20
31.2068099625
 11
158.5924918074
 21
31.3681283946
  0
LINE
  8
0
 62
7
  6
CONTINUOUS
 10
158.361242028
 20
31.2068099625
 11
158.361242028
 21
30.5937998301
  0
LINE
  8
0
 62
7
  6
CONTINUOUS
 10
158.6503040869
 20
30.5937998301
 11
158.6503040869
 21
31.2068099625
  0
LINE
  8
0
 62
7
  6
CONTINUOUS
 10
159.1128043074
 20
31.4326557675
 11
159.1128043074
 21
31.3681283946
  0
LINE
  8
0
 62
7
  6
CONTINUOUS
 10
159.245872955
 20
32.3970785186
 11
159.245872955
 21
34.5282260596
  0
LINE
  8
0
 62
7
  6
CONTINUOUS
 10
159.5737418074
 20
36.1675703219
 11
159.5737418074
 21
32.3970785186
  0
LINE
  8
0
 62
7
  6
CONTINUOUS
 10
154.2565543074
 20
30.9164367395
 11
154.3143669177
 21
31.0132277988
  0
LINE
  8
0
 62
7
  6
CONTINUOUS
 10
149.8628043005
 20
30.7228545871
 11
150.0362418212
 21
30.6583272086
  0
LINE
  8
0
 62
7
  6
CONTINUOUS
 10
151.3659292523
 20
31.4326557675
 11
151.1924917523
 21
31.5294468267
  0
LINE
  8
0
 62
7
  6
CONTINUOUS
 10
154.0253041972
 20
30.7551182848
 11
154.1987416972
 21
30.6583272086
  0
LINE
  8
0
 62
7
  6
CONTINUOUS
 10
153.0424918074
 20
31.4326557675
 11
153.1581166972
 21
31.3681283946
  0
LINE
  8
0
 62
7
  6
CONTINUOUS
 10
153.3893668074
 20
31.4649194539
 11
153.2737419177
 21
31.5294468267
  0
LINE
  8
0
 62
7
  6
CONTINUOUS
 10
159.1128043074
 20
30.8519093441
 11
159.228429528
 21
30.7228545871
  0
LINE
  8
0
 62
7
  6
CONTINUOUS
 10
159.4596793074
 20
30.7873819712
 11
159.401867028
 21
30.8519093441
  0
LINE
  8
0
 62
7
  6
CONTINUOUS
 10
159.1128043074
 20
31.3681283946
 11
159.228429528
 21
31.2390736489
  0
LINE
  8
0
 62
7
  6
CONTINUOUS
 10
158.5924918074
 20
31.3681283946
 11
158.534679528
 21
31.4649194539
  0
LINE
  8
0
 62
7
  6
CONTINUOUS
 10
160.9628038663
 20
30.7873819712
 11
160.9628038663
 21
30.8519093441
  0
LINE
  8
0
 62
7
  6
CONTINUOUS
 10
160.9671844304
 20
32.3970785186
 11
160.9671844304
 21
36.1675703219
  0
LINE
  8
0
 62
7
  6
CONTINUOUS
 10
154.0253041972
 20
31.4971831403
 11
153.9674919177
 21
31.4326557675
  0
LINE
  8
0
 62
7
  6
CONTINUOUS
 10
150.9034292799
 20
31.4649194539
 11
151.0768668626
 21
31.400392081
  0
LINE
  8
0
 62
7
  6
CONTINUOUS
 10
155.6440543074
 20
31.4649194539
 11
155.5284290869
 21
31.5294468267
  0
LINE
  8
0
 62
7
  6
CONTINUOUS
 10
159.4596793074
 20
31.3036010218
 11
159.401867028
 21
31.3681283946
  0
LINE
  8
0
 62
7
  6
CONTINUOUS
 10
160.615929528
 20
30.9164367395
 11
160.6737418074
 21
30.8519093441
  0
LINE
  8
0
 62
7
  6
CONTINUOUS
 10
160.9628038663
 20
30.8519093441
 11
160.8471793074
 21
30.9809641124
  0
LINE
  8
0
 62
7
  6
CONTINUOUS
 10
160.615929528
 20
31.4326557675
 11
160.6737418074
 21
31.3681283946
  0
LINE
  8
0
 62
7
  6
CONTINUOUS
 10
160.9628038663
 20
31.3681283946
 11
160.8471793074
 21
31.4971831403
  0
LINE
  8
0
 62
7
  6
CONTINUOUS
 10
154.2565543074
 20
31.3681283946
 11
154.3143669177
 21
31.4326557675
  0
LINE
  8
0
 62
7
  6
CONTINUOUS
 10
154.0831168074
 20
31.1100188581
 11
153.9674919177
 21
30.9809641124
  0
LINE
  8
0
 62
7
  6
CONTINUOUS
 10
155.412804528
 20
30.9487004259
 11
155.3549915869
 21
30.8841730531
  0
LINE
  8
0
 62
7
  6
CONTINUOUS
 10
155.3549915869
 20
30.6905909007
 11
155.412804528
 21
30.7551182848
  0
LINE
  8
0
 62
7
  6
CONTINUOUS
 10
154.1987416972
 20
30.6583272086
 11
154.3143669177
 21
30.6260635193
  0
LINE
  8
0
 62
7
  6
CONTINUOUS
 10
151.1924917523
 20
31.5294468267
 11
150.9612418074
 21
31.5939741996
  0
LINE
  8
0
 62
7
  6
CONTINUOUS
 10
154.5456166972
 20
30.7228545871
 11
154.3143669177
 21
30.7873819712
  0
LINE
  8
0
 62
7
  6
CONTINUOUS
 10
153.2737419177
 20
31.5294468267
 11
153.1003044177
 21
31.5939741996
  0
LINE
  8
0
 62
7
  6
CONTINUOUS
 10
155.5284290869
 20
31.5294468267
 11
155.3549915869
 21
31.5939741996
  0
LINE
  8
0
 62
7
  6
CONTINUOUS
 10
158.187804528
 20
31.4326557675
 11
158.3034290869
 21
31.3681283946
  0
LINE
  8
0
 62
7
  6
CONTINUOUS
 10
158.534679528
 20
31.4649194539
 11
158.4190543074
 21
31.5294468267
  0
LINE
  8
0
 62
7
  6
CONTINUOUS
 10
150.0362418212
 20
30.6583272086
 11
150.2096793212
 21
30.6260635193
  0
LINE
  8
0
 62
7
  6
CONTINUOUS
 10
150.498741835
 20
30.7228545871
 11
150.1518667936
 21
30.7873819712
  0
LINE
  8
0
 62
7
  6
CONTINUOUS
 10
152.9268669177
 20
31.4649194539
 11
153.0424918074
 21
31.4326557675
  0
LINE
  8
0
 62
7
  6
CONTINUOUS
 10
155.239367028
 20
31.4649194539
 11
155.3549915869
 21
31.4326557675
  0
LINE
  8
0
 62
7
  6
CONTINUOUS
 10
159.575304528
 20
30.7551182848
 11
159.4596793074
 21
30.7873819712
  0
LINE
  8
0
 62
7
  6
CONTINUOUS
 10
158.0721793074
 20
31.4649194539
 11
158.187804528
 21
31.4326557675
  0
LINE
  8
0
 62
7
  6
CONTINUOUS
 10
159.228429528
 20
30.7228545871
 11
159.401867028
 21
30.6583272086
  0
LINE
  8
0
 62
7
  6
CONTINUOUS
 10
158.4190543074
 20
31.5294468267
 11
158.2456168074
 21
31.5939741996
  0
LINE
  8
0
 62
7
  6
CONTINUOUS
 10
159.6331168074
 20
31.2390736489
 11
159.4596793074
 21
31.3036010218
  0
LINE
  8
0
 62
7
  6
CONTINUOUS
 10
160.442492028
 20
30.9809641124
 11
160.615929528
 21
30.9164367395
  0
LINE
  8
0
 62
7
  6
CONTINUOUS
 10
160.8471793074
 20
31.4971831403
 11
160.6737418074
 21
31.5617105132
  0
LINE
  8
0
 62
7
  6
CONTINUOUS
 10
159.228429528
 20
31.2390736489
 11
159.4596793074
 21
31.1422825445
  0
LINE
  8
0
 62
7
  6
CONTINUOUS
 10
160.8471793074
 20
30.9809641124
 11
160.615929528
 21
31.0777551716
  0
LINE
  8
0
 62
7
  6
CONTINUOUS
 10
159.401867028
 20
31.3681283946
 11
159.4596793074
 21
31.4326557675
  0
LINE
  8
0
 62
7
  6
CONTINUOUS
 10
149.8628043005
 20
31.4971831403
 11
149.7471793074
 21
31.4326557675
  0
LINE
  8
0
 62
7
  6
CONTINUOUS
 10
149.9784292936
 20
31.3358647082
 11
150.1518667936
 21
31.4326557675
  0
LINE
  8
0
 62
7
  6
CONTINUOUS
 10
152.2909293626
 20
31.5294468267
 11
152.1753043074
 21
31.4649194539
  0
LINE
  8
0
 62
7
  6
CONTINUOUS
 10
152.1753043074
 20
31.3358647082
 11
152.2909293626
 21
31.400392081
  0
LINE
  8
0
 62
7
  6
CONTINUOUS
 10
151.1924917523
 20
30.6905909007
 11
151.3659292523
 21
30.7873819712
  0
LINE
  8
0
 62
7
  6
CONTINUOUS
 10
150.2096793212
 20
30.6260635193
 11
150.5565542799
 21
30.5937998301
  0
LINE
  8
0
 62
7
  6
CONTINUOUS
 10
154.3143669177
 20
30.6260635193
 11
154.5456166972
 21
30.5937998301
  0
LINE
  8
0
 62
7
  6
CONTINUOUS
 10
152.6956168074
 20
31.4971831403
 11
152.9268669177
 21
31.4649194539
  0
LINE
  8
0
 62
7
  6
CONTINUOUS
 10
155.0081169177
 20
31.4971831403
 11
155.239367028
 21
31.4649194539
  0
LINE
  8
0
 62
7
  6
CONTINUOUS
 10
159.4596793074
 20
31.1422825445
 11
160.442492028
 21
30.9809641124
  0
LINE
  8
0
 62
7
  6
CONTINUOUS
 10
160.615929528
 20
31.0777551716
 11
159.6331168074
 21
31.2390736489
  0
LINE
  8
0
 62
7
  6
CONTINUOUS
 10
153.1003044177
 20
31.5939741996
 11
152.9268669177
 21
31.626237886
  0
LINE
  8
0
 62
7
  6
CONTINUOUS
 10
159.401867028
 20
30.6583272086
 11
159.575304528
 21
30.6260635193
  0
LINE
  8
0
 62
7
  6
CONTINUOUS
 10
158.2456168074
 20
31.5939741996
 11
158.0721793074
 21
31.626237886
  0
LINE
  8
0
 62
7
  6
CONTINUOUS
 10
160.5003043074
 20
31.4649194539
 11
160.615929528
 21
31.4326557675
  0
LINE
  8
0
 62
7
  6
CONTINUOUS
 10
160.6737418074
 20
30.8519093441
 11
160.615929528
 21
30.7873819712
  0
LINE
  8
0
 62
7
  6
CONTINUOUS
 10
159.228429528
 20
31.5294468267
 11
159.1128043074
 21
31.4326557675
  0
LINE
  8
0
 62
7
  6
CONTINUOUS
 10
154.1409294177
 20
31.5617105132
 11
154.0253041972
 21
31.4971831403
  0
LINE
  8
0
 62
7
  6
CONTINUOUS
 10
154.1987416972
 20
31.1745462761
 11
154.0831168074
 21
31.1100188581
  0
LINE
  8
0
 62
7
  6
CONTINUOUS
 10
154.3143669177
 20
31.0132277988
 11
154.4299918074
 21
31.0777551716
  0
LINE
  8
0
 62
7
  6
CONTINUOUS
 10
151.8862417523
 20
30.5937998301
 11
152.1753043074
 21
30.5937998301
  0
LINE
  8
0
 62
7
  6
CONTINUOUS
 10
153.2159293074
 20
30.5937998301
 11
153.5049916972
 21
30.5937998301
  0
LINE
  8
0
 62
7
  6
CONTINUOUS
 10
154.5456166972
 20
30.5937998301
 11
154.8924916972
 21
30.5937998301
  0
LINE
  8
0
 62
7
  6
CONTINUOUS
 10
155.5284290869
 20
30.5937998301
 11
155.8174918074
 21
30.5937998301
  0
LINE
  8
0
 62
7
  6
CONTINUOUS
 10
156.279992028
 20
30.5937998301
 11
156.5690540869
 21
30.5937998301
  0
LINE
  8
0
 62
7
  6
CONTINUOUS
 10
157.0315543074
 20
30.5937998301
 11
157.320617028
 21
30.5937998301
  0
LINE
  8
0
 62
7
  6
CONTINUOUS
 10
158.361242028
 20
30.5937998301
 11
158.6503040869
 21
30.5937998301
  0
LINE
  8
0
 62
7
  6
CONTINUOUS
 10
159.922179528
 20
30.5937998301
 11
160.269054528
 21
30.5937998301
  0
LINE
  8
0
 62
7
  6
CONTINUOUS
 10
160.269054528
 20
30.7228545871
 11
159.922179528
 21
30.7228545871
  0
LINE
  8
0
 62
7
  6
CONTINUOUS
 10
154.8924916972
 20
30.7228545871
 11
154.5456166972
 21
30.7228545871
  0
LINE
  8
0
 62
7
  6
CONTINUOUS
 10
159.401867028
 20
30.8519093441
 11
159.1128043074
 21
30.8519093441
  0
LINE
  8
0
 62
7
  6
CONTINUOUS
 10
151.4237418626
 20
30.9164367395
 11
151.1346793074
 21
30.9164367395
  0
LINE
  8
0
 62
7
  6
CONTINUOUS
 10
150.498741835
 20
31.4971831403
 11
150.9034292799
 21
31.4649194539
  0
LINE
  8
0
 62
7
  6
CONTINUOUS
 10
150.9612418074
 20
31.5939741996
 11
150.5565542799
 21
31.626237886
  0
LINE
  8
0
 62
7
  6
CONTINUOUS
 10
159.575304528
 20
30.6260635193
 11
159.922179528
 21
30.5937998301
  0
LINE
  8
0
 62
7
  6
CONTINUOUS
 10
159.922179528
 20
30.7228545871
 11
159.575304528
 21
30.7551182848
  0
LINE
  8
0
 62
7
  6
CONTINUOUS
 10
155.3549915869
 20
31.5939741996
 11
155.0081169177
 21
31.626237886
  0
LINE
  8
0
 62
7
  6
CONTINUOUS
 10
160.1534293074
 20
31.4971831403
 11
160.5003043074
 21
31.4649194539
  0
LINE
  8
0
 62
7
  6
CONTINUOUS
 10
160.5003043074
 20
31.5939741996
 11
160.1534293074
 21
31.626237886
  0
LINE
  8
0
 62
7
  6
CONTINUOUS
 10
157.840929528
 20
31.4971831403
 11
158.0721793074
 21
31.4649194539
  0
LINE
  8
0
 62
7
  6
CONTINUOUS
 10
160.6737418074
 20
31.5617105132
 11
160.5003043074
 21
31.5939741996
  0
LINE
  8
0
 62
7
  6
CONTINUOUS
 10
160.8471793074
 20
30.6905909007
 11
160.9628038663
 21
30.7873819712
  0
LINE
  8
0
 62
7
  6
CONTINUOUS
 10
155.3549915869
 20
30.8841730531
 11
155.1815540869
 21
30.7873819712
  0
LINE
  8
0
 62
7
  6
CONTINUOUS
 10
157.4362415869
 20
31.5294468267
 11
157.320617028
 21
31.4649194539
  0
LINE
  8
0
 62
7
  6
CONTINUOUS
 10
157.320617028
 20
31.3358647082
 11
157.4362415869
 21
31.400392081
  0
LINE
  8
0
 62
7
  6
CONTINUOUS
 10
150.0362418212
 20
31.5617105132
 11
149.8628043005
 21
31.4971831403
  0
LINE
  8
0
 62
7
  6
CONTINUOUS
 10
152.4643666972
 20
31.5939741996
 11
152.2909293626
 21
31.5294468267
  0
LINE
  8
0
 62
7
  6
CONTINUOUS
 10
152.2909293626
 20
31.400392081
 11
152.4643666972
 21
31.4649194539
  0
LINE
  8
0
 62
7
  6
CONTINUOUS
 10
151.0768668626
 20
30.8196456577
 11
150.9034292799
 21
30.7551182848
  0
LINE
  8
0
 62
7
  6
CONTINUOUS
 10
160.5003043074
 20
30.7551182848
 11
160.269054528
 21
30.7228545871
  0
LINE
  8
0
 62
7
  6
CONTINUOUS
 10
154.8924916972
 20
30.5937998301
 11
155.1815540869
 21
30.6260635193
  0
LINE
  8
0
 62
7
  6
CONTINUOUS
 10
160.269054528
 20
30.5937998301
 11
160.615929528
 21
30.6260635193
  0
LINE
  8
0
 62
7
  6
CONTINUOUS
 10
150.5565542799
 20
30.5937998301
 11
150.9612418074
 21
30.6260635193
  0
LINE
  8
0
 62
7
  6
CONTINUOUS
 10
150.9034292799
 20
30.7551182848
 11
150.498741835
 21
30.7228545871
  0
LINE
  8
0
 62
7
  6
CONTINUOUS
 10
154.7768668074
 20
31.1422825445
 11
155.412804528
 21
31.1422825445
  0
LINE
  8
0
 62
7
  6
CONTINUOUS
 10
155.412804528
 20
31.2713373354
 11
154.7768668074
 21
31.2713373354
  0
LINE
  8
0
 62
7
  6
CONTINUOUS
 10
151.1346793074
 20
31.3036010218
 11
151.4237418626
 21
31.3036010218
  0
LINE
  8
0
 62
7
  6
CONTINUOUS
 10
153.9674919177
 20
31.3681283946
 11
154.2565543074
 21
31.3681283946
  0
LINE
  8
0
 62
7
  6
CONTINUOUS
 10
160.6737418074
 20
31.3681283946
 11
160.9628038663
 21
31.3681283946
  0
LINE
  8
0
 62
7
  6
CONTINUOUS
 10
154.6612419177
 20
31.4971831403
 11
155.0081169177
 21
31.4971831403
  0
LINE
  8
0
 62
7
  6
CONTINUOUS
 10
159.8065543074
 20
31.4971831403
 11
160.1534293074
 21
31.4971831403
  0
LINE
  8
0
 62
7
  6
CONTINUOUS
 10
160.1534293074
 20
31.626237886
 11
159.8065543074
 21
31.626237886
  0
LINE
  8
0
 62
7
  6
CONTINUOUS
 10
158.0721793074
 20
31.626237886
 11
157.840929528
 21
31.626237886
  0
LINE
  8
0
 62
7
  6
CONTINUOUS
 10
157.320617028
 20
31.626237886
 11
157.0315543074
 21
31.626237886
  0
LINE
  8
0
 62
7
  6
CONTINUOUS
 10
156.5690540869
 20
31.626237886
 11
156.279992028
 21
31.626237886
  0
LINE
  8
0
 62
7
  6
CONTINUOUS
 10
155.0081169177
 20
31.626237886
 11
154.6612419177
 21
31.626237886
  0
LINE
  8
0
 62
7
  6
CONTINUOUS
 10
152.9268669177
 20
31.626237886
 11
152.6956168074
 21
31.626237886
  0
LINE
  8
0
 62
7
  6
CONTINUOUS
 10
156.279992028
 20
31.9488748406
 11
156.5690540869
 21
31.9488748406
  0
LINE
  8
0
 62
7
  6
CONTINUOUS
 10
156.5690540869
 20
32.1101932727
 11
156.279992028
 21
32.1101932727
  0
LINE
  8
0
 62
7
  6
CONTINUOUS
 10
152.1753043074
 20
32.1101932727
 11
151.8862417523
 21
32.1101932727
  0
LINE
  8
0
 62
7
  6
CONTINUOUS
 10
151.2130860697
 20
32.3970785186
 11
151.6256574183
 21
32.3970785186
  0
LINE
  8
0
 62
7
  6
CONTINUOUS
 10
152.852430332
 20
32.3970785186
 11
154.245872955
 21
32.3970785186
  0
LINE
  8
0
 62
7
  6
CONTINUOUS
 10
154.5737418074
 20
32.3970785186
 11
155.9671844304
 21
32.3970785186
  0
LINE
  8
0
 62
7
  6
CONTINUOUS
 10
157.852430332
 20
32.3970785186
 11
159.245872955
 21
32.3970785186
  0
LINE
  8
0
 62
7
  6
CONTINUOUS
 10
159.5737418074
 20
32.3970785186
 11
160.9671844304
 21
32.3970785186
  0
LINE
  8
0
 62
7
  6
CONTINUOUS
 10
157.6096790869
 20
31.5939741996
 11
157.4362415869
 21
31.5294468267
  0
LINE
  8
0
 62
7
  6
CONTINUOUS
 10
155.1815540869
 20
30.6260635193
 11
155.3549915869
 21
30.6905909007
  0
LINE
  8
0
 62
7
  6
CONTINUOUS
 10
160.615929528
 20
30.6260635193
 11
160.8471793074
 21
30.6905909007
  0
LINE
  8
0
 62
7
  6
CONTINUOUS
 10
160.615929528
 20
30.7873819712
 11
160.5003043074
 21
30.7551182848
  0
LINE
  8
0
 62
7
  6
CONTINUOUS
 10
159.575304528
 20
31.4649194539
 11
159.8065543074
 21
31.4971831403
  0
LINE
  8
0
 62
7
  6
CONTINUOUS
 10
157.6096790869
 20
31.4649194539
 11
157.840929528
 21
31.4971831403
  0
LINE
  8
0
 62
7
  6
CONTINUOUS
 10
154.5456166972
 20
31.1100188581
 11
154.7768668074
 21
31.1422825445
  0
LINE
  8
0
 62
7
  6
CONTINUOUS
 10
157.840929528
 20
31.626237886
 11
157.6096790869
 21
31.5939741996
  0
LINE
  8
0
 62
7
  6
CONTINUOUS
 10
154.4299918074
 20
31.4649194539
 11
154.6612419177
 21
31.4971831403
  0
LINE
  8
0
 62
7
  6
CONTINUOUS
 10
159.8065543074
 20
31.626237886
 11
159.4596793074
 21
31.5939741996
  0
LINE
  8
0
 62
7
  6
CONTINUOUS
 10
154.7768668074
 20
31.2713373354
 11
154.4299918074
 21
31.2390736489
  0
LINE
  8
0
 62
7
  6
CONTINUOUS
 10
150.5565542799
 20
31.626237886
 11
150.2096793212
 21
31.5939741996
  0
LINE
  8
0
 62
7
  6
CONTINUOUS
 10
154.6612419177
 20
31.626237886
 11
154.2565543074
 21
31.5939741996
  0
LINE
  8
0
 62
7
  6
CONTINUOUS
 10
152.0327582009
 20
33.5446195022
 11
151.3770204959
 21
33.5446195022
  0
LINE
  8
0
 62
7
  6
CONTINUOUS
 10
157.4362415869
 20
31.400392081
 11
157.6096790869
 21
31.4649194539
  0
LINE
  8
0
 62
7
  6
CONTINUOUS
 10
159.4596793074
 20
31.4326557675
 11
159.575304528
 21
31.4649194539
  0
LINE
  8
0
 62
7
  6
CONTINUOUS
 10
159.4596793074
 20
31.5939741996
 11
159.228429528
 21
31.5294468267
  0
LINE
  8
0
 62
7
  6
CONTINUOUS
 10
155.1815540869
 20
30.7873819712
 11
154.8924916972
 21
30.7228545871
  0
LINE
  8
0
 62
7
  6
CONTINUOUS
 10
152.4643666972
 20
31.4649194539
 11
152.6956168074
 21
31.4971831403
  0
LINE
  8
0
 62
7
  6
CONTINUOUS
 10
152.6956168074
 20
31.626237886
 11
152.4643666972
 21
31.5939741996
  0
LINE
  8
0
 62
7
  6
CONTINUOUS
 10
150.2674918074
 20
31.4649194539
 11
150.498741835
 21
31.4971831403
  0
LINE
  8
0
 62
7
  6
CONTINUOUS
 10
156.7868565615
 20
35.0200293383
 11
157.4425942664
 21
35.0200293383
  0
LINE
  8
0
 62
7
  6
CONTINUOUS
 10
154.4299918074
 20
31.0777551716
 11
154.5456166972
 21
31.1100188581
  0
LINE
  8
0
 62
7
  6
CONTINUOUS
 10
154.4299918074
 20
31.2390736489
 11
154.1987416972
 21
31.1745462761
  0
LINE
  8
0
 62
7
  6
CONTINUOUS
 10
154.3143669177
 20
31.4326557675
 11
154.4299918074
 21
31.4649194539
  0
LINE
  8
0
 62
7
  6
CONTINUOUS
 10
150.9612418074
 20
30.6260635193
 11
151.1924917523
 21
30.6905909007
  0
LINE
  8
0
 62
7
  6
CONTINUOUS
 10
154.2565543074
 20
31.5939741996
 11
154.1409294177
 21
31.5617105132
  0
LINE
  8
0
 62
7
  6
CONTINUOUS
 10
150.2096793212
 20
31.5939741996
 11
150.0362418212
 21
31.5617105132
  0
LINE
  8
0
 62
7
  6
CONTINUOUS
 10
160.9671844304
 20
36.1675703219
 11
159.5737418074
 21
36.1675703219
  0
LINE
  8
0
 62
7
  6
CONTINUOUS
 10
157.6065286927
 20
36.1675703219
 11
157.1939573441
 21
36.1675703219
  0
LINE
  8
0
 62
7
  6
CONTINUOUS
 10
155.9671844304
 20
36.1675703219
 11
154.5737418074
 21
36.1675703219
  0
LINE
  8
0
 62
7
  6
CONTINUOUS
 10
154.245872955
 20
36.1675703219
 11
152.852430332
 21
36.1675703219
  0
LINE
  8
0
 62
7
  6
CONTINUOUS
 10
150.9671844304
 20
36.1675703219
 11
149.5737418074
 21
36.1675703219
  0
LINE
  8
0
 62
7
  6
CONTINUOUS
 10
150.1518667936
 20
31.4326557675
 11
150.2674918074
 21
31.4649194539
  0
CIRCLE
  8
0
 62
7
  6
CONTINUOUS
 10
160.2704631189
 20
38.5036358957
 40
2.0901639344
  0
ARC
  8
0
 62
7
  6
CONTINUOUS
 10
151.2130860697
 20
34.0364227809
 40
1.6393442623
 50
180.0
 51
270.0
  0
ARC
  8
0
 62
7
  6
CONTINUOUS
 10
157.6065286927
 20
34.5282260596
 40
1.6393442623
 50
0.0
 51
90.0
  0
ARC
  8
0
 62
7
  6
CONTINUOUS
 10
151.6256574183
 20
33.8724883547
 40
1.4754098361
 50
270.0
 51
326.2510114041
  0
ARC
  8
0
 62
7
  6
CONTINUOUS
 10
157.1939573441
 20
34.6921604858
 40
1.4754098361
 50
90.0
 51
146.2510114041
  0
ARC
  8
0
 62
7
  6
CONTINUOUS
 10
152.0327582009
 20
34.3642916334
 40
0.8196721311
 50
270.0
 51
360.0
  0
ARC
  8
0
 62
7
  6
CONTINUOUS
 10
156.7868565615
 20
34.2003572071
 40
0.8196721311
 50
90.0
 51
180.0
  0
ARC
  8
0
 62
7
  6
CONTINUOUS
 10
151.3770204959
 20
33.9544555678
 40
0.4098360656
 50
180.0
 51
270.0
  0
ARC
  8
0
 62
7
  6
CONTINUOUS
 10
157.4425942664
 20
34.6101932727
 40
0.4098360656
 50
0.0
 51
90.0
  0
SOLID
  8
0
 62
7
  6
CONTINUOUS
 10
156.279992028
 20
31.9488752009
 11
156.279992028
 21
32.1101936845
 12
156.5690540869
 22
31.9488752009
 13
156.5690540869
 23
32.1101936845
  0
SOLID
  8
0
 62
7
  6
CONTINUOUS
 10
150.5565542799
 20
31.6262382337
 11
150.9612418074
 21
31.5939740028
 12
150.2096793212
 22
31.5939740028
 13
150.2096793212
 23
31.5939740028
  0
SOLID
  8
0
 62
7
  6
CONTINUOUS
 10
150.0362418212
 20
31.5617111435
 11
150.2096793212
 21
31.5939740028
 12
150.9612418074
 22
31.5939740028
 13
150.9612418074
 23
31.5939740028
  0
SOLID
  8
0
 62
7
  6
CONTINUOUS
 10
150.9612418074
 20
31.5939740028
 11
151.1924917523
 21
31.5294468402
 12
150.0362418212
 22
31.5617111435
 13
150.0362418212
 23
31.5617111435
  0
SOLID
  8
0
 62
7
  6
CONTINUOUS
 10
149.8628043005
 20
31.49718259
 11
150.0362418212
 21
31.5617111435
 12
151.1924917523
 22
31.5294468402
 13
151.1924917523
 23
31.5294468402
  0
SOLID
  8
0
 62
7
  6
CONTINUOUS
 10
149.8628043005
 20
31.49718259
 11
151.1924917523
 21
31.5294468402
 12
150.498741835
 22
31.49718259
 13
150.498741835
 23
31.49718259
  0
SOLID
  8
0
 62
7
  6
CONTINUOUS
 10
150.498741835
 20
31.49718259
 11
151.1924917523
 21
31.5294468402
 12
150.9034292799
 22
31.4649197501
 13
150.9034292799
 23
31.4649197501
  0
SOLID
  8
0
 62
7
  6
CONTINUOUS
 10
151.1924917523
 20
31.5294468402
 11
151.3659292523
 21
31.4326554468
 12
150.9034292799
 22
31.4649197501
 13
150.9034292799
 23
31.4649197501
  0
SOLID
  8
0
 62
7
  6
CONTINUOUS
 10
151.0768668626
 20
31.4003926599
 11
150.9034292799
 21
31.4649197501
 12
151.3659292523
 22
31.4326554468
 13
151.3659292523
 23
31.4326554468
  0
SOLID
  8
0
 62
7
  6
CONTINUOUS
 10
151.0768668626
 20
31.4003926599
 11
151.3659292523
 21
31.4326554468
 12
151.1346793074
 22
31.3036013776
 13
151.1346793074
 23
31.3036013776
  0
SOLID
  8
0
 62
7
  6
CONTINUOUS
 10
151.3659292523
 20
31.4326554468
 11
151.4237418626
 21
31.3036013776
 12
151.1346793074
 22
31.3036013776
 13
151.1346793074
 23
31.3036013776
  0
SOLID
  8
0
 62
7
  6
CONTINUOUS
 10
152.4643666972
 20
31.5939739754
 11
152.6956168074
 21
31.6262382787
 12
152.9268669177
 22
31.6262382787
 13
152.9268669177
 23
31.6262382787
  0
SOLID
  8
0
 62
7
  6
CONTINUOUS
 10
152.9268669177
 20
31.6262382787
 11
153.1003044177
 21
31.5939739754
 12
152.4643666972
 22
31.5939739754
 13
152.4643666972
 23
31.5939739754
  0
SOLID
  8
0
 62
7
  6
CONTINUOUS
 10
152.2909293626
 20
31.5294468852
 11
152.4643666972
 21
31.5939739754
 12
153.1003044177
 22
31.5939739754
 13
153.1003044177
 23
31.5939739754
  0
SOLID
  8
0
 62
7
  6
CONTINUOUS
 10
153.1003044177
 20
31.5939739754
 11
153.2737419177
 21
31.5294468852
 12
152.2909293626
 22
31.5294468852
 13
152.2909293626
 23
31.5294468852
  0
SOLID
  8
0
 62
7
  6
CONTINUOUS
 10
153.2737419177
 20
31.5294468852
 11
152.6956168074
 21
31.4971825369
 12
152.2909293626
 22
31.5294468852
 13
152.2909293626
 23
31.5294468852
  0
SOLID
  8
0
 62
7
  6
CONTINUOUS
 10
152.1753043074
 20
31.4649197951
 11
152.2909293626
 21
31.5294468852
 12
152.6956168074
 22
31.4971825369
 13
152.6956168074
 23
31.4971825369
  0
SOLID
  8
0
 62
7
  6
CONTINUOUS
 10
152.6956168074
 20
31.4971825369
 11
152.4643666972
 21
31.4649197951
 12
152.1753043074
 22
31.4649197951
 13
152.1753043074
 23
31.4649197951
  0
SOLID
  8
0
 62
7
  6
CONTINUOUS
 10
152.6956168074
 20
31.4971825369
 11
153.2737419177
 21
31.5294468852
 12
152.9268669177
 22
31.4649197951
 13
152.9268669177
 23
31.4649197951
  0
SOLID
  8
0
 62
7
  6
CONTINUOUS
 10
153.2737419177
 20
31.5294468852
 11
153.3893668074
 21
31.4649197951
 12
152.9268669177
 22
31.4649197951
 13
152.9268669177
 23
31.4649197951
  0
SOLID
  8
0
 62
7
  6
CONTINUOUS
 10
153.0424918074
 20
31.4326554468
 11
152.9268669177
 21
31.4649197951
 12
153.3893668074
 22
31.4649197951
 13
153.3893668074
 23
31.4649197951
  0
SOLID
  8
0
 62
7
  6
CONTINUOUS
 10
153.3893668074
 20
31.4649197951
 11
153.4471794177
 21
31.4003927049
 12
153.0424918074
 22
31.4326554468
 13
153.0424918074
 23
31.4326554468
  0
SOLID
  8
0
 62
7
  6
CONTINUOUS
 10
153.1581166972
 20
31.3681283566
 11
153.0424918074
 21
31.4326554468
 12
153.4471794177
 22
31.4003927049
 13
153.4471794177
 23
31.4003927049
  0
SOLID
  8
0
 62
7
  6
CONTINUOUS
 10
153.1581166972
 20
31.3681283566
 11
153.4471794177
 21
31.4003927049
 12
153.2159293074
 22
31.2390742213
 13
153.2159293074
 23
31.2390742213
  0
SOLID
  8
0
 62
7
  6
CONTINUOUS
 10
153.4471794177
 20
31.4003927049
 11
153.5049916972
 21
31.2390742213
 12
153.2159293074
 22
31.2390742213
 13
153.2159293074
 23
31.2390742213
  0
SOLID
  8
0
 62
7
  6
CONTINUOUS
 10
152.4643666972
 20
31.4649197951
 11
152.2909293626
 21
31.4003927049
 12
152.1753043074
 22
31.4649197951
 13
152.1753043074
 23
31.4649197951
  0
SOLID
  8
0
 62
7
  6
CONTINUOUS
 10
152.2909293626
 20
31.4003927049
 11
152.1753043074
 21
31.3358640533
 12
152.1753043074
 22
31.4649197951
 13
152.1753043074
 23
31.4649197951
  0
SOLID
  8
0
 62
7
  6
CONTINUOUS
 10
152.1753043074
 20
31.3358640533
 11
151.8862417523
 21
30.5938002869
 12
152.1753043074
 22
31.4649197951
 13
152.1753043074
 23
31.4649197951
  0
SOLID
  8
0
 62
7
  6
CONTINUOUS
 10
152.1753043074
 20
31.4649197951
 11
151.8862417523
 21
30.5938002869
 12
152.1753043074
 22
32.1101937295
 13
152.1753043074
 23
32.1101937295
  0
SOLID
  8
0
 62
7
  6
CONTINUOUS
 10
151.8862417523
 20
30.5938002869
 11
151.8862417523
 21
32.1101937295
 12
152.1753043074
 22
32.1101937295
 13
152.1753043074
 23
32.1101937295
  0
SOLID
  8
0
 62
7
  6
CONTINUOUS
 10
152.1753043074
 20
31.3358640533
 11
152.1753043074
 21
30.5938002869
 12
151.8862417523
 22
30.5938002869
 13
151.8862417523
 23
30.5938002869
  0
SOLID
  8
0
 62
7
  6
CONTINUOUS
 10
153.2159293074
 20
30.5938002869
 11
153.2159293074
 21
31.2390742213
 12
153.5049916972
 22
31.2390742213
 13
153.5049916972
 23
31.2390742213
  0
SOLID
  8
0
 62
7
  6
CONTINUOUS
 10
153.5049916972
 20
31.2390742213
 11
153.5049916972
 21
30.5938002869
 12
153.2159293074
 22
30.5938002869
 13
153.2159293074
 23
30.5938002869
  0
SOLID
  8
0
 62
7
  6
CONTINUOUS
 10
154.2565543074
 20
31.5939738288
 11
154.6612419177
 21
31.6262385959
 12
155.0081169177
 22
31.6262385959
 13
155.0081169177
 23
31.6262385959
  0
SOLID
  8
0
 62
7
  6
CONTINUOUS
 10
155.0081169177
 20
31.6262385959
 11
155.3549915869
 21
31.5939738288
 12
154.2565543074
 22
31.5939738288
 13
154.2565543074
 23
31.5939738288
  0
SOLID
  8
0
 62
7
  6
CONTINUOUS
 10
154.1409294177
 20
31.5617111435
 11
154.2565543074
 21
31.5939738288
 12
155.3549915869
 22
31.5939738288
 13
155.3549915869
 23
31.5939738288
  0
SOLID
  8
0
 62
7
  6
CONTINUOUS
 10
155.3549915869
 20
31.5939738288
 11
155.5284290869
 21
31.5294468402
 12
154.1409294177
 22
31.5617111435
 13
154.1409294177
 23
31.5617111435
  0
SOLID
  8
0
 62
7
  6
CONTINUOUS
 10
154.0253041972
 20
31.4971826249
 11
154.1409294177
 21
31.5617111435
 12
155.5284290869
 22
31.5294468402
 13
155.5284290869
 23
31.5294468402
  0
SOLID
  8
0
 62
7
  6
CONTINUOUS
 10
154.0253041972
 20
31.4971826249
 11
155.5284290869
 21
31.5294468402
 12
154.6612419177
 22
31.4971826249
 13
154.6612419177
 23
31.4971826249
  0
SOLID
  8
0
 62
7
  6
CONTINUOUS
 10
154.6612419177
 20
31.4971826249
 11
155.5284290869
 21
31.5294468402
 12
155.0081169177
 22
31.4971826249
 13
155.0081169177
 23
31.4971826249
  0
SOLID
  8
0
 62
7
  6
CONTINUOUS
 10
155.0081169177
 20
31.4971826249
 11
155.5284290869
 21
31.5294468402
 12
155.239367028
 22
31.4649194065
 13
155.239367028
 23
31.4649194065
  0
SOLID
  8
0
 62
7
  6
CONTINUOUS
 10
155.5284290869
 20
31.5294468402
 11
155.6440543074
 21
31.4649194065
 12
155.239367028
 22
31.4649194065
 13
155.239367028
 23
31.4649194065
  0
SOLID
  8
0
 62
7
  6
CONTINUOUS
 10
153.9674919177
 20
31.4326554138
 11
154.0253041972
 21
31.4971826249
 12
154.6612419177
 22
31.4971826249
 13
154.6612419177
 23
31.4971826249
  0
SOLID
  8
0
 62
7
  6
CONTINUOUS
 10
155.3549915869
 20
31.4326554138
 11
155.239367028
 21
31.4649194065
 12
155.6440543074
 22
31.4649194065
 13
155.6440543074
 23
31.4649194065
  0
SOLID
  8
0
 62
7
  6
CONTINUOUS
 10
155.3549915869
 20
31.4326554138
 11
155.6440543074
 21
31.4649194065
 12
155.412804528
 22
31.3681282026
 13
155.412804528
 23
31.3681282026
  0
SOLID
  8
0
 62
7
  6
CONTINUOUS
 10
155.6440543074
 20
31.4649194065
 11
155.7018665869
 21
31.3681282026
 12
155.412804528
 22
31.3681282026
 13
155.412804528
 23
31.3681282026
  0
SOLID
  8
0
 62
7
  6
CONTINUOUS
 10
155.412804528
 20
31.2713369632
 11
155.412804528
 21
31.3681282026
 12
155.7018665869
 22
31.3681282026
 13
155.7018665869
 23
31.3681282026
  0
SOLID
  8
0
 62
7
  6
CONTINUOUS
 10
155.412804528
 20
31.2713369632
 11
155.7018665869
 21
31.3681282026
 12
155.412804528
 22
31.1422827828
 13
155.412804528
 23
31.1422827828
  0
SOLID
  8
0
 62
7
  6
CONTINUOUS
 10
155.412804528
 20
31.1422827828
 11
155.7018665869
 21
31.3681282026
 12
155.412804528
 22
30.9487004259
 13
155.412804528
 23
30.9487004259
  0
SOLID
  8
0
 62
7
  6
CONTINUOUS
 10
155.7018665869
 20
31.3681282026
 11
155.7018665869
 21
30.8519086025
 12
155.412804528
 22
30.9487004259
 13
155.412804528
 23
30.9487004259
  0
SOLID
  8
0
 62
7
  6
CONTINUOUS
 10
157.6096790869
 20
31.5939736268
 11
157.840929528
 21
31.6262383465
 12
158.0721793074
 22
31.6262383465
 13
158.0721793074
 23
31.6262383465
  0
SOLID
  8
0
 62
7
  6
CONTINUOUS
 10
158.0721793074
 20
31.6262383465
 11
158.2456168074
 21
31.5939736268
 12
157.6096790869
 22
31.5939736268
 13
157.6096790869
 23
31.5939736268
  0
SOLID
  8
0
 62
7
  6
CONTINUOUS
 10
157.4362415869
 20
31.5294472848
 11
157.6096790869
 21
31.5939736268
 12
158.2456168074
 22
31.5939736268
 13
158.2456168074
 23
31.5939736268
  0
SOLID
  8
0
 62
7
  6
CONTINUOUS
 10
158.2456168074
 20
31.5939736268
 11
158.4190543074
 21
31.5294472848
 12
157.4362415869
 22
31.5294472848
 13
157.4362415869
 23
31.5294472848
  0
SOLID
  8
0
 62
7
  6
CONTINUOUS
 10
158.4190543074
 20
31.5294472848
 11
157.840929528
 21
31.4971825369
 12
157.4362415869
 22
31.5294472848
 13
157.4362415869
 23
31.5294472848
  0
SOLID
  8
0
 62
7
  6
CONTINUOUS
 10
157.320617028
 20
31.4649199103
 11
157.4362415869
 21
31.5294472848
 12
157.840929528
 22
31.4971825369
 13
157.840929528
 23
31.4971825369
  0
SOLID
  8
0
 62
7
  6
CONTINUOUS
 10
157.840929528
 20
31.4971825369
 11
157.6096790869
 21
31.4649199103
 12
157.320617028
 22
31.4649199103
 13
157.320617028
 23
31.4649199103
  0
SOLID
  8
0
 62
7
  6
CONTINUOUS
 10
157.840929528
 20
31.4971825369
 11
158.4190543074
 21
31.5294472848
 12
158.0721793074
 22
31.4649199103
 13
158.0721793074
 23
31.4649199103
  0
SOLID
  8
0
 62
7
  6
CONTINUOUS
 10
158.4190543074
 20
31.5294472848
 11
158.534679528
 21
31.4649199103
 12
158.0721793074
 22
31.4649199103
 13
158.0721793074
 23
31.4649199103
  0
SOLID
  8
0
 62
7
  6
CONTINUOUS
 10
158.187804528
 20
31.4326554468
 11
158.0721793074
 21
31.4649199103
 12
158.534679528
 22
31.4649199103
 13
158.534679528
 23
31.4649199103
  0
SOLID
  8
0
 62
7
  6
CONTINUOUS
 10
158.187804528
 20
31.4326554468
 11
158.534679528
 21
31.4649199103
 12
158.3034290869
 22
31.3681288486
 13
158.3034290869
 23
31.3681288486
  0
SOLID
  8
0
 62
7
  6
CONTINUOUS
 10
158.534679528
 20
31.4649199103
 11
158.5924918074
 21
31.3681288486
 12
158.3034290869
 22
31.3681288486
 13
158.3034290869
 23
31.3681288486
  0
SOLID
  8
0
 62
7
  6
CONTINUOUS
 10
158.361242028
 20
31.2068093799
 11
158.3034290869
 21
31.3681288486
 12
158.5924918074
 22
31.3681288486
 13
158.5924918074
 23
31.3681288486
  0
SOLID
  8
0
 62
7
  6
CONTINUOUS
 10
158.5924918074
 20
31.3681288486
 11
158.6503040869
 21
31.2068093799
 12
158.361242028
 22
31.2068093799
 13
158.361242028
 23
31.2068093799
  0
SOLID
  8
0
 62
7
  6
CONTINUOUS
 10
157.6096790869
 20
31.4649199103
 11
157.4362415869
 21
31.4003926599
 12
157.320617028
 22
31.4649199103
 13
157.320617028
 23
31.4649199103
  0
SOLID
  8
0
 62
7
  6
CONTINUOUS
 10
157.4362415869
 20
31.4003926599
 11
157.320617028
 21
31.3358640533
 12
157.320617028
 22
31.4649199103
 13
157.320617028
 23
31.4649199103
  0
SOLID
  8
0
 62
7
  6
CONTINUOUS
 10
157.320617028
 20
31.3358640533
 11
157.0315543074
 21
30.5938003547
 12
157.320617028
 22
31.4649199103
 13
157.320617028
 23
31.4649199103
  0
SOLID
  8
0
 62
7
  6
CONTINUOUS
 10
157.320617028
 20
31.4649199103
 11
157.0315543074
 21
30.5938003547
 12
157.320617028
 22
31.6262383465
 13
157.320617028
 23
31.6262383465
  0
SOLID
  8
0
 62
7
  6
CONTINUOUS
 10
157.0315543074
 20
30.5938003547
 11
157.0315543074
 21
31.6262383465
 12
157.320617028
 22
31.6262383465
 13
157.320617028
 23
31.6262383465
  0
SOLID
  8
0
 62
7
  6
CONTINUOUS
 10
157.320617028
 20
31.3358640533
 11
157.320617028
 21
30.5938003547
 12
157.0315543074
 22
30.5938003547
 13
157.0315543074
 23
30.5938003547
  0
SOLID
  8
0
 62
7
  6
CONTINUOUS
 10
158.361242028
 20
30.5938003547
 11
158.361242028
 21
31.2068093799
 12
158.6503040869
 22
31.2068093799
 13
158.6503040869
 23
31.2068093799
  0
SOLID
  8
0
 62
7
  6
CONTINUOUS
 10
158.6503040869
 20
31.2068093799
 11
158.6503040869
 21
30.5938003547
 12
158.361242028
 22
30.5938003547
 13
158.361242028
 23
30.5938003547
  0
SOLID
  8
0
 62
7
  6
CONTINUOUS
 10
159.4596793074
 20
31.5939739474
 11
159.8065543074
 21
31.6262381969
 12
160.1534293074
 22
31.6262381969
 13
160.1534293074
 23
31.6262381969
  0
SOLID
  8
0
 62
7
  6
CONTINUOUS
 10
160.1534293074
 20
31.6262381969
 11
160.5003043074
 21
31.5939739474
 12
159.4596793074
 22
31.5939739474
 13
159.4596793074
 23
31.5939739474
  0
SOLID
  8
0
 62
7
  6
CONTINUOUS
 10
159.228429528
 20
31.5294468402
 11
159.4596793074
 21
31.5939739474
 12
160.5003043074
 22
31.5939739474
 13
160.5003043074
 23
31.5939739474
  0
SOLID
  8
0
 62
7
  6
CONTINUOUS
 10
159.228429528
 20
31.5294468402
 11
160.5003043074
 21
31.5939739304
 12
160.6737418074
 22
31.5617111435
 13
160.6737418074
 23
31.5617111435
  0
SOLID
  8
0
 62
7
  6
CONTINUOUS
 10
159.228429528
 20
31.5294468402
 11
160.6737418074
 21
31.5617111435
 12
159.8065543074
 22
31.4971825592
 13
159.8065543074
 23
31.4971825592
  0
SOLID
  8
0
 62
7
  6
CONTINUOUS
 10
159.8065543074
 20
31.4971825592
 11
160.6737418074
 21
31.5617111435
 12
160.1534293074
 22
31.4971825592
 13
160.1534293074
 23
31.4971825592
  0
SOLID
  8
0
 62
7
  6
CONTINUOUS
 10
160.6737418074
 20
31.5617111435
 11
160.8471793074
 21
31.4971825592
 12
160.1534293074
 22
31.4971825592
 13
160.1534293074
 23
31.4971825592
  0
SOLID
  8
0
 62
7
  6
CONTINUOUS
 10
160.5003043074
 20
31.4649197501
 11
160.1534293074
 21
31.4971825592
 12
160.8471793074
 22
31.4971825592
 13
160.8471793074
 23
31.4971825592
  0
SOLID
  8
0
 62
7
  6
CONTINUOUS
 10
159.1128043074
 20
31.4326555427
 11
159.228429528
 21
31.5294468402
 12
159.8065543074
 22
31.4971825592
 13
159.8065543074
 23
31.4971825592
  0
SOLID
  8
0
 62
7
  6
CONTINUOUS
 10
160.5003043074
 20
31.4649197501
 11
160.8471793074
 21
31.4971825592
 12
160.615929528
 22
31.4326555427
 13
160.615929528
 23
31.4326555427
  0
SOLID
  8
0
 62
7
  6
CONTINUOUS
 10
160.615929528
 20
31.4326555427
 11
160.8471793074
 21
31.4971825592
 12
160.6737418074
 22
31.3681283005
 13
160.6737418074
 23
31.3681283005
  0
SOLID
  8
0
 62
7
  6
CONTINUOUS
 10
160.8471793074
 20
31.4971825592
 11
160.9628038663
 21
31.3681283005
 12
160.6737418074
 22
31.3681283005
 13
160.6737418074
 23
31.3681283005
  0
SOLID
  8
0
 62
7
  6
CONTINUOUS
 10
150.2674918074
 20
31.4649197501
 11
149.7471793074
 21
31.4326554237
 12
150.498741835
 22
31.4971824493
 13
150.498741835
 23
31.4971824493
  0
SOLID
  8
0
 62
7
  6
CONTINUOUS
 10
149.7471793074
 20
31.4326554237
 11
149.8628043005
 21
31.4971824493
 12
150.498741835
 22
31.4971824493
 13
150.498741835
 23
31.4971824493
  0
SOLID
  8
0
 62
7
  6
CONTINUOUS
 10
150.2674918074
 20
31.4649197501
 11
150.1518667936
 21
31.4326554237
 12
149.7471793074
 22
31.4326554237
 13
149.7471793074
 23
31.4326554237
  0
SOLID
  8
0
 62
7
  6
CONTINUOUS
 10
149.6315543091
 20
31.3036012664
 11
149.7471793074
 21
31.4326554237
 12
150.1518667936
 22
31.4326554237
 13
150.1518667936
 23
31.4326554237
  0
SOLID
  8
0
 62
7
  6
CONTINUOUS
 10
153.9674919177
 20
31.4326554237
 11
154.6612419177
 21
31.4971825369
 12
154.4299918074
 22
31.4649197501
 13
154.4299918074
 23
31.4649197501
  0
SOLID
  8
0
 62
7
  6
CONTINUOUS
 10
154.4299918074
 20
31.4649197501
 11
154.3143669177
 21
31.4326554237
 12
153.9674919177
 22
31.4326554237
 13
153.9674919177
 23
31.4326554237
  0
SOLID
  8
0
 62
7
  6
CONTINUOUS
 10
153.9674919177
 20
31.3681283335
 11
153.9674919177
 21
31.4326554237
 12
154.3143669177
 22
31.4326554237
 13
154.3143669177
 23
31.4326554237
  0
SOLID
  8
0
 62
7
  6
CONTINUOUS
 10
154.3143669177
 20
31.4326554237
 11
154.2565543074
 21
31.3681283335
 12
153.9674919177
 22
31.3681283335
 13
153.9674919177
 23
31.3681283335
  0
SOLID
  8
0
 62
7
  6
CONTINUOUS
 10
159.1128043074
 20
31.4326555528
 11
159.8065543074
 21
31.4971825369
 12
159.575304528
 22
31.4649197501
 13
159.575304528
 23
31.4649197501
  0
SOLID
  8
0
 62
7
  6
CONTINUOUS
 10
159.575304528
 20
31.4649197501
 11
159.4596793074
 21
31.4326555528
 12
159.1128043074
 22
31.4326555528
 13
159.1128043074
 23
31.4326555528
  0
SOLID
  8
0
 62
7
  6
CONTINUOUS
 10
159.1128043074
 20
31.3681284626
 11
159.1128043074
 21
31.4326555528
 12
159.4596793074
 22
31.4326555528
 13
159.4596793074
 23
31.4326555528
  0
SOLID
  8
0
 62
7
  6
CONTINUOUS
 10
159.4596793074
 20
31.4326555528
 11
159.401867028
 21
31.3681284626
 12
159.1128043074
 22
31.3681284626
 13
159.1128043074
 23
31.3681284626
  0
SOLID
  8
0
 62
7
  6
CONTINUOUS
 10
159.228429528
 20
31.2390741763
 11
159.1128043074
 21
31.3681284626
 12
159.401867028
 22
31.3681284626
 13
159.401867028
 23
31.3681284626
  0
SOLID
  8
0
 62
7
  6
CONTINUOUS
 10
149.6315543091
 20
31.3036012664
 11
150.1518667936
 21
31.4326554468
 12
149.9784292936
 22
31.3358640533
 13
149.9784292936
 23
31.3358640533
  0
SOLID
  8
0
 62
7
  6
CONTINUOUS
 10
149.9784292936
 20
31.3358640533
 11
149.9206168074
 21
31.2713369632
 12
149.6315543091
 22
31.3036012664
 13
149.6315543091
 23
31.3036012664
  0
SOLID
  8
0
 62
7
  6
CONTINUOUS
 10
149.5737418074
 20
31.1100184796
 11
149.6315543091
 21
31.3036012664
 12
149.9206168074
 22
31.2713369632
 13
149.9206168074
 23
31.2713369632
  0
SOLID
  8
0
 62
7
  6
CONTINUOUS
 10
154.4299918074
 20
31.2390741763
 11
154.7768668074
 21
31.271336924
 12
155.412804528
 22
31.271336924
 13
155.412804528
 23
31.271336924
  0
SOLID
  8
0
 62
7
  6
CONTINUOUS
 10
154.4299918074
 20
31.2390741763
 11
155.412804528
 21
31.271336924
 12
154.1987416972
 22
31.1745462761
 13
154.1987416972
 23
31.1745462761
  0
SOLID
  8
0
 62
7
  6
CONTINUOUS
 10
154.1987416972
 20
31.1745462761
 11
155.412804528
 21
31.271336924
 12
154.7768668074
 22
31.1422827436
 13
154.7768668074
 23
31.1422827436
  0
SOLID
  8
0
 62
7
  6
CONTINUOUS
 10
155.412804528
 20
31.271336924
 11
155.412804528
 21
31.1422827436
 12
154.7768668074
 22
31.1422827436
 13
154.7768668074
 23
31.1422827436
  0
SOLID
  8
0
 62
7
  6
CONTINUOUS
 10
159.228429528
 20
31.2390745501
 11
159.401867028
 21
31.3681283566
 12
159.4596793074
 22
31.3036012664
 13
159.4596793074
 23
31.3036012664
  0
SOLID
  8
0
 62
7
  6
CONTINUOUS
 10
159.4596793074
 20
31.3036012664
 11
159.6331168074
 21
31.2390745501
 12
159.228429528
 22
31.2390745501
 13
159.228429528
 23
31.2390745501
  0
SOLID
  8
0
 62
7
  6
CONTINUOUS
 10
159.4596793074
 20
31.1422827828
 11
159.228429528
 21
31.2390745501
 12
159.6331168074
 22
31.2390745501
 13
159.6331168074
 23
31.2390745501
  0
SOLID
  8
0
 62
7
  6
CONTINUOUS
 10
159.6331168074
 20
31.2390745501
 11
160.615929528
 21
31.0777556927
 12
159.4596793074
 22
31.1422827828
 13
159.4596793074
 23
31.1422827828
  0
SOLID
  8
0
 62
7
  6
CONTINUOUS
 10
160.442492028
 20
30.9809646623
 11
159.4596793074
 21
31.1422827828
 12
160.615929528
 22
31.0777556927
 13
160.615929528
 23
31.0777556927
  0
SOLID
  8
0
 62
7
  6
CONTINUOUS
 10
160.615929528
 20
31.0777556927
 11
160.8471793074
 21
30.9809646623
 12
160.442492028
 22
30.9809646623
 13
160.442492028
 23
30.9809646623
  0
SOLID
  8
0
 62
7
  6
CONTINUOUS
 10
160.615929528
 20
30.9164372091
 11
160.442492028
 21
30.9809646623
 12
160.8471793074
 22
30.9809646623
 13
160.8471793074
 23
30.9809646623
  0
SOLID
  8
0
 62
7
  6
CONTINUOUS
 10
160.615929528
 20
30.9164372091
 11
160.8471793074
 21
30.9809646623
 12
160.6737418074
 22
30.8519089441
 13
160.6737418074
 23
30.8519089441
  0
SOLID
  8
0
 62
7
  6
CONTINUOUS
 10
160.8471793074
 20
30.9809646623
 11
160.9628038663
 21
30.8519089441
 12
160.6737418074
 22
30.8519089441
 13
160.6737418074
 23
30.8519089441
  0
SOLID
  8
0
 62
7
  6
CONTINUOUS
 10
160.615929528
 20
30.7873818593
 11
160.6737418074
 21
30.8519089441
 12
160.9628038663
 22
30.8519089441
 13
160.9628038663
 23
30.8519089441
  0
SOLID
  8
0
 62
7
  6
CONTINUOUS
 10
160.9628038663
 20
30.8519089441
 11
160.9628038663
 21
30.7873818593
 12
160.615929528
 22
30.7873818593
 13
160.615929528
 23
30.7873818593
  0
SOLID
  8
0
 62
7
  6
CONTINUOUS
 10
160.5003043074
 20
30.7551187255
 11
160.615929528
 21
30.7873818593
 12
160.9628038663
 22
30.7873818593
 13
160.9628038663
 23
30.7873818593
  0
SOLID
  8
0
 62
7
  6
CONTINUOUS
 10
160.5003043074
 20
30.7551187255
 11
160.9628038663
 21
30.7873818593
 12
160.269054528
 22
30.7228547745
 13
160.269054528
 23
30.7228547745
  0
SOLID
  8
0
 62
7
  6
CONTINUOUS
 10
160.9628038663
 20
30.7873818593
 11
160.8471793074
 21
30.6905916353
 12
160.269054528
 22
30.7228547745
 13
160.269054528
 23
30.7228547745
  0
SOLID
  8
0
 62
7
  6
CONTINUOUS
 10
160.8471793074
 20
30.6905916353
 11
159.401867028
 21
30.658327332
 12
160.269054528
 22
30.7228547745
 13
160.269054528
 23
30.7228547745
  0
SOLID
  8
0
 62
7
  6
CONTINUOUS
 10
160.269054528
 20
30.7228547745
 11
159.401867028
 21
30.658327332
 12
159.922179528
 22
30.7228547745
 13
159.922179528
 23
30.7228547745
  0
SOLID
  8
0
 62
7
  6
CONTINUOUS
 10
159.401867028
 20
30.658327332
 11
159.228429528
 21
30.7228547745
 12
159.922179528
 22
30.7228547745
 13
159.922179528
 23
30.7228547745
  0
SOLID
  8
0
 62
7
  6
CONTINUOUS
 10
159.401867028
 20
30.658327332
 11
160.8471793074
 21
30.6905916353
 12
159.575304528
 22
30.6260629858
 13
159.575304528
 23
30.6260629858
  0
SOLID
  8
0
 62
7
  6
CONTINUOUS
 10
160.8471793074
 20
30.6905916353
 11
160.615929528
 21
30.6260629858
 12
159.575304528
 22
30.6260629858
 13
159.575304528
 23
30.6260629858
  0
SOLID
  8
0
 62
7
  6
CONTINUOUS
 10
159.922179528
 20
30.5938006049
 11
159.575304528
 21
30.6260629858
 12
160.615929528
 22
30.6260629858
 13
160.615929528
 23
30.6260629858
  0
SOLID
  8
0
 62
7
  6
CONTINUOUS
 10
160.615929528
 20
30.6260629858
 11
160.269054528
 21
30.5938006049
 12
159.922179528
 22
30.5938006049
 13
159.922179528
 23
30.5938006049
  0
SOLID
  8
0
 62
7
  6
CONTINUOUS
 10
149.5737418074
 20
31.1100184796
 11
149.9206168074
 21
31.2713369632
 12
149.8628043005
 22
31.1422827828
 13
149.8628043005
 23
31.1422827828
  0
SOLID
  8
0
 62
7
  6
CONTINUOUS
 10
149.8628043005
 20
31.1422827828
 11
149.8628043005
 21
31.0454914852
 12
149.5737418074
 22
31.1100184796
 13
149.5737418074
 23
31.1100184796
  0
SOLID
  8
0
 62
7
  6
CONTINUOUS
 10
149.6315543091
 20
30.9164372091
 11
149.5737418074
 21
31.1100184796
 12
149.8628043005
 22
31.0454914852
 13
149.8628043005
 23
31.0454914852
  0
SOLID
  8
0
 62
7
  6
CONTINUOUS
 10
149.8628043005
 20
31.0454914852
 11
149.9784292936
 21
30.8841729058
 12
149.6315543091
 22
30.9164372091
 13
149.6315543091
 23
30.9164372091
  0
SOLID
  8
0
 62
7
  6
CONTINUOUS
 10
149.7471793074
 20
30.7873813202
 11
149.6315543091
 21
30.9164372091
 12
149.9784292936
 22
30.8841729058
 13
149.9784292936
 23
30.8841729058
  0
SOLID
  8
0
 62
7
  6
CONTINUOUS
 10
149.9784292936
 20
30.8841729058
 11
150.1518667936
 21
30.7873813202
 12
149.7471793074
 22
30.7873813202
 13
149.7471793074
 23
30.7873813202
  0
SOLID
  8
0
 62
7
  6
CONTINUOUS
 10
149.8628043005
 20
30.7228547004
 11
149.7471793074
 21
30.7873813202
 12
150.1518667936
 22
30.7873813202
 13
150.1518667936
 23
30.7873813202
  0
SOLID
  8
0
 62
7
  6
CONTINUOUS
 10
150.1518667936
 20
30.7873813202
 11
150.498741835
 21
30.7228547004
 12
149.8628043005
 22
30.7228547004
 13
149.8628043005
 23
30.7228547004
  0
SOLID
  8
0
 62
7
  6
CONTINUOUS
 10
150.0362418212
 20
30.658327332
 11
149.8628043005
 21
30.7228547004
 12
150.498741835
 22
30.7228547004
 13
150.498741835
 23
30.7228547004
  0
SOLID
  8
0
 62
7
  6
CONTINUOUS
 10
154.0831168074
 20
31.1100184386
 11
154.1987416972
 21
31.1745462761
 12
154.7768668074
 22
31.1422827828
 13
154.7768668074
 23
31.1422827828
  0
SOLID
  8
0
 62
7
  6
CONTINUOUS
 10
154.7768668074
 20
31.1422827828
 11
154.5456166972
 21
31.1100184386
 12
154.0831168074
 22
31.1100184386
 13
154.0831168074
 23
31.1100184386
  0
SOLID
  8
0
 62
7
  6
CONTINUOUS
 10
153.9674919177
 20
30.9809642992
 11
154.0831168074
 21
31.1100184386
 12
154.5456166972
 22
31.1100184386
 13
154.5456166972
 23
31.1100184386
  0
SOLID
  8
0
 62
7
  6
CONTINUOUS
 10
154.3143669177
 20
31.0132277988
 11
153.9674919177
 21
30.9809642992
 12
154.4299918074
 22
31.0777556927
 13
154.4299918074
 23
31.0777556927
  0
SOLID
  8
0
 62
7
  6
CONTINUOUS
 10
153.9674919177
 20
30.9809642992
 11
154.5456166972
 21
31.1100184796
 12
154.4299918074
 22
31.0777556927
 13
154.4299918074
 23
31.0777556927
  0
SOLID
  8
0
 62
7
  6
CONTINUOUS
 10
154.3143669177
 20
31.0132277988
 11
154.2565543074
 21
30.9164372091
 12
153.9674919177
 22
30.9809642992
 13
153.9674919177
 23
30.9809642992
  0
SOLID
  8
0
 62
7
  6
CONTINUOUS
 10
153.9674919177
 20
30.8841729058
 11
153.9674919177
 21
30.9809642992
 12
154.2565543074
 22
30.9164372091
 13
154.2565543074
 23
30.9164372091
  0
SOLID
  8
0
 62
7
  6
CONTINUOUS
 10
154.2565543074
 20
30.9164372091
 11
154.2565543074
 21
30.8519086025
 12
153.9674919177
 22
30.8841729058
 13
153.9674919177
 23
30.8841729058
  0
SOLID
  8
0
 62
7
  6
CONTINUOUS
 10
154.0253041972
 20
30.7551187255
 11
153.9674919177
 21
30.8841729058
 12
154.2565543074
 22
30.8519086025
 13
154.2565543074
 23
30.8519086025
  0
SOLID
  8
0
 62
7
  6
CONTINUOUS
 10
155.412804528
 20
30.9487004259
 11
155.7018665869
 21
30.8519086025
 12
155.3549915869
 22
30.8841729058
 13
155.3549915869
 23
30.8841729058
  0
SOLID
  8
0
 62
7
  6
CONTINUOUS
 10
155.1815540869
 20
30.7873815123
 11
155.3549915869
 21
30.8841729058
 12
155.7018665869
 22
30.8519086025
 13
155.7018665869
 23
30.8519086025
  0
SOLID
  8
0
 62
7
  6
CONTINUOUS
 10
155.1815540869
 20
30.7873815123
 11
155.7018665869
 21
30.8519086025
 12
155.412804528
 22
30.7551187255
 13
155.412804528
 23
30.7551187255
  0
SOLID
  8
0
 62
7
  6
CONTINUOUS
 10
155.7018665869
 20
30.8519086025
 11
155.759679528
 21
30.6905916353
 12
155.412804528
 22
30.7551187255
 13
155.412804528
 23
30.7551187255
  0
SOLID
  8
0
 62
7
  6
CONTINUOUS
 10
155.4706168074
 20
30.658327332
 11
155.412804528
 21
30.7551187255
 12
155.759679528
 22
30.6905916353
 13
155.759679528
 23
30.6905916353
  0
SOLID
  8
0
 62
7
  6
CONTINUOUS
 10
155.4706168074
 20
30.658327332
 11
155.759679528
 21
30.6905916353
 12
155.5284290869
 22
30.5938002079
 13
155.5284290869
 23
30.5938002079
  0
SOLID
  8
0
 62
7
  6
CONTINUOUS
 10
155.759679528
 20
30.6905916353
 11
155.8174918074
 21
30.5938002079
 12
155.5284290869
 22
30.5938002079
 13
155.5284290869
 23
30.5938002079
  0
SOLID
  8
0
 62
7
  6
CONTINUOUS
 10
151.0768668626
 20
30.8196456577
 11
151.1346793074
 21
30.9164373395
 12
151.4237418626
 22
30.9164373395
 13
151.4237418626
 23
30.9164373395
  0
SOLID
  8
0
 62
7
  6
CONTINUOUS
 10
151.4237418626
 20
30.9164373395
 11
151.3659292523
 21
30.7873815123
 12
151.0768668626
 22
30.8196456577
 13
151.0768668626
 23
30.8196456577
  0
SOLID
  8
0
 62
7
  6
CONTINUOUS
 10
150.9034292799
 20
30.7551187255
 11
151.0768668626
 21
30.8196456577
 12
151.3659292523
 22
30.7873815123
 13
151.3659292523
 23
30.7873815123
  0
SOLID
  8
0
 62
7
  6
CONTINUOUS
 10
150.9034292799
 20
30.7551187255
 11
151.3659292523
 21
30.7873815123
 12
150.498741835
 22
30.7228544222
 13
150.498741835
 23
30.7228544222
  0
SOLID
  8
0
 62
7
  6
CONTINUOUS
 10
151.3659292523
 20
30.7873815123
 11
151.1924917523
 21
30.6905916353
 12
150.498741835
 22
30.7228544222
 13
150.498741835
 23
30.7228544222
  0
SOLID
  8
0
 62
7
  6
CONTINUOUS
 10
150.0362418212
 20
30.658327332
 11
150.498741835
 21
30.7228544222
 12
151.1924917523
 22
30.6905916353
 13
151.1924917523
 23
30.6905916353
  0
SOLID
  8
0
 62
7
  6
CONTINUOUS
 10
150.0362418212
 20
30.658327332
 11
151.1924917523
 21
30.6905916353
 12
150.2096793212
 22
30.6260631011
 13
150.2096793212
 23
30.6260631011
  0
SOLID
  8
0
 62
7
  6
CONTINUOUS
 10
151.1924917523
 20
30.6905916353
 11
150.9612418074
 21
30.6260631011
 12
150.2096793212
 22
30.6260631011
 13
150.2096793212
 23
30.6260631011
  0
SOLID
  8
0
 62
7
  6
CONTINUOUS
 10
150.5565542799
 20
30.5938002419
 11
150.2096793212
 21
30.6260631011
 12
150.9612418074
 22
30.6260631011
 13
150.9612418074
 23
30.6260631011
  0
SOLID
  8
0
 62
7
  6
CONTINUOUS
 10
154.0253041972
 20
30.7551187255
 11
154.2565543074
 21
30.8519086025
 12
154.3143669177
 22
30.7873815123
 13
154.3143669177
 23
30.7873815123
  0
SOLID
  8
0
 62
7
  6
CONTINUOUS
 10
154.3143669177
 20
30.7873815123
 11
154.5456166972
 21
30.7228544222
 12
154.0253041972
 22
30.7551187255
 13
154.0253041972
 23
30.7551187255
  0
SOLID
  8
0
 62
7
  6
CONTINUOUS
 10
154.1987416972
 20
30.658327332
 11
154.0253041972
 21
30.7551187255
 12
154.5456166972
 22
30.7228544222
 13
154.5456166972
 23
30.7228544222
  0
SOLID
  8
0
 62
7
  6
CONTINUOUS
 10
154.8924916972
 20
30.7228544637
 11
155.1815540869
 21
30.7873815123
 12
155.412804528
 22
30.7551187255
 13
155.412804528
 23
30.7551187255
  0
SOLID
  8
0
 62
7
  6
CONTINUOUS
 10
155.412804528
 20
30.7551187255
 11
155.3549915869
 21
30.6905916353
 12
154.8924916972
 22
30.7228544637
 13
154.8924916972
 23
30.7228544637
  0
SOLID
  8
0
 62
7
  6
CONTINUOUS
 10
155.3549915869
 20
30.6905916353
 11
154.1987416972
 21
30.658327332
 12
154.8924916972
 22
30.7228544637
 13
154.8924916972
 23
30.7228544637
  0
SOLID
  8
0
 62
7
  6
CONTINUOUS
 10
154.1987416972
 20
30.658327332
 11
154.5456166972
 21
30.7228544637
 12
154.8924916972
 22
30.7228544637
 13
154.8924916972
 23
30.7228544637
  0
SOLID
  8
0
 62
7
  6
CONTINUOUS
 10
154.1987416972
 20
30.658327332
 11
155.3549915869
 21
30.6905916353
 12
154.3143669177
 22
30.6260630541
 13
154.3143669177
 23
30.6260630541
  0
SOLID
  8
0
 62
7
  6
CONTINUOUS
 10
155.3549915869
 20
30.6905916353
 11
155.1815540869
 21
30.6260630541
 12
154.3143669177
 22
30.6260630541
 13
154.3143669177
 23
30.6260630541
  0
SOLID
  8
0
 62
7
  6
CONTINUOUS
 10
154.5456166972
 20
30.5938002188
 11
154.3143669177
 21
30.6260630541
 12
155.1815540869
 22
30.6260630541
 13
155.1815540869
 23
30.6260630541
  0
SOLID
  8
0
 62
7
  6
CONTINUOUS
 10
155.1815540869
 20
30.6260630541
 11
154.8924916972
 21
30.5938002188
 12
154.5456166972
 22
30.5938002188
 13
154.5456166972
 23
30.5938002188
  0
SOLID
  8
0
 62
7
  6
CONTINUOUS
 10
159.575304528
 20
30.7551187255
 11
159.228429528
 21
30.7228544637
 12
159.4596793074
 22
30.7873815123
 13
159.4596793074
 23
30.7873815123
  0
SOLID
  8
0
 62
7
  6
CONTINUOUS
 10
159.4596793074
 20
30.7873815123
 11
159.228429528
 21
30.7228544637
 12
159.401867028
 22
30.851908644
 13
159.401867028
 23
30.851908644
  0
SOLID
  8
0
 62
7
  6
CONTINUOUS
 10
159.228429528
 20
30.7228544637
 11
159.1128043074
 21
30.851908644
 12
159.401867028
 22
30.851908644
 13
159.401867028
 23
30.851908644
  0
SOLID
  8
0
 62
7
  6
CONTINUOUS
 10
159.575304528
 20
30.7551187255
 11
159.922179528
 21
30.7228544637
 12
159.228429528
 22
30.7228544637
 13
159.228429528
 23
30.7228544637
  0
SOLID
  8
0
 62
7
  6
CONTINUOUS
 10
156.279992028
 20
30.5938002419
 11
156.279992028
 21
31.6262382337
 12
156.5690540869
 22
30.5938002419
 13
156.5690540869
 23
31.6262382337
  0
ENDBLK
  8
0
  6
BYBLOCK
 62
0
  0
BLOCK
  8
0
 62
2
  6
CONTINUOUS
  2
SYMBOL_3_BL0
 70
64
 10
32.1213064866
 20
19.8534310916
  0
TEXT
  8
0
 62
7
  6
CONTINUOUS
 10
18.3860103289
 20
19.2268451992
  7
TEXTSTYLE_3
 40
2.7338706658
  1
Ammeraal Beltech
 41
1.0
 51
15.0
 72
0
  0
TEXT
  8
0
 62
7
  6
CONTINUOUS
 10
29.1868111546
 20
16.9533085264
  7
TEXTSTYLE_4
 40
1.0935482663
  1
Innovation & Service in Belting
 41
1.0
 72
0
  0
LINE
  8
0
 62
7
  6
CONTINUOUS
 10
12.3614696776
 20
19.9934385078
 11
13.1396216709
 21
23.6543558055
  0
LINE
  8
0
 62
7
  6
CONTINUOUS
 10
23.2347899607
 20
27.3177497171
 11
13.6274394139
 21
24.1961322958
  0
LINE
  8
0
 62
7
  6
CONTINUOUS
 10
12.5867530099
 20
19.3000877048
 11
20.093828271
 21
12.5406867788
  0
LINE
  8
0
 62
7
  6
CONTINUOUS
 10
12.8492874206
 20
20.5352149982
 11
23.6575567857
 21
24.0470345971
  0
LINE
  8
0
 62
7
  6
CONTINUOUS
 10
23.6533516486
 20
13.6972460334
 11
15.2078919798
 21
21.3015720751
  0
LINE
  8
0
 62
7
  6
CONTINUOUS
 10
24.1731743684
 20
26.4728246013
 11
23.1966148312
 21
21.8784731989
  0
LINE
  8
0
 62
7
  6
CONTINUOUS
 10
22.4968128835
 20
18.5861638851
 11
21.810364672
 21
15.3566789607
  0
LINE
  8
0
 62
7
  6
CONTINUOUS
 10
24.8542704669
 20
14.087448211
 11
25.8105020025
 21
18.5861638851
  0
LINE
  8
0
 62
7
  6
CONTINUOUS
 10
26.5103039502
 20
21.8784731989
 11
26.9545457526
 21
23.9684665583
  0
LINE
  8
0
 62
7
  6
CONTINUOUS
 10
20.8069293463
 20
12.3891124661
 11
24.3664527239
 21
13.5456717207
  0
LINE
  8
0
 62
7
  6
CONTINUOUS
 10
23.9478910361
 20
27.1661754044
 11
26.7292624203
 21
24.6618173613
  0
ARC
  8
0
 62
7
  6
CONTINUOUS
 10
13.8527227462
 20
23.5027814928
 40
0.7290321776
 50
108.0
 51
168.0
  0
ARC
  8
0
 62
7
  6
CONTINUOUS
 10
23.4600732931
 20
26.624398914
 40
0.7290321776
 50
348.0
 51
108.0
  0
ARC
  8
0
 62
7
  6
CONTINUOUS
 10
26.2414446773
 20
24.120040871
 40
0.7290321776
 50
348.0
 51
48.0
  0
ARC
  8
0
 62
7
  6
CONTINUOUS
 10
20.581646014
 20
13.0824632691
 40
0.7290321776
 50
228.0
 51
288.0
  0
ARC
  8
0
 62
7
  6
CONTINUOUS
 10
13.0745707529
 20
19.8418641951
 40
0.7290321776
 50
108.0
 51
228.0
  0
ARC
  8
0
 62
7
  6
CONTINUOUS
 10
24.1411693916
 20
14.2390225237
 40
0.7290321776
 50
228.0
 51
348.0
  0
ENDBLK
  8
0
  6
BYBLOCK
 62
0
  0
ENDSEC
  0
SECTION
  2
ENTITIES
  0
TEXT
  8
0
 62
5
  6
CONTINUOUS
 10
96.0
 20
25.636
  7
TEXTSTYLE_2
 40
2.8
  1
Scale :
 41
0.6
 51
0.000019
 72
0
  0
TEXT
  8
0
 62
5
  6
CONTINUOUS
 10
116.0
 20
25.636
  7
TEXTSTYLE_2
 40
2.8
  1
Belt type:
 41
0.6
 51
0.000019
 72
0
  0
INSERT
  8
0
 62
2
  6
CONTINUOUS
  2
SYMBOL_3_BL0
 10
32.1213064866
 20
19.8534310916
  0
INSERT
  8
0
 62
2
  6
CONTINUOUS
  2
SYMBOL_8_BL1
 10
173.5956734183
 20
35.5937998301
  0
LINE
  8
0
 62
2
  6
CONTINUOUS
 10
10.0
 20
30.0
 11
200.0
 21
30.0
  0
LINE
  8
0
 62
2
  6
CONTINUOUS
 10
10.0
 20
30.0
 11
10.0
 21
10.0
  0
LINE
  8
0
 62
2
  6
CONTINUOUS
 10
10.0
 20
10.0
 11
200.0
 21
10.0
  0
LINE
  8
0
 62
2
  6
CONTINUOUS
 10
95.0
 20
30.0
 11
95.0
 21
10.0
  0
LINE
  8
0
 62
2
  6
CONTINUOUS
 10
115.0
 20
30.0
 11
115.0
 21
10.0
  0
LINE
  8
0
 62
2
  6
CONTINUOUS
 10
200.0
 20
30.0
 11
200.0
 21
10.0
  0
TEXT
  8
0
 62
5
  6
CONTINUOUS
 10
13.0
 20
23.303
  7
TEXTSTYLE_5
 40
1.52
  1
                                                                     Ammeraal Beltech Modular A/S
 41
1.0
 72
0
  0
TEXT
  8
0
 62
5
  6
CONTINUOUS
 10
13.0
 20
20.595
  7
TEXTSTYLE_5
 40
1.5
  1
                                                                      Hjulmagervej 21,  7100 Vejle,  DK
 41
1.0
 72
0
  0
TEXT
  8
0
 62
5
  6
CONTINUOUS
 10
13.0
 20
17.881
  7
TEXTSTYLE_5
 40
1.495
  1
                                                                      tel: 
 41
1.0
 72
0
  0
TEXT
  8
0
 62
5
  6
CONTINUOUS
 10
57.9869465649
 20
17.881
  7
TEXTSTYLE_5
 40
1.51
  1
+45 75723100     fax: +45 75723348
 41
1.0
 72
0
  0
TEXT
  8
0
 62
5
  6
CONTINUOUS
 10
13.0
 20
15.177
  7
TEXTSTYLE_5
 40
1.5
  1
                                                                      admin@unichains.dk  www.unichains.com
 41
1.0
 72
0
  0
TEXT
  8
0
 62
5
  6
CONTINUOUS
 10
99.75
 20
13.75
  7
TEXTSTYLE_6
 40
5.0
  1
1:1
 41
0.7
 72
1
 11
105.0
 21
13.75
  0
TEXT
  8
0
 62
5
  6
CONTINUOUS
 10
118.0
 20
13.75
  7
TEXTSTYLE_7
 40
7.5
  1
Sprocket Z12
 41
0.6361111111
 72
0
  0
LINE
  8
0
 62
7
  6
CONTINUOUS
 10
210.0
 20
0.0
 11
0.0
 21
0.0
  0
LINE
  8
0
 62
7
  6
CONTINUOUS
 10
10.0
 20
10.0
 11
200.0
 21
10.0
  0
LINE
  8
0
 62
7
  6
CONTINUOUS
 10
10.0
 20
30.0
 11
200.0
 21
30.0
  0
LINE
  8
0
 62
7
  6
CONTINUOUS
 10
0.0
 20
0.0
 11
0.0
 21
297.0
  0
LINE
  8
0
 62
7
  6
CONTINUOUS
 10
10.0
 20
10.0
 11
10.0
 21
287.0
  0
LINE
  8
0
 62
7
  6
CONTINUOUS
 10
200.0
 20
287.0
 11
200.0
 21
10.0
  0
LINE
  8
0
 62
7
  6
CONTINUOUS
 10
210.0
 20
0.0
 11
210.0
 21
297.0
  0
LINE
  8
0
 62
7
  6
CONTINUOUS
 10
10.0
 20
287.0
 11
200.0
 21
287.0
  0
LINE
  8
0
 62
7
  6
CONTINUOUS
 10
0.0
 20
297.0
 11
210.0
 21
297.0
  0
LINE
  8
0
 62
7
  6
CONTINUOUS
 10
25.4345694713
 20
213.94795203
 11
25.1443367237
 21
211.2267918867
  0
LINE
  8
0
 62
7
  6
CONTINUOUS
 10
40.1733914059
 20
250.1997550807
 11
38.5614624018
 21
247.9882776427
  0
LINE
  8
0
 62
7
  6
CONTINUOUS
 10
71.0634871486
 20
274.2253264884
 11
68.5617769629
 21
273.1160953492
  0
LINE
  8
0
 62
7
  6
CONTINUOUS
 10
91.0736512378
 20
129.5546410104
 11
93.7948113811
 21
129.2644082628
  0
LINE
  8
0
 62
7
  6
CONTINUOUS
 10
54.821848187
 20
144.2934629451
 11
57.0333256251
 21
142.681533941
  0
LINE
  8
0
 62
7
  6
CONTINUOUS
 10
30.7962767794
 20
175.1835586877
 11
31.9055079186
 21
172.681848502
  0
LINE
  8
0
 62
7
  6
CONTINUOUS
 10
38.8807658643
 20
205.2708374035
 11
38.8807658643
 21
202.8937112464
  0
LINE
  8
0
 62
7
  6
CONTINUOUS
 10
38.8807658643
 20
190.2479617479
 11
38.8807658643
 21
187.5708374035
  0
LINE
  8
0
 62
7
  6
CONTINUOUS
 10
39.3807658643
 20
201.5708374035
 11
39.3807658643
 21
191.5708374035
  0
LINE
  8
0
 62
7
  6
CONTINUOUS
 10
47.4795817533
 20
235.9620551861
 11
46.2910174121
 21
233.903401359
  0
LINE
  8
0
 62
7
  6
CONTINUOUS
 10
39.9681439256
 20
222.9518632305
 11
38.6295817533
 21
220.6334055391
  0
LINE
  8
0
 62
7
  6
CONTINUOUS
 10
46.0625944552
 20
232.5077611921
 11
41.0625944552
 21
223.8475071543
  0
LINE
  8
0
 62
7
  6
CONTINUOUS
 10
51.7033432524
 20
232.1378247016
 11
45.9533432524
 21
222.178532558
  0
LINE
  8
0
 62
7
  6
CONTINUOUS
 10
58.8193686562
 20
242.4631422489
 11
49.3627635114
 21
233.4891590451
  0
LINE
  8
0
 62
7
  6
CONTINUOUS
 10
70.271983647
 20
258.2420215145
 11
68.2133341941
 21
257.0534596987
  0
LINE
  8
0
 62
7
  6
CONTINUOUS
 10
57.2617916914
 20
250.7305836867
 11
54.943334
 21
249.3920215145
  0
LINE
  8
0
 62
7
  6
CONTINUOUS
 10
67.317689653
 20
255.9590088126
 11
58.6574356151
 21
250.9590088126
  0
LINE
  8
0
 62
7
  6
CONTINUOUS
 10
99.7507658643
 20
143.0008374035
 11
102.1278920214
 21
143.0008374035
  0
LINE
  8
0
 62
7
  6
CONTINUOUS
 10
114.7736415199
 20
143.0008374035
 11
117.4507658643
 21
143.0008374035
  0
LINE
  8
0
 62
7
  6
CONTINUOUS
 10
103.4507658643
 20
143.5008374035
 11
113.4507658643
 21
143.5008374035
  0
LINE
  8
0
 62
7
  6
CONTINUOUS
 10
100.9507658643
 20
148.5708374035
 11
112.4507658643
 21
148.5708374035
  0
LINE
  8
0
 62
7
  6
CONTINUOUS
 10
88.4507658643
 20
149.5708374035
 11
100.9507658643
 21
145.8681687164
  0
LINE
  8
0
 62
7
  6
CONTINUOUS
 10
69.0595480817
 20
151.5996532925
 11
71.1182019088
 21
150.4110889512
  0
LINE
  8
0
 62
7
  6
CONTINUOUS
 10
82.0697400373
 20
144.0882154647
 11
84.3881977287
 21
142.7496532925
  0
LINE
  8
0
 62
7
  6
CONTINUOUS
 10
72.5138420757
 20
150.1826659943
 11
81.1740961135
 21
145.1826659943
  0
LINE
  8
0
 62
7
  6
CONTINUOUS
 10
46.7795817533
 20
174.3920551861
 11
47.9681435691
 21
172.3334057332
  0
LINE
  8
0
 62
7
  6
CONTINUOUS
 10
54.2910195811
 20
161.3818632305
 11
55.6295817533
 21
159.0634055391
  0
LINE
  8
0
 62
7
  6
CONTINUOUS
 10
49.0625944552
 20
171.4377611921
 11
54.0625944552
 21
162.7775071543
  0
LINE
  8
0
 62
7
  6
CONTINUOUS
 10
55.775973801
 20
229.7864903581
 11
58.8193686562
 21
242.4631422489
  0
LINE
  8
0
 62
7
  6
CONTINUOUS
 10
47.68539406
 20
221.178532558
 11
53.43539406
 21
231.1378247016
  0
LINE
  8
0
 62
7
  6
CONTINUOUS
 10
63.8146807671
 20
242.9579093176
 11
63.6095043033
 21
242.6297404669
  0
LINE
  8
0
 62
7
  6
CONTINUOUS
 10
63.8739186803
 20
242.3526886579
 11
64.0790951441
 21
242.6808575086
  0
LINE
  8
0
 62
7
  6
CONTINUOUS
 10
62.0574295135
 20
241.2238645823
 11
61.7422291988
 21
240.8769129892
  0
LINE
  8
0
 62
7
  6
CONTINUOUS
 10
60.4814282331
 20
239.4891069395
 11
60.1662279861
 21
239.1421554209
  0
LINE
  8
0
 62
7
  6
CONTINUOUS
 10
63.1591362239
 20
238.4497231966
 11
62.9069759902
 21
238.172161942
  0
LINE
  8
0
 62
7
  6
CONTINUOUS
 10
63.1904427607
 20
237.9146366358
 11
63.4426029944
 21
238.1921978904
  0
LINE
  8
0
 62
7
  6
CONTINUOUS
 10
64.1360435244
 20
238.9554912165
 11
64.451243839
 21
239.3024428096
  0
LINE
  8
0
 62
7
  6
CONTINUOUS
 10
76.0648659274
 20
251.5938704929
 11
75.8573808722
 21
251.3812239409
  0
LINE
  8
0
 62
7
  6
CONTINUOUS
 10
64.0859608251
 20
243.216815216
 11
63.8146807671
 21
242.9579093176
  0
LINE
  8
0
 62
7
  6
CONTINUOUS
 10
63.2043009276
 20
242.375371324
 11
62.8652009521
 21
242.0517390436
  0
LINE
  8
0
 62
7
  6
CONTINUOUS
 10
64.9805161528
 20
239.8353243774
 11
65.3196161283
 21
240.1589566578
  0
LINE
  8
0
 62
7
  6
CONTINUOUS
 10
66.5403758073
 20
241.3240326451
 11
66.8794755888
 21
241.6476647403
  0
LINE
  8
0
 62
7
  6
CONTINUOUS
 10
76.3217643192
 20
251.2947640265
 11
76.6128530806
 21
251.5498324705
  0
LINE
  8
0
 62
7
  6
CONTINUOUS
 10
64.8501192464
 20
245.8370329149
 11
64.4965155729
 21
245.5293141522
  0
LINE
  8
0
 62
7
  6
CONTINUOUS
 10
64.8107816257
 20
245.1681869015
 11
65.1643852992
 21
245.4759056642
  0
LINE
  8
0
 62
7
  6
CONTINUOUS
 10
65.7929175809
 20
244.7536509605
 11
65.4393139074
 21
244.4459321978
  0
LINE
  8
0
 62
7
  6
CONTINUOUS
 10
67.4506168214
 20
242.134717591
 11
67.804220495
 21
242.4424363537
  0
LINE
  8
0
 62
7
  6
CONTINUOUS
 10
76.5231601877
 20
251.93378175
 11
76.0648659274
 21
251.5938704929
  0
LINE
  8
0
 62
7
  6
CONTINUOUS
 10
78.1945307327
 20
249.8830011159
 11
77.6526327814
 21
249.5006679368
  0
LINE
  8
0
 62
7
  6
CONTINUOUS
 10
77.9095331019
 20
249.2015624115
 11
78.451429151
 21
249.5838945972
  0
LINE
  8
0
 62
7
  6
CONTINUOUS
 10
72.3358404358
 20
251.2896625642
 11
69.499330643
 21
249.4607729569
  0
LINE
  8
0
 62
7
  6
CONTINUOUS
 10
70.2833825967
 20
249.2827777715
 11
72.6471407574
 21
250.8068524442
  0
LINE
  8
0
 62
7
  6
CONTINUOUS
 10
73.0064565769
 20
249.5575532817
 11
70.9578667722
 21
248.2366889529
  0
LINE
  8
0
 62
7
  6
CONTINUOUS
 10
71.2691670938
 20
247.753878833
 11
73.3177568985
 21
249.0747431617
  0
LINE
  8
0
 62
7
  6
CONTINUOUS
 10
71.9378501194
 20
245.6787598999
 11
72.4106017515
 21
245.9835748344
  0
LINE
  8
0
 62
7
  6
CONTINUOUS
 10
73.6097312927
 20
252.0035665559
 11
73.2027663156
 21
251.7709587202
  0
LINE
  8
0
 62
7
  6
CONTINUOUS
 10
75.4357998344
 20
247.8640979211
 11
75.8427648114
 21
248.0967057567
  0
LINE
  8
0
 62
7
  6
CONTINUOUS
 10
64.0790951441
 20
242.6808575086
 11
64.4164787963
 21
242.8705004547
  0
LINE
  8
0
 62
7
  6
CONTINUOUS
 10
77.8790793927
 20
251.3334146242
 11
76.1234149575
 21
250.4425616883
  0
LINE
  8
0
 62
7
  6
CONTINUOUS
 10
76.2131098247
 20
250.0586132602
 11
78.4703926699
 21
251.2039956064
  0
LINE
  8
0
 62
7
  6
CONTINUOUS
 10
78.7303375686
 20
250.6917045253
 11
78.3123209512
 21
250.4795960361
  0
LINE
  8
0
 62
7
  6
CONTINUOUS
 10
88.05994626
 20
256.9604937522
 11
88.4053093544
 21
257.1351846541
  0
LINE
  8
0
 62
7
  6
CONTINUOUS
 10
64.3555243659
 20
243.341731595
 11
64.0859608251
 21
243.216815216
  0
LINE
  8
0
 62
7
  6
CONTINUOUS
 10
88.2808893022
 20
257.6960172073
 11
87.8440007417
 21
257.5010214867
  0
LINE
  8
0
 62
7
  6
CONTINUOUS
 10
81.6170954012
 20
254.2055321087
 11
81.097410802
 21
253.9902783809
  0
LINE
  8
0
 62
7
  6
CONTINUOUS
 10
79.191899944
 20
253.2010144387
 11
78.6722153448
 21
252.9857607109
  0
LINE
  8
0
 62
7
  6
CONTINUOUS
 10
79.8446611441
 20
250.1551383026
 11
80.3643457434
 21
250.3703920304
  0
LINE
  8
0
 62
7
  6
CONTINUOUS
 10
82.2698566013
 20
251.1596559726
 11
82.7895412006
 21
251.3749097004
  0
LINE
  8
0
 62
7
  6
CONTINUOUS
 10
77.0681027475
 20
252.1029293134
 11
76.5231601877
 21
251.93378175
  0
LINE
  8
0
 62
7
  6
CONTINUOUS
 10
76.6128530806
 20
251.5498324705
 11
77.1577956404
 21
251.718980034
  0
LINE
  8
0
 62
7
  6
CONTINUOUS
 10
77.3645905382
 20
249.0324148556
 11
77.9095331019
 21
249.2015624115
  0
LINE
  8
0
 62
7
  6
CONTINUOUS
 10
112.4507658643
 20
150.5708374035
 11
100.9507658643
 21
150.5708374035
  0
LINE
  8
0
 62
7
  6
CONTINUOUS
 10
63.6095043033
 20
242.6297404669
 11
63.5382517393
 21
242.2970354164
  0
LINE
  8
0
 62
7
  6
CONTINUOUS
 10
63.8026661163
 20
242.0199836074
 11
63.8739186803
 21
242.3526886579
  0
LINE
  8
0
 62
7
  6
CONTINUOUS
 10
63.6238964453
 20
238.5341403723
 11
63.6791099146
 21
238.7373023758
  0
LINE
  8
0
 62
7
  6
CONTINUOUS
 10
63.3404296562
 20
238.7916656954
 11
63.1591362239
 21
238.4497231966
  0
LINE
  8
0
 62
7
  6
CONTINUOUS
 10
63.4426029944
 20
238.1921978904
 11
63.6238964453
 21
238.5341403723
  0
LINE
  8
0
 62
7
  6
CONTINUOUS
 10
75.8573808722
 20
251.3812239409
 11
75.6932199667
 21
251.083195542
  0
LINE
  8
0
 62
7
  6
CONTINUOUS
 10
76.1978829701
 20
251.1245393666
 11
76.3217643192
 21
251.2947640265
  0
LINE
  8
0
 62
7
  6
CONTINUOUS
 10
78.451429151
 20
249.5838945972
 11
78.6991937513
 21
249.9243449105
  0
LINE
  8
0
 62
7
  6
CONTINUOUS
 10
87.8268453072
 20
256.7126355766
 11
88.05994626
 21
256.9604937522
  0
LINE
  8
0
 62
7
  6
CONTINUOUS
 10
87.8440007417
 20
257.5010214867
 11
87.5193764176
 21
257.2328589573
  0
LINE
  8
0
 62
7
  6
CONTINUOUS
 10
90.4245970689
 20
253.660260769
 11
90.7492234825
 21
253.9284237877
  0
LINE
  8
0
 62
7
  6
CONTINUOUS
 10
62.8674158794
 20
237.7014567573
 11
63.1904427607
 21
237.9146366358
  0
LINE
  8
0
 62
7
  6
CONTINUOUS
 10
90.2086536327
 20
254.2007890256
 11
89.8632905384
 21
254.0260981236
  0
LINE
  8
0
 62
7
  6
CONTINUOUS
 10
89.9877106051
 20
253.465265505
 11
90.4245970689
 21
253.660260769
  0
LINE
  8
0
 62
7
  6
CONTINUOUS
 10
62.9069759902
 20
238.172161942
 11
62.513082404
 21
238.0233634014
  0
LINE
  8
0
 62
7
  6
CONTINUOUS
 10
113.2510943362
 20
256.7664103336
 11
113.5718864011
 21
256.8798218873
  0
LINE
  8
0
 62
7
  6
CONTINUOUS
 10
64.4164787963
 20
242.8705004547
 11
64.6182222255
 21
242.9306902665
  0
LINE
  8
0
 62
7
  6
CONTINUOUS
 10
63.6791099146
 20
238.7373023758
 11
63.6556298807
 21
239.1386171892
  0
LINE
  8
0
 62
7
  6
CONTINUOUS
 10
63.5382517393
 20
242.2970354164
 11
63.5348188988
 21
242.0290565627
  0
LINE
  8
0
 62
7
  6
CONTINUOUS
 10
63.7992332757
 20
241.7520047537
 11
63.8026661163
 21
242.0199836074
  0
LINE
  8
0
 62
7
  6
CONTINUOUS
 10
63.3878164361
 20
239.1285992534
 11
63.3404296562
 21
238.7916656954
  0
LINE
  8
0
 62
7
  6
CONTINUOUS
 10
75.6932199667
 20
251.083195542
 11
75.6126608539
 21
250.8275880643
  0
LINE
  8
0
 62
7
  6
CONTINUOUS
 10
76.0770462144
 20
250.7411291209
 11
76.1978829701
 21
251.1245393666
  0
LINE
  8
0
 62
7
  6
CONTINUOUS
 10
78.3586916382
 20
250.1810295147
 11
78.1945307327
 21
249.8830011159
  0
LINE
  8
0
 62
7
  6
CONTINUOUS
 10
87.5193764176
 20
257.2328589573
 11
87.2362233493
 21
256.7777517787
  0
LINE
  8
0
 62
7
  6
CONTINUOUS
 10
90.4417545711
 20
254.4486472666
 11
90.2086536327
 21
254.2007890256
  0
LINE
  8
0
 62
7
  6
CONTINUOUS
 10
111.1680244974
 20
258.0066902309
 11
110.4847123889
 21
257.4601777818
  0
LINE
  8
0
 62
7
  6
CONTINUOUS
 10
105.9161485354
 20
254.8662553715
 11
109.5105043564
 21
257.6658726049
  0
LINE
  8
0
 62
7
  6
CONTINUOUS
 10
109.0715851131
 20
257.9183522444
 11
105.3843234811
 21
255.1312771226
  0
LINE
  8
0
 62
7
  6
CONTINUOUS
 10
113.1919114907
 20
257.2771257341
 11
112.7316259283
 21
257.0024735982
  0
LINE
  8
0
 62
7
  6
CONTINUOUS
 10
114.8442591926
 20
255.4549276051
 11
111.6955171887
 21
253.8100975668
  0
LINE
  8
0
 62
7
  6
CONTINUOUS
 10
112.4207073082
 20
253.6187825483
 11
115.2242299533
 21
255.0576248531
  0
LINE
  8
0
 62
7
  6
CONTINUOUS
 10
123.5370917851
 20
252.1488605314
 11
123.2867015358
 21
252.0533111914
  0
LINE
  8
LAY0001
 62
7
  6
CONTINUOUS
 10
128.0033307652
 20
169.2879379124
 11
128.0810369087
 21
169.3099782096
  0
LINE
  8
LAY0001
 62
7
  6
CONTINUOUS
 10
128.1390336791
 20
169.4514737495
 11
128.061327821
 21
169.4294337378
  0
LINE
  8
LAY0001
 62
7
  6
CONTINUOUS
 10
129.2501589893
 20
170.5347661366
 11
129.3278651328
 21
170.5568064337
  0
LINE
  8
LAY0001
 62
7
  6
CONTINUOUS
 10
130.22268493
 20
171.5072920772
 11
130.3003909308
 21
171.5293322316
  0
LINE
  8
LAY0001
 62
7
  6
CONTINUOUS
 10
130.3583878439
 20
171.6708279143
 11
130.2806818431
 21
171.6487877599
  0
LINE
  8
LAY0001
 62
7
  6
CONTINUOUS
 10
129.642220605
 20
171.5391521206
 11
129.5256615252
 21
171.5060918249
  0
LINE
  8
LAY0001
 62
7
  6
CONTINUOUS
 10
131.0815481825
 20
172.3939882529
 11
131.198107255
 21
172.4270485559
  0
LINE
  8
LAY0001
 62
7
  6
CONTINUOUS
 10
131.3268867178
 20
173.1959853102
 11
131.4434458001
 21
173.2290456035
  0
LINE
  8
LAY0001
 62
7
  6
CONTINUOUS
 10
131.50144265
 20
173.3705412424
 11
131.4237365997
 21
173.3485010482
  0
LINE
  8
LAY0001
 62
7
  6
CONTINUOUS
 10
126.9142460374
 20
168.2823519542
 11
127.0197848187
 21
168.2765590428
  0
LINE
  8
LAY0001
 62
7
  6
CONTINUOUS
 10
127.0916980507
 20
168.4041381211
 11
127.0389286601
 21
168.4070345769
  0
LINE
  8
LAY0001
 62
7
  6
CONTINUOUS
 10
126.6915826228
 20
168.5050153689
 11
126.7971214138
 21
168.4992224477
  0
LINE
  8
LAY0001
 62
7
  6
CONTINUOUS
 10
126.8690346458
 20
168.626801526
 11
126.8162652455
 21
168.6296979915
  0
LINE
  8
0
 62
7
  6
CONTINUOUS
 10
81.097410802
 20
253.9902783809
 11
80.6209604461
 21
252.4457057465
  0
LINE
  8
0
 62
7
  6
CONTINUOUS
 10
80.3643457434
 20
250.3703920304
 11
80.8407940655
 21
251.9149639675
  0
LINE
  8
0
 62
7
  6
CONTINUOUS
 10
78.6991937513
 20
249.9243449105
 11
78.8200304918
 21
250.3077551861
  0
LINE
  8
0
 62
7
  6
CONTINUOUS
 10
80.4710349818
 20
252.0727079312
 11
79.8446611441
 21
250.1551383026
  0
LINE
  8
0
 62
7
  6
CONTINUOUS
 10
80.9907195811
 20
252.287961659
 11
81.6170954012
 21
254.2055321087
  0
LINE
  8
0
 62
7
  6
CONTINUOUS
 10
87.7060065539
 20
256.3916098656
 11
87.8268453072
 21
256.7126355766
  0
LINE
  8
0
 62
7
  6
CONTINUOUS
 10
90.7492234825
 20
253.9284237877
 11
91.0323765435
 21
254.3835309991
  0
LINE
  8
0
 62
7
  6
CONTINUOUS
 10
112.9965263358
 20
256.5365075385
 11
113.2510943362
 21
256.7664103336
  0
LINE
  8
0
 62
7
  6
CONTINUOUS
 10
110.3340891604
 20
256.709175968
 11
111.0174013216
 21
257.25568868
  0
LINE
  8
0
 62
7
  6
CONTINUOUS
 10
123.5924133777
 20
251.596395938
 11
124.0080295315
 21
251.8266945327
  0
LINE
  8
0
 62
7
  6
CONTINUOUS
 10
129.9927003628
 20
249.1230419521
 11
130.3102605768
 21
249.2527110045
  0
LINE
  8
0
 62
7
  6
CONTINUOUS
 10
130.2966662619
 20
249.7276735554
 11
129.8475429716
 21
249.572552634
  0
LINE
  8
0
 62
7
  6
CONTINUOUS
 10
130.1014545958
 20
245.3233411316
 11
130.5505779051
 21
245.4784620806
  0
LINE
  8
LAY0001
 62
7
  6
CONTINUOUS
 10
127.5347635511
 20
168.9585353142
 11
127.5875329417
 21
168.9556388585
  0
LINE
  8
LAY0001
 62
7
  6
CONTINUOUS
 10
127.7122158498
 20
169.0803217665
 11
127.6066767831
 21
169.0861143926
  0
LINE
  8
LAY0001
 62
7
  6
CONTINUOUS
 10
127.3121001365
 20
169.1811987289
 11
127.3648695271
 21
169.1783022731
  0
LINE
  8
LAY0001
 62
7
  6
CONTINUOUS
 10
127.4895524351
 20
169.3029851812
 11
127.3840133636
 21
169.3087778121
  0
LINE
  8
LAY0001
 62
7
  6
CONTINUOUS
 10
129.3609254358
 20
170.6733655062
 11
129.3081557598
 21
170.6762616765
  0
LINE
  8
LAY0001
 62
7
  6
CONTINUOUS
 10
128.9770571008
 20
170.9574874006
 11
128.9242877078
 21
170.9603838587
  0
LINE
  8
LAY0001
 62
7
  6
CONTINUOUS
 10
129.5314541585
 20
171.400552751
 11
129.5842236919
 21
171.3976564379
  0
LINE
  8
LAY0001
 62
7
  6
CONTINUOUS
 10
130.1699153967
 20
171.5101883902
 11
130.22268493
 21
171.5072920772
  0
LINE
  8
LAY0001
 62
7
  6
CONTINUOUS
 10
131.6069816305
 20
173.3647485107
 11
131.50144265
 21
173.3705412424
  0
LINE
  8
LAY0001
 62
7
  6
CONTINUOUS
 10
127.936644913
 20
169.3047508298
 11
128.0033307652
 21
169.2879379124
  0
LINE
  8
0
 62
7
  6
CONTINUOUS
 10
75.6126608539
 20
250.8275880643
 11
75.6187519541
 21
250.4012178638
  0
LINE
  8
0
 62
7
  6
CONTINUOUS
 10
76.0800908078
 20
250.5279435351
 11
76.0770462144
 21
250.7411291209
  0
LINE
  8
0
 62
7
  6
CONTINUOUS
 10
87.2362233493
 20
256.7777517787
 11
87.1361212133
 21
256.3632542374
  0
LINE
  8
0
 62
7
  6
CONTINUOUS
 10
91.0323765435
 20
254.3835309991
 11
91.1324786649
 21
254.7980286058
  0
LINE
  8
0
 62
7
  6
CONTINUOUS
 10
90.5625933824
 20
254.7696727158
 11
90.4417545711
 21
254.4486472666
  0
LINE
  8
0
 62
7
  6
CONTINUOUS
 10
115.1232461877
 20
255.7774087694
 11
114.8442591926
 21
255.4549276051
  0
LINE
  8
0
 62
7
  6
CONTINUOUS
 10
115.2242299533
 20
255.0576248531
 11
115.4787979537
 21
255.2875276481
  0
LINE
  8
0
 62
7
  6
CONTINUOUS
 10
129.8475429716
 20
249.572552634
 11
129.421096831
 21
249.285364933
  0
LINE
  8
0
 62
7
  6
CONTINUOUS
 10
130.4054205521
 20
245.9279728176
 11
130.0878603
 21
245.79830371
  0
LINE
  8
LAY0001
 62
7
  6
CONTINUOUS
 10
131.4434458001
 20
173.2290456035
 11
131.5629012302
 21
173.2093364177
  0
LINE
  8
LAY0001
 62
7
  6
CONTINUOUS
 10
129.1834731371
 20
170.5515790539
 11
129.2501589893
 21
170.5347661366
  0
LINE
  8
LAY0001
 62
7
  6
CONTINUOUS
 10
128.7996047998
 20
170.8357009507
 11
128.8662906568
 21
170.8188880285
  0
LINE
  8
LAY0001
 62
7
  6
CONTINUOUS
 10
129.0437429604
 20
170.9406744759
 11
128.9770571008
 21
170.9574874006
  0
LINE
  8
LAY0001
 62
7
  6
CONTINUOUS
 10
131.1923144862
 20
172.5325874798
 11
131.1256285627
 21
172.5494003258
  0
LINE
  8
LAY0001
 62
7
  6
CONTINUOUS
 10
129.7228229285
 20
171.5084227319
 11
129.642220605
 21
171.5391521206
  0
LINE
  8
0
 62
7
  6
CONTINUOUS
 10
63.3012963991
 20
239.4605238389
 11
63.3878164361
 21
239.1285992534
  0
LINE
  8
0
 62
7
  6
CONTINUOUS
 10
89.1376440472
 20
134.9992613046
 11
89.3244639838
 21
131.4345245581
  0
LINE
  8
0
 62
7
  6
CONTINUOUS
 10
87.6974277893
 20
255.9974166782
 11
87.7060065539
 21
256.3916098656
  0
LINE
  8
0
 62
7
  6
CONTINUOUS
 10
55.8675269252
 20
149.9766460291
 11
54.2469493629
 21
146.7960834805
  0
LINE
  8
0
 62
7
  6
CONTINUOUS
 10
112.7316259283
 20
257.0024735982
 11
112.543286142
 21
256.6560784672
  0
LINE
  8
0
 62
7
  6
CONTINUOUS
 10
123.7423504187
 20
252.3705834738
 11
123.5370917851
 21
252.1488605314
  0
LINE
  8
0
 62
7
  6
CONTINUOUS
 10
124.0080295315
 20
251.8266945327
 11
124.2132881651
 21
252.0484174751
  0
LINE
  8
0
 62
7
  6
CONTINUOUS
 10
125.2587879271
 20
249.7461868695
 11
127.2728729567
 21
251.5732476387
  0
LINE
  8
0
 62
7
  6
CONTINUOUS
 10
124.0923965189
 20
248.6479965039
 11
124.9875441563
 21
249.4600241826
  0
LINE
  8
0
 62
7
  6
CONTINUOUS
 10
127.1369869797
 20
252.0917404685
 11
123.6038467852
 21
248.9267892723
  0
LINE
  8
0
 62
7
  6
CONTINUOUS
 10
129.7522548901
 20
248.9400689944
 11
129.9927003628
 21
249.1230419521
  0
LINE
  8
0
 62
7
  6
CONTINUOUS
 10
128.8811968631
 20
247.6799019395
 11
129.1216422595
 21
247.8628747869
  0
LINE
  8
0
 62
7
  6
CONTINUOUS
 10
130.6458658722
 20
246.1109455547
 11
130.4054205521
 21
245.9279728176
  0
LINE
  8
0
 62
7
  6
CONTINUOUS
 10
130.5505779051
 20
245.4784620806
 11
130.977020401
 21
245.7656520562
  0
LINE
  8
0
 62
7
  6
CONTINUOUS
 10
34.5434526729
 20
179.5825002438
 11
31.5497100608
 21
177.6383410595
  0
LINE
  8
0
 62
7
  6
CONTINUOUS
 10
170.0223419632
 20
193.2577155863
 11
173.5870787097
 21
193.4445355229
  0
LINE
  8
LAY0001
 62
7
  6
CONTINUOUS
 10
130.2806818431
 20
171.6487877599
 11
130.2000793866
 21
171.6795169961
  0
LINE
  8
LAY0001
 62
7
  6
CONTINUOUS
 10
131.000945726
 20
172.4247174891
 11
131.0815481825
 21
172.3939882529
  0
LINE
  8
LAY0001
 62
7
  6
CONTINUOUS
 10
127.8421261376
 20
169.3493966702
 11
127.936644913
 21
169.3047508298
  0
LINE
  8
LAY0001
 62
7
  6
CONTINUOUS
 10
128.061327821
 20
169.4294337378
 11
127.9668087602
 21
169.4740792929
  0
LINE
  8
LAY0001
 62
7
  6
CONTINUOUS
 10
128.8662906568
 20
170.8188880285
 11
128.9608097225
 21
170.7742424685
  0
LINE
  8
LAY0001
 62
7
  6
CONTINUOUS
 10
130.0753966213
 20
171.5548342307
 11
130.1699153967
 21
171.5101883902
  0
LINE
  8
0
 62
7
  6
CONTINUOUS
 10
155.0449572387
 20
159.9875984643
 11
158.2255197873
 21
158.3670209021
  0
LINE
  8
0
 62
7
  6
CONTINUOUS
 10
125.439103024
 20
138.663524212
 11
127.3832622083
 21
135.6697816
  0
LINE
  8
0
 62
7
  6
CONTINUOUS
 10
78.3123209512
 20
250.4795960361
 11
78.3586916382
 21
250.1810295147
  0
LINE
  8
0
 62
7
  6
CONTINUOUS
 10
87.1361212133
 20
256.3632542374
 11
87.1482791821
 21
255.8755886959
  0
LINE
  8
0
 62
7
  6
CONTINUOUS
 10
91.1324786649
 20
254.7980286058
 11
91.1203207542
 21
255.2856938855
  0
LINE
  8
0
 62
7
  6
CONTINUOUS
 10
90.5711721471
 20
255.1638659032
 11
90.5625933824
 21
254.7696727158
  0
LINE
  8
0
 62
7
  6
CONTINUOUS
 10
104.9610213894
 20
278.2323293243
 11
103.1203813704
 21
267.7935410481
  0
LINE
  8
0
 62
7
  6
CONTINUOUS
 10
115.4787979537
 20
255.2875276481
 11
115.66713774
 21
255.6339227791
  0
LINE
  8
0
 62
7
  6
CONTINUOUS
 10
141.187507687
 20
266.1084329251
 11
134.3740725333
 21
257.9884971027
  0
LINE
  8
0
 62
7
  6
CONTINUOUS
 10
129.421096831
 20
249.285364933
 11
128.9628905535
 21
248.7873480196
  0
LINE
  8
0
 62
7
  6
CONTINUOUS
 10
129.3484862042
 20
248.5208149552
 11
129.7522548901
 21
248.9400689944
  0
LINE
  8
0
 62
7
  6
CONTINUOUS
 10
142.9481884763
 20
242.9631422489
 11
141.2161376687
 21
241.9631422489
  0
LINE
  8
0
 62
7
  6
CONTINUOUS
 10
166.498616911
 20
237.4955875017
 11
156.5380410696
 21
233.8702343792
  0
LINE
  8
0
 62
7
  6
CONTINUOUS
 10
26.7892739435
 20
209.0810929285
 11
37.2280622197
 21
207.2404529095
  0
LINE
  8
LAY0001
 62
7
  6
CONTINUOUS
 10
131.7154169633
 20
173.3061863045
 11
131.6069816305
 21
173.3647485107
  0
LINE
  8
0
 62
7
  6
CONTINUOUS
 10
45.9533432524
 20
222.178532558
 11
47.68539406
 21
221.178532558
  0
LINE
  8
0
 62
7
  6
CONTINUOUS
 10
38.9131703427
 20
245.3075792261
 11
47.0331061651
 21
238.4941440723
  0
LINE
  8
LAY0001
 62
7
  6
CONTINUOUS
 10
127.3561788885
 20
167.8366401208
 11
128.9825244852
 21
166.2102945241
  0
LINE
  8
LAY0001
 62
7
  6
CONTINUOUS
 10
126.6637496996
 20
168.532848292
 11
126.6915826228
 21
168.5050153689
  0
LINE
  8
LAY0001
 62
7
  6
CONTINUOUS
 10
129.5835652492
 20
166.8113352881
 11
127.9572196525
 21
168.4376808848
  0
LINE
  8
0
 62
7
  6
CONTINUOUS
 10
67.5260157661
 20
270.6186884501
 11
71.1513688886
 21
260.6581126087
  0
LINE
  8
0
 62
7
  6
CONTINUOUS
 10
75.6187519541
 20
250.4012178638
 11
75.7950932073
 21
249.846504771
  0
LINE
  8
0
 62
7
  6
CONTINUOUS
 10
78.8200304918
 20
250.3077551861
 11
78.7303375686
 21
250.6917045253
  0
LINE
  8
0
 62
7
  6
CONTINUOUS
 10
96.4729946722
 20
258.9516703558
 11
96.6622228778
 21
254.4556507066
  0
LINE
  8
0
 62
7
  6
CONTINUOUS
 10
97.2000685418
 20
255.0532641861
 11
97.1356504285
 21
256.5838240852
  0
LINE
  8
0
 62
7
  6
CONTINUOUS
 10
97.1114936391
 20
257.157783972
 11
97.0591539176
 21
258.4013639947
  0
LINE
  8
DEFAULT_1
 62
2
  6
CENTER
 10
100.4507658643
 20
280.4277899344
 11
100.4507658643
 21
206.5709374035
  0
LINE
  8
0
 62
2
  6
CONTINUOUS
 10
100.4507658643
 20
205.4508374035
 11
100.4507658643
 21
203.6908374035
  0
LINE
  8
DEFAULT_1
 62
2
  6
CENTER
 10
100.4507658643
 20
121.8544857768
 11
100.4507658643
 21
202.5707374035
  0
LINE
  8
0
 62
7
  6
CONTINUOUS
 10
100.9507658643
 20
145.8681687164
 11
100.9507658643
 21
148.5708374035
  0
LINE
  8
0
 62
7
  6
CONTINUOUS
 10
100.9507658643
 20
150.5708374035
 11
100.9507658643
 21
153.2735060905
  0
LINE
  8
0
 62
7
  6
CONTINUOUS
 10
105.8838807394
 20
258.8317522969
 11
105.8198349451
 21
258.3573324624
  0
LINE
  8
0
 62
7
  6
CONTINUOUS
 10
105.3843234811
 20
255.1312771226
 11
105.2818502013
 21
254.3722053209
  0
LINE
  8
0
 62
7
  6
CONTINUOUS
 10
110.4847123889
 20
257.4601777818
 11
110.3340891604
 21
256.709175968
  0
LINE
  8
0
 62
7
  6
CONTINUOUS
 10
111.0174013216
 20
257.25568868
 11
110.2831132341
 21
253.5945555937
  0
LINE
  8
0
 62
7
  6
CONTINUOUS
 10
110.8346300638
 20
253.4839416858
 11
111.719541327
 21
257.896076323
  0
LINE
  8
0
 62
7
  6
CONTINUOUS
 10
111.6955171887
 20
253.8100975668
 11
111.5734014498
 21
253.3472111297
  0
LINE
  8
0
 62
7
  6
CONTINUOUS
 10
121.6627959135
 20
254.8033750195
 11
119.7812574246
 21
250.7156112158
  0
LINE
  8
0
 62
7
  6
CONTINUOUS
 10
120.2922279001
 20
250.4804189047
 11
121.132915322
 21
252.3068665876
  0
LINE
  8
0
 62
7
  6
CONTINUOUS
 10
121.3731116962
 20
252.8287087131
 11
121.9736027438
 21
254.1333142705
  0
LINE
  8
0
 62
7
  6
CONTINUOUS
 10
128.9628905535
 20
248.7873480196
 11
128.5818027
 21
248.2360249814
  0
LINE
  8
0
 62
7
  6
CONTINUOUS
 10
129.2396039604
 20
248.3632940871
 11
129.3484862042
 21
248.5208149552
  0
LINE
  8
0
 62
7
  6
CONTINUOUS
 10
128.7178734973
 20
247.4436206374
 11
128.8811968631
 21
247.6799019395
  0
LINE
  8
0
 62
7
  6
CONTINUOUS
 10
151.0387682172
 20
234.3551844489
 11
148.6981884763
 21
233.0038501054
  0
LINE
  8
0
 62
7
  6
CONTINUOUS
 10
146.9661376687
 20
232.0038501054
 11
144.6255579277
 21
230.6525157618
  0
LINE
  8
DEFAULT_1
 62
2
  6
CENTER
 10
175.8380743982
 20
204.5708374035
 11
102.4508658643
 21
204.5708374035
  0
LINE
  8
0
 62
2
  6
CONTINUOUS
 10
101.3307658643
 20
204.5708374035
 11
99.5707658643
 21
204.5708374035
  0
LINE
  8
DEFAULT_1
 62
2
  6
CENTER
 10
32.2122538293
 20
204.5708374035
 11
98.4506658643
 21
204.5708374035
  0
LINE
  8
0
 62
7
  6
CONTINUOUS
 10
49.3627635114
 20
233.4891590451
 11
51.7033432524
 21
232.1378247016
  0
LINE
  8
0
 62
7
  6
CONTINUOUS
 10
53.43539406
 20
231.1378247016
 11
55.775973801
 21
229.7864903581
  0
LINE
  8
0
 62
7
  6
CONTINUOUS
 10
60.1662279861
 20
239.1421554209
 11
61.5835618135
 21
237.8545289124
  0
LINE
  8
0
 62
7
  6
CONTINUOUS
 10
61.8987620606
 20
238.201480431
 11
60.4814282331
 21
239.4891069395
  0
LINE
  8
0
 62
7
  6
CONTINUOUS
 10
61.7422291988
 20
240.8769129892
 11
63.3012963991
 21
239.4605238389
  0
LINE
  8
LAY0001
 62
7
  6
CONTINUOUS
 10
128.0986410087
 20
168.5791022411
 11
129.0178798243
 21
167.6598634255
  0
LINE
  8
LAY0001
 62
7
  6
CONTINUOUS
 10
127.7400487729
 20
169.0524888434
 11
127.7122158498
 21
169.0803217665
  0
LINE
  8
LAY0001
 62
7
  6
CONTINUOUS
 10
127.5777133284
 20
169.6138094794
 11
127.8421261376
 21
169.3493966702
  0
LINE
  8
LAY0001
 62
7
  6
CONTINUOUS
 10
127.9668087602
 20
169.4740792929
 11
127.7023959511
 21
169.738492102
  0
LINE
  8
LAY0001
 62
7
  6
CONTINUOUS
 10
129.6542759273
 20
168.2255488505
 11
128.6996817727
 21
169.1801430051
  0
LINE
  8
LAY0001
 62
7
  6
CONTINUOUS
 10
128.1512540775
 20
170.1873502285
 11
128.471332733
 21
169.867271573
  0
LINE
  8
LAY0001
 62
7
  6
CONTINUOUS
 10
128.5269985794
 20
169.8116057266
 11
128.5965808873
 21
169.7420234187
  0
LINE
  8
LAY0001
 62
7
  6
CONTINUOUS
 10
128.7212637954
 20
169.8667063267
 11
128.2759369856
 21
170.3120331365
  0
LINE
  8
LAY0001
 62
7
  6
CONTINUOUS
 10
128.4754295813
 20
170.5115257323
 11
128.9207563911
 21
170.0661989225
  0
LINE
  8
LAY0001
 62
7
  6
CONTINUOUS
 10
129.059921046
 20
169.9270342676
 11
129.1295033539
 21
169.8574519597
  0
LINE
  8
LAY0001
 62
7
  6
CONTINUOUS
 10
129.2541859766
 20
169.9821345823
 11
129.1846036686
 21
170.0517168903
  0
LINE
  8
LAY0001
 62
7
  6
CONTINUOUS
 10
129.0454390138
 20
170.1908815451
 11
128.600112204
 21
170.6362083549
  0
LINE
  8
LAY0001
 62
7
  6
CONTINUOUS
 10
129.5128545711
 20
169.9933158034
 11
130.2906720304
 21
169.2154983441
  0
LINE
  8
LAY0001
 62
7
  6
CONTINUOUS
 10
130.8563574554
 20
168.6498129192
 11
131.1392001678
 21
168.3669702067
  0
LINE
  8
LAY0001
 62
7
  6
CONTINUOUS
 10
128.9608097225
 20
170.7742424685
 11
129.1834731371
 21
170.5515790539
  0
LINE
  8
LAY0001
 62
7
  6
CONTINUOUS
 10
129.3081557598
 20
170.6762616765
 11
129.266406375
 21
170.7180110613
  0
LINE
  8
LAY0001
 62
7
  6
CONTINUOUS
 10
129.2107405092
 20
170.7736769272
 11
129.1272417396
 21
170.8571756967
  0
LINE
  8
LAY0001
 62
7
  6
CONTINUOUS
 10
131.7402409318
 20
168.9680109707
 11
130.1138953351
 21
170.5943565674
  0
LINE
  8
LAY0001
 62
7
  6
CONTINUOUS
 10
129.5842236919
 20
171.3976564379
 11
129.6120566248
 21
171.369823505
  0
LINE
  8
LAY0001
 62
7
  6
CONTINUOUS
 10
130.2553166913
 20
170.7357779237
 11
131.8816622881
 21
169.109432327
  0
LINE
  8
LAY0001
 62
7
  6
CONTINUOUS
 10
129.959402795
 20
171.2718428654
 11
129.9315698719
 21
171.2996757886
  0
LINE
  8
LAY0001
 62
7
  6
CONTINUOUS
 10
129.7645723133
 20
171.4666733472
 11
129.7228229285
 21
171.5084227319
  0
LINE
  8
LAY0001
 62
7
  6
CONTINUOUS
 10
129.7970673505
 20
171.8331635015
 11
130.0753966213
 21
171.5548342307
  0
LINE
  8
LAY0001
 62
7
  6
CONTINUOUS
 10
130.2000793866
 20
171.6795169961
 11
129.9217501159
 21
171.9578462668
  0
LINE
  8
LAY0001
 62
7
  6
CONTINUOUS
 10
132.4827030521
 20
169.710473091
 11
131.7048855928
 21
170.4882905503
  0
LINE
  8
LAY0001
 62
7
  6
CONTINUOUS
 10
131.1392001678
 20
171.0539759752
 11
130.8563574554
 21
171.3368186877
  0
LINE
  8
LAY0001
 62
7
  6
CONTINUOUS
 10
130.3706082423
 20
172.4067043933
 11
130.6906868978
 21
172.0866257378
  0
LINE
  8
LAY0001
 62
7
  6
CONTINUOUS
 10
130.7463527442
 20
172.0309598914
 11
131.0246820149
 21
171.7526306207
  0
LINE
  8
LAY0001
 62
7
  6
CONTINUOUS
 10
131.1493648516
 20
171.8773134573
 11
130.495291079
 21
172.5313872299
  0
LINE
  8
LAY0001
 62
7
  6
CONTINUOUS
 10
132.3412816958
 20
171.4782400439
 11
133.2958758504
 21
170.5236458893
  0
LINE
  8
LAY0001
 62
7
  6
CONTINUOUS
 10
131.5629012302
 20
173.2093364177
 11
131.604650615
 21
173.167587033
  0
LINE
  8
LAY0001
 62
7
  6
CONTINUOUS
 10
133.8969166145
 20
171.1246866533
 11
132.9776777989
 21
172.0439254689
  0
LINE
  8
0
 62
7
  6
CONTINUOUS
 10
62.8652009521
 20
242.0517390436
 11
64.9805161528
 21
239.8353243774
  0
LINE
  8
0
 62
7
  6
CONTINUOUS
 10
65.3196161283
 20
240.1589566578
 11
63.7992332757
 21
241.7520047537
  0
LINE
  8
0
 62
7
  6
CONTINUOUS
 10
63.5348188988
 20
242.0290565627
 11
63.2043009276
 21
242.375371324
  0
LINE
  8
0
 62
7
  6
CONTINUOUS
 10
65.2844073317
 20
242.640028932
 11
66.5403758073
 21
241.3240326451
  0
LINE
  8
0
 62
7
  6
CONTINUOUS
 10
64.4965155729
 20
245.5293141522
 11
64.8107816257
 21
245.1681869015
  0
LINE
  8
0
 62
7
  6
CONTINUOUS
 10
65.4393139074
 20
244.4459321978
 11
67.4506168214
 21
242.134717591
  0
LINE
  8
0
 62
7
  6
CONTINUOUS
 10
67.804220495
 20
242.4424363537
 11
65.7929175809
 21
244.7536509605
  0
LINE
  8
0
 62
7
  6
CONTINUOUS
 10
65.1643852992
 20
245.4759056642
 11
64.8501192464
 21
245.8370329149
  0
LINE
  8
0
 62
7
  6
CONTINUOUS
 10
69.499330643
 20
249.4607729569
 11
71.9378501194
 21
245.6787598999
  0
LINE
  8
0
 62
7
  6
CONTINUOUS
 10
72.4106017515
 20
245.9835748344
 11
71.2691670938
 21
247.753878833
  0
LINE
  8
0
 62
7
  6
CONTINUOUS
 10
70.9578667722
 20
248.2366889529
 11
70.2833825967
 21
249.2827777715
  0
LINE
  8
0
 62
7
  6
CONTINUOUS
 10
73.2027663156
 20
251.7709587202
 11
75.4357998344
 21
247.8640979211
  0
LINE
  8
0
 62
7
  6
CONTINUOUS
 10
75.8427648114
 20
248.0967057567
 11
73.6097312927
 21
252.0035665559
  0
LINE
  8
0
 62
7
  6
CONTINUOUS
 10
76.2997581242
 20
249.8878495665
 11
76.2131098247
 21
250.0586132602
  0
LINE
  8
0
 62
7
  6
CONTINUOUS
 10
76.1234149575
 20
250.4425616883
 11
76.0800908078
 21
250.5279435351
  0
LINE
  8
0
 62
7
  6
CONTINUOUS
 10
87.1482791821
 20
255.8755886959
 11
87.4593293416
 21
254.473507182
  0
LINE
  8
0
 62
7
  6
CONTINUOUS
 10
88.0084779488
 20
254.5953351642
 11
87.6974277893
 21
255.9974166782
  0
LINE
  8
0
 62
7
  6
CONTINUOUS
 10
91.6172885861
 20
258.3828741749
 11
92.1931145364
 21
253.9198679599
  0
LINE
  8
0
 62
7
  6
CONTINUOUS
 10
92.7509903132
 20
253.9918462037
 11
92.24867405
 21
257.8851070124
  0
LINE
  8
0
 62
7
  6
CONTINUOUS
 10
99.5709958344
 20
256.6863227567
 11
99.546839045
 21
257.2602826435
  0
LINE
  8
0
 62
7
  6
CONTINUOUS
 10
100.0342376147
 20
254.5975718608
 11
100.0100808226
 21
255.1715318146
  0
LINE
  8
0
 62
7
  6
CONTINUOUS
 10
99.8691661984
 20
258.5196316232
 11
99.8450094091
 21
259.09359151
  0
LINE
  8
0
 62
7
  6
CONTINUOUS
 10
108.9981379303
 20
253.8705133972
 11
109.0749928924
 21
254.439817265
  0
LINE
  8
0
 62
7
  6
CONTINUOUS
 10
109.5105043564
 20
257.6658726049
 11
109.6001684684
 21
258.3300603732
  0
LINE
  8
0
 62
7
  6
CONTINUOUS
 10
115.1720925449
 20
255.9625635776
 11
115.1232461877
 21
255.7774087694
  0
LINE
  8
0
 62
7
  6
CONTINUOUS
 10
114.8367507633
 20
252.4862951884
 11
114.9588665022
 21
252.9491816255
  0
LINE
  8
0
 62
7
  6
CONTINUOUS
 10
115.66713774
 20
255.6339227791
 11
115.7159840971
 21
255.8190775874
  0
LINE
  8
0
 62
7
  6
CONTINUOUS
 10
123.8624487179
 20
252.6315047802
 11
123.7423504187
 21
252.3705834738
  0
LINE
  8
0
 62
7
  6
CONTINUOUS
 10
124.2132881651
 20
252.0484174751
 11
124.3734191934
 21
252.3963124691
  0
LINE
  8
0
 62
7
  6
CONTINUOUS
 10
128.5818027
 20
248.2360249814
 11
128.2778331944
 21
247.631395708
  0
LINE
  8
0
 62
7
  6
CONTINUOUS
 10
130.8091892379
 20
246.3472268568
 11
130.6458658722
 21
246.1109455547
  0
LINE
  8
0
 62
7
  6
CONTINUOUS
 10
130.977020401
 20
245.7656520562
 11
131.2492260869
 21
246.1594543367
  0
LINE
  8
0
 62
7
  6
CONTINUOUS
 10
63.899963509
 20
239.5499501032
 11
62.0574295135
 21
241.2238645823
  0
LINE
  8
0
 62
7
  6
CONTINUOUS
 10
66.8794755888
 20
241.6476647403
 11
65.6235071131
 21
242.9636610272
  0
LINE
  8
0
 62
7
  6
CONTINUOUS
 10
75.7950932073
 20
249.846504771
 11
76.1386418121
 21
249.3766355819
  0
LINE
  8
0
 62
7
  6
CONTINUOUS
 10
73.3177568985
 20
249.0747431617
 11
73.0064565769
 21
249.5575532817
  0
LINE
  8
0
 62
7
  6
CONTINUOUS
 10
72.6471407574
 20
250.8068524442
 11
72.3358404358
 21
251.2896625642
  0
LINE
  8
0
 62
7
  6
CONTINUOUS
 10
77.7924310932
 20
251.5041783179
 11
77.8790793927
 21
251.3334146242
  0
LINE
  8
0
 62
7
  6
CONTINUOUS
 10
78.4703926699
 20
251.2039956064
 11
78.2970960101
 21
251.5455231134
  0
LINE
  8
0
 62
7
  6
CONTINUOUS
 10
87.4593293416
 20
254.473507182
 11
87.6545381846
 21
254.0264515396
  0
LINE
  8
0
 62
7
  6
CONTINUOUS
 10
90.2601219876
 20
256.5659474171
 11
90.5711721471
 21
255.1638659032
  0
LINE
  8
0
 62
7
  6
CONTINUOUS
 10
91.1203207542
 20
255.2856938855
 11
90.8092705947
 21
256.6877753994
  0
LINE
  8
0
 62
7
  6
CONTINUOUS
 10
94.7785832363
 20
258.7907507067
 11
95.2686478765
 21
254.9924475322
  0
LINE
  8
0
 62
7
  6
CONTINUOUS
 10
95.9122849634
 20
254.3997227355
 11
95.3364590131
 21
258.8627289504
  0
LINE
  8
0
 62
7
  6
CONTINUOUS
 10
111.7638876815
 20
274.1424135023
 11
111.5770677448
 21
277.7071502489
  0
LINE
  8
0
 62
7
  6
CONTINUOUS
 10
112.4507658643
 20
148.5708374035
 11
112.4507658643
 21
150.5708374035
  0
LINE
  8
0
 62
7
  6
CONTINUOUS
 10
115.7159840971
 20
255.8190775874
 11
115.7230294657
 21
256.213300652
  0
LINE
  8
0
 62
7
  6
CONTINUOUS
 10
95.9405103393
 20
130.9093454826
 11
97.7811503583
 21
141.3481337588
  0
LINE
  8
0
 62
7
  6
CONTINUOUS
 10
128.6316720859
 20
247.1540307703
 11
128.7178734973
 21
247.4436206374
  0
LINE
  8
0
 62
7
  6
CONTINUOUS
 10
145.0340048035
 20
259.1650287778
 11
146.6545823657
 21
262.3455913265
  0
LINE
  8
0
 62
7
  6
CONTINUOUS
 10
59.7140240417
 20
143.0332418818
 11
66.5274591954
 21
151.1531777043
  0
LINE
  8
0
 62
7
  6
CONTINUOUS
 10
166.3580790558
 20
229.5591745631
 11
169.3518216678
 21
231.5033337475
  0
LINE
  8
0
 62
7
  6
CONTINUOUS
 10
34.4029148177
 20
171.6460873053
 11
44.3634906591
 21
175.2714404277
  0
LINE
  8
0
 62
7
  6
CONTINUOUS
 10
30.8791897655
 20
215.8839592206
 11
27.3144530189
 21
215.697139284
  0
LINE
  8
0
 62
7
  6
CONTINUOUS
 10
174.1122577852
 20
200.0605818784
 11
163.673469509
 21
201.9012218974
  0
LINE
  8
0
 62
7
  6
CONTINUOUS
 10
62.1744021782
 20
238.0777267819
 11
61.8987620606
 21
238.201480431
  0
LINE
  8
0
 62
7
  6
CONTINUOUS
 10
45.85657449
 20
249.1540763426
 11
42.6760119413
 21
250.7746539049
  0
LINE
  8
0
 62
7
  6
CONTINUOUS
 10
61.5835618135
 20
237.8545289124
 11
61.9300686616
 21
237.6663938911
  0
LINE
  8
0
 62
7
  6
CONTINUOUS
 10
64.2464702827
 20
239.3618150249
 11
63.899963509
 21
239.5499501032
  0
LINE
  8
0
 62
7
  6
CONTINUOUS
 10
64.886069249
 20
242.921617126
 11
65.2844073317
 21
242.640028932
  0
LINE
  8
0
 62
7
  6
CONTINUOUS
 10
65.6235071131
 20
242.9636610272
 11
65.2251694185
 21
243.2452495916
  0
LINE
  8
0
 62
7
  6
CONTINUOUS
 10
161.988361386
 20
163.8340955808
 11
153.8684255635
 21
170.6475307346
  0
LINE
  8
0
 62
7
  6
CONTINUOUS
 10
76.5133323662
 20
249.674124947
 11
76.2997581242
 21
249.8878495665
  0
LINE
  8
0
 62
7
  6
CONTINUOUS
 10
78.2970960101
 20
251.5455231134
 11
78.0401957049
 21
251.8446286088
  0
LINE
  8
0
 62
7
  6
CONTINUOUS
 10
75.4624287047
 20
270.4781505949
 11
73.5182695203
 21
273.471893207
  0
LINE
  8
LAY0001
 62
7
  6
CONTINUOUS
 10
131.773979189
 20
173.1977509521
 11
131.7154169633
 21
173.3061863045
  0
LINE
  8
0
 62
7
  6
CONTINUOUS
 10
88.1829501164
 20
254.2417516141
 11
88.0084779488
 21
254.5953351642
  0
LINE
  8
0
 62
7
  6
CONTINUOUS
 10
90.08564982
 20
256.9195309673
 11
90.2601219876
 21
256.5659474171
  0
LINE
  8
0
 62
7
  6
CONTINUOUS
 10
90.8092705947
 20
256.6877753994
 11
90.6140616937
 21
257.1348313037
  0
LINE
  8
0
 62
7
  6
CONTINUOUS
 10
133.3755159625
 20
138.5229863568
 11
129.7501628401
 21
148.4835621982
  0
LINE
  8
0
 62
7
  6
CONTINUOUS
 10
123.8973864586
 20
252.9316239633
 11
123.8624487179
 21
252.6315047802
  0
LINE
  8
0
 62
7
  6
CONTINUOUS
 10
124.3734191934
 20
252.3963124691
 11
124.408356934
 21
252.6964316522
  0
LINE
  8
0
 62
7
  6
CONTINUOUS
 10
126.8608437674
 20
247.0681715254
 11
127.788387867
 21
251.7200160683
  0
LINE
  8
0
 62
7
  6
CONTINUOUS
 10
126.6160445111
 20
248.5307142457
 11
126.3722940337
 21
247.3469642938
  0
LINE
  8
0
 62
7
  6
CONTINUOUS
 10
127.2728729567
 20
251.5732476387
 11
126.7244371282
 21
248.9098085643
  0
LINE
  8
0
 62
7
  6
CONTINUOUS
 10
128.2778331944
 20
247.631395708
 11
128.1598679251
 21
247.1309787927
  0
LINE
  8
0
 62
7
  6
CONTINUOUS
 10
131.2492260869
 20
246.1594543367
 11
131.3671948483
 21
246.6598687566
  0
LINE
  8
0
 62
7
  6
CONTINUOUS
 10
130.8953907256
 20
246.6368168342
 11
130.8091892379
 21
246.3472268568
  0
LINE
  8
0
 62
7
  6
CONTINUOUS
 10
132.0749295858
 20
247.6837546197
 11
132.1611309972
 21
247.9733444868
  0
LINE
  8
0
 62
7
  6
CONTINUOUS
 10
61.9300686616
 20
237.6663938911
 11
62.1348420872
 21
237.6070215567
  0
LINE
  8
0
 62
7
  6
CONTINUOUS
 10
63.6556298807
 20
239.1386171892
 11
64.1360435244
 21
238.9554912165
  0
LINE
  8
0
 62
7
  6
CONTINUOUS
 10
65.2251694185
 20
243.2452495916
 11
64.9590385243
 21
243.3883118812
  0
LINE
  8
0
 62
7
  6
CONTINUOUS
 10
76.1386418121
 20
249.3766355819
 11
76.4791439404
 21
249.1199509478
  0
LINE
  8
0
 62
7
  6
CONTINUOUS
 10
76.6835843719
 20
249.5457831453
 11
76.5133323662
 21
249.674124947
  0
LINE
  8
0
 62
7
  6
CONTINUOUS
 10
87.6545381846
 20
254.0264515396
 11
87.920533738
 21
253.6931722778
  0
LINE
  8
LAY0001
 62
7
  6
CONTINUOUS
 10
130.8032189215
 20
172.6723175139
 11
130.8339481674
 21
172.5917150476
  0
LINE
  8
LAY0001
 62
7
  6
CONTINUOUS
 10
131.604650615
 20
173.167587033
 11
131.6353799153
 21
173.0869846016
  0
LINE
  8
LAY0001
 62
7
  6
CONTINUOUS
 10
129.6120566248
 20
171.369823505
 11
129.6288693994
 21
171.3031375101
  0
LINE
  8
LAY0001
 62
7
  6
CONTINUOUS
 10
130.9586310041
 20
172.7163978843
 11
130.9418181484
 21
172.7830838176
  0
LINE
  8
LAY0001
 62
7
  6
CONTINUOUS
 10
126.8162652455
 20
168.6296979915
 11
126.8133687897
 21
168.6824673821
  0
LINE
  8
LAY0001
 62
7
  6
CONTINUOUS
 10
127.5875329417
 20
168.9556388585
 11
127.5904293975
 21
168.9028694679
  0
LINE
  8
LAY0001
 62
7
  6
CONTINUOUS
 10
129.0408467852
 20
170.9934441568
 11
129.0437429604
 21
170.9406744759
  0
LINE
  8
LAY0001
 62
7
  6
CONTINUOUS
 10
129.1272417396
 20
170.8571756967
 11
129.1243455693
 21
170.9099453727
  0
LINE
  8
LAY0001
 62
7
  6
CONTINUOUS
 10
129.7703650821
 20
171.3611344232
 11
129.7645723133
 21
171.4666733472
  0
LINE
  8
LAY0001
 62
7
  6
CONTINUOUS
 10
129.8068871065
 20
171.1749930233
 11
129.8097834195
 21
171.12222349
  0
LINE
  8
LAY0001
 62
7
  6
CONTINUOUS
 10
129.9622992507
 20
171.2190734748
 11
129.959402795
 21
171.2718428654
  0
LINE
  8
0
 62
7
  6
CONTINUOUS
 10
128.1598679251
 20
247.1309787927
 11
128.1734622209
 21
246.6560162143
  0
LINE
  8
0
 62
7
  6
CONTINUOUS
 10
128.6225855302
 20
246.8111371633
 11
128.6316720859
 21
247.1540307703
  0
LINE
  8
LAY0001
 62
7
  6
CONTINUOUS
 10
126.6718732449
 20
168.6244706166
 11
126.6637496996
 21
168.532848292
  0
LINE
  8
0
 62
7
  6
CONTINUOUS
 10
62.513082404
 20
238.0233634014
 11
62.1744021782
 21
238.0777267819
  0
LINE
  8
0
 62
7
  6
CONTINUOUS
 10
64.451243839
 20
239.3024428096
 11
64.2464702827
 21
239.3618150249
  0
LINE
  8
0
 62
7
  6
CONTINUOUS
 10
77.495253145
 20
251.6754810454
 11
77.7924310932
 21
251.5041783179
  0
LINE
  8
0
 62
7
  6
CONTINUOUS
 10
88.4282089799
 20
254.00194451
 11
88.1829501164
 21
254.2417516141
  0
LINE
  8
0
 62
7
  6
CONTINUOUS
 10
95.2686478765
 20
254.9924475322
 11
92.4541022514
 21
258.4908415406
  0
LINE
  8
0
 62
7
  6
CONTINUOUS
 10
90.6140616937
 20
257.1348313037
 11
90.3480661548
 21
257.4681104999
  0
LINE
  8
0
 62
7
  6
CONTINUOUS
 10
92.24867405
 20
257.8851070124
 11
95.0754712981
 21
254.2917553698
  0
LINE
  8
LAY0001
 62
7
  6
CONTINUOUS
 10
131.6353799153
 20
173.0869846016
 11
131.6382762818
 21
173.0342151217
  0
LINE
  8
LAY0001
 62
7
  6
CONTINUOUS
 10
131.7797719109
 20
173.0922119814
 11
131.773979189
 21
173.1977509521
  0
LINE
  8
0
 62
7
  6
CONTINUOUS
 10
132.1611309972
 20
247.9733444868
 11
132.1475366824
 21
248.4483070377
  0
LINE
  8
0
 62
7
  6
CONTINUOUS
 10
131.6984133921
 20
248.2931861163
 11
131.6893268745
 21
247.9502925645
  0
LINE
  8
LAY0001
 62
7
  6
CONTINUOUS
 10
127.7319249374
 20
168.9608662383
 11
127.7400487729
 21
169.0524888434
  0
LINE
  8
LAY0001
 62
7
  6
CONTINUOUS
 10
128.471332733
 20
169.867271573
 11
128.4492927213
 21
169.7895657149
  0
LINE
  8
0
 62
7
  6
CONTINUOUS
 10
62.1348420872
 20
237.6070215567
 11
62.5365623127
 21
237.6220484751
  0
LINE
  8
0
 62
7
  6
CONTINUOUS
 10
76.4791439404
 20
249.1199509478
 11
76.7329996675
 21
249.0340310083
  0
LINE
  8
0
 62
7
  6
CONTINUOUS
 10
77.0643660566
 20
249.4169022501
 11
76.6835843719
 21
249.5457831453
  0
LINE
  8
0
 62
7
  6
CONTINUOUS
 10
78.0401957049
 20
251.8446286088
 11
77.6160899007
 21
252.0588912911
  0
LINE
  8
0
 62
7
  6
CONTINUOUS
 10
78.6722153448
 20
252.9857607109
 11
80.4710349818
 21
252.0727079312
  0
LINE
  8
0
 62
7
  6
CONTINUOUS
 10
82.7895412006
 20
251.3749097004
 11
80.9907195811
 21
252.287961659
  0
LINE
  8
0
 62
7
  6
CONTINUOUS
 10
80.8407940655
 20
251.9149639675
 11
82.2698566013
 21
251.1596559726
  0
LINE
  8
0
 62
7
  6
CONTINUOUS
 10
80.6209604461
 20
252.4457057465
 11
79.191899944
 21
253.2010144387
  0
LINE
  8
0
 62
7
  6
CONTINUOUS
 10
87.920533738
 20
253.6931722778
 11
88.3695802165
 21
253.4005026861
  0
LINE
  8
0
 62
7
  6
CONTINUOUS
 10
89.8403908983
 20
257.1593383333
 11
90.08564982
 21
256.9195309673
  0
LINE
  8
0
 62
7
  6
CONTINUOUS
 10
115.0640675602
 20
256.2881233346
 11
115.1720925449
 21
255.9625635776
  0
LINE
  8
0
 62
7
  6
CONTINUOUS
 10
124.408356934
 20
252.6964316522
 11
124.3130026124
 21
253.1619225581
  0
LINE
  8
LAY0001
 62
7
  6
CONTINUOUS
 10
128.5049585677
 20
169.7338998685
 11
128.5269985794
 21
169.8116057266
  0
LINE
  8
LAY0001
 62
7
  6
CONTINUOUS
 10
129.1243455693
 20
170.9099453727
 11
129.1574058625
 21
171.0265044549
  0
LINE
  8
LAY0001
 62
7
  6
CONTINUOUS
 10
129.6288693994
 20
171.3031375101
 11
129.606829245
 21
171.2254315093
  0
LINE
  8
LAY0001
 62
7
  6
CONTINUOUS
 10
129.7483249471
 20
171.2834284029
 11
129.7703650821
 21
171.3611344232
  0
LINE
  8
LAY0001
 62
7
  6
CONTINUOUS
 10
129.9402589536
 20
171.1413673313
 11
129.9622992507
 21
171.2190734748
  0
LINE
  8
LAY0001
 62
7
  6
CONTINUOUS
 10
130.8362792196
 20
172.7888765913
 11
130.8032189215
 21
172.6723175139
  0
LINE
  8
LAY0001
 62
7
  6
CONTINUOUS
 10
130.6906868978
 20
172.0866257378
 11
130.668646672
 21
172.0089196656
  0
LINE
  8
LAY0001
 62
7
  6
CONTINUOUS
 10
130.7243125184
 20
171.9532538193
 11
130.7463527442
 21
172.0309598914
  0
LINE
  8
LAY0001
 62
7
  6
CONTINUOUS
 10
131.6382762818
 20
173.0342151217
 11
131.6052159788
 21
172.9176560492
  0
LINE
  8
LAY0001
 62
7
  6
CONTINUOUS
 10
131.7577317119
 20
173.014505936
 11
131.7797719109
 21
173.0922119814
  0
LINE
  8
LAY0001
 62
7
  6
CONTINUOUS
 10
128.4492927213
 20
169.7895657149
 11
128.4023159567
 21
169.686923104
  0
LINE
  8
LAY0001
 62
7
  6
CONTINUOUS
 10
129.0878235461
 20
171.0960867714
 11
129.0408467852
 21
170.9934441568
  0
LINE
  8
LAY0001
 62
7
  6
CONTINUOUS
 10
128.4579818031
 20
169.6312572576
 11
128.5049585677
 21
169.7338998685
  0
LINE
  8
LAY0001
 62
7
  6
CONTINUOUS
 10
130.9418181484
 20
172.7830838176
 11
130.9887949487
 21
172.8857264642
  0
LINE
  8
LAY0001
 62
7
  6
CONTINUOUS
 10
130.668646672
 20
172.0089196656
 11
130.6216699788
 21
171.9062771261
  0
LINE
  8
LAY0001
 62
7
  6
CONTINUOUS
 10
130.6773358252
 20
171.8506112797
 11
130.7243125184
 21
171.9532538193
  0
LINE
  8
LAY0001
 62
7
  6
CONTINUOUS
 10
131.7107549385
 20
172.9118633162
 11
131.7577317119
 21
173.014505936
  0
LINE
  8
LAY0001
 62
7
  6
CONTINUOUS
 10
126.7437864733
 20
168.7520496986
 11
126.6718732449
 21
168.6244706166
  0
LINE
  8
LAY0001
 62
7
  6
CONTINUOUS
 10
126.8133687897
 20
168.6824673821
 11
126.8493255484
 21
168.746257064
  0
LINE
  8
LAY0001
 62
7
  6
CONTINUOUS
 10
127.5904293975
 20
168.9028694679
 11
127.5544726388
 21
168.839079786
  0
LINE
  8
LAY0001
 62
7
  6
CONTINUOUS
 10
127.6600117054
 20
168.8332871599
 11
127.7319249374
 21
168.9608662383
  0
LINE
  8
LAY0001
 62
7
  6
CONTINUOUS
 10
129.606829245
 20
171.2254315093
 11
129.570872629
 21
171.1616419701
  0
LINE
  8
LAY0001
 62
7
  6
CONTINUOUS
 10
129.6764115724
 20
171.1558491819
 11
129.7483249471
 21
171.2834284029
  0
LINE
  8
LAY0001
 62
7
  6
CONTINUOUS
 10
129.8097834195
 20
171.12222349
 11
129.7738268035
 21
171.0584339508
  0
LINE
  8
LAY0001
 62
7
  6
CONTINUOUS
 10
130.9081925193
 20
172.9164557446
 11
130.8362792196
 21
172.7888765913
  0
LINE
  8
LAY0001
 62
7
  6
CONTINUOUS
 10
129.9043023376
 20
171.0775777922
 11
129.9402589536
 21
171.1413673313
  0
LINE
  8
LAY0001
 62
7
  6
CONTINUOUS
 10
131.6052159788
 20
172.9176560492
 11
131.5692593093
 21
172.8538664565
  0
LINE
  8
LAY0001
 62
7
  6
CONTINUOUS
 10
129.1574058625
 20
171.0265044549
 11
129.2542556998
 21
171.1790201483
  0
LINE
  8
LAY0001
 62
7
  6
CONTINUOUS
 10
126.8493255484
 20
168.746257064
 11
126.9351552372
 21
168.8599196857
  0
LINE
  8
LAY0001
 62
7
  6
CONTINUOUS
 10
127.5544726388
 20
168.839079786
 11
127.4686429452
 21
168.7254171692
  0
LINE
  8
LAY0001
 62
7
  6
CONTINUOUS
 10
128.4023159567
 20
169.686923104
 11
128.3164859778
 21
169.5732602018
  0
LINE
  8
LAY0001
 62
7
  6
CONTINUOUS
 10
129.570872629
 20
171.1616419701
 11
129.4850427927
 21
171.0479792107
  0
LINE
  8
LAY0001
 62
7
  6
CONTINUOUS
 10
128.3721518241
 20
169.5175943555
 11
128.4579818031
 21
169.6312572576
  0
LINE
  8
LAY0001
 62
7
  6
CONTINUOUS
 10
129.1985898486
 20
171.2346859995
 11
129.0878235461
 21
171.0960867714
  0
LINE
  8
LAY0001
 62
7
  6
CONTINUOUS
 10
126.8794893859
 20
168.9155855369
 11
126.7437864733
 21
168.7520496986
  0
LINE
  8
LAY0001
 62
7
  6
CONTINUOUS
 10
131.3210939774
 20
173.3015242772
 11
131.2323678269
 21
173.2406310522
  0
LINE
  8
LAY0001
 62
7
  6
CONTINUOUS
 10
131.1494343965
 20
173.074198845
 11
131.3268867178
 21
173.1959853102
  0
LINE
  8
LAY0001
 62
7
  6
CONTINUOUS
 10
129.5256615252
 20
171.5060918249
 11
129.4618718421
 21
171.4701350674
  0
LINE
  8
LAY0001
 62
7
  6
CONTINUOUS
 10
131.198107255
 20
172.4270485559
 11
131.3256864047
 21
172.4989618592
  0
LINE
  8
LAY0001
 62
7
  6
CONTINUOUS
 10
129.4038750753
 20
171.3286395238
 11
129.5314541585
 21
171.400552751
  0
LINE
  8
LAY0001
 62
7
  6
CONTINUOUS
 10
130.4221773831
 20
171.7067845303
 11
130.3583878439
 21
171.6708279143
  0
LINE
  8
LAY0001
 62
7
  6
CONTINUOUS
 10
131.4237365997
 20
173.3485010482
 11
131.3210939774
 21
173.3015242772
  0
LINE
  8
LAY0001
 62
7
  6
CONTINUOUS
 10
131.2949571328
 20
172.5795642801
 11
131.1923144862
 21
172.5325874798
  0
LINE
  8
LAY0001
 62
7
  6
CONTINUOUS
 10
130.3003909308
 20
171.5293322316
 11
130.4030335417
 21
171.5763089962
  0
LINE
  8
LAY0001
 62
7
  6
CONTINUOUS
 10
129.3278651328
 20
170.5568064337
 11
129.4305077437
 21
170.6037831983
  0
LINE
  8
LAY0001
 62
7
  6
CONTINUOUS
 10
127.3840133636
 20
169.3087778121
 11
127.2813707503
 21
169.26180105
  0
LINE
  8
LAY0001
 62
7
  6
CONTINUOUS
 10
127.6066767831
 20
169.0861143926
 11
127.4651812237
 21
169.0281176417
  0
LINE
  8
LAY0001
 62
7
  6
CONTINUOUS
 10
126.7971214138
 20
168.4992224477
 11
126.9386169538
 21
168.5572192181
  0
LINE
  8
0
 62
7
  6
CONTINUOUS
 10
62.5365623127
 20
237.6220484751
 11
62.8674158794
 21
237.7014567573
  0
LINE
  8
0
 62
7
  6
CONTINUOUS
 10
123.1316695064
 20
251.4922691512
 11
123.5924133777
 21
251.596395938
  0
LINE
  8
0
 62
7
  6
CONTINUOUS
 10
129.1216422595
 20
247.8628747869
 11
129.3847613515
 21
247.9137834053
  0
LINE
  8
0
 62
7
  6
CONTINUOUS
 10
130.0878603
 20
245.79830371
 11
129.7476192535
 21
245.8007036566
  0
LINE
  8
0
 62
7
  6
CONTINUOUS
 10
129.3847613515
 20
247.9137834053
 11
129.725002398
 21
247.9113834587
  0
LINE
  8
0
 62
7
  6
CONTINUOUS
 10
64.6182222255
 20
242.9306902665
 11
64.886069249
 21
242.921617126
  0
LINE
  8
0
 62
7
  6
CONTINUOUS
 10
64.9590385243
 20
243.3883118812
 11
64.6911915008
 21
243.3973850217
  0
LINE
  8
0
 62
7
  6
CONTINUOUS
 10
129.5525285044
 20
245.3535977536
 11
130.1014545958
 21
245.3233411316
  0
LINE
  8
0
 62
7
  6
CONTINUOUS
 10
76.7329996675
 20
249.0340310083
 11
77.0704571797
 21
248.9905320048
  0
LINE
  8
0
 62
7
  6
CONTINUOUS
 10
88.7442566487
 20
253.8759142513
 11
88.4282089799
 21
254.00194451
  0
LINE
  8
0
 62
7
  6
CONTINUOUS
 10
90.3480661548
 20
257.4681104999
 11
89.8990196836
 21
257.760780059
  0
LINE
  8
0
 62
7
  6
CONTINUOUS
 10
115.7230294657
 20
256.213300652
 11
115.4581290582
 21
256.6792667117
  0
LINE
  8
0
 62
7
  6
CONTINUOUS
 10
128.1734622209
 20
246.6560162143
 11
128.3957344916
 21
246.1532018271
  0
LINE
  8
0
 62
7
  6
CONTINUOUS
 10
128.745062089
 20
246.4936954805
 11
128.6225855302
 21
246.8111371633
  0
LINE
  8
0
 62
7
  6
CONTINUOUS
 10
130.7275595625
 20
247.2183916348
 11
130.8500361213
 21
246.900949952
  0
LINE
  8
0
 62
7
  6
CONTINUOUS
 10
123.8071271254
 20
253.1839693737
 11
123.8973864586
 21
252.9316239633
  0
LINE
  8
0
 62
7
  6
CONTINUOUS
 10
130.8500361213
 20
246.900949952
 11
130.8953907256
 21
246.6368168342
  0
LINE
  8
0
 62
7
  6
CONTINUOUS
 10
131.3671948483
 20
246.6598687566
 11
131.2991594115
 21
247.0560708734
  0
LINE
  8
LAY0001
 62
7
  6
CONTINUOUS
 10
131.6498617123
 20
172.8231371668
 11
131.7107549385
 21
172.9118633162
  0
LINE
  8
LAY0001
 62
7
  6
CONTINUOUS
 10
129.7738268035
 20
171.0584339508
 11
129.6879969672
 21
170.9447711913
  0
LINE
  8
LAY0001
 62
7
  6
CONTINUOUS
 10
130.6216699788
 20
171.9062771261
 11
130.5358401425
 21
171.7926143666
  0
LINE
  8
LAY0001
 62
7
  6
CONTINUOUS
 10
130.5915059889
 20
171.7369485202
 11
130.6773358252
 21
171.8506112797
  0
LINE
  8
LAY0001
 62
7
  6
CONTINUOUS
 10
131.5692593093
 20
172.8538664565
 11
131.4834295087
 21
172.7402037328
  0
LINE
  8
LAY0001
 62
7
  6
CONTINUOUS
 10
127.5243087915
 20
168.6697513229
 11
127.6600117054
 21
168.8332871599
  0
LINE
  8
LAY0001
 62
7
  6
CONTINUOUS
 10
129.5407086585
 20
170.9923133448
 11
129.6764115724
 21
171.1558491819
  0
LINE
  8
LAY0001
 62
7
  6
CONTINUOUS
 10
131.5141588162
 20
172.6596013476
 11
131.6498617123
 21
172.8231371668
  0
LINE
  8
LAY0001
 62
7
  6
CONTINUOUS
 10
131.0688320064
 20
173.1049281574
 11
130.9081925193
 21
172.9164557446
  0
LINE
  8
LAY0001
 62
7
  6
CONTINUOUS
 10
130.9887949487
 20
172.8857264642
 11
131.1494343965
 21
173.074198845
  0
LINE
  8
LAY0001
 62
7
  6
CONTINUOUS
 10
129.7436628136
 20
170.8891053449
 11
129.9043023376
 21
171.0775777922
  0
LINE
  8
LAY0001
 62
7
  6
CONTINUOUS
 10
130.495291079
 20
172.5313872299
 11
130.3706082423
 21
172.4067043933
  0
LINE
  8
LAY0001
 62
7
  6
CONTINUOUS
 10
129.9217501159
 20
171.9578462668
 11
129.7970673505
 21
171.8331635015
  0
LINE
  8
LAY0001
 62
7
  6
CONTINUOUS
 10
129.3482092241
 20
171.384305375
 11
129.1985898486
 21
171.2346859995
  0
LINE
  8
LAY0001
 62
7
  6
CONTINUOUS
 10
128.9242877078
 20
170.9603838587
 11
128.7996047998
 21
170.8357009507
  0
LINE
  8
LAY0001
 62
7
  6
CONTINUOUS
 10
128.600112204
 20
170.6362083549
 11
128.4754295813
 21
170.5115257323
  0
LINE
  8
LAY0001
 62
7
  6
CONTINUOUS
 10
128.2759369856
 20
170.3120331365
 11
128.1512540775
 21
170.1873502285
  0
LINE
  8
LAY0001
 62
7
  6
CONTINUOUS
 10
127.7023959511
 20
169.738492102
 11
127.5777133284
 21
169.6138094794
  0
LINE
  8
LAY0001
 62
7
  6
CONTINUOUS
 10
127.0291087614
 20
169.0652049124
 11
126.8794893859
 21
168.9155855369
  0
LINE
  8
LAY0001
 62
7
  6
CONTINUOUS
 10
126.9351552372
 20
168.8599196857
 11
127.0847746127
 21
169.0095390611
  0
LINE
  8
LAY0001
 62
7
  6
CONTINUOUS
 10
129.2542556998
 20
171.1790201483
 11
129.4038750753
 21
171.3286395238
  0
LINE
  8
LAY0001
 62
7
  6
CONTINUOUS
 10
127.3648695271
 20
169.1783022731
 11
127.4895524351
 21
169.3029851812
  0
LINE
  8
LAY0001
 62
7
  6
CONTINUOUS
 10
130.8339481674
 20
172.5917150476
 11
130.9586310041
 21
172.7163978843
  0
LINE
  8
LAY0001
 62
7
  6
CONTINUOUS
 10
129.4850427927
 20
171.0479792107
 11
129.2107405092
 21
170.7736769272
  0
LINE
  8
LAY0001
 62
7
  6
CONTINUOUS
 10
129.266406375
 20
170.7180110613
 11
129.5407086585
 21
170.9923133448
  0
LINE
  8
LAY0001
 62
7
  6
CONTINUOUS
 10
131.1256285627
 20
172.5494003258
 11
131.000945726
 21
172.4247174891
  0
LINE
  8
LAY0001
 62
7
  6
CONTINUOUS
 10
129.9315698719
 20
171.2996757886
 11
129.8068871065
 21
171.1749930233
  0
LINE
  8
LAY0001
 62
7
  6
CONTINUOUS
 10
127.0389286601
 20
168.4070345769
 11
126.9142460374
 21
168.2823519542
  0
LINE
  8
LAY0001
 62
7
  6
CONTINUOUS
 10
129.6879969672
 20
170.9447711913
 11
129.5383775918
 21
170.7951518158
  0
LINE
  8
LAY0001
 62
7
  6
CONTINUOUS
 10
127.4686429452
 20
168.7254171692
 11
127.3190235697
 21
168.5757977937
  0
LINE
  8
LAY0001
 62
7
  6
CONTINUOUS
 10
127.374689416
 20
168.5201319474
 11
127.5243087915
 21
168.6697513229
  0
LINE
  8
LAY0001
 62
7
  6
CONTINUOUS
 10
128.2724056689
 20
169.4178482003
 11
128.3721518241
 21
169.5175943555
  0
LINE
  8
LAY0001
 62
7
  6
CONTINUOUS
 10
128.5965808873
 20
169.7420234187
 11
128.7212637954
 21
169.8667063267
  0
LINE
  8
LAY0001
 62
7
  6
CONTINUOUS
 10
128.9207563911
 20
170.0661989225
 11
129.0454390138
 21
170.1908815451
  0
LINE
  8
LAY0001
 62
7
  6
CONTINUOUS
 10
129.5940434381
 20
170.7394859695
 11
129.7436628136
 21
170.8891053449
  0
LINE
  8
LAY0001
 62
7
  6
CONTINUOUS
 10
130.491759691
 20
171.6372022224
 11
130.5915059889
 21
171.7369485202
  0
LINE
  8
LAY0001
 62
7
  6
CONTINUOUS
 10
129.1846036686
 20
170.0517168903
 11
129.059921046
 21
169.9270342676
  0
LINE
  8
LAY0001
 62
7
  6
CONTINUOUS
 10
129.1295033539
 20
169.8574519597
 11
129.2541859766
 21
169.9821345823
  0
LINE
  8
LAY0001
 62
7
  6
CONTINUOUS
 10
131.0246820149
 20
171.7526306207
 11
131.1493648516
 21
171.8773134573
  0
LINE
  8
LAY0001
 62
7
  6
CONTINUOUS
 10
131.5634642365
 20
172.0439254689
 11
131.3855077176
 21
171.8659689499
  0
LINE
  8
LAY0001
 62
7
  6
CONTINUOUS
 10
130.8563574554
 20
171.3368186877
 11
130.2553166913
 21
170.7357779237
  0
LINE
  8
LAY0001
 62
7
  6
CONTINUOUS
 10
130.1138953351
 20
170.5943565674
 11
129.5128545711
 21
169.9933158034
  0
LINE
  8
LAY0001
 62
7
  6
CONTINUOUS
 10
128.6996817727
 20
169.1801430051
 11
128.0986410087
 21
168.5791022411
  0
LINE
  8
LAY0001
 62
7
  6
CONTINUOUS
 10
127.9572196525
 20
168.4376808848
 11
127.3561788885
 21
167.8366401208
  0
LINE
  8
LAY0001
 62
7
  6
CONTINUOUS
 10
131.7048855928
 20
171.1953973315
 11
131.9877283053
 21
171.4782400439
  0
LINE
  8
LAY0001
 62
7
  6
CONTINUOUS
 10
130.2906720304
 20
168.5083915629
 11
130.0078293179
 21
168.2255488505
  0
LINE
  8
LAY0001
 62
7
  6
CONTINUOUS
 10
128.9825244852
 20
166.2102945241
 11
129.5835652492
 21
166.8113352881
  0
LINE
  8
LAY0001
 62
7
  6
CONTINUOUS
 10
130.4320933866
 20
167.6598634255
 11
130.6100499056
 21
167.8378199445
  0
LINE
  8
LAY0001
 62
7
  6
CONTINUOUS
 10
131.1392001678
 20
168.3669702067
 11
131.7402409318
 21
168.9680109707
  0
LINE
  8
LAY0001
 62
7
  6
CONTINUOUS
 10
131.8816622881
 20
169.109432327
 11
132.4827030521
 21
169.710473091
  0
LINE
  8
LAY0001
 62
7
  6
CONTINUOUS
 10
133.2958758504
 20
170.5236458893
 11
133.8969166145
 21
171.1246866533
  0
LINE
  8
LAY0001
 62
7
  6
CONTINUOUS
 10
131.4834295087
 20
172.7402037328
 11
131.2949571328
 21
172.5795642801
  0
LINE
  8
LAY0001
 62
7
  6
CONTINUOUS
 10
131.3256864047
 20
172.4989618592
 11
131.5141588162
 21
172.6596013476
  0
LINE
  8
LAY0001
 62
7
  6
CONTINUOUS
 10
131.2323678269
 20
173.2406310522
 11
131.0688320064
 21
173.1049281574
  0
LINE
  8
LAY0001
 62
7
  6
CONTINUOUS
 10
127.1926445997
 20
169.200907825
 11
127.0291087614
 21
169.0652049124
  0
LINE
  8
LAY0001
 62
7
  6
CONTINUOUS
 10
127.0847746127
 20
169.0095390611
 11
127.2483104546
 21
169.1452419702
  0
LINE
  8
LAY0001
 62
7
  6
CONTINUOUS
 10
129.4305077437
 20
170.6037831983
 11
129.5940434381
 21
170.7394859695
  0
LINE
  8
LAY0001
 62
7
  6
CONTINUOUS
 10
127.3190235697
 20
168.5757977937
 11
127.1554877326
 21
168.4400948798
  0
LINE
  8
LAY0001
 62
7
  6
CONTINUOUS
 10
127.211153579
 20
168.3844290335
 11
127.374689416
 21
168.5201319474
  0
LINE
  8
LAY0001
 62
7
  6
CONTINUOUS
 10
129.4618718421
 20
171.4701350674
 11
129.3482092241
 21
171.384305375
  0
LINE
  8
LAY0001
 62
7
  6
CONTINUOUS
 10
130.5358401425
 20
171.7926143666
 11
130.4221773831
 21
171.7067845303
  0
LINE
  8
LAY0001
 62
7
  6
CONTINUOUS
 10
129.5383775918
 20
170.7951518158
 11
129.4247148323
 21
170.7093219795
  0
LINE
  8
LAY0001
 62
7
  6
CONTINUOUS
 10
128.3164859778
 20
169.5732602018
 11
128.202823361
 21
169.4874305082
  0
LINE
  8
LAY0001
 62
7
  6
CONTINUOUS
 10
127.4651812237
 20
169.0281176417
 11
126.9716772567
 21
168.6737782906
  0
LINE
  8
LAY0001
 62
7
  6
CONTINUOUS
 10
126.9386169538
 20
168.5572192181
 11
127.4321209402
 21
168.9115585497
  0
LINE
  8
LAY0001
 62
7
  6
CONTINUOUS
 10
130.4030335417
 20
171.5763089962
 11
130.491759691
 21
171.6372022224
  0
LINE
  8
LAY0001
 62
7
  6
CONTINUOUS
 10
127.2813707503
 20
169.26180105
 11
127.1926445997
 21
169.200907825
  0
LINE
  8
LAY0001
 62
7
  6
CONTINUOUS
 10
128.1836795196
 20
169.3569549741
 11
128.2724056689
 21
169.4178482003
  0
LINE
  8
LAY0001
 62
7
  6
CONTINUOUS
 10
127.1224274296
 20
168.3235358073
 11
127.211153579
 21
168.3844290335
  0
LINE
  8
LAY0001
 62
7
  6
CONTINUOUS
 10
129.4247148323
 20
170.7093219795
 11
129.3609254358
 21
170.6733655062
  0
LINE
  8
LAY0001
 62
7
  6
CONTINUOUS
 10
127.2483104546
 20
169.1452419702
 11
127.3121001365
 21
169.1811987289
  0
LINE
  8
LAY0001
 62
7
  6
CONTINUOUS
 10
128.202823361
 20
169.4874305082
 11
128.1390336791
 21
169.4514737495
  0
LINE
  8
LAY0001
 62
7
  6
CONTINUOUS
 10
127.1554877326
 20
168.4400948798
 11
127.0916980507
 21
168.4041381211
  0
LINE
  8
LAY0001
 62
7
  6
CONTINUOUS
 10
128.0810369087
 20
169.3099782096
 11
128.1836795196
 21
169.3569549741
  0
LINE
  8
LAY0001
 62
7
  6
CONTINUOUS
 10
127.4321209402
 20
168.9115585497
 11
127.5347635511
 21
168.9585353142
  0
LINE
  8
LAY0001
 62
7
  6
CONTINUOUS
 10
126.9716772567
 20
168.6737782906
 11
126.8690346458
 21
168.626801526
  0
LINE
  8
LAY0001
 62
7
  6
CONTINUOUS
 10
127.0197848187
 20
168.2765590428
 11
127.1224274296
 21
168.3235358073
  0
LINE
  8
0
 62
7
  6
CONTINUOUS
 10
100.9507658643
 20
153.2735060905
 11
88.4507658643
 21
149.5708374035
  0
LINE
  8
0
 62
7
  6
CONTINUOUS
 10
77.6526327814
 20
249.5006679368
 11
77.2748957053
 21
249.4163632164
  0
LINE
  8
0
 62
7
  6
CONTINUOUS
 10
89.2555131605
 20
253.3028283502
 11
89.9877106051
 21
253.465265505
  0
LINE
  8
0
 62
7
  6
CONTINUOUS
 10
89.8632905384
 20
254.0260981236
 11
89.1310930938
 21
253.8636609688
  0
LINE
  8
0
 62
7
  6
CONTINUOUS
 10
113.603354914
 20
257.3666222264
 11
113.1919114907
 21
257.2771257341
  0
LINE
  8
0
 62
7
  6
CONTINUOUS
 10
64.6911915008
 20
243.3973850217
 11
64.3555243659
 21
243.341731595
  0
LINE
  8
0
 62
7
  6
CONTINUOUS
 10
77.0704571797
 20
248.9905320048
 11
77.3645905382
 21
249.0324148556
  0
LINE
  8
0
 62
7
  6
CONTINUOUS
 10
92.1931145364
 20
253.9198679599
 11
92.7509903132
 21
253.9918462037
  0
LINE
  8
0
 62
7
  6
CONTINUOUS
 10
95.0754712981
 20
254.2917553698
 11
95.9122849634
 21
254.3997227355
  0
LINE
  8
0
 62
7
  6
CONTINUOUS
 10
96.6622228778
 20
254.4556507066
 11
100.0342376147
 21
254.5975718608
  0
LINE
  8
0
 62
7
  6
CONTINUOUS
 10
100.0100808226
 20
255.1715318146
 11
97.2000685418
 21
255.0532641861
  0
LINE
  8
0
 62
7
  6
CONTINUOUS
 10
88.7771512475
 20
253.2947768221
 11
89.2555131605
 21
253.3028283502
  0
LINE
  8
0
 62
7
  6
CONTINUOUS
 10
77.2748957053
 20
249.4163632164
 11
77.0643660566
 21
249.4169022501
  0
LINE
  8
0
 62
7
  6
CONTINUOUS
 10
129.9200860532
 20
248.3584941939
 11
129.2396039604
 21
248.3632940871
  0
LINE
  8
0
 62
7
  6
CONTINUOUS
 10
130.3102605768
 20
249.2527110045
 11
130.6505016232
 21
249.2503110579
  0
LINE
  8
0
 62
7
  6
CONTINUOUS
 10
89.1310930938
 20
253.8636609688
 11
88.7442566487
 21
253.8759142513
  0
LINE
  8
0
 62
7
  6
CONTINUOUS
 10
130.8455852784
 20
249.6974217931
 11
130.2966662619
 21
249.7276735554
  0
LINE
  8
0
 62
7
  6
CONTINUOUS
 10
77.6160899007
 20
252.0588912911
 11
77.0681027475
 21
252.1029293134
  0
LINE
  8
0
 62
7
  6
CONTINUOUS
 10
123.2867015358
 20
252.0533111914
 11
122.991183569
 21
252.0839336594
  0
LINE
  8
0
 62
7
  6
CONTINUOUS
 10
77.1577956404
 20
251.718980034
 11
77.495253145
 21
251.6754810454
  0
LINE
  8
0
 62
7
  6
CONTINUOUS
 10
105.2818502013
 20
254.3722053209
 11
108.9981379303
 21
253.8705133972
  0
LINE
  8
0
 62
7
  6
CONTINUOUS
 10
109.0749928924
 20
254.439817265
 11
105.9161485354
 21
254.8662553715
  0
LINE
  8
0
 62
7
  6
CONTINUOUS
 10
110.2831132341
 20
253.5945555937
 11
110.8346300638
 21
253.4839416858
  0
LINE
  8
0
 62
7
  6
CONTINUOUS
 10
88.3695802165
 20
253.4005026861
 11
88.7771512475
 21
253.2947768221
  0
LINE
  8
0
 62
7
  6
CONTINUOUS
 10
89.8990196836
 20
257.760780059
 11
89.4914465632
 21
257.8665054336
  0
LINE
  8
0
 62
7
  6
CONTINUOUS
 10
111.5734014498
 20
253.3472111297
 11
114.8367507633
 21
252.4862951884
  0
LINE
  8
0
 62
7
  6
CONTINUOUS
 10
114.9588665022
 20
252.9491816255
 11
112.4207073082
 21
253.6187825483
  0
LINE
  8
0
 62
7
  6
CONTINUOUS
 10
129.7476192535
 20
245.8007036566
 11
129.4618193291
 21
245.8818640373
  0
LINE
  8
0
 62
7
  6
CONTINUOUS
 10
129.725002398
 20
247.9113834587
 11
130.0108023224
 21
247.830223078
  0
LINE
  8
0
 62
7
  6
CONTINUOUS
 10
89.524343244
 20
257.2853685265
 11
89.8403908983
 21
257.1593383333
  0
LINE
  8
0
 62
7
  6
CONTINUOUS
 10
129.112491727
 20
245.541370377
 11
129.5525285044
 21
245.3535977536
  0
LINE
  8
0
 62
7
  6
CONTINUOUS
 10
119.7812574246
 20
250.7156112158
 11
120.2922279001
 21
250.4804189047
  0
LINE
  8
0
 62
7
  6
CONTINUOUS
 10
123.6038467852
 20
248.9267892723
 11
124.0923965189
 21
248.6479965039
  0
LINE
  8
0
 62
7
  6
CONTINUOUS
 10
126.3722940337
 20
247.3469642938
 11
126.8608437674
 21
247.0681715254
  0
LINE
  8
0
 62
7
  6
CONTINUOUS
 10
128.7268960762
 20
245.8079034414
 11
129.112491727
 21
245.541370377
  0
LINE
  8
0
 62
7
  6
CONTINUOUS
 10
129.4618193291
 20
245.8818640373
 11
128.9219797696
 21
246.2550142318
  0
LINE
  8
0
 62
7
  6
CONTINUOUS
 10
115.4581290582
 20
256.6792667117
 11
115.1443782123
 21
256.9600793173
  0
LINE
  8
0
 62
7
  6
CONTINUOUS
 10
144.6255579277
 20
230.6525157618
 11
154.0821630725
 21
221.678532558
  0
LINE
  8
0
 62
7
  6
CONTINUOUS
 10
128.3957344916
 20
246.1532018271
 11
128.7268960762
 21
245.8079034414
  0
LINE
  8
0
 62
7
  6
CONTINUOUS
 10
114.8409680728
 20
256.5450208786
 11
115.0640675602
 21
256.2881233346
  0
LINE
  8
0
 62
7
  6
CONTINUOUS
 10
128.9219797696
 20
246.2550142318
 11
128.745062089
 21
246.4936954805
  0
LINE
  8
0
 62
7
  6
CONTINUOUS
 10
130.5506418819
 20
247.4570728835
 11
130.7275595625
 21
247.2183916348
  0
LINE
  8
0
 62
7
  6
CONTINUOUS
 10
124.3130026124
 20
253.1619225581
 11
124.0924551154
 21
253.5796378968
  0
LINE
  8
0
 62
7
  6
CONTINUOUS
 10
131.2991594115
 20
247.0560708734
 11
131.076880066
 21
247.5588901203
  0
LINE
  8
0
 62
7
  6
CONTINUOUS
 10
132.1475366824
 20
248.4483070377
 11
131.9252643974
 21
248.9511214042
  0
LINE
  8
0
 62
7
  6
CONTINUOUS
 10
131.5759368334
 20
248.610627799
 11
131.6984133921
 21
248.2931861163
  0
LINE
  8
0
 62
7
  6
CONTINUOUS
 10
88.4053093544
 20
257.1351846541
 11
89.137506799
 21
257.2976218089
  0
LINE
  8
0
 62
7
  6
CONTINUOUS
 10
89.0130867468
 20
257.8584543621
 11
88.2808893022
 21
257.6960172073
  0
LINE
  8
0
 62
7
  6
CONTINUOUS
 10
95.3364590131
 20
258.8627289504
 11
94.7785832363
 21
258.7907507067
  0
LINE
  8
0
 62
7
  6
CONTINUOUS
 10
92.4541022514
 20
258.4908415406
 11
91.6172885861
 21
258.3828741749
  0
LINE
  8
0
 62
7
  6
CONTINUOUS
 10
97.1356504285
 20
256.5838240852
 11
99.5709958344
 21
256.6863227567
  0
LINE
  8
0
 62
7
  6
CONTINUOUS
 10
99.546839045
 20
257.2602826435
 11
97.1114936391
 21
257.157783972
  0
LINE
  8
0
 62
7
  6
CONTINUOUS
 10
97.0591539176
 20
258.4013639947
 11
99.8691661984
 21
258.5196316232
  0
LINE
  8
0
 62
7
  6
CONTINUOUS
 10
99.8450094091
 20
259.09359151
 11
96.4729946722
 21
258.9516703558
  0
LINE
  8
0
 62
7
  6
CONTINUOUS
 10
89.4914465632
 20
257.8665054336
 11
89.0130867468
 21
257.8584543621
  0
LINE
  8
0
 62
7
  6
CONTINUOUS
 10
89.137506799
 20
257.2976218089
 11
89.524343244
 21
257.2853685265
  0
LINE
  8
0
 62
7
  6
CONTINUOUS
 10
113.5718864011
 20
256.8798218873
 11
114.0495538888
 21
256.8528271384
  0
LINE
  8
0
 62
7
  6
CONTINUOUS
 10
114.2623168195
 20
257.2917995438
 11
113.603354914
 21
257.3666222264
  0
LINE
  8
0
 62
7
  6
CONTINUOUS
 10
105.8198349451
 20
258.3573324624
 11
109.0715851131
 21
257.9183522444
  0
LINE
  8
0
 62
7
  6
CONTINUOUS
 10
109.6001684684
 20
258.3300603732
 11
105.8838807394
 21
258.8317522969
  0
LINE
  8
0
 62
7
  6
CONTINUOUS
 10
111.719541327
 20
257.896076323
 11
111.1680244974
 21
258.0066902309
  0
LINE
  8
0
 62
7
  6
CONTINUOUS
 10
122.6658267483
 20
251.6012896543
 11
123.1316695064
 21
251.4922691512
  0
LINE
  8
0
 62
7
  6
CONTINUOUS
 10
112.543286142
 20
256.6560784672
 11
112.9965263358
 21
256.5365075385
  0
LINE
  8
0
 62
7
  6
CONTINUOUS
 10
114.0495538888
 20
256.8528271384
 11
114.4121468738
 21
256.7571701765
  0
LINE
  8
0
 62
7
  6
CONTINUOUS
 10
114.6249098044
 20
257.1961425819
 11
114.2623168195
 21
257.2917995438
  0
LINE
  8
0
 62
7
  6
CONTINUOUS
 10
130.6505016232
 20
249.2503110579
 11
130.9363015476
 21
249.1691506772
  0
LINE
  8
0
 62
7
  6
CONTINUOUS
 10
130.3601298864
 20
248.1707166831
 11
129.9200860532
 21
248.3584941939
  0
LINE
  8
0
 62
7
  6
CONTINUOUS
 10
131.2856291116
 20
249.5096442824
 11
130.8455852784
 21
249.6974217931
  0
LINE
  8
0
 62
7
  6
CONTINUOUS
 10
115.1443782123
 20
256.9600793173
 11
114.6249098044
 21
257.1961425819
  0
LINE
  8
0
 62
7
  6
CONTINUOUS
 10
121.132915322
 20
252.3068665876
 11
122.6658267483
 21
251.6012896543
  0
LINE
  8
0
 62
7
  6
CONTINUOUS
 10
122.991183569
 20
252.0839336594
 11
121.3731116962
 21
252.8287087131
  0
LINE
  8
0
 62
7
  6
CONTINUOUS
 10
121.9736027438
 20
254.1333142705
 11
123.5916746167
 21
253.3885392168
  0
LINE
  8
0
 62
7
  6
CONTINUOUS
 10
123.7066778154
 20
253.8626057751
 11
121.6627959135
 21
254.8033750195
  0
LINE
  8
0
 62
7
  6
CONTINUOUS
 10
114.4121468738
 20
256.7571701765
 11
114.8409680728
 21
256.5450208786
  0
LINE
  8
0
 62
7
  6
CONTINUOUS
 10
124.9875441563
 20
249.4600241826
 11
126.6160445111
 21
248.5307142457
  0
LINE
  8
0
 62
7
  6
CONTINUOUS
 10
126.7244371282
 20
248.9098085643
 11
125.2587879271
 21
249.7461868695
  0
LINE
  8
0
 62
7
  6
CONTINUOUS
 10
127.788387867
 20
251.7200160683
 11
127.1369869797
 21
252.0917404685
  0
LINE
  8
0
 62
7
  6
CONTINUOUS
 10
130.0108023224
 20
247.830223078
 11
130.5506418819
 21
247.4570728835
  0
LINE
  8
0
 62
7
  6
CONTINUOUS
 10
130.7457255372
 20
247.9041836187
 11
130.3601298864
 21
248.1707166831
  0
LINE
  8
0
 62
7
  6
CONTINUOUS
 10
131.6893268745
 20
247.9502925645
 11
132.0749295858
 21
247.6837546197
  0
LINE
  8
0
 62
7
  6
CONTINUOUS
 10
130.9363015476
 20
249.1691506772
 11
131.3990191528
 21
248.8493090478
  0
LINE
  8
0
 62
7
  6
CONTINUOUS
 10
131.594102808
 20
249.296419783
 11
131.2856291116
 21
249.5096442824
  0
LINE
  8
0
 62
7
  6
CONTINUOUS
 10
124.0924551154
 20
253.5796378968
 11
123.7066778154
 21
253.8626057751
  0
LINE
  8
0
 62
7
  6
CONTINUOUS
 10
123.5916746167
 20
253.3885392168
 11
123.8071271254
 21
253.1839693737
  0
LINE
  8
0
 62
7
  6
CONTINUOUS
 10
131.076880066
 20
247.5588901203
 11
130.7457255372
 21
247.9041836187
  0
LINE
  8
0
 62
7
  6
CONTINUOUS
 10
131.9252643974
 20
248.9511214042
 11
131.594102808
 21
249.296419783
  0
LINE
  8
0
 62
7
  6
CONTINUOUS
 10
131.3990191528
 20
248.8493090478
 11
131.5759368334
 21
248.610627799
  0
LINE
  8
0
 62
7
  6
CONTINUOUS
 10
141.2161376687
 20
241.9631422489
 11
146.9661376687
 21
232.0038501054
  0
LINE
  8
0
 62
7
  6
CONTINUOUS
 10
148.6981884763
 20
233.0038501054
 11
142.9481884763
 21
242.9631422489
  0
LINE
  8
0
 62
7
  6
CONTINUOUS
 10
154.0821630725
 20
221.678532558
 11
151.0387682172
 21
234.3551844489
  0
LINE
  8
0
 62
7
  6
CONTINUOUS
 10
161.5207658643
 20
207.5708374035
 11
161.5207658643
 21
217.5708374035
  0
LINE
  8
0
 62
7
  6
CONTINUOUS
 10
162.0207658643
 20
203.8708374035
 11
162.0207658643
 21
206.2479635605
  0
LINE
  8
0
 62
7
  6
CONTINUOUS
 10
162.0207658643
 20
218.893713059
 11
162.0207658643
 21
221.5708374034
  0
LINE
  8
0
 62
7
  6
CONTINUOUS
 10
154.8389372734
 20
176.6339136148
 11
159.8389372734
 21
185.2941676527
  0
LINE
  8
0
 62
7
  6
CONTINUOUS
 10
153.4219499753
 20
173.1796196208
 11
154.6105143166
 21
175.2382734479
  0
LINE
  8
0
 62
7
  6
CONTINUOUS
 10
160.9333878031
 20
186.1898115764
 11
162.2719499753
 21
188.5082692678
  0
LINE
  8
0
 62
7
  6
CONTINUOUS
 10
133.5838420757
 20
153.1826659943
 11
142.2440961135
 21
158.1826659943
  0
LINE
  8
0
 62
7
  6
CONTINUOUS
 10
130.6295480817
 20
150.8996532925
 11
132.6881975346
 21
152.0882151083
  0
LINE
  8
0
 62
7
  6
CONTINUOUS
 10
143.6397400373
 20
158.4110911202
 11
145.9581977287
 21
159.7496532924
  0
LINE
  8
0
 62
7
  6
CONTINUOUS
 10
97.4507658643
 20
265.6408374035
 11
87.4507658643
 21
265.6408374035
  0
LINE
  8
0
 62
7
  6
CONTINUOUS
 10
101.1507658643
 20
266.1408374035
 11
98.7736397073
 21
266.1408374035
  0
LINE
  8
0
 62
7
  6
CONTINUOUS
 10
86.1278902088
 20
266.1408374035
 11
83.4507658644
 21
266.1408374035
  0
LINE
  8
0
 62
7
  6
CONTINUOUS
 10
128.387689653
 20
258.9590088126
 11
119.7274356151
 21
263.9590088126
  0
LINE
  8
0
 62
7
  6
CONTINUOUS
 10
131.841983647
 20
257.5420215145
 11
129.7833298199
 21
258.7305858557
  0
LINE
  8
0
 62
7
  6
CONTINUOUS
 10
118.8317916914
 20
265.0534593422
 11
116.513334
 21
266.3920215145
  0
LINE
  8
0
 62
7
  6
CONTINUOUS
 10
151.8389372734
 20
237.7039136148
 11
146.8389372734
 21
246.3641676527
  0
LINE
  8
0
 62
7
  6
CONTINUOUS
 10
154.1219499753
 20
234.7496196208
 11
152.9333881595
 21
236.8082690737
  0
LINE
  8
0
 62
7
  6
CONTINUOUS
 10
146.6105121476
 20
247.7598115764
 11
145.2719499754
 21
250.0782692678
  0
LINE
  8
0
 62
7
  6
CONTINUOUS
 10
175.4669622574
 20
195.1937227769
 11
175.757195005
 21
197.9148829202
  0
LINE
  8
0
 62
7
  6
CONTINUOUS
 10
160.7281403227
 20
158.9419197262
 11
162.3400693268
 21
161.1533971642
  0
LINE
  8
0
 62
7
  6
CONTINUOUS
 10
129.8380445801
 20
134.9163483185
 11
132.3397547657
 21
136.0255794577
  0
LINE
  8
0
 62
7
  6
CONTINUOUS
 10
109.8278804909
 20
279.5870337965
 11
107.1067203476
 21
279.8772665441
  0
LINE
  8
0
 62
7
  6
CONTINUOUS
 10
146.0796835416
 20
264.8482118619
 11
143.8682061036
 21
266.460140866
  0
LINE
  8
0
 62
7
  6
CONTINUOUS
 10
170.1052549493
 20
233.9581161192
 11
168.9960238101
 21
236.4598263049
  0
POLYLINE
  8
0
 62
7
  6
CONTINUOUS
 66
1
 70
0
  0
VERTEX
  8
0
 62
7
  6
CONTINUOUS
 10
25.1365739796
 20
76.3524408568
  0
VERTEX
  8
0
 62
7
  6
CONTINUOUS
 10
25.1419492551
 20
76.2488839711
  0
VERTEX
  8
0
 62
7
  6
CONTINUOUS
 10
25.1580177656
 20
76.1464362327
  0
VERTEX
  8
0
 62
7
  6
CONTINUOUS
 10
25.1835585341
 20
76.049480615
  0
VERTEX
  8
0
 62
7
  6
CONTINUOUS
 10
25.2174108291
 20
75.9585104734
  0
VERTEX
  8
0
 62
7
  6
CONTINUOUS
 10
25.2584981265
 20
75.8738497557
  0
VERTEX
  8
0
 62
7
  6
CONTINUOUS
 10
25.3058385194
 20
75.7956855431
  0
VERTEX
  8
0
 62
7
  6
CONTINUOUS
 10
25.3585493883
 20
75.7240980085
  0
VERTEX
  8
0
 62
7
  6
CONTINUOUS
 10
25.4157371669
 20
75.6592019206
  0
VERTEX
  8
0
 62
7
  6
CONTINUOUS
 10
25.4764310858
 20
75.601135954
  0
VERTEX
  8
0
 62
7
  6
CONTINUOUS
 10
25.539712575
 20
75.5498925618
  0
VERTEX
  8
0
 62
7
  6
CONTINUOUS
 10
25.6047323679
 20
75.5053410842
  0
VERTEX
  8
0
 62
7
  6
CONTINUOUS
 10
25.6707439046
 20
75.467237268
  0
VERTEX
  8
0
 62
7
  6
CONTINUOUS
 10
25.7365460669
 20
75.4354967136
  0
VERTEX
  8
0
 62
7
  6
CONTINUOUS
 10
25.7985463602
 20
75.4106838643
  0
VERTEX
  8
0
 62
7
  6
CONTINUOUS
 10
25.8526471502
 20
75.3926758488
  0
VERTEX
  8
0
 62
7
  6
CONTINUOUS
 10
25.8938880845
 20
75.3809676853
  0
VERTEX
  8
0
 62
7
  6
CONTINUOUS
 10
25.9264512555
 20
75.3727399715
  0
VERTEX
  8
0
 62
7
  6
CONTINUOUS
 10
25.9559935027
 20
75.3658500826
  0
VERTEX
  8
0
 62
7
  6
CONTINUOUS
 10
25.9859582281
 20
75.3592423878
  0
VERTEX
  8
0
 62
7
  6
CONTINUOUS
 10
26.0192051261
 20
75.3522072216
  0
VERTEX
  8
0
 62
7
  6
CONTINUOUS
 10
26.0576216597
 20
75.3443339802
  0
SEQEND
  0
LINE
  8
0
 62
7
  6
CONTINUOUS
 10
25.1365702988
 20
82.2213171967
 11
25.1365702988
 21
76.3519869608
  0
POLYLINE
  8
0
 62
7
  6
CONTINUOUS
 66
1
 70
0
  0
VERTEX
  8
0
 62
7
  6
CONTINUOUS
 10
38.1987462418
 20
76.3215399136
  0
VERTEX
  8
0
 62
7
  6
CONTINUOUS
 10
38.212453369
 20
76.1556776942
  0
VERTEX
  8
0
 62
7
  6
CONTINUOUS
 10
38.2576069931
 20
75.9816275408
  0
VERTEX
  8
0
 62
7
  6
CONTINUOUS
 10
38.3289964664
 20
75.8249638447
  0
VERTEX
  8
0
 62
7
  6
CONTINUOUS
 10
38.418685769
 20
75.6913268427
  0
VERTEX
  8
0
 62
7
  6
CONTINUOUS
 10
38.5172923245
 20
75.583406918
  0
VERTEX
  8
0
 62
7
  6
CONTINUOUS
 10
38.6164102834
 20
75.5000856454
  0
VERTEX
  8
0
 62
7
  6
CONTINUOUS
 10
38.7132190655
 20
75.4358190621
  0
VERTEX
  8
0
 62
7
  6
CONTINUOUS
 10
38.8084260259
 20
75.3850511172
  0
VERTEX
  8
0
 62
7
  6
CONTINUOUS
 10
38.9052117361
 20
75.343056679
  0
VERTEX
  8
0
 62
7
  6
CONTINUOUS
 10
39.0056062124
 20
75.3069670072
  0
VERTEX
  8
0
 62
7
  6
CONTINUOUS
 10
39.1140413706
 20
75.2738652148
  0
VERTEX
  8
0
 62
7
  6
CONTINUOUS
 10
39.2352051572
 20
75.2417073555
  0
VERTEX
  8
0
 62
7
  6
CONTINUOUS
 10
39.3327996967
 20
75.2184108887
  0
SEQEND
  0
LINE
  8
0
 62
7
  6
CONTINUOUS
 10
38.1987455621
 20
82.2519427432
 11
38.1987455621
 21
76.3213614143
  0
LINE
  8
0
 62
7
  6
CONTINUOUS
 10
45.9533432524
 20
83.9366520788
 11
45.9533432524
 21
83.7866520788
  0
LINE
  8
0
 62
7
  6
CONTINUOUS
 10
45.9533432524
 20
74.7866520788
 11
45.9533432524
 21
74.6366520788
  0
LINE
  8
0
 62
7
  6
CONTINUOUS
 10
49.3627635114
 20
83.9366520788
 11
49.3627635114
 21
83.7866520788
  0
LINE
  8
0
 62
7
  6
CONTINUOUS
 10
49.3627635114
 20
74.7866520788
 11
49.3627635114
 21
74.6366520788
  0
LINE
  8
0
 62
7
  6
CONTINUOUS
 10
58.8193686562
 20
83.9366520788
 11
58.8193686562
 21
83.7866520788
  0
LINE
  8
0
 62
7
  6
CONTINUOUS
 10
58.8193686562
 20
74.7866520788
 11
58.8193686562
 21
74.6366520788
  0
LINE
  8
0
 62
7
  6
CONTINUOUS
 10
60.1662279861
 20
74.7866520788
 11
60.1662279861
 21
74.6366520788
  0
LINE
  8
0
 62
7
  6
CONTINUOUS
 10
60.4814282331
 20
74.7866520788
 11
60.4814282331
 21
74.6366520788
  0
LINE
  8
0
 62
7
  6
CONTINUOUS
 10
61.7422291988
 20
74.7866520788
 11
61.7422291988
 21
74.6366520788
  0
LINE
  8
0
 62
7
  6
CONTINUOUS
 10
62.0574295135
 20
74.7866520788
 11
62.0574295135
 21
74.6366520788
  0
LINE
  8
0
 62
7
  6
CONTINUOUS
 10
62.8652009521
 20
74.7866520788
 11
62.8652009521
 21
74.6366520788
  0
LINE
  8
0
 62
7
  6
CONTINUOUS
 10
63.2043009276
 20
74.7866520788
 11
63.2043009276
 21
74.6366520788
  0
LINE
  8
0
 62
7
  6
CONTINUOUS
 10
63.5348188988
 20
74.7866520788
 11
63.5348188988
 21
74.6366520788
  0
LINE
  8
0
 62
7
  6
CONTINUOUS
 10
63.5382517393
 20
74.7866520788
 11
63.5382517393
 21
74.6366520788
  0
LINE
  8
0
 62
7
  6
CONTINUOUS
 10
63.6095043033
 20
74.7866520788
 11
63.6095043033
 21
74.6366520788
  0
LINE
  8
0
 62
7
  6
CONTINUOUS
 10
63.8146807671
 20
74.7866520788
 11
63.8146807671
 21
74.6366520788
  0
LINE
  8
0
 62
7
  6
CONTINUOUS
 10
64.0859608251
 20
74.7866520788
 11
64.0859608251
 21
74.6366520788
  0
LINE
  8
0
 62
7
  6
CONTINUOUS
 10
64.3555243659
 20
74.7866520788
 11
64.3555243659
 21
74.6366520788
  0
LINE
  8
0
 62
7
  6
CONTINUOUS
 10
64.4965155729
 20
74.7866520788
 11
64.4965155729
 21
74.6366520788
  0
POLYLINE
  8
0
 62
7
  6
CONTINUOUS
 66
1
 70
0
  0
VERTEX
  8
0
 62
7
  6
CONTINUOUS
 10
67.4054047241
 20
76.2521688827
  0
VERTEX
  8
0
 62
7
  6
CONTINUOUS
 10
67.4066532129
 20
76.2015671457
  0
VERTEX
  8
0
 62
7
  6
CONTINUOUS
 10
67.43377876
 20
76.0125142688
  0
VERTEX
  8
0
 62
7
  6
CONTINUOUS
 10
67.4954985577
 20
75.8314253035
  0
VERTEX
  8
0
 62
7
  6
CONTINUOUS
 10
67.5873883603
 20
75.6677180148
  0
VERTEX
  8
0
 62
7
  6
CONTINUOUS
 10
67.7012924432
 20
75.5286467252
  0
VERTEX
  8
0
 62
7
  6
CONTINUOUS
 10
67.8266917802
 20
75.4177151058
  0
VERTEX
  8
0
 62
7
  6
CONTINUOUS
 10
67.9503792267
 20
75.3355604142
  0
VERTEX
  8
0
 62
7
  6
CONTINUOUS
 10
68.0097851485
 20
75.3031753487
  0
SEQEND
  0
LINE
  8
0
 62
7
  6
CONTINUOUS
 10
64.8501192464
 20
74.7866520788
 11
64.8501192464
 21
74.6366520788
  0
LINE
  8
0
 62
7
  6
CONTINUOUS
 10
65.1643852992
 20
74.7866520788
 11
65.1643852992
 21
74.6366520788
  0
LINE
  8
0
 62
7
  6
CONTINUOUS
 10
65.2251694185
 20
74.7866520788
 11
65.2251694185
 21
74.6366520788
  0
LINE
  8
0
 62
7
  6
CONTINUOUS
 10
65.4393139074
 20
74.7866520788
 11
65.4393139074
 21
74.6366520788
  0
LINE
  8
0
 62
7
  6
CONTINUOUS
 10
65.4507658643
 20
97.2866520788
 11
65.4507658643
 21
85.2866520788
  0
LINE
  8
0
 62
7
  6
CONTINUOUS
 10
65.4507658643
 20
73.2866520788
 11
65.4507658643
 21
61.2866520788
  0
LINE
  8
0
 62
7
  6
CONTINUOUS
 10
65.7929175809
 20
74.7866520788
 11
65.7929175809
 21
74.6366520788
  0
LINE
  8
0
 62
7
  6
CONTINUOUS
 10
67.4054010077
 20
82.3213531972
 11
67.4054010077
 21
76.2519509602
  0
LINE
  8
0
 62
7
  6
CONTINUOUS
 10
67.804220495
 20
74.7866520788
 11
67.804220495
 21
74.6366520788
  0
LINE
  8
0
 62
7
  6
CONTINUOUS
 10
69.499330643
 20
74.7866520788
 11
69.499330643
 21
74.6366520788
  0
LINE
  8
0
 62
7
  6
CONTINUOUS
 10
72.3358404358
 20
74.7866520788
 11
72.3358404358
 21
74.6366520788
  0
LINE
  8
0
 62
7
  6
CONTINUOUS
 10
72.6471407574
 20
74.7866520788
 11
72.6471407574
 21
74.6366520788
  0
LINE
  8
0
 62
7
  6
CONTINUOUS
 10
73.0064565769
 20
74.7866520788
 11
73.0064565769
 21
74.6366520788
  0
LINE
  8
0
 62
7
  6
CONTINUOUS
 10
73.2027663156
 20
74.7866520788
 11
73.2027663156
 21
74.6366520788
  0
LINE
  8
0
 62
7
  6
CONTINUOUS
 10
73.6097312927
 20
74.7866520788
 11
73.6097312927
 21
74.6366520788
  0
LINE
  8
0
 62
7
  6
CONTINUOUS
 10
75.6126608539
 20
74.7866520788
 11
75.6126608539
 21
74.6366520788
  0
LINE
  8
0
 62
7
  6
CONTINUOUS
 10
75.6932199667
 20
74.7866520788
 11
75.6932199667
 21
74.6366520788
  0
LINE
  8
0
 62
7
  6
CONTINUOUS
 10
75.8573808722
 20
74.7866520788
 11
75.8573808722
 21
74.6366520788
  0
LINE
  8
0
 62
7
  6
CONTINUOUS
 10
76.0648659274
 20
74.7866520788
 11
76.0648659274
 21
74.6366520788
  0
LINE
  8
0
 62
7
  6
CONTINUOUS
 10
76.5231601877
 20
74.7866520788
 11
76.5231601877
 21
74.6366520788
  0
LINE
  8
0
 62
7
  6
CONTINUOUS
 10
77.0681027475
 20
74.7866520788
 11
77.0681027475
 21
74.6366520788
  0
LINE
  8
0
 62
7
  6
CONTINUOUS
 10
77.6160899007
 20
74.7866520788
 11
77.6160899007
 21
74.6366520788
  0
LINE
  8
0
 62
7
  6
CONTINUOUS
 10
78.0401957049
 20
74.7866520788
 11
78.0401957049
 21
74.6366520788
  0
LINE
  8
0
 62
7
  6
CONTINUOUS
 10
78.2970960101
 20
74.7866520788
 11
78.2970960101
 21
74.6366520788
  0
LINE
  8
0
 62
7
  6
CONTINUOUS
 10
78.4703926699
 20
74.7866520788
 11
78.4703926699
 21
74.6366520788
  0
LINE
  8
0
 62
7
  6
CONTINUOUS
 10
78.6722153448
 20
74.7866520788
 11
78.6722153448
 21
74.6366520788
  0
LINE
  8
0
 62
7
  6
CONTINUOUS
 10
79.191899944
 20
74.7866520788
 11
79.191899944
 21
74.6366520788
  0
LINE
  8
0
 62
7
  6
CONTINUOUS
 10
169.2960773566
 20
75.294124375
 11
169.383694179
 21
75.3169951174
  0
LINE
  8
0
 62
7
  6
CONTINUOUS
 10
80.6209604461
 20
74.7866520788
 11
80.6209604461
 21
74.6366520788
  0
LINE
  8
0
 62
7
  6
CONTINUOUS
 10
81.097410802
 20
74.7866520788
 11
81.097410802
 21
74.6366520788
  0
LINE
  8
0
 62
7
  6
CONTINUOUS
 10
81.6170954012
 20
74.7866520788
 11
81.6170954012
 21
74.6366520788
  0
LINE
  8
0
 62
7
  6
CONTINUOUS
 10
82.7895412006
 20
74.7866520788
 11
82.7895412006
 21
74.6366520788
  0
POLYLINE
  8
0
 62
7
  6
CONTINUOUS
 66
1
 70
0
  0
VERTEX
  8
0
 62
7
  6
CONTINUOUS
 10
68.0097870182
 20
83.2701297663
  0
VERTEX
  8
0
 62
7
  6
CONTINUOUS
 10
67.9546390893
 20
83.2402015692
  0
VERTEX
  8
0
 62
7
  6
CONTINUOUS
 10
67.8304179933
 20
83.1584063655
  0
VERTEX
  8
0
 62
7
  6
CONTINUOUS
 10
67.7042345455
 20
83.0476778723
  0
VERTEX
  8
0
 62
7
  6
CONTINUOUS
 10
67.5894419387
 20
82.9085680851
  0
VERTEX
  8
0
 62
7
  6
CONTINUOUS
 10
67.4966910589
 20
82.7445308915
  0
VERTEX
  8
0
 62
7
  6
CONTINUOUS
 10
67.4342633991
 20
82.5628001016
  0
VERTEX
  8
0
 62
7
  6
CONTINUOUS
 10
67.4067082334
 20
82.3728390224
  0
VERTEX
  8
0
 62
7
  6
CONTINUOUS
 10
67.4054047243
 20
82.3211348667
  0
SEQEND
  0
LINE
  8
0
 62
7
  6
CONTINUOUS
 10
68.5353879918
 20
83.5397232848
 11
68.0092826645
 21
83.269872976
  0
POLYLINE
  8
0
 62
7
  6
CONTINUOUS
 66
1
 70
0
  0
VERTEX
  8
0
 62
7
  6
CONTINUOUS
 10
169.087726275
 20
75.2461099636
  0
VERTEX
  8
0
 62
7
  6
CONTINUOUS
 10
169.1979883553
 20
75.2706355022
  0
VERTEX
  8
0
 62
7
  6
CONTINUOUS
 10
169.2960773566
 20
75.294124375
  0
SEQEND
  0
LINE
  8
0
 62
7
  6
CONTINUOUS
 10
167.6254803912
 20
74.9440035027
 11
169.087726275
 21
75.2461099636
  0
POLYLINE
  8
0
 62
7
  6
CONTINUOUS
 66
1
 70
0
  0
VERTEX
  8
0
 62
7
  6
CONTINUOUS
 10
174.831951984
 20
75.341924518
  0
VERTEX
  8
0
 62
7
  6
CONTINUOUS
 10
174.8749360836
 20
75.3506744735
  0
VERTEX
  8
0
 62
7
  6
CONTINUOUS
 10
174.9127357333
 20
75.3586314771
  0
VERTEX
  8
0
 62
7
  6
CONTINUOUS
 10
174.9471095064
 20
75.3662058186
  0
VERTEX
  8
0
 62
7
  6
CONTINUOUS
 10
174.9812869119
 20
75.3742500943
  0
VERTEX
  8
0
 62
7
  6
CONTINUOUS
 10
175.0194165637
 20
75.3841492109
  0
VERTEX
  8
0
 62
7
  6
CONTINUOUS
 10
175.0645623852
 20
75.3975673019
  0
VERTEX
  8
0
 62
7
  6
CONTINUOUS
 10
175.1165530133
 20
75.4157170655
  0
VERTEX
  8
0
 62
7
  6
CONTINUOUS
 10
175.1735588908
 20
75.4393044769
  0
VERTEX
  8
0
 62
7
  6
CONTINUOUS
 10
175.2343965763
 20
75.4691512525
  0
VERTEX
  8
0
 62
7
  6
CONTINUOUS
 10
175.2972513839
 20
75.5056255538
  0
VERTEX
  8
0
 62
7
  6
CONTINUOUS
 10
175.3604841019
 20
75.5489002168
  0
VERTEX
  8
0
 62
7
  6
CONTINUOUS
 10
175.4223433265
 20
75.5987200838
  0
VERTEX
  8
0
 62
7
  6
CONTINUOUS
 10
175.48189465
 20
75.655166847
  0
VERTEX
  8
0
 62
7
  6
CONTINUOUS
 10
175.5384655417
 20
75.7185431589
  0
VERTEX
  8
0
 62
7
  6
CONTINUOUS
 10
175.5912450329
 20
75.7891023076
  0
VERTEX
  8
0
 62
7
  6
CONTINUOUS
 10
175.6392445315
 20
75.866960014
  0
VERTEX
  8
0
 62
7
  6
CONTINUOUS
 10
175.6812993653
 20
75.9519889777
  0
VERTEX
  8
0
 62
7
  6
CONTINUOUS
 10
175.7161755656
 20
76.0438813469
  0
VERTEX
  8
0
 62
7
  6
CONTINUOUS
 10
175.7425992604
 20
76.1421370257
  0
VERTEX
  8
0
 62
7
  6
CONTINUOUS
 10
175.7592825914
 20
76.2460424582
  0
VERTEX
  8
0
 62
7
  6
CONTINUOUS
 10
175.764957749
 20
76.3524408569
  0
SEQEND
  0
LINE
  8
0
 62
7
  6
CONTINUOUS
 10
174.7274691504
 20
75.3214184168
 11
174.831951984
 21
75.341924518
  0
LINE
  8
0
 62
7
  6
CONTINUOUS
 10
174.5967981766
 20
75.2966199198
 11
174.7274691504
 21
75.3214184168
  0
LINE
  8
0
 62
7
  6
CONTINUOUS
 10
174.3544352109
 20
75.2519486853
 11
174.5967981766
 21
75.2966199198
  0
LINE
  8
0
 62
7
  6
CONTINUOUS
 10
172.5993299452
 20
74.9388772481
 11
174.3544352109
 21
75.2519486853
  0
LINE
  8
0
 62
7
  6
CONTINUOUS
 10
167.1358658214
 20
74.8594555147
 11
167.6254758565
 21
74.9440027231
  0
LINE
  8
0
 62
7
  6
CONTINUOUS
 10
66.9507794787
 20
59.7866520788
 11
133.9507502724
 21
59.7866520788
  0
POLYLINE
  8
0
 62
7
  6
CONTINUOUS
 66
1
 70
0
  0
VERTEX
  8
0
 62
7
  6
CONTINUOUS
 10
28.3022020726
 20
74.9388773617
  0
VERTEX
  8
0
 62
7
  6
CONTINUOUS
 10
28.8436476472
 20
74.85792933
  0
VERTEX
  8
0
 62
7
  6
CONTINUOUS
 10
29.470655601
 20
74.8022979866
  0
VERTEX
  8
0
 62
7
  6
CONTINUOUS
 10
30.024872616
 20
74.7866522497
  0
SEQEND
  0
LINE
  8
0
 62
7
  6
CONTINUOUS
 10
26.5376353511
 20
75.2536695742
 11
28.3022017835
 21
74.9388772481
  0
LINE
  8
0
 62
7
  6
CONTINUOUS
 10
26.2858693367
 20
75.3001599052
 11
26.5376353511
 21
75.2536695742
  0
LINE
  8
0
 62
7
  6
CONTINUOUS
 10
26.1555415885
 20
75.3249970119
 11
26.2858693367
 21
75.3001599052
  0
POLYLINE
  8
0
 62
7
  6
CONTINUOUS
 66
1
 70
0
  0
VERTEX
  8
0
 62
7
  6
CONTINUOUS
 10
40.5109406777
 20
74.9486086122
  0
VERTEX
  8
0
 62
7
  6
CONTINUOUS
 10
40.959784404
 20
74.8623929753
  0
VERTEX
  8
0
 62
7
  6
CONTINUOUS
 10
41.4792250738
 20
74.8032489238
  0
VERTEX
  8
0
 62
7
  6
CONTINUOUS
 10
41.9377221717
 20
74.7866522499
  0
SEQEND
  0
LINE
  8
0
 62
7
  6
CONTINUOUS
 10
26.0576216597
 20
75.3443339802
 11
26.1555415885
 21
75.3249970119
  0
LINE
  8
0
 62
7
  6
CONTINUOUS
 10
39.3327074746
 20
75.2184315888
 11
40.5109307023
 21
74.9486107312
  0
LINE
  8
0
 62
7
  6
CONTINUOUS
 10
39.3327996089
 20
75.2184104986
 11
39.3327074746
 21
75.2184315888
  0
LINE
  8
0
 62
7
  6
CONTINUOUS
 10
68.535621554
 20
75.0334612965
 11
68.8526728576
 21
74.899128051
  0
LINE
  8
0
 62
7
  6
CONTINUOUS
 10
68.0092826713
 20
75.3034311781
 11
68.5353879918
 21
75.0335808728
  0
LINE
  8
0
 62
7
  6
CONTINUOUS
 10
87.1361212133
 20
74.7866520788
 11
87.1361212133
 21
74.6366520788
  0
LINE
  8
0
 62
7
  6
CONTINUOUS
 10
87.2362233493
 20
74.7866520788
 11
87.2362233493
 21
74.6366520788
  0
LINE
  8
0
 62
7
  6
CONTINUOUS
 10
87.5193764176
 20
74.7866520788
 11
87.5193764176
 21
74.6366520788
  0
LINE
  8
0
 62
7
  6
CONTINUOUS
 10
87.8440007417
 20
74.7866520788
 11
87.8440007417
 21
74.6366520788
  0
LINE
  8
0
 62
7
  6
CONTINUOUS
 10
88.2808893022
 20
74.7866520788
 11
88.2808893022
 21
74.6366520788
  0
LINE
  8
0
 62
7
  6
CONTINUOUS
 10
89.0130867468
 20
74.7866520788
 11
89.0130867468
 21
74.6366520788
  0
LINE
  8
0
 62
7
  6
CONTINUOUS
 10
89.4914465632
 20
74.7866520788
 11
89.4914465632
 21
74.6366520788
  0
LINE
  8
0
 62
7
  6
CONTINUOUS
 10
89.8990196836
 20
74.7866520788
 11
89.8990196836
 21
74.6366520788
  0
LINE
  8
0
 62
7
  6
CONTINUOUS
 10
90.3480661548
 20
74.7866520788
 11
90.3480661548
 21
74.6366520788
  0
LINE
  8
0
 62
7
  6
CONTINUOUS
 10
90.6140616937
 20
74.7866520788
 11
90.6140616937
 21
74.6366520788
  0
POLYLINE
  8
0
 62
7
  6
CONTINUOUS
 66
1
 70
0
  0
VERTEX
  8
0
 62
7
  6
CONTINUOUS
 10
68.8526728576
 20
74.899128051
  0
VERTEX
  8
0
 62
7
  6
CONTINUOUS
 10
69.2175126939
 20
74.8102434746
  0
VERTEX
  8
0
 62
7
  6
CONTINUOUS
 10
69.5287834437
 20
74.7866523111
  0
SEQEND
  0
LINE
  8
0
 62
7
  6
CONTINUOUS
 10
90.8092705947
 20
74.7866520788
 11
90.8092705947
 21
74.6366520788
  0
LINE
  8
0
 62
7
  6
CONTINUOUS
 10
91.1203207542
 20
74.7866520788
 11
91.1203207542
 21
74.6366520788
  0
LINE
  8
0
 62
7
  6
CONTINUOUS
 10
91.1324786649
 20
74.7866520788
 11
91.1324786649
 21
74.6366520788
  0
LINE
  8
0
 62
7
  6
CONTINUOUS
 10
91.6172885861
 20
74.7866520788
 11
91.6172885861
 21
74.6366520788
  0
LINE
  8
0
 62
7
  6
CONTINUOUS
 10
92.4541022514
 20
74.7866520788
 11
92.4541022514
 21
74.6366520788
  0
LINE
  8
0
 62
7
  6
CONTINUOUS
 10
94.7785832363
 20
74.7866520788
 11
94.7785832363
 21
74.6366520788
  0
LINE
  8
0
 62
7
  6
CONTINUOUS
 10
95.3364590131
 20
74.7866520788
 11
95.3364590131
 21
74.6366520788
  0
LINE
  8
0
 62
7
  6
CONTINUOUS
 10
95.9122849634
 20
74.7866520788
 11
95.9122849634
 21
74.6366520788
  0
POLYLINE
  8
0
 62
7
  6
CONTINUOUS
 66
1
 70
0
  0
VERTEX
  8
0
 62
7
  6
CONTINUOUS
 10
145.6559342346
 20
74.7866520825
  0
VERTEX
  8
0
 62
7
  6
CONTINUOUS
 10
145.7833667536
 20
74.7945362225
  0
VERTEX
  8
0
 62
7
  6
CONTINUOUS
 10
145.9769713599
 20
74.8376844034
  0
VERTEX
  8
0
 62
7
  6
CONTINUOUS
 10
146.1571221688
 20
74.9159934347
  0
VERTEX
  8
0
 62
7
  6
CONTINUOUS
 10
146.3178497217
 20
75.025958977
  0
VERTEX
  8
0
 62
7
  6
CONTINUOUS
 10
146.4536757514
 20
75.163092687
  0
VERTEX
  8
0
 62
7
  6
CONTINUOUS
 10
146.5600773571
 20
75.3221555842
  0
VERTEX
  8
0
 62
7
  6
CONTINUOUS
 10
146.6335439294
 20
75.4971639436
  0
VERTEX
  8
0
 62
7
  6
CONTINUOUS
 10
146.6704719973
 20
75.6750579187
  0
SEQEND
  0
POLYLINE
  8
0
 62
7
  6
CONTINUOUS
 66
1
 70
0
  0
VERTEX
  8
0
 62
7
  6
CONTINUOUS
 10
144.2912124601
 20
74.7866522462
  0
VERTEX
  8
0
 62
7
  6
CONTINUOUS
 10
144.6301383023
 20
74.8063027241
  0
VERTEX
  8
0
 62
7
  6
CONTINUOUS
 10
145.0239426727
 20
74.8790288327
  0
SEQEND
  0
POLYLINE
  8
0
 62
7
  6
CONTINUOUS
 66
1
 70
0
  0
VERTEX
  8
0
 62
7
  6
CONTINUOUS
 10
166.0870199248
 20
74.7866522368
  0
VERTEX
  8
0
 62
7
  6
CONTINUOUS
 10
166.5763814718
 20
74.8024506713
  0
VERTEX
  8
0
 62
7
  6
CONTINUOUS
 10
167.1358658214
 20
74.8594555147
  0
SEQEND
  0
POLYLINE
  8
0
 62
7
  6
CONTINUOUS
 66
1
 70
0
  0
VERTEX
  8
0
 62
7
  6
CONTINUOUS
 10
170.8766591126
 20
74.7866522497
  0
VERTEX
  8
0
 62
7
  6
CONTINUOUS
 10
171.4308761277
 20
74.8022979866
  0
VERTEX
  8
0
 62
7
  6
CONTINUOUS
 10
172.0578840815
 20
74.85792933
  0
VERTEX
  8
0
 62
7
  6
CONTINUOUS
 10
172.599329656
 20
74.9388773617
  0
SEQEND
  0
LINE
  8
0
 62
7
  6
CONTINUOUS
 10
154.0821630725
 20
74.6366520788
 11
141.2161376687
 21
74.6366520788
  0
LINE
  8
0
 62
7
  6
CONTINUOUS
 10
132.1611309972
 20
74.6366520788
 11
128.1598679251
 21
74.6366520788
  0
LINE
  8
0
 62
7
  6
CONTINUOUS
 10
127.788387867
 20
74.6366520788
 11
119.7812574246
 21
74.6366520788
  0
LINE
  8
0
 62
7
  6
CONTINUOUS
 10
115.7230294657
 20
74.6366520788
 11
110.2831132341
 21
74.6366520788
  0
LINE
  8
0
 62
7
  6
CONTINUOUS
 10
109.6001684684
 20
74.6366520788
 11
105.2818502013
 21
74.6366520788
  0
LINE
  8
0
 62
7
  6
CONTINUOUS
 10
100.0342376147
 20
74.6366520788
 11
96.4729946722
 21
74.6366520788
  0
LINE
  8
0
 62
7
  6
CONTINUOUS
 10
95.9122849634
 20
74.6366520788
 11
91.6172885861
 21
74.6366520788
  0
LINE
  8
0
 62
7
  6
CONTINUOUS
 10
91.1324786649
 20
74.6366520788
 11
87.1361212133
 21
74.6366520788
  0
LINE
  8
0
 62
7
  6
CONTINUOUS
 10
82.7895412006
 20
74.6366520788
 11
69.499330643
 21
74.6366520788
  0
LINE
  8
0
 62
7
  6
CONTINUOUS
 10
67.804220495
 20
74.6366520788
 11
60.1662279861
 21
74.6366520788
  0
LINE
  8
0
 62
7
  6
CONTINUOUS
 10
58.8193686562
 20
74.6366520788
 11
45.9533432524
 21
74.6366520788
  0
LINE
  8
0
 62
7
  6
CONTINUOUS
 10
170.8766588428
 20
74.7866520788
 11
30.0248904529
 21
74.7866520788
  0
LINE
  8
0
 62
7
  6
CONTINUOUS
 10
96.4729946722
 20
74.7866520788
 11
96.4729946722
 21
74.6366520788
  0
LINE
  8
0
 62
7
  6
CONTINUOUS
 10
99.8450094091
 20
74.7866520788
 11
99.8450094091
 21
74.6366520788
  0
LINE
  8
0
 62
7
  6
CONTINUOUS
 10
99.8691661984
 20
74.7866520788
 11
99.8691661984
 21
74.6366520788
  0
LINE
  8
0
 62
7
  6
CONTINUOUS
 10
100.0100808226
 20
74.7866520788
 11
100.0100808226
 21
74.6366520788
  0
LINE
  8
0
 62
7
  6
CONTINUOUS
 10
100.0342376147
 20
74.7866520788
 11
100.0342376147
 21
74.6366520788
  0
LINE
  8
DEFAULT_1
 62
2
  6
CENTER
 10
100.4507658643
 20
57.7866520788
 11
100.4507658643
 21
100.7866520788
  0
LINE
  8
0
 62
7
  6
CONTINUOUS
 10
105.2818502013
 20
74.7866520788
 11
105.2818502013
 21
74.6366520788
  0
LINE
  8
0
 62
7
  6
CONTINUOUS
 10
105.3843234811
 20
74.7866520788
 11
105.3843234811
 21
74.6366520788
  0
LINE
  8
0
 62
7
  6
CONTINUOUS
 10
105.8198349451
 20
74.7866520788
 11
105.8198349451
 21
74.6366520788
  0
LINE
  8
0
 62
7
  6
CONTINUOUS
 10
105.8838807394
 20
74.7866520788
 11
105.8838807394
 21
74.6366520788
  0
LINE
  8
0
 62
7
  6
CONTINUOUS
 10
30.0248728859
 20
83.7866520788
 11
41.928619859
 21
83.7866520788
  0
LINE
  8
0
 62
7
  6
CONTINUOUS
 10
41.9377328331
 20
83.7866520788
 11
170.8766588428
 21
83.7866520788
  0
LINE
  8
0
 62
7
  6
CONTINUOUS
 10
154.0821630725
 20
83.9366520788
 11
141.2161376687
 21
83.9366520788
  0
LINE
  8
0
 62
7
  6
CONTINUOUS
 10
58.8193686562
 20
83.9366520788
 11
45.9533432524
 21
83.9366520788
  0
LINE
  8
0
 62
7
  6
CONTINUOUS
 10
109.6001684684
 20
74.7866520788
 11
109.6001684684
 21
74.6366520788
  0
LINE
  8
0
 62
7
  6
CONTINUOUS
 10
110.2831132341
 20
74.7866520788
 11
110.2831132341
 21
74.6366520788
  0
LINE
  8
0
 62
7
  6
CONTINUOUS
 10
110.3340891604
 20
74.7866520788
 11
110.3340891604
 21
74.6366520788
  0
LINE
  8
0
 62
7
  6
CONTINUOUS
 10
110.4847123889
 20
74.7866520788
 11
110.4847123889
 21
74.6366520788
  0
LINE
  8
0
 62
7
  6
CONTINUOUS
 10
111.1680244974
 20
74.7866520788
 11
111.1680244974
 21
74.6366520788
  0
LINE
  8
0
 62
7
  6
CONTINUOUS
 10
69.5287620939
 20
83.786651848
 11
69.2214108385
 21
83.7636489986
  0
POLYLINE
  8
0
 62
7
  6
CONTINUOUS
 66
1
 70
0
  0
VERTEX
  8
0
 62
7
  6
CONTINUOUS
 10
41.9377217195
 20
83.7866519175
  0
VERTEX
  8
0
 62
7
  6
CONTINUOUS
 10
41.4848466643
 20
83.7704600344
  0
VERTEX
  8
0
 62
7
  6
CONTINUOUS
 10
40.9653655669
 20
83.7117766853
  0
SEQEND
  0
POLYLINE
  8
0
 62
7
  6
CONTINUOUS
 66
1
 70
0
  0
VERTEX
  8
0
 62
7
  6
CONTINUOUS
 10
30.0248726142
 20
83.7866519176
  0
VERTEX
  8
0
 62
7
  6
CONTINUOUS
 10
29.4774429868
 20
83.7713873207
  0
VERTEX
  8
0
 62
7
  6
CONTINUOUS
 10
28.8503976802
 20
83.7161900921
  0
SEQEND
  0
LINE
  8
0
 62
7
  6
CONTINUOUS
 10
111.719541327
 20
74.7866520788
 11
111.719541327
 21
74.6366520788
  0
LINE
  8
0
 62
7
  6
CONTINUOUS
 10
112.543286142
 20
74.7866520788
 11
112.543286142
 21
74.6366520788
  0
LINE
  8
0
 62
7
  6
CONTINUOUS
 10
112.7316259283
 20
74.7866520788
 11
112.7316259283
 21
74.6366520788
  0
LINE
  8
0
 62
7
  6
CONTINUOUS
 10
113.1919114907
 20
74.7866520788
 11
113.1919114907
 21
74.6366520788
  0
LINE
  8
0
 62
7
  6
CONTINUOUS
 10
113.603354914
 20
74.7866520788
 11
113.603354914
 21
74.6366520788
  0
LINE
  8
0
 62
7
  6
CONTINUOUS
 10
114.2623168195
 20
74.7866520788
 11
114.2623168195
 21
74.6366520788
  0
LINE
  8
0
 62
7
  6
CONTINUOUS
 10
114.6249098044
 20
74.7866520788
 11
114.6249098044
 21
74.6366520788
  0
LINE
  8
0
 62
7
  6
CONTINUOUS
 10
115.1443782123
 20
74.7866520788
 11
115.1443782123
 21
74.6366520788
  0
LINE
  8
0
 62
7
  6
CONTINUOUS
 10
115.4581290582
 20
74.7866520788
 11
115.4581290582
 21
74.6366520788
  0
LINE
  8
0
 62
7
  6
CONTINUOUS
 10
115.7230294657
 20
74.7866520788
 11
115.7230294657
 21
74.6366520788
  0
POLYLINE
  8
0
 62
7
  6
CONTINUOUS
 66
1
 70
0
  0
VERTEX
  8
0
 62
7
  6
CONTINUOUS
 10
69.2214108385
 20
83.7636489986
  0
VERTEX
  8
0
 62
7
  6
CONTINUOUS
 10
68.8563576581
 20
83.6754160228
  0
VERTEX
  8
0
 62
7
  6
CONTINUOUS
 10
68.5356070029
 20
83.5398353939
  0
SEQEND
  0
LINE
  8
0
 62
7
  6
CONTINUOUS
 10
40.9653655669
 20
83.7117766853
 11
40.5109402932
 21
83.6246954473
  0
LINE
  8
0
 62
7
  6
CONTINUOUS
 10
28.8503976802
 20
83.7161900921
 11
28.3022020726
 21
83.6344267858
  0
POLYLINE
  8
0
 62
7
  6
CONTINUOUS
 66
1
 70
0
  0
VERTEX
  8
0
 62
7
  6
CONTINUOUS
 10
172.5993296561
 20
83.6344267858
  0
VERTEX
  8
0
 62
7
  6
CONTINUOUS
 10
172.0511340484
 20
83.7161900921
  0
VERTEX
  8
0
 62
7
  6
CONTINUOUS
 10
171.4240887418
 20
83.7713873207
  0
VERTEX
  8
0
 62
7
  6
CONTINUOUS
 10
170.8766591145
 20
83.7866519176
  0
SEQEND
  0
POLYLINE
  8
0
 62
7
  6
CONTINUOUS
 66
1
 70
0
  0
VERTEX
  8
0
 62
7
  6
CONTINUOUS
 10
167.6254756134
 20
83.6293014747
  0
VERTEX
  8
0
 62
7
  6
CONTINUOUS
 10
167.141809731
 20
83.7130178081
  0
VERTEX
  8
0
 62
7
  6
CONTINUOUS
 10
166.582361495
 20
83.7704646578
  0
VERTEX
  8
0
 62
7
  6
CONTINUOUS
 10
166.0870196595
 20
83.7866519301
  0
SEQEND
  0
POLYLINE
  8
0
 62
7
  6
CONTINUOUS
 66
1
 70
0
  0
VERTEX
  8
0
 62
7
  6
CONTINUOUS
 10
145.0280231713
 20
83.6932356245
  0
VERTEX
  8
0
 62
7
  6
CONTINUOUS
 10
144.6343179793
 20
83.7665131154
  0
VERTEX
  8
0
 62
7
  6
CONTINUOUS
 10
144.2912047657
 20
83.7866519219
  0
SEQEND
  0
LINE
  8
0
 62
7
  6
CONTINUOUS
 10
119.7812574246
 20
74.7866520788
 11
119.7812574246
 21
74.6366520788
  0
LINE
  8
0
 62
7
  6
CONTINUOUS
 10
121.6627959135
 20
74.7866520788
 11
121.6627959135
 21
74.6366520788
  0
POLYLINE
  8
0
 62
7
  6
CONTINUOUS
 66
1
 70
0
  0
VERTEX
  8
0
 62
7
  6
CONTINUOUS
 10
146.1195420011
 20
75.2744512401
  0
VERTEX
  8
0
 62
7
  6
CONTINUOUS
 10
146.1921485149
 20
75.3040292563
  0
VERTEX
  8
0
 62
7
  6
CONTINUOUS
 10
146.3120655036
 20
75.3629890555
  0
VERTEX
  8
0
 62
7
  6
CONTINUOUS
 10
146.4359229297
 20
75.4417002119
  0
VERTEX
  8
0
 62
7
  6
CONTINUOUS
 10
146.5607898771
 20
75.5472202506
  0
VERTEX
  8
0
 62
7
  6
CONTINUOUS
 10
146.6788980054
 20
75.6848786737
  0
VERTEX
  8
0
 62
7
  6
CONTINUOUS
 10
146.7776851579
 20
75.8540404943
  0
VERTEX
  8
0
 62
7
  6
CONTINUOUS
 10
146.8442275928
 20
76.0451713267
  0
VERTEX
  8
0
 62
7
  6
CONTINUOUS
 10
146.8717839672
 20
76.244010418
  0
VERTEX
  8
0
 62
7
  6
CONTINUOUS
 10
146.8725673011
 20
76.2839782576
  0
SEQEND
  0
LINE
  8
0
 62
7
  6
CONTINUOUS
 10
145.370541646
 20
74.988900679
 11
145.370629183
 21
74.9889340315
  0
LINE
  8
0
 62
7
  6
CONTINUOUS
 10
145.370629183
 20
74.9889340315
 11
146.1199362144
 21
75.2746008432
  0
LINE
  8
0
 62
7
  6
CONTINUOUS
 10
145.0239426727
 20
74.8790288327
 11
145.3705415942
 21
74.9889008149
  0
POLYLINE
  8
0
 62
7
  6
CONTINUOUS
 66
1
 70
0
  0
VERTEX
  8
0
 62
7
  6
CONTINUOUS
 10
39.3328089199
 20
83.3548953788
  0
VERTEX
  8
0
 62
7
  6
CONTINUOUS
 10
39.2372533398
 20
83.3321068064
  0
VERTEX
  8
0
 62
7
  6
CONTINUOUS
 10
39.1144143719
 20
83.2995447716
  0
VERTEX
  8
0
 62
7
  6
CONTINUOUS
 10
39.0045766899
 20
83.2659973071
  0
VERTEX
  8
0
 62
7
  6
CONTINUOUS
 10
38.9033013573
 20
83.229495179
  0
VERTEX
  8
0
 62
7
  6
CONTINUOUS
 10
38.8063801907
 20
83.1872704333
  0
VERTEX
  8
0
 62
7
  6
CONTINUOUS
 10
38.7117178367
 20
83.1365944765
  0
VERTEX
  8
0
 62
7
  6
CONTINUOUS
 10
38.6155144543
 20
83.0725528149
  0
VERTEX
  8
0
 62
7
  6
CONTINUOUS
 10
38.5167122495
 20
82.9893452601
  0
VERTEX
  8
0
 62
7
  6
CONTINUOUS
 10
38.4183677912
 20
82.8815754554
  0
VERTEX
  8
0
 62
7
  6
CONTINUOUS
 10
38.3293027631
 20
82.7488845775
  0
VERTEX
  8
0
 62
7
  6
CONTINUOUS
 10
38.2583142502
 20
82.5936524572
  0
VERTEX
  8
0
 62
7
  6
CONTINUOUS
 10
38.2129591125
 20
82.4206379263
  0
VERTEX
  8
0
 62
7
  6
CONTINUOUS
 10
38.1987462417
 20
82.2517640924
  0
SEQEND
  0
LINE
  8
0
 62
7
  6
CONTINUOUS
 10
40.5109307023
 20
83.6246934263
 11
39.332707469
 21
83.3548725675
  0
POLYLINE
  8
0
 62
7
  6
CONTINUOUS
 66
1
 70
0
  0
VERTEX
  8
0
 62
7
  6
CONTINUOUS
 10
26.0545456287
 20
83.2283475672
  0
VERTEX
  8
0
 62
7
  6
CONTINUOUS
 10
26.0156663661
 20
83.2203594783
  0
VERTEX
  8
0
 62
7
  6
CONTINUOUS
 10
25.9810575489
 20
83.2130013741
  0
VERTEX
  8
0
 62
7
  6
CONTINUOUS
 10
25.94902351
 20
83.2058678049
  0
VERTEX
  8
0
 62
7
  6
CONTINUOUS
 10
25.9166457142
 20
83.1981667513
  0
VERTEX
  8
0
 62
7
  6
CONTINUOUS
 10
25.880567876
 20
83.188727704
  0
VERTEX
  8
0
 62
7
  6
CONTINUOUS
 10
25.8383729999
 20
83.176185328
  0
VERTEX
  8
0
 62
7
  6
CONTINUOUS
 10
25.7895344178
 20
83.1593011844
  0
VERTEX
  8
0
 62
7
  6
CONTINUOUS
 10
25.7356647769
 20
83.1374203876
  0
VERTEX
  8
0
 62
7
  6
CONTINUOUS
 10
25.6780952751
 20
83.1099081864
  0
VERTEX
  8
0
 62
7
  6
CONTINUOUS
 10
25.6185559271
 20
83.0765021732
  0
VERTEX
  8
0
 62
7
  6
CONTINUOUS
 10
25.5584331542
 20
83.0370177172
  0
VERTEX
  8
0
 62
7
  6
CONTINUOUS
 10
25.4993188433
 20
82.9916941994
  0
VERTEX
  8
0
 62
7
  6
CONTINUOUS
 10
25.4421564694
 20
82.9405824849
  0
VERTEX
  8
0
 62
7
  6
CONTINUOUS
 10
25.3874525783
 20
82.8834173742
  0
VERTEX
  8
0
 62
7
  6
CONTINUOUS
 10
25.3358275519
 20
82.8199665271
  0
VERTEX
  8
0
 62
7
  6
CONTINUOUS
 10
25.2880212661
 20
82.7500551626
  0
VERTEX
  8
0
 62
7
  6
CONTINUOUS
 10
25.2449403114
 20
82.6736852172
  0
VERTEX
  8
0
 62
7
  6
CONTINUOUS
 10
25.2075883268
 20
82.5910283095
  0
VERTEX
  8
0
 62
7
  6
CONTINUOUS
 10
25.1770120113
 20
82.5023961053
  0
VERTEX
  8
0
 62
7
  6
CONTINUOUS
 10
25.1542850255
 20
82.4082578764
  0
VERTEX
  8
0
 62
7
  6
CONTINUOUS
 10
25.1404873572
 20
82.3092552302
  0
VERTEX
  8
0
 62
7
  6
CONTINUOUS
 10
25.1365739797
 20
82.2208633011
  0
SEQEND
  0
LINE
  8
0
 62
7
  6
CONTINUOUS
 10
26.1483592595
 20
83.2469139117
 11
26.0545456287
 21
83.2283475672
  0
LINE
  8
0
 62
7
  6
CONTINUOUS
 10
26.2652848415
 20
83.269267877
 11
26.1483592595
 21
83.2469139117
  0
LINE
  8
0
 62
7
  6
CONTINUOUS
 10
26.4832775927
 20
83.3097157254
 11
26.2652848415
 21
83.269267877
  0
LINE
  8
0
 62
7
  6
CONTINUOUS
 10
28.3022017835
 20
83.6344269094
 11
26.4832775927
 21
83.3097157254
  0
LINE
  8
0
 62
7
  6
CONTINUOUS
 10
133.9507522589
 20
98.7866520788
 11
66.9507794787
 21
98.7866520788
  0
LINE
  8
0
 62
7
  6
CONTINUOUS
 10
174.36086448
 20
83.320186227
 11
172.5993299452
 21
83.6344269094
  0
LINE
  8
0
 62
7
  6
CONTINUOUS
 10
174.6132807589
 20
83.273591818
 11
174.36086448
 21
83.320186227
  0
LINE
  8
0
 62
7
  6
CONTINUOUS
 10
174.7441009884
 20
83.2486730801
 11
174.6132807589
 21
83.273591818
  0
POLYLINE
  8
0
 62
7
  6
CONTINUOUS
 66
1
 70
0
  0
VERTEX
  8
0
 62
7
  6
CONTINUOUS
 10
169.298436351
 20
83.2785905175
  0
VERTEX
  8
0
 62
7
  6
CONTINUOUS
 10
169.2007158282
 20
83.3020393274
  0
VERTEX
  8
0
 62
7
  6
CONTINUOUS
 10
169.0908996865
 20
83.3265109326
  0
VERTEX
  8
0
 62
7
  6
CONTINUOUS
 10
167.6254803913
 20
83.6293006549
  0
SEQEND
  0
LINE
  8
0
 62
7
  6
CONTINUOUS
 10
169.3857851883
 20
83.2557350818
 11
169.298436351
 21
83.2785905175
  0
LINE
  8
0
 62
7
  6
CONTINUOUS
 10
145.3705357523
 20
83.5844055582
 11
145.0280231713
 21
83.6932356245
  0
LINE
  8
0
 62
7
  6
CONTINUOUS
 10
146.1199362059
 20
83.2987033175
 11
145.370629183
 21
83.5843701261
  0
LINE
  8
0
 62
7
  6
CONTINUOUS
 10
123.7066778154
 20
74.7866520788
 11
123.7066778154
 21
74.6366520788
  0
LINE
  8
0
 62
7
  6
CONTINUOUS
 10
124.0924551154
 20
74.7866520788
 11
124.0924551154
 21
74.6366520788
  0
LINE
  8
0
 62
7
  6
CONTINUOUS
 10
124.3130026124
 20
74.7866520788
 11
124.3130026124
 21
74.6366520788
  0
LINE
  8
0
 62
7
  6
CONTINUOUS
 10
124.408356934
 20
74.7866520788
 11
124.408356934
 21
74.6366520788
  0
POLYLINE
  8
0
 62
7
  6
CONTINUOUS
 66
1
 70
0
  0
VERTEX
  8
0
 62
7
  6
CONTINUOUS
 10
169.383694179
 20
75.3169951174
  0
VERTEX
  8
0
 62
7
  6
CONTINUOUS
 10
169.4628725625
 20
75.3399189172
  0
VERTEX
  8
0
 62
7
  6
CONTINUOUS
 10
169.5371632957
 20
75.3643070241
  0
VERTEX
  8
0
 62
7
  6
CONTINUOUS
 10
169.611286473
 20
75.3926003981
  0
VERTEX
  8
0
 62
7
  6
CONTINUOUS
 10
169.6886020225
 20
75.4277376489
  0
VERTEX
  8
0
 62
7
  6
CONTINUOUS
 10
169.7717633987
 20
75.4736161815
  0
VERTEX
  8
0
 62
7
  6
CONTINUOUS
 10
169.8591766881
 20
75.5330402301
  0
VERTEX
  8
0
 62
7
  6
CONTINUOUS
 10
169.9479504443
 20
75.6083605717
  0
VERTEX
  8
0
 62
7
  6
CONTINUOUS
 10
170.0332079611
 20
75.7000184145
  0
VERTEX
  8
0
 62
7
  6
CONTINUOUS
 10
170.110032439
 20
75.8070307738
  0
VERTEX
  8
0
 62
7
  6
CONTINUOUS
 10
170.1748380482
 20
75.9287938807
  0
VERTEX
  8
0
 62
7
  6
CONTINUOUS
 10
170.2242911429
 20
76.0648145841
  0
VERTEX
  8
0
 62
7
  6
CONTINUOUS
 10
170.2546648409
 20
76.213857887
  0
VERTEX
  8
0
 62
7
  6
CONTINUOUS
 10
170.262543574
 20
76.3394333199
  0
SEQEND
  0
LINE
  8
0
 62
7
  6
CONTINUOUS
 10
127.1369869797
 20
74.7866520788
 11
127.1369869797
 21
74.6366520788
  0
LINE
  8
0
 62
7
  6
CONTINUOUS
 10
127.788387867
 20
74.7866520788
 11
127.788387867
 21
74.6366520788
  0
LINE
  8
0
 62
7
  6
CONTINUOUS
 10
128.1598679251
 20
74.7866520788
 11
128.1598679251
 21
74.6366520788
  0
LINE
  8
0
 62
7
  6
CONTINUOUS
 10
128.2778331944
 20
74.7866520788
 11
128.2778331944
 21
74.6366520788
  0
LINE
  8
0
 62
7
  6
CONTINUOUS
 10
128.5818027
 20
74.7866520788
 11
128.5818027
 21
74.6366520788
  0
LINE
  8
0
 62
7
  6
CONTINUOUS
 10
128.9628905535
 20
74.7866520788
 11
128.9628905535
 21
74.6366520788
  0
LINE
  8
0
 62
7
  6
CONTINUOUS
 10
129.421096831
 20
74.7866520788
 11
129.421096831
 21
74.6366520788
  0
LINE
  8
0
 62
7
  6
CONTINUOUS
 10
129.8475429716
 20
74.7866520788
 11
129.8475429716
 21
74.6366520788
  0
LINE
  8
0
 62
7
  6
CONTINUOUS
 10
130.2966662619
 20
74.7866520788
 11
130.2966662619
 21
74.6366520788
  0
LINE
  8
0
 62
7
  6
CONTINUOUS
 10
130.8455852784
 20
74.7866520788
 11
130.8455852784
 21
74.6366520788
  0
LINE
  8
0
 62
7
  6
CONTINUOUS
 10
131.2856291116
 20
74.7866520788
 11
131.2856291116
 21
74.6366520788
  0
LINE
  8
0
 62
7
  6
CONTINUOUS
 10
131.594102808
 20
74.7866520788
 11
131.594102808
 21
74.6366520788
  0
LINE
  8
0
 62
7
  6
CONTINUOUS
 10
131.9252643974
 20
74.7866520788
 11
131.9252643974
 21
74.6366520788
  0
LINE
  8
0
 62
7
  6
CONTINUOUS
 10
132.1475366824
 20
74.7866520788
 11
132.1475366824
 21
74.6366520788
  0
LINE
  8
0
 62
7
  6
CONTINUOUS
 10
132.1611309972
 20
74.7866520788
 11
132.1611309972
 21
74.6366520788
  0
LINE
  8
0
 62
7
  6
CONTINUOUS
 10
135.4507658643
 20
97.2866520788
 11
135.4507658643
 21
85.2866520788
  0
LINE
  8
0
 62
7
  6
CONTINUOUS
 10
135.4507658643
 20
73.2866520788
 11
135.4507658643
 21
61.2866520788
  0
LINE
  8
0
 62
7
  6
CONTINUOUS
 10
141.2161376687
 20
83.9366520788
 11
141.2161376687
 21
83.7866520788
  0
LINE
  8
0
 62
7
  6
CONTINUOUS
 10
141.2161376687
 20
74.7866520788
 11
141.2161376687
 21
74.6366520788
  0
POLYLINE
  8
0
 62
7
  6
CONTINUOUS
 66
1
 70
0
  0
VERTEX
  8
0
 62
7
  6
CONTINUOUS
 10
146.8725673014
 20
82.2893260815
  0
VERTEX
  8
0
 62
7
  6
CONTINUOUS
 10
146.8718016951
 20
82.3288391466
  0
VERTEX
  8
0
 62
7
  6
CONTINUOUS
 10
146.8444758581
 20
82.5270986433
  0
VERTEX
  8
0
 62
7
  6
CONTINUOUS
 10
146.7783832709
 20
82.7177530304
  0
VERTEX
  8
0
 62
7
  6
CONTINUOUS
 10
146.6801136685
 20
82.8867296521
  0
VERTEX
  8
0
 62
7
  6
CONTINUOUS
 10
146.5623610034
 20
83.024537736
  0
VERTEX
  8
0
 62
7
  6
CONTINUOUS
 10
146.4376787761
 20
83.1303256875
  0
VERTEX
  8
0
 62
7
  6
CONTINUOUS
 10
146.3140536402
 20
83.2092105276
  0
VERTEX
  8
0
 62
7
  6
CONTINUOUS
 10
146.194701386
 20
83.2681602937
  0
VERTEX
  8
0
 62
7
  6
CONTINUOUS
 10
146.1195365554
 20
83.2988549911
  0
SEQEND
  0
LINE
  8
0
 62
7
  6
CONTINUOUS
 10
142.9481884763
 20
83.9366520788
 11
142.9481884763
 21
83.7866520788
  0
LINE
  8
0
 62
7
  6
CONTINUOUS
 10
142.9481884763
 20
74.7866520788
 11
142.9481884763
 21
74.6366520788
  0
LINE
  8
0
 62
7
  6
CONTINUOUS
 10
146.8725693174
 20
82.2895801773
 11
146.8725693174
 21
76.2837239802
  0
POLYLINE
  8
0
 62
7
  6
CONTINUOUS
 66
1
 70
0
  0
VERTEX
  8
0
 62
7
  6
CONTINUOUS
 10
146.6705155727
 20
82.8979624781
  0
VERTEX
  8
0
 62
7
  6
CONTINUOUS
 10
146.6336146504
 20
83.0759130352
  0
VERTEX
  8
0
 62
7
  6
CONTINUOUS
 10
146.5601920888
 20
83.2509350955
  0
VERTEX
  8
0
 62
7
  6
CONTINUOUS
 10
146.4538043671
 20
83.4100542437
  0
VERTEX
  8
0
 62
7
  6
CONTINUOUS
 10
146.3179658995
 20
83.5472485115
  0
VERTEX
  8
0
 62
7
  6
CONTINUOUS
 10
146.1572124791
 20
83.6572608227
  0
VERTEX
  8
0
 62
7
  6
CONTINUOUS
 10
145.9770314268
 20
83.7356003896
  0
VERTEX
  8
0
 62
7
  6
CONTINUOUS
 10
145.7833938253
 20
83.7787646042
  0
VERTEX
  8
0
 62
7
  6
CONTINUOUS
 10
145.6574010535
 20
83.7866502694
  0
SEQEND
  0
LINE
  8
0
 62
7
  6
CONTINUOUS
 10
148.6981884763
 20
83.9366520788
 11
148.6981884763
 21
83.7866520788
  0
LINE
  8
0
 62
7
  6
CONTINUOUS
 10
148.6981884763
 20
74.7866520788
 11
148.6981884763
 21
74.6366520788
  0
LINE
  8
0
 62
7
  6
CONTINUOUS
 10
151.0387682172
 20
83.9366520788
 11
151.0387682172
 21
83.7866520788
  0
LINE
  8
0
 62
7
  6
CONTINUOUS
 10
151.0387682172
 20
74.7866520788
 11
151.0387682172
 21
74.6366520788
  0
LINE
  8
0
 62
7
  6
CONTINUOUS
 10
154.0821630725
 20
83.9366520788
 11
154.0821630725
 21
83.7866520788
  0
LINE
  8
0
 62
7
  6
CONTINUOUS
 10
154.0821630725
 20
74.7866520788
 11
154.0821630725
 21
74.6366520788
  0
POLYLINE
  8
0
 62
7
  6
CONTINUOUS
 66
1
 70
0
  0
VERTEX
  8
0
 62
7
  6
CONTINUOUS
 10
170.262543574
 20
82.2338708346
  0
VERTEX
  8
0
 62
7
  6
CONTINUOUS
 10
170.2547483873
 20
82.3587812535
  0
VERTEX
  8
0
 62
7
  6
CONTINUOUS
 10
170.2245482309
 20
82.5075828197
  0
VERTEX
  8
0
 62
7
  6
CONTINUOUS
 10
170.1753229367
 20
82.6434246326
  0
VERTEX
  8
0
 62
7
  6
CONTINUOUS
 10
170.1107837554
 20
82.7650664033
  0
VERTEX
  8
0
 62
7
  6
CONTINUOUS
 10
170.0342561265
 20
82.8720076495
  0
VERTEX
  8
0
 62
7
  6
CONTINUOUS
 10
169.9493052498
 20
82.9636530465
  0
VERTEX
  8
0
 62
7
  6
CONTINUOUS
 10
169.8608236728
 20
83.0390162756
  0
VERTEX
  8
0
 62
7
  6
CONTINUOUS
 10
169.7736640107
 20
83.0985269499
  0
VERTEX
  8
0
 62
7
  6
CONTINUOUS
 10
169.6906496606
 20
83.1445445822
  0
VERTEX
  8
0
 62
7
  6
CONTINUOUS
 10
169.6133180875
 20
83.1798601779
  0
VERTEX
  8
0
 62
7
  6
CONTINUOUS
 10
169.5391007609
 20
83.2083135198
  0
VERTEX
  8
0
 62
7
  6
CONTINUOUS
 10
169.464827603
 20
83.2327839389
  0
VERTEX
  8
0
 62
7
  6
CONTINUOUS
 10
169.3857851883
 20
83.2557350818
  0
SEQEND
  0
POLYLINE
  8
0
 62
7
  6
CONTINUOUS
 66
1
 70
0
  0
VERTEX
  8
0
 62
7
  6
CONTINUOUS
 10
175.7649577489
 20
82.2208633007
  0
VERTEX
  8
0
 62
7
  6
CONTINUOUS
 10
175.7595368567
 20
82.3248574875
  0
VERTEX
  8
0
 62
7
  6
CONTINUOUS
 10
175.743397097
 20
82.4274224196
  0
VERTEX
  8
0
 62
7
  6
CONTINUOUS
 10
175.7177653601
 20
82.5244767299
  0
VERTEX
  8
0
 62
7
  6
CONTINUOUS
 10
175.6838067641
 20
82.6155260829
  0
VERTEX
  8
0
 62
7
  6
CONTINUOUS
 10
175.6426016808
 20
82.7002462847
  0
VERTEX
  8
0
 62
7
  6
CONTINUOUS
 10
175.5951353038
 20
82.7784505139
  0
VERTEX
  8
0
 62
7
  6
CONTINUOUS
 10
175.5422931489
 20
82.8500589952
  0
VERTEX
  8
0
 62
7
  6
CONTINUOUS
 10
175.4849738656
 20
82.9149551432
  0
VERTEX
  8
0
 62
7
  6
CONTINUOUS
 10
175.4241518989
 20
82.9730014761
  0
VERTEX
  8
0
 62
7
  6
CONTINUOUS
 10
175.3607483368
 20
83.0242078076
  0
VERTEX
  8
0
 62
7
  6
CONTINUOUS
 10
175.2956150078
 20
83.0687068264
  0
VERTEX
  8
0
 62
7
  6
CONTINUOUS
 10
175.2294941584
 20
83.1067484584
  0
VERTEX
  8
0
 62
7
  6
CONTINUOUS
 10
175.1636408299
 20
83.1383961671
  0
VERTEX
  8
0
 62
7
  6
CONTINUOUS
 10
175.1016756837
 20
83.1630947979
  0
VERTEX
  8
0
 62
7
  6
CONTINUOUS
 10
175.0477597789
 20
83.1809694538
  0
VERTEX
  8
0
 62
7
  6
CONTINUOUS
 10
175.0067565493
 20
83.1925713857
  0
VERTEX
  8
0
 62
7
  6
CONTINUOUS
 10
174.9742870585
 20
83.2007554817
  0
VERTEX
  8
0
 62
7
  6
CONTINUOUS
 10
174.944726753
 20
83.2076373813
  0
VERTEX
  8
0
 62
7
  6
CONTINUOUS
 10
174.9146536926
 20
83.2142600287
  0
VERTEX
  8
0
 62
7
  6
CONTINUOUS
 10
174.8812193684
 20
83.2213271951
  0
VERTEX
  8
0
 62
7
  6
CONTINUOUS
 10
174.8425622921
 20
83.2292426023
  0
VERTEX
  8
0
 62
7
  6
CONTINUOUS
 10
174.7441009884
 20
83.2486730801
  0
SEQEND
  0
LINE
  8
0
 62
7
  6
CONTINUOUS
 10
170.2625435978
 20
82.2340512263
 11
170.2625435978
 21
76.3392529313
  0
LINE
  8
0
 62
7
  6
CONTINUOUS
 10
175.7649614299
 20
82.2213171967
 11
175.7649614299
 21
76.3519869608
  0
ARC
  8
0
 62
7
  6
CONTINUOUS
 10
47.3806897823
 20
154.3009055391
 40
9.525
 50
333.0
 51
30.0
  0
ARC
  8
0
 62
7
  6
CONTINUOUS
 10
58.1819351554
 20
144.3188171012
 40
2.0
 50
234.9490410048
 51
320.0
  0
ARC
  8
0
 62
7
  6
CONTINUOUS
 10
56.0289624113
 20
145.888102481
 40
2.0
 50
153.0
 51
232.8749159104
  0
ARC
  8
0
 62
7
  6
CONTINUOUS
 10
52.7635563495
 20
162.0275071543
 40
1.5
 50
348.5903739739
 51
30.0
  0
ARC
  8
0
 62
7
  6
CONTINUOUS
 10
54.724032283
 20
161.6318632305
 40
0.5
 50
168.5903896413
 51
209.9994825528
  0
ARC
  8
0
 62
7
  6
CONTINUOUS
 10
29.3557658643
 20
187.5708374035
 40
9.525
 50
303.0
 51
360.0
  0
ARC
  8
0
 62
7
  6
CONTINUOUS
 10
45.0475309458
 20
173.3920551861
 40
2.0
 50
30.0
 51
110.0
  0
ARC
  8
0
 62
7
  6
CONTINUOUS
 10
33.718874531
 20
173.5254725468
 40
2.0
 50
204.9490410048
 51
290.0
  0
ARC
  8
0
 62
7
  6
CONTINUOUS
 10
32.6389881309
 20
175.9609999236
 40
2.0
 50
123.0
 51
202.8749159104
  0
ARC
  8
0
 62
7
  6
CONTINUOUS
 10
47.7635563495
 20
170.6877611921
 40
1.5
 50
30.0
 51
71.409574621
  0
ARC
  8
0
 62
7
  6
CONTINUOUS
 10
37.8807658643
 20
191.5708374035
 40
1.5
 50
318.5903069365
 51
360.0
  0
ARC
  8
0
 62
7
  6
CONTINUOUS
 10
37.8807658643
 20
201.5708374035
 40
1.5
 50
0.0
 51
41.4096906751
  0
ARC
  8
0
 62
7
  6
CONTINUOUS
 10
48.4011566275
 20
172.5834051158
 40
0.5
 50
209.9999183123
 51
251.4097645741
  0
ARC
  8
0
 62
7
  6
CONTINUOUS
 10
39.3807658643
 20
190.2479617479
 40
0.5
 50
138.5905656179
 51
179.999814678
  0
ARC
  8
0
 62
7
  6
CONTINUOUS
 10
39.3807658643
 20
202.893713059
 40
0.5
 50
180.0002108588
 51
221.4094141757
  0
ARC
  8
0
 62
7
  6
CONTINUOUS
 10
79.6256977287
 20
134.5007613214
 40
9.525
 50
3.0
 51
60.0
  0
ARC
  8
0
 62
7
  6
CONTINUOUS
 10
99.7507658643
 20
141.0008374035
 40
2.0
 50
90.0
 51
170.0
  0
ARC
  8
0
 62
7
  6
CONTINUOUS
 10
93.9708948333
 20
131.2566418379
 40
2.0
 50
264.9490410048
 51
350.0
  0
ARC
  8
0
 62
7
  6
CONTINUOUS
 10
91.3217230533
 20
131.5391964705
 40
2.0
 50
183.0
 51
262.8749159104
  0
ARC
  8
0
 62
7
  6
CONTINUOUS
 10
68.0595480817
 20
149.8676024849
 40
2.0
 50
60.0
 51
140.0
  0
ARC
  8
0
 62
7
  6
CONTINUOUS
 10
80.4240961135
 20
143.8836278887
 40
1.5
 50
18.5904270198
 51
60.0
  0
ARC
  8
0
 62
7
  6
CONTINUOUS
 10
71.7638420757
 20
148.8836278887
 40
1.5
 50
60.0
 51
101.4096258871
  0
ARC
  8
0
 62
7
  6
CONTINUOUS
 10
82.3197400373
 20
144.5212281666
 40
0.5
 50
198.5902305035
 51
240.0000826702
  0
ARC
  8
0
 62
7
  6
CONTINUOUS
 10
71.3681981519
 20
150.8441038221
 40
0.5
 50
240.0004971029
 51
281.4096107758
  0
ARC
  8
0
 62
7
  6
CONTINUOUS
 10
30.3806897823
 20
225.3959055391
 40
9.525
 50
273.0
 51
330.0
  0
ARC
  8
0
 62
7
  6
CONTINUOUS
 10
36.8807658643
 20
205.2708374035
 40
2.0
 50
0.0
 51
80.0
  0
ARC
  8
0
 62
7
  6
CONTINUOUS
 10
27.1365702988
 20
211.0507084345
 40
2.0
 50
174.9490410048
 51
260.0
  0
ARC
  8
0
 62
7
  6
CONTINUOUS
 10
27.4191249314
 20
213.6998802145
 40
2.0
 50
93.0
 51
172.8749159104
  0
ARC
  8
0
 62
7
  6
CONTINUOUS
 10
45.7475309458
 20
236.9620551861
 40
2.0
 50
330.0
 51
50.0
  0
ARC
  8
0
 62
7
  6
CONTINUOUS
 10
39.7635563495
 20
224.5975071543
 40
1.5
 50
288.5904270198
 51
330.0
  0
ARC
  8
0
 62
7
  6
CONTINUOUS
 10
44.7635563495
 20
233.2577611921
 40
1.5
 50
330.0
 51
11.4096258871
  0
ARC
  8
0
 62
7
  6
CONTINUOUS
 10
40.4011566275
 20
222.7018632305
 40
0.5
 50
108.5902477693
 51
150.0000778088
  0
ARC
  8
0
 62
7
  6
CONTINUOUS
 10
46.724032283
 20
233.6534051158
 40
0.5
 50
150.0005036097
 51
191.4096106433
  0
ARC
  8
0
 62
7
  6
CONTINUOUS
 10
50.180834
 20
257.6409134855
 40
9.525
 50
243.0
 51
300.0
  0
ARC
  8
0
 62
7
  6
CONTINUOUS
 10
40.1987455621
 20
246.8396681124
 40
2.0
 50
144.9490410048
 51
230.0
  0
ARC
  8
0
 62
7
  6
CONTINUOUS
 10
41.7680309419
 20
248.9926408565
 40
2.0
 50
63.0
 51
142.8749159104
  0
ARC
  8
0
 62
7
  6
CONTINUOUS
 10
57.9074356151
 20
252.2580469183
 40
1.5
 50
258.5903739739
 51
300.0
  0
ARC
  8
0
 62
7
  6
CONTINUOUS
 10
57.5117916914
 20
250.2975709848
 40
0.5
 50
78.5903881767
 51
119.9995515491
  0
ARC
  8
0
 62
7
  6
CONTINUOUS
 10
83.4507658643
 20
275.6658374035
 40
9.525
 50
213.0
 51
270.0
  0
ARC
  8
0
 62
7
  6
CONTINUOUS
 10
71.8409283844
 20
272.3826151369
 40
2.0
 50
33.0
 51
112.8749159104
  0
ARC
  8
0
 62
7
  6
CONTINUOUS
 10
69.4054010077
 20
271.3027287368
 40
2.0
 50
114.9490410048
 51
200.0
  0
ARC
  8
0
 62
7
  6
CONTINUOUS
 10
69.271983647
 20
259.974072322
 40
2.0
 50
300.0
 51
20.0
  0
ARC
  8
0
 62
7
  6
CONTINUOUS
 10
95.988353559
 20
240.7970278796
 40
1.5
 50
277.022428729
 51
313.3556557297
  0
ARC
  8
0
 62
7
  6
CONTINUOUS
 10
87.4507658643
 20
267.1408374035
 40
1.5
 50
228.5903069365
 51
270.0
  0
ARC
  8
0
 62
7
  6
CONTINUOUS
 10
97.4507658643
 20
267.1408374035
 40
1.5
 50
270.0
 51
311.4096906751
  0
ARC
  8
0
 62
7
  6
CONTINUOUS
 10
66.567689653
 20
257.2580469183
 40
1.5
 50
300.0
 51
341.409574621
  0
ARC
  8
0
 62
7
  6
CONTINUOUS
 10
86.1278902088
 20
265.6408374035
 40
0.5
 50
48.5905656179
 51
89.999814678
  0
ARC
  8
0
 62
7
  6
CONTINUOUS
 10
98.7736415199
 20
265.6408374035
 40
0.5
 50
90.0002077088
 51
131.4094164119
  0
ARC
  8
0
 62
7
  6
CONTINUOUS
 10
68.4633335767
 20
256.6204466403
 40
0.5
 50
119.9999181055
 51
161.4097661061
  0
ARC
  8
0
 62
7
  6
CONTINUOUS
 10
117.4507658643
 20
133.4758374035
 40
9.525
 50
33.0
 51
90.0
  0
ARC
  8
0
 62
7
  6
CONTINUOUS
 10
131.6295480817
 20
149.1676024849
 40
2.0
 50
120.0
 51
200.0
  0
ARC
  8
0
 62
7
  6
CONTINUOUS
 10
131.496130721
 20
137.8389460702
 40
2.0
 50
294.9490410048
 51
20.0
  0
ARC
  8
0
 62
7
  6
CONTINUOUS
 10
129.0606033442
 20
136.75905967
 40
2.0
 50
213.0
 51
292.8749159104
  0
ARC
  8
0
 62
7
  6
CONTINUOUS
 10
134.3338420757
 20
151.8836278887
 40
1.5
 50
120.0
 51
161.409574621
  0
ARC
  8
0
 62
7
  6
CONTINUOUS
 10
113.4507658643
 20
142.0008374035
 40
1.5
 50
48.5903069365
 51
90.0
  0
ARC
  8
0
 62
7
  6
CONTINUOUS
 10
103.4507658643
 20
142.0008374035
 40
1.5
 50
90.0
 51
131.4096906751
  0
CIRCLE
  8
LAY0001
 62
7
  6
CONTINUOUS
 10
130.2906720304
 20
165.5031877429
 40
1.275
  0
ARC
  8
LAY0001
 62
7
  6
CONTINUOUS
 10
129.7249866055
 20
168.3669702067
 40
1.0
 50
225.0
 51
315.0
  0
ARC
  8
LAY0001
 62
7
  6
CONTINUOUS
 10
129.9736538025
 20
168.4742160476
 40
0.9
 50
315.0
 51
11.2510114041
  0
ARC
  8
0
 62
7
  6
CONTINUOUS
 10
132.4381981519
 20
152.5212281666
 40
0.5
 50
299.9999183123
 51
341.4097645741
  0
ARC
  8
0
 62
7
  6
CONTINUOUS
 10
114.7736415199
 20
143.5008374035
 40
0.5
 50
228.5905907533
 51
269.9997826101
  0
ARC
  8
0
 62
7
  6
CONTINUOUS
 10
102.1278902088
 20
143.5008374035
 40
0.5
 50
270.0002077088
 51
311.4094164119
  0
ARC
  8
LAY0001
 62
7
  6
CONTINUOUS
 10
129.8310526226
 20
168.4023255458
 40
0.25
 50
225.0
 51
315.0
  0
ARC
  8
LAY0001
 62
7
  6
CONTINUOUS
 10
132.2705710177
 20
171.3368186877
 40
1.0
 50
45.0
 51
135.0
  0
ARC
  8
LAY0001
 62
7
  6
CONTINUOUS
 10
132.0219038206
 20
171.2295728468
 40
0.9
 50
135.0
 51
191.2510114041
  0
ARC
  8
LAY0001
 62
7
  6
CONTINUOUS
 10
129.9371186398
 20
168.8619449535
 40
0.5
 50
315.0
 51
45.0
  0
ARC
  8
LAY0001
 62
7
  6
CONTINUOUS
 10
132.0584389834
 20
170.8418439409
 40
0.5
 50
135.0
 51
225.0
  0
ARC
  8
LAY0001
 62
7
  6
CONTINUOUS
 10
132.1645050005
 20
171.3014633486
 40
0.25
 50
45.0
 51
135.0
  0
ARC
  8
0
 62
7
  6
CONTINUOUS
 10
150.7206977287
 20
151.5007613214
 40
9.525
 50
63.0
 51
120.0
  0
ARC
  8
0
 62
7
  6
CONTINUOUS
 10
160.7027861666
 20
162.3020066946
 40
2.0
 50
324.9490410048
 51
50.0
  0
ARC
  8
0
 62
7
  6
CONTINUOUS
 10
159.1335007868
 20
160.1490339504
 40
2.0
 50
243.0
 51
322.8749159104
  0
ARC
  8
0
 62
7
  6
CONTINUOUS
 10
142.9940961135
 20
156.8836278887
 40
1.5
 50
78.5903739739
 51
120.0
  0
ARC
  8
0
 62
7
  6
CONTINUOUS
 10
143.3897400373
 20
158.8441038221
 40
0.5
 50
258.5903896413
 51
299.9994825528
  0
ARC
  8
0
 62
7
  6
CONTINUOUS
 10
170.5208419464
 20
183.7457692678
 40
9.525
 50
93.0
 51
150.0
  0
ARC
  8
0
 62
7
  6
CONTINUOUS
 10
164.0207658643
 20
203.8708374035
 40
2.0
 50
180.0
 51
260.0
  0
ARC
  8
0
 62
7
  6
CONTINUOUS
 10
173.7649614299
 20
198.0909663724
 40
2.0
 50
354.9490410048
 51
80.0
  0
ARC
  8
0
 62
7
  6
CONTINUOUS
 10
173.4824067973
 20
195.4417945925
 40
2.0
 50
273.0
 51
352.8749159104
  0
ARC
  8
0
 62
7
  6
CONTINUOUS
 10
155.1540007829
 20
172.1796196208
 40
2.0
 50
150.0
 51
230.0
  0
ARC
  8
0
 62
7
  6
CONTINUOUS
 10
161.1379753791
 20
184.5441676527
 40
1.5
 50
108.5904270198
 51
150.0
  0
ARC
  8
0
 62
7
  6
CONTINUOUS
 10
156.1379753791
 20
175.8839136148
 40
1.5
 50
150.0
 51
191.4096258871
  0
ARC
  8
0
 62
7
  6
CONTINUOUS
 10
160.5003751012
 20
186.4398115764
 40
0.5
 50
288.5902305035
 51
330.0000826702
  0
ARC
  8
0
 62
7
  6
CONTINUOUS
 10
154.1774994457
 20
175.4882696911
 40
0.5
 50
330.0004971029
 51
11.4096107758
  0
ARC
  8
0
 62
7
  6
CONTINUOUS
 10
100.4507658643
 20
204.5708374035
 40
75.6
 50
82.8749159104
 51
84.9490410048
  0
ARC
  8
0
 62
7
  6
CONTINUOUS
 10
100.4507658643
 20
204.5708374035
 40
75.6
 50
292.8749159104
 51
294.9490410048
  0
ARC
  8
0
 62
7
  6
CONTINUOUS
 10
100.4507658643
 20
204.5708374035
 40
75.6
 50
262.8749159104
 51
264.9490410048
  0
ARC
  8
0
 62
7
  6
CONTINUOUS
 10
100.4507658643
 20
204.5708374035
 40
75.6
 50
232.8749159104
 51
234.9490410048
  0
ARC
  8
0
 62
7
  6
CONTINUOUS
 10
100.4507658643
 20
204.5708374035
 40
75.6
 50
202.8749159104
 51
204.9490410048
  0
ARC
  8
0
 62
7
  6
CONTINUOUS
 10
100.4507658643
 20
204.5708374035
 40
75.6
 50
172.8749159104
 51
174.9490410048
  0
ARC
  8
0
 62
7
  6
CONTINUOUS
 10
100.4507658643
 20
204.5708374035
 40
75.6
 50
142.8749159104
 51
144.9490410048
  0
ARC
  8
0
 62
7
  6
CONTINUOUS
 10
100.4507658643
 20
204.5708374035
 40
75.6
 50
112.8749159104
 51
114.9490410048
  0
ARC
  8
0
 62
7
  6
CONTINUOUS
 10
100.4507658643
 20
204.5708374035
 40
75.6
 50
52.8749159104
 51
54.9490410048
  0
ARC
  8
0
 62
7
  6
CONTINUOUS
 10
100.4507658643
 20
204.5708374035
 40
75.6
 50
22.8749159104
 51
24.9490410048
  0
ARC
  8
0
 62
7
  6
CONTINUOUS
 10
100.4507658643
 20
204.5708374035
 40
75.6
 50
352.8749159104
 51
354.9490410048
  0
ARC
  8
0
 62
7
  6
CONTINUOUS
 10
100.4507658643
 20
204.5708374035
 40
75.6
 50
322.8749159104
 51
324.9490410048
  0
ARC
  8
0
 62
7
  6
CONTINUOUS
 10
100.4507658643
 20
204.5708374035
 40
35.0
 50
97.022428729
 51
82.977571271
  0
CIRCLE
  8
0
 62
4
  6
CONTINUOUS
 10
100.4507658643
 20
204.5708374035
 40
9.525
  0
ARC
  8
0
 62
7
  6
CONTINUOUS
 10
100.4507658643
 20
236.0708374035
 40
5.0
 50
46.6443442704
 51
133.3556557296
  0
ARC
  8
0
 62
7
  6
CONTINUOUS
 10
104.9131781697
 20
240.7970278796
 40
1.5
 50
226.6443442704
 51
262.977571271
  0
ARC
  8
0
 62
7
  6
CONTINUOUS
 10
121.275834
 20
274.6409134855
 40
9.525
 50
183.0
 51
240.0
  0
ARC
  8
0
 62
7
  6
CONTINUOUS
 10
101.1507658643
 20
268.1408374035
 40
2.0
 50
270.0
 51
350.0
  0
ARC
  8
0
 62
7
  6
CONTINUOUS
 10
106.9306368954
 20
277.885032969
 40
2.0
 50
84.9490410048
 51
170.0
  0
ARC
  8
0
 62
7
  6
CONTINUOUS
 10
109.5798086753
 20
277.6024783364
 40
2.0
 50
3.0
 51
82.8749159104
  0
ARC
  8
0
 62
7
  6
CONTINUOUS
 10
132.841983647
 20
259.274072322
 40
2.0
 50
240.0
 51
320.0
  0
ARC
  8
0
 62
7
  6
CONTINUOUS
 10
120.4774356151
 20
265.2580469183
 40
1.5
 50
198.5904270198
 51
240.0
  0
ARC
  8
0
 62
7
  6
CONTINUOUS
 10
129.137689653
 20
260.2580469183
 40
1.5
 50
240.0
 51
281.4096258871
  0
ARC
  8
0
 62
7
  6
CONTINUOUS
 10
118.5817916914
 20
264.6204466403
 40
0.5
 50
18.5902305035
 51
60.0000826702
  0
ARC
  8
0
 62
7
  6
CONTINUOUS
 10
129.5333335767
 20
258.2975709848
 40
0.5
 50
60.0004971029
 51
101.4096107758
  0
ARC
  8
0
 62
7
  6
CONTINUOUS
 10
171.5457658643
 20
221.5708374035
 40
9.525
 50
123.0
 51
180.0
  0
ARC
  8
0
 62
7
  6
CONTINUOUS
 10
155.8540007829
 20
235.7496196208
 40
2.0
 50
210.0
 51
290.0
  0
ARC
  8
0
 62
7
  6
CONTINUOUS
 10
167.1826571976
 20
235.6162022601
 40
2.0
 50
24.9490410048
 51
110.0
  0
ARC
  8
0
 62
7
  6
CONTINUOUS
 10
168.2625435978
 20
233.1806748834
 40
2.0
 50
303.0
 51
22.8749159104
  0
ARC
  8
0
 62
7
  6
CONTINUOUS
 10
153.1379753791
 20
238.4539136148
 40
1.5
 50
210.0
 51
251.409574621
  0
ARC
  8
0
 62
7
  6
CONTINUOUS
 10
163.0207658643
 20
217.5708374035
 40
1.5
 50
138.5903069365
 51
180.0
  0
ARC
  8
0
 62
7
  6
CONTINUOUS
 10
163.0207658643
 20
207.5708374035
 40
1.5
 50
180.0
 51
221.4096906751
  0
ARC
  8
0
 62
7
  6
CONTINUOUS
 10
152.5003751012
 20
236.5582696911
 40
0.5
 50
29.9999183123
 51
71.4097645741
  0
ARC
  8
0
 62
7
  6
CONTINUOUS
 10
161.5207658643
 20
218.893713059
 40
0.5
 50
318.5905907533
 51
359.9997826101
  0
ARC
  8
0
 62
7
  6
CONTINUOUS
 10
161.5207658643
 20
206.2479617479
 40
0.5
 50
0.0002077088
 51
41.4094164119
  0
ARC
  8
0
 62
7
  6
CONTINUOUS
 10
153.5208419464
 20
254.8407692678
 40
9.525
 50
153.0
 51
210.0
  0
ARC
  8
0
 62
7
  6
CONTINUOUS
 10
142.7195965732
 20
264.8228577057
 40
2.0
 50
54.9490410048
 51
140.0
  0
ARC
  8
0
 62
7
  6
CONTINUOUS
 10
144.8725693174
 20
263.2535723259
 40
2.0
 50
333.0
 51
52.8749159104
  0
ARC
  8
0
 62
7
  6
CONTINUOUS
 10
148.1379753791
 20
247.1141676527
 40
1.5
 50
168.5903739739
 51
210.0
  0
ARC
  8
0
 62
7
  6
CONTINUOUS
 10
146.1774994457
 20
247.5098115764
 40
0.5
 50
348.5903896413
 51
29.9994825528
  0
ARC
  8
0
 62
7
  6
CONTINUOUS
 10
133.9507658643
 20
97.2866520788
 40
1.5
 50
0.0
 51
90.0
  0
ARC
  8
0
 62
7
  6
CONTINUOUS
 10
66.9507658643
 20
97.2866520788
 40
1.5
 50
90.0
 51
180.0
  0
ARC
  8
0
 62
7
  6
CONTINUOUS
 10
136.9507658643
 20
85.2866520788
 40
1.5
 50
180.0
 51
270.0
  0
ARC
  8
0
 62
7
  6
CONTINUOUS
 10
63.9507658643
 20
85.2866520788
 40
1.5
 50
270.0
 51
360.0
  0
ARC
  8
0
 62
7
  6
CONTINUOUS
 10
136.9507658643
 20
73.2866520788
 40
1.5
 50
90.0
 51
180.0
  0
ARC
  8
0
 62
7
  6
CONTINUOUS
 10
63.9507658643
 20
73.2866520788
 40
1.5
 50
0.0
 51
64.6119016841
  0
ARC
  8
0
 62
7
  6
CONTINUOUS
 10
133.9507658643
 20
61.2866520788
 40
1.5
 50
270.0
 51
360.0
  0
ARC
  8
0
 62
7
  6
CONTINUOUS
 10
66.9507658643
 20
61.2866520788
 40
1.5
 50
180.0
 51
270.0
  0
ENDSEC
  0
EOF
